  0
SECTION
  2
HEADER
  9
$ACADVER
  1
AC1021
  9
$DWGCODEPAGE
  3
ANSI_1252
  9
$EXTMAX
 10
210.0
 20
297.0
 30
0.0
  9
$EXTMIN
 10
0.0
 20
0.0
 30
0.0
  9
$LIMMIN
 10
0.0
 20
0.0
  9
$LIMMAX
 10
210.0
 20
297.0
  9
$VIEWCTR
 10
105.0
 20
148.5
  9
$VIEWSIZE
 40
297.0
  9
$CLAYER
  8
0
  9
$LTSCALE
 40
19.36
  9
$CELTYPE
  6
BYLAYER
  9
$DIMSCALE
 40
1.0
  9
$DIMASZ
 40
3.0
  9
$DIMEXO
 40
0.5
  9
$DIMDLI
 40
13.376
  9
$DIMEXE
 40
1.5
  9
$DIMCEN
 40
3.168
  9
$DIMLFAC
 40
1.0
  9
$DIMBLK
  1
_FILLED
  9
$DIMALT
 70
0
  9
$DIMALTF
 40
25.4
  9
$DIMTXT
 40
3.0
  9
$DIMTOL
 70
1
  9
$DIMLIM
 70
0
  9
$DIMTFAC
 40
1.0
  9
$DIMTP
 40
0.01
  9
$DIMTM
 40
0.01
  9
$DIMGAP
 40
0.625
  9
$DIMDSEP
 70
44
  9
$AUNITS
 70
0
  9
$PDMODE
 70
3
  9
$PDSIZE
 40
3.0
  9
$HANDSEED
  5
76A
  9
$TILEMODE
 70
1
  9
$MEASUREMENT
 70
1
  9
$INSUNITS
 70
4
  0
ENDSEC
  0
SECTION
  2
CLASSES
  0
CLASS
  1
ACDBDICTIONARYWDFLT
  2
AcDbDictionaryWithDefault
  3
AutoCAD 2000
 90
0
 91
1
280
0
281
0
  0
CLASS
  1
ACDBPLACEHOLDER
  2
AcDbPlaceHolder
  3
AutoCAD 2000
 90
0
 91
1
280
0
281
0
  0
CLASS
  1
LAYOUT
  2
AcDbLayout
  3
AutoCAD 2000
 90
0
 91
0
280
0
281
0
  0
ENDSEC
  0
SECTION
  2
TABLES
  0
TABLE
  2
VPORT
  5
8
100
AcDbSymbolTable
 70
2
  0
VPORT
  5
1F4
100
AcDbSymbolTableRecord
100
AcDbViewportTableRecord
  2
*ACTIVE
 70
0
 10
0.0
 20
0.0
 11
1.0
 21
1.0
 12
105.0
 22
148.5
 13
0.0
 23
0.0
 14
1.0
 24
1.0
 15
0.0
 25
0.0
 16
0.0
 26
0.0
 36
1.0
 17
0.0
 27
0.0
 37
0.0
 40
297.0
 41
0.7070707071
 42
50.0
 43
0.0
 44
0.0
 50
0.0
 51
0.0
 71
0
 72
100
 73
1
 74
1
 75
0
 76
0
 77
0
 78
0
  0
ENDTAB
  0
TABLE
  2
LTYPE
  5
5
100
AcDbSymbolTable
 70
6
  0
LTYPE
  5
14
100
AcDbSymbolTableRecord
100
AcDbLinetypeTableRecord
  2
BYBLOCK
 70
0
  3

 72
65
 73
0
 40
0.0
  0
LTYPE
  5
15
100
AcDbSymbolTableRecord
100
AcDbLinetypeTableRecord
  2
BYLAYER
 70
0
  3

 72
65
 73
0
 40
0.0
  0
LTYPE
  5
16
100
AcDbSymbolTableRecord
100
AcDbLinetypeTableRecord
  2
CONTINUOUS
 70
64
  3
Solid line
 72
65
 73
0
 40
0.0
  0
LTYPE
  5
1F5
100
AcDbSymbolTableRecord
100
AcDbLinetypeTableRecord
  2
CENTER
 70
64
  3
____ _ ____ _ ____ _ ____ _ ____ _ ____ _ ____
 72
65
 73
4
 40
0.6
 49
0.375
 74
0
 49
-0.075
 74
0
 49
0.075
 74
0
 49
-0.075
 74
0
  0
LTYPE
  5
1F6
100
AcDbSymbolTableRecord
100
AcDbLinetypeTableRecord
  2
HIDDEN
 70
64
  3
- - - - - - - - - - - - - - - - - - - -
 72
65
 73
2
 40
0.2
 49
0.1
 74
0
 49
-0.1
 74
0
  0
LTYPE
  5
1F7
100
AcDbSymbolTableRecord
100
AcDbLinetypeTableRecord
  2
PHANTOM
 70
64
  3
_____ _ _ _____ _ _ _____ _ _ _____
 72
65
 73
6
 40
0.8
 49
0.45
 74
0
 49
-0.05
 74
0
 49
0.1
 74
0
 49
-0.05
 74
0
 49
0.1
 74
0
 49
-0.05
 74
0
  0
LTYPE
  5
1F8
100
AcDbSymbolTableRecord
100
AcDbLinetypeTableRecord
  2
DOT
 70
64
  3
. . . . . . . . . . . . . . . . . . . .
 72
65
 73
2
 40
0.2
 49
0.1
 74
0
 49
-0.1
 74
0
  0
LTYPE
  5
1F9
100
AcDbSymbolTableRecord
100
AcDbLinetypeTableRecord
  2
DASHED
 70
64
  3
- - - - - - - - - - - - - - - - - - - -
 72
65
 73
2
 40
0.2
 49
0.1
 74
0
 49
-0.1
 74
0
  0
ENDTAB
  0
TABLE
  2
LAYER
  5
2
100
AcDbSymbolTable
 70
36
  0
LAYER
  5
10
100
AcDbSymbolTableRecord
100
AcDbLayerTableRecord
  2
0
 70
0
 62
7
  6
CONTINUOUS
370
-3
390
F
  0
LAYER
  5
1FA
100
AcDbSymbolTableRecord
100
AcDbLayerTableRecord
  2
DEFAULT_1
 70
0
 62
7
  6
CENTER
370
-3
390
F
  0
LAYER
  5
1FB
100
AcDbSymbolTableRecord
100
AcDbLayerTableRecord
  2
DEFAULT_2
 70
0
 62
7
  6
HIDDEN
370
-3
390
F
  0
LAYER
  5
1FC
100
AcDbSymbolTableRecord
100
AcDbLayerTableRecord
  2
DEFAULT_3
 70
0
 62
7
  6
PHANTOM
370
-3
390
F
  0
LAYER
  5
1FD
100
AcDbSymbolTableRecord
100
AcDbLayerTableRecord
  2
ASSI
 70
0
 62
7
  6
CONTINUOUS
370
-3
390
F
  0
LAYER
  5
1FE
100
AcDbSymbolTableRecord
100
AcDbLayerTableRecord
  2
COLOR17
 70
0
 62
7
  6
CONTINUOUS
370
-3
390
F
  0
LAYER
  5
1FF
100
AcDbSymbolTableRecord
100
AcDbLayerTableRecord
  2
COLOR3
 70
0
 62
7
  6
CONTINUOUS
370
-3
390
F
  0
LAYER
  5
200
100
AcDbSymbolTableRecord
100
AcDbLayerTableRecord
  2
COLOR5
 70
0
 62
7
  6
CONTINUOUS
370
-3
390
F
  0
LAYER
  5
201
100
AcDbSymbolTableRecord
100
AcDbLayerTableRecord
  2
COORDINATE
 70
0
 62
7
  6
CONTINUOUS
370
-3
390
F
  0
LAYER
  5
202
100
AcDbSymbolTableRecord
100
AcDbLayerTableRecord
  2
COORD_ORIGINE
 70
0
 62
7
  6
CONTINUOUS
370
-3
390
F
  0
LAYER
  5
203
100
AcDbSymbolTableRecord
100
AcDbLayerTableRecord
  2
COPY_PUBLISH
 70
0
 62
7
  6
CONTINUOUS
370
-3
390
F
  0
LAYER
  5
204
100
AcDbSymbolTableRecord
100
AcDbLayerTableRecord
  2
COSMETICI
 70
0
 62
7
  6
CONTINUOUS
370
-3
390
F
  0
LAYER
  5
205
100
AcDbSymbolTableRecord
100
AcDbLayerTableRecord
  2
CURVE
 70
0
 62
7
  6
CONTINUOUS
370
-3
390
F
  0
LAYER
  5
206
100
AcDbSymbolTableRecord
100
AcDbLayerTableRecord
  2
DRAFT
 70
0
 62
7
  6
CONTINUOUS
370
-3
390
F
  0
LAYER
  5
207
100
AcDbSymbolTableRecord
100
AcDbLayerTableRecord
  2
IMPORT
 70
0
 62
7
  6
CONTINUOUS
370
-3
390
F
  0
LAYER
  5
208
100
AcDbSymbolTableRecord
100
AcDbLayerTableRecord
  2
IMPORT_IGES
 70
0
 62
7
  6
CONTINUOUS
370
-3
390
F
  0
LAYER
  5
209
100
AcDbSymbolTableRecord
100
AcDbLayerTableRecord
  2
INCISIONI_LASER
 70
0
 62
7
  6
CONTINUOUS
370
-3
390
F
  0
LAYER
  5
20A
100
AcDbSymbolTableRecord
100
AcDbLayerTableRecord
  2
LAY0001
 70
0
 62
7
  6
CONTINUOUS
370
-3
390
F
  0
LAYER
  5
20B
100
AcDbSymbolTableRecord
100
AcDbLayerTableRecord
  2
NOTE
 70
0
 62
7
  6
CONTINUOUS
370
-3
390
F
  0
LAYER
  5
20C
100
AcDbSymbolTableRecord
100
AcDbLayerTableRecord
  2
PIANI
 70
0
 62
7
  6
CONTINUOUS
370
-3
390
F
  0
LAYER
  5
20D
100
AcDbSymbolTableRecord
100
AcDbLayerTableRecord
  2
PIANI_ORIGINE
 70
0
 62
7
  6
CONTINUOUS
370
-3
390
F
  0
LAYER
  5
20E
100
AcDbSymbolTableRecord
100
AcDbLayerTableRecord
  2
PIANI_RIFERIMENTO
 70
0
 62
7
  6
CONTINUOUS
370
-3
390
F
  0
LAYER
  5
20F
100
AcDbSymbolTableRecord
100
AcDbLayerTableRecord
  2
PUNTI
 70
0
 62
7
  6
CONTINUOUS
370
-3
390
F
  0
LAYER
  5
210
100
AcDbSymbolTableRecord
100
AcDbLayerTableRecord
  2
RACCORDO
 70
0
 62
7
  6
CONTINUOUS
370
-3
390
F
  0
LAYER
  5
211
100
AcDbSymbolTableRecord
100
AcDbLayerTableRecord
  2
SIMBOLI
 70
0
 62
7
  6
CONTINUOUS
370
-3
390
F
  0
LAYER
  5
212
100
AcDbSymbolTableRecord
100
AcDbLayerTableRecord
  2
SMUSSO
 70
0
 62
7
  6
CONTINUOUS
370
-3
390
F
  0
LAYER
  5
213
100
AcDbSymbolTableRecord
100
AcDbLayerTableRecord
  2
SNAPLINE
 70
0
 62
7
  6
CONTINUOUS
370
-3
390
F
  0
LAYER
  5
214
100
AcDbSymbolTableRecord
100
AcDbLayerTableRecord
  2
SUPERFICI
 70
0
 62
7
  6
CONTINUOUS
370
-3
390
F
  0
LAYER
  5
215
100
AcDbSymbolTableRecord
100
AcDbLayerTableRecord
  2
TRASH
 70
0
 62
7
  6
CONTINUOUS
370
-3
390
F
  0
LAYER
  5
216
100
AcDbSymbolTableRecord
100
AcDbLayerTableRecord
  2
XSEC_DATUMS
 70
0
 62
7
  6
CONTINUOUS
370
-3
390
F
  0
LAYER
  5
217
100
AcDbSymbolTableRecord
100
AcDbLayerTableRecord
  2
___SHELL
 70
0
 62
7
  6
CONTINUOUS
370
-3
390
F
  0
ENDTAB
  0
TABLE
  2
STYLE
  5
3
100
AcDbSymbolTable
 70
1
  0
STYLE
  5
11
100
AcDbSymbolTableRecord
100
AcDbTextStyleTableRecord
  2
STANDARD
 70
0
 40
0.0
 41
0.8
 50
0.0
 71
0
 42
0.2
  3
txt
  4

  0
STYLE
  5
218
100
AcDbSymbolTableRecord
100
AcDbTextStyleTableRecord
  2
TEXTSTYLE_1
 70
0
 40
0.0
 41
0.8
 50
0.0
 71
0
 42
0.2
  3
gdt
  4

  0
ENDTAB
  0
TABLE
  2
VIEW
  5
6
100
AcDbSymbolTable
 70
0
  0
ENDTAB
  0
TABLE
  2
UCS
  5
7
100
AcDbSymbolTable
 70
0
  0
ENDTAB
  0
TABLE
  2
APPID
  5
9
100
AcDbSymbolTable
 70
1
  0
APPID
  5
219
100
AcDbSymbolTableRecord
100
AcDbRegAppTableRecord
  2
ACAD
 70
0
  0
ENDTAB
  0
TABLE
  2
BLOCK_RECORD
  5
1
100
AcDbSymbolTable
 70
0
  0
BLOCK_RECORD
  5
21A
100
AcDbSymbolTableRecord
100
AcDbBlockTableRecord
  2
*Model_Space
  0
BLOCK_RECORD
  5
21B
100
AcDbSymbolTableRecord
100
AcDbBlockTableRecord
  2
*Paper_Space
  0
ENDTAB
  0
TABLE
  2
DIMSTYLE
  5
A
100
AcDbSymbolTable
 70
1
100
AcDbDimStyleTable
 71
0
  0
DIMSTYLE
105
21C
100
AcDbSymbolTableRecord
100
AcDbDimStyleTableRecord
  2
STANDARD
 70
0
  3

  4

 40
1.0
 41
3.0
 42
0.5
 43
0.38
 44
1.5
 45
0.0
 46
0.0
 47
0.01
 48
0.01
140
3.0
141
0.09
142
0.0
143
25.4
144
1.0
145
0.0
146
1.0
147
0.625
 71
1.0
 72
0.0
 73
0
 74
0
 75
0
 76
0
 77
1
 78
8
170
0
171
1
172
0
173
0
174
0
175
0
176
0
177
0
178
0
270
2
271
2
272
2
273
2
274
2
275
0
280
0
281
0
282
0
283
1
284
8
285
0
286
0
287
3
288
0
340
11
278
44
  0
ENDTAB
  0
ENDSEC
  0
SECTION
  2
BLOCKS
  0
BLOCK
  5
20
100
AcDbEntity
  8
0
100
AcDbBlockBegin
  2
*Model_Space
 70
0
 10
0.0
 20
0.0
 30
0.0
  3
*Model_Space
  1

  0
ENDBLK
  5
21
100
AcDbEntity
  8
0
100
AcDbBlockEnd
  0
BLOCK
  5
1C
100
AcDbEntity
  8
0
100
AcDbBlockBegin
  2
*Paper_Space
 70
0
 10
0.0
 20
0.0
 30
0.0
  3
*Paper_Space
  1

  0
ENDBLK
  5
1D
100
AcDbEntity
  8
0
100
AcDbBlockEnd
  0
ENDSEC
  0
SECTION
  2
ENTITIES
  0
LWPOLYLINE
  5
21D
100
AcDbEntity
  8
ASSI
100
AcDbPolyline
 62
7
  6
CONTINUOUS
 90
13
 70
0
 10
-7.5960267637
 20
-46.1504745044
 10
-7.5858666861
 20
-46.1442816709
 10
-7.5754234454
 20
-46.1385792937
 10
-7.5647207041
 20
-46.1333802903
 10
-7.5537827071
 20
-46.1286964367
 10
-7.5426342316
 20
-46.1245383412
 10
-7.5313005368
 20
-46.1209154208
 10
-7.5198072966
 20
-46.1178358808
 10
-7.5081805453
 20
-46.1153066948
 10
-7.4964466239
 20
-46.1133335884
 10
-7.4846321134
 20
-46.1119210283
 10
-7.4727637738
 20
-46.1110722127
 10
-7.4608684886
 20
-46.1107890625
  0
LWPOLYLINE
  5
21E
100
AcDbEntity
  8
ASSI
100
AcDbPolyline
 62
7
  6
CONTINUOUS
 90
3
 70
0
 10
-7.4833767325
 20
-95.1049670161
 10
-7.4955356635
 20
-95.1033489545
 10
-7.5084013823
 20
-95.1009678243
  0
LWPOLYLINE
  5
21F
100
AcDbEntity
  8
ASSI
100
AcDbPolyline
 62
7
  6
CONTINUOUS
 90
11
 70
0
 10
-7.5081805453
 20
-95.1062714302
 10
-7.5198072966
 20
-95.1037422442
 10
-7.5313005368
 20
-95.1006627042
 10
-7.5426342316
 20
-95.0970397838
 10
-7.5537827071
 20
-95.0928816883
 10
-7.5647207041
 20
-95.0881978347
 10
-7.5754234454
 20
-95.0829988313
 10
-7.5858666861
 20
-95.0772964541
 10
-7.5960267637
 20
-95.0711036206
 10
-7.6058806629
 20
-95.064434358
 10
-7.6154060617
 20
-95.0573037732
  0
LWPOLYLINE
  5
220
100
AcDbEntity
  8
ASSI
100
AcDbPolyline
 62
7
  6
CONTINUOUS
 90
27
 70
0
 10
-7.5084013823
 20
-95.1009678243
 10
-7.5211328475
 20
-95.0979147109
 10
-7.533687032
 20
-95.0941992712
 10
-7.546026836
 20
-95.0898327201
 10
-7.5581211921
 20
-95.0848262902
 10
-7.5699372703
 20
-95.0791935416
 10
-7.5814428708
 20
-95.0729497399
 10
-7.5926061892
 20
-95.0661120581
 10
-7.6033962684
 20
-95.0586994281
 10
-7.6137833942
 20
-95.0507322858
 10
-7.6237392314
 20
-95.0422323889
 10
-7.6332365658
 20
-95.0332229671
 10
-7.642249385
 20
-95.0237286739
 10
-7.6507529265
 20
-95.0137755705
 10
-7.6587238346
 20
-95.0033909812
 10
-7.6661402415
 20
-94.9926033909
 10
-7.6729818173
 20
-94.981442365
 10
-7.6792297965
 20
-94.9699385092
 10
-7.6848670448
 20
-94.9581233635
 10
-7.6898781002
 20
-94.9460293263
 10
-7.6942492153
 20
-94.9336895702
 10
-7.6979684048
 20
-94.9211379227
 10
-7.701025466
 20
-94.9084088088
 10
-7.7034120087
 20
-94.8955371692
 10
-7.7051214918
 20
-94.8825583117
 10
-7.7061492348
 20
-94.8695078134
 10
-7.7064881437
 20
-94.8578758924
  0
LWPOLYLINE
  5
221
100
AcDbEntity
  8
ASSI
100
AcDbPolyline
 62
7
  6
CONTINUOUS
 90
8
 70
0
 10
-7.6154060617
 20
-95.0573037732
 10
-7.6245813769
 20
-95.0497280214
 10
-7.6333858239
 20
-95.041724263
 10
-7.6417994583
 20
-95.0333106286
 10
-7.6498032167
 20
-95.0245061816
 10
-7.6573789685
 20
-95.0153308663
 10
-7.6645095533
 20
-95.0058054676
 10
-7.6711788159
 20
-94.9959515684
  0
LWPOLYLINE
  5
222
100
AcDbEntity
  8
ASSI
100
AcDbPolyline
 62
7
  6
CONTINUOUS
 90
8
 70
0
 10
-7.6573789685
 20
-46.2062472587
 10
-7.6498032167
 20
-46.1970719434
 10
-7.6417994583
 20
-46.1882674964
 10
-7.6333858239
 20
-46.179853862
 10
-7.6245813769
 20
-46.1718501036
 10
-7.6154060617
 20
-46.1642743518
 10
-7.6058806629
 20
-46.157143767
 10
-7.5960267637
 20
-46.1504745044
  0
LINE
  5
223
100
AcDbEntity
  8
ASSI
100
AcDbLine
 62
253
  6
CONTINUOUS
 10
-7.707467216
 20
-48.2178936955
 11
-7.6932568677
 21
-48.2107890625
  0
LWPOLYLINE
  5
224
100
AcDbEntity
  8
ASSI
100
AcDbPolyline
 62
253
  6
CONTINUOUS
 90
3
 70
0
 10
-5.5383517832
 20
-95.1049670161
 10
-5.5521795211
 20
-95.1060758213
 10
-5.565231861
 20
-95.1064172285
  0
LINE
  5
225
100
AcDbEntity
  8
ASSI
100
AcDbLine
 62
7
  6
CONTINUOUS
 10
-7.4564966546
 20
-95.1064172285
 11
-5.565231861
 21
-95.1064172285
  0
LINE
  5
226
100
AcDbEntity
  8
ASSI
100
AcDbLine
 62
7
  6
CONTINUOUS
 10
11.4435033454
 20
-95.1064172285
 11
13.334768139
 21
-95.1064172285
  0
LINE
  5
227
100
AcDbEntity
  8
ASSI
100
AcDbLine
 62
253
  6
CONTINUOUS
 10
-7.7064924238
 20
-94.8564214593
 11
-5.3152360918
 21
-94.8564214593
  0
LINE
  5
228
100
AcDbEntity
  8
ASSI
100
AcDbLine
 62
253
  6
CONTINUOUS
 10
11.1935075762
 20
-94.8564214593
 11
13.5847639082
 21
-94.8564214593
  0
LINE
  5
229
100
AcDbEntity
  8
ASSI
100
AcDbLine
 62
253
  6
CONTINUOUS
 10
-7.7064924238
 20
-94.4551266298
 11
-5.3152360918
 21
-94.4551266298
  0
LINE
  5
22A
100
AcDbEntity
  8
ASSI
100
AcDbLine
 62
253
  6
CONTINUOUS
 10
11.1935075762
 20
-94.4551266298
 11
13.5847639082
 21
-94.4551266298
  0
LINE
  5
22B
100
AcDbEntity
  8
ASSI
100
AcDbLine
 62
7
  6
CONTINUOUS
 10
-1.4608642578
 20
-94.4107890625
 11
7.3391357422
 21
-94.4107890625
  0
LINE
  5
22C
100
AcDbEntity
  8
ASSI
100
AcDbLine
 62
7
  6
CONTINUOUS
 10
6.4391357422
 20
-94.4049712327
 11
-0.5608642578
 21
-94.4049712327
  0
LINE
  5
22D
100
AcDbEntity
  8
ASSI
100
AcDbLine
 62
7
  6
CONTINUOUS
 10
7.2954850953
 20
-94.3671384156
 11
6.4391357422
 21
-94.3671384156
  0
LINE
  5
22E
100
AcDbEntity
  8
ASSI
100
AcDbLine
 62
7
  6
CONTINUOUS
 10
-0.5608642578
 20
-94.3671384156
 11
-1.4172136109
 21
-94.3671384156
  0
LINE
  5
22F
100
AcDbEntity
  8
ASSI
100
AcDbLine
 62
253
  6
CONTINUOUS
 10
13.334768139
 20
-94.2386202789
 11
11.4435033454
 21
-94.2386202789
  0
LINE
  5
230
100
AcDbEntity
  8
ASSI
100
AcDbLine
 62
253
  6
CONTINUOUS
 10
-5.565231861
 20
-94.2386202789
 11
-7.4564966546
 21
-94.2386202789
  0
LWPOLYLINE
  5
231
100
AcDbEntity
  8
ASSI
100
AcDbPolyline
 62
7
  6
CONTINUOUS
 90
5
 70
0
 10
-7.4608684886
 20
-95.1107890625
 10
-7.4727637738
 20
-95.1105059123
 10
-7.4846321134
 20
-95.1096570967
 10
-7.4964466239
 20
-95.1082445366
 10
-7.5081805453
 20
-95.1062714302
  0
LWPOLYLINE
  5
232
100
AcDbEntity
  8
ASSI
100
AcDbPolyline
 62
7
  6
CONTINUOUS
 90
5
 70
0
 10
11.4391315114
 20
-95.1107890625
 10
11.4272362262
 20
-95.1105059123
 10
11.4153678866
 20
-95.1096570967
 10
11.4035533761
 20
-95.1082445366
 10
11.3918194547
 20
-95.1062714302
  0
LWPOLYLINE
  5
233
100
AcDbEntity
  8
ASSI
100
AcDbPolyline
 62
253
  6
CONTINUOUS
 90
3
 70
0
 10
-7.4564966546
 20
-95.1064172285
 10
-7.4695489946
 20
-95.1060758213
 10
-7.4833767325
 20
-95.1049670161
  0
LWPOLYLINE
  5
234
100
AcDbEntity
  8
ASSI
100
AcDbPolyline
 62
7
  6
CONTINUOUS
 90
31
 70
0
 10
11.4435033454
 20
-95.1064172285
 10
11.4304198594
 20
-95.1060741899
 10
11.4173722328
 20
-95.1050469
 10
11.4043962267
 20
-95.1033381745
 10
11.3915274058
 20
-95.1009526965
 10
11.3788010413
 20
-95.0978970043
 10
11.3662520136
 20
-95.0941794729
 10
11.3539147173
 20
-95.0898102914
 10
11.3418229667
 20
-95.0848014349
 10
11.3300099029
 20
-95.0791666318
 10
11.3185079033
 20
-95.0729213259
 10
11.3073484928
 20
-95.0660826345
 10
11.2965622572
 20
-95.0586693011
 10
11.2861787596
 20
-95.0507016443
 10
11.2762264591
 20
-95.042201502
 10
11.2667326332
 20
-95.0331921715
 10
11.2577233026
 20
-95.0236983456
 10
11.2492231603
 20
-95.0137460451
 10
11.2412555036
 20
-95.0033625475
 10
11.2338421702
 20
-94.9925763119
 10
11.2270034788
 20
-94.9814169014
 10
11.2207581729
 20
-94.9699149018
 10
11.2151233697
 20
-94.958101838
 10
11.2101145132
 20
-94.9460100874
 10
11.2057453318
 20
-94.9336727911
 10
11.2020278004
 20
-94.9211237634
 10
11.1989721082
 20
-94.9083973989
 10
11.1965866302
 20
-94.895528578
 10
11.1948779046
 20
-94.8825525719
 10
11.1938506148
 20
-94.8695049453
 10
11.1935075762
 20
-94.8564214593
  0
LINE
  5
235
100
AcDbEntity
  8
ASSI
100
AcDbLine
 62
253
  6
CONTINUOUS
 10
-7.6932568677
 20
-93.0107890625
 11
-7.707467216
 21
-93.0036844295
  0
LINE
  5
236
100
AcDbEntity
  8
ASSI
100
AcDbLine
 62
7
  6
CONTINUOUS
 10
-5.1448888246
 20
-49.6190807983
 11
-5.3073769669
 21
-49.7003186821
  0
LINE
  5
237
100
AcDbEntity
  8
ASSI
100
AcDbLine
 62
7
  6
CONTINUOUS
 10
13.6106241394
 20
-93.0092628023
 11
13.6320791882
 21
-93.0071163664
  0
LINE
  5
238
100
AcDbEntity
  8
ASSI
100
AcDbLine
 62
7
  6
CONTINUOUS
 10
13.5891348813
 20
-93.0104802612
 11
13.6106241394
 21
-93.0092628023
  0
LINE
  5
239
100
AcDbEntity
  8
ASSI
100
AcDbLine
 62
7
  6
CONTINUOUS
 10
13.5891357422
 20
-93.0104790305
 11
13.5852240493
 21
-93.0106015058
  0
LINE
  5
23A
100
AcDbEntity
  8
ASSI
100
AcDbLine
 62
7
  6
CONTINUOUS
 10
13.5852240493
 20
-93.0106015058
 11
13.5813116177
 21
-93.0106933667
  0
LINE
  5
23B
100
AcDbEntity
  8
ASSI
100
AcDbLine
 62
7
  6
CONTINUOUS
 10
13.5813116177
 20
-93.0106933667
 11
13.5773985374
 21
-93.0107546115
  0
LINE
  5
23C
100
AcDbEntity
  8
ASSI
100
AcDbLine
 62
7
  6
CONTINUOUS
 10
13.5773985374
 20
-93.0107546115
 11
13.5734851678
 21
-93.0107852341
  0
LINE
  5
23D
100
AcDbEntity
  8
ASSI
100
AcDbLine
 62
7
  6
CONTINUOUS
 10
-7.4615872557
 20
-93.7334387933
 11
-5.5601412599
 21
-93.7334387933
  0
LINE
  5
23E
100
AcDbEntity
  8
ASSI
100
AcDbLine
 62
7
  6
CONTINUOUS
 10
11.4384127443
 20
-93.7334387933
 11
13.3398587401
 21
-93.7334387933
  0
LINE
  5
23F
100
AcDbEntity
  8
ASSI
100
AcDbLine
 62
7
  6
CONTINUOUS
 10
7.3391357422
 20
-93.0107890625
 11
13.5734851678
 21
-93.0107852341
  0
LINE
  5
240
100
AcDbEntity
  8
ASSI
100
AcDbLine
 62
7
  6
CONTINUOUS
 10
-7.7107119327
 20
-93.0020621947
 11
-4.3195911256
 21
-93.0020621947
  0
LINE
  5
241
100
AcDbEntity
  8
ASSI
100
AcDbLine
 62
7
  6
CONTINUOUS
 10
-0.5608642578
 20
-93.0020621947
 11
-0.0608642578
 21
-93.0020621947
  0
LINE
  5
242
100
AcDbEntity
  8
ASSI
100
AcDbLine
 62
7
  6
CONTINUOUS
 10
5.9391357422
 20
-93.0020621947
 11
6.4391357422
 21
-93.0020621947
  0
LINE
  5
243
100
AcDbEntity
  8
ASSI
100
AcDbLine
 62
7
  6
CONTINUOUS
 10
10.19786261
 20
-93.0020621947
 11
13.588983417
 21
-93.0020621947
  0
LINE
  5
244
100
AcDbEntity
  8
ASSI
100
AcDbLine
 62
253
  6
CONTINUOUS
 10
-4.398209091
 20
-92.9234442293
 11
-0.0608642578
 21
-92.9234442293
  0
LINE
  5
245
100
AcDbEntity
  8
ASSI
100
AcDbLine
 62
253
  6
CONTINUOUS
 10
5.9391357422
 20
-92.9234442293
 11
10.2764805754
 21
-92.9234442293
  0
LINE
  5
246
100
AcDbEntity
  8
ASSI
100
AcDbLine
 62
7
  6
CONTINUOUS
 10
5.9391357422
 20
-92.3107890625
 11
-0.0608642578
 21
-92.3107890625
  0
LINE
  5
247
100
AcDbEntity
  8
ASSI
100
AcDbLine
 62
7
  6
CONTINUOUS
 10
-1.4608642578
 20
-93.0107890625
 11
-7.6952136834
 21
-93.0107852341
  0
LINE
  5
248
100
AcDbEntity
  8
ASSI
100
AcDbLine
 62
7
  6
CONTINUOUS
 10
-7.6952136834
 20
-93.0107852341
 11
-7.699127053
 21
-93.0107546115
  0
LINE
  5
249
100
AcDbEntity
  8
ASSI
100
AcDbLine
 62
7
  6
CONTINUOUS
 10
-7.699127053
 20
-93.0107546115
 11
-7.7030401333
 21
-93.0106933667
  0
LINE
  5
24A
100
AcDbEntity
  8
ASSI
100
AcDbLine
 62
7
  6
CONTINUOUS
 10
-7.7030401333
 20
-93.0106933667
 11
-7.7069525649
 21
-93.0106015058
  0
LINE
  5
24B
100
AcDbEntity
  8
ASSI
100
AcDbLine
 62
7
  6
CONTINUOUS
 10
-7.7069525649
 20
-93.0106015058
 11
-7.7108642578
 21
-93.0104790305
  0
LWPOLYLINE
  5
24C
100
AcDbEntity
  8
ASSI
100
AcDbPolyline
 62
7
  6
CONTINUOUS
 90
9
 70
0
 10
11.3918194547
 20
-95.1062714302
 10
11.3801927034
 20
-95.1037422442
 10
11.3686994632
 20
-95.1006627042
 10
11.3573657684
 20
-95.0970397838
 10
11.3462172929
 20
-95.0928816883
 10
11.3352792959
 20
-95.0881978347
 10
11.3245765546
 20
-95.0829988313
 10
11.3141333139
 20
-95.0772964541
 10
11.3039732363
 20
-95.0711036206
  0
LINE
  5
24D
100
AcDbEntity
  8
ASSI
100
AcDbLine
 62
7
  6
CONTINUOUS
 10
-5.1448888246
 20
-91.6024973267
 11
-5.3073769669
 21
-91.5212594429
  0
LWPOLYLINE
  5
24E
100
AcDbEntity
  8
ASSI
100
AcDbPolyline
 62
7
  6
CONTINUOUS
 90
13
 70
0
 10
-7.6711788159
 20
-94.9959515684
 10
-7.6773716494
 20
-94.9857914908
 10
-7.6830740266
 20
-94.9753482501
 10
-7.68827303
 20
-94.9646455088
 10
-7.6929568836
 20
-94.9537075118
 10
-7.6971149792
 20
-94.9425590363
 10
-7.7007378995
 20
-94.9312253415
 10
-7.7038174395
 20
-94.9197321013
 10
-7.7063466255
 20
-94.90810535
 10
-7.708319732
 20
-94.8963714286
 10
-7.709732292
 20
-94.8845569181
 10
-7.7105811076
 20
-94.8726885785
 10
-7.7108642578
 20
-94.8607932933
  0
LINE
  5
24F
100
AcDbEntity
  8
ASSI
100
AcDbLine
 62
7
  6
CONTINUOUS
 10
-5.3108642578
 20
-49.2107890625
 11
-4.3195911256
 21
-48.2195159303
  0
LINE
  5
250
100
AcDbEntity
  8
ASSI
100
AcDbLine
 62
253
  6
CONTINUOUS
 10
-4.644964977
 20
-91.9234823062
 11
-0.0608642578
 21
-91.9234823062
  0
LINE
  5
251
100
AcDbEntity
  8
ASSI
100
AcDbLine
 62
253
  6
CONTINUOUS
 10
5.9391357422
 20
-91.9234823062
 11
10.5232364613
 21
-91.9234823062
  0
LINE
  5
252
100
AcDbEntity
  8
ASSI
100
AcDbLine
 62
7
  6
CONTINUOUS
 10
5.9391357422
 20
-91.6107890625
 11
-0.0608642578
 21
-91.6107890625
  0
LINE
  5
253
100
AcDbEntity
  8
ASSI
100
AcDbLine
 62
7
  6
CONTINUOUS
 10
-4.644964977
 20
-91.6067846082
 11
-4.3026859597
 21
-91.6067846082
  0
LINE
  5
254
100
AcDbEntity
  8
ASSI
100
AcDbLine
 62
7
  6
CONTINUOUS
 10
10.1809574441
 20
-91.6067846082
 11
10.5232364613
 21
-91.6067846082
  0
LINE
  5
255
100
AcDbEntity
  8
ASSI
100
AcDbLine
 62
7
  6
CONTINUOUS
 10
-5.3073769669
 20
-91.5212594429
 11
-4.3597019324
 21
-91.5212594429
  0
LINE
  5
256
100
AcDbEntity
  8
ASSI
100
AcDbLine
 62
7
  6
CONTINUOUS
 10
10.2379734168
 20
-91.5212594429
 11
11.1856484513
 21
-91.5212594429
  0
LINE
  5
257
100
AcDbEntity
  8
ASSI
100
AcDbLine
 62
7
  6
CONTINUOUS
 10
12.0895163419
 20
-91.5107890625
 11
11.1891357422
 21
-91.5107890625
  0
LINE
  5
258
100
AcDbEntity
  8
ASSI
100
AcDbLine
 62
7
  6
CONTINUOUS
 10
-5.3108642578
 20
-91.5107890625
 11
-6.2112448575
 21
-91.5107890625
  0
LINE
  5
259
100
AcDbEntity
  8
ASSI
100
AcDbLine
 62
7
  6
CONTINUOUS
 10
12.0266781082
 20
-91.3221210571
 11
10.2600799295
 21
-91.3221210571
  0
LINE
  5
25A
100
AcDbEntity
  8
ASSI
100
AcDbLine
 62
7
  6
CONTINUOUS
 10
-4.3818084451
 20
-91.3221210571
 11
-6.1484066238
 21
-91.3221210571
  0
LINE
  5
25B
100
AcDbEntity
  8
ASSI
100
AcDbLine
 62
253
  6
CONTINUOUS
 10
9.4973140403
 20
-91.1937133457
 11
-3.6190425559
 21
-91.1937133457
  0
LINE
  5
25C
100
AcDbEntity
  8
ASSI
100
AcDbLine
 62
7
  6
CONTINUOUS
 10
9.4944305101
 20
-90.6937323842
 11
-3.6161590258
 21
-90.6937323842
  0
LINE
  5
25D
100
AcDbEntity
  8
ASSI
100
AcDbLine
 62
7
  6
CONTINUOUS
 10
7.1391357422
 20
-90.6107890625
 11
-1.2608642578
 21
-90.6107890625
  0
LINE
  5
25E
100
AcDbEntity
  8
ASSI
100
AcDbLine
 62
7
  6
CONTINUOUS
 10
-3.5399200705
 20
-90.5793723385
 11
-1.5608642578
 21
-90.5793723385
  0
LINE
  5
25F
100
AcDbEntity
  8
ASSI
100
AcDbLine
 62
7
  6
CONTINUOUS
 10
7.4391357422
 20
-90.5793723385
 11
9.4181915549
 21
-90.5793723385
  0
LINE
  5
260
100
AcDbEntity
  8
ASSI
100
AcDbLine
 62
253
  6
CONTINUOUS
 10
-6.6480260241
 20
-90.4107890625
 11
-4.3818084451
 21
-90.4107890625
  0
LINE
  5
261
100
AcDbEntity
  8
ASSI
100
AcDbLine
 62
253
  6
CONTINUOUS
 10
-3.5399200705
 20
-90.4107890625
 11
-1.5608642578
 21
-90.4107890625
  0
LINE
  5
262
100
AcDbEntity
  8
ASSI
100
AcDbLine
 62
253
  6
CONTINUOUS
 10
7.4391357422
 20
-90.4107890625
 11
9.4181915549
 21
-90.4107890625
  0
LINE
  5
263
100
AcDbEntity
  8
ASSI
100
AcDbLine
 62
253
  6
CONTINUOUS
 10
10.2600799295
 20
-90.4107890625
 11
12.5262975084
 21
-90.4107890625
  0
LINE
  5
264
100
AcDbEntity
  8
ASSI
100
AcDbLine
 62
7
  6
CONTINUOUS
 10
-5.3108642578
 20
-92.0107890625
 11
-4.3195911256
 21
-93.0020621947
  0
LINE
  5
265
100
AcDbEntity
  8
ASSI
100
AcDbLine
 62
7
  6
CONTINUOUS
 10
-4.3026859597
 20
-49.6147935168
 11
-4.3597019324
 21
-49.7003186821
  0
LINE
  5
266
100
AcDbEntity
  8
ASSI
100
AcDbLine
 62
7
  6
CONTINUOUS
 10
-0.6547199755
 20
-46.9873417784
 11
-0.6812666813
 21
-47.0177115092
  0
LINE
  5
267
100
AcDbEntity
  8
ASSI
100
AcDbLine
 62
7
  6
CONTINUOUS
 10
-0.6812666813
 20
-47.0177115092
 11
-0.7116728087
 21
-47.051959242
  0
LINE
  5
268
100
AcDbEntity
  8
ASSI
100
AcDbLine
 62
7
  6
CONTINUOUS
 10
-0.7116728087
 20
-47.051959242
 11
-0.7459426077
 21
-47.0900730074
  0
LINE
  5
269
100
AcDbEntity
  8
ASSI
100
AcDbLine
 62
7
  6
CONTINUOUS
 10
-0.7459426077
 20
-47.0900730074
 11
-0.8044360803
 21
-47.1543872316
  0
LINE
  5
26A
100
AcDbEntity
  8
ASSI
100
AcDbLine
 62
7
  6
CONTINUOUS
 10
-0.8044360803
 20
-47.1543872316
 11
-0.9888342455
 21
-47.3544312478
  0
LINE
  5
26B
100
AcDbEntity
  8
ASSI
100
AcDbLine
 62
7
  6
CONTINUOUS
 10
-6.6392984916
 20
-89.9107890625
 11
-4.38471736
 21
-89.9107890625
  0
LINE
  5
26C
100
AcDbEntity
  8
ASSI
100
AcDbLine
 62
7
  6
CONTINUOUS
 10
-3.5370111556
 20
-89.9107890625
 11
-1.5608642578
 21
-89.9107890625
  0
LINE
  5
26D
100
AcDbEntity
  8
ASSI
100
AcDbLine
 62
7
  6
CONTINUOUS
 10
7.4391357422
 20
-89.9107890625
 11
9.41528264
 21
-89.9107890625
  0
LINE
  5
26E
100
AcDbEntity
  8
ASSI
100
AcDbLine
 62
7
  6
CONTINUOUS
 10
10.2629888444
 20
-89.9107890625
 11
12.517569976
 21
-89.9107890625
  0
LINE
  5
26F
100
AcDbEntity
  8
ASSI
100
AcDbLine
 62
7
  6
CONTINUOUS
 10
-0.9888342455
 20
-93.8671468772
 11
-0.7841632431
 21
-94.0894027947
  0
LINE
  5
270
100
AcDbEntity
  8
ASSI
100
AcDbLine
 62
7
  6
CONTINUOUS
 10
-0.7841632431
 20
-94.0894027947
 11
-0.7461445719
 21
-94.1312817849
  0
LINE
  5
271
100
AcDbEntity
  8
ASSI
100
AcDbLine
 62
7
  6
CONTINUOUS
 10
-0.7461445719
 20
-94.1312817849
 11
-0.7119189226
 21
-94.169344045
  0
LINE
  5
272
100
AcDbEntity
  8
ASSI
100
AcDbLine
 62
7
  6
CONTINUOUS
 10
-0.7119189226
 20
-94.169344045
 11
-0.6815487278
 21
-94.2035466562
  0
LWPOLYLINE
  5
273
100
AcDbEntity
  8
ASSI
100
AcDbPolyline
 62
7
  6
CONTINUOUS
 90
18
 70
0
 10
-0.6815487278
 20
-94.2035466562
 10
-0.6550148271
 20
-94.2338961735
 10
-0.6431164568
 20
-94.2477160371
 10
-0.6321084353
 20
-94.2606550658
 10
-0.6219773515
 20
-94.2727154741
 10
-0.6126714896
 20
-94.283977835
 10
-0.6041864446
 20
-94.2944446016
 10
-0.5965099415
 20
-94.3041133208
 10
-0.5895954664
 20
-94.3130572058
 10
-0.5834282598
 20
-94.321295432
 10
-0.57802132
 20
-94.3288088241
 10
-0.573375681
 20
-94.3356130697
 10
-0.5694814241
 20
-94.3417003051
 10
-0.566328344
 20
-94.347078394
 10
-0.5639080071
 20
-94.3517866153
 10
-0.5622038887
 20
-94.3558380621
 10
-0.5611958025
 20
-94.3592196412
 10
-0.5608642578
 20
-94.3619313528
  0
LINE
  5
274
100
AcDbEntity
  8
ASSI
100
AcDbLine
 62
7
  6
CONTINUOUS
 10
-4.3026859597
 20
-91.6067846082
 11
-4.3597019324
 21
-91.5212594429
  0
LWPOLYLINE
  5
275
100
AcDbEntity
  8
ASSI
100
AcDbPolyline
 62
7
  6
CONTINUOUS
 90
11
 70
0
 10
-7.7063466255
 20
-46.313472775
 10
-7.7038174395
 20
-46.3018460237
 10
-7.7007378995
 20
-46.2903527835
 10
-7.6971149792
 20
-46.2790190887
 10
-7.6929568836
 20
-46.2678706132
 10
-7.68827303
 20
-46.2569326162
 10
-7.6830740266
 20
-46.2462298749
 10
-7.6773716494
 20
-46.2357866342
 10
-7.6711788159
 20
-46.2256265566
 10
-7.6645095533
 20
-46.2157726574
 10
-7.6573789685
 20
-46.2062472587
  0
LWPOLYLINE
  5
276
100
AcDbEntity
  8
ASSI
100
AcDbPolyline
 62
7
  6
CONTINUOUS
 90
27
 70
0
 10
-7.7010430196
 20
-46.313251938
 10
-7.6979899062
 20
-46.3005204728
 10
-7.6942744665
 20
-46.2879662883
 10
-7.6899079154
 20
-46.2756264843
 10
-7.6849014855
 20
-46.2635321282
 10
-7.6792687369
 20
-46.25171605
 10
-7.6730249352
 20
-46.2402104495
 10
-7.6661872534
 20
-46.2290471311
 10
-7.6587746234
 20
-46.2182570519
 10
-7.6508074812
 20
-46.2078699261
 10
-7.6423075842
 20
-46.1979140889
 10
-7.6332981624
 20
-46.1884167545
 10
-7.6238038692
 20
-46.1794039354
 10
-7.6138507658
 20
-46.1709003938
 10
-7.6034661766
 20
-46.1629294857
 10
-7.5926785862
 20
-46.1555130788
 10
-7.5815175603
 20
-46.148671503
 10
-7.5700137045
 20
-46.1424235238
 10
-7.5581985588
 20
-46.1367862756
 10
-7.5461045216
 20
-46.1317752201
 10
-7.5337647655
 20
-46.127404105
 10
-7.521213118
 20
-46.1236849155
 10
-7.5084840041
 20
-46.1206278544
 10
-7.4956123645
 20
-46.1182413116
 10
-7.4826335071
 20
-46.1165318285
 10
-7.4695830087
 20
-46.1155040855
 10
-7.4579510877
 20
-46.1151651766
  0
LWPOLYLINE
  5
277
100
AcDbEntity
  8
ASSI
100
AcDbPolyline
 62
7
  6
CONTINUOUS
 90
8
 70
0
 10
-0.5894585561
 20
-46.908341005
 10
-0.596333253
 20
-46.9172388974
 10
-0.6039690014
 20
-46.9268610952
 10
-0.6124189903
 20
-46.9372919307
 10
-0.6217023679
 20
-46.9485341626
 10
-0.6318221522
 20
-46.9605850322
 10
-0.6428240797
 20
-46.973520596
 10
-0.6547199755
 20
-46.9873417784
  0
LINE
  5
278
100
AcDbEntity
  8
ASSI
100
AcDbLine
 62
253
  6
CONTINUOUS
 10
-1.5608642578
 20
-88.4107890625
 11
7.4391357422
 21
-88.4107890625
  0
LINE
  5
279
100
AcDbEntity
  8
ASSI
100
AcDbLine
 62
7
  6
CONTINUOUS
 10
-1.2608642578
 20
-87.9107890625
 11
7.1391357422
 21
-87.9107890625
  0
LINE
  5
27A
100
AcDbEntity
  8
ASSI
100
AcDbLine
 62
7
  6
CONTINUOUS
 10
6.4391357422
 20
-86.8107890625
 11
-0.5608642578
 21
-86.8107890625
  0
LWPOLYLINE
  5
27B
100
AcDbEntity
  8
ASSI
100
AcDbPolyline
 62
7
  6
CONTINUOUS
 90
3
 70
0
 10
-7.7050422114
 20
-46.3382765878
 10
-7.7034241498
 20
-46.3261176568
 10
-7.7010430196
 20
-46.313251938
  0
LINE
  5
27C
100
AcDbEntity
  8
ASSI
100
AcDbLine
 62
7
  6
CONTINUOUS
 10
-5.3108642578
 20
-49.7107890625
 11
-5.3073769669
 21
-49.7003186821
  0
LWPOLYLINE
  5
27D
100
AcDbEntity
  8
ASSI
100
AcDbPolyline
 62
7
  6
CONTINUOUS
 90
15
 70
0
 10
11.2845939383
 20
-46.1642743518
 10
11.2941193371
 20
-46.157143767
 10
11.3039732363
 20
-46.1504745044
 10
11.3141333139
 20
-46.1442816709
 10
11.3245765546
 20
-46.1385792937
 10
11.3352792959
 20
-46.1333802903
 10
11.3462172929
 20
-46.1286964367
 10
11.3573657684
 20
-46.1245383412
 10
11.3686994632
 20
-46.1209154208
 10
11.3801927034
 20
-46.1178358808
 10
11.3918194547
 20
-46.1153066948
 10
11.4035533761
 20
-46.1133335884
 10
11.4153678866
 20
-46.1119210283
 10
11.4272362262
 20
-46.1110722127
 10
11.4391315114
 20
-46.1107890625
  0
LINE
  5
27E
100
AcDbEntity
  8
RACCORDO
100
AcDbLine
 62
7
  6
CONTINUOUS
 10
-0.5608642578
 20
-86.2107890625
 11
-0.4608642578
 21
-86.2107890625
  0
LINE
  5
27F
100
AcDbEntity
  8
RACCORDO
100
AcDbLine
 62
7
  6
CONTINUOUS
 10
6.3391357422
 20
-86.2107890625
 11
6.4391357422
 21
-86.2107890625
  0
LINE
  5
280
100
AcDbEntity
  8
ASSI
100
AcDbLine
 62
253
  6
CONTINUOUS
 10
-6.5904243098
 20
-85.8900869044
 11
-0.5608642578
 21
-85.8900869044
  0
LINE
  5
281
100
AcDbEntity
  8
ASSI
100
AcDbLine
 62
253
  6
CONTINUOUS
 10
6.4391357422
 20
-85.8900869044
 11
12.4686957942
 21
-85.8900869044
  0
LINE
  5
282
100
AcDbEntity
  8
ASSI
100
AcDbLine
 62
7
  6
CONTINUOUS
 10
-0.5608642578
 20
-85.8107890625
 11
-0.4608642578
 21
-85.8107890625
  0
LINE
  5
283
100
AcDbEntity
  8
ASSI
100
AcDbLine
 62
7
  6
CONTINUOUS
 10
6.3391357422
 20
-85.8107890625
 11
6.4391357422
 21
-85.8107890625
  0
LINE
  5
284
100
AcDbEntity
  8
ASSI
100
AcDbLine
 62
7
  6
CONTINUOUS
 10
-0.5608642578
 20
-85.6107890625
 11
-0.4608642578
 21
-85.6107890625
  0
LINE
  5
285
100
AcDbEntity
  8
ASSI
100
AcDbLine
 62
7
  6
CONTINUOUS
 10
6.3391357422
 20
-85.6107890625
 11
6.4391357422
 21
-85.6107890625
  0
LINE
  5
286
100
AcDbEntity
  8
ASSI
100
AcDbLine
 62
253
  6
CONTINUOUS
 10
-6.5821535411
 20
-85.390772137
 11
-0.5608642578
 21
-85.390772137
  0
LINE
  5
287
100
AcDbEntity
  8
ASSI
100
AcDbLine
 62
253
  6
CONTINUOUS
 10
6.4391357422
 20
-85.390772137
 11
12.4604250255
 21
-85.390772137
  0
LINE
  5
288
100
AcDbEntity
  8
ASSI
100
AcDbLine
 62
7
  6
CONTINUOUS
 10
12.4337856643
 20
-85.3107890625
 11
6.4391357422
 21
-85.3107890625
  0
LINE
  5
289
100
AcDbEntity
  8
ASSI
100
AcDbLine
 62
7
  6
CONTINUOUS
 10
-0.5608642578
 20
-85.3107890625
 11
-6.55551418
 21
-85.3107890625
  0
LINE
  5
28A
100
AcDbEntity
  8
ASSI
100
AcDbLine
 62
7
  6
CONTINUOUS
 10
-6.55551418
 20
-83.1107890625
 11
-6.7108642578
 21
-83.0331199392
  0
LINE
  5
28B
100
AcDbEntity
  8
ASSI
100
AcDbLine
 62
7
  6
CONTINUOUS
 10
-3.5731741931
 20
-84.4234746931
 11
-3.5608642578
 21
-84.429629192
  0
LWPOLYLINE
  5
28C
100
AcDbEntity
  8
ASSI
100
AcDbPolyline
 62
7
  6
CONTINUOUS
 90
10
 70
0
 10
11.3039732363
 20
-95.0711036206
 10
11.2941193371
 20
-95.064434358
 10
11.2845939383
 20
-95.0573037732
 10
11.2754186231
 20
-95.0497280214
 10
11.2666141761
 20
-95.041724263
 10
11.2582005417
 20
-95.0333106286
 10
11.2501967833
 20
-95.0245061816
 10
11.2426210315
 20
-95.0153308663
 10
11.2354904467
 20
-95.0058054676
 10
11.2288211841
 20
-94.9959515684
  0
LINE
  5
28D
100
AcDbEntity
  8
ASSI
100
AcDbLine
 62
253
  6
CONTINUOUS
 10
-3.5731741931
 20
-84.0984334357
 11
-3.5608642578
 21
-84.110743371
  0
LINE
  5
28E
100
AcDbEntity
  8
ASSI
100
AcDbLine
 62
7
  6
CONTINUOUS
 10
-5.3073769669
 20
-91.5212594429
 11
-5.3108642578
 21
-91.5107890625
  0
LINE
  5
28F
100
AcDbEntity
  8
ASSI
100
AcDbLine
 62
7
  6
CONTINUOUS
 10
7.2003734539
 20
-46.9883194561
 11
7.1738102767
 21
-47.0186903769
  0
LINE
  5
290
100
AcDbEntity
  8
ASSI
100
AcDbLine
 62
7
  6
CONTINUOUS
 10
7.1738102767
 20
-47.0186903769
 11
7.1434155204
 21
-47.0529119931
  0
LINE
  5
291
100
AcDbEntity
  8
ASSI
100
AcDbLine
 62
7
  6
CONTINUOUS
 10
7.1434155204
 20
-47.0529119931
 11
7.1091943522
 21
-47.0909612958
  0
LINE
  5
292
100
AcDbEntity
  8
ASSI
100
AcDbLine
 62
7
  6
CONTINUOUS
 10
7.1091943522
 20
-47.0909612958
 11
7.0508556004
 21
-47.1550958552
  0
LINE
  5
293
100
AcDbEntity
  8
ASSI
100
AcDbLine
 62
7
  6
CONTINUOUS
 10
7.0508556004
 20
-47.1550958552
 11
6.8671057299
 21
-47.3544312478
  0
LINE
  5
294
100
AcDbEntity
  8
ASSI
100
AcDbLine
 62
7
  6
CONTINUOUS
 10
7.3391357422
 20
-46.8107890625
 11
7.2954850953
 21
-46.8544397094
  0
LINE
  5
295
100
AcDbEntity
  8
IMPORT_IGES
100
AcDbLine
 62
7
  6
CONTINUOUS
 10
-5.2295477683
 20
-61.1264124963
 11
-4.1517925631
 21
-60.0486572912
  0
LINE
  5
296
100
AcDbEntity
  8
IMPORT_IGES
100
AcDbLine
 62
253
  6
CONTINUOUS
 10
-5.019926771
 20
-61.2703519497
 11
-4.263865899
 21
-60.514261353
  0
LWPOLYLINE
  5
297
100
AcDbEntity
  8
IMPORT_IGES
100
AcDbPolyline
 62
253
  6
CONTINUOUS
 90
10
 70
0
 10
-4.4052856145
 20
-60.3021503426
 10
-4.39559292
 20
-60.2969620635
 10
-4.3837245822
 20
-60.2985824535
 10
-4.3700357655
 20
-60.3072430388
 10
-4.3553110768
 20
-60.3232225853
 10
-4.3396727355
 20
-60.3464362979
 10
-4.3223708548
 20
-60.3768324355
 10
-4.3033931614
 20
-60.4147521361
 10
-4.2836742314
 20
-60.4605130396
 10
-4.2638675402
 20
-60.5142613533
  0
LINE
  5
298
100
AcDbEntity
  8
ASSI
100
AcDbLine
 62
7
  6
CONTINUOUS
 10
-3.5731741931
 20
-59.7981034319
 11
-3.5608642578
 21
-59.791948933
  0
LINE
  5
299
100
AcDbEntity
  8
ASSI
100
AcDbLine
 62
7
  6
CONTINUOUS
 10
-6.7108642578
 20
-61.7884581858
 11
-6.55551418
 21
-61.7107890625
  0
LWPOLYLINE
  5
29A
100
AcDbEntity
  8
ASSI
100
AcDbPolyline
 62
253
  6
CONTINUOUS
 90
40
 70
0
 10
-3.2732198846
 20
-83.4985248186
 10
-3.2970028565
 20
-83.4989799687
 10
-3.3207714092
 20
-83.5003971902
 10
-3.3445255428
 20
-83.5027764833
 10
-3.3683210353
 20
-83.5061186971
 10
-3.3921021086
 20
-83.5104229824
 10
-3.4157014286
 20
-83.5156867916
 10
-3.4391149912
 20
-83.5219212923
 10
-3.4623468004
 20
-83.5291153169
 10
-3.4852415351
 20
-83.537232815
 10
-3.5077936223
 20
-83.5462832653
 10
-3.530008635
 20
-83.556257189
 10
-3.5517479703
 20
-83.5670900993
 10
-3.572998042
 20
-83.5787834255
 10
-3.5937724363
 20
-83.5913357382
 10
-3.6139733099
 20
-83.6046782622
 10
-3.6335937536
 20
-83.6188105872
 10
-3.6526406765
 20
-83.6337331235
 10
-3.6710369626
 20
-83.6493783267
 10
-3.6887810504
 20
-83.6657478921
 10
-3.7058745013
 20
-83.6828401244
 10
-3.7222448837
 20
-83.7005823933
 10
-3.7378904174
 20
-83.7189761069
 10
-3.7528128826
 20
-83.7380198572
 10
-3.7669451885
 20
-83.7576367893
 10
-3.7802877663
 20
-83.7778336684
 10
-3.7928401847
 20
-83.7986037294
 10
-3.8045340594
 20
-83.8198498229
 10
-3.8153680453
 20
-83.8415853499
 10
-3.8253434875
 20
-83.8637969094
 10
-3.8343960366
 20
-83.8863471483
 10
-3.8425164515
 20
-83.9092420081
 10
-3.8497139733
 20
-83.9324755473
 10
-3.8559519754
 20
-83.9558925886
 10
-3.8612192982
 20
-83.9794971319
 10
-3.8655271012
 20
-84.0032851773
 10
-3.8688722378
 20
-84.0270895481
 10
-3.871253659
 20
-84.0508545187
 10
-3.8726724136
 20
-84.0746358145
 10
-3.8731285017
 20
-84.0984334357
  0
LINE
  5
29B
100
AcDbEntity
  8
ASSI
100
AcDbLine
 62
7
  6
CONTINUOUS
 10
6.4391357422
 20
-84.5160251832
 11
6.0944611342
 21
-84.5160251832
  0
LINE
  5
29C
100
AcDbEntity
  8
ASSI
100
AcDbLine
 62
7
  6
CONTINUOUS
 10
-0.2161896499
 20
-84.5160251832
 11
-0.5608642578
 21
-84.5160251832
  0
LINE
  5
29D
100
AcDbEntity
  8
ASSI
100
AcDbLine
 62
7
  6
CONTINUOUS
 10
9.9391547807
 20
-84.5107890625
 11
6.4391357422
 21
-84.5107890625
  0
LINE
  5
29E
100
AcDbEntity
  8
ASSI
100
AcDbLine
 62
7
  6
CONTINUOUS
 10
-0.5608642578
 20
-84.5107890625
 11
-4.0608832963
 21
-84.5107890625
  0
LINE
  5
29F
100
AcDbEntity
  8
RACCORDO
100
AcDbLine
 62
7
  6
CONTINUOUS
 10
-0.1608642578
 20
-84.5107890625
 11
6.0391357422
 21
-84.5107890625
  0
LINE
  5
2A0
100
AcDbEntity
  8
ASSI
100
AcDbLine
 62
7
  6
CONTINUOUS
 10
9.4391357422
 20
-84.429629192
 11
-3.5608642578
 21
-84.429629192
  0
LINE
  5
2A1
100
AcDbEntity
  8
ASSI
100
AcDbLine
 62
7
  6
CONTINUOUS
 10
9.8492680424
 20
-84.4209023243
 11
9.7513999861
 21
-84.4209023243
  0
LINE
  5
2A2
100
AcDbEntity
  8
ASSI
100
AcDbLine
 62
7
  6
CONTINUOUS
 10
-3.8731285017
 20
-84.4209023243
 11
-3.970996558
 21
-84.4209023243
  0
LINE
  5
2A3
100
AcDbEntity
  8
ASSI
100
AcDbLine
 62
253
  6
CONTINUOUS
 10
9.7513999861
 20
-84.0984334357
 11
9.4514456775
 21
-84.0984334357
  0
LINE
  5
2A4
100
AcDbEntity
  8
ASSI
100
AcDbLine
 62
253
  6
CONTINUOUS
 10
-3.8731285017
 20
-84.0984334357
 11
-3.5731741931
 21
-84.0984334357
  0
LINE
  5
2A5
100
AcDbEntity
  8
ASSI
100
AcDbLine
 62
7
  6
CONTINUOUS
 10
9.1391814336
 20
-83.8107890625
 11
-3.2609099493
 21
-83.8107890625
  0
LINE
  5
2A6
100
AcDbEntity
  8
ASSI
100
AcDbLine
 62
253
  6
CONTINUOUS
 10
-3.2732198846
 20
-83.7984791272
 11
9.151491369
 21
-83.7984791272
  0
LINE
  5
2A7
100
AcDbEntity
  8
ASSI
100
AcDbLine
 62
253
  6
CONTINUOUS
 10
-3.2732198846
 20
-83.4985248186
 11
9.151491369
 21
-83.4985248186
  0
LINE
  5
2A8
100
AcDbEntity
  8
ASSI
100
AcDbLine
 62
7
  6
CONTINUOUS
 10
-4.5608642578
 20
-83.1107890625
 11
-6.55551418
 21
-83.1107890625
  0
LINE
  5
2A9
100
AcDbEntity
  8
ASSI
100
AcDbLine
 62
7
  6
CONTINUOUS
 10
10.4391357422
 20
-83.1107890625
 11
12.4337856643
 21
-83.1107890625
  0
LINE
  5
2AA
100
AcDbEntity
  8
IMPORT_IGES
100
AcDbLine
 62
253
  6
CONTINUOUS
 10
-3.3340076337
 20
-81.6483383506
 11
-4.1108692588
 21
-81.2019802446
  0
LINE
  5
2AB
100
AcDbEntity
  8
IMPORT_IGES
100
AcDbLine
 62
7
  6
CONTINUOUS
 10
-5.1660323947
 20
-80.8206117589
 11
-3.4340076842
 21
-81.8205966918
  0
LINE
  5
2AC
100
AcDbEntity
  8
IMPORT_IGES
100
AcDbLine
 62
253
  6
CONTINUOUS
 10
-4.5108642249
 20
-81.0920536333
 11
-5.0160694933
 21
-80.8003795072
  0
LINE
  5
2AD
100
AcDbEntity
  8
ASSI
100
AcDbLine
 62
253
  6
CONTINUOUS
 10
-3.2732198846
 20
-83.7984791272
 11
-3.2609099493
 21
-83.8107890625
  0
LINE
  5
2AE
100
AcDbEntity
  8
ASSI
100
AcDbLine
 62
7
  6
CONTINUOUS
 10
7.3391357422
 20
-94.4107890625
 11
7.2954850953
 21
-94.3671384156
  0
LINE
  5
2AF
100
AcDbEntity
  8
ASSI
100
AcDbLine
 62
7
  6
CONTINUOUS
 10
-4.5608642578
 20
-82.1107890625
 11
-4.5434105222
 21
-82.1282427981
  0
LINE
  5
2B0
100
AcDbEntity
  8
ASSI
100
AcDbLine
 62
7
  6
CONTINUOUS
 10
6.8671057299
 20
-93.8671468772
 11
7.0710750803
 21
-94.0886328793
  0
LINE
  5
2B1
100
AcDbEntity
  8
ASSI
100
AcDbLine
 62
7
  6
CONTINUOUS
 10
7.0710750803
 20
-94.0886328793
 11
7.1090034579
 21
-94.1304057828
  0
LINE
  5
2B2
100
AcDbEntity
  8
ASSI
100
AcDbLine
 62
7
  6
CONTINUOUS
 10
7.1090034579
 20
-94.1304057828
 11
7.1431807348
 21
-94.1684040439
  0
LINE
  5
2B3
100
AcDbEntity
  8
ASSI
100
AcDbLine
 62
7
  6
CONTINUOUS
 10
7.1431807348
 20
-94.1684040439
 11
7.1735392959
 21
-94.2025804877
  0
LWPOLYLINE
  5
2B4
100
AcDbEntity
  8
IMPORT_IGES
100
AcDbPolyline
 62
253
  6
CONTINUOUS
 90
3
 70
0
 10
-4.1539768149
 20
-81.1522017204
 10
-4.1944001923
 20
-81.1064546511
 10
-4.230390685
 20
-81.0652385572
  0
LWPOLYLINE
  5
2B5
100
AcDbEntity
  8
ASSI
100
AcDbPolyline
 62
7
  6
CONTINUOUS
 90
18
 70
0
 10
7.1735392959
 20
-94.2025804877
 10
7.2000888334
 20
-94.2329305282
 10
7.2120037072
 20
-94.246759057
 10
7.223034264
 20
-94.2597121743
 10
7.2331928346
 20
-94.2717916326
 10
7.2425281905
 20
-94.2830746962
 10
7.2510441664
 20
-94.2935619562
 10
7.2587549155
 20
-94.3032528214
 10
7.2657083371
 20
-94.3122227825
 10
7.2719195133
 20
-94.3204911406
 10
7.2773761185
 20
-94.3280385946
 10
7.282078425
 20
-94.3348827314
 10
7.2860363956
 20
-94.3410164716
 10
7.2892599372
 20
-94.3464468945
 10
7.2917574565
 20
-94.351212825
 10
7.2935450451
 20
-94.3553272048
 10
7.2946423736
 20
-94.3587770922
 10
7.2950684749
 20
-94.3615624872
  0
LWPOLYLINE
  5
2B6
100
AcDbEntity
  8
IMPORT_IGES
100
AcDbPolyline
 62
253
  6
CONTINUOUS
 90
3
 70
0
 10
-4.230390685
 20
-81.0652385572
 10
-4.2460915975
 20
-81.0470631181
 10
-4.2729726663
 20
-81.0154565422
  0
LWPOLYLINE
  5
2B7
100
AcDbEntity
  8
IMPORT_IGES
100
AcDbPolyline
 62
253
  6
CONTINUOUS
 90
3
 70
0
 10
-4.1108692588
 20
-81.2019802446
 10
-4.1326437093
 20
-81.1765673909
 10
-4.1539768149
 20
-81.1522017204
  0
LWPOLYLINE
  5
2B8
100
AcDbEntity
  8
IMPORT_IGES
100
AcDbPolyline
 62
253
  6
CONTINUOUS
 90
4
 70
0
 10
-4.2729726663
 20
-81.0154565422
 10
-4.2843085716
 20
-81.0019346828
 10
-4.2938491229
 20
-80.9900772473
 10
-4.3066226138
 20
-80.9739911649
  0
LWPOLYLINE
  5
2B9
100
AcDbEntity
  8
IMPORT_IGES
100
AcDbPolyline
 62
253
  6
CONTINUOUS
 90
3
 70
0
 10
-4.3066226138
 20
-80.9739911649
 10
-4.309806636
 20
-80.9697461235
 10
-4.3108642578
 20
-80.9679333968
  0
LINE
  5
2BA
100
AcDbEntity
  8
ASSI
100
AcDbLine
 62
253
  6
CONTINUOUS
 10
-7.7064924238
 20
-94.4551266298
 11
-7.7108642578
 21
-94.0212742107
  0
LINE
  5
2BB
100
AcDbEntity
  8
ASSI
100
AcDbLine
 62
253
  6
CONTINUOUS
 10
-7.4564966546
 20
-94.2386202789
 11
-7.4615872557
 21
-93.7334387933
  0
LINE
  5
2BC
100
AcDbEntity
  8
ASSI
100
AcDbLine
 62
253
  6
CONTINUOUS
 10
-7.7064881437
 20
-94.8578758924
 11
-7.7064924238
 21
-94.8564214593
  0
LINE
  5
2BD
100
AcDbEntity
  8
ASSI
100
AcDbLine
 62
7
  6
CONTINUOUS
 10
-8.2108642578
 20
-92.5019670031
 11
-8.2108642578
 21
-48.7196111219
  0
LINE
  5
2BE
100
AcDbEntity
  8
ASSI
100
AcDbLine
 62
7
  6
CONTINUOUS
 10
-7.7108642578
 20
-46.7664514952
 11
-7.7108642578
 21
-48.2110990945
  0
LINE
  5
2BF
100
AcDbEntity
  8
ASSI
100
AcDbLine
 62
7
  6
CONTINUOUS
 10
-7.7108642578
 20
-93.0104790305
 11
-7.7108642578
 21
-94.4551266298
  0
LINE
  5
2C0
100
AcDbEntity
  8
ASSI
100
AcDbLine
 62
7
  6
CONTINUOUS
 10
-7.7064924238
 20
-46.3651566657
 11
-7.7064924238
 21
-46.7664514952
  0
LINE
  5
2C1
100
AcDbEntity
  8
ASSI
100
AcDbLine
 62
7
  6
CONTINUOUS
 10
-7.7064924238
 20
-94.4551266298
 11
-7.7064924238
 21
-94.8564214593
  0
LINE
  5
2C2
100
AcDbEntity
  8
ASSI
100
AcDbLine
 62
253
  6
CONTINUOUS
 10
-7.4564966546
 20
-46.1151608965
 11
-7.4564966546
 21
-46.9107890625
  0
LINE
  5
2C3
100
AcDbEntity
  8
ASSI
100
AcDbLine
 62
253
  6
CONTINUOUS
 10
-7.4564966546
 20
-94.2386202789
 11
-7.4564966546
 21
-95.1064172285
  0
LINE
  5
2C4
100
AcDbEntity
  8
ASSI
100
AcDbLine
 62
253
  6
CONTINUOUS
 10
-7.7108642578
 20
-47.2003039143
 11
-7.7064924238
 21
-46.7664514952
  0
LINE
  5
2C5
100
AcDbEntity
  8
ASSI
100
AcDbLine
 62
253
  6
CONTINUOUS
 10
-7.4615872557
 20
-47.4881393317
 11
-7.4557694259
 21
-46.9107890625
  0
LWPOLYLINE
  5
2C6
100
AcDbEntity
  8
ASSI
100
AcDbPolyline
 62
7
  6
CONTINUOUS
 90
5
 70
0
 10
-7.7108642578
 20
-46.3607848317
 10
-7.7105811076
 20
-46.3488895465
 10
-7.709732292
 20
-46.3370212069
 10
-7.708319732
 20
-46.3252066964
 10
-7.7063466255
 20
-46.313472775
  0
LWPOLYLINE
  5
2C7
100
AcDbEntity
  8
ASSI
100
AcDbPolyline
 62
253
  6
CONTINUOUS
 90
3
 70
0
 10
-7.7064924238
 20
-46.3651566657
 10
-7.7061510166
 20
-46.3521043257
 10
-7.7050422114
 20
-46.3382765878
  0
LWPOLYLINE
  5
2C8
100
AcDbEntity
  8
IMPORT_IGES
100
AcDbPolyline
 62
253
  6
CONTINUOUS
 90
5
 70
0
 10
-4.0501584791
 20
-60.414985966
 10
-4.0587221642
 20
-60.4327192458
 10
-4.0615202392
 20
-60.4382476851
 10
-4.0632639081
 20
-60.4418641796
 10
-4.0638642578
 20
-60.4435716989
  0
LWPOLYLINE
  5
2C9
100
AcDbEntity
  8
IMPORT_IGES
100
AcDbPolyline
 62
253
  6
CONTINUOUS
 90
3
 70
0
 10
-3.93763025
 20
-60.1881003449
 10
-3.9635415118
 20
-60.2413025638
 10
-3.9753224511
 20
-60.2651759867
  0
LWPOLYLINE
  5
2CA
100
AcDbEntity
  8
IMPORT_IGES
100
AcDbPolyline
 62
253
  6
CONTINUOUS
 90
4
 70
0
 10
-4.0286477283
 20
-60.3718637142
 10
-4.0397361314
 20
-60.394547417
 10
-4.0449219584
 20
-60.4046376291
 10
-4.0501584791
 20
-60.414985966
  0
LINE
  5
2CB
100
AcDbEntity
  8
IMPORT_IGES
100
AcDbLine
 62
253
  6
CONTINUOUS
 10
-4.0057699398
 20
-60.3258946799
 11
-4.0286477283
 21
-60.3718637142
  0
LINE
  5
2CC
100
AcDbEntity
  8
IMPORT_IGES
100
AcDbLine
 62
253
  6
CONTINUOUS
 10
-3.9753224511
 20
-60.2651759867
 11
-4.0057699398
 21
-60.3258946799
  0
LWPOLYLINE
  5
2CD
100
AcDbEntity
  8
IMPORT_IGES
100
AcDbPolyline
 62
253
  6
CONTINUOUS
 90
10
 70
0
 10
-3.93763025
 20
-60.1881003449
 10
-3.9343639505
 20
-60.1828403987
 10
-3.9309899816
 20
-60.1780745739
 10
-3.9275077393
 20
-60.1738028925
 10
-3.9240083485
 20
-60.1699877009
 10
-3.9204009665
 20
-60.1666667174
 10
-3.9164074525
 20
-60.1639529057
 10
-3.9119298957
 20
-60.1618837998
 10
-3.907056201
 20
-60.1604216259
 10
-3.9017829483
 20
-60.1595662599
  0
LINE
  5
2CE
100
AcDbEntity
  8
ASSI
100
AcDbLine
 62
7
  6
CONTINUOUS
 10
-5.5608642578
 20
-62.7107890625
 11
-5.4709775196
 21
-62.6209023243
  0
LINE
  5
2CF
100
AcDbEntity
  8
ASSI
100
AcDbLine
 62
7
  6
CONTINUOUS
 10
-1.5608642578
 20
-59.7107890625
 11
-1.6108642578
 21
-59.7607890625
  0
LINE
  5
2D0
100
AcDbEntity
  8
ASSI
100
AcDbLine
 62
7
  6
CONTINUOUS
 10
-5.5608642578
 20
-64.7107890625
 11
-5.4735727333
 21
-64.623497538
  0
LINE
  5
2D1
100
AcDbEntity
  8
IMPORT_IGES
100
AcDbLine
 62
253
  6
CONTINUOUS
 10
10.9700853442
 20
-80.7930931649
 11
11.0066818689
 21
-80.7836516359
  0
LWPOLYLINE
  5
2D2
100
AcDbEntity
  8
IMPORT_IGES
100
AcDbPolyline
 62
253
  6
CONTINUOUS
 90
3
 70
0
 10
-1.0343002615
 20
-81.6631909442
 10
-1.036026241
 20
-81.6632820214
 10
-1.0411617508
 20
-81.6633308828
  0
LINE
  5
2D3
100
AcDbEntity
  8
ASSI
100
AcDbLine
 62
7
  6
CONTINUOUS
 10
-6.2731514546
 20
-83.0226249552
 11
-6.7108642578
 21
-83.0331199392
  0
LINE
  5
2D4
100
AcDbEntity
  8
ASSI
100
AcDbLine
 62
7
  6
CONTINUOUS
 10
12.5891357422
 20
-82.1884581858
 11
12.151422939
 21
-82.1989531698
  0
LWPOLYLINE
  5
2D5
100
AcDbEntity
  8
IMPORT_IGES
100
AcDbPolyline
 62
253
  6
CONTINUOUS
 90
3
 70
0
 10
7.1125831327
 20
-81.6616712945
 10
6.9907248781
 20
-81.6629425574
 10
6.9393323268
 20
-81.6633681153
  0
LINE
  5
2D6
100
AcDbEntity
  8
ASSI
100
AcDbLine
 62
7
  6
CONTINUOUS
 10
11.8695151528
 20
-83.0209023243
 11
10.3492490039
 21
-83.0209023243
  0
LINE
  5
2D7
100
AcDbEntity
  8
ASSI
100
AcDbLine
 62
7
  6
CONTINUOUS
 10
-5.9912436684
 20
-83.0209023243
 11
-4.4709775196
 21
-83.0209023243
  0
LINE
  5
2D8
100
AcDbEntity
  8
ASSI
100
AcDbLine
 62
7
  6
CONTINUOUS
 10
9.4391357422
 20
-82.9107890625
 11
-3.5608642578
 21
-82.9107890625
  0
LINE
  5
2D9
100
AcDbEntity
  8
0
100
AcDbLine
 62
7
  6
CONTINUOUS
 10
6.6732282933
 20
-82.2225127799
 11
5.9028368663
 21
-82.2225127799
  0
LINE
  5
2DA
100
AcDbEntity
  8
0
100
AcDbLine
 62
7
  6
CONTINUOUS
 10
5.8071784925
 20
-82.2225127799
 11
3.7650433253
 21
-82.2225127799
  0
LINE
  5
2DB
100
AcDbEntity
  8
0
100
AcDbLine
 62
7
  6
CONTINUOUS
 10
3.7598157698
 20
-82.2225127799
 11
-0.7949566174
 21
-82.2225127799
  0
LINE
  5
2DC
100
AcDbEntity
  8
ASSI
100
AcDbLine
 62
7
  6
CONTINUOUS
 10
11.8695151528
 20
-82.2006758007
 11
9.4391357422
 21
-82.2006758007
  0
LINE
  5
2DD
100
AcDbEntity
  8
ASSI
100
AcDbLine
 62
7
  6
CONTINUOUS
 10
-5.9912436684
 20
-82.2006758007
 11
-3.5608642578
 21
-82.2006758007
  0
LINE
  5
2DE
100
AcDbEntity
  8
ASSI
100
AcDbLine
 62
7
  6
CONTINUOUS
 10
10.2716820066
 20
-82.1282427981
 11
9.4391357422
 21
-82.1282427981
  0
LINE
  5
2DF
100
AcDbEntity
  8
ASSI
100
AcDbLine
 62
7
  6
CONTINUOUS
 10
-3.5608642578
 20
-82.1282427981
 11
-4.5434105222
 21
-82.1282427981
  0
LINE
  5
2E0
100
AcDbEntity
  8
0
100
AcDbLine
 62
7
  6
CONTINUOUS
 10
8.3618223983
 20
-82.1225127799
 11
-2.483550914
 21
-82.1225127799
  0
LINE
  5
2E1
100
AcDbEntity
  8
ASSI
100
AcDbLine
 62
7
  6
CONTINUOUS
 10
12.4337856643
 20
-82.1107890625
 11
10.2891357422
 21
-82.1107890625
  0
LINE
  5
2E2
100
AcDbEntity
  8
ASSI
100
AcDbLine
 62
7
  6
CONTINUOUS
 10
-4.5608642578
 20
-82.1107890625
 11
-6.55551418
 21
-82.1107890625
  0
LINE
  5
2E3
100
AcDbEntity
  8
IMPORT_IGES
100
AcDbLine
 62
7
  6
CONTINUOUS
 10
-3.0075707874
 20
-82.0607890625
 11
8.8391331063
 21
-82.0607890625
  0
LINE
  5
2E4
100
AcDbEntity
  8
IMPORT_IGES
100
AcDbLine
 62
253
  6
CONTINUOUS
 10
-3.0608642578
 20
-81.9607890625
 11
8.9391357422
 21
-81.9607890625
  0
LINE
  5
2E5
100
AcDbEntity
  8
ASSI
100
AcDbLine
 62
253
  6
CONTINUOUS
 10
-3.5608642578
 20
-81.8986570281
 11
-3.0827565616
 21
-81.8986570281
  0
LINE
  5
2E6
100
AcDbEntity
  8
ASSI
100
AcDbLine
 62
253
  6
CONTINUOUS
 10
8.9610279958
 20
-81.8986570281
 11
9.4391357422
 21
-81.8986570281
  0
LINE
  5
2E7
100
AcDbEntity
  8
IMPORT_IGES
100
AcDbLine
 62
7
  6
CONTINUOUS
 10
-3.2840115525
 20
-81.8607890625
 11
9.162279176
 21
-81.8607890625
  0
LINE
  5
2E8
100
AcDbEntity
  8
ASSI
100
AcDbLine
 62
7
  6
CONTINUOUS
 10
-3.5608642578
 20
-81.8107890625
 11
-3.4509949964
 21
-81.8107890625
  0
LINE
  5
2E9
100
AcDbEntity
  8
ASSI
100
AcDbLine
 62
7
  6
CONTINUOUS
 10
9.3292664808
 20
-81.8107890625
 11
9.4391357422
 21
-81.8107890625
  0
LINE
  5
2EA
100
AcDbEntity
  8
IMPORT_IGES
100
AcDbLine
 62
253
  6
CONTINUOUS
 10
-3.2840076856
 20
-81.6616713649
 11
-1.2343162971
 21
-81.6616713649
  0
LINE
  5
2EB
100
AcDbEntity
  8
IMPORT_IGES
100
AcDbLine
 62
253
  6
CONTINUOUS
 10
7.1125779261
 20
-81.6616712359
 11
9.1622791775
 21
-81.6616712359
  0
LINE
  5
2EC
100
AcDbEntity
  8
IMPORT_IGES
100
AcDbLine
 62
253
  6
CONTINUOUS
 10
6.7169401357
 20
-81.4580600732
 11
-0.8386686512
 21
-81.4580600777
  0
LWPOLYLINE
  5
2ED
100
AcDbEntity
  8
IMPORT_IGES
100
AcDbPolyline
 62
253
  6
CONTINUOUS
 90
5
 70
0
 10
6.9393323268
 20
-81.6633681153
 10
6.9277781767
 20
-81.6633375264
 10
6.9193806764
 20
-81.6631213543
 10
6.9142860959
 20
-81.6627582517
 10
6.9125830801
 20
-81.6622477537
  0
LINE
  5
2EE
100
AcDbEntity
  8
IMPORT_IGES
100
AcDbLine
 62
253
  6
CONTINUOUS
 10
-1.0411617508
 20
-81.6633308828
 11
-1.061176945
 21
-81.6633002096
  0
LINE
  5
2EF
100
AcDbEntity
  8
IMPORT_IGES
100
AcDbLine
 62
253
  6
CONTINUOUS
 10
-1.061176945
 20
-81.6633002096
 11
-1.1823813103
 21
-81.662275357
  0
LINE
  5
2F0
100
AcDbEntity
  8
IMPORT_IGES
100
AcDbLine
 62
253
  6
CONTINUOUS
 10
-1.1823813103
 20
-81.662275357
 11
-1.2343651532
 21
-81.661679734
  0
LINE
  5
2F1
100
AcDbEntity
  8
ASSI
100
AcDbLine
 62
7
  6
CONTINUOUS
 10
12.5891357422
 20
-83.0331199392
 11
12.151422939
 21
-83.0226249552
  0
LINE
  5
2F2
100
AcDbEntity
  8
ASSI
100
AcDbLine
 62
7
  6
CONTINUOUS
 10
-6.2731514546
 20
-82.1989531698
 11
-6.7108642578
 21
-82.1884581858
  0
LWPOLYLINE
  5
2F3
100
AcDbEntity
  8
IMPORT_IGES
100
AcDbPolyline
 62
253
  6
CONTINUOUS
 90
10
 70
0
 10
-3.2840076856
 20
-81.6616713649
 10
-3.2898653803
 20
-81.6614973826
 10
-3.2956614754
 20
-81.6609924531
 10
-3.3013959709
 20
-81.6601565765
 10
-3.3070874492
 20
-81.6589843113
 10
-3.3127173279
 20
-81.6574810992
 10
-3.3182298603
 20
-81.6556632645
 10
-3.3236064644
 20
-81.6535362487
 10
-3.3288657222
 20
-81.6510946106
 10
-3.3340076337
 20
-81.6483383506
  0
LWPOLYLINE
  5
2F4
100
AcDbEntity
  8
IMPORT_IGES
100
AcDbPolyline
 62
253
  6
CONTINUOUS
 90
13
 70
0
 10
-0.8386356226
 20
-81.4580599363
 10
-0.8649923644
 20
-81.4567849474
 10
-0.8909513704
 20
-81.4527329797
 10
-0.9160526892
 20
-81.445955353
 10
-0.9399864653
 20
-81.4364871495
 10
-0.962155424
 20
-81.4245130404
 10
-0.9818055116
 20
-81.4105097201
 10
-0.9985171746
 20
-81.3950211518
 10
-1.0123854299
 20
-81.3782337161
 10
-1.0234968107
 20
-81.3601516294
 10
-1.0317035983
 20
-81.3409433003
 10
-1.0367873163
 20
-81.3210216253
 10
-1.0386545449
 20
-81.3007082487
  0
LWPOLYLINE
  5
2F5
100
AcDbEntity
  8
IMPORT_IGES
100
AcDbPolyline
 62
253
  6
CONTINUOUS
 90
3
 70
0
 10
-5.0916535296
 20
-80.7931254726
 10
-5.0540227386
 20
-80.7986931785
 10
-5.0159431944
 20
-80.8003786911
  0
LINE
  5
2F6
100
AcDbEntity
  8
IMPORT_IGES
100
AcDbLine
 62
253
  6
CONTINUOUS
 10
-5.128208939
 20
-80.7837152825
 11
-5.0916535296
 21
-80.7931254726
  0
LINE
  5
2F7
100
AcDbEntity
  8
IMPORT_IGES
100
AcDbLine
 62
7
  6
CONTINUOUS
 10
-4.440947076
 20
-78.8650890516
 11
-4.5108642578
 21
-78.7559430402
  0
LWPOLYLINE
  5
2F8
100
AcDbEntity
  8
IMPORT_IGES
100
AcDbPolyline
 62
253
  6
CONTINUOUS
 90
10
 70
0
 10
-5.3160128144
 20
-80.5660247844
 10
-5.3128897215
 20
-80.5973074833
 10
-5.3046782509
 20
-80.6279333358
 10
-5.2915338988
 20
-80.6573798928
 10
-5.2736837833
 20
-80.6851633511
 10
-5.25145284
 20
-80.7107963383
 10
-5.2252829635
 20
-80.7338096557
 10
-5.1956516169
 20
-80.7538343372
 10
-5.1630845327
 20
-80.7705597857
 10
-5.128208939
 20
-80.7837152825
  0
LWPOLYLINE
  5
2F9
100
AcDbEntity
  8
ASSI
100
AcDbPolyline
 62
253
  6
CONTINUOUS
 90
31
 70
0
 10
-5.3152360918
 20
-94.4551266298
 10
-5.3156154463
 20
-94.4438161221
 10
-5.3166764941
 20
-94.4325365029
 10
-5.3184163374
 20
-94.4213185766
 10
-5.3208302226
 20
-94.4101929878
 10
-5.3239115587
 20
-94.3991901109
 10
-5.3276519404
 20
-94.3883399682
 10
-5.3320411668
 20
-94.377672172
 10
-5.3370672489
 20
-94.3672158785
 10
-5.3427164453
 20
-94.3569996793
 10
-5.3489733171
 20
-94.3470514877
 10
-5.3558207827
 20
-94.3373984571
 10
-5.3632401468
 20
-94.328066941
 10
-5.3712111504
 20
-94.31908242
 10
-5.3797120219
 20
-94.3104694345
 10
-5.3887195422
 20
-94.3022515093
 10
-5.398209106
 20
-94.2944510911
 10
-5.4081548016
 20
-94.2870894775
 10
-5.4185294812
 20
-94.2801867636
 10
-5.4293048336
 20
-94.27376179
 10
-5.4404514131
 20
-94.2678321184
 10
-5.4519387274
 20
-94.2624139672
 10
-5.4637353694
 20
-94.25752214
 10
-5.4758091503
 20
-94.2531699754
 10
-5.4881271389
 20
-94.2493693404
 10
-5.5006561711
 20
-94.2461305033
 10
-5.513361569
 20
-94.2434624632
 10
-5.5262072204
 20
-94.2413727039
 10
-5.5391575351
 20
-94.2398667853
 10
-5.552177599
 20
-94.2389485393
 10
-5.565231861
 20
-94.2386202789
  0
LINE
  5
2FA
100
AcDbEntity
  8
IMPORT_IGES
100
AcDbLine
 62
7
  6
CONTINUOUS
 10
-5.4835855523
 20
-70.9657890625
 11
-5.3160128144
 21
-80.5660247859
  0
LINE
  5
2FB
100
AcDbEntity
  8
ASSI
100
AcDbLine
 62
253
  6
CONTINUOUS
 10
-5.5659590898
 20
-46.9107890625
 11
-5.5601412599
 21
-47.4881393317
  0
LINE
  5
2FC
100
AcDbEntity
  8
ASSI
100
AcDbLine
 62
7
  6
CONTINUOUS
 10
-6.7108642578
 20
-91.0105602104
 11
-6.7108642578
 21
-50.2110179146
  0
LINE
  5
2FD
100
AcDbEntity
  8
ASSI
100
AcDbLine
 62
7
  6
CONTINUOUS
 10
-6.6480260241
 20
-90.821892205
 11
-6.6480260241
 21
-90.4107890625
  0
LINE
  5
2FE
100
AcDbEntity
  8
ASSI
100
AcDbLine
 62
7
  6
CONTINUOUS
 10
-6.5904243098
 20
-89.9107890625
 11
-6.5904243098
 21
-85.8900869044
  0
LINE
  5
2FF
100
AcDbEntity
  8
ASSI
100
AcDbLine
 62
7
  6
CONTINUOUS
 10
-6.55551418
 20
-50.6774471502
 11
-6.55551418
 21
-61.7107890625
  0
LINE
  5
300
100
AcDbEntity
  8
ASSI
100
AcDbLine
 62
7
  6
CONTINUOUS
 10
-6.55551418
 20
-62.7107890625
 11
-6.55551418
 21
-70.1107890625
  0
LINE
  5
301
100
AcDbEntity
  8
ASSI
100
AcDbLine
 62
7
  6
CONTINUOUS
 10
-6.55551418
 20
-71.1107890625
 11
-6.55551418
 21
-77.8107890625
  0
LINE
  5
302
100
AcDbEntity
  8
ASSI
100
AcDbLine
 62
7
  6
CONTINUOUS
 10
-6.55551418
 20
-78.9607890625
 11
-6.55551418
 21
-82.1107890625
  0
LINE
  5
303
100
AcDbEntity
  8
ASSI
100
AcDbLine
 62
7
  6
CONTINUOUS
 10
-6.55551418
 20
-83.1107890625
 11
-6.55551418
 21
-85.3107890625
  0
LINE
  5
304
100
AcDbEntity
  8
ASSI
100
AcDbLine
 62
253
  6
CONTINUOUS
 10
-6.2731514546
 20
-61.7989531698
 11
-6.2731514546
 21
-62.6226249552
  0
LINE
  5
305
100
AcDbEntity
  8
ASSI
100
AcDbLine
 62
253
  6
CONTINUOUS
 10
-6.2731514546
 20
-70.1989531698
 11
-6.2731514546
 21
-71.0226249552
  0
LINE
  5
306
100
AcDbEntity
  8
ASSI
100
AcDbLine
 62
253
  6
CONTINUOUS
 10
-6.2731514546
 20
-77.8989531698
 11
-6.2731514546
 21
-78.9607890625
  0
LINE
  5
307
100
AcDbEntity
  8
ASSI
100
AcDbLine
 62
253
  6
CONTINUOUS
 10
-6.2731514546
 20
-82.1989531698
 11
-6.2731514546
 21
-83.0226249552
  0
LINE
  5
308
100
AcDbEntity
  8
ASSI
100
AcDbLine
 62
253
  6
CONTINUOUS
 10
-5.9912436684
 20
-61.8006758007
 11
-5.9912436684
 21
-62.6209023243
  0
LINE
  5
309
100
AcDbEntity
  8
ASSI
100
AcDbLine
 62
253
  6
CONTINUOUS
 10
-5.9912436684
 20
-70.2006758007
 11
-5.9912436684
 21
-71.0209023243
  0
LINE
  5
30A
100
AcDbEntity
  8
ASSI
100
AcDbLine
 62
253
  6
CONTINUOUS
 10
-5.9912436684
 20
-77.9006758007
 11
-5.9912436684
 21
-78.9607890625
  0
LINE
  5
30B
100
AcDbEntity
  8
ASSI
100
AcDbLine
 62
253
  6
CONTINUOUS
 10
-5.9912436684
 20
-82.2006758007
 11
-5.9912436684
 21
-83.0209023243
  0
LINE
  5
30C
100
AcDbEntity
  8
ASSI
100
AcDbLine
 62
253
  6
CONTINUOUS
 10
-5.565231861
 20
-46.9107890625
 11
-5.565231861
 21
-46.1151608965
  0
LINE
  5
30D
100
AcDbEntity
  8
ASSI
100
AcDbLine
 62
253
  6
CONTINUOUS
 10
-5.565231861
 20
-94.2386202789
 11
-5.565231861
 21
-95.1064172285
  0
LINE
  5
30E
100
AcDbEntity
  8
ASSI
100
AcDbLine
 62
7
  6
CONTINUOUS
 10
-5.5608642578
 20
-62.7107890625
 11
-5.5608642578
 21
-64.7107890625
  0
LINE
  5
30F
100
AcDbEntity
  8
ASSI
100
AcDbLine
 62
7
  6
CONTINUOUS
 10
-5.4709775196
 20
-62.6209023243
 11
-5.4709775196
 21
-64.3235089611
  0
LINE
  5
310
100
AcDbEntity
  8
ASSI
100
AcDbLine
 62
7
  6
CONTINUOUS
 10
-5.4108642578
 20
-78.9607890625
 11
-5.4108642578
 21
-80.2107890625
  0
LINE
  5
311
100
AcDbEntity
  8
ASSI
100
AcDbLine
 62
7
  6
CONTINUOUS
 10
-5.3934105222
 20
-80.1933353269
 11
-5.3934105222
 21
-78.9607890625
  0
LINE
  5
312
100
AcDbEntity
  8
ASSI
100
AcDbLine
 62
7
  6
CONTINUOUS
 10
-5.3152360918
 20
-94.8564214593
 11
-5.3152360918
 21
-94.4551266298
  0
LINE
  5
313
100
AcDbEntity
  8
ASSI
100
AcDbLine
 62
7
  6
CONTINUOUS
 10
-5.3152360918
 20
-46.7664514952
 11
-5.3152360918
 21
-46.3651566657
  0
LINE
  5
314
100
AcDbEntity
  8
ASSI
100
AcDbLine
 62
7
  6
CONTINUOUS
 10
-5.3108642578
 20
-92.0107890625
 11
-5.3108642578
 21
-91.5107890625
  0
LINE
  5
315
100
AcDbEntity
  8
ASSI
100
AcDbLine
 62
7
  6
CONTINUOUS
 10
-5.3108642578
 20
-49.7107890625
 11
-5.3108642578
 21
-49.2107890625
  0
LINE
  5
316
100
AcDbEntity
  8
ASSI
100
AcDbLine
 62
7
  6
CONTINUOUS
 10
-5.3108642578
 20
-46.7664514952
 11
-5.3108642578
 21
-48.2107890625
  0
LINE
  5
317
100
AcDbEntity
  8
ASSI
100
AcDbLine
 62
7
  6
CONTINUOUS
 10
-5.3108642578
 20
-93.0107890625
 11
-5.3108642578
 21
-94.4551266298
  0
LINE
  5
318
100
AcDbEntity
  8
ASSI
100
AcDbLine
 62
253
  6
CONTINUOUS
 10
-5.5601412599
 20
-93.7334387933
 11
-5.565231861
 21
-94.2386202789
  0
LINE
  5
319
100
AcDbEntity
  8
IMPORT_IGES
100
AcDbLine
 62
7
  6
CONTINUOUS
 10
-5.3173700411
 20
-61.3333088074
 11
-5.37279945
 21
-64.5088575155
  0
LINE
  5
31A
100
AcDbEntity
  8
IMPORT_IGES
100
AcDbLine
 62
7
  6
CONTINUOUS
 10
-5.4835855523
 20
-70.9657890625
 11
-5.3708799777
 21
-64.50889102
  0
LWPOLYLINE
  5
31B
100
AcDbEntity
  8
ASSI
100
AcDbPolyline
 62
253
  6
CONTINUOUS
 90
31
 70
0
 10
-7.7064924238
 20
-94.4551266298
 10
-7.7061138682
 20
-94.4438286575
 10
-7.7050547406
 20
-94.4325583535
 10
-7.7033173641
 20
-94.4213464837
 10
-7.7009056627
 20
-94.4102226746
 10
-7.6978257924
 20
-94.3992184225
 10
-7.6940867414
 20
-94.3883668827
 10
-7.689699197
 20
-94.3776987597
 10
-7.684674798
 20
-94.3672420864
 10
-7.6790271174
 20
-94.3570251675
 10
-7.6727714249
 20
-94.3470757624
 10
-7.6659248503
 20
-94.3374212379
 10
-7.658506242
 20
-94.3280882144
 10
-7.6505359379
 20
-94.3191022643
 10
-7.6420356431
 20
-94.3104878451
 10
-7.6330285527
 20
-94.3022684667
 10
-7.623539249
 20
-94.29446657
 10
-7.6135936619
 20
-94.2871034818
 10
-7.603218979
 20
-94.2801993329
 10
-7.5924435466
 20
-94.2737729864
 10
-7.5812967886
 20
-94.2678419894
 10
-7.5698091516
 20
-94.2624225421
 10
-7.5580119949
 20
-94.2575294401
 10
-7.5459375584
 20
-94.253176057
 10
-7.5336188788
 20
-94.2493742996
 10
-7.5210896434
 20
-94.2461345532
 10
-7.5083840406
 20
-94.2434656467
 10
-7.4955367198
 20
-94.2413748543
 10
-7.4825827525
 20
-94.2398678844
 10
-7.4695575388
 20
-94.238948856
 10
-7.4564966546
 20
-94.2386202789
  0
LWPOLYLINE
  5
31C
100
AcDbEntity
  8
ASSI
100
AcDbPolyline
 62
7
  6
CONTINUOUS
 90
34
 70
0
 10
-5.3152360918
 20
-46.7664514952
 10
-5.3155338182
 20
-46.7726930743
 10
-5.3163050696
 20
-46.7789661854
 10
-5.3175554324
 20
-46.7852526014
 10
-5.3192894796
 20
-46.7915266335
 10
-5.3215109223
 20
-46.7977761718
 10
-5.3242229424
 20
-46.8040026558
 10
-5.3274274392
 20
-46.8101855932
 10
-5.3311253637
 20
-46.8163052234
 10
-5.3353176147
 20
-46.8223633799
 10
-5.3400030989
 20
-46.8283385567
 10
-5.3451797408
 20
-46.8342099643
 10
-5.3508461116
 20
-46.8399797862
 10
-5.3569978955
 20
-46.8456257672
 10
-5.3636296779
 20
-46.8511262603
 10
-5.3707374807
 20
-46.856483596
 10
-5.3783134762
 20
-46.8616750483
 10
-5.3863485582
 20
-46.8666783571
 10
-5.3948357838
 20
-46.8714957711
 10
-5.4037634933
 20
-46.8761044645
 10
-5.413118472
 20
-46.8804818734
 10
-5.4228901466
 20
-46.8846299213
 10
-5.4330626578
 20
-46.8885261803
 10
-5.4436182449
 20
-46.8921482231
 10
-5.4545418457
 20
-46.8954974593
 10
-5.4658129032
 20
-46.8985524924
 10
-5.4774088277
 20
-46.9012916986
 10
-5.4893095255
 20
-46.9037159801
 10
-5.5014763532
 20
-46.9058027808
 10
-5.5138944081
 20
-46.9075362397
 10
-5.5265784022
 20
-46.9089223608
 10
-5.5395131128
 20
-46.9099454428
 10
-5.5526516143
 20
-46.9105746326
 10
-5.5659590898
 20
-46.9107890625
  0
LINE
  5
31D
100
AcDbEntity
  8
ASSI
100
AcDbLine
 62
7
  6
CONTINUOUS
 10
-4.3597019324
 20
-49.7003186821
 11
-4.4126429431
 21
-50.1772182981
  0
LINE
  5
31E
100
AcDbEntity
  8
ASSI
100
AcDbLine
 62
7
  6
CONTINUOUS
 10
7.3391357422
 20
-48.2107890625
 11
7.2950684749
 21
-48.2768908956
  0
LWPOLYLINE
  5
31F
100
AcDbEntity
  8
IMPORT_IGES
100
AcDbPolyline
 62
7
  6
CONTINUOUS
 90
3
 70
0
 10
7.0585658196
 20
-79.3041496932
 10
7.0815497517
 20
-79.2984815264
 10
7.105977715
 20
-79.2943787337
  0
LINE
  5
320
100
AcDbEntity
  8
IMPORT_IGES
100
AcDbLine
 62
7
  6
CONTINUOUS
 10
7.105977715
 20
-79.2943787337
 11
7.1309009771
 21
-79.2921106811
  0
LWPOLYLINE
  5
321
100
AcDbEntity
  8
IMPORT_IGES
100
AcDbPolyline
 62
253
  6
CONTINUOUS
 90
3
 70
0
 10
10.8943299902
 20
-80.8003797155
 10
10.9324248775
 20
-80.7986808221
 10
10.9700853442
 20
-80.7930931649
  0
LINE
  5
322
100
AcDbEntity
  8
ASSI
100
AcDbLine
 62
7
  6
CONTINUOUS
 10
-5.4108642578
 20
-80.2107890625
 11
-5.322213477
 21
-80.2107890625
  0
LINE
  5
323
100
AcDbEntity
  8
ASSI
100
AcDbLine
 62
7
  6
CONTINUOUS
 10
11.2004849614
 20
-80.2107890625
 11
11.2891357422
 21
-80.2107890625
  0
LINE
  5
324
100
AcDbEntity
  8
ASSI
100
AcDbLine
 62
7
  6
CONTINUOUS
 10
11.2716820066
 20
-80.1933353269
 11
11.2007896175
 21
-80.1933353269
  0
LINE
  5
325
100
AcDbEntity
  8
ASSI
100
AcDbLine
 62
7
  6
CONTINUOUS
 10
-5.3225181331
 20
-80.1933353269
 11
-5.3934105222
 21
-80.1933353269
  0
LWPOLYLINE
  5
326
100
AcDbEntity
  8
IMPORT_IGES
100
AcDbPolyline
 62
253
  6
CONTINUOUS
 90
13
 70
0
 10
-5.0457414942
 20
-79.0922923445
 10
-5.0840483964
 20
-79.0905865705
 10
-5.1216400548
 20
-79.0850042859
 10
-5.1579107316
 20
-79.0756643328
 10
-5.1921292755
 20
-79.0628129192
 10
-5.2239346848
 20
-79.0466463536
 10
-5.2532231813
 20
-79.0271557149
 10
-5.279566252
 20
-79.0044031001
 10
-5.3021957973
 20
-78.978796128
 10
-5.3204961139
 20
-78.9508520522
 10
-5.3340501975
 20
-78.9210794261
 10
-5.3425734915
 20
-78.8899286709
 10
-5.3458275859
 20
-78.8579376679
  0
LWPOLYLINE
  5
327
100
AcDbEntity
  8
IMPORT_IGES
100
AcDbPolyline
 62
253
  6
CONTINUOUS
 90
13
 70
0
 10
-1.2117606011
 20
-79.2545907234
 10
-1.1927101234
 20
-79.2554818809
 10
-1.1739631486
 20
-79.2583000591
 10
-1.1558239262
 20
-79.2630013319
 10
-1.1386200854
 20
-79.2694966613
 10
-1.1225943169
 20
-79.2776900796
 10
-1.1079257162
 20
-79.2875124964
 10
-1.0948944113
 20
-79.2988202316
 10
-1.0837357891
 20
-79.3114588803
 10
-1.0746077787
 20
-79.3253573056
 10
-1.0677506265
 20
-79.3403590505
 10
-1.0634209212
 20
-79.3561905837
 10
-1.0618096014
 20
-79.3725813625
  0
LWPOLYLINE
  5
328
100
AcDbEntity
  8
IMPORT_IGES
100
AcDbPolyline
 62
253
  6
CONTINUOUS
 90
6
 70
0
 10
10.3891357268
 20
-81.0920537129
 10
10.3633250544
 20
-81.0907180342
 10
10.3380329397
 20
-81.0867516574
 10
10.3136728071
 20
-81.08024754
 10
10.290748965
 20
-81.071390267
 10
10.2694922273
 20
-81.0603213632
  0
LWPOLYLINE
  5
329
100
AcDbEntity
  8
IMPORT_IGES
100
AcDbPolyline
 62
253
  6
CONTINUOUS
 90
8
 70
0
 10
-1.101319942
 20
-79.3888166332
 10
-1.117966384
 20
-79.3878524714
 10
-1.1373687161
 20
-79.387039277
 10
-1.1591659571
 20
-79.3864049423
 10
-1.1829128434
 20
-79.3859693405
 10
-1.2081716768
 20
-79.3857443606
 10
-1.2345540874
 20
-79.3857371257
 10
-1.2615952358
 20
-79.3859519078
  0
LWPOLYLINE
  5
32A
100
AcDbEntity
  8
IMPORT_IGES
100
AcDbPolyline
 62
7
  6
CONTINUOUS
 90
5
 70
0
 10
-1.236848994
 20
-79.2933271318
 10
-1.2151383042
 20
-79.2962525904
 10
-1.1943403032
 20
-79.3004664381
 10
-1.1746399248
 20
-79.3058339824
 10
-1.1563319015
 20
-79.3121655991
  0
LWPOLYLINE
  5
32B
100
AcDbEntity
  8
IMPORT_IGES
100
AcDbPolyline
 62
253
  6
CONTINUOUS
 90
4
 70
0
 10
-1.0736298951
 20
-79.3916008783
 10
-1.0763699621
 20
-79.391146565
 10
-1.0874657355
 20
-79.3899152722
 10
-1.101319942
 20
-79.3888166332
  0
LINE
  5
32C
100
AcDbEntity
  8
IMPORT_IGES
100
AcDbLine
 62
7
  6
CONTINUOUS
 10
-1.1563319015
 20
-79.3121655991
 11
-1.1490931937
 21
-79.3151284994
  0
LWPOLYLINE
  5
32D
100
AcDbEntity
  8
IMPORT_IGES
100
AcDbPolyline
 62
7
  6
CONTINUOUS
 90
6
 70
0
 10
-1.1491340442
 20
-79.315228302
 10
-1.1445586373
 20
-79.3173886945
 10
-1.1316996659
 20
-79.3245323821
 10
-1.1198044463
 20
-79.3327471934
 10
-1.1090510648
 20
-79.3417954682
 10
-1.0995018788
 20
-79.3514663828
  0
LWPOLYLINE
  5
32E
100
AcDbEntity
  8
IMPORT_IGES
100
AcDbPolyline
 62
253
  6
CONTINUOUS
 90
6
 70
0
 10
-1.1210386025
 20
-79.1175121653
 10
-1.1373124672
 20
-79.1086816452
 10
-1.1550092235
 20
-79.1016051265
 10
-1.1738034321
 20
-79.0964449568
 10
-1.1934101358
 20
-79.0933100805
 10
-1.213488961
 20
-79.0922905819
  0
LWPOLYLINE
  5
32F
100
AcDbEntity
  8
IMPORT_IGES
100
AcDbPolyline
 62
7
  6
CONTINUOUS
 90
8
 70
0
 10
-1.0995018788
 20
-79.3514663828
 10
-1.0911256998
 20
-79.3616193169
 10
-1.0838935447
 20
-79.3721151178
 10
-1.0778350691
 20
-79.3826940826
 10
-1.0729426323
 20
-79.3930565396
 10
-1.0690716563
 20
-79.403135533
 10
-1.0661417277
 20
-79.4127097625
 10
-1.0641068119
 20
-79.4212569764
  0
LINE
  5
330
100
AcDbEntity
  8
ASSI
100
AcDbLine
 62
7
  6
CONTINUOUS
 10
7.3391357422
 20
-93.0107890625
 11
7.2950684749
 21
-92.9446872294
  0
LWPOLYLINE
  5
331
100
AcDbEntity
  8
IMPORT_IGES
100
AcDbPolyline
 62
253
  6
CONTINUOUS
 90
13
 70
0
 10
-5.4138433178
 20
-74.961318999
 10
-5.4110673444
 20
-74.9771879579
 10
-5.403383955
 20
-74.9926413495
 10
-5.3909811541
 20
-75.0074299208
 10
-5.3742218889
 20
-75.0212493498
 10
-5.3533773667
 20
-75.0339695939
 10
-5.3284049654
 20
-75.0455763255
 10
-5.299376598
 20
-75.0558965936
 10
-5.2668254733
 20
-75.0646166851
 10
-5.2313792847
 20
-75.0714979464
 10
-5.1936688977
 20
-75.0763740055
 10
-5.1542767567
 20
-75.0791280275
 10
-5.1138891502
 20
-75.0796666718
  0
LWPOLYLINE
  5
332
100
AcDbEntity
  8
IMPORT_IGES
100
AcDbPolyline
 62
253
  6
CONTINUOUS
 90
13
 70
0
 10
-5.467550685
 20
-71.8844259917
 10
-5.4647743825
 20
-71.9002958708
 10
-5.4570903061
 20
-71.9157497564
 10
-5.4446868485
 20
-71.9305384038
 10
-5.4279275107
 20
-71.944357414
 10
-5.4070837177
 20
-71.9570769724
 10
-5.382112332
 20
-71.9686831691
 10
-5.3530850386
 20
-71.9790029899
 10
-5.3205350707
 20
-71.9877227865
 10
-5.2850895153
 20
-71.9946043284
 10
-5.2473789025
 20
-71.9994812756
 10
-5.2079857633
 20
-72.0022365266
 10
-5.1675963837
 20
-72.0027766197
  0
LINE
  5
333
100
AcDbEntity
  8
ASSI
100
AcDbLine
 62
7
  6
CONTINUOUS
 10
-4.3818084451
 20
-91.3221210571
 11
-4.3597019324
 21
-91.5212594429
  0
LINE
  5
334
100
AcDbEntity
  8
ASSI
100
AcDbLine
 62
253
  6
CONTINUOUS
 10
-4.3026859597
 20
-90.6383403847
 11
-4.4010072835
 21
-87.7581533271
  0
LWPOLYLINE
  5
335
100
AcDbEntity
  8
ASSI
100
AcDbPolyline
 62
7
  6
CONTINUOUS
 90
61
 70
0
 10
-3.6190425559
 20
-90.6383403847
 10
-3.6195317471
 20
-90.619951921
 10
-3.6209579487
 20
-90.6017214339
 10
-3.6233211606
 20
-90.5836489235
 10
-3.6266347617
 20
-90.5656839582
 10
-3.6308853732
 20
-90.5478769697
 10
-3.6360328581
 20
-90.5303792521
 10
-3.6420854357
 20
-90.513194085
 10
-3.6490348867
 20
-90.4963181888
 10
-3.656816417
 20
-90.4798930202
 10
-3.665434807
 20
-90.4639259861
 10
-3.6748852762
 20
-90.4484096795
 10
-3.6850886893
 20
-90.4334633355
 10
-3.6960557564
 20
-90.4190868601
 10
-3.7077757675
 20
-90.4052803473
 10
-3.7201374562
 20
-90.3921633153
 10
-3.7331370255
 20
-90.3797496945
 10
-3.7467782725
 20
-90.3680255545
 10
-3.7609613224
 20
-90.3570686216
 10
-3.7757005569
 20
-90.3468776619
 10
-3.7909815943
 20
-90.3374539093
 10
-3.8066614139
 20
-90.3288787923
 10
-3.822730293
 20
-90.3211653394
 10
-3.8391979544
 20
-90.3143005221
 10
-3.8559505454
 20
-90.3083266823
 10
-3.8730003986
 20
-90.3032463989
 10
-3.8903351814
 20
-90.299057093
 10
-3.9078040437
 20
-90.2957933708
 10
-3.9254013954
 20
-90.293463958
 10
-3.9431328266
 20
-90.2920601288
 10
-3.9608642578
 20
-90.2915903126
 10
-3.978595689
 20
-90.2920601288
 10
-3.9963271203
 20
-90.293463958
 10
-4.0139244719
 20
-90.2957933708
 10
-4.0313933343
 20
-90.299057093
 10
-4.0487281171
 20
-90.3032463989
 10
-4.0657779702
 20
-90.3083266823
 10
-4.0825305612
 20
-90.3143005221
 10
-4.0989982226
 20
-90.3211653394
 10
-4.1150671018
 20
-90.3288787923
 10
-4.1307469213
 20
-90.3374539093
 10
-4.1460279587
 20
-90.3468776619
 10
-4.1607671933
 20
-90.3570686216
 10
-4.1749502431
 20
-90.3680255545
 10
-4.1885914901
 20
-90.3797496945
 10
-4.2015910595
 20
-90.3921633153
 10
-4.2139527482
 20
-90.4052803473
 10
-4.2256727592
 20
-90.4190868601
 10
-4.2366398264
 20
-90.4334633355
 10
-4.2468432394
 20
-90.4484096795
 10
-4.2562937087
 20
-90.4639259861
 10
-4.2649120986
 20
-90.4798930202
 10
-4.2726936289
 20
-90.4963181888
 10
-4.2796430799
 20
-90.513194085
 10
-4.2856956575
 20
-90.5303792521
 10
-4.2908431424
 20
-90.5478769697
 10
-4.2950937539
 20
-90.5656839582
 10
-4.2984073551
 20
-90.5836489235
 10
-4.3007705669
 20
-90.6017214339
 10
-4.3021967685
 20
-90.619951921
 10
-4.3026859597
 20
-90.6383403847
  0
LWPOLYLINE
  5
336
100
AcDbEntity
  8
ASSI
100
AcDbPolyline
 62
7
  6
CONTINUOUS
 90
61
 70
0
 10
-4.3026859597
 20
-50.5832377403
 10
-4.3021967685
 20
-50.601626204
 10
-4.3007705669
 20
-50.6198566911
 10
-4.2984073551
 20
-50.6379292015
 10
-4.2950937539
 20
-50.6558941668
 10
-4.2908431424
 20
-50.6737011553
 10
-4.2856956575
 20
-50.6911988729
 10
-4.2796430799
 20
-50.70838404
 10
-4.2726936289
 20
-50.7252599362
 10
-4.2649120986
 20
-50.7416851048
 10
-4.2562937087
 20
-50.7576521389
 10
-4.2468432394
 20
-50.7731684455
 10
-4.2366398264
 20
-50.7881147895
 10
-4.2256727592
 20
-50.8024912649
 10
-4.2139527482
 20
-50.8162977777
 10
-4.2015910595
 20
-50.8294148097
 10
-4.1885914901
 20
-50.8418284305
 10
-4.1749502431
 20
-50.8535525705
 10
-4.1607671933
 20
-50.8645095034
 10
-4.1460279587
 20
-50.8747004631
 10
-4.1307469213
 20
-50.8841242157
 10
-4.1150671018
 20
-50.8926993327
 10
-4.0989982226
 20
-50.9004127856
 10
-4.0825305612
 20
-50.9072776029
 10
-4.0657779702
 20
-50.9132514427
 10
-4.0487281171
 20
-50.9183317261
 10
-4.0313933343
 20
-50.922521032
 10
-4.0139244719
 20
-50.9257847542
 10
-3.9963271203
 20
-50.928114167
 10
-3.978595689
 20
-50.9295179962
 10
-3.9608642578
 20
-50.9299878124
 10
-3.9431328266
 20
-50.9295179962
 10
-3.9254013954
 20
-50.928114167
 10
-3.9078040437
 20
-50.9257847542
 10
-3.8903351814
 20
-50.922521032
 10
-3.8730003986
 20
-50.9183317261
 10
-3.8559505454
 20
-50.9132514427
 10
-3.8391979544
 20
-50.9072776029
 10
-3.822730293
 20
-50.9004127856
 10
-3.8066614139
 20
-50.8926993327
 10
-3.7909815943
 20
-50.8841242157
 10
-3.7757005569
 20
-50.8747004631
 10
-3.7609613224
 20
-50.8645095034
 10
-3.7467782725
 20
-50.8535525705
 10
-3.7331370255
 20
-50.8418284305
 10
-3.7201374562
 20
-50.8294148097
 10
-3.7077757675
 20
-50.8162977777
 10
-3.6960557564
 20
-50.8024912649
 10
-3.6850886893
 20
-50.7881147895
 10
-3.6748852762
 20
-50.7731684455
 10
-3.665434807
 20
-50.7576521389
 10
-3.656816417
 20
-50.7416851048
 10
-3.6490348867
 20
-50.7252599362
 10
-3.6420854357
 20
-50.70838404
 10
-3.6360328581
 20
-50.6911988729
 10
-3.6308853732
 20
-50.6737011553
 10
-3.6266347617
 20
-50.6558941668
 10
-3.6233211606
 20
-50.6379292015
 10
-3.6209579487
 20
-50.6198566911
 10
-3.6195317471
 20
-50.601626204
 10
-3.6190425559
 20
-50.5832377403
  0
LINE
  5
337
100
AcDbEntity
  8
IMPORT_IGES
100
AcDbLine
 62
253
  6
CONTINUOUS
 10
-5.102442543
 20
-75.6496262328
 11
-5.1138889859
 21
-75.0796666694
  0
LINE
  5
338
100
AcDbEntity
  8
IMPORT_IGES
100
AcDbLine
 62
253
  6
CONTINUOUS
 10
-5.0162946604
 20
-80.7601070953
 11
-5.0458513363
 21
-79.092293062
  0
LINE
  5
339
100
AcDbEntity
  8
IMPORT_IGES
100
AcDbLine
 62
253
  6
CONTINUOUS
 10
-5.1138889859
 20
-75.0796666694
 11
-5.1675966286
 21
-72.0027767069
  0
LINE
  5
33A
100
AcDbEntity
  8
IMPORT_IGES
100
AcDbLine
 62
253
  6
CONTINUOUS
 10
-5.0482216581
 20
-78.7559430351
 11
-5.102442543
 21
-75.6496262328
  0
LINE
  5
33B
100
AcDbEntity
  8
IMPORT_IGES
100
AcDbLine
 62
7
  6
CONTINUOUS
 10
-5.179775403
 20
-71.1818731662
 11
-5.1675966286
 21
-72.0027767069
  0
LINE
  5
33C
100
AcDbEntity
  8
IMPORT_IGES
100
AcDbLine
 62
253
  6
CONTINUOUS
 10
-5.1829181993
 20
-70.9657889701
 11
-5.1797755562
 21
-71.181874473
  0
LINE
  5
33D
100
AcDbEntity
  8
ASSI
100
AcDbLine
 62
253
  6
CONTINUOUS
 10
-5.3152360918
 20
-46.7664514952
 11
-5.3108642578
 21
-47.2003039143
  0
LINE
  5
33E
100
AcDbEntity
  8
IMPORT_IGES
100
AcDbLine
 62
7
  6
CONTINUOUS
 10
-5.0482216581
 20
-78.7559430351
 11
-5.0458513363
 21
-79.0922926688
  0
LINE
  5
33F
100
AcDbEntity
  8
IMPORT_IGES
100
AcDbLine
 62
253
  6
CONTINUOUS
 10
-5.0160694933
 20
-80.8003795072
 11
-5.0162946604
 21
-80.7601070953
  0
LINE
  5
340
100
AcDbEntity
  8
IMPORT_IGES
100
AcDbLine
 62
253
  6
CONTINUOUS
 10
-4.1110220165
 20
-70.9818722523
 11
-4.1108642345
 21
-71.1818431202
  0
LINE
  5
341
100
AcDbEntity
  8
ASSI
100
AcDbLine
 62
253
  6
CONTINUOUS
 10
-5.1448888246
 20
-49.0448136292
 11
-5.1448888246
 21
-49.6190807983
  0
LINE
  5
342
100
AcDbEntity
  8
ASSI
100
AcDbLine
 62
253
  6
CONTINUOUS
 10
-5.1448888246
 20
-91.6024973267
 11
-5.1448888246
 21
-92.1767644958
  0
LINE
  5
343
100
AcDbEntity
  8
ASSI
100
AcDbLine
 62
253
  6
CONTINUOUS
 10
-4.644964977
 20
-49.2980958188
 11
-4.644964977
 21
-49.6147935168
  0
LINE
  5
344
100
AcDbEntity
  8
ASSI
100
AcDbLine
 62
253
  6
CONTINUOUS
 10
-4.644964977
 20
-91.6067846082
 11
-4.644964977
 21
-91.9234823062
  0
LINE
  5
345
100
AcDbEntity
  8
ASSI
100
AcDbLine
 62
7
  6
CONTINUOUS
 10
-4.5608642578
 20
-84.010808101
 11
-4.5608642578
 21
-83.1107890625
  0
LINE
  5
346
100
AcDbEntity
  8
ASSI
100
AcDbLine
 62
7
  6
CONTINUOUS
 10
-4.5608642578
 20
-60.4577289858
 11
-4.5608642578
 21
-60.210770024
  0
LINE
  5
347
100
AcDbEntity
  8
ASSI
100
AcDbLine
 62
7
  6
CONTINUOUS
 10
-4.5608642578
 20
-81.1612208102
 11
-4.5608642578
 21
-82.1107890625
  0
LINE
  5
348
100
AcDbEntity
  8
ASSI
100
AcDbLine
 62
7
  6
CONTINUOUS
 10
-4.5434105222
 20
-81.1647350721
 11
-4.5434105222
 21
-82.1282427981
  0
LINE
  5
349
100
AcDbEntity
  8
IMPORT_IGES
100
AcDbLine
 62
253
  6
CONTINUOUS
 10
-4.5108642249
 20
-81.0920536333
 11
-4.5108642578
 21
-79.5527910691
  0
LINE
  5
34A
100
AcDbEntity
  8
IMPORT_IGES
100
AcDbLine
 62
253
  6
CONTINUOUS
 10
-4.5108642578
 20
-78.7559430402
 11
-4.5108537778
 21
-71.3636224951
  0
LINE
  5
34B
100
AcDbEntity
  8
ASSI
100
AcDbLine
 62
7
  6
CONTINUOUS
 10
-4.4709775196
 20
-83.9209213627
 11
-4.4709775196
 21
-83.0209023243
  0
LINE
  5
34C
100
AcDbEntity
  8
ASSI
100
AcDbLine
 62
7
  6
CONTINUOUS
 10
-4.4709775196
 20
-60.3006567623
 11
-4.4709775196
 21
-60.3678422476
  0
LINE
  5
34D
100
AcDbEntity
  8
ASSI
100
AcDbLine
 62
7
  6
CONTINUOUS
 10
-4.4126429431
 20
-50.1772182981
 11
-4.4126429431
 21
-53.8042753373
  0
LINE
  5
34E
100
AcDbEntity
  8
ASSI
100
AcDbLine
 62
7
  6
CONTINUOUS
 10
-4.4010072835
 20
-87.7581533271
 11
-4.4010072835
 21
-89.9107890625
  0
LINE
  5
34F
100
AcDbEntity
  8
ASSI
100
AcDbLine
 62
7
  6
CONTINUOUS
 10
-4.3818084451
 20
-91.3221210571
 11
-4.3818084451
 21
-90.4107890625
  0
LINE
  5
350
100
AcDbEntity
  8
IMPORT_IGES
100
AcDbLine
 62
7
  6
CONTINUOUS
 10
-4.3108642578
 20
-80.9679333107
 11
-4.3108642578
 21
-79.3930639507
  0
LINE
  5
351
100
AcDbEntity
  8
ASSI
100
AcDbLine
 62
7
  6
CONTINUOUS
 10
-4.3026859597
 20
-91.6067846082
 11
-4.3026859597
 21
-90.6383403847
  0
LINE
  5
352
100
AcDbEntity
  8
ASSI
100
AcDbLine
 62
7
  6
CONTINUOUS
 10
-4.3026859597
 20
-50.5832377403
 11
-4.3026859597
 21
-49.6147935168
  0
LINE
  5
353
100
AcDbEntity
  8
IMPORT_IGES
100
AcDbLine
 62
253
  6
CONTINUOUS
 10
-4.263865899
 20
-60.514261353
 11
-4.2638642578
 21
-62.8408918232
  0
LINE
  5
354
100
AcDbEntity
  8
IMPORT_IGES
100
AcDbLine
 62
253
  6
CONTINUOUS
 10
-4.1108678239
 20
-79.2513694452
 11
-4.1108692588
 21
-81.2019802446
  0
LINE
  5
355
100
AcDbEntity
  8
IMPORT_IGES
100
AcDbLine
 62
7
  6
CONTINUOUS
 10
-4.0638642578
 20
-62.7627355314
 11
-4.0638642578
 21
-60.4435716983
  0
LINE
  5
356
100
AcDbEntity
  8
ASSI
100
AcDbLine
 62
253
  6
CONTINUOUS
 10
-3.8731285017
 20
-84.4209023243
 11
-3.8731285017
 21
-84.0984334357
  0
LINE
  5
357
100
AcDbEntity
  8
ASSI
100
AcDbLine
 62
253
  6
CONTINUOUS
 10
-3.8731285017
 20
-59.9607890625
 11
-3.8731285017
 21
-59.8006758007
  0
LINE
  5
358
100
AcDbEntity
  8
IMPORT_IGES
100
AcDbLine
 62
253
  6
CONTINUOUS
 10
-3.863864265
 20
-59.9607890625
 11
-3.8638642578
 21
-62.7088787274
  0
LINE
  5
359
100
AcDbEntity
  8
ASSI
100
AcDbLine
 62
7
  6
CONTINUOUS
 10
-3.6190425559
 20
-91.1937133457
 11
-3.6190425559
 21
-90.6383403847
  0
LINE
  5
35A
100
AcDbEntity
  8
ASSI
100
AcDbLine
 62
7
  6
CONTINUOUS
 10
-3.6190425559
 20
-50.5832377403
 11
-3.6190425559
 21
-50.0278647793
  0
LINE
  5
35B
100
AcDbEntity
  8
ASSI
100
AcDbLine
 62
253
  6
CONTINUOUS
 10
-3.5731741931
 20
-84.4234746931
 11
-3.5731741931
 21
-84.0984334357
  0
LINE
  5
35C
100
AcDbEntity
  8
ASSI
100
AcDbLine
 62
253
  6
CONTINUOUS
 10
-3.5731741931
 20
-59.9084568592
 11
-3.5731741931
 21
-59.7981034319
  0
LINE
  5
35D
100
AcDbEntity
  8
ASSI
100
AcDbLine
 62
7
  6
CONTINUOUS
 10
-3.5608642578
 20
-82.1944241791
 11
-3.5608642578
 21
-81.7471950954
  0
LINE
  5
35E
100
AcDbEntity
  8
ASSI
100
AcDbLine
 62
7
  6
CONTINUOUS
 10
-3.5608642578
 20
-59.791948933
 11
-3.5608642578
 21
-59.8607890625
  0
LINE
  5
35F
100
AcDbEntity
  8
ASSI
100
AcDbLine
 62
7
  6
CONTINUOUS
 10
-3.5608642578
 20
-82.2006758007
 11
-3.5608642578
 21
-82.9107890625
  0
LINE
  5
360
100
AcDbEntity
  8
ASSI
100
AcDbLine
 62
7
  6
CONTINUOUS
 10
-3.5608642578
 20
-84.110743371
 11
-3.5608642578
 21
-84.429629192
  0
LINE
  5
361
100
AcDbEntity
  8
ASSI
100
AcDbLine
 62
7
  6
CONTINUOUS
 10
-3.5399200705
 20
-90.5793723385
 11
-3.5399200705
 21
-90.4107890625
  0
LINE
  5
362
100
AcDbEntity
  8
ASSI
100
AcDbLine
 62
7
  6
CONTINUOUS
 10
-3.5207212321
 20
-87.7581533271
 11
-3.5207212321
 21
-89.9107890625
  0
LINE
  5
363
100
AcDbEntity
  8
ASSI
100
AcDbLine
 62
7
  6
CONTINUOUS
 10
-3.5090855725
 20
-50.6884581858
 11
-3.5090855725
 21
-53.8042753373
  0
LINE
  5
364
100
AcDbEntity
  8
IMPORT_IGES
100
AcDbLine
 62
253
  6
CONTINUOUS
 10
-3.4108642578
 20
-70.3657890625
 11
-3.4108642578
 21
-68.9657890625
  0
LINE
  5
365
100
AcDbEntity
  8
IMPORT_IGES
100
AcDbLine
 62
7
  6
CONTINUOUS
 10
-5.0493471786
 20
-63.1678958437
 11
-5.0468785182
 21
-62.8143424537
  0
LINE
  5
366
100
AcDbEntity
  8
ASSI
100
AcDbLine
 62
253
  6
CONTINUOUS
 10
-5.3108642578
 20
-94.0212742107
 11
-5.3152360918
 21
-94.4551266298
  0
LINE
  5
367
100
AcDbEntity
  8
IMPORT_IGES
100
AcDbLine
 62
253
  6
CONTINUOUS
 10
-5.0468786596
 20
-62.8143424533
 11
-5.019926771
 21
-61.2703519497
  0
LINE
  5
368
100
AcDbEntity
  8
IMPORT_IGES
100
AcDbLine
 62
253
  6
CONTINUOUS
 10
-5.0555252697
 20
-63.5218384498
 11
-5.0493471786
 21
-63.1678958444
  0
LINE
  5
369
100
AcDbEntity
  8
IMPORT_IGES
100
AcDbLine
 62
253
  6
CONTINUOUS
 10
-5.1829181993
 20
-70.9657889701
 11
-5.0709585723
 21
-64.5155179924
  0
LWPOLYLINE
  5
36A
100
AcDbEntity
  8
ASSI
100
AcDbPolyline
 62
7
  6
CONTINUOUS
 90
5
 70
0
 10
-5.3108642578
 20
-94.8607932933
 10
-5.3111474081
 20
-94.8726885785
 10
-5.3119962236
 20
-94.8845569181
 10
-5.3134087837
 20
-94.8963714286
 10
-5.3153818901
 20
-94.90810535
  0
LWPOLYLINE
  5
36B
100
AcDbEntity
  8
ASSI
100
AcDbPolyline
 62
7
  6
CONTINUOUS
 90
67
 70
0
 10
-4.4010072835
 20
-87.7581533271
 10
-4.4004945241
 20
-87.7366906232
 10
-4.398980854
 20
-87.7153670118
 10
-4.3964662732
 20
-87.694182493
 10
-4.3929380576
 20
-87.6730812256
 10
-4.3884089314
 20
-87.6521190508
 10
-4.382917067
 20
-87.6314634921
 10
-4.3764593408
 20
-87.6111307576
 10
-4.3690388764
 20
-87.5911046394
 10
-4.3607032178
 20
-87.5715040367
 10
-4.3514375634
 20
-87.5523168239
 10
-4.3412567148
 20
-87.5335551267
 10
-4.3302526204
 20
-87.515374221
 10
-4.3184331307
 20
-87.4977986303
 10
-4.3057903953
 20
-87.4808038312
 10
-4.292392811
 20
-87.4644715299
 10
-4.2782176227
 20
-87.4487865831
 10
-4.2632875857
 20
-87.4337641341
 10
-4.2477393624
 20
-87.419531318
 10
-4.2315920842
 20
-87.4061133162
 10
-4.2148266198
 20
-87.3934849473
 10
-4.1975222377
 20
-87.3816978027
 10
-4.1796513637
 20
-87.3707413836
 10
-4.161241572
 20
-87.3606261887
 10
-4.1424548537
 20
-87.3514353054
 10
-4.1233135805
 20
-87.3431864773
 10
-4.1037953807
 20
-87.3358619607
 10
-4.0839951304
 20
-87.3294916119
 10
-4.0638923023
 20
-87.3240743615
 10
-4.0435074238
 20
-87.3196112789
 10
-4.0229969522
 20
-87.3161354288
 10
-4.0023712332
 20
-87.313655755
 10
-3.9816199211
 20
-87.3121633137
 10
-3.9608684364
 20
-87.3116643386
 10
-3.940116621
 20
-87.3121629829
 10
-3.919364633
 20
-87.3136550935
 10
-3.8987383672
 20
-87.3161344447
 10
-3.8782276752
 20
-87.3196099859
 10
-3.8578427054
 20
-87.3240727677
 10
-3.8377397974
 20
-87.3294897166
 10
-3.8179395184
 20
-87.3358597128
 10
-3.7984213013
 20
-87.3431838761
 10
-3.7792797847
 20
-87.3514324924
 10
-3.7604923063
 20
-87.3606234884
 10
-3.7420815284
 20
-87.3707389374
 10
-3.7242100767
 20
-87.3816953452
 10
-3.7069060477
 20
-87.3934818244
 10
-3.6901413449
 20
-87.4061092624
 10
-3.6739943047
 20
-87.4195268271
 10
-3.6584451277
 20
-87.4337603247
 10
-3.6435136133
 20
-87.448783949
 10
-3.6293374961
 20
-87.4644694488
 10
-3.6159402318
 20
-87.4808008379
 10
-3.6032983648
 20
-87.4977941025
 10
-3.591479262
 20
-87.5153689498
 10
-3.5804744365
 20
-87.5335509155
 10
-3.5702923752
 20
-87.552314464
 10
-3.5610259059
 20
-87.5715026963
 10
-3.5526903307
 20
-87.5911024124
 10
-3.5452703473
 20
-87.6111268122
 10
-3.5388128766
 20
-87.6314585968
 10
-3.5333207228
 20
-87.6521148317
 10
-3.5287910816
 20
-87.6730784513
 10
-3.5252624611
 20
-87.6941809603
 10
-3.5227476974
 20
-87.7153661933
 10
-3.5212339544
 20
-87.7366903155
 10
-3.5207212321
 20
-87.7581533271
  0
LWPOLYLINE
  5
36C
100
AcDbEntity
  8
ASSI
100
AcDbPolyline
 62
7
  6
CONTINUOUS
 90
67
 70
0
 10
-3.5090855725
 20
-53.8042753373
 10
-3.5096175047
 20
-53.8263548143
 10
-3.5111762483
 20
-53.8482775513
 10
-3.5137618032
 20
-53.8700435483
 10
-3.517386415
 20
-53.8917036782
 10
-3.5220378382
 20
-53.913207068
 10
-3.527679336
 20
-53.934401099
 10
-3.5343182776
 20
-53.9552823563
 10
-3.5419472939
 20
-53.9758542548
 10
-3.5505075411
 20
-53.9959744201
 10
-3.5600040049
 20
-54.0156368827
 10
-3.5704316997
 20
-54.0348476123
 10
-3.5817168246
 20
-54.0534821432
 10
-3.5938690244
 20
-54.0715408136
 10
-3.6068786544
 20
-54.0890232854
 10
-3.62064298
 20
-54.1058040789
 10
-3.6351592185
 20
-54.1218699892
 10
-3.6504301526
 20
-54.1372342211
 10
-3.6663613965
 20
-54.1518109098
 10
-3.6829669901
 20
-54.1656029153
 10
-3.7002328936
 20
-54.1786073774
 10
-3.7180226009
 20
-54.1907298506
 10
-3.7363260679
 20
-54.2019562398
 10
-3.7551533387
 20
-54.2123006401
 10
-3.7743980404
 20
-54.2217108903
 10
-3.7940754319
 20
-54.2301873098
 10
-3.8141702543
 20
-54.2377295792
 10
-3.8345303574
 20
-54.2442845791
 10
-3.8551455178
 20
-54.2498423044
 10
-3.876025959
 20
-54.2544127603
 10
-3.8970502015
 20
-54.257972843
 10
-3.918225686
 20
-54.2605184234
 10
-3.9395449719
 20
-54.2620536306
 10
-3.9608642578
 20
-54.2625677478
 10
-3.9821835437
 20
-54.2620536306
 10
-4.0035028296
 20
-54.2605184234
 10
-4.0246783141
 20
-54.257972843
 10
-4.0457025566
 20
-54.2544127603
 10
-4.0665829978
 20
-54.2498423044
 10
-4.0871981582
 20
-54.2442845791
 10
-4.1075582613
 20
-54.2377295792
 10
-4.1276530837
 20
-54.2301873098
 10
-4.1473304752
 20
-54.2217108903
 10
-4.1665751769
 20
-54.2123006401
 10
-4.1854024478
 20
-54.2019562398
 10
-4.2037059147
 20
-54.1907298506
 10
-4.221495622
 20
-54.1786073774
 10
-4.2387615255
 20
-54.1656029153
 10
-4.2553671192
 20
-54.1518109098
 10
-4.271298363
 20
-54.1372342211
 10
-4.2865692971
 20
-54.1218699892
 10
-4.3010855356
 20
-54.1058040789
 10
-4.3148498612
 20
-54.0890232854
 10
-4.3278594912
 20
-54.0715408136
 10
-4.340011691
 20
-54.0534821432
 10
-4.3512968159
 20
-54.0348476123
 10
-4.3617245107
 20
-54.0156368827
 10
-4.3712209745
 20
-53.9959744201
 10
-4.3797812218
 20
-53.9758542548
 10
-4.3874102381
 20
-53.9552823563
 10
-4.3940491796
 20
-53.934401099
 10
-4.3996906775
 20
-53.913207068
 10
-4.4043421006
 20
-53.8917036782
 10
-4.4079667124
 20
-53.8700435483
 10
-4.4105522673
 20
-53.8482775513
 10
-4.4121110109
 20
-53.8263548143
 10
-4.4126429431
 20
-53.8042753373
  0
LWPOLYLINE
  5
36D
100
AcDbEntity
  8
ASSI
100
AcDbPolyline
 62
7
  6
CONTINUOUS
 90
29
 70
0
 10
-5.3152360918
 20
-94.8564214593
 10
-5.3155792808
 20
-94.8695078134
 10
-5.3166070238
 20
-94.8825583117
 10
-5.318316507
 20
-94.8955371692
 10
-5.3207030497
 20
-94.9084088088
 10
-5.3237601108
 20
-94.9211379227
 10
-5.3274793003
 20
-94.9336895702
 10
-5.3318504154
 20
-94.9460293263
 10
-5.3368614709
 20
-94.9581233635
 10
-5.3424987192
 20
-94.9699385092
 10
-5.3487466983
 20
-94.981442365
 10
-5.3555882741
 20
-94.9926033909
 10
-5.363004681
 20
-95.0033909812
 10
-5.3709755892
 20
-95.0137755705
 10
-5.3794791307
 20
-95.0237286739
 10
-5.3884919498
 20
-95.0332229671
 10
-5.3979892842
 20
-95.0422323889
 10
-5.4079451214
 20
-95.0507322858
 10
-5.4183322473
 20
-95.0586994281
 10
-5.4291223265
 20
-95.0661120581
 10
-5.4402856448
 20
-95.0729497399
 10
-5.4517912453
 20
-95.0791935416
 10
-5.4636073235
 20
-95.0848262902
 10
-5.4757016797
 20
-95.0898327201
 10
-5.4880414836
 20
-95.0941992712
 10
-5.5005956682
 20
-95.0979147109
 10
-5.5133271333
 20
-95.1009678243
 10
-5.5261928521
 20
-95.1033489545
 10
-5.5383517832
 20
-95.1049670161
  0
LINE
  5
36E
100
AcDbEntity
  8
ASSI
100
AcDbLine
 62
253
  6
CONTINUOUS
 10
-4.3026859597
 20
-50.5832377403
 11
-4.4126429431
 21
-53.8042753373
  0
LWPOLYLINE
  5
36F
100
AcDbEntity
  8
IMPORT_IGES
100
AcDbPolyline
 62
253
  6
CONTINUOUS
 90
8
 70
0
 10
-4.3108642578
 20
-80.9323266981
 10
-4.3125367284
 20
-80.9529399327
 10
-4.3175031863
 20
-80.9731390498
 10
-4.3256472352
 20
-80.9925938741
 10
-4.3367377467
 20
-81.0109016541
 10
-4.3505975138
 20
-81.0278780469
 10
-4.3672467115
 20
-81.0434889851
 10
-4.3866314807
 20
-81.0575015404
  0
LWPOLYLINE
  5
370
100
AcDbEntity
  8
IMPORT_IGES
100
AcDbPolyline
 62
7
  6
CONTINUOUS
 90
14
 70
0
 10
-4.3108610853
 20
-79.3915987655
 10
-4.3107015424
 20
-79.3898654532
 10
-4.3101638102
 20
-79.3867788964
 10
-4.308968117
 20
-79.3825338695
 10
-4.306481003
 20
-79.3766151003
 10
-4.3026535333
 20
-79.3698735741
 10
-4.2972969082
 20
-79.3624346706
 10
-4.2898449545
 20
-79.3540437754
 10
-4.2802406252
 20
-79.345154448
 10
-4.2685362973
 20
-79.3361612327
 10
-4.2545449252
 20
-79.3272381491
 10
-4.2380407571
 20
-79.3185867099
 10
-4.2191669063
 20
-79.3105973063
 10
-4.1982779381
 20
-79.3036807351
  0
LWPOLYLINE
  5
371
100
AcDbEntity
  8
IMPORT_IGES
100
AcDbPolyline
 62
253
  6
CONTINUOUS
 90
10
 70
0
 10
-4.5108642578
 20
-79.5527910691
 10
-4.5064919833
 20
-79.5155925043
 10
-4.4982239233
 20
-79.480917972
 10
-4.4860600777
 20
-79.4487674723
 10
-4.4697487489
 20
-79.4192965635
 10
-4.4495416345
 20
-79.3923496873
 10
-4.4261938274
 20
-79.3674601683
 10
-4.3996378536
 20
-79.3442792546
 10
-4.3699411871
 20
-79.3231556982
 10
-4.338061344
 20
-79.3046690796
  0
LWPOLYLINE
  5
372
100
AcDbEntity
  8
ASSI
100
AcDbPolyline
 62
7
  6
CONTINUOUS
 90
10
 70
0
 10
-0.5608642578
 20
-46.8596467722
 10
-0.5611965477
 20
-46.8623651513
 10
-0.5622054646
 20
-46.8657469824
 10
-0.5639083643
 20
-46.8697922657
 10
-0.5663227143
 20
-46.87448824
 10
-0.5694631384
 20
-46.8798476664
 10
-0.5733384229
 20
-46.8859088278
 10
-0.5779573998
 20
-46.8926769618
 10
-0.5833294912
 20
-46.9001468307
 10
-0.5894585561
 20
-46.908341005
  0
LWPOLYLINE
  5
373
100
AcDbEntity
  8
IMPORT_IGES
100
AcDbPolyline
 62
253
  6
CONTINUOUS
 90
13
 70
0
 10
-4.3108642588
 20
-71.9203939434
 10
-4.312538226
 20
-71.9310231943
 10
-4.3175044878
 20
-71.9414397211
 10
-4.3256475159
 20
-71.9514732776
 10
-4.336737388
 20
-71.9609163443
 10
-4.350597488
 20
-71.9696734294
 10
-4.3672471633
 20
-71.9777261384
 10
-4.3866319928
 20
-71.9849541351
 10
-4.4083984542
 20
-71.9911422505
 10
-4.4321250735
 20
-71.9961229186
 10
-4.4573864236
 20
-71.9997767925
 10
-4.4837877393
 20
-72.0020182243
 10
-4.5108642577
 20
-72.0027767653
  0
LWPOLYLINE
  5
374
100
AcDbEntity
  8
ASSI
100
AcDbPolyline
 62
7
  6
CONTINUOUS
 90
8
 70
0
 10
11.2288211841
 20
-46.2256265566
 10
11.2354904467
 20
-46.2157726574
 10
11.2426210315
 20
-46.2062472587
 10
11.2501967833
 20
-46.1970719434
 10
11.2582005417
 20
-46.1882674964
 10
11.2666141761
 20
-46.179853862
 10
11.2754186231
 20
-46.1718501036
 10
11.2845939383
 20
-46.1642743518
  0
LWPOLYLINE
  5
375
100
AcDbEntity
  8
IMPORT_IGES
100
AcDbPolyline
 62
253
  6
CONTINUOUS
 90
13
 70
0
 10
9.8179313291
 20
-59.9607916534
 10
9.8131391314
 20
-59.9623967379
 10
9.8083499521
 20
-59.9672882512
 10
9.8036905397
 20
-59.9754474672
 10
9.7993418773
 20
-59.9865028856
 10
9.7953463589
 20
-60.0001832173
 10
9.7916376462
 20
-60.0167545375
 10
9.7883079166
 20
-60.036045924
 10
9.7854743434
 20
-60.0575320154
 10
9.7831611329
 20
-60.0812198669
 10
9.7814448083
 20
-60.1067023383
 10
9.7803983019
 20
-60.133073354
 10
9.7800333376
 20
-60.1595662137
  0
LWPOLYLINE
  5
376
100
AcDbEntity
  8
IMPORT_IGES
100
AcDbPolyline
 62
253
  6
CONTINUOUS
 90
3
 70
0
 10
-4.1917683542
 20
-79.2581059281
 10
-4.1519639933
 20
-79.2533589476
 10
-4.1108671871
 20
-79.2513694902
  0
LWPOLYLINE
  5
377
100
AcDbEntity
  8
IMPORT_IGES
100
AcDbPolyline
 62
253
  6
CONTINUOUS
 90
13
 70
0
 10
-4.5108642249
 20
-79.5527910691
 10
-4.4850535604
 20
-79.5514553709
 10
-4.4597614516
 20
-79.5474889805
 10
-4.4354013229
 20
-79.5409848545
 10
-4.4124774819
 20
-79.532127579
 10
-4.3912207435
 20
-79.5210586766
 10
-4.3716737395
 20
-79.5077620356
 10
-4.3541281194
 20
-79.4922806709
 10
-4.3391067479
 20
-79.4748972487
 10
-4.3270163521
 20
-79.4559483203
 10
-4.3181466593
 20
-79.4357736206
 10
-4.3127056146
 20
-79.414688438
 10
-4.3108642578
 20
-79.3930639527
  0
LWPOLYLINE
  5
378
100
AcDbEntity
  8
IMPORT_IGES
100
AcDbPolyline
 62
253
  6
CONTINUOUS
 90
13
 70
0
 10
6.752031993
 20
-78.5332021465
 10
6.7783887393
 20
-78.5319268344
 10
6.8043477486
 20
-78.5278746243
 10
6.8294490696
 20
-78.5210968361
 10
6.8533828464
 20
-78.5116285786
 10
6.8755518047
 20
-78.4996544964
 10
6.895201892
 20
-78.4856512031
 10
6.9119135549
 20
-78.4701626348
 10
6.9257818103
 20
-78.4533751992
 10
6.9368931911
 20
-78.4352931125
 10
6.9450999787
 20
-78.4160847833
 10
6.9501836966
 20
-78.3961631083
 10
6.9520509253
 20
-78.3758497318
  0
LWPOLYLINE
  5
379
100
AcDbEntity
  8
IMPORT_IGES
100
AcDbPolyline
 62
253
  6
CONTINUOUS
 90
8
 70
0
 10
7.0917685525
 20
-79.0922908265
 10
7.0726829888
 20
-79.093207853
 10
7.053935441
 20
-79.0960528228
 10
7.0358281841
 20
-79.1007723242
 10
7.0187225208
 20
-79.1072513237
 10
7.0028090716
 20
-79.1153958207
 10
6.9881597208
 20
-79.1252045276
 10
6.9749991135
 20
-79.1366371931
  0
LWPOLYLINE
  5
37A
100
AcDbEntity
  8
IMPORT_IGES
100
AcDbPolyline
 62
253
  6
CONTINUOUS
 90
13
 70
0
 10
7.0902793077
 20
-79.2546021135
 10
7.0709866539
 20
-79.2554858407
 10
7.0520842538
 20
-79.2583309323
 10
7.033878091
 20
-79.2630676509
 10
7.0167429545
 20
-79.2695587863
 10
7.0008459644
 20
-79.2776985425
 10
6.9862107256
 20
-79.2874994957
 10
6.9730504389
 20
-79.2989318388
 10
6.9617529569
 20
-79.3117892925
 10
6.9526185528
 20
-79.3258273323
 10
6.9458625657
 20
-79.3407981113
 10
6.941640539
 20
-79.3564706145
 10
6.9400811886
 20
-79.3725728446
  0
LWPOLYLINE
  5
37B
100
AcDbEntity
  8
IMPORT_IGES
100
AcDbPolyline
 62
7
  6
CONTINUOUS
 90
13
 70
0
 10
7.0934119355
 20
-78.9938833334
 10
7.0738388247
 20
-78.9945855739
 10
7.0546372781
 20
-78.996971099
 10
7.0361316318
 20
-79.0009858145
 10
7.0186412604
 20
-79.0065299912
 10
7.0024441829
 20
-79.0135082206
 10
6.9877805184
 20
-79.0218402876
 10
6.9748981743
 20
-79.0313733113
 10
6.9640098684
 20
-79.0419361902
 10
6.9552797102
 20
-79.053404435
 10
6.9488650627
 20
-79.0655988752
 10
6.9448974025
 20
-79.0782811711
 10
6.9434599418
 20
-79.0912232215
  0
LINE
  5
37C
100
AcDbEntity
  8
IMPORT_IGES
100
AcDbLine
 62
7
  6
CONTINUOUS
 10
7.1309009771
 20
-79.2921106811
 11
7.1486195513
 21
-79.2916420846
  0
LINE
  5
37D
100
AcDbEntity
  8
ASSI
100
AcDbLine
 62
7
  6
CONTINUOUS
 10
12.5891357422
 20
-77.8884581858
 11
12.151422939
 21
-77.8989531698
  0
LINE
  5
37E
100
AcDbEntity
  8
IMPORT_IGES
100
AcDbLine
 62
253
  6
CONTINUOUS
 10
6.9442755799
 20
-77.7562387512
 11
6.9009510737
 21
-77.7566917821
  0
LWPOLYLINE
  5
37F
100
AcDbEntity
  8
IMPORT_IGES
100
AcDbPolyline
 62
253
  6
CONTINUOUS
 90
13
 70
0
 10
-5.0482216199
 20
-78.7559430344
 10
-5.0869757092
 20
-78.756292112
 10
-5.1249207653
 20
-78.7560046072
 10
-5.1614383162
 20
-78.7550933475
 10
-5.1957676534
 20
-78.7535909075
 10
-5.2275797677
 20
-78.7515259209
 10
-5.2568423437
 20
-78.748892298
 10
-5.2831282103
 20
-78.7456914687
 10
-5.3056469014
 20
-78.7419771326
 10
-5.3237892538
 20
-78.7378182309
 10
-5.3371225041
 20
-78.7332873141
 10
-5.3453366828
 20
-78.7284530257
 10
-5.3481759813
 20
-78.7233981883
  0
LWPOLYLINE
  5
380
100
AcDbEntity
  8
IMPORT_IGES
100
AcDbPolyline
 62
253
  6
CONTINUOUS
 90
5
 70
0
 10
-0.881250898
 20
-77.7562910055
 10
-0.9331112539
 20
-77.7567984098
 10
-0.9579048572
 20
-77.7568891129
 10
-0.9813692928
 20
-77.7568211335
 10
-1.0544813935
 20
-77.7563136323
  0
LWPOLYLINE
  5
381
100
AcDbEntity
  8
IMPORT_IGES
100
AcDbPolyline
 62
253
  6
CONTINUOUS
 90
5
 70
0
 10
-1.0544813935
 20
-77.7563136323
 10
-1.0660269628
 20
-77.756399525
 10
-1.0744157507
 20
-77.7566865652
 10
-1.0795031598
 20
-77.7571439846
 10
-1.0812018968
 20
-77.7577802444
  0
LWPOLYLINE
  5
382
100
AcDbEntity
  8
IMPORT_IGES
100
AcDbPolyline
 62
253
  6
CONTINUOUS
 90
10
 70
0
 10
7.1486260496
 20
-79.2513694182
 10
7.1420513748
 20
-79.2514072421
 10
7.1354921988
 20
-79.251525946
 10
7.1289485215
 20
-79.2517255301
 10
7.12241044
 20
-79.2520067172
 10
7.1158878573
 20
-79.2523687844
 10
7.1094104825
 20
-79.2528095628
 10
7.1029882186
 20
-79.2533283296
 10
7.0966111625
 20
-79.2539258077
 10
7.0902793143
 20
-79.254601997
  0
LWPOLYLINE
  5
383
100
AcDbEntity
  8
IMPORT_IGES
100
AcDbPolyline
 62
253
  6
CONTINUOUS
 90
3
 70
0
 10
6.9009510737
 20
-77.7566917821
 10
6.8595529084
 20
-77.7569557314
 10
6.8360947361
 20
-77.7569687934
  0
LINE
  5
384
100
AcDbEntity
  8
IMPORT_IGES
100
AcDbLine
 62
7
  6
CONTINUOUS
 10
9.9891357947
 20
-79.2916423432
 11
7.1486212243
 21
-79.2916423432
  0
LINE
  5
385
100
AcDbEntity
  8
IMPORT_IGES
100
AcDbLine
 62
7
  6
CONTINUOUS
 10
-1.2703548559
 20
-79.2916423432
 11
-4.1108678239
 21
-79.2916423432
  0
LINE
  5
386
100
AcDbEntity
  8
IMPORT_IGES
100
AcDbLine
 62
253
  6
CONTINUOUS
 10
-4.1108671871
 20
-79.2513694902
 11
-1.2703548573
 21
-79.2513694452
  0
LINE
  5
387
100
AcDbEntity
  8
IMPORT_IGES
100
AcDbLine
 62
253
  6
CONTINUOUS
 10
7.1486260496
 20
-79.2513694182
 11
9.9891348517
 21
-79.2513693984
  0
LINE
  5
388
100
AcDbEntity
  8
IMPORT_IGES
100
AcDbLine
 62
253
  6
CONTINUOUS
 10
7.0917685511
 20
-79.0922906592
 11
10.92414475
 21
-79.0922925055
  0
LINE
  5
389
100
AcDbEntity
  8
IMPORT_IGES
100
AcDbLine
 62
253
  6
CONTINUOUS
 10
-1.21348896
 20
-79.0922904035
 11
-5.0458513363
 21
-79.092293062
  0
LINE
  5
38A
100
AcDbEntity
  8
IMPORT_IGES
100
AcDbLine
 62
7
  6
CONTINUOUS
 10
-1.6108642578
 20
-78.9938829442
 11
-1.2151774534
 21
-78.9938836898
  0
LINE
  5
38B
100
AcDbEntity
  8
IMPORT_IGES
100
AcDbLine
 62
7
  6
CONTINUOUS
 10
7.4891357422
 20
-78.993883084
 11
7.0934489382
 21
-78.9938833173
  0
LINE
  5
38C
100
AcDbEntity
  8
ASSI
100
AcDbLine
 62
7
  6
CONTINUOUS
 10
-6.7108642578
 20
-78.9607890625
 11
-5.3440323082
 21
-78.9607890625
  0
LINE
  5
38D
100
AcDbEntity
  8
ASSI
100
AcDbLine
 62
7
  6
CONTINUOUS
 10
11.2223037925
 20
-78.9607890625
 11
12.5891357422
 21
-78.9607890625
  0
LINE
  5
38E
100
AcDbEntity
  8
IMPORT_IGES
100
AcDbLine
 62
7
  6
CONTINUOUS
 10
10.3192185604
 20
-78.8650890516
 11
8.559052924
 21
-78.8650890516
  0
LINE
  5
38F
100
AcDbEntity
  8
IMPORT_IGES
100
AcDbLine
 62
7
  6
CONTINUOUS
 10
-2.6807814396
 20
-78.8650890516
 11
-4.440947076
 21
-78.8650890516
  0
LINE
  5
390
100
AcDbEntity
  8
IMPORT_IGES
100
AcDbLine
 62
253
  6
CONTINUOUS
 10
10.926493141
 20
-78.7559430278
 11
10.3891357422
 21
-78.7559430323
  0
LINE
  5
391
100
AcDbEntity
  8
IMPORT_IGES
100
AcDbLine
 62
253
  6
CONTINUOUS
 10
-4.5108642578
 20
-78.7559430402
 11
-5.0482216581
 21
-78.7559430351
  0
LINE
  5
392
100
AcDbEntity
  8
IMPORT_IGES
100
AcDbLine
 62
253
  6
CONTINUOUS
 10
8.4891357422
 20
-78.7559210256
 11
7.6622660757
 21
-78.7559347757
  0
LINE
  5
393
100
AcDbEntity
  8
IMPORT_IGES
100
AcDbLine
 62
253
  6
CONTINUOUS
 10
-2.6108642578
 20
-78.755938025
 11
-1.7839945914
 21
-78.7559443404
  0
LINE
  5
394
100
AcDbEntity
  8
IMPORT_IGES
100
AcDbLine
 62
253
  6
CONTINUOUS
 10
-0.8737934857
 20
-78.533206926
 11
6.7520650233
 21
-78.5332022924
  0
LINE
  5
395
100
AcDbEntity
  8
ASSI
100
AcDbLine
 62
7
  6
CONTINUOUS
 10
11.8695151528
 20
-77.9006758007
 11
11.2408081384
 21
-77.9006758007
  0
LINE
  5
396
100
AcDbEntity
  8
ASSI
100
AcDbLine
 62
7
  6
CONTINUOUS
 10
-5.362536654
 20
-77.9006758007
 11
-5.9912436684
 21
-77.9006758007
  0
LINE
  5
397
100
AcDbEntity
  8
ASSI
100
AcDbLine
 62
7
  6
CONTINUOUS
 10
12.4337856643
 20
-77.8107890625
 11
11.2423771172
 21
-77.8107890625
  0
LINE
  5
398
100
AcDbEntity
  8
ASSI
100
AcDbLine
 62
7
  6
CONTINUOUS
 10
-6.55551418
 20
-77.8107890625
 11
-5.3641056328
 21
-77.8107890625
  0
LINE
  5
399
100
AcDbEntity
  8
IMPORT_IGES
100
AcDbLine
 62
253
  6
CONTINUOUS
 10
-0.8812575389
 20
-77.7562910853
 11
6.7595290232
 21
-77.7562910853
  0
LWPOLYLINE
  5
39A
100
AcDbEntity
  8
IMPORT_IGES
100
AcDbPolyline
 62
253
  6
CONTINUOUS
 90
10
 70
0
 10
-1.2703548573
 20
-79.2513694452
 10
-1.2638116683
 20
-79.2514061257
 10
-1.2572759304
 20
-79.2515239538
 10
-1.2507476438
 20
-79.2517229295
 10
-1.2442171196
 20
-79.2520037668
 10
-1.2376940467
 20
-79.2523657518
 10
-1.2312074912
 20
-79.2528067424
 10
-1.2247671421
 20
-79.2533260247
 10
-1.2183633104
 20
-79.2539243126
 10
-1.2119959963
 20
-79.2546016063
  0
LWPOLYLINE
  5
39B
100
AcDbEntity
  8
IMPORT_IGES
100
AcDbPolyline
 62
253
  6
CONTINUOUS
 90
11
 70
0
 10
7.1399658659
 20
-79.3859531006
 10
7.1141348047
 20
-79.3857424413
 10
7.088830871
 20
-79.385734504
 10
7.0644672421
 20
-79.3859270666
 10
7.0415542656
 20
-79.3863120119
 10
7.020312199
 20
-79.3868813632
 10
7.0007621937
 20
-79.3876374518
 10
6.9831896313
 20
-79.3885807143
 10
6.968134048
 20
-79.3896969724
 10
6.9560155199
 20
-79.3909674816
 10
6.9518338389
 20
-79.3916274365
  0
LWPOLYLINE
  5
39C
100
AcDbEntity
  8
IMPORT_IGES
100
AcDbPolyline
 62
253
  6
CONTINUOUS
 90
3
 70
0
 10
6.8360947361
 20
-77.7569687934
 10
6.7856476774
 20
-77.7566198931
 10
6.7595223822
 20
-77.7562910058
  0
LWPOLYLINE
  5
39D
100
AcDbEntity
  8
IMPORT_IGES
100
AcDbPolyline
 62
253
  6
CONTINUOUS
 90
13
 70
0
 10
10.9264931552
 20
-78.7559431589
 10
10.9650587752
 20
-78.7562920793
 10
11.0028930895
 20
-78.7560095301
 10
11.0393780562
 20
-78.7551047652
 10
11.0737682792
 20
-78.7536056194
 10
11.1056963544
 20
-78.7515379189
 10
11.1350559816
 20
-78.7488984693
 10
11.161408602
 20
-78.7456903273
 10
11.1839717799
 20
-78.7419669237
 10
11.2021204688
 20
-78.7378018594
 10
11.2154325984
 20
-78.7332706359
 10
11.2236209962
 20
-78.7284416237
 10
11.2264474678
 20
-78.7233980637
  0
LWPOLYLINE
  5
39E
100
AcDbEntity
  8
IMPORT_IGES
100
AcDbPolyline
 62
7
  6
CONTINUOUS
 90
5
 70
0
 10
9.9891356903
 20
-79.2916404175
 10
9.9969276222
 20
-79.2917312457
 10
10.0218626074
 20
-79.2932682178
 10
10.0461399323
 20
-79.2966384467
 10
10.0691978051
 20
-79.3016689326
  0
LWPOLYLINE
  5
39F
100
AcDbEntity
  8
IMPORT_IGES
100
AcDbPolyline
 62
7
  6
CONTINUOUS
 90
3
 70
0
 10
-1.2703549044
 20
-79.2916411378
 10
-1.2587630134
 20
-79.2918406365
 10
-1.236848994
 20
-79.2933271318
  0
LINE
  5
3A0
100
AcDbEntity
  8
ASSI
100
AcDbLine
 62
7
  6
CONTINUOUS
 10
-6.2731514546
 20
-77.8989531698
 11
-6.7108642578
 21
-77.8884581858
  0
LWPOLYLINE
  5
3A1
100
AcDbEntity
  8
IMPORT_IGES
100
AcDbPolyline
 62
7
  6
CONTINUOUS
 90
13
 70
0
 10
-1.2151438686
 20
-78.9938834941
 10
-1.1955650291
 20
-78.9945868008
 10
-1.1763590534
 20
-78.9969739035
 10
-1.1578504237
 20
-79.0009903698
 10
-1.1403587513
 20
-79.0065357942
 10
-1.124161719
 20
-79.0135147395
 10
-1.1094987192
 20
-79.0218478112
 10
-1.0966170326
 20
-79.0313830686
 10
-1.0857299794
 20
-79.0419483554
 10
-1.0770022905
 20
-79.0534169085
 10
-1.0705906567
 20
-79.0656085631
 10
-1.0666253038
 20
-79.078285607
 10
-1.0651884956
 20
-79.0912200348
  0
LWPOLYLINE
  5
3A2
100
AcDbEntity
  8
IMPORT_IGES
100
AcDbPolyline
 62
253
  6
CONTINUOUS
 90
13
 70
0
 10
10.3891357421
 20
-79.5527908882
 10
10.3635917835
 20
-79.5514827698
 10
10.3384566488
 20
-79.5475778387
 10
10.3141430763
 20
-79.541137142
 10
10.2911349062
 20
-79.5323011089
 10
10.2697156886
 20
-79.5211915341
 10
10.2500294002
 20
-79.5078269744
 10
10.2323814673
 20
-79.4922622038
 10
10.2172897537
 20
-79.4747784826
 10
10.20519024
 20
-79.4557658409
 10
10.1963557878
 20
-79.4355936548
 10
10.1909567205
 20
-79.4145690181
 10
10.1891357421
 20
-79.3930641364
  0
LINE
  5
3A3
100
AcDbEntity
  8
IMPORT_IGES
100
AcDbLine
 62
253
  6
CONTINUOUS
 10
9.9891348517
 20
-79.2513693984
 11
10.0333902472
 21
-79.2541797748
  0
LINE
  5
3A4
100
AcDbEntity
  8
IMPORT_IGES
100
AcDbLine
 62
253
  6
CONTINUOUS
 10
10.0333902472
 20
-79.2541797748
 11
10.075455372
 21
-79.2595985983
  0
LWPOLYLINE
  5
3A5
100
AcDbEntity
  8
IMPORT_IGES
100
AcDbPolyline
 62
253
  6
CONTINUOUS
 90
5
 70
0
 10
10.075455372
 20
-79.2595985983
 10
10.1153302261
 20
-79.2676258687
 10
10.153092122
 20
-79.278311922
 10
10.1886637472
 20
-79.2916064223
 10
10.2218131637
 20
-79.3073583618
  0
LWPOLYLINE
  5
3A6
100
AcDbEntity
  8
IMPORT_IGES
100
AcDbPolyline
 62
253
  6
CONTINUOUS
 90
9
 70
0
 10
-1.8108642578
 20
-76.7746643981
 10
-1.809191787
 20
-76.7752251359
 10
-1.8042253292
 20
-76.7757746079
 10
-1.7960812804
 20
-76.7763038326
 10
-1.784990769
 20
-76.7768018537
 10
-1.7711310019
 20
-76.777263657
 10
-1.7544818042
 20
-76.7776883162
 10
-1.7350970349
 20
-76.7780694953
 10
-1.6896040037
 20
-76.7786584993
  0
LWPOLYLINE
  5
3A7
100
AcDbEntity
  8
IMPORT_IGES
100
AcDbPolyline
 62
253
  6
CONTINUOUS
 90
10
 70
0
 10
-1.0424667037
 20
-77.0872167998
 10
-1.0506191976
 20
-77.0730868111
 10
-1.0603872958
 20
-77.0590983469
 10
-1.0715729283
 20
-77.0455659692
 10
-1.0837394865
 20
-77.0329511401
 10
-1.0967288492
 20
-77.0213158311
 10
-1.1108131202
 20
-77.0104272987
 10
-1.1259252442
 20
-77.0004448005
 10
-1.141548033
 20
-76.9917755106
 10
-1.1573236459
 20
-76.9846124608
  0
LWPOLYLINE
  5
3A8
100
AcDbEntity
  8
IMPORT_IGES
100
AcDbPolyline
 62
253
  6
CONTINUOUS
 90
13
 70
0
 10
-2.8108642538
 20
-75.6244419989
 10
-2.8091889145
 20
-75.6276902076
 10
-2.8042230551
 20
-75.6308736815
 10
-2.7960812804
 20
-75.6339403971
 10
-2.7849922283
 20
-75.6368269912
 10
-2.7711318892
 20
-75.6395041387
 10
-2.7544818041
 20
-75.6419659446
 10
-2.7350970349
 20
-75.6441755562
 10
-2.7133306316
 20
-75.646067276
 10
-2.6896040037
 20
-75.6475898827
 10
-2.6643425457
 20
-75.6487068894
 10
-2.637941041
 20
-75.6493921086
 10
-2.6108642578
 20
-75.6496240003
  0
LWPOLYLINE
  5
3A9
100
AcDbEntity
  8
IMPORT_IGES
100
AcDbPolyline
 62
7
  6
CONTINUOUS
 90
46
 70
0
 10
-1.7839945914
 20
-78.7559456364
 10
-1.779506584
 20
-78.767933185
 10
-1.7749870701
 20
-78.779439797
 10
-1.7704360499
 20
-78.7904642122
 10
-1.7658363516
 20
-78.800984743
 10
-1.7612051469
 20
-78.8110242038
 10
-1.7565939509
 20
-78.8206487468
 10
-1.7520113717
 20
-78.8298630174
 10
-1.7474488012
 20
-78.8386664086
 10
-1.7429319309
 20
-78.847116329
 10
-1.7384652496
 20
-78.8552191959
 10
-1.7340442684
 20
-78.8629738076
 10
-1.7296812127
 20
-78.8704250906
 10
-1.7253784293
 20
-78.8775792587
 10
-1.7211335714
 20
-78.8844356321
 10
-1.7169518244
 20
-78.8910278507
 10
-1.7128349538
 20
-78.8973607922
 10
-1.7087811941
 20
-78.9034350762
 10
-1.7047904343
 20
-78.9092771671
 10
-1.7008640279
 20
-78.9148913302
 10
-1.6970006213
 20
-78.9202785434
 10
-1.6931960427
 20
-78.925459685
 10
-1.689451098
 20
-78.9304391245
 10
-1.6857649811
 20
-78.9352173817
 10
-1.6821311024
 20
-78.939809061
 10
-1.6785502624
 20
-78.944218384
 10
-1.6750216605
 20
-78.9484457018
 10
-1.6715363042
 20
-78.9524994975
 10
-1.6680956881
 20
-78.9563837558
 10
-1.6646983176
 20
-78.9600988235
 10
-1.6613307173
 20
-78.9636475833
 10
-1.6579955622
 20
-78.9670346182
 10
-1.6546901773
 20
-78.9702594894
 10
-1.6513930626
 20
-78.9733175823
 10
-1.6481034318
 20
-78.9762190433
 10
-1.6448220711
 20
-78.9789577276
 10
-1.641529839
 20
-78.9815050165
 10
-1.6382358387
 20
-78.9838690958
 10
-1.634930967
 20
-78.9860461038
 10
-1.6315687723
 20
-78.9879901416
 10
-1.628105425
 20
-78.9897210934
 10
-1.6245847548
 20
-78.9912233589
 10
-1.6210917993
 20
-78.9923988227
 10
-1.6176549042
 20
-78.9932163242
 10
-1.6142457237
 20
-78.9937107322
 10
-1.6108642578
 20
-78.9938829442
  0
LWPOLYLINE
  5
3AA
100
AcDbEntity
  8
IMPORT_IGES
100
AcDbPolyline
 62
253
  6
CONTINUOUS
 90
13
 70
0
 10
-2.8108642578
 20
-74.9972787026
 10
-2.8091918102
 20
-75.0079113894
 10
-2.8042254547
 20
-75.0183305047
 10
-2.7960815403
 20
-75.0283657387
 10
-2.7849911298
 20
-75.0378093504
 10
-2.7711313993
 20
-75.0465662319
 10
-2.7544822226
 20
-75.0546187761
 10
-2.7350975092
 20
-75.0618467528
 10
-2.7133311597
 20
-75.0680348525
 10
-2.6896045237
 20
-75.0730157354
 10
-2.6643429659
 20
-75.0766701072
 10
-2.6379412862
 20
-75.0789122208
 10
-2.6108642578
 20
-75.0796716045
  0
LWPOLYLINE
  5
3AB
100
AcDbEntity
  8
IMPORT_IGES
100
AcDbPolyline
 62
253
  6
CONTINUOUS
 90
13
 70
0
 10
-1.0737794409
 20
-78.3758497318
 10
-1.0717867987
 20
-78.3968767469
 10
-1.0663232333
 20
-78.4175444113
 10
-1.0574599154
 20
-78.4374862195
 10
-1.0452454283
 20
-78.4564552759
 10
-1.0299199695
 20
-78.4739774256
 10
-1.0120917198
 20
-78.489457714
 10
-0.9924480541
 20
-78.5025693013
 10
-0.9712209008
 20
-78.5133908622
 10
-0.9484142378
 20
-78.5219915581
 10
-0.9242411414
 20
-78.5282559657
 10
-0.8992218618
 20
-78.5320158373
 10
-0.8737605171
 20
-78.5332014123
  0
LWPOLYLINE
  5
3AC
100
AcDbEntity
  8
IMPORT_IGES
100
AcDbPolyline
 62
253
  6
CONTINUOUS
 90
8
 70
0
 10
-1.0637586318
 20
-79.2102851397
 10
-1.0651765601
 20
-79.1949695633
 10
-1.0690243265
 20
-79.1799759351
 10
-1.0752193662
 20
-79.1655462324
 10
-1.083596712
 20
-79.1519728499
 10
-1.0940282653
 20
-79.1393962116
 10
-1.1065220767
 20
-79.1278527507
 10
-1.1210386025
 20
-79.1175121653
  0
LINE
  5
3AD
100
AcDbEntity
  8
ASSI
100
AcDbLine
 62
253
  6
CONTINUOUS
 10
-3.6190425559
 20
-50.5832377403
 11
-3.5090855725
 21
-53.8042753373
  0
LINE
  5
3AE
100
AcDbEntity
  8
ASSI
100
AcDbLine
 62
7
  6
CONTINUOUS
 10
-2.4819962909
 20
-59.7607890625
 11
-2.5608642578
 21
-56.4714539775
  0
LWPOLYLINE
  5
3AF
100
AcDbEntity
  8
IMPORT_IGES
100
AcDbPolyline
 62
7
  6
CONTINUOUS
 90
10
 70
0
 10
-1.8108642578
 20
-78.5937488662
 10
-1.810435236
 20
-78.6132290512
 10
-1.8093430846
 20
-78.632411599
 10
-1.8075878038
 20
-78.6512965099
 10
-1.8051373865
 20
-78.6699730894
 10
-1.8020238396
 20
-78.688352032
 10
-1.7983431845
 20
-78.70616542
 10
-1.7941274284
 20
-78.7233239479
 10
-1.789344564
 20
-78.7399169214
 10
-1.7839945914
 20
-78.7559443404
  0
LINE
  5
3B0
100
AcDbEntity
  8
IMPORT_IGES
100
AcDbLine
 62
253
  6
CONTINUOUS
 10
-3.2840076856
 20
-81.6616713649
 11
-3.2840076731
 21
-81.8607890625
  0
LINE
  5
3B1
100
AcDbEntity
  8
ASSI
100
AcDbLine
 62
253
  6
CONTINUOUS
 10
-3.2732198846
 20
-83.4985248186
 11
-3.2732198846
 21
-83.7984791272
  0
LINE
  5
3B2
100
AcDbEntity
  8
IMPORT_IGES
100
AcDbLine
 62
253
  6
CONTINUOUS
 10
-3.210864681
 20
-59.7607890625
 11
-3.2108647884
 21
-59.9607890625
  0
LINE
  5
3B3
100
AcDbEntity
  8
IMPORT_IGES
100
AcDbLine
 62
7
  6
CONTINUOUS
 10
-3.1108642578
 20
-71.3657890625
 11
-3.1108642578
 21
-68.9657890625
  0
LINE
  5
3B4
100
AcDbEntity
  8
IMPORT_IGES
100
AcDbLine
 62
7
  6
CONTINUOUS
 10
-3.0075707874
 20
-82.0607890625
 11
-3.0075707874
 21
-82.0489278256
  0
LINE
  5
3B5
100
AcDbEntity
  8
IMPORT_IGES
100
AcDbLine
 62
253
  6
CONTINUOUS
 10
-2.8108642578
 20
-71.3657890625
 11
-2.8108642578
 21
-68.9657890625
  0
LINE
  5
3B6
100
AcDbEntity
  8
IMPORT_IGES
100
AcDbLine
 62
7
  6
CONTINUOUS
 10
-2.8108642578
 20
-71.8851232673
 11
-2.8108642578
 21
-77.3771744123
  0
LINE
  5
3B7
100
AcDbEntity
  8
IMPORT_IGES
100
AcDbLine
 62
253
  6
CONTINUOUS
 10
-2.7108643989
 20
-82.0607890625
 11
-2.7108656074
 21
-81.8607890625
  0
LINE
  5
3B8
100
AcDbEntity
  8
IMPORT_IGES
100
AcDbLine
 62
253
  6
CONTINUOUS
 10
-2.6108642578
 20
-71.9565988774
 11
-2.6108642578
 21
-78.755938025
  0
LINE
  5
3B9
100
AcDbEntity
  8
ASSI
100
AcDbLine
 62
7
  6
CONTINUOUS
 10
-2.5608642578
 20
-59.7107890625
 11
-2.5608642578
 21
-56.4714539775
  0
LINE
  5
3BA
100
AcDbEntity
  8
IMPORT_IGES
100
AcDbLine
 62
253
  6
CONTINUOUS
 10
-2.5108642578
 20
-71.9657890625
 11
-2.5108642578
 21
-71.6657890625
  0
LINE
  5
3BB
100
AcDbEntity
  8
IMPORT_IGES
100
AcDbLine
 62
253
  6
CONTINUOUS
 10
-2.1608642578
 20
-71.6657890625
 11
-2.1608642578
 21
-71.9657890625
  0
LINE
  5
3BC
100
AcDbEntity
  8
IMPORT_IGES
100
AcDbLine
 62
253
  6
CONTINUOUS
 10
-2.1108642578
 20
-67.6657890625
 11
-2.1108642578
 21
-68.2657890625
  0
LINE
  5
3BD
100
AcDbEntity
  8
IMPORT_IGES
100
AcDbLine
 62
253
  6
CONTINUOUS
 10
-1.8608642578
 20
-71.3657890625
 11
-1.8608634394
 21
-64.5667364979
  0
LINE
  5
3BE
100
AcDbEntity
  8
IMPORT_IGES
100
AcDbLine
 62
7
  6
CONTINUOUS
 10
-1.8108642578
 20
-72.101258668
 11
-1.8108642578
 21
-78.5937488662
  0
LINE
  5
3BF
100
AcDbEntity
  8
IMPORT_IGES
100
AcDbLine
 62
7
  6
CONTINUOUS
 10
-1.6108642578
 20
-71.846879028
 11
-1.6108642578
 21
-71.6040961891
  0
LINE
  5
3C0
100
AcDbEntity
  8
IMPORT_IGES
100
AcDbLine
 62
253
  6
CONTINUOUS
 10
-1.6108642578
 20
-71.846879028
 11
-1.6108642578
 21
-78.9938829442
  0
LINE
  5
3C1
100
AcDbEntity
  8
ASSI
100
AcDbLine
 62
7
  6
CONTINUOUS
 10
-1.6397322248
 20
-59.7607890625
 11
-1.5608642578
 21
-56.4714539775
  0
LWPOLYLINE
  5
3C2
100
AcDbEntity
  8
ASSI
100
AcDbPolyline
 62
253
  6
CONTINUOUS
 90
31
 70
0
 10
-3.5731741931
 20
-84.0984334357
 10
-3.5727672864
 20
-84.0827180583
 10
-3.5715381139
 20
-84.0670474706
 10
-3.5694902488
 20
-84.0514646222
 10
-3.5666295185
 20
-84.0360121539
 10
-3.5629639484
 20
-84.0207324443
 10
-3.5585037573
 20
-84.0056674894
 10
-3.5532612885
 20
-83.9908583059
 10
-3.5472511778
 20
-83.9763456284
 10
-3.5404904158
 20
-83.9621699058
 10
-3.5329978853
 20
-83.948369942
 10
-3.5247943593
 20
-83.9349832587
 10
-3.5159028198
 20
-83.9220467213
 10
-3.5063483921
 20
-83.9095960936
 10
-3.4961571445
 20
-83.8976645874
 10
-3.4853560086
 20
-83.8862833561
 10
-3.4739749326
 20
-83.8754837494
 10
-3.4620448377
 20
-83.8652948952
 10
-3.4495959571
 20
-83.8557427684
 10
-3.436661289
 20
-83.8468532637
 10
-3.4232767905
 20
-83.8386516314
 10
-3.409478836
 20
-83.8311605718
 10
-3.3953047497
 20
-83.8244008328
 10
-3.3807934392
 20
-83.8183914273
 10
-3.3659852739
 20
-83.8131493822
 10
-3.3509208304
 20
-83.8086893598
 10
-3.3356412246
 20
-83.8050238144
 10
-3.3201887799
 20
-83.8021630846
 10
-3.3046059876
 20
-83.800115221
 10
-3.2889353729
 20
-83.7988860398
 10
-3.2732198846
 20
-83.7984791272
  0
LINE
  5
3C3
100
AcDbEntity
  8
ASSI
100
AcDbLine
 62
253
  6
CONTINUOUS
 10
-3.6190425559
 20
-90.6383403847
 11
-3.5207212321
 21
-87.7581533271
  0
LWPOLYLINE
  5
3C4
100
AcDbEntity
  8
IMPORT_IGES
100
AcDbPolyline
 62
7
  6
CONTINUOUS
 90
10
 70
0
 10
-1.8063238933
 20
-72.00277669
 10
-1.8072797136
 20
-72.0136989494
 10
-1.8081227337
 20
-72.0246269823
 10
-1.8088529535
 20
-72.0355607886
 10
-1.809470418
 20
-72.0465013388
 10
-1.8099750822
 20
-72.0574476624
 10
-1.8103668117
 20
-72.0683968483
 10
-1.8106455618
 20
-72.079347926
 10
-1.8108113771
 20
-72.0903018659
 10
-1.8108642578
 20
-72.101258668
  0
LWPOLYLINE
  5
3C5
100
AcDbEntity
  8
IMPORT_IGES
100
AcDbPolyline
 62
253
  6
CONTINUOUS
 90
13
 70
0
 10
-1.0608642578
 20
-62.3241118896
 10
-1.0591951941
 20
-62.3058794473
 10
-1.0542366959
 20
-62.2880070783
 10
-1.0461017502
 20
-62.2707869464
 10
-1.0350167114
 20
-62.2545742676
 10
-1.0211566627
 20
-62.239535325
 10
-1.0045051984
 20
-62.2257062715
 10
-0.9851190831
 20
-62.2132949324
 10
-0.9633505686
 20
-62.202669271
 10
-0.9396205735
 20
-62.1941166775
 10
-0.9143543859
 20
-62.1878421625
 10
-0.8879472623
 20
-62.1839930405
 10
-0.8608642578
 20
-62.1826904034
  0
LWPOLYLINE
  5
3C6
100
AcDbEntity
  8
IMPORT_IGES
100
AcDbPolyline
 62
253
  6
CONTINUOUS
 90
13
 70
0
 10
-1.0608642578
 20
-60.2486570281
 10
-1.0591532301
 20
-60.230197837
 10
-1.0540494231
 20
-60.2120544878
 10
-1.0456401643
 20
-60.1945374181
 10
-1.0340693386
 20
-60.17794635
 10
-1.0195349259
 20
-60.1625651612
 10
-1.002285614
 20
-60.1486570281
 10
-0.9826165436
 20
-60.1364599228
 10
-0.9608642578
 20
-60.126182541
 10
-0.9374009443
 20
-60.1180007317
 10
-0.9126280668
 20
-60.1120544878
 10
-0.8869694963
 20
-60.1084455512
 10
-0.8608642578
 20
-60.1072356719
  0
LWPOLYLINE
  5
3C7
100
AcDbEntity
  8
IMPORT_IGES
100
AcDbPolyline
 62
7
  6
CONTINUOUS
 90
31
 70
0
 10
-4.440947076
 20
-78.8650890516
 10
-4.4313904741
 20
-78.8335451483
 10
-4.4224488356
 20
-78.8008954274
 10
-4.4141221606
 20
-78.7671398891
 10
-4.4064946887
 20
-78.7322875079
 10
-4.3994821803
 20
-78.6963293093
 10
-4.3928319164
 20
-78.6592383688
 10
-4.3864892043
 20
-78.6210092874
 10
-4.3805087367
 20
-78.5816474642
 10
-4.3748018727
 20
-78.5411421722
 10
-4.3693533028
 20
-78.499519173
 10
-4.3641783365
 20
-78.4567527051
 10
-4.359234261
 20
-78.4127547573
 10
-4.3545116127
 20
-78.3675342816
 10
-4.3500198553
 20
-78.3210823259
 10
-4.3457446668
 20
-78.2732840235
 10
-4.3416788265
 20
-78.2241317053
 10
-4.3378295551
 20
-78.1736330404
 10
-4.3342041929
 20
-78.1216961687
 10
-4.3307978698
 20
-78.06832239
 10
-4.3276154559
 20
-78.0135104047
 10
-4.3246789021
 20
-77.9571644539
 10
-4.3219832817
 20
-77.8992861661
 10
-4.3195335214
 20
-77.8398739129
 10
-4.317366352
 20
-77.7788270504
 10
-4.3154757562
 20
-77.7161432672
 10
-4.3138677513
 20
-77.6518248746
 10
-4.3125971207
 20
-77.5857781638
 10
-4.3116821254
 20
-77.5179718983
 10
-4.3111045045
 20
-77.4484373144
 10
-4.3108642578
 20
-71.3818523565
  0
LWPOLYLINE
  5
3C8
100
AcDbEntity
  8
IMPORT_IGES
100
AcDbPolyline
 62
253
  6
CONTINUOUS
 90
15
 70
0
 10
-1.4267448296
 20
-66.0075406055
 10
-1.3755049832
 20
-65.8655936889
 10
-1.299658278
 20
-65.6906357156
 10
-1.2100225444
 20
-65.5114040177
 10
-1.1075688482
 20
-65.3318193913
 10
-0.9953562812
 20
-65.1564567661
 10
-0.8727739608
 20
-64.9862339986
 10
-0.7404327696
 20
-64.8202332322
 10
-0.6032244464
 20
-64.6602758269
 10
-0.4674698169
 20
-64.5122138444
 10
-0.3268480554
 20
-64.370195223
 10
-0.1672884245
 20
-64.2184851378
 10
0.0158993219
 20
-64.0518386472
 10
0.2180249379
 20
-63.8755006928
 10
0.4390884233
 20
-63.6894712747
  0
LWPOLYLINE
  5
3C9
100
AcDbEntity
  8
IMPORT_IGES
100
AcDbPolyline
 62
253
  6
CONTINUOUS
 90
19
 70
0
 10
-4.4583623574
 20
-71.181874473
 10
-4.4649926178
 20
-71.1951610729
 10
-4.4709799761
 20
-71.2077909245
 10
-4.4763244323
 20
-71.219763641
 10
-4.4809197371
 20
-71.2309085434
 10
-4.4848721398
 20
-71.2413959928
 10
-4.4885003885
 20
-71.2517371252
 10
-4.4918879156
 20
-71.2620510432
 10
-4.4949512886
 20
-71.2722182029
 10
-4.4977589577
 20
-71.2823914832
 10
-4.5003461906
 20
-71.2927105511
 10
-4.5026777195
 20
-71.3030351102
 10
-4.504716191
 20
-71.3130982319
 10
-4.5064441288
 20
-71.3229532961
 10
-4.5078790092
 20
-71.3325468989
 10
-4.5090359068
 20
-71.3414526744
 10
-4.5099198466
 20
-71.3495290685
 10
-4.5105258036
 20
-71.3569188236
 10
-4.5108537778
 20
-71.3636224951
  0
LINE
  5
3CA
100
AcDbEntity
  8
IMPORT_IGES
100
AcDbLine
 62
253
  6
CONTINUOUS
 10
0.3632009509
 20
-63.8049359284
 11
0.4391041326
 21
-63.6894422183
  0
LWPOLYLINE
  5
3CB
100
AcDbEntity
  8
ASSI
100
AcDbPolyline
 62
7
  6
CONTINUOUS
 90
4
 70
0
 10
10.8300192158
 20
-48.8516725362
 10
10.7825158032
 20
-48.9241432987
 10
10.7580655462
 20
-48.9608710783
 10
10.733090299
 20
-48.9978001781
  0
LINE
  5
3CC
100
AcDbEntity
  8
IMPORT_IGES
100
AcDbLine
 62
253
  6
CONTINUOUS
 10
0.0369873074
 20
-64.2958309073
 11
0.13403278
 21
-64.1489348299
  0
LINE
  5
3CD
100
AcDbEntity
  8
ASSI
100
AcDbLine
 62
7
  6
CONTINUOUS
 10
9.4944305101
 20
-50.5278457408
 11
9.3873570569
 21
-50.6884581858
  0
LINE
  5
3CE
100
AcDbEntity
  8
IMPORT_IGES
100
AcDbLine
 62
253
  6
CONTINUOUS
 10
0.13403278
 20
-64.1489348299
 11
0.3632009509
 21
-63.8049359284
  0
LINE
  5
3CF
100
AcDbEntity
  8
ASSI
100
AcDbLine
 62
7
  6
CONTINUOUS
 10
10.733090299
 20
-48.9978001781
 11
10.6819205723
 21
-49.0721988179
  0
LWPOLYLINE
  5
3D0
100
AcDbEntity
  8
IMPORT_IGES
100
AcDbPolyline
 62
253
  6
CONTINUOUS
 90
10
 70
0
 10
-4.4583623574
 20
-71.1818757775
 10
-4.4304942827
 20
-71.142017815
 10
-4.399448939
 20
-71.1063718116
 10
-4.3652263263
 20
-71.0749377674
 10
-4.327165214
 20
-71.0474532143
 10
-4.2859268328
 20
-71.0241806204
 10
-4.2434948748
 20
-71.0059073899
 10
-4.2005305709
 20
-70.9928959907
 10
-4.1563726901
 20
-70.9848839548
 10
-4.1110212326
 20
-70.9818712823
  0
LINE
  5
3D1
100
AcDbEntity
  8
ASSI
100
AcDbLine
 62
7
  6
CONTINUOUS
 10
10.6819205723
 20
-49.0721988179
 11
10.6296160774
 21
-49.1471888549
  0
LWPOLYLINE
  5
3D2
100
AcDbEntity
  8
ASSI
100
AcDbPolyline
 62
7
  6
CONTINUOUS
 90
3
 70
0
 10
10.6296160774
 20
-49.1471888549
 10
10.5500208119
 20
-49.2603725131
 10
10.5232364613
 20
-49.2980958188
  0
LWPOLYLINE
  5
3D3
100
AcDbEntity
  8
IMPORT_IGES
100
AcDbPolyline
 62
253
  6
CONTINUOUS
 90
6
 70
0
 10
-4.2883832243
 20
-71.2818703633
 10
-4.3003746336
 20
-71.2972559327
 10
-4.3124177034
 20
-71.3115586934
 10
-4.3253255707
 20
-71.3243869795
 10
-4.340054159
 20
-71.3351220554
 10
-4.3572375572
 20
-71.343605259
  0
LWPOLYLINE
  5
3D4
100
AcDbEntity
  8
IMPORT_IGES
100
AcDbPolyline
 62
7
  6
CONTINUOUS
 90
5
 70
0
 10
-4.1982779381
 20
-79.3036807351
 10
-4.17566792
 20
-79.2981319325
 10
-4.1517381094
 20
-79.2941883739
 10
-4.1273138442
 20
-79.2920520926
 10
-4.1108678203
 20
-79.2916437801
  0
LWPOLYLINE
  5
3D5
100
AcDbEntity
  8
IMPORT_IGES
100
AcDbPolyline
 62
253
  6
CONTINUOUS
 90
13
 70
0
 10
7.1147377611
 20
-77.2146194024
 10
7.095507266
 20
-77.215378855
 10
7.0766564639
 20
-77.217865216
 10
7.0584897091
 20
-77.2220205957
 10
7.0413824933
 20
-77.2277266597
 10
7.0255012364
 20
-77.234893912
 10
7.0108682336
 20
-77.2435396157
 10
6.9976961634
 20
-77.2536448071
 10
6.9863834569
 20
-77.2650271558
 10
6.977242875
 20
-77.2774627901
 10
6.9704916547
 20
-77.2907280997
 10
6.9662825436
 20
-77.3046206116
 10
6.9647439516
 20
-77.3188986197
  0
LINE
  5
3D6
100
AcDbEntity
  8
IMPORT_IGES
100
AcDbLine
 62
253
  6
CONTINUOUS
 10
7.6133685193
 20
-76.7780694953
 11
7.567875488
 21
-76.7786584993
  0
LINE
  5
3D7
100
AcDbEntity
  8
IMPORT_IGES
100
AcDbLine
 62
253
  6
CONTINUOUS
 10
7.567875488
 20
-76.7786584993
 11
7.5162125254
 21
-76.7789694005
  0
LINE
  5
3D8
100
AcDbEntity
  8
IMPORT_IGES
100
AcDbLine
 62
253
  6
CONTINUOUS
 10
-1.1573236447
 20
-76.9846174589
 11
-1.6108642578
 21
-76.9846239295
  0
LINE
  5
3D9
100
AcDbEntity
  8
IMPORT_IGES
100
AcDbLine
 62
253
  6
CONTINUOUS
 10
7.4891357422
 20
-76.9846239295
 11
7.0355946942
 21
-76.9846105909
  0
LINE
  5
3DA
100
AcDbEntity
  8
IMPORT_IGES
100
AcDbLine
 62
253
  6
CONTINUOUS
 10
6.7712652892
 20
-76.779009404
 11
7.5162125254
 21
-76.7789694005
  0
LINE
  5
3DB
100
AcDbEntity
  8
IMPORT_IGES
100
AcDbLine
 62
253
  6
CONTINUOUS
 10
-1.637941041
 20
-76.7789694005
 11
-0.8929938048
 21
-76.779009404
  0
LINE
  5
3DC
100
AcDbEntity
  8
IMPORT_IGES
100
AcDbLine
 62
253
  6
CONTINUOUS
 10
-1.6896040037
 20
-76.7786584993
 11
-1.637941041
 21
-76.7789694005
  0
LWPOLYLINE
  5
3DD
100
AcDbEntity
  8
IMPORT_IGES
100
AcDbPolyline
 62
253
  6
CONTINUOUS
 90
13
 70
0
 10
-1.2365112095
 20
-77.2146198927
 10
-1.2172943717
 20
-77.2153742464
 10
-1.1984443577
 20
-77.2178550759
 10
-1.1802663067
 20
-77.2220077377
 10
-1.1631298985
 20
-77.2277199126
 10
-1.1472133663
 20
-77.234903002
 10
-1.1325623367
 20
-77.2435633689
 10
-1.1193958429
 20
-77.2536710414
 10
-1.1080965517
 20
-77.2650464202
 10
-1.0989654821
 20
-77.2774729264
 10
-1.0922184304
 20
-77.2907308359
 10
-1.0880112077
 20
-77.3046152365
 10
-1.0864726336
 20
-77.3188847597
  0
LWPOLYLINE
  5
3DE
100
AcDbEntity
  8
IMPORT_IGES
100
AcDbPolyline
 62
253
  6
CONTINUOUS
 90
13
 70
0
 10
-1.6108642578
 20
-76.9846239297
 10
-1.6366749371
 20
-76.9834413142
 10
-1.661967057
 20
-76.9799294982
 10
-1.6863271929
 20
-76.9741707861
 10
-1.709251036
 20
-76.9663286103
 10
-1.7305077732
 20
-76.9565282749
 10
-1.7500547763
 20
-76.9447555143
 10
-1.7676003964
 20
-76.9310484125
 10
-1.7826217679
 20
-76.9156572411
 10
-1.7947121636
 20
-76.8988799815
 10
-1.8035818563
 20
-76.8810174333
 10
-1.8090229009
 20
-76.8623487503
 10
-1.8108642578
 20
-76.8432025732
  0
LWPOLYLINE
  5
3DF
100
AcDbEntity
  8
IMPORT_IGES
100
AcDbPolyline
 62
253
  6
CONTINUOUS
 90
4
 70
0
 10
6.9594904385
 20
-77.7563598792
 10
6.9577822041
 20
-77.7562433758
 10
6.9526810103
 20
-77.7562058205
 10
6.9442755799
 20
-77.7562387512
  0
LWPOLYLINE
  5
3E0
100
AcDbEntity
  8
IMPORT_IGES
100
AcDbPolyline
 62
7
  6
CONTINUOUS
 90
15
 70
0
 10
10.0691978051
 20
-79.3016689326
 10
10.0904875841
 20
-79.3080892637
 10
10.1096130138
 20
-79.3155411544
 10
10.1264927398
 20
-79.3237117263
 10
10.140964379
 20
-79.3322276635
 10
10.1530240582
 20
-79.340731545
 10
10.1630372132
 20
-79.3491321651
 10
10.171222215
 20
-79.3573378116
 10
10.1775598628
 20
-79.3650179878
 10
10.1821157877
 20
-79.3717908648
 10
10.1853847976
 20
-79.3779400632
 10
10.1875207161
 20
-79.3833821893
 10
10.1885516456
 20
-79.3873401124
 10
10.189014355
 20
-79.3902938895
 10
10.1891329159
 20
-79.3917497398
  0
LINE
  5
3E1
100
AcDbEntity
  8
ASSI
100
AcDbLine
 62
7
  6
CONTINUOUS
 10
12.4337856643
 20
-82.1107890625
 11
12.5891357422
 21
-82.1884581858
  0
LINE
  5
3E2
100
AcDbEntity
  8
ASSI
100
AcDbLine
 62
253
  6
CONTINUOUS
 10
9.9391547807
 20
-84.5107890625
 11
9.8492680424
 21
-84.4209023243
  0
LWPOLYLINE
  5
3E3
100
AcDbEntity
  8
IMPORT_IGES
100
AcDbPolyline
 62
7
  6
CONTINUOUS
 90
10
 70
0
 10
-3.1669460782
 20
-70.9818706685
 10
-3.215963925
 20
-70.9236874
 10
-3.2596390394
 20
-70.8625927805
 10
-3.2979714216
 20
-70.7985868098
 10
-3.331142704
 20
-70.7312111009
 10
-3.358971254
 20
-70.660924041
 10
-3.3809121742
 20
-70.5891007911
 10
-3.396783832
 20
-70.5161997382
 10
-3.4067678598
 20
-70.4417624954
 10
-3.4108642578
 20
-70.3657890625
  0
LINE
  5
3E4
100
AcDbEntity
  8
ASSI
100
AcDbLine
 62
7
  6
CONTINUOUS
 10
10.5232364613
 20
-91.9234823062
 11
10.576670363
 21
-91.9989729497
  0
LINE
  5
3E5
100
AcDbEntity
  8
ASSI
100
AcDbLine
 62
7
  6
CONTINUOUS
 10
10.576670363
 20
-91.9989729497
 11
10.6559122406
 21
-92.111927327
  0
LWPOLYLINE
  5
3E6
100
AcDbEntity
  8
ASSI
100
AcDbPolyline
 62
7
  6
CONTINUOUS
 90
5
 70
0
 10
10.6559122406
 20
-92.111927327
 10
10.7076493515
 20
-92.1866816792
 10
10.733090299
 20
-92.2237779469
 10
10.7580655462
 20
-92.2607070467
 10
10.7825158032
 20
-92.2974348263
  0
LINE
  5
3E7
100
AcDbEntity
  8
ASSI
100
AcDbLine
 62
7
  6
CONTINUOUS
 10
9.4944305101
 20
-90.6937323842
 11
9.4181915549
 21
-90.5793723385
  0
LINE
  5
3E8
100
AcDbEntity
  8
ASSI
100
AcDbLine
 62
7
  6
CONTINUOUS
 10
10.7825158032
 20
-92.2974348263
 11
10.8300192158
 21
-92.3699055888
  0
LWPOLYLINE
  5
3E9
100
AcDbEntity
  8
ASSI
100
AcDbPolyline
 62
7
  6
CONTINUOUS
 90
13
 70
0
 10
11.2288211841
 20
-94.9959515684
 10
11.2226283506
 20
-94.9857914908
 10
11.2169259734
 20
-94.9753482501
 10
11.21172697
 20
-94.9646455088
 10
11.2070431164
 20
-94.9537075118
 10
11.2028850208
 20
-94.9425590363
 10
11.1992621005
 20
-94.9312253415
 10
11.1961825605
 20
-94.9197321013
 10
11.1936533745
 20
-94.90810535
 10
11.191680268
 20
-94.8963714286
 10
11.190267708
 20
-94.8845569181
 10
11.1894188924
 20
-94.8726885785
 10
11.1891357422
 20
-94.8607932933
  0
LWPOLYLINE
  5
3EA
100
AcDbEntity
  8
IMPORT_IGES
100
AcDbPolyline
 62
7
  6
CONTINUOUS
 90
14
 70
0
 10
-1.2119959957
 20
-79.2546041445
 10
-1.2100382015
 20
-79.261598126
 10
-1.2072897648
 20
-79.2682976903
 10
-1.2038812434
 20
-79.2746486449
 10
-1.2000808606
 20
-79.2805861677
 10
-1.1958483022
 20
-79.2860766412
 10
-1.1908895872
 20
-79.2911401673
 10
-1.1852655767
 20
-79.2957803693
 10
-1.1791660697
 20
-79.3000155945
 10
-1.1725379442
 20
-79.3039330199
 10
-1.1653942234
 20
-79.3076167438
 10
-1.1578588574
 20
-79.3111480934
 10
-1.1500408624
 20
-79.3146182751
 10
-1.1490758333
 20
-79.3150397804
  0
LWPOLYLINE
  5
3EB
100
AcDbEntity
  8
IMPORT_IGES
100
AcDbPolyline
 62
253
  6
CONTINUOUS
 90
13
 70
0
 10
-2.8108642578
 20
-71.920385695
 10
-2.8091917695
 20
-71.9310185108
 10
-2.8042253153
 20
-71.9414377144
 10
-2.7960812804
 20
-71.9514729939
 10
-2.7849907779
 20
-71.9609165993
 10
-2.7711310073
 20
-71.9696734406
 10
-2.7544818042
 20
-71.9777259464
 10
-2.7350970349
 20
-71.9849539677
 10
-2.7133306316
 20
-71.99114211
 10
-2.6896040037
 20
-71.9961228196
 10
-2.6643425457
 20
-71.9997767416
 10
-2.637941041
 20
-72.0020182119
 10
-2.6108642578
 20
-72.0027767698
  0
LINE
  5
3EC
100
AcDbEntity
  8
IMPORT_IGES
100
AcDbLine
 62
253
  6
CONTINUOUS
 10
-1.2647760025
 20
-79.291451704
 11
-1.2615672231
 21
-79.3859515714
  0
LINE
  5
3ED
100
AcDbEntity
  8
IMPORT_IGES
100
AcDbLine
 62
253
  6
CONTINUOUS
 10
-1.2151774534
 20
-78.9938833459
 11
-1.21348896
 21
-79.0922904035
  0
LINE
  5
3EE
100
AcDbEntity
  8
IMPORT_IGES
100
AcDbLine
 62
7
  6
CONTINUOUS
 10
-1.0864725341
 20
-77.3188930445
 11
-1.0343014614
 21
-81.663190786
  0
LINE
  5
3EF
100
AcDbEntity
  8
IMPORT_IGES
100
AcDbLine
 62
253
  6
CONTINUOUS
 10
-0.8386686512
 20
-81.4580600777
 11
-0.8737934857
 21
-78.533206926
  0
LINE
  5
3F0
100
AcDbEntity
  8
IMPORT_IGES
100
AcDbLine
 62
253
  6
CONTINUOUS
 10
-0.8812575389
 20
-77.7562910853
 11
-0.8929938048
 21
-76.779009404
  0
LINE
  5
3F1
100
AcDbEntity
  8
IMPORT_IGES
100
AcDbLine
 62
7
  6
CONTINUOUS
 10
-1.2615672231
 20
-79.3859515714
 11
-1.2343162971
 21
-81.6616713649
  0
LINE
  5
3F2
100
AcDbEntity
  8
IMPORT_IGES
100
AcDbLine
 62
253
  6
CONTINUOUS
 10
-1.2364776252
 20
-77.2146196851
 11
-1.2151774534
 21
-78.9938836898
  0
LINE
  5
3F3
100
AcDbEntity
  8
IMPORT_IGES
100
AcDbLine
 62
7
  6
CONTINUOUS
 10
-0.8343154208
 20
-81.8607890624
 11
-0.8386693247
 21
-81.4580600848
  0
LINE
  5
3F4
100
AcDbEntity
  8
IMPORT_IGES
100
AcDbLine
 62
7
  6
CONTINUOUS
 10
-0.8812573005
 20
-77.7562910829
 11
-0.8737934857
 21
-78.5332046092
  0
LINE
  5
3F5
100
AcDbEntity
  8
IMPORT_IGES
100
AcDbLine
 62
253
  6
CONTINUOUS
 10
-1.2119959963
 20
-79.2546016063
 11
-1.21348896
 21
-79.0922904035
  0
LINE
  5
3F6
100
AcDbEntity
  8
ASSI
100
AcDbLine
 62
7
  6
CONTINUOUS
 10
-1.5608642578
 20
-90.6081710022
 11
-1.5608642578
 21
-88.2107890625
  0
LINE
  5
3F7
100
AcDbEntity
  8
IMPORT_IGES
100
AcDbLine
 62
7
  6
CONTINUOUS
 10
-1.5608642578
 20
-66.3502073574
 11
-1.5608642578
 21
-64.5661855055
  0
LINE
  5
3F8
100
AcDbEntity
  8
ASSI
100
AcDbLine
 62
7
  6
CONTINUOUS
 10
-1.5608642578
 20
-59.7107890625
 11
-1.5608642578
 21
-56.4714539775
  0
LINE
  5
3F9
100
AcDbEntity
  8
IMPORT_IGES
100
AcDbLine
 62
7
  6
CONTINUOUS
 10
-1.5608642578
 20
-67.6323805875
 11
-1.5608642578
 21
-71.3657890626
  0
LINE
  5
3FA
100
AcDbEntity
  8
ASSI
100
AcDbLine
 62
7
  6
CONTINUOUS
 10
-1.4608642578
 20
-46.8107890625
 11
-1.4608642578
 21
-48.2107890625
  0
LINE
  5
3FB
100
AcDbEntity
  8
ASSI
100
AcDbLine
 62
7
  6
CONTINUOUS
 10
-1.4608642578
 20
-93.0107890625
 11
-1.4608642578
 21
-94.4107890625
  0
LINE
  5
3FC
100
AcDbEntity
  8
ASSI
100
AcDbLine
 62
7
  6
CONTINUOUS
 10
-1.4167969906
 20
-48.2768908956
 11
-1.4167969906
 21
-46.8600156378
  0
LINE
  5
3FD
100
AcDbEntity
  8
ASSI
100
AcDbLine
 62
7
  6
CONTINUOUS
 10
-1.4167969906
 20
-92.9446872294
 11
-1.4167969906
 21
-94.3615624872
  0
LINE
  5
3FE
100
AcDbEntity
  8
IMPORT_IGES
100
AcDbLine
 62
253
  6
CONTINUOUS
 10
-1.2703548559
 20
-79.2916423432
 11
-1.2703548573
 21
-79.2513694902
  0
LINE
  5
3FF
100
AcDbEntity
  8
ASSI
100
AcDbLine
 62
253
  6
CONTINUOUS
 10
-1.2608642578
 20
-90.6107890625
 11
-1.2608642578
 21
-87.9107890625
  0
LINE
  5
400
100
AcDbEntity
  8
IMPORT_IGES
100
AcDbLine
 62
253
  6
CONTINUOUS
 10
-1.2608642578
 20
-62.335907855
 11
-1.260864257
 21
-59.9607890625
  0
LINE
  5
401
100
AcDbEntity
  8
IMPORT_IGES
100
AcDbLine
 62
253
  6
CONTINUOUS
 10
-1.2343162971
 20
-81.6616713649
 11
-1.2343235077
 21
-81.8607890625
  0
LINE
  5
402
100
AcDbEntity
  8
IMPORT_IGES
100
AcDbLine
 62
7
  6
CONTINUOUS
 10
-1.1657177601
 20
-63.274931332
 11
-1.1657177601
 21
-63.3431131501
  0
LINE
  5
403
100
AcDbEntity
  8
IMPORT_IGES
100
AcDbLine
 62
253
  6
CONTINUOUS
 10
-1.1486155945
 20
-67.797583782
 11
-1.1486155948
 21
-67.597583782
  0
LINE
  5
404
100
AcDbEntity
  8
IMPORT_IGES
100
AcDbLine
 62
7
  6
CONTINUOUS
 10
-1.0608642578
 20
-60.1607890625
 11
-1.0608642578
 21
-62.3241118889
  0
LINE
  5
405
100
AcDbEntity
  8
0
100
AcDbLine
 62
7
  6
CONTINUOUS
 10
-0.7949566174
 20
-82.1225127799
 11
-0.7949566174
 21
-82.2225127799
  0
LINE
  5
406
100
AcDbEntity
  8
0
100
AcDbLine
 62
253
  6
CONTINUOUS
 10
-0.7054896968
 20
-82.1225127799
 11
-0.7054896968
 21
-82.2225127799
  0
LINE
  5
407
100
AcDbEntity
  8
0
100
AcDbLine
 62
253
  6
CONTINUOUS
 10
-0.6173054028
 20
-82.1225127799
 11
-0.6173054028
 21
-82.2225127799
  0
LINE
  5
408
100
AcDbEntity
  8
ASSI
100
AcDbLine
 62
7
  6
CONTINUOUS
 10
-0.5608642578
 20
-46.8544397094
 11
-0.5608642578
 21
-46.8166068923
  0
LINE
  5
409
100
AcDbEntity
  8
ASSI
100
AcDbLine
 62
7
  6
CONTINUOUS
 10
-0.5608642578
 20
-48.2768691673
 11
-0.5608642578
 21
-46.8596467722
  0
LINE
  5
40A
100
AcDbEntity
  8
ASSI
100
AcDbLine
 62
7
  6
CONTINUOUS
 10
-0.5608642578
 20
-84.5107890625
 11
-0.5608642578
 21
-86.8107890625
  0
LINE
  5
40B
100
AcDbEntity
  8
ASSI
100
AcDbLine
 62
7
  6
CONTINUOUS
 10
-0.5608642578
 20
-92.9447089577
 11
-0.5608642578
 21
-94.3619313528
  0
LINE
  5
40C
100
AcDbEntity
  8
ASSI
100
AcDbLine
 62
7
  6
CONTINUOUS
 10
-0.5608642578
 20
-94.3671384156
 11
-0.5608642578
 21
-94.4049712327
  0
LINE
  5
40D
100
AcDbEntity
  8
RACCORDO
100
AcDbLine
 62
7
  6
CONTINUOUS
 10
-0.4608642578
 20
-86.2107890625
 11
-0.4608642578
 21
-84.8107890625
  0
LINE
  5
40E
100
AcDbEntity
  8
0
100
AcDbLine
 62
7
  6
CONTINUOUS
 10
-0.2995830823
 20
-82.1225127799
 11
-0.2995830823
 21
-82.2225127799
  0
LINE
  5
40F
100
AcDbEntity
  8
0
100
AcDbLine
 62
7
  6
CONTINUOUS
 10
-0.2645653058
 20
-82.1225127799
 11
-0.2645653058
 21
-82.2225127799
  0
LINE
  5
410
100
AcDbEntity
  8
ASSI
100
AcDbLine
 62
7
  6
CONTINUOUS
 10
-0.0608642578
 20
-48.2195159303
 11
-0.0608642578
 21
-49.6107890625
  0
LINE
  5
411
100
AcDbEntity
  8
ASSI
100
AcDbLine
 62
7
  6
CONTINUOUS
 10
-0.0608642578
 20
-91.6107890625
 11
-0.0608642578
 21
-93.0020621947
  0
LINE
  5
412
100
AcDbEntity
  8
0
100
AcDbLine
 62
7
  6
CONTINUOUS
 10
0.0019115161
 20
-82.1225127799
 11
0.0019115161
 21
-82.2225127799
  0
LINE
  5
413
100
AcDbEntity
  8
IMPORT_IGES
100
AcDbLine
 62
7
  6
CONTINUOUS
 10
0.0342822399
 20
-67.2962933033
 11
0.0342822399
 21
-67.2879999406
  0
LWPOLYLINE
  5
414
100
AcDbEntity
  8
IMPORT_IGES
100
AcDbPolyline
 62
253
  6
CONTINUOUS
 90
5
 70
0
 10
-0.8608642578
 20
-67.797583782
 10
-0.8607815218
 20
-68.1442047029
 10
-0.8612185561
 20
-68.1945188585
 10
-0.8618940124
 20
-68.2458312872
 10
-0.8628078908
 20
-68.2975824996
  0
LWPOLYLINE
  5
415
100
AcDbEntity
  8
IMPORT_IGES
100
AcDbPolyline
 62
253
  6
CONTINUOUS
 90
10
 70
0
 10
-1.0864725357
 20
-77.3188928829
 10
-1.086191755
 20
-77.2900575141
 10
-1.084671812
 20
-77.2619705803
 10
-1.0819564458
 20
-77.234630599
 10
-1.0781181273
 20
-77.2079988017
 10
-1.0732003055
 20
-77.1821118211
 10
-1.0671655148
 20
-77.1570806664
 10
-1.0599976816
 20
-77.1329408337
 10
-1.0517534038
 20
-77.1096533409
 10
-1.0424692721
 20
-77.0872167181
  0
LWPOLYLINE
  5
416
100
AcDbEntity
  8
IMPORT_IGES
100
AcDbPolyline
 62
253
  6
CONTINUOUS
 90
7
 70
0
 10
-1.2608642578
 20
-62.335907855
 10
-1.2689391064
 20
-62.7244544874
 10
-1.2935547516
 20
-63.1119878729
 10
-1.3347111936
 20
-63.4984752095
 10
-1.3925304002
 20
-63.8848783796
 10
-1.4668904036
 20
-64.270169282
 10
-1.4746528576
 20
-64.3028507661
  0
LINE
  5
417
100
AcDbEntity
  8
IMPORT_IGES
100
AcDbLine
 62
253
  6
CONTINUOUS
 10
-0.8819122737
 20
-62.8143419645
 11
-0.886217975
 21
-62.9178491578
  0
LINE
  5
418
100
AcDbEntity
  8
IMPORT_IGES
100
AcDbLine
 62
253
  6
CONTINUOUS
 10
-0.886217975
 20
-62.9178491578
 11
-0.893928937
 21
-63.0810287928
  0
LINE
  5
419
100
AcDbEntity
  8
IMPORT_IGES
100
AcDbLine
 62
253
  6
CONTINUOUS
 10
-0.893928937
 20
-63.0810287928
 11
-0.8984106426
 21
-63.1678958443
  0
LWPOLYLINE
  5
41A
100
AcDbEntity
  8
IMPORT_IGES
100
AcDbPolyline
 62
253
  6
CONTINUOUS
 90
10
 70
0
 10
-0.8818866923
 20
-62.8143424002
 10
-0.8774743067
 20
-62.7441992174
 10
-0.8735810271
 20
-62.6740444911
 10
-0.8702068534
 20
-62.6038782213
 10
-0.8673517469
 20
-62.5336984741
 10
-0.8650157463
 20
-62.4635071834
 10
-0.863198968
 20
-62.3933101508
 10
-0.8619014506
 20
-62.3231093102
 10
-0.8611231553
 20
-62.2529027277
 10
-0.8608642578
 20
-59.9607890625
  0
LWPOLYLINE
  5
41B
100
AcDbEntity
  8
IMPORT_IGES
100
AcDbPolyline
 62
7
  6
CONTINUOUS
 90
4
 70
0
 10
-1.777675611
 20
-71.8267262163
 10
-1.7798567841
 20
-71.8373866491
 10
-1.7942005024
 20
-71.9195959023
 10
-1.8063238933
 20
-72.0027767379
  0
LWPOLYLINE
  5
41C
100
AcDbEntity
  8
ASSI
100
AcDbPolyline
 62
7
  6
CONTINUOUS
 90
9
 70
0
 10
-5.3153818901
 20
-94.90810535
 10
-5.3179110761
 20
-94.9197321013
 10
-5.3209906161
 20
-94.9312253415
 10
-5.3246135365
 20
-94.9425590363
 10
-5.328771632
 20
-94.9537075118
 10
-5.3334554856
 20
-94.9646455088
 10
-5.338654489
 20
-94.9753482501
 10
-5.3443568662
 20
-94.9857914908
 10
-5.3505496997
 20
-94.9959515684
  0
LWPOLYLINE
  5
41D
100
AcDbEntity
  8
IMPORT_IGES
100
AcDbPolyline
 62
253
  6
CONTINUOUS
 90
3
 70
0
 10
0.301576272
 20
-64.1328471331
 10
0.3359202345
 20
-64.0252647815
 10
0.4390884233
 20
-63.6894712747
  0
LINE
  5
41E
100
AcDbEntity
  8
ASSI
100
AcDbLine
 62
7
  6
CONTINUOUS
 10
-6.55551418
 20
-85.3107890625
 11
-6.5821535411
 21
-85.390772137
  0
LINE
  5
41F
100
AcDbEntity
  8
IMPORT_IGES
100
AcDbLine
 62
253
  6
CONTINUOUS
 10
-2.1577210754
 20
-71.9656231247
 11
-2.1708738422
 21
-72.0027766422
  0
LINE
  5
420
100
AcDbEntity
  8
ASSI
100
AcDbLine
 62
7
  6
CONTINUOUS
 10
8.4391357422
 20
-59.7107890625
 11
8.3891357422
 21
-59.7607890625
  0
LINE
  5
421
100
AcDbEntity
  8
IMPORT_IGES
100
AcDbLine
 62
253
  6
CONTINUOUS
 10
-3.1108642578
 20
-70.9292086464
 11
-3.1669458002
 21
-70.9818710452
  0
LINE
  5
422
100
AcDbEntity
  8
ASSI
100
AcDbLine
 62
7
  6
CONTINUOUS
 10
-6.55551418
 20
-70.1107890625
 11
-6.7108642578
 21
-70.1884581858
  0
LWPOLYLINE
  5
423
100
AcDbEntity
  8
IMPORT_IGES
100
AcDbPolyline
 62
253
  6
CONTINUOUS
 90
13
 70
0
 10
8.4891357422
 20
-75.0796697774
 10
8.5149467348
 20
-75.0789807764
 10
8.5402390688
 20
-75.0769347743
 10
8.5645993153
 20
-75.0735797358
 10
8.5875231431
 20
-75.0690108966
 10
8.6087797828
 20
-75.0633012675
 10
8.6283266924
 20
-75.0564425218
 10
8.6458727229
 20
-75.0484565868
 10
8.6608943365
 20
-75.0394894781
 10
8.6729838707
 20
-75.0297156887
 10
8.6818522529
 20
-75.0193109116
 10
8.6872928941
 20
-75.0084375365
 10
8.6891357412
 20
-74.997286951
  0
LWPOLYLINE
  5
424
100
AcDbEntity
  8
IMPORT_IGES
100
AcDbPolyline
 62
253
  6
CONTINUOUS
 90
13
 70
0
 10
-4.5108642578
 20
-75.0796697774
 10
-4.4850532652
 20
-75.0789807764
 10
-4.4597609312
 20
-75.0769347743
 10
-4.4354006847
 20
-75.0735797358
 10
-4.4124768569
 20
-75.0690108966
 10
-4.3912202172
 20
-75.0633012675
 10
-4.3716733076
 20
-75.0564425218
 10
-4.3541272771
 20
-75.0484565868
 10
-4.3391056635
 20
-75.0394894781
 10
-4.3270161293
 20
-75.0297156887
 10
-4.3181477471
 20
-75.0193109116
 10
-4.3127071059
 20
-75.0084375365
 10
-4.3108642588
 20
-74.997286951
  0
LWPOLYLINE
  5
425
100
AcDbEntity
  8
IMPORT_IGES
100
AcDbPolyline
 62
253
  6
CONTINUOUS
 90
13
 70
0
 10
10.9921604983
 20
-75.0796697748
 10
11.0307981563
 20
-75.079200202
 10
11.0686329554
 20
-75.0766943684
 10
11.1050519816
 20
-75.072219362
 10
11.1393007885
 20
-75.0659120198
 10
11.1710534017
 20
-75.0578785762
 10
11.2002790513
 20
-75.0481004974
 10
11.2265549483
 20
-75.0365998394
 10
11.2490970956
 20
-75.0235826294
 10
11.2673009442
 20
-75.0092964253
 10
11.2807358607
 20
-74.9939933562
 10
11.2890925563
 20
-74.9779080738
 10
11.2921148045
 20
-74.9613188683
  0
LWPOLYLINE
  5
426
100
AcDbEntity
  8
IMPORT_IGES
100
AcDbPolyline
 62
253
  6
CONTINUOUS
 90
13
 70
0
 10
-5.1024426731
 20
-75.6496240044
 10
-5.1411965497
 20
-75.649973077
 10
-5.1791414281
 20
-75.6496855747
 10
-5.2156588435
 20
-75.6487743237
 10
-5.2499880835
 20
-75.6472718977
 10
-5.2818001485
 20
-75.6452069282
 10
-5.3110627412
 20
-75.6425733212
 10
-5.337348683
 20
-75.6393725035
 10
-5.359867488
 20
-75.6356581729
 10
-5.3780099773
 20
-75.6314992673
 10
-5.391343362
 20
-75.6269683355
 10
-5.3995576427
 20
-75.6221340208
 10
-5.4023969819
 20
-75.6170791462
  0
LWPOLYLINE
  5
427
100
AcDbEntity
  8
IMPORT_IGES
100
AcDbPolyline
 62
253
  6
CONTINUOUS
 90
13
 70
0
 10
-4.5108642578
 20
-75.6496252897
 10
-4.4850535785
 20
-75.6494140936
 10
-4.4597614587
 20
-75.6487882118
 10
-4.4354013229
 20
-75.6477623027
 10
-4.4124774798
 20
-75.6463655212
 10
-4.3912207425
 20
-75.644620136
 10
-4.3716737395
 20
-75.6425234634
 10
-4.3541281194
 20
-75.6400822381
 10
-4.3391067478
 20
-75.6373410812
 10
-4.3270163521
 20
-75.6343530631
 10
-4.3181466594
 20
-75.6311717557
 10
-4.3127056148
 20
-75.6278468763
 10
-4.3108642578
 20
-75.6244369556
  0
LWPOLYLINE
  5
428
100
AcDbEntity
  8
IMPORT_IGES
100
AcDbPolyline
 62
253
  6
CONTINUOUS
 90
13
 70
0
 10
8.4891357422
 20
-75.6496228933
 10
8.5149464215
 20
-75.6494127623
 10
8.5402385413
 20
-75.6487876793
 10
8.5645986771
 20
-75.6477623027
 10
8.5875225202
 20
-75.6463656987
 10
8.6087792575
 20
-75.6446202248
 10
8.6283262605
 20
-75.6425234634
 10
8.6458718806
 20
-75.6400822381
 10
8.6608932522
 20
-75.6373410812
 10
8.6729836479
 20
-75.6343530631
 10
8.6818533406
 20
-75.6311717557
 10
8.6872943852
 20
-75.6278468763
 10
8.6891357422
 20
-75.6244369556
  0
LINE
  5
429
100
AcDbEntity
  8
IMPORT_IGES
100
AcDbLine
 62
253
  6
CONTINUOUS
 10
8.4891357422
 20
-75.6496230834
 11
7.6891357422
 21
-75.6496292102
  0
LINE
  5
42A
100
AcDbEntity
  8
IMPORT_IGES
100
AcDbLine
 62
253
  6
CONTINUOUS
 10
-4.5108642578
 20
-75.6496257612
 11
-5.102442543
 21
-75.6496262328
  0
LINE
  5
42B
100
AcDbEntity
  8
IMPORT_IGES
100
AcDbLine
 62
253
  6
CONTINUOUS
 10
-2.6108642578
 20
-75.6496231039
 11
-1.8108642578
 21
-75.6496309395
  0
LINE
  5
42C
100
AcDbEntity
  8
IMPORT_IGES
100
AcDbLine
 62
253
  6
CONTINUOUS
 10
10.3891357422
 20
-75.6496289815
 11
10.9807139272
 21
-75.649631524
  0
LINE
  5
42D
100
AcDbEntity
  8
IMPORT_IGES
100
AcDbLine
 62
7
  6
CONTINUOUS
 10
1.8342822399
 20
-75.2273080504
 11
4.0439892445
 21
-75.2273080504
  0
LINE
  5
42E
100
AcDbEntity
  8
IMPORT_IGES
100
AcDbLine
 62
253
  6
CONTINUOUS
 10
-5.1138889859
 20
-75.0796666694
 11
-4.5108642577
 21
-75.0796677202
  0
LINE
  5
42F
100
AcDbEntity
  8
IMPORT_IGES
100
AcDbLine
 62
253
  6
CONTINUOUS
 10
10.3891357422
 20
-75.0796690486
 11
10.9921604204
 21
-75.0796688529
  0
LINE
  5
430
100
AcDbEntity
  8
IMPORT_IGES
100
AcDbLine
 62
253
  6
CONTINUOUS
 10
-2.6108642578
 20
-75.0796718276
 11
-1.8108642578
 21
-75.0796663921
  0
LINE
  5
431
100
AcDbEntity
  8
IMPORT_IGES
100
AcDbLine
 62
253
  6
CONTINUOUS
 10
7.6891357422
 20
-75.0796642534
 11
8.4891357422
 21
-75.0796703185
  0
LINE
  5
432
100
AcDbEntity
  8
IMPORT_IGES
100
AcDbLine
 62
7
  6
CONTINUOUS
 10
1.5342822399
 20
-74.6567860809
 11
4.3439892445
 21
-74.6567860809
  0
LINE
  5
433
100
AcDbEntity
  8
IMPORT_IGES
100
AcDbLine
 62
7
  6
CONTINUOUS
 10
5.5439892445
 20
-74.5546846367
 11
4.6439892445
 21
-74.5546846367
  0
LINE
  5
434
100
AcDbEntity
  8
IMPORT_IGES
100
AcDbLine
 62
7
  6
CONTINUOUS
 10
1.2342822399
 20
-74.5546846367
 11
0.3342822399
 21
-74.5546846367
  0
LINE
  5
435
100
AcDbEntity
  8
IMPORT_IGES
100
AcDbLine
 62
7
  6
CONTINUOUS
 10
5.8492482385
 20
-74.5225417795
 11
0.0290233085
 21
-74.5225417795
  0
LWPOLYLINE
  5
436
100
AcDbEntity
  8
IMPORT_IGES
100
AcDbPolyline
 62
253
  6
CONTINUOUS
 90
13
 70
0
 10
10.3891357422
 20
-75.6496240003
 10
10.3633247496
 20
-75.6494133721
 10
10.3380324155
 20
-75.6487879077
 10
10.3136721691
 20
-75.64776227
 10
10.2907483412
 20
-75.6463655723
 10
10.2694917016
 20
-75.6446201344
 10
10.249944792
 20
-75.6425234106
 10
10.2323983064
 20
-75.640082032
 10
10.2173763973
 20
-75.6373406939
 10
10.2052876137
 20
-75.6343529975
 10
10.196420407
 20
-75.6311727827
 10
10.1909800789
 20
-75.6278496215
 10
10.1891357462
 20
-75.6244419989
  0
LWPOLYLINE
  5
437
100
AcDbEntity
  8
IMPORT_IGES
100
AcDbPolyline
 62
253
  6
CONTINUOUS
 90
13
 70
0
 10
10.9807139686
 20
-75.6496315247
 10
11.0194682006
 20
-75.6499772538
 10
11.05741338
 20
-75.6496872348
 10
11.0939310307
 20
-75.6487742955
 10
11.1282604349
 20
-75.6472712898
 10
11.1600725862
 20
-75.6452065725
 10
11.1893351837
 20
-75.6425732167
 10
11.2156210592
 20
-75.6393723732
 10
11.2381397352
 20
-75.6356580212
 10
11.2562820421
 20
-75.6314991031
 10
11.2696152169
 20
-75.6269681709
 10
11.2778292941
 20
-75.6221338683
 10
11.2806684685
 20
-75.6170790187
  0
LWPOLYLINE
  5
438
100
AcDbEntity
  8
IMPORT_IGES
100
AcDbPolyline
 62
253
  6
CONTINUOUS
 90
13
 70
0
 10
10.3891357422
 20
-75.0796692444
 10
10.3633250629
 20
-75.0789804971
 10
10.3380329431
 20
-75.0769347133
 10
10.3136728072
 20
-75.0735798429
 10
10.2907489641
 20
-75.0690110811
 10
10.2694922269
 20
-75.0633014488
 10
10.2499452239
 20
-75.0564426942
 10
10.2323995981
 20
-75.0484570217
 10
10.2173782229
 20
-75.0394902204
 10
10.2052878365
 20
-75.029715903
 10
10.1964181583
 20
-75.0193093185
 10
10.1909771175
 20
-75.0084330973
 10
10.1891357422
 20
-74.9972787026
  0
LINE
  5
439
100
AcDbEntity
  8
ASSI
100
AcDbLine
 62
7
  6
CONTINUOUS
 10
-6.55551418
 20
-71.1107890625
 11
-6.7108642578
 21
-71.0331199392
  0
LINE
  5
43A
100
AcDbEntity
  8
IMPORT_IGES
100
AcDbLine
 62
253
  6
CONTINUOUS
 10
-4.2883829664
 20
-71.2818705151
 11
-4.4583623574
 21
-71.1818757775
  0
LWPOLYLINE
  5
43B
100
AcDbEntity
  8
IMPORT_IGES
100
AcDbPolyline
 62
253
  6
CONTINUOUS
 90
10
 70
0
 10
10.2218131637
 20
-79.3073583618
 10
10.2526545365
 20
-79.3256785783
 10
10.2810737005
 20
-79.3464562341
 10
10.3064962222
 20
-79.3692078084
 10
10.3289460782
 20
-79.3935281117
 10
10.3483992919
 20
-79.4198223335
 10
10.3642094999
 20
-79.4488225217
 10
10.3761612479
 20
-79.4807726925
 10
10.3844699902
 20
-79.5154288297
 10
10.3891357268
 20
-79.5527909334
  0
LWPOLYLINE
  5
43C
100
AcDbEntity
  8
IMPORT_IGES
100
AcDbPolyline
 62
253
  6
CONTINUOUS
 90
7
 70
0
 10
10.2694922273
 20
-81.0603213632
 10
10.2499452238
 20
-81.047024721
 10
10.2323996037
 20
-81.0315433531
 10
10.2173782321
 20
-81.0141599276
 10
10.2052878364
 20
-80.9952110058
 10
10.1964181437
 20
-80.9750363259
 10
10.190977099
 20
-80.9539511729
  0
LINE
  5
43D
100
AcDbEntity
  8
ASSI
100
AcDbLine
 62
253
  6
CONTINUOUS
 10
10.4391357422
 20
-84.010808101
 11
10.3492490039
 21
-83.9209213627
  0
LINE
  5
43E
100
AcDbEntity
  8
ASSI
100
AcDbLine
 62
7
  6
CONTINUOUS
 10
10.4391357422
 20
-83.1107890625
 11
10.3492490039
 21
-83.0209023243
  0
LINE
  5
43F
100
AcDbEntity
  8
0
100
AcDbLine
 62
7
  6
CONTINUOUS
 10
0.2632636737
 20
-82.1225127799
 11
0.2632636737
 21
-82.2225127799
  0
LINE
  5
440
100
AcDbEntity
  8
0
100
AcDbLine
 62
7
  6
CONTINUOUS
 10
0.2982814502
 20
-82.1225127799
 11
0.2982814502
 21
-82.2225127799
  0
LINE
  5
441
100
AcDbEntity
  8
IMPORT_IGES
100
AcDbLine
 62
253
  6
CONTINUOUS
 10
0.3342822399
 20
-67.0564809719
 11
0.3342822399
 21
-67.3010552081
  0
LINE
  5
442
100
AcDbEntity
  8
IMPORT_IGES
100
AcDbLine
 62
253
  6
CONTINUOUS
 10
0.3342822399
 20
-74.5546846367
 11
0.3342822399
 21
-74.7595190215
  0
LINE
  5
443
100
AcDbEntity
  8
0
100
AcDbLine
 62
253
  6
CONTINUOUS
 10
0.643335123
 20
-82.1225127799
 11
0.643335123
 21
-82.2225127799
  0
LINE
  5
444
100
AcDbEntity
  8
0
100
AcDbLine
 62
253
  6
CONTINUOUS
 10
0.7219115405
 20
-82.1225127799
 11
0.7219115405
 21
-82.2225127799
  0
LINE
  5
445
100
AcDbEntity
  8
0
100
AcDbLine
 62
7
  6
CONTINUOUS
 10
0.8064666461
 20
-82.1225127799
 11
0.8064666461
 21
-82.2225127799
  0
LINE
  5
446
100
AcDbEntity
  8
0
100
AcDbLine
 62
7
  6
CONTINUOUS
 10
0.8500257205
 20
-82.1225127799
 11
0.8500257205
 21
-82.2225127799
  0
LINE
  5
447
100
AcDbEntity
  8
0
100
AcDbLine
 62
253
  6
CONTINUOUS
 10
0.9394924968
 20
-82.1225127799
 11
0.9394924968
 21
-82.2225127799
  0
LINE
  5
448
100
AcDbEntity
  8
0
100
AcDbLine
 62
253
  6
CONTINUOUS
 10
1.0276769351
 20
-82.1225127799
 11
1.0276769351
 21
-82.2225127799
  0
LINE
  5
449
100
AcDbEntity
  8
IMPORT_IGES
100
AcDbLine
 62
253
  6
CONTINUOUS
 10
1.234282417
 20
-75.2547293591
 11
1.2342822399
 21
-74.5546846367
  0
LINE
  5
44A
100
AcDbEntity
  8
IMPORT_IGES
100
AcDbLine
 62
253
  6
CONTINUOUS
 10
1.2342827242
 20
-67.3010552081
 11
1.234282908
 21
-66.5652199692
  0
LINE
  5
44B
100
AcDbEntity
  8
0
100
AcDbLine
 62
7
  6
CONTINUOUS
 10
1.3453992557
 20
-82.1225127799
 11
1.3453992557
 21
-82.2225127799
  0
LINE
  5
44C
100
AcDbEntity
  8
0
100
AcDbLine
 62
7
  6
CONTINUOUS
 10
1.3804170322
 20
-82.1225127799
 11
1.3804170322
 21
-82.2225127799
  0
LINE
  5
44D
100
AcDbEntity
  8
IMPORT_IGES
100
AcDbLine
 62
7
  6
CONTINUOUS
 10
1.5342822399
 20
-66.4559537862
 11
1.5342822399
 21
-67.2962933033
  0
LINE
  5
44E
100
AcDbEntity
  8
IMPORT_IGES
100
AcDbLine
 62
7
  6
CONTINUOUS
 10
1.5342822399
 20
-74.5618274938
 11
1.5342822399
 21
-75.3652130051
  0
LINE
  5
44F
100
AcDbEntity
  8
0
100
AcDbLine
 62
7
  6
CONTINUOUS
 10
1.6468938541
 20
-82.1225127799
 11
1.6468938541
 21
-82.2225127799
  0
LINE
  5
450
100
AcDbEntity
  8
IMPORT_IGES
100
AcDbLine
 62
7
  6
CONTINUOUS
 10
1.8342822399
 20
-75.4524160054
 11
1.8342822399
 21
-75.2273080504
  0
LINE
  5
451
100
AcDbEntity
  8
IMPORT_IGES
100
AcDbLine
 62
7
  6
CONTINUOUS
 10
1.8342822399
 20
-66.5352603169
 11
1.8342822399
 21
-66.3694954974
  0
LINE
  5
452
100
AcDbEntity
  8
0
100
AcDbLine
 62
7
  6
CONTINUOUS
 10
1.9082460117
 20
-82.1225127799
 11
1.9082460117
 21
-82.2225127799
  0
LINE
  5
453
100
AcDbEntity
  8
0
100
AcDbLine
 62
7
  6
CONTINUOUS
 10
1.9432637881
 20
-82.1225127799
 11
1.9432637881
 21
-82.2225127799
  0
LINE
  5
454
100
AcDbEntity
  8
ASSI
100
AcDbLine
 62
253
  6
CONTINUOUS
 10
-6.6480260241
 20
-90.821892205
 11
-6.7108642578
 21
-91.0105602104
  0
LINE
  5
455
100
AcDbEntity
  8
ASSI
100
AcDbLine
 62
253
  6
CONTINUOUS
 10
-6.1484066238
 20
-91.3221210571
 11
-6.2112448575
 21
-91.5107890625
  0
LINE
  5
456
100
AcDbEntity
  8
IMPORT_IGES
100
AcDbLine
 62
253
  6
CONTINUOUS
 10
5.7535196182
 20
-64.4765443701
 11
5.8638876134
 21
-64.3097543655
  0
LINE
  5
457
100
AcDbEntity
  8
IMPORT_IGES
100
AcDbLine
 62
7
  6
CONTINUOUS
 10
7.3439892445
 20
-63.9709347206
 11
7.1687644254
 21
-64.1477116708
  0
LINE
  5
458
100
AcDbEntity
  8
ASSI
100
AcDbLine
 62
253
  6
CONTINUOUS
 10
9.8492680424
 20
-59.8006758007
 11
9.9391547807
 21
-59.7107890625
  0
LINE
  5
459
100
AcDbEntity
  8
ASSI
100
AcDbLine
 62
253
  6
CONTINUOUS
 10
10.3492490039
 20
-60.3006567623
 11
10.4391357422
 21
-60.210770024
  0
LWPOLYLINE
  5
45A
100
AcDbEntity
  8
IMPORT_IGES
100
AcDbPolyline
 62
253
  6
CONTINUOUS
 90
6
 70
0
 10
-4.1991411681
 20
-71.2022267828
 10
-4.2206703248
 20
-71.2143836756
 10
-4.240429478
 20
-71.2288490887
 10
-4.258121579
 20
-71.2450351902
 10
-4.2740451525
 20
-71.2628073569
 10
-4.2883829664
 20
-71.2818705151
  0
LINE
  5
45B
100
AcDbEntity
  8
ASSI
100
AcDbLine
 62
7
  6
CONTINUOUS
 10
12.4337856643
 20
-62.7107890625
 11
12.5891357422
 21
-62.6331199392
  0
LINE
  5
45C
100
AcDbEntity
  8
IMPORT_IGES
100
AcDbLine
 62
253
  6
CONTINUOUS
 10
-4.1769430437
 20
-71.1930079204
 11
-4.1991411681
 21
-71.2022267828
  0
LWPOLYLINE
  5
45D
100
AcDbEntity
  8
IMPORT_IGES
100
AcDbPolyline
 62
253
  6
CONTINUOUS
 90
7
 70
0
 10
-4.3572375572
 20
-71.343605259
 10
-4.3765125564
 20
-71.3503187839
 10
-4.3975551318
 20
-71.3554637084
 10
-4.420129975
 20
-71.3587666306
 10
-4.4433174624
 20
-71.3609128832
 10
-4.4664429198
 20
-71.3626909873
 10
-4.4891116837
 20
-71.3637625458
  0
LWPOLYLINE
  5
45E
100
AcDbEntity
  8
IMPORT_IGES
100
AcDbPolyline
 62
253
  6
CONTINUOUS
 90
5
 70
0
 10
-3.1669460782
 20
-70.9818706685
 10
-3.1507369015
 20
-70.9885807583
 10
-3.1342276331
 20
-70.995092412
 10
-3.117418273
 20
-71.0013996327
 10
-3.1108642578
 20
-71.0037323471
  0
LINE
  5
45F
100
AcDbEntity
  8
ASSI
100
AcDbLine
 62
7
  6
CONTINUOUS
 10
12.4337856643
 20
-77.8107890625
 11
12.5891357422
 21
-77.8884581858
  0
LWPOLYLINE
  5
460
100
AcDbEntity
  8
IMPORT_IGES
100
AcDbPolyline
 62
253
  6
CONTINUOUS
 90
4
 70
0
 10
6.9331809358
 20
-76.9032538567
 10
6.8401281965
 20
-76.8314358765
 10
6.8063890802
 20
-76.8055459171
 10
6.7712652892
 20
-76.779009404
  0
LINE
  5
461
100
AcDbEntity
  8
IMPORT_IGES
100
AcDbLine
 62
253
  6
CONTINUOUS
 10
6.9612379143
 20
-76.9252027629
 11
6.9331809358
 21
-76.9032538567
  0
LINE
  5
462
100
AcDbEntity
  8
IMPORT_IGES
100
AcDbLine
 62
253
  6
CONTINUOUS
 10
7.0355946942
 20
-76.9846172601
 11
6.9612379143
 21
-76.9252027629
  0
LWPOLYLINE
  5
463
100
AcDbEntity
  8
IMPORT_IGES
100
AcDbPolyline
 62
253
  6
CONTINUOUS
 90
10
 70
0
 10
10.3891357105
 20
-81.0920537129
 10
10.4016449465
 20
-81.106563577
 10
10.4141026975
 20
-81.1188860284
 10
10.4263579472
 20
-81.1289687416
 10
10.438224653
 20
-81.1368081681
 10
10.4496032318
 20
-81.1423562819
 10
10.4604850347
 20
-81.1455317376
 10
10.4707923543
 20
-81.1463382625
 10
10.4803756656
 20
-81.1448524124
 10
10.4891370155
 20
-81.141137497
  0
LWPOLYLINE
  5
464
100
AcDbEntity
  8
IMPORT_IGES
100
AcDbPolyline
 62
253
  6
CONTINUOUS
 90
10
 70
0
 10
-5.0199314777
 20
-61.2703495963
 10
-5.0472694766
 20
-61.2293540119
 10
-5.0750997745
 20
-61.1938856329
 10
-5.1027521735
 20
-61.1643251584
 10
-5.1296340396
 20
-61.1405676399
 10
-5.1548767572
 20
-61.1234197879
 10
-5.1776865289
 20
-61.1139207076
 10
-5.1977929322
 20
-61.1117965481
 10
-5.2150992515
 20
-61.1161500173
 10
-5.2295477683
 20
-61.1264124963
  0
LINE
  5
465
100
AcDbEntity
  8
ASSI
100
AcDbLine
 62
253
  6
CONTINUOUS
 10
-6.7108642578
 20
-50.2110179146
 11
-6.55551418
 21
-50.6774471502
  0
LINE
  5
466
100
AcDbEntity
  8
ASSI
100
AcDbLine
 62
253
  6
CONTINUOUS
 10
-6.2112448575
 20
-49.7107890625
 11
-6.0558947797
 21
-50.1772182981
  0
LINE
  5
467
100
AcDbEntity
  8
0
100
AcDbLine
 62
253
  6
CONTINUOUS
 10
2.2883171748
 20
-82.1225127799
 11
2.2883171748
 21
-82.2225127799
  0
LINE
  5
468
100
AcDbEntity
  8
IMPORT_IGES
100
AcDbLine
 62
7
  6
CONTINUOUS
 10
2.3391357422
 20
-67.0224837795
 11
2.3391357422
 21
-66.270541388
  0
LINE
  5
469
100
AcDbEntity
  8
0
100
AcDbLine
 62
253
  6
CONTINUOUS
 10
2.3668938179
 20
-82.1225127799
 11
2.3668938179
 21
-82.2225127799
  0
LINE
  5
46A
100
AcDbEntity
  8
0
100
AcDbLine
 62
7
  6
CONTINUOUS
 10
2.4514489841
 20
-82.1225127799
 11
2.4514489841
 21
-82.2225127799
  0
LINE
  5
46B
100
AcDbEntity
  8
0
100
AcDbLine
 62
7
  6
CONTINUOUS
 10
2.5069648456
 20
-82.1225127799
 11
2.5069648456
 21
-82.2225127799
  0
LINE
  5
46C
100
AcDbEntity
  8
0
100
AcDbLine
 62
253
  6
CONTINUOUS
 10
2.6308082732
 20
-82.1225127799
 11
2.6308082732
 21
-82.2225127799
  0
LINE
  5
46D
100
AcDbEntity
  8
0
100
AcDbLine
 62
253
  6
CONTINUOUS
 10
2.7239044856
 20
-82.1225127799
 11
2.7239044856
 21
-82.2225127799
  0
LINE
  5
46E
100
AcDbEntity
  8
0
100
AcDbLine
 62
7
  6
CONTINUOUS
 10
2.8494561862
 20
-82.1225127799
 11
2.8494561862
 21
-82.2225127799
  0
LINE
  5
46F
100
AcDbEntity
  8
0
100
AcDbLine
 62
7
  6
CONTINUOUS
 10
3.3397050571
 20
-82.1225127799
 11
3.3397050571
 21
-82.2225127799
  0
LINE
  5
470
100
AcDbEntity
  8
0
100
AcDbLine
 62
253
  6
CONTINUOUS
 10
3.490879507
 20
-82.1225127799
 11
3.490879507
 21
-82.2225127799
  0
LINE
  5
471
100
AcDbEntity
  8
IMPORT_IGES
100
AcDbLine
 62
7
  6
CONTINUOUS
 10
3.5391357422
 20
-66.2705388093
 11
3.5391357422
 21
-67.0224837795
  0
LINE
  5
472
100
AcDbEntity
  8
0
100
AcDbLine
 62
253
  6
CONTINUOUS
 10
3.5797050964
 20
-82.1225127799
 11
3.5797050964
 21
-82.2225127799
  0
LINE
  5
473
100
AcDbEntity
  8
0
100
AcDbLine
 62
7
  6
CONTINUOUS
 10
3.6821963977
 20
-82.1225127799
 11
3.6821963977
 21
-82.2225127799
  0
LINE
  5
474
100
AcDbEntity
  8
0
100
AcDbLine
 62
7
  6
CONTINUOUS
 10
3.725983395
 20
-82.2225127799
 11
3.725983395
 21
-82.1225127799
  0
LINE
  5
475
100
AcDbEntity
  8
0
100
AcDbLine
 62
7
  6
CONTINUOUS
 10
3.7469177405
 20
-82.1225127799
 11
3.7469177405
 21
-82.2225127799
  0
LINE
  5
476
100
AcDbEntity
  8
0
100
AcDbLine
 62
7
  6
CONTINUOUS
 10
3.7598157698
 20
-82.1225127799
 11
3.7598157698
 21
-82.2225127799
  0
LINE
  5
477
100
AcDbEntity
  8
0
100
AcDbLine
 62
7
  6
CONTINUOUS
 10
3.7650433253
 20
-82.1225127799
 11
3.7650433253
 21
-82.2225127799
  0
LWPOLYLINE
  5
478
100
AcDbEntity
  8
ASSI
100
AcDbPolyline
 62
7
  6
CONTINUOUS
 90
17
 70
0
 10
-1.4167969906
 20
-94.3615624872
 10
-1.4163715424
 20
-94.3587797969
 10
-1.4152759965
 20
-94.3553335827
 10
-1.4134913068
 20
-94.3512238448
 10
-1.4109978954
 20
-94.34646386
 10
-1.4077795925
 20
-94.3410403513
 10
-1.4038274736
 20
-94.3349134886
 10
-1.3991310921
 20
-94.3280759491
 10
-1.3936804029
 20
-94.3205350555
 10
-1.3874751529
 20
-94.3122729461
 10
-1.3805277664
 20
-94.303309285
 10
-1.372822764
 20
-94.2936244082
 10
-1.3643114715
 20
-94.2831414614
 10
-1.3549787243
 20
-94.2718601464
 10
-1.3448209659
 20
-94.2597807614
 10
-1.3337907472
 20
-94.246827347
 10
-1.3218763293
 20
-94.2329986094
  0
LWPOLYLINE
  5
479
100
AcDbEntity
  8
ASSI
100
AcDbPolyline
 62
7
  6
CONTINUOUS
 90
17
 70
0
 10
7.2950684749
 20
-46.8600156378
 10
7.2946415537
 20
-46.862807567
 10
7.2935434426
 20
-46.8662576452
 10
7.2917571794
 20
-46.8703658723
 10
7.2892657562
 20
-46.8751195879
 10
7.2860548994
 20
-46.8805314525
 10
7.2821157693
 20
-46.8866394469
 10
7.2774398146
 20
-46.8934480132
 10
7.2720175061
 20
-46.9009527093
 10
7.2658435635
 20
-46.9091781891
 10
7.2589284353
 20
-46.9181040699
 10
7.2512565034
 20
-46.9277507342
 10
7.2427737676
 20
-46.9382039845
 10
7.2334596753
 20
-46.9494680884
 10
7.2233116202
 20
-46.9615387782
 10
7.2122864978
 20
-46.9744890521
 10
7.2003734539
 20
-46.9883194561
  0
LWPOLYLINE
  5
47A
100
AcDbEntity
  8
IMPORT_IGES
100
AcDbPolyline
 62
253
  6
CONTINUOUS
 90
3
 70
0
 10
-1.0424692721
 20
-77.0872167181
 10
-1.0294124761
 20
-77.0585988334
 10
-1.0151388067
 20
-77.028485695
  0
LINE
  5
47B
100
AcDbEntity
  8
IMPORT_IGES
100
AcDbLine
 62
253
  6
CONTINUOUS
 10
-1.0151388067
 20
-77.028485695
 11
-0.9669302449
 21
-76.9289453529
  0
LINE
  5
47C
100
AcDbEntity
  8
IMPORT_IGES
100
AcDbLine
 62
253
  6
CONTINUOUS
 10
-0.9121460838
 20
-76.8181794139
 11
-0.8929871639
 21
-76.7790093243
  0
LWPOLYLINE
  5
47D
100
AcDbEntity
  8
IMPORT_IGES
100
AcDbPolyline
 62
253
  6
CONTINUOUS
 90
3
 70
0
 10
-0.9669302449
 20
-76.9289453529
 10
-0.9493366831
 20
-76.89308963
 10
-0.9121460838
 20
-76.8181794139
  0
LINE
  5
47E
100
AcDbEntity
  8
IMPORT_IGES
100
AcDbLine
 62
253
  6
CONTINUOUS
 10
-3.3340074533
 20
-81.6483380794
 11
-3.4196506936
 21
-81.7962151975
  0
LINE
  5
47F
100
AcDbEntity
  8
IMPORT_IGES
100
AcDbLine
 62
253
  6
CONTINUOUS
 10
-4.110869259
 20
-81.201980292
 11
-4.1593250005
 21
-81.2855038632
  0
LWPOLYLINE
  5
480
100
AcDbEntity
  8
IMPORT_IGES
100
AcDbPolyline
 62
253
  6
CONTINUOUS
 90
4
 70
0
 10
-3.4196506936
 20
-81.7962151975
 10
-3.4302806091
 20
-81.8143936295
 10
-3.433042228
 20
-81.8190519808
 10
-3.4340065504
 20
-81.8205968123
  0
LINE
  5
481
100
AcDbEntity
  8
IMPORT_IGES
100
AcDbLine
 62
253
  6
CONTINUOUS
 10
-4.1593250005
 20
-81.2855038632
 11
-4.1886972055
 21
-81.3356068308
  0
LWPOLYLINE
  5
482
100
AcDbEntity
  8
IMPORT_IGES
100
AcDbPolyline
 62
253
  6
CONTINUOUS
 90
5
 70
0
 10
-4.1886972055
 20
-81.3356068308
 10
-4.2022971647
 20
-81.3584703386
 10
-4.2069422468
 20
-81.3661193657
 10
-4.2098239585
 20
-81.370696531
 10
-4.2108638555
 20
-81.3720776164
  0
LINE
  5
483
100
AcDbEntity
  8
IMPORT_IGES
100
AcDbLine
 62
7
  6
CONTINUOUS
 10
-2.6108642578
 20
-78.7559291176
 11
-2.6807814396
 21
-78.8650890516
  0
LWPOLYLINE
  5
484
100
AcDbEntity
  8
IMPORT_IGES
100
AcDbPolyline
 62
253
  6
CONTINUOUS
 90
10
 70
0
 10
-1.1573236447
 20
-76.9846174589
 10
-1.1732179431
 20
-77.0057198812
 10
-1.18741423
 20
-77.0279727511
 10
-1.1999125051
 20
-77.0513760687
 10
-1.2108152237
 20
-77.0759793039
 10
-1.2200199305
 20
-77.1017329867
 10
-1.2272192606
 20
-77.1284887072
 10
-1.2323107589
 20
-77.1561969955
 10
-1.2353968804
 20
-77.1849073214
 10
-1.2364776252
 20
-77.2146196851
  0
LWPOLYLINE
  5
485
100
AcDbEntity
  8
IMPORT_IGES
100
AcDbPolyline
 62
7
  6
CONTINUOUS
 90
3
 70
0
 10
-4.1110220297
 20
-71.1818452969
 10
-4.1327011344
 20
-71.1830429671
 10
-4.1514026457
 20
-71.1859842091
  0
LINE
  5
486
100
AcDbEntity
  8
ASSI
100
AcDbLine
 62
7
  6
CONTINUOUS
 10
-6.2731514546
 20
-71.0226249552
 11
-6.7108642578
 21
-71.0331199392
  0
LINE
  5
487
100
AcDbEntity
  8
ASSI
100
AcDbLine
 62
7
  6
CONTINUOUS
 10
12.5891357422
 20
-70.1884581858
 11
12.151422939
 21
-70.1989531698
  0
LINE
  5
488
100
AcDbEntity
  8
IMPORT_IGES
100
AcDbLine
 62
253
  6
CONTINUOUS
 10
-5.1797755562
 20
-71.1818731685
 11
-5.4797224374
 21
-71.1871067673
  0
LWPOLYLINE
  5
489
100
AcDbEntity
  8
IMPORT_IGES
100
AcDbPolyline
 62
253
  6
CONTINUOUS
 90
13
 70
0
 10
11.0458678558
 20
-72.0027763494
 10
11.0845030397
 20
-72.0023070606
 10
11.1223364648
 20
-71.9998016332
 10
11.1587552123
 20
-71.9953269893
 10
11.1930050688
 20
-71.9890197169
 10
11.2247594767
 20
-71.9809859634
 10
11.2539865409
 20
-71.9712074455
 10
11.280263318
 20
-71.9597063316
 10
11.3028059544
 20
-71.9466886258
 10
11.3210096779
 20
-71.9324021434
 10
11.3344440551
 20
-71.9170991617
 10
11.3428001911
 20
-71.9010143028
 10
11.3458221716
 20
-71.884425863
  0
LWPOLYLINE
  5
48A
100
AcDbEntity
  8
IMPORT_IGES
100
AcDbPolyline
 62
253
  6
CONTINUOUS
 90
13
 70
0
 10
10.3891357421
 20
-71.3636216126
 10
10.3630133533
 20
-71.3638590782
 10
10.3373688812
 20
-71.364327448
 10
10.3126382453
 20
-71.3650268787
 10
10.2892536946
 20
-71.3659580235
 10
10.2675909163
 20
-71.3671212655
 10
10.2479746771
 20
-71.3685153168
 10
10.2307440394
 20
-71.3701434817
 10
10.2161955548
 20
-71.3720068297
 10
10.2045609973
 20
-71.374101031
 10
10.1960609897
 20
-71.3764313322
 10
10.1908795892
 20
-71.3790148738
 10
10.1891357422
 20
-71.3818710482
  0
LINE
  5
48B
100
AcDbEntity
  8
IMPORT_IGES
100
AcDbLine
 62
253
  6
CONTINUOUS
 10
10.3891357422
 20
-72.0027767694
 11
11.0458679327
 21
-72.0027763505
  0
LINE
  5
48C
100
AcDbEntity
  8
IMPORT_IGES
100
AcDbLine
 62
253
  6
CONTINUOUS
 10
-5.1675966286
 20
-72.0027767069
 11
-4.5108642576
 21
-72.0027767361
  0
LINE
  5
48D
100
AcDbEntity
  8
IMPORT_IGES
100
AcDbLine
 62
253
  6
CONTINUOUS
 10
-2.6108642578
 20
-72.0027766199
 11
-1.8063238933
 21
-72.00277669
  0
LINE
  5
48E
100
AcDbEntity
  8
IMPORT_IGES
100
AcDbLine
 62
253
  6
CONTINUOUS
 10
7.6845953777
 20
-72.0027759886
 11
8.4891357422
 21
-72.0027747104
  0
LINE
  5
48F
100
AcDbEntity
  8
IMPORT_IGES
100
AcDbLine
 62
7
  6
CONTINUOUS
 10
-2.5108642578
 20
-71.9657890625
 11
-2.1608642578
 21
-71.9657890625
  0
LINE
  5
490
100
AcDbEntity
  8
IMPORT_IGES
100
AcDbLine
 62
7
  6
CONTINUOUS
 10
8.0391357422
 20
-71.9657890625
 11
8.3891357422
 21
-71.9657890625
  0
LINE
  5
491
100
AcDbEntity
  8
IMPORT_IGES
100
AcDbLine
 62
7
  6
CONTINUOUS
 10
-1.4968904034
 20
-71.846879028
 11
-1.6108642578
 21
-71.846879028
  0
LINE
  5
492
100
AcDbEntity
  8
IMPORT_IGES
100
AcDbLine
 62
253
  6
CONTINUOUS
 10
-2.5108642578
 20
-71.6657890625
 11
-2.1608642578
 21
-71.6657890625
  0
LINE
  5
493
100
AcDbEntity
  8
IMPORT_IGES
100
AcDbLine
 62
253
  6
CONTINUOUS
 10
8.0391357422
 20
-71.6657890625
 11
8.3891357422
 21
-71.6657890625
  0
LINE
  5
494
100
AcDbEntity
  8
IMPORT_IGES
100
AcDbLine
 62
253
  6
CONTINUOUS
 10
7.7391357422
 20
-71.3657890625
 11
7.4391357422
 21
-71.3657890625
  0
LINE
  5
495
100
AcDbEntity
  8
IMPORT_IGES
100
AcDbLine
 62
253
  6
CONTINUOUS
 10
-3.1108642578
 20
-71.3657890625
 11
-2.8108642578
 21
-71.3657890625
  0
LINE
  5
496
100
AcDbEntity
  8
IMPORT_IGES
100
AcDbLine
 62
253
  6
CONTINUOUS
 10
-1.8608642578
 20
-71.3657890625
 11
-1.5608642578
 21
-71.3657890626
  0
LINE
  5
497
100
AcDbEntity
  8
IMPORT_IGES
100
AcDbLine
 62
253
  6
CONTINUOUS
 10
8.6891357422
 20
-71.3657890625
 11
8.9891357422
 21
-71.3657890626
  0
LINE
  5
498
100
AcDbEntity
  8
IMPORT_IGES
100
AcDbLine
 62
253
  6
CONTINUOUS
 10
10.3366339876
 20
-71.1818740165
 11
11.0585205572
 21
-71.1818712124
  0
LINE
  5
499
100
AcDbEntity
  8
IMPORT_IGES
100
AcDbLine
 62
253
  6
CONTINUOUS
 10
-5.1797755562
 20
-71.181874473
 11
-4.4583623574
 21
-71.1818757775
  0
LINE
  5
49A
100
AcDbEntity
  8
IMPORT_IGES
100
AcDbLine
 62
7
  6
CONTINUOUS
 10
-3.1108642578
 20
-71.1818710456
 11
-4.1108642345
 21
-71.1818710455
  0
LINE
  5
49B
100
AcDbEntity
  8
IMPORT_IGES
100
AcDbLine
 62
7
  6
CONTINUOUS
 10
8.9891357422
 20
-71.1818710456
 11
9.9892905459
 21
-71.1818710456
  0
LINE
  5
49C
100
AcDbEntity
  8
ASSI
100
AcDbLine
 62
7
  6
CONTINUOUS
 10
12.4337856643
 20
-71.1107890625
 11
11.3593260522
 21
-71.1107890625
  0
LINE
  5
49D
100
AcDbEntity
  8
ASSI
100
AcDbLine
 62
7
  6
CONTINUOUS
 10
-6.55551418
 20
-71.1107890625
 11
-5.4810545678
 21
-71.1107890625
  0
LINE
  5
49E
100
AcDbEntity
  8
ASSI
100
AcDbLine
 62
7
  6
CONTINUOUS
 10
11.8695151528
 20
-71.0209023243
 11
11.3618570366
 21
-71.0209023243
  0
LINE
  5
49F
100
AcDbEntity
  8
ASSI
100
AcDbLine
 62
7
  6
CONTINUOUS
 10
-5.4835855523
 20
-71.0209023243
 11
-5.9912436684
 21
-71.0209023243
  0
LINE
  5
4A0
100
AcDbEntity
  8
IMPORT_IGES
100
AcDbLine
 62
253
  6
CONTINUOUS
 10
9.0452088131
 20
-70.9818718564
 11
9.9892899431
 21
-70.9818713462
  0
LINE
  5
4A1
100
AcDbEntity
  8
IMPORT_IGES
100
AcDbLine
 62
253
  6
CONTINUOUS
 10
-4.1110212326
 20
-70.9818712823
 11
-3.1669460782
 21
-70.9818706685
  0
LINE
  5
4A2
100
AcDbEntity
  8
IMPORT_IGES
100
AcDbLine
 62
7
  6
CONTINUOUS
 10
-5.4835855523
 20
-70.9657890625
 11
-5.1829182006
 21
-70.9657889701
  0
LINE
  5
4A3
100
AcDbEntity
  8
IMPORT_IGES
100
AcDbLine
 62
7
  6
CONTINUOUS
 10
11.3618570366
 20
-70.9657890625
 11
11.0615081194
 21
-70.9657834529
  0
LINE
  5
4A4
100
AcDbEntity
  8
IMPORT_IGES
100
AcDbLine
 62
7
  6
CONTINUOUS
 10
7.3745020001
 20
-71.8467668028
 11
7.4891357422
 21
-71.846879028
  0
LWPOLYLINE
  5
4A5
100
AcDbEntity
  8
IMPORT_IGES
100
AcDbPolyline
 62
253
  6
CONTINUOUS
 90
9
 70
0
 10
10.389135115
 20
-71.3636219636
 10
10.3669948255
 20
-71.3634473716
 10
10.3443810992
 20
-71.3621816605
 10
10.3217928382
 20
-71.360532874
 10
10.2997365432
 20
-71.3586690211
 10
10.2786128845
 20
-71.3559765725
 10
10.2587400861
 20
-71.3518010284
 10
10.2404538183
 20
-71.3461301872
 10
10.2238773925
 20
-71.3386748438
  0
LWPOLYLINE
  5
4A6
100
AcDbEntity
  8
IMPORT_IGES
100
AcDbPolyline
 62
253
  6
CONTINUOUS
 90
13
 70
0
 10
-4.510853774
 20
-71.3636231205
 10
-4.4846953767
 20
-71.3638615587
 10
-4.459021499
 20
-71.3643303467
 10
-4.4342692613
 20
-71.3650291981
 10
-4.4108703152
 20
-71.3659583277
 10
-4.3892018581
 20
-71.3671189299
 10
-4.3695912922
 20
-71.3685118859
 10
-4.3523765468
 20
-71.3701431944
 10
-4.3378499602
 20
-71.3720117272
 10
-4.3262396169
 20
-71.3741081882
 10
-4.317762496
 20
-71.3764364431
 10
-4.3125989837
 20
-71.3790156323
 10
-4.3108642596
 20
-71.3818653336
  0
LINE
  5
4A7
100
AcDbEntity
  8
IMPORT_IGES
100
AcDbLine
 62
253
  6
CONTINUOUS
 10
11.0580396172
 20
-71.1818708179
 11
11.3579939217
 21
-71.1871067675
  0
LINE
  5
4A8
100
AcDbEntity
  8
ASSI
100
AcDbLine
 62
7
  6
CONTINUOUS
 10
12.5891357422
 20
-71.0331199392
 11
12.151422939
 21
-71.0226249552
  0
LINE
  5
4A9
100
AcDbEntity
  8
ASSI
100
AcDbLine
 62
7
  6
CONTINUOUS
 10
-6.2731514546
 20
-70.1989531698
 11
-6.7108642578
 21
-70.1884581858
  0
LWPOLYLINE
  5
4AA
100
AcDbEntity
  8
IMPORT_IGES
100
AcDbPolyline
 62
253
  6
CONTINUOUS
 90
13
 70
0
 10
10.3891357422
 20
-72.0027767698
 10
10.3633254226
 20
-72.0020878049
 10
10.3380335488
 20
-72.00004189
 10
10.3136735398
 20
-71.9966869583
 10
10.2907496792
 20
-71.9921182004
 10
10.26949283
 20
-71.9864086069
 10
10.2499457197
 20
-71.9795498845
 10
10.2324000298
 20
-71.9715642384
 10
10.2173785847
 20
-71.9625974626
 10
10.2052880923
 20
-71.9528231414
 10
10.1964182922
 20
-71.9424165096
 10
10.190977156
 20
-71.9315402057
 10
10.1891357422
 20
-71.920385695
  0
LINE
  5
4AB
100
AcDbEntity
  8
IMPORT_IGES
100
AcDbLine
 62
7
  6
CONTINUOUS
 10
10.0123193512
 20
-71.1831931371
 11
9.9892910382
 21
-71.1818430993
  0
LWPOLYLINE
  5
4AC
100
AcDbEntity
  8
IMPORT_IGES
100
AcDbPolyline
 62
253
  6
CONTINUOUS
 90
10
 70
0
 10
9.9892899431
 20
-70.9818713462
 10
10.0347173606
 20
-70.9849030065
 10
10.0789295755
 20
-70.9929332809
 10
10.1219265879
 20
-71.0059621695
 10
10.1643660058
 20
-71.0242575382
 10
10.2055902211
 20
-71.0475515211
 10
10.2436264094
 20
-71.0750405201
 10
10.2778169625
 20
-71.1064566694
 10
10.3088194886
 20
-71.1420678349
 10
10.3366339876
 20
-71.1818740165
  0
LINE
  5
4AD
100
AcDbEntity
  8
ASSI
100
AcDbLine
 62
7
  6
CONTINUOUS
 10
11.2891357422
 20
-80.2107890625
 11
11.2716820066
 21
-80.1933353269
  0
LWPOLYLINE
  5
4AE
100
AcDbEntity
  8
IMPORT_IGES
100
AcDbPolyline
 62
253
  6
CONTINUOUS
 90
10
 70
0
 10
7.0355946942
 20
-76.9846105909
 10
7.051345669
 20
-77.005460499
 10
7.0654462674
 20
-77.0275201618
 10
7.0778964894
 20
-77.0507895795
 10
7.0888150983
 20
-77.0753128847
 10
7.0980833309
 20
-77.1010459447
 10
7.1053448973
 20
-77.1278563613
 10
7.1104810344
 20
-77.1557000018
 10
7.1136105054
 20
-77.1846209988
 10
7.1147333103
 20
-77.2146193524
  0
LINE
  5
4AF
100
AcDbEntity
  8
IMPORT_IGES
100
AcDbLine
 62
7
  6
CONTINUOUS
 10
8.559052924
 20
-78.8650890516
 11
8.4891357422
 21
-78.7559210256
  0
LWPOLYLINE
  5
4B0
100
AcDbEntity
  8
IMPORT_IGES
100
AcDbPolyline
 62
253
  6
CONTINUOUS
 90
3
 70
0
 10
9.3122791608
 20
-81.8205966947
 10
9.3114224918
 20
-81.8192328855
 10
9.3089161643
 20
-81.815011679
  0
LWPOLYLINE
  5
4B1
100
AcDbEntity
  8
IMPORT_IGES
100
AcDbPolyline
 62
253
  6
CONTINUOUS
 90
4
 70
0
 10
10.0806380187
 20
-81.3585849221
 10
10.0852520756
 20
-81.3661802681
 10
10.0881080115
 20
-81.3707137961
 10
10.0891355239
 20
-81.3720760629
  0
LINE
  5
4B2
100
AcDbEntity
  8
IMPORT_IGES
100
AcDbLine
 62
253
  6
CONTINUOUS
 10
10.0671503145
 20
-81.3359154362
 11
10.0806380187
 21
-81.3585849221
  0
LINE
  5
4B3
100
AcDbEntity
  8
IMPORT_IGES
100
AcDbLine
 62
253
  6
CONTINUOUS
 10
10.0380653713
 20
-81.2863101455
 11
10.0671503145
 21
-81.3359154362
  0
LINE
  5
4B4
100
AcDbEntity
  8
IMPORT_IGES
100
AcDbLine
 62
253
  6
CONTINUOUS
 10
9.3089161643
 20
-81.815011679
 11
9.2839400328
 21
-81.7721696018
  0
LINE
  5
4B5
100
AcDbEntity
  8
IMPORT_IGES
100
AcDbLine
 62
253
  6
CONTINUOUS
 10
9.9891395963
 20
-81.2019805486
 11
10.0380653713
 21
-81.2863101455
  0
LINE
  5
4B6
100
AcDbEntity
  8
IMPORT_IGES
100
AcDbLine
 62
253
  6
CONTINUOUS
 10
9.2839400328
 20
-81.7721696018
 11
9.2122785863
 21
-81.6483375484
  0
LWPOLYLINE
  5
4B7
100
AcDbEntity
  8
IMPORT_IGES
100
AcDbPolyline
 62
253
  6
CONTINUOUS
 90
3
 70
0
 10
6.8275873029
 20
-76.8930471319
 10
6.8451788339
 20
-76.9288987872
 10
6.8933962501
 20
-77.0284548457
  0
LWPOLYLINE
  5
4B8
100
AcDbEntity
  8
IMPORT_IGES
100
AcDbPolyline
 62
253
  6
CONTINUOUS
 90
3
 70
0
 10
6.7712586482
 20
-76.7790093243
 10
6.7904080896
 20
-76.8181602656
 10
6.8275873029
 20
-76.8930471319
  0
LWPOLYLINE
  5
4B9
100
AcDbEntity
  8
IMPORT_IGES
100
AcDbPolyline
 62
253
  6
CONTINUOUS
 90
3
 70
0
 10
6.8933962501
 20
-77.0284548457
 10
6.9076768674
 20
-77.0585819102
 10
6.9207413799
 20
-77.0872180846
  0
LINE
  5
4BA
100
AcDbEntity
  8
0
100
AcDbLine
 62
253
  6
CONTINUOUS
 10
3.8888866914
 20
-82.1225127799
 11
3.8888866914
 21
-82.2225127799
  0
LINE
  5
4BB
100
AcDbEntity
  8
0
100
AcDbLine
 62
253
  6
CONTINUOUS
 10
3.9819826793
 20
-82.1225127799
 11
3.9819826793
 21
-82.2225127799
  0
LINE
  5
4BC
100
AcDbEntity
  8
IMPORT_IGES
100
AcDbLine
 62
7
  6
CONTINUOUS
 10
4.0439892445
 20
-75.4524164541
 11
4.0439892445
 21
-75.2273080504
  0
LINE
  5
4BD
100
AcDbEntity
  8
IMPORT_IGES
100
AcDbLine
 62
7
  6
CONTINUOUS
 10
4.0439892445
 20
-66.5352603169
 11
4.0439892445
 21
-66.3694946283
  0
LINE
  5
4BE
100
AcDbEntity
  8
0
100
AcDbLine
 62
7
  6
CONTINUOUS
 10
4.1075343799
 20
-82.1225127799
 11
4.1075343799
 21
-82.2225127799
  0
LINE
  5
4BF
100
AcDbEntity
  8
IMPORT_IGES
100
AcDbLine
 62
7
  6
CONTINUOUS
 10
4.3439892445
 20
-66.4559526908
 11
4.3439892445
 21
-67.2962933033
  0
LINE
  5
4C0
100
AcDbEntity
  8
IMPORT_IGES
100
AcDbLine
 62
7
  6
CONTINUOUS
 10
4.3439892445
 20
-74.5618274938
 11
4.3439892445
 21
-75.3652126185
  0
LINE
  5
4C1
100
AcDbEntity
  8
0
100
AcDbLine
 62
7
  6
CONTINUOUS
 10
4.5977833938
 20
-82.1225127799
 11
4.5977833938
 21
-82.2225127799
  0
LINE
  5
4C2
100
AcDbEntity
  8
IMPORT_IGES
100
AcDbLine
 62
253
  6
CONTINUOUS
 10
4.6439887572
 20
-67.3010552081
 11
4.6439887572
 21
-66.5652187612
  0
LINE
  5
4C3
100
AcDbEntity
  8
IMPORT_IGES
100
AcDbLine
 62
253
  6
CONTINUOUS
 10
4.6439887597
 20
-74.5546846367
 11
4.6439887597
 21
-75.2547302307
  0
LINE
  5
4C4
100
AcDbEntity
  8
0
100
AcDbLine
 62
253
  6
CONTINUOUS
 10
4.7489578437
 20
-82.1225127799
 11
4.7489578437
 21
-82.2225127799
  0
LINE
  5
4C5
100
AcDbEntity
  8
0
100
AcDbLine
 62
253
  6
CONTINUOUS
 10
4.8377834331
 20
-82.1225127799
 11
4.8377834331
 21
-82.2225127799
  0
LINE
  5
4C6
100
AcDbEntity
  8
0
100
AcDbLine
 62
7
  6
CONTINUOUS
 10
4.9402745914
 20
-82.1225127799
 11
4.9402745914
 21
-82.2225127799
  0
LINE
  5
4C7
100
AcDbEntity
  8
0
100
AcDbLine
 62
7
  6
CONTINUOUS
 10
5.0752211761
 20
-82.1225127799
 11
5.0752211761
 21
-82.2225127799
  0
LINE
  5
4C8
100
AcDbEntity
  8
0
100
AcDbLine
 62
7
  6
CONTINUOUS
 10
5.0965734195
 20
-82.1225127799
 11
5.0965734195
 21
-82.2225127799
  0
LINE
  5
4C9
100
AcDbEntity
  8
0
100
AcDbLine
 62
253
  6
CONTINUOUS
 10
5.2357905444
 20
-82.1225127799
 11
5.2357905444
 21
-82.2225127799
  0
LINE
  5
4CA
100
AcDbEntity
  8
IMPORT_IGES
100
AcDbLine
 62
253
  6
CONTINUOUS
 10
5.5439892445
 20
-74.7595194957
 11
5.5439892445
 21
-74.5546846367
  0
LINE
  5
4CB
100
AcDbEntity
  8
IMPORT_IGES
100
AcDbLine
 62
253
  6
CONTINUOUS
 10
5.5439892445
 20
-67.3010552081
 11
5.5439892445
 21
-67.0564819288
  0
LINE
  5
4CC
100
AcDbEntity
  8
0
100
AcDbLine
 62
253
  6
CONTINUOUS
 10
5.5799898814
 20
-82.1225127799
 11
5.5799898814
 21
-82.2225127799
  0
LINE
  5
4CD
100
AcDbEntity
  8
ASSI
100
AcDbLine
 62
253
  6
CONTINUOUS
 10
11.9341662641
 20
-50.1772182981
 11
12.0895163419
 21
-49.7107890625
  0
LWPOLYLINE
  5
4CE
100
AcDbEntity
  8
IMPORT_IGES
100
AcDbPolyline
 62
253
  6
CONTINUOUS
 90
10
 70
0
 10
-4.510864192
 20
-81.0920536333
 10
-4.5233433621
 20
-81.1065315203
 10
-4.5357791578
 20
-81.1188388547
 10
-4.5480209658
 20
-81.1289199026
 10
-4.5598821846
 20
-81.1367676433
 10
-4.571262933
 20
-81.142329878
 10
-4.582154552
 20
-81.1455205072
 10
-4.5924780564
 20
-81.1463390271
 10
-4.6020814264
 20
-81.1448583777
 10
-4.6108642579
 20
-81.1411382322
  0
LINE
  5
4CF
100
AcDbEntity
  8
ASSI
100
AcDbLine
 62
7
  6
CONTINUOUS
 10
-5.4108642578
 20
-80.2107890625
 11
-5.3934105222
 21
-80.1933353269
  0
LWPOLYLINE
  5
4D0
100
AcDbEntity
  8
IMPORT_IGES
100
AcDbPolyline
 62
253
  6
CONTINUOUS
 90
4
 70
0
 10
-1.1573236447
 20
-76.9846109879
 10
-1.083171936
 20
-76.9253784707
 10
-1.0551405706
 20
-76.903449525
 10
-0.9620240471
 20
-76.8315652398
  0
LINE
  5
4D1
100
AcDbEntity
  8
ASSI
100
AcDbLine
 62
7
  6
CONTINUOUS
 10
-6.7108642578
 20
-77.8884581858
 11
-6.55551418
 21
-77.8107890625
  0
LINE
  5
4D2
100
AcDbEntity
  8
IMPORT_IGES
100
AcDbLine
 62
253
  6
CONTINUOUS
 10
-4.1547753472
 20
-71.1867078985
 11
-4.1769430437
 21
-71.1930079204
  0
LINE
  5
4D3
100
AcDbEntity
  8
IMPORT_IGES
100
AcDbLine
 62
253
  6
CONTINUOUS
 10
-4.1514026457
 20
-71.1859842091
 11
-4.1547753472
 21
-71.1867078985
  0
LINE
  5
4D4
100
AcDbEntity
  8
IMPORT_IGES
100
AcDbLine
 62
253
  6
CONTINUOUS
 10
9.2891357421
 20
-70.3657890625
 11
8.9891357422
 21
-70.3657890625
  0
LINE
  5
4D5
100
AcDbEntity
  8
IMPORT_IGES
100
AcDbLine
 62
253
  6
CONTINUOUS
 10
-3.1108642578
 20
-70.3657890625
 11
-3.4108642578
 21
-70.3657890625
  0
LINE
  5
4D6
100
AcDbEntity
  8
ASSI
100
AcDbLine
 62
7
  6
CONTINUOUS
 10
-5.9912436684
 20
-70.2006758007
 11
-5.4702304506
 21
-70.2006758007
  0
LINE
  5
4D7
100
AcDbEntity
  8
ASSI
100
AcDbLine
 62
7
  6
CONTINUOUS
 10
11.348501935
 20
-70.2006758007
 11
11.8695151528
 21
-70.2006758007
  0
LINE
  5
4D8
100
AcDbEntity
  8
ASSI
100
AcDbLine
 62
7
  6
CONTINUOUS
 10
12.4337856643
 20
-70.1107890625
 11
11.3469329561
 21
-70.1107890625
  0
LINE
  5
4D9
100
AcDbEntity
  8
ASSI
100
AcDbLine
 62
7
  6
CONTINUOUS
 10
-6.55551418
 20
-70.1107890625
 11
-5.4686614717
 21
-70.1107890625
  0
LINE
  5
4DA
100
AcDbEntity
  8
IMPORT_IGES
100
AcDbLine
 62
253
  6
CONTINUOUS
 10
9.2891357422
 20
-68.9657890625
 11
8.6891357422
 21
-68.9657890625
  0
LINE
  5
4DB
100
AcDbEntity
  8
IMPORT_IGES
100
AcDbLine
 62
253
  6
CONTINUOUS
 10
-2.8108642578
 20
-68.9657890625
 11
-3.4108642578
 21
-68.9657890625
  0
LINE
  5
4DC
100
AcDbEntity
  8
IMPORT_IGES
100
AcDbLine
 62
7
  6
CONTINUOUS
 10
-1.1569388659
 20
-68.8257890625
 11
-1.5608642578
 21
-68.8257890625
  0
LINE
  5
4DD
100
AcDbEntity
  8
IMPORT_IGES
100
AcDbLine
 62
7
  6
CONTINUOUS
 10
7.0352103502
 20
-68.8257890625
 11
7.4391357422
 21
-68.8257890625
  0
LINE
  5
4DE
100
AcDbEntity
  8
IMPORT_IGES
100
AcDbLine
 62
7
  6
CONTINUOUS
 10
10.0296346947
 20
-71.1859747898
 11
10.0123193512
 21
-71.1831931371
  0
LWPOLYLINE
  5
4DF
100
AcDbEntity
  8
IMPORT_IGES
100
AcDbPolyline
 62
253
  6
CONTINUOUS
 90
3
 70
0
 10
10.0583103076
 20
-71.1941084613
 10
10.0354349248
 20
-71.1872558817
 10
10.0296346947
 20
-71.1859747898
  0
LINE
  5
4E0
100
AcDbEntity
  8
IMPORT_IGES
100
AcDbLine
 62
253
  6
CONTINUOUS
 10
10.0809625395
 20
-71.2039920378
 11
10.0583103076
 21
-71.1941084613
  0
LINE
  5
4E1
100
AcDbEntity
  8
ASSI
100
AcDbLine
 62
253
  6
CONTINUOUS
 10
-4.5608642578
 20
-60.210770024
 11
-4.4709775196
 21
-60.3006567623
  0
LINE
  5
4E2
100
AcDbEntity
  8
IMPORT_IGES
100
AcDbLine
 62
7
  6
CONTINUOUS
 10
-1.290492941
 20
-64.1477116708
 11
-1.4657177601
 21
-63.9709347206
  0
LWPOLYLINE
  5
4E3
100
AcDbEntity
  8
IMPORT_IGES
100
AcDbPolyline
 62
253
  6
CONTINUOUS
 90
13
 70
0
 10
-3.9376639171
 20
-60.188159069
 10
-3.9576174848
 20
-60.1661539686
 10
-3.9792666379
 20
-60.1442084266
 10
-4.0018542725
 20
-60.1231756782
 10
-4.0241945454
 20
-60.1041299635
 10
-4.0457626399
 20
-60.0874127833
 10
-4.0667732964
 20
-60.0728328249
 10
-4.0865217414
 20
-60.0609123866
 10
-4.1043377904
 20
-60.0520275516
 10
-4.1203091743
 20
-60.0461532311
 10
-4.1339300681
 20
-60.0435940223
 10
-4.1444977334
 20
-60.0445006796
 10
-4.1517924894
 20
-60.0486571851
  0
LINE
  5
4E4
100
AcDbEntity
  8
IMPORT_IGES
100
AcDbLine
 62
253
  6
CONTINUOUS
 10
0.014383871
 20
-64.3097543655
 11
0.1247518662
 21
-64.4765443701
  0
LWPOLYLINE
  5
4E5
100
AcDbEntity
  8
IMPORT_IGES
100
AcDbPolyline
 62
253
  6
CONTINUOUS
 90
10
 70
0
 10
6.9207413799
 20
-77.0872180846
 10
6.9300128149
 20
-77.1096196672
 10
6.938249376
 20
-77.132877694
 10
6.945413821
 20
-77.1569936094
 10
6.9514480619
 20
-77.1820019518
 10
6.9563683693
 20
-77.2078716282
 10
6.9602126821
 20
-77.2345048496
 10
6.9629355266
 20
-77.2618693532
 10
6.9644613781
 20
-77.2899994566
 10
6.9647439751
 20
-77.3188966155
  0
LINE
  5
4E6
100
AcDbEntity
  8
ASSI
100
AcDbLine
 62
253
  6
CONTINUOUS
 10
12.0895163419
 20
-91.5107890625
 11
12.0266781082
 21
-91.3221210571
  0
LINE
  5
4E7
100
AcDbEntity
  8
IMPORT_IGES
100
AcDbLine
 62
253
  6
CONTINUOUS
 10
6.770089579
 20
-63.0384431337
 11
6.7766566991
 21
-63.1678971808
  0
LINE
  5
4E8
100
AcDbEntity
  8
IMPORT_IGES
100
AcDbLine
 62
253
  6
CONTINUOUS
 10
6.7644623417
 20
-62.9178587803
 11
6.770089579
 21
-63.0384431337
  0
LINE
  5
4E9
100
AcDbEntity
  8
IMPORT_IGES
100
AcDbLine
 62
253
  6
CONTINUOUS
 10
6.7601580392
 20
-62.8143424561
 11
6.7644623417
 21
-62.9178587803
  0
LWPOLYLINE
  5
4EA
100
AcDbEntity
  8
IMPORT_IGES
100
AcDbPolyline
 62
253
  6
CONTINUOUS
 90
9
 70
0
 10
6.7393947359
 20
-62.252902733
 10
6.7401724576
 20
-62.3231093197
 10
6.7414695926
 20
-62.3933101634
 10
6.7432862053
 20
-62.4635071967
 10
6.7456222314
 20
-62.5336984871
 10
6.7484774778
 20
-62.6038782371
 10
6.7518518804
 20
-62.6740445142
 10
6.7557455034
 20
-62.744199251
 10
6.7601583469
 20
-62.8143424473
  0
LINE
  5
4EB
100
AcDbEntity
  8
0
100
AcDbLine
 62
253
  6
CONTINUOUS
 10
5.7456838084
 20
-82.1225127799
 11
5.7456838084
 21
-82.2225127799
  0
LINE
  5
4EC
100
AcDbEntity
  8
0
100
AcDbLine
 62
7
  6
CONTINUOUS
 10
5.8071784925
 20
-82.1225127799
 11
5.8071784925
 21
-82.2225127799
  0
LINE
  5
4ED
100
AcDbEntity
  8
IMPORT_IGES
100
AcDbLine
 62
7
  6
CONTINUOUS
 10
5.8439892445
 20
-67.2880006589
 11
5.8439892445
 21
-67.2962933033
  0
LINE
  5
4EE
100
AcDbEntity
  8
0
100
AcDbLine
 62
7
  6
CONTINUOUS
 10
5.9028368663
 20
-82.1225127799
 11
5.9028368663
 21
-82.2225127799
  0
LINE
  5
4EF
100
AcDbEntity
  8
ASSI
100
AcDbLine
 62
7
  6
CONTINUOUS
 10
5.9391357422
 20
-48.2195159303
 11
5.9391357422
 21
-49.6107890625
  0
LINE
  5
4F0
100
AcDbEntity
  8
ASSI
100
AcDbLine
 62
7
  6
CONTINUOUS
 10
5.9391357422
 20
-91.6107890625
 11
5.9391357422
 21
-93.0020621947
  0
LINE
  5
4F1
100
AcDbEntity
  8
0
100
AcDbLine
 62
253
  6
CONTINUOUS
 10
6.1223386137
 20
-82.1225127799
 11
6.1223386137
 21
-82.2225127799
  0
LINE
  5
4F2
100
AcDbEntity
  8
RACCORDO
100
AcDbLine
 62
7
  6
CONTINUOUS
 10
6.3391357422
 20
-84.8107890625
 11
6.3391357422
 21
-86.2107890625
  0
LINE
  5
4F3
100
AcDbEntity
  8
ASSI
100
AcDbLine
 62
7
  6
CONTINUOUS
 10
6.4391357422
 20
-46.8544397094
 11
6.4391357422
 21
-46.8166068923
  0
LINE
  5
4F4
100
AcDbEntity
  8
ASSI
100
AcDbLine
 62
7
  6
CONTINUOUS
 10
6.4391357422
 20
-48.2768691673
 11
6.4391357422
 21
-46.8596467722
  0
LINE
  5
4F5
100
AcDbEntity
  8
ASSI
100
AcDbLine
 62
7
  6
CONTINUOUS
 10
6.4391357422
 20
-84.5107890625
 11
6.4391357422
 21
-86.8107890625
  0
LINE
  5
4F6
100
AcDbEntity
  8
ASSI
100
AcDbLine
 62
7
  6
CONTINUOUS
 10
6.4391357422
 20
-92.9447089577
 11
6.4391357422
 21
-94.3619313528
  0
LINE
  5
4F7
100
AcDbEntity
  8
ASSI
100
AcDbLine
 62
7
  6
CONTINUOUS
 10
6.4391357422
 20
-94.3671384156
 11
6.4391357422
 21
-94.4049712327
  0
LINE
  5
4F8
100
AcDbEntity
  8
0
100
AcDbLine
 62
253
  6
CONTINUOUS
 10
6.6125877183
 20
-82.1225127799
 11
6.6125877183
 21
-82.2225127799
  0
LINE
  5
4F9
100
AcDbEntity
  8
0
100
AcDbLine
 62
7
  6
CONTINUOUS
 10
6.640772773
 20
-82.1225127799
 11
6.640772773
 21
-82.2225127799
  0
LINE
  5
4FA
100
AcDbEntity
  8
0
100
AcDbLine
 62
7
  6
CONTINUOUS
 10
6.6732282933
 20
-82.1225127799
 11
6.6732282933
 21
-82.2225127799
  0
LINE
  5
4FB
100
AcDbEntity
  8
IMPORT_IGES
100
AcDbLine
 62
253
  6
CONTINUOUS
 10
6.7391357422
 20
-59.9607890625
 11
6.7393947359
 21
-62.252902733
  0
LINE
  5
4FC
100
AcDbEntity
  8
IMPORT_IGES
100
AcDbLine
 62
7
  6
CONTINUOUS
 10
6.9391357422
 20
-62.3241118889
 11
6.9391357422
 21
-60.1607890625
  0
LINE
  5
4FD
100
AcDbEntity
  8
IMPORT_IGES
100
AcDbLine
 62
253
  6
CONTINUOUS
 10
7.0268870791
 20
-67.797583782
 11
7.0268870791
 21
-67.597583782
  0
LINE
  5
4FE
100
AcDbEntity
  8
IMPORT_IGES
100
AcDbLine
 62
7
  6
CONTINUOUS
 10
7.0439892445
 20
-63.3431131501
 11
7.0439892445
 21
-63.274931332
  0
LINE
  5
4FF
100
AcDbEntity
  8
IMPORT_IGES
100
AcDbLine
 62
7
  6
CONTINUOUS
 10
7.0439892445
 20
-62.7224837795
 11
7.0439892445
 21
-63.2623439194
  0
LINE
  5
500
100
AcDbEntity
  8
IMPORT_IGES
100
AcDbLine
 62
253
  6
CONTINUOUS
 10
7.1125950214
 20
-81.8607890625
 11
7.1125779261
 21
-81.6616712359
  0
LINE
  5
501
100
AcDbEntity
  8
ASSI
100
AcDbLine
 62
253
  6
CONTINUOUS
 10
7.1391357422
 20
-87.9107890625
 11
7.1391357422
 21
-90.6107890625
  0
LINE
  5
502
100
AcDbEntity
  8
IMPORT_IGES
100
AcDbLine
 62
253
  6
CONTINUOUS
 10
7.1391357422
 20
-62.335907855
 11
7.1391356874
 21
-59.9607890625
  0
LINE
  5
503
100
AcDbEntity
  8
IMPORT_IGES
100
AcDbLine
 62
253
  6
CONTINUOUS
 10
7.1486212243
 20
-79.2916423432
 11
7.1486212243
 21
-79.2513694454
  0
LINE
  5
504
100
AcDbEntity
  8
ASSI
100
AcDbLine
 62
7
  6
CONTINUOUS
 10
7.2950684749
 20
-48.2768908956
 11
7.2950684749
 21
-46.8600156378
  0
LINE
  5
505
100
AcDbEntity
  8
ASSI
100
AcDbLine
 62
7
  6
CONTINUOUS
 10
7.2950684749
 20
-92.9446872294
 11
7.2950684749
 21
-94.3615624872
  0
LINE
  5
506
100
AcDbEntity
  8
ASSI
100
AcDbLine
 62
7
  6
CONTINUOUS
 10
7.3391357422
 20
-94.4107890625
 11
7.3391357422
 21
-93.0107890625
  0
LINE
  5
507
100
AcDbEntity
  8
ASSI
100
AcDbLine
 62
7
  6
CONTINUOUS
 10
7.3391357422
 20
-48.2107890625
 11
7.3391357422
 21
-46.8107890625
  0
LINE
  5
508
100
AcDbEntity
  8
IMPORT_IGES
100
AcDbLine
 62
7
  6
CONTINUOUS
 10
7.4391357422
 20
-66.3502073574
 11
7.4391357422
 21
-64.5661895865
  0
LINE
  5
509
100
AcDbEntity
  8
ASSI
100
AcDbLine
 62
7
  6
CONTINUOUS
 10
7.4391357422
 20
-59.7107890625
 11
7.4391357422
 21
-56.4714539775
  0
LINE
  5
50A
100
AcDbEntity
  8
IMPORT_IGES
100
AcDbLine
 62
7
  6
CONTINUOUS
 10
7.4391357422
 20
-67.6335223572
 11
7.4391357422
 21
-71.3657890625
  0
LINE
  5
50B
100
AcDbEntity
  8
ASSI
100
AcDbLine
 62
7
  6
CONTINUOUS
 10
7.4391357422
 20
-88.2107890625
 11
7.4391357422
 21
-90.6081710022
  0
LWPOLYLINE
  5
50C
100
AcDbEntity
  8
IMPORT_IGES
100
AcDbPolyline
 62
253
  6
CONTINUOUS
 90
6
 70
0
 10
6.7391357422
 20
-67.797583782
 10
6.7389389733
 20
-68.0954381437
 10
6.7390516244
 20
-68.1441707666
 10
6.7394887795
 20
-68.1944923295
 10
6.7401646964
 20
-68.2458161429
 10
6.7410793752
 20
-68.2975824996
  0
LINE
  5
50D
100
AcDbEntity
  8
IMPORT_IGES
100
AcDbLine
 62
253
  6
CONTINUOUS
 10
7.0902793143
 20
-79.254601997
 11
7.0917685511
 21
-79.0922906592
  0
LINE
  5
50E
100
AcDbEntity
  8
IMPORT_IGES
100
AcDbLine
 62
7
  6
CONTINUOUS
 10
6.7520652626
 20
-78.5332022932
 11
6.759529023
 21
-77.7562910855
  0
LINE
  5
50F
100
AcDbEntity
  8
IMPORT_IGES
100
AcDbLine
 62
7
  6
CONTINUOUS
 10
6.7169401099
 20
-81.4580600731
 11
6.7125885984
 21
-81.860789062
  0
LINE
  5
510
100
AcDbEntity
  8
IMPORT_IGES
100
AcDbLine
 62
253
  6
CONTINUOUS
 10
6.7712652892
 20
-76.779009404
 11
6.7595290232
 21
-77.7562910853
  0
LINE
  5
511
100
AcDbEntity
  8
IMPORT_IGES
100
AcDbLine
 62
253
  6
CONTINUOUS
 10
6.7520650233
 20
-78.5332022924
 11
6.7169401357
 21
-81.4580600732
  0
LINE
  5
512
100
AcDbEntity
  8
IMPORT_IGES
100
AcDbLine
 62
7
  6
CONTINUOUS
 10
6.9647439738
 20
-77.3188967597
 11
6.9125594454
 21
-81.6643149624
  0
LINE
  5
513
100
AcDbEntity
  8
IMPORT_IGES
100
AcDbLine
 62
253
  6
CONTINUOUS
 10
7.0934489382
 20
-78.9938833173
 11
7.1147333103
 21
-77.2146193524
  0
LINE
  5
514
100
AcDbEntity
  8
IMPORT_IGES
100
AcDbLine
 62
253
  6
CONTINUOUS
 10
7.0917685511
 20
-79.0922914193
 11
7.0934489382
 21
-78.9938833483
  0
LWPOLYLINE
  5
515
100
AcDbEntity
  8
IMPORT_IGES
100
AcDbPolyline
 62
7
  6
CONTINUOUS
 90
10
 70
0
 10
7.1125779261
 20
-81.6616712359
 10
7.1185776879
 20
-81.4088715888
 10
7.1230906174
 20
-81.1560355101
 10
7.1261167145
 20
-80.9031725116
 10
7.1266637977
 20
-80.6502925467
 10
7.1257240485
 20
-80.3974047175
 10
7.1262740115
 20
-80.1445172754
 10
7.1293058682
 20
-79.891639344
 10
7.1338274371
 20
-79.6387809182
 10
7.1398387182
 20
-79.3859515715
  0
LWPOLYLINE
  5
516
100
AcDbEntity
  8
IMPORT_IGES
100
AcDbPolyline
 62
7
  6
CONTINUOUS
 90
17
 70
0
 10
6.9393586947
 20
-79.4471438732
 10
6.939416183
 20
-79.4448982183
 10
6.9395522442
 20
-79.4419813522
 10
6.9397979738
 20
-79.4385244936
 10
6.9402045372
 20
-79.4344148343
 10
6.9408868832
 20
-79.4292534773
 10
6.9420109852
 20
-79.4227778896
 10
6.9436835308
 20
-79.4152999775
 10
6.9459312033
 20
-79.4072938085
 10
6.9488460189
 20
-79.398824991
 10
6.9525268538
 20
-79.3899579878
 10
6.9568698784
 20
-79.381154017
 10
6.961794718
 20
-79.3726292958
 10
6.9673701343
 20
-79.3643045215
 10
6.9736431508
 20
-79.3561843243
 10
6.9805998783
 20
-79.3483618147
 10
6.9882171165
 20
-79.3409236354
  0
LINE
  5
517
100
AcDbEntity
  8
IMPORT_IGES
100
AcDbLine
 62
253
  6
CONTINUOUS
 10
7.1398387182
 20
-79.3859515715
 11
7.1430446276
 21
-79.2914531542
  0
LWPOLYLINE
  5
518
100
AcDbEntity
  8
ASSI
100
AcDbPolyline
 62
7
  6
CONTINUOUS
 90
9
 70
0
 10
11.1936533745
 20
-46.313472775
 10
11.1961825605
 20
-46.3018460237
 10
11.1992621005
 20
-46.2903527835
 10
11.2028850208
 20
-46.2790190887
 10
11.2070431164
 20
-46.2678706132
 10
11.21172697
 20
-46.2569326162
 10
11.2169259734
 20
-46.2462298749
 10
11.2226283506
 20
-46.2357866342
 10
11.2288211841
 20
-46.2256265566
  0
LINE
  5
519
100
AcDbEntity
  8
ASSI
100
AcDbLine
 62
253
  6
CONTINUOUS
 10
12.4337856643
 20
-50.6774471502
 11
12.5891357422
 21
-50.2110179146
  0
LWPOLYLINE
  5
51A
100
AcDbEntity
  8
IMPORT_IGES
100
AcDbPolyline
 62
253
  6
CONTINUOUS
 90
10
 70
0
 10
10.1421357425
 20
-60.5142823768
 10
10.1619984972
 20
-60.4603899884
 10
10.1817589168
 20
-60.4145493539
 10
10.2007611561
 20
-60.3766036998
 10
10.218077528
 20
-60.34622509
 10
10.2337171751
 20
-60.3230603824
 10
10.2484187234
 20
-60.3071429389
 10
10.2620653014
 20
-60.2985388479
 10
10.2738914249
 20
-60.2969562265
 10
10.2835570987
 20
-60.3021503423
  0
LINE
  5
51B
100
AcDbEntity
  8
ASSI
100
AcDbLine
 62
7
  6
CONTINUOUS
 10
-4.5608642578
 20
-83.1107890625
 11
-4.4709775196
 21
-83.0209023243
  0
LINE
  5
51C
100
AcDbEntity
  8
ASSI
100
AcDbLine
 62
253
  6
CONTINUOUS
 10
-4.4709775196
 20
-83.9209213627
 11
-4.5608642578
 21
-84.010808101
  0
LWPOLYLINE
  5
51D
100
AcDbEntity
  8
IMPORT_IGES
100
AcDbPolyline
 62
253
  6
CONTINUOUS
 90
3
 70
0
 10
-0.9620240471
 20
-76.8315652398
 10
-0.9282136174
 20
-76.8056194215
 10
-0.8929938048
 20
-76.779009404
  0
LWPOLYLINE
  5
51E
100
AcDbEntity
  8
IMPORT_IGES
100
AcDbPolyline
 62
253
  6
CONTINUOUS
 90
5
 70
0
 10
8.9891357422
 20
-71.0037289765
 10
8.9956834627
 20
-71.0013984604
 10
9.0124922399
 20
-70.9950917768
 10
9.02900069
 20
-70.9885810802
 10
9.0452088131
 20
-70.9818723666
  0
LINE
  5
51F
100
AcDbEntity
  8
IMPORT_IGES
100
AcDbLine
 62
253
  6
CONTINUOUS
 10
7.6216563795
 20
-67.1185301333
 11
7.423399946
 21
-67.1448813495
  0
LINE
  5
520
100
AcDbEntity
  8
IMPORT_IGES
100
AcDbLine
 62
253
  6
CONTINUOUS
 10
-1.5634541327
 20
-67.6656845572
 11
-1.5608642578
 21
-67.6656266921
  0
LINE
  5
521
100
AcDbEntity
  8
IMPORT_IGES
100
AcDbLine
 62
253
  6
CONTINUOUS
 10
-1.5838234277
 20
-67.665776357
 11
-1.5634541327
 21
-67.6656845572
  0
LINE
  5
522
100
AcDbEntity
  8
IMPORT_IGES
100
AcDbLine
 62
253
  6
CONTINUOUS
 10
7.9891357422
 20
-68.2657890625
 11
7.4391357422
 21
-68.2657890625
  0
LINE
  5
523
100
AcDbEntity
  8
IMPORT_IGES
100
AcDbLine
 62
253
  6
CONTINUOUS
 10
-1.5608642578
 20
-68.2657890625
 11
-2.1108642578
 21
-68.2657890625
  0
LINE
  5
524
100
AcDbEntity
  8
IMPORT_IGES
100
AcDbLine
 62
7
  6
CONTINUOUS
 10
7.9891357421
 20
-67.9657890625
 11
7.7391357422
 21
-67.9657890625
  0
LINE
  5
525
100
AcDbEntity
  8
IMPORT_IGES
100
AcDbLine
 62
7
  6
CONTINUOUS
 10
-1.8608642577
 20
-67.9657890625
 11
-2.1108642578
 21
-67.9657890625
  0
LINE
  5
526
100
AcDbEntity
  8
IMPORT_IGES
100
AcDbLine
 62
7
  6
CONTINUOUS
 10
7.0268870789
 20
-67.797583782
 11
6.365807444
 21
-67.797583782
  0
LINE
  5
527
100
AcDbEntity
  8
IMPORT_IGES
100
AcDbLine
 62
7
  6
CONTINUOUS
 10
-0.4875359596
 20
-67.797583782
 11
-1.1486155942
 21
-67.797583782
  0
LINE
  5
528
100
AcDbEntity
  8
IMPORT_IGES
100
AcDbLine
 62
253
  6
CONTINUOUS
 10
7.4391357422
 20
-67.6657891155
 11
7.9891357422
 21
-67.6657890625
  0
LINE
  5
529
100
AcDbEntity
  8
IMPORT_IGES
100
AcDbLine
 62
253
  6
CONTINUOUS
 10
-1.1486155948
 20
-67.597583782
 11
-0.3038437426
 21
-67.597583782
  0
LINE
  5
52A
100
AcDbEntity
  8
IMPORT_IGES
100
AcDbLine
 62
253
  6
CONTINUOUS
 10
6.182115227
 20
-67.597583782
 11
7.0268870791
 21
-67.597583782
  0
LINE
  5
52B
100
AcDbEntity
  8
IMPORT_IGES
100
AcDbLine
 62
7
  6
CONTINUOUS
 10
-0.0068280581
 20
-67.3224837795
 11
2.0391357422
 21
-67.3224837795
  0
LINE
  5
52C
100
AcDbEntity
  8
IMPORT_IGES
100
AcDbLine
 62
7
  6
CONTINUOUS
 10
3.8391357422
 20
-67.3224837795
 11
5.8850989978
 21
-67.3224837795
  0
LINE
  5
52D
100
AcDbEntity
  8
IMPORT_IGES
100
AcDbLine
 62
7
  6
CONTINUOUS
 10
0.3342822399
 20
-67.3010552081
 11
1.2342822399
 21
-67.3010552081
  0
LINE
  5
52E
100
AcDbEntity
  8
IMPORT_IGES
100
AcDbLine
 62
7
  6
CONTINUOUS
 10
4.6439892445
 20
-67.3010552081
 11
5.5439892445
 21
-67.3010552081
  0
LINE
  5
52F
100
AcDbEntity
  8
IMPORT_IGES
100
AcDbLine
 62
7
  6
CONTINUOUS
 10
1.5342822399
 20
-67.2347637503
 11
2.2511197369
 21
-67.2347637503
  0
LINE
  5
530
100
AcDbEntity
  8
IMPORT_IGES
100
AcDbLine
 62
7
  6
CONTINUOUS
 10
3.6271517475
 20
-67.2347637503
 11
4.3439892445
 21
-67.2347637503
  0
LINE
  5
531
100
AcDbEntity
  8
IMPORT_IGES
100
AcDbLine
 62
253
  6
CONTINUOUS
 10
-2.1108642578
 20
-67.6657890625
 11
-1.5838234277
 21
-67.665776357
  0
LINE
  5
532
100
AcDbEntity
  8
IMPORT_IGES
100
AcDbLine
 62
253
  6
CONTINUOUS
 10
-1.7433848951
 20
-67.1185301332
 11
-1.5451284617
 21
-67.1448813495
  0
LINE
  5
533
100
AcDbEntity
  8
ASSI
100
AcDbLine
 62
7
  6
CONTINUOUS
 10
-6.55551418
 20
-62.7107890625
 11
-6.7108642578
 21
-62.6331199392
  0
LINE
  5
534
100
AcDbEntity
  8
IMPORT_IGES
100
AcDbLine
 62
253
  6
CONTINUOUS
 10
10.1026027176
 20
-71.2167976155
 11
10.0809625395
 21
-71.2039920378
  0
LWPOLYLINE
  5
535
100
AcDbEntity
  8
IMPORT_IGES
100
AcDbPolyline
 62
253
  6
CONTINUOUS
 90
4
 70
0
 10
10.2238773925
 20
-71.3386748438
 10
10.2086980212
 20
-71.3283153918
 10
10.1944275311
 20
-71.3148661314
 10
10.1806332844
 20
-71.2991944068
  0
LINE
  5
536
100
AcDbEntity
  8
IMPORT_IGES
100
AcDbLine
 62
253
  6
CONTINUOUS
 10
10.1219442109
 20
-71.2315774311
 11
10.1026027176
 21
-71.2167976155
  0
LINE
  5
537
100
AcDbEntity
  8
IMPORT_IGES
100
AcDbLine
 62
253
  6
CONTINUOUS
 10
8.9891357422
 20
-70.9292259011
 11
9.0452088131
 21
-70.9818723666
  0
LINE
  5
538
100
AcDbEntity
  8
ASSI
100
AcDbLine
 62
253
  6
CONTINUOUS
 10
-4.0608832963
 20
-59.7107890625
 11
-3.970996558
 21
-59.8006758007
  0
LINE
  5
539
100
AcDbEntity
  8
ASSI
100
AcDbLine
 62
7
  6
CONTINUOUS
 10
-2.5608642578
 20
-59.7107890625
 11
-2.5108642578
 21
-59.7607890625
  0
LINE
  5
53A
100
AcDbEntity
  8
IMPORT_IGES
100
AcDbLine
 62
253
  6
CONTINUOUS
 10
8.0364411733
 20
-71.9656468083
 11
8.049144008
 21
-72.0027748168
  0
LINE
  5
53B
100
AcDbEntity
  8
ASSI
100
AcDbLine
 62
253
  6
CONTINUOUS
 10
12.5891357422
 20
-91.0105602104
 11
12.5262975084
 21
-90.821892205
  0
LINE
  5
53C
100
AcDbEntity
  8
ASSI
100
AcDbLine
 62
7
  6
CONTINUOUS
 10
12.4337856643
 20
-85.3107890625
 11
12.4604250255
 21
-85.390772137
  0
LINE
  5
53D
100
AcDbEntity
  8
IMPORT_IGES
100
AcDbLine
 62
253
  6
CONTINUOUS
 10
5.5765378544
 20
-64.1327502024
 11
5.5404187359
 21
-64.0194090013
  0
LINE
  5
53E
100
AcDbEntity
  8
IMPORT_IGES
100
AcDbLine
 62
253
  6
CONTINUOUS
 10
5.5404187359
 20
-64.0194090013
 11
5.439183061
 21
-63.6894712747
  0
LWPOLYLINE
  5
53F
100
AcDbEntity
  8
IMPORT_IGES
100
AcDbPolyline
 62
7
  6
CONTINUOUS
 90
11
 70
0
 10
7.6845953777
 20
-72.0027748168
 10
7.6823930952
 20
-71.9818981402
 10
7.6800101388
 20
-71.9615886036
 10
7.6774465087
 20
-71.9418583579
 10
7.6746721301
 20
-71.9227477929
 10
7.6717170778
 20
-71.9042387331
 10
7.6686715754
 20
-71.886253326
 10
7.6655470906
 20
-71.8687950134
 10
7.6623321557
 20
-71.8518763758
 10
7.6590825919
 20
-71.8354307123
 10
7.657556761
 20
-71.827995084
  0
LWPOLYLINE
  5
540
100
AcDbEntity
  8
IMPORT_IGES
100
AcDbPolyline
 62
253
  6
CONTINUOUS
 90
13
 70
0
 10
6.9391357422
 20
-60.2486570281
 10
6.9374247145
 20
-60.230197837
 10
6.9323209074
 20
-60.2120544878
 10
6.9239116487
 20
-60.1945374181
 10
6.9123408229
 20
-60.17794635
 10
6.8978064102
 20
-60.1625651612
 10
6.8805570984
 20
-60.1486570281
 10
6.860888028
 20
-60.1364599228
 10
6.8391357422
 20
-60.126182541
 10
6.8156724287
 20
-60.1180007317
 10
6.7908995512
 20
-60.1120544877
 10
6.7652409806
 20
-60.1084455511
 10
6.7391357422
 20
-60.1072356718
  0
LINE
  5
541
100
AcDbEntity
  8
IMPORT_IGES
100
AcDbLine
 62
253
  6
CONTINUOUS
 10
10.190977099
 20
-80.9539511729
 11
10.1891357421
 21
-80.9323267273
  0
LINE
  5
542
100
AcDbEntity
  8
ASSI
100
AcDbLine
 62
253
  6
CONTINUOUS
 10
9.4973140403
 20
-90.6383403847
 11
9.3989927165
 21
-87.7581533271
  0
LWPOLYLINE
  5
543
100
AcDbEntity
  8
ASSI
100
AcDbPolyline
 62
253
  6
CONTINUOUS
 90
31
 70
0
 10
9.4514456775
 20
-84.0984334357
 10
9.4510387649
 20
-84.0827179474
 10
9.4498095837
 20
-84.0670473327
 10
9.4477617201
 20
-84.0514645404
 10
9.4449009903
 20
-84.0360120957
 10
9.4412354449
 20
-84.0207324899
 10
9.4367754225
 20
-84.0056680464
 10
9.4315333774
 20
-83.9908598811
 10
9.4255239719
 20
-83.9763485706
 10
9.4187642329
 20
-83.9621744843
 10
9.4112731733
 20
-83.9483765299
 10
9.403071541
 20
-83.9349920313
 10
9.3941820363
 20
-83.9220573632
 10
9.3846299095
 20
-83.9096084826
 10
9.3744410553
 20
-83.8976783877
 10
9.3636414486
 20
-83.8862973117
 10
9.3522602173
 20
-83.8754961758
 10
9.3403287111
 20
-83.8653049282
 10
9.3278780834
 20
-83.8557505006
 10
9.314941546
 20
-83.846858961
 10
9.3015548627
 20
-83.838655435
 10
9.2877548989
 20
-83.8311629045
 10
9.2735791763
 20
-83.8244021426
 10
9.2590664988
 20
-83.8183920318
 10
9.2442573153
 20
-83.813149563
 10
9.2291923604
 20
-83.8086893719
 10
9.2139126508
 20
-83.8050238019
 10
9.1984601825
 20
-83.8021630715
 10
9.182877334
 20
-83.8001152064
 10
9.1672067464
 20
-83.7988860339
 10
9.151491369
 20
-83.7984791272
  0
LINE
  5
544
100
AcDbEntity
  8
ASSI
100
AcDbLine
 62
7
  6
CONTINUOUS
 10
7.5180037091
 20
-59.7607890625
 11
7.4391357422
 21
-56.4714539775
  0
LWPOLYLINE
  5
545
100
AcDbEntity
  8
IMPORT_IGES
100
AcDbPolyline
 62
7
  6
CONTINUOUS
 90
10
 70
0
 10
7.6891357422
 20
-72.101258668
 10
7.6890828474
 20
-72.0903017831
 10
7.6889170215
 20
-72.0793477604
 10
7.6886382644
 20
-72.0683965998
 10
7.6882465314
 20
-72.0574473292
 10
7.6877418672
 20
-72.0465009208
 10
7.6871244063
 20
-72.0355602909
 10
7.6863941934
 20
-72.0246264116
 10
7.6855511839
 20
-72.0136983108
 10
7.6845953777
 20
-72.0027759886
  0
LINE
  5
546
100
AcDbEntity
  8
IMPORT_IGES
100
AcDbLine
 62
7
  6
CONTINUOUS
 10
7.4891357422
 20
-71.6040961891
 11
7.4891357422
 21
-71.846879028
  0
LINE
  5
547
100
AcDbEntity
  8
IMPORT_IGES
100
AcDbLine
 62
253
  6
CONTINUOUS
 10
7.4891357422
 20
-71.846879028
 11
7.4891357422
 21
-78.993883084
  0
LINE
  5
548
100
AcDbEntity
  8
IMPORT_IGES
100
AcDbLine
 62
7
  6
CONTINUOUS
 10
7.6891357422
 20
-78.5937488662
 11
7.6891357422
 21
-72.101258668
  0
LINE
  5
549
100
AcDbEntity
  8
IMPORT_IGES
100
AcDbLine
 62
253
  6
CONTINUOUS
 10
7.7391385261
 20
-64.5664270141
 11
7.7391357422
 21
-71.3657890625
  0
LINE
  5
54A
100
AcDbEntity
  8
IMPORT_IGES
100
AcDbLine
 62
253
  6
CONTINUOUS
 10
7.9891357422
 20
-67.6657890625
 11
7.9891357422
 21
-68.2657890625
  0
LINE
  5
54B
100
AcDbEntity
  8
IMPORT_IGES
100
AcDbLine
 62
253
  6
CONTINUOUS
 10
8.0391357422
 20
-71.9657890625
 11
8.0391357422
 21
-71.6657890625
  0
LINE
  5
54C
100
AcDbEntity
  8
IMPORT_IGES
100
AcDbLine
 62
253
  6
CONTINUOUS
 10
8.3891357422
 20
-71.9657890625
 11
8.3891357422
 21
-71.6657890625
  0
LINE
  5
54D
100
AcDbEntity
  8
ASSI
100
AcDbLine
 62
7
  6
CONTINUOUS
 10
8.4391357422
 20
-59.7107890625
 11
8.4391357422
 21
-56.4714539775
  0
LINE
  5
54E
100
AcDbEntity
  8
IMPORT_IGES
100
AcDbLine
 62
253
  6
CONTINUOUS
 10
8.4891357423
 20
-71.9565988774
 11
8.4891357422
 21
-78.7559210256
  0
LINE
  5
54F
100
AcDbEntity
  8
IMPORT_IGES
100
AcDbLine
 62
253
  6
CONTINUOUS
 10
8.5891359188
 20
-81.8607890625
 11
8.5891358829
 21
-82.0607890625
  0
LINE
  5
550
100
AcDbEntity
  8
IMPORT_IGES
100
AcDbLine
 62
253
  6
CONTINUOUS
 10
8.6891357422
 20
-68.9657890625
 11
8.6891357422
 21
-71.3657890625
  0
LINE
  5
551
100
AcDbEntity
  8
IMPORT_IGES
100
AcDbLine
 62
7
  6
CONTINUOUS
 10
8.9891357422
 20
-68.9657890625
 11
8.9891357422
 21
-71.3657890626
  0
LINE
  5
552
100
AcDbEntity
  8
IMPORT_IGES
100
AcDbLine
 62
253
  6
CONTINUOUS
 10
9.0891357422
 20
-59.9607890625
 11
9.0891361654
 21
-59.7607890625
  0
LINE
  5
553
100
AcDbEntity
  8
ASSI
100
AcDbLine
 62
253
  6
CONTINUOUS
 10
9.1514913689
 20
-83.4985248186
 11
9.151491369
 21
-83.7984791272
  0
LINE
  5
554
100
AcDbEntity
  8
IMPORT_IGES
100
AcDbLine
 62
253
  6
CONTINUOUS
 10
9.1622791775
 20
-81.6616712359
 11
9.1622792369
 21
-81.8607890625
  0
LINE
  5
555
100
AcDbEntity
  8
IMPORT_IGES
100
AcDbLine
 62
253
  6
CONTINUOUS
 10
9.2891357421
 20
-70.3657890625
 11
9.2891357421
 21
-68.9657890625
  0
LINE
  5
556
100
AcDbEntity
  8
ASSI
100
AcDbLine
 62
7
  6
CONTINUOUS
 10
8.360239402
 20
-59.7619724206
 11
8.4391357422
 21
-56.4714539775
  0
LINE
  5
557
100
AcDbEntity
  8
ASSI
100
AcDbLine
 62
253
  6
CONTINUOUS
 10
9.4973140403
 20
-50.5832377403
 11
9.3873570569
 21
-53.8042753373
  0
LWPOLYLINE
  5
558
100
AcDbEntity
  8
IMPORT_IGES
100
AcDbPolyline
 62
253
  6
CONTINUOUS
 90
13
 70
0
 10
7.6891357422
 20
-76.8432025732
 10
7.6874632714
 20
-76.8614534796
 10
7.6824968136
 20
-76.879337709
 10
7.6743527648
 20
-76.8965629263
 10
7.6632622534
 20
-76.9127725312
 10
7.6494024862
 20
-76.9278033142
 10
7.6327532885
 20
-76.9416251326
 10
7.6133685193
 20
-76.9540317596
 10
7.591602116
 20
-76.9646534733
 10
7.567875488
 20
-76.9732026741
 10
7.5426140301
 20
-76.9794744939
 10
7.5162125254
 20
-76.9833218935
 10
7.4891357422
 20
-76.9846239295
  0
LWPOLYLINE
  5
559
100
AcDbEntity
  8
IMPORT_IGES
100
AcDbPolyline
 62
253
  6
CONTINUOUS
 90
13
 70
0
 10
6.9169260293
 20
-81.3007082487
 10
6.9149333869
 20
-81.321735275
 10
6.9094698215
 20
-81.3424029477
 10
6.9006065035
 20
-81.3623447615
 10
6.8883920164
 20
-81.3813138197
 10
6.8730665577
 20
-81.3988359684
 10
6.8552383081
 20
-81.414316256
 10
6.8355946424
 20
-81.4274278432
 10
6.8143674891
 20
-81.4382494042
 10
6.7915608262
 20
-81.4468501
 10
6.7673877298
 20
-81.4531145077
 10
6.7423684503
 20
-81.4568743794
 10
6.7169071057
 20
-81.4580599544
  0
LWPOLYLINE
  5
55A
100
AcDbEntity
  8
IMPORT_IGES
100
AcDbPolyline
 62
253
  6
CONTINUOUS
 90
13
 70
0
 10
8.6891357412
 20
-71.9203939434
 10
8.687461774
 20
-71.9310231943
 10
8.6824955122
 20
-71.9414397211
 10
8.6743524841
 20
-71.9514732776
 10
8.663262612
 20
-71.9609163443
 10
8.649402512
 20
-71.9696734294
 10
8.6327528367
 20
-71.9777261384
 10
8.6133680072
 20
-71.9849541718
 10
8.5916015458
 20
-71.9911423238
 10
8.5678749265
 20
-71.9961229186
 10
8.5426135764
 20
-71.9997765726
 10
8.5162122606
 20
-72.0020176746
 10
8.4891357422
 20
-72.0027757757
  0
LWPOLYLINE
  5
55B
100
AcDbEntity
  8
ASSI
100
AcDbPolyline
 62
7
  6
CONTINUOUS
 90
4
 70
0
 10
-4.9517477315
 20
-92.3699055888
 10
-4.9042443188
 20
-92.2974348263
 10
-4.8797940618
 20
-92.2607070467
 10
-4.8548188147
 20
-92.2237779469
  0
LINE
  5
55C
100
AcDbEntity
  8
ASSI
100
AcDbLine
 62
7
  6
CONTINUOUS
 10
-3.6161590258
 20
-90.6937323842
 11
-3.5399200705
 21
-90.5793723385
  0
LINE
  5
55D
100
AcDbEntity
  8
ASSI
100
AcDbLine
 62
7
  6
CONTINUOUS
 10
-4.8548188147
 20
-92.2237779469
 11
-4.803649088
 21
-92.1493793071
  0
LINE
  5
55E
100
AcDbEntity
  8
ASSI
100
AcDbLine
 62
7
  6
CONTINUOUS
 10
-4.803649088
 20
-92.1493793071
 11
-4.751344593
 21
-92.0743892701
  0
LWPOLYLINE
  5
55F
100
AcDbEntity
  8
ASSI
100
AcDbPolyline
 62
7
  6
CONTINUOUS
 90
3
 70
0
 10
-4.751344593
 20
-92.0743892701
 10
-4.6717493276
 20
-91.9612056119
 10
-4.644964977
 20
-91.9234823062
  0
LWPOLYLINE
  5
560
100
AcDbEntity
  8
IMPORT_IGES
100
AcDbPolyline
 62
7
  6
CONTINUOUS
 90
10
 70
0
 10
9.0452088131
 20
-70.9818718564
 10
9.0941116917
 20
-70.923878109
 10
9.1377100467
 20
-70.8629292867
 10
9.1760038781
 20
-70.7990253894
 10
9.2091871166
 20
-70.7317129492
 10
9.2370658315
 20
-70.661445434
 10
9.2590582307
 20
-70.5895832474
 10
9.2749703835
 20
-70.5165798572
 10
9.2849962206
 20
-70.4419817956
 10
9.2891357421
 20
-70.3657890625
  0
LINE
  5
561
100
AcDbEntity
  8
ASSI
100
AcDbLine
 62
253
  6
CONTINUOUS
 10
-3.970996558
 20
-84.4209023243
 11
-4.0608832963
 21
-84.5107890625
  0
LINE
  5
562
100
AcDbEntity
  8
IMPORT_IGES
100
AcDbLine
 62
253
  6
CONTINUOUS
 10
10.1666522805
 20
-71.2818709223
 11
10.3366339876
 21
-71.1818768205
  0
LWPOLYLINE
  5
563
100
AcDbEntity
  8
IMPORT_IGES
100
AcDbPolyline
 62
253
  6
CONTINUOUS
 90
10
 70
0
 10
-5.0160585059
 20
-80.8003797155
 10
-5.0344472278
 20
-80.8109742805
 10
-5.0528056958
 20
-80.8196516492
 10
-5.070983762
 20
-80.8263048191
 10
-5.0889072414
 20
-80.8308563024
 10
-5.1063358134
 20
-80.8331930766
 10
-5.1228946077
 20
-80.833268528
 10
-5.1383971182
 20
-80.8311455511
 10
-5.1528154467
 20
-80.8268946629
 10
-5.1660585058
 20
-80.8205966837
  0
LWPOLYLINE
  5
564
100
AcDbEntity
  8
IMPORT_IGES
100
AcDbPolyline
 62
253
  6
CONTINUOUS
 90
6
 70
0
 10
-4.3866314807
 20
-81.0575015404
 10
-4.408397884
 20
-81.0694981412
 10
-4.432124512
 20
-81.0791539605
 10
-4.4573859699
 20
-81.086237612
 10
-4.4837874746
 20
-81.0905830235
 10
-4.5108642578
 20
-81.0920535966
  0
LINE
  5
565
100
AcDbEntity
  8
ASSI
100
AcDbLine
 62
7
  6
CONTINUOUS
 10
12.4337856643
 20
-71.1107890625
 11
12.5891357422
 21
-71.0331199392
  0
LWPOLYLINE
  5
566
100
AcDbEntity
  8
IMPORT_IGES
100
AcDbPolyline
 62
253
  6
CONTINUOUS
 90
5
 70
0
 10
-4.338061344
 20
-79.3046690796
 10
-4.3040205855
 20
-79.2889723973
 10
-4.2677966503
 20
-79.2759126529
 10
-4.2302802697
 20
-79.2656104315
 10
-4.1917683542
 20
-79.2581059281
  0
LINE
  5
567
100
AcDbEntity
  8
IMPORT_IGES
100
AcDbLine
 62
253
  6
CONTINUOUS
 10
1.8342822399
 20
-66.5352603169
 11
2.3391357422
 21
-66.5352603169
  0
LINE
  5
568
100
AcDbEntity
  8
IMPORT_IGES
100
AcDbLine
 62
253
  6
CONTINUOUS
 10
3.5391357422
 20
-66.5352603169
 11
4.0439892445
 21
-66.5352603169
  0
LINE
  5
569
100
AcDbEntity
  8
ASSI
100
AcDbLine
 62
7
  6
CONTINUOUS
 10
12.4337856643
 20
-70.1107890625
 11
12.5891357422
 21
-70.1884581858
  0
LINE
  5
56A
100
AcDbEntity
  8
IMPORT_IGES
100
AcDbLine
 62
253
  6
CONTINUOUS
 10
10.1806332844
 20
-71.2991944068
 11
10.1666522805
 21
-71.2818709223
  0
LWPOLYLINE
  5
56B
100
AcDbEntity
  8
IMPORT_IGES
100
AcDbPolyline
 62
253
  6
CONTINUOUS
 90
4
 70
0
 10
10.1666522062
 20
-71.2818709661
 10
10.1535515798
 20
-71.26439928
 10
10.1387539259
 20
-71.2475065166
 10
10.1219442109
 20
-71.2315774311
  0
LINE
  5
56C
100
AcDbEntity
  8
ASSI
100
AcDbLine
 62
7
  6
CONTINUOUS
 10
-4.644964977
 20
-49.2980958188
 11
-4.6983988786
 21
-49.2226051753
  0
LINE
  5
56D
100
AcDbEntity
  8
ASSI
100
AcDbLine
 62
7
  6
CONTINUOUS
 10
-4.6983988786
 20
-49.2226051753
 11
-4.7776407562
 21
-49.109650798
  0
LWPOLYLINE
  5
56E
100
AcDbEntity
  8
ASSI
100
AcDbPolyline
 62
7
  6
CONTINUOUS
 90
5
 70
0
 10
-4.7776407562
 20
-49.109650798
 10
-4.8293778671
 20
-49.0348964458
 10
-4.8548188147
 20
-48.9978001781
 10
-4.8797940618
 20
-48.9608710783
 10
-4.9042443188
 20
-48.9241432987
  0
LINE
  5
56F
100
AcDbEntity
  8
ASSI
100
AcDbLine
 62
7
  6
CONTINUOUS
 10
-3.6161590258
 20
-50.5278457408
 11
-3.5090855725
 21
-50.6884581858
  0
LWPOLYLINE
  5
570
100
AcDbEntity
  8
IMPORT_IGES
100
AcDbPolyline
 62
253
  6
CONTINUOUS
 90
3
 70
0
 10
5.4391673518
 20
-63.6894422183
 10
5.5155871451
 20
-63.8057366691
 10
5.7463336595
 20
-64.1521095192
  0
LINE
  5
571
100
AcDbEntity
  8
IMPORT_IGES
100
AcDbLine
 62
253
  6
CONTINUOUS
 10
5.7463336595
 20
-64.1521095192
 11
5.8412761259
 21
-64.2958259479
  0
LINE
  5
572
100
AcDbEntity
  8
ASSI
100
AcDbLine
 62
7
  6
CONTINUOUS
 10
-4.9042443188
 20
-48.9241432987
 11
-4.9517477315
 21
-48.8516725362
  0
LWPOLYLINE
  5
573
100
AcDbEntity
  8
ASSI
100
AcDbPolyline
 62
7
  6
CONTINUOUS
 90
13
 70
0
 10
-5.3505496997
 20
-46.2256265566
 10
-5.3443568662
 20
-46.2357866342
 10
-5.338654489
 20
-46.2462298749
 10
-5.3334554856
 20
-46.2569326162
 10
-5.328771632
 20
-46.2678706132
 10
-5.3246135365
 20
-46.2790190887
 10
-5.3209906161
 20
-46.2903527835
 10
-5.3179110761
 20
-46.3018460237
 10
-5.3153818901
 20
-46.313472775
 10
-5.3134087837
 20
-46.3252066964
 10
-5.3119962236
 20
-46.3370212069
 10
-5.3111474081
 20
-46.3488895465
 10
-5.3108642578
 20
-46.3607848317
  0
LWPOLYLINE
  5
574
100
AcDbEntity
  8
IMPORT_IGES
100
AcDbPolyline
 62
253
  6
CONTINUOUS
 90
7
 70
0
 10
7.3529248985
 20
-64.3028510061
 10
7.3451566153
 20
-64.2701445933
 10
7.2707978866
 20
-63.8848542092
 10
7.2129799597
 20
-63.4984539743
 10
7.1718244188
 20
-63.1119712893
 10
7.1472096797
 20
-62.7244449812
 10
7.1391357422
 20
-62.335907855
  0
LWPOLYLINE
  5
575
100
AcDbEntity
  8
IMPORT_IGES
100
AcDbPolyline
 62
253
  6
CONTINUOUS
 90
13
 70
0
 10
10.3891357421
 20
-71.3636197144
 10
10.3886333641
 20
-71.3552527304
 10
10.3873270749
 20
-71.3446645988
 10
10.3852168745
 20
-71.3318526372
 10
10.3821593018
 20
-71.3158684
 10
10.378297818
 20
-71.297653722
 10
10.3740628056
 20
-71.2800463293
 10
10.3697842224
 20
-71.2644051692
 10
10.3651321108
 20
-71.2493763053
 10
10.3595469805
 20
-71.2337314048
 10
10.3528423348
 20
-71.2170610194
 10
10.3452046705
 20
-71.1997757943
 10
10.3366339876
 20
-71.1818768205
  0
LINE
  5
576
100
AcDbEntity
  8
ASSI
100
AcDbLine
 62
253
  6
CONTINUOUS
 10
10.1809574441
 20
-50.5832377403
 11
10.2909144275
 21
-53.8042753373
  0
LWPOLYLINE
  5
577
100
AcDbEntity
  8
ASSI
100
AcDbPolyline
 62
7
  6
CONTINUOUS
 90
61
 70
0
 10
10.1809574441
 20
-90.6383403847
 10
10.1804682529
 20
-90.619951921
 10
10.1790420513
 20
-90.6017214339
 10
10.1766788394
 20
-90.5836489235
 10
10.1733652383
 20
-90.5656839582
 10
10.1691146268
 20
-90.5478769697
 10
10.1639671419
 20
-90.5303792521
 10
10.1579145643
 20
-90.513194085
 10
10.1509651133
 20
-90.4963181888
 10
10.143183583
 20
-90.4798930202
 10
10.134565193
 20
-90.4639259861
 10
10.1251147238
 20
-90.4484096795
 10
10.1149113107
 20
-90.4334633355
 10
10.1039442436
 20
-90.4190868601
 10
10.0922242325
 20
-90.4052803473
 10
10.0798625438
 20
-90.3921633153
 10
10.0668629745
 20
-90.3797496945
 10
10.0532217275
 20
-90.3680255545
 10
10.0390386776
 20
-90.3570686216
 10
10.0242994431
 20
-90.3468776619
 10
10.0090184057
 20
-90.3374539093
 10
9.9933385861
 20
-90.3288787923
 10
9.977269707
 20
-90.3211653394
 10
9.9608020456
 20
-90.3143005221
 10
9.9440494546
 20
-90.3083266823
 10
9.9269996014
 20
-90.3032463989
 10
9.9096648186
 20
-90.299057093
 10
9.8921959563
 20
-90.2957933708
 10
9.8745986046
 20
-90.293463958
 10
9.8568671734
 20
-90.2920601288
 10
9.8391357422
 20
-90.2915903126
 10
9.821404311
 20
-90.2920601288
 10
9.8036728797
 20
-90.293463958
 10
9.7860755281
 20
-90.2957933708
 10
9.7686066657
 20
-90.299057093
 10
9.7512718829
 20
-90.3032463989
 10
9.7342220298
 20
-90.3083266823
 10
9.7174694388
 20
-90.3143005221
 10
9.7010017774
 20
-90.3211653394
 10
9.6849328982
 20
-90.3288787923
 10
9.6692530787
 20
-90.3374539093
 10
9.6539720413
 20
-90.3468776619
 10
9.6392328067
 20
-90.3570686216
 10
9.6250497569
 20
-90.3680255545
 10
9.6114085099
 20
-90.3797496945
 10
9.5984089405
 20
-90.3921633153
 10
9.5860472518
 20
-90.4052803473
 10
9.5743272408
 20
-90.4190868601
 10
9.5633601736
 20
-90.4334633355
 10
9.5531567606
 20
-90.4484096795
 10
9.5437062913
 20
-90.4639259861
 10
9.5350879014
 20
-90.4798930202
 10
9.5273063711
 20
-90.4963181888
 10
9.5203569201
 20
-90.513194085
 10
9.5143043425
 20
-90.5303792521
 10
9.5091568576
 20
-90.5478769697
 10
9.5049062461
 20
-90.5656839582
 10
9.5015926449
 20
-90.5836489235
 10
9.4992294331
 20
-90.6017214339
 10
9.4978032315
 20
-90.619951921
 10
9.4973140403
 20
-90.6383403847
  0
LWPOLYLINE
  5
578
100
AcDbEntity
  8
ASSI
100
AcDbPolyline
 62
7
  6
CONTINUOUS
 90
61
 70
0
 10
9.4973140403
 20
-50.5832377403
 10
9.4978032315
 20
-50.601626204
 10
9.4992294331
 20
-50.6198566911
 10
9.5015926449
 20
-50.6379292015
 10
9.5049062461
 20
-50.6558941668
 10
9.5091568576
 20
-50.6737011553
 10
9.5143043425
 20
-50.6911988729
 10
9.5203569201
 20
-50.70838404
 10
9.5273063711
 20
-50.7252599362
 10
9.5350879014
 20
-50.7416851048
 10
9.5437062913
 20
-50.7576521389
 10
9.5531567606
 20
-50.7731684455
 10
9.5633601736
 20
-50.7881147895
 10
9.5743272408
 20
-50.8024912649
 10
9.5860472518
 20
-50.8162977777
 10
9.5984089405
 20
-50.8294148097
 10
9.6114085099
 20
-50.8418284305
 10
9.6250497569
 20
-50.8535525705
 10
9.6392328067
 20
-50.8645095034
 10
9.6539720413
 20
-50.8747004631
 10
9.6692530787
 20
-50.8841242157
 10
9.6849328982
 20
-50.8926993327
 10
9.7010017774
 20
-50.9004127856
 10
9.7174694388
 20
-50.9072776029
 10
9.7342220298
 20
-50.9132514427
 10
9.7512718829
 20
-50.9183317261
 10
9.7686066657
 20
-50.922521032
 10
9.7860755281
 20
-50.9257847542
 10
9.8036728797
 20
-50.928114167
 10
9.821404311
 20
-50.9295179962
 10
9.8391357422
 20
-50.9299878124
 10
9.8568671734
 20
-50.9295179962
 10
9.8745986046
 20
-50.928114167
 10
9.8921959563
 20
-50.9257847542
 10
9.9096648186
 20
-50.922521032
 10
9.9269996014
 20
-50.9183317261
 10
9.9440494546
 20
-50.9132514427
 10
9.9608020456
 20
-50.9072776029
 10
9.977269707
 20
-50.9004127856
 10
9.9933385861
 20
-50.8926993327
 10
10.0090184057
 20
-50.8841242157
 10
10.0242994431
 20
-50.8747004631
 10
10.0390386776
 20
-50.8645095034
 10
10.0532217275
 20
-50.8535525705
 10
10.0668629745
 20
-50.8418284305
 10
10.0798625438
 20
-50.8294148097
 10
10.0922242325
 20
-50.8162977777
 10
10.1039442436
 20
-50.8024912649
 10
10.1149113107
 20
-50.7881147895
 10
10.1251147238
 20
-50.7731684455
 10
10.134565193
 20
-50.7576521389
 10
10.143183583
 20
-50.7416851048
 10
10.1509651133
 20
-50.7252599362
 10
10.1579145643
 20
-50.70838404
 10
10.1639671419
 20
-50.6911988729
 10
10.1691146268
 20
-50.6737011553
 10
10.1733652383
 20
-50.6558941668
 10
10.1766788394
 20
-50.6379292015
 10
10.1790420513
 20
-50.6198566911
 10
10.1804682529
 20
-50.601626204
 10
10.1809574441
 20
-50.5832377403
  0
LWPOLYLINE
  5
579
100
AcDbEntity
  8
ASSI
100
AcDbPolyline
 62
253
  6
CONTINUOUS
 90
40
 70
0
 10
9.7513999861
 20
-84.0984334357
 10
9.750944836
 20
-84.0746504638
 10
9.7495276145
 20
-84.0508819111
 10
9.7471483214
 20
-84.0271277775
 10
9.7438061076
 20
-84.003332285
 10
9.7395018223
 20
-83.9795512117
 10
9.7342380131
 20
-83.9559518917
 10
9.7280035124
 20
-83.9325383292
 10
9.7208094878
 20
-83.9093065199
 10
9.7126919897
 20
-83.8864117852
 10
9.7036415394
 20
-83.863859698
 10
9.6936676157
 20
-83.8416446853
 10
9.6828347054
 20
-83.81990535
 10
9.6711413792
 20
-83.7986552783
 10
9.6585890665
 20
-83.777880884
 10
9.6452465425
 20
-83.7576800104
 10
9.6311142175
 20
-83.7380595667
 10
9.6161916812
 20
-83.7190126438
 10
9.600546478
 20
-83.7006163577
 10
9.5841769126
 20
-83.68287227
 10
9.5670846803
 20
-83.665778819
 10
9.5493424114
 20
-83.6494084366
 10
9.5309486978
 20
-83.6337629029
 10
9.5119049475
 20
-83.6188404377
 10
9.4922880154
 20
-83.6047081318
 10
9.4720911363
 20
-83.5913655541
 10
9.4513210752
 20
-83.5788131356
 10
9.4300749818
 20
-83.5671192609
 10
9.4083394547
 20
-83.556285275
 10
9.3861278953
 20
-83.5463098328
 10
9.3635776564
 20
-83.5372572837
 10
9.3406827966
 20
-83.5291368688
 10
9.3174492574
 20
-83.521939347
 10
9.2940322161
 20
-83.5157013449
 10
9.2704276728
 20
-83.5104340222
 10
9.2466396274
 20
-83.5061262191
 10
9.2228352566
 20
-83.5027810825
 10
9.199070286
 20
-83.5003996614
 10
9.1752889902
 20
-83.4989809067
 10
9.151491369
 20
-83.4985248186
  0
LINE
  5
57A
100
AcDbEntity
  8
IMPORT_IGES
100
AcDbLine
 62
253
  6
CONTINUOUS
 10
10.9276186629
 20
-63.1678958443
 11
10.9337731014
 21
-63.5204833894
  0
LINE
  5
57B
100
AcDbEntity
  8
IMPORT_IGES
100
AcDbLine
 62
253
  6
CONTINUOUS
 10
10.898198262
 20
-61.2703519213
 11
10.925150144
 21
-62.8143424533
  0
LINE
  5
57C
100
AcDbEntity
  8
IMPORT_IGES
100
AcDbLine
 62
253
  6
CONTINUOUS
 10
10.9492856102
 20
-64.5183754293
 11
11.0611912765
 21
-70.9657889835
  0
LINE
  5
57D
100
AcDbEntity
  8
ASSI
100
AcDbLine
 62
253
  6
CONTINUOUS
 10
11.1935075762
 20
-94.4551266298
 11
11.1891357422
 21
-94.0212742107
  0
LINE
  5
57E
100
AcDbEntity
  8
IMPORT_IGES
100
AcDbLine
 62
7
  6
CONTINUOUS
 10
10.925150144
 20
-62.8143424533
 11
10.9276188107
 21
-63.1678958437
  0
LINE
  5
57F
100
AcDbEntity
  8
ASSI
100
AcDbLine
 62
7
  6
CONTINUOUS
 10
9.3873570569
 20
-53.8042753373
 11
9.3873570569
 21
-50.6884581858
  0
LINE
  5
580
100
AcDbEntity
  8
ASSI
100
AcDbLine
 62
7
  6
CONTINUOUS
 10
9.3989927165
 20
-87.7581533271
 11
9.3989927165
 21
-89.9107890625
  0
LINE
  5
581
100
AcDbEntity
  8
ASSI
100
AcDbLine
 62
7
  6
CONTINUOUS
 10
9.4181915549
 20
-90.5793723385
 11
9.4181915549
 21
-90.4107890625
  0
LINE
  5
582
100
AcDbEntity
  8
ASSI
100
AcDbLine
 62
7
  6
CONTINUOUS
 10
9.4391357422
 20
-84.429629192
 11
9.4391357422
 21
-84.110743371
  0
LINE
  5
583
100
AcDbEntity
  8
ASSI
100
AcDbLine
 62
7
  6
CONTINUOUS
 10
9.4391357422
 20
-59.8607890625
 11
9.4391357422
 21
-59.791948933
  0
LINE
  5
584
100
AcDbEntity
  8
ASSI
100
AcDbLine
 62
7
  6
CONTINUOUS
 10
9.4391357422
 20
-81.7473560148
 11
9.4391357422
 21
-82.1944241791
  0
LINE
  5
585
100
AcDbEntity
  8
ASSI
100
AcDbLine
 62
7
  6
CONTINUOUS
 10
9.4391357422
 20
-82.2006758007
 11
9.4391357422
 21
-82.9107890625
  0
LINE
  5
586
100
AcDbEntity
  8
ASSI
100
AcDbLine
 62
253
  6
CONTINUOUS
 10
9.4514456775
 20
-59.7981034319
 11
9.4514456775
 21
-59.9084568591
  0
LINE
  5
587
100
AcDbEntity
  8
ASSI
100
AcDbLine
 62
253
  6
CONTINUOUS
 10
9.4514456775
 20
-84.0984334357
 11
9.4514456775
 21
-84.4234746931
  0
LINE
  5
588
100
AcDbEntity
  8
ASSI
100
AcDbLine
 62
7
  6
CONTINUOUS
 10
9.4973140403
 20
-50.0278647793
 11
9.4973140403
 21
-50.5832377403
  0
LINE
  5
589
100
AcDbEntity
  8
ASSI
100
AcDbLine
 62
7
  6
CONTINUOUS
 10
9.4973140403
 20
-90.6383403847
 11
9.4973140403
 21
-91.1937133457
  0
LINE
  5
58A
100
AcDbEntity
  8
IMPORT_IGES
100
AcDbLine
 62
253
  6
CONTINUOUS
 10
9.7421357437
 20
-59.9607890625
 11
9.7421339227
 21
-62.7078605942
  0
LINE
  5
58B
100
AcDbEntity
  8
ASSI
100
AcDbLine
 62
253
  6
CONTINUOUS
 10
9.7513999861
 20
-59.8006758007
 11
9.7513999861
 21
-59.9607890625
  0
LINE
  5
58C
100
AcDbEntity
  8
ASSI
100
AcDbLine
 62
253
  6
CONTINUOUS
 10
9.7513999861
 20
-84.0984334357
 11
9.7513999861
 21
-84.4209023243
  0
LINE
  5
58D
100
AcDbEntity
  8
IMPORT_IGES
100
AcDbLine
 62
7
  6
CONTINUOUS
 10
9.9421357422
 20
-60.4435728419
 11
9.9421357422
 21
-62.7624739494
  0
LINE
  5
58E
100
AcDbEntity
  8
IMPORT_IGES
100
AcDbLine
 62
253
  6
CONTINUOUS
 10
9.9891348517
 20
-79.2513694182
 11
9.9891390766
 21
-81.2019796486
  0
LINE
  5
58F
100
AcDbEntity
  8
IMPORT_IGES
100
AcDbLine
 62
253
  6
CONTINUOUS
 10
9.9892899431
 20
-70.9818718564
 11
9.9892905559
 21
-71.1818710452
  0
LINE
  5
590
100
AcDbEntity
  8
IMPORT_IGES
100
AcDbLine
 62
253
  6
CONTINUOUS
 10
10.1421357422
 20
-60.5142823769
 11
10.1421357422
 21
-62.8420635685
  0
LINE
  5
591
100
AcDbEntity
  8
ASSI
100
AcDbLine
 62
7
  6
CONTINUOUS
 10
10.1809574441
 20
-49.6147935168
 11
10.1809574441
 21
-50.5832377403
  0
LINE
  5
592
100
AcDbEntity
  8
ASSI
100
AcDbLine
 62
7
  6
CONTINUOUS
 10
10.1809574441
 20
-90.6383403847
 11
10.1809574441
 21
-91.6067846082
  0
LINE
  5
593
100
AcDbEntity
  8
IMPORT_IGES
100
AcDbLine
 62
7
  6
CONTINUOUS
 10
10.1891357422
 20
-71.3818710471
 11
10.1891357422
 21
-77.3771744123
  0
LINE
  5
594
100
AcDbEntity
  8
IMPORT_IGES
100
AcDbLine
 62
7
  6
CONTINUOUS
 10
10.1891357421
 20
-79.3930641361
 11
10.1891357421
 21
-80.9679332774
  0
LINE
  5
595
100
AcDbEntity
  8
ASSI
100
AcDbLine
 62
7
  6
CONTINUOUS
 10
10.2600799295
 20
-91.3221210571
 11
10.2600799295
 21
-90.4107890625
  0
LINE
  5
596
100
AcDbEntity
  8
ASSI
100
AcDbLine
 62
7
  6
CONTINUOUS
 10
10.2716820066
 20
-82.1282427981
 11
10.2716820066
 21
-81.266685205
  0
LINE
  5
597
100
AcDbEntity
  8
ASSI
100
AcDbLine
 62
7
  6
CONTINUOUS
 10
10.2792787679
 20
-87.7581533271
 11
10.2792787679
 21
-89.9107890625
  0
LINE
  5
598
100
AcDbEntity
  8
ASSI
100
AcDbLine
 62
7
  6
CONTINUOUS
 10
10.2891357422
 20
-82.1107890625
 11
10.2891357422
 21
-81.256608286
  0
LINE
  5
599
100
AcDbEntity
  8
ASSI
100
AcDbLine
 62
7
  6
CONTINUOUS
 10
10.2909144275
 20
-50.1772182981
 11
10.2909144275
 21
-53.8042753373
  0
LINE
  5
59A
100
AcDbEntity
  8
ASSI
100
AcDbLine
 62
7
  6
CONTINUOUS
 10
10.3492490039
 20
-83.9209213627
 11
10.3492490039
 21
-83.0209023243
  0
LINE
  5
59B
100
AcDbEntity
  8
ASSI
100
AcDbLine
 62
7
  6
CONTINUOUS
 10
10.3492490039
 20
-60.3006567623
 11
10.3492490039
 21
-60.3678422476
  0
LINE
  5
59C
100
AcDbEntity
  8
IMPORT_IGES
100
AcDbLine
 62
253
  6
CONTINUOUS
 10
10.3891357422
 20
-78.7559430323
 11
10.3891357421
 21
-71.3636197144
  0
LINE
  5
59D
100
AcDbEntity
  8
IMPORT_IGES
100
AcDbLine
 62
253
  6
CONTINUOUS
 10
10.3891357268
 20
-79.5527909334
 11
10.3891357105
 21
-81.0920537129
  0
LINE
  5
59E
100
AcDbEntity
  8
ASSI
100
AcDbLine
 62
7
  6
CONTINUOUS
 10
10.4391357422
 20
-84.010808101
 11
10.4391357422
 21
-83.1107890625
  0
LINE
  5
59F
100
AcDbEntity
  8
ASSI
100
AcDbLine
 62
7
  6
CONTINUOUS
 10
10.4391357422
 20
-60.4577289858
 11
10.4391357422
 21
-60.210770024
  0
LINE
  5
5A0
100
AcDbEntity
  8
ASSI
100
AcDbLine
 62
253
  6
CONTINUOUS
 10
10.5232364613
 20
-91.9234823062
 11
10.5232364613
 21
-91.6067846082
  0
LINE
  5
5A1
100
AcDbEntity
  8
ASSI
100
AcDbLine
 62
253
  6
CONTINUOUS
 10
10.5232364613
 20
-49.6147935168
 11
10.5232364613
 21
-49.2980958188
  0
LINE
  5
5A2
100
AcDbEntity
  8
ASSI
100
AcDbLine
 62
253
  6
CONTINUOUS
 10
11.0231603089
 20
-92.1767644958
 11
11.0231603089
 21
-91.6024973267
  0
LINE
  5
5A3
100
AcDbEntity
  8
ASSI
100
AcDbLine
 62
253
  6
CONTINUOUS
 10
11.0231603089
 20
-49.6190807983
 11
11.0231603089
 21
-49.0448136292
  0
LINE
  5
5A4
100
AcDbEntity
  8
IMPORT_IGES
100
AcDbLine
 62
7
  6
CONTINUOUS
 10
10.926493141
 20
-78.7559430323
 11
10.9241447195
 21
-79.0922928315
  0
LINE
  5
5A5
100
AcDbEntity
  8
IMPORT_IGES
100
AcDbLine
 62
253
  6
CONTINUOUS
 10
10.8950549216
 20
-80.7601069564
 11
10.894750235
 21
-80.8003764133
  0
LINE
  5
5A6
100
AcDbEntity
  8
ASSI
100
AcDbLine
 62
253
  6
CONTINUOUS
 10
11.1891357422
 20
-47.2003039143
 11
11.1935075762
 21
-46.7664514952
  0
LINE
  5
5A7
100
AcDbEntity
  8
IMPORT_IGES
100
AcDbLine
 62
253
  6
CONTINUOUS
 10
11.0585205572
 20
-71.1818712124
 11
11.0611912765
 21
-70.9657889835
  0
LINE
  5
5A8
100
AcDbEntity
  8
IMPORT_IGES
100
AcDbLine
 62
7
  6
CONTINUOUS
 10
11.0585205572
 20
-71.1818712124
 11
11.0458679327
 21
-72.0027763505
  0
LINE
  5
5A9
100
AcDbEntity
  8
IMPORT_IGES
100
AcDbLine
 62
253
  6
CONTINUOUS
 10
10.9807139272
 20
-75.649631524
 11
10.926493141
 21
-78.7559430278
  0
LINE
  5
5AA
100
AcDbEntity
  8
IMPORT_IGES
100
AcDbLine
 62
253
  6
CONTINUOUS
 10
11.0458679327
 20
-72.0027763505
 11
10.9921604204
 21
-75.0796688529
  0
LINE
  5
5AB
100
AcDbEntity
  8
IMPORT_IGES
100
AcDbLine
 62
253
  6
CONTINUOUS
 10
10.92414475
 20
-79.0922925055
 11
10.8950549216
 21
-80.7601069564
  0
LINE
  5
5AC
100
AcDbEntity
  8
IMPORT_IGES
100
AcDbLine
 62
253
  6
CONTINUOUS
 10
10.9921604204
 20
-75.0796688529
 11
10.9807139272
 21
-75.649631524
  0
LWPOLYLINE
  5
5AD
100
AcDbEntity
  8
ASSI
100
AcDbPolyline
 62
7
  6
CONTINUOUS
 90
67
 70
0
 10
9.3989927165
 20
-87.7581533271
 10
9.3995054759
 20
-87.7366906232
 10
9.401019146
 20
-87.7153670118
 10
9.4035337268
 20
-87.694182493
 10
9.4070619424
 20
-87.6730812256
 10
9.4115910686
 20
-87.6521190508
 10
9.417082933
 20
-87.6314634921
 10
9.4235406592
 20
-87.6111307576
 10
9.4309611236
 20
-87.5911046394
 10
9.4392967822
 20
-87.5715040367
 10
9.4485624366
 20
-87.5523168239
 10
9.4587432852
 20
-87.5335551267
 10
9.4697473796
 20
-87.515374221
 10
9.4815668693
 20
-87.4977986303
 10
9.4942096047
 20
-87.4808038312
 10
9.507607189
 20
-87.4644715299
 10
9.5217823773
 20
-87.4487865831
 10
9.5367124143
 20
-87.4337641341
 10
9.5522606376
 20
-87.419531318
 10
9.5684079158
 20
-87.4061133162
 10
9.5851733802
 20
-87.3934849473
 10
9.6024777623
 20
-87.3816978027
 10
9.6203486363
 20
-87.3707413836
 10
9.638758428
 20
-87.3606261887
 10
9.6575451463
 20
-87.3514353054
 10
9.6766864195
 20
-87.3431864773
 10
9.6962046193
 20
-87.3358619607
 10
9.7160048696
 20
-87.3294916119
 10
9.7361076977
 20
-87.3240743615
 10
9.7564925762
 20
-87.3196112789
 10
9.7770030478
 20
-87.3161354288
 10
9.7976287668
 20
-87.313655755
 10
9.8183800789
 20
-87.3121633137
 10
9.8391315636
 20
-87.3116643386
 10
9.859883379
 20
-87.3121629829
 10
9.880635367
 20
-87.3136550935
 10
9.9012616328
 20
-87.3161344447
 10
9.9217723248
 20
-87.3196099859
 10
9.9421572946
 20
-87.3240727677
 10
9.9622602026
 20
-87.3294897166
 10
9.9820604816
 20
-87.3358597128
 10
10.0015786987
 20
-87.3431838761
 10
10.0207202153
 20
-87.3514324924
 10
10.0395076937
 20
-87.3606234884
 10
10.0579184716
 20
-87.3707389374
 10
10.0757899233
 20
-87.3816953452
 10
10.0930939523
 20
-87.3934818244
 10
10.1098586551
 20
-87.4061092624
 10
10.1260056953
 20
-87.4195268271
 10
10.1415548723
 20
-87.4337603247
 10
10.1564863867
 20
-87.448783949
 10
10.1706625039
 20
-87.4644694488
 10
10.1840597682
 20
-87.4808008379
 10
10.1967016352
 20
-87.4977941025
 10
10.208520738
 20
-87.5153689498
 10
10.2195255635
 20
-87.5335509155
 10
10.2297076248
 20
-87.552314464
 10
10.2389740941
 20
-87.5715026963
 10
10.2473096693
 20
-87.5911024124
 10
10.2547296527
 20
-87.6111268122
 10
10.2611871234
 20
-87.6314585968
 10
10.2666792772
 20
-87.6521148317
 10
10.2712089184
 20
-87.6730784513
 10
10.2747375389
 20
-87.6941809603
 10
10.2772523026
 20
-87.7153661933
 10
10.2787660456
 20
-87.7366903155
 10
10.2792787679
 20
-87.7581533271
  0
LWPOLYLINE
  5
5AE
100
AcDbEntity
  8
ASSI
100
AcDbPolyline
 62
7
  6
CONTINUOUS
 90
5
 70
0
 10
11.1891357422
 20
-46.3607848317
 10
11.1894188924
 20
-46.3488895465
 10
11.190267708
 20
-46.3370212069
 10
11.191680268
 20
-46.3252066964
 10
11.1936533745
 20
-46.313472775
  0
LWPOLYLINE
  5
5AF
100
AcDbEntity
  8
ASSI
100
AcDbPolyline
 62
7
  6
CONTINUOUS
 90
67
 70
0
 10
10.2909144275
 20
-53.8042753373
 10
10.2903824953
 20
-53.8263548143
 10
10.2888237517
 20
-53.8482775513
 10
10.2862381968
 20
-53.8700435483
 10
10.282613585
 20
-53.8917036782
 10
10.2779621618
 20
-53.913207068
 10
10.272320664
 20
-53.934401099
 10
10.2656817224
 20
-53.9552823563
 10
10.2580527061
 20
-53.9758542548
 10
10.2494924589
 20
-53.9959744201
 10
10.2399959951
 20
-54.0156368827
 10
10.2295683003
 20
-54.0348476123
 10
10.2182831754
 20
-54.0534821432
 10
10.2061309756
 20
-54.0715408136
 10
10.1931213456
 20
-54.0890232854
 10
10.17935702
 20
-54.1058040789
 10
10.1648407815
 20
-54.1218699892
 10
10.1495698474
 20
-54.1372342211
 10
10.1336386035
 20
-54.1518109098
 10
10.1170330099
 20
-54.1656029153
 10
10.0997671064
 20
-54.1786073774
 10
10.0819773991
 20
-54.1907298506
 10
10.0636739321
 20
-54.2019562398
 10
10.0448466613
 20
-54.2123006401
 10
10.0256019596
 20
-54.2217108903
 10
10.0059245681
 20
-54.2301873098
 10
9.9858297457
 20
-54.2377295792
 10
9.9654696426
 20
-54.2442845791
 10
9.9448544822
 20
-54.2498423044
 10
9.923974041
 20
-54.2544127603
 10
9.9029497985
 20
-54.257972843
 10
9.881774314
 20
-54.2605184234
 10
9.8604550281
 20
-54.2620536306
 10
9.8391357422
 20
-54.2625677478
 10
9.8178164563
 20
-54.2620536306
 10
9.7964971704
 20
-54.2605184234
 10
9.7753216859
 20
-54.257972843
 10
9.7542974434
 20
-54.2544127603
 10
9.7334170022
 20
-54.2498423044
 10
9.7128018418
 20
-54.2442845791
 10
9.6924417387
 20
-54.2377295792
 10
9.6723469163
 20
-54.2301873098
 10
9.6526695248
 20
-54.2217108903
 10
9.6334248231
 20
-54.2123006401
 10
9.6145975522
 20
-54.2019562398
 10
9.5962940853
 20
-54.1907298506
 10
9.578504378
 20
-54.1786073774
 10
9.5612384745
 20
-54.1656029153
 10
9.5446328808
 20
-54.1518109098
 10
9.528701637
 20
-54.1372342211
 10
9.5134307029
 20
-54.1218699892
 10
9.4989144644
 20
-54.1058040789
 10
9.4851501388
 20
-54.0890232854
 10
9.4721405088
 20
-54.0715408136
 10
9.459988309
 20
-54.0534821432
 10
9.4487031841
 20
-54.0348476123
 10
9.4382754893
 20
-54.0156368827
 10
9.4287790255
 20
-53.9959744201
 10
9.4202187782
 20
-53.9758542548
 10
9.4125897619
 20
-53.9552823563
 10
9.4059508204
 20
-53.934401099
 10
9.4003093225
 20
-53.913207068
 10
9.3956578994
 20
-53.8917036782
 10
9.3920332876
 20
-53.8700435483
 10
9.3894477327
 20
-53.8482775513
 10
9.3878889891
 20
-53.8263548143
 10
9.3873570569
 20
-53.8042753373
  0
LWPOLYLINE
  5
5B0
100
AcDbEntity
  8
ASSI
100
AcDbPolyline
 62
7
  6
CONTINUOUS
 90
29
 70
0
 10
11.1935075762
 20
-46.3651566657
 10
11.1938507652
 20
-46.3520703116
 10
11.1948785082
 20
-46.3390198133
 10
11.1965879913
 20
-46.3260409558
 10
11.198974534
 20
-46.3131693162
 10
11.2020315952
 20
-46.3004402023
 10
11.2057507847
 20
-46.2878885548
 10
11.2101218998
 20
-46.2755487987
 10
11.2151329552
 20
-46.2634547615
 10
11.2207702035
 20
-46.2516396158
 10
11.2270181827
 20
-46.24013576
 10
11.2338597585
 20
-46.2289747341
 10
11.2412761654
 20
-46.2181871438
 10
11.2492470735
 20
-46.2078025545
 10
11.257750615
 20
-46.1978494511
 10
11.2667634342
 20
-46.1883551579
 10
11.2762607686
 20
-46.1793457361
 10
11.2862166058
 20
-46.1708458392
 10
11.2966037316
 20
-46.1628786969
 10
11.3073938108
 20
-46.1554660669
 10
11.3185571292
 20
-46.1486283851
 10
11.3300627297
 20
-46.1423845834
 10
11.3418788079
 20
-46.1367518348
 10
11.353973164
 20
-46.1317454049
 10
11.366312968
 20
-46.1273788538
 10
11.3788671525
 20
-46.1236634141
 10
11.3915986177
 20
-46.1206103007
 10
11.4044643365
 20
-46.1182291705
 10
11.4166232675
 20
-46.1166111089
  0
LINE
  5
5B1
100
AcDbEntity
  8
ASSI
100
AcDbLine
 62
253
  6
CONTINUOUS
 10
10.1809574441
 20
-90.6383403847
 11
10.2792787679
 21
-87.7581533271
  0
LWPOLYLINE
  5
5B2
100
AcDbEntity
  8
ASSI
100
AcDbPolyline
 62
7
  6
CONTINUOUS
 90
10
 70
0
 10
6.4391357422
 20
-94.3619313528
 10
6.4394666918
 20
-94.3592223843
 10
6.4404730007
 20
-94.3558445566
 10
6.4421741748
 20
-94.3517978699
 10
6.44459031
 20
-94.3470957611
 10
6.4477380096
 20
-94.3417247931
 10
6.451626233
 20
-94.3356446554
 10
6.4562657379
 20
-94.3288472426
 10
6.4616665378
 20
-94.3213406601
 10
6.4678275934
 20
-94.3131089131
  0
LINE
  5
5B3
100
AcDbEntity
  8
IMPORT_IGES
100
AcDbLine
 62
7
  6
CONTINUOUS
 10
7.0883150839
 20
-79.2615904061
 11
7.0902793134
 21
-79.2546057323
  0
LWPOLYLINE
  5
5B4
100
AcDbEntity
  8
IMPORT_IGES
100
AcDbPolyline
 62
7
  6
CONTINUOUS
 90
31
 70
0
 10
8.559052924
 20
-78.8650890516
 10
8.5686095186
 20
-78.8335451795
 10
8.5775511523
 20
-78.8008954798
 10
8.585877825
 20
-78.7671399524
 10
8.5935052979
 20
-78.7322875702
 10
8.6005178099
 20
-78.6963293602
 10
8.6071680776
 20
-78.659238404
 10
8.6135107932
 20
-78.6210093022
 10
8.6194912646
 20
-78.5816474541
 10
8.6251981317
 20
-78.5411421392
 10
8.6306467035
 20
-78.4995191239
 10
8.6358216711
 20
-78.4567526417
 10
8.6407657481
 20
-78.412754673
 10
8.6454883989
 20
-78.3675341638
 10
8.6499801592
 20
-78.3210821681
 10
8.65425535
 20
-78.2732838275
 10
8.6583211918
 20
-78.224131475
 10
8.662170464
 20
-78.1736327776
 10
8.6657958265
 20
-78.121695879
 10
8.6692021491
 20
-78.0683220795
 10
8.672384562
 20
-78.0135100788
 10
8.6753211144
 20
-77.957164119
 10
8.6780167331
 20
-77.8992858278
 10
8.6804664914
 20
-77.8398735776
 10
8.6826336586
 20
-77.7788267282
 10
8.6845242521
 20
-77.7161429683
 10
8.6861322545
 20
-77.6518246092
 10
8.687402883
 20
-77.5857779447
 10
8.6883178766
 20
-77.5179717393
 10
8.6888954964
 20
-77.4484372285
 10
8.6891357422
 20
-71.8851232673
  0
LWPOLYLINE
  5
5B5
100
AcDbEntity
  8
IMPORT_IGES
100
AcDbPolyline
 62
7
  6
CONTINUOUS
 90
10
 70
0
 10
7.6622660757
 20
-78.7559347757
 10
7.6676126693
 20
-78.7399246942
 10
7.672393287
 20
-78.7233447101
 10
7.6766079288
 20
-78.7061948234
 10
7.6802889852
 20
-78.6883853556
 10
7.6834040656
 20
-78.6700059852
 10
7.6858559987
 20
-78.6513257475
 10
7.6876123939
 20
-78.632434321
 10
7.6887056417
 20
-78.6132420272
 10
7.6891357422
 20
-78.5937488662
  0
LWPOLYLINE
  5
5B6
100
AcDbEntity
  8
IMPORT_IGES
100
AcDbPolyline
 62
7
  6
CONTINUOUS
 90
46
 70
0
 10
7.6622671818
 20
-78.7559393624
 10
7.6578490505
 20
-78.7679340746
 10
7.6533194593
 20
-78.7794293905
 10
7.6487206512
 20
-78.7904335671
 10
7.6441060604
 20
-78.8009431158
 10
7.6394993938
 20
-78.8109827158
 10
7.6348886206
 20
-78.8206013383
 10
7.6302966602
 20
-78.8298081377
 10
7.6257509585
 20
-78.8386125776
 10
7.6212345096
 20
-78.8470591168
 10
7.6167618248
 20
-78.8551572865
 10
7.6123524768
 20
-78.8629133944
 10
7.6079895498
 20
-78.8703630394
 10
7.6036826303
 20
-78.8775146905
 10
7.5994456904
 20
-78.8843730587
 10
7.5952636592
 20
-78.8909650468
 10
7.591143637
 20
-78.8972970612
 10
7.5870951799
 20
-78.9033736483
 10
7.58310382
 20
-78.9092165608
 10
7.5791747893
 20
-78.9148309755
 10
7.5753147537
 20
-78.9202207041
 10
7.571509273
 20
-78.9254035109
 10
7.5677619657
 20
-78.9303841171
 10
7.5640777529
 20
-78.9351650342
 10
7.5604426507
 20
-78.9397590736
 10
7.5568594998
 20
-78.9441702923
 10
7.5533316432
 20
-78.9484003625
 10
7.5498447709
 20
-78.952457094
 10
7.5464018843
 20
-78.9563436568
 10
7.5430044873
 20
-78.9600612709
 10
7.5396351856
 20
-78.9636134223
 10
7.5362976631
 20
-78.9670030753
 10
7.5329914889
 20
-78.9702302463
 10
7.5296923676
 20
-78.9732923584
 10
7.5264002055
 20
-78.9761968502
 10
7.5231173663
 20
-78.9789373857
 10
7.5198226871
 20
-78.9814890347
 10
7.5165258913
 20
-78.9838557722
 10
7.5132190974
 20
-78.9860334608
 10
7.5098542256
 20
-78.9879825001
 10
7.5063881026
 20
-78.9897188513
 10
7.5028652111
 20
-78.9912215999
 10
7.4993691094
 20
-78.9923971482
 10
7.4959285446
 20
-78.9932164016
 10
7.4925170776
 20
-78.9937113442
 10
7.4891357422
 20
-78.993883084
  0
LWPOLYLINE
  5
5B7
100
AcDbEntity
  8
ASSI
100
AcDbPolyline
 62
7
  6
CONTINUOUS
 90
8
 70
0
 10
-5.3505496997
 20
-94.9959515684
 10
-5.3572189623
 20
-95.0058054676
 10
-5.3643495471
 20
-95.0153308663
 10
-5.3719252989
 20
-95.0245061816
 10
-5.3799290573
 20
-95.0333106286
 10
-5.3883426917
 20
-95.041724263
 10
-5.3971471388
 20
-95.0497280214
 10
-5.406322454
 20
-95.0573037732
  0
LINE
  5
5B8
100
AcDbEntity
  8
ASSI
100
AcDbLine
 62
7
  6
CONTINUOUS
 10
-6.55551418
 20
-82.1107890625
 11
-6.7108642578
 21
-82.1884581858
  0
LWPOLYLINE
  5
5B9
100
AcDbEntity
  8
IMPORT_IGES
100
AcDbPolyline
 62
253
  6
CONTINUOUS
 90
10
 70
0
 10
7.0355946955
 20
-76.984612065
 10
7.0204350119
 20
-76.9914659343
 10
7.0052413326
 20
-76.9998139676
 10
6.9903422743
 20
-77.0095323689
 10
6.9762119721
 20
-77.0203132041
 10
6.9629877112
 20
-77.0320165573
 10
6.9505471371
 20
-77.0447850505
 10
6.9391064249
 20
-77.0585139191
 10
6.9290946296
 20
-77.0727691738
 10
6.9207388068
 20
-77.0872181659
  0
LWPOLYLINE
  5
5BA
100
AcDbEntity
  8
IMPORT_IGES
100
AcDbPolyline
 62
253
  6
CONTINUOUS
 90
8
 70
0
 10
7.6891357422
 20
-76.7746643981
 10
7.6874632714
 20
-76.7752251359
 10
7.6824968136
 20
-76.7757746079
 10
7.6743527648
 20
-76.7763038326
 10
7.6632622534
 20
-76.7768018538
 10
7.6494024863
 20
-76.777263657
 10
7.6327532885
 20
-76.7776883162
 10
7.6133685193
 20
-76.7780694953
  0
LINE
  5
5BB
100
AcDbEntity
  8
IMPORT_IGES
100
AcDbLine
 62
253
  6
CONTINUOUS
 10
7.080802488
 20
-63.9411868985
 11
6.8838490855
 21
-63.9759627078
  0
LWPOLYLINE
  5
5BC
100
AcDbEntity
  8
IMPORT_IGES
100
AcDbPolyline
 62
253
  6
CONTINUOUS
 90
3
 70
0
 10
10.0916927779
 20
-62.8189754892
 10
10.1160305037
 20
-62.8155523325
 10
10.1421357422
 20
-62.8143424532
  0
LINE
  5
5BD
100
AcDbEntity
  8
IMPORT_IGES
100
AcDbLine
 62
253
  6
CONTINUOUS
 10
6.9758916768
 20
-63.1501319682
 11
6.776682127
 21
-63.1678958437
  0
LINE
  5
5BE
100
AcDbEntity
  8
IMPORT_IGES
100
AcDbLine
 62
7
  6
CONTINUOUS
 10
11.2465634939
 20
-64.5089945895
 11
11.2491510642
 21
-64.5088682229
  0
LWPOLYLINE
  5
5BF
100
AcDbEntity
  8
IMPORT_IGES
100
AcDbPolyline
 62
7
  6
CONTINUOUS
 90
3
 70
0
 10
7.4391357422
 20
-64.5661895865
 10
7.4417255412
 20
-64.5660913605
 10
7.4494317308
 20
-64.5660314589
  0
LINE
  5
5C0
100
AcDbEntity
  8
IMPORT_IGES
100
AcDbLine
 62
7
  6
CONTINUOUS
 10
11.0994710974
 20
-64.5137078467
 11
11.2465634939
 21
-64.5089945895
  0
LINE
  5
5C1
100
AcDbEntity
  8
IMPORT_IGES
100
AcDbLine
 62
7
  6
CONTINUOUS
 10
10.9489674068
 20
-64.5183303502
 11
11.0994710974
 21
-64.5137078467
  0
LINE
  5
5C2
100
AcDbEntity
  8
IMPORT_IGES
100
AcDbLine
 62
253
  6
CONTINUOUS
 10
11.2275729715
 20
-63.1626601228
 11
10.9276186629
 21
-63.1678958441
  0
LINE
  5
5C3
100
AcDbEntity
  8
IMPORT_IGES
100
AcDbLine
 62
7
  6
CONTINUOUS
 10
-1.5634541186
 20
-64.5661958555
 11
-1.5608642578
 21
-64.566165192
  0
LINE
  5
5C4
100
AcDbEntity
  8
IMPORT_IGES
100
AcDbLine
 62
7
  6
CONTINUOUS
 10
-1.8608634394
 20
-64.5667364979
 11
-1.5634541186
 21
-64.5661958555
  0
LINE
  5
5C5
100
AcDbEntity
  8
ASSI
100
AcDbLine
 62
7
  6
CONTINUOUS
 10
-5.5608642578
 20
-64.7107890625
 11
-5.3744041211
 21
-64.7107890625
  0
LINE
  5
5C6
100
AcDbEntity
  8
ASSI
100
AcDbLine
 62
7
  6
CONTINUOUS
 10
11.2526756055
 20
-64.7107890625
 11
11.4391357422
 21
-64.7107890625
  0
LINE
  5
5C7
100
AcDbEntity
  8
ASSI
100
AcDbLine
 62
7
  6
CONTINUOUS
 10
-5.4735727333
 20
-64.623497538
 11
-5.3728804419
 21
-64.623497538
  0
LINE
  5
5C8
100
AcDbEntity
  8
ASSI
100
AcDbLine
 62
7
  6
CONTINUOUS
 10
11.2511519263
 20
-64.623497538
 11
11.3518442177
 21
-64.623497538
  0
LINE
  5
5C9
100
AcDbEntity
  8
ASSI
100
AcDbLine
 62
253
  6
CONTINUOUS
 10
-5.4709775196
 20
-64.3235089611
 11
-5.369564179
 21
-64.3235089611
  0
LINE
  5
5CA
100
AcDbEntity
  8
ASSI
100
AcDbLine
 62
253
  6
CONTINUOUS
 10
11.2478356633
 20
-64.3235089611
 11
11.3492490039
 21
-64.3235089611
  0
LINE
  5
5CB
100
AcDbEntity
  8
IMPORT_IGES
100
AcDbLine
 62
7
  6
CONTINUOUS
 10
-1.1824616338
 20
-63.8224837795
 11
-1.3257273414
 21
-63.8224837795
  0
LINE
  5
5CC
100
AcDbEntity
  8
IMPORT_IGES
100
AcDbLine
 62
7
  6
CONTINUOUS
 10
7.0607331182
 20
-63.8224837795
 11
7.2039988258
 21
-63.8224837795
  0
LINE
  5
5CD
100
AcDbEntity
  8
IMPORT_IGES
100
AcDbLine
 62
7
  6
CONTINUOUS
 10
7.0439892445
 20
-63.2224837795
 11
6.9826913131
 21
-63.2224837795
  0
LINE
  5
5CE
100
AcDbEntity
  8
IMPORT_IGES
100
AcDbLine
 62
7
  6
CONTINUOUS
 10
-1.1044198287
 20
-63.2224837795
 11
-1.1657177601
 21
-63.2224837795
  0
LINE
  5
5CF
100
AcDbEntity
  8
IMPORT_IGES
100
AcDbLine
 62
253
  6
CONTINUOUS
 10
10.9276186629
 20
-63.1678958443
 11
10.6328583405
 21
-63.1678958444
  0
LINE
  5
5D0
100
AcDbEntity
  8
IMPORT_IGES
100
AcDbLine
 62
253
  6
CONTINUOUS
 10
6.776682127
 20
-63.1678958444
 11
-0.8984106426
 21
-63.1678958437
  0
LINE
  5
5D1
100
AcDbEntity
  8
IMPORT_IGES
100
AcDbLine
 62
253
  6
CONTINUOUS
 10
-4.7548170585
 20
-63.1678958444
 11
-5.0493471786
 21
-63.1678958444
  0
LWPOLYLINE
  5
5D2
100
AcDbEntity
  8
IMPORT_IGES
100
AcDbPolyline
 62
7
  6
CONTINUOUS
 90
3
 70
0
 10
7.4494317308
 20
-64.5660314589
 10
7.4794584064
 20
-64.5660363747
 10
7.7391344262
 20
-64.5667148977
  0
LINE
  5
5D3
100
AcDbEntity
  8
IMPORT_IGES
100
AcDbLine
 62
7
  6
CONTINUOUS
 10
-5.0709494704
 20
-64.5141345748
 11
-5.3708799777
 21
-64.50889102
  0
LINE
  5
5D4
100
AcDbEntity
  8
IMPORT_IGES
100
AcDbLine
 62
253
  6
CONTINUOUS
 10
-5.0493471791
 20
-63.1678958741
 11
-5.3493014871
 21
-63.1626601218
  0
LINE
  5
5D5
100
AcDbEntity
  8
IMPORT_IGES
100
AcDbLine
 62
253
  6
CONTINUOUS
 10
-1.0976201924
 20
-63.1501319682
 11
-0.8984106473
 21
-63.1678958957
  0
LWPOLYLINE
  5
5D6
100
AcDbEntity
  8
IMPORT_IGES
100
AcDbPolyline
 62
253
  6
CONTINUOUS
 90
3
 70
0
 10
-4.2132232044
 20
-62.8190033508
 10
-4.2377590194
 20
-62.8155523324
 10
-4.2638642578
 20
-62.8143424531
  0
LINE
  5
5D7
100
AcDbEntity
  8
IMPORT_IGES
100
AcDbLine
 62
253
  6
CONTINUOUS
 10
-1.0055776003
 20
-63.9759627079
 11
-1.2025310036
 21
-63.9411868985
  0
LWPOLYLINE
  5
5D8
100
AcDbEntity
  8
IMPORT_IGES
100
AcDbPolyline
 62
253
  6
CONTINUOUS
 90
15
 70
0
 10
5.4391673518
 20
-63.6894422183
 10
5.6602699518
 20
-63.8755121205
 10
5.8624267799
 20
-64.0518838747
 10
6.045637836
 20
-64.2185574808
 10
6.2052109715
 20
-64.3702859441
 10
6.345838335
 20
-64.5123162593
 10
6.4815963728
 20
-64.6603894106
 10
6.6188084605
 20
-64.8203607586
 10
6.7511512224
 20
-64.9863749427
 10
6.873730978
 20
-65.1566068649
 10
6.985935246
 20
-65.3319735163
 10
7.0883765076
 20
-65.5115579058
 10
7.1779985265
 20
-65.6907839626
 10
7.2538299035
 20
-65.865730459
 10
7.304998928
 20
-66.0075048355
  0
LWPOLYLINE
  5
5D9
100
AcDbEntity
  8
IMPORT_IGES
100
AcDbPolyline
 62
253
  6
CONTINUOUS
 90
13
 70
0
 10
11.2251044525
 20
-63.0212387655
 10
11.2220989845
 20
-62.9938166405
 10
11.2140920504
 20
-62.9669445704
 10
11.2012185098
 20
-62.9410751576
 10
11.1836951899
 20
-62.9166441179
 10
11.1618172335
 20
-62.8940629384
 10
11.1359531276
 20
-62.8737119467
 10
11.1065384977
 20
-62.8559339105
 10
11.0740687701
 20
-62.8410282638
 10
11.0390908278
 20
-62.8292460603
 10
11.002193799
 20
-62.8207857459
 10
10.9639991351
 20
-62.8157898165
 10
10.9251501434
 20
-62.8143424179
  0
LWPOLYLINE
  5
5DA
100
AcDbEntity
  8
IMPORT_IGES
100
AcDbPolyline
 62
253
  6
CONTINUOUS
 90
13
 70
0
 10
11.1981538981
 20
-61.4772425362
 10
11.1951961007
 20
-61.4500564027
 10
11.1873654672
 20
-61.4235171677
 10
11.174851261
 20
-61.3980509885
 10
11.1580164259
 20
-61.3741802123
 10
11.1371308882
 20
-61.3521293081
 10
11.1121523445
 20
-61.331921293
 10
11.0831537117
 20
-61.3138507411
 10
11.0506654922
 20
-61.2984580988
 10
11.0153099106
 20
-61.2861575778
 10
10.9777118863
 20
-61.277241161
 10
10.9384484401
 20
-61.2719162198
 10
10.8981989754
 20
-61.2703519151
  0
LWPOLYLINE
  5
5DB
100
AcDbEntity
  8
ASSI
100
AcDbPolyline
 62
253
  6
CONTINUOUS
 90
31
 70
0
 10
11.1935075762
 20
-46.7664514952
 10
11.1938869079
 20
-46.7777616457
 10
11.1949478899
 20
-46.7890409106
 10
11.1966876247
 20
-46.8002584885
 10
11.1991013617
 20
-46.8113837466
 10
11.2021825092
 20
-46.8223863041
 10
11.2059226535
 20
-46.8332361153
 10
11.2103115809
 20
-46.8439035518
 10
11.2153373062
 20
-46.8543594828
 10
11.2209861052
 20
-46.8645753556
 10
11.2272425521
 20
-46.8745232727
 10
11.2340895621
 20
-46.8841760683
 10
11.2415084372
 20
-46.8935073828
 10
11.2494789181
 20
-46.9024917343
 10
11.2579792391
 20
-46.9111045883
 10
11.2669861876
 20
-46.9193224251
 10
11.2764751676
 20
-46.9271228033
 10
11.2864202665
 20
-46.9344844218
 10
11.2967943264
 20
-46.9413871776
 10
11.3075690179
 20
-46.9478122207
 10
11.3187149176
 20
-46.9537420056
 10
11.3302015884
 20
-46.9591603393
 10
11.3419976626
 20
-46.9640524255
 10
11.3540709275
 20
-46.9684049049
 10
11.3663884136
 20
-46.9722058918
 10
11.3789164845
 20
-46.9754450066
 10
11.3916209286
 20
-46.9781134038
 10
11.4044670527
 20
-46.9802037967
 10
11.4174197767
 20
-46.9817104768
 10
11.4304437295
 20
-46.9826293297
 10
11.4435033454
 20
-46.9829578461
  0
LWPOLYLINE
  5
5DC
100
AcDbEntity
  8
ASSI
100
AcDbPolyline
 62
253
  6
CONTINUOUS
 90
31
 70
0
 10
13.5847639082
 20
-94.4551266298
 10
13.5843853526
 20
-94.4438286575
 10
13.583326225
 20
-94.4325583535
 10
13.5815888485
 20
-94.4213464837
 10
13.5791771471
 20
-94.4102226746
 10
13.5760972768
 20
-94.3992184225
 10
13.5723582258
 20
-94.3883668827
 10
13.5679706814
 20
-94.3776987597
 10
13.5629462824
 20
-94.3672420864
 10
13.5572986018
 20
-94.3570251675
 10
13.5510429093
 20
-94.3470757624
 10
13.5441963347
 20
-94.3374212379
 10
13.5367777264
 20
-94.3280882144
 10
13.5288074223
 20
-94.3191022643
 10
13.5203071275
 20
-94.3104878451
 10
13.511300037
 20
-94.3022684667
 10
13.5018107334
 20
-94.29446657
 10
13.4918651463
 20
-94.2871034818
 10
13.4814904634
 20
-94.2801993329
 10
13.470715031
 20
-94.2737729864
 10
13.459568273
 20
-94.2678419894
 10
13.4480806359
 20
-94.2624225421
 10
13.4362834792
 20
-94.2575294401
 10
13.4242090428
 20
-94.253176057
 10
13.4118903632
 20
-94.2493742996
 10
13.3993611278
 20
-94.2461345532
 10
13.386655525
 20
-94.2434656467
 10
13.3738082042
 20
-94.2413748543
 10
13.3608542369
 20
-94.2398678844
 10
13.3478290232
 20
-94.238948856
 10
13.334768139
 20
-94.2386202789
  0
LINE
  5
5DD
100
AcDbEntity
  8
IMPORT_IGES
100
AcDbLine
 62
7
  6
CONTINUOUS
 10
11.3618570366
 20
-70.9657890625
 11
11.2491513898
 21
-64.508886879
  0
LINE
  5
5DE
100
AcDbEntity
  8
IMPORT_IGES
100
AcDbLine
 62
7
  6
CONTINUOUS
 10
11.1956415255
 20
-61.3333088074
 11
11.2510709189
 21
-64.5088566306
  0
LINE
  5
5DF
100
AcDbEntity
  8
ASSI
100
AcDbLine
 62
253
  6
CONTINUOUS
 10
11.4435033454
 20
-94.2386202789
 11
11.4384127443
 21
-93.7334387933
  0
LINE
  5
5E0
100
AcDbEntity
  8
ASSI
100
AcDbLine
 62
7
  6
CONTINUOUS
 10
11.1891357422
 20
-46.7664514952
 11
11.1891357422
 21
-48.2107890625
  0
LINE
  5
5E1
100
AcDbEntity
  8
ASSI
100
AcDbLine
 62
7
  6
CONTINUOUS
 10
11.1891357422
 20
-49.2107890625
 11
11.1891357422
 21
-49.7107890625
  0
LINE
  5
5E2
100
AcDbEntity
  8
ASSI
100
AcDbLine
 62
7
  6
CONTINUOUS
 10
11.1891357422
 20
-91.5107890625
 11
11.1891357422
 21
-92.0107890625
  0
LINE
  5
5E3
100
AcDbEntity
  8
ASSI
100
AcDbLine
 62
7
  6
CONTINUOUS
 10
11.1891357422
 20
-93.0107890625
 11
11.1891357422
 21
-94.4551266298
  0
LINE
  5
5E4
100
AcDbEntity
  8
ASSI
100
AcDbLine
 62
7
  6
CONTINUOUS
 10
11.1935075762
 20
-46.3651566657
 11
11.1935075762
 21
-46.7664514952
  0
LINE
  5
5E5
100
AcDbEntity
  8
ASSI
100
AcDbLine
 62
7
  6
CONTINUOUS
 10
11.1935075762
 20
-94.4551266298
 11
11.1935075762
 21
-94.8564214593
  0
LINE
  5
5E6
100
AcDbEntity
  8
ASSI
100
AcDbLine
 62
7
  6
CONTINUOUS
 10
11.2716820066
 20
-78.9607890625
 11
11.2716820066
 21
-80.1933353269
  0
LINE
  5
5E7
100
AcDbEntity
  8
ASSI
100
AcDbLine
 62
7
  6
CONTINUOUS
 10
11.2891357422
 20
-80.2107890625
 11
11.2891357422
 21
-78.9607890625
  0
LINE
  5
5E8
100
AcDbEntity
  8
ASSI
100
AcDbLine
 62
7
  6
CONTINUOUS
 10
11.3492490039
 20
-64.3235089611
 11
11.3492490039
 21
-62.6209023243
  0
LINE
  5
5E9
100
AcDbEntity
  8
ASSI
100
AcDbLine
 62
7
  6
CONTINUOUS
 10
11.4391357422
 20
-64.7107890625
 11
11.4391357422
 21
-62.7107890625
  0
LINE
  5
5EA
100
AcDbEntity
  8
ASSI
100
AcDbLine
 62
253
  6
CONTINUOUS
 10
11.4435033454
 20
-46.1151608965
 11
11.4435033454
 21
-46.9829578461
  0
LINE
  5
5EB
100
AcDbEntity
  8
ASSI
100
AcDbLine
 62
253
  6
CONTINUOUS
 10
11.4435033454
 20
-94.2386202789
 11
11.4435033454
 21
-95.1064172285
  0
LINE
  5
5EC
100
AcDbEntity
  8
ASSI
100
AcDbLine
 62
253
  6
CONTINUOUS
 10
11.8695151528
 20
-83.0209023243
 11
11.8695151528
 21
-82.2006758007
  0
LINE
  5
5ED
100
AcDbEntity
  8
ASSI
100
AcDbLine
 62
253
  6
CONTINUOUS
 10
11.8695151528
 20
-78.9607890625
 11
11.8695151528
 21
-77.9006758007
  0
LINE
  5
5EE
100
AcDbEntity
  8
ASSI
100
AcDbLine
 62
253
  6
CONTINUOUS
 10
11.8695151528
 20
-71.0209023243
 11
11.8695151528
 21
-70.2006758007
  0
LINE
  5
5EF
100
AcDbEntity
  8
ASSI
100
AcDbLine
 62
253
  6
CONTINUOUS
 10
11.8695151528
 20
-62.6209023243
 11
11.8695151528
 21
-61.8006758007
  0
LINE
  5
5F0
100
AcDbEntity
  8
ASSI
100
AcDbLine
 62
253
  6
CONTINUOUS
 10
12.151422939
 20
-83.0226249552
 11
12.151422939
 21
-82.1989531698
  0
LINE
  5
5F1
100
AcDbEntity
  8
ASSI
100
AcDbLine
 62
253
  6
CONTINUOUS
 10
12.151422939
 20
-78.9607890625
 11
12.151422939
 21
-77.8989531698
  0
LINE
  5
5F2
100
AcDbEntity
  8
ASSI
100
AcDbLine
 62
253
  6
CONTINUOUS
 10
12.151422939
 20
-71.0226249552
 11
12.151422939
 21
-70.1989531698
  0
LINE
  5
5F3
100
AcDbEntity
  8
ASSI
100
AcDbLine
 62
253
  6
CONTINUOUS
 10
12.151422939
 20
-62.6226249552
 11
12.151422939
 21
-61.7989531698
  0
LINE
  5
5F4
100
AcDbEntity
  8
ASSI
100
AcDbLine
 62
7
  6
CONTINUOUS
 10
12.4337856643
 20
-85.3107890625
 11
12.4337856643
 21
-83.1107890625
  0
LINE
  5
5F5
100
AcDbEntity
  8
ASSI
100
AcDbLine
 62
7
  6
CONTINUOUS
 10
12.4337856643
 20
-61.7107890625
 11
12.4337856643
 21
-50.6774471502
  0
LINE
  5
5F6
100
AcDbEntity
  8
ASSI
100
AcDbLine
 62
7
  6
CONTINUOUS
 10
12.4337856643
 20
-62.7107890625
 11
12.4337856643
 21
-70.1107890625
  0
LINE
  5
5F7
100
AcDbEntity
  8
ASSI
100
AcDbLine
 62
7
  6
CONTINUOUS
 10
12.4337856643
 20
-71.1107890625
 11
12.4337856643
 21
-77.8107890625
  0
LINE
  5
5F8
100
AcDbEntity
  8
ASSI
100
AcDbLine
 62
7
  6
CONTINUOUS
 10
12.4337856643
 20
-78.9607890625
 11
12.4337856643
 21
-82.1107890625
  0
LINE
  5
5F9
100
AcDbEntity
  8
ASSI
100
AcDbLine
 62
7
  6
CONTINUOUS
 10
12.4686957942
 20
-89.9107890625
 11
12.4686957942
 21
-85.8900869044
  0
LINE
  5
5FA
100
AcDbEntity
  8
ASSI
100
AcDbLine
 62
7
  6
CONTINUOUS
 10
12.5262975084
 20
-90.821892205
 11
12.5262975084
 21
-90.4107890625
  0
LINE
  5
5FB
100
AcDbEntity
  8
ASSI
100
AcDbLine
 62
7
  6
CONTINUOUS
 10
12.5891357422
 20
-50.2110179146
 11
12.5891357422
 21
-91.0105602104
  0
LINE
  5
5FC
100
AcDbEntity
  8
ASSI
100
AcDbLine
 62
253
  6
CONTINUOUS
 10
11.4384127443
 20
-47.4881393317
 11
11.4435033454
 21
-46.9829578461
  0
LINE
  5
5FD
100
AcDbEntity
  8
IMPORT_IGES
100
AcDbLine
 62
7
  6
CONTINUOUS
 10
11.3618570366
 20
-70.9657890625
 11
11.1942842988
 21
-80.5660247808
  0
LWPOLYLINE
  5
5FE
100
AcDbEntity
  8
ASSI
100
AcDbPolyline
 62
253
  6
CONTINUOUS
 90
31
 70
0
 10
11.1935075762
 20
-94.4551266298
 10
11.1938861318
 20
-94.4438286575
 10
11.1949452594
 20
-94.4325583535
 10
11.1966826359
 20
-94.4213464837
 10
11.1990943373
 20
-94.4102226746
 10
11.2021742076
 20
-94.3992184225
 10
11.2059132586
 20
-94.3883668827
 10
11.210300803
 20
-94.3776987597
 10
11.215325202
 20
-94.3672420864
 10
11.2209728826
 20
-94.3570251675
 10
11.2272285751
 20
-94.3470757624
 10
11.2340751497
 20
-94.3374212379
 10
11.241493758
 20
-94.3280882144
 10
11.2494640621
 20
-94.3191022643
 10
11.2579643569
 20
-94.3104878451
 10
11.2669714473
 20
-94.3022684667
 10
11.276460751
 20
-94.29446657
 10
11.2864063381
 20
-94.2871034818
 10
11.296781021
 20
-94.2801993329
 10
11.3075564534
 20
-94.2737729864
 10
11.3187032114
 20
-94.2678419894
 10
11.3301908484
 20
-94.2624225421
 10
11.3419880051
 20
-94.2575294401
 10
11.3540624416
 20
-94.253176057
 10
11.3663811212
 20
-94.2493742996
 10
11.3789103566
 20
-94.2461345532
 10
11.3916159594
 20
-94.2434656467
 10
11.4044632802
 20
-94.2413748543
 10
11.4174172475
 20
-94.2398678844
 10
11.4304424612
 20
-94.238948856
 10
11.4435033454
 20
-94.2386202789
  0
LWPOLYLINE
  5
5FF
100
AcDbEntity
  8
ASSI
100
AcDbPolyline
 62
253
  6
CONTINUOUS
 90
31
 70
0
 10
13.5847639082
 20
-46.7664514952
 10
13.5843853526
 20
-46.7777494675
 10
13.583326225
 20
-46.7890197715
 10
13.5815888485
 20
-46.8002316413
 10
13.5791771471
 20
-46.8113554504
 10
13.5760972768
 20
-46.8223597025
 10
13.5723582258
 20
-46.8332112423
 10
13.5679706814
 20
-46.8438793653
 10
13.5629462824
 20
-46.8543360386
 10
13.5572986018
 20
-46.8645529575
 10
13.5510429093
 20
-46.8745023626
 10
13.5441963347
 20
-46.8841568871
 10
13.5367777264
 20
-46.8934899106
 10
13.5288074223
 20
-46.9024758607
 10
13.5203071275
 20
-46.9110902799
 10
13.511300037
 20
-46.9193096583
 10
13.5018107334
 20
-46.927111555
 10
13.4918651463
 20
-46.9344746432
 10
13.4814904634
 20
-46.9413787921
 10
13.470715031
 20
-46.9478051386
 10
13.459568273
 20
-46.9537361356
 10
13.4480806359
 20
-46.9591555829
 10
13.4362834792
 20
-46.9640486849
 10
13.4242090428
 20
-46.968402068
 10
13.4118903632
 20
-46.9722038254
 10
13.3993611278
 20
-46.9754435718
 10
13.386655525
 20
-46.9781124783
 10
13.3738082042
 20
-46.9802032707
 10
13.3608542369
 20
-46.9817102406
 10
13.3478290232
 20
-46.982629269
 10
13.334768139
 20
-46.9829578461
  0
LWPOLYLINE
  5
600
100
AcDbEntity
  8
IMPORT_IGES
100
AcDbPolyline
 62
253
  6
CONTINUOUS
 90
13
 70
0
 10
11.2240990673
 20
-78.8579378403
 10
11.2211097005
 20
-78.8884827498
 10
11.2132891287
 20
-78.9183528321
 10
11.200807811
 20
-78.9470694441
 10
11.1840012761
 20
-78.9740530093
 10
11.1631271287
 20
-78.9990310367
 10
11.1381651855
 20
-79.0219403251
 10
11.1092151272
 20
-79.0424335995
 10
11.0767874592
 20
-79.059922121
 10
11.0414622317
 20
-79.0739529692
 10
11.0038421268
 20
-79.0841867685
 10
10.9645133286
 20
-79.090368873
 10
10.9241557365
 20
-79.0922929008
  0
LINE
  5
601
100
AcDbEntity
  8
ASSI
100
AcDbLine
 62
7
  6
CONTINUOUS
 10
10.2600799295
 20
-91.3221210571
 11
10.2379734168
 21
-91.5212594429
  0
LINE
  5
602
100
AcDbEntity
  8
ASSI
100
AcDbLine
 62
7
  6
CONTINUOUS
 10
-1.4608642578
 20
-93.0107890625
 11
-1.4167969906
 21
-92.9446872294
  0
LWPOLYLINE
  5
603
100
AcDbEntity
  8
IMPORT_IGES
100
AcDbPolyline
 62
253
  6
CONTINUOUS
 90
6
 70
0
 10
6.9749991135
 20
-79.1366371931
 10
6.9637013861
 20
-79.1494950797
 10
6.9545668267
 20
-79.1635337012
 10
6.947810831
 20
-79.1785052186
 10
6.9435890162
 20
-79.1941785808
 10
6.9420301569
 20
-79.2102817557
  0
LWPOLYLINE
  5
604
100
AcDbEntity
  8
IMPORT_IGES
100
AcDbPolyline
 62
7
  6
CONTINUOUS
 90
6
 70
0
 10
6.9882171165
 20
-79.3409236354
 10
6.9965348086
 20
-79.3338936273
 10
7.0054893399
 20
-79.3273856733
 10
7.0150329822
 20
-79.3214798635
 10
7.0252265284
 20
-79.3161932105
 10
7.0281568911
 20
-79.314851379
  0
LWPOLYLINE
  5
605
100
AcDbEntity
  8
IMPORT_IGES
100
AcDbPolyline
 62
253
  6
CONTINUOUS
 90
13
 70
0
 10
-5.0468779427
 20
-62.8143424595
 10
-5.0857272564
 20
-62.8157898188
 10
-5.1239221613
 20
-62.8207857536
 10
-5.160819344
 20
-62.8292460955
 10
-5.1957973325
 20
-62.8410283172
 10
-5.2282670351
 20
-62.8559339569
 10
-5.2576816439
 20
-62.873711982
 10
-5.2835457497
 20
-62.8940629749
 10
-5.3054237062
 20
-62.9166441557
 10
-5.322947026
 20
-62.9410751928
 10
-5.3358205665
 20
-62.9669445978
 10
-5.3438275004
 20
-62.9938166561
 10
-5.3468329681
 20
-63.0212387655
  0
LINE
  5
606
100
AcDbEntity
  8
ASSI
100
AcDbLine
 62
7
  6
CONTINUOUS
 10
-6.2731514546
 20
-62.6226249552
 11
-6.7108642578
 21
-62.6331199392
  0
LINE
  5
607
100
AcDbEntity
  8
ASSI
100
AcDbLine
 62
7
  6
CONTINUOUS
 10
12.5891357422
 20
-61.7884581858
 11
12.151422939
 21
-61.7989531698
  0
LWPOLYLINE
  5
608
100
AcDbEntity
  8
IMPORT_IGES
100
AcDbPolyline
 62
253
  6
CONTINUOUS
 90
13
 70
0
 10
-0.8818860035
 20
-62.8143424759
 10
-0.9065826681
 20
-62.8146043175
 10
-0.9312416673
 20
-62.8170816434
 10
-0.9552457976
 20
-62.8217777831
 10
-0.9777093154
 20
-62.8284791572
 10
-0.9984320422
 20
-62.8370176705
 10
-1.0177531732
 20
-62.8475563794
 10
-1.0352243435
 20
-62.8600033947
 10
-1.0502625186
 20
-62.874039919
 10
-1.0627511349
 20
-62.8896734307
 10
-1.0723128222
 20
-62.9066559114
 10
-1.0785711337
 20
-62.924418024
 10
-1.0814441145
 20
-62.9424658831
  0
LWPOLYLINE
  5
609
100
AcDbEntity
  8
IMPORT_IGES
100
AcDbPolyline
 62
253
  6
CONTINUOUS
 90
13
 70
0
 10
-1.2608642578
 20
-62.335907855
 10
-1.2350797993
 20
-62.335809413
 10
-1.2098045326
 20
-62.3355169589
 10
-1.1854516393
 20
-62.3350371565
 10
-1.1625234629
 20
-62.3343833562
 10
-1.1412551724
 20
-62.3335658842
 10
-1.1216979209
 20
-62.332583773
 10
-1.1041456256
 20
-62.3314437503
 10
-1.0891186597
 20
-62.3301632087
 10
-1.0770234578
 20
-62.3287568458
 10
-1.0681499487
 20
-62.3272463897
 10
-1.0627064657
 20
-62.3256585514
 10
-1.0608642578
 20
-62.3240207809
  0
LINE
  5
60A
100
AcDbEntity
  8
IMPORT_IGES
100
AcDbLine
 62
253
  6
CONTINUOUS
 10
-4.263865899
 20
-62.8143424534
 11
-5.0468786596
 21
-62.8143424533
  0
LINE
  5
60B
100
AcDbEntity
  8
IMPORT_IGES
100
AcDbLine
 62
253
  6
CONTINUOUS
 10
10.1421357422
 20
-62.8143424532
 11
10.925150144
 21
-62.8143424533
  0
LINE
  5
60C
100
AcDbEntity
  8
IMPORT_IGES
100
AcDbLine
 62
253
  6
CONTINUOUS
 10
6.7601583469
 20
-62.8143424473
 11
-0.8818866923
 21
-62.8143424002
  0
LINE
  5
60D
100
AcDbEntity
  8
ASSI
100
AcDbLine
 62
7
  6
CONTINUOUS
 10
12.4337856643
 20
-62.7107890625
 11
11.4391357422
 21
-62.7107890625
  0
LINE
  5
60E
100
AcDbEntity
  8
ASSI
100
AcDbLine
 62
7
  6
CONTINUOUS
 10
-5.5608642578
 20
-62.7107890625
 11
-6.55551418
 21
-62.7107890625
  0
LINE
  5
60F
100
AcDbEntity
  8
ASSI
100
AcDbLine
 62
7
  6
CONTINUOUS
 10
11.8695151528
 20
-62.6209023243
 11
11.3492490039
 21
-62.6209023243
  0
LINE
  5
610
100
AcDbEntity
  8
ASSI
100
AcDbLine
 62
7
  6
CONTINUOUS
 10
-5.4709775196
 20
-62.6209023243
 11
-5.9912436684
 21
-62.6209023243
  0
LINE
  5
611
100
AcDbEntity
  8
ASSI
100
AcDbLine
 62
7
  6
CONTINUOUS
 10
11.8695151528
 20
-61.8006758007
 11
11.2037994467
 21
-61.8006758007
  0
LINE
  5
612
100
AcDbEntity
  8
ASSI
100
AcDbLine
 62
7
  6
CONTINUOUS
 10
-5.9912436684
 20
-61.8006758007
 11
-5.3255279623
 21
-61.8006758007
  0
LINE
  5
613
100
AcDbEntity
  8
ASSI
100
AcDbLine
 62
7
  6
CONTINUOUS
 10
-5.3239589835
 20
-61.7107890625
 11
-6.55551418
 21
-61.7107890625
  0
LINE
  5
614
100
AcDbEntity
  8
ASSI
100
AcDbLine
 62
7
  6
CONTINUOUS
 10
11.2022304679
 20
-61.7107890625
 11
12.4337856643
 21
-61.7107890625
  0
LWPOLYLINE
  5
615
100
AcDbEntity
  8
IMPORT_IGES
100
AcDbPolyline
 62
253
  6
CONTINUOUS
 90
13
 70
0
 10
7.1391357422
 20
-62.335907855
 10
7.1130305037
 20
-62.3358069369
 10
7.0873719332
 20
-62.3355059113
 10
7.0625990557
 20
-62.3350099289
 10
7.0391357422
 20
-62.3343274759
 10
7.0173834564
 20
-62.3334702294
 10
6.997714386
 20
-62.3324528568
 10
6.9804650741
 20
-62.3312927657
 10
6.9659306614
 20
-62.3300098055
 10
6.9543598357
 20
-62.3286259281
 10
6.9459505769
 20
-62.3271648119
 10
6.9408467699
 20
-62.3256514572
 10
6.9391357422
 20
-62.3241117578
  0
LWPOLYLINE
  5
616
100
AcDbEntity
  8
IMPORT_IGES
100
AcDbPolyline
 62
253
  6
CONTINUOUS
 90
13
 70
0
 10
6.7601580288
 20
-62.8143500578
 10
6.7848541253
 20
-62.8146118222
 10
6.8095125962
 20
-62.8170889349
 10
6.8335162796
 20
-62.8217847375
 10
6.8559795132
 20
-62.8284856969
 10
6.876702082
 20
-62.8370237386
 10
6.8960230645
 20
-62.8475618582
 10
6.9134941176
 20
-62.8600081443
 10
6.9285322845
 20
-62.8740438324
 10
6.9410210314
 20
-62.8896763864
 10
6.9505830424
 20
-62.9066578148
 10
6.9568419086
 20
-62.9244188527
 10
6.9597156779
 20
-62.9424656791
  0
LINE
  5
617
100
AcDbEntity
  8
ASSI
100
AcDbLine
 62
7
  6
CONTINUOUS
 10
12.5891357422
 20
-62.6331199392
 11
12.151422939
 21
-62.6226249552
  0
LINE
  5
618
100
AcDbEntity
  8
ASSI
100
AcDbLine
 62
7
  6
CONTINUOUS
 10
-6.2731514546
 20
-61.7989531698
 11
-6.7108642578
 21
-61.7884581858
  0
LWPOLYLINE
  5
619
100
AcDbEntity
  8
IMPORT_IGES
100
AcDbPolyline
 62
253
  6
CONTINUOUS
 90
13
 70
0
 10
6.7391357422
 20
-62.1826904034
 10
6.7649202274
 20
-62.1838706096
 10
6.7901955124
 20
-62.1873767973
 10
6.8145484154
 20
-62.1931290724
 10
6.8374765919
 20
-62.2009673783
 10
6.8587448753
 20
-62.2107679127
 10
6.8783021172
 20
-62.2225422759
 10
6.8958544015
 20
-62.2362503246
 10
6.9108813561
 20
-62.251642984
 10
6.92297655
 20
-62.2684226341
 10
6.9318500544
 20
-62.2862885557
 10
6.937293535
 20
-62.3049612554
 10
6.9391357422
 20
-62.3241118896
  0
LWPOLYLINE
  5
61A
100
AcDbEntity
  8
IMPORT_IGES
100
AcDbPolyline
 62
253
  6
CONTINUOUS
 90
13
 70
0
 10
-3.9396616015
 20
-59.960789102
 10
-3.9348006669
 20
-59.9624407807
 10
-3.9299371486
 20
-59.9674839867
 10
-3.9252006695
 20
-59.9759181785
 10
-3.9207567438
 20
-59.9874416571
 10
-3.9166743641
 20
-60.0017659681
 10
-3.9129469079
 20
-60.0189121773
 10
-3.9096760666
 20
-60.0384578992
 10
-3.9069365664
 20
-60.0598958902
 10
-3.9047257901
 20
-60.083307118
 10
-3.9031022786
 20
-60.1083079269
 10
-3.9021227499
 20
-60.1339678222
 10
-3.9017829481
 20
-60.1595662599
  0
LINE
  5
61B
100
AcDbEntity
  8
ASSI
100
AcDbLine
 62
7
  6
CONTINUOUS
 10
-1.4608642578
 20
-48.2107890625
 11
-1.4167969906
 21
-48.2768908956
  0
LINE
  5
61C
100
AcDbEntity
  8
ASSI
100
AcDbLine
 62
7
  6
CONTINUOUS
 10
10.2379734168
 20
-49.7003186821
 11
10.2909144275
 21
-50.1772182981
  0
LINE
  5
61D
100
AcDbEntity
  8
ASSI
100
AcDbLine
 62
253
  6
CONTINUOUS
 10
13.334768139
 20
-46.9829578461
 11
13.3398587401
 21
-47.4881393317
  0
LINE
  5
61E
100
AcDbEntity
  8
ASSI
100
AcDbLine
 62
253
  6
CONTINUOUS
 10
13.5847639082
 20
-46.7664514952
 11
13.5891357422
 21
-47.2003039143
  0
LINE
  5
61F
100
AcDbEntity
  8
ASSI
100
AcDbLine
 62
253
  6
CONTINUOUS
 10
13.5847596281
 20
-46.3637022326
 11
13.5847639082
 21
-46.3651566657
  0
LINE
  5
620
100
AcDbEntity
  8
ASSI
100
AcDbLine
 62
253
  6
CONTINUOUS
 10
13.334768139
 20
-46.1151608965
 11
13.334768139
 21
-46.9829578461
  0
LINE
  5
621
100
AcDbEntity
  8
ASSI
100
AcDbLine
 62
253
  6
CONTINUOUS
 10
13.334768139
 20
-94.2386202789
 11
13.334768139
 21
-95.1064172285
  0
LINE
  5
622
100
AcDbEntity
  8
ASSI
100
AcDbLine
 62
7
  6
CONTINUOUS
 10
13.5847639082
 20
-94.8564214593
 11
13.5847639082
 21
-94.4551266298
  0
LINE
  5
623
100
AcDbEntity
  8
ASSI
100
AcDbLine
 62
7
  6
CONTINUOUS
 10
13.5847639082
 20
-46.7664514952
 11
13.5847639082
 21
-46.3651566657
  0
LINE
  5
624
100
AcDbEntity
  8
ASSI
100
AcDbLine
 62
7
  6
CONTINUOUS
 10
13.5891357422
 20
-46.7664514952
 11
13.5891357422
 21
-48.2110990945
  0
LINE
  5
625
100
AcDbEntity
  8
ASSI
100
AcDbLine
 62
7
  6
CONTINUOUS
 10
13.5891357422
 20
-93.0104790305
 11
13.5891357422
 21
-94.4551266298
  0
LINE
  5
626
100
AcDbEntity
  8
ASSI
100
AcDbLine
 62
7
  6
CONTINUOUS
 10
14.0891357422
 20
-92.5019670031
 11
14.0891357422
 21
-48.7196111219
  0
LINE
  5
627
100
AcDbEntity
  8
ASSI
100
AcDbLine
 62
253
  6
CONTINUOUS
 10
13.3398587401
 20
-93.7334387933
 11
13.334768139
 21
-94.2386202789
  0
LINE
  5
628
100
AcDbEntity
  8
ASSI
100
AcDbLine
 62
253
  6
CONTINUOUS
 10
13.5891357422
 20
-94.0212742107
 11
13.5847639082
 21
-94.4551266298
  0
LWPOLYLINE
  5
629
100
AcDbEntity
  8
ASSI
100
AcDbPolyline
 62
7
  6
CONTINUOUS
 90
5
 70
0
 10
13.5891357422
 20
-94.8607932933
 10
13.5888525919
 20
-94.8726885785
 10
13.5880037764
 20
-94.8845569181
 10
13.5865912163
 20
-94.8963714286
 10
13.5846181099
 20
-94.90810535
  0
LWPOLYLINE
  5
62A
100
AcDbEntity
  8
ASSI
100
AcDbPolyline
 62
7
  6
CONTINUOUS
 90
31
 70
0
 10
13.5847639082
 20
-94.8564214593
 10
13.5844208696
 20
-94.8695049453
 10
13.5833935797
 20
-94.8825525719
 10
13.5816848542
 20
-94.895528578
 10
13.5792993762
 20
-94.9083973989
 10
13.576243684
 20
-94.9211237634
 10
13.5725261526
 20
-94.9336727911
 10
13.5681569711
 20
-94.9460100874
 10
13.5631481146
 20
-94.958101838
 10
13.5575133115
 20
-94.9699149018
 10
13.5512680056
 20
-94.9814169014
 10
13.5444293142
 20
-94.9925763119
 10
13.5370159808
 20
-95.0033625475
 10
13.529048324
 20
-95.0137460451
 10
13.5205481817
 20
-95.0236983456
 10
13.5115388512
 20
-95.0331921715
 10
13.5020450253
 20
-95.042201502
 10
13.4920927248
 20
-95.0507016443
 10
13.4817092272
 20
-95.0586693011
 10
13.4709229916
 20
-95.0660826345
 10
13.4597635811
 20
-95.0729213259
 10
13.4482615815
 20
-95.0791666318
 10
13.4364485177
 20
-95.0848014349
 10
13.424356767
 20
-95.0898102914
 10
13.4120194708
 20
-95.0941794729
 10
13.3994704431
 20
-95.0978970043
 10
13.3867440785
 20
-95.1009526965
 10
13.3738752577
 20
-95.1033381745
 10
13.3608992516
 20
-95.1050469
 10
13.347851625
 20
-95.1060741899
 10
13.334768139
 20
-95.1064172285
  0
LINE
  5
62B
100
AcDbEntity
  8
IMPORT_IGES
100
AcDbLine
 62
7
  6
CONTINUOUS
 10
10.3891357422
 20
-78.7559430368
 11
10.3192185604
 21
-78.8650890516
  0
LWPOLYLINE
  5
62C
100
AcDbEntity
  8
IMPORT_IGES
100
AcDbPolyline
 62
7
  6
CONTINUOUS
 90
12
 70
0
 10
7.0281098466
 20
-79.3147088694
 10
7.0364696035
 20
-79.3110039678
 10
7.0439945916
 20
-79.3074778891
 10
7.0511216187
 20
-79.303798458
 10
7.0577067716
 20
-79.2998887952
 10
7.0637423515
 20
-79.2956643491
 10
7.0693066779
 20
-79.2910358901
 10
7.0742223137
 20
-79.2859889862
 10
7.0784188387
 20
-79.2805220923
 10
7.0821890505
 20
-79.2746080257
 10
7.085575739
 20
-79.2682755363
 10
7.0883150839
 20
-79.2615904061
  0
LWPOLYLINE
  5
62D
100
AcDbEntity
  8
IMPORT_IGES
100
AcDbPolyline
 62
7
  6
CONTINUOUS
 90
3
 70
0
 10
7.0236950536
 20
-79.3166299551
 10
7.0373096668
 20
-79.3111396037
 10
7.0585658196
 20
-79.3041496932
  0
LWPOLYLINE
  5
62E
100
AcDbEntity
  8
IMPORT_IGES
100
AcDbPolyline
 62
253
  6
CONTINUOUS
 90
4
 70
0
 10
6.9391357434
 20
-60.1607882975
 10
6.940849551
 20
-60.1606164549
 10
6.9459558613
 20
-60.1604579892
 10
6.9543672212
 20
-60.1603101925
  0
LWPOLYLINE
  5
62F
100
AcDbEntity
  8
IMPORT_IGES
100
AcDbPolyline
 62
253
  6
CONTINUOUS
 90
13
 70
0
 10
10.1421357422
 20
-60.5142824015
 10
10.1166965677
 20
-60.5154310798
 10
10.0916265081
 20
-60.5188665968
 10
10.0673375848
 20
-60.5245450073
 10
10.0443066824
 20
-60.5323557236
 10
10.0228348478
 20
-60.542197598
 10
10.0030998652
 20
-60.5540449537
 10
9.985412698
 20
-60.5678462393
 10
9.9702900333
 20
-60.5833537343
 10
9.9581779437
 20
-60.6002081347
 10
9.9493454756
 20
-60.6180745542
 10
9.9439529124
 20
-60.63668315
 10
9.9421357422
 20
-60.6557037327
  0
LWPOLYLINE
  5
630
100
AcDbEntity
  8
IMPORT_IGES
100
AcDbPolyline
 62
253
  6
CONTINUOUS
 90
13
 70
0
 10
-5.0199281046
 20
-61.2703461904
 10
-5.0584409877
 20
-61.2717656162
 10
-5.0961596676
 20
-61.276644854
 10
-5.1324769249
 20
-61.2848607137
 10
-5.1666451818
 20
-61.2961696137
 10
-5.1983404172
 20
-61.3103863819
 10
-5.2275312079
 20
-61.3275415994
 10
-5.253798914
 20
-61.3475911221
 10
-5.2763663796
 20
-61.3701733666
 10
-5.2946332734
 20
-61.3948587392
 10
-5.3081715031
 20
-61.4212127433
 10
-5.3166732347
 20
-61.4488326884
 10
-5.3198824137
 20
-61.4772425362
  0
LINE
  5
631
100
AcDbEntity
  8
IMPORT_IGES
100
AcDbLine
 62
253
  6
CONTINUOUS
 10
6.9543672212
 20
-60.1603101925
 11
6.9804749993
 21
-60.1600273178
  0
LINE
  5
632
100
AcDbEntity
  8
IMPORT_IGES
100
AcDbLine
 62
253
  6
CONTINUOUS
 10
6.9804749993
 20
-60.1600273178
 11
7.0626070301
 21
-60.1596364797
  0
LINE
  5
633
100
AcDbEntity
  8
IMPORT_IGES
100
AcDbLine
 62
253
  6
CONTINUOUS
 10
-3.9017829483
 20
-60.1595662599
 11
-1.2608642574
 21
-60.1595438556
  0
LINE
  5
634
100
AcDbEntity
  8
IMPORT_IGES
100
AcDbLine
 62
253
  6
CONTINUOUS
 10
6.7391357422
 20
-60.1072356718
 11
-0.8608642578
 21
-60.1072356716
  0
LINE
  5
635
100
AcDbEntity
  8
IMPORT_IGES
100
AcDbLine
 62
7
  6
CONTINUOUS
 10
-3.9396616015
 20
-59.9607890625
 11
9.8179324012
 21
-59.9607890625
  0
LINE
  5
636
100
AcDbEntity
  8
IMPORT_IGES
100
AcDbLine
 62
253
  6
CONTINUOUS
 10
9.4391357422
 20
-59.8607890625
 11
-3.5608642578
 21
-59.8607890625
  0
LINE
  5
637
100
AcDbEntity
  8
ASSI
100
AcDbLine
 62
7
  6
CONTINUOUS
 10
-3.970996558
 20
-59.8006758007
 11
-3.8731285017
 21
-59.8006758007
  0
LINE
  5
638
100
AcDbEntity
  8
ASSI
100
AcDbLine
 62
7
  6
CONTINUOUS
 10
9.7513999861
 20
-59.8006758007
 11
9.8492680424
 21
-59.8006758007
  0
LINE
  5
639
100
AcDbEntity
  8
ASSI
100
AcDbLine
 62
7
  6
CONTINUOUS
 10
-3.5608642578
 20
-59.791948933
 11
-3.532907357
 21
-59.791948933
  0
LINE
  5
63A
100
AcDbEntity
  8
ASSI
100
AcDbLine
 62
7
  6
CONTINUOUS
 10
9.4111788413
 20
-59.791948933
 11
9.4391357422
 21
-59.791948933
  0
LINE
  5
63B
100
AcDbEntity
  8
IMPORT_IGES
100
AcDbLine
 62
7
  6
CONTINUOUS
 10
9.338863555
 20
-59.7607890625
 11
-3.4605920706
 21
-59.7607890625
  0
LINE
  5
63C
100
AcDbEntity
  8
ASSI
100
AcDbLine
 62
7
  6
CONTINUOUS
 10
-4.0608832963
 20
-59.7107890625
 11
-2.5608642578
 21
-59.7107890625
  0
LINE
  5
63D
100
AcDbEntity
  8
ASSI
100
AcDbLine
 62
7
  6
CONTINUOUS
 10
-1.5608642578
 20
-59.7107890625
 11
7.4391357422
 21
-59.7107890625
  0
LINE
  5
63E
100
AcDbEntity
  8
ASSI
100
AcDbLine
 62
7
  6
CONTINUOUS
 10
8.4391357422
 20
-59.7107890625
 11
9.9391547807
 21
-59.7107890625
  0
LINE
  5
63F
100
AcDbEntity
  8
IMPORT_IGES
100
AcDbLine
 62
253
  6
CONTINUOUS
 10
9.7800639407
 20
-60.1595664693
 11
7.0626070301
 21
-60.1596364797
  0
LINE
  5
640
100
AcDbEntity
  8
IMPORT_IGES
100
AcDbLine
 62
253
  6
CONTINUOUS
 10
-1.2608642574
 20
-60.1595444975
 11
-1.139114634
 21
-60.1598012422
  0
LWPOLYLINE
  5
641
100
AcDbEntity
  8
IMPORT_IGES
100
AcDbPolyline
 62
253
  6
CONTINUOUS
 90
6
 70
0
 10
-1.139114634
 20
-60.1598012422
 10
-1.0876609237
 20
-60.1601669185
 10
-1.0760895501
 20
-60.1603111329
 10
-1.0676797135
 20
-60.1604588857
 10
-1.0625754624
 20
-60.1606172927
 10
-1.0608642578
 20
-60.1607890625
  0
LWPOLYLINE
  5
642
100
AcDbEntity
  8
IMPORT_IGES
100
AcDbPolyline
 62
253
  6
CONTINUOUS
 90
13
 70
0
 10
-4.263865899
 20
-60.514261353
 10
-4.2377599234
 20
-60.5154804919
 10
-4.2121008011
 20
-60.5190964537
 10
-4.1873275713
 20
-60.5250474362
 10
-4.1638641525
 20
-60.5332308458
 10
-4.1421119238
 20
-60.5435074321
 10
-4.1224429016
 20
-60.5557037327
 10
-4.1051935898
 20
-60.5696118658
 10
-4.0906591771
 20
-60.5849930546
 10
-4.0790883513
 20
-60.6015841227
 10
-4.0706790926
 20
-60.6191011923
 10
-4.0655752855
 20
-60.6372445415
 10
-4.0638642578
 20
-60.6557037327
  0
LINE
  5
643
100
AcDbEntity
  8
ASSI
100
AcDbLine
 62
7
  6
CONTINUOUS
 10
11.4391357422
 20
-64.7107890625
 11
11.3518442177
 21
-64.623497538
  0
LINE
  5
644
100
AcDbEntity
  8
ASSI
100
AcDbLine
 62
7
  6
CONTINUOUS
 10
7.4391357422
 20
-59.7107890625
 11
7.4891357422
 21
-59.7607890625
  0
LINE
  5
645
100
AcDbEntity
  8
ASSI
100
AcDbLine
 62
7
  6
CONTINUOUS
 10
11.3492490039
 20
-62.6209023243
 11
11.4391357422
 21
-62.7107890625
  0
LWPOLYLINE
  5
646
100
AcDbEntity
  8
IMPORT_IGES
100
AcDbPolyline
 62
253
  6
CONTINUOUS
 90
8
 70
0
 10
9.910526423
 20
-60.3793618517
 10
9.9176612115
 20
-60.3934628028
 10
9.9242098154
 20
-60.4067297112
 10
9.9299449675
 20
-60.4186084117
 10
9.9348542205
 20
-60.4283088929
 10
9.9387221101
 20
-60.4355693834
 10
9.9412383987
 20
-60.440656473
 10
9.9421357409
 20
-60.4435739855
  0
LWPOLYLINE
  5
647
100
AcDbEntity
  8
IMPORT_IGES
100
AcDbPolyline
 62
253
  6
CONTINUOUS
 90
3
 70
0
 10
9.8155741038
 20
-60.1891271899
 10
9.8941024959
 20
-60.3461181357
 10
9.910526423
 20
-60.3793618517
  0
LWPOLYLINE
  5
648
100
AcDbEntity
  8
IMPORT_IGES
100
AcDbPolyline
 62
253
  6
CONTINUOUS
 90
3
 70
0
 10
10.1849593003
 20
-80.9738928975
 10
10.1880960365
 20
-80.9697023876
 10
10.1891357421
 20
-80.9679334035
  0
LWPOLYLINE
  5
649
100
AcDbEntity
  8
IMPORT_IGES
100
AcDbPolyline
 62
253
  6
CONTINUOUS
 90
5
 70
0
 10
10.1248372508
 20
-81.0464902372
 10
10.1515876043
 20
-81.0150313123
 10
10.1628552856
 20
-81.0015942938
 10
10.172325441
 20
-80.9898306524
 10
10.1849593003
 20
-80.9738928975
  0
LWPOLYLINE
  5
64A
100
AcDbEntity
  8
IMPORT_IGES
100
AcDbPolyline
 62
253
  6
CONTINUOUS
 90
4
 70
0
 10
9.9891357421
 20
-81.2019796486
 10
10.011075589
 20
-81.1763818394
 10
10.0325451312
 20
-81.1518650219
 10
10.0731440344
 20
-81.1059153903
  0
LWPOLYLINE
  5
64B
100
AcDbEntity
  8
IMPORT_IGES
100
AcDbPolyline
 62
253
  6
CONTINUOUS
 90
3
 70
0
 10
10.0731440344
 20
-81.1059153903
 10
10.1091728843
 20
-81.0646329992
 10
10.1248372508
 20
-81.0464902372
  0
LINE
  5
64C
100
AcDbEntity
  8
ASSI
100
AcDbLine
 62
7
  6
CONTINUOUS
 10
-1.3218763293
 20
-94.2329986094
 11
-1.2953264452
 21
-94.2026469676
  0
LINE
  5
64D
100
AcDbEntity
  8
ASSI
100
AcDbLine
 62
7
  6
CONTINUOUS
 10
-1.2953264452
 20
-94.2026469676
 11
-1.264965035
 21
-94.1684663311
  0
LINE
  5
64E
100
AcDbEntity
  8
ASSI
100
AcDbLine
 62
7
  6
CONTINUOUS
 10
-1.264965035
 20
-94.1684663311
 11
-1.2307864076
 21
-94.1304660706
  0
LINE
  5
64F
100
AcDbEntity
  8
ASSI
100
AcDbLine
 62
7
  6
CONTINUOUS
 10
-1.2307864076
 20
-94.1304660706
 11
-1.1724921877
 21
-94.0663811689
  0
LINE
  5
650
100
AcDbEntity
  8
ASSI
100
AcDbLine
 62
7
  6
CONTINUOUS
 10
-1.1724921877
 20
-94.0663811689
 11
-0.9888342455
 21
-93.8671468772
  0
LINE
  5
651
100
AcDbEntity
  8
ASSI
100
AcDbLine
 62
7
  6
CONTINUOUS
 10
10.2891357422
 20
-82.1107890625
 11
10.2716820066
 21
-82.1282427981
  0
LINE
  5
652
100
AcDbEntity
  8
IMPORT_IGES
100
AcDbLine
 62
7
  6
CONTINUOUS
 10
9.3122735611
 20
-81.8205999292
 11
11.0443299902
 21
-80.8205966836
  0
LINE
  5
653
100
AcDbEntity
  8
IMPORT_IGES
100
AcDbLine
 62
253
  6
CONTINUOUS
 10
10.894750235
 20
-80.8003764133
 11
10.3891357105
 21
-81.0920537129
  0
LINE
  5
654
100
AcDbEntity
  8
IMPORT_IGES
100
AcDbLine
 62
253
  6
CONTINUOUS
 10
9.9891390766
 20
-81.2019796486
 11
9.2122791734
 21
-81.6483384072
  0
LWPOLYLINE
  5
655
100
AcDbEntity
  8
IMPORT_IGES
100
AcDbPolyline
 62
253
  6
CONTINUOUS
 90
10
 70
0
 10
9.2122791734
 20
-81.6483384072
 10
9.2071366579
 20
-81.6510948793
 10
9.2018769421
 20
-81.653536657
 10
9.1965000259
 20
-81.6556637399
 10
9.1909873221
 20
-81.6574815498
 10
9.1853574179
 20
-81.6589846645
 10
9.1796660751
 20
-81.6601568181
 10
9.1739318811
 20
-81.6609925887
 10
9.1681362486
 20
-81.6614973981
 10
9.1622791775
 20
-81.6616712462
  0
LWPOLYLINE
  5
656
100
AcDbEntity
  8
IMPORT_IGES
100
AcDbPolyline
 62
253
  6
CONTINUOUS
 90
10
 70
0
 10
11.0443299902
 20
-80.8205966836
 10
11.0310924141
 20
-80.826892568
 10
11.0166793931
 20
-80.8311432455
 10
11.0011817023
 20
-80.8332675169
 10
10.9846244803
 20
-80.8331957962
 10
10.9671964588
 20
-80.830863363
 10
10.9492797906
 20
-80.8263124496
 10
10.9311171935
 20
-80.8196545064
 10
10.9127803001
 20
-80.8109680748
 10
10.8944192277
 20
-80.8003598999
  0
LWPOLYLINE
  5
657
100
AcDbEntity
  8
IMPORT_IGES
100
AcDbPolyline
 62
253
  6
CONTINUOUS
 90
10
 70
0
 10
11.0066818689
 20
-80.7836516359
 10
11.0416179638
 20
-80.7704436484
 10
11.0742445698
 20
-80.753644191
 10
11.1038961844
 20
-80.7335457588
 10
11.13004947
 20
-80.7104690737
 10
11.1522354494
 20
-80.6847892251
 10
11.170006906
 20
-80.6570069404
 10
11.1830586353
 20
-80.6276263002
 10
11.1911944327
 20
-80.5971255932
 10
11.1942843006
 20
-80.566024681
  0
LWPOLYLINE
  5
658
100
AcDbEntity
  8
IMPORT_IGES
100
AcDbPolyline
 62
253
  6
CONTINUOUS
 90
10
 70
0
 10
9.7800639407
 20
-60.1595664693
 10
9.7850296854
 20
-60.1602825719
 10
9.7896764415
 20
-60.1616107348
 10
9.7940064037
 20
-60.1635510407
 10
9.7979439154
 20
-60.1660636631
 10
9.8015716548
 20
-60.1691885937
 10
9.8051259801
 20
-60.173045519
 10
9.8086836715
 20
-60.1776742451
 10
9.8121664309
 20
-60.1830348238
 10
9.8155741038
 20
-60.1891271899
  0
LINE
  5
659
100
AcDbEntity
  8
ASSI
100
AcDbLine
 62
7
  6
CONTINUOUS
 10
12.5891357422
 20
-61.7884581858
 11
12.4337856643
 21
-61.7107890625
  0
LINE
  5
65A
100
AcDbEntity
  8
ASSI
100
AcDbLine
 62
7
  6
CONTINUOUS
 10
9.4514456775
 20
-59.7981034319
 11
9.4391357422
 21
-59.791948933
  0
LWPOLYLINE
  5
65B
100
AcDbEntity
  8
IMPORT_IGES
100
AcDbPolyline
 62
253
  6
CONTINUOUS
 90
13
 70
0
 10
10.0300622157
 20
-60.0486554318
 10
10.0227271611
 20
-60.0444879534
 10
10.0120884544
 20
-60.0436012244
 10
9.9983690788
 20
-60.0462139967
 10
9.9822833719
 20
-60.0521710785
 10
9.9643452646
 20
-60.0611616878
 10
9.9444654411
 20
-60.0732117134
 10
9.923297386
 20
-60.0879575968
 10
9.9015835488
 20
-60.1048517077
 10
9.8791916187
 20
-60.1240125812
 10
9.85667006
 20
-60.1450568297
 10
9.8351637074
 20
-60.1669256803
 10
9.8154004016
 20
-60.1887796289
  0
LWPOLYLINE
  5
65C
100
AcDbEntity
  8
IMPORT_IGES
100
AcDbPolyline
 62
253
  6
CONTINUOUS
 90
10
 70
0
 10
11.1078178785
 20
-61.1264111222
 10
11.0938392906
 20
-61.1163300819
 10
11.0770957714
 20
-61.111809743
 10
11.057524676
 20
-61.1135144481
 10
11.0350829794
 20
-61.122422795
 10
11.0099663927
 20
-61.1389772404
 10
10.9829713758
 20
-61.1623908389
 10
10.9549516912
 20
-61.1920347596
 10
10.9264640785
 20
-61.2281098884
 10
10.8982029454
 20
-61.2703495796
  0
LINE
  5
65D
100
AcDbEntity
  8
IMPORT_IGES
100
AcDbLine
 62
253
  6
CONTINUOUS
 10
10.1421357422
 20
-60.5142823769
 11
10.898198262
 21
-61.2703519213
  0
LINE
  5
65E
100
AcDbEntity
  8
IMPORT_IGES
100
AcDbLine
 62
7
  6
CONTINUOUS
 10
11.1078199611
 20
-61.1264132048
 11
10.0300639621
 21
-60.0486572058
  0
LINE
  5
65F
100
AcDbEntity
  8
ASSI
100
AcDbLine
 62
7
  6
CONTINUOUS
 10
-0.9888342455
 20
-47.3544312478
 11
-1.1929053814
 21
-47.1328335636
  0
LINE
  5
660
100
AcDbEntity
  8
ASSI
100
AcDbLine
 62
7
  6
CONTINUOUS
 10
-1.1929053814
 20
-47.1328335636
 11
-1.2308734613
 21
-47.0910160207
  0
LINE
  5
661
100
AcDbEntity
  8
ASSI
100
AcDbLine
 62
7
  6
CONTINUOUS
 10
-1.2308734613
 20
-47.0910160207
 11
-1.2650935877
 21
-47.0529683212
  0
LINE
  5
662
100
AcDbEntity
  8
ASSI
100
AcDbLine
 62
7
  6
CONTINUOUS
 10
-1.2650935877
 20
-47.0529683212
 11
-1.2954857566
 21
-47.0187505168
  0
LWPOLYLINE
  5
663
100
AcDbEntity
  8
ASSI
100
AcDbPolyline
 62
7
  6
CONTINUOUS
 90
18
 70
0
 10
-1.2954857566
 20
-47.0187505168
 10
-1.3220486089
 20
-46.9883810633
 10
-1.3339620451
 20
-46.9745508733
 10
-1.3449874478
 20
-46.9616009023
 10
-1.3551362058
 20
-46.9495301912
 10
-1.3644526075
 20
-46.9382645686
 10
-1.3729394935
 20
-46.9278075203
 10
-1.3806165318
 20
-46.9181555605
 10
-1.3875370724
 20
-46.9092240607
 10
-1.3937163833
 20
-46.9009929363
 10
-1.3991440762
 20
-46.8934822719
 10
-1.4038254333
 20
-46.886667693
 10
-1.4077698999
 20
-46.8805534313
 10
-1.4109855451
 20
-46.8751352552
 10
-1.4134807441
 20
-46.8703760947
 10
-1.4152696898
 20
-46.8662635934
 10
-1.416369459
 20
-46.8628101077
 10
-1.4167969906
 20
-46.8600156378
  0
LINE
  5
664
100
AcDbEntity
  8
ASSI
100
AcDbLine
 62
7
  6
CONTINUOUS
 10
11.1891357422
 20
-91.5107890625
 11
11.1856484513
 21
-91.5212594429
  0
LINE
  5
665
100
AcDbEntity
  8
ASSI
100
AcDbLine
 62
7
  6
CONTINUOUS
 10
-1.4608642578
 20
-94.4107890625
 11
-1.4172136109
 21
-94.3671384156
  0
LINE
  5
666
100
AcDbEntity
  8
ASSI
100
AcDbLine
 62
253
  6
CONTINUOUS
 10
9.151491369
 20
-83.7984791272
 11
9.1391814336
 21
-83.8107890625
  0
LINE
  5
667
100
AcDbEntity
  8
ASSI
100
AcDbLine
 62
253
  6
CONTINUOUS
 10
9.4514456775
 20
-84.0984334357
 11
9.4391357422
 21
-84.110743371
  0
LWPOLYLINE
  5
668
100
AcDbEntity
  8
ASSI
100
AcDbPolyline
 62
7
  6
CONTINUOUS
 90
15
 70
0
 10
-5.406322454
 20
-95.0573037732
 10
-5.4158478527
 20
-95.064434358
 10
-5.4257017519
 20
-95.0711036206
 10
-5.4358618295
 20
-95.0772964541
 10
-5.4463050702
 20
-95.0829988313
 10
-5.4570078115
 20
-95.0881978347
 10
-5.4679458085
 20
-95.0928816883
 10
-5.479094284
 20
-95.0970397838
 10
-5.4904279788
 20
-95.1006627042
 10
-5.501921219
 20
-95.1037422442
 10
-5.5135479703
 20
-95.1062714302
 10
-5.5252818917
 20
-95.1082445366
 10
-5.5370964022
 20
-95.1096570967
 10
-5.5489647418
 20
-95.1105059123
 10
-5.560860027
 20
-95.1107890625
  0
LINE
  5
669
100
AcDbEntity
  8
ASSI
100
AcDbLine
 62
7
  6
CONTINUOUS
 10
-1.5608642578
 20
-56.4714539775
 11
-2.5608642578
 21
-56.4714539775
  0
LINE
  5
66A
100
AcDbEntity
  8
ASSI
100
AcDbLine
 62
7
  6
CONTINUOUS
 10
7.4391357422
 20
-56.4714539775
 11
8.4391357422
 21
-56.4714539775
  0
LINE
  5
66B
100
AcDbEntity
  8
ASSI
100
AcDbLine
 62
7
  6
CONTINUOUS
 10
-1.4608642578
 20
-46.8107890625
 11
-1.4172136109
 21
-46.8544397094
  0
LINE
  5
66C
100
AcDbEntity
  8
ASSI
100
AcDbLine
 62
7
  6
CONTINUOUS
 10
11.1856484513
 20
-49.7003186821
 11
11.1891357422
 21
-49.7107890625
  0
LWPOLYLINE
  5
66D
100
AcDbEntity
  8
ASSI
100
AcDbPolyline
 62
7
  6
CONTINUOUS
 90
9
 70
0
 10
13.5846181099
 20
-94.90810535
 10
13.5820889239
 20
-94.9197321013
 10
13.5790093839
 20
-94.9312253415
 10
13.5753864635
 20
-94.9425590363
 10
13.571228368
 20
-94.9537075118
 10
13.5665445144
 20
-94.9646455088
 10
13.561345511
 20
-94.9753482501
 10
13.5556431338
 20
-94.9857914908
 10
13.5494503003
 20
-94.9959515684
  0
LINE
  5
66E
100
AcDbEntity
  8
ASSI
100
AcDbLine
 62
7
  6
CONTINUOUS
 10
9.4514456775
 20
-84.4234746931
 11
9.4391357422
 21
-84.429629192
  0
LINE
  5
66F
100
AcDbEntity
  8
ASSI
100
AcDbLine
 62
7
  6
CONTINUOUS
 10
12.4337856643
 20
-83.1107890625
 11
12.5891357422
 21
-83.0331199392
  0
LWPOLYLINE
  5
670
100
AcDbEntity
  8
ASSI
100
AcDbPolyline
 62
7
  6
CONTINUOUS
 90
10
 70
0
 10
-5.4257017519
 20
-46.1504745044
 10
-5.4158478527
 20
-46.157143767
 10
-5.406322454
 20
-46.1642743518
 10
-5.3971471388
 20
-46.1718501036
 10
-5.3883426917
 20
-46.179853862
 10
-5.3799290573
 20
-46.1882674964
 10
-5.3719252989
 20
-46.1970719434
 10
-5.3643495471
 20
-46.2062472587
 10
-5.3572189623
 20
-46.2157726574
 10
-5.3505496997
 20
-46.2256265566
  0
LINE
  5
671
100
AcDbEntity
  8
ASSI
100
AcDbLine
 62
7
  6
CONTINUOUS
 10
10.1809574441
 20
-91.6067846082
 11
10.2379734168
 21
-91.5212594429
  0
LWPOLYLINE
  5
672
100
AcDbEntity
  8
ASSI
100
AcDbPolyline
 62
7
  6
CONTINUOUS
 90
8
 70
0
 10
6.4678275934
 20
-94.3131089131
 10
6.474735824
 20
-94.3041715325
 10
6.4824063915
 20
-94.2945089873
 10
6.4908865803
 20
-94.2840466905
 10
6.5001896907
 20
-94.2727861917
 10
6.5103198534
 20
-94.2607259411
 10
6.5213274323
 20
-94.2477867021
 10
6.5332252349
 20
-94.2339667229
  0
LINE
  5
673
100
AcDbEntity
  8
ASSI
100
AcDbLine
 62
7
  6
CONTINUOUS
 10
6.5332252349
 20
-94.2339667229
 11
6.5597592425
 21
-94.2036158171
  0
LINE
  5
674
100
AcDbEntity
  8
ASSI
100
AcDbLine
 62
7
  6
CONTINUOUS
 10
6.5597592425
 20
-94.2036158171
 11
6.5901319515
 21
-94.1694093412
  0
LINE
  5
675
100
AcDbEntity
  8
ASSI
100
AcDbLine
 62
7
  6
CONTINUOUS
 10
6.5901319515
 20
-94.1694093412
 11
6.6243585999
 21
-94.1313454315
  0
LINE
  5
676
100
AcDbEntity
  8
ASSI
100
AcDbLine
 62
7
  6
CONTINUOUS
 10
6.6243585999
 20
-94.1313454315
 11
6.6828061482
 21
-94.0670824948
  0
LINE
  5
677
100
AcDbEntity
  8
ASSI
100
AcDbLine
 62
7
  6
CONTINUOUS
 10
6.6828061482
 20
-94.0670824948
 11
6.8671057299
 21
-93.8671468772
  0
LINE
  5
678
100
AcDbEntity
  8
ASSI
100
AcDbLine
 62
7
  6
CONTINUOUS
 10
6.8671057299
 20
-47.3544312478
 11
6.6623257422
 21
-47.132055733
  0
LINE
  5
679
100
AcDbEntity
  8
ASSI
100
AcDbLine
 62
7
  6
CONTINUOUS
 10
6.6623257422
 20
-47.132055733
 11
6.6242664204
 21
-47.0901309785
  0
LINE
  5
67A
100
AcDbEntity
  8
ASSI
100
AcDbLine
 62
7
  6
CONTINUOUS
 10
6.6242664204
 20
-47.0901309785
 11
6.589997324
 21
-47.052018479
  0
LINE
  5
67B
100
AcDbEntity
  8
ASSI
100
AcDbLine
 62
7
  6
CONTINUOUS
 10
6.589997324
 20
-47.052018479
 11
6.5595934433
 21
-47.0177742213
  0
LWPOLYLINE
  5
67C
100
AcDbEntity
  8
ASSI
100
AcDbPolyline
 62
7
  6
CONTINUOUS
 90
18
 70
0
 10
6.5595934433
 20
-47.0177742213
 10
6.5330467879
 20
-46.9874057029
 10
6.5211503787
 20
-46.9735846265
 10
6.5101480725
 20
-46.960649282
 10
6.5000274894
 20
-46.948598319
 10
6.4907416698
 20
-46.9373544648
 10
6.4822873584
 20
-46.9269196733
 10
6.4746463146
 20
-46.9172919908
 10
6.4677660094
 20
-46.9083882836
 10
6.4616313839
 20
-46.9001882679
 10
6.4562537203
 20
-46.8927122276
 10
6.4516291562
 20
-46.885937881
 10
6.4477483627
 20
-46.8798702469
 10
6.4446030108
 20
-46.8745043065
 10
6.4421847911
 20
-46.8698027225
 10
6.440479162
 20
-46.8657530493
 10
6.4394685892
 20
-46.8623677325
 10
6.4391357422
 20
-46.8596467722
  0
LINE
  5
67D
100
AcDbEntity
  8
ASSI
100
AcDbLine
 62
7
  6
CONTINUOUS
 10
10.1809574441
 20
-49.6147935168
 11
10.2379734168
 21
-49.7003186821
  0
LINE
  5
67E
100
AcDbEntity
  8
ASSI
100
AcDbLine
 62
7
  6
CONTINUOUS
 10
9.3873570569
 20
-50.6884581858
 11
-3.5090855725
 21
-50.6884581858
  0
LINE
  5
67F
100
AcDbEntity
  8
ASSI
100
AcDbLine
 62
7
  6
CONTINUOUS
 10
-3.6161590258
 20
-50.5278457408
 11
9.4944305101
 21
-50.5278457408
  0
LWPOLYLINE
  5
680
100
AcDbEntity
  8
ASSI
100
AcDbPolyline
 62
7
  6
CONTINUOUS
 90
10
 70
0
 10
13.5494503003
 20
-94.9959515684
 10
13.5427810377
 20
-95.0058054676
 10
13.5356504529
 20
-95.0153308663
 10
13.5280747011
 20
-95.0245061816
 10
13.5200709427
 20
-95.0333106286
 10
13.5116573083
 20
-95.041724263
 10
13.5028528612
 20
-95.0497280214
 10
13.493677546
 20
-95.0573037732
 10
13.4841521473
 20
-95.064434358
 10
13.4742982481
 20
-95.0711036206
  0
LINE
  5
681
100
AcDbEntity
  8
ASSI
100
AcDbLine
 62
7
  6
CONTINUOUS
 10
11.1891357422
 20
-92.0107890625
 11
10.19786261
 21
-93.0020621947
  0
LINE
  5
682
100
AcDbEntity
  8
ASSI
100
AcDbLine
 62
7
  6
CONTINUOUS
 10
-6.0558947797
 20
-50.1772182981
 11
-4.4126429431
 21
-50.1772182981
  0
LINE
  5
683
100
AcDbEntity
  8
ASSI
100
AcDbLine
 62
7
  6
CONTINUOUS
 10
10.2909144275
 20
-50.1772182981
 11
11.9341662641
 21
-50.1772182981
  0
LINE
  5
684
100
AcDbEntity
  8
ASSI
100
AcDbLine
 62
253
  6
CONTINUOUS
 10
-3.6190425559
 20
-50.0278647793
 11
9.4973140403
 21
-50.0278647793
  0
LINE
  5
685
100
AcDbEntity
  8
ASSI
100
AcDbLine
 62
7
  6
CONTINUOUS
 10
12.0895163419
 20
-49.7107890625
 11
11.1891357422
 21
-49.7107890625
  0
LINE
  5
686
100
AcDbEntity
  8
ASSI
100
AcDbLine
 62
7
  6
CONTINUOUS
 10
-5.3108642578
 20
-49.7107890625
 11
-6.2112448575
 21
-49.7107890625
  0
LINE
  5
687
100
AcDbEntity
  8
ASSI
100
AcDbLine
 62
7
  6
CONTINUOUS
 10
11.1856484513
 20
-49.7003186821
 11
10.2379734168
 21
-49.7003186821
  0
LINE
  5
688
100
AcDbEntity
  8
ASSI
100
AcDbLine
 62
7
  6
CONTINUOUS
 10
-4.3597019324
 20
-49.7003186821
 11
-5.3073769669
 21
-49.7003186821
  0
LINE
  5
689
100
AcDbEntity
  8
ASSI
100
AcDbLine
 62
7
  6
CONTINUOUS
 10
10.5232364613
 20
-49.6147935168
 11
10.1809574441
 21
-49.6147935168
  0
LINE
  5
68A
100
AcDbEntity
  8
ASSI
100
AcDbLine
 62
7
  6
CONTINUOUS
 10
-4.3026859597
 20
-49.6147935168
 11
-4.644964977
 21
-49.6147935168
  0
LINE
  5
68B
100
AcDbEntity
  8
ASSI
100
AcDbLine
 62
7
  6
CONTINUOUS
 10
5.9391357422
 20
-49.6107890625
 11
-0.0608642578
 21
-49.6107890625
  0
LINE
  5
68C
100
AcDbEntity
  8
ASSI
100
AcDbLine
 62
253
  6
CONTINUOUS
 10
10.5232364613
 20
-49.2980958188
 11
5.9391357422
 21
-49.2980958188
  0
LINE
  5
68D
100
AcDbEntity
  8
ASSI
100
AcDbLine
 62
253
  6
CONTINUOUS
 10
-0.0608642578
 20
-49.2980958188
 11
-4.644964977
 21
-49.2980958188
  0
LINE
  5
68E
100
AcDbEntity
  8
ASSI
100
AcDbLine
 62
7
  6
CONTINUOUS
 10
-0.0608642578
 20
-48.9107890625
 11
5.9391357422
 21
-48.9107890625
  0
LWPOLYLINE
  5
68F
100
AcDbEntity
  8
ASSI
100
AcDbPolyline
 62
7
  6
CONTINUOUS
 90
9
 70
0
 10
-5.5135479703
 20
-46.1153066948
 10
-5.501921219
 20
-46.1178358808
 10
-5.4904279788
 20
-46.1209154208
 10
-5.479094284
 20
-46.1245383412
 10
-5.4679458085
 20
-46.1286964367
 10
-5.4570078115
 20
-46.1333802903
 10
-5.4463050702
 20
-46.1385792937
 10
-5.4358618295
 20
-46.1442816709
 10
-5.4257017519
 20
-46.1504745044
  0
LINE
  5
690
100
AcDbEntity
  8
ASSI
100
AcDbLine
 62
7
  6
CONTINUOUS
 10
10.19786261
 20
-48.2195159303
 11
11.1891357422
 21
-49.2107890625
  0
LWPOLYLINE
  5
691
100
AcDbEntity
  8
ASSI
100
AcDbPolyline
 62
7
  6
CONTINUOUS
 90
13
 70
0
 10
13.5494503003
 20
-46.2256265566
 10
13.5556431338
 20
-46.2357866342
 10
13.561345511
 20
-46.2462298749
 10
13.5665445144
 20
-46.2569326162
 10
13.571228368
 20
-46.2678706132
 10
13.5753864635
 20
-46.2790190887
 10
13.5790093839
 20
-46.2903527835
 10
13.5820889239
 20
-46.3018460237
 10
13.5846181099
 20
-46.313472775
 10
13.5865912163
 20
-46.3252066964
 10
13.5880037764
 20
-46.3370212069
 10
13.5888525919
 20
-46.3488895465
 10
13.5891357422
 20
-46.3607848317
  0
LINE
  5
692
100
AcDbEntity
  8
ASSI
100
AcDbLine
 62
7
  6
CONTINUOUS
 10
11.0231603089
 20
-91.6024973267
 11
11.1856484513
 21
-91.5212594429
  0
LINE
  5
693
100
AcDbEntity
  8
ASSI
100
AcDbLine
 62
7
  6
CONTINUOUS
 10
-7.7323526551
 20
-48.2123153227
 11
-7.7538077039
 21
-48.2144617585
  0
LWPOLYLINE
  5
694
100
AcDbEntity
  8
ASSI
100
AcDbPolyline
 62
253
  6
CONTINUOUS
 90
3
 70
0
 10
11.4166232675
 20
-46.1166111089
 10
11.4304510054
 20
-46.1155023037
 10
11.4435033454
 20
-46.1151608965
  0
LINE
  5
695
100
AcDbEntity
  8
ASSI
100
AcDbLine
 62
7
  6
CONTINUOUS
 10
-7.7108633969
 20
-48.2110978638
 11
-7.7323526551
 21
-48.2123153227
  0
LINE
  5
696
100
AcDbEntity
  8
ASSI
100
AcDbLine
 62
7
  6
CONTINUOUS
 10
-7.7108642578
 20
-48.2110990945
 11
-7.7069525649
 21
-48.2109766192
  0
LINE
  5
697
100
AcDbEntity
  8
ASSI
100
AcDbLine
 62
7
  6
CONTINUOUS
 10
-7.7069525649
 20
-48.2109766192
 11
-7.7030401333
 21
-48.2108847583
  0
LINE
  5
698
100
AcDbEntity
  8
ASSI
100
AcDbLine
 62
7
  6
CONTINUOUS
 10
-7.7030401333
 20
-48.2108847583
 11
-7.699127053
 21
-48.2108235135
  0
LINE
  5
699
100
AcDbEntity
  8
ASSI
100
AcDbLine
 62
7
  6
CONTINUOUS
 10
-7.699127053
 20
-48.2108235135
 11
-7.6952136834
 21
-48.2107928909
  0
LINE
  5
69A
100
AcDbEntity
  8
ASSI
100
AcDbLine
 62
253
  6
CONTINUOUS
 10
10.2764805754
 20
-48.2981338957
 11
5.9391357422
 21
-48.2981338957
  0
LINE
  5
69B
100
AcDbEntity
  8
ASSI
100
AcDbLine
 62
253
  6
CONTINUOUS
 10
-0.0608642578
 20
-48.2981338957
 11
-4.398209091
 21
-48.2981338957
  0
LINE
  5
69C
100
AcDbEntity
  8
ASSI
100
AcDbLine
 62
7
  6
CONTINUOUS
 10
13.588983417
 20
-48.2195159303
 11
10.19786261
 21
-48.2195159303
  0
LINE
  5
69D
100
AcDbEntity
  8
ASSI
100
AcDbLine
 62
7
  6
CONTINUOUS
 10
6.4391357422
 20
-48.2195159303
 11
5.9391357422
 21
-48.2195159303
  0
LINE
  5
69E
100
AcDbEntity
  8
ASSI
100
AcDbLine
 62
7
  6
CONTINUOUS
 10
-0.0608642578
 20
-48.2195159303
 11
-0.5608642578
 21
-48.2195159303
  0
LINE
  5
69F
100
AcDbEntity
  8
ASSI
100
AcDbLine
 62
7
  6
CONTINUOUS
 10
-4.3195911256
 20
-48.2195159303
 11
-7.7107119327
 21
-48.2195159303
  0
LINE
  5
6A0
100
AcDbEntity
  8
ASSI
100
AcDbLine
 62
7
  6
CONTINUOUS
 10
-7.6952136834
 20
-48.2107928909
 11
-1.4608642578
 21
-48.2107890625
  0
LINE
  5
6A1
100
AcDbEntity
  8
ASSI
100
AcDbLine
 62
7
  6
CONTINUOUS
 10
-7.4615872557
 20
-47.4881393317
 11
-5.5601412599
 21
-47.4881393317
  0
LINE
  5
6A2
100
AcDbEntity
  8
ASSI
100
AcDbLine
 62
7
  6
CONTINUOUS
 10
11.4384127443
 20
-47.4881393317
 11
13.3398587401
 21
-47.4881393317
  0
LINE
  5
6A3
100
AcDbEntity
  8
ASSI
100
AcDbLine
 62
253
  6
CONTINUOUS
 10
11.4435033454
 20
-46.9829578461
 11
13.334768139
 21
-46.9829578461
  0
LINE
  5
6A4
100
AcDbEntity
  8
ASSI
100
AcDbLine
 62
7
  6
CONTINUOUS
 10
-5.565231861
 20
-46.9107890625
 11
-7.4564966546
 21
-46.9107890625
  0
LINE
  5
6A5
100
AcDbEntity
  8
ASSI
100
AcDbLine
 62
7
  6
CONTINUOUS
 10
7.2954850953
 20
-46.8544397094
 11
6.4391357422
 21
-46.8544397094
  0
LINE
  5
6A6
100
AcDbEntity
  8
ASSI
100
AcDbLine
 62
7
  6
CONTINUOUS
 10
-0.5608642578
 20
-46.8544397094
 11
-1.4172136109
 21
-46.8544397094
  0
LINE
  5
6A7
100
AcDbEntity
  8
ASSI
100
AcDbLine
 62
7
  6
CONTINUOUS
 10
6.4391357422
 20
-46.8166068923
 11
-0.5608642578
 21
-46.8166068923
  0
LINE
  5
6A8
100
AcDbEntity
  8
ASSI
100
AcDbLine
 62
7
  6
CONTINUOUS
 10
7.3391357422
 20
-46.8107890625
 11
-1.4608642578
 21
-46.8107890625
  0
LINE
  5
6A9
100
AcDbEntity
  8
ASSI
100
AcDbLine
 62
7
  6
CONTINUOUS
 10
7.3391357422
 20
-48.2107890625
 11
13.5734851678
 21
-48.2107928909
  0
LINE
  5
6AA
100
AcDbEntity
  8
ASSI
100
AcDbLine
 62
7
  6
CONTINUOUS
 10
13.5734851678
 20
-48.2107928909
 11
13.5773985374
 21
-48.2108235135
  0
LINE
  5
6AB
100
AcDbEntity
  8
ASSI
100
AcDbLine
 62
7
  6
CONTINUOUS
 10
13.5773985374
 20
-48.2108235135
 11
13.5813116177
 21
-48.2108847583
  0
LWPOLYLINE
  5
6AC
100
AcDbEntity
  8
ASSI
100
AcDbPolyline
 62
7
  6
CONTINUOUS
 90
34
 70
0
 10
-7.4564966546
 20
-46.9107890625
 10
-7.4695211298
 20
-46.9105354851
 10
-7.4824507019
 20
-46.9099100863
 10
-7.4952513004
 20
-46.9089128662
 10
-7.5079013574
 20
-46.9075312008
 10
-7.5203575078
 20
-46.9057777141
 10
-7.5325560213
 20
-46.9036902776
 10
-7.5444566435
 20
-46.9012678089
 10
-7.5560470425
 20
-46.8985113904
 10
-7.5673090275
 20
-46.895462141
 10
-7.5782202001
 20
-46.8921195821
 10
-7.5887603048
 20
-46.8884841922
 10
-7.5989161981
 20
-46.8845985263
 10
-7.6086703397
 20
-46.8804625381
 10
-7.6180070547
 20
-46.8760762738
 10
-7.6269173891
 20
-46.8714824265
 10
-7.6353882321
 20
-46.8666812011
 10
-7.6434079643
 20
-46.8616723927
 10
-7.6509708678
 20
-46.8564980792
 10
-7.6580677601
 20
-46.8511585966
 10
-7.6646906692
 20
-46.8456536089
 10
-7.6708364131
 20
-46.8400241869
 10
-7.6764992942
 20
-46.8342707363
 10
-7.6816746513
 20
-46.8283928513
 10
-7.6863614294
 20
-46.8224303848
 10
-7.6905570543
 20
-46.8163838005
 10
-7.6942599045
 20
-46.8102526346
 10
-7.6974708817
 20
-46.8040753496
 10
-7.7001902486
 20
-46.7978524907
 10
-7.7024191951
 20
-46.7915835126
 10
-7.7041605579
 20
-46.7853052414
 10
-7.7054172966
 20
-46.7790299524
 10
-7.7061930014
 20
-46.7727453704
 10
-7.7064924238
 20
-46.7664514952
  0
LINE
  5
6AD
100
AcDbEntity
  8
ASSI
100
AcDbLine
 62
7
  6
CONTINUOUS
 10
13.5813116177
 20
-48.2108847583
 11
13.5852240493
 21
-48.2109766192
  0
LINE
  5
6AE
100
AcDbEntity
  8
ASSI
100
AcDbLine
 62
7
  6
CONTINUOUS
 10
13.5852240493
 20
-48.2109766192
 11
13.5891357422
 21
-48.2110990945
  0
LINE
  5
6AF
100
AcDbEntity
  8
ASSI
100
AcDbLine
 62
7
  6
CONTINUOUS
 10
11.0231603089
 20
-49.6190807983
 11
11.1856484513
 21
-49.7003186821
  0
LWPOLYLINE
  5
6B0
100
AcDbEntity
  8
ASSI
100
AcDbPolyline
 62
7
  6
CONTINUOUS
 90
13
 70
0
 10
13.4742982481
 20
-95.0711036206
 10
13.4641381705
 20
-95.0772964541
 10
13.4536949298
 20
-95.0829988313
 10
13.4429921885
 20
-95.0881978347
 10
13.4320541915
 20
-95.0928816883
 10
13.420905716
 20
-95.0970397838
 10
13.4095720212
 20
-95.1006627042
 10
13.398078781
 20
-95.1037422442
 10
13.3864520297
 20
-95.1062714302
 10
13.3747181083
 20
-95.1082445366
 10
13.3629035978
 20
-95.1096570967
 10
13.3510352582
 20
-95.1105059123
 10
13.339139973
 20
-95.1107890625
  0
LINE
  5
6B1
100
AcDbEntity
  8
ASSI
100
AcDbLine
 62
253
  6
CONTINUOUS
 10
13.5857387004
 20
-93.0036844295
 11
13.5715283521
 21
-93.0107890625
  0
LINE
  5
6B2
100
AcDbEntity
  8
ASSI
100
AcDbLine
 62
253
  6
CONTINUOUS
 10
-7.4579510877
 20
-46.1151651766
 11
-7.4564966546
 21
-46.1151608965
  0
LINE
  5
6B3
100
AcDbEntity
  8
ASSI
100
AcDbLine
 62
253
  6
CONTINUOUS
 10
11.1935075762
 20
-46.7664514952
 11
13.5847639082
 21
-46.7664514952
  0
LINE
  5
6B4
100
AcDbEntity
  8
ASSI
100
AcDbLine
 62
253
  6
CONTINUOUS
 10
-7.7064924238
 20
-46.3651566657
 11
-5.3152360918
 21
-46.3651566657
  0
LINE
  5
6B5
100
AcDbEntity
  8
ASSI
100
AcDbLine
 62
253
  6
CONTINUOUS
 10
11.1935075762
 20
-46.3651566657
 11
13.5847639082
 21
-46.3651566657
  0
LINE
  5
6B6
100
AcDbEntity
  8
ASSI
100
AcDbLine
 62
7
  6
CONTINUOUS
 10
13.334768139
 20
-46.1151608965
 11
11.4435033454
 21
-46.1151608965
  0
LINE
  5
6B7
100
AcDbEntity
  8
ASSI
100
AcDbLine
 62
7
  6
CONTINUOUS
 10
-5.565231861
 20
-46.1151608965
 11
-7.4564966546
 21
-46.1151608965
  0
LWPOLYLINE
  5
6B8
100
AcDbEntity
  8
ASSI
100
AcDbPolyline
 62
7
  6
CONTINUOUS
 90
5
 70
0
 10
-5.560860027
 20
-46.1107890625
 10
-5.5489647418
 20
-46.1110722127
 10
-5.5370964022
 20
-46.1119210283
 10
-5.5252818917
 20
-46.1133335884
 10
-5.5135479703
 20
-46.1153066948
  0
LWPOLYLINE
  5
6B9
100
AcDbEntity
  8
ASSI
100
AcDbPolyline
 62
7
  6
CONTINUOUS
 90
5
 70
0
 10
13.339139973
 20
-46.1107890625
 10
13.3510352582
 20
-46.1110722127
 10
13.3629035978
 20
-46.1119210283
 10
13.3747181083
 20
-46.1133335884
 10
13.3864520297
 20
-46.1153066948
  0
LWPOLYLINE
  5
6BA
100
AcDbEntity
  8
ASSI
100
AcDbPolyline
 62
7
  6
CONTINUOUS
 90
31
 70
0
 10
-5.565231861
 20
-46.1151608965
 10
-5.552148375
 20
-46.1155039351
 10
-5.5391007484
 20
-46.116531225
 10
-5.5261247423
 20
-46.1182399505
 10
-5.5132559215
 20
-46.1206254285
 10
-5.5005295569
 20
-46.1236811207
 10
-5.4879805292
 20
-46.1273986521
 10
-5.475643233
 20
-46.1317678336
 10
-5.4635514823
 20
-46.1367766901
 10
-5.4517384185
 20
-46.1424114932
 10
-5.4402364189
 20
-46.1486567991
 10
-5.4290770084
 20
-46.1554954905
 10
-5.4182907728
 20
-46.1629088239
 10
-5.4079072752
 20
-46.1708764807
 10
-5.3979549747
 20
-46.179376623
 10
-5.3884611488
 20
-46.1883859535
 10
-5.3794518183
 20
-46.1978797794
 10
-5.370951676
 20
-46.2078320799
 10
-5.3629840192
 20
-46.2182155775
 10
-5.3555706858
 20
-46.2290018131
 10
-5.3487319944
 20
-46.2401612236
 10
-5.3424866885
 20
-46.2516632232
 10
-5.3368518854
 20
-46.263476287
 10
-5.3318430289
 20
-46.2755680376
 10
-5.3274738474
 20
-46.2879053339
 10
-5.323756316
 20
-46.3004543616
 10
-5.3207006238
 20
-46.3131807261
 10
-5.3183151458
 20
-46.326049547
 10
-5.3166064203
 20
-46.3390255531
 10
-5.3155791304
 20
-46.3520731797
 10
-5.3152360918
 20
-46.3651566657
  0
LWPOLYLINE
  5
6BB
100
AcDbEntity
  8
ASSI
100
AcDbPolyline
 62
253
  6
CONTINUOUS
 90
3
 70
0
 10
13.334768139
 20
-46.1151608965
 10
13.3478204789
 20
-46.1155023037
 10
13.3616482168
 20
-46.1166111089
  0
LWPOLYLINE
  5
6BC
100
AcDbEntity
  8
ASSI
100
AcDbPolyline
 62
7
  6
CONTINUOUS
 90
3
 70
0
 10
13.3616482168
 20
-46.1166111089
 10
13.3738071479
 20
-46.1182291705
 10
13.3866728667
 20
-46.1206103007
  0
LWPOLYLINE
  5
6BD
100
AcDbEntity
  8
ASSI
100
AcDbPolyline
 62
7
  6
CONTINUOUS
 90
11
 70
0
 10
13.3864520297
 20
-46.1153066948
 10
13.398078781
 20
-46.1178358808
 10
13.4095720212
 20
-46.1209154208
 10
13.420905716
 20
-46.1245383412
 10
13.4320541915
 20
-46.1286964367
 10
13.4429921885
 20
-46.1333802903
 10
13.4536949298
 20
-46.1385792937
 10
13.4641381705
 20
-46.1442816709
 10
13.4742982481
 20
-46.1504745044
 10
13.4841521473
 20
-46.157143767
 10
13.493677546
 20
-46.1642743518
  0
LWPOLYLINE
  5
6BE
100
AcDbEntity
  8
ASSI
100
AcDbPolyline
 62
7
  6
CONTINUOUS
 90
27
 70
0
 10
13.3866728667
 20
-46.1206103007
 10
13.3994043318
 20
-46.1236634141
 10
13.4119585164
 20
-46.1273788538
 10
13.4242983203
 20
-46.1317454049
 10
13.4363926765
 20
-46.1367518348
 10
13.4482087547
 20
-46.1423845834
 10
13.4597143552
 20
-46.1486283851
 10
13.4708776735
 20
-46.1554660669
 10
13.4816677527
 20
-46.1628786969
 10
13.4920548786
 20
-46.1708458392
 10
13.5020107158
 20
-46.1793457361
 10
13.5115080502
 20
-46.1883551579
 10
13.5205208693
 20
-46.1978494511
 10
13.5290244108
 20
-46.2078025545
 10
13.536995319
 20
-46.2181871438
 10
13.5444117259
 20
-46.2289747341
 10
13.5512533017
 20
-46.24013576
 10
13.5575012808
 20
-46.2516396158
 10
13.5631385291
 20
-46.2634547615
 10
13.5681495846
 20
-46.2755487987
 10
13.5725206997
 20
-46.2878885548
 10
13.5762398892
 20
-46.3004402023
 10
13.5792969503
 20
-46.3131693162
 10
13.581683493
 20
-46.3260409558
 10
13.5833929762
 20
-46.3390198133
 10
13.5844207192
 20
-46.3520703116
 10
13.5847596281
 20
-46.3637022326
  0
LINE
  5
6BF
100
AcDbEntity
  8
ASSI
100
AcDbLine
 62
253
  6
CONTINUOUS
 10
13.5715283521
 20
-48.2107890625
 11
13.5857387004
 21
-48.2178936955
  0
LWPOLYLINE
  5
6C0
100
AcDbEntity
  8
ASSI
100
AcDbPolyline
 62
7
  6
CONTINUOUS
 90
8
 70
0
 10
13.493677546
 20
-46.1642743518
 10
13.5028528612
 20
-46.1718501036
 10
13.5116573083
 20
-46.179853862
 10
13.5200709427
 20
-46.1882674964
 10
13.5280747011
 20
-46.1970719434
 10
13.5356504529
 20
-46.2062472587
 10
13.5427810377
 20
-46.2157726574
 10
13.5494503003
 20
-46.2256265566
  0
ARC
  5
6C1
100
AcDbEntity
  8
RACCORDO
100
AcDbCircle
 62
7
  6
CONTINUOUS
 10
-0.1608642578
 20
-84.8107890625
 40
0.3
100
AcDbArc
 50
90.0
 51
180.0
  0
ARC
  5
6C2
100
AcDbEntity
  8
IMPORT_IGES
100
AcDbCircle
 62
7
  6
CONTINUOUS
 10
-3.2840076983
 20
-81.5607890625
 40
0.3
100
AcDbArc
 50
240.0000120939
 51
270.0000000642
  0
ARC
  5
6C3
100
AcDbEntity
  8
ASSI
100
AcDbCircle
 62
7
  6
CONTINUOUS
 10
-1.2608642578
 20
-88.2107890625
 40
0.3
100
AcDbArc
 50
90.0
 51
180.0
  0
ARC
  5
6C4
100
AcDbEntity
  8
IMPORT_IGES
100
AcDbCircle
 62
7
  6
CONTINUOUS
 10
-5.0160606656
 20
-80.5607894284
 40
0.2999990457
100
AcDbArc
 50
180.9999373172
 51
240.0057583378
  0
ARC
  5
6C5
100
AcDbEntity
  8
IMPORT_IGES
100
AcDbCircle
 62
7
  6
CONTINUOUS
 10
-0.8343158826
 20
-81.6607890625
 40
0.2
100
AcDbArc
 50
180.6880383849
 51
270.0002473357
  0
ARC
  5
6C6
100
AcDbEntity
  8
IMPORT_IGES
100
AcDbCircle
 62
7
  6
CONTINUOUS
 10
-4.5108642578
 20
-80.9679331514
 40
0.2
100
AcDbArc
 50
240.0000032026
 51
359.9999543684
  0
ARC
  5
6C7
100
AcDbEntity
  8
IMPORT_IGES
100
AcDbCircle
 62
7
  6
CONTINUOUS
 10
-2.9608642578
 20
-81.9607890625
 40
0.1
100
AcDbArc
 50
179.9999999998
 51
270.0012717494
  0
ARC
  5
6C8
100
AcDbEntity
  8
IMPORT_IGES
100
AcDbCircle
 62
7
  6
CONTINUOUS
 10
-3.1608642578
 20
-81.9607890625
 40
0.1
100
AcDbArc
 50
0.0000000003
 51
89.9982893908
  0
ARC
  5
6C9
100
AcDbEntity
  8
IMPORT_IGES
100
AcDbCircle
 62
7
  6
CONTINUOUS
 10
-4.1108642578
 20
-71.3818710455
 40
0.2
100
AcDbArc
 50
90.0000000761
 51
179.9990411618
  0
ARC
  5
6CA
100
AcDbEntity
  8
IMPORT_IGES
100
AcDbCircle
 62
253
  6
CONTINUOUS
 10
-10.3608642578
 20
-62.3241117596
 40
9.5
100
AcDbArc
 50
349.9865678122
 51
354.9043096237
  0
ARC
  5
6CB
100
AcDbEntity
  8
IMPORT_IGES
100
AcDbCircle
 62
7
  6
CONTINUOUS
 10
-10.3608642578
 20
-62.3241117596
 40
9.3
100
AcDbArc
 50
349.9865678122
 51
0.0001398085
  0
ARC
  5
6CC
100
AcDbEntity
  8
IMPORT_IGES
100
AcDbCircle
 62
7
  6
CONTINUOUS
 10
-5.0174157326
 20
-61.3385445293
 40
0.3
100
AcDbArc
 50
135.0000018621
 51
179.0
  0
ARC
  5
6CD
100
AcDbEntity
  8
IMPORT_IGES
100
AcDbCircle
 62
7
  6
CONTINUOUS
 10
-4.2638642578
 20
-60.4435716983
 40
0.2
100
AcDbArc
 50
0.0
 51
135.000001097
  0
ARC
  5
6CE
100
AcDbEntity
  8
IMPORT_IGES
100
AcDbCircle
 62
7
  6
CONTINUOUS
 10
2.2217437738
 20
-67.6455544583
 40
4.0
100
AcDbArc
 50
123.4933347856
 51
172.4289186646
  0
ARC
  5
6CF
100
AcDbEntity
  8
IMPORT_IGES
100
AcDbCircle
 62
253
  6
CONTINUOUS
 10
2.2217437738
 20
-67.6455544583
 40
3.8
100
AcDbArc
 50
123.4933347857
 51
172.4289186646
  0
ARC
  5
6D0
100
AcDbEntity
  8
IMPORT_IGES
100
AcDbCircle
 62
253
  6
CONTINUOUS
 10
-2.1108642578
 20
-68.9657890625
 40
1.3
100
AcDbArc
 50
89.999999999
 51
180.0
  0
ARC
  5
6D1
100
AcDbEntity
  8
IMPORT_IGES
100
AcDbCircle
 62
7
  6
CONTINUOUS
 10
-2.1108642578
 20
-68.9657890625
 40
1.0
100
AcDbArc
 50
90.0
 51
180.0000000078
  0
ARC
  5
6D2
100
AcDbEntity
  8
IMPORT_IGES
100
AcDbCircle
 62
253
  6
CONTINUOUS
 10
-0.8608642578
 20
-67.597583782
 40
0.7
100
AcDbArc
 50
186.1256577714
 51
269.8387858744
  0
ARC
  5
6D3
100
AcDbEntity
  8
IMPORT_IGES
100
AcDbCircle
 62
253
  6
CONTINUOUS
 10
-2.1108642578
 20
-68.9657890625
 40
0.7
100
AcDbArc
 50
90.0
 51
180.0
  0
ARC
  5
6D4
100
AcDbEntity
  8
IMPORT_IGES
100
AcDbCircle
 62
7
  6
CONTINUOUS
 10
-1.7055470994
 20
-68.5824597951
 40
0.6
100
AcDbArc
 50
283.9720463854
 51
334.8767063357
  0
ARC
  5
6D5
100
AcDbEntity
  8
IMPORT_IGES
100
AcDbCircle
 62
7
  6
CONTINUOUS
 10
-1.1486155948
 20
-67.197583782
 40
0.6
100
AcDbArc
 50
172.4289186645
 51
269.9999999999
  0
ARC
  5
6D6
100
AcDbEntity
  8
IMPORT_IGES
100
AcDbCircle
 62
7
  6
CONTINUOUS
 10
-2.1608642578
 20
-71.3657890625
 40
0.6
100
AcDbArc
 50
269.9999999999
 51
360.0
  0
ARC
  5
6D7
100
AcDbEntity
  8
IMPORT_IGES
100
AcDbCircle
 62
7
  6
CONTINUOUS
 10
-2.5108642578
 20
-71.3657890625
 40
0.6
100
AcDbArc
 50
180.0
 51
270.0
  0
ARC
  5
6D8
100
AcDbEntity
  8
IMPORT_IGES
100
AcDbCircle
 62
253
  6
CONTINUOUS
 10
-1.1486155948
 20
-67.197583782
 40
0.4
100
AcDbArc
 50
172.4289186646
 51
269.9999999999
  0
ARC
  5
6D9
100
AcDbEntity
  8
IMPORT_IGES
100
AcDbCircle
 62
7
  6
CONTINUOUS
 10
2.0391357422
 20
-67.0224837795
 40
0.3
100
AcDbArc
 50
270.0
 51
360.0
  0
ARC
  5
6DA
100
AcDbEntity
  8
IMPORT_IGES
100
AcDbCircle
 62
7
  6
CONTINUOUS
 10
-1.8608642578
 20
-68.2657890625
 40
0.3
100
AcDbArc
 50
0.0
 51
90.0000000002
  0
ARC
  5
6DB
100
AcDbEntity
  8
IMPORT_IGES
100
AcDbCircle
 62
253
  6
CONTINUOUS
 10
-2.1608642578
 20
-71.3657890625
 40
0.3
100
AcDbArc
 50
270.0000000001
 51
360.0
  0
ARC
  5
6DC
100
AcDbEntity
  8
IMPORT_IGES
100
AcDbCircle
 62
253
  6
CONTINUOUS
 10
-2.5108642578
 20
-71.3657890625
 40
0.3
100
AcDbArc
 50
180.0
 51
270.0
  0
ARC
  5
6DD
100
AcDbEntity
  8
IMPORT_IGES
100
AcDbCircle
 62
7
  6
CONTINUOUS
 10
-3.466372264
 20
-64.5708004559
 40
1.905513565
100
AcDbArc
 50
0.1395634649
 51
178.1372298283
  0
ARC
  5
6DE
100
AcDbEntity
  8
IMPORT_IGES
100
AcDbCircle
 62
253
  6
CONTINUOUS
 10
-3.466372264
 20
-64.5708004559
 40
1.6054856081
100
AcDbArc
 50
0.1450301271
 51
178.0267814416
  0
ARC
  5
6DF
100
AcDbEntity
  8
IMPORT_IGES
100
AcDbCircle
 62
253
  6
CONTINUOUS
 10
-1.6949145119
 20
-63.8542473749
 40
0.7
100
AcDbArc
 50
280.7609054582
 51
349.9865678122
  0
ARC
  5
6E0
100
AcDbEntity
  8
IMPORT_IGES
100
AcDbCircle
 62
7
  6
CONTINUOUS
 10
-1.6949145119
 20
-63.8542473749
 40
0.5
100
AcDbArc
 50
283.8109467865
 51
349.9865678122
  0
ARC
  5
6E1
100
AcDbEntity
  8
IMPORT_IGES
100
AcDbCircle
 62
7
  6
CONTINUOUS
 10
-3.9396602658
 20
-60.2607890625
 40
0.3
100
AcDbArc
 50
90.0
 51
135.000071038
  0
ARC
  5
6E2
100
AcDbEntity
  8
IMPORT_IGES
100
AcDbCircle
 62
7
  6
CONTINUOUS
 10
-0.8608642578
 20
-60.1607890625
 40
0.2
100
AcDbArc
 50
90.000000014
 51
179.9999999998
  0
ARC
  5
6E3
100
AcDbEntity
  8
IMPORT_IGES
100
AcDbCircle
 62
7
  6
CONTINUOUS
 10
-3.4608642578
 20
-59.8607890625
 40
0.1
100
AcDbArc
 50
89.9985366611
 51
179.9999999999
  0
ARC
  5
6E4
100
AcDbEntity
  8
IMPORT_IGES
100
AcDbCircle
 62
7
  6
CONTINUOUS
 10
-3.6608642578
 20
-59.8607890625
 40
0.1
100
AcDbArc
 50
270.0028894103
 51
360.0
  0
ARC
  5
6E5
100
AcDbEntity
  8
RACCORDO
100
AcDbCircle
 62
7
  6
CONTINUOUS
 10
6.0391357422
 20
-84.8107890625
 40
0.3
100
AcDbArc
 50
0.0
 51
90.0
  0
ARC
  5
6E6
100
AcDbEntity
  8
IMPORT_IGES
100
AcDbCircle
 62
7
  6
CONTINUOUS
 10
9.1622791827
 20
-81.5607890625
 40
0.3
100
AcDbArc
 50
269.9999717711
 51
299.9999553967
  0
ARC
  5
6E7
100
AcDbEntity
  8
ASSI
100
AcDbCircle
 62
7
  6
CONTINUOUS
 10
7.1391357422
 20
-88.2107890625
 40
0.3
100
AcDbArc
 50
0.0
 51
90.0
  0
ARC
  5
6E8
100
AcDbEntity
  8
IMPORT_IGES
100
AcDbCircle
 62
7
  6
CONTINUOUS
 10
10.8943324135
 20
-80.5607896181
 40
0.2999989024
100
AcDbArc
 50
299.9939330954
 51
359.0002593113
  0
ARC
  5
6E9
100
AcDbEntity
  8
IMPORT_IGES
100
AcDbCircle
 62
7
  6
CONTINUOUS
 10
10.3891357421
 20
-80.9679331515
 40
0.2
100
AcDbArc
 50
180.0000360725
 51
300.0000003414
  0
ARC
  5
6EA
100
AcDbEntity
  8
IMPORT_IGES
100
AcDbCircle
 62
7
  6
CONTINUOUS
 10
6.7125873669
 20
-81.6607890625
 40
0.2
100
AcDbArc
 50
270.000000011
 51
359.4199982135
  0
ARC
  5
6EB
100
AcDbEntity
  8
IMPORT_IGES
100
AcDbCircle
 62
7
  6
CONTINUOUS
 10
9.0391357422
 20
-81.9607890625
 40
0.1
100
AcDbArc
 50
90.0025347004
 51
179.9999999998
  0
ARC
  5
6EC
100
AcDbEntity
  8
IMPORT_IGES
100
AcDbCircle
 62
7
  6
CONTINUOUS
 10
8.8391357422
 20
-81.9607890625
 40
0.1
100
AcDbArc
 50
269.9984899776
 51
360.0
  0
ARC
  5
6ED
100
AcDbEntity
  8
IMPORT_IGES
100
AcDbCircle
 62
253
  6
CONTINUOUS
 10
2.9391357422
 20
-70.7604913149
 40
7.4999707336
100
AcDbArc
 50
70.5285040378
 51
109.4716831012
  0
ARC
  5
6EE
100
AcDbEntity
  8
IMPORT_IGES
100
AcDbCircle
 62
7
  6
CONTINUOUS
 10
2.9391357422
 20
-70.7604913149
 40
4.53
100
AcDbArc
 50
25.1232936643
 51
154.8767063357
  0
ARC
  5
6EF
100
AcDbEntity
  8
IMPORT_IGES
100
AcDbCircle
 62
7
  6
CONTINUOUS
 10
2.9391357422
 20
-71.0907890625
 40
4.5
100
AcDbArc
 50
183.051925112
 51
356.9480150513
  0
ARC
  5
6F0
100
AcDbEntity
  8
IMPORT_IGES
100
AcDbCircle
 62
7
  6
CONTINUOUS
 10
2.9391357422
 20
-68.7296894885
 40
5.3
100
AcDbArc
 50
56.5066652144
 51
123.4933347856
  0
ARC
  5
6F1
100
AcDbEntity
  8
IMPORT_IGES
100
AcDbCircle
 62
253
  6
CONTINUOUS
 10
2.9391357422
 20
-68.7296894885
 40
5.0999439942
100
AcDbArc
 50
56.5066652143
 51
123.4933347857
  0
ARC
  5
6F2
100
AcDbEntity
  8
IMPORT_IGES
100
AcDbCircle
 62
7
  6
CONTINUOUS
 10
3.6565277106
 20
-67.6455544583
 40
4.0
100
AcDbArc
 50
7.571081337
 51
56.5066652144
  0
ARC
  5
6F3
100
AcDbEntity
  8
IMPORT_IGES
100
AcDbCircle
 62
253
  6
CONTINUOUS
 10
3.6565277106
 20
-67.6455544583
 40
3.8
100
AcDbArc
 50
7.5710813354
 51
56.5066652143
  0
ARC
  5
6F4
100
AcDbEntity
  8
IMPORT_IGES
100
AcDbCircle
 62
7
  6
CONTINUOUS
 10
3.8391357422
 20
-67.0224837795
 40
0.3
100
AcDbArc
 50
180.0
 51
270.0
  0
ARC
  5
6F5
100
AcDbEntity
  8
IMPORT_IGES
100
AcDbCircle
 62
7
  6
CONTINUOUS
 10
8.3891357422
 20
-71.3657890625
 40
0.6
100
AcDbArc
 50
269.9999999999
 51
360.0
  0
ARC
  5
6F6
100
AcDbEntity
  8
IMPORT_IGES
100
AcDbCircle
 62
7
  6
CONTINUOUS
 10
8.0391357422
 20
-71.3657890625
 40
0.6
100
AcDbArc
 50
180.0
 51
270.0
  0
ARC
  5
6F7
100
AcDbEntity
  8
IMPORT_IGES
100
AcDbCircle
 62
253
  6
CONTINUOUS
 10
8.3891357422
 20
-71.3657890625
 40
0.3
100
AcDbArc
 50
270.0000000001
 51
359.9999999999
  0
ARC
  5
6F8
100
AcDbEntity
  8
IMPORT_IGES
100
AcDbCircle
 62
253
  6
CONTINUOUS
 10
8.0391357422
 20
-71.3657890625
 40
0.3
100
AcDbArc
 50
180.0
 51
270.0
  0
ARC
  5
6F9
100
AcDbEntity
  8
IMPORT_IGES
100
AcDbCircle
 62
253
  6
CONTINUOUS
 10
7.9891357422
 20
-68.9657890625
 40
1.3
100
AcDbArc
 50
0.0
 51
90.0
  0
ARC
  5
6FA
100
AcDbEntity
  8
IMPORT_IGES
100
AcDbCircle
 62
7
  6
CONTINUOUS
 10
7.9891357422
 20
-68.9657890625
 40
1.0
100
AcDbArc
 50
0.0
 51
90.0
  0
ARC
  5
6FB
100
AcDbEntity
  8
IMPORT_IGES
100
AcDbCircle
 62
253
  6
CONTINUOUS
 10
6.7391357422
 20
-67.597583782
 40
0.7
100
AcDbArc
 50
270.1612141257
 51
354.4162937363
  0
ARC
  5
6FC
100
AcDbEntity
  8
IMPORT_IGES
100
AcDbCircle
 62
253
  6
CONTINUOUS
 10
7.9891357422
 20
-68.9657890625
 40
0.7
100
AcDbArc
 50
0.0
 51
90.0
  0
ARC
  5
6FD
100
AcDbEntity
  8
IMPORT_IGES
100
AcDbCircle
 62
7
  6
CONTINUOUS
 10
7.0268870791
 20
-67.197583782
 40
0.6
100
AcDbArc
 50
269.9999999428
 51
7.5710813447
  0
ARC
  5
6FE
100
AcDbEntity
  8
IMPORT_IGES
100
AcDbCircle
 62
7
  6
CONTINUOUS
 10
7.5838185838
 20
-68.5824597951
 40
0.6
100
AcDbArc
 50
205.1232936644
 51
256.0468877463
  0
ARC
  5
6FF
100
AcDbEntity
  8
IMPORT_IGES
100
AcDbCircle
 62
253
  6
CONTINUOUS
 10
7.0268870791
 20
-67.197583782
 40
0.4
100
AcDbArc
 50
270.0000000002
 51
7.5710813353
  0
ARC
  5
700
100
AcDbEntity
  8
IMPORT_IGES
100
AcDbCircle
 62
7
  6
CONTINUOUS
 10
7.7391357422
 20
-68.2657890625
 40
0.3
100
AcDbArc
 50
90.0
 51
180.0
  0
ARC
  5
701
100
AcDbEntity
  8
IMPORT_IGES
100
AcDbCircle
 62
7
  6
CONTINUOUS
 10
9.3446437484
 20
-64.5708004559
 40
1.905513565
100
AcDbArc
 50
1.8627701719
 51
179.8604365352
  0
ARC
  5
702
100
AcDbEntity
  8
IMPORT_IGES
100
AcDbCircle
 62
253
  6
CONTINUOUS
 10
9.3446437484
 20
-64.5708004559
 40
1.605485616
100
AcDbArc
 50
1.8712366982
 51
179.8439250555
  0
ARC
  5
703
100
AcDbEntity
  8
IMPORT_IGES
100
AcDbCircle
 62
253
  6
CONTINUOUS
 10
7.5731859963
 20
-63.8542473749
 40
0.7
100
AcDbArc
 50
190.0134321878
 51
259.2439469407
  0
ARC
  5
704
100
AcDbEntity
  8
IMPORT_IGES
100
AcDbCircle
 62
7
  6
CONTINUOUS
 10
7.5731859963
 20
-63.8542473749
 40
0.5
100
AcDbArc
 50
190.0134321878
 51
256.3076144804
  0
ARC
  5
705
100
AcDbEntity
  8
IMPORT_IGES
100
AcDbCircle
 62
7
  6
CONTINUOUS
 10
6.7391357422
 20
-60.1607890625
 40
0.2
100
AcDbArc
 50
0.0000000002
 51
90.0
  0
ARC
  5
706
100
AcDbEntity
  8
IMPORT_IGES
100
AcDbCircle
 62
7
  6
CONTINUOUS
 10
9.3391357422
 20
-59.8607890625
 40
0.1
100
AcDbArc
 50
0.0000000001
 51
90.0014633388
  0
ARC
  5
707
100
AcDbEntity
  8
IMPORT_IGES
100
AcDbCircle
 62
7
  6
CONTINUOUS
 10
9.5391357422
 20
-59.8607890625
 40
0.1
100
AcDbArc
 50
179.9999999999
 51
269.9971105898
  0
ARC
  5
708
100
AcDbEntity
  8
IMPORT_IGES
100
AcDbCircle
 62
7
  6
CONTINUOUS
 10
9.9891357422
 20
-71.3818710456
 40
0.2
100
AcDbArc
 50
0.0
 51
89.9855208623
  0
ARC
  5
709
100
AcDbEntity
  8
IMPORT_IGES
100
AcDbCircle
 62
253
  6
CONTINUOUS
 10
16.2391357422
 20
-62.3241117596
 40
9.5
100
AcDbArc
 50
185.0956903802
 51
190.0134321878
  0
ARC
  5
70A
100
AcDbEntity
  8
IMPORT_IGES
100
AcDbCircle
 62
7
  6
CONTINUOUS
 10
16.2391357422
 20
-62.3241117596
 40
9.3
100
AcDbArc
 50
180.0000007965
 51
190.0134321859
  0
ARC
  5
70B
100
AcDbEntity
  8
IMPORT_IGES
100
AcDbCircle
 62
7
  6
CONTINUOUS
 10
9.8179317501
 20
-60.2607890625
 40
0.3
100
AcDbArc
 50
44.9999520207
 51
89.9997513231
  0
ARC
  5
70C
100
AcDbEntity
  8
IMPORT_IGES
100
AcDbCircle
 62
7
  6
CONTINUOUS
 10
10.895687217
 20
-61.3385445293
 40
0.3
100
AcDbArc
 50
1.0
 51
44.9999963826
  0
ARC
  5
70D
100
AcDbEntity
  8
IMPORT_IGES
100
AcDbCircle
 62
7
  6
CONTINUOUS
 10
10.1421357422
 20
-60.4435716983
 40
0.2
100
AcDbArc
 50
44.9999998017
 51
180.0
  0
ELLIPSE
  5
70E
100
AcDbEntity
  8
IMPORT_IGES
100
AcDbEllipse
 62
7
  6
CONTINUOUS
 10
-2.483550914
 20
-80.1225127799
 30
0.0
 11
0.0
 21
2.0
 31
0.0
 40
0.0633224816
 41
-3.3881354374
 42
-3.1415926536
  0
ELLIPSE
  5
70F
100
AcDbEntity
  8
IMPORT_IGES
100
AcDbEllipse
 62
7
  6
CONTINUOUS
 10
8.3618223983
 20
-80.1225127799
 30
0.0
 11
-0.0
 21
2.0
 31
0.0
 40
0.0633224816
 41
-3.1415926536
 42
-2.8950499539
  0
ELLIPSE
  5
710
100
AcDbEntity
  8
IMPORT_IGES
100
AcDbEllipse
 62
7
  6
CONTINUOUS
 10
0.3342822399
 20
-74.5618274938
 30
0.0
 11
0.3
 21
-0.0
 31
0.0
 40
0.0238095238
 41
1.5707963268
 42
2.6364764424
  0
ELLIPSE
  5
711
100
AcDbEntity
  8
IMPORT_IGES
100
AcDbEllipse
 62
7
  6
CONTINUOUS
 10
1.2342822399
 20
-74.5618274938
 30
0.0
 11
0.3
 21
-0.0
 31
0.0
 40
0.0238095238
 41
-0.0
 42
1.5707963268
  0
ELLIPSE
  5
712
100
AcDbEntity
  8
IMPORT_IGES
100
AcDbEllipse
 62
7
  6
CONTINUOUS
 10
4.6439892445
 20
-67.2962933033
 30
0.0
 11
0.3
 21
0.0
 31
0.0
 40
0.0158730159
 41
-3.1415926536
 42
-1.5707963268
  0
ELLIPSE
  5
713
100
AcDbEntity
  8
IMPORT_IGES
100
AcDbEllipse
 62
7
  6
CONTINUOUS
 10
4.6439892445
 20
-74.5618274938
 30
0.0
 11
0.3
 21
-0.0
 31
0.0
 40
0.0238095238
 41
1.5707963268
 42
3.1415926536
  0
ELLIPSE
  5
714
100
AcDbEntity
  8
IMPORT_IGES
100
AcDbEllipse
 62
7
  6
CONTINUOUS
 10
7.3439892445
 20
-63.2623439194
 30
0.0
 11
0.3
 21
0.0
 31
0.0
 40
0.020979021
 41
-3.1415926536
 42
-3.0070370125
  0
ELLIPSE
  5
715
100
AcDbEntity
  8
IMPORT_IGES
100
AcDbEllipse
 62
7
  6
CONTINUOUS
 10
5.5439892445
 20
-74.5618274938
 30
0.0
 11
0.3
 21
-0.0
 31
0.0
 40
0.0238095238
 41
0.5051222331
 42
1.5707963268
  0
ELLIPSE
  5
716
100
AcDbEntity
  8
IMPORT_IGES
100
AcDbEllipse
 62
7
  6
CONTINUOUS
 10
4.7439892445
 20
-66.5352603169
 30
0.0
 11
-0.0
 21
0.7
 31
0.0
 40
1.0
 41
-4.7123889804
 42
-3.7498382325
  0
ELLIPSE
  5
717
100
AcDbEntity
  8
IMPORT_IGES
100
AcDbEllipse
 62
7
  6
CONTINUOUS
 10
1.1342822399
 20
-66.5352603169
 30
0.0
 11
0.0
 21
0.7
 31
0.0
 40
1.0
 41
-2.5333470747
 42
-1.5707963268
  0
ELLIPSE
  5
718
100
AcDbEntity
  8
IMPORT_IGES
100
AcDbEllipse
 62
7
  6
CONTINUOUS
 10
5.5439892445
 20
-67.2962933033
 30
0.0
 11
0.3
 21
0.0
 31
0.0
 40
0.0158730159
 41
-1.5707963268
 42
0.0
  0
ELLIPSE
  5
719
100
AcDbEntity
  8
IMPORT_IGES
100
AcDbEllipse
 62
7
  6
CONTINUOUS
 10
1.2342822399
 20
-67.2962933033
 30
0.0
 11
0.3
 21
-0.0
 31
0.0
 40
0.0158730159
 41
-1.5707963268
 42
0.0
  0
ELLIPSE
  5
71A
100
AcDbEntity
  8
IMPORT_IGES
100
AcDbEllipse
 62
7
  6
CONTINUOUS
 10
-1.4657177601
 20
-63.2623439194
 30
0.0
 11
0.3
 21
0.0
 31
0.0
 40
0.020979021
 41
-0.5228872352
 42
0.0
  0
ELLIPSE
  5
71B
100
AcDbEntity
  8
IMPORT_IGES
100
AcDbEllipse
 62
7
  6
CONTINUOUS
 10
1.1442344513
 20
-75.3449262864
 30
0.0
 11
0.7
 21
0.0
 31
0.0
 40
1.0
 41
0.1688269081
 42
0.9797729142
  0
ELLIPSE
  5
71C
100
AcDbEntity
  8
IMPORT_IGES
100
AcDbEllipse
 62
7
  6
CONTINUOUS
 10
4.7340370331
 20
-75.3449262864
 30
0.0
 11
0.0
 21
0.7
 31
0.0
 40
1.0
 41
0.5910234126
 42
1.4019694187
  0
ELLIPSE
  5
71D
100
AcDbEntity
  8
IMPORT_IGES
100
AcDbEllipse
 62
7
  6
CONTINUOUS
 10
0.3342822399
 20
-67.2962933033
 30
0.0
 11
0.3
 21
-0.0
 31
0.0
 40
0.0158730159
 41
3.1415926536
 42
4.7123889804
  0
ELLIPSE
  5
71E
100
AcDbEntity
  8
IMPORT_IGES
100
AcDbEllipse
 62
7
  6
CONTINUOUS
 10
-2.6108642578
 20
-77.3771744121
 30
0.0
 11
0.0
 21
1.5881180375
 31
0.0
 40
0.1259352235
 41
-4.7123889803
 42
-3.4987217427
  0
ELLIPSE
  5
71F
100
AcDbEntity
  8
IMPORT_IGES
100
AcDbEllipse
 62
7
  6
CONTINUOUS
 10
10.3891357422
 20
-77.3771744122
 30
0.0
 11
0.0
 21
1.5881180375
 31
0.0
 40
0.1259352235
 41
-4.7123889803
 42
-3.4987217427
  0
ELLIPSE
  5
720
100
AcDbEntity
  8
ASSI
100
AcDbEllipse
 62
7
  6
CONTINUOUS
 10
-5.5608684887
 20
-47.1994641971
 30
0.0
 11
-0.0029088041
 21
0.2886641433
 31
0.0
 40
0.8660144118
 41
-3.150319066
 42
-1.582431609
  0
ELLIPSE
  5
721
100
AcDbEntity
  8
ASSI
100
AcDbEllipse
 62
7
  6
CONTINUOUS
 10
-5.5608684887
 20
-94.0221139279
 30
0.0
 11
0.0029088041
 21
0.2886641433
 31
0.0
 40
0.8660144118
 41
-1.5591610446
 42
0.0087264124
  0
ELLIPSE
  5
722
100
AcDbEntity
  8
ASSI
100
AcDbEllipse
 62
7
  6
CONTINUOUS
 10
11.439139973
 20
-94.0221139279
 30
0.0
 11
-0.0029088041
 21
0.2886641433
 31
0.0
 40
0.8660144118
 41
-0.0087264124
 42
1.5591610446
  0
ELLIPSE
  5
723
100
AcDbEntity
  8
ASSI
100
AcDbEllipse
 62
7
  6
CONTINUOUS
 10
11.439139973
 20
-47.1994641971
 30
0.0
 11
0.0029088041
 21
0.2886641433
 31
0.0
 40
0.8660144118
 41
-4.7007536982
 42
-3.1328662411
  0
ELLIPSE
  5
724
100
AcDbEntity
  8
ASSI
100
AcDbEllipse
 62
7
  6
CONTINUOUS
 10
13.3391315113
 20
-47.1994641971
 30
0.0
 11
-0.0029088041
 21
0.2886641433
 31
0.0
 40
0.8660144118
 41
-3.150319066
 42
-1.582431609
  0
ELLIPSE
  5
725
100
AcDbEntity
  8
ASSI
100
AcDbEllipse
 62
7
  6
CONTINUOUS
 10
-7.7107880938
 20
-92.5020431555
 30
0.0
 11
-0.4473055582
 21
0.2236357461
 31
0.0
 40
0.9998096356
 41
6.7467263073
 42
8.3176749331
  0
ELLIPSE
  5
726
100
AcDbEntity
  8
ASSI
100
AcDbEllipse
 62
7
  6
CONTINUOUS
 10
13.5890595782
 20
-48.7195349695
 30
0.0
 11
0.4473055582
 21
-0.2236357461
 31
0.0
 40
0.9998096356
 41
6.7467263073
 42
8.3176749331
  0
ELLIPSE
  5
727
100
AcDbEntity
  8
ASSI
100
AcDbEllipse
 62
7
  6
CONTINUOUS
 10
13.3391315113
 20
-94.0221139279
 30
0.0
 11
0.0029088041
 21
0.2886641433
 31
0.0
 40
0.8660144118
 41
-1.5591610446
 42
0.0087264124
  0
ELLIPSE
  5
728
100
AcDbEntity
  8
ASSI
100
AcDbEllipse
 62
7
  6
CONTINUOUS
 10
-4.644964977
 20
-91.6024211743
 30
0.0
 11
0.5
 21
0.0
 31
0.0
 40
0.0087268678
 41
-3.1241393611
 42
-1.5707963268
  0
ELLIPSE
  5
729
100
AcDbEntity
  8
ASSI
100
AcDbEllipse
 62
7
  6
CONTINUOUS
 10
10.5232364613
 20
-91.6024211743
 30
0.0
 11
0.5
 21
0.0
 31
0.0
 40
0.0087268678
 41
-1.5707963268
 42
-0.0174532925
  0
ELLIPSE
  5
72A
100
AcDbEntity
  8
ASSI
100
AcDbEllipse
 62
7
  6
CONTINUOUS
 10
-4.644964977
 20
-49.6191569507
 30
0.0
 11
0.5
 21
0.0
 31
0.0
 40
0.0087268678
 41
1.5707963268
 42
3.1241393611
  0
ELLIPSE
  5
72B
100
AcDbEntity
  8
ASSI
100
AcDbEllipse
 62
7
  6
CONTINUOUS
 10
10.5232364613
 20
-49.6191569507
 30
0.0
 11
0.5
 21
-0.0
 31
0.0
 40
0.0087268678
 41
0.0174532925
 42
1.5707963268
  0
ELLIPSE
  5
72C
100
AcDbEntity
  8
ASSI
100
AcDbEllipse
 62
7
  6
CONTINUOUS
 10
-3.616133641
 20
-91.1937133457
 30
0.0
 11
0.0
 21
0.5
 31
0.0
 40
0.0058178298
 41
0.0087266463
 42
1.5707963268
  0
ELLIPSE
  5
72D
100
AcDbEntity
  8
ASSI
100
AcDbEllipse
 62
7
  6
CONTINUOUS
 10
9.4944051254
 20
-91.1937133457
 30
0.0
 11
-0.0
 21
0.5
 31
0.0
 40
0.0058178298
 41
-1.5707963268
 42
-0.0087266463
  0
ELLIPSE
  5
72E
100
AcDbEntity
  8
ASSI
100
AcDbEllipse
 62
7
  6
CONTINUOUS
 10
9.4944051254
 20
-50.0278647793
 30
0.0
 11
-0.0
 21
0.5
 31
0.0
 40
0.0058178298
 41
-3.1328660073
 42
-1.5707963268
  0
ELLIPSE
  5
72F
100
AcDbEntity
  8
ASSI
100
AcDbEllipse
 62
7
  6
CONTINUOUS
 10
-3.616133641
 20
-50.0278647793
 30
0.0
 11
-0.0
 21
0.5
 31
0.0
 40
0.0058178298
 41
-4.7123889804
 42
-3.1503192999
  0
ELLIPSE
  5
730
100
AcDbEntity
  8
ASSI
100
AcDbEllipse
 62
7
  6
CONTINUOUS
 10
-0.9888342455
 20
-48.2768691673
 30
0.0
 11
0.4279699877
 21
-0.0
 31
0.0
 40
0.0087268678
 41
-3.1357748894
 42
-0.0
  0
ELLIPSE
  5
731
100
AcDbEntity
  8
ASSI
100
AcDbEllipse
 62
7
  6
CONTINUOUS
 10
6.8671057299
 20
-48.2768691673
 30
0.0
 11
0.4279699877
 21
0.0
 31
0.0
 40
0.0087268678
 41
-3.1415926536
 42
-0.0058177642
  0
ELLIPSE
  5
732
100
AcDbEntity
  8
ASSI
100
AcDbEllipse
 62
7
  6
CONTINUOUS
 10
-0.9888342455
 20
-92.9447089577
 30
0.0
 11
0.4279699877
 21
0.0
 31
0.0
 40
0.0087268678
 41
0.0
 42
3.1357748894
  0
ELLIPSE
  5
733
100
AcDbEntity
  8
ASSI
100
AcDbEllipse
 62
7
  6
CONTINUOUS
 10
6.8671057299
 20
-92.9447089577
 30
0.0
 11
0.4279699877
 21
0.0
 31
0.0
 40
0.0087268678
 41
0.0058177642
 42
3.1415926536
  0
ELLIPSE
  5
734
100
AcDbEntity
  8
ASSI
100
AcDbEllipse
 62
7
  6
CONTINUOUS
 10
11.8695151528
 20
-82.1980577404
 30
0.0
 11
0.3
 21
0.0
 31
0.0
 40
0.0087268678
 41
-1.5707963268
 42
-0.3490658504
  0
ELLIPSE
  5
735
100
AcDbEntity
  8
ASSI
100
AcDbEllipse
 62
7
  6
CONTINUOUS
 10
7.1391357422
 20
-90.6081710022
 30
0.0
 11
0.3
 21
0.0
 31
0.0
 40
0.0087268678
 41
-1.5707963268
 42
0.0
  0
ELLIPSE
  5
736
100
AcDbEntity
  8
ASSI
100
AcDbEllipse
 62
7
  6
CONTINUOUS
 10
-1.2608642578
 20
-90.6081710022
 30
0.0
 11
0.3
 21
0.0
 31
0.0
 40
0.0087268678
 41
-3.1415926536
 42
-1.5707963268
  0
ELLIPSE
  5
737
100
AcDbEntity
  8
ASSI
100
AcDbEllipse
 62
7
  6
CONTINUOUS
 10
10.2629888444
 20
-90.4107890625
 30
0.0
 11
0.0
 21
0.5
 31
0.0
 40
0.0058178298
 41
-0.0
 42
1.5707963268
  0
ELLIPSE
  5
738
100
AcDbEntity
  8
ASSI
100
AcDbEllipse
 62
7
  6
CONTINUOUS
 10
-7.7107880938
 20
-48.7195349695
 30
0.0
 11
0.4473055582
 21
0.2236357461
 31
0.0
 40
0.9998096356
 41
1.1071030277
 42
2.6780516535
  0
ELLIPSE
  5
739
100
AcDbEntity
  8
ASSI
100
AcDbEllipse
 62
7
  6
CONTINUOUS
 10
12.517569976
 20
-90.4107890625
 30
0.0
 11
-0.0
 21
0.5
 31
0.0
 40
0.0174550649
 41
-1.5707963268
 42
0.0
  0
ELLIPSE
  5
73A
100
AcDbEntity
  8
ASSI
100
AcDbEllipse
 62
7
  6
CONTINUOUS
 10
13.5890595782
 20
-92.5020431555
 30
0.0
 11
-0.4473055582
 21
-0.2236357461
 31
0.0
 40
0.9998096356
 41
1.1071030277
 42
2.6780516535
  0
ELLIPSE
  5
73B
100
AcDbEntity
  8
ASSI
100
AcDbEllipse
 62
7
  6
CONTINUOUS
 10
9.41528264
 20
-90.4107890625
 30
0.0
 11
0.0
 21
0.5
 31
0.0
 40
0.0058178298
 41
-1.5707963268
 42
-0.0
  0
ELLIPSE
  5
73C
100
AcDbEntity
  8
ASSI
100
AcDbEllipse
 62
7
  6
CONTINUOUS
 10
-3.5370111556
 20
-90.4107890625
 30
0.0
 11
0.0
 21
0.5
 31
0.0
 40
0.0058178298
 41
-0.0
 42
1.5707963268
  0
ELLIPSE
  5
73D
100
AcDbEntity
  8
ASSI
100
AcDbEllipse
 62
7
  6
CONTINUOUS
 10
-6.6392984916
 20
-90.4107890625
 30
0.0
 11
-0.0
 21
0.5
 31
0.0
 40
0.0174550649
 41
-0.0
 42
1.5707963268
  0
ELLIPSE
  5
73E
100
AcDbEntity
  8
ASSI
100
AcDbEllipse
 62
7
  6
CONTINUOUS
 10
-4.38471736
 20
-90.4107890625
 30
0.0
 11
-0.0
 21
0.5
 31
0.0
 40
0.0058178298
 41
-1.5707963268
 42
-0.0
  0
ELLIPSE
  5
73F
100
AcDbEntity
  8
ASSI
100
AcDbEllipse
 62
7
  6
CONTINUOUS
 10
-4.0608452186
 20
-60.2108081017
 30
0.0
 11
0.3535803156
 21
-0.3535803156
 31
0.0
 40
0.9999238505
 41
2.3562325664
 42
3.9269527408
  0
ELLIPSE
  5
740
100
AcDbEntity
  8
ASSI
100
AcDbEllipse
 62
7
  6
CONTINUOUS
 10
9.939116703
 20
-60.2108081017
 30
0.0
 11
0.3535803156
 21
0.3535803156
 31
0.0
 40
0.9999238505
 41
-0.7853600872
 42
0.7853600872
  0
ELLIPSE
  5
741
100
AcDbEntity
  8
ASSI
100
AcDbEllipse
 62
7
  6
CONTINUOUS
 10
9.939116703
 20
-84.0107700233
 30
0.0
 11
0.3535803156
 21
-0.3535803156
 31
0.0
 40
0.9999238505
 41
-0.7853600872
 42
0.7853600872
  0
ELLIPSE
  5
742
100
AcDbEntity
  8
ASSI
100
AcDbEllipse
 62
7
  6
CONTINUOUS
 10
-4.0608452186
 20
-84.0107700233
 30
0.0
 11
0.3535803156
 21
0.3535803156
 31
0.0
 40
0.9999238505
 41
-3.9269527408
 42
-2.3562325664
  0
ELLIPSE
  5
743
100
AcDbEntity
  8
ASSI
100
AcDbEllipse
 62
7
  6
CONTINUOUS
 10
11.8695151528
 20
-83.0235203846
 30
0.0
 11
0.3
 21
0.0
 31
0.0
 40
0.0087268678
 41
0.3490658504
 42
1.5707963268
  0
ELLIPSE
  5
744
100
AcDbEntity
  8
ASSI
100
AcDbEllipse
 62
7
  6
CONTINUOUS
 10
-5.9912436684
 20
-83.0235203846
 30
0.0
 11
0.3
 21
0.0
 31
0.0
 40
0.0087268678
 41
1.5707963268
 42
2.7925268032
  0
ELLIPSE
  5
745
100
AcDbEntity
  8
ASSI
100
AcDbEllipse
 62
7
  6
CONTINUOUS
 10
11.8695151528
 20
-61.7980577404
 30
0.0
 11
0.3
 21
-0.0
 31
0.0
 40
0.0087268678
 41
-1.5707963268
 42
-0.3490658504
  0
ELLIPSE
  5
746
100
AcDbEntity
  8
ASSI
100
AcDbEllipse
 62
7
  6
CONTINUOUS
 10
-5.9912436684
 20
-61.7980577404
 30
0.0
 11
0.3
 21
0.0
 31
0.0
 40
0.0087268678
 41
-2.7925268032
 42
-1.5707963268
  0
ELLIPSE
  5
747
100
AcDbEntity
  8
ASSI
100
AcDbEllipse
 62
7
  6
CONTINUOUS
 10
9.7513999861
 20
-59.7980577404
 30
0.0
 11
0.3
 21
0.0
 31
0.0
 40
0.0087268678
 41
-3.1241393611
 42
-1.5707963268
  0
ELLIPSE
  5
748
100
AcDbEntity
  8
ASSI
100
AcDbEllipse
 62
7
  6
CONTINUOUS
 10
-3.8731285017
 20
-59.7980577404
 30
0.0
 11
0.3
 21
0.0
 31
0.0
 40
0.0087268678
 41
-1.5707963268
 42
-0.0174532925
  0
ELLIPSE
  5
749
100
AcDbEntity
  8
ASSI
100
AcDbEllipse
 62
7
  6
CONTINUOUS
 10
-3.8731285017
 20
-84.4235203846
 30
0.0
 11
0.3
 21
-0.0
 31
0.0
 40
0.0087268678
 41
0.0174532925
 42
1.5707963268
  0
ELLIPSE
  5
74A
100
AcDbEntity
  8
ASSI
100
AcDbEllipse
 62
7
  6
CONTINUOUS
 10
9.7513999861
 20
-84.4235203846
 30
0.0
 11
0.3
 21
0.0
 31
0.0
 40
0.0087268678
 41
1.5707963268
 42
3.1241393611
  0
ELLIPSE
  5
74B
100
AcDbEntity
  8
ASSI
100
AcDbEllipse
 62
7
  6
CONTINUOUS
 10
9.8492299647
 20
-60.3006948399
 30
0.0
 11
-0.3535803156
 21
-0.3535803156
 31
0.0
 40
0.9999238505
 41
8.6394178736
 42
10.210138048
  0
ELLIPSE
  5
74C
100
AcDbEntity
  8
ASSI
100
AcDbEllipse
 62
7
  6
CONTINUOUS
 10
-3.9709584804
 20
-60.3006948399
 30
0.0
 11
-0.3535803156
 21
0.3535803156
 31
0.0
 40
0.9999238505
 41
5.49782522
 42
7.0685453944
  0
ELLIPSE
  5
74D
100
AcDbEntity
  8
ASSI
100
AcDbEllipse
 62
7
  6
CONTINUOUS
 10
12.4599682617
 20
-85.8900869044
 30
0.0
 11
0.0
 21
0.5
 31
0.0
 40
0.0174550649
 41
-1.5707963268
 42
-0.0523598776
  0
ELLIPSE
  5
74E
100
AcDbEntity
  8
ASSI
100
AcDbEllipse
 62
7
  6
CONTINUOUS
 10
-6.5816967773
 20
-85.8900869044
 30
0.0
 11
0.0
 21
0.5
 31
0.0
 40
0.0174550649
 41
0.0523598776
 42
1.5707963268
  0
ELLIPSE
  5
74F
100
AcDbEntity
  8
ASSI
100
AcDbEllipse
 62
7
  6
CONTINUOUS
 10
-6.14794986
 20
-90.8214348841
 30
0.0
 11
-0.1582391023
 21
-0.4751033573
 31
0.0
 40
0.9984778551
 41
-1.2488325878
 42
0.3210503505
  0
ELLIPSE
  5
750
100
AcDbEntity
  8
ASSI
100
AcDbEllipse
 62
7
  6
CONTINUOUS
 10
-6.2107880938
 20
-91.0101028895
 30
0.0
 11
0.1582391023
 21
0.4751033573
 31
0.0
 40
0.9984778551
 41
-4.3904252414
 42
-2.8205423031
  0
ELLIPSE
  5
751
100
AcDbEntity
  8
ASSI
100
AcDbEllipse
 62
7
  6
CONTINUOUS
 10
-6.2107880938
 20
-50.2114752355
 30
0.0
 11
-0.1582391023
 21
0.4751033573
 31
0.0
 40
0.9984778551
 41
-0.3210503505
 42
1.2488325878
  0
ELLIPSE
  5
752
100
AcDbEntity
  8
ASSI
100
AcDbEllipse
 62
7
  6
CONTINUOUS
 10
-6.0554380159
 20
-50.6779044711
 30
0.0
 11
-0.1582391023
 21
0.4751033573
 31
0.0
 40
0.9984778551
 41
-0.3210503505
 42
1.2488325878
  0
ELLIPSE
  5
753
100
AcDbEntity
  8
ASSI
100
AcDbEllipse
 62
7
  6
CONTINUOUS
 10
11.9337095003
 20
-50.6779044711
 30
0.0
 11
-0.1582391023
 21
-0.4751033573
 31
0.0
 40
0.9984778551
 41
1.8927600658
 42
3.4626430041
  0
ELLIPSE
  5
754
100
AcDbEntity
  8
ASSI
100
AcDbEllipse
 62
7
  6
CONTINUOUS
 10
12.0890595782
 20
-50.2114752355
 30
0.0
 11
0.1582391023
 21
0.4751033573
 31
0.0
 40
0.9984778551
 41
-1.2488325878
 42
0.3210503505
  0
ELLIPSE
  5
755
100
AcDbEntity
  8
ASSI
100
AcDbEllipse
 62
7
  6
CONTINUOUS
 10
12.0890595782
 20
-91.0101028895
 30
0.0
 11
-0.1582391023
 21
0.4751033573
 31
0.0
 40
0.9984778551
 41
-3.4626430041
 42
-1.8927600658
  0
ELLIPSE
  5
756
100
AcDbEntity
  8
ASSI
100
AcDbEllipse
 62
7
  6
CONTINUOUS
 10
12.0262213444
 20
-90.8214348841
 30
0.0
 11
-0.1582391023
 21
0.4751033573
 31
0.0
 40
0.9984778551
 41
2.8205423031
 42
4.3904252414
  0
ELLIPSE
  5
757
100
AcDbEntity
  8
ASSI
100
AcDbEllipse
 62
7
  6
CONTINUOUS
 10
11.8695151528
 20
-71.0235203846
 30
0.0
 11
0.3
 21
0.0
 31
0.0
 40
0.0087268678
 41
0.3490658504
 42
1.5707963268
  0
ELLIPSE
  5
758
100
AcDbEntity
  8
ASSI
100
AcDbEllipse
 62
7
  6
CONTINUOUS
 10
11.8695151528
 20
-70.1980577404
 30
0.0
 11
0.3
 21
-0.0
 31
0.0
 40
0.0087268678
 41
-1.5707963268
 42
-0.3490658504
  0
ELLIPSE
  5
759
100
AcDbEntity
  8
ASSI
100
AcDbEllipse
 62
7
  6
CONTINUOUS
 10
-3.9709584804
 20
-83.9208832851
 30
0.0
 11
-0.3535803156
 21
-0.3535803156
 31
0.0
 40
0.9999238505
 41
-0.7853600872
 42
0.7853600872
  0
ELLIPSE
  5
75A
100
AcDbEntity
  8
ASSI
100
AcDbEllipse
 62
7
  6
CONTINUOUS
 10
9.8492299647
 20
-83.9208832851
 30
0.0
 11
-0.3535803156
 21
0.3535803156
 31
0.0
 40
0.9999238505
 41
2.3562325664
 42
3.9269527408
  0
ELLIPSE
  5
75B
100
AcDbEntity
  8
ASSI
100
AcDbEllipse
 62
7
  6
CONTINUOUS
 10
-5.9912436684
 20
-70.1980577404
 30
0.0
 11
0.3
 21
-0.0
 31
0.0
 40
0.0087268678
 41
-2.7925268032
 42
-1.5707963268
  0
ELLIPSE
  5
75C
100
AcDbEntity
  8
ASSI
100
AcDbEllipse
 62
7
  6
CONTINUOUS
 10
-7.460860027
 20
-47.1994641971
 30
0.0
 11
0.0029088041
 21
0.2886641433
 31
0.0
 40
0.8660144118
 41
-4.7007536982
 42
-3.1328662412
  0
ELLIPSE
  5
75D
100
AcDbEntity
  8
ASSI
100
AcDbEllipse
 62
7
  6
CONTINUOUS
 10
-5.9912436684
 20
-71.0235203846
 30
0.0
 11
0.3
 21
0.0
 31
0.0
 40
0.0087268678
 41
1.5707963268
 42
2.7925268032
  0
ELLIPSE
  5
75E
100
AcDbEntity
  8
ASSI
100
AcDbEllipse
 62
7
  6
CONTINUOUS
 10
11.3518670643
 20
-64.3235089611
 30
0.0
 11
0.0
 21
0.3
 31
0.0
 40
0.0087268678
 41
-4.7123889804
 42
-3.1503192998
  0
ELLIPSE
  5
75F
100
AcDbEntity
  8
ASSI
100
AcDbEllipse
 62
7
  6
CONTINUOUS
 10
9.1390900438
 20
-84.1108347609
 30
0.0
 11
-0.2121966568
 21
-0.2121966568
 31
0.0
 40
0.9996954599
 41
2.3563467834
 42
3.9268385237
  0
ELLIPSE
  5
760
100
AcDbEntity
  8
ASSI
100
AcDbEllipse
 62
7
  6
CONTINUOUS
 10
-3.2608185594
 20
-84.1108347609
 30
0.0
 11
0.2121966568
 21
-0.2121966568
 31
0.0
 40
0.9996954599
 41
2.3563467834
 42
3.9268385237
  0
ELLIPSE
  5
761
100
AcDbEntity
  8
ASSI
100
AcDbEllipse
 62
7
  6
CONTINUOUS
 10
-5.9912436684
 20
-62.6235203846
 30
0.0
 11
0.3
 21
-0.0
 31
0.0
 40
0.0087268678
 41
1.5707963268
 42
2.7925268032
  0
ELLIPSE
  5
762
100
AcDbEntity
  8
ASSI
100
AcDbEllipse
 62
7
  6
CONTINUOUS
 10
11.8695151528
 20
-62.6235203846
 30
0.0
 11
0.3
 21
-0.0
 31
0.0
 40
0.0087268678
 41
0.3490658504
 42
1.5707963268
  0
ELLIPSE
  5
763
100
AcDbEntity
  8
ASSI
100
AcDbEllipse
 62
7
  6
CONTINUOUS
 10
-7.460860027
 20
-94.0221139279
 30
0.0
 11
-0.0029088041
 21
0.2886641433
 31
0.0
 40
0.8660144118
 41
-0.0087264124
 42
1.5591610446
  0
ELLIPSE
  5
764
100
AcDbEntity
  8
ASSI
100
AcDbEllipse
 62
7
  6
CONTINUOUS
 10
-5.9912436684
 20
-82.1980577404
 30
0.0
 11
0.3
 21
-0.0
 31
0.0
 40
0.0087268678
 41
-2.7925268032
 42
-1.5707963268
  0
ELLIPSE
  5
765
100
AcDbEntity
  8
ASSI
100
AcDbEllipse
 62
7
  6
CONTINUOUS
 10
-5.9912436684
 20
-77.8980577404
 30
0.0
 11
0.3
 21
-0.0
 31
0.0
 40
0.0087268678
 41
-2.7925268032
 42
-1.5707963268
  0
ELLIPSE
  5
766
100
AcDbEntity
  8
ASSI
100
AcDbEllipse
 62
7
  6
CONTINUOUS
 10
-5.4735955799
 20
-64.3235089611
 30
0.0
 11
-0.0
 21
0.3
 31
0.0
 40
0.0087268678
 41
-3.1328660073
 42
-1.5707963268
  0
ELLIPSE
  5
767
100
AcDbEntity
  8
ASSI
100
AcDbEllipse
 62
7
  6
CONTINUOUS
 10
11.8695151528
 20
-77.8980577404
 30
0.0
 11
0.3
 21
0.0
 31
0.0
 40
0.0087268678
 41
-1.5707963268
 42
-0.3490658504
  0
ENDSEC
  0
SECTION
  2
OBJECTS
  0
DICTIONARY
  5
C
100
AcDbDictionary
280
0
281
1
  3
ACAD_GROUP
350
D
  3
ACAD_MLINESTYLE
350
17
  3
ACAD_LAYOUT
350
1A
  3
ACAD_PLOTSETTINGS
350
19
  3
ACAD_PLOTSTYLENAME
350
E
  0
DICTIONARY
  5
D
102
{ACAD_REACTORS
330
C
102
}
100
AcDbDictionary
280
0
281
1
  0
ACDBDICTIONARYWDFLT
  5
E
102
{ACAD_REACTORS
330
C
102
}
100
AcDbDictionary
281
1
  3
Normal
350
F
100
AcDbDictionaryWithDefault
340
F
  0
DICTIONARY
  5
17
102
{ACAD_REACTORS
330
C
102
}
100
AcDbDictionary
280
0
281
1
  3
Standard
350
18
  0
DICTIONARY
  5
19
102
{ACAD_REACTORS
330
C
102
}
100
AcDbDictionary
281
1
  0
DICTIONARY
  5
1A
102
{ACAD_REACTORS
330
C
102
}
100
AcDbDictionary
281
1
  3
Model
350
768
  3
Layout1
350
769
  0
ACDBPLACEHOLDER
  5
F
102
{ACAD_REACTORS
330
E
102
}
  0
MLINESTYLE
  5
18
102
{ACAD_REACTORS
330
17
102
}
100
AcDbMlineStyle
  2
STANDARD
 70
0
  3

 62
256
 51
90.0
 52
90.0
 71
2
 49
0.5
 62
256
  6
BYLAYER
 49
-0.5
 62
256
  6
BYLAYER
  0
LAYOUT
  5
768
102
{ACAD_REACTORS
330
1A
102
}
100
AcDbPlotSettings
  1

  2
none_device
  4

  6

 40
0.0
 41
0.0
 42
0.0
 43
0.0
 44
210.0
 45
297.0
 46
0.0
 47
0.0
 48
0.0
 49
0.0
140
0.0
141
0.0
142
1.0
143
1.0
 70
1024
 72
1
 73
0
 74
0
  7

 75
0
147
1.0
148
0.0
149
0.0
100
AcDbLayout
  1
Model
 70
0
 71
0
 10
0.0
 20
0.0
 11
210.0
 21
297.0
 12
0.0
 22
0.0
 32
0.0
 14
0.0
 24
0.0
 34
0.0
 15
0.0
 25
0.0
 35
0.0
146
0.0
 13
0.0
 23
0.0
 33
0.0
 16
1.0
 26
0.0
 36
0.0
 17
0.0
 27
1.0
 37
0.0
 76
0
330
21A
345
0
346
0
  0
LAYOUT
  5
769
102
{ACAD_REACTORS
330
1A
102
}
100
AcDbPlotSettings
  1

  2
none_device
  4

  6

 40
0.0
 41
0.0
 42
0.0
 43
0.0
 44
210.0
 45
297.0
 46
0.0
 47
0.0
 48
0.0
 49
0.0
140
0.0
141
0.0
142
1.0
143
1.0
 70
0
 72
1
 73
0
 74
0
  7

 75
0
147
1.0
148
0.0
149
0.0
100
AcDbLayout
  1
Layout1
 70
0
 71
1
 10
0.0
 20
0.0
 11
210.0
 21
297.0
 12
0.0
 22
0.0
 32
0.0
 14
0.0
 24
0.0
 34
0.0
 15
0.0
 25
0.0
 35
0.0
146
0.0
 13
0.0
 23
0.0
 33
0.0
 16
1.0
 26
0.0
 36
0.0
 17
0.0
 27
1.0
 37
0.0
 76
0
330
21B
345
0
346
0
  0
ENDSEC
  0
EOF
