  0
SECTION
  2
HEADER
  9
$ACADVER
  1
AC1015
  9
$DWGCODEPAGE
  3
ANSI_1252
  9
$EXTMAX
 10
297.0
 20
210.0
 30
0.0
  9
$EXTMIN
 10
0.0
 20
0.0
 30
0.0
  9
$LIMMIN
 10
0.0
 20
0.0
  9
$LIMMAX
 10
297.0
 20
210.0
  9
$VIEWCTR
 10
148.5
 20
105.0
  9
$VIEWSIZE
 40
210.0
  9
$CLAYER
  8
0
  9
$LTSCALE
 40
16.335
  9
$CELTYPE
  6
BYLAYER
  9
$DIMSCALE
 40
1.0
  9
$DIMASZ
 40
3.0
  9
$DIMEXO
 40
0.5
  9
$DIMDLI
 40
11.286
  9
$DIMEXE
 40
1.5
  9
$DIMCEN
 40
2.673
  9
$DIMLFAC
 40
1.0
  9
$DIMBLK
  1
_FILLED
  9
$DIMTXT
 40
3.0
  9
$DIMTOL
 70
1
  9
$DIMLIM
 70
0
  9
$DIMTFAC
 40
1.0
  9
$DIMTP
 40
0.01
  9
$DIMTM
 40
0.01
  9
$DIMGAP
 40
0.625
  9
$DIMDSEP
 70
44
  9
$PDMODE
 70
3
  9
$PDSIZE
 40
3.0
  9
$HANDSEED
  5
4EC
  9
$TILEMODE
 70
1
  9
$MEASUREMENT
 70
1
  9
$INSUNITS
 70
4
  0
ENDSEC
  0
SECTION
  2
CLASSES
  0
CLASS
  1
ACDBDICTIONARYWDFLT
  2
AcDbDictionaryWithDefault
  3
AutoCAD 2000
 90
0
280
0
281
0
  0
CLASS
  1
ACDBPLACEHOLDER
  2
AcDbPlaceHolder
  3
AutoCAD 2000
 90
0
280
0
281
0
  0
CLASS
  1
LAYOUT
  2
AcDbLayout
  3
AutoCAD 2000
 90
0
280
0
281
0
  0
ENDSEC
  0
SECTION
  2
TABLES
  0
TABLE
  2
VPORT
  5
8
100
AcDbSymbolTable
 70
2
  0
VPORT
  5
1F4
100
AcDbSymbolTableRecord
100
AcDbViewportTableRecord
  2
*ACTIVE
 70
0
 10
0.0
 20
0.0
 11
1.0
 21
1.0
 12
148.5
 22
105.0
 13
0.0
 23
0.0
 14
1.0
 24
1.0
 15
0.0
 25
0.0
 16
0.0
 26
0.0
 36
1.0
 17
0.0
 27
0.0
 37
0.0
 40
210.0
 41
1.4142857143
 42
50.0
 43
0.0
 44
0.0
 50
0.0
 51
0.0
 71
0
 72
100
 73
1
 74
1
 75
0
 76
0
 77
0
 78
0
  0
ENDTAB
  0
TABLE
  2
LTYPE
  5
5
100
AcDbSymbolTable
 70
6
  0
LTYPE
  5
14
100
AcDbSymbolTableRecord
100
AcDbLinetypeTableRecord
  2
BYBLOCK
 70
0
  3

 72
65
 73
0
 40
0.0
  0
LTYPE
  5
15
100
AcDbSymbolTableRecord
100
AcDbLinetypeTableRecord
  2
BYLAYER
 70
0
  3

 72
65
 73
0
 40
0.0
  0
LTYPE
  5
16
100
AcDbSymbolTableRecord
100
AcDbLinetypeTableRecord
  2
CONTINUOUS
 70
64
  3
Solid line
 72
65
 73
0
 40
0.0
  0
LTYPE
  5
1F5
100
AcDbSymbolTableRecord
100
AcDbLinetypeTableRecord
  2
CENTER
 70
64
  3
____ _ ____ _ ____ _ ____ _ ____ _ ____ _ ____
 72
65
 73
4
 40
0.6
 49
0.375
 74
0
 49
-0.075
 74
0
 49
0.075
 74
0
 49
-0.075
 74
0
  0
LTYPE
  5
1F6
100
AcDbSymbolTableRecord
100
AcDbLinetypeTableRecord
  2
HIDDEN
 70
64
  3
- - - - - - - - - - - - - - - - - - - -
 72
65
 73
2
 40
0.2
 49
0.1
 74
0
 49
-0.1
 74
0
  0
LTYPE
  5
1F7
100
AcDbSymbolTableRecord
100
AcDbLinetypeTableRecord
  2
PHANTOM
 70
64
  3
_____ _ _ _____ _ _ _____ _ _ _____
 72
65
 73
6
 40
0.8
 49
0.45
 74
0
 49
-0.05
 74
0
 49
0.1
 74
0
 49
-0.05
 74
0
 49
0.1
 74
0
 49
-0.05
 74
0
  0
LTYPE
  5
1F8
100
AcDbSymbolTableRecord
100
AcDbLinetypeTableRecord
  2
DOT
 70
64
  3
. . . . . . . . . . . . . . . . . . . .
 72
65
 73
2
 40
0.2
 49
0.1
 74
0
 49
-0.1
 74
0
  0
LTYPE
  5
1F9
100
AcDbSymbolTableRecord
100
AcDbLinetypeTableRecord
  2
DASHED
 70
64
  3
- - - - - - - - - - - - - - - - - - - -
 72
65
 73
2
 40
0.2
 49
0.1
 74
0
 49
-0.1
 74
0
  0
ENDTAB
  0
TABLE
  2
LAYER
  5
2
100
AcDbSymbolTable
 70
36
  0
LAYER
  5
10
100
AcDbSymbolTableRecord
100
AcDbLayerTableRecord
  2
0
 70
0
 62
7
  6
CONTINUOUS
370
-3
390
F
  0
LAYER
  5
1FA
100
AcDbSymbolTableRecord
100
AcDbLayerTableRecord
  2
DEFAULT_1
 70
0
 62
7
  6
CENTER
370
-3
390
F
  0
LAYER
  5
1FB
100
AcDbSymbolTableRecord
100
AcDbLayerTableRecord
  2
DEFAULT_2
 70
0
 62
7
  6
HIDDEN
370
-3
390
F
  0
LAYER
  5
1FC
100
AcDbSymbolTableRecord
100
AcDbLayerTableRecord
  2
DEFAULT_3
 70
0
 62
7
  6
PHANTOM
370
-3
390
F
  0
LAYER
  5
1FD
100
AcDbSymbolTableRecord
100
AcDbLayerTableRecord
  2
ASSI
 70
0
 62
7
  6
CONTINUOUS
370
-3
390
F
  0
LAYER
  5
1FE
100
AcDbSymbolTableRecord
100
AcDbLayerTableRecord
  2
COORDINATE
 70
0
 62
7
  6
CONTINUOUS
370
-3
390
F
  0
LAYER
  5
1FF
100
AcDbSymbolTableRecord
100
AcDbLayerTableRecord
  2
COORD_ORIGINE
 70
0
 62
7
  6
CONTINUOUS
370
-3
390
F
  0
LAYER
  5
200
100
AcDbSymbolTableRecord
100
AcDbLayerTableRecord
  2
CURVE
 70
0
 62
7
  6
CONTINUOUS
370
-3
390
F
  0
LAYER
  5
201
100
AcDbSymbolTableRecord
100
AcDbLayerTableRecord
  2
DRAFT
 70
0
 62
7
  6
CONTINUOUS
370
-3
390
F
  0
LAYER
  5
202
100
AcDbSymbolTableRecord
100
AcDbLayerTableRecord
  2
IMPORT
 70
0
 62
7
  6
CONTINUOUS
370
-3
390
F
  0
LAYER
  5
203
100
AcDbSymbolTableRecord
100
AcDbLayerTableRecord
  2
NOTE
 70
0
 62
7
  6
CONTINUOUS
370
-3
390
F
  0
LAYER
  5
204
100
AcDbSymbolTableRecord
100
AcDbLayerTableRecord
  2
PIANI
 70
0
 62
7
  6
CONTINUOUS
370
-3
390
F
  0
LAYER
  5
205
100
AcDbSymbolTableRecord
100
AcDbLayerTableRecord
  2
PIANI_ORIGINE
 70
0
 62
7
  6
CONTINUOUS
370
-3
390
F
  0
LAYER
  5
206
100
AcDbSymbolTableRecord
100
AcDbLayerTableRecord
  2
PIANI_RIFERIMENTO
 70
0
 62
7
  6
CONTINUOUS
370
-3
390
F
  0
LAYER
  5
207
100
AcDbSymbolTableRecord
100
AcDbLayerTableRecord
  2
PIANI_SFORMO
 70
0
 62
7
  6
CONTINUOUS
370
-3
390
F
  0
LAYER
  5
208
100
AcDbSymbolTableRecord
100
AcDbLayerTableRecord
  2
PUNTI
 70
0
 62
7
  6
CONTINUOUS
370
-3
390
F
  0
LAYER
  5
209
100
AcDbSymbolTableRecord
100
AcDbLayerTableRecord
  2
RACCORDO
 70
0
 62
7
  6
CONTINUOUS
370
-3
390
F
  0
LAYER
  5
20A
100
AcDbSymbolTableRecord
100
AcDbLayerTableRecord
  2
SMUSSO
 70
0
 62
7
  6
CONTINUOUS
370
-3
390
F
  0
LAYER
  5
20B
100
AcDbSymbolTableRecord
100
AcDbLayerTableRecord
  2
SNAPLINE
 70
0
 62
7
  6
CONTINUOUS
370
-3
390
F
  0
LAYER
  5
20C
100
AcDbSymbolTableRecord
100
AcDbLayerTableRecord
  2
SUPERFICI
 70
0
 62
7
  6
CONTINUOUS
370
-3
390
F
  0
LAYER
  5
20D
100
AcDbSymbolTableRecord
100
AcDbLayerTableRecord
  2
TRASH
 70
0
 62
7
  6
CONTINUOUS
370
-3
390
F
  0
LAYER
  5
20E
100
AcDbSymbolTableRecord
100
AcDbLayerTableRecord
  2
XSEC_DATUMS
 70
0
 62
7
  6
CONTINUOUS
370
-3
390
F
  0
ENDTAB
  0
TABLE
  2
STYLE
  5
3
100
AcDbSymbolTable
 70
1
  0
STYLE
  5
11
100
AcDbSymbolTableRecord
100
AcDbTextStyleTableRecord
  2
STANDARD
 70
0
 40
0.0
 41
0.8
 50
0.0
 71
0
 42
0.2
  3
txt
  4

  0
STYLE
  5
20F
100
AcDbSymbolTableRecord
100
AcDbTextStyleTableRecord
  2
TEXTSTYLE_1
 70
0
 40
0.0
 41
0.8
 50
0.0
 71
0
 42
0.2
  3
gdt
  4

  0
ENDTAB
  0
TABLE
  2
VIEW
  5
6
100
AcDbSymbolTable
 70
0
  0
ENDTAB
  0
TABLE
  2
UCS
  5
7
100
AcDbSymbolTable
 70
0
  0
ENDTAB
  0
TABLE
  2
APPID
  5
9
100
AcDbSymbolTable
 70
1
  0
APPID
  5
210
100
AcDbSymbolTableRecord
100
AcDbRegAppTableRecord
  2
ACAD
 70
0
  0
ENDTAB
  0
TABLE
  2
BLOCK_RECORD
  5
1
100
AcDbSymbolTable
 70
0
  0
BLOCK_RECORD
  5
211
100
AcDbSymbolTableRecord
100
AcDbBlockTableRecord
  2
*Model_Space
  0
BLOCK_RECORD
  5
212
100
AcDbSymbolTableRecord
100
AcDbBlockTableRecord
  2
*Paper_Space
  0
ENDTAB
  0
TABLE
  2
DIMSTYLE
  5
A
100
AcDbSymbolTable
 70
1
100
AcDbDimStyleTable
 71
0
  0
DIMSTYLE
105
213
100
AcDbSymbolTableRecord
100
AcDbDimStyleTableRecord
  2
STANDARD
 70
0
  3

  4

 40
1.0
 41
3.0
 42
0.5
 43
0.38
 44
1.5
 45
0.0
 46
0.0
 47
0.01
 48
0.01
140
3.0
141
0.09
142
0.0
143
25.4
144
1.0
145
0.0
146
1.0
147
0.625
 71
1.0
 72
0.0
 73
0
 74
0
 75
0
 76
0
 77
1
 78
8
170
0
171
2
172
0
173
0
174
0
175
0
176
0
177
0
178
0
270
2
271
2
272
2
273
2
274
2
275
0
280
0
281
0
282
0
283
1
284
8
285
0
286
0
287
3
288
0
340
11
278
44
  0
ENDTAB
  0
ENDSEC
  0
SECTION
  2
BLOCKS
  0
BLOCK
  5
20
100
AcDbEntity
  8
0
100
AcDbBlockBegin
  2
*Model_Space
 70
0
 10
0.0
 20
0.0
 30
0.0
  3
*Model_Space
  1

  0
ENDBLK
  5
21
100
AcDbEntity
  8
0
100
AcDbBlockEnd
  0
BLOCK
  5
1C
100
AcDbEntity
  8
0
100
AcDbBlockBegin
  2
*Paper_Space
 70
0
 10
0.0
 20
0.0
 30
0.0
  3
*Paper_Space
  1

  0
ENDBLK
  5
1D
100
AcDbEntity
  8
0
100
AcDbBlockEnd
  0
ENDSEC
  0
SECTION
  2
ENTITIES
  0
LINE
  5
214
100
AcDbEntity
  8
RACCORDO
100
AcDbLine
 62
253
  6
CONTINUOUS
 10
-9.0255952073
 20
22.116904795
 11
-9.0212233733
 21
22.121276629
  0
LINE
  5
215
100
AcDbEntity
  8
RACCORDO
100
AcDbLine
 62
253
  6
CONTINUOUS
 10
-8.775599438
 20
21.8669090258
 11
-8.771227604
 21
21.8712808598
  0
LINE
  5
216
100
AcDbEntity
  8
RACCORDO
100
AcDbLine
 62
253
  6
CONTINUOUS
 10
-11.2210905114
 20
20.0125497612
 11
-11.2036354465
 21
20.021276629
  0
LWPOLYLINE
  5
217
100
AcDbEntity
  8
RACCORDO
100
AcDbPolyline
 62
7
  6
CONTINUOUS
 90
11
 70
0
 10
-11.4048961684
 20
19.9737786984
 10
-11.3908259484
 20
19.9805111319
 10
-11.3711448686
 20
19.988952264
 10
-11.3510833734
 20
19.9964479187
 10
-11.3306863312
 20
20.0029810271
 10
-11.3100084808
 20
20.0085343865
 10
-11.2890881449
 20
20.0130980323
 10
-11.2679457342
 20
20.0166651976
 10
-11.2466195368
 20
20.0192245035
 10
-11.2251665356
 20
20.0207642215
 10
-11.2036354465
 20
20.021276629
  0
LINE
  5
218
100
AcDbEntity
  8
RACCORDO
100
AcDbLine
 62
7
  6
CONTINUOUS
 10
-10.9212318348
 20
-26.878723371
 11
-9.0212233733
 21
-26.878723371
  0
LINE
  5
219
100
AcDbEntity
  8
RACCORDO
100
AcDbLine
 62
7
  6
CONTINUOUS
 10
7.9787681652
 20
-26.878723371
 11
9.8787766267
 21
-26.878723371
  0
LINE
  5
21A
100
AcDbEntity
  8
RACCORDO
100
AcDbLine
 62
253
  6
CONTINUOUS
 10
-10.9168600008
 20
-26.874351537
 11
-9.0255952073
 21
-26.874351537
  0
LINE
  5
21B
100
AcDbEntity
  8
RACCORDO
100
AcDbLine
 62
253
  6
CONTINUOUS
 10
7.9831399992
 20
-26.874351537
 11
9.8744047927
 21
-26.874351537
  0
LINE
  5
21C
100
AcDbEntity
  8
RACCORDO
100
AcDbLine
 62
253
  6
CONTINUOUS
 10
7.73314423
 20
-26.6243557678
 11
10.124400562
 21
-26.6243557678
  0
LINE
  5
21D
100
AcDbEntity
  8
RACCORDO
100
AcDbLine
 62
253
  6
CONTINUOUS
 10
-8.775599438
 20
-26.6243557678
 11
-11.16685577
 21
-26.6243557678
  0
LWPOLYLINE
  5
21E
100
AcDbEntity
  8
RACCORDO
100
AcDbPolyline
 62
7
  6
CONTINUOUS
 90
34
 70
0
 10
-10.9212318348
 20
-26.878723371
 10
-10.9331271201
 20
-26.8784402208
 10
-10.9449954596
 20
-26.8775914052
 10
-10.9568099702
 20
-26.8761788452
 10
-10.9685438915
 20
-26.8742057387
 10
-10.9801706429
 20
-26.8716765527
 10
-10.9916638831
 20
-26.8685970127
 10
-11.0029975778
 20
-26.8649740923
 10
-11.0141460533
 20
-26.8608159968
 10
-11.0250840503
 20
-26.8561321432
 10
-11.0357867916
 20
-26.8509331398
 10
-11.0462300323
 20
-26.8452307626
 10
-11.05639011
 20
-26.8390379291
 10
-11.0662440092
 20
-26.8323686665
 10
-11.0757694079
 20
-26.8252380817
 10
-11.0849447231
 20
-26.8176623299
 10
-11.0937491701
 20
-26.8096585715
 10
-11.1021628045
 20
-26.8012449371
 10
-11.1101665629
 20
-26.7924404901
 10
-11.1177423148
 20
-26.7832651748
 10
-11.1248728995
 20
-26.7737397761
 10
-11.1315421622
 20
-26.7638858769
 10
-11.1377349957
 20
-26.7537257993
 10
-11.1434373729
 20
-26.7432825586
 10
-11.1486363762
 20
-26.7325798173
 10
-11.1533202298
 20
-26.7216418203
 10
-11.1574783254
 20
-26.7104933448
 10
-11.1611012458
 20
-26.69915965
 10
-11.1641807858
 20
-26.6876664098
 10
-11.1667099718
 20
-26.6760396585
 10
-11.1686830782
 20
-26.6643057371
 10
-11.1700956383
 20
-26.6524912266
 10
-11.1709444538
 20
-26.640622887
 10
-11.171227604
 20
-26.6287276018
  0
LWPOLYLINE
  5
21F
100
AcDbEntity
  8
RACCORDO
100
AcDbPolyline
 62
7
  6
CONTINUOUS
 90
34
 70
0
 10
7.9787681652
 20
-26.878723371
 10
7.9668728799
 20
-26.8784402208
 10
7.9550045404
 20
-26.8775914052
 10
7.9431900298
 20
-26.8761788452
 10
7.9314561085
 20
-26.8742057387
 10
7.9198293571
 20
-26.8716765527
 10
7.9083361169
 20
-26.8685970127
 10
7.8970024222
 20
-26.8649740923
 10
7.8858539467
 20
-26.8608159968
 10
7.8749159497
 20
-26.8561321432
 10
7.8642132084
 20
-26.8509331398
 10
7.8537699677
 20
-26.8452307626
 10
7.84360989
 20
-26.8390379291
 10
7.8337559908
 20
-26.8323686665
 10
7.8242305921
 20
-26.8252380817
 10
7.8150552769
 20
-26.8176623299
 10
7.8062508299
 20
-26.8096585715
 10
7.7978371955
 20
-26.8012449371
 10
7.7898334371
 20
-26.7924404901
 10
7.7822576852
 20
-26.7832651748
 10
7.7751271005
 20
-26.7737397761
 10
7.7684578378
 20
-26.7638858769
 10
7.7622650043
 20
-26.7537257993
 10
7.7565626271
 20
-26.7432825586
 10
7.7513636238
 20
-26.7325798173
 10
7.7466797702
 20
-26.7216418203
 10
7.7425216746
 20
-26.7104933448
 10
7.7388987542
 20
-26.69915965
 10
7.7358192142
 20
-26.6876664098
 10
7.7332900282
 20
-26.6760396585
 10
7.7313169218
 20
-26.6643057371
 10
7.7299043617
 20
-26.6524912266
 10
7.7290555462
 20
-26.640622887
 10
7.728772396
 20
-26.6287276018
  0
LWPOLYLINE
  5
220
100
AcDbEntity
  8
RACCORDO
100
AcDbPolyline
 62
253
  6
CONTINUOUS
 90
31
 70
0
 10
-10.9168600008
 20
-26.874351537
 10
-10.9299123408
 20
-26.8740101298
 10
-10.9429372352
 20
-26.8729868672
 10
-10.9558990098
 20
-26.871283263
 10
-10.9687647285
 20
-26.8689021328
 10
-10.9814961937
 20
-26.8658490194
 10
-10.9940503783
 20
-26.8621335797
 10
-11.0063901822
 20
-26.8577670286
 10
-11.0184845383
 20
-26.8527605987
 10
-11.0303006166
 20
-26.8471278501
 10
-11.041806217
 20
-26.8408840484
 10
-11.0529695354
 20
-26.8340463666
 10
-11.0637596146
 20
-26.8266337366
 10
-11.0741467405
 20
-26.8186665944
 10
-11.0841025776
 20
-26.8101666974
 10
-11.0935999121
 20
-26.8011572756
 10
-11.1026127312
 20
-26.7916629824
 10
-11.1111162727
 20
-26.781709879
 10
-11.1190871809
 20
-26.7713252897
 10
-11.1265035877
 20
-26.7605376994
 10
-11.1333451635
 20
-26.7493766735
 10
-11.1395931427
 20
-26.7378728177
 10
-11.145230391
 20
-26.726057672
 10
-11.1502414465
 20
-26.7139636348
 10
-11.1546125615
 20
-26.7016238787
 10
-11.158331751
 20
-26.6890722312
 10
-11.1613888122
 20
-26.6763431173
 10
-11.1637753549
 20
-26.6634714777
 10
-11.1654848381
 20
-26.6504926202
 10
-11.166512581
 20
-26.6374421219
 10
-11.16685577
 20
-26.6243557678
  0
LWPOLYLINE
  5
221
100
AcDbEntity
  8
RACCORDO
100
AcDbPolyline
 62
253
  6
CONTINUOUS
 90
31
 70
0
 10
7.9831399992
 20
-26.874351537
 10
7.9700565132
 20
-26.8740084984
 10
7.9570088866
 20
-26.8729812086
 10
7.9440328804
 20
-26.871272483
 10
7.9311640596
 20
-26.868887005
 10
7.918437695
 20
-26.8658313128
 10
7.9058886674
 20
-26.8621137814
 10
7.8935513711
 20
-26.8577445999
 10
7.8814596204
 20
-26.8527357434
 10
7.8696465566
 20
-26.8471009403
 10
7.8581445571
 20
-26.8408556344
 10
7.8469851466
 20
-26.834016943
 10
7.836198911
 20
-26.8266036096
 10
7.8258154133
 20
-26.8186359528
 10
7.8158631129
 20
-26.8101358105
 10
7.806369287
 20
-26.80112648
 10
7.7973599564
 20
-26.7916326541
 10
7.7888598141
 20
-26.7816803536
 10
7.7808921574
 20
-26.771296856
 10
7.773478824
 20
-26.7605106204
 10
7.7666401326
 20
-26.7493512099
 10
7.7603948267
 20
-26.7378492103
 10
7.7547600235
 20
-26.7260361465
 10
7.749751167
 20
-26.7139443959
 10
7.7453819855
 20
-26.7016070996
 10
7.7416644541
 20
-26.6890580719
 10
7.7386087619
 20
-26.6763317074
 10
7.736223284
 20
-26.6634628865
 10
7.7345145584
 20
-26.6504868804
 10
7.7334872685
 20
-26.6374392538
 10
7.73314423
 20
-26.6243557678
  0
LWPOLYLINE
  5
222
100
AcDbEntity
  8
RACCORDO
100
AcDbPolyline
 62
7
  6
CONTINUOUS
 90
11
 70
0
 10
-11.4048958362
 20
-24.7312256065
 10
-11.3908254674
 20
-24.737958107
 10
-11.3711444304
 20
-24.7463992088
 10
-11.3510829798
 20
-24.753894834
 10
-11.3306859845
 20
-24.7604279138
 10
-11.3100081834
 20
-24.7659812456
 10
-11.2890878992
 20
-24.7705448651
 10
-11.267945544
 20
-24.7741120052
 10
-11.2466194064
 20
-24.7766712872
 10
-11.2251664687
 20
-24.7782109832
 10
-11.2036354465
 20
-24.778723371
  0
LINE
  5
223
100
AcDbEntity
  8
RACCORDO
100
AcDbLine
 62
253
  6
CONTINUOUS
 10
-11.2036354465
 20
-24.778723371
 11
-11.2210905114
 21
-24.7699965032
  0
LINE
  5
224
100
AcDbEntity
  8
RACCORDO
100
AcDbLine
 62
253
  6
CONTINUOUS
 10
-9.0255952073
 20
-26.874351537
 11
-9.0212233733
 21
-26.878723371
  0
LINE
  5
225
100
AcDbEntity
  8
RACCORDO
100
AcDbLine
 62
253
  6
CONTINUOUS
 10
-8.775599438
 20
-26.6243557678
 11
-8.771227604
 21
-26.6287276018
  0
LINE
  5
226
100
AcDbEntity
  8
0
100
AcDbLine
 62
7
  6
CONTINUOUS
 10
-9.4211136709
 20
18.521276629
 11
-10.171227604
 21
17.7702476828
  0
LINE
  5
227
100
AcDbEntity
  8
RACCORDO
100
AcDbLine
 62
7
  6
CONTINUOUS
 10
-9.321227604
 20
18.471276629
 11
-11.0855303845
 21
16.7069738485
  0
LINE
  5
228
100
AcDbEntity
  8
RACCORDO
100
AcDbLine
 62
7
  6
CONTINUOUS
 10
-8.771227604
 20
19.021276629
 11
-7.7799544718
 21
20.0125497612
  0
LINE
  5
229
100
AcDbEntity
  8
RACCORDO
100
AcDbLine
 62
7
  6
CONTINUOUS
 10
-8.6052521708
 20
18.6129848932
 11
-8.7677403132
 21
18.5317470094
  0
LINE
  5
22A
100
AcDbEntity
  8
RACCORDO
100
AcDbLine
 62
253
  6
CONTINUOUS
 10
7.73314423
 20
-26.2230609383
 11
10.124400562
 21
-26.2230609383
  0
LINE
  5
22B
100
AcDbEntity
  8
RACCORDO
100
AcDbLine
 62
253
  6
CONTINUOUS
 10
-8.775599438
 20
-26.2230609383
 11
-11.16685577
 21
-26.2230609383
  0
LINE
  5
22C
100
AcDbEntity
  8
DRAFT
100
AcDbLine
 62
7
  6
CONTINUOUS
 10
-4.921227604
 20
-26.178723371
 11
3.878772396
 21
-26.178723371
  0
LINE
  5
22D
100
AcDbEntity
  8
DRAFT
100
AcDbLine
 62
7
  6
CONTINUOUS
 10
2.978772396
 20
-26.1729055412
 11
-4.021227604
 21
-26.1729055412
  0
LINE
  5
22E
100
AcDbEntity
  8
ASSI
100
AcDbLine
 62
253
  6
CONTINUOUS
 10
3.8351217491
 20
-26.1350727241
 11
2.978772396
 21
-26.1350727241
  0
LINE
  5
22F
100
AcDbEntity
  8
ASSI
100
AcDbLine
 62
253
  6
CONTINUOUS
 10
-4.021227604
 20
-26.1350727241
 11
-4.8775769572
 21
-26.1350727241
  0
LINE
  5
230
100
AcDbEntity
  8
RACCORDO
100
AcDbLine
 62
253
  6
CONTINUOUS
 10
9.8744047927
 20
-26.0065545874
 11
7.9831399992
 21
-26.0065545874
  0
LINE
  5
231
100
AcDbEntity
  8
RACCORDO
100
AcDbLine
 62
253
  6
CONTINUOUS
 10
-9.0255952073
 20
-26.0065545874
 11
-10.9168600008
 21
-26.0065545874
  0
LINE
  5
232
100
AcDbEntity
  8
RACCORDO
100
AcDbLine
 62
7
  6
CONTINUOUS
 10
-10.9219506019
 20
-25.5013731018
 11
-9.0205046062
 21
-25.5013731018
  0
LINE
  5
233
100
AcDbEntity
  8
RACCORDO
100
AcDbLine
 62
7
  6
CONTINUOUS
 10
7.9780493981
 20
-25.5013731018
 11
9.8794953938
 21
-25.5013731018
  0
LINE
  5
234
100
AcDbEntity
  8
RACCORDO
100
AcDbLine
 62
7
  6
CONTINUOUS
 10
10.1611802384
 20
-24.778723371
 11
10.128772396
 21
-24.778723371
  0
LINE
  5
235
100
AcDbEntity
  8
DRAFT
100
AcDbLine
 62
7
  6
CONTINUOUS
 10
3.878772396
 20
-24.778723371
 11
10.128772396
 21
-24.778723371
  0
LINE
  5
236
100
AcDbEntity
  8
DRAFT
100
AcDbLine
 62
7
  6
CONTINUOUS
 10
-4.921227604
 20
-24.778723371
 11
-11.171227604
 21
-24.778723371
  0
LINE
  5
237
100
AcDbEntity
  8
RACCORDO
100
AcDbLine
 62
7
  6
CONTINUOUS
 10
-11.171227604
 20
-24.778723371
 11
-11.2036354465
 21
-24.778723371
  0
LINE
  5
238
100
AcDbEntity
  8
RACCORDO
100
AcDbLine
 62
7
  6
CONTINUOUS
 10
-11.2210905114
 20
-24.7699965032
 11
-7.7799544718
 21
-24.7699965032
  0
LINE
  5
239
100
AcDbEntity
  8
RACCORDO
100
AcDbLine
 62
7
  6
CONTINUOUS
 10
6.7374992637
 20
-24.7699965032
 11
10.1786353033
 21
-24.7699965032
  0
LINE
  5
23A
100
AcDbEntity
  8
DRAFT
100
AcDbLine
 62
7
  6
CONTINUOUS
 10
-4.021227604
 20
-24.7167626097
 11
-3.521227604
 21
-24.7167626097
  0
LINE
  5
23B
100
AcDbEntity
  8
DRAFT
100
AcDbLine
 62
7
  6
CONTINUOUS
 10
2.478772396
 20
-24.7167626097
 11
2.978772396
 21
-24.7167626097
  0
LINE
  5
23C
100
AcDbEntity
  8
RACCORDO
100
AcDbLine
 62
7
  6
CONTINUOUS
 10
-8.6052521708
 20
-23.3704316352
 11
-8.7677403132
 21
-23.2891937514
  0
LINE
  5
23D
100
AcDbEntity
  8
RACCORDO
100
AcDbLine
 62
7
  6
CONTINUOUS
 10
-11.0855303845
 20
-21.4644205905
 11
-9.321227604
 21
-23.228723371
  0
LINE
  5
23E
100
AcDbEntity
  8
RACCORDO
100
AcDbLine
 62
7
  6
CONTINUOUS
 10
-7.7799544718
 20
-24.7699965032
 11
-8.771227604
 21
-23.778723371
  0
LINE
  5
23F
100
AcDbEntity
  8
0
100
AcDbLine
 62
7
  6
CONTINUOUS
 10
-9.4211136709
 20
-23.278723371
 11
-10.171227604
 21
-22.5276944248
  0
LINE
  5
240
100
AcDbEntity
  8
RACCORDO
100
AcDbLine
 62
7
  6
CONTINUOUS
 10
-10.9109797353
 20
16.6346726023
 11
-9.2489263578
 21
18.2967259797
  0
LINE
  5
241
100
AcDbEntity
  8
DRAFT
100
AcDbLine
 62
7
  6
CONTINUOUS
 10
-7.921227604
 20
18.3857468108
 11
-8.0102484352
 21
18.2967259797
  0
LINE
  5
242
100
AcDbEntity
  8
DRAFT
100
AcDbLine
 62
7
  6
CONTINUOUS
 10
-7.921227604
 20
17.321276629
 11
-8.0102484352
 21
17.2322557979
  0
LINE
  5
243
100
AcDbEntity
  8
RACCORDO
100
AcDbLine
 62
7
  6
CONTINUOUS
 10
-7.7642061026
 20
17.3782981305
 11
-7.821227604
 21
17.321276629
  0
LINE
  5
244
100
AcDbEntity
  8
RACCORDO
100
AcDbLine
 62
253
  6
CONTINUOUS
 10
-7.8585724373
 20
-24.6913785378
 11
-3.521227604
 21
-24.6913785378
  0
LINE
  5
245
100
AcDbEntity
  8
RACCORDO
100
AcDbLine
 62
253
  6
CONTINUOUS
 10
2.478772396
 20
-24.6913785378
 11
6.8161172292
 21
-24.6913785378
  0
LINE
  5
246
100
AcDbEntity
  8
0
100
AcDbLine
 62
7
  6
CONTINUOUS
 10
2.478772396
 20
-24.078723371
 11
-3.521227604
 21
-24.078723371
  0
LINE
  5
247
100
AcDbEntity
  8
RACCORDO
100
AcDbLine
 62
253
  6
CONTINUOUS
 10
-8.1053283232
 20
-23.6914166147
 11
-3.521227604
 21
-23.6914166147
  0
LINE
  5
248
100
AcDbEntity
  8
RACCORDO
100
AcDbLine
 62
253
  6
CONTINUOUS
 10
2.478772396
 20
-23.6914166147
 11
7.0628731151
 21
-23.6914166147
  0
LINE
  5
249
100
AcDbEntity
  8
0
100
AcDbLine
 62
7
  6
CONTINUOUS
 10
2.478772396
 20
-23.378723371
 11
-3.521227604
 21
-23.378723371
  0
LINE
  5
24A
100
AcDbEntity
  8
RACCORDO
100
AcDbLine
 62
7
  6
CONTINUOUS
 10
-8.1053283232
 20
-23.3747189167
 11
-7.7630493059
 21
-23.3747189167
  0
LINE
  5
24B
100
AcDbEntity
  8
RACCORDO
100
AcDbLine
 62
7
  6
CONTINUOUS
 10
6.7205940978
 20
-23.3747189167
 11
7.0628731151
 21
-23.3747189167
  0
LINE
  5
24C
100
AcDbEntity
  8
DRAFT
100
AcDbLine
 62
7
  6
CONTINUOUS
 10
-8.7677403132
 20
-23.2891937514
 11
-7.8200652787
 21
-23.2891937514
  0
LINE
  5
24D
100
AcDbEntity
  8
DRAFT
100
AcDbLine
 62
7
  6
CONTINUOUS
 10
6.7776100706
 20
-23.2891937514
 11
7.7252851051
 21
-23.2891937514
  0
LINE
  5
24E
100
AcDbEntity
  8
0
100
AcDbLine
 62
7
  6
CONTINUOUS
 10
8.3786584628
 20
-23.278723371
 11
7.728772396
 21
-23.278723371
  0
LINE
  5
24F
100
AcDbEntity
  8
0
100
AcDbLine
 62
7
  6
CONTINUOUS
 10
-8.771227604
 20
-23.278723371
 11
-9.4211136709
 21
-23.278723371
  0
LINE
  5
250
100
AcDbEntity
  8
DRAFT
100
AcDbLine
 62
7
  6
CONTINUOUS
 10
-9.321227604
 20
-23.228723371
 11
-8.0067574222
 21
-23.228723371
  0
LINE
  5
251
100
AcDbEntity
  8
DRAFT
100
AcDbLine
 62
7
  6
CONTINUOUS
 10
6.9643022141
 20
-23.228723371
 11
8.278772396
 21
-23.228723371
  0
LINE
  5
252
100
AcDbEntity
  8
DRAFT
100
AcDbLine
 62
7
  6
CONTINUOUS
 10
-9.2489263578
 20
-23.0541727217
 11
-8.0102484352
 21
-23.0541727217
  0
LINE
  5
253
100
AcDbEntity
  8
DRAFT
100
AcDbLine
 62
7
  6
CONTINUOUS
 10
6.9677932271
 20
-23.0541727217
 11
8.2064711497
 21
-23.0541727217
  0
LINE
  5
254
100
AcDbEntity
  8
RACCORDO
100
AcDbLine
 62
253
  6
CONTINUOUS
 10
6.0369506941
 20
-22.9616476542
 11
-7.0794059022
 21
-22.9616476542
  0
LINE
  5
255
100
AcDbEntity
  8
RACCORDO
100
AcDbLine
 62
253
  6
CONTINUOUS
 10
-7.921227604
 20
-22.8371266194
 11
-7.8702496153
 21
-22.8371266194
  0
LINE
  5
256
100
AcDbEntity
  8
RACCORDO
100
AcDbLine
 62
253
  6
CONTINUOUS
 10
6.8277944072
 20
-22.8371266194
 11
6.878772396
 21
-22.8371266194
  0
LINE
  5
257
100
AcDbEntity
  8
RACCORDO
100
AcDbLine
 62
7
  6
CONTINUOUS
 10
-9.2489263578
 20
-23.0541727217
 11
-10.9109797353
 21
-21.3921193443
  0
LINE
  5
258
100
AcDbEntity
  8
DRAFT
100
AcDbLine
 62
7
  6
CONTINUOUS
 10
-7.921227604
 20
-23.1431935529
 11
-8.0102484352
 21
-23.0541727217
  0
LINE
  5
259
100
AcDbEntity
  8
DRAFT
100
AcDbLine
 62
7
  6
CONTINUOUS
 10
-7.921227604
 20
-22.078723371
 11
-8.0102484352
 21
-21.9897025399
  0
LINE
  5
25A
100
AcDbEntity
  8
RACCORDO
100
AcDbLine
 62
7
  6
CONTINUOUS
 10
-7.7642061026
 20
-22.1357448725
 11
-7.821227604
 21
-22.078723371
  0
LINE
  5
25B
100
AcDbEntity
  8
DRAFT
100
AcDbLine
 62
7
  6
CONTINUOUS
 10
-7.7630493059
 20
18.6172721747
 11
-7.8200652787
 21
18.5317470094
  0
LINE
  5
25C
100
AcDbEntity
  8
ASSI
100
AcDbLine
 62
7
  6
CONTINUOUS
 10
-4.1150833218
 20
21.2447239131
 11
-4.1416300275
 21
21.2143541823
  0
LINE
  5
25D
100
AcDbEntity
  8
ASSI
100
AcDbLine
 62
7
  6
CONTINUOUS
 10
-4.1416300275
 20
21.2143541823
 11
-4.1720361549
 21
21.1801064495
  0
LINE
  5
25E
100
AcDbEntity
  8
ASSI
100
AcDbLine
 62
7
  6
CONTINUOUS
 10
-4.1720361549
 20
21.1801064495
 11
-4.2063059539
 21
21.1419926841
  0
LINE
  5
25F
100
AcDbEntity
  8
ASSI
100
AcDbLine
 62
7
  6
CONTINUOUS
 10
-4.2063059539
 20
21.1419926841
 11
-4.2647994265
 21
21.0776784599
  0
LINE
  5
260
100
AcDbEntity
  8
ASSI
100
AcDbLine
 62
7
  6
CONTINUOUS
 10
-4.2647994265
 20
21.0776784599
 11
-4.4491975917
 21
20.8776344437
  0
LINE
  5
261
100
AcDbEntity
  8
RACCORDO
100
AcDbLine
 62
253
  6
CONTINUOUS
 10
6.0340671639
 20
-22.4616666927
 11
-7.076522372
 21
-22.4616666927
  0
LINE
  5
262
100
AcDbEntity
  8
DRAFT
100
AcDbLine
 62
7
  6
CONTINUOUS
 10
-3.021227604
 20
-22.4319572645
 11
-2.9625387272
 21
-22.4319572645
  0
LINE
  5
263
100
AcDbEntity
  8
DRAFT
100
AcDbLine
 62
7
  6
CONTINUOUS
 10
1.9200835191
 20
-22.4319572645
 11
1.978772396
 21
-22.4319572645
  0
LINE
  5
264
100
AcDbEntity
  8
DRAFT
100
AcDbLine
 62
7
  6
CONTINUOUS
 10
2.978772396
 20
-22.378723371
 11
2.878772396
 21
-22.378723371
  0
LINE
  5
265
100
AcDbEntity
  8
DRAFT
100
AcDbLine
 62
7
  6
CONTINUOUS
 10
-3.921227604
 20
-22.378723371
 11
-4.021227604
 21
-22.378723371
  0
LINE
  5
266
100
AcDbEntity
  8
RACCORDO
100
AcDbLine
 62
253
  6
CONTINUOUS
 10
-7.921227604
 20
-22.337811852
 11
-7.8730062894
 21
-22.337811852
  0
LINE
  5
267
100
AcDbEntity
  8
RACCORDO
100
AcDbLine
 62
253
  6
CONTINUOUS
 10
6.8305510813
 20
-22.337811852
 11
6.878772396
 21
-22.337811852
  0
LINE
  5
268
100
AcDbEntity
  8
RACCORDO
100
AcDbLine
 62
253
  6
CONTINUOUS
 10
6.7205940978
 20
-22.3357414878
 11
6.0369506941
 21
-22.3357414878
  0
LINE
  5
269
100
AcDbEntity
  8
RACCORDO
100
AcDbLine
 62
253
  6
CONTINUOUS
 10
-7.0794059022
 20
-22.3357414878
 11
-7.7630493059
 21
-22.3357414878
  0
LINE
  5
26A
100
AcDbEntity
  8
RACCORDO
100
AcDbLine
 62
253
  6
CONTINUOUS
 10
5.9298772408
 20
-22.3053796039
 11
2.878772396
 21
-22.3053796039
  0
LINE
  5
26B
100
AcDbEntity
  8
RACCORDO
100
AcDbLine
 62
253
  6
CONTINUOUS
 10
-3.921227604
 20
-22.3053796039
 11
-6.9723324489
 21
-22.3053796039
  0
LINE
  5
26C
100
AcDbEntity
  8
RACCORDO
100
AcDbLine
 62
7
  6
CONTINUOUS
 10
-6.271227604
 20
-22.278723371
 11
-3.9144292146
 21
-22.278723371
  0
LINE
  5
26D
100
AcDbEntity
  8
RACCORDO
100
AcDbLine
 62
7
  6
CONTINUOUS
 10
2.8719740065
 20
-22.278723371
 11
5.228772396
 21
-22.278723371
  0
LINE
  5
26E
100
AcDbEntity
  8
RACCORDO
100
AcDbLine
 62
7
  6
CONTINUOUS
 10
-2.921227604
 20
-22.2631103221
 11
1.878772396
 21
-22.2631103221
  0
LINE
  5
26F
100
AcDbEntity
  8
DRAFT
100
AcDbLine
 62
7
  6
CONTINUOUS
 10
-6.1822067729
 20
-22.1897025399
 11
5.1397515648
 21
-22.1897025399
  0
LINE
  5
270
100
AcDbEntity
  8
RACCORDO
100
AcDbLine
 62
253
  6
CONTINUOUS
 10
6.7217508945
 20
-22.1357448725
 11
6.0357938974
 21
-22.1357448725
  0
LINE
  5
271
100
AcDbEntity
  8
RACCORDO
100
AcDbLine
 62
253
  6
CONTINUOUS
 10
-7.0782491055
 20
-22.1357448725
 11
-7.7642061026
 21
-22.1357448725
  0
LINE
  5
272
100
AcDbEntity
  8
DRAFT
100
AcDbLine
 62
7
  6
CONTINUOUS
 10
6.878772396
 20
-22.078723371
 11
5.228772396
 21
-22.078723371
  0
LINE
  5
273
100
AcDbEntity
  8
DRAFT
100
AcDbLine
 62
7
  6
CONTINUOUS
 10
-6.271227604
 20
-22.078723371
 11
-7.921227604
 21
-22.078723371
  0
LINE
  5
274
100
AcDbEntity
  8
DRAFT
100
AcDbLine
 62
7
  6
CONTINUOUS
 10
-8.0102484352
 20
-21.9897025399
 11
-6.1822067729
 21
-21.9897025399
  0
LINE
  5
275
100
AcDbEntity
  8
DRAFT
100
AcDbLine
 62
7
  6
CONTINUOUS
 10
5.1397515648
 20
-21.9897025399
 11
6.9677932271
 21
-21.9897025399
  0
LINE
  5
276
100
AcDbEntity
  8
ASSI
100
AcDbLine
 62
7
  6
CONTINUOUS
 10
-4.4491975917
 20
-25.6350811857
 11
-4.3538838559
 21
-25.7381687327
  0
LINE
  5
277
100
AcDbEntity
  8
ASSI
100
AcDbLine
 62
7
  6
CONTINUOUS
 10
-4.3538838559
 20
-25.7381687327
 11
-4.26489801
 21
-25.8350168033
  0
LINE
  5
278
100
AcDbEntity
  8
ASSI
100
AcDbLine
 62
7
  6
CONTINUOUS
 10
-4.26489801
 20
-25.8350168033
 11
-4.2064504618
 21
-25.89927974
  0
LINE
  5
279
100
AcDbEntity
  8
ASSI
100
AcDbLine
 62
7
  6
CONTINUOUS
 10
-4.2064504618
 20
-25.89927974
 11
-4.1722238134
 21
-25.9373436497
  0
LINE
  5
27A
100
AcDbEntity
  8
ASSI
100
AcDbLine
 62
7
  6
CONTINUOUS
 10
-4.1722238134
 20
-25.9373436497
 11
-4.1418511044
 21
-25.9715501256
  0
LWPOLYLINE
  5
27B
100
AcDbEntity
  8
ASSI
100
AcDbPolyline
 62
7
  6
CONTINUOUS
 90
18
 70
0
 10
-4.1418511044
 20
-25.9715501256
 10
-4.1153170968
 20
-26.0019010314
 10
-4.1034192942
 20
-26.0157210106
 10
-4.0924117153
 20
-26.0286602496
 10
-4.0822815525
 20
-26.0407205002
 10
-4.0729784422
 20
-26.051980999
 10
-4.0644982533
 20
-26.0624432958
 10
-4.0568276858
 20
-26.072105841
 10
-4.0499194552
 20
-26.0810432216
 10
-4.0437583996
 20
-26.0892749686
 10
-4.0383575998
 20
-26.0967815511
 10
-4.0337180949
 20
-26.1035789639
 10
-4.0298298714
 20
-26.1096591016
 10
-4.0266821718
 20
-26.1150300696
 10
-4.0242660366
 20
-26.1197321784
 10
-4.0225648626
 20
-26.1237788651
 10
-4.0215585537
 20
-26.1271566928
 10
-4.021227604
 20
-26.1298656613
  0
LINE
  5
27C
100
AcDbEntity
  8
DRAFT
100
AcDbLine
 62
7
  6
CONTINUOUS
 10
-7.7630493059
 20
-23.3747189167
 11
-7.8200652787
 21
-23.2891937514
  0
LINE
  5
27D
100
AcDbEntity
  8
DRAFT
100
AcDbLine
 62
7
  6
CONTINUOUS
 10
-8.7677403132
 20
18.5317470094
 11
-8.771227604
 21
18.521276629
  0
LINE
  5
27E
100
AcDbEntity
  8
ASSI
100
AcDbLine
 62
7
  6
CONTINUOUS
 10
3.878772396
 20
21.421276629
 11
3.8351217491
 21
21.3776259821
  0
LINE
  5
27F
100
AcDbEntity
  8
ASSI
100
AcDbLine
 62
7
  6
CONTINUOUS
 10
3.878772396
 20
-26.178723371
 11
3.8351217491
 21
-26.1350727241
  0
LINE
  5
280
100
AcDbEntity
  8
DRAFT
100
AcDbLine
 62
7
  6
CONTINUOUS
 10
-8.7677403132
 20
-23.2891937514
 11
-8.771227604
 21
-23.278723371
  0
LINE
  5
281
100
AcDbEntity
  8
RACCORDO
100
AcDbLine
 62
7
  6
CONTINUOUS
 10
-11.671227604
 20
-24.3199108308
 11
-11.671227604
 21
19.5624640888
  0
LWPOLYLINE
  5
282
100
AcDbEntity
  8
RACCORDO
100
AcDbPolyline
 62
7
  6
CONTINUOUS
 90
34
 70
0
 10
-11.171227604
 20
21.8712808598
 10
-11.1709444538
 20
21.883176145
 10
-11.1700956383
 20
21.8950444846
 10
-11.1686830782
 20
21.9068589951
 10
-11.1667099718
 20
21.9185929165
 10
-11.1641807858
 20
21.9302196678
 10
-11.1611012458
 20
21.941712908
 10
-11.1574783254
 20
21.9530466028
 10
-11.1533202298
 20
21.9641950783
 10
-11.1486363762
 20
21.9751330753
 10
-11.1434373729
 20
21.9858358166
 10
-11.1377349957
 20
21.9962790573
 10
-11.1315421622
 20
22.0064391349
 10
-11.1248728995
 20
22.0162930341
 10
-11.1177423148
 20
22.0258184328
 10
-11.1101665629
 20
22.0349937481
 10
-11.1021628045
 20
22.0437981951
 10
-11.0937491701
 20
22.0522118295
 10
-11.0849447231
 20
22.0602155879
 10
-11.0757694079
 20
22.0677913397
 10
-11.0662440092
 20
22.0749219245
 10
-11.05639011
 20
22.0815911871
 10
-11.0462300323
 20
22.0877840206
 10
-11.0357867916
 20
22.0934863978
 10
-11.0250840503
 20
22.0986854012
 10
-11.0141460533
 20
22.1033692548
 10
-11.0029975778
 20
22.1075273503
 10
-10.9916638831
 20
22.1111502707
 10
-10.9801706429
 20
22.1142298107
 10
-10.9685438915
 20
22.1167589967
 10
-10.9568099702
 20
22.1187321031
 10
-10.9449954596
 20
22.1201446632
 10
-10.9331271201
 20
22.1209934788
 10
-10.9212318348
 20
22.121276629
  0
LWPOLYLINE
  5
283
100
AcDbEntity
  8
RACCORDO
100
AcDbPolyline
 62
253
  6
CONTINUOUS
 90
31
 70
0
 10
-11.16685577
 20
21.8669090258
 10
-11.1665143628
 20
21.8799613658
 10
-11.1654911002
 20
21.8929862601
 10
-11.163787496
 20
21.9059480347
 10
-11.1614063659
 20
21.9188137535
 10
-11.1583532525
 20
21.9315452187
 10
-11.1546378127
 20
21.9440994032
 10
-11.1502712616
 20
21.9564392071
 10
-11.1452648317
 20
21.9685335633
 10
-11.1396320831
 20
21.9803496415
 10
-11.1333882815
 20
21.991855242
 10
-11.1265505997
 20
22.0030185603
 10
-11.1191379696
 20
22.0138086396
 10
-11.1111708274
 20
22.0241957654
 10
-11.1026709305
 20
22.0341516026
 10
-11.0936615086
 20
22.043648937
 10
-11.0841672155
 20
22.0526617561
 10
-11.0742141121
 20
22.0611652977
 10
-11.0638295228
 20
22.0691362058
 10
-11.0530419325
 20
22.0765526127
 10
-11.0418809065
 20
22.0833941885
 10
-11.0303770507
 20
22.0896421677
 10
-11.0185619051
 20
22.0952794159
 10
-11.0064678678
 20
22.1002904714
 10
-10.9941281117
 20
22.1046615865
 10
-10.9815764643
 20
22.108380776
 10
-10.9688473504
 20
22.1114378371
 10
-10.9559757107
 20
22.1138243799
 10
-10.9429968533
 20
22.115533863
 10
-10.929946355
 20
22.116561606
 10
-10.9168600008
 20
22.116904795
  0
LINE
  5
284
100
AcDbEntity
  8
ASSI
100
AcDbLine
 62
7
  6
CONTINUOUS
 10
3.7400101077
 20
21.2437462354
 11
3.7134469304
 21
21.2133753146
  0
LINE
  5
285
100
AcDbEntity
  8
ASSI
100
AcDbLine
 62
7
  6
CONTINUOUS
 10
3.7134469304
 20
21.2133753146
 11
3.6830521741
 21
21.1791536984
  0
LINE
  5
286
100
AcDbEntity
  8
ASSI
100
AcDbLine
 62
7
  6
CONTINUOUS
 10
3.6830521741
 20
21.1791536984
 11
3.648831006
 21
21.1411043957
  0
LINE
  5
287
100
AcDbEntity
  8
ASSI
100
AcDbLine
 62
7
  6
CONTINUOUS
 10
3.648831006
 20
21.1411043957
 11
3.5904922542
 21
21.0769698363
  0
LINE
  5
288
100
AcDbEntity
  8
ASSI
100
AcDbLine
 62
7
  6
CONTINUOUS
 10
3.5904922542
 20
21.0769698363
 11
3.4067423836
 21
20.8776344437
  0
LINE
  5
289
100
AcDbEntity
  8
RACCORDO
100
AcDbLine
 62
253
  6
CONTINUOUS
 10
10.0430751764
 20
16.7069738485
 11
9.8685245272
 21
16.6346726023
  0
LINE
  5
28A
100
AcDbEntity
  8
RACCORDO
100
AcDbLine
 62
253
  6
CONTINUOUS
 10
9.8685245272
 20
-21.3921193443
 11
10.0430751764
 21
-21.4644205905
  0
LINE
  5
28B
100
AcDbEntity
  8
ASSI
100
AcDbLine
 62
7
  6
CONTINUOUS
 10
3.4067423836
 20
-25.6350811857
 11
3.5017435984
 21
-25.7378304355
  0
LINE
  5
28C
100
AcDbEntity
  8
ASSI
100
AcDbLine
 62
7
  6
CONTINUOUS
 10
3.5017435984
 20
-25.7378304355
 11
3.5904003258
 21
-25.8343154774
  0
LINE
  5
28D
100
AcDbEntity
  8
ASSI
100
AcDbLine
 62
7
  6
CONTINUOUS
 10
3.5904003258
 20
-25.8343154774
 11
3.6486945457
 21
-25.8984003791
  0
LINE
  5
28E
100
AcDbEntity
  8
ASSI
100
AcDbLine
 62
7
  6
CONTINUOUS
 10
3.6486945457
 20
-25.8984003791
 11
3.6828731732
 21
-25.9364006396
  0
LINE
  5
28F
100
AcDbEntity
  8
ASSI
100
AcDbLine
 62
7
  6
CONTINUOUS
 10
3.6828731732
 20
-25.9364006396
 11
3.7132345833
 21
-25.9705812761
  0
LWPOLYLINE
  5
290
100
AcDbEntity
  8
ASSI
100
AcDbPolyline
 62
7
  6
CONTINUOUS
 90
18
 70
0
 10
3.7132345833
 20
-25.9705812761
 10
3.7397844674
 20
-26.0009329179
 10
3.7516988853
 20
-26.0147616555
 10
3.7627291041
 20
-26.0277150699
 10
3.7728868624
 20
-26.0397944549
 10
3.7822196097
 20
-26.0510757699
 10
3.7907309021
 20
-26.0615587167
 10
3.7984359046
 20
-26.0712435935
 10
3.805383291
 20
-26.0802072546
 10
3.811588541
 20
-26.088469364
 10
3.8170392302
 20
-26.0960102576
 10
3.8217356117
 20
-26.1028477972
 10
3.8256877307
 20
-26.1089746598
 10
3.8289060336
 20
-26.1143981685
 10
3.8313994449
 20
-26.1191581534
 10
3.8331841347
 20
-26.1232678912
 10
3.8342796806
 20
-26.1267141054
 10
3.8347051287
 20
-26.1294967957
  0
LWPOLYLINE
  5
291
100
AcDbEntity
  8
RACCORDO
100
AcDbPolyline
 62
253
  6
CONTINUOUS
 90
31
 70
0
 10
-11.16685577
 20
21.4656141963
 10
-11.1664764383
 20
21.4543040458
 10
-11.1654154564
 20
21.4430247809
 10
-11.1636757215
 20
21.431807203
 10
-11.1612619846
 20
21.4206819449
 10
-11.158180837
 20
21.4096793874
 10
-11.1544406927
 20
21.3988295762
 10
-11.1500517653
 20
21.3881621397
 10
-11.14502604
 20
21.3777062086
 10
-11.1393772411
 20
21.3674903359
 10
-11.1331207941
 20
21.3575424188
 10
-11.1262737842
 20
21.3478896232
 10
-11.1188549091
 20
21.3385583087
 10
-11.1108844281
 20
21.3295739572
 10
-11.1023841071
 20
21.3209611032
 10
-11.0933771586
 20
21.3127432664
 10
-11.0838881787
 20
21.3049428882
 10
-11.0739430798
 20
21.2975812697
 10
-11.0635690199
 20
21.2906785139
 10
-11.0527943283
 20
21.2842534708
 10
-11.0416484286
 20
21.2783236859
 10
-11.0301617578
 20
21.2729053522
 10
-11.0183656837
 20
21.268013266
 10
-11.0062924187
 20
21.2636607866
 10
-10.9939749326
 20
21.2598597997
 10
-10.9814468617
 20
21.2566206849
 10
-10.9687424176
 20
21.2539522877
 10
-10.9558962935
 20
21.2518618948
 10
-10.9429435695
 20
21.2503552147
 10
-10.9299196167
 20
21.2494363618
 10
-10.9168600008
 20
21.2491078453
  0
LINE
  5
292
100
AcDbEntity
  8
RACCORDO
100
AcDbLine
 62
253
  6
CONTINUOUS
 10
-11.16685577
 20
-26.2230609383
 11
-11.171227604
 21
-25.7892085192
  0
LINE
  5
293
100
AcDbEntity
  8
RACCORDO
100
AcDbLine
 62
253
  6
CONTINUOUS
 10
-10.9168600008
 20
-26.0065545874
 11
-10.9219506019
 21
-25.5013731018
  0
LINE
  5
294
100
AcDbEntity
  8
RACCORDO
100
AcDbLine
 62
7
  6
CONTINUOUS
 10
-11.4966769548
 20
-19.9781211735
 11
-11.4966769548
 21
15.2206744315
  0
LINE
  5
295
100
AcDbEntity
  8
RACCORDO
100
AcDbLine
 62
7
  6
CONTINUOUS
 10
-11.171227604
 20
-24.778723371
 11
-11.171227604
 21
-26.6287276018
  0
LINE
  5
296
100
AcDbEntity
  8
RACCORDO
100
AcDbLine
 62
7
  6
CONTINUOUS
 10
-11.171227604
 20
20.021276629
 11
-11.171227604
 21
21.8712808598
  0
LINE
  5
297
100
AcDbEntity
  8
RACCORDO
100
AcDbLine
 62
253
  6
CONTINUOUS
 10
-11.16685577
 20
21.8669090258
 11
-11.16685577
 21
21.4656141963
  0
LINE
  5
298
100
AcDbEntity
  8
RACCORDO
100
AcDbLine
 62
253
  6
CONTINUOUS
 10
-11.16685577
 20
-26.2230609383
 11
-11.16685577
 21
-26.6243557678
  0
LINE
  5
299
100
AcDbEntity
  8
RACCORDO
100
AcDbLine
 62
253
  6
CONTINUOUS
 10
-10.9168600008
 20
-26.0065545874
 11
-10.9168600008
 21
-26.874351537
  0
LINE
  5
29A
100
AcDbEntity
  8
RACCORDO
100
AcDbLine
 62
253
  6
CONTINUOUS
 10
-10.9168600008
 20
21.2491078453
 11
-10.9168600008
 21
22.116904795
  0
LINE
  5
29B
100
AcDbEntity
  8
RACCORDO
100
AcDbLine
 62
7
  6
CONTINUOUS
 10
-10.571227604
 20
-7.4788756758
 11
-10.571227604
 21
16.1214289338
  0
LINE
  5
29C
100
AcDbEntity
  8
RACCORDO
100
AcDbLine
 62
253
  6
CONTINUOUS
 10
-10.1938935687
 20
15.7440948985
 11
-10.1938935687
 21
2.8159424835
  0
LINE
  5
29D
100
AcDbEntity
  8
RACCORDO
100
AcDbLine
 62
253
  6
CONTINUOUS
 10
-10.1938935687
 20
-1.3733892255
 11
-10.1938935687
 21
-7.1015416405
  0
LINE
  5
29E
100
AcDbEntity
  8
DRAFT
100
AcDbLine
 62
7
  6
CONTINUOUS
 10
-10.171227604
 20
-22.5276944248
 11
-10.171227604
 21
-22.378723371
  0
LINE
  5
29F
100
AcDbEntity
  8
DRAFT
100
AcDbLine
 62
7
  6
CONTINUOUS
 10
-10.171227604
 20
17.621276629
 11
-10.171227604
 21
17.7702476828
  0
LINE
  5
2A0
100
AcDbEntity
  8
RACCORDO
100
AcDbLine
 62
253
  6
CONTINUOUS
 10
-11.171227604
 20
21.0317617772
 11
-11.16685577
 21
21.4656141963
  0
LINE
  5
2A1
100
AcDbEntity
  8
RACCORDO
100
AcDbLine
 62
253
  6
CONTINUOUS
 10
-10.9219506019
 20
20.7439263598
 11
-10.9168600008
 21
21.2491078453
  0
LWPOLYLINE
  5
2A2
100
AcDbEntity
  8
RACCORDO
100
AcDbPolyline
 62
253
  6
CONTINUOUS
 90
58
 70
0
 10
-10.1938935687
 20
15.7440948985
 10
-10.193505691
 20
15.7716397047
 10
-10.1923591318
 20
15.7991636019
 10
-10.1904547615
 20
15.8266456969
 10
-10.1877940258
 20
15.8540651283
 10
-10.1843789442
 20
15.8814010822
 10
-10.1802121092
 20
15.9086328081
 10
-10.1752966838
 20
15.9357396348
 10
-10.1696363993
 20
15.9627009855
 10
-10.1632355523
 20
15.9894963942
 10
-10.1560990016
 20
16.0161055208
 10
-10.1482321646
 20
16.0425081663
 10
-10.1396410129
 20
16.0686842889
 10
-10.130332068
 20
16.0946140185
 10
-10.1203123961
 20
16.120277672
 10
-10.1095896033
 20
16.1456557683
 10
-10.0981718289
 20
16.1707290432
 10
-10.0860677403
 20
16.1954784637
 10
-10.0732865254
 20
16.2198852428
 10
-10.0598378864
 20
16.2439308535
 10
-10.0457320321
 20
16.267597043
 10
-10.03097967
 20
16.2908658465
 10
-10.0155919986
 20
16.3137196007
 10
-9.9995806986
 20
16.3361409577
 10
-9.9829579239
 20
16.3581128976
 10
-9.9657362927
 20
16.3796187416
 10
-9.947928878
 20
16.4006421649
 10
-9.929549197
 20
16.4211672088
 10
-9.9106112017
 20
16.4411782928
 10
-9.8911292678
 20
16.4606602267
 10
-9.8711181838
 20
16.4795982219
 10
-9.85059314
 20
16.4979779029
 10
-9.8295697167
 20
16.5157853177
 10
-9.8080638727
 20
16.5330069488
 10
-9.7860919328
 20
16.5496297235
 10
-9.7636705758
 20
16.5656410236
 10
-9.7408168215
 20
16.581028695
 10
-9.7175480181
 20
16.595781057
 10
-9.6938818286
 20
16.6098869114
 10
-9.6698362179
 20
16.6233355503
 10
-9.6454294388
 20
16.6361167652
 10
-9.6206800182
 20
16.6482208539
 10
-9.5956067434
 20
16.6596386282
 10
-9.570228647
 20
16.6703614211
 10
-9.5445649936
 20
16.6803810929
 10
-9.518635264
 20
16.6896900379
 10
-9.4924591414
 20
16.6982811896
 10
-9.4660564958
 20
16.7061480266
 10
-9.4394473693
 20
16.7132845772
 10
-9.4126519606
 20
16.7196854242
 10
-9.3856906098
 20
16.7253457088
 10
-9.3585837832
 20
16.7302611342
 10
-9.3313520572
 20
16.7344279691
 10
-9.3040161033
 20
16.7378430507
 10
-9.2765966719
 20
16.7405037865
 10
-9.2491145769
 20
16.7424081568
 10
-9.2215906798
 20
16.7435547159
 10
-9.1940458736
 20
16.7439425937
  0
LWPOLYLINE
  5
2A3
100
AcDbEntity
  8
RACCORDO
100
AcDbPolyline
 62
253
  6
CONTINUOUS
 90
31
 70
0
 10
-11.16685577
 20
-26.2230609383
 10
-11.1664772144
 20
-26.211762966
 10
-11.1654180868
 20
-26.200492662
 10
-11.1636807103
 20
-26.1892807922
 10
-11.1612690089
 20
-26.1781569831
 10
-11.1581891387
 20
-26.167152731
 10
-11.1544500877
 20
-26.1563011912
 10
-11.1500625433
 20
-26.1456330682
 10
-11.1450381443
 20
-26.1351763949
 10
-11.1393904637
 20
-26.124959476
 10
-11.1331347711
 20
-26.1150100709
 10
-11.1262881965
 20
-26.1053555464
 10
-11.1188695882
 20
-26.096022523
 10
-11.1108992842
 20
-26.0870365728
 10
-11.1023989894
 20
-26.0784221536
 10
-11.0933918989
 20
-26.0702027752
 10
-11.0839025953
 20
-26.0624008785
 10
-11.0739570081
 20
-26.0550377903
 10
-11.0635823253
 20
-26.0481336414
 10
-11.0528068929
 20
-26.0417072949
 10
-11.0416601349
 20
-26.0357762979
 10
-11.0301724978
 20
-26.0303568506
 10
-11.0183753411
 20
-26.0254637486
 10
-11.0063009047
 20
-26.0211103655
 10
-10.993982225
 20
-26.0173086081
 10
-10.9814529897
 20
-26.0140688617
 10
-10.9687473868
 20
-26.0113999552
 10
-10.955900066
 20
-26.0093091628
 10
-10.9429460988
 20
-26.0078021929
 10
-10.929920885
 20
-26.0068831645
 10
-10.9168600008
 20
-26.0065545874
  0
LINE
  5
2A4
100
AcDbEntity
  8
RACCORDO
100
AcDbLine
 62
7
  6
CONTINUOUS
 10
-7.8200652787
 20
18.5317470094
 11
-7.8702496153
 21
18.0796798774
  0
LINE
  5
2A5
100
AcDbEntity
  8
DRAFT
100
AcDbLine
 62
7
  6
CONTINUOUS
 10
5.228772396
 20
17.521276629
 11
5.1397515648
 21
17.4322557979
  0
LINE
  5
2A6
100
AcDbEntity
  8
RACCORDO
100
AcDbLine
 62
253
  6
CONTINUOUS
 10
9.8744047927
 20
22.116904795
 11
9.8787766267
 21
22.121276629
  0
LINE
  5
2A7
100
AcDbEntity
  8
DRAFT
100
AcDbLine
 62
7
  6
CONTINUOUS
 10
5.228772396
 20
17.321276629
 11
5.1397515648
 21
17.2322557979
  0
LINE
  5
2A8
100
AcDbEntity
  8
RACCORDO
100
AcDbLine
 62
253
  6
CONTINUOUS
 10
10.628772396
 20
15.2929756777
 11
10.4542217467
 21
15.2206744315
  0
LINE
  5
2A9
100
AcDbEntity
  8
RACCORDO
100
AcDbLine
 62
253
  6
CONTINUOUS
 10
10.4542217467
 20
-19.9781211735
 11
10.628772396
 21
-20.0504224197
  0
LINE
  5
2AA
100
AcDbEntity
  8
DRAFT
100
AcDbLine
 62
7
  6
CONTINUOUS
 10
5.1397515648
 20
-22.1897025399
 11
5.228772396
 21
-22.278723371
  0
LINE
  5
2AB
100
AcDbEntity
  8
RACCORDO
100
AcDbLine
 62
253
  6
CONTINUOUS
 10
9.8744047927
 20
-26.874351537
 11
9.8787766267
 21
-26.878723371
  0
LINE
  5
2AC
100
AcDbEntity
  8
DRAFT
100
AcDbLine
 62
7
  6
CONTINUOUS
 10
5.228772396
 20
-22.078723371
 11
5.1397515648
 21
-21.9897025399
  0
LINE
  5
2AD
100
AcDbEntity
  8
RACCORDO
100
AcDbLine
 62
7
  6
CONTINUOUS
 10
-7.8702496153
 20
-22.8371266194
 11
-7.8200652787
 21
-23.2891937514
  0
LWPOLYLINE
  5
2AE
100
AcDbEntity
  8
RACCORDO
100
AcDbPolyline
 62
253
  6
CONTINUOUS
 90
31
 70
0
 10
-8.775599438
 20
-26.2230609383
 10
-8.7759787925
 20
-26.2117504306
 10
-8.7770398403
 20
-26.2004708114
 10
-8.7787796836
 20
-26.1892528851
 10
-8.7811935689
 20
-26.1781272963
 10
-8.7842749049
 20
-26.1671244194
 10
-8.7880152866
 20
-26.1562742767
 10
-8.792404513
 20
-26.1456064805
 10
-8.7974305952
 20
-26.135150187
 10
-8.8030797915
 20
-26.1249339878
 10
-8.8093366633
 20
-26.1149857962
 10
-8.8161841289
 20
-26.1053327656
 10
-8.823603493
 20
-26.0960012495
 10
-8.8315744966
 20
-26.0870167285
 10
-8.8400753681
 20
-26.078403743
 10
-8.8490828884
 20
-26.0701858178
 10
-8.8585724522
 20
-26.0623853996
 10
-8.8685181479
 20
-26.055023786
 10
-8.8788928274
 20
-26.0481210721
 10
-8.8896681799
 20
-26.0416960985
 10
-8.9008147594
 20
-26.0357664269
 10
-8.9123020737
 20
-26.0303482757
 10
-8.9240987157
 20
-26.0254564485
 10
-8.9361724965
 20
-26.0211042839
 10
-8.9484904851
 20
-26.0173036489
 10
-8.9610195174
 20
-26.0140648118
 10
-8.9737249152
 20
-26.0113967717
 10
-8.9865705666
 20
-26.0093070124
 10
-8.9995208813
 20
-26.0078010938
 10
-9.0125409452
 20
-26.0068828478
 10
-9.0255952073
 20
-26.0065545874
  0
LINE
  5
2AF
100
AcDbEntity
  8
RACCORDO
100
AcDbLine
 62
253
  6
CONTINUOUS
 10
-9.0255952073
 20
21.2491078453
 11
-9.0205046062
 21
20.7439263598
  0
LINE
  5
2B0
100
AcDbEntity
  8
RACCORDO
100
AcDbLine
 62
253
  6
CONTINUOUS
 10
-8.775599438
 20
21.4656141963
 11
-8.771227604
 21
21.0317617772
  0
LWPOLYLINE
  5
2B1
100
AcDbEntity
  8
DRAFT
100
AcDbPolyline
 62
7
  6
CONTINUOUS
 90
3
 70
0
 10
-8.9292703828
 20
2.4431107133
 10
-8.9223003895
 20
1.6990437962
 10
-8.921227604
 20
1.5516986358
  0
LINE
  5
2B2
100
AcDbEntity
  8
RACCORDO
100
AcDbLine
 62
253
  6
CONTINUOUS
 10
-9.1940458736
 20
-1.1140452045
 11
-9.1940458736
 21
-8.1013893357
  0
LINE
  5
2B3
100
AcDbEntity
  8
RACCORDO
100
AcDbLine
 62
253
  6
CONTINUOUS
 10
-9.1940458736
 20
2.5565984625
 11
-9.1940458736
 21
16.7439425937
  0
LINE
  5
2B4
100
AcDbEntity
  8
RACCORDO
100
AcDbLine
 62
253
  6
CONTINUOUS
 10
-9.0255952073
 20
-26.0065545874
 11
-9.0255952073
 21
-26.874351537
  0
LINE
  5
2B5
100
AcDbEntity
  8
RACCORDO
100
AcDbLine
 62
253
  6
CONTINUOUS
 10
-9.0255952073
 20
21.2491078453
 11
-9.0255952073
 21
22.116904795
  0
LINE
  5
2B6
100
AcDbEntity
  8
0
100
AcDbLine
 62
7
  6
CONTINUOUS
 10
-8.921227604
 20
-1.0409409859
 11
-8.921227604
 21
2.4834942439
  0
LINE
  5
2B7
100
AcDbEntity
  8
RACCORDO
100
AcDbLine
 62
253
  6
CONTINUOUS
 10
-8.775599438
 20
-26.6243557678
 11
-8.775599438
 21
-26.2230609383
  0
LINE
  5
2B8
100
AcDbEntity
  8
RACCORDO
100
AcDbLine
 62
253
  6
CONTINUOUS
 10
-8.775599438
 20
21.4656141963
 11
-8.775599438
 21
21.8669090258
  0
LINE
  5
2B9
100
AcDbEntity
  8
DRAFT
100
AcDbLine
 62
7
  6
CONTINUOUS
 10
-8.771227604
 20
-23.778723371
 11
-8.771227604
 21
-23.278723371
  0
LINE
  5
2BA
100
AcDbEntity
  8
RACCORDO
100
AcDbLine
 62
7
  6
CONTINUOUS
 10
-8.771227604
 20
-24.778723371
 11
-8.771227604
 21
-26.6287276018
  0
LINE
  5
2BB
100
AcDbEntity
  8
DRAFT
100
AcDbLine
 62
7
  6
CONTINUOUS
 10
-8.771227604
 20
18.521276629
 11
-8.771227604
 21
19.021276629
  0
LINE
  5
2BC
100
AcDbEntity
  8
RACCORDO
100
AcDbLine
 62
7
  6
CONTINUOUS
 10
-8.771227604
 20
20.021276629
 11
-8.771227604
 21
21.8712808598
  0
LINE
  5
2BD
100
AcDbEntity
  8
RACCORDO
100
AcDbLine
 62
253
  6
CONTINUOUS
 10
-8.6052521708
 20
19.1872520623
 11
-8.6052521708
 21
18.6129848932
  0
LINE
  5
2BE
100
AcDbEntity
  8
RACCORDO
100
AcDbLine
 62
253
  6
CONTINUOUS
 10
-8.6052521708
 20
-23.3704316352
 11
-8.6052521708
 21
-23.9446988043
  0
LINE
  5
2BF
100
AcDbEntity
  8
RACCORDO
100
AcDbLine
 62
253
  6
CONTINUOUS
 10
-8.1053283232
 20
18.9339698727
 11
-8.1053283232
 21
18.6172721747
  0
LINE
  5
2C0
100
AcDbEntity
  8
RACCORDO
100
AcDbLine
 62
253
  6
CONTINUOUS
 10
-8.1053283232
 20
-23.3747189167
 11
-8.1053283232
 21
-23.6914166147
  0
LINE
  5
2C1
100
AcDbEntity
  8
DRAFT
100
AcDbLine
 62
7
  6
CONTINUOUS
 10
-8.0102484352
 20
-23.0541727217
 11
-8.0102484352
 21
-21.9897025399
  0
LINE
  5
2C2
100
AcDbEntity
  8
DRAFT
100
AcDbLine
 62
7
  6
CONTINUOUS
 10
-8.0102484352
 20
17.2322557979
 11
-8.0102484352
 21
18.2967259797
  0
LINE
  5
2C3
100
AcDbEntity
  8
DRAFT
100
AcDbLine
 62
7
  6
CONTINUOUS
 10
-7.921227604
 20
18.3857468108
 11
-7.921227604
 21
17.321276629
  0
LINE
  5
2C4
100
AcDbEntity
  8
DRAFT
100
AcDbLine
 62
7
  6
CONTINUOUS
 10
-7.921227604
 20
-22.078723371
 11
-7.921227604
 21
-23.1431935529
  0
LINE
  5
2C5
100
AcDbEntity
  8
RACCORDO
100
AcDbLine
 62
7
  6
CONTINUOUS
 10
-7.8730062894
 20
-22.337811852
 11
-7.8730062894
 21
-22.078723371
  0
LINE
  5
2C6
100
AcDbEntity
  8
RACCORDO
100
AcDbLine
 62
7
  6
CONTINUOUS
 10
-7.8730062894
 20
17.321276629
 11
-7.8730062894
 21
17.58036511
  0
LINE
  5
2C7
100
AcDbEntity
  8
RACCORDO
100
AcDbLine
 62
7
  6
CONTINUOUS
 10
-7.7630493059
 20
-23.3747189167
 11
-7.7630493059
 21
-22.3357414878
  0
LINE
  5
2C8
100
AcDbEntity
  8
RACCORDO
100
AcDbLine
 62
7
  6
CONTINUOUS
 10
-7.7630493059
 20
17.5782947458
 11
-7.7630493059
 21
18.6172721747
  0
LINE
  5
2C9
100
AcDbEntity
  8
RACCORDO
100
AcDbLine
 62
253
  6
CONTINUOUS
 10
-9.0205046062
 20
-25.5013731018
 11
-9.0255952073
 21
-26.0065545874
  0
LINE
  5
2CA
100
AcDbEntity
  8
RACCORDO
100
AcDbLine
 62
253
  6
CONTINUOUS
 10
-8.771227604
 20
-25.7892085192
 11
-8.775599438
 21
-26.2230609383
  0
LWPOLYLINE
  5
2CB
100
AcDbEntity
  8
RACCORDO
100
AcDbPolyline
 62
7
  6
CONTINUOUS
 90
34
 70
0
 10
-8.771227604
 20
-26.6287276018
 10
-8.7715107543
 20
-26.640622887
 10
-8.7723595698
 20
-26.6524912266
 10
-8.7737721299
 20
-26.6643057371
 10
-8.7757452363
 20
-26.6760396585
 10
-8.7782744223
 20
-26.6876664098
 10
-8.7813539623
 20
-26.69915965
 10
-8.7849768827
 20
-26.7104933448
 10
-8.7891349783
 20
-26.7216418203
 10
-8.7938188319
 20
-26.7325798173
 10
-8.7990178352
 20
-26.7432825586
 10
-8.8047202124
 20
-26.7537257993
 10
-8.8109130459
 20
-26.7638858769
 10
-8.8175823086
 20
-26.7737397761
 10
-8.8247128933
 20
-26.7832651748
 10
-8.8322886452
 20
-26.7924404901
 10
-8.8402924036
 20
-26.8012449371
 10
-8.848706038
 20
-26.8096585715
 10
-8.857510485
 20
-26.8176623299
 10
-8.8666858002
 20
-26.8252380817
 10
-8.8762111989
 20
-26.8323686665
 10
-8.8860650981
 20
-26.8390379291
 10
-8.8962251758
 20
-26.8452307626
 10
-8.9066684165
 20
-26.8509331398
 10
-8.9173711577
 20
-26.8561321432
 10
-8.9283091548
 20
-26.8608159968
 10
-8.9394576303
 20
-26.8649740923
 10
-8.950791325
 20
-26.8685970127
 10
-8.9622845652
 20
-26.8716765527
 10
-8.9739113166
 20
-26.8742057387
 10
-8.9856452379
 20
-26.8761788452
 10
-8.9974597485
 20
-26.8775914052
 10
-9.009328088
 20
-26.8784402208
 10
-9.0212233733
 20
-26.878723371
  0
LWPOLYLINE
  5
2CC
100
AcDbEntity
  8
RACCORDO
100
AcDbPolyline
 62
253
  6
CONTINUOUS
 90
31
 70
0
 10
-8.775599438
 20
-26.6243557678
 10
-8.775942627
 20
-26.6374421219
 10
-8.77697037
 20
-26.6504926202
 10
-8.7786798532
 20
-26.6634714777
 10
-8.7810663959
 20
-26.6763431173
 10
-8.7841234571
 20
-26.6890722312
 10
-8.7878426466
 20
-26.7016238787
 10
-8.7922137616
 20
-26.7139636348
 10
-8.7972248171
 20
-26.726057672
 10
-8.8028620654
 20
-26.7378728177
 10
-8.8091100446
 20
-26.7493766735
 10
-8.8159516204
 20
-26.7605376994
 10
-8.8233680272
 20
-26.7713252897
 10
-8.8313389354
 20
-26.781709879
 10
-8.8398424769
 20
-26.7916629824
 10
-8.848855296
 20
-26.8011572756
 10
-8.8583526305
 20
-26.8101666974
 10
-8.8683084676
 20
-26.8186665944
 10
-8.8786955935
 20
-26.8266337366
 10
-8.8894856727
 20
-26.8340463666
 10
-8.9006489911
 20
-26.8408840484
 10
-8.9121545915
 20
-26.8471278501
 10
-8.9239706698
 20
-26.8527605987
 10
-8.9360650259
 20
-26.8577670286
 10
-8.9484048298
 20
-26.8621335797
 10
-8.9609590144
 20
-26.8658490194
 10
-8.9736904796
 20
-26.8689021328
 10
-8.9865561983
 20
-26.871283263
 10
-8.9995179729
 20
-26.8729868672
 10
-9.0125428673
 20
-26.8740101298
 10
-9.0255952073
 20
-26.874351537
  0
LWPOLYLINE
  5
2CD
100
AcDbEntity
  8
RACCORDO
100
AcDbPolyline
 62
253
  6
CONTINUOUS
 90
31
 70
0
 10
-8.775599438
 20
21.4656141963
 10
-8.7759779937
 20
21.454316224
 10
-8.7770371213
 20
21.44304592
 10
-8.7787744978
 20
21.4318340502
 10
-8.7811861992
 20
21.4207102411
 10
-8.7842660694
 20
21.409705989
 10
-8.7880051204
 20
21.3988544492
 10
-8.7923926648
 20
21.3881863262
 10
-8.7974170638
 20
21.3777296529
 10
-8.8030647444
 20
21.367512734
 10
-8.809320437
 20
21.3575633289
 10
-8.8161670116
 20
21.3479088044
 10
-8.8235856199
 20
21.3385757809
 10
-8.8315559239
 20
21.3295898308
 10
-8.8400562187
 20
21.3209754116
 10
-8.8490633092
 20
21.3127560332
 10
-8.8585526128
 20
21.3049541365
 10
-8.8684982
 20
21.2975910483
 10
-8.8788728828
 20
21.2906868994
 10
-8.8896483152
 20
21.2842605529
 10
-8.9007950732
 20
21.2783295559
 10
-8.9122827103
 20
21.2729101085
 10
-8.924079867
 20
21.2680170066
 10
-8.9361543034
 20
21.2636636235
 10
-8.9484729831
 20
21.2598618661
 10
-8.9610022184
 20
21.2566221197
 10
-8.9737078213
 20
21.2539532132
 10
-8.9865551421
 20
21.2518624208
 10
-8.9995091093
 20
21.2503554509
 10
-9.0125343231
 20
21.2494364225
 10
-9.0255952073
 20
21.2491078453
  0
LINE
  5
2CE
100
AcDbEntity
  8
DRAFT
100
AcDbLine
 62
7
  6
CONTINUOUS
 10
3.878772396
 20
20.021276629
 11
3.8347051287
 21
19.9551747959
  0
LINE
  5
2CF
100
AcDbEntity
  8
RACCORDO
100
AcDbLine
 62
253
  6
CONTINUOUS
 10
10.124400562
 20
21.8669090258
 11
10.128772396
 21
21.8712808598
  0
LINE
  5
2D0
100
AcDbEntity
  8
DRAFT
100
AcDbLine
 62
7
  6
CONTINUOUS
 10
6.9643022141
 20
18.471276629
 11
6.878772396
 21
18.3857468108
  0
LINE
  5
2D1
100
AcDbEntity
  8
RACCORDO
100
AcDbLine
 62
7
  6
CONTINUOUS
 10
6.0357938974
 20
17.3782981305
 11
5.978772396
 21
17.321276629
  0
LINE
  5
2D2
100
AcDbEntity
  8
0
100
AcDbLine
 62
7
  6
CONTINUOUS
 10
-8.921227604
 20
2.4489983539
 11
-9.0659034225
 21
2.3430897803
  0
LINE
  5
2D3
100
AcDbEntity
  8
RACCORDO
100
AcDbLine
 62
253
  6
CONTINUOUS
 10
10.124400562
 20
-26.6243557678
 11
10.128772396
 21
-26.6287276018
  0
LINE
  5
2D4
100
AcDbEntity
  8
DRAFT
100
AcDbLine
 62
7
  6
CONTINUOUS
 10
6.9643022141
 20
-23.228723371
 11
6.878772396
 21
-23.1431935529
  0
LINE
  5
2D5
100
AcDbEntity
  8
RACCORDO
100
AcDbLine
 62
7
  6
CONTINUOUS
 10
6.0357938974
 20
-22.1357448725
 11
5.978772396
 21
-22.078723371
  0
LINE
  5
2D6
100
AcDbEntity
  8
DRAFT
100
AcDbLine
 62
7
  6
CONTINUOUS
 10
3.878772396
 20
-24.778723371
 11
3.8347051287
 21
-24.7126215379
  0
LINE
  5
2D7
100
AcDbEntity
  8
RACCORDO
100
AcDbLine
 62
7
  6
CONTINUOUS
 10
-6.9339894576
 20
-8.4380234229
 11
-7.1022936825
 21
-8.1013893357
  0
LINE
  5
2D8
100
AcDbEntity
  8
SMUSSO
100
AcDbLine
 62
7
  6
CONTINUOUS
 10
-6.3564580966
 20
-7.438087792
 11
-6.533445219
 21
-7.0840865872
  0
LINE
  5
2D9
100
AcDbEntity
  8
RACCORDO
100
AcDbLine
 62
7
  6
CONTINUOUS
 10
-7.0794059022
 20
-22.9616476542
 11
-7.0794059022
 21
-22.3357414878
  0
LINE
  5
2DA
100
AcDbEntity
  8
RACCORDO
100
AcDbLine
 62
7
  6
CONTINUOUS
 10
-7.0794059022
 20
17.5782947458
 11
-7.0794059022
 21
18.2042009122
  0
LINE
  5
2DB
100
AcDbEntity
  8
SMUSSO
100
AcDbLine
 62
7
  6
CONTINUOUS
 10
-6.533445219
 20
-6.678723371
 11
-6.533445219
 21
-7.0840865872
  0
LINE
  5
2DC
100
AcDbEntity
  8
SMUSSO
100
AcDbLine
 62
253
  6
CONTINUOUS
 10
-6.3564580966
 20
-7.438087792
 11
-6.3564580966
 21
-6.8434928784
  0
LINE
  5
2DD
100
AcDbEntity
  8
DRAFT
100
AcDbLine
 62
7
  6
CONTINUOUS
 10
-6.271227604
 20
-22.078723371
 11
-6.271227604
 21
-22.278723371
  0
LINE
  5
2DE
100
AcDbEntity
  8
DRAFT
100
AcDbLine
 62
7
  6
CONTINUOUS
 10
-6.271227604
 20
17.321276629
 11
-6.271227604
 21
17.521276629
  0
LINE
  5
2DF
100
AcDbEntity
  8
DRAFT
100
AcDbLine
 62
7
  6
CONTINUOUS
 10
-6.1822067729
 20
17.4322557979
 11
-6.1822067729
 21
17.2322557979
  0
LINE
  5
2E0
100
AcDbEntity
  8
DRAFT
100
AcDbLine
 62
7
  6
CONTINUOUS
 10
-6.1822067729
 20
-21.9897025399
 11
-6.1822067729
 21
-22.1897025399
  0
LWPOLYLINE
  5
2E1
100
AcDbEntity
  8
ASSI
100
AcDbPolyline
 62
7
  6
CONTINUOUS
 90
17
 70
0
 10
-4.021227604
 20
21.3724189193
 10
-4.021559894
 20
21.3697005402
 10
-4.0225688108
 20
21.3663187091
 10
-4.0242717105
 20
21.3622734258
 10
-4.0266860605
 20
21.3575774515
 10
-4.0298264846
 20
21.3522180251
 10
-4.0337017691
 20
21.3461568637
 10
-4.038320746
 20
21.3393887297
 10
-4.0436928374
 20
21.3319188608
 10
-4.0498219024
 20
21.3237246865
 10
-4.0566965993
 20
21.3148267941
 10
-4.0643323476
 20
21.3052045963
 10
-4.0727823365
 20
21.2947737608
 10
-4.0820657141
 20
21.2835315289
 10
-4.0921854984
 20
21.2714806593
 10
-4.103187426
 20
21.2585450955
 10
-4.1150833218
 20
21.2447239131
  0
LINE
  5
2E2
100
AcDbEntity
  8
RACCORDO
100
AcDbLine
 62
7
  6
CONTINUOUS
 10
6.0340671639
 20
17.7042199507
 11
5.9298772408
 21
17.5479328619
  0
LWPOLYLINE
  5
2E3
100
AcDbEntity
  8
RACCORDO
100
AcDbPolyline
 62
7
  6
CONTINUOUS
 90
3
 70
0
 10
7.2727269528
 20
19.2342655134
 10
7.2215572261
 20
19.1598668736
 10
7.1955488944
 20
19.1224148935
  0
LINE
  5
2E4
100
AcDbEntity
  8
RACCORDO
100
AcDbLine
 62
7
  6
CONTINUOUS
 10
7.1955488944
 20
19.1224148935
 11
7.1163070168
 21
19.0094605162
  0
LINE
  5
2E5
100
AcDbEntity
  8
RACCORDO
100
AcDbLine
 62
7
  6
CONTINUOUS
 10
7.1163070168
 20
19.0094605162
 11
7.0628731151
 21
18.9339698727
  0
LINE
  5
2E6
100
AcDbEntity
  8
RACCORDO
100
AcDbLine
 62
253
  6
CONTINUOUS
 10
8.1515906655
 20
16.7439425937
 11
8.5289247008
 21
17.121276629
  0
LINE
  5
2E7
100
AcDbEntity
  8
RACCORDO
100
AcDbLine
 62
253
  6
CONTINUOUS
 10
9.1514383606
 20
15.7440948985
 11
9.528772396
 21
16.1214289338
  0
LWPOLYLINE
  5
2E8
100
AcDbEntity
  8
SMUSSO
100
AcDbPolyline
 62
7
  6
CONTINUOUS
 90
40
 70
0
 10
-3.9154137703
 20
-8.478723371
 10
-3.948153677
 20
-8.4648628047
 10
-3.9806574364
 20
-8.4518025036
 10
-4.0129250486
 20
-8.4395424679
 10
-4.0449474079
 20
-8.4280946668
 10
-4.07673362
 20
-8.417447131
 10
-4.1083110018
 20
-8.4075639528
 10
-4.1396655887
 20
-8.3984460364
 10
-4.1708113452
 20
-8.3900924776
 10
-4.201817482
 20
-8.3824646559
 10
-4.2326933152
 20
-8.3755574034
 10
-4.2634295286
 20
-8.369375888
 10
-4.2940673842
 20
-8.3638969924
 10
-4.3246141129
 20
-8.3591183916
 10
-4.3550624839
 20
-8.3550424107
 10
-4.3854320662
 20
-8.3516529074
 10
-4.4157169859
 20
-8.3489486662
 10
-4.445923117
 20
-8.3469309026
 10
-4.476087651
 20
-8.3455871202
 10
-4.506195208
 20
-8.3449131489
 10
-4.5362611679
 20
-8.3449131589
 10
-4.5663688623
 20
-8.3455871638
 10
-4.5965337898
 20
-8.3469310136
 10
-4.6267404519
 20
-8.3489488584
 10
-4.6570256841
 20
-8.3516531626
 10
-4.6873952618
 20
-8.3550427196
 10
-4.7178434096
 20
-8.3591187361
 10
-4.7483896376
 20
-8.3638972963
 10
-4.7790264852
 20
-8.3693760113
 10
-4.809761413
 20
-8.37555727
 10
-4.8406363119
 20
-8.3824643238
 10
-4.8716421599
 20
-8.390092057
 10
-4.9027879792
 20
-8.3984455852
 10
-4.9341427275
 20
-8.4075635065
 10
-4.9657203242
 20
-8.417446728
 10
-4.99750685
 20
-8.4280943426
 10
-5.0295295043
 20
-8.4395422265
 10
-5.0617973537
 20
-8.4518023386
 10
-5.0943013315
 20
-8.4648627201
 10
-5.1270414378
 20
-8.478723371
  0
LINE
  5
2E9
100
AcDbEntity
  8
DRAFT
100
AcDbLine
 62
7
  6
CONTINUOUS
 10
-6.521227604
 20
-6.678723371
 11
-6.3564580966
 21
-6.8434928784
  0
LINE
  5
2EA
100
AcDbEntity
  8
RACCORDO
100
AcDbLine
 62
7
  6
CONTINUOUS
 10
7.0628731151
 20
-23.6914166147
 11
7.1163070168
 21
-23.7669072582
  0
LINE
  5
2EB
100
AcDbEntity
  8
RACCORDO
100
AcDbLine
 62
7
  6
CONTINUOUS
 10
7.1163070168
 20
-23.7669072582
 11
7.1955488944
 21
-23.8798616355
  0
LWPOLYLINE
  5
2EC
100
AcDbEntity
  8
RACCORDO
100
AcDbPolyline
 62
7
  6
CONTINUOUS
 90
7
 70
0
 10
7.1955488944
 20
-23.8798616355
 10
7.2472860052
 20
-23.9546159877
 10
7.2727269528
 20
-23.9917122554
 10
7.2977021999
 20
-24.0286413552
 10
7.3221524569
 20
-24.0653691348
 10
7.3461370135
 20
-24.1017923313
 10
7.3696558696
 20
-24.1378398973
  0
LINE
  5
2ED
100
AcDbEntity
  8
RACCORDO
100
AcDbLine
 62
7
  6
CONTINUOUS
 10
6.0340671639
 20
-22.4616666927
 11
5.9298772408
 21
-22.3053796039
  0
LINE
  5
2EE
100
AcDbEntity
  8
DRAFT
100
AcDbLine
 62
7
  6
CONTINUOUS
 10
-4.921227604
 20
21.421276629
 11
-4.921227604
 21
20.021276629
  0
LINE
  5
2EF
100
AcDbEntity
  8
DRAFT
100
AcDbLine
 62
7
  6
CONTINUOUS
 10
-4.921227604
 20
-24.778723371
 11
-4.921227604
 21
-26.178723371
  0
LINE
  5
2F0
100
AcDbEntity
  8
ASSI
100
AcDbLine
 62
253
  6
CONTINUOUS
 10
-4.8771603368
 20
-26.1294967957
 11
-4.8771603368
 21
-24.7126215379
  0
LINE
  5
2F1
100
AcDbEntity
  8
ASSI
100
AcDbLine
 62
253
  6
CONTINUOUS
 10
-4.8771603368
 20
19.9551747959
 11
-4.8771603368
 21
21.3720500537
  0
LINE
  5
2F2
100
AcDbEntity
  8
DRAFT
100
AcDbLine
 62
7
  6
CONTINUOUS
 10
-4.021227604
 20
-22.378723371
 11
-4.021227604
 21
-22.4232303967
  0
LINE
  5
2F3
100
AcDbEntity
  8
ASSI
100
AcDbLine
 62
7
  6
CONTINUOUS
 10
-4.021227604
 20
-24.7126432662
 11
-4.021227604
 21
-26.1729055412
  0
LINE
  5
2F4
100
AcDbEntity
  8
DRAFT
100
AcDbLine
 62
7
  6
CONTINUOUS
 10
-4.021227604
 20
17.621276629
 11
-4.021227604
 21
17.6657836547
  0
LINE
  5
2F5
100
AcDbEntity
  8
ASSI
100
AcDbLine
 62
7
  6
CONTINUOUS
 10
-4.021227604
 20
19.9551965242
 11
-4.021227604
 21
21.4154587992
  0
LWPOLYLINE
  5
2F6
100
AcDbEntity
  8
RACCORDO
100
AcDbPolyline
 62
7
  6
CONTINUOUS
 90
5
 70
0
 10
7.3696558696
 20
19.3803931553
 10
7.3461370135
 20
19.3443455893
 10
7.3221524569
 20
19.3079223928
 10
7.2977021999
 20
19.2711946132
 10
7.2727269528
 20
19.2342655134
  0
LINE
  5
2F7
100
AcDbEntity
  8
SMUSSO
100
AcDbLine
 62
7
  6
CONTINUOUS
 10
5.7755149271
 20
-8.4508612748
 11
5.7343086321
 21
-8.4529125874
  0
LINE
  5
2F8
100
AcDbEntity
  8
SMUSSO
100
AcDbLine
 62
7
  6
CONTINUOUS
 10
-2.2244850729
 20
-8.4508612748
 11
-2.2656913679
 21
-8.4529125874
  0
LINE
  5
2F9
100
AcDbEntity
  8
SMUSSO
100
AcDbLine
 62
7
  6
CONTINUOUS
 10
5.7343086321
 20
-8.4529125874
 11
5.6871287103
 21
-8.4549232712
  0
LINE
  5
2FA
100
AcDbEntity
  8
SMUSSO
100
AcDbLine
 62
7
  6
CONTINUOUS
 10
-2.2656913679
 20
-8.4529125874
 11
-2.3128712897
 21
-8.4549232712
  0
LINE
  5
2FB
100
AcDbEntity
  8
SMUSSO
100
AcDbLine
 62
7
  6
CONTINUOUS
 10
5.6871287103
 20
-8.4549232712
 11
5.6340648425
 21
-8.4568893369
  0
LINE
  5
2FC
100
AcDbEntity
  8
SMUSSO
100
AcDbLine
 62
7
  6
CONTINUOUS
 10
-2.3128712897
 20
-8.4549232712
 11
-2.3659351575
 21
-8.4568893369
  0
LINE
  5
2FD
100
AcDbEntity
  8
SMUSSO
100
AcDbLine
 62
7
  6
CONTINUOUS
 10
5.6340648425
 20
-8.4568893369
 11
5.5437411776
 21
-8.4597415353
  0
LINE
  5
2FE
100
AcDbEntity
  8
SMUSSO
100
AcDbLine
 62
7
  6
CONTINUOUS
 10
-2.3659351575
 20
-8.4568893369
 11
-2.4562588224
 21
-8.4597415353
  0
LINE
  5
2FF
100
AcDbEntity
  8
SMUSSO
100
AcDbLine
 62
7
  6
CONTINUOUS
 10
5.5437411776
 20
-8.4597415353
 11
5.4410868815
 21
-8.4624623887
  0
LINE
  5
300
100
AcDbEntity
  8
SMUSSO
100
AcDbLine
 62
7
  6
CONTINUOUS
 10
-2.4562588224
 20
-8.4597415353
 11
-2.5589131185
 21
-8.4624623887
  0
LINE
  5
301
100
AcDbEntity
  8
SMUSSO
100
AcDbLine
 62
7
  6
CONTINUOUS
 10
5.4410868815
 20
-8.4624623887
 11
5.326707432
 21
-8.4650369789
  0
LINE
  5
302
100
AcDbEntity
  8
SMUSSO
100
AcDbLine
 62
7
  6
CONTINUOUS
 10
-2.5589131185
 20
-8.4624623887
 11
-2.673292568
 21
-8.4650369789
  0
LINE
  5
303
100
AcDbEntity
  8
SMUSSO
100
AcDbLine
 62
7
  6
CONTINUOUS
 10
5.326707432
 20
-8.4650369789
 11
5.2013056926
 21
-8.4674483382
  0
LINE
  5
304
100
AcDbEntity
  8
SMUSSO
100
AcDbLine
 62
7
  6
CONTINUOUS
 10
-2.673292568
 20
-8.4650369789
 11
-2.7986943074
 21
-8.4674483382
  0
LINE
  5
305
100
AcDbEntity
  8
SMUSSO
100
AcDbLine
 62
7
  6
CONTINUOUS
 10
5.2013056926
 20
-8.4674483382
 11
5.0655951503
 21
-8.4696832906
  0
LINE
  5
306
100
AcDbEntity
  8
SMUSSO
100
AcDbLine
 62
7
  6
CONTINUOUS
 10
-2.7986943074
 20
-8.4674483382
 11
-2.9344048497
 21
-8.4696832906
  0
LINE
  5
307
100
AcDbEntity
  8
SMUSSO
100
AcDbLine
 62
7
  6
CONTINUOUS
 10
5.0655951503
 20
-8.4696832906
 11
4.9204453454
 21
-8.4717284109
  0
LINE
  5
308
100
AcDbEntity
  8
SMUSSO
100
AcDbLine
 62
7
  6
CONTINUOUS
 10
-2.9344048497
 20
-8.4696832906
 11
-3.0795546546
 21
-8.4717284109
  0
LINE
  5
309
100
AcDbEntity
  8
SMUSSO
100
AcDbLine
 62
7
  6
CONTINUOUS
 10
4.9204453454
 20
-8.4717284109
 11
4.7666768141
 21
-8.473571349
  0
LINE
  5
30A
100
AcDbEntity
  8
SMUSSO
100
AcDbLine
 62
7
  6
CONTINUOUS
 10
-3.0795546546
 20
-8.4717284109
 11
-3.2333231859
 21
-8.473571349
  0
LINE
  5
30B
100
AcDbEntity
  8
SMUSSO
100
AcDbLine
 62
7
  6
CONTINUOUS
 10
4.7666768141
 20
-8.473571349
 11
4.6052041354
 21
-8.4752012671
  0
LINE
  5
30C
100
AcDbEntity
  8
SMUSSO
100
AcDbLine
 62
7
  6
CONTINUOUS
 10
-3.2333231859
 20
-8.473571349
 11
-3.3947958646
 21
-8.4752012671
  0
LINE
  5
30D
100
AcDbEntity
  8
SMUSSO
100
AcDbLine
 62
7
  6
CONTINUOUS
 10
4.6052041354
 20
-8.4752012671
 11
4.4370489348
 21
-8.4766087736
  0
LINE
  5
30E
100
AcDbEntity
  8
SMUSSO
100
AcDbLine
 62
7
  6
CONTINUOUS
 10
-3.3947958646
 20
-8.4752012671
 11
-3.5629510652
 21
-8.4766087736
  0
LINE
  5
30F
100
AcDbEntity
  8
SMUSSO
100
AcDbLine
 62
7
  6
CONTINUOUS
 10
4.4370489348
 20
-8.4766087736
 11
4.263150026
 21
-8.477785305
  0
LINE
  5
310
100
AcDbEntity
  8
SMUSSO
100
AcDbLine
 62
7
  6
CONTINUOUS
 10
-3.5629510652
 20
-8.4766087736
 11
-3.736849974
 21
-8.477785305
  0
LINE
  5
311
100
AcDbEntity
  8
SMUSSO
100
AcDbLine
 62
7
  6
CONTINUOUS
 10
4.263150026
 20
-8.477785305
 11
4.0845862297
 21
-8.478723371
  0
LINE
  5
312
100
AcDbEntity
  8
SMUSSO
100
AcDbLine
 62
7
  6
CONTINUOUS
 10
-3.736849974
 20
-8.477785305
 11
-3.9154137703
 21
-8.478723371
  0
LINE
  5
313
100
AcDbEntity
  8
SMUSSO
100
AcDbLine
 62
7
  6
CONTINUOUS
 10
8.5289247008
 20
-8.478723371
 11
4.0845862297
 21
-8.478723371
  0
LINE
  5
314
100
AcDbEntity
  8
SMUSSO
100
AcDbLine
 62
7
  6
CONTINUOUS
 10
2.8729585622
 20
-8.478723371
 11
-3.9154137703
 21
-8.478723371
  0
LINE
  5
315
100
AcDbEntity
  8
SMUSSO
100
AcDbLine
 62
7
  6
CONTINUOUS
 10
-5.1270414378
 20
-8.478723371
 11
-9.5713799089
 21
-8.478723371
  0
LINE
  5
316
100
AcDbEntity
  8
RACCORDO
100
AcDbLine
 62
253
  6
CONTINUOUS
 10
-9.1940458736
 20
-8.1013893357
 11
-7.1022936825
 21
-8.1013893357
  0
LINE
  5
317
100
AcDbEntity
  8
RACCORDO
100
AcDbLine
 62
253
  6
CONTINUOUS
 10
-1.9401615256
 20
-8.1013893357
 11
0.8977063175
 21
-8.1013893357
  0
LINE
  5
318
100
AcDbEntity
  8
RACCORDO
100
AcDbLine
 62
253
  6
CONTINUOUS
 10
6.0598384744
 20
-8.1013893357
 11
8.1515906655
 21
-8.1013893357
  0
LINE
  5
319
100
AcDbEntity
  8
SMUSSO
100
AcDbLine
 62
7
  6
CONTINUOUS
 10
-5.1270414378
 20
-8.478723371
 11
-5.3641298142
 21
-8.4774193466
  0
LINE
  5
31A
100
AcDbEntity
  8
SMUSSO
100
AcDbLine
 62
7
  6
CONTINUOUS
 10
2.8729585622
 20
-8.478723371
 11
2.6358701858
 21
-8.4774193466
  0
LINE
  5
31B
100
AcDbEntity
  8
SMUSSO
100
AcDbLine
 62
7
  6
CONTINUOUS
 10
-5.3641298142
 20
-8.4774193466
 11
-5.5362288371
 21
-8.4761649515
  0
LINE
  5
31C
100
AcDbEntity
  8
SMUSSO
100
AcDbLine
 62
7
  6
CONTINUOUS
 10
2.6358701858
 20
-8.4774193466
 11
2.4637711629
 21
-8.4761649515
  0
LINE
  5
31D
100
AcDbEntity
  8
SMUSSO
100
AcDbLine
 62
7
  6
CONTINUOUS
 10
-5.5362288371
 20
-8.4761649515
 11
-5.7022639101
 21
-8.4746823256
  0
LINE
  5
31E
100
AcDbEntity
  8
SMUSSO
100
AcDbLine
 62
7
  6
CONTINUOUS
 10
2.4637711629
 20
-8.4761649515
 11
2.2977360899
 21
-8.4746823256
  0
LINE
  5
31F
100
AcDbEntity
  8
SMUSSO
100
AcDbLine
 62
7
  6
CONTINUOUS
 10
-5.7022639101
 20
-8.4746823256
 11
-5.8612780889
 21
-8.4729803038
  0
LINE
  5
320
100
AcDbEntity
  8
SMUSSO
100
AcDbLine
 62
7
  6
CONTINUOUS
 10
2.2977360899
 20
-8.4746823256
 11
2.1387219111
 21
-8.4729803038
  0
LINE
  5
321
100
AcDbEntity
  8
SMUSSO
100
AcDbLine
 62
7
  6
CONTINUOUS
 10
-5.8612780889
 20
-8.4729803038
 11
-6.0122718483
 21
-8.4710687115
  0
LINE
  5
322
100
AcDbEntity
  8
SMUSSO
100
AcDbLine
 62
7
  6
CONTINUOUS
 10
2.1387219111
 20
-8.4729803038
 11
1.9877281517
 21
-8.4710687115
  0
LWPOLYLINE
  5
323
100
AcDbEntity
  8
RACCORDO
100
AcDbPolyline
 62
253
  6
CONTINUOUS
 90
58
 70
0
 10
-9.1940458736
 20
-8.1013893357
 10
-9.2215906798
 20
-8.1010014579
 10
-9.2491145769
 20
-8.0998548988
 10
-9.2765966719
 20
-8.0979505285
 10
-9.3040161033
 20
-8.0952897927
 10
-9.3313520572
 20
-8.0918747111
 10
-9.3585837832
 20
-8.0877078762
 10
-9.3856906098
 20
-8.0827924508
 10
-9.4126519606
 20
-8.0771321662
 10
-9.4394473693
 20
-8.0707313192
 10
-9.4660564958
 20
-8.0635947686
 10
-9.4924591414
 20
-8.0557279316
 10
-9.518635264
 20
-8.0471367799
 10
-9.5445649936
 20
-8.0378278349
 10
-9.570228647
 20
-8.0278081631
 10
-9.5956067434
 20
-8.0170853702
 10
-9.6206800182
 20
-8.0056675959
 10
-9.6454294388
 20
-7.9935635072
 10
-9.6698362179
 20
-7.9807822924
 10
-9.6938818286
 20
-7.9673336534
 10
-9.7175480181
 20
-7.953227799
 10
-9.7408168215
 20
-7.938475437
 10
-9.7636705758
 20
-7.9230877656
 10
-9.7860919328
 20
-7.9070764655
 10
-9.8080638727
 20
-7.8904536908
 10
-9.8295697167
 20
-7.8732320597
 10
-9.85059314
 20
-7.8554246449
 10
-9.8711181838
 20
-7.837044964
 10
-9.8911292678
 20
-7.8181069687
 10
-9.9106112017
 20
-7.7986250348
 10
-9.929549197
 20
-7.7786139508
 10
-9.947928878
 20
-7.7580889069
 10
-9.9657362927
 20
-7.7370654836
 10
-9.9829579239
 20
-7.7155596396
 10
-9.9995806986
 20
-7.6935876997
 10
-10.0155919986
 20
-7.6711663427
 10
-10.03097967
 20
-7.6483125885
 10
-10.0457320321
 20
-7.625043785
 10
-10.0598378864
 20
-7.6013775955
 10
-10.0732865254
 20
-7.5773319848
 10
-10.0860677403
 20
-7.5529252057
 10
-10.0981718289
 20
-7.5281757852
 10
-10.1095896033
 20
-7.5031025103
 10
-10.1203123961
 20
-7.477724414
 10
-10.130332068
 20
-7.4520607605
 10
-10.1396410129
 20
-7.426131031
 10
-10.1482321646
 20
-7.3999549083
 10
-10.1560990016
 20
-7.3735522628
 10
-10.1632355523
 20
-7.3469431362
 10
-10.1696363993
 20
-7.3201477275
 10
-10.1752966838
 20
-7.2931863768
 10
-10.1802121092
 20
-7.2660795501
 10
-10.1843789442
 20
-7.2388478242
 10
-10.1877940258
 20
-7.2115118703
 10
-10.1904547615
 20
-7.1840924389
 10
-10.1923591318
 20
-7.1566103439
 10
-10.193505691
 20
-7.1290864467
 10
-10.1938935687
 20
-7.1015416405
  0
LINE
  5
324
100
AcDbEntity
  8
SMUSSO
100
AcDbLine
 62
7
  6
CONTINUOUS
 10
-6.0122718483
 20
-8.4710687115
 11
-6.154368218
 21
-8.4689589017
  0
LINE
  5
325
100
AcDbEntity
  8
SMUSSO
100
AcDbLine
 62
7
  6
CONTINUOUS
 10
1.9877281517
 20
-8.4710687115
 11
1.845631782
 21
-8.4689589017
  0
LINE
  5
326
100
AcDbEntity
  8
SMUSSO
100
AcDbLine
 62
7
  6
CONTINUOUS
 10
-6.154368218
 20
-8.4689589017
 11
-6.2867333285
 21
-8.4666636645
  0
LINE
  5
327
100
AcDbEntity
  8
SMUSSO
100
AcDbLine
 62
7
  6
CONTINUOUS
 10
1.845631782
 20
-8.4689589017
 11
1.7132666715
 21
-8.4666636645
  0
LINE
  5
328
100
AcDbEntity
  8
SMUSSO
100
AcDbLine
 62
7
  6
CONTINUOUS
 10
-6.2867333285
 20
-8.4666636645
 11
-6.4085398542
 21
-8.4641962905
  0
LINE
  5
329
100
AcDbEntity
  8
SMUSSO
100
AcDbLine
 62
7
  6
CONTINUOUS
 10
1.7132666715
 20
-8.4666636645
 11
1.5914601458
 21
-8.4641962905
  0
LINE
  5
32A
100
AcDbEntity
  8
SMUSSO
100
AcDbLine
 62
7
  6
CONTINUOUS
 10
-6.4085398542
 20
-8.4641962905
 11
-6.5190854082
 21
-8.4615711365
  0
LINE
  5
32B
100
AcDbEntity
  8
SMUSSO
100
AcDbLine
 62
7
  6
CONTINUOUS
 10
1.5914601458
 20
-8.4641962905
 11
1.4809145918
 21
-8.4615711365
  0
LINE
  5
32C
100
AcDbEntity
  8
SMUSSO
100
AcDbLine
 62
7
  6
CONTINUOUS
 10
-6.5190854082
 20
-8.4615711365
 11
-6.617696483
 21
-8.4588047496
  0
LINE
  5
32D
100
AcDbEntity
  8
SMUSSO
100
AcDbLine
 62
7
  6
CONTINUOUS
 10
1.4809145918
 20
-8.4615711365
 11
1.382303517
 21
-8.4588047496
  0
LINE
  5
32E
100
AcDbEntity
  8
SMUSSO
100
AcDbLine
 62
7
  6
CONTINUOUS
 10
-6.617696483
 20
-8.4588047496
 11
-6.703770228
 21
-8.4559126308
  0
LINE
  5
32F
100
AcDbEntity
  8
SMUSSO
100
AcDbLine
 62
7
  6
CONTINUOUS
 10
1.382303517
 20
-8.4588047496
 11
1.296229772
 21
-8.4559126308
  0
LINE
  5
330
100
AcDbEntity
  8
SMUSSO
100
AcDbLine
 62
7
  6
CONTINUOUS
 10
-6.703770228
 20
-8.4559126308
 11
-6.7539153332
 21
-8.453923256
  0
LINE
  5
331
100
AcDbEntity
  8
SMUSSO
100
AcDbLine
 62
7
  6
CONTINUOUS
 10
1.296229772
 20
-8.4559126308
 11
1.2460846668
 21
-8.453923256
  0
LWPOLYLINE
  5
332
100
AcDbEntity
  8
SMUSSO
100
AcDbPolyline
 62
7
  6
CONTINUOUS
 90
15
 70
0
 10
-6.7539153332
 20
-8.453923256
 10
-6.7981300715
 20
-8.4518912632
 10
-6.8179701352
 20
-8.4508612748
 10
-6.8362826262
 20
-8.449822575
 10
-6.8530689495
 20
-8.4487752111
 10
-6.8682894284
 20
-8.4477213163
 10
-6.8819375698
 20
-8.4466609101
 10
-6.8940198668
 20
-8.445593973
 10
-6.9045161214
 20
-8.4445225798
 10
-6.9134254126
 20
-8.4434467322
 10
-6.9207486615
 20
-8.4423664286
 10
-6.9264684338
 20
-8.4412837388
 10
-6.9305789183
 20
-8.440199353
 10
-6.9330859262
 20
-8.439112581
 10
-6.9339894576
 20
-8.4380234229
  0
LWPOLYLINE
  5
333
100
AcDbEntity
  8
SMUSSO
100
AcDbPolyline
 62
7
  6
CONTINUOUS
 90
15
 70
0
 10
1.2460846668
 20
-8.453923256
 10
1.2018699285
 20
-8.4518912632
 10
1.1820298648
 20
-8.4508612748
 10
1.1637173738
 20
-8.449822575
 10
1.1469310505
 20
-8.4487752111
 10
1.1317105716
 20
-8.4477213163
 10
1.1180624302
 20
-8.4466609101
 10
1.1059801332
 20
-8.445593973
 10
1.0954838786
 20
-8.4445225798
 10
1.0865745874
 20
-8.4434467322
 10
1.0792513385
 20
-8.4423664286
 10
1.0735315662
 20
-8.4412837388
 10
1.0694210817
 20
-8.440199353
 10
1.0669140738
 20
-8.439112581
 10
1.0660105424
 20
-8.4380234229
  0
LWPOLYLINE
  5
334
100
AcDbEntity
  8
SMUSSO
100
AcDbPolyline
 62
7
  6
CONTINUOUS
 90
14
 70
0
 10
-6.2227436482
 20
-7.4498366871
 10
-6.2571251774
 20
-7.448224142
 10
-6.2724613671
 20
-7.4474065734
 10
-6.2865444483
 20
-7.4465815049
 10
-6.2993625287
 20
-7.4457507646
 10
-6.3109051541
 20
-7.444914376
 10
-6.3211638508
 20
-7.4440723156
 10
-6.3301310344
 20
-7.4432263411
 10
-6.3377991862
 20
-7.4423764469
 10
-6.3441617666
 20
-7.4415226385
 10
-6.3492134796
 20
-7.4406666913
 10
-6.3529493981
 20
-7.439809197
 10
-6.3553653094
 20
-7.4389495639
 10
-6.3564580966
 20
-7.438087792
  0
LINE
  5
335
100
AcDbEntity
  8
SMUSSO
100
AcDbLine
 62
253
  6
CONTINUOUS
 10
-2.6859971115
 20
-7.438087792
 11
-2.1084657505
 21
-8.4380234229
  0
LINE
  5
336
100
AcDbEntity
  8
RACCORDO
100
AcDbLine
 62
7
  6
CONTINUOUS
 10
-2.4989325744
 20
-7.1015416405
 11
-2.5090099891
 21
-7.0840865872
  0
LINE
  5
337
100
AcDbEntity
  8
RACCORDO
100
AcDbLine
 62
7
  6
CONTINUOUS
 10
-3.921227604
 20
17.669584978
 11
-3.921227604
 21
17.521276629
  0
LINE
  5
338
100
AcDbEntity
  8
RACCORDO
100
AcDbLine
 62
7
  6
CONTINUOUS
 10
-3.921227604
 20
-22.278723371
 11
-3.921227604
 21
-22.42703172
  0
LINE
  5
339
100
AcDbEntity
  8
RACCORDO
100
AcDbLine
 62
7
  6
CONTINUOUS
 10
-3.521227604
 20
-23.378723371
 11
-3.521227604
 21
-24.7167626097
  0
LINE
  5
33A
100
AcDbEntity
  8
RACCORDO
100
AcDbLine
 62
7
  6
CONTINUOUS
 10
-3.521227604
 20
18.621276629
 11
-3.521227604
 21
19.9593158677
  0
LINE
  5
33B
100
AcDbEntity
  8
RACCORDO
100
AcDbLine
 62
253
  6
CONTINUOUS
 10
-2.921227604
 20
17.6744544199
 11
-2.921227604
 21
17.5056635801
  0
LINE
  5
33C
100
AcDbEntity
  8
RACCORDO
100
AcDbLine
 62
253
  6
CONTINUOUS
 10
-2.921227604
 20
-22.2631103221
 11
-2.921227604
 21
-22.4319011619
  0
LINE
  5
33D
100
AcDbEntity
  8
SMUSSO
100
AcDbLine
 62
253
  6
CONTINUOUS
 10
-2.6859971115
 20
-7.438087792
 11
-2.6859971115
 21
-6.8434928784
  0
LINE
  5
33E
100
AcDbEntity
  8
SMUSSO
100
AcDbLine
 62
7
  6
CONTINUOUS
 10
-2.5090099891
 20
-7.0840865872
 11
-2.5090099891
 21
-6.678723371
  0
LINE
  5
33F
100
AcDbEntity
  8
0
100
AcDbLine
 62
7
  6
CONTINUOUS
 10
-10.171227604
 20
-22.5276944248
 11
-10.1340075417
 21
-22.4159434333
  0
LINE
  5
340
100
AcDbEntity
  8
0
100
AcDbLine
 62
7
  6
CONTINUOUS
 10
-9.4211136709
 20
-23.278723371
 11
-9.3836649948
 21
-23.1662859803
  0
LINE
  5
341
100
AcDbEntity
  8
RACCORDO
100
AcDbLine
 62
7
  6
CONTINUOUS
 10
-6.5435226337
 20
-7.1015416405
 11
-6.533445219
 21
-7.0840865872
  0
LINE
  5
342
100
AcDbEntity
  8
SMUSSO
100
AcDbLine
 62
253
  6
CONTINUOUS
 10
-6.9339894576
 20
-8.4380234229
 11
-6.3564580966
 21
-7.438087792
  0
LINE
  5
343
100
AcDbEntity
  8
RACCORDO
100
AcDbLine
 62
253
  6
CONTINUOUS
 10
-10.1938935687
 20
-7.1015416405
 11
-10.571227604
 21
-7.4788756758
  0
LINE
  5
344
100
AcDbEntity
  8
SMUSSO
100
AcDbLine
 62
7
  6
CONTINUOUS
 10
5.2146699693
 20
-7.448224142
 11
5.1802884401
 21
-7.4498366871
  0
LINE
  5
345
100
AcDbEntity
  8
SMUSSO
100
AcDbLine
 62
7
  6
CONTINUOUS
 10
-2.7853300307
 20
-7.448224142
 11
-2.8197115599
 21
-7.4498366871
  0
LINE
  5
346
100
AcDbEntity
  8
SMUSSO
100
AcDbLine
 62
7
  6
CONTINUOUS
 10
5.1802884401
 20
-7.4498366871
 11
5.1410473053
 21
-7.4514141496
  0
LINE
  5
347
100
AcDbEntity
  8
SMUSSO
100
AcDbLine
 62
7
  6
CONTINUOUS
 10
-2.8197115599
 20
-7.4498366871
 11
-2.8589526947
 21
-7.4514141496
  0
LINE
  5
348
100
AcDbEntity
  8
SMUSSO
100
AcDbLine
 62
7
  6
CONTINUOUS
 10
5.1410473053
 20
-7.4514141496
 11
5.0970643386
 21
-7.4529531877
  0
LINE
  5
349
100
AcDbEntity
  8
SMUSSO
100
AcDbLine
 62
7
  6
CONTINUOUS
 10
-2.8589526947
 20
-7.4514141496
 11
-2.9029356614
 21
-7.4529531877
  0
LINE
  5
34A
100
AcDbEntity
  8
SMUSSO
100
AcDbLine
 62
7
  6
CONTINUOUS
 10
5.0970643386
 20
-7.4529531877
 11
5.0224890252
 21
-7.4551787783
  0
LINE
  5
34B
100
AcDbEntity
  8
SMUSSO
100
AcDbLine
 62
7
  6
CONTINUOUS
 10
-2.9029356614
 20
-7.4529531877
 11
-2.9775109748
 21
-7.4551787783
  0
LINE
  5
34C
100
AcDbEntity
  8
SMUSSO
100
AcDbLine
 62
7
  6
CONTINUOUS
 10
5.0224890252
 20
-7.4551787783
 11
4.9380603395
 21
-7.4572920226
  0
LINE
  5
34D
100
AcDbEntity
  8
SMUSSO
100
AcDbLine
 62
7
  6
CONTINUOUS
 10
-2.9775109748
 20
-7.4551787783
 11
-3.0619396605
 21
-7.4572920226
  0
LINE
  5
34E
100
AcDbEntity
  8
SMUSSO
100
AcDbLine
 62
7
  6
CONTINUOUS
 10
4.9380603395
 20
-7.4572920226
 11
4.8442967176
 21
-7.4592803652
  0
LINE
  5
34F
100
AcDbEntity
  8
SMUSSO
100
AcDbLine
 62
7
  6
CONTINUOUS
 10
-3.0619396605
 20
-7.4572920226
 11
-3.1557032824
 21
-7.4592803652
  0
LINE
  5
350
100
AcDbEntity
  8
SMUSSO
100
AcDbLine
 62
7
  6
CONTINUOUS
 10
4.8442967176
 20
-7.4592803652
 11
4.7418799321
 21
-7.4611297802
  0
LINE
  5
351
100
AcDbEntity
  8
SMUSSO
100
AcDbLine
 62
7
  6
CONTINUOUS
 10
-3.1557032824
 20
-7.4592803652
 11
-3.2581200679
 21
-7.4611297802
  0
LINE
  5
352
100
AcDbEntity
  8
SMUSSO
100
AcDbLine
 62
7
  6
CONTINUOUS
 10
4.7418799321
 20
-7.4611297802
 11
4.631386516
 21
-7.4628301152
  0
LINE
  5
353
100
AcDbEntity
  8
SMUSSO
100
AcDbLine
 62
7
  6
CONTINUOUS
 10
-3.2581200679
 20
-7.4611297802
 11
-3.368613484
 21
-7.4628301152
  0
LINE
  5
354
100
AcDbEntity
  8
SMUSSO
100
AcDbLine
 62
7
  6
CONTINUOUS
 10
4.631386516
 20
-7.4628301152
 11
4.4728612445
 21
-7.4648447289
  0
LINE
  5
355
100
AcDbEntity
  8
SMUSSO
100
AcDbLine
 62
7
  6
CONTINUOUS
 10
-3.368613484
 20
-7.4628301152
 11
-3.5271387555
 21
-7.4648447289
  0
LINE
  5
356
100
AcDbEntity
  8
SMUSSO
100
AcDbLine
 62
7
  6
CONTINUOUS
 10
4.4728612445
 20
-7.4648447289
 11
4.303104781
 21
-7.4665519628
  0
LINE
  5
357
100
AcDbEntity
  8
SMUSSO
100
AcDbLine
 62
7
  6
CONTINUOUS
 10
-3.5271387555
 20
-7.4648447289
 11
-3.696895219
 21
-7.4665519628
  0
LINE
  5
358
100
AcDbEntity
  8
SMUSSO
100
AcDbLine
 62
7
  6
CONTINUOUS
 10
4.303104781
 20
-7.4665519628
 11
4.12408493
 21
-7.4679314252
  0
LINE
  5
359
100
AcDbEntity
  8
SMUSSO
100
AcDbLine
 62
7
  6
CONTINUOUS
 10
-3.696895219
 20
-7.4665519628
 11
-3.87591507
 21
-7.4679314252
  0
LINE
  5
35A
100
AcDbEntity
  8
SMUSSO
100
AcDbLine
 62
7
  6
CONTINUOUS
 10
4.12408493
 20
-7.4679314252
 11
3.9378161546
 21
-7.4689680038
  0
LINE
  5
35B
100
AcDbEntity
  8
SMUSSO
100
AcDbLine
 62
7
  6
CONTINUOUS
 10
-3.87591507
 20
-7.4679314252
 11
-4.0621838454
 21
-7.4689680038
  0
LINE
  5
35C
100
AcDbEntity
  8
SMUSSO
100
AcDbLine
 62
7
  6
CONTINUOUS
 10
3.9378161546
 20
-7.4689680038
 11
3.7463924847
 21
-7.4696501771
  0
LINE
  5
35D
100
AcDbEntity
  8
SMUSSO
100
AcDbLine
 62
7
  6
CONTINUOUS
 10
-4.0621838454
 20
-7.4689680038
 11
-4.2536075153
 21
-7.4696501771
  0
LINE
  5
35E
100
AcDbEntity
  8
SMUSSO
100
AcDbLine
 62
7
  6
CONTINUOUS
 10
3.7463924847
 20
-7.4696501771
 11
3.5520230167
 21
-7.46997007
  0
LINE
  5
35F
100
AcDbEntity
  8
SMUSSO
100
AcDbLine
 62
7
  6
CONTINUOUS
 10
-4.2536075153
 20
-7.4696501771
 11
-4.4479769833
 21
-7.46997007
  0
LINE
  5
360
100
AcDbEntity
  8
RACCORDO
100
AcDbLine
 62
253
  6
CONTINUOUS
 10
-2.4989325744
 20
-7.1015416405
 11
1.4564773663
 21
-7.1015416405
  0
LINE
  5
361
100
AcDbEntity
  8
RACCORDO
100
AcDbLine
 62
253
  6
CONTINUOUS
 10
5.5010674256
 20
-7.1015416405
 11
9.1514383606
 21
-7.1015416405
  0
LINE
  5
362
100
AcDbEntity
  8
RACCORDO
100
AcDbLine
 62
253
  6
CONTINUOUS
 10
-6.5435226337
 20
-7.1015416405
 11
-10.1938935687
 21
-7.1015416405
  0
LINE
  5
363
100
AcDbEntity
  8
DRAFT
100
AcDbLine
 62
7
  6
CONTINUOUS
 10
-6.533445219
 20
-6.678723371
 11
-2.5090099891
 21
-6.678723371
  0
LINE
  5
364
100
AcDbEntity
  8
DRAFT
100
AcDbLine
 62
7
  6
CONTINUOUS
 10
5.4909900109
 20
-6.678723371
 11
1.466554781
 21
-6.678723371
  0
LINE
  5
365
100
AcDbEntity
  8
SMUSSO
100
AcDbLine
 62
7
  6
CONTINUOUS
 10
-4.4479769833
 20
-7.46997007
 11
-4.643230236
 21
-7.4699243133
  0
LINE
  5
366
100
AcDbEntity
  8
SMUSSO
100
AcDbLine
 62
7
  6
CONTINUOUS
 10
3.5520230167
 20
-7.46997007
 11
3.356769764
 21
-7.4699243133
  0
LINE
  5
367
100
AcDbEntity
  8
SMUSSO
100
AcDbLine
 62
7
  6
CONTINUOUS
 10
-4.643230236
 20
-7.4699243133
 11
-4.8370823947
 21
-7.4695132715
  0
LINE
  5
368
100
AcDbEntity
  8
SMUSSO
100
AcDbLine
 62
7
  6
CONTINUOUS
 10
3.356769764
 20
-7.4699243133
 11
3.1629176053
 21
-7.4695132715
  0
LINE
  5
369
100
AcDbEntity
  8
SMUSSO
100
AcDbLine
 62
7
  6
CONTINUOUS
 10
-4.8370823947
 20
-7.4695132715
 11
-5.0273966434
 21
-7.468741798
  0
LINE
  5
36A
100
AcDbEntity
  8
SMUSSO
100
AcDbLine
 62
7
  6
CONTINUOUS
 10
3.1629176053
 20
-7.4695132715
 11
2.9726033566
 21
-7.468741798
  0
LINE
  5
36B
100
AcDbEntity
  8
SMUSSO
100
AcDbLine
 62
7
  6
CONTINUOUS
 10
-5.0273966434
 20
-7.468741798
 11
-5.212057926
 21
-7.467618179
  0
LINE
  5
36C
100
AcDbEntity
  8
SMUSSO
100
AcDbLine
 62
7
  6
CONTINUOUS
 10
2.9726033566
 20
-7.468741798
 11
2.787942074
 21
-7.467618179
  0
LINE
  5
36D
100
AcDbEntity
  8
SMUSSO
100
AcDbLine
 62
7
  6
CONTINUOUS
 10
-5.212057926
 20
-7.467618179
 11
-5.3889359134
 21
-7.4661551189
  0
LINE
  5
36E
100
AcDbEntity
  8
SMUSSO
100
AcDbLine
 62
7
  6
CONTINUOUS
 10
2.787942074
 20
-7.467618179
 11
2.6110640866
 21
-7.4661551189
  0
LINE
  5
36F
100
AcDbEntity
  8
SMUSSO
100
AcDbLine
 62
7
  6
CONTINUOUS
 10
-5.3889359134
 20
-7.4661551189
 11
-5.5560815344
 21
-7.4643690955
  0
LINE
  5
370
100
AcDbEntity
  8
SMUSSO
100
AcDbLine
 62
7
  6
CONTINUOUS
 10
2.6110640866
 20
-7.4661551189
 11
2.4439184656
 21
-7.4643690955
  0
LINE
  5
371
100
AcDbEntity
  8
SMUSSO
100
AcDbLine
 62
7
  6
CONTINUOUS
 10
-5.5560815344
 20
-7.4643690955
 11
-5.7115206278
 21
-7.4622808105
  0
LINE
  5
372
100
AcDbEntity
  8
SMUSSO
100
AcDbLine
 62
7
  6
CONTINUOUS
 10
2.4439184656
 20
-7.4643690955
 11
2.2884793722
 21
-7.4622808105
  0
LINE
  5
373
100
AcDbEntity
  8
SMUSSO
100
AcDbLine
 62
7
  6
CONTINUOUS
 10
-5.7115206278
 20
-7.4622808105
 11
-5.8194015502
 21
-7.4605294969
  0
LINE
  5
374
100
AcDbEntity
  8
SMUSSO
100
AcDbLine
 62
7
  6
CONTINUOUS
 10
2.2884793722
 20
-7.4622808105
 11
2.1805984498
 21
-7.4605294969
  0
LINE
  5
375
100
AcDbEntity
  8
SMUSSO
100
AcDbLine
 62
7
  6
CONTINUOUS
 10
-5.8194015502
 20
-7.4605294969
 11
-5.9190024526
 21
-7.4586325013
  0
LINE
  5
376
100
AcDbEntity
  8
SMUSSO
100
AcDbLine
 62
7
  6
CONTINUOUS
 10
2.1805984498
 20
-7.4605294969
 11
2.0809975474
 21
-7.4586325013
  0
LINE
  5
377
100
AcDbEntity
  8
SMUSSO
100
AcDbLine
 62
7
  6
CONTINUOUS
 10
-5.9190024526
 20
-7.4586325013
 11
-6.0097226257
 21
-7.4566010208
  0
LINE
  5
378
100
AcDbEntity
  8
SMUSSO
100
AcDbLine
 62
7
  6
CONTINUOUS
 10
2.0809975474
 20
-7.4586325013
 11
1.9902773743
 21
-7.4566010208
  0
LINE
  5
379
100
AcDbEntity
  8
SMUSSO
100
AcDbLine
 62
7
  6
CONTINUOUS
 10
-6.0097226257
 20
-7.4566010208
 11
-6.090924344
 21
-7.4544488507
  0
LINE
  5
37A
100
AcDbEntity
  8
SMUSSO
100
AcDbLine
 62
7
  6
CONTINUOUS
 10
1.9902773743
 20
-7.4566010208
 11
1.909075656
 21
-7.4544488507
  0
LINE
  5
37B
100
AcDbEntity
  8
SMUSSO
100
AcDbLine
 62
7
  6
CONTINUOUS
 10
-6.090924344
 20
-7.4544488507
 11
-6.1620959169
 21
-7.4521890896
  0
LINE
  5
37C
100
AcDbEntity
  8
SMUSSO
100
AcDbLine
 62
7
  6
CONTINUOUS
 10
1.909075656
 20
-7.4544488507
 11
1.8379040831
 21
-7.4521890896
  0
LWPOLYLINE
  5
37D
100
AcDbEntity
  8
SMUSSO
100
AcDbPolyline
 62
7
  6
CONTINUOUS
 90
3
 70
0
 10
-6.1620959169
 20
-7.4521890896
 10
-6.2037235734
 20
-7.4506300197
 10
-6.2227436482
 20
-7.4498366871
  0
LINE
  5
37E
100
AcDbEntity
  8
SMUSSO
100
AcDbLine
 62
7
  6
CONTINUOUS
 10
1.8379040831
 20
-7.4521890896
 11
1.7962764266
 21
-7.4506300197
  0
LWPOLYLINE
  5
37F
100
AcDbEntity
  8
SMUSSO
100
AcDbPolyline
 62
7
  6
CONTINUOUS
 90
15
 70
0
 10
1.7962764266
 20
-7.4506300197
 10
1.7594515135
 20
-7.4490341645
 10
1.7428748226
 20
-7.448224142
 10
1.7275386329
 20
-7.4474065734
 10
1.7134555517
 20
-7.4465815049
 10
1.7006374713
 20
-7.4457507646
 10
1.6890948459
 20
-7.444914376
 10
1.6788361492
 20
-7.4440723156
 10
1.6698689656
 20
-7.4432263411
 10
1.6622008138
 20
-7.4423764469
 10
1.6558382334
 20
-7.4415226385
 10
1.6507865204
 20
-7.4406666913
 10
1.6470506019
 20
-7.439809197
 10
1.6446346906
 20
-7.4389495639
 10
1.6435419034
 20
-7.438087792
  0
LWPOLYLINE
  5
380
100
AcDbEntity
  8
SMUSSO
100
AcDbPolyline
 62
7
  6
CONTINUOUS
 90
40
 70
0
 10
4.0845862297
 20
-8.478723371
 10
4.051846323
 20
-8.4648628047
 10
4.0193425636
 20
-8.4518025036
 10
3.9870749514
 20
-8.4395424679
 10
3.9550525921
 20
-8.4280946668
 10
3.92326638
 20
-8.417447131
 10
3.8916889982
 20
-8.4075639528
 10
3.8603344113
 20
-8.3984460364
 10
3.8291886548
 20
-8.3900924776
 10
3.798182518
 20
-8.3824646559
 10
3.7673066848
 20
-8.3755574034
 10
3.7365704714
 20
-8.369375888
 10
3.7059326158
 20
-8.3638969924
 10
3.6753858871
 20
-8.3591183916
 10
3.6449375161
 20
-8.3550424107
 10
3.6145679338
 20
-8.3516529074
 10
3.5842830141
 20
-8.3489486662
 10
3.554076883
 20
-8.3469309026
 10
3.523912349
 20
-8.3455871202
 10
3.493804792
 20
-8.3449131489
 10
3.4637388321
 20
-8.3449131589
 10
3.4336311377
 20
-8.3455871638
 10
3.4034662102
 20
-8.3469310136
 10
3.3732595481
 20
-8.3489488584
 10
3.3429743159
 20
-8.3516531626
 10
3.3126047382
 20
-8.3550427196
 10
3.2821565904
 20
-8.3591187361
 10
3.2516103624
 20
-8.3638972963
 10
3.2209735148
 20
-8.3693760113
 10
3.190238587
 20
-8.37555727
 10
3.1593636881
 20
-8.3824643238
 10
3.1283578401
 20
-8.390092057
 10
3.0972120208
 20
-8.3984455852
 10
3.0658572725
 20
-8.4075635065
 10
3.0342796758
 20
-8.417446728
 10
3.00249315
 20
-8.4280943426
 10
2.9704704957
 20
-8.4395422265
 10
2.9382026463
 20
-8.4518023386
 10
2.9056986685
 20
-8.4648627201
 10
2.8729585622
 20
-8.478723371
  0
LINE
  5
381
100
AcDbEntity
  8
0
100
AcDbLine
 62
7
  6
CONTINUOUS
 10
-8.921227604
 20
-1.0064450959
 11
-9.0659034225
 21
-0.9005365223
  0
LINE
  5
382
100
AcDbEntity
  8
0
100
AcDbLine
 62
7
  6
CONTINUOUS
 10
-10.1340075417
 20
17.6584966913
 11
-10.171227604
 21
17.7702476828
  0
LINE
  5
383
100
AcDbEntity
  8
0
100
AcDbLine
 62
7
  6
CONTINUOUS
 10
-9.3836649948
 20
18.4088392383
 11
-9.4211136709
 21
18.521276629
  0
LWPOLYLINE
  5
384
100
AcDbEntity
  8
ASSI
100
AcDbPolyline
 62
7
  6
CONTINUOUS
 90
17
 70
0
 10
-4.8771603368
 20
-26.1294967957
 10
-4.8767342355
 20
-26.1267114007
 10
-4.875636907
 20
-26.1232615133
 10
-4.8738493183
 20
-26.1191471335
 10
-4.8713517991
 20
-26.114381203
 10
-4.8681282575
 20
-26.1089507801
 10
-4.8641702869
 20
-26.1028170399
 10
-4.8594679804
 20
-26.0959729031
 10
-4.8540113752
 20
-26.0884254491
 10
-4.8478001989
 20
-26.080157091
 10
-4.8408467774
 20
-26.0711871299
 10
-4.8331360282
 20
-26.0614962647
 10
-4.8246200523
 20
-26.0510090047
 10
-4.8152846965
 20
-26.0397259411
 10
-4.8051261259
 20
-26.0276464828
 10
-4.7940955691
 20
-26.0146933655
 10
-4.7821806952
 20
-26.0008648367
  0
LINE
  5
385
100
AcDbEntity
  8
DRAFT
100
AcDbLine
 62
7
  6
CONTINUOUS
 10
-9.321227604
 20
-23.228723371
 11
-9.2489263578
 21
-23.0541727217
  0
LINE
  5
386
100
AcDbEntity
  8
RACCORDO
100
AcDbLine
 62
253
  6
CONTINUOUS
 10
-9.1940458736
 20
-8.1013893357
 11
-9.5713799089
 21
-8.478723371
  0
LINE
  5
387
100
AcDbEntity
  8
RACCORDO
100
AcDbLine
 62
7
  6
CONTINUOUS
 10
-10.1938935687
 20
-1.3733892255
 11
-10.5351738141
 21
-1.2942113467
  0
LINE
  5
388
100
AcDbEntity
  8
DRAFT
100
AcDbLine
 62
7
  6
CONTINUOUS
 10
1.478772396
 20
-6.678723371
 11
1.6435419034
 21
-6.8434928784
  0
LINE
  5
389
100
AcDbEntity
  8
RACCORDO
100
AcDbLine
 62
7
  6
CONTINUOUS
 10
0.8977063175
 20
-8.1013893357
 11
1.0660105424
 21
-8.4380234229
  0
LINE
  5
38A
100
AcDbEntity
  8
SMUSSO
100
AcDbLine
 62
7
  6
CONTINUOUS
 10
1.466554781
 20
-7.0840865872
 11
1.6435419034
 21
-7.438087792
  0
LINE
  5
38B
100
AcDbEntity
  8
DRAFT
100
AcDbLine
 62
7
  6
CONTINUOUS
 10
-9.321227604
 20
18.471276629
 11
-9.2489263578
 21
18.2967259797
  0
LINE
  5
38C
100
AcDbEntity
  8
SMUSSO
100
AcDbLine
 62
7
  6
CONTINUOUS
 10
1.466554781
 20
-7.0840865872
 11
1.466554781
 21
-6.678723371
  0
LINE
  5
38D
100
AcDbEntity
  8
SMUSSO
100
AcDbLine
 62
253
  6
CONTINUOUS
 10
1.6435419034
 20
-6.8434928784
 11
1.6435419034
 21
-7.438087792
  0
LWPOLYLINE
  5
38E
100
AcDbEntity
  8
ASSI
100
AcDbPolyline
 62
7
  6
CONTINUOUS
 90
17
 70
0
 10
3.8347051287
 20
21.3720500537
 10
3.8342782074
 20
21.3692581245
 10
3.8331800964
 20
21.3658080463
 10
3.8313938332
 20
21.3616998192
 10
3.82890241
 20
21.3569461036
 10
3.8256915532
 20
21.351534239
 10
3.8217524231
 20
21.3454262446
 10
3.8170764684
 20
21.3386176783
 10
3.8116541599
 20
21.3311129821
 10
3.8054802173
 20
21.3228875024
 10
3.798565089
 20
21.3139616216
 10
3.7908931572
 20
21.3043149572
 10
3.7824104214
 20
21.293861707
 10
3.7730963291
 20
21.2825976031
 10
3.7629482739
 20
21.2705269133
 10
3.7519231516
 20
21.2575766394
 10
3.7400101077
 20
21.2437462354
  0
LINE
  5
38F
100
AcDbEntity
  8
0
100
AcDbLine
 62
7
  6
CONTINUOUS
 10
8.3786584628
 20
18.521276629
 11
8.3412097867
 21
18.4088392383
  0
LINE
  5
390
100
AcDbEntity
  8
DRAFT
100
AcDbLine
 62
7
  6
CONTINUOUS
 10
8.278772396
 20
18.471276629
 11
8.2064711497
 21
18.2967259797
  0
LINE
  5
391
100
AcDbEntity
  8
SMUSSO
100
AcDbLine
 62
7
  6
CONTINUOUS
 10
-2.6859971115
 20
-7.438087792
 11
-2.5090099891
 21
-7.0840865872
  0
LINE
  5
392
100
AcDbEntity
  8
RACCORDO
100
AcDbLine
 62
7
  6
CONTINUOUS
 10
-2.1084657505
 20
-8.4380234229
 11
-1.9401615256
 21
-8.1013893357
  0
LINE
  5
393
100
AcDbEntity
  8
RACCORDO
100
AcDbLine
 62
7
  6
CONTINUOUS
 10
9.1514383606
 20
-1.3733892255
 11
9.492718606
 21
-1.2942113467
  0
LINE
  5
394
100
AcDbEntity
  8
DRAFT
100
AcDbLine
 62
7
  6
CONTINUOUS
 10
8.278772396
 20
-23.228723371
 11
8.2064711497
 21
-23.0541727217
  0
LINE
  5
395
100
AcDbEntity
  8
0
100
AcDbLine
 62
7
  6
CONTINUOUS
 10
8.3412097867
 20
-23.1662859803
 11
8.3786584628
 21
-23.278723371
  0
LINE
  5
396
100
AcDbEntity
  8
RACCORDO
100
AcDbLine
 62
253
  6
CONTINUOUS
 10
1.878772396
 20
17.6744544199
 11
1.878772396
 21
17.5056635801
  0
LINE
  5
397
100
AcDbEntity
  8
RACCORDO
100
AcDbLine
 62
253
  6
CONTINUOUS
 10
1.878772396
 20
-22.2631103221
 11
1.878772396
 21
-22.4319011619
  0
LINE
  5
398
100
AcDbEntity
  8
RACCORDO
100
AcDbLine
 62
7
  6
CONTINUOUS
 10
2.478772396
 20
-23.378723371
 11
2.478772396
 21
-24.7167626097
  0
LINE
  5
399
100
AcDbEntity
  8
RACCORDO
100
AcDbLine
 62
7
  6
CONTINUOUS
 10
2.478772396
 20
18.621276629
 11
2.478772396
 21
19.9593158677
  0
LINE
  5
39A
100
AcDbEntity
  8
RACCORDO
100
AcDbLine
 62
7
  6
CONTINUOUS
 10
2.878772396
 20
17.669584978
 11
2.878772396
 21
17.521276629
  0
LINE
  5
39B
100
AcDbEntity
  8
RACCORDO
100
AcDbLine
 62
7
  6
CONTINUOUS
 10
2.878772396
 20
-22.278723371
 11
2.878772396
 21
-22.42703172
  0
LINE
  5
39C
100
AcDbEntity
  8
DRAFT
100
AcDbLine
 62
7
  6
CONTINUOUS
 10
2.978772396
 20
17.6657836547
 11
2.978772396
 21
17.621276629
  0
LINE
  5
39D
100
AcDbEntity
  8
DRAFT
100
AcDbLine
 62
7
  6
CONTINUOUS
 10
2.978772396
 20
-22.4232303967
 11
2.978772396
 21
-22.378723371
  0
LINE
  5
39E
100
AcDbEntity
  8
ASSI
100
AcDbLine
 62
7
  6
CONTINUOUS
 10
2.978772396
 20
-24.7126432662
 11
2.978772396
 21
-26.1729055412
  0
LINE
  5
39F
100
AcDbEntity
  8
ASSI
100
AcDbLine
 62
7
  6
CONTINUOUS
 10
2.978772396
 20
19.9551965242
 11
2.978772396
 21
21.4154587992
  0
LINE
  5
3A0
100
AcDbEntity
  8
0
100
AcDbLine
 62
7
  6
CONTINUOUS
 10
9.128772396
 20
17.7702476828
 11
9.0915523336
 21
17.6584966913
  0
LWPOLYLINE
  5
3A1
100
AcDbEntity
  8
SMUSSO
100
AcDbPolyline
 62
7
  6
CONTINUOUS
 90
13
 70
0
 10
-2.1084657505
 20
-8.4380234229
 10
-2.1093692819
 20
-8.439112581
 10
-2.1118762898
 20
-8.440199353
 10
-2.1159867743
 20
-8.4412837388
 10
-2.1217065466
 20
-8.4423664286
 10
-2.1290297955
 20
-8.4434467322
 10
-2.1379390867
 20
-8.4445225798
 10
-2.1484353413
 20
-8.445593973
 10
-2.1605176383
 20
-8.4466609101
 10
-2.1741657797
 20
-8.4477213163
 10
-2.1893862586
 20
-8.4487752111
 10
-2.2061725819
 20
-8.449822575
 10
-2.2244850729
 20
-8.4508612748
  0
LINE
  5
3A2
100
AcDbEntity
  8
DRAFT
100
AcDbLine
 62
7
  6
CONTINUOUS
 10
-2.521227604
 20
-6.678723371
 11
-2.6859971115
 21
-6.8434928784
  0
LWPOLYLINE
  5
3A3
100
AcDbEntity
  8
SMUSSO
100
AcDbPolyline
 62
7
  6
CONTINUOUS
 90
13
 70
0
 10
-2.6859971115
 20
-7.438087792
 10
-2.6870898987
 20
-7.4389495639
 10
-2.68950581
 20
-7.439809197
 10
-2.6932417285
 20
-7.4406666913
 10
-2.6982934415
 20
-7.4415226385
 10
-2.7046560219
 20
-7.4423764469
 10
-2.7123241737
 20
-7.4432263411
 10
-2.7212913573
 20
-7.4440723156
 10
-2.731550054
 20
-7.444914376
 10
-2.7430926794
 20
-7.4457507646
 10
-2.7559107598
 20
-7.4465815049
 10
-2.769993841
 20
-7.4474065734
 10
-2.7853300307
 20
-7.448224142
  0
LINE
  5
3A4
100
AcDbEntity
  8
0
100
AcDbLine
 62
253
  6
CONTINUOUS
 10
-9.0659034225
 20
2.3430897803
 11
-10.5351738141
 21
2.7367646047
  0
LINE
  5
3A5
100
AcDbEntity
  8
RACCORDO
100
AcDbLine
 62
7
  6
CONTINUOUS
 10
-9.1940458736
 20
2.5565984625
 11
-8.921227604
 21
2.4834942439
  0
LINE
  5
3A6
100
AcDbEntity
  8
RACCORDO
100
AcDbLine
 62
253
  6
CONTINUOUS
 10
8.5289247008
 20
-8.478723371
 11
8.1515906655
 21
-8.1013893357
  0
LINE
  5
3A7
100
AcDbEntity
  8
SMUSSO
100
AcDbLine
 62
253
  6
CONTINUOUS
 10
5.3140028885
 20
-7.438087792
 11
5.8915342495
 21
-8.4380234229
  0
LINE
  5
3A8
100
AcDbEntity
  8
RACCORDO
100
AcDbLine
 62
7
  6
CONTINUOUS
 10
5.5010674256
 20
-7.1015416405
 11
5.4909900109
 21
-7.0840865872
  0
LINE
  5
3A9
100
AcDbEntity
  8
0
100
AcDbLine
 62
7
  6
CONTINUOUS
 10
9.0915523336
 20
-22.4159434333
 11
9.128772396
 21
-22.5276944248
  0
LINE
  5
3AA
100
AcDbEntity
  8
ASSI
100
AcDbLine
 62
253
  6
CONTINUOUS
 10
3.8347051287
 20
-26.1294967957
 11
3.8347051287
 21
-24.7126215379
  0
LINE
  5
3AB
100
AcDbEntity
  8
ASSI
100
AcDbLine
 62
253
  6
CONTINUOUS
 10
3.8347051287
 20
19.9551747959
 11
3.8347051287
 21
21.3720500537
  0
LINE
  5
3AC
100
AcDbEntity
  8
DRAFT
100
AcDbLine
 62
7
  6
CONTINUOUS
 10
3.878772396
 20
-26.178723371
 11
3.878772396
 21
-24.778723371
  0
LINE
  5
3AD
100
AcDbEntity
  8
DRAFT
100
AcDbLine
 62
7
  6
CONTINUOUS
 10
3.878772396
 20
20.021276629
 11
3.878772396
 21
21.421276629
  0
LINE
  5
3AE
100
AcDbEntity
  8
DRAFT
100
AcDbLine
 62
7
  6
CONTINUOUS
 10
5.1397515648
 20
17.4322557979
 11
5.1397515648
 21
17.2322557979
  0
LINE
  5
3AF
100
AcDbEntity
  8
DRAFT
100
AcDbLine
 62
7
  6
CONTINUOUS
 10
5.1397515648
 20
-22.1897025399
 11
5.1397515648
 21
-21.9897025399
  0
LINE
  5
3B0
100
AcDbEntity
  8
DRAFT
100
AcDbLine
 62
7
  6
CONTINUOUS
 10
5.228772396
 20
-22.078723371
 11
5.228772396
 21
-22.278723371
  0
LINE
  5
3B1
100
AcDbEntity
  8
DRAFT
100
AcDbLine
 62
7
  6
CONTINUOUS
 10
5.228772396
 20
17.321276629
 11
5.228772396
 21
17.521276629
  0
LINE
  5
3B2
100
AcDbEntity
  8
SMUSSO
100
AcDbLine
 62
253
  6
CONTINUOUS
 10
5.3140028885
 20
-6.8434928784
 11
5.3140028885
 21
-7.438087792
  0
LINE
  5
3B3
100
AcDbEntity
  8
RACCORDO
100
AcDbLine
 62
7
  6
CONTINUOUS
 10
1.4564773663
 20
-7.1015416405
 11
1.466554781
 21
-7.0840865872
  0
LINE
  5
3B4
100
AcDbEntity
  8
SMUSSO
100
AcDbLine
 62
253
  6
CONTINUOUS
 10
1.0660105424
 20
-8.4380234229
 11
1.6435419034
 21
-7.438087792
  0
LWPOLYLINE
  5
3B5
100
AcDbEntity
  8
RACCORDO
100
AcDbPolyline
 62
7
  6
CONTINUOUS
 90
5
 70
0
 10
-8.4121110777
 20
-24.1378398973
 10
-8.3885922216
 20
-24.1017923313
 10
-8.364607665
 20
-24.0653691348
 10
-8.340157408
 20
-24.0286413552
 10
-8.3151821609
 20
-23.9917122554
  0
LINE
  5
3B6
100
AcDbEntity
  8
0
100
AcDbLine
 62
7
  6
CONTINUOUS
 10
7.878772396
 20
-1.0064450959
 11
8.0234482144
 21
-0.9005365223
  0
LINE
  5
3B7
100
AcDbEntity
  8
0
100
AcDbLine
 62
253
  6
CONTINUOUS
 10
9.492718606
 20
2.7367646047
 11
8.0234482144
 21
2.3430897803
  0
LINE
  5
3B8
100
AcDbEntity
  8
RACCORDO
100
AcDbLine
 62
7
  6
CONTINUOUS
 10
8.1515906655
 20
2.5565984625
 11
7.878772396
 21
2.4834942439
  0
LINE
  5
3B9
100
AcDbEntity
  8
RACCORDO
100
AcDbLine
 62
7
  6
CONTINUOUS
 10
-9.1940458736
 20
-1.1140452045
 11
-8.921227604
 21
-1.0409409859
  0
LINE
  5
3BA
100
AcDbEntity
  8
RACCORDO
100
AcDbLine
 62
7
  6
CONTINUOUS
 10
8.1515906655
 20
-1.1140452045
 11
7.878772396
 21
-1.0409409859
  0
LINE
  5
3BB
100
AcDbEntity
  8
0
100
AcDbLine
 62
253
  6
CONTINUOUS
 10
9.492718606
 20
-1.2942113467
 11
8.0234482144
 21
-0.9005365223
  0
LINE
  5
3BC
100
AcDbEntity
  8
RACCORDO
100
AcDbLine
 62
253
  6
CONTINUOUS
 10
9.528772396
 20
-7.4788756758
 11
9.1514383606
 21
-7.1015416405
  0
LINE
  5
3BD
100
AcDbEntity
  8
SMUSSO
100
AcDbLine
 62
7
  6
CONTINUOUS
 10
5.4909900109
 20
-7.0840865872
 11
5.4909900109
 21
-6.678723371
  0
LINE
  5
3BE
100
AcDbEntity
  8
RACCORDO
100
AcDbLine
 62
7
  6
CONTINUOUS
 10
6.0369506941
 20
18.2042009122
 11
6.0369506941
 21
17.5782947458
  0
LINE
  5
3BF
100
AcDbEntity
  8
RACCORDO
100
AcDbLine
 62
7
  6
CONTINUOUS
 10
6.0369506941
 20
-22.3357414878
 11
6.0369506941
 21
-22.9616476542
  0
LINE
  5
3C0
100
AcDbEntity
  8
RACCORDO
100
AcDbLine
 62
7
  6
CONTINUOUS
 10
6.7205940978
 20
18.6172721747
 11
6.7205940978
 21
17.5782947458
  0
LINE
  5
3C1
100
AcDbEntity
  8
RACCORDO
100
AcDbLine
 62
7
  6
CONTINUOUS
 10
6.7205940978
 20
-22.3357414878
 11
6.7205940978
 21
-23.3747189167
  0
LINE
  5
3C2
100
AcDbEntity
  8
RACCORDO
100
AcDbLine
 62
7
  6
CONTINUOUS
 10
6.8305510813
 20
17.58036511
 11
6.8305510813
 21
17.321276629
  0
LINE
  5
3C3
100
AcDbEntity
  8
RACCORDO
100
AcDbLine
 62
7
  6
CONTINUOUS
 10
6.8305510813
 20
-22.078723371
 11
6.8305510813
 21
-22.337811852
  0
LINE
  5
3C4
100
AcDbEntity
  8
DRAFT
100
AcDbLine
 62
7
  6
CONTINUOUS
 10
6.878772396
 20
-23.1431935529
 11
6.878772396
 21
-22.078723371
  0
LINE
  5
3C5
100
AcDbEntity
  8
DRAFT
100
AcDbLine
 62
7
  6
CONTINUOUS
 10
6.878772396
 20
17.321276629
 11
6.878772396
 21
18.3857468108
  0
LINE
  5
3C6
100
AcDbEntity
  8
DRAFT
100
AcDbLine
 62
7
  6
CONTINUOUS
 10
6.9677932271
 20
18.2967259797
 11
6.9677932271
 21
17.2322557979
  0
LINE
  5
3C7
100
AcDbEntity
  8
DRAFT
100
AcDbLine
 62
7
  6
CONTINUOUS
 10
6.9677932271
 20
-21.9897025399
 11
6.9677932271
 21
-23.0541727217
  0
LINE
  5
3C8
100
AcDbEntity
  8
RACCORDO
100
AcDbLine
 62
253
  6
CONTINUOUS
 10
7.0628731151
 20
-23.6914166147
 11
7.0628731151
 21
-23.3747189167
  0
LINE
  5
3C9
100
AcDbEntity
  8
RACCORDO
100
AcDbLine
 62
253
  6
CONTINUOUS
 10
7.0628731151
 20
18.6172721747
 11
7.0628731151
 21
18.9339698727
  0
LWPOLYLINE
  5
3CA
100
AcDbEntity
  8
RACCORDO
100
AcDbPolyline
 62
7
  6
CONTINUOUS
 90
34
 70
0
 10
7.728772396
 20
21.8712808598
 10
7.7290555462
 20
21.883176145
 10
7.7299043617
 20
21.8950444846
 10
7.7313169218
 20
21.9068589951
 10
7.7332900282
 20
21.9185929165
 10
7.7358192142
 20
21.9302196678
 10
7.7388987542
 20
21.941712908
 10
7.7425216746
 20
21.9530466028
 10
7.7466797702
 20
21.9641950783
 10
7.7513636238
 20
21.9751330753
 10
7.7565626271
 20
21.9858358166
 10
7.7622650043
 20
21.9962790573
 10
7.7684578378
 20
22.0064391349
 10
7.7751271005
 20
22.0162930341
 10
7.7822576852
 20
22.0258184328
 10
7.7898334371
 20
22.0349937481
 10
7.7978371955
 20
22.0437981951
 10
7.8062508299
 20
22.0522118295
 10
7.8150552769
 20
22.0602155879
 10
7.8242305921
 20
22.0677913397
 10
7.8337559908
 20
22.0749219245
 10
7.84360989
 20
22.0815911871
 10
7.8537699677
 20
22.0877840206
 10
7.8642132084
 20
22.0934863978
 10
7.8749159497
 20
22.0986854012
 10
7.8858539467
 20
22.1033692548
 10
7.8970024222
 20
22.1075273503
 10
7.9083361169
 20
22.1111502707
 10
7.9198293571
 20
22.1142298107
 10
7.9314561085
 20
22.1167589967
 10
7.9431900298
 20
22.1187321031
 10
7.9550045404
 20
22.1201446632
 10
7.9668728799
 20
22.1209934788
 10
7.9787681652
 20
22.121276629
  0
LWPOLYLINE
  5
3CB
100
AcDbEntity
  8
RACCORDO
100
AcDbPolyline
 62
253
  6
CONTINUOUS
 90
31
 70
0
 10
7.73314423
 20
21.8669090258
 10
7.733487419
 20
21.8799953799
 10
7.7345151619
 20
21.8930458782
 10
7.7362246451
 20
21.9060247357
 10
7.7386111878
 20
21.9188963753
 10
7.741668249
 20
21.9316254892
 10
7.7453874385
 20
21.9441771367
 10
7.7497585535
 20
21.9565168928
 10
7.754769609
 20
21.96861093
 10
7.7604068573
 20
21.9804260757
 10
7.7666548365
 20
21.9919299315
 10
7.7734964123
 20
22.0030909574
 10
7.7809128191
 20
22.0138785477
 10
7.7888837273
 20
22.024263137
 10
7.7973872688
 20
22.0342162404
 10
7.8064000879
 20
22.0437105336
 10
7.8158974224
 20
22.0527199554
 10
7.8258532595
 20
22.0612198523
 10
7.8362403854
 20
22.0691869946
 10
7.8470304646
 20
22.0765996246
 10
7.858193783
 20
22.0834373064
 10
7.8696993834
 20
22.0896811081
 10
7.8815154617
 20
22.0953138567
 10
7.8936098178
 20
22.1003202866
 10
7.9059496217
 20
22.1046868377
 10
7.9185038063
 20
22.1084022774
 10
7.9312352715
 20
22.1114553908
 10
7.9441009902
 20
22.1138365209
 10
7.9570627648
 20
22.1155401252
 10
7.9700876592
 20
22.1165633878
 10
7.9831399992
 20
22.116904795
  0
LWPOLYLINE
  5
3CC
100
AcDbEntity
  8
ASSI
100
AcDbPolyline
 62
7
  6
CONTINUOUS
 90
17
 70
0
 10
2.978772396
 20
-26.1298656613
 10
2.9791039406
 20
-26.1271539497
 10
2.9801120268
 20
-26.1237723706
 10
2.9818161452
 20
-26.1197209238
 10
2.9842364821
 20
-26.1150127025
 10
2.9873895622
 20
-26.1096346136
 10
2.9912838191
 20
-26.1035473782
 10
2.9959294581
 20
-26.0967431326
 10
3.001336398
 20
-26.0892297405
 10
3.0075036046
 20
-26.0809915144
 10
3.0144180797
 20
-26.0720476293
 10
3.0220945827
 20
-26.0623789101
 10
3.0305796278
 20
-26.0519121435
 10
3.0398854897
 20
-26.0406497826
 10
3.0500165735
 20
-26.0285893743
 10
3.0610245949
 20
-26.0156503456
 10
3.0729229652
 20
-26.001830482
  0
LINE
  5
3CD
100
AcDbEntity
  8
SMUSSO
100
AcDbLine
 62
7
  6
CONTINUOUS
 10
5.4909900109
 20
-7.0840865872
 11
5.3140028885
 21
-7.438087792
  0
LINE
  5
3CE
100
AcDbEntity
  8
RACCORDO
100
AcDbLine
 62
7
  6
CONTINUOUS
 10
-7.076522372
 20
-22.4616666927
 11
-6.9723324489
 21
-22.3053796039
  0
LWPOLYLINE
  5
3CF
100
AcDbEntity
  8
RACCORDO
100
AcDbPolyline
 62
7
  6
CONTINUOUS
 90
3
 70
0
 10
-8.3151821609
 20
-23.9917122554
 10
-8.2640124342
 20
-23.9173136156
 10
-8.2380041025
 20
-23.8798616355
  0
LINE
  5
3D0
100
AcDbEntity
  8
RACCORDO
100
AcDbLine
 62
7
  6
CONTINUOUS
 10
-8.2380041025
 20
-23.8798616355
 11
-8.1587622249
 21
-23.7669072582
  0
LINE
  5
3D1
100
AcDbEntity
  8
RACCORDO
100
AcDbLine
 62
7
  6
CONTINUOUS
 10
-8.1587622249
 20
-23.7669072582
 11
-8.1053283232
 21
-23.6914166147
  0
LINE
  5
3D2
100
AcDbEntity
  8
0
100
AcDbLine
 62
253
  6
CONTINUOUS
 10
-9.0659034225
 20
-0.9005365223
 11
-10.5351738141
 21
-1.2942113467
  0
LINE
  5
3D3
100
AcDbEntity
  8
RACCORDO
100
AcDbLine
 62
253
  6
CONTINUOUS
 10
-10.571227604
 20
16.1214289338
 11
-10.1938935687
 21
15.7440948985
  0
LINE
  5
3D4
100
AcDbEntity
  8
RACCORDO
100
AcDbLine
 62
7
  6
CONTINUOUS
 10
-8.1053283232
 20
18.9339698727
 11
-8.1587622249
 21
19.0094605162
  0
LINE
  5
3D5
100
AcDbEntity
  8
RACCORDO
100
AcDbLine
 62
7
  6
CONTINUOUS
 10
-8.1587622249
 20
19.0094605162
 11
-8.2380041025
 21
19.1224148935
  0
LWPOLYLINE
  5
3D6
100
AcDbEntity
  8
RACCORDO
100
AcDbPolyline
 62
7
  6
CONTINUOUS
 90
7
 70
0
 10
-8.2380041025
 20
19.1224148935
 10
-8.2897412133
 20
19.1971692457
 10
-8.3151821609
 20
19.2342655134
 10
-8.340157408
 20
19.2711946132
 10
-8.364607665
 20
19.3079223928
 10
-8.3885922216
 20
19.3443455893
 10
-8.4121110777
 20
19.3803931553
  0
LINE
  5
3D7
100
AcDbEntity
  8
RACCORDO
100
AcDbLine
 62
7
  6
CONTINUOUS
 10
-7.076522372
 20
17.7042199507
 11
-6.9723324489
 21
17.5479328619
  0
LWPOLYLINE
  5
3D8
100
AcDbEntity
  8
RACCORDO
100
AcDbPolyline
 62
253
  6
CONTINUOUS
 90
31
 70
0
 10
7.73314423
 20
21.4656141963
 10
7.7335235617
 20
21.4543040458
 10
7.7345845436
 20
21.4430247809
 10
7.7363242785
 20
21.431807203
 10
7.7387380154
 20
21.4206819449
 10
7.741819163
 20
21.4096793874
 10
7.7455593073
 20
21.3988295762
 10
7.7499482347
 20
21.3881621397
 10
7.75497396
 20
21.3777062086
 10
7.7606227589
 20
21.3674903359
 10
7.7668792059
 20
21.3575424188
 10
7.7737262158
 20
21.3478896232
 10
7.7811450909
 20
21.3385583087
 10
7.7891155719
 20
21.3295739572
 10
7.7976158929
 20
21.3209611032
 10
7.8066228414
 20
21.3127432664
 10
7.8161118213
 20
21.3049428882
 10
7.8260569202
 20
21.2975812697
 10
7.8364309801
 20
21.2906785139
 10
7.8472056717
 20
21.2842534708
 10
7.8583515714
 20
21.2783236859
 10
7.8698382422
 20
21.2729053522
 10
7.8816343163
 20
21.268013266
 10
7.8937075813
 20
21.2636607866
 10
7.9060250674
 20
21.2598597997
 10
7.9185531383
 20
21.2566206849
 10
7.9312575824
 20
21.2539522877
 10
7.9441037065
 20
21.2518618948
 10
7.9570564305
 20
21.2503552147
 10
7.9700803833
 20
21.2494363618
 10
7.9831399992
 20
21.2491078453
  0
LINE
  5
3D9
100
AcDbEntity
  8
RACCORDO
100
AcDbLine
 62
253
  6
CONTINUOUS
 10
7.73314423
 20
-26.2230609383
 11
7.728772396
 21
-25.7892085192
  0
LINE
  5
3DA
100
AcDbEntity
  8
RACCORDO
100
AcDbLine
 62
253
  6
CONTINUOUS
 10
7.9831399992
 20
-26.0065545874
 11
7.9780493981
 21
-25.5013731018
  0
LINE
  5
3DB
100
AcDbEntity
  8
RACCORDO
100
AcDbLine
 62
253
  6
CONTINUOUS
 10
7.5627969627
 20
-23.9446988043
 11
7.5627969627
 21
-23.3704316352
  0
LINE
  5
3DC
100
AcDbEntity
  8
RACCORDO
100
AcDbLine
 62
253
  6
CONTINUOUS
 10
7.5627969627
 20
18.6129848932
 11
7.5627969627
 21
19.1872520623
  0
LINE
  5
3DD
100
AcDbEntity
  8
DRAFT
100
AcDbLine
 62
7
  6
CONTINUOUS
 10
7.728772396
 20
19.021276629
 11
7.728772396
 21
18.521276629
  0
LINE
  5
3DE
100
AcDbEntity
  8
DRAFT
100
AcDbLine
 62
7
  6
CONTINUOUS
 10
7.728772396
 20
-23.278723371
 11
7.728772396
 21
-23.778723371
  0
LINE
  5
3DF
100
AcDbEntity
  8
RACCORDO
100
AcDbLine
 62
7
  6
CONTINUOUS
 10
7.728772396
 20
-24.778723371
 11
7.728772396
 21
-26.6287276018
  0
LINE
  5
3E0
100
AcDbEntity
  8
RACCORDO
100
AcDbLine
 62
7
  6
CONTINUOUS
 10
7.728772396
 20
20.021276629
 11
7.728772396
 21
21.8712808598
  0
LINE
  5
3E1
100
AcDbEntity
  8
RACCORDO
100
AcDbLine
 62
253
  6
CONTINUOUS
 10
7.73314423
 20
21.8669090258
 11
7.73314423
 21
21.4656141963
  0
LINE
  5
3E2
100
AcDbEntity
  8
RACCORDO
100
AcDbLine
 62
253
  6
CONTINUOUS
 10
7.73314423
 20
-26.2230609383
 11
7.73314423
 21
-26.6243557678
  0
LINE
  5
3E3
100
AcDbEntity
  8
0
100
AcDbLine
 62
7
  6
CONTINUOUS
 10
7.878772396
 20
2.4834942439
 11
7.878772396
 21
-1.0409409859
  0
LINE
  5
3E4
100
AcDbEntity
  8
RACCORDO
100
AcDbLine
 62
253
  6
CONTINUOUS
 10
7.9831399992
 20
-26.0065545874
 11
7.9831399992
 21
-26.874351537
  0
LINE
  5
3E5
100
AcDbEntity
  8
RACCORDO
100
AcDbLine
 62
253
  6
CONTINUOUS
 10
7.9831399992
 20
21.2491078453
 11
7.9831399992
 21
22.116904795
  0
LINE
  5
3E6
100
AcDbEntity
  8
RACCORDO
100
AcDbLine
 62
253
  6
CONTINUOUS
 10
8.1515906655
 20
-8.1013893357
 11
8.1515906655
 21
-1.1140452045
  0
LINE
  5
3E7
100
AcDbEntity
  8
RACCORDO
100
AcDbLine
 62
253
  6
CONTINUOUS
 10
8.1515906655
 20
2.5565984625
 11
8.1515906655
 21
16.7439425937
  0
LINE
  5
3E8
100
AcDbEntity
  8
DRAFT
100
AcDbLine
 62
7
  6
CONTINUOUS
 10
9.128772396
 20
-22.5276944248
 11
9.128772396
 21
-22.378723371
  0
LINE
  5
3E9
100
AcDbEntity
  8
DRAFT
100
AcDbLine
 62
7
  6
CONTINUOUS
 10
9.128772396
 20
17.621276629
 11
9.128772396
 21
17.7702476828
  0
LINE
  5
3EA
100
AcDbEntity
  8
RACCORDO
100
AcDbLine
 62
253
  6
CONTINUOUS
 10
9.1514383606
 20
-7.1015416405
 11
9.1514383606
 21
-1.3733892255
  0
LINE
  5
3EB
100
AcDbEntity
  8
RACCORDO
100
AcDbLine
 62
253
  6
CONTINUOUS
 10
9.1514383606
 20
2.8159424835
 11
9.1514383606
 21
15.7440948985
  0
LWPOLYLINE
  5
3EC
100
AcDbEntity
  8
DRAFT
100
AcDbPolyline
 62
7
  6
CONTINUOUS
 90
3
 70
0
 10
7.878772396
 20
1.5516986359
 10
7.8798451814
 20
1.6990437964
 10
7.8868151747
 20
2.4431107133
  0
LINE
  5
3ED
100
AcDbEntity
  8
RACCORDO
100
AcDbLine
 62
253
  6
CONTINUOUS
 10
7.728772396
 20
21.0317617772
 11
7.73314423
 21
21.4656141963
  0
LINE
  5
3EE
100
AcDbEntity
  8
RACCORDO
100
AcDbLine
 62
253
  6
CONTINUOUS
 10
7.9780493981
 20
20.7439263598
 11
7.9831399992
 21
21.2491078453
  0
LWPOLYLINE
  5
3EF
100
AcDbEntity
  8
RACCORDO
100
AcDbPolyline
 62
253
  6
CONTINUOUS
 90
31
 70
0
 10
7.73314423
 20
-26.2230609383
 10
7.7335227856
 20
-26.211762966
 10
7.7345819132
 20
-26.200492662
 10
7.7363192897
 20
-26.1892807922
 10
7.7387309911
 20
-26.1781569831
 10
7.7418108613
 20
-26.167152731
 10
7.7455499123
 20
-26.1563011912
 10
7.7499374567
 20
-26.1456330682
 10
7.7549618557
 20
-26.1351763949
 10
7.7606095363
 20
-26.124959476
 10
7.7668652289
 20
-26.1150100709
 10
7.7737118035
 20
-26.1053555464
 10
7.7811304118
 20
-26.096022523
 10
7.7891007158
 20
-26.0870365728
 10
7.7976010106
 20
-26.0784221536
 10
7.8066081011
 20
-26.0702027752
 10
7.8160974047
 20
-26.0624008785
 10
7.8260429919
 20
-26.0550377903
 10
7.8364176747
 20
-26.0481336414
 10
7.8471931071
 20
-26.0417072949
 10
7.8583398651
 20
-26.0357762979
 10
7.8698275022
 20
-26.0303568506
 10
7.8816246589
 20
-26.0254637486
 10
7.8936990953
 20
-26.0211103655
 10
7.906017775
 20
-26.0173086081
 10
7.9185470103
 20
-26.0140688617
 10
7.9312526132
 20
-26.0113999552
 10
7.944099934
 20
-26.0093091628
 10
7.9570539012
 20
-26.0078021929
 10
7.970079115
 20
-26.0068831645
 10
7.9831399992
 20
-26.0065545874
  0
LINE
  5
3F0
100
AcDbEntity
  8
RACCORDO
100
AcDbLine
 62
7
  6
CONTINUOUS
 10
6.8277944072
 20
-22.8371266194
 11
6.7776100706
 21
-23.2891937514
  0
LINE
  5
3F1
100
AcDbEntity
  8
RACCORDO
100
AcDbLine
 62
7
  6
CONTINUOUS
 10
6.0598384744
 20
-8.1013893357
 11
5.8915342495
 21
-8.4380234229
  0
LINE
  5
3F2
100
AcDbEntity
  8
DRAFT
100
AcDbLine
 62
7
  6
CONTINUOUS
 10
-4.921227604
 20
-24.778723371
 11
-4.8771603368
 21
-24.7126215379
  0
LWPOLYLINE
  5
3F3
100
AcDbEntity
  8
SMUSSO
100
AcDbPolyline
 62
7
  6
CONTINUOUS
 90
13
 70
0
 10
5.8915342495
 20
-8.4380234229
 10
5.8906307181
 20
-8.439112581
 10
5.8881237102
 20
-8.440199353
 10
5.8840132257
 20
-8.4412837388
 10
5.8782934534
 20
-8.4423664286
 10
5.8709702045
 20
-8.4434467322
 10
5.8620609133
 20
-8.4445225798
 10
5.8515646587
 20
-8.445593973
 10
5.8394823617
 20
-8.4466609101
 10
5.8258342203
 20
-8.4477213163
 10
5.8106137414
 20
-8.4487752111
 10
5.7938274181
 20
-8.449822575
 10
5.7755149271
 20
-8.4508612748
  0
LINE
  5
3F4
100
AcDbEntity
  8
DRAFT
100
AcDbLine
 62
7
  6
CONTINUOUS
 10
5.478772396
 20
-6.678723371
 11
5.3140028885
 21
-6.8434928784
  0
LWPOLYLINE
  5
3F5
100
AcDbEntity
  8
SMUSSO
100
AcDbPolyline
 62
7
  6
CONTINUOUS
 90
13
 70
0
 10
5.3140028885
 20
-7.438087792
 10
5.3129101013
 20
-7.4389495639
 10
5.31049419
 20
-7.439809197
 10
5.3067582715
 20
-7.4406666913
 10
5.3017065585
 20
-7.4415226385
 10
5.2953439781
 20
-7.4423764469
 10
5.2876758263
 20
-7.4432263411
 10
5.2787086427
 20
-7.4440723156
 10
5.268449946
 20
-7.444914376
 10
5.2569073206
 20
-7.4457507646
 10
5.2440892402
 20
-7.4465815049
 10
5.230006159
 20
-7.4474065734
 10
5.2146699693
 20
-7.448224142
  0
LINE
  5
3F6
100
AcDbEntity
  8
RACCORDO
100
AcDbLine
 62
7
  6
CONTINUOUS
 10
-10.1938935687
 20
2.8159424835
 11
-10.5351738141
 21
2.7367646047
  0
LINE
  5
3F7
100
AcDbEntity
  8
RACCORDO
100
AcDbLine
 62
7
  6
CONTINUOUS
 10
9.1514383606
 20
2.8159424835
 11
9.492718606
 21
2.7367646047
  0
LINE
  5
3F8
100
AcDbEntity
  8
0
100
AcDbLine
 62
7
  6
CONTINUOUS
 10
7.878772396
 20
2.4489983539
 11
8.0234482144
 21
2.3430897803
  0
LINE
  5
3F9
100
AcDbEntity
  8
RACCORDO
100
AcDbLine
 62
253
  6
CONTINUOUS
 10
-9.5713799089
 20
17.121276629
 11
-9.1940458736
 21
16.7439425937
  0
LINE
  5
3FA
100
AcDbEntity
  8
DRAFT
100
AcDbLine
 62
7
  6
CONTINUOUS
 10
-4.921227604
 20
20.021276629
 11
-4.8771603368
 21
19.9551747959
  0
LINE
  5
3FB
100
AcDbEntity
  8
RACCORDO
100
AcDbLine
 62
7
  6
CONTINUOUS
 10
6.7776100706
 20
18.5317470094
 11
6.8277944072
 21
18.0796798774
  0
LWPOLYLINE
  5
3FC
100
AcDbEntity
  8
RACCORDO
100
AcDbPolyline
 62
253
  6
CONTINUOUS
 90
31
 70
0
 10
10.124400562
 20
-26.2230609383
 10
10.1240220063
 20
-26.211762966
 10
10.1229628787
 20
-26.200492662
 10
10.1212255022
 20
-26.1892807922
 10
10.1188138008
 20
-26.1781569831
 10
10.1157339306
 20
-26.167152731
 10
10.1119948796
 20
-26.1563011912
 10
10.1076073352
 20
-26.1456330682
 10
10.1025829362
 20
-26.1351763949
 10
10.0969352556
 20
-26.124959476
 10
10.090679563
 20
-26.1150100709
 10
10.0838329884
 20
-26.1053555464
 10
10.0764143801
 20
-26.096022523
 10
10.0684440761
 20
-26.0870365728
 10
10.0599437813
 20
-26.0784221536
 10
10.0509366908
 20
-26.0702027752
 10
10.0414473872
 20
-26.0624008785
 10
10.0315018
 20
-26.0550377903
 10
10.0211271172
 20
-26.0481336414
 10
10.0103516848
 20
-26.0417072949
 10
9.9992049268
 20
-26.0357762979
 10
9.9877172897
 20
-26.0303568506
 10
9.975920133
 20
-26.0254637486
 10
9.9638456966
 20
-26.0211103655
 10
9.9515270169
 20
-26.0173086081
 10
9.9389977816
 20
-26.0140688617
 10
9.9262921787
 20
-26.0113999552
 10
9.9134448579
 20
-26.0093091628
 10
9.9004908907
 20
-26.0078021929
 10
9.8874656769
 20
-26.0068831645
 10
9.8744047927
 20
-26.0065545874
  0
LINE
  5
3FD
100
AcDbEntity
  8
RACCORDO
100
AcDbLine
 62
253
  6
CONTINUOUS
 10
9.8744047927
 20
21.2491078453
 11
9.8794953938
 21
20.7439263598
  0
LINE
  5
3FE
100
AcDbEntity
  8
RACCORDO
100
AcDbLine
 62
253
  6
CONTINUOUS
 10
10.124400562
 20
21.4656141963
 11
10.128772396
 21
21.0317617772
  0
LINE
  5
3FF
100
AcDbEntity
  8
RACCORDO
100
AcDbLine
 62
7
  6
CONTINUOUS
 10
9.528772396
 20
-7.4788756758
 11
9.528772396
 21
16.1214289338
  0
LINE
  5
400
100
AcDbEntity
  8
RACCORDO
100
AcDbLine
 62
253
  6
CONTINUOUS
 10
9.8744047927
 20
-26.0065545874
 11
9.8744047927
 21
-26.874351537
  0
LINE
  5
401
100
AcDbEntity
  8
RACCORDO
100
AcDbLine
 62
253
  6
CONTINUOUS
 10
9.8744047927
 20
21.2491078453
 11
9.8744047927
 21
22.116904795
  0
LINE
  5
402
100
AcDbEntity
  8
RACCORDO
100
AcDbLine
 62
253
  6
CONTINUOUS
 10
10.124400562
 20
-26.6243557678
 11
10.124400562
 21
-26.2230609383
  0
LINE
  5
403
100
AcDbEntity
  8
RACCORDO
100
AcDbLine
 62
253
  6
CONTINUOUS
 10
10.124400562
 20
21.4656141963
 11
10.124400562
 21
21.8669090258
  0
LINE
  5
404
100
AcDbEntity
  8
RACCORDO
100
AcDbLine
 62
7
  6
CONTINUOUS
 10
10.128772396
 20
-24.778723371
 11
10.128772396
 21
-26.6287276018
  0
LINE
  5
405
100
AcDbEntity
  8
RACCORDO
100
AcDbLine
 62
7
  6
CONTINUOUS
 10
10.128772396
 20
20.021276629
 11
10.128772396
 21
21.8712808598
  0
LINE
  5
406
100
AcDbEntity
  8
RACCORDO
100
AcDbLine
 62
7
  6
CONTINUOUS
 10
10.4542217467
 20
15.2206744315
 11
10.4542217467
 21
-19.9781211735
  0
LINE
  5
407
100
AcDbEntity
  8
RACCORDO
100
AcDbLine
 62
7
  6
CONTINUOUS
 10
10.628772396
 20
-24.3199108308
 11
10.628772396
 21
19.5624640888
  0
LINE
  5
408
100
AcDbEntity
  8
RACCORDO
100
AcDbLine
 62
253
  6
CONTINUOUS
 10
9.8794953938
 20
-25.5013731018
 11
9.8744047927
 21
-26.0065545874
  0
LINE
  5
409
100
AcDbEntity
  8
RACCORDO
100
AcDbLine
 62
253
  6
CONTINUOUS
 10
10.128772396
 20
-25.7892085192
 11
10.124400562
 21
-26.2230609383
  0
LWPOLYLINE
  5
40A
100
AcDbEntity
  8
RACCORDO
100
AcDbPolyline
 62
253
  6
CONTINUOUS
 90
58
 70
0
 10
9.1514383606
 20
-7.1015416405
 10
9.1510504829
 20
-7.1290864467
 10
9.1499039237
 20
-7.1566103439
 10
9.1479995534
 20
-7.1840924389
 10
9.1453388177
 20
-7.2115118703
 10
9.1419237361
 20
-7.2388478242
 10
9.1377569011
 20
-7.2660795501
 10
9.1328414757
 20
-7.2931863768
 10
9.1271811912
 20
-7.3201477275
 10
9.1207803442
 20
-7.3469431362
 10
9.1136437935
 20
-7.3735522628
 10
9.1057769565
 20
-7.3999549083
 10
9.0971858048
 20
-7.426131031
 10
9.0878768599
 20
-7.4520607605
 10
9.077857188
 20
-7.477724414
 10
9.0671343952
 20
-7.5031025103
 10
9.0557166208
 20
-7.5281757852
 10
9.0436125322
 20
-7.5529252057
 10
9.0308313173
 20
-7.5773319848
 10
9.0173826783
 20
-7.6013775955
 10
9.003276824
 20
-7.625043785
 10
8.9885244619
 20
-7.6483125885
 10
8.9731367905
 20
-7.6711663427
 10
8.9571254905
 20
-7.6935876997
 10
8.9405027158
 20
-7.7155596396
 10
8.9232810846
 20
-7.7370654836
 10
8.9054736699
 20
-7.7580889069
 10
8.8870939889
 20
-7.7786139508
 10
8.8681559936
 20
-7.7986250348
 10
8.8486740597
 20
-7.8181069687
 10
8.8286629757
 20
-7.837044964
 10
8.8081379319
 20
-7.8554246449
 10
8.7871145086
 20
-7.8732320597
 10
8.7656086646
 20
-7.8904536908
 10
8.7436367247
 20
-7.9070764655
 10
8.7212153677
 20
-7.9230877656
 10
8.6983616134
 20
-7.938475437
 10
8.67509281
 20
-7.953227799
 10
8.6514266205
 20
-7.9673336534
 10
8.6273810098
 20
-7.9807822924
 10
8.6029742307
 20
-7.9935635072
 10
8.5782248101
 20
-8.0056675959
 10
8.5531515353
 20
-8.0170853702
 10
8.5277734389
 20
-8.0278081631
 10
8.5021097855
 20
-8.0378278349
 10
8.4761800559
 20
-8.0471367799
 10
8.4500039333
 20
-8.0557279316
 10
8.4236012877
 20
-8.0635947686
 10
8.3969921612
 20
-8.0707313192
 10
8.3701967525
 20
-8.0771321662
 10
8.3432354017
 20
-8.0827924508
 10
8.3161285751
 20
-8.0877078762
 10
8.2888968491
 20
-8.0918747111
 10
8.2615608952
 20
-8.0952897927
 10
8.2341414638
 20
-8.0979505285
 10
8.2066593688
 20
-8.0998548988
 10
8.1791354717
 20
-8.1010014579
 10
8.1515906655
 20
-8.1013893357
  0
LWPOLYLINE
  5
40B
100
AcDbEntity
  8
RACCORDO
100
AcDbPolyline
 62
7
  6
CONTINUOUS
 90
34
 70
0
 10
10.128772396
 20
-26.6287276018
 10
10.1284892457
 20
-26.640622887
 10
10.1276404302
 20
-26.6524912266
 10
10.1262278701
 20
-26.6643057371
 10
10.1242547637
 20
-26.6760396585
 10
10.1217255777
 20
-26.6876664098
 10
10.1186460377
 20
-26.69915965
 10
10.1150231173
 20
-26.7104933448
 10
10.1108650217
 20
-26.7216418203
 10
10.1061811681
 20
-26.7325798173
 10
10.1009821648
 20
-26.7432825586
 10
10.0952797876
 20
-26.7537257993
 10
10.0890869541
 20
-26.7638858769
 10
10.0824176914
 20
-26.7737397761
 10
10.0752871067
 20
-26.7832651748
 10
10.0677113548
 20
-26.7924404901
 10
10.0597075964
 20
-26.8012449371
 10
10.051293962
 20
-26.8096585715
 10
10.042489515
 20
-26.8176623299
 10
10.0333141998
 20
-26.8252380817
 10
10.0237888011
 20
-26.8323686665
 10
10.0139349019
 20
-26.8390379291
 10
10.0037748242
 20
-26.8452307626
 10
9.9933315835
 20
-26.8509331398
 10
9.9826288423
 20
-26.8561321432
 10
9.9716908452
 20
-26.8608159968
 10
9.9605423697
 20
-26.8649740923
 10
9.949208675
 20
-26.8685970127
 10
9.9377154348
 20
-26.8716765527
 10
9.9260886834
 20
-26.8742057387
 10
9.9143547621
 20
-26.8761788452
 10
9.9025402515
 20
-26.8775914052
 10
9.890671912
 20
-26.8784402208
 10
9.8787766267
 20
-26.878723371
  0
LWPOLYLINE
  5
40C
100
AcDbEntity
  8
RACCORDO
100
AcDbPolyline
 62
253
  6
CONTINUOUS
 90
31
 70
0
 10
10.124400562
 20
-26.6243557678
 10
10.1240575234
 20
-26.6374392538
 10
10.1230302335
 20
-26.6504868804
 10
10.1213215079
 20
-26.6634628865
 10
10.11893603
 20
-26.6763317074
 10
10.1158803378
 20
-26.6890580719
 10
10.1121628064
 20
-26.7016070996
 10
10.1077936249
 20
-26.7139443959
 10
10.1027847684
 20
-26.7260361465
 10
10.0971499652
 20
-26.7378492103
 10
10.0909046593
 20
-26.7493512099
 10
10.0840659679
 20
-26.7605106204
 10
10.0766526345
 20
-26.771296856
 10
10.0686849778
 20
-26.7816803536
 10
10.0601848355
 20
-26.7916326541
 10
10.0511755049
 20
-26.80112648
 10
10.041681679
 20
-26.8101358105
 10
10.0317293786
 20
-26.8186359528
 10
10.0213458809
 20
-26.8266036096
 10
10.0105596453
 20
-26.834016943
 10
9.9994002348
 20
-26.8408556344
 10
9.9878982353
 20
-26.8471009403
 10
9.9760851715
 20
-26.8527357434
 10
9.9639934208
 20
-26.8577445999
 10
9.9516561245
 20
-26.8621137814
 10
9.9391070969
 20
-26.8658313128
 10
9.9263807323
 20
-26.868887005
 10
9.9135119115
 20
-26.871272483
 10
9.9005359053
 20
-26.8729812086
 10
9.8874882787
 20
-26.8740084984
 10
9.8744047927
 20
-26.874351537
  0
LWPOLYLINE
  5
40D
100
AcDbEntity
  8
RACCORDO
100
AcDbPolyline
 62
253
  6
CONTINUOUS
 90
31
 70
0
 10
10.124400562
 20
21.4656141963
 10
10.1240220063
 20
21.454316224
 10
10.1229628787
 20
21.44304592
 10
10.1212255022
 20
21.4318340502
 10
10.1188138008
 20
21.4207102411
 10
10.1157339306
 20
21.409705989
 10
10.1119948796
 20
21.3988544492
 10
10.1076073352
 20
21.3881863262
 10
10.1025829362
 20
21.3777296529
 10
10.0969352556
 20
21.367512734
 10
10.090679563
 20
21.3575633289
 10
10.0838329884
 20
21.3479088044
 10
10.0764143801
 20
21.3385757809
 10
10.0684440761
 20
21.3295898308
 10
10.0599437813
 20
21.3209754116
 10
10.0509366908
 20
21.3127560332
 10
10.0414473872
 20
21.3049541365
 10
10.0315018
 20
21.2975910483
 10
10.0211271172
 20
21.2906868994
 10
10.0103516848
 20
21.2842605529
 10
9.9992049268
 20
21.2783295559
 10
9.9877172897
 20
21.2729101085
 10
9.975920133
 20
21.2680170066
 10
9.9638456966
 20
21.2636636235
 10
9.9515270169
 20
21.2598618661
 10
9.9389977816
 20
21.2566221197
 10
9.9262921787
 20
21.2539532132
 10
9.9134448579
 20
21.2518624208
 10
9.9004908907
 20
21.2503554509
 10
9.8874656769
 20
21.2494364225
 10
9.8744047927
 20
21.2491078453
  0
LINE
  5
40E
100
AcDbEntity
  8
RACCORDO
100
AcDbLine
 62
7
  6
CONTINUOUS
 10
-7.0782491055
 20
-22.1357448725
 11
-7.021227604
 21
-22.078723371
  0
LINE
  5
40F
100
AcDbEntity
  8
DRAFT
100
AcDbLine
 62
7
  6
CONTINUOUS
 10
-8.0067574222
 20
-23.228723371
 11
-7.921227604
 21
-23.1431935529
  0
LINE
  5
410
100
AcDbEntity
  8
RACCORDO
100
AcDbLine
 62
253
  6
CONTINUOUS
 10
-11.16685577
 20
-26.6243557678
 11
-11.171227604
 21
-26.6287276018
  0
LINE
  5
411
100
AcDbEntity
  8
DRAFT
100
AcDbLine
 62
7
  6
CONTINUOUS
 10
-6.271227604
 20
-22.078723371
 11
-6.1822067729
 21
-21.9897025399
  0
LINE
  5
412
100
AcDbEntity
  8
RACCORDO
100
AcDbLine
 62
253
  6
CONTINUOUS
 10
-10.9168600008
 20
-26.874351537
 11
-10.9212318348
 21
-26.878723371
  0
LINE
  5
413
100
AcDbEntity
  8
DRAFT
100
AcDbLine
 62
7
  6
CONTINUOUS
 10
-6.271227604
 20
-22.278723371
 11
-6.1822067729
 21
-22.1897025399
  0
LINE
  5
414
100
AcDbEntity
  8
RACCORDO
100
AcDbLine
 62
7
  6
CONTINUOUS
 10
-7.0782491055
 20
17.3782981305
 11
-7.021227604
 21
17.321276629
  0
LINE
  5
415
100
AcDbEntity
  8
DRAFT
100
AcDbLine
 62
7
  6
CONTINUOUS
 10
-8.0067574222
 20
18.471276629
 11
-7.921227604
 21
18.3857468108
  0
LINE
  5
416
100
AcDbEntity
  8
RACCORDO
100
AcDbLine
 62
253
  6
CONTINUOUS
 10
-11.16685577
 20
21.8669090258
 11
-11.171227604
 21
21.8712808598
  0
LINE
  5
417
100
AcDbEntity
  8
DRAFT
100
AcDbLine
 62
7
  6
CONTINUOUS
 10
-6.271227604
 20
17.321276629
 11
-6.1822067729
 21
17.2322557979
  0
LINE
  5
418
100
AcDbEntity
  8
RACCORDO
100
AcDbLine
 62
253
  6
CONTINUOUS
 10
-10.9168600008
 20
22.116904795
 11
-10.9212318348
 21
22.121276629
  0
LINE
  5
419
100
AcDbEntity
  8
DRAFT
100
AcDbLine
 62
7
  6
CONTINUOUS
 10
-6.1822067729
 20
17.4322557979
 11
-6.271227604
 21
17.521276629
  0
LINE
  5
41A
100
AcDbEntity
  8
ASSI
100
AcDbLine
 62
7
  6
CONTINUOUS
 10
-4.7821806952
 20
-26.0008648367
 11
-4.7556311577
 21
-25.9705147962
  0
LINE
  5
41B
100
AcDbEntity
  8
ASSI
100
AcDbLine
 62
7
  6
CONTINUOUS
 10
-4.7556311577
 20
-25.9705147962
 11
-4.7252725966
 21
-25.9363383524
  0
LINE
  5
41C
100
AcDbEntity
  8
ASSI
100
AcDbLine
 62
7
  6
CONTINUOUS
 10
-4.7252725966
 20
-25.9363383524
 11
-4.6910953197
 21
-25.8983400913
  0
LINE
  5
41D
100
AcDbEntity
  8
ASSI
100
AcDbLine
 62
7
  6
CONTINUOUS
 10
-4.6910953197
 20
-25.8983400913
 11
-4.6327978468
 21
-25.8342523145
  0
LINE
  5
41E
100
AcDbEntity
  8
ASSI
100
AcDbLine
 62
7
  6
CONTINUOUS
 10
-4.6327978468
 20
-25.8342523145
 11
-4.4491975917
 21
-25.6350811857
  0
LINE
  5
41F
100
AcDbEntity
  8
RACCORDO
100
AcDbLine
 62
253
  6
CONTINUOUS
 10
-11.671227604
 20
-20.0504224197
 11
-11.4966769548
 21
-19.9781211735
  0
LINE
  5
420
100
AcDbEntity
  8
RACCORDO
100
AcDbLine
 62
253
  6
CONTINUOUS
 10
-11.4966769548
 20
15.2206744315
 11
-11.671227604
 21
15.2929756777
  0
LINE
  5
421
100
AcDbEntity
  8
ASSI
100
AcDbLine
 62
7
  6
CONTINUOUS
 10
-4.4491975917
 20
20.8776344437
 11
-4.5442710243
 21
20.9804623296
  0
LINE
  5
422
100
AcDbEntity
  8
ASSI
100
AcDbLine
 62
7
  6
CONTINUOUS
 10
-4.5442710243
 20
20.9804623296
 11
-4.6328943185
 21
21.0769116422
  0
LINE
  5
423
100
AcDbEntity
  8
ASSI
100
AcDbLine
 62
7
  6
CONTINUOUS
 10
-4.6328943185
 20
21.0769116422
 11
-4.6912368075
 21
21.1410496708
  0
LINE
  5
424
100
AcDbEntity
  8
ASSI
100
AcDbLine
 62
7
  6
CONTINUOUS
 10
-4.6912368075
 20
21.1410496708
 11
-4.725456934
 21
21.1790973703
  0
LINE
  5
425
100
AcDbEntity
  8
ASSI
100
AcDbLine
 62
7
  6
CONTINUOUS
 10
-4.725456934
 20
21.1790973703
 11
-4.7558491028
 21
21.2133151747
  0
LWPOLYLINE
  5
426
100
AcDbEntity
  8
ASSI
100
AcDbPolyline
 62
7
  6
CONTINUOUS
 90
18
 70
0
 10
-4.7558491028
 20
21.2133151747
 10
-4.7824119551
 20
21.2436846282
 10
-4.7943253913
 20
21.2575148182
 10
-4.8053507941
 20
21.2704647892
 10
-4.8154995521
 20
21.2825355003
 10
-4.8248159538
 20
21.2938011229
 10
-4.8333028397
 20
21.3042581712
 10
-4.8409798781
 20
21.313910131
 10
-4.8479004186
 20
21.3228416308
 10
-4.8540797296
 20
21.3310727552
 10
-4.8595074224
 20
21.3385834196
 10
-4.8641887795
 20
21.3453979985
 10
-4.8681332461
 20
21.3515122602
 10
-4.8713488913
 20
21.3569304363
 10
-4.8738440903
 20
21.3616895968
 10
-4.8756330361
 20
21.3658020981
 10
-4.8767328052
 20
21.3692555838
 10
-4.8771603368
 20
21.3720500537
  0
LINE
  5
427
100
AcDbEntity
  8
DRAFT
100
AcDbLine
 62
7
  6
CONTINUOUS
 10
7.7252851051
 20
-23.2891937514
 11
7.728772396
 21
-23.278723371
  0
LINE
  5
428
100
AcDbEntity
  8
ASSI
100
AcDbLine
 62
7
  6
CONTINUOUS
 10
-4.921227604
 20
-26.178723371
 11
-4.8775769572
 21
-26.1350727241
  0
LINE
  5
429
100
AcDbEntity
  8
RACCORDO
100
AcDbLine
 62
253
  6
CONTINUOUS
 10
-11.0855303845
 20
-21.4644205905
 11
-10.9109797353
 21
-21.3921193443
  0
LINE
  5
42A
100
AcDbEntity
  8
RACCORDO
100
AcDbLine
 62
253
  6
CONTINUOUS
 10
-10.9109797353
 20
16.6346726023
 11
-11.0855303845
 21
16.7069738485
  0
LINE
  5
42B
100
AcDbEntity
  8
ASSI
100
AcDbLine
 62
7
  6
CONTINUOUS
 10
-4.921227604
 20
21.421276629
 11
-4.8775769572
 21
21.3776259821
  0
LINE
  5
42C
100
AcDbEntity
  8
DRAFT
100
AcDbLine
 62
7
  6
CONTINUOUS
 10
7.7252851051
 20
18.5317470094
 11
7.728772396
 21
18.521276629
  0
LINE
  5
42D
100
AcDbEntity
  8
DRAFT
100
AcDbLine
 62
7
  6
CONTINUOUS
 10
6.7205940978
 20
-23.3747189167
 11
6.7776100706
 21
-23.2891937514
  0
LINE
  5
42E
100
AcDbEntity
  8
ASSI
100
AcDbLine
 62
7
  6
CONTINUOUS
 10
3.0729229652
 20
-26.001830482
 11
3.0994568659
 21
-25.9714809647
  0
LINE
  5
42F
100
AcDbEntity
  8
ASSI
100
AcDbLine
 62
7
  6
CONTINUOUS
 10
3.0994568659
 20
-25.9714809647
 11
3.1298270608
 21
-25.9372783535
  0
LINE
  5
430
100
AcDbEntity
  8
ASSI
100
AcDbLine
 62
7
  6
CONTINUOUS
 10
3.1298270608
 20
-25.9372783535
 11
3.16405271
 21
-25.8992160934
  0
LWPOLYLINE
  5
431
100
AcDbEntity
  8
ASSI
100
AcDbPolyline
 62
7
  6
CONTINUOUS
 90
3
 70
0
 10
3.16405271
 20
-25.8992160934
 10
3.2225039053
 20
-25.834949898
 10
3.2438131603
 20
-25.8116530621
  0
LINE
  5
432
100
AcDbEntity
  8
ASSI
100
AcDbLine
 62
7
  6
CONTINUOUS
 10
3.2437075545
 20
21.0543217703
 11
3.1824712528
 21
21.1214231437
  0
LINE
  5
433
100
AcDbEntity
  8
ASSI
100
AcDbLine
 62
7
  6
CONTINUOUS
 10
3.1824712528
 20
21.1214231437
 11
3.1462850747
 21
21.1614834518
  0
LINE
  5
434
100
AcDbEntity
  8
ASSI
100
AcDbLine
 62
7
  6
CONTINUOUS
 10
3.1462850747
 20
21.1614834518
 11
3.1139506734
 21
21.1976481427
  0
LWPOLYLINE
  5
435
100
AcDbEntity
  8
ASSI
100
AcDbPolyline
 62
7
  6
CONTINUOUS
 90
19
 70
0
 10
3.1139506734
 20
21.1976481427
 10
3.0854813658
 20
21.2299545307
 10
3.0726834417
 20
21.2446599886
 10
3.0607870325
 20
21.258481065
 10
3.0497847262
 20
21.2714164095
 10
3.0396641432
 20
21.2834673725
 10
3.0303783236
 20
21.2947112266
 10
3.0219240122
 20
21.3051460182
 10
3.0142829684
 20
21.3147737007
 10
3.0074026632
 20
21.3236774079
 10
3.0012680377
 20
21.3318774236
 10
2.9958903741
 20
21.3393534639
 10
2.9912658099
 20
21.3461278104
 10
2.9873850165
 20
21.3521954446
 10
2.9842396645
 20
21.357561385
 10
2.9818214448
 20
21.362262969
 10
2.9801158158
 20
21.3663126422
 10
2.9791052429
 20
21.369697959
 10
2.978772396
 20
21.3724189193
  0
LINE
  5
436
100
AcDbEntity
  8
DRAFT
100
AcDbLine
 62
7
  6
CONTINUOUS
 10
6.7205940978
 20
18.6172721747
 11
6.7776100706
 21
18.5317470094
  0
LWPOLYLINE
  5
437
100
AcDbEntity
  8
ASSI
100
AcDbPolyline
 62
7
  6
CONTINUOUS
 90
3
 70
0
 10
3.2438131603
 20
-25.8116530621
 10
3.3349735459
 20
-25.7126946771
 10
3.4067423836
 20
-25.6350811857
  0
LINE
  5
438
100
AcDbEntity
  8
RACCORDO
100
AcDbLine
 62
7
  6
CONTINUOUS
 10
6.7217508945
 20
-22.1357448725
 11
6.778772396
 21
-22.078723371
  0
LINE
  5
439
100
AcDbEntity
  8
DRAFT
100
AcDbLine
 62
7
  6
CONTINUOUS
 10
6.878772396
 20
-22.078723371
 11
6.9677932271
 21
-21.9897025399
  0
LINE
  5
43A
100
AcDbEntity
  8
DRAFT
100
AcDbLine
 62
7
  6
CONTINUOUS
 10
6.878772396
 20
-23.1431935529
 11
6.9677932271
 21
-23.0541727217
  0
LINE
  5
43B
100
AcDbEntity
  8
RACCORDO
100
AcDbLine
 62
253
  6
CONTINUOUS
 10
9.1514383606
 20
15.7440948985
 11
-10.1938935687
 21
15.7440948985
  0
LINE
  5
43C
100
AcDbEntity
  8
RACCORDO
100
AcDbLine
 62
7
  6
CONTINUOUS
 10
6.7217508945
 20
17.3782981305
 11
6.778772396
 21
17.321276629
  0
LINE
  5
43D
100
AcDbEntity
  8
DRAFT
100
AcDbLine
 62
7
  6
CONTINUOUS
 10
6.878772396
 20
17.321276629
 11
6.9677932271
 21
17.2322557979
  0
LINE
  5
43E
100
AcDbEntity
  8
DRAFT
100
AcDbLine
 62
7
  6
CONTINUOUS
 10
6.878772396
 20
18.3857468108
 11
6.9677932271
 21
18.2967259797
  0
LINE
  5
43F
100
AcDbEntity
  8
ASSI
100
AcDbLine
 62
7
  6
CONTINUOUS
 10
3.4067423836
 20
20.8776344437
 11
3.3113537623
 21
20.9808035306
  0
LINE
  5
440
100
AcDbEntity
  8
ASSI
100
AcDbLine
 62
7
  6
CONTINUOUS
 10
3.3113537623
 20
20.9808035306
 11
3.2437075545
 21
21.0543217703
  0
LINE
  5
441
100
AcDbEntity
  8
0
100
AcDbLine
 62
7
  6
CONTINUOUS
 10
8.3786584628
 20
-23.278723371
 11
9.128772396
 21
-22.5276944248
  0
LINE
  5
442
100
AcDbEntity
  8
RACCORDO
100
AcDbLine
 62
7
  6
CONTINUOUS
 10
9.8685245272
 20
-21.3921193443
 11
8.2064711497
 21
-23.0541727217
  0
LINE
  5
443
100
AcDbEntity
  8
RACCORDO
100
AcDbLine
 62
7
  6
CONTINUOUS
 10
6.7374992637
 20
-24.7699965032
 11
7.728772396
 21
-23.778723371
  0
LINE
  5
444
100
AcDbEntity
  8
RACCORDO
100
AcDbLine
 62
7
  6
CONTINUOUS
 10
8.278772396
 20
-23.228723371
 11
10.0430751764
 21
-21.4644205905
  0
LINE
  5
445
100
AcDbEntity
  8
RACCORDO
100
AcDbLine
 62
253
  6
CONTINUOUS
 10
8.1515906655
 20
16.7439425937
 11
-9.1940458736
 21
16.7439425937
  0
LINE
  5
446
100
AcDbEntity
  8
RACCORDO
100
AcDbLine
 62
7
  6
CONTINUOUS
 10
8.5289247008
 20
17.121276629
 11
-9.5713799089
 21
17.121276629
  0
LINE
  5
447
100
AcDbEntity
  8
DRAFT
100
AcDbLine
 62
7
  6
CONTINUOUS
 10
6.9677932271
 20
17.2322557979
 11
5.1397515648
 21
17.2322557979
  0
LINE
  5
448
100
AcDbEntity
  8
DRAFT
100
AcDbLine
 62
7
  6
CONTINUOUS
 10
-6.1822067729
 20
17.2322557979
 11
-8.0102484352
 21
17.2322557979
  0
LINE
  5
449
100
AcDbEntity
  8
DRAFT
100
AcDbLine
 62
7
  6
CONTINUOUS
 10
-7.921227604
 20
17.321276629
 11
-6.271227604
 21
17.321276629
  0
LINE
  5
44A
100
AcDbEntity
  8
DRAFT
100
AcDbLine
 62
7
  6
CONTINUOUS
 10
5.228772396
 20
17.321276629
 11
6.878772396
 21
17.321276629
  0
LINE
  5
44B
100
AcDbEntity
  8
RACCORDO
100
AcDbLine
 62
253
  6
CONTINUOUS
 10
-7.7642061026
 20
17.3782981305
 11
-7.0782491055
 21
17.3782981305
  0
LINE
  5
44C
100
AcDbEntity
  8
RACCORDO
100
AcDbLine
 62
253
  6
CONTINUOUS
 10
6.0357938974
 20
17.3782981305
 11
6.7217508945
 21
17.3782981305
  0
LINE
  5
44D
100
AcDbEntity
  8
DRAFT
100
AcDbLine
 62
7
  6
CONTINUOUS
 10
5.1397515648
 20
17.4322557979
 11
-6.1822067729
 21
17.4322557979
  0
LINE
  5
44E
100
AcDbEntity
  8
RACCORDO
100
AcDbLine
 62
7
  6
CONTINUOUS
 10
-2.921227604
 20
17.5056635801
 11
1.878772396
 21
17.5056635801
  0
LINE
  5
44F
100
AcDbEntity
  8
RACCORDO
100
AcDbLine
 62
7
  6
CONTINUOUS
 10
-6.271227604
 20
17.521276629
 11
-3.9144292146
 21
17.521276629
  0
LINE
  5
450
100
AcDbEntity
  8
RACCORDO
100
AcDbLine
 62
7
  6
CONTINUOUS
 10
2.8719740065
 20
17.521276629
 11
5.228772396
 21
17.521276629
  0
LINE
  5
451
100
AcDbEntity
  8
RACCORDO
100
AcDbLine
 62
253
  6
CONTINUOUS
 10
-6.9723324489
 20
17.5479328619
 11
-3.921227604
 21
17.5479328619
  0
LINE
  5
452
100
AcDbEntity
  8
RACCORDO
100
AcDbLine
 62
253
  6
CONTINUOUS
 10
2.878772396
 20
17.5479328619
 11
5.9298772408
 21
17.5479328619
  0
LINE
  5
453
100
AcDbEntity
  8
RACCORDO
100
AcDbLine
 62
253
  6
CONTINUOUS
 10
-7.7630493059
 20
17.5782947458
 11
-7.0794059022
 21
17.5782947458
  0
LINE
  5
454
100
AcDbEntity
  8
RACCORDO
100
AcDbLine
 62
253
  6
CONTINUOUS
 10
6.0369506941
 20
17.5782947458
 11
6.7205940978
 21
17.5782947458
  0
LINE
  5
455
100
AcDbEntity
  8
RACCORDO
100
AcDbLine
 62
253
  6
CONTINUOUS
 10
-7.921227604
 20
17.58036511
 11
-7.8730062894
 21
17.58036511
  0
LINE
  5
456
100
AcDbEntity
  8
RACCORDO
100
AcDbLine
 62
253
  6
CONTINUOUS
 10
6.8305510813
 20
17.58036511
 11
6.878772396
 21
17.58036511
  0
LINE
  5
457
100
AcDbEntity
  8
DRAFT
100
AcDbLine
 62
7
  6
CONTINUOUS
 10
2.978772396
 20
17.621276629
 11
2.878772396
 21
17.621276629
  0
LINE
  5
458
100
AcDbEntity
  8
DRAFT
100
AcDbLine
 62
7
  6
CONTINUOUS
 10
-3.921227604
 20
17.621276629
 11
-4.021227604
 21
17.621276629
  0
LINE
  5
459
100
AcDbEntity
  8
DRAFT
100
AcDbLine
 62
7
  6
CONTINUOUS
 10
-3.021227604
 20
17.6745105225
 11
-2.9625387272
 21
17.6745105225
  0
LINE
  5
45A
100
AcDbEntity
  8
DRAFT
100
AcDbLine
 62
7
  6
CONTINUOUS
 10
1.9200835191
 20
17.6745105225
 11
1.978772396
 21
17.6745105225
  0
LINE
  5
45B
100
AcDbEntity
  8
RACCORDO
100
AcDbLine
 62
253
  6
CONTINUOUS
 10
-7.076522372
 20
17.7042199507
 11
6.0340671639
 21
17.7042199507
  0
LINE
  5
45C
100
AcDbEntity
  8
RACCORDO
100
AcDbLine
 62
253
  6
CONTINUOUS
 10
-7.921227604
 20
18.0796798774
 11
-7.8702496153
 21
18.0796798774
  0
LINE
  5
45D
100
AcDbEntity
  8
RACCORDO
100
AcDbLine
 62
253
  6
CONTINUOUS
 10
6.8277944072
 20
18.0796798774
 11
6.878772396
 21
18.0796798774
  0
LINE
  5
45E
100
AcDbEntity
  8
RACCORDO
100
AcDbLine
 62
253
  6
CONTINUOUS
 10
-7.0794059022
 20
18.2042009122
 11
6.0369506941
 21
18.2042009122
  0
LINE
  5
45F
100
AcDbEntity
  8
DRAFT
100
AcDbLine
 62
7
  6
CONTINUOUS
 10
8.2064711497
 20
18.2967259797
 11
6.9677932271
 21
18.2967259797
  0
LINE
  5
460
100
AcDbEntity
  8
DRAFT
100
AcDbLine
 62
7
  6
CONTINUOUS
 10
-8.0102484352
 20
18.2967259797
 11
-9.2489263578
 21
18.2967259797
  0
LINE
  5
461
100
AcDbEntity
  8
DRAFT
100
AcDbLine
 62
7
  6
CONTINUOUS
 10
8.278772396
 20
18.471276629
 11
6.9643022141
 21
18.471276629
  0
LINE
  5
462
100
AcDbEntity
  8
DRAFT
100
AcDbLine
 62
7
  6
CONTINUOUS
 10
-8.0067574222
 20
18.471276629
 11
-9.321227604
 21
18.471276629
  0
LINE
  5
463
100
AcDbEntity
  8
0
100
AcDbLine
 62
7
  6
CONTINUOUS
 10
8.3786584628
 20
18.521276629
 11
7.728772396
 21
18.521276629
  0
LINE
  5
464
100
AcDbEntity
  8
0
100
AcDbLine
 62
7
  6
CONTINUOUS
 10
-8.771227604
 20
18.521276629
 11
-9.4211136709
 21
18.521276629
  0
LINE
  5
465
100
AcDbEntity
  8
DRAFT
100
AcDbLine
 62
7
  6
CONTINUOUS
 10
7.7252851051
 20
18.5317470094
 11
6.7776100706
 21
18.5317470094
  0
LINE
  5
466
100
AcDbEntity
  8
DRAFT
100
AcDbLine
 62
7
  6
CONTINUOUS
 10
-7.8200652787
 20
18.5317470094
 11
-8.7677403132
 21
18.5317470094
  0
LWPOLYLINE
  5
467
100
AcDbEntity
  8
RACCORDO
100
AcDbPolyline
 62
253
  6
CONTINUOUS
 90
58
 70
0
 10
8.1515906655
 20
16.7439425937
 10
8.1791354717
 20
16.7435547159
 10
8.2066593688
 20
16.7424081568
 10
8.2341414638
 20
16.7405037865
 10
8.2615608952
 20
16.7378430507
 10
8.2888968491
 20
16.7344279691
 10
8.3161285751
 20
16.7302611342
 10
8.3432354017
 20
16.7253457088
 10
8.3701967525
 20
16.7196854242
 10
8.3969921612
 20
16.7132845772
 10
8.4236012877
 20
16.7061480266
 10
8.4500039333
 20
16.6982811896
 10
8.4761800559
 20
16.6896900379
 10
8.5021097855
 20
16.6803810929
 10
8.5277734389
 20
16.6703614211
 10
8.5531515353
 20
16.6596386282
 10
8.5782248101
 20
16.6482208539
 10
8.6029742307
 20
16.6361167652
 10
8.6273810098
 20
16.6233355503
 10
8.6514266205
 20
16.6098869114
 10
8.67509281
 20
16.595781057
 10
8.6983616134
 20
16.581028695
 10
8.7212153677
 20
16.5656410236
 10
8.7436367247
 20
16.5496297235
 10
8.7656086646
 20
16.5330069488
 10
8.7871145086
 20
16.5157853177
 10
8.8081379319
 20
16.4979779029
 10
8.8286629757
 20
16.4795982219
 10
8.8486740597
 20
16.4606602267
 10
8.8681559936
 20
16.4411782928
 10
8.8870939889
 20
16.4211672088
 10
8.9054736699
 20
16.4006421649
 10
8.9232810846
 20
16.3796187416
 10
8.9405027158
 20
16.3581128976
 10
8.9571254905
 20
16.3361409577
 10
8.9731367905
 20
16.3137196007
 10
8.9885244619
 20
16.2908658465
 10
9.003276824
 20
16.267597043
 10
9.0173826783
 20
16.2439308535
 10
9.0308313173
 20
16.2198852428
 10
9.0436125322
 20
16.1954784637
 10
9.0557166208
 20
16.1707290432
 10
9.0671343952
 20
16.1456557683
 10
9.077857188
 20
16.120277672
 10
9.0878768599
 20
16.0946140185
 10
9.0971858048
 20
16.0686842889
 10
9.1057769565
 20
16.0425081663
 10
9.1136437935
 20
16.0161055208
 10
9.1207803442
 20
15.9894963942
 10
9.1271811912
 20
15.9627009855
 10
9.1328414757
 20
15.9357396348
 10
9.1377569011
 20
15.9086328081
 10
9.1419237361
 20
15.8814010822
 10
9.1453388177
 20
15.8540651283
 10
9.1479995534
 20
15.8266456969
 10
9.1499039237
 20
15.7991636019
 10
9.1510504829
 20
15.7716397047
 10
9.1514383606
 20
15.7440948985
  0
LINE
  5
468
100
AcDbEntity
  8
RACCORDO
100
AcDbLine
 62
7
  6
CONTINUOUS
 10
8.2064711497
 20
18.2967259797
 11
9.8685245272
 21
16.6346726023
  0
LINE
  5
469
100
AcDbEntity
  8
RACCORDO
100
AcDbLine
 62
7
  6
CONTINUOUS
 10
10.0430751764
 20
16.7069738485
 11
8.278772396
 21
18.471276629
  0
LINE
  5
46A
100
AcDbEntity
  8
RACCORDO
100
AcDbLine
 62
7
  6
CONTINUOUS
 10
7.728772396
 20
19.021276629
 11
6.7374992637
 21
20.0125497612
  0
LINE
  5
46B
100
AcDbEntity
  8
0
100
AcDbLine
 62
7
  6
CONTINUOUS
 10
8.3786584628
 20
18.521276629
 11
9.128772396
 21
17.7702476828
  0
LINE
  5
46C
100
AcDbEntity
  8
RACCORDO
100
AcDbLine
 62
253
  6
CONTINUOUS
 10
7.73314423
 20
-26.6243557678
 11
7.728772396
 21
-26.6287276018
  0
LINE
  5
46D
100
AcDbEntity
  8
RACCORDO
100
AcDbLine
 62
253
  6
CONTINUOUS
 10
7.9831399992
 20
-26.874351537
 11
7.9787681652
 21
-26.878723371
  0
LINE
  5
46E
100
AcDbEntity
  8
RACCORDO
100
AcDbLine
 62
7
  6
CONTINUOUS
 10
7.5627969627
 20
-23.3704316352
 11
7.7252851051
 21
-23.2891937514
  0
LINE
  5
46F
100
AcDbEntity
  8
RACCORDO
100
AcDbLine
 62
7
  6
CONTINUOUS
 10
7.0628731151
 20
18.6172721747
 11
6.7205940978
 21
18.6172721747
  0
LINE
  5
470
100
AcDbEntity
  8
RACCORDO
100
AcDbLine
 62
7
  6
CONTINUOUS
 10
-7.7630493059
 20
18.6172721747
 11
-8.1053283232
 21
18.6172721747
  0
LINE
  5
471
100
AcDbEntity
  8
0
100
AcDbLine
 62
7
  6
CONTINUOUS
 10
2.478772396
 20
18.621276629
 11
-3.521227604
 21
18.621276629
  0
LINE
  5
472
100
AcDbEntity
  8
RACCORDO
100
AcDbLine
 62
253
  6
CONTINUOUS
 10
7.0628731151
 20
18.9339698727
 11
2.478772396
 21
18.9339698727
  0
LINE
  5
473
100
AcDbEntity
  8
RACCORDO
100
AcDbLine
 62
253
  6
CONTINUOUS
 10
-3.521227604
 20
18.9339698727
 11
-8.1053283232
 21
18.9339698727
  0
LINE
  5
474
100
AcDbEntity
  8
0
100
AcDbLine
 62
7
  6
CONTINUOUS
 10
-3.521227604
 20
19.321276629
 11
2.478772396
 21
19.321276629
  0
LINE
  5
475
100
AcDbEntity
  8
RACCORDO
100
AcDbLine
 62
253
  6
CONTINUOUS
 10
6.8161172292
 20
19.9339317958
 11
2.478772396
 21
19.9339317958
  0
LINE
  5
476
100
AcDbEntity
  8
RACCORDO
100
AcDbLine
 62
253
  6
CONTINUOUS
 10
-3.521227604
 20
19.9339317958
 11
-7.8585724373
 21
19.9339317958
  0
LINE
  5
477
100
AcDbEntity
  8
DRAFT
100
AcDbLine
 62
7
  6
CONTINUOUS
 10
-4.021227604
 20
19.9593158677
 11
-3.521227604
 21
19.9593158677
  0
LINE
  5
478
100
AcDbEntity
  8
DRAFT
100
AcDbLine
 62
7
  6
CONTINUOUS
 10
2.478772396
 20
19.9593158677
 11
2.978772396
 21
19.9593158677
  0
LINE
  5
479
100
AcDbEntity
  8
RACCORDO
100
AcDbLine
 62
7
  6
CONTINUOUS
 10
10.1786353033
 20
20.0125497612
 11
6.7374992637
 21
20.0125497612
  0
LINE
  5
47A
100
AcDbEntity
  8
RACCORDO
100
AcDbLine
 62
7
  6
CONTINUOUS
 10
-7.7799544718
 20
20.0125497612
 11
-11.2210905114
 21
20.0125497612
  0
LINE
  5
47B
100
AcDbEntity
  8
RACCORDO
100
AcDbLine
 62
7
  6
CONTINUOUS
 10
10.161664419
 20
20.021276629
 11
10.128772396
 21
20.021276629
  0
LINE
  5
47C
100
AcDbEntity
  8
DRAFT
100
AcDbLine
 62
7
  6
CONTINUOUS
 10
3.878772396
 20
20.021276629
 11
10.128772396
 21
20.021276629
  0
LINE
  5
47D
100
AcDbEntity
  8
DRAFT
100
AcDbLine
 62
7
  6
CONTINUOUS
 10
-4.921227604
 20
20.021276629
 11
-11.171227604
 21
20.021276629
  0
LINE
  5
47E
100
AcDbEntity
  8
RACCORDO
100
AcDbLine
 62
7
  6
CONTINUOUS
 10
-11.171227604
 20
20.021276629
 11
-11.2041150789
 21
20.021276629
  0
LINE
  5
47F
100
AcDbEntity
  8
RACCORDO
100
AcDbLine
 62
7
  6
CONTINUOUS
 10
7.5627969627
 20
18.6129848932
 11
7.7252851051
 21
18.5317470094
  0
LINE
  5
480
100
AcDbEntity
  8
RACCORDO
100
AcDbLine
 62
253
  6
CONTINUOUS
 10
7.73314423
 20
21.8669090258
 11
7.728772396
 21
21.8712808598
  0
LINE
  5
481
100
AcDbEntity
  8
RACCORDO
100
AcDbLine
 62
253
  6
CONTINUOUS
 10
7.9831399992
 20
22.116904795
 11
7.9787681652
 21
22.121276629
  0
LINE
  5
482
100
AcDbEntity
  8
RACCORDO
100
AcDbLine
 62
253
  6
CONTINUOUS
 10
10.1786353033
 20
-24.7699965032
 11
10.1611802384
 21
-24.778723371
  0
LWPOLYLINE
  5
483
100
AcDbEntity
  8
RACCORDO
100
AcDbPolyline
 62
7
  6
CONTINUOUS
 90
11
 70
0
 10
10.3624400334
 20
-24.7312259038
 10
10.3483695671
 20
-24.7379584472
 10
10.328688581
 20
-24.7463995158
 10
10.3086271862
 20
-24.753895106
 10
10.288230253
 20
-24.7604281488
 10
10.2675525204
 20
-24.7659814423
 10
10.2466323112
 20
-24.7705450225
 10
10.2254900388
 20
-24.7741121226
 10
10.2041639926
 20
-24.7766713646
 10
10.1827111538
 20
-24.7782110212
 10
10.1611802384
 20
-24.778723371
  0
LINE
  5
484
100
AcDbEntity
  8
RACCORDO
100
AcDbLine
 62
7
  6
CONTINUOUS
 10
-10.9219506019
 20
20.7439263598
 11
-9.0205046062
 21
20.7439263598
  0
LINE
  5
485
100
AcDbEntity
  8
RACCORDO
100
AcDbLine
 62
7
  6
CONTINUOUS
 10
7.9780493981
 20
20.7439263598
 11
9.8794953938
 21
20.7439263598
  0
LINE
  5
486
100
AcDbEntity
  8
RACCORDO
100
AcDbLine
 62
253
  6
CONTINUOUS
 10
-10.9168600008
 20
21.2491078453
 11
-9.0255952073
 21
21.2491078453
  0
LINE
  5
487
100
AcDbEntity
  8
RACCORDO
100
AcDbLine
 62
253
  6
CONTINUOUS
 10
7.9831399992
 20
21.2491078453
 11
9.8744047927
 21
21.2491078453
  0
LINE
  5
488
100
AcDbEntity
  8
ASSI
100
AcDbLine
 62
253
  6
CONTINUOUS
 10
3.8351217491
 20
21.3776259821
 11
2.978772396
 21
21.3776259821
  0
LINE
  5
489
100
AcDbEntity
  8
ASSI
100
AcDbLine
 62
253
  6
CONTINUOUS
 10
-4.021227604
 20
21.3776259821
 11
-4.8775769572
 21
21.3776259821
  0
LINE
  5
48A
100
AcDbEntity
  8
DRAFT
100
AcDbLine
 62
7
  6
CONTINUOUS
 10
2.978772396
 20
21.4154587992
 11
-4.021227604
 21
21.4154587992
  0
LINE
  5
48B
100
AcDbEntity
  8
DRAFT
100
AcDbLine
 62
7
  6
CONTINUOUS
 10
3.878772396
 20
21.421276629
 11
-4.921227604
 21
21.421276629
  0
LINE
  5
48C
100
AcDbEntity
  8
RACCORDO
100
AcDbLine
 62
253
  6
CONTINUOUS
 10
7.73314423
 20
21.4656141963
 11
10.124400562
 21
21.4656141963
  0
LINE
  5
48D
100
AcDbEntity
  8
RACCORDO
100
AcDbLine
 62
253
  6
CONTINUOUS
 10
-8.775599438
 20
21.4656141963
 11
-11.16685577
 21
21.4656141963
  0
LINE
  5
48E
100
AcDbEntity
  8
RACCORDO
100
AcDbLine
 62
253
  6
CONTINUOUS
 10
7.73314423
 20
21.8669090258
 11
10.124400562
 21
21.8669090258
  0
LINE
  5
48F
100
AcDbEntity
  8
RACCORDO
100
AcDbLine
 62
253
  6
CONTINUOUS
 10
-8.775599438
 20
21.8669090258
 11
-11.16685577
 21
21.8669090258
  0
LINE
  5
490
100
AcDbEntity
  8
RACCORDO
100
AcDbLine
 62
253
  6
CONTINUOUS
 10
9.8744047927
 20
22.116904795
 11
7.9831399992
 21
22.116904795
  0
LINE
  5
491
100
AcDbEntity
  8
RACCORDO
100
AcDbLine
 62
253
  6
CONTINUOUS
 10
-9.0255952073
 20
22.116904795
 11
-10.9168600008
 21
22.116904795
  0
LINE
  5
492
100
AcDbEntity
  8
RACCORDO
100
AcDbLine
 62
7
  6
CONTINUOUS
 10
9.8787766267
 20
22.121276629
 11
7.9787681652
 21
22.121276629
  0
LINE
  5
493
100
AcDbEntity
  8
RACCORDO
100
AcDbLine
 62
7
  6
CONTINUOUS
 10
-9.0212233733
 20
22.121276629
 11
-10.9212318348
 21
22.121276629
  0
LWPOLYLINE
  5
494
100
AcDbEntity
  8
RACCORDO
100
AcDbPolyline
 62
7
  6
CONTINUOUS
 90
34
 70
0
 10
-9.0212233733
 20
22.121276629
 10
-9.009328088
 20
22.1209934788
 10
-8.9974597485
 20
22.1201446632
 10
-8.9856452379
 20
22.1187321031
 10
-8.9739113166
 20
22.1167589967
 10
-8.9622845652
 20
22.1142298107
 10
-8.950791325
 20
22.1111502707
 10
-8.9394576303
 20
22.1075273503
 10
-8.9283091548
 20
22.1033692548
 10
-8.9173711577
 20
22.0986854012
 10
-8.9066684165
 20
22.0934863978
 10
-8.8962251758
 20
22.0877840206
 10
-8.8860650981
 20
22.0815911871
 10
-8.8762111989
 20
22.0749219245
 10
-8.8666858002
 20
22.0677913397
 10
-8.857510485
 20
22.0602155879
 10
-8.848706038
 20
22.0522118295
 10
-8.8402924036
 20
22.0437981951
 10
-8.8322886452
 20
22.0349937481
 10
-8.8247128933
 20
22.0258184328
 10
-8.8175823086
 20
22.0162930341
 10
-8.8109130459
 20
22.0064391349
 10
-8.8047202124
 20
21.9962790573
 10
-8.7990178352
 20
21.9858358166
 10
-8.7938188319
 20
21.9751330753
 10
-8.7891349783
 20
21.9641950783
 10
-8.7849768827
 20
21.9530466028
 10
-8.7813539623
 20
21.941712908
 10
-8.7782744223
 20
21.9302196678
 10
-8.7757452363
 20
21.9185929165
 10
-8.7737721299
 20
21.9068589951
 10
-8.7723595698
 20
21.8950444846
 10
-8.7715107543
 20
21.883176145
 10
-8.771227604
 20
21.8712808598
  0
LWPOLYLINE
  5
495
100
AcDbEntity
  8
RACCORDO
100
AcDbPolyline
 62
7
  6
CONTINUOUS
 90
34
 70
0
 10
9.8787766267
 20
22.121276629
 10
9.890671912
 20
22.1209934788
 10
9.9025402515
 20
22.1201446632
 10
9.9143547621
 20
22.1187321031
 10
9.9260886834
 20
22.1167589967
 10
9.9377154348
 20
22.1142298107
 10
9.949208675
 20
22.1111502707
 10
9.9605423697
 20
22.1075273503
 10
9.9716908452
 20
22.1033692548
 10
9.9826288423
 20
22.0986854012
 10
9.9933315835
 20
22.0934863978
 10
10.0037748242
 20
22.0877840206
 10
10.0139349019
 20
22.0815911871
 10
10.0237888011
 20
22.0749219245
 10
10.0333141998
 20
22.0677913397
 10
10.042489515
 20
22.0602155879
 10
10.051293962
 20
22.0522118295
 10
10.0597075964
 20
22.0437981951
 10
10.0677113548
 20
22.0349937481
 10
10.0752871067
 20
22.0258184328
 10
10.0824176914
 20
22.0162930341
 10
10.0890869541
 20
22.0064391349
 10
10.0952797876
 20
21.9962790573
 10
10.1009821648
 20
21.9858358166
 10
10.1061811681
 20
21.9751330753
 10
10.1108650217
 20
21.9641950783
 10
10.1150231173
 20
21.9530466028
 10
10.1186460377
 20
21.941712908
 10
10.1217255777
 20
21.9302196678
 10
10.1242547637
 20
21.9185929165
 10
10.1262278701
 20
21.9068589951
 10
10.1276404302
 20
21.8950444846
 10
10.1284892457
 20
21.883176145
 10
10.128772396
 20
21.8712808598
  0
LWPOLYLINE
  5
496
100
AcDbEntity
  8
RACCORDO
100
AcDbPolyline
 62
253
  6
CONTINUOUS
 90
31
 70
0
 10
-9.0255952073
 20
22.116904795
 10
-9.0125117213
 20
22.1165617564
 10
-8.9994640947
 20
22.1155344665
 10
-8.9864880885
 20
22.113825741
 10
-8.9736192677
 20
22.111440263
 10
-8.9608929031
 20
22.1083845708
 10
-8.9483438755
 20
22.1046670394
 10
-8.9360065792
 20
22.1002978579
 10
-8.9239148285
 20
22.0952890014
 10
-8.9121017647
 20
22.0896541983
 10
-8.9005997652
 20
22.0834088924
 10
-8.8894403547
 20
22.076570201
 10
-8.8786541191
 20
22.0691568676
 10
-8.8682706214
 20
22.0611892108
 10
-8.858318321
 20
22.0526890685
 10
-8.8488244951
 20
22.043679738
 10
-8.8398151645
 20
22.0341859121
 10
-8.8313150222
 20
22.0242336116
 10
-8.8233473655
 20
22.013850114
 10
-8.8159340321
 20
22.0030638784
 10
-8.8090953407
 20
21.9919044679
 10
-8.8028500348
 20
21.9804024683
 10
-8.7972152316
 20
21.9685894045
 10
-8.7922063751
 20
21.9564976539
 10
-8.7878371936
 20
21.9441603576
 10
-8.7841196622
 20
21.9316113299
 10
-8.78106397
 20
21.9188849654
 10
-8.7786784921
 20
21.9060161445
 10
-8.7769697665
 20
21.8930401384
 10
-8.7759424766
 20
21.8799925118
 10
-8.775599438
 20
21.8669090258
  0
LWPOLYLINE
  5
497
100
AcDbEntity
  8
RACCORDO
100
AcDbPolyline
 62
7
  6
CONTINUOUS
 90
11
 70
0
 10
10.3624401374
 20
19.9737791098
 10
10.3483696905
 20
19.9805116446
 10
10.3286886947
 20
19.9889527196
 10
10.3086272893
 20
19.9964483163
 10
10.2882303448
 20
20.0029813658
 10
10.2675525998
 20
20.0085346662
 10
10.2466323773
 20
20.0130982533
 10
10.2254900903
 20
20.0166653604
 10
10.2041640281
 20
20.0192246093
 10
10.1827111722
 20
20.0207642727
 10
10.1611802384
 20
20.021276629
  0
LINE
  5
498
100
AcDbEntity
  8
RACCORDO
100
AcDbLine
 62
253
  6
CONTINUOUS
 10
10.1611802384
 20
20.021276629
 11
10.1786353033
 21
20.0125497612
  0
LWPOLYLINE
  5
499
100
AcDbEntity
  8
RACCORDO
100
AcDbPolyline
 62
253
  6
CONTINUOUS
 90
31
 70
0
 10
9.8744047927
 20
22.116904795
 10
9.8874571327
 20
22.1165633878
 10
9.9004820271
 20
22.1155401252
 10
9.9134438017
 20
22.1138365209
 10
9.9263095204
 20
22.1114553908
 10
9.9390409856
 20
22.1084022774
 10
9.9515951702
 20
22.1046868377
 10
9.9639349741
 20
22.1003202866
 10
9.9760293302
 20
22.0953138567
 10
9.9878454085
 20
22.0896811081
 10
9.9993510089
 20
22.0834373064
 10
10.0105143273
 20
22.0765996246
 10
10.0213044065
 20
22.0691869946
 10
10.0316915324
 20
22.0612198523
 10
10.0416473695
 20
22.0527199554
 10
10.051144704
 20
22.0437105336
 10
10.0601575231
 20
22.0342162404
 10
10.0686610646
 20
22.024263137
 10
10.0766319728
 20
22.0138785477
 10
10.0840483796
 20
22.0030909574
 10
10.0908899554
 20
21.9919299315
 10
10.0971379346
 20
21.9804260757
 10
10.1027751829
 20
21.96861093
 10
10.1077862384
 20
21.9565168928
 10
10.1121573534
 20
21.9441771367
 10
10.1158765429
 20
21.9316254892
 10
10.1189336041
 20
21.9188963753
 10
10.1213201468
 20
21.9060247357
 10
10.12302963
 20
21.8930458782
 10
10.124057373
 20
21.8799953799
 10
10.124400562
 20
21.8669090258
  0
ELLIPSE
  5
49A
100
AcDbEntity
  8
DRAFT
100
AcDbEllipse
 62
7
  6
CONTINUOUS
 10
-3.021227604
 20
17.6657836547
 30
0.0
 11
1.0
 21
-0.0
 31
0.0
 40
0.0087268678
 41
1.5707963268
 42
3.1415926536
  0
ELLIPSE
  5
49B
100
AcDbEntity
  8
DRAFT
100
AcDbEllipse
 62
7
  6
CONTINUOUS
 10
-3.021227604
 20
-22.4232303967
 30
0.0
 11
1.0
 21
-0.0
 31
0.0
 40
0.0087268678
 41
-3.1415926536
 42
-1.5707963268
  0
ELLIPSE
  5
49C
100
AcDbEntity
  8
DRAFT
100
AcDbEllipse
 62
7
  6
CONTINUOUS
 10
-0.521227604
 20
17.8036681658
 30
0.0
 11
15.0
 21
-0.0
 31
0.0
 40
0.0087268678
 41
-1.7342776332
 42
-1.4073150204
  0
ELLIPSE
  5
49D
100
AcDbEntity
  8
DRAFT
100
AcDbEllipse
 62
7
  6
CONTINUOUS
 10
1.978772396
 20
17.6657836547
 30
0.0
 11
1.0
 21
0.0
 31
0.0
 40
0.0087268678
 41
-0.0
 42
1.5707963268
  0
ELLIPSE
  5
49E
100
AcDbEntity
  8
DRAFT
100
AcDbEllipse
 62
7
  6
CONTINUOUS
 10
-0.521227604
 20
-22.5611149078
 30
0.0
 11
15.0
 21
0.0
 31
0.0
 40
0.0087268678
 41
1.4073150204
 42
1.7342776332
  0
ELLIPSE
  5
49F
100
AcDbEntity
  8
DRAFT
100
AcDbEllipse
 62
7
  6
CONTINUOUS
 10
1.978772396
 20
-22.4232303967
 30
0.0
 11
1.0
 21
-0.0
 31
0.0
 40
0.0087268678
 41
-1.5707963268
 42
-0.0
  0
ELLIPSE
  5
4A0
100
AcDbEntity
  8
RACCORDO
100
AcDbEllipse
 62
7
  6
CONTINUOUS
 10
-11.2211590564
 20
-24.3199793679
 30
0.0
 11
-0.4025750024
 21
0.2012721715
 31
0.0
 40
0.9998096356
 41
6.7467263073
 42
8.3176749331
  0
ELLIPSE
  5
4A1
100
AcDbEntity
  8
RACCORDO
100
AcDbEllipse
 62
7
  6
CONTINUOUS
 10
10.1787038483
 20
19.5625326259
 30
0.0
 11
0.4025750024
 21
-0.2012721715
 31
0.0
 40
0.9998096356
 41
6.7467263073
 42
8.3176749331
  0
ELLIPSE
  5
4A2
100
AcDbEntity
  8
RACCORDO
100
AcDbEllipse
 62
7
  6
CONTINUOUS
 10
10.1787038483
 20
-24.3199793679
 30
0.0
 11
-0.4025750024
 21
-0.2012721715
 31
0.0
 40
0.9998096356
 41
1.1071030277
 42
2.6780516535
  0
ELLIPSE
  5
4A3
100
AcDbEntity
  8
DRAFT
100
AcDbEllipse
 62
7
  6
CONTINUOUS
 10
-4.4491975917
 20
-24.7126432662
 30
0.0
 11
0.4279699877
 21
0.0
 31
0.0
 40
0.0087268678
 41
-0.0
 42
3.1357748894
  0
ELLIPSE
  5
4A4
100
AcDbEntity
  8
DRAFT
100
AcDbEllipse
 62
7
  6
CONTINUOUS
 10
3.4067423836
 20
-24.7126432662
 30
0.0
 11
0.4279699877
 21
0.0
 31
0.0
 40
0.0087268678
 41
0.0058177642
 42
3.1415926536
  0
ELLIPSE
  5
4A5
100
AcDbEntity
  8
DRAFT
100
AcDbEllipse
 62
7
  6
CONTINUOUS
 10
3.4067423836
 20
19.9551965242
 30
0.0
 11
0.4279699877
 21
0.0
 31
0.0
 40
0.0087268678
 41
3.1415926536
 42
6.277367543
  0
ELLIPSE
  5
4A6
100
AcDbEntity
  8
ASSI
100
AcDbEllipse
 62
7
  6
CONTINUOUS
 10
3.8351386724
 20
-25.6350811857
 30
0.0
 11
0.0
 21
0.5
 31
0.0
 40
0.0058178298
 41
-3.2911896616
 42
-3.1474104178
  0
ELLIPSE
  5
4A7
100
AcDbEntity
  8
ASSI
100
AcDbEllipse
 62
7
  6
CONTINUOUS
 10
-4.8775938805
 20
-25.6350811857
 30
0.0
 11
-0.0
 21
0.5
 31
0.0
 40
0.0058178298
 41
-3.1357748894
 42
-2.9919956456
  0
ELLIPSE
  5
4A8
100
AcDbEntity
  8
ASSI
100
AcDbEllipse
 62
7
  6
CONTINUOUS
 10
-4.8775938805
 20
20.8776344437
 30
0.0
 11
-0.0
 21
0.5
 31
0.0
 40
0.0058178298
 41
-0.149597008
 42
-0.0058177642
  0
ELLIPSE
  5
4A9
100
AcDbEntity
  8
ASSI
100
AcDbEllipse
 62
7
  6
CONTINUOUS
 10
3.8351386724
 20
20.8776344437
 30
0.0
 11
0.0
 21
0.5
 31
0.0
 40
0.0058178298
 41
0.0058177642
 42
0.149597008
  0
ELLIPSE
  5
4AA
100
AcDbEntity
  8
DRAFT
100
AcDbEllipse
 62
7
  6
CONTINUOUS
 10
-4.4491975917
 20
19.9551965242
 30
0.0
 11
0.4279699877
 21
-0.0
 31
0.0
 40
0.0087268678
 41
-3.1357748894
 42
0.0
  0
ELLIPSE
  5
4AB
100
AcDbEntity
  8
RACCORDO
100
AcDbEllipse
 62
7
  6
CONTINUOUS
 10
5.9299026255
 20
17.0479519004
 30
0.0
 11
-0.0
 21
0.5
 31
0.0
 40
0.0058178298
 41
0.0087266463
 42
0.9923144385
  0
ELLIPSE
  5
4AC
100
AcDbEntity
  8
RACCORDO
100
AcDbEllipse
 62
7
  6
CONTINUOUS
 10
-6.9723578336
 20
17.0479519004
 30
0.0
 11
-0.0
 21
0.5
 31
0.0
 40
0.0058178298
 41
-0.9923144385
 42
-0.0087266463
  0
ELLIPSE
  5
4AD
100
AcDbEntity
  8
RACCORDO
100
AcDbEllipse
 62
7
  6
CONTINUOUS
 10
-6.9723578336
 20
-21.8053986424
 30
0.0
 11
-0.0
 21
0.5
 31
0.0
 40
0.0058178298
 41
-3.1328660073
 42
-2.1492782151
  0
ELLIPSE
  5
4AE
100
AcDbEntity
  8
RACCORDO
100
AcDbEllipse
 62
7
  6
CONTINUOUS
 10
-11.2211590564
 20
19.5625326259
 30
0.0
 11
0.4025750024
 21
0.2012721715
 31
0.0
 40
0.9998096356
 41
1.1071030277
 42
2.6780516535
  0
ELLIPSE
  5
4AF
100
AcDbEntity
  8
RACCORDO
100
AcDbEllipse
 62
7
  6
CONTINUOUS
 10
5.9299026255
 20
-21.8053986424
 30
0.0
 11
-0.0
 21
0.5
 31
0.0
 40
0.0058178298
 41
-4.133907092
 42
-3.1503192998
  0
ELLIPSE
  5
4B0
100
AcDbEntity
  8
RACCORDO
100
AcDbEllipse
 62
7
  6
CONTINUOUS
 10
6.8276421664
 20
-22.337811852
 30
0.0
 11
-0.0
 21
0.5
 31
0.0
 40
0.0058178298
 41
-3.089232776
 42
-1.5707963268
  0
ELLIPSE
  5
4B1
100
AcDbEntity
  8
RACCORDO
100
AcDbEllipse
 62
7
  6
CONTINUOUS
 10
-8.1053283232
 20
-23.3703554828
 30
0.0
 11
0.5
 21
0.0
 31
0.0
 40
0.0087268678
 41
-3.1241393611
 42
-1.5707963268
  0
ELLIPSE
  5
4B2
100
AcDbEntity
  8
RACCORDO
100
AcDbEllipse
 62
7
  6
CONTINUOUS
 10
7.0628731151
 20
-23.3703554828
 30
0.0
 11
0.5
 21
-0.0
 31
0.0
 40
0.0087268678
 41
-1.5707963268
 42
-0.0174532925
  0
ELLIPSE
  5
4B3
100
AcDbEntity
  8
RACCORDO
100
AcDbEllipse
 62
7
  6
CONTINUOUS
 10
-8.1053283232
 20
18.6129087408
 30
0.0
 11
0.5
 21
-0.0
 31
0.0
 40
0.0087268678
 41
1.5707963268
 42
3.1241393611
  0
ELLIPSE
  5
4B4
100
AcDbEntity
  8
RACCORDO
100
AcDbEllipse
 62
7
  6
CONTINUOUS
 10
7.0628731151
 20
18.6129087408
 30
0.0
 11
0.5
 21
-0.0
 31
0.0
 40
0.0087268678
 41
0.0174532925
 42
1.5707963268
  0
ELLIPSE
  5
4B5
100
AcDbEntity
  8
RACCORDO
100
AcDbEllipse
 62
7
  6
CONTINUOUS
 10
-7.8700973745
 20
-22.337811852
 30
0.0
 11
-0.0
 21
0.5
 31
0.0
 40
0.0058178298
 41
-4.7123889804
 42
-3.1939525311
  0
ELLIPSE
  5
4B6
100
AcDbEntity
  8
RACCORDO
100
AcDbEllipse
 62
7
  6
CONTINUOUS
 10
6.8276421664
 20
17.58036511
 30
0.0
 11
0.0
 21
0.5
 31
0.0
 40
0.0058178298
 41
-1.5707963268
 42
-0.0523598776
  0
ELLIPSE
  5
4B7
100
AcDbEntity
  8
RACCORDO
100
AcDbEllipse
 62
7
  6
CONTINUOUS
 10
-7.8700973745
 20
17.58036511
 30
0.0
 11
0.0
 21
0.5
 31
0.0
 40
0.0058178298
 41
0.0523598776
 42
1.5707963268
  0
ELLIPSE
  5
4B8
100
AcDbEntity
  8
RACCORDO
100
AcDbEllipse
 62
7
  6
CONTINUOUS
 10
-10.9212233732
 20
-25.7900482364
 30
0.0
 11
-0.0029088041
 21
0.2886641433
 31
0.0
 40
0.8660144118
 41
-0.0087264124
 42
1.5591610446
  0
ELLIPSE
  5
4B9
100
AcDbEntity
  8
RACCORDO
100
AcDbEllipse
 62
7
  6
CONTINUOUS
 10
-9.0212318349
 20
-25.7900482364
 30
0.0
 11
0.0029088041
 21
0.2886641433
 31
0.0
 40
0.8660144118
 41
-1.5591610446
 42
0.0087264124
  0
ELLIPSE
  5
4BA
100
AcDbEntity
  8
RACCORDO
100
AcDbEllipse
 62
7
  6
CONTINUOUS
 10
-7.0764969873
 20
18.2042009122
 30
0.0
 11
0.0
 21
0.5
 31
0.0
 40
0.0058178298
 41
-4.7123889804
 42
-3.1503192998
  0
ELLIPSE
  5
4BB
100
AcDbEntity
  8
RACCORDO
100
AcDbEllipse
 62
7
  6
CONTINUOUS
 10
6.0340417792
 20
18.2042009122
 30
0.0
 11
0.0
 21
0.5
 31
0.0
 40
0.0058178298
 41
-3.1328660073
 42
-1.5707963268
  0
ELLIPSE
  5
4BC
100
AcDbEntity
  8
RACCORDO
100
AcDbEllipse
 62
7
  6
CONTINUOUS
 10
6.0340417792
 20
-22.9616476542
 30
0.0
 11
0.0
 21
0.5
 31
0.0
 40
0.0058178298
 41
-1.5707963268
 42
-0.0087266463
  0
ELLIPSE
  5
4BD
100
AcDbEntity
  8
RACCORDO
100
AcDbEllipse
 62
7
  6
CONTINUOUS
 10
-7.0764969873
 20
-22.9616476542
 30
0.0
 11
-0.0
 21
0.5
 31
0.0
 40
0.0058178298
 41
0.0087266463
 42
1.5707963268
  0
ELLIPSE
  5
4BE
100
AcDbEntity
  8
RACCORDO
100
AcDbEllipse
 62
7
  6
CONTINUOUS
 10
6.0357871281
 20
17.5782947458
 30
0.0
 11
-0.0
 21
0.2
 31
0.0
 40
0.0058178298
 41
-3.1357748894
 42
-1.5707963268
  0
ELLIPSE
  5
4BF
100
AcDbEntity
  8
RACCORDO
100
AcDbEllipse
 62
7
  6
CONTINUOUS
 10
6.7217576638
 20
17.5782947458
 30
0.0
 11
0.0
 21
0.2
 31
0.0
 40
0.0058178298
 41
-4.7123889804
 42
-3.1474104178
  0
ELLIPSE
  5
4C0
100
AcDbEntity
  8
RACCORDO
100
AcDbEllipse
 62
7
  6
CONTINUOUS
 10
-7.7642128719
 20
17.5782947458
 30
0.0
 11
0.0
 21
0.2
 31
0.0
 40
0.0058178298
 41
-3.1357748894
 42
-1.5707963268
  0
ELLIPSE
  5
4C1
100
AcDbEntity
  8
RACCORDO
100
AcDbEllipse
 62
7
  6
CONTINUOUS
 10
7.9787766268
 20
-25.7900482364
 30
0.0
 11
-0.0029088041
 21
0.2886641433
 31
0.0
 40
0.8660144118
 41
-0.0087264124
 42
1.5591610446
  0
ELLIPSE
  5
4C2
100
AcDbEntity
  8
RACCORDO
100
AcDbEllipse
 62
7
  6
CONTINUOUS
 10
9.8787681651
 20
-25.7900482364
 30
0.0
 11
0.0029088041
 21
0.2886641433
 31
0.0
 40
0.8660144118
 41
-1.5591610446
 42
0.0087264124
  0
ELLIPSE
  5
4C3
100
AcDbEntity
  8
RACCORDO
100
AcDbEllipse
 62
7
  6
CONTINUOUS
 10
-7.0782423362
 20
17.5782947458
 30
0.0
 11
0.0
 21
0.2
 31
0.0
 40
0.0058178298
 41
-4.7123889804
 42
-3.1474104178
  0
ELLIPSE
  5
4C4
100
AcDbEntity
  8
RACCORDO
100
AcDbEllipse
 62
7
  6
CONTINUOUS
 10
-7.0782423362
 20
-22.3357414878
 30
0.0
 11
-0.0
 21
0.2
 31
0.0
 40
0.0058178298
 41
0.0058177642
 42
1.5707963268
  0
ELLIPSE
  5
4C5
100
AcDbEntity
  8
RACCORDO
100
AcDbEllipse
 62
7
  6
CONTINUOUS
 10
-7.7642128719
 20
-22.3357414878
 30
0.0
 11
-0.0
 21
0.2
 31
0.0
 40
0.0058178298
 41
-1.5707963268
 42
-0.0058177642
  0
ELLIPSE
  5
4C6
100
AcDbEntity
  8
RACCORDO
100
AcDbEllipse
 62
7
  6
CONTINUOUS
 10
6.7217576638
 20
-22.3357414878
 30
0.0
 11
0.0
 21
0.2
 31
0.0
 40
0.0058178298
 41
0.0058177642
 42
1.5707963268
  0
ELLIPSE
  5
4C7
100
AcDbEntity
  8
RACCORDO
100
AcDbEllipse
 62
7
  6
CONTINUOUS
 10
6.0357871281
 20
-22.3357414878
 30
0.0
 11
-0.0
 21
0.2
 31
0.0
 40
0.0058178298
 41
-1.5707963268
 42
-0.0058177642
  0
ELLIPSE
  5
4C8
100
AcDbEntity
  8
RACCORDO
100
AcDbEllipse
 62
7
  6
CONTINUOUS
 10
7.9787766268
 20
21.0326014944
 30
0.0
 11
0.0029088041
 21
0.2886641433
 31
0.0
 40
0.8660144118
 41
-4.7007536982
 42
-3.1328662411
  0
ELLIPSE
  5
4C9
100
AcDbEntity
  8
RACCORDO
100
AcDbEllipse
 62
7
  6
CONTINUOUS
 10
9.8787681651
 20
21.0326014944
 30
0.0
 11
-0.0029088041
 21
0.2886641433
 31
0.0
 40
0.8660144118
 41
-3.150319066
 42
-1.582431609
  0
ELLIPSE
  5
4CA
100
AcDbEntity
  8
RACCORDO
100
AcDbEllipse
 62
7
  6
CONTINUOUS
 10
-10.9212233732
 20
21.0326014944
 30
0.0
 11
0.0029088041
 21
0.2886641433
 31
0.0
 40
0.8660144118
 41
-4.7007536982
 42
-3.1328662411
  0
ELLIPSE
  5
4CB
100
AcDbEntity
  8
RACCORDO
100
AcDbEllipse
 62
7
  6
CONTINUOUS
 10
-9.0212318349
 20
21.0326014944
 30
0.0
 11
-0.0029088041
 21
0.2886641433
 31
0.0
 40
0.8660144118
 41
-3.150319066
 42
-1.582431609
  0
ELLIPSE
  5
4CC
100
AcDbEntity
  8
RACCORDO
100
AcDbEllipse
 62
7
  6
CONTINUOUS
 10
-9.670922948
 20
15.2927233116
 30
0.0
 11
1.8480888181
 21
-0.7655034529
 31
0.0
 40
0.9998215708
 41
2.7489566578
 42
3.5342286494
  0
ELLIPSE
  5
4CD
100
AcDbEntity
  8
RACCORDO
100
AcDbEllipse
 62
7
  6
CONTINUOUS
 10
-9.670922948
 20
-20.0501700536
 30
0.0
 11
1.8480888181
 21
0.7655034529
 31
0.0
 40
0.9998215708
 41
2.7489566578
 42
3.5342286494
  0
ELLIPSE
  5
4CE
100
AcDbEntity
  8
RACCORDO
100
AcDbEllipse
 62
7
  6
CONTINUOUS
 10
8.6284677399
 20
-20.0501700536
 30
0.0
 11
1.8480888181
 21
-0.7655034529
 31
0.0
 40
0.9998215708
 41
-0.3926359958
 42
0.3926359958
  0
ELLIPSE
  5
4CF
100
AcDbEntity
  8
RACCORDO
100
AcDbEllipse
 62
7
  6
CONTINUOUS
 10
8.6284677399
 20
15.2927233116
 30
0.0
 11
1.8480888181
 21
0.7655034529
 31
0.0
 40
0.9998215708
 41
-0.3926359958
 42
0.3926359958
  0
ELLIPSE
  5
4D0
100
AcDbEntity
  8
DRAFT
100
AcDbEllipse
 62
7
  6
CONTINUOUS
 10
-4.521227604
 20
-6.8433531105
 30
0.0
 11
1.8353003752
 21
0.0
 31
0.0
 40
0.0087268678
 41
-3.1328660073
 42
-0.0087266463
  0
ELLIPSE
  5
4D1
100
AcDbEntity
  8
DRAFT
100
AcDbEllipse
 62
7
  6
CONTINUOUS
 10
3.478772396
 20
-6.8433531105
 30
0.0
 11
1.8353003752
 21
0.0
 31
0.0
 40
0.0087268678
 41
-3.1328660073
 42
-0.0087266463
  0
ELLIPSE
  5
4D2
100
AcDbEntity
  8
0
100
AcDbEllipse
 62
7
  6
CONTINUOUS
 10
-9.0658130044
 20
0.721276629
 30
0.0
 11
0.0
 21
1.6218462458
 31
0.0
 40
0.0087268916
 41
0.0063883521
 42
3.1352043015
  0
ELLIPSE
  5
4D3
100
AcDbEntity
  8
0
100
AcDbEllipse
 62
7
  6
CONTINUOUS
 10
8.0233577963
 20
0.721276629
 30
0.0
 11
0.0
 21
1.6218462458
 31
0.0
 40
0.0087268916
 41
-3.1352043015
 42
-0.0063883521
  0
ELLIPSE
  5
4D4
100
AcDbEntity
  8
RACCORDO
100
AcDbEllipse
 62
7
  6
CONTINUOUS
 10
5.4822631364
 20
-7.1015416405
 30
0.0
 11
-0.5774690812
 21
0.9999668392
 31
0.0
 40
0.0141024672
 41
-3.1322831899
 42
-1.5789401556
  0
ELLIPSE
  5
4D5
100
AcDbEntity
  8
RACCORDO
100
AcDbEllipse
 62
7
  6
CONTINUOUS
 10
-6.5247183445
 20
-7.1015416405
 30
0.0
 11
0.5774690812
 21
0.9999668392
 31
0.0
 40
0.0141024672
 41
-4.7042451516
 42
-3.1509021173
  0
ELLIPSE
  5
4D6
100
AcDbEntity
  8
RACCORDO
100
AcDbEllipse
 62
7
  6
CONTINUOUS
 10
-9.1940458736
 20
2.5478715947
 30
0.0
 11
0.9999976196
 21
-0.2679777991
 31
0.0
 40
0.0081421982
 41
1.5729782569
 42
3.1263212912
  0
ELLIPSE
  5
4D7
100
AcDbEntity
  8
RACCORDO
100
AcDbEllipse
 62
7
  6
CONTINUOUS
 10
-2.5177368636
 20
-7.1015416405
 30
0.0
 11
-0.5774690812
 21
0.9999668392
 31
0.0
 40
0.0141024672
 41
-3.1322831899
 42
-1.5789401556
  0
ELLIPSE
  5
4D8
100
AcDbEntity
  8
RACCORDO
100
AcDbEllipse
 62
7
  6
CONTINUOUS
 10
8.1515906655
 20
2.5478715947
 30
0.0
 11
0.9999976196
 21
0.2679777991
 31
0.0
 40
0.0081421982
 41
0.0152713624
 42
1.5686143967
  0
ELLIPSE
  5
4D9
100
AcDbEntity
  8
RACCORDO
100
AcDbEllipse
 62
7
  6
CONTINUOUS
 10
-9.4963722987
 20
15.2204220653
 30
0.0
 11
-1.8480888181
 21
0.7655034529
 31
0.0
 40
0.9998215708
 41
-0.3926359958
 42
0.3926359958
  0
ELLIPSE
  5
4DA
100
AcDbEntity
  8
RACCORDO
100
AcDbEllipse
 62
7
  6
CONTINUOUS
 10
-9.4963722987
 20
-19.9778688073
 30
0.0
 11
1.8480888181
 21
0.7655034529
 31
0.0
 40
0.9998215708
 41
2.7489566578
 42
3.5342286494
  0
ELLIPSE
  5
4DB
100
AcDbEntity
  8
RACCORDO
100
AcDbEllipse
 62
7
  6
CONTINUOUS
 10
8.4539170906
 20
-19.9778688073
 30
0.0
 11
1.8480888181
 21
-0.7655034529
 31
0.0
 40
0.9998215708
 41
-0.3926359958
 42
0.3926359958
  0
ELLIPSE
  5
4DC
100
AcDbEntity
  8
RACCORDO
100
AcDbEllipse
 62
7
  6
CONTINUOUS
 10
1.878772396
 20
-22.280780275
 30
0.0
 11
1.0
 21
0.0
 31
0.0
 40
0.0176699529
 41
0.1166713885
 42
1.5707963268
  0
ELLIPSE
  5
4DD
100
AcDbEntity
  8
RACCORDO
100
AcDbEllipse
 62
7
  6
CONTINUOUS
 10
-2.921227604
 20
-22.280780275
 30
0.0
 11
1.0
 21
-0.0
 31
0.0
 40
0.0176699529
 41
1.5707963268
 42
3.0249212651
  0
ELLIPSE
  5
4DE
100
AcDbEntity
  8
RACCORDO
100
AcDbEllipse
 62
7
  6
CONTINUOUS
 10
1.878772396
 20
17.523333533
 30
0.0
 11
1.0
 21
-0.0
 31
0.0
 40
0.0176699529
 41
-1.5707963268
 42
-0.1166713885
  0
ELLIPSE
  5
4DF
100
AcDbEntity
  8
RACCORDO
100
AcDbEllipse
 62
7
  6
CONTINUOUS
 10
-2.921227604
 20
17.523333533
 30
0.0
 11
1.0
 21
-0.0
 31
0.0
 40
0.0176699529
 41
-3.0249212651
 42
-1.5707963268
  0
ELLIPSE
  5
4E0
100
AcDbEntity
  8
RACCORDO
100
AcDbEllipse
 62
7
  6
CONTINUOUS
 10
8.4539170906
 20
15.2204220653
 30
0.0
 11
-1.8480888181
 21
-0.7655034529
 31
0.0
 40
0.9998215708
 41
2.7489566578
 42
3.5342286494
  0
ELLIPSE
  5
4E1
100
AcDbEntity
  8
RACCORDO
100
AcDbEllipse
 62
7
  6
CONTINUOUS
 10
8.1515906655
 20
-1.1053183367
 30
0.0
 11
0.9999976196
 21
-0.2679777991
 31
0.0
 40
0.0081421982
 41
-1.5686143967
 42
-0.0152713624
  0
ELLIPSE
  5
4E2
100
AcDbEntity
  8
RACCORDO
100
AcDbEllipse
 62
7
  6
CONTINUOUS
 10
-9.1940458736
 20
-1.1053183367
 30
0.0
 11
0.9999976196
 21
0.2679777991
 31
0.0
 40
0.0081421982
 41
-3.1263212912
 42
-1.5729782569
  0
ELLIPSE
  5
4E3
100
AcDbEntity
  8
RACCORDO
100
AcDbEllipse
 62
7
  6
CONTINUOUS
 10
1.4752816555
 20
-7.1015416405
 30
0.0
 11
0.5774690812
 21
0.9999668392
 31
0.0
 40
0.0141024672
 41
-4.7042451516
 42
-3.1509021173
  0
ELLIPSE
  5
4E4
100
AcDbEntity
  8
0
100
AcDbEllipse
 62
7
  6
CONTINUOUS
 10
-10.5350313435
 20
0.721276629
 30
0.0
 11
-0.0
 21
2.0155045024
 31
0.0
 40
0.0174552558
 41
0.0040496413
 42
3.1375430123
  0
ELLIPSE
  5
4E5
100
AcDbEntity
  8
0
100
AcDbEllipse
 62
7
  6
CONTINUOUS
 10
9.4925761354
 20
0.721276629
 30
0.0
 11
0.0
 21
2.0155045024
 31
0.0
 40
0.0174552558
 41
-3.1375430123
 42
-0.0040496413
  0
ELLIPSE
  5
4E6
100
AcDbEntity
  8
RACCORDO
100
AcDbEllipse
 62
7
  6
CONTINUOUS
 10
8.5286200679
 20
-7.478571043
 30
0.0
 11
0.7073221892
 21
-0.7073221892
 31
0.0
 40
0.9996954599
 41
-0.7852458701
 42
0.7852458701
  0
ELLIPSE
  5
4E7
100
AcDbEntity
  8
RACCORDO
100
AcDbEllipse
 62
7
  6
CONTINUOUS
 10
-9.571075276
 20
16.121124301
 30
0.0
 11
0.7073221892
 21
-0.7073221892
 31
0.0
 40
0.9996954599
 41
2.3563467834
 42
3.9268385237
  0
ELLIPSE
  5
4E8
100
AcDbEntity
  8
RACCORDO
100
AcDbEllipse
 62
7
  6
CONTINUOUS
 10
8.5286200679
 20
16.121124301
 30
0.0
 11
0.7073221892
 21
0.7073221892
 31
0.0
 40
0.9996954599
 41
-0.7852458701
 42
0.7852458701
  0
ELLIPSE
  5
4E9
100
AcDbEntity
  8
RACCORDO
100
AcDbEllipse
 62
7
  6
CONTINUOUS
 10
-9.571075276
 20
-7.478571043
 30
0.0
 11
0.7073221892
 21
0.7073221892
 31
0.0
 40
0.9996954599
 41
-3.9268385237
 42
-2.3563467834
  0
ENDSEC
  0
SECTION
  2
OBJECTS
  0
DICTIONARY
  5
C
100
AcDbDictionary
280
0
281
1
  3
ACAD_GROUP
350
D
  3
ACAD_MLINESTYLE
350
17
  3
ACAD_LAYOUT
350
1A
  3
ACAD_PLOTSETTINGS
350
19
  3
ACAD_PLOTSTYLENAME
350
E
  0
DICTIONARY
  5
D
102
{ACAD_REACTORS
330
C
102
}
100
AcDbDictionary
280
0
281
1
  0
ACDBDICTIONARYWDFLT
  5
E
102
{ACAD_REACTORS
330
C
102
}
100
AcDbDictionary
281
1
  3
Normal
350
F
100
AcDbDictionaryWithDefault
340
F
  0
DICTIONARY
  5
17
102
{ACAD_REACTORS
330
C
102
}
100
AcDbDictionary
280
0
281
1
  3
Standard
350
18
  0
DICTIONARY
  5
19
102
{ACAD_REACTORS
330
C
102
}
100
AcDbDictionary
281
1
  0
DICTIONARY
  5
1A
102
{ACAD_REACTORS
330
C
102
}
100
AcDbDictionary
281
1
  3
Model
350
4EA
  3
Layout1
350
4EB
  0
ACDBPLACEHOLDER
  5
F
102
{ACAD_REACTORS
330
E
102
}
  0
MLINESTYLE
  5
18
102
{ACAD_REACTORS
330
17
102
}
100
AcDbMlineStyle
  2
STANDARD
 70
0
  3

 62
256
 51
90.0
 52
90.0
 71
2
 49
0.5
 62
256
  6
BYLAYER
 49
-0.5
 62
256
  6
BYLAYER
  0
LAYOUT
  5
4EA
102
{ACAD_REACTORS
330
1A
102
}
100
AcDbPlotSettings
  1

  2
none_device
  4
ISO_A4_(297.00_x_210.00_MM)
  6

 40
0.0
 41
0.0
 42
0.0
 43
0.0
 44
297.0
 45
210.0
 46
0.0
 47
0.0
 48
0.0
 49
0.0
140
0.0
141
0.0
142
1.0
143
1.0
 70
1024
 72
1
 73
0
 74
0
  7

 75
0
147
1.0
148
0.0
149
0.0
100
AcDbLayout
  1
Model
 70
0
 71
0
 10
0.0
 20
0.0
 11
297.0
 21
210.0
 12
0.0
 22
0.0
 32
0.0
 14
0.0
 24
0.0
 34
0.0
 15
0.0
 25
0.0
 35
0.0
146
0.0
 13
0.0
 23
0.0
 33
0.0
 16
1.0
 26
0.0
 36
0.0
 17
0.0
 27
1.0
 37
0.0
 76
0
330
211
345
0
346
0
  0
LAYOUT
  5
4EB
102
{ACAD_REACTORS
330
1A
102
}
100
AcDbPlotSettings
  1

  2
none_device
  4
ISO_A4_(297.00_x_210.00_MM)
  6

 40
0.0
 41
0.0
 42
0.0
 43
0.0
 44
297.0
 45
210.0
 46
0.0
 47
0.0
 48
0.0
 49
0.0
140
0.0
141
0.0
142
1.0
143
1.0
 70
0
 72
1
 73
0
 74
0
  7

 75
0
147
1.0
148
0.0
149
0.0
100
AcDbLayout
  1
Layout1
 70
0
 71
1
 10
0.0
 20
0.0
 11
297.0
 21
210.0
 12
0.0
 22
0.0
 32
0.0
 14
0.0
 24
0.0
 34
0.0
 15
0.0
 25
0.0
 35
0.0
146
0.0
 13
0.0
 23
0.0
 33
0.0
 16
1.0
 26
0.0
 36
0.0
 17
0.0
 27
1.0
 37
0.0
 76
0
330
212
345
0
346
0
  0
ENDSEC
  0
EOF
