  0
SECTION
  2
HEADER
  9
$ACADVER
  1
AC1015
  9
$DWGCODEPAGE
  3
ANSI_1252
  9
$EXTMAX
 10
297.0
 20
210.0
 30
0.0
  9
$EXTMIN
 10
0.0
 20
0.0
 30
0.0
  9
$LIMMIN
 10
0.0
 20
0.0
  9
$LIMMAX
 10
297.0
 20
210.0
  9
$VIEWCTR
 10
148.5
 20
105.0
  9
$VIEWSIZE
 40
210.0
  9
$CLAYER
  8
0
  9
$LTSCALE
 40
16.335
  9
$CELTYPE
  6
BYLAYER
  9
$DIMSCALE
 40
1.0
  9
$DIMASZ
 40
3.0
  9
$DIMEXO
 40
0.5
  9
$DIMDLI
 40
11.286
  9
$DIMEXE
 40
1.5
  9
$DIMCEN
 40
2.673
  9
$DIMLFAC
 40
1.0
  9
$DIMBLK
  1
_FILLED
  9
$DIMTXT
 40
3.0
  9
$DIMTOL
 70
1
  9
$DIMLIM
 70
0
  9
$DIMTFAC
 40
1.0
  9
$DIMTP
 40
0.01
  9
$DIMTM
 40
0.01
  9
$DIMGAP
 40
0.625
  9
$DIMDSEP
 70
44
  9
$PDMODE
 70
3
  9
$PDSIZE
 40
3.0
  9
$HANDSEED
  5
7E5
  9
$TILEMODE
 70
1
  9
$MEASUREMENT
 70
1
  9
$INSUNITS
 70
4
  0
ENDSEC
  0
SECTION
  2
CLASSES
  0
CLASS
  1
ACDBDICTIONARYWDFLT
  2
AcDbDictionaryWithDefault
  3
AutoCAD 2000
 90
0
280
0
281
0
  0
CLASS
  1
ACDBPLACEHOLDER
  2
AcDbPlaceHolder
  3
AutoCAD 2000
 90
0
280
0
281
0
  0
CLASS
  1
LAYOUT
  2
AcDbLayout
  3
AutoCAD 2000
 90
0
280
0
281
0
  0
ENDSEC
  0
SECTION
  2
TABLES
  0
TABLE
  2
VPORT
  5
8
100
AcDbSymbolTable
 70
2
  0
VPORT
  5
1F4
100
AcDbSymbolTableRecord
100
AcDbViewportTableRecord
  2
*ACTIVE
 70
0
 10
0.0
 20
0.0
 11
1.0
 21
1.0
 12
148.5
 22
105.0
 13
0.0
 23
0.0
 14
1.0
 24
1.0
 15
0.0
 25
0.0
 16
0.0
 26
0.0
 36
1.0
 17
0.0
 27
0.0
 37
0.0
 40
210.0
 41
1.4142857143
 42
50.0
 43
0.0
 44
0.0
 50
0.0
 51
0.0
 71
0
 72
100
 73
1
 74
1
 75
0
 76
0
 77
0
 78
0
  0
ENDTAB
  0
TABLE
  2
LTYPE
  5
5
100
AcDbSymbolTable
 70
6
  0
LTYPE
  5
14
100
AcDbSymbolTableRecord
100
AcDbLinetypeTableRecord
  2
BYBLOCK
 70
0
  3

 72
65
 73
0
 40
0.0
  0
LTYPE
  5
15
100
AcDbSymbolTableRecord
100
AcDbLinetypeTableRecord
  2
BYLAYER
 70
0
  3

 72
65
 73
0
 40
0.0
  0
LTYPE
  5
16
100
AcDbSymbolTableRecord
100
AcDbLinetypeTableRecord
  2
CONTINUOUS
 70
64
  3
Solid line
 72
65
 73
0
 40
0.0
  0
LTYPE
  5
1F5
100
AcDbSymbolTableRecord
100
AcDbLinetypeTableRecord
  2
CENTER
 70
64
  3
____ _ ____ _ ____ _ ____ _ ____ _ ____ _ ____
 72
65
 73
4
 40
0.6
 49
0.375
 74
0
 49
-0.075
 74
0
 49
0.075
 74
0
 49
-0.075
 74
0
  0
LTYPE
  5
1F6
100
AcDbSymbolTableRecord
100
AcDbLinetypeTableRecord
  2
HIDDEN
 70
64
  3
- - - - - - - - - - - - - - - - - - - -
 72
65
 73
2
 40
0.2
 49
0.1
 74
0
 49
-0.1
 74
0
  0
LTYPE
  5
1F7
100
AcDbSymbolTableRecord
100
AcDbLinetypeTableRecord
  2
PHANTOM
 70
64
  3
_____ _ _ _____ _ _ _____ _ _ _____
 72
65
 73
6
 40
0.8
 49
0.45
 74
0
 49
-0.05
 74
0
 49
0.1
 74
0
 49
-0.05
 74
0
 49
0.1
 74
0
 49
-0.05
 74
0
  0
LTYPE
  5
1F8
100
AcDbSymbolTableRecord
100
AcDbLinetypeTableRecord
  2
DOT
 70
64
  3
. . . . . . . . . . . . . . . . . . . .
 72
65
 73
2
 40
0.2
 49
0.1
 74
0
 49
-0.1
 74
0
  0
LTYPE
  5
1F9
100
AcDbSymbolTableRecord
100
AcDbLinetypeTableRecord
  2
DASHED
 70
64
  3
- - - - - - - - - - - - - - - - - - - -
 72
65
 73
2
 40
0.2
 49
0.1
 74
0
 49
-0.1
 74
0
  0
ENDTAB
  0
TABLE
  2
LAYER
  5
2
100
AcDbSymbolTable
 70
36
  0
LAYER
  5
10
100
AcDbSymbolTableRecord
100
AcDbLayerTableRecord
  2
0
 70
0
 62
7
  6
CONTINUOUS
370
-3
390
F
  0
LAYER
  5
1FA
100
AcDbSymbolTableRecord
100
AcDbLayerTableRecord
  2
DEFAULT_1
 70
0
 62
7
  6
CENTER
370
-3
390
F
  0
LAYER
  5
1FB
100
AcDbSymbolTableRecord
100
AcDbLayerTableRecord
  2
DEFAULT_2
 70
0
 62
7
  6
HIDDEN
370
-3
390
F
  0
LAYER
  5
1FC
100
AcDbSymbolTableRecord
100
AcDbLayerTableRecord
  2
DEFAULT_3
 70
0
 62
7
  6
PHANTOM
370
-3
390
F
  0
LAYER
  5
1FD
100
AcDbSymbolTableRecord
100
AcDbLayerTableRecord
  2
ASSI
 70
0
 62
7
  6
CONTINUOUS
370
-3
390
F
  0
LAYER
  5
1FE
100
AcDbSymbolTableRecord
100
AcDbLayerTableRecord
  2
COLOR11
 70
0
 62
7
  6
CONTINUOUS
370
-3
390
F
  0
LAYER
  5
1FF
100
AcDbSymbolTableRecord
100
AcDbLayerTableRecord
  2
COLOR5
 70
0
 62
7
  6
CONTINUOUS
370
-3
390
F
  0
LAYER
  5
200
100
AcDbSymbolTableRecord
100
AcDbLayerTableRecord
  2
COLOR9
 70
0
 62
7
  6
CONTINUOUS
370
-3
390
F
  0
LAYER
  5
201
100
AcDbSymbolTableRecord
100
AcDbLayerTableRecord
  2
COORDINATE
 70
0
 62
7
  6
CONTINUOUS
370
-3
390
F
  0
LAYER
  5
202
100
AcDbSymbolTableRecord
100
AcDbLayerTableRecord
  2
COORD_ORIGINE
 70
0
 62
7
  6
CONTINUOUS
370
-3
390
F
  0
LAYER
  5
203
100
AcDbSymbolTableRecord
100
AcDbLayerTableRecord
  2
COPY_PUBLISH
 70
0
 62
7
  6
CONTINUOUS
370
-3
390
F
  0
LAYER
  5
204
100
AcDbSymbolTableRecord
100
AcDbLayerTableRecord
  2
COSMETIC
 70
0
 62
7
  6
CONTINUOUS
370
-3
390
F
  0
LAYER
  5
205
100
AcDbSymbolTableRecord
100
AcDbLayerTableRecord
  2
CURVE
 70
0
 62
7
  6
CONTINUOUS
370
-3
390
F
  0
LAYER
  5
206
100
AcDbSymbolTableRecord
100
AcDbLayerTableRecord
  2
DRAFT
 70
0
 62
7
  6
CONTINUOUS
370
-3
390
F
  0
LAYER
  5
207
100
AcDbSymbolTableRecord
100
AcDbLayerTableRecord
  2
HDMI_222
 70
0
 62
7
  6
CONTINUOUS
370
-3
390
F
  0
LAYER
  5
208
100
AcDbSymbolTableRecord
100
AcDbLayerTableRecord
  2
HDMI_222_1
 70
0
 62
7
  6
CONTINUOUS
370
-3
390
F
  0
LAYER
  5
209
100
AcDbSymbolTableRecord
100
AcDbLayerTableRecord
  2
HDMI_BASE
 70
0
 62
7
  6
CONTINUOUS
370
-3
390
F
  0
LAYER
  5
20A
100
AcDbSymbolTableRecord
100
AcDbLayerTableRecord
  2
HDMI_BASE_1
 70
0
 62
7
  6
CONTINUOUS
370
-3
390
F
  0
LAYER
  5
20B
100
AcDbSymbolTableRecord
100
AcDbLayerTableRecord
  2
HDMI_COVER
 70
0
 62
7
  6
CONTINUOUS
370
-3
390
F
  0
LAYER
  5
20C
100
AcDbSymbolTableRecord
100
AcDbLayerTableRecord
  2
HDMI_COVER_1
 70
0
 62
7
  6
CONTINUOUS
370
-3
390
F
  0
LAYER
  5
20D
100
AcDbSymbolTableRecord
100
AcDbLayerTableRecord
  2
IMPORT
 70
0
 62
7
  6
CONTINUOUS
370
-3
390
F
  0
LAYER
  5
20E
100
AcDbSymbolTableRecord
100
AcDbLayerTableRecord
  2
IMPORT_IGES
 70
0
 62
7
  6
CONTINUOUS
370
-3
390
F
  0
LAYER
  5
20F
100
AcDbSymbolTableRecord
100
AcDbLayerTableRecord
  2
INCISIONI
 70
0
 62
7
  6
CONTINUOUS
370
-3
390
F
  0
LAYER
  5
210
100
AcDbSymbolTableRecord
100
AcDbLayerTableRecord
  2
INTFCLR_1
 70
0
 62
7
  6
CONTINUOUS
370
-3
390
F
  0
LAYER
  5
211
100
AcDbSymbolTableRecord
100
AcDbLayerTableRecord
  2
INTFCLR_3807
 70
0
 62
7
  6
CONTINUOUS
370
-3
390
F
  0
LAYER
  5
212
100
AcDbSymbolTableRecord
100
AcDbLayerTableRecord
  2
INTFCLR_9191
 70
0
 62
7
  6
CONTINUOUS
370
-3
390
F
  0
LAYER
  5
213
100
AcDbSymbolTableRecord
100
AcDbLayerTableRecord
  2
INTF_1
 70
0
 62
7
  6
CONTINUOUS
370
-3
390
F
  0
LAYER
  5
214
100
AcDbSymbolTableRecord
100
AcDbLayerTableRecord
  2
INTF_14
 70
0
 62
7
  6
CONTINUOUS
370
-3
390
F
  0
LAYER
  5
215
100
AcDbSymbolTableRecord
100
AcDbLayerTableRecord
  2
INTF_3
 70
0
 62
7
  6
CONTINUOUS
370
-3
390
F
  0
LAYER
  5
216
100
AcDbSymbolTableRecord
100
AcDbLayerTableRecord
  2
INTF_5
 70
0
 62
7
  6
CONTINUOUS
370
-3
390
F
  0
LAYER
  5
217
100
AcDbSymbolTableRecord
100
AcDbLayerTableRecord
  2
LAY0001
 70
0
 62
7
  6
CONTINUOUS
370
-3
390
F
  0
LAYER
  5
218
100
AcDbSymbolTableRecord
100
AcDbLayerTableRecord
  2
NOTE
 70
0
 62
7
  6
CONTINUOUS
370
-3
390
F
  0
LAYER
  5
219
100
AcDbSymbolTableRecord
100
AcDbLayerTableRecord
  2
PIANI
 70
0
 62
7
  6
CONTINUOUS
370
-3
390
F
  0
LAYER
  5
21A
100
AcDbSymbolTableRecord
100
AcDbLayerTableRecord
  2
PIANI_ORIGINE
 70
0
 62
7
  6
CONTINUOUS
370
-3
390
F
  0
LAYER
  5
21B
100
AcDbSymbolTableRecord
100
AcDbLayerTableRecord
  2
PIANI_RIFERIMENTO
 70
0
 62
7
  6
CONTINUOUS
370
-3
390
F
  0
LAYER
  5
21C
100
AcDbSymbolTableRecord
100
AcDbLayerTableRecord
  2
PUNTI
 70
0
 62
7
  6
CONTINUOUS
370
-3
390
F
  0
LAYER
  5
21D
100
AcDbSymbolTableRecord
100
AcDbLayerTableRecord
  2
RACCORDO
 70
0
 62
7
  6
CONTINUOUS
370
-3
390
F
  0
LAYER
  5
21E
100
AcDbSymbolTableRecord
100
AcDbLayerTableRecord
  2
SMUSSO
 70
0
 62
7
  6
CONTINUOUS
370
-3
390
F
  0
LAYER
  5
21F
100
AcDbSymbolTableRecord
100
AcDbLayerTableRecord
  2
SNAPLINE
 70
0
 62
7
  6
CONTINUOUS
370
-3
390
F
  0
LAYER
  5
220
100
AcDbSymbolTableRecord
100
AcDbLayerTableRecord
  2
SUPERFICI
 70
0
 62
7
  6
CONTINUOUS
370
-3
390
F
  0
LAYER
  5
221
100
AcDbSymbolTableRecord
100
AcDbLayerTableRecord
  2
TRASH
 70
0
 62
7
  6
CONTINUOUS
370
-3
390
F
  0
LAYER
  5
222
100
AcDbSymbolTableRecord
100
AcDbLayerTableRecord
  2
XSEC_DATUMS
 70
0
 62
7
  6
CONTINUOUS
370
-3
390
F
  0
LAYER
  5
223
100
AcDbSymbolTableRecord
100
AcDbLayerTableRecord
  2
___SHELL
 70
0
 62
7
  6
CONTINUOUS
370
-3
390
F
  0
ENDTAB
  0
TABLE
  2
STYLE
  5
3
100
AcDbSymbolTable
 70
1
  0
STYLE
  5
11
100
AcDbSymbolTableRecord
100
AcDbTextStyleTableRecord
  2
STANDARD
 70
0
 40
0.0
 41
0.8
 50
0.0
 71
0
 42
0.2
  3
txt
  4

  0
STYLE
  5
224
100
AcDbSymbolTableRecord
100
AcDbTextStyleTableRecord
  2
TEXTSTYLE_1
 70
0
 40
0.0
 41
0.8
 50
0.0
 71
0
 42
0.2
  3
gdt
  4

  0
ENDTAB
  0
TABLE
  2
VIEW
  5
6
100
AcDbSymbolTable
 70
0
  0
ENDTAB
  0
TABLE
  2
UCS
  5
7
100
AcDbSymbolTable
 70
0
  0
ENDTAB
  0
TABLE
  2
APPID
  5
9
100
AcDbSymbolTable
 70
1
  0
APPID
  5
225
100
AcDbSymbolTableRecord
100
AcDbRegAppTableRecord
  2
ACAD
 70
0
  0
ENDTAB
  0
TABLE
  2
BLOCK_RECORD
  5
1
100
AcDbSymbolTable
 70
0
  0
BLOCK_RECORD
  5
226
100
AcDbSymbolTableRecord
100
AcDbBlockTableRecord
  2
*Model_Space
  0
BLOCK_RECORD
  5
227
100
AcDbSymbolTableRecord
100
AcDbBlockTableRecord
  2
*Paper_Space
  0
ENDTAB
  0
TABLE
  2
DIMSTYLE
  5
A
100
AcDbSymbolTable
 70
1
100
AcDbDimStyleTable
 71
0
  0
DIMSTYLE
105
228
100
AcDbSymbolTableRecord
100
AcDbDimStyleTableRecord
  2
STANDARD
 70
0
  3

  4

 40
1.0
 41
3.0
 42
0.5
 43
0.38
 44
1.5
 45
0.0
 46
0.0
 47
0.01
 48
0.01
140
3.0
141
0.09
142
0.0
143
25.4
144
1.0
145
0.0
146
1.0
147
0.625
 71
1.0
 72
0.0
 73
0
 74
0
 75
0
 76
0
 77
1
 78
8
170
0
171
2
172
0
173
0
174
0
175
0
176
0
177
0
178
0
270
2
271
2
272
2
273
2
274
2
275
0
280
0
281
0
282
0
283
1
284
8
285
0
286
0
287
3
288
0
340
11
278
44
  0
ENDTAB
  0
ENDSEC
  0
SECTION
  2
BLOCKS
  0
BLOCK
  5
20
100
AcDbEntity
  8
0
100
AcDbBlockBegin
  2
*Model_Space
 70
0
 10
0.0
 20
0.0
 30
0.0
  3
*Model_Space
  1

  0
ENDBLK
  5
21
100
AcDbEntity
  8
0
100
AcDbBlockEnd
  0
BLOCK
  5
1C
100
AcDbEntity
  8
0
100
AcDbBlockBegin
  2
*Paper_Space
 70
0
 10
0.0
 20
0.0
 30
0.0
  3
*Paper_Space
  1

  0
ENDBLK
  5
1D
100
AcDbEntity
  8
0
100
AcDbBlockEnd
  0
ENDSEC
  0
SECTION
  2
ENTITIES
  0
LWPOLYLINE
  5
229
100
AcDbEntity
  8
ASSI
100
AcDbPolyline
 62
7
  6
CONTINUOUS
 90
9
 70
0
 10
-10.4929184493
 20
24.4820926258
 10
-10.4817699738
 20
24.4862507213
 10
-10.470436279
 20
24.4898736417
 10
-10.4589430388
 20
24.4929531817
 10
-10.4473162875
 20
24.4954823677
 10
-10.4355823661
 20
24.4974554741
 10
-10.4237678556
 20
24.4988680342
 10
-10.411899516
 20
24.4997168498
 10
-10.4000042308
 20
24.5
  0
LWPOLYLINE
  5
22A
100
AcDbEntity
  8
RACCORDO
100
AcDbPolyline
 62
7
  6
CONTINUOUS
 90
5
 70
0
 10
10.4473162875
 20
-24.4954823677
 10
10.4355823661
 20
-24.4974554741
 10
10.4237678556
 20
-24.4988680342
 10
10.411899516
 20
-24.4997168498
 10
10.4000042308
 20
-24.5
  0
LINE
  5
22B
100
AcDbEntity
  8
RACCORDO
100
AcDbLine
 62
7
  6
CONTINUOUS
 10
-10.4355823661
 20
-24.4974554741
 11
-10.4473162875
 21
-24.4954823677
  0
LWPOLYLINE
  5
22C
100
AcDbEntity
  8
ASSI
100
AcDbPolyline
 62
7
  6
CONTINUOUS
 90
6
 70
0
 10
-10.4355823661
 20
-24.4974554741
 10
-10.4473162875
 20
-24.4954823677
 10
-10.4589430388
 20
-24.4929531817
 10
-10.470436279
 20
-24.4898736417
 10
-10.4817699738
 20
-24.4862507213
 10
-10.4929184493
 20
-24.4820926258
  0
LWPOLYLINE
  5
22D
100
AcDbEntity
  8
RACCORDO
100
AcDbPolyline
 62
7
  6
CONTINUOUS
 90
26
 70
0
 10
-10.4473162875
 20
-24.4954823677
 10
-10.4589430388
 20
-24.4929531817
 10
-10.470436279
 20
-24.4898736417
 10
-10.4817699738
 20
-24.4862507213
 10
-10.4929184493
 20
-24.4820926258
 10
-10.5038564463
 20
-24.4774087722
 10
-10.5145591876
 20
-24.4722097688
 10
-10.5250024283
 20
-24.4665073916
 10
-10.5351625059
 20
-24.4603145581
 10
-10.5450164051
 20
-24.4536452955
 10
-10.5545418038
 20
-24.4465147107
 10
-10.5637171191
 20
-24.4389389589
 10
-10.5725215661
 20
-24.4309352005
 10
-10.5809352005
 20
-24.4225215661
 10
-10.5889389589
 20
-24.4137171191
 10
-10.5965147107
 20
-24.4045418038
 10
-10.6036452955
 20
-24.3950164051
 10
-10.6103145581
 20
-24.3851625059
 10
-10.6165073916
 20
-24.3750024283
 10
-10.6222097688
 20
-24.3645591876
 10
-10.6274087722
 20
-24.3538564463
 10
-10.6320926258
 20
-24.3429184493
 10
-10.6362507213
 20
-24.3317699738
 10
-10.6398736417
 20
-24.320436279
 10
-10.6429531817
 20
-24.3089430388
 10
-10.6454823677
 20
-24.2973162875
  0
LWPOLYLINE
  5
22E
100
AcDbEntity
  8
ASSI
100
AcDbPolyline
 62
7
  6
CONTINUOUS
 90
18
 70
0
 10
-10.4929184493
 20
-24.4820926258
 10
-10.5038564463
 20
-24.4774087722
 10
-10.5145591876
 20
-24.4722097688
 10
-10.5250024283
 20
-24.4665073916
 10
-10.5351625059
 20
-24.4603145581
 10
-10.5450164051
 20
-24.4536452955
 10
-10.5545418038
 20
-24.4465147107
 10
-10.5637171191
 20
-24.4389389589
 10
-10.5725215661
 20
-24.4309352005
 10
-10.5809352005
 20
-24.4225215661
 10
-10.5889389589
 20
-24.4137171191
 10
-10.5965147107
 20
-24.4045418038
 10
-10.6036452955
 20
-24.3950164051
 10
-10.6103145581
 20
-24.3851625059
 10
-10.6165073916
 20
-24.3750024283
 10
-10.6222097688
 20
-24.3645591876
 10
-10.6274087722
 20
-24.3538564463
 10
-10.6320926258
 20
-24.3429184493
  0
LINE
  5
22F
100
AcDbEntity
  8
RACCORDO
100
AcDbLine
 62
253
  6
CONTINUOUS
 10
-10.6466029582
 20
22.392895367
 11
-10.6323926099
 21
22.4
  0
LINE
  5
230
100
AcDbEntity
  8
ASSI
100
AcDbLine
 62
253
  6
CONTINUOUS
 10
-10.6466029582
 20
22.392895367
 11
-10.6323926099
 21
22.4
  0
LINE
  5
231
100
AcDbEntity
  8
RACCORDO
100
AcDbLine
 62
253
  6
CONTINUOUS
 10
-10.3956323968
 20
-24.495628166
 11
-8.5043676032
 21
-24.495628166
  0
LINE
  5
232
100
AcDbEntity
  8
ASSI
100
AcDbLine
 62
7
  6
CONTINUOUS
 10
-10.3956323968
 20
-24.495628166
 11
-8.5043676032
 21
-24.495628166
  0
LINE
  5
233
100
AcDbEntity
  8
RACCORDO
100
AcDbLine
 62
253
  6
CONTINUOUS
 10
8.5043676032
 20
-24.495628166
 11
10.3956323968
 21
-24.495628166
  0
LINE
  5
234
100
AcDbEntity
  8
ASSI
100
AcDbLine
 62
7
  6
CONTINUOUS
 10
8.5043676032
 20
-24.495628166
 11
10.3956323968
 21
-24.495628166
  0
LINE
  5
235
100
AcDbEntity
  8
RACCORDO
100
AcDbLine
 62
253
  6
CONTINUOUS
 10
8.254371834
 20
-24.2456323968
 11
10.645628166
 21
-24.2456323968
  0
LINE
  5
236
100
AcDbEntity
  8
RACCORDO
100
AcDbLine
 62
253
  6
CONTINUOUS
 10
-8.254371834
 20
-24.2456323968
 11
-10.645628166
 21
-24.2456323968
  0
LINE
  5
237
100
AcDbEntity
  8
ASSI
100
AcDbLine
 62
253
  6
CONTINUOUS
 10
-8.254371834
 20
-24.2456323968
 11
-10.645628166
 21
-24.2456323968
  0
LINE
  5
238
100
AcDbEntity
  8
ASSI
100
AcDbLine
 62
253
  6
CONTINUOUS
 10
8.254371834
 20
-24.2456323968
 11
10.645628166
 21
-24.2456323968
  0
LINE
  5
239
100
AcDbEntity
  8
RACCORDO
100
AcDbLine
 62
253
  6
CONTINUOUS
 10
-8.254371834
 20
-23.8443375673
 11
-10.645628166
 21
-23.8443375673
  0
LINE
  5
23A
100
AcDbEntity
  8
ASSI
100
AcDbLine
 62
253
  6
CONTINUOUS
 10
-8.254371834
 20
-23.8443375673
 11
-10.645628166
 21
-23.8443375673
  0
LINE
  5
23B
100
AcDbEntity
  8
DRAFT
100
AcDbLine
 62
7
  6
CONTINUOUS
 10
-4.4
 20
-23.8
 11
4.4
 21
-23.8
  0
LINE
  5
23C
100
AcDbEntity
  8
ASSI
100
AcDbLine
 62
7
  6
CONTINUOUS
 10
-4.4
 20
-23.8
 11
4.4
 21
-23.8
  0
LINE
  5
23D
100
AcDbEntity
  8
DRAFT
100
AcDbLine
 62
7
  6
CONTINUOUS
 10
-3.5
 20
-23.7941821702
 11
3.5
 21
-23.7941821702
  0
LINE
  5
23E
100
AcDbEntity
  8
ASSI
100
AcDbLine
 62
7
  6
CONTINUOUS
 10
-3.5
 20
-23.7941821702
 11
3.5
 21
-23.7941821702
  0
LINE
  5
23F
100
AcDbEntity
  8
ASSI
100
AcDbLine
 62
7
  6
CONTINUOUS
 10
-4.3563493531
 20
-23.7563493531
 11
-3.5
 21
-23.7563493531
  0
LINE
  5
240
100
AcDbEntity
  8
ASSI
100
AcDbLine
 62
7
  6
CONTINUOUS
 10
3.5
 20
-23.7563493531
 11
4.3563493531
 21
-23.7563493531
  0
LINE
  5
241
100
AcDbEntity
  8
RACCORDO
100
AcDbLine
 62
7
  6
CONTINUOUS
 10
8.5043676032
 20
-23.7
 11
10.3956323968
 21
-23.7
  0
LINE
  5
242
100
AcDbEntity
  8
ASSI
100
AcDbLine
 62
7
  6
CONTINUOUS
 10
8.5043676032
 20
-23.7
 11
10.3956323968
 21
-23.7
  0
LINE
  5
243
100
AcDbEntity
  8
RACCORDO
100
AcDbLine
 62
253
  6
CONTINUOUS
 10
-8.5043676032
 20
-23.6278312164
 11
-10.3956323968
 21
-23.6278312164
  0
LINE
  5
244
100
AcDbEntity
  8
ASSI
100
AcDbLine
 62
253
  6
CONTINUOUS
 10
-8.5043676032
 20
-23.6278312164
 11
-10.3956323968
 21
-23.6278312164
  0
LWPOLYLINE
  5
245
100
AcDbEntity
  8
RACCORDO
100
AcDbPolyline
 62
7
  6
CONTINUOUS
 90
4
 70
0
 10
-10.4000042308
 20
-24.5
 10
-10.411899516
 20
-24.4997168498
 10
-10.4237678556
 20
-24.4988680342
 10
-10.4355823661
 20
-24.4974554741
  0
LWPOLYLINE
  5
246
100
AcDbEntity
  8
ASSI
100
AcDbPolyline
 62
7
  6
CONTINUOUS
 90
4
 70
0
 10
-10.4000042308
 20
-24.5
 10
-10.411899516
 20
-24.4997168498
 10
-10.4237678556
 20
-24.4988680342
 10
-10.4355823661
 20
-24.4974554741
  0
LWPOLYLINE
  5
247
100
AcDbEntity
  8
RACCORDO
100
AcDbPolyline
 62
7
  6
CONTINUOUS
 90
4
 70
0
 10
8.4999957692
 20
-24.5
 10
8.488100484
 20
-24.4997168498
 10
8.4762321444
 20
-24.4988680342
 10
8.4644176339
 20
-24.4974554741
  0
LWPOLYLINE
  5
248
100
AcDbEntity
  8
ASSI
100
AcDbPolyline
 62
7
  6
CONTINUOUS
 90
4
 70
0
 10
8.4999957692
 20
-24.5
 10
8.488100484
 20
-24.4997168498
 10
8.4762321444
 20
-24.4988680342
 10
8.4644176339
 20
-24.4974554741
  0
LWPOLYLINE
  5
249
100
AcDbEntity
  8
RACCORDO
100
AcDbPolyline
 62
253
  6
CONTINUOUS
 90
31
 70
0
 10
-10.3956323968
 20
-24.495628166
 10
-10.4086847368
 20
-24.4952867588
 10
-10.4217096311
 20
-24.4942634962
 10
-10.4346714057
 20
-24.492559892
 10
-10.4475371245
 20
-24.4901787618
 10
-10.4602685897
 20
-24.4871256484
 10
-10.4728227742
 20
-24.4834102087
 10
-10.4851625782
 20
-24.4790436576
 10
-10.4972569343
 20
-24.4740372277
 10
-10.5090730125
 20
-24.4684044791
 10
-10.520578613
 20
-24.4621606774
 10
-10.5317419314
 20
-24.4553229956
 10
-10.5425320106
 20
-24.4479103656
 10
-10.5529191364
 20
-24.4399432233
 10
-10.5628749736
 20
-24.4314433264
 10
-10.572372308
 20
-24.4224339046
 10
-10.5813851271
 20
-24.4129396114
 10
-10.5898886687
 20
-24.402986508
 10
-10.5978595768
 20
-24.3926019187
 10
-10.6052759837
 20
-24.3818143284
 10
-10.6121175595
 20
-24.3706533025
 10
-10.6183655387
 20
-24.3591494467
 10
-10.6240027869
 20
-24.347334301
 10
-10.6290138424
 20
-24.3352402638
 10
-10.6333849575
 20
-24.3229005077
 10
-10.637104147
 20
-24.3103488602
 10
-10.6401612081
 20
-24.2976197463
 10
-10.6425477509
 20
-24.2847481067
 10
-10.644257234
 20
-24.2717692492
 10
-10.645284977
 20
-24.2587187509
 10
-10.645628166
 20
-24.2456323968
  0
LWPOLYLINE
  5
24A
100
AcDbEntity
  8
ASSI
100
AcDbPolyline
 62
7
  6
CONTINUOUS
 90
31
 70
0
 10
-10.3956323968
 20
-24.495628166
 10
-10.4086847368
 20
-24.4952867588
 10
-10.4217096311
 20
-24.4942634962
 10
-10.4346714057
 20
-24.492559892
 10
-10.4475371245
 20
-24.4901787618
 10
-10.4602685897
 20
-24.4871256484
 10
-10.4728227742
 20
-24.4834102087
 10
-10.4851625782
 20
-24.4790436576
 10
-10.4972569343
 20
-24.4740372277
 10
-10.5090730125
 20
-24.4684044791
 10
-10.520578613
 20
-24.4621606774
 10
-10.5317419314
 20
-24.4553229956
 10
-10.5425320106
 20
-24.4479103656
 10
-10.5529191364
 20
-24.4399432233
 10
-10.5628749736
 20
-24.4314433264
 10
-10.572372308
 20
-24.4224339046
 10
-10.5813851271
 20
-24.4129396114
 10
-10.5898886687
 20
-24.402986508
 10
-10.5978595768
 20
-24.3926019187
 10
-10.6052759837
 20
-24.3818143284
 10
-10.6121175595
 20
-24.3706533025
 10
-10.6183655387
 20
-24.3591494467
 10
-10.6240027869
 20
-24.347334301
 10
-10.6290138424
 20
-24.3352402638
 10
-10.6333849575
 20
-24.3229005077
 10
-10.637104147
 20
-24.3103488602
 10
-10.6401612081
 20
-24.2976197463
 10
-10.6425477509
 20
-24.2847481067
 10
-10.644257234
 20
-24.2717692492
 10
-10.645284977
 20
-24.2587187509
 10
-10.645628166
 20
-24.2456323968
  0
LWPOLYLINE
  5
24B
100
AcDbEntity
  8
RACCORDO
100
AcDbPolyline
 62
253
  6
CONTINUOUS
 90
31
 70
0
 10
8.5043676032
 20
-24.495628166
 10
8.4912841172
 20
-24.4952851274
 10
8.4782364906
 20
-24.4942578375
 10
8.4652604845
 20
-24.492549112
 10
8.4523916636
 20
-24.490163634
 10
8.4396652991
 20
-24.4871079418
 10
8.4271162714
 20
-24.4833904104
 10
8.4147789751
 20
-24.4790212289
 10
8.4026872245
 20
-24.4740123724
 10
8.3908741607
 20
-24.4683775693
 10
8.3793721611
 20
-24.4621322634
 10
8.3682127506
 20
-24.455293572
 10
8.357426515
 20
-24.4478802386
 10
8.3470430174
 20
-24.4399125818
 10
8.3370907169
 20
-24.4314124395
 10
8.327596891
 20
-24.422403109
 10
8.3185875605
 20
-24.4129092831
 10
8.3100874182
 20
-24.4029569826
 10
8.3021197614
 20
-24.392573485
 10
8.294706428
 20
-24.3817872494
 10
8.2878677366
 20
-24.3706278389
 10
8.2816224307
 20
-24.3591258393
 10
8.2759876276
 20
-24.3473127755
 10
8.2709787711
 20
-24.3352210249
 10
8.2666095896
 20
-24.3228837286
 10
8.2628920582
 20
-24.3103347009
 10
8.259836366
 20
-24.2976083364
 10
8.257450888
 20
-24.2847395155
 10
8.2557421625
 20
-24.2717635094
 10
8.2547148726
 20
-24.2587158828
 10
8.254371834
 20
-24.2456323968
  0
LWPOLYLINE
  5
24C
100
AcDbEntity
  8
ASSI
100
AcDbPolyline
 62
7
  6
CONTINUOUS
 90
31
 70
0
 10
8.5043676032
 20
-24.495628166
 10
8.4912841172
 20
-24.4952851274
 10
8.4782364906
 20
-24.4942578375
 10
8.4652604845
 20
-24.492549112
 10
8.4523916636
 20
-24.490163634
 10
8.4396652991
 20
-24.4871079418
 10
8.4271162714
 20
-24.4833904104
 10
8.4147789751
 20
-24.4790212289
 10
8.4026872245
 20
-24.4740123724
 10
8.3908741607
 20
-24.4683775693
 10
8.3793721611
 20
-24.4621322634
 10
8.3682127506
 20
-24.455293572
 10
8.357426515
 20
-24.4478802386
 10
8.3470430174
 20
-24.4399125818
 10
8.3370907169
 20
-24.4314124395
 10
8.327596891
 20
-24.422403109
 10
8.3185875605
 20
-24.4129092831
 10
8.3100874182
 20
-24.4029569826
 10
8.3021197614
 20
-24.392573485
 10
8.294706428
 20
-24.3817872494
 10
8.2878677366
 20
-24.3706278389
 10
8.2816224307
 20
-24.3591258393
 10
8.2759876276
 20
-24.3473127755
 10
8.2709787711
 20
-24.3352210249
 10
8.2666095896
 20
-24.3228837286
 10
8.2628920582
 20
-24.3103347009
 10
8.259836366
 20
-24.2976083364
 10
8.257450888
 20
-24.2847395155
 10
8.2557421625
 20
-24.2717635094
 10
8.2547148726
 20
-24.2587158828
 10
8.254371834
 20
-24.2456323968
  0
LWPOLYLINE
  5
24D
100
AcDbEntity
  8
RACCORDO
100
AcDbPolyline
 62
7
  6
CONTINUOUS
 90
11
 70
0
 10
-10.8560370741
 20
-22.3472138017
 10
-10.8381874588
 20
-22.3557023577
 10
-10.8183694928
 20
-22.3641420636
 10
-10.7981597008
 20
-22.3717368058
 10
-10.7776108967
 20
-22.3784610765
 10
-10.7567435211
 20
-22.3843026901
 10
-10.7356119114
 20
-22.3892409661
 10
-10.714323887
 20
-22.3932510251
 10
-10.6929434461
 20
-22.396327304
 10
-10.6714883972
 20
-22.3984737398
 10
-10.6499991391
 20
-22.3996911987
  0
LINE
  5
24E
100
AcDbEntity
  8
RACCORDO
100
AcDbLine
 62
253
  6
CONTINUOUS
 10
-10.6323926099
 20
-22.4
 11
-10.6466029582
 21
-22.392895367
  0
LINE
  5
24F
100
AcDbEntity
  8
ASSI
100
AcDbLine
 62
253
  6
CONTINUOUS
 10
-10.6323926099
 20
-22.4
 11
-10.6466029582
 21
-22.392895367
  0
LINE
  5
250
100
AcDbEntity
  8
RACCORDO
100
AcDbLine
 62
7
  6
CONTINUOUS
 10
-8.0840245667
 20
20.9917082642
 11
-8.2465127091
 21
20.9104703804
  0
LINE
  5
251
100
AcDbEntity
  8
ASSI
100
AcDbLine
 62
7
  6
CONTINUOUS
 10
-8.0840245667
 20
20.9917082642
 11
-8.2465127091
 21
20.9104703804
  0
LWPOLYLINE
  5
252
100
AcDbEntity
  8
RACCORDO
100
AcDbPolyline
 62
7
  6
CONTINUOUS
 90
5
 70
0
 10
-8.4526837125
 20
-24.4954823677
 10
-8.4644176339
 20
-24.4974554741
 10
-8.4762321444
 20
-24.4988680342
 10
-8.488100484
 20
-24.4997168498
 10
-8.4999957692
 20
-24.5
  0
LINE
  5
253
100
AcDbEntity
  8
ASSI
100
AcDbLine
 62
7
  6
CONTINUOUS
 10
10.6714883972
 20
-22.3984737398
 11
10.6929434461
 21
-22.396327304
  0
LWPOLYLINE
  5
254
100
AcDbEntity
  8
RACCORDO
100
AcDbPolyline
 62
7
  6
CONTINUOUS
 90
11
 70
0
 10
10.6499991391
 20
-22.3996911987
 10
10.6714883972
 20
-22.3984737398
 10
10.6929434461
 20
-22.396327304
 10
10.714323887
 20
-22.3932510251
 10
10.7356119114
 20
-22.3892409661
 10
10.7567435211
 20
-22.3843026901
 10
10.7776108967
 20
-22.3784610765
 10
10.7981597008
 20
-22.3717368058
 10
10.8183694928
 20
-22.3641420636
 10
10.8381874588
 20
-22.3557023577
 10
10.8560370741
 20
-22.3472138017
  0
LINE
  5
255
100
AcDbEntity
  8
ASSI
100
AcDbLine
 62
7
  6
CONTINUOUS
 10
10.6499991391
 20
-22.3996911987
 11
10.6714883972
 21
-22.3984737398
  0
LINE
  5
256
100
AcDbEntity
  8
RACCORDO
100
AcDbLine
 62
7
  6
CONTINUOUS
 10
10.65
 20
-22.399689968
 11
10.6460883071
 21
-22.3998124433
  0
LINE
  5
257
100
AcDbEntity
  8
ASSI
100
AcDbLine
 62
7
  6
CONTINUOUS
 10
10.65
 20
-22.399689968
 11
10.6460883071
 21
-22.3998124433
  0
LINE
  5
258
100
AcDbEntity
  8
RACCORDO
100
AcDbLine
 62
7
  6
CONTINUOUS
 10
10.6460883071
 20
-22.3998124433
 11
10.6421758755
 21
-22.3999043042
  0
LINE
  5
259
100
AcDbEntity
  8
ASSI
100
AcDbLine
 62
7
  6
CONTINUOUS
 10
10.6460883071
 20
-22.3998124433
 11
10.6421758755
 21
-22.3999043042
  0
LINE
  5
25A
100
AcDbEntity
  8
RACCORDO
100
AcDbLine
 62
7
  6
CONTINUOUS
 10
10.6421758755
 20
-22.3999043042
 11
10.6382627952
 21
-22.399965549
  0
LINE
  5
25B
100
AcDbEntity
  8
ASSI
100
AcDbLine
 62
7
  6
CONTINUOUS
 10
10.6421758755
 20
-22.3999043042
 11
10.6382627952
 21
-22.399965549
  0
LINE
  5
25C
100
AcDbEntity
  8
RACCORDO
100
AcDbLine
 62
7
  6
CONTINUOUS
 10
10.6382627952
 20
-22.399965549
 11
10.6343494256
 21
-22.3999961716
  0
LINE
  5
25D
100
AcDbEntity
  8
ASSI
100
AcDbLine
 62
7
  6
CONTINUOUS
 10
10.6382627952
 20
-22.399965549
 11
10.6343494256
 21
-22.3999961716
  0
LINE
  5
25E
100
AcDbEntity
  8
RACCORDO
100
AcDbLine
 62
7
  6
CONTINUOUS
 10
10.4007229979
 20
-23.1226497308
 11
8.4992770021
 21
-23.1226497308
  0
LINE
  5
25F
100
AcDbEntity
  8
ASSI
100
AcDbLine
 62
7
  6
CONTINUOUS
 10
10.4007229979
 20
-23.1226497308
 11
8.4992770021
 21
-23.1226497308
  0
LINE
  5
260
100
AcDbEntity
  8
RACCORDO
100
AcDbLine
 62
7
  6
CONTINUOUS
 10
-8.4992770021
 20
-23.1226497308
 11
-10.4007229979
 21
-23.1226497308
  0
LINE
  5
261
100
AcDbEntity
  8
ASSI
100
AcDbLine
 62
7
  6
CONTINUOUS
 10
-8.4992770021
 20
-23.1226497308
 11
-10.4007229979
 21
-23.1226497308
  0
LINE
  5
262
100
AcDbEntity
  8
RACCORDO
100
AcDbLine
 62
7
  6
CONTINUOUS
 10
10.6343494256
 20
-22.3999961716
 11
8.25
 21
-22.4
  0
LINE
  5
263
100
AcDbEntity
  8
DRAFT
100
AcDbLine
 62
7
  6
CONTINUOUS
 10
-8.25
 20
-22.4
 11
-4.4
 21
-22.4
  0
LINE
  5
264
100
AcDbEntity
  8
DRAFT
100
AcDbLine
 62
7
  6
CONTINUOUS
 10
4.4
 20
-22.4
 11
8.25
 21
-22.4
  0
LINE
  5
265
100
AcDbEntity
  8
ASSI
100
AcDbLine
 62
7
  6
CONTINUOUS
 10
4.4
 20
-22.4
 11
10.6343494256
 21
-22.3999961716
  0
LINE
  5
266
100
AcDbEntity
  8
RACCORDO
100
AcDbLine
 62
7
  6
CONTINUOUS
 10
-10.6498476749
 20
-22.3912731322
 11
-7.2587268678
 21
-22.3912731322
  0
LINE
  5
267
100
AcDbEntity
  8
ASSI
100
AcDbLine
 62
7
  6
CONTINUOUS
 10
-10.6498476749
 20
-22.3912731322
 11
-7.2587268678
 21
-22.3912731322
  0
LINE
  5
268
100
AcDbEntity
  8
DRAFT
100
AcDbLine
 62
7
  6
CONTINUOUS
 10
-3.5
 20
-22.3912731322
 11
-3.0
 21
-22.3912731322
  0
LINE
  5
269
100
AcDbEntity
  8
ASSI
100
AcDbLine
 62
7
  6
CONTINUOUS
 10
-3.5
 20
-22.3912731322
 11
-3.0
 21
-22.3912731322
  0
LINE
  5
26A
100
AcDbEntity
  8
DRAFT
100
AcDbLine
 62
7
  6
CONTINUOUS
 10
3.0
 20
-22.3912731322
 11
3.5
 21
-22.3912731322
  0
LINE
  5
26B
100
AcDbEntity
  8
ASSI
100
AcDbLine
 62
7
  6
CONTINUOUS
 10
3.0
 20
-22.3912731322
 11
3.5
 21
-22.3912731322
  0
LINE
  5
26C
100
AcDbEntity
  8
RACCORDO
100
AcDbLine
 62
7
  6
CONTINUOUS
 10
7.2587268678
 20
-22.3912731322
 11
10.6498476749
 21
-22.3912731322
  0
LINE
  5
26D
100
AcDbEntity
  8
ASSI
100
AcDbLine
 62
7
  6
CONTINUOUS
 10
7.2587268678
 20
-22.3912731322
 11
10.6498476749
 21
-22.3912731322
  0
LINE
  5
26E
100
AcDbEntity
  8
RACCORDO
100
AcDbLine
 62
253
  6
CONTINUOUS
 10
-7.3373448332
 20
-22.3126551668
 11
-3.0
 21
-22.3126551668
  0
LINE
  5
26F
100
AcDbEntity
  8
ASSI
100
AcDbLine
 62
253
  6
CONTINUOUS
 10
-7.3373448332
 20
-22.3126551668
 11
-3.0
 21
-22.3126551668
  0
LINE
  5
270
100
AcDbEntity
  8
RACCORDO
100
AcDbLine
 62
253
  6
CONTINUOUS
 10
3.0
 20
-22.3126551668
 11
7.3373448332
 21
-22.3126551668
  0
LINE
  5
271
100
AcDbEntity
  8
ASSI
100
AcDbLine
 62
253
  6
CONTINUOUS
 10
3.0
 20
-22.3126551668
 11
7.3373448332
 21
-22.3126551668
  0
LINE
  5
272
100
AcDbEntity
  8
RACCORDO
100
AcDbLine
 62
7
  6
CONTINUOUS
 10
-8.25
 20
-22.4
 11
-10.6343494256
 21
-22.3999961716
  0
LINE
  5
273
100
AcDbEntity
  8
ASSI
100
AcDbLine
 62
7
  6
CONTINUOUS
 10
-4.4
 20
-22.4
 11
-10.6343494256
 21
-22.3999961716
  0
LINE
  5
274
100
AcDbEntity
  8
RACCORDO
100
AcDbLine
 62
7
  6
CONTINUOUS
 10
-10.6343494256
 20
-22.3999961716
 11
-10.6382627952
 21
-22.399965549
  0
LINE
  5
275
100
AcDbEntity
  8
ASSI
100
AcDbLine
 62
7
  6
CONTINUOUS
 10
-10.6343494256
 20
-22.3999961716
 11
-10.6382627952
 21
-22.399965549
  0
LINE
  5
276
100
AcDbEntity
  8
RACCORDO
100
AcDbLine
 62
7
  6
CONTINUOUS
 10
-10.6382627952
 20
-22.399965549
 11
-10.6421758755
 21
-22.3999043042
  0
LINE
  5
277
100
AcDbEntity
  8
ASSI
100
AcDbLine
 62
7
  6
CONTINUOUS
 10
-10.6382627952
 20
-22.399965549
 11
-10.6421758755
 21
-22.3999043042
  0
LWPOLYLINE
  5
278
100
AcDbEntity
  8
RACCORDO
100
AcDbPolyline
 62
7
  6
CONTINUOUS
 90
34
 70
0
 10
10.3956323968
 20
-23.7
 10
10.4086568719
 20
-23.7002535774
 10
10.4215864441
 20
-23.7008789762
 10
10.4343870425
 20
-23.7018761963
 10
10.4470370996
 20
-23.7032578617
 10
10.4594932499
 20
-23.7050113484
 10
10.4716917635
 20
-23.7070987849
 10
10.4835923857
 20
-23.7095212536
 10
10.4951827847
 20
-23.7122776721
 10
10.5064447697
 20
-23.7153269215
 10
10.5173559423
 20
-23.7186694804
 10
10.527896047
 20
-23.7223048703
 10
10.5380519403
 20
-23.7261905362
 10
10.5478060819
 20
-23.7303265244
 10
10.5571427969
 20
-23.7347127887
 10
10.5660531313
 20
-23.739306636
 10
10.5745239743
 20
-23.7441078614
 10
10.5825437065
 20
-23.7491166698
 10
10.59010661
 20
-23.7542909833
 10
10.5972035023
 20
-23.7596304659
 10
10.6038264114
 20
-23.7651354536
 10
10.6099721553
 20
-23.7707648756
 10
10.6156350363
 20
-23.7765183262
 10
10.6208103935
 20
-23.7823962112
 10
10.6254971716
 20
-23.7883586777
 10
10.6296927965
 20
-23.794405262
 10
10.6333956467
 20
-23.8005364279
 10
10.6366066239
 20
-23.8067137129
 10
10.6393259908
 20
-23.8129365718
 10
10.6415549373
 20
-23.8192055499
 10
10.6432963
 20
-23.8254838211
 10
10.6445530388
 20
-23.8317591101
 10
10.6453287436
 20
-23.8380436921
 10
10.645628166
 20
-23.8443375673
  0
LWPOLYLINE
  5
279
100
AcDbEntity
  8
ASSI
100
AcDbPolyline
 62
7
  6
CONTINUOUS
 90
34
 70
0
 10
10.3956323968
 20
-23.7
 10
10.4086568719
 20
-23.7002535774
 10
10.4215864441
 20
-23.7008789762
 10
10.4343870425
 20
-23.7018761963
 10
10.4470370996
 20
-23.7032578617
 10
10.4594932499
 20
-23.7050113484
 10
10.4716917635
 20
-23.7070987849
 10
10.4835923857
 20
-23.7095212536
 10
10.4951827847
 20
-23.7122776721
 10
10.5064447697
 20
-23.7153269215
 10
10.5173559423
 20
-23.7186694804
 10
10.527896047
 20
-23.7223048703
 10
10.5380519403
 20
-23.7261905362
 10
10.5478060819
 20
-23.7303265244
 10
10.5571427969
 20
-23.7347127887
 10
10.5660531313
 20
-23.739306636
 10
10.5745239743
 20
-23.7441078614
 10
10.5825437065
 20
-23.7491166698
 10
10.59010661
 20
-23.7542909833
 10
10.5972035023
 20
-23.7596304659
 10
10.6038264114
 20
-23.7651354536
 10
10.6099721553
 20
-23.7707648756
 10
10.6156350363
 20
-23.7765183262
 10
10.6208103935
 20
-23.7823962112
 10
10.6254971716
 20
-23.7883586777
 10
10.6296927965
 20
-23.794405262
 10
10.6333956467
 20
-23.8005364279
 10
10.6366066239
 20
-23.8067137129
 10
10.6393259908
 20
-23.8129365718
 10
10.6415549373
 20
-23.8192055499
 10
10.6432963
 20
-23.8254838211
 10
10.6445530388
 20
-23.8317591101
 10
10.6453287436
 20
-23.8380436921
 10
10.645628166
 20
-23.8443375673
  0
LINE
  5
27A
100
AcDbEntity
  8
RACCORDO
100
AcDbLine
 62
7
  6
CONTINUOUS
 10
-10.6421758755
 20
-22.3999043042
 11
-10.6460883071
 21
-22.3998124433
  0
LINE
  5
27B
100
AcDbEntity
  8
ASSI
100
AcDbLine
 62
7
  6
CONTINUOUS
 10
-10.6421758755
 20
-22.3999043042
 11
-10.6460883071
 21
-22.3998124433
  0
LINE
  5
27C
100
AcDbEntity
  8
RACCORDO
100
AcDbLine
 62
7
  6
CONTINUOUS
 10
-10.6460883071
 20
-22.3998124433
 11
-10.65
 21
-22.399689968
  0
LINE
  5
27D
100
AcDbEntity
  8
ASSI
100
AcDbLine
 62
7
  6
CONTINUOUS
 10
-10.6460883071
 20
-22.3998124433
 11
-10.65
 21
-22.399689968
  0
LINE
  5
27E
100
AcDbEntity
  8
RACCORDO
100
AcDbLine
 62
7
  6
CONTINUOUS
 10
8.4644176339
 20
-24.4974554741
 11
8.4526837125
 21
-24.4954823677
  0
LWPOLYLINE
  5
27F
100
AcDbEntity
  8
ASSI
100
AcDbPolyline
 62
7
  6
CONTINUOUS
 90
6
 70
0
 10
8.4644176339
 20
-24.4974554741
 10
8.4526837125
 20
-24.4954823677
 10
8.4410569612
 20
-24.4929531817
 10
8.429563721
 20
-24.4898736417
 10
8.4182300262
 20
-24.4862507213
 10
8.4070815507
 20
-24.4820926258
  0
LWPOLYLINE
  5
280
100
AcDbEntity
  8
RACCORDO
100
AcDbPolyline
 62
7
  6
CONTINUOUS
 90
26
 70
0
 10
8.4526837125
 20
-24.4954823677
 10
8.4410569612
 20
-24.4929531817
 10
8.429563721
 20
-24.4898736417
 10
8.4182300262
 20
-24.4862507213
 10
8.4070815507
 20
-24.4820926258
 10
8.3961435537
 20
-24.4774087722
 10
8.3854408124
 20
-24.4722097688
 10
8.3749975717
 20
-24.4665073916
 10
8.3648374941
 20
-24.4603145581
 10
8.3549835949
 20
-24.4536452955
 10
8.3454581962
 20
-24.4465147107
 10
8.3362828809
 20
-24.4389389589
 10
8.3274784339
 20
-24.4309352005
 10
8.3190647995
 20
-24.4225215661
 10
8.3110610411
 20
-24.4137171191
 10
8.3034852893
 20
-24.4045418038
 10
8.2963547045
 20
-24.3950164051
 10
8.2896854419
 20
-24.3851625059
 10
8.2834926084
 20
-24.3750024283
 10
8.2777902312
 20
-24.3645591876
 10
8.2725912278
 20
-24.3538564463
 10
8.2679073742
 20
-24.3429184493
 10
8.2637492787
 20
-24.3317699738
 10
8.2601263583
 20
-24.320436279
 10
8.2570468183
 20
-24.3089430388
 10
8.2545176323
 20
-24.2973162875
  0
LINE
  5
281
100
AcDbEntity
  8
RACCORDO
100
AcDbLine
 62
7
  6
CONTINUOUS
 10
-8.0840245667
 20
-20.9917082642
 11
-8.2465127091
 21
-20.9104703804
  0
LINE
  5
282
100
AcDbEntity
  8
ASSI
100
AcDbLine
 62
7
  6
CONTINUOUS
 10
-8.0840245667
 20
-20.9917082642
 11
-8.2465127091
 21
-20.9104703804
  0
LINE
  5
283
100
AcDbEntity
  8
RACCORDO
100
AcDbLine
 62
7
  6
CONTINUOUS
 10
-8.25
 20
21.4
 11
-7.2587268678
 21
22.3912731322
  0
LINE
  5
284
100
AcDbEntity
  8
ASSI
100
AcDbLine
 62
7
  6
CONTINUOUS
 10
-8.25
 20
21.4
 11
-7.2587268678
 21
22.3912731322
  0
LWPOLYLINE
  5
285
100
AcDbEntity
  8
ASSI
100
AcDbPolyline
 62
7
  6
CONTINUOUS
 90
9
 70
0
 10
8.4070815507
 20
24.4820926258
 10
8.4182300262
 20
24.4862507213
 10
8.429563721
 20
24.4898736417
 10
8.4410569612
 20
24.4929531817
 10
8.4526837125
 20
24.4954823677
 10
8.4644176339
 20
24.4974554741
 10
8.4762321444
 20
24.4988680342
 10
8.488100484
 20
24.4997168498
 10
8.4999957692
 20
24.5
  0
LINE
  5
286
100
AcDbEntity
  8
0
100
AcDbLine
 62
7
  6
CONTINUOUS
 10
3.0
 20
-21.7
 11
-3.0
 21
-21.7
  0
LINE
  5
287
100
AcDbEntity
  8
ASSI
100
AcDbLine
 62
7
  6
CONTINUOUS
 10
3.0
 20
-21.7
 11
-3.0
 21
-21.7
  0
LINE
  5
288
100
AcDbEntity
  8
RACCORDO
100
AcDbLine
 62
253
  6
CONTINUOUS
 10
-7.5841007192
 20
-21.3126932437
 11
-3.0
 21
-21.3126932437
  0
LINE
  5
289
100
AcDbEntity
  8
ASSI
100
AcDbLine
 62
253
  6
CONTINUOUS
 10
-7.5841007192
 20
-21.3126932437
 11
-3.0
 21
-21.3126932437
  0
LINE
  5
28A
100
AcDbEntity
  8
RACCORDO
100
AcDbLine
 62
253
  6
CONTINUOUS
 10
3.0
 20
-21.3126932437
 11
7.5841007192
 21
-21.3126932437
  0
LINE
  5
28B
100
AcDbEntity
  8
ASSI
100
AcDbLine
 62
253
  6
CONTINUOUS
 10
3.0
 20
-21.3126932437
 11
7.5841007192
 21
-21.3126932437
  0
LINE
  5
28C
100
AcDbEntity
  8
0
100
AcDbLine
 62
7
  6
CONTINUOUS
 10
-3.0
 20
-21.0
 11
3.0
 21
-21.0
  0
LINE
  5
28D
100
AcDbEntity
  8
ASSI
100
AcDbLine
 62
7
  6
CONTINUOUS
 10
-3.0
 20
-21.0
 11
3.0
 21
-21.0
  0
LINE
  5
28E
100
AcDbEntity
  8
RACCORDO
100
AcDbLine
 62
7
  6
CONTINUOUS
 10
-7.5841007192
 20
-20.9959955457
 11
-7.2418217019
 21
-20.9959955457
  0
LINE
  5
28F
100
AcDbEntity
  8
ASSI
100
AcDbLine
 62
7
  6
CONTINUOUS
 10
-7.5841007192
 20
-20.9959955457
 11
-7.2418217019
 21
-20.9959955457
  0
LINE
  5
290
100
AcDbEntity
  8
RACCORDO
100
AcDbLine
 62
7
  6
CONTINUOUS
 10
7.2418217019
 20
-20.9959955457
 11
7.5841007192
 21
-20.9959955457
  0
LINE
  5
291
100
AcDbEntity
  8
ASSI
100
AcDbLine
 62
7
  6
CONTINUOUS
 10
7.2418217019
 20
-20.9959955457
 11
7.5841007192
 21
-20.9959955457
  0
LINE
  5
292
100
AcDbEntity
  8
DRAFT
100
AcDbLine
 62
7
  6
CONTINUOUS
 10
-8.2465127091
 20
-20.9104703804
 11
-7.2988376746
 21
-20.9104703804
  0
LINE
  5
293
100
AcDbEntity
  8
ASSI
100
AcDbLine
 62
7
  6
CONTINUOUS
 10
-8.2465127091
 20
-20.9104703804
 11
-7.2988376746
 21
-20.9104703804
  0
LINE
  5
294
100
AcDbEntity
  8
DRAFT
100
AcDbLine
 62
7
  6
CONTINUOUS
 10
7.2988376746
 20
-20.9104703804
 11
8.2465127091
 21
-20.9104703804
  0
LINE
  5
295
100
AcDbEntity
  8
ASSI
100
AcDbLine
 62
7
  6
CONTINUOUS
 10
7.2988376746
 20
-20.9104703804
 11
8.2465127091
 21
-20.9104703804
  0
LINE
  5
296
100
AcDbEntity
  8
RACCORDO
100
AcDbLine
 62
7
  6
CONTINUOUS
 10
-9.1503805997
 20
-20.9
 11
-8.25
 21
-20.9
  0
LINE
  5
297
100
AcDbEntity
  8
ASSI
100
AcDbLine
 62
7
  6
CONTINUOUS
 10
-9.1503805997
 20
-20.9
 11
-8.25
 21
-20.9
  0
LINE
  5
298
100
AcDbEntity
  8
RACCORDO
100
AcDbLine
 62
7
  6
CONTINUOUS
 10
8.25
 20
-20.9
 11
9.1503805997
 21
-20.9
  0
LINE
  5
299
100
AcDbEntity
  8
ASSI
100
AcDbLine
 62
7
  6
CONTINUOUS
 10
8.25
 20
-20.9
 11
9.1503805997
 21
-20.9
  0
LINE
  5
29A
100
AcDbEntity
  8
RACCORDO
100
AcDbLine
 62
253
  6
CONTINUOUS
 10
6.5581782981
 20
-20.5829242832
 11
-6.5581782981
 21
-20.5829242832
  0
LINE
  5
29B
100
AcDbEntity
  8
ASSI
100
AcDbLine
 62
253
  6
CONTINUOUS
 10
6.5581782981
 20
-20.5829242832
 11
-6.5581782981
 21
-20.5829242832
  0
LINE
  5
29C
100
AcDbEntity
  8
RACCORDO
100
AcDbLine
 62
7
  6
CONTINUOUS
 10
8.9950305219
 20
-20.4335707644
 11
7.3517786853
 21
-20.4335707644
  0
LINE
  5
29D
100
AcDbEntity
  8
ASSI
100
AcDbLine
 62
7
  6
CONTINUOUS
 10
8.9950305219
 20
-20.4335707644
 11
7.3517786853
 21
-20.4335707644
  0
LINE
  5
29E
100
AcDbEntity
  8
RACCORDO
100
AcDbLine
 62
7
  6
CONTINUOUS
 10
-7.3517786853
 20
-20.4335707644
 11
-8.9950305219
 21
-20.4335707644
  0
LINE
  5
29F
100
AcDbEntity
  8
ASSI
100
AcDbLine
 62
7
  6
CONTINUOUS
 10
-7.3517786853
 20
-20.4335707644
 11
-8.9950305219
 21
-20.4335707644
  0
LINE
  5
2A0
100
AcDbEntity
  8
RACCORDO
100
AcDbLine
 62
253
  6
CONTINUOUS
 10
6.555294768
 20
-20.0829433217
 11
-6.555294768
 21
-20.0829433217
  0
LINE
  5
2A1
100
AcDbEntity
  8
ASSI
100
AcDbLine
 62
7
  6
CONTINUOUS
 10
6.555294768
 20
-20.0829433217
 11
-6.555294768
 21
-20.0829433217
  0
LINE
  5
2A2
100
AcDbEntity
  8
RACCORDO
100
AcDbLine
 62
7
  6
CONTINUOUS
 10
-7.2587268678
 20
-22.3912731322
 11
-8.25
 21
-21.4
  0
LINE
  5
2A3
100
AcDbEntity
  8
ASSI
100
AcDbLine
 62
7
  6
CONTINUOUS
 10
-7.2587268678
 20
-22.3912731322
 11
-8.25
 21
-21.4
  0
LWPOLYLINE
  5
2A4
100
AcDbEntity
  8
ASSI
100
AcDbPolyline
 62
7
  6
CONTINUOUS
 90
18
 70
0
 10
-10.6320926258
 20
24.3429184493
 10
-10.6274087722
 20
24.3538564463
 10
-10.6222097688
 20
24.3645591876
 10
-10.6165073916
 20
24.3750024283
 10
-10.6103145581
 20
24.3851625059
 10
-10.6036452955
 20
24.3950164051
 10
-10.5965147107
 20
24.4045418038
 10
-10.5889389589
 20
24.4137171191
 10
-10.5809352005
 20
24.4225215661
 10
-10.5725215661
 20
24.4309352005
 10
-10.5637171191
 20
24.4389389589
 10
-10.5545418038
 20
24.4465147107
 10
-10.5450164051
 20
24.4536452955
 10
-10.5351625059
 20
24.4603145581
 10
-10.5250024283
 20
24.4665073916
 10
-10.5145591876
 20
24.4722097688
 10
-10.5038564463
 20
24.4774087722
 10
-10.4929184493
 20
24.4820926258
  0
LINE
  5
2A5
100
AcDbEntity
  8
ASSI
100
AcDbLine
 62
7
  6
CONTINUOUS
 10
-3.5940894927
 20
23.6231776604
 11
-3.6206235004
 21
23.5928267546
  0
LINE
  5
2A6
100
AcDbEntity
  8
ASSI
100
AcDbLine
 62
7
  6
CONTINUOUS
 10
-3.6206235004
 20
23.5928267546
 11
-3.6509962094
 21
23.5586202787
  0
LINE
  5
2A7
100
AcDbEntity
  8
ASSI
100
AcDbLine
 62
7
  6
CONTINUOUS
 10
-3.6509962094
 20
23.5586202787
 11
-3.6852228577
 21
23.520556369
  0
LINE
  5
2A8
100
AcDbEntity
  8
ASSI
100
AcDbLine
 62
7
  6
CONTINUOUS
 10
-3.6852228577
 20
23.520556369
 11
-3.743670406
 21
23.4562934323
  0
LINE
  5
2A9
100
AcDbEntity
  8
ASSI
100
AcDbLine
 62
7
  6
CONTINUOUS
 10
-3.743670406
 20
23.4562934323
 11
-3.9279699877
 21
23.2563578147
  0
LINE
  5
2AA
100
AcDbEntity
  8
DRAFT
100
AcDbLine
 62
7
  6
CONTINUOUS
 10
-6.4482213147
 20
-19.9223308767
 11
6.4482213147
 21
-19.9223308767
  0
LINE
  5
2AB
100
AcDbEntity
  8
ASSI
100
AcDbLine
 62
7
  6
CONTINUOUS
 10
-6.4482213147
 20
-19.9223308767
 11
6.4482213147
 21
-19.9223308767
  0
LWPOLYLINE
  5
2AC
100
AcDbEntity
  8
ASSI
100
AcDbPolyline
 62
7
  6
CONTINUOUS
 90
18
 70
0
 10
8.4070815507
 20
-24.4820926258
 10
8.3961435537
 20
-24.4774087722
 10
8.3854408124
 20
-24.4722097688
 10
8.3749975717
 20
-24.4665073916
 10
8.3648374941
 20
-24.4603145581
 10
8.3549835949
 20
-24.4536452955
 10
8.3454581962
 20
-24.4465147107
 10
8.3362828809
 20
-24.4389389589
 10
8.3274784339
 20
-24.4309352005
 10
8.3190647995
 20
-24.4225215661
 10
8.3110610411
 20
-24.4137171191
 10
8.3034852893
 20
-24.4045418038
 10
8.2963547045
 20
-24.3950164051
 10
8.2896854419
 20
-24.3851625059
 10
8.2834926084
 20
-24.3750024283
 10
8.2777902312
 20
-24.3645591876
 10
8.2725912278
 20
-24.3538564463
 10
8.2679073742
 20
-24.3429184493
  0
LINE
  5
2AD
100
AcDbEntity
  8
ASSI
100
AcDbLine
 62
7
  6
CONTINUOUS
 10
-3.9279699877
 20
-23.2563578147
 11
-3.72319
 21
-23.4787333295
  0
LINE
  5
2AE
100
AcDbEntity
  8
ASSI
100
AcDbLine
 62
7
  6
CONTINUOUS
 10
-3.72319
 20
-23.4787333295
 11
-3.6851306782
 21
-23.520658084
  0
LINE
  5
2AF
100
AcDbEntity
  8
ASSI
100
AcDbLine
 62
7
  6
CONTINUOUS
 10
-3.6851306782
 20
-23.520658084
 11
-3.6508615818
 21
-23.5587705835
  0
LINE
  5
2B0
100
AcDbEntity
  8
ASSI
100
AcDbLine
 62
7
  6
CONTINUOUS
 10
-3.6508615818
 20
-23.5587705835
 11
-3.6204577011
 21
-23.5930148412
  0
LWPOLYLINE
  5
2B1
100
AcDbEntity
  8
ASSI
100
AcDbPolyline
 62
7
  6
CONTINUOUS
 90
9
 70
0
 10
-3.6204577011
 20
-23.5930148412
 10
-3.5939110457
 20
-23.6233833596
 10
-3.5820146366
 20
-23.637204436
 10
-3.5710123303
 20
-23.6501397805
 10
-3.5608917472
 20
-23.6621907435
 10
-3.5516059276
 20
-23.6734345977
 10
-3.5431516162
 20
-23.6838693892
 10
-3.5355105725
 20
-23.6934970717
 10
-3.5286302672
 20
-23.7024007789
  0
LWPOLYLINE
  5
2B2
100
AcDbEntity
  8
ASSI
100
AcDbPolyline
 62
7
  6
CONTINUOUS
 90
9
 70
0
 10
-10.6320926258
 20
-24.3429184493
 10
-10.6362507213
 20
-24.3317699738
 10
-10.6398736417
 20
-24.320436279
 10
-10.6429531817
 20
-24.3089430388
 10
-10.6454823677
 20
-24.2973162875
 10
-10.6474554741
 20
-24.2855823661
 10
-10.6488680342
 20
-24.2737678556
 10
-10.6497168498
 20
-24.261899516
 10
-10.65
 20
-24.2500042308
  0
LINE
  5
2B3
100
AcDbEntity
  8
DRAFT
100
AcDbLine
 62
7
  6
CONTINUOUS
 10
-7.2418217019
 20
20.9959955457
 11
-7.2988376746
 21
20.9104703804
  0
LINE
  5
2B4
100
AcDbEntity
  8
ASSI
100
AcDbLine
 62
7
  6
CONTINUOUS
 10
-7.2418217019
 20
20.9959955457
 11
-7.2988376746
 21
20.9104703804
  0
LWPOLYLINE
  5
2B5
100
AcDbEntity
  8
ASSI
100
AcDbPolyline
 62
7
  6
CONTINUOUS
 90
8
 70
0
 10
-3.5286918512
 20
23.7023198506
 10
-3.5356000818
 20
23.69338247
 10
-3.5432706493
 20
23.6837199248
 10
-3.5517508381
 20
23.673257628
 10
-3.5610539485
 20
23.6619971292
 10
-3.5711841112
 20
23.6499368786
 10
-3.5821916901
 20
23.6369976396
 10
-3.5940894927
 20
23.6231776604
  0
LWPOLYLINE
  5
2B6
100
AcDbEntity
  8
ASSI
100
AcDbPolyline
 62
7
  6
CONTINUOUS
 90
10
 70
0
 10
-3.5286302672
 20
-23.7024007789
 10
-3.5224956417
 20
-23.7106007946
 10
-3.5171179781
 20
-23.7180768349
 10
-3.512493414
 20
-23.7248511814
 10
-3.5086126205
 20
-23.7309188156
 10
-3.5054672686
 20
-23.736284756
 10
-3.5030490489
 20
-23.74098634
 10
-3.5013434198
 20
-23.7450360132
 10
-3.500332847
 20
-23.74842133
 10
-3.5
 20
-23.7511422903
  0
LINE
  5
2B7
100
AcDbEntity
  8
DRAFT
100
AcDbLine
 62
7
  6
CONTINUOUS
 10
-7.2418217019
 20
-20.9959955457
 11
-7.2988376746
 21
-20.9104703804
  0
LINE
  5
2B8
100
AcDbEntity
  8
ASSI
100
AcDbLine
 62
7
  6
CONTINUOUS
 10
-7.2418217019
 20
-20.9959955457
 11
-7.2988376746
 21
-20.9104703804
  0
LINE
  5
2B9
100
AcDbEntity
  8
RACCORDO
100
AcDbLine
 62
7
  6
CONTINUOUS
 10
-10.6474554741
 20
24.2855823661
 11
-10.6454823677
 21
24.2973162875
  0
LWPOLYLINE
  5
2BA
100
AcDbEntity
  8
ASSI
100
AcDbPolyline
 62
7
  6
CONTINUOUS
 90
6
 70
0
 10
-10.6474554741
 20
24.2855823661
 10
-10.6454823677
 20
24.2973162875
 10
-10.6429531817
 20
24.3089430388
 10
-10.6398736417
 20
24.320436279
 10
-10.6362507213
 20
24.3317699738
 10
-10.6320926258
 20
24.3429184493
  0
LWPOLYLINE
  5
2BB
100
AcDbEntity
  8
RACCORDO
100
AcDbPolyline
 62
7
  6
CONTINUOUS
 90
26
 70
0
 10
-10.6454823677
 20
24.2973162875
 10
-10.6429531817
 20
24.3089430388
 10
-10.6398736417
 20
24.320436279
 10
-10.6362507213
 20
24.3317699738
 10
-10.6320926258
 20
24.3429184493
 10
-10.6274087722
 20
24.3538564463
 10
-10.6222097688
 20
24.3645591876
 10
-10.6165073916
 20
24.3750024283
 10
-10.6103145581
 20
24.3851625059
 10
-10.6036452955
 20
24.3950164051
 10
-10.5965147107
 20
24.4045418038
 10
-10.5889389589
 20
24.4137171191
 10
-10.5809352005
 20
24.4225215661
 10
-10.5725215661
 20
24.4309352005
 10
-10.5637171191
 20
24.4389389589
 10
-10.5545418038
 20
24.4465147107
 10
-10.5450164051
 20
24.4536452955
 10
-10.5351625059
 20
24.4603145581
 10
-10.5250024283
 20
24.4665073916
 10
-10.5145591876
 20
24.4722097688
 10
-10.5038564463
 20
24.4774087722
 10
-10.4929184493
 20
24.4820926258
 10
-10.4817699738
 20
24.4862507213
 10
-10.470436279
 20
24.4898736417
 10
-10.4589430388
 20
24.4929531817
 10
-10.4473162875
 20
24.4954823677
  0
LINE
  5
2BC
100
AcDbEntity
  8
DRAFT
100
AcDbLine
 62
7
  6
CONTINUOUS
 10
-8.25
 20
20.9
 11
-8.2465127091
 21
20.9104703804
  0
LINE
  5
2BD
100
AcDbEntity
  8
ASSI
100
AcDbLine
 62
7
  6
CONTINUOUS
 10
-8.25
 20
20.9
 11
-8.2465127091
 21
20.9104703804
  0
LINE
  5
2BE
100
AcDbEntity
  8
DRAFT
100
AcDbLine
 62
7
  6
CONTINUOUS
 10
-9.4946499221
 20
12.5
 11
-9.65
 21
12.4223308767
  0
LINE
  5
2BF
100
AcDbEntity
  8
ASSI
100
AcDbLine
 62
7
  6
CONTINUOUS
 10
-9.4946499221
 20
12.5
 11
-9.65
 21
12.4223308767
  0
LINE
  5
2C0
100
AcDbEntity
  8
RACCORDO
100
AcDbLine
 62
7
  6
CONTINUOUS
 10
-6.5123099353
 20
13.8126856306
 11
-6.5
 21
13.8188401295
  0
LINE
  5
2C1
100
AcDbEntity
  8
ASSI
100
AcDbLine
 62
7
  6
CONTINUOUS
 10
-6.5123099353
 20
13.8126856306
 11
-6.5
 21
13.8188401295
  0
LINE
  5
2C2
100
AcDbEntity
  8
DRAFT
100
AcDbLine
 62
7
  6
CONTINUOUS
 10
-8.2465127091
 20
-20.9104703804
 11
-8.25
 21
-20.9
  0
LINE
  5
2C3
100
AcDbEntity
  8
ASSI
100
AcDbLine
 62
7
  6
CONTINUOUS
 10
-8.2465127091
 20
-20.9104703804
 11
-8.25
 21
-20.9
  0
LWPOLYLINE
  5
2C4
100
AcDbEntity
  8
RACCORDO
100
AcDbPolyline
 62
7
  6
CONTINUOUS
 90
5
 70
0
 10
-10.6454823677
 20
-24.2973162875
 10
-10.6474554741
 20
-24.2855823661
 10
-10.6488680342
 20
-24.2737678556
 10
-10.6497168498
 20
-24.261899516
 10
-10.65
 20
-24.2500042308
  0
LINE
  5
2C5
100
AcDbEntity
  8
ASSI
100
AcDbLine
 62
7
  6
CONTINUOUS
 10
4.2041007772
 20
23.5576772686
 11
4.1699221498
 21
23.5196770081
  0
LINE
  5
2C6
100
AcDbEntity
  8
ASSI
100
AcDbLine
 62
7
  6
CONTINUOUS
 10
4.1699221498
 20
23.5196770081
 11
4.1116279299
 21
23.4555921064
  0
LINE
  5
2C7
100
AcDbEntity
  8
ASSI
100
AcDbLine
 62
7
  6
CONTINUOUS
 10
4.1116279299
 20
23.4555921064
 11
3.9279699877
 21
23.2563578147
  0
LINE
  5
2C8
100
AcDbEntity
  8
RACCORDO
100
AcDbLine
 62
253
  6
CONTINUOUS
 10
-6.5123099353
 20
13.4876443732
 11
-6.5
 21
13.4999543085
  0
LINE
  5
2C9
100
AcDbEntity
  8
ASSI
100
AcDbLine
 62
253
  6
CONTINUOUS
 10
-6.5123099353
 20
13.4876443732
 11
-6.5
 21
13.4999543085
  0
LINE
  5
2CA
100
AcDbEntity
  8
RACCORDO
100
AcDbLine
 62
253
  6
CONTINUOUS
 10
-6.2123556268
 20
13.1876900647
 11
-6.2000456915
 21
13.2
  0
LINE
  5
2CB
100
AcDbEntity
  8
ASSI
100
AcDbLine
 62
253
  6
CONTINUOUS
 10
-6.2123556268
 20
13.1876900647
 11
-6.2000456915
 21
13.2
  0
LINE
  5
2CC
100
AcDbEntity
  8
ASSI
100
AcDbLine
 62
7
  6
CONTINUOUS
 10
4.4
 20
23.8
 11
4.3563493531
 21
23.7563493531
  0
LINE
  5
2CD
100
AcDbEntity
  8
DRAFT
100
AcDbLine
 62
7
  6
CONTINUOUS
 10
-7.35
 20
11.5
 11
-7.3325462644
 21
11.5174537356
  0
LINE
  5
2CE
100
AcDbEntity
  8
ASSI
100
AcDbLine
 62
7
  6
CONTINUOUS
 10
-7.35
 20
11.5
 11
-7.3325462644
 21
11.5174537356
  0
LINE
  5
2CF
100
AcDbEntity
  8
DRAFT
100
AcDbLine
 62
7
  6
CONTINUOUS
 10
4.5
 20
-14.139335085
 11
5.5
 21
-14.139335085
  0
LINE
  5
2D0
100
AcDbEntity
  8
ASSI
100
AcDbLine
 62
7
  6
CONTINUOUS
 10
4.5
 20
-14.139335085
 11
5.5
 21
-14.139335085
  0
LINE
  5
2D1
100
AcDbEntity
  8
DRAFT
100
AcDbLine
 62
7
  6
CONTINUOUS
 10
-4.5
 20
-14.139335085
 11
-5.5
 21
-14.139335085
  0
LINE
  5
2D2
100
AcDbEntity
  8
ASSI
100
AcDbLine
 62
7
  6
CONTINUOUS
 10
-4.5
 20
-14.139335085
 11
-5.5
 21
-14.139335085
  0
LINE
  5
2D3
100
AcDbEntity
  8
ASSI
100
AcDbLine
 62
7
  6
CONTINUOUS
 10
4.4
 20
-23.8
 11
4.3563493531
 21
-23.7563493531
  0
LINE
  5
2D4
100
AcDbEntity
  8
ASSI
100
AcDbLine
 62
7
  6
CONTINUOUS
 10
3.9279699877
 20
-23.2563578147
 11
4.1320411236
 21
-23.4779554989
  0
LINE
  5
2D5
100
AcDbEntity
  8
ASSI
100
AcDbLine
 62
7
  6
CONTINUOUS
 10
4.1320411236
 20
-23.4779554989
 11
4.1700092035
 21
-23.5197730418
  0
LINE
  5
2D6
100
AcDbEntity
  8
ASSI
100
AcDbLine
 62
7
  6
CONTINUOUS
 10
4.1700092035
 20
-23.5197730418
 11
4.2042293299
 21
-23.5578207413
  0
LINE
  5
2D7
100
AcDbEntity
  8
RACCORDO
100
AcDbLine
 62
253
  6
CONTINUOUS
 10
-10.645628166
 20
-23.8443375673
 11
-10.65
 21
-23.4104851482
  0
LINE
  5
2D8
100
AcDbEntity
  8
ASSI
100
AcDbLine
 62
253
  6
CONTINUOUS
 10
-10.645628166
 20
-23.8443375673
 11
-10.65
 21
-23.4104851482
  0
LINE
  5
2D9
100
AcDbEntity
  8
RACCORDO
100
AcDbLine
 62
7
  6
CONTINUOUS
 10
-11.15
 20
21.8911779406
 11
-11.15
 21
-21.8911779406
  0
LINE
  5
2DA
100
AcDbEntity
  8
ASSI
100
AcDbLine
 62
7
  6
CONTINUOUS
 10
-11.15
 20
21.8911779406
 11
-11.15
 21
-21.8911779406
  0
LINE
  5
2DB
100
AcDbEntity
  8
RACCORDO
100
AcDbLine
 62
253
  6
CONTINUOUS
 10
-10.65
 20
23.4104851482
 11
-10.645628166
 21
23.8443375673
  0
LINE
  5
2DC
100
AcDbEntity
  8
ASSI
100
AcDbLine
 62
253
  6
CONTINUOUS
 10
-10.65
 20
23.4104851482
 11
-10.645628166
 21
23.8443375673
  0
LWPOLYLINE
  5
2DD
100
AcDbEntity
  8
RACCORDO
100
AcDbPolyline
 62
7
  6
CONTINUOUS
 90
4
 70
0
 10
-10.65
 20
24.2500042308
 10
-10.6497168498
 20
24.261899516
 10
-10.6488680342
 20
24.2737678556
 10
-10.6474554741
 20
24.2855823661
  0
LWPOLYLINE
  5
2DE
100
AcDbEntity
  8
ASSI
100
AcDbPolyline
 62
7
  6
CONTINUOUS
 90
4
 70
0
 10
-10.65
 20
24.2500042308
 10
-10.6497168498
 20
24.261899516
 10
-10.6488680342
 20
24.2737678556
 10
-10.6474554741
 20
24.2855823661
  0
LWPOLYLINE
  5
2DF
100
AcDbEntity
  8
RACCORDO
100
AcDbPolyline
 62
253
  6
CONTINUOUS
 90
31
 70
0
 10
-10.645628166
 20
24.2456323968
 10
-10.6452851274
 20
24.2587158828
 10
-10.6442578375
 20
24.2717635094
 10
-10.642549112
 20
24.2847395155
 10
-10.640163634
 20
24.2976083364
 10
-10.6371079418
 20
24.3103347009
 10
-10.6333904104
 20
24.3228837286
 10
-10.6290212289
 20
24.3352210249
 10
-10.6240123724
 20
24.3473127755
 10
-10.6183775693
 20
24.3591258393
 10
-10.6121322634
 20
24.3706278389
 10
-10.605293572
 20
24.3817872494
 10
-10.5978802386
 20
24.392573485
 10
-10.5899125818
 20
24.4029569826
 10
-10.5814124395
 20
24.4129092831
 10
-10.572403109
 20
24.422403109
 10
-10.5629092831
 20
24.4314124395
 10
-10.5529569826
 20
24.4399125818
 10
-10.542573485
 20
24.4478802386
 10
-10.5317872494
 20
24.455293572
 10
-10.5206278389
 20
24.4621322634
 10
-10.5091258393
 20
24.4683775693
 10
-10.4973127755
 20
24.4740123724
 10
-10.4852210249
 20
24.4790212289
 10
-10.4728837286
 20
24.4833904104
 10
-10.4603347009
 20
24.4871079418
 10
-10.4476083364
 20
24.490163634
 10
-10.4347395155
 20
24.492549112
 10
-10.4217635094
 20
24.4942578375
 10
-10.4087158828
 20
24.4952851274
 10
-10.3956323968
 20
24.495628166
  0
LWPOLYLINE
  5
2E0
100
AcDbEntity
  8
ASSI
100
AcDbPolyline
 62
7
  6
CONTINUOUS
 90
31
 70
0
 10
-10.645628166
 20
24.2456323968
 10
-10.6452851274
 20
24.2587158828
 10
-10.6442578375
 20
24.2717635094
 10
-10.642549112
 20
24.2847395155
 10
-10.640163634
 20
24.2976083364
 10
-10.6371079418
 20
24.3103347009
 10
-10.6333904104
 20
24.3228837286
 10
-10.6290212289
 20
24.3352210249
 10
-10.6240123724
 20
24.3473127755
 10
-10.6183775693
 20
24.3591258393
 10
-10.6121322634
 20
24.3706278389
 10
-10.605293572
 20
24.3817872494
 10
-10.5978802386
 20
24.392573485
 10
-10.5899125818
 20
24.4029569826
 10
-10.5814124395
 20
24.4129092831
 10
-10.572403109
 20
24.422403109
 10
-10.5629092831
 20
24.4314124395
 10
-10.5529569826
 20
24.4399125818
 10
-10.542573485
 20
24.4478802386
 10
-10.5317872494
 20
24.455293572
 10
-10.5206278389
 20
24.4621322634
 10
-10.5091258393
 20
24.4683775693
 10
-10.4973127755
 20
24.4740123724
 10
-10.4852210249
 20
24.4790212289
 10
-10.4728837286
 20
24.4833904104
 10
-10.4603347009
 20
24.4871079418
 10
-10.4476083364
 20
24.490163634
 10
-10.4347395155
 20
24.492549112
 10
-10.4217635094
 20
24.4942578375
 10
-10.4087158828
 20
24.4952851274
 10
-10.3956323968
 20
24.495628166
  0
LINE
  5
2E1
100
AcDbEntity
  8
ASSI
100
AcDbLine
 62
7
  6
CONTINUOUS
 10
4.2610120715
 20
23.6222095469
 11
4.2344621874
 21
23.5918579051
  0
LINE
  5
2E2
100
AcDbEntity
  8
ASSI
100
AcDbLine
 62
7
  6
CONTINUOUS
 10
4.2344621874
 20
23.5918579051
 11
4.2041007772
 21
23.5576772686
  0
LINE
  5
2E3
100
AcDbEntity
  8
RACCORDO
100
AcDbLine
 62
7
  6
CONTINUOUS
 10
7.0000190385
 20
-10.9
 11
5.5
 21
-10.9
  0
LINE
  5
2E4
100
AcDbEntity
  8
ASSI
100
AcDbLine
 62
7
  6
CONTINUOUS
 10
7.0000190385
 20
-10.9
 11
5.5
 21
-10.9
  0
LINE
  5
2E5
100
AcDbEntity
  8
DRAFT
100
AcDbLine
 62
7
  6
CONTINUOUS
 10
4.5
 20
-10.9
 11
-4.5
 21
-10.9
  0
LINE
  5
2E6
100
AcDbEntity
  8
ASSI
100
AcDbLine
 62
7
  6
CONTINUOUS
 10
4.5
 20
-10.9
 11
-4.5
 21
-10.9
  0
LINE
  5
2E7
100
AcDbEntity
  8
RACCORDO
100
AcDbLine
 62
7
  6
CONTINUOUS
 10
-5.5
 20
-10.9
 11
-7.0000190385
 21
-10.9
  0
LINE
  5
2E8
100
AcDbEntity
  8
ASSI
100
AcDbLine
 62
7
  6
CONTINUOUS
 10
-5.5
 20
-10.9
 11
-7.0000190385
 21
-10.9
  0
LINE
  5
2E9
100
AcDbEntity
  8
DRAFT
100
AcDbLine
 62
7
  6
CONTINUOUS
 10
4.5795771341
 20
-10.8204228659
 11
5.4204228659
 21
-10.8204228659
  0
LINE
  5
2EA
100
AcDbEntity
  8
ASSI
100
AcDbLine
 62
7
  6
CONTINUOUS
 10
4.5795771341
 20
-10.8204228659
 11
5.4204228659
 21
-10.8204228659
  0
LINE
  5
2EB
100
AcDbEntity
  8
DRAFT
100
AcDbLine
 62
7
  6
CONTINUOUS
 10
-4.5795771341
 20
-10.8204228659
 11
-5.4204228659
 21
-10.8204228659
  0
LINE
  5
2EC
100
AcDbEntity
  8
ASSI
100
AcDbLine
 62
7
  6
CONTINUOUS
 10
-4.5795771341
 20
-10.8204228659
 11
-5.4204228659
 21
-10.8204228659
  0
LINE
  5
2ED
100
AcDbEntity
  8
DRAFT
100
AcDbLine
 62
7
  6
CONTINUOUS
 10
6.5
 20
-10.8188401295
 11
-6.5
 21
-10.8188401295
  0
LINE
  5
2EE
100
AcDbEntity
  8
ASSI
100
AcDbLine
 62
7
  6
CONTINUOUS
 10
6.5
 20
-10.8188401295
 11
-6.5
 21
-10.8188401295
  0
LINE
  5
2EF
100
AcDbEntity
  8
RACCORDO
100
AcDbLine
 62
7
  6
CONTINUOUS
 10
6.9101323002
 20
-10.8101132618
 11
6.8122642439
 21
-10.8101132618
  0
LINE
  5
2F0
100
AcDbEntity
  8
ASSI
100
AcDbLine
 62
7
  6
CONTINUOUS
 10
6.9101323002
 20
-10.8101132618
 11
6.8122642439
 21
-10.8101132618
  0
LINE
  5
2F1
100
AcDbEntity
  8
RACCORDO
100
AcDbLine
 62
7
  6
CONTINUOUS
 10
-6.8122642439
 20
-10.8101132618
 11
-6.9101323002
 21
-10.8101132618
  0
LINE
  5
2F2
100
AcDbEntity
  8
ASSI
100
AcDbLine
 62
7
  6
CONTINUOUS
 10
-6.8122642439
 20
-10.8101132618
 11
-6.9101323002
 21
-10.8101132618
  0
LINE
  5
2F3
100
AcDbEntity
  8
RACCORDO
100
AcDbLine
 62
7
  6
CONTINUOUS
 10
-6.5123099353
 20
-10.8126856306
 11
-6.5
 21
-10.8188401295
  0
LINE
  5
2F4
100
AcDbEntity
  8
ASSI
100
AcDbLine
 62
7
  6
CONTINUOUS
 10
-6.5123099353
 20
-10.8126856306
 11
-6.5
 21
-10.8188401295
  0
LINE
  5
2F5
100
AcDbEntity
  8
DRAFT
100
AcDbLine
 62
7
  6
CONTINUOUS
 10
-9.65
 20
-8.8223308767
 11
-9.4946499221
 21
-8.9
  0
LINE
  5
2F6
100
AcDbEntity
  8
ASSI
100
AcDbLine
 62
7
  6
CONTINUOUS
 10
-9.65
 20
-8.8223308767
 11
-9.4946499221
 21
-8.9
  0
LINE
  5
2F7
100
AcDbEntity
  8
RACCORDO
100
AcDbLine
 62
253
  6
CONTINUOUS
 10
-6.5123099353
 20
-10.1876443732
 11
-6.5
 21
-10.1999543085
  0
LINE
  5
2F8
100
AcDbEntity
  8
ASSI
100
AcDbLine
 62
253
  6
CONTINUOUS
 10
-6.5123099353
 20
-10.1876443732
 11
-6.5
 21
-10.1999543085
  0
LINE
  5
2F9
100
AcDbEntity
  8
DRAFT
100
AcDbLine
 62
7
  6
CONTINUOUS
 10
-8.4101132618
 20
-7.9898867382
 11
-8.5
 21
-7.9
  0
LINE
  5
2FA
100
AcDbEntity
  8
ASSI
100
AcDbLine
 62
7
  6
CONTINUOUS
 10
-8.4101132618
 20
-7.9898867382
 11
-8.5
 21
-7.9
  0
LINE
  5
2FB
100
AcDbEntity
  8
RACCORDO
100
AcDbLine
 62
253
  6
CONTINUOUS
 10
-6.2123556268
 20
-9.8876900647
 11
-6.2000456915
 21
-9.9
  0
LINE
  5
2FC
100
AcDbEntity
  8
ASSI
100
AcDbLine
 62
253
  6
CONTINUOUS
 10
-6.2123556268
 20
-9.8876900647
 11
-6.2000456915
 21
-9.9
  0
LINE
  5
2FD
100
AcDbEntity
  8
DRAFT
100
AcDbLine
 62
7
  6
CONTINUOUS
 10
-4.5
 20
-10.9
 11
-4.5795771341
 21
-10.8204228659
  0
LINE
  5
2FE
100
AcDbEntity
  8
ASSI
100
AcDbLine
 62
7
  6
CONTINUOUS
 10
-4.5
 20
-10.9
 11
-4.5795771341
 21
-10.8204228659
  0
LINE
  5
2FF
100
AcDbEntity
  8
ASSI
100
AcDbLine
 62
7
  6
CONTINUOUS
 10
4.2042293299
 20
-23.5578207413
 11
4.2346214988
 21
-23.5920385457
  0
LWPOLYLINE
  5
300
100
AcDbEntity
  8
ASSI
100
AcDbPolyline
 62
7
  6
CONTINUOUS
 90
18
 70
0
 10
4.2346214988
 20
-23.5920385457
 10
4.261184351
 20
-23.6224079992
 10
4.2730977873
 20
-23.6362381892
 10
4.28412319
 20
-23.6491881602
 10
4.294271948
 20
-23.6612588713
 10
4.3035883497
 20
-23.6725244939
 10
4.3120752357
 20
-23.6829815422
 10
4.319752274
 20
-23.692633502
 10
4.3266728146
 20
-23.7015650018
 10
4.3328521255
 20
-23.7097961262
 10
4.3382798184
 20
-23.7173067906
 10
4.3429611755
 20
-23.7241213695
 10
4.3469056421
 20
-23.7302356312
 10
4.3501212873
 20
-23.7356538073
 10
4.3526164863
 20
-23.7404129678
 10
4.354405432
 20
-23.7445254691
 10
4.3555052012
 20
-23.7479789548
 10
4.3559327327
 20
-23.7507734247
  0
LWPOLYLINE
  5
301
100
AcDbEntity
  8
RACCORDO
100
AcDbPolyline
 62
253
  6
CONTINUOUS
 90
31
 70
0
 10
-10.645628166
 20
23.8443375673
 10
-10.6452496104
 20
23.833039595
 10
-10.6441904828
 20
23.821769291
 10
-10.6424531063
 20
23.8105574212
 10
-10.6400414049
 20
23.7994336121
 10
-10.6369615346
 20
23.78842936
 10
-10.6332224836
 20
23.7775778202
 10
-10.6288349392
 20
23.7669096972
 10
-10.6238105402
 20
23.7564530239
 10
-10.6181628596
 20
23.746236105
 10
-10.6119071671
 20
23.7362866999
 10
-10.6050605925
 20
23.7266321754
 10
-10.5976419842
 20
23.7172991519
 10
-10.5896716801
 20
23.7083132018
 10
-10.5811713853
 20
23.6996987826
 10
-10.5721642949
 20
23.6914794042
 10
-10.5626749912
 20
23.6836775075
 10
-10.5527294041
 20
23.6763144193
 10
-10.5423547212
 20
23.6694102704
 10
-10.5315792888
 20
23.6629839239
 10
-10.5204325308
 20
23.6570529269
 10
-10.5089448938
 20
23.6516334796
 10
-10.497147737
 20
23.6467403776
 10
-10.4850733006
 20
23.6423869945
 10
-10.472754621
 20
23.6385852371
 10
-10.4602253856
 20
23.6353454907
 10
-10.4475197828
 20
23.6326765842
 10
-10.434672462
 20
23.6305857918
 10
-10.4217184947
 20
23.6290788219
 10
-10.408693281
 20
23.6281597935
 10
-10.3956323968
 20
23.6278312164
  0
LWPOLYLINE
  5
302
100
AcDbEntity
  8
ASSI
100
AcDbPolyline
 62
253
  6
CONTINUOUS
 90
31
 70
0
 10
-10.645628166
 20
23.8443375673
 10
-10.6452496104
 20
23.833039595
 10
-10.6441904828
 20
23.821769291
 10
-10.6424531063
 20
23.8105574212
 10
-10.6400414049
 20
23.7994336121
 10
-10.6369615346
 20
23.78842936
 10
-10.6332224836
 20
23.7775778202
 10
-10.6288349392
 20
23.7669096972
 10
-10.6238105402
 20
23.7564530239
 10
-10.6181628596
 20
23.746236105
 10
-10.6119071671
 20
23.7362866999
 10
-10.6050605925
 20
23.7266321754
 10
-10.5976419842
 20
23.7172991519
 10
-10.5896716801
 20
23.7083132018
 10
-10.5811713853
 20
23.6996987826
 10
-10.5721642949
 20
23.6914794042
 10
-10.5626749912
 20
23.6836775075
 10
-10.5527294041
 20
23.6763144193
 10
-10.5423547212
 20
23.6694102704
 10
-10.5315792888
 20
23.6629839239
 10
-10.5204325308
 20
23.6570529269
 10
-10.5089448938
 20
23.6516334796
 10
-10.497147737
 20
23.6467403776
 10
-10.4850733006
 20
23.6423869945
 10
-10.472754621
 20
23.6385852371
 10
-10.4602253856
 20
23.6353454907
 10
-10.4475197828
 20
23.6326765842
 10
-10.434672462
 20
23.6305857918
 10
-10.4217184947
 20
23.6290788219
 10
-10.408693281
 20
23.6281597935
 10
-10.3956323968
 20
23.6278312164
  0
LWPOLYLINE
  5
303
100
AcDbEntity
  8
RACCORDO
100
AcDbPolyline
 62
253
  6
CONTINUOUS
 90
31
 70
0
 10
-8.254371834
 20
-23.8443375673
 10
-8.2547511657
 20
-23.8330274168
 10
-8.2558121477
 20
-23.8217481519
 10
-8.2575518825
 20
-23.810530574
 10
-8.2599656195
 20
-23.7994053159
 10
-8.2630467671
 20
-23.7884027584
 10
-8.2667869113
 20
-23.7775529472
 10
-8.2711758387
 20
-23.7668855107
 10
-8.276201564
 20
-23.7564295797
 10
-8.281850363
 20
-23.7462137069
 10
-8.2881068099
 20
-23.7362657898
 10
-8.2949538199
 20
-23.7266129942
 10
-8.302372695
 20
-23.7172816797
 10
-8.3103431759
 20
-23.7082973282
 10
-8.3188434969
 20
-23.6996844742
 10
-8.3278504455
 20
-23.6914666374
 10
-8.3373394254
 20
-23.6836662592
 10
-8.3472845243
 20
-23.6763046407
 10
-8.3576585842
 20
-23.6694018849
 10
-8.3684332757
 20
-23.6629768418
 10
-8.3795791754
 20
-23.6570470569
 10
-8.3910658462
 20
-23.6516287232
 10
-8.4028619204
 20
-23.646736637
 10
-8.4149351853
 20
-23.6423841576
 10
-8.4272526715
 20
-23.6385831707
 10
-8.4397807423
 20
-23.6353440559
 10
-8.4524851864
 20
-23.6326756587
 10
-8.4653313105
 20
-23.6305852658
 10
-8.4782840345
 20
-23.6290785857
 10
-8.4913079873
 20
-23.6281597328
 10
-8.5043676032
 20
-23.6278312164
  0
LWPOLYLINE
  5
304
100
AcDbEntity
  8
ASSI
100
AcDbPolyline
 62
253
  6
CONTINUOUS
 90
31
 70
0
 10
-8.254371834
 20
-23.8443375673
 10
-8.2547511657
 20
-23.8330274168
 10
-8.2558121477
 20
-23.8217481519
 10
-8.2575518825
 20
-23.810530574
 10
-8.2599656195
 20
-23.7994053159
 10
-8.2630467671
 20
-23.7884027584
 10
-8.2667869113
 20
-23.7775529472
 10
-8.2711758387
 20
-23.7668855107
 10
-8.276201564
 20
-23.7564295797
 10
-8.281850363
 20
-23.7462137069
 10
-8.2881068099
 20
-23.7362657898
 10
-8.2949538199
 20
-23.7266129942
 10
-8.302372695
 20
-23.7172816797
 10
-8.3103431759
 20
-23.7082973282
 10
-8.3188434969
 20
-23.6996844742
 10
-8.3278504455
 20
-23.6914666374
 10
-8.3373394254
 20
-23.6836662592
 10
-8.3472845243
 20
-23.6763046407
 10
-8.3576585842
 20
-23.6694018849
 10
-8.3684332757
 20
-23.6629768418
 10
-8.3795791754
 20
-23.6570470569
 10
-8.3910658462
 20
-23.6516287232
 10
-8.4028619204
 20
-23.646736637
 10
-8.4149351853
 20
-23.6423841576
 10
-8.4272526715
 20
-23.6385831707
 10
-8.4397807423
 20
-23.6353440559
 10
-8.4524851864
 20
-23.6326756587
 10
-8.4653313105
 20
-23.6305852658
 10
-8.4782840345
 20
-23.6290785857
 10
-8.4913079873
 20
-23.6281597328
 10
-8.5043676032
 20
-23.6278312164
  0
LINE
  5
305
100
AcDbEntity
  8
RACCORDO
100
AcDbLine
 62
253
  6
CONTINUOUS
 10
-10.3956323968
 20
-23.6278312164
 11
-10.4007229979
 21
-23.1226497308
  0
LINE
  5
306
100
AcDbEntity
  8
ASSI
100
AcDbLine
 62
253
  6
CONTINUOUS
 10
-10.3956323968
 20
-23.6278312164
 11
-10.4007229979
 21
-23.1226497308
  0
LINE
  5
307
100
AcDbEntity
  8
RACCORDO
100
AcDbLine
 62
7
  6
CONTINUOUS
 10
-10.65
 20
-22.399689968
 11
-10.65
 21
-23.8443375673
  0
LINE
  5
308
100
AcDbEntity
  8
ASSI
100
AcDbLine
 62
7
  6
CONTINUOUS
 10
-10.65
 20
-22.399689968
 11
-10.65
 21
-23.8443375673
  0
LINE
  5
309
100
AcDbEntity
  8
RACCORDO
100
AcDbLine
 62
7
  6
CONTINUOUS
 10
-10.65
 20
22.399689968
 11
-10.65
 21
23.8443375673
  0
LINE
  5
30A
100
AcDbEntity
  8
ASSI
100
AcDbLine
 62
7
  6
CONTINUOUS
 10
-10.65
 20
22.399689968
 11
-10.65
 21
23.8443375673
  0
LINE
  5
30B
100
AcDbEntity
  8
RACCORDO
100
AcDbLine
 62
253
  6
CONTINUOUS
 10
-10.645628166
 20
24.2456323968
 11
-10.645628166
 21
23.8443375673
  0
LINE
  5
30C
100
AcDbEntity
  8
ASSI
100
AcDbLine
 62
7
  6
CONTINUOUS
 10
-10.645628166
 20
24.2456323968
 11
-10.645628166
 21
23.8443375673
  0
LINE
  5
30D
100
AcDbEntity
  8
RACCORDO
100
AcDbLine
 62
253
  6
CONTINUOUS
 10
-10.645628166
 20
-23.8443375673
 11
-10.645628166
 21
-24.2456323968
  0
LINE
  5
30E
100
AcDbEntity
  8
ASSI
100
AcDbLine
 62
7
  6
CONTINUOUS
 10
-10.645628166
 20
-23.8443375673
 11
-10.645628166
 21
-24.2456323968
  0
LINE
  5
30F
100
AcDbEntity
  8
RACCORDO
100
AcDbLine
 62
253
  6
CONTINUOUS
 10
-10.3956323968
 20
-23.6278312164
 11
-10.3956323968
 21
-24.495628166
  0
LINE
  5
310
100
AcDbEntity
  8
ASSI
100
AcDbLine
 62
253
  6
CONTINUOUS
 10
-10.3956323968
 20
-23.6278312164
 11
-10.3956323968
 21
-24.495628166
  0
LINE
  5
311
100
AcDbEntity
  8
RACCORDO
100
AcDbLine
 62
253
  6
CONTINUOUS
 10
-10.3956323968
 20
23.6278312164
 11
-10.3956323968
 21
24.495628166
  0
LINE
  5
312
100
AcDbEntity
  8
ASSI
100
AcDbLine
 62
253
  6
CONTINUOUS
 10
-10.3956323968
 20
23.6278312164
 11
-10.3956323968
 21
24.495628166
  0
LINE
  5
313
100
AcDbEntity
  8
DRAFT
100
AcDbLine
 62
7
  6
CONTINUOUS
 10
-9.65
 20
12.4223308767
 11
-9.65
 21
-8.8223308767
  0
LINE
  5
314
100
AcDbEntity
  8
RACCORDO
100
AcDbLine
 62
7
  6
CONTINUOUS
 10
-9.65
 20
-20.3997711479
 11
-9.65
 21
-8.8223308767
  0
LINE
  5
315
100
AcDbEntity
  8
RACCORDO
100
AcDbLine
 62
7
  6
CONTINUOUS
 10
-9.65
 20
12.4223308767
 11
-9.65
 21
20.3997711479
  0
LINE
  5
316
100
AcDbEntity
  8
ASSI
100
AcDbLine
 62
7
  6
CONTINUOUS
 10
-9.65
 20
-20.3997711479
 11
-9.65
 21
20.3997711479
  0
LINE
  5
317
100
AcDbEntity
  8
RACCORDO
100
AcDbLine
 62
7
  6
CONTINUOUS
 10
-9.5871617663
 20
20.2111031425
 11
-9.5871617663
 21
19.8
  0
LINE
  5
318
100
AcDbEntity
  8
ASSI
100
AcDbLine
 62
7
  6
CONTINUOUS
 10
-9.5871617663
 20
20.2111031425
 11
-9.5871617663
 21
19.8
  0
LINE
  5
319
100
AcDbEntity
  8
RACCORDO
100
AcDbLine
 62
7
  6
CONTINUOUS
 10
-9.529560052
 20
19.3
 11
-9.529560052
 21
15.2792978419
  0
LINE
  5
31A
100
AcDbEntity
  8
ASSI
100
AcDbLine
 62
7
  6
CONTINUOUS
 10
-9.529560052
 20
19.3
 11
-9.529560052
 21
15.2792978419
  0
LINE
  5
31B
100
AcDbEntity
  8
DRAFT
100
AcDbLine
 62
7
  6
CONTINUOUS
 10
-9.4946499221
 20
14.7
 11
-9.4946499221
 21
12.5
  0
LINE
  5
31C
100
AcDbEntity
  8
ASSI
100
AcDbLine
 62
7
  6
CONTINUOUS
 10
-9.4946499221
 20
14.7
 11
-9.4946499221
 21
12.5
  0
LINE
  5
31D
100
AcDbEntity
  8
RACCORDO
100
AcDbLine
 62
7
  6
CONTINUOUS
 10
-9.4946499221
 20
-8.9
 11
-9.4946499221
 21
-19.9333419123
  0
LINE
  5
31E
100
AcDbEntity
  8
ASSI
100
AcDbLine
 62
7
  6
CONTINUOUS
 10
-9.4946499221
 20
-8.9
 11
-9.4946499221
 21
-19.9333419123
  0
LINE
  5
31F
100
AcDbEntity
  8
DRAFT
100
AcDbLine
 62
7
  6
CONTINUOUS
 10
-9.4946499221
 20
-7.9
 11
-9.4946499221
 21
-0.5
  0
LINE
  5
320
100
AcDbEntity
  8
ASSI
100
AcDbLine
 62
7
  6
CONTINUOUS
 10
-9.4946499221
 20
-7.9
 11
-9.4946499221
 21
-0.5
  0
LINE
  5
321
100
AcDbEntity
  8
DRAFT
100
AcDbLine
 62
7
  6
CONTINUOUS
 10
-9.4946499221
 20
0.5
 11
-9.4946499221
 21
7.2
  0
LINE
  5
322
100
AcDbEntity
  8
ASSI
100
AcDbLine
 62
7
  6
CONTINUOUS
 10
-9.4946499221
 20
0.5
 11
-9.4946499221
 21
7.2
  0
LINE
  5
323
100
AcDbEntity
  8
DRAFT
100
AcDbLine
 62
7
  6
CONTINUOUS
 10
-9.4946499221
 20
8.35
 11
-9.4946499221
 21
11.5
  0
LINE
  5
324
100
AcDbEntity
  8
ASSI
100
AcDbLine
 62
7
  6
CONTINUOUS
 10
-9.4946499221
 20
8.35
 11
-9.4946499221
 21
11.5
  0
LINE
  5
325
100
AcDbEntity
  8
RACCORDO
100
AcDbLine
 62
253
  6
CONTINUOUS
 10
-9.2122871968
 20
12.4118358927
 11
-9.2122871968
 21
11.5881641073
  0
LINE
  5
326
100
AcDbEntity
  8
ASSI
100
AcDbLine
 62
253
  6
CONTINUOUS
 10
-9.2122871968
 20
12.4118358927
 11
-9.2122871968
 21
11.5881641073
  0
LINE
  5
327
100
AcDbEntity
  8
RACCORDO
100
AcDbLine
 62
253
  6
CONTINUOUS
 10
-9.2122871968
 20
8.35
 11
-9.2122871968
 21
7.2881641073
  0
LINE
  5
328
100
AcDbEntity
  8
ASSI
100
AcDbLine
 62
253
  6
CONTINUOUS
 10
-9.2122871968
 20
8.35
 11
-9.2122871968
 21
7.2881641073
  0
LINE
  5
329
100
AcDbEntity
  8
RACCORDO
100
AcDbLine
 62
253
  6
CONTINUOUS
 10
-9.2122871968
 20
0.4118358927
 11
-9.2122871968
 21
-0.4118358927
  0
LINE
  5
32A
100
AcDbEntity
  8
ASSI
100
AcDbLine
 62
253
  6
CONTINUOUS
 10
-9.2122871968
 20
0.4118358927
 11
-9.2122871968
 21
-0.4118358927
  0
LINE
  5
32B
100
AcDbEntity
  8
RACCORDO
100
AcDbLine
 62
253
  6
CONTINUOUS
 10
-9.2122871968
 20
-7.9881641073
 11
-9.2122871968
 21
-8.8118358927
  0
LINE
  5
32C
100
AcDbEntity
  8
ASSI
100
AcDbLine
 62
253
  6
CONTINUOUS
 10
-9.2122871968
 20
-7.9881641073
 11
-9.2122871968
 21
-8.8118358927
  0
LINE
  5
32D
100
AcDbEntity
  8
RACCORDO
100
AcDbLine
 62
253
  6
CONTINUOUS
 10
-8.9303794106
 20
12.4101132618
 11
-8.9303794106
 21
11.5898867382
  0
LINE
  5
32E
100
AcDbEntity
  8
ASSI
100
AcDbLine
 62
253
  6
CONTINUOUS
 10
-8.9303794106
 20
12.4101132618
 11
-8.9303794106
 21
11.5898867382
  0
LINE
  5
32F
100
AcDbEntity
  8
RACCORDO
100
AcDbLine
 62
253
  6
CONTINUOUS
 10
-8.9303794106
 20
8.35
 11
-8.9303794106
 21
7.2898867382
  0
LINE
  5
330
100
AcDbEntity
  8
ASSI
100
AcDbLine
 62
253
  6
CONTINUOUS
 10
-8.9303794106
 20
8.35
 11
-8.9303794106
 21
7.2898867382
  0
LINE
  5
331
100
AcDbEntity
  8
RACCORDO
100
AcDbLine
 62
253
  6
CONTINUOUS
 10
-8.9303794106
 20
0.4101132618
 11
-8.9303794106
 21
-0.4101132618
  0
LINE
  5
332
100
AcDbEntity
  8
ASSI
100
AcDbLine
 62
253
  6
CONTINUOUS
 10
-8.9303794106
 20
0.4101132618
 11
-8.9303794106
 21
-0.4101132618
  0
LINE
  5
333
100
AcDbEntity
  8
RACCORDO
100
AcDbLine
 62
253
  6
CONTINUOUS
 10
-8.9303794106
 20
-7.9898867382
 11
-8.9303794106
 21
-8.8101132618
  0
LINE
  5
334
100
AcDbEntity
  8
ASSI
100
AcDbLine
 62
253
  6
CONTINUOUS
 10
-8.9303794106
 20
-7.9898867382
 11
-8.9303794106
 21
-8.8101132618
  0
LINE
  5
335
100
AcDbEntity
  8
RACCORDO
100
AcDbLine
 62
253
  6
CONTINUOUS
 10
-10.4007229979
 20
23.1226497308
 11
-10.3956323968
 21
23.6278312164
  0
LINE
  5
336
100
AcDbEntity
  8
ASSI
100
AcDbLine
 62
253
  6
CONTINUOUS
 10
-10.4007229979
 20
23.1226497308
 11
-10.3956323968
 21
23.6278312164
  0
LWPOLYLINE
  5
337
100
AcDbEntity
  8
RACCORDO
100
AcDbPolyline
 62
253
  6
CONTINUOUS
 90
31
 70
0
 10
-10.645628166
 20
-23.8443375673
 10
-10.6452496104
 20
-23.833039595
 10
-10.6441904828
 20
-23.821769291
 10
-10.6424531063
 20
-23.8105574212
 10
-10.6400414049
 20
-23.7994336121
 10
-10.6369615346
 20
-23.78842936
 10
-10.6332224836
 20
-23.7775778202
 10
-10.6288349392
 20
-23.7669096972
 10
-10.6238105402
 20
-23.7564530239
 10
-10.6181628596
 20
-23.746236105
 10
-10.6119071671
 20
-23.7362866999
 10
-10.6050605925
 20
-23.7266321754
 10
-10.5976419842
 20
-23.7172991519
 10
-10.5896716801
 20
-23.7083132018
 10
-10.5811713853
 20
-23.6996987826
 10
-10.5721642949
 20
-23.6914794042
 10
-10.5626749912
 20
-23.6836775075
 10
-10.5527294041
 20
-23.6763144193
 10
-10.5423547212
 20
-23.6694102704
 10
-10.5315792888
 20
-23.6629839239
 10
-10.5204325308
 20
-23.6570529269
 10
-10.5089448938
 20
-23.6516334796
 10
-10.497147737
 20
-23.6467403776
 10
-10.4850733006
 20
-23.6423869945
 10
-10.472754621
 20
-23.6385852371
 10
-10.4602253856
 20
-23.6353454907
 10
-10.4475197828
 20
-23.6326765842
 10
-10.434672462
 20
-23.6305857918
 10
-10.4217184947
 20
-23.6290788219
 10
-10.408693281
 20
-23.6281597935
 10
-10.3956323968
 20
-23.6278312164
  0
LWPOLYLINE
  5
338
100
AcDbEntity
  8
ASSI
100
AcDbPolyline
 62
253
  6
CONTINUOUS
 90
31
 70
0
 10
-10.645628166
 20
-23.8443375673
 10
-10.6452496104
 20
-23.833039595
 10
-10.6441904828
 20
-23.821769291
 10
-10.6424531063
 20
-23.8105574212
 10
-10.6400414049
 20
-23.7994336121
 10
-10.6369615346
 20
-23.78842936
 10
-10.6332224836
 20
-23.7775778202
 10
-10.6288349392
 20
-23.7669096972
 10
-10.6238105402
 20
-23.7564530239
 10
-10.6181628596
 20
-23.746236105
 10
-10.6119071671
 20
-23.7362866999
 10
-10.6050605925
 20
-23.7266321754
 10
-10.5976419842
 20
-23.7172991519
 10
-10.5896716801
 20
-23.7083132018
 10
-10.5811713853
 20
-23.6996987826
 10
-10.5721642949
 20
-23.6914794042
 10
-10.5626749912
 20
-23.6836775075
 10
-10.5527294041
 20
-23.6763144193
 10
-10.5423547212
 20
-23.6694102704
 10
-10.5315792888
 20
-23.6629839239
 10
-10.5204325308
 20
-23.6570529269
 10
-10.5089448938
 20
-23.6516334796
 10
-10.497147737
 20
-23.6467403776
 10
-10.4850733006
 20
-23.6423869945
 10
-10.472754621
 20
-23.6385852371
 10
-10.4602253856
 20
-23.6353454907
 10
-10.4475197828
 20
-23.6326765842
 10
-10.434672462
 20
-23.6305857918
 10
-10.4217184947
 20
-23.6290788219
 10
-10.408693281
 20
-23.6281597935
 10
-10.3956323968
 20
-23.6278312164
  0
LWPOLYLINE
  5
339
100
AcDbEntity
  8
RACCORDO
100
AcDbPolyline
 62
253
  6
CONTINUOUS
 90
31
 70
0
 10
-8.254371834
 20
23.8443375673
 10
-8.2547503896
 20
23.833039595
 10
-8.2558095172
 20
23.821769291
 10
-8.2575468937
 20
23.8105574212
 10
-8.2599585951
 20
23.7994336121
 10
-8.2630384654
 20
23.78842936
 10
-8.2667775164
 20
23.7775778202
 10
-8.2711650608
 20
23.7669096972
 10
-8.2761894598
 20
23.7564530239
 10
-8.2818371404
 20
23.746236105
 10
-8.2880928329
 20
23.7362866999
 10
-8.2949394075
 20
23.7266321754
 10
-8.3023580158
 20
23.7172991519
 10
-8.3103283199
 20
23.7083132018
 10
-8.3188286147
 20
23.6996987826
 10
-8.3278357051
 20
23.6914794042
 10
-8.3373250088
 20
23.6836775075
 10
-8.3472705959
 20
23.6763144193
 10
-8.3576452788
 20
23.6694102704
 10
-8.3684207112
 20
23.6629839239
 10
-8.3795674692
 20
23.6570529269
 10
-8.3910551062
 20
23.6516334796
 10
-8.402852263
 20
23.6467403776
 10
-8.4149266994
 20
23.6423869945
 10
-8.427245379
 20
23.6385852371
 10
-8.4397746144
 20
23.6353454907
 10
-8.4524802172
 20
23.6326765842
 10
-8.465327538
 20
23.6305857918
 10
-8.4782815053
 20
23.6290788219
 10
-8.491306719
 20
23.6281597935
 10
-8.5043676032
 20
23.6278312164
  0
LWPOLYLINE
  5
33A
100
AcDbEntity
  8
ASSI
100
AcDbPolyline
 62
253
  6
CONTINUOUS
 90
31
 70
0
 10
-8.254371834
 20
23.8443375673
 10
-8.2547503896
 20
23.833039595
 10
-8.2558095172
 20
23.821769291
 10
-8.2575468937
 20
23.8105574212
 10
-8.2599585951
 20
23.7994336121
 10
-8.2630384654
 20
23.78842936
 10
-8.2667775164
 20
23.7775778202
 10
-8.2711650608
 20
23.7669096972
 10
-8.2761894598
 20
23.7564530239
 10
-8.2818371404
 20
23.746236105
 10
-8.2880928329
 20
23.7362866999
 10
-8.2949394075
 20
23.7266321754
 10
-8.3023580158
 20
23.7172991519
 10
-8.3103283199
 20
23.7083132018
 10
-8.3188286147
 20
23.6996987826
 10
-8.3278357051
 20
23.6914794042
 10
-8.3373250088
 20
23.6836775075
 10
-8.3472705959
 20
23.6763144193
 10
-8.3576452788
 20
23.6694102704
 10
-8.3684207112
 20
23.6629839239
 10
-8.3795674692
 20
23.6570529269
 10
-8.3910551062
 20
23.6516334796
 10
-8.402852263
 20
23.6467403776
 10
-8.4149266994
 20
23.6423869945
 10
-8.427245379
 20
23.6385852371
 10
-8.4397746144
 20
23.6353454907
 10
-8.4524802172
 20
23.6326765842
 10
-8.465327538
 20
23.6305857918
 10
-8.4782815053
 20
23.6290788219
 10
-8.491306719
 20
23.6281597935
 10
-8.5043676032
 20
23.6278312164
  0
LINE
  5
33B
100
AcDbEntity
  8
0
100
AcDbLine
 62
7
  6
CONTINUOUS
 10
-7.3209441873
 20
20.7113319946
 11
-7.2988376746
 21
20.9104703804
  0
LINE
  5
33C
100
AcDbEntity
  8
ASSI
100
AcDbLine
 62
7
  6
CONTINUOUS
 10
-7.3209441873
 20
20.7113319946
 11
-7.2988376746
 21
20.9104703804
  0
LWPOLYLINE
  5
33D
100
AcDbEntity
  8
RACCORDO
100
AcDbPolyline
 62
253
  6
CONTINUOUS
 90
40
 70
0
 10
-6.2123556268
 20
-9.5877357561
 10
-6.2361385987
 20
-9.5881909062
 10
-6.2599071514
 20
-9.5896081277
 10
-6.283661285
 20
-9.5919874208
 10
-6.3074567775
 20
-9.5953296346
 10
-6.3312378508
 20
-9.5996339199
 10
-6.3548371708
 20
-9.6048977291
 10
-6.3782507333
 20
-9.6111322298
 10
-6.4014825426
 20
-9.6183262544
 10
-6.4243772773
 20
-9.6264437525
 10
-6.4469293645
 20
-9.6354942028
 10
-6.4691443772
 20
-9.6454681265
 10
-6.4908837125
 20
-9.6563010368
 10
-6.5121337842
 20
-9.667994363
 10
-6.5329081785
 20
-9.6805466757
 10
-6.5531090521
 20
-9.6938891997
 10
-6.5727294958
 20
-9.7080215247
 10
-6.5917764187
 20
-9.722944061
 10
-6.6101727048
 20
-9.7385892642
 10
-6.6279167925
 20
-9.7549588296
 10
-6.6450102435
 20
-9.7720510619
 10
-6.6613806259
 20
-9.7897933308
 10
-6.6770261596
 20
-9.8081870444
 10
-6.6919486248
 20
-9.8272307947
 10
-6.7060809307
 20
-9.8468477268
 10
-6.7194235084
 20
-9.8670446059
 10
-6.7319759269
 20
-9.8878146669
 10
-6.7436698016
 20
-9.9090607604
 10
-6.7545037875
 20
-9.9307962874
 10
-6.7644792297
 20
-9.9530078469
 10
-6.7735317788
 20
-9.9755580858
 10
-6.7816521937
 20
-9.9984529456
 10
-6.7888497155
 20
-10.0216864848
 10
-6.7950877176
 20
-10.0451035261
 10
-6.8003550403
 20
-10.0687080694
 10
-6.8046628434
 20
-10.0924961148
 10
-6.80800798
 20
-10.1163004856
 10
-6.8103894011
 20
-10.1400654562
 10
-6.8118081558
 20
-10.163846752
 10
-6.8122642439
 20
-10.1876443732
  0
LWPOLYLINE
  5
33E
100
AcDbEntity
  8
ASSI
100
AcDbPolyline
 62
253
  6
CONTINUOUS
 90
40
 70
0
 10
-6.2123556268
 20
-9.5877357561
 10
-6.2361385987
 20
-9.5881909062
 10
-6.2599071514
 20
-9.5896081277
 10
-6.283661285
 20
-9.5919874208
 10
-6.3074567775
 20
-9.5953296346
 10
-6.3312378508
 20
-9.5996339199
 10
-6.3548371708
 20
-9.6048977291
 10
-6.3782507333
 20
-9.6111322298
 10
-6.4014825426
 20
-9.6183262544
 10
-6.4243772773
 20
-9.6264437525
 10
-6.4469293645
 20
-9.6354942028
 10
-6.4691443772
 20
-9.6454681265
 10
-6.4908837125
 20
-9.6563010368
 10
-6.5121337842
 20
-9.667994363
 10
-6.5329081785
 20
-9.6805466757
 10
-6.5531090521
 20
-9.6938891997
 10
-6.5727294958
 20
-9.7080215247
 10
-6.5917764187
 20
-9.722944061
 10
-6.6101727048
 20
-9.7385892642
 10
-6.6279167925
 20
-9.7549588296
 10
-6.6450102435
 20
-9.7720510619
 10
-6.6613806259
 20
-9.7897933308
 10
-6.6770261596
 20
-9.8081870444
 10
-6.6919486248
 20
-9.8272307947
 10
-6.7060809307
 20
-9.8468477268
 10
-6.7194235084
 20
-9.8670446059
 10
-6.7319759269
 20
-9.8878146669
 10
-6.7436698016
 20
-9.9090607604
 10
-6.7545037875
 20
-9.9307962874
 10
-6.7644792297
 20
-9.9530078469
 10
-6.7735317788
 20
-9.9755580858
 10
-6.7816521937
 20
-9.9984529456
 10
-6.7888497155
 20
-10.0216864848
 10
-6.7950877176
 20
-10.0451035261
 10
-6.8003550403
 20
-10.0687080694
 10
-6.8046628434
 20
-10.0924961148
 10
-6.80800798
 20
-10.1163004856
 10
-6.8103894011
 20
-10.1400654562
 10
-6.8118081558
 20
-10.163846752
 10
-6.8122642439
 20
-10.1876443732
  0
LINE
  5
33F
100
AcDbEntity
  8
RACCORDO
100
AcDbLine
 62
253
  6
CONTINUOUS
 10
-6.8122642439
 20
-10.1876443732
 11
-6.5123099353
 21
-10.1876443732
  0
LINE
  5
340
100
AcDbEntity
  8
ASSI
100
AcDbLine
 62
253
  6
CONTINUOUS
 10
-6.8122642439
 20
-10.1876443732
 11
-6.5123099353
 21
-10.1876443732
  0
LINE
  5
341
100
AcDbEntity
  8
RACCORDO
100
AcDbLine
 62
253
  6
CONTINUOUS
 10
6.8122642439
 20
-10.1876443732
 11
6.5123099353
 21
-10.1876443732
  0
LINE
  5
342
100
AcDbEntity
  8
ASSI
100
AcDbLine
 62
253
  6
CONTINUOUS
 10
6.8122642439
 20
-10.1876443732
 11
6.5123099353
 21
-10.1876443732
  0
LINE
  5
343
100
AcDbEntity
  8
RACCORDO
100
AcDbLine
 62
7
  6
CONTINUOUS
 10
6.2000456915
 20
-9.9
 11
-6.2000456915
 21
-9.9
  0
LINE
  5
344
100
AcDbEntity
  8
ASSI
100
AcDbLine
 62
7
  6
CONTINUOUS
 10
6.2000456915
 20
-9.9
 11
-6.2000456915
 21
-9.9
  0
LINE
  5
345
100
AcDbEntity
  8
RACCORDO
100
AcDbLine
 62
253
  6
CONTINUOUS
 10
-6.2123556268
 20
-9.8876900647
 11
6.2123556268
 21
-9.8876900647
  0
LINE
  5
346
100
AcDbEntity
  8
ASSI
100
AcDbLine
 62
253
  6
CONTINUOUS
 10
-6.2123556268
 20
-9.8876900647
 11
6.2123556268
 21
-9.8876900647
  0
LINE
  5
347
100
AcDbEntity
  8
RACCORDO
100
AcDbLine
 62
253
  6
CONTINUOUS
 10
-6.2123556268
 20
-9.5877357561
 11
6.2123556268
 21
-9.5877357561
  0
LINE
  5
348
100
AcDbEntity
  8
ASSI
100
AcDbLine
 62
253
  6
CONTINUOUS
 10
-6.2123556268
 20
-9.5877357561
 11
6.2123556268
 21
-9.5877357561
  0
LINE
  5
349
100
AcDbEntity
  8
0
100
AcDbLine
 62
7
  6
CONTINUOUS
 10
-6.0
 20
-8.95
 11
6.0
 21
-8.95
  0
LWPOLYLINE
  5
34A
100
AcDbEntity
  8
RACCORDO
100
AcDbPolyline
 62
253
  6
CONTINUOUS
 90
31
 70
0
 10
6.2123556268
 20
-9.8876900647
 10
6.2280710042
 20
-9.8880969714
 10
6.2437415919
 20
-9.8893261439
 10
6.2593244403
 20
-9.891374009
 10
6.2747769086
 20
-9.8942347394
 10
6.2900566182
 20
-9.8979003094
 10
6.3051215731
 20
-9.9023605005
 10
6.3199307566
 20
-9.9076029693
 10
6.3344434341
 20
-9.9136130801
 10
6.3486191567
 20
-9.920373842
 10
6.3624191205
 20
-9.9278663725
 10
6.3758058038
 20
-9.9360698985
 10
6.3887423412
 20
-9.9449614381
 10
6.4011929689
 20
-9.9545158657
 10
6.4131244751
 20
-9.9647071133
 10
6.4245057064
 20
-9.9755082492
 10
6.4353053131
 20
-9.9868893252
 10
6.4454941673
 20
-9.9988194201
 10
6.4550462941
 20
-10.0112683007
 10
6.4639357988
 20
-10.0242029688
 10
6.4721374311
 20
-10.0375874674
 10
6.4796284907
 20
-10.0513854218
 10
6.4863882297
 20
-10.0655595081
 10
6.4923976352
 20
-10.0800708186
 10
6.4976396803
 20
-10.0948789839
 10
6.5020997027
 20
-10.1099434274
 10
6.5057652481
 20
-10.1252230332
 10
6.5086259779
 20
-10.1406754779
 10
6.5106738415
 20
-10.1562582702
 10
6.5119030227
 20
-10.1719288849
 10
6.5123099353
 20
-10.1876443732
  0
LWPOLYLINE
  5
34B
100
AcDbEntity
  8
ASSI
100
AcDbPolyline
 62
253
  6
CONTINUOUS
 90
31
 70
0
 10
6.2123556268
 20
-9.8876900647
 10
6.2280710042
 20
-9.8880969714
 10
6.2437415919
 20
-9.8893261439
 10
6.2593244403
 20
-9.891374009
 10
6.2747769086
 20
-9.8942347394
 10
6.2900566182
 20
-9.8979003094
 10
6.3051215731
 20
-9.9023605005
 10
6.3199307566
 20
-9.9076029693
 10
6.3344434341
 20
-9.9136130801
 10
6.3486191567
 20
-9.920373842
 10
6.3624191205
 20
-9.9278663725
 10
6.3758058038
 20
-9.9360698985
 10
6.3887423412
 20
-9.9449614381
 10
6.4011929689
 20
-9.9545158657
 10
6.4131244751
 20
-9.9647071133
 10
6.4245057064
 20
-9.9755082492
 10
6.4353053131
 20
-9.9868893252
 10
6.4454941673
 20
-9.9988194201
 10
6.4550462941
 20
-10.0112683007
 10
6.4639357988
 20
-10.0242029688
 10
6.4721374311
 20
-10.0375874674
 10
6.4796284907
 20
-10.0513854218
 10
6.4863882297
 20
-10.0655595081
 10
6.4923976352
 20
-10.0800708186
 10
6.4976396803
 20
-10.0948789839
 10
6.5020997027
 20
-10.1099434274
 10
6.5057652481
 20
-10.1252230332
 10
6.5086259779
 20
-10.1406754779
 10
6.5106738415
 20
-10.1562582702
 10
6.5119030227
 20
-10.1719288849
 10
6.5123099353
 20
-10.1876443732
  0
LINE
  5
34C
100
AcDbEntity
  8
RACCORDO
100
AcDbLine
 62
7
  6
CONTINUOUS
 10
-8.5
 20
-5.9
 11
-8.4127084755
 21
-5.9872915245
  0
LINE
  5
34D
100
AcDbEntity
  8
ASSI
100
AcDbLine
 62
7
  6
CONTINUOUS
 10
-8.5
 20
-5.9
 11
-8.4127084755
 21
-5.9872915245
  0
LINE
  5
34E
100
AcDbEntity
  8
DRAFT
100
AcDbLine
 62
7
  6
CONTINUOUS
 10
-7.2988376746
 20
-20.9104703804
 11
-7.3517786853
 21
-20.4335707644
  0
LINE
  5
34F
100
AcDbEntity
  8
ASSI
100
AcDbLine
 62
7
  6
CONTINUOUS
 10
-7.2988376746
 20
-20.9104703804
 11
-7.3517786853
 21
-20.4335707644
  0
LINE
  5
350
100
AcDbEntity
  8
RACCORDO
100
AcDbLine
 62
253
  6
CONTINUOUS
 10
-7.2418217019
 20
-20.0275513222
 11
-7.3517786853
 21
-16.8065137252
  0
LINE
  5
351
100
AcDbEntity
  8
ASSI
100
AcDbLine
 62
253
  6
CONTINUOUS
 10
-7.2418217019
 20
-20.0275513222
 11
-7.3517786853
 21
-16.8065137252
  0
LINE
  5
352
100
AcDbEntity
  8
RACCORDO
100
AcDbLine
 62
253
  6
CONTINUOUS
 10
-8.5043676032
 20
23.6278312164
 11
-8.4992770021
 21
23.1226497308
  0
LINE
  5
353
100
AcDbEntity
  8
ASSI
100
AcDbLine
 62
253
  6
CONTINUOUS
 10
-8.5043676032
 20
23.6278312164
 11
-8.4992770021
 21
23.1226497308
  0
LINE
  5
354
100
AcDbEntity
  8
RACCORDO
100
AcDbLine
 62
253
  6
CONTINUOUS
 10
-8.254371834
 20
23.8443375673
 11
-8.25
 21
23.4104851482
  0
LINE
  5
355
100
AcDbEntity
  8
ASSI
100
AcDbLine
 62
253
  6
CONTINUOUS
 10
-8.254371834
 20
23.8443375673
 11
-8.25
 21
23.4104851482
  0
LINE
  5
356
100
AcDbEntity
  8
RACCORDO
100
AcDbLine
 62
253
  6
CONTINUOUS
 10
-8.5043676032
 20
-23.6278312164
 11
-8.5043676032
 21
-24.495628166
  0
LINE
  5
357
100
AcDbEntity
  8
ASSI
100
AcDbLine
 62
253
  6
CONTINUOUS
 10
-8.5043676032
 20
-23.6278312164
 11
-8.5043676032
 21
-24.495628166
  0
LINE
  5
358
100
AcDbEntity
  8
RACCORDO
100
AcDbLine
 62
253
  6
CONTINUOUS
 10
-8.5043676032
 20
23.6278312164
 11
-8.5043676032
 21
24.495628166
  0
LINE
  5
359
100
AcDbEntity
  8
ASSI
100
AcDbLine
 62
253
  6
CONTINUOUS
 10
-8.5043676032
 20
23.6278312164
 11
-8.5043676032
 21
24.495628166
  0
LINE
  5
35A
100
AcDbEntity
  8
DRAFT
100
AcDbLine
 62
7
  6
CONTINUOUS
 10
-8.5
 20
-5.9
 11
-8.5
 21
-7.9
  0
LINE
  5
35B
100
AcDbEntity
  8
ASSI
100
AcDbLine
 62
7
  6
CONTINUOUS
 10
-8.5
 20
-5.9
 11
-8.5
 21
-7.9
  0
LINE
  5
35C
100
AcDbEntity
  8
RACCORDO
100
AcDbLine
 62
7
  6
CONTINUOUS
 10
-8.4101132618
 20
-6.2872801014
 11
-8.4101132618
 21
-7.9898867382
  0
LINE
  5
35D
100
AcDbEntity
  8
ASSI
100
AcDbLine
 62
7
  6
CONTINUOUS
 10
-8.4101132618
 20
-6.2872801014
 11
-8.4101132618
 21
-7.9898867382
  0
LINE
  5
35E
100
AcDbEntity
  8
DRAFT
100
AcDbLine
 62
7
  6
CONTINUOUS
 10
-8.35
 20
9.6
 11
-8.35
 21
8.35
  0
LINE
  5
35F
100
AcDbEntity
  8
ASSI
100
AcDbLine
 62
7
  6
CONTINUOUS
 10
-8.35
 20
9.6
 11
-8.35
 21
8.35
  0
LINE
  5
360
100
AcDbEntity
  8
DRAFT
100
AcDbLine
 62
7
  6
CONTINUOUS
 10
-8.3325462644
 20
8.35
 11
-8.3325462644
 21
9.5825462644
  0
LINE
  5
361
100
AcDbEntity
  8
ASSI
100
AcDbLine
 62
7
  6
CONTINUOUS
 10
-8.3325462644
 20
8.35
 11
-8.3325462644
 21
9.5825462644
  0
LINE
  5
362
100
AcDbEntity
  8
RACCORDO
100
AcDbLine
 62
253
  6
CONTINUOUS
 10
-8.254371834
 20
-24.2456323968
 11
-8.254371834
 21
-23.8443375673
  0
LINE
  5
363
100
AcDbEntity
  8
ASSI
100
AcDbLine
 62
7
  6
CONTINUOUS
 10
-8.254371834
 20
-24.2456323968
 11
-8.254371834
 21
-23.8443375673
  0
LINE
  5
364
100
AcDbEntity
  8
RACCORDO
100
AcDbLine
 62
253
  6
CONTINUOUS
 10
-8.254371834
 20
23.8443375673
 11
-8.254371834
 21
24.2456323968
  0
LINE
  5
365
100
AcDbEntity
  8
ASSI
100
AcDbLine
 62
7
  6
CONTINUOUS
 10
-8.254371834
 20
23.8443375673
 11
-8.254371834
 21
24.2456323968
  0
LINE
  5
366
100
AcDbEntity
  8
DRAFT
100
AcDbLine
 62
7
  6
CONTINUOUS
 10
-8.25
 20
-21.4
 11
-8.25
 21
-20.9
  0
LINE
  5
367
100
AcDbEntity
  8
ASSI
100
AcDbLine
 62
7
  6
CONTINUOUS
 10
-8.25
 20
-21.4
 11
-8.25
 21
-20.9
  0
LINE
  5
368
100
AcDbEntity
  8
RACCORDO
100
AcDbLine
 62
7
  6
CONTINUOUS
 10
-8.25
 20
-22.4
 11
-8.25
 21
-23.8443375673
  0
LINE
  5
369
100
AcDbEntity
  8
ASSI
100
AcDbLine
 62
7
  6
CONTINUOUS
 10
-8.25
 20
-22.4
 11
-8.25
 21
-23.8443375673
  0
LINE
  5
36A
100
AcDbEntity
  8
DRAFT
100
AcDbLine
 62
7
  6
CONTINUOUS
 10
-8.25
 20
20.9
 11
-8.25
 21
21.4
  0
LINE
  5
36B
100
AcDbEntity
  8
ASSI
100
AcDbLine
 62
7
  6
CONTINUOUS
 10
-8.25
 20
20.9
 11
-8.25
 21
21.4
  0
LINE
  5
36C
100
AcDbEntity
  8
RACCORDO
100
AcDbLine
 62
7
  6
CONTINUOUS
 10
-8.25
 20
22.4
 11
-8.25
 21
23.8443375673
  0
LINE
  5
36D
100
AcDbEntity
  8
ASSI
100
AcDbLine
 62
7
  6
CONTINUOUS
 10
-8.25
 20
22.4
 11
-8.25
 21
23.8443375673
  0
LINE
  5
36E
100
AcDbEntity
  8
0
100
AcDbLine
 62
7
  6
CONTINUOUS
 10
-8.2
 20
9.05
 11
-8.2
 21
-7.05
  0
LINE
  5
36F
100
AcDbEntity
  8
RACCORDO
100
AcDbLine
 62
253
  6
CONTINUOUS
 10
-8.0840245667
 20
21.5659754333
 11
-8.0840245667
 21
20.9917082642
  0
LINE
  5
370
100
AcDbEntity
  8
ASSI
100
AcDbLine
 62
253
  6
CONTINUOUS
 10
-8.0840245667
 20
21.5659754333
 11
-8.0840245667
 21
20.9917082642
  0
LINE
  5
371
100
AcDbEntity
  8
RACCORDO
100
AcDbLine
 62
253
  6
CONTINUOUS
 10
-8.0840245667
 20
-20.9917082642
 11
-8.0840245667
 21
-21.5659754333
  0
LINE
  5
372
100
AcDbEntity
  8
ASSI
100
AcDbLine
 62
253
  6
CONTINUOUS
 10
-8.0840245667
 20
-20.9917082642
 11
-8.0840245667
 21
-21.5659754333
  0
LINE
  5
373
100
AcDbEntity
  8
RACCORDO
100
AcDbLine
 62
253
  6
CONTINUOUS
 10
-7.7372801014
 20
-7.9898867382
 11
-7.7372801014
 21
-7.5478665379
  0
LINE
  5
374
100
AcDbEntity
  8
ASSI
100
AcDbLine
 62
253
  6
CONTINUOUS
 10
-7.7372801014
 20
-7.9898867382
 11
-7.7372801014
 21
-7.55
  0
LINE
  5
375
100
AcDbEntity
  8
RACCORDO
100
AcDbLine
 62
253
  6
CONTINUOUS
 10
-7.5841007192
 20
21.3126932437
 11
-7.5841007192
 21
20.9959955457
  0
LINE
  5
376
100
AcDbEntity
  8
ASSI
100
AcDbLine
 62
253
  6
CONTINUOUS
 10
-7.5841007192
 20
21.3126932437
 11
-7.5841007192
 21
20.9959955457
  0
LINE
  5
377
100
AcDbEntity
  8
RACCORDO
100
AcDbLine
 62
253
  6
CONTINUOUS
 10
-7.5841007192
 20
-20.9959955457
 11
-7.5841007192
 21
-21.3126932437
  0
LINE
  5
378
100
AcDbEntity
  8
ASSI
100
AcDbLine
 62
253
  6
CONTINUOUS
 10
-7.5841007192
 20
-20.9959955457
 11
-7.5841007192
 21
-21.3126932437
  0
LINE
  5
379
100
AcDbEntity
  8
RACCORDO
100
AcDbLine
 62
7
  6
CONTINUOUS
 10
-7.5
 20
13.4000190385
 11
-7.5
 21
12.5
  0
LINE
  5
37A
100
AcDbEntity
  8
ASSI
100
AcDbLine
 62
7
  6
CONTINUOUS
 10
-7.5
 20
13.4000190385
 11
-7.5
 21
12.5
  0
LINE
  5
37B
100
AcDbEntity
  8
RACCORDO
100
AcDbLine
 62
7
  6
CONTINUOUS
 10
-7.5
 20
-8.9
 11
-7.5
 21
-10.4000190385
  0
LINE
  5
37C
100
AcDbEntity
  8
ASSI
100
AcDbLine
 62
7
  6
CONTINUOUS
 10
-7.5
 20
-8.9
 11
-7.5
 21
-10.4000190385
  0
LINE
  5
37D
100
AcDbEntity
  8
RACCORDO
100
AcDbLine
 62
253
  6
CONTINUOUS
 10
-7.4372915245
 20
-7.9872915245
 11
-7.4372915245
 21
-7.55
  0
LINE
  5
37E
100
AcDbEntity
  8
ASSI
100
AcDbLine
 62
7
  6
CONTINUOUS
 10
-7.4372915245
 20
-7.9872915245
 11
-7.4372915245
 21
-7.55
  0
LINE
  5
37F
100
AcDbEntity
  8
RACCORDO
100
AcDbLine
 62
7
  6
CONTINUOUS
 10
-7.4101132618
 20
13.3101323002
 11
-7.4101132618
 21
12.4101132618
  0
LINE
  5
380
100
AcDbEntity
  8
ASSI
100
AcDbLine
 62
7
  6
CONTINUOUS
 10
-7.4101132618
 20
13.3101323002
 11
-7.4101132618
 21
12.4101132618
  0
LINE
  5
381
100
AcDbEntity
  8
RACCORDO
100
AcDbLine
 62
7
  6
CONTINUOUS
 10
-7.4101132618
 20
-10.3101323002
 11
-7.4101132618
 21
-8.8101132618
  0
LINE
  5
382
100
AcDbEntity
  8
ASSI
100
AcDbLine
 62
7
  6
CONTINUOUS
 10
-7.4101132618
 20
-10.3101323002
 11
-7.4101132618
 21
-8.8101132618
  0
LINE
  5
383
100
AcDbEntity
  8
0
100
AcDbLine
 62
7
  6
CONTINUOUS
 10
-7.4
 20
9.55
 11
-7.4
 21
-7.55
  0
LINE
  5
384
100
AcDbEntity
  8
RACCORDO
100
AcDbLine
 62
7
  6
CONTINUOUS
 10
-7.3517786853
 20
-20.4335707644
 11
-7.3517786853
 21
-16.8065137252
  0
LINE
  5
385
100
AcDbEntity
  8
ASSI
100
AcDbLine
 62
7
  6
CONTINUOUS
 10
-7.3517786853
 20
-20.4335707644
 11
-7.3517786853
 21
-16.8065137252
  0
LINE
  5
386
100
AcDbEntity
  8
DRAFT
100
AcDbLine
 62
7
  6
CONTINUOUS
 10
-7.35
 20
11.5
 11
-7.35
 21
9.6
  0
LINE
  5
387
100
AcDbEntity
  8
ASSI
100
AcDbLine
 62
7
  6
CONTINUOUS
 10
-7.35
 20
11.5
 11
-7.35
 21
9.6
  0
LINE
  5
388
100
AcDbEntity
  8
RACCORDO
100
AcDbLine
 62
7
  6
CONTINUOUS
 10
-7.35
 20
-7.9
 11
-7.35
 21
-7.55
  0
LINE
  5
389
100
AcDbEntity
  8
ASSI
100
AcDbLine
 62
7
  6
CONTINUOUS
 10
-7.35
 20
-7.9
 11
-7.35
 21
-7.55
  0
LINE
  5
38A
100
AcDbEntity
  8
0
100
AcDbLine
 62
7
  6
CONTINUOUS
 10
-7.3401430257
 20
17.1473642646
 11
-7.3401430257
 21
19.3
  0
LINE
  5
38B
100
AcDbEntity
  8
ASSI
100
AcDbLine
 62
7
  6
CONTINUOUS
 10
-7.3401430257
 20
17.1473642646
 11
-7.3401430257
 21
19.3
  0
LINE
  5
38C
100
AcDbEntity
  8
DRAFT
100
AcDbLine
 62
7
  6
CONTINUOUS
 10
-7.3325462644
 20
11.5174537356
 11
-7.3325462644
 21
9.5825462644
  0
LINE
  5
38D
100
AcDbEntity
  8
ASSI
100
AcDbLine
 62
7
  6
CONTINUOUS
 10
-7.3325462644
 20
11.5174537356
 11
-7.3325462644
 21
9.5825462644
  0
LINE
  5
38E
100
AcDbEntity
  8
RACCORDO
100
AcDbLine
 62
7
  6
CONTINUOUS
 10
-7.3209441873
 20
20.7113319946
 11
-7.3209441873
 21
19.8
  0
LINE
  5
38F
100
AcDbEntity
  8
ASSI
100
AcDbLine
 62
7
  6
CONTINUOUS
 10
-7.3209441873
 20
20.7113319946
 11
-7.3209441873
 21
19.8
  0
LINE
  5
390
100
AcDbEntity
  8
RACCORDO
100
AcDbLine
 62
7
  6
CONTINUOUS
 10
-7.2418217019
 20
-20.9959955457
 11
-7.2418217019
 21
-20.0275513222
  0
LINE
  5
391
100
AcDbEntity
  8
ASSI
100
AcDbLine
 62
7
  6
CONTINUOUS
 10
-7.2418217019
 20
-20.9959955457
 11
-7.2418217019
 21
-20.0275513222
  0
LINE
  5
392
100
AcDbEntity
  8
RACCORDO
100
AcDbLine
 62
7
  6
CONTINUOUS
 10
-7.2418217019
 20
20.0275513222
 11
-7.2418217019
 21
20.9959955457
  0
LINE
  5
393
100
AcDbEntity
  8
ASSI
100
AcDbLine
 62
7
  6
CONTINUOUS
 10
-7.2418217019
 20
20.0275513222
 11
-7.2418217019
 21
20.9959955457
  0
LINE
  5
394
100
AcDbEntity
  8
RACCORDO
100
AcDbLine
 62
253
  6
CONTINUOUS
 10
-8.4992770021
 20
-23.1226497308
 11
-8.5043676032
 21
-23.6278312164
  0
LINE
  5
395
100
AcDbEntity
  8
ASSI
100
AcDbLine
 62
253
  6
CONTINUOUS
 10
-8.4992770021
 20
-23.1226497308
 11
-8.5043676032
 21
-23.6278312164
  0
LINE
  5
396
100
AcDbEntity
  8
RACCORDO
100
AcDbLine
 62
253
  6
CONTINUOUS
 10
-8.25
 20
-23.4104851482
 11
-8.254371834
 21
-23.8443375673
  0
LINE
  5
397
100
AcDbEntity
  8
ASSI
100
AcDbLine
 62
253
  6
CONTINUOUS
 10
-8.25
 20
-23.4104851482
 11
-8.254371834
 21
-23.8443375673
  0
LWPOLYLINE
  5
398
100
AcDbEntity
  8
RACCORDO
100
AcDbPolyline
 62
7
  6
CONTINUOUS
 90
4
 70
0
 10
-8.25
 20
-24.2500042308
 10
-8.2502831502
 20
-24.261899516
 10
-8.2511319658
 20
-24.2737678556
 10
-8.2525445259
 20
-24.2855823661
  0
LWPOLYLINE
  5
399
100
AcDbEntity
  8
ASSI
100
AcDbPolyline
 62
7
  6
CONTINUOUS
 90
4
 70
0
 10
-8.25
 20
-24.2500042308
 10
-8.2502831502
 20
-24.261899516
 10
-8.2511319658
 20
-24.2737678556
 10
-8.2525445259
 20
-24.2855823661
  0
LWPOLYLINE
  5
39A
100
AcDbEntity
  8
RACCORDO
100
AcDbPolyline
 62
253
  6
CONTINUOUS
 90
31
 70
0
 10
-8.254371834
 20
-24.2456323968
 10
-8.254715023
 20
-24.2587187509
 10
-8.255742766
 20
-24.2717692492
 10
-8.2574522491
 20
-24.2847481067
 10
-8.2598387919
 20
-24.2976197463
 10
-8.262895853
 20
-24.3103488602
 10
-8.2666150425
 20
-24.3229005077
 10
-8.2709861576
 20
-24.3352402638
 10
-8.2759972131
 20
-24.347334301
 10
-8.2816344613
 20
-24.3591494467
 10
-8.2878824405
 20
-24.3706533025
 10
-8.2947240163
 20
-24.3818143284
 10
-8.3021404232
 20
-24.3926019187
 10
-8.3101113313
 20
-24.402986508
 10
-8.3186148729
 20
-24.4129396114
 10
-8.327627692
 20
-24.4224339046
 10
-8.3371250264
 20
-24.4314433264
 10
-8.3470808636
 20
-24.4399432233
 10
-8.3574679894
 20
-24.4479103656
 10
-8.3682580686
 20
-24.4553229956
 10
-8.379421387
 20
-24.4621606774
 10
-8.3909269875
 20
-24.4684044791
 10
-8.4027430657
 20
-24.4740372277
 10
-8.4148374218
 20
-24.4790436576
 10
-8.4271772258
 20
-24.4834102087
 10
-8.4397314103
 20
-24.4871256484
 10
-8.4524628755
 20
-24.4901787618
 10
-8.4653285943
 20
-24.492559892
 10
-8.4782903689
 20
-24.4942634962
 10
-8.4913152632
 20
-24.4952867588
 10
-8.5043676032
 20
-24.495628166
  0
LWPOLYLINE
  5
39B
100
AcDbEntity
  8
ASSI
100
AcDbPolyline
 62
7
  6
CONTINUOUS
 90
31
 70
0
 10
-8.254371834
 20
-24.2456323968
 10
-8.254715023
 20
-24.2587187509
 10
-8.255742766
 20
-24.2717692492
 10
-8.2574522491
 20
-24.2847481067
 10
-8.2598387919
 20
-24.2976197463
 10
-8.262895853
 20
-24.3103488602
 10
-8.2666150425
 20
-24.3229005077
 10
-8.2709861576
 20
-24.3352402638
 10
-8.2759972131
 20
-24.347334301
 10
-8.2816344613
 20
-24.3591494467
 10
-8.2878824405
 20
-24.3706533025
 10
-8.2947240163
 20
-24.3818143284
 10
-8.3021404232
 20
-24.3926019187
 10
-8.3101113313
 20
-24.402986508
 10
-8.3186148729
 20
-24.4129396114
 10
-8.327627692
 20
-24.4224339046
 10
-8.3371250264
 20
-24.4314433264
 10
-8.3470808636
 20
-24.4399432233
 10
-8.3574679894
 20
-24.4479103656
 10
-8.3682580686
 20
-24.4553229956
 10
-8.379421387
 20
-24.4621606774
 10
-8.3909269875
 20
-24.4684044791
 10
-8.4027430657
 20
-24.4740372277
 10
-8.4148374218
 20
-24.4790436576
 10
-8.4271772258
 20
-24.4834102087
 10
-8.4397314103
 20
-24.4871256484
 10
-8.4524628755
 20
-24.4901787618
 10
-8.4653285943
 20
-24.492559892
 10
-8.4782903689
 20
-24.4942634962
 10
-8.4913152632
 20
-24.4952867588
 10
-8.5043676032
 20
-24.495628166
  0
LINE
  5
39C
100
AcDbEntity
  8
0
100
AcDbLine
 62
253
  6
CONTINUOUS
 10
-7.2418217019
 20
20.0275513222
 11
-7.3401430257
 21
17.1473642646
  0
LINE
  5
39D
100
AcDbEntity
  8
ASSI
100
AcDbLine
 62
253
  6
CONTINUOUS
 10
-7.2418217019
 20
20.0275513222
 11
-7.3401430257
 21
17.1473642646
  0
LINE
  5
39E
100
AcDbEntity
  8
DRAFT
100
AcDbLine
 62
7
  6
CONTINUOUS
 10
4.4
 20
22.4
 11
4.3559327327
 21
22.3338981669
  0
LINE
  5
39F
100
AcDbEntity
  8
ASSI
100
AcDbLine
 62
7
  6
CONTINUOUS
 10
4.4
 20
22.4
 11
4.3559327327
 21
22.3338981669
  0
LINE
  5
3A0
100
AcDbEntity
  8
RACCORDO
100
AcDbLine
 62
7
  6
CONTINUOUS
 10
-9.65
 20
-8.8223308767
 11
-9.2122871968
 21
-8.8118358927
  0
LINE
  5
3A1
100
AcDbEntity
  8
ASSI
100
AcDbLine
 62
7
  6
CONTINUOUS
 10
-9.65
 20
-8.8223308767
 11
-9.2122871968
 21
-8.8118358927
  0
LINE
  5
3A2
100
AcDbEntity
  8
RACCORDO
100
AcDbLine
 62
7
  6
CONTINUOUS
 10
9.2122871968
 20
-7.9881641073
 11
9.65
 21
-7.9776691233
  0
LINE
  5
3A3
100
AcDbEntity
  8
ASSI
100
AcDbLine
 62
7
  6
CONTINUOUS
 10
9.2122871968
 20
-7.9881641073
 11
9.65
 21
-7.9776691233
  0
LINE
  5
3A4
100
AcDbEntity
  8
DRAFT
100
AcDbLine
 62
7
  6
CONTINUOUS
 10
7.5
 20
-8.9
 11
9.4946499221
 21
-8.9
  0
LINE
  5
3A5
100
AcDbEntity
  8
ASSI
100
AcDbLine
 62
7
  6
CONTINUOUS
 10
7.5
 20
-8.9
 11
9.4946499221
 21
-8.9
  0
LINE
  5
3A6
100
AcDbEntity
  8
DRAFT
100
AcDbLine
 62
7
  6
CONTINUOUS
 10
-7.5
 20
-8.9
 11
-9.4946499221
 21
-8.9
  0
LINE
  5
3A7
100
AcDbEntity
  8
ASSI
100
AcDbLine
 62
7
  6
CONTINUOUS
 10
-7.5
 20
-8.9
 11
-9.4946499221
 21
-8.9
  0
LINE
  5
3A8
100
AcDbEntity
  8
RACCORDO
100
AcDbLine
 62
7
  6
CONTINUOUS
 10
-8.9303794106
 20
-8.8101132618
 11
-7.4101132618
 21
-8.8101132618
  0
LINE
  5
3A9
100
AcDbEntity
  8
ASSI
100
AcDbLine
 62
7
  6
CONTINUOUS
 10
-8.9303794106
 20
-8.8101132618
 11
-7.4101132618
 21
-8.8101132618
  0
LINE
  5
3AA
100
AcDbEntity
  8
RACCORDO
100
AcDbLine
 62
7
  6
CONTINUOUS
 10
8.9303794106
 20
-8.8101132618
 11
7.4101132618
 21
-8.8101132618
  0
LINE
  5
3AB
100
AcDbEntity
  8
ASSI
100
AcDbLine
 62
7
  6
CONTINUOUS
 10
8.9303794106
 20
-8.8101132618
 11
7.4101132618
 21
-8.8101132618
  0
LINE
  5
3AC
100
AcDbEntity
  8
0
100
AcDbLine
 62
7
  6
CONTINUOUS
 10
-6.5
 20
-8.6
 11
-6.0
 21
-8.6
  0
LINE
  5
3AD
100
AcDbEntity
  8
ASSI
100
AcDbLine
 62
7
  6
CONTINUOUS
 10
-6.5
 20
-8.6
 11
-6.0
 21
-8.6
  0
LINE
  5
3AE
100
AcDbEntity
  8
0
100
AcDbLine
 62
7
  6
CONTINUOUS
 10
6.0
 20
-8.6
 11
6.5
 21
-8.6
  0
LINE
  5
3AF
100
AcDbEntity
  8
ASSI
100
AcDbLine
 62
7
  6
CONTINUOUS
 10
6.0
 20
-8.6
 11
6.5
 21
-8.6
  0
LINE
  5
3B0
100
AcDbEntity
  8
RACCORDO
100
AcDbLine
 62
253
  6
CONTINUOUS
 10
-6.5
 20
-8.0713009929
 11
-6.0
 21
-8.0713009929
  0
LINE
  5
3B1
100
AcDbEntity
  8
ASSI
100
AcDbLine
 62
253
  6
CONTINUOUS
 10
-6.5
 20
-8.0713009929
 11
-6.0
 21
-8.0713009929
  0
LINE
  5
3B2
100
AcDbEntity
  8
RACCORDO
100
AcDbLine
 62
253
  6
CONTINUOUS
 10
6.0
 20
-8.0713009929
 11
6.5
 21
-8.0713009929
  0
LINE
  5
3B3
100
AcDbEntity
  8
ASSI
100
AcDbLine
 62
253
  6
CONTINUOUS
 10
6.0
 20
-8.0713009929
 11
6.5
 21
-8.0713009929
  0
LINE
  5
3B4
100
AcDbEntity
  8
RACCORDO
100
AcDbLine
 62
7
  6
CONTINUOUS
 10
-8.9303794106
 20
-7.9898867382
 11
-8.4101132618
 21
-7.9898867382
  0
LINE
  5
3B5
100
AcDbEntity
  8
ASSI
100
AcDbLine
 62
7
  6
CONTINUOUS
 10
-8.9303794106
 20
-7.9898867382
 11
-8.4101132618
 21
-7.9898867382
  0
LINE
  5
3B6
100
AcDbEntity
  8
RACCORDO
100
AcDbLine
 62
7
  6
CONTINUOUS
 10
7.7372801014
 20
-7.9898867382
 11
6.5
 21
-7.9898867382
  0
LINE
  5
3B7
100
AcDbEntity
  8
ASSI
100
AcDbLine
 62
7
  6
CONTINUOUS
 10
7.7372801014
 20
-7.9898867382
 11
6.5
 21
-7.9898867382
  0
LINE
  5
3B8
100
AcDbEntity
  8
RACCORDO
100
AcDbLine
 62
7
  6
CONTINUOUS
 10
-6.5
 20
-7.9898867382
 11
-7.7372801014
 21
-7.9898867382
  0
LINE
  5
3B9
100
AcDbEntity
  8
ASSI
100
AcDbLine
 62
7
  6
CONTINUOUS
 10
-6.5
 20
-7.9898867382
 11
-7.7372801014
 21
-7.9898867382
  0
LINE
  5
3BA
100
AcDbEntity
  8
RACCORDO
100
AcDbLine
 62
7
  6
CONTINUOUS
 10
8.4101132618
 20
-7.9898867382
 11
8.9303794106
 21
-7.9898867382
  0
LINE
  5
3BB
100
AcDbEntity
  8
ASSI
100
AcDbLine
 62
7
  6
CONTINUOUS
 10
8.4101132618
 20
-7.9898867382
 11
8.9303794106
 21
-7.9898867382
  0
LINE
  5
3BC
100
AcDbEntity
  8
RACCORDO
100
AcDbLine
 62
253
  6
CONTINUOUS
 10
-6.5
 20
-7.9834444503
 11
-6.0
 21
-7.9834444503
  0
LINE
  5
3BD
100
AcDbEntity
  8
ASSI
100
AcDbLine
 62
7
  6
CONTINUOUS
 10
-6.5
 20
-7.9834444503
 11
-6.0
 21
-7.9834444503
  0
LINE
  5
3BE
100
AcDbEntity
  8
RACCORDO
100
AcDbLine
 62
253
  6
CONTINUOUS
 10
6.0
 20
-7.9834444503
 11
6.5
 21
-7.9834444503
  0
LINE
  5
3BF
100
AcDbEntity
  8
ASSI
100
AcDbLine
 62
7
  6
CONTINUOUS
 10
6.0
 20
-7.9834444503
 11
6.5
 21
-7.9834444503
  0
LINE
  5
3C0
100
AcDbEntity
  8
DRAFT
100
AcDbLine
 62
7
  6
CONTINUOUS
 10
-6.5
 20
-7.975051063
 11
-6.0
 21
-7.975051063
  0
LINE
  5
3C1
100
AcDbEntity
  8
ASSI
100
AcDbLine
 62
7
  6
CONTINUOUS
 10
-6.5
 20
-7.975051063
 11
-6.0
 21
-7.975051063
  0
LINE
  5
3C2
100
AcDbEntity
  8
DRAFT
100
AcDbLine
 62
7
  6
CONTINUOUS
 10
6.0
 20
-7.975051063
 11
6.5
 21
-7.975051063
  0
LINE
  5
3C3
100
AcDbEntity
  8
ASSI
100
AcDbLine
 62
7
  6
CONTINUOUS
 10
6.0
 20
-7.975051063
 11
6.5
 21
-7.975051063
  0
LINE
  5
3C4
100
AcDbEntity
  8
DRAFT
100
AcDbLine
 62
7
  6
CONTINUOUS
 10
-9.4946499221
 20
-7.9
 11
-8.5
 21
-7.9
  0
LINE
  5
3C5
100
AcDbEntity
  8
ASSI
100
AcDbLine
 62
7
  6
CONTINUOUS
 10
-9.4946499221
 20
-7.9
 11
-8.5
 21
-7.9
  0
LINE
  5
3C6
100
AcDbEntity
  8
DRAFT
100
AcDbLine
 62
7
  6
CONTINUOUS
 10
-7.35
 20
-7.9
 11
-6.5
 21
-7.9
  0
LINE
  5
3C7
100
AcDbEntity
  8
ASSI
100
AcDbLine
 62
7
  6
CONTINUOUS
 10
-7.35
 20
-7.9
 11
-6.5
 21
-7.9
  0
LINE
  5
3C8
100
AcDbEntity
  8
DRAFT
100
AcDbLine
 62
7
  6
CONTINUOUS
 10
6.5
 20
-7.9
 11
7.35
 21
-7.9
  0
LINE
  5
3C9
100
AcDbEntity
  8
ASSI
100
AcDbLine
 62
7
  6
CONTINUOUS
 10
6.5
 20
-7.9
 11
7.35
 21
-7.9
  0
LINE
  5
3CA
100
AcDbEntity
  8
DRAFT
100
AcDbLine
 62
7
  6
CONTINUOUS
 10
8.5
 20
-7.9
 11
9.4946499221
 21
-7.9
  0
LINE
  5
3CB
100
AcDbEntity
  8
ASSI
100
AcDbLine
 62
7
  6
CONTINUOUS
 10
8.5
 20
-7.9
 11
9.4946499221
 21
-7.9
  0
LINE
  5
3CC
100
AcDbEntity
  8
0
100
AcDbLine
 62
7
  6
CONTINUOUS
 10
7.7
 20
-7.55
 11
-7.7
 21
-7.55
  0
LINE
  5
3CD
100
AcDbEntity
  8
RACCORDO
100
AcDbLine
 62
7
  6
CONTINUOUS
 10
9.2122871968
 20
-8.8118358927
 11
9.65
 21
-8.8223308767
  0
LINE
  5
3CE
100
AcDbEntity
  8
ASSI
100
AcDbLine
 62
7
  6
CONTINUOUS
 10
9.2122871968
 20
-8.8118358927
 11
9.65
 21
-8.8223308767
  0
LINE
  5
3CF
100
AcDbEntity
  8
RACCORDO
100
AcDbLine
 62
7
  6
CONTINUOUS
 10
-9.65
 20
-7.9776691233
 11
-9.2122871968
 21
-7.9881641073
  0
LINE
  5
3D0
100
AcDbEntity
  8
ASSI
100
AcDbLine
 62
7
  6
CONTINUOUS
 10
-9.65
 20
-7.9776691233
 11
-9.2122871968
 21
-7.9881641073
  0
LINE
  5
3D1
100
AcDbEntity
  8
DRAFT
100
AcDbLine
 62
7
  6
CONTINUOUS
 10
4.4
 20
-22.4
 11
4.3559327327
 21
-22.3338981669
  0
LINE
  5
3D2
100
AcDbEntity
  8
ASSI
100
AcDbLine
 62
7
  6
CONTINUOUS
 10
4.4
 20
-22.4
 11
4.3559327327
 21
-22.3338981669
  0
LINE
  5
3D3
100
AcDbEntity
  8
0
100
AcDbLine
 62
253
  6
CONTINUOUS
 10
-6.5581782981
 20
20.0275513222
 11
-6.4598569743
 21
17.1473642646
  0
LINE
  5
3D4
100
AcDbEntity
  8
ASSI
100
AcDbLine
 62
253
  6
CONTINUOUS
 10
-6.5581782981
 20
20.0275513222
 11
-6.4598569743
 21
17.1473642646
  0
LWPOLYLINE
  5
3D5
100
AcDbEntity
  8
RACCORDO
100
AcDbPolyline
 62
7
  6
CONTINUOUS
 90
61
 70
0
 10
-6.5581782981
 20
-20.0275513222
 10
-6.5586674893
 20
-20.0091628585
 10
-6.5600936909
 20
-19.9909323714
 10
-6.5624569028
 20
-19.972859861
 10
-6.5657705039
 20
-19.9548948957
 10
-6.5700211154
 20
-19.9370879072
 10
-6.5751686003
 20
-19.9195901896
 10
-6.5812211779
 20
-19.9024050225
 10
-6.5881706289
 20
-19.8855291263
 10
-6.5959521592
 20
-19.8691039577
 10
-6.6045705492
 20
-19.8531369236
 10
-6.6140210184
 20
-19.837620617
 10
-6.6242244315
 20
-19.822674273
 10
-6.6351914986
 20
-19.8082977976
 10
-6.6469115096
 20
-19.7944912848
 10
-6.6592731984
 20
-19.7813742528
 10
-6.6722727677
 20
-19.768960632
 10
-6.6859140147
 20
-19.757236492
 10
-6.7000970645
 20
-19.7462795591
 10
-6.7148362991
 20
-19.7360885994
 10
-6.7301173365
 20
-19.7266648468
 10
-6.7457971561
 20
-19.7180897298
 10
-6.7618660352
 20
-19.7103762769
 10
-6.7783336966
 20
-19.7035114596
 10
-6.7950862876
 20
-19.6975376198
 10
-6.8121361408
 20
-19.6924573364
 10
-6.8294709235
 20
-19.6882680305
 10
-6.8469397859
 20
-19.6850043083
 10
-6.8645371376
 20
-19.6826748955
 10
-6.8822685688
 20
-19.6812710663
 10
-6.9
 20
-19.6808012501
 10
-6.9177314312
 20
-19.6812710663
 10
-6.9354628624
 20
-19.6826748955
 10
-6.9530602141
 20
-19.6850043083
 10
-6.9705290765
 20
-19.6882680305
 10
-6.9878638592
 20
-19.6924573364
 10
-7.0049137124
 20
-19.6975376198
 10
-7.0216663034
 20
-19.7035114596
 10
-7.0381339648
 20
-19.7103762769
 10
-7.0542028439
 20
-19.7180897298
 10
-7.0698826635
 20
-19.7266648468
 10
-7.0851637009
 20
-19.7360885994
 10
-7.0999029355
 20
-19.7462795591
 10
-7.1140859853
 20
-19.757236492
 10
-7.1277272323
 20
-19.768960632
 10
-7.1407268016
 20
-19.7813742528
 10
-7.1530884904
 20
-19.7944912848
 10
-7.1648085014
 20
-19.8082977976
 10
-7.1757755685
 20
-19.822674273
 10
-7.1859789816
 20
-19.837620617
 10
-7.1954294508
 20
-19.8531369236
 10
-7.2040478408
 20
-19.8691039577
 10
-7.2118293711
 20
-19.8855291263
 10
-7.2187788221
 20
-19.9024050225
 10
-7.2248313997
 20
-19.9195901896
 10
-7.2299788846
 20
-19.9370879072
 10
-7.2342294961
 20
-19.9548948957
 10
-7.2375430972
 20
-19.972859861
 10
-7.2399063091
 20
-19.9909323714
 10
-7.2413325107
 20
-20.0091628585
 10
-7.2418217019
 20
-20.0275513222
  0
LWPOLYLINE
  5
3D6
100
AcDbEntity
  8
ASSI
100
AcDbPolyline
 62
7
  6
CONTINUOUS
 90
61
 70
0
 10
-6.5581782981
 20
-20.0275513222
 10
-6.5586674893
 20
-20.0091628585
 10
-6.5600936909
 20
-19.9909323714
 10
-6.5624569028
 20
-19.972859861
 10
-6.5657705039
 20
-19.9548948957
 10
-6.5700211154
 20
-19.9370879072
 10
-6.5751686003
 20
-19.9195901896
 10
-6.5812211779
 20
-19.9024050225
 10
-6.5881706289
 20
-19.8855291263
 10
-6.5959521592
 20
-19.8691039577
 10
-6.6045705492
 20
-19.8531369236
 10
-6.6140210184
 20
-19.837620617
 10
-6.6242244315
 20
-19.822674273
 10
-6.6351914986
 20
-19.8082977976
 10
-6.6469115096
 20
-19.7944912848
 10
-6.6592731984
 20
-19.7813742528
 10
-6.6722727677
 20
-19.768960632
 10
-6.6859140147
 20
-19.757236492
 10
-6.7000970645
 20
-19.7462795591
 10
-6.7148362991
 20
-19.7360885994
 10
-6.7301173365
 20
-19.7266648468
 10
-6.7457971561
 20
-19.7180897298
 10
-6.7618660352
 20
-19.7103762769
 10
-6.7783336966
 20
-19.7035114596
 10
-6.7950862876
 20
-19.6975376198
 10
-6.8121361408
 20
-19.6924573364
 10
-6.8294709235
 20
-19.6882680305
 10
-6.8469397859
 20
-19.6850043083
 10
-6.8645371376
 20
-19.6826748955
 10
-6.8822685688
 20
-19.6812710663
 10
-6.9
 20
-19.6808012501
 10
-6.9177314312
 20
-19.6812710663
 10
-6.9354628624
 20
-19.6826748955
 10
-6.9530602141
 20
-19.6850043083
 10
-6.9705290765
 20
-19.6882680305
 10
-6.9878638592
 20
-19.6924573364
 10
-7.0049137124
 20
-19.6975376198
 10
-7.0216663034
 20
-19.7035114596
 10
-7.0381339648
 20
-19.7103762769
 10
-7.0542028439
 20
-19.7180897298
 10
-7.0698826635
 20
-19.7266648468
 10
-7.0851637009
 20
-19.7360885994
 10
-7.0999029355
 20
-19.7462795591
 10
-7.1140859853
 20
-19.757236492
 10
-7.1277272323
 20
-19.768960632
 10
-7.1407268016
 20
-19.7813742528
 10
-7.1530884904
 20
-19.7944912848
 10
-7.1648085014
 20
-19.8082977976
 10
-7.1757755685
 20
-19.822674273
 10
-7.1859789816
 20
-19.837620617
 10
-7.1954294508
 20
-19.8531369236
 10
-7.2040478408
 20
-19.8691039577
 10
-7.2118293711
 20
-19.8855291263
 10
-7.2187788221
 20
-19.9024050225
 10
-7.2248313997
 20
-19.9195901896
 10
-7.2299788846
 20
-19.9370879072
 10
-7.2342294961
 20
-19.9548948957
 10
-7.2375430972
 20
-19.972859861
 10
-7.2399063091
 20
-19.9909323714
 10
-7.2413325107
 20
-20.0091628585
 10
-7.2418217019
 20
-20.0275513222
  0
LWPOLYLINE
  5
3D7
100
AcDbEntity
  8
RACCORDO
100
AcDbPolyline
 62
7
  6
CONTINUOUS
 90
61
 70
0
 10
-7.2418217019
 20
20.0275513222
 10
-7.2413325107
 20
20.0091628585
 10
-7.2399063091
 20
19.9909323714
 10
-7.2375430972
 20
19.972859861
 10
-7.2342294961
 20
19.9548948957
 10
-7.2299788846
 20
19.9370879072
 10
-7.2248313997
 20
19.9195901896
 10
-7.2187788221
 20
19.9024050225
 10
-7.2118293711
 20
19.8855291263
 10
-7.2040478408
 20
19.8691039577
 10
-7.1954294508
 20
19.8531369236
 10
-7.1859789816
 20
19.837620617
 10
-7.1757755685
 20
19.822674273
 10
-7.1648085014
 20
19.8082977976
 10
-7.1530884904
 20
19.7944912848
 10
-7.1407268016
 20
19.7813742528
 10
-7.1277272323
 20
19.768960632
 10
-7.1140859853
 20
19.757236492
 10
-7.0999029355
 20
19.7462795591
 10
-7.0851637009
 20
19.7360885994
 10
-7.0698826635
 20
19.7266648468
 10
-7.0542028439
 20
19.7180897298
 10
-7.0381339648
 20
19.7103762769
 10
-7.0216663034
 20
19.7035114596
 10
-7.0049137124
 20
19.6975376198
 10
-6.9878638592
 20
19.6924573364
 10
-6.9705290765
 20
19.6882680305
 10
-6.9530602141
 20
19.6850043083
 10
-6.9354628624
 20
19.6826748955
 10
-6.9177314312
 20
19.6812710663
 10
-6.9
 20
19.6808012501
 10
-6.8822685688
 20
19.6812710663
 10
-6.8645371376
 20
19.6826748955
 10
-6.8469397859
 20
19.6850043083
 10
-6.8294709235
 20
19.6882680305
 10
-6.8121361408
 20
19.6924573364
 10
-6.7950862876
 20
19.6975376198
 10
-6.7783336966
 20
19.7035114596
 10
-6.7618660352
 20
19.7103762769
 10
-6.7457971561
 20
19.7180897298
 10
-6.7301173365
 20
19.7266648468
 10
-6.7148362991
 20
19.7360885994
 10
-6.7000970645
 20
19.7462795591
 10
-6.6859140147
 20
19.757236492
 10
-6.6722727677
 20
19.768960632
 10
-6.6592731984
 20
19.7813742528
 10
-6.6469115096
 20
19.7944912848
 10
-6.6351914986
 20
19.8082977976
 10
-6.6242244315
 20
19.822674273
 10
-6.6140210184
 20
19.837620617
 10
-6.6045705492
 20
19.8531369236
 10
-6.5959521592
 20
19.8691039577
 10
-6.5881706289
 20
19.8855291263
 10
-6.5812211779
 20
19.9024050225
 10
-6.5751686003
 20
19.9195901896
 10
-6.5700211154
 20
19.9370879072
 10
-6.5657705039
 20
19.9548948957
 10
-6.5624569028
 20
19.972859861
 10
-6.5600936909
 20
19.9909323714
 10
-6.5586674893
 20
20.0091628585
 10
-6.5581782981
 20
20.0275513222
  0
LWPOLYLINE
  5
3D8
100
AcDbEntity
  8
ASSI
100
AcDbPolyline
 62
7
  6
CONTINUOUS
 90
61
 70
0
 10
-7.2418217019
 20
20.0275513222
 10
-7.2413325107
 20
20.0091628585
 10
-7.2399063091
 20
19.9909323714
 10
-7.2375430972
 20
19.972859861
 10
-7.2342294961
 20
19.9548948957
 10
-7.2299788846
 20
19.9370879072
 10
-7.2248313997
 20
19.9195901896
 10
-7.2187788221
 20
19.9024050225
 10
-7.2118293711
 20
19.8855291263
 10
-7.2040478408
 20
19.8691039577
 10
-7.1954294508
 20
19.8531369236
 10
-7.1859789816
 20
19.837620617
 10
-7.1757755685
 20
19.822674273
 10
-7.1648085014
 20
19.8082977976
 10
-7.1530884904
 20
19.7944912848
 10
-7.1407268016
 20
19.7813742528
 10
-7.1277272323
 20
19.768960632
 10
-7.1140859853
 20
19.757236492
 10
-7.0999029355
 20
19.7462795591
 10
-7.0851637009
 20
19.7360885994
 10
-7.0698826635
 20
19.7266648468
 10
-7.0542028439
 20
19.7180897298
 10
-7.0381339648
 20
19.7103762769
 10
-7.0216663034
 20
19.7035114596
 10
-7.0049137124
 20
19.6975376198
 10
-6.9878638592
 20
19.6924573364
 10
-6.9705290765
 20
19.6882680305
 10
-6.9530602141
 20
19.6850043083
 10
-6.9354628624
 20
19.6826748955
 10
-6.9177314312
 20
19.6812710663
 10
-6.9
 20
19.6808012501
 10
-6.8822685688
 20
19.6812710663
 10
-6.8645371376
 20
19.6826748955
 10
-6.8469397859
 20
19.6850043083
 10
-6.8294709235
 20
19.6882680305
 10
-6.8121361408
 20
19.6924573364
 10
-6.7950862876
 20
19.6975376198
 10
-6.7783336966
 20
19.7035114596
 10
-6.7618660352
 20
19.7103762769
 10
-6.7457971561
 20
19.7180897298
 10
-6.7301173365
 20
19.7266648468
 10
-6.7148362991
 20
19.7360885994
 10
-6.7000970645
 20
19.7462795591
 10
-6.6859140147
 20
19.757236492
 10
-6.6722727677
 20
19.768960632
 10
-6.6592731984
 20
19.7813742528
 10
-6.6469115096
 20
19.7944912848
 10
-6.6351914986
 20
19.8082977976
 10
-6.6242244315
 20
19.822674273
 10
-6.6140210184
 20
19.837620617
 10
-6.6045705492
 20
19.8531369236
 10
-6.5959521592
 20
19.8691039577
 10
-6.5881706289
 20
19.8855291263
 10
-6.5812211779
 20
19.9024050225
 10
-6.5751686003
 20
19.9195901896
 10
-6.5700211154
 20
19.9370879072
 10
-6.5657705039
 20
19.9548948957
 10
-6.5624569028
 20
19.972859861
 10
-6.5600936909
 20
19.9909323714
 10
-6.5586674893
 20
20.0091628585
 10
-6.5581782981
 20
20.0275513222
  0
LWPOLYLINE
  5
3D9
100
AcDbEntity
  8
RACCORDO
100
AcDbPolyline
 62
253
  6
CONTINUOUS
 90
40
 70
0
 10
-6.8122642439
 20
13.4876443732
 10
-6.8118090938
 20
13.4638614013
 10
-6.8103918723
 20
13.4400928486
 10
-6.8080125792
 20
13.416338715
 10
-6.8046703654
 20
13.3925432225
 10
-6.8003660801
 20
13.3687621492
 10
-6.7951022709
 20
13.3451628292
 10
-6.7888677702
 20
13.3217492667
 10
-6.7816737456
 20
13.2985174574
 10
-6.7735562475
 20
13.2756227227
 10
-6.7645057972
 20
13.2530706355
 10
-6.7545318735
 20
13.2308556228
 10
-6.7436989632
 20
13.2091162875
 10
-6.732005637
 20
13.1878662158
 10
-6.7194533243
 20
13.1670918215
 10
-6.7061108003
 20
13.1468909479
 10
-6.6919784753
 20
13.1272705042
 10
-6.677055939
 20
13.1082235813
 10
-6.6614107358
 20
13.0898272952
 10
-6.6450411704
 20
13.0720832075
 10
-6.6279489381
 20
13.0549897565
 10
-6.6102066692
 20
13.0386193741
 10
-6.5918129556
 20
13.0229738404
 10
-6.5727692053
 20
13.0080513752
 10
-6.5531522732
 20
12.9939190693
 10
-6.5329553941
 20
12.9805764916
 10
-6.5121853331
 20
12.9680240731
 10
-6.4909392396
 20
12.9563301984
 10
-6.4692037126
 20
12.9454962125
 10
-6.4469921531
 20
12.9355207703
 10
-6.4244419142
 20
12.9264682212
 10
-6.4015470544
 20
12.9183478063
 10
-6.3783135152
 20
12.9111502845
 10
-6.3548964739
 20
12.9049122824
 10
-6.3312919306
 20
12.8996449597
 10
-6.3075038852
 20
12.8953371566
 10
-6.2836995144
 20
12.89199202
 10
-6.2599345438
 20
12.8896105989
 10
-6.236153248
 20
12.8881918442
 10
-6.2123556268
 20
12.8877357561
  0
LWPOLYLINE
  5
3DA
100
AcDbEntity
  8
ASSI
100
AcDbPolyline
 62
253
  6
CONTINUOUS
 90
40
 70
0
 10
-6.8122642439
 20
13.4876443732
 10
-6.8118090938
 20
13.4638614013
 10
-6.8103918723
 20
13.4400928486
 10
-6.8080125792
 20
13.416338715
 10
-6.8046703654
 20
13.3925432225
 10
-6.8003660801
 20
13.3687621492
 10
-6.7951022709
 20
13.3451628292
 10
-6.7888677702
 20
13.3217492667
 10
-6.7816737456
 20
13.2985174574
 10
-6.7735562475
 20
13.2756227227
 10
-6.7645057972
 20
13.2530706355
 10
-6.7545318735
 20
13.2308556228
 10
-6.7436989632
 20
13.2091162875
 10
-6.732005637
 20
13.1878662158
 10
-6.7194533243
 20
13.1670918215
 10
-6.7061108003
 20
13.1468909479
 10
-6.6919784753
 20
13.1272705042
 10
-6.677055939
 20
13.1082235813
 10
-6.6614107358
 20
13.0898272952
 10
-6.6450411704
 20
13.0720832075
 10
-6.6279489381
 20
13.0549897565
 10
-6.6102066692
 20
13.0386193741
 10
-6.5918129556
 20
13.0229738404
 10
-6.5727692053
 20
13.0080513752
 10
-6.5531522732
 20
12.9939190693
 10
-6.5329553941
 20
12.9805764916
 10
-6.5121853331
 20
12.9680240731
 10
-6.4909392396
 20
12.9563301984
 10
-6.4692037126
 20
12.9454962125
 10
-6.4469921531
 20
12.9355207703
 10
-6.4244419142
 20
12.9264682212
 10
-6.4015470544
 20
12.9183478063
 10
-6.3783135152
 20
12.9111502845
 10
-6.3548964739
 20
12.9049122824
 10
-6.3312919306
 20
12.8996449597
 10
-6.3075038852
 20
12.8953371566
 10
-6.2836995144
 20
12.89199202
 10
-6.2599345438
 20
12.8896105989
 10
-6.236153248
 20
12.8881918442
 10
-6.2123556268
 20
12.8877357561
  0
LINE
  5
3DB
100
AcDbEntity
  8
RACCORDO
100
AcDbLine
 62
253
  6
CONTINUOUS
 10
-6.8122642439
 20
-10.8101132618
 11
-6.8122642439
 21
-10.1876443732
  0
LINE
  5
3DC
100
AcDbEntity
  8
ASSI
100
AcDbLine
 62
253
  6
CONTINUOUS
 10
-6.8122642439
 20
-10.8101132618
 11
-6.8122642439
 21
-10.1876443732
  0
LINE
  5
3DD
100
AcDbEntity
  8
RACCORDO
100
AcDbLine
 62
253
  6
CONTINUOUS
 10
-6.8122642439
 20
13.4876443732
 11
-6.8122642439
 21
13.8101132618
  0
LINE
  5
3DE
100
AcDbEntity
  8
ASSI
100
AcDbLine
 62
253
  6
CONTINUOUS
 10
-6.8122642439
 20
13.4876443732
 11
-6.8122642439
 21
13.8101132618
  0
LINE
  5
3DF
100
AcDbEntity
  8
RACCORDO
100
AcDbLine
 62
7
  6
CONTINUOUS
 10
-6.5581782981
 20
-20.5829242832
 11
-6.5581782981
 21
-20.0275513222
  0
LINE
  5
3E0
100
AcDbEntity
  8
ASSI
100
AcDbLine
 62
7
  6
CONTINUOUS
 10
-6.5581782981
 20
-20.5829242832
 11
-6.5581782981
 21
-20.0275513222
  0
LINE
  5
3E1
100
AcDbEntity
  8
RACCORDO
100
AcDbLine
 62
7
  6
CONTINUOUS
 10
-6.5581782981
 20
20.0275513222
 11
-6.5581782981
 21
20.5829242832
  0
LINE
  5
3E2
100
AcDbEntity
  8
ASSI
100
AcDbLine
 62
7
  6
CONTINUOUS
 10
-6.5581782981
 20
20.0275513222
 11
-6.5581782981
 21
20.5829242832
  0
LINE
  5
3E3
100
AcDbEntity
  8
RACCORDO
100
AcDbLine
 62
253
  6
CONTINUOUS
 10
-6.5123099353
 20
-10.8126856306
 11
-6.5123099353
 21
-10.1876443732
  0
LINE
  5
3E4
100
AcDbEntity
  8
ASSI
100
AcDbLine
 62
253
  6
CONTINUOUS
 10
-6.5123099353
 20
-10.8126856306
 11
-6.5123099353
 21
-10.1876443732
  0
LINE
  5
3E5
100
AcDbEntity
  8
RACCORDO
100
AcDbLine
 62
253
  6
CONTINUOUS
 10
-6.5123099353
 20
13.4876443732
 11
-6.5123099353
 21
13.8126856306
  0
LINE
  5
3E6
100
AcDbEntity
  8
ASSI
100
AcDbLine
 62
253
  6
CONTINUOUS
 10
-6.5123099353
 20
13.4876443732
 11
-6.5123099353
 21
13.8126856306
  0
LINE
  5
3E7
100
AcDbEntity
  8
RACCORDO
100
AcDbLine
 62
7
  6
CONTINUOUS
 10
-6.5
 20
13.8188401295
 11
-6.5
 21
13.4999543085
  0
LINE
  5
3E8
100
AcDbEntity
  8
ASSI
100
AcDbLine
 62
7
  6
CONTINUOUS
 10
-6.5
 20
13.8188401295
 11
-6.5
 21
13.4999543085
  0
LINE
  5
3E9
100
AcDbEntity
  8
DRAFT
100
AcDbLine
 62
7
  6
CONTINUOUS
 10
-6.5
 20
-7.9
 11
-6.5
 21
-7.975051063
  0
LINE
  5
3EA
100
AcDbEntity
  8
DRAFT
100
AcDbLine
 62
7
  6
CONTINUOUS
 10
-6.5
 20
-7.9898867382
 11
-6.5
 21
-8.6
  0
LINE
  5
3EB
100
AcDbEntity
  8
ASSI
100
AcDbLine
 62
7
  6
CONTINUOUS
 10
-6.5
 20
-7.9898867382
 11
-6.5
 21
-8.6
  0
LINE
  5
3EC
100
AcDbEntity
  8
ASSI
100
AcDbLine
 62
7
  6
CONTINUOUS
 10
-6.5
 20
-7.9
 11
-6.5
 21
-7.975051063
  0
LINE
  5
3ED
100
AcDbEntity
  8
RACCORDO
100
AcDbLine
 62
7
  6
CONTINUOUS
 10
-6.5
 20
-10.1999543085
 11
-6.5
 21
-10.8188401295
  0
LINE
  5
3EE
100
AcDbEntity
  8
ASSI
100
AcDbLine
 62
7
  6
CONTINUOUS
 10
-6.5
 20
-10.1999543085
 11
-6.5
 21
-10.8188401295
  0
LINE
  5
3EF
100
AcDbEntity
  8
RACCORDO
100
AcDbLine
 62
7
  6
CONTINUOUS
 10
-6.5
 20
9.55
 11
-6.5
 21
11.5836351166
  0
LINE
  5
3F0
100
AcDbEntity
  8
ASSI
100
AcDbLine
 62
7
  6
CONTINUOUS
 10
-6.5
 20
9.55
 11
-6.5
 21
11.5836351166
  0
LINE
  5
3F1
100
AcDbEntity
  8
DRAFT
100
AcDbLine
 62
7
  6
CONTINUOUS
 10
-6.5
 20
11.5898867382
 11
-6.5
 21
12.3
  0
LINE
  5
3F2
100
AcDbEntity
  8
ASSI
100
AcDbLine
 62
7
  6
CONTINUOUS
 10
-6.5
 20
11.5898867382
 11
-6.5
 21
12.3
  0
LINE
  5
3F3
100
AcDbEntity
  8
RACCORDO
100
AcDbLine
 62
7
  6
CONTINUOUS
 10
-6.4790558127
 20
19.968583276
 11
-6.4790558127
 21
19.8
  0
LINE
  5
3F4
100
AcDbEntity
  8
ASSI
100
AcDbLine
 62
7
  6
CONTINUOUS
 10
-6.4790558127
 20
19.968583276
 11
-6.4790558127
 21
19.8
  0
LINE
  5
3F5
100
AcDbEntity
  8
0
100
AcDbLine
 62
7
  6
CONTINUOUS
 10
-6.4598569743
 20
17.1473642646
 11
-6.4598569743
 21
19.3
  0
LINE
  5
3F6
100
AcDbEntity
  8
ASSI
100
AcDbLine
 62
7
  6
CONTINUOUS
 10
-6.4598569743
 20
17.1473642646
 11
-6.4598569743
 21
19.3
  0
LINE
  5
3F7
100
AcDbEntity
  8
RACCORDO
100
AcDbLine
 62
7
  6
CONTINUOUS
 10
-6.4482213147
 20
-16.8065137252
 11
-6.4482213147
 21
-19.9223308767
  0
LINE
  5
3F8
100
AcDbEntity
  8
ASSI
100
AcDbLine
 62
7
  6
CONTINUOUS
 10
-6.4482213147
 20
-16.8065137252
 11
-6.4482213147
 21
-19.9223308767
  0
LINE
  5
3F9
100
AcDbEntity
  8
RACCORDO
100
AcDbLine
 62
253
  6
CONTINUOUS
 10
-6.2123556268
 20
-9.5877357561
 11
-6.2123556268
 21
-9.8876900647
  0
LINE
  5
3FA
100
AcDbEntity
  8
ASSI
100
AcDbLine
 62
253
  6
CONTINUOUS
 10
-6.2123556268
 20
-9.5877357561
 11
-6.2123556268
 21
-9.8876900647
  0
LINE
  5
3FB
100
AcDbEntity
  8
RACCORDO
100
AcDbLine
 62
253
  6
CONTINUOUS
 10
-6.2123556268
 20
12.8877357561
 11
-6.2123556268
 21
13.1876900647
  0
LINE
  5
3FC
100
AcDbEntity
  8
ASSI
100
AcDbLine
 62
253
  6
CONTINUOUS
 10
-6.2123556268
 20
12.8877357561
 11
-6.2123556268
 21
13.1876900647
  0
LINE
  5
3FD
100
AcDbEntity
  8
0
100
AcDbLine
 62
7
  6
CONTINUOUS
 10
-6.05
 20
13.05
 11
-6.05
 21
9.55
  0
LINE
  5
3FE
100
AcDbEntity
  8
0
100
AcDbLine
 62
7
  6
CONTINUOUS
 10
-6.0
 20
-7.55
 11
-6.0
 21
-8.95
  0
LINE
  5
3FF
100
AcDbEntity
  8
DRAFT
100
AcDbLine
 62
7
  6
CONTINUOUS
 10
-5.5
 20
-10.9
 11
-5.5
 21
-14.139335085
  0
LINE
  5
400
100
AcDbEntity
  8
ASSI
100
AcDbLine
 62
7
  6
CONTINUOUS
 10
-5.5
 20
-10.9
 11
-5.5
 21
-14.139335085
  0
LWPOLYLINE
  5
401
100
AcDbEntity
  8
0
100
AcDbPolyline
 62
7
  6
CONTINUOUS
 90
67
 70
0
 10
-6.4598569743
 20
17.1473642646
 10
-6.4603697337
 20
17.1259015607
 10
-6.4618834038
 20
17.1045779493
 10
-6.4643979846
 20
17.0833934305
 10
-6.4679262002
 20
17.0622921631
 10
-6.4724553264
 20
17.0413299883
 10
-6.4779471908
 20
17.0206744296
 10
-6.4844049171
 20
17.0003416951
 10
-6.4918253814
 20
16.9803155769
 10
-6.50016104
 20
16.9607149742
 10
-6.5094266944
 20
16.9415277614
 10
-6.519607543
 20
16.9227660642
 10
-6.5306116374
 20
16.9045851585
 10
-6.5424311271
 20
16.8870095678
 10
-6.5550738625
 20
16.8700147687
 10
-6.5684714468
 20
16.8536824674
 10
-6.5826466351
 20
16.8379975206
 10
-6.5975766721
 20
16.8229750716
 10
-6.6131248955
 20
16.8087422555
 10
-6.6292721736
 20
16.7953242537
 10
-6.646037638
 20
16.7826958848
 10
-6.6633420201
 20
16.7709087402
 10
-6.6812128941
 20
16.7599523211
 10
-6.6996226858
 20
16.7498371262
 10
-6.7184094041
 20
16.7406462429
 10
-6.7375506773
 20
16.7323974148
 10
-6.7570688771
 20
16.7250728982
 10
-6.7768691275
 20
16.7187025494
 10
-6.7969719555
 20
16.713285299
 10
-6.817356834
 20
16.7088222164
 10
-6.8378673056
 20
16.7053463663
 10
-6.8584930246
 20
16.7028666925
 10
-6.8792443367
 20
16.7013742512
 10
-6.8999958214
 20
16.7008752761
 10
-6.9207476368
 20
16.7013739204
 10
-6.9414996248
 20
16.702866031
 10
-6.9621258906
 20
16.7053453822
 10
-6.9826365826
 20
16.7088209234
 10
-7.0030215524
 20
16.7132837052
 10
-7.0231244604
 20
16.7187006542
 10
-7.0429247394
 20
16.7250706503
 10
-7.0624429565
 20
16.7323948136
 10
-7.0815844731
 20
16.7406434299
 10
-7.1003719516
 20
16.7498344259
 10
-7.1187827295
 20
16.7599498749
 10
-7.1366541811
 20
16.7709062827
 10
-7.1539582101
 20
16.7826927619
 10
-7.1707229129
 20
16.7953201999
 10
-7.1868699531
 20
16.8087377646
 10
-7.2024191301
 20
16.8229712622
 10
-7.2173506445
 20
16.8379948865
 10
-7.2315267618
 20
16.8536803863
 10
-7.244924026
 20
16.8700117754
 10
-7.257565893
 20
16.88700504
 10
-7.2693849958
 20
16.9045798873
 10
-7.2803898213
 20
16.922761853
 10
-7.2905718826
 20
16.9415254015
 10
-7.2998383519
 20
16.9607136338
 10
-7.3081739272
 20
16.9803133499
 10
-7.3155939105
 20
17.0003377497
 10
-7.3220513812
 20
17.0206695343
 10
-7.327543535
 20
17.0413257692
 10
-7.3320731762
 20
17.0622893888
 10
-7.3356017967
 20
17.0833918978
 10
-7.3381165604
 20
17.1045771308
 10
-7.3396303034
 20
17.125901253
 10
-7.3401430257
 20
17.1473642646
  0
LWPOLYLINE
  5
402
100
AcDbEntity
  8
ASSI
100
AcDbPolyline
 62
7
  6
CONTINUOUS
 90
67
 70
0
 10
-6.4598569743
 20
17.1473642646
 10
-6.4603697337
 20
17.1259015607
 10
-6.4618834038
 20
17.1045779493
 10
-6.4643979846
 20
17.0833934305
 10
-6.4679262002
 20
17.0622921631
 10
-6.4724553264
 20
17.0413299883
 10
-6.4779471908
 20
17.0206744296
 10
-6.4844049171
 20
17.0003416951
 10
-6.4918253814
 20
16.9803155769
 10
-6.50016104
 20
16.9607149742
 10
-6.5094266944
 20
16.9415277614
 10
-6.519607543
 20
16.9227660642
 10
-6.5306116374
 20
16.9045851585
 10
-6.5424311271
 20
16.8870095678
 10
-6.5550738625
 20
16.8700147687
 10
-6.5684714468
 20
16.8536824674
 10
-6.5826466351
 20
16.8379975206
 10
-6.5975766721
 20
16.8229750716
 10
-6.6131248955
 20
16.8087422555
 10
-6.6292721736
 20
16.7953242537
 10
-6.646037638
 20
16.7826958848
 10
-6.6633420201
 20
16.7709087402
 10
-6.6812128941
 20
16.7599523211
 10
-6.6996226858
 20
16.7498371262
 10
-6.7184094041
 20
16.7406462429
 10
-6.7375506773
 20
16.7323974148
 10
-6.7570688771
 20
16.7250728982
 10
-6.7768691275
 20
16.7187025494
 10
-6.7969719555
 20
16.713285299
 10
-6.817356834
 20
16.7088222164
 10
-6.8378673056
 20
16.7053463663
 10
-6.8584930246
 20
16.7028666925
 10
-6.8792443367
 20
16.7013742512
 10
-6.8999958214
 20
16.7008752761
 10
-6.9207476368
 20
16.7013739204
 10
-6.9414996248
 20
16.702866031
 10
-6.9621258906
 20
16.7053453822
 10
-6.9826365826
 20
16.7088209234
 10
-7.0030215524
 20
16.7132837052
 10
-7.0231244604
 20
16.7187006542
 10
-7.0429247394
 20
16.7250706503
 10
-7.0624429565
 20
16.7323948136
 10
-7.0815844731
 20
16.7406434299
 10
-7.1003719516
 20
16.7498344259
 10
-7.1187827295
 20
16.7599498749
 10
-7.1366541811
 20
16.7709062827
 10
-7.1539582101
 20
16.7826927619
 10
-7.1707229129
 20
16.7953201999
 10
-7.1868699531
 20
16.8087377646
 10
-7.2024191301
 20
16.8229712622
 10
-7.2173506445
 20
16.8379948865
 10
-7.2315267618
 20
16.8536803863
 10
-7.244924026
 20
16.8700117754
 10
-7.257565893
 20
16.88700504
 10
-7.2693849958
 20
16.9045798873
 10
-7.2803898213
 20
16.922761853
 10
-7.2905718826
 20
16.9415254015
 10
-7.2998383519
 20
16.9607136338
 10
-7.3081739272
 20
16.9803133499
 10
-7.3155939105
 20
17.0003377497
 10
-7.3220513812
 20
17.0206695343
 10
-7.327543535
 20
17.0413257692
 10
-7.3320731762
 20
17.0622893888
 10
-7.3356017967
 20
17.0833918978
 10
-7.3381165604
 20
17.1045771308
 10
-7.3396303034
 20
17.125901253
 10
-7.3401430257
 20
17.1473642646
  0
LWPOLYLINE
  5
403
100
AcDbEntity
  8
RACCORDO
100
AcDbPolyline
 62
7
  6
CONTINUOUS
 90
67
 70
0
 10
-7.3517786853
 20
-16.8065137252
 10
-7.3512467531
 20
-16.7844342482
 10
-7.3496880095
 20
-16.7625115112
 10
-7.3471024546
 20
-16.7407455142
 10
-7.3434778428
 20
-16.7190853843
 10
-7.3388264197
 20
-16.6975819945
 10
-7.3331849218
 20
-16.6763879635
 10
-7.3265459802
 20
-16.6555067062
 10
-7.3189169639
 20
-16.6349348077
 10
-7.3103567167
 20
-16.6148146424
 10
-7.3008602529
 20
-16.5951521798
 10
-7.2904325581
 20
-16.5759414502
 10
-7.2791474332
 20
-16.5573069193
 10
-7.2669952334
 20
-16.5392482489
 10
-7.2539856034
 20
-16.5217657771
 10
-7.2402212778
 20
-16.5049849836
 10
-7.2257050393
 20
-16.4889190733
 10
-7.2104341052
 20
-16.4735548414
 10
-7.1945028613
 20
-16.4589781527
 10
-7.1778972677
 20
-16.4451861472
 10
-7.1606313642
 20
-16.4321816851
 10
-7.1428416569
 20
-16.4200592119
 10
-7.1245381899
 20
-16.4088328227
 10
-7.1057109191
 20
-16.3984884224
 10
-7.0864662174
 20
-16.3890781722
 10
-7.0667888259
 20
-16.3806017527
 10
-7.0466940035
 20
-16.3730594833
 10
-7.0263339004
 20
-16.3665044834
 10
-7.00571874
 20
-16.3609467581
 10
-6.9848382988
 20
-16.3563763022
 10
-6.9638140563
 20
-16.3528162195
 10
-6.9426385718
 20
-16.3502706391
 10
-6.9213192859
 20
-16.3487354319
 10
-6.9
 20
-16.3482213147
 10
-6.8786807141
 20
-16.3487354319
 10
-6.8573614282
 20
-16.3502706391
 10
-6.8361859437
 20
-16.3528162195
 10
-6.8151617012
 20
-16.3563763022
 10
-6.79428126
 20
-16.3609467581
 10
-6.7736660996
 20
-16.3665044834
 10
-6.7533059965
 20
-16.3730594833
 10
-6.7332111741
 20
-16.3806017527
 10
-6.7135337826
 20
-16.3890781722
 10
-6.6942890809
 20
-16.3984884224
 10
-6.6754618101
 20
-16.4088328227
 10
-6.6571583431
 20
-16.4200592119
 10
-6.6393686358
 20
-16.4321816851
 10
-6.6221027323
 20
-16.4451861472
 10
-6.6054971387
 20
-16.4589781527
 10
-6.5895658948
 20
-16.4735548414
 10
-6.5742949607
 20
-16.4889190733
 10
-6.5597787222
 20
-16.5049849836
 10
-6.5460143966
 20
-16.5217657771
 10
-6.5330047666
 20
-16.5392482489
 10
-6.5208525668
 20
-16.5573069193
 10
-6.5095674419
 20
-16.5759414502
 10
-6.4991397471
 20
-16.5951521798
 10
-6.4896432833
 20
-16.6148146424
 10
-6.4810830361
 20
-16.6349348077
 10
-6.4734540198
 20
-16.6555067062
 10
-6.4668150782
 20
-16.6763879635
 10
-6.4611735803
 20
-16.6975819945
 10
-6.4565221572
 20
-16.7190853843
 10
-6.4528975454
 20
-16.7407455142
 10
-6.4503119905
 20
-16.7625115112
 10
-6.4487532469
 20
-16.7844342482
 10
-6.4482213147
 20
-16.8065137252
  0
LWPOLYLINE
  5
404
100
AcDbEntity
  8
ASSI
100
AcDbPolyline
 62
7
  6
CONTINUOUS
 90
67
 70
0
 10
-7.3517786853
 20
-16.8065137252
 10
-7.3512467531
 20
-16.7844342482
 10
-7.3496880095
 20
-16.7625115112
 10
-7.3471024546
 20
-16.7407455142
 10
-7.3434778428
 20
-16.7190853843
 10
-7.3388264197
 20
-16.6975819945
 10
-7.3331849218
 20
-16.6763879635
 10
-7.3265459802
 20
-16.6555067062
 10
-7.3189169639
 20
-16.6349348077
 10
-7.3103567167
 20
-16.6148146424
 10
-7.3008602529
 20
-16.5951521798
 10
-7.2904325581
 20
-16.5759414502
 10
-7.2791474332
 20
-16.5573069193
 10
-7.2669952334
 20
-16.5392482489
 10
-7.2539856034
 20
-16.5217657771
 10
-7.2402212778
 20
-16.5049849836
 10
-7.2257050393
 20
-16.4889190733
 10
-7.2104341052
 20
-16.4735548414
 10
-7.1945028613
 20
-16.4589781527
 10
-7.1778972677
 20
-16.4451861472
 10
-7.1606313642
 20
-16.4321816851
 10
-7.1428416569
 20
-16.4200592119
 10
-7.1245381899
 20
-16.4088328227
 10
-7.1057109191
 20
-16.3984884224
 10
-7.0864662174
 20
-16.3890781722
 10
-7.0667888259
 20
-16.3806017527
 10
-7.0466940035
 20
-16.3730594833
 10
-7.0263339004
 20
-16.3665044834
 10
-7.00571874
 20
-16.3609467581
 10
-6.9848382988
 20
-16.3563763022
 10
-6.9638140563
 20
-16.3528162195
 10
-6.9426385718
 20
-16.3502706391
 10
-6.9213192859
 20
-16.3487354319
 10
-6.9
 20
-16.3482213147
 10
-6.8786807141
 20
-16.3487354319
 10
-6.8573614282
 20
-16.3502706391
 10
-6.8361859437
 20
-16.3528162195
 10
-6.8151617012
 20
-16.3563763022
 10
-6.79428126
 20
-16.3609467581
 10
-6.7736660996
 20
-16.3665044834
 10
-6.7533059965
 20
-16.3730594833
 10
-6.7332111741
 20
-16.3806017527
 10
-6.7135337826
 20
-16.3890781722
 10
-6.6942890809
 20
-16.3984884224
 10
-6.6754618101
 20
-16.4088328227
 10
-6.6571583431
 20
-16.4200592119
 10
-6.6393686358
 20
-16.4321816851
 10
-6.6221027323
 20
-16.4451861472
 10
-6.6054971387
 20
-16.4589781527
 10
-6.5895658948
 20
-16.4735548414
 10
-6.5742949607
 20
-16.4889190733
 10
-6.5597787222
 20
-16.5049849836
 10
-6.5460143966
 20
-16.5217657771
 10
-6.5330047666
 20
-16.5392482489
 10
-6.5208525668
 20
-16.5573069193
 10
-6.5095674419
 20
-16.5759414502
 10
-6.4991397471
 20
-16.5951521798
 10
-6.4896432833
 20
-16.6148146424
 10
-6.4810830361
 20
-16.6349348077
 10
-6.4734540198
 20
-16.6555067062
 10
-6.4668150782
 20
-16.6763879635
 10
-6.4611735803
 20
-16.6975819945
 10
-6.4565221572
 20
-16.7190853843
 10
-6.4528975454
 20
-16.7407455142
 10
-6.4503119905
 20
-16.7625115112
 10
-6.4487532469
 20
-16.7844342482
 10
-6.4482213147
 20
-16.8065137252
  0
LWPOLYLINE
  5
405
100
AcDbEntity
  8
RACCORDO
100
AcDbPolyline
 62
253
  6
CONTINUOUS
 90
31
 70
0
 10
-6.5123099353
 20
-10.1876443732
 10
-6.5119030286
 20
-10.1719289958
 10
-6.5106738561
 20
-10.1562584081
 10
-6.508625991
 20
-10.1406755597
 10
-6.5057652606
 20
-10.1252230914
 10
-6.5020996906
 20
-10.1099433818
 10
-6.4976394995
 20
-10.0948784269
 10
-6.4923970307
 20
-10.0800692434
 10
-6.4863869199
 20
-10.0655565659
 10
-6.479626158
 20
-10.0513808433
 10
-6.4721336275
 20
-10.0375808795
 10
-6.4639301015
 20
-10.0241941962
 10
-6.4550385619
 20
-10.0112576588
 10
-6.4454841343
 20
-9.9988070311
 10
-6.4352928867
 20
-9.9868755249
 10
-6.4244917508
 20
-9.9754942936
 10
-6.4131106748
 20
-9.9646946869
 10
-6.4011805799
 20
-9.9545058327
 10
-6.3887316993
 20
-9.9449537059
 10
-6.3757970312
 20
-9.9360642012
 10
-6.3624125326
 20
-9.9278625689
 10
-6.3486145782
 20
-9.9203715093
 10
-6.3344404919
 20
-9.9136117703
 10
-6.3199291814
 20
-9.9076023648
 10
-6.3051210161
 20
-9.9023603197
 10
-6.2900565726
 20
-9.8979002973
 10
-6.2747769668
 20
-9.8942347519
 10
-6.2593245221
 20
-9.8913740221
 10
-6.2437417298
 20
-9.8893261585
 10
-6.2280711151
 20
-9.8880969773
 10
-6.2123556268
 20
-9.8876900647
  0
LWPOLYLINE
  5
406
100
AcDbEntity
  8
ASSI
100
AcDbPolyline
 62
253
  6
CONTINUOUS
 90
31
 70
0
 10
-6.5123099353
 20
-10.1876443732
 10
-6.5119030286
 20
-10.1719289958
 10
-6.5106738561
 20
-10.1562584081
 10
-6.508625991
 20
-10.1406755597
 10
-6.5057652606
 20
-10.1252230914
 10
-6.5020996906
 20
-10.1099433818
 10
-6.4976394995
 20
-10.0948784269
 10
-6.4923970307
 20
-10.0800692434
 10
-6.4863869199
 20
-10.0655565659
 10
-6.479626158
 20
-10.0513808433
 10
-6.4721336275
 20
-10.0375808795
 10
-6.4639301015
 20
-10.0241941962
 10
-6.4550385619
 20
-10.0112576588
 10
-6.4454841343
 20
-9.9988070311
 10
-6.4352928867
 20
-9.9868755249
 10
-6.4244917508
 20
-9.9754942936
 10
-6.4131106748
 20
-9.9646946869
 10
-6.4011805799
 20
-9.9545058327
 10
-6.3887316993
 20
-9.9449537059
 10
-6.3757970312
 20
-9.9360642012
 10
-6.3624125326
 20
-9.9278625689
 10
-6.3486145782
 20
-9.9203715093
 10
-6.3344404919
 20
-9.9136117703
 10
-6.3199291814
 20
-9.9076023648
 10
-6.3051210161
 20
-9.9023603197
 10
-6.2900565726
 20
-9.8979002973
 10
-6.2747769668
 20
-9.8942347519
 10
-6.2593245221
 20
-9.8913740221
 10
-6.2437417298
 20
-9.8893261585
 10
-6.2280711151
 20
-9.8880969773
 10
-6.2123556268
 20
-9.8876900647
  0
LINE
  5
407
100
AcDbEntity
  8
RACCORDO
100
AcDbLine
 62
253
  6
CONTINUOUS
 10
-6.5581782981
 20
-20.0275513222
 11
-6.4482213147
 21
-16.8065137252
  0
LINE
  5
408
100
AcDbEntity
  8
ASSI
100
AcDbLine
 62
253
  6
CONTINUOUS
 10
-6.5581782981
 20
-20.0275513222
 11
-6.4482213147
 21
-16.8065137252
  0
LWPOLYLINE
  5
409
100
AcDbEntity
  8
ASSI
100
AcDbPolyline
 62
7
  6
CONTINUOUS
 90
10
 70
0
 10
-3.5
 20
23.7511422903
 10
-3.5003309496
 20
23.7484333218
 10
-3.5013372585
 20
23.7450554941
 10
-3.5030384326
 20
23.7410088074
 10
-3.5054545678
 20
23.7363066986
 10
-3.5086022674
 20
23.7309357306
 10
-3.5124904908
 20
23.7248555929
 10
-3.5171299958
 20
23.7180581801
 10
-3.5225307956
 20
23.7105515976
 10
-3.5286918512
 20
23.7023198506
  0
LWPOLYLINE
  5
40A
100
AcDbEntity
  8
RACCORDO
100
AcDbPolyline
 62
7
  6
CONTINUOUS
 90
4
 70
0
 10
7.8908834737
 20
21.7591165263
 10
7.843380061
 20
21.6866457638
 10
7.818929804
 20
21.6499179842
 10
7.7939545568
 20
21.6129888844
  0
LWPOLYLINE
  5
40B
100
AcDbEntity
  8
ASSI
100
AcDbPolyline
 62
7
  6
CONTINUOUS
 90
4
 70
0
 10
7.8908834737
 20
21.7591165263
 10
7.843380061
 20
21.6866457638
 10
7.818929804
 20
21.6499179842
 10
7.7939545568
 20
21.6129888844
  0
LINE
  5
40C
100
AcDbEntity
  8
0
100
AcDbLine
 62
7
  6
CONTINUOUS
 10
6.555294768
 20
20.0829433217
 11
6.4790558127
 21
19.968583276
  0
LINE
  5
40D
100
AcDbEntity
  8
ASSI
100
AcDbLine
 62
7
  6
CONTINUOUS
 10
6.555294768
 20
20.0829433217
 11
6.4790558127
 21
19.968583276
  0
LINE
  5
40E
100
AcDbEntity
  8
RACCORDO
100
AcDbLine
 62
7
  6
CONTINUOUS
 10
7.7939545568
 20
21.6129888844
 11
7.7427848301
 21
21.5385902446
  0
LINE
  5
40F
100
AcDbEntity
  8
ASSI
100
AcDbLine
 62
7
  6
CONTINUOUS
 10
7.7939545568
 20
21.6129888844
 11
7.7427848301
 21
21.5385902446
  0
LINE
  5
410
100
AcDbEntity
  8
RACCORDO
100
AcDbLine
 62
7
  6
CONTINUOUS
 10
7.7427848301
 20
21.5385902446
 11
7.6904803352
 21
21.4636002076
  0
LINE
  5
411
100
AcDbEntity
  8
ASSI
100
AcDbLine
 62
7
  6
CONTINUOUS
 10
7.7427848301
 20
21.5385902446
 11
7.6904803352
 21
21.4636002076
  0
LWPOLYLINE
  5
412
100
AcDbEntity
  8
RACCORDO
100
AcDbPolyline
 62
7
  6
CONTINUOUS
 90
3
 70
0
 10
7.6904803352
 20
21.4636002076
 10
7.6108850697
 20
21.3504165494
 10
7.5841007192
 20
21.3126932437
  0
LWPOLYLINE
  5
413
100
AcDbEntity
  8
ASSI
100
AcDbPolyline
 62
7
  6
CONTINUOUS
 90
3
 70
0
 10
7.6904803352
 20
21.4636002076
 10
7.6108850697
 20
21.3504165494
 10
7.5841007192
 20
21.3126932437
  0
LINE
  5
414
100
AcDbEntity
  8
0
100
AcDbLine
 62
7
  6
CONTINUOUS
 10
-2.673200925
 20
6.2150852101
 11
-1.6950735321
 21
7.2691017973
  0
LINE
  5
415
100
AcDbEntity
  8
0
100
AcDbLine
 62
7
  6
CONTINUOUS
 10
-1.2347304607
 20
7.0301114777
 11
-2.173200925
 21
6.0188286497
  0
LINE
  5
416
100
AcDbEntity
  8
0
100
AcDbLine
 62
7
  6
CONTINUOUS
 10
-1.689544252
 20
7.310455748
 11
-2.6828427125
 21
6.3171572875
  0
LINE
  5
417
100
AcDbEntity
  8
DRAFT
100
AcDbLine
 62
7
  6
CONTINUOUS
 10
9.4946499221
 20
11.5
 11
9.65
 21
11.5776691233
  0
LINE
  5
418
100
AcDbEntity
  8
ASSI
100
AcDbLine
 62
7
  6
CONTINUOUS
 10
9.4946499221
 20
11.5
 11
9.65
 21
11.5776691233
  0
LINE
  5
419
100
AcDbEntity
  8
0
100
AcDbLine
 62
7
  6
CONTINUOUS
 10
2.4
 20
-6.55
 11
-1.0635611294
 21
-6.55
  0
LINE
  5
41A
100
AcDbEntity
  8
0
100
AcDbLine
 62
7
  6
CONTINUOUS
 10
2.38
 20
-6.525
 11
-1.0461527225
 21
-6.525
  0
LINE
  5
41B
100
AcDbEntity
  8
RACCORDO
100
AcDbLine
 62
253
  6
CONTINUOUS
 10
8.4101132618
 20
-6.2872801014
 11
8.2
 21
-6.2872801014
  0
LINE
  5
41C
100
AcDbEntity
  8
ASSI
100
AcDbLine
 62
253
  6
CONTINUOUS
 10
8.4101132618
 20
-6.2872801014
 11
8.2
 21
-6.2872801014
  0
LINE
  5
41D
100
AcDbEntity
  8
RACCORDO
100
AcDbLine
 62
253
  6
CONTINUOUS
 10
-8.2
 20
-6.2872801014
 11
-8.4101132618
 21
-6.2872801014
  0
LINE
  5
41E
100
AcDbEntity
  8
ASSI
100
AcDbLine
 62
253
  6
CONTINUOUS
 10
-8.2
 20
-6.2872801014
 11
-8.4101132618
 21
-6.2872801014
  0
LINE
  5
41F
100
AcDbEntity
  8
0
100
AcDbLine
 62
253
  6
CONTINUOUS
 10
-1.4695652174
 20
-6.15
 11
-1.449787234
 21
-6.15
  0
LINE
  5
420
100
AcDbEntity
  8
0
100
AcDbLine
 62
253
  6
CONTINUOUS
 10
2.7792179856
 20
-6.15
 11
2.8
 21
-6.15
  0
LINE
  5
421
100
AcDbEntity
  8
0
100
AcDbLine
 62
7
  6
CONTINUOUS
 10
1.88
 20
-6.025
 11
-0.6413436256
 21
-6.025
  0
LINE
  5
422
100
AcDbEntity
  8
RACCORDO
100
AcDbLine
 62
253
  6
CONTINUOUS
 10
8.4127084755
 20
-5.9872915245
 11
8.2
 21
-5.9872915245
  0
LINE
  5
423
100
AcDbEntity
  8
ASSI
100
AcDbLine
 62
7
  6
CONTINUOUS
 10
8.4127084755
 20
-5.9872915245
 11
8.2
 21
-5.9872915245
  0
LINE
  5
424
100
AcDbEntity
  8
RACCORDO
100
AcDbLine
 62
253
  6
CONTINUOUS
 10
-8.2
 20
-5.9872915245
 11
-8.4127084755
 21
-5.9872915245
  0
LINE
  5
425
100
AcDbEntity
  8
ASSI
100
AcDbLine
 62
7
  6
CONTINUOUS
 10
-8.2
 20
-5.9872915245
 11
-8.4127084755
 21
-5.9872915245
  0
LINE
  5
426
100
AcDbEntity
  8
RACCORDO
100
AcDbLine
 62
7
  6
CONTINUOUS
 10
8.5
 20
-5.9
 11
8.2
 21
-5.9
  0
LINE
  5
427
100
AcDbEntity
  8
ASSI
100
AcDbLine
 62
7
  6
CONTINUOUS
 10
8.5
 20
-5.9
 11
8.2
 21
-5.9
  0
LINE
  5
428
100
AcDbEntity
  8
RACCORDO
100
AcDbLine
 62
7
  6
CONTINUOUS
 10
-8.2
 20
-5.9
 11
-8.5
 21
-5.9
  0
LINE
  5
429
100
AcDbEntity
  8
ASSI
100
AcDbLine
 62
7
  6
CONTINUOUS
 10
-8.2
 20
-5.9
 11
-8.5
 21
-5.9
  0
LINE
  5
42A
100
AcDbEntity
  8
RACCORDO
100
AcDbLine
 62
7
  6
CONTINUOUS
 10
7.5841007192
 20
-21.3126932437
 11
7.6375346208
 21
-21.3881838872
  0
LINE
  5
42B
100
AcDbEntity
  8
ASSI
100
AcDbLine
 62
7
  6
CONTINUOUS
 10
7.5841007192
 20
-21.3126932437
 11
7.6375346208
 21
-21.3881838872
  0
LINE
  5
42C
100
AcDbEntity
  8
RACCORDO
100
AcDbLine
 62
7
  6
CONTINUOUS
 10
7.6375346208
 20
-21.3881838872
 11
7.7167764984
 21
-21.5011382645
  0
LINE
  5
42D
100
AcDbEntity
  8
ASSI
100
AcDbLine
 62
7
  6
CONTINUOUS
 10
7.6375346208
 20
-21.3881838872
 11
7.7167764984
 21
-21.5011382645
  0
LWPOLYLINE
  5
42E
100
AcDbEntity
  8
RACCORDO
100
AcDbPolyline
 62
7
  6
CONTINUOUS
 90
5
 70
0
 10
7.7167764984
 20
-21.5011382645
 10
7.7685136093
 20
-21.5758926167
 10
7.7939545568
 20
-21.6129888844
 10
7.818929804
 20
-21.6499179842
 10
7.843380061
 20
-21.6866457638
  0
LWPOLYLINE
  5
42F
100
AcDbEntity
  8
ASSI
100
AcDbPolyline
 62
7
  6
CONTINUOUS
 90
5
 70
0
 10
7.7167764984
 20
-21.5011382645
 10
7.7685136093
 20
-21.5758926167
 10
7.7939545568
 20
-21.6129888844
 10
7.818929804
 20
-21.6499179842
 10
7.843380061
 20
-21.6866457638
  0
LINE
  5
430
100
AcDbEntity
  8
RACCORDO
100
AcDbLine
 62
7
  6
CONTINUOUS
 10
6.555294768
 20
-20.0829433217
 11
6.4482213147
 21
-19.9223308767
  0
LINE
  5
431
100
AcDbEntity
  8
ASSI
100
AcDbLine
 62
7
  6
CONTINUOUS
 10
6.555294768
 20
-20.0829433217
 11
6.4482213147
 21
-19.9223308767
  0
LINE
  5
432
100
AcDbEntity
  8
RACCORDO
100
AcDbLine
 62
7
  6
CONTINUOUS
 10
7.843380061
 20
-21.6866457638
 11
7.8908834737
 21
-21.7591165263
  0
LINE
  5
433
100
AcDbEntity
  8
ASSI
100
AcDbLine
 62
7
  6
CONTINUOUS
 10
7.843380061
 20
-21.6866457638
 11
7.8908834737
 21
-21.7591165263
  0
LINE
  5
434
100
AcDbEntity
  8
DRAFT
100
AcDbLine
 62
7
  6
CONTINUOUS
 10
-4.5795771341
 20
-10.8204228659
 11
-4.5
 21
-14.139335085
  0
LINE
  5
435
100
AcDbEntity
  8
ASSI
100
AcDbLine
 62
7
  6
CONTINUOUS
 10
-4.5795771341
 20
-10.8204228659
 11
-4.5
 21
-14.139335085
  0
LINE
  5
436
100
AcDbEntity
  8
DRAFT
100
AcDbLine
 62
7
  6
CONTINUOUS
 10
-4.5
 20
-10.9
 11
-4.5
 21
-14.139335085
  0
LINE
  5
437
100
AcDbEntity
  8
ASSI
100
AcDbLine
 62
7
  6
CONTINUOUS
 10
-4.5
 20
-10.9
 11
-4.5
 21
-14.139335085
  0
LINE
  5
438
100
AcDbEntity
  8
RACCORDO
100
AcDbLine
 62
7
  6
CONTINUOUS
 10
-4.5
 20
17.6
 11
-4.5
 21
19.9973819397
  0
LINE
  5
439
100
AcDbEntity
  8
ASSI
100
AcDbLine
 62
7
  6
CONTINUOUS
 10
-4.5
 20
17.6
 11
-4.5
 21
19.9973819397
  0
LINE
  5
43A
100
AcDbEntity
  8
DRAFT
100
AcDbLine
 62
7
  6
CONTINUOUS
 10
-4.4
 20
23.8
 11
-4.4
 21
22.4
  0
LINE
  5
43B
100
AcDbEntity
  8
ASSI
100
AcDbLine
 62
7
  6
CONTINUOUS
 10
-4.4
 20
23.8
 11
-4.4
 21
22.4
  0
LINE
  5
43C
100
AcDbEntity
  8
DRAFT
100
AcDbLine
 62
7
  6
CONTINUOUS
 10
-4.4
 20
-22.4
 11
-4.4
 21
-23.8
  0
LINE
  5
43D
100
AcDbEntity
  8
ASSI
100
AcDbLine
 62
7
  6
CONTINUOUS
 10
-4.4
 20
-22.4
 11
-4.4
 21
-23.8
  0
LINE
  5
43E
100
AcDbEntity
  8
ASSI
100
AcDbLine
 62
7
  6
CONTINUOUS
 10
-4.3559327327
 20
-22.3338981669
 11
-4.3559327327
 21
-23.7507734247
  0
LINE
  5
43F
100
AcDbEntity
  8
ASSI
100
AcDbLine
 62
7
  6
CONTINUOUS
 10
-4.3559327327
 20
22.3338981669
 11
-4.3559327327
 21
23.7507734247
  0
LINE
  5
440
100
AcDbEntity
  8
RACCORDO
100
AcDbLine
 62
253
  6
CONTINUOUS
 10
-4.2
 20
17.3
 11
-4.2
 21
20.0
  0
LINE
  5
441
100
AcDbEntity
  8
ASSI
100
AcDbLine
 62
253
  6
CONTINUOUS
 10
-4.2
 20
17.3
 11
-4.2
 21
20.0
  0
LINE
  5
442
100
AcDbEntity
  8
DRAFT
100
AcDbLine
 62
7
  6
CONTINUOUS
 10
-3.5
 20
14.7
 11
-3.5
 21
13.9
  0
LINE
  5
443
100
AcDbEntity
  8
RACCORDO
100
AcDbLine
 62
7
  6
CONTINUOUS
 10
-3.5
 20
-22.3339198952
 11
-3.5
 21
-23.7511422903
  0
LINE
  5
444
100
AcDbEntity
  8
ASSI
100
AcDbLine
 62
7
  6
CONTINUOUS
 10
-3.5
 20
-22.3339198952
 11
-3.5
 21
-23.7511422903
  0
LINE
  5
445
100
AcDbEntity
  8
ASSI
100
AcDbLine
 62
7
  6
CONTINUOUS
 10
-3.5
 20
-23.7561448042
 11
-3.5
 21
-23.7941821702
  0
LINE
  5
446
100
AcDbEntity
  8
RACCORDO
100
AcDbLine
 62
7
  6
CONTINUOUS
 10
-3.5
 20
14.7
 11
-3.5
 21
16.2
  0
LINE
  5
447
100
AcDbEntity
  8
ASSI
100
AcDbLine
 62
7
  6
CONTINUOUS
 10
-3.5
 20
13.9
 11
-3.5
 21
16.2
  0
LINE
  5
448
100
AcDbEntity
  8
ASSI
100
AcDbLine
 62
7
  6
CONTINUOUS
 10
-3.5
 20
23.7561448042
 11
-3.5
 21
23.7941821702
  0
LINE
  5
449
100
AcDbEntity
  8
ASSI
100
AcDbLine
 62
7
  6
CONTINUOUS
 10
-3.5
 20
22.3339198952
 11
-3.5
 21
23.7511422903
  0
LINE
  5
44A
100
AcDbEntity
  8
DRAFT
100
AcDbLine
 62
7
  6
CONTINUOUS
 10
-5.4204228659
 20
-10.8204228659
 11
-5.5
 21
-14.139335085
  0
LINE
  5
44B
100
AcDbEntity
  8
ASSI
100
AcDbLine
 62
7
  6
CONTINUOUS
 10
-5.4204228659
 20
-10.8204228659
 11
-5.5
 21
-14.139335085
  0
LINE
  5
44C
100
AcDbEntity
  8
RACCORDO
100
AcDbLine
 62
7
  6
CONTINUOUS
 10
-8.2525445259
 20
-24.2855823661
 11
-8.2545176323
 21
-24.2973162875
  0
LWPOLYLINE
  5
44D
100
AcDbEntity
  8
ASSI
100
AcDbPolyline
 62
7
  6
CONTINUOUS
 90
6
 70
0
 10
-8.2525445259
 20
-24.2855823661
 10
-8.2545176323
 20
-24.2973162875
 10
-8.2570468183
 20
-24.3089430388
 10
-8.2601263583
 20
-24.320436279
 10
-8.2637492787
 20
-24.3317699738
 10
-8.2679073742
 20
-24.3429184493
  0
LINE
  5
44E
100
AcDbEntity
  8
RACCORDO
100
AcDbLine
 62
253
  6
CONTINUOUS
 10
6.9101323002
 20
13.8101132618
 11
7.0000190385
 21
13.9
  0
LINE
  5
44F
100
AcDbEntity
  8
ASSI
100
AcDbLine
 62
253
  6
CONTINUOUS
 10
6.9101323002
 20
13.8101132618
 11
7.0000190385
 21
13.9
  0
LINE
  5
450
100
AcDbEntity
  8
RACCORDO
100
AcDbLine
 62
253
  6
CONTINUOUS
 10
7.4101132618
 20
13.3101323002
 11
7.5
 21
13.4000190385
  0
LINE
  5
451
100
AcDbEntity
  8
ASSI
100
AcDbLine
 62
253
  6
CONTINUOUS
 10
7.4101132618
 20
13.3101323002
 11
7.5
 21
13.4000190385
  0
LINE
  5
452
100
AcDbEntity
  8
DRAFT
100
AcDbLine
 62
7
  6
CONTINUOUS
 10
7.5
 20
12.5
 11
7.4101132618
 21
12.4101132618
  0
LINE
  5
453
100
AcDbEntity
  8
ASSI
100
AcDbLine
 62
7
  6
CONTINUOUS
 10
7.5
 20
12.5
 11
7.4101132618
 21
12.4101132618
  0
LINE
  5
454
100
AcDbEntity
  8
DRAFT
100
AcDbLine
 62
7
  6
CONTINUOUS
 10
-9.4946499221
 20
0.5
 11
-9.65
 21
0.4223308767
  0
LINE
  5
455
100
AcDbEntity
  8
ASSI
100
AcDbLine
 62
7
  6
CONTINUOUS
 10
-9.4946499221
 20
0.5
 11
-9.65
 21
0.4223308767
  0
LINE
  5
456
100
AcDbEntity
  8
0
100
AcDbLine
 62
7
  6
CONTINUOUS
 10
0.5
 20
-4.7
 11
-0.5
 21
-4.7
  0
LINE
  5
457
100
AcDbEntity
  8
DRAFT
100
AcDbLine
 62
7
  6
CONTINUOUS
 10
-9.4946499221
 20
-0.5
 11
-9.65
 21
-0.4223308767
  0
LINE
  5
458
100
AcDbEntity
  8
ASSI
100
AcDbLine
 62
7
  6
CONTINUOUS
 10
-9.4946499221
 20
-0.5
 11
-9.65
 21
-0.4223308767
  0
LINE
  5
459
100
AcDbEntity
  8
0
100
AcDbLine
 62
7
  6
CONTINUOUS
 10
-2.6828427125
 20
-4.3171572875
 11
-1.689544252
 21
-5.310455748
  0
LINE
  5
45A
100
AcDbEntity
  8
DRAFT
100
AcDbLine
 62
7
  6
CONTINUOUS
 10
5.5
 20
-10.9
 11
5.4204228659
 21
-10.8204228659
  0
LINE
  5
45B
100
AcDbEntity
  8
ASSI
100
AcDbLine
 62
7
  6
CONTINUOUS
 10
5.5
 20
-10.9
 11
5.4204228659
 21
-10.8204228659
  0
LINE
  5
45C
100
AcDbEntity
  8
0
100
AcDbLine
 62
7
  6
CONTINUOUS
 10
-1.6950735321
 20
-5.2691017973
 11
-2.673200925
 21
-4.2150852101
  0
LINE
  5
45D
100
AcDbEntity
  8
0
100
AcDbLine
 62
7
  6
CONTINUOUS
 10
-2.173200925
 20
-4.0188286497
 11
-1.2347304607
 21
-5.0301114777
  0
LINE
  5
45E
100
AcDbEntity
  8
RACCORDO
100
AcDbLine
 62
7
  6
CONTINUOUS
 10
-9.4946499221
 20
14.7
 11
-9.5212892833
 21
14.7799830745
  0
LINE
  5
45F
100
AcDbEntity
  8
ASSI
100
AcDbLine
 62
7
  6
CONTINUOUS
 10
-9.4946499221
 20
14.7
 11
-9.5212892833
 21
14.7799830745
  0
LWPOLYLINE
  5
460
100
AcDbEntity
  8
RACCORDO
100
AcDbPolyline
 62
7
  6
CONTINUOUS
 90
5
 70
0
 10
-8.2545176323
 20
24.2973162875
 10
-8.2525445259
 20
24.2855823661
 10
-8.2511319658
 20
24.2737678556
 10
-8.2502831502
 20
24.261899516
 10
-8.25
 20
24.2500042308
  0
LINE
  5
461
100
AcDbEntity
  8
ASSI
100
AcDbLine
 62
7
  6
CONTINUOUS
 10
-3.4
 20
14.6
 11
-3.4
 21
15.6
  0
LINE
  5
462
100
AcDbEntity
  8
RACCORDO
100
AcDbLine
 62
7
  6
CONTINUOUS
 10
-3.0
 20
-21.0
 11
-3.0
 21
-22.3912731322
  0
LINE
  5
463
100
AcDbEntity
  8
ASSI
100
AcDbLine
 62
7
  6
CONTINUOUS
 10
-3.0
 20
-21.0
 11
-3.0
 21
-22.3912731322
  0
LINE
  5
464
100
AcDbEntity
  8
RACCORDO
100
AcDbLine
 62
7
  6
CONTINUOUS
 10
-3.0
 20
21.0
 11
-3.0
 21
22.3912731322
  0
LINE
  5
465
100
AcDbEntity
  8
ASSI
100
AcDbLine
 62
7
  6
CONTINUOUS
 10
-3.0
 20
21.0
 11
-3.0
 21
22.3912731322
  0
LINE
  5
466
100
AcDbEntity
  8
0
100
AcDbLine
 62
7
  6
CONTINUOUS
 10
-2.8
 20
-4.0343145751
 11
-2.8
 21
6.0343145751
  0
LINE
  5
467
100
AcDbEntity
  8
0
100
AcDbLine
 62
7
  6
CONTINUOUS
 10
-2.78
 20
-3.9429947517
 11
-2.78
 21
5.9429947517
  0
LINE
  5
468
100
AcDbEntity
  8
0
100
AcDbLine
 62
7
  6
CONTINUOUS
 10
-2.28
 20
-3.7467381913
 11
-2.28
 21
5.7467381913
  0
LINE
  5
469
100
AcDbEntity
  8
0
100
AcDbLine
 62
7
  6
CONTINUOUS
 10
-1.4576458313
 20
8.2185364699
 11
-1.5580952381
 21
7.640952381
  0
LINE
  5
46A
100
AcDbEntity
  8
0
100
AcDbLine
 62
7
  6
CONTINUOUS
 10
-1.5580952381
 20
7.640952381
 11
-1.4373950941
 21
8.2082430578
  0
LINE
  5
46B
100
AcDbEntity
  8
0
100
AcDbLine
 62
7
  6
CONTINUOUS
 10
-1.0325859972
 20
7.7082430578
 11
-1.1366890141
 21
7.2189588783
  0
LWPOLYLINE
  5
46C
100
AcDbEntity
  8
RACCORDO
100
AcDbPolyline
 62
7
  6
CONTINUOUS
 90
26
 70
0
 10
-8.2545176323
 20
-24.2973162875
 10
-8.2570468183
 20
-24.3089430388
 10
-8.2601263583
 20
-24.320436279
 10
-8.2637492787
 20
-24.3317699738
 10
-8.2679073742
 20
-24.3429184493
 10
-8.2725912278
 20
-24.3538564463
 10
-8.2777902312
 20
-24.3645591876
 10
-8.2834926084
 20
-24.3750024283
 10
-8.2896854419
 20
-24.3851625059
 10
-8.2963547045
 20
-24.3950164051
 10
-8.3034852893
 20
-24.4045418038
 10
-8.3110610411
 20
-24.4137171191
 10
-8.3190647995
 20
-24.4225215661
 10
-8.3274784339
 20
-24.4309352005
 10
-8.3362828809
 20
-24.4389389589
 10
-8.3454581962
 20
-24.4465147107
 10
-8.3549835949
 20
-24.4536452955
 10
-8.3648374941
 20
-24.4603145581
 10
-8.3749975717
 20
-24.4665073916
 10
-8.3854408124
 20
-24.4722097688
 10
-8.3961435537
 20
-24.4774087722
 10
-8.4070815507
 20
-24.4820926258
 10
-8.4182300262
 20
-24.4862507213
 10
-8.429563721
 20
-24.4898736417
 10
-8.4410569612
 20
-24.4929531817
 10
-8.4526837125
 20
-24.4954823677
  0
LINE
  5
46D
100
AcDbEntity
  8
RACCORDO
100
AcDbLine
 62
253
  6
CONTINUOUS
 10
-9.4946499221
 20
-19.9333419123
 11
-9.65
 21
-20.3997711479
  0
LINE
  5
46E
100
AcDbEntity
  8
ASSI
100
AcDbLine
 62
253
  6
CONTINUOUS
 10
-9.4946499221
 20
-19.9333419123
 11
-9.65
 21
-20.3997711479
  0
LINE
  5
46F
100
AcDbEntity
  8
RACCORDO
100
AcDbLine
 62
253
  6
CONTINUOUS
 10
-8.9950305219
 20
-20.4335707644
 11
-9.1503805997
 21
-20.9
  0
LINE
  5
470
100
AcDbEntity
  8
ASSI
100
AcDbLine
 62
253
  6
CONTINUOUS
 10
-8.9950305219
 20
-20.4335707644
 11
-9.1503805997
 21
-20.9
  0
LWPOLYLINE
  5
471
100
AcDbEntity
  8
ASSI
100
AcDbPolyline
 62
7
  6
CONTINUOUS
 90
18
 70
0
 10
8.2679073742
 20
24.3429184493
 10
8.2725912278
 20
24.3538564463
 10
8.2777902312
 20
24.3645591876
 10
8.2834926084
 20
24.3750024283
 10
8.2896854419
 20
24.3851625059
 10
8.2963547045
 20
24.3950164051
 10
8.3034852893
 20
24.4045418038
 10
8.3110610411
 20
24.4137171191
 10
8.3190647995
 20
24.4225215661
 10
8.3274784339
 20
24.4309352005
 10
8.3362828809
 20
24.4389389589
 10
8.3454581962
 20
24.4465147107
 10
8.3549835949
 20
24.4536452955
 10
8.3648374941
 20
24.4603145581
 10
8.3749975717
 20
24.4665073916
 10
8.3854408124
 20
24.4722097688
 10
8.3961435537
 20
24.4774087722
 10
8.4070815507
 20
24.4820926258
  0
LINE
  5
472
100
AcDbEntity
  8
DRAFT
100
AcDbLine
 62
7
  6
CONTINUOUS
 10
9.65
 20
7.2776691233
 11
9.4946499221
 21
7.2
  0
LINE
  5
473
100
AcDbEntity
  8
ASSI
100
AcDbLine
 62
7
  6
CONTINUOUS
 10
9.65
 20
7.2776691233
 11
9.4946499221
 21
7.2
  0
LINE
  5
474
100
AcDbEntity
  8
DRAFT
100
AcDbLine
 62
7
  6
CONTINUOUS
 10
9.4946499221
 20
-7.9
 11
9.65
 21
-7.9776691233
  0
LINE
  5
475
100
AcDbEntity
  8
ASSI
100
AcDbLine
 62
7
  6
CONTINUOUS
 10
9.4946499221
 20
-7.9
 11
9.65
 21
-7.9776691233
  0
LINE
  5
476
100
AcDbEntity
  8
RACCORDO
100
AcDbLine
 62
253
  6
CONTINUOUS
 10
7.0000190385
 20
-10.9
 11
6.9101323002
 21
-10.8101132618
  0
LINE
  5
477
100
AcDbEntity
  8
ASSI
100
AcDbLine
 62
253
  6
CONTINUOUS
 10
7.0000190385
 20
-10.9
 11
6.9101323002
 21
-10.8101132618
  0
LINE
  5
478
100
AcDbEntity
  8
RACCORDO
100
AcDbLine
 62
253
  6
CONTINUOUS
 10
7.5
 20
-10.4000190385
 11
7.4101132618
 21
-10.3101323002
  0
LINE
  5
479
100
AcDbEntity
  8
ASSI
100
AcDbLine
 62
253
  6
CONTINUOUS
 10
7.5
 20
-10.4000190385
 11
7.4101132618
 21
-10.3101323002
  0
LINE
  5
47A
100
AcDbEntity
  8
RACCORDO
100
AcDbLine
 62
253
  6
CONTINUOUS
 10
-9.65
 20
20.3997711479
 11
-9.5871617663
 21
20.2111031425
  0
LINE
  5
47B
100
AcDbEntity
  8
ASSI
100
AcDbLine
 62
253
  6
CONTINUOUS
 10
-9.65
 20
20.3997711479
 11
-9.5871617663
 21
20.2111031425
  0
LINE
  5
47C
100
AcDbEntity
  8
RACCORDO
100
AcDbLine
 62
253
  6
CONTINUOUS
 10
-9.1503805997
 20
20.9
 11
-9.087542366
 21
20.7113319946
  0
LINE
  5
47D
100
AcDbEntity
  8
ASSI
100
AcDbLine
 62
253
  6
CONTINUOUS
 10
-9.1503805997
 20
20.9
 11
-9.087542366
 21
20.7113319946
  0
LINE
  5
47E
100
AcDbEntity
  8
0
100
AcDbLine
 62
7
  6
CONTINUOUS
 10
-1.4373950941
 20
-6.2082430578
 11
-1.5580952381
 21
-5.640952381
  0
LINE
  5
47F
100
AcDbEntity
  8
0
100
AcDbLine
 62
7
  6
CONTINUOUS
 10
-1.1366890141
 20
-5.2189588783
 11
-1.0325859972
 21
-5.7082430578
  0
LINE
  5
480
100
AcDbEntity
  8
0
100
AcDbLine
 62
7
  6
CONTINUOUS
 10
-1.5580952381
 20
-5.640952381
 11
-1.4576458313
 21
-6.2185364699
  0
LINE
  5
481
100
AcDbEntity
  8
0
100
AcDbLine
 62
7
  6
CONTINUOUS
 10
-0.5
 20
-4.7
 11
-0.5
 21
6.7
  0
LWPOLYLINE
  5
482
100
AcDbEntity
  8
ASSI
100
AcDbPolyline
 62
7
  6
CONTINUOUS
 90
17
 70
0
 10
-4.3559327327
 20
-23.7507734247
 10
-4.3555058115
 20
-23.7479814955
 10
-4.3544077005
 20
-23.7445314173
 10
-4.3526214372
 20
-23.7404231902
 10
-4.350130014
 20
-23.7356694746
 10
-4.3469191573
 20
-23.73025761
 10
-4.3429800271
 20
-23.7241496156
 10
-4.3383040725
 20
-23.7173410493
 10
-4.332881764
 20
-23.7098363532
 10
-4.3267078213
 20
-23.7016108734
 10
-4.3197926931
 20
-23.6926849926
 10
-4.3121207612
 20
-23.6830383283
 10
-4.3036380254
 20
-23.672585078
 10
-4.2943239331
 20
-23.6613209741
 10
-4.284175878
 20
-23.6492502843
 10
-4.2731507556
 20
-23.6363000104
 10
-4.2612377117
 20
-23.6224696064
  0
LINE
  5
483
100
AcDbEntity
  8
DRAFT
100
AcDbLine
 62
7
  6
CONTINUOUS
 10
7.5
 20
9.6
 11
7.4825462644
 21
9.5825462644
  0
LINE
  5
484
100
AcDbEntity
  8
ASSI
100
AcDbLine
 62
7
  6
CONTINUOUS
 10
7.5
 20
9.6
 11
7.4825462644
 21
9.5825462644
  0
LINE
  5
485
100
AcDbEntity
  8
DRAFT
100
AcDbLine
 62
7
  6
CONTINUOUS
 10
8.35
 20
9.6
 11
8.3325462644
 21
9.5825462644
  0
LINE
  5
486
100
AcDbEntity
  8
ASSI
100
AcDbLine
 62
7
  6
CONTINUOUS
 10
8.35
 20
9.6
 11
8.3325462644
 21
9.5825462644
  0
LINE
  5
487
100
AcDbEntity
  8
RACCORDO
100
AcDbLine
 62
7
  6
CONTINUOUS
 10
-9.65
 20
-0.4223308767
 11
-9.2122871968
 21
-0.4118358927
  0
LINE
  5
488
100
AcDbEntity
  8
ASSI
100
AcDbLine
 62
7
  6
CONTINUOUS
 10
-9.65
 20
-0.4223308767
 11
-9.2122871968
 21
-0.4118358927
  0
LINE
  5
489
100
AcDbEntity
  8
RACCORDO
100
AcDbLine
 62
7
  6
CONTINUOUS
 10
9.2122871968
 20
0.4118358927
 11
9.65
 21
0.4223308767
  0
LINE
  5
48A
100
AcDbEntity
  8
ASSI
100
AcDbLine
 62
7
  6
CONTINUOUS
 10
9.2122871968
 20
0.4118358927
 11
9.65
 21
0.4223308767
  0
LINE
  5
48B
100
AcDbEntity
  8
DRAFT
100
AcDbLine
 62
7
  6
CONTINUOUS
 10
-9.4946499221
 20
-0.5
 11
-8.2
 21
-0.5
  0
LINE
  5
48C
100
AcDbEntity
  8
ASSI
100
AcDbLine
 62
7
  6
CONTINUOUS
 10
-9.4946499221
 20
-0.5
 11
-8.2
 21
-0.5
  0
LINE
  5
48D
100
AcDbEntity
  8
DRAFT
100
AcDbLine
 62
7
  6
CONTINUOUS
 10
9.4946499221
 20
-0.5
 11
8.2
 21
-0.5
  0
LINE
  5
48E
100
AcDbEntity
  8
ASSI
100
AcDbLine
 62
7
  6
CONTINUOUS
 10
9.4946499221
 20
-0.5
 11
8.2
 21
-0.5
  0
LINE
  5
48F
100
AcDbEntity
  8
RACCORDO
100
AcDbLine
 62
7
  6
CONTINUOUS
 10
8.9303794106
 20
-0.4101132618
 11
8.2
 21
-0.4101132618
  0
LINE
  5
490
100
AcDbEntity
  8
ASSI
100
AcDbLine
 62
7
  6
CONTINUOUS
 10
8.9303794106
 20
-0.4101132618
 11
8.2
 21
-0.4101132618
  0
LINE
  5
491
100
AcDbEntity
  8
RACCORDO
100
AcDbLine
 62
7
  6
CONTINUOUS
 10
-8.2
 20
-0.4101132618
 11
-8.9303794106
 21
-0.4101132618
  0
LINE
  5
492
100
AcDbEntity
  8
ASSI
100
AcDbLine
 62
7
  6
CONTINUOUS
 10
-8.2
 20
-0.4101132618
 11
-8.9303794106
 21
-0.4101132618
  0
LINE
  5
493
100
AcDbEntity
  8
RACCORDO
100
AcDbLine
 62
7
  6
CONTINUOUS
 10
9.2122871968
 20
-0.4118358927
 11
9.65
 21
-0.4223308767
  0
LINE
  5
494
100
AcDbEntity
  8
ASSI
100
AcDbLine
 62
7
  6
CONTINUOUS
 10
9.2122871968
 20
-0.4118358927
 11
9.65
 21
-0.4223308767
  0
LINE
  5
495
100
AcDbEntity
  8
RACCORDO
100
AcDbLine
 62
7
  6
CONTINUOUS
 10
-9.65
 20
0.4223308767
 11
-9.2122871968
 21
0.4118358927
  0
LINE
  5
496
100
AcDbEntity
  8
ASSI
100
AcDbLine
 62
7
  6
CONTINUOUS
 10
-9.65
 20
0.4223308767
 11
-9.2122871968
 21
0.4118358927
  0
LINE
  5
497
100
AcDbEntity
  8
DRAFT
100
AcDbLine
 62
7
  6
CONTINUOUS
 10
7.4101132618
 20
-8.8101132618
 11
7.5
 21
-8.9
  0
LINE
  5
498
100
AcDbEntity
  8
ASSI
100
AcDbLine
 62
7
  6
CONTINUOUS
 10
7.4101132618
 20
-8.8101132618
 11
7.5
 21
-8.9
  0
LINE
  5
499
100
AcDbEntity
  8
RACCORDO
100
AcDbLine
 62
7
  6
CONTINUOUS
 10
7.4372915245
 20
-7.9872915245
 11
7.35
 21
-7.9
  0
LINE
  5
49A
100
AcDbEntity
  8
ASSI
100
AcDbLine
 62
7
  6
CONTINUOUS
 10
7.4372915245
 20
-7.9872915245
 11
7.35
 21
-7.9
  0
LWPOLYLINE
  5
49B
100
AcDbEntity
  8
ASSI
100
AcDbPolyline
 62
7
  6
CONTINUOUS
 90
9
 70
0
 10
8.2679073742
 20
-24.3429184493
 10
8.2637492787
 20
-24.3317699738
 10
8.2601263583
 20
-24.320436279
 10
8.2570468183
 20
-24.3089430388
 10
8.2545176323
 20
-24.2973162875
 10
8.2525445259
 20
-24.2855823661
 10
8.2511319658
 20
-24.2737678556
 10
8.2502831502
 20
-24.261899516
 10
8.25
 20
-24.2500042308
  0
LINE
  5
49C
100
AcDbEntity
  8
0
100
AcDbLine
 62
7
  6
CONTINUOUS
 10
0.5
 20
6.7
 11
0.5
 21
-4.7
  0
LWPOLYLINE
  5
49D
100
AcDbEntity
  8
ASSI
100
AcDbPolyline
 62
7
  6
CONTINUOUS
 90
17
 70
0
 10
4.3559327327
 20
23.7507734247
 10
4.3555072846
 20
23.7479907344
 10
4.3544117387
 20
23.7445445202
 10
4.352627049
 20
23.7404347823
 10
4.3501336376
 20
23.7356747975
 10
4.3469153347
 20
23.7302512888
 10
4.3429632158
 20
23.7241244261
 10
4.3382668343
 20
23.7172868866
 10
4.3328161451
 20
23.709745993
 10
4.3266108951
 20
23.7014838836
 10
4.3196635086
 20
23.6925202225
 10
4.3119585062
 20
23.6828353457
 10
4.3034472137
 20
23.6723523989
 10
4.2941144665
 20
23.6610710839
 10
4.2839567081
 20
23.6489916989
 10
4.2729264894
 20
23.6360382845
 10
4.2610120715
 20
23.6222095469
  0
LINE
  5
49E
100
AcDbEntity
  8
RACCORDO
100
AcDbLine
 62
253
  6
CONTINUOUS
 10
9.087542366
 20
20.7113319946
 11
9.1503805997
 21
20.9
  0
LINE
  5
49F
100
AcDbEntity
  8
ASSI
100
AcDbLine
 62
253
  6
CONTINUOUS
 10
9.087542366
 20
20.7113319946
 11
9.1503805997
 21
20.9
  0
LWPOLYLINE
  5
4A0
100
AcDbEntity
  8
ASSI
100
AcDbPolyline
 62
7
  6
CONTINUOUS
 90
18
 70
0
 10
-8.2679073742
 20
-24.3429184493
 10
-8.2725912278
 20
-24.3538564463
 10
-8.2777902312
 20
-24.3645591876
 10
-8.2834926084
 20
-24.3750024283
 10
-8.2896854419
 20
-24.3851625059
 10
-8.2963547045
 20
-24.3950164051
 10
-8.3034852893
 20
-24.4045418038
 10
-8.3110610411
 20
-24.4137171191
 10
-8.3190647995
 20
-24.4225215661
 10
-8.3274784339
 20
-24.4309352005
 10
-8.3362828809
 20
-24.4389389589
 10
-8.3454581962
 20
-24.4465147107
 10
-8.3549835949
 20
-24.4536452955
 10
-8.3648374941
 20
-24.4603145581
 10
-8.3749975717
 20
-24.4665073916
 10
-8.3854408124
 20
-24.4722097688
 10
-8.3961435537
 20
-24.4774087722
 10
-8.4070815507
 20
-24.4820926258
  0
LINE
  5
4A1
100
AcDbEntity
  8
RACCORDO
100
AcDbLine
 62
7
  6
CONTINUOUS
 10
-7.35
 20
-7.9
 11
-7.4372915245
 21
-7.9872915245
  0
LINE
  5
4A2
100
AcDbEntity
  8
ASSI
100
AcDbLine
 62
7
  6
CONTINUOUS
 10
-7.35
 20
-7.9
 11
-7.4372915245
 21
-7.9872915245
  0
LINE
  5
4A3
100
AcDbEntity
  8
DRAFT
100
AcDbLine
 62
7
  6
CONTINUOUS
 10
-7.4101132618
 20
-8.8101132618
 11
-7.5
 21
-8.9
  0
LINE
  5
4A4
100
AcDbEntity
  8
ASSI
100
AcDbLine
 62
7
  6
CONTINUOUS
 10
-7.4101132618
 20
-8.8101132618
 11
-7.5
 21
-8.9
  0
LINE
  5
4A5
100
AcDbEntity
  8
RACCORDO
100
AcDbLine
 62
253
  6
CONTINUOUS
 10
-7.4101132618
 20
-10.3101323002
 11
-7.5
 21
-10.4000190385
  0
LINE
  5
4A6
100
AcDbEntity
  8
ASSI
100
AcDbLine
 62
253
  6
CONTINUOUS
 10
-7.4101132618
 20
-10.3101323002
 11
-7.5
 21
-10.4000190385
  0
LINE
  5
4A7
100
AcDbEntity
  8
RACCORDO
100
AcDbLine
 62
7
  6
CONTINUOUS
 10
-8.9303794106
 20
0.4101132618
 11
-8.2
 21
0.4101132618
  0
LINE
  5
4A8
100
AcDbEntity
  8
ASSI
100
AcDbLine
 62
7
  6
CONTINUOUS
 10
-8.9303794106
 20
0.4101132618
 11
-8.2
 21
0.4101132618
  0
LINE
  5
4A9
100
AcDbEntity
  8
RACCORDO
100
AcDbLine
 62
7
  6
CONTINUOUS
 10
8.2
 20
0.4101132618
 11
8.9303794106
 21
0.4101132618
  0
LINE
  5
4AA
100
AcDbEntity
  8
ASSI
100
AcDbLine
 62
7
  6
CONTINUOUS
 10
8.2
 20
0.4101132618
 11
8.9303794106
 21
0.4101132618
  0
LINE
  5
4AB
100
AcDbEntity
  8
DRAFT
100
AcDbLine
 62
7
  6
CONTINUOUS
 10
-9.4946499221
 20
0.5
 11
-8.2
 21
0.5
  0
LINE
  5
4AC
100
AcDbEntity
  8
ASSI
100
AcDbLine
 62
7
  6
CONTINUOUS
 10
-9.4946499221
 20
0.5
 11
-8.2
 21
0.5
  0
LINE
  5
4AD
100
AcDbEntity
  8
DRAFT
100
AcDbLine
 62
7
  6
CONTINUOUS
 10
9.4946499221
 20
0.5
 11
8.2
 21
0.5
  0
LINE
  5
4AE
100
AcDbEntity
  8
ASSI
100
AcDbLine
 62
7
  6
CONTINUOUS
 10
9.4946499221
 20
0.5
 11
8.2
 21
0.5
  0
LINE
  5
4AF
100
AcDbEntity
  8
DRAFT
100
AcDbLine
 62
7
  6
CONTINUOUS
 10
-8.35
 20
9.6
 11
-8.3325462644
 21
9.5825462644
  0
LINE
  5
4B0
100
AcDbEntity
  8
ASSI
100
AcDbLine
 62
7
  6
CONTINUOUS
 10
-8.35
 20
9.6
 11
-8.3325462644
 21
9.5825462644
  0
LINE
  5
4B1
100
AcDbEntity
  8
DRAFT
100
AcDbLine
 62
7
  6
CONTINUOUS
 10
-7.35
 20
9.6
 11
-7.3325462644
 21
9.5825462644
  0
LINE
  5
4B2
100
AcDbEntity
  8
ASSI
100
AcDbLine
 62
7
  6
CONTINUOUS
 10
-7.35
 20
9.6
 11
-7.3325462644
 21
9.5825462644
  0
LWPOLYLINE
  5
4B3
100
AcDbEntity
  8
ASSI
100
AcDbPolyline
 62
7
  6
CONTINUOUS
 90
9
 70
0
 10
-8.2679073742
 20
24.3429184493
 10
-8.2637492787
 20
24.3317699738
 10
-8.2601263583
 20
24.320436279
 10
-8.2570468183
 20
24.3089430388
 10
-8.2545176323
 20
24.2973162875
 10
-8.2525445259
 20
24.2855823661
 10
-8.2511319658
 20
24.2737678556
 10
-8.2502831502
 20
24.261899516
 10
-8.25
 20
24.2500042308
  0
LINE
  5
4B4
100
AcDbEntity
  8
RACCORDO
100
AcDbLine
 62
253
  6
CONTINUOUS
 10
9.1503805997
 20
-20.9
 11
8.9950305219
 21
-20.4335707644
  0
LINE
  5
4B5
100
AcDbEntity
  8
ASSI
100
AcDbLine
 62
253
  6
CONTINUOUS
 10
9.1503805997
 20
-20.9
 11
8.9950305219
 21
-20.4335707644
  0
LINE
  5
4B6
100
AcDbEntity
  8
0
100
AcDbLine
 62
7
  6
CONTINUOUS
 10
2.28
 20
7.625
 11
2.28
 21
-5.625
  0
LINE
  5
4B7
100
AcDbEntity
  8
0
100
AcDbLine
 62
7
  6
CONTINUOUS
 10
2.78
 20
8.125
 11
2.78
 21
-6.125
  0
LINE
  5
4B8
100
AcDbEntity
  8
0
100
AcDbLine
 62
7
  6
CONTINUOUS
 10
2.8
 20
8.15
 11
2.8
 21
-6.15
  0
LINE
  5
4B9
100
AcDbEntity
  8
RACCORDO
100
AcDbLine
 62
7
  6
CONTINUOUS
 10
3.0
 20
-21.0
 11
3.0
 21
-22.3912731322
  0
LINE
  5
4BA
100
AcDbEntity
  8
ASSI
100
AcDbLine
 62
7
  6
CONTINUOUS
 10
3.0
 20
-21.0
 11
3.0
 21
-22.3912731322
  0
LINE
  5
4BB
100
AcDbEntity
  8
RACCORDO
100
AcDbLine
 62
7
  6
CONTINUOUS
 10
3.0
 20
21.0
 11
3.0
 21
22.3912731322
  0
LINE
  5
4BC
100
AcDbEntity
  8
ASSI
100
AcDbLine
 62
7
  6
CONTINUOUS
 10
3.0
 20
21.0
 11
3.0
 21
22.3912731322
  0
LINE
  5
4BD
100
AcDbEntity
  8
ASSI
100
AcDbLine
 62
7
  6
CONTINUOUS
 10
3.4
 20
14.6
 11
3.4
 21
15.6
  0
LINE
  5
4BE
100
AcDbEntity
  8
DRAFT
100
AcDbLine
 62
7
  6
CONTINUOUS
 10
3.5
 20
14.7
 11
3.5
 21
13.9
  0
LINE
  5
4BF
100
AcDbEntity
  8
ASSI
100
AcDbLine
 62
7
  6
CONTINUOUS
 10
3.5
 20
-22.3339198952
 11
3.5
 21
-23.7511422903
  0
LINE
  5
4C0
100
AcDbEntity
  8
ASSI
100
AcDbLine
 62
7
  6
CONTINUOUS
 10
3.5
 20
-23.7561448042
 11
3.5
 21
-23.7941821702
  0
LINE
  5
4C1
100
AcDbEntity
  8
RACCORDO
100
AcDbLine
 62
7
  6
CONTINUOUS
 10
3.5
 20
14.7
 11
3.5
 21
16.2
  0
LINE
  5
4C2
100
AcDbEntity
  8
ASSI
100
AcDbLine
 62
7
  6
CONTINUOUS
 10
3.5
 20
13.9
 11
3.5
 21
16.2
  0
LINE
  5
4C3
100
AcDbEntity
  8
RACCORDO
100
AcDbLine
 62
7
  6
CONTINUOUS
 10
3.5
 20
22.3339198952
 11
3.5
 21
23.7511422903
  0
LINE
  5
4C4
100
AcDbEntity
  8
ASSI
100
AcDbLine
 62
7
  6
CONTINUOUS
 10
3.5
 20
23.7561448042
 11
3.5
 21
23.7941821702
  0
LINE
  5
4C5
100
AcDbEntity
  8
ASSI
100
AcDbLine
 62
7
  6
CONTINUOUS
 10
3.5
 20
22.3339198952
 11
3.5
 21
23.7511422903
  0
LWPOLYLINE
  5
4C6
100
AcDbEntity
  8
RACCORDO
100
AcDbPolyline
 62
7
  6
CONTINUOUS
 90
26
 70
0
 10
8.2545176323
 20
24.2973162875
 10
8.2570468183
 20
24.3089430388
 10
8.2601263583
 20
24.320436279
 10
8.2637492787
 20
24.3317699738
 10
8.2679073742
 20
24.3429184493
 10
8.2725912278
 20
24.3538564463
 10
8.2777902312
 20
24.3645591876
 10
8.2834926084
 20
24.3750024283
 10
8.2896854419
 20
24.3851625059
 10
8.2963547045
 20
24.3950164051
 10
8.3034852893
 20
24.4045418038
 10
8.3110610411
 20
24.4137171191
 10
8.3190647995
 20
24.4225215661
 10
8.3274784339
 20
24.4309352005
 10
8.3362828809
 20
24.4389389589
 10
8.3454581962
 20
24.4465147107
 10
8.3549835949
 20
24.4536452955
 10
8.3648374941
 20
24.4603145581
 10
8.3749975717
 20
24.4665073916
 10
8.3854408124
 20
24.4722097688
 10
8.3961435537
 20
24.4774087722
 10
8.4070815507
 20
24.4820926258
 10
8.4182300262
 20
24.4862507213
 10
8.429563721
 20
24.4898736417
 10
8.4410569612
 20
24.4929531817
 10
8.4526837125
 20
24.4954823677
  0
LINE
  5
4C7
100
AcDbEntity
  8
RACCORDO
100
AcDbLine
 62
253
  6
CONTINUOUS
 10
9.5871617663
 20
20.2111031425
 11
9.65
 21
20.3997711479
  0
LINE
  5
4C8
100
AcDbEntity
  8
ASSI
100
AcDbLine
 62
253
  6
CONTINUOUS
 10
9.5871617663
 20
20.2111031425
 11
9.65
 21
20.3997711479
  0
LINE
  5
4C9
100
AcDbEntity
  8
RACCORDO
100
AcDbLine
 62
253
  6
CONTINUOUS
 10
-6.9101323002
 20
-10.8101132618
 11
-7.0000190385
 21
-10.9
  0
LINE
  5
4CA
100
AcDbEntity
  8
ASSI
100
AcDbLine
 62
253
  6
CONTINUOUS
 10
-6.9101323002
 20
-10.8101132618
 11
-7.0000190385
 21
-10.9
  0
LINE
  5
4CB
100
AcDbEntity
  8
DRAFT
100
AcDbLine
 62
7
  6
CONTINUOUS
 10
-5.5
 20
-10.9
 11
-5.4204228659
 21
-10.8204228659
  0
LINE
  5
4CC
100
AcDbEntity
  8
ASSI
100
AcDbLine
 62
7
  6
CONTINUOUS
 10
-5.5
 20
-10.9
 11
-5.4204228659
 21
-10.8204228659
  0
LINE
  5
4CD
100
AcDbEntity
  8
DRAFT
100
AcDbLine
 62
7
  6
CONTINUOUS
 10
-9.4946499221
 20
-7.9
 11
-9.65
 21
-7.9776691233
  0
LINE
  5
4CE
100
AcDbEntity
  8
ASSI
100
AcDbLine
 62
7
  6
CONTINUOUS
 10
-9.4946499221
 20
-7.9
 11
-9.65
 21
-7.9776691233
  0
LINE
  5
4CF
100
AcDbEntity
  8
DRAFT
100
AcDbLine
 62
7
  6
CONTINUOUS
 10
-9.4946499221
 20
7.2
 11
-9.65
 21
7.2776691233
  0
LINE
  5
4D0
100
AcDbEntity
  8
ASSI
100
AcDbLine
 62
7
  6
CONTINUOUS
 10
-9.4946499221
 20
7.2
 11
-9.65
 21
7.2776691233
  0
LINE
  5
4D1
100
AcDbEntity
  8
DRAFT
100
AcDbLine
 62
7
  6
CONTINUOUS
 10
-7.5
 20
12.5
 11
-7.4101132618
 21
12.4101132618
  0
LINE
  5
4D2
100
AcDbEntity
  8
ASSI
100
AcDbLine
 62
7
  6
CONTINUOUS
 10
-7.5
 20
12.5
 11
-7.4101132618
 21
12.4101132618
  0
LINE
  5
4D3
100
AcDbEntity
  8
RACCORDO
100
AcDbLine
 62
253
  6
CONTINUOUS
 10
9.65
 20
-20.3997711479
 11
9.4946499221
 21
-19.9333419123
  0
LINE
  5
4D4
100
AcDbEntity
  8
ASSI
100
AcDbLine
 62
253
  6
CONTINUOUS
 10
9.65
 20
-20.3997711479
 11
9.4946499221
 21
-19.9333419123
  0
LINE
  5
4D5
100
AcDbEntity
  8
DRAFT
100
AcDbLine
 62
7
  6
CONTINUOUS
 10
5.4204228659
 20
-10.8204228659
 11
5.5
 21
-14.139335085
  0
LINE
  5
4D6
100
AcDbEntity
  8
ASSI
100
AcDbLine
 62
7
  6
CONTINUOUS
 10
5.4204228659
 20
-10.8204228659
 11
5.5
 21
-14.139335085
  0
LINE
  5
4D7
100
AcDbEntity
  8
RACCORDO
100
AcDbLine
 62
253
  6
CONTINUOUS
 10
4.2
 20
20.0
 11
4.2
 21
17.3
  0
LINE
  5
4D8
100
AcDbEntity
  8
ASSI
100
AcDbLine
 62
253
  6
CONTINUOUS
 10
4.2
 20
20.0
 11
4.2
 21
17.3
  0
LINE
  5
4D9
100
AcDbEntity
  8
ASSI
100
AcDbLine
 62
7
  6
CONTINUOUS
 10
4.3559327327
 20
-22.3338981669
 11
4.3559327327
 21
-23.7507734247
  0
LINE
  5
4DA
100
AcDbEntity
  8
ASSI
100
AcDbLine
 62
7
  6
CONTINUOUS
 10
4.3559327327
 20
22.3338981669
 11
4.3559327327
 21
23.7507734247
  0
LINE
  5
4DB
100
AcDbEntity
  8
DRAFT
100
AcDbLine
 62
7
  6
CONTINUOUS
 10
4.4
 20
-23.8
 11
4.4
 21
-22.4
  0
LINE
  5
4DC
100
AcDbEntity
  8
ASSI
100
AcDbLine
 62
7
  6
CONTINUOUS
 10
4.4
 20
-23.8
 11
4.4
 21
-22.4
  0
LINE
  5
4DD
100
AcDbEntity
  8
DRAFT
100
AcDbLine
 62
7
  6
CONTINUOUS
 10
4.4
 20
22.4
 11
4.4
 21
23.8
  0
LINE
  5
4DE
100
AcDbEntity
  8
ASSI
100
AcDbLine
 62
7
  6
CONTINUOUS
 10
4.4
 20
22.4
 11
4.4
 21
23.8
  0
LINE
  5
4DF
100
AcDbEntity
  8
RACCORDO
100
AcDbLine
 62
7
  6
CONTINUOUS
 10
4.5
 20
19.9973819397
 11
4.5
 21
17.6001919316
  0
LINE
  5
4E0
100
AcDbEntity
  8
ASSI
100
AcDbLine
 62
7
  6
CONTINUOUS
 10
4.5
 20
19.9973819397
 11
4.5
 21
17.6001919316
  0
LINE
  5
4E1
100
AcDbEntity
  8
DRAFT
100
AcDbLine
 62
7
  6
CONTINUOUS
 10
4.5
 20
-10.9
 11
4.5
 21
-14.139335085
  0
LINE
  5
4E2
100
AcDbEntity
  8
ASSI
100
AcDbLine
 62
7
  6
CONTINUOUS
 10
4.5
 20
-10.9
 11
4.5
 21
-14.139335085
  0
LINE
  5
4E3
100
AcDbEntity
  8
DRAFT
100
AcDbLine
 62
7
  6
CONTINUOUS
 10
5.5
 20
-10.9
 11
5.5
 21
-14.139335085
  0
LINE
  5
4E4
100
AcDbEntity
  8
ASSI
100
AcDbLine
 62
7
  6
CONTINUOUS
 10
5.5
 20
-10.9
 11
5.5
 21
-14.139335085
  0
LINE
  5
4E5
100
AcDbEntity
  8
DRAFT
100
AcDbLine
 62
7
  6
CONTINUOUS
 10
4.5795771341
 20
-10.8204228659
 11
4.5
 21
-14.139335085
  0
LINE
  5
4E6
100
AcDbEntity
  8
ASSI
100
AcDbLine
 62
7
  6
CONTINUOUS
 10
4.5795771341
 20
-10.8204228659
 11
4.5
 21
-14.139335085
  0
LINE
  5
4E7
100
AcDbEntity
  8
RACCORDO
100
AcDbLine
 62
7
  6
CONTINUOUS
 10
8.2525445259
 20
24.2855823661
 11
8.2545176323
 21
24.2973162875
  0
LWPOLYLINE
  5
4E8
100
AcDbEntity
  8
ASSI
100
AcDbPolyline
 62
7
  6
CONTINUOUS
 90
6
 70
0
 10
8.2525445259
 20
24.2855823661
 10
8.2545176323
 20
24.2973162875
 10
8.2570468183
 20
24.3089430388
 10
8.2601263583
 20
24.320436279
 10
8.2637492787
 20
24.3317699738
 10
8.2679073742
 20
24.3429184493
  0
LINE
  5
4E9
100
AcDbEntity
  8
RACCORDO
100
AcDbLine
 62
7
  6
CONTINUOUS
 10
9.4946499221
 20
14.7
 11
9.5212892833
 21
14.7799830745
  0
LINE
  5
4EA
100
AcDbEntity
  8
ASSI
100
AcDbLine
 62
7
  6
CONTINUOUS
 10
9.4946499221
 20
14.7
 11
9.5212892833
 21
14.7799830745
  0
LWPOLYLINE
  5
4EB
100
AcDbEntity
  8
RACCORDO
100
AcDbPolyline
 62
7
  6
CONTINUOUS
 90
4
 70
0
 10
-7.8908834737
 20
-21.7591165263
 10
-7.843380061
 20
-21.6866457638
 10
-7.818929804
 20
-21.6499179842
 10
-7.7939545568
 20
-21.6129888844
  0
LWPOLYLINE
  5
4EC
100
AcDbEntity
  8
ASSI
100
AcDbPolyline
 62
7
  6
CONTINUOUS
 90
4
 70
0
 10
-7.8908834737
 20
-21.7591165263
 10
-7.843380061
 20
-21.6866457638
 10
-7.818929804
 20
-21.6499179842
 10
-7.7939545568
 20
-21.6129888844
  0
LINE
  5
4ED
100
AcDbEntity
  8
RACCORDO
100
AcDbLine
 62
7
  6
CONTINUOUS
 10
-6.555294768
 20
-20.0829433217
 11
-6.4482213147
 21
-19.9223308767
  0
LINE
  5
4EE
100
AcDbEntity
  8
ASSI
100
AcDbLine
 62
7
  6
CONTINUOUS
 10
-6.555294768
 20
-20.0829433217
 11
-6.4482213147
 21
-19.9223308767
  0
LINE
  5
4EF
100
AcDbEntity
  8
DRAFT
100
AcDbLine
 62
7
  6
CONTINUOUS
 10
9.4946499221
 20
-0.5
 11
9.65
 21
-0.4223308767
  0
LINE
  5
4F0
100
AcDbEntity
  8
ASSI
100
AcDbLine
 62
7
  6
CONTINUOUS
 10
9.4946499221
 20
-0.5
 11
9.65
 21
-0.4223308767
  0
LINE
  5
4F1
100
AcDbEntity
  8
DRAFT
100
AcDbLine
 62
7
  6
CONTINUOUS
 10
9.4946499221
 20
0.5
 11
9.65
 21
0.4223308767
  0
LINE
  5
4F2
100
AcDbEntity
  8
ASSI
100
AcDbLine
 62
7
  6
CONTINUOUS
 10
9.4946499221
 20
0.5
 11
9.65
 21
0.4223308767
  0
LINE
  5
4F3
100
AcDbEntity
  8
RACCORDO
100
AcDbLine
 62
253
  6
CONTINUOUS
 10
-7.5
 20
13.4000190385
 11
-7.4101132618
 21
13.3101323002
  0
LINE
  5
4F4
100
AcDbEntity
  8
ASSI
100
AcDbLine
 62
253
  6
CONTINUOUS
 10
-7.5
 20
13.4000190385
 11
-7.4101132618
 21
13.3101323002
  0
LINE
  5
4F5
100
AcDbEntity
  8
RACCORDO
100
AcDbLine
 62
253
  6
CONTINUOUS
 10
-7.0000190385
 20
13.9
 11
-6.9101323002
 21
13.8101132618
  0
LINE
  5
4F6
100
AcDbEntity
  8
ASSI
100
AcDbLine
 62
253
  6
CONTINUOUS
 10
-7.0000190385
 20
13.9
 11
-6.9101323002
 21
13.8101132618
  0
LINE
  5
4F7
100
AcDbEntity
  8
0
100
AcDbLine
 62
7
  6
CONTINUOUS
 10
-6.555294768
 20
20.0829433217
 11
-6.4790558127
 21
19.968583276
  0
LINE
  5
4F8
100
AcDbEntity
  8
ASSI
100
AcDbLine
 62
7
  6
CONTINUOUS
 10
-6.555294768
 20
20.0829433217
 11
-6.4790558127
 21
19.968583276
  0
LINE
  5
4F9
100
AcDbEntity
  8
RACCORDO
100
AcDbLine
 62
7
  6
CONTINUOUS
 10
-7.843380061
 20
21.6866457638
 11
-7.8908834737
 21
21.7591165263
  0
LINE
  5
4FA
100
AcDbEntity
  8
ASSI
100
AcDbLine
 62
7
  6
CONTINUOUS
 10
-7.843380061
 20
21.6866457638
 11
-7.8908834737
 21
21.7591165263
  0
LWPOLYLINE
  5
4FB
100
AcDbEntity
  8
RACCORDO
100
AcDbPolyline
 62
7
  6
CONTINUOUS
 90
5
 70
0
 10
8.2545176323
 20
-24.2973162875
 10
8.2525445259
 20
-24.2855823661
 10
8.2511319658
 20
-24.2737678556
 10
8.2502831502
 20
-24.261899516
 10
8.25
 20
-24.2500042308
  0
LINE
  5
4FC
100
AcDbEntity
  8
RACCORDO
100
AcDbLine
 62
253
  6
CONTINUOUS
 10
6.5581782981
 20
-20.0275513222
 11
6.4482213147
 21
-16.8065137252
  0
LINE
  5
4FD
100
AcDbEntity
  8
ASSI
100
AcDbLine
 62
253
  6
CONTINUOUS
 10
6.5581782981
 20
-20.0275513222
 11
6.4482213147
 21
-16.8065137252
  0
LWPOLYLINE
  5
4FE
100
AcDbEntity
  8
RACCORDO
100
AcDbPolyline
 62
7
  6
CONTINUOUS
 90
61
 70
0
 10
7.2418217019
 20
-20.0275513222
 10
7.2413325107
 20
-20.0091628585
 10
7.2399063091
 20
-19.9909323714
 10
7.2375430972
 20
-19.972859861
 10
7.2342294961
 20
-19.9548948957
 10
7.2299788846
 20
-19.9370879072
 10
7.2248313997
 20
-19.9195901896
 10
7.2187788221
 20
-19.9024050225
 10
7.2118293711
 20
-19.8855291263
 10
7.2040478408
 20
-19.8691039577
 10
7.1954294508
 20
-19.8531369236
 10
7.1859789816
 20
-19.837620617
 10
7.1757755685
 20
-19.822674273
 10
7.1648085014
 20
-19.8082977976
 10
7.1530884904
 20
-19.7944912848
 10
7.1407268016
 20
-19.7813742528
 10
7.1277272323
 20
-19.768960632
 10
7.1140859853
 20
-19.757236492
 10
7.0999029355
 20
-19.7462795591
 10
7.0851637009
 20
-19.7360885994
 10
7.0698826635
 20
-19.7266648468
 10
7.0542028439
 20
-19.7180897298
 10
7.0381339648
 20
-19.7103762769
 10
7.0216663034
 20
-19.7035114596
 10
7.0049137124
 20
-19.6975376198
 10
6.9878638592
 20
-19.6924573364
 10
6.9705290765
 20
-19.6882680305
 10
6.9530602141
 20
-19.6850043083
 10
6.9354628624
 20
-19.6826748955
 10
6.9177314312
 20
-19.6812710663
 10
6.9
 20
-19.6808012501
 10
6.8822685688
 20
-19.6812710663
 10
6.8645371376
 20
-19.6826748955
 10
6.8469397859
 20
-19.6850043083
 10
6.8294709235
 20
-19.6882680305
 10
6.8121361408
 20
-19.6924573364
 10
6.7950862876
 20
-19.6975376198
 10
6.7783336966
 20
-19.7035114596
 10
6.7618660352
 20
-19.7103762769
 10
6.7457971561
 20
-19.7180897298
 10
6.7301173365
 20
-19.7266648468
 10
6.7148362991
 20
-19.7360885994
 10
6.7000970645
 20
-19.7462795591
 10
6.6859140147
 20
-19.757236492
 10
6.6722727677
 20
-19.768960632
 10
6.6592731984
 20
-19.7813742528
 10
6.6469115096
 20
-19.7944912848
 10
6.6351914986
 20
-19.8082977976
 10
6.6242244315
 20
-19.822674273
 10
6.6140210184
 20
-19.837620617
 10
6.6045705492
 20
-19.8531369236
 10
6.5959521592
 20
-19.8691039577
 10
6.5881706289
 20
-19.8855291263
 10
6.5812211779
 20
-19.9024050225
 10
6.5751686003
 20
-19.9195901896
 10
6.5700211154
 20
-19.9370879072
 10
6.5657705039
 20
-19.9548948957
 10
6.5624569028
 20
-19.972859861
 10
6.5600936909
 20
-19.9909323714
 10
6.5586674893
 20
-20.0091628585
 10
6.5581782981
 20
-20.0275513222
  0
LWPOLYLINE
  5
4FF
100
AcDbEntity
  8
ASSI
100
AcDbPolyline
 62
7
  6
CONTINUOUS
 90
61
 70
0
 10
7.2418217019
 20
-20.0275513222
 10
7.2413325107
 20
-20.0091628585
 10
7.2399063091
 20
-19.9909323714
 10
7.2375430972
 20
-19.972859861
 10
7.2342294961
 20
-19.9548948957
 10
7.2299788846
 20
-19.9370879072
 10
7.2248313997
 20
-19.9195901896
 10
7.2187788221
 20
-19.9024050225
 10
7.2118293711
 20
-19.8855291263
 10
7.2040478408
 20
-19.8691039577
 10
7.1954294508
 20
-19.8531369236
 10
7.1859789816
 20
-19.837620617
 10
7.1757755685
 20
-19.822674273
 10
7.1648085014
 20
-19.8082977976
 10
7.1530884904
 20
-19.7944912848
 10
7.1407268016
 20
-19.7813742528
 10
7.1277272323
 20
-19.768960632
 10
7.1140859853
 20
-19.757236492
 10
7.0999029355
 20
-19.7462795591
 10
7.0851637009
 20
-19.7360885994
 10
7.0698826635
 20
-19.7266648468
 10
7.0542028439
 20
-19.7180897298
 10
7.0381339648
 20
-19.7103762769
 10
7.0216663034
 20
-19.7035114596
 10
7.0049137124
 20
-19.6975376198
 10
6.9878638592
 20
-19.6924573364
 10
6.9705290765
 20
-19.6882680305
 10
6.9530602141
 20
-19.6850043083
 10
6.9354628624
 20
-19.6826748955
 10
6.9177314312
 20
-19.6812710663
 10
6.9
 20
-19.6808012501
 10
6.8822685688
 20
-19.6812710663
 10
6.8645371376
 20
-19.6826748955
 10
6.8469397859
 20
-19.6850043083
 10
6.8294709235
 20
-19.6882680305
 10
6.8121361408
 20
-19.6924573364
 10
6.7950862876
 20
-19.6975376198
 10
6.7783336966
 20
-19.7035114596
 10
6.7618660352
 20
-19.7103762769
 10
6.7457971561
 20
-19.7180897298
 10
6.7301173365
 20
-19.7266648468
 10
6.7148362991
 20
-19.7360885994
 10
6.7000970645
 20
-19.7462795591
 10
6.6859140147
 20
-19.757236492
 10
6.6722727677
 20
-19.768960632
 10
6.6592731984
 20
-19.7813742528
 10
6.6469115096
 20
-19.7944912848
 10
6.6351914986
 20
-19.8082977976
 10
6.6242244315
 20
-19.822674273
 10
6.6140210184
 20
-19.837620617
 10
6.6045705492
 20
-19.8531369236
 10
6.5959521592
 20
-19.8691039577
 10
6.5881706289
 20
-19.8855291263
 10
6.5812211779
 20
-19.9024050225
 10
6.5751686003
 20
-19.9195901896
 10
6.5700211154
 20
-19.9370879072
 10
6.5657705039
 20
-19.9548948957
 10
6.5624569028
 20
-19.972859861
 10
6.5600936909
 20
-19.9909323714
 10
6.5586674893
 20
-20.0091628585
 10
6.5581782981
 20
-20.0275513222
  0
LWPOLYLINE
  5
500
100
AcDbEntity
  8
RACCORDO
100
AcDbPolyline
 62
7
  6
CONTINUOUS
 90
61
 70
0
 10
6.5581782981
 20
20.0275513222
 10
6.5586674893
 20
20.0091628585
 10
6.5600936909
 20
19.9909323714
 10
6.5624569028
 20
19.972859861
 10
6.5657705039
 20
19.9548948957
 10
6.5700211154
 20
19.9370879072
 10
6.5751686003
 20
19.9195901896
 10
6.5812211779
 20
19.9024050225
 10
6.5881706289
 20
19.8855291263
 10
6.5959521592
 20
19.8691039577
 10
6.6045705492
 20
19.8531369236
 10
6.6140210184
 20
19.837620617
 10
6.6242244315
 20
19.822674273
 10
6.6351914986
 20
19.8082977976
 10
6.6469115096
 20
19.7944912848
 10
6.6592731984
 20
19.7813742528
 10
6.6722727677
 20
19.768960632
 10
6.6859140147
 20
19.757236492
 10
6.7000970645
 20
19.7462795591
 10
6.7148362991
 20
19.7360885994
 10
6.7301173365
 20
19.7266648468
 10
6.7457971561
 20
19.7180897298
 10
6.7618660352
 20
19.7103762769
 10
6.7783336966
 20
19.7035114596
 10
6.7950862876
 20
19.6975376198
 10
6.8121361408
 20
19.6924573364
 10
6.8294709235
 20
19.6882680305
 10
6.8469397859
 20
19.6850043083
 10
6.8645371376
 20
19.6826748955
 10
6.8822685688
 20
19.6812710663
 10
6.9
 20
19.6808012501
 10
6.9177314312
 20
19.6812710663
 10
6.9354628624
 20
19.6826748955
 10
6.9530602141
 20
19.6850043083
 10
6.9705290765
 20
19.6882680305
 10
6.9878638592
 20
19.6924573364
 10
7.0049137124
 20
19.6975376198
 10
7.0216663034
 20
19.7035114596
 10
7.0381339648
 20
19.7103762769
 10
7.0542028439
 20
19.7180897298
 10
7.0698826635
 20
19.7266648468
 10
7.0851637009
 20
19.7360885994
 10
7.0999029355
 20
19.7462795591
 10
7.1140859853
 20
19.757236492
 10
7.1277272323
 20
19.768960632
 10
7.1407268016
 20
19.7813742528
 10
7.1530884904
 20
19.7944912848
 10
7.1648085014
 20
19.8082977976
 10
7.1757755685
 20
19.822674273
 10
7.1859789816
 20
19.837620617
 10
7.1954294508
 20
19.8531369236
 10
7.2040478408
 20
19.8691039577
 10
7.2118293711
 20
19.8855291263
 10
7.2187788221
 20
19.9024050225
 10
7.2248313997
 20
19.9195901896
 10
7.2299788846
 20
19.9370879072
 10
7.2342294961
 20
19.9548948957
 10
7.2375430972
 20
19.972859861
 10
7.2399063091
 20
19.9909323714
 10
7.2413325107
 20
20.0091628585
 10
7.2418217019
 20
20.0275513222
  0
LWPOLYLINE
  5
501
100
AcDbEntity
  8
ASSI
100
AcDbPolyline
 62
7
  6
CONTINUOUS
 90
61
 70
0
 10
6.5581782981
 20
20.0275513222
 10
6.5586674893
 20
20.0091628585
 10
6.5600936909
 20
19.9909323714
 10
6.5624569028
 20
19.972859861
 10
6.5657705039
 20
19.9548948957
 10
6.5700211154
 20
19.9370879072
 10
6.5751686003
 20
19.9195901896
 10
6.5812211779
 20
19.9024050225
 10
6.5881706289
 20
19.8855291263
 10
6.5959521592
 20
19.8691039577
 10
6.6045705492
 20
19.8531369236
 10
6.6140210184
 20
19.837620617
 10
6.6242244315
 20
19.822674273
 10
6.6351914986
 20
19.8082977976
 10
6.6469115096
 20
19.7944912848
 10
6.6592731984
 20
19.7813742528
 10
6.6722727677
 20
19.768960632
 10
6.6859140147
 20
19.757236492
 10
6.7000970645
 20
19.7462795591
 10
6.7148362991
 20
19.7360885994
 10
6.7301173365
 20
19.7266648468
 10
6.7457971561
 20
19.7180897298
 10
6.7618660352
 20
19.7103762769
 10
6.7783336966
 20
19.7035114596
 10
6.7950862876
 20
19.6975376198
 10
6.8121361408
 20
19.6924573364
 10
6.8294709235
 20
19.6882680305
 10
6.8469397859
 20
19.6850043083
 10
6.8645371376
 20
19.6826748955
 10
6.8822685688
 20
19.6812710663
 10
6.9
 20
19.6808012501
 10
6.9177314312
 20
19.6812710663
 10
6.9354628624
 20
19.6826748955
 10
6.9530602141
 20
19.6850043083
 10
6.9705290765
 20
19.6882680305
 10
6.9878638592
 20
19.6924573364
 10
7.0049137124
 20
19.6975376198
 10
7.0216663034
 20
19.7035114596
 10
7.0381339648
 20
19.7103762769
 10
7.0542028439
 20
19.7180897298
 10
7.0698826635
 20
19.7266648468
 10
7.0851637009
 20
19.7360885994
 10
7.0999029355
 20
19.7462795591
 10
7.1140859853
 20
19.757236492
 10
7.1277272323
 20
19.768960632
 10
7.1407268016
 20
19.7813742528
 10
7.1530884904
 20
19.7944912848
 10
7.1648085014
 20
19.8082977976
 10
7.1757755685
 20
19.822674273
 10
7.1859789816
 20
19.837620617
 10
7.1954294508
 20
19.8531369236
 10
7.2040478408
 20
19.8691039577
 10
7.2118293711
 20
19.8855291263
 10
7.2187788221
 20
19.9024050225
 10
7.2248313997
 20
19.9195901896
 10
7.2299788846
 20
19.9370879072
 10
7.2342294961
 20
19.9548948957
 10
7.2375430972
 20
19.972859861
 10
7.2399063091
 20
19.9909323714
 10
7.2413325107
 20
20.0091628585
 10
7.2418217019
 20
20.0275513222
  0
LWPOLYLINE
  5
502
100
AcDbEntity
  8
RACCORDO
100
AcDbPolyline
 62
253
  6
CONTINUOUS
 90
40
 70
0
 10
6.8122642439
 20
-10.1876443732
 10
6.8118090938
 20
-10.1638614013
 10
6.8103918723
 20
-10.1400928486
 10
6.8080125792
 20
-10.116338715
 10
6.8046703654
 20
-10.0925432225
 10
6.8003660801
 20
-10.0687621492
 10
6.7951022709
 20
-10.0451628292
 10
6.7888677702
 20
-10.0217492667
 10
6.7816737456
 20
-9.9985174574
 10
6.7735562475
 20
-9.9756227227
 10
6.7645057972
 20
-9.9530706355
 10
6.7545318735
 20
-9.9308556228
 10
6.7436989632
 20
-9.9091162875
 10
6.732005637
 20
-9.8878662158
 10
6.7194533243
 20
-9.8670918215
 10
6.7061108003
 20
-9.8468909479
 10
6.6919784753
 20
-9.8272705042
 10
6.677055939
 20
-9.8082235813
 10
6.6614107358
 20
-9.7898272952
 10
6.6450411704
 20
-9.7720832075
 10
6.6279489381
 20
-9.7549897565
 10
6.6102066692
 20
-9.7386193741
 10
6.5918129556
 20
-9.7229738404
 10
6.5727692053
 20
-9.7080513752
 10
6.5531522732
 20
-9.6939190693
 10
6.5329553941
 20
-9.6805764916
 10
6.5121853331
 20
-9.6680240731
 10
6.4909392396
 20
-9.6563301984
 10
6.4692037126
 20
-9.6454962125
 10
6.4469921531
 20
-9.6355207703
 10
6.4244419142
 20
-9.6264682212
 10
6.4015470544
 20
-9.6183478063
 10
6.3783135152
 20
-9.6111502845
 10
6.3548964739
 20
-9.6049122824
 10
6.3312919306
 20
-9.5996449597
 10
6.3075038852
 20
-9.5953371566
 10
6.2836995144
 20
-9.59199202
 10
6.2599345438
 20
-9.5896105989
 10
6.236153248
 20
-9.5881918442
 10
6.2123556268
 20
-9.5877357561
  0
LWPOLYLINE
  5
503
100
AcDbEntity
  8
ASSI
100
AcDbPolyline
 62
253
  6
CONTINUOUS
 90
40
 70
0
 10
6.8122642439
 20
-10.1876443732
 10
6.8118090938
 20
-10.1638614013
 10
6.8103918723
 20
-10.1400928486
 10
6.8080125792
 20
-10.116338715
 10
6.8046703654
 20
-10.0925432225
 10
6.8003660801
 20
-10.0687621492
 10
6.7951022709
 20
-10.0451628292
 10
6.7888677702
 20
-10.0217492667
 10
6.7816737456
 20
-9.9985174574
 10
6.7735562475
 20
-9.9756227227
 10
6.7645057972
 20
-9.9530706355
 10
6.7545318735
 20
-9.9308556228
 10
6.7436989632
 20
-9.9091162875
 10
6.732005637
 20
-9.8878662158
 10
6.7194533243
 20
-9.8670918215
 10
6.7061108003
 20
-9.8468909479
 10
6.6919784753
 20
-9.8272705042
 10
6.677055939
 20
-9.8082235813
 10
6.6614107358
 20
-9.7898272952
 10
6.6450411704
 20
-9.7720832075
 10
6.6279489381
 20
-9.7549897565
 10
6.6102066692
 20
-9.7386193741
 10
6.5918129556
 20
-9.7229738404
 10
6.5727692053
 20
-9.7080513752
 10
6.5531522732
 20
-9.6939190693
 10
6.5329553941
 20
-9.6805764916
 10
6.5121853331
 20
-9.6680240731
 10
6.4909392396
 20
-9.6563301984
 10
6.4692037126
 20
-9.6454962125
 10
6.4469921531
 20
-9.6355207703
 10
6.4244419142
 20
-9.6264682212
 10
6.4015470544
 20
-9.6183478063
 10
6.3783135152
 20
-9.6111502845
 10
6.3548964739
 20
-9.6049122824
 10
6.3312919306
 20
-9.5996449597
 10
6.3075038852
 20
-9.5953371566
 10
6.2836995144
 20
-9.59199202
 10
6.2599345438
 20
-9.5896105989
 10
6.236153248
 20
-9.5881918442
 10
6.2123556268
 20
-9.5877357561
  0
LINE
  5
504
100
AcDbEntity
  8
0
100
AcDbLine
 62
7
  6
CONTINUOUS
 10
6.0
 20
-8.95
 11
6.0
 21
-7.55
  0
LINE
  5
505
100
AcDbEntity
  8
0
100
AcDbLine
 62
7
  6
CONTINUOUS
 10
6.05
 20
9.55
 11
6.05
 21
13.05
  0
LINE
  5
506
100
AcDbEntity
  8
RACCORDO
100
AcDbLine
 62
253
  6
CONTINUOUS
 10
6.2123556268
 20
-9.5877357561
 11
6.2123556268
 21
-9.8876900647
  0
LINE
  5
507
100
AcDbEntity
  8
ASSI
100
AcDbLine
 62
253
  6
CONTINUOUS
 10
6.2123556268
 20
-9.5877357561
 11
6.2123556268
 21
-9.8876900647
  0
LINE
  5
508
100
AcDbEntity
  8
RACCORDO
100
AcDbLine
 62
253
  6
CONTINUOUS
 10
6.2123556268
 20
12.8877357561
 11
6.2123556268
 21
13.1876900647
  0
LINE
  5
509
100
AcDbEntity
  8
ASSI
100
AcDbLine
 62
253
  6
CONTINUOUS
 10
6.2123556268
 20
12.8877357561
 11
6.2123556268
 21
13.1876900647
  0
LINE
  5
50A
100
AcDbEntity
  8
RACCORDO
100
AcDbLine
 62
7
  6
CONTINUOUS
 10
6.4482213147
 20
-19.9223308767
 11
6.4482213147
 21
-16.8065137252
  0
LINE
  5
50B
100
AcDbEntity
  8
ASSI
100
AcDbLine
 62
7
  6
CONTINUOUS
 10
6.4482213147
 20
-19.9223308767
 11
6.4482213147
 21
-16.8065137252
  0
LINE
  5
50C
100
AcDbEntity
  8
0
100
AcDbLine
 62
7
  6
CONTINUOUS
 10
6.4598569743
 20
17.1473642646
 11
6.4598569743
 21
19.3
  0
LINE
  5
50D
100
AcDbEntity
  8
ASSI
100
AcDbLine
 62
7
  6
CONTINUOUS
 10
6.4598569743
 20
17.1473642646
 11
6.4598569743
 21
19.3
  0
LINE
  5
50E
100
AcDbEntity
  8
RACCORDO
100
AcDbLine
 62
7
  6
CONTINUOUS
 10
6.4790558127
 20
19.968583276
 11
6.4790558127
 21
19.8
  0
LINE
  5
50F
100
AcDbEntity
  8
ASSI
100
AcDbLine
 62
7
  6
CONTINUOUS
 10
6.4790558127
 20
19.968583276
 11
6.4790558127
 21
19.8
  0
LINE
  5
510
100
AcDbEntity
  8
RACCORDO
100
AcDbLine
 62
7
  6
CONTINUOUS
 10
6.5
 20
11.5836351166
 11
6.5
 21
9.55
  0
LINE
  5
511
100
AcDbEntity
  8
ASSI
100
AcDbLine
 62
7
  6
CONTINUOUS
 10
6.5
 20
11.5836351166
 11
6.5
 21
9.55
  0
LINE
  5
512
100
AcDbEntity
  8
DRAFT
100
AcDbLine
 62
7
  6
CONTINUOUS
 10
6.5
 20
-7.9
 11
6.5
 21
-7.975051063
  0
LINE
  5
513
100
AcDbEntity
  8
DRAFT
100
AcDbLine
 62
7
  6
CONTINUOUS
 10
6.5
 20
-7.9898867382
 11
6.5
 21
-8.6
  0
LINE
  5
514
100
AcDbEntity
  8
ASSI
100
AcDbLine
 62
7
  6
CONTINUOUS
 10
6.5
 20
-7.9898867382
 11
6.5
 21
-8.6
  0
LINE
  5
515
100
AcDbEntity
  8
ASSI
100
AcDbLine
 62
7
  6
CONTINUOUS
 10
6.5
 20
-7.9
 11
6.5
 21
-7.975051063
  0
LINE
  5
516
100
AcDbEntity
  8
RACCORDO
100
AcDbLine
 62
7
  6
CONTINUOUS
 10
6.5
 20
-10.8188401295
 11
6.5
 21
-10.1999543085
  0
LINE
  5
517
100
AcDbEntity
  8
ASSI
100
AcDbLine
 62
7
  6
CONTINUOUS
 10
6.5
 20
-10.8188401295
 11
6.5
 21
-10.1999543085
  0
LINE
  5
518
100
AcDbEntity
  8
DRAFT
100
AcDbLine
 62
7
  6
CONTINUOUS
 10
6.5
 20
11.5898867382
 11
6.5
 21
12.3
  0
LINE
  5
519
100
AcDbEntity
  8
ASSI
100
AcDbLine
 62
7
  6
CONTINUOUS
 10
6.5
 20
11.5898867382
 11
6.5
 21
12.3
  0
LINE
  5
51A
100
AcDbEntity
  8
RACCORDO
100
AcDbLine
 62
7
  6
CONTINUOUS
 10
6.5
 20
13.4999543085
 11
6.5
 21
13.8188401295
  0
LINE
  5
51B
100
AcDbEntity
  8
ASSI
100
AcDbLine
 62
7
  6
CONTINUOUS
 10
6.5
 20
13.4999543085
 11
6.5
 21
13.8188401295
  0
LINE
  5
51C
100
AcDbEntity
  8
RACCORDO
100
AcDbLine
 62
253
  6
CONTINUOUS
 10
6.5123099353
 20
13.8126856306
 11
6.5123099353
 21
13.4876443732
  0
LINE
  5
51D
100
AcDbEntity
  8
ASSI
100
AcDbLine
 62
253
  6
CONTINUOUS
 10
6.5123099353
 20
13.8126856306
 11
6.5123099353
 21
13.4876443732
  0
LINE
  5
51E
100
AcDbEntity
  8
RACCORDO
100
AcDbLine
 62
253
  6
CONTINUOUS
 10
6.5123099353
 20
-10.1876443732
 11
6.5123099353
 21
-10.8126856306
  0
LINE
  5
51F
100
AcDbEntity
  8
ASSI
100
AcDbLine
 62
253
  6
CONTINUOUS
 10
6.5123099353
 20
-10.1876443732
 11
6.5123099353
 21
-10.8126856306
  0
LINE
  5
520
100
AcDbEntity
  8
RACCORDO
100
AcDbLine
 62
7
  6
CONTINUOUS
 10
6.5581782981
 20
20.5829242832
 11
6.5581782981
 21
20.0275513222
  0
LINE
  5
521
100
AcDbEntity
  8
ASSI
100
AcDbLine
 62
7
  6
CONTINUOUS
 10
6.5581782981
 20
20.5829242832
 11
6.5581782981
 21
20.0275513222
  0
LINE
  5
522
100
AcDbEntity
  8
RACCORDO
100
AcDbLine
 62
7
  6
CONTINUOUS
 10
6.5581782981
 20
-20.0275513222
 11
6.5581782981
 21
-20.5829242832
  0
LINE
  5
523
100
AcDbEntity
  8
ASSI
100
AcDbLine
 62
7
  6
CONTINUOUS
 10
6.5581782981
 20
-20.0275513222
 11
6.5581782981
 21
-20.5829242832
  0
LINE
  5
524
100
AcDbEntity
  8
RACCORDO
100
AcDbLine
 62
253
  6
CONTINUOUS
 10
6.8122642439
 20
13.8101132618
 11
6.8122642439
 21
13.4876443732
  0
LINE
  5
525
100
AcDbEntity
  8
ASSI
100
AcDbLine
 62
253
  6
CONTINUOUS
 10
6.8122642439
 20
13.8101132618
 11
6.8122642439
 21
13.4876443732
  0
LINE
  5
526
100
AcDbEntity
  8
RACCORDO
100
AcDbLine
 62
253
  6
CONTINUOUS
 10
6.8122642439
 20
-10.1876443732
 11
6.8122642439
 21
-10.8101132618
  0
LINE
  5
527
100
AcDbEntity
  8
ASSI
100
AcDbLine
 62
253
  6
CONTINUOUS
 10
6.8122642439
 20
-10.1876443732
 11
6.8122642439
 21
-10.8101132618
  0
LINE
  5
528
100
AcDbEntity
  8
RACCORDO
100
AcDbLine
 62
7
  6
CONTINUOUS
 10
7.2418217019
 20
20.9959955457
 11
7.2418217019
 21
20.0275513222
  0
LINE
  5
529
100
AcDbEntity
  8
ASSI
100
AcDbLine
 62
7
  6
CONTINUOUS
 10
7.2418217019
 20
20.9959955457
 11
7.2418217019
 21
20.0275513222
  0
LINE
  5
52A
100
AcDbEntity
  8
RACCORDO
100
AcDbLine
 62
7
  6
CONTINUOUS
 10
7.2418217019
 20
-20.0275513222
 11
7.2418217019
 21
-20.9959955457
  0
LINE
  5
52B
100
AcDbEntity
  8
ASSI
100
AcDbLine
 62
7
  6
CONTINUOUS
 10
7.2418217019
 20
-20.0275513222
 11
7.2418217019
 21
-20.9959955457
  0
LINE
  5
52C
100
AcDbEntity
  8
RACCORDO
100
AcDbLine
 62
7
  6
CONTINUOUS
 10
7.3209441873
 20
20.7113319946
 11
7.3209441873
 21
19.8
  0
LINE
  5
52D
100
AcDbEntity
  8
ASSI
100
AcDbLine
 62
7
  6
CONTINUOUS
 10
7.3209441873
 20
20.7113319946
 11
7.3209441873
 21
19.8
  0
LINE
  5
52E
100
AcDbEntity
  8
0
100
AcDbLine
 62
7
  6
CONTINUOUS
 10
7.3401430257
 20
17.1473642646
 11
7.3401430257
 21
19.3
  0
LINE
  5
52F
100
AcDbEntity
  8
ASSI
100
AcDbLine
 62
7
  6
CONTINUOUS
 10
7.3401430257
 20
17.1473642646
 11
7.3401430257
 21
19.3
  0
LINE
  5
530
100
AcDbEntity
  8
RACCORDO
100
AcDbLine
 62
7
  6
CONTINUOUS
 10
7.35
 20
-7.55
 11
7.35
 21
-7.9
  0
LINE
  5
531
100
AcDbEntity
  8
ASSI
100
AcDbLine
 62
7
  6
CONTINUOUS
 10
7.35
 20
-7.55
 11
7.35
 21
-7.9
  0
LINE
  5
532
100
AcDbEntity
  8
RACCORDO
100
AcDbLine
 62
7
  6
CONTINUOUS
 10
7.3517786853
 20
-20.4335707644
 11
7.3517786853
 21
-16.8065137252
  0
LINE
  5
533
100
AcDbEntity
  8
ASSI
100
AcDbLine
 62
7
  6
CONTINUOUS
 10
7.3517786853
 20
-20.4335707644
 11
7.3517786853
 21
-16.8065137252
  0
LINE
  5
534
100
AcDbEntity
  8
0
100
AcDbLine
 62
7
  6
CONTINUOUS
 10
7.4
 20
-7.55
 11
7.4
 21
9.55
  0
LINE
  5
535
100
AcDbEntity
  8
RACCORDO
100
AcDbLine
 62
7
  6
CONTINUOUS
 10
7.4101132618
 20
13.3101323002
 11
7.4101132618
 21
12.4101132618
  0
LINE
  5
536
100
AcDbEntity
  8
ASSI
100
AcDbLine
 62
7
  6
CONTINUOUS
 10
7.4101132618
 20
13.3101323002
 11
7.4101132618
 21
12.4101132618
  0
LINE
  5
537
100
AcDbEntity
  8
RACCORDO
100
AcDbLine
 62
7
  6
CONTINUOUS
 10
7.4101132618
 20
-10.3101323002
 11
7.4101132618
 21
-8.8101132618
  0
LINE
  5
538
100
AcDbEntity
  8
ASSI
100
AcDbLine
 62
7
  6
CONTINUOUS
 10
7.4101132618
 20
-10.3101323002
 11
7.4101132618
 21
-8.8101132618
  0
LINE
  5
539
100
AcDbEntity
  8
RACCORDO
100
AcDbLine
 62
253
  6
CONTINUOUS
 10
7.4372915245
 20
-7.9872915245
 11
7.4372915245
 21
-7.55
  0
LINE
  5
53A
100
AcDbEntity
  8
ASSI
100
AcDbLine
 62
7
  6
CONTINUOUS
 10
7.4372915245
 20
-7.9872915245
 11
7.4372915245
 21
-7.55
  0
LINE
  5
53B
100
AcDbEntity
  8
DRAFT
100
AcDbLine
 62
7
  6
CONTINUOUS
 10
7.4825462644
 20
9.5825462644
 11
7.4825462644
 21
11.5174537356
  0
LINE
  5
53C
100
AcDbEntity
  8
ASSI
100
AcDbLine
 62
7
  6
CONTINUOUS
 10
7.4825462644
 20
9.5825462644
 11
7.4825462644
 21
11.5174537356
  0
LINE
  5
53D
100
AcDbEntity
  8
RACCORDO
100
AcDbLine
 62
7
  6
CONTINUOUS
 10
7.5
 20
13.4000190385
 11
7.5
 21
12.5
  0
LINE
  5
53E
100
AcDbEntity
  8
ASSI
100
AcDbLine
 62
7
  6
CONTINUOUS
 10
7.5
 20
13.4000190385
 11
7.5
 21
12.5
  0
LINE
  5
53F
100
AcDbEntity
  8
RACCORDO
100
AcDbLine
 62
7
  6
CONTINUOUS
 10
7.5
 20
-8.9
 11
7.5
 21
-10.4000190385
  0
LINE
  5
540
100
AcDbEntity
  8
ASSI
100
AcDbLine
 62
7
  6
CONTINUOUS
 10
7.5
 20
-8.9
 11
7.5
 21
-10.4000190385
  0
LINE
  5
541
100
AcDbEntity
  8
DRAFT
100
AcDbLine
 62
7
  6
CONTINUOUS
 10
7.5
 20
9.6
 11
7.5
 21
11.5
  0
LINE
  5
542
100
AcDbEntity
  8
ASSI
100
AcDbLine
 62
7
  6
CONTINUOUS
 10
7.5
 20
9.6
 11
7.5
 21
11.5
  0
LINE
  5
543
100
AcDbEntity
  8
RACCORDO
100
AcDbLine
 62
253
  6
CONTINUOUS
 10
7.5841007192
 20
-21.3126932437
 11
7.5841007192
 21
-20.9959955457
  0
LINE
  5
544
100
AcDbEntity
  8
ASSI
100
AcDbLine
 62
253
  6
CONTINUOUS
 10
7.5841007192
 20
-21.3126932437
 11
7.5841007192
 21
-20.9959955457
  0
LINE
  5
545
100
AcDbEntity
  8
RACCORDO
100
AcDbLine
 62
253
  6
CONTINUOUS
 10
7.5841007192
 20
20.9959955457
 11
7.5841007192
 21
21.3126932437
  0
LINE
  5
546
100
AcDbEntity
  8
ASSI
100
AcDbLine
 62
253
  6
CONTINUOUS
 10
7.5841007192
 20
20.9959955457
 11
7.5841007192
 21
21.3126932437
  0
LWPOLYLINE
  5
547
100
AcDbEntity
  8
0
100
AcDbPolyline
 62
7
  6
CONTINUOUS
 90
67
 70
0
 10
7.3401430257
 20
17.1473642646
 10
7.3396302663
 20
17.1259015607
 10
7.3381165962
 20
17.1045779493
 10
7.3356020154
 20
17.0833934305
 10
7.3320737998
 20
17.0622921631
 10
7.3275446736
 20
17.0413299883
 10
7.3220528092
 20
17.0206744296
 10
7.3155950829
 20
17.0003416951
 10
7.3081746186
 20
16.9803155769
 10
7.29983896
 20
16.9607149742
 10
7.2905733056
 20
16.9415277614
 10
7.280392457
 20
16.9227660642
 10
7.2693883626
 20
16.9045851585
 10
7.2575688729
 20
16.8870095678
 10
7.2449261375
 20
16.8700147687
 10
7.2315285532
 20
16.8536824674
 10
7.2173533649
 20
16.8379975206
 10
7.2024233279
 20
16.8229750716
 10
7.1868751045
 20
16.8087422555
 10
7.1707278264
 20
16.7953242537
 10
7.153962362
 20
16.7826958848
 10
7.1366579799
 20
16.7709087402
 10
7.1187871059
 20
16.7599523211
 10
7.1003773142
 20
16.7498371262
 10
7.0815905959
 20
16.7406462429
 10
7.0624493227
 20
16.7323974148
 10
7.0429311229
 20
16.7250728982
 10
7.0231308725
 20
16.7187025494
 10
7.0030280445
 20
16.713285299
 10
6.982643166
 20
16.7088222164
 10
6.9621326944
 20
16.7053463663
 10
6.9415069754
 20
16.7028666925
 10
6.9207556633
 20
16.7013742512
 10
6.9000041786
 20
16.7008752761
 10
6.8792523632
 20
16.7013739204
 10
6.8585003752
 20
16.702866031
 10
6.8378741094
 20
16.7053453822
 10
6.8173634174
 20
16.7088209234
 10
6.7969784476
 20
16.7132837052
 10
6.7768755396
 20
16.7187006542
 10
6.7570752606
 20
16.7250706503
 10
6.7375570435
 20
16.7323948136
 10
6.7184155269
 20
16.7406434299
 10
6.6996280484
 20
16.7498344259
 10
6.6812172705
 20
16.7599498749
 10
6.6633458189
 20
16.7709062827
 10
6.6460417899
 20
16.7826927619
 10
6.6292770871
 20
16.7953201999
 10
6.6131300469
 20
16.8087377646
 10
6.5975808699
 20
16.8229712622
 10
6.5826493555
 20
16.8379948865
 10
6.5684732382
 20
16.8536803863
 10
6.555075974
 20
16.8700117754
 10
6.542434107
 20
16.88700504
 10
6.5306150042
 20
16.9045798873
 10
6.5196101787
 20
16.922761853
 10
6.5094281174
 20
16.9415254015
 10
6.5001616481
 20
16.9607136338
 10
6.4918260728
 20
16.9803133499
 10
6.4844060895
 20
17.0003377497
 10
6.4779486188
 20
17.0206695343
 10
6.472456465
 20
17.0413257692
 10
6.4679268238
 20
17.0622893888
 10
6.4643982033
 20
17.0833918978
 10
6.4618834396
 20
17.1045771308
 10
6.4603696966
 20
17.125901253
 10
6.4598569743
 20
17.1473642646
  0
LWPOLYLINE
  5
548
100
AcDbEntity
  8
ASSI
100
AcDbPolyline
 62
7
  6
CONTINUOUS
 90
67
 70
0
 10
7.3401430257
 20
17.1473642646
 10
7.3396302663
 20
17.1259015607
 10
7.3381165962
 20
17.1045779493
 10
7.3356020154
 20
17.0833934305
 10
7.3320737998
 20
17.0622921631
 10
7.3275446736
 20
17.0413299883
 10
7.3220528092
 20
17.0206744296
 10
7.3155950829
 20
17.0003416951
 10
7.3081746186
 20
16.9803155769
 10
7.29983896
 20
16.9607149742
 10
7.2905733056
 20
16.9415277614
 10
7.280392457
 20
16.9227660642
 10
7.2693883626
 20
16.9045851585
 10
7.2575688729
 20
16.8870095678
 10
7.2449261375
 20
16.8700147687
 10
7.2315285532
 20
16.8536824674
 10
7.2173533649
 20
16.8379975206
 10
7.2024233279
 20
16.8229750716
 10
7.1868751045
 20
16.8087422555
 10
7.1707278264
 20
16.7953242537
 10
7.153962362
 20
16.7826958848
 10
7.1366579799
 20
16.7709087402
 10
7.1187871059
 20
16.7599523211
 10
7.1003773142
 20
16.7498371262
 10
7.0815905959
 20
16.7406462429
 10
7.0624493227
 20
16.7323974148
 10
7.0429311229
 20
16.7250728982
 10
7.0231308725
 20
16.7187025494
 10
7.0030280445
 20
16.713285299
 10
6.982643166
 20
16.7088222164
 10
6.9621326944
 20
16.7053463663
 10
6.9415069754
 20
16.7028666925
 10
6.9207556633
 20
16.7013742512
 10
6.9000041786
 20
16.7008752761
 10
6.8792523632
 20
16.7013739204
 10
6.8585003752
 20
16.702866031
 10
6.8378741094
 20
16.7053453822
 10
6.8173634174
 20
16.7088209234
 10
6.7969784476
 20
16.7132837052
 10
6.7768755396
 20
16.7187006542
 10
6.7570752606
 20
16.7250706503
 10
6.7375570435
 20
16.7323948136
 10
6.7184155269
 20
16.7406434299
 10
6.6996280484
 20
16.7498344259
 10
6.6812172705
 20
16.7599498749
 10
6.6633458189
 20
16.7709062827
 10
6.6460417899
 20
16.7826927619
 10
6.6292770871
 20
16.7953201999
 10
6.6131300469
 20
16.8087377646
 10
6.5975808699
 20
16.8229712622
 10
6.5826493555
 20
16.8379948865
 10
6.5684732382
 20
16.8536803863
 10
6.555075974
 20
16.8700117754
 10
6.542434107
 20
16.88700504
 10
6.5306150042
 20
16.9045798873
 10
6.5196101787
 20
16.922761853
 10
6.5094281174
 20
16.9415254015
 10
6.5001616481
 20
16.9607136338
 10
6.4918260728
 20
16.9803133499
 10
6.4844060895
 20
17.0003377497
 10
6.4779486188
 20
17.0206695343
 10
6.472456465
 20
17.0413257692
 10
6.4679268238
 20
17.0622893888
 10
6.4643982033
 20
17.0833918978
 10
6.4618834396
 20
17.1045771308
 10
6.4603696966
 20
17.125901253
 10
6.4598569743
 20
17.1473642646
  0
LWPOLYLINE
  5
549
100
AcDbEntity
  8
RACCORDO
100
AcDbPolyline
 62
7
  6
CONTINUOUS
 90
67
 70
0
 10
6.4482213147
 20
-16.8065137252
 10
6.4487532469
 20
-16.7844342482
 10
6.4503119905
 20
-16.7625115112
 10
6.4528975454
 20
-16.7407455142
 10
6.4565221572
 20
-16.7190853843
 10
6.4611735803
 20
-16.6975819945
 10
6.4668150782
 20
-16.6763879635
 10
6.4734540198
 20
-16.6555067062
 10
6.4810830361
 20
-16.6349348077
 10
6.4896432833
 20
-16.6148146424
 10
6.4991397471
 20
-16.5951521798
 10
6.5095674419
 20
-16.5759414502
 10
6.5208525668
 20
-16.5573069193
 10
6.5330047666
 20
-16.5392482489
 10
6.5460143966
 20
-16.5217657771
 10
6.5597787222
 20
-16.5049849836
 10
6.5742949607
 20
-16.4889190733
 10
6.5895658948
 20
-16.4735548414
 10
6.6054971387
 20
-16.4589781527
 10
6.6221027323
 20
-16.4451861472
 10
6.6393686358
 20
-16.4321816851
 10
6.6571583431
 20
-16.4200592119
 10
6.6754618101
 20
-16.4088328227
 10
6.6942890809
 20
-16.3984884224
 10
6.7135337826
 20
-16.3890781722
 10
6.7332111741
 20
-16.3806017527
 10
6.7533059965
 20
-16.3730594833
 10
6.7736660996
 20
-16.3665044834
 10
6.79428126
 20
-16.3609467581
 10
6.8151617012
 20
-16.3563763022
 10
6.8361859437
 20
-16.3528162195
 10
6.8573614282
 20
-16.3502706391
 10
6.8786807141
 20
-16.3487354319
 10
6.9
 20
-16.3482213147
 10
6.9213192859
 20
-16.3487354319
 10
6.9426385718
 20
-16.3502706391
 10
6.9638140563
 20
-16.3528162195
 10
6.9848382988
 20
-16.3563763022
 10
7.00571874
 20
-16.3609467581
 10
7.0263339004
 20
-16.3665044834
 10
7.0466940035
 20
-16.3730594833
 10
7.0667888259
 20
-16.3806017527
 10
7.0864662174
 20
-16.3890781722
 10
7.1057109191
 20
-16.3984884224
 10
7.1245381899
 20
-16.4088328227
 10
7.1428416569
 20
-16.4200592119
 10
7.1606313642
 20
-16.4321816851
 10
7.1778972677
 20
-16.4451861472
 10
7.1945028613
 20
-16.4589781527
 10
7.2104341052
 20
-16.4735548414
 10
7.2257050393
 20
-16.4889190733
 10
7.2402212778
 20
-16.5049849836
 10
7.2539856034
 20
-16.5217657771
 10
7.2669952334
 20
-16.5392482489
 10
7.2791474332
 20
-16.5573069193
 10
7.2904325581
 20
-16.5759414502
 10
7.3008602529
 20
-16.5951521798
 10
7.3103567167
 20
-16.6148146424
 10
7.3189169639
 20
-16.6349348077
 10
7.3265459802
 20
-16.6555067062
 10
7.3331849218
 20
-16.6763879635
 10
7.3388264197
 20
-16.6975819945
 10
7.3434778428
 20
-16.7190853843
 10
7.3471024546
 20
-16.7407455142
 10
7.3496880095
 20
-16.7625115112
 10
7.3512467531
 20
-16.7844342482
 10
7.3517786853
 20
-16.8065137252
  0
LWPOLYLINE
  5
54A
100
AcDbEntity
  8
ASSI
100
AcDbPolyline
 62
7
  6
CONTINUOUS
 90
67
 70
0
 10
6.4482213147
 20
-16.8065137252
 10
6.4487532469
 20
-16.7844342482
 10
6.4503119905
 20
-16.7625115112
 10
6.4528975454
 20
-16.7407455142
 10
6.4565221572
 20
-16.7190853843
 10
6.4611735803
 20
-16.6975819945
 10
6.4668150782
 20
-16.6763879635
 10
6.4734540198
 20
-16.6555067062
 10
6.4810830361
 20
-16.6349348077
 10
6.4896432833
 20
-16.6148146424
 10
6.4991397471
 20
-16.5951521798
 10
6.5095674419
 20
-16.5759414502
 10
6.5208525668
 20
-16.5573069193
 10
6.5330047666
 20
-16.5392482489
 10
6.5460143966
 20
-16.5217657771
 10
6.5597787222
 20
-16.5049849836
 10
6.5742949607
 20
-16.4889190733
 10
6.5895658948
 20
-16.4735548414
 10
6.6054971387
 20
-16.4589781527
 10
6.6221027323
 20
-16.4451861472
 10
6.6393686358
 20
-16.4321816851
 10
6.6571583431
 20
-16.4200592119
 10
6.6754618101
 20
-16.4088328227
 10
6.6942890809
 20
-16.3984884224
 10
6.7135337826
 20
-16.3890781722
 10
6.7332111741
 20
-16.3806017527
 10
6.7533059965
 20
-16.3730594833
 10
6.7736660996
 20
-16.3665044834
 10
6.79428126
 20
-16.3609467581
 10
6.8151617012
 20
-16.3563763022
 10
6.8361859437
 20
-16.3528162195
 10
6.8573614282
 20
-16.3502706391
 10
6.8786807141
 20
-16.3487354319
 10
6.9
 20
-16.3482213147
 10
6.9213192859
 20
-16.3487354319
 10
6.9426385718
 20
-16.3502706391
 10
6.9638140563
 20
-16.3528162195
 10
6.9848382988
 20
-16.3563763022
 10
7.00571874
 20
-16.3609467581
 10
7.0263339004
 20
-16.3665044834
 10
7.0466940035
 20
-16.3730594833
 10
7.0667888259
 20
-16.3806017527
 10
7.0864662174
 20
-16.3890781722
 10
7.1057109191
 20
-16.3984884224
 10
7.1245381899
 20
-16.4088328227
 10
7.1428416569
 20
-16.4200592119
 10
7.1606313642
 20
-16.4321816851
 10
7.1778972677
 20
-16.4451861472
 10
7.1945028613
 20
-16.4589781527
 10
7.2104341052
 20
-16.4735548414
 10
7.2257050393
 20
-16.4889190733
 10
7.2402212778
 20
-16.5049849836
 10
7.2539856034
 20
-16.5217657771
 10
7.2669952334
 20
-16.5392482489
 10
7.2791474332
 20
-16.5573069193
 10
7.2904325581
 20
-16.5759414502
 10
7.3008602529
 20
-16.5951521798
 10
7.3103567167
 20
-16.6148146424
 10
7.3189169639
 20
-16.6349348077
 10
7.3265459802
 20
-16.6555067062
 10
7.3331849218
 20
-16.6763879635
 10
7.3388264197
 20
-16.6975819945
 10
7.3434778428
 20
-16.7190853843
 10
7.3471024546
 20
-16.7407455142
 10
7.3496880095
 20
-16.7625115112
 10
7.3512467531
 20
-16.7844342482
 10
7.3517786853
 20
-16.8065137252
  0
LWPOLYLINE
  5
54B
100
AcDbEntity
  8
RACCORDO
100
AcDbPolyline
 62
253
  6
CONTINUOUS
 90
31
 70
0
 10
6.5123099353
 20
13.4876443732
 10
6.5119030286
 20
13.4719289958
 10
6.5106738561
 20
13.4562584081
 10
6.508625991
 20
13.4406755597
 10
6.5057652606
 20
13.4252230914
 10
6.5020996906
 20
13.4099433818
 10
6.4976394995
 20
13.3948784269
 10
6.4923970307
 20
13.3800692434
 10
6.4863869199
 20
13.3655565659
 10
6.479626158
 20
13.3513808433
 10
6.4721336275
 20
13.3375808795
 10
6.4639301015
 20
13.3241941962
 10
6.4550385619
 20
13.3112576588
 10
6.4454841343
 20
13.2988070311
 10
6.4352928867
 20
13.2868755249
 10
6.4244917508
 20
13.2754942936
 10
6.4131106748
 20
13.2646946869
 10
6.4011805799
 20
13.2545058327
 10
6.3887316993
 20
13.2449537059
 10
6.3757970312
 20
13.2360642012
 10
6.3624125326
 20
13.2278625689
 10
6.3486145782
 20
13.2203715093
 10
6.3344404919
 20
13.2136117703
 10
6.3199291814
 20
13.2076023648
 10
6.3051210161
 20
13.2023603197
 10
6.2900565726
 20
13.1979002973
 10
6.2747769668
 20
13.1942347519
 10
6.2593245221
 20
13.1913740221
 10
6.2437417298
 20
13.1893261585
 10
6.2280711151
 20
13.1880969773
 10
6.2123556268
 20
13.1876900647
  0
LWPOLYLINE
  5
54C
100
AcDbEntity
  8
ASSI
100
AcDbPolyline
 62
253
  6
CONTINUOUS
 90
31
 70
0
 10
6.5123099353
 20
13.4876443732
 10
6.5119030286
 20
13.4719289958
 10
6.5106738561
 20
13.4562584081
 10
6.508625991
 20
13.4406755597
 10
6.5057652606
 20
13.4252230914
 10
6.5020996906
 20
13.4099433818
 10
6.4976394995
 20
13.3948784269
 10
6.4923970307
 20
13.3800692434
 10
6.4863869199
 20
13.3655565659
 10
6.479626158
 20
13.3513808433
 10
6.4721336275
 20
13.3375808795
 10
6.4639301015
 20
13.3241941962
 10
6.4550385619
 20
13.3112576588
 10
6.4454841343
 20
13.2988070311
 10
6.4352928867
 20
13.2868755249
 10
6.4244917508
 20
13.2754942936
 10
6.4131106748
 20
13.2646946869
 10
6.4011805799
 20
13.2545058327
 10
6.3887316993
 20
13.2449537059
 10
6.3757970312
 20
13.2360642012
 10
6.3624125326
 20
13.2278625689
 10
6.3486145782
 20
13.2203715093
 10
6.3344404919
 20
13.2136117703
 10
6.3199291814
 20
13.2076023648
 10
6.3051210161
 20
13.2023603197
 10
6.2900565726
 20
13.1979002973
 10
6.2747769668
 20
13.1942347519
 10
6.2593245221
 20
13.1913740221
 10
6.2437417298
 20
13.1893261585
 10
6.2280711151
 20
13.1880969773
 10
6.2123556268
 20
13.1876900647
  0
LINE
  5
54D
100
AcDbEntity
  8
0
100
AcDbLine
 62
253
  6
CONTINUOUS
 10
6.5581782981
 20
20.0275513222
 11
6.4598569743
 21
17.1473642646
  0
LINE
  5
54E
100
AcDbEntity
  8
ASSI
100
AcDbLine
 62
253
  6
CONTINUOUS
 10
6.5581782981
 20
20.0275513222
 11
6.4598569743
 21
17.1473642646
  0
LWPOLYLINE
  5
54F
100
AcDbEntity
  8
ASSI
100
AcDbPolyline
 62
7
  6
CONTINUOUS
 90
10
 70
0
 10
3.5
 20
-23.7511422903
 10
3.5003322899
 20
-23.7484239112
 10
3.5013412067
 20
-23.7450420801
 10
3.5030441065
 20
-23.7409967968
 10
3.5054584565
 20
-23.7363008225
 10
3.5085988805
 20
-23.7309413961
 10
3.512474165
 20
-23.7248802347
 10
3.517093142
 20
-23.7181121007
 10
3.5224652334
 20
-23.7106422318
 10
3.5285942983
 20
-23.7024480575
  0
LINE
  5
550
100
AcDbEntity
  8
RACCORDO
100
AcDbLine
 62
7
  6
CONTINUOUS
 10
-7.7939545568
 20
-21.6129888844
 11
-7.7427848301
 21
-21.5385902446
  0
LINE
  5
551
100
AcDbEntity
  8
ASSI
100
AcDbLine
 62
7
  6
CONTINUOUS
 10
-7.7939545568
 20
-21.6129888844
 11
-7.7427848301
 21
-21.5385902446
  0
LINE
  5
552
100
AcDbEntity
  8
RACCORDO
100
AcDbLine
 62
7
  6
CONTINUOUS
 10
-7.7427848301
 20
-21.5385902446
 11
-7.6904803352
 21
-21.4636002076
  0
LINE
  5
553
100
AcDbEntity
  8
ASSI
100
AcDbLine
 62
7
  6
CONTINUOUS
 10
-7.7427848301
 20
-21.5385902446
 11
-7.6904803352
 21
-21.4636002076
  0
LWPOLYLINE
  5
554
100
AcDbEntity
  8
RACCORDO
100
AcDbPolyline
 62
7
  6
CONTINUOUS
 90
3
 70
0
 10
-7.6904803352
 20
-21.4636002076
 10
-7.6108850697
 20
-21.3504165494
 10
-7.5841007192
 20
-21.3126932437
  0
LWPOLYLINE
  5
555
100
AcDbEntity
  8
ASSI
100
AcDbPolyline
 62
7
  6
CONTINUOUS
 90
3
 70
0
 10
-7.6904803352
 20
-21.4636002076
 10
-7.6108850697
 20
-21.3504165494
 10
-7.5841007192
 20
-21.3126932437
  0
LINE
  5
556
100
AcDbEntity
  8
RACCORDO
100
AcDbLine
 62
7
  6
CONTINUOUS
 10
-9.65
 20
7.2776691233
 11
-9.2122871968
 21
7.2881641073
  0
LINE
  5
557
100
AcDbEntity
  8
ASSI
100
AcDbLine
 62
7
  6
CONTINUOUS
 10
-9.65
 20
7.2776691233
 11
-9.2122871968
 21
7.2881641073
  0
LINE
  5
558
100
AcDbEntity
  8
0
100
AcDbLine
 62
7
  6
CONTINUOUS
 10
-0.5
 20
6.7
 11
0.5
 21
6.7
  0
LINE
  5
559
100
AcDbEntity
  8
DRAFT
100
AcDbLine
 62
7
  6
CONTINUOUS
 10
-9.4946499221
 20
7.2
 11
-8.2
 21
7.2
  0
LINE
  5
55A
100
AcDbEntity
  8
ASSI
100
AcDbLine
 62
7
  6
CONTINUOUS
 10
-9.4946499221
 20
7.2
 11
-8.2
 21
7.2
  0
LINE
  5
55B
100
AcDbEntity
  8
DRAFT
100
AcDbLine
 62
7
  6
CONTINUOUS
 10
9.4946499221
 20
7.2
 11
8.2
 21
7.2
  0
LINE
  5
55C
100
AcDbEntity
  8
ASSI
100
AcDbLine
 62
7
  6
CONTINUOUS
 10
9.4946499221
 20
7.2
 11
8.2
 21
7.2
  0
LINE
  5
55D
100
AcDbEntity
  8
RACCORDO
100
AcDbLine
 62
7
  6
CONTINUOUS
 10
-8.9303794106
 20
7.2898867382
 11
-8.2
 21
7.2898867382
  0
LINE
  5
55E
100
AcDbEntity
  8
ASSI
100
AcDbLine
 62
7
  6
CONTINUOUS
 10
-8.9303794106
 20
7.2898867382
 11
-8.2
 21
7.2898867382
  0
LINE
  5
55F
100
AcDbEntity
  8
RACCORDO
100
AcDbLine
 62
7
  6
CONTINUOUS
 10
8.2
 20
7.2898867382
 11
8.9303794106
 21
7.2898867382
  0
LINE
  5
560
100
AcDbEntity
  8
ASSI
100
AcDbLine
 62
7
  6
CONTINUOUS
 10
8.2
 20
7.2898867382
 11
8.9303794106
 21
7.2898867382
  0
LINE
  5
561
100
AcDbEntity
  8
RACCORDO
100
AcDbLine
 62
7
  6
CONTINUOUS
 10
9.2122871968
 20
7.2881641073
 11
9.65
 21
7.2776691233
  0
LINE
  5
562
100
AcDbEntity
  8
ASSI
100
AcDbLine
 62
7
  6
CONTINUOUS
 10
9.2122871968
 20
7.2881641073
 11
9.65
 21
7.2776691233
  0
LINE
  5
563
100
AcDbEntity
  8
DRAFT
100
AcDbLine
 62
7
  6
CONTINUOUS
 10
-9.4946499221
 20
11.5
 11
-9.65
 21
11.5776691233
  0
LINE
  5
564
100
AcDbEntity
  8
ASSI
100
AcDbLine
 62
7
  6
CONTINUOUS
 10
-9.4946499221
 20
11.5
 11
-9.65
 21
11.5776691233
  0
LINE
  5
565
100
AcDbEntity
  8
RACCORDO
100
AcDbLine
 62
7
  6
CONTINUOUS
 10
-7.5841007192
 20
21.3126932437
 11
-7.6375346208
 21
21.3881838872
  0
LINE
  5
566
100
AcDbEntity
  8
ASSI
100
AcDbLine
 62
7
  6
CONTINUOUS
 10
-7.5841007192
 20
21.3126932437
 11
-7.6375346208
 21
21.3881838872
  0
LINE
  5
567
100
AcDbEntity
  8
RACCORDO
100
AcDbLine
 62
7
  6
CONTINUOUS
 10
-7.6375346208
 20
21.3881838872
 11
-7.7167764984
 21
21.5011382645
  0
LINE
  5
568
100
AcDbEntity
  8
ASSI
100
AcDbLine
 62
7
  6
CONTINUOUS
 10
-7.6375346208
 20
21.3881838872
 11
-7.7167764984
 21
21.5011382645
  0
LWPOLYLINE
  5
569
100
AcDbEntity
  8
RACCORDO
100
AcDbPolyline
 62
7
  6
CONTINUOUS
 90
5
 70
0
 10
-7.7167764984
 20
21.5011382645
 10
-7.7685136093
 20
21.5758926167
 10
-7.7939545568
 20
21.6129888844
 10
-7.818929804
 20
21.6499179842
 10
-7.843380061
 20
21.6866457638
  0
LWPOLYLINE
  5
56A
100
AcDbEntity
  8
ASSI
100
AcDbPolyline
 62
7
  6
CONTINUOUS
 90
5
 70
0
 10
-7.7167764984
 20
21.5011382645
 10
-7.7685136093
 20
21.5758926167
 10
-7.7939545568
 20
21.6129888844
 10
-7.818929804
 20
21.6499179842
 10
-7.843380061
 20
21.6866457638
  0
LINE
  5
56B
100
AcDbEntity
  8
0
100
AcDbLine
 62
253
  6
CONTINUOUS
 10
7.2418217019
 20
20.0275513222
 11
7.3401430257
 21
17.1473642646
  0
LINE
  5
56C
100
AcDbEntity
  8
ASSI
100
AcDbLine
 62
253
  6
CONTINUOUS
 10
7.2418217019
 20
20.0275513222
 11
7.3401430257
 21
17.1473642646
  0
LWPOLYLINE
  5
56D
100
AcDbEntity
  8
RACCORDO
100
AcDbPolyline
 62
253
  6
CONTINUOUS
 90
31
 70
0
 10
8.254371834
 20
23.8443375673
 10
8.2547511885
 20
23.8330270596
 10
8.2558122363
 20
23.8217474404
 10
8.2575520796
 20
23.8105295141
 10
8.2599659648
 20
23.7994039253
 10
8.2630473009
 20
23.7884010484
 10
8.2667876826
 20
23.7775509057
 10
8.271176909
 20
23.7668831095
 10
8.2762029911
 20
23.756426816
 10
8.2818521875
 20
23.7462106168
 10
8.2881090593
 20
23.7362624252
 10
8.2949565249
 20
23.7266093946
 10
8.3023758889
 20
23.7172778785
 10
8.3103468926
 20
23.7082933575
 10
8.3188477641
 20
23.699680372
 10
8.3278552844
 20
23.6914624468
 10
8.3373448482
 20
23.6836620286
 10
8.3472905438
 20
23.676300415
 10
8.3576652233
 20
23.6693977011
 10
8.3684405758
 20
23.6629727275
 10
8.3795871553
 20
23.6570430559
 10
8.3910744696
 20
23.6516249047
 10
8.4028711116
 20
23.6467330775
 10
8.4149448924
 20
23.6423809129
 10
8.4272628811
 20
23.6385802779
 10
8.4397919133
 20
23.6353414408
 10
8.4524973112
 20
23.6326734007
 10
8.4653429626
 20
23.6305836414
 10
8.4782932772
 20
23.6290777228
 10
8.4913133412
 20
23.6281594768
 10
8.5043676032
 20
23.6278312164
  0
LWPOLYLINE
  5
56E
100
AcDbEntity
  8
ASSI
100
AcDbPolyline
 62
253
  6
CONTINUOUS
 90
31
 70
0
 10
8.254371834
 20
23.8443375673
 10
8.2547511885
 20
23.8330270596
 10
8.2558122363
 20
23.8217474404
 10
8.2575520796
 20
23.8105295141
 10
8.2599659648
 20
23.7994039253
 10
8.2630473009
 20
23.7884010484
 10
8.2667876826
 20
23.7775509057
 10
8.271176909
 20
23.7668831095
 10
8.2762029911
 20
23.756426816
 10
8.2818521875
 20
23.7462106168
 10
8.2881090593
 20
23.7362624252
 10
8.2949565249
 20
23.7266093946
 10
8.3023758889
 20
23.7172778785
 10
8.3103468926
 20
23.7082933575
 10
8.3188477641
 20
23.699680372
 10
8.3278552844
 20
23.6914624468
 10
8.3373448482
 20
23.6836620286
 10
8.3472905438
 20
23.676300415
 10
8.3576652233
 20
23.6693977011
 10
8.3684405758
 20
23.6629727275
 10
8.3795871553
 20
23.6570430559
 10
8.3910744696
 20
23.6516249047
 10
8.4028711116
 20
23.6467330775
 10
8.4149448924
 20
23.6423809129
 10
8.4272628811
 20
23.6385802779
 10
8.4397919133
 20
23.6353414408
 10
8.4524973112
 20
23.6326734007
 10
8.4653429626
 20
23.6305836414
 10
8.4782932772
 20
23.6290777228
 10
8.4913133412
 20
23.6281594768
 10
8.5043676032
 20
23.6278312164
  0
LINE
  5
56F
100
AcDbEntity
  8
RACCORDO
100
AcDbLine
 62
253
  6
CONTINUOUS
 10
8.254371834
 20
-23.8443375673
 11
8.25
 21
-23.4104851482
  0
LINE
  5
570
100
AcDbEntity
  8
ASSI
100
AcDbLine
 62
253
  6
CONTINUOUS
 10
8.254371834
 20
-23.8443375673
 11
8.25
 21
-23.4104851482
  0
LINE
  5
571
100
AcDbEntity
  8
RACCORDO
100
AcDbLine
 62
253
  6
CONTINUOUS
 10
8.5050948319
 20
-23.7
 11
8.4992770021
 21
-23.1226497308
  0
LINE
  5
572
100
AcDbEntity
  8
ASSI
100
AcDbLine
 62
253
  6
CONTINUOUS
 10
8.5050948319
 20
-23.7
 11
8.4992770021
 21
-23.1226497308
  0
LINE
  5
573
100
AcDbEntity
  8
RACCORDO
100
AcDbLine
 62
253
  6
CONTINUOUS
 10
7.7372801014
 20
-7.9898867382
 11
7.7372801014
 21
-7.5478672363
  0
LINE
  5
574
100
AcDbEntity
  8
ASSI
100
AcDbLine
 62
253
  6
CONTINUOUS
 10
7.7372801014
 20
-7.9898867382
 11
7.7372801014
 21
-7.55
  0
LINE
  5
575
100
AcDbEntity
  8
RACCORDO
100
AcDbLine
 62
253
  6
CONTINUOUS
 10
8.0840245667
 20
-21.5659754333
 11
8.0840245667
 21
-20.9917082642
  0
LINE
  5
576
100
AcDbEntity
  8
ASSI
100
AcDbLine
 62
253
  6
CONTINUOUS
 10
8.0840245667
 20
-21.5659754333
 11
8.0840245667
 21
-20.9917082642
  0
LINE
  5
577
100
AcDbEntity
  8
RACCORDO
100
AcDbLine
 62
253
  6
CONTINUOUS
 10
8.0840245667
 20
20.9917082642
 11
8.0840245667
 21
21.5659754333
  0
LINE
  5
578
100
AcDbEntity
  8
ASSI
100
AcDbLine
 62
253
  6
CONTINUOUS
 10
8.0840245667
 20
20.9917082642
 11
8.0840245667
 21
21.5659754333
  0
LINE
  5
579
100
AcDbEntity
  8
0
100
AcDbLine
 62
7
  6
CONTINUOUS
 10
8.2
 20
9.05
 11
8.2
 21
-7.05
  0
LINE
  5
57A
100
AcDbEntity
  8
DRAFT
100
AcDbLine
 62
7
  6
CONTINUOUS
 10
8.25
 20
21.4
 11
8.25
 21
20.9
  0
LINE
  5
57B
100
AcDbEntity
  8
ASSI
100
AcDbLine
 62
7
  6
CONTINUOUS
 10
8.25
 20
21.4
 11
8.25
 21
20.9
  0
LINE
  5
57C
100
AcDbEntity
  8
DRAFT
100
AcDbLine
 62
7
  6
CONTINUOUS
 10
8.25
 20
-20.9
 11
8.25
 21
-21.4
  0
LINE
  5
57D
100
AcDbEntity
  8
ASSI
100
AcDbLine
 62
7
  6
CONTINUOUS
 10
8.25
 20
-20.9
 11
8.25
 21
-21.4
  0
LINE
  5
57E
100
AcDbEntity
  8
RACCORDO
100
AcDbLine
 62
7
  6
CONTINUOUS
 10
8.25
 20
-22.4
 11
8.25
 21
-23.8443375673
  0
LINE
  5
57F
100
AcDbEntity
  8
ASSI
100
AcDbLine
 62
7
  6
CONTINUOUS
 10
8.25
 20
-22.4
 11
8.25
 21
-23.8443375673
  0
LINE
  5
580
100
AcDbEntity
  8
RACCORDO
100
AcDbLine
 62
7
  6
CONTINUOUS
 10
8.25
 20
22.4
 11
8.25
 21
23.8443375673
  0
LINE
  5
581
100
AcDbEntity
  8
ASSI
100
AcDbLine
 62
7
  6
CONTINUOUS
 10
8.25
 20
22.4
 11
8.25
 21
23.8443375673
  0
LINE
  5
582
100
AcDbEntity
  8
RACCORDO
100
AcDbLine
 62
253
  6
CONTINUOUS
 10
8.254371834
 20
24.2456323968
 11
8.254371834
 21
23.8443375673
  0
LINE
  5
583
100
AcDbEntity
  8
ASSI
100
AcDbLine
 62
7
  6
CONTINUOUS
 10
8.254371834
 20
24.2456323968
 11
8.254371834
 21
23.8443375673
  0
LINE
  5
584
100
AcDbEntity
  8
RACCORDO
100
AcDbLine
 62
253
  6
CONTINUOUS
 10
8.254371834
 20
-23.8443375673
 11
8.254371834
 21
-24.2456323968
  0
LINE
  5
585
100
AcDbEntity
  8
ASSI
100
AcDbLine
 62
7
  6
CONTINUOUS
 10
8.254371834
 20
-23.8443375673
 11
8.254371834
 21
-24.2456323968
  0
LINE
  5
586
100
AcDbEntity
  8
DRAFT
100
AcDbLine
 62
7
  6
CONTINUOUS
 10
8.3325462644
 20
9.5825462644
 11
8.3325462644
 21
8.35
  0
LINE
  5
587
100
AcDbEntity
  8
ASSI
100
AcDbLine
 62
7
  6
CONTINUOUS
 10
8.3325462644
 20
9.5825462644
 11
8.3325462644
 21
8.35
  0
LINE
  5
588
100
AcDbEntity
  8
DRAFT
100
AcDbLine
 62
7
  6
CONTINUOUS
 10
8.35
 20
8.35
 11
8.35
 21
9.6
  0
LINE
  5
589
100
AcDbEntity
  8
ASSI
100
AcDbLine
 62
7
  6
CONTINUOUS
 10
8.35
 20
8.35
 11
8.35
 21
9.6
  0
LINE
  5
58A
100
AcDbEntity
  8
RACCORDO
100
AcDbLine
 62
7
  6
CONTINUOUS
 10
8.4101132618
 20
-7.9898867382
 11
8.4101132618
 21
-6.2872801014
  0
LINE
  5
58B
100
AcDbEntity
  8
ASSI
100
AcDbLine
 62
7
  6
CONTINUOUS
 10
8.4101132618
 20
-7.9898867382
 11
8.4101132618
 21
-6.2872801014
  0
LINE
  5
58C
100
AcDbEntity
  8
DRAFT
100
AcDbLine
 62
7
  6
CONTINUOUS
 10
8.5
 20
-7.9
 11
8.5
 21
-5.9
  0
LINE
  5
58D
100
AcDbEntity
  8
ASSI
100
AcDbLine
 62
7
  6
CONTINUOUS
 10
8.5
 20
-7.9
 11
8.5
 21
-5.9
  0
LINE
  5
58E
100
AcDbEntity
  8
RACCORDO
100
AcDbLine
 62
253
  6
CONTINUOUS
 10
8.5043676032
 20
-23.7
 11
8.5043676032
 21
-24.495628166
  0
LINE
  5
58F
100
AcDbEntity
  8
ASSI
100
AcDbLine
 62
253
  6
CONTINUOUS
 10
8.5043676032
 20
-23.7
 11
8.5043676032
 21
-24.495628166
  0
LINE
  5
590
100
AcDbEntity
  8
RACCORDO
100
AcDbLine
 62
253
  6
CONTINUOUS
 10
8.5043676032
 20
23.6278312164
 11
8.5043676032
 21
24.495628166
  0
LINE
  5
591
100
AcDbEntity
  8
ASSI
100
AcDbLine
 62
253
  6
CONTINUOUS
 10
8.5043676032
 20
23.6278312164
 11
8.5043676032
 21
24.495628166
  0
LINE
  5
592
100
AcDbEntity
  8
RACCORDO
100
AcDbLine
 62
253
  6
CONTINUOUS
 10
8.9303794106
 20
-8.8101132618
 11
8.9303794106
 21
-7.9898867382
  0
LINE
  5
593
100
AcDbEntity
  8
ASSI
100
AcDbLine
 62
253
  6
CONTINUOUS
 10
8.9303794106
 20
-8.8101132618
 11
8.9303794106
 21
-7.9898867382
  0
LINE
  5
594
100
AcDbEntity
  8
RACCORDO
100
AcDbLine
 62
253
  6
CONTINUOUS
 10
8.9303794106
 20
-0.4101132618
 11
8.9303794106
 21
0.4101132618
  0
LINE
  5
595
100
AcDbEntity
  8
ASSI
100
AcDbLine
 62
253
  6
CONTINUOUS
 10
8.9303794106
 20
-0.4101132618
 11
8.9303794106
 21
0.4101132618
  0
LINE
  5
596
100
AcDbEntity
  8
RACCORDO
100
AcDbLine
 62
253
  6
CONTINUOUS
 10
8.9303794106
 20
7.2898867382
 11
8.9303794106
 21
8.35
  0
LINE
  5
597
100
AcDbEntity
  8
ASSI
100
AcDbLine
 62
253
  6
CONTINUOUS
 10
8.9303794106
 20
7.2898867382
 11
8.9303794106
 21
8.35
  0
LINE
  5
598
100
AcDbEntity
  8
RACCORDO
100
AcDbLine
 62
253
  6
CONTINUOUS
 10
8.9303794106
 20
11.5898867382
 11
8.9303794106
 21
12.4101132618
  0
LINE
  5
599
100
AcDbEntity
  8
ASSI
100
AcDbLine
 62
253
  6
CONTINUOUS
 10
8.9303794106
 20
11.5898867382
 11
8.9303794106
 21
12.4101132618
  0
LINE
  5
59A
100
AcDbEntity
  8
RACCORDO
100
AcDbLine
 62
253
  6
CONTINUOUS
 10
9.2122871968
 20
-8.8118358927
 11
9.2122871968
 21
-7.9881641073
  0
LINE
  5
59B
100
AcDbEntity
  8
ASSI
100
AcDbLine
 62
253
  6
CONTINUOUS
 10
9.2122871968
 20
-8.8118358927
 11
9.2122871968
 21
-7.9881641073
  0
LINE
  5
59C
100
AcDbEntity
  8
RACCORDO
100
AcDbLine
 62
253
  6
CONTINUOUS
 10
9.2122871968
 20
-0.4118358927
 11
9.2122871968
 21
0.4118358927
  0
LINE
  5
59D
100
AcDbEntity
  8
ASSI
100
AcDbLine
 62
253
  6
CONTINUOUS
 10
9.2122871968
 20
-0.4118358927
 11
9.2122871968
 21
0.4118358927
  0
LINE
  5
59E
100
AcDbEntity
  8
RACCORDO
100
AcDbLine
 62
253
  6
CONTINUOUS
 10
9.2122871968
 20
7.2881641073
 11
9.2122871968
 21
8.35
  0
LINE
  5
59F
100
AcDbEntity
  8
ASSI
100
AcDbLine
 62
253
  6
CONTINUOUS
 10
9.2122871968
 20
7.2881641073
 11
9.2122871968
 21
8.35
  0
LINE
  5
5A0
100
AcDbEntity
  8
RACCORDO
100
AcDbLine
 62
253
  6
CONTINUOUS
 10
9.2122871968
 20
11.5881641073
 11
9.2122871968
 21
12.4118358927
  0
LINE
  5
5A1
100
AcDbEntity
  8
ASSI
100
AcDbLine
 62
253
  6
CONTINUOUS
 10
9.2122871968
 20
11.5881641073
 11
9.2122871968
 21
12.4118358927
  0
LINE
  5
5A2
100
AcDbEntity
  8
RACCORDO
100
AcDbLine
 62
253
  6
CONTINUOUS
 10
8.25
 20
23.4104851482
 11
8.254371834
 21
23.8443375673
  0
LINE
  5
5A3
100
AcDbEntity
  8
ASSI
100
AcDbLine
 62
253
  6
CONTINUOUS
 10
8.25
 20
23.4104851482
 11
8.254371834
 21
23.8443375673
  0
LINE
  5
5A4
100
AcDbEntity
  8
RACCORDO
100
AcDbLine
 62
253
  6
CONTINUOUS
 10
8.4992770021
 20
23.1226497308
 11
8.5043676032
 21
23.6278312164
  0
LINE
  5
5A5
100
AcDbEntity
  8
ASSI
100
AcDbLine
 62
253
  6
CONTINUOUS
 10
8.4992770021
 20
23.1226497308
 11
8.5043676032
 21
23.6278312164
  0
LWPOLYLINE
  5
5A6
100
AcDbEntity
  8
RACCORDO
100
AcDbPolyline
 62
7
  6
CONTINUOUS
 90
4
 70
0
 10
8.25
 20
24.2500042308
 10
8.2502831502
 20
24.261899516
 10
8.2511319658
 20
24.2737678556
 10
8.2525445259
 20
24.2855823661
  0
LWPOLYLINE
  5
5A7
100
AcDbEntity
  8
ASSI
100
AcDbPolyline
 62
7
  6
CONTINUOUS
 90
4
 70
0
 10
8.25
 20
24.2500042308
 10
8.2502831502
 20
24.261899516
 10
8.2511319658
 20
24.2737678556
 10
8.2525445259
 20
24.2855823661
  0
LWPOLYLINE
  5
5A8
100
AcDbEntity
  8
RACCORDO
100
AcDbPolyline
 62
253
  6
CONTINUOUS
 90
31
 70
0
 10
8.254371834
 20
24.2456323968
 10
8.254715023
 20
24.2587187509
 10
8.255742766
 20
24.2717692492
 10
8.2574522491
 20
24.2847481067
 10
8.2598387919
 20
24.2976197463
 10
8.262895853
 20
24.3103488602
 10
8.2666150425
 20
24.3229005077
 10
8.2709861576
 20
24.3352402638
 10
8.2759972131
 20
24.347334301
 10
8.2816344613
 20
24.3591494467
 10
8.2878824405
 20
24.3706533025
 10
8.2947240163
 20
24.3818143284
 10
8.3021404232
 20
24.3926019187
 10
8.3101113313
 20
24.402986508
 10
8.3186148729
 20
24.4129396114
 10
8.327627692
 20
24.4224339046
 10
8.3371250264
 20
24.4314433264
 10
8.3470808636
 20
24.4399432233
 10
8.3574679894
 20
24.4479103656
 10
8.3682580686
 20
24.4553229956
 10
8.379421387
 20
24.4621606774
 10
8.3909269875
 20
24.4684044791
 10
8.4027430657
 20
24.4740372277
 10
8.4148374218
 20
24.4790436576
 10
8.4271772258
 20
24.4834102087
 10
8.4397314103
 20
24.4871256484
 10
8.4524628755
 20
24.4901787618
 10
8.4653285943
 20
24.492559892
 10
8.4782903689
 20
24.4942634962
 10
8.4913152632
 20
24.4952867588
 10
8.5043676032
 20
24.495628166
  0
LWPOLYLINE
  5
5A9
100
AcDbEntity
  8
ASSI
100
AcDbPolyline
 62
7
  6
CONTINUOUS
 90
31
 70
0
 10
8.254371834
 20
24.2456323968
 10
8.254715023
 20
24.2587187509
 10
8.255742766
 20
24.2717692492
 10
8.2574522491
 20
24.2847481067
 10
8.2598387919
 20
24.2976197463
 10
8.262895853
 20
24.3103488602
 10
8.2666150425
 20
24.3229005077
 10
8.2709861576
 20
24.3352402638
 10
8.2759972131
 20
24.347334301
 10
8.2816344613
 20
24.3591494467
 10
8.2878824405
 20
24.3706533025
 10
8.2947240163
 20
24.3818143284
 10
8.3021404232
 20
24.3926019187
 10
8.3101113313
 20
24.402986508
 10
8.3186148729
 20
24.4129396114
 10
8.327627692
 20
24.4224339046
 10
8.3371250264
 20
24.4314433264
 10
8.3470808636
 20
24.4399432233
 10
8.3574679894
 20
24.4479103656
 10
8.3682580686
 20
24.4553229956
 10
8.379421387
 20
24.4621606774
 10
8.3909269875
 20
24.4684044791
 10
8.4027430657
 20
24.4740372277
 10
8.4148374218
 20
24.4790436576
 10
8.4271772258
 20
24.4834102087
 10
8.4397314103
 20
24.4871256484
 10
8.4524628755
 20
24.4901787618
 10
8.4653285943
 20
24.492559892
 10
8.4782903689
 20
24.4942634962
 10
8.4913152632
 20
24.4952867588
 10
8.5043676032
 20
24.495628166
  0
LINE
  5
5AA
100
AcDbEntity
  8
RACCORDO
100
AcDbLine
 62
253
  6
CONTINUOUS
 10
7.2418217019
 20
-20.0275513222
 11
7.3517786853
 21
-16.8065137252
  0
LINE
  5
5AB
100
AcDbEntity
  8
ASSI
100
AcDbLine
 62
253
  6
CONTINUOUS
 10
7.2418217019
 20
-20.0275513222
 11
7.3517786853
 21
-16.8065137252
  0
LWPOLYLINE
  5
5AC
100
AcDbEntity
  8
RACCORDO
100
AcDbPolyline
 62
7
  6
CONTINUOUS
 90
34
 70
0
 10
8.254371834
 20
-23.8443375673
 10
8.2546695603
 20
-23.8380959882
 10
8.2554408118
 20
-23.8318228771
 10
8.2566911745
 20
-23.8255364611
 10
8.2584252218
 20
-23.819262429
 10
8.2606466645
 20
-23.8130128907
 10
8.2633586845
 20
-23.8067864067
 10
8.2665631814
 20
-23.8006034693
 10
8.2702611059
 20
-23.7944838391
 10
8.2744533569
 20
-23.7884256826
 10
8.2791388411
 20
-23.7824505058
 10
8.284315483
 20
-23.7765790982
 10
8.2899818538
 20
-23.7708092763
 10
8.2961336377
 20
-23.7651632953
 10
8.3027654201
 20
-23.7596628022
 10
8.3098732229
 20
-23.7543054665
 10
8.3174492184
 20
-23.7491140142
 10
8.3254843004
 20
-23.7441107054
 10
8.333971526
 20
-23.7392932914
 10
8.3428992355
 20
-23.734684598
 10
8.3522542142
 20
-23.7303071891
 10
8.3620258888
 20
-23.7261591412
 10
8.3721984
 20
-23.7222628822
 10
8.3827539871
 20
-23.7186408394
 10
8.3936775879
 20
-23.7152916032
 10
8.4049486454
 20
-23.7122365701
 10
8.4165445699
 20
-23.7094973639
 10
8.4284452677
 20
-23.7070730824
 10
8.4406120954
 20
-23.7049862817
 10
8.4530301503
 20
-23.7032528228
 10
8.4657141444
 20
-23.7018667017
 10
8.478648855
 20
-23.7008436197
 10
8.4917873565
 20
-23.7002144299
 10
8.5050948319
 20
-23.7
  0
LWPOLYLINE
  5
5AD
100
AcDbEntity
  8
ASSI
100
AcDbPolyline
 62
7
  6
CONTINUOUS
 90
34
 70
0
 10
8.254371834
 20
-23.8443375673
 10
8.2546695603
 20
-23.8380959882
 10
8.2554408118
 20
-23.8318228771
 10
8.2566911745
 20
-23.8255364611
 10
8.2584252218
 20
-23.819262429
 10
8.2606466645
 20
-23.8130128907
 10
8.2633586845
 20
-23.8067864067
 10
8.2665631814
 20
-23.8006034693
 10
8.2702611059
 20
-23.7944838391
 10
8.2744533569
 20
-23.7884256826
 10
8.2791388411
 20
-23.7824505058
 10
8.284315483
 20
-23.7765790982
 10
8.2899818538
 20
-23.7708092763
 10
8.2961336377
 20
-23.7651632953
 10
8.3027654201
 20
-23.7596628022
 10
8.3098732229
 20
-23.7543054665
 10
8.3174492184
 20
-23.7491140142
 10
8.3254843004
 20
-23.7441107054
 10
8.333971526
 20
-23.7392932914
 10
8.3428992355
 20
-23.734684598
 10
8.3522542142
 20
-23.7303071891
 10
8.3620258888
 20
-23.7261591412
 10
8.3721984
 20
-23.7222628822
 10
8.3827539871
 20
-23.7186408394
 10
8.3936775879
 20
-23.7152916032
 10
8.4049486454
 20
-23.7122365701
 10
8.4165445699
 20
-23.7094973639
 10
8.4284452677
 20
-23.7070730824
 10
8.4406120954
 20
-23.7049862817
 10
8.4530301503
 20
-23.7032528228
 10
8.4657141444
 20
-23.7018667017
 10
8.478648855
 20
-23.7008436197
 10
8.4917873565
 20
-23.7002144299
 10
8.5050948319
 20
-23.7
  0
LINE
  5
5AE
100
AcDbEntity
  8
DRAFT
100
AcDbLine
 62
7
  6
CONTINUOUS
 10
-4.4
 20
-22.4
 11
-4.3559327327
 21
-22.3338981669
  0
LINE
  5
5AF
100
AcDbEntity
  8
ASSI
100
AcDbLine
 62
7
  6
CONTINUOUS
 10
-4.4
 20
-22.4
 11
-4.3559327327
 21
-22.3338981669
  0
LINE
  5
5B0
100
AcDbEntity
  8
0
100
AcDbLine
 62
7
  6
CONTINUOUS
 10
-0.6413436256
 20
8.025
 11
1.88
 21
8.025
  0
LINE
  5
5B1
100
AcDbEntity
  8
0
100
AcDbLine
 62
253
  6
CONTINUOUS
 10
2.8
 20
8.15
 11
2.7792179856
 21
8.15
  0
LINE
  5
5B2
100
AcDbEntity
  8
0
100
AcDbLine
 62
253
  6
CONTINUOUS
 10
-1.449787234
 20
8.15
 11
-1.4695652174
 21
8.15
  0
LINE
  5
5B3
100
AcDbEntity
  8
RACCORDO
100
AcDbLine
 62
7
  6
CONTINUOUS
 10
-8.2
 20
8.35
 11
-9.65
 21
8.35
  0
LINE
  5
5B4
100
AcDbEntity
  8
ASSI
100
AcDbLine
 62
7
  6
CONTINUOUS
 10
-8.2
 20
8.35
 11
-9.65
 21
8.35
  0
LINE
  5
5B5
100
AcDbEntity
  8
RACCORDO
100
AcDbLine
 62
7
  6
CONTINUOUS
 10
8.2
 20
8.35
 11
9.65
 21
8.35
  0
LINE
  5
5B6
100
AcDbEntity
  8
ASSI
100
AcDbLine
 62
7
  6
CONTINUOUS
 10
8.2
 20
8.35
 11
9.65
 21
8.35
  0
LINE
  5
5B7
100
AcDbEntity
  8
0
100
AcDbLine
 62
7
  6
CONTINUOUS
 10
-1.0461527225
 20
8.525
 11
2.38
 21
8.525
  0
LINE
  5
5B8
100
AcDbEntity
  8
0
100
AcDbLine
 62
7
  6
CONTINUOUS
 10
7.4
 20
8.55
 11
-7.4
 21
8.55
  0
LINE
  5
5B9
100
AcDbEntity
  8
DRAFT
100
AcDbLine
 62
7
  6
CONTINUOUS
 10
-4.4
 20
22.4
 11
-4.3559327327
 21
22.3338981669
  0
LINE
  5
5BA
100
AcDbEntity
  8
ASSI
100
AcDbLine
 62
7
  6
CONTINUOUS
 10
-4.4
 20
22.4
 11
-4.3559327327
 21
22.3338981669
  0
LINE
  5
5BB
100
AcDbEntity
  8
RACCORDO
100
AcDbLine
 62
253
  6
CONTINUOUS
 10
10.3956323968
 20
23.6278312164
 11
10.4007229979
 21
23.1226497308
  0
LINE
  5
5BC
100
AcDbEntity
  8
ASSI
100
AcDbLine
 62
253
  6
CONTINUOUS
 10
10.3956323968
 20
23.6278312164
 11
10.4007229979
 21
23.1226497308
  0
LINE
  5
5BD
100
AcDbEntity
  8
RACCORDO
100
AcDbLine
 62
253
  6
CONTINUOUS
 10
10.645628166
 20
23.8443375673
 11
10.65
 21
23.4104851482
  0
LINE
  5
5BE
100
AcDbEntity
  8
ASSI
100
AcDbLine
 62
253
  6
CONTINUOUS
 10
10.645628166
 20
23.8443375673
 11
10.65
 21
23.4104851482
  0
LINE
  5
5BF
100
AcDbEntity
  8
RACCORDO
100
AcDbLine
 62
7
  6
CONTINUOUS
 10
9.4946499221
 20
-19.9333419123
 11
9.4946499221
 21
-8.9
  0
LINE
  5
5C0
100
AcDbEntity
  8
ASSI
100
AcDbLine
 62
7
  6
CONTINUOUS
 10
9.4946499221
 20
-19.9333419123
 11
9.4946499221
 21
-8.9
  0
LINE
  5
5C1
100
AcDbEntity
  8
DRAFT
100
AcDbLine
 62
7
  6
CONTINUOUS
 10
9.4946499221
 20
-7.9
 11
9.4946499221
 21
-0.5
  0
LINE
  5
5C2
100
AcDbEntity
  8
ASSI
100
AcDbLine
 62
7
  6
CONTINUOUS
 10
9.4946499221
 20
-7.9
 11
9.4946499221
 21
-0.5
  0
LINE
  5
5C3
100
AcDbEntity
  8
DRAFT
100
AcDbLine
 62
7
  6
CONTINUOUS
 10
9.4946499221
 20
0.5
 11
9.4946499221
 21
7.2
  0
LINE
  5
5C4
100
AcDbEntity
  8
ASSI
100
AcDbLine
 62
7
  6
CONTINUOUS
 10
9.4946499221
 20
0.5
 11
9.4946499221
 21
7.2
  0
LINE
  5
5C5
100
AcDbEntity
  8
DRAFT
100
AcDbLine
 62
7
  6
CONTINUOUS
 10
9.4946499221
 20
8.35
 11
9.4946499221
 21
11.5
  0
LINE
  5
5C6
100
AcDbEntity
  8
ASSI
100
AcDbLine
 62
7
  6
CONTINUOUS
 10
9.4946499221
 20
8.35
 11
9.4946499221
 21
11.5
  0
LINE
  5
5C7
100
AcDbEntity
  8
DRAFT
100
AcDbLine
 62
7
  6
CONTINUOUS
 10
9.4946499221
 20
12.5
 11
9.4946499221
 21
14.7
  0
LINE
  5
5C8
100
AcDbEntity
  8
ASSI
100
AcDbLine
 62
7
  6
CONTINUOUS
 10
9.4946499221
 20
12.5
 11
9.4946499221
 21
14.7
  0
LINE
  5
5C9
100
AcDbEntity
  8
RACCORDO
100
AcDbLine
 62
7
  6
CONTINUOUS
 10
9.529560052
 20
19.3
 11
9.529560052
 21
15.2792978419
  0
LINE
  5
5CA
100
AcDbEntity
  8
ASSI
100
AcDbLine
 62
7
  6
CONTINUOUS
 10
9.529560052
 20
19.3
 11
9.529560052
 21
15.2792978419
  0
LINE
  5
5CB
100
AcDbEntity
  8
RACCORDO
100
AcDbLine
 62
7
  6
CONTINUOUS
 10
9.5871617663
 20
20.2111031425
 11
9.5871617663
 21
19.8
  0
LINE
  5
5CC
100
AcDbEntity
  8
ASSI
100
AcDbLine
 62
7
  6
CONTINUOUS
 10
9.5871617663
 20
20.2111031425
 11
9.5871617663
 21
19.8
  0
LINE
  5
5CD
100
AcDbEntity
  8
RACCORDO
100
AcDbLine
 62
7
  6
CONTINUOUS
 10
9.65
 20
20.3997711479
 11
9.65
 21
12.4223308767
  0
LINE
  5
5CE
100
AcDbEntity
  8
DRAFT
100
AcDbLine
 62
7
  6
CONTINUOUS
 10
9.65
 20
12.4223308767
 11
9.65
 21
-8.8223308767
  0
LINE
  5
5CF
100
AcDbEntity
  8
RACCORDO
100
AcDbLine
 62
7
  6
CONTINUOUS
 10
9.65
 20
-8.8223308767
 11
9.65
 21
-20.3997711479
  0
LINE
  5
5D0
100
AcDbEntity
  8
ASSI
100
AcDbLine
 62
7
  6
CONTINUOUS
 10
9.65
 20
20.3997711479
 11
9.65
 21
-20.3997711479
  0
LINE
  5
5D1
100
AcDbEntity
  8
RACCORDO
100
AcDbLine
 62
253
  6
CONTINUOUS
 10
10.3956323968
 20
-23.7
 11
10.3956323968
 21
-24.495628166
  0
LINE
  5
5D2
100
AcDbEntity
  8
ASSI
100
AcDbLine
 62
253
  6
CONTINUOUS
 10
10.3956323968
 20
-23.7
 11
10.3956323968
 21
-24.495628166
  0
LINE
  5
5D3
100
AcDbEntity
  8
RACCORDO
100
AcDbLine
 62
253
  6
CONTINUOUS
 10
10.3956323968
 20
23.6278312164
 11
10.3956323968
 21
24.495628166
  0
LINE
  5
5D4
100
AcDbEntity
  8
ASSI
100
AcDbLine
 62
253
  6
CONTINUOUS
 10
10.3956323968
 20
23.6278312164
 11
10.3956323968
 21
24.495628166
  0
LINE
  5
5D5
100
AcDbEntity
  8
RACCORDO
100
AcDbLine
 62
253
  6
CONTINUOUS
 10
10.645628166
 20
-24.2456323968
 11
10.645628166
 21
-23.8443375673
  0
LINE
  5
5D6
100
AcDbEntity
  8
ASSI
100
AcDbLine
 62
7
  6
CONTINUOUS
 10
10.645628166
 20
-24.2456323968
 11
10.645628166
 21
-23.8443375673
  0
LINE
  5
5D7
100
AcDbEntity
  8
RACCORDO
100
AcDbLine
 62
253
  6
CONTINUOUS
 10
10.645628166
 20
23.8443375673
 11
10.645628166
 21
24.2456323968
  0
LINE
  5
5D8
100
AcDbEntity
  8
ASSI
100
AcDbLine
 62
7
  6
CONTINUOUS
 10
10.645628166
 20
23.8443375673
 11
10.645628166
 21
24.2456323968
  0
LINE
  5
5D9
100
AcDbEntity
  8
RACCORDO
100
AcDbLine
 62
7
  6
CONTINUOUS
 10
10.65
 20
-22.399689968
 11
10.65
 21
-23.8443375673
  0
LINE
  5
5DA
100
AcDbEntity
  8
ASSI
100
AcDbLine
 62
7
  6
CONTINUOUS
 10
10.65
 20
-22.399689968
 11
10.65
 21
-23.8443375673
  0
LINE
  5
5DB
100
AcDbEntity
  8
RACCORDO
100
AcDbLine
 62
7
  6
CONTINUOUS
 10
10.65
 20
22.399689968
 11
10.65
 21
23.8443375673
  0
LINE
  5
5DC
100
AcDbEntity
  8
ASSI
100
AcDbLine
 62
7
  6
CONTINUOUS
 10
10.65
 20
22.399689968
 11
10.65
 21
23.8443375673
  0
LINE
  5
5DD
100
AcDbEntity
  8
RACCORDO
100
AcDbLine
 62
7
  6
CONTINUOUS
 10
11.15
 20
21.8911779406
 11
11.15
 21
-21.8911779406
  0
LINE
  5
5DE
100
AcDbEntity
  8
ASSI
100
AcDbLine
 62
7
  6
CONTINUOUS
 10
11.15
 20
21.8911779406
 11
11.15
 21
-21.8911779406
  0
LINE
  5
5DF
100
AcDbEntity
  8
RACCORDO
100
AcDbLine
 62
253
  6
CONTINUOUS
 10
10.4007229979
 20
-23.1226497308
 11
10.3949051681
 21
-23.7
  0
LINE
  5
5E0
100
AcDbEntity
  8
ASSI
100
AcDbLine
 62
253
  6
CONTINUOUS
 10
10.4007229979
 20
-23.1226497308
 11
10.3949051681
 21
-23.7
  0
LINE
  5
5E1
100
AcDbEntity
  8
RACCORDO
100
AcDbLine
 62
253
  6
CONTINUOUS
 10
10.65
 20
-23.4104851482
 11
10.645628166
 21
-23.8443375673
  0
LINE
  5
5E2
100
AcDbEntity
  8
ASSI
100
AcDbLine
 62
253
  6
CONTINUOUS
 10
10.65
 20
-23.4104851482
 11
10.645628166
 21
-23.8443375673
  0
LWPOLYLINE
  5
5E3
100
AcDbEntity
  8
RACCORDO
100
AcDbPolyline
 62
7
  6
CONTINUOUS
 90
4
 70
0
 10
10.65
 20
-24.2500042308
 10
10.6497168498
 20
-24.261899516
 10
10.6488680342
 20
-24.2737678556
 10
10.6474554741
 20
-24.2855823661
  0
LWPOLYLINE
  5
5E4
100
AcDbEntity
  8
ASSI
100
AcDbPolyline
 62
7
  6
CONTINUOUS
 90
4
 70
0
 10
10.65
 20
-24.2500042308
 10
10.6497168498
 20
-24.261899516
 10
10.6488680342
 20
-24.2737678556
 10
10.6474554741
 20
-24.2855823661
  0
LWPOLYLINE
  5
5E5
100
AcDbEntity
  8
RACCORDO
100
AcDbPolyline
 62
253
  6
CONTINUOUS
 90
31
 70
0
 10
10.645628166
 20
23.8443375673
 10
10.6452496104
 20
23.833039595
 10
10.6441904828
 20
23.821769291
 10
10.6424531063
 20
23.8105574212
 10
10.6400414049
 20
23.7994336121
 10
10.6369615346
 20
23.78842936
 10
10.6332224836
 20
23.7775778202
 10
10.6288349392
 20
23.7669096972
 10
10.6238105402
 20
23.7564530239
 10
10.6181628596
 20
23.746236105
 10
10.6119071671
 20
23.7362866999
 10
10.6050605925
 20
23.7266321754
 10
10.5976419842
 20
23.7172991519
 10
10.5896716801
 20
23.7083132018
 10
10.5811713853
 20
23.6996987826
 10
10.5721642949
 20
23.6914794042
 10
10.5626749912
 20
23.6836775075
 10
10.5527294041
 20
23.6763144193
 10
10.5423547212
 20
23.6694102704
 10
10.5315792888
 20
23.6629839239
 10
10.5204325308
 20
23.6570529269
 10
10.5089448938
 20
23.6516334796
 10
10.497147737
 20
23.6467403776
 10
10.4850733006
 20
23.6423869945
 10
10.472754621
 20
23.6385852371
 10
10.4602253856
 20
23.6353454907
 10
10.4475197828
 20
23.6326765842
 10
10.434672462
 20
23.6305857918
 10
10.4217184947
 20
23.6290788219
 10
10.408693281
 20
23.6281597935
 10
10.3956323968
 20
23.6278312164
  0
LWPOLYLINE
  5
5E6
100
AcDbEntity
  8
ASSI
100
AcDbPolyline
 62
253
  6
CONTINUOUS
 90
31
 70
0
 10
10.645628166
 20
23.8443375673
 10
10.6452496104
 20
23.833039595
 10
10.6441904828
 20
23.821769291
 10
10.6424531063
 20
23.8105574212
 10
10.6400414049
 20
23.7994336121
 10
10.6369615346
 20
23.78842936
 10
10.6332224836
 20
23.7775778202
 10
10.6288349392
 20
23.7669096972
 10
10.6238105402
 20
23.7564530239
 10
10.6181628596
 20
23.746236105
 10
10.6119071671
 20
23.7362866999
 10
10.6050605925
 20
23.7266321754
 10
10.5976419842
 20
23.7172991519
 10
10.5896716801
 20
23.7083132018
 10
10.5811713853
 20
23.6996987826
 10
10.5721642949
 20
23.6914794042
 10
10.5626749912
 20
23.6836775075
 10
10.5527294041
 20
23.6763144193
 10
10.5423547212
 20
23.6694102704
 10
10.5315792888
 20
23.6629839239
 10
10.5204325308
 20
23.6570529269
 10
10.5089448938
 20
23.6516334796
 10
10.497147737
 20
23.6467403776
 10
10.4850733006
 20
23.6423869945
 10
10.472754621
 20
23.6385852371
 10
10.4602253856
 20
23.6353454907
 10
10.4475197828
 20
23.6326765842
 10
10.434672462
 20
23.6305857918
 10
10.4217184947
 20
23.6290788219
 10
10.408693281
 20
23.6281597935
 10
10.3956323968
 20
23.6278312164
  0
LINE
  5
5E7
100
AcDbEntity
  8
DRAFT
100
AcDbLine
 62
7
  6
CONTINUOUS
 10
7.2988376746
 20
-20.9104703804
 11
7.3517786853
 21
-20.4335707644
  0
LINE
  5
5E8
100
AcDbEntity
  8
ASSI
100
AcDbLine
 62
7
  6
CONTINUOUS
 10
7.2988376746
 20
-20.9104703804
 11
7.3517786853
 21
-20.4335707644
  0
LINE
  5
5E9
100
AcDbEntity
  8
RACCORDO
100
AcDbLine
 62
7
  6
CONTINUOUS
 10
8.5
 20
-5.9
 11
8.4127084755
 21
-5.9872915245
  0
LINE
  5
5EA
100
AcDbEntity
  8
ASSI
100
AcDbLine
 62
7
  6
CONTINUOUS
 10
8.5
 20
-5.9
 11
8.4127084755
 21
-5.9872915245
  0
LINE
  5
5EB
100
AcDbEntity
  8
DRAFT
100
AcDbLine
 62
7
  6
CONTINUOUS
 10
4.5
 20
-10.9
 11
4.5795771341
 21
-10.8204228659
  0
LINE
  5
5EC
100
AcDbEntity
  8
ASSI
100
AcDbLine
 62
7
  6
CONTINUOUS
 10
4.5
 20
-10.9
 11
4.5795771341
 21
-10.8204228659
  0
LINE
  5
5ED
100
AcDbEntity
  8
0
100
AcDbLine
 62
7
  6
CONTINUOUS
 10
7.7
 20
9.55
 11
-7.7
 21
9.55
  0
LINE
  5
5EE
100
AcDbEntity
  8
DRAFT
100
AcDbLine
 62
7
  6
CONTINUOUS
 10
-8.3325462644
 20
9.5825462644
 11
-7.3325462644
 21
9.5825462644
  0
LINE
  5
5EF
100
AcDbEntity
  8
ASSI
100
AcDbLine
 62
7
  6
CONTINUOUS
 10
-8.3325462644
 20
9.5825462644
 11
-7.3325462644
 21
9.5825462644
  0
LINE
  5
5F0
100
AcDbEntity
  8
DRAFT
100
AcDbLine
 62
7
  6
CONTINUOUS
 10
7.4825462644
 20
9.5825462644
 11
8.3325462644
 21
9.5825462644
  0
LINE
  5
5F1
100
AcDbEntity
  8
ASSI
100
AcDbLine
 62
7
  6
CONTINUOUS
 10
7.4825462644
 20
9.5825462644
 11
8.3325462644
 21
9.5825462644
  0
LINE
  5
5F2
100
AcDbEntity
  8
DRAFT
100
AcDbLine
 62
7
  6
CONTINUOUS
 10
8.35
 20
9.6
 11
7.5
 21
9.6
  0
LINE
  5
5F3
100
AcDbEntity
  8
ASSI
100
AcDbLine
 62
7
  6
CONTINUOUS
 10
8.35
 20
9.6
 11
7.5
 21
9.6
  0
LINE
  5
5F4
100
AcDbEntity
  8
DRAFT
100
AcDbLine
 62
7
  6
CONTINUOUS
 10
-7.35
 20
9.6
 11
-8.35
 21
9.6
  0
LINE
  5
5F5
100
AcDbEntity
  8
ASSI
100
AcDbLine
 62
7
  6
CONTINUOUS
 10
-7.35
 20
9.6
 11
-8.35
 21
9.6
  0
LINE
  5
5F6
100
AcDbEntity
  8
0
100
AcDbLine
 62
7
  6
CONTINUOUS
 10
-6.05
 20
10.75
 11
6.05
 21
10.75
  0
LINE
  5
5F7
100
AcDbEntity
  8
RACCORDO
100
AcDbLine
 62
7
  6
CONTINUOUS
 10
6.5
 20
11.2
 11
6.05
 21
11.2
  0
LINE
  5
5F8
100
AcDbEntity
  8
ASSI
100
AcDbLine
 62
7
  6
CONTINUOUS
 10
6.5
 20
11.2
 11
6.05
 21
11.2
  0
LINE
  5
5F9
100
AcDbEntity
  8
RACCORDO
100
AcDbLine
 62
7
  6
CONTINUOUS
 10
-6.05
 20
11.2
 11
-6.5
 21
11.2
  0
LINE
  5
5FA
100
AcDbEntity
  8
ASSI
100
AcDbLine
 62
7
  6
CONTINUOUS
 10
-6.05
 20
11.2
 11
-6.5
 21
11.2
  0
LINE
  5
5FB
100
AcDbEntity
  8
0
100
AcDbLine
 62
7
  6
CONTINUOUS
 10
7.3209441873
 20
20.7113319946
 11
7.2988376746
 21
20.9104703804
  0
LINE
  5
5FC
100
AcDbEntity
  8
ASSI
100
AcDbLine
 62
7
  6
CONTINUOUS
 10
7.3209441873
 20
20.7113319946
 11
7.2988376746
 21
20.9104703804
  0
LWPOLYLINE
  5
5FD
100
AcDbEntity
  8
RACCORDO
100
AcDbPolyline
 62
253
  6
CONTINUOUS
 90
31
 70
0
 10
10.645628166
 20
-24.2456323968
 10
10.6452867588
 20
-24.2586847368
 10
10.6442634962
 20
-24.2717096311
 10
10.642559892
 20
-24.2846714057
 10
10.6401787618
 20
-24.2975371245
 10
10.6371256484
 20
-24.3102685897
 10
10.6334102087
 20
-24.3228227742
 10
10.6290436576
 20
-24.3351625782
 10
10.6240372277
 20
-24.3472569343
 10
10.6184044791
 20
-24.3590730125
 10
10.6121606774
 20
-24.370578613
 10
10.6053229956
 20
-24.3817419314
 10
10.5979103656
 20
-24.3925320106
 10
10.5899432233
 20
-24.4029191364
 10
10.5814433264
 20
-24.4128749736
 10
10.5724339046
 20
-24.422372308
 10
10.5629396114
 20
-24.4313851271
 10
10.552986508
 20
-24.4398886687
 10
10.5426019187
 20
-24.4478595768
 10
10.5318143284
 20
-24.4552759837
 10
10.5206533025
 20
-24.4621175595
 10
10.5091494467
 20
-24.4683655387
 10
10.497334301
 20
-24.4740027869
 10
10.4852402638
 20
-24.4790138424
 10
10.4729005077
 20
-24.4833849575
 10
10.4603488602
 20
-24.487104147
 10
10.4476197463
 20
-24.4901612081
 10
10.4347481067
 20
-24.4925477509
 10
10.4217692492
 20
-24.494257234
 10
10.4087187509
 20
-24.495284977
 10
10.3956323968
 20
-24.495628166
  0
LWPOLYLINE
  5
5FE
100
AcDbEntity
  8
ASSI
100
AcDbPolyline
 62
7
  6
CONTINUOUS
 90
31
 70
0
 10
10.645628166
 20
-24.2456323968
 10
10.6452867588
 20
-24.2586847368
 10
10.6442634962
 20
-24.2717096311
 10
10.642559892
 20
-24.2846714057
 10
10.6401787618
 20
-24.2975371245
 10
10.6371256484
 20
-24.3102685897
 10
10.6334102087
 20
-24.3228227742
 10
10.6290436576
 20
-24.3351625782
 10
10.6240372277
 20
-24.3472569343
 10
10.6184044791
 20
-24.3590730125
 10
10.6121606774
 20
-24.370578613
 10
10.6053229956
 20
-24.3817419314
 10
10.5979103656
 20
-24.3925320106
 10
10.5899432233
 20
-24.4029191364
 10
10.5814433264
 20
-24.4128749736
 10
10.5724339046
 20
-24.422372308
 10
10.5629396114
 20
-24.4313851271
 10
10.552986508
 20
-24.4398886687
 10
10.5426019187
 20
-24.4478595768
 10
10.5318143284
 20
-24.4552759837
 10
10.5206533025
 20
-24.4621175595
 10
10.5091494467
 20
-24.4683655387
 10
10.497334301
 20
-24.4740027869
 10
10.4852402638
 20
-24.4790138424
 10
10.4729005077
 20
-24.4833849575
 10
10.4603488602
 20
-24.487104147
 10
10.4476197463
 20
-24.4901612081
 10
10.4347481067
 20
-24.4925477509
 10
10.4217692492
 20
-24.494257234
 10
10.4087187509
 20
-24.495284977
 10
10.3956323968
 20
-24.495628166
  0
LINE
  5
5FF
100
AcDbEntity
  8
ASSI
100
AcDbLine
 62
7
  6
CONTINUOUS
 10
-4.2612377117
 20
-23.6224696064
 11
-4.2346745345
 21
-23.5920986856
  0
LINE
  5
600
100
AcDbEntity
  8
ASSI
100
AcDbLine
 62
7
  6
CONTINUOUS
 10
-4.2346745345
 20
-23.5920986856
 11
-4.2042797782
 21
-23.5578770694
  0
LINE
  5
601
100
AcDbEntity
  8
ASSI
100
AcDbLine
 62
7
  6
CONTINUOUS
 10
-4.2042797782
 20
-23.5578770694
 11
-4.17005861
 21
-23.5198277667
  0
LINE
  5
602
100
AcDbEntity
  8
ASSI
100
AcDbLine
 62
7
  6
CONTINUOUS
 10
-4.17005861
 20
-23.5198277667
 11
-4.1117198582
 21
-23.4556932073
  0
LINE
  5
603
100
AcDbEntity
  8
ASSI
100
AcDbLine
 62
7
  6
CONTINUOUS
 10
-4.1117198582
 20
-23.4556932073
 11
-3.9279699877
 21
-23.2563578147
  0
LINE
  5
604
100
AcDbEntity
  8
RACCORDO
100
AcDbLine
 62
253
  6
CONTINUOUS
 10
6.2123556268
 20
-9.8876900647
 11
6.2000456915
 21
-9.9
  0
LINE
  5
605
100
AcDbEntity
  8
ASSI
100
AcDbLine
 62
253
  6
CONTINUOUS
 10
6.2123556268
 20
-9.8876900647
 11
6.2000456915
 21
-9.9
  0
LINE
  5
606
100
AcDbEntity
  8
DRAFT
100
AcDbLine
 62
7
  6
CONTINUOUS
 10
8.5
 20
-7.9
 11
8.4101132618
 21
-7.9898867382
  0
LINE
  5
607
100
AcDbEntity
  8
ASSI
100
AcDbLine
 62
7
  6
CONTINUOUS
 10
8.5
 20
-7.9
 11
8.4101132618
 21
-7.9898867382
  0
LINE
  5
608
100
AcDbEntity
  8
RACCORDO
100
AcDbLine
 62
253
  6
CONTINUOUS
 10
6.5123099353
 20
-10.1876443732
 11
6.5
 21
-10.1999543085
  0
LINE
  5
609
100
AcDbEntity
  8
ASSI
100
AcDbLine
 62
253
  6
CONTINUOUS
 10
6.5123099353
 20
-10.1876443732
 11
6.5
 21
-10.1999543085
  0
LINE
  5
60A
100
AcDbEntity
  8
DRAFT
100
AcDbLine
 62
7
  6
CONTINUOUS
 10
9.65
 20
-8.8223308767
 11
9.4946499221
 21
-8.9
  0
LINE
  5
60B
100
AcDbEntity
  8
ASSI
100
AcDbLine
 62
7
  6
CONTINUOUS
 10
9.65
 20
-8.8223308767
 11
9.4946499221
 21
-8.9
  0
LINE
  5
60C
100
AcDbEntity
  8
RACCORDO
100
AcDbLine
 62
7
  6
CONTINUOUS
 10
6.5123099353
 20
-10.8126856306
 11
6.5
 21
-10.8188401295
  0
LINE
  5
60D
100
AcDbEntity
  8
ASSI
100
AcDbLine
 62
7
  6
CONTINUOUS
 10
6.5123099353
 20
-10.8126856306
 11
6.5
 21
-10.8188401295
  0
LINE
  5
60E
100
AcDbEntity
  8
RACCORDO
100
AcDbLine
 62
7
  6
CONTINUOUS
 10
-9.65
 20
11.5776691233
 11
-9.2122871968
 21
11.5881641073
  0
LINE
  5
60F
100
AcDbEntity
  8
ASSI
100
AcDbLine
 62
7
  6
CONTINUOUS
 10
-9.65
 20
11.5776691233
 11
-9.2122871968
 21
11.5881641073
  0
LINE
  5
610
100
AcDbEntity
  8
RACCORDO
100
AcDbLine
 62
7
  6
CONTINUOUS
 10
9.2122871968
 20
12.4118358927
 11
9.65
 21
12.4223308767
  0
LINE
  5
611
100
AcDbEntity
  8
ASSI
100
AcDbLine
 62
7
  6
CONTINUOUS
 10
9.2122871968
 20
12.4118358927
 11
9.65
 21
12.4223308767
  0
LWPOLYLINE
  5
612
100
AcDbEntity
  8
RACCORDO
100
AcDbPolyline
 62
253
  6
CONTINUOUS
 90
40
 70
0
 10
6.2123556268
 20
12.8877357561
 10
6.2361385987
 20
12.8881909062
 10
6.2599071514
 20
12.8896081277
 10
6.283661285
 20
12.8919874208
 10
6.3074567775
 20
12.8953296346
 10
6.3312378508
 20
12.8996339199
 10
6.3548371708
 20
12.9048977291
 10
6.3782507333
 20
12.9111322298
 10
6.4014825426
 20
12.9183262544
 10
6.4243772773
 20
12.9264437525
 10
6.4469293645
 20
12.9354942028
 10
6.4691443772
 20
12.9454681265
 10
6.4908837125
 20
12.9563010368
 10
6.5121337842
 20
12.967994363
 10
6.5329081785
 20
12.9805466757
 10
6.5531090521
 20
12.9938891997
 10
6.5727294958
 20
13.0080215247
 10
6.5917764187
 20
13.022944061
 10
6.6101727048
 20
13.0385892642
 10
6.6279167925
 20
13.0549588296
 10
6.6450102435
 20
13.0720510619
 10
6.6613806259
 20
13.0897933308
 10
6.6770261596
 20
13.1081870444
 10
6.6919486248
 20
13.1272307947
 10
6.7060809307
 20
13.1468477268
 10
6.7194235084
 20
13.1670446059
 10
6.7319759269
 20
13.1878146669
 10
6.7436698016
 20
13.2090607604
 10
6.7545037875
 20
13.2307962874
 10
6.7644792297
 20
13.2530078469
 10
6.7735317788
 20
13.2755580858
 10
6.7816521937
 20
13.2984529456
 10
6.7888497155
 20
13.3216864848
 10
6.7950877176
 20
13.3451035261
 10
6.8003550403
 20
13.3687080694
 10
6.8046628434
 20
13.3924961148
 10
6.80800798
 20
13.4163004856
 10
6.8103894011
 20
13.4400654562
 10
6.8118081558
 20
13.463846752
 10
6.8122642439
 20
13.4876443732
  0
LWPOLYLINE
  5
613
100
AcDbEntity
  8
ASSI
100
AcDbPolyline
 62
253
  6
CONTINUOUS
 90
40
 70
0
 10
6.2123556268
 20
12.8877357561
 10
6.2361385987
 20
12.8881909062
 10
6.2599071514
 20
12.8896081277
 10
6.283661285
 20
12.8919874208
 10
6.3074567775
 20
12.8953296346
 10
6.3312378508
 20
12.8996339199
 10
6.3548371708
 20
12.9048977291
 10
6.3782507333
 20
12.9111322298
 10
6.4014825426
 20
12.9183262544
 10
6.4243772773
 20
12.9264437525
 10
6.4469293645
 20
12.9354942028
 10
6.4691443772
 20
12.9454681265
 10
6.4908837125
 20
12.9563010368
 10
6.5121337842
 20
12.967994363
 10
6.5329081785
 20
12.9805466757
 10
6.5531090521
 20
12.9938891997
 10
6.5727294958
 20
13.0080215247
 10
6.5917764187
 20
13.022944061
 10
6.6101727048
 20
13.0385892642
 10
6.6279167925
 20
13.0549588296
 10
6.6450102435
 20
13.0720510619
 10
6.6613806259
 20
13.0897933308
 10
6.6770261596
 20
13.1081870444
 10
6.6919486248
 20
13.1272307947
 10
6.7060809307
 20
13.1468477268
 10
6.7194235084
 20
13.1670446059
 10
6.7319759269
 20
13.1878146669
 10
6.7436698016
 20
13.2090607604
 10
6.7545037875
 20
13.2307962874
 10
6.7644792297
 20
13.2530078469
 10
6.7735317788
 20
13.2755580858
 10
6.7816521937
 20
13.2984529456
 10
6.7888497155
 20
13.3216864848
 10
6.7950877176
 20
13.3451035261
 10
6.8003550403
 20
13.3687080694
 10
6.8046628434
 20
13.3924961148
 10
6.80800798
 20
13.4163004856
 10
6.8103894011
 20
13.4400654562
 10
6.8118081558
 20
13.463846752
 10
6.8122642439
 20
13.4876443732
  0
LINE
  5
614
100
AcDbEntity
  8
RACCORDO
100
AcDbLine
 62
253
  6
CONTINUOUS
 10
6.5
 20
11.2878679656
 11
6.05
 21
11.2878679656
  0
LINE
  5
615
100
AcDbEntity
  8
ASSI
100
AcDbLine
 62
253
  6
CONTINUOUS
 10
6.5
 20
11.2878679656
 11
6.05
 21
11.2878679656
  0
LINE
  5
616
100
AcDbEntity
  8
RACCORDO
100
AcDbLine
 62
253
  6
CONTINUOUS
 10
-6.05
 20
11.2878679656
 11
-6.5
 21
11.2878679656
  0
LINE
  5
617
100
AcDbEntity
  8
ASSI
100
AcDbLine
 62
253
  6
CONTINUOUS
 10
-6.05
 20
11.2878679656
 11
-6.5
 21
11.2878679656
  0
LINE
  5
618
100
AcDbEntity
  8
0
100
AcDbLine
 62
7
  6
CONTINUOUS
 10
-6.05
 20
11.45
 11
6.05
 21
11.45
  0
LINE
  5
619
100
AcDbEntity
  8
DRAFT
100
AcDbLine
 62
7
  6
CONTINUOUS
 10
-9.4946499221
 20
11.5
 11
-7.35
 21
11.5
  0
LINE
  5
61A
100
AcDbEntity
  8
ASSI
100
AcDbLine
 62
7
  6
CONTINUOUS
 10
-9.4946499221
 20
11.5
 11
-7.35
 21
11.5
  0
LINE
  5
61B
100
AcDbEntity
  8
DRAFT
100
AcDbLine
 62
7
  6
CONTINUOUS
 10
7.5
 20
11.5
 11
9.4946499221
 21
11.5
  0
LINE
  5
61C
100
AcDbEntity
  8
ASSI
100
AcDbLine
 62
7
  6
CONTINUOUS
 10
7.5
 20
11.5
 11
9.4946499221
 21
11.5
  0
LINE
  5
61D
100
AcDbEntity
  8
DRAFT
100
AcDbLine
 62
7
  6
CONTINUOUS
 10
-7.3325462644
 20
11.5174537356
 11
-6.5
 21
11.5174537356
  0
LINE
  5
61E
100
AcDbEntity
  8
ASSI
100
AcDbLine
 62
7
  6
CONTINUOUS
 10
-7.3325462644
 20
11.5174537356
 11
-6.5
 21
11.5174537356
  0
LINE
  5
61F
100
AcDbEntity
  8
DRAFT
100
AcDbLine
 62
7
  6
CONTINUOUS
 10
6.5
 20
11.5174537356
 11
7.4825462644
 21
11.5174537356
  0
LINE
  5
620
100
AcDbEntity
  8
ASSI
100
AcDbLine
 62
7
  6
CONTINUOUS
 10
6.5
 20
11.5174537356
 11
7.4825462644
 21
11.5174537356
  0
LINE
  5
621
100
AcDbEntity
  8
RACCORDO
100
AcDbLine
 62
7
  6
CONTINUOUS
 10
-8.9303794106
 20
11.5898867382
 11
-6.5
 21
11.5898867382
  0
LINE
  5
622
100
AcDbEntity
  8
ASSI
100
AcDbLine
 62
7
  6
CONTINUOUS
 10
-8.9303794106
 20
11.5898867382
 11
-6.5
 21
11.5898867382
  0
LINE
  5
623
100
AcDbEntity
  8
RACCORDO
100
AcDbLine
 62
7
  6
CONTINUOUS
 10
8.9303794106
 20
11.5898867382
 11
6.5
 21
11.5898867382
  0
LINE
  5
624
100
AcDbEntity
  8
ASSI
100
AcDbLine
 62
7
  6
CONTINUOUS
 10
8.9303794106
 20
11.5898867382
 11
6.5
 21
11.5898867382
  0
LINE
  5
625
100
AcDbEntity
  8
0
100
AcDbLine
 62
7
  6
CONTINUOUS
 10
-6.5
 20
12.3
 11
-6.05
 21
12.3
  0
LINE
  5
626
100
AcDbEntity
  8
ASSI
100
AcDbLine
 62
7
  6
CONTINUOUS
 10
-6.5
 20
12.3
 11
-6.05
 21
12.3
  0
LINE
  5
627
100
AcDbEntity
  8
0
100
AcDbLine
 62
7
  6
CONTINUOUS
 10
6.05
 20
12.3
 11
6.5
 21
12.3
  0
LINE
  5
628
100
AcDbEntity
  8
ASSI
100
AcDbLine
 62
7
  6
CONTINUOUS
 10
6.05
 20
12.3
 11
6.5
 21
12.3
  0
LINE
  5
629
100
AcDbEntity
  8
RACCORDO
100
AcDbLine
 62
7
  6
CONTINUOUS
 10
-8.9303794106
 20
12.4101132618
 11
-7.4101132618
 21
12.4101132618
  0
LINE
  5
62A
100
AcDbEntity
  8
ASSI
100
AcDbLine
 62
7
  6
CONTINUOUS
 10
-8.9303794106
 20
12.4101132618
 11
-7.4101132618
 21
12.4101132618
  0
LINE
  5
62B
100
AcDbEntity
  8
RACCORDO
100
AcDbLine
 62
7
  6
CONTINUOUS
 10
8.9303794106
 20
12.4101132618
 11
7.4101132618
 21
12.4101132618
  0
LINE
  5
62C
100
AcDbEntity
  8
ASSI
100
AcDbLine
 62
7
  6
CONTINUOUS
 10
8.9303794106
 20
12.4101132618
 11
7.4101132618
 21
12.4101132618
  0
LINE
  5
62D
100
AcDbEntity
  8
DRAFT
100
AcDbLine
 62
7
  6
CONTINUOUS
 10
7.5
 20
12.5
 11
9.4946499221
 21
12.5
  0
LINE
  5
62E
100
AcDbEntity
  8
ASSI
100
AcDbLine
 62
7
  6
CONTINUOUS
 10
7.5
 20
12.5
 11
9.4946499221
 21
12.5
  0
LINE
  5
62F
100
AcDbEntity
  8
DRAFT
100
AcDbLine
 62
7
  6
CONTINUOUS
 10
-7.5
 20
12.5
 11
-9.4946499221
 21
12.5
  0
LINE
  5
630
100
AcDbEntity
  8
ASSI
100
AcDbLine
 62
7
  6
CONTINUOUS
 10
-7.5
 20
12.5
 11
-9.4946499221
 21
12.5
  0
LINE
  5
631
100
AcDbEntity
  8
RACCORDO
100
AcDbLine
 62
253
  6
CONTINUOUS
 10
6.2123556268
 20
12.8877357561
 11
6.05
 21
12.8877357561
  0
LINE
  5
632
100
AcDbEntity
  8
ASSI
100
AcDbLine
 62
253
  6
CONTINUOUS
 10
6.2123556268
 20
12.8877357561
 11
6.05
 21
12.8877357561
  0
LINE
  5
633
100
AcDbEntity
  8
RACCORDO
100
AcDbLine
 62
253
  6
CONTINUOUS
 10
-6.05
 20
12.8877357561
 11
-6.2123556268
 21
12.8877357561
  0
LINE
  5
634
100
AcDbEntity
  8
ASSI
100
AcDbLine
 62
253
  6
CONTINUOUS
 10
-6.05
 20
12.8877357561
 11
-6.2123556268
 21
12.8877357561
  0
LINE
  5
635
100
AcDbEntity
  8
0
100
AcDbLine
 62
7
  6
CONTINUOUS
 10
-6.05
 20
13.05
 11
6.05
 21
13.05
  0
LINE
  5
636
100
AcDbEntity
  8
RACCORDO
100
AcDbLine
 62
7
  6
CONTINUOUS
 10
9.2122871968
 20
11.5881641073
 11
9.65
 21
11.5776691233
  0
LINE
  5
637
100
AcDbEntity
  8
ASSI
100
AcDbLine
 62
7
  6
CONTINUOUS
 10
9.2122871968
 20
11.5881641073
 11
9.65
 21
11.5776691233
  0
LINE
  5
638
100
AcDbEntity
  8
RACCORDO
100
AcDbLine
 62
7
  6
CONTINUOUS
 10
-9.65
 20
12.4223308767
 11
-9.2122871968
 21
12.4118358927
  0
LINE
  5
639
100
AcDbEntity
  8
ASSI
100
AcDbLine
 62
7
  6
CONTINUOUS
 10
-9.65
 20
12.4223308767
 11
-9.2122871968
 21
12.4118358927
  0
LWPOLYLINE
  5
63A
100
AcDbEntity
  8
RACCORDO
100
AcDbPolyline
 62
253
  6
CONTINUOUS
 90
31
 70
0
 10
-6.2123556268
 20
13.1876900647
 10
-6.2280710042
 20
13.1880969714
 10
-6.2437415919
 20
13.1893261439
 10
-6.2593244403
 20
13.191374009
 10
-6.2747769086
 20
13.1942347394
 10
-6.2900566182
 20
13.1979003094
 10
-6.3051215731
 20
13.2023605005
 10
-6.3199307566
 20
13.2076029693
 10
-6.3344434341
 20
13.2136130801
 10
-6.3486191567
 20
13.220373842
 10
-6.3624191205
 20
13.2278663725
 10
-6.3758058038
 20
13.2360698985
 10
-6.3887423412
 20
13.2449614381
 10
-6.4011929689
 20
13.2545158657
 10
-6.4131244751
 20
13.2647071133
 10
-6.4245057064
 20
13.2755082492
 10
-6.4353053131
 20
13.2868893252
 10
-6.4454941673
 20
13.2988194201
 10
-6.4550462941
 20
13.3112683007
 10
-6.4639357988
 20
13.3242029688
 10
-6.4721374311
 20
13.3375874674
 10
-6.4796284907
 20
13.3513854218
 10
-6.4863882297
 20
13.3655595081
 10
-6.4923976352
 20
13.3800708186
 10
-6.4976396803
 20
13.3948789839
 10
-6.5020997027
 20
13.4099434274
 10
-6.5057652481
 20
13.4252230332
 10
-6.5086259779
 20
13.4406754779
 10
-6.5106738415
 20
13.4562582702
 10
-6.5119030227
 20
13.4719288849
 10
-6.5123099353
 20
13.4876443732
  0
LWPOLYLINE
  5
63B
100
AcDbEntity
  8
ASSI
100
AcDbPolyline
 62
253
  6
CONTINUOUS
 90
31
 70
0
 10
-6.2123556268
 20
13.1876900647
 10
-6.2280710042
 20
13.1880969714
 10
-6.2437415919
 20
13.1893261439
 10
-6.2593244403
 20
13.191374009
 10
-6.2747769086
 20
13.1942347394
 10
-6.2900566182
 20
13.1979003094
 10
-6.3051215731
 20
13.2023605005
 10
-6.3199307566
 20
13.2076029693
 10
-6.3344434341
 20
13.2136130801
 10
-6.3486191567
 20
13.220373842
 10
-6.3624191205
 20
13.2278663725
 10
-6.3758058038
 20
13.2360698985
 10
-6.3887423412
 20
13.2449614381
 10
-6.4011929689
 20
13.2545158657
 10
-6.4131244751
 20
13.2647071133
 10
-6.4245057064
 20
13.2755082492
 10
-6.4353053131
 20
13.2868893252
 10
-6.4454941673
 20
13.2988194201
 10
-6.4550462941
 20
13.3112683007
 10
-6.4639357988
 20
13.3242029688
 10
-6.4721374311
 20
13.3375874674
 10
-6.4796284907
 20
13.3513854218
 10
-6.4863882297
 20
13.3655595081
 10
-6.4923976352
 20
13.3800708186
 10
-6.4976396803
 20
13.3948789839
 10
-6.5020997027
 20
13.4099434274
 10
-6.5057652481
 20
13.4252230332
 10
-6.5086259779
 20
13.4406754779
 10
-6.5106738415
 20
13.4562582702
 10
-6.5119030227
 20
13.4719288849
 10
-6.5123099353
 20
13.4876443732
  0
LINE
  5
63C
100
AcDbEntity
  8
ASSI
100
AcDbLine
 62
7
  6
CONTINUOUS
 10
-3.9279699877
 20
23.2563578147
 11
-4.1319393381
 21
23.4778438168
  0
LINE
  5
63D
100
AcDbEntity
  8
ASSI
100
AcDbLine
 62
7
  6
CONTINUOUS
 10
-4.1319393381
 20
23.4778438168
 11
-4.1698677157
 21
23.5196167203
  0
LINE
  5
63E
100
AcDbEntity
  8
ASSI
100
AcDbLine
 62
7
  6
CONTINUOUS
 10
-4.1698677157
 20
23.5196167203
 11
-4.2040449926
 21
23.5576149814
  0
LINE
  5
63F
100
AcDbEntity
  8
ASSI
100
AcDbLine
 62
7
  6
CONTINUOUS
 10
-4.2040449926
 20
23.5576149814
 11
-4.2344035537
 21
23.5917914252
  0
LWPOLYLINE
  5
640
100
AcDbEntity
  8
ASSI
100
AcDbPolyline
 62
7
  6
CONTINUOUS
 90
18
 70
0
 10
-4.2344035537
 20
23.5917914252
 10
-4.2609530912
 20
23.6221414657
 10
-4.272867965
 20
23.6359699945
 10
-4.2838985218
 20
23.6489231118
 10
-4.2940570925
 20
23.6610025701
 10
-4.3033924483
 20
23.6722856337
 10
-4.3119084242
 20
23.6827728937
 10
-4.3196191733
 20
23.6924637589
 10
-4.3265725949
 20
23.70143372
 10
-4.3327837712
 20
23.7097020781
 10
-4.3382403763
 20
23.7172495321
 10
-4.3429426829
 20
23.7240936689
 10
-4.3469006534
 20
23.7302274091
 10
-4.350124195
 20
23.735657832
 10
-4.3526217143
 20
23.7404237625
 10
-4.3544093029
 20
23.7445381423
 10
-4.3555066314
 20
23.7479880297
 10
-4.3559327327
 20
23.7507734247
  0
LINE
  5
641
100
AcDbEntity
  8
RACCORDO
100
AcDbLine
 62
7
  6
CONTINUOUS
 10
10.6474554741
 20
-24.2855823661
 11
10.6454823677
 21
-24.2973162875
  0
LWPOLYLINE
  5
642
100
AcDbEntity
  8
ASSI
100
AcDbPolyline
 62
7
  6
CONTINUOUS
 90
6
 70
0
 10
10.6474554741
 20
-24.2855823661
 10
10.6454823677
 20
-24.2973162875
 10
10.6429531817
 20
-24.3089430388
 10
10.6398736417
 20
-24.320436279
 10
10.6362507213
 20
-24.3317699738
 10
10.6320926258
 20
-24.3429184493
  0
LINE
  5
643
100
AcDbEntity
  8
DRAFT
100
AcDbLine
 62
7
  6
CONTINUOUS
 10
8.25
 20
-20.9
 11
8.2465127091
 21
-20.9104703804
  0
LINE
  5
644
100
AcDbEntity
  8
ASSI
100
AcDbLine
 62
7
  6
CONTINUOUS
 10
8.25
 20
-20.9
 11
8.2465127091
 21
-20.9104703804
  0
LINE
  5
645
100
AcDbEntity
  8
ASSI
100
AcDbLine
 62
7
  6
CONTINUOUS
 10
-4.4
 20
-23.8
 11
-4.3563493531
 21
-23.7563493531
  0
LINE
  5
646
100
AcDbEntity
  8
RACCORDO
100
AcDbLine
 62
253
  6
CONTINUOUS
 10
6.2123556268
 20
13.1876900647
 11
-6.2123556268
 21
13.1876900647
  0
LINE
  5
647
100
AcDbEntity
  8
ASSI
100
AcDbLine
 62
253
  6
CONTINUOUS
 10
6.2123556268
 20
13.1876900647
 11
-6.2123556268
 21
13.1876900647
  0
LINE
  5
648
100
AcDbEntity
  8
RACCORDO
100
AcDbLine
 62
7
  6
CONTINUOUS
 10
-6.2000456915
 20
13.2
 11
6.2000456915
 21
13.2
  0
LINE
  5
649
100
AcDbEntity
  8
ASSI
100
AcDbLine
 62
7
  6
CONTINUOUS
 10
-6.2000456915
 20
13.2
 11
6.2000456915
 21
13.2
  0
LINE
  5
64A
100
AcDbEntity
  8
RACCORDO
100
AcDbLine
 62
253
  6
CONTINUOUS
 10
-6.8122642439
 20
13.4876443732
 11
-6.5123099353
 21
13.4876443732
  0
LINE
  5
64B
100
AcDbEntity
  8
ASSI
100
AcDbLine
 62
253
  6
CONTINUOUS
 10
-6.8122642439
 20
13.4876443732
 11
-6.5123099353
 21
13.4876443732
  0
LINE
  5
64C
100
AcDbEntity
  8
RACCORDO
100
AcDbLine
 62
253
  6
CONTINUOUS
 10
6.8122642439
 20
13.4876443732
 11
6.5123099353
 21
13.4876443732
  0
LINE
  5
64D
100
AcDbEntity
  8
ASSI
100
AcDbLine
 62
253
  6
CONTINUOUS
 10
6.8122642439
 20
13.4876443732
 11
6.5123099353
 21
13.4876443732
  0
LINE
  5
64E
100
AcDbEntity
  8
RACCORDO
100
AcDbLine
 62
7
  6
CONTINUOUS
 10
-6.9101323002
 20
13.8101132618
 11
-6.8122642439
 21
13.8101132618
  0
LINE
  5
64F
100
AcDbEntity
  8
ASSI
100
AcDbLine
 62
7
  6
CONTINUOUS
 10
-6.9101323002
 20
13.8101132618
 11
-6.8122642439
 21
13.8101132618
  0
LINE
  5
650
100
AcDbEntity
  8
RACCORDO
100
AcDbLine
 62
7
  6
CONTINUOUS
 10
6.8122642439
 20
13.8101132618
 11
6.9101323002
 21
13.8101132618
  0
LINE
  5
651
100
AcDbEntity
  8
ASSI
100
AcDbLine
 62
7
  6
CONTINUOUS
 10
6.8122642439
 20
13.8101132618
 11
6.9101323002
 21
13.8101132618
  0
LINE
  5
652
100
AcDbEntity
  8
DRAFT
100
AcDbLine
 62
7
  6
CONTINUOUS
 10
-6.5
 20
13.8188401295
 11
6.5
 21
13.8188401295
  0
LINE
  5
653
100
AcDbEntity
  8
ASSI
100
AcDbLine
 62
7
  6
CONTINUOUS
 10
-6.5
 20
13.8188401295
 11
6.5
 21
13.8188401295
  0
LINE
  5
654
100
AcDbEntity
  8
RACCORDO
100
AcDbLine
 62
7
  6
CONTINUOUS
 10
-7.0000190385
 20
13.9
 11
-3.5
 21
13.9
  0
LINE
  5
655
100
AcDbEntity
  8
ASSI
100
AcDbLine
 62
7
  6
CONTINUOUS
 10
-7.0000190385
 20
13.9
 11
-3.5
 21
13.9
  0
LINE
  5
656
100
AcDbEntity
  8
RACCORDO
100
AcDbLine
 62
7
  6
CONTINUOUS
 10
3.5
 20
13.9
 11
7.0000190385
 21
13.9
  0
LINE
  5
657
100
AcDbEntity
  8
ASSI
100
AcDbLine
 62
7
  6
CONTINUOUS
 10
3.5
 20
13.9
 11
7.0000190385
 21
13.9
  0
LINE
  5
658
100
AcDbEntity
  8
DRAFT
100
AcDbLine
 62
7
  6
CONTINUOUS
 10
-3.5
 20
13.9052361207
 11
3.5
 21
13.9052361207
  0
LINE
  5
659
100
AcDbEntity
  8
ASSI
100
AcDbLine
 62
7
  6
CONTINUOUS
 10
-3.5
 20
13.9052361207
 11
3.5
 21
13.9052361207
  0
LINE
  5
65A
100
AcDbEntity
  8
ASSI
100
AcDbLine
 62
7
  6
CONTINUOUS
 10
3.4
 20
14.6
 11
-3.4
 21
14.6
  0
LINE
  5
65B
100
AcDbEntity
  8
DRAFT
100
AcDbLine
 62
7
  6
CONTINUOUS
 10
-9.4946499221
 20
14.7
 11
-3.5
 21
14.7
  0
LINE
  5
65C
100
AcDbEntity
  8
ASSI
100
AcDbLine
 62
7
  6
CONTINUOUS
 10
-9.4946499221
 20
14.7
 11
-3.5
 21
14.7
  0
LINE
  5
65D
100
AcDbEntity
  8
DRAFT
100
AcDbLine
 62
7
  6
CONTINUOUS
 10
3.5
 20
14.7
 11
9.4946499221
 21
14.7
  0
LINE
  5
65E
100
AcDbEntity
  8
ASSI
100
AcDbLine
 62
7
  6
CONTINUOUS
 10
3.5
 20
14.7
 11
9.4946499221
 21
14.7
  0
LINE
  5
65F
100
AcDbEntity
  8
RACCORDO
100
AcDbLine
 62
253
  6
CONTINUOUS
 10
9.5212892833
 20
14.7799830745
 11
3.5
 21
14.7799830745
  0
LINE
  5
660
100
AcDbEntity
  8
ASSI
100
AcDbLine
 62
253
  6
CONTINUOUS
 10
9.5212892833
 20
14.7799830745
 11
3.5
 21
14.7799830745
  0
LINE
  5
661
100
AcDbEntity
  8
RACCORDO
100
AcDbLine
 62
253
  6
CONTINUOUS
 10
-3.5
 20
14.7799830745
 11
-9.5212892833
 21
14.7799830745
  0
LINE
  5
662
100
AcDbEntity
  8
ASSI
100
AcDbLine
 62
253
  6
CONTINUOUS
 10
-3.5
 20
14.7799830745
 11
-9.5212892833
 21
14.7799830745
  0
LINE
  5
663
100
AcDbEntity
  8
DRAFT
100
AcDbLine
 62
7
  6
CONTINUOUS
 10
7.5
 20
11.5
 11
7.4825462644
 21
11.5174537356
  0
LINE
  5
664
100
AcDbEntity
  8
ASSI
100
AcDbLine
 62
7
  6
CONTINUOUS
 10
7.5
 20
11.5
 11
7.4825462644
 21
11.5174537356
  0
LINE
  5
665
100
AcDbEntity
  8
ASSI
100
AcDbLine
 62
7
  6
CONTINUOUS
 10
-4.4
 20
23.8
 11
-4.3563493531
 21
23.7563493531
  0
LINE
  5
666
100
AcDbEntity
  8
RACCORDO
100
AcDbLine
 62
253
  6
CONTINUOUS
 10
6.2123556268
 20
13.1876900647
 11
6.2000456915
 21
13.2
  0
LINE
  5
667
100
AcDbEntity
  8
ASSI
100
AcDbLine
 62
253
  6
CONTINUOUS
 10
6.2123556268
 20
13.1876900647
 11
6.2000456915
 21
13.2
  0
LINE
  5
668
100
AcDbEntity
  8
RACCORDO
100
AcDbLine
 62
253
  6
CONTINUOUS
 10
6.5123099353
 20
13.4876443732
 11
6.5
 21
13.4999543085
  0
LINE
  5
669
100
AcDbEntity
  8
ASSI
100
AcDbLine
 62
253
  6
CONTINUOUS
 10
6.5123099353
 20
13.4876443732
 11
6.5
 21
13.4999543085
  0
LINE
  5
66A
100
AcDbEntity
  8
DRAFT
100
AcDbLine
 62
7
  6
CONTINUOUS
 10
8.2465127091
 20
20.9104703804
 11
8.25
 21
20.9
  0
LINE
  5
66B
100
AcDbEntity
  8
ASSI
100
AcDbLine
 62
7
  6
CONTINUOUS
 10
8.2465127091
 20
20.9104703804
 11
8.25
 21
20.9
  0
LWPOLYLINE
  5
66C
100
AcDbEntity
  8
RACCORDO
100
AcDbPolyline
 62
7
  6
CONTINUOUS
 90
5
 70
0
 10
10.6454823677
 20
24.2973162875
 10
10.6474554741
 20
24.2855823661
 10
10.6488680342
 20
24.2737678556
 10
10.6497168498
 20
24.261899516
 10
10.65
 20
24.2500042308
  0
LWPOLYLINE
  5
66D
100
AcDbEntity
  8
RACCORDO
100
AcDbPolyline
 62
7
  6
CONTINUOUS
 90
26
 70
0
 10
10.6454823677
 20
-24.2973162875
 10
10.6429531817
 20
-24.3089430388
 10
10.6398736417
 20
-24.320436279
 10
10.6362507213
 20
-24.3317699738
 10
10.6320926258
 20
-24.3429184493
 10
10.6274087722
 20
-24.3538564463
 10
10.6222097688
 20
-24.3645591876
 10
10.6165073916
 20
-24.3750024283
 10
10.6103145581
 20
-24.3851625059
 10
10.6036452955
 20
-24.3950164051
 10
10.5965147107
 20
-24.4045418038
 10
10.5889389589
 20
-24.4137171191
 10
10.5809352005
 20
-24.4225215661
 10
10.5725215661
 20
-24.4309352005
 10
10.5637171191
 20
-24.4389389589
 10
10.5545418038
 20
-24.4465147107
 10
10.5450164051
 20
-24.4536452955
 10
10.5351625059
 20
-24.4603145581
 10
10.5250024283
 20
-24.4665073916
 10
10.5145591876
 20
-24.4722097688
 10
10.5038564463
 20
-24.4774087722
 10
10.4929184493
 20
-24.4820926258
 10
10.4817699738
 20
-24.4862507213
 10
10.470436279
 20
-24.4898736417
 10
10.4589430388
 20
-24.4929531817
 10
10.4473162875
 20
-24.4954823677
  0
LINE
  5
66E
100
AcDbEntity
  8
0
100
AcDbLine
 62
7
  6
CONTINUOUS
 10
3.5
 20
15.0
 11
3.4
 21
15.0
  0
LINE
  5
66F
100
AcDbEntity
  8
ASSI
100
AcDbLine
 62
7
  6
CONTINUOUS
 10
3.5
 20
15.0
 11
3.4
 21
15.0
  0
LINE
  5
670
100
AcDbEntity
  8
0
100
AcDbLine
 62
7
  6
CONTINUOUS
 10
-3.4
 20
15.0
 11
-3.5
 21
15.0
  0
LINE
  5
671
100
AcDbEntity
  8
ASSI
100
AcDbLine
 62
7
  6
CONTINUOUS
 10
-3.4
 20
15.0
 11
-3.5
 21
15.0
  0
LINE
  5
672
100
AcDbEntity
  8
0
100
AcDbLine
 62
7
  6
CONTINUOUS
 10
3.5
 20
15.2
 11
3.4
 21
15.2
  0
LINE
  5
673
100
AcDbEntity
  8
ASSI
100
AcDbLine
 62
7
  6
CONTINUOUS
 10
3.5
 20
15.2
 11
3.4
 21
15.2
  0
LINE
  5
674
100
AcDbEntity
  8
0
100
AcDbLine
 62
7
  6
CONTINUOUS
 10
-3.4
 20
15.2
 11
-3.5
 21
15.2
  0
LINE
  5
675
100
AcDbEntity
  8
ASSI
100
AcDbLine
 62
7
  6
CONTINUOUS
 10
-3.4
 20
15.2
 11
-3.5
 21
15.2
  0
LINE
  5
676
100
AcDbEntity
  8
RACCORDO
100
AcDbLine
 62
253
  6
CONTINUOUS
 10
9.529560052
 20
15.2792978419
 11
3.5
 21
15.2792978419
  0
LINE
  5
677
100
AcDbEntity
  8
ASSI
100
AcDbLine
 62
253
  6
CONTINUOUS
 10
9.529560052
 20
15.2792978419
 11
3.5
 21
15.2792978419
  0
LINE
  5
678
100
AcDbEntity
  8
RACCORDO
100
AcDbLine
 62
253
  6
CONTINUOUS
 10
-3.5
 20
15.2792978419
 11
-9.529560052
 21
15.2792978419
  0
LINE
  5
679
100
AcDbEntity
  8
ASSI
100
AcDbLine
 62
253
  6
CONTINUOUS
 10
-3.5
 20
15.2792978419
 11
-9.529560052
 21
15.2792978419
  0
LINE
  5
67A
100
AcDbEntity
  8
RACCORDO
100
AcDbLine
 62
7
  6
CONTINUOUS
 10
3.5
 20
15.6
 11
3.4
 21
15.6
  0
LINE
  5
67B
100
AcDbEntity
  8
RACCORDO
100
AcDbLine
 62
7
  6
CONTINUOUS
 10
-3.4
 20
15.6
 11
-3.5
 21
15.6
  0
LINE
  5
67C
100
AcDbEntity
  8
0
100
AcDbLine
 62
7
  6
CONTINUOUS
 10
-3.5
 20
16.2
 11
3.5
 21
16.2
  0
LINE
  5
67D
100
AcDbEntity
  8
ASSI
100
AcDbLine
 62
7
  6
CONTINUOUS
 10
-3.5
 20
16.2
 11
3.5
 21
16.2
  0
LINE
  5
67E
100
AcDbEntity
  8
RACCORDO
100
AcDbLine
 62
7
  6
CONTINUOUS
 10
6.5123099353
 20
13.8126856306
 11
6.5
 21
13.8188401295
  0
LINE
  5
67F
100
AcDbEntity
  8
ASSI
100
AcDbLine
 62
7
  6
CONTINUOUS
 10
6.5123099353
 20
13.8126856306
 11
6.5
 21
13.8188401295
  0
LINE
  5
680
100
AcDbEntity
  8
DRAFT
100
AcDbLine
 62
7
  6
CONTINUOUS
 10
9.4946499221
 20
12.5
 11
9.65
 21
12.4223308767
  0
LINE
  5
681
100
AcDbEntity
  8
ASSI
100
AcDbLine
 62
7
  6
CONTINUOUS
 10
9.4946499221
 20
12.5
 11
9.65
 21
12.4223308767
  0
LINE
  5
682
100
AcDbEntity
  8
DRAFT
100
AcDbLine
 62
7
  6
CONTINUOUS
 10
7.2418217019
 20
-20.9959955457
 11
7.2988376746
 21
-20.9104703804
  0
LINE
  5
683
100
AcDbEntity
  8
ASSI
100
AcDbLine
 62
7
  6
CONTINUOUS
 10
7.2418217019
 20
-20.9959955457
 11
7.2988376746
 21
-20.9104703804
  0
LWPOLYLINE
  5
684
100
AcDbEntity
  8
ASSI
100
AcDbPolyline
 62
7
  6
CONTINUOUS
 90
8
 70
0
 10
3.5285942983
 20
-23.7024480575
 10
3.5354689952
 20
-23.6935501651
 10
3.5431047436
 20
-23.6839279673
 10
3.5515547325
 20
-23.6734971318
 10
3.5608381101
 20
-23.6622548999
 10
3.5709578944
 20
-23.6502040303
 10
3.5819598219
 20
-23.6372684665
 10
3.5938557177
 20
-23.6234472841
  0
LINE
  5
685
100
AcDbEntity
  8
ASSI
100
AcDbLine
 62
7
  6
CONTINUOUS
 10
3.5938557177
 20
-23.6234472841
 11
3.6204024235
 21
-23.5930775533
  0
LINE
  5
686
100
AcDbEntity
  8
ASSI
100
AcDbLine
 62
7
  6
CONTINUOUS
 10
3.6204024235
 20
-23.5930775533
 11
3.6508085508
 21
-23.5588298205
  0
LINE
  5
687
100
AcDbEntity
  8
ASSI
100
AcDbLine
 62
7
  6
CONTINUOUS
 10
3.6508085508
 20
-23.5588298205
 11
3.6850783499
 21
-23.5207160551
  0
LINE
  5
688
100
AcDbEntity
  8
ASSI
100
AcDbLine
 62
7
  6
CONTINUOUS
 10
3.6850783499
 20
-23.5207160551
 11
3.7435718225
 21
-23.4564018309
  0
LINE
  5
689
100
AcDbEntity
  8
RACCORDO
100
AcDbLine
 62
7
  6
CONTINUOUS
 10
4.2
 20
17.3
 11
-4.2
 21
17.3
  0
LINE
  5
68A
100
AcDbEntity
  8
ASSI
100
AcDbLine
 62
7
  6
CONTINUOUS
 10
4.2
 20
17.3
 11
-4.2
 21
17.3
  0
LINE
  5
68B
100
AcDbEntity
  8
RACCORDO
100
AcDbLine
 62
253
  6
CONTINUOUS
 10
4.5
 20
17.8
 11
-4.5
 21
17.8
  0
LINE
  5
68C
100
AcDbEntity
  8
ASSI
100
AcDbLine
 62
253
  6
CONTINUOUS
 10
4.5
 20
17.8
 11
-4.5
 21
17.8
  0
LINE
  5
68D
100
AcDbEntity
  8
ASSI
100
AcDbLine
 62
7
  6
CONTINUOUS
 10
3.7437315094
 20
23.456226527
 11
3.685280314
 21
23.5204927224
  0
LINE
  5
68E
100
AcDbEntity
  8
ASSI
100
AcDbLine
 62
7
  6
CONTINUOUS
 10
3.685280314
 20
23.5204927224
 11
3.6510546648
 21
23.5585549825
  0
LINE
  5
68F
100
AcDbEntity
  8
ASSI
100
AcDbLine
 62
7
  6
CONTINUOUS
 10
3.6510546648
 20
23.5585549825
 11
3.62068447
 21
23.5927575937
  0
LWPOLYLINE
  5
690
100
AcDbEntity
  8
ASSI
100
AcDbPolyline
 62
7
  6
CONTINUOUS
 90
9
 70
0
 10
3.62068447
 20
23.5927575937
 10
3.5941505693
 20
23.623107111
 10
3.582252199
 20
23.6369269746
 10
3.5712441775
 20
23.6498660033
 10
3.5611130937
 20
23.6619264116
 10
3.5518072318
 20
23.6731887725
 10
3.5433221868
 20
23.6836555391
 10
3.5356456837
 20
23.6933242583
 10
3.5287312086
 20
23.7022681433
  0
LWPOLYLINE
  5
691
100
AcDbEntity
  8
ASSI
100
AcDbPolyline
 62
7
  6
CONTINUOUS
 90
10
 70
0
 10
3.5287312086
 20
23.7022681433
 10
3.522564002
 20
23.7105063695
 10
3.5171570622
 20
23.7180197616
 10
3.5125114232
 20
23.7248240072
 10
3.5086171662
 20
23.7309112426
 10
3.5054640862
 20
23.7362893315
 10
3.5030437493
 20
23.7409975528
 10
3.5013396308
 20
23.7450489996
 10
3.5003315447
 20
23.7484305787
 10
3.5
 20
23.7511422903
  0
LINE
  5
692
100
AcDbEntity
  8
DRAFT
100
AcDbLine
 62
7
  6
CONTINUOUS
 10
7.2418217019
 20
20.9959955457
 11
7.2988376746
 21
20.9104703804
  0
LINE
  5
693
100
AcDbEntity
  8
ASSI
100
AcDbLine
 62
7
  6
CONTINUOUS
 10
7.2418217019
 20
20.9959955457
 11
7.2988376746
 21
20.9104703804
  0
LWPOLYLINE
  5
694
100
AcDbEntity
  8
ASSI
100
AcDbPolyline
 62
7
  6
CONTINUOUS
 90
9
 70
0
 10
10.6320926258
 20
24.3429184493
 10
10.6362507213
 20
24.3317699738
 10
10.6398736417
 20
24.320436279
 10
10.6429531817
 20
24.3089430388
 10
10.6454823677
 20
24.2973162875
 10
10.6474554741
 20
24.2855823661
 10
10.6488680342
 20
24.2737678556
 10
10.6497168498
 20
24.261899516
 10
10.65
 20
24.2500042308
  0
LWPOLYLINE
  5
695
100
AcDbEntity
  8
ASSI
100
AcDbPolyline
 62
7
  6
CONTINUOUS
 90
18
 70
0
 10
10.6320926258
 20
-24.3429184493
 10
10.6274087722
 20
-24.3538564463
 10
10.6222097688
 20
-24.3645591876
 10
10.6165073916
 20
-24.3750024283
 10
10.6103145581
 20
-24.3851625059
 10
10.6036452955
 20
-24.3950164051
 10
10.5965147107
 20
-24.4045418038
 10
10.5889389589
 20
-24.4137171191
 10
10.5809352005
 20
-24.4225215661
 10
10.5725215661
 20
-24.4309352005
 10
10.5637171191
 20
-24.4389389589
 10
10.5545418038
 20
-24.4465147107
 10
10.5450164051
 20
-24.4536452955
 10
10.5351625059
 20
-24.4603145581
 10
10.5250024283
 20
-24.4665073916
 10
10.5145591876
 20
-24.4722097688
 10
10.5038564463
 20
-24.4774087722
 10
10.4929184493
 20
-24.4820926258
  0
LINE
  5
696
100
AcDbEntity
  8
ASSI
100
AcDbLine
 62
7
  6
CONTINUOUS
 10
3.7435718225
 20
-23.4564018309
 11
3.9279699877
 21
-23.2563578147
  0
LWPOLYLINE
  5
697
100
AcDbEntity
  8
ASSI
100
AcDbPolyline
 62
7
  6
CONTINUOUS
 90
9
 70
0
 10
-8.4070815507
 20
-24.4820926258
 10
-8.4182300262
 20
-24.4862507213
 10
-8.429563721
 20
-24.4898736417
 10
-8.4410569612
 20
-24.4929531817
 10
-8.4526837125
 20
-24.4954823677
 10
-8.4644176339
 20
-24.4974554741
 10
-8.4762321444
 20
-24.4988680342
 10
-8.488100484
 20
-24.4997168498
 10
-8.4999957692
 20
-24.5
  0
LINE
  5
698
100
AcDbEntity
  8
RACCORDO
100
AcDbLine
 62
7
  6
CONTINUOUS
 10
9.5784342338
 20
19.3
 11
7.3238531022
 21
19.3
  0
LINE
  5
699
100
AcDbEntity
  8
ASSI
100
AcDbLine
 62
7
  6
CONTINUOUS
 10
9.5784342338
 20
19.3
 11
7.3238531022
 21
19.3
  0
LINE
  5
69A
100
AcDbEntity
  8
RACCORDO
100
AcDbLine
 62
7
  6
CONTINUOUS
 10
6.4761468978
 20
19.3
 11
4.5
 21
19.3
  0
LINE
  5
69B
100
AcDbEntity
  8
ASSI
100
AcDbLine
 62
7
  6
CONTINUOUS
 10
6.4761468978
 20
19.3
 11
4.5
 21
19.3
  0
LINE
  5
69C
100
AcDbEntity
  8
RACCORDO
100
AcDbLine
 62
7
  6
CONTINUOUS
 10
-4.5
 20
19.3
 11
-6.4761468978
 21
19.3
  0
LINE
  5
69D
100
AcDbEntity
  8
ASSI
100
AcDbLine
 62
7
  6
CONTINUOUS
 10
-4.5
 20
19.3
 11
-6.4761468978
 21
19.3
  0
LINE
  5
69E
100
AcDbEntity
  8
RACCORDO
100
AcDbLine
 62
7
  6
CONTINUOUS
 10
-7.3238531022
 20
19.3
 11
-9.5784342338
 21
19.3
  0
LINE
  5
69F
100
AcDbEntity
  8
ASSI
100
AcDbLine
 62
7
  6
CONTINUOUS
 10
-7.3238531022
 20
19.3
 11
-9.5784342338
 21
19.3
  0
LINE
  5
6A0
100
AcDbEntity
  8
RACCORDO
100
AcDbLine
 62
253
  6
CONTINUOUS
 10
9.5871617663
 20
19.8
 11
7.3209441873
 21
19.8
  0
LINE
  5
6A1
100
AcDbEntity
  8
ASSI
100
AcDbLine
 62
253
  6
CONTINUOUS
 10
9.5871617663
 20
19.8
 11
7.3209441873
 21
19.8
  0
LINE
  5
6A2
100
AcDbEntity
  8
RACCORDO
100
AcDbLine
 62
253
  6
CONTINUOUS
 10
6.4790558127
 20
19.8
 11
4.5
 21
19.8
  0
LINE
  5
6A3
100
AcDbEntity
  8
ASSI
100
AcDbLine
 62
253
  6
CONTINUOUS
 10
6.4790558127
 20
19.8
 11
4.5
 21
19.8
  0
LINE
  5
6A4
100
AcDbEntity
  8
RACCORDO
100
AcDbLine
 62
253
  6
CONTINUOUS
 10
-4.5
 20
19.8
 11
-6.4790558127
 21
19.8
  0
LINE
  5
6A5
100
AcDbEntity
  8
ASSI
100
AcDbLine
 62
253
  6
CONTINUOUS
 10
-4.5
 20
19.8
 11
-6.4790558127
 21
19.8
  0
LINE
  5
6A6
100
AcDbEntity
  8
RACCORDO
100
AcDbLine
 62
253
  6
CONTINUOUS
 10
-7.3209441873
 20
19.8
 11
-9.5871617663
 21
19.8
  0
LINE
  5
6A7
100
AcDbEntity
  8
ASSI
100
AcDbLine
 62
253
  6
CONTINUOUS
 10
-7.3209441873
 20
19.8
 11
-9.5871617663
 21
19.8
  0
LINE
  5
6A8
100
AcDbEntity
  8
0
100
AcDbLine
 62
7
  6
CONTINUOUS
 10
6.4790558127
 20
19.968583276
 11
4.5
 21
19.968583276
  0
LINE
  5
6A9
100
AcDbEntity
  8
ASSI
100
AcDbLine
 62
7
  6
CONTINUOUS
 10
6.4790558127
 20
19.968583276
 11
4.5
 21
19.968583276
  0
LINE
  5
6AA
100
AcDbEntity
  8
0
100
AcDbLine
 62
7
  6
CONTINUOUS
 10
-4.5
 20
19.968583276
 11
-6.4790558127
 21
19.968583276
  0
LINE
  5
6AB
100
AcDbEntity
  8
ASSI
100
AcDbLine
 62
7
  6
CONTINUOUS
 10
-4.5
 20
19.968583276
 11
-6.4790558127
 21
19.968583276
  0
LINE
  5
6AC
100
AcDbEntity
  8
RACCORDO
100
AcDbLine
 62
7
  6
CONTINUOUS
 10
-4.2
 20
20.0
 11
4.2
 21
20.0
  0
LINE
  5
6AD
100
AcDbEntity
  8
ASSI
100
AcDbLine
 62
7
  6
CONTINUOUS
 10
-4.2
 20
20.0
 11
4.2
 21
20.0
  0
LINE
  5
6AE
100
AcDbEntity
  8
RACCORDO
100
AcDbLine
 62
253
  6
CONTINUOUS
 10
-6.555294768
 20
20.0829433217
 11
6.555294768
 21
20.0829433217
  0
LINE
  5
6AF
100
AcDbEntity
  8
ASSI
100
AcDbLine
 62
7
  6
CONTINUOUS
 10
-6.555294768
 20
20.0829433217
 11
6.555294768
 21
20.0829433217
  0
LWPOLYLINE
  5
6B0
100
AcDbEntity
  8
ASSI
100
AcDbPolyline
 62
7
  6
CONTINUOUS
 90
18
 70
0
 10
-8.4070815507
 20
24.4820926258
 10
-8.3961435537
 20
24.4774087722
 10
-8.3854408124
 20
24.4722097688
 10
-8.3749975717
 20
24.4665073916
 10
-8.3648374941
 20
24.4603145581
 10
-8.3549835949
 20
24.4536452955
 10
-8.3454581962
 20
24.4465147107
 10
-8.3362828809
 20
24.4389389589
 10
-8.3274784339
 20
24.4309352005
 10
-8.3190647995
 20
24.4225215661
 10
-8.3110610411
 20
24.4137171191
 10
-8.3034852893
 20
24.4045418038
 10
-8.2963547045
 20
24.3950164051
 10
-8.2896854419
 20
24.3851625059
 10
-8.2834926084
 20
24.3750024283
 10
-8.2777902312
 20
24.3645591876
 10
-8.2725912278
 20
24.3538564463
 10
-8.2679073742
 20
24.3429184493
  0
LINE
  5
6B1
100
AcDbEntity
  8
ASSI
100
AcDbLine
 62
7
  6
CONTINUOUS
 10
3.9279699877
 20
23.2563578147
 11
3.7437315094
 21
23.456226527
  0
LINE
  5
6B2
100
AcDbEntity
  8
RACCORDO
100
AcDbLine
 62
7
  6
CONTINUOUS
 10
7.2587268678
 20
-22.3912731322
 11
8.25
 21
-21.4
  0
LINE
  5
6B3
100
AcDbEntity
  8
ASSI
100
AcDbLine
 62
7
  6
CONTINUOUS
 10
7.2587268678
 20
-22.3912731322
 11
8.25
 21
-21.4
  0
LINE
  5
6B4
100
AcDbEntity
  8
RACCORDO
100
AcDbLine
 62
253
  6
CONTINUOUS
 10
-6.5581782981
 20
20.5829242832
 11
6.5581782981
 21
20.5829242832
  0
LINE
  5
6B5
100
AcDbEntity
  8
ASSI
100
AcDbLine
 62
253
  6
CONTINUOUS
 10
-6.5581782981
 20
20.5829242832
 11
6.5581782981
 21
20.5829242832
  0
LINE
  5
6B6
100
AcDbEntity
  8
RACCORDO
100
AcDbLine
 62
7
  6
CONTINUOUS
 10
-9.087542366
 20
20.7113319946
 11
-7.3209441873
 21
20.7113319946
  0
LINE
  5
6B7
100
AcDbEntity
  8
ASSI
100
AcDbLine
 62
7
  6
CONTINUOUS
 10
-9.087542366
 20
20.7113319946
 11
-7.3209441873
 21
20.7113319946
  0
LINE
  5
6B8
100
AcDbEntity
  8
RACCORDO
100
AcDbLine
 62
7
  6
CONTINUOUS
 10
7.3209441873
 20
20.7113319946
 11
9.087542366
 21
20.7113319946
  0
LINE
  5
6B9
100
AcDbEntity
  8
ASSI
100
AcDbLine
 62
7
  6
CONTINUOUS
 10
7.3209441873
 20
20.7113319946
 11
9.087542366
 21
20.7113319946
  0
LINE
  5
6BA
100
AcDbEntity
  8
RACCORDO
100
AcDbLine
 62
7
  6
CONTINUOUS
 10
-9.1503805997
 20
20.9
 11
-8.25
 21
20.9
  0
LINE
  5
6BB
100
AcDbEntity
  8
ASSI
100
AcDbLine
 62
7
  6
CONTINUOUS
 10
-9.1503805997
 20
20.9
 11
-8.25
 21
20.9
  0
LINE
  5
6BC
100
AcDbEntity
  8
RACCORDO
100
AcDbLine
 62
7
  6
CONTINUOUS
 10
8.25
 20
20.9
 11
9.1503805997
 21
20.9
  0
LINE
  5
6BD
100
AcDbEntity
  8
ASSI
100
AcDbLine
 62
7
  6
CONTINUOUS
 10
8.25
 20
20.9
 11
9.1503805997
 21
20.9
  0
LINE
  5
6BE
100
AcDbEntity
  8
DRAFT
100
AcDbLine
 62
7
  6
CONTINUOUS
 10
8.2465127091
 20
20.9104703804
 11
7.2988376746
 21
20.9104703804
  0
LINE
  5
6BF
100
AcDbEntity
  8
ASSI
100
AcDbLine
 62
7
  6
CONTINUOUS
 10
8.2465127091
 20
20.9104703804
 11
7.2988376746
 21
20.9104703804
  0
LINE
  5
6C0
100
AcDbEntity
  8
DRAFT
100
AcDbLine
 62
7
  6
CONTINUOUS
 10
-7.2988376746
 20
20.9104703804
 11
-8.2465127091
 21
20.9104703804
  0
LINE
  5
6C1
100
AcDbEntity
  8
ASSI
100
AcDbLine
 62
7
  6
CONTINUOUS
 10
-7.2988376746
 20
20.9104703804
 11
-8.2465127091
 21
20.9104703804
  0
LINE
  5
6C2
100
AcDbEntity
  8
RACCORDO
100
AcDbLine
 62
7
  6
CONTINUOUS
 10
7.5841007192
 20
20.9959955457
 11
7.2418217019
 21
20.9959955457
  0
LINE
  5
6C3
100
AcDbEntity
  8
ASSI
100
AcDbLine
 62
7
  6
CONTINUOUS
 10
7.5841007192
 20
20.9959955457
 11
7.2418217019
 21
20.9959955457
  0
LINE
  5
6C4
100
AcDbEntity
  8
RACCORDO
100
AcDbLine
 62
7
  6
CONTINUOUS
 10
-7.2418217019
 20
20.9959955457
 11
-7.5841007192
 21
20.9959955457
  0
LINE
  5
6C5
100
AcDbEntity
  8
ASSI
100
AcDbLine
 62
7
  6
CONTINUOUS
 10
-7.2418217019
 20
20.9959955457
 11
-7.5841007192
 21
20.9959955457
  0
LINE
  5
6C6
100
AcDbEntity
  8
0
100
AcDbLine
 62
7
  6
CONTINUOUS
 10
-3.0
 20
21.0
 11
3.0
 21
21.0
  0
LINE
  5
6C7
100
AcDbEntity
  8
ASSI
100
AcDbLine
 62
7
  6
CONTINUOUS
 10
-3.0
 20
21.0
 11
3.0
 21
21.0
  0
LINE
  5
6C8
100
AcDbEntity
  8
RACCORDO
100
AcDbLine
 62
253
  6
CONTINUOUS
 10
7.5841007192
 20
21.3126932437
 11
3.0
 21
21.3126932437
  0
LINE
  5
6C9
100
AcDbEntity
  8
ASSI
100
AcDbLine
 62
253
  6
CONTINUOUS
 10
7.5841007192
 20
21.3126932437
 11
3.0
 21
21.3126932437
  0
LINE
  5
6CA
100
AcDbEntity
  8
RACCORDO
100
AcDbLine
 62
253
  6
CONTINUOUS
 10
-3.0
 20
21.3126932437
 11
-7.5841007192
 21
21.3126932437
  0
LINE
  5
6CB
100
AcDbEntity
  8
ASSI
100
AcDbLine
 62
253
  6
CONTINUOUS
 10
-3.0
 20
21.3126932437
 11
-7.5841007192
 21
21.3126932437
  0
LINE
  5
6CC
100
AcDbEntity
  8
0
100
AcDbLine
 62
7
  6
CONTINUOUS
 10
-3.0
 20
21.7
 11
3.0
 21
21.7
  0
LINE
  5
6CD
100
AcDbEntity
  8
ASSI
100
AcDbLine
 62
7
  6
CONTINUOUS
 10
-3.0
 20
21.7
 11
3.0
 21
21.7
  0
LWPOLYLINE
  5
6CE
100
AcDbEntity
  8
RACCORDO
100
AcDbPolyline
 62
7
  6
CONTINUOUS
 90
26
 70
0
 10
-8.4526837125
 20
24.4954823677
 10
-8.4410569612
 20
24.4929531817
 10
-8.429563721
 20
24.4898736417
 10
-8.4182300262
 20
24.4862507213
 10
-8.4070815507
 20
24.4820926258
 10
-8.3961435537
 20
24.4774087722
 10
-8.3854408124
 20
24.4722097688
 10
-8.3749975717
 20
24.4665073916
 10
-8.3648374941
 20
24.4603145581
 10
-8.3549835949
 20
24.4536452955
 10
-8.3454581962
 20
24.4465147107
 10
-8.3362828809
 20
24.4389389589
 10
-8.3274784339
 20
24.4309352005
 10
-8.3190647995
 20
24.4225215661
 10
-8.3110610411
 20
24.4137171191
 10
-8.3034852893
 20
24.4045418038
 10
-8.2963547045
 20
24.3950164051
 10
-8.2896854419
 20
24.3851625059
 10
-8.2834926084
 20
24.3750024283
 10
-8.2777902312
 20
24.3645591876
 10
-8.2725912278
 20
24.3538564463
 10
-8.2679073742
 20
24.3429184493
 10
-8.2637492787
 20
24.3317699738
 10
-8.2601263583
 20
24.320436279
 10
-8.2570468183
 20
24.3089430388
 10
-8.2545176323
 20
24.2973162875
  0
LINE
  5
6CF
100
AcDbEntity
  8
RACCORDO
100
AcDbLine
 62
7
  6
CONTINUOUS
 10
8.25
 20
21.4
 11
7.2587268678
 21
22.3912731322
  0
LINE
  5
6D0
100
AcDbEntity
  8
ASSI
100
AcDbLine
 62
7
  6
CONTINUOUS
 10
8.25
 20
21.4
 11
7.2587268678
 21
22.3912731322
  0
LINE
  5
6D1
100
AcDbEntity
  8
RACCORDO
100
AcDbLine
 62
7
  6
CONTINUOUS
 10
8.0840245667
 20
-20.9917082642
 11
8.2465127091
 21
-20.9104703804
  0
LINE
  5
6D2
100
AcDbEntity
  8
ASSI
100
AcDbLine
 62
7
  6
CONTINUOUS
 10
8.0840245667
 20
-20.9917082642
 11
8.2465127091
 21
-20.9104703804
  0
LWPOLYLINE
  5
6D3
100
AcDbEntity
  8
RACCORDO
100
AcDbPolyline
 62
7
  6
CONTINUOUS
 90
5
 70
0
 10
8.4526837125
 20
24.4954823677
 10
8.4644176339
 20
24.4974554741
 10
8.4762321444
 20
24.4988680342
 10
8.488100484
 20
24.4997168498
 10
8.4999957692
 20
24.5
  0
LINE
  5
6D4
100
AcDbEntity
  8
ASSI
100
AcDbLine
 62
7
  6
CONTINUOUS
 10
-10.6714883972
 20
22.3984737398
 11
-10.6929434461
 21
22.396327304
  0
LWPOLYLINE
  5
6D5
100
AcDbEntity
  8
RACCORDO
100
AcDbPolyline
 62
7
  6
CONTINUOUS
 90
11
 70
0
 10
-10.6499991391
 20
22.3996911987
 10
-10.6714883972
 20
22.3984737398
 10
-10.6929434461
 20
22.396327304
 10
-10.714323887
 20
22.3932510251
 10
-10.7356119114
 20
22.3892409661
 10
-10.7567435211
 20
22.3843026901
 10
-10.7776108967
 20
22.3784610765
 10
-10.7981597008
 20
22.3717368058
 10
-10.8183694928
 20
22.3641420636
 10
-10.8381874588
 20
22.3557023577
 10
-10.8560370741
 20
22.3472138017
  0
LINE
  5
6D6
100
AcDbEntity
  8
ASSI
100
AcDbLine
 62
7
  6
CONTINUOUS
 10
-10.6499991391
 20
22.3996911987
 11
-10.6714883972
 21
22.3984737398
  0
LINE
  5
6D7
100
AcDbEntity
  8
RACCORDO
100
AcDbLine
 62
7
  6
CONTINUOUS
 10
-10.65
 20
22.399689968
 11
-10.6460883071
 21
22.3998124433
  0
LINE
  5
6D8
100
AcDbEntity
  8
ASSI
100
AcDbLine
 62
7
  6
CONTINUOUS
 10
-10.65
 20
22.399689968
 11
-10.6460883071
 21
22.3998124433
  0
LINE
  5
6D9
100
AcDbEntity
  8
RACCORDO
100
AcDbLine
 62
7
  6
CONTINUOUS
 10
-10.6460883071
 20
22.3998124433
 11
-10.6421758755
 21
22.3999043042
  0
LINE
  5
6DA
100
AcDbEntity
  8
ASSI
100
AcDbLine
 62
7
  6
CONTINUOUS
 10
-10.6460883071
 20
22.3998124433
 11
-10.6421758755
 21
22.3999043042
  0
LINE
  5
6DB
100
AcDbEntity
  8
RACCORDO
100
AcDbLine
 62
7
  6
CONTINUOUS
 10
-10.6421758755
 20
22.3999043042
 11
-10.6382627952
 21
22.399965549
  0
LINE
  5
6DC
100
AcDbEntity
  8
ASSI
100
AcDbLine
 62
7
  6
CONTINUOUS
 10
-10.6421758755
 20
22.3999043042
 11
-10.6382627952
 21
22.399965549
  0
LINE
  5
6DD
100
AcDbEntity
  8
RACCORDO
100
AcDbLine
 62
7
  6
CONTINUOUS
 10
-10.6382627952
 20
22.399965549
 11
-10.6343494256
 21
22.3999961716
  0
LINE
  5
6DE
100
AcDbEntity
  8
ASSI
100
AcDbLine
 62
7
  6
CONTINUOUS
 10
-10.6382627952
 20
22.399965549
 11
-10.6343494256
 21
22.3999961716
  0
LINE
  5
6DF
100
AcDbEntity
  8
RACCORDO
100
AcDbLine
 62
253
  6
CONTINUOUS
 10
7.3373448332
 20
22.3126551668
 11
3.0
 21
22.3126551668
  0
LINE
  5
6E0
100
AcDbEntity
  8
ASSI
100
AcDbLine
 62
253
  6
CONTINUOUS
 10
7.3373448332
 20
22.3126551668
 11
3.0
 21
22.3126551668
  0
LINE
  5
6E1
100
AcDbEntity
  8
RACCORDO
100
AcDbLine
 62
253
  6
CONTINUOUS
 10
-3.0
 20
22.3126551668
 11
-7.3373448332
 21
22.3126551668
  0
LINE
  5
6E2
100
AcDbEntity
  8
ASSI
100
AcDbLine
 62
253
  6
CONTINUOUS
 10
-3.0
 20
22.3126551668
 11
-7.3373448332
 21
22.3126551668
  0
LINE
  5
6E3
100
AcDbEntity
  8
RACCORDO
100
AcDbLine
 62
7
  6
CONTINUOUS
 10
10.6498476749
 20
22.3912731322
 11
7.2587268678
 21
22.3912731322
  0
LINE
  5
6E4
100
AcDbEntity
  8
ASSI
100
AcDbLine
 62
7
  6
CONTINUOUS
 10
10.6498476749
 20
22.3912731322
 11
7.2587268678
 21
22.3912731322
  0
LINE
  5
6E5
100
AcDbEntity
  8
DRAFT
100
AcDbLine
 62
7
  6
CONTINUOUS
 10
3.5
 20
22.3912731322
 11
3.0
 21
22.3912731322
  0
LINE
  5
6E6
100
AcDbEntity
  8
ASSI
100
AcDbLine
 62
7
  6
CONTINUOUS
 10
3.5
 20
22.3912731322
 11
3.0
 21
22.3912731322
  0
LINE
  5
6E7
100
AcDbEntity
  8
DRAFT
100
AcDbLine
 62
7
  6
CONTINUOUS
 10
-3.0
 20
22.3912731322
 11
-3.5
 21
22.3912731322
  0
LINE
  5
6E8
100
AcDbEntity
  8
ASSI
100
AcDbLine
 62
7
  6
CONTINUOUS
 10
-3.0
 20
22.3912731322
 11
-3.5
 21
22.3912731322
  0
LINE
  5
6E9
100
AcDbEntity
  8
RACCORDO
100
AcDbLine
 62
7
  6
CONTINUOUS
 10
-7.2587268678
 20
22.3912731322
 11
-10.6498476749
 21
22.3912731322
  0
LINE
  5
6EA
100
AcDbEntity
  8
ASSI
100
AcDbLine
 62
7
  6
CONTINUOUS
 10
-7.2587268678
 20
22.3912731322
 11
-10.6498476749
 21
22.3912731322
  0
LINE
  5
6EB
100
AcDbEntity
  8
DRAFT
100
AcDbLine
 62
7
  6
CONTINUOUS
 10
-8.25
 20
22.4
 11
-4.4
 21
22.4
  0
LINE
  5
6EC
100
AcDbEntity
  8
DRAFT
100
AcDbLine
 62
7
  6
CONTINUOUS
 10
4.4
 20
22.4
 11
8.25
 21
22.4
  0
LINE
  5
6ED
100
AcDbEntity
  8
RACCORDO
100
AcDbLine
 62
7
  6
CONTINUOUS
 10
-8.25
 20
22.4
 11
-10.6343494256
 21
22.3999961716
  0
LINE
  5
6EE
100
AcDbEntity
  8
ASSI
100
AcDbLine
 62
7
  6
CONTINUOUS
 10
-4.4
 20
22.4
 11
-10.6343494256
 21
22.3999961716
  0
LINE
  5
6EF
100
AcDbEntity
  8
RACCORDO
100
AcDbLine
 62
7
  6
CONTINUOUS
 10
10.4007229979
 20
23.1226497308
 11
8.4992770021
 21
23.1226497308
  0
LINE
  5
6F0
100
AcDbEntity
  8
ASSI
100
AcDbLine
 62
7
  6
CONTINUOUS
 10
10.4007229979
 20
23.1226497308
 11
8.4992770021
 21
23.1226497308
  0
LINE
  5
6F1
100
AcDbEntity
  8
RACCORDO
100
AcDbLine
 62
7
  6
CONTINUOUS
 10
-8.4992770021
 20
23.1226497308
 11
-10.4007229979
 21
23.1226497308
  0
LINE
  5
6F2
100
AcDbEntity
  8
ASSI
100
AcDbLine
 62
7
  6
CONTINUOUS
 10
-8.4992770021
 20
23.1226497308
 11
-10.4007229979
 21
23.1226497308
  0
LINE
  5
6F3
100
AcDbEntity
  8
RACCORDO
100
AcDbLine
 62
253
  6
CONTINUOUS
 10
-10.3956323968
 20
23.6278312164
 11
-8.5043676032
 21
23.6278312164
  0
LINE
  5
6F4
100
AcDbEntity
  8
ASSI
100
AcDbLine
 62
253
  6
CONTINUOUS
 10
-10.3956323968
 20
23.6278312164
 11
-8.5043676032
 21
23.6278312164
  0
LINE
  5
6F5
100
AcDbEntity
  8
RACCORDO
100
AcDbLine
 62
253
  6
CONTINUOUS
 10
8.5043676032
 20
23.6278312164
 11
10.3956323968
 21
23.6278312164
  0
LINE
  5
6F6
100
AcDbEntity
  8
ASSI
100
AcDbLine
 62
253
  6
CONTINUOUS
 10
8.5043676032
 20
23.6278312164
 11
10.3956323968
 21
23.6278312164
  0
LINE
  5
6F7
100
AcDbEntity
  8
ASSI
100
AcDbLine
 62
7
  6
CONTINUOUS
 10
-4.3563493531
 20
23.7563493531
 11
-3.5
 21
23.7563493531
  0
LINE
  5
6F8
100
AcDbEntity
  8
ASSI
100
AcDbLine
 62
7
  6
CONTINUOUS
 10
3.5
 20
23.7563493531
 11
4.3563493531
 21
23.7563493531
  0
LINE
  5
6F9
100
AcDbEntity
  8
DRAFT
100
AcDbLine
 62
7
  6
CONTINUOUS
 10
-3.5
 20
23.7941821702
 11
3.5
 21
23.7941821702
  0
LINE
  5
6FA
100
AcDbEntity
  8
ASSI
100
AcDbLine
 62
7
  6
CONTINUOUS
 10
-3.5
 20
23.7941821702
 11
3.5
 21
23.7941821702
  0
LINE
  5
6FB
100
AcDbEntity
  8
DRAFT
100
AcDbLine
 62
7
  6
CONTINUOUS
 10
4.4
 20
23.8
 11
-4.4
 21
23.8
  0
LINE
  5
6FC
100
AcDbEntity
  8
ASSI
100
AcDbLine
 62
7
  6
CONTINUOUS
 10
4.4
 20
23.8
 11
-4.4
 21
23.8
  0
LINE
  5
6FD
100
AcDbEntity
  8
RACCORDO
100
AcDbLine
 62
253
  6
CONTINUOUS
 10
8.254371834
 20
23.8443375673
 11
10.645628166
 21
23.8443375673
  0
LINE
  5
6FE
100
AcDbEntity
  8
RACCORDO
100
AcDbLine
 62
253
  6
CONTINUOUS
 10
-8.254371834
 20
23.8443375673
 11
-10.645628166
 21
23.8443375673
  0
LINE
  5
6FF
100
AcDbEntity
  8
ASSI
100
AcDbLine
 62
253
  6
CONTINUOUS
 10
8.254371834
 20
23.8443375673
 11
10.645628166
 21
23.8443375673
  0
LINE
  5
700
100
AcDbEntity
  8
ASSI
100
AcDbLine
 62
253
  6
CONTINUOUS
 10
-8.254371834
 20
23.8443375673
 11
-10.645628166
 21
23.8443375673
  0
LINE
  5
701
100
AcDbEntity
  8
RACCORDO
100
AcDbLine
 62
7
  6
CONTINUOUS
 10
8.25
 20
22.4
 11
10.6343494256
 21
22.3999961716
  0
LINE
  5
702
100
AcDbEntity
  8
ASSI
100
AcDbLine
 62
7
  6
CONTINUOUS
 10
4.4
 20
22.4
 11
10.6343494256
 21
22.3999961716
  0
LINE
  5
703
100
AcDbEntity
  8
RACCORDO
100
AcDbLine
 62
7
  6
CONTINUOUS
 10
10.6343494256
 20
22.3999961716
 11
10.6382627952
 21
22.399965549
  0
LINE
  5
704
100
AcDbEntity
  8
ASSI
100
AcDbLine
 62
7
  6
CONTINUOUS
 10
10.6343494256
 20
22.3999961716
 11
10.6382627952
 21
22.399965549
  0
LINE
  5
705
100
AcDbEntity
  8
RACCORDO
100
AcDbLine
 62
7
  6
CONTINUOUS
 10
10.6382627952
 20
22.399965549
 11
10.6421758755
 21
22.3999043042
  0
LINE
  5
706
100
AcDbEntity
  8
ASSI
100
AcDbLine
 62
7
  6
CONTINUOUS
 10
10.6382627952
 20
22.399965549
 11
10.6421758755
 21
22.3999043042
  0
LINE
  5
707
100
AcDbEntity
  8
RACCORDO
100
AcDbLine
 62
7
  6
CONTINUOUS
 10
10.6421758755
 20
22.3999043042
 11
10.6460883071
 21
22.3998124433
  0
LINE
  5
708
100
AcDbEntity
  8
ASSI
100
AcDbLine
 62
7
  6
CONTINUOUS
 10
10.6421758755
 20
22.3999043042
 11
10.6460883071
 21
22.3998124433
  0
LINE
  5
709
100
AcDbEntity
  8
RACCORDO
100
AcDbLine
 62
7
  6
CONTINUOUS
 10
10.6460883071
 20
22.3998124433
 11
10.65
 21
22.399689968
  0
LINE
  5
70A
100
AcDbEntity
  8
ASSI
100
AcDbLine
 62
7
  6
CONTINUOUS
 10
10.6460883071
 20
22.3998124433
 11
10.65
 21
22.399689968
  0
LINE
  5
70B
100
AcDbEntity
  8
RACCORDO
100
AcDbLine
 62
7
  6
CONTINUOUS
 10
-8.4644176339
 20
24.4974554741
 11
-8.4526837125
 21
24.4954823677
  0
LWPOLYLINE
  5
70C
100
AcDbEntity
  8
ASSI
100
AcDbPolyline
 62
7
  6
CONTINUOUS
 90
6
 70
0
 10
-8.4644176339
 20
24.4974554741
 10
-8.4526837125
 20
24.4954823677
 10
-8.4410569612
 20
24.4929531817
 10
-8.429563721
 20
24.4898736417
 10
-8.4182300262
 20
24.4862507213
 10
-8.4070815507
 20
24.4820926258
  0
LINE
  5
70D
100
AcDbEntity
  8
RACCORDO
100
AcDbLine
 62
7
  6
CONTINUOUS
 10
8.0840245667
 20
20.9917082642
 11
8.2465127091
 21
20.9104703804
  0
LINE
  5
70E
100
AcDbEntity
  8
ASSI
100
AcDbLine
 62
7
  6
CONTINUOUS
 10
8.0840245667
 20
20.9917082642
 11
8.2465127091
 21
20.9104703804
  0
LINE
  5
70F
100
AcDbEntity
  8
RACCORDO
100
AcDbLine
 62
253
  6
CONTINUOUS
 10
10.6466029582
 20
-22.392895367
 11
10.6323926099
 21
-22.4
  0
LINE
  5
710
100
AcDbEntity
  8
ASSI
100
AcDbLine
 62
253
  6
CONTINUOUS
 10
10.6466029582
 20
-22.392895367
 11
10.6323926099
 21
-22.4
  0
LWPOLYLINE
  5
711
100
AcDbEntity
  8
ASSI
100
AcDbPolyline
 62
7
  6
CONTINUOUS
 90
9
 70
0
 10
10.4929184493
 20
-24.4820926258
 10
10.4817699738
 20
-24.4862507213
 10
10.470436279
 20
-24.4898736417
 10
10.4589430388
 20
-24.4929531817
 10
10.4473162875
 20
-24.4954823677
 10
10.4355823661
 20
-24.4974554741
 10
10.4237678556
 20
-24.4988680342
 10
10.411899516
 20
-24.4997168498
 10
10.4000042308
 20
-24.5
  0
LWPOLYLINE
  5
712
100
AcDbEntity
  8
RACCORDO
100
AcDbPolyline
 62
7
  6
CONTINUOUS
 90
5
 70
0
 10
-10.4473162875
 20
24.4954823677
 10
-10.4355823661
 20
24.4974554741
 10
-10.4237678556
 20
24.4988680342
 10
-10.411899516
 20
24.4997168498
 10
-10.4000042308
 20
24.5
  0
LINE
  5
713
100
AcDbEntity
  8
RACCORDO
100
AcDbLine
 62
253
  6
CONTINUOUS
 10
8.254371834
 20
24.2456323968
 11
10.645628166
 21
24.2456323968
  0
LINE
  5
714
100
AcDbEntity
  8
RACCORDO
100
AcDbLine
 62
253
  6
CONTINUOUS
 10
-8.254371834
 20
24.2456323968
 11
-10.645628166
 21
24.2456323968
  0
LINE
  5
715
100
AcDbEntity
  8
ASSI
100
AcDbLine
 62
253
  6
CONTINUOUS
 10
8.254371834
 20
24.2456323968
 11
10.645628166
 21
24.2456323968
  0
LINE
  5
716
100
AcDbEntity
  8
ASSI
100
AcDbLine
 62
253
  6
CONTINUOUS
 10
-8.254371834
 20
24.2456323968
 11
-10.645628166
 21
24.2456323968
  0
LINE
  5
717
100
AcDbEntity
  8
RACCORDO
100
AcDbLine
 62
253
  6
CONTINUOUS
 10
10.3956323968
 20
24.495628166
 11
8.5043676032
 21
24.495628166
  0
LINE
  5
718
100
AcDbEntity
  8
ASSI
100
AcDbLine
 62
7
  6
CONTINUOUS
 10
10.3956323968
 20
24.495628166
 11
8.5043676032
 21
24.495628166
  0
LINE
  5
719
100
AcDbEntity
  8
RACCORDO
100
AcDbLine
 62
253
  6
CONTINUOUS
 10
-8.5043676032
 20
24.495628166
 11
-10.3956323968
 21
24.495628166
  0
LINE
  5
71A
100
AcDbEntity
  8
ASSI
100
AcDbLine
 62
7
  6
CONTINUOUS
 10
-8.5043676032
 20
24.495628166
 11
-10.3956323968
 21
24.495628166
  0
LWPOLYLINE
  5
71B
100
AcDbEntity
  8
RACCORDO
100
AcDbPolyline
 62
7
  6
CONTINUOUS
 90
4
 70
0
 10
-8.4999957692
 20
24.5
 10
-8.488100484
 20
24.4997168498
 10
-8.4762321444
 20
24.4988680342
 10
-8.4644176339
 20
24.4974554741
  0
LWPOLYLINE
  5
71C
100
AcDbEntity
  8
ASSI
100
AcDbPolyline
 62
7
  6
CONTINUOUS
 90
4
 70
0
 10
-8.4999957692
 20
24.5
 10
-8.488100484
 20
24.4997168498
 10
-8.4762321444
 20
24.4988680342
 10
-8.4644176339
 20
24.4974554741
  0
LWPOLYLINE
  5
71D
100
AcDbEntity
  8
RACCORDO
100
AcDbPolyline
 62
7
  6
CONTINUOUS
 90
4
 70
0
 10
10.4000042308
 20
24.5
 10
10.411899516
 20
24.4997168498
 10
10.4237678556
 20
24.4988680342
 10
10.4355823661
 20
24.4974554741
  0
LWPOLYLINE
  5
71E
100
AcDbEntity
  8
ASSI
100
AcDbPolyline
 62
7
  6
CONTINUOUS
 90
4
 70
0
 10
10.4000042308
 20
24.5
 10
10.411899516
 20
24.4997168498
 10
10.4237678556
 20
24.4988680342
 10
10.4355823661
 20
24.4974554741
  0
LWPOLYLINE
  5
71F
100
AcDbEntity
  8
RACCORDO
100
AcDbPolyline
 62
253
  6
CONTINUOUS
 90
31
 70
0
 10
-8.5043676032
 20
24.495628166
 10
-8.4912841172
 20
24.4952851274
 10
-8.4782364906
 20
24.4942578375
 10
-8.4652604845
 20
24.492549112
 10
-8.4523916636
 20
24.490163634
 10
-8.4396652991
 20
24.4871079418
 10
-8.4271162714
 20
24.4833904104
 10
-8.4147789751
 20
24.4790212289
 10
-8.4026872245
 20
24.4740123724
 10
-8.3908741607
 20
24.4683775693
 10
-8.3793721611
 20
24.4621322634
 10
-8.3682127506
 20
24.455293572
 10
-8.357426515
 20
24.4478802386
 10
-8.3470430174
 20
24.4399125818
 10
-8.3370907169
 20
24.4314124395
 10
-8.327596891
 20
24.422403109
 10
-8.3185875605
 20
24.4129092831
 10
-8.3100874182
 20
24.4029569826
 10
-8.3021197614
 20
24.392573485
 10
-8.294706428
 20
24.3817872494
 10
-8.2878677366
 20
24.3706278389
 10
-8.2816224307
 20
24.3591258393
 10
-8.2759876276
 20
24.3473127755
 10
-8.2709787711
 20
24.3352210249
 10
-8.2666095896
 20
24.3228837286
 10
-8.2628920582
 20
24.3103347009
 10
-8.259836366
 20
24.2976083364
 10
-8.257450888
 20
24.2847395155
 10
-8.2557421625
 20
24.2717635094
 10
-8.2547148726
 20
24.2587158828
 10
-8.254371834
 20
24.2456323968
  0
LWPOLYLINE
  5
720
100
AcDbEntity
  8
ASSI
100
AcDbPolyline
 62
7
  6
CONTINUOUS
 90
31
 70
0
 10
-8.5043676032
 20
24.495628166
 10
-8.4912841172
 20
24.4952851274
 10
-8.4782364906
 20
24.4942578375
 10
-8.4652604845
 20
24.492549112
 10
-8.4523916636
 20
24.490163634
 10
-8.4396652991
 20
24.4871079418
 10
-8.4271162714
 20
24.4833904104
 10
-8.4147789751
 20
24.4790212289
 10
-8.4026872245
 20
24.4740123724
 10
-8.3908741607
 20
24.4683775693
 10
-8.3793721611
 20
24.4621322634
 10
-8.3682127506
 20
24.455293572
 10
-8.357426515
 20
24.4478802386
 10
-8.3470430174
 20
24.4399125818
 10
-8.3370907169
 20
24.4314124395
 10
-8.327596891
 20
24.422403109
 10
-8.3185875605
 20
24.4129092831
 10
-8.3100874182
 20
24.4029569826
 10
-8.3021197614
 20
24.392573485
 10
-8.294706428
 20
24.3817872494
 10
-8.2878677366
 20
24.3706278389
 10
-8.2816224307
 20
24.3591258393
 10
-8.2759876276
 20
24.3473127755
 10
-8.2709787711
 20
24.3352210249
 10
-8.2666095896
 20
24.3228837286
 10
-8.2628920582
 20
24.3103347009
 10
-8.259836366
 20
24.2976083364
 10
-8.257450888
 20
24.2847395155
 10
-8.2557421625
 20
24.2717635094
 10
-8.2547148726
 20
24.2587158828
 10
-8.254371834
 20
24.2456323968
  0
LWPOLYLINE
  5
721
100
AcDbEntity
  8
RACCORDO
100
AcDbPolyline
 62
253
  6
CONTINUOUS
 90
31
 70
0
 10
10.3956323968
 20
24.495628166
 10
10.4086847368
 20
24.4952867588
 10
10.4217096311
 20
24.4942634962
 10
10.4346714057
 20
24.492559892
 10
10.4475371245
 20
24.4901787618
 10
10.4602685897
 20
24.4871256484
 10
10.4728227742
 20
24.4834102087
 10
10.4851625782
 20
24.4790436576
 10
10.4972569343
 20
24.4740372277
 10
10.5090730125
 20
24.4684044791
 10
10.520578613
 20
24.4621606774
 10
10.5317419314
 20
24.4553229956
 10
10.5425320106
 20
24.4479103656
 10
10.5529191364
 20
24.4399432233
 10
10.5628749736
 20
24.4314433264
 10
10.572372308
 20
24.4224339046
 10
10.5813851271
 20
24.4129396114
 10
10.5898886687
 20
24.402986508
 10
10.5978595768
 20
24.3926019187
 10
10.6052759837
 20
24.3818143284
 10
10.6121175595
 20
24.3706533025
 10
10.6183655387
 20
24.3591494467
 10
10.6240027869
 20
24.347334301
 10
10.6290138424
 20
24.3352402638
 10
10.6333849575
 20
24.3229005077
 10
10.637104147
 20
24.3103488602
 10
10.6401612081
 20
24.2976197463
 10
10.6425477509
 20
24.2847481067
 10
10.644257234
 20
24.2717692492
 10
10.645284977
 20
24.2587187509
 10
10.645628166
 20
24.2456323968
  0
LWPOLYLINE
  5
722
100
AcDbEntity
  8
ASSI
100
AcDbPolyline
 62
7
  6
CONTINUOUS
 90
31
 70
0
 10
10.3956323968
 20
24.495628166
 10
10.4086847368
 20
24.4952867588
 10
10.4217096311
 20
24.4942634962
 10
10.4346714057
 20
24.492559892
 10
10.4475371245
 20
24.4901787618
 10
10.4602685897
 20
24.4871256484
 10
10.4728227742
 20
24.4834102087
 10
10.4851625782
 20
24.4790436576
 10
10.4972569343
 20
24.4740372277
 10
10.5090730125
 20
24.4684044791
 10
10.520578613
 20
24.4621606774
 10
10.5317419314
 20
24.4553229956
 10
10.5425320106
 20
24.4479103656
 10
10.5529191364
 20
24.4399432233
 10
10.5628749736
 20
24.4314433264
 10
10.572372308
 20
24.4224339046
 10
10.5813851271
 20
24.4129396114
 10
10.5898886687
 20
24.402986508
 10
10.5978595768
 20
24.3926019187
 10
10.6052759837
 20
24.3818143284
 10
10.6121175595
 20
24.3706533025
 10
10.6183655387
 20
24.3591494467
 10
10.6240027869
 20
24.347334301
 10
10.6290138424
 20
24.3352402638
 10
10.6333849575
 20
24.3229005077
 10
10.637104147
 20
24.3103488602
 10
10.6401612081
 20
24.2976197463
 10
10.6425477509
 20
24.2847481067
 10
10.644257234
 20
24.2717692492
 10
10.645284977
 20
24.2587187509
 10
10.645628166
 20
24.2456323968
  0
LINE
  5
723
100
AcDbEntity
  8
RACCORDO
100
AcDbLine
 62
7
  6
CONTINUOUS
 10
10.4355823661
 20
24.4974554741
 11
10.4473162875
 21
24.4954823677
  0
LWPOLYLINE
  5
724
100
AcDbEntity
  8
ASSI
100
AcDbPolyline
 62
7
  6
CONTINUOUS
 90
6
 70
0
 10
10.4355823661
 20
24.4974554741
 10
10.4473162875
 20
24.4954823677
 10
10.4589430388
 20
24.4929531817
 10
10.470436279
 20
24.4898736417
 10
10.4817699738
 20
24.4862507213
 10
10.4929184493
 20
24.4820926258
  0
LWPOLYLINE
  5
725
100
AcDbEntity
  8
RACCORDO
100
AcDbPolyline
 62
7
  6
CONTINUOUS
 90
26
 70
0
 10
10.4473162875
 20
24.4954823677
 10
10.4589430388
 20
24.4929531817
 10
10.470436279
 20
24.4898736417
 10
10.4817699738
 20
24.4862507213
 10
10.4929184493
 20
24.4820926258
 10
10.5038564463
 20
24.4774087722
 10
10.5145591876
 20
24.4722097688
 10
10.5250024283
 20
24.4665073916
 10
10.5351625059
 20
24.4603145581
 10
10.5450164051
 20
24.4536452955
 10
10.5545418038
 20
24.4465147107
 10
10.5637171191
 20
24.4389389589
 10
10.5725215661
 20
24.4309352005
 10
10.5809352005
 20
24.4225215661
 10
10.5889389589
 20
24.4137171191
 10
10.5965147107
 20
24.4045418038
 10
10.6036452955
 20
24.3950164051
 10
10.6103145581
 20
24.3851625059
 10
10.6165073916
 20
24.3750024283
 10
10.6222097688
 20
24.3645591876
 10
10.6274087722
 20
24.3538564463
 10
10.6320926258
 20
24.3429184493
 10
10.6362507213
 20
24.3317699738
 10
10.6398736417
 20
24.320436279
 10
10.6429531817
 20
24.3089430388
 10
10.6454823677
 20
24.2973162875
  0
LWPOLYLINE
  5
726
100
AcDbEntity
  8
ASSI
100
AcDbPolyline
 62
7
  6
CONTINUOUS
 90
18
 70
0
 10
10.4929184493
 20
24.4820926258
 10
10.5038564463
 20
24.4774087722
 10
10.5145591876
 20
24.4722097688
 10
10.5250024283
 20
24.4665073916
 10
10.5351625059
 20
24.4603145581
 10
10.5450164051
 20
24.4536452955
 10
10.5545418038
 20
24.4465147107
 10
10.5637171191
 20
24.4389389589
 10
10.5725215661
 20
24.4309352005
 10
10.5809352005
 20
24.4225215661
 10
10.5889389589
 20
24.4137171191
 10
10.5965147107
 20
24.4045418038
 10
10.6036452955
 20
24.3950164051
 10
10.6103145581
 20
24.3851625059
 10
10.6165073916
 20
24.3750024283
 10
10.6222097688
 20
24.3645591876
 10
10.6274087722
 20
24.3538564463
 10
10.6320926258
 20
24.3429184493
  0
LWPOLYLINE
  5
727
100
AcDbEntity
  8
RACCORDO
100
AcDbPolyline
 62
7
  6
CONTINUOUS
 90
11
 70
0
 10
10.8560370741
 20
22.3472138017
 10
10.8381874588
 20
22.3557023577
 10
10.8183694928
 20
22.3641420636
 10
10.7981597008
 20
22.3717368058
 10
10.7776108967
 20
22.3784610765
 10
10.7567435211
 20
22.3843026901
 10
10.7356119114
 20
22.3892409661
 10
10.714323887
 20
22.3932510251
 10
10.6929434461
 20
22.396327304
 10
10.6714883972
 20
22.3984737398
 10
10.6499991391
 20
22.3996911987
  0
LINE
  5
728
100
AcDbEntity
  8
RACCORDO
100
AcDbLine
 62
253
  6
CONTINUOUS
 10
10.6323926099
 20
22.4
 11
10.6466029582
 21
22.392895367
  0
LINE
  5
729
100
AcDbEntity
  8
ASSI
100
AcDbLine
 62
253
  6
CONTINUOUS
 10
10.6323926099
 20
22.4
 11
10.6466029582
 21
22.392895367
  0
ARC
  5
72A
100
AcDbEntity
  8
0
100
AcDbCircle
 62
7
  6
CONTINUOUS
 10
-7.7
 20
-7.05
 40
0.5
100
AcDbArc
 50
180.0
 51
270.0
  0
ARC
  5
72B
100
AcDbEntity
  8
0
100
AcDbCircle
 62
7
  6
CONTINUOUS
 10
-1.9723869644
 20
-5.5932984605
 40
0.4
100
AcDbArc
 50
20.8612450746
 51
44.9999999996
  0
ARC
  5
72C
100
AcDbEntity
  8
0
100
AcDbCircle
 62
7
  6
CONTINUOUS
 10
-1.9882744571
 20
-5.5411922557
 40
0.4
100
AcDbArc
 50
13.0523080186
 51
42.8613174216
  0
ARC
  5
72D
100
AcDbEntity
  8
0
100
AcDbCircle
 62
7
  6
CONTINUOUS
 10
-2.38
 20
-3.9429947517
 40
0.4
100
AcDbArc
 50
180.0
 51
222.8613174228
  0
ARC
  5
72E
100
AcDbEntity
  8
0
100
AcDbCircle
 62
7
  6
CONTINUOUS
 10
-2.4
 20
-4.0343145751
 40
0.4
100
AcDbArc
 50
180.0
 51
224.9999999998
  0
ARC
  5
72F
100
AcDbEntity
  8
0
100
AcDbCircle
 62
7
  6
CONTINUOUS
 10
-1.88
 20
-3.7467381913
 40
0.4
100
AcDbArc
 50
180.0
 51
222.8613174228
  0
ARC
  5
730
100
AcDbEntity
  8
0
100
AcDbCircle
 62
7
  6
CONTINUOUS
 10
-1.5279313857
 20
-5.3022019361
 40
0.4
100
AcDbArc
 50
12.0114783866
 51
42.8613174216
  0
ARC
  5
731
100
AcDbEntity
  8
0
100
AcDbCircle
 62
7
  6
CONTINUOUS
 10
-0.6413436256
 20
-5.625
 40
0.4
100
AcDbArc
 50
192.011478386
 51
270.0
  0
ARC
  5
732
100
AcDbEntity
  8
0
100
AcDbCircle
 62
7
  6
CONTINUOUS
 10
-1.0461527225
 20
-6.125
 40
0.4
100
AcDbArc
 50
192.0114783863
 51
270.0
  0
ARC
  5
733
100
AcDbEntity
  8
0
100
AcDbCircle
 62
7
  6
CONTINUOUS
 10
-1.0635611294
 20
-6.15
 40
0.4
100
AcDbArc
 50
189.8658069432
 51
270.0
  0
ARC
  5
734
100
AcDbEntity
  8
0
100
AcDbCircle
 62
7
  6
CONTINUOUS
 10
-7.7
 20
9.05
 40
0.5
100
AcDbArc
 50
90.0
 51
180.0
  0
ARC
  5
735
100
AcDbEntity
  8
0
100
AcDbCircle
 62
7
  6
CONTINUOUS
 10
-2.38
 20
5.9429947517
 40
0.4
100
AcDbArc
 50
137.1386825782
 51
180.0
  0
ARC
  5
736
100
AcDbEntity
  8
0
100
AcDbCircle
 62
7
  6
CONTINUOUS
 10
-1.9882744571
 20
7.5411922557
 40
0.4
100
AcDbArc
 50
317.138682577
 51
346.9476919814
  0
ARC
  5
737
100
AcDbEntity
  8
0
100
AcDbCircle
 62
7
  6
CONTINUOUS
 10
-1.9723869644
 20
7.5932984605
 40
0.4
100
AcDbArc
 50
315.0000000003
 51
339.1387549254
  0
ARC
  5
738
100
AcDbEntity
  8
0
100
AcDbCircle
 62
7
  6
CONTINUOUS
 10
-2.4
 20
6.0343145751
 40
0.4
100
AcDbArc
 50
135.0000000003
 51
180.0
  0
ARC
  5
739
100
AcDbEntity
  8
0
100
AcDbCircle
 62
7
  6
CONTINUOUS
 10
-1.5279313857
 20
7.3022019361
 40
0.4
100
AcDbArc
 50
317.138682578
 51
347.988521614
  0
ARC
  5
73A
100
AcDbEntity
  8
0
100
AcDbCircle
 62
7
  6
CONTINUOUS
 10
-1.88
 20
5.7467381913
 40
0.4
100
AcDbArc
 50
137.1386825773
 51
180.0
  0
ARC
  5
73B
100
AcDbEntity
  8
0
100
AcDbCircle
 62
7
  6
CONTINUOUS
 10
-0.6413436256
 20
7.625
 40
0.4
100
AcDbArc
 50
90.0
 51
167.9885216138
  0
ARC
  5
73C
100
AcDbEntity
  8
0
100
AcDbCircle
 62
7
  6
CONTINUOUS
 10
-1.0461527225
 20
8.125
 40
0.4
100
AcDbArc
 50
90.0
 51
167.9885216137
  0
ARC
  5
73D
100
AcDbEntity
  8
0
100
AcDbCircle
 62
7
  6
CONTINUOUS
 10
-1.0635611294
 20
8.15
 40
0.4
100
AcDbArc
 50
89.9999881758
 51
170.134193057
  0
ARC
  5
73E
100
AcDbEntity
  8
RACCORDO
100
AcDbCircle
 62
7
  6
CONTINUOUS
 10
-4.2
 20
17.6
 40
0.3
100
AcDbArc
 50
180.0
 51
270.0
  0
ARC
  5
73F
100
AcDbEntity
  8
ASSI
100
AcDbCircle
 62
7
  6
CONTINUOUS
 10
-4.2
 20
17.6
 40
0.3
100
AcDbArc
 50
180.0
 51
270.0
  0
ARC
  5
740
100
AcDbEntity
  8
0
100
AcDbCircle
 62
7
  6
CONTINUOUS
 10
7.7
 20
-7.05
 40
0.5
100
AcDbArc
 50
270.0
 51
360.0
  0
ARC
  5
741
100
AcDbEntity
  8
0
100
AcDbCircle
 62
7
  6
CONTINUOUS
 10
1.88
 20
-5.625
 40
0.4
100
AcDbArc
 50
270.0
 51
360.0
  0
ARC
  5
742
100
AcDbEntity
  8
0
100
AcDbCircle
 62
7
  6
CONTINUOUS
 10
2.38
 20
-6.125
 40
0.4
100
AcDbArc
 50
270.0
 51
360.0
  0
ARC
  5
743
100
AcDbEntity
  8
0
100
AcDbCircle
 62
7
  6
CONTINUOUS
 10
2.4
 20
-6.15
 40
0.4
100
AcDbArc
 50
270.0
 51
360.0
  0
ARC
  5
744
100
AcDbEntity
  8
0
100
AcDbCircle
 62
7
  6
CONTINUOUS
 10
7.7
 20
9.05
 40
0.5
100
AcDbArc
 50
0.0
 51
90.0
  0
ARC
  5
745
100
AcDbEntity
  8
0
100
AcDbCircle
 62
7
  6
CONTINUOUS
 10
1.88
 20
7.625
 40
0.4
100
AcDbArc
 50
0.0
 51
90.0
  0
ARC
  5
746
100
AcDbEntity
  8
0
100
AcDbCircle
 62
7
  6
CONTINUOUS
 10
2.38
 20
8.125
 40
0.4
100
AcDbArc
 50
0.0
 51
90.0
  0
ARC
  5
747
100
AcDbEntity
  8
0
100
AcDbCircle
 62
7
  6
CONTINUOUS
 10
2.4
 20
8.15
 40
0.4
100
AcDbArc
 50
0.0
 51
89.9993741243
  0
ARC
  5
748
100
AcDbEntity
  8
RACCORDO
100
AcDbCircle
 62
7
  6
CONTINUOUS
 10
4.2
 20
17.6
 40
0.3
100
AcDbArc
 50
270.0
 51
360.0
  0
ARC
  5
749
100
AcDbEntity
  8
ASSI
100
AcDbCircle
 62
7
  6
CONTINUOUS
 10
4.2
 20
17.6
 40
0.3
100
AcDbArc
 50
270.0
 51
360.0
  0
ELLIPSE
  5
74A
100
AcDbEntity
  8
RACCORDO
100
AcDbEllipse
 62
7
  6
CONTINUOUS
 10
7.3238531022
 20
19.8
 30
0.0
 11
0.0
 21
0.5
 31
0.0
 40
0.0058178298
 41
-4.7123889804
 42
-3.1415926536
  0
ELLIPSE
  5
74B
100
AcDbEntity
  8
RACCORDO
100
AcDbEllipse
 62
7
  6
CONTINUOUS
 10
-8.9303794106
 20
11.5872686779
 30
0.0
 11
0.3
 21
-0.0
 31
0.0
 40
0.0087268678
 41
1.5707963268
 42
2.7925268032
  0
ELLIPSE
  5
74C
100
AcDbEntity
  8
RACCORDO
100
AcDbEllipse
 62
7
  6
CONTINUOUS
 10
-9.5784342338
 20
19.8
 30
0.0
 11
0.0
 21
0.5
 31
0.0
 40
0.0174550649
 41
-4.7123889804
 42
-3.1415926536
  0
ELLIPSE
  5
74D
100
AcDbEntity
  8
RACCORDO
100
AcDbEllipse
 62
7
  6
CONTINUOUS
 10
-10.649923836
 20
-21.891254093
 30
0.0
 11
-0.4473055582
 21
0.2236357461
 31
0.0
 40
0.9998096356
 41
6.7467263073
 42
8.3176749331
  0
ELLIPSE
  5
74E
100
AcDbEntity
  8
RACCORDO
100
AcDbEllipse
 62
7
  6
CONTINUOUS
 10
4.2
 20
19.9973819397
 30
0.0
 11
0.3
 21
-0.0
 31
0.0
 40
0.0087268678
 41
0.0
 42
1.5707963268
  0
ELLIPSE
  5
74F
100
AcDbEntity
  8
RACCORDO
100
AcDbEllipse
 62
7
  6
CONTINUOUS
 10
-7.3238531022
 20
19.8
 30
0.0
 11
0.0
 21
0.5
 31
0.0
 40
0.0058178298
 41
-3.1415926536
 42
-1.5707963268
  0
ELLIPSE
  5
750
100
AcDbEntity
  8
RACCORDO
100
AcDbEllipse
 62
7
  6
CONTINUOUS
 10
6.4761468978
 20
19.8
 30
0.0
 11
0.0
 21
0.5
 31
0.0
 40
0.0058178298
 41
-3.1415926536
 42
-1.5707963268
  0
ELLIPSE
  5
751
100
AcDbEntity
  8
RACCORDO
100
AcDbEllipse
 62
7
  6
CONTINUOUS
 10
9.5784342338
 20
19.8
 30
0.0
 11
0.0
 21
0.5
 31
0.0
 40
0.0174550649
 41
-3.1415926536
 42
-1.5707963268
  0
ELLIPSE
  5
752
100
AcDbEntity
  8
RACCORDO
100
AcDbEllipse
 62
7
  6
CONTINUOUS
 10
6.9999809608
 20
-10.3999809608
 30
0.0
 11
-0.3535803156
 21
0.3535803156
 31
0.0
 40
0.9999238505
 41
-3.9269527408
 42
-2.3562325664
  0
ELLIPSE
  5
753
100
AcDbEntity
  8
RACCORDO
100
AcDbEllipse
 62
7
  6
CONTINUOUS
 10
-6.9999809608
 20
-10.3999809608
 30
0.0
 11
0.3535803156
 21
0.3535803156
 31
0.0
 40
0.9999238505
 41
-3.9269527408
 42
-2.3562325664
  0
ELLIPSE
  5
754
100
AcDbEntity
  8
RACCORDO
100
AcDbEllipse
 62
7
  6
CONTINUOUS
 10
-6.9999809608
 20
13.3999809608
 30
0.0
 11
0.3535803156
 21
-0.3535803156
 31
0.0
 40
0.9999238505
 41
2.3562325664
 42
3.9269527408
  0
ELLIPSE
  5
755
100
AcDbEntity
  8
RACCORDO
100
AcDbEllipse
 62
7
  6
CONTINUOUS
 10
6.9999809608
 20
13.3999809608
 30
0.0
 11
0.3535803156
 21
0.3535803156
 31
0.0
 40
0.9999238505
 41
-0.7853600872
 42
0.7853600872
  0
ELLIPSE
  5
756
100
AcDbEntity
  8
RACCORDO
100
AcDbEllipse
 62
7
  6
CONTINUOUS
 10
10.3999957691
 20
23.4113248654
 30
0.0
 11
-0.0029088041
 21
0.2886641433
 31
0.0
 40
0.8660144118
 41
-3.150319066
 42
-1.582431609
  0
ELLIPSE
  5
757
100
AcDbEntity
  8
RACCORDO
100
AcDbEllipse
 62
7
  6
CONTINUOUS
 10
-8.9303794106
 20
12.4127313221
 30
0.0
 11
0.3
 21
0.0
 31
0.0
 40
0.0087268678
 41
-2.7925268032
 42
-1.5707963268
  0
ELLIPSE
  5
758
100
AcDbEntity
  8
RACCORDO
100
AcDbEllipse
 62
7
  6
CONTINUOUS
 10
8.9303794106
 20
12.4127313221
 30
0.0
 11
0.3
 21
0.0
 31
0.0
 40
0.0087268678
 41
-1.5707963268
 42
-0.3490658504
  0
ELLIPSE
  5
759
100
AcDbEntity
  8
RACCORDO
100
AcDbEllipse
 62
7
  6
CONTINUOUS
 10
8.5000042309
 20
23.4113248654
 30
0.0
 11
0.0029088041
 21
0.2886641433
 31
0.0
 40
0.8660144118
 41
-4.7007536982
 42
-3.1328662412
  0
ELLIPSE
  5
75A
100
AcDbEntity
  8
RACCORDO
100
AcDbEllipse
 62
7
  6
CONTINUOUS
 10
-8.5000042309
 20
23.4113248654
 30
0.0
 11
-0.0029088041
 21
0.2886641433
 31
0.0
 40
0.8660144118
 41
-3.150319066
 42
-1.582431609
  0
ELLIPSE
  5
75B
100
AcDbEntity
  8
RACCORDO
100
AcDbEllipse
 62
7
  6
CONTINUOUS
 10
-8.9303794106
 20
-8.8127313221
 30
0.0
 11
0.3
 21
0.0
 31
0.0
 40
0.0087268678
 41
1.5707963268
 42
2.7925268032
  0
ELLIPSE
  5
75C
100
AcDbEntity
  8
RACCORDO
100
AcDbEllipse
 62
7
  6
CONTINUOUS
 10
8.9303794106
 20
-8.8127313221
 30
0.0
 11
0.3
 21
-0.0
 31
0.0
 40
0.0087268678
 41
0.3490658504
 42
1.5707963268
  0
ELLIPSE
  5
75D
100
AcDbEntity
  8
RACCORDO
100
AcDbEllipse
 62
7
  6
CONTINUOUS
 10
-6.8122642439
 20
-10.8127313221
 30
0.0
 11
0.3
 21
0.0
 31
0.0
 40
0.0087268678
 41
0.0174532925
 42
1.5707963268
  0
ELLIPSE
  5
75E
100
AcDbEntity
  8
RACCORDO
100
AcDbEllipse
 62
7
  6
CONTINUOUS
 10
-10.3999957691
 20
23.4113248654
 30
0.0
 11
0.0029088041
 21
0.2886641433
 31
0.0
 40
0.8660144118
 41
-4.7007536982
 42
-3.1328662412
  0
ELLIPSE
  5
75F
100
AcDbEntity
  8
RACCORDO
100
AcDbEllipse
 62
7
  6
CONTINUOUS
 10
6.8122642439
 20
-10.8127313221
 30
0.0
 11
0.3
 21
-0.0
 31
0.0
 40
0.0087268678
 41
1.5707963268
 42
3.1241393611
  0
ELLIPSE
  5
760
100
AcDbEntity
  8
RACCORDO
100
AcDbEllipse
 62
7
  6
CONTINUOUS
 10
6.8122642439
 20
13.8127313221
 30
0.0
 11
0.3
 21
0.0
 31
0.0
 40
0.0087268678
 41
-3.1241393611
 42
-1.5707963268
  0
ELLIPSE
  5
761
100
AcDbEntity
  8
RACCORDO
100
AcDbEllipse
 62
7
  6
CONTINUOUS
 10
-6.8122642439
 20
13.8127313221
 30
0.0
 11
0.3
 21
0.0
 31
0.0
 40
0.0087268678
 41
-1.5707963268
 42
-0.0174532925
  0
ELLIPSE
  5
762
100
AcDbEntity
  8
RACCORDO
100
AcDbEllipse
 62
7
  6
CONTINUOUS
 10
10.3999957691
 20
-23.4113248654
 30
0.0
 11
0.0029088041
 21
0.2886641433
 31
0.0
 40
0.8660144118
 41
-1.5591610446
 42
0.0087264124
  0
ELLIPSE
  5
763
100
AcDbEntity
  8
RACCORDO
100
AcDbEllipse
 62
7
  6
CONTINUOUS
 10
-9.5208325195
 20
15.2792978419
 30
0.0
 11
0.0
 21
0.5
 31
0.0
 40
0.0174550649
 41
-4.7123889804
 42
-3.1939525311
  0
ELLIPSE
  5
764
100
AcDbEntity
  8
RACCORDO
100
AcDbEllipse
 62
7
  6
CONTINUOUS
 10
9.5208325195
 20
15.2792978419
 30
0.0
 11
0.0
 21
0.5
 31
0.0
 40
0.0174550649
 41
-3.089232776
 42
-1.5707963268
  0
ELLIPSE
  5
765
100
AcDbEntity
  8
RACCORDO
100
AcDbEllipse
 62
7
  6
CONTINUOUS
 10
8.5000042309
 20
-23.4113248654
 30
0.0
 11
-0.0029088041
 21
0.2886641433
 31
0.0
 40
0.8660144118
 41
-0.0087264124
 42
1.5591610446
  0
ELLIPSE
  5
766
100
AcDbEntity
  8
RACCORDO
100
AcDbEllipse
 62
7
  6
CONTINUOUS
 10
-8.9303794106
 20
0.4127313221
 30
0.0
 11
0.3
 21
-0.0
 31
0.0
 40
0.0087268678
 41
-2.7925268032
 42
-1.5707963268
  0
ELLIPSE
  5
767
100
AcDbEntity
  8
RACCORDO
100
AcDbEllipse
 62
7
  6
CONTINUOUS
 10
-8.9303794106
 20
-0.4127313221
 30
0.0
 11
0.3
 21
0.0
 31
0.0
 40
0.0087268678
 41
1.5707963268
 42
2.7925268032
  0
ELLIPSE
  5
768
100
AcDbEntity
  8
RACCORDO
100
AcDbEllipse
 62
7
  6
CONTINUOUS
 10
8.9303794106
 20
-0.4127313221
 30
0.0
 11
0.3
 21
0.0
 31
0.0
 40
0.0087268678
 41
0.3490658504
 42
1.5707963268
  0
ELLIPSE
  5
769
100
AcDbEntity
  8
RACCORDO
100
AcDbEllipse
 62
7
  6
CONTINUOUS
 10
8.9303794106
 20
0.4127313221
 30
0.0
 11
0.3
 21
0.0
 31
0.0
 40
0.0087268678
 41
-1.5707963268
 42
-0.3490658504
  0
ELLIPSE
  5
76A
100
AcDbEntity
  8
RACCORDO
100
AcDbEllipse
 62
7
  6
CONTINUOUS
 10
-8.4127313221
 20
-6.2872801014
 30
0.0
 11
-0.0
 21
0.3
 31
0.0
 40
0.0087268678
 41
-1.5707963268
 42
-0.0087266463
  0
ELLIPSE
  5
76B
100
AcDbEntity
  8
RACCORDO
100
AcDbEllipse
 62
7
  6
CONTINUOUS
 10
-8.9303794106
 20
7.2872686779
 30
0.0
 11
0.3
 21
0.0
 31
0.0
 40
0.0087268678
 41
1.5707963268
 42
2.7925268032
  0
ELLIPSE
  5
76C
100
AcDbEntity
  8
RACCORDO
100
AcDbEllipse
 62
7
  6
CONTINUOUS
 10
-8.5000042309
 20
-23.4113248654
 30
0.0
 11
0.0029088041
 21
0.2886641433
 31
0.0
 40
0.8660144118
 41
-1.5591610446
 42
0.0087264124
  0
ELLIPSE
  5
76D
100
AcDbEntity
  8
RACCORDO
100
AcDbEllipse
 62
7
  6
CONTINUOUS
 10
8.4127313221
 20
-6.2872801014
 30
0.0
 11
0.0
 21
0.3
 31
0.0
 40
0.0087268678
 41
0.0087266463
 42
1.5707963268
  0
ELLIPSE
  5
76E
100
AcDbEntity
  8
RACCORDO
100
AcDbEllipse
 62
7
  6
CONTINUOUS
 10
-10.3999957691
 20
-23.4113248654
 30
0.0
 11
-0.0029088041
 21
0.2886641433
 31
0.0
 40
0.8660144118
 41
-0.0087264124
 42
1.5591610446
  0
ELLIPSE
  5
76F
100
AcDbEntity
  8
RACCORDO
100
AcDbEllipse
 62
7
  6
CONTINUOUS
 10
8.9303794106
 20
7.2872686779
 30
0.0
 11
0.3
 21
0.0
 31
0.0
 40
0.0087268678
 41
0.3490658504
 42
1.5707963268
  0
ELLIPSE
  5
770
100
AcDbEntity
  8
RACCORDO
100
AcDbEllipse
 62
7
  6
CONTINUOUS
 10
8.9303794106
 20
11.5872686779
 30
0.0
 11
0.3
 21
-0.0
 31
0.0
 40
0.0087268678
 41
0.3490658504
 42
1.5707963268
  0
ELLIPSE
  5
771
100
AcDbEntity
  8
RACCORDO
100
AcDbEllipse
 62
7
  6
CONTINUOUS
 10
-8.9303794106
 20
-7.9872686779
 30
0.0
 11
0.3
 21
0.0
 31
0.0
 40
0.0087268678
 41
-2.7925268032
 42
-1.5707963268
  0
ELLIPSE
  5
772
100
AcDbEntity
  8
RACCORDO
100
AcDbEllipse
 62
7
  6
CONTINUOUS
 10
8.9303794106
 20
-7.9872686779
 30
0.0
 11
0.3
 21
0.0
 31
0.0
 40
0.0087268678
 41
-1.5707963268
 42
-0.3490658504
  0
ELLIPSE
  5
773
100
AcDbEntity
  8
RACCORDO
100
AcDbEllipse
 62
7
  6
CONTINUOUS
 10
6.1999543016
 20
13.5000456984
 30
0.0
 11
-0.2121966568
 21
0.2121966568
 31
0.0
 40
0.9996954599
 41
2.3563467834
 42
3.9268385237
  0
ELLIPSE
  5
774
100
AcDbEntity
  8
RACCORDO
100
AcDbEllipse
 62
7
  6
CONTINUOUS
 10
7.5841007192
 20
20.9916321118
 30
0.0
 11
0.5
 21
-0.0
 31
0.0
 40
0.0087268678
 41
0.0174532925
 42
1.5707963268
  0
ELLIPSE
  5
775
100
AcDbEntity
  8
RACCORDO
100
AcDbEllipse
 62
7
  6
CONTINUOUS
 10
-7.5841007192
 20
20.9916321118
 30
0.0
 11
0.5
 21
-0.0
 31
0.0
 40
0.0087268678
 41
1.5707963268
 42
3.1241393611
  0
ELLIPSE
  5
776
100
AcDbEntity
  8
RACCORDO
100
AcDbEllipse
 62
7
  6
CONTINUOUS
 10
7.5841007192
 20
-20.9916321118
 30
0.0
 11
0.5
 21
0.0
 31
0.0
 40
0.0087268678
 41
-1.5707963268
 42
-0.0174532925
  0
ELLIPSE
  5
777
100
AcDbEntity
  8
RACCORDO
100
AcDbEllipse
 62
7
  6
CONTINUOUS
 10
-7.5841007192
 20
-20.9916321118
 30
0.0
 11
0.5
 21
0.0
 31
0.0
 40
0.0087268678
 41
-3.1241393611
 42
-1.5707963268
  0
ELLIPSE
  5
778
100
AcDbEntity
  8
RACCORDO
100
AcDbEllipse
 62
7
  6
CONTINUOUS
 10
6.5552693832
 20
20.5829242832
 30
0.0
 11
-0.0
 21
0.5
 31
0.0
 40
0.0058178298
 41
-3.1328660073
 42
-1.5707963268
  0
ELLIPSE
  5
779
100
AcDbEntity
  8
RACCORDO
100
AcDbEllipse
 62
7
  6
CONTINUOUS
 10
-6.5552693832
 20
20.5829242832
 30
0.0
 11
0.0
 21
0.5
 31
0.0
 40
0.0058178298
 41
-4.7123889804
 42
-3.1503192998
  0
ELLIPSE
  5
77A
100
AcDbEntity
  8
RACCORDO
100
AcDbEllipse
 62
7
  6
CONTINUOUS
 10
-6.5552693832
 20
-20.5829242832
 30
0.0
 11
0.0
 21
0.5
 31
0.0
 40
0.0058178298
 41
0.0087266463
 42
1.5707963268
  0
ELLIPSE
  5
77B
100
AcDbEntity
  8
RACCORDO
100
AcDbEllipse
 62
7
  6
CONTINUOUS
 10
6.5552693832
 20
-20.5829242832
 30
0.0
 11
-0.0
 21
0.5
 31
0.0
 40
0.0058178298
 41
-1.5707963268
 42
-0.0087266463
  0
ELLIPSE
  5
77C
100
AcDbEntity
  8
DRAFT
100
AcDbEllipse
 62
7
  6
CONTINUOUS
 10
3.9279699877
 20
-22.3339198952
 30
0.0
 11
0.4279699877
 21
-0.0
 31
0.0
 40
0.0087268678
 41
0.0058177642
 42
3.1415926536
  0
ELLIPSE
  5
77D
100
AcDbEntity
  8
DRAFT
100
AcDbEllipse
 62
7
  6
CONTINUOUS
 10
-3.9279699877
 20
-22.3339198952
 30
0.0
 11
0.4279699877
 21
0.0
 31
0.0
 40
0.0087268678
 41
-0.0
 42
3.1357748894
  0
ELLIPSE
  5
77E
100
AcDbEntity
  8
DRAFT
100
AcDbEllipse
 62
7
  6
CONTINUOUS
 10
3.9279699877
 20
22.3339198952
 30
0.0
 11
0.4279699877
 21
-0.0
 31
0.0
 40
0.0087268678
 41
-3.1415926536
 42
-0.0058177642
  0
ELLIPSE
  5
77F
100
AcDbEntity
  8
DRAFT
100
AcDbEllipse
 62
7
  6
CONTINUOUS
 10
-3.9279699877
 20
22.3339198952
 30
0.0
 11
0.4279699877
 21
0.0
 31
0.0
 40
0.0087268678
 41
-3.1357748894
 42
-0.0
  0
ELLIPSE
  5
780
100
AcDbEntity
  8
RACCORDO
100
AcDbEllipse
 62
7
  6
CONTINUOUS
 10
-6.1999543016
 20
13.5000456984
 30
0.0
 11
0.2121966568
 21
0.2121966568
 31
0.0
 40
0.9996954599
 41
2.3563467834
 42
3.9268385237
  0
ELLIPSE
  5
781
100
AcDbEntity
  8
RACCORDO
100
AcDbEllipse
 62
7
  6
CONTINUOUS
 10
-6.1999543016
 20
-10.2000456984
 30
0.0
 11
0.2121966568
 21
-0.2121966568
 31
0.0
 40
0.9996954599
 41
2.3563467834
 42
3.9268385237
  0
ELLIPSE
  5
782
100
AcDbEntity
  8
RACCORDO
100
AcDbEllipse
 62
7
  6
CONTINUOUS
 10
6.1999543016
 20
-10.2000456984
 30
0.0
 11
-0.2121966568
 21
-0.2121966568
 31
0.0
 40
0.9996954599
 41
2.3563467834
 42
3.9268385237
  0
ELLIPSE
  5
783
100
AcDbEntity
  8
RACCORDO
100
AcDbEllipse
 62
7
  6
CONTINUOUS
 10
-7.7372801014
 20
-7.9872686779
 30
0.0
 11
0.3
 21
-0.0
 31
0.0
 40
0.0087268678
 41
-1.5707963268
 42
-0.0087266463
  0
ELLIPSE
  5
784
100
AcDbEntity
  8
RACCORDO
100
AcDbEllipse
 62
7
  6
CONTINUOUS
 10
-6.9100942226
 20
13.3100942226
 30
0.0
 11
0.3535803156
 21
-0.3535803156
 31
0.0
 40
0.9999238505
 41
2.3562325664
 42
3.9269527408
  0
ELLIPSE
  5
785
100
AcDbEntity
  8
RACCORDO
100
AcDbEllipse
 62
7
  6
CONTINUOUS
 10
6.9100942226
 20
13.3100942226
 30
0.0
 11
0.3535803156
 21
0.3535803156
 31
0.0
 40
0.9999238505
 41
-0.7853600872
 42
0.7853600872
  0
ELLIPSE
  5
786
100
AcDbEntity
  8
RACCORDO
100
AcDbEllipse
 62
7
  6
CONTINUOUS
 10
-6.4761468978
 20
19.8
 30
0.0
 11
0.0
 21
0.5
 31
0.0
 40
0.0058178298
 41
-4.7123889804
 42
-3.1415926536
  0
ELLIPSE
  5
787
100
AcDbEntity
  8
RACCORDO
100
AcDbEllipse
 62
7
  6
CONTINUOUS
 10
-9.0870856022
 20
20.2106458216
 30
0.0
 11
0.1582391023
 21
-0.4751033573
 31
0.0
 40
0.9984778551
 41
2.8205423031
 42
4.3904252414
  0
ELLIPSE
  5
788
100
AcDbEntity
  8
RACCORDO
100
AcDbEllipse
 62
7
  6
CONTINUOUS
 10
10.649923836
 20
-21.891254093
 30
0.0
 11
-0.4473055582
 21
-0.2236357461
 31
0.0
 40
0.9998096356
 41
7.3902883349
 42
8.9612369607
  0
ELLIPSE
  5
789
100
AcDbEntity
  8
RACCORDO
100
AcDbEllipse
 62
7
  6
CONTINUOUS
 10
-9.149923836
 20
20.399313827
 30
0.0
 11
-0.1582391023
 21
0.4751033573
 31
0.0
 40
0.9984778551
 41
-0.3210503505
 42
1.2488325878
  0
ELLIPSE
  5
78A
100
AcDbEntity
  8
RACCORDO
100
AcDbEllipse
 62
7
  6
CONTINUOUS
 10
-10.649923836
 20
21.891254093
 30
0.0
 11
0.4473055582
 21
0.2236357461
 31
0.0
 40
0.9998096356
 41
7.3902883349
 42
8.9612369607
  0
ELLIPSE
  5
78B
100
AcDbEntity
  8
RACCORDO
100
AcDbEllipse
 62
7
  6
CONTINUOUS
 10
-9.149923836
 20
-20.399313827
 30
0.0
 11
0.1582391023
 21
0.4751033573
 31
0.0
 40
0.9984778551
 41
-4.3904252414
 42
-2.8205423031
  0
ELLIPSE
  5
78C
100
AcDbEntity
  8
RACCORDO
100
AcDbEllipse
 62
7
  6
CONTINUOUS
 10
-8.9945737581
 20
-19.9328845914
 30
0.0
 11
0.1582391023
 21
0.4751033573
 31
0.0
 40
0.9984778551
 41
1.8927600658
 42
3.4626430041
  0
ELLIPSE
  5
78D
100
AcDbEntity
  8
RACCORDO
100
AcDbEllipse
 62
7
  6
CONTINUOUS
 10
8.9945737581
 20
-19.9328845914
 30
0.0
 11
0.1582391023
 21
-0.4751033573
 31
0.0
 40
0.9984778551
 41
-0.3210503505
 42
1.2488325878
  0
ELLIPSE
  5
78E
100
AcDbEntity
  8
RACCORDO
100
AcDbEllipse
 62
7
  6
CONTINUOUS
 10
9.149923836
 20
-20.399313827
 30
0.0
 11
-0.1582391023
 21
0.4751033573
 31
0.0
 40
0.9984778551
 41
-3.4626430041
 42
-1.8927600658
  0
ELLIPSE
  5
78F
100
AcDbEntity
  8
RACCORDO
100
AcDbEllipse
 62
7
  6
CONTINUOUS
 10
9.149923836
 20
20.399313827
 30
0.0
 11
0.1582391023
 21
0.4751033573
 31
0.0
 40
0.9984778551
 41
-1.2488325878
 42
0.3210503505
  0
ELLIPSE
  5
790
100
AcDbEntity
  8
RACCORDO
100
AcDbEllipse
 62
7
  6
CONTINUOUS
 10
9.0870856022
 20
20.2106458216
 30
0.0
 11
0.1582391023
 21
0.4751033573
 31
0.0
 40
0.9984778551
 41
-1.2488325878
 42
0.3210503505
  0
ELLIPSE
  5
791
100
AcDbEntity
  8
RACCORDO
100
AcDbEllipse
 62
7
  6
CONTINUOUS
 10
10.649923836
 20
21.891254093
 30
0.0
 11
0.4473055582
 21
-0.2236357461
 31
0.0
 40
0.9998096356
 41
6.7467263073
 42
8.3176749331
  0
ELLIPSE
  5
792
100
AcDbEntity
  8
RACCORDO
100
AcDbEllipse
 62
7
  6
CONTINUOUS
 10
-4.2
 20
19.9973819397
 30
0.0
 11
0.3
 21
0.0
 31
0.0
 40
0.0087268678
 41
1.5707963268
 42
3.1415926536
  0
ELLIPSE
  5
793
100
AcDbEntity
  8
RACCORDO
100
AcDbEllipse
 62
7
  6
CONTINUOUS
 10
7.7372801014
 20
-7.9872686779
 30
0.0
 11
0.3
 21
-0.0
 31
0.0
 40
0.0087268678
 41
-3.1328660073
 42
-1.5707963268
  0
ELLIPSE
  5
794
100
AcDbEntity
  8
RACCORDO
100
AcDbEllipse
 62
7
  6
CONTINUOUS
 10
6.9100942226
 20
-10.3100942226
 30
0.0
 11
0.3535803156
 21
-0.3535803156
 31
0.0
 40
0.9999238505
 41
-0.7853600872
 42
0.7853600872
  0
ELLIPSE
  5
795
100
AcDbEntity
  8
RACCORDO
100
AcDbEllipse
 62
7
  6
CONTINUOUS
 10
-6.9100942226
 20
-10.3100942226
 30
0.0
 11
0.3535803156
 21
0.3535803156
 31
0.0
 40
0.9999238505
 41
2.3562325664
 42
3.9269527408
  0
ELLIPSE
  5
796
100
AcDbEntity
  8
ASSI
100
AcDbEllipse
 62
7
  6
CONTINUOUS
 10
-8.5000042309
 20
23.4113248654
 30
0.0
 11
-0.0029088041
 21
0.2886641433
 31
0.0
 40
0.8660144118
 41
-3.150319066
 42
-1.582431609
  0
ELLIPSE
  5
797
100
AcDbEntity
  8
ASSI
100
AcDbEllipse
 62
7
  6
CONTINUOUS
 10
8.5000042309
 20
-23.4113248654
 30
0.0
 11
-0.0029088041
 21
0.2886641433
 31
0.0
 40
0.8660144118
 41
-0.0087264124
 42
1.5591610446
  0
ELLIPSE
  5
798
100
AcDbEntity
  8
ASSI
100
AcDbEllipse
 62
7
  6
CONTINUOUS
 10
-4.2
 20
19.9973819397
 30
0.0
 11
0.3
 21
0.0
 31
0.0
 40
0.0087268678
 41
1.5707963268
 42
3.1415926536
  0
ELLIPSE
  5
799
100
AcDbEntity
  8
ASSI
100
AcDbEllipse
 62
7
  6
CONTINUOUS
 10
-8.5000042309
 20
-23.4113248654
 30
0.0
 11
0.0029088041
 21
0.2886641433
 31
0.0
 40
0.8660144118
 41
-1.5591610446
 42
0.0087264124
  0
ELLIPSE
  5
79A
100
AcDbEntity
  8
ASSI
100
AcDbEllipse
 62
7
  6
CONTINUOUS
 10
-9.5784342338
 20
19.8
 30
0.0
 11
0.0
 21
0.5
 31
0.0
 40
0.0174550649
 41
-4.7123889804
 42
-3.1415926536
  0
ELLIPSE
  5
79B
100
AcDbEntity
  8
ASSI
100
AcDbEllipse
 62
7
  6
CONTINUOUS
 10
-10.3999957691
 20
-23.4113248654
 30
0.0
 11
-0.0029088041
 21
0.2886641433
 31
0.0
 40
0.8660144118
 41
-0.0087264124
 42
1.5591610446
  0
ELLIPSE
  5
79C
100
AcDbEntity
  8
ASSI
100
AcDbEllipse
 62
7
  6
CONTINUOUS
 10
-6.4761468978
 20
19.8
 30
0.0
 11
0.0
 21
0.5
 31
0.0
 40
0.0058178298
 41
-4.7123889804
 42
-3.1415926536
  0
ELLIPSE
  5
79D
100
AcDbEntity
  8
ASSI
100
AcDbEllipse
 62
7
  6
CONTINUOUS
 10
7.3238531022
 20
19.8
 30
0.0
 11
0.0
 21
0.5
 31
0.0
 40
0.0058178298
 41
-4.7123889804
 42
-3.1415926536
  0
ELLIPSE
  5
79E
100
AcDbEntity
  8
ASSI
100
AcDbEllipse
 62
7
  6
CONTINUOUS
 10
10.649923836
 20
21.891254093
 30
0.0
 11
0.4473055582
 21
-0.2236357461
 31
0.0
 40
0.9998096356
 41
6.7467263073
 42
8.3176749331
  0
ELLIPSE
  5
79F
100
AcDbEntity
  8
ASSI
100
AcDbEllipse
 62
7
  6
CONTINUOUS
 10
-10.649923836
 20
-21.891254093
 30
0.0
 11
-0.4473055582
 21
0.2236357461
 31
0.0
 40
0.9998096356
 41
6.7467263073
 42
8.3176749331
  0
ELLIPSE
  5
7A0
100
AcDbEntity
  8
ASSI
100
AcDbEllipse
 62
7
  6
CONTINUOUS
 10
-7.7372801014
 20
-7.9872686779
 30
0.0
 11
0.3
 21
-0.0
 31
0.0
 40
0.0087268678
 41
-1.5707963268
 42
-0.0087266463
  0
ELLIPSE
  5
7A1
100
AcDbEntity
  8
ASSI
100
AcDbEllipse
 62
7
  6
CONTINUOUS
 10
7.5841007192
 20
20.9916321118
 30
0.0
 11
0.5
 21
-0.0
 31
0.0
 40
0.0087268678
 41
0.0174532925
 42
1.5707963268
  0
ELLIPSE
  5
7A2
100
AcDbEntity
  8
ASSI
100
AcDbEllipse
 62
7
  6
CONTINUOUS
 10
-7.5841007192
 20
20.9916321118
 30
0.0
 11
0.5
 21
-0.0
 31
0.0
 40
0.0087268678
 41
1.5707963268
 42
3.1241393611
  0
ELLIPSE
  5
7A3
100
AcDbEntity
  8
ASSI
100
AcDbEllipse
 62
7
  6
CONTINUOUS
 10
7.5841007192
 20
-20.9916321118
 30
0.0
 11
0.5
 21
0.0
 31
0.0
 40
0.0087268678
 41
-1.5707963268
 42
-0.0174532925
  0
ELLIPSE
  5
7A4
100
AcDbEntity
  8
ASSI
100
AcDbEllipse
 62
7
  6
CONTINUOUS
 10
-7.5841007192
 20
-20.9916321118
 30
0.0
 11
0.5
 21
0.0
 31
0.0
 40
0.0087268678
 41
-3.1241393611
 42
-1.5707963268
  0
ELLIPSE
  5
7A5
100
AcDbEntity
  8
ASSI
100
AcDbEllipse
 62
7
  6
CONTINUOUS
 10
6.5552693832
 20
20.5829242832
 30
0.0
 11
-0.0
 21
0.5
 31
0.0
 40
0.0058178298
 41
-3.1328660073
 42
-1.5707963268
  0
ELLIPSE
  5
7A6
100
AcDbEntity
  8
ASSI
100
AcDbEllipse
 62
7
  6
CONTINUOUS
 10
-6.5552693832
 20
20.5829242832
 30
0.0
 11
0.0
 21
0.5
 31
0.0
 40
0.0058178298
 41
-4.7123889804
 42
-3.1503192998
  0
ELLIPSE
  5
7A7
100
AcDbEntity
  8
ASSI
100
AcDbEllipse
 62
7
  6
CONTINUOUS
 10
-6.5552693832
 20
-20.5829242832
 30
0.0
 11
0.0
 21
0.5
 31
0.0
 40
0.0058178298
 41
0.0087266463
 42
1.5707963268
  0
ELLIPSE
  5
7A8
100
AcDbEntity
  8
ASSI
100
AcDbEllipse
 62
7
  6
CONTINUOUS
 10
6.5552693832
 20
-20.5829242832
 30
0.0
 11
-0.0
 21
0.5
 31
0.0
 40
0.0058178298
 41
-1.5707963268
 42
-0.0087266463
  0
ELLIPSE
  5
7A9
100
AcDbEntity
  8
ASSI
100
AcDbEllipse
 62
7
  6
CONTINUOUS
 10
3.9279699877
 20
-22.3339198952
 30
0.0
 11
0.4279699877
 21
-0.0
 31
0.0
 40
0.0087268678
 41
0.0058177642
 42
3.1415926536
  0
ELLIPSE
  5
7AA
100
AcDbEntity
  8
ASSI
100
AcDbEllipse
 62
7
  6
CONTINUOUS
 10
-3.9279699877
 20
-22.3339198952
 30
0.0
 11
0.4279699877
 21
0.0
 31
0.0
 40
0.0087268678
 41
-0.0
 42
3.1357748894
  0
ELLIPSE
  5
7AB
100
AcDbEntity
  8
ASSI
100
AcDbEllipse
 62
7
  6
CONTINUOUS
 10
3.9279699877
 20
22.3339198952
 30
0.0
 11
0.4279699877
 21
-0.0
 31
0.0
 40
0.0087268678
 41
-3.1415926536
 42
-0.0058177642
  0
ELLIPSE
  5
7AC
100
AcDbEntity
  8
ASSI
100
AcDbEllipse
 62
7
  6
CONTINUOUS
 10
-3.9279699877
 20
22.3339198952
 30
0.0
 11
0.4279699877
 21
0.0
 31
0.0
 40
0.0087268678
 41
-3.1357748894
 42
-0.0
  0
ELLIPSE
  5
7AD
100
AcDbEntity
  8
ASSI
100
AcDbEllipse
 62
7
  6
CONTINUOUS
 10
-8.9303794106
 20
11.5872686779
 30
0.0
 11
0.3
 21
-0.0
 31
0.0
 40
0.0087268678
 41
1.5707963268
 42
2.7925268032
  0
ELLIPSE
  5
7AE
100
AcDbEntity
  8
ASSI
100
AcDbEllipse
 62
7
  6
CONTINUOUS
 10
4.2
 20
19.9973819397
 30
0.0
 11
0.3
 21
-0.0
 31
0.0
 40
0.0087268678
 41
0.0
 42
1.5707963268
  0
ELLIPSE
  5
7AF
100
AcDbEntity
  8
ASSI
100
AcDbEllipse
 62
7
  6
CONTINUOUS
 10
-7.3238531022
 20
19.8
 30
0.0
 11
0.0
 21
0.5
 31
0.0
 40
0.0058178298
 41
-3.1415926536
 42
-1.5707963268
  0
ELLIPSE
  5
7B0
100
AcDbEntity
  8
ASSI
100
AcDbEllipse
 62
7
  6
CONTINUOUS
 10
6.4761468978
 20
19.8
 30
0.0
 11
0.0
 21
0.5
 31
0.0
 40
0.0058178298
 41
-3.1415926536
 42
-1.5707963268
  0
ELLIPSE
  5
7B1
100
AcDbEntity
  8
ASSI
100
AcDbEllipse
 62
7
  6
CONTINUOUS
 10
9.5784342338
 20
19.8
 30
0.0
 11
0.0
 21
0.5
 31
0.0
 40
0.0174550649
 41
-3.1415926536
 42
-1.5707963268
  0
ELLIPSE
  5
7B2
100
AcDbEntity
  8
ASSI
100
AcDbEllipse
 62
7
  6
CONTINUOUS
 10
6.9999809608
 20
-10.3999809608
 30
0.0
 11
-0.3535803156
 21
0.3535803156
 31
0.0
 40
0.9999238505
 41
-3.9269527408
 42
-2.3562325664
  0
ELLIPSE
  5
7B3
100
AcDbEntity
  8
ASSI
100
AcDbEllipse
 62
7
  6
CONTINUOUS
 10
-6.9999809608
 20
-10.3999809608
 30
0.0
 11
0.3535803156
 21
0.3535803156
 31
0.0
 40
0.9999238505
 41
-3.9269527408
 42
-2.3562325664
  0
ELLIPSE
  5
7B4
100
AcDbEntity
  8
ASSI
100
AcDbEllipse
 62
7
  6
CONTINUOUS
 10
-6.9999809608
 20
13.3999809608
 30
0.0
 11
0.3535803156
 21
-0.3535803156
 31
0.0
 40
0.9999238505
 41
2.3562325664
 42
3.9269527408
  0
ELLIPSE
  5
7B5
100
AcDbEntity
  8
ASSI
100
AcDbEllipse
 62
7
  6
CONTINUOUS
 10
6.9999809608
 20
13.3999809608
 30
0.0
 11
0.3535803156
 21
0.3535803156
 31
0.0
 40
0.9999238505
 41
-0.7853600872
 42
0.7853600872
  0
ELLIPSE
  5
7B6
100
AcDbEntity
  8
ASSI
100
AcDbEllipse
 62
7
  6
CONTINUOUS
 10
-10.3999957691
 20
23.4113248654
 30
0.0
 11
0.0029088041
 21
0.2886641433
 31
0.0
 40
0.8660144118
 41
-4.7007536982
 42
-3.1328662412
  0
ELLIPSE
  5
7B7
100
AcDbEntity
  8
ASSI
100
AcDbEllipse
 62
7
  6
CONTINUOUS
 10
10.649923836
 20
-21.891254093
 30
0.0
 11
-0.4473055582
 21
-0.2236357461
 31
0.0
 40
0.9998096356
 41
7.3902883349
 42
8.9612369607
  0
ELLIPSE
  5
7B8
100
AcDbEntity
  8
ASSI
100
AcDbEllipse
 62
7
  6
CONTINUOUS
 10
-10.649923836
 20
21.891254093
 30
0.0
 11
0.4473055582
 21
0.2236357461
 31
0.0
 40
0.9998096356
 41
7.3902883349
 42
8.9612369607
  0
ELLIPSE
  5
7B9
100
AcDbEntity
  8
ASSI
100
AcDbEllipse
 62
7
  6
CONTINUOUS
 10
10.3999957691
 20
23.4113248654
 30
0.0
 11
-0.0029088041
 21
0.2886641433
 31
0.0
 40
0.8660144118
 41
-3.150319066
 42
-1.582431609
  0
ELLIPSE
  5
7BA
100
AcDbEntity
  8
ASSI
100
AcDbEllipse
 62
7
  6
CONTINUOUS
 10
-8.9303794106
 20
12.4127313221
 30
0.0
 11
0.3
 21
0.0
 31
0.0
 40
0.0087268678
 41
-2.7925268032
 42
-1.5707963268
  0
ELLIPSE
  5
7BB
100
AcDbEntity
  8
ASSI
100
AcDbEllipse
 62
7
  6
CONTINUOUS
 10
8.9303794106
 20
12.4127313221
 30
0.0
 11
0.3
 21
0.0
 31
0.0
 40
0.0087268678
 41
-1.5707963268
 42
-0.3490658504
  0
ELLIPSE
  5
7BC
100
AcDbEntity
  8
ASSI
100
AcDbEllipse
 62
7
  6
CONTINUOUS
 10
-8.9303794106
 20
-8.8127313221
 30
0.0
 11
0.3
 21
0.0
 31
0.0
 40
0.0087268678
 41
1.5707963268
 42
2.7925268032
  0
ELLIPSE
  5
7BD
100
AcDbEntity
  8
ASSI
100
AcDbEllipse
 62
7
  6
CONTINUOUS
 10
8.9303794106
 20
-8.8127313221
 30
0.0
 11
0.3
 21
-0.0
 31
0.0
 40
0.0087268678
 41
0.3490658504
 42
1.5707963268
  0
ELLIPSE
  5
7BE
100
AcDbEntity
  8
ASSI
100
AcDbEllipse
 62
7
  6
CONTINUOUS
 10
-6.8122642439
 20
-10.8127313221
 30
0.0
 11
0.3
 21
0.0
 31
0.0
 40
0.0087268678
 41
0.0174532925
 42
1.5707963268
  0
ELLIPSE
  5
7BF
100
AcDbEntity
  8
ASSI
100
AcDbEllipse
 62
7
  6
CONTINUOUS
 10
6.8122642439
 20
-10.8127313221
 30
0.0
 11
0.3
 21
-0.0
 31
0.0
 40
0.0087268678
 41
1.5707963268
 42
3.1241393611
  0
ELLIPSE
  5
7C0
100
AcDbEntity
  8
ASSI
100
AcDbEllipse
 62
7
  6
CONTINUOUS
 10
6.8122642439
 20
13.8127313221
 30
0.0
 11
0.3
 21
0.0
 31
0.0
 40
0.0087268678
 41
-3.1241393611
 42
-1.5707963268
  0
ELLIPSE
  5
7C1
100
AcDbEntity
  8
ASSI
100
AcDbEllipse
 62
7
  6
CONTINUOUS
 10
-6.8122642439
 20
13.8127313221
 30
0.0
 11
0.3
 21
0.0
 31
0.0
 40
0.0087268678
 41
-1.5707963268
 42
-0.0174532925
  0
ELLIPSE
  5
7C2
100
AcDbEntity
  8
ASSI
100
AcDbEllipse
 62
7
  6
CONTINUOUS
 10
-9.5208325195
 20
15.2792978419
 30
0.0
 11
0.0
 21
0.5
 31
0.0
 40
0.0174550649
 41
-4.7123889804
 42
-3.1939525311
  0
ELLIPSE
  5
7C3
100
AcDbEntity
  8
ASSI
100
AcDbEllipse
 62
7
  6
CONTINUOUS
 10
9.5208325195
 20
15.2792978419
 30
0.0
 11
0.0
 21
0.5
 31
0.0
 40
0.0174550649
 41
-3.089232776
 42
-1.5707963268
  0
ELLIPSE
  5
7C4
100
AcDbEntity
  8
ASSI
100
AcDbEllipse
 62
7
  6
CONTINUOUS
 10
-8.9303794106
 20
0.4127313221
 30
0.0
 11
0.3
 21
-0.0
 31
0.0
 40
0.0087268678
 41
-2.7925268032
 42
-1.5707963268
  0
ELLIPSE
  5
7C5
100
AcDbEntity
  8
ASSI
100
AcDbEllipse
 62
7
  6
CONTINUOUS
 10
-8.9303794106
 20
-0.4127313221
 30
0.0
 11
0.3
 21
0.0
 31
0.0
 40
0.0087268678
 41
1.5707963268
 42
2.7925268032
  0
ELLIPSE
  5
7C6
100
AcDbEntity
  8
ASSI
100
AcDbEllipse
 62
7
  6
CONTINUOUS
 10
8.9303794106
 20
-0.4127313221
 30
0.0
 11
0.3
 21
0.0
 31
0.0
 40
0.0087268678
 41
0.3490658504
 42
1.5707963268
  0
ELLIPSE
  5
7C7
100
AcDbEntity
  8
ASSI
100
AcDbEllipse
 62
7
  6
CONTINUOUS
 10
-4.3563662764
 20
23.2563578147
 30
0.0
 11
-0.0
 21
0.5
 31
0.0
 40
0.0058178298
 41
-0.149597008
 42
-0.0058177642
  0
ELLIPSE
  5
7C8
100
AcDbEntity
  8
ASSI
100
AcDbEllipse
 62
7
  6
CONTINUOUS
 10
-6.9100942226
 20
-10.3100942226
 30
0.0
 11
0.3535803156
 21
0.3535803156
 31
0.0
 40
0.9999238505
 41
2.3562325664
 42
3.9269527408
  0
ELLIPSE
  5
7C9
100
AcDbEntity
  8
ASSI
100
AcDbEllipse
 62
7
  6
CONTINUOUS
 10
4.3563662764
 20
23.2563578147
 30
0.0
 11
-0.0
 21
0.5
 31
0.0
 40
0.0058178298
 41
0.0058177642
 42
0.149597008
  0
ELLIPSE
  5
7CA
100
AcDbEntity
  8
ASSI
100
AcDbEllipse
 62
7
  6
CONTINUOUS
 10
6.9100942226
 20
-10.3100942226
 30
0.0
 11
0.3535803156
 21
-0.3535803156
 31
0.0
 40
0.9999238505
 41
-0.7853600872
 42
0.7853600872
  0
ELLIPSE
  5
7CB
100
AcDbEntity
  8
ASSI
100
AcDbEllipse
 62
7
  6
CONTINUOUS
 10
8.9303794106
 20
0.4127313221
 30
0.0
 11
0.3
 21
0.0
 31
0.0
 40
0.0087268678
 41
-1.5707963268
 42
-0.3490658504
  0
ELLIPSE
  5
7CC
100
AcDbEntity
  8
ASSI
100
AcDbEllipse
 62
7
  6
CONTINUOUS
 10
-8.4127313221
 20
-6.2872801014
 30
0.0
 11
-0.0
 21
0.3
 31
0.0
 40
0.0087268678
 41
-1.5707963268
 42
-0.0087266463
  0
ELLIPSE
  5
7CD
100
AcDbEntity
  8
ASSI
100
AcDbEllipse
 62
7
  6
CONTINUOUS
 10
9.0870856022
 20
20.2106458216
 30
0.0
 11
0.1582391023
 21
0.4751033573
 31
0.0
 40
0.9984778551
 41
-1.2488325878
 42
0.3210503505
  0
ELLIPSE
  5
7CE
100
AcDbEntity
  8
ASSI
100
AcDbEllipse
 62
7
  6
CONTINUOUS
 10
9.149923836
 20
20.399313827
 30
0.0
 11
0.1582391023
 21
0.4751033573
 31
0.0
 40
0.9984778551
 41
-1.2488325878
 42
0.3210503505
  0
ELLIPSE
  5
7CF
100
AcDbEntity
  8
ASSI
100
AcDbEllipse
 62
7
  6
CONTINUOUS
 10
9.149923836
 20
-20.399313827
 30
0.0
 11
-0.1582391023
 21
0.4751033573
 31
0.0
 40
0.9984778551
 41
-3.4626430041
 42
-1.8927600658
  0
ELLIPSE
  5
7D0
100
AcDbEntity
  8
ASSI
100
AcDbEllipse
 62
7
  6
CONTINUOUS
 10
8.9945737581
 20
-19.9328845914
 30
0.0
 11
0.1582391023
 21
-0.4751033573
 31
0.0
 40
0.9984778551
 41
-0.3210503505
 42
1.2488325878
  0
ELLIPSE
  5
7D1
100
AcDbEntity
  8
ASSI
100
AcDbEllipse
 62
7
  6
CONTINUOUS
 10
-8.9945737581
 20
-19.9328845914
 30
0.0
 11
0.1582391023
 21
0.4751033573
 31
0.0
 40
0.9984778551
 41
1.8927600658
 42
3.4626430041
  0
ELLIPSE
  5
7D2
100
AcDbEntity
  8
ASSI
100
AcDbEllipse
 62
7
  6
CONTINUOUS
 10
-9.149923836
 20
-20.399313827
 30
0.0
 11
0.1582391023
 21
0.4751033573
 31
0.0
 40
0.9984778551
 41
-4.3904252414
 42
-2.8205423031
  0
ELLIPSE
  5
7D3
100
AcDbEntity
  8
ASSI
100
AcDbEllipse
 62
7
  6
CONTINUOUS
 10
-9.149923836
 20
20.399313827
 30
0.0
 11
-0.1582391023
 21
0.4751033573
 31
0.0
 40
0.9984778551
 41
-0.3210503505
 42
1.2488325878
  0
ELLIPSE
  5
7D4
100
AcDbEntity
  8
ASSI
100
AcDbEllipse
 62
7
  6
CONTINUOUS
 10
-9.0870856022
 20
20.2106458216
 30
0.0
 11
0.1582391023
 21
-0.4751033573
 31
0.0
 40
0.9984778551
 41
2.8205423031
 42
4.3904252414
  0
ELLIPSE
  5
7D5
100
AcDbEntity
  8
ASSI
100
AcDbEllipse
 62
7
  6
CONTINUOUS
 10
-8.9303794106
 20
7.2872686779
 30
0.0
 11
0.3
 21
0.0
 31
0.0
 40
0.0087268678
 41
1.5707963268
 42
2.7925268032
  0
ELLIPSE
  5
7D6
100
AcDbEntity
  8
ASSI
100
AcDbEllipse
 62
7
  6
CONTINUOUS
 10
6.9100942226
 20
13.3100942226
 30
0.0
 11
0.3535803156
 21
0.3535803156
 31
0.0
 40
0.9999238505
 41
-0.7853600872
 42
0.7853600872
  0
ELLIPSE
  5
7D7
100
AcDbEntity
  8
ASSI
100
AcDbEllipse
 62
7
  6
CONTINUOUS
 10
-6.9100942226
 20
13.3100942226
 30
0.0
 11
0.3535803156
 21
-0.3535803156
 31
0.0
 40
0.9999238505
 41
2.3562325664
 42
3.9269527408
  0
ELLIPSE
  5
7D8
100
AcDbEntity
  8
ASSI
100
AcDbEllipse
 62
7
  6
CONTINUOUS
 10
8.4127313221
 20
-6.2872801014
 30
0.0
 11
0.0
 21
0.3
 31
0.0
 40
0.0087268678
 41
0.0087266463
 42
1.5707963268
  0
ELLIPSE
  5
7D9
100
AcDbEntity
  8
ASSI
100
AcDbEllipse
 62
7
  6
CONTINUOUS
 10
8.9303794106
 20
7.2872686779
 30
0.0
 11
0.3
 21
0.0
 31
0.0
 40
0.0087268678
 41
0.3490658504
 42
1.5707963268
  0
ELLIPSE
  5
7DA
100
AcDbEntity
  8
ASSI
100
AcDbEllipse
 62
7
  6
CONTINUOUS
 10
6.1999543016
 20
-10.2000456984
 30
0.0
 11
-0.2121966568
 21
-0.2121966568
 31
0.0
 40
0.9996954599
 41
2.3563467834
 42
3.9268385237
  0
ELLIPSE
  5
7DB
100
AcDbEntity
  8
ASSI
100
AcDbEllipse
 62
7
  6
CONTINUOUS
 10
-6.1999543016
 20
-10.2000456984
 30
0.0
 11
0.2121966568
 21
-0.2121966568
 31
0.0
 40
0.9996954599
 41
2.3563467834
 42
3.9268385237
  0
ELLIPSE
  5
7DC
100
AcDbEntity
  8
ASSI
100
AcDbEllipse
 62
7
  6
CONTINUOUS
 10
-6.1999543016
 20
13.5000456984
 30
0.0
 11
0.2121966568
 21
0.2121966568
 31
0.0
 40
0.9996954599
 41
2.3563467834
 42
3.9268385237
  0
ELLIPSE
  5
7DD
100
AcDbEntity
  8
ASSI
100
AcDbEllipse
 62
7
  6
CONTINUOUS
 10
6.1999543016
 20
13.5000456984
 30
0.0
 11
-0.2121966568
 21
0.2121966568
 31
0.0
 40
0.9996954599
 41
2.3563467834
 42
3.9268385237
  0
ELLIPSE
  5
7DE
100
AcDbEntity
  8
ASSI
100
AcDbEllipse
 62
7
  6
CONTINUOUS
 10
8.9303794106
 20
-7.9872686779
 30
0.0
 11
0.3
 21
0.0
 31
0.0
 40
0.0087268678
 41
-1.5707963268
 42
-0.3490658504
  0
ELLIPSE
  5
7DF
100
AcDbEntity
  8
ASSI
100
AcDbEllipse
 62
7
  6
CONTINUOUS
 10
-8.9303794106
 20
-7.9872686779
 30
0.0
 11
0.3
 21
0.0
 31
0.0
 40
0.0087268678
 41
-2.7925268032
 42
-1.5707963268
  0
ELLIPSE
  5
7E0
100
AcDbEntity
  8
ASSI
100
AcDbEllipse
 62
7
  6
CONTINUOUS
 10
8.9303794106
 20
11.5872686779
 30
0.0
 11
0.3
 21
-0.0
 31
0.0
 40
0.0087268678
 41
0.3490658504
 42
1.5707963268
  0
ELLIPSE
  5
7E1
100
AcDbEntity
  8
ASSI
100
AcDbEllipse
 62
7
  6
CONTINUOUS
 10
10.3999957691
 20
-23.4113248654
 30
0.0
 11
0.0029088041
 21
0.2886641433
 31
0.0
 40
0.8660144118
 41
-1.5591610446
 42
0.0087264124
  0
ELLIPSE
  5
7E2
100
AcDbEntity
  8
ASSI
100
AcDbEllipse
 62
7
  6
CONTINUOUS
 10
8.5000042309
 20
23.4113248654
 30
0.0
 11
0.0029088041
 21
0.2886641433
 31
0.0
 40
0.8660144118
 41
-4.7007536982
 42
-3.1328662412
  0
ENDSEC
  0
SECTION
  2
OBJECTS
  0
DICTIONARY
  5
C
100
AcDbDictionary
280
0
281
1
  3
ACAD_GROUP
350
D
  3
ACAD_MLINESTYLE
350
17
  3
ACAD_LAYOUT
350
1A
  3
ACAD_PLOTSETTINGS
350
19
  3
ACAD_PLOTSTYLENAME
350
E
  0
DICTIONARY
  5
D
102
{ACAD_REACTORS
330
C
102
}
100
AcDbDictionary
280
0
281
1
  0
ACDBDICTIONARYWDFLT
  5
E
102
{ACAD_REACTORS
330
C
102
}
100
AcDbDictionary
281
1
  3
Normal
350
F
100
AcDbDictionaryWithDefault
340
F
  0
DICTIONARY
  5
17
102
{ACAD_REACTORS
330
C
102
}
100
AcDbDictionary
280
0
281
1
  3
Standard
350
18
  0
DICTIONARY
  5
19
102
{ACAD_REACTORS
330
C
102
}
100
AcDbDictionary
281
1
  0
DICTIONARY
  5
1A
102
{ACAD_REACTORS
330
C
102
}
100
AcDbDictionary
281
1
  3
Model
350
7E3
  3
Layout1
350
7E4
  0
ACDBPLACEHOLDER
  5
F
102
{ACAD_REACTORS
330
E
102
}
  0
MLINESTYLE
  5
18
102
{ACAD_REACTORS
330
17
102
}
100
AcDbMlineStyle
  2
STANDARD
 70
0
  3

 62
256
 51
90.0
 52
90.0
 71
2
 49
0.5
 62
256
  6
BYLAYER
 49
-0.5
 62
256
  6
BYLAYER
  0
LAYOUT
  5
7E3
102
{ACAD_REACTORS
330
1A
102
}
100
AcDbPlotSettings
  1

  2
none_device
  4
ISO_A4_(297.00_x_210.00_MM)
  6

 40
0.0
 41
0.0
 42
0.0
 43
0.0
 44
297.0
 45
210.0
 46
0.0
 47
0.0
 48
0.0
 49
0.0
140
0.0
141
0.0
142
1.0
143
1.0
 70
1024
 72
1
 73
0
 74
0
  7

 75
0
147
1.0
148
0.0
149
0.0
100
AcDbLayout
  1
Model
 70
0
 71
0
 10
0.0
 20
0.0
 11
297.0
 21
210.0
 12
0.0
 22
0.0
 32
0.0
 14
0.0
 24
0.0
 34
0.0
 15
0.0
 25
0.0
 35
0.0
146
0.0
 13
0.0
 23
0.0
 33
0.0
 16
1.0
 26
0.0
 36
0.0
 17
0.0
 27
1.0
 37
0.0
 76
0
330
226
345
0
346
0
  0
LAYOUT
  5
7E4
102
{ACAD_REACTORS
330
1A
102
}
100
AcDbPlotSettings
  1

  2
none_device
  4
ISO_A4_(297.00_x_210.00_MM)
  6

 40
0.0
 41
0.0
 42
0.0
 43
0.0
 44
297.0
 45
210.0
 46
0.0
 47
0.0
 48
0.0
 49
0.0
140
0.0
141
0.0
142
1.0
143
1.0
 70
0
 72
1
 73
0
 74
0
  7

 75
0
147
1.0
148
0.0
149
0.0
100
AcDbLayout
  1
Layout1
 70
0
 71
1
 10
0.0
 20
0.0
 11
297.0
 21
210.0
 12
0.0
 22
0.0
 32
0.0
 14
0.0
 24
0.0
 34
0.0
 15
0.0
 25
0.0
 35
0.0
146
0.0
 13
0.0
 23
0.0
 33
0.0
 16
1.0
 26
0.0
 36
0.0
 17
0.0
 27
1.0
 37
0.0
 76
0
330
227
345
0
346
0
  0
ENDSEC
  0
EOF
