  0
SECTION
  2
HEADER
  9
$ACADVER
  1
AC1021
  9
$DWGCODEPAGE
  3
ANSI_1252
  9
$EXTMAX
 10
558.8
 20
431.8
 30
0.0
  9
$EXTMIN
 10
0.0
 20
0.0
 30
0.0
  9
$LIMMIN
 10
0.0
 20
0.0
  9
$LIMMAX
 10
558.8
 20
431.8
  9
$VIEWCTR
 10
279.4
 20
215.9
  9
$VIEWSIZE
 40
431.8
  9
$CLAYER
  8
0
  9
$LTSCALE
 40
30.734
  9
$CELTYPE
  6
BYLAYER
  9
$DIMSCALE
 40
1.0
  9
$DIMASZ
 40
3.0
  9
$DIMEXO
 40
0.5
  9
$DIMDLI
 40
21.2344
  9
$DIMEXE
 40
1.5
  9
$DIMCEN
 40
5.0292
  9
$DIMLFAC
 40
1.0
  9
$DIMBLK
  1
_FILLED
  9
$DIMALT
 70
0
  9
$DIMALTF
 40
25.4
  9
$DIMTXT
 40
3.0
  9
$DIMTOL
 70
1
  9
$DIMLIM
 70
0
  9
$DIMTFAC
 40
1.0
  9
$DIMTP
 40
0.01
  9
$DIMTM
 40
0.01
  9
$DIMGAP
 40
0.625
  9
$DIMDSEP
 70
44
  9
$AUNITS
 70
0
  9
$PDMODE
 70
3
  9
$PDSIZE
 40
3.0
  9
$HANDSEED
  5
7CC
  9
$TILEMODE
 70
1
  9
$MEASUREMENT
 70
1
  9
$INSUNITS
 70
4
  0
ENDSEC
  0
SECTION
  2
CLASSES
  0
CLASS
  1
ACDBDICTIONARYWDFLT
  2
AcDbDictionaryWithDefault
  3
AutoCAD 2000
 90
0
 91
1
280
0
281
0
  0
CLASS
  1
ACDBPLACEHOLDER
  2
AcDbPlaceHolder
  3
AutoCAD 2000
 90
0
 91
1
280
0
281
0
  0
CLASS
  1
LAYOUT
  2
AcDbLayout
  3
AutoCAD 2000
 90
0
 91
0
280
0
281
0
  0
ENDSEC
  0
SECTION
  2
TABLES
  0
TABLE
  2
VPORT
  5
8
100
AcDbSymbolTable
 70
2
  0
VPORT
  5
1F4
100
AcDbSymbolTableRecord
100
AcDbViewportTableRecord
  2
*ACTIVE
 70
0
 10
0.0
 20
0.0
 11
1.0
 21
1.0
 12
279.4
 22
215.9
 13
0.0
 23
0.0
 14
1.0
 24
1.0
 15
0.0
 25
0.0
 16
0.0
 26
0.0
 36
1.0
 17
0.0
 27
0.0
 37
0.0
 40
431.8
 41
1.2941176471
 42
50.0
 43
0.0
 44
0.0
 50
0.0
 51
0.0
 71
0
 72
100
 73
1
 74
1
 75
0
 76
0
 77
0
 78
0
  0
ENDTAB
  0
TABLE
  2
LTYPE
  5
5
100
AcDbSymbolTable
 70
6
  0
LTYPE
  5
14
100
AcDbSymbolTableRecord
100
AcDbLinetypeTableRecord
  2
BYBLOCK
 70
0
  3

 72
65
 73
0
 40
0.0
  0
LTYPE
  5
15
100
AcDbSymbolTableRecord
100
AcDbLinetypeTableRecord
  2
BYLAYER
 70
0
  3

 72
65
 73
0
 40
0.0
  0
LTYPE
  5
16
100
AcDbSymbolTableRecord
100
AcDbLinetypeTableRecord
  2
CONTINUOUS
 70
64
  3
Solid line
 72
65
 73
0
 40
0.0
  0
LTYPE
  5
1F5
100
AcDbSymbolTableRecord
100
AcDbLinetypeTableRecord
  2
CENTER
 70
64
  3
____ _ ____ _ ____ _ ____ _ ____ _ ____ _ ____
 72
65
 73
4
 40
0.6
 49
0.375
 74
0
 49
-0.075
 74
0
 49
0.075
 74
0
 49
-0.075
 74
0
  0
LTYPE
  5
1F6
100
AcDbSymbolTableRecord
100
AcDbLinetypeTableRecord
  2
HIDDEN
 70
64
  3
- - - - - - - - - - - - - - - - - - - -
 72
65
 73
2
 40
0.2
 49
0.1
 74
0
 49
-0.1
 74
0
  0
LTYPE
  5
1F7
100
AcDbSymbolTableRecord
100
AcDbLinetypeTableRecord
  2
PHANTOM
 70
64
  3
_____ _ _ _____ _ _ _____ _ _ _____
 72
65
 73
6
 40
0.8
 49
0.45
 74
0
 49
-0.05
 74
0
 49
0.1
 74
0
 49
-0.05
 74
0
 49
0.1
 74
0
 49
-0.05
 74
0
  0
LTYPE
  5
1F8
100
AcDbSymbolTableRecord
100
AcDbLinetypeTableRecord
  2
DOT
 70
64
  3
. . . . . . . . . . . . . . . . . . . .
 72
65
 73
2
 40
0.2
 49
0.1
 74
0
 49
-0.1
 74
0
  0
LTYPE
  5
1F9
100
AcDbSymbolTableRecord
100
AcDbLinetypeTableRecord
  2
DASHED
 70
64
  3
- - - - - - - - - - - - - - - - - - - -
 72
65
 73
2
 40
0.2
 49
0.1
 74
0
 49
-0.1
 74
0
  0
ENDTAB
  0
TABLE
  2
LAYER
  5
2
100
AcDbSymbolTable
 70
36
  0
LAYER
  5
10
100
AcDbSymbolTableRecord
100
AcDbLayerTableRecord
  2
0
 70
0
 62
7
  6
CONTINUOUS
370
-3
390
F
  0
LAYER
  5
1FA
100
AcDbSymbolTableRecord
100
AcDbLayerTableRecord
  2
DEFAULT_1
 70
0
 62
7
  6
CENTER
370
-3
390
F
  0
LAYER
  5
1FB
100
AcDbSymbolTableRecord
100
AcDbLayerTableRecord
  2
DEFAULT_2
 70
0
 62
7
  6
HIDDEN
370
-3
390
F
  0
LAYER
  5
1FC
100
AcDbSymbolTableRecord
100
AcDbLayerTableRecord
  2
DEFAULT_3
 70
0
 62
7
  6
PHANTOM
370
-3
390
F
  0
LAYER
  5
1FD
100
AcDbSymbolTableRecord
100
AcDbLayerTableRecord
  2
ASSI
 70
0
 62
7
  6
CONTINUOUS
370
-3
390
F
  0
LAYER
  5
1FE
100
AcDbSymbolTableRecord
100
AcDbLayerTableRecord
  2
COORDINATE
 70
0
 62
7
  6
CONTINUOUS
370
-3
390
F
  0
LAYER
  5
1FF
100
AcDbSymbolTableRecord
100
AcDbLayerTableRecord
  2
COORD_ORIGINE
 70
0
 62
7
  6
CONTINUOUS
370
-3
390
F
  0
LAYER
  5
200
100
AcDbSymbolTableRecord
100
AcDbLayerTableRecord
  2
COPY_PUBLISH
 70
0
 62
7
  6
CONTINUOUS
370
-3
390
F
  0
LAYER
  5
201
100
AcDbSymbolTableRecord
100
AcDbLayerTableRecord
  2
COSMETICI
 70
0
 62
7
  6
CONTINUOUS
370
-3
390
F
  0
LAYER
  5
202
100
AcDbSymbolTableRecord
100
AcDbLayerTableRecord
  2
CURVE
 70
0
 62
7
  6
CONTINUOUS
370
-3
390
F
  0
LAYER
  5
203
100
AcDbSymbolTableRecord
100
AcDbLayerTableRecord
  2
DRAFT
 70
0
 62
7
  6
CONTINUOUS
370
-3
390
F
  0
LAYER
  5
204
100
AcDbSymbolTableRecord
100
AcDbLayerTableRecord
  2
IMPORT
 70
0
 62
7
  6
CONTINUOUS
370
-3
390
F
  0
LAYER
  5
205
100
AcDbSymbolTableRecord
100
AcDbLayerTableRecord
  2
IMPORT_IGES
 70
0
 62
7
  6
CONTINUOUS
370
-3
390
F
  0
LAYER
  5
206
100
AcDbSymbolTableRecord
100
AcDbLayerTableRecord
  2
LAY0001
 70
0
 62
7
  6
CONTINUOUS
370
-3
390
F
  0
LAYER
  5
207
100
AcDbSymbolTableRecord
100
AcDbLayerTableRecord
  2
NOTE
 70
0
 62
7
  6
CONTINUOUS
370
-3
390
F
  0
LAYER
  5
208
100
AcDbSymbolTableRecord
100
AcDbLayerTableRecord
  2
PIANI
 70
0
 62
7
  6
CONTINUOUS
370
-3
390
F
  0
LAYER
  5
209
100
AcDbSymbolTableRecord
100
AcDbLayerTableRecord
  2
PIANI_ORIGINE
 70
0
 62
7
  6
CONTINUOUS
370
-3
390
F
  0
LAYER
  5
20A
100
AcDbSymbolTableRecord
100
AcDbLayerTableRecord
  2
PIANI_RIFERIMENTO
 70
0
 62
7
  6
CONTINUOUS
370
-3
390
F
  0
LAYER
  5
20B
100
AcDbSymbolTableRecord
100
AcDbLayerTableRecord
  2
PUNTI
 70
0
 62
7
  6
CONTINUOUS
370
-3
390
F
  0
LAYER
  5
20C
100
AcDbSymbolTableRecord
100
AcDbLayerTableRecord
  2
RACCORDO
 70
0
 62
7
  6
CONTINUOUS
370
-3
390
F
  0
LAYER
  5
20D
100
AcDbSymbolTableRecord
100
AcDbLayerTableRecord
  2
SIMBOLI
 70
0
 62
7
  6
CONTINUOUS
370
-3
390
F
  0
LAYER
  5
20E
100
AcDbSymbolTableRecord
100
AcDbLayerTableRecord
  2
SMUSSO
 70
0
 62
7
  6
CONTINUOUS
370
-3
390
F
  0
LAYER
  5
20F
100
AcDbSymbolTableRecord
100
AcDbLayerTableRecord
  2
SNAPLINE
 70
0
 62
7
  6
CONTINUOUS
370
-3
390
F
  0
LAYER
  5
210
100
AcDbSymbolTableRecord
100
AcDbLayerTableRecord
  2
SUPERFICI
 70
0
 62
7
  6
CONTINUOUS
370
-3
390
F
  0
LAYER
  5
211
100
AcDbSymbolTableRecord
100
AcDbLayerTableRecord
  2
TRASH
 70
0
 62
7
  6
CONTINUOUS
370
-3
390
F
  0
LAYER
  5
212
100
AcDbSymbolTableRecord
100
AcDbLayerTableRecord
  2
XSEC_DATUMS
 70
0
 62
7
  6
CONTINUOUS
370
-3
390
F
  0
ENDTAB
  0
TABLE
  2
STYLE
  5
3
100
AcDbSymbolTable
 70
1
  0
STYLE
  5
11
100
AcDbSymbolTableRecord
100
AcDbTextStyleTableRecord
  2
STANDARD
 70
0
 40
0.0
 41
0.8
 50
0.0
 71
0
 42
0.2
  3
txt
  4

  0
STYLE
  5
213
100
AcDbSymbolTableRecord
100
AcDbTextStyleTableRecord
  2
TEXTSTYLE_1
 70
0
 40
0.0
 41
0.8
 50
0.0
 71
0
 42
0.2
  3
gdt
  4

  0
ENDTAB
  0
TABLE
  2
VIEW
  5
6
100
AcDbSymbolTable
 70
0
  0
ENDTAB
  0
TABLE
  2
UCS
  5
7
100
AcDbSymbolTable
 70
0
  0
ENDTAB
  0
TABLE
  2
APPID
  5
9
100
AcDbSymbolTable
 70
1
  0
APPID
  5
214
100
AcDbSymbolTableRecord
100
AcDbRegAppTableRecord
  2
ACAD
 70
0
  0
ENDTAB
  0
TABLE
  2
BLOCK_RECORD
  5
1
100
AcDbSymbolTable
 70
0
  0
BLOCK_RECORD
  5
215
100
AcDbSymbolTableRecord
100
AcDbBlockTableRecord
  2
*Model_Space
  0
BLOCK_RECORD
  5
216
100
AcDbSymbolTableRecord
100
AcDbBlockTableRecord
  2
*Paper_Space
  0
ENDTAB
  0
TABLE
  2
DIMSTYLE
  5
A
100
AcDbSymbolTable
 70
1
100
AcDbDimStyleTable
 71
0
  0
DIMSTYLE
105
217
100
AcDbSymbolTableRecord
100
AcDbDimStyleTableRecord
  2
STANDARD
 70
0
  3

  4

 40
1.0
 41
3.0
 42
0.5
 43
0.38
 44
1.5
 45
0.0
 46
0.0
 47
0.01
 48
0.01
140
3.0
141
0.09
142
0.0
143
25.4
144
1.0
145
0.0
146
1.0
147
0.625
 71
1.0
 72
0.0
 73
0
 74
0
 75
0
 76
0
 77
1
 78
8
170
0
171
1
172
0
173
0
174
0
175
0
176
0
177
0
178
0
270
2
271
2
272
2
273
2
274
2
275
0
280
0
281
0
282
0
283
1
284
8
285
0
286
0
287
3
288
0
340
11
278
44
  0
ENDTAB
  0
ENDSEC
  0
SECTION
  2
BLOCKS
  0
BLOCK
  5
20
100
AcDbEntity
  8
0
100
AcDbBlockBegin
  2
*Model_Space
 70
0
 10
0.0
 20
0.0
 30
0.0
  3
*Model_Space
  1

  0
ENDBLK
  5
21
100
AcDbEntity
  8
0
100
AcDbBlockEnd
  0
BLOCK
  5
1C
100
AcDbEntity
  8
0
100
AcDbBlockBegin
  2
*Paper_Space
 70
0
 10
0.0
 20
0.0
 30
0.0
  3
*Paper_Space
  1

  0
ENDBLK
  5
1D
100
AcDbEntity
  8
0
100
AcDbBlockEnd
  0
ENDSEC
  0
SECTION
  2
ENTITIES
  0
LWPOLYLINE
  5
218
100
AcDbEntity
  8
ASSI
100
AcDbPolyline
 62
7
  6
CONTINUOUS
 90
9
 70
0
 10
-10.4929184493
 20
24.4820926258
 10
-10.4817699738
 20
24.4862507213
 10
-10.470436279
 20
24.4898736417
 10
-10.4589430388
 20
24.4929531817
 10
-10.4473162875
 20
24.4954823677
 10
-10.4355823661
 20
24.4974554741
 10
-10.4237678556
 20
24.4988680342
 10
-10.411899516
 20
24.4997168498
 10
-10.4000042308
 20
24.5
  0
LWPOLYLINE
  5
219
100
AcDbEntity
  8
RACCORDO
100
AcDbPolyline
 62
7
  6
CONTINUOUS
 90
5
 70
0
 10
10.4473162875
 20
-24.4954823677
 10
10.4355823661
 20
-24.4974554741
 10
10.4237678556
 20
-24.4988680342
 10
10.411899516
 20
-24.4997168498
 10
10.4000042308
 20
-24.5
  0
LINE
  5
21A
100
AcDbEntity
  8
ASSI
100
AcDbLine
 62
7
  6
CONTINUOUS
 10
-10.4225124747
 20
-24.4941779536
 11
-10.4346714057
 21
-24.492559892
  0
LWPOLYLINE
  5
21B
100
AcDbEntity
  8
RACCORDO
100
AcDbPolyline
 62
7
  6
CONTINUOUS
 90
5
 70
0
 10
-10.4355823661
 20
-24.4974554741
 10
-10.4473162875
 20
-24.4954823677
 10
-10.4589430388
 20
-24.4929531817
 10
-10.470436279
 20
-24.4898736417
 10
-10.4817699738
 20
-24.4862507213
  0
LWPOLYLINE
  5
21C
100
AcDbEntity
  8
ASSI
100
AcDbPolyline
 62
7
  6
CONTINUOUS
 90
8
 70
0
 10
-10.4355823661
 20
-24.4974554741
 10
-10.4473162875
 20
-24.4954823677
 10
-10.4589430388
 20
-24.4929531817
 10
-10.470436279
 20
-24.4898736417
 10
-10.4817699738
 20
-24.4862507213
 10
-10.4929184493
 20
-24.4820926258
 10
-10.5038564463
 20
-24.4774087722
 10
-10.5145591876
 20
-24.4722097688
  0
LINE
  5
21D
100
AcDbEntity
  8
ASSI
100
AcDbLine
 62
7
  6
CONTINUOUS
 10
-10.4346714057
 20
-24.492559892
 11
-10.4475371245
 21
-24.4901787618
  0
LWPOLYLINE
  5
21E
100
AcDbEntity
  8
ASSI
100
AcDbPolyline
 62
7
  6
CONTINUOUS
 90
27
 70
0
 10
-10.4475371245
 20
-24.4901787618
 10
-10.4602685897
 20
-24.4871256484
 10
-10.4728227742
 20
-24.4834102087
 10
-10.4851625782
 20
-24.4790436576
 10
-10.4972569343
 20
-24.4740372277
 10
-10.5090730125
 20
-24.4684044791
 10
-10.520578613
 20
-24.4621606774
 10
-10.5317419314
 20
-24.4553229956
 10
-10.5425320106
 20
-24.4479103656
 10
-10.5529191364
 20
-24.4399432233
 10
-10.5628749736
 20
-24.4314433264
 10
-10.572372308
 20
-24.4224339046
 10
-10.5813851271
 20
-24.4129396114
 10
-10.5898886687
 20
-24.402986508
 10
-10.5978595768
 20
-24.3926019187
 10
-10.6052759837
 20
-24.3818143284
 10
-10.6121175595
 20
-24.3706533025
 10
-10.6183655387
 20
-24.3591494467
 10
-10.6240027869
 20
-24.347334301
 10
-10.6290138424
 20
-24.3352402638
 10
-10.6333849575
 20
-24.3229005077
 10
-10.637104147
 20
-24.3103488602
 10
-10.6401612081
 20
-24.2976197463
 10
-10.6425477509
 20
-24.2847481067
 10
-10.644257234
 20
-24.2717692492
 10
-10.645284977
 20
-24.2587187509
 10
-10.6456238859
 20
-24.2470868299
  0
LWPOLYLINE
  5
21F
100
AcDbEntity
  8
RACCORDO
100
AcDbPolyline
 62
253
  6
CONTINUOUS
 90
21
 70
0
 10
-10.4728227742
 20
-24.4834102087
 10
-10.4851625782
 20
-24.4790436576
 10
-10.4972569343
 20
-24.4740372277
 10
-10.5090730125
 20
-24.4684044791
 10
-10.520578613
 20
-24.4621606774
 10
-10.5317419314
 20
-24.4553229956
 10
-10.5425320106
 20
-24.4479103656
 10
-10.5529191364
 20
-24.4399432233
 10
-10.5628749736
 20
-24.4314433264
 10
-10.572372308
 20
-24.4224339046
 10
-10.5813851271
 20
-24.4129396114
 10
-10.5898886687
 20
-24.402986508
 10
-10.5978595768
 20
-24.3926019187
 10
-10.6052759837
 20
-24.3818143284
 10
-10.6121175595
 20
-24.3706533025
 10
-10.6183655387
 20
-24.3591494467
 10
-10.6240027869
 20
-24.347334301
 10
-10.6290138424
 20
-24.3352402638
 10
-10.6333849575
 20
-24.3229005077
 10
-10.637104147
 20
-24.3103488602
 10
-10.6401612081
 20
-24.2976197463
  0
LWPOLYLINE
  5
220
100
AcDbEntity
  8
RACCORDO
100
AcDbPolyline
 62
7
  6
CONTINUOUS
 90
23
 70
0
 10
-10.4817699738
 20
-24.4862507213
 10
-10.4929184493
 20
-24.4820926258
 10
-10.5038564463
 20
-24.4774087722
 10
-10.5145591876
 20
-24.4722097688
 10
-10.5250024283
 20
-24.4665073916
 10
-10.5351625059
 20
-24.4603145581
 10
-10.5450164051
 20
-24.4536452955
 10
-10.5545418038
 20
-24.4465147107
 10
-10.5637171191
 20
-24.4389389589
 10
-10.5725215661
 20
-24.4309352005
 10
-10.5809352005
 20
-24.4225215661
 10
-10.5889389589
 20
-24.4137171191
 10
-10.5965147107
 20
-24.4045418038
 10
-10.6036452955
 20
-24.3950164051
 10
-10.6103145581
 20
-24.3851625059
 10
-10.6165073916
 20
-24.3750024283
 10
-10.6222097688
 20
-24.3645591876
 10
-10.6274087722
 20
-24.3538564463
 10
-10.6320926258
 20
-24.3429184493
 10
-10.6362507213
 20
-24.3317699738
 10
-10.6398736417
 20
-24.320436279
 10
-10.6429531817
 20
-24.3089430388
 10
-10.6454823677
 20
-24.2973162875
  0
LWPOLYLINE
  5
221
100
AcDbEntity
  8
ASSI
100
AcDbPolyline
 62
7
  6
CONTINUOUS
 90
16
 70
0
 10
-10.5145591876
 20
-24.4722097688
 10
-10.5250024283
 20
-24.4665073916
 10
-10.5351625059
 20
-24.4603145581
 10
-10.5450164051
 20
-24.4536452955
 10
-10.5545418038
 20
-24.4465147107
 10
-10.5637171191
 20
-24.4389389589
 10
-10.5725215661
 20
-24.4309352005
 10
-10.5809352005
 20
-24.4225215661
 10
-10.5889389589
 20
-24.4137171191
 10
-10.5965147107
 20
-24.4045418038
 10
-10.6036452955
 20
-24.3950164051
 10
-10.6103145581
 20
-24.3851625059
 10
-10.6165073916
 20
-24.3750024283
 10
-10.6222097688
 20
-24.3645591876
 10
-10.6274087722
 20
-24.3538564463
 10
-10.6320926258
 20
-24.3429184493
  0
LINE
  5
222
100
AcDbEntity
  8
RACCORDO
100
AcDbLine
 62
253
  6
CONTINUOUS
 10
-10.6466029582
 20
22.392895367
 11
-10.6323926099
 21
22.4
  0
LINE
  5
223
100
AcDbEntity
  8
ASSI
100
AcDbLine
 62
253
  6
CONTINUOUS
 10
-10.6466029582
 20
22.392895367
 11
-10.6323926099
 21
22.4
  0
LINE
  5
224
100
AcDbEntity
  8
ASSI
100
AcDbLine
 62
7
  6
CONTINUOUS
 10
10.6714883972
 20
-22.3984737398
 11
10.6929434461
 21
-22.396327304
  0
LWPOLYLINE
  5
225
100
AcDbEntity
  8
ASSI
100
AcDbPolyline
 62
253
  6
CONTINUOUS
 90
3
 70
0
 10
-8.4774875253
 20
-24.4941779536
 10
-8.4913152632
 20
-24.4952867588
 10
-8.5043676032
 20
-24.495628166
  0
LINE
  5
226
100
AcDbEntity
  8
RACCORDO
100
AcDbLine
 62
253
  6
CONTINUOUS
 10
-10.3956323968
 20
-24.495628166
 11
-8.5043676032
 21
-24.495628166
  0
LINE
  5
227
100
AcDbEntity
  8
ASSI
100
AcDbLine
 62
7
  6
CONTINUOUS
 10
-10.3956323968
 20
-24.495628166
 11
-8.5043676032
 21
-24.495628166
  0
LINE
  5
228
100
AcDbEntity
  8
RACCORDO
100
AcDbLine
 62
253
  6
CONTINUOUS
 10
8.5043676032
 20
-24.495628166
 11
10.3956323968
 21
-24.495628166
  0
LINE
  5
229
100
AcDbEntity
  8
ASSI
100
AcDbLine
 62
7
  6
CONTINUOUS
 10
8.5043676032
 20
-24.495628166
 11
10.3956323968
 21
-24.495628166
  0
LINE
  5
22A
100
AcDbEntity
  8
RACCORDO
100
AcDbLine
 62
253
  6
CONTINUOUS
 10
8.254371834
 20
-24.2456323968
 11
10.645628166
 21
-24.2456323968
  0
LINE
  5
22B
100
AcDbEntity
  8
ASSI
100
AcDbLine
 62
253
  6
CONTINUOUS
 10
8.254371834
 20
-24.2456323968
 11
10.645628166
 21
-24.2456323968
  0
LINE
  5
22C
100
AcDbEntity
  8
RACCORDO
100
AcDbLine
 62
253
  6
CONTINUOUS
 10
-8.254371834
 20
-24.2456323968
 11
-10.645628166
 21
-24.2456323968
  0
LINE
  5
22D
100
AcDbEntity
  8
ASSI
100
AcDbLine
 62
253
  6
CONTINUOUS
 10
-8.254371834
 20
-24.2456323968
 11
-10.645628166
 21
-24.2456323968
  0
LINE
  5
22E
100
AcDbEntity
  8
RACCORDO
100
AcDbLine
 62
253
  6
CONTINUOUS
 10
8.254371834
 20
-23.8443375673
 11
10.645628166
 21
-23.8443375673
  0
LINE
  5
22F
100
AcDbEntity
  8
ASSI
100
AcDbLine
 62
253
  6
CONTINUOUS
 10
8.254371834
 20
-23.8443375673
 11
10.645628166
 21
-23.8443375673
  0
LINE
  5
230
100
AcDbEntity
  8
RACCORDO
100
AcDbLine
 62
253
  6
CONTINUOUS
 10
-8.254371834
 20
-23.8443375673
 11
-10.645628166
 21
-23.8443375673
  0
LINE
  5
231
100
AcDbEntity
  8
ASSI
100
AcDbLine
 62
253
  6
CONTINUOUS
 10
-8.254371834
 20
-23.8443375673
 11
-10.645628166
 21
-23.8443375673
  0
LINE
  5
232
100
AcDbEntity
  8
DRAFT
100
AcDbLine
 62
7
  6
CONTINUOUS
 10
-4.4
 20
-23.8
 11
4.4
 21
-23.8
  0
LINE
  5
233
100
AcDbEntity
  8
ASSI
100
AcDbLine
 62
7
  6
CONTINUOUS
 10
-4.4
 20
-23.8
 11
4.4
 21
-23.8
  0
LINE
  5
234
100
AcDbEntity
  8
DRAFT
100
AcDbLine
 62
7
  6
CONTINUOUS
 10
3.5
 20
-23.7941821702
 11
-3.5
 21
-23.7941821702
  0
LINE
  5
235
100
AcDbEntity
  8
ASSI
100
AcDbLine
 62
7
  6
CONTINUOUS
 10
3.5
 20
-23.7941821702
 11
-3.5
 21
-23.7941821702
  0
LINE
  5
236
100
AcDbEntity
  8
ASSI
100
AcDbLine
 62
7
  6
CONTINUOUS
 10
4.3563493531
 20
-23.7563493531
 11
3.5
 21
-23.7563493531
  0
LINE
  5
237
100
AcDbEntity
  8
ASSI
100
AcDbLine
 62
7
  6
CONTINUOUS
 10
-3.5
 20
-23.7563493531
 11
-4.3563493531
 21
-23.7563493531
  0
LINE
  5
238
100
AcDbEntity
  8
RACCORDO
100
AcDbLine
 62
253
  6
CONTINUOUS
 10
10.3956323968
 20
-23.6278312164
 11
8.5043676032
 21
-23.6278312164
  0
LINE
  5
239
100
AcDbEntity
  8
ASSI
100
AcDbLine
 62
253
  6
CONTINUOUS
 10
10.3956323968
 20
-23.6278312164
 11
8.5043676032
 21
-23.6278312164
  0
LINE
  5
23A
100
AcDbEntity
  8
RACCORDO
100
AcDbLine
 62
253
  6
CONTINUOUS
 10
-8.5043676032
 20
-23.6278312164
 11
-10.3956323968
 21
-23.6278312164
  0
LINE
  5
23B
100
AcDbEntity
  8
ASSI
100
AcDbLine
 62
253
  6
CONTINUOUS
 10
-8.5043676032
 20
-23.6278312164
 11
-10.3956323968
 21
-23.6278312164
  0
LINE
  5
23C
100
AcDbEntity
  8
RACCORDO
100
AcDbLine
 62
7
  6
CONTINUOUS
 10
-10.4007229979
 20
-23.1226497308
 11
-8.4992770021
 21
-23.1226497308
  0
LINE
  5
23D
100
AcDbEntity
  8
ASSI
100
AcDbLine
 62
7
  6
CONTINUOUS
 10
-10.4007229979
 20
-23.1226497308
 11
-8.4992770021
 21
-23.1226497308
  0
LINE
  5
23E
100
AcDbEntity
  8
RACCORDO
100
AcDbLine
 62
7
  6
CONTINUOUS
 10
8.4992770021
 20
-23.1226497308
 11
10.4007229979
 21
-23.1226497308
  0
LINE
  5
23F
100
AcDbEntity
  8
ASSI
100
AcDbLine
 62
7
  6
CONTINUOUS
 10
8.4992770021
 20
-23.1226497308
 11
10.4007229979
 21
-23.1226497308
  0
LWPOLYLINE
  5
240
100
AcDbEntity
  8
RACCORDO
100
AcDbPolyline
 62
7
  6
CONTINUOUS
 90
4
 70
0
 10
-10.4000042308
 20
-24.5
 10
-10.411899516
 20
-24.4997168498
 10
-10.4237678556
 20
-24.4988680342
 10
-10.4355823661
 20
-24.4974554741
  0
LWPOLYLINE
  5
241
100
AcDbEntity
  8
ASSI
100
AcDbPolyline
 62
7
  6
CONTINUOUS
 90
4
 70
0
 10
-10.4000042308
 20
-24.5
 10
-10.411899516
 20
-24.4997168498
 10
-10.4237678556
 20
-24.4988680342
 10
-10.4355823661
 20
-24.4974554741
  0
LWPOLYLINE
  5
242
100
AcDbEntity
  8
RACCORDO
100
AcDbPolyline
 62
7
  6
CONTINUOUS
 90
4
 70
0
 10
8.4999957692
 20
-24.5
 10
8.488100484
 20
-24.4997168498
 10
8.4762321444
 20
-24.4988680342
 10
8.4644176339
 20
-24.4974554741
  0
LWPOLYLINE
  5
243
100
AcDbEntity
  8
ASSI
100
AcDbPolyline
 62
7
  6
CONTINUOUS
 90
4
 70
0
 10
8.4999957692
 20
-24.5
 10
8.488100484
 20
-24.4997168498
 10
8.4762321444
 20
-24.4988680342
 10
8.4644176339
 20
-24.4974554741
  0
LWPOLYLINE
  5
244
100
AcDbEntity
  8
RACCORDO
100
AcDbPolyline
 62
253
  6
CONTINUOUS
 90
7
 70
0
 10
-10.3956323968
 20
-24.495628166
 10
-10.4086847368
 20
-24.4952867588
 10
-10.4217096311
 20
-24.4942634962
 10
-10.4346714057
 20
-24.492559892
 10
-10.4475371245
 20
-24.4901787618
 10
-10.4602685897
 20
-24.4871256484
 10
-10.4728227742
 20
-24.4834102087
  0
LWPOLYLINE
  5
245
100
AcDbEntity
  8
ASSI
100
AcDbPolyline
 62
253
  6
CONTINUOUS
 90
3
 70
0
 10
-10.3956323968
 20
-24.495628166
 10
-10.4086847368
 20
-24.4952867588
 10
-10.4225124747
 20
-24.4941779536
  0
LWPOLYLINE
  5
246
100
AcDbEntity
  8
RACCORDO
100
AcDbPolyline
 62
253
  6
CONTINUOUS
 90
31
 70
0
 10
8.5043676032
 20
-24.495628166
 10
8.4912841172
 20
-24.4952851274
 10
8.4782364906
 20
-24.4942578375
 10
8.4652604845
 20
-24.492549112
 10
8.4523916636
 20
-24.490163634
 10
8.4396652991
 20
-24.4871079418
 10
8.4271162714
 20
-24.4833904104
 10
8.4147789751
 20
-24.4790212289
 10
8.4026872245
 20
-24.4740123724
 10
8.3908741607
 20
-24.4683775693
 10
8.3793721611
 20
-24.4621322634
 10
8.3682127506
 20
-24.455293572
 10
8.357426515
 20
-24.4478802386
 10
8.3470430174
 20
-24.4399125818
 10
8.3370907169
 20
-24.4314124395
 10
8.327596891
 20
-24.422403109
 10
8.3185875605
 20
-24.4129092831
 10
8.3100874182
 20
-24.4029569826
 10
8.3021197614
 20
-24.392573485
 10
8.294706428
 20
-24.3817872494
 10
8.2878677366
 20
-24.3706278389
 10
8.2816224307
 20
-24.3591258393
 10
8.2759876276
 20
-24.3473127755
 10
8.2709787711
 20
-24.3352210249
 10
8.2666095896
 20
-24.3228837286
 10
8.2628920582
 20
-24.3103347009
 10
8.259836366
 20
-24.2976083364
 10
8.257450888
 20
-24.2847395155
 10
8.2557421625
 20
-24.2717635094
 10
8.2547148726
 20
-24.2587158828
 10
8.254371834
 20
-24.2456323968
  0
LWPOLYLINE
  5
247
100
AcDbEntity
  8
ASSI
100
AcDbPolyline
 62
7
  6
CONTINUOUS
 90
31
 70
0
 10
8.5043676032
 20
-24.495628166
 10
8.4912841172
 20
-24.4952851274
 10
8.4782364906
 20
-24.4942578375
 10
8.4652604845
 20
-24.492549112
 10
8.4523916636
 20
-24.490163634
 10
8.4396652991
 20
-24.4871079418
 10
8.4271162714
 20
-24.4833904104
 10
8.4147789751
 20
-24.4790212289
 10
8.4026872245
 20
-24.4740123724
 10
8.3908741607
 20
-24.4683775693
 10
8.3793721611
 20
-24.4621322634
 10
8.3682127506
 20
-24.455293572
 10
8.357426515
 20
-24.4478802386
 10
8.3470430174
 20
-24.4399125818
 10
8.3370907169
 20
-24.4314124395
 10
8.327596891
 20
-24.422403109
 10
8.3185875605
 20
-24.4129092831
 10
8.3100874182
 20
-24.4029569826
 10
8.3021197614
 20
-24.392573485
 10
8.294706428
 20
-24.3817872494
 10
8.2878677366
 20
-24.3706278389
 10
8.2816224307
 20
-24.3591258393
 10
8.2759876276
 20
-24.3473127755
 10
8.2709787711
 20
-24.3352210249
 10
8.2666095896
 20
-24.3228837286
 10
8.2628920582
 20
-24.3103347009
 10
8.259836366
 20
-24.2976083364
 10
8.257450888
 20
-24.2847395155
 10
8.2557421625
 20
-24.2717635094
 10
8.2547148726
 20
-24.2587158828
 10
8.254371834
 20
-24.2456323968
  0
LWPOLYLINE
  5
248
100
AcDbEntity
  8
RACCORDO
100
AcDbPolyline
 62
7
  6
CONTINUOUS
 90
11
 70
0
 10
-10.8560139878
 20
-22.3472253447
 10
-10.8381874588
 20
-22.3557023577
 10
-10.8183694928
 20
-22.3641420636
 10
-10.7981597008
 20
-22.3717368058
 10
-10.7776108967
 20
-22.3784610765
 10
-10.7567435211
 20
-22.3843026901
 10
-10.7356119114
 20
-22.3892409661
 10
-10.714323887
 20
-22.3932510251
 10
-10.6929434461
 20
-22.396327304
 10
-10.6714883972
 20
-22.3984737398
 10
-10.6499991391
 20
-22.3996911987
  0
LINE
  5
249
100
AcDbEntity
  8
RACCORDO
100
AcDbLine
 62
253
  6
CONTINUOUS
 10
-10.6323926099
 20
-22.4
 11
-10.6466029582
 21
-22.392895367
  0
LINE
  5
24A
100
AcDbEntity
  8
ASSI
100
AcDbLine
 62
253
  6
CONTINUOUS
 10
-10.6323926099
 20
-22.4
 11
-10.6466029582
 21
-22.392895367
  0
LINE
  5
24B
100
AcDbEntity
  8
RACCORDO
100
AcDbLine
 62
7
  6
CONTINUOUS
 10
-8.0840245667
 20
20.9917082642
 11
-8.2465127091
 21
20.9104703804
  0
LINE
  5
24C
100
AcDbEntity
  8
ASSI
100
AcDbLine
 62
7
  6
CONTINUOUS
 10
-8.0840245667
 20
20.9917082642
 11
-8.2465127091
 21
20.9104703804
  0
LWPOLYLINE
  5
24D
100
AcDbEntity
  8
RACCORDO
100
AcDbPolyline
 62
7
  6
CONTINUOUS
 90
11
 70
0
 10
10.6499991391
 20
-22.3996911987
 10
10.6714883972
 20
-22.3984737398
 10
10.6929434461
 20
-22.396327304
 10
10.714323887
 20
-22.3932510251
 10
10.7356119114
 20
-22.3892409661
 10
10.7567435211
 20
-22.3843026901
 10
10.7776108967
 20
-22.3784610765
 10
10.7981597008
 20
-22.3717368058
 10
10.8183694928
 20
-22.3641420636
 10
10.8381874588
 20
-22.3557023577
 10
10.8560139878
 20
-22.3472253447
  0
LINE
  5
24E
100
AcDbEntity
  8
ASSI
100
AcDbLine
 62
7
  6
CONTINUOUS
 10
10.6499991391
 20
-22.3996911987
 11
10.6714883972
 21
-22.3984737398
  0
LINE
  5
24F
100
AcDbEntity
  8
RACCORDO
100
AcDbLine
 62
7
  6
CONTINUOUS
 10
10.65
 20
-22.399689968
 11
10.6460883071
 21
-22.3998124433
  0
LINE
  5
250
100
AcDbEntity
  8
ASSI
100
AcDbLine
 62
7
  6
CONTINUOUS
 10
10.65
 20
-22.399689968
 11
10.6460883071
 21
-22.3998124433
  0
LINE
  5
251
100
AcDbEntity
  8
RACCORDO
100
AcDbLine
 62
7
  6
CONTINUOUS
 10
10.6460883071
 20
-22.3998124433
 11
10.6421758755
 21
-22.3999043042
  0
LINE
  5
252
100
AcDbEntity
  8
ASSI
100
AcDbLine
 62
7
  6
CONTINUOUS
 10
10.6460883071
 20
-22.3998124433
 11
10.6421758755
 21
-22.3999043042
  0
LINE
  5
253
100
AcDbEntity
  8
RACCORDO
100
AcDbLine
 62
7
  6
CONTINUOUS
 10
10.6421758755
 20
-22.3999043042
 11
10.6382627952
 21
-22.399965549
  0
LINE
  5
254
100
AcDbEntity
  8
ASSI
100
AcDbLine
 62
7
  6
CONTINUOUS
 10
10.6421758755
 20
-22.3999043042
 11
10.6382627952
 21
-22.399965549
  0
LINE
  5
255
100
AcDbEntity
  8
RACCORDO
100
AcDbLine
 62
7
  6
CONTINUOUS
 10
10.6382627952
 20
-22.399965549
 11
10.6343494256
 21
-22.3999961716
  0
LINE
  5
256
100
AcDbEntity
  8
ASSI
100
AcDbLine
 62
7
  6
CONTINUOUS
 10
10.6382627952
 20
-22.399965549
 11
10.6343494256
 21
-22.3999961716
  0
LINE
  5
257
100
AcDbEntity
  8
DRAFT
100
AcDbLine
 62
7
  6
CONTINUOUS
 10
8.25
 20
-22.4
 11
4.4
 21
-22.4
  0
LINE
  5
258
100
AcDbEntity
  8
DRAFT
100
AcDbLine
 62
7
  6
CONTINUOUS
 10
-4.4
 20
-22.4
 11
-8.25
 21
-22.4
  0
LINE
  5
259
100
AcDbEntity
  8
RACCORDO
100
AcDbLine
 62
7
  6
CONTINUOUS
 10
8.25
 20
-22.4
 11
10.6343494256
 21
-22.3999961716
  0
LINE
  5
25A
100
AcDbEntity
  8
ASSI
100
AcDbLine
 62
7
  6
CONTINUOUS
 10
4.4
 20
-22.4
 11
10.6343494256
 21
-22.3999961716
  0
LINE
  5
25B
100
AcDbEntity
  8
RACCORDO
100
AcDbLine
 62
7
  6
CONTINUOUS
 10
-10.6498476749
 20
-22.3912731322
 11
-7.2587268678
 21
-22.3912731322
  0
LINE
  5
25C
100
AcDbEntity
  8
ASSI
100
AcDbLine
 62
7
  6
CONTINUOUS
 10
-10.6498476749
 20
-22.3912731322
 11
-7.2587268678
 21
-22.3912731322
  0
LINE
  5
25D
100
AcDbEntity
  8
DRAFT
100
AcDbLine
 62
7
  6
CONTINUOUS
 10
-3.5
 20
-22.3912731322
 11
-3.0
 21
-22.3912731322
  0
LINE
  5
25E
100
AcDbEntity
  8
ASSI
100
AcDbLine
 62
7
  6
CONTINUOUS
 10
-3.5
 20
-22.3912731322
 11
-3.0
 21
-22.3912731322
  0
LINE
  5
25F
100
AcDbEntity
  8
DRAFT
100
AcDbLine
 62
7
  6
CONTINUOUS
 10
3.0
 20
-22.3912731322
 11
3.5
 21
-22.3912731322
  0
LINE
  5
260
100
AcDbEntity
  8
ASSI
100
AcDbLine
 62
7
  6
CONTINUOUS
 10
3.0
 20
-22.3912731322
 11
3.5
 21
-22.3912731322
  0
LINE
  5
261
100
AcDbEntity
  8
RACCORDO
100
AcDbLine
 62
7
  6
CONTINUOUS
 10
7.2587268678
 20
-22.3912731322
 11
10.6498476749
 21
-22.3912731322
  0
LINE
  5
262
100
AcDbEntity
  8
ASSI
100
AcDbLine
 62
7
  6
CONTINUOUS
 10
7.2587268678
 20
-22.3912731322
 11
10.6498476749
 21
-22.3912731322
  0
LINE
  5
263
100
AcDbEntity
  8
RACCORDO
100
AcDbLine
 62
253
  6
CONTINUOUS
 10
-7.3373448332
 20
-22.3126551668
 11
-3.0
 21
-22.3126551668
  0
LINE
  5
264
100
AcDbEntity
  8
ASSI
100
AcDbLine
 62
253
  6
CONTINUOUS
 10
-7.3373448332
 20
-22.3126551668
 11
-3.0
 21
-22.3126551668
  0
LINE
  5
265
100
AcDbEntity
  8
RACCORDO
100
AcDbLine
 62
253
  6
CONTINUOUS
 10
3.0
 20
-22.3126551668
 11
7.3373448332
 21
-22.3126551668
  0
LINE
  5
266
100
AcDbEntity
  8
ASSI
100
AcDbLine
 62
253
  6
CONTINUOUS
 10
3.0
 20
-22.3126551668
 11
7.3373448332
 21
-22.3126551668
  0
LINE
  5
267
100
AcDbEntity
  8
0
100
AcDbLine
 62
7
  6
CONTINUOUS
 10
3.0
 20
-21.7
 11
-3.0
 21
-21.7
  0
LINE
  5
268
100
AcDbEntity
  8
ASSI
100
AcDbLine
 62
7
  6
CONTINUOUS
 10
3.0
 20
-21.7
 11
-3.0
 21
-21.7
  0
LINE
  5
269
100
AcDbEntity
  8
RACCORDO
100
AcDbLine
 62
253
  6
CONTINUOUS
 10
-7.5841007192
 20
-21.3126932437
 11
-3.0
 21
-21.3126932437
  0
LINE
  5
26A
100
AcDbEntity
  8
ASSI
100
AcDbLine
 62
253
  6
CONTINUOUS
 10
-7.5841007192
 20
-21.3126932437
 11
-3.0
 21
-21.3126932437
  0
LINE
  5
26B
100
AcDbEntity
  8
RACCORDO
100
AcDbLine
 62
253
  6
CONTINUOUS
 10
3.0
 20
-21.3126932437
 11
7.5841007192
 21
-21.3126932437
  0
LINE
  5
26C
100
AcDbEntity
  8
ASSI
100
AcDbLine
 62
253
  6
CONTINUOUS
 10
3.0
 20
-21.3126932437
 11
7.5841007192
 21
-21.3126932437
  0
LINE
  5
26D
100
AcDbEntity
  8
RACCORDO
100
AcDbLine
 62
7
  6
CONTINUOUS
 10
-8.25
 20
-22.4
 11
-10.6343494256
 21
-22.3999961716
  0
LINE
  5
26E
100
AcDbEntity
  8
ASSI
100
AcDbLine
 62
7
  6
CONTINUOUS
 10
-4.4
 20
-22.4
 11
-10.6343494256
 21
-22.3999961716
  0
LINE
  5
26F
100
AcDbEntity
  8
RACCORDO
100
AcDbLine
 62
7
  6
CONTINUOUS
 10
-10.6343494256
 20
-22.3999961716
 11
-10.6382627952
 21
-22.399965549
  0
LINE
  5
270
100
AcDbEntity
  8
ASSI
100
AcDbLine
 62
7
  6
CONTINUOUS
 10
-10.6343494256
 20
-22.3999961716
 11
-10.6382627952
 21
-22.399965549
  0
LINE
  5
271
100
AcDbEntity
  8
RACCORDO
100
AcDbLine
 62
7
  6
CONTINUOUS
 10
-10.6382627952
 20
-22.399965549
 11
-10.6421758755
 21
-22.3999043042
  0
LINE
  5
272
100
AcDbEntity
  8
ASSI
100
AcDbLine
 62
7
  6
CONTINUOUS
 10
-10.6382627952
 20
-22.399965549
 11
-10.6421758755
 21
-22.3999043042
  0
LINE
  5
273
100
AcDbEntity
  8
RACCORDO
100
AcDbLine
 62
7
  6
CONTINUOUS
 10
-10.6421758755
 20
-22.3999043042
 11
-10.6460883071
 21
-22.3998124433
  0
LINE
  5
274
100
AcDbEntity
  8
ASSI
100
AcDbLine
 62
7
  6
CONTINUOUS
 10
-10.6421758755
 20
-22.3999043042
 11
-10.6460883071
 21
-22.3998124433
  0
LINE
  5
275
100
AcDbEntity
  8
RACCORDO
100
AcDbLine
 62
7
  6
CONTINUOUS
 10
-10.6460883071
 20
-22.3998124433
 11
-10.65
 21
-22.399689968
  0
LINE
  5
276
100
AcDbEntity
  8
ASSI
100
AcDbLine
 62
7
  6
CONTINUOUS
 10
-10.6460883071
 20
-22.3998124433
 11
-10.65
 21
-22.399689968
  0
LINE
  5
277
100
AcDbEntity
  8
RACCORDO
100
AcDbLine
 62
7
  6
CONTINUOUS
 10
8.4644176339
 20
-24.4974554741
 11
8.4526837125
 21
-24.4954823677
  0
LWPOLYLINE
  5
278
100
AcDbEntity
  8
ASSI
100
AcDbPolyline
 62
7
  6
CONTINUOUS
 90
6
 70
0
 10
8.4644176339
 20
-24.4974554741
 10
8.4526837125
 20
-24.4954823677
 10
8.4410569612
 20
-24.4929531817
 10
8.429563721
 20
-24.4898736417
 10
8.4182300262
 20
-24.4862507213
 10
8.4070815507
 20
-24.4820926258
  0
LWPOLYLINE
  5
279
100
AcDbEntity
  8
RACCORDO
100
AcDbPolyline
 62
7
  6
CONTINUOUS
 90
26
 70
0
 10
8.4526837125
 20
-24.4954823677
 10
8.4410569612
 20
-24.4929531817
 10
8.429563721
 20
-24.4898736417
 10
8.4182300262
 20
-24.4862507213
 10
8.4070815507
 20
-24.4820926258
 10
8.3961435537
 20
-24.4774087722
 10
8.3854408124
 20
-24.4722097688
 10
8.3749975717
 20
-24.4665073916
 10
8.3648374941
 20
-24.4603145581
 10
8.3549835949
 20
-24.4536452955
 10
8.3454581962
 20
-24.4465147107
 10
8.3362828809
 20
-24.4389389589
 10
8.3274784339
 20
-24.4309352005
 10
8.3190647995
 20
-24.4225215661
 10
8.3110610411
 20
-24.4137171191
 10
8.3034852893
 20
-24.4045418038
 10
8.2963547045
 20
-24.3950164051
 10
8.2896854419
 20
-24.3851625059
 10
8.2834926084
 20
-24.3750024283
 10
8.2777902312
 20
-24.3645591876
 10
8.2725912278
 20
-24.3538564463
 10
8.2679073742
 20
-24.3429184493
 10
8.2637492787
 20
-24.3317699738
 10
8.2601263583
 20
-24.320436279
 10
8.2570468183
 20
-24.3089430388
 10
8.2545176323
 20
-24.2973162875
  0
LINE
  5
27A
100
AcDbEntity
  8
RACCORDO
100
AcDbLine
 62
7
  6
CONTINUOUS
 10
-8.0840245667
 20
-20.9917082642
 11
-8.2465127091
 21
-20.9104703804
  0
LINE
  5
27B
100
AcDbEntity
  8
ASSI
100
AcDbLine
 62
7
  6
CONTINUOUS
 10
-8.0840245667
 20
-20.9917082642
 11
-8.2465127091
 21
-20.9104703804
  0
LWPOLYLINE
  5
27C
100
AcDbEntity
  8
ASSI
100
AcDbPolyline
 62
7
  6
CONTINUOUS
 90
16
 70
0
 10
-10.6222097688
 20
24.3645591876
 10
-10.6165073916
 20
24.3750024283
 10
-10.6103145581
 20
24.3851625059
 10
-10.6036452955
 20
24.3950164051
 10
-10.5965147107
 20
24.4045418038
 10
-10.5889389589
 20
24.4137171191
 10
-10.5809352005
 20
24.4225215661
 10
-10.5725215661
 20
24.4309352005
 10
-10.5637171191
 20
24.4389389589
 10
-10.5545418038
 20
24.4465147107
 10
-10.5450164051
 20
24.4536452955
 10
-10.5351625059
 20
24.4603145581
 10
-10.5250024283
 20
24.4665073916
 10
-10.5145591876
 20
24.4722097688
 10
-10.5038564463
 20
24.4774087722
 10
-10.4929184493
 20
24.4820926258
  0
LINE
  5
27D
100
AcDbEntity
  8
RACCORDO
100
AcDbLine
 62
7
  6
CONTINUOUS
 10
-8.25
 20
21.4
 11
-7.2587268678
 21
22.3912731322
  0
LINE
  5
27E
100
AcDbEntity
  8
ASSI
100
AcDbLine
 62
7
  6
CONTINUOUS
 10
-8.25
 20
21.4
 11
-7.2587268678
 21
22.3912731322
  0
LINE
  5
27F
100
AcDbEntity
  8
0
100
AcDbLine
 62
7
  6
CONTINUOUS
 10
-9.65
 20
19.169698187
 11
-10.2553500779
 21
18.5643481092
  0
LINE
  5
280
100
AcDbEntity
  8
ASSI
100
AcDbLine
 62
7
  6
CONTINUOUS
 10
-9.65
 20
19.169698187
 11
-10.2553500779
 21
18.5643481092
  0
LINE
  5
281
100
AcDbEntity
  8
0
100
AcDbLine
 62
7
  6
CONTINUOUS
 10
-9.4946499221
 20
19.1053500779
 11
-10.1
 21
18.5
  0
LINE
  5
282
100
AcDbEntity
  8
ASSI
100
AcDbLine
 62
7
  6
CONTINUOUS
 10
-9.4946499221
 20
19.1053500779
 11
-10.1
 21
18.5
  0
LWPOLYLINE
  5
283
100
AcDbEntity
  8
RACCORDO
100
AcDbPolyline
 62
7
  6
CONTINUOUS
 90
8
 70
0
 10
8.4182300262
 20
24.4862507213
 10
8.429563721
 20
24.4898736417
 10
8.4410569612
 20
24.4929531817
 10
8.4526837125
 20
24.4954823677
 10
8.4644176339
 20
24.4974554741
 10
8.4762321444
 20
24.4988680342
 10
8.488100484
 20
24.4997168498
 10
8.4999957692
 20
24.5
  0
LWPOLYLINE
  5
284
100
AcDbEntity
  8
RACCORDO
100
AcDbPolyline
 62
253
  6
CONTINUOUS
 90
7
 70
0
 10
8.4271772258
 20
24.4834102087
 10
8.4397314103
 20
24.4871256484
 10
8.4524628755
 20
24.4901787618
 10
8.4653285943
 20
24.492559892
 10
8.4782903689
 20
24.4942634962
 10
8.4913152632
 20
24.4952867588
 10
8.5043676032
 20
24.495628166
  0
LINE
  5
285
100
AcDbEntity
  8
0
100
AcDbLine
 62
7
  6
CONTINUOUS
 10
3.0
 20
-21.0
 11
-3.0
 21
-21.0
  0
LINE
  5
286
100
AcDbEntity
  8
ASSI
100
AcDbLine
 62
7
  6
CONTINUOUS
 10
3.0
 20
-21.0
 11
-3.0
 21
-21.0
  0
LINE
  5
287
100
AcDbEntity
  8
RACCORDO
100
AcDbLine
 62
7
  6
CONTINUOUS
 10
-7.5841007192
 20
-20.9959955457
 11
-7.2418217019
 21
-20.9959955457
  0
LINE
  5
288
100
AcDbEntity
  8
ASSI
100
AcDbLine
 62
7
  6
CONTINUOUS
 10
-7.5841007192
 20
-20.9959955457
 11
-7.2418217019
 21
-20.9959955457
  0
LINE
  5
289
100
AcDbEntity
  8
RACCORDO
100
AcDbLine
 62
7
  6
CONTINUOUS
 10
7.2418217019
 20
-20.9959955457
 11
7.5841007192
 21
-20.9959955457
  0
LINE
  5
28A
100
AcDbEntity
  8
ASSI
100
AcDbLine
 62
7
  6
CONTINUOUS
 10
7.2418217019
 20
-20.9959955457
 11
7.5841007192
 21
-20.9959955457
  0
LINE
  5
28B
100
AcDbEntity
  8
DRAFT
100
AcDbLine
 62
7
  6
CONTINUOUS
 10
-8.2465127091
 20
-20.9104703804
 11
-7.2988376746
 21
-20.9104703804
  0
LINE
  5
28C
100
AcDbEntity
  8
ASSI
100
AcDbLine
 62
7
  6
CONTINUOUS
 10
-8.2465127091
 20
-20.9104703804
 11
-7.2988376746
 21
-20.9104703804
  0
LINE
  5
28D
100
AcDbEntity
  8
DRAFT
100
AcDbLine
 62
7
  6
CONTINUOUS
 10
7.2988376746
 20
-20.9104703804
 11
8.2465127091
 21
-20.9104703804
  0
LINE
  5
28E
100
AcDbEntity
  8
ASSI
100
AcDbLine
 62
7
  6
CONTINUOUS
 10
7.2988376746
 20
-20.9104703804
 11
8.2465127091
 21
-20.9104703804
  0
LINE
  5
28F
100
AcDbEntity
  8
RACCORDO
100
AcDbLine
 62
7
  6
CONTINUOUS
 10
9.1503805997
 20
-20.9
 11
8.25
 21
-20.9
  0
LINE
  5
290
100
AcDbEntity
  8
ASSI
100
AcDbLine
 62
7
  6
CONTINUOUS
 10
9.1503805997
 20
-20.9
 11
8.25
 21
-20.9
  0
LINE
  5
291
100
AcDbEntity
  8
RACCORDO
100
AcDbLine
 62
7
  6
CONTINUOUS
 10
-8.25
 20
-20.9
 11
-9.1503805997
 21
-20.9
  0
LINE
  5
292
100
AcDbEntity
  8
ASSI
100
AcDbLine
 62
7
  6
CONTINUOUS
 10
-8.25
 20
-20.9
 11
-9.1503805997
 21
-20.9
  0
LINE
  5
293
100
AcDbEntity
  8
RACCORDO
100
AcDbLine
 62
7
  6
CONTINUOUS
 10
9.087542366
 20
-20.7113319946
 11
7.3209441873
 21
-20.7113319946
  0
LINE
  5
294
100
AcDbEntity
  8
ASSI
100
AcDbLine
 62
7
  6
CONTINUOUS
 10
9.087542366
 20
-20.7113319946
 11
7.3209441873
 21
-20.7113319946
  0
LINE
  5
295
100
AcDbEntity
  8
RACCORDO
100
AcDbLine
 62
7
  6
CONTINUOUS
 10
-7.3209441873
 20
-20.7113319946
 11
-9.087542366
 21
-20.7113319946
  0
LINE
  5
296
100
AcDbEntity
  8
ASSI
100
AcDbLine
 62
7
  6
CONTINUOUS
 10
-7.3209441873
 20
-20.7113319946
 11
-9.087542366
 21
-20.7113319946
  0
LINE
  5
297
100
AcDbEntity
  8
RACCORDO
100
AcDbLine
 62
253
  6
CONTINUOUS
 10
6.5581782981
 20
-20.5829242832
 11
-6.5581782981
 21
-20.5829242832
  0
LINE
  5
298
100
AcDbEntity
  8
ASSI
100
AcDbLine
 62
253
  6
CONTINUOUS
 10
6.5581782981
 20
-20.5829242832
 11
-6.5581782981
 21
-20.5829242832
  0
LINE
  5
299
100
AcDbEntity
  8
RACCORDO
100
AcDbLine
 62
253
  6
CONTINUOUS
 10
6.555294768
 20
-20.0829433217
 11
-6.555294768
 21
-20.0829433217
  0
LINE
  5
29A
100
AcDbEntity
  8
ASSI
100
AcDbLine
 62
7
  6
CONTINUOUS
 10
6.555294768
 20
-20.0829433217
 11
-6.555294768
 21
-20.0829433217
  0
LINE
  5
29B
100
AcDbEntity
  8
0
100
AcDbLine
 62
7
  6
CONTINUOUS
 10
4.5
 20
-20.0
 11
-4.5
 21
-20.0
  0
LINE
  5
29C
100
AcDbEntity
  8
ASSI
100
AcDbLine
 62
7
  6
CONTINUOUS
 10
4.5
 20
-20.0
 11
-4.5
 21
-20.0
  0
LINE
  5
29D
100
AcDbEntity
  8
0
100
AcDbLine
 62
7
  6
CONTINUOUS
 10
-6.4790558127
 20
-19.968583276
 11
-4.5
 21
-19.968583276
  0
LINE
  5
29E
100
AcDbEntity
  8
ASSI
100
AcDbLine
 62
7
  6
CONTINUOUS
 10
-6.4790558127
 20
-19.968583276
 11
-4.5
 21
-19.968583276
  0
LINE
  5
29F
100
AcDbEntity
  8
0
100
AcDbLine
 62
7
  6
CONTINUOUS
 10
4.5
 20
-19.968583276
 11
6.4790558127
 21
-19.968583276
  0
LINE
  5
2A0
100
AcDbEntity
  8
ASSI
100
AcDbLine
 62
7
  6
CONTINUOUS
 10
4.5
 20
-19.968583276
 11
6.4790558127
 21
-19.968583276
  0
LINE
  5
2A1
100
AcDbEntity
  8
RACCORDO
100
AcDbLine
 62
253
  6
CONTINUOUS
 10
-9.5871617663
 20
-19.8
 11
-7.3209441873
 21
-19.8
  0
LINE
  5
2A2
100
AcDbEntity
  8
ASSI
100
AcDbLine
 62
253
  6
CONTINUOUS
 10
-9.5871617663
 20
-19.8
 11
-7.3209441873
 21
-19.8
  0
LINE
  5
2A3
100
AcDbEntity
  8
RACCORDO
100
AcDbLine
 62
253
  6
CONTINUOUS
 10
-6.4790558127
 20
-19.8
 11
-4.5
 21
-19.8
  0
LINE
  5
2A4
100
AcDbEntity
  8
ASSI
100
AcDbLine
 62
253
  6
CONTINUOUS
 10
-6.4790558127
 20
-19.8
 11
-4.5
 21
-19.8
  0
LINE
  5
2A5
100
AcDbEntity
  8
RACCORDO
100
AcDbLine
 62
253
  6
CONTINUOUS
 10
4.5
 20
-19.8
 11
6.4790558127
 21
-19.8
  0
LINE
  5
2A6
100
AcDbEntity
  8
ASSI
100
AcDbLine
 62
253
  6
CONTINUOUS
 10
4.5
 20
-19.8
 11
6.4790558127
 21
-19.8
  0
LINE
  5
2A7
100
AcDbEntity
  8
RACCORDO
100
AcDbLine
 62
253
  6
CONTINUOUS
 10
7.3209441873
 20
-19.8
 11
9.5871617663
 21
-19.8
  0
LINE
  5
2A8
100
AcDbEntity
  8
ASSI
100
AcDbLine
 62
253
  6
CONTINUOUS
 10
7.3209441873
 20
-19.8
 11
9.5871617663
 21
-19.8
  0
LINE
  5
2A9
100
AcDbEntity
  8
RACCORDO
100
AcDbLine
 62
7
  6
CONTINUOUS
 10
-7.2587268678
 20
-22.3912731322
 11
-8.25
 21
-21.4
  0
LINE
  5
2AA
100
AcDbEntity
  8
ASSI
100
AcDbLine
 62
7
  6
CONTINUOUS
 10
-7.2587268678
 20
-22.3912731322
 11
-8.25
 21
-21.4
  0
LWPOLYLINE
  5
2AB
100
AcDbEntity
  8
RACCORDO
100
AcDbPolyline
 62
253
  6
CONTINUOUS
 90
21
 70
0
 10
-10.6334102087
 20
24.3228227742
 10
-10.6290436576
 20
24.3351625782
 10
-10.6240372277
 20
24.3472569343
 10
-10.6184044791
 20
24.3590730125
 10
-10.6121606774
 20
24.370578613
 10
-10.6053229956
 20
24.3817419314
 10
-10.5979103656
 20
24.3925320106
 10
-10.5899432233
 20
24.4029191364
 10
-10.5814433264
 20
24.4128749736
 10
-10.5724339046
 20
24.422372308
 10
-10.5629396114
 20
24.4313851271
 10
-10.552986508
 20
24.4398886687
 10
-10.5426019187
 20
24.4478595768
 10
-10.5318143284
 20
24.4552759837
 10
-10.5206533025
 20
24.4621175595
 10
-10.5091494467
 20
24.4683655387
 10
-10.497334301
 20
24.4740027869
 10
-10.4852402638
 20
24.4790138424
 10
-10.4729005077
 20
24.4833849575
 10
-10.4603488602
 20
24.487104147
 10
-10.4476197463
 20
24.4901612081
  0
LWPOLYLINE
  5
2AC
100
AcDbEntity
  8
RACCORDO
100
AcDbPolyline
 62
7
  6
CONTINUOUS
 90
23
 70
0
 10
-10.6362507213
 20
24.3317699738
 10
-10.6320926258
 20
24.3429184493
 10
-10.6274087722
 20
24.3538564463
 10
-10.6222097688
 20
24.3645591876
 10
-10.6165073916
 20
24.3750024283
 10
-10.6103145581
 20
24.3851625059
 10
-10.6036452955
 20
24.3950164051
 10
-10.5965147107
 20
24.4045418038
 10
-10.5889389589
 20
24.4137171191
 10
-10.5809352005
 20
24.4225215661
 10
-10.5725215661
 20
24.4309352005
 10
-10.5637171191
 20
24.4389389589
 10
-10.5545418038
 20
24.4465147107
 10
-10.5450164051
 20
24.4536452955
 10
-10.5351625059
 20
24.4603145581
 10
-10.5250024283
 20
24.4665073916
 10
-10.5145591876
 20
24.4722097688
 10
-10.5038564463
 20
24.4774087722
 10
-10.4929184493
 20
24.4820926258
 10
-10.4817699738
 20
24.4862507213
 10
-10.470436279
 20
24.4898736417
 10
-10.4589430388
 20
24.4929531817
 10
-10.4473162875
 20
24.4954823677
  0
LINE
  5
2AD
100
AcDbEntity
  8
ASSI
100
AcDbLine
 62
7
  6
CONTINUOUS
 10
-3.5938557177
 20
23.6234472841
 11
-3.6204024235
 21
23.5930775533
  0
LINE
  5
2AE
100
AcDbEntity
  8
ASSI
100
AcDbLine
 62
7
  6
CONTINUOUS
 10
-3.6204024235
 20
23.5930775533
 11
-3.6508085508
 21
23.5588298205
  0
LINE
  5
2AF
100
AcDbEntity
  8
ASSI
100
AcDbLine
 62
7
  6
CONTINUOUS
 10
-3.6508085508
 20
23.5588298205
 11
-3.6850783499
 21
23.5207160551
  0
LINE
  5
2B0
100
AcDbEntity
  8
ASSI
100
AcDbLine
 62
7
  6
CONTINUOUS
 10
-3.6850783499
 20
23.5207160551
 11
-3.7435718225
 21
23.4564018309
  0
LINE
  5
2B1
100
AcDbEntity
  8
ASSI
100
AcDbLine
 62
7
  6
CONTINUOUS
 10
-3.7435718225
 20
23.4564018309
 11
-3.9279699877
 21
23.2563578147
  0
LINE
  5
2B2
100
AcDbEntity
  8
CURVE
100
AcDbLine
 62
7
  6
CONTINUOUS
 10
-8.05
 20
18.5
 11
-9.05
 21
17.5
  0
LINE
  5
2B3
100
AcDbEntity
  8
ASSI
100
AcDbLine
 62
7
  6
CONTINUOUS
 10
-8.05
 20
18.5
 11
-9.05
 21
17.5
  0
LINE
  5
2B4
100
AcDbEntity
  8
CURVE
100
AcDbLine
 62
7
  6
CONTINUOUS
 10
-7.9731977143
 20
18.4681874516
 11
-8.9731977143
 21
17.4681874516
  0
LINE
  5
2B5
100
AcDbEntity
  8
ASSI
100
AcDbLine
 62
7
  6
CONTINUOUS
 10
-7.9731977143
 20
18.4681874516
 11
-8.9731977143
 21
17.4681874516
  0
LWPOLYLINE
  5
2B6
100
AcDbEntity
  8
ASSI
100
AcDbPolyline
 62
7
  6
CONTINUOUS
 90
11
 70
0
 10
8.3854408124
 20
24.4722097688
 10
8.3961435537
 20
24.4774087722
 10
8.4070815507
 20
24.4820926258
 10
8.4182300262
 20
24.4862507213
 10
8.429563721
 20
24.4898736417
 10
8.4410569612
 20
24.4929531817
 10
8.4526837125
 20
24.4954823677
 10
8.4644176339
 20
24.4974554741
 10
8.4762321444
 20
24.4988680342
 10
8.488100484
 20
24.4997168498
 10
8.4999957692
 20
24.5
  0
LINE
  5
2B7
100
AcDbEntity
  8
RACCORDO
100
AcDbLine
 62
7
  6
CONTINUOUS
 10
-9.5784342338
 20
-19.3
 11
-7.3173413541
 21
-19.3
  0
LINE
  5
2B8
100
AcDbEntity
  8
ASSI
100
AcDbLine
 62
7
  6
CONTINUOUS
 10
-9.5784342338
 20
-19.3
 11
-7.3173413541
 21
-19.3
  0
LINE
  5
2B9
100
AcDbEntity
  8
RACCORDO
100
AcDbLine
 62
7
  6
CONTINUOUS
 10
-6.4826586459
 20
-19.3
 11
-4.5
 21
-19.3
  0
LINE
  5
2BA
100
AcDbEntity
  8
ASSI
100
AcDbLine
 62
7
  6
CONTINUOUS
 10
-6.4826586459
 20
-19.3
 11
-4.5
 21
-19.3
  0
LINE
  5
2BB
100
AcDbEntity
  8
RACCORDO
100
AcDbLine
 62
7
  6
CONTINUOUS
 10
4.5
 20
-19.3
 11
6.4826586459
 21
-19.3
  0
LINE
  5
2BC
100
AcDbEntity
  8
ASSI
100
AcDbLine
 62
7
  6
CONTINUOUS
 10
4.5
 20
-19.3
 11
6.4826586459
 21
-19.3
  0
LINE
  5
2BD
100
AcDbEntity
  8
RACCORDO
100
AcDbLine
 62
7
  6
CONTINUOUS
 10
7.3173413541
 20
-19.3
 11
9.5784342338
 21
-19.3
  0
LINE
  5
2BE
100
AcDbEntity
  8
ASSI
100
AcDbLine
 62
7
  6
CONTINUOUS
 10
7.3173413541
 20
-19.3
 11
9.5784342338
 21
-19.3
  0
LINE
  5
2BF
100
AcDbEntity
  8
RACCORDO
100
AcDbLine
 62
253
  6
CONTINUOUS
 10
-4.5
 20
-17.8
 11
4.5
 21
-17.8
  0
LINE
  5
2C0
100
AcDbEntity
  8
ASSI
100
AcDbLine
 62
253
  6
CONTINUOUS
 10
-4.5
 20
-17.8
 11
4.5
 21
-17.8
  0
LWPOLYLINE
  5
2C1
100
AcDbEntity
  8
ASSI
100
AcDbPolyline
 62
7
  6
CONTINUOUS
 90
18
 70
0
 10
8.4070815507
 20
-24.4820926258
 10
8.3961435537
 20
-24.4774087722
 10
8.3854408124
 20
-24.4722097688
 10
8.3749975717
 20
-24.4665073916
 10
8.3648374941
 20
-24.4603145581
 10
8.3549835949
 20
-24.4536452955
 10
8.3454581962
 20
-24.4465147107
 10
8.3362828809
 20
-24.4389389589
 10
8.3274784339
 20
-24.4309352005
 10
8.3190647995
 20
-24.4225215661
 10
8.3110610411
 20
-24.4137171191
 10
8.3034852893
 20
-24.4045418038
 10
8.2963547045
 20
-24.3950164051
 10
8.2896854419
 20
-24.3851625059
 10
8.2834926084
 20
-24.3750024283
 10
8.2777902312
 20
-24.3645591876
 10
8.2725912278
 20
-24.3538564463
 10
8.2679073742
 20
-24.3429184493
  0
LWPOLYLINE
  5
2C2
100
AcDbEntity
  8
RACCORDO
100
AcDbPolyline
 62
7
  6
CONTINUOUS
 90
8
 70
0
 10
-7.3173413541
 20
-19.3
 10
-7.3171925172
 20
-19.3001561327
 10
-7.317098617
 20
-19.3006244492
 10
-7.3170596534
 20
-19.3014046806
 10
-7.3170775376
 20
-19.3024963953
 10
-7.3171503585
 20
-19.3038989189
 10
-7.3172723828
 20
-19.3056112546
 10
-7.3174457942
 20
-19.3076322506
  0
LWPOLYLINE
  5
2C3
100
AcDbEntity
  8
ASSI
100
AcDbPolyline
 62
7
  6
CONTINUOUS
 90
8
 70
0
 10
-7.3173413541
 20
-19.3
 10
-7.3171925172
 20
-19.3001561327
 10
-7.317098617
 20
-19.3006244492
 10
-7.3170596534
 20
-19.3014046806
 10
-7.3170775376
 20
-19.3024963953
 10
-7.3171503585
 20
-19.3038989189
 10
-7.3172723828
 20
-19.3056112546
 10
-7.3174457942
 20
-19.3076322506
  0
LINE
  5
2C4
100
AcDbEntity
  8
ASSI
100
AcDbLine
 62
7
  6
CONTINUOUS
 10
-3.9279699877
 20
-23.2563578147
 11
-3.7232989853
 21
-23.4786137322
  0
LINE
  5
2C5
100
AcDbEntity
  8
ASSI
100
AcDbLine
 62
7
  6
CONTINUOUS
 10
-3.7232989853
 20
-23.4786137322
 11
-3.685280314
 21
-23.5204927224
  0
LINE
  5
2C6
100
AcDbEntity
  8
ASSI
100
AcDbLine
 62
7
  6
CONTINUOUS
 10
-3.685280314
 20
-23.5204927224
 11
-3.6510546648
 21
-23.5585549825
  0
LINE
  5
2C7
100
AcDbEntity
  8
ASSI
100
AcDbLine
 62
7
  6
CONTINUOUS
 10
-3.6510546648
 20
-23.5585549825
 11
-3.62068447
 21
-23.5927575937
  0
LWPOLYLINE
  5
2C8
100
AcDbEntity
  8
ASSI
100
AcDbPolyline
 62
7
  6
CONTINUOUS
 90
9
 70
0
 10
-3.62068447
 20
-23.5927575937
 10
-3.5941505693
 20
-23.623107111
 10
-3.582252199
 20
-23.6369269746
 10
-3.5712441775
 20
-23.6498660033
 10
-3.5611130937
 20
-23.6619264116
 10
-3.5518072318
 20
-23.6731887725
 10
-3.5433221868
 20
-23.6836555391
 10
-3.5356456837
 20
-23.6933242583
 10
-3.5287312086
 20
-23.7022681433
  0
LWPOLYLINE
  5
2C9
100
AcDbEntity
  8
ASSI
100
AcDbPolyline
 62
7
  6
CONTINUOUS
 90
9
 70
0
 10
-10.6320926258
 20
-24.3429184493
 10
-10.6362507213
 20
-24.3317699738
 10
-10.6398736417
 20
-24.320436279
 10
-10.6429531817
 20
-24.3089430388
 10
-10.6454823677
 20
-24.2973162875
 10
-10.6474554741
 20
-24.2855823661
 10
-10.6488680342
 20
-24.2737678556
 10
-10.6497168498
 20
-24.261899516
 10
-10.65
 20
-24.2500042308
  0
LWPOLYLINE
  5
2CA
100
AcDbEntity
  8
ASSI
100
AcDbPolyline
 62
7
  6
CONTINUOUS
 90
27
 70
0
 10
-10.6401787618
 20
24.2975371245
 10
-10.6371256484
 20
24.3102685897
 10
-10.6334102087
 20
24.3228227742
 10
-10.6290436576
 20
24.3351625782
 10
-10.6240372277
 20
24.3472569343
 10
-10.6184044791
 20
24.3590730125
 10
-10.6121606774
 20
24.370578613
 10
-10.6053229956
 20
24.3817419314
 10
-10.5979103656
 20
24.3925320106
 10
-10.5899432233
 20
24.4029191364
 10
-10.5814433264
 20
24.4128749736
 10
-10.5724339046
 20
24.422372308
 10
-10.5629396114
 20
24.4313851271
 10
-10.552986508
 20
24.4398886687
 10
-10.5426019187
 20
24.4478595768
 10
-10.5318143284
 20
24.4552759837
 10
-10.5206533025
 20
24.4621175595
 10
-10.5091494467
 20
24.4683655387
 10
-10.497334301
 20
24.4740027869
 10
-10.4852402638
 20
24.4790138424
 10
-10.4729005077
 20
24.4833849575
 10
-10.4603488602
 20
24.487104147
 10
-10.4476197463
 20
24.4901612081
 10
-10.4347481067
 20
24.4925477509
 10
-10.4217692492
 20
24.494257234
 10
-10.4087187509
 20
24.495284977
 10
-10.3970868299
 20
24.4956238859
  0
LINE
  5
2CB
100
AcDbEntity
  8
DRAFT
100
AcDbLine
 62
7
  6
CONTINUOUS
 10
-7.2418217019
 20
20.9959955457
 11
-7.2988376746
 21
20.9104703804
  0
LINE
  5
2CC
100
AcDbEntity
  8
ASSI
100
AcDbLine
 62
7
  6
CONTINUOUS
 10
-7.2418217019
 20
20.9959955457
 11
-7.2988376746
 21
20.9104703804
  0
LWPOLYLINE
  5
2CD
100
AcDbEntity
  8
ASSI
100
AcDbPolyline
 62
7
  6
CONTINUOUS
 90
8
 70
0
 10
-3.5285942983
 20
23.7024480575
 10
-3.5354689952
 20
23.6935501651
 10
-3.5431047436
 20
23.6839279673
 10
-3.5515547325
 20
23.6734971318
 10
-3.5608381101
 20
23.6622548999
 10
-3.5709578944
 20
23.6502040303
 10
-3.5819598219
 20
23.6372684665
 10
-3.5938557177
 20
23.6234472841
  0
LINE
  5
2CE
100
AcDbEntity
  8
0
100
AcDbLine
 62
7
  6
CONTINUOUS
 10
-6.3516319481
 20
16.4283680519
 11
-6.5
 21
16.28
  0
LINE
  5
2CF
100
AcDbEntity
  8
ASSI
100
AcDbLine
 62
7
  6
CONTINUOUS
 10
-6.3516319481
 20
16.4283680519
 11
-6.5
 21
16.28
  0
LINE
  5
2D0
100
AcDbEntity
  8
RACCORDO
100
AcDbLine
 62
7
  6
CONTINUOUS
 10
-4.5
 20
-17.3
 11
4.5
 21
-17.3
  0
LINE
  5
2D1
100
AcDbEntity
  8
ASSI
100
AcDbLine
 62
7
  6
CONTINUOUS
 10
-4.5
 20
-17.3
 11
4.5
 21
-17.3
  0
LINE
  5
2D2
100
AcDbEntity
  8
0
100
AcDbLine
 62
7
  6
CONTINUOUS
 10
3.5
 20
-16.2
 11
-3.5
 21
-16.2
  0
LINE
  5
2D3
100
AcDbEntity
  8
ASSI
100
AcDbLine
 62
7
  6
CONTINUOUS
 10
3.5
 20
-16.2
 11
-3.5
 21
-16.2
  0
LWPOLYLINE
  5
2D4
100
AcDbEntity
  8
ASSI
100
AcDbPolyline
 62
7
  6
CONTINUOUS
 90
10
 70
0
 10
-3.5287312086
 20
-23.7022681433
 10
-3.522564002
 20
-23.7105063695
 10
-3.5171570622
 20
-23.7180197616
 10
-3.5125114232
 20
-23.7248240072
 10
-3.5086171662
 20
-23.7309112426
 10
-3.5054640862
 20
-23.7362893315
 10
-3.5030437493
 20
-23.7409975528
 10
-3.5013396308
 20
-23.7450489996
 10
-3.5003315447
 20
-23.7484305787
 10
-3.5
 20
-23.7511422903
  0
LINE
  5
2D5
100
AcDbEntity
  8
DRAFT
100
AcDbLine
 62
7
  6
CONTINUOUS
 10
-7.2418217019
 20
-20.9959955457
 11
-7.2988376746
 21
-20.9104703804
  0
LINE
  5
2D6
100
AcDbEntity
  8
ASSI
100
AcDbLine
 62
7
  6
CONTINUOUS
 10
-7.2418217019
 20
-20.9959955457
 11
-7.2988376746
 21
-20.9104703804
  0
LWPOLYLINE
  5
2D7
100
AcDbEntity
  8
RACCORDO
100
AcDbPolyline
 62
7
  6
CONTINUOUS
 90
5
 70
0
 10
-10.6474554741
 20
24.2855823661
 10
-10.6454823677
 20
24.2973162875
 10
-10.6429531817
 20
24.3089430388
 10
-10.6398736417
 20
24.320436279
 10
-10.6362507213
 20
24.3317699738
  0
LWPOLYLINE
  5
2D8
100
AcDbEntity
  8
ASSI
100
AcDbPolyline
 62
7
  6
CONTINUOUS
 90
8
 70
0
 10
-10.6474554741
 20
24.2855823661
 10
-10.6454823677
 20
24.2973162875
 10
-10.6429531817
 20
24.3089430388
 10
-10.6398736417
 20
24.320436279
 10
-10.6362507213
 20
24.3317699738
 10
-10.6320926258
 20
24.3429184493
 10
-10.6274087722
 20
24.3538564463
 10
-10.6222097688
 20
24.3645591876
  0
LINE
  5
2D9
100
AcDbEntity
  8
ASSI
100
AcDbLine
 62
7
  6
CONTINUOUS
 10
-10.642559892
 20
24.2846714057
 11
-10.6401787618
 21
24.2975371245
  0
LINE
  5
2DA
100
AcDbEntity
  8
DRAFT
100
AcDbLine
 62
7
  6
CONTINUOUS
 10
-8.25
 20
20.9
 11
-8.2465127091
 21
20.9104703804
  0
LINE
  5
2DB
100
AcDbEntity
  8
ASSI
100
AcDbLine
 62
7
  6
CONTINUOUS
 10
-8.25
 20
20.9
 11
-8.2465127091
 21
20.9104703804
  0
LINE
  5
2DC
100
AcDbEntity
  8
CURVE
100
AcDbLine
 62
7
  6
CONTINUOUS
 10
-9.0230693374
 20
11.8111550457
 11
-9.05
 21
11.8
  0
LINE
  5
2DD
100
AcDbEntity
  8
ASSI
100
AcDbLine
 62
7
  6
CONTINUOUS
 10
-9.0230693374
 20
11.8111550457
 11
-9.05
 21
11.8
  0
LINE
  5
2DE
100
AcDbEntity
  8
RACCORDO
100
AcDbLine
 62
7
  6
CONTINUOUS
 10
-3.5
 20
-15.7
 11
-3.4
 21
-15.7
  0
LINE
  5
2DF
100
AcDbEntity
  8
RACCORDO
100
AcDbLine
 62
7
  6
CONTINUOUS
 10
3.4
 20
-15.7
 11
3.5
 21
-15.7
  0
LINE
  5
2E0
100
AcDbEntity
  8
RACCORDO
100
AcDbLine
 62
7
  6
CONTINUOUS
 10
-3.5
 20
-15.6
 11
-3.4
 21
-15.6
  0
LINE
  5
2E1
100
AcDbEntity
  8
RACCORDO
100
AcDbLine
 62
7
  6
CONTINUOUS
 10
3.4
 20
-15.6
 11
3.5
 21
-15.6
  0
LINE
  5
2E2
100
AcDbEntity
  8
RACCORDO
100
AcDbLine
 62
253
  6
CONTINUOUS
 10
-9.529560052
 20
-15.2792978419
 11
-3.5
 21
-15.2792978419
  0
LINE
  5
2E3
100
AcDbEntity
  8
ASSI
100
AcDbLine
 62
253
  6
CONTINUOUS
 10
-9.529560052
 20
-15.2792978419
 11
-3.5
 21
-15.2792978419
  0
LINE
  5
2E4
100
AcDbEntity
  8
RACCORDO
100
AcDbLine
 62
253
  6
CONTINUOUS
 10
3.5
 20
-15.2792978419
 11
9.529560052
 21
-15.2792978419
  0
LINE
  5
2E5
100
AcDbEntity
  8
ASSI
100
AcDbLine
 62
253
  6
CONTINUOUS
 10
3.5
 20
-15.2792978419
 11
9.529560052
 21
-15.2792978419
  0
LINE
  5
2E6
100
AcDbEntity
  8
0
100
AcDbLine
 62
7
  6
CONTINUOUS
 10
-3.5
 20
-15.2
 11
-3.4
 21
-15.2
  0
LINE
  5
2E7
100
AcDbEntity
  8
ASSI
100
AcDbLine
 62
7
  6
CONTINUOUS
 10
-3.5
 20
-15.2
 11
-3.4
 21
-15.2
  0
LINE
  5
2E8
100
AcDbEntity
  8
0
100
AcDbLine
 62
7
  6
CONTINUOUS
 10
3.4
 20
-15.2
 11
3.5
 21
-15.2
  0
LINE
  5
2E9
100
AcDbEntity
  8
ASSI
100
AcDbLine
 62
7
  6
CONTINUOUS
 10
3.4
 20
-15.2
 11
3.5
 21
-15.2
  0
LINE
  5
2EA
100
AcDbEntity
  8
0
100
AcDbLine
 62
7
  6
CONTINUOUS
 10
-3.5
 20
-15.0
 11
-3.4
 21
-15.0
  0
LINE
  5
2EB
100
AcDbEntity
  8
ASSI
100
AcDbLine
 62
7
  6
CONTINUOUS
 10
-3.5
 20
-15.0
 11
-3.4
 21
-15.0
  0
LINE
  5
2EC
100
AcDbEntity
  8
0
100
AcDbLine
 62
7
  6
CONTINUOUS
 10
3.4
 20
-15.0
 11
3.5
 21
-15.0
  0
LINE
  5
2ED
100
AcDbEntity
  8
ASSI
100
AcDbLine
 62
7
  6
CONTINUOUS
 10
3.4
 20
-15.0
 11
3.5
 21
-15.0
  0
LINE
  5
2EE
100
AcDbEntity
  8
RACCORDO
100
AcDbLine
 62
253
  6
CONTINUOUS
 10
-9.5212892833
 20
-14.7799830745
 11
-3.5
 21
-14.7799830745
  0
LINE
  5
2EF
100
AcDbEntity
  8
ASSI
100
AcDbLine
 62
253
  6
CONTINUOUS
 10
-9.5212892833
 20
-14.7799830745
 11
-3.5
 21
-14.7799830745
  0
LINE
  5
2F0
100
AcDbEntity
  8
RACCORDO
100
AcDbLine
 62
253
  6
CONTINUOUS
 10
3.5
 20
-14.7799830745
 11
9.5212892833
 21
-14.7799830745
  0
LINE
  5
2F1
100
AcDbEntity
  8
ASSI
100
AcDbLine
 62
253
  6
CONTINUOUS
 10
3.5
 20
-14.7799830745
 11
9.5212892833
 21
-14.7799830745
  0
LINE
  5
2F2
100
AcDbEntity
  8
DRAFT
100
AcDbLine
 62
7
  6
CONTINUOUS
 10
9.4946499221
 20
-14.7
 11
3.5
 21
-14.7
  0
LINE
  5
2F3
100
AcDbEntity
  8
ASSI
100
AcDbLine
 62
7
  6
CONTINUOUS
 10
9.4946499221
 20
-14.7
 11
3.5
 21
-14.7
  0
LINE
  5
2F4
100
AcDbEntity
  8
DRAFT
100
AcDbLine
 62
7
  6
CONTINUOUS
 10
-3.5
 20
-14.7
 11
-9.4946499221
 21
-14.7
  0
LINE
  5
2F5
100
AcDbEntity
  8
ASSI
100
AcDbLine
 62
7
  6
CONTINUOUS
 10
-3.5
 20
-14.7
 11
-9.4946499221
 21
-14.7
  0
LINE
  5
2F6
100
AcDbEntity
  8
DRAFT
100
AcDbLine
 62
7
  6
CONTINUOUS
 10
-8.2465127091
 20
-20.9104703804
 11
-8.25
 21
-20.9
  0
LINE
  5
2F7
100
AcDbEntity
  8
ASSI
100
AcDbLine
 62
7
  6
CONTINUOUS
 10
-8.2465127091
 20
-20.9104703804
 11
-8.25
 21
-20.9
  0
LWPOLYLINE
  5
2F8
100
AcDbEntity
  8
RACCORDO
100
AcDbPolyline
 62
253
  6
CONTINUOUS
 90
5
 70
0
 10
-10.6401612081
 20
-24.2976197463
 10
-10.6425477509
 20
-24.2847481067
 10
-10.644257234
 20
-24.2717692492
 10
-10.645284977
 20
-24.2587187509
 10
-10.645628166
 20
-24.2456323968
  0
LWPOLYLINE
  5
2F9
100
AcDbEntity
  8
RACCORDO
100
AcDbPolyline
 62
7
  6
CONTINUOUS
 90
5
 70
0
 10
-10.6454823677
 20
-24.2973162875
 10
-10.6474554741
 20
-24.2855823661
 10
-10.6488680342
 20
-24.2737678556
 10
-10.6497168498
 20
-24.261899516
 10
-10.65
 20
-24.2500042308
  0
LINE
  5
2FA
100
AcDbEntity
  8
ASSI
100
AcDbLine
 62
7
  6
CONTINUOUS
 10
-10.6441779536
 20
24.2725124747
 11
-10.642559892
 21
24.2846714057
  0
LINE
  5
2FB
100
AcDbEntity
  8
CURVE
100
AcDbLine
 62
7
  6
CONTINUOUS
 10
-8.05
 20
20.4335707644
 11
-7.9731977143
 21
20.6641649932
  0
LINE
  5
2FC
100
AcDbEntity
  8
ASSI
100
AcDbLine
 62
7
  6
CONTINUOUS
 10
-8.05
 20
20.4335707644
 11
-7.9731977143
 21
20.6641649932
  0
LINE
  5
2FD
100
AcDbEntity
  8
ASSI
100
AcDbLine
 62
7
  6
CONTINUOUS
 10
4.2484283399
 20
23.6077596184
 11
4.2199550515
 21
23.5754633499
  0
LINE
  5
2FE
100
AcDbEntity
  8
ASSI
100
AcDbLine
 62
7
  6
CONTINUOUS
 10
4.2199550515
 20
23.5754633499
 11
4.1876468123
 21
23.5393388585
  0
LINE
  5
2FF
100
AcDbEntity
  8
ASSI
100
AcDbLine
 62
7
  6
CONTINUOUS
 10
4.1876468123
 20
23.5393388585
 11
4.1515313211
 21
23.4993647445
  0
LINE
  5
300
100
AcDbEntity
  8
ASSI
100
AcDbLine
 62
7
  6
CONTINUOUS
 10
4.1515313211
 20
23.4993647445
 11
4.0904902499
 21
23.4324846923
  0
LINE
  5
301
100
AcDbEntity
  8
ASSI
100
AcDbLine
 62
7
  6
CONTINUOUS
 10
4.0904902499
 20
23.4324846923
 11
3.9279699877
 21
23.2563578147
  0
LINE
  5
302
100
AcDbEntity
  8
ASSI
100
AcDbLine
 62
7
  6
CONTINUOUS
 10
4.4
 20
23.8
 11
4.3563493531
 21
23.7563493531
  0
LINE
  5
303
100
AcDbEntity
  8
0
100
AcDbLine
 62
7
  6
CONTINUOUS
 10
-9.4946499221
 20
9.4
 11
-9.5549460544
 21
9.3397038678
  0
LINE
  5
304
100
AcDbEntity
  8
ASSI
100
AcDbLine
 62
7
  6
CONTINUOUS
 10
-9.4946499221
 20
9.4
 11
-9.5549460544
 21
9.3397038678
  0
LINE
  5
305
100
AcDbEntity
  8
0
100
AcDbLine
 62
7
  6
CONTINUOUS
 10
9.4946499221
 20
19.1053500779
 11
9.65
 21
19.169698187
  0
LINE
  5
306
100
AcDbEntity
  8
ASSI
100
AcDbLine
 62
7
  6
CONTINUOUS
 10
9.4946499221
 20
19.1053500779
 11
9.65
 21
19.169698187
  0
LINE
  5
307
100
AcDbEntity
  8
CURVE
100
AcDbLine
 62
7
  6
CONTINUOUS
 10
8.05
 20
18.5
 11
7.9731977143
 21
18.4681874516
  0
LINE
  5
308
100
AcDbEntity
  8
ASSI
100
AcDbLine
 62
7
  6
CONTINUOUS
 10
8.05
 20
18.5
 11
7.9731977143
 21
18.4681874516
  0
LINE
  5
309
100
AcDbEntity
  8
0
100
AcDbLine
 62
7
  6
CONTINUOUS
 10
-10.1
 20
10.5
 11
-10.2553500779
 21
10.4356518908
  0
LINE
  5
30A
100
AcDbEntity
  8
ASSI
100
AcDbLine
 62
7
  6
CONTINUOUS
 10
-10.1
 20
10.5
 11
-10.2553500779
 21
10.4356518908
  0
LINE
  5
30B
100
AcDbEntity
  8
0
100
AcDbLine
 62
7
  6
CONTINUOUS
 10
10.1
 20
18.5
 11
10.2553500779
 21
18.5643481092
  0
LINE
  5
30C
100
AcDbEntity
  8
ASSI
100
AcDbLine
 62
7
  6
CONTINUOUS
 10
10.1
 20
18.5
 11
10.2553500779
 21
18.5643481092
  0
LINE
  5
30D
100
AcDbEntity
  8
CURVE
100
AcDbLine
 62
7
  6
CONTINUOUS
 10
-8.0353536961
 20
10.8060666977
 11
-8.05
 21
10.8
  0
LINE
  5
30E
100
AcDbEntity
  8
ASSI
100
AcDbLine
 62
7
  6
CONTINUOUS
 10
-8.0353536961
 20
10.8060666977
 11
-8.05
 21
10.8
  0
LINE
  5
30F
100
AcDbEntity
  8
0
100
AcDbLine
 62
7
  6
CONTINUOUS
 10
-9.4946499221
 20
9.8946499221
 11
-9.65
 21
9.830301813
  0
LINE
  5
310
100
AcDbEntity
  8
ASSI
100
AcDbLine
 62
7
  6
CONTINUOUS
 10
-9.4946499221
 20
9.8946499221
 11
-9.65
 21
9.830301813
  0
LINE
  5
311
100
AcDbEntity
  8
CURVE
100
AcDbLine
 62
7
  6
CONTINUOUS
 10
9.05
 20
17.5
 11
8.9731977143
 21
17.4681874516
  0
LINE
  5
312
100
AcDbEntity
  8
ASSI
100
AcDbLine
 62
7
  6
CONTINUOUS
 10
9.05
 20
17.5
 11
8.9731977143
 21
17.4681874516
  0
LINE
  5
313
100
AcDbEntity
  8
RACCORDO
100
AcDbLine
 62
7
  6
CONTINUOUS
 10
-3.1
 20
-14.0
 11
3.1
 21
-14.0
  0
LINE
  5
314
100
AcDbEntity
  8
0
100
AcDbLine
 62
7
  6
CONTINUOUS
 10
-3.5
 20
-13.9
 11
3.5
 21
-13.9
  0
LINE
  5
315
100
AcDbEntity
  8
ASSI
100
AcDbLine
 62
7
  6
CONTINUOUS
 10
-3.5
 20
-13.9
 11
3.5
 21
-13.9
  0
LINE
  5
316
100
AcDbEntity
  8
ASSI
100
AcDbLine
 62
7
  6
CONTINUOUS
 10
4.4
 20
-23.8
 11
4.3563493531
 21
-23.7563493531
  0
LINE
  5
317
100
AcDbEntity
  8
ASSI
100
AcDbLine
 62
7
  6
CONTINUOUS
 10
3.9279699877
 20
-23.2563578147
 11
4.1319393381
 21
-23.4778438168
  0
LINE
  5
318
100
AcDbEntity
  8
ASSI
100
AcDbLine
 62
7
  6
CONTINUOUS
 10
4.1319393381
 20
-23.4778438168
 11
4.1698677157
 21
-23.5196167203
  0
LINE
  5
319
100
AcDbEntity
  8
ASSI
100
AcDbLine
 62
7
  6
CONTINUOUS
 10
4.1698677157
 20
-23.5196167203
 11
4.2040449926
 21
-23.5576149814
  0
LWPOLYLINE
  5
31A
100
AcDbEntity
  8
ASSI
100
AcDbPolyline
 62
7
  6
CONTINUOUS
 90
20
 70
0
 10
4.2040449926
 20
-23.5576149814
 10
4.2344035537
 20
-23.5917914252
 10
4.2481481013
 20
-23.6074392779
 10
4.2609530912
 20
-23.6221414657
 10
4.272867965
 20
-23.6359699945
 10
4.2838985218
 20
-23.6489231118
 10
4.2940570925
 20
-23.6610025701
 10
4.3033924483
 20
-23.6722856337
 10
4.3119084242
 20
-23.6827728937
 10
4.3196191733
 20
-23.6924637589
 10
4.3265725949
 20
-23.70143372
 10
4.3327837712
 20
-23.7097020781
 10
4.3382403763
 20
-23.7172495321
 10
4.3429426829
 20
-23.7240936689
 10
4.3469006534
 20
-23.7302274091
 10
4.350124195
 20
-23.735657832
 10
4.3526217143
 20
-23.7404237625
 10
4.3544093029
 20
-23.7445381423
 10
4.3555066314
 20
-23.7479880297
 10
4.3559327327
 20
-23.7507734247
  0
LINE
  5
31B
100
AcDbEntity
  8
RACCORDO
100
AcDbLine
 62
253
  6
CONTINUOUS
 10
-10.645628166
 20
-23.8443375673
 11
-10.65
 21
-23.4104851482
  0
LINE
  5
31C
100
AcDbEntity
  8
ASSI
100
AcDbLine
 62
253
  6
CONTINUOUS
 10
-10.645628166
 20
-23.8443375673
 11
-10.65
 21
-23.4104851482
  0
LINE
  5
31D
100
AcDbEntity
  8
RACCORDO
100
AcDbLine
 62
253
  6
CONTINUOUS
 10
-10.3956323968
 20
-23.6278312164
 11
-10.4007229979
 21
-23.1226497308
  0
LINE
  5
31E
100
AcDbEntity
  8
ASSI
100
AcDbLine
 62
253
  6
CONTINUOUS
 10
-10.3956323968
 20
-23.6278312164
 11
-10.4007229979
 21
-23.1226497308
  0
LINE
  5
31F
100
AcDbEntity
  8
DRAFT
100
AcDbLine
 62
7
  6
CONTINUOUS
 10
-10.9942403901
 20
3.2239550184
 11
-11.0
 21
4.1723103964
  0
LINE
  5
320
100
AcDbEntity
  8
ASSI
100
AcDbLine
 62
253
  6
CONTINUOUS
 10
-10.6456238859
 20
-24.2470868299
 11
-10.645628166
 21
-24.2456323968
  0
LINE
  5
321
100
AcDbEntity
  8
CURVE
100
AcDbLine
 62
7
  6
CONTINUOUS
 10
-11.15
 20
-21.8911779406
 11
-11.15
 21
-5.1749773271
  0
LINE
  5
322
100
AcDbEntity
  8
ASSI
100
AcDbLine
 62
7
  6
CONTINUOUS
 10
-11.15
 20
-21.8911779406
 11
-11.15
 21
-5.1749773271
  0
LINE
  5
323
100
AcDbEntity
  8
CURVE
100
AcDbLine
 62
7
  6
CONTINUOUS
 10
-11.15
 20
5.1749773271
 11
-11.15
 21
21.8911779406
  0
LINE
  5
324
100
AcDbEntity
  8
ASSI
100
AcDbLine
 62
7
  6
CONTINUOUS
 10
-11.15
 20
5.1749773271
 11
-11.15
 21
21.8911779406
  0
LINE
  5
325
100
AcDbEntity
  8
CURVE
100
AcDbLine
 62
7
  6
CONTINUOUS
 10
-11.1150898701
 20
5.0
 11
-11.1150898701
 21
-5.0
  0
LINE
  5
326
100
AcDbEntity
  8
ASSI
100
AcDbLine
 62
7
  6
CONTINUOUS
 10
-11.1150898701
 20
5.0
 11
-11.1150898701
 21
-5.0
  0
LINE
  5
327
100
AcDbEntity
  8
DRAFT
100
AcDbLine
 62
7
  6
CONTINUOUS
 10
-11.0
 20
4.1723103964
 11
-11.0
 21
-1.8894147313
  0
LINE
  5
328
100
AcDbEntity
  8
DRAFT
100
AcDbLine
 62
7
  6
CONTINUOUS
 10
-10.9942403901
 20
3.2239550184
 11
-10.9942403901
 21
-2.8338615933
  0
LINE
  5
329
100
AcDbEntity
  8
RACCORDO
100
AcDbLine
 62
7
  6
CONTINUOUS
 10
-10.65
 20
-22.399689968
 11
-10.65
 21
-23.8443375673
  0
LINE
  5
32A
100
AcDbEntity
  8
ASSI
100
AcDbLine
 62
7
  6
CONTINUOUS
 10
-10.65
 20
-22.399689968
 11
-10.65
 21
-23.8443375673
  0
LINE
  5
32B
100
AcDbEntity
  8
RACCORDO
100
AcDbLine
 62
7
  6
CONTINUOUS
 10
-10.65
 20
22.399689968
 11
-10.65
 21
23.8443375673
  0
LINE
  5
32C
100
AcDbEntity
  8
ASSI
100
AcDbLine
 62
7
  6
CONTINUOUS
 10
-10.65
 20
22.399689968
 11
-10.65
 21
23.8443375673
  0
LINE
  5
32D
100
AcDbEntity
  8
0
100
AcDbLine
 62
253
  6
CONTINUOUS
 10
-10.645628166
 20
24.2456323968
 11
-10.645628166
 21
23.8443375673
  0
LINE
  5
32E
100
AcDbEntity
  8
ASSI
100
AcDbLine
 62
7
  6
CONTINUOUS
 10
-10.645628166
 20
24.2456323968
 11
-10.645628166
 21
23.8443375673
  0
LINE
  5
32F
100
AcDbEntity
  8
RACCORDO
100
AcDbLine
 62
253
  6
CONTINUOUS
 10
-10.645628166
 20
-23.8443375673
 11
-10.645628166
 21
-24.2456323968
  0
LINE
  5
330
100
AcDbEntity
  8
ASSI
100
AcDbLine
 62
7
  6
CONTINUOUS
 10
-10.645628166
 20
-23.8443375673
 11
-10.645628166
 21
-24.2456323968
  0
LINE
  5
331
100
AcDbEntity
  8
DRAFT
100
AcDbLine
 62
7
  6
CONTINUOUS
 10
-11.0
 20
4.1723103964
 11
-10.9942403901
 21
5.1167572583
  0
LINE
  5
332
100
AcDbEntity
  8
0
100
AcDbLine
 62
253
  6
CONTINUOUS
 10
-10.65
 20
23.4104851482
 11
-10.645628166
 21
23.8443375673
  0
LINE
  5
333
100
AcDbEntity
  8
ASSI
100
AcDbLine
 62
253
  6
CONTINUOUS
 10
-10.65
 20
23.4104851482
 11
-10.645628166
 21
23.8443375673
  0
LINE
  5
334
100
AcDbEntity
  8
0
100
AcDbLine
 62
253
  6
CONTINUOUS
 10
-10.4007229979
 20
23.1226497308
 11
-10.3956323968
 21
23.6278312164
  0
LINE
  5
335
100
AcDbEntity
  8
ASSI
100
AcDbLine
 62
253
  6
CONTINUOUS
 10
-10.4007229979
 20
23.1226497308
 11
-10.3956323968
 21
23.6278312164
  0
LWPOLYLINE
  5
336
100
AcDbEntity
  8
RACCORDO
100
AcDbPolyline
 62
7
  6
CONTINUOUS
 90
4
 70
0
 10
-10.65
 20
24.2500042308
 10
-10.6497168498
 20
24.261899516
 10
-10.6488680342
 20
24.2737678556
 10
-10.6474554741
 20
24.2855823661
  0
LWPOLYLINE
  5
337
100
AcDbEntity
  8
ASSI
100
AcDbPolyline
 62
7
  6
CONTINUOUS
 90
4
 70
0
 10
-10.65
 20
24.2500042308
 10
-10.6497168498
 20
24.261899516
 10
-10.6488680342
 20
24.2737678556
 10
-10.6474554741
 20
24.2855823661
  0
LWPOLYLINE
  5
338
100
AcDbEntity
  8
RACCORDO
100
AcDbPolyline
 62
253
  6
CONTINUOUS
 90
7
 70
0
 10
-10.645628166
 20
24.2456323968
 10
-10.6452867588
 20
24.2586847368
 10
-10.6442634962
 20
24.2717096311
 10
-10.642559892
 20
24.2846714057
 10
-10.6401787618
 20
24.2975371245
 10
-10.6371256484
 20
24.3102685897
 10
-10.6334102087
 20
24.3228227742
  0
LWPOLYLINE
  5
339
100
AcDbEntity
  8
ASSI
100
AcDbPolyline
 62
253
  6
CONTINUOUS
 90
3
 70
0
 10
-10.645628166
 20
24.2456323968
 10
-10.6452867588
 20
24.2586847368
 10
-10.6441779536
 20
24.2725124747
  0
LINE
  5
33A
100
AcDbEntity
  8
0
100
AcDbLine
 62
253
  6
CONTINUOUS
 10
-7.3261802341
 20
16.7800253896
 11
-7.2767286808
 21
16.9283934415
  0
LINE
  5
33B
100
AcDbEntity
  8
ASSI
100
AcDbLine
 62
253
  6
CONTINUOUS
 10
-7.3261802341
 20
16.7800253896
 11
-7.2767286808
 21
16.9283934415
  0
LINE
  5
33C
100
AcDbEntity
  8
0
100
AcDbLine
 62
7
  6
CONTINUOUS
 10
-6.4596089231
 20
17.5125735809
 11
-6.5232713192
 21
17.3215691524
  0
LINE
  5
33D
100
AcDbEntity
  8
ASSI
100
AcDbLine
 62
7
  6
CONTINUOUS
 10
-6.4596089231
 20
17.5125735809
 11
-6.5232713192
 21
17.3215691524
  0
LINE
  5
33E
100
AcDbEntity
  8
0
100
AcDbLine
 62
253
  6
CONTINUOUS
 10
-6.82622254
 20
16.28
 11
-6.7767709866
 21
16.4283680519
  0
LINE
  5
33F
100
AcDbEntity
  8
ASSI
100
AcDbLine
 62
253
  6
CONTINUOUS
 10
-6.82622254
 20
16.28
 11
-6.7767709866
 21
16.4283680519
  0
LINE
  5
340
100
AcDbEntity
  8
CURVE
100
AcDbLine
 62
7
  6
CONTINUOUS
 10
-10.2553500779
 20
6.5643481092
 11
-9.65
 21
7.169698187
  0
LINE
  5
341
100
AcDbEntity
  8
ASSI
100
AcDbLine
 62
7
  6
CONTINUOUS
 10
-10.2553500779
 20
6.5643481092
 11
-9.65
 21
7.169698187
  0
LINE
  5
342
100
AcDbEntity
  8
CURVE
100
AcDbLine
 62
7
  6
CONTINUOUS
 10
-9.5592336624
 20
7.132101539
 11
-10.1645837402
 21
6.5267514611
  0
LINE
  5
343
100
AcDbEntity
  8
ASSI
100
AcDbLine
 62
7
  6
CONTINUOUS
 10
-9.5592336624
 20
7.132101539
 11
-10.1645837402
 21
6.5267514611
  0
LINE
  5
344
100
AcDbEntity
  8
DRAFT
100
AcDbLine
 62
7
  6
CONTINUOUS
 10
-9.9976142915
 20
5.9331455644
 11
-10.9942403901
 21
5.1167572583
  0
LINE
  5
345
100
AcDbEntity
  8
0
100
AcDbLine
 62
7
  6
CONTINUOUS
 10
6.45
 20
-12.3036933041
 11
-6.45
 21
-12.3036933041
  0
LINE
  5
346
100
AcDbEntity
  8
0
100
AcDbLine
 62
7
  6
CONTINUOUS
 10
-4.5
 20
-10.952092431
 11
4.5
 21
-10.952092431
  0
LINE
  5
347
100
AcDbEntity
  8
CURVE
100
AcDbLine
 62
7
  6
CONTINUOUS
 10
-9.65
 20
-7.169698187
 11
-10.2553500779
 21
-6.5643481092
  0
LINE
  5
348
100
AcDbEntity
  8
ASSI
100
AcDbLine
 62
7
  6
CONTINUOUS
 10
-9.65
 20
-7.169698187
 11
-10.2553500779
 21
-6.5643481092
  0
LINE
  5
349
100
AcDbEntity
  8
CURVE
100
AcDbLine
 62
7
  6
CONTINUOUS
 10
-10.1645837402
 20
-6.5267514611
 11
-9.5592336624
 21
-7.132101539
  0
LINE
  5
34A
100
AcDbEntity
  8
ASSI
100
AcDbLine
 62
7
  6
CONTINUOUS
 10
-10.1645837402
 20
-6.5267514611
 11
-9.5592336624
 21
-7.132101539
  0
LWPOLYLINE
  5
34B
100
AcDbEntity
  8
ASSI
100
AcDbPolyline
 62
7
  6
CONTINUOUS
 90
40
 70
0
 10
-10.3
 20
0.1950467125
 10
-10.2960712245
 20
0.1184438528
 10
-10.2849322545
 20
0.0432967518
 10
-10.26658309
 20
-0.0303945904
 10
-10.2408121258
 20
-0.1030872256
 10
-10.207830967
 20
-0.1743241021
 10
-10.1682744295
 20
-0.2427340643
 10
-10.1220151342
 20
-0.3082623491
 10
-10.0691804602
 20
-0.3709637197
 10
-10.0107873604
 20
-0.4296313107
 10
-9.9467281562
 20
-0.4841869793
 10
-9.8771105262
 20
-0.5347088684
 10
-9.8032744587
 20
-0.580224541
 10
-9.7251382338
 20
-0.6206370163
 10
-9.6427835713
 20
-0.6560432752
 10
-9.5577956201
 20
-0.6857618241
 10
-9.4701233677
 20
-0.7096824799
 10
-9.3798178265
 20
-0.7279154256
 10
-9.2886171823
 20
-0.7401097166
 10
-9.1965040951
 20
-0.7461483713
 10
-9.1034959049
 20
-0.7461483713
 10
-9.0113828177
 20
-0.7401097166
 10
-8.9201821735
 20
-0.7279154256
 10
-8.8298766323
 20
-0.7096824799
 10
-8.7422043799
 20
-0.6857618241
 10
-8.6572164287
 20
-0.6560432752
 10
-8.5748617662
 20
-0.6206370163
 10
-8.4967255413
 20
-0.580224541
 10
-8.4228894738
 20
-0.5347088684
 10
-8.3532718438
 20
-0.4841869793
 10
-8.2892126396
 20
-0.4296313107
 10
-8.2308195398
 20
-0.3709637197
 10
-8.1779848658
 20
-0.3082623491
 10
-8.1317255705
 20
-0.2427340643
 10
-8.092169033
 20
-0.1743241021
 10
-8.0591878742
 20
-0.1030872256
 10
-8.03341691
 20
-0.0303945904
 10
-8.0150677455
 20
0.0432967518
 10
-8.0039287755
 20
0.1184438528
 10
-8.0
 20
0.1950467125
  0
LWPOLYLINE
  5
34C
100
AcDbEntity
  8
RACCORDO
100
AcDbPolyline
 62
253
  6
CONTINUOUS
 90
31
 70
0
 10
-8.254371834
 20
-23.8443375673
 10
-8.2547511885
 20
-23.8330270596
 10
-8.2558122363
 20
-23.8217474404
 10
-8.2575520796
 20
-23.8105295141
 10
-8.2599659648
 20
-23.7994039253
 10
-8.2630473009
 20
-23.7884010484
 10
-8.2667876826
 20
-23.7775509057
 10
-8.271176909
 20
-23.7668831095
 10
-8.2762029911
 20
-23.756426816
 10
-8.2818521875
 20
-23.7462106168
 10
-8.2881090593
 20
-23.7362624252
 10
-8.2949565249
 20
-23.7266093946
 10
-8.3023758889
 20
-23.7172778785
 10
-8.3103468926
 20
-23.7082933575
 10
-8.3188477641
 20
-23.699680372
 10
-8.3278552844
 20
-23.6914624468
 10
-8.3373448482
 20
-23.6836620286
 10
-8.3472905438
 20
-23.676300415
 10
-8.3576652233
 20
-23.6693977011
 10
-8.3684405758
 20
-23.6629727275
 10
-8.3795871553
 20
-23.6570430559
 10
-8.3910744696
 20
-23.6516249047
 10
-8.4028711116
 20
-23.6467330775
 10
-8.4149448924
 20
-23.6423809129
 10
-8.4272628811
 20
-23.6385802779
 10
-8.4397919133
 20
-23.6353414408
 10
-8.4524973112
 20
-23.6326734007
 10
-8.4653429626
 20
-23.6305836414
 10
-8.4782932772
 20
-23.6290777228
 10
-8.4913133412
 20
-23.6281594768
 10
-8.5043676032
 20
-23.6278312164
  0
LWPOLYLINE
  5
34D
100
AcDbEntity
  8
ASSI
100
AcDbPolyline
 62
253
  6
CONTINUOUS
 90
31
 70
0
 10
-8.254371834
 20
-23.8443375673
 10
-8.2547511885
 20
-23.8330270596
 10
-8.2558122363
 20
-23.8217474404
 10
-8.2575520796
 20
-23.8105295141
 10
-8.2599659648
 20
-23.7994039253
 10
-8.2630473009
 20
-23.7884010484
 10
-8.2667876826
 20
-23.7775509057
 10
-8.271176909
 20
-23.7668831095
 10
-8.2762029911
 20
-23.756426816
 10
-8.2818521875
 20
-23.7462106168
 10
-8.2881090593
 20
-23.7362624252
 10
-8.2949565249
 20
-23.7266093946
 10
-8.3023758889
 20
-23.7172778785
 10
-8.3103468926
 20
-23.7082933575
 10
-8.3188477641
 20
-23.699680372
 10
-8.3278552844
 20
-23.6914624468
 10
-8.3373448482
 20
-23.6836620286
 10
-8.3472905438
 20
-23.676300415
 10
-8.3576652233
 20
-23.6693977011
 10
-8.3684405758
 20
-23.6629727275
 10
-8.3795871553
 20
-23.6570430559
 10
-8.3910744696
 20
-23.6516249047
 10
-8.4028711116
 20
-23.6467330775
 10
-8.4149448924
 20
-23.6423809129
 10
-8.4272628811
 20
-23.6385802779
 10
-8.4397919133
 20
-23.6353414408
 10
-8.4524973112
 20
-23.6326734007
 10
-8.4653429626
 20
-23.6305836414
 10
-8.4782932772
 20
-23.6290777228
 10
-8.4913133412
 20
-23.6281594768
 10
-8.5043676032
 20
-23.6278312164
  0
LINE
  5
34E
100
AcDbEntity
  8
DRAFT
100
AcDbLine
 62
7
  6
CONTINUOUS
 10
-9.9976142915
 20
4.0403433245
 11
-10.0
 21
4.9914624407
  0
LINE
  5
34F
100
AcDbEntity
  8
RACCORDO
100
AcDbLine
 62
253
  6
CONTINUOUS
 10
-10.3956323968
 20
-23.6278312164
 11
-10.3956323968
 21
-24.495628166
  0
LINE
  5
350
100
AcDbEntity
  8
ASSI
100
AcDbLine
 62
253
  6
CONTINUOUS
 10
-10.3956323968
 20
-23.6278312164
 11
-10.3956323968
 21
-24.495628166
  0
LINE
  5
351
100
AcDbEntity
  8
0
100
AcDbLine
 62
253
  6
CONTINUOUS
 10
-10.3956323968
 20
23.6278312164
 11
-10.3956323968
 21
24.2456323968
  0
LINE
  5
352
100
AcDbEntity
  8
RACCORDO
100
AcDbLine
 62
253
  6
CONTINUOUS
 10
-10.3956323968
 20
24.2456323968
 11
-10.3956323968
 21
24.495628166
  0
LINE
  5
353
100
AcDbEntity
  8
ASSI
100
AcDbLine
 62
253
  6
CONTINUOUS
 10
-10.3956323968
 20
23.6278312164
 11
-10.3956323968
 21
24.495628166
  0
LINE
  5
354
100
AcDbEntity
  8
0
100
AcDbLine
 62
7
  6
CONTINUOUS
 10
-10.2553500779
 20
18.5643481092
 11
-10.2553500779
 21
10.4356518908
  0
LINE
  5
355
100
AcDbEntity
  8
ASSI
100
AcDbLine
 62
7
  6
CONTINUOUS
 10
-10.2553500779
 20
18.5643481092
 11
-10.2553500779
 21
10.4356518908
  0
LINE
  5
356
100
AcDbEntity
  8
CURVE
100
AcDbLine
 62
7
  6
CONTINUOUS
 10
-10.2553500779
 20
-6.5643481092
 11
-10.2553500779
 21
-5.1749773271
  0
LINE
  5
357
100
AcDbEntity
  8
ASSI
100
AcDbLine
 62
7
  6
CONTINUOUS
 10
-10.2553500779
 20
-6.5643481092
 11
-10.2553500779
 21
-5.1749773271
  0
LINE
  5
358
100
AcDbEntity
  8
CURVE
100
AcDbLine
 62
7
  6
CONTINUOUS
 10
-10.2553500779
 20
5.7220207681
 11
-10.2553500779
 21
6.5643481092
  0
LINE
  5
359
100
AcDbEntity
  8
ASSI
100
AcDbLine
 62
7
  6
CONTINUOUS
 10
-10.2553500779
 20
5.7220207681
 11
-10.2553500779
 21
6.5643481092
  0
LINE
  5
35A
100
AcDbEntity
  8
CURVE
100
AcDbLine
 62
7
  6
CONTINUOUS
 10
-10.220439948
 20
-5.0
 11
-10.220439948
 21
-3.4677218073
  0
LINE
  5
35B
100
AcDbEntity
  8
ASSI
100
AcDbLine
 62
7
  6
CONTINUOUS
 10
-10.220439948
 20
-5.0
 11
-10.220439948
 21
-3.4677218073
  0
LINE
  5
35C
100
AcDbEntity
  8
CURVE
100
AcDbLine
 62
7
  6
CONTINUOUS
 10
-10.1645837402
 20
6.5267514611
 11
-10.1645837402
 21
5.7963721991
  0
LINE
  5
35D
100
AcDbEntity
  8
ASSI
100
AcDbLine
 62
7
  6
CONTINUOUS
 10
-10.1645837402
 20
6.5267514611
 11
-10.1645837402
 21
5.7963721991
  0
LINE
  5
35E
100
AcDbEntity
  8
CURVE
100
AcDbLine
 62
7
  6
CONTINUOUS
 10
-10.1645837402
 20
-3.5134765341
 11
-10.1645837402
 21
-6.5267514611
  0
LINE
  5
35F
100
AcDbEntity
  8
ASSI
100
AcDbLine
 62
7
  6
CONTINUOUS
 10
-10.1645837402
 20
-3.5134765341
 11
-10.1645837402
 21
-6.5267514611
  0
LINE
  5
360
100
AcDbEntity
  8
0
100
AcDbLine
 62
7
  6
CONTINUOUS
 10
-10.1
 20
18.5
 11
-10.1
 21
10.5
  0
LINE
  5
361
100
AcDbEntity
  8
ASSI
100
AcDbLine
 62
7
  6
CONTINUOUS
 10
-10.1
 20
18.5
 11
-10.1
 21
10.5
  0
LINE
  5
362
100
AcDbEntity
  8
RACCORDO
100
AcDbLine
 62
7
  6
CONTINUOUS
 10
-9.65
 20
-20.3997711479
 11
-9.65
 21
-7.169698187
  0
LINE
  5
363
100
AcDbEntity
  8
ASSI
100
AcDbLine
 62
7
  6
CONTINUOUS
 10
-9.65
 20
-20.3997711479
 11
-9.65
 21
-7.169698187
  0
LINE
  5
364
100
AcDbEntity
  8
0
100
AcDbLine
 62
7
  6
CONTINUOUS
 10
-9.65
 20
7.169698187
 11
-9.65
 21
9.830301813
  0
LINE
  5
365
100
AcDbEntity
  8
ASSI
100
AcDbLine
 62
7
  6
CONTINUOUS
 10
-9.65
 20
7.169698187
 11
-9.65
 21
9.830301813
  0
LINE
  5
366
100
AcDbEntity
  8
RACCORDO
100
AcDbLine
 62
7
  6
CONTINUOUS
 10
-9.65
 20
19.169698187
 11
-9.65
 21
20.3997711479
  0
LINE
  5
367
100
AcDbEntity
  8
ASSI
100
AcDbLine
 62
7
  6
CONTINUOUS
 10
-9.65
 20
19.169698187
 11
-9.65
 21
20.3997711479
  0
LINE
  5
368
100
AcDbEntity
  8
RACCORDO
100
AcDbLine
 62
7
  6
CONTINUOUS
 10
-9.5871617663
 20
-20.2111031425
 11
-9.5871617663
 21
-19.8
  0
LINE
  5
369
100
AcDbEntity
  8
ASSI
100
AcDbLine
 62
7
  6
CONTINUOUS
 10
-9.5871617663
 20
-20.2111031425
 11
-9.5871617663
 21
-19.8
  0
LINE
  5
36A
100
AcDbEntity
  8
0
100
AcDbLine
 62
7
  6
CONTINUOUS
 10
-9.5592336624
 20
-7.132101539
 11
-9.5592336624
 21
-4.0
  0
LINE
  5
36B
100
AcDbEntity
  8
ASSI
100
AcDbLine
 62
7
  6
CONTINUOUS
 10
-9.5592336624
 20
-7.132101539
 11
-9.5592336624
 21
-4.0
  0
LINE
  5
36C
100
AcDbEntity
  8
0
100
AcDbLine
 62
7
  6
CONTINUOUS
 10
-9.5592336624
 20
5.9331455644
 11
-9.5592336624
 21
7.132101539
  0
LINE
  5
36D
100
AcDbEntity
  8
ASSI
100
AcDbLine
 62
7
  6
CONTINUOUS
 10
-9.5592336624
 20
5.9331455644
 11
-9.5592336624
 21
7.132101539
  0
LINE
  5
36E
100
AcDbEntity
  8
0
100
AcDbLine
 62
7
  6
CONTINUOUS
 10
-9.5592336624
 20
8.910258056
 11
-9.5592336624
 21
9.089741944
  0
LINE
  5
36F
100
AcDbEntity
  8
ASSI
100
AcDbLine
 62
7
  6
CONTINUOUS
 10
-9.5592336624
 20
8.910258056
 11
-9.5592336624
 21
9.089741944
  0
LINE
  5
370
100
AcDbEntity
  8
RACCORDO
100
AcDbLine
 62
7
  6
CONTINUOUS
 10
-9.529560052
 20
-19.3
 11
-9.529560052
 21
-15.2792978419
  0
LINE
  5
371
100
AcDbEntity
  8
ASSI
100
AcDbLine
 62
7
  6
CONTINUOUS
 10
-9.529560052
 20
-19.3
 11
-9.529560052
 21
-15.2792978419
  0
LINE
  5
372
100
AcDbEntity
  8
RACCORDO
100
AcDbLine
 62
7
  6
CONTINUOUS
 10
-9.4946499221
 20
19.9333419123
 11
-9.4946499221
 21
19.1053500779
  0
LINE
  5
373
100
AcDbEntity
  8
ASSI
100
AcDbLine
 62
7
  6
CONTINUOUS
 10
-9.4946499221
 20
19.9333419123
 11
-9.4946499221
 21
19.1053500779
  0
LINE
  5
374
100
AcDbEntity
  8
0
100
AcDbLine
 62
7
  6
CONTINUOUS
 10
-9.4946499221
 20
9.8946499221
 11
-9.4946499221
 21
9.4
  0
LINE
  5
375
100
AcDbEntity
  8
ASSI
100
AcDbLine
 62
7
  6
CONTINUOUS
 10
-9.4946499221
 20
9.8946499221
 11
-9.4946499221
 21
9.4
  0
LINE
  5
376
100
AcDbEntity
  8
0
100
AcDbLine
 62
7
  6
CONTINUOUS
 10
-9.4946499221
 20
8.6
 11
-9.4946499221
 21
5.9331455644
  0
LINE
  5
377
100
AcDbEntity
  8
ASSI
100
AcDbLine
 62
7
  6
CONTINUOUS
 10
-9.4946499221
 20
8.6
 11
-9.4946499221
 21
5.9331455644
  0
LINE
  5
378
100
AcDbEntity
  8
0
100
AcDbLine
 62
7
  6
CONTINUOUS
 10
-9.4946499221
 20
-4.0645837402
 11
-9.4946499221
 21
-14.7
  0
LINE
  5
379
100
AcDbEntity
  8
ASSI
100
AcDbLine
 62
7
  6
CONTINUOUS
 10
-9.4946499221
 20
-4.0645837402
 11
-9.4946499221
 21
-14.7
  0
LINE
  5
37A
100
AcDbEntity
  8
CURVE
100
AcDbLine
 62
7
  6
CONTINUOUS
 10
-9.05
 20
17.5
 11
-9.05
 21
11.8
  0
LINE
  5
37B
100
AcDbEntity
  8
ASSI
100
AcDbLine
 62
7
  6
CONTINUOUS
 10
-9.05
 20
17.5
 11
-9.05
 21
11.8
  0
LINE
  5
37C
100
AcDbEntity
  8
CURVE
100
AcDbLine
 62
7
  6
CONTINUOUS
 10
-8.9731977143
 20
17.4681874516
 11
-8.9731977143
 21
15.8915786577
  0
LINE
  5
37D
100
AcDbEntity
  8
ASSI
100
AcDbLine
 62
7
  6
CONTINUOUS
 10
-8.9731977143
 20
17.4681874516
 11
-8.9731977143
 21
15.8915786577
  0
LINE
  5
37E
100
AcDbEntity
  8
0
100
AcDbLine
 62
7
  6
CONTINUOUS
 10
-8.9
 20
-5.8132720272
 11
-8.9
 21
-3.6502498994
  0
LINE
  5
37F
100
AcDbEntity
  8
0
100
AcDbLine
 62
7
  6
CONTINUOUS
 10
-8.9
 20
3.7455693088
 11
-8.9
 21
10.2757581504
  0
LINE
  5
380
100
AcDbEntity
  8
DRAFT
100
AcDbLine
 62
7
  6
CONTINUOUS
 10
-10.0
 20
4.9914624407
 11
-9.9976142915
 21
5.9331455644
  0
LINE
  5
381
100
AcDbEntity
  8
CURVE
100
AcDbLine
 62
7
  6
CONTINUOUS
 10
-9.0230693374
 20
11.8111550457
 11
-8.9731977143
 21
15.8915786577
  0
LINE
  5
382
100
AcDbEntity
  8
ASSI
100
AcDbLine
 62
7
  6
CONTINUOUS
 10
-9.0230693374
 20
11.8111550457
 11
-8.9731977143
 21
15.8915786577
  0
LWPOLYLINE
  5
383
100
AcDbEntity
  8
RACCORDO
100
AcDbPolyline
 62
253
  6
CONTINUOUS
 90
31
 70
0
 10
-10.645628166
 20
-23.8443375673
 10
-10.6452496104
 20
-23.833039595
 10
-10.6441904828
 20
-23.821769291
 10
-10.6424531063
 20
-23.8105574212
 10
-10.6400414049
 20
-23.7994336121
 10
-10.6369615346
 20
-23.78842936
 10
-10.6332224836
 20
-23.7775778202
 10
-10.6288349392
 20
-23.7669096972
 10
-10.6238105402
 20
-23.7564530239
 10
-10.6181628596
 20
-23.746236105
 10
-10.6119071671
 20
-23.7362866999
 10
-10.6050605925
 20
-23.7266321754
 10
-10.5976419842
 20
-23.7172991519
 10
-10.5896716801
 20
-23.7083132018
 10
-10.5811713853
 20
-23.6996987826
 10
-10.5721642949
 20
-23.6914794042
 10
-10.5626749912
 20
-23.6836775075
 10
-10.5527294041
 20
-23.6763144193
 10
-10.5423547212
 20
-23.6694102704
 10
-10.5315792888
 20
-23.6629839239
 10
-10.5204325308
 20
-23.6570529269
 10
-10.5089448938
 20
-23.6516334796
 10
-10.497147737
 20
-23.6467403776
 10
-10.4850733006
 20
-23.6423869945
 10
-10.472754621
 20
-23.6385852371
 10
-10.4602253856
 20
-23.6353454907
 10
-10.4475197828
 20
-23.6326765842
 10
-10.434672462
 20
-23.6305857918
 10
-10.4217184947
 20
-23.6290788219
 10
-10.408693281
 20
-23.6281597935
 10
-10.3956323968
 20
-23.6278312164
  0
LWPOLYLINE
  5
384
100
AcDbEntity
  8
ASSI
100
AcDbPolyline
 62
253
  6
CONTINUOUS
 90
31
 70
0
 10
-10.645628166
 20
-23.8443375673
 10
-10.6452496104
 20
-23.833039595
 10
-10.6441904828
 20
-23.821769291
 10
-10.6424531063
 20
-23.8105574212
 10
-10.6400414049
 20
-23.7994336121
 10
-10.6369615346
 20
-23.78842936
 10
-10.6332224836
 20
-23.7775778202
 10
-10.6288349392
 20
-23.7669096972
 10
-10.6238105402
 20
-23.7564530239
 10
-10.6181628596
 20
-23.746236105
 10
-10.6119071671
 20
-23.7362866999
 10
-10.6050605925
 20
-23.7266321754
 10
-10.5976419842
 20
-23.7172991519
 10
-10.5896716801
 20
-23.7083132018
 10
-10.5811713853
 20
-23.6996987826
 10
-10.5721642949
 20
-23.6914794042
 10
-10.5626749912
 20
-23.6836775075
 10
-10.5527294041
 20
-23.6763144193
 10
-10.5423547212
 20
-23.6694102704
 10
-10.5315792888
 20
-23.6629839239
 10
-10.5204325308
 20
-23.6570529269
 10
-10.5089448938
 20
-23.6516334796
 10
-10.497147737
 20
-23.6467403776
 10
-10.4850733006
 20
-23.6423869945
 10
-10.472754621
 20
-23.6385852371
 10
-10.4602253856
 20
-23.6353454907
 10
-10.4475197828
 20
-23.6326765842
 10
-10.434672462
 20
-23.6305857918
 10
-10.4217184947
 20
-23.6290788219
 10
-10.408693281
 20
-23.6281597935
 10
-10.3956323968
 20
-23.6278312164
  0
LINE
  5
385
100
AcDbEntity
  8
CURVE
100
AcDbLine
 62
7
  6
CONTINUOUS
 10
-7.2988376746
 20
20.9104703804
 11
-7.3261802341
 21
20.6641649932
  0
LINE
  5
386
100
AcDbEntity
  8
ASSI
100
AcDbLine
 62
7
  6
CONTINUOUS
 10
-7.2988376746
 20
20.9104703804
 11
-7.3261802341
 21
20.6641649932
  0
LINE
  5
387
100
AcDbEntity
  8
0
100
AcDbLine
 62
253
  6
CONTINUOUS
 10
-7.2418217019
 20
20.0309207141
 11
-7.2767286808
 21
19.7514188702
  0
LINE
  5
388
100
AcDbEntity
  8
ASSI
100
AcDbLine
 62
253
  6
CONTINUOUS
 10
-7.2418217019
 20
20.0309207141
 11
-7.2767286808
 21
19.7514188702
  0
LINE
  5
389
100
AcDbEntity
  8
CURVE
100
AcDbLine
 62
7
  6
CONTINUOUS
 10
-11.15
 20
-5.1749773271
 11
-11.1150898701
 21
-5.0
  0
LINE
  5
38A
100
AcDbEntity
  8
ASSI
100
AcDbLine
 62
7
  6
CONTINUOUS
 10
-11.15
 20
-5.1749773271
 11
-11.1150898701
 21
-5.0
  0
LINE
  5
38B
100
AcDbEntity
  8
CURVE
100
AcDbLine
 62
7
  6
CONTINUOUS
 10
-10.220439948
 20
-5.0
 11
-10.2553500779
 21
-5.1749773271
  0
LINE
  5
38C
100
AcDbEntity
  8
ASSI
100
AcDbLine
 62
7
  6
CONTINUOUS
 10
-10.220439948
 20
-5.0
 11
-10.2553500779
 21
-5.1749773271
  0
LINE
  5
38D
100
AcDbEntity
  8
DRAFT
100
AcDbLine
 62
7
  6
CONTINUOUS
 10
4.4
 20
22.4
 11
4.3559327327
 21
22.3338981669
  0
LINE
  5
38E
100
AcDbEntity
  8
ASSI
100
AcDbLine
 62
7
  6
CONTINUOUS
 10
4.4
 20
22.4
 11
4.3559327327
 21
22.3338981669
  0
LINE
  5
38F
100
AcDbEntity
  8
DRAFT
100
AcDbLine
 62
7
  6
CONTINUOUS
 10
-10.0
 20
4.9914624407
 11
-11.0
 21
4.1723103964
  0
LINE
  5
390
100
AcDbEntity
  8
DRAFT
100
AcDbLine
 62
7
  6
CONTINUOUS
 10
-9.9976142915
 20
4.0403433245
 11
-10.9942403901
 21
3.2239550184
  0
LINE
  5
391
100
AcDbEntity
  8
0
100
AcDbLine
 62
7
  6
CONTINUOUS
 10
-4.5
 20
-9.9196548456
 11
4.5
 21
-9.9196548456
  0
LINE
  5
392
100
AcDbEntity
  8
DRAFT
100
AcDbLine
 62
7
  6
CONTINUOUS
 10
-9.9976142915
 20
-3.6502498994
 11
-10.9942403901
 21
-2.8338615933
  0
LINE
  5
393
100
AcDbEntity
  8
0
100
AcDbLine
 62
7
  6
CONTINUOUS
 10
-9.4946499221
 20
-4.0645837402
 11
-9.5592336624
 21
-4.0
  0
LINE
  5
394
100
AcDbEntity
  8
ASSI
100
AcDbLine
 62
7
  6
CONTINUOUS
 10
-9.4946499221
 20
-4.0645837402
 11
-9.5592336624
 21
-4.0
  0
LINE
  5
395
100
AcDbEntity
  8
DRAFT
100
AcDbLine
 62
7
  6
CONTINUOUS
 10
4.4
 20
-22.4
 11
4.3559327327
 21
-22.3338981669
  0
LINE
  5
396
100
AcDbEntity
  8
ASSI
100
AcDbLine
 62
7
  6
CONTINUOUS
 10
4.4
 20
-22.4
 11
4.3559327327
 21
-22.3338981669
  0
LINE
  5
397
100
AcDbEntity
  8
CURVE
100
AcDbLine
 62
7
  6
CONTINUOUS
 10
-11.15
 20
5.1749773271
 11
-11.1150898701
 21
5.0
  0
LINE
  5
398
100
AcDbEntity
  8
ASSI
100
AcDbLine
 62
7
  6
CONTINUOUS
 10
-11.15
 20
5.1749773271
 11
-11.1150898701
 21
5.0
  0
LINE
  5
399
100
AcDbEntity
  8
RACCORDO
100
AcDbLine
 62
253
  6
CONTINUOUS
 10
-7.2418217019
 20
-20.0309207141
 11
-7.3222114202
 21
-19.3872364074
  0
LINE
  5
39A
100
AcDbEntity
  8
0
100
AcDbLine
 62
253
  6
CONTINUOUS
 10
-7.3331063731
 20
-19.3
 11
-7.3401430257
 21
-19.243657187
  0
LINE
  5
39B
100
AcDbEntity
  8
ASSI
100
AcDbLine
 62
253
  6
CONTINUOUS
 10
-7.2418217019
 20
-20.0309207141
 11
-7.3222114202
 21
-19.3872364074
  0
LINE
  5
39C
100
AcDbEntity
  8
ASSI
100
AcDbLine
 62
253
  6
CONTINUOUS
 10
-7.3331063731
 20
-19.3
 11
-7.3401430257
 21
-19.243657187
  0
LINE
  5
39D
100
AcDbEntity
  8
0
100
AcDbLine
 62
7
  6
CONTINUOUS
 10
-7.3209441873
 20
-20.7113319946
 11
-7.2988376746
 21
-20.9104703804
  0
LINE
  5
39E
100
AcDbEntity
  8
ASSI
100
AcDbLine
 62
7
  6
CONTINUOUS
 10
-7.3209441873
 20
-20.7113319946
 11
-7.2988376746
 21
-20.9104703804
  0
LINE
  5
39F
100
AcDbEntity
  8
RACCORDO
100
AcDbLine
 62
7
  6
CONTINUOUS
 10
-6.4810841978
 20
-19.3223140069
 11
-6.48207204
 21
-19.3125949478
  0
LINE
  5
3A0
100
AcDbEntity
  8
ASSI
100
AcDbLine
 62
7
  6
CONTINUOUS
 10
-6.4810841978
 20
-19.3223140069
 11
-6.48207204
 21
-19.3125949478
  0
LWPOLYLINE
  5
3A1
100
AcDbEntity
  8
RACCORDO
100
AcDbPolyline
 62
7
  6
CONTINUOUS
 90
9
 70
0
 10
-6.48207204
 20
-19.3125949478
 10
-6.482554197
 20
-19.3076323464
 10
-6.4827276119
 20
-19.3056113207
 10
-6.4828496387
 20
-19.3038989606
 10
-6.4829224614
 20
-19.302496418
 10
-6.4829403467
 20
-19.301404691
 10
-6.4829013837
 20
-19.3006244529
 10
-6.4828074835
 20
-19.3001561334
 10
-6.4826586459
 20
-19.3
  0
LWPOLYLINE
  5
3A2
100
AcDbEntity
  8
ASSI
100
AcDbPolyline
 62
7
  6
CONTINUOUS
 90
9
 70
0
 10
-6.48207204
 20
-19.3125949478
 10
-6.482554197
 20
-19.3076323464
 10
-6.4827276119
 20
-19.3056113207
 10
-6.4828496387
 20
-19.3038989606
 10
-6.4829224614
 20
-19.302496418
 10
-6.4829403467
 20
-19.301404691
 10
-6.4829013837
 20
-19.3006244529
 10
-6.4828074835
 20
-19.3001561334
 10
-6.4826586459
 20
-19.3
  0
LWPOLYLINE
  5
3A3
100
AcDbEntity
  8
ASSI
100
AcDbPolyline
 62
7
  6
CONTINUOUS
 90
40
 70
0
 10
-8.0
 20
0.1950467125
 10
-8.0039287755
 20
0.2716495723
 10
-8.0150677455
 20
0.3467966733
 10
-8.03341691
 20
0.4204880155
 10
-8.0591878742
 20
0.4931806507
 10
-8.092169033
 20
0.5644175272
 10
-8.1317255705
 20
0.6328274894
 10
-8.1779848658
 20
0.6983557742
 10
-8.2308195398
 20
0.7610571448
 10
-8.2892126396
 20
0.8197247358
 10
-8.3532718438
 20
0.8742804044
 10
-8.4228894738
 20
0.9248022935
 10
-8.4967255413
 20
0.9703179661
 10
-8.5748617662
 20
1.0107304414
 10
-8.6572164287
 20
1.0461367003
 10
-8.7422043799
 20
1.0758552492
 10
-8.8298766323
 20
1.099775905
 10
-8.9201821735
 20
1.1180088507
 10
-9.0113828177
 20
1.1302031417
 10
-9.1034959049
 20
1.1362417964
 10
-9.1965040951
 20
1.1362417964
 10
-9.2886171823
 20
1.1302031417
 10
-9.3798178265
 20
1.1180088507
 10
-9.4701233677
 20
1.099775905
 10
-9.5577956201
 20
1.0758552492
 10
-9.6427835713
 20
1.0461367003
 10
-9.7251382338
 20
1.0107304414
 10
-9.8032744587
 20
0.9703179661
 10
-9.8771105262
 20
0.9248022935
 10
-9.9467281562
 20
0.8742804044
 10
-10.0107873604
 20
0.8197247358
 10
-10.0691804602
 20
0.7610571448
 10
-10.1220151342
 20
0.6983557742
 10
-10.1682744295
 20
0.6328274894
 10
-10.207830967
 20
0.5644175272
 10
-10.2408121258
 20
0.4931806507
 10
-10.26658309
 20
0.4204880155
 10
-10.2849322545
 20
0.3467966733
 10
-10.2960712245
 20
0.2716495723
 10
-10.3
 20
0.1950467125
  0
LWPOLYLINE
  5
3A4
100
AcDbEntity
  8
RACCORDO
100
AcDbPolyline
 62
7
  6
CONTINUOUS
 90
61
 70
0
 10
-6.5581782981
 20
-20.0309207141
 10
-6.5586578706
 20
-20.0129183324
 10
-6.5600626968
 20
-19.9950619539
 10
-6.5623927768
 20
-19.9773515786
 10
-6.5656603434
 20
-19.9597376769
 10
-6.5698531638
 20
-19.9422697784
 10
-6.5749345391
 20
-19.9250964717
 10
-6.5809109368
 20
-19.9082234103
 10
-6.5877758895
 20
-19.8916449407
 10
-6.5954732961
 20
-19.87549269
 10
-6.6040094052
 20
-19.8597696753
 10
-6.6133779683
 20
-19.8444728796
 10
-6.6235041387
 20
-19.8297248794
 10
-6.6343966399
 20
-19.8155275393
 10
-6.6460467486
 20
-19.8018789947
 10
-6.6583534479
 20
-19.788896228
 10
-6.671316941
 20
-19.7765891569
 10
-6.6849370247
 20
-19.7649478638
 10
-6.6991120727
 20
-19.7540595783
 10
-6.7138539687
 20
-19.7439253473
 10
-6.729150829
 20
-19.734544124
 10
-6.7448653759
 20
-19.7259999978
 10
-6.7609927024
 20
-19.7183041173
 10
-6.7775377156
 20
-19.711445334
 10
-6.7943778589
 20
-19.7054742916
 10
-6.8115230707
 20
-19.7003954101
 10
-6.8289634126
 20
-19.6962042694
 10
-6.8465465136
 20
-19.692938254
 10
-6.8642691697
 20
-19.690606355
 10
-6.8821345848
 20
-19.6891995812
 10
-6.9
 20
-19.6887283431
 10
-6.9178654152
 20
-19.6891995812
 10
-6.9357308303
 20
-19.690606355
 10
-6.9534534864
 20
-19.692938254
 10
-6.9710365874
 20
-19.6962042694
 10
-6.9884769293
 20
-19.7003954101
 10
-7.0056221411
 20
-19.7054742916
 10
-7.0224622844
 20
-19.711445334
 10
-7.0390072976
 20
-19.7183041173
 10
-7.0551346241
 20
-19.7259999978
 10
-7.070849171
 20
-19.734544124
 10
-7.0861460313
 20
-19.7439253473
 10
-7.1008879273
 20
-19.7540595783
 10
-7.1150629753
 20
-19.7649478638
 10
-7.128683059
 20
-19.7765891569
 10
-7.1416465521
 20
-19.788896228
 10
-7.1539532514
 20
-19.8018789947
 10
-7.1656033601
 20
-19.8155275393
 10
-7.1764958613
 20
-19.8297248794
 10
-7.1866220317
 20
-19.8444728796
 10
-7.1959905948
 20
-19.8597696753
 10
-7.2045267039
 20
-19.87549269
 10
-7.2122241105
 20
-19.8916449407
 10
-7.2190890632
 20
-19.9082234103
 10
-7.2250654609
 20
-19.9250964717
 10
-7.2301468362
 20
-19.9422697784
 10
-7.2343396566
 20
-19.9597376769
 10
-7.2376072232
 20
-19.9773515786
 10
-7.2399373032
 20
-19.9950619539
 10
-7.2413421294
 20
-20.0129183324
 10
-7.2418217019
 20
-20.0309207141
  0
LWPOLYLINE
  5
3A5
100
AcDbEntity
  8
ASSI
100
AcDbPolyline
 62
7
  6
CONTINUOUS
 90
61
 70
0
 10
-6.5581782981
 20
-20.0309207141
 10
-6.5586578706
 20
-20.0129183324
 10
-6.5600626968
 20
-19.9950619539
 10
-6.5623927768
 20
-19.9773515786
 10
-6.5656603434
 20
-19.9597376769
 10
-6.5698531638
 20
-19.9422697784
 10
-6.5749345391
 20
-19.9250964717
 10
-6.5809109368
 20
-19.9082234103
 10
-6.5877758895
 20
-19.8916449407
 10
-6.5954732961
 20
-19.87549269
 10
-6.6040094052
 20
-19.8597696753
 10
-6.6133779683
 20
-19.8444728796
 10
-6.6235041387
 20
-19.8297248794
 10
-6.6343966399
 20
-19.8155275393
 10
-6.6460467486
 20
-19.8018789947
 10
-6.6583534479
 20
-19.788896228
 10
-6.671316941
 20
-19.7765891569
 10
-6.6849370247
 20
-19.7649478638
 10
-6.6991120727
 20
-19.7540595783
 10
-6.7138539687
 20
-19.7439253473
 10
-6.729150829
 20
-19.734544124
 10
-6.7448653759
 20
-19.7259999978
 10
-6.7609927024
 20
-19.7183041173
 10
-6.7775377156
 20
-19.711445334
 10
-6.7943778589
 20
-19.7054742916
 10
-6.8115230707
 20
-19.7003954101
 10
-6.8289634126
 20
-19.6962042694
 10
-6.8465465136
 20
-19.692938254
 10
-6.8642691697
 20
-19.690606355
 10
-6.8821345848
 20
-19.6891995812
 10
-6.9
 20
-19.6887283431
 10
-6.9178654152
 20
-19.6891995812
 10
-6.9357308303
 20
-19.690606355
 10
-6.9534534864
 20
-19.692938254
 10
-6.9710365874
 20
-19.6962042694
 10
-6.9884769293
 20
-19.7003954101
 10
-7.0056221411
 20
-19.7054742916
 10
-7.0224622844
 20
-19.711445334
 10
-7.0390072976
 20
-19.7183041173
 10
-7.0551346241
 20
-19.7259999978
 10
-7.070849171
 20
-19.734544124
 10
-7.0861460313
 20
-19.7439253473
 10
-7.1008879273
 20
-19.7540595783
 10
-7.1150629753
 20
-19.7649478638
 10
-7.128683059
 20
-19.7765891569
 10
-7.1416465521
 20
-19.788896228
 10
-7.1539532514
 20
-19.8018789947
 10
-7.1656033601
 20
-19.8155275393
 10
-7.1764958613
 20
-19.8297248794
 10
-7.1866220317
 20
-19.8444728796
 10
-7.1959905948
 20
-19.8597696753
 10
-7.2045267039
 20
-19.87549269
 10
-7.2122241105
 20
-19.8916449407
 10
-7.2190890632
 20
-19.9082234103
 10
-7.2250654609
 20
-19.9250964717
 10
-7.2301468362
 20
-19.9422697784
 10
-7.2343396566
 20
-19.9597376769
 10
-7.2376072232
 20
-19.9773515786
 10
-7.2399373032
 20
-19.9950619539
 10
-7.2413421294
 20
-20.0129183324
 10
-7.2418217019
 20
-20.0309207141
  0
LINE
  5
3A6
100
AcDbEntity
  8
0
100
AcDbLine
 62
253
  6
CONTINUOUS
 10
-8.5043676032
 20
23.6278312164
 11
-8.4992770021
 21
23.1226497308
  0
LINE
  5
3A7
100
AcDbEntity
  8
ASSI
100
AcDbLine
 62
253
  6
CONTINUOUS
 10
-8.5043676032
 20
23.6278312164
 11
-8.4992770021
 21
23.1226497308
  0
LINE
  5
3A8
100
AcDbEntity
  8
0
100
AcDbLine
 62
253
  6
CONTINUOUS
 10
-8.254371834
 20
23.8443375673
 11
-8.25
 21
23.4104851482
  0
LINE
  5
3A9
100
AcDbEntity
  8
ASSI
100
AcDbLine
 62
253
  6
CONTINUOUS
 10
-8.254371834
 20
23.8443375673
 11
-8.25
 21
23.4104851482
  0
LINE
  5
3AA
100
AcDbEntity
  8
RACCORDO
100
AcDbLine
 62
253
  6
CONTINUOUS
 10
-8.5043676032
 20
-23.6278312164
 11
-8.5043676032
 21
-24.495628166
  0
LINE
  5
3AB
100
AcDbEntity
  8
ASSI
100
AcDbLine
 62
253
  6
CONTINUOUS
 10
-8.5043676032
 20
-23.6278312164
 11
-8.5043676032
 21
-24.495628166
  0
LINE
  5
3AC
100
AcDbEntity
  8
0
100
AcDbLine
 62
253
  6
CONTINUOUS
 10
-8.5043676032
 20
23.6278312164
 11
-8.5043676032
 21
24.2456323968
  0
LINE
  5
3AD
100
AcDbEntity
  8
RACCORDO
100
AcDbLine
 62
253
  6
CONTINUOUS
 10
-8.5043676032
 20
24.2456323968
 11
-8.5043676032
 21
24.495628166
  0
LINE
  5
3AE
100
AcDbEntity
  8
ASSI
100
AcDbLine
 62
253
  6
CONTINUOUS
 10
-8.5043676032
 20
23.6278312164
 11
-8.5043676032
 21
24.495628166
  0
LINE
  5
3AF
100
AcDbEntity
  8
0
100
AcDbLine
 62
253
  6
CONTINUOUS
 10
-8.2956743158
 20
-7.7538534674
 11
-8.2956743158
 21
-5.8132720272
  0
LINE
  5
3B0
100
AcDbEntity
  8
ASSI
100
AcDbLine
 62
253
  6
CONTINUOUS
 10
-8.2956743158
 20
-7.7538534674
 11
-8.2956743158
 21
-5.8132720272
  0
LINE
  5
3B1
100
AcDbEntity
  8
RACCORDO
100
AcDbLine
 62
253
  6
CONTINUOUS
 10
-8.254371834
 20
-24.2456323968
 11
-8.254371834
 21
-23.8443375673
  0
LINE
  5
3B2
100
AcDbEntity
  8
ASSI
100
AcDbLine
 62
7
  6
CONTINUOUS
 10
-8.254371834
 20
-24.2456323968
 11
-8.254371834
 21
-23.8443375673
  0
LINE
  5
3B3
100
AcDbEntity
  8
0
100
AcDbLine
 62
253
  6
CONTINUOUS
 10
-8.254371834
 20
23.8443375673
 11
-8.254371834
 21
24.2456323968
  0
LINE
  5
3B4
100
AcDbEntity
  8
ASSI
100
AcDbLine
 62
7
  6
CONTINUOUS
 10
-8.254371834
 20
23.8443375673
 11
-8.254371834
 21
24.2456323968
  0
LINE
  5
3B5
100
AcDbEntity
  8
DRAFT
100
AcDbLine
 62
7
  6
CONTINUOUS
 10
-8.25
 20
-21.4
 11
-8.25
 21
-20.9
  0
LINE
  5
3B6
100
AcDbEntity
  8
ASSI
100
AcDbLine
 62
7
  6
CONTINUOUS
 10
-8.25
 20
-21.4
 11
-8.25
 21
-20.9
  0
LINE
  5
3B7
100
AcDbEntity
  8
RACCORDO
100
AcDbLine
 62
7
  6
CONTINUOUS
 10
-8.25
 20
-22.4
 11
-8.25
 21
-23.8443375673
  0
LINE
  5
3B8
100
AcDbEntity
  8
ASSI
100
AcDbLine
 62
7
  6
CONTINUOUS
 10
-8.25
 20
-22.4
 11
-8.25
 21
-23.8443375673
  0
LINE
  5
3B9
100
AcDbEntity
  8
DRAFT
100
AcDbLine
 62
7
  6
CONTINUOUS
 10
-8.25
 20
20.9
 11
-8.25
 21
21.4
  0
LINE
  5
3BA
100
AcDbEntity
  8
ASSI
100
AcDbLine
 62
7
  6
CONTINUOUS
 10
-8.25
 20
20.9
 11
-8.25
 21
21.4
  0
LINE
  5
3BB
100
AcDbEntity
  8
RACCORDO
100
AcDbLine
 62
7
  6
CONTINUOUS
 10
-8.25
 20
22.4
 11
-8.25
 21
23.8443375673
  0
LINE
  5
3BC
100
AcDbEntity
  8
ASSI
100
AcDbLine
 62
7
  6
CONTINUOUS
 10
-8.25
 20
22.4
 11
-8.25
 21
23.8443375673
  0
LINE
  5
3BD
100
AcDbEntity
  8
RACCORDO
100
AcDbLine
 62
253
  6
CONTINUOUS
 10
-8.0840245667
 20
21.5659754333
 11
-8.0840245667
 21
20.9917082642
  0
LINE
  5
3BE
100
AcDbEntity
  8
ASSI
100
AcDbLine
 62
253
  6
CONTINUOUS
 10
-8.0840245667
 20
21.5659754333
 11
-8.0840245667
 21
20.9917082642
  0
LINE
  5
3BF
100
AcDbEntity
  8
RACCORDO
100
AcDbLine
 62
253
  6
CONTINUOUS
 10
-8.0840245667
 20
-20.9917082642
 11
-8.0840245667
 21
-21.5659754333
  0
LINE
  5
3C0
100
AcDbEntity
  8
ASSI
100
AcDbLine
 62
253
  6
CONTINUOUS
 10
-8.0840245667
 20
-20.9917082642
 11
-8.0840245667
 21
-21.5659754333
  0
LINE
  5
3C1
100
AcDbEntity
  8
CURVE
100
AcDbLine
 62
7
  6
CONTINUOUS
 10
-8.05
 20
10.2757581504
 11
-8.05
 21
10.8
  0
LINE
  5
3C2
100
AcDbEntity
  8
ASSI
100
AcDbLine
 62
7
  6
CONTINUOUS
 10
-8.05
 20
10.2757581504
 11
-8.05
 21
10.8
  0
LINE
  5
3C3
100
AcDbEntity
  8
CURVE
100
AcDbLine
 62
7
  6
CONTINUOUS
 10
-8.05
 20
18.5
 11
-8.05
 21
20.4335707644
  0
LINE
  5
3C4
100
AcDbEntity
  8
ASSI
100
AcDbLine
 62
7
  6
CONTINUOUS
 10
-8.05
 20
18.5
 11
-8.05
 21
20.4335707644
  0
LINE
  5
3C5
100
AcDbEntity
  8
0
100
AcDbLine
 62
253
  6
CONTINUOUS
 10
-8.045712392
 20
-7.7537492537
 11
-8.045712392
 21
-5.8132720272
  0
LINE
  5
3C6
100
AcDbEntity
  8
ASSI
100
AcDbLine
 62
253
  6
CONTINUOUS
 10
-8.045712392
 20
-7.7537492537
 11
-8.045712392
 21
-5.8132720272
  0
LINE
  5
3C7
100
AcDbEntity
  8
CURVE
100
AcDbLine
 62
7
  6
CONTINUOUS
 10
-7.9731977143
 20
18.4681874516
 11
-7.9731977143
 21
20.6641649932
  0
LINE
  5
3C8
100
AcDbEntity
  8
ASSI
100
AcDbLine
 62
7
  6
CONTINUOUS
 10
-7.9731977143
 20
18.4681874516
 11
-7.9731977143
 21
20.6641649932
  0
LINE
  5
3C9
100
AcDbEntity
  8
0
100
AcDbLine
 62
253
  6
CONTINUOUS
 10
-7.8017732894
 20
-8.4620066009
 11
-7.8017732906
 21
-8.2853398476
  0
LINE
  5
3CA
100
AcDbEntity
  8
ASSI
100
AcDbLine
 62
253
  6
CONTINUOUS
 10
-7.8017732894
 20
-8.4620066009
 11
-7.8017732906
 21
-8.2853398476
  0
LINE
  5
3CB
100
AcDbEntity
  8
RACCORDO
100
AcDbLine
 62
253
  6
CONTINUOUS
 10
-7.5841007192
 20
21.3126932437
 11
-7.5841007192
 21
20.9959955457
  0
LINE
  5
3CC
100
AcDbEntity
  8
ASSI
100
AcDbLine
 62
253
  6
CONTINUOUS
 10
-7.5841007192
 20
21.3126932437
 11
-7.5841007192
 21
20.9959955457
  0
LINE
  5
3CD
100
AcDbEntity
  8
RACCORDO
100
AcDbLine
 62
253
  6
CONTINUOUS
 10
-7.5841007192
 20
-20.9959955457
 11
-7.5841007192
 21
-21.3126932437
  0
LINE
  5
3CE
100
AcDbEntity
  8
ASSI
100
AcDbLine
 62
253
  6
CONTINUOUS
 10
-7.5841007192
 20
-20.9959955457
 11
-7.5841007192
 21
-21.3126932437
  0
LINE
  5
3CF
100
AcDbEntity
  8
0
100
AcDbLine
 62
7
  6
CONTINUOUS
 10
-7.3401430257
 20
-19.243657187
 11
-7.3401430257
 21
-19.3
  0
LINE
  5
3D0
100
AcDbEntity
  8
ASSI
100
AcDbLine
 62
7
  6
CONTINUOUS
 10
-7.3401430257
 20
-19.243657187
 11
-7.3401430257
 21
-19.3
  0
LINE
  5
3D1
100
AcDbEntity
  8
0
100
AcDbLine
 62
7
  6
CONTINUOUS
 10
-7.3261802341
 20
16.7800253896
 11
-7.3261802341
 21
20.6641649932
  0
LINE
  5
3D2
100
AcDbEntity
  8
ASSI
100
AcDbLine
 62
7
  6
CONTINUOUS
 10
-7.3261802341
 20
16.7800253896
 11
-7.3261802341
 21
20.6641649932
  0
LINE
  5
3D3
100
AcDbEntity
  8
RACCORDO
100
AcDbLine
 62
7
  6
CONTINUOUS
 10
-7.3209441873
 20
-20.7113319946
 11
-7.3209441873
 21
-19.8
  0
LINE
  5
3D4
100
AcDbEntity
  8
ASSI
100
AcDbLine
 62
7
  6
CONTINUOUS
 10
-7.3209441873
 20
-20.7113319946
 11
-7.3209441873
 21
-19.8
  0
LINE
  5
3D5
100
AcDbEntity
  8
0
100
AcDbLine
 62
7
  6
CONTINUOUS
 10
-7.2767286808
 20
16.9283934415
 11
-7.2767286808
 21
19.7514188702
  0
LINE
  5
3D6
100
AcDbEntity
  8
ASSI
100
AcDbLine
 62
7
  6
CONTINUOUS
 10
-7.2767286808
 20
16.9283934415
 11
-7.2767286808
 21
19.7514188702
  0
LINE
  5
3D7
100
AcDbEntity
  8
0
100
AcDbLine
 62
7
  6
CONTINUOUS
 10
-7.25
 20
15.9541648703
 11
-7.25
 21
10.2757581504
  0
LINE
  5
3D8
100
AcDbEntity
  8
RACCORDO
100
AcDbLine
 62
7
  6
CONTINUOUS
 10
-7.2418217019
 20
-20.9959955457
 11
-7.2418217019
 21
-20.0309207141
  0
LINE
  5
3D9
100
AcDbEntity
  8
ASSI
100
AcDbLine
 62
7
  6
CONTINUOUS
 10
-7.2418217019
 20
-20.9959955457
 11
-7.2418217019
 21
-20.0309207141
  0
LINE
  5
3DA
100
AcDbEntity
  8
RACCORDO
100
AcDbLine
 62
7
  6
CONTINUOUS
 10
-7.2418217019
 20
20.0309207141
 11
-7.2418217019
 21
20.9959955457
  0
LINE
  5
3DB
100
AcDbEntity
  8
ASSI
100
AcDbLine
 62
7
  6
CONTINUOUS
 10
-7.2418217019
 20
20.0309207141
 11
-7.2418217019
 21
20.9959955457
  0
LINE
  5
3DC
100
AcDbEntity
  8
RACCORDO
100
AcDbLine
 62
253
  6
CONTINUOUS
 10
-8.4992770021
 20
-23.1226497308
 11
-8.5043676032
 21
-23.6278312164
  0
LINE
  5
3DD
100
AcDbEntity
  8
ASSI
100
AcDbLine
 62
253
  6
CONTINUOUS
 10
-8.4992770021
 20
-23.1226497308
 11
-8.5043676032
 21
-23.6278312164
  0
LINE
  5
3DE
100
AcDbEntity
  8
RACCORDO
100
AcDbLine
 62
253
  6
CONTINUOUS
 10
-8.25
 20
-23.4104851482
 11
-8.254371834
 21
-23.8443375673
  0
LINE
  5
3DF
100
AcDbEntity
  8
ASSI
100
AcDbLine
 62
253
  6
CONTINUOUS
 10
-8.25
 20
-23.4104851482
 11
-8.254371834
 21
-23.8443375673
  0
LINE
  5
3E0
100
AcDbEntity
  8
CURVE
100
AcDbLine
 62
7
  6
CONTINUOUS
 10
-8.0418352163
 20
10.2757581504
 11
-8.0353536961
 21
10.8060666977
  0
LINE
  5
3E1
100
AcDbEntity
  8
ASSI
100
AcDbLine
 62
7
  6
CONTINUOUS
 10
-8.0418352163
 20
10.2757581504
 11
-8.0353536961
 21
10.8060666977
  0
LINE
  5
3E2
100
AcDbEntity
  8
0
100
AcDbLine
 62
253
  6
CONTINUOUS
 10
-7.7660026979
 20
-5.8132720272
 11
-7.7752251392
 21
-6.5375464992
  0
LINE
  5
3E3
100
AcDbEntity
  8
ASSI
100
AcDbLine
 62
253
  6
CONTINUOUS
 10
-7.7660026979
 20
-5.8132720272
 11
-7.7752251392
 21
-6.5375464992
  0
LINE
  5
3E4
100
AcDbEntity
  8
0
100
AcDbLine
 62
253
  6
CONTINUOUS
 10
-8.0177581028
 20
-5.8132720272
 11
-8.0271045704
 21
-6.5241347665
  0
LINE
  5
3E5
100
AcDbEntity
  8
ASSI
100
AcDbLine
 62
253
  6
CONTINUOUS
 10
-8.0177581028
 20
-5.8132720272
 11
-8.0271045704
 21
-6.5241347665
  0
LINE
  5
3E6
100
AcDbEntity
  8
0
100
AcDbLine
 62
253
  6
CONTINUOUS
 10
-7.7752251392
 20
-6.5375464992
 11
-7.7845983486
 21
-7.2056470694
  0
LINE
  5
3E7
100
AcDbEntity
  8
ASSI
100
AcDbLine
 62
253
  6
CONTINUOUS
 10
-7.7752251392
 20
-6.5375464992
 11
-7.7845983486
 21
-7.2056470694
  0
LINE
  5
3E8
100
AcDbEntity
  8
0
100
AcDbLine
 62
253
  6
CONTINUOUS
 10
-8.0271045704
 20
-6.5241347665
 11
-8.0347936922
 21
-7.0589675794
  0
LINE
  5
3E9
100
AcDbEntity
  8
ASSI
100
AcDbLine
 62
253
  6
CONTINUOUS
 10
-8.0271045704
 20
-6.5241347665
 11
-8.0347936922
 21
-7.0589675794
  0
LWPOLYLINE
  5
3EA
100
AcDbEntity
  8
0
100
AcDbPolyline
 62
253
  6
CONTINUOUS
 90
3
 70
0
 10
-8.0347936922
 20
-7.0589675794
 10
-8.0429082731
 20
-7.5818680153
 10
-8.045712392
 20
-7.7537492537
  0
LWPOLYLINE
  5
3EB
100
AcDbEntity
  8
ASSI
100
AcDbPolyline
 62
253
  6
CONTINUOUS
 90
3
 70
0
 10
-8.0347936922
 20
-7.0589675794
 10
-8.0429082731
 20
-7.5818680153
 10
-8.045712392
 20
-7.7537492537
  0
LINE
  5
3EC
100
AcDbEntity
  8
0
100
AcDbLine
 62
253
  6
CONTINUOUS
 10
-7.7845983486
 20
-7.2056470694
 11
-7.794622941
 21
-7.8561423081
  0
LINE
  5
3ED
100
AcDbEntity
  8
ASSI
100
AcDbLine
 62
253
  6
CONTINUOUS
 10
-7.7845983486
 20
-7.2056470694
 11
-7.794622941
 21
-7.8561423081
  0
LINE
  5
3EE
100
AcDbEntity
  8
0
100
AcDbLine
 62
253
  6
CONTINUOUS
 10
-7.794622941
 20
-7.8561423081
 11
-7.8017754073
 21
-8.2853398476
  0
LINE
  5
3EF
100
AcDbEntity
  8
ASSI
100
AcDbLine
 62
253
  6
CONTINUOUS
 10
-7.794622941
 20
-7.8561423081
 11
-7.8017754073
 21
-8.2853398476
  0
LWPOLYLINE
  5
3F0
100
AcDbEntity
  8
0
100
AcDbPolyline
 62
253
  6
CONTINUOUS
 90
58
 70
0
 10
-8.254371834
 20
23.8443375673
 10
-8.2544861293
 20
23.8383907516
 10
-8.2547890915
 20
23.8324467621
 10
-8.25528065
 20
23.826510092
 10
-8.2559606607
 20
23.8205847069
 10
-8.2568287316
 20
23.8146756305
 10
-8.2578840554
 20
23.8087889234
 10
-8.2591258837
 20
23.8029288492
 10
-8.2605532522
 20
23.7971000338
 10
-8.2621644649
 20
23.7913089976
 10
-8.2639572547
 20
23.7855626734
 10
-8.2659307631
 20
23.7798627219
 10
-8.2680855398
 20
23.7742077984
 10
-8.2704215939
 20
23.7685992964
 10
-8.2729363963
 20
23.7630445982
 10
-8.2756266951
 20
23.7575513379
 10
-8.2784899144
 20
23.7521246975
 10
-8.2815243898
 20
23.7467677587
 10
-8.2847276962
 20
23.7414848145
 10
-8.2880980348
 20
23.7362789171
 10
-8.2916322723
 20
23.7311549873
 10
-8.2953254817
 20
23.7261198731
 10
-8.2991730299
 20
23.7211791565
 10
-8.3031731477
 20
23.7163344054
 10
-8.307325021
 20
23.7115863427
 10
-8.3116259038
 20
23.7069381303
 10
-8.3160721729
 20
23.7023937043
 10
-8.3206619379
 20
23.6979551027
 10
-8.3253926809
 20
23.6936250415
 10
-8.3302601729
 20
23.6894076645
 10
-8.3352598471
 20
23.6853070661
 10
-8.3403879111
 20
23.6813264202
 10
-8.3456405685
 20
23.6774687355
 10
-8.3510129565
 20
23.6737375924
 10
-8.356500755
 20
23.6701359333
 10
-8.3621000082
 20
23.6666662976
 10
-8.3678061932
 20
23.6633314309
 10
-8.3736136876
 20
23.6601344859
 10
-8.3795192927
 20
23.6570770921
 10
-8.3855221696
 20
23.6541597895
 10
-8.3916198031
 20
23.6513841611
 10
-8.3978058682
 20
23.6487534416
 10
-8.4040737849
 20
23.6462706086
 10
-8.4104189406
 20
23.6439375842
 10
-8.4168364587
 20
23.6417562553
 10
-8.4233191139
 20
23.6397290695
 10
-8.4298610343
 20
23.6378577223
 10
-8.4364581232
 20
23.6361432465
 10
-8.4431056893
 20
23.6345867718
 10
-8.4497987574
 20
23.6331893911
 10
-8.4565321566
 20
23.6319521119
 10
-8.463300867
 20
23.6308757858
 10
-8.470099725
 20
23.629961166
 10
-8.4769235995
 20
23.629208875
 10
-8.4837674937
 20
23.6286194036
 10
-8.4906262831
 20
23.6281931417
 10
-8.4974947183
 20
23.6279303641
 10
-8.5043676032
 20
23.6278312164
  0
LWPOLYLINE
  5
3F1
100
AcDbEntity
  8
ASSI
100
AcDbPolyline
 62
253
  6
CONTINUOUS
 90
58
 70
0
 10
-8.254371834
 20
23.8443375673
 10
-8.2544861293
 20
23.8383907516
 10
-8.2547890915
 20
23.8324467621
 10
-8.25528065
 20
23.826510092
 10
-8.2559606607
 20
23.8205847069
 10
-8.2568287316
 20
23.8146756305
 10
-8.2578840554
 20
23.8087889234
 10
-8.2591258837
 20
23.8029288492
 10
-8.2605532522
 20
23.7971000338
 10
-8.2621644649
 20
23.7913089976
 10
-8.2639572547
 20
23.7855626734
 10
-8.2659307631
 20
23.7798627219
 10
-8.2680855398
 20
23.7742077984
 10
-8.2704215939
 20
23.7685992964
 10
-8.2729363963
 20
23.7630445982
 10
-8.2756266951
 20
23.7575513379
 10
-8.2784899144
 20
23.7521246975
 10
-8.2815243898
 20
23.7467677587
 10
-8.2847276962
 20
23.7414848145
 10
-8.2880980348
 20
23.7362789171
 10
-8.2916322723
 20
23.7311549873
 10
-8.2953254817
 20
23.7261198731
 10
-8.2991730299
 20
23.7211791565
 10
-8.3031731477
 20
23.7163344054
 10
-8.307325021
 20
23.7115863427
 10
-8.3116259038
 20
23.7069381303
 10
-8.3160721729
 20
23.7023937043
 10
-8.3206619379
 20
23.6979551027
 10
-8.3253926809
 20
23.6936250415
 10
-8.3302601729
 20
23.6894076645
 10
-8.3352598471
 20
23.6853070661
 10
-8.3403879111
 20
23.6813264202
 10
-8.3456405685
 20
23.6774687355
 10
-8.3510129565
 20
23.6737375924
 10
-8.356500755
 20
23.6701359333
 10
-8.3621000082
 20
23.6666662976
 10
-8.3678061932
 20
23.6633314309
 10
-8.3736136876
 20
23.6601344859
 10
-8.3795192927
 20
23.6570770921
 10
-8.3855221696
 20
23.6541597895
 10
-8.3916198031
 20
23.6513841611
 10
-8.3978058682
 20
23.6487534416
 10
-8.4040737849
 20
23.6462706086
 10
-8.4104189406
 20
23.6439375842
 10
-8.4168364587
 20
23.6417562553
 10
-8.4233191139
 20
23.6397290695
 10
-8.4298610343
 20
23.6378577223
 10
-8.4364581232
 20
23.6361432465
 10
-8.4431056893
 20
23.6345867718
 10
-8.4497987574
 20
23.6331893911
 10
-8.4565321566
 20
23.6319521119
 10
-8.463300867
 20
23.6308757858
 10
-8.470099725
 20
23.629961166
 10
-8.4769235995
 20
23.629208875
 10
-8.4837674937
 20
23.6286194036
 10
-8.4906262831
 20
23.6281931417
 10
-8.4974947183
 20
23.6279303641
 10
-8.5043676032
 20
23.6278312164
  0
LWPOLYLINE
  5
3F2
100
AcDbEntity
  8
RACCORDO
100
AcDbPolyline
 62
7
  6
CONTINUOUS
 90
4
 70
0
 10
-8.25
 20
-24.2500042308
 10
-8.2502831502
 20
-24.261899516
 10
-8.2511319658
 20
-24.2737678556
 10
-8.2525445259
 20
-24.2855823661
  0
LWPOLYLINE
  5
3F3
100
AcDbEntity
  8
ASSI
100
AcDbPolyline
 62
7
  6
CONTINUOUS
 90
4
 70
0
 10
-8.25
 20
-24.2500042308
 10
-8.2502831502
 20
-24.261899516
 10
-8.2511319658
 20
-24.2737678556
 10
-8.2525445259
 20
-24.2855823661
  0
LWPOLYLINE
  5
3F4
100
AcDbEntity
  8
0
100
AcDbPolyline
 62
7
  6
CONTINUOUS
 90
64
 70
0
 10
-6.5232713192
 20
19.7514188702
 10
-6.5237449272
 20
19.7325718718
 10
-6.525144895
 20
19.7138527866
 10
-6.5274712226
 20
19.6952616146
 10
-6.5307350586
 20
19.6767472769
 10
-6.5349252545
 20
19.6583608523
 10
-6.5400083639
 20
19.6402555776
 10
-6.5459887219
 20
19.6224427154
 10
-6.5528619934
 20
19.6049110031
 10
-6.5605817278
 20
19.5877798889
 10
-6.5691591668
 20
19.5710435992
 10
-6.5785830687
 20
19.5547079075
 10
-6.5887732569
 20
19.5389095833
 10
-6.5997270677
 20
19.523663953
 10
-6.6114471649
 20
19.5089556902
 10
-6.623861363
 20
19.494875584
 10
-6.6369871527
 20
19.4814157981
 10
-6.6508070435
 20
19.4685841688
 10
-6.6651963777
 20
19.4564949941
 10
-6.6801426908
 20
19.4451665161
 10
-6.6956584473
 20
19.4345804927
 10
-6.7116563841
 20
19.4247964945
 10
-6.728160769
 20
19.4158089487
 10
-6.7451473342
 20
19.4076234282
 10
-6.7624560123
 20
19.4003162227
 10
-6.7800648404
 20
19.3939030693
 10
-6.7979957813
 20
19.388368231
 10
-6.8161546561
 20
19.3837407867
 10
-6.8345700252
 20
19.3800214757
 10
-6.8532133281
 20
19.3772095587
 10
-6.8719047043
 20
19.3753318973
 10
-6.8906161923
 20
19.3743974332
 10
-6.9093757535
 20
19.3743972246
 10
-6.9280874122
 20
19.3753313071
 10
-6.9467792545
 20
19.377208669
 10
-6.9654231942
 20
19.380020322
 10
-6.9838389975
 20
19.3837393364
 10
-7.0019978047
 20
19.3883663649
 10
-7.0199284755
 20
19.3939007548
 10
-7.0375373545
 20
19.4003136186
 10
-7.0548468149
 20
19.4076208788
 10
-7.0718344836
 20
19.4158066128
 10
-7.0883395857
 20
19.4247941655
 10
-7.1043373552
 20
19.4345776568
 10
-7.119852558
 20
19.4451629667
 10
-7.1347987169
 20
19.4564910802
 10
-7.1491888208
 20
19.4685806721
 10
-7.1630098807
 20
19.4814130675
 10
-7.1761364521
 20
19.4948732271
 10
-7.1885505512
 20
19.5089527777
 10
-7.2002701618
 20
19.5236600925
 10
-7.2112237913
 20
19.538905251
 10
-7.2214145168
 20
19.5547041801
 10
-7.2308392612
 20
19.571040953
 10
-7.2394173005
 20
19.5877778689
 10
-7.2471370888
 20
19.604908552
 10
-7.2540101721
 20
19.622439378
 10
-7.259990464
 20
19.6402517738
 10
-7.2650738152
 20
19.6583574406
 10
-7.2692643751
 20
19.6767446771
 10
-7.2725285054
 20
19.695259806
 10
-7.2748549934
 20
19.7138516016
 10
-7.2762550518
 20
19.7325712897
 10
-7.2767286808
 20
19.7514188702
  0
LWPOLYLINE
  5
3F5
100
AcDbEntity
  8
ASSI
100
AcDbPolyline
 62
7
  6
CONTINUOUS
 90
64
 70
0
 10
-6.5232713192
 20
19.7514188702
 10
-6.5237449272
 20
19.7325718718
 10
-6.525144895
 20
19.7138527866
 10
-6.5274712226
 20
19.6952616146
 10
-6.5307350586
 20
19.6767472769
 10
-6.5349252545
 20
19.6583608523
 10
-6.5400083639
 20
19.6402555776
 10
-6.5459887219
 20
19.6224427154
 10
-6.5528619934
 20
19.6049110031
 10
-6.5605817278
 20
19.5877798889
 10
-6.5691591668
 20
19.5710435992
 10
-6.5785830687
 20
19.5547079075
 10
-6.5887732569
 20
19.5389095833
 10
-6.5997270677
 20
19.523663953
 10
-6.6114471649
 20
19.5089556902
 10
-6.623861363
 20
19.494875584
 10
-6.6369871527
 20
19.4814157981
 10
-6.6508070435
 20
19.4685841688
 10
-6.6651963777
 20
19.4564949941
 10
-6.6801426908
 20
19.4451665161
 10
-6.6956584473
 20
19.4345804927
 10
-6.7116563841
 20
19.4247964945
 10
-6.728160769
 20
19.4158089487
 10
-6.7451473342
 20
19.4076234282
 10
-6.7624560123
 20
19.4003162227
 10
-6.7800648404
 20
19.3939030693
 10
-6.7979957813
 20
19.388368231
 10
-6.8161546561
 20
19.3837407867
 10
-6.8345700252
 20
19.3800214757
 10
-6.8532133281
 20
19.3772095587
 10
-6.8719047043
 20
19.3753318973
 10
-6.8906161923
 20
19.3743974332
 10
-6.9093757535
 20
19.3743972246
 10
-6.9280874122
 20
19.3753313071
 10
-6.9467792545
 20
19.377208669
 10
-6.9654231942
 20
19.380020322
 10
-6.9838389975
 20
19.3837393364
 10
-7.0019978047
 20
19.3883663649
 10
-7.0199284755
 20
19.3939007548
 10
-7.0375373545
 20
19.4003136186
 10
-7.0548468149
 20
19.4076208788
 10
-7.0718344836
 20
19.4158066128
 10
-7.0883395857
 20
19.4247941655
 10
-7.1043373552
 20
19.4345776568
 10
-7.119852558
 20
19.4451629667
 10
-7.1347987169
 20
19.4564910802
 10
-7.1491888208
 20
19.4685806721
 10
-7.1630098807
 20
19.4814130675
 10
-7.1761364521
 20
19.4948732271
 10
-7.1885505512
 20
19.5089527777
 10
-7.2002701618
 20
19.5236600925
 10
-7.2112237913
 20
19.538905251
 10
-7.2214145168
 20
19.5547041801
 10
-7.2308392612
 20
19.571040953
 10
-7.2394173005
 20
19.5877778689
 10
-7.2471370888
 20
19.604908552
 10
-7.2540101721
 20
19.622439378
 10
-7.259990464
 20
19.6402517738
 10
-7.2650738152
 20
19.6583574406
 10
-7.2692643751
 20
19.6767446771
 10
-7.2725285054
 20
19.695259806
 10
-7.2748549934
 20
19.7138516016
 10
-7.2762550518
 20
19.7325712897
 10
-7.2767286808
 20
19.7514188702
  0
LWPOLYLINE
  5
3F6
100
AcDbEntity
  8
RACCORDO
100
AcDbPolyline
 62
253
  6
CONTINUOUS
 90
25
 70
0
 10
-8.254371834
 20
-24.2456323968
 10
-8.254715023
 20
-24.2587187509
 10
-8.255742766
 20
-24.2717692492
 10
-8.2574522491
 20
-24.2847481067
 10
-8.2598387919
 20
-24.2976197463
 10
-8.262895853
 20
-24.3103488602
 10
-8.2666150425
 20
-24.3229005077
 10
-8.2709861576
 20
-24.3352402638
 10
-8.2759972131
 20
-24.347334301
 10
-8.2816344613
 20
-24.3591494467
 10
-8.2878824405
 20
-24.3706533025
 10
-8.2947240163
 20
-24.3818143284
 10
-8.3021404232
 20
-24.3926019187
 10
-8.3101113313
 20
-24.402986508
 10
-8.3186148729
 20
-24.4129396114
 10
-8.327627692
 20
-24.4224339046
 10
-8.3371250264
 20
-24.4314433264
 10
-8.3470808636
 20
-24.4399432233
 10
-8.3574679894
 20
-24.4479103656
 10
-8.3682580686
 20
-24.4553229956
 10
-8.379421387
 20
-24.4621606774
 10
-8.3909269875
 20
-24.4684044791
 10
-8.4027430657
 20
-24.4740372277
 10
-8.4148374218
 20
-24.4790436576
 10
-8.4271772258
 20
-24.4834102087
  0
LWPOLYLINE
  5
3F7
100
AcDbEntity
  8
ASSI
100
AcDbPolyline
 62
7
  6
CONTINUOUS
 90
29
 70
0
 10
-8.254371834
 20
-24.2456323968
 10
-8.254715023
 20
-24.2587187509
 10
-8.255742766
 20
-24.2717692492
 10
-8.2574522491
 20
-24.2847481067
 10
-8.2598387919
 20
-24.2976197463
 10
-8.262895853
 20
-24.3103488602
 10
-8.2666150425
 20
-24.3229005077
 10
-8.2709861576
 20
-24.3352402638
 10
-8.2759972131
 20
-24.347334301
 10
-8.2816344613
 20
-24.3591494467
 10
-8.2878824405
 20
-24.3706533025
 10
-8.2947240163
 20
-24.3818143284
 10
-8.3021404232
 20
-24.3926019187
 10
-8.3101113313
 20
-24.402986508
 10
-8.3186148729
 20
-24.4129396114
 10
-8.327627692
 20
-24.4224339046
 10
-8.3371250264
 20
-24.4314433264
 10
-8.3470808636
 20
-24.4399432233
 10
-8.3574679894
 20
-24.4479103656
 10
-8.3682580686
 20
-24.4553229956
 10
-8.379421387
 20
-24.4621606774
 10
-8.3909269875
 20
-24.4684044791
 10
-8.4027430657
 20
-24.4740372277
 10
-8.4148374218
 20
-24.4790436576
 10
-8.4271772258
 20
-24.4834102087
 10
-8.4397314103
 20
-24.4871256484
 10
-8.4524628755
 20
-24.4901787618
 10
-8.4653285943
 20
-24.492559892
 10
-8.4774875253
 20
-24.4941779536
  0
LINE
  5
3F8
100
AcDbEntity
  8
0
100
AcDbLine
 62
7
  6
CONTINUOUS
 10
6.3301884152
 20
17.3001256195
 11
6.3516319481
 21
17.3215691524
  0
LINE
  5
3F9
100
AcDbEntity
  8
ASSI
100
AcDbLine
 62
7
  6
CONTINUOUS
 10
6.3301884152
 20
17.3001256195
 11
6.3516319481
 21
17.3215691524
  0
LINE
  5
3FA
100
AcDbEntity
  8
0
100
AcDbLine
 62
253
  6
CONTINUOUS
 10
7.8017666815
 20
-8.4620066009
 11
6.45
 21
-8.4620066009
  0
LINE
  5
3FB
100
AcDbEntity
  8
ASSI
100
AcDbLine
 62
253
  6
CONTINUOUS
 10
7.8017666815
 20
-8.4620066009
 11
6.45
 21
-8.4620066009
  0
LINE
  5
3FC
100
AcDbEntity
  8
0
100
AcDbLine
 62
253
  6
CONTINUOUS
 10
-6.45
 20
-8.4620066009
 11
-7.8017650675
 21
-8.4620066009
  0
LINE
  5
3FD
100
AcDbEntity
  8
ASSI
100
AcDbLine
 62
253
  6
CONTINUOUS
 10
-6.45
 20
-8.4620066009
 11
-7.8017650675
 21
-8.4620066009
  0
LINE
  5
3FE
100
AcDbEntity
  8
0
100
AcDbLine
 62
253
  6
CONTINUOUS
 10
7.8017699268
 20
-8.2853398476
 11
6.45
 21
-8.2853398476
  0
LINE
  5
3FF
100
AcDbEntity
  8
ASSI
100
AcDbLine
 62
253
  6
CONTINUOUS
 10
7.8017699268
 20
-8.2853398476
 11
6.45
 21
-8.2853398476
  0
LINE
  5
400
100
AcDbEntity
  8
0
100
AcDbLine
 62
253
  6
CONTINUOUS
 10
-6.45
 20
-8.2853398476
 11
-7.8017754073
 21
-8.2853398476
  0
LINE
  5
401
100
AcDbEntity
  8
ASSI
100
AcDbLine
 62
253
  6
CONTINUOUS
 10
-6.45
 20
-8.2853398476
 11
-7.8017754073
 21
-8.2853398476
  0
LINE
  5
402
100
AcDbEntity
  8
0
100
AcDbLine
 62
253
  6
CONTINUOUS
 10
8.2956743158
 20
-7.7538536523
 11
8.045712392
 21
-7.7538536524
  0
LINE
  5
403
100
AcDbEntity
  8
ASSI
100
AcDbLine
 62
253
  6
CONTINUOUS
 10
8.2956743158
 20
-7.7538536523
 11
8.045712392
 21
-7.7538536524
  0
LINE
  5
404
100
AcDbEntity
  8
0
100
AcDbLine
 62
253
  6
CONTINUOUS
 10
-8.045712392
 20
-7.7538534674
 11
-8.2956743158
 21
-7.7538534674
  0
LINE
  5
405
100
AcDbEntity
  8
ASSI
100
AcDbLine
 62
253
  6
CONTINUOUS
 10
-8.045712392
 20
-7.7538534674
 11
-8.2956743158
 21
-7.7538534674
  0
LWPOLYLINE
  5
406
100
AcDbEntity
  8
0
100
AcDbPolyline
 62
253
  6
CONTINUOUS
 90
40
 70
0
 10
-7.8017650675
 20
-8.4620066009
 10
-7.815883795
 20
-8.461746067
 10
-7.8300769025
 20
-8.4608881245
 10
-7.84434439
 20
-8.4594327734
 10
-7.8586372449
 20
-8.4574162453
 10
-7.8730044798
 20
-8.4548023087
 10
-7.8875931326
 20
-8.4514822688
 10
-7.9024386475
 20
-8.4474744429
 10
-7.9175055803
 20
-8.4427605137
 10
-7.9328346362
 20
-8.4371768358
 10
-7.9484783476
 20
-8.4307130463
 10
-7.9643841822
 20
-8.423379508
 10
-7.9804352477
 20
-8.4150436634
 10
-7.9966555599
 20
-8.4056815787
 10
-8.0130211031
 20
-8.3953171878
 10
-8.0293429377
 20
-8.383889735
 10
-8.045590947
 20
-8.3714146223
 10
-8.0617952477
 20
-8.3578764477
 10
-8.0778572505
 20
-8.343168249
 10
-8.0937911832
 20
-8.32728111
 10
-8.1095828179
 20
-8.3102239468
 10
-8.1250908819
 20
-8.2919165456
 10
-8.1403242159
 20
-8.2723490829
 10
-8.1552739791
 20
-8.2515313821
 10
-8.1697723765
 20
-8.2294126999
 10
-8.1838253121
 20
-8.2059850029
 10
-8.1974268818
 20
-8.1812563245
 10
-8.2103915785
 20
-8.1552000217
 10
-8.2227349538
 20
-8.1277686313
 10
-8.234441456
 20
-8.0990096163
 10
-8.2452789228
 20
-8.0690387232
 10
-8.2552421425
 20
-8.0378160483
 10
-8.2643363267
 20
-8.0053814952
 10
-8.2723449475
 20
-7.9719705208
 10
-8.2792511056
 20
-7.9375733614
 10
-8.2850717003
 20
-7.9021997807
 10
-8.2896409016
 20
-7.8661145262
 10
-8.292903433
 20
-7.8294058471
 10
-8.2949145711
 20
-7.7919854941
 10
-8.2956743158
 20
-7.7538534674
  0
LWPOLYLINE
  5
407
100
AcDbEntity
  8
ASSI
100
AcDbPolyline
 62
253
  6
CONTINUOUS
 90
40
 70
0
 10
-7.8017650675
 20
-8.4620066009
 10
-7.815883795
 20
-8.461746067
 10
-7.8300769025
 20
-8.4608881245
 10
-7.84434439
 20
-8.4594327734
 10
-7.8586372449
 20
-8.4574162453
 10
-7.8730044798
 20
-8.4548023087
 10
-7.8875931326
 20
-8.4514822688
 10
-7.9024386475
 20
-8.4474744429
 10
-7.9175055803
 20
-8.4427605137
 10
-7.9328346362
 20
-8.4371768358
 10
-7.9484783476
 20
-8.4307130463
 10
-7.9643841822
 20
-8.423379508
 10
-7.9804352477
 20
-8.4150436634
 10
-7.9966555599
 20
-8.4056815787
 10
-8.0130211031
 20
-8.3953171878
 10
-8.0293429377
 20
-8.383889735
 10
-8.045590947
 20
-8.3714146223
 10
-8.0617952477
 20
-8.3578764477
 10
-8.0778572505
 20
-8.343168249
 10
-8.0937911832
 20
-8.32728111
 10
-8.1095828179
 20
-8.3102239468
 10
-8.1250908819
 20
-8.2919165456
 10
-8.1403242159
 20
-8.2723490829
 10
-8.1552739791
 20
-8.2515313821
 10
-8.1697723765
 20
-8.2294126999
 10
-8.1838253121
 20
-8.2059850029
 10
-8.1974268818
 20
-8.1812563245
 10
-8.2103915785
 20
-8.1552000217
 10
-8.2227349538
 20
-8.1277686313
 10
-8.234441456
 20
-8.0990096163
 10
-8.2452789228
 20
-8.0690387232
 10
-8.2552421425
 20
-8.0378160483
 10
-8.2643363267
 20
-8.0053814952
 10
-8.2723449475
 20
-7.9719705208
 10
-8.2792511056
 20
-7.9375733614
 10
-8.2850717003
 20
-7.9021997807
 10
-8.2896409016
 20
-7.8661145262
 10
-8.292903433
 20
-7.8294058471
 10
-8.2949145711
 20
-7.7919854941
 10
-8.2956743158
 20
-7.7538534674
  0
LWPOLYLINE
  5
408
100
AcDbEntity
  8
0
100
AcDbPolyline
 62
253
  6
CONTINUOUS
 90
40
 70
0
 10
-7.8017732906
 20
-8.2853390816
 10
-7.8088064685
 20
-8.2851904025
 10
-7.8159031395
 20
-8.2846174959
 10
-7.8230496191
 20
-8.2836075777
 10
-7.8301902324
 20
-8.2821616512
 10
-7.8373524387
 20
-8.280268392
 10
-7.8446431065
 20
-8.2778777062
 10
-7.85205274
 20
-8.2749609059
 10
-7.8595515378
 20
-8.271499848
 10
-7.8672062366
 20
-8.2674246147
 10
-7.8750080342
 20
-8.262690934
 10
-7.8829104369
 20
-8.2572809537
 10
-7.8909137579
 20
-8.2511466105
 10
-7.8989945126
 20
-8.2442541469
 10
-7.9071118132
 20
-8.236590203
 10
-7.9152342393
 20
-8.2281385586
 10
-7.9233126484
 20
-8.2189078548
 10
-7.9313348284
 20
-8.2088719604
 10
-7.9393166883
 20
-8.1979625176
 10
-7.9472256432
 20
-8.1861682436
 10
-7.9550254674
 20
-8.1734868817
 10
-7.9627149642
 20
-8.159859986
 10
-7.9702594815
 20
-8.1452832971
 10
-7.9776222393
 20
-8.1297583578
 10
-7.9847905388
 20
-8.1132367536
 10
-7.9917287531
 20
-8.0957213689
 10
-7.9984004172
 20
-8.0772176369
 10
-8.0047854045
 20
-8.057683336
 10
-8.0108553319
 20
-8.0370974127
 10
-8.0165634855
 20
-8.0154979544
 10
-8.0218632445
 20
-7.9929366429
 10
-8.0267270147
 20
-7.9694063662
 10
-8.0311169995
 20
-7.9449464046
 10
-8.0349830235
 20
-7.9196861546
 10
-8.0383003662
 20
-7.8936488968
 10
-8.0410441469
 20
-7.8668571193
 10
-8.0431782974
 20
-7.8394442406
 10
-8.0446808216
 20
-7.811472514
 10
-8.0455341669
 20
-7.7829319462
 10
-8.0457127646
 20
-7.7538534674
  0
LWPOLYLINE
  5
409
100
AcDbEntity
  8
ASSI
100
AcDbPolyline
 62
253
  6
CONTINUOUS
 90
40
 70
0
 10
-7.8017732906
 20
-8.2853390816
 10
-7.8088064685
 20
-8.2851904025
 10
-7.8159031395
 20
-8.2846174959
 10
-7.8230496191
 20
-8.2836075777
 10
-7.8301902324
 20
-8.2821616512
 10
-7.8373524387
 20
-8.280268392
 10
-7.8446431065
 20
-8.2778777062
 10
-7.85205274
 20
-8.2749609059
 10
-7.8595515378
 20
-8.271499848
 10
-7.8672062366
 20
-8.2674246147
 10
-7.8750080342
 20
-8.262690934
 10
-7.8829104369
 20
-8.2572809537
 10
-7.8909137579
 20
-8.2511466105
 10
-7.8989945126
 20
-8.2442541469
 10
-7.9071118132
 20
-8.236590203
 10
-7.9152342393
 20
-8.2281385586
 10
-7.9233126484
 20
-8.2189078548
 10
-7.9313348284
 20
-8.2088719604
 10
-7.9393166883
 20
-8.1979625176
 10
-7.9472256432
 20
-8.1861682436
 10
-7.9550254674
 20
-8.1734868817
 10
-7.9627149642
 20
-8.159859986
 10
-7.9702594815
 20
-8.1452832971
 10
-7.9776222393
 20
-8.1297583578
 10
-7.9847905388
 20
-8.1132367536
 10
-7.9917287531
 20
-8.0957213689
 10
-7.9984004172
 20
-8.0772176369
 10
-8.0047854045
 20
-8.057683336
 10
-8.0108553319
 20
-8.0370974127
 10
-8.0165634855
 20
-8.0154979544
 10
-8.0218632445
 20
-7.9929366429
 10
-8.0267270147
 20
-7.9694063662
 10
-8.0311169995
 20
-7.9449464046
 10
-8.0349830235
 20
-7.9196861546
 10
-8.0383003662
 20
-7.8936488968
 10
-8.0410441469
 20
-7.8668571193
 10
-8.0431782974
 20
-7.8394442406
 10
-8.0446808216
 20
-7.811472514
 10
-8.0455341669
 20
-7.7829319462
 10
-8.0457127646
 20
-7.7538534674
  0
LWPOLYLINE
  5
40A
100
AcDbEntity
  8
RACCORDO
100
AcDbPolyline
 62
7
  6
CONTINUOUS
 90
8
 70
0
 10
6.4826586459
 20
-19.3
 10
6.4828074828
 20
-19.3001561327
 10
6.482901383
 20
-19.3006244492
 10
6.4829403466
 20
-19.3014046806
 10
6.4829224624
 20
-19.3024963953
 10
6.4828496415
 20
-19.3038989189
 10
6.4827276172
 20
-19.3056112546
 10
6.4825542058
 20
-19.3076322506
  0
LWPOLYLINE
  5
40B
100
AcDbEntity
  8
ASSI
100
AcDbPolyline
 62
7
  6
CONTINUOUS
 90
8
 70
0
 10
6.4826586459
 20
-19.3
 10
6.4828074828
 20
-19.3001561327
 10
6.482901383
 20
-19.3006244492
 10
6.4829403466
 20
-19.3014046806
 10
6.4829224624
 20
-19.3024963953
 10
6.4828496415
 20
-19.3038989189
 10
6.4827276172
 20
-19.3056112546
 10
6.4825542058
 20
-19.3076322506
  0
LWPOLYLINE
  5
40C
100
AcDbEntity
  8
RACCORDO
100
AcDbPolyline
 62
7
  6
CONTINUOUS
 90
61
 70
0
 10
-7.2418217019
 20
20.0309207141
 10
-7.2413421294
 20
20.0129183324
 10
-7.2399373032
 20
19.9950619539
 10
-7.2376072232
 20
19.9773515786
 10
-7.2343396566
 20
19.9597376769
 10
-7.2301468362
 20
19.9422697784
 10
-7.2250654609
 20
19.9250964717
 10
-7.2190890632
 20
19.9082234103
 10
-7.2122241105
 20
19.8916449407
 10
-7.2045267039
 20
19.87549269
 10
-7.1959905948
 20
19.8597696753
 10
-7.1866220317
 20
19.8444728796
 10
-7.1764958613
 20
19.8297248794
 10
-7.1656033601
 20
19.8155275393
 10
-7.1539532514
 20
19.8018789947
 10
-7.1416465521
 20
19.788896228
 10
-7.128683059
 20
19.7765891569
 10
-7.1150629753
 20
19.7649478638
 10
-7.1008879273
 20
19.7540595783
 10
-7.0861460313
 20
19.7439253473
 10
-7.070849171
 20
19.734544124
 10
-7.0551346241
 20
19.7259999978
 10
-7.0390072976
 20
19.7183041173
 10
-7.0224622844
 20
19.711445334
 10
-7.0056221411
 20
19.7054742916
 10
-6.9884769293
 20
19.7003954101
 10
-6.9710365874
 20
19.6962042694
 10
-6.9534534864
 20
19.692938254
 10
-6.9357308303
 20
19.690606355
 10
-6.9178654152
 20
19.6891995812
 10
-6.9
 20
19.6887283431
 10
-6.8821345848
 20
19.6891995812
 10
-6.8642691697
 20
19.690606355
 10
-6.8465465136
 20
19.692938254
 10
-6.8289634126
 20
19.6962042694
 10
-6.8115230707
 20
19.7003954101
 10
-6.7943778589
 20
19.7054742916
 10
-6.7775377156
 20
19.711445334
 10
-6.7609927024
 20
19.7183041173
 10
-6.7448653759
 20
19.7259999978
 10
-6.729150829
 20
19.734544124
 10
-6.7138539687
 20
19.7439253473
 10
-6.6991120727
 20
19.7540595783
 10
-6.6849370247
 20
19.7649478638
 10
-6.671316941
 20
19.7765891569
 10
-6.6583534479
 20
19.788896228
 10
-6.6460467486
 20
19.8018789947
 10
-6.6343966399
 20
19.8155275393
 10
-6.6235041387
 20
19.8297248794
 10
-6.6133779683
 20
19.8444728796
 10
-6.6040094052
 20
19.8597696753
 10
-6.5954732961
 20
19.87549269
 10
-6.5877758895
 20
19.8916449407
 10
-6.5809109368
 20
19.9082234103
 10
-6.5749345391
 20
19.9250964717
 10
-6.5698531638
 20
19.9422697784
 10
-6.5656603434
 20
19.9597376769
 10
-6.5623927768
 20
19.9773515786
 10
-6.5600626968
 20
19.9950619539
 10
-6.5586578706
 20
20.0129183324
 10
-6.5581782981
 20
20.0309207141
  0
LWPOLYLINE
  5
40D
100
AcDbEntity
  8
ASSI
100
AcDbPolyline
 62
7
  6
CONTINUOUS
 90
61
 70
0
 10
-7.2418217019
 20
20.0309207141
 10
-7.2413421294
 20
20.0129183324
 10
-7.2399373032
 20
19.9950619539
 10
-7.2376072232
 20
19.9773515786
 10
-7.2343396566
 20
19.9597376769
 10
-7.2301468362
 20
19.9422697784
 10
-7.2250654609
 20
19.9250964717
 10
-7.2190890632
 20
19.9082234103
 10
-7.2122241105
 20
19.8916449407
 10
-7.2045267039
 20
19.87549269
 10
-7.1959905948
 20
19.8597696753
 10
-7.1866220317
 20
19.8444728796
 10
-7.1764958613
 20
19.8297248794
 10
-7.1656033601
 20
19.8155275393
 10
-7.1539532514
 20
19.8018789947
 10
-7.1416465521
 20
19.788896228
 10
-7.128683059
 20
19.7765891569
 10
-7.1150629753
 20
19.7649478638
 10
-7.1008879273
 20
19.7540595783
 10
-7.0861460313
 20
19.7439253473
 10
-7.070849171
 20
19.734544124
 10
-7.0551346241
 20
19.7259999978
 10
-7.0390072976
 20
19.7183041173
 10
-7.0224622844
 20
19.711445334
 10
-7.0056221411
 20
19.7054742916
 10
-6.9884769293
 20
19.7003954101
 10
-6.9710365874
 20
19.6962042694
 10
-6.9534534864
 20
19.692938254
 10
-6.9357308303
 20
19.690606355
 10
-6.9178654152
 20
19.6891995812
 10
-6.9
 20
19.6887283431
 10
-6.8821345848
 20
19.6891995812
 10
-6.8642691697
 20
19.690606355
 10
-6.8465465136
 20
19.692938254
 10
-6.8289634126
 20
19.6962042694
 10
-6.8115230707
 20
19.7003954101
 10
-6.7943778589
 20
19.7054742916
 10
-6.7775377156
 20
19.711445334
 10
-6.7609927024
 20
19.7183041173
 10
-6.7448653759
 20
19.7259999978
 10
-6.729150829
 20
19.734544124
 10
-6.7138539687
 20
19.7439253473
 10
-6.6991120727
 20
19.7540595783
 10
-6.6849370247
 20
19.7649478638
 10
-6.671316941
 20
19.7765891569
 10
-6.6583534479
 20
19.788896228
 10
-6.6460467486
 20
19.8018789947
 10
-6.6343966399
 20
19.8155275393
 10
-6.6235041387
 20
19.8297248794
 10
-6.6133779683
 20
19.8444728796
 10
-6.6040094052
 20
19.8597696753
 10
-6.5954732961
 20
19.87549269
 10
-6.5877758895
 20
19.8916449407
 10
-6.5809109368
 20
19.9082234103
 10
-6.5749345391
 20
19.9250964717
 10
-6.5698531638
 20
19.9422697784
 10
-6.5656603434
 20
19.9597376769
 10
-6.5623927768
 20
19.9773515786
 10
-6.5600626968
 20
19.9950619539
 10
-6.5586578706
 20
20.0129183324
 10
-6.5581782981
 20
20.0309207141
  0
LINE
  5
40E
100
AcDbEntity
  8
RACCORDO
100
AcDbLine
 62
7
  6
CONTINUOUS
 10
-6.3942403901
 20
-3.4045057833
 11
-6.3899131307
 21
-4.1120028559
  0
LINE
  5
40F
100
AcDbEntity
  8
DRAFT
100
AcDbLine
 62
7
  6
CONTINUOUS
 10
-6.3931931883
 20
-2.8031007712
 11
-6.3852274692
 21
-4.1120028559
  0
LINE
  5
410
100
AcDbEntity
  8
DRAFT
100
AcDbLine
 62
7
  6
CONTINUOUS
 10
-6.3607299323
 20
-2.4852125236
 11
-6.3696311477
 21
-1.0225926109
  0
LINE
  5
411
100
AcDbEntity
  8
DRAFT
100
AcDbLine
 62
7
  6
CONTINUOUS
 10
-6.389651054
 20
2.2670158985
 11
-6.3931931883
 21
2.8490483344
  0
LINE
  5
412
100
AcDbEntity
  8
RACCORDO
100
AcDbLine
 62
7
  6
CONTINUOUS
 10
-6.3939434839
 20
3.7455693088
 11
-6.3849901075
 21
2.2670442641
  0
LINE
  5
413
100
AcDbEntity
  8
RACCORDO
100
AcDbLine
 62
7
  6
CONTINUOUS
 10
-6.3696311477
 20
-0.2692733792
 11
-6.351828717
 21
-3.209096102
  0
LINE
  5
414
100
AcDbEntity
  8
RACCORDO
100
AcDbLine
 62
253
  6
CONTINUOUS
 10
-6.0924571802
 20
3.7455693088
 11
-6.0849919352
 21
2.5127883802
  0
LINE
  5
415
100
AcDbEntity
  8
RACCORDO
100
AcDbLine
 62
253
  6
CONTINUOUS
 10
-6.0696329754
 20
-0.023529263
 11
-6.0518305447
 21
-2.9633519859
  0
LWPOLYLINE
  5
416
100
AcDbEntity
  8
RACCORDO
100
AcDbPolyline
 62
7
  6
CONTINUOUS
 90
12
 70
0
 10
-6.4777885798
 20
-19.3872364074
 10
-6.4777962806
 20
-19.3803138767
 10
-6.4778695827
 20
-19.3736540128
 10
-6.4780084861
 20
-19.3672609073
 10
-6.4782237558
 20
-19.3611384838
 10
-6.4785046268
 20
-19.3552904947
 10
-6.478818804
 20
-19.3497205191
 10
-6.4791649488
 20
-19.3444321228
 10
-6.4795443998
 20
-19.3394283549
 10
-6.4799288781
 20
-19.3347118344
 10
-6.480316836
 20
-19.3302854852
 10
-6.4810841978
 20
-19.3223140069
  0
LWPOLYLINE
  5
417
100
AcDbEntity
  8
ASSI
100
AcDbPolyline
 62
7
  6
CONTINUOUS
 90
12
 70
0
 10
-6.4777885798
 20
-19.3872364074
 10
-6.4777962806
 20
-19.3803138767
 10
-6.4778695827
 20
-19.3736540128
 10
-6.4780084861
 20
-19.3672609073
 10
-6.4782237558
 20
-19.3611384838
 10
-6.4785046268
 20
-19.3552904947
 10
-6.478818804
 20
-19.3497205191
 10
-6.4791649488
 20
-19.3444321228
 10
-6.4795443998
 20
-19.3394283549
 10
-6.4799288781
 20
-19.3347118344
 10
-6.480316836
 20
-19.3302854852
 10
-6.4810841978
 20
-19.3223140069
  0
LINE
  5
418
100
AcDbEntity
  8
RACCORDO
100
AcDbLine
 62
7
  6
CONTINUOUS
 10
-6.5581782981
 20
-20.5829242832
 11
-6.5581782981
 21
-20.0309207141
  0
LINE
  5
419
100
AcDbEntity
  8
ASSI
100
AcDbLine
 62
7
  6
CONTINUOUS
 10
-6.5581782981
 20
-20.5829242832
 11
-6.5581782981
 21
-20.0309207141
  0
LINE
  5
41A
100
AcDbEntity
  8
RACCORDO
100
AcDbLine
 62
7
  6
CONTINUOUS
 10
-6.5581782981
 20
20.0309207141
 11
-6.5581782981
 21
20.5829242832
  0
LINE
  5
41B
100
AcDbEntity
  8
ASSI
100
AcDbLine
 62
7
  6
CONTINUOUS
 10
-6.5581782981
 20
20.0309207141
 11
-6.5581782981
 21
20.5829242832
  0
LINE
  5
41C
100
AcDbEntity
  8
0
100
AcDbLine
 62
7
  6
CONTINUOUS
 10
-6.55
 20
-3.6502498994
 11
-6.55
 21
-4.5845439608
  0
LINE
  5
41D
100
AcDbEntity
  8
0
100
AcDbLine
 62
7
  6
CONTINUOUS
 10
-6.5232713192
 20
17.3215691524
 11
-6.5232713192
 21
19.7514188702
  0
LINE
  5
41E
100
AcDbEntity
  8
ASSI
100
AcDbLine
 62
7
  6
CONTINUOUS
 10
-6.5232713192
 20
17.3215691524
 11
-6.5232713192
 21
19.7514188702
  0
LINE
  5
41F
100
AcDbEntity
  8
0
100
AcDbLine
 62
7
  6
CONTINUOUS
 10
-6.5
 20
15.9541648703
 11
-6.5
 21
16.28
  0
LINE
  5
420
100
AcDbEntity
  8
ASSI
100
AcDbLine
 62
7
  6
CONTINUOUS
 10
-6.5
 20
15.9541648703
 11
-6.5
 21
16.28
  0
LINE
  5
421
100
AcDbEntity
  8
RACCORDO
100
AcDbLine
 62
7
  6
CONTINUOUS
 10
-6.4790558127
 20
-19.968583276
 11
-6.4790558127
 21
-19.8
  0
LINE
  5
422
100
AcDbEntity
  8
ASSI
100
AcDbLine
 62
7
  6
CONTINUOUS
 10
-6.4790558127
 20
-19.968583276
 11
-6.4790558127
 21
-19.8
  0
LINE
  5
423
100
AcDbEntity
  8
0
100
AcDbLine
 62
7
  6
CONTINUOUS
 10
-6.4598569743
 20
-19.243657187
 11
-6.4598569743
 21
-19.3
  0
LINE
  5
424
100
AcDbEntity
  8
ASSI
100
AcDbLine
 62
7
  6
CONTINUOUS
 10
-6.4598569743
 20
-19.243657187
 11
-6.4598569743
 21
-19.3
  0
LINE
  5
425
100
AcDbEntity
  8
0
100
AcDbLine
 62
7
  6
CONTINUOUS
 10
-6.45
 20
-12.3036933041
 11
-6.45
 21
-4.1120028559
  0
LINE
  5
426
100
AcDbEntity
  8
0
100
AcDbLine
 62
7
  6
CONTINUOUS
 10
-6.4482213147
 20
19.9223308767
 11
-6.4482213147
 21
19.594201273
  0
LINE
  5
427
100
AcDbEntity
  8
ASSI
100
AcDbLine
 62
7
  6
CONTINUOUS
 10
-6.4482213147
 20
19.9223308767
 11
-6.4482213147
 21
19.594201273
  0
LINE
  5
428
100
AcDbEntity
  8
RACCORDO
100
AcDbLine
 62
7
  6
CONTINUOUS
 10
-6.3942403901
 20
1.501143709
 11
-6.3942403901
 21
3.7455693088
  0
LINE
  5
429
100
AcDbEntity
  8
DRAFT
100
AcDbLine
 62
7
  6
CONTINUOUS
 10
-6.3931931883
 20
2.8490483344
 11
-6.3931931883
 21
-2.8031007712
  0
LINE
  5
42A
100
AcDbEntity
  8
RACCORDO
100
AcDbLine
 62
7
  6
CONTINUOUS
 10
-6.3849901075
 20
1.501143709
 11
-6.3849901075
 21
2.2670442641
  0
LINE
  5
42B
100
AcDbEntity
  8
RACCORDO
100
AcDbLine
 62
7
  6
CONTINUOUS
 10
-6.3696311477
 20
-0.2692733792
 11
-6.3696311477
 21
-1.0225926109
  0
LINE
  5
42C
100
AcDbEntity
  8
DRAFT
100
AcDbLine
 62
7
  6
CONTINUOUS
 10
-6.3607299323
 20
-4.1120028559
 11
-6.3607299323
 21
-2.4852125236
  0
LINE
  5
42D
100
AcDbEntity
  8
RACCORDO
100
AcDbLine
 62
7
  6
CONTINUOUS
 10
-6.351828717
 20
-4.1120028559
 11
-6.351828717
 21
-3.209096102
  0
LINE
  5
42E
100
AcDbEntity
  8
0
100
AcDbLine
 62
7
  6
CONTINUOUS
 10
-6.3516319481
 20
16.4283680519
 11
-6.3516319481
 21
17.3215691524
  0
LINE
  5
42F
100
AcDbEntity
  8
ASSI
100
AcDbLine
 62
7
  6
CONTINUOUS
 10
-6.3516319481
 20
16.4283680519
 11
-6.3516319481
 21
17.3215691524
  0
LINE
  5
430
100
AcDbEntity
  8
0
100
AcDbLine
 62
7
  6
CONTINUOUS
 10
-6.3258467315
 20
15.8009747569
 11
-6.3258467315
 21
15.764526841
  0
LINE
  5
431
100
AcDbEntity
  8
ASSI
100
AcDbLine
 62
7
  6
CONTINUOUS
 10
-6.3258467315
 20
15.8009747569
 11
-6.3258467315
 21
15.764526841
  0
LINE
  5
432
100
AcDbEntity
  8
ASSI
100
AcDbLine
 62
7
  6
CONTINUOUS
 10
-6.25
 20
5.0562125796
 11
-6.25
 21
13.8475670731
  0
LINE
  5
433
100
AcDbEntity
  8
0
100
AcDbLine
 62
7
  6
CONTINUOUS
 10
-6.15
 20
-4.1120028559
 11
-6.15
 21
-3.5384264195
  0
LINE
  5
434
100
AcDbEntity
  8
0
100
AcDbLine
 62
7
  6
CONTINUOUS
 10
-6.0
 20
2.1974229467
 11
-6.0
 21
-0.023529263
  0
LINE
  5
435
100
AcDbEntity
  8
0
100
AcDbLine
 62
7
  6
CONTINUOUS
 10
-5.9
 20
-3.5384264195
 11
-5.9
 21
-2.9648499832
  0
LINE
  5
436
100
AcDbEntity
  8
0
100
AcDbLine
 62
7
  6
CONTINUOUS
 10
-6.4596089231
 20
17.5125735809
 11
-6.4487325156
 21
19.3820692387
  0
LINE
  5
437
100
AcDbEntity
  8
ASSI
100
AcDbLine
 62
7
  6
CONTINUOUS
 10
-6.4596089231
 20
17.5125735809
 11
-6.4487325156
 21
19.3820692387
  0
LINE
  5
438
100
AcDbEntity
  8
0
100
AcDbLine
 62
7
  6
CONTINUOUS
 10
-6.3267937453
 20
15.5924539101
 11
-6.3442735424
 21
14.1622823604
  0
LINE
  5
439
100
AcDbEntity
  8
ASSI
100
AcDbLine
 62
7
  6
CONTINUOUS
 10
-6.3267937453
 20
15.5924539101
 11
-6.3442735424
 21
14.1622823604
  0
LINE
  5
43A
100
AcDbEntity
  8
0
100
AcDbLine
 62
7
  6
CONTINUOUS
 10
-6.3225496058
 20
13.8475670731
 11
-6.3091978363
 21
14.9399894222
  0
LINE
  5
43B
100
AcDbEntity
  8
ASSI
100
AcDbLine
 62
7
  6
CONTINUOUS
 10
-6.3225496058
 20
13.8475670731
 11
-6.3091978363
 21
14.9399894222
  0
LWPOLYLINE
  5
43C
100
AcDbEntity
  8
0
100
AcDbPolyline
 62
7
  6
CONTINUOUS
 90
67
 70
0
 10
-7.3401430257
 20
-19.243657187
 10
-7.3396395634
 20
-19.2226414068
 10
-7.3381484418
 20
-19.2017545924
 10
-7.335669661
 20
-19.1809967439
 10
-7.3321917251
 20
-19.1603139608
 10
-7.32772613
 20
-19.1397601435
 10
-7.3223073626
 20
-19.1194969931
 10
-7.3159333151
 20
-19.0995411925
 10
-7.3086060954
 20
-19.0798760588
 10
-7.3003665137
 20
-19.060613244
 10
-7.2911997271
 20
-19.0417387743
 10
-7.2811205785
 20
-19.0232666235
 10
-7.2702144072
 20
-19.005350365
 10
-7.2584892933
 20
-18.9880139124
 10
-7.2459371566
 20
-18.971233352
 10
-7.2326190956
 20
-18.9550905164
 10
-7.2185114317
 20
-18.9395689595
 10
-7.2036378436
 20
-18.9246851273
 10
-7.1881304657
 20
-18.9105701906
 10
-7.1720073027
 20
-18.8972486015
 10
-7.1552503499
 20
-18.8846959079
 10
-7.1379377282
 20
-18.8729699234
 10
-7.1200419124
 20
-18.8620605696
 10
-7.1015904276
 20
-18.851977925
 10
-7.0827439696
 20
-18.8428100393
 10
-7.0635224597
 20
-18.8345741336
 10
-7.0439059767
 20
-18.8272529867
 10
-7.0239954524
 20
-18.8208829851
 10
-7.0037710232
 20
-18.8154641439
 10
-6.9832525529
 20
-18.8109964481
 10
-6.9626005642
 20
-18.807516239
 10
-6.9418241091
 20
-18.8050330232
 10
-6.9209141356
 20
-18.8035372941
 10
-6.9000040104
 20
-18.8030368733
 10
-6.8790936027
 20
-18.8035369704
 10
-6.8581830434
 20
-18.8050323758
 10
-6.8374060921
 20
-18.8075152816
 10
-6.8167538493
 20
-18.8109952035
 10
-6.7962352145
 20
-18.8154626258
 10
-6.7760106458
 20
-18.8208811927
 10
-6.756100066
 20
-18.8272508684
 10
-6.7364835522
 20
-18.8345716888
 10
-6.7172617941
 20
-18.842807406
 10
-6.6984145872
 20
-18.8519754157
 10
-6.679962136
 20
-18.8620583222
 10
-6.6620657431
 20
-18.8729676905
 10
-6.6447534328
 20
-18.8846930722
 10
-6.6279971808
 20
-18.8972449156
 10
-6.6118742177
 20
-18.9105661306
 10
-6.5963658896
 20
-18.9246817795
 10
-6.5814908502
 20
-18.9395667999
 10
-6.5673822914
 20
-18.9550889142
 10
-6.5540645953
 20
-18.9712308265
 10
-6.5415133797
 20
-18.9880098327
 10
-6.5297886897
 20
-19.0053455436
 10
-6.518881791
 20
-19.0232629104
 10
-6.508801418
 20
-19.0417369818
 10
-6.4996338191
 20
-19.0606125144
 10
-6.4913943571
 20
-19.0798744173
 10
-6.4840676692
 20
-19.0995377814
 10
-6.4776939157
 20
-19.1194926359
 10
-6.472274867
 20
-19.1397566177
 10
-6.4678087526
 20
-19.1603120899
 10
-6.4643304212
 20
-19.1809961711
 10
-6.4618514892
 20
-19.2017545674
 10
-6.4603603402
 20
-19.2226415727
 10
-6.4598569743
 20
-19.243657187
  0
LWPOLYLINE
  5
43D
100
AcDbEntity
  8
ASSI
100
AcDbPolyline
 62
7
  6
CONTINUOUS
 90
67
 70
0
 10
-7.3401430257
 20
-19.243657187
 10
-7.3396395634
 20
-19.2226414068
 10
-7.3381484418
 20
-19.2017545924
 10
-7.335669661
 20
-19.1809967439
 10
-7.3321917251
 20
-19.1603139608
 10
-7.32772613
 20
-19.1397601435
 10
-7.3223073626
 20
-19.1194969931
 10
-7.3159333151
 20
-19.0995411925
 10
-7.3086060954
 20
-19.0798760588
 10
-7.3003665137
 20
-19.060613244
 10
-7.2911997271
 20
-19.0417387743
 10
-7.2811205785
 20
-19.0232666235
 10
-7.2702144072
 20
-19.005350365
 10
-7.2584892933
 20
-18.9880139124
 10
-7.2459371566
 20
-18.971233352
 10
-7.2326190956
 20
-18.9550905164
 10
-7.2185114317
 20
-18.9395689595
 10
-7.2036378436
 20
-18.9246851273
 10
-7.1881304657
 20
-18.9105701906
 10
-7.1720073027
 20
-18.8972486015
 10
-7.1552503499
 20
-18.8846959079
 10
-7.1379377282
 20
-18.8729699234
 10
-7.1200419124
 20
-18.8620605696
 10
-7.1015904276
 20
-18.851977925
 10
-7.0827439696
 20
-18.8428100393
 10
-7.0635224597
 20
-18.8345741336
 10
-7.0439059767
 20
-18.8272529867
 10
-7.0239954524
 20
-18.8208829851
 10
-7.0037710232
 20
-18.8154641439
 10
-6.9832525529
 20
-18.8109964481
 10
-6.9626005642
 20
-18.807516239
 10
-6.9418241091
 20
-18.8050330232
 10
-6.9209141356
 20
-18.8035372941
 10
-6.9000040104
 20
-18.8030368733
 10
-6.8790936027
 20
-18.8035369704
 10
-6.8581830434
 20
-18.8050323758
 10
-6.8374060921
 20
-18.8075152816
 10
-6.8167538493
 20
-18.8109952035
 10
-6.7962352145
 20
-18.8154626258
 10
-6.7760106458
 20
-18.8208811927
 10
-6.756100066
 20
-18.8272508684
 10
-6.7364835522
 20
-18.8345716888
 10
-6.7172617941
 20
-18.842807406
 10
-6.6984145872
 20
-18.8519754157
 10
-6.679962136
 20
-18.8620583222
 10
-6.6620657431
 20
-18.8729676905
 10
-6.6447534328
 20
-18.8846930722
 10
-6.6279971808
 20
-18.8972449156
 10
-6.6118742177
 20
-18.9105661306
 10
-6.5963658896
 20
-18.9246817795
 10
-6.5814908502
 20
-18.9395667999
 10
-6.5673822914
 20
-18.9550889142
 10
-6.5540645953
 20
-18.9712308265
 10
-6.5415133797
 20
-18.9880098327
 10
-6.5297886897
 20
-19.0053455436
 10
-6.518881791
 20
-19.0232629104
 10
-6.508801418
 20
-19.0417369818
 10
-6.4996338191
 20
-19.0606125144
 10
-6.4913943571
 20
-19.0798744173
 10
-6.4840676692
 20
-19.0995377814
 10
-6.4776939157
 20
-19.1194926359
 10
-6.472274867
 20
-19.1397566177
 10
-6.4678087526
 20
-19.1603120899
 10
-6.4643304212
 20
-19.1809961711
 10
-6.4618514892
 20
-19.2017545674
 10
-6.4603603402
 20
-19.2226415727
 10
-6.4598569743
 20
-19.243657187
  0
LWPOLYLINE
  5
43E
100
AcDbEntity
  8
RACCORDO
100
AcDbPolyline
 62
7
  6
CONTINUOUS
 90
11
 70
0
 10
-7.3196831386
 20
-19.3302852056
 10
-7.3200710985
 20
-19.3347115608
 10
-7.32045558
 20
-19.3394280987
 10
-7.3208350353
 20
-19.3444318961
 10
-7.3211811841
 20
-19.3497203268
 10
-7.321495365
 20
-19.3552903417
 10
-7.3217762395
 20
-19.3611383748
 10
-7.3219915118
 20
-19.3672608379
 10
-7.3221304167
 20
-19.3736539741
 10
-7.3222037195
 20
-19.3803138616
 10
-7.3222114202
 20
-19.3872364074
  0
LWPOLYLINE
  5
43F
100
AcDbEntity
  8
ASSI
100
AcDbPolyline
 62
7
  6
CONTINUOUS
 90
11
 70
0
 10
-7.3196831386
 20
-19.3302852056
 10
-7.3200710985
 20
-19.3347115608
 10
-7.32045558
 20
-19.3394280987
 10
-7.3208350353
 20
-19.3444318961
 10
-7.3211811841
 20
-19.3497203268
 10
-7.321495365
 20
-19.3552903417
 10
-7.3217762395
 20
-19.3611383748
 10
-7.3219915118
 20
-19.3672608379
 10
-7.3221304167
 20
-19.3736539741
 10
-7.3222037195
 20
-19.3803138616
 10
-7.3222114202
 20
-19.3872364074
  0
LINE
  5
440
100
AcDbEntity
  8
RACCORDO
100
AcDbLine
 62
7
  6
CONTINUOUS
 10
-7.3189157761
 20
-19.3223137455
 11
-7.3196831386
 21
-19.3302852056
  0
LINE
  5
441
100
AcDbEntity
  8
ASSI
100
AcDbLine
 62
7
  6
CONTINUOUS
 10
-7.3189157761
 20
-19.3223137455
 11
-7.3196831386
 21
-19.3302852056
  0
LINE
  5
442
100
AcDbEntity
  8
RACCORDO
100
AcDbLine
 62
7
  6
CONTINUOUS
 10
-7.3174457942
 20
-19.3076322506
 11
-7.3179279431
 21
-19.3125947811
  0
LINE
  5
443
100
AcDbEntity
  8
ASSI
100
AcDbLine
 62
7
  6
CONTINUOUS
 10
-7.3174457942
 20
-19.3076322506
 11
-7.3179279431
 21
-19.3125947811
  0
LINE
  5
444
100
AcDbEntity
  8
RACCORDO
100
AcDbLine
 62
7
  6
CONTINUOUS
 10
-7.3179279431
 20
-19.3125947811
 11
-7.3189157761
 21
-19.3223137455
  0
LINE
  5
445
100
AcDbEntity
  8
ASSI
100
AcDbLine
 62
7
  6
CONTINUOUS
 10
-7.3179279431
 20
-19.3125947811
 11
-7.3189157761
 21
-19.3223137455
  0
LWPOLYLINE
  5
446
100
AcDbEntity
  8
ASSI
100
AcDbPolyline
 62
7
  6
CONTINUOUS
 90
10
 70
0
 10
-3.5
 20
23.7511422903
 10
-3.5003322899
 20
23.7484239112
 10
-3.5013412067
 20
23.7450420801
 10
-3.5030441065
 20
23.7409967968
 10
-3.5054584565
 20
23.7363008225
 10
-3.5085988805
 20
23.7309413961
 10
-3.512474165
 20
23.7248802347
 10
-3.517093142
 20
23.7181121007
 10
-3.5224652334
 20
23.7106422318
 10
-3.5285942983
 20
23.7024480575
  0
LWPOLYLINE
  5
447
100
AcDbEntity
  8
RACCORDO
100
AcDbPolyline
 62
7
  6
CONTINUOUS
 90
4
 70
0
 10
7.8908834737
 20
21.7591165263
 10
7.843380061
 20
21.6866457638
 10
7.818929804
 20
21.6499179842
 10
7.7939545568
 20
21.6129888844
  0
LWPOLYLINE
  5
448
100
AcDbEntity
  8
ASSI
100
AcDbPolyline
 62
7
  6
CONTINUOUS
 90
4
 70
0
 10
7.8908834737
 20
21.7591165263
 10
7.843380061
 20
21.6866457638
 10
7.818929804
 20
21.6499179842
 10
7.7939545568
 20
21.6129888844
  0
LINE
  5
449
100
AcDbEntity
  8
RACCORDO
100
AcDbLine
 62
7
  6
CONTINUOUS
 10
6.555294768
 20
20.0829433217
 11
6.4482213147
 21
19.9223308767
  0
LINE
  5
44A
100
AcDbEntity
  8
ASSI
100
AcDbLine
 62
7
  6
CONTINUOUS
 10
6.555294768
 20
20.0829433217
 11
6.4482213147
 21
19.9223308767
  0
LINE
  5
44B
100
AcDbEntity
  8
RACCORDO
100
AcDbLine
 62
7
  6
CONTINUOUS
 10
7.7939545568
 20
21.6129888844
 11
7.7427848301
 21
21.5385902446
  0
LINE
  5
44C
100
AcDbEntity
  8
ASSI
100
AcDbLine
 62
7
  6
CONTINUOUS
 10
7.7939545568
 20
21.6129888844
 11
7.7427848301
 21
21.5385902446
  0
LINE
  5
44D
100
AcDbEntity
  8
RACCORDO
100
AcDbLine
 62
7
  6
CONTINUOUS
 10
7.7427848301
 20
21.5385902446
 11
7.6904803352
 21
21.4636002076
  0
LINE
  5
44E
100
AcDbEntity
  8
ASSI
100
AcDbLine
 62
7
  6
CONTINUOUS
 10
7.7427848301
 20
21.5385902446
 11
7.6904803352
 21
21.4636002076
  0
LWPOLYLINE
  5
44F
100
AcDbEntity
  8
RACCORDO
100
AcDbPolyline
 62
7
  6
CONTINUOUS
 90
3
 70
0
 10
7.6904803352
 20
21.4636002076
 10
7.6108850697
 20
21.3504165494
 10
7.5841007192
 20
21.3126932437
  0
LWPOLYLINE
  5
450
100
AcDbEntity
  8
ASSI
100
AcDbPolyline
 62
7
  6
CONTINUOUS
 90
3
 70
0
 10
7.6904803352
 20
21.4636002076
 10
7.6108850697
 20
21.3504165494
 10
7.5841007192
 20
21.3126932437
  0
LINE
  5
451
100
AcDbEntity
  8
0
100
AcDbLine
 62
7
  6
CONTINUOUS
 10
6.5
 20
16.2699372043
 11
6.3309918611
 21
16.1009290654
  0
LINE
  5
452
100
AcDbEntity
  8
ASSI
100
AcDbLine
 62
7
  6
CONTINUOUS
 10
6.5
 20
16.2699372043
 11
6.3309918611
 21
16.1009290654
  0
LINE
  5
453
100
AcDbEntity
  8
0
100
AcDbLine
 62
7
  6
CONTINUOUS
 10
4.5
 20
-6.0371801653
 11
-4.5
 21
-6.0371801653
  0
LINE
  5
454
100
AcDbEntity
  8
0
100
AcDbLine
 62
7
  6
CONTINUOUS
 10
8.9
 20
-5.8132720272
 11
6.45
 21
-5.8132720272
  0
LINE
  5
455
100
AcDbEntity
  8
0
100
AcDbLine
 62
7
  6
CONTINUOUS
 10
-6.45
 20
-5.8132720272
 11
-8.9
 21
-5.8132720272
  0
LINE
  5
456
100
AcDbEntity
  8
CURVE
100
AcDbLine
 62
7
  6
CONTINUOUS
 10
10.2553500779
 20
-5.1749773271
 11
11.15
 21
-5.1749773271
  0
LINE
  5
457
100
AcDbEntity
  8
ASSI
100
AcDbLine
 62
7
  6
CONTINUOUS
 10
10.2553500779
 20
-5.1749773271
 11
11.15
 21
-5.1749773271
  0
LINE
  5
458
100
AcDbEntity
  8
CURVE
100
AcDbLine
 62
7
  6
CONTINUOUS
 10
-10.2553500779
 20
-5.1749773271
 11
-11.15
 21
-5.1749773271
  0
LINE
  5
459
100
AcDbEntity
  8
ASSI
100
AcDbLine
 62
7
  6
CONTINUOUS
 10
-10.2553500779
 20
-5.1749773271
 11
-11.15
 21
-5.1749773271
  0
LINE
  5
45A
100
AcDbEntity
  8
RACCORDO
100
AcDbLine
 62
7
  6
CONTINUOUS
 10
7.5841007192
 20
-21.3126932437
 11
7.6375346208
 21
-21.3881838872
  0
LINE
  5
45B
100
AcDbEntity
  8
ASSI
100
AcDbLine
 62
7
  6
CONTINUOUS
 10
7.5841007192
 20
-21.3126932437
 11
7.6375346208
 21
-21.3881838872
  0
LINE
  5
45C
100
AcDbEntity
  8
RACCORDO
100
AcDbLine
 62
7
  6
CONTINUOUS
 10
7.6375346208
 20
-21.3881838872
 11
7.7167764984
 21
-21.5011382645
  0
LINE
  5
45D
100
AcDbEntity
  8
ASSI
100
AcDbLine
 62
7
  6
CONTINUOUS
 10
7.6375346208
 20
-21.3881838872
 11
7.7167764984
 21
-21.5011382645
  0
LWPOLYLINE
  5
45E
100
AcDbEntity
  8
RACCORDO
100
AcDbPolyline
 62
7
  6
CONTINUOUS
 90
5
 70
0
 10
7.7167764984
 20
-21.5011382645
 10
7.7685136093
 20
-21.5758926167
 10
7.7939545568
 20
-21.6129888844
 10
7.818929804
 20
-21.6499179842
 10
7.843380061
 20
-21.6866457638
  0
LWPOLYLINE
  5
45F
100
AcDbEntity
  8
ASSI
100
AcDbPolyline
 62
7
  6
CONTINUOUS
 90
5
 70
0
 10
7.7167764984
 20
-21.5011382645
 10
7.7685136093
 20
-21.5758926167
 10
7.7939545568
 20
-21.6129888844
 10
7.818929804
 20
-21.6499179842
 10
7.843380061
 20
-21.6866457638
  0
LINE
  5
460
100
AcDbEntity
  8
0
100
AcDbLine
 62
7
  6
CONTINUOUS
 10
6.555294768
 20
-20.0829433217
 11
6.4790558127
 21
-19.968583276
  0
LINE
  5
461
100
AcDbEntity
  8
ASSI
100
AcDbLine
 62
7
  6
CONTINUOUS
 10
6.555294768
 20
-20.0829433217
 11
6.4790558127
 21
-19.968583276
  0
LINE
  5
462
100
AcDbEntity
  8
RACCORDO
100
AcDbLine
 62
7
  6
CONTINUOUS
 10
7.843380061
 20
-21.6866457638
 11
7.8908834737
 21
-21.7591165263
  0
LINE
  5
463
100
AcDbEntity
  8
ASSI
100
AcDbLine
 62
7
  6
CONTINUOUS
 10
7.843380061
 20
-21.6866457638
 11
7.8908834737
 21
-21.7591165263
  0
LINE
  5
464
100
AcDbEntity
  8
0
100
AcDbLine
 62
7
  6
CONTINUOUS
 10
-4.5
 20
-6.0371801653
 11
-4.5
 21
-10.952092431
  0
LINE
  5
465
100
AcDbEntity
  8
RACCORDO
100
AcDbLine
 62
7
  6
CONTINUOUS
 10
-4.5
 20
-20.0
 11
-4.5
 21
-17.3
  0
LINE
  5
466
100
AcDbEntity
  8
ASSI
100
AcDbLine
 62
7
  6
CONTINUOUS
 10
-4.5
 20
-20.0
 11
-4.5
 21
-17.3
  0
LINE
  5
467
100
AcDbEntity
  8
DRAFT
100
AcDbLine
 62
7
  6
CONTINUOUS
 10
-4.4
 20
23.8
 11
-4.4
 21
22.4
  0
LINE
  5
468
100
AcDbEntity
  8
ASSI
100
AcDbLine
 62
7
  6
CONTINUOUS
 10
-4.4
 20
23.8
 11
-4.4
 21
22.4
  0
LINE
  5
469
100
AcDbEntity
  8
DRAFT
100
AcDbLine
 62
7
  6
CONTINUOUS
 10
-4.4
 20
-22.4
 11
-4.4
 21
-23.8
  0
LINE
  5
46A
100
AcDbEntity
  8
ASSI
100
AcDbLine
 62
7
  6
CONTINUOUS
 10
-4.4
 20
-22.4
 11
-4.4
 21
-23.8
  0
LINE
  5
46B
100
AcDbEntity
  8
ASSI
100
AcDbLine
 62
7
  6
CONTINUOUS
 10
-4.3559327327
 20
-22.3338981669
 11
-4.3559327327
 21
-23.7507734247
  0
LINE
  5
46C
100
AcDbEntity
  8
ASSI
100
AcDbLine
 62
7
  6
CONTINUOUS
 10
-4.3559327327
 20
22.3338981669
 11
-4.3559327327
 21
23.7507734247
  0
LINE
  5
46D
100
AcDbEntity
  8
ASSI
100
AcDbLine
 62
7
  6
CONTINUOUS
 10
-3.5
 20
-22.3339198952
 11
-3.5
 21
-23.7511422903
  0
LINE
  5
46E
100
AcDbEntity
  8
ASSI
100
AcDbLine
 62
7
  6
CONTINUOUS
 10
-3.5
 20
-23.7563493531
 11
-3.5
 21
-23.7941821702
  0
LINE
  5
46F
100
AcDbEntity
  8
RACCORDO
100
AcDbLine
 62
7
  6
CONTINUOUS
 10
-3.5
 20
-16.2
 11
-3.5
 21
-14.7
  0
LINE
  5
470
100
AcDbEntity
  8
DRAFT
100
AcDbLine
 62
7
  6
CONTINUOUS
 10
-3.5
 20
-14.7
 11
-3.5
 21
-13.9
  0
LINE
  5
471
100
AcDbEntity
  8
ASSI
100
AcDbLine
 62
7
  6
CONTINUOUS
 10
-3.5
 20
-16.2
 11
-3.5
 21
-13.9
  0
LINE
  5
472
100
AcDbEntity
  8
ASSI
100
AcDbLine
 62
7
  6
CONTINUOUS
 10
-3.5
 20
23.7563493531
 11
-3.5
 21
23.7941821702
  0
LINE
  5
473
100
AcDbEntity
  8
ASSI
100
AcDbLine
 62
7
  6
CONTINUOUS
 10
-3.5
 20
22.3339198952
 11
-3.5
 21
23.7511422903
  0
LINE
  5
474
100
AcDbEntity
  8
RACCORDO
100
AcDbLine
 62
7
  6
CONTINUOUS
 10
-3.4
 20
-15.7
 11
-3.4
 21
-14.3
  0
LINE
  5
475
100
AcDbEntity
  8
RACCORDO
100
AcDbLine
 62
253
  6
CONTINUOUS
 10
-6.4777885798
 20
-19.3872364074
 11
-6.5581782981
 21
-20.0309207141
  0
LINE
  5
476
100
AcDbEntity
  8
0
100
AcDbLine
 62
253
  6
CONTINUOUS
 10
-6.4668936269
 20
-19.3
 11
-6.4598569743
 21
-19.243657187
  0
LINE
  5
477
100
AcDbEntity
  8
ASSI
100
AcDbLine
 62
253
  6
CONTINUOUS
 10
-6.4777885798
 20
-19.3872364074
 11
-6.5581782981
 21
-20.0309207141
  0
LINE
  5
478
100
AcDbEntity
  8
ASSI
100
AcDbLine
 62
253
  6
CONTINUOUS
 10
-6.4668936269
 20
-19.3
 11
-6.4598569743
 21
-19.243657187
  0
LINE
  5
479
100
AcDbEntity
  8
RACCORDO
100
AcDbLine
 62
7
  6
CONTINUOUS
 10
-8.2525445259
 20
-24.2855823661
 11
-8.2545176323
 21
-24.2973162875
  0
LWPOLYLINE
  5
47A
100
AcDbEntity
  8
ASSI
100
AcDbPolyline
 62
7
  6
CONTINUOUS
 90
6
 70
0
 10
-8.2525445259
 20
-24.2855823661
 10
-8.2545176323
 20
-24.2973162875
 10
-8.2570468183
 20
-24.3089430388
 10
-8.2601263583
 20
-24.320436279
 10
-8.2637492787
 20
-24.3317699738
 10
-8.2679073742
 20
-24.3429184493
  0
LINE
  5
47B
100
AcDbEntity
  8
RACCORDO
100
AcDbLine
 62
7
  6
CONTINUOUS
 10
-9.4946499221
 20
-14.7
 11
-9.5212892833
 21
-14.7799830745
  0
LINE
  5
47C
100
AcDbEntity
  8
ASSI
100
AcDbLine
 62
7
  6
CONTINUOUS
 10
-9.4946499221
 20
-14.7
 11
-9.5212892833
 21
-14.7799830745
  0
LINE
  5
47D
100
AcDbEntity
  8
CURVE
100
AcDbLine
 62
7
  6
CONTINUOUS
 10
-11.1150898701
 20
-5.0
 11
-10.220439948
 21
-5.0
  0
LINE
  5
47E
100
AcDbEntity
  8
ASSI
100
AcDbLine
 62
7
  6
CONTINUOUS
 10
-11.1150898701
 20
-5.0
 11
-10.220439948
 21
-5.0
  0
LINE
  5
47F
100
AcDbEntity
  8
CURVE
100
AcDbLine
 62
7
  6
CONTINUOUS
 10
11.1150898701
 20
-5.0
 11
10.220439948
 21
-5.0
  0
LINE
  5
480
100
AcDbEntity
  8
ASSI
100
AcDbLine
 62
7
  6
CONTINUOUS
 10
11.1150898701
 20
-5.0
 11
10.220439948
 21
-5.0
  0
LINE
  5
481
100
AcDbEntity
  8
0
100
AcDbLine
 62
7
  6
CONTINUOUS
 10
6.45
 20
-4.6855792922
 11
-6.45
 21
-4.6855792922
  0
LINE
  5
482
100
AcDbEntity
  8
0
100
AcDbLine
 62
7
  6
CONTINUOUS
 10
6.55
 20
-4.5845439608
 11
6.45
 21
-4.5845439608
  0
LINE
  5
483
100
AcDbEntity
  8
0
100
AcDbLine
 62
7
  6
CONTINUOUS
 10
-6.45
 20
-4.5845439608
 11
-6.55
 21
-4.5845439608
  0
LINE
  5
484
100
AcDbEntity
  8
0
100
AcDbLine
 62
7
  6
CONTINUOUS
 10
-6.45
 20
-4.1120028559
 11
-6.15
 21
-4.1120028559
  0
LINE
  5
485
100
AcDbEntity
  8
0
100
AcDbLine
 62
7
  6
CONTINUOUS
 10
6.15
 20
-4.1120028559
 11
6.45
 21
-4.1120028559
  0
LINE
  5
486
100
AcDbEntity
  8
0
100
AcDbLine
 62
7
  6
CONTINUOUS
 10
9.4946499221
 20
-4.0645837402
 11
8.9
 21
-4.0645837402
  0
LINE
  5
487
100
AcDbEntity
  8
ASSI
100
AcDbLine
 62
7
  6
CONTINUOUS
 10
9.4946499221
 20
-4.0645837402
 11
8.9
 21
-4.0645837402
  0
LINE
  5
488
100
AcDbEntity
  8
0
100
AcDbLine
 62
7
  6
CONTINUOUS
 10
-8.9
 20
-4.0645837402
 11
-9.4946499221
 21
-4.0645837402
  0
LINE
  5
489
100
AcDbEntity
  8
ASSI
100
AcDbLine
 62
7
  6
CONTINUOUS
 10
-8.9
 20
-4.0645837402
 11
-9.4946499221
 21
-4.0645837402
  0
LINE
  5
48A
100
AcDbEntity
  8
0
100
AcDbLine
 62
7
  6
CONTINUOUS
 10
-9.5592336624
 20
-4.0
 11
-8.9
 21
-4.0
  0
LINE
  5
48B
100
AcDbEntity
  8
ASSI
100
AcDbLine
 62
7
  6
CONTINUOUS
 10
-9.5592336624
 20
-4.0
 11
-8.9
 21
-4.0
  0
LINE
  5
48C
100
AcDbEntity
  8
0
100
AcDbLine
 62
7
  6
CONTINUOUS
 10
8.9
 20
-4.0
 11
9.5592336624
 21
-4.0
  0
LINE
  5
48D
100
AcDbEntity
  8
ASSI
100
AcDbLine
 62
7
  6
CONTINUOUS
 10
8.9
 20
-4.0
 11
9.5592336624
 21
-4.0
  0
LINE
  5
48E
100
AcDbEntity
  8
RACCORDO
100
AcDbLine
 62
7
  6
CONTINUOUS
 10
9.9976142915
 20
-3.6502498994
 11
6.3927373471
 21
-3.6502498994
  0
LINE
  5
48F
100
AcDbEntity
  8
RACCORDO
100
AcDbLine
 62
7
  6
CONTINUOUS
 10
-6.3927373471
 20
-3.6502498994
 11
-9.9976142915
 21
-3.6502498994
  0
LINE
  5
490
100
AcDbEntity
  8
0
100
AcDbLine
 62
7
  6
CONTINUOUS
 10
-6.15
 20
-3.5384264195
 11
-5.9
 21
-3.5384264195
  0
LINE
  5
491
100
AcDbEntity
  8
0
100
AcDbLine
 62
7
  6
CONTINUOUS
 10
5.9
 20
-3.5384264195
 11
6.15
 21
-3.5384264195
  0
LWPOLYLINE
  5
492
100
AcDbEntity
  8
RACCORDO
100
AcDbPolyline
 62
7
  6
CONTINUOUS
 90
5
 70
0
 10
-8.2545176323
 20
24.2973162875
 10
-8.2525445259
 20
24.2855823661
 10
-8.2511319658
 20
24.2737678556
 10
-8.2502831502
 20
24.261899516
 10
-8.25
 20
24.2500042308
  0
LINE
  5
493
100
AcDbEntity
  8
0
100
AcDbLine
 62
253
  6
CONTINUOUS
 10
-6.5581782981
 20
20.0309207141
 11
-6.5232713192
 21
19.7514188702
  0
LINE
  5
494
100
AcDbEntity
  8
ASSI
100
AcDbLine
 62
253
  6
CONTINUOUS
 10
-6.5581782981
 20
20.0309207141
 11
-6.5232713192
 21
19.7514188702
  0
LINE
  5
495
100
AcDbEntity
  8
RACCORDO
100
AcDbLine
 62
7
  6
CONTINUOUS
 10
-3.0
 20
-21.0
 11
-3.0
 21
-22.3912731322
  0
LINE
  5
496
100
AcDbEntity
  8
ASSI
100
AcDbLine
 62
7
  6
CONTINUOUS
 10
-3.0
 20
-21.0
 11
-3.0
 21
-22.3912731322
  0
LINE
  5
497
100
AcDbEntity
  8
RACCORDO
100
AcDbLine
 62
7
  6
CONTINUOUS
 10
-3.0
 20
21.0
 11
-3.0
 21
22.3912731322
  0
LINE
  5
498
100
AcDbEntity
  8
ASSI
100
AcDbLine
 62
7
  6
CONTINUOUS
 10
-3.0
 20
21.0
 11
-3.0
 21
22.3912731322
  0
LWPOLYLINE
  5
499
100
AcDbEntity
  8
RACCORDO
100
AcDbPolyline
 62
7
  6
CONTINUOUS
 90
23
 70
0
 10
-8.2545176323
 20
-24.2973162875
 10
-8.2570468183
 20
-24.3089430388
 10
-8.2601263583
 20
-24.320436279
 10
-8.2637492787
 20
-24.3317699738
 10
-8.2679073742
 20
-24.3429184493
 10
-8.2725912278
 20
-24.3538564463
 10
-8.2777902312
 20
-24.3645591876
 10
-8.2834926084
 20
-24.3750024283
 10
-8.2896854419
 20
-24.3851625059
 10
-8.2963547045
 20
-24.3950164051
 10
-8.3034852893
 20
-24.4045418038
 10
-8.3110610411
 20
-24.4137171191
 10
-8.3190647995
 20
-24.4225215661
 10
-8.3274784339
 20
-24.4309352005
 10
-8.3362828809
 20
-24.4389389589
 10
-8.3454581962
 20
-24.4465147107
 10
-8.3549835949
 20
-24.4536452955
 10
-8.3648374941
 20
-24.4603145581
 10
-8.3749975717
 20
-24.4665073916
 10
-8.3854408124
 20
-24.4722097688
 10
-8.3961435537
 20
-24.4774087722
 10
-8.4070815507
 20
-24.4820926258
 10
-8.4182300262
 20
-24.4862507213
  0
LINE
  5
49A
100
AcDbEntity
  8
RACCORDO
100
AcDbLine
 62
253
  6
CONTINUOUS
 10
-9.5871617663
 20
-20.2111031425
 11
-9.65
 21
-20.3997711479
  0
LINE
  5
49B
100
AcDbEntity
  8
ASSI
100
AcDbLine
 62
253
  6
CONTINUOUS
 10
-9.5871617663
 20
-20.2111031425
 11
-9.65
 21
-20.3997711479
  0
LINE
  5
49C
100
AcDbEntity
  8
RACCORDO
100
AcDbLine
 62
253
  6
CONTINUOUS
 10
-9.087542366
 20
-20.7113319946
 11
-9.1503805997
 21
-20.9
  0
LINE
  5
49D
100
AcDbEntity
  8
ASSI
100
AcDbLine
 62
253
  6
CONTINUOUS
 10
-9.087542366
 20
-20.7113319946
 11
-9.1503805997
 21
-20.9
  0
LWPOLYLINE
  5
49E
100
AcDbEntity
  8
ASSI
100
AcDbPolyline
 62
7
  6
CONTINUOUS
 90
16
 70
0
 10
8.2679073742
 20
24.3429184493
 10
8.2725912278
 20
24.3538564463
 10
8.2777902312
 20
24.3645591876
 10
8.2834926084
 20
24.3750024283
 10
8.2896854419
 20
24.3851625059
 10
8.2963547045
 20
24.3950164051
 10
8.3034852893
 20
24.4045418038
 10
8.3110610411
 20
24.4137171191
 10
8.3190647995
 20
24.4225215661
 10
8.3274784339
 20
24.4309352005
 10
8.3362828809
 20
24.4389389589
 10
8.3454581962
 20
24.4465147107
 10
8.3549835949
 20
24.4536452955
 10
8.3648374941
 20
24.4603145581
 10
8.3749975717
 20
24.4665073916
 10
8.3854408124
 20
24.4722097688
  0
LINE
  5
49F
100
AcDbEntity
  8
CURVE
100
AcDbLine
 62
7
  6
CONTINUOUS
 10
8.0353536961
 20
10.8060666977
 11
9.0230693374
 21
11.8111550457
  0
LINE
  5
4A0
100
AcDbEntity
  8
ASSI
100
AcDbLine
 62
7
  6
CONTINUOUS
 10
8.0353536961
 20
10.8060666977
 11
9.0230693374
 21
11.8111550457
  0
LINE
  5
4A1
100
AcDbEntity
  8
CURVE
100
AcDbLine
 62
7
  6
CONTINUOUS
 10
8.05
 20
10.8
 11
9.05
 21
11.8
  0
LINE
  5
4A2
100
AcDbEntity
  8
ASSI
100
AcDbLine
 62
7
  6
CONTINUOUS
 10
8.05
 20
10.8
 11
9.05
 21
11.8
  0
LINE
  5
4A3
100
AcDbEntity
  8
CURVE
100
AcDbLine
 62
7
  6
CONTINUOUS
 10
9.5592336624
 20
7.132101539
 11
9.65
 21
7.169698187
  0
LINE
  5
4A4
100
AcDbEntity
  8
ASSI
100
AcDbLine
 62
7
  6
CONTINUOUS
 10
9.5592336624
 20
7.132101539
 11
9.65
 21
7.169698187
  0
LINE
  5
4A5
100
AcDbEntity
  8
CURVE
100
AcDbLine
 62
7
  6
CONTINUOUS
 10
10.1645837402
 20
6.5267514611
 11
10.2553500779
 21
6.5643481092
  0
LINE
  5
4A6
100
AcDbEntity
  8
ASSI
100
AcDbLine
 62
7
  6
CONTINUOUS
 10
10.1645837402
 20
6.5267514611
 11
10.2553500779
 21
6.5643481092
  0
LINE
  5
4A7
100
AcDbEntity
  8
0
100
AcDbLine
 62
7
  6
CONTINUOUS
 10
-6.0518305447
 20
-2.9633519859
 11
6.0518305447
 21
-2.9633519859
  0
LINE
  5
4A8
100
AcDbEntity
  8
DRAFT
100
AcDbLine
 62
7
  6
CONTINUOUS
 10
-6.3931931883
 20
-2.8031007712
 11
-6.3607299323
 21
-2.8031007712
  0
LINE
  5
4A9
100
AcDbEntity
  8
DRAFT
100
AcDbLine
 62
7
  6
CONTINUOUS
 10
6.3931931883
 20
-2.8031007712
 11
6.3607299323
 21
-2.8031007712
  0
LINE
  5
4AA
100
AcDbEntity
  8
CURVE
100
AcDbLine
 62
7
  6
CONTINUOUS
 10
9.5592336624
 20
-7.132101539
 11
9.65
 21
-7.169698187
  0
LINE
  5
4AB
100
AcDbEntity
  8
ASSI
100
AcDbLine
 62
7
  6
CONTINUOUS
 10
9.5592336624
 20
-7.132101539
 11
9.65
 21
-7.169698187
  0
LINE
  5
4AC
100
AcDbEntity
  8
CURVE
100
AcDbLine
 62
7
  6
CONTINUOUS
 10
10.1645837402
 20
-6.5267514611
 11
10.2553500779
 21
-6.5643481092
  0
LINE
  5
4AD
100
AcDbEntity
  8
ASSI
100
AcDbLine
 62
7
  6
CONTINUOUS
 10
10.1645837402
 20
-6.5267514611
 11
10.2553500779
 21
-6.5643481092
  0
LINE
  5
4AE
100
AcDbEntity
  8
RACCORDO
100
AcDbLine
 62
253
  6
CONTINUOUS
 10
-9.65
 20
20.3997711479
 11
-9.4946499221
 21
19.9333419123
  0
LINE
  5
4AF
100
AcDbEntity
  8
ASSI
100
AcDbLine
 62
253
  6
CONTINUOUS
 10
-9.65
 20
20.3997711479
 11
-9.4946499221
 21
19.9333419123
  0
LINE
  5
4B0
100
AcDbEntity
  8
RACCORDO
100
AcDbLine
 62
253
  6
CONTINUOUS
 10
-9.1503805997
 20
20.9
 11
-8.9950305219
 21
20.4335707644
  0
LINE
  5
4B1
100
AcDbEntity
  8
ASSI
100
AcDbLine
 62
253
  6
CONTINUOUS
 10
-9.1503805997
 20
20.9
 11
-8.9950305219
 21
20.4335707644
  0
LWPOLYLINE
  5
4B2
100
AcDbEntity
  8
ASSI
100
AcDbPolyline
 62
7
  6
CONTINUOUS
 90
17
 70
0
 10
-4.3559327327
 20
-23.7507734247
 10
-4.3555072846
 20
-23.7479907344
 10
-4.3544117387
 20
-23.7445445202
 10
-4.352627049
 20
-23.7404347823
 10
-4.3501336376
 20
-23.7356747975
 10
-4.3469153347
 20
-23.7302512888
 10
-4.3429632158
 20
-23.7241244261
 10
-4.3382668343
 20
-23.7172868866
 10
-4.3328161451
 20
-23.709745993
 10
-4.3266108951
 20
-23.7014838836
 10
-4.3196635086
 20
-23.6925202225
 10
-4.3119585062
 20
-23.6828353457
 10
-4.3034472137
 20
-23.6723523989
 10
-4.2941144665
 20
-23.6610710839
 10
-4.2839567081
 20
-23.6489916989
 10
-4.2729264894
 20
-23.6360382845
 10
-4.2610120715
 20
-23.6222095469
  0
LINE
  5
4B3
100
AcDbEntity
  8
0
100
AcDbLine
 62
7
  6
CONTINUOUS
 10
9.4946499221
 20
9.8946499221
 11
10.1
 21
10.5
  0
LINE
  5
4B4
100
AcDbEntity
  8
ASSI
100
AcDbLine
 62
7
  6
CONTINUOUS
 10
9.4946499221
 20
9.8946499221
 11
10.1
 21
10.5
  0
LINE
  5
4B5
100
AcDbEntity
  8
0
100
AcDbLine
 62
7
  6
CONTINUOUS
 10
9.65
 20
9.830301813
 11
10.2553500779
 21
10.4356518908
  0
LINE
  5
4B6
100
AcDbEntity
  8
ASSI
100
AcDbLine
 62
7
  6
CONTINUOUS
 10
9.65
 20
9.830301813
 11
10.2553500779
 21
10.4356518908
  0
LINE
  5
4B7
100
AcDbEntity
  8
RACCORDO
100
AcDbLine
 62
7
  6
CONTINUOUS
 10
-6.0696329754
 20
-0.023529263
 11
6.0696329754
 21
-0.023529263
  0
LINE
  5
4B8
100
AcDbEntity
  8
0
100
AcDbLine
 62
7
  6
CONTINUOUS
 10
-9.4946499221
 20
8.6
 11
-9.5549460544
 21
8.6602961322
  0
LINE
  5
4B9
100
AcDbEntity
  8
ASSI
100
AcDbLine
 62
7
  6
CONTINUOUS
 10
-9.4946499221
 20
8.6
 11
-9.5549460544
 21
8.6602961322
  0
LINE
  5
4BA
100
AcDbEntity
  8
0
100
AcDbLine
 62
7
  6
CONTINUOUS
 10
-10.2553500779
 20
10.4356518908
 11
-9.65
 21
9.830301813
  0
LINE
  5
4BB
100
AcDbEntity
  8
ASSI
100
AcDbLine
 62
7
  6
CONTINUOUS
 10
-10.2553500779
 20
10.4356518908
 11
-9.65
 21
9.830301813
  0
LWPOLYLINE
  5
4BC
100
AcDbEntity
  8
ASSI
100
AcDbPolyline
 62
7
  6
CONTINUOUS
 90
9
 70
0
 10
8.2679073742
 20
-24.3429184493
 10
8.2637492787
 20
-24.3317699738
 10
8.2601263583
 20
-24.320436279
 10
8.2570468183
 20
-24.3089430388
 10
8.2545176323
 20
-24.2973162875
 10
8.2525445259
 20
-24.2855823661
 10
8.2511319658
 20
-24.2737678556
 10
8.2502831502
 20
-24.261899516
 10
8.25
 20
-24.2500042308
  0
LWPOLYLINE
  5
4BD
100
AcDbEntity
  8
ASSI
100
AcDbPolyline
 62
7
  6
CONTINUOUS
 90
18
 70
0
 10
4.3559327327
 20
23.7507734247
 10
4.3555058115
 20
23.7479814955
 10
4.3544077005
 20
23.7445314173
 10
4.3526214372
 20
23.7404231902
 10
4.350130014
 20
23.7356694746
 10
4.3469191573
 20
23.73025761
 10
4.3429800271
 20
23.7241496156
 10
4.3383040725
 20
23.7173410493
 10
4.332881764
 20
23.7098363532
 10
4.3267078213
 20
23.7016108734
 10
4.3197926931
 20
23.6926849926
 10
4.3121207612
 20
23.6830383283
 10
4.3036380254
 20
23.672585078
 10
4.2943239331
 20
23.6613209741
 10
4.284175878
 20
23.6492502843
 10
4.2731507556
 20
23.6363000104
 10
4.2612377117
 20
23.6224696064
 10
4.2484283399
 20
23.6077596184
  0
LWPOLYLINE
  5
4BE
100
AcDbEntity
  8
ASSI
100
AcDbPolyline
 62
7
  6
CONTINUOUS
 90
16
 70
0
 10
-8.2679073742
 20
-24.3429184493
 10
-8.2725912278
 20
-24.3538564463
 10
-8.2777902312
 20
-24.3645591876
 10
-8.2834926084
 20
-24.3750024283
 10
-8.2896854419
 20
-24.3851625059
 10
-8.2963547045
 20
-24.3950164051
 10
-8.3034852893
 20
-24.4045418038
 10
-8.3110610411
 20
-24.4137171191
 10
-8.3190647995
 20
-24.4225215661
 10
-8.3274784339
 20
-24.4309352005
 10
-8.3362828809
 20
-24.4389389589
 10
-8.3454581962
 20
-24.4465147107
 10
-8.3549835949
 20
-24.4536452955
 10
-8.3648374941
 20
-24.4603145581
 10
-8.3749975717
 20
-24.4665073916
 10
-8.3854408124
 20
-24.4722097688
  0
LINE
  5
4BF
100
AcDbEntity
  8
0
100
AcDbLine
 62
7
  6
CONTINUOUS
 10
9.4946499221
 20
8.6
 11
9.5549460544
 21
8.6602961322
  0
LINE
  5
4C0
100
AcDbEntity
  8
ASSI
100
AcDbLine
 62
7
  6
CONTINUOUS
 10
9.4946499221
 20
8.6
 11
9.5549460544
 21
8.6602961322
  0
LINE
  5
4C1
100
AcDbEntity
  8
DRAFT
100
AcDbLine
 62
7
  6
CONTINUOUS
 10
6.0
 20
1.501143709
 11
6.3849901075
 21
1.501143709
  0
LINE
  5
4C2
100
AcDbEntity
  8
DRAFT
100
AcDbLine
 62
7
  6
CONTINUOUS
 10
-6.0
 20
1.501143709
 11
-6.3849901075
 21
1.501143709
  0
LINE
  5
4C3
100
AcDbEntity
  8
0
100
AcDbLine
 62
7
  6
CONTINUOUS
 10
-10.1
 20
10.5
 11
-9.4946499221
 21
9.8946499221
  0
LINE
  5
4C4
100
AcDbEntity
  8
ASSI
100
AcDbLine
 62
7
  6
CONTINUOUS
 10
-10.1
 20
10.5
 11
-9.4946499221
 21
9.8946499221
  0
LINE
  5
4C5
100
AcDbEntity
  8
CURVE
100
AcDbLine
 62
7
  6
CONTINUOUS
 10
-9.05
 20
11.8
 11
-8.05
 21
10.8
  0
LINE
  5
4C6
100
AcDbEntity
  8
ASSI
100
AcDbLine
 62
7
  6
CONTINUOUS
 10
-9.05
 20
11.8
 11
-8.05
 21
10.8
  0
LINE
  5
4C7
100
AcDbEntity
  8
CURVE
100
AcDbLine
 62
7
  6
CONTINUOUS
 10
-9.0230693374
 20
11.8111550457
 11
-8.0353536961
 21
10.8060666977
  0
LINE
  5
4C8
100
AcDbEntity
  8
ASSI
100
AcDbLine
 62
7
  6
CONTINUOUS
 10
-9.0230693374
 20
11.8111550457
 11
-8.0353536961
 21
10.8060666977
  0
LWPOLYLINE
  5
4C9
100
AcDbEntity
  8
ASSI
100
AcDbPolyline
 62
7
  6
CONTINUOUS
 90
9
 70
0
 10
-8.2679073742
 20
24.3429184493
 10
-8.2637492787
 20
24.3317699738
 10
-8.2601263583
 20
24.320436279
 10
-8.2570468183
 20
24.3089430388
 10
-8.2545176323
 20
24.2973162875
 10
-8.2525445259
 20
24.2855823661
 10
-8.2511319658
 20
24.2737678556
 10
-8.2502831502
 20
24.261899516
 10
-8.25
 20
24.2500042308
  0
LINE
  5
4CA
100
AcDbEntity
  8
RACCORDO
100
AcDbLine
 62
7
  6
CONTINUOUS
 10
3.0
 20
-21.0
 11
3.0
 21
-22.3912731322
  0
LINE
  5
4CB
100
AcDbEntity
  8
ASSI
100
AcDbLine
 62
7
  6
CONTINUOUS
 10
3.0
 20
-21.0
 11
3.0
 21
-22.3912731322
  0
LINE
  5
4CC
100
AcDbEntity
  8
RACCORDO
100
AcDbLine
 62
7
  6
CONTINUOUS
 10
3.0
 20
21.0
 11
3.0
 21
22.3912731322
  0
LINE
  5
4CD
100
AcDbEntity
  8
ASSI
100
AcDbLine
 62
7
  6
CONTINUOUS
 10
3.0
 20
21.0
 11
3.0
 21
22.3912731322
  0
LINE
  5
4CE
100
AcDbEntity
  8
RACCORDO
100
AcDbLine
 62
7
  6
CONTINUOUS
 10
3.4
 20
-14.3
 11
3.4
 21
-15.7
  0
LINE
  5
4CF
100
AcDbEntity
  8
ASSI
100
AcDbLine
 62
7
  6
CONTINUOUS
 10
3.5
 20
-22.3339198952
 11
3.5
 21
-23.7511422903
  0
LINE
  5
4D0
100
AcDbEntity
  8
ASSI
100
AcDbLine
 62
7
  6
CONTINUOUS
 10
3.5
 20
-23.7563493531
 11
3.5
 21
-23.7941821702
  0
LINE
  5
4D1
100
AcDbEntity
  8
RACCORDO
100
AcDbLine
 62
7
  6
CONTINUOUS
 10
3.5
 20
-16.2
 11
3.5
 21
-14.7
  0
LINE
  5
4D2
100
AcDbEntity
  8
DRAFT
100
AcDbLine
 62
7
  6
CONTINUOUS
 10
3.5
 20
-14.7
 11
3.5
 21
-13.9
  0
LINE
  5
4D3
100
AcDbEntity
  8
ASSI
100
AcDbLine
 62
7
  6
CONTINUOUS
 10
3.5
 20
-16.2
 11
3.5
 21
-13.9
  0
LINE
  5
4D4
100
AcDbEntity
  8
ASSI
100
AcDbLine
 62
7
  6
CONTINUOUS
 10
3.5
 20
23.7563493531
 11
3.5
 21
23.7941821702
  0
LINE
  5
4D5
100
AcDbEntity
  8
ASSI
100
AcDbLine
 62
7
  6
CONTINUOUS
 10
3.5
 20
22.3339198952
 11
3.5
 21
23.7511422903
  0
LWPOLYLINE
  5
4D6
100
AcDbEntity
  8
RACCORDO
100
AcDbPolyline
 62
7
  6
CONTINUOUS
 90
23
 70
0
 10
8.2545176323
 20
24.2973162875
 10
8.2570468183
 20
24.3089430388
 10
8.2601263583
 20
24.320436279
 10
8.2637492787
 20
24.3317699738
 10
8.2679073742
 20
24.3429184493
 10
8.2725912278
 20
24.3538564463
 10
8.2777902312
 20
24.3645591876
 10
8.2834926084
 20
24.3750024283
 10
8.2896854419
 20
24.3851625059
 10
8.2963547045
 20
24.3950164051
 10
8.3034852893
 20
24.4045418038
 10
8.3110610411
 20
24.4137171191
 10
8.3190647995
 20
24.4225215661
 10
8.3274784339
 20
24.4309352005
 10
8.3362828809
 20
24.4389389589
 10
8.3454581962
 20
24.4465147107
 10
8.3549835949
 20
24.4536452955
 10
8.3648374941
 20
24.4603145581
 10
8.3749975717
 20
24.4665073916
 10
8.3854408124
 20
24.4722097688
 10
8.3961435537
 20
24.4774087722
 10
8.4070815507
 20
24.4820926258
 10
8.4182300262
 20
24.4862507213
  0
LINE
  5
4D7
100
AcDbEntity
  8
RACCORDO
100
AcDbLine
 62
253
  6
CONTINUOUS
 10
8.9950305219
 20
20.4335707644
 11
9.1503805997
 21
20.9
  0
LINE
  5
4D8
100
AcDbEntity
  8
ASSI
100
AcDbLine
 62
253
  6
CONTINUOUS
 10
8.9950305219
 20
20.4335707644
 11
9.1503805997
 21
20.9
  0
LINE
  5
4D9
100
AcDbEntity
  8
RACCORDO
100
AcDbLine
 62
253
  6
CONTINUOUS
 10
9.4946499221
 20
19.9333419123
 11
9.65
 21
20.3997711479
  0
LINE
  5
4DA
100
AcDbEntity
  8
ASSI
100
AcDbLine
 62
253
  6
CONTINUOUS
 10
9.4946499221
 20
19.9333419123
 11
9.65
 21
20.3997711479
  0
LINE
  5
4DB
100
AcDbEntity
  8
CURVE
100
AcDbLine
 62
7
  6
CONTINUOUS
 10
-10.1645837402
 20
-6.5267514611
 11
-10.2553500779
 21
-6.5643481092
  0
LINE
  5
4DC
100
AcDbEntity
  8
ASSI
100
AcDbLine
 62
7
  6
CONTINUOUS
 10
-10.1645837402
 20
-6.5267514611
 11
-10.2553500779
 21
-6.5643481092
  0
LINE
  5
4DD
100
AcDbEntity
  8
CURVE
100
AcDbLine
 62
7
  6
CONTINUOUS
 10
-9.5592336624
 20
-7.132101539
 11
-9.65
 21
-7.169698187
  0
LINE
  5
4DE
100
AcDbEntity
  8
ASSI
100
AcDbLine
 62
7
  6
CONTINUOUS
 10
-9.5592336624
 20
-7.132101539
 11
-9.65
 21
-7.169698187
  0
LINE
  5
4DF
100
AcDbEntity
  8
0
100
AcDbLine
 62
7
  6
CONTINUOUS
 10
6.0
 20
2.1974229467
 11
-6.0
 21
2.1974229467
  0
LINE
  5
4E0
100
AcDbEntity
  8
RACCORDO
100
AcDbLine
 62
7
  6
CONTINUOUS
 10
6.0849919352
 20
2.5127883802
 11
-6.0849919352
 21
2.5127883802
  0
LINE
  5
4E1
100
AcDbEntity
  8
0
100
AcDbLine
 62
7
  6
CONTINUOUS
 10
8.9
 20
3.7455693088
 11
-8.9
 21
3.7455693088
  0
LINE
  5
4E2
100
AcDbEntity
  8
CURVE
100
AcDbLine
 62
7
  6
CONTINUOUS
 10
-10.1645837402
 20
6.5267514611
 11
-10.2553500779
 21
6.5643481092
  0
LINE
  5
4E3
100
AcDbEntity
  8
ASSI
100
AcDbLine
 62
7
  6
CONTINUOUS
 10
-10.1645837402
 20
6.5267514611
 11
-10.2553500779
 21
6.5643481092
  0
LINE
  5
4E4
100
AcDbEntity
  8
CURVE
100
AcDbLine
 62
7
  6
CONTINUOUS
 10
-9.5592336624
 20
7.132101539
 11
-9.65
 21
7.169698187
  0
LINE
  5
4E5
100
AcDbEntity
  8
ASSI
100
AcDbLine
 62
7
  6
CONTINUOUS
 10
-9.5592336624
 20
7.132101539
 11
-9.65
 21
7.169698187
  0
LINE
  5
4E6
100
AcDbEntity
  8
RACCORDO
100
AcDbLine
 62
253
  6
CONTINUOUS
 10
9.1503805997
 20
-20.9
 11
9.087542366
 21
-20.7113319946
  0
LINE
  5
4E7
100
AcDbEntity
  8
ASSI
100
AcDbLine
 62
253
  6
CONTINUOUS
 10
9.1503805997
 20
-20.9
 11
9.087542366
 21
-20.7113319946
  0
LINE
  5
4E8
100
AcDbEntity
  8
RACCORDO
100
AcDbLine
 62
253
  6
CONTINUOUS
 10
9.65
 20
-20.3997711479
 11
9.5871617663
 21
-20.2111031425
  0
LINE
  5
4E9
100
AcDbEntity
  8
ASSI
100
AcDbLine
 62
253
  6
CONTINUOUS
 10
9.65
 20
-20.3997711479
 11
9.5871617663
 21
-20.2111031425
  0
LINE
  5
4EA
100
AcDbEntity
  8
RACCORDO
100
AcDbLine
 62
7
  6
CONTINUOUS
 10
7.3189158022
 20
-19.3223140069
 11
7.31792796
 21
-19.3125949478
  0
LINE
  5
4EB
100
AcDbEntity
  8
ASSI
100
AcDbLine
 62
7
  6
CONTINUOUS
 10
7.3189158022
 20
-19.3223140069
 11
7.31792796
 21
-19.3125949478
  0
LWPOLYLINE
  5
4EC
100
AcDbEntity
  8
RACCORDO
100
AcDbPolyline
 62
7
  6
CONTINUOUS
 90
9
 70
0
 10
7.31792796
 20
-19.3125949478
 10
7.317445803
 20
-19.3076323464
 10
7.3172723881
 20
-19.3056113207
 10
7.3171503613
 20
-19.3038989606
 10
7.3170775386
 20
-19.302496418
 10
7.3170596533
 20
-19.301404691
 10
7.3170986163
 20
-19.3006244529
 10
7.3171925165
 20
-19.3001561334
 10
7.3173413541
 20
-19.3
  0
LWPOLYLINE
  5
4ED
100
AcDbEntity
  8
ASSI
100
AcDbPolyline
 62
7
  6
CONTINUOUS
 90
9
 70
0
 10
7.31792796
 20
-19.3125949478
 10
7.317445803
 20
-19.3076323464
 10
7.3172723881
 20
-19.3056113207
 10
7.3171503613
 20
-19.3038989606
 10
7.3170775386
 20
-19.302496418
 10
7.3170596533
 20
-19.301404691
 10
7.3170986163
 20
-19.3006244529
 10
7.3171925165
 20
-19.3001561334
 10
7.3173413541
 20
-19.3
  0
LINE
  5
4EE
100
AcDbEntity
  8
ASSI
100
AcDbLine
 62
7
  6
CONTINUOUS
 10
4.3559327327
 20
-22.3338981669
 11
4.3559327327
 21
-23.7507734247
  0
LINE
  5
4EF
100
AcDbEntity
  8
ASSI
100
AcDbLine
 62
7
  6
CONTINUOUS
 10
4.3559327327
 20
22.3338981669
 11
4.3559327327
 21
23.7507734247
  0
LINE
  5
4F0
100
AcDbEntity
  8
DRAFT
100
AcDbLine
 62
7
  6
CONTINUOUS
 10
4.4
 20
-23.8
 11
4.4
 21
-22.4
  0
LINE
  5
4F1
100
AcDbEntity
  8
ASSI
100
AcDbLine
 62
7
  6
CONTINUOUS
 10
4.4
 20
-23.8
 11
4.4
 21
-22.4
  0
LINE
  5
4F2
100
AcDbEntity
  8
DRAFT
100
AcDbLine
 62
7
  6
CONTINUOUS
 10
4.4
 20
22.4
 11
4.4
 21
23.8
  0
LINE
  5
4F3
100
AcDbEntity
  8
ASSI
100
AcDbLine
 62
7
  6
CONTINUOUS
 10
4.4
 20
22.4
 11
4.4
 21
23.8
  0
LINE
  5
4F4
100
AcDbEntity
  8
RACCORDO
100
AcDbLine
 62
7
  6
CONTINUOUS
 10
4.5
 20
-20.0
 11
4.5
 21
-17.3
  0
LINE
  5
4F5
100
AcDbEntity
  8
ASSI
100
AcDbLine
 62
7
  6
CONTINUOUS
 10
4.5
 20
-20.0
 11
4.5
 21
-17.3
  0
LINE
  5
4F6
100
AcDbEntity
  8
0
100
AcDbLine
 62
7
  6
CONTINUOUS
 10
4.5
 20
-10.952092431
 11
4.5
 21
-6.0371801653
  0
LINE
  5
4F7
100
AcDbEntity
  8
0
100
AcDbLine
 62
253
  6
CONTINUOUS
 10
6.5581782981
 20
20.0309207141
 11
6.5232713192
 21
19.7514188702
  0
LINE
  5
4F8
100
AcDbEntity
  8
ASSI
100
AcDbLine
 62
253
  6
CONTINUOUS
 10
6.5581782981
 20
20.0309207141
 11
6.5232713192
 21
19.7514188702
  0
LINE
  5
4F9
100
AcDbEntity
  8
RACCORDO
100
AcDbLine
 62
7
  6
CONTINUOUS
 10
8.2525445259
 20
24.2855823661
 11
8.2545176323
 21
24.2973162875
  0
LWPOLYLINE
  5
4FA
100
AcDbEntity
  8
ASSI
100
AcDbPolyline
 62
7
  6
CONTINUOUS
 90
6
 70
0
 10
8.2525445259
 20
24.2855823661
 10
8.2545176323
 20
24.2973162875
 10
8.2570468183
 20
24.3089430388
 10
8.2601263583
 20
24.320436279
 10
8.2637492787
 20
24.3317699738
 10
8.2679073742
 20
24.3429184493
  0
LWPOLYLINE
  5
4FB
100
AcDbEntity
  8
RACCORDO
100
AcDbPolyline
 62
7
  6
CONTINUOUS
 90
4
 70
0
 10
-7.8908834737
 20
-21.7591165263
 10
-7.843380061
 20
-21.6866457638
 10
-7.818929804
 20
-21.6499179842
 10
-7.7939545568
 20
-21.6129888844
  0
LWPOLYLINE
  5
4FC
100
AcDbEntity
  8
ASSI
100
AcDbPolyline
 62
7
  6
CONTINUOUS
 90
4
 70
0
 10
-7.8908834737
 20
-21.7591165263
 10
-7.843380061
 20
-21.6866457638
 10
-7.818929804
 20
-21.6499179842
 10
-7.7939545568
 20
-21.6129888844
  0
LINE
  5
4FD
100
AcDbEntity
  8
RACCORDO
100
AcDbLine
 62
7
  6
CONTINUOUS
 10
-9.9976142915
 20
4.0403433245
 11
-8.9
 21
4.0403433245
  0
LINE
  5
4FE
100
AcDbEntity
  8
RACCORDO
100
AcDbLine
 62
7
  6
CONTINUOUS
 10
8.9
 20
4.0403433245
 11
9.9976142915
 21
4.0403433245
  0
LINE
  5
4FF
100
AcDbEntity
  8
DRAFT
100
AcDbLine
 62
7
  6
CONTINUOUS
 10
-10.0
 20
4.9914624407
 11
-8.9
 21
4.9914624407
  0
LINE
  5
500
100
AcDbEntity
  8
DRAFT
100
AcDbLine
 62
7
  6
CONTINUOUS
 10
8.9
 20
4.9914624407
 11
10.0
 21
4.9914624407
  0
LINE
  5
501
100
AcDbEntity
  8
CURVE
100
AcDbLine
 62
7
  6
CONTINUOUS
 10
-10.9949524219
 20
5.0
 11
-11.1150898701
 21
5.0
  0
LINE
  5
502
100
AcDbEntity
  8
CURVE
100
AcDbLine
 62
7
  6
CONTINUOUS
 10
10.9949524219
 20
5.0
 11
11.1150898701
 21
5.0
  0
LINE
  5
503
100
AcDbEntity
  8
ASSI
100
AcDbLine
 62
7
  6
CONTINUOUS
 10
10.9949524219
 20
5.0
 11
11.1150898701
 21
5.0
  0
LINE
  5
504
100
AcDbEntity
  8
ASSI
100
AcDbLine
 62
7
  6
CONTINUOUS
 10
-10.9949524219
 20
5.0
 11
-11.1150898701
 21
5.0
  0
LINE
  5
505
100
AcDbEntity
  8
ASSI
100
AcDbLine
 62
7
  6
CONTINUOUS
 10
8.9
 20
5.0562125796
 11
6.25
 21
5.0562125796
  0
LINE
  5
506
100
AcDbEntity
  8
ASSI
100
AcDbLine
 62
7
  6
CONTINUOUS
 10
-6.25
 20
5.0562125796
 11
-8.9
 21
5.0562125796
  0
LINE
  5
507
100
AcDbEntity
  8
CURVE
100
AcDbLine
 62
7
  6
CONTINUOUS
 10
-10.9231668096
 20
5.1749773271
 11
-11.15
 21
5.1749773271
  0
LINE
  5
508
100
AcDbEntity
  8
CURVE
100
AcDbLine
 62
7
  6
CONTINUOUS
 10
10.9231668096
 20
5.1749773271
 11
11.15
 21
5.1749773271
  0
LINE
  5
509
100
AcDbEntity
  8
ASSI
100
AcDbLine
 62
7
  6
CONTINUOUS
 10
-10.9231668096
 20
5.1749773271
 11
-11.15
 21
5.1749773271
  0
LINE
  5
50A
100
AcDbEntity
  8
ASSI
100
AcDbLine
 62
7
  6
CONTINUOUS
 10
10.9231668096
 20
5.1749773271
 11
11.15
 21
5.1749773271
  0
LINE
  5
50B
100
AcDbEntity
  8
RACCORDO
100
AcDbLine
 62
7
  6
CONTINUOUS
 10
-7.843380061
 20
21.6866457638
 11
-7.8908834737
 21
21.7591165263
  0
LINE
  5
50C
100
AcDbEntity
  8
ASSI
100
AcDbLine
 62
7
  6
CONTINUOUS
 10
-7.843380061
 20
21.6866457638
 11
-7.8908834737
 21
21.7591165263
  0
LINE
  5
50D
100
AcDbEntity
  8
RACCORDO
100
AcDbLine
 62
7
  6
CONTINUOUS
 10
9.4946499221
 20
-14.7
 11
9.5212892833
 21
-14.7799830745
  0
LINE
  5
50E
100
AcDbEntity
  8
ASSI
100
AcDbLine
 62
7
  6
CONTINUOUS
 10
9.4946499221
 20
-14.7
 11
9.5212892833
 21
-14.7799830745
  0
LWPOLYLINE
  5
50F
100
AcDbEntity
  8
RACCORDO
100
AcDbPolyline
 62
7
  6
CONTINUOUS
 90
5
 70
0
 10
8.2545176323
 20
-24.2973162875
 10
8.2525445259
 20
-24.2855823661
 10
8.2511319658
 20
-24.2737678556
 10
8.2502831502
 20
-24.261899516
 10
8.25
 20
-24.2500042308
  0
LINE
  5
510
100
AcDbEntity
  8
RACCORDO
100
AcDbLine
 62
253
  6
CONTINUOUS
 10
6.5581782981
 20
-20.0309207141
 11
6.4777885798
 21
-19.3872364074
  0
LINE
  5
511
100
AcDbEntity
  8
0
100
AcDbLine
 62
253
  6
CONTINUOUS
 10
6.4668936269
 20
-19.3
 11
6.4598569743
 21
-19.243657187
  0
LINE
  5
512
100
AcDbEntity
  8
ASSI
100
AcDbLine
 62
253
  6
CONTINUOUS
 10
6.5581782981
 20
-20.0309207141
 11
6.4777885798
 21
-19.3872364074
  0
LINE
  5
513
100
AcDbEntity
  8
ASSI
100
AcDbLine
 62
253
  6
CONTINUOUS
 10
6.4668936269
 20
-19.3
 11
6.4598569743
 21
-19.243657187
  0
LWPOLYLINE
  5
514
100
AcDbEntity
  8
RACCORDO
100
AcDbPolyline
 62
7
  6
CONTINUOUS
 90
61
 70
0
 10
7.2418217019
 20
-20.0309207141
 10
7.2413421294
 20
-20.0129183324
 10
7.2399373032
 20
-19.9950619539
 10
7.2376072232
 20
-19.9773515786
 10
7.2343396566
 20
-19.9597376769
 10
7.2301468362
 20
-19.9422697784
 10
7.2250654609
 20
-19.9250964717
 10
7.2190890632
 20
-19.9082234103
 10
7.2122241105
 20
-19.8916449407
 10
7.2045267039
 20
-19.87549269
 10
7.1959905948
 20
-19.8597696753
 10
7.1866220317
 20
-19.8444728796
 10
7.1764958613
 20
-19.8297248794
 10
7.1656033601
 20
-19.8155275393
 10
7.1539532514
 20
-19.8018789947
 10
7.1416465521
 20
-19.788896228
 10
7.128683059
 20
-19.7765891569
 10
7.1150629753
 20
-19.7649478638
 10
7.1008879273
 20
-19.7540595783
 10
7.0861460313
 20
-19.7439253473
 10
7.070849171
 20
-19.734544124
 10
7.0551346241
 20
-19.7259999978
 10
7.0390072976
 20
-19.7183041173
 10
7.0224622844
 20
-19.711445334
 10
7.0056221411
 20
-19.7054742916
 10
6.9884769293
 20
-19.7003954101
 10
6.9710365874
 20
-19.6962042694
 10
6.9534534864
 20
-19.692938254
 10
6.9357308303
 20
-19.690606355
 10
6.9178654152
 20
-19.6891995812
 10
6.9
 20
-19.6887283431
 10
6.8821345848
 20
-19.6891995812
 10
6.8642691697
 20
-19.690606355
 10
6.8465465136
 20
-19.692938254
 10
6.8289634126
 20
-19.6962042694
 10
6.8115230707
 20
-19.7003954101
 10
6.7943778589
 20
-19.7054742916
 10
6.7775377156
 20
-19.711445334
 10
6.7609927024
 20
-19.7183041173
 10
6.7448653759
 20
-19.7259999978
 10
6.729150829
 20
-19.734544124
 10
6.7138539687
 20
-19.7439253473
 10
6.6991120727
 20
-19.7540595783
 10
6.6849370247
 20
-19.7649478638
 10
6.671316941
 20
-19.7765891569
 10
6.6583534479
 20
-19.788896228
 10
6.6460467486
 20
-19.8018789947
 10
6.6343966399
 20
-19.8155275393
 10
6.6235041387
 20
-19.8297248794
 10
6.6133779683
 20
-19.8444728796
 10
6.6040094052
 20
-19.8597696753
 10
6.5954732961
 20
-19.87549269
 10
6.5877758895
 20
-19.8916449407
 10
6.5809109368
 20
-19.9082234103
 10
6.5749345391
 20
-19.9250964717
 10
6.5698531638
 20
-19.9422697784
 10
6.5656603434
 20
-19.9597376769
 10
6.5623927768
 20
-19.9773515786
 10
6.5600626968
 20
-19.9950619539
 10
6.5586578706
 20
-20.0129183324
 10
6.5581782981
 20
-20.0309207141
  0
LWPOLYLINE
  5
515
100
AcDbEntity
  8
ASSI
100
AcDbPolyline
 62
7
  6
CONTINUOUS
 90
61
 70
0
 10
7.2418217019
 20
-20.0309207141
 10
7.2413421294
 20
-20.0129183324
 10
7.2399373032
 20
-19.9950619539
 10
7.2376072232
 20
-19.9773515786
 10
7.2343396566
 20
-19.9597376769
 10
7.2301468362
 20
-19.9422697784
 10
7.2250654609
 20
-19.9250964717
 10
7.2190890632
 20
-19.9082234103
 10
7.2122241105
 20
-19.8916449407
 10
7.2045267039
 20
-19.87549269
 10
7.1959905948
 20
-19.8597696753
 10
7.1866220317
 20
-19.8444728796
 10
7.1764958613
 20
-19.8297248794
 10
7.1656033601
 20
-19.8155275393
 10
7.1539532514
 20
-19.8018789947
 10
7.1416465521
 20
-19.788896228
 10
7.128683059
 20
-19.7765891569
 10
7.1150629753
 20
-19.7649478638
 10
7.1008879273
 20
-19.7540595783
 10
7.0861460313
 20
-19.7439253473
 10
7.070849171
 20
-19.734544124
 10
7.0551346241
 20
-19.7259999978
 10
7.0390072976
 20
-19.7183041173
 10
7.0224622844
 20
-19.711445334
 10
7.0056221411
 20
-19.7054742916
 10
6.9884769293
 20
-19.7003954101
 10
6.9710365874
 20
-19.6962042694
 10
6.9534534864
 20
-19.692938254
 10
6.9357308303
 20
-19.690606355
 10
6.9178654152
 20
-19.6891995812
 10
6.9
 20
-19.6887283431
 10
6.8821345848
 20
-19.6891995812
 10
6.8642691697
 20
-19.690606355
 10
6.8465465136
 20
-19.692938254
 10
6.8289634126
 20
-19.6962042694
 10
6.8115230707
 20
-19.7003954101
 10
6.7943778589
 20
-19.7054742916
 10
6.7775377156
 20
-19.711445334
 10
6.7609927024
 20
-19.7183041173
 10
6.7448653759
 20
-19.7259999978
 10
6.729150829
 20
-19.734544124
 10
6.7138539687
 20
-19.7439253473
 10
6.6991120727
 20
-19.7540595783
 10
6.6849370247
 20
-19.7649478638
 10
6.671316941
 20
-19.7765891569
 10
6.6583534479
 20
-19.788896228
 10
6.6460467486
 20
-19.8018789947
 10
6.6343966399
 20
-19.8155275393
 10
6.6235041387
 20
-19.8297248794
 10
6.6133779683
 20
-19.8444728796
 10
6.6040094052
 20
-19.8597696753
 10
6.5954732961
 20
-19.87549269
 10
6.5877758895
 20
-19.8916449407
 10
6.5809109368
 20
-19.9082234103
 10
6.5749345391
 20
-19.9250964717
 10
6.5698531638
 20
-19.9422697784
 10
6.5656603434
 20
-19.9597376769
 10
6.5623927768
 20
-19.9773515786
 10
6.5600626968
 20
-19.9950619539
 10
6.5586578706
 20
-20.0129183324
 10
6.5581782981
 20
-20.0309207141
  0
LWPOLYLINE
  5
516
100
AcDbEntity
  8
RACCORDO
100
AcDbPolyline
 62
7
  6
CONTINUOUS
 90
61
 70
0
 10
6.5581782981
 20
20.0309207141
 10
6.5586578706
 20
20.0129183324
 10
6.5600626968
 20
19.9950619539
 10
6.5623927768
 20
19.9773515786
 10
6.5656603434
 20
19.9597376769
 10
6.5698531638
 20
19.9422697784
 10
6.5749345391
 20
19.9250964717
 10
6.5809109368
 20
19.9082234103
 10
6.5877758895
 20
19.8916449407
 10
6.5954732961
 20
19.87549269
 10
6.6040094052
 20
19.8597696753
 10
6.6133779683
 20
19.8444728796
 10
6.6235041387
 20
19.8297248794
 10
6.6343966399
 20
19.8155275393
 10
6.6460467486
 20
19.8018789947
 10
6.6583534479
 20
19.788896228
 10
6.671316941
 20
19.7765891569
 10
6.6849370247
 20
19.7649478638
 10
6.6991120727
 20
19.7540595783
 10
6.7138539687
 20
19.7439253473
 10
6.729150829
 20
19.734544124
 10
6.7448653759
 20
19.7259999978
 10
6.7609927024
 20
19.7183041173
 10
6.7775377156
 20
19.711445334
 10
6.7943778589
 20
19.7054742916
 10
6.8115230707
 20
19.7003954101
 10
6.8289634126
 20
19.6962042694
 10
6.8465465136
 20
19.692938254
 10
6.8642691697
 20
19.690606355
 10
6.8821345848
 20
19.6891995812
 10
6.9
 20
19.6887283431
 10
6.9178654152
 20
19.6891995812
 10
6.9357308303
 20
19.690606355
 10
6.9534534864
 20
19.692938254
 10
6.9710365874
 20
19.6962042694
 10
6.9884769293
 20
19.7003954101
 10
7.0056221411
 20
19.7054742916
 10
7.0224622844
 20
19.711445334
 10
7.0390072976
 20
19.7183041173
 10
7.0551346241
 20
19.7259999978
 10
7.070849171
 20
19.734544124
 10
7.0861460313
 20
19.7439253473
 10
7.1008879273
 20
19.7540595783
 10
7.1150629753
 20
19.7649478638
 10
7.128683059
 20
19.7765891569
 10
7.1416465521
 20
19.788896228
 10
7.1539532514
 20
19.8018789947
 10
7.1656033601
 20
19.8155275393
 10
7.1764958613
 20
19.8297248794
 10
7.1866220317
 20
19.8444728796
 10
7.1959905948
 20
19.8597696753
 10
7.2045267039
 20
19.87549269
 10
7.2122241105
 20
19.8916449407
 10
7.2190890632
 20
19.9082234103
 10
7.2250654609
 20
19.9250964717
 10
7.2301468362
 20
19.9422697784
 10
7.2343396566
 20
19.9597376769
 10
7.2376072232
 20
19.9773515786
 10
7.2399373032
 20
19.9950619539
 10
7.2413421294
 20
20.0129183324
 10
7.2418217019
 20
20.0309207141
  0
LWPOLYLINE
  5
517
100
AcDbEntity
  8
ASSI
100
AcDbPolyline
 62
7
  6
CONTINUOUS
 90
61
 70
0
 10
6.5581782981
 20
20.0309207141
 10
6.5586578706
 20
20.0129183324
 10
6.5600626968
 20
19.9950619539
 10
6.5623927768
 20
19.9773515786
 10
6.5656603434
 20
19.9597376769
 10
6.5698531638
 20
19.9422697784
 10
6.5749345391
 20
19.9250964717
 10
6.5809109368
 20
19.9082234103
 10
6.5877758895
 20
19.8916449407
 10
6.5954732961
 20
19.87549269
 10
6.6040094052
 20
19.8597696753
 10
6.6133779683
 20
19.8444728796
 10
6.6235041387
 20
19.8297248794
 10
6.6343966399
 20
19.8155275393
 10
6.6460467486
 20
19.8018789947
 10
6.6583534479
 20
19.788896228
 10
6.671316941
 20
19.7765891569
 10
6.6849370247
 20
19.7649478638
 10
6.6991120727
 20
19.7540595783
 10
6.7138539687
 20
19.7439253473
 10
6.729150829
 20
19.734544124
 10
6.7448653759
 20
19.7259999978
 10
6.7609927024
 20
19.7183041173
 10
6.7775377156
 20
19.711445334
 10
6.7943778589
 20
19.7054742916
 10
6.8115230707
 20
19.7003954101
 10
6.8289634126
 20
19.6962042694
 10
6.8465465136
 20
19.692938254
 10
6.8642691697
 20
19.690606355
 10
6.8821345848
 20
19.6891995812
 10
6.9
 20
19.6887283431
 10
6.9178654152
 20
19.6891995812
 10
6.9357308303
 20
19.690606355
 10
6.9534534864
 20
19.692938254
 10
6.9710365874
 20
19.6962042694
 10
6.9884769293
 20
19.7003954101
 10
7.0056221411
 20
19.7054742916
 10
7.0224622844
 20
19.711445334
 10
7.0390072976
 20
19.7183041173
 10
7.0551346241
 20
19.7259999978
 10
7.070849171
 20
19.734544124
 10
7.0861460313
 20
19.7439253473
 10
7.1008879273
 20
19.7540595783
 10
7.1150629753
 20
19.7649478638
 10
7.128683059
 20
19.7765891569
 10
7.1416465521
 20
19.788896228
 10
7.1539532514
 20
19.8018789947
 10
7.1656033601
 20
19.8155275393
 10
7.1764958613
 20
19.8297248794
 10
7.1866220317
 20
19.8444728796
 10
7.1959905948
 20
19.8597696753
 10
7.2045267039
 20
19.87549269
 10
7.2122241105
 20
19.8916449407
 10
7.2190890632
 20
19.9082234103
 10
7.2250654609
 20
19.9250964717
 10
7.2301468362
 20
19.9422697784
 10
7.2343396566
 20
19.9597376769
 10
7.2376072232
 20
19.9773515786
 10
7.2399373032
 20
19.9950619539
 10
7.2413421294
 20
20.0129183324
 10
7.2418217019
 20
20.0309207141
  0
LINE
  5
518
100
AcDbEntity
  8
0
100
AcDbLine
 62
7
  6
CONTINUOUS
 10
6.3225496058
 20
13.8475670731
 11
6.3091978363
 21
14.9399894222
  0
LINE
  5
519
100
AcDbEntity
  8
ASSI
100
AcDbLine
 62
7
  6
CONTINUOUS
 10
6.3225496058
 20
13.8475670731
 11
6.3091978363
 21
14.9399894222
  0
LINE
  5
51A
100
AcDbEntity
  8
0
100
AcDbLine
 62
7
  6
CONTINUOUS
 10
6.3267937453
 20
15.5924539101
 11
6.3442735424
 21
14.1622823604
  0
LINE
  5
51B
100
AcDbEntity
  8
ASSI
100
AcDbLine
 62
7
  6
CONTINUOUS
 10
6.3267937453
 20
15.5924539101
 11
6.3442735424
 21
14.1622823604
  0
LINE
  5
51C
100
AcDbEntity
  8
0
100
AcDbLine
 62
7
  6
CONTINUOUS
 10
6.4596089231
 20
17.5125735809
 11
6.4487325156
 21
19.3820692387
  0
LINE
  5
51D
100
AcDbEntity
  8
ASSI
100
AcDbLine
 62
7
  6
CONTINUOUS
 10
6.4596089231
 20
17.5125735809
 11
6.4487325156
 21
19.3820692387
  0
LWPOLYLINE
  5
51E
100
AcDbEntity
  8
RACCORDO
100
AcDbPolyline
 62
7
  6
CONTINUOUS
 90
12
 70
0
 10
7.3222114202
 20
-19.3872364074
 10
7.3222037194
 20
-19.3803138767
 10
7.3221304173
 20
-19.3736540128
 10
7.3219915139
 20
-19.3672609073
 10
7.3217762442
 20
-19.3611384838
 10
7.3214953732
 20
-19.3552904947
 10
7.321181196
 20
-19.3497205191
 10
7.3208350512
 20
-19.3444321228
 10
7.3204556002
 20
-19.3394283549
 10
7.3200711219
 20
-19.3347118344
 10
7.319683164
 20
-19.3302854852
 10
7.3189158022
 20
-19.3223140069
  0
LWPOLYLINE
  5
51F
100
AcDbEntity
  8
ASSI
100
AcDbPolyline
 62
7
  6
CONTINUOUS
 90
12
 70
0
 10
7.3222114202
 20
-19.3872364074
 10
7.3222037194
 20
-19.3803138767
 10
7.3221304173
 20
-19.3736540128
 10
7.3219915139
 20
-19.3672609073
 10
7.3217762442
 20
-19.3611384838
 10
7.3214953732
 20
-19.3552904947
 10
7.321181196
 20
-19.3497205191
 10
7.3208350512
 20
-19.3444321228
 10
7.3204556002
 20
-19.3394283549
 10
7.3200711219
 20
-19.3347118344
 10
7.319683164
 20
-19.3302854852
 10
7.3189158022
 20
-19.3223140069
  0
LINE
  5
520
100
AcDbEntity
  8
0
100
AcDbLine
 62
7
  6
CONTINUOUS
 10
5.9
 20
-2.9648499832
 11
5.9
 21
-3.5384264195
  0
LINE
  5
521
100
AcDbEntity
  8
0
100
AcDbLine
 62
7
  6
CONTINUOUS
 10
6.0
 20
2.1974229467
 11
6.0
 21
-0.023529263
  0
LINE
  5
522
100
AcDbEntity
  8
0
100
AcDbLine
 62
7
  6
CONTINUOUS
 10
6.15
 20
-3.5384264195
 11
6.15
 21
-4.1120028559
  0
LINE
  5
523
100
AcDbEntity
  8
ASSI
100
AcDbLine
 62
7
  6
CONTINUOUS
 10
6.25
 20
5.0562125796
 11
6.25
 21
13.8475670731
  0
LINE
  5
524
100
AcDbEntity
  8
0
100
AcDbLine
 62
7
  6
CONTINUOUS
 10
6.3258467315
 20
15.8009747569
 11
6.3258467315
 21
15.764526841
  0
LINE
  5
525
100
AcDbEntity
  8
ASSI
100
AcDbLine
 62
7
  6
CONTINUOUS
 10
6.3258467315
 20
15.8009747569
 11
6.3258467315
 21
15.764526841
  0
LINE
  5
526
100
AcDbEntity
  8
0
100
AcDbLine
 62
7
  6
CONTINUOUS
 10
6.3516319481
 20
16.4283680519
 11
6.3516319481
 21
17.3215691524
  0
LINE
  5
527
100
AcDbEntity
  8
ASSI
100
AcDbLine
 62
7
  6
CONTINUOUS
 10
6.3516319481
 20
16.4283680519
 11
6.3516319481
 21
17.3215691524
  0
LINE
  5
528
100
AcDbEntity
  8
RACCORDO
100
AcDbLine
 62
7
  6
CONTINUOUS
 10
6.351828717
 20
-3.209096102
 11
6.351828717
 21
-4.1120028559
  0
LINE
  5
529
100
AcDbEntity
  8
DRAFT
100
AcDbLine
 62
7
  6
CONTINUOUS
 10
6.3607299323
 20
-4.1120028559
 11
6.3607299323
 21
-2.4852125236
  0
LINE
  5
52A
100
AcDbEntity
  8
RACCORDO
100
AcDbLine
 62
7
  6
CONTINUOUS
 10
6.3696311477
 20
-1.0225926109
 11
6.3696311477
 21
-0.2692733792
  0
LINE
  5
52B
100
AcDbEntity
  8
RACCORDO
100
AcDbLine
 62
7
  6
CONTINUOUS
 10
6.3849901075
 20
2.2670442641
 11
6.3849901075
 21
1.501143709
  0
LINE
  5
52C
100
AcDbEntity
  8
DRAFT
100
AcDbLine
 62
7
  6
CONTINUOUS
 10
6.3931931883
 20
2.8490483344
 11
6.3931931883
 21
-2.8031007712
  0
LINE
  5
52D
100
AcDbEntity
  8
RACCORDO
100
AcDbLine
 62
7
  6
CONTINUOUS
 10
6.3942403901
 20
3.7455693088
 11
6.3942403901
 21
1.501143709
  0
LINE
  5
52E
100
AcDbEntity
  8
0
100
AcDbLine
 62
7
  6
CONTINUOUS
 10
6.4482213147
 20
19.594201273
 11
6.4482213147
 21
19.9223308767
  0
LINE
  5
52F
100
AcDbEntity
  8
ASSI
100
AcDbLine
 62
7
  6
CONTINUOUS
 10
6.4482213147
 20
19.594201273
 11
6.4482213147
 21
19.9223308767
  0
LINE
  5
530
100
AcDbEntity
  8
0
100
AcDbLine
 62
7
  6
CONTINUOUS
 10
6.45
 20
-4.1120028559
 11
6.45
 21
-12.3036933041
  0
LINE
  5
531
100
AcDbEntity
  8
0
100
AcDbLine
 62
7
  6
CONTINUOUS
 10
6.4598569743
 20
-19.243657187
 11
6.4598569743
 21
-19.3
  0
LINE
  5
532
100
AcDbEntity
  8
ASSI
100
AcDbLine
 62
7
  6
CONTINUOUS
 10
6.4598569743
 20
-19.243657187
 11
6.4598569743
 21
-19.3
  0
LINE
  5
533
100
AcDbEntity
  8
RACCORDO
100
AcDbLine
 62
7
  6
CONTINUOUS
 10
6.4790558127
 20
-19.968583276
 11
6.4790558127
 21
-19.8
  0
LINE
  5
534
100
AcDbEntity
  8
ASSI
100
AcDbLine
 62
7
  6
CONTINUOUS
 10
6.4790558127
 20
-19.968583276
 11
6.4790558127
 21
-19.8
  0
LINE
  5
535
100
AcDbEntity
  8
0
100
AcDbLine
 62
7
  6
CONTINUOUS
 10
6.5
 20
15.9541648703
 11
6.5
 21
16.28
  0
LINE
  5
536
100
AcDbEntity
  8
ASSI
100
AcDbLine
 62
7
  6
CONTINUOUS
 10
6.5
 20
15.9541648703
 11
6.5
 21
16.28
  0
LINE
  5
537
100
AcDbEntity
  8
0
100
AcDbLine
 62
7
  6
CONTINUOUS
 10
6.5232713192
 20
17.3215691524
 11
6.5232713192
 21
19.7514188702
  0
LINE
  5
538
100
AcDbEntity
  8
ASSI
100
AcDbLine
 62
7
  6
CONTINUOUS
 10
6.5232713192
 20
17.3215691524
 11
6.5232713192
 21
19.7514188702
  0
LINE
  5
539
100
AcDbEntity
  8
0
100
AcDbLine
 62
7
  6
CONTINUOUS
 10
6.55
 20
-3.6502498994
 11
6.55
 21
-4.5845439608
  0
LINE
  5
53A
100
AcDbEntity
  8
RACCORDO
100
AcDbLine
 62
7
  6
CONTINUOUS
 10
6.5581782981
 20
20.5829242832
 11
6.5581782981
 21
20.0309207141
  0
LINE
  5
53B
100
AcDbEntity
  8
ASSI
100
AcDbLine
 62
7
  6
CONTINUOUS
 10
6.5581782981
 20
20.5829242832
 11
6.5581782981
 21
20.0309207141
  0
LINE
  5
53C
100
AcDbEntity
  8
RACCORDO
100
AcDbLine
 62
7
  6
CONTINUOUS
 10
6.5581782981
 20
-20.0309207141
 11
6.5581782981
 21
-20.5829242832
  0
LINE
  5
53D
100
AcDbEntity
  8
ASSI
100
AcDbLine
 62
7
  6
CONTINUOUS
 10
6.5581782981
 20
-20.0309207141
 11
6.5581782981
 21
-20.5829242832
  0
LINE
  5
53E
100
AcDbEntity
  8
RACCORDO
100
AcDbLine
 62
7
  6
CONTINUOUS
 10
7.2418217019
 20
20.9959955457
 11
7.2418217019
 21
20.0309207141
  0
LINE
  5
53F
100
AcDbEntity
  8
ASSI
100
AcDbLine
 62
7
  6
CONTINUOUS
 10
7.2418217019
 20
20.9959955457
 11
7.2418217019
 21
20.0309207141
  0
LINE
  5
540
100
AcDbEntity
  8
RACCORDO
100
AcDbLine
 62
7
  6
CONTINUOUS
 10
7.2418217019
 20
-20.0309207141
 11
7.2418217019
 21
-20.9959955457
  0
LINE
  5
541
100
AcDbEntity
  8
ASSI
100
AcDbLine
 62
7
  6
CONTINUOUS
 10
7.2418217019
 20
-20.0309207141
 11
7.2418217019
 21
-20.9959955457
  0
LINE
  5
542
100
AcDbEntity
  8
0
100
AcDbLine
 62
7
  6
CONTINUOUS
 10
7.25
 20
15.9541648703
 11
7.25
 21
10.2757581504
  0
LINE
  5
543
100
AcDbEntity
  8
0
100
AcDbLine
 62
7
  6
CONTINUOUS
 10
7.2767286808
 20
16.9283934415
 11
7.2767286808
 21
19.7514188702
  0
LINE
  5
544
100
AcDbEntity
  8
ASSI
100
AcDbLine
 62
7
  6
CONTINUOUS
 10
7.2767286808
 20
16.9283934415
 11
7.2767286808
 21
19.7514188702
  0
LINE
  5
545
100
AcDbEntity
  8
RACCORDO
100
AcDbLine
 62
7
  6
CONTINUOUS
 10
7.3209441873
 20
-20.7113319946
 11
7.3209441873
 21
-19.8
  0
LINE
  5
546
100
AcDbEntity
  8
ASSI
100
AcDbLine
 62
7
  6
CONTINUOUS
 10
7.3209441873
 20
-20.7113319946
 11
7.3209441873
 21
-19.8
  0
LINE
  5
547
100
AcDbEntity
  8
0
100
AcDbLine
 62
7
  6
CONTINUOUS
 10
7.3261802341
 20
20.6641649932
 11
7.3261802341
 21
16.7800253896
  0
LINE
  5
548
100
AcDbEntity
  8
ASSI
100
AcDbLine
 62
7
  6
CONTINUOUS
 10
7.3261802341
 20
20.6641649932
 11
7.3261802341
 21
16.7800253896
  0
LINE
  5
549
100
AcDbEntity
  8
0
100
AcDbLine
 62
7
  6
CONTINUOUS
 10
7.3401430257
 20
-19.243657187
 11
7.3401430257
 21
-19.3
  0
LINE
  5
54A
100
AcDbEntity
  8
ASSI
100
AcDbLine
 62
7
  6
CONTINUOUS
 10
7.3401430257
 20
-19.243657187
 11
7.3401430257
 21
-19.3
  0
LINE
  5
54B
100
AcDbEntity
  8
RACCORDO
100
AcDbLine
 62
253
  6
CONTINUOUS
 10
6.0924571802
 20
3.7455693088
 11
6.0849919352
 21
2.5127883802
  0
LINE
  5
54C
100
AcDbEntity
  8
RACCORDO
100
AcDbLine
 62
253
  6
CONTINUOUS
 10
6.0696329754
 20
-0.023529263
 11
6.0518305447
 21
-2.9633519859
  0
LINE
  5
54D
100
AcDbEntity
  8
RACCORDO
100
AcDbLine
 62
7
  6
CONTINUOUS
 10
6.3939434839
 20
3.7455693088
 11
6.3849901075
 21
2.2670442641
  0
LINE
  5
54E
100
AcDbEntity
  8
RACCORDO
100
AcDbLine
 62
7
  6
CONTINUOUS
 10
6.3696311477
 20
-0.2692733792
 11
6.351828717
 21
-3.209096102
  0
LINE
  5
54F
100
AcDbEntity
  8
DRAFT
100
AcDbLine
 62
7
  6
CONTINUOUS
 10
6.3607299323
 20
-2.4852125236
 11
6.3696311477
 21
-1.0225926109
  0
LINE
  5
550
100
AcDbEntity
  8
DRAFT
100
AcDbLine
 62
7
  6
CONTINUOUS
 10
6.389651054
 20
2.2670158985
 11
6.3931931883
 21
2.8490483344
  0
LINE
  5
551
100
AcDbEntity
  8
DRAFT
100
AcDbLine
 62
7
  6
CONTINUOUS
 10
6.3931931883
 20
-2.8031007712
 11
6.3852274692
 21
-4.1120028559
  0
LINE
  5
552
100
AcDbEntity
  8
RACCORDO
100
AcDbLine
 62
7
  6
CONTINUOUS
 10
6.3942403901
 20
-3.4045057833
 11
6.3899131307
 21
-4.1120028559
  0
LWPOLYLINE
  5
553
100
AcDbEntity
  8
0
100
AcDbPolyline
 62
7
  6
CONTINUOUS
 90
67
 70
0
 10
6.4598569743
 20
-19.243657187
 10
6.4603604366
 20
-19.2226414068
 10
6.4618515582
 20
-19.2017545924
 10
6.464330339
 20
-19.1809967439
 10
6.4678082749
 20
-19.1603139608
 10
6.47227387
 20
-19.1397601435
 10
6.4776926374
 20
-19.1194969931
 10
6.4840666849
 20
-19.0995411925
 10
6.4913939046
 20
-19.0798760588
 10
6.4996334863
 20
-19.060613244
 10
6.5088002729
 20
-19.0417387743
 10
6.5188794215
 20
-19.0232666235
 10
6.5297855928
 20
-19.005350365
 10
6.5415107067
 20
-18.9880139124
 10
6.5540628434
 20
-18.971233352
 10
6.5673809044
 20
-18.9550905164
 10
6.5814885683
 20
-18.9395689595
 10
6.5963621564
 20
-18.9246851273
 10
6.6118695343
 20
-18.9105701906
 10
6.6279926973
 20
-18.8972486015
 10
6.6447496501
 20
-18.8846959079
 10
6.6620622718
 20
-18.8729699234
 10
6.6799580876
 20
-18.8620605696
 10
6.6984095724
 20
-18.851977925
 10
6.7172560304
 20
-18.8428100393
 10
6.7364775403
 20
-18.8345741336
 10
6.7560940233
 20
-18.8272529867
 10
6.7760045476
 20
-18.8208829851
 10
6.7962289768
 20
-18.8154641439
 10
6.8167474471
 20
-18.8109964481
 10
6.8373994358
 20
-18.807516239
 10
6.8581758909
 20
-18.8050330232
 10
6.8790858644
 20
-18.8035372941
 10
6.8999959896
 20
-18.8030368733
 10
6.9209063973
 20
-18.8035369704
 10
6.9418169566
 20
-18.8050323758
 10
6.9625939079
 20
-18.8075152816
 10
6.9832461507
 20
-18.8109952035
 10
7.0037647855
 20
-18.8154626258
 10
7.0239893542
 20
-18.8208811927
 10
7.043899934
 20
-18.8272508684
 10
7.0635164478
 20
-18.8345716888
 10
7.0827382059
 20
-18.842807406
 10
7.1015854128
 20
-18.8519754157
 10
7.120037864
 20
-18.8620583222
 10
7.1379342569
 20
-18.8729676905
 10
7.1552465672
 20
-18.8846930722
 10
7.1720028192
 20
-18.8972449156
 10
7.1881257823
 20
-18.9105661306
 10
7.2036341104
 20
-18.9246817795
 10
7.2185091498
 20
-18.9395667999
 10
7.2326177086
 20
-18.9550889142
 10
7.2459354047
 20
-18.9712308265
 10
7.2584866203
 20
-18.9880098327
 10
7.2702113103
 20
-19.0053455436
 10
7.281118209
 20
-19.0232629104
 10
7.291198582
 20
-19.0417369818
 10
7.3003661809
 20
-19.0606125144
 10
7.3086056429
 20
-19.0798744173
 10
7.3159323308
 20
-19.0995377814
 10
7.3223060843
 20
-19.1194926359
 10
7.327725133
 20
-19.1397566177
 10
7.3321912474
 20
-19.1603120899
 10
7.3356695788
 20
-19.1809961711
 10
7.3381485108
 20
-19.2017545674
 10
7.3396396598
 20
-19.2226415727
 10
7.3401430257
 20
-19.243657187
  0
LWPOLYLINE
  5
554
100
AcDbEntity
  8
ASSI
100
AcDbPolyline
 62
7
  6
CONTINUOUS
 90
67
 70
0
 10
6.4598569743
 20
-19.243657187
 10
6.4603604366
 20
-19.2226414068
 10
6.4618515582
 20
-19.2017545924
 10
6.464330339
 20
-19.1809967439
 10
6.4678082749
 20
-19.1603139608
 10
6.47227387
 20
-19.1397601435
 10
6.4776926374
 20
-19.1194969931
 10
6.4840666849
 20
-19.0995411925
 10
6.4913939046
 20
-19.0798760588
 10
6.4996334863
 20
-19.060613244
 10
6.5088002729
 20
-19.0417387743
 10
6.5188794215
 20
-19.0232666235
 10
6.5297855928
 20
-19.005350365
 10
6.5415107067
 20
-18.9880139124
 10
6.5540628434
 20
-18.971233352
 10
6.5673809044
 20
-18.9550905164
 10
6.5814885683
 20
-18.9395689595
 10
6.5963621564
 20
-18.9246851273
 10
6.6118695343
 20
-18.9105701906
 10
6.6279926973
 20
-18.8972486015
 10
6.6447496501
 20
-18.8846959079
 10
6.6620622718
 20
-18.8729699234
 10
6.6799580876
 20
-18.8620605696
 10
6.6984095724
 20
-18.851977925
 10
6.7172560304
 20
-18.8428100393
 10
6.7364775403
 20
-18.8345741336
 10
6.7560940233
 20
-18.8272529867
 10
6.7760045476
 20
-18.8208829851
 10
6.7962289768
 20
-18.8154641439
 10
6.8167474471
 20
-18.8109964481
 10
6.8373994358
 20
-18.807516239
 10
6.8581758909
 20
-18.8050330232
 10
6.8790858644
 20
-18.8035372941
 10
6.8999959896
 20
-18.8030368733
 10
6.9209063973
 20
-18.8035369704
 10
6.9418169566
 20
-18.8050323758
 10
6.9625939079
 20
-18.8075152816
 10
6.9832461507
 20
-18.8109952035
 10
7.0037647855
 20
-18.8154626258
 10
7.0239893542
 20
-18.8208811927
 10
7.043899934
 20
-18.8272508684
 10
7.0635164478
 20
-18.8345716888
 10
7.0827382059
 20
-18.842807406
 10
7.1015854128
 20
-18.8519754157
 10
7.120037864
 20
-18.8620583222
 10
7.1379342569
 20
-18.8729676905
 10
7.1552465672
 20
-18.8846930722
 10
7.1720028192
 20
-18.8972449156
 10
7.1881257823
 20
-18.9105661306
 10
7.2036341104
 20
-18.9246817795
 10
7.2185091498
 20
-18.9395667999
 10
7.2326177086
 20
-18.9550889142
 10
7.2459354047
 20
-18.9712308265
 10
7.2584866203
 20
-18.9880098327
 10
7.2702113103
 20
-19.0053455436
 10
7.281118209
 20
-19.0232629104
 10
7.291198582
 20
-19.0417369818
 10
7.3003661809
 20
-19.0606125144
 10
7.3086056429
 20
-19.0798744173
 10
7.3159323308
 20
-19.0995377814
 10
7.3223060843
 20
-19.1194926359
 10
7.327725133
 20
-19.1397566177
 10
7.3321912474
 20
-19.1603120899
 10
7.3356695788
 20
-19.1809961711
 10
7.3381485108
 20
-19.2017545674
 10
7.3396396598
 20
-19.2226415727
 10
7.3401430257
 20
-19.243657187
  0
LWPOLYLINE
  5
555
100
AcDbEntity
  8
0
100
AcDbPolyline
 62
7
  6
CONTINUOUS
 90
64
 70
0
 10
7.2767286808
 20
19.7514188702
 10
7.2762550728
 20
19.7325718718
 10
7.274855105
 20
19.7138527866
 10
7.2725287774
 20
19.6952616146
 10
7.2692649414
 20
19.6767472769
 10
7.2650747455
 20
19.6583608523
 10
7.2599916361
 20
19.6402555776
 10
7.2540112781
 20
19.6224427154
 10
7.2471380066
 20
19.6049110031
 10
7.2394182722
 20
19.5877798889
 10
7.2308408332
 20
19.5710435992
 10
7.2214169313
 20
19.5547079075
 10
7.2112267431
 20
19.5389095833
 10
7.2002729323
 20
19.523663953
 10
7.1885528351
 20
19.5089556902
 10
7.176138637
 20
19.494875584
 10
7.1630128473
 20
19.4814157981
 10
7.1491929565
 20
19.4685841688
 10
7.1348036223
 20
19.4564949941
 10
7.1198573092
 20
19.4451665161
 10
7.1043415527
 20
19.4345804927
 10
7.0883436159
 20
19.4247964945
 10
7.071839231
 20
19.4158089487
 10
7.0548526658
 20
19.4076234282
 10
7.0375439877
 20
19.4003162227
 10
7.0199351596
 20
19.3939030693
 10
7.0020042187
 20
19.388368231
 10
6.9838453439
 20
19.3837407867
 10
6.9654299748
 20
19.3800214757
 10
6.9467866719
 20
19.3772095587
 10
6.9280952957
 20
19.3753318973
 10
6.9093838077
 20
19.3743974332
 10
6.8906242465
 20
19.3743972246
 10
6.8719125878
 20
19.3753313071
 10
6.8532207455
 20
19.377208669
 10
6.8345768058
 20
19.380020322
 10
6.8161610025
 20
19.3837393364
 10
6.7980021953
 20
19.3883663649
 10
6.7800715245
 20
19.3939007548
 10
6.7624626455
 20
19.4003136186
 10
6.7451531851
 20
19.4076208788
 10
6.7281655164
 20
19.4158066128
 10
6.7116604143
 20
19.4247941655
 10
6.6956626448
 20
19.4345776568
 10
6.680147442
 20
19.4451629667
 10
6.6652012831
 20
19.4564910802
 10
6.6508111792
 20
19.4685806721
 10
6.6369901193
 20
19.4814130675
 10
6.6238635479
 20
19.4948732271
 10
6.6114494488
 20
19.5089527777
 10
6.5997298382
 20
19.5236600925
 10
6.5887762087
 20
19.538905251
 10
6.5785854832
 20
19.5547041801
 10
6.5691607388
 20
19.571040953
 10
6.5605826995
 20
19.5877778689
 10
6.5528629112
 20
19.604908552
 10
6.5459898279
 20
19.622439378
 10
6.540009536
 20
19.6402517738
 10
6.5349261848
 20
19.6583574406
 10
6.5307356249
 20
19.6767446771
 10
6.5274714946
 20
19.695259806
 10
6.5251450066
 20
19.7138516016
 10
6.5237449482
 20
19.7325712897
 10
6.5232713192
 20
19.7514188702
  0
LWPOLYLINE
  5
556
100
AcDbEntity
  8
ASSI
100
AcDbPolyline
 62
7
  6
CONTINUOUS
 90
64
 70
0
 10
7.2767286808
 20
19.7514188702
 10
7.2762550728
 20
19.7325718718
 10
7.274855105
 20
19.7138527866
 10
7.2725287774
 20
19.6952616146
 10
7.2692649414
 20
19.6767472769
 10
7.2650747455
 20
19.6583608523
 10
7.2599916361
 20
19.6402555776
 10
7.2540112781
 20
19.6224427154
 10
7.2471380066
 20
19.6049110031
 10
7.2394182722
 20
19.5877798889
 10
7.2308408332
 20
19.5710435992
 10
7.2214169313
 20
19.5547079075
 10
7.2112267431
 20
19.5389095833
 10
7.2002729323
 20
19.523663953
 10
7.1885528351
 20
19.5089556902
 10
7.176138637
 20
19.494875584
 10
7.1630128473
 20
19.4814157981
 10
7.1491929565
 20
19.4685841688
 10
7.1348036223
 20
19.4564949941
 10
7.1198573092
 20
19.4451665161
 10
7.1043415527
 20
19.4345804927
 10
7.0883436159
 20
19.4247964945
 10
7.071839231
 20
19.4158089487
 10
7.0548526658
 20
19.4076234282
 10
7.0375439877
 20
19.4003162227
 10
7.0199351596
 20
19.3939030693
 10
7.0020042187
 20
19.388368231
 10
6.9838453439
 20
19.3837407867
 10
6.9654299748
 20
19.3800214757
 10
6.9467866719
 20
19.3772095587
 10
6.9280952957
 20
19.3753318973
 10
6.9093838077
 20
19.3743974332
 10
6.8906242465
 20
19.3743972246
 10
6.8719125878
 20
19.3753313071
 10
6.8532207455
 20
19.377208669
 10
6.8345768058
 20
19.380020322
 10
6.8161610025
 20
19.3837393364
 10
6.7980021953
 20
19.3883663649
 10
6.7800715245
 20
19.3939007548
 10
6.7624626455
 20
19.4003136186
 10
6.7451531851
 20
19.4076208788
 10
6.7281655164
 20
19.4158066128
 10
6.7116604143
 20
19.4247941655
 10
6.6956626448
 20
19.4345776568
 10
6.680147442
 20
19.4451629667
 10
6.6652012831
 20
19.4564910802
 10
6.6508111792
 20
19.4685806721
 10
6.6369901193
 20
19.4814130675
 10
6.6238635479
 20
19.4948732271
 10
6.6114494488
 20
19.5089527777
 10
6.5997298382
 20
19.5236600925
 10
6.5887762087
 20
19.538905251
 10
6.5785854832
 20
19.5547041801
 10
6.5691607388
 20
19.571040953
 10
6.5605826995
 20
19.5877778689
 10
6.5528629112
 20
19.604908552
 10
6.5459898279
 20
19.622439378
 10
6.540009536
 20
19.6402517738
 10
6.5349261848
 20
19.6583574406
 10
6.5307356249
 20
19.6767446771
 10
6.5274714946
 20
19.695259806
 10
6.5251450066
 20
19.7138516016
 10
6.5237449482
 20
19.7325712897
 10
6.5232713192
 20
19.7514188702
  0
LWPOLYLINE
  5
557
100
AcDbEntity
  8
ASSI
100
AcDbPolyline
 62
7
  6
CONTINUOUS
 90
10
 70
0
 10
3.5
 20
-23.7511422903
 10
3.5003309496
 20
-23.7484333218
 10
3.5013372585
 20
-23.7450554941
 10
3.5030384326
 20
-23.7410088074
 10
3.5054545678
 20
-23.7363066986
 10
3.5086022674
 20
-23.7309357306
 10
3.5124904908
 20
-23.7248555929
 10
3.5171299958
 20
-23.7180581801
 10
3.5225307956
 20
-23.7105515976
 10
3.5286918512
 20
-23.7023198506
  0
LINE
  5
558
100
AcDbEntity
  8
0
100
AcDbLine
 62
7
  6
CONTINUOUS
 10
-6.555294768
 20
-20.0829433217
 11
-6.4790558127
 21
-19.968583276
  0
LINE
  5
559
100
AcDbEntity
  8
ASSI
100
AcDbLine
 62
7
  6
CONTINUOUS
 10
-6.555294768
 20
-20.0829433217
 11
-6.4790558127
 21
-19.968583276
  0
LINE
  5
55A
100
AcDbEntity
  8
RACCORDO
100
AcDbLine
 62
7
  6
CONTINUOUS
 10
-7.7939545568
 20
-21.6129888844
 11
-7.7427848301
 21
-21.5385902446
  0
LINE
  5
55B
100
AcDbEntity
  8
ASSI
100
AcDbLine
 62
7
  6
CONTINUOUS
 10
-7.7939545568
 20
-21.6129888844
 11
-7.7427848301
 21
-21.5385902446
  0
LINE
  5
55C
100
AcDbEntity
  8
RACCORDO
100
AcDbLine
 62
7
  6
CONTINUOUS
 10
-7.7427848301
 20
-21.5385902446
 11
-7.6904803352
 21
-21.4636002076
  0
LINE
  5
55D
100
AcDbEntity
  8
ASSI
100
AcDbLine
 62
7
  6
CONTINUOUS
 10
-7.7427848301
 20
-21.5385902446
 11
-7.6904803352
 21
-21.4636002076
  0
LWPOLYLINE
  5
55E
100
AcDbEntity
  8
RACCORDO
100
AcDbPolyline
 62
7
  6
CONTINUOUS
 90
3
 70
0
 10
-7.6904803352
 20
-21.4636002076
 10
-7.6108850697
 20
-21.3504165494
 10
-7.5841007192
 20
-21.3126932437
  0
LWPOLYLINE
  5
55F
100
AcDbEntity
  8
ASSI
100
AcDbPolyline
 62
7
  6
CONTINUOUS
 90
3
 70
0
 10
-7.6904803352
 20
-21.4636002076
 10
-7.6108850697
 20
-21.3504165494
 10
-7.5841007192
 20
-21.3126932437
  0
LINE
  5
560
100
AcDbEntity
  8
RACCORDO
100
AcDbLine
 62
7
  6
CONTINUOUS
 10
9.9976142915
 20
5.9331455644
 11
8.9
 21
5.9331455644
  0
LINE
  5
561
100
AcDbEntity
  8
RACCORDO
100
AcDbLine
 62
7
  6
CONTINUOUS
 10
-8.9
 20
5.9331455644
 11
-9.9976142915
 21
5.9331455644
  0
LINE
  5
562
100
AcDbEntity
  8
0
100
AcDbLine
 62
7
  6
CONTINUOUS
 10
-6.3309918611
 20
16.1009290654
 11
-6.5
 21
16.2699372043
  0
LINE
  5
563
100
AcDbEntity
  8
ASSI
100
AcDbLine
 62
7
  6
CONTINUOUS
 10
-6.3309918611
 20
16.1009290654
 11
-6.5
 21
16.2699372043
  0
LINE
  5
564
100
AcDbEntity
  8
RACCORDO
100
AcDbLine
 62
7
  6
CONTINUOUS
 10
-7.5841007192
 20
21.3126932437
 11
-7.6375346208
 21
21.3881838872
  0
LINE
  5
565
100
AcDbEntity
  8
ASSI
100
AcDbLine
 62
7
  6
CONTINUOUS
 10
-7.5841007192
 20
21.3126932437
 11
-7.6375346208
 21
21.3881838872
  0
LINE
  5
566
100
AcDbEntity
  8
RACCORDO
100
AcDbLine
 62
7
  6
CONTINUOUS
 10
-7.6375346208
 20
21.3881838872
 11
-7.7167764984
 21
21.5011382645
  0
LINE
  5
567
100
AcDbEntity
  8
ASSI
100
AcDbLine
 62
7
  6
CONTINUOUS
 10
-7.6375346208
 20
21.3881838872
 11
-7.7167764984
 21
21.5011382645
  0
LWPOLYLINE
  5
568
100
AcDbEntity
  8
RACCORDO
100
AcDbPolyline
 62
7
  6
CONTINUOUS
 90
5
 70
0
 10
-7.7167764984
 20
21.5011382645
 10
-7.7685136093
 20
21.5758926167
 10
-7.7939545568
 20
21.6129888844
 10
-7.818929804
 20
21.6499179842
 10
-7.843380061
 20
21.6866457638
  0
LWPOLYLINE
  5
569
100
AcDbEntity
  8
ASSI
100
AcDbPolyline
 62
7
  6
CONTINUOUS
 90
5
 70
0
 10
-7.7167764984
 20
21.5011382645
 10
-7.7685136093
 20
21.5758926167
 10
-7.7939545568
 20
21.6129888844
 10
-7.818929804
 20
21.6499179842
 10
-7.843380061
 20
21.6866457638
  0
LINE
  5
56A
100
AcDbEntity
  8
RACCORDO
100
AcDbLine
 62
7
  6
CONTINUOUS
 10
-6.555294768
 20
20.0829433217
 11
-6.4482213147
 21
19.9223308767
  0
LINE
  5
56B
100
AcDbEntity
  8
ASSI
100
AcDbLine
 62
7
  6
CONTINUOUS
 10
-6.555294768
 20
20.0829433217
 11
-6.4482213147
 21
19.9223308767
  0
LWPOLYLINE
  5
56C
100
AcDbEntity
  8
ASSI
100
AcDbPolyline
 62
7
  6
CONTINUOUS
 90
40
 70
0
 10
8.0
 20
0.1950467125
 10
8.0039287755
 20
0.1184438528
 10
8.0150677455
 20
0.0432967518
 10
8.03341691
 20
-0.0303945904
 10
8.0591878742
 20
-0.1030872256
 10
8.092169033
 20
-0.1743241021
 10
8.1317255705
 20
-0.2427340643
 10
8.1779848658
 20
-0.3082623491
 10
8.2308195398
 20
-0.3709637197
 10
8.2892126396
 20
-0.4296313107
 10
8.3532718438
 20
-0.4841869793
 10
8.4228894738
 20
-0.5347088684
 10
8.4967255413
 20
-0.580224541
 10
8.5748617662
 20
-0.6206370163
 10
8.6572164287
 20
-0.6560432752
 10
8.7422043799
 20
-0.6857618241
 10
8.8298766323
 20
-0.7096824799
 10
8.9201821735
 20
-0.7279154256
 10
9.0113828177
 20
-0.7401097166
 10
9.1034959049
 20
-0.7461483713
 10
9.1965040951
 20
-0.7461483713
 10
9.2886171823
 20
-0.7401097166
 10
9.3798178265
 20
-0.7279154256
 10
9.4701233677
 20
-0.7096824799
 10
9.5577956201
 20
-0.6857618241
 10
9.6427835713
 20
-0.6560432752
 10
9.7251382338
 20
-0.6206370163
 10
9.8032744587
 20
-0.580224541
 10
9.8771105262
 20
-0.5347088684
 10
9.9467281562
 20
-0.4841869793
 10
10.0107873604
 20
-0.4296313107
 10
10.0691804602
 20
-0.3709637197
 10
10.1220151342
 20
-0.3082623491
 10
10.1682744295
 20
-0.2427340643
 10
10.207830967
 20
-0.1743241021
 10
10.2408121258
 20
-0.1030872256
 10
10.26658309
 20
-0.0303945904
 10
10.2849322545
 20
0.0432967518
 10
10.2960712245
 20
0.1184438528
 10
10.3
 20
0.1950467125
  0
LWPOLYLINE
  5
56D
100
AcDbEntity
  8
RACCORDO
100
AcDbPolyline
 62
253
  6
CONTINUOUS
 90
31
 70
0
 10
8.254371834
 20
23.8443375673
 10
8.2547511657
 20
23.8330274168
 10
8.2558121477
 20
23.8217481519
 10
8.2575518825
 20
23.810530574
 10
8.2599656195
 20
23.7994053159
 10
8.2630467671
 20
23.7884027584
 10
8.2667869113
 20
23.7775529472
 10
8.2711758387
 20
23.7668855107
 10
8.276201564
 20
23.7564295797
 10
8.281850363
 20
23.7462137069
 10
8.2881068099
 20
23.7362657898
 10
8.2949538199
 20
23.7266129942
 10
8.302372695
 20
23.7172816797
 10
8.3103431759
 20
23.7082973282
 10
8.3188434969
 20
23.6996844742
 10
8.3278504455
 20
23.6914666374
 10
8.3373394254
 20
23.6836662592
 10
8.3472845243
 20
23.6763046407
 10
8.3576585842
 20
23.6694018849
 10
8.3684332757
 20
23.6629768418
 10
8.3795791754
 20
23.6570470569
 10
8.3910658462
 20
23.6516287232
 10
8.4028619204
 20
23.646736637
 10
8.4149351853
 20
23.6423841576
 10
8.4272526715
 20
23.6385831707
 10
8.4397807423
 20
23.6353440559
 10
8.4524851864
 20
23.6326756587
 10
8.4653313105
 20
23.6305852658
 10
8.4782840345
 20
23.6290785857
 10
8.4913079873
 20
23.6281597328
 10
8.5043676032
 20
23.6278312164
  0
LWPOLYLINE
  5
56E
100
AcDbEntity
  8
ASSI
100
AcDbPolyline
 62
253
  6
CONTINUOUS
 90
31
 70
0
 10
8.254371834
 20
23.8443375673
 10
8.2547511657
 20
23.8330274168
 10
8.2558121477
 20
23.8217481519
 10
8.2575518825
 20
23.810530574
 10
8.2599656195
 20
23.7994053159
 10
8.2630467671
 20
23.7884027584
 10
8.2667869113
 20
23.7775529472
 10
8.2711758387
 20
23.7668855107
 10
8.276201564
 20
23.7564295797
 10
8.281850363
 20
23.7462137069
 10
8.2881068099
 20
23.7362657898
 10
8.2949538199
 20
23.7266129942
 10
8.302372695
 20
23.7172816797
 10
8.3103431759
 20
23.7082973282
 10
8.3188434969
 20
23.6996844742
 10
8.3278504455
 20
23.6914666374
 10
8.3373394254
 20
23.6836662592
 10
8.3472845243
 20
23.6763046407
 10
8.3576585842
 20
23.6694018849
 10
8.3684332757
 20
23.6629768418
 10
8.3795791754
 20
23.6570470569
 10
8.3910658462
 20
23.6516287232
 10
8.4028619204
 20
23.646736637
 10
8.4149351853
 20
23.6423841576
 10
8.4272526715
 20
23.6385831707
 10
8.4397807423
 20
23.6353440559
 10
8.4524851864
 20
23.6326756587
 10
8.4653313105
 20
23.6305852658
 10
8.4782840345
 20
23.6290785857
 10
8.4913079873
 20
23.6281597328
 10
8.5043676032
 20
23.6278312164
  0
LINE
  5
56F
100
AcDbEntity
  8
0
100
AcDbLine
 62
253
  6
CONTINUOUS
 10
7.8017699268
 20
-8.2853398476
 11
7.7917237952
 21
-7.674251984
  0
LINE
  5
570
100
AcDbEntity
  8
ASSI
100
AcDbLine
 62
253
  6
CONTINUOUS
 10
7.8017699268
 20
-8.2853398476
 11
7.7917237952
 21
-7.674251984
  0
LINE
  5
571
100
AcDbEntity
  8
0
100
AcDbLine
 62
253
  6
CONTINUOUS
 10
8.045712392
 20
-7.7538134805
 11
8.0377047386
 21
-7.2516219845
  0
LINE
  5
572
100
AcDbEntity
  8
ASSI
100
AcDbLine
 62
253
  6
CONTINUOUS
 10
8.045712392
 20
-7.7538134805
 11
8.0377047386
 21
-7.2516219845
  0
LINE
  5
573
100
AcDbEntity
  8
0
100
AcDbLine
 62
253
  6
CONTINUOUS
 10
7.7917237952
 20
-7.674251984
 11
7.7818380521
 21
-7.0152886709
  0
LINE
  5
574
100
AcDbEntity
  8
ASSI
100
AcDbLine
 62
253
  6
CONTINUOUS
 10
7.7917237952
 20
-7.674251984
 11
7.7818380521
 21
-7.0152886709
  0
LINE
  5
575
100
AcDbEntity
  8
0
100
AcDbLine
 62
253
  6
CONTINUOUS
 10
8.0377047386
 20
-7.2516219845
 11
8.0298633837
 21
-6.7202309858
  0
LINE
  5
576
100
AcDbEntity
  8
ASSI
100
AcDbLine
 62
253
  6
CONTINUOUS
 10
8.0377047386
 20
-7.2516219845
 11
8.0298633837
 21
-6.7202309858
  0
LINE
  5
577
100
AcDbEntity
  8
0
100
AcDbLine
 62
253
  6
CONTINUOUS
 10
8.0298633837
 20
-6.7202309858
 11
8.0221883272
 21
-6.1596404846
  0
LINE
  5
578
100
AcDbEntity
  8
ASSI
100
AcDbLine
 62
253
  6
CONTINUOUS
 10
8.0298633837
 20
-6.7202309858
 11
8.0221883272
 21
-6.1596404846
  0
LINE
  5
579
100
AcDbEntity
  8
0
100
AcDbLine
 62
253
  6
CONTINUOUS
 10
7.7818380521
 20
-7.0152886709
 11
7.7722264034
 21
-6.3100400048
  0
LINE
  5
57A
100
AcDbEntity
  8
ASSI
100
AcDbLine
 62
253
  6
CONTINUOUS
 10
7.7818380521
 20
-7.0152886709
 11
7.7722264034
 21
-6.3100400048
  0
LINE
  5
57B
100
AcDbEntity
  8
0
100
AcDbLine
 62
253
  6
CONTINUOUS
 10
8.0221883272
 20
-6.1596404846
 11
8.0177579728
 21
-5.8132720272
  0
LINE
  5
57C
100
AcDbEntity
  8
ASSI
100
AcDbLine
 62
253
  6
CONTINUOUS
 10
8.0221883272
 20
-6.1596404846
 11
8.0177579728
 21
-5.8132720272
  0
LINE
  5
57D
100
AcDbEntity
  8
0
100
AcDbLine
 62
253
  6
CONTINUOUS
 10
7.7722264034
 20
-6.3100400048
 11
7.7660036799
 21
-5.8132720272
  0
LINE
  5
57E
100
AcDbEntity
  8
ASSI
100
AcDbLine
 62
253
  6
CONTINUOUS
 10
7.7722264034
 20
-6.3100400048
 11
7.7660036799
 21
-5.8132720272
  0
LINE
  5
57F
100
AcDbEntity
  8
CURVE
100
AcDbLine
 62
7
  6
CONTINUOUS
 10
8.0418352163
 20
10.2757581504
 11
8.0353536961
 21
10.8060666977
  0
LINE
  5
580
100
AcDbEntity
  8
ASSI
100
AcDbLine
 62
7
  6
CONTINUOUS
 10
8.0418352163
 20
10.2757581504
 11
8.0353536961
 21
10.8060666977
  0
LINE
  5
581
100
AcDbEntity
  8
CURVE
100
AcDbLine
 62
7
  6
CONTINUOUS
 10
9.0230693374
 20
11.8111550457
 11
8.9731977143
 21
15.8915786577
  0
LINE
  5
582
100
AcDbEntity
  8
ASSI
100
AcDbLine
 62
7
  6
CONTINUOUS
 10
9.0230693374
 20
11.8111550457
 11
8.9731977143
 21
15.8915786577
  0
LINE
  5
583
100
AcDbEntity
  8
RACCORDO
100
AcDbLine
 62
253
  6
CONTINUOUS
 10
8.254371834
 20
-23.8443375673
 11
8.25
 21
-23.4104851482
  0
LINE
  5
584
100
AcDbEntity
  8
ASSI
100
AcDbLine
 62
253
  6
CONTINUOUS
 10
8.254371834
 20
-23.8443375673
 11
8.25
 21
-23.4104851482
  0
LINE
  5
585
100
AcDbEntity
  8
RACCORDO
100
AcDbLine
 62
253
  6
CONTINUOUS
 10
8.5043676032
 20
-23.6278312164
 11
8.4992770021
 21
-23.1226497308
  0
LINE
  5
586
100
AcDbEntity
  8
ASSI
100
AcDbLine
 62
253
  6
CONTINUOUS
 10
8.5043676032
 20
-23.6278312164
 11
8.4992770021
 21
-23.1226497308
  0
LINE
  5
587
100
AcDbEntity
  8
RACCORDO
100
AcDbLine
 62
253
  6
CONTINUOUS
 10
7.5841007192
 20
-21.3126932437
 11
7.5841007192
 21
-20.9959955457
  0
LINE
  5
588
100
AcDbEntity
  8
ASSI
100
AcDbLine
 62
253
  6
CONTINUOUS
 10
7.5841007192
 20
-21.3126932437
 11
7.5841007192
 21
-20.9959955457
  0
LINE
  5
589
100
AcDbEntity
  8
RACCORDO
100
AcDbLine
 62
253
  6
CONTINUOUS
 10
7.5841007192
 20
20.9959955457
 11
7.5841007192
 21
21.3126932437
  0
LINE
  5
58A
100
AcDbEntity
  8
ASSI
100
AcDbLine
 62
253
  6
CONTINUOUS
 10
7.5841007192
 20
20.9959955457
 11
7.5841007192
 21
21.3126932437
  0
LINE
  5
58B
100
AcDbEntity
  8
0
100
AcDbLine
 62
253
  6
CONTINUOUS
 10
7.8017732882
 20
-8.2853398476
 11
7.8017732885
 21
-8.4620066009
  0
LINE
  5
58C
100
AcDbEntity
  8
ASSI
100
AcDbLine
 62
253
  6
CONTINUOUS
 10
7.8017732882
 20
-8.2853398476
 11
7.8017732885
 21
-8.4620066009
  0
LINE
  5
58D
100
AcDbEntity
  8
CURVE
100
AcDbLine
 62
7
  6
CONTINUOUS
 10
7.9731977143
 20
20.6641649932
 11
7.9731977143
 21
18.4681874516
  0
LINE
  5
58E
100
AcDbEntity
  8
ASSI
100
AcDbLine
 62
7
  6
CONTINUOUS
 10
7.9731977143
 20
20.6641649932
 11
7.9731977143
 21
18.4681874516
  0
LINE
  5
58F
100
AcDbEntity
  8
0
100
AcDbLine
 62
253
  6
CONTINUOUS
 10
8.045712392
 20
-5.8132720272
 11
8.045712392
 21
-7.7538134805
  0
LINE
  5
590
100
AcDbEntity
  8
ASSI
100
AcDbLine
 62
253
  6
CONTINUOUS
 10
8.045712392
 20
-5.8132720272
 11
8.045712392
 21
-7.7538134805
  0
LINE
  5
591
100
AcDbEntity
  8
CURVE
100
AcDbLine
 62
7
  6
CONTINUOUS
 10
8.05
 20
20.4335707644
 11
8.05
 21
18.5
  0
LINE
  5
592
100
AcDbEntity
  8
ASSI
100
AcDbLine
 62
7
  6
CONTINUOUS
 10
8.05
 20
20.4335707644
 11
8.05
 21
18.5
  0
LINE
  5
593
100
AcDbEntity
  8
CURVE
100
AcDbLine
 62
7
  6
CONTINUOUS
 10
8.05
 20
10.8
 11
8.05
 21
10.2757581504
  0
LINE
  5
594
100
AcDbEntity
  8
ASSI
100
AcDbLine
 62
7
  6
CONTINUOUS
 10
8.05
 20
10.8
 11
8.05
 21
10.2757581504
  0
LINE
  5
595
100
AcDbEntity
  8
RACCORDO
100
AcDbLine
 62
253
  6
CONTINUOUS
 10
8.0840245667
 20
-21.5659754333
 11
8.0840245667
 21
-20.9917082642
  0
LINE
  5
596
100
AcDbEntity
  8
ASSI
100
AcDbLine
 62
253
  6
CONTINUOUS
 10
8.0840245667
 20
-21.5659754333
 11
8.0840245667
 21
-20.9917082642
  0
LINE
  5
597
100
AcDbEntity
  8
RACCORDO
100
AcDbLine
 62
253
  6
CONTINUOUS
 10
8.0840245667
 20
20.9917082642
 11
8.0840245667
 21
21.5659754333
  0
LINE
  5
598
100
AcDbEntity
  8
ASSI
100
AcDbLine
 62
253
  6
CONTINUOUS
 10
8.0840245667
 20
20.9917082642
 11
8.0840245667
 21
21.5659754333
  0
LINE
  5
599
100
AcDbEntity
  8
DRAFT
100
AcDbLine
 62
7
  6
CONTINUOUS
 10
8.25
 20
21.4
 11
8.25
 21
20.9
  0
LINE
  5
59A
100
AcDbEntity
  8
ASSI
100
AcDbLine
 62
7
  6
CONTINUOUS
 10
8.25
 20
21.4
 11
8.25
 21
20.9
  0
LINE
  5
59B
100
AcDbEntity
  8
DRAFT
100
AcDbLine
 62
7
  6
CONTINUOUS
 10
8.25
 20
-20.9
 11
8.25
 21
-21.4
  0
LINE
  5
59C
100
AcDbEntity
  8
ASSI
100
AcDbLine
 62
7
  6
CONTINUOUS
 10
8.25
 20
-20.9
 11
8.25
 21
-21.4
  0
LINE
  5
59D
100
AcDbEntity
  8
RACCORDO
100
AcDbLine
 62
7
  6
CONTINUOUS
 10
8.25
 20
-22.4
 11
8.25
 21
-23.8443375673
  0
LINE
  5
59E
100
AcDbEntity
  8
ASSI
100
AcDbLine
 62
7
  6
CONTINUOUS
 10
8.25
 20
-22.4
 11
8.25
 21
-23.8443375673
  0
LINE
  5
59F
100
AcDbEntity
  8
RACCORDO
100
AcDbLine
 62
7
  6
CONTINUOUS
 10
8.25
 20
22.4
 11
8.25
 21
23.8443375673
  0
LINE
  5
5A0
100
AcDbEntity
  8
ASSI
100
AcDbLine
 62
7
  6
CONTINUOUS
 10
8.25
 20
22.4
 11
8.25
 21
23.8443375673
  0
LINE
  5
5A1
100
AcDbEntity
  8
RACCORDO
100
AcDbLine
 62
253
  6
CONTINUOUS
 10
8.254371834
 20
24.2456323968
 11
8.254371834
 21
23.8443375673
  0
LINE
  5
5A2
100
AcDbEntity
  8
ASSI
100
AcDbLine
 62
7
  6
CONTINUOUS
 10
8.254371834
 20
24.2456323968
 11
8.254371834
 21
23.8443375673
  0
LINE
  5
5A3
100
AcDbEntity
  8
RACCORDO
100
AcDbLine
 62
253
  6
CONTINUOUS
 10
8.254371834
 20
-23.8443375673
 11
8.254371834
 21
-24.2456323968
  0
LINE
  5
5A4
100
AcDbEntity
  8
ASSI
100
AcDbLine
 62
7
  6
CONTINUOUS
 10
8.254371834
 20
-23.8443375673
 11
8.254371834
 21
-24.2456323968
  0
LINE
  5
5A5
100
AcDbEntity
  8
0
100
AcDbLine
 62
253
  6
CONTINUOUS
 10
8.2956743158
 20
-5.8132720272
 11
8.2956743158
 21
-7.7538536524
  0
LINE
  5
5A6
100
AcDbEntity
  8
ASSI
100
AcDbLine
 62
253
  6
CONTINUOUS
 10
8.2956743158
 20
-5.8132720272
 11
8.2956743158
 21
-7.7538536524
  0
LINE
  5
5A7
100
AcDbEntity
  8
RACCORDO
100
AcDbLine
 62
253
  6
CONTINUOUS
 10
8.5043676032
 20
-23.6278312164
 11
8.5043676032
 21
-24.495628166
  0
LINE
  5
5A8
100
AcDbEntity
  8
ASSI
100
AcDbLine
 62
253
  6
CONTINUOUS
 10
8.5043676032
 20
-23.6278312164
 11
8.5043676032
 21
-24.495628166
  0
LINE
  5
5A9
100
AcDbEntity
  8
RACCORDO
100
AcDbLine
 62
253
  6
CONTINUOUS
 10
8.5043676032
 20
23.6278312164
 11
8.5043676032
 21
24.495628166
  0
LINE
  5
5AA
100
AcDbEntity
  8
ASSI
100
AcDbLine
 62
253
  6
CONTINUOUS
 10
8.5043676032
 20
23.6278312164
 11
8.5043676032
 21
24.495628166
  0
LINE
  5
5AB
100
AcDbEntity
  8
0
100
AcDbLine
 62
7
  6
CONTINUOUS
 10
8.9
 20
-5.8132720272
 11
8.9
 21
-3.6502498994
  0
LINE
  5
5AC
100
AcDbEntity
  8
0
100
AcDbLine
 62
7
  6
CONTINUOUS
 10
8.9
 20
3.7455693088
 11
8.9
 21
10.2757581504
  0
LINE
  5
5AD
100
AcDbEntity
  8
CURVE
100
AcDbLine
 62
7
  6
CONTINUOUS
 10
8.9731977143
 20
15.8915786577
 11
8.9731977143
 21
17.4681874516
  0
LINE
  5
5AE
100
AcDbEntity
  8
ASSI
100
AcDbLine
 62
7
  6
CONTINUOUS
 10
8.9731977143
 20
15.8915786577
 11
8.9731977143
 21
17.4681874516
  0
LINE
  5
5AF
100
AcDbEntity
  8
CURVE
100
AcDbLine
 62
7
  6
CONTINUOUS
 10
9.05
 20
11.8
 11
9.05
 21
17.5
  0
LINE
  5
5B0
100
AcDbEntity
  8
ASSI
100
AcDbLine
 62
7
  6
CONTINUOUS
 10
9.05
 20
11.8
 11
9.05
 21
17.5
  0
LWPOLYLINE
  5
5B1
100
AcDbEntity
  8
0
100
AcDbPolyline
 62
253
  6
CONTINUOUS
 90
40
 70
0
 10
8.0457127628
 20
-7.7538536524
 10
8.0455343534
 20
-7.7829217992
 10
8.044681373
 20
-7.8114596301
 10
8.043178848
 20
-7.839436223
 10
8.0410433077
 20
-7.866866797
 10
8.038296433
 20
-7.893683495
 10
8.0349759725
 20
-7.9197368229
 10
8.0311086582
 20
-7.9449969651
 10
8.026718963
 20
-7.9694484423
 10
8.0218562538
 20
-7.992968668
 10
8.0165583841
 20
-8.0155187449
 10
8.0108531357
 20
-8.03710561
 10
8.0047855766
 20
-8.057683116
 10
7.9984011547
 20
-8.0772158076
 10
7.9917287564
 20
-8.0957216574
 10
7.9847894213
 20
-8.113239729
 10
7.9776197292
 20
-8.1297641527
 10
7.9702551077
 20
-8.145292367
 10
7.9627090938
 20
-8.1598710724
 10
7.9550190009
 20
-8.1734980657
 10
7.9472191856
 20
-8.1861784924
 10
7.9393105285
 20
-8.1979714913
 10
7.9313292993
 20
-8.2088793562
 10
7.9233081051
 20
-8.2189134402
 10
7.9152305751
 20
-8.2281426952
 10
7.9071086882
 20
-8.2365934302
 10
7.8989917575
 20
-8.2442567393
 10
7.890911306
 20
-8.251148704
 10
7.8829082187
 20
-8.2572826636
 10
7.8750059652
 20
-8.2626923644
 10
7.8672043347
 20
-8.2674257868
 10
7.8595498658
 20
-8.2715007629
 10
7.8520513158
 20
-8.2749615952
 10
7.8446419219
 20
-8.2778782104
 10
7.8373514724
 20
-8.2802687523
 10
7.8301894717
 20
-8.2821619013
 10
7.8230490579
 20
-8.2836077447
 10
7.8159027737
 20
-8.2846176045
 10
7.8088062898
 20
-8.2851904769
 10
7.8017732882
 20
-8.2853391436
  0
LWPOLYLINE
  5
5B2
100
AcDbEntity
  8
ASSI
100
AcDbPolyline
 62
253
  6
CONTINUOUS
 90
40
 70
0
 10
8.0457127628
 20
-7.7538536524
 10
8.0455343534
 20
-7.7829217992
 10
8.044681373
 20
-7.8114596301
 10
8.043178848
 20
-7.839436223
 10
8.0410433077
 20
-7.866866797
 10
8.038296433
 20
-7.893683495
 10
8.0349759725
 20
-7.9197368229
 10
8.0311086582
 20
-7.9449969651
 10
8.026718963
 20
-7.9694484423
 10
8.0218562538
 20
-7.992968668
 10
8.0165583841
 20
-8.0155187449
 10
8.0108531357
 20
-8.03710561
 10
8.0047855766
 20
-8.057683116
 10
7.9984011547
 20
-8.0772158076
 10
7.9917287564
 20
-8.0957216574
 10
7.9847894213
 20
-8.113239729
 10
7.9776197292
 20
-8.1297641527
 10
7.9702551077
 20
-8.145292367
 10
7.9627090938
 20
-8.1598710724
 10
7.9550190009
 20
-8.1734980657
 10
7.9472191856
 20
-8.1861784924
 10
7.9393105285
 20
-8.1979714913
 10
7.9313292993
 20
-8.2088793562
 10
7.9233081051
 20
-8.2189134402
 10
7.9152305751
 20
-8.2281426952
 10
7.9071086882
 20
-8.2365934302
 10
7.8989917575
 20
-8.2442567393
 10
7.890911306
 20
-8.251148704
 10
7.8829082187
 20
-8.2572826636
 10
7.8750059652
 20
-8.2626923644
 10
7.8672043347
 20
-8.2674257868
 10
7.8595498658
 20
-8.2715007629
 10
7.8520513158
 20
-8.2749615952
 10
7.8446419219
 20
-8.2778782104
 10
7.8373514724
 20
-8.2802687523
 10
7.8301894717
 20
-8.2821619013
 10
7.8230490579
 20
-8.2836077447
 10
7.8159027737
 20
-8.2846176045
 10
7.8088062898
 20
-8.2851904769
 10
7.8017732882
 20
-8.2853391436
  0
LINE
  5
5B3
100
AcDbEntity
  8
RACCORDO
100
AcDbLine
 62
253
  6
CONTINUOUS
 10
8.25
 20
23.4104851482
 11
8.254371834
 21
23.8443375673
  0
LINE
  5
5B4
100
AcDbEntity
  8
ASSI
100
AcDbLine
 62
253
  6
CONTINUOUS
 10
8.25
 20
23.4104851482
 11
8.254371834
 21
23.8443375673
  0
LINE
  5
5B5
100
AcDbEntity
  8
RACCORDO
100
AcDbLine
 62
253
  6
CONTINUOUS
 10
8.4992770021
 20
23.1226497308
 11
8.5043676032
 21
23.6278312164
  0
LINE
  5
5B6
100
AcDbEntity
  8
ASSI
100
AcDbLine
 62
253
  6
CONTINUOUS
 10
8.4992770021
 20
23.1226497308
 11
8.5043676032
 21
23.6278312164
  0
LWPOLYLINE
  5
5B7
100
AcDbEntity
  8
0
100
AcDbPolyline
 62
253
  6
CONTINUOUS
 90
40
 70
0
 10
8.2956743158
 20
-7.7538536524
 10
8.2949168601
 20
-7.791972271
 10
8.29290612
 20
-7.8293890131
 10
8.2896420955
 20
-7.8661038786
 10
8.2850682821
 20
-7.9022121469
 10
8.2792411843
 20
-7.9376185386
 10
8.272330315
 20
-7.9720372156
 10
8.2643200674
 20
-8.0054483037
 10
8.2552260484
 20
-8.037871677
 10
8.2452645913
 20
-8.0690811205
 10
8.2344315916
 20
-8.099037386
 10
8.2227311539
 20
-8.1277797217
 10
8.2103919256
 20
-8.1551996568
 10
8.197427907
 20
-8.1812536471
 10
8.1838250979
 20
-8.2059852369
 10
8.1697701445
 20
-8.229416588
 10
8.1552687367
 20
-8.2515389281
 10
8.1403151847
 20
-8.2723610297
 10
8.1250790648
 20
-8.2919313722
 10
8.1095699388
 20
-8.3102390075
 10
8.0937782451
 20
-8.3272948838
 10
8.0778448751
 20
-8.3431803244
 10
8.0617842332
 20
-8.3578865076
 10
8.045581915
 20
-8.371422255
 10
8.0293355992
 20
-8.3838953558
 10
8.0130148185
 20
-8.3953215707
 10
7.9966500403
 20
-8.4056851389
 10
7.9804303447
 20
-8.4150465669
 10
7.9643797323
 20
-8.4233818812
 10
7.9484742026
 20
-8.4307150555
 10
7.9328308335
 20
-8.4371785173
 10
7.917502239
 20
-8.4427618566
 10
7.9024358052
 20
-8.4474754835
 10
7.8875907683
 20
-8.451483056
 10
7.8730024913
 20
-8.4548029068
 10
7.8586356113
 20
-8.4574167032
 10
7.8443432755
 20
-8.4594331049
 10
7.8300765332
 20
-8.4608883316
 10
7.8158843352
 20
-8.4617461637
 10
7.8017666815
 20
-8.4620066009
  0
LWPOLYLINE
  5
5B8
100
AcDbEntity
  8
ASSI
100
AcDbPolyline
 62
253
  6
CONTINUOUS
 90
40
 70
0
 10
8.2956743158
 20
-7.7538536524
 10
8.2949168601
 20
-7.791972271
 10
8.29290612
 20
-7.8293890131
 10
8.2896420955
 20
-7.8661038786
 10
8.2850682821
 20
-7.9022121469
 10
8.2792411843
 20
-7.9376185386
 10
8.272330315
 20
-7.9720372156
 10
8.2643200674
 20
-8.0054483037
 10
8.2552260484
 20
-8.037871677
 10
8.2452645913
 20
-8.0690811205
 10
8.2344315916
 20
-8.099037386
 10
8.2227311539
 20
-8.1277797217
 10
8.2103919256
 20
-8.1551996568
 10
8.197427907
 20
-8.1812536471
 10
8.1838250979
 20
-8.2059852369
 10
8.1697701445
 20
-8.229416588
 10
8.1552687367
 20
-8.2515389281
 10
8.1403151847
 20
-8.2723610297
 10
8.1250790648
 20
-8.2919313722
 10
8.1095699388
 20
-8.3102390075
 10
8.0937782451
 20
-8.3272948838
 10
8.0778448751
 20
-8.3431803244
 10
8.0617842332
 20
-8.3578865076
 10
8.045581915
 20
-8.371422255
 10
8.0293355992
 20
-8.3838953558
 10
8.0130148185
 20
-8.3953215707
 10
7.9966500403
 20
-8.4056851389
 10
7.9804303447
 20
-8.4150465669
 10
7.9643797323
 20
-8.4233818812
 10
7.9484742026
 20
-8.4307150555
 10
7.9328308335
 20
-8.4371785173
 10
7.917502239
 20
-8.4427618566
 10
7.9024358052
 20
-8.4474754835
 10
7.8875907683
 20
-8.451483056
 10
7.8730024913
 20
-8.4548029068
 10
7.8586356113
 20
-8.4574167032
 10
7.8443432755
 20
-8.4594331049
 10
7.8300765332
 20
-8.4608883316
 10
7.8158843352
 20
-8.4617461637
 10
7.8017666815
 20
-8.4620066009
  0
LWPOLYLINE
  5
5B9
100
AcDbEntity
  8
RACCORDO
100
AcDbPolyline
 62
7
  6
CONTINUOUS
 90
4
 70
0
 10
8.25
 20
24.2500042308
 10
8.2502831502
 20
24.261899516
 10
8.2511319658
 20
24.2737678556
 10
8.2525445259
 20
24.2855823661
  0
LWPOLYLINE
  5
5BA
100
AcDbEntity
  8
ASSI
100
AcDbPolyline
 62
7
  6
CONTINUOUS
 90
4
 70
0
 10
8.25
 20
24.2500042308
 10
8.2502831502
 20
24.261899516
 10
8.2511319658
 20
24.2737678556
 10
8.2525445259
 20
24.2855823661
  0
LWPOLYLINE
  5
5BB
100
AcDbEntity
  8
RACCORDO
100
AcDbPolyline
 62
253
  6
CONTINUOUS
 90
25
 70
0
 10
8.254371834
 20
24.2456323968
 10
8.254715023
 20
24.2587187509
 10
8.255742766
 20
24.2717692492
 10
8.2574522491
 20
24.2847481067
 10
8.2598387919
 20
24.2976197463
 10
8.262895853
 20
24.3103488602
 10
8.2666150425
 20
24.3229005077
 10
8.2709861576
 20
24.3352402638
 10
8.2759972131
 20
24.347334301
 10
8.2816344613
 20
24.3591494467
 10
8.2878824405
 20
24.3706533025
 10
8.2947240163
 20
24.3818143284
 10
8.3021404232
 20
24.3926019187
 10
8.3101113313
 20
24.402986508
 10
8.3186148729
 20
24.4129396114
 10
8.327627692
 20
24.4224339046
 10
8.3371250264
 20
24.4314433264
 10
8.3470808636
 20
24.4399432233
 10
8.3574679894
 20
24.4479103656
 10
8.3682580686
 20
24.4553229956
 10
8.379421387
 20
24.4621606774
 10
8.3909269875
 20
24.4684044791
 10
8.4027430657
 20
24.4740372277
 10
8.4148374218
 20
24.4790436576
 10
8.4271772258
 20
24.4834102087
  0
LWPOLYLINE
  5
5BC
100
AcDbEntity
  8
ASSI
100
AcDbPolyline
 62
7
  6
CONTINUOUS
 90
29
 70
0
 10
8.254371834
 20
24.2456323968
 10
8.254715023
 20
24.2587187509
 10
8.255742766
 20
24.2717692492
 10
8.2574522491
 20
24.2847481067
 10
8.2598387919
 20
24.2976197463
 10
8.262895853
 20
24.3103488602
 10
8.2666150425
 20
24.3229005077
 10
8.2709861576
 20
24.3352402638
 10
8.2759972131
 20
24.347334301
 10
8.2816344613
 20
24.3591494467
 10
8.2878824405
 20
24.3706533025
 10
8.2947240163
 20
24.3818143284
 10
8.3021404232
 20
24.3926019187
 10
8.3101113313
 20
24.402986508
 10
8.3186148729
 20
24.4129396114
 10
8.327627692
 20
24.4224339046
 10
8.3371250264
 20
24.4314433264
 10
8.3470808636
 20
24.4399432233
 10
8.3574679894
 20
24.4479103656
 10
8.3682580686
 20
24.4553229956
 10
8.379421387
 20
24.4621606774
 10
8.3909269875
 20
24.4684044791
 10
8.4027430657
 20
24.4740372277
 10
8.4148374218
 20
24.4790436576
 10
8.4271772258
 20
24.4834102087
 10
8.4397314103
 20
24.4871256484
 10
8.4524628755
 20
24.4901787618
 10
8.4653285943
 20
24.492559892
 10
8.4774875253
 20
24.4941779536
  0
LWPOLYLINE
  5
5BD
100
AcDbEntity
  8
RACCORDO
100
AcDbPolyline
 62
253
  6
CONTINUOUS
 90
31
 70
0
 10
8.254371834
 20
-23.8443375673
 10
8.2547503896
 20
-23.833039595
 10
8.2558095172
 20
-23.821769291
 10
8.2575468937
 20
-23.8105574212
 10
8.2599585951
 20
-23.7994336121
 10
8.2630384654
 20
-23.78842936
 10
8.2667775164
 20
-23.7775778202
 10
8.2711650608
 20
-23.7669096972
 10
8.2761894598
 20
-23.7564530239
 10
8.2818371404
 20
-23.746236105
 10
8.2880928329
 20
-23.7362866999
 10
8.2949394075
 20
-23.7266321754
 10
8.3023580158
 20
-23.7172991519
 10
8.3103283199
 20
-23.7083132018
 10
8.3188286147
 20
-23.6996987826
 10
8.3278357051
 20
-23.6914794042
 10
8.3373250088
 20
-23.6836775075
 10
8.3472705959
 20
-23.6763144193
 10
8.3576452788
 20
-23.6694102704
 10
8.3684207112
 20
-23.6629839239
 10
8.3795674692
 20
-23.6570529269
 10
8.3910551062
 20
-23.6516334796
 10
8.402852263
 20
-23.6467403776
 10
8.4149266994
 20
-23.6423869945
 10
8.427245379
 20
-23.6385852371
 10
8.4397746144
 20
-23.6353454907
 10
8.4524802172
 20
-23.6326765842
 10
8.465327538
 20
-23.6305857918
 10
8.4782815053
 20
-23.6290788219
 10
8.491306719
 20
-23.6281597935
 10
8.5043676032
 20
-23.6278312164
  0
LWPOLYLINE
  5
5BE
100
AcDbEntity
  8
ASSI
100
AcDbPolyline
 62
253
  6
CONTINUOUS
 90
31
 70
0
 10
8.254371834
 20
-23.8443375673
 10
8.2547503896
 20
-23.833039595
 10
8.2558095172
 20
-23.821769291
 10
8.2575468937
 20
-23.8105574212
 10
8.2599585951
 20
-23.7994336121
 10
8.2630384654
 20
-23.78842936
 10
8.2667775164
 20
-23.7775778202
 10
8.2711650608
 20
-23.7669096972
 10
8.2761894598
 20
-23.7564530239
 10
8.2818371404
 20
-23.746236105
 10
8.2880928329
 20
-23.7362866999
 10
8.2949394075
 20
-23.7266321754
 10
8.3023580158
 20
-23.7172991519
 10
8.3103283199
 20
-23.7083132018
 10
8.3188286147
 20
-23.6996987826
 10
8.3278357051
 20
-23.6914794042
 10
8.3373250088
 20
-23.6836775075
 10
8.3472705959
 20
-23.6763144193
 10
8.3576452788
 20
-23.6694102704
 10
8.3684207112
 20
-23.6629839239
 10
8.3795674692
 20
-23.6570529269
 10
8.3910551062
 20
-23.6516334796
 10
8.402852263
 20
-23.6467403776
 10
8.4149266994
 20
-23.6423869945
 10
8.427245379
 20
-23.6385852371
 10
8.4397746144
 20
-23.6353454907
 10
8.4524802172
 20
-23.6326765842
 10
8.465327538
 20
-23.6305857918
 10
8.4782815053
 20
-23.6290788219
 10
8.491306719
 20
-23.6281597935
 10
8.5043676032
 20
-23.6278312164
  0
LWPOLYLINE
  5
5BF
100
AcDbEntity
  8
RACCORDO
100
AcDbPolyline
 62
7
  6
CONTINUOUS
 90
11
 70
0
 10
6.4803168614
 20
-19.3302852056
 10
6.4799289015
 20
-19.3347115608
 10
6.47954442
 20
-19.3394280987
 10
6.4791649647
 20
-19.3444318961
 10
6.4788188159
 20
-19.3497203268
 10
6.478504635
 20
-19.3552903417
 10
6.4782237605
 20
-19.3611383748
 10
6.4780084882
 20
-19.3672608379
 10
6.4778695833
 20
-19.3736539741
 10
6.4777962805
 20
-19.3803138616
 10
6.4777885798
 20
-19.3872364074
  0
LWPOLYLINE
  5
5C0
100
AcDbEntity
  8
ASSI
100
AcDbPolyline
 62
7
  6
CONTINUOUS
 90
11
 70
0
 10
6.4803168614
 20
-19.3302852056
 10
6.4799289015
 20
-19.3347115608
 10
6.47954442
 20
-19.3394280987
 10
6.4791649647
 20
-19.3444318961
 10
6.4788188159
 20
-19.3497203268
 10
6.478504635
 20
-19.3552903417
 10
6.4782237605
 20
-19.3611383748
 10
6.4780084882
 20
-19.3672608379
 10
6.4778695833
 20
-19.3736539741
 10
6.4777962805
 20
-19.3803138616
 10
6.4777885798
 20
-19.3872364074
  0
LINE
  5
5C1
100
AcDbEntity
  8
RACCORDO
100
AcDbLine
 62
7
  6
CONTINUOUS
 10
6.4810842239
 20
-19.3223137455
 11
6.4803168614
 21
-19.3302852056
  0
LINE
  5
5C2
100
AcDbEntity
  8
ASSI
100
AcDbLine
 62
7
  6
CONTINUOUS
 10
6.4810842239
 20
-19.3223137455
 11
6.4803168614
 21
-19.3302852056
  0
LINE
  5
5C3
100
AcDbEntity
  8
RACCORDO
100
AcDbLine
 62
7
  6
CONTINUOUS
 10
6.4825542058
 20
-19.3076322506
 11
6.4820720569
 21
-19.3125947811
  0
LINE
  5
5C4
100
AcDbEntity
  8
ASSI
100
AcDbLine
 62
7
  6
CONTINUOUS
 10
6.4825542058
 20
-19.3076322506
 11
6.4820720569
 21
-19.3125947811
  0
LINE
  5
5C5
100
AcDbEntity
  8
RACCORDO
100
AcDbLine
 62
7
  6
CONTINUOUS
 10
6.4820720569
 20
-19.3125947811
 11
6.4810842239
 21
-19.3223137455
  0
LINE
  5
5C6
100
AcDbEntity
  8
ASSI
100
AcDbLine
 62
7
  6
CONTINUOUS
 10
6.4820720569
 20
-19.3125947811
 11
6.4810842239
 21
-19.3223137455
  0
LINE
  5
5C7
100
AcDbEntity
  8
DRAFT
100
AcDbLine
 62
7
  6
CONTINUOUS
 10
-4.4
 20
-22.4
 11
-4.3559327327
 21
-22.3338981669
  0
LINE
  5
5C8
100
AcDbEntity
  8
ASSI
100
AcDbLine
 62
7
  6
CONTINUOUS
 10
-4.4
 20
-22.4
 11
-4.3559327327
 21
-22.3338981669
  0
LINE
  5
5C9
100
AcDbEntity
  8
DRAFT
100
AcDbLine
 62
7
  6
CONTINUOUS
 10
9.9976142915
 20
-3.6502498994
 11
10.9942403901
 21
-2.8338615933
  0
LINE
  5
5CA
100
AcDbEntity
  8
ASSI
100
AcDbLine
 62
7
  6
CONTINUOUS
 10
6.25
 20
7.800371928
 11
-6.25
 21
7.800371928
  0
LINE
  5
5CB
100
AcDbEntity
  8
0
100
AcDbLine
 62
7
  6
CONTINUOUS
 10
9.4946499221
 20
8.6
 11
8.9
 21
8.6
  0
LINE
  5
5CC
100
AcDbEntity
  8
ASSI
100
AcDbLine
 62
7
  6
CONTINUOUS
 10
9.4946499221
 20
8.6
 11
8.9
 21
8.6
  0
LINE
  5
5CD
100
AcDbEntity
  8
0
100
AcDbLine
 62
7
  6
CONTINUOUS
 10
-8.9
 20
8.6
 11
-9.4946499221
 21
8.6
  0
LINE
  5
5CE
100
AcDbEntity
  8
ASSI
100
AcDbLine
 62
7
  6
CONTINUOUS
 10
-8.9
 20
8.6
 11
-9.4946499221
 21
8.6
  0
LINE
  5
5CF
100
AcDbEntity
  8
0
100
AcDbLine
 62
253
  6
CONTINUOUS
 10
-9.5549460544
 20
8.6602961322
 11
-8.9
 21
8.6602961322
  0
LINE
  5
5D0
100
AcDbEntity
  8
ASSI
100
AcDbLine
 62
253
  6
CONTINUOUS
 10
-9.5549460544
 20
8.6602961322
 11
-8.9
 21
8.6602961322
  0
LINE
  5
5D1
100
AcDbEntity
  8
0
100
AcDbLine
 62
253
  6
CONTINUOUS
 10
8.9
 20
8.6602961322
 11
9.5549460544
 21
8.6602961322
  0
LINE
  5
5D2
100
AcDbEntity
  8
ASSI
100
AcDbLine
 62
253
  6
CONTINUOUS
 10
8.9
 20
8.6602961322
 11
9.5549460544
 21
8.6602961322
  0
LINE
  5
5D3
100
AcDbEntity
  8
0
100
AcDbLine
 62
253
  6
CONTINUOUS
 10
-9.5592336624
 20
8.910258056
 11
-8.9
 21
8.910258056
  0
LINE
  5
5D4
100
AcDbEntity
  8
ASSI
100
AcDbLine
 62
253
  6
CONTINUOUS
 10
-9.5592336624
 20
8.910258056
 11
-8.9
 21
8.910258056
  0
LINE
  5
5D5
100
AcDbEntity
  8
0
100
AcDbLine
 62
253
  6
CONTINUOUS
 10
8.9
 20
8.910258056
 11
9.5592336624
 21
8.910258056
  0
LINE
  5
5D6
100
AcDbEntity
  8
ASSI
100
AcDbLine
 62
253
  6
CONTINUOUS
 10
8.9
 20
8.910258056
 11
9.5592336624
 21
8.910258056
  0
LINE
  5
5D7
100
AcDbEntity
  8
0
100
AcDbLine
 62
253
  6
CONTINUOUS
 10
-9.5592336624
 20
9.089741944
 11
-8.9
 21
9.089741944
  0
LINE
  5
5D8
100
AcDbEntity
  8
ASSI
100
AcDbLine
 62
253
  6
CONTINUOUS
 10
-9.5592336624
 20
9.089741944
 11
-8.9
 21
9.089741944
  0
LINE
  5
5D9
100
AcDbEntity
  8
0
100
AcDbLine
 62
253
  6
CONTINUOUS
 10
9.5592336624
 20
9.089741944
 11
8.9
 21
9.089741944
  0
LINE
  5
5DA
100
AcDbEntity
  8
ASSI
100
AcDbLine
 62
253
  6
CONTINUOUS
 10
9.5592336624
 20
9.089741944
 11
8.9
 21
9.089741944
  0
LINE
  5
5DB
100
AcDbEntity
  8
0
100
AcDbLine
 62
7
  6
CONTINUOUS
 10
-6.3301884152
 20
17.3001256195
 11
-6.3516319481
 21
17.3215691524
  0
LINE
  5
5DC
100
AcDbEntity
  8
ASSI
100
AcDbLine
 62
7
  6
CONTINUOUS
 10
-6.3301884152
 20
17.3001256195
 11
-6.3516319481
 21
17.3215691524
  0
LINE
  5
5DD
100
AcDbEntity
  8
DRAFT
100
AcDbLine
 62
7
  6
CONTINUOUS
 10
-4.4
 20
22.4
 11
-4.3559327327
 21
22.3338981669
  0
LINE
  5
5DE
100
AcDbEntity
  8
ASSI
100
AcDbLine
 62
7
  6
CONTINUOUS
 10
-4.4
 20
22.4
 11
-4.3559327327
 21
22.3338981669
  0
LINE
  5
5DF
100
AcDbEntity
  8
CURVE
100
AcDbLine
 62
7
  6
CONTINUOUS
 10
10.220439948
 20
-5.0
 11
10.2553500779
 21
-5.1749773271
  0
LINE
  5
5E0
100
AcDbEntity
  8
ASSI
100
AcDbLine
 62
7
  6
CONTINUOUS
 10
10.220439948
 20
-5.0
 11
10.2553500779
 21
-5.1749773271
  0
LWPOLYLINE
  5
5E1
100
AcDbEntity
  8
ASSI
100
AcDbPolyline
 62
7
  6
CONTINUOUS
 90
40
 70
0
 10
10.3
 20
0.1950467125
 10
10.2960712245
 20
0.2716495723
 10
10.2849322545
 20
0.3467966733
 10
10.26658309
 20
0.4204880155
 10
10.2408121258
 20
0.4931806507
 10
10.207830967
 20
0.5644175272
 10
10.1682744295
 20
0.6328274894
 10
10.1220151342
 20
0.6983557742
 10
10.0691804602
 20
0.7610571448
 10
10.0107873604
 20
0.8197247358
 10
9.9467281562
 20
0.8742804044
 10
9.8771105262
 20
0.9248022935
 10
9.8032744587
 20
0.9703179661
 10
9.7251382338
 20
1.0107304414
 10
9.6427835713
 20
1.0461367003
 10
9.5577956201
 20
1.0758552492
 10
9.4701233677
 20
1.099775905
 10
9.3798178265
 20
1.1180088507
 10
9.2886171823
 20
1.1302031417
 10
9.1965040951
 20
1.1362417964
 10
9.1034959049
 20
1.1362417964
 10
9.0113828177
 20
1.1302031417
 10
8.9201821735
 20
1.1180088507
 10
8.8298766323
 20
1.099775905
 10
8.7422043799
 20
1.0758552492
 10
8.6572164287
 20
1.0461367003
 10
8.5748617662
 20
1.0107304414
 10
8.4967255413
 20
0.9703179661
 10
8.4228894738
 20
0.9248022935
 10
8.3532718438
 20
0.8742804044
 10
8.2892126396
 20
0.8197247358
 10
8.2308195398
 20
0.7610571448
 10
8.1779848658
 20
0.6983557742
 10
8.1317255705
 20
0.6328274894
 10
8.092169033
 20
0.5644175272
 10
8.0591878742
 20
0.4931806507
 10
8.03341691
 20
0.4204880155
 10
8.0150677455
 20
0.3467966733
 10
8.0039287755
 20
0.2716495723
 10
8.0
 20
0.1950467125
  0
LWPOLYLINE
  5
5E2
100
AcDbEntity
  8
RACCORDO
100
AcDbPolyline
 62
253
  6
CONTINUOUS
 90
31
 70
0
 10
10.645628166
 20
-23.8443375673
 10
10.6452496104
 20
-23.833039595
 10
10.6441904828
 20
-23.821769291
 10
10.6424531063
 20
-23.8105574212
 10
10.6400414049
 20
-23.7994336121
 10
10.6369615346
 20
-23.78842936
 10
10.6332224836
 20
-23.7775778202
 10
10.6288349392
 20
-23.7669096972
 10
10.6238105402
 20
-23.7564530239
 10
10.6181628596
 20
-23.746236105
 10
10.6119071671
 20
-23.7362866999
 10
10.6050605925
 20
-23.7266321754
 10
10.5976419842
 20
-23.7172991519
 10
10.5896716801
 20
-23.7083132018
 10
10.5811713853
 20
-23.6996987826
 10
10.5721642949
 20
-23.6914794042
 10
10.5626749912
 20
-23.6836775075
 10
10.5527294041
 20
-23.6763144193
 10
10.5423547212
 20
-23.6694102704
 10
10.5315792888
 20
-23.6629839239
 10
10.5204325308
 20
-23.6570529269
 10
10.5089448938
 20
-23.6516334796
 10
10.497147737
 20
-23.6467403776
 10
10.4850733006
 20
-23.6423869945
 10
10.472754621
 20
-23.6385852371
 10
10.4602253856
 20
-23.6353454907
 10
10.4475197828
 20
-23.6326765842
 10
10.434672462
 20
-23.6305857918
 10
10.4217184947
 20
-23.6290788219
 10
10.408693281
 20
-23.6281597935
 10
10.3956323968
 20
-23.6278312164
  0
LWPOLYLINE
  5
5E3
100
AcDbEntity
  8
ASSI
100
AcDbPolyline
 62
253
  6
CONTINUOUS
 90
31
 70
0
 10
10.645628166
 20
-23.8443375673
 10
10.6452496104
 20
-23.833039595
 10
10.6441904828
 20
-23.821769291
 10
10.6424531063
 20
-23.8105574212
 10
10.6400414049
 20
-23.7994336121
 10
10.6369615346
 20
-23.78842936
 10
10.6332224836
 20
-23.7775778202
 10
10.6288349392
 20
-23.7669096972
 10
10.6238105402
 20
-23.7564530239
 10
10.6181628596
 20
-23.746236105
 10
10.6119071671
 20
-23.7362866999
 10
10.6050605925
 20
-23.7266321754
 10
10.5976419842
 20
-23.7172991519
 10
10.5896716801
 20
-23.7083132018
 10
10.5811713853
 20
-23.6996987826
 10
10.5721642949
 20
-23.6914794042
 10
10.5626749912
 20
-23.6836775075
 10
10.5527294041
 20
-23.6763144193
 10
10.5423547212
 20
-23.6694102704
 10
10.5315792888
 20
-23.6629839239
 10
10.5204325308
 20
-23.6570529269
 10
10.5089448938
 20
-23.6516334796
 10
10.497147737
 20
-23.6467403776
 10
10.4850733006
 20
-23.6423869945
 10
10.472754621
 20
-23.6385852371
 10
10.4602253856
 20
-23.6353454907
 10
10.4475197828
 20
-23.6326765842
 10
10.434672462
 20
-23.6305857918
 10
10.4217184947
 20
-23.6290788219
 10
10.408693281
 20
-23.6281597935
 10
10.3956323968
 20
-23.6278312164
  0
LINE
  5
5E4
100
AcDbEntity
  8
RACCORDO
100
AcDbLine
 62
253
  6
CONTINUOUS
 10
10.3956323968
 20
23.6278312164
 11
10.4007229979
 21
23.1226497308
  0
LINE
  5
5E5
100
AcDbEntity
  8
ASSI
100
AcDbLine
 62
253
  6
CONTINUOUS
 10
10.3956323968
 20
23.6278312164
 11
10.4007229979
 21
23.1226497308
  0
LINE
  5
5E6
100
AcDbEntity
  8
RACCORDO
100
AcDbLine
 62
253
  6
CONTINUOUS
 10
10.645628166
 20
23.8443375673
 11
10.65
 21
23.4104851482
  0
LINE
  5
5E7
100
AcDbEntity
  8
ASSI
100
AcDbLine
 62
253
  6
CONTINUOUS
 10
10.645628166
 20
23.8443375673
 11
10.65
 21
23.4104851482
  0
LINE
  5
5E8
100
AcDbEntity
  8
ASSI
100
AcDbLine
 62
253
  6
CONTINUOUS
 10
10.6456238859
 20
24.2470868299
 11
10.645628166
 21
24.2456323968
  0
LINE
  5
5E9
100
AcDbEntity
  8
DRAFT
100
AcDbLine
 62
7
  6
CONTINUOUS
 10
9.9976142915
 20
5.9331455644
 11
10.0
 21
4.9914624407
  0
LINE
  5
5EA
100
AcDbEntity
  8
RACCORDO
100
AcDbLine
 62
7
  6
CONTINUOUS
 10
9.4946499221
 20
19.9333419123
 11
9.4946499221
 21
19.1053500779
  0
LINE
  5
5EB
100
AcDbEntity
  8
ASSI
100
AcDbLine
 62
7
  6
CONTINUOUS
 10
9.4946499221
 20
19.9333419123
 11
9.4946499221
 21
19.1053500779
  0
LINE
  5
5EC
100
AcDbEntity
  8
0
100
AcDbLine
 62
7
  6
CONTINUOUS
 10
9.4946499221
 20
9.8946499221
 11
9.4946499221
 21
9.4
  0
LINE
  5
5ED
100
AcDbEntity
  8
ASSI
100
AcDbLine
 62
7
  6
CONTINUOUS
 10
9.4946499221
 20
9.8946499221
 11
9.4946499221
 21
9.4
  0
LINE
  5
5EE
100
AcDbEntity
  8
0
100
AcDbLine
 62
7
  6
CONTINUOUS
 10
9.4946499221
 20
8.6
 11
9.4946499221
 21
5.9331455644
  0
LINE
  5
5EF
100
AcDbEntity
  8
ASSI
100
AcDbLine
 62
7
  6
CONTINUOUS
 10
9.4946499221
 20
8.6
 11
9.4946499221
 21
5.9331455644
  0
LINE
  5
5F0
100
AcDbEntity
  8
0
100
AcDbLine
 62
7
  6
CONTINUOUS
 10
9.4946499221
 20
-4.0645837402
 11
9.4946499221
 21
-14.7
  0
LINE
  5
5F1
100
AcDbEntity
  8
ASSI
100
AcDbLine
 62
7
  6
CONTINUOUS
 10
9.4946499221
 20
-4.0645837402
 11
9.4946499221
 21
-14.7
  0
LINE
  5
5F2
100
AcDbEntity
  8
RACCORDO
100
AcDbLine
 62
7
  6
CONTINUOUS
 10
9.529560052
 20
-19.3
 11
9.529560052
 21
-15.2792978419
  0
LINE
  5
5F3
100
AcDbEntity
  8
ASSI
100
AcDbLine
 62
7
  6
CONTINUOUS
 10
9.529560052
 20
-19.3
 11
9.529560052
 21
-15.2792978419
  0
LINE
  5
5F4
100
AcDbEntity
  8
0
100
AcDbLine
 62
7
  6
CONTINUOUS
 10
9.5592336624
 20
7.132101539
 11
9.5592336624
 21
5.9331455644
  0
LINE
  5
5F5
100
AcDbEntity
  8
ASSI
100
AcDbLine
 62
7
  6
CONTINUOUS
 10
9.5592336624
 20
7.132101539
 11
9.5592336624
 21
5.9331455644
  0
LINE
  5
5F6
100
AcDbEntity
  8
0
100
AcDbLine
 62
7
  6
CONTINUOUS
 10
9.5592336624
 20
-7.132101539
 11
9.5592336624
 21
-4.0
  0
LINE
  5
5F7
100
AcDbEntity
  8
ASSI
100
AcDbLine
 62
7
  6
CONTINUOUS
 10
9.5592336624
 20
-7.132101539
 11
9.5592336624
 21
-4.0
  0
LINE
  5
5F8
100
AcDbEntity
  8
0
100
AcDbLine
 62
7
  6
CONTINUOUS
 10
9.5592336624
 20
8.910258056
 11
9.5592336624
 21
9.089741944
  0
LINE
  5
5F9
100
AcDbEntity
  8
ASSI
100
AcDbLine
 62
7
  6
CONTINUOUS
 10
9.5592336624
 20
8.910258056
 11
9.5592336624
 21
9.089741944
  0
LINE
  5
5FA
100
AcDbEntity
  8
RACCORDO
100
AcDbLine
 62
7
  6
CONTINUOUS
 10
9.5871617663
 20
-20.2111031425
 11
9.5871617663
 21
-19.8
  0
LINE
  5
5FB
100
AcDbEntity
  8
ASSI
100
AcDbLine
 62
7
  6
CONTINUOUS
 10
9.5871617663
 20
-20.2111031425
 11
9.5871617663
 21
-19.8
  0
LINE
  5
5FC
100
AcDbEntity
  8
RACCORDO
100
AcDbLine
 62
7
  6
CONTINUOUS
 10
9.65
 20
-20.3997711479
 11
9.65
 21
-7.169698187
  0
LINE
  5
5FD
100
AcDbEntity
  8
ASSI
100
AcDbLine
 62
7
  6
CONTINUOUS
 10
9.65
 20
-20.3997711479
 11
9.65
 21
-7.169698187
  0
LINE
  5
5FE
100
AcDbEntity
  8
0
100
AcDbLine
 62
7
  6
CONTINUOUS
 10
9.65
 20
7.169698187
 11
9.65
 21
9.830301813
  0
LINE
  5
5FF
100
AcDbEntity
  8
ASSI
100
AcDbLine
 62
7
  6
CONTINUOUS
 10
9.65
 20
7.169698187
 11
9.65
 21
9.830301813
  0
LINE
  5
600
100
AcDbEntity
  8
RACCORDO
100
AcDbLine
 62
7
  6
CONTINUOUS
 10
9.65
 20
19.169698187
 11
9.65
 21
20.3997711479
  0
LINE
  5
601
100
AcDbEntity
  8
ASSI
100
AcDbLine
 62
7
  6
CONTINUOUS
 10
9.65
 20
19.169698187
 11
9.65
 21
20.3997711479
  0
LINE
  5
602
100
AcDbEntity
  8
0
100
AcDbLine
 62
7
  6
CONTINUOUS
 10
10.1
 20
10.5
 11
10.1
 21
18.5
  0
LINE
  5
603
100
AcDbEntity
  8
ASSI
100
AcDbLine
 62
7
  6
CONTINUOUS
 10
10.1
 20
10.5
 11
10.1
 21
18.5
  0
LINE
  5
604
100
AcDbEntity
  8
CURVE
100
AcDbLine
 62
7
  6
CONTINUOUS
 10
10.1645837402
 20
-6.5267514611
 11
10.1645837402
 21
-3.5134765341
  0
LINE
  5
605
100
AcDbEntity
  8
ASSI
100
AcDbLine
 62
7
  6
CONTINUOUS
 10
10.1645837402
 20
-6.5267514611
 11
10.1645837402
 21
-3.5134765341
  0
LINE
  5
606
100
AcDbEntity
  8
CURVE
100
AcDbLine
 62
7
  6
CONTINUOUS
 10
10.1645837402
 20
5.7963721991
 11
10.1645837402
 21
6.5267514611
  0
LINE
  5
607
100
AcDbEntity
  8
ASSI
100
AcDbLine
 62
7
  6
CONTINUOUS
 10
10.1645837402
 20
5.7963721991
 11
10.1645837402
 21
6.5267514611
  0
LINE
  5
608
100
AcDbEntity
  8
CURVE
100
AcDbLine
 62
7
  6
CONTINUOUS
 10
10.220439948
 20
-5.0
 11
10.220439948
 21
-3.4677218073
  0
LINE
  5
609
100
AcDbEntity
  8
ASSI
100
AcDbLine
 62
7
  6
CONTINUOUS
 10
10.220439948
 20
-5.0
 11
10.220439948
 21
-3.4677218073
  0
LINE
  5
60A
100
AcDbEntity
  8
CURVE
100
AcDbLine
 62
7
  6
CONTINUOUS
 10
10.2553500779
 20
6.5643481092
 11
10.2553500779
 21
5.7220207681
  0
LINE
  5
60B
100
AcDbEntity
  8
ASSI
100
AcDbLine
 62
7
  6
CONTINUOUS
 10
10.2553500779
 20
6.5643481092
 11
10.2553500779
 21
5.7220207681
  0
LINE
  5
60C
100
AcDbEntity
  8
CURVE
100
AcDbLine
 62
7
  6
CONTINUOUS
 10
10.2553500779
 20
-5.1749773271
 11
10.2553500779
 21
-6.5643481092
  0
LINE
  5
60D
100
AcDbEntity
  8
ASSI
100
AcDbLine
 62
7
  6
CONTINUOUS
 10
10.2553500779
 20
-5.1749773271
 11
10.2553500779
 21
-6.5643481092
  0
LINE
  5
60E
100
AcDbEntity
  8
0
100
AcDbLine
 62
7
  6
CONTINUOUS
 10
10.2553500779
 20
10.4356518908
 11
10.2553500779
 21
18.5643481092
  0
LINE
  5
60F
100
AcDbEntity
  8
ASSI
100
AcDbLine
 62
7
  6
CONTINUOUS
 10
10.2553500779
 20
10.4356518908
 11
10.2553500779
 21
18.5643481092
  0
LINE
  5
610
100
AcDbEntity
  8
RACCORDO
100
AcDbLine
 62
253
  6
CONTINUOUS
 10
10.3956323968
 20
-23.6278312164
 11
10.3956323968
 21
-24.495628166
  0
LINE
  5
611
100
AcDbEntity
  8
ASSI
100
AcDbLine
 62
253
  6
CONTINUOUS
 10
10.3956323968
 20
-23.6278312164
 11
10.3956323968
 21
-24.495628166
  0
LINE
  5
612
100
AcDbEntity
  8
RACCORDO
100
AcDbLine
 62
253
  6
CONTINUOUS
 10
10.3956323968
 20
23.6278312164
 11
10.3956323968
 21
24.495628166
  0
LINE
  5
613
100
AcDbEntity
  8
ASSI
100
AcDbLine
 62
253
  6
CONTINUOUS
 10
10.3956323968
 20
23.6278312164
 11
10.3956323968
 21
24.495628166
  0
LINE
  5
614
100
AcDbEntity
  8
RACCORDO
100
AcDbLine
 62
253
  6
CONTINUOUS
 10
10.645628166
 20
-24.2456323968
 11
10.645628166
 21
-23.8443375673
  0
LINE
  5
615
100
AcDbEntity
  8
ASSI
100
AcDbLine
 62
7
  6
CONTINUOUS
 10
10.645628166
 20
-24.2456323968
 11
10.645628166
 21
-23.8443375673
  0
LINE
  5
616
100
AcDbEntity
  8
RACCORDO
100
AcDbLine
 62
253
  6
CONTINUOUS
 10
10.645628166
 20
23.8443375673
 11
10.645628166
 21
24.2456323968
  0
LINE
  5
617
100
AcDbEntity
  8
ASSI
100
AcDbLine
 62
7
  6
CONTINUOUS
 10
10.645628166
 20
23.8443375673
 11
10.645628166
 21
24.2456323968
  0
LINE
  5
618
100
AcDbEntity
  8
RACCORDO
100
AcDbLine
 62
7
  6
CONTINUOUS
 10
10.65
 20
-22.399689968
 11
10.65
 21
-23.8443375673
  0
LINE
  5
619
100
AcDbEntity
  8
ASSI
100
AcDbLine
 62
7
  6
CONTINUOUS
 10
10.65
 20
-22.399689968
 11
10.65
 21
-23.8443375673
  0
LINE
  5
61A
100
AcDbEntity
  8
RACCORDO
100
AcDbLine
 62
7
  6
CONTINUOUS
 10
10.65
 20
22.399689968
 11
10.65
 21
23.8443375673
  0
LINE
  5
61B
100
AcDbEntity
  8
ASSI
100
AcDbLine
 62
7
  6
CONTINUOUS
 10
10.65
 20
22.399689968
 11
10.65
 21
23.8443375673
  0
LINE
  5
61C
100
AcDbEntity
  8
DRAFT
100
AcDbLine
 62
7
  6
CONTINUOUS
 10
10.9942403901
 20
3.2239550184
 11
10.9942403901
 21
-2.8338615933
  0
LINE
  5
61D
100
AcDbEntity
  8
DRAFT
100
AcDbLine
 62
7
  6
CONTINUOUS
 10
11.0
 20
4.1723103964
 11
11.0
 21
-1.8894147313
  0
LINE
  5
61E
100
AcDbEntity
  8
DRAFT
100
AcDbLine
 62
7
  6
CONTINUOUS
 10
10.0
 20
4.9914624407
 11
9.9976142915
 21
4.0403433245
  0
LINE
  5
61F
100
AcDbEntity
  8
DRAFT
100
AcDbLine
 62
7
  6
CONTINUOUS
 10
11.0
 20
4.1723103964
 11
10.9942403901
 21
3.2239550184
  0
LINE
  5
620
100
AcDbEntity
  8
RACCORDO
100
AcDbLine
 62
253
  6
CONTINUOUS
 10
10.4007229979
 20
-23.1226497308
 11
10.3956323968
 21
-23.6278312164
  0
LINE
  5
621
100
AcDbEntity
  8
ASSI
100
AcDbLine
 62
253
  6
CONTINUOUS
 10
10.4007229979
 20
-23.1226497308
 11
10.3956323968
 21
-23.6278312164
  0
LINE
  5
622
100
AcDbEntity
  8
RACCORDO
100
AcDbLine
 62
253
  6
CONTINUOUS
 10
10.65
 20
-23.4104851482
 11
10.645628166
 21
-23.8443375673
  0
LINE
  5
623
100
AcDbEntity
  8
ASSI
100
AcDbLine
 62
253
  6
CONTINUOUS
 10
10.65
 20
-23.4104851482
 11
10.645628166
 21
-23.8443375673
  0
LWPOLYLINE
  5
624
100
AcDbEntity
  8
RACCORDO
100
AcDbPolyline
 62
253
  6
CONTINUOUS
 90
31
 70
0
 10
10.645628166
 20
23.8443375673
 10
10.6452496104
 20
23.833039595
 10
10.6441904828
 20
23.821769291
 10
10.6424531063
 20
23.8105574212
 10
10.6400414049
 20
23.7994336121
 10
10.6369615346
 20
23.78842936
 10
10.6332224836
 20
23.7775778202
 10
10.6288349392
 20
23.7669096972
 10
10.6238105402
 20
23.7564530239
 10
10.6181628596
 20
23.746236105
 10
10.6119071671
 20
23.7362866999
 10
10.6050605925
 20
23.7266321754
 10
10.5976419842
 20
23.7172991519
 10
10.5896716801
 20
23.7083132018
 10
10.5811713853
 20
23.6996987826
 10
10.5721642949
 20
23.6914794042
 10
10.5626749912
 20
23.6836775075
 10
10.5527294041
 20
23.6763144193
 10
10.5423547212
 20
23.6694102704
 10
10.5315792888
 20
23.6629839239
 10
10.5204325308
 20
23.6570529269
 10
10.5089448938
 20
23.6516334796
 10
10.497147737
 20
23.6467403776
 10
10.4850733006
 20
23.6423869945
 10
10.472754621
 20
23.6385852371
 10
10.4602253856
 20
23.6353454907
 10
10.4475197828
 20
23.6326765842
 10
10.434672462
 20
23.6305857918
 10
10.4217184947
 20
23.6290788219
 10
10.408693281
 20
23.6281597935
 10
10.3956323968
 20
23.6278312164
  0
LWPOLYLINE
  5
625
100
AcDbEntity
  8
ASSI
100
AcDbPolyline
 62
253
  6
CONTINUOUS
 90
31
 70
0
 10
10.645628166
 20
23.8443375673
 10
10.6452496104
 20
23.833039595
 10
10.6441904828
 20
23.821769291
 10
10.6424531063
 20
23.8105574212
 10
10.6400414049
 20
23.7994336121
 10
10.6369615346
 20
23.78842936
 10
10.6332224836
 20
23.7775778202
 10
10.6288349392
 20
23.7669096972
 10
10.6238105402
 20
23.7564530239
 10
10.6181628596
 20
23.746236105
 10
10.6119071671
 20
23.7362866999
 10
10.6050605925
 20
23.7266321754
 10
10.5976419842
 20
23.7172991519
 10
10.5896716801
 20
23.7083132018
 10
10.5811713853
 20
23.6996987826
 10
10.5721642949
 20
23.6914794042
 10
10.5626749912
 20
23.6836775075
 10
10.5527294041
 20
23.6763144193
 10
10.5423547212
 20
23.6694102704
 10
10.5315792888
 20
23.6629839239
 10
10.5204325308
 20
23.6570529269
 10
10.5089448938
 20
23.6516334796
 10
10.497147737
 20
23.6467403776
 10
10.4850733006
 20
23.6423869945
 10
10.472754621
 20
23.6385852371
 10
10.4602253856
 20
23.6353454907
 10
10.4475197828
 20
23.6326765842
 10
10.434672462
 20
23.6305857918
 10
10.4217184947
 20
23.6290788219
 10
10.408693281
 20
23.6281597935
 10
10.3956323968
 20
23.6278312164
  0
LINE
  5
626
100
AcDbEntity
  8
0
100
AcDbLine
 62
7
  6
CONTINUOUS
 10
7.3209441873
 20
-20.7113319946
 11
7.2988376746
 21
-20.9104703804
  0
LINE
  5
627
100
AcDbEntity
  8
ASSI
100
AcDbLine
 62
7
  6
CONTINUOUS
 10
7.3209441873
 20
-20.7113319946
 11
7.2988376746
 21
-20.9104703804
  0
LINE
  5
628
100
AcDbEntity
  8
RACCORDO
100
AcDbLine
 62
253
  6
CONTINUOUS
 10
7.3222114202
 20
-19.3872364074
 11
7.2418217019
 21
-20.0309207141
  0
LINE
  5
629
100
AcDbEntity
  8
ASSI
100
AcDbLine
 62
253
  6
CONTINUOUS
 10
7.3222114202
 20
-19.3872364074
 11
7.2418217019
 21
-20.0309207141
  0
LINE
  5
62A
100
AcDbEntity
  8
0
100
AcDbLine
 62
253
  6
CONTINUOUS
 10
7.3331063731
 20
-19.3
 11
7.3401430257
 21
-19.243657187
  0
LINE
  5
62B
100
AcDbEntity
  8
ASSI
100
AcDbLine
 62
253
  6
CONTINUOUS
 10
7.3331063731
 20
-19.3
 11
7.3401430257
 21
-19.243657187
  0
LINE
  5
62C
100
AcDbEntity
  8
CURVE
100
AcDbLine
 62
7
  6
CONTINUOUS
 10
11.15
 20
5.1749773271
 11
11.1150898701
 21
5.0
  0
LINE
  5
62D
100
AcDbEntity
  8
ASSI
100
AcDbLine
 62
7
  6
CONTINUOUS
 10
11.15
 20
5.1749773271
 11
11.1150898701
 21
5.0
  0
LINE
  5
62E
100
AcDbEntity
  8
0
100
AcDbLine
 62
7
  6
CONTINUOUS
 10
9.4946499221
 20
-4.0645837402
 11
9.5592336624
 21
-4.0
  0
LINE
  5
62F
100
AcDbEntity
  8
ASSI
100
AcDbLine
 62
7
  6
CONTINUOUS
 10
9.4946499221
 20
-4.0645837402
 11
9.5592336624
 21
-4.0
  0
LINE
  5
630
100
AcDbEntity
  8
0
100
AcDbLine
 62
253
  6
CONTINUOUS
 10
-9.5549460544
 20
9.3397038678
 11
-8.9
 21
9.3397038678
  0
LINE
  5
631
100
AcDbEntity
  8
ASSI
100
AcDbLine
 62
253
  6
CONTINUOUS
 10
-9.5549460544
 20
9.3397038678
 11
-8.9
 21
9.3397038678
  0
LINE
  5
632
100
AcDbEntity
  8
0
100
AcDbLine
 62
253
  6
CONTINUOUS
 10
9.5549460544
 20
9.3397038678
 11
8.9
 21
9.3397038678
  0
LINE
  5
633
100
AcDbEntity
  8
ASSI
100
AcDbLine
 62
253
  6
CONTINUOUS
 10
9.5549460544
 20
9.3397038678
 11
8.9
 21
9.3397038678
  0
LINE
  5
634
100
AcDbEntity
  8
0
100
AcDbLine
 62
7
  6
CONTINUOUS
 10
9.4946499221
 20
9.4
 11
8.9
 21
9.4
  0
LINE
  5
635
100
AcDbEntity
  8
ASSI
100
AcDbLine
 62
7
  6
CONTINUOUS
 10
9.4946499221
 20
9.4
 11
8.9
 21
9.4
  0
LINE
  5
636
100
AcDbEntity
  8
0
100
AcDbLine
 62
7
  6
CONTINUOUS
 10
-8.9
 20
9.4
 11
-9.4946499221
 21
9.4
  0
LINE
  5
637
100
AcDbEntity
  8
ASSI
100
AcDbLine
 62
7
  6
CONTINUOUS
 10
-8.9
 20
9.4
 11
-9.4946499221
 21
9.4
  0
LINE
  5
638
100
AcDbEntity
  8
0
100
AcDbLine
 62
7
  6
CONTINUOUS
 10
8.9
 20
10.2757581504
 11
7.25
 21
10.2757581504
  0
LINE
  5
639
100
AcDbEntity
  8
0
100
AcDbLine
 62
7
  6
CONTINUOUS
 10
-7.25
 20
10.2757581504
 11
-8.9
 21
10.2757581504
  0
LINE
  5
63A
100
AcDbEntity
  8
DRAFT
100
AcDbLine
 62
7
  6
CONTINUOUS
 10
9.9976142915
 20
4.0403433245
 11
10.9942403901
 21
3.2239550184
  0
LINE
  5
63B
100
AcDbEntity
  8
DRAFT
100
AcDbLine
 62
7
  6
CONTINUOUS
 10
10.0
 20
4.9914624407
 11
11.0
 21
4.1723103964
  0
LINE
  5
63C
100
AcDbEntity
  8
DRAFT
100
AcDbLine
 62
7
  6
CONTINUOUS
 10
9.9976142915
 20
5.9331455644
 11
10.9942403901
 21
5.1167572583
  0
LINE
  5
63D
100
AcDbEntity
  8
CURVE
100
AcDbLine
 62
7
  6
CONTINUOUS
 10
11.15
 20
-5.1749773271
 11
11.1150898701
 21
-5.0
  0
LINE
  5
63E
100
AcDbEntity
  8
ASSI
100
AcDbLine
 62
7
  6
CONTINUOUS
 10
11.15
 20
-5.1749773271
 11
11.1150898701
 21
-5.0
  0
LINE
  5
63F
100
AcDbEntity
  8
0
100
AcDbLine
 62
253
  6
CONTINUOUS
 10
7.2418217019
 20
20.0309207141
 11
7.2767286808
 21
19.7514188702
  0
LINE
  5
640
100
AcDbEntity
  8
ASSI
100
AcDbLine
 62
253
  6
CONTINUOUS
 10
7.2418217019
 20
20.0309207141
 11
7.2767286808
 21
19.7514188702
  0
LINE
  5
641
100
AcDbEntity
  8
0
100
AcDbLine
 62
7
  6
CONTINUOUS
 10
7.2988376746
 20
20.9104703804
 11
7.3261802341
 21
20.6641649932
  0
LINE
  5
642
100
AcDbEntity
  8
ASSI
100
AcDbLine
 62
7
  6
CONTINUOUS
 10
7.2988376746
 20
20.9104703804
 11
7.3261802341
 21
20.6641649932
  0
LINE
  5
643
100
AcDbEntity
  8
DRAFT
100
AcDbLine
 62
7
  6
CONTINUOUS
 10
10.9942403901
 20
5.1167572583
 11
11.0
 21
4.1723103964
  0
LINE
  5
644
100
AcDbEntity
  8
CURVE
100
AcDbLine
 62
7
  6
CONTINUOUS
 10
11.1150898701
 20
5.0
 11
11.1150898701
 21
-5.0
  0
LINE
  5
645
100
AcDbEntity
  8
ASSI
100
AcDbLine
 62
7
  6
CONTINUOUS
 10
11.1150898701
 20
5.0
 11
11.1150898701
 21
-5.0
  0
LINE
  5
646
100
AcDbEntity
  8
CURVE
100
AcDbLine
 62
7
  6
CONTINUOUS
 10
11.15
 20
-21.8911779406
 11
11.15
 21
-5.1749773271
  0
LINE
  5
647
100
AcDbEntity
  8
ASSI
100
AcDbLine
 62
7
  6
CONTINUOUS
 10
11.15
 20
-21.8911779406
 11
11.15
 21
-5.1749773271
  0
LINE
  5
648
100
AcDbEntity
  8
CURVE
100
AcDbLine
 62
7
  6
CONTINUOUS
 10
11.15
 20
5.1749773271
 11
11.15
 21
21.8911779406
  0
LINE
  5
649
100
AcDbEntity
  8
ASSI
100
AcDbLine
 62
7
  6
CONTINUOUS
 10
11.15
 20
5.1749773271
 11
11.15
 21
21.8911779406
  0
LINE
  5
64A
100
AcDbEntity
  8
DRAFT
100
AcDbLine
 62
7
  6
CONTINUOUS
 10
11.0
 20
-1.8894147313
 11
10.9942403901
 21
-2.8338615933
  0
LWPOLYLINE
  5
64B
100
AcDbEntity
  8
RACCORDO
100
AcDbPolyline
 62
7
  6
CONTINUOUS
 90
4
 70
0
 10
10.65
 20
-24.2500042308
 10
10.6497168498
 20
-24.261899516
 10
10.6488680342
 20
-24.2737678556
 10
10.6474554741
 20
-24.2855823661
  0
LWPOLYLINE
  5
64C
100
AcDbEntity
  8
ASSI
100
AcDbPolyline
 62
7
  6
CONTINUOUS
 90
4
 70
0
 10
10.65
 20
-24.2500042308
 10
10.6497168498
 20
-24.261899516
 10
10.6488680342
 20
-24.2737678556
 10
10.6474554741
 20
-24.2855823661
  0
LWPOLYLINE
  5
64D
100
AcDbEntity
  8
RACCORDO
100
AcDbPolyline
 62
253
  6
CONTINUOUS
 90
31
 70
0
 10
10.645628166
 20
-24.2456323968
 10
10.6452851274
 20
-24.2587158828
 10
10.6442578375
 20
-24.2717635094
 10
10.642549112
 20
-24.2847395155
 10
10.640163634
 20
-24.2976083364
 10
10.6371079418
 20
-24.3103347009
 10
10.6333904104
 20
-24.3228837286
 10
10.6290212289
 20
-24.3352210249
 10
10.6240123724
 20
-24.3473127755
 10
10.6183775693
 20
-24.3591258393
 10
10.6121322634
 20
-24.3706278389
 10
10.605293572
 20
-24.3817872494
 10
10.5978802386
 20
-24.392573485
 10
10.5899125818
 20
-24.4029569826
 10
10.5814124395
 20
-24.4129092831
 10
10.572403109
 20
-24.422403109
 10
10.5629092831
 20
-24.4314124395
 10
10.5529569826
 20
-24.4399125818
 10
10.542573485
 20
-24.4478802386
 10
10.5317872494
 20
-24.455293572
 10
10.5206278389
 20
-24.4621322634
 10
10.5091258393
 20
-24.4683775693
 10
10.4973127755
 20
-24.4740123724
 10
10.4852210249
 20
-24.4790212289
 10
10.4728837286
 20
-24.4833904104
 10
10.4603347009
 20
-24.4871079418
 10
10.4476083364
 20
-24.490163634
 10
10.4347395155
 20
-24.492549112
 10
10.4217635094
 20
-24.4942578375
 10
10.4087158828
 20
-24.4952851274
 10
10.3956323968
 20
-24.495628166
  0
LWPOLYLINE
  5
64E
100
AcDbEntity
  8
ASSI
100
AcDbPolyline
 62
7
  6
CONTINUOUS
 90
31
 70
0
 10
10.645628166
 20
-24.2456323968
 10
10.6452851274
 20
-24.2587158828
 10
10.6442578375
 20
-24.2717635094
 10
10.642549112
 20
-24.2847395155
 10
10.640163634
 20
-24.2976083364
 10
10.6371079418
 20
-24.3103347009
 10
10.6333904104
 20
-24.3228837286
 10
10.6290212289
 20
-24.3352210249
 10
10.6240123724
 20
-24.3473127755
 10
10.6183775693
 20
-24.3591258393
 10
10.6121322634
 20
-24.3706278389
 10
10.605293572
 20
-24.3817872494
 10
10.5978802386
 20
-24.392573485
 10
10.5899125818
 20
-24.4029569826
 10
10.5814124395
 20
-24.4129092831
 10
10.572403109
 20
-24.422403109
 10
10.5629092831
 20
-24.4314124395
 10
10.5529569826
 20
-24.4399125818
 10
10.542573485
 20
-24.4478802386
 10
10.5317872494
 20
-24.455293572
 10
10.5206278389
 20
-24.4621322634
 10
10.5091258393
 20
-24.4683775693
 10
10.4973127755
 20
-24.4740123724
 10
10.4852210249
 20
-24.4790212289
 10
10.4728837286
 20
-24.4833904104
 10
10.4603347009
 20
-24.4871079418
 10
10.4476083364
 20
-24.490163634
 10
10.4347395155
 20
-24.492549112
 10
10.4217635094
 20
-24.4942578375
 10
10.4087158828
 20
-24.4952851274
 10
10.3956323968
 20
-24.495628166
  0
LINE
  5
64F
100
AcDbEntity
  8
ASSI
100
AcDbLine
 62
7
  6
CONTINUOUS
 10
-4.2610120715
 20
-23.6222095469
 11
-4.2344621874
 21
-23.5918579051
  0
LINE
  5
650
100
AcDbEntity
  8
ASSI
100
AcDbLine
 62
7
  6
CONTINUOUS
 10
-4.2344621874
 20
-23.5918579051
 11
-4.2041007772
 21
-23.5576772686
  0
LINE
  5
651
100
AcDbEntity
  8
ASSI
100
AcDbLine
 62
7
  6
CONTINUOUS
 10
-4.2041007772
 20
-23.5576772686
 11
-4.1699221498
 21
-23.5196770081
  0
LWPOLYLINE
  5
652
100
AcDbEntity
  8
ASSI
100
AcDbPolyline
 62
7
  6
CONTINUOUS
 90
3
 70
0
 10
-4.1699221498
 20
-23.5196770081
 10
-4.1116279299
 20
-23.4555921064
 10
-4.0903954009
 20
-23.4323809818
  0
LINE
  5
653
100
AcDbEntity
  8
CURVE
100
AcDbLine
 62
7
  6
CONTINUOUS
 10
9.5592336624
 20
-7.132101539
 11
10.1645837402
 21
-6.5267514611
  0
LINE
  5
654
100
AcDbEntity
  8
ASSI
100
AcDbLine
 62
7
  6
CONTINUOUS
 10
9.5592336624
 20
-7.132101539
 11
10.1645837402
 21
-6.5267514611
  0
LINE
  5
655
100
AcDbEntity
  8
CURVE
100
AcDbLine
 62
7
  6
CONTINUOUS
 10
10.2553500779
 20
-6.5643481092
 11
9.65
 21
-7.169698187
  0
LINE
  5
656
100
AcDbEntity
  8
ASSI
100
AcDbLine
 62
7
  6
CONTINUOUS
 10
10.2553500779
 20
-6.5643481092
 11
9.65
 21
-7.169698187
  0
LINE
  5
657
100
AcDbEntity
  8
CURVE
100
AcDbLine
 62
7
  6
CONTINUOUS
 10
-8.9731977143
 20
17.4681874516
 11
-9.05
 21
17.5
  0
LINE
  5
658
100
AcDbEntity
  8
ASSI
100
AcDbLine
 62
7
  6
CONTINUOUS
 10
-8.9731977143
 20
17.4681874516
 11
-9.05
 21
17.5
  0
LINE
  5
659
100
AcDbEntity
  8
0
100
AcDbLine
 62
7
  6
CONTINUOUS
 10
9.4946499221
 20
9.8946499221
 11
9.65
 21
9.830301813
  0
LINE
  5
65A
100
AcDbEntity
  8
ASSI
100
AcDbLine
 62
7
  6
CONTINUOUS
 10
9.4946499221
 20
9.8946499221
 11
9.65
 21
9.830301813
  0
LINE
  5
65B
100
AcDbEntity
  8
CURVE
100
AcDbLine
 62
7
  6
CONTINUOUS
 10
10.1645837402
 20
6.5267514611
 11
9.5592336624
 21
7.132101539
  0
LINE
  5
65C
100
AcDbEntity
  8
ASSI
100
AcDbLine
 62
7
  6
CONTINUOUS
 10
10.1645837402
 20
6.5267514611
 11
9.5592336624
 21
7.132101539
  0
LINE
  5
65D
100
AcDbEntity
  8
CURVE
100
AcDbLine
 62
7
  6
CONTINUOUS
 10
9.65
 20
7.169698187
 11
10.2553500779
 21
6.5643481092
  0
LINE
  5
65E
100
AcDbEntity
  8
ASSI
100
AcDbLine
 62
7
  6
CONTINUOUS
 10
9.65
 20
7.169698187
 11
10.2553500779
 21
6.5643481092
  0
LINE
  5
65F
100
AcDbEntity
  8
ASSI
100
AcDbLine
 62
7
  6
CONTINUOUS
 10
-4.0904346959
 20
23.4324240255
 11
-4.1514812036
 21
23.4993095214
  0
LINE
  5
660
100
AcDbEntity
  8
ASSI
100
AcDbLine
 62
7
  6
CONTINUOUS
 10
-4.1514812036
 20
23.4993095214
 11
-4.1875974032
 21
23.5392839187
  0
LINE
  5
661
100
AcDbEntity
  8
ASSI
100
AcDbLine
 62
7
  6
CONTINUOUS
 10
-4.1875974032
 20
23.5392839187
 11
-4.2199030903
 21
23.5754049204
  0
LWPOLYLINE
  5
662
100
AcDbEntity
  8
ASSI
100
AcDbPolyline
 62
7
  6
CONTINUOUS
 90
19
 70
0
 10
-4.2199030903
 20
23.5754049204
 10
-4.248374939
 20
23.6076985494
 10
-4.261184351
 20
23.6224079992
 10
-4.2730977873
 20
23.6362381892
 10
-4.28412319
 20
23.6491881602
 10
-4.294271948
 20
23.6612588713
 10
-4.3035883497
 20
23.6725244939
 10
-4.3120752357
 20
23.6829815422
 10
-4.319752274
 20
23.692633502
 10
-4.3266728146
 20
23.7015650018
 10
-4.3328521255
 20
23.7097961262
 10
-4.3382798184
 20
23.7173067906
 10
-4.3429611755
 20
23.7241213695
 10
-4.3469056421
 20
23.7302356312
 10
-4.3501212873
 20
23.7356538073
 10
-4.3526164863
 20
23.7404129678
 10
-4.354405432
 20
23.7445254691
 10
-4.3555052012
 20
23.7479789548
 10
-4.3559327327
 20
23.7507734247
  0
LINE
  5
663
100
AcDbEntity
  8
0
100
AcDbLine
 62
253
  6
CONTINUOUS
 10
6.7767709866
 20
16.4283680519
 11
6.82622254
 21
16.28
  0
LINE
  5
664
100
AcDbEntity
  8
ASSI
100
AcDbLine
 62
253
  6
CONTINUOUS
 10
6.7767709866
 20
16.4283680519
 11
6.82622254
 21
16.28
  0
LINE
  5
665
100
AcDbEntity
  8
0
100
AcDbLine
 62
7
  6
CONTINUOUS
 10
6.5232713192
 20
17.3215691524
 11
6.4596089231
 21
17.5125735809
  0
LINE
  5
666
100
AcDbEntity
  8
ASSI
100
AcDbLine
 62
7
  6
CONTINUOUS
 10
6.5232713192
 20
17.3215691524
 11
6.4596089231
 21
17.5125735809
  0
LINE
  5
667
100
AcDbEntity
  8
0
100
AcDbLine
 62
253
  6
CONTINUOUS
 10
7.2767286808
 20
16.9283934415
 11
7.3261802341
 21
16.7800253896
  0
LINE
  5
668
100
AcDbEntity
  8
ASSI
100
AcDbLine
 62
253
  6
CONTINUOUS
 10
7.2767286808
 20
16.9283934415
 11
7.3261802341
 21
16.7800253896
  0
LINE
  5
669
100
AcDbEntity
  8
RACCORDO
100
AcDbLine
 62
7
  6
CONTINUOUS
 10
10.6474554741
 20
-24.2855823661
 11
10.6454823677
 21
-24.2973162875
  0
LWPOLYLINE
  5
66A
100
AcDbEntity
  8
ASSI
100
AcDbPolyline
 62
7
  6
CONTINUOUS
 90
6
 70
0
 10
10.6474554741
 20
-24.2855823661
 10
10.6454823677
 20
-24.2973162875
 10
10.6429531817
 20
-24.3089430388
 10
10.6398736417
 20
-24.320436279
 10
10.6362507213
 20
-24.3317699738
 10
10.6320926258
 20
-24.3429184493
  0
LINE
  5
66B
100
AcDbEntity
  8
DRAFT
100
AcDbLine
 62
7
  6
CONTINUOUS
 10
8.25
 20
-20.9
 11
8.2465127091
 21
-20.9104703804
  0
LINE
  5
66C
100
AcDbEntity
  8
ASSI
100
AcDbLine
 62
7
  6
CONTINUOUS
 10
8.25
 20
-20.9
 11
8.2465127091
 21
-20.9104703804
  0
LINE
  5
66D
100
AcDbEntity
  8
ASSI
100
AcDbLine
 62
7
  6
CONTINUOUS
 10
-4.0903954009
 20
-23.4323809818
 11
-3.9279699877
 21
-23.2563578147
  0
LINE
  5
66E
100
AcDbEntity
  8
ASSI
100
AcDbLine
 62
7
  6
CONTINUOUS
 10
-4.4
 20
-23.8
 11
-4.3563493531
 21
-23.7563493531
  0
LINE
  5
66F
100
AcDbEntity
  8
0
100
AcDbLine
 62
7
  6
CONTINUOUS
 10
6.3414138719
 20
13.8475670731
 11
-6.3414138719
 21
13.8475670731
  0
LINE
  5
670
100
AcDbEntity
  8
ASSI
100
AcDbLine
 62
7
  6
CONTINUOUS
 10
6.3414138719
 20
13.8475670731
 11
-6.3414138719
 21
13.8475670731
  0
LINE
  5
671
100
AcDbEntity
  8
CURVE
100
AcDbLine
 62
7
  6
CONTINUOUS
 10
8.0353536961
 20
10.8060666977
 11
8.05
 21
10.8
  0
LINE
  5
672
100
AcDbEntity
  8
ASSI
100
AcDbLine
 62
7
  6
CONTINUOUS
 10
8.0353536961
 20
10.8060666977
 11
8.05
 21
10.8
  0
LINE
  5
673
100
AcDbEntity
  8
0
100
AcDbLine
 62
7
  6
CONTINUOUS
 10
-10.1
 20
18.5
 11
-10.2553500779
 21
18.5643481092
  0
LINE
  5
674
100
AcDbEntity
  8
ASSI
100
AcDbLine
 62
7
  6
CONTINUOUS
 10
-10.1
 20
18.5
 11
-10.2553500779
 21
18.5643481092
  0
LINE
  5
675
100
AcDbEntity
  8
0
100
AcDbLine
 62
7
  6
CONTINUOUS
 10
10.1
 20
10.5
 11
10.2553500779
 21
10.4356518908
  0
LINE
  5
676
100
AcDbEntity
  8
ASSI
100
AcDbLine
 62
7
  6
CONTINUOUS
 10
10.1
 20
10.5
 11
10.2553500779
 21
10.4356518908
  0
LINE
  5
677
100
AcDbEntity
  8
CURVE
100
AcDbLine
 62
7
  6
CONTINUOUS
 10
-8.05
 20
18.5
 11
-7.9731977143
 21
18.4681874516
  0
LINE
  5
678
100
AcDbEntity
  8
ASSI
100
AcDbLine
 62
7
  6
CONTINUOUS
 10
-8.05
 20
18.5
 11
-7.9731977143
 21
18.4681874516
  0
LINE
  5
679
100
AcDbEntity
  8
0
100
AcDbLine
 62
7
  6
CONTINUOUS
 10
-9.4946499221
 20
19.1053500779
 11
-9.65
 21
19.169698187
  0
LINE
  5
67A
100
AcDbEntity
  8
ASSI
100
AcDbLine
 62
7
  6
CONTINUOUS
 10
-9.4946499221
 20
19.1053500779
 11
-9.65
 21
19.169698187
  0
LINE
  5
67B
100
AcDbEntity
  8
CURVE
100
AcDbLine
 62
7
  6
CONTINUOUS
 10
9.05
 20
11.8
 11
9.0230693374
 21
11.8111550457
  0
LINE
  5
67C
100
AcDbEntity
  8
ASSI
100
AcDbLine
 62
7
  6
CONTINUOUS
 10
9.05
 20
11.8
 11
9.0230693374
 21
11.8111550457
  0
LINE
  5
67D
100
AcDbEntity
  8
0
100
AcDbLine
 62
7
  6
CONTINUOUS
 10
9.4946499221
 20
9.4
 11
9.5549460544
 21
9.3397038678
  0
LINE
  5
67E
100
AcDbEntity
  8
ASSI
100
AcDbLine
 62
7
  6
CONTINUOUS
 10
9.4946499221
 20
9.4
 11
9.5549460544
 21
9.3397038678
  0
LINE
  5
67F
100
AcDbEntity
  8
ASSI
100
AcDbLine
 62
7
  6
CONTINUOUS
 10
-4.4
 20
23.8
 11
-4.3563493531
 21
23.7563493531
  0
LINE
  5
680
100
AcDbEntity
  8
ASSI
100
AcDbLine
 62
7
  6
CONTINUOUS
 10
-3.9279699877
 20
23.2563578147
 11
-4.0904346959
 21
23.4324240255
  0
LINE
  5
681
100
AcDbEntity
  8
CURVE
100
AcDbLine
 62
7
  6
CONTINUOUS
 10
8.05
 20
20.4335707644
 11
7.9731977143
 21
20.6641649932
  0
LINE
  5
682
100
AcDbEntity
  8
ASSI
100
AcDbLine
 62
7
  6
CONTINUOUS
 10
8.05
 20
20.4335707644
 11
7.9731977143
 21
20.6641649932
  0
LINE
  5
683
100
AcDbEntity
  8
DRAFT
100
AcDbLine
 62
7
  6
CONTINUOUS
 10
8.2465127091
 20
20.9104703804
 11
8.25
 21
20.9
  0
LINE
  5
684
100
AcDbEntity
  8
ASSI
100
AcDbLine
 62
7
  6
CONTINUOUS
 10
8.2465127091
 20
20.9104703804
 11
8.25
 21
20.9
  0
LWPOLYLINE
  5
685
100
AcDbEntity
  8
RACCORDO
100
AcDbPolyline
 62
7
  6
CONTINUOUS
 90
5
 70
0
 10
10.6454823677
 20
24.2973162875
 10
10.6474554741
 20
24.2855823661
 10
10.6488680342
 20
24.2737678556
 10
10.6497168498
 20
24.261899516
 10
10.65
 20
24.2500042308
  0
LWPOLYLINE
  5
686
100
AcDbEntity
  8
RACCORDO
100
AcDbPolyline
 62
7
  6
CONTINUOUS
 90
26
 70
0
 10
10.6454823677
 20
-24.2973162875
 10
10.6429531817
 20
-24.3089430388
 10
10.6398736417
 20
-24.320436279
 10
10.6362507213
 20
-24.3317699738
 10
10.6320926258
 20
-24.3429184493
 10
10.6274087722
 20
-24.3538564463
 10
10.6222097688
 20
-24.3645591876
 10
10.6165073916
 20
-24.3750024283
 10
10.6103145581
 20
-24.3851625059
 10
10.6036452955
 20
-24.3950164051
 10
10.5965147107
 20
-24.4045418038
 10
10.5889389589
 20
-24.4137171191
 10
10.5809352005
 20
-24.4225215661
 10
10.5725215661
 20
-24.4309352005
 10
10.5637171191
 20
-24.4389389589
 10
10.5545418038
 20
-24.4465147107
 10
10.5450164051
 20
-24.4536452955
 10
10.5351625059
 20
-24.4603145581
 10
10.5250024283
 20
-24.4665073916
 10
10.5145591876
 20
-24.4722097688
 10
10.5038564463
 20
-24.4774087722
 10
10.4929184493
 20
-24.4820926258
 10
10.4817699738
 20
-24.4862507213
 10
10.470436279
 20
-24.4898736417
 10
10.4589430388
 20
-24.4929531817
 10
10.4473162875
 20
-24.4954823677
  0
LINE
  5
687
100
AcDbEntity
  8
0
100
AcDbLine
 62
253
  6
CONTINUOUS
 10
-6.3091978363
 20
14.9399894222
 11
6.3091978363
 21
14.9399894222
  0
LINE
  5
688
100
AcDbEntity
  8
ASSI
100
AcDbLine
 62
253
  6
CONTINUOUS
 10
-6.3091978363
 20
14.9399894222
 11
6.3091978363
 21
14.9399894222
  0
LINE
  5
689
100
AcDbEntity
  8
0
100
AcDbLine
 62
7
  6
CONTINUOUS
 10
-8.9731977143
 20
15.8915786577
 11
-7.25
 21
15.8915786577
  0
LINE
  5
68A
100
AcDbEntity
  8
ASSI
100
AcDbLine
 62
7
  6
CONTINUOUS
 10
-8.9731977143
 20
15.8915786577
 11
-7.25
 21
15.8915786577
  0
LINE
  5
68B
100
AcDbEntity
  8
0
100
AcDbLine
 62
7
  6
CONTINUOUS
 10
7.25
 20
15.8915786577
 11
8.9731977143
 21
15.8915786577
  0
LINE
  5
68C
100
AcDbEntity
  8
ASSI
100
AcDbLine
 62
7
  6
CONTINUOUS
 10
7.25
 20
15.8915786577
 11
8.9731977143
 21
15.8915786577
  0
LINE
  5
68D
100
AcDbEntity
  8
0
100
AcDbLine
 62
7
  6
CONTINUOUS
 10
7.25
 20
15.9541648703
 11
6.3265828417
 21
15.9541648703
  0
LINE
  5
68E
100
AcDbEntity
  8
0
100
AcDbLine
 62
7
  6
CONTINUOUS
 10
-6.3265828417
 20
15.9541648703
 11
-7.25
 21
15.9541648703
  0
LINE
  5
68F
100
AcDbEntity
  8
0
100
AcDbLine
 62
7
  6
CONTINUOUS
 10
6.5
 20
16.28
 11
6.82622254
 21
16.28
  0
LINE
  5
690
100
AcDbEntity
  8
ASSI
100
AcDbLine
 62
7
  6
CONTINUOUS
 10
6.5
 20
16.28
 11
6.82622254
 21
16.28
  0
LINE
  5
691
100
AcDbEntity
  8
0
100
AcDbLine
 62
7
  6
CONTINUOUS
 10
-6.5
 20
16.28
 11
-6.82622254
 21
16.28
  0
LINE
  5
692
100
AcDbEntity
  8
ASSI
100
AcDbLine
 62
7
  6
CONTINUOUS
 10
-6.5
 20
16.28
 11
-6.82622254
 21
16.28
  0
LINE
  5
693
100
AcDbEntity
  8
0
100
AcDbLine
 62
7
  6
CONTINUOUS
 10
6.3516319481
 20
16.4283680519
 11
6.5
 21
16.28
  0
LINE
  5
694
100
AcDbEntity
  8
ASSI
100
AcDbLine
 62
7
  6
CONTINUOUS
 10
6.3516319481
 20
16.4283680519
 11
6.5
 21
16.28
  0
LWPOLYLINE
  5
695
100
AcDbEntity
  8
RACCORDO
100
AcDbPolyline
 62
253
  6
CONTINUOUS
 90
5
 70
0
 10
10.6401612081
 20
24.2976197463
 10
10.6425477509
 20
24.2847481067
 10
10.644257234
 20
24.2717692492
 10
10.645284977
 20
24.2587187509
 10
10.645628166
 20
24.2456323968
  0
LINE
  5
696
100
AcDbEntity
  8
DRAFT
100
AcDbLine
 62
7
  6
CONTINUOUS
 10
7.2418217019
 20
-20.9959955457
 11
7.2988376746
 21
-20.9104703804
  0
LINE
  5
697
100
AcDbEntity
  8
ASSI
100
AcDbLine
 62
7
  6
CONTINUOUS
 10
7.2418217019
 20
-20.9959955457
 11
7.2988376746
 21
-20.9104703804
  0
LWPOLYLINE
  5
698
100
AcDbEntity
  8
ASSI
100
AcDbPolyline
 62
7
  6
CONTINUOUS
 90
8
 70
0
 10
3.5286918512
 20
-23.7023198506
 10
3.5356000818
 20
-23.69338247
 10
3.5432706493
 20
-23.6837199248
 10
3.5517508381
 20
-23.673257628
 10
3.5610539485
 20
-23.6619971292
 10
3.5711841112
 20
-23.6499368786
 10
3.5821916901
 20
-23.6369976396
 10
3.5940894927
 20
-23.6231776604
  0
LINE
  5
699
100
AcDbEntity
  8
0
100
AcDbLine
 62
7
  6
CONTINUOUS
 10
6.3516319481
 20
16.4283680519
 11
6.7767709866
 21
16.4283680519
  0
LINE
  5
69A
100
AcDbEntity
  8
ASSI
100
AcDbLine
 62
7
  6
CONTINUOUS
 10
6.3516319481
 20
16.4283680519
 11
6.7767709866
 21
16.4283680519
  0
LINE
  5
69B
100
AcDbEntity
  8
0
100
AcDbLine
 62
7
  6
CONTINUOUS
 10
-6.3516319481
 20
16.4283680519
 11
-6.7767709866
 21
16.4283680519
  0
LINE
  5
69C
100
AcDbEntity
  8
ASSI
100
AcDbLine
 62
7
  6
CONTINUOUS
 10
-6.3516319481
 20
16.4283680519
 11
-6.7767709866
 21
16.4283680519
  0
LINE
  5
69D
100
AcDbEntity
  8
0
100
AcDbLine
 62
253
  6
CONTINUOUS
 10
-6.3301884152
 20
17.3001256195
 11
6.3301884152
 21
17.3001256195
  0
LINE
  5
69E
100
AcDbEntity
  8
ASSI
100
AcDbLine
 62
253
  6
CONTINUOUS
 10
-6.3301884152
 20
17.3001256195
 11
6.3301884152
 21
17.3001256195
  0
LINE
  5
69F
100
AcDbEntity
  8
0
100
AcDbLine
 62
7
  6
CONTINUOUS
 10
6.5232713192
 20
17.3215691524
 11
6.3516319481
 21
17.3215691524
  0
LINE
  5
6A0
100
AcDbEntity
  8
0
100
AcDbLine
 62
7
  6
CONTINUOUS
 10
-6.5232713192
 20
17.3215691524
 11
-6.3516319481
 21
17.3215691524
  0
LINE
  5
6A1
100
AcDbEntity
  8
ASSI
100
AcDbLine
 62
7
  6
CONTINUOUS
 10
-6.5232713192
 20
17.3215691524
 11
-6.3516319481
 21
17.3215691524
  0
LINE
  5
6A2
100
AcDbEntity
  8
ASSI
100
AcDbLine
 62
7
  6
CONTINUOUS
 10
6.5232713192
 20
17.3215691524
 11
6.3516319481
 21
17.3215691524
  0
LINE
  5
6A3
100
AcDbEntity
  8
0
100
AcDbLine
 62
7
  6
CONTINUOUS
 10
6.4596089231
 20
17.5125735809
 11
-6.4596089231
 21
17.5125735809
  0
LINE
  5
6A4
100
AcDbEntity
  8
ASSI
100
AcDbLine
 62
7
  6
CONTINUOUS
 10
6.4596089231
 20
17.5125735809
 11
-6.4596089231
 21
17.5125735809
  0
LWPOLYLINE
  5
6A5
100
AcDbEntity
  8
ASSI
100
AcDbPolyline
 62
7
  6
CONTINUOUS
 90
10
 70
0
 10
3.5286302672
 20
23.7024007789
 10
3.5224956417
 20
23.7106007946
 10
3.5171179781
 20
23.7180768349
 10
3.512493414
 20
23.7248511814
 10
3.5086126205
 20
23.7309188156
 10
3.5054672686
 20
23.736284756
 10
3.5030490489
 20
23.74098634
 10
3.5013434198
 20
23.7450360132
 10
3.500332847
 20
23.74842133
 10
3.5
 20
23.7511422903
  0
LINE
  5
6A6
100
AcDbEntity
  8
DRAFT
100
AcDbLine
 62
7
  6
CONTINUOUS
 10
7.2418217019
 20
20.9959955457
 11
7.2988376746
 21
20.9104703804
  0
LINE
  5
6A7
100
AcDbEntity
  8
ASSI
100
AcDbLine
 62
7
  6
CONTINUOUS
 10
7.2418217019
 20
20.9959955457
 11
7.2988376746
 21
20.9104703804
  0
LWPOLYLINE
  5
6A8
100
AcDbEntity
  8
ASSI
100
AcDbPolyline
 62
7
  6
CONTINUOUS
 90
18
 70
0
 10
10.6320926258
 20
-24.3429184493
 10
10.6274087722
 20
-24.3538564463
 10
10.6222097688
 20
-24.3645591876
 10
10.6165073916
 20
-24.3750024283
 10
10.6103145581
 20
-24.3851625059
 10
10.6036452955
 20
-24.3950164051
 10
10.5965147107
 20
-24.4045418038
 10
10.5889389589
 20
-24.4137171191
 10
10.5809352005
 20
-24.4225215661
 10
10.5725215661
 20
-24.4309352005
 10
10.5637171191
 20
-24.4389389589
 10
10.5545418038
 20
-24.4465147107
 10
10.5450164051
 20
-24.4536452955
 10
10.5351625059
 20
-24.4603145581
 10
10.5250024283
 20
-24.4665073916
 10
10.5145591876
 20
-24.4722097688
 10
10.5038564463
 20
-24.4774087722
 10
10.4929184493
 20
-24.4820926258
  0
LINE
  5
6A9
100
AcDbEntity
  8
ASSI
100
AcDbLine
 62
7
  6
CONTINUOUS
 10
3.5940894927
 20
-23.6231776604
 11
3.6206235004
 21
-23.5928267546
  0
LINE
  5
6AA
100
AcDbEntity
  8
ASSI
100
AcDbLine
 62
7
  6
CONTINUOUS
 10
3.6206235004
 20
-23.5928267546
 11
3.6509962094
 21
-23.5586202787
  0
LINE
  5
6AB
100
AcDbEntity
  8
ASSI
100
AcDbLine
 62
7
  6
CONTINUOUS
 10
3.6509962094
 20
-23.5586202787
 11
3.6852228577
 21
-23.520556369
  0
LINE
  5
6AC
100
AcDbEntity
  8
ASSI
100
AcDbLine
 62
7
  6
CONTINUOUS
 10
3.6852228577
 20
-23.520556369
 11
3.743670406
 21
-23.4562934323
  0
LINE
  5
6AD
100
AcDbEntity
  8
ASSI
100
AcDbLine
 62
7
  6
CONTINUOUS
 10
3.743670406
 20
-23.4562934323
 11
3.9279699877
 21
-23.2563578147
  0
LWPOLYLINE
  5
6AE
100
AcDbEntity
  8
ASSI
100
AcDbPolyline
 62
7
  6
CONTINUOUS
 90
11
 70
0
 10
-8.3854408124
 20
-24.4722097688
 10
-8.3961435537
 20
-24.4774087722
 10
-8.4070815507
 20
-24.4820926258
 10
-8.4182300262
 20
-24.4862507213
 10
-8.429563721
 20
-24.4898736417
 10
-8.4410569612
 20
-24.4929531817
 10
-8.4526837125
 20
-24.4954823677
 10
-8.4644176339
 20
-24.4974554741
 10
-8.4762321444
 20
-24.4988680342
 10
-8.488100484
 20
-24.4997168498
 10
-8.4999957692
 20
-24.5
  0
LINE
  5
6AF
100
AcDbEntity
  8
0
100
AcDbLine
 62
253
  6
CONTINUOUS
 10
6.4487325156
 20
19.3820692387
 11
-6.4487325156
 21
19.3820692387
  0
LINE
  5
6B0
100
AcDbEntity
  8
ASSI
100
AcDbLine
 62
253
  6
CONTINUOUS
 10
6.4487325156
 20
19.3820692387
 11
-6.4487325156
 21
19.3820692387
  0
LINE
  5
6B1
100
AcDbEntity
  8
0
100
AcDbLine
 62
253
  6
CONTINUOUS
 10
6.4482213147
 20
19.594201273
 11
-6.4482213147
 21
19.594201273
  0
LINE
  5
6B2
100
AcDbEntity
  8
ASSI
100
AcDbLine
 62
253
  6
CONTINUOUS
 10
6.4482213147
 20
19.594201273
 11
-6.4482213147
 21
19.594201273
  0
LINE
  5
6B3
100
AcDbEntity
  8
DRAFT
100
AcDbLine
 62
7
  6
CONTINUOUS
 10
6.4482213147
 20
19.9223308767
 11
-6.4482213147
 21
19.9223308767
  0
LINE
  5
6B4
100
AcDbEntity
  8
ASSI
100
AcDbLine
 62
7
  6
CONTINUOUS
 10
6.4482213147
 20
19.9223308767
 11
-6.4482213147
 21
19.9223308767
  0
LWPOLYLINE
  5
6B5
100
AcDbEntity
  8
ASSI
100
AcDbPolyline
 62
7
  6
CONTINUOUS
 90
18
 70
0
 10
-8.4070815507
 20
24.4820926258
 10
-8.3961435537
 20
24.4774087722
 10
-8.3854408124
 20
24.4722097688
 10
-8.3749975717
 20
24.4665073916
 10
-8.3648374941
 20
24.4603145581
 10
-8.3549835949
 20
24.4536452955
 10
-8.3454581962
 20
24.4465147107
 10
-8.3362828809
 20
24.4389389589
 10
-8.3274784339
 20
24.4309352005
 10
-8.3190647995
 20
24.4225215661
 10
-8.3110610411
 20
24.4137171191
 10
-8.3034852893
 20
24.4045418038
 10
-8.2963547045
 20
24.3950164051
 10
-8.2896854419
 20
24.3851625059
 10
-8.2834926084
 20
24.3750024283
 10
-8.2777902312
 20
24.3645591876
 10
-8.2725912278
 20
24.3538564463
 10
-8.2679073742
 20
24.3429184493
  0
LINE
  5
6B6
100
AcDbEntity
  8
CURVE
100
AcDbLine
 62
7
  6
CONTINUOUS
 10
8.9731977143
 20
17.4681874516
 11
7.9731977143
 21
18.4681874516
  0
LINE
  5
6B7
100
AcDbEntity
  8
ASSI
100
AcDbLine
 62
7
  6
CONTINUOUS
 10
8.9731977143
 20
17.4681874516
 11
7.9731977143
 21
18.4681874516
  0
LINE
  5
6B8
100
AcDbEntity
  8
CURVE
100
AcDbLine
 62
7
  6
CONTINUOUS
 10
9.05
 20
17.5
 11
8.05
 21
18.5
  0
LINE
  5
6B9
100
AcDbEntity
  8
ASSI
100
AcDbLine
 62
7
  6
CONTINUOUS
 10
9.05
 20
17.5
 11
8.05
 21
18.5
  0
LINE
  5
6BA
100
AcDbEntity
  8
ASSI
100
AcDbLine
 62
7
  6
CONTINUOUS
 10
3.9279699877
 20
23.2563578147
 11
3.72319
 21
23.4787333295
  0
LINE
  5
6BB
100
AcDbEntity
  8
ASSI
100
AcDbLine
 62
7
  6
CONTINUOUS
 10
3.72319
 20
23.4787333295
 11
3.6851306782
 21
23.520658084
  0
LINE
  5
6BC
100
AcDbEntity
  8
ASSI
100
AcDbLine
 62
7
  6
CONTINUOUS
 10
3.6851306782
 20
23.520658084
 11
3.6508615818
 21
23.5587705835
  0
LINE
  5
6BD
100
AcDbEntity
  8
ASSI
100
AcDbLine
 62
7
  6
CONTINUOUS
 10
3.6508615818
 20
23.5587705835
 11
3.6204577011
 21
23.5930148412
  0
LWPOLYLINE
  5
6BE
100
AcDbEntity
  8
ASSI
100
AcDbPolyline
 62
7
  6
CONTINUOUS
 90
9
 70
0
 10
3.6204577011
 20
23.5930148412
 10
3.5939110457
 20
23.6233833596
 10
3.5820146366
 20
23.637204436
 10
3.5710123303
 20
23.6501397805
 10
3.5608917472
 20
23.6621907435
 10
3.5516059276
 20
23.6734345977
 10
3.5431516162
 20
23.6838693892
 10
3.5355105725
 20
23.6934970717
 10
3.5286302672
 20
23.7024007789
  0
LWPOLYLINE
  5
6BF
100
AcDbEntity
  8
ASSI
100
AcDbPolyline
 62
7
  6
CONTINUOUS
 90
9
 70
0
 10
10.6320926258
 20
24.3429184493
 10
10.6362507213
 20
24.3317699738
 10
10.6398736417
 20
24.320436279
 10
10.6429531817
 20
24.3089430388
 10
10.6454823677
 20
24.2973162875
 10
10.6474554741
 20
24.2855823661
 10
10.6488680342
 20
24.2737678556
 10
10.6497168498
 20
24.261899516
 10
10.65
 20
24.2500042308
  0
LINE
  5
6C0
100
AcDbEntity
  8
RACCORDO
100
AcDbLine
 62
7
  6
CONTINUOUS
 10
7.2587268678
 20
-22.3912731322
 11
8.25
 21
-21.4
  0
LINE
  5
6C1
100
AcDbEntity
  8
ASSI
100
AcDbLine
 62
7
  6
CONTINUOUS
 10
7.2587268678
 20
-22.3912731322
 11
8.25
 21
-21.4
  0
LWPOLYLINE
  5
6C2
100
AcDbEntity
  8
RACCORDO
100
AcDbPolyline
 62
7
  6
CONTINUOUS
 90
8
 70
0
 10
-8.4182300262
 20
-24.4862507213
 10
-8.429563721
 20
-24.4898736417
 10
-8.4410569612
 20
-24.4929531817
 10
-8.4526837125
 20
-24.4954823677
 10
-8.4644176339
 20
-24.4974554741
 10
-8.4762321444
 20
-24.4988680342
 10
-8.488100484
 20
-24.4997168498
 10
-8.4999957692
 20
-24.5
  0
LWPOLYLINE
  5
6C3
100
AcDbEntity
  8
RACCORDO
100
AcDbPolyline
 62
253
  6
CONTINUOUS
 90
7
 70
0
 10
-8.4271772258
 20
-24.4834102087
 10
-8.4397314103
 20
-24.4871256484
 10
-8.4524628755
 20
-24.4901787618
 10
-8.4653285943
 20
-24.492559892
 10
-8.4782903689
 20
-24.4942634962
 10
-8.4913152632
 20
-24.4952867588
 10
-8.5043676032
 20
-24.495628166
  0
LINE
  5
6C4
100
AcDbEntity
  8
RACCORDO
100
AcDbLine
 62
253
  6
CONTINUOUS
 10
-6.555294768
 20
20.0829433217
 11
6.555294768
 21
20.0829433217
  0
LINE
  5
6C5
100
AcDbEntity
  8
ASSI
100
AcDbLine
 62
7
  6
CONTINUOUS
 10
-6.555294768
 20
20.0829433217
 11
6.555294768
 21
20.0829433217
  0
LINE
  5
6C6
100
AcDbEntity
  8
RACCORDO
100
AcDbLine
 62
7
  6
CONTINUOUS
 10
-8.9950305219
 20
20.4335707644
 11
-8.05
 21
20.4335707644
  0
LINE
  5
6C7
100
AcDbEntity
  8
ASSI
100
AcDbLine
 62
7
  6
CONTINUOUS
 10
-8.9950305219
 20
20.4335707644
 11
-8.05
 21
20.4335707644
  0
LINE
  5
6C8
100
AcDbEntity
  8
RACCORDO
100
AcDbLine
 62
7
  6
CONTINUOUS
 10
8.05
 20
20.4335707644
 11
8.9950305219
 21
20.4335707644
  0
LINE
  5
6C9
100
AcDbEntity
  8
ASSI
100
AcDbLine
 62
7
  6
CONTINUOUS
 10
8.05
 20
20.4335707644
 11
8.9950305219
 21
20.4335707644
  0
LINE
  5
6CA
100
AcDbEntity
  8
RACCORDO
100
AcDbLine
 62
253
  6
CONTINUOUS
 10
-6.5581782981
 20
20.5829242832
 11
6.5581782981
 21
20.5829242832
  0
LINE
  5
6CB
100
AcDbEntity
  8
ASSI
100
AcDbLine
 62
253
  6
CONTINUOUS
 10
-6.5581782981
 20
20.5829242832
 11
6.5581782981
 21
20.5829242832
  0
LINE
  5
6CC
100
AcDbEntity
  8
CURVE
100
AcDbLine
 62
7
  6
CONTINUOUS
 10
7.9731977143
 20
20.6641649932
 11
7.3261802341
 21
20.6641649932
  0
LINE
  5
6CD
100
AcDbEntity
  8
ASSI
100
AcDbLine
 62
7
  6
CONTINUOUS
 10
7.9731977143
 20
20.6641649932
 11
7.3261802341
 21
20.6641649932
  0
LINE
  5
6CE
100
AcDbEntity
  8
CURVE
100
AcDbLine
 62
7
  6
CONTINUOUS
 10
-7.3261802341
 20
20.6641649932
 11
-7.9731977143
 21
20.6641649932
  0
LINE
  5
6CF
100
AcDbEntity
  8
ASSI
100
AcDbLine
 62
7
  6
CONTINUOUS
 10
-7.3261802341
 20
20.6641649932
 11
-7.9731977143
 21
20.6641649932
  0
LINE
  5
6D0
100
AcDbEntity
  8
RACCORDO
100
AcDbLine
 62
7
  6
CONTINUOUS
 10
9.1503805997
 20
20.9
 11
8.25
 21
20.9
  0
LINE
  5
6D1
100
AcDbEntity
  8
ASSI
100
AcDbLine
 62
7
  6
CONTINUOUS
 10
9.1503805997
 20
20.9
 11
8.25
 21
20.9
  0
LINE
  5
6D2
100
AcDbEntity
  8
RACCORDO
100
AcDbLine
 62
7
  6
CONTINUOUS
 10
-8.25
 20
20.9
 11
-9.1503805997
 21
20.9
  0
LINE
  5
6D3
100
AcDbEntity
  8
ASSI
100
AcDbLine
 62
7
  6
CONTINUOUS
 10
-8.25
 20
20.9
 11
-9.1503805997
 21
20.9
  0
LINE
  5
6D4
100
AcDbEntity
  8
DRAFT
100
AcDbLine
 62
7
  6
CONTINUOUS
 10
8.2465127091
 20
20.9104703804
 11
7.2988376746
 21
20.9104703804
  0
LINE
  5
6D5
100
AcDbEntity
  8
ASSI
100
AcDbLine
 62
7
  6
CONTINUOUS
 10
8.2465127091
 20
20.9104703804
 11
7.2988376746
 21
20.9104703804
  0
LINE
  5
6D6
100
AcDbEntity
  8
DRAFT
100
AcDbLine
 62
7
  6
CONTINUOUS
 10
-7.2988376746
 20
20.9104703804
 11
-8.2465127091
 21
20.9104703804
  0
LINE
  5
6D7
100
AcDbEntity
  8
ASSI
100
AcDbLine
 62
7
  6
CONTINUOUS
 10
-7.2988376746
 20
20.9104703804
 11
-8.2465127091
 21
20.9104703804
  0
LINE
  5
6D8
100
AcDbEntity
  8
RACCORDO
100
AcDbLine
 62
7
  6
CONTINUOUS
 10
7.5841007192
 20
20.9959955457
 11
7.2418217019
 21
20.9959955457
  0
LINE
  5
6D9
100
AcDbEntity
  8
ASSI
100
AcDbLine
 62
7
  6
CONTINUOUS
 10
7.5841007192
 20
20.9959955457
 11
7.2418217019
 21
20.9959955457
  0
LINE
  5
6DA
100
AcDbEntity
  8
RACCORDO
100
AcDbLine
 62
7
  6
CONTINUOUS
 10
-7.2418217019
 20
20.9959955457
 11
-7.5841007192
 21
20.9959955457
  0
LINE
  5
6DB
100
AcDbEntity
  8
ASSI
100
AcDbLine
 62
7
  6
CONTINUOUS
 10
-7.2418217019
 20
20.9959955457
 11
-7.5841007192
 21
20.9959955457
  0
LINE
  5
6DC
100
AcDbEntity
  8
0
100
AcDbLine
 62
7
  6
CONTINUOUS
 10
3.0
 20
21.0
 11
-3.0
 21
21.0
  0
LINE
  5
6DD
100
AcDbEntity
  8
ASSI
100
AcDbLine
 62
7
  6
CONTINUOUS
 10
3.0
 20
21.0
 11
-3.0
 21
21.0
  0
LINE
  5
6DE
100
AcDbEntity
  8
RACCORDO
100
AcDbLine
 62
253
  6
CONTINUOUS
 10
7.5841007192
 20
21.3126932437
 11
3.0
 21
21.3126932437
  0
LINE
  5
6DF
100
AcDbEntity
  8
ASSI
100
AcDbLine
 62
253
  6
CONTINUOUS
 10
7.5841007192
 20
21.3126932437
 11
3.0
 21
21.3126932437
  0
LINE
  5
6E0
100
AcDbEntity
  8
RACCORDO
100
AcDbLine
 62
253
  6
CONTINUOUS
 10
-3.0
 20
21.3126932437
 11
-7.5841007192
 21
21.3126932437
  0
LINE
  5
6E1
100
AcDbEntity
  8
ASSI
100
AcDbLine
 62
253
  6
CONTINUOUS
 10
-3.0
 20
21.3126932437
 11
-7.5841007192
 21
21.3126932437
  0
LINE
  5
6E2
100
AcDbEntity
  8
0
100
AcDbLine
 62
7
  6
CONTINUOUS
 10
-3.0
 20
21.7
 11
3.0
 21
21.7
  0
LINE
  5
6E3
100
AcDbEntity
  8
ASSI
100
AcDbLine
 62
7
  6
CONTINUOUS
 10
-3.0
 20
21.7
 11
3.0
 21
21.7
  0
LINE
  5
6E4
100
AcDbEntity
  8
0
100
AcDbLine
 62
7
  6
CONTINUOUS
 10
10.1
 20
18.5
 11
9.4946499221
 21
19.1053500779
  0
LINE
  5
6E5
100
AcDbEntity
  8
ASSI
100
AcDbLine
 62
7
  6
CONTINUOUS
 10
10.1
 20
18.5
 11
9.4946499221
 21
19.1053500779
  0
LINE
  5
6E6
100
AcDbEntity
  8
0
100
AcDbLine
 62
7
  6
CONTINUOUS
 10
10.2553500779
 20
18.5643481092
 11
9.65
 21
19.169698187
  0
LINE
  5
6E7
100
AcDbEntity
  8
ASSI
100
AcDbLine
 62
7
  6
CONTINUOUS
 10
10.2553500779
 20
18.5643481092
 11
9.65
 21
19.169698187
  0
LINE
  5
6E8
100
AcDbEntity
  8
RACCORDO
100
AcDbLine
 62
7
  6
CONTINUOUS
 10
8.25
 20
21.4
 11
7.2587268678
 21
22.3912731322
  0
LINE
  5
6E9
100
AcDbEntity
  8
ASSI
100
AcDbLine
 62
7
  6
CONTINUOUS
 10
8.25
 20
21.4
 11
7.2587268678
 21
22.3912731322
  0
LINE
  5
6EA
100
AcDbEntity
  8
RACCORDO
100
AcDbLine
 62
7
  6
CONTINUOUS
 10
8.0840245667
 20
-20.9917082642
 11
8.2465127091
 21
-20.9104703804
  0
LINE
  5
6EB
100
AcDbEntity
  8
ASSI
100
AcDbLine
 62
7
  6
CONTINUOUS
 10
8.0840245667
 20
-20.9917082642
 11
8.2465127091
 21
-20.9104703804
  0
LINE
  5
6EC
100
AcDbEntity
  8
ASSI
100
AcDbLine
 62
7
  6
CONTINUOUS
 10
-10.6714883972
 20
22.3984737398
 11
-10.6929434461
 21
22.396327304
  0
LWPOLYLINE
  5
6ED
100
AcDbEntity
  8
RACCORDO
100
AcDbPolyline
 62
7
  6
CONTINUOUS
 90
11
 70
0
 10
-10.6499991391
 20
22.3996911987
 10
-10.6714883972
 20
22.3984737398
 10
-10.6929434461
 20
22.396327304
 10
-10.714323887
 20
22.3932510251
 10
-10.7356119114
 20
22.3892409661
 10
-10.7567435211
 20
22.3843026901
 10
-10.7776108967
 20
22.3784610765
 10
-10.7981597008
 20
22.3717368058
 10
-10.8183694928
 20
22.3641420636
 10
-10.8381874588
 20
22.3557023577
 10
-10.8560139878
 20
22.3472253447
  0
LINE
  5
6EE
100
AcDbEntity
  8
ASSI
100
AcDbLine
 62
7
  6
CONTINUOUS
 10
-10.6499991391
 20
22.3996911987
 11
-10.6714883972
 21
22.3984737398
  0
LINE
  5
6EF
100
AcDbEntity
  8
RACCORDO
100
AcDbLine
 62
7
  6
CONTINUOUS
 10
-10.65
 20
22.399689968
 11
-10.6460883071
 21
22.3998124433
  0
LINE
  5
6F0
100
AcDbEntity
  8
ASSI
100
AcDbLine
 62
7
  6
CONTINUOUS
 10
-10.65
 20
22.399689968
 11
-10.6460883071
 21
22.3998124433
  0
LINE
  5
6F1
100
AcDbEntity
  8
RACCORDO
100
AcDbLine
 62
7
  6
CONTINUOUS
 10
-10.6460883071
 20
22.3998124433
 11
-10.6421758755
 21
22.3999043042
  0
LINE
  5
6F2
100
AcDbEntity
  8
ASSI
100
AcDbLine
 62
7
  6
CONTINUOUS
 10
-10.6460883071
 20
22.3998124433
 11
-10.6421758755
 21
22.3999043042
  0
LINE
  5
6F3
100
AcDbEntity
  8
RACCORDO
100
AcDbLine
 62
7
  6
CONTINUOUS
 10
-10.6421758755
 20
22.3999043042
 11
-10.6382627952
 21
22.399965549
  0
LINE
  5
6F4
100
AcDbEntity
  8
ASSI
100
AcDbLine
 62
7
  6
CONTINUOUS
 10
-10.6421758755
 20
22.3999043042
 11
-10.6382627952
 21
22.399965549
  0
LINE
  5
6F5
100
AcDbEntity
  8
RACCORDO
100
AcDbLine
 62
7
  6
CONTINUOUS
 10
-10.6382627952
 20
22.399965549
 11
-10.6343494256
 21
22.3999961716
  0
LINE
  5
6F6
100
AcDbEntity
  8
ASSI
100
AcDbLine
 62
7
  6
CONTINUOUS
 10
-10.6382627952
 20
22.399965549
 11
-10.6343494256
 21
22.3999961716
  0
LINE
  5
6F7
100
AcDbEntity
  8
RACCORDO
100
AcDbLine
 62
253
  6
CONTINUOUS
 10
7.3373448332
 20
22.3126551668
 11
3.0
 21
22.3126551668
  0
LINE
  5
6F8
100
AcDbEntity
  8
ASSI
100
AcDbLine
 62
253
  6
CONTINUOUS
 10
7.3373448332
 20
22.3126551668
 11
3.0
 21
22.3126551668
  0
LINE
  5
6F9
100
AcDbEntity
  8
RACCORDO
100
AcDbLine
 62
253
  6
CONTINUOUS
 10
-3.0
 20
22.3126551668
 11
-7.3373448332
 21
22.3126551668
  0
LINE
  5
6FA
100
AcDbEntity
  8
ASSI
100
AcDbLine
 62
253
  6
CONTINUOUS
 10
-3.0
 20
22.3126551668
 11
-7.3373448332
 21
22.3126551668
  0
LINE
  5
6FB
100
AcDbEntity
  8
RACCORDO
100
AcDbLine
 62
7
  6
CONTINUOUS
 10
10.6498476749
 20
22.3912731322
 11
7.2587268678
 21
22.3912731322
  0
LINE
  5
6FC
100
AcDbEntity
  8
ASSI
100
AcDbLine
 62
7
  6
CONTINUOUS
 10
10.6498476749
 20
22.3912731322
 11
7.2587268678
 21
22.3912731322
  0
LINE
  5
6FD
100
AcDbEntity
  8
DRAFT
100
AcDbLine
 62
7
  6
CONTINUOUS
 10
3.5
 20
22.3912731322
 11
3.0
 21
22.3912731322
  0
LINE
  5
6FE
100
AcDbEntity
  8
ASSI
100
AcDbLine
 62
7
  6
CONTINUOUS
 10
3.5
 20
22.3912731322
 11
3.0
 21
22.3912731322
  0
LINE
  5
6FF
100
AcDbEntity
  8
DRAFT
100
AcDbLine
 62
7
  6
CONTINUOUS
 10
-3.0
 20
22.3912731322
 11
-3.5
 21
22.3912731322
  0
LINE
  5
700
100
AcDbEntity
  8
ASSI
100
AcDbLine
 62
7
  6
CONTINUOUS
 10
-3.0
 20
22.3912731322
 11
-3.5
 21
22.3912731322
  0
LINE
  5
701
100
AcDbEntity
  8
RACCORDO
100
AcDbLine
 62
7
  6
CONTINUOUS
 10
-7.2587268678
 20
22.3912731322
 11
-10.6498476749
 21
22.3912731322
  0
LINE
  5
702
100
AcDbEntity
  8
ASSI
100
AcDbLine
 62
7
  6
CONTINUOUS
 10
-7.2587268678
 20
22.3912731322
 11
-10.6498476749
 21
22.3912731322
  0
LINE
  5
703
100
AcDbEntity
  8
RACCORDO
100
AcDbLine
 62
7
  6
CONTINUOUS
 10
-10.6343494256
 20
22.3999961716
 11
-8.25
 21
22.4
  0
LINE
  5
704
100
AcDbEntity
  8
DRAFT
100
AcDbLine
 62
7
  6
CONTINUOUS
 10
8.25
 20
22.4
 11
4.4
 21
22.4
  0
LINE
  5
705
100
AcDbEntity
  8
DRAFT
100
AcDbLine
 62
7
  6
CONTINUOUS
 10
-4.4
 20
22.4
 11
-8.25
 21
22.4
  0
LINE
  5
706
100
AcDbEntity
  8
ASSI
100
AcDbLine
 62
7
  6
CONTINUOUS
 10
-4.4
 20
22.4
 11
-10.6343494256
 21
22.3999961716
  0
LINE
  5
707
100
AcDbEntity
  8
RACCORDO
100
AcDbLine
 62
7
  6
CONTINUOUS
 10
-10.4007229979
 20
23.1226497308
 11
-8.4992770021
 21
23.1226497308
  0
LINE
  5
708
100
AcDbEntity
  8
ASSI
100
AcDbLine
 62
7
  6
CONTINUOUS
 10
-10.4007229979
 20
23.1226497308
 11
-8.4992770021
 21
23.1226497308
  0
LINE
  5
709
100
AcDbEntity
  8
RACCORDO
100
AcDbLine
 62
7
  6
CONTINUOUS
 10
8.4992770021
 20
23.1226497308
 11
10.4007229979
 21
23.1226497308
  0
LINE
  5
70A
100
AcDbEntity
  8
ASSI
100
AcDbLine
 62
7
  6
CONTINUOUS
 10
8.4992770021
 20
23.1226497308
 11
10.4007229979
 21
23.1226497308
  0
LINE
  5
70B
100
AcDbEntity
  8
RACCORDO
100
AcDbLine
 62
7
  6
CONTINUOUS
 10
8.25
 20
22.4
 11
10.6343494256
 21
22.3999961716
  0
LINE
  5
70C
100
AcDbEntity
  8
ASSI
100
AcDbLine
 62
7
  6
CONTINUOUS
 10
4.4
 20
22.4
 11
10.6343494256
 21
22.3999961716
  0
LINE
  5
70D
100
AcDbEntity
  8
RACCORDO
100
AcDbLine
 62
7
  6
CONTINUOUS
 10
10.6343494256
 20
22.3999961716
 11
10.6382627952
 21
22.399965549
  0
LINE
  5
70E
100
AcDbEntity
  8
ASSI
100
AcDbLine
 62
7
  6
CONTINUOUS
 10
10.6343494256
 20
22.3999961716
 11
10.6382627952
 21
22.399965549
  0
LWPOLYLINE
  5
70F
100
AcDbEntity
  8
0
100
AcDbPolyline
 62
253
  6
CONTINUOUS
 90
58
 70
0
 10
-10.3956323968
 20
23.6278312164
 10
-10.4025073322
 20
23.6279304181
 10
-10.4093767776
 20
23.6281932953
 10
-10.4162355386
 20
23.6286196284
 10
-10.4230783425
 20
23.6292090656
 10
-10.4299001046
 20
23.6299611451
 10
-10.4366959293
 20
23.6308753157
 10
-10.4434606537
 20
23.63195088
 10
-10.4501891882
 20
23.6331870259
 10
-10.4568767733
 20
23.6345828894
 10
-10.4635182467
 20
23.6361374118
 10
-10.4701086801
 20
23.6378494589
 10
-10.4766436947
 20
23.6397179403
 10
-10.4831192056
 20
23.6417417956
 10
-10.4895293846
 20
23.6439193117
 10
-10.4958673521
 20
23.6462481415
 10
-10.502128266
 20
23.6487264074
 10
-10.5083075177
 20
23.6513521856
 10
-10.5143988056
 20
23.6541226256
 10
-10.5203957506
 20
23.6570344864
 10
-10.5262959065
 20
23.6600862357
 10
-10.5320988641
 20
23.6632775962
 10
-10.5378014194
 20
23.6666069994
 10
-10.5433979128
 20
23.6700713379
 10
-10.5488841566
 20
23.6736681606
 10
-10.5542561649
 20
23.6773950186
 10
-10.5595095378
 20
23.6812490274
 10
-10.5646396249
 20
23.6852268952
 10
-10.5696426506
 20
23.6893257892
 10
-10.5745146174
 20
23.6935425315
 10
-10.5792508087
 20
23.6978730565
 10
-10.5838471841
 20
23.7023135733
 10
-10.5883008202
 20
23.7068611584
 10
-10.5926088706
 20
23.7115128874
 10
-10.5967676758
 20
23.7162647988
 10
-10.6007744889
 20
23.721113743
 10
-10.6046277663
 20
23.7260580487
 10
-10.6083255323
 20
23.7310956989
 10
-10.6118635314
 20
23.7362214372
 10
-10.6152370549
 20
23.7414285912
 10
-10.6184429959
 20
23.7467121478
 10
-10.6214796552
 20
23.7520690777
 10
-10.6243448801
 20
23.7574954677
 10
-10.627037036
 20
23.7629882302
 10
-10.6295535712
 20
23.7685421671
 10
-10.6318914217
 20
23.7741500391
 10
-10.6340480302
 20
23.7798044195
 10
-10.6360234169
 20
23.7855039644
 10
-10.6378182884
 20
23.7912505792
 10
-10.6394317208
 20
23.7970426065
 10
-10.6408613846
 20
23.8028731332
 10
-10.642105635
 20
23.8087362433
 10
-10.6431633865
 20
23.8146273315
 10
-10.6440337651
 20
23.8205421308
 10
-10.6447158964
 20
23.8264751565
 10
-10.6452092225
 20
23.8324215744
 10
-10.6455133953
 20
23.8383772158
 10
-10.645628166
 20
23.8443375673
  0
LWPOLYLINE
  5
710
100
AcDbEntity
  8
ASSI
100
AcDbPolyline
 62
253
  6
CONTINUOUS
 90
58
 70
0
 10
-10.3956323968
 20
23.6278312164
 10
-10.4025073322
 20
23.6279304181
 10
-10.4093767776
 20
23.6281932953
 10
-10.4162355386
 20
23.6286196284
 10
-10.4230783425
 20
23.6292090656
 10
-10.4299001046
 20
23.6299611451
 10
-10.4366959293
 20
23.6308753157
 10
-10.4434606537
 20
23.63195088
 10
-10.4501891882
 20
23.6331870259
 10
-10.4568767733
 20
23.6345828894
 10
-10.4635182467
 20
23.6361374118
 10
-10.4701086801
 20
23.6378494589
 10
-10.4766436947
 20
23.6397179403
 10
-10.4831192056
 20
23.6417417956
 10
-10.4895293846
 20
23.6439193117
 10
-10.4958673521
 20
23.6462481415
 10
-10.502128266
 20
23.6487264074
 10
-10.5083075177
 20
23.6513521856
 10
-10.5143988056
 20
23.6541226256
 10
-10.5203957506
 20
23.6570344864
 10
-10.5262959065
 20
23.6600862357
 10
-10.5320988641
 20
23.6632775962
 10
-10.5378014194
 20
23.6666069994
 10
-10.5433979128
 20
23.6700713379
 10
-10.5488841566
 20
23.6736681606
 10
-10.5542561649
 20
23.6773950186
 10
-10.5595095378
 20
23.6812490274
 10
-10.5646396249
 20
23.6852268952
 10
-10.5696426506
 20
23.6893257892
 10
-10.5745146174
 20
23.6935425315
 10
-10.5792508087
 20
23.6978730565
 10
-10.5838471841
 20
23.7023135733
 10
-10.5883008202
 20
23.7068611584
 10
-10.5926088706
 20
23.7115128874
 10
-10.5967676758
 20
23.7162647988
 10
-10.6007744889
 20
23.721113743
 10
-10.6046277663
 20
23.7260580487
 10
-10.6083255323
 20
23.7310956989
 10
-10.6118635314
 20
23.7362214372
 10
-10.6152370549
 20
23.7414285912
 10
-10.6184429959
 20
23.7467121478
 10
-10.6214796552
 20
23.7520690777
 10
-10.6243448801
 20
23.7574954677
 10
-10.627037036
 20
23.7629882302
 10
-10.6295535712
 20
23.7685421671
 10
-10.6318914217
 20
23.7741500391
 10
-10.6340480302
 20
23.7798044195
 10
-10.6360234169
 20
23.7855039644
 10
-10.6378182884
 20
23.7912505792
 10
-10.6394317208
 20
23.7970426065
 10
-10.6408613846
 20
23.8028731332
 10
-10.642105635
 20
23.8087362433
 10
-10.6431633865
 20
23.8146273315
 10
-10.6440337651
 20
23.8205421308
 10
-10.6447158964
 20
23.8264751565
 10
-10.6452092225
 20
23.8324215744
 10
-10.6455133953
 20
23.8383772158
 10
-10.645628166
 20
23.8443375673
  0
LINE
  5
711
100
AcDbEntity
  8
RACCORDO
100
AcDbLine
 62
7
  6
CONTINUOUS
 10
10.6382627952
 20
22.399965549
 11
10.6421758755
 21
22.3999043042
  0
LINE
  5
712
100
AcDbEntity
  8
ASSI
100
AcDbLine
 62
7
  6
CONTINUOUS
 10
10.6382627952
 20
22.399965549
 11
10.6421758755
 21
22.3999043042
  0
LINE
  5
713
100
AcDbEntity
  8
RACCORDO
100
AcDbLine
 62
7
  6
CONTINUOUS
 10
10.6421758755
 20
22.3999043042
 11
10.6460883071
 21
22.3998124433
  0
LINE
  5
714
100
AcDbEntity
  8
ASSI
100
AcDbLine
 62
7
  6
CONTINUOUS
 10
10.6421758755
 20
22.3999043042
 11
10.6460883071
 21
22.3998124433
  0
LINE
  5
715
100
AcDbEntity
  8
RACCORDO
100
AcDbLine
 62
7
  6
CONTINUOUS
 10
10.6460883071
 20
22.3998124433
 11
10.65
 21
22.399689968
  0
LINE
  5
716
100
AcDbEntity
  8
ASSI
100
AcDbLine
 62
7
  6
CONTINUOUS
 10
10.6460883071
 20
22.3998124433
 11
10.65
 21
22.399689968
  0
LINE
  5
717
100
AcDbEntity
  8
RACCORDO
100
AcDbLine
 62
7
  6
CONTINUOUS
 10
-8.4644176339
 20
24.4974554741
 11
-8.4526837125
 21
24.4954823677
  0
LWPOLYLINE
  5
718
100
AcDbEntity
  8
ASSI
100
AcDbPolyline
 62
7
  6
CONTINUOUS
 90
6
 70
0
 10
-8.4644176339
 20
24.4974554741
 10
-8.4526837125
 20
24.4954823677
 10
-8.4410569612
 20
24.4929531817
 10
-8.429563721
 20
24.4898736417
 10
-8.4182300262
 20
24.4862507213
 10
-8.4070815507
 20
24.4820926258
  0
LWPOLYLINE
  5
719
100
AcDbEntity
  8
RACCORDO
100
AcDbPolyline
 62
7
  6
CONTINUOUS
 90
26
 70
0
 10
-8.4526837125
 20
24.4954823677
 10
-8.4410569612
 20
24.4929531817
 10
-8.429563721
 20
24.4898736417
 10
-8.4182300262
 20
24.4862507213
 10
-8.4070815507
 20
24.4820926258
 10
-8.3961435537
 20
24.4774087722
 10
-8.3854408124
 20
24.4722097688
 10
-8.3749975717
 20
24.4665073916
 10
-8.3648374941
 20
24.4603145581
 10
-8.3549835949
 20
24.4536452955
 10
-8.3454581962
 20
24.4465147107
 10
-8.3362828809
 20
24.4389389589
 10
-8.3274784339
 20
24.4309352005
 10
-8.3190647995
 20
24.4225215661
 10
-8.3110610411
 20
24.4137171191
 10
-8.3034852893
 20
24.4045418038
 10
-8.2963547045
 20
24.3950164051
 10
-8.2896854419
 20
24.3851625059
 10
-8.2834926084
 20
24.3750024283
 10
-8.2777902312
 20
24.3645591876
 10
-8.2725912278
 20
24.3538564463
 10
-8.2679073742
 20
24.3429184493
 10
-8.2637492787
 20
24.3317699738
 10
-8.2601263583
 20
24.320436279
 10
-8.2570468183
 20
24.3089430388
 10
-8.2545176323
 20
24.2973162875
  0
LINE
  5
71A
100
AcDbEntity
  8
RACCORDO
100
AcDbLine
 62
7
  6
CONTINUOUS
 10
8.0840245667
 20
20.9917082642
 11
8.2465127091
 21
20.9104703804
  0
LINE
  5
71B
100
AcDbEntity
  8
ASSI
100
AcDbLine
 62
7
  6
CONTINUOUS
 10
8.0840245667
 20
20.9917082642
 11
8.2465127091
 21
20.9104703804
  0
LINE
  5
71C
100
AcDbEntity
  8
RACCORDO
100
AcDbLine
 62
253
  6
CONTINUOUS
 10
10.6466029582
 20
-22.392895367
 11
10.6323926099
 21
-22.4
  0
LINE
  5
71D
100
AcDbEntity
  8
ASSI
100
AcDbLine
 62
253
  6
CONTINUOUS
 10
10.6466029582
 20
-22.392895367
 11
10.6323926099
 21
-22.4
  0
LWPOLYLINE
  5
71E
100
AcDbEntity
  8
ASSI
100
AcDbPolyline
 62
7
  6
CONTINUOUS
 90
9
 70
0
 10
10.4929184493
 20
-24.4820926258
 10
10.4817699738
 20
-24.4862507213
 10
10.470436279
 20
-24.4898736417
 10
10.4589430388
 20
-24.4929531817
 10
10.4473162875
 20
-24.4954823677
 10
10.4355823661
 20
-24.4974554741
 10
10.4237678556
 20
-24.4988680342
 10
10.411899516
 20
-24.4997168498
 10
10.4000042308
 20
-24.5
  0
LWPOLYLINE
  5
71F
100
AcDbEntity
  8
RACCORDO
100
AcDbPolyline
 62
253
  6
CONTINUOUS
 90
5
 70
0
 10
-10.4476197463
 20
24.4901612081
 10
-10.4347481067
 20
24.4925477509
 10
-10.4217692492
 20
24.494257234
 10
-10.4087187509
 20
24.495284977
 10
-10.3956323968
 20
24.495628166
  0
LWPOLYLINE
  5
720
100
AcDbEntity
  8
RACCORDO
100
AcDbPolyline
 62
7
  6
CONTINUOUS
 90
5
 70
0
 10
-10.4473162875
 20
24.4954823677
 10
-10.4355823661
 20
24.4974554741
 10
-10.4237678556
 20
24.4988680342
 10
-10.411899516
 20
24.4997168498
 10
-10.4000042308
 20
24.5
  0
LWPOLYLINE
  5
721
100
AcDbEntity
  8
ASSI
100
AcDbPolyline
 62
253
  6
CONTINUOUS
 90
3
 70
0
 10
8.4774875253
 20
24.4941779536
 10
8.4913152632
 20
24.4952867588
 10
8.5043676032
 20
24.495628166
  0
LINE
  5
722
100
AcDbEntity
  8
ASSI
100
AcDbLine
 62
253
  6
CONTINUOUS
 10
-10.3970868299
 20
24.4956238859
 11
-10.3956323968
 21
24.495628166
  0
LINE
  5
723
100
AcDbEntity
  8
RACCORDO
100
AcDbLine
 62
253
  6
CONTINUOUS
 10
8.5043676032
 20
23.6278312164
 11
10.3956323968
 21
23.6278312164
  0
LINE
  5
724
100
AcDbEntity
  8
ASSI
100
AcDbLine
 62
253
  6
CONTINUOUS
 10
8.5043676032
 20
23.6278312164
 11
10.3956323968
 21
23.6278312164
  0
LINE
  5
725
100
AcDbEntity
  8
0
100
AcDbLine
 62
253
  6
CONTINUOUS
 10
-8.5043676032
 20
23.6278312164
 11
-10.3956323968
 21
23.6278312164
  0
LINE
  5
726
100
AcDbEntity
  8
ASSI
100
AcDbLine
 62
253
  6
CONTINUOUS
 10
-8.5043676032
 20
23.6278312164
 11
-10.3956323968
 21
23.6278312164
  0
LINE
  5
727
100
AcDbEntity
  8
ASSI
100
AcDbLine
 62
7
  6
CONTINUOUS
 10
4.3563493531
 20
23.7563493531
 11
3.5
 21
23.7563493531
  0
LINE
  5
728
100
AcDbEntity
  8
ASSI
100
AcDbLine
 62
7
  6
CONTINUOUS
 10
-3.5
 20
23.7563493531
 11
-4.3563493531
 21
23.7563493531
  0
LINE
  5
729
100
AcDbEntity
  8
DRAFT
100
AcDbLine
 62
7
  6
CONTINUOUS
 10
3.5
 20
23.7941821702
 11
-3.5
 21
23.7941821702
  0
LINE
  5
72A
100
AcDbEntity
  8
ASSI
100
AcDbLine
 62
7
  6
CONTINUOUS
 10
3.5
 20
23.7941821702
 11
-3.5
 21
23.7941821702
  0
LINE
  5
72B
100
AcDbEntity
  8
DRAFT
100
AcDbLine
 62
7
  6
CONTINUOUS
 10
4.4
 20
23.8
 11
-4.4
 21
23.8
  0
LINE
  5
72C
100
AcDbEntity
  8
ASSI
100
AcDbLine
 62
7
  6
CONTINUOUS
 10
4.4
 20
23.8
 11
-4.4
 21
23.8
  0
LINE
  5
72D
100
AcDbEntity
  8
RACCORDO
100
AcDbLine
 62
253
  6
CONTINUOUS
 10
8.254371834
 20
23.8443375673
 11
10.645628166
 21
23.8443375673
  0
LINE
  5
72E
100
AcDbEntity
  8
ASSI
100
AcDbLine
 62
253
  6
CONTINUOUS
 10
8.254371834
 20
23.8443375673
 11
10.645628166
 21
23.8443375673
  0
LINE
  5
72F
100
AcDbEntity
  8
0
100
AcDbLine
 62
253
  6
CONTINUOUS
 10
-8.254371834
 20
23.8443375673
 11
-10.645628166
 21
23.8443375673
  0
LINE
  5
730
100
AcDbEntity
  8
ASSI
100
AcDbLine
 62
253
  6
CONTINUOUS
 10
-8.254371834
 20
23.8443375673
 11
-10.645628166
 21
23.8443375673
  0
LINE
  5
731
100
AcDbEntity
  8
RACCORDO
100
AcDbLine
 62
253
  6
CONTINUOUS
 10
8.254371834
 20
24.2456323968
 11
10.645628166
 21
24.2456323968
  0
LINE
  5
732
100
AcDbEntity
  8
ASSI
100
AcDbLine
 62
253
  6
CONTINUOUS
 10
8.254371834
 20
24.2456323968
 11
10.645628166
 21
24.2456323968
  0
LINE
  5
733
100
AcDbEntity
  8
RACCORDO
100
AcDbLine
 62
253
  6
CONTINUOUS
 10
-8.254371834
 20
24.2456323968
 11
-10.645628166
 21
24.2456323968
  0
LINE
  5
734
100
AcDbEntity
  8
ASSI
100
AcDbLine
 62
253
  6
CONTINUOUS
 10
-8.254371834
 20
24.2456323968
 11
-10.645628166
 21
24.2456323968
  0
LINE
  5
735
100
AcDbEntity
  8
RACCORDO
100
AcDbLine
 62
253
  6
CONTINUOUS
 10
10.3956323968
 20
24.495628166
 11
8.5043676032
 21
24.495628166
  0
LINE
  5
736
100
AcDbEntity
  8
ASSI
100
AcDbLine
 62
7
  6
CONTINUOUS
 10
10.3956323968
 20
24.495628166
 11
8.5043676032
 21
24.495628166
  0
LINE
  5
737
100
AcDbEntity
  8
RACCORDO
100
AcDbLine
 62
253
  6
CONTINUOUS
 10
-8.5043676032
 20
24.495628166
 11
-10.3956323968
 21
24.495628166
  0
LINE
  5
738
100
AcDbEntity
  8
ASSI
100
AcDbLine
 62
7
  6
CONTINUOUS
 10
-8.5043676032
 20
24.495628166
 11
-10.3956323968
 21
24.495628166
  0
LWPOLYLINE
  5
739
100
AcDbEntity
  8
RACCORDO
100
AcDbPolyline
 62
7
  6
CONTINUOUS
 90
4
 70
0
 10
-8.4999957692
 20
24.5
 10
-8.488100484
 20
24.4997168498
 10
-8.4762321444
 20
24.4988680342
 10
-8.4644176339
 20
24.4974554741
  0
LWPOLYLINE
  5
73A
100
AcDbEntity
  8
ASSI
100
AcDbPolyline
 62
7
  6
CONTINUOUS
 90
4
 70
0
 10
-8.4999957692
 20
24.5
 10
-8.488100484
 20
24.4997168498
 10
-8.4762321444
 20
24.4988680342
 10
-8.4644176339
 20
24.4974554741
  0
LWPOLYLINE
  5
73B
100
AcDbEntity
  8
RACCORDO
100
AcDbPolyline
 62
7
  6
CONTINUOUS
 90
4
 70
0
 10
10.4000042308
 20
24.5
 10
10.411899516
 20
24.4997168498
 10
10.4237678556
 20
24.4988680342
 10
10.4355823661
 20
24.4974554741
  0
LWPOLYLINE
  5
73C
100
AcDbEntity
  8
ASSI
100
AcDbPolyline
 62
7
  6
CONTINUOUS
 90
4
 70
0
 10
10.4000042308
 20
24.5
 10
10.411899516
 20
24.4997168498
 10
10.4237678556
 20
24.4988680342
 10
10.4355823661
 20
24.4974554741
  0
LWPOLYLINE
  5
73D
100
AcDbEntity
  8
RACCORDO
100
AcDbPolyline
 62
253
  6
CONTINUOUS
 90
31
 70
0
 10
-8.5043676032
 20
24.495628166
 10
-8.4912841172
 20
24.4952851274
 10
-8.4782364906
 20
24.4942578375
 10
-8.4652604845
 20
24.492549112
 10
-8.4523916636
 20
24.490163634
 10
-8.4396652991
 20
24.4871079418
 10
-8.4271162714
 20
24.4833904104
 10
-8.4147789751
 20
24.4790212289
 10
-8.4026872245
 20
24.4740123724
 10
-8.3908741607
 20
24.4683775693
 10
-8.3793721611
 20
24.4621322634
 10
-8.3682127506
 20
24.455293572
 10
-8.357426515
 20
24.4478802386
 10
-8.3470430174
 20
24.4399125818
 10
-8.3370907169
 20
24.4314124395
 10
-8.327596891
 20
24.422403109
 10
-8.3185875605
 20
24.4129092831
 10
-8.3100874182
 20
24.4029569826
 10
-8.3021197614
 20
24.392573485
 10
-8.294706428
 20
24.3817872494
 10
-8.2878677366
 20
24.3706278389
 10
-8.2816224307
 20
24.3591258393
 10
-8.2759876276
 20
24.3473127755
 10
-8.2709787711
 20
24.3352210249
 10
-8.2666095896
 20
24.3228837286
 10
-8.2628920582
 20
24.3103347009
 10
-8.259836366
 20
24.2976083364
 10
-8.257450888
 20
24.2847395155
 10
-8.2557421625
 20
24.2717635094
 10
-8.2547148726
 20
24.2587158828
 10
-8.254371834
 20
24.2456323968
  0
LWPOLYLINE
  5
73E
100
AcDbEntity
  8
ASSI
100
AcDbPolyline
 62
7
  6
CONTINUOUS
 90
31
 70
0
 10
-8.5043676032
 20
24.495628166
 10
-8.4912841172
 20
24.4952851274
 10
-8.4782364906
 20
24.4942578375
 10
-8.4652604845
 20
24.492549112
 10
-8.4523916636
 20
24.490163634
 10
-8.4396652991
 20
24.4871079418
 10
-8.4271162714
 20
24.4833904104
 10
-8.4147789751
 20
24.4790212289
 10
-8.4026872245
 20
24.4740123724
 10
-8.3908741607
 20
24.4683775693
 10
-8.3793721611
 20
24.4621322634
 10
-8.3682127506
 20
24.455293572
 10
-8.357426515
 20
24.4478802386
 10
-8.3470430174
 20
24.4399125818
 10
-8.3370907169
 20
24.4314124395
 10
-8.327596891
 20
24.422403109
 10
-8.3185875605
 20
24.4129092831
 10
-8.3100874182
 20
24.4029569826
 10
-8.3021197614
 20
24.392573485
 10
-8.294706428
 20
24.3817872494
 10
-8.2878677366
 20
24.3706278389
 10
-8.2816224307
 20
24.3591258393
 10
-8.2759876276
 20
24.3473127755
 10
-8.2709787711
 20
24.3352210249
 10
-8.2666095896
 20
24.3228837286
 10
-8.2628920582
 20
24.3103347009
 10
-8.259836366
 20
24.2976083364
 10
-8.257450888
 20
24.2847395155
 10
-8.2557421625
 20
24.2717635094
 10
-8.2547148726
 20
24.2587158828
 10
-8.254371834
 20
24.2456323968
  0
LWPOLYLINE
  5
73F
100
AcDbEntity
  8
RACCORDO
100
AcDbPolyline
 62
253
  6
CONTINUOUS
 90
7
 70
0
 10
10.3956323968
 20
24.495628166
 10
10.4086847368
 20
24.4952867588
 10
10.4217096311
 20
24.4942634962
 10
10.4346714057
 20
24.492559892
 10
10.4475371245
 20
24.4901787618
 10
10.4602685897
 20
24.4871256484
 10
10.4728227742
 20
24.4834102087
  0
LWPOLYLINE
  5
740
100
AcDbEntity
  8
ASSI
100
AcDbPolyline
 62
253
  6
CONTINUOUS
 90
3
 70
0
 10
10.3956323968
 20
24.495628166
 10
10.4086847368
 20
24.4952867588
 10
10.4225124747
 20
24.4941779536
  0
LINE
  5
741
100
AcDbEntity
  8
ASSI
100
AcDbLine
 62
7
  6
CONTINUOUS
 10
10.4225124747
 20
24.4941779536
 11
10.4346714057
 21
24.492559892
  0
LWPOLYLINE
  5
742
100
AcDbEntity
  8
RACCORDO
100
AcDbPolyline
 62
7
  6
CONTINUOUS
 90
5
 70
0
 10
10.4355823661
 20
24.4974554741
 10
10.4473162875
 20
24.4954823677
 10
10.4589430388
 20
24.4929531817
 10
10.470436279
 20
24.4898736417
 10
10.4817699738
 20
24.4862507213
  0
LWPOLYLINE
  5
743
100
AcDbEntity
  8
ASSI
100
AcDbPolyline
 62
7
  6
CONTINUOUS
 90
8
 70
0
 10
10.4355823661
 20
24.4974554741
 10
10.4473162875
 20
24.4954823677
 10
10.4589430388
 20
24.4929531817
 10
10.470436279
 20
24.4898736417
 10
10.4817699738
 20
24.4862507213
 10
10.4929184493
 20
24.4820926258
 10
10.5038564463
 20
24.4774087722
 10
10.5145591876
 20
24.4722097688
  0
LINE
  5
744
100
AcDbEntity
  8
ASSI
100
AcDbLine
 62
7
  6
CONTINUOUS
 10
10.4346714057
 20
24.492559892
 11
10.4475371245
 21
24.4901787618
  0
LWPOLYLINE
  5
745
100
AcDbEntity
  8
ASSI
100
AcDbPolyline
 62
7
  6
CONTINUOUS
 90
27
 70
0
 10
10.4475371245
 20
24.4901787618
 10
10.4602685897
 20
24.4871256484
 10
10.4728227742
 20
24.4834102087
 10
10.4851625782
 20
24.4790436576
 10
10.4972569343
 20
24.4740372277
 10
10.5090730125
 20
24.4684044791
 10
10.520578613
 20
24.4621606774
 10
10.5317419314
 20
24.4553229956
 10
10.5425320106
 20
24.4479103656
 10
10.5529191364
 20
24.4399432233
 10
10.5628749736
 20
24.4314433264
 10
10.572372308
 20
24.4224339046
 10
10.5813851271
 20
24.4129396114
 10
10.5898886687
 20
24.402986508
 10
10.5978595768
 20
24.3926019187
 10
10.6052759837
 20
24.3818143284
 10
10.6121175595
 20
24.3706533025
 10
10.6183655387
 20
24.3591494467
 10
10.6240027869
 20
24.347334301
 10
10.6290138424
 20
24.3352402638
 10
10.6333849575
 20
24.3229005077
 10
10.637104147
 20
24.3103488602
 10
10.6401612081
 20
24.2976197463
 10
10.6425477509
 20
24.2847481067
 10
10.644257234
 20
24.2717692492
 10
10.645284977
 20
24.2587187509
 10
10.6456238859
 20
24.2470868299
  0
LWPOLYLINE
  5
746
100
AcDbEntity
  8
RACCORDO
100
AcDbPolyline
 62
253
  6
CONTINUOUS
 90
21
 70
0
 10
10.4728227742
 20
24.4834102087
 10
10.4851625782
 20
24.4790436576
 10
10.4972569343
 20
24.4740372277
 10
10.5090730125
 20
24.4684044791
 10
10.520578613
 20
24.4621606774
 10
10.5317419314
 20
24.4553229956
 10
10.5425320106
 20
24.4479103656
 10
10.5529191364
 20
24.4399432233
 10
10.5628749736
 20
24.4314433264
 10
10.572372308
 20
24.4224339046
 10
10.5813851271
 20
24.4129396114
 10
10.5898886687
 20
24.402986508
 10
10.5978595768
 20
24.3926019187
 10
10.6052759837
 20
24.3818143284
 10
10.6121175595
 20
24.3706533025
 10
10.6183655387
 20
24.3591494467
 10
10.6240027869
 20
24.347334301
 10
10.6290138424
 20
24.3352402638
 10
10.6333849575
 20
24.3229005077
 10
10.637104147
 20
24.3103488602
 10
10.6401612081
 20
24.2976197463
  0
LWPOLYLINE
  5
747
100
AcDbEntity
  8
RACCORDO
100
AcDbPolyline
 62
7
  6
CONTINUOUS
 90
23
 70
0
 10
10.4817699738
 20
24.4862507213
 10
10.4929184493
 20
24.4820926258
 10
10.5038564463
 20
24.4774087722
 10
10.5145591876
 20
24.4722097688
 10
10.5250024283
 20
24.4665073916
 10
10.5351625059
 20
24.4603145581
 10
10.5450164051
 20
24.4536452955
 10
10.5545418038
 20
24.4465147107
 10
10.5637171191
 20
24.4389389589
 10
10.5725215661
 20
24.4309352005
 10
10.5809352005
 20
24.4225215661
 10
10.5889389589
 20
24.4137171191
 10
10.5965147107
 20
24.4045418038
 10
10.6036452955
 20
24.3950164051
 10
10.6103145581
 20
24.3851625059
 10
10.6165073916
 20
24.3750024283
 10
10.6222097688
 20
24.3645591876
 10
10.6274087722
 20
24.3538564463
 10
10.6320926258
 20
24.3429184493
 10
10.6362507213
 20
24.3317699738
 10
10.6398736417
 20
24.320436279
 10
10.6429531817
 20
24.3089430388
 10
10.6454823677
 20
24.2973162875
  0
LWPOLYLINE
  5
748
100
AcDbEntity
  8
RACCORDO
100
AcDbPolyline
 62
7
  6
CONTINUOUS
 90
11
 70
0
 10
10.8560139878
 20
22.3472253447
 10
10.8381874588
 20
22.3557023577
 10
10.8183694928
 20
22.3641420636
 10
10.7981597008
 20
22.3717368058
 10
10.7776108967
 20
22.3784610765
 10
10.7567435211
 20
22.3843026901
 10
10.7356119114
 20
22.3892409661
 10
10.714323887
 20
22.3932510251
 10
10.6929434461
 20
22.396327304
 10
10.6714883972
 20
22.3984737398
 10
10.6499991391
 20
22.3996911987
  0
LINE
  5
749
100
AcDbEntity
  8
RACCORDO
100
AcDbLine
 62
253
  6
CONTINUOUS
 10
10.6323926099
 20
22.4
 11
10.6466029582
 21
22.392895367
  0
LINE
  5
74A
100
AcDbEntity
  8
ASSI
100
AcDbLine
 62
253
  6
CONTINUOUS
 10
10.6323926099
 20
22.4
 11
10.6466029582
 21
22.392895367
  0
LWPOLYLINE
  5
74B
100
AcDbEntity
  8
ASSI
100
AcDbPolyline
 62
7
  6
CONTINUOUS
 90
16
 70
0
 10
10.5145591876
 20
24.4722097688
 10
10.5250024283
 20
24.4665073916
 10
10.5351625059
 20
24.4603145581
 10
10.5450164051
 20
24.4536452955
 10
10.5545418038
 20
24.4465147107
 10
10.5637171191
 20
24.4389389589
 10
10.5725215661
 20
24.4309352005
 10
10.5809352005
 20
24.4225215661
 10
10.5889389589
 20
24.4137171191
 10
10.5965147107
 20
24.4045418038
 10
10.6036452955
 20
24.3950164051
 10
10.6103145581
 20
24.3851625059
 10
10.6165073916
 20
24.3750024283
 10
10.6222097688
 20
24.3645591876
 10
10.6274087722
 20
24.3538564463
 10
10.6320926258
 20
24.3429184493
  0
ARC
  5
74C
100
AcDbEntity
  8
RACCORDO
100
AcDbCircle
 62
7
  6
CONTINUOUS
 10
-3.1
 20
-14.3
 40
0.3
100
AcDbArc
 50
90.0
 51
180.0
  0
ARC
  5
74D
100
AcDbEntity
  8
RACCORDO
100
AcDbCircle
 62
7
  6
CONTINUOUS
 10
3.1
 20
-14.3
 40
0.3
100
AcDbArc
 50
0.0
 51
90.0
  0
ELLIPSE
  5
74E
100
AcDbEntity
  8
RACCORDO
100
AcDbEllipse
 62
7
  6
CONTINUOUS
 10
-6.06962932
 20
-0.2692763735
 30
0.0
 11
0.3000018276
 21
-0.0000091016
 31
0.0
 40
0.819152044
 41
1.5708333633
 42
3.1416175055
  0
ELLIPSE
  5
74F
100
AcDbEntity
  8
RACCORDO
100
AcDbEllipse
 62
7
  6
CONTINUOUS
 10
6.06962932
 20
-0.2692763735
 30
0.0
 11
0.3000018276
 21
0.0000091016
 31
0.0
 40
0.819152044
 41
-0.0000248519
 42
1.5707592903
  0
ELLIPSE
  5
750
100
AcDbEntity
  8
RACCORDO
100
AcDbEllipse
 62
7
  6
CONTINUOUS
 10
6.0518268893
 20
-3.2090990964
 30
0.0
 11
0.3000018276
 21
0.0000091016
 31
0.0
 40
0.819152044
 41
-0.0000248519
 42
1.5707592903
  0
ELLIPSE
  5
751
100
AcDbEntity
  8
RACCORDO
100
AcDbEllipse
 62
7
  6
CONTINUOUS
 10
-6.0518268893
 20
-3.2090990964
 30
0.0
 11
0.3000018276
 21
-0.0000091016
 31
0.0
 40
0.819152044
 41
1.5708333633
 42
3.1416175055
  0
ELLIPSE
  5
752
100
AcDbEntity
  8
RACCORDO
100
AcDbEllipse
 62
7
  6
CONTINUOUS
 10
-6.0849882798
 20
2.2670412698
 30
0.0
 11
0.3000018276
 21
-0.0000091016
 31
0.0
 40
0.819152044
 41
1.5708333633
 42
3.1416175055
  0
ELLIPSE
  5
753
100
AcDbEntity
  8
RACCORDO
100
AcDbEllipse
 62
7
  6
CONTINUOUS
 10
6.0849882798
 20
2.2670412698
 30
0.0
 11
0.3000018276
 21
0.0000091016
 31
0.0
 40
0.819152044
 41
-0.0000248519
 42
1.5707592903
  0
ELLIPSE
  5
754
100
AcDbEntity
  8
0
100
AcDbEllipse
 62
7
  6
CONTINUOUS
 10
-6.331083251
 20
15.764526841
 30
0.0
 11
0.0
 21
0.3
 31
0.0
 40
0.0174550649
 41
-2.181661565
 42
-1.5707963268
  0
ELLIPSE
  5
755
100
AcDbEntity
  8
0
100
AcDbEllipse
 62
7
  6
CONTINUOUS
 10
6.331083251
 20
15.764526841
 30
0.0
 11
0.0
 21
0.3
 31
0.0
 40
0.0174550649
 41
1.5707963268
 42
2.181661565
  0
ELLIPSE
  5
756
100
AcDbEntity
  8
0
100
AcDbEllipse
 62
7
  6
CONTINUOUS
 10
-6.331083251
 20
15.8009747569
 30
0.0
 11
0.0
 21
0.3
 31
0.0
 40
0.0174550649
 41
-1.5707963268
 42
-0.0174532925
  0
ELLIPSE
  5
757
100
AcDbEntity
  8
0
100
AcDbEllipse
 62
7
  6
CONTINUOUS
 10
6.331083251
 20
15.8009747569
 30
0.0
 11
-0.0
 21
0.3
 31
0.0
 40
0.0174550649
 41
0.0174532925
 42
1.5707963268
  0
ELLIPSE
  5
758
100
AcDbEntity
  8
0
100
AcDbEllipse
 62
7
  6
CONTINUOUS
 10
-6.3414138719
 20
14.0475670731
 30
0.0
 11
-0.0
 21
0.2
 31
0.0
 40
0.0174550649
 41
0.9599310886
 42
3.1415926536
  0
ELLIPSE
  5
759
100
AcDbEntity
  8
0
100
AcDbEllipse
 62
7
  6
CONTINUOUS
 10
6.3414138719
 20
14.0475670731
 30
0.0
 11
0.0
 21
0.2
 31
0.0
 40
0.0174550649
 41
-3.1415926536
 42
-0.9599310886
  0
ELLIPSE
  5
75A
100
AcDbEntity
  8
0
100
AcDbEllipse
 62
7
  6
CONTINUOUS
 10
-9.5548698961
 20
9.089741944
 30
0.0
 11
-0.0
 21
0.25
 31
0.0
 40
0.0174550649
 41
0.0174532925
 42
1.5707963268
  0
ELLIPSE
  5
75B
100
AcDbEntity
  8
0
100
AcDbEllipse
 62
7
  6
CONTINUOUS
 10
-9.5548698961
 20
8.910258056
 30
0.0
 11
-0.0
 21
0.25
 31
0.0
 40
0.0174550649
 41
1.5707963268
 42
3.1241393611
  0
ELLIPSE
  5
75C
100
AcDbEntity
  8
RACCORDO
100
AcDbEllipse
 62
7
  6
CONTINUOUS
 10
10.649923836
 20
21.891254093
 30
0.0
 11
0.4473055582
 21
-0.2236357461
 31
0.0
 40
0.9998096356
 41
6.7467263073
 42
8.3176749331
  0
ELLIPSE
  5
75D
100
AcDbEntity
  8
0
100
AcDbEllipse
 62
7
  6
CONTINUOUS
 10
9.5548698961
 20
8.910258056
 30
0.0
 11
-0.0
 21
0.25
 31
0.0
 40
0.0174550649
 41
-3.1241393611
 42
-1.5707963268
  0
ELLIPSE
  5
75E
100
AcDbEntity
  8
DRAFT
100
AcDbEllipse
 62
7
  6
CONTINUOUS
 10
-3.9279699877
 20
22.3339198952
 30
0.0
 11
0.4279699877
 21
-0.0
 31
0.0
 40
0.0087268678
 41
-3.1357748894
 42
0.0
  0
ELLIPSE
  5
75F
100
AcDbEntity
  8
DRAFT
100
AcDbEllipse
 62
7
  6
CONTINUOUS
 10
3.9279699877
 20
22.3339198952
 30
0.0
 11
0.4279699877
 21
-0.0
 31
0.0
 40
0.0087268678
 41
-3.1415926536
 42
-0.0058177642
  0
ELLIPSE
  5
760
100
AcDbEntity
  8
DRAFT
100
AcDbEllipse
 62
7
  6
CONTINUOUS
 10
-3.9279699877
 20
-22.3339198952
 30
0.0
 11
0.4279699877
 21
-0.0
 31
0.0
 40
0.0087268678
 41
0.0
 42
3.1357748894
  0
ELLIPSE
  5
761
100
AcDbEntity
  8
DRAFT
100
AcDbEllipse
 62
7
  6
CONTINUOUS
 10
3.9279699877
 20
-22.3339198952
 30
0.0
 11
0.4279699877
 21
-0.0
 31
0.0
 40
0.0087268678
 41
0.0058177642
 42
3.1415926536
  0
ELLIPSE
  5
762
100
AcDbEntity
  8
0
100
AcDbEllipse
 62
7
  6
CONTINUOUS
 10
-6.4499666636
 20
19.594201273
 30
0.0
 11
-0.0
 21
0.3
 31
0.0
 40
0.0058178298
 41
-2.3561944902
 42
-1.5707963268
  0
ELLIPSE
  5
763
100
AcDbEntity
  8
0
100
AcDbEllipse
 62
7
  6
CONTINUOUS
 10
6.4499666636
 20
19.594201273
 30
0.0
 11
-0.0
 21
0.3
 31
0.0
 40
0.0058178298
 41
-4.7123889804
 42
-3.926990817
  0
ELLIPSE
  5
764
100
AcDbEntity
  8
RACCORDO
100
AcDbEllipse
 62
7
  6
CONTINUOUS
 10
10.649923836
 20
-21.891254093
 30
0.0
 11
-0.4473055582
 21
-0.2236357461
 31
0.0
 40
0.9998096356
 41
7.3902883349
 42
8.9612369607
  0
ELLIPSE
  5
765
100
AcDbEntity
  8
0
100
AcDbEllipse
 62
7
  6
CONTINUOUS
 10
6.8261717724
 20
16.780076164
 30
0.0
 11
-0.158127797
 21
0.4744262128
 31
0.0
 40
0.9998307797
 41
-3.4632653665
 42
-1.8925705731
  0
ELLIPSE
  5
766
100
AcDbEntity
  8
0
100
AcDbEllipse
 62
7
  6
CONTINUOUS
 10
-6.8261717724
 20
16.780076164
 30
0.0
 11
0.158127797
 21
0.4744262128
 31
0.0
 40
0.9998307797
 41
-4.3906147341
 42
-2.8199199407
  0
ELLIPSE
  5
767
100
AcDbEntity
  8
RACCORDO
100
AcDbEllipse
 62
7
  6
CONTINUOUS
 10
-10.649923836
 20
21.891254093
 30
0.0
 11
0.4473055582
 21
0.2236357461
 31
0.0
 40
0.9998096356
 41
7.3902883349
 42
8.9612369607
  0
ELLIPSE
  5
768
100
AcDbEntity
  8
RACCORDO
100
AcDbEllipse
 62
7
  6
CONTINUOUS
 10
7.3238531022
 20
-19.8
 30
0.0
 11
0.0
 21
0.5
 31
0.0
 40
0.0058178298
 41
0.5996606387
 42
1.5707963268
  0
ELLIPSE
  5
769
100
AcDbEntity
  8
RACCORDO
100
AcDbEllipse
 62
7
  6
CONTINUOUS
 10
9.5784342338
 20
-19.8
 30
0.0
 11
0.0
 21
0.5
 31
0.0
 40
0.0174550649
 41
-1.5707963268
 42
0.0
  0
ELLIPSE
  5
76A
100
AcDbEntity
  8
RACCORDO
100
AcDbEllipse
 62
7
  6
CONTINUOUS
 10
6.4761468978
 20
-19.8
 30
0.0
 11
0.0
 21
0.5
 31
0.0
 40
0.0058178298
 41
-1.5707963268
 42
-0.5996606387
  0
ELLIPSE
  5
76B
100
AcDbEntity
  8
RACCORDO
100
AcDbEllipse
 62
7
  6
CONTINUOUS
 10
-6.4761468978
 20
-19.8
 30
0.0
 11
0.0
 21
0.5
 31
0.0
 40
0.0058178298
 41
0.5996606387
 42
1.5707963268
  0
ELLIPSE
  5
76C
100
AcDbEntity
  8
RACCORDO
100
AcDbEllipse
 62
7
  6
CONTINUOUS
 10
-9.5784342338
 20
-19.8
 30
0.0
 11
0.0
 21
0.5
 31
0.0
 40
0.0174550649
 41
-0.0
 42
1.5707963268
  0
ELLIPSE
  5
76D
100
AcDbEntity
  8
RACCORDO
100
AcDbEllipse
 62
7
  6
CONTINUOUS
 10
-7.5841007192
 20
-20.9916321118
 30
0.0
 11
0.5
 21
-0.0
 31
0.0
 40
0.0087268678
 41
-3.1241393611
 42
-1.5707963268
  0
ELLIPSE
  5
76E
100
AcDbEntity
  8
RACCORDO
100
AcDbEllipse
 62
7
  6
CONTINUOUS
 10
7.5841007192
 20
-20.9916321118
 30
0.0
 11
0.5
 21
-0.0
 31
0.0
 40
0.0087268678
 41
-1.5707963268
 42
-0.0174532925
  0
ELLIPSE
  5
76F
100
AcDbEntity
  8
RACCORDO
100
AcDbEllipse
 62
7
  6
CONTINUOUS
 10
-7.5841007192
 20
20.9916321118
 30
0.0
 11
0.5
 21
0.0
 31
0.0
 40
0.0087268678
 41
1.5707963268
 42
3.1241393611
  0
ELLIPSE
  5
770
100
AcDbEntity
  8
RACCORDO
100
AcDbEllipse
 62
7
  6
CONTINUOUS
 10
7.5841007192
 20
20.9916321118
 30
0.0
 11
0.5
 21
0.0
 31
0.0
 40
0.0087268678
 41
0.0174532925
 42
1.5707963268
  0
ELLIPSE
  5
771
100
AcDbEntity
  8
RACCORDO
100
AcDbEllipse
 62
7
  6
CONTINUOUS
 10
-7.3238531022
 20
-19.8
 30
0.0
 11
0.0
 21
0.5
 31
0.0
 40
0.0058178298
 41
-1.5707963268
 42
-0.5996606387
  0
ELLIPSE
  5
772
100
AcDbEntity
  8
RACCORDO
100
AcDbEllipse
 62
7
  6
CONTINUOUS
 10
9.5208325195
 20
-15.2792978419
 30
0.0
 11
0.0
 21
0.5
 31
0.0
 40
0.0174550649
 41
-1.5707963268
 42
-0.0523598776
  0
ELLIPSE
  5
773
100
AcDbEntity
  8
RACCORDO
100
AcDbEllipse
 62
7
  6
CONTINUOUS
 10
-9.5208325195
 20
-15.2792978419
 30
0.0
 11
0.0
 21
0.5
 31
0.0
 40
0.0174550649
 41
0.0523598776
 42
1.5707963268
  0
ELLIPSE
  5
774
100
AcDbEntity
  8
RACCORDO
100
AcDbEllipse
 62
7
  6
CONTINUOUS
 10
9.0870856022
 20
-20.2106458216
 30
0.0
 11
-0.1582391023
 21
0.4751033573
 31
0.0
 40
0.9984778551
 41
2.8205423031
 42
4.3904252414
  0
ELLIPSE
  5
775
100
AcDbEntity
  8
RACCORDO
100
AcDbEllipse
 62
7
  6
CONTINUOUS
 10
9.149923836
 20
-20.399313827
 30
0.0
 11
-0.1582391023
 21
0.4751033573
 31
0.0
 40
0.9984778551
 41
-3.4626430041
 42
-1.8927600658
  0
ELLIPSE
  5
776
100
AcDbEntity
  8
RACCORDO
100
AcDbEllipse
 62
7
  6
CONTINUOUS
 10
9.149923836
 20
20.399313827
 30
0.0
 11
0.1582391023
 21
0.4751033573
 31
0.0
 40
0.9984778551
 41
-1.2488325878
 42
0.3210503505
  0
ELLIPSE
  5
777
100
AcDbEntity
  8
RACCORDO
100
AcDbEllipse
 62
7
  6
CONTINUOUS
 10
-10.3999957691
 20
-23.4113248654
 30
0.0
 11
-0.0029088041
 21
0.2886641433
 31
0.0
 40
0.8660144118
 41
-0.0087264124
 42
1.5591610446
  0
ELLIPSE
  5
778
100
AcDbEntity
  8
RACCORDO
100
AcDbEllipse
 62
7
  6
CONTINUOUS
 10
-8.5000042309
 20
-23.4113248654
 30
0.0
 11
0.0029088041
 21
0.2886641433
 31
0.0
 40
0.8660144118
 41
-1.5591610446
 42
0.0087264124
  0
ELLIPSE
  5
779
100
AcDbEntity
  8
RACCORDO
100
AcDbEllipse
 62
7
  6
CONTINUOUS
 10
8.9945737581
 20
19.9328845914
 30
0.0
 11
-0.1582391023
 21
-0.4751033573
 31
0.0
 40
0.9984778551
 41
1.8927600658
 42
3.4626430041
  0
ELLIPSE
  5
77A
100
AcDbEntity
  8
RACCORDO
100
AcDbEllipse
 62
7
  6
CONTINUOUS
 10
-8.9945737581
 20
19.9328845914
 30
0.0
 11
-0.1582391023
 21
0.4751033573
 31
0.0
 40
0.9984778551
 41
-0.3210503505
 42
1.2488325878
  0
ELLIPSE
  5
77B
100
AcDbEntity
  8
RACCORDO
100
AcDbEllipse
 62
7
  6
CONTINUOUS
 10
-9.149923836
 20
20.399313827
 30
0.0
 11
-0.1582391023
 21
0.4751033573
 31
0.0
 40
0.9984778551
 41
-0.3210503505
 42
1.2488325878
  0
ELLIPSE
  5
77C
100
AcDbEntity
  8
RACCORDO
100
AcDbEllipse
 62
7
  6
CONTINUOUS
 10
-9.149923836
 20
-20.399313827
 30
0.0
 11
0.1582391023
 21
0.4751033573
 31
0.0
 40
0.9984778551
 41
-4.3904252414
 42
-2.8205423031
  0
ELLIPSE
  5
77D
100
AcDbEntity
  8
RACCORDO
100
AcDbEllipse
 62
7
  6
CONTINUOUS
 10
-9.0870856022
 20
-20.2106458216
 30
0.0
 11
-0.1582391023
 21
-0.4751033573
 31
0.0
 40
0.9984778551
 41
-1.2488325878
 42
0.3210503505
  0
ELLIPSE
  5
77E
100
AcDbEntity
  8
RACCORDO
100
AcDbEllipse
 62
7
  6
CONTINUOUS
 10
8.5000042309
 20
-23.4113248654
 30
0.0
 11
-0.0029088041
 21
0.2886641433
 31
0.0
 40
0.8660144118
 41
-0.0087264124
 42
1.5591610446
  0
ELLIPSE
  5
77F
100
AcDbEntity
  8
RACCORDO
100
AcDbEllipse
 62
7
  6
CONTINUOUS
 10
10.3999957691
 20
-23.4113248654
 30
0.0
 11
0.0029088041
 21
0.2886641433
 31
0.0
 40
0.8660144118
 41
-1.5591610446
 42
0.0087264124
  0
ELLIPSE
  5
780
100
AcDbEntity
  8
RACCORDO
100
AcDbEllipse
 62
7
  6
CONTINUOUS
 10
-8.5000042309
 20
23.4113248654
 30
0.0
 11
-0.0029088041
 21
0.2886641433
 31
0.0
 40
0.8660144118
 41
-3.150319066
 42
-1.582431609
  0
ELLIPSE
  5
781
100
AcDbEntity
  8
RACCORDO
100
AcDbEllipse
 62
7
  6
CONTINUOUS
 10
-10.3999957691
 20
23.4113248654
 30
0.0
 11
0.0029088041
 21
0.2886641433
 31
0.0
 40
0.8660144118
 41
-4.7007536982
 42
-3.1328662412
  0
ELLIPSE
  5
782
100
AcDbEntity
  8
RACCORDO
100
AcDbEllipse
 62
7
  6
CONTINUOUS
 10
10.3999957691
 20
23.4113248654
 30
0.0
 11
-0.0029088041
 21
0.2886641433
 31
0.0
 40
0.8660144118
 41
-3.150319066
 42
-1.582431609
  0
ELLIPSE
  5
783
100
AcDbEntity
  8
RACCORDO
100
AcDbEllipse
 62
7
  6
CONTINUOUS
 10
8.5000042309
 20
23.4113248654
 30
0.0
 11
0.0029088041
 21
0.2886641433
 31
0.0
 40
0.8660144118
 41
-4.7007536982
 42
-3.1328662411
  0
ELLIPSE
  5
784
100
AcDbEntity
  8
0
100
AcDbEllipse
 62
7
  6
CONTINUOUS
 10
-6.3306453645
 20
15.8003540767
 30
0.0
 11
0.0
 21
1.5
 31
0.0
 40
0.0174550649
 41
4.1015237422
 42
6.2657320147
  0
ELLIPSE
  5
785
100
AcDbEntity
  8
0
100
AcDbEllipse
 62
7
  6
CONTINUOUS
 10
6.3306453645
 20
15.8003540767
 30
0.0
 11
0.0
 21
1.5
 31
0.0
 40
0.0174550649
 41
0.0174532925
 42
2.181661565
  0
ELLIPSE
  5
786
100
AcDbEntity
  8
RACCORDO
100
AcDbEllipse
 62
7
  6
CONTINUOUS
 10
-6.5552693832
 20
-20.5829242832
 30
0.0
 11
0.0
 21
0.5
 31
0.0
 40
0.0058178298
 41
0.0087266463
 42
1.5707963268
  0
ELLIPSE
  5
787
100
AcDbEntity
  8
RACCORDO
100
AcDbEllipse
 62
7
  6
CONTINUOUS
 10
6.5552693832
 20
-20.5829242832
 30
0.0
 11
-0.0
 21
0.5
 31
0.0
 40
0.0058178298
 41
-1.5707963268
 42
-0.0087266463
  0
ELLIPSE
  5
788
100
AcDbEntity
  8
RACCORDO
100
AcDbEllipse
 62
7
  6
CONTINUOUS
 10
6.5552693832
 20
20.5829242832
 30
0.0
 11
0.0
 21
0.5
 31
0.0
 40
0.0058178298
 41
-3.1328660073
 42
-1.5707963268
  0
ELLIPSE
  5
789
100
AcDbEntity
  8
RACCORDO
100
AcDbEllipse
 62
7
  6
CONTINUOUS
 10
-6.5552693832
 20
20.5829242832
 30
0.0
 11
-0.0
 21
0.5
 31
0.0
 40
0.0058178298
 41
-4.7123889804
 42
-3.1503192998
  0
ELLIPSE
  5
78A
100
AcDbEntity
  8
0
100
AcDbEllipse
 62
7
  6
CONTINUOUS
 10
6.776720219
 20
16.9284442159
 30
0.0
 11
-0.158127797
 21
0.4744262128
 31
0.0
 40
0.9998307797
 41
2.8199199407
 42
4.3906147341
  0
ELLIPSE
  5
78B
100
AcDbEntity
  8
0
100
AcDbEllipse
 62
7
  6
CONTINUOUS
 10
-6.776720219
 20
16.9284442159
 30
0.0
 11
0.158127797
 21
0.4744262128
 31
0.0
 40
0.9998307797
 41
1.8925705731
 42
3.4632653665
  0
ELLIPSE
  5
78C
100
AcDbEntity
  8
RACCORDO
100
AcDbEllipse
 62
7
  6
CONTINUOUS
 10
-10.649923836
 20
-21.891254093
 30
0.0
 11
-0.4473055582
 21
0.2236357461
 31
0.0
 40
0.9998096356
 41
6.7467263073
 42
8.3176749331
  0
ELLIPSE
  5
78D
100
AcDbEntity
  8
0
100
AcDbEllipse
 62
7
  6
CONTINUOUS
 10
9.5548698961
 20
9.089741944
 30
0.0
 11
0.0
 21
0.25
 31
0.0
 40
0.0174550649
 41
-1.5707963268
 42
-0.0174532925
  0
ELLIPSE
  5
78E
100
AcDbEntity
  8
ASSI
100
AcDbEllipse
 62
7
  6
CONTINUOUS
 10
-6.331083251
 20
15.764526841
 30
0.0
 11
0.0
 21
0.3
 31
0.0
 40
0.0174550649
 41
-2.181661565
 42
-1.5707963268
  0
ELLIPSE
  5
78F
100
AcDbEntity
  8
ASSI
100
AcDbEllipse
 62
7
  6
CONTINUOUS
 10
6.331083251
 20
15.764526841
 30
0.0
 11
0.0
 21
0.3
 31
0.0
 40
0.0174550649
 41
1.5707963268
 42
2.181661565
  0
ELLIPSE
  5
790
100
AcDbEntity
  8
ASSI
100
AcDbEllipse
 62
7
  6
CONTINUOUS
 10
-6.331083251
 20
15.8009747569
 30
0.0
 11
0.0
 21
0.3
 31
0.0
 40
0.0174550649
 41
-1.5707963268
 42
-0.0174532925
  0
ELLIPSE
  5
791
100
AcDbEntity
  8
ASSI
100
AcDbEllipse
 62
7
  6
CONTINUOUS
 10
6.331083251
 20
15.8009747569
 30
0.0
 11
-0.0
 21
0.3
 31
0.0
 40
0.0174550649
 41
0.0174532925
 42
1.5707963268
  0
ELLIPSE
  5
792
100
AcDbEntity
  8
ASSI
100
AcDbEllipse
 62
7
  6
CONTINUOUS
 10
6.3414138719
 20
14.0475670731
 30
0.0
 11
0.0
 21
0.2
 31
0.0
 40
0.0174550649
 41
3.1415926536
 42
5.3232542186
  0
ELLIPSE
  5
793
100
AcDbEntity
  8
ASSI
100
AcDbEllipse
 62
7
  6
CONTINUOUS
 10
-6.3414138719
 20
14.0475670731
 30
0.0
 11
-0.0
 21
0.2
 31
0.0
 40
0.0174550649
 41
0.9599310886
 42
3.1415926536
  0
ELLIPSE
  5
794
100
AcDbEntity
  8
ASSI
100
AcDbEllipse
 62
7
  6
CONTINUOUS
 10
-10.3999957691
 20
-23.4113248654
 30
0.0
 11
-0.0029088041
 21
0.2886641433
 31
0.0
 40
0.8660144118
 41
-0.0087264124
 42
1.5591610446
  0
ELLIPSE
  5
795
100
AcDbEntity
  8
ASSI
100
AcDbEllipse
 62
7
  6
CONTINUOUS
 10
-8.5000042309
 20
-23.4113248654
 30
0.0
 11
0.0029088041
 21
0.2886641433
 31
0.0
 40
0.8660144118
 41
-1.5591610446
 42
0.0087264124
  0
ELLIPSE
  5
796
100
AcDbEntity
  8
ASSI
100
AcDbEllipse
 62
7
  6
CONTINUOUS
 10
-3.9279699877
 20
22.3339198952
 30
0.0
 11
0.4279699877
 21
-0.0
 31
0.0
 40
0.0087268678
 41
-3.1357748894
 42
0.0
  0
ELLIPSE
  5
797
100
AcDbEntity
  8
ASSI
100
AcDbEllipse
 62
7
  6
CONTINUOUS
 10
8.5000042309
 20
-23.4113248654
 30
0.0
 11
-0.0029088041
 21
0.2886641433
 31
0.0
 40
0.8660144118
 41
-0.0087264124
 42
1.5591610446
  0
ELLIPSE
  5
798
100
AcDbEntity
  8
ASSI
100
AcDbEllipse
 62
7
  6
CONTINUOUS
 10
10.3999957691
 20
-23.4113248654
 30
0.0
 11
0.0029088041
 21
0.2886641433
 31
0.0
 40
0.8660144118
 41
-1.5591610446
 42
0.0087264124
  0
ELLIPSE
  5
799
100
AcDbEntity
  8
ASSI
100
AcDbEllipse
 62
7
  6
CONTINUOUS
 10
4.3563662764
 20
-23.2563578147
 30
0.0
 11
0.0
 21
0.5
 31
0.0
 40
0.0058178298
 41
-3.2911896616
 42
-3.1474104178
  0
ELLIPSE
  5
79A
100
AcDbEntity
  8
ASSI
100
AcDbEllipse
 62
7
  6
CONTINUOUS
 10
3.9279699877
 20
22.3339198952
 30
0.0
 11
0.4279699877
 21
-0.0
 31
0.0
 40
0.0087268678
 41
-3.1415926536
 42
-0.0058177642
  0
ELLIPSE
  5
79B
100
AcDbEntity
  8
ASSI
100
AcDbEllipse
 62
7
  6
CONTINUOUS
 10
10.649923836
 20
-21.891254093
 30
0.0
 11
-0.4473055582
 21
-0.2236357461
 31
0.0
 40
0.9998096356
 41
7.3902883349
 42
8.9612369607
  0
ELLIPSE
  5
79C
100
AcDbEntity
  8
ASSI
100
AcDbEllipse
 62
7
  6
CONTINUOUS
 10
-8.5000042309
 20
23.4113248654
 30
0.0
 11
-0.0029088041
 21
0.2886641433
 31
0.0
 40
0.8660144118
 41
-3.150319066
 42
-1.582431609
  0
ELLIPSE
  5
79D
100
AcDbEntity
  8
ASSI
100
AcDbEllipse
 62
7
  6
CONTINUOUS
 10
-3.9279699877
 20
-22.3339198952
 30
0.0
 11
0.4279699877
 21
-0.0
 31
0.0
 40
0.0087268678
 41
0.0
 42
3.1357748894
  0
ELLIPSE
  5
79E
100
AcDbEntity
  8
ASSI
100
AcDbEllipse
 62
7
  6
CONTINUOUS
 10
-4.3563662764
 20
-23.2563578147
 30
0.0
 11
0.0
 21
0.5
 31
0.0
 40
0.0058178298
 41
-3.1357748894
 42
-2.9919956456
  0
ELLIPSE
  5
79F
100
AcDbEntity
  8
ASSI
100
AcDbEllipse
 62
7
  6
CONTINUOUS
 10
-10.3999957691
 20
23.4113248654
 30
0.0
 11
0.0029088041
 21
0.2886641433
 31
0.0
 40
0.8660144118
 41
-4.7007536982
 42
-3.1328662412
  0
ELLIPSE
  5
7A0
100
AcDbEntity
  8
ASSI
100
AcDbEllipse
 62
7
  6
CONTINUOUS
 10
3.9279699877
 20
-22.3339198952
 30
0.0
 11
0.4279699877
 21
-0.0
 31
0.0
 40
0.0087268678
 41
0.0058177642
 42
3.1415926536
  0
ELLIPSE
  5
7A1
100
AcDbEntity
  8
ASSI
100
AcDbEllipse
 62
7
  6
CONTINUOUS
 10
-6.4499666636
 20
19.594201273
 30
0.0
 11
-0.0
 21
0.3
 31
0.0
 40
0.0058178298
 41
-2.3561944902
 42
-1.5707963268
  0
ELLIPSE
  5
7A2
100
AcDbEntity
  8
ASSI
100
AcDbEllipse
 62
7
  6
CONTINUOUS
 10
-10.649923836
 20
21.891254093
 30
0.0
 11
0.4473055582
 21
0.2236357461
 31
0.0
 40
0.9998096356
 41
7.3902883349
 42
8.9612369607
  0
ELLIPSE
  5
7A3
100
AcDbEntity
  8
ASSI
100
AcDbEllipse
 62
7
  6
CONTINUOUS
 10
10.3999957691
 20
23.4113248654
 30
0.0
 11
-0.0029088041
 21
0.2886641433
 31
0.0
 40
0.8660144118
 41
-3.150319066
 42
-1.582431609
  0
ELLIPSE
  5
7A4
100
AcDbEntity
  8
ASSI
100
AcDbEllipse
 62
7
  6
CONTINUOUS
 10
8.5000042309
 20
23.4113248654
 30
0.0
 11
0.0029088041
 21
0.2886641433
 31
0.0
 40
0.8660144118
 41
-4.7007536982
 42
-3.1328662411
  0
ELLIPSE
  5
7A5
100
AcDbEntity
  8
ASSI
100
AcDbEllipse
 62
7
  6
CONTINUOUS
 10
6.4499666636
 20
19.594201273
 30
0.0
 11
-0.0
 21
0.3
 31
0.0
 40
0.0058178298
 41
-4.7123889804
 42
-3.926990817
  0
ELLIPSE
  5
7A6
100
AcDbEntity
  8
ASSI
100
AcDbEllipse
 62
7
  6
CONTINUOUS
 10
-7.5841007192
 20
-20.9916321118
 30
0.0
 11
0.5
 21
-0.0
 31
0.0
 40
0.0087268678
 41
-3.1241393611
 42
-1.5707963268
  0
ELLIPSE
  5
7A7
100
AcDbEntity
  8
ASSI
100
AcDbEllipse
 62
7
  6
CONTINUOUS
 10
-6.5552693832
 20
-20.5829242832
 30
0.0
 11
0.0
 21
0.5
 31
0.0
 40
0.0058178298
 41
0.0087266463
 42
1.5707963268
  0
ELLIPSE
  5
7A8
100
AcDbEntity
  8
ASSI
100
AcDbEllipse
 62
7
  6
CONTINUOUS
 10
6.5552693832
 20
-20.5829242832
 30
0.0
 11
-0.0
 21
0.5
 31
0.0
 40
0.0058178298
 41
-1.5707963268
 42
-0.0087266463
  0
ELLIPSE
  5
7A9
100
AcDbEntity
  8
ASSI
100
AcDbEllipse
 62
7
  6
CONTINUOUS
 10
6.5552693832
 20
20.5829242832
 30
0.0
 11
0.0
 21
0.5
 31
0.0
 40
0.0058178298
 41
-3.1328660073
 42
-1.5707963268
  0
ELLIPSE
  5
7AA
100
AcDbEntity
  8
ASSI
100
AcDbEllipse
 62
7
  6
CONTINUOUS
 10
7.5841007192
 20
-20.9916321118
 30
0.0
 11
0.5
 21
-0.0
 31
0.0
 40
0.0087268678
 41
-1.5707963268
 42
-0.0174532925
  0
ELLIPSE
  5
7AB
100
AcDbEntity
  8
ASSI
100
AcDbEllipse
 62
7
  6
CONTINUOUS
 10
-6.5552693832
 20
20.5829242832
 30
0.0
 11
-0.0
 21
0.5
 31
0.0
 40
0.0058178298
 41
-4.7123889804
 42
-3.1503192998
  0
ELLIPSE
  5
7AC
100
AcDbEntity
  8
ASSI
100
AcDbEllipse
 62
7
  6
CONTINUOUS
 10
-10.649923836
 20
-21.891254093
 30
0.0
 11
-0.4473055582
 21
0.2236357461
 31
0.0
 40
0.9998096356
 41
6.7467263073
 42
8.3176749331
  0
ELLIPSE
  5
7AD
100
AcDbEntity
  8
ASSI
100
AcDbEllipse
 62
7
  6
CONTINUOUS
 10
10.649923836
 20
21.891254093
 30
0.0
 11
0.4473055582
 21
-0.2236357461
 31
0.0
 40
0.9998096356
 41
6.7467263073
 42
8.3176749331
  0
ELLIPSE
  5
7AE
100
AcDbEntity
  8
ASSI
100
AcDbEllipse
 62
7
  6
CONTINUOUS
 10
9.5548698961
 20
9.089741944
 30
0.0
 11
0.0
 21
0.25
 31
0.0
 40
0.0174550649
 41
-1.5707963268
 42
-0.0174532925
  0
ELLIPSE
  5
7AF
100
AcDbEntity
  8
ASSI
100
AcDbEllipse
 62
7
  6
CONTINUOUS
 10
-9.5548698961
 20
9.089741944
 30
0.0
 11
-0.0
 21
0.25
 31
0.0
 40
0.0174550649
 41
0.0174532925
 42
1.5707963268
  0
ELLIPSE
  5
7B0
100
AcDbEntity
  8
ASSI
100
AcDbEllipse
 62
7
  6
CONTINUOUS
 10
-9.5548698961
 20
8.910258056
 30
0.0
 11
-0.0
 21
0.25
 31
0.0
 40
0.0174550649
 41
1.5707963268
 42
3.1241393611
  0
ELLIPSE
  5
7B1
100
AcDbEntity
  8
ASSI
100
AcDbEllipse
 62
7
  6
CONTINUOUS
 10
9.5548698961
 20
8.910258056
 30
0.0
 11
-0.0
 21
0.25
 31
0.0
 40
0.0174550649
 41
-3.1241393611
 42
-1.5707963268
  0
ELLIPSE
  5
7B2
100
AcDbEntity
  8
ASSI
100
AcDbEllipse
 62
7
  6
CONTINUOUS
 10
6.8261717724
 20
16.780076164
 30
0.0
 11
-0.158127797
 21
0.4744262128
 31
0.0
 40
0.9998307797
 41
-3.4632653665
 42
-1.8925705731
  0
ELLIPSE
  5
7B3
100
AcDbEntity
  8
ASSI
100
AcDbEllipse
 62
7
  6
CONTINUOUS
 10
-6.8261717724
 20
16.780076164
 30
0.0
 11
0.158127797
 21
0.4744262128
 31
0.0
 40
0.9998307797
 41
-4.3906147341
 42
-2.8199199407
  0
ELLIPSE
  5
7B4
100
AcDbEntity
  8
ASSI
100
AcDbEllipse
 62
7
  6
CONTINUOUS
 10
-7.5841007192
 20
20.9916321118
 30
0.0
 11
0.5
 21
0.0
 31
0.0
 40
0.0087268678
 41
1.5707963268
 42
3.1241393611
  0
ELLIPSE
  5
7B5
100
AcDbEntity
  8
ASSI
100
AcDbEllipse
 62
7
  6
CONTINUOUS
 10
-6.776720219
 20
16.9284442159
 30
0.0
 11
0.158127797
 21
0.4744262128
 31
0.0
 40
0.9998307797
 41
1.8925705731
 42
3.4632653665
  0
ELLIPSE
  5
7B6
100
AcDbEntity
  8
ASSI
100
AcDbEllipse
 62
7
  6
CONTINUOUS
 10
6.776720219
 20
16.9284442159
 30
0.0
 11
-0.158127797
 21
0.4744262128
 31
0.0
 40
0.9998307797
 41
2.8199199407
 42
4.3906147341
  0
ELLIPSE
  5
7B7
100
AcDbEntity
  8
ASSI
100
AcDbEllipse
 62
7
  6
CONTINUOUS
 10
7.5841007192
 20
20.9916321118
 30
0.0
 11
0.5
 21
0.0
 31
0.0
 40
0.0087268678
 41
0.0174532925
 42
1.5707963268
  0
ELLIPSE
  5
7B8
100
AcDbEntity
  8
ASSI
100
AcDbEllipse
 62
7
  6
CONTINUOUS
 10
7.3238531022
 20
-19.8
 30
0.0
 11
0.0
 21
0.5
 31
0.0
 40
0.0058178298
 41
0.5996606387
 42
1.5707963268
  0
ELLIPSE
  5
7B9
100
AcDbEntity
  8
ASSI
100
AcDbEllipse
 62
7
  6
CONTINUOUS
 10
9.5784342338
 20
-19.8
 30
0.0
 11
0.0
 21
0.5
 31
0.0
 40
0.0174550649
 41
-1.5707963268
 42
0.0
  0
ELLIPSE
  5
7BA
100
AcDbEntity
  8
ASSI
100
AcDbEllipse
 62
7
  6
CONTINUOUS
 10
6.3306453645
 20
15.8003540767
 30
0.0
 11
0.0
 21
1.5
 31
0.0
 40
0.0174550649
 41
0.0174532925
 42
2.181661565
  0
ELLIPSE
  5
7BB
100
AcDbEntity
  8
ASSI
100
AcDbEllipse
 62
7
  6
CONTINUOUS
 10
-6.3306453645
 20
15.8003540767
 30
0.0
 11
0.0
 21
1.5
 31
0.0
 40
0.0174550649
 41
-2.181661565
 42
-0.0174532925
  0
ELLIPSE
  5
7BC
100
AcDbEntity
  8
ASSI
100
AcDbEllipse
 62
7
  6
CONTINUOUS
 10
6.4761468978
 20
-19.8
 30
0.0
 11
0.0
 21
0.5
 31
0.0
 40
0.0058178298
 41
-1.5707963268
 42
-0.5996606387
  0
ELLIPSE
  5
7BD
100
AcDbEntity
  8
ASSI
100
AcDbEllipse
 62
7
  6
CONTINUOUS
 10
-6.4761468978
 20
-19.8
 30
0.0
 11
0.0
 21
0.5
 31
0.0
 40
0.0058178298
 41
0.5996606387
 42
1.5707963268
  0
ELLIPSE
  5
7BE
100
AcDbEntity
  8
ASSI
100
AcDbEllipse
 62
7
  6
CONTINUOUS
 10
-9.5784342338
 20
-19.8
 30
0.0
 11
0.0
 21
0.5
 31
0.0
 40
0.0174550649
 41
-0.0
 42
1.5707963268
  0
ELLIPSE
  5
7BF
100
AcDbEntity
  8
ASSI
100
AcDbEllipse
 62
7
  6
CONTINUOUS
 10
-7.3238531022
 20
-19.8
 30
0.0
 11
0.0
 21
0.5
 31
0.0
 40
0.0058178298
 41
-1.5707963268
 42
-0.5996606387
  0
ELLIPSE
  5
7C0
100
AcDbEntity
  8
ASSI
100
AcDbEllipse
 62
7
  6
CONTINUOUS
 10
9.5208325195
 20
-15.2792978419
 30
0.0
 11
0.0
 21
0.5
 31
0.0
 40
0.0174550649
 41
-1.5707963268
 42
-0.0523598776
  0
ELLIPSE
  5
7C1
100
AcDbEntity
  8
ASSI
100
AcDbEllipse
 62
7
  6
CONTINUOUS
 10
-9.5208325195
 20
-15.2792978419
 30
0.0
 11
0.0
 21
0.5
 31
0.0
 40
0.0174550649
 41
0.0523598776
 42
1.5707963268
  0
ELLIPSE
  5
7C2
100
AcDbEntity
  8
ASSI
100
AcDbEllipse
 62
7
  6
CONTINUOUS
 10
-9.0870856022
 20
-20.2106458216
 30
0.0
 11
-0.1582391023
 21
-0.4751033573
 31
0.0
 40
0.9984778551
 41
-1.2488325878
 42
0.3210503505
  0
ELLIPSE
  5
7C3
100
AcDbEntity
  8
ASSI
100
AcDbEllipse
 62
7
  6
CONTINUOUS
 10
-9.149923836
 20
-20.399313827
 30
0.0
 11
0.1582391023
 21
0.4751033573
 31
0.0
 40
0.9984778551
 41
-4.3904252414
 42
-2.8205423031
  0
ELLIPSE
  5
7C4
100
AcDbEntity
  8
ASSI
100
AcDbEllipse
 62
7
  6
CONTINUOUS
 10
-9.149923836
 20
20.399313827
 30
0.0
 11
-0.1582391023
 21
0.4751033573
 31
0.0
 40
0.9984778551
 41
-0.3210503505
 42
1.2488325878
  0
ELLIPSE
  5
7C5
100
AcDbEntity
  8
ASSI
100
AcDbEllipse
 62
7
  6
CONTINUOUS
 10
-8.9945737581
 20
19.9328845914
 30
0.0
 11
-0.1582391023
 21
0.4751033573
 31
0.0
 40
0.9984778551
 41
-0.3210503505
 42
1.2488325878
  0
ELLIPSE
  5
7C6
100
AcDbEntity
  8
ASSI
100
AcDbEllipse
 62
7
  6
CONTINUOUS
 10
8.9945737581
 20
19.9328845914
 30
0.0
 11
-0.1582391023
 21
-0.4751033573
 31
0.0
 40
0.9984778551
 41
1.8927600658
 42
3.4626430041
  0
ELLIPSE
  5
7C7
100
AcDbEntity
  8
ASSI
100
AcDbEllipse
 62
7
  6
CONTINUOUS
 10
9.149923836
 20
20.399313827
 30
0.0
 11
0.1582391023
 21
0.4751033573
 31
0.0
 40
0.9984778551
 41
-1.2488325878
 42
0.3210503505
  0
ELLIPSE
  5
7C8
100
AcDbEntity
  8
ASSI
100
AcDbEllipse
 62
7
  6
CONTINUOUS
 10
9.149923836
 20
-20.399313827
 30
0.0
 11
-0.1582391023
 21
0.4751033573
 31
0.0
 40
0.9984778551
 41
-3.4626430041
 42
-1.8927600658
  0
ELLIPSE
  5
7C9
100
AcDbEntity
  8
ASSI
100
AcDbEllipse
 62
7
  6
CONTINUOUS
 10
9.0870856022
 20
-20.2106458216
 30
0.0
 11
-0.1582391023
 21
0.4751033573
 31
0.0
 40
0.9984778551
 41
2.8205423031
 42
4.3904252414
  0
ENDSEC
  0
SECTION
  2
OBJECTS
  0
DICTIONARY
  5
C
100
AcDbDictionary
280
0
281
1
  3
ACAD_GROUP
350
D
  3
ACAD_MLINESTYLE
350
17
  3
ACAD_LAYOUT
350
1A
  3
ACAD_PLOTSETTINGS
350
19
  3
ACAD_PLOTSTYLENAME
350
E
  0
DICTIONARY
  5
D
102
{ACAD_REACTORS
330
C
102
}
100
AcDbDictionary
280
0
281
1
  0
ACDBDICTIONARYWDFLT
  5
E
102
{ACAD_REACTORS
330
C
102
}
100
AcDbDictionary
281
1
  3
Normal
350
F
100
AcDbDictionaryWithDefault
340
F
  0
DICTIONARY
  5
17
102
{ACAD_REACTORS
330
C
102
}
100
AcDbDictionary
280
0
281
1
  3
Standard
350
18
  0
DICTIONARY
  5
19
102
{ACAD_REACTORS
330
C
102
}
100
AcDbDictionary
281
1
  0
DICTIONARY
  5
1A
102
{ACAD_REACTORS
330
C
102
}
100
AcDbDictionary
281
1
  3
Model
350
7CA
  3
Layout1
350
7CB
  0
ACDBPLACEHOLDER
  5
F
102
{ACAD_REACTORS
330
E
102
}
  0
MLINESTYLE
  5
18
102
{ACAD_REACTORS
330
17
102
}
100
AcDbMlineStyle
  2
STANDARD
 70
0
  3

 62
256
 51
90.0
 52
90.0
 71
2
 49
0.5
 62
256
  6
BYLAYER
 49
-0.5
 62
256
  6
BYLAYER
  0
LAYOUT
  5
7CA
102
{ACAD_REACTORS
330
1A
102
}
100
AcDbPlotSettings
  1

  2
none_device
  4
ANSI_C_(22.00_x_17.00_Inches)
  6

 40
0.0
 41
0.0
 42
0.0
 43
0.0
 44
558.8
 45
431.8
 46
0.0
 47
0.0
 48
0.0
 49
0.0
140
0.0
141
0.0
142
1.0
143
1.0
 70
1024
 72
1
 73
0
 74
0
  7

 75
0
147
1.0
148
0.0
149
0.0
100
AcDbLayout
  1
Model
 70
0
 71
0
 10
0.0
 20
0.0
 11
558.8
 21
431.8
 12
0.0
 22
0.0
 32
0.0
 14
0.0
 24
0.0
 34
0.0
 15
0.0
 25
0.0
 35
0.0
146
0.0
 13
0.0
 23
0.0
 33
0.0
 16
1.0
 26
0.0
 36
0.0
 17
0.0
 27
1.0
 37
0.0
 76
0
330
215
345
0
346
0
  0
LAYOUT
  5
7CB
102
{ACAD_REACTORS
330
1A
102
}
100
AcDbPlotSettings
  1

  2
none_device
  4
ANSI_C_(22.00_x_17.00_Inches)
  6

 40
0.0
 41
0.0
 42
0.0
 43
0.0
 44
558.8
 45
431.8
 46
0.0
 47
0.0
 48
0.0
 49
0.0
140
0.0
141
0.0
142
1.0
143
1.0
 70
0
 72
1
 73
0
 74
0
  7

 75
0
147
1.0
148
0.0
149
0.0
100
AcDbLayout
  1
Layout1
 70
0
 71
1
 10
0.0
 20
0.0
 11
558.8
 21
431.8
 12
0.0
 22
0.0
 32
0.0
 14
0.0
 24
0.0
 34
0.0
 15
0.0
 25
0.0
 35
0.0
146
0.0
 13
0.0
 23
0.0
 33
0.0
 16
1.0
 26
0.0
 36
0.0
 17
0.0
 27
1.0
 37
0.0
 76
0
330
216
345
0
346
0
  0
ENDSEC
  0
EOF
