0
SECTION
2
HEADER
9
$ACADVER
1
AC1015
9
$DWGCODEPAGE
3
ANSI_1252
9
$EXTMAX
10
431.8000000000
20
558.8000000000
30
0.0000000000
9
$EXTMIN
10
0.0000000000
20
0.0000000000
30
0.0000000000
9
$LIMMIN
10
0.0000000000
20
0.0000000000
9
$LIMMAX
10
431.8000000000
20
558.8000000000
9
$VIEWCTR
10
215.9000000000
20
279.4000000000
9
$VIEWSIZE
40
558.8000000000
9
$CLAYER
8
0
9
$LTSCALE
40
36.4254814815
9
$CELTYPE
6
BYLAYER
9
$DIMSCALE
40
1
9
$DIMASZ
40
3.0000000000
9
$DIMEXO
40
4.1392592593
9
$DIMDLI
40
25.1666962963
9
$DIMEXE
40
11.9210666667
9
$DIMCEN
40
5.9605333333
9
$DIMLFAC
40
1.0000000000
9
$DIMBLK
1
_FILLED
9
$DIMTXT
40
3.0000000000
9
$DIMTOL
70
1
9
$DIMLIM
70
0
9
$DIMTFAC
40
1.0000000000
9
$DIMTP
40
0.0100000000
9
$DIMTM
40
0.0100000000
9
$PDMODE
70
3
9
$PDSIZE
40
3.0000000000
9
$HANDSEED
5
40E
9
$MEASUREMENT
70
1
9
$INSUNITS
70
4
0
ENDSEC
0
SECTION
2
CLASSES
0
CLASS
1
ACDBDICTIONARYWDFLT
2
AcDbDictionaryWithDefault
3
AutoCAD 2000
90
0
280
0
281
0
0
CLASS
1
ACDBPLACEHOLDER
2
AcDbPlaceHolder
3
AutoCAD 2000
90
0
280
0
281
0
0
CLASS
1
LAYOUT
2
AcDbLayout
3
AutoCAD 2000
90
0
280
0
281
0
0
ENDSEC
0
SECTION
2
TABLES
0
TABLE
2
VPORT
5
8
100
AcDbSymbolTable
70
2
0
VPORT
5
1F4
100
AcDbSymbolTableRecord
100
AcDbViewportTableRecord
2
*ACTIVE
70
0
10
0.0
20
0.0
11
1.0
21
1.0
12
215.9000000000
22
279.4000000000
13
0.0
23
0.0
14
1.0
24
1.0
15
0.0
25
0.0
16
0.0
26
0.0
36
1.0
17
0.0
27
0.0
37
0.0
40
558.8000000000
41
0.7727272727
42
50.0
43
0.0
44
0.0
50
0.0
51
0.0
71
0
72
100
73
1
74
1
75
0
76
0
77
0
78
0
0
ENDTAB
0
TABLE
2
LTYPE
5
5
100
AcDbSymbolTable
70
6
0
LTYPE
5
14
100
AcDbSymbolTableRecord
100
AcDbLinetypeTableRecord
2
BYBLOCK
70
0
3

72
65
73
0
40
0.0
0
LTYPE
5
15
100
AcDbSymbolTableRecord
100
AcDbLinetypeTableRecord
2
BYLAYER
70
0
3

72
65
73
0
40
0.0
0
LTYPE
5
16
100
AcDbSymbolTableRecord
100
AcDbLinetypeTableRecord
2
CONTINUOUS
70
64
3
Solid line
72
65
73
0
40
0
0
LTYPE
5
1F5
100
AcDbSymbolTableRecord
100
AcDbLinetypeTableRecord
2
CENTER
70
64
3
____ _ ____ _ ____ _ ____ _ ____ _ ____ _ ____
72
65
73
4
40
0.6
49
0.375
74
0
49
-0.075
74
0
49
0.075
74
0
49
-0.075
74
0
0
LTYPE
5
1F6
100
AcDbSymbolTableRecord
100
AcDbLinetypeTableRecord
2
HIDDEN
70
64
3
- - - - - - - - - - - - - - - - - - - -
72
65
73
2
40
0.2
49
0.1
74
0
49
-0.1
74
0
0
LTYPE
5
1F7
100
AcDbSymbolTableRecord
100
AcDbLinetypeTableRecord
2
PHANTOM
70
64
3
_____ _ _ _____ _ _ _____ _ _ _____
72
65
73
6
40
0.8
49
0.45
74
0
49
-0.05
74
0
49
0.1
74
0
49
-0.05
74
0
49
0.1
74
0
49
-0.05
74
0
0
LTYPE
5
1F8
100
AcDbSymbolTableRecord
100
AcDbLinetypeTableRecord
2
DOT
70
64
3
. . . . . . . . . . . . . . . . . . . .
72
65
73
2
40
0.2
49
0.1
74
0
49
-0.1
74
0
0
LTYPE
5
1F9
100
AcDbSymbolTableRecord
100
AcDbLinetypeTableRecord
2
DASHED
70
64
3
- - - - - - - - - - - - - - - - - - - -
72
65
73
2
40
0.2
49
0.1
74
0
49
-0.1
74
0
0
ENDTAB
0
TABLE
2
LAYER
5
2
100
AcDbSymbolTable
70
36
0
LAYER
5
10
100
AcDbSymbolTableRecord
100
AcDbLayerTableRecord
2
0
70
0
62
7
6
CONTINUOUS
370
-3
390
F
0
LAYER
5
1FA
100
AcDbSymbolTableRecord
100
AcDbLayerTableRecord
2
DEFAULT_1
70
0
62
7
6
CENTER
370
-3
390
F
0
LAYER
5
1FB
100
AcDbSymbolTableRecord
100
AcDbLayerTableRecord
2
DEFAULT_2
70
0
62
9
6
HIDDEN
370
-3
390
F
0
LAYER
5
1FC
100
AcDbSymbolTableRecord
100
AcDbLayerTableRecord
2
DEFAULT_3
70
0
62
7
6
PHANTOM
370
-3
390
F
0
LAYER
5
1FD
100
AcDbSymbolTableRecord
100
AcDbLayerTableRecord
2
_2D_DELETED_OBJS
70
0
62
7
6
CONTINUOUS
370
-3
390
F
0
LAYER
5
1FE
100
AcDbSymbolTableRecord
100
AcDbLayerTableRecord
2
_BLACK_HOLE
70
0
62
7
6
CONTINUOUS
370
-3
390
F
0
LAYER
5
1FF
100
AcDbSymbolTableRecord
100
AcDbLayerTableRecord
2
ASSI
70
0
62
7
6
CONTINUOUS
370
-3
390
F
0
LAYER
5
200
100
AcDbSymbolTableRecord
100
AcDbLayerTableRecord
2
COORDINATE
70
0
62
7
6
CONTINUOUS
370
-3
390
F
0
LAYER
5
201
100
AcDbSymbolTableRecord
100
AcDbLayerTableRecord
2
COORD_ORIGINE
70
0
62
7
6
CONTINUOUS
370
-3
390
F
0
LAYER
5
202
100
AcDbSymbolTableRecord
100
AcDbLayerTableRecord
2
COPY-PUBBLISH
70
0
62
7
6
CONTINUOUS
370
-3
390
F
0
LAYER
5
203
100
AcDbSymbolTableRecord
100
AcDbLayerTableRecord
2
CURVE
70
0
62
7
6
CONTINUOUS
370
-3
390
F
0
LAYER
5
204
100
AcDbSymbolTableRecord
100
AcDbLayerTableRecord
2
DRAFT
70
0
62
7
6
CONTINUOUS
370
-3
390
F
0
LAYER
5
205
100
AcDbSymbolTableRecord
100
AcDbLayerTableRecord
2
IMPORT_INCISIONI
70
0
62
7
6
CONTINUOUS
370
-3
390
F
0
LAYER
5
206
100
AcDbSymbolTableRecord
100
AcDbLayerTableRecord
2
NOTE
70
0
62
7
6
CONTINUOUS
370
-3
390
F
0
LAYER
5
207
100
AcDbSymbolTableRecord
100
AcDbLayerTableRecord
2
PIANI
70
0
62
7
6
CONTINUOUS
370
-3
390
F
0
LAYER
5
208
100
AcDbSymbolTableRecord
100
AcDbLayerTableRecord
2
PIANI_ORIGINE
70
0
62
7
6
CONTINUOUS
370
-3
390
F
0
LAYER
5
209
100
AcDbSymbolTableRecord
100
AcDbLayerTableRecord
2
PIANI_RIFERIMENTO
70
0
62
7
6
CONTINUOUS
370
-3
390
F
0
LAYER
5
20A
100
AcDbSymbolTableRecord
100
AcDbLayerTableRecord
2
PUNTI
70
0
62
7
6
CONTINUOUS
370
-3
390
F
0
LAYER
5
20B
100
AcDbSymbolTableRecord
100
AcDbLayerTableRecord
2
RACCORDO
70
0
62
7
6
CONTINUOUS
370
-3
390
F
0
LAYER
5
20C
100
AcDbSymbolTableRecord
100
AcDbLayerTableRecord
2
SMUSSO
70
0
62
7
6
CONTINUOUS
370
-3
390
F
0
LAYER
5
20D
100
AcDbSymbolTableRecord
100
AcDbLayerTableRecord
2
SNAPLINE
70
0
62
7
6
CONTINUOUS
370
-3
390
F
0
LAYER
5
20E
100
AcDbSymbolTableRecord
100
AcDbLayerTableRecord
2
SUPERFICI
70
0
62
7
6
CONTINUOUS
370
-3
390
F
0
LAYER
5
20F
100
AcDbSymbolTableRecord
100
AcDbLayerTableRecord
2
TRASH
70
0
62
7
6
CONTINUOUS
370
-3
390
F
0
LAYER
5
210
100
AcDbSymbolTableRecord
100
AcDbLayerTableRecord
2
XSEC_DATUMS
70
0
62
7
6
CONTINUOUS
370
-3
390
F
0
ENDTAB
0
TABLE
2
STYLE
5
3
100
AcDbSymbolTable
70
1
0
STYLE
5
11
100
AcDbSymbolTableRecord
100
AcDbTextStyleTableRecord
2
STANDARD
70
0
40
0.0
41
0.8000000000
50
0.0
71
0
42
0.2
3
txt
4

0
ENDTAB
0
TABLE
2
VIEW
5
6
100
AcDbSymbolTable
70
0
0
ENDTAB
0
TABLE
2
UCS
5
7
100
AcDbSymbolTable
70
0
0
ENDTAB
0
TABLE
2
APPID
5
9
100
AcDbSymbolTable
70
1
0
APPID
5
211
100
AcDbSymbolTableRecord
100
AcDbRegAppTableRecord
2
ACAD
70
0
0
ENDTAB
0
TABLE
2
BLOCK_RECORD
5
1
100
AcDbSymbolTable
70
0
0
BLOCK_RECORD
5
1F
100
AcDbSymbolTableRecord
100
AcDbBlockTableRecord
2
*MODEL_SPACE
0
BLOCK_RECORD
5
1B
100
AcDbSymbolTableRecord
100
AcDbBlockTableRecord
2
*PAPER_SPACE
0
ENDTAB
0
TABLE
2
DIMSTYLE
5
A
100
AcDbSymbolTable
70
1
100
AcDbDimStyleTable
71
0
0
DIMSTYLE
105
212
100
AcDbSymbolTableRecord
100
AcDbDimStyleTableRecord
2
STANDARD
70
0
3

4

40
1.0
41
3.0000000000
42
0.0625
43
0.38
44
0.18
45
0.0
46
0.0
47
0.0100000000
48
0.0100000000
140
3.0000000000
141
0.09
142
0.0
143
25.4
144
1.0000000000
145
0.0
146
1.0000000000
147
0.09
71
1
72
0
73
0
74
0
75
0
76
0
77
1
78
8
170
0
171
2
172
0
173
0
174
0
175
0
176
0
177
0
178
0
270
2
271
2
272
2
273
2
274
2
275
0
280
0
281
0
282
0
283
1
284
8
285
0
286
0
287
3
288
0
340
11
0
ENDTAB
0
ENDSEC
0
SECTION
2
BLOCKS
0
BLOCK
5
20
100
AcDbEntity
8
0
100
AcDbBlockBegin
2
*MODEL_SPACE
70
0
10
0.0
20
0.0
30
0.0
3
*MODEL_SPACE
1

0
ENDBLK
5
21
100
AcDbEntity
8
0
100
AcDbBlockEnd
0
BLOCK
5
1C
100
AcDbEntity
8
0
100
AcDbBlockBegin
2
*PAPER_SPACE
70
0
10
0.0
20
0.0
30
0.0
3
*PAPER_SPACE
1

0
ENDBLK
5
1D
100
AcDbEntity
8
0
100
AcDbBlockEnd
0
ENDSEC
0
SECTION
2
ENTITIES
0
LINE
5
213
100
AcDbEntity
8
0
100
AcDbLine
62
0
6
CONTINUOUS
10
-10.1102378460
20
-24.7342822599
11
-8.2189730525
21
-24.7342822599
0
LINE
5
214
100
AcDbEntity
8
0
100
AcDbLine
62
0
6
CONTINUOUS
10
8.7897621540
20
-24.7342822599
11
10.6810269475
21
-24.7342822599
0
LINE
5
215
100
AcDbEntity
8
0
100
AcDbLine
62
9
6
CONTINUOUS
10
-10.3602336153
20
-24.4842864907
11
-7.9689772833
21
-24.4842864907
0
LINE
5
216
100
AcDbEntity
8
0
100
AcDbLine
62
9
6
CONTINUOUS
10
8.5397663847
20
-24.4842864907
11
10.9310227167
21
-24.4842864907
0
LINE
5
217
100
AcDbEntity
8
0
100
AcDbLine
62
9
6
CONTINUOUS
10
-10.3602336153
20
-24.0829916612
11
-7.9689772833
21
-24.0829916612
0
LINE
5
218
100
AcDbEntity
8
0
100
AcDbLine
62
0
6
CONTINUOUS
10
-4.1146054493
20
-24.0386540939
11
-3.2146054493
21
-24.0386540939
0
LINE
5
219
100
AcDbEntity
8
0
100
AcDbLine
62
0
6
CONTINUOUS
10
3.7853945507
20
-24.0386540939
11
4.6853945507
21
-24.0386540939
0
LINE
5
21A
100
AcDbEntity
8
0
100
AcDbLine
62
0
6
CONTINUOUS
10
-3.2146054493
20
-24.0328362641
11
3.7853945507
21
-24.0328362641
0
LINE
5
21B
100
AcDbEntity
8
0
100
AcDbLine
62
0
6
CONTINUOUS
10
-4.0709548024
20
-23.9950034470
11
-3.2146054493
21
-23.9950034470
0
LINE
5
21C
100
AcDbEntity
8
0
100
AcDbLine
62
0
6
CONTINUOUS
10
3.7853945507
20
-23.9950034470
11
4.6417439039
21
-23.9950034470
0
LINE
5
21D
100
AcDbEntity
8
0
100
AcDbLine
62
0
6
CONTINUOUS
10
8.7897621540
20
-23.9386540939
11
10.6810269475
21
-23.9386540939
0
LINE
5
21E
100
AcDbEntity
8
0
100
AcDbLine
62
9
6
CONTINUOUS
10
-8.2189730525
20
-23.8664853102
11
-10.1102378460
21
-23.8664853102
0
LINE
5
21F
100
AcDbEntity
8
0
100
AcDbLine
62
0
6
CONTINUOUS
10
-7.7986300160
20
20.7530541703
11
-7.9611181584
21
20.6718162865
0
LINE
5
220
100
AcDbEntity
8
0
100
AcDbLine
62
0
6
CONTINUOUS
10
10.6861175486
20
-23.3613038247
11
8.7846715529
21
-23.3613038247
0
LINE
5
221
100
AcDbEntity
8
0
100
AcDbLine
62
0
6
CONTINUOUS
10
-8.2138824514
20
-23.3613038247
11
-10.1153284471
21
-23.3613038247
0
LINE
5
222
100
AcDbEntity
8
0
100
AcDbLine
62
0
6
CONTINUOUS
10
-10.3974974723
20
-22.6386540939
11
-4.1146054493
21
-22.6386540939
0
LINE
5
223
100
AcDbEntity
8
0
100
AcDbLine
62
0
6
CONTINUOUS
10
4.6853945507
20
-22.6386540939
11
10.9682820256
21
-22.6386540939
0
LINE
5
224
100
AcDbEntity
8
0
100
AcDbLine
62
0
6
CONTINUOUS
10
-10.4144683566
20
-22.6299272261
11
-6.9733323170
21
-22.6299272261
0
LINE
5
225
100
AcDbEntity
8
0
100
AcDbLine
62
0
6
CONTINUOUS
10
-3.2146054493
20
-22.6299272261
11
-2.7146054493
21
-22.6299272261
0
LINE
5
226
100
AcDbEntity
8
0
100
AcDbLine
62
0
6
CONTINUOUS
10
3.2853945507
20
-22.6299272261
11
3.7853945507
21
-22.6299272261
0
LINE
5
227
100
AcDbEntity
8
0
100
AcDbLine
62
0
6
CONTINUOUS
10
7.5441214185
20
-22.6299272261
11
10.9852574581
21
-22.6299272261
0
LINE
5
228
100
AcDbEntity
8
0
100
AcDbLine
62
9
6
CONTINUOUS
10
-7.0519502825
20
-22.5513092607
11
-2.7146054493
21
-22.5513092607
0
LINE
5
229
100
AcDbEntity
8
0
100
AcDbLine
62
9
6
CONTINUOUS
10
3.2853945507
20
-22.5513092607
11
7.6227393840
21
-22.5513092607
0
LINE
5
22A
100
AcDbEntity
8
0
100
AcDbLine
62
0
6
CONTINUOUS
10
3.2853945507
20
-21.9386540939
11
-2.7146054493
21
-21.9386540939
0
LINE
5
22B
100
AcDbEntity
8
0
100
AcDbLine
62
0
6
CONTINUOUS
10
-7.7986300160
20
-21.2303623581
11
-7.9611181584
21
-21.1491244743
0
LINE
5
22C
100
AcDbEntity
8
0
100
AcDbLine
62
0
6
CONTINUOUS
10
-8.6144915161
20
20.6613459061
11
-9.3646054493
21
19.9103169599
0
LINE
5
22D
100
AcDbEntity
8
0
100
AcDbLine
62
0
6
CONTINUOUS
10
-7.9646054493
20
21.1613459061
11
-6.9733323170
21
22.1526190383
0
LINE
5
22E
100
AcDbEntity
8
0
100
AcDbLine
62
9
6
CONTINUOUS
10
-7.2987061684
20
-21.5513473376
11
-2.7146054493
21
-21.5513473376
0
LINE
5
22F
100
AcDbEntity
8
0
100
AcDbLine
62
9
6
CONTINUOUS
10
3.2853945507
20
-21.5513473376
11
7.8694952699
21
-21.5513473376
0
LINE
5
230
100
AcDbEntity
8
0
100
AcDbLine
62
0
6
CONTINUOUS
10
-2.7146054493
20
-21.2386540939
11
3.2853945507
21
-21.2386540939
0
LINE
5
231
100
AcDbEntity
8
0
100
AcDbLine
62
0
6
CONTINUOUS
10
7.8694952699
20
-21.2346496396
11
7.3283764339
21
-21.2346496396
0
LINE
5
232
100
AcDbEntity
8
0
100
AcDbLine
62
0
6
CONTINUOUS
10
-6.7575873324
20
-21.2346496396
11
-7.2987061684
21
-21.2346496396
0
LINE
5
233
100
AcDbEntity
8
0
100
AcDbLine
62
0
6
CONTINUOUS
10
-7.9611181584
20
-21.1491244743
11
-7.0134431239
21
-21.1491244743
0
LINE
5
234
100
AcDbEntity
8
0
100
AcDbLine
62
0
6
CONTINUOUS
10
7.5842322254
20
-21.1491244743
11
8.5319072599
21
-21.1491244743
0
LINE
5
235
100
AcDbEntity
8
0
100
AcDbLine
62
0
6
CONTINUOUS
10
-8.6144915161
20
-21.1386540939
11
-7.9646054493
21
-21.1386540939
0
LINE
5
236
100
AcDbEntity
8
0
100
AcDbLine
62
0
6
CONTINUOUS
10
8.5353945507
20
-21.1386540939
11
9.1852806176
21
-21.1386540939
0
LINE
5
237
100
AcDbEntity
8
0
100
AcDbLine
62
0
6
CONTINUOUS
10
-8.5516532824
20
-20.9499860885
11
-7.0355496366
21
-20.9499860885
0
LINE
5
238
100
AcDbEntity
8
0
100
AcDbLine
62
0
6
CONTINUOUS
10
7.6063387381
20
-20.9499860885
11
9.1224423839
21
-20.9499860885
0
LINE
5
239
100
AcDbEntity
8
0
100
AcDbLine
62
9
6
CONTINUOUS
10
7.0424126676
20
-20.8215783771
11
-6.4716235661
21
-20.8215783771
0
LINE
5
23A
100
AcDbEntity
8
0
100
AcDbLine
62
0
6
CONTINUOUS
10
6.8406893187
20
-20.3215974156
11
-6.2699002172
21
-20.3215974156
0
LINE
5
23B
100
AcDbEntity
8
0
100
AcDbLine
62
9
6
CONTINUOUS
10
-6.2716269507
20
-20.2390539555
11
-6.9575839478
21
-20.2390539555
0
LINE
5
23C
100
AcDbEntity
8
0
100
AcDbLine
62
9
6
CONTINUOUS
10
6.8424160522
20
-20.2390539555
11
7.5283730493
21
-20.2390539555
0
LINE
5
23D
100
AcDbEntity
8
0
100
AcDbLine
62
0
6
CONTINUOUS
10
4.3269169209
20
-20.2386540939
11
-3.7561278194
21
-20.2386540939
0
LINE
5
23E
100
AcDbEntity
8
0
100
AcDbLine
62
0
6
CONTINUOUS
10
-6.1936612619
20
-20.2072373698
11
-3.9858067855
21
-20.2072373698
0
LINE
5
23F
100
AcDbEntity
8
0
100
AcDbLine
62
0
6
CONTINUOUS
10
4.5565958870
20
-20.2072373698
11
6.7644503634
21
-20.2072373698
0
LINE
5
240
100
AcDbEntity
8
0
100
AcDbLine
62
0
6
CONTINUOUS
10
-7.9646054493
20
-21.6386540939
11
-6.9733323170
21
-22.6299272261
0
LINE
5
241
100
AcDbEntity
8
0
100
AcDbLine
62
0
6
CONTINUOUS
10
-8.6144915161
20
-21.1386540939
11
-9.3646054493
21
-20.3876251477
0
LINE
5
242
100
AcDbEntity
8
0
100
AcDbLine
62
0
6
CONTINUOUS
10
-8.5516532824
20
-20.9499860885
11
-9.3017672155
21
-20.1989571423
0
LINE
5
243
100
AcDbEntity
8
0
100
AcDbLine
62
9
6
CONTINUOUS
10
9.8725563170
20
-20.0631083629
11
7.6063387381
21
-20.0631083629
0
LINE
5
244
100
AcDbEntity
8
0
100
AcDbLine
62
9
6
CONTINUOUS
10
6.7644503634
20
-20.0631083629
11
4.5565958870
21
-20.0631083629
0
LINE
5
245
100
AcDbEntity
8
0
100
AcDbLine
62
9
6
CONTINUOUS
10
-3.9858067855
20
-20.0631083629
11
-6.1936612619
21
-20.0631083629
0
LINE
5
246
100
AcDbEntity
8
0
100
AcDbLine
62
9
6
CONTINUOUS
10
-7.0355496366
20
-20.0631083629
11
-9.3017672155
21
-20.0631083629
0
LINE
5
247
100
AcDbEntity
8
0
100
AcDbLine
62
9
6
CONTINUOUS
10
7.3283764339
20
-20.0420924049
11
7.0424126676
21
-20.0420924049
0
LINE
5
248
100
AcDbEntity
8
0
100
AcDbLine
62
9
6
CONTINUOUS
10
-6.4716235661
20
-20.0420924049
11
-6.7575873324
21
-20.0420924049
0
LINE
5
249
100
AcDbEntity
8
0
100
AcDbLine
62
0
6
CONTINUOUS
10
9.8639049457
20
-19.5631274014
11
7.6092222682
21
-19.5631274014
0
LINE
5
24A
100
AcDbEntity
8
0
100
AcDbLine
62
0
6
CONTINUOUS
10
6.7615668333
20
-19.5631274014
11
4.5609212433
21
-19.5631274014
0
LINE
5
24B
100
AcDbEntity
8
0
100
AcDbLine
62
0
6
CONTINUOUS
10
-3.9901321418
20
-19.5631274014
11
-6.1907777318
21
-19.5631274014
0
LINE
5
24C
100
AcDbEntity
8
0
100
AcDbLine
62
0
6
CONTINUOUS
10
-7.0384331667
20
-19.5631274014
11
-9.2931158442
21
-19.5631274014
0
LINE
5
24D
100
AcDbEntity
8
0
100
AcDbLine
62
0
6
CONTINUOUS
10
-9.2441655012
20
-19.5386540939
11
-7.0547484749
21
-19.5386540939
0
LINE
5
24E
100
AcDbEntity
8
0
100
AcDbLine
62
0
6
CONTINUOUS
10
-6.1744624236
20
-19.5386540939
11
-4.0146054493
21
-19.5386540939
0
LINE
5
24F
100
AcDbEntity
8
0
100
AcDbLine
62
0
6
CONTINUOUS
10
4.5853945507
20
-19.5386540939
11
6.7452515251
21
-19.5386540939
0
LINE
5
250
100
AcDbEntity
8
0
100
AcDbLine
62
0
6
CONTINUOUS
10
7.6255375764
20
-19.5386540939
11
9.8149546027
21
-19.5386540939
0
LINE
5
251
100
AcDbEntity
8
0
100
AcDbLine
62
0
6
CONTINUOUS
10
-6.9575839478
20
20.7556062324
11
-7.0134431239
21
20.6718162865
0
LINE
5
252
100
AcDbEntity
8
0
100
AcDbLine
62
9
6
CONTINUOUS
10
-3.9561202040
20
-17.7971317238
11
4.5269093055
21
-17.7971317238
0
LINE
5
253
100
AcDbEntity
8
0
100
AcDbLine
62
0
6
CONTINUOUS
10
4.3269169209
20
-17.5971393392
11
-3.7561278194
21
-17.5971393392
0
LINE
5
254
100
AcDbEntity
8
0
100
AcDbLine
62
0
6
CONTINUOUS
10
-3.8146130646
20
-17.5386540939
11
4.3854021661
21
-17.5386540939
0
LINE
5
255
100
AcDbEntity
8
0
100
AcDbLine
62
0
6
CONTINUOUS
10
7.4257362429
20
-17.0913080553
11
6.9450528586
21
-17.0913080553
0
LINE
5
256
100
AcDbEntity
8
0
100
AcDbLine
62
0
6
CONTINUOUS
10
-6.3742637571
20
-17.0913080553
11
-6.8549471414
21
-17.0913080553
0
LINE
5
257
100
AcDbEntity
8
0
100
AcDbLine
62
0
6
CONTINUOUS
10
-3.2372953055
20
-16.4386540939
11
3.8080844070
21
-16.4386540939
0
LINE
5
258
100
AcDbEntity
8
0
100
AcDbLine
62
0
6
CONTINUOUS
10
-3.9858067855
20
-20.2072373698
11
-3.9561202040
21
-20.2369239514
0
LINE
5
259
100
AcDbEntity
8
0
100
AcDbLine
62
0
6
CONTINUOUS
10
-4.0146054493
20
-19.5386540939
11
-3.9901321418
21
-19.5631274014
0
LINE
5
25A
100
AcDbEntity
8
0
100
AcDbLine
62
0
6
CONTINUOUS
10
-6.9575839478
20
-21.2329144201
11
-7.0134431239
21
-21.1491244743
0
LINE
5
25B
100
AcDbEntity
8
0
100
AcDbLine
62
0
6
CONTINUOUS
10
-7.0547484749
20
-19.5386540939
11
-7.0384331667
21
-19.5631274014
0
LINE
5
25C
100
AcDbEntity
8
0
100
AcDbLine
62
0
6
CONTINUOUS
10
-7.9646054493
20
20.6613459061
11
-7.9611181584
21
20.6718162865
0
LINE
5
25D
100
AcDbEntity
8
0
100
AcDbLine
62
0
6
CONTINUOUS
10
3.7967394789
20
-15.7386540939
11
3.6853945507
21
-15.7386540939
0
LINE
5
25E
100
AcDbEntity
8
0
100
AcDbLine
62
0
6
CONTINUOUS
10
-3.1146054493
20
-15.7386540939
11
-3.2259503774
21
-15.7386540939
0
LINE
5
25F
100
AcDbEntity
8
0
100
AcDbLine
62
0
6
CONTINUOUS
10
3.7871399243
20
-15.3386540939
11
3.6853945507
21
-15.3386540939
0
LINE
5
260
100
AcDbEntity
8
0
100
AcDbLine
62
0
6
CONTINUOUS
10
-3.1146054493
20
-15.3386540939
11
-3.2163508228
21
-15.3386540939
0
LINE
5
261
100
AcDbEntity
8
0
100
AcDbLine
62
0
6
CONTINUOUS
10
3.7853945507
20
-15.1386540939
11
3.6853945507
21
-15.1386540939
0
LINE
5
262
100
AcDbEntity
8
0
100
AcDbLine
62
0
6
CONTINUOUS
10
-3.1146054493
20
-15.1386540939
11
-3.2146054493
21
-15.1386540939
0
LINE
5
263
100
AcDbEntity
8
0
100
AcDbLine
62
9
6
CONTINUOUS
10
9.8149546027
20
-14.9517634348
11
3.8080844070
21
-14.9517634348
0
LINE
5
264
100
AcDbEntity
8
0
100
AcDbLine
62
9
6
CONTINUOUS
10
-3.2372953055
20
-14.9517634348
11
-9.2441655012
21
-14.9517634348
0
LINE
5
265
100
AcDbEntity
8
0
100
AcDbLine
62
9
6
CONTINUOUS
10
-4.0146054493
20
-17.7386464785
11
-3.9561202040
21
-17.7971317238
0
LINE
5
266
100
AcDbEntity
8
0
100
AcDbLine
62
9
6
CONTINUOUS
10
-3.8146130646
20
-17.5386540939
11
-3.7561278194
21
-17.5971393392
0
LINE
5
267
100
AcDbEntity
8
0
100
AcDbLine
62
0
6
CONTINUOUS
10
-7.9611181584
20
-21.1491244743
11
-7.9646054493
21
-21.1386540939
0
LINE
5
268
100
AcDbEntity
8
0
100
AcDbLine
62
0
6
CONTINUOUS
10
4.6853945507
20
23.5613459061
11
4.6417439039
21
23.5176952592
0
LINE
5
269
100
AcDbEntity
8
0
100
AcDbLine
62
0
6
CONTINUOUS
10
9.2730209674
20
-14.4351806795
11
8.8752689273
21
-14.4386540939
0
LINE
5
26A
100
AcDbEntity
8
0
100
AcDbLine
62
0
6
CONTINUOUS
10
9.8063032314
20
-14.4517824732
11
3.8037590508
21
-14.4517824732
0
LINE
5
26B
100
AcDbEntity
8
0
100
AcDbLine
62
0
6
CONTINUOUS
10
-3.2329699493
20
-14.4517824732
11
-9.2355141299
21
-14.4517824732
0
LINE
5
26C
100
AcDbEntity
8
0
100
AcDbLine
62
0
6
CONTINUOUS
10
-8.3044798258
20
-14.4386540939
11
-3.2198415699
21
-14.4386540939
0
LINE
5
26D
100
AcDbEntity
8
0
100
AcDbLine
62
0
6
CONTINUOUS
10
3.7906306714
20
-14.4386540939
11
8.8752689273
21
-14.4386540939
0
LINE
5
26E
100
AcDbEntity
8
0
100
AcDbLine
62
0
6
CONTINUOUS
10
-9.2023080136
20
-14.4351806795
11
-8.7022318659
21
-14.4351806795
0
LINE
5
26F
100
AcDbEntity
8
0
100
AcDbLine
62
0
6
CONTINUOUS
10
9.2730209674
20
-14.4351806795
11
9.7730971151
21
-14.4351806795
0
LINE
5
270
100
AcDbEntity
8
0
100
AcDbLine
62
0
6
CONTINUOUS
10
-3.2198415699
20
-14.2386540939
11
-3.0973352302
21
-14.2386540939
0
LINE
5
271
100
AcDbEntity
8
0
100
AcDbLine
62
0
6
CONTINUOUS
10
3.6681243317
20
-14.2386540939
11
3.7906306714
21
-14.2386540939
0
LINE
5
272
100
AcDbEntity
8
0
100
AcDbLine
62
0
6
CONTINUOUS
10
3.3853945507
20
-14.0386540939
11
-2.8146054493
21
-14.0386540939
0
LINE
5
273
100
AcDbEntity
8
0
100
AcDbLine
62
0
6
CONTINUOUS
10
-8.3044798258
20
-14.4386540939
11
-8.7022318659
21
-14.4351806795
0
LINE
5
274
100
AcDbEntity
8
0
100
AcDbLine
62
0
6
CONTINUOUS
10
9.8149546027
20
-19.5386540939
11
9.8639049457
21
-19.5631274014
0
LINE
5
275
100
AcDbEntity
8
0
100
AcDbLine
62
0
6
CONTINUOUS
10
4.6853945507
20
-24.0386540939
11
4.6417439039
21
-23.9950034470
0
LINE
5
276
100
AcDbEntity
8
0
100
AcDbLine
62
9
6
CONTINUOUS
10
-10.3602336153
20
-24.0829916612
11
-10.3646054493
21
-23.6491392421
0
LINE
5
277
100
AcDbEntity
8
0
100
AcDbLine
62
0
6
CONTINUOUS
10
-10.8646054493
20
21.7025333659
11
-10.8646054493
21
-22.1798415536
0
LINE
5
278
100
AcDbEntity
8
0
100
AcDbLine
62
9
6
CONTINUOUS
10
-10.3646054493
20
23.1718310543
11
-10.3602336153
21
23.6056834734
0
LINE
5
279
100
AcDbEntity
8
0
100
AcDbLine
62
9
6
CONTINUOUS
10
-10.1102378460
20
-23.8664853102
11
-10.1153284471
21
-23.3613038247
0
LINE
5
27A
100
AcDbEntity
8
0
100
AcDbLine
62
0
6
CONTINUOUS
10
-10.3646054493
20
22.1613459061
11
-10.3646054493
21
23.6056834734
0
LINE
5
27B
100
AcDbEntity
8
0
100
AcDbLine
62
0
6
CONTINUOUS
10
-10.3646054493
20
-22.6386540939
11
-10.3646054493
21
-24.0829916612
0
LINE
5
27C
100
AcDbEntity
8
0
100
AcDbLine
62
0
6
CONTINUOUS
10
-10.3602336153
20
24.0069783029
11
-10.3602336153
21
23.6056834734
0
LINE
5
27D
100
AcDbEntity
8
0
100
AcDbLine
62
0
6
CONTINUOUS
10
-10.3602336153
20
-24.0829916612
11
-10.3602336153
21
-24.4842864907
0
LINE
5
27E
100
AcDbEntity
8
0
100
AcDbLine
62
9
6
CONTINUOUS
10
-10.1102378460
20
-23.8664853102
11
-10.1102378460
21
-24.7342822599
0
LINE
5
27F
100
AcDbEntity
8
0
100
AcDbLine
62
9
6
CONTINUOUS
10
-10.1102378460
20
23.3891771225
11
-10.1102378460
21
24.2569740721
0
LINE
5
280
100
AcDbEntity
8
0
100
AcDbLine
62
0
6
CONTINUOUS
10
-9.3646054493
20
19.9103169599
11
-9.3646054493
21
-20.3876251477
0
LINE
5
281
100
AcDbEntity
8
0
100
AcDbLine
62
0
6
CONTINUOUS
10
-9.3017672155
20
-20.1989571423
11
-9.3017672155
21
-20.0631083629
0
LINE
5
282
100
AcDbEntity
8
0
100
AcDbLine
62
0
6
CONTINUOUS
10
-9.2441655012
20
-19.5386540939
11
-9.2441655012
21
-14.9517634348
0
LINE
5
283
100
AcDbEntity
8
0
100
AcDbLine
62
9
6
CONTINUOUS
10
-10.1153284471
20
22.8839956369
11
-10.1102378460
21
23.3891771225
0
LINE
5
284
100
AcDbEntity
8
0
100
AcDbLine
62
0
6
CONTINUOUS
10
-7.0636274605
20
20.2197491545
11
-7.0134431239
21
20.6718162865
0
LINE
5
285
100
AcDbEntity
8
0
100
AcDbLine
62
0
6
CONTINUOUS
10
-7.0134431239
20
-21.1491244743
11
-7.0355496366
21
-20.9499860885
0
LINE
5
286
100
AcDbEntity
8
0
100
AcDbLine
62
9
6
CONTINUOUS
10
-7.0547484749
20
-17.2941882131
11
-6.9575839478
21
-20.2390539555
0
LINE
5
287
100
AcDbEntity
8
0
100
AcDbLine
62
9
6
CONTINUOUS
10
-6.8549471414
20
-17.0913080553
11
-6.7575873324
21
-20.0420924049
0
LINE
5
288
100
AcDbEntity
8
0
100
AcDbLine
62
9
6
CONTINUOUS
10
-8.2189730525
20
23.3891771225
11
-8.2138824514
21
22.8839956369
0
LINE
5
289
100
AcDbEntity
8
0
100
AcDbLine
62
9
6
CONTINUOUS
10
-7.9689772833
20
23.6056834734
11
-7.9646054493
21
23.1718310543
0
LINE
5
28A
100
AcDbEntity
8
0
100
AcDbLine
62
9
6
CONTINUOUS
10
-8.2189730525
20
-23.8664853102
11
-8.2189730525
21
-24.7342822599
0
LINE
5
28B
100
AcDbEntity
8
0
100
AcDbLine
62
9
6
CONTINUOUS
10
-8.2189730525
20
23.3891771225
11
-8.2189730525
21
24.2569740721
0
LINE
5
28C
100
AcDbEntity
8
0
100
AcDbLine
62
0
6
CONTINUOUS
10
-7.9689772833
20
-24.4842864907
11
-7.9689772833
21
-24.0829916612
0
LINE
5
28D
100
AcDbEntity
8
0
100
AcDbLine
62
0
6
CONTINUOUS
10
-7.9689772833
20
23.6056834734
11
-7.9689772833
21
24.0069783029
0
LINE
5
28E
100
AcDbEntity
8
0
100
AcDbLine
62
0
6
CONTINUOUS
10
-7.9646054493
20
-21.6386540939
11
-7.9646054493
21
-21.1386540939
0
LINE
5
28F
100
AcDbEntity
8
0
100
AcDbLine
62
0
6
CONTINUOUS
10
-7.9646054493
20
20.6613459061
11
-7.9646054493
21
21.1613459061
0
LINE
5
290
100
AcDbEntity
8
0
100
AcDbLine
62
0
6
CONTINUOUS
10
-7.9646054493
20
-22.6386540939
11
-7.9646054493
21
-24.0829916612
0
LINE
5
291
100
AcDbEntity
8
0
100
AcDbLine
62
0
6
CONTINUOUS
10
-7.9646054493
20
22.1613459061
11
-7.9646054493
21
23.6056834734
0
LINE
5
292
100
AcDbEntity
8
0
100
AcDbLine
62
9
6
CONTINUOUS
10
-7.7986300160
20
21.3273213394
11
-7.7986300160
21
20.7530541703
0
LINE
5
293
100
AcDbEntity
8
0
100
AcDbLine
62
9
6
CONTINUOUS
10
-7.7986300160
20
-21.2303623581
11
-7.7986300160
21
-21.8046295272
0
LINE
5
294
100
AcDbEntity
8
0
100
AcDbLine
62
9
6
CONTINUOUS
10
-7.2987061684
20
21.0740391498
11
-7.2987061684
21
20.7573414518
0
LINE
5
295
100
AcDbEntity
8
0
100
AcDbLine
62
9
6
CONTINUOUS
10
-7.2987061684
20
-21.2346496396
11
-7.2987061684
21
-21.5513473376
0
LINE
5
296
100
AcDbEntity
8
0
100
AcDbLine
62
0
6
CONTINUOUS
10
-7.0663841346
20
19.7204343871
11
-7.0663841346
21
16.4642260639
0
LINE
5
297
100
AcDbEntity
8
0
100
AcDbLine
62
0
6
CONTINUOUS
10
-7.0547484749
20
-19.5386540939
11
-7.0547484749
21
-17.2941882131
0
LINE
5
298
100
AcDbEntity
8
0
100
AcDbLine
62
0
6
CONTINUOUS
10
-7.0355496366
20
-20.9499860885
11
-7.0355496366
21
-20.0631083629
0
LINE
5
299
100
AcDbEntity
8
0
100
AcDbLine
62
0
6
CONTINUOUS
10
-6.9575839478
20
20.7556062324
11
-6.9575839478
21
19.7617457677
0
LINE
5
29A
100
AcDbEntity
8
0
100
AcDbLine
62
0
6
CONTINUOUS
10
-6.9575839478
20
-20.2390539555
11
-6.9575839478
21
-21.2329144201
0
LINE
5
29B
100
AcDbEntity
8
0
100
AcDbLine
62
9
6
CONTINUOUS
10
-8.2138824514
20
-23.3613038247
11
-8.2189730525
21
-23.8664853102
0
LINE
5
29C
100
AcDbEntity
8
0
100
AcDbLine
62
9
6
CONTINUOUS
10
-7.9646054493
20
-23.6491392421
11
-7.9689772833
21
-24.0829916612
0
LINE
5
29D
100
AcDbEntity
8
0
100
AcDbLine
62
9
6
CONTINUOUS
10
-6.9575839478
20
19.7617457677
11
-7.0663841346
21
16.4642260639
0
LINE
5
29E
100
AcDbEntity
8
0
100
AcDbLine
62
9
6
CONTINUOUS
10
-6.7575873324
20
19.5647842171
11
-6.8665828010
21
16.2613459061
0
LINE
5
29F
100
AcDbEntity
8
0
100
AcDbLine
62
0
6
CONTINUOUS
10
4.6853945507
20
22.1613459061
11
4.6413272835
21
22.0952440730
0
LINE
5
2A0
100
AcDbEntity
8
0
100
AcDbLine
62
0
6
CONTINUOUS
10
9.7730971151
20
-14.4351806795
11
9.8063032314
21
-14.4517824732
0
LINE
5
2A1
100
AcDbEntity
8
0
100
AcDbLine
62
0
6
CONTINUOUS
10
3.7906306714
20
-14.4386540939
11
3.8037590508
21
-14.4517824732
0
LINE
5
2A2
100
AcDbEntity
8
0
100
AcDbLine
62
0
6
CONTINUOUS
10
4.6853945507
20
-22.6386540939
11
4.6413272835
21
-22.5725522608
0
LINE
5
2A3
100
AcDbEntity
8
0
100
AcDbLine
62
9
6
CONTINUOUS
10
-6.4716235661
20
19.5647842171
11
-6.3626280975
21
16.2613459061
0
LINE
5
2A4
100
AcDbEntity
8
0
100
AcDbLine
62
9
6
CONTINUOUS
10
-6.2716269507
20
19.7617457677
11
-6.1628267639
21
16.4642260639
0
LINE
5
2A5
100
AcDbEntity
8
0
100
AcDbLine
62
9
6
CONTINUOUS
10
-6.7575873324
20
20.7573414518
11
-6.7575873324
21
19.5647842171
0
LINE
5
2A6
100
AcDbEntity
8
0
100
AcDbLine
62
9
6
CONTINUOUS
10
-6.7575873324
20
-20.0420924049
11
-6.7575873324
21
-21.2346496396
0
LINE
5
2A7
100
AcDbEntity
8
0
100
AcDbLine
62
9
6
CONTINUOUS
10
-6.4716235661
20
19.5647842171
11
-6.4716235661
21
20.3442701893
0
LINE
5
2A8
100
AcDbEntity
8
0
100
AcDbLine
62
9
6
CONTINUOUS
10
-6.4716235661
20
-20.0420924049
11
-6.4716235661
21
-20.8215783771
0
LINE
5
2A9
100
AcDbEntity
8
0
100
AcDbLine
62
0
6
CONTINUOUS
10
-6.2716269507
20
19.9451454990
11
-6.2716269507
21
19.7617457677
0
LINE
5
2AA
100
AcDbEntity
8
0
100
AcDbLine
62
0
6
CONTINUOUS
10
-6.2716269507
20
-20.2390539555
11
-6.2716269507
21
-20.4224536868
0
LINE
5
2AB
100
AcDbEntity
8
0
100
AcDbLine
62
0
6
CONTINUOUS
10
-6.1936612619
20
-20.2072373698
11
-6.1936612619
21
-20.0631083629
0
LINE
5
2AC
100
AcDbEntity
8
0
100
AcDbLine
62
0
6
CONTINUOUS
10
-6.1744624236
20
-17.2941882131
11
-6.1744624236
21
-19.5386540939
0
LINE
5
2AD
100
AcDbEntity
8
0
100
AcDbLine
62
0
6
CONTINUOUS
10
-6.1628267639
20
19.1880211775
11
-6.1628267639
21
16.4642260639
0
LINE
5
2AE
100
AcDbEntity
8
0
100
AcDbLine
62
0
6
CONTINUOUS
10
-5.9646054493
20
3.3697850885
11
-5.9646054493
21
-3.8470932763
0
LINE
5
2AF
100
AcDbEntity
8
0
100
AcDbLine
62
9
6
CONTINUOUS
10
-6.3742637571
20
-17.0913080553
11
-6.4716235661
21
-20.0420924049
0
LINE
5
2B0
100
AcDbEntity
8
0
100
AcDbLine
62
9
6
CONTINUOUS
10
-6.1744624236
20
-17.2941882131
11
-6.2716269507
21
-20.2390539555
0
LINE
5
2B1
100
AcDbEntity
8
0
100
AcDbLine
62
0
6
CONTINUOUS
10
6.8406893187
20
19.8442892278
11
6.7364993956
21
19.6880021390
0
LINE
5
2B2
100
AcDbEntity
8
0
100
AcDbLine
62
0
6
CONTINUOUS
10
0.2853945507
20
6.9782242710
11
-5.9646054493
21
3.3697850885
0
LINE
5
2B3
100
AcDbEntity
8
0
100
AcDbLine
62
0
6
CONTINUOUS
10
-5.9646054493
20
-3.8470932763
11
0.2853945507
21
-7.4555324588
0
LINE
5
2B4
100
AcDbEntity
8
0
100
AcDbLine
62
0
6
CONTINUOUS
10
6.8406893187
20
-20.3215974156
11
6.7644503634
21
-20.2072373698
0
LINE
5
2B5
100
AcDbEntity
8
0
100
AcDbLine
62
0
6
CONTINUOUS
10
6.7452515251
20
-19.5386540939
11
6.7615668333
21
-19.5631274014
0
LINE
5
2B6
100
AcDbEntity
8
0
100
AcDbLine
62
0
6
CONTINUOUS
10
-4.1146054493
20
23.5613459061
11
-4.1146054493
21
22.1613459061
0
LINE
5
2B7
100
AcDbEntity
8
0
100
AcDbLine
62
0
6
CONTINUOUS
10
-4.1146054493
20
-22.6386540939
11
-4.1146054493
21
-24.0386540939
0
LINE
5
2B8
100
AcDbEntity
8
0
100
AcDbLine
62
0
6
CONTINUOUS
10
-4.0705381820
20
-22.5725522608
11
-4.0705381820
21
-23.9894275186
0
LINE
5
2B9
100
AcDbEntity
8
0
100
AcDbLine
62
0
6
CONTINUOUS
10
-4.0705381820
20
22.0952440730
11
-4.0705381820
21
23.5121193308
0
LINE
5
2BA
100
AcDbEntity
8
0
100
AcDbLine
62
0
6
CONTINUOUS
10
-4.0146054493
20
-19.5386540939
11
-4.0146054493
21
-17.7386464785
0
LINE
5
2BB
100
AcDbEntity
8
0
100
AcDbLine
62
0
6
CONTINUOUS
10
-3.9858067855
20
-20.0631083629
11
-3.9858067855
21
-20.2072373698
0
LINE
5
2BC
100
AcDbEntity
8
0
100
AcDbLine
62
0
6
CONTINUOUS
10
-3.9561202040
20
-17.7971317238
11
-3.9561202040
21
-20.2369239514
0
LINE
5
2BD
100
AcDbEntity
8
0
100
AcDbLine
62
0
6
CONTINUOUS
10
-3.8146054493
20
1.6160696052
11
-3.8146054493
21
-2.0933777930
0
LINE
5
2BE
100
AcDbEntity
8
0
100
AcDbLine
62
9
6
CONTINUOUS
10
-3.7561278194
20
-17.5971393392
11
-3.7561278194
21
-20.2386540939
0
LINE
5
2BF
100
AcDbEntity
8
0
100
AcDbLine
62
0
6
CONTINUOUS
10
-3.2372953055
20
-14.9517634348
11
-3.2372953055
21
-16.4386540939
0
LINE
5
2C0
100
AcDbEntity
8
0
100
AcDbLine
62
0
6
CONTINUOUS
10
-3.2259503774
20
-15.7386540939
11
-3.2259503774
21
-16.4386540939
0
LINE
5
2C1
100
AcDbEntity
8
0
100
AcDbLine
62
0
6
CONTINUOUS
10
-3.2198415699
20
-14.4386540939
11
-3.2198415699
21
-14.2386540939
0
LINE
5
2C2
100
AcDbEntity
8
0
100
AcDbLine
62
0
6
CONTINUOUS
10
-3.2163508228
20
-15.7386540939
11
-3.2163508228
21
-15.3386540939
0
LINE
5
2C3
100
AcDbEntity
8
0
100
AcDbLine
62
0
6
CONTINUOUS
10
-3.2146054493
20
-15.1386540939
11
-3.2146054493
21
-14.4517824732
0
LINE
5
2C4
100
AcDbEntity
8
0
100
AcDbLine
62
0
6
CONTINUOUS
10
-3.2146054493
20
-22.5725739891
11
-3.2146054493
21
-23.9897963842
0
LINE
5
2C5
100
AcDbEntity
8
0
100
AcDbLine
62
0
6
CONTINUOUS
10
-3.2146054493
20
23.5176952592
11
-3.2146054493
21
23.5555280763
0
LINE
5
2C6
100
AcDbEntity
8
0
100
AcDbLine
62
0
6
CONTINUOUS
10
-3.2146054493
20
22.0952658013
11
-3.2146054493
21
23.5124881964
0
LINE
5
2C7
100
AcDbEntity
8
0
100
AcDbLine
62
0
6
CONTINUOUS
10
-3.2146054493
20
-23.9950034470
11
-3.2146054493
21
-24.0328362641
0
LINE
5
2C8
100
AcDbEntity
8
0
100
AcDbLine
62
0
6
CONTINUOUS
10
-3.1146054493
20
-14.3386540939
11
-3.1146054493
21
-15.7386540939
0
LINE
5
2C9
100
AcDbEntity
8
0
100
AcDbLine
62
0
6
CONTINUOUS
10
-2.7146054493
20
20.7613459061
11
-2.7146054493
21
22.1526190383
0
LINE
5
2CA
100
AcDbEntity
8
0
100
AcDbLine
62
0
6
CONTINUOUS
10
-2.7146054493
20
-21.2386540939
11
-2.7146054493
21
-22.6299272261
0
LINE
5
2CB
100
AcDbEntity
8
0
100
AcDbLine
62
0
6
CONTINUOUS
10
-1.7146054493
20
-11.2386540939
11
-1.7146054493
21
-6.3008319204
0
LINE
5
2CC
100
AcDbEntity
8
0
100
AcDbLine
62
0
6
CONTINUOUS
10
-3.2163508228
20
-15.3386540939
11
-3.2146054493
21
-15.1386540939
0
LINE
5
2CD
100
AcDbEntity
8
0
100
AcDbLine
62
0
6
CONTINUOUS
10
-9.3646054493
20
-20.3876251477
11
-9.3017672155
21
-20.1989571423
0
LINE
5
2CE
100
AcDbEntity
8
0
100
AcDbLine
62
0
6
CONTINUOUS
10
-8.6144915161
20
-21.1386540939
11
-8.5516532824
21
-20.9499860885
0
LINE
5
2CF
100
AcDbEntity
8
0
100
AcDbLine
62
0
6
CONTINUOUS
10
-9.2055530026
20
19.4327715853
11
-9.3646054493
21
19.9103169599
0
LINE
5
2D0
100
AcDbEntity
8
0
100
AcDbLine
62
0
6
CONTINUOUS
10
-8.4602696116
20
20.1983039429
11
-8.6144915161
21
20.6613459061
0
LINE
5
2D1
100
AcDbEntity
8
0
100
AcDbLine
62
0
6
CONTINUOUS
10
2.2853945507
20
-6.3008319204
11
2.2853945507
21
-11.2386540939
0
LINE
5
2D2
100
AcDbEntity
8
0
100
AcDbLine
62
0
6
CONTINUOUS
10
9.1852806176
20
20.6613459061
11
9.0310587131
21
20.1983039429
0
LINE
5
2D3
100
AcDbEntity
8
0
100
AcDbLine
62
0
6
CONTINUOUS
10
9.1224423839
20
-20.9499860885
11
9.1852806176
21
-21.1386540939
0
LINE
5
2D4
100
AcDbEntity
8
0
100
AcDbLine
62
0
6
CONTINUOUS
10
3.7871399243
20
-15.3386540939
11
3.7853945507
21
-15.1386540939
0
LINE
5
2D5
100
AcDbEntity
8
0
100
AcDbLine
62
0
6
CONTINUOUS
10
3.2853945507
20
20.7613459061
11
3.2853945507
21
22.1526190383
0
LINE
5
2D6
100
AcDbEntity
8
0
100
AcDbLine
62
0
6
CONTINUOUS
10
3.2853945507
20
-21.2386540939
11
3.2853945507
21
-22.6299272261
0
LINE
5
2D7
100
AcDbEntity
8
0
100
AcDbLine
62
0
6
CONTINUOUS
10
3.6853945507
20
-15.7386540939
11
3.6853945507
21
-14.3386540939
0
LINE
5
2D8
100
AcDbEntity
8
0
100
AcDbLine
62
0
6
CONTINUOUS
10
3.7853945507
20
-15.1386540939
11
3.7853945507
21
-14.4517824732
0
LINE
5
2D9
100
AcDbEntity
8
0
100
AcDbLine
62
0
6
CONTINUOUS
10
3.7853945507
20
-22.5725739891
11
3.7853945507
21
-23.9897963842
0
LINE
5
2DA
100
AcDbEntity
8
0
100
AcDbLine
62
0
6
CONTINUOUS
10
3.7853945507
20
23.5176952592
11
3.7853945507
21
23.5555280763
0
LINE
5
2DB
100
AcDbEntity
8
0
100
AcDbLine
62
0
6
CONTINUOUS
10
3.7853945507
20
22.0952658013
11
3.7853945507
21
23.5124881964
0
LINE
5
2DC
100
AcDbEntity
8
0
100
AcDbLine
62
0
6
CONTINUOUS
10
3.7853945507
20
-23.9950034470
11
3.7853945507
21
-24.0328362641
0
LINE
5
2DD
100
AcDbEntity
8
0
100
AcDbLine
62
0
6
CONTINUOUS
10
3.7871399243
20
-15.7386540939
11
3.7871399243
21
-15.3386540939
0
LINE
5
2DE
100
AcDbEntity
8
0
100
AcDbLine
62
0
6
CONTINUOUS
10
3.7906306714
20
-14.4386540939
11
3.7906306714
21
-14.2386540939
0
LINE
5
2DF
100
AcDbEntity
8
0
100
AcDbLine
62
0
6
CONTINUOUS
10
3.7967394789
20
-15.7386540939
11
3.7967394789
21
-16.4386540939
0
LINE
5
2E0
100
AcDbEntity
8
0
100
AcDbLine
62
0
6
CONTINUOUS
10
3.8080844070
20
-14.9517634348
11
3.8080844070
21
-16.4386540939
0
LINE
5
2E1
100
AcDbEntity
8
0
100
AcDbLine
62
0
6
CONTINUOUS
10
9.9353945507
20
19.9103169599
11
9.7763421038
21
19.4327715846
0
LINE
5
2E2
100
AcDbEntity
8
0
100
AcDbLine
62
0
6
CONTINUOUS
10
9.8725563170
20
-20.1989571423
11
9.9353945507
21
-20.3876251477
0
LINE
5
2E3
100
AcDbEntity
8
0
100
AcDbLine
62
9
6
CONTINUOUS
10
4.3269169209
20
-20.2386540939
11
4.3269169209
21
-17.5971393392
0
LINE
5
2E4
100
AcDbEntity
8
0
100
AcDbLine
62
0
6
CONTINUOUS
10
4.5269093055
20
-20.2369239514
11
4.5269093055
21
-17.7971317238
0
LINE
5
2E5
100
AcDbEntity
8
0
100
AcDbLine
62
0
6
CONTINUOUS
10
4.5565958870
20
-20.0631083629
11
4.5565958870
21
-20.2072373698
0
LINE
5
2E6
100
AcDbEntity
8
0
100
AcDbLine
62
0
6
CONTINUOUS
10
4.5853945507
20
-19.5386540939
11
4.5853945507
21
-17.7386464785
0
LINE
5
2E7
100
AcDbEntity
8
0
100
AcDbLine
62
0
6
CONTINUOUS
10
4.6413272835
20
-22.5725522608
11
4.6413272835
21
-23.9894275186
0
LINE
5
2E8
100
AcDbEntity
8
0
100
AcDbLine
62
0
6
CONTINUOUS
10
4.6413272835
20
22.0952440730
11
4.6413272835
21
23.5121193308
0
LINE
5
2E9
100
AcDbEntity
8
0
100
AcDbLine
62
0
6
CONTINUOUS
10
4.6853945507
20
-24.0386540939
11
4.6853945507
21
-22.6386540939
0
LINE
5
2EA
100
AcDbEntity
8
0
100
AcDbLine
62
0
6
CONTINUOUS
10
4.6853945507
20
22.1613459061
11
4.6853945507
21
23.5613459061
0
LINE
5
2EB
100
AcDbEntity
8
0
100
AcDbLine
62
0
6
CONTINUOUS
10
-6.1744624236
20
-19.5386540939
11
-6.1907777318
21
-19.5631274014
0
LINE
5
2EC
100
AcDbEntity
8
0
100
AcDbLine
62
0
6
CONTINUOUS
10
-6.2699002172
20
-20.3215974156
11
-6.1936612619
21
-20.2072373698
0
LINE
5
2ED
100
AcDbEntity
8
0
100
AcDbLine
62
0
6
CONTINUOUS
10
-6.2699002172
20
19.8442892278
11
-6.1657102941
21
19.6880021390
0
LINE
5
2EE
100
AcDbEntity
8
0
100
AcDbLine
62
9
6
CONTINUOUS
10
6.8424160522
20
-20.2390539555
11
6.7452515251
21
-17.2941882131
0
LINE
5
2EF
100
AcDbEntity
8
0
100
AcDbLine
62
9
6
CONTINUOUS
10
7.0424126676
20
-20.0420924049
11
6.9450528586
21
-17.0913080553
0
LINE
5
2F0
100
AcDbEntity
8
0
100
AcDbLine
62
0
6
CONTINUOUS
10
6.5353945507
20
-3.8470932763
11
6.5353945507
21
3.3697850885
0
LINE
5
2F1
100
AcDbEntity
8
0
100
AcDbLine
62
0
6
CONTINUOUS
10
6.7336158654
20
16.4642260639
11
6.7336158654
21
19.1880211775
0
LINE
5
2F2
100
AcDbEntity
8
0
100
AcDbLine
62
0
6
CONTINUOUS
10
6.7452515251
20
-19.5386540939
11
6.7452515251
21
-17.2941882131
0
LINE
5
2F3
100
AcDbEntity
8
0
100
AcDbLine
62
0
6
CONTINUOUS
10
6.7644503634
20
-20.2072373698
11
6.7644503634
21
-20.0631083629
0
LINE
5
2F4
100
AcDbEntity
8
0
100
AcDbLine
62
0
6
CONTINUOUS
10
6.8424160522
20
-20.4224536868
11
6.8424160522
21
-20.2390539555
0
LINE
5
2F5
100
AcDbEntity
8
0
100
AcDbLine
62
0
6
CONTINUOUS
10
6.8424160522
20
19.7617457677
11
6.8424160522
21
19.9451454990
0
LINE
5
2F6
100
AcDbEntity
8
0
100
AcDbLine
62
9
6
CONTINUOUS
10
7.0424126676
20
-20.0420924049
11
7.0424126676
21
-20.8215783771
0
LINE
5
2F7
100
AcDbEntity
8
0
100
AcDbLine
62
9
6
CONTINUOUS
10
7.0424126676
20
19.5647842171
11
7.0424126676
21
20.3442701893
0
LINE
5
2F8
100
AcDbEntity
8
0
100
AcDbLine
62
9
6
CONTINUOUS
10
7.3283764339
20
-21.2346496396
11
7.3283764339
21
-20.0420924049
0
LINE
5
2F9
100
AcDbEntity
8
0
100
AcDbLine
62
9
6
CONTINUOUS
10
7.3283764339
20
19.5647842171
11
7.3283764339
21
20.7573414518
0
LINE
5
2FA
100
AcDbEntity
8
0
100
AcDbLine
62
0
6
CONTINUOUS
10
7.5283730493
20
-21.2329144201
11
7.5283730493
21
-20.2390539555
0
LINE
5
2FB
100
AcDbEntity
8
0
100
AcDbLine
62
0
6
CONTINUOUS
10
7.5283730493
20
19.7617457677
11
7.5283730493
21
20.7556062324
0
LINE
5
2FC
100
AcDbEntity
8
0
100
AcDbLine
62
0
6
CONTINUOUS
10
7.6063387381
20
-20.9499860885
11
7.6063387381
21
-20.0631083629
0
LINE
5
2FD
100
AcDbEntity
8
0
100
AcDbLine
62
0
6
CONTINUOUS
10
7.6255375764
20
-17.2941882131
11
7.6255375764
21
-19.5386540939
0
LINE
5
2FE
100
AcDbEntity
8
0
100
AcDbLine
62
0
6
CONTINUOUS
10
7.6371732361
20
19.7204343871
11
7.6371732361
21
16.4642260639
0
LINE
5
2FF
100
AcDbEntity
8
0
100
AcDbLine
62
9
6
CONTINUOUS
10
6.7336158654
20
16.4642260639
11
6.8424160522
21
19.7617457677
0
LINE
5
300
100
AcDbEntity
8
0
100
AcDbLine
62
9
6
CONTINUOUS
10
6.9334171990
20
16.2613459061
11
7.0424126676
21
19.5647842171
0
LINE
5
301
100
AcDbEntity
8
0
100
AcDbLine
62
0
6
CONTINUOUS
10
0.2853945507
20
-7.4555324588
11
6.5353945507
21
-3.8470932763
0
LINE
5
302
100
AcDbEntity
8
0
100
AcDbLine
62
0
6
CONTINUOUS
10
6.5353945507
20
3.3697850885
11
0.2853945507
21
6.9782242710
0
LINE
5
303
100
AcDbEntity
8
0
100
AcDbLine
62
9
6
CONTINUOUS
10
7.4373719025
20
16.2613459061
11
7.3283764339
21
19.5647842171
0
LINE
5
304
100
AcDbEntity
8
0
100
AcDbLine
62
9
6
CONTINUOUS
10
7.6371732361
20
16.4642260639
11
7.5283730493
21
19.7617457677
0
LINE
5
305
100
AcDbEntity
8
0
100
AcDbLine
62
9
6
CONTINUOUS
10
8.5397663847
20
-24.0829916612
11
8.5353945507
21
-23.6491392421
0
LINE
5
306
100
AcDbEntity
8
0
100
AcDbLine
62
9
6
CONTINUOUS
10
8.7904893827
20
-23.9386540939
11
8.7846715529
21
-23.3613038247
0
LINE
5
307
100
AcDbEntity
8
0
100
AcDbLine
62
9
6
CONTINUOUS
10
7.8694952699
20
-21.5513473376
11
7.8694952699
21
-21.2346496396
0
LINE
5
308
100
AcDbEntity
8
0
100
AcDbLine
62
9
6
CONTINUOUS
10
7.8694952699
20
20.7573414518
11
7.8694952699
21
21.0740391498
0
LINE
5
309
100
AcDbEntity
8
0
100
AcDbLine
62
9
6
CONTINUOUS
10
8.3694191175
20
-21.8046295272
11
8.3694191175
21
-21.2303623581
0
LINE
5
30A
100
AcDbEntity
8
0
100
AcDbLine
62
9
6
CONTINUOUS
10
8.3694191175
20
20.7530541703
11
8.3694191175
21
21.3273213394
0
LINE
5
30B
100
AcDbEntity
8
0
100
AcDbLine
62
0
6
CONTINUOUS
10
8.5353945507
20
21.1613459061
11
8.5353945507
21
20.6613459061
0
LINE
5
30C
100
AcDbEntity
8
0
100
AcDbLine
62
0
6
CONTINUOUS
10
8.5353945507
20
-21.1386540939
11
8.5353945507
21
-21.6386540939
0
LINE
5
30D
100
AcDbEntity
8
0
100
AcDbLine
62
0
6
CONTINUOUS
10
8.5353945507
20
22.1613459061
11
8.5353945507
21
23.6056834734
0
LINE
5
30E
100
AcDbEntity
8
0
100
AcDbLine
62
0
6
CONTINUOUS
10
8.5353945507
20
-22.6386540939
11
8.5353945507
21
-24.0829916612
0
LINE
5
30F
100
AcDbEntity
8
0
100
AcDbLine
62
0
6
CONTINUOUS
10
8.5397663847
20
24.0069783029
11
8.5397663847
21
23.6056834734
0
LINE
5
310
100
AcDbEntity
8
0
100
AcDbLine
62
0
6
CONTINUOUS
10
8.5397663847
20
-24.0829916612
11
8.5397663847
21
-24.4842864907
0
LINE
5
311
100
AcDbEntity
8
0
100
AcDbLine
62
9
6
CONTINUOUS
10
8.7897621540
20
-23.9386540939
11
8.7897621540
21
-24.7342822599
0
LINE
5
312
100
AcDbEntity
8
0
100
AcDbLine
62
9
6
CONTINUOUS
10
8.7897621540
20
23.3891771225
11
8.7897621540
21
24.2569740721
0
LINE
5
313
100
AcDbEntity
8
0
100
AcDbLine
62
9
6
CONTINUOUS
10
8.5353945507
20
23.1718310543
11
8.5397663847
21
23.6056834734
0
LINE
5
314
100
AcDbEntity
8
0
100
AcDbLine
62
9
6
CONTINUOUS
10
8.7846715529
20
22.8839956369
11
8.7897621540
21
23.3891771225
0
LINE
5
315
100
AcDbEntity
8
0
100
AcDbLine
62
9
6
CONTINUOUS
10
7.3283764339
20
-20.0420924049
11
7.4257362429
21
-17.0913080553
0
LINE
5
316
100
AcDbEntity
8
0
100
AcDbLine
62
9
6
CONTINUOUS
10
7.5283730493
20
-20.2390539555
11
7.6255375764
21
-17.2941882131
0
LINE
5
317
100
AcDbEntity
8
0
100
AcDbLine
62
0
6
CONTINUOUS
10
-4.1146054493
20
-22.6386540939
11
-4.0705381820
21
-22.5725522608
0
LINE
5
318
100
AcDbEntity
8
0
100
AcDbLine
62
0
6
CONTINUOUS
10
-3.2198415699
20
-14.4386540939
11
-3.2329699493
21
-14.4517824732
0
LINE
5
319
100
AcDbEntity
8
0
100
AcDbLine
62
0
6
CONTINUOUS
10
-9.2023080136
20
-14.4351806795
11
-9.2355141299
21
-14.4517824732
0
LINE
5
31A
100
AcDbEntity
8
0
100
AcDbLine
62
0
6
CONTINUOUS
10
-4.1146054493
20
22.1613459061
11
-4.0705381820
21
22.0952440730
0
LINE
5
31B
100
AcDbEntity
8
0
100
AcDbLine
62
9
6
CONTINUOUS
10
10.6810269475
20
23.3891771225
11
10.6861175486
21
22.8839956369
0
LINE
5
31C
100
AcDbEntity
8
0
100
AcDbLine
62
9
6
CONTINUOUS
10
10.9310227167
20
23.6056834734
11
10.9353945507
21
23.1718310543
0
LINE
5
31D
100
AcDbEntity
8
0
100
AcDbLine
62
0
6
CONTINUOUS
10
9.8149546027
20
-19.5386540939
11
9.8149546027
21
-14.9517634348
0
LINE
5
31E
100
AcDbEntity
8
0
100
AcDbLine
62
0
6
CONTINUOUS
10
9.8725563170
20
-20.1989571423
11
9.8725563170
21
-20.0631083629
0
LINE
5
31F
100
AcDbEntity
8
0
100
AcDbLine
62
0
6
CONTINUOUS
10
9.9353945507
20
19.9103169599
11
9.9353945507
21
-20.3876251477
0
LINE
5
320
100
AcDbEntity
8
0
100
AcDbLine
62
9
6
CONTINUOUS
10
10.6810269475
20
-23.9386540939
11
10.6810269475
21
-24.7342822599
0
LINE
5
321
100
AcDbEntity
8
0
100
AcDbLine
62
9
6
CONTINUOUS
10
10.6810269475
20
23.3891771225
11
10.6810269475
21
24.2569740721
0
LINE
5
322
100
AcDbEntity
8
0
100
AcDbLine
62
0
6
CONTINUOUS
10
10.9310227167
20
-24.4842864907
11
10.9310227167
21
-24.0829916612
0
LINE
5
323
100
AcDbEntity
8
0
100
AcDbLine
62
0
6
CONTINUOUS
10
10.9310227167
20
23.6056834734
11
10.9310227167
21
24.0069783029
0
LINE
5
324
100
AcDbEntity
8
0
100
AcDbLine
62
0
6
CONTINUOUS
10
10.9353945507
20
-22.6386540939
11
10.9353945507
21
-24.0829916612
0
LINE
5
325
100
AcDbEntity
8
0
100
AcDbLine
62
0
6
CONTINUOUS
10
10.9353945507
20
22.1613459061
11
10.9353945507
21
23.6056834734
0
LINE
5
326
100
AcDbEntity
8
0
100
AcDbLine
62
0
6
CONTINUOUS
10
11.4353945507
20
21.7025333659
11
11.4353945507
21
-22.1798415536
0
LINE
5
327
100
AcDbEntity
8
0
100
AcDbLine
62
9
6
CONTINUOUS
10
10.6861175486
20
-23.3613038247
11
10.6802997188
21
-23.9386540939
0
LINE
5
328
100
AcDbEntity
8
0
100
AcDbLine
62
9
6
CONTINUOUS
10
10.9353945507
20
-23.6491392421
11
10.9310227167
21
-24.0829916612
0
LINE
5
329
100
AcDbEntity
8
0
100
AcDbLine
62
0
6
CONTINUOUS
10
7.5842322254
20
-21.1491244743
11
7.6063387381
21
-20.9499860885
0
LINE
5
32A
100
AcDbEntity
8
0
100
AcDbLine
62
0
6
CONTINUOUS
10
7.6344165620
20
20.2197491545
11
7.5842322254
21
20.6718162865
0
LINE
5
32B
100
AcDbEntity
8
0
100
AcDbLine
62
0
6
CONTINUOUS
10
-9.2441655012
20
-19.5386540939
11
-9.2931158442
21
-19.5631274014
0
LINE
5
32C
100
AcDbEntity
8
0
100
AcDbLine
62
0
6
CONTINUOUS
10
8.5353945507
20
-21.1386540939
11
8.5319072599
21
-21.1491244743
0
LINE
5
32D
100
AcDbEntity
8
0
100
AcDbLine
62
0
6
CONTINUOUS
10
-4.1146054493
20
-24.0386540939
11
-4.0709548024
21
-23.9950034470
0
LINE
5
32E
100
AcDbEntity
8
0
100
AcDbLine
62
0
6
CONTINUOUS
10
-4.1146054493
20
23.5613459061
11
-4.0709548024
21
23.5176952592
0
LINE
5
32F
100
AcDbEntity
8
0
100
AcDbLine
62
0
6
CONTINUOUS
10
8.5319072599
20
20.6718162865
11
8.5353945507
21
20.6613459061
0
LINE
5
330
100
AcDbEntity
8
0
100
AcDbLine
62
9
6
CONTINUOUS
10
4.3854021661
20
-17.5386540939
11
4.3269169209
21
-17.5971393392
0
LINE
5
331
100
AcDbEntity
8
0
100
AcDbLine
62
9
6
CONTINUOUS
10
4.5853945507
20
-17.7386464785
11
4.5269093055
21
-17.7971317238
0
LINE
5
332
100
AcDbEntity
8
0
100
AcDbLine
62
0
6
CONTINUOUS
10
7.4373719025
20
16.2613459061
11
6.9334171990
21
16.2613459061
0
LINE
5
333
100
AcDbEntity
8
0
100
AcDbLine
62
0
6
CONTINUOUS
10
-6.3626280975
20
16.2613459061
11
-6.8665828010
21
16.2613459061
0
LINE
5
334
100
AcDbEntity
8
0
100
AcDbLine
62
0
6
CONTINUOUS
10
7.6255375764
20
-19.5386540939
11
7.6092222682
21
-19.5631274014
0
LINE
5
335
100
AcDbEntity
8
0
100
AcDbLine
62
0
6
CONTINUOUS
10
7.5283730493
20
-21.2329144201
11
7.5842322254
21
-21.1491244743
0
LINE
5
336
100
AcDbEntity
8
0
100
AcDbLine
62
0
6
CONTINUOUS
10
4.5853945507
20
-19.5386540939
11
4.5609212433
21
-19.5631274014
0
LINE
5
337
100
AcDbEntity
8
0
100
AcDbLine
62
0
6
CONTINUOUS
10
4.5565958870
20
-20.2072373698
11
4.5269093055
21
-20.2369239514
0
LINE
5
338
100
AcDbEntity
8
0
100
AcDbLine
62
0
6
CONTINUOUS
10
7.5283730493
20
20.7556062324
11
7.5842322254
21
20.6718162865
0
LINE
5
339
100
AcDbEntity
8
0
100
AcDbLine
62
9
6
CONTINUOUS
10
-6.1628267639
20
19.1880211775
11
6.7336158654
21
19.1880211775
0
LINE
5
33A
100
AcDbEntity
8
0
100
AcDbLine
62
9
6
CONTINUOUS
10
-6.7575873324
20
19.5647842171
11
-6.4716235661
21
19.5647842171
0
LINE
5
33B
100
AcDbEntity
8
0
100
AcDbLine
62
9
6
CONTINUOUS
10
7.0424126676
20
19.5647842171
11
7.3283764339
21
19.5647842171
0
LINE
5
33C
100
AcDbEntity
8
0
100
AcDbLine
62
0
6
CONTINUOUS
10
-6.1657102941
20
19.6880021390
11
6.7364993956
21
19.6880021390
0
LINE
5
33D
100
AcDbEntity
8
0
100
AcDbLine
62
9
6
CONTINUOUS
10
9.0759494344
20
19.7204343871
11
7.6371732361
21
19.7204343871
0
LINE
5
33E
100
AcDbEntity
8
0
100
AcDbLine
62
9
6
CONTINUOUS
10
-7.0663841346
20
19.7204343871
11
-8.5051603329
21
19.7204343871
0
LINE
5
33F
100
AcDbEntity
8
0
100
AcDbLine
62
9
6
CONTINUOUS
10
-6.9575839478
20
19.7617457677
11
-6.2716269507
21
19.7617457677
0
LINE
5
340
100
AcDbEntity
8
0
100
AcDbLine
62
9
6
CONTINUOUS
10
6.8424160522
20
19.7617457677
11
7.5283730493
21
19.7617457677
0
LINE
5
341
100
AcDbEntity
8
0
100
AcDbLine
62
0
6
CONTINUOUS
10
-6.2699002172
20
19.8442892278
11
6.8406893187
21
19.8442892278
0
LINE
5
342
100
AcDbEntity
8
0
100
AcDbLine
62
0
6
CONTINUOUS
10
9.1224423839
20
-20.9499860885
11
9.8725563170
21
-20.1989571423
0
LINE
5
343
100
AcDbEntity
8
0
100
AcDbLine
62
0
6
CONTINUOUS
10
9.1852806176
20
-21.1386540939
11
9.9353945507
21
-20.3876251477
0
LINE
5
344
100
AcDbEntity
8
0
100
AcDbLine
62
0
6
CONTINUOUS
10
7.5441214185
20
-22.6299272261
11
8.5353945507
21
-21.6386540939
0
LINE
5
345
100
AcDbEntity
8
0
100
AcDbLine
62
9
6
CONTINUOUS
10
8.6230988168
20
20.2197491545
11
7.6344165620
21
20.2197491545
0
LINE
5
346
100
AcDbEntity
8
0
100
AcDbLine
62
9
6
CONTINUOUS
10
-7.0636274605
20
20.2197491545
11
-8.0523097153
21
20.2197491545
0
LINE
5
347
100
AcDbEntity
8
0
100
AcDbLine
62
9
6
CONTINUOUS
10
-6.4716235661
20
20.3442701893
11
7.0424126676
21
20.3442701893
0
LINE
5
348
100
AcDbEntity
8
0
100
AcDbLine
62
0
6
CONTINUOUS
10
-8.6144915161
20
20.6613459061
11
-7.9646054493
21
20.6613459061
0
LINE
5
349
100
AcDbEntity
8
0
100
AcDbLine
62
0
6
CONTINUOUS
10
8.5353945507
20
20.6613459061
11
9.1852806176
21
20.6613459061
0
LINE
5
34A
100
AcDbEntity
8
0
100
AcDbLine
62
0
6
CONTINUOUS
10
8.5319072599
20
20.6718162865
11
7.5842322254
21
20.6718162865
0
LINE
5
34B
100
AcDbEntity
8
0
100
AcDbLine
62
0
6
CONTINUOUS
10
-7.0134431239
20
20.6718162865
11
-7.9611181584
21
20.6718162865
0
LINE
5
34C
100
AcDbEntity
8
0
100
AcDbLine
62
0
6
CONTINUOUS
10
-7.2987061684
20
20.7573414518
11
-6.7575873324
21
20.7573414518
0
LINE
5
34D
100
AcDbEntity
8
0
100
AcDbLine
62
0
6
CONTINUOUS
10
7.3283764339
20
20.7573414518
11
7.8694952699
21
20.7573414518
0
LINE
5
34E
100
AcDbEntity
8
0
100
AcDbLine
62
0
6
CONTINUOUS
10
-2.7146054493
20
20.7613459061
11
3.2853945507
21
20.7613459061
0
LINE
5
34F
100
AcDbEntity
8
0
100
AcDbLine
62
9
6
CONTINUOUS
10
7.8694952699
20
21.0740391498
11
3.2853945507
21
21.0740391498
0
LINE
5
350
100
AcDbEntity
8
0
100
AcDbLine
62
9
6
CONTINUOUS
10
-2.7146054493
20
21.0740391498
11
-7.2987061684
21
21.0740391498
0
LINE
5
351
100
AcDbEntity
8
0
100
AcDbLine
62
0
6
CONTINUOUS
10
-2.7146054493
20
21.4613459061
11
3.2853945507
21
21.4613459061
0
LINE
5
352
100
AcDbEntity
8
0
100
AcDbLine
62
0
6
CONTINUOUS
10
7.5441214185
20
22.1526190383
11
8.5353945507
21
21.1613459061
0
LINE
5
353
100
AcDbEntity
8
0
100
AcDbLine
62
0
6
CONTINUOUS
10
9.1852806176
20
20.6613459061
11
9.9353945507
21
19.9103169599
0
LINE
5
354
100
AcDbEntity
8
0
100
AcDbLine
62
0
6
CONTINUOUS
10
8.3694191175
20
-21.2303623581
11
8.5319072599
21
-21.1491244743
0
LINE
5
355
100
AcDbEntity
8
0
100
AcDbLine
62
9
6
CONTINUOUS
10
7.6227393840
20
22.0740010729
11
3.2853945507
21
22.0740010729
0
LINE
5
356
100
AcDbEntity
8
0
100
AcDbLine
62
9
6
CONTINUOUS
10
-2.7146054493
20
22.0740010729
11
-7.0519502825
21
22.0740010729
0
LINE
5
357
100
AcDbEntity
8
0
100
AcDbLine
62
0
6
CONTINUOUS
10
10.9852574581
20
22.1526190383
11
7.5441214185
21
22.1526190383
0
LINE
5
358
100
AcDbEntity
8
0
100
AcDbLine
62
0
6
CONTINUOUS
10
3.7853945507
20
22.1526190383
11
3.2853945507
21
22.1526190383
0
LINE
5
359
100
AcDbEntity
8
0
100
AcDbLine
62
0
6
CONTINUOUS
10
-2.7146054493
20
22.1526190383
11
-3.2146054493
21
22.1526190383
0
LINE
5
35A
100
AcDbEntity
8
0
100
AcDbLine
62
0
6
CONTINUOUS
10
-6.9733323170
20
22.1526190383
11
-10.4144683566
21
22.1526190383
0
LINE
5
35B
100
AcDbEntity
8
0
100
AcDbLine
62
0
6
CONTINUOUS
10
-10.3970132917
20
22.1613459061
11
-4.1146054493
21
22.1613459061
0
LINE
5
35C
100
AcDbEntity
8
0
100
AcDbLine
62
0
6
CONTINUOUS
10
4.6853945507
20
22.1613459061
11
10.9678023932
21
22.1613459061
0
LINE
5
35D
100
AcDbEntity
8
0
100
AcDbLine
62
0
6
CONTINUOUS
10
10.6861175486
20
22.8839956369
11
8.7846715529
21
22.8839956369
0
LINE
5
35E
100
AcDbEntity
8
0
100
AcDbLine
62
0
6
CONTINUOUS
10
-8.2138824514
20
22.8839956369
11
-10.1153284471
21
22.8839956369
0
LINE
5
35F
100
AcDbEntity
8
0
100
AcDbLine
62
9
6
CONTINUOUS
10
-10.1102378460
20
23.3891771225
11
-8.2189730525
21
23.3891771225
0
LINE
5
360
100
AcDbEntity
8
0
100
AcDbLine
62
9
6
CONTINUOUS
10
8.7897621540
20
23.3891771225
11
10.6810269475
21
23.3891771225
0
LINE
5
361
100
AcDbEntity
8
0
100
AcDbLine
62
0
6
CONTINUOUS
10
-4.0709548024
20
23.5176952592
11
-3.2146054493
21
23.5176952592
0
LINE
5
362
100
AcDbEntity
8
0
100
AcDbLine
62
0
6
CONTINUOUS
10
3.7853945507
20
23.5176952592
11
4.6417439039
21
23.5176952592
0
LINE
5
363
100
AcDbEntity
8
0
100
AcDbLine
62
0
6
CONTINUOUS
10
-3.2146054493
20
23.5555280763
11
3.7853945507
21
23.5555280763
0
LINE
5
364
100
AcDbEntity
8
0
100
AcDbLine
62
0
6
CONTINUOUS
10
4.6853945507
20
23.5613459061
11
3.7853945507
21
23.5613459061
0
LINE
5
365
100
AcDbEntity
8
0
100
AcDbLine
62
0
6
CONTINUOUS
10
-3.2146054493
20
23.5613459061
11
-4.1146054493
21
23.5613459061
0
LINE
5
366
100
AcDbEntity
8
0
100
AcDbLine
62
9
6
CONTINUOUS
10
-10.3602336153
20
23.6056834734
11
-7.9689772833
21
23.6056834734
0
LINE
5
367
100
AcDbEntity
8
0
100
AcDbLine
62
9
6
CONTINUOUS
10
8.5397663847
20
23.6056834734
11
10.9310227167
21
23.6056834734
0
LINE
5
368
100
AcDbEntity
8
0
100
AcDbLine
62
0
6
CONTINUOUS
10
8.3694191175
20
20.7530541703
11
8.5319072599
21
20.6718162865
0
LINE
5
369
100
AcDbEntity
8
0
100
AcDbLine
62
9
6
CONTINUOUS
10
-10.3602336153
20
24.0069783029
11
-7.9689772833
21
24.0069783029
0
LINE
5
36A
100
AcDbEntity
8
0
100
AcDbLine
62
9
6
CONTINUOUS
10
8.5397663847
20
24.0069783029
11
10.9310227167
21
24.0069783029
0
LINE
5
36B
100
AcDbEntity
8
0
100
AcDbLine
62
0
6
CONTINUOUS
10
10.6810269475
20
24.2569740721
11
8.7897621540
21
24.2569740721
0
LINE
5
36C
100
AcDbEntity
8
0
100
AcDbLine
62
0
6
CONTINUOUS
10
-8.2189730525
20
24.2569740721
11
-10.1102378460
21
24.2569740721
0
ARC
5
36D
100
AcDbEntity
8
0
100
AcDbCircle
62
0
6
CONTINUOUS
10
3.3853945507
20
-14.3386540939
40
0.3000000000
100
AcDbArc
50
0.0000000000
51
90.0000000000
0
ARC
5
36E
100
AcDbEntity
8
0
100
AcDbCircle
62
0
6
CONTINUOUS
10
-2.8146054493
20
-14.3386540939
40
0.3000000000
100
AcDbArc
50
90.0000000000
51
180.0000000000
0
CIRCLE
5
36F
100
AcDbEntity
8
0
100
AcDbCircle
62
0
6
CONTINUOUS
10
0.2853945507
20
-11.2386540939
40
0.8500000000
0
ARC
5
370
100
AcDbEntity
8
0
100
AcDbCircle
62
0
6
CONTINUOUS
10
0.2853945507
20
-11.2386540939
40
2.0000000000
100
AcDbArc
50
180.0000000000
51
360.0000000000
0
CIRCLE
5
371
100
AcDbEntity
8
0
100
AcDbCircle
62
0
6
CONTINUOUS
10
0.2853945507
20
-0.2386540939
40
1.0000000000
0
CIRCLE
5
372
100
AcDbEntity
8
0
100
AcDbCircle
62
0
6
CONTINUOUS
10
0.2853945507
20
-0.2386540939
40
2.7500000000
0
CIRCLE
5
373
100
AcDbEntity
8
0
100
AcDbCircle
62
0
6
CONTINUOUS
10
0.2853945507
20
-0.2386540939
40
4.5000000000
0
CIRCLE
5
374
100
AcDbEntity
8
0
100
AcDbCircle
62
0
6
CONTINUOUS
10
0.2853945507
20
-0.2386540939
40
4.0000000000
0
ARC
5
375
100
AcDbEntity
8
0
100
AcDbCircle
62
0
6
CONTINUOUS
10
0.2853945507
20
-0.2386540939
40
7.6473590931
100
AcDbArc
50
285.1612448364
51
254.8387549992
0
ARC
5
376
100
AcDbEntity
8
0
100
AcDbCircle
62
0
6
CONTINUOUS
10
0.2853945507
20
-0.2386540939
40
7.6500000000
100
AcDbArc
50
285.1559627088
51
254.8440372913
0
ARC
5
377
100
AcDbEntity
8
0
100
AcDbCircle
62
9
6
CONTINUOUS
10
0.2853945507
20
-0.2386540939
40
7.3473705149
100
AcDbArc
50
285.7969027182
51
254.2030972870
0
SPLINE
5
378
100
AcDbEntity
8
0
100
AcDbSpline
62
0
6
CONTINUOUS
70
0
71
3
72
15
73
11
74
9
42
0.0000001000
43
0.0000001000
44
0.0000000001
12
0.0000000000
22
-0.4978982073
32
0.0000000000
13
0.4457073323
23
-0.2228573874
33
0.0000000000
40
0.0000000000
40
0.0000000000
40
0.0000000000
40
0.0000000000
40
0.1282129537
40
0.2577283832
40
0.3869872035
40
0.5151290858
40
0.6443551212
40
0.7743033121
40
0.9035234973
40
1.0000000000
40
1.0000000000
40
1.0000000000
40
1.0000000000
10
-10.8646054493
20
-22.1798415536
30
0.0000000000
10
-10.8646054493
20
-22.2011205536
30
0.0000000000
10
-10.8615611278
20
-22.2439564498
30
0.0000000000
10
-10.8478935078
20
-22.3069276013
30
0.0000000000
10
-10.8253775497
20
-22.3673032196
30
0.0000000000
10
-10.7945413455
20
-22.4238194366
30
0.0000000000
10
-10.7559216542
20
-22.4754812085
30
0.0000000000
10
-10.7101838706
20
-22.5212192427
30
0.0000000000
10
-10.6627471447
20
-22.5566816779
30
0.0000000000
10
-10.6301112987
20
-22.5752378708
30
0.0000000000
10
-10.6157778705
20
-22.5824047046
30
0.0000000000
11
-10.8646054493
21
-22.1798415536
31
0.0000000000
11
-10.8600772487
21
-22.2435177497
31
0.0000000000
11
-10.8464016195
21
-22.3065364524
31
0.0000000000
11
-10.8239128573
21
-22.3668371458
31
0.0000000000
11
-10.7933547284
21
-22.4228447046
31
0.0000000000
11
-10.7548306367
21
-22.4743783011
31
0.0000000000
11
-10.7090803216
21
-22.5201289771
31
0.0000000000
11
-10.6575497559
21
-22.5586522584
31
0.0000000000
11
-10.6157778705
21
-22.5824047046
31
0.0000000000
0
SPLINE
5
379
100
AcDbEntity
8
0
100
AcDbSpline
62
0
6
CONTINUOUS
70
0
71
3
72
15
73
11
74
9
42
0.0000001000
43
0.0000001000
44
0.0000000001
12
0.0000000000
22
0.4979340247
32
0.0000000000
13
-0.4457630340
23
0.2228419816
33
0.0000000000
40
0.0000000000
40
0.0000000000
40
0.0000000000
40
0.0000000000
40
0.1289207035
40
0.2579804863
40
0.3867904683
40
0.5159440866
40
0.6447050042
40
0.7739027784
40
0.9026728646
40
1.0000000000
40
1.0000000000
40
1.0000000000
40
1.0000000000
10
11.4353945507
20
21.7025333659
30
0.0000000000
10
11.4353945507
20
21.7239313675
30
0.0000000000
10
11.4323298004
20
21.7668132497
30
0.0000000000
10
11.4186338977
20
21.8297475972
30
0.0000000000
10
11.3961075301
20
21.8901412781
30
0.0000000000
10
11.3652378193
20
21.9466679301
30
0.0000000000
10
11.3266010315
20
21.9982777810
30
0.0000000000
10
11.2810565406
20
22.0438199319
30
0.0000000000
10
11.2336868326
20
22.0792787593
30
0.0000000000
10
11.2009965053
20
22.0978829902
30
0.0000000000
10
11.1865348922
20
22.1051125141
30
0.0000000000
11
11.4353945507
21
21.7025333659
31
0.0000000000
11
11.4308155617
21
21.7665638516
31
0.0000000000
11
11.4171526654
21
21.8293578917
31
0.0000000000
11
11.3947369910
21
21.8894522553
31
0.0000000000
11
11.3639139930
21
21.9458944067
31
0.0000000000
11
11.3254902628
21
21.9972196307
31
0.0000000000
11
11.2799995771
21
22.0427080861
31
0.0000000000
11
11.2286688852
21
22.0811321302
31
0.0000000000
11
11.1865348922
21
22.1051125141
31
0.0000000000
0
SPLINE
5
37A
100
AcDbEntity
8
0
100
AcDbSpline
62
0
6
CONTINUOUS
70
0
71
3
72
9
73
5
74
3
42
0.0000001000
43
0.0000001000
44
0.0000000001
12
0.0000000000
22
0.0475573588
32
0.0000000000
13
0.0090083279
23
0.0467385388
33
0.0000000000
40
0.0000000000
40
0.0000000000
40
0.0000000000
40
0.0000000000
40
0.7500208510
40
1.0000000000
40
1.0000000000
40
1.0000000000
40
1.0000000000
10
8.5353945507
20
24.0113501369
30
0.0000000000
10
8.5353945507
20
24.0232398071
30
0.0000000000
10
8.5365292640
20
24.0391155388
30
0.0000000000
10
8.5391615094
20
24.0547676484
30
0.0000000000
10
8.5399121408
20
24.0586622017
30
0.0000000000
11
8.5353945507
21
24.0113501369
31
0.0000000000
11
8.5379390766
21
24.0469282722
31
0.0000000000
11
8.5399121408
21
24.0586622017
31
0.0000000000
0
SPLINE
5
37B
100
AcDbEntity
8
0
100
AcDbSpline
62
0
6
CONTINUOUS
70
0
71
3
72
10
73
6
74
4
42
0.0000001000
43
0.0000001000
44
0.0000000001
12
0.0180174245
22
0.0934810656
32
0.0000000000
13
0.0514684004
23
0.0800866296
33
0.0000000000
40
0.0000000000
40
0.0000000000
40
0.0000000000
40
0.0000000000
40
0.2500103467
40
0.6250051020
40
1.0000000000
40
1.0000000000
40
1.0000000000
40
1.0000000000
10
8.5399121408
20
24.0586622017
30
0.0000000000
10
8.5414136549
20
24.0664526129
30
0.0000000000
10
8.5460938444
20
24.0857464627
30
0.0000000000
10
8.5572115970
20
24.1155562449
30
0.0000000000
10
8.5686465301
20
24.1364977195
30
0.0000000000
10
8.5750799926
20
24.1465084120
30
0.0000000000
11
8.5399121408
21
24.0586622017
31
0.0000000000
11
8.5455209090
21
24.0817821851
31
0.0000000000
11
8.5579857786
21
24.1152023524
31
0.0000000000
11
8.5750799926
21
24.1465084120
31
0.0000000000
0
SPLINE
5
37C
100
AcDbEntity
8
0
100
AcDbSpline
62
0
6
CONTINUOUS
70
0
71
3
72
10
73
6
74
4
42
0.0000001000
43
0.0000001000
44
0.0000000001
12
0.0579011793
22
0.0900962584
32
0.0000000000
13
0.0900962584
23
0.0579011793
33
0.0000000000
40
0.0000000000
40
0.0000000000
40
0.0000000000
40
0.0000000000
40
0.3333333233
40
0.6666666767
40
1.0000000000
40
1.0000000000
40
1.0000000000
40
1.0000000000
10
8.5750799926
20
24.1465084120
30
0.0000000000
10
8.5815134568
20
24.1565191071
30
0.0000000000
10
8.5958123763
20
24.1756204041
30
0.0000000000
10
8.6211200528
20
24.2009280805
30
0.0000000000
10
8.6402213498
20
24.2152270001
30
0.0000000000
10
8.6502320448
20
24.2216604642
30
0.0000000000
11
8.5750799926
21
24.1465084120
31
0.0000000000
11
8.5964555919
21
24.1750630252
31
0.0000000000
11
8.6216774317
21
24.2002848650
31
0.0000000000
11
8.6502320448
21
24.2216604642
31
0.0000000000
0
SPLINE
5
37D
100
AcDbEntity
8
0
100
AcDbSpline
62
0
6
CONTINUOUS
70
0
71
3
72
11
73
7
74
5
42
0.0000001000
43
0.0000001000
44
0.0000000001
12
0.1201282362
22
0.0772015028
32
0.0000000000
13
0.1426761344
23
0.0000000000
33
0.0000000000
40
0.0000000000
40
0.0000000000
40
0.0000000000
40
0.0000000000
40
0.2500001537
40
0.5000002124
40
0.7500001602
40
1.0000000000
40
1.0000000000
40
1.0000000000
40
1.0000000000
10
8.6502320448
20
24.2216604642
30
0.0000000000
10
8.6602427373
20
24.2280939268
30
0.0000000000
10
8.6811842119
20
24.2395288598
30
0.0000000000
10
8.7147197472
20
24.2520361564
30
0.0000000000
10
8.7496863851
20
24.2596437886
30
0.0000000000
10
8.7735006497
20
24.2613459061
30
0.0000000000
10
8.7853903200
20
24.2613459061
30
0.0000000000
11
8.6502320448
21
24.2216604642
31
0.0000000000
11
8.6815381044
21
24.2387546783
31
0.0000000000
11
8.7149582717
21
24.2512195478
31
0.0000000000
11
8.7498121846
21
24.2588013803
31
0.0000000000
11
8.7853903200
21
24.2613459061
31
0.0000000000
0
SPLINE
5
37E
100
AcDbEntity
8
0
100
AcDbSpline
62
0
6
CONTINUOUS
70
0
71
3
72
9
73
5
74
3
42
0.0000001000
43
0.0000001000
44
0.0000000001
12
0.0475573588
22
0.0000000000
32
0.0000000000
13
0.0467385388
23
-0.0090083279
33
0.0000000000
40
0.0000000000
40
0.0000000000
40
0.0000000000
40
0.0000000000
40
0.7500208510
40
1.0000000000
40
1.0000000000
40
1.0000000000
40
1.0000000000
10
10.6853987815
20
24.2613459061
30
0.0000000000
10
10.6972884518
20
24.2613459061
30
0.0000000000
10
10.7131641834
20
24.2602111929
30
0.0000000000
10
10.7288162930
20
24.2575789475
30
0.0000000000
10
10.7327108464
20
24.2568283161
30
0.0000000000
11
10.6853987815
21
24.2613459061
31
0.0000000000
11
10.7209769169
21
24.2588013803
31
0.0000000000
11
10.7327108464
21
24.2568283161
31
0.0000000000
0
SPLINE
5
37F
100
AcDbEntity
8
0
100
AcDbSpline
62
0
6
CONTINUOUS
70
0
71
3
72
10
73
6
74
4
42
0.0000001000
43
0.0000001000
44
0.0000000001
12
0.0934810656
22
-0.0180174245
32
0.0000000000
13
0.0800866296
23
-0.0514684004
33
0.0000000000
40
0.0000000000
40
0.0000000000
40
0.0000000000
40
0.0000000000
40
0.2500103467
40
0.6250051020
40
1.0000000000
40
1.0000000000
40
1.0000000000
40
1.0000000000
10
10.7327108464
20
24.2568283161
30
0.0000000000
10
10.7405012576
20
24.2553268019
30
0.0000000000
10
10.7597951074
20
24.2506466125
30
0.0000000000
10
10.7896048896
20
24.2395288598
30
0.0000000000
10
10.8105463641
20
24.2280939268
30
0.0000000000
10
10.8205570567
20
24.2216604642
30
0.0000000000
11
10.7327108464
21
24.2568283161
31
0.0000000000
11
10.7558308297
21
24.2512195478
31
0.0000000000
11
10.7892509970
21
24.2387546783
31
0.0000000000
11
10.8205570567
21
24.2216604642
31
0.0000000000
0
SPLINE
5
380
100
AcDbEntity
8
0
100
AcDbSpline
62
0
6
CONTINUOUS
70
0
71
3
72
10
73
6
74
4
42
0.0000001000
43
0.0000001000
44
0.0000000001
12
0.0900962584
22
-0.0579011793
32
0.0000000000
13
0.0579011793
23
-0.0900962584
33
0.0000000000
40
0.0000000000
40
0.0000000000
40
0.0000000000
40
0.0000000000
40
0.3333333233
40
0.6666666767
40
1.0000000000
40
1.0000000000
40
1.0000000000
40
1.0000000000
10
10.8205570567
20
24.2216604642
30
0.0000000000
10
10.8305677517
20
24.2152270001
30
0.0000000000
10
10.8496690487
20
24.2009280805
30
0.0000000000
10
10.8749767252
20
24.1756204041
30
0.0000000000
10
10.8892756447
20
24.1565191071
30
0.0000000000
10
10.8957091089
20
24.1465084120
30
0.0000000000
11
10.8205570567
21
24.2216604642
31
0.0000000000
11
10.8491116698
21
24.2002848650
31
0.0000000000
11
10.8743335096
21
24.1750630252
31
0.0000000000
11
10.8957091089
21
24.1465084120
31
0.0000000000
0
SPLINE
5
381
100
AcDbEntity
8
0
100
AcDbSpline
62
0
6
CONTINUOUS
70
0
71
3
72
11
73
7
74
5
42
0.0000001000
43
0.0000001000
44
0.0000000001
12
0.0772015028
22
-0.1201282362
32
0.0000000000
13
0.0000000000
23
-0.1426761344
33
0.0000000000
40
0.0000000000
40
0.0000000000
40
0.0000000000
40
0.0000000000
40
0.2500001537
40
0.5000002124
40
0.7500001602
40
1.0000000000
40
1.0000000000
40
1.0000000000
40
1.0000000000
10
10.8957091089
20
24.1465084120
30
0.0000000000
10
10.9021425714
20
24.1364977195
30
0.0000000000
10
10.9135775044
20
24.1155562449
30
0.0000000000
10
10.9260848010
20
24.0820207097
30
0.0000000000
10
10.9336924332
20
24.0470540718
30
0.0000000000
10
10.9353945507
20
24.0232398071
30
0.0000000000
10
10.9353945507
20
24.0113501369
30
0.0000000000
11
10.8957091089
21
24.1465084120
31
0.0000000000
11
10.9128033229
21
24.1152023524
31
0.0000000000
11
10.9252681925
21
24.0817821851
31
0.0000000000
11
10.9328500249
21
24.0469282722
31
0.0000000000
11
10.9353945507
21
24.0113501369
31
0.0000000000
0
SPLINE
5
382
100
AcDbEntity
8
0
100
AcDbSpline
62
0
6
CONTINUOUS
70
0
71
3
72
17
73
13
74
11
42
0.0000001000
43
0.0000001000
44
0.0000000001
12
0.3922846478
22
-0.0000132773
32
0.0000000000
13
0.0000132773
23
-0.3922846478
33
0.0000000000
40
0.0000000000
40
0.0000000000
40
0.0000000000
40
0.0000000000
40
0.0998239394
40
0.1998359985
40
0.2998483200
40
0.3998691378
40
0.4998893118
40
0.5999112671
40
0.6999336806
40
0.7999562942
40
0.8999787118
40
1.0000000000
40
1.0000000000
40
1.0000000000
40
1.0000000000
10
10.6810269475
20
24.2569740721
30
0.0000000000
10
10.6940800805
20
24.2569736303
30
0.0000000000
10
10.7202570696
20
24.2549177844
30
0.0000000000
10
10.7585338855
20
24.2457361275
30
0.0000000000
10
10.7949366118
20
24.2306681329
30
0.0000000000
10
10.8285319441
20
24.2100901501
30
0.0000000000
10
10.8584956316
20
24.1845085089
30
0.0000000000
10
10.8840878112
20
24.1545535340
30
0.0000000000
10
10.9046783018
20
24.1209637644
30
0.0000000000
10
10.9197596231
20
24.0845633341
30
0.0000000000
10
10.9289601752
20
24.0462616725
30
0.0000000000
10
10.9310222741
20
24.0200572415
30
0.0000000000
10
10.9310227167
20
24.0069783029
30
0.0000000000
11
10.6810269475
21
24.2569740721
31
0.0000000000
11
10.7200659565
21
24.2539057981
31
0.0000000000
11
10.7582173250
21
24.2447561148
31
0.0000000000
11
10.7944675633
21
24.2297503852
31
0.0000000000
11
10.8279265613
21
24.2092562717
31
0.0000000000
11
10.8577668588
21
24.1837798107
31
0.0000000000
11
10.8832541276
21
24.1539478249
31
0.0000000000
11
10.9037600894
21
24.1204953528
31
0.0000000000
11
10.9187795082
21
24.0842464138
31
0.0000000000
11
10.9279423016
21
24.0460940128
31
0.0000000000
11
10.9310227167
21
24.0069783029
31
0.0000000000
0
SPLINE
5
383
100
AcDbEntity
8
0
100
AcDbSpline
62
0
6
CONTINUOUS
70
0
71
3
72
17
73
13
74
11
42
0.0000001000
43
0.0000001000
44
0.0000000001
12
0.0000132773
22
0.3922846478
32
0.0000000000
13
0.3922846478
23
0.0000132773
33
0.0000000000
40
0.0000000000
40
0.0000000000
40
0.0000000000
40
0.0000000000
40
0.1000212882
40
0.2000437058
40
0.3000663194
40
0.4000887329
40
0.5001106882
40
0.6001308622
40
0.7001516800
40
0.8001640015
40
0.9001760606
40
1.0000000000
40
1.0000000000
40
1.0000000000
40
1.0000000000
10
8.5397663847
20
24.0069783029
30
0.0000000000
10
8.5397668274
20
24.0200572415
30
0.0000000000
10
8.5418289263
20
24.0462616725
30
0.0000000000
10
8.5510294784
20
24.0845633341
30
0.0000000000
10
8.5661107997
20
24.1209637644
30
0.0000000000
10
8.5867012903
20
24.1545535340
30
0.0000000000
10
8.6122934699
20
24.1845085089
30
0.0000000000
10
8.6422571574
20
24.2100901501
30
0.0000000000
10
8.6758524897
20
24.2306681329
30
0.0000000000
10
8.7122552160
20
24.2457361275
30
0.0000000000
10
8.7505320319
20
24.2549177844
30
0.0000000000
10
8.7767090210
20
24.2569736303
30
0.0000000000
10
8.7897621540
20
24.2569740721
30
0.0000000000
11
8.5397663847
21
24.0069783029
31
0.0000000000
11
8.5428467999
21
24.0460940128
31
0.0000000000
11
8.5520095933
21
24.0842464138
31
0.0000000000
11
8.5670290121
21
24.1204953528
31
0.0000000000
11
8.5875349739
21
24.1539478249
31
0.0000000000
11
8.6130222427
21
24.1837798107
31
0.0000000000
11
8.6428625402
21
24.2092562717
31
0.0000000000
11
8.6763215382
21
24.2297503852
31
0.0000000000
11
8.7125717765
21
24.2447561148
31
0.0000000000
11
8.7507231450
21
24.2539057981
31
0.0000000000
11
8.7897621540
21
24.2569740721
31
0.0000000000
0
SPLINE
5
384
100
AcDbEntity
8
0
100
AcDbSpline
62
0
6
CONTINUOUS
70
0
71
3
72
9
73
5
74
3
42
0.0000001000
43
0.0000001000
44
0.0000000001
12
0.0475573588
22
0.0000000000
32
0.0000000000
13
0.0467385388
23
-0.0090083279
33
0.0000000000
40
0.0000000000
40
0.0000000000
40
0.0000000000
40
0.0000000000
40
0.7500208510
40
1.0000000000
40
1.0000000000
40
1.0000000000
40
1.0000000000
10
-8.2146012185
20
24.2613459061
30
0.0000000000
10
-8.2027115482
20
24.2613459061
30
0.0000000000
10
-8.1868358166
20
24.2602111929
30
0.0000000000
10
-8.1711837070
20
24.2575789475
30
0.0000000000
10
-8.1672891536
20
24.2568283161
30
0.0000000000
11
-8.2146012185
21
24.2613459061
31
0.0000000000
11
-8.1790230831
21
24.2588013803
31
0.0000000000
11
-8.1672891536
21
24.2568283161
31
0.0000000000
0
SPLINE
5
385
100
AcDbEntity
8
0
100
AcDbSpline
62
0
6
CONTINUOUS
70
0
71
3
72
10
73
6
74
4
42
0.0000001000
43
0.0000001000
44
0.0000000001
12
0.0934810656
22
-0.0180174245
32
0.0000000000
13
0.0800866296
23
-0.0514684004
33
0.0000000000
40
0.0000000000
40
0.0000000000
40
0.0000000000
40
0.0000000000
40
0.2500103467
40
0.6250051020
40
1.0000000000
40
1.0000000000
40
1.0000000000
40
1.0000000000
10
-8.1672891536
20
24.2568283161
30
0.0000000000
10
-8.1594987424
20
24.2553268019
30
0.0000000000
10
-8.1402048926
20
24.2506466125
30
0.0000000000
10
-8.1103951104
20
24.2395288598
30
0.0000000000
10
-8.0894536359
20
24.2280939268
30
0.0000000000
10
-8.0794429433
20
24.2216604642
30
0.0000000000
11
-8.1672891536
21
24.2568283161
31
0.0000000000
11
-8.1441691703
21
24.2512195478
31
0.0000000000
11
-8.1107490030
21
24.2387546783
31
0.0000000000
11
-8.0794429433
21
24.2216604642
31
0.0000000000
0
SPLINE
5
386
100
AcDbEntity
8
0
100
AcDbSpline
62
0
6
CONTINUOUS
70
0
71
3
72
10
73
6
74
4
42
0.0000001000
43
0.0000001000
44
0.0000000001
12
0.0900962584
22
-0.0579011793
32
0.0000000000
13
0.0579011793
23
-0.0900962584
33
0.0000000000
40
0.0000000000
40
0.0000000000
40
0.0000000000
40
0.0000000000
40
0.3333333233
40
0.6666666767
40
1.0000000000
40
1.0000000000
40
1.0000000000
40
1.0000000000
10
-8.0794429433
20
24.2216604642
30
0.0000000000
10
-8.0694322483
20
24.2152270001
30
0.0000000000
10
-8.0503309513
20
24.2009280805
30
0.0000000000
10
-8.0250232748
20
24.1756204041
30
0.0000000000
10
-8.0107243553
20
24.1565191071
30
0.0000000000
10
-8.0042908911
20
24.1465084120
30
0.0000000000
11
-8.0794429433
21
24.2216604642
31
0.0000000000
11
-8.0508883302
21
24.2002848650
31
0.0000000000
11
-8.0256664904
21
24.1750630252
31
0.0000000000
11
-8.0042908911
21
24.1465084120
31
0.0000000000
0
SPLINE
5
387
100
AcDbEntity
8
0
100
AcDbSpline
62
0
6
CONTINUOUS
70
0
71
3
72
11
73
7
74
5
42
0.0000001000
43
0.0000001000
44
0.0000000001
12
0.0772015028
22
-0.1201282362
32
0.0000000000
13
0.0000000000
23
-0.1426761344
33
0.0000000000
40
0.0000000000
40
0.0000000000
40
0.0000000000
40
0.0000000000
40
0.2500001537
40
0.5000002124
40
0.7500001602
40
1.0000000000
40
1.0000000000
40
1.0000000000
40
1.0000000000
10
-8.0042908911
20
24.1465084120
30
0.0000000000
10
-7.9978574286
20
24.1364977195
30
0.0000000000
10
-7.9864224956
20
24.1155562449
30
0.0000000000
10
-7.9739151990
20
24.0820207097
30
0.0000000000
10
-7.9663075668
20
24.0470540718
30
0.0000000000
10
-7.9646054493
20
24.0232398071
30
0.0000000000
10
-7.9646054493
20
24.0113501369
30
0.0000000000
11
-8.0042908911
21
24.1465084120
31
0.0000000000
11
-7.9871966771
21
24.1152023524
31
0.0000000000
11
-7.9747318075
21
24.0817821851
31
0.0000000000
11
-7.9671499751
21
24.0469282722
31
0.0000000000
11
-7.9646054493
21
24.0113501369
31
0.0000000000
0
SPLINE
5
388
100
AcDbEntity
8
0
100
AcDbSpline
62
0
6
CONTINUOUS
70
0
71
3
72
17
73
13
74
11
42
0.0000001000
43
0.0000001000
44
0.0000000001
12
0.3922846482
22
-0.0000132773
32
0.0000000000
13
0.0000132773
23
-0.3922846482
33
0.0000000000
40
0.0000000000
40
0.0000000000
40
0.0000000000
40
0.0000000000
40
0.0999991830
40
0.1999988695
40
0.2999989843
40
0.3999994104
40
0.5000000000
40
0.6000005896
40
0.7000010157
40
0.8000011305
40
0.9000008170
40
1.0000000000
40
1.0000000000
40
1.0000000000
40
1.0000000000
10
-8.2189730525
20
24.2569740721
30
0.0000000000
10
-8.2058970044
20
24.2569736295
30
0.0000000000
10
-8.1796984669
20
24.2549124520
30
0.0000000000
10
-8.1414049841
20
24.2457159995
30
0.0000000000
10
-8.1050114453
20
24.2306412970
30
0.0000000000
10
-8.0714265700
20
24.2100595026
30
0.0000000000
10
-8.0414739041
20
24.1844774513
30
0.0000000000
10
-8.0158918527
20
24.1545247853
30
0.0000000000
10
-7.9953100584
20
24.1209399101
30
0.0000000000
10
-7.9802353559
20
24.0845463712
30
0.0000000000
10
-7.9710389034
20
24.0462528884
30
0.0000000000
10
-7.9689777258
20
24.0200543510
30
0.0000000000
10
-7.9689772833
20
24.0069783029
30
0.0000000000
11
-8.2189730525
21
24.2569740721
31
0.0000000000
11
-8.1798659337
21
24.2538950181
31
0.0000000000
11
-8.1417217207
21
24.2447363165
31
0.0000000000
11
-8.1054796099
21
24.2297234754
31
0.0000000000
11
-8.0720319643
21
24.2092261447
31
0.0000000000
11
-8.0422023403
21
24.1837490151
31
0.0000000000
11
-8.0167252107
21
24.1539193911
31
0.0000000000
11
-7.9962278800
21
24.1204717454
31
0.0000000000
11
-7.9812150388
21
24.0842296347
31
0.0000000000
11
-7.9720563373
21
24.0460854216
31
0.0000000000
11
-7.9689772833
21
24.0069783029
31
0.0000000000
0
SPLINE
5
389
100
AcDbEntity
8
0
100
AcDbSpline
62
0
6
CONTINUOUS
70
0
71
3
72
17
73
13
74
11
42
0.0000001000
43
0.0000001000
44
0.0000000001
12
0.0000132773
22
0.3922846482
32
0.0000000000
13
0.3922846482
23
0.0000132773
33
0.0000000000
40
0.0000000000
40
0.0000000000
40
0.0000000000
40
0.0000000000
40
0.0999991830
40
0.1999988695
40
0.2999989843
40
0.3999994104
40
0.5000000000
40
0.6000005896
40
0.7000010157
40
0.8000011305
40
0.9000008170
40
1.0000000000
40
1.0000000000
40
1.0000000000
40
1.0000000000
10
-10.3602336153
20
24.0069783029
30
0.0000000000
10
-10.3602331727
20
24.0200543510
30
0.0000000000
10
-10.3581719952
20
24.0462528884
30
0.0000000000
10
-10.3489755426
20
24.0845463712
30
0.0000000000
10
-10.3339008402
20
24.1209399101
30
0.0000000000
10
-10.3133190458
20
24.1545247853
30
0.0000000000
10
-10.2877369944
20
24.1844774513
30
0.0000000000
10
-10.2577843285
20
24.2100595026
30
0.0000000000
10
-10.2241994532
20
24.2306412970
30
0.0000000000
10
-10.1878059144
20
24.2457159995
30
0.0000000000
10
-10.1495124316
20
24.2549124520
30
0.0000000000
10
-10.1233138941
20
24.2569736295
30
0.0000000000
10
-10.1102378460
20
24.2569740721
30
0.0000000000
11
-10.3602336153
21
24.0069783029
31
0.0000000000
11
-10.3571545612
21
24.0460854216
31
0.0000000000
11
-10.3479958597
21
24.0842296347
31
0.0000000000
11
-10.3329830185
21
24.1204717454
31
0.0000000000
11
-10.3124856879
21
24.1539193911
31
0.0000000000
11
-10.2870085583
21
24.1837490151
31
0.0000000000
11
-10.2571789342
21
24.2092261447
31
0.0000000000
11
-10.2237312886
21
24.2297234754
31
0.0000000000
11
-10.1874891778
21
24.2447363165
31
0.0000000000
11
-10.1493449648
21
24.2538950181
31
0.0000000000
11
-10.1102378460
21
24.2569740721
31
0.0000000000
0
SPLINE
5
38A
100
AcDbEntity
8
0
100
AcDbSpline
62
0
6
CONTINUOUS
70
0
71
3
72
9
73
5
74
3
42
0.0000001000
43
0.0000001000
44
0.0000000001
12
0.0000000000
22
0.0475573588
32
0.0000000000
13
0.0090083279
23
0.0467385388
33
0.0000000000
40
0.0000000000
40
0.0000000000
40
0.0000000000
40
0.0000000000
40
0.7500208510
40
1.0000000000
40
1.0000000000
40
1.0000000000
40
1.0000000000
10
-10.3646054493
20
24.0113501369
30
0.0000000000
10
-10.3646054493
20
24.0232398071
30
0.0000000000
10
-10.3634707360
20
24.0391155388
30
0.0000000000
10
-10.3608384906
20
24.0547676484
30
0.0000000000
10
-10.3600878592
20
24.0586622017
30
0.0000000000
11
-10.3646054493
21
24.0113501369
31
0.0000000000
11
-10.3620609234
21
24.0469282722
31
0.0000000000
11
-10.3600878592
21
24.0586622017
31
0.0000000000
0
SPLINE
5
38B
100
AcDbEntity
8
0
100
AcDbSpline
62
0
6
CONTINUOUS
70
0
71
3
72
10
73
6
74
4
42
0.0000001000
43
0.0000001000
44
0.0000000001
12
0.0180174245
22
0.0934810656
32
0.0000000000
13
0.0514684004
23
0.0800866296
33
0.0000000000
40
0.0000000000
40
0.0000000000
40
0.0000000000
40
0.0000000000
40
0.2500103467
40
0.6250051020
40
1.0000000000
40
1.0000000000
40
1.0000000000
40
1.0000000000
10
-10.3600878592
20
24.0586622017
30
0.0000000000
10
-10.3585863451
20
24.0664526129
30
0.0000000000
10
-10.3539061556
20
24.0857464627
30
0.0000000000
10
-10.3427884030
20
24.1155562449
30
0.0000000000
10
-10.3313534699
20
24.1364977195
30
0.0000000000
10
-10.3249200074
20
24.1465084120
30
0.0000000000
11
-10.3600878592
21
24.0586622017
31
0.0000000000
11
-10.3544790910
21
24.0817821851
31
0.0000000000
11
-10.3420142214
21
24.1152023524
31
0.0000000000
11
-10.3249200074
21
24.1465084120
31
0.0000000000
0
SPLINE
5
38C
100
AcDbEntity
8
0
100
AcDbSpline
62
0
6
CONTINUOUS
70
0
71
3
72
10
73
6
74
4
42
0.0000001000
43
0.0000001000
44
0.0000000001
12
0.0579011793
22
0.0900962584
32
0.0000000000
13
0.0900962584
23
0.0579011793
33
0.0000000000
40
0.0000000000
40
0.0000000000
40
0.0000000000
40
0.0000000000
40
0.3333333233
40
0.6666666767
40
1.0000000000
40
1.0000000000
40
1.0000000000
40
1.0000000000
10
-10.3249200074
20
24.1465084120
30
0.0000000000
10
-10.3184865432
20
24.1565191071
30
0.0000000000
10
-10.3041876237
20
24.1756204041
30
0.0000000000
10
-10.2788799472
20
24.2009280805
30
0.0000000000
10
-10.2597786502
20
24.2152270001
30
0.0000000000
10
-10.2497679552
20
24.2216604642
30
0.0000000000
11
-10.3249200074
21
24.1465084120
31
0.0000000000
11
-10.3035444081
21
24.1750630252
31
0.0000000000
11
-10.2783225683
21
24.2002848650
31
0.0000000000
11
-10.2497679552
21
24.2216604642
31
0.0000000000
0
SPLINE
5
38D
100
AcDbEntity
8
0
100
AcDbSpline
62
0
6
CONTINUOUS
70
0
71
3
72
11
73
7
74
5
42
0.0000001000
43
0.0000001000
44
0.0000000001
12
0.1201282362
22
0.0772015028
32
0.0000000000
13
0.1426761344
23
0.0000000000
33
0.0000000000
40
0.0000000000
40
0.0000000000
40
0.0000000000
40
0.0000000000
40
0.2500001537
40
0.5000002124
40
0.7500001602
40
1.0000000000
40
1.0000000000
40
1.0000000000
40
1.0000000000
10
-10.2497679552
20
24.2216604642
30
0.0000000000
10
-10.2397572627
20
24.2280939268
30
0.0000000000
10
-10.2188157881
20
24.2395288598
30
0.0000000000
10
-10.1852802528
20
24.2520361564
30
0.0000000000
10
-10.1503136149
20
24.2596437886
30
0.0000000000
10
-10.1264993503
20
24.2613459061
30
0.0000000000
10
-10.1146096800
20
24.2613459061
30
0.0000000000
11
-10.2497679552
21
24.2216604642
31
0.0000000000
11
-10.2184618956
21
24.2387546783
31
0.0000000000
11
-10.1850417283
21
24.2512195478
31
0.0000000000
11
-10.1501878154
21
24.2588013803
31
0.0000000000
11
-10.1146096800
21
24.2613459061
31
0.0000000000
0
SPLINE
5
38E
100
AcDbEntity
8
0
100
AcDbSpline
62
0
6
CONTINUOUS
70
0
71
3
72
9
73
5
74
3
42
0.0000001000
43
0.0000001000
44
0.0000000001
12
-0.0475573588
22
0.0000000000
32
0.0000000000
13
-0.0467385388
23
0.0090083279
33
0.0000000000
40
0.0000000000
40
0.0000000000
40
0.0000000000
40
0.0000000000
40
0.7500208510
40
1.0000000000
40
1.0000000000
40
1.0000000000
40
1.0000000000
10
8.7853903200
20
-24.7386540939
30
0.0000000000
10
8.7735006497
20
-24.7386540939
30
0.0000000000
10
8.7576249181
20
-24.7375193807
30
0.0000000000
10
8.7419728085
20
-24.7348871353
30
0.0000000000
10
8.7380782551
20
-24.7341365039
30
0.0000000000
11
8.7853903200
21
-24.7386540939
31
0.0000000000
11
8.7498121846
21
-24.7361095680
31
0.0000000000
11
8.7380782551
21
-24.7341365039
31
0.0000000000
0
SPLINE
5
38F
100
AcDbEntity
8
0
100
AcDbSpline
62
0
6
CONTINUOUS
70
0
71
3
72
10
73
6
74
4
42
0.0000001000
43
0.0000001000
44
0.0000000001
12
-0.0934810656
22
0.0180174245
32
0.0000000000
13
-0.0800866296
23
0.0514684004
33
0.0000000000
40
0.0000000000
40
0.0000000000
40
0.0000000000
40
0.0000000000
40
0.2500103467
40
0.6250051020
40
1.0000000000
40
1.0000000000
40
1.0000000000
40
1.0000000000
10
8.7380782551
20
-24.7341365039
30
0.0000000000
10
8.7302878439
20
-24.7326349897
30
0.0000000000
10
8.7109939941
20
-24.7279548002
30
0.0000000000
10
8.6811842119
20
-24.7168370476
30
0.0000000000
10
8.6602427373
20
-24.7054021145
30
0.0000000000
10
8.6502320448
20
-24.6989686520
30
0.0000000000
11
8.7380782551
21
-24.7341365039
31
0.0000000000
11
8.7149582717
21
-24.7285277356
31
0.0000000000
11
8.6815381044
21
-24.7160628661
31
0.0000000000
11
8.6502320448
21
-24.6989686520
31
0.0000000000
0
SPLINE
5
390
100
AcDbEntity
8
0
100
AcDbSpline
62
0
6
CONTINUOUS
70
0
71
3
72
10
73
6
74
4
42
0.0000001000
43
0.0000001000
44
0.0000000001
12
-0.0900962584
22
0.0579011793
32
0.0000000000
13
-0.0579011793
23
0.0900962584
33
0.0000000000
40
0.0000000000
40
0.0000000000
40
0.0000000000
40
0.0000000000
40
0.3333333233
40
0.6666666767
40
1.0000000000
40
1.0000000000
40
1.0000000000
40
1.0000000000
10
8.6502320448
20
-24.6989686520
30
0.0000000000
10
8.6402213498
20
-24.6925351878
30
0.0000000000
10
8.6211200528
20
-24.6782362683
30
0.0000000000
10
8.5958123763
20
-24.6529285919
30
0.0000000000
10
8.5815134568
20
-24.6338272949
30
0.0000000000
10
8.5750799926
20
-24.6238165998
30
0.0000000000
11
8.6502320448
21
-24.6989686520
31
0.0000000000
11
8.6216774317
21
-24.6775930528
31
0.0000000000
11
8.5964555919
21
-24.6523712129
31
0.0000000000
11
8.5750799926
21
-24.6238165998
31
0.0000000000
0
SPLINE
5
391
100
AcDbEntity
8
0
100
AcDbSpline
62
0
6
CONTINUOUS
70
0
71
3
72
11
73
7
74
5
42
0.0000001000
43
0.0000001000
44
0.0000000001
12
-0.0772015028
22
0.1201282362
32
0.0000000000
13
0.0000000000
23
0.1426761344
33
0.0000000000
40
0.0000000000
40
0.0000000000
40
0.0000000000
40
0.0000000000
40
0.2500001537
40
0.5000002124
40
0.7500001602
40
1.0000000000
40
1.0000000000
40
1.0000000000
40
1.0000000000
10
8.5750799926
20
-24.6238165998
30
0.0000000000
10
8.5686465301
20
-24.6138059073
30
0.0000000000
10
8.5572115970
20
-24.5928644327
30
0.0000000000
10
8.5447043005
20
-24.5593288974
30
0.0000000000
10
8.5370966683
20
-24.5243622596
30
0.0000000000
10
8.5353945507
20
-24.5005479949
30
0.0000000000
10
8.5353945507
20
-24.4886583247
30
0.0000000000
11
8.5750799926
21
-24.6238165998
31
0.0000000000
11
8.5579857786
21
-24.5925105402
31
0.0000000000
11
8.5455209090
21
-24.5590903729
31
0.0000000000
11
8.5379390766
21
-24.5242364600
31
0.0000000000
11
8.5353945507
21
-24.4886583247
31
0.0000000000
0
SPLINE
5
392
100
AcDbEntity
8
0
100
AcDbSpline
62
0
6
CONTINUOUS
70
0
71
3
72
17
73
13
74
11
42
0.0000001000
43
0.0000001000
44
0.0000000001
12
-0.3922846482
22
0.0000132773
32
0.0000000000
13
-0.0000132773
23
0.3922846482
33
0.0000000000
40
0.0000000000
40
0.0000000000
40
0.0000000000
40
0.0000000000
40
0.0999991830
40
0.1999988695
40
0.2999989843
40
0.3999994104
40
0.5000000000
40
0.6000005896
40
0.7000010157
40
0.8000011305
40
0.9000008170
40
1.0000000000
40
1.0000000000
40
1.0000000000
40
1.0000000000
10
8.7897621540
20
-24.7342822599
30
0.0000000000
10
8.7766861059
20
-24.7342818173
30
0.0000000000
10
8.7504875684
20
-24.7322206398
30
0.0000000000
10
8.7121940856
20
-24.7230241872
30
0.0000000000
10
8.6758005468
20
-24.7079494848
30
0.0000000000
10
8.6422156715
20
-24.6873676904
30
0.0000000000
10
8.6122630056
20
-24.6617856390
30
0.0000000000
10
8.5866809542
20
-24.6318329731
30
0.0000000000
10
8.5660991598
20
-24.5982480978
30
0.0000000000
10
8.5510244574
20
-24.5618545590
30
0.0000000000
10
8.5418280048
20
-24.5235610762
30
0.0000000000
10
8.5397668273
20
-24.4973625388
30
0.0000000000
10
8.5397663847
20
-24.4842864907
30
0.0000000000
11
8.7897621540
21
-24.7342822599
31
0.0000000000
11
8.7506550352
21
-24.7312032059
31
0.0000000000
11
8.7125108222
21
-24.7220445043
31
0.0000000000
11
8.6762687114
21
-24.7070316632
31
0.0000000000
11
8.6428210658
21
-24.6865343325
31
0.0000000000
11
8.6129914417
21
-24.6610572029
31
0.0000000000
11
8.5875143121
21
-24.6312275789
31
0.0000000000
11
8.5670169815
21
-24.5977799332
31
0.0000000000
11
8.5520041403
21
-24.5615378225
31
0.0000000000
11
8.5428454388
21
-24.5233936094
31
0.0000000000
11
8.5397663847
21
-24.4842864907
31
0.0000000000
0
SPLINE
5
393
100
AcDbEntity
8
0
100
AcDbSpline
62
0
6
CONTINUOUS
70
0
71
3
72
17
73
13
74
11
42
0.0000001000
43
0.0000001000
44
0.0000000001
12
-0.0000132773
22
-0.3922846478
32
0.0000000000
13
-0.3922846478
23
-0.0000132773
33
0.0000000000
40
0.0000000000
40
0.0000000000
40
0.0000000000
40
0.0000000000
40
0.0998239394
40
0.1998359985
40
0.2998483200
40
0.3998691378
40
0.4998893118
40
0.5999112671
40
0.6999336806
40
0.7999562942
40
0.8999787118
40
1.0000000000
40
1.0000000000
40
1.0000000000
40
1.0000000000
10
10.9310227167
20
-24.4842864907
30
0.0000000000
10
10.9310222749
20
-24.4973396236
30
0.0000000000
10
10.9289664290
20
-24.5235166127
30
0.0000000000
10
10.9197847721
20
-24.5617934287
30
0.0000000000
10
10.9047167776
20
-24.5981961549
30
0.0000000000
10
10.8841387948
20
-24.6317914872
30
0.0000000000
10
10.8585571535
20
-24.6617551748
30
0.0000000000
10
10.8286021786
20
-24.6873473543
30
0.0000000000
10
10.7950124090
20
-24.7079378449
30
0.0000000000
10
10.7586119788
20
-24.7230191662
30
0.0000000000
10
10.7203103171
20
-24.7322197184
30
0.0000000000
10
10.6941058861
20
-24.7342818172
30
0.0000000000
10
10.6810269475
20
-24.7342822599
30
0.0000000000
11
10.9310227167
21
-24.4842864907
31
0.0000000000
11
10.9279544427
21
-24.5233254996
31
0.0000000000
11
10.9188047594
21
-24.5614768681
31
0.0000000000
11
10.9037990298
21
-24.5977271064
31
0.0000000000
11
10.8833049163
21
-24.6311861044
31
0.0000000000
11
10.8578284553
21
-24.6610264019
31
0.0000000000
11
10.8279964695
21
-24.6865136707
31
0.0000000000
11
10.7945439974
21
-24.7070196325
31
0.0000000000
11
10.7582950584
21
-24.7220390514
31
0.0000000000
11
10.7201426574
21
-24.7312018447
31
0.0000000000
11
10.6810269475
21
-24.7342822599
31
0.0000000000
0
SPLINE
5
394
100
AcDbEntity
8
0
100
AcDbSpline
62
0
6
CONTINUOUS
70
0
71
3
72
9
73
5
74
3
42
0.0000001000
43
0.0000001000
44
0.0000000001
12
0.0000000000
22
-0.0475573588
32
0.0000000000
13
-0.0090083279
23
-0.0467385388
33
0.0000000000
40
0.0000000000
40
0.0000000000
40
0.0000000000
40
0.0000000000
40
0.7500208510
40
1.0000000000
40
1.0000000000
40
1.0000000000
40
1.0000000000
10
10.9353945507
20
-24.4886583247
30
0.0000000000
10
10.9353945507
20
-24.5005479949
30
0.0000000000
10
10.9342598375
20
-24.5164237266
30
0.0000000000
10
10.9316275921
20
-24.5320758361
30
0.0000000000
10
10.9308769607
20
-24.5359703895
30
0.0000000000
11
10.9353945507
21
-24.4886583247
31
0.0000000000
11
10.9328500249
21
-24.5242364600
31
0.0000000000
11
10.9308769607
21
-24.5359703895
31
0.0000000000
0
SPLINE
5
395
100
AcDbEntity
8
0
100
AcDbSpline
62
0
6
CONTINUOUS
70
0
71
3
72
10
73
6
74
4
42
0.0000001000
43
0.0000001000
44
0.0000000001
12
-0.0180174245
22
-0.0934810656
32
0.0000000000
13
-0.0514684004
23
-0.0800866296
33
0.0000000000
40
0.0000000000
40
0.0000000000
40
0.0000000000
40
0.0000000000
40
0.2500103467
40
0.6250051020
40
1.0000000000
40
1.0000000000
40
1.0000000000
40
1.0000000000
10
10.9308769607
20
-24.5359703895
30
0.0000000000
10
10.9293754466
20
-24.5437608007
30
0.0000000000
10
10.9246952571
20
-24.5630546505
30
0.0000000000
10
10.9135775044
20
-24.5928644327
30
0.0000000000
10
10.9021425714
20
-24.6138059073
30
0.0000000000
10
10.8957091089
20
-24.6238165998
30
0.0000000000
11
10.9308769607
21
-24.5359703895
31
0.0000000000
11
10.9252681925
21
-24.5590903729
31
0.0000000000
11
10.9128033229
21
-24.5925105402
31
0.0000000000
11
10.8957091089
21
-24.6238165998
31
0.0000000000
0
SPLINE
5
396
100
AcDbEntity
8
0
100
AcDbSpline
62
0
6
CONTINUOUS
70
0
71
3
72
10
73
6
74
4
42
0.0000001000
43
0.0000001000
44
0.0000000001
12
-0.0579011793
22
-0.0900962584
32
0.0000000000
13
-0.0900962584
23
-0.0579011793
33
0.0000000000
40
0.0000000000
40
0.0000000000
40
0.0000000000
40
0.0000000000
40
0.3333333233
40
0.6666666767
40
1.0000000000
40
1.0000000000
40
1.0000000000
40
1.0000000000
10
10.8957091089
20
-24.6238165998
30
0.0000000000
10
10.8892756447
20
-24.6338272949
30
0.0000000000
10
10.8749767252
20
-24.6529285919
30
0.0000000000
10
10.8496690487
20
-24.6782362683
30
0.0000000000
10
10.8305677517
20
-24.6925351878
30
0.0000000000
10
10.8205570567
20
-24.6989686520
30
0.0000000000
11
10.8957091089
21
-24.6238165998
31
0.0000000000
11
10.8743335096
21
-24.6523712129
31
0.0000000000
11
10.8491116698
21
-24.6775930528
31
0.0000000000
11
10.8205570567
21
-24.6989686520
31
0.0000000000
0
SPLINE
5
397
100
AcDbEntity
8
0
100
AcDbSpline
62
0
6
CONTINUOUS
70
0
71
3
72
11
73
7
74
5
42
0.0000001000
43
0.0000001000
44
0.0000000001
12
-0.1201282362
22
-0.0772015028
32
0.0000000000
13
-0.1426761344
23
0.0000000000
33
0.0000000000
40
0.0000000000
40
0.0000000000
40
0.0000000000
40
0.0000000000
40
0.2500001537
40
0.5000002124
40
0.7500001602
40
1.0000000000
40
1.0000000000
40
1.0000000000
40
1.0000000000
10
10.8205570567
20
-24.6989686520
30
0.0000000000
10
10.8105463641
20
-24.7054021145
30
0.0000000000
10
10.7896048896
20
-24.7168370476
30
0.0000000000
10
10.7560693543
20
-24.7293443441
30
0.0000000000
10
10.7211027164
20
-24.7369519763
30
0.0000000000
10
10.6972884518
20
-24.7386540939
30
0.0000000000
10
10.6853987815
20
-24.7386540939
30
0.0000000000
11
10.8205570567
21
-24.6989686520
31
0.0000000000
11
10.7892509970
21
-24.7160628661
31
0.0000000000
11
10.7558308297
21
-24.7285277356
31
0.0000000000
11
10.7209769169
21
-24.7361095680
31
0.0000000000
11
10.6853987815
21
-24.7386540939
31
0.0000000000
0
SPLINE
5
398
100
AcDbEntity
8
0
100
AcDbSpline
62
0
6
CONTINUOUS
70
0
71
3
72
9
73
5
74
3
42
0.0000001000
43
0.0000001000
44
0.0000000001
12
-0.0475573588
22
0.0000000000
32
0.0000000000
13
-0.0467385388
23
0.0090083279
33
0.0000000000
40
0.0000000000
40
0.0000000000
40
0.0000000000
40
0.0000000000
40
0.7500208510
40
1.0000000000
40
1.0000000000
40
1.0000000000
40
1.0000000000
10
-10.1146096800
20
-24.7386540939
30
0.0000000000
10
-10.1264993503
20
-24.7386540939
30
0.0000000000
10
-10.1423750819
20
-24.7375193807
30
0.0000000000
10
-10.1580271915
20
-24.7348871353
30
0.0000000000
10
-10.1619217449
20
-24.7341365039
30
0.0000000000
11
-10.1146096800
21
-24.7386540939
31
0.0000000000
11
-10.1501878154
21
-24.7361095680
31
0.0000000000
11
-10.1619217449
21
-24.7341365039
31
0.0000000000
0
SPLINE
5
399
100
AcDbEntity
8
0
100
AcDbSpline
62
0
6
CONTINUOUS
70
0
71
3
72
10
73
6
74
4
42
0.0000001000
43
0.0000001000
44
0.0000000001
12
-0.0934810656
22
0.0180174245
32
0.0000000000
13
-0.0800866296
23
0.0514684004
33
0.0000000000
40
0.0000000000
40
0.0000000000
40
0.0000000000
40
0.0000000000
40
0.2500103467
40
0.6250051020
40
1.0000000000
40
1.0000000000
40
1.0000000000
40
1.0000000000
10
-10.1619217449
20
-24.7341365039
30
0.0000000000
10
-10.1697121561
20
-24.7326349897
30
0.0000000000
10
-10.1890060059
20
-24.7279548002
30
0.0000000000
10
-10.2188157881
20
-24.7168370476
30
0.0000000000
10
-10.2397572627
20
-24.7054021145
30
0.0000000000
10
-10.2497679552
20
-24.6989686520
30
0.0000000000
11
-10.1619217449
21
-24.7341365039
31
0.0000000000
11
-10.1850417283
21
-24.7285277356
31
0.0000000000
11
-10.2184618956
21
-24.7160628661
31
0.0000000000
11
-10.2497679552
21
-24.6989686520
31
0.0000000000
0
SPLINE
5
39A
100
AcDbEntity
8
0
100
AcDbSpline
62
0
6
CONTINUOUS
70
0
71
3
72
10
73
6
74
4
42
0.0000001000
43
0.0000001000
44
0.0000000001
12
-0.0900962584
22
0.0579011793
32
0.0000000000
13
-0.0579011793
23
0.0900962584
33
0.0000000000
40
0.0000000000
40
0.0000000000
40
0.0000000000
40
0.0000000000
40
0.3333333233
40
0.6666666767
40
1.0000000000
40
1.0000000000
40
1.0000000000
40
1.0000000000
10
-10.2497679552
20
-24.6989686520
30
0.0000000000
10
-10.2597786502
20
-24.6925351878
30
0.0000000000
10
-10.2788799472
20
-24.6782362683
30
0.0000000000
10
-10.3041876237
20
-24.6529285919
30
0.0000000000
10
-10.3184865432
20
-24.6338272949
30
0.0000000000
10
-10.3249200074
20
-24.6238165998
30
0.0000000000
11
-10.2497679552
21
-24.6989686520
31
0.0000000000
11
-10.2783225683
21
-24.6775930528
31
0.0000000000
11
-10.3035444081
21
-24.6523712129
31
0.0000000000
11
-10.3249200074
21
-24.6238165998
31
0.0000000000
0
SPLINE
5
39B
100
AcDbEntity
8
0
100
AcDbSpline
62
0
6
CONTINUOUS
70
0
71
3
72
11
73
7
74
5
42
0.0000001000
43
0.0000001000
44
0.0000000001
12
-0.0772015028
22
0.1201282362
32
0.0000000000
13
0.0000000000
23
0.1426761344
33
0.0000000000
40
0.0000000000
40
0.0000000000
40
0.0000000000
40
0.0000000000
40
0.2500001537
40
0.5000002124
40
0.7500001602
40
1.0000000000
40
1.0000000000
40
1.0000000000
40
1.0000000000
10
-10.3249200074
20
-24.6238165998
30
0.0000000000
10
-10.3313534699
20
-24.6138059073
30
0.0000000000
10
-10.3427884030
20
-24.5928644327
30
0.0000000000
10
-10.3552956995
20
-24.5593288974
30
0.0000000000
10
-10.3629033317
20
-24.5243622596
30
0.0000000000
10
-10.3646054493
20
-24.5005479949
30
0.0000000000
10
-10.3646054493
20
-24.4886583247
30
0.0000000000
11
-10.3249200074
21
-24.6238165998
31
0.0000000000
11
-10.3420142214
21
-24.5925105402
31
0.0000000000
11
-10.3544790910
21
-24.5590903729
31
0.0000000000
11
-10.3620609234
21
-24.5242364600
31
0.0000000000
11
-10.3646054493
21
-24.4886583247
31
0.0000000000
0
SPLINE
5
39C
100
AcDbEntity
8
0
100
AcDbSpline
62
0
6
CONTINUOUS
70
0
71
3
72
17
73
13
74
11
42
0.0000001000
43
0.0000001000
44
0.0000000001
12
-0.3922846478
22
0.0000132773
32
0.0000000000
13
-0.0000132773
23
0.3922846478
33
0.0000000000
40
0.0000000000
40
0.0000000000
40
0.0000000000
40
0.0000000000
40
0.0998239394
40
0.1998359985
40
0.2998483200
40
0.3998691378
40
0.4998893118
40
0.5999112671
40
0.6999336806
40
0.7999562942
40
0.8999787118
40
1.0000000000
40
1.0000000000
40
1.0000000000
40
1.0000000000
10
-10.1102378460
20
-24.7342822599
30
0.0000000000
10
-10.1232909790
20
-24.7342818181
30
0.0000000000
10
-10.1494679681
20
-24.7322259722
30
0.0000000000
10
-10.1877447840
20
-24.7230443153
30
0.0000000000
10
-10.2241475103
20
-24.7079763207
30
0.0000000000
10
-10.2577428426
20
-24.6873983379
30
0.0000000000
10
-10.2877065301
20
-24.6618166966
30
0.0000000000
10
-10.3132987097
20
-24.6318617218
30
0.0000000000
10
-10.3338892003
20
-24.5982719522
30
0.0000000000
10
-10.3489705216
20
-24.5618715219
30
0.0000000000
10
-10.3581710737
20
-24.5235698603
30
0.0000000000
10
-10.3602331726
20
-24.4973654293
30
0.0000000000
10
-10.3602336153
20
-24.4842864907
30
0.0000000000
11
-10.1102378460
21
-24.7342822599
31
0.0000000000
11
-10.1492768550
21
-24.7312139858
31
0.0000000000
11
-10.1874282235
21
-24.7220643026
31
0.0000000000
11
-10.2236784618
21
-24.7070585730
31
0.0000000000
11
-10.2571374598
21
-24.6865644595
31
0.0000000000
11
-10.2869777573
21
-24.6610879985
31
0.0000000000
11
-10.3124650261
21
-24.6312560126
31
0.0000000000
11
-10.3329709879
21
-24.5978035405
31
0.0000000000
11
-10.3479904067
21
-24.5615546016
31
0.0000000000
11
-10.3571532001
21
-24.5234022006
31
0.0000000000
11
-10.3602336153
21
-24.4842864907
31
0.0000000000
0
SPLINE
5
39D
100
AcDbEntity
8
0
100
AcDbSpline
62
0
6
CONTINUOUS
70
0
71
3
72
17
73
13
74
11
42
0.0000001000
43
0.0000001000
44
0.0000000001
12
-0.0000132773
22
-0.3922846478
32
0.0000000000
13
-0.3922846478
23
-0.0000132773
33
0.0000000000
40
0.0000000000
40
0.0000000000
40
0.0000000000
40
0.0000000000
40
0.1000212882
40
0.2000437058
40
0.3000663194
40
0.4000887329
40
0.5001106882
40
0.6001308622
40
0.7001516800
40
0.8001640015
40
0.9001760606
40
1.0000000000
40
1.0000000000
40
1.0000000000
40
1.0000000000
10
-7.9689772833
20
-24.4842864907
30
0.0000000000
10
-7.9689777259
20
-24.4973654293
30
0.0000000000
10
-7.9710398248
20
-24.5235698603
30
0.0000000000
10
-7.9802403769
20
-24.5618715219
30
0.0000000000
10
-7.9953216982
20
-24.5982719522
30
0.0000000000
10
-8.0159121888
20
-24.6318617218
30
0.0000000000
10
-8.0415043684
20
-24.6618166966
30
0.0000000000
10
-8.0714680559
20
-24.6873983379
30
0.0000000000
10
-8.1050633882
20
-24.7079763207
30
0.0000000000
10
-8.1414661145
20
-24.7230443153
30
0.0000000000
10
-8.1797429304
20
-24.7322259722
30
0.0000000000
10
-8.2059199195
20
-24.7342818181
30
0.0000000000
10
-8.2189730525
20
-24.7342822599
30
0.0000000000
11
-7.9689772833
21
-24.4842864907
31
0.0000000000
11
-7.9720576984
21
-24.5234022006
31
0.0000000000
11
-7.9812204918
21
-24.5615546016
31
0.0000000000
11
-7.9962399106
21
-24.5978035405
31
0.0000000000
11
-8.0167458724
21
-24.6312560126
31
0.0000000000
11
-8.0422331412
21
-24.6610879985
31
0.0000000000
11
-8.0720734387
21
-24.6865644595
31
0.0000000000
11
-8.1055324367
21
-24.7070585730
31
0.0000000000
11
-8.1417826750
21
-24.7220643026
31
0.0000000000
11
-8.1799340435
21
-24.7312139858
31
0.0000000000
11
-8.2189730525
21
-24.7342822599
31
0.0000000000
0
SPLINE
5
39E
100
AcDbEntity
8
0
100
AcDbSpline
62
0
6
CONTINUOUS
70
0
71
3
72
9
73
5
74
3
42
0.0000001000
43
0.0000001000
44
0.0000000001
12
0.0000000000
22
-0.0475573588
32
0.0000000000
13
-0.0090083279
23
-0.0467385388
33
0.0000000000
40
0.0000000000
40
0.0000000000
40
0.0000000000
40
0.0000000000
40
0.7500208510
40
1.0000000000
40
1.0000000000
40
1.0000000000
40
1.0000000000
10
-7.9646054493
20
-24.4886583247
30
0.0000000000
10
-7.9646054493
20
-24.5005479949
30
0.0000000000
10
-7.9657401625
20
-24.5164237266
30
0.0000000000
10
-7.9683724079
20
-24.5320758361
30
0.0000000000
10
-7.9691230393
20
-24.5359703895
30
0.0000000000
11
-7.9646054493
21
-24.4886583247
31
0.0000000000
11
-7.9671499751
21
-24.5242364600
31
0.0000000000
11
-7.9691230393
21
-24.5359703895
31
0.0000000000
0
SPLINE
5
39F
100
AcDbEntity
8
0
100
AcDbSpline
62
0
6
CONTINUOUS
70
0
71
3
72
10
73
6
74
4
42
0.0000001000
43
0.0000001000
44
0.0000000001
12
-0.0180174245
22
-0.0934810656
32
0.0000000000
13
-0.0514684004
23
-0.0800866296
33
0.0000000000
40
0.0000000000
40
0.0000000000
40
0.0000000000
40
0.0000000000
40
0.2500103467
40
0.6250051020
40
1.0000000000
40
1.0000000000
40
1.0000000000
40
1.0000000000
10
-7.9691230393
20
-24.5359703895
30
0.0000000000
10
-7.9706245534
20
-24.5437608007
30
0.0000000000
10
-7.9753047429
20
-24.5630546505
30
0.0000000000
10
-7.9864224956
20
-24.5928644327
30
0.0000000000
10
-7.9978574286
20
-24.6138059073
30
0.0000000000
10
-8.0042908911
20
-24.6238165998
30
0.0000000000
11
-7.9691230393
21
-24.5359703895
31
0.0000000000
11
-7.9747318075
21
-24.5590903729
31
0.0000000000
11
-7.9871966771
21
-24.5925105402
31
0.0000000000
11
-8.0042908911
21
-24.6238165998
31
0.0000000000
0
SPLINE
5
3A0
100
AcDbEntity
8
0
100
AcDbSpline
62
0
6
CONTINUOUS
70
0
71
3
72
10
73
6
74
4
42
0.0000001000
43
0.0000001000
44
0.0000000001
12
-0.0579011793
22
-0.0900962584
32
0.0000000000
13
-0.0900962584
23
-0.0579011793
33
0.0000000000
40
0.0000000000
40
0.0000000000
40
0.0000000000
40
0.0000000000
40
0.3333333233
40
0.6666666767
40
1.0000000000
40
1.0000000000
40
1.0000000000
40
1.0000000000
10
-8.0042908911
20
-24.6238165998
30
0.0000000000
10
-8.0107243553
20
-24.6338272949
30
0.0000000000
10
-8.0250232748
20
-24.6529285919
30
0.0000000000
10
-8.0503309513
20
-24.6782362683
30
0.0000000000
10
-8.0694322483
20
-24.6925351878
30
0.0000000000
10
-8.0794429433
20
-24.6989686520
30
0.0000000000
11
-8.0042908911
21
-24.6238165998
31
0.0000000000
11
-8.0256664904
21
-24.6523712129
31
0.0000000000
11
-8.0508883302
21
-24.6775930528
31
0.0000000000
11
-8.0794429433
21
-24.6989686520
31
0.0000000000
0
SPLINE
5
3A1
100
AcDbEntity
8
0
100
AcDbSpline
62
0
6
CONTINUOUS
70
0
71
3
72
11
73
7
74
5
42
0.0000001000
43
0.0000001000
44
0.0000000001
12
-0.1201282362
22
-0.0772015028
32
0.0000000000
13
-0.1426761344
23
0.0000000000
33
0.0000000000
40
0.0000000000
40
0.0000000000
40
0.0000000000
40
0.0000000000
40
0.2500001537
40
0.5000002124
40
0.7500001602
40
1.0000000000
40
1.0000000000
40
1.0000000000
40
1.0000000000
10
-8.0794429433
20
-24.6989686520
30
0.0000000000
10
-8.0894536359
20
-24.7054021145
30
0.0000000000
10
-8.1103951104
20
-24.7168370476
30
0.0000000000
10
-8.1439306457
20
-24.7293443441
30
0.0000000000
10
-8.1788972836
20
-24.7369519763
30
0.0000000000
10
-8.2027115482
20
-24.7386540939
30
0.0000000000
10
-8.2146012185
20
-24.7386540939
30
0.0000000000
11
-8.0794429433
21
-24.6989686520
31
0.0000000000
11
-8.1107490030
21
-24.7160628661
31
0.0000000000
11
-8.1441691703
21
-24.7285277356
31
0.0000000000
11
-8.1790230831
21
-24.7361095680
31
0.0000000000
11
-8.2146012185
21
-24.7386540939
31
0.0000000000
0
SPLINE
5
3A2
100
AcDbEntity
8
0
100
AcDbSpline
62
0
6
CONTINUOUS
70
0
71
3
72
10
73
6
74
4
42
0.0000001000
43
0.0000001000
44
0.0000000001
12
0.1593110246
22
0.0638786992
32
0.0000000000
13
0.1714916994
23
0.0000000002
33
0.0000000000
40
0.0000000000
40
0.0000000000
40
0.0000000000
40
0.0000000000
40
0.2495843145
40
0.6240348049
40
1.0000000000
40
1.0000000000
40
1.0000000000
40
1.0000000000
10
-10.5645213998
20
22.1290214659
30
0.0000000000
10
-10.5512675555
20
22.1343358397
30
0.0000000000
10
-10.5174972281
20
22.1460470884
30
0.0000000000
10
-10.4614658032
20
22.1582719816
30
0.0000000000
10
-10.4185049284
20
22.1613459061
30
0.0000000000
10
-10.3970132917
20
22.1613459061
30
0.0000000000
11
-10.5645213998
21
22.1290214659
31
0.0000000000
11
-10.5240633063
21
22.1430506839
31
0.0000000000
11
-10.4613230921
21
22.1567346577
31
0.0000000000
11
-10.3970132917
21
22.1613459061
31
0.0000000000
0
SPLINE
5
3A3
100
AcDbEntity
8
0
100
AcDbSpline
62
0
6
CONTINUOUS
70
0
71
3
72
15
73
11
74
9
42
0.0000001000
43
0.0000001000
44
0.0000000001
12
-0.4457073323
22
-0.2228573874
32
0.0000000000
13
0.0000000000
23
-0.4978982073
33
0.0000000000
40
0.0000000000
40
0.0000000000
40
0.0000000000
40
0.0000000000
40
0.0964765027
40
0.2256966879
40
0.3556448788
40
0.4848709142
40
0.6130127965
40
0.7422716168
40
0.8717870463
40
1.0000000000
40
1.0000000000
40
1.0000000000
40
1.0000000000
10
-10.6157778705
20
22.1050965168
30
0.0000000000
10
-10.6301112987
20
22.0979296830
30
0.0000000000
10
-10.6627471447
20
22.0793734901
30
0.0000000000
10
-10.7101838706
20
22.0439110550
30
0.0000000000
10
-10.7559216542
20
21.9981730207
30
0.0000000000
10
-10.7945413455
20
21.9465112488
30
0.0000000000
10
-10.8253775497
20
21.8899950318
30
0.0000000000
10
-10.8478935078
20
21.8296194135
30
0.0000000000
10
-10.8615611278
20
21.7666482620
30
0.0000000000
10
-10.8646054493
20
21.7238123658
30
0.0000000000
10
-10.8646054493
20
21.7025333659
30
0.0000000000
11
-10.6157778705
21
22.1050965168
31
0.0000000000
11
-10.6575497559
21
22.0813440706
31
0.0000000000
11
-10.7090803216
21
22.0428207893
31
0.0000000000
11
-10.7548306367
21
21.9970701133
31
0.0000000000
11
-10.7933547284
21
21.9455365168
31
0.0000000000
11
-10.8239128573
21
21.8895289580
31
0.0000000000
11
-10.8464016195
21
21.8292282647
31
0.0000000000
11
-10.8600772487
21
21.7662095619
31
0.0000000000
11
-10.8646054493
21
21.7025333659
31
0.0000000000
0
SPLINE
5
3A4
100
AcDbEntity
8
0
100
AcDbSpline
62
0
6
CONTINUOUS
70
0
71
3
72
10
73
6
74
4
42
0.0000001000
43
0.0000001000
44
0.0000000001
12
0.1593111309
22
-0.0638787622
32
0.0000000000
13
0.1714918210
23
-0.0000000001
33
0.0000000000
40
0.0000000000
40
0.0000000000
40
0.0000000000
40
0.0000000000
40
0.2495842837
40
0.6240347638
40
1.0000000000
40
1.0000000000
40
1.0000000000
40
1.0000000000
10
-10.5645215135
20
-22.6063295996
30
0.0000000000
10
-10.5512676620
20
-22.6116439780
30
0.0000000000
10
-10.5174973144
20
-22.6233552384
30
0.0000000000
10
-10.4614658521
20
-22.6355801470
30
0.0000000000
10
-10.4185049460
20
-22.6386540939
30
0.0000000000
10
-10.3970132917
20
-22.6386540939
30
0.0000000000
11
-10.5645215135
21
-22.6063295996
31
0.0000000000
11
-10.5240633981
21
-22.6203588307
31
0.0000000000
11
-10.4613231436
21
-22.6340428253
31
0.0000000000
11
-10.3970132917
21
-22.6386540939
31
0.0000000000
0
SPLINE
5
3A5
100
AcDbEntity
8
0
100
AcDbSpline
62
0
6
CONTINUOUS
70
0
71
3
72
10
73
6
74
4
42
0.0000001000
43
0.0000001000
44
0.0000000001
12
-0.1593120275
22
-0.0638793108
32
0.0000000000
13
-0.1714928553
23
-0.0000001353
33
0.0000000000
40
0.0000000000
40
0.0000000000
40
0.0000000000
40
0.0000000000
40
0.2495840369
40
0.6240344289
40
1.0000000000
40
1.0000000000
40
1.0000000000
40
1.0000000000
10
11.1353115811
20
-22.6063291447
30
0.0000000000
10
11.1220576681
20
-22.6116435634
30
0.0000000000
10
11.0882871486
20
-22.6233549270
30
0.0000000000
10
11.0322553682
20
-22.6355799769
30
0.0000000000
10
10.9892941963
20
-22.6386540769
30
0.0000000000
10
10.9678023932
20
-22.6386540939
30
0.0000000000
11
11.1353115811
21
-22.6063291447
31
0.0000000000
11
11.0948532779
21
-22.6203584920
31
0.0000000000
11
11.0321126809
21
-22.6340426625
31
0.0000000000
11
10.9678023932
21
-22.6386540939
31
0.0000000000
0
SPLINE
5
3A6
100
AcDbEntity
8
0
100
AcDbSpline
62
0
6
CONTINUOUS
70
0
71
3
72
15
73
11
74
9
42
0.0000001000
43
0.0000001000
44
0.0000000001
12
0.4457630340
22
0.2228419816
32
0.0000000000
13
0.0000000000
23
0.4979340247
33
0.0000000000
40
0.0000000000
40
0.0000000000
40
0.0000000000
40
0.0000000000
40
0.0973271354
40
0.2260972216
40
0.3552949958
40
0.4840559134
40
0.6132095317
40
0.7420195137
40
0.8710792965
40
1.0000000000
40
1.0000000000
40
1.0000000000
40
1.0000000000
10
11.1865348922
20
-22.5824207019
30
0.0000000000
10
11.2009965053
20
-22.5751911780
30
0.0000000000
10
11.2336868326
20
-22.5565869471
30
0.0000000000
10
11.2810565406
20
-22.5211281196
30
0.0000000000
10
11.3266010315
20
-22.4755859687
30
0.0000000000
10
11.3652378193
20
-22.4239761179
30
0.0000000000
10
11.3961075301
20
-22.3674494658
30
0.0000000000
10
11.4186338977
20
-22.3070557850
30
0.0000000000
10
11.4323298004
20
-22.2441214375
30
0.0000000000
10
11.4353945507
20
-22.2012395552
30
0.0000000000
10
11.4353945507
20
-22.1798415536
30
0.0000000000
11
11.1865348922
21
-22.5824207019
31
0.0000000000
11
11.2286688852
21
-22.5584403180
31
0.0000000000
11
11.2799995771
21
-22.5200162739
31
0.0000000000
11
11.3254902628
21
-22.4745278185
31
0.0000000000
11
11.3639139930
21
-22.4232025945
31
0.0000000000
11
11.3947369910
21
-22.3667604431
31
0.0000000000
11
11.4171526654
21
-22.3066660795
31
0.0000000000
11
11.4308155617
21
-22.2438720394
31
0.0000000000
11
11.4353945507
21
-22.1798415536
31
0.0000000000
0
SPLINE
5
3A7
100
AcDbEntity
8
0
100
AcDbSpline
62
0
6
CONTINUOUS
70
0
71
3
72
10
73
6
74
4
42
0.0000001000
43
0.0000001000
44
0.0000000001
12
-0.1593116258
22
0.0638790505
32
0.0000000000
13
-0.1714923857
23
-0.0000000167
33
0.0000000000
40
0.0000000000
40
0.0000000000
40
0.0000000000
40
0.0000000000
40
0.2495841053
40
0.6240345330
40
1.0000000000
40
1.0000000000
40
1.0000000000
40
1.0000000000
10
11.1353111429
20
22.1290211597
30
0.0000000000
10
11.1220572597
20
22.1343355582
30
0.0000000000
10
11.0882868202
20
22.1460468721
30
0.0000000000
10
11.0322551846
20
22.1582718503
30
0.0000000000
10
10.9892941315
20
22.1613459082
30
0.0000000000
10
10.9678023932
20
22.1613459061
30
0.0000000000
11
11.1353111429
21
22.1290211597
31
0.0000000000
11
11.0948529312
21
22.1430504489
31
0.0000000000
11
11.0321124907
21
22.1567345403
31
0.0000000000
11
10.9678023932
21
22.1613459061
31
0.0000000000
0
SPLINE
5
3A8
100
AcDbEntity
8
0
100
AcDbSpline
62
0
6
CONTINUOUS
70
0
71
3
72
16
73
12
74
10
42
0.0000001000
43
0.0000001000
44
0.0000000001
12
-0.3137411980
22
-0.0000238922
32
0.0000000000
13
-0.0000238922
23
-0.3137411980
33
0.0000000000
40
0.0000000000
40
0.0000000000
40
0.0000000000
40
0.0000000000
40
0.1111460152
40
0.2222943018
40
0.3334431202
40
0.4445918467
40
0.5557381870
40
0.6668853424
40
0.7780164313
40
0.8891465325
40
1.0000000000
40
1.0000000000
40
1.0000000000
40
1.0000000000
10
-3.7561278194
20
-17.5971393392
30
0.0000000000
10
-3.7677515140
20
-17.5971402243
30
0.0000000000
10
-3.7910499541
20
-17.5991790725
30
0.0000000000
10
-3.8248948840
20
-17.6082554510
30
0.0000000000
10
-3.8566600141
20
-17.6230740118
30
0.0000000000
10
-3.8853655105
20
-17.6431839027
30
0.0000000000
10
-3.9101426744
20
-17.6679739425
30
0.0000000000
10
-3.9302365149
20
-17.6966882072
30
0.0000000000
10
-3.9450373985
20
-17.7284571310
30
0.0000000000
10
-3.9540887568
20
-17.7622730913
30
0.0000000000
10
-3.9561193211
20
-17.7855386239
30
0.0000000000
10
-3.9561202040
20
-17.7971317238
30
0.0000000000
11
-3.7561278194
21
-17.5971393392
31
0.0000000000
11
-3.7908659032
21
-17.6001820413
31
0.0000000000
11
-3.8245481527
21
-17.6092124495
31
0.0000000000
11
-3.8561501107
21
-17.6239559258
31
0.0000000000
11
-3.8847110029
21
-17.6439641058
31
0.0000000000
11
-3.9093622474
21
-17.6686281639
31
0.0000000000
11
-3.9293553354
21
-17.6971990212
31
0.0000000000
11
-3.9440805571
21
-17.7288033527
31
0.0000000000
11
-3.9530934911
21
-17.7624843760
31
0.0000000000
11
-3.9561202040
21
-17.7971317238
31
0.0000000000
0
SPLINE
5
3A9
100
AcDbEntity
8
0
100
AcDbSpline
62
0
6
CONTINUOUS
70
0
71
3
72
11
73
7
74
5
42
0.0000001000
43
0.0000001000
44
0.0000000001
12
0.2084938484
22
0.0000000000
32
0.0000000000
13
0.1866489250
23
0.0933079083
33
0.0000000000
40
0.0000000000
40
0.0000000000
40
0.0000000000
40
0.0000000000
40
0.3079696280
40
0.6162630946
40
0.9239502885
40
1.0000000000
40
1.0000000000
40
1.0000000000
40
1.0000000000
10
10.9852574581
20
-22.6299272261
30
0.0000000000
10
11.0066607158
20
-22.6299272261
30
0.0000000000
10
11.0495525363
20
-22.6268620715
30
0.0000000000
10
11.1125008000
20
-22.6131645448
30
0.0000000000
10
11.1577182585
20
-22.5963005292
30
0.0000000000
10
11.1818033599
20
-22.5847860484
30
0.0000000000
10
11.1865348922
20
-22.5824207019
30
0.0000000000
11
10.9852574581
21
-22.6299272261
31
0.0000000000
11
11.0493037029
21
-22.6253475465
31
0.0000000000
11
11.1121117340
21
-22.6116829425
31
0.0000000000
11
11.1722180778
21
-22.5892650085
31
0.0000000000
11
11.1865348922
21
-22.5824207019
31
0.0000000000
0
SPLINE
5
3AA
100
AcDbEntity
8
0
100
AcDbSpline
62
0
6
CONTINUOUS
70
0
71
3
72
11
73
7
74
5
42
0.0000001000
43
0.0000001000
44
0.0000000001
12
-0.2085296256
22
0.0000000000
32
0.0000000000
13
-0.1866710540
23
-0.0933370855
33
0.0000000000
40
0.0000000000
40
0.0000000000
40
0.0000000000
40
0.0000000000
40
0.3062291171
40
0.6155931566
40
0.9243636883
40
1.0000000000
40
1.0000000000
40
1.0000000000
40
1.0000000000
10
-10.4144683566
20
22.1526190383
30
0.0000000000
10
-10.4357543043
20
22.1526190383
30
0.0000000000
10
-10.4786058571
20
22.1495736610
30
0.0000000000
10
-10.5416021542
20
22.1359003504
30
0.0000000000
10
-10.5869424945
20
22.1189902555
30
0.0000000000
10
-10.6110715005
20
22.1074497411
30
0.0000000000
10
-10.6157778705
20
22.1050965168
30
0.0000000000
11
-10.4144683566
21
22.1526190383
31
0.0000000000
11
-10.4781653480
21
22.1480894225
31
0.0000000000
11
-10.5412094627
21
22.1344079780
31
0.0000000000
11
-10.6015377449
21
22.1119071429
31
0.0000000000
11
-10.6157778705
21
22.1050965168
31
0.0000000000
0
SPLINE
5
3AB
100
AcDbEntity
8
0
100
AcDbSpline
62
0
6
CONTINUOUS
70
0
71
3
72
18
73
14
74
12
42
0.0000001000
43
0.0000001000
44
0.0000000001
12
-0.4472051012
22
0.2235855214
32
0.0000000000
13
-0.4999828876
23
0.0000000000
33
0.0000000000
40
0.0000000000
40
0.0000000000
40
0.0000000000
40
0.0000000000
40
0.0124656256
40
0.0445860838
40
0.0956297107
40
0.1648293831
40
0.2504153456
40
0.3512246475
40
0.4645991173
40
0.5889859396
40
0.7212300941
40
0.8592827416
40
1.0000000000
40
1.0000000000
40
1.0000000000
40
1.0000000000
10
8.3694191175
20
20.7530541703
30
0.0000000000
10
8.3675608870
20
20.7539832148
30
0.0000000000
10
8.3597076813
20
20.7532066371
30
0.0000000000
10
8.3441576560
20
20.7547886662
30
0.0000000000
10
8.3185667785
20
20.7547516396
30
0.0000000000
10
8.2843524264
20
20.7555047536
30
0.0000000000
10
8.2417255752
20
20.7558893199
30
0.0000000000
10
8.1917782337
20
20.7563400849
30
0.0000000000
10
8.1353493467
20
20.7566880229
30
0.0000000000
10
8.0736855957
20
20.7569773547
30
0.0000000000
10
8.0079072370
20
20.7571856248
30
0.0000000000
10
7.9394074309
20
20.7573131257
30
0.0000000000
10
7.8929473436
20
20.7573414518
30
0.0000000000
10
7.8694952699
20
20.7573414518
30
0.0000000000
11
8.3694191175
21
20.7530541703
31
0.0000000000
11
8.3632167530
21
20.7536673354
31
0.0000000000
11
8.3471682868
21
20.7542673662
31
0.0000000000
11
8.3216537855
21
20.7548405997
31
0.0000000000
11
8.2870593095
21
20.7553781489
31
0.0000000000
11
8.2442705782
21
20.7558663800
31
0.0000000000
11
8.1938695056
21
20.7562986038
31
0.0000000000
11
8.1371853848
21
20.7566634229
31
0.0000000000
11
8.0749947899
21
20.7569558804
31
0.0000000000
11
8.0088753175
21
20.7571684887
31
0.0000000000
11
7.9398514777
21
20.7572980379
31
0.0000000000
11
7.8694952699
21
20.7573414518
31
0.0000000000
0
SPLINE
5
3AC
100
AcDbEntity
8
0
100
AcDbSpline
62
0
6
CONTINUOUS
70
0
71
3
72
18
73
14
74
12
42
0.0000001000
43
0.0000001000
44
0.0000000001
12
-0.4999828876
22
0.0000000000
32
0.0000000000
13
-0.4472051012
23
-0.2235855214
33
0.0000000000
40
0.0000000000
40
0.0000000000
40
0.0000000000
40
0.0000000000
40
0.1407172584
40
0.2787699059
40
0.4110140604
40
0.5354008827
40
0.6487753525
40
0.7495846544
40
0.8351706169
40
0.9043702893
40
0.9554139162
40
0.9875343744
40
1.0000000000
40
1.0000000000
40
1.0000000000
40
1.0000000000
10
-7.2987061684
20
20.7573414518
30
0.0000000000
10
-7.3221582421
20
20.7573414518
30
0.0000000000
10
-7.3686183294
20
20.7573131257
30
0.0000000000
10
-7.4371181355
20
20.7571856248
30
0.0000000000
10
-7.5028964942
20
20.7569773547
30
0.0000000000
10
-7.5645602452
20
20.7566880229
30
0.0000000000
10
-7.6209891322
20
20.7563400849
30
0.0000000000
10
-7.6709364737
20
20.7558893199
30
0.0000000000
10
-7.7135633249
20
20.7555047536
30
0.0000000000
10
-7.7477776770
20
20.7547516396
30
0.0000000000
10
-7.7733685545
20
20.7547886662
30
0.0000000000
10
-7.7889185798
20
20.7532066371
30
0.0000000000
10
-7.7967717855
20
20.7539832148
30
0.0000000000
10
-7.7986300160
20
20.7530541703
30
0.0000000000
11
-7.2987061684
21
20.7573414518
31
0.0000000000
11
-7.3690623762
21
20.7572980379
31
0.0000000000
11
-7.4380862160
21
20.7571684887
31
0.0000000000
11
-7.5042056884
21
20.7569558804
31
0.0000000000
11
-7.5663962833
21
20.7566634229
31
0.0000000000
11
-7.6230804041
21
20.7562986038
31
0.0000000000
11
-7.6734814767
21
20.7558663800
31
0.0000000000
11
-7.7162702080
21
20.7553781489
31
0.0000000000
11
-7.7508646840
21
20.7548405997
31
0.0000000000
11
-7.7763791853
21
20.7542673662
31
0.0000000000
11
-7.7924276515
21
20.7536673354
31
0.0000000000
11
-7.7986300160
21
20.7530541703
31
0.0000000000
0
SPLINE
5
3AD
100
AcDbEntity
8
0
100
AcDbSpline
62
0
6
CONTINUOUS
70
0
71
3
72
18
73
14
74
12
42
0.0000001000
43
0.0000001000
44
0.0000000001
12
0.4999828876
22
0.0000000000
32
0.0000000000
13
0.4472051012
23
0.2235855214
33
0.0000000000
40
0.0000000000
40
0.0000000000
40
0.0000000000
40
0.0000000000
40
0.1407172584
40
0.2787699059
40
0.4110140604
40
0.5354008827
40
0.6487753525
40
0.7495846544
40
0.8351706169
40
0.9043702893
40
0.9554139162
40
0.9875343744
40
1.0000000000
40
1.0000000000
40
1.0000000000
40
1.0000000000
10
7.8694952699
20
-21.2346496396
30
0.0000000000
10
7.8929473436
20
-21.2346496396
30
0.0000000000
10
7.9394074309
20
-21.2346213135
30
0.0000000000
10
8.0079072370
20
-21.2344938126
30
0.0000000000
10
8.0736855957
20
-21.2342855425
30
0.0000000000
10
8.1353493467
20
-21.2339962107
30
0.0000000000
10
8.1917782337
20
-21.2336482727
30
0.0000000000
10
8.2417255752
20
-21.2331975077
30
0.0000000000
10
8.2843524264
20
-21.2328129414
30
0.0000000000
10
8.3185667785
20
-21.2320598274
30
0.0000000000
10
8.3441576560
20
-21.2320968540
30
0.0000000000
10
8.3597076813
20
-21.2305148249
30
0.0000000000
10
8.3675608870
20
-21.2312914026
30
0.0000000000
10
8.3694191175
20
-21.2303623581
30
0.0000000000
11
7.8694952699
21
-21.2346496396
31
0.0000000000
11
7.9398514777
21
-21.2346062257
31
0.0000000000
11
8.0088753175
21
-21.2344766764
31
0.0000000000
11
8.0749947899
21
-21.2342640681
31
0.0000000000
11
8.1371853848
21
-21.2339716107
31
0.0000000000
11
8.1938695056
21
-21.2336067916
31
0.0000000000
11
8.2442705782
21
-21.2331745678
31
0.0000000000
11
8.2870593095
21
-21.2326863367
31
0.0000000000
11
8.3216537855
21
-21.2321487875
31
0.0000000000
11
8.3471682868
21
-21.2315755539
31
0.0000000000
11
8.3632167530
21
-21.2309755231
31
0.0000000000
11
8.3694191175
21
-21.2303623581
31
0.0000000000
0
SPLINE
5
3AE
100
AcDbEntity
8
0
100
AcDbSpline
62
0
6
CONTINUOUS
70
0
71
3
72
14
73
10
74
8
42
0.0000001000
43
0.0000001000
44
0.0000000001
12
-0.9896092855
22
34.1521162105
32
0.0000000000
13
1.3898664147
23
34.1381698330
33
0.0000000000
40
0.0000000000
40
0.0000000000
40
0.0000000000
40
0.0000000000
40
0.1428723353
40
0.2857054766
40
0.4285171597
40
0.5713333639
40
0.7141699630
40
0.8570529218
40
1.0000000000
40
1.0000000000
40
1.0000000000
40
1.0000000000
10
8.8752689273
20
-14.4386540939
30
0.0000000000
10
8.8281396640
20
-12.8121898944
30
0.0000000000
10
8.7500603687
20
-9.5592159326
30
0.0000000000
10
8.6815221007
20
-4.6793170338
30
0.0000000000
10
8.6615909308
20
0.2003883211
30
0.0000000000
10
8.6902688422
20
5.0800877955
30
0.0000000000
10
8.7675537716
20
9.9600729633
30
0.0000000000
10
8.8934384342
20
14.8405321462
30
0.0000000000
10
9.0097236534
20
18.0937838433
30
0.0000000000
10
9.0759494344
20
19.7204343871
30
0.0000000000
11
8.8752689273
21
-14.4386540939
31
0.0000000000
11
8.7581475636
21
-9.5586187227
31
0.0000000000
11
8.6896196897
21
-4.6789983813
31
0.0000000000
11
8.6696919966
21
0.2003292887
31
0.0000000000
11
8.6983656261
21
5.0797678703
31
0.0000000000
11
8.7756371573
21
9.9593757409
31
0.0000000000
11
8.9015026664
21
14.8395565013
31
0.0000000000
11
9.0759494344
21
19.7204343871
31
0.0000000000
0
SPLINE
5
3AF
100
AcDbEntity
8
0
100
AcDbSpline
62
0
6
CONTINUOUS
70
0
71
3
72
18
73
14
74
12
42
0.0000001000
43
0.0000001000
44
0.0000000001
12
0.4472051012
22
-0.2235855214
32
0.0000000000
13
0.4999828876
23
0.0000000000
33
0.0000000000
40
0.0000000000
40
0.0000000000
40
0.0000000000
40
0.0000000000
40
0.0124656256
40
0.0445860838
40
0.0956297107
40
0.1648293831
40
0.2504153456
40
0.3512246475
40
0.4645991173
40
0.5889859396
40
0.7212300941
40
0.8592827416
40
1.0000000000
40
1.0000000000
40
1.0000000000
40
1.0000000000
10
-7.7986300160
20
-21.2303623581
30
0.0000000000
10
-7.7967717855
20
-21.2312914026
30
0.0000000000
10
-7.7889185798
20
-21.2305148249
30
0.0000000000
10
-7.7733685545
20
-21.2320968540
30
0.0000000000
10
-7.7477776770
20
-21.2320598274
30
0.0000000000
10
-7.7135633249
20
-21.2328129414
30
0.0000000000
10
-7.6709364737
20
-21.2331975077
30
0.0000000000
10
-7.6209891322
20
-21.2336482727
30
0.0000000000
10
-7.5645602452
20
-21.2339962107
30
0.0000000000
10
-7.5028964942
20
-21.2342855425
30
0.0000000000
10
-7.4371181355
20
-21.2344938126
30
0.0000000000
10
-7.3686183294
20
-21.2346213135
30
0.0000000000
10
-7.3221582421
20
-21.2346496396
30
0.0000000000
10
-7.2987061684
20
-21.2346496396
30
0.0000000000
11
-7.7986300160
21
-21.2303623581
31
0.0000000000
11
-7.7924276515
21
-21.2309755231
31
0.0000000000
11
-7.7763791853
21
-21.2315755539
31
0.0000000000
11
-7.7508646840
21
-21.2321487875
31
0.0000000000
11
-7.7162702080
21
-21.2326863367
31
0.0000000000
11
-7.6734814767
21
-21.2331745678
31
0.0000000000
11
-7.6230804041
21
-21.2336067916
31
0.0000000000
11
-7.5663962833
21
-21.2339716107
31
0.0000000000
11
-7.5042056884
21
-21.2342640681
31
0.0000000000
11
-7.4380862160
21
-21.2344766764
31
0.0000000000
11
-7.3690623762
21
-21.2346062257
31
0.0000000000
11
-7.2987061684
21
-21.2346496396
31
0.0000000000
0
SPLINE
5
3B0
100
AcDbEntity
8
0
100
AcDbSpline
62
0
6
CONTINUOUS
70
0
71
3
72
11
73
7
74
5
42
0.0000001000
43
0.0000001000
44
0.0000000001
12
-0.3127582945
22
0.4423070219
32
0.0000000000
13
-0.2926807401
23
0.4558412408
33
0.0000000000
40
0.0000000000
40
0.0000000000
40
0.0000000000
40
0.0000000000
40
0.2559001112
40
0.5096100791
40
0.7585931600
40
1.0000000000
40
1.0000000000
40
1.0000000000
40
1.0000000000
10
-7.2987061684
20
21.0740391498
30
0.0000000000
10
-7.3253844625
20
21.1117679552
30
0.0000000000
10
-7.3785132159
20
21.1869022809
30
0.0000000000
10
-7.4570874092
20
21.2991073225
30
0.0000000000
10
-7.5330752673
20
21.4099221320
30
0.0000000000
10
-7.5819372120
20
21.4837813680
30
0.0000000000
10
-7.6054889229
20
21.5204624325
30
0.0000000000
11
-7.2987061684
21
21.0740391498
31
0.0000000000
11
-7.3786548217
21
21.1872864899
31
0.0000000000
11
-7.4573902794
21
21.2999361507
31
0.0000000000
11
-7.5335352532
21
21.4112638903
31
0.0000000000
11
-7.6054889229
21
21.5204624325
31
0.0000000000
0
SPLINE
5
3B1
100
AcDbEntity
8
0
100
AcDbSpline
62
0
6
CONTINUOUS
70
0
71
3
72
17
73
13
74
11
42
0.0000001000
43
0.0000001000
44
0.0000000001
12
0.0000000000
22
0.4220147089
32
0.0000000000
13
0.4220147089
23
-0.0000000000
33
0.0000000000
40
0.0000000000
40
0.0000000000
40
0.0000000000
40
0.0000000000
40
0.1163097356
40
0.2303278571
40
0.3412445469
40
0.4475088604
40
0.5491224320
40
0.6456322518
40
0.7382753117
40
0.8272646510
40
0.9144010609
40
1.0000000000
40
1.0000000000
40
1.0000000000
40
1.0000000000
10
8.5353945507
20
-23.6491392421
30
0.0000000000
10
8.5353945507
20
-23.6327777690
30
0.0000000000
10
8.5377845143
20
-23.6003252652
30
0.0000000000
10
8.5483475152
20
-23.5533272532
30
0.0000000000
10
8.5652521658
20
-23.5097213066
30
0.0000000000
10
8.5876542769
20
-23.4706728613
30
0.0000000000
10
8.6145049764
20
-23.4370971715
30
0.0000000000
10
8.6448499278
20
-23.4094174998
30
0.0000000000
10
8.6777296499
20
-23.3878955601
30
0.0000000000
10
8.7124616438
20
-23.3725291299
30
0.0000000000
10
8.7482832840
20
-23.3633438648
30
0.0000000000
10
8.7726302158
20
-23.3613038247
30
0.0000000000
10
8.7846715529
20
-23.3613038247
30
0.0000000000
11
8.5353945507
21
-23.6491392421
31
0.0000000000
11
8.5390169096
21
-23.6001886678
31
0.0000000000
11
8.5496044138
21
-23.5532506059
31
0.0000000000
11
8.5665789676
21
-23.5096283889
31
0.0000000000
11
8.5889556536
21
-23.4707649457
31
0.0000000000
11
8.6157968444
21
-23.4373216717
31
0.0000000000
11
8.6459354615
21
-23.4099267881
31
0.0000000000
11
8.6786820291
21
-23.3885675533
31
0.0000000000
11
8.7130446676
21
-23.3734158919
31
0.0000000000
11
8.7486731288
21
-23.3643134195
31
0.0000000000
11
8.7846715529
21
-23.3613038247
31
0.0000000000
0
SPLINE
5
3B2
100
AcDbEntity
8
0
100
AcDbSpline
62
0
6
CONTINUOUS
70
0
71
3
72
18
73
14
74
12
42
0.0000001000
43
0.0000001000
44
0.0000000001
12
0.0031763781
22
0.3152256661
32
0.0000000000
13
0.3152416691
23
0.0000000000
33
0.0000000000
40
0.0000000000
40
0.0000000000
40
0.0000000000
40
0.0000000000
40
0.0600923894
40
0.1232193774
40
0.1912702092
40
0.2657636629
40
0.3477531865
40
0.4378167491
40
0.5360799495
40
0.6422378908
40
0.7555663097
40
0.8749375201
40
1.0000000000
40
1.0000000000
40
1.0000000000
40
1.0000000000
10
8.5397663847
20
-24.0829916612
30
0.0000000000
10
8.5398300101
20
-24.0766774400
30
0.0000000000
10
8.5414576695
20
-24.0637016970
30
0.0000000000
10
8.5483449366
20
-24.0446647228
30
0.0000000000
10
8.5597153868
20
-24.0261287565
30
0.0000000000
10
8.5755062246
20
-24.0084526800
30
0.0000000000
10
8.5956077144
20
-23.9919676485
30
0.0000000000
10
8.6198497647
20
-23.9770208415
30
0.0000000000
10
8.6479798766
20
-23.9639727128
30
0.0000000000
10
8.6796420479
20
-23.9531948836
30
0.0000000000
10
8.7143617909
20
-23.9450510350
30
0.0000000000
10
8.7516484339
20
-23.9398942560
30
0.0000000000
10
8.7773477477
20
-23.9386540939
30
0.0000000000
10
8.7904893827
20
-23.9386540939
30
0.0000000000
11
8.5397663847
21
-24.0829916612
31
0.0000000000
11
8.5420857253
21
-24.0641905550
31
0.0000000000
11
8.5487532353
21
-24.0454405006
31
0.0000000000
11
8.5598479077
21
-24.0270797765
31
0.0000000000
11
8.5753764046
21
-24.0094633702
31
0.0000000000
11
8.5952677736
21
-23.9929595604
31
0.0000000000
11
8.6193660767
21
-23.9779473853
31
0.0000000000
11
8.6474204395
21
-23.9648132351
31
0.0000000000
11
8.6790721386
21
-23.9539456971
31
0.0000000000
11
8.7138398184
21
-23.9457271763
31
0.0000000000
11
8.7511086951
21
-23.9405207956
31
0.0000000000
11
8.7904893827
21
-23.9386540939
31
0.0000000000
0
SPLINE
5
3B3
100
AcDbEntity
8
0
100
AcDbSpline
62
0
6
CONTINUOUS
70
0
71
3
72
14
73
10
74
8
42
0.0000001000
43
0.0000001000
44
0.0000000001
12
1.3898664147
22
-34.1381698330
32
0.0000000000
13
-0.9896092855
23
-34.1521162105
33
0.0000000000
40
0.0000000000
40
0.0000000000
40
0.0000000000
40
0.0000000000
40
0.1429470933
40
0.2858300563
40
0.4286666522
40
0.5714828493
40
0.7142945250
40
0.8571276621
40
1.0000000000
40
1.0000000000
40
1.0000000000
40
1.0000000000
10
-8.5051603329
20
19.7204343871
30
0.0000000000
10
-8.4389345449
20
18.0937836712
30
0.0000000000
10
-8.3226493196
20
14.8405317542
30
0.0000000000
10
-8.1967646581
20
9.9600723881
30
0.0000000000
10
-8.1194797358
20
5.0800872900
30
0.0000000000
10
-8.0908018298
20
0.2003880173
30
0.0000000000
10
-8.1107330007
20
-4.6793171249
30
0.0000000000
10
-8.1792712671
20
-9.5592159212
30
0.0000000000
10
-8.2573505617
20
-12.8121898649
30
0.0000000000
10
-8.3044798258
20
-14.4386540939
30
0.0000000000
11
-8.5051603329
21
19.7204343871
31
0.0000000000
11
-8.3307135490
21
14.8395559846
31
0.0000000000
11
-8.2048480420
21
9.9593750813
31
0.0000000000
11
-8.1275765187
21
5.0797673208
31
0.0000000000
11
-8.0989028948
21
0.2003289814
31
0.0000000000
11
-8.1188305887
21
-4.6789984356
31
0.0000000000
11
-8.1873584605
21
-9.5586186343
31
0.0000000000
11
-8.3044798258
21
-14.4386540939
31
0.0000000000
0
SPLINE
5
3B4
100
AcDbEntity
8
0
100
AcDbSpline
62
0
6
CONTINUOUS
70
0
71
3
72
11
73
7
74
5
42
0.0000001000
43
0.0000001000
44
0.0000000001
12
-0.2926807401
22
-0.4558412408
32
0.0000000000
13
-0.3127582945
23
-0.4423070219
33
0.0000000000
40
0.0000000000
40
0.0000000000
40
0.0000000000
40
0.0000000000
40
0.2414068400
40
0.4903899209
40
0.7440998888
40
1.0000000000
40
1.0000000000
40
1.0000000000
40
1.0000000000
10
8.1762780244
20
21.5204624325
30
0.0000000000
10
8.1527263135
20
21.4837813680
30
0.0000000000
10
8.1038643688
20
21.4099221320
30
0.0000000000
10
8.0278765107
20
21.2991073225
30
0.0000000000
10
7.9493023173
20
21.1869022809
30
0.0000000000
10
7.8961735640
20
21.1117679552
30
0.0000000000
10
7.8694952699
20
21.0740391498
30
0.0000000000
11
8.1762780244
21
21.5204624325
31
0.0000000000
11
8.1043243547
21
21.4112638903
31
0.0000000000
11
8.0281793809
21
21.2999361507
31
0.0000000000
11
7.9494439232
21
21.1872864899
31
0.0000000000
11
7.8694952699
21
21.0740391498
31
0.0000000000
0
SPLINE
5
3B5
100
AcDbEntity
8
0
100
AcDbSpline
62
0
6
CONTINUOUS
70
0
71
3
72
18
73
14
74
12
42
0.0000001000
43
0.0000001000
44
0.0000000001
12
0.3145151746
22
0.0000000000
32
0.0000000000
13
0.0031690579
23
-0.3144992085
33
0.0000000000
40
0.0000000000
40
0.0000000000
40
0.0000000000
40
0.0000000000
40
0.1233645867
40
0.2431315365
40
0.3566833685
40
0.4629485722
40
0.5612613068
40
0.6513651559
40
0.7334201413
40
0.8080244445
40
0.8762413066
40
0.9395978155
40
1.0000000000
40
1.0000000000
40
1.0000000000
40
1.0000000000
10
10.6810269475
20
-23.9386540939
30
0.0000000000
10
10.6939602924
20
-23.9386540939
30
0.0000000000
10
10.7194609290
20
-23.9399434445
30
0.0000000000
10
10.7565484244
20
-23.9450702625
30
0.0000000000
10
10.7912594616
20
-23.9532283632
30
0.0000000000
10
10.8228829052
20
-23.9640036468
30
0.0000000000
10
10.8509640611
20
-23.9770364388
30
0.0000000000
10
10.8751636080
20
-23.9919576602
30
0.0000000000
10
10.8952399425
20
-24.0084142835
30
0.0000000000
10
10.9110271571
20
-24.0260682098
30
0.0000000000
10
10.9224126879
20
-24.0445985626
30
0.0000000000
10
10.9293234709
20
-24.0636568103
30
0.0000000000
10
10.9309589107
20
-24.0766595148
30
0.0000000000
10
10.9310227167
20
-24.0829916612
30
0.0000000000
11
10.6810269475
21
-23.9386540939
31
0.0000000000
11
10.7197815933
21
-23.9405302902
31
0.0000000000
11
10.7570863142
21
-23.9457528788
31
0.0000000000
11
10.7918393204
21
-23.9539810153
31
0.0000000000
11
10.8234464911
21
-23.9648446301
31
0.0000000000
11
10.8514476821
21
-23.9779607299
31
0.0000000000
11
10.8755011607
21
-23.9929450772
31
0.0000000000
11
10.8953667061
21
-24.0094189695
31
0.0000000000
11
10.9108917223
21
-24.0270127715
31
0.0000000000
11
10.9220011746
21
-24.0453678068
31
0.0000000000
11
10.9286908508
21
-24.0641379150
31
0.0000000000
11
10.9310227167
21
-24.0829916612
31
0.0000000000
0
SPLINE
5
3B6
100
AcDbEntity
8
0
100
AcDbSpline
62
0
6
CONTINUOUS
70
0
71
3
72
17
73
13
74
11
42
0.0000001000
43
0.0000001000
44
0.0000000001
12
0.4220147089
22
0.0000000000
32
0.0000000000
13
0.0000000000
23
-0.4220147089
33
0.0000000000
40
0.0000000000
40
0.0000000000
40
0.0000000000
40
0.0000000000
40
0.0855989391
40
0.1727353490
40
0.2617246883
40
0.3543677482
40
0.4508775680
40
0.5524911396
40
0.6587554531
40
0.7696721429
40
0.8836902644
40
1.0000000000
40
1.0000000000
40
1.0000000000
40
1.0000000000
10
10.6861175486
20
-23.3613038247
30
0.0000000000
10
10.6981588857
20
-23.3613038247
30
0.0000000000
10
10.7225058175
20
-23.3633438648
30
0.0000000000
10
10.7583274577
20
-23.3725291299
30
0.0000000000
10
10.7930594516
20
-23.3878955601
30
0.0000000000
10
10.8259391737
20
-23.4094174998
30
0.0000000000
10
10.8562841251
20
-23.4370971715
30
0.0000000000
10
10.8831348246
20
-23.4706728613
30
0.0000000000
10
10.9055369357
20
-23.5097213066
30
0.0000000000
10
10.9224415863
20
-23.5533272532
30
0.0000000000
10
10.9330045872
20
-23.6003252652
30
0.0000000000
10
10.9353945507
20
-23.6327777690
30
0.0000000000
10
10.9353945507
20
-23.6491392421
30
0.0000000000
11
10.6861175486
21
-23.3613038247
31
0.0000000000
11
10.7221159727
21
-23.3643134195
31
0.0000000000
11
10.7577444339
21
-23.3734158919
31
0.0000000000
11
10.7921070723
21
-23.3885675533
31
0.0000000000
11
10.8248536400
21
-23.4099267881
31
0.0000000000
11
10.8549922571
21
-23.4373216717
31
0.0000000000
11
10.8818334479
21
-23.4707649457
31
0.0000000000
11
10.9042101338
21
-23.5096283889
31
0.0000000000
11
10.9211846877
21
-23.5532506059
31
0.0000000000
11
10.9317721919
21
-23.6001886678
31
0.0000000000
11
10.9353945507
21
-23.6491392421
31
0.0000000000
0
SPLINE
5
3B7
100
AcDbEntity
8
0
100
AcDbSpline
62
0
6
CONTINUOUS
70
0
71
3
72
18
73
14
74
12
42
0.0000001000
43
0.0000001000
44
0.0000000001
12
0.4450903692
22
-0.4810902355
32
0.0000000000
13
0.0252793885
23
-0.6549154174
33
0.0000000000
40
0.0000000000
40
0.0000000000
40
0.0000000000
40
0.0000000000
40
0.1610700427
40
0.3161797675
40
0.4596391690
40
0.5858983805
40
0.6937258751
40
0.7831374497
40
0.8554530788
40
0.9120560403
40
0.9545072575
40
0.9834021834
40
1.0000000000
40
1.0000000000
40
1.0000000000
40
1.0000000000
10
4.2133645384
20
-23.4950119086
30
0.0000000000
10
4.2372614467
20
-23.5208416502
30
0.0000000000
10
4.2841711753
20
-23.5715451543
30
0.0000000000
10
4.3522531651
20
-23.6453576249
30
0.0000000000
10
4.4149610309
20
-23.7137809202
30
0.0000000000
10
4.4703718569
20
-23.7748778098
30
0.0000000000
10
4.5174463137
20
-23.8275963285
30
0.0000000000
10
4.5561676459
20
-23.8719592425
30
0.0000000000
10
4.5869514448
20
-23.9084191333
30
0.0000000000
10
4.6103367699
20
-23.9376094670
30
0.0000000000
10
4.6270034519
20
-23.9601912628
30
0.0000000000
10
4.6370191057
20
-23.9763797887
30
0.0000000000
10
4.6411874226
20
-23.9858041299
30
0.0000000000
10
4.6413272835
20
-23.9894275186
30
0.0000000000
11
4.2133645384
21
-23.4950119086
31
0.0000000000
11
4.2850354850
21
-23.5725194269
31
0.0000000000
11
4.3539374810
21
-23.6472666550
31
0.0000000000
11
4.4174356744
21
-23.7166095928
31
0.0000000000
11
4.4729919539
21
-23.7779380125
31
0.0000000000
11
4.5200160495
21
-23.8306926396
31
0.0000000000
11
4.5584923380
21
-23.8748922831
31
0.0000000000
11
4.5889829005
21
-23.9111785877
31
0.0000000000
11
4.6120673653
21
-23.9402190957
31
0.0000000000
11
4.6283557262
21
-23.9627754634
31
0.0000000000
11
4.6380110370
21
-23.9790670617
31
0.0000000000
11
4.6413272835
21
-23.9894275186
31
0.0000000000
0
SPLINE
5
3B8
100
AcDbEntity
8
0
100
AcDbSpline
62
0
6
CONTINUOUS
70
0
71
3
72
11
73
7
74
5
42
0.0000001000
43
0.0000001000
44
0.0000000001
12
0.2926807401
22
0.4558412408
32
0.0000000000
13
0.3127582945
23
0.4423070219
33
0.0000000000
40
0.0000000000
40
0.0000000000
40
0.0000000000
40
0.0000000000
40
0.2414068400
40
0.4903899209
40
0.7440998888
40
1.0000000000
40
1.0000000000
40
1.0000000000
40
1.0000000000
10
-7.6054889229
20
-21.9977706202
30
0.0000000000
10
-7.5819372120
20
-21.9610895557
30
0.0000000000
10
-7.5330752673
20
-21.8872303198
30
0.0000000000
10
-7.4570874092
20
-21.7764155103
30
0.0000000000
10
-7.3785132159
20
-21.6642104687
30
0.0000000000
10
-7.3253844625
20
-21.5890761430
30
0.0000000000
10
-7.2987061684
20
-21.5513473376
30
0.0000000000
11
-7.6054889229
21
-21.9977706202
31
0.0000000000
11
-7.5335352532
21
-21.8885720781
31
0.0000000000
11
-7.4573902794
21
-21.7772443385
31
0.0000000000
11
-7.3786548217
21
-21.6645946776
31
0.0000000000
11
-7.2987061684
21
-21.5513473376
31
0.0000000000
0
SPLINE
5
3B9
100
AcDbEntity
8
0
100
AcDbSpline
62
0
6
CONTINUOUS
70
0
71
3
72
11
73
7
74
5
42
0.0000001000
43
0.0000001000
44
0.0000000001
12
0.3127582945
22
-0.4423070219
32
0.0000000000
13
0.2926807401
23
-0.4558412408
33
0.0000000000
40
0.0000000000
40
0.0000000000
40
0.0000000000
40
0.0000000000
40
0.2559001112
40
0.5096100791
40
0.7585931600
40
1.0000000000
40
1.0000000000
40
1.0000000000
40
1.0000000000
10
7.8694952699
20
-21.5513473376
30
0.0000000000
10
7.8961735640
20
-21.5890761430
30
0.0000000000
10
7.9493023173
20
-21.6642104687
30
0.0000000000
10
8.0278765107
20
-21.7764155103
30
0.0000000000
10
8.1038643688
20
-21.8872303198
30
0.0000000000
10
8.1527263135
20
-21.9610895557
30
0.0000000000
10
8.1762780244
20
-21.9977706202
30
0.0000000000
11
7.8694952699
21
-21.5513473376
31
0.0000000000
11
7.9494439232
21
-21.6645946776
31
0.0000000000
11
8.0281793809
21
-21.7772443385
31
0.0000000000
11
8.1043243547
21
-21.8885720781
31
0.0000000000
11
8.1762780244
21
-21.9977706202
31
0.0000000000
0
SPLINE
5
3BA
100
AcDbEntity
8
0
100
AcDbSpline
62
0
6
CONTINUOUS
70
0
71
3
72
10
73
6
74
4
42
0.0000001000
43
0.0000001000
44
0.0000000001
12
0.0000000000
22
0.0568885977
32
0.0000000000
13
0.0345499785
23
0.0453371196
33
0.0000000000
40
0.0000000000
40
0.0000000000
40
0.0000000000
40
0.0000000000
40
0.1861943933
40
0.5144270595
40
1.0000000000
40
1.0000000000
40
1.0000000000
40
1.0000000000
10
3.7853945507
20
-23.9897963842
30
0.0000000000
10
3.7853945507
20
-23.9862656049
30
0.0000000000
10
3.7894151400
20
-23.9769268404
30
0.0000000000
10
3.7992138351
20
-23.9609325315
30
0.0000000000
10
3.8083966708
20
-23.9484403108
30
0.0000000000
10
3.8139888490
20
-23.9411021514
30
0.0000000000
11
3.7853945507
21
-23.9897963842
31
0.0000000000
11
3.7884386572
21
-23.9796508907
31
0.0000000000
11
3.7978687158
21
-23.9635343286
31
0.0000000000
11
3.8139888490
21
-23.9411021514
31
0.0000000000
0
SPLINE
5
3BB
100
AcDbEntity
8
0
100
AcDbSpline
62
0
6
CONTINUOUS
70
0
71
3
72
15
73
11
74
9
42
0.0000001000
43
0.0000001000
44
0.0000000001
12
0.3637125883
22
0.4772703726
32
0.0000000000
13
0.4067012166
23
0.4395960856
33
0.0000000000
40
0.0000000000
40
0.0000000000
40
0.0000000000
40
0.0000000000
40
0.0616998703
40
0.1406759951
40
0.2384793425
40
0.3565950173
40
0.4950827157
40
0.6526201864
40
0.8230447380
40
1.0000000000
40
1.0000000000
40
1.0000000000
40
1.0000000000
10
3.8139888490
20
-23.9411021514
30
0.0000000000
10
3.8214691889
20
-23.9312863113
30
0.0000000000
10
3.8389856401
20
-23.9093776152
30
0.0000000000
10
3.8696920411
20
-23.8729688527
30
0.0000000000
10
3.9083855454
20
-23.8286102426
30
0.0000000000
10
3.9555006662
20
-23.7758277278
30
0.0000000000
10
4.0110342857
20
-23.7145842860
30
0.0000000000
10
4.0739445825
20
-23.6459345486
30
0.0000000000
10
4.1422817567
20
-23.5718436278
30
0.0000000000
10
4.1893752316
20
-23.5209415221
30
0.0000000000
10
4.2133645384
20
-23.4950119086
30
0.0000000000
11
3.8139888490
21
-23.9411021514
31
0.0000000000
11
3.8369492832
21
-23.9121512257
31
0.0000000000
11
3.8673543727
21
-23.8759225604
31
0.0000000000
11
3.9057969742
21
-23.8317316472
31
0.0000000000
11
3.9528550660
21
-23.7789189345
31
0.0000000000
11
4.0085301689
21
-23.7174471013
31
0.0000000000
11
4.0722422762
21
-23.6478642188
31
0.0000000000
11
4.1414166287
21
-23.5728192575
31
0.0000000000
11
4.2133645384
21
-23.4950119086
31
0.0000000000
0
SPLINE
5
3BC
100
AcDbEntity
8
0
100
AcDbSpline
62
0
6
CONTINUOUS
70
0
71
3
72
28
73
24
74
22
42
0.0000001000
43
0.0000001000
44
0.0000000001
12
0.0000000000
22
0.8560454358
32
0.0000000000
13
0.4748439350
23
-0.7122759476
33
0.0000000000
40
0.0000000000
40
0.0000000000
40
0.0000000000
40
0.0000000000
40
0.0056001076
40
0.0221878247
40
0.0493779407
40
0.0866467356
40
0.1330293372
40
0.1876956588
40
0.2491587429
40
0.3163869080
40
0.3874909704
40
0.4613265883
40
0.5357849589
40
0.6096852126
40
0.6809167069
40
0.7483330403
40
0.8100397611
40
0.8650010733
40
0.9117220307
40
0.9493664272
40
0.9769597041
40
0.9939700659
40
1.0000000000
40
1.0000000000
40
1.0000000000
40
1.0000000000
10
3.7853945507
20
-22.5725739891
30
0.0000000000
10
3.7853945507
20
-22.5709760069
30
0.0000000000
10
3.7955107376
20
-22.5735526101
30
0.0000000000
10
3.8059743295
20
-22.5702650573
30
0.0000000000
10
3.8311182360
20
-22.5713671926
30
0.0000000000
10
3.8618758725
20
-22.5702293407
30
0.0000000000
10
3.9016664769
20
-22.5700614496
30
0.0000000000
10
3.9479265275
20
-22.5696055544
30
0.0000000000
10
4.0002821423
20
-22.5693259220
30
0.0000000000
10
4.0572820213
20
-22.5690797717
30
0.0000000000
10
4.1178268104
20
-22.5689199081
30
0.0000000000
10
4.1804307364
20
-22.5688363678
30
0.0000000000
10
4.2438338979
20
-22.5688348163
30
0.0000000000
10
4.3064931152
20
-22.5689150566
30
0.0000000000
10
4.3671445945
20
-22.5690724057
30
0.0000000000
10
4.4243102853
20
-22.5693139654
30
0.0000000000
10
4.4768530275
20
-22.5695966808
30
0.0000000000
10
4.5234263781
20
-22.5700328527
30
0.0000000000
10
4.5633214416
20
-22.5702493875
30
0.0000000000
10
4.5948876001
20
-22.5712532126
30
0.0000000000
10
4.6192391464
20
-22.5704516331
30
0.0000000000
10
4.6320691078
20
-22.5732377676
30
0.0000000000
10
4.6403728576
20
-22.5711206018
30
0.0000000000
10
4.6413272835
20
-22.5725522608
30
0.0000000000
11
3.7853945507
21
-22.5725739891
31
0.0000000000
11
3.7901561948
21
-22.5720184084
31
0.0000000000
11
3.8043456287
21
-22.5714748941
31
0.0000000000
11
3.8276158282
21
-22.5709564260
31
0.0000000000
11
3.8595159502
21
-22.5704731964
31
0.0000000000
11
3.8992191753
21
-22.5700376213
31
0.0000000000
11
3.9460144872
21
-22.5696575662
31
0.0000000000
11
3.9986287413
21
-22.5693433167
31
0.0000000000
11
4.0561785916
21
-22.5691001817
31
0.0000000000
11
4.1170466754
21
-22.5689349670
31
0.0000000000
11
4.1802532626
21
-22.5688503464
31
0.0000000000
11
4.2439930108
21
-22.5688487284
31
0.0000000000
11
4.3072549333
21
-22.5689301387
31
0.0000000000
11
4.3682321134
21
-22.5690922603
31
0.0000000000
11
4.4259430580
21
-22.5693324694
31
0.0000000000
11
4.4787658957
21
-22.5696440424
31
0.0000000000
11
4.5258137604
21
-22.5700217152
31
0.0000000000
11
4.5658066728
21
-22.5704552671
31
0.0000000000
11
4.5980283876
21
-22.5709368688
31
0.0000000000
11
4.6216438218
21
-22.5714541467
31
0.0000000000
11
4.6361953447
21
-22.5719969313
31
0.0000000000
11
4.6413272835
21
-22.5725522608
31
0.0000000000
0
SPLINE
5
3BD
100
AcDbEntity
8
0
100
AcDbSpline
62
0
6
CONTINUOUS
70
0
71
3
72
18
73
14
74
12
42
0.0000001000
43
0.0000001000
44
0.0000000001
12
0.4453347054
22
-0.4813543341
32
0.0000000000
13
0.0000000000
23
-0.6557629105
33
0.0000000000
40
0.0000000000
40
0.0000000000
40
0.0000000000
40
0.0000000000
40
0.1614952952
40
0.3171097781
40
0.4609917901
40
0.5874696091
40
0.6953300589
40
0.7846477581
40
0.8567778755
40
0.9131578401
40
0.9553196044
40
0.9838298659
40
1.0000000000
40
1.0000000000
40
1.0000000000
40
1.0000000000
10
-3.6425754369
20
-23.4950119086
30
0.0000000000
10
-3.6186022837
20
-23.5209240620
30
0.0000000000
10
-3.5715287440
20
-23.5718046218
30
0.0000000000
10
-3.5032096887
20
-23.6458756413
30
0.0000000000
10
-3.4403006355
20
-23.7145235069
30
0.0000000000
10
-3.3847656459
20
-23.7757677136
30
0.0000000000
10
-3.3376507631
20
-23.8285488569
30
0.0000000000
10
-3.2989570377
20
-23.8729060253
30
0.0000000000
10
-3.2682441612
20
-23.9093198994
30
0.0000000000
10
-3.2449723241
20
-23.9384235740
30
0.0000000000
10
-3.2284442702
20
-23.9609033414
30
0.0000000000
10
-3.2186334010
20
-23.9769126235
30
0.0000000000
10
-3.2146054493
20
-23.9862617928
30
0.0000000000
10
-3.2146054493
20
-23.9897963842
30
0.0000000000
11
-3.6425754369
21
-23.4950119086
31
0.0000000000
11
-3.5706759471
21
-23.5727668396
31
0.0000000000
11
-3.5015127706
21
-23.6477993874
31
0.0000000000
11
-3.4377954492
21
-23.7173874234
31
0.0000000000
11
-3.3821181280
21
-23.7788609167
31
0.0000000000
11
-3.3350631504
21
-23.8316689351
31
0.0000000000
11
-3.2966200858
21
-23.8758585299
31
0.0000000000
11
-3.2662113769
21
-23.9120886915
31
0.0000000000
11
-3.2432357165
21
-23.9410548728
31
0.0000000000
11
-3.2270988632
21
-23.9635052753
31
0.0000000000
11
-3.2176544981
21
-23.9796404339
31
0.0000000000
11
-3.2146054493
21
-23.9897963842
31
0.0000000000
0
SPLINE
5
3BE
100
AcDbEntity
8
0
100
AcDbSpline
62
0
6
CONTINUOUS
70
0
71
3
72
18
73
14
74
12
42
0.0000001000
43
0.0000001000
44
0.0000000001
12
0.0252793929
22
0.6549155310
32
0.0000000000
13
0.4450904464
23
0.4810903189
33
0.0000000000
40
0.0000000000
40
0.0000000000
40
0.0000000000
40
0.0000000000
40
0.0165806563
40
0.0454411065
40
0.0878560839
40
0.1444275358
40
0.2167384756
40
0.3061519021
40
0.4139889825
40
0.5402449784
40
0.6836932136
40
0.8388260589
40
1.0000000000
40
1.0000000000
40
1.0000000000
40
1.0000000000
10
-4.0705381820
20
-23.9894275186
30
0.0000000000
10
-4.0703984657
20
-23.9858078755
30
0.0000000000
10
-4.0662372373
20
-23.9763935712
30
0.0000000000
10
-4.0562334721
20
-23.9602196406
30
0.0000000000
10
-4.0395823363
20
-23.9376543857
30
0.0000000000
10
-4.0162085105
20
-23.9084750055
30
0.0000000000
10
-3.9854307595
20
-23.8720198355
30
0.0000000000
10
-3.9467092438
20
-23.8276551001
30
0.0000000000
10
-3.8996340995
20
-23.7749347713
30
0.0000000000
10
-3.8442243141
20
-23.7138383317
30
0.0000000000
10
-3.7815153875
20
-23.6454133972
30
0.0000000000
10
-3.7134163466
20
-23.5715821975
30
0.0000000000
10
-3.6664877641
20
-23.5208583162
30
0.0000000000
10
-3.6425754369
20
-23.4950119086
30
0.0000000000
11
-4.0705381820
21
-23.9894275186
31
0.0000000000
11
-4.0672268865
21
-23.9790772841
31
0.0000000000
11
-4.0575854764
21
-23.9628037095
31
0.0000000000
11
-4.0413132706
21
-23.9402649673
31
0.0000000000
11
-4.0182434747
21
-23.9112391719
31
0.0000000000
11
-3.9877562049
21
-23.8749541043
31
0.0000000000
11
-3.9492799837
21
-23.8307527795
31
0.0000000000
11
-3.9022522615
21
-23.7779929524
31
0.0000000000
11
-3.8466977544
21
-23.7166657515
31
0.0000000000
11
-3.7832047442
21
-23.6473279684
31
0.0000000000
11
-3.7142926015
21
-23.5725694606
31
0.0000000000
11
-3.6425754369
21
-23.4950119086
31
0.0000000000
0
SPLINE
5
3BF
100
AcDbEntity
8
0
100
AcDbSpline
62
0
6
CONTINUOUS
70
0
71
3
72
28
73
24
74
22
42
0.0000001000
43
0.0000001000
44
0.0000000001
12
0.4748439350
22
0.7122759476
32
0.0000000000
13
-0.0000000000
23
-0.8560454358
33
0.0000000000
40
0.0000000000
40
0.0000000000
40
0.0000000000
40
0.0000000000
40
0.0060299341
40
0.0230402959
40
0.0506335728
40
0.0882779693
40
0.1349989267
40
0.1899602389
40
0.2516669597
40
0.3190832931
40
0.3903147874
40
0.4642150411
40
0.5386734117
40
0.6125090296
40
0.6836130920
40
0.7508412571
40
0.8123043412
40
0.8669706628
40
0.9133532644
40
0.9506220593
40
0.9778121753
40
0.9943998924
40
1.0000000000
40
1.0000000000
40
1.0000000000
40
1.0000000000
10
-4.0705381820
20
-22.5725522608
30
0.0000000000
10
-4.0695837561
20
-22.5711206018
30
0.0000000000
10
-4.0612800063
20
-22.5732377676
30
0.0000000000
10
-4.0484500449
20
-22.5704516331
30
0.0000000000
10
-4.0240984986
20
-22.5712532126
30
0.0000000000
10
-3.9925323401
20
-22.5702493875
30
0.0000000000
10
-3.9526372766
20
-22.5700328527
30
0.0000000000
10
-3.9060639260
20
-22.5695966808
30
0.0000000000
10
-3.8535211838
20
-22.5693139654
30
0.0000000000
10
-3.7963554930
20
-22.5690724057
30
0.0000000000
10
-3.7357040138
20
-22.5689150566
30
0.0000000000
10
-3.6730447964
20
-22.5688348163
30
0.0000000000
10
-3.6096416349
20
-22.5688363678
30
0.0000000000
10
-3.5470377089
20
-22.5689199081
30
0.0000000000
10
-3.4864929198
20
-22.5690797717
30
0.0000000000
10
-3.4294930408
20
-22.5693259220
30
0.0000000000
10
-3.3771374260
20
-22.5696055544
30
0.0000000000
10
-3.3308773754
20
-22.5700614496
30
0.0000000000
10
-3.2910867710
20
-22.5702293407
30
0.0000000000
10
-3.2603291345
20
-22.5713671926
30
0.0000000000
10
-3.2351852280
20
-22.5702650573
30
0.0000000000
10
-3.2247216361
20
-22.5735526101
30
0.0000000000
10
-3.2146054493
20
-22.5709760069
30
0.0000000000
10
-3.2146054493
20
-22.5725739891
30
0.0000000000
11
-4.0705381820
21
-22.5725522608
31
0.0000000000
11
-4.0654062432
21
-22.5719969313
31
0.0000000000
11
-4.0508547203
21
-22.5714541467
31
0.0000000000
11
-4.0272392862
21
-22.5709368688
31
0.0000000000
11
-3.9950175713
21
-22.5704552671
31
0.0000000000
11
-3.9550246589
21
-22.5700217152
31
0.0000000000
11
-3.9079767942
21
-22.5696440424
31
0.0000000000
11
-3.8551539565
21
-22.5693324694
31
0.0000000000
11
-3.7974430119
21
-22.5690922603
31
0.0000000000
11
-3.7364658318
21
-22.5689301387
31
0.0000000000
11
-3.6732039093
21
-22.5688487284
31
0.0000000000
11
-3.6094641611
21
-22.5688503464
31
0.0000000000
11
-3.5462575739
21
-22.5689349670
31
0.0000000000
11
-3.4853894901
21
-22.5691001817
31
0.0000000000
11
-3.4278396398
21
-22.5693433167
31
0.0000000000
11
-3.3752253857
21
-22.5696575662
31
0.0000000000
11
-3.3284300739
21
-22.5700376213
31
0.0000000000
11
-3.2887268487
21
-22.5704731964
31
0.0000000000
11
-3.2568267267
21
-22.5709564260
31
0.0000000000
11
-3.2335565272
21
-22.5714748941
31
0.0000000000
11
-3.2193670933
21
-22.5720184084
31
0.0000000000
11
-3.2146054493
21
-22.5725739891
31
0.0000000000
0
SPLINE
5
3C0
100
AcDbEntity
8
0
100
AcDbSpline
62
0
6
CONTINUOUS
70
0
71
3
72
18
73
14
74
12
42
0.0000001000
43
0.0000001000
44
0.0000000001
12
-0.4453347138
22
0.4813543431
32
0.0000000000
13
0.0000000000
23
0.6557629228
33
0.0000000000
40
0.0000000000
40
0.0000000000
40
0.0000000000
40
0.0000000000
40
0.1612016661
40
0.3168616821
40
0.4607450366
40
0.5870767765
40
0.6948071043
40
0.7840907429
40
0.8562933587
40
0.9129036648
40
0.9552698300
40
0.9838485666
40
1.0000000000
40
1.0000000000
40
1.0000000000
40
1.0000000000
10
4.2133645384
20
23.0177037208
30
0.0000000000
10
4.1894349725
20
23.0435687615
30
0.0000000000
10
4.1423982636
20
23.0944095175
30
0.0000000000
10
4.0741154685
20
23.1684406072
30
0.0000000000
10
4.0112205766
20
23.2370720379
30
0.0000000000
10
3.9557250243
20
23.2982709057
30
0.0000000000
10
3.9086533566
20
23.3509996917
30
0.0000000000
10
3.8699692647
20
23.3953386835
30
0.0000000000
10
3.8392133437
20
23.4317930558
30
0.0000000000
10
3.8158657669
20
23.4609779744
30
0.0000000000
10
3.7992670529
20
23.4835429135
30
0.0000000000
10
3.7894241260
20
23.4995976024
30
0.0000000000
10
3.7853945507
20
23.5089576927
30
0.0000000000
10
3.7853945507
20
23.5124881964
30
0.0000000000
11
4.2133645384
21
23.0177037208
31
0.0000000000
11
4.1415957007
21
23.0953172122
31
0.0000000000
11
4.0724119726
21
23.1703714275
31
0.0000000000
11
4.0086935360
21
23.2399596384
31
0.0000000000
11
3.9530794617
21
23.3013611739
31
0.0000000000
11
3.9060790207
21
23.3541034998
31
0.0000000000
11
3.8676467497
21
23.3982728807
31
0.0000000000
11
3.8372017826
21
23.4345346786
31
0.0000000000
11
3.8141257594
21
23.4636140495
31
0.0000000000
11
3.7979059739
21
23.4861699133
31
0.0000000000
11
3.7884383000
21
23.5023434589
31
0.0000000000
11
3.7853945507
21
23.5124881964
31
0.0000000000
0
SPLINE
5
3C1
100
AcDbEntity
8
0
100
AcDbSpline
62
0
6
CONTINUOUS
70
0
71
3
72
18
73
14
74
12
42
0.0000001000
43
0.0000001000
44
0.0000000001
12
-0.0252793934
22
-0.6549155442
32
0.0000000000
13
-0.4450904554
23
-0.4810903286
33
0.0000000000
40
0.0000000000
40
0.0000000000
40
0.0000000000
40
0.0000000000
40
0.0165612013
40
0.0454873726
40
0.0880998360
40
0.1448866598
40
0.2172643667
40
0.3066417466
40
0.4143507724
40
0.5404648439
40
0.6839186683
40
0.8391027189
40
1.0000000000
40
1.0000000000
40
1.0000000000
40
1.0000000000
10
4.6413272835
20
23.5121193308
30
0.0000000000
10
4.6411877311
20
23.5085039348
30
0.0000000000
10
4.6370250126
20
23.4990794818
30
0.0000000000
10
4.6269905057
20
23.4828619719
30
0.0000000000
10
4.6102721868
20
23.4602158717
30
0.0000000000
10
4.5868267925
20
23.4309596848
30
0.0000000000
10
4.5560095423
20
23.3944675533
30
0.0000000000
10
4.5172987240
20
23.3501216941
30
0.0000000000
10
4.4702663195
20
23.2974528540
30
0.0000000000
10
4.4148945110
20
23.2363999463
30
0.0000000000
10
4.3521977117
20
23.1679891236
30
0.0000000000
10
4.2841309511
20
23.0941934929
30
0.0000000000
10
4.2372358198
20
23.0435057628
30
0.0000000000
10
4.2133645384
20
23.0177037208
30
0.0000000000
11
4.6413272835
21
23.5121193308
31
0.0000000000
11
4.6380215997
21
23.5017806885
31
0.0000000000
11
4.6283577665
21
23.4854703323
31
0.0000000000
11
4.6120054458
21
23.4628297897
31
0.0000000000
11
4.5888417645
21
23.4336983050
31
0.0000000000
11
4.5583210401
21
23.3973841906
31
0.0000000000
11
4.5198567381
21
23.3532038112
31
0.0000000000
11
4.4728828075
21
23.3005084636
31
0.0000000000
11
4.4173897941
21
23.2392510636
31
0.0000000000
11
4.3538938459
21
23.1699110013
31
0.0000000000
11
4.2849586684
21
23.0951280809
31
0.0000000000
11
4.2133645384
21
23.0177037208
31
0.0000000000
0
SPLINE
5
3C2
100
AcDbEntity
8
0
100
AcDbSpline
62
0
6
CONTINUOUS
70
0
71
3
72
28
73
24
74
22
42
0.0000001000
43
0.0000001000
44
0.0000000001
12
-0.4748439350
22
-0.7122759476
32
0.0000000000
13
0.0000000000
23
0.8560454358
33
0.0000000000
40
0.0000000000
40
0.0000000000
40
0.0000000000
40
0.0000000000
40
0.0060299341
40
0.0230402959
40
0.0506335728
40
0.0882779693
40
0.1349989267
40
0.1899602389
40
0.2516669597
40
0.3190832931
40
0.3903147874
40
0.4642150411
40
0.5386734117
40
0.6125090296
40
0.6836130920
40
0.7508412571
40
0.8123043412
40
0.8669706628
40
0.9133532644
40
0.9506220593
40
0.9778121753
40
0.9943998924
40
1.0000000000
40
1.0000000000
40
1.0000000000
40
1.0000000000
10
4.6413272835
20
22.0952440730
30
0.0000000000
10
4.6403728576
20
22.0938124140
30
0.0000000000
10
4.6320691078
20
22.0959295798
30
0.0000000000
10
4.6192391464
20
22.0931434454
30
0.0000000000
10
4.5948876001
20
22.0939450248
30
0.0000000000
10
4.5633214416
20
22.0929411998
30
0.0000000000
10
4.5234263781
20
22.0927246649
30
0.0000000000
10
4.4768530275
20
22.0922884930
30
0.0000000000
10
4.4243102853
20
22.0920057776
30
0.0000000000
10
4.3671445945
20
22.0917642179
30
0.0000000000
10
4.3064931152
20
22.0916068688
30
0.0000000000
10
4.2438338979
20
22.0915266285
30
0.0000000000
10
4.1804307364
20
22.0915281800
30
0.0000000000
10
4.1178268104
20
22.0916117203
30
0.0000000000
10
4.0572820213
20
22.0917715839
30
0.0000000000
10
4.0002821423
20
22.0920177342
30
0.0000000000
10
3.9479265275
20
22.0922973666
30
0.0000000000
10
3.9016664769
20
22.0927532619
30
0.0000000000
10
3.8618758725
20
22.0929211529
30
0.0000000000
10
3.8311182360
20
22.0940590048
30
0.0000000000
10
3.8059743295
20
22.0929568695
30
0.0000000000
10
3.7955107376
20
22.0962444224
30
0.0000000000
10
3.7853945507
20
22.0936678191
30
0.0000000000
10
3.7853945507
20
22.0952658013
30
0.0000000000
11
4.6413272835
21
22.0952440730
31
0.0000000000
11
4.6361953447
21
22.0946887435
31
0.0000000000
11
4.6216438218
21
22.0941459589
31
0.0000000000
11
4.5980283876
21
22.0936286810
31
0.0000000000
11
4.5658066728
21
22.0931470793
31
0.0000000000
11
4.5258137604
21
22.0927135275
31
0.0000000000
11
4.4787658957
21
22.0923358546
31
0.0000000000
11
4.4259430580
21
22.0920242817
31
0.0000000000
11
4.3682321134
21
22.0917840726
31
0.0000000000
11
4.3072549333
21
22.0916219509
31
0.0000000000
11
4.2439930108
21
22.0915405406
31
0.0000000000
11
4.1802532626
21
22.0915421586
31
0.0000000000
11
4.1170466754
21
22.0916267792
31
0.0000000000
11
4.0561785916
21
22.0917919939
31
0.0000000000
11
3.9986287413
21
22.0920351289
31
0.0000000000
11
3.9460144872
21
22.0923493784
31
0.0000000000
11
3.8992191753
21
22.0927294336
31
0.0000000000
11
3.8595159502
21
22.0931650086
31
0.0000000000
11
3.8276158282
21
22.0936482382
31
0.0000000000
11
3.8043456287
21
22.0941667064
31
0.0000000000
11
3.7901561948
21
22.0947102206
31
0.0000000000
11
3.7853945507
21
22.0952658013
31
0.0000000000
0
SPLINE
5
3C3
100
AcDbEntity
8
0
100
AcDbSpline
62
0
6
CONTINUOUS
70
0
71
3
72
17
73
13
74
11
42
0.0000001000
43
0.0000001000
44
0.0000000001
12
0.0000000000
22
0.4220147089
32
0.0000000000
13
0.4220147089
23
0.0000000000
33
0.0000000000
40
0.0000000000
40
0.0000000000
40
0.0000000000
40
0.0000000000
40
0.1163097356
40
0.2303278571
40
0.3412445469
40
0.4475088604
40
0.5491224320
40
0.6456322518
40
0.7382753117
40
0.8272646510
40
0.9144010609
40
1.0000000000
40
1.0000000000
40
1.0000000000
40
1.0000000000
10
-10.3646054493
20
-23.6491392421
30
0.0000000000
10
-10.3646054493
20
-23.6327777690
30
0.0000000000
10
-10.3622154857
20
-23.6003252652
30
0.0000000000
10
-10.3516524848
20
-23.5533272532
30
0.0000000000
10
-10.3347478342
20
-23.5097213066
30
0.0000000000
10
-10.3123457231
20
-23.4706728613
30
0.0000000000
10
-10.2854950236
20
-23.4370971715
30
0.0000000000
10
-10.2551500722
20
-23.4094174998
30
0.0000000000
10
-10.2222703501
20
-23.3878955601
30
0.0000000000
10
-10.1875383562
20
-23.3725291299
30
0.0000000000
10
-10.1517167160
20
-23.3633438648
30
0.0000000000
10
-10.1273697842
20
-23.3613038247
30
0.0000000000
10
-10.1153284471
20
-23.3613038247
30
0.0000000000
11
-10.3646054493
21
-23.6491392421
31
0.0000000000
11
-10.3609830904
21
-23.6001886678
31
0.0000000000
11
-10.3503955862
21
-23.5532506059
31
0.0000000000
11
-10.3334210324
21
-23.5096283889
31
0.0000000000
11
-10.3110443464
21
-23.4707649457
31
0.0000000000
11
-10.2842031556
21
-23.4373216717
31
0.0000000000
11
-10.2540645385
21
-23.4099267881
31
0.0000000000
11
-10.2213179709
21
-23.3885675533
31
0.0000000000
11
-10.1869553324
21
-23.3734158919
31
0.0000000000
11
-10.1513268712
21
-23.3643134195
31
0.0000000000
11
-10.1153284471
21
-23.3613038247
31
0.0000000000
0
SPLINE
5
3C4
100
AcDbEntity
8
0
100
AcDbSpline
62
9
6
CONTINUOUS
70
0
71
3
72
17
73
13
74
11
42
0.0000001000
43
0.0000001000
44
0.0000000001
12
0.0012298291
22
0.3661500354
32
0.0000000000
13
0.3661509389
23
0.0009224053
33
0.0000000000
40
0.0000000000
40
0.0000000000
40
0.0000000000
40
0.0000000000
40
0.0926637669
40
0.1861959939
40
0.2811621264
40
0.3780472439
40
0.4771141944
40
0.5784104998
40
0.6817687109
40
0.7868361684
40
0.8931123906
40
1.0000000000
40
1.0000000000
40
1.0000000000
40
1.0000000000
10
-10.3602336153
20
-24.0829916612
30
0.0000000000
10
-10.3601956284
20
-24.0716820473
30
0.0000000000
10
-10.3580475605
20
-24.0489112839
30
0.0000000000
10
-10.3487129826
20
-24.0157096109
30
0.0000000000
10
-10.3335032346
20
-23.9841799535
30
0.0000000000
10
-10.3128173486
20
-23.9551222126
30
0.0000000000
10
-10.2871822442
20
-23.9292366332
30
0.0000000000
10
-10.2572389802
20
-23.9071446822
30
0.0000000000
10
-10.2237260811
20
-23.8893710444
30
0.0000000000
10
-10.1874597794
20
-23.8763367775
30
0.0000000000
10
-10.1493305961
20
-23.8683501222
30
0.0000000000
10
-10.1232835122
20
-23.8665181748
30
0.0000000000
10
-10.1102378460
20
-23.8664853102
30
0.0000000000
11
-10.3602336153
21
-24.0829916612
31
0.0000000000
11
-10.3570585555
21
-24.0492115151
31
0.0000000000
11
-10.3478279329
21
-24.0162319141
31
0.0000000000
11
-10.3327683089
21
-23.9848901989
31
0.0000000000
11
-10.3122474334
21
-23.9559532458
31
0.0000000000
11
-10.2867697441
21
-23.9301334981
31
0.0000000000
11
-10.2569601705
21
-23.9080643643
31
0.0000000000
11
-10.2235503430
21
-23.8902875734
31
0.0000000000
11
-10.1873600702
21
-23.8772393310
31
0.0000000000
11
-10.1492779112
21
-23.8692398857
31
0.0000000000
11
-10.1102378460
21
-23.8664853102
31
0.0000000000
0
SPLINE
5
3C5
100
AcDbEntity
8
0
100
AcDbSpline
62
0
6
CONTINUOUS
70
0
71
3
72
18
73
14
74
12
42
0.0000001000
43
0.0000001000
44
0.0000000001
12
-0.4450903719
22
0.4810902383
32
0.0000000000
13
-0.0252793887
23
0.6549154213
33
0.0000000000
40
0.0000000000
40
0.0000000000
40
0.0000000000
40
0.0000000000
40
0.1607870617
40
0.3159451345
40
0.4594086114
40
0.5855248047
40
0.6932231358
40
0.7825985590
40
0.8549817506
40
0.9118040473
40
0.9544563951
40
0.9834203014
40
1.0000000000
40
1.0000000000
40
1.0000000000
40
1.0000000000
10
-3.6425754369
20
23.0177037208
30
0.0000000000
10
-3.6664303613
20
23.0434880828
30
0.0000000000
10
-3.7133052763
20
23.0941539631
30
0.0000000000
10
-3.7813534086
20
23.1679291397
30
0.0000000000
10
-3.8440483582
20
23.2363374249
30
0.0000000000
10
-3.8994206938
20
23.2973901505
30
0.0000000000
10
-3.9464521268
20
23.3500567570
30
0.0000000000
10
-3.9851627816
20
23.3944006540
30
0.0000000000
10
-4.0159868567
20
23.4308981809
30
0.0000000000
10
-4.0394450594
20
23.4601666141
30
0.0000000000
10
-4.0561805478
20
23.4828310309
30
0.0000000000
10
-4.0662280607
20
23.4990645078
30
0.0000000000
10
-4.0703984738
20
23.5084998974
30
0.0000000000
10
-4.0705381820
20
23.5121193308
30
0.0000000000
11
-3.6425754369
21
23.0177037208
31
0.0000000000
11
-3.7141205368
21
23.0950750031
31
0.0000000000
11
-3.7830443063
21
23.1698452574
31
0.0000000000
11
-3.8465447874
21
23.2391897229
31
0.0000000000
11
-3.9020391264
21
23.3004477775
31
0.0000000000
11
-3.9490090029
21
23.3531373313
31
0.0000000000
11
-3.9874734143
21
23.3973159006
31
0.0000000000
11
-4.0179978975
21
23.4336315398
31
0.0000000000
11
-4.0411780441
21
23.4627796261
31
0.0000000000
11
-4.0575481321
21
23.4854395750
31
0.0000000000
11
-4.0672271635
21
23.5017696686
31
0.0000000000
11
-4.0705381820
21
23.5121193308
31
0.0000000000
0
SPLINE
5
3C6
100
AcDbEntity
8
0
100
AcDbSpline
62
0
6
CONTINUOUS
70
0
71
3
72
10
73
6
74
4
42
0.0000001000
43
0.0000001000
44
0.0000000001
12
0.0000000000
22
-0.0570497122
32
0.0000000000
13
-0.0346581496
23
-0.0454575164
33
0.0000000000
40
0.0000000000
40
0.0000000000
40
0.0000000000
40
0.0000000000
40
0.1854383338
40
0.5134932994
40
1.0000000000
40
1.0000000000
40
1.0000000000
40
1.0000000000
10
-3.2146054493
20
23.5124881964
30
0.0000000000
10
-3.2146054493
20
23.5089617953
30
0.0000000000
10
-3.2186270469
20
23.4996130241
30
0.0000000000
10
-3.2284566564
20
23.4835747207
30
0.0000000000
10
-3.2376768264
20
23.4710375522
30
0.0000000000
10
-3.2432973004
20
23.4636657567
30
0.0000000000
11
-3.2146054493
21
23.5124881964
31
0.0000000000
11
-3.2176438818
21
23.5023547135
31
0.0000000000
11
-3.2270959401
21
23.4862014990
31
0.0000000000
11
-3.2432973004
21
23.4636657567
31
0.0000000000
0
SPLINE
5
3C7
100
AcDbEntity
8
0
100
AcDbSpline
62
0
6
CONTINUOUS
70
0
71
3
72
15
73
11
74
9
42
0.0000001000
43
0.0000001000
44
0.0000000001
12
-0.3637230772
22
-0.4770580067
32
0.0000000000
13
-0.4065918177
23
-0.4394778383
33
0.0000000000
40
0.0000000000
40
0.0000000000
40
0.0000000000
40
0.0000000000
40
0.0619644062
40
0.1410402553
40
0.2388328498
40
0.3568390117
40
0.4952050926
40
0.6527880371
40
0.8233115360
40
1.0000000000
40
1.0000000000
40
1.0000000000
40
1.0000000000
10
-3.2432973004
20
23.4636657567
30
0.0000000000
10
-3.2508099286
20
23.4538122180
30
0.0000000000
10
-3.2683718371
20
23.4318565495
30
0.0000000000
10
-3.2991205057
20
23.3954079543
30
0.0000000000
10
-3.3378043629
20
23.3510673679
30
0.0000000000
10
-3.3848765574
20
23.2983367785
30
0.0000000000
10
-3.4403712359
20
23.2371380602
30
0.0000000000
10
-3.5032681538
20
23.1685038650
30
0.0000000000
10
-3.5715706870
20
23.0944511027
30
0.0000000000
10
-3.6186287423
20
23.0435872756
30
0.0000000000
10
-3.6425754369
20
23.0177037208
30
0.0000000000
11
-3.2432973004
21
23.4636657567
31
0.0000000000
11
-3.2663562874
21
23.4346035341
31
0.0000000000
11
-3.2967971394
21
23.3983435457
31
0.0000000000
11
-3.3352289496
21
23.3541726607
31
0.0000000000
11
-3.3822329345
21
23.3014250411
31
0.0000000000
11
-3.4378452029
21
23.2400246371
31
0.0000000000
11
-3.5015590562
21
23.1704408480
31
0.0000000000
11
-3.5707552564
21
23.0953727942
31
0.0000000000
11
-3.6425754369
21
23.0177037208
31
0.0000000000
0
SPLINE
5
3C8
100
AcDbEntity
8
0
100
AcDbSpline
62
0
6
CONTINUOUS
70
0
71
3
72
28
73
24
74
22
42
0.0000001000
43
0.0000001000
44
0.0000000001
12
0.0000000000
22
-0.8560454358
32
0.0000000000
13
-0.4748439350
23
0.7122759476
33
0.0000000000
40
0.0000000000
40
0.0000000000
40
0.0000000000
40
0.0000000000
40
0.0056001076
40
0.0221878247
40
0.0493779407
40
0.0866467356
40
0.1330293372
40
0.1876956588
40
0.2491587429
40
0.3163869080
40
0.3874909704
40
0.4613265883
40
0.5357849589
40
0.6096852126
40
0.6809167069
40
0.7483330403
40
0.8100397611
40
0.8650010733
40
0.9117220307
40
0.9493664272
40
0.9769597041
40
0.9939700659
40
1.0000000000
40
1.0000000000
40
1.0000000000
40
1.0000000000
10
-3.2146054493
20
22.0952658013
30
0.0000000000
10
-3.2146054493
20
22.0936678191
30
0.0000000000
10
-3.2247216361
20
22.0962444224
30
0.0000000000
10
-3.2351852280
20
22.0929568695
30
0.0000000000
10
-3.2603291345
20
22.0940590048
30
0.0000000000
10
-3.2910867710
20
22.0929211529
30
0.0000000000
10
-3.3308773754
20
22.0927532619
30
0.0000000000
10
-3.3771374260
20
22.0922973666
30
0.0000000000
10
-3.4294930408
20
22.0920177342
30
0.0000000000
10
-3.4864929198
20
22.0917715839
30
0.0000000000
10
-3.5470377089
20
22.0916117203
30
0.0000000000
10
-3.6096416349
20
22.0915281800
30
0.0000000000
10
-3.6730447964
20
22.0915266285
30
0.0000000000
10
-3.7357040138
20
22.0916068688
30
0.0000000000
10
-3.7963554930
20
22.0917642179
30
0.0000000000
10
-3.8535211838
20
22.0920057776
30
0.0000000000
10
-3.9060639260
20
22.0922884930
30
0.0000000000
10
-3.9526372766
20
22.0927246649
30
0.0000000000
10
-3.9925323401
20
22.0929411998
30
0.0000000000
10
-4.0240984986
20
22.0939450248
30
0.0000000000
10
-4.0484500449
20
22.0931434454
30
0.0000000000
10
-4.0612800063
20
22.0959295798
30
0.0000000000
10
-4.0695837561
20
22.0938124140
30
0.0000000000
10
-4.0705381820
20
22.0952440730
30
0.0000000000
11
-3.2146054493
21
22.0952658013
31
0.0000000000
11
-3.2193670933
21
22.0947102206
31
0.0000000000
11
-3.2335565272
21
22.0941667064
31
0.0000000000
11
-3.2568267267
21
22.0936482382
31
0.0000000000
11
-3.2887268487
21
22.0931650086
31
0.0000000000
11
-3.3284300739
21
22.0927294336
31
0.0000000000
11
-3.3752253857
21
22.0923493784
31
0.0000000000
11
-3.4278396398
21
22.0920351289
31
0.0000000000
11
-3.4853894901
21
22.0917919939
31
0.0000000000
11
-3.5462575739
21
22.0916267792
31
0.0000000000
11
-3.6094641611
21
22.0915421586
31
0.0000000000
11
-3.6732039093
21
22.0915405406
31
0.0000000000
11
-3.7364658318
21
22.0916219509
31
0.0000000000
11
-3.7974430119
21
22.0917840726
31
0.0000000000
11
-3.8551539565
21
22.0920242817
31
0.0000000000
11
-3.9079767942
21
22.0923358546
31
0.0000000000
11
-3.9550246589
21
22.0927135275
31
0.0000000000
11
-3.9950175713
21
22.0931470793
31
0.0000000000
11
-4.0272392862
21
22.0936286810
31
0.0000000000
11
-4.0508547203
21
22.0941459589
31
0.0000000000
11
-4.0654062432
21
22.0946887435
31
0.0000000000
11
-4.0705381820
21
22.0952440730
31
0.0000000000
0
SPLINE
5
3C9
100
AcDbEntity
8
0
100
AcDbSpline
62
9
6
CONTINUOUS
70
0
71
3
72
17
73
13
74
11
42
0.0000001000
43
0.0000001000
44
0.0000000001
12
-0.0012298290
22
0.3661500177
32
0.0000000000
13
-0.3661509212
23
0.0009224053
33
0.0000000000
40
0.0000000000
40
0.0000000000
40
0.0000000000
40
0.0000000000
40
0.0927380474
40
0.1862683312
40
0.2812329042
40
0.3781093545
40
0.4771672798
40
0.5784533210
40
0.6818006960
40
0.7868568096
40
0.8931227640
40
1.0000000000
40
1.0000000000
40
1.0000000000
40
1.0000000000
10
-7.9689772833
20
-24.0829916612
30
0.0000000000
10
-7.9690153006
20
-24.0716729820
30
0.0000000000
10
-7.9711658996
20
-24.0488932733
30
0.0000000000
10
-7.9805074684
20
-24.0156846102
30
0.0000000000
10
-7.9957206642
20
-23.9841582847
30
0.0000000000
10
-8.0164084525
20
-23.9551048580
30
0.0000000000
10
-8.0420434951
20
-23.9292240965
30
0.0000000000
10
-8.0719853353
20
-23.9071364997
30
0.0000000000
10
-8.1054956242
20
-23.8893664960
30
0.0000000000
10
-8.1417586130
20
-23.8763348553
30
0.0000000000
10
-8.1798840990
20
-23.8683497695
30
0.0000000000
10
-8.2059286530
20
-23.8665181716
30
0.0000000000
10
-8.2189730525
20
-23.8664853102
30
0.0000000000
11
-7.9689772833
21
-24.0829916612
31
0.0000000000
11
-7.9721573318
21
-24.0491846679
31
0.0000000000
11
-7.9813923606
21
-24.0162070411
31
0.0000000000
11
-7.9964558122
21
-23.9848678008
31
0.0000000000
11
-8.0169781442
21
-23.9559357736
31
0.0000000000
11
-8.0424558947
21
-23.9301207313
31
0.0000000000
11
-8.0722640334
21
-23.9080559788
31
0.0000000000
11
-8.1056712955
21
-23.8902828171
31
0.0000000000
11
-8.1418581207
21
-23.8772372646
31
0.0000000000
11
-8.1799367598
21
-23.8692393597
31
0.0000000000
11
-8.2189730525
21
-23.8664853102
31
0.0000000000
0
SPLINE
5
3CA
100
AcDbEntity
8
0
100
AcDbSpline
62
0
6
CONTINUOUS
70
0
71
3
72
17
73
13
74
11
42
0.0000001000
43
0.0000001000
44
0.0000000001
12
0.4220147089
22
0.0000000000
32
0.0000000000
13
0.0000000000
23
-0.4220147089
33
0.0000000000
40
0.0000000000
40
0.0000000000
40
0.0000000000
40
0.0000000000
40
0.0855989391
40
0.1727353490
40
0.2617246883
40
0.3543677482
40
0.4508775680
40
0.5524911396
40
0.6587554531
40
0.7696721429
40
0.8836902644
40
1.0000000000
40
1.0000000000
40
1.0000000000
40
1.0000000000
10
-8.2138824514
20
-23.3613038247
30
0.0000000000
10
-8.2018411143
20
-23.3613038247
30
0.0000000000
10
-8.1774941825
20
-23.3633438648
30
0.0000000000
10
-8.1416725423
20
-23.3725291299
30
0.0000000000
10
-8.1069405484
20
-23.3878955601
30
0.0000000000
10
-8.0740608263
20
-23.4094174998
30
0.0000000000
10
-8.0437158749
20
-23.4370971715
30
0.0000000000
10
-8.0168651754
20
-23.4706728613
30
0.0000000000
10
-7.9944630643
20
-23.5097213066
30
0.0000000000
10
-7.9775584137
20
-23.5533272532
30
0.0000000000
10
-7.9669954128
20
-23.6003252652
30
0.0000000000
10
-7.9646054493
20
-23.6327777690
30
0.0000000000
10
-7.9646054493
20
-23.6491392421
30
0.0000000000
11
-8.2138824514
21
-23.3613038247
31
0.0000000000
11
-8.1778840273
21
-23.3643134195
31
0.0000000000
11
-8.1422555661
21
-23.3734158919
31
0.0000000000
11
-8.1078929277
21
-23.3885675533
31
0.0000000000
11
-8.0751463600
21
-23.4099267881
31
0.0000000000
11
-8.0450077429
21
-23.4373216717
31
0.0000000000
11
-8.0181665521
21
-23.4707649457
31
0.0000000000
11
-7.9957898662
21
-23.5096283889
31
0.0000000000
11
-7.9788153123
21
-23.5532506059
31
0.0000000000
11
-7.9682278081
21
-23.6001886678
31
0.0000000000
11
-7.9646054493
21
-23.6491392421
31
0.0000000000
0
SPLINE
5
3CB
100
AcDbEntity
8
0
100
AcDbSpline
62
0
6
CONTINUOUS
70
0
71
3
72
9
73
5
74
3
42
0.0000001000
43
0.0000001000
44
0.0000000001
12
0.4079598923
22
-0.0214452885
32
0.0000000000
13
0.4079599003
23
-0.0214451347
33
0.0000000000
40
0.0000000000
40
0.0000000000
40
0.0000000000
40
0.0000000000
40
0.4998487699
40
1.0000000000
40
1.0000000000
40
1.0000000000
40
1.0000000000
10
8.6230988168
20
20.2197491545
30
0.0000000000
10
8.6910715669
20
20.2161760208
30
0.0000000000
10
8.8270581983
20
20.2090276041
30
0.0000000000
10
8.9630448311
20
20.2018792131
30
0.0000000000
10
9.0310587131
20
20.1983039429
30
0.0000000000
11
8.6230988168
21
20.2197491545
31
0.0000000000
11
8.8270170681
21
20.2090297727
31
0.0000000000
11
9.0310587131
21
20.1983039429
31
0.0000000000
0
SPLINE
5
3CC
100
AcDbEntity
8
0
100
AcDbSpline
62
0
6
CONTINUOUS
70
0
71
3
72
13
73
9
74
7
42
0.0000001000
43
0.0000001000
44
0.0000000001
12
-0.0242731120
22
-34.3696826819
32
0.0000000000
13
0.0170747436
23
-34.3696870118
33
0.0000000000
40
0.0000000000
40
0.0000000000
40
0.0000000000
40
0.0000000000
40
0.1320829145
40
0.3139997027
40
0.4959593571
40
0.6779333008
40
0.8598929552
40
1.0000000000
40
1.0000000000
40
1.0000000000
40
1.0000000000
10
9.2766158681
20
19.9345083744
30
0.0000000000
10
9.2755471803
20
18.4212924218
30
0.0000000000
10
9.2732929172
20
14.8239354998
30
0.0000000000
10
9.2708063773
20
9.1419460054
30
0.0000000000
10
9.2694382531
20
2.8883763553
30
0.0000000000
10
9.2694382540
20
-3.3656845429
30
0.0000000000
10
9.2707015827
20
-9.1402582104
30
0.0000000000
10
9.2722235207
20
-12.8300355868
30
0.0000000000
10
9.2730209513
20
-14.4351806795
30
0.0000000000
11
9.2766158681
21
19.9345083744
31
0.0000000000
11
9.2737710048
21
15.3948602761
31
0.0000000000
11
9.2710346151
21
9.1424370290
31
0.0000000000
11
9.2696663127
21
2.8885400383
31
0.0000000000
11
9.2696663127
21
-3.3658482260
31
0.0000000000
11
9.2710346151
21
-9.6197452168
31
0.0000000000
11
9.2730209513
21
-14.4351806795
31
0.0000000000
0
SPLINE
5
3CD
100
AcDbEntity
8
0
100
AcDbSpline
62
0
6
CONTINUOUS
70
0
71
3
72
13
73
9
74
7
42
0.0000001000
43
0.0000001000
44
0.0000000001
12
0.0170747436
22
34.3696870118
32
0.0000000000
13
-0.0242731120
23
34.3696826819
33
0.0000000000
40
0.0000000000
40
0.0000000000
40
0.0000000000
40
0.0000000000
40
0.1401070448
40
0.3220666992
40
0.5040406429
40
0.6860002973
40
0.8679170855
40
1.0000000000
40
1.0000000000
40
1.0000000000
40
1.0000000000
10
-8.7022318498
20
-14.4351806795
30
0.0000000000
10
-8.7014344192
20
-12.8300355868
30
0.0000000000
10
-8.6999124812
20
-9.1402582104
30
0.0000000000
10
-8.6986491525
20
-3.3656845429
30
0.0000000000
10
-8.6986491516
20
2.8883763553
30
0.0000000000
10
-8.7000172758
20
9.1419460054
30
0.0000000000
10
-8.7025038157
20
14.8239354998
30
0.0000000000
10
-8.7047580788
20
18.4212924218
30
0.0000000000
10
-8.7058267666
20
19.9345083744
30
0.0000000000
11
-8.7022318498
21
-14.4351806795
31
0.0000000000
11
-8.7002455136
21
-9.6197452168
31
0.0000000000
11
-8.6988772112
21
-3.3658482260
31
0.0000000000
11
-8.6988772112
21
2.8885400383
31
0.0000000000
11
-8.7002455136
21
9.1424370290
31
0.0000000000
11
-8.7029819033
21
15.3948602761
31
0.0000000000
11
-8.7058267666
21
19.9345083744
31
0.0000000000
0
SPLINE
5
3CE
100
AcDbEntity
8
0
100
AcDbSpline
62
0
6
CONTINUOUS
70
0
71
3
72
9
73
5
74
3
42
0.0000001000
43
0.0000001000
44
0.0000000001
12
0.4079599003
22
0.0214451347
32
0.0000000000
13
0.4079598923
23
0.0214452885
33
0.0000000000
40
0.0000000000
40
0.0000000000
40
0.0000000000
40
0.0000000000
40
0.5001512304
40
1.0000000000
40
1.0000000000
40
1.0000000000
40
1.0000000000
10
-8.4602696116
20
20.1983039429
30
0.0000000000
10
-8.3922557296
20
20.2018792131
30
0.0000000000
10
-8.2562690968
20
20.2090276041
30
0.0000000000
10
-8.1202824654
20
20.2161760208
30
0.0000000000
10
-8.0523097153
20
20.2197491545
30
0.0000000000
11
-8.4602696116
21
20.1983039429
31
0.0000000000
11
-8.2562279665
21
20.2090297727
31
0.0000000000
11
-8.0523097153
21
20.2197491545
31
0.0000000000
0
SPLINE
5
3CF
100
AcDbEntity
8
0
100
AcDbSpline
62
0
6
CONTINUOUS
70
0
71
3
72
17
73
13
74
11
42
0.0000001000
43
0.0000001000
44
0.0000000001
12
0.0000000000
22
-0.4220147089
32
0.0000000000
13
-0.4220147089
23
-0.0000000000
33
0.0000000000
40
0.0000000000
40
0.0000000000
40
0.0000000000
40
0.0000000000
40
0.1163097356
40
0.2303278571
40
0.3412445469
40
0.4475088604
40
0.5491224320
40
0.6456322518
40
0.7382753117
40
0.8272646510
40
0.9144010609
40
1.0000000000
40
1.0000000000
40
1.0000000000
40
1.0000000000
10
10.9353945507
20
23.1718310543
30
0.0000000000
10
10.9353945507
20
23.1554695813
30
0.0000000000
10
10.9330045872
20
23.1230170775
30
0.0000000000
10
10.9224415863
20
23.0760190654
30
0.0000000000
10
10.9055369357
20
23.0324131188
30
0.0000000000
10
10.8831348246
20
22.9933646735
30
0.0000000000
10
10.8562841251
20
22.9597889837
30
0.0000000000
10
10.8259391737
20
22.9321093120
30
0.0000000000
10
10.7930594516
20
22.9105873723
30
0.0000000000
10
10.7583274577
20
22.8952209421
30
0.0000000000
10
10.7225058175
20
22.8860356770
30
0.0000000000
10
10.6981588857
20
22.8839956369
30
0.0000000000
10
10.6861175486
20
22.8839956369
30
0.0000000000
11
10.9353945507
21
23.1718310543
31
0.0000000000
11
10.9317721919
21
23.1228804800
31
0.0000000000
11
10.9211846877
21
23.0759424181
31
0.0000000000
11
10.9042101338
21
23.0323202012
31
0.0000000000
11
10.8818334479
21
22.9934567579
31
0.0000000000
11
10.8549922571
21
22.9600134839
31
0.0000000000
11
10.8248536400
21
22.9326186004
31
0.0000000000
11
10.7921070723
21
22.9112593655
31
0.0000000000
11
10.7577444339
21
22.8961077042
31
0.0000000000
11
10.7221159727
21
22.8870052318
31
0.0000000000
11
10.6861175486
21
22.8839956369
31
0.0000000000
0
SPLINE
5
3D0
100
AcDbEntity
8
0
100
AcDbSpline
62
9
6
CONTINUOUS
70
0
71
3
72
17
73
13
74
11
42
0.0000001000
43
0.0000001000
44
0.0000000001
12
-0.0012298291
22
-0.3661500354
32
0.0000000000
13
-0.3661509389
23
-0.0009224053
33
0.0000000000
40
0.0000000000
40
0.0000000000
40
0.0000000000
40
0.0000000000
40
0.0926637669
40
0.1861959939
40
0.2811621264
40
0.3780472439
40
0.4771141944
40
0.5784104998
40
0.6817687109
40
0.7868361684
40
0.8931123906
40
1.0000000000
40
1.0000000000
40
1.0000000000
40
1.0000000000
10
10.9310227167
20
23.6056834734
30
0.0000000000
10
10.9309847299
20
23.5943738596
30
0.0000000000
10
10.9288366620
20
23.5716030961
30
0.0000000000
10
10.9195020841
20
23.5384014231
30
0.0000000000
10
10.9042923360
20
23.5068717658
30
0.0000000000
10
10.8836064501
20
23.4778140248
30
0.0000000000
10
10.8579713457
20
23.4519284454
30
0.0000000000
10
10.8280280817
20
23.4298364944
30
0.0000000000
10
10.7945151826
20
23.4120628567
30
0.0000000000
10
10.7582488809
20
23.3990285898
30
0.0000000000
10
10.7201196976
20
23.3910419344
30
0.0000000000
10
10.6940726137
20
23.3892099870
30
0.0000000000
10
10.6810269475
20
23.3891771225
30
0.0000000000
11
10.9310227167
21
23.6056834734
31
0.0000000000
11
10.9278476570
21
23.5719033273
31
0.0000000000
11
10.9186170344
21
23.5389237263
31
0.0000000000
11
10.9035574104
21
23.5075820111
31
0.0000000000
11
10.8830365349
21
23.4786450581
31
0.0000000000
11
10.8575588456
21
23.4528253103
31
0.0000000000
11
10.8277492720
21
23.4307561765
31
0.0000000000
11
10.7943394445
21
23.4129793857
31
0.0000000000
11
10.7581491717
21
23.3999311432
31
0.0000000000
11
10.7200670127
21
23.3919316979
31
0.0000000000
11
10.6810269475
21
23.3891771225
31
0.0000000000
0
SPLINE
5
3D1
100
AcDbEntity
8
0
100
AcDbSpline
62
0
6
CONTINUOUS
70
0
71
3
72
17
73
13
74
11
42
0.0000001000
43
0.0000001000
44
0.0000000001
12
-0.4220147089
22
0.0000000000
32
0.0000000000
13
-0.0000000000
23
0.4220147089
33
0.0000000000
40
0.0000000000
40
0.0000000000
40
0.0000000000
40
0.0000000000
40
0.0855989391
40
0.1727353490
40
0.2617246883
40
0.3543677482
40
0.4508775680
40
0.5524911396
40
0.6587554531
40
0.7696721429
40
0.8836902644
40
1.0000000000
40
1.0000000000
40
1.0000000000
40
1.0000000000
10
8.7846715529
20
22.8839956369
30
0.0000000000
10
8.7726302158
20
22.8839956369
30
0.0000000000
10
8.7482832840
20
22.8860356770
30
0.0000000000
10
8.7124616438
20
22.8952209421
30
0.0000000000
10
8.6777296499
20
22.9105873723
30
0.0000000000
10
8.6448499278
20
22.9321093120
30
0.0000000000
10
8.6145049764
20
22.9597889837
30
0.0000000000
10
8.5876542769
20
22.9933646735
30
0.0000000000
10
8.5652521658
20
23.0324131188
30
0.0000000000
10
8.5483475152
20
23.0760190654
30
0.0000000000
10
8.5377845143
20
23.1230170775
30
0.0000000000
10
8.5353945507
20
23.1554695813
30
0.0000000000
10
8.5353945507
20
23.1718310543
30
0.0000000000
11
8.7846715529
21
22.8839956369
31
0.0000000000
11
8.7486731288
21
22.8870052318
31
0.0000000000
11
8.7130446676
21
22.8961077042
31
0.0000000000
11
8.6786820291
21
22.9112593655
31
0.0000000000
11
8.6459354615
21
22.9326186004
31
0.0000000000
11
8.6157968444
21
22.9600134839
31
0.0000000000
11
8.5889556536
21
22.9934567579
31
0.0000000000
11
8.5665789676
21
23.0323202012
31
0.0000000000
11
8.5496044138
21
23.0759424181
31
0.0000000000
11
8.5390169096
21
23.1228804800
31
0.0000000000
11
8.5353945507
21
23.1718310543
31
0.0000000000
0
SPLINE
5
3D2
100
AcDbEntity
8
0
100
AcDbSpline
62
9
6
CONTINUOUS
70
0
71
3
72
17
73
13
74
11
42
0.0000001000
43
0.0000001000
44
0.0000000001
12
0.0012298290
22
-0.3661500127
32
0.0000000000
13
0.3661509162
23
-0.0009224053
33
0.0000000000
40
0.0000000000
40
0.0000000000
40
0.0000000000
40
0.0000000000
40
0.0927409810
40
0.1862742706
40
0.2812426722
40
0.3781228716
40
0.4771847111
40
0.5784746944
40
0.6818263867
40
0.7868857196
40
0.8931548188
40
1.0000000000
40
1.0000000000
40
1.0000000000
40
1.0000000000
10
8.5397663847
20
23.6056834734
30
0.0000000000
10
8.5398044033
20
23.5943644363
30
0.0000000000
10
8.5419551374
20
23.5715839985
30
0.0000000000
10
8.5512973163
20
23.5383742520
30
0.0000000000
10
8.5665115353
20
23.5068469650
30
0.0000000000
10
8.5872007284
20
23.4777927974
30
0.0000000000
10
8.6128374212
20
23.4519116566
30
0.0000000000
10
8.6427811096
20
23.4298240416
30
0.0000000000
10
8.6762932375
20
23.4120544875
30
0.0000000000
10
8.7125579351
20
23.3990237298
30
0.0000000000
10
8.7506806729
20
23.3910407907
30
0.0000000000
10
8.7767216670
20
23.3892099740
30
0.0000000000
10
8.7897621540
20
23.3891771225
30
0.0000000000
11
8.5397663847
21
23.6056834734
31
0.0000000000
11
8.5429466303
21
23.5718754202
31
0.0000000000
11
8.5521822333
21
23.5388968118
31
0.0000000000
11
8.5672467382
21
23.5075565229
31
0.0000000000
11
8.5877704397
21
23.4786237846
31
0.0000000000
11
8.6132498351
21
23.4528083529
31
0.0000000000
11
8.6430597741
21
23.4307436072
31
0.0000000000
11
8.6764690204
21
23.4129708108
31
0.0000000000
11
8.7126574318
21
23.3999261840
31
0.0000000000
11
8.7507375133
21
23.3919295475
31
0.0000000000
11
8.7897621540
21
23.3891771225
31
0.0000000000
0
SPLINE
5
3D3
100
AcDbEntity
8
0
100
AcDbSpline
62
0
6
CONTINUOUS
70
0
71
3
72
19
73
15
74
13
42
0.0000001000
43
0.0000001000
44
0.0000000001
12
0.7472528530
22
-0.0392809522
32
0.0000000000
13
-0.0304396736
23
-0.7476651963
33
0.0000000000
40
0.0000000000
40
0.0000000000
40
0.0000000000
40
0.0000000000
40
0.1037309636
40
0.2043731744
40
0.3009616516
40
0.3928940285
40
0.4801024419
40
0.5626830353
40
0.6412759462
40
0.7164351720
40
0.7891295517
40
0.8598350765
40
0.9300241964
40
1.0000000000
40
1.0000000000
40
1.0000000000
40
1.0000000000
10
8.6230988168
20
20.2197491545
30
0.0000000000
10
8.6489365696
20
20.2183909375
30
0.0000000000
10
8.6997277825
20
20.2117087711
30
0.0000000000
10
8.7719790056
20
20.1902869790
30
0.0000000000
10
8.8374148780
20
20.1592864223
30
0.0000000000
10
8.8947035611
20
20.1207948724
30
0.0000000000
10
8.9433213596
20
20.0769147430
30
0.0000000000
10
8.9834056991
20
20.0294420660
30
0.0000000000
10
9.0154533513
20
19.9797848906
30
0.0000000000
10
9.0401656743
20
19.9288495535
30
0.0000000000
10
9.0581796442
20
19.8772739765
30
0.0000000000
10
9.0700910593
20
19.8252386183
30
0.0000000000
10
9.0762582715
20
19.7729084826
30
0.0000000000
10
9.0766594479
20
19.7378738781
30
0.0000000000
10
9.0759494344
20
19.7204343871
30
0.0000000000
11
8.6230988168
21
20.2197491545
31
0.0000000000
11
8.7000503054
21
20.2095817346
31
0.0000000000
11
8.7722448156
21
20.1881481062
31
0.0000000000
11
8.8375519014
21
20.1571843079
31
0.0000000000
11
8.8946466788
21
20.1188115580
31
0.0000000000
11
8.9430889949
21
20.0750876469
31
0.0000000000
11
8.9829585263
21
20.0278765008
31
0.0000000000
11
9.0148554448
21
19.9784681345
31
0.0000000000
11
9.0394142013
21
19.9278730734
31
0.0000000000
11
9.0573613497
21
19.8765229635
31
0.0000000000
11
9.0691788145
21
19.8249517646
31
0.0000000000
11
9.0753371565
21
19.7727926224
31
0.0000000000
11
9.0759494344
21
19.7204343871
31
0.0000000000
0
SPLINE
5
3D4
100
AcDbEntity
8
0
100
AcDbSpline
62
0
6
CONTINUOUS
70
0
71
3
72
18
73
14
74
12
42
0.0000001000
43
0.0000001000
44
0.0000000001
12
0.0000000000
22
0.4993356391
32
0.0000000000
13
-0.0550932233
23
0.4962870311
33
0.0000000000
40
0.0000000000
40
0.0000000000
40
0.0000000000
40
0.0000000000
40
0.1377567146
40
0.2730204337
40
0.4028467783
40
0.5253139135
40
0.6374524445
40
0.7377946927
40
0.8238122414
40
0.8943873724
40
0.9477948032
40
0.9832627862
40
1.0000000000
40
1.0000000000
40
1.0000000000
40
1.0000000000
10
7.6371732361
20
19.7204343871
30
0.0000000000
10
7.6371732361
20
19.7433633328
30
0.0000000000
10
7.6371551419
20
19.7888062800
30
0.0000000000
10
7.6370739639
20
19.8558581530
30
0.0000000000
10
7.6369405705
20
19.9203650749
30
0.0000000000
10
7.6367573350
20
19.9810227363
30
0.0000000000
10
7.6365294778
20
20.0367728769
30
0.0000000000
10
7.6362568021
20
20.0864554035
30
0.0000000000
10
7.6359617864
20
20.1292210574
30
0.0000000000
10
7.6356045001
20
20.1641699504
30
0.0000000000
10
7.6353217455
20
20.1907151780
30
0.0000000000
10
7.6348479201
20
20.2082753149
30
0.0000000000
10
7.6347239310
20
20.2169803338
30
0.0000000000
10
7.6344165620
20
20.2197491545
30
0.0000000000
11
7.6371732361
21
19.7204343871
31
0.0000000000
11
7.6371455768
21
19.7892212187
31
0.0000000000
11
7.6370630206
21
19.8567631639
31
0.0000000000
11
7.6369274415
21
19.9215899429
31
0.0000000000
11
7.6367407957
21
19.9827418632
31
0.0000000000
11
7.6365076509
21
20.0387361429
31
0.0000000000
11
7.6362310353
21
20.0888398400
31
0.0000000000
11
7.6359179188
21
20.1317903263
31
0.0000000000
11
7.6355724013
21
20.1670293106
31
0.0000000000
11
7.6352028582
21
20.1936949837
31
0.0000000000
11
7.6348147638
21
20.2114011589
31
0.0000000000
11
7.6344165620
21
20.2197491545
31
0.0000000000
0
SPLINE
5
3D5
100
AcDbEntity
8
0
100
AcDbSpline
62
0
6
CONTINUOUS
70
0
71
3
72
18
73
14
74
12
42
0.0000001000
43
0.0000001000
44
0.0000000001
12
-0.0550932233
22
-0.4962870311
32
0.0000000000
13
0.0000000000
23
-0.4993356391
33
0.0000000000
40
0.0000000000
40
0.0000000000
40
0.0000000000
40
0.0000000000
40
0.0167372138
40
0.0522051968
40
0.1056126276
40
0.1761877586
40
0.2622053073
40
0.3625475555
40
0.4746860865
40
0.5971532217
40
0.7269795663
40
0.8622432854
40
1.0000000000
40
1.0000000000
40
1.0000000000
40
1.0000000000
10
-7.0636274605
20
20.2197491545
30
0.0000000000
10
-7.0639348295
20
20.2169803338
30
0.0000000000
10
-7.0640588186
20
20.2082753149
30
0.0000000000
10
-7.0645326440
20
20.1907151780
30
0.0000000000
10
-7.0648153986
20
20.1641699504
30
0.0000000000
10
-7.0651726849
20
20.1292210574
30
0.0000000000
10
-7.0654677006
20
20.0864554035
30
0.0000000000
10
-7.0657403763
20
20.0367728769
30
0.0000000000
10
-7.0659682335
20
19.9810227363
30
0.0000000000
10
-7.0661514690
20
19.9203650749
30
0.0000000000
10
-7.0662848624
20
19.8558581530
30
0.0000000000
10
-7.0663660405
20
19.7888062800
30
0.0000000000
10
-7.0663841346
20
19.7433633328
30
0.0000000000
10
-7.0663841346
20
19.7204343871
30
0.0000000000
11
-7.0636274605
21
20.2197491545
31
0.0000000000
11
-7.0640256623
21
20.2114011589
31
0.0000000000
11
-7.0644137568
21
20.1936949837
31
0.0000000000
11
-7.0647832999
21
20.1670293106
31
0.0000000000
11
-7.0651288173
21
20.1317903263
31
0.0000000000
11
-7.0654419338
21
20.0888398400
31
0.0000000000
11
-7.0657185494
21
20.0387361429
31
0.0000000000
11
-7.0659516942
21
19.9827418632
31
0.0000000000
11
-7.0661383400
21
19.9215899429
31
0.0000000000
11
-7.0662739191
21
19.8567631639
31
0.0000000000
11
-7.0663564753
21
19.7892212187
31
0.0000000000
11
-7.0663841346
21
19.7204343871
31
0.0000000000
0
SPLINE
5
3D6
100
AcDbEntity
8
0
100
AcDbSpline
62
0
6
CONTINUOUS
70
0
71
3
72
19
73
15
74
13
42
0.0000001000
43
0.0000001000
44
0.0000000001
12
-0.0304396734
22
0.7476651920
32
0.0000000000
13
0.7472528487
23
0.0392809520
33
0.0000000000
40
0.0000000000
40
0.0000000000
40
0.0000000000
40
0.0000000000
40
0.0699754496
40
0.1401641969
40
0.2108693283
40
0.2835632827
40
0.3587220648
40
0.4373144657
40
0.5198944449
40
0.6071022216
40
0.6990340584
40
0.7956214199
40
0.8962635101
40
1.0000000000
40
1.0000000000
40
1.0000000000
40
1.0000000000
10
-8.5051603329
20
19.7204343871
30
0.0000000000
10
-8.5058703428
20
19.7378737898
30
0.0000000000
10
-8.5054691778
20
19.7729082117
30
0.0000000000
10
-8.4993020414
20
19.8252380733
30
0.0000000000
10
-8.4873907671
20
19.8772731568
30
0.0000000000
10
-8.4693770089
20
19.9288484716
30
0.0000000000
10
-8.4446649790
20
19.9797835656
30
0.0000000000
10
-8.4126177176
20
20.0294405237
30
0.0000000000
10
-8.3725338769
20
20.0769130412
30
0.0000000000
10
-8.3239166543
20
20.1207931346
30
0.0000000000
10
-8.2666286963
20
20.1592847295
30
0.0000000000
10
-8.2011934687
20
20.1902855934
30
0.0000000000
10
-8.1289414024
20
20.2117083055
30
0.0000000000
10
-8.0781488445
20
20.2183908652
30
0.0000000000
10
-8.0523097153
20
20.2197491545
30
0.0000000000
11
-8.5051603329
21
19.7204343871
31
0.0000000000
11
-8.5045480720
21
19.7727923574
31
0.0000000000
11
-8.4983898058
21
19.8249512274
31
0.0000000000
11
-8.4865724802
21
19.8765221560
31
0.0000000000
11
-8.4686255436
21
19.9278720025
31
0.0000000000
11
-8.4440670732
21
19.9784668330
31
0.0000000000
11
-8.4121705379
21
20.0278749920
31
0.0000000000
11
-8.3723015145
21
20.0750859652
31
0.0000000000
11
-8.3238597919
21
20.1188098222
31
0.0000000000
11
-8.2667655956
21
20.1571827114
31
0.0000000000
11
-8.2014595010
21
20.1881466508
31
0.0000000000
11
-8.1292652600
21
20.2095808670
31
0.0000000000
11
-8.0523097153
21
20.2197491545
31
0.0000000000
0
SPLINE
5
3D7
100
AcDbEntity
8
0
100
AcDbSpline
62
0
6
CONTINUOUS
70
0
71
3
72
18
73
14
74
12
42
0.0000001000
43
0.0000001000
44
0.0000000001
12
0.0000000000
22
0.5000091213
32
0.0000000000
13
-0.2773524497
23
0.4160345418
33
0.0000000000
40
0.0000000000
40
0.0000000000
40
0.0000000000
40
0.0000000000
40
0.1414964259
40
0.2802828744
40
0.4131632444
40
0.5380551258
40
0.6517551650
40
0.7526882579
40
0.8381627778
40
0.9070040251
40
0.9574305388
40
0.9886738564
40
1.0000000000
40
1.0000000000
40
1.0000000000
40
1.0000000000
10
-6.1628267639
20
19.1880211775
30
0.0000000000
10
-6.1628267639
20
19.2116043453
30
0.0000000000
10
-6.1628457995
20
19.2583190500
30
0.0000000000
10
-6.1629319813
20
19.3271806369
30
0.0000000000
10
-6.1630714784
20
19.3932753837
30
0.0000000000
10
-6.1632692664
20
19.4551863637
30
0.0000000000
10
-6.1634942785
20
19.5117805915
30
0.0000000000
10
-6.1638264865
20
19.5617794576
30
0.0000000000
10
-6.1640013850
20
19.6043765000
30
0.0000000000
10
-6.1647313584
20
19.6383489596
30
0.0000000000
10
-6.1641835083
20
19.6637847871
30
0.0000000000
10
-6.1661816279
20
19.6786360849
30
0.0000000000
10
-6.1646631829
20
19.6864314500
30
0.0000000000
10
-6.1657102941
20
19.6880021390
30
0.0000000000
11
-6.1628267639
21
19.1880211775
31
0.0000000000
11
-6.1628560323
21
19.2587706750
31
0.0000000000
11
-6.1629433649
21
19.3281651102
31
0.0000000000
11
-6.1630866646
21
19.3946063527
31
0.0000000000
11
-6.1632837427
21
19.4570531216
31
0.0000000000
11
-6.1635294966
21
19.5139036471
31
0.0000000000
11
-6.1638205490
21
19.5643702749
31
0.0000000000
11
-6.1641491381
21
19.6071070513
31
0.0000000000
11
-6.1645107112
21
19.6415264038
31
0.0000000000
11
-6.1648959946
21
19.6667371767
31
0.0000000000
11
-6.1652989486
21
19.6823539227
31
0.0000000000
11
-6.1657102941
21
19.6880021390
31
0.0000000000
0
SPLINE
5
3D8
100
AcDbEntity
8
0
100
AcDbSpline
62
0
6
CONTINUOUS
70
0
71
3
72
18
73
14
74
12
42
0.0000001000
43
0.0000001000
44
0.0000000001
12
-0.2773524497
22
-0.4160345418
32
0.0000000000
13
0.0000000000
23
-0.5000091213
33
0.0000000000
40
0.0000000000
40
0.0000000000
40
0.0000000000
40
0.0000000000
40
0.0113261436
40
0.0425694612
40
0.0929959749
40
0.1618372222
40
0.2473117421
40
0.3482448350
40
0.4619448742
40
0.5868367556
40
0.7197171256
40
0.8585035741
40
1.0000000000
40
1.0000000000
40
1.0000000000
40
1.0000000000
10
6.7364993956
20
19.6880021390
30
0.0000000000
10
6.7354522844
20
19.6864314500
30
0.0000000000
10
6.7369707294
20
19.6786360849
30
0.0000000000
10
6.7349726098
20
19.6637847871
30
0.0000000000
10
6.7355204599
20
19.6383489596
30
0.0000000000
10
6.7347904865
20
19.6043765000
30
0.0000000000
10
6.7346155880
20
19.5617794576
30
0.0000000000
10
6.7342833800
20
19.5117805915
30
0.0000000000
10
6.7340583679
20
19.4551863637
30
0.0000000000
10
6.7338605799
20
19.3932753837
30
0.0000000000
10
6.7337210828
20
19.3271806369
30
0.0000000000
10
6.7336349010
20
19.2583190500
30
0.0000000000
10
6.7336158654
20
19.2116043453
30
0.0000000000
10
6.7336158654
20
19.1880211775
30
0.0000000000
11
6.7364993956
21
19.6880021390
31
0.0000000000
11
6.7360880501
21
19.6823539227
31
0.0000000000
11
6.7356850961
21
19.6667371767
31
0.0000000000
11
6.7352998127
21
19.6415264038
31
0.0000000000
11
6.7349382396
21
19.6071070513
31
0.0000000000
11
6.7346096505
21
19.5643702749
31
0.0000000000
11
6.7343185981
21
19.5139036471
31
0.0000000000
11
6.7340728442
21
19.4570531216
31
0.0000000000
11
6.7338757661
21
19.3946063527
31
0.0000000000
11
6.7337324664
21
19.3281651102
31
0.0000000000
11
6.7336451338
21
19.2587706750
31
0.0000000000
11
6.7336158654
21
19.1880211775
31
0.0000000000
0
SPLINE
5
3D9
100
AcDbEntity
8
0
100
AcDbSpline
62
0
6
CONTINUOUS
70
0
71
3
72
10
73
6
74
4
42
0.0000001000
43
0.0000001000
44
0.0000000001
12
0.4997173487
22
-0.5017456208
32
0.0000000000
13
0.4997350672
23
-0.5017279734
33
0.0000000000
40
0.0000000000
40
0.0000000000
40
0.0000000000
40
0.0000000000
40
0.3333218834
40
0.6666552300
40
1.0000000000
40
1.0000000000
40
1.0000000000
40
1.0000000000
10
9.2766158884
20
19.9345083744
30
0.0000000000
10
9.3321381310
20
19.8787607759
30
0.0000000000
10
9.4431851829
20
19.7672643164
30
0.0000000000
10
9.6097605818
20
19.6000187136
30
0.0000000000
10
9.7208140802
20
19.4885210499
30
0.0000000000
10
9.7763421038
20
19.4327715846
30
0.0000000000
11
9.2766158884
21
19.9345083744
31
0.0000000000
11
9.4431836007
21
19.7672665595
31
0.0000000000
11
9.6097590102
21
19.6000209540
31
0.0000000000
11
9.7763421038
21
19.4327715846
31
0.0000000000
0
SPLINE
5
3DA
100
AcDbEntity
8
0
100
AcDbSpline
62
0
6
CONTINUOUS
70
0
71
3
72
10
73
6
74
4
42
0.0000001000
43
0.0000001000
44
0.0000000001
12
0.2455544992
22
-0.2637980596
32
0.0000000000
13
0.2455598498
23
-0.2637930789
33
0.0000000000
40
0.0000000000
40
0.0000000000
40
0.0000000000
40
0.0000000000
40
0.3332546810
40
0.6665880069
40
1.0000000000
40
1.0000000000
40
1.0000000000
40
1.0000000000
10
9.0310587131
20
20.1983039429
30
0.0000000000
10
9.0583361085
20
20.1689999635
30
0.0000000000
10
9.1128975349
20
20.1103852738
30
0.0000000000
10
9.1947499266
20
20.0224534177
30
0.0000000000
10
9.2493250220
20
19.9638256331
30
0.0000000000
10
9.2766158884
20
19.9345083744
30
0.0000000000
11
9.0310587131
21
20.1983039429
31
0.0000000000
11
9.1128911967
21
20.1103922815
31
0.0000000000
11
9.1947435866
21
20.0224604272
31
0.0000000000
11
9.2766158884
21
19.9345083744
31
0.0000000000
0
SPLINE
5
3DB
100
AcDbEntity
8
0
100
AcDbSpline
62
0
6
CONTINUOUS
70
0
71
3
72
10
73
6
74
4
42
0.0000001000
43
0.0000001000
44
0.0000000001
12
-0.2455544992
22
-0.2637980596
32
0.0000000000
13
-0.2455598498
23
-0.2637930789
33
0.0000000000
40
0.0000000000
40
0.0000000000
40
0.0000000000
40
0.0000000000
40
0.3332546810
40
0.6665880069
40
1.0000000000
40
1.0000000000
40
1.0000000000
40
1.0000000000
10
-8.4602696116
20
20.1983039429
30
0.0000000000
10
-8.4875470071
20
20.1689999635
30
0.0000000000
10
-8.5421084334
20
20.1103852738
30
0.0000000000
10
-8.6239608251
20
20.0224534177
30
0.0000000000
10
-8.6785359205
20
19.9638256331
30
0.0000000000
10
-8.7058267869
20
19.9345083744
30
0.0000000000
11
-8.4602696116
21
20.1983039429
31
0.0000000000
11
-8.5421020952
21
20.1103922815
31
0.0000000000
11
-8.6239544851
21
20.0224604272
31
0.0000000000
11
-8.7058267869
21
19.9345083744
31
0.0000000000
0
SPLINE
5
3DC
100
AcDbEntity
8
0
100
AcDbSpline
62
0
6
CONTINUOUS
70
0
71
3
72
10
73
6
74
4
42
0.0000001000
43
0.0000001000
44
0.0000000001
12
-0.4997173485
22
-0.5017456206
32
0.0000000000
13
-0.4997350670
23
-0.5017279732
33
0.0000000000
40
0.0000000000
40
0.0000000000
40
0.0000000000
40
0.0000000000
40
0.3333218833
40
0.6666552297
40
1.0000000000
40
1.0000000000
40
1.0000000000
40
1.0000000000
10
-8.7058267869
20
19.9345083744
30
0.0000000000
10
-8.7613490294
20
19.8787607760
30
0.0000000000
10
-8.8723960813
20
19.7672643166
30
0.0000000000
10
-9.0389714799
20
19.6000187136
30
0.0000000000
10
-9.1500249789
20
19.4885210506
30
0.0000000000
10
-9.2055530026
20
19.4327715853
30
0.0000000000
11
-8.7058267869
21
19.9345083744
31
0.0000000000
11
-8.8723944990
21
19.7672665596
31
0.0000000000
11
-9.0389699084
21
19.6000209543
31
0.0000000000
11
-9.2055530026
21
19.4327715853
31
0.0000000000
0
SPLINE
5
3DD
100
AcDbEntity
8
0
100
AcDbSpline
62
0
6
CONTINUOUS
70
0
71
3
72
13
73
9
74
7
42
0.0000001000
43
0.0000001000
44
0.0000000001
12
-0.0168254917
22
33.8679501673
32
0.0000000000
13
0.0233229746
23
33.8679463161
33
0.0000000000
40
0.0000000000
40
0.0000000000
40
0.0000000000
40
0.0000000000
40
0.1666569867
40
0.3333462837
40
0.5000465623
40
0.6667364930
40
0.8333949453
40
1.0000000000
40
1.0000000000
40
1.0000000000
40
1.0000000000
10
9.7730971151
20
-14.4351806795
30
0.0000000000
10
9.7721624198
20
-12.5537371725
30
0.0000000000
10
9.7706647943
20
-8.7904852027
30
0.0000000000
10
9.7695333783
20
-3.1453005663
30
0.0000000000
10
9.7695168159
20
2.5002561004
30
0.0000000000
10
9.7706151099
20
8.1454644449
30
0.0000000000
10
9.7728281182
20
13.7895974467
30
0.0000000000
10
9.7750468620
20
17.5519145681
30
0.0000000000
10
9.7763421038
20
19.4327715846
30
0.0000000000
11
9.7730971151
21
-14.4351806795
31
0.0000000000
11
9.7708507507
21
-8.7908499088
31
0.0000000000
11
9.7697192141
21
-3.1454245234
31
0.0000000000
11
9.7697026499
21
2.5003729045
31
0.0000000000
11
9.7708010604
21
8.1458197598
31
0.0000000000
11
9.7730143083
21
13.7902001785
31
0.0000000000
11
9.7763421038
21
19.4327715846
31
0.0000000000
0
SPLINE
5
3DE
100
AcDbEntity
8
0
100
AcDbSpline
62
0
6
CONTINUOUS
70
0
71
3
72
13
73
9
74
7
42
0.0000001000
43
0.0000001000
44
0.0000000001
12
0.0168254917
22
33.8679501679
32
0.0000000000
13
-0.0233229760
23
33.8679463167
33
0.0000000000
40
0.0000000000
40
0.0000000000
40
0.0000000000
40
0.0000000000
40
0.1666569867
40
0.3333462837
40
0.5000465623
40
0.6667364930
40
0.8333949536
40
1.0000000000
40
1.0000000000
40
1.0000000000
40
1.0000000000
10
-9.2023080136
20
-14.4351806795
30
0.0000000000
10
-9.2013733183
20
-12.5537371724
30
0.0000000000
10
-9.1998756928
20
-8.7904852025
30
0.0000000000
10
-9.1987442768
20
-3.1453005659
30
0.0000000000
10
-9.1987277144
20
2.5002561009
30
0.0000000000
10
-9.1998260085
20
8.1454645399
30
0.0000000000
10
-9.2020390167
20
13.7895975417
30
0.0000000000
10
-9.2042577607
20
17.5519146632
30
0.0000000000
10
-9.2055530026
20
19.4327715853
30
0.0000000000
11
-9.2023080136
21
-14.4351806795
31
0.0000000000
11
-9.2000616492
21
-8.7908499087
31
0.0000000000
11
-9.1989301126
21
-3.1454245231
31
0.0000000000
11
-9.1989135484
21
2.5003729051
31
0.0000000000
11
-9.2000119589
21
8.1458197605
31
0.0000000000
11
-9.2022252070
21
13.7902004623
31
0.0000000000
11
-9.2055530026
21
19.4327715853
31
0.0000000000
0
SPLINE
5
3DF
100
AcDbEntity
8
0
100
AcDbSpline
62
0
6
CONTINUOUS
70
0
71
3
72
17
73
13
74
11
42
0.0000001000
43
0.0000001000
44
0.0000000001
12
0.0000000000
22
-0.4220147089
32
0.0000000000
13
-0.4220147089
23
0.0000000000
33
0.0000000000
40
0.0000000000
40
0.0000000000
40
0.0000000000
40
0.0000000000
40
0.1163097356
40
0.2303278571
40
0.3412445469
40
0.4475088604
40
0.5491224320
40
0.6456322518
40
0.7382753117
40
0.8272646510
40
0.9144010609
40
1.0000000000
40
1.0000000000
40
1.0000000000
40
1.0000000000
10
-7.9646054493
20
23.1718310543
30
0.0000000000
10
-7.9646054493
20
23.1554695813
30
0.0000000000
10
-7.9669954128
20
23.1230170775
30
0.0000000000
10
-7.9775584137
20
23.0760190654
30
0.0000000000
10
-7.9944630643
20
23.0324131188
30
0.0000000000
10
-8.0168651754
20
22.9933646735
30
0.0000000000
10
-8.0437158749
20
22.9597889837
30
0.0000000000
10
-8.0740608263
20
22.9321093120
30
0.0000000000
10
-8.1069405484
20
22.9105873723
30
0.0000000000
10
-8.1416725423
20
22.8952209421
30
0.0000000000
10
-8.1774941825
20
22.8860356770
30
0.0000000000
10
-8.2018411143
20
22.8839956369
30
0.0000000000
10
-8.2138824514
20
22.8839956369
30
0.0000000000
11
-7.9646054493
21
23.1718310543
31
0.0000000000
11
-7.9682278081
21
23.1228804800
31
0.0000000000
11
-7.9788153123
21
23.0759424181
31
0.0000000000
11
-7.9957898662
21
23.0323202012
31
0.0000000000
11
-8.0181665521
21
22.9934567579
31
0.0000000000
11
-8.0450077429
21
22.9600134839
31
0.0000000000
11
-8.0751463600
21
22.9326186004
31
0.0000000000
11
-8.1078929277
21
22.9112593655
31
0.0000000000
11
-8.1422555661
21
22.8961077042
31
0.0000000000
11
-8.1778840273
21
22.8870052318
31
0.0000000000
11
-8.2138824514
21
22.8839956369
31
0.0000000000
0
SPLINE
5
3E0
100
AcDbEntity
8
0
100
AcDbSpline
62
9
6
CONTINUOUS
70
0
71
3
72
17
73
13
74
11
42
0.0000001000
43
0.0000001000
44
0.0000000001
12
-0.0012298291
22
-0.3661500354
32
0.0000000000
13
-0.3661509389
23
-0.0009224053
33
0.0000000000
40
0.0000000000
40
0.0000000000
40
0.0000000000
40
0.0000000000
40
0.0926637669
40
0.1861959939
40
0.2811621264
40
0.3780472439
40
0.4771141944
40
0.5784104998
40
0.6817687109
40
0.7868361684
40
0.8931123906
40
1.0000000000
40
1.0000000000
40
1.0000000000
40
1.0000000000
10
-7.9689772833
20
23.6056834734
30
0.0000000000
10
-7.9690152701
20
23.5943738596
30
0.0000000000
10
-7.9711633380
20
23.5716030961
30
0.0000000000
10
-7.9804979159
20
23.5384014231
30
0.0000000000
10
-7.9957076640
20
23.5068717658
30
0.0000000000
10
-8.0163935499
20
23.4778140248
30
0.0000000000
10
-8.0420286543
20
23.4519284454
30
0.0000000000
10
-8.0719719183
20
23.4298364944
30
0.0000000000
10
-8.1054848174
20
23.4120628567
30
0.0000000000
10
-8.1417511191
20
23.3990285898
30
0.0000000000
10
-8.1798803024
20
23.3910419344
30
0.0000000000
10
-8.2059273863
20
23.3892099870
30
0.0000000000
10
-8.2189730525
20
23.3891771225
30
0.0000000000
11
-7.9689772833
21
23.6056834734
31
0.0000000000
11
-7.9721523430
21
23.5719033273
31
0.0000000000
11
-7.9813829656
21
23.5389237263
31
0.0000000000
11
-7.9964425896
21
23.5075820111
31
0.0000000000
11
-8.0169634651
21
23.4786450581
31
0.0000000000
11
-8.0424411544
21
23.4528253103
31
0.0000000000
11
-8.0722507280
21
23.4307561765
31
0.0000000000
11
-8.1056605555
21
23.4129793857
31
0.0000000000
11
-8.1418508283
21
23.3999311432
31
0.0000000000
11
-8.1799329873
21
23.3919316979
31
0.0000000000
11
-8.2189730525
21
23.3891771225
31
0.0000000000
0
SPLINE
5
3E1
100
AcDbEntity
8
0
100
AcDbSpline
62
0
6
CONTINUOUS
70
0
71
3
72
19
73
15
74
13
42
0.0000001000
43
0.0000001000
44
0.0000000001
12
0.0000000000
22
0.5000455535
32
0.0000000000
13
-0.3535856018
23
0.3535856018
33
0.0000000000
40
0.0000000000
40
0.0000000000
40
0.0000000000
40
0.0000000000
40
0.1290310546
40
0.2571295078
40
0.3807977415
40
0.4970872625
40
0.6051644857
40
0.7039312265
40
0.7906387079
40
0.8631956554
40
0.9211972196
40
0.9640307706
40
0.9904456554
40
1.0000000000
40
1.0000000000
40
1.0000000000
40
1.0000000000
10
3.8080844070
20
-14.9517634348
30
0.0000000000
10
3.8080844070
20
-14.9302562997
30
0.0000000000
10
3.8080603455
20
-14.8873974898
30
0.0000000000
10
3.8079521755
20
-14.8239254231
30
0.0000000000
10
3.8077728069
20
-14.7625776294
30
0.0000000000
10
3.8075288588
20
-14.7045661581
30
0.0000000000
10
3.8072161351
20
-14.6507093885
30
0.0000000000
10
3.8068665910
20
-14.6017717629
30
0.0000000000
10
3.8064008771
20
-14.5587929976
30
0.0000000000
10
3.8060867358
20
-14.5225001317
30
0.0000000000
10
3.8052244981
20
-14.4938195039
30
0.0000000000
10
3.8056180578
20
-14.4721039344
30
0.0000000000
10
3.8035154317
20
-14.4599100490
30
0.0000000000
10
3.8048851437
20
-14.4529085661
30
0.0000000000
10
3.8037590508
20
-14.4517824732
30
0.0000000000
11
3.8080844070
21
-14.9517634348
31
0.0000000000
11
3.8080479244
21
-14.8872420399
31
0.0000000000
11
3.8079376681
21
-14.8231870729
31
0.0000000000
11
3.8077555977
21
-14.7613475906
31
0.0000000000
11
3.8075070184
21
-14.7031980640
31
0.0000000000
11
3.8071945340
21
-14.6491554325
31
0.0000000000
11
3.8068199317
21
-14.5997689836
31
0.0000000000
11
3.8063922836
21
-14.5564134021
31
0.0000000000
11
3.8059234761
21
-14.5201346521
31
0.0000000000
11
3.8054181644
21
-14.4911356300
31
0.0000000000
11
3.8048799610
21
-14.4697236663
31
0.0000000000
11
3.8043218414
21
-14.4565268173
31
0.0000000000
11
3.8037590508
21
-14.4517824732
31
0.0000000000
0
SPLINE
5
3E2
100
AcDbEntity
8
0
100
AcDbSpline
62
0
6
CONTINUOUS
70
0
71
3
72
19
73
15
74
13
42
0.0000001000
43
0.0000001000
44
0.0000000001
12
-0.3535856018
22
-0.3535856018
32
0.0000000000
13
0.0000000000
23
-0.5000455535
33
0.0000000000
40
0.0000000000
40
0.0000000000
40
0.0000000000
40
0.0000000000
40
0.0095543446
40
0.0359692294
40
0.0788027804
40
0.1368043446
40
0.2093612921
40
0.2960687735
40
0.3948355143
40
0.5029127375
40
0.6192022585
40
0.7428704922
40
0.8709689454
40
1.0000000000
40
1.0000000000
40
1.0000000000
40
1.0000000000
10
-3.2329699493
20
-14.4517824732
30
0.0000000000
10
-3.2340960422
20
-14.4529085661
30
0.0000000000
10
-3.2327263302
20
-14.4599100490
30
0.0000000000
10
-3.2348289563
20
-14.4721039344
30
0.0000000000
10
-3.2344353966
20
-14.4938195039
30
0.0000000000
10
-3.2352976343
20
-14.5225001317
30
0.0000000000
10
-3.2356117756
20
-14.5587929976
30
0.0000000000
10
-3.2360774895
20
-14.6017717629
30
0.0000000000
10
-3.2364270336
20
-14.6507093885
30
0.0000000000
10
-3.2367397573
20
-14.7045661581
30
0.0000000000
10
-3.2369837054
20
-14.7625776294
30
0.0000000000
10
-3.2371630740
20
-14.8239254231
30
0.0000000000
10
-3.2372712440
20
-14.8873974898
30
0.0000000000
10
-3.2372953055
20
-14.9302562997
30
0.0000000000
10
-3.2372953055
20
-14.9517634348
30
0.0000000000
11
-3.2329699493
21
-14.4517824732
31
0.0000000000
11
-3.2335327399
21
-14.4565268173
31
0.0000000000
11
-3.2340908595
21
-14.4697236663
31
0.0000000000
11
-3.2346290629
21
-14.4911356300
31
0.0000000000
11
-3.2351343746
21
-14.5201346521
31
0.0000000000
11
-3.2356031821
21
-14.5564134021
31
0.0000000000
11
-3.2360308302
21
-14.5997689836
31
0.0000000000
11
-3.2364054325
21
-14.6491554325
31
0.0000000000
11
-3.2367179169
21
-14.7031980640
31
0.0000000000
11
-3.2369664962
21
-14.7613475906
31
0.0000000000
11
-3.2371485666
21
-14.8231870729
31
0.0000000000
11
-3.2372588230
21
-14.8872420399
31
0.0000000000
11
-3.2372953055
21
-14.9517634348
31
0.0000000000
0
SPLINE
5
3E3
100
AcDbEntity
8
0
100
AcDbSpline
62
9
6
CONTINUOUS
70
0
71
3
72
17
73
13
74
11
42
0.0000001000
43
0.0000001000
44
0.0000000001
12
0.0012298291
22
-0.3661500354
32
0.0000000000
13
0.3661509389
23
-0.0009224053
33
0.0000000000
40
0.0000000000
40
0.0000000000
40
0.0000000000
40
0.0000000000
40
0.0926637669
40
0.1861959939
40
0.2811621264
40
0.3780472439
40
0.4771141944
40
0.5784104998
40
0.6817687109
40
0.7868361684
40
0.8931123906
40
1.0000000000
40
1.0000000000
40
1.0000000000
40
1.0000000000
10
-10.3602336153
20
23.6056834734
30
0.0000000000
10
-10.3601956284
20
23.5943738596
30
0.0000000000
10
-10.3580475605
20
23.5716030961
30
0.0000000000
10
-10.3487129826
20
23.5384014231
30
0.0000000000
10
-10.3335032346
20
23.5068717658
30
0.0000000000
10
-10.3128173486
20
23.4778140248
30
0.0000000000
10
-10.2871822442
20
23.4519284454
30
0.0000000000
10
-10.2572389802
20
23.4298364944
30
0.0000000000
10
-10.2237260811
20
23.4120628567
30
0.0000000000
10
-10.1874597794
20
23.3990285898
30
0.0000000000
10
-10.1493305961
20
23.3910419344
30
0.0000000000
10
-10.1232835122
20
23.3892099870
30
0.0000000000
10
-10.1102378460
20
23.3891771225
30
0.0000000000
11
-10.3602336153
21
23.6056834734
31
0.0000000000
11
-10.3570585555
21
23.5719033273
31
0.0000000000
11
-10.3478279329
21
23.5389237263
31
0.0000000000
11
-10.3327683089
21
23.5075820111
31
0.0000000000
11
-10.3122474334
21
23.4786450581
31
0.0000000000
11
-10.2867697441
21
23.4528253103
31
0.0000000000
11
-10.2569601705
21
23.4307561765
31
0.0000000000
11
-10.2235503430
21
23.4129793857
31
0.0000000000
11
-10.1873600702
21
23.3999311432
31
0.0000000000
11
-10.1492779112
21
23.3919316979
31
0.0000000000
11
-10.1102378460
21
23.3891771225
31
0.0000000000
0
SPLINE
5
3E4
100
AcDbEntity
8
0
100
AcDbSpline
62
0
6
CONTINUOUS
70
0
71
3
72
17
73
13
74
11
42
0.0000001000
43
0.0000001000
44
0.0000000001
12
-0.4220147089
22
0.0000000000
32
0.0000000000
13
-0.0000000000
23
0.4220147089
33
0.0000000000
40
0.0000000000
40
0.0000000000
40
0.0000000000
40
0.0000000000
40
0.0855989391
40
0.1727353490
40
0.2617246883
40
0.3543677482
40
0.4508775680
40
0.5524911396
40
0.6587554531
40
0.7696721429
40
0.8836902644
40
1.0000000000
40
1.0000000000
40
1.0000000000
40
1.0000000000
10
-10.1153284471
20
22.8839956369
30
0.0000000000
10
-10.1273697842
20
22.8839956369
30
0.0000000000
10
-10.1517167160
20
22.8860356770
30
0.0000000000
10
-10.1875383562
20
22.8952209421
30
0.0000000000
10
-10.2222703501
20
22.9105873723
30
0.0000000000
10
-10.2551500722
20
22.9321093120
30
0.0000000000
10
-10.2854950236
20
22.9597889837
30
0.0000000000
10
-10.3123457231
20
22.9933646735
30
0.0000000000
10
-10.3347478342
20
23.0324131188
30
0.0000000000
10
-10.3516524848
20
23.0760190654
30
0.0000000000
10
-10.3622154857
20
23.1230170775
30
0.0000000000
10
-10.3646054493
20
23.1554695813
30
0.0000000000
10
-10.3646054493
20
23.1718310543
30
0.0000000000
11
-10.1153284471
21
22.8839956369
31
0.0000000000
11
-10.1513268712
21
22.8870052318
31
0.0000000000
11
-10.1869553324
21
22.8961077042
31
0.0000000000
11
-10.2213179709
21
22.9112593655
31
0.0000000000
11
-10.2540645385
21
22.9326186004
31
0.0000000000
11
-10.2842031556
21
22.9600134839
31
0.0000000000
11
-10.3110443464
21
22.9934567579
31
0.0000000000
11
-10.3334210324
21
23.0323202012
31
0.0000000000
11
-10.3503955862
21
23.0759424181
31
0.0000000000
11
-10.3609830904
21
23.1228804800
31
0.0000000000
11
-10.3646054493
21
23.1718310543
31
0.0000000000
0
SPLINE
5
3E5
100
AcDbEntity
8
0
100
AcDbSpline
62
0
6
CONTINUOUS
70
0
71
3
72
11
73
7
74
5
42
0.0000001000
43
0.0000001000
44
0.0000000001
12
0.1866710540
22
-0.0933370855
32
0.0000000000
13
0.2085296256
23
-0.0000000000
33
0.0000000000
40
0.0000000000
40
0.0000000000
40
0.0000000000
40
0.0000000000
40
0.0756363117
40
0.3844068434
40
0.6937708829
40
1.0000000000
40
1.0000000000
40
1.0000000000
40
1.0000000000
10
-10.6157778705
20
-22.5824047046
30
0.0000000000
10
-10.6110715005
20
-22.5847579289
30
0.0000000000
10
-10.5869424945
20
-22.5962984433
30
0.0000000000
10
-10.5416021542
20
-22.6132085381
30
0.0000000000
10
-10.4786058571
20
-22.6268818488
30
0.0000000000
10
-10.4357543043
20
-22.6299272261
30
0.0000000000
10
-10.4144683566
20
-22.6299272261
30
0.0000000000
11
-10.6157778705
21
-22.5824047046
31
0.0000000000
11
-10.6015377449
21
-22.5892153306
31
0.0000000000
11
-10.5412094627
21
-22.6117161657
31
0.0000000000
11
-10.4781653480
21
-22.6253976103
31
0.0000000000
11
-10.4144683566
21
-22.6299272261
31
0.0000000000
0
SPLINE
5
3E6
100
AcDbEntity
8
0
100
AcDbSpline
62
0
6
CONTINUOUS
70
0
71
3
72
11
73
7
74
5
42
0.0000001000
43
0.0000001000
44
0.0000000001
12
-0.1866489250
22
0.0933079083
32
0.0000000000
13
-0.2084938484
23
-0.0000000000
33
0.0000000000
40
0.0000000000
40
0.0000000000
40
0.0000000000
40
0.0000000000
40
0.0760497115
40
0.3837369054
40
0.6920303720
40
1.0000000000
40
1.0000000000
40
1.0000000000
40
1.0000000000
10
11.1865348922
20
22.1051125141
30
0.0000000000
10
11.1818033599
20
22.1074778606
30
0.0000000000
10
11.1577182585
20
22.1189923414
30
0.0000000000
10
11.1125008000
20
22.1358563570
30
0.0000000000
10
11.0495525363
20
22.1495538837
30
0.0000000000
10
11.0066607158
20
22.1526190383
30
0.0000000000
10
10.9852574581
20
22.1526190383
30
0.0000000000
11
11.1865348922
21
22.1051125141
31
0.0000000000
11
11.1722180778
21
22.1119568207
31
0.0000000000
11
11.1121117340
21
22.1343747547
31
0.0000000000
11
11.0493037029
21
22.1480393587
31
0.0000000000
11
10.9852574581
21
22.1526190383
31
0.0000000000
0
SPLINE
5
3E7
100
AcDbEntity
8
0
100
AcDbSpline
62
0
6
CONTINUOUS
70
0
71
3
72
16
73
12
74
10
42
0.0000001000
43
0.0000001000
44
0.0000000001
12
0.1109486752
22
0.1664253599
32
0.0000000000
13
0.2000175216
23
-0.0000000000
33
0.0000000000
40
0.0000000000
40
0.0000000000
40
0.0000000000
40
0.0000000000
40
0.0503204949
40
0.1107229334
40
0.1924067251
40
0.2950498693
40
0.4152014588
40
0.5481153788
40
0.6925582741
40
0.8450269157
40
1.0000000000
40
1.0000000000
40
1.0000000000
40
1.0000000000
10
-6.9575839478
20
20.7556062324
30
0.0000000000
10
-6.9557229504
20
20.7583977679
30
0.0000000000
10
-6.9460388200
20
20.7548227094
30
0.0000000000
10
-6.9343648252
20
20.7569753072
30
0.0000000000
10
-6.9175938604
20
20.7564436837
30
0.0000000000
10
-6.8974652851
20
20.7569265697
30
0.0000000000
10
-6.8736917899
20
20.7570025057
30
0.0000000000
10
-6.8472075819
20
20.7571713049
30
0.0000000000
10
-6.8185446479
20
20.7572636825
30
0.0000000000
10
-6.7884180675
20
20.7573282959
30
0.0000000000
10
-6.7679197765
20
20.7573414518
30
0.0000000000
10
-6.7575873324
20
20.7573414518
30
0.0000000000
11
-6.9575839478
21
20.7556062324
31
0.0000000000
11
-6.9475332638
21
20.7561425045
31
0.0000000000
11
-6.9354543390
21
20.7563941611
31
0.0000000000
11
-6.9191177839
21
20.7566252536
31
0.0000000000
11
-6.8985884168
21
20.7568339005
31
0.0000000000
11
-6.8745566523
21
20.7570118274
31
0.0000000000
11
-6.8479719146
21
20.7571530509
31
0.0000000000
11
-6.8190809913
21
20.7572569030
31
0.0000000000
11
-6.7885846575
21
20.7573203617
31
0.0000000000
11
-6.7575873324
21
20.7573414518
31
0.0000000000
0
SPLINE
5
3E8
100
AcDbEntity
8
0
100
AcDbSpline
62
0
6
CONTINUOUS
70
0
71
3
72
17
73
13
74
11
42
0.0000001000
43
0.0000001000
44
0.0000000001
12
-0.3159592551
22
0.0000000000
32
0.0000000000
13
0.0000000000
23
0.3159592551
33
0.0000000000
40
0.0000000000
40
0.0000000000
40
0.0000000000
40
0.0000000000
40
0.0979148638
40
0.1968522988
40
0.2957442844
40
0.3945683683
40
0.4950715586
40
0.5960690150
40
0.6962258470
40
0.7972362597
40
0.8989464193
40
1.0000000000
40
1.0000000000
40
1.0000000000
40
1.0000000000
10
-6.8665828010
20
16.2613459061
30
0.0000000000
10
-6.8768951701
20
16.2613459061
30
0.0000000000
10
-6.8976642744
20
16.2629810614
30
0.0000000000
10
-6.9280653876
20
16.2703129414
30
0.0000000000
10
-6.9570258308
20
16.2823834599
30
0.0000000000
10
-6.9838723738
20
16.2989314937
30
0.0000000000
10
-7.0079574839
20
16.3196392118
30
0.0000000000
10
-7.0285660215
20
16.3439933468
30
0.0000000000
10
-7.0451404721
20
16.3713104423
30
0.0000000000
10
-7.0573012505
20
16.4009425455
30
0.0000000000
10
-7.0647246329
20
16.4321912491
30
0.0000000000
10
-7.0663841346
20
16.4535831259
30
0.0000000000
10
-7.0663841346
20
16.4642260639
30
0.0000000000
11
-6.8665828010
21
16.2613459061
31
0.0000000000
11
-6.8974243645
21
16.2637754273
31
0.0000000000
11
-6.9278141750
21
16.2711006859
31
0.0000000000
11
-6.9566564931
21
16.2831183015
31
0.0000000000
11
-6.9832397860
21
16.2994978831
31
0.0000000000
11
-7.0073223600
21
16.3201958091
31
0.0000000000
11
-7.0279406287
21
16.3445515905
31
0.0000000000
11
-7.0443605451
21
16.3716038109
31
0.0000000000
11
-7.0564822733
21
16.4011273961
31
0.0000000000
11
-7.0639114657
21
16.4323931395
31
0.0000000000
11
-7.0663841346
21
16.4642260639
31
0.0000000000
0
SPLINE
5
3E9
100
AcDbEntity
8
0
100
AcDbSpline
62
9
6
CONTINUOUS
70
0
71
3
72
16
73
12
74
10
42
0.0000001000
43
0.0000001000
44
0.0000000001
12
-0.3112800850
22
0.0003096949
32
0.0000000000
13
-0.0003193129
23
0.3112800753
33
0.0000000000
40
0.0000000000
40
0.0000000000
40
0.0000000000
40
0.0000000000
40
0.1119195981
40
0.2237570569
40
0.3354208950
40
0.4468401821
40
0.5579730906
40
0.6688121076
40
0.7793852008
40
0.8897526764
40
1.0000000000
40
1.0000000000
40
1.0000000000
40
1.0000000000
10
-6.7575873324
20
19.5647842171
30
0.0000000000
10
-6.7692001131
20
19.5647957708
30
0.0000000000
10
-6.7924644667
20
19.5668197155
30
0.0000000000
10
-6.8262678429
20
19.5757659989
30
0.0000000000
10
-6.8580021683
20
19.5903528463
30
0.0000000000
10
-6.8866920392
20
19.6101401735
30
0.0000000000
10
-6.9114699659
20
19.6345306159
30
0.0000000000
10
-6.9315812718
20
19.6627852610
30
0.0000000000
10
-6.9464131911
20
19.6940515250
30
0.0000000000
10
-6.9555126370
20
19.7273660879
30
0.0000000000
10
-6.9575722133
20
19.7503065027
30
0.0000000000
10
-6.9575839478
20
19.7617457677
30
0.0000000000
11
-6.7575873324
21
19.5647842171
31
0.0000000000
11
-6.7922942894
21
19.5678071980
31
0.0000000000
11
-6.8259480456
21
19.5767153461
31
0.0000000000
11
-6.8575273603
21
19.5912383391
31
0.0000000000
11
-6.8860739425
21
19.6109354691
31
0.0000000000
11
-6.9107215314
21
19.6352090166
31
0.0000000000
11
-6.9307221830
21
19.6633223878
31
0.0000000000
11
-6.9454689670
21
19.6944224680
31
0.0000000000
11
-6.9545143846
21
19.7275655090
31
0.0000000000
11
-6.9575839478
21
19.7617457677
31
0.0000000000
0
SPLINE
5
3EA
100
AcDbEntity
8
0
100
AcDbSpline
62
0
6
CONTINUOUS
70
0
71
3
72
15
73
11
74
9
42
0.0000001000
43
0.0000001000
44
0.0000000001
12
0.2405028069
22
-0.3802683268
32
0.0000000000
13
0.0034690333
23
-0.4499261787
33
0.0000000000
40
0.0000000000
40
0.0000000000
40
0.0000000000
40
0.0000000000
40
0.1843281489
40
0.3599361202
40
0.5168659557
40
0.6525372170
40
0.7669733258
40
0.8618559465
40
0.9389300740
40
1.0000000000
40
1.0000000000
40
1.0000000000
40
1.0000000000
10
-6.4716235661
20
20.3442701893
30
0.0000000000
10
-6.4568464204
20
20.3209054704
30
0.0000000000
10
-6.4279898999
20
20.2752820906
30
0.0000000000
10
-6.3872083291
20
20.2093535328
30
0.0000000000
10
-6.3515180648
20
20.1488685242
30
0.0000000000
10
-6.3222594368
20
20.0952700993
30
0.0000000000
10
-6.2997245939
20
20.0486629106
30
0.0000000000
10
-6.2838171193
20
20.0087034098
30
0.0000000000
10
-6.2742913424
20
19.9750012354
30
0.0000000000
10
-6.2716975686
20
19.9543044852
30
0.0000000000
10
-6.2716269507
20
19.9451454990
30
0.0000000000
11
-6.4716235661
21
20.3442701893
31
0.0000000000
11
-6.4274106379
21
20.2741012210
31
0.0000000000
11
-6.3859826102
21
20.2068199587
31
0.0000000000
11
-6.3502633039
21
20.1459122125
31
0.0000000000
11
-6.3212159197
21
20.0922223334
31
0.0000000000
11
-6.2990589735
21
20.0457441557
31
0.0000000000
11
-6.2835957787
21
20.0059515812
31
0.0000000000
11
-6.2745875638
21
19.9724633118
31
0.0000000000
11
-6.2716269507
21
19.9451454990
31
0.0000000000
0
SPLINE
5
3EB
100
AcDbEntity
8
0
100
AcDbSpline
62
0
6
CONTINUOUS
70
0
71
3
72
17
73
13
74
11
42
0.0000001000
43
0.0000001000
44
0.0000000001
12
0.0000000000
22
-0.3159592549
32
0.0000000000
13
-0.3159592549
23
0.0000000000
33
0.0000000000
40
0.0000000000
40
0.0000000000
40
0.0000000000
40
0.0000000000
40
0.1010666728
40
0.2027206267
40
0.3036778778
40
0.4038624823
40
0.5048652071
40
0.6053580559
40
0.7041533663
40
0.8031076791
40
0.9021024842
40
1.0000000000
40
1.0000000000
40
1.0000000000
40
1.0000000000
10
-6.1628267639
20
16.4642260639
30
0.0000000000
10
-6.1628267639
20
16.4535817470
30
0.0000000000
10
-6.1644861331
20
16.4321943951
30
0.0000000000
10
-6.1719064119
20
16.4009555786
30
0.0000000000
10
-6.1840606553
20
16.3713302869
30
0.0000000000
10
-6.2006305390
20
16.3440128019
30
0.0000000000
10
-6.2212381144
20
16.3196547021
30
0.0000000000
10
-6.2453182583
20
16.2989467302
30
0.0000000000
10
-6.2721644867
20
16.2823937015
30
0.0000000000
10
-6.3011325944
20
16.2703161020
30
0.0000000000
10
-6.3315442566
20
16.2629810973
30
0.0000000000
10
-6.3523175555
20
16.2613459061
30
0.0000000000
10
-6.3626280975
20
16.2613459061
30
0.0000000000
11
-6.1628267639
21
16.4642260639
31
0.0000000000
11
-6.1653000737
21
16.4323890402
31
0.0000000000
11
-6.1727244366
21
16.4011404025
31
0.0000000000
11
-6.1848365984
21
16.3716310473
31
0.0000000000
11
-6.2012575940
21
16.3445692174
31
0.0000000000
11
-6.2218744205
21
16.3202100343
31
0.0000000000
11
-6.2459522783
21
16.2995116343
31
0.0000000000
11
-6.2725255386
21
16.2831331016
31
0.0000000000
11
-6.3013846653
21
16.2711046258
31
0.0000000000
11
-6.3317919644
21
16.2637745665
31
0.0000000000
11
-6.3626280975
21
16.2613459061
31
0.0000000000
0
SPLINE
5
3EC
100
AcDbEntity
8
0
100
AcDbSpline
62
9
6
CONTINUOUS
70
0
71
3
72
16
73
12
74
10
42
0.0000001000
43
0.0000001000
44
0.0000000001
12
-0.0003193129
22
-0.3112800753
32
0.0000000000
13
-0.3112800850
23
-0.0003096949
33
0.0000000000
40
0.0000000000
40
0.0000000000
40
0.0000000000
40
0.0000000000
40
0.1102473236
40
0.2206147992
40
0.3311878924
40
0.4420269094
40
0.5531598179
40
0.6645791050
40
0.7762429431
40
0.8880804019
40
1.0000000000
40
1.0000000000
40
1.0000000000
40
1.0000000000
10
-6.2716269507
20
19.7617457677
30
0.0000000000
10
-6.2716386852
20
19.7503065027
30
0.0000000000
10
-6.2736982615
20
19.7273660879
30
0.0000000000
10
-6.2827977074
20
19.6940515250
30
0.0000000000
10
-6.2976296267
20
19.6627852610
30
0.0000000000
10
-6.3177409326
20
19.6345306159
30
0.0000000000
10
-6.3425188594
20
19.6101401735
30
0.0000000000
10
-6.3712087302
20
19.5903528463
30
0.0000000000
10
-6.4029430556
20
19.5757659989
30
0.0000000000
10
-6.4367464318
20
19.5668197155
30
0.0000000000
10
-6.4600107854
20
19.5647957708
30
0.0000000000
10
-6.4716235661
20
19.5647842171
30
0.0000000000
11
-6.2716269507
21
19.7617457677
31
0.0000000000
11
-6.2746965139
21
19.7275655090
31
0.0000000000
11
-6.2837419315
21
19.6944224680
31
0.0000000000
11
-6.2984887155
21
19.6633223878
31
0.0000000000
11
-6.3184893671
21
19.6352090166
31
0.0000000000
11
-6.3431369560
21
19.6109354691
31
0.0000000000
11
-6.3716835382
21
19.5912383391
31
0.0000000000
11
-6.4032628529
21
19.5767153461
31
0.0000000000
11
-6.4369166091
21
19.5678071980
31
0.0000000000
11
-6.4716235661
21
19.5647842171
31
0.0000000000
0
SPLINE
5
3ED
100
AcDbEntity
8
0
100
AcDbSpline
62
0
6
CONTINUOUS
70
0
71
3
72
17
73
13
74
11
42
0.0000001000
43
0.0000001000
44
0.0000000001
12
0.0000000000
22
-0.3159592551
32
0.0000000000
13
-0.3159592551
23
0.0000000000
33
0.0000000000
40
0.0000000000
40
0.0000000000
40
0.0000000000
40
0.0000000000
40
0.1010535807
40
0.2027637403
40
0.3037741530
40
0.4039309850
40
0.5049284414
40
0.6054316317
40
0.7042557156
40
0.8031477012
40
0.9020851362
40
1.0000000000
40
1.0000000000
40
1.0000000000
40
1.0000000000
10
7.6371732361
20
16.4642260639
30
0.0000000000
10
7.6371732361
20
16.4535831259
30
0.0000000000
10
7.6355137344
20
16.4321912491
30
0.0000000000
10
7.6280903520
20
16.4009425455
30
0.0000000000
10
7.6159295736
20
16.3713104423
30
0.0000000000
10
7.5993551230
20
16.3439933468
30
0.0000000000
10
7.5787465854
20
16.3196392118
30
0.0000000000
10
7.5546614753
20
16.2989314937
30
0.0000000000
10
7.5278149323
20
16.2823834599
30
0.0000000000
10
7.4988544891
20
16.2703129414
30
0.0000000000
10
7.4684533759
20
16.2629810614
30
0.0000000000
10
7.4476842716
20
16.2613459061
30
0.0000000000
10
7.4373719025
20
16.2613459061
30
0.0000000000
11
7.6371732361
21
16.4642260639
31
0.0000000000
11
7.6347005672
21
16.4323931395
31
0.0000000000
11
7.6272713748
21
16.4011273961
31
0.0000000000
11
7.6151496466
21
16.3716038109
31
0.0000000000
11
7.5987297302
21
16.3445515905
31
0.0000000000
11
7.5781114614
21
16.3201958091
31
0.0000000000
11
7.5540288875
21
16.2994978831
31
0.0000000000
11
7.5274455946
21
16.2831183015
31
0.0000000000
11
7.4986032765
21
16.2711006859
31
0.0000000000
11
7.4682134660
21
16.2637754273
31
0.0000000000
11
7.4373719025
21
16.2613459061
31
0.0000000000
0
SPLINE
5
3EE
100
AcDbEntity
8
0
100
AcDbSpline
62
9
6
CONTINUOUS
70
0
71
3
72
16
73
12
74
10
42
0.0000001000
43
0.0000001000
44
0.0000000001
12
0.3112800905
22
0.0003096949
32
0.0000000000
13
0.0003193129
23
0.3112800808
33
0.0000000000
40
0.0000000000
40
0.0000000000
40
0.0000000000
40
0.0000000000
40
0.1119600247
40
0.2238378154
40
0.3355415143
40
0.4470001771
40
0.5581697986
40
0.6690456219
40
0.7796337392
40
0.8900164590
40
1.0000000000
40
1.0000000000
40
1.0000000000
40
1.0000000000
10
7.3283764339
20
19.5647842171
30
0.0000000000
10
7.3399934095
20
19.5647957749
30
0.0000000000
10
7.3632661950
20
19.5668211800
30
0.0000000000
10
7.3970810073
20
19.5757738705
30
0.0000000000
10
7.4288245034
20
19.5903709254
30
0.0000000000
10
7.4575201037
20
19.6101714670
30
0.0000000000
10
7.4822996695
20
19.6345771935
30
0.0000000000
10
7.5024067738
20
19.6628463304
30
0.0000000000
10
7.5172296811
20
19.6941246312
30
0.0000000000
10
7.5263090333
20
19.7274196163
30
0.0000000000
10
7.5283613429
20
19.7503338726
30
0.0000000000
10
7.5283730493
20
19.7617457677
30
0.0000000000
11
7.3283764339
21
19.5647842171
31
0.0000000000
11
7.3630958340
21
19.5678093701
31
0.0000000000
11
7.3967608942
21
19.5767238775
31
0.0000000000
11
7.4283492150
21
19.5912569843
31
0.0000000000
11
7.4569015728
21
19.6109673254
31
0.0000000000
11
7.4815504960
21
19.6352558036
31
0.0000000000
11
7.5015482033
21
19.6633853284
31
0.0000000000
11
7.5162850270
21
19.6944953053
31
0.0000000000
11
7.5253180681
21
19.7276466404
31
0.0000000000
11
7.5283730493
21
19.7617457677
31
0.0000000000
0
SPLINE
5
3EF
100
AcDbEntity
8
0
100
AcDbSpline
62
0
6
CONTINUOUS
70
0
71
3
72
16
73
12
74
10
42
0.0000001000
43
0.0000001000
44
0.0000000001
12
0.2000175216
22
0.0000000000
32
0.0000000000
13
0.1109486752
23
-0.1664253599
33
0.0000000000
40
0.0000000000
40
0.0000000000
40
0.0000000000
40
0.0000000000
40
0.1549730843
40
0.3074417259
40
0.4518846212
40
0.5847985412
40
0.7049501307
40
0.8075932749
40
0.8892770666
40
0.9496795051
40
1.0000000000
40
1.0000000000
40
1.0000000000
40
1.0000000000
10
7.3283764339
20
20.7573414518
30
0.0000000000
10
7.3387088780
20
20.7573414518
30
0.0000000000
10
7.3592071690
20
20.7573282959
30
0.0000000000
10
7.3893337494
20
20.7572636825
30
0.0000000000
10
7.4179966833
20
20.7571713049
30
0.0000000000
10
7.4444808914
20
20.7570025057
30
0.0000000000
10
7.4682543866
20
20.7569265697
30
0.0000000000
10
7.4883829619
20
20.7564436837
30
0.0000000000
10
7.5051539267
20
20.7569753072
30
0.0000000000
10
7.5168279215
20
20.7548227094
30
0.0000000000
10
7.5265120519
20
20.7583977679
30
0.0000000000
10
7.5283730493
20
20.7556062324
30
0.0000000000
11
7.3283764339
21
20.7573414518
31
0.0000000000
11
7.3593737590
21
20.7573203617
31
0.0000000000
11
7.3898700928
21
20.7572569030
31
0.0000000000
11
7.4187610160
21
20.7571530509
31
0.0000000000
11
7.4453457538
21
20.7570118274
31
0.0000000000
11
7.4693775183
21
20.7568339005
31
0.0000000000
11
7.4899068854
21
20.7566252536
31
0.0000000000
11
7.5062434405
21
20.7563941611
31
0.0000000000
11
7.5183223653
21
20.7561425045
31
0.0000000000
11
7.5283730493
21
20.7556062324
31
0.0000000000
0
SPLINE
5
3F0
100
AcDbEntity
8
0
100
AcDbSpline
62
0
6
CONTINUOUS
70
0
71
3
72
17
73
13
74
11
42
0.0000001000
43
0.0000001000
44
0.0000000001
12
-0.3159592549
22
0.0000000000
32
0.0000000000
13
-0.0000000000
23
0.3159592549
33
0.0000000000
40
0.0000000000
40
0.0000000000
40
0.0000000000
40
0.0000000000
40
0.0978975158
40
0.1968923209
40
0.2958466337
40
0.3946419441
40
0.4951347929
40
0.5961375177
40
0.6963221222
40
0.7972793733
40
0.8989333272
40
1.0000000000
40
1.0000000000
40
1.0000000000
40
1.0000000000
10
6.9334171990
20
16.2613459061
30
0.0000000000
10
6.9231066570
20
16.2613459061
30
0.0000000000
10
6.9023333581
20
16.2629810973
30
0.0000000000
10
6.8719216959
20
16.2703161020
30
0.0000000000
10
6.8429535882
20
16.2823937015
30
0.0000000000
10
6.8161073598
20
16.2989467302
30
0.0000000000
10
6.7920272159
20
16.3196547021
30
0.0000000000
10
6.7714196405
20
16.3440128019
30
0.0000000000
10
6.7548497568
20
16.3713302869
30
0.0000000000
10
6.7426955134
20
16.4009555786
30
0.0000000000
10
6.7352752346
20
16.4321943951
30
0.0000000000
10
6.7336158654
20
16.4535817470
30
0.0000000000
10
6.7336158654
20
16.4642260639
30
0.0000000000
11
6.9334171990
21
16.2613459061
31
0.0000000000
11
6.9025810659
21
16.2637745665
31
0.0000000000
11
6.8721737668
21
16.2711046258
31
0.0000000000
11
6.8433146401
21
16.2831331016
31
0.0000000000
11
6.8167413798
21
16.2995116343
31
0.0000000000
11
6.7926635220
21
16.3202100343
31
0.0000000000
11
6.7720466955
21
16.3445692174
31
0.0000000000
11
6.7556256999
21
16.3716310473
31
0.0000000000
11
6.7435135381
21
16.4011404025
31
0.0000000000
11
6.7360891752
21
16.4323890402
31
0.0000000000
11
6.7336158654
21
16.4642260639
31
0.0000000000
0
SPLINE
5
3F1
100
AcDbEntity
8
0
100
AcDbSpline
62
9
6
CONTINUOUS
70
0
71
3
72
16
73
12
74
10
42
0.0000001000
43
0.0000001000
44
0.0000000001
12
0.0003193129
22
-0.3112800808
32
0.0000000000
13
0.3112800905
23
-0.0003096949
33
0.0000000000
40
0.0000000000
40
0.0000000000
40
0.0000000000
40
0.0000000000
40
0.1099835410
40
0.2203662608
40
0.3309543781
40
0.4418302014
40
0.5529998229
40
0.6644584857
40
0.7761621846
40
0.8880399753
40
1.0000000000
40
1.0000000000
40
1.0000000000
40
1.0000000000
10
6.8424160522
20
19.7617457677
30
0.0000000000
10
6.8424277586
20
19.7503338726
30
0.0000000000
10
6.8444800682
20
19.7274196163
30
0.0000000000
10
6.8535594204
20
19.6941246312
30
0.0000000000
10
6.8683823277
20
19.6628463304
30
0.0000000000
10
6.8884894320
20
19.6345771935
30
0.0000000000
10
6.9132689978
20
19.6101714670
30
0.0000000000
10
6.9419645980
20
19.5903709254
30
0.0000000000
10
6.9737080942
20
19.5757738705
30
0.0000000000
10
7.0075229065
20
19.5668211800
30
0.0000000000
10
7.0307956920
20
19.5647957749
30
0.0000000000
10
7.0424126676
20
19.5647842171
30
0.0000000000
11
6.8424160522
21
19.7617457677
31
0.0000000000
11
6.8454710334
21
19.7276466404
31
0.0000000000
11
6.8545040745
21
19.6944953053
31
0.0000000000
11
6.8692408982
21
19.6633853284
31
0.0000000000
11
6.8892386055
21
19.6352558036
31
0.0000000000
11
6.9138875287
21
19.6109673254
31
0.0000000000
11
6.9424398865
21
19.5912569843
31
0.0000000000
11
6.9740282073
21
19.5767238775
31
0.0000000000
11
7.0076932675
21
19.5678093701
31
0.0000000000
11
7.0424126676
21
19.5647842171
31
0.0000000000
0
SPLINE
5
3F2
100
AcDbEntity
8
0
100
AcDbSpline
62
0
6
CONTINUOUS
70
0
71
3
72
15
73
11
74
9
42
0.0000001000
43
0.0000001000
44
0.0000000001
12
0.0034690356
22
0.4499264785
32
0.0000000000
13
0.2405029672
23
0.3802685801
33
0.0000000000
40
0.0000000000
40
0.0000000000
40
0.0000000000
40
0.0000000000
40
0.0609871445
40
0.1374957028
40
0.2324407633
40
0.3469893411
40
0.4826892951
40
0.6396944231
40
0.8154863364
40
1.0000000000
40
1.0000000000
40
1.0000000000
40
1.0000000000
10
6.8424160522
20
19.9451454990
30
0.0000000000
10
6.8424865744
20
19.9542920761
30
0.0000000000
10
6.8450648742
20
19.9748918995
30
0.0000000000
10
6.8545425973
20
20.0085151051
30
0.0000000000
10
6.8704078429
20
20.0484292740
30
0.0000000000
10
6.8929437924
20
20.0950699199
30
0.0000000000
10
6.9222109115
20
20.1487008858
30
0.0000000000
10
6.9579191407
20
20.2092255120
30
0.0000000000
10
6.9987344779
20
20.2752117024
30
0.0000000000
10
7.0276206397
20
20.3208819397
30
0.0000000000
10
7.0424126676
20
20.3442701893
30
0.0000000000
11
6.8424160522
21
19.9451454990
31
0.0000000000
11
6.8453695669
21
19.9724266346
31
0.0000000000
11
6.8542926428
21
20.0056743062
31
0.0000000000
11
6.8697426219
21
20.0455021796
31
0.0000000000
11
6.8919079182
21
20.0920324725
31
0.0000000000
11
6.9209537462
21
20.1457379173
31
0.0000000000
11
6.9566857751
21
20.2066775296
31
0.0000000000
11
6.9981554552
21
20.2740304006
31
0.0000000000
11
7.0424126676
21
20.3442701893
31
0.0000000000
0
SPLINE
5
3F3
100
AcDbEntity
8
0
100
AcDbSpline
62
0
6
CONTINUOUS
70
0
71
3
72
19
73
15
74
13
42
0.0000001000
43
0.0000001000
44
0.0000000001
12
0.4474332138
22
-0.2236995690
32
0.0000000000
13
0.0000000000
23
-0.5002379214
33
0.0000000000
40
0.0000000000
40
0.0000000000
40
0.0000000000
40
0.0000000000
40
0.0097486315
40
0.0362269119
40
0.0790884943
40
0.1370984108
40
0.2096500014
40
0.2963401511
40
0.3950790552
40
0.5031195531
40
0.6193654630
40
0.7429834549
40
0.8710267369
40
1.0000000000
40
1.0000000000
40
1.0000000000
40
1.0000000000
10
9.8639049457
20
-19.5631274014
30
0.0000000000
10
9.8653588995
20
-19.5638543229
30
0.0000000000
10
9.8644766949
20
-19.5716609833
30
0.0000000000
10
9.8669700017
20
-19.5831709413
30
0.0000000000
10
9.8671250858
20
-19.6052814562
30
0.0000000000
10
9.8684499348
20
-19.6338027540
30
0.0000000000
10
9.8692284830
20
-19.6701602003
30
0.0000000000
10
9.8701076037
20
-19.7131197573
30
0.0000000000
10
9.8708238265
20
-19.7620655334
30
0.0000000000
10
9.8714440081
20
-19.8159202579
30
0.0000000000
10
9.8719334908
20
-19.8739314174
30
0.0000000000
10
9.8722917589
20
-19.9352770390
30
0.0000000000
10
9.8725082261
20
-19.9987461292
30
0.0000000000
10
9.8725563170
20
-20.0416025906
30
0.0000000000
10
9.8725563170
20
-20.0631083629
30
0.0000000000
11
9.8639049457
21
-19.5631274014
31
0.0000000000
11
9.8650306852
21
-19.5678723229
31
0.0000000000
11
9.8661470660
21
-19.5810706325
31
0.0000000000
11
9.8672235918
21
-19.6024845788
31
0.0000000000
11
9.8682343096
21
-19.6314857319
31
0.0000000000
11
9.8691720006
21
-19.6677666734
31
0.0000000000
11
9.8700273473
21
-19.7111239374
31
0.0000000000
11
9.8707765792
21
-19.7605111987
31
0.0000000000
11
9.8714015574
21
-19.8145535391
31
0.0000000000
11
9.8718987167
21
-19.8727020262
31
0.0000000000
11
9.8722628510
21
-19.9345393614
31
0.0000000000
11
9.8724833557
21
-19.9985910871
31
0.0000000000
11
9.8725563170
21
-20.0631083629
31
0.0000000000
0
SPLINE
5
3F4
100
AcDbEntity
8
0
100
AcDbSpline
62
0
6
CONTINUOUS
70
0
71
3
72
19
73
15
74
13
42
0.0000001000
43
0.0000001000
44
0.0000000001
12
0.0000000000
22
0.5000096988
32
0.0000000000
13
0.2773527700
23
0.4160350223
33
0.0000000000
40
0.0000000000
40
0.0000000000
40
0.0000000000
40
0.0000000000
40
0.1290418213
40
0.2571505552
40
0.3808281543
40
0.4971258089
40
0.6052098860
40
0.7039818297
40
0.7906925622
40
0.8632505357
40
0.9212505787
40
0.9640789531
40
0.9904820863
40
1.0000000000
40
1.0000000000
40
1.0000000000
40
1.0000000000
10
7.6063387381
20
-20.0631083629
30
0.0000000000
10
7.6063387381
20
-20.0416009755
30
0.0000000000
10
7.6063547841
20
-19.9987417260
30
0.0000000000
10
7.6064268760
20
-19.9352691284
30
0.0000000000
10
7.6065465311
20
-19.8739208624
30
0.0000000000
10
7.6067089051
20
-19.8159095722
30
0.0000000000
10
7.6069182466
20
-19.7620516272
30
0.0000000000
10
7.6071484900
20
-19.7131180897
30
0.0000000000
10
7.6074674891
20
-19.6701278681
30
0.0000000000
10
7.6076524630
20
-19.6338696082
30
0.0000000000
10
7.6082923727
20
-19.6050991691
30
0.0000000000
10
7.6078766504
20
-19.5835987925
30
0.0000000000
10
7.6095573531
20
-19.5710196218
30
0.0000000000
10
7.6083423283
20
-19.5644473298
30
0.0000000000
10
7.6092222682
20
-19.5631274014
30
0.0000000000
11
7.6063387381
21
-20.0631083629
31
0.0000000000
11
7.6063630600
21
-19.9985862053
31
0.0000000000
11
7.6064365647
21
-19.9345306380
31
0.0000000000
11
7.6065579454
21
-19.8726907581
31
0.0000000000
11
7.6067236649
21
-19.8145410390
31
0.0000000000
11
7.6069319873
21
-19.7604983536
31
0.0000000000
11
7.6071817204
21
-19.7111120553
31
0.0000000000
11
7.6074668160
21
-19.6677567854
31
0.0000000000
11
7.6077793497
21
-19.6314784411
31
0.0000000000
11
7.6081162183
21
-19.6024798137
31
0.0000000000
11
7.6084750132
21
-19.5810682170
31
0.0000000000
11
7.6088470842
21
-19.5678716385
31
0.0000000000
11
7.6092222682
21
-19.5631274014
31
0.0000000000
0
SPLINE
5
3F5
100
AcDbEntity
8
0
100
AcDbSpline
62
0
6
CONTINUOUS
70
0
71
3
72
19
73
15
74
13
42
0.0000001000
43
0.0000001000
44
0.0000000001
12
0.2773527700
22
-0.4160350223
32
0.0000000000
13
0.0000000000
23
-0.5000096988
33
0.0000000000
40
0.0000000000
40
0.0000000000
40
0.0000000000
40
0.0000000000
40
0.0095179137
40
0.0359210469
40
0.0787494213
40
0.1367494643
40
0.2093074378
40
0.2960181703
40
0.3947901140
40
0.5028741911
40
0.6191718457
40
0.7428494448
40
0.8709581787
40
1.0000000000
40
1.0000000000
40
1.0000000000
40
1.0000000000
10
6.7615668333
20
-19.5631274014
30
0.0000000000
10
6.7624467732
20
-19.5644473298
30
0.0000000000
10
6.7612317484
20
-19.5710196218
30
0.0000000000
10
6.7629124511
20
-19.5835987925
30
0.0000000000
10
6.7624967288
20
-19.6050991691
30
0.0000000000
10
6.7631366385
20
-19.6338696082
30
0.0000000000
10
6.7633216124
20
-19.6701278681
30
0.0000000000
10
6.7636406115
20
-19.7131180897
30
0.0000000000
10
6.7638708549
20
-19.7620516272
30
0.0000000000
10
6.7640801964
20
-19.8159095722
30
0.0000000000
10
6.7642425704
20
-19.8739208624
30
0.0000000000
10
6.7643622255
20
-19.9352691284
30
0.0000000000
10
6.7644343173
20
-19.9987417260
30
0.0000000000
10
6.7644503634
20
-20.0416009755
30
0.0000000000
10
6.7644503634
20
-20.0631083629
30
0.0000000000
11
6.7615668333
21
-19.5631274014
31
0.0000000000
11
6.7619420173
21
-19.5678716385
31
0.0000000000
11
6.7623140883
21
-19.5810682170
31
0.0000000000
11
6.7626728831
21
-19.6024798137
31
0.0000000000
11
6.7630097518
21
-19.6314784411
31
0.0000000000
11
6.7633222855
21
-19.6677567854
31
0.0000000000
11
6.7636073811
21
-19.7111120553
31
0.0000000000
11
6.7638571142
21
-19.7604983536
31
0.0000000000
11
6.7640654366
21
-19.8145410390
31
0.0000000000
11
6.7642311561
21
-19.8726907581
31
0.0000000000
11
6.7643525368
21
-19.9345306380
31
0.0000000000
11
6.7644260415
21
-19.9985862053
31
0.0000000000
11
6.7644503634
21
-20.0631083629
31
0.0000000000
0
SPLINE
5
3F6
100
AcDbEntity
8
0
100
AcDbSpline
62
0
6
CONTINUOUS
70
0
71
3
72
19
73
15
74
13
42
0.0000001000
43
0.0000001000
44
0.0000000001
12
0.0000000000
22
0.5000455535
32
0.0000000000
13
0.3535856018
23
0.3535856018
33
0.0000000000
40
0.0000000000
40
0.0000000000
40
0.0000000000
40
0.0000000000
40
0.1290310546
40
0.2571295078
40
0.3807977415
40
0.4970872625
40
0.6051644857
40
0.7039312265
40
0.7906387079
40
0.8631956554
40
0.9211972196
40
0.9640307706
40
0.9904456554
40
1.0000000000
40
1.0000000000
40
1.0000000000
40
1.0000000000
10
4.5565958870
20
-20.0631083629
30
0.0000000000
10
4.5565958870
20
-20.0416012278
30
0.0000000000
10
4.5566199486
20
-19.9987424179
30
0.0000000000
10
4.5567281185
20
-19.9352703513
30
0.0000000000
10
4.5569074871
20
-19.8739225575
30
0.0000000000
10
4.5571514352
20
-19.8159110862
30
0.0000000000
10
4.5574641589
20
-19.7620543167
30
0.0000000000
10
4.5578137030
20
-19.7131166910
30
0.0000000000
10
4.5582794169
20
-19.6701379257
30
0.0000000000
10
4.5585935582
20
-19.6338450598
30
0.0000000000
10
4.5594557959
20
-19.6051644320
30
0.0000000000
10
4.5590622362
20
-19.5834488626
30
0.0000000000
10
4.5611648624
20
-19.5712549771
30
0.0000000000
10
4.5597951504
20
-19.5642534943
30
0.0000000000
10
4.5609212433
20
-19.5631274014
30
0.0000000000
11
4.5565958870
21
-20.0631083629
31
0.0000000000
11
4.5566323696
21
-19.9985869681
31
0.0000000000
11
4.5567426259
21
-19.9345320010
31
0.0000000000
11
4.5569246963
21
-19.8726925187
31
0.0000000000
11
4.5571732756
21
-19.8145429921
31
0.0000000000
11
4.5574857601
21
-19.7605003606
31
0.0000000000
11
4.5578603623
21
-19.7111139118
31
0.0000000000
11
4.5582880104
21
-19.6677583303
31
0.0000000000
11
4.5587568180
21
-19.6314795802
31
0.0000000000
11
4.5592621297
21
-19.6024805582
31
0.0000000000
11
4.5598003330
21
-19.5810685944
31
0.0000000000
11
4.5603584526
21
-19.5678717454
31
0.0000000000
11
4.5609212433
21
-19.5631274014
31
0.0000000000
0
SPLINE
5
3F7
100
AcDbEntity
8
0
100
AcDbSpline
62
0
6
CONTINUOUS
70
0
71
3
72
19
73
15
74
13
42
0.0000001000
43
0.0000001000
44
0.0000000001
12
0.3535856018
22
-0.3535856018
32
0.0000000000
13
0.0000000000
23
-0.5000455535
33
0.0000000000
40
0.0000000000
40
0.0000000000
40
0.0000000000
40
0.0000000000
40
0.0095543446
40
0.0359692294
40
0.0788027804
40
0.1368043446
40
0.2093612921
40
0.2960687735
40
0.3948355143
40
0.5029127375
40
0.6192022585
40
0.7428704922
40
0.8709689454
40
1.0000000000
40
1.0000000000
40
1.0000000000
40
1.0000000000
10
-3.9901321418
20
-19.5631274014
30
0.0000000000
10
-3.9890060489
20
-19.5642534943
30
0.0000000000
10
-3.9903757609
20
-19.5712549771
30
0.0000000000
10
-3.9882731347
20
-19.5834488626
30
0.0000000000
10
-3.9886666944
20
-19.6051644320
30
0.0000000000
10
-3.9878044567
20
-19.6338450598
30
0.0000000000
10
-3.9874903154
20
-19.6701379257
30
0.0000000000
10
-3.9870246015
20
-19.7131166910
30
0.0000000000
10
-3.9866750574
20
-19.7620543167
30
0.0000000000
10
-3.9863623337
20
-19.8159110862
30
0.0000000000
10
-3.9861183856
20
-19.8739225575
30
0.0000000000
10
-3.9859390170
20
-19.9352703513
30
0.0000000000
10
-3.9858308471
20
-19.9987424179
30
0.0000000000
10
-3.9858067855
20
-20.0416012278
30
0.0000000000
10
-3.9858067855
20
-20.0631083629
30
0.0000000000
11
-3.9901321418
21
-19.5631274014
31
0.0000000000
11
-3.9895693511
21
-19.5678717454
31
0.0000000000
11
-3.9890112315
21
-19.5810685944
31
0.0000000000
11
-3.9884730282
21
-19.6024805582
31
0.0000000000
11
-3.9879677165
21
-19.6314795802
31
0.0000000000
11
-3.9874989089
21
-19.6677583303
31
0.0000000000
11
-3.9870712608
21
-19.7111139118
31
0.0000000000
11
-3.9866966586
21
-19.7605003606
31
0.0000000000
11
-3.9863841741
21
-19.8145429921
31
0.0000000000
11
-3.9861355948
21
-19.8726925187
31
0.0000000000
11
-3.9859535244
21
-19.9345320010
31
0.0000000000
11
-3.9858432681
21
-19.9985869681
31
0.0000000000
11
-3.9858067855
21
-20.0631083629
31
0.0000000000
0
SPLINE
5
3F8
100
AcDbEntity
8
0
100
AcDbSpline
62
0
6
CONTINUOUS
70
0
71
3
72
19
73
15
74
13
42
0.0000001000
43
0.0000001000
44
0.0000000001
12
0.0000000000
22
0.5000096988
32
0.0000000000
13
0.2773527700
23
0.4160350223
33
0.0000000000
40
0.0000000000
40
0.0000000000
40
0.0000000000
40
0.0000000000
40
0.1290418213
40
0.2571505552
40
0.3808281543
40
0.4971258089
40
0.6052098860
40
0.7039818297
40
0.7906925622
40
0.8632505357
40
0.9212505787
40
0.9640789531
40
0.9904820863
40
1.0000000000
40
1.0000000000
40
1.0000000000
40
1.0000000000
10
-6.1936612619
20
-20.0631083629
30
0.0000000000
10
-6.1936612619
20
-20.0416009755
30
0.0000000000
10
-6.1936452159
20
-19.9987417260
30
0.0000000000
10
-6.1935731240
20
-19.9352691284
30
0.0000000000
10
-6.1934534689
20
-19.8739208624
30
0.0000000000
10
-6.1932910949
20
-19.8159095722
30
0.0000000000
10
-6.1930817534
20
-19.7620516272
30
0.0000000000
10
-6.1928515100
20
-19.7131180897
30
0.0000000000
10
-6.1925325109
20
-19.6701278681
30
0.0000000000
10
-6.1923475370
20
-19.6338696082
30
0.0000000000
10
-6.1917076273
20
-19.6050991691
30
0.0000000000
10
-6.1921233496
20
-19.5835987925
30
0.0000000000
10
-6.1904426469
20
-19.5710196218
30
0.0000000000
10
-6.1916576717
20
-19.5644473298
30
0.0000000000
10
-6.1907777318
20
-19.5631274014
30
0.0000000000
11
-6.1936612619
21
-20.0631083629
31
0.0000000000
11
-6.1936369400
21
-19.9985862053
31
0.0000000000
11
-6.1935634353
21
-19.9345306380
31
0.0000000000
11
-6.1934420546
21
-19.8726907581
31
0.0000000000
11
-6.1932763351
21
-19.8145410390
31
0.0000000000
11
-6.1930680127
21
-19.7604983536
31
0.0000000000
11
-6.1928182796
21
-19.7111120553
31
0.0000000000
11
-6.1925331840
21
-19.6677567854
31
0.0000000000
11
-6.1922206503
21
-19.6314784411
31
0.0000000000
11
-6.1918837817
21
-19.6024798137
31
0.0000000000
11
-6.1915249868
21
-19.5810682170
31
0.0000000000
11
-6.1911529158
21
-19.5678716385
31
0.0000000000
11
-6.1907777318
21
-19.5631274014
31
0.0000000000
0
SPLINE
5
3F9
100
AcDbEntity
8
0
100
AcDbSpline
62
0
6
CONTINUOUS
70
0
71
3
72
19
73
15
74
13
42
0.0000001000
43
0.0000001000
44
0.0000000001
12
0.2773527700
22
-0.4160350223
32
0.0000000000
13
0.0000000000
23
-0.5000096988
33
0.0000000000
40
0.0000000000
40
0.0000000000
40
0.0000000000
40
0.0000000000
40
0.0095179137
40
0.0359210469
40
0.0787494213
40
0.1367494643
40
0.2093074378
40
0.2960181703
40
0.3947901140
40
0.5028741911
40
0.6191718457
40
0.7428494448
40
0.8709581787
40
1.0000000000
40
1.0000000000
40
1.0000000000
40
1.0000000000
10
-7.0384331667
20
-19.5631274014
30
0.0000000000
10
-7.0375532268
20
-19.5644473298
30
0.0000000000
10
-7.0387682516
20
-19.5710196218
30
0.0000000000
10
-7.0370875489
20
-19.5835987925
30
0.0000000000
10
-7.0375032712
20
-19.6050991691
30
0.0000000000
10
-7.0368633615
20
-19.6338696082
30
0.0000000000
10
-7.0366783876
20
-19.6701278681
30
0.0000000000
10
-7.0363593885
20
-19.7131180897
30
0.0000000000
10
-7.0361291451
20
-19.7620516272
30
0.0000000000
10
-7.0359198036
20
-19.8159095722
30
0.0000000000
10
-7.0357574296
20
-19.8739208624
30
0.0000000000
10
-7.0356377745
20
-19.9352691284
30
0.0000000000
10
-7.0355656827
20
-19.9987417260
30
0.0000000000
10
-7.0355496366
20
-20.0416009755
30
0.0000000000
10
-7.0355496366
20
-20.0631083629
30
0.0000000000
11
-7.0384331667
21
-19.5631274014
31
0.0000000000
11
-7.0380579827
21
-19.5678716385
31
0.0000000000
11
-7.0376859117
21
-19.5810682170
31
0.0000000000
11
-7.0373271169
21
-19.6024798137
31
0.0000000000
11
-7.0369902482
21
-19.6314784411
31
0.0000000000
11
-7.0366777145
21
-19.6677567854
31
0.0000000000
11
-7.0363926189
21
-19.7111120553
31
0.0000000000
11
-7.0361428858
21
-19.7604983536
31
0.0000000000
11
-7.0359345634
21
-19.8145410390
31
0.0000000000
11
-7.0357688439
21
-19.8726907581
31
0.0000000000
11
-7.0356474632
21
-19.9345306380
31
0.0000000000
11
-7.0355739585
21
-19.9985862053
31
0.0000000000
11
-7.0355496366
21
-20.0631083629
31
0.0000000000
0
SPLINE
5
3FA
100
AcDbEntity
8
0
100
AcDbSpline
62
0
6
CONTINUOUS
70
0
71
3
72
19
73
15
74
13
42
0.0000001000
43
0.0000001000
44
0.0000000001
12
0.0000000000
22
0.5002379214
32
0.0000000000
13
0.4474332138
23
0.2236995690
33
0.0000000000
40
0.0000000000
40
0.0000000000
40
0.0000000000
40
0.0000000000
40
0.1289732631
40
0.2570165451
40
0.3806345370
40
0.4968804469
40
0.6049209448
40
0.7036598489
40
0.7903499986
40
0.8629015892
40
0.9209115057
40
0.9637730881
40
0.9902513685
40
1.0000000000
40
1.0000000000
40
1.0000000000
40
1.0000000000
10
-9.3017672155
20
-20.0631083629
30
0.0000000000
10
-9.3017672155
20
-20.0416025906
30
0.0000000000
10
-9.3017191246
20
-19.9987461292
30
0.0000000000
10
-9.3015026574
20
-19.9352770390
30
0.0000000000
10
-9.3011443893
20
-19.8739314174
30
0.0000000000
10
-9.3006549066
20
-19.8159202579
30
0.0000000000
10
-9.3000347250
20
-19.7620655334
30
0.0000000000
10
-9.2993185022
20
-19.7131197573
30
0.0000000000
10
-9.2984393815
20
-19.6701602003
30
0.0000000000
10
-9.2976608333
20
-19.6338027540
30
0.0000000000
10
-9.2963359843
20
-19.6052814562
30
0.0000000000
10
-9.2961809002
20
-19.5831709413
30
0.0000000000
10
-9.2936875934
20
-19.5716609833
30
0.0000000000
10
-9.2945697980
20
-19.5638543229
30
0.0000000000
10
-9.2931158442
20
-19.5631274014
30
0.0000000000
11
-9.3017672155
21
-20.0631083629
31
0.0000000000
11
-9.3016942542
21
-19.9985910871
31
0.0000000000
11
-9.3014737496
21
-19.9345393614
31
0.0000000000
11
-9.3011096152
21
-19.8727020262
31
0.0000000000
11
-9.3006124559
21
-19.8145535391
31
0.0000000000
11
-9.2999874777
21
-19.7605111987
31
0.0000000000
11
-9.2992382458
21
-19.7111239374
31
0.0000000000
11
-9.2983828991
21
-19.6677666734
31
0.0000000000
11
-9.2974452081
21
-19.6314857319
31
0.0000000000
11
-9.2964344903
21
-19.6024845788
31
0.0000000000
11
-9.2953579645
21
-19.5810706325
31
0.0000000000
11
-9.2942415837
21
-19.5678723229
31
0.0000000000
11
-9.2931158442
21
-19.5631274014
31
0.0000000000
0
SPLINE
5
3FB
100
AcDbEntity
8
0
100
AcDbSpline
62
0
6
CONTINUOUS
70
0
71
3
72
19
73
15
74
13
42
0.0000001000
43
0.0000001000
44
0.0000000001
12
0.4474332138
22
-0.2236995690
32
0.0000000000
13
-0.0000000000
23
-0.5002379214
33
0.0000000000
40
0.0000000000
40
0.0000000000
40
0.0000000000
40
0.0000000000
40
0.0097486315
40
0.0362269119
40
0.0790884943
40
0.1370984108
40
0.2096500014
40
0.2963401511
40
0.3950790552
40
0.5031195531
40
0.6193654630
40
0.7429834549
40
0.8710267369
40
1.0000000000
40
1.0000000000
40
1.0000000000
40
1.0000000000
10
9.8063032314
20
-14.4517824732
30
0.0000000000
10
9.8077571852
20
-14.4525093948
30
0.0000000000
10
9.8068749806
20
-14.4603160552
30
0.0000000000
10
9.8093682874
20
-14.4718260131
30
0.0000000000
10
9.8095233715
20
-14.4939365281
30
0.0000000000
10
9.8108482206
20
-14.5224578258
30
0.0000000000
10
9.8116267687
20
-14.5588152722
30
0.0000000000
10
9.8125058895
20
-14.6017748291
30
0.0000000000
10
9.8132221123
20
-14.6507206052
30
0.0000000000
10
9.8138422938
20
-14.7045753297
30
0.0000000000
10
9.8143317765
20
-14.7625864892
30
0.0000000000
10
9.8146900446
20
-14.8239321109
30
0.0000000000
10
9.8149065119
20
-14.8874012010
30
0.0000000000
10
9.8149546027
20
-14.9302576624
30
0.0000000000
10
9.8149546027
20
-14.9517634348
30
0.0000000000
11
9.8063032314
21
-14.4517824732
31
0.0000000000
11
9.8074289709
21
-14.4565273948
31
0.0000000000
11
9.8085453517
21
-14.4697257043
31
0.0000000000
11
9.8096218776
21
-14.4911396507
31
0.0000000000
11
9.8106325953
21
-14.5201408038
31
0.0000000000
11
9.8115702863
21
-14.5564217453
31
0.0000000000
11
9.8124256331
21
-14.5997790093
31
0.0000000000
11
9.8131748649
21
-14.6491662706
31
0.0000000000
11
9.8137998431
21
-14.7032086110
31
0.0000000000
11
9.8142970025
21
-14.7613570981
31
0.0000000000
11
9.8146611368
21
-14.8231944333
31
0.0000000000
11
9.8148816414
21
-14.8872461590
31
0.0000000000
11
9.8149546027
21
-14.9517634348
31
0.0000000000
0
SPLINE
5
3FC
100
AcDbEntity
8
0
100
AcDbSpline
62
0
6
CONTINUOUS
70
0
71
3
72
19
73
15
74
13
42
0.0000001000
43
0.0000001000
44
0.0000000001
12
0.0000000000
22
0.5002379214
32
0.0000000000
13
0.4474332138
23
0.2236995690
33
0.0000000000
40
0.0000000000
40
0.0000000000
40
0.0000000000
40
0.0000000000
40
0.1289732631
40
0.2570165451
40
0.3806345370
40
0.4968804469
40
0.6049209448
40
0.7036598489
40
0.7903499986
40
0.8629015892
40
0.9209115057
40
0.9637730881
40
0.9902513685
40
1.0000000000
40
1.0000000000
40
1.0000000000
40
1.0000000000
10
-9.2441655012
20
-14.9517634348
30
0.0000000000
10
-9.2441655012
20
-14.9302576624
30
0.0000000000
10
-9.2441174104
20
-14.8874012010
30
0.0000000000
10
-9.2439009431
20
-14.8239321109
30
0.0000000000
10
-9.2435426750
20
-14.7625864892
30
0.0000000000
10
-9.2430531923
20
-14.7045753297
30
0.0000000000
10
-9.2424330108
20
-14.6507206052
30
0.0000000000
10
-9.2417167880
20
-14.6017748291
30
0.0000000000
10
-9.2408376672
20
-14.5588152722
30
0.0000000000
10
-9.2400591191
20
-14.5224578258
30
0.0000000000
10
-9.2387342700
20
-14.4939365281
30
0.0000000000
10
-9.2385791860
20
-14.4718260131
30
0.0000000000
10
-9.2360858791
20
-14.4603160552
30
0.0000000000
10
-9.2369680837
20
-14.4525093948
30
0.0000000000
10
-9.2355141299
20
-14.4517824732
30
0.0000000000
11
-9.2441655012
21
-14.9517634348
31
0.0000000000
11
-9.2440925399
21
-14.8872461590
31
0.0000000000
11
-9.2438720353
21
-14.8231944333
31
0.0000000000
11
-9.2435079010
21
-14.7613570981
31
0.0000000000
11
-9.2430107416
21
-14.7032086110
31
0.0000000000
11
-9.2423857634
21
-14.6491662706
31
0.0000000000
11
-9.2416365316
21
-14.5997790093
31
0.0000000000
11
-9.2407811848
21
-14.5564217453
31
0.0000000000
11
-9.2398434939
21
-14.5201408038
31
0.0000000000
11
-9.2388327761
21
-14.4911396507
31
0.0000000000
11
-9.2377562502
21
-14.4697257043
31
0.0000000000
11
-9.2366398694
21
-14.4565273948
31
0.0000000000
11
-9.2355141299
21
-14.4517824732
31
0.0000000000
0
SPLINE
5
3FD
100
AcDbEntity
8
0
100
AcDbSpline
62
0
6
CONTINUOUS
70
0
71
3
72
17
73
13
74
11
42
0.0000001000
43
0.0000001000
44
0.0000000001
12
0.0000000000
22
0.3138254850
32
0.0000000000
13
0.3138254850
23
-0.0000000000
33
0.0000000000
40
0.0000000000
40
0.0000000000
40
0.0000000000
40
0.0000000000
40
0.0994219841
40
0.1997526080
40
0.2997416604
40
0.3992446833
40
0.5000314131
40
0.6008258651
40
0.7003573472
40
0.8002887435
40
0.9005626967
40
1.0000000000
40
1.0000000000
40
1.0000000000
40
1.0000000000
10
-4.0146054493
20
-17.7386464785
30
0.0000000000
10
-4.0146054493
20
-17.7282460944
30
0.0000000000
10
-4.0129690011
20
-17.7073137945
30
0.0000000000
10
-4.0056390741
20
-17.6766992995
30
0.0000000000
10
-3.9935989713
20
-17.6475967360
30
0.0000000000
10
-3.9771413599
20
-17.6206920042
30
0.0000000000
10
-3.9566144874
20
-17.5966298676
30
0.0000000000
10
-3.9325479144
20
-17.5761035712
30
0.0000000000
10
-3.9056428268
20
-17.5596506796
30
0.0000000000
10
-3.8765474196
20
-17.5476173095
30
0.0000000000
10
-3.8459430436
20
-17.5402904614
30
0.0000000000
10
-3.8250150513
20
-17.5386540939
30
0.0000000000
10
-3.8146130646
20
-17.5386540939
30
0.0000000000
11
-4.0146054493
21
-17.7386464785
31
0.0000000000
11
-4.0121717333
21
-17.7075403869
31
0.0000000000
11
-4.0048416190
21
-17.6769192025
31
0.0000000000
11
-3.9928452314
21
-17.6479237648
31
0.0000000000
11
-3.9765508645
21
-17.6212855744
31
0.0000000000
11
-3.9560229670
21
-17.5972225909
31
0.0000000000
11
-3.9319559849
21
-17.5766956469
31
0.0000000000
11
-3.9053080008
21
-17.5604001757
31
0.0000000000
11
-3.8763279583
21
-17.5484139068
31
0.0000000000
11
-3.8457239198
21
-17.5410885599
31
0.0000000000
11
-3.8146130646
21
-17.5386540939
31
0.0000000000
0
SPLINE
5
3FE
100
AcDbEntity
8
0
100
AcDbSpline
62
0
6
CONTINUOUS
70
0
71
3
72
16
73
12
74
10
42
0.0000001000
43
0.0000001000
44
0.0000000001
12
-0.2000129784
22
0.0000000000
32
0.0000000000
13
-0.1414305334
23
0.1414305334
33
0.0000000000
40
0.0000000000
40
0.0000000000
40
0.0000000000
40
0.0000000000
40
0.1546944892
40
0.3068968305
40
0.4511177342
40
0.5838727002
40
0.7039341326
40
0.8065779399
40
0.8883638694
40
0.9489693068
40
1.0000000000
40
1.0000000000
40
1.0000000000
40
1.0000000000
10
-3.7561278194
20
-20.2386540939
30
0.0000000000
10
-3.7664414546
20
-20.2386540939
30
0.0000000000
10
-3.7869028190
20
-20.2386408781
30
0.0000000000
10
-3.8169781627
20
-20.2385769631
30
0.0000000000
10
-3.8455953482
20
-20.2384833368
30
0.0000000000
10
-3.8720539543
20
-20.2383202920
30
0.0000000000
10
-3.8957900614
20
-20.2382282214
30
0.0000000000
10
-3.9159785350
20
-20.2377947435
30
0.0000000000
10
-3.9326113038
20
-20.2381978882
30
0.0000000000
10
-3.9447488990
20
-20.2363636086
30
0.0000000000
10
-3.9537144379
20
-20.2393297174
30
0.0000000000
10
-3.9561202040
20
-20.2369239514
30
0.0000000000
11
-3.7561278194
21
-20.2386540939
31
0.0000000000
11
-3.7870687178
21
-20.2386330810
31
0.0000000000
11
-3.8175110957
21
-20.2385698560
31
0.0000000000
11
-3.8463569626
21
-20.2384663795
31
0.0000000000
11
-3.8729093058
21
-20.2383256499
31
0.0000000000
11
-3.8969224958
21
-20.2381483306
31
0.0000000000
11
-3.9174515361
21
-20.2379403623
31
0.0000000000
11
-3.9338081608
21
-20.2377099635
31
0.0000000000
11
-3.9459274368
21
-20.2374590049
31
0.0000000000
11
-3.9561202040
21
-20.2369239514
31
0.0000000000
0
SPLINE
5
3FF
100
AcDbEntity
8
0
100
AcDbSpline
62
0
6
CONTINUOUS
70
0
71
3
72
16
73
12
74
10
42
0.0000001000
43
0.0000001000
44
0.0000000001
12
-0.1414305334
22
-0.1414305334
32
0.0000000000
13
-0.2000129784
23
0.0000000000
33
0.0000000000
40
0.0000000000
40
0.0000000000
40
0.0000000000
40
0.0000000000
40
0.0510306932
40
0.1116361306
40
0.1934220601
40
0.2960658674
40
0.4161272998
40
0.5488822658
40
0.6931031695
40
0.8453055108
40
1.0000000000
40
1.0000000000
40
1.0000000000
40
1.0000000000
10
4.5269093055
20
-20.2369239514
30
0.0000000000
10
4.5245035394
20
-20.2393297174
30
0.0000000000
10
4.5155380005
20
-20.2363636086
30
0.0000000000
10
4.5034004053
20
-20.2381978882
30
0.0000000000
10
4.4867676365
20
-20.2377947435
30
0.0000000000
10
4.4665791629
20
-20.2382282214
30
0.0000000000
10
4.4428430557
20
-20.2383202920
30
0.0000000000
10
4.4163844497
20
-20.2384833368
30
0.0000000000
10
4.3877672642
20
-20.2385769631
30
0.0000000000
10
4.3576919205
20
-20.2386408781
30
0.0000000000
10
4.3372305560
20
-20.2386540939
30
0.0000000000
10
4.3269169209
20
-20.2386540939
30
0.0000000000
11
4.5269093055
21
-20.2369239514
31
0.0000000000
11
4.5167165383
21
-20.2374590049
31
0.0000000000
11
4.5045972623
21
-20.2377099635
31
0.0000000000
11
4.4882406376
21
-20.2379403623
31
0.0000000000
11
4.4677115973
21
-20.2381483306
31
0.0000000000
11
4.4436984073
21
-20.2383256499
31
0.0000000000
11
4.4171460641
21
-20.2384663795
31
0.0000000000
11
4.3883001972
21
-20.2385698560
31
0.0000000000
11
4.3578578193
21
-20.2386330810
31
0.0000000000
11
4.3269169209
21
-20.2386540939
31
0.0000000000
0
SPLINE
5
400
100
AcDbEntity
8
0
100
AcDbSpline
62
9
6
CONTINUOUS
70
0
71
3
72
16
73
12
74
10
42
0.0000001000
43
0.0000001000
44
0.0000000001
12
-0.0000238922
22
0.3137411988
32
0.0000000000
13
-0.3137411988
23
0.0000238922
33
0.0000000000
40
0.0000000000
40
0.0000000000
40
0.0000000000
40
0.0000000000
40
0.1111091389
40
0.2222196584
40
0.3333313033
40
0.4444436827
40
0.5555563173
40
0.6666686967
40
0.7777803416
40
0.8888908611
40
1.0000000000
40
1.0000000000
40
1.0000000000
40
1.0000000000
10
4.5269093055
20
-17.7971317238
30
0.0000000000
10
4.5269084206
20
-17.7855118856
30
0.0000000000
10
4.5248709394
20
-17.7622213023
30
0.0000000000
10
4.5158006076
20
-17.7283870370
30
0.0000000000
10
4.5009917041
20
-17.6966304436
30
0.0000000000
10
4.4808942224
20
-17.6679301594
30
0.0000000000
10
4.4561184852
20
-17.6431544222
30
0.0000000000
10
4.4274182011
20
-17.6230569406
30
0.0000000000
10
4.3956616076
20
-17.6082480370
30
0.0000000000
10
4.3618273423
20
-17.5991777052
30
0.0000000000
10
4.3385367590
20
-17.5971402240
30
0.0000000000
10
4.3269169209
20
-17.5971393392
30
0.0000000000
11
4.5269093055
21
-17.7971317238
31
0.0000000000
11
4.5238686211
21
-17.7624050770
31
0.0000000000
11
4.5148442377
21
-17.7287334798
31
0.0000000000
11
4.5001103302
21
-17.6971399277
31
0.0000000000
11
4.4801145374
21
-17.6685842818
31
0.0000000000
11
4.4554643628
21
-17.6439341072
31
0.0000000000
11
4.4269087169
21
-17.6239383145
31
0.0000000000
11
4.3953151648
21
-17.6092044069
31
0.0000000000
11
4.3616435676
21
-17.6001800235
31
0.0000000000
11
4.3269169209
21
-17.5971393392
31
0.0000000000
0
SPLINE
5
401
100
AcDbEntity
8
0
100
AcDbSpline
62
0
6
CONTINUOUS
70
0
71
3
72
17
73
13
74
11
42
0.0000001000
43
0.0000001000
44
0.0000000001
12
0.3138254850
22
0.0000000000
32
0.0000000000
13
0.0000000000
23
-0.3138254850
33
0.0000000000
40
0.0000000000
40
0.0000000000
40
0.0000000000
40
0.0000000000
40
0.0994219841
40
0.1997526080
40
0.2997416604
40
0.3992446833
40
0.5000314131
40
0.6008258651
40
0.7003573472
40
0.8002887435
40
0.9005626967
40
1.0000000000
40
1.0000000000
40
1.0000000000
40
1.0000000000
10
4.3854021661
20
-17.5386540939
30
0.0000000000
10
4.3958025503
20
-17.5386540939
30
0.0000000000
10
4.4167348502
20
-17.5402905421
30
0.0000000000
10
4.4473493452
20
-17.5476204691
30
0.0000000000
10
4.4764519086
20
-17.5596605718
30
0.0000000000
10
4.5033566405
20
-17.5761181832
30
0.0000000000
10
4.5274187770
20
-17.5966450557
30
0.0000000000
10
4.5479450735
20
-17.6207116287
30
0.0000000000
10
4.5643979651
20
-17.6476167163
30
0.0000000000
10
4.5764313351
20
-17.6767121235
30
0.0000000000
10
4.5837581832
20
-17.7073164995
30
0.0000000000
10
4.5853945507
20
-17.7282444919
30
0.0000000000
10
4.5853945507
20
-17.7386464785
30
0.0000000000
11
4.3854021661
21
-17.5386540939
31
0.0000000000
11
4.4165082578
21
-17.5410878098
31
0.0000000000
11
4.4471294422
21
-17.5484179241
31
0.0000000000
11
4.4761248799
21
-17.5604143118
31
0.0000000000
11
4.5027630702
21
-17.5767086786
31
0.0000000000
11
4.5268260537
21
-17.5972365761
31
0.0000000000
11
4.5473529977
21
-17.6213035583
31
0.0000000000
11
4.5636484689
21
-17.6479515423
31
0.0000000000
11
4.5756347379
21
-17.6769315848
31
0.0000000000
11
4.5829600848
21
-17.7075356233
31
0.0000000000
11
4.5853945507
21
-17.7386464785
31
0.0000000000
0
SPLINE
5
402
100
AcDbEntity
8
0
100
AcDbSpline
62
9
6
CONTINUOUS
70
0
71
3
72
16
73
12
74
10
42
0.0000001000
43
0.0000001000
44
0.0000000001
12
0.0003193129
22
0.3112800753
32
0.0000000000
13
0.3112800850
23
0.0003096949
33
0.0000000000
40
0.0000000000
40
0.0000000000
40
0.0000000000
40
0.0000000000
40
0.1102473236
40
0.2206147992
40
0.3311878924
40
0.4420269094
40
0.5531598179
40
0.6645791050
40
0.7762429431
40
0.8880804019
40
1.0000000000
40
1.0000000000
40
1.0000000000
40
1.0000000000
10
6.8424160522
20
-20.2390539555
30
0.0000000000
10
6.8424277867
20
-20.2276146904
30
0.0000000000
10
6.8444873630
20
-20.2046742757
30
0.0000000000
10
6.8535868089
20
-20.1713597128
30
0.0000000000
10
6.8684187282
20
-20.1400934488
30
0.0000000000
10
6.8885300341
20
-20.1118388037
30
0.0000000000
10
6.9133079608
20
-20.0874483613
30
0.0000000000
10
6.9419978317
20
-20.0676610341
30
0.0000000000
10
6.9737321571
20
-20.0530741867
30
0.0000000000
10
7.0075355333
20
-20.0441279033
30
0.0000000000
10
7.0307998869
20
-20.0421039586
30
0.0000000000
10
7.0424126676
20
-20.0420924049
30
0.0000000000
11
6.8424160522
21
-20.2390539555
31
0.0000000000
11
6.8454856154
21
-20.2048736968
31
0.0000000000
11
6.8545310330
21
-20.1717306558
31
0.0000000000
11
6.8692778170
21
-20.1406305756
31
0.0000000000
11
6.8892784686
21
-20.1125172043
31
0.0000000000
11
6.9139260575
21
-20.0882436569
31
0.0000000000
11
6.9424726397
21
-20.0685465269
31
0.0000000000
11
6.9740519544
21
-20.0540235339
31
0.0000000000
11
7.0077057106
21
-20.0451153857
31
0.0000000000
11
7.0424126676
21
-20.0420924049
31
0.0000000000
0
SPLINE
5
403
100
AcDbEntity
8
0
100
AcDbSpline
62
0
6
CONTINUOUS
70
0
71
3
72
17
73
13
74
11
42
0.0000001000
43
0.0000001000
44
0.0000000001
12
0.0000000000
22
0.3159592549
32
0.0000000000
13
0.3159592549
23
0.0000000000
33
0.0000000000
40
0.0000000000
40
0.0000000000
40
0.0000000000
40
0.0000000000
40
0.1010666728
40
0.2027206267
40
0.3036778778
40
0.4038624823
40
0.5048652071
40
0.6053580559
40
0.7041533663
40
0.8031076791
40
0.9021024842
40
1.0000000000
40
1.0000000000
40
1.0000000000
40
1.0000000000
10
6.7452515251
20
-17.2941882131
30
0.0000000000
10
6.7452515251
20
-17.2835438962
30
0.0000000000
10
6.7469108942
20
-17.2621565443
30
0.0000000000
10
6.7543311730
20
-17.2309177278
30
0.0000000000
10
6.7664854164
20
-17.2012924361
30
0.0000000000
10
6.7830553001
20
-17.1739749511
30
0.0000000000
10
6.8036628755
20
-17.1496168513
30
0.0000000000
10
6.8277430194
20
-17.1289088794
30
0.0000000000
10
6.8545892479
20
-17.1123558507
30
0.0000000000
10
6.8835573555
20
-17.1002782512
30
0.0000000000
10
6.9139690177
20
-17.0929432465
30
0.0000000000
10
6.9347423166
20
-17.0913080553
30
0.0000000000
10
6.9450528586
20
-17.0913080553
30
0.0000000000
11
6.7452515251
21
-17.2941882131
31
0.0000000000
11
6.7477248348
21
-17.2623511894
31
0.0000000000
11
6.7551491977
21
-17.2311025517
31
0.0000000000
11
6.7672613595
21
-17.2015931965
31
0.0000000000
11
6.7836823551
21
-17.1745313666
31
0.0000000000
11
6.8042991816
21
-17.1501721835
31
0.0000000000
11
6.8283770394
21
-17.1294737835
31
0.0000000000
11
6.8549502997
21
-17.1130952508
31
0.0000000000
11
6.8838094265
21
-17.1010667750
31
0.0000000000
11
6.9142167255
21
-17.0937367157
31
0.0000000000
11
6.9450528586
21
-17.0913080553
31
0.0000000000
0
SPLINE
5
404
100
AcDbEntity
8
0
100
AcDbSpline
62
0
6
CONTINUOUS
70
0
71
3
72
15
73
11
74
9
42
0.0000001000
43
0.0000001000
44
0.0000000001
12
-0.2405028069
22
0.3802683268
32
0.0000000000
13
-0.0034690333
23
0.4499261787
33
0.0000000000
40
0.0000000000
40
0.0000000000
40
0.0000000000
40
0.0000000000
40
0.1843281489
40
0.3599361202
40
0.5168659557
40
0.6525372170
40
0.7669733258
40
0.8618559465
40
0.9389300740
40
1.0000000000
40
1.0000000000
40
1.0000000000
40
1.0000000000
10
7.0424126676
20
-20.8215783771
30
0.0000000000
10
7.0276355218
20
-20.7982136582
30
0.0000000000
10
6.9987790014
20
-20.7525902783
30
0.0000000000
10
6.9579974306
20
-20.6866617206
30
0.0000000000
10
6.9223071663
20
-20.6261767120
30
0.0000000000
10
6.8930485383
20
-20.5725782870
30
0.0000000000
10
6.8705136954
20
-20.5259710983
30
0.0000000000
10
6.8546062208
20
-20.4860115976
30
0.0000000000
10
6.8450804438
20
-20.4523094232
30
0.0000000000
10
6.8424866701
20
-20.4316126730
30
0.0000000000
10
6.8424160522
20
-20.4224536868
30
0.0000000000
11
7.0424126676
21
-20.8215783771
31
0.0000000000
11
6.9981997393
21
-20.7514094088
31
0.0000000000
11
6.9567717116
21
-20.6841281465
31
0.0000000000
11
6.9210524054
21
-20.6232204002
31
0.0000000000
11
6.8920050212
21
-20.5695305212
31
0.0000000000
11
6.8698480750
21
-20.5230523435
31
0.0000000000
11
6.8543848802
21
-20.4832597690
31
0.0000000000
11
6.8453766653
21
-20.4497714996
31
0.0000000000
11
6.8424160522
21
-20.4224536868
31
0.0000000000
0
SPLINE
5
405
100
AcDbEntity
8
0
100
AcDbSpline
62
9
6
CONTINUOUS
70
0
71
3
72
16
73
12
74
10
42
0.0000001000
43
0.0000001000
44
0.0000000001
12
0.3112800850
22
-0.0003096949
32
0.0000000000
13
0.0003193129
23
-0.3112800753
33
0.0000000000
40
0.0000000000
40
0.0000000000
40
0.0000000000
40
0.0000000000
40
0.1119195981
40
0.2237570569
40
0.3354208950
40
0.4468401821
40
0.5579730906
40
0.6688121076
40
0.7793852008
40
0.8897526764
40
1.0000000000
40
1.0000000000
40
1.0000000000
40
1.0000000000
10
7.3283764339
20
-20.0420924049
30
0.0000000000
10
7.3399892146
20
-20.0421039586
30
0.0000000000
10
7.3632535682
20
-20.0441279033
30
0.0000000000
10
7.3970569444
20
-20.0530741867
30
0.0000000000
10
7.4287912698
20
-20.0676610341
30
0.0000000000
10
7.4574811406
20
-20.0874483613
30
0.0000000000
10
7.4822590674
20
-20.1118388037
30
0.0000000000
10
7.5023703733
20
-20.1400934488
30
0.0000000000
10
7.5172022926
20
-20.1713597128
30
0.0000000000
10
7.5263017385
20
-20.2046742757
30
0.0000000000
10
7.5283613148
20
-20.2276146904
30
0.0000000000
10
7.5283730493
20
-20.2390539555
30
0.0000000000
11
7.3283764339
21
-20.0420924049
31
0.0000000000
11
7.3630833909
21
-20.0451153857
31
0.0000000000
11
7.3967371471
21
-20.0540235339
31
0.0000000000
11
7.4283164618
21
-20.0685465269
31
0.0000000000
11
7.4568630440
21
-20.0882436569
31
0.0000000000
11
7.4815106329
21
-20.1125172043
31
0.0000000000
11
7.5015112845
21
-20.1406305756
31
0.0000000000
11
7.5162580685
21
-20.1717306558
31
0.0000000000
11
7.5253034861
21
-20.2048736968
31
0.0000000000
11
7.5283730493
21
-20.2390539555
31
0.0000000000
0
SPLINE
5
406
100
AcDbEntity
8
0
100
AcDbSpline
62
0
6
CONTINUOUS
70
0
71
3
72
17
73
13
74
11
42
0.0000001000
43
0.0000001000
44
0.0000000001
12
0.3159592551
22
0.0000000000
32
0.0000000000
13
0.0000000000
23
-0.3159592551
33
0.0000000000
40
0.0000000000
40
0.0000000000
40
0.0000000000
40
0.0000000000
40
0.0979148638
40
0.1968522988
40
0.2957442844
40
0.3945683683
40
0.4950715586
40
0.5960690150
40
0.6962258470
40
0.7972362597
40
0.8989464193
40
1.0000000000
40
1.0000000000
40
1.0000000000
40
1.0000000000
10
7.4257362429
20
-17.0913080553
30
0.0000000000
10
7.4360486120
20
-17.0913080553
30
0.0000000000
10
7.4568177163
20
-17.0929432106
30
0.0000000000
10
7.4872188295
20
-17.1002750906
30
0.0000000000
10
7.5161792727
20
-17.1123456091
30
0.0000000000
10
7.5430258157
20
-17.1288936429
30
0.0000000000
10
7.5671109258
20
-17.1496013610
30
0.0000000000
10
7.5877194634
20
-17.1739554960
30
0.0000000000
10
7.6042939140
20
-17.2012725915
30
0.0000000000
10
7.6164546924
20
-17.2309046947
30
0.0000000000
10
7.6238780748
20
-17.2621533983
30
0.0000000000
10
7.6255375764
20
-17.2835452751
30
0.0000000000
10
7.6255375764
20
-17.2941882131
30
0.0000000000
11
7.4257362429
21
-17.0913080553
31
0.0000000000
11
7.4565778064
21
-17.0937375765
31
0.0000000000
11
7.4869676169
21
-17.1010628351
31
0.0000000000
11
7.5158099350
21
-17.1130804507
31
0.0000000000
11
7.5423932279
21
-17.1294600323
31
0.0000000000
11
7.5664758018
21
-17.1501579583
31
0.0000000000
11
7.5870940706
21
-17.1745137397
31
0.0000000000
11
7.6035139869
21
-17.2015659601
31
0.0000000000
11
7.6156357152
21
-17.2310895453
31
0.0000000000
11
7.6230649076
21
-17.2623552887
31
0.0000000000
11
7.6255375764
21
-17.2941882131
31
0.0000000000
0
SPLINE
5
407
100
AcDbEntity
8
0
100
AcDbSpline
62
0
6
CONTINUOUS
70
0
71
3
72
16
73
12
74
10
42
0.0000001000
43
0.0000001000
44
0.0000000001
12
-0.1109486752
22
-0.1664253599
32
0.0000000000
13
-0.2000175216
23
0.0000000000
33
0.0000000000
40
0.0000000000
40
0.0000000000
40
0.0000000000
40
0.0000000000
40
0.0503204949
40
0.1107229334
40
0.1924067251
40
0.2950498693
40
0.4152014588
40
0.5481153788
40
0.6925582741
40
0.8450269157
40
1.0000000000
40
1.0000000000
40
1.0000000000
40
1.0000000000
10
7.5283730493
20
-21.2329144201
30
0.0000000000
10
7.5265120519
20
-21.2357059556
30
0.0000000000
10
7.5168279215
20
-21.2321308972
30
0.0000000000
10
7.5051539267
20
-21.2342834950
30
0.0000000000
10
7.4883829619
20
-21.2337518715
30
0.0000000000
10
7.4682543866
20
-21.2342347575
30
0.0000000000
10
7.4444808914
20
-21.2343106935
30
0.0000000000
10
7.4179966833
20
-21.2344794927
30
0.0000000000
10
7.3893337494
20
-21.2345718703
30
0.0000000000
10
7.3592071690
20
-21.2346364836
30
0.0000000000
10
7.3387088780
20
-21.2346496396
30
0.0000000000
10
7.3283764339
20
-21.2346496396
30
0.0000000000
11
7.5283730493
21
-21.2329144201
31
0.0000000000
11
7.5183223653
21
-21.2334506922
31
0.0000000000
11
7.5062434405
21
-21.2337023488
31
0.0000000000
11
7.4899068854
21
-21.2339334414
31
0.0000000000
11
7.4693775183
21
-21.2341420883
31
0.0000000000
11
7.4453457538
21
-21.2343200152
31
0.0000000000
11
7.4187610160
21
-21.2344612387
31
0.0000000000
11
7.3898700928
21
-21.2345650908
31
0.0000000000
11
7.3593737590
21
-21.2346285495
31
0.0000000000
11
7.3283764339
21
-21.2346496396
31
0.0000000000
0
SPLINE
5
408
100
AcDbEntity
8
0
100
AcDbSpline
62
0
6
CONTINUOUS
70
0
71
3
72
16
73
12
74
10
42
0.0000001000
43
0.0000001000
44
0.0000000001
12
-0.2000175216
22
0.0000000000
32
0.0000000000
13
-0.1109486752
23
0.1664253599
33
0.0000000000
40
0.0000000000
40
0.0000000000
40
0.0000000000
40
0.0000000000
40
0.1549730843
40
0.3074417259
40
0.4518846212
40
0.5847985412
40
0.7049501307
40
0.8075932749
40
0.8892770666
40
0.9496795051
40
1.0000000000
40
1.0000000000
40
1.0000000000
40
1.0000000000
10
-6.7575873324
20
-21.2346496396
30
0.0000000000
10
-6.7679197765
20
-21.2346496396
30
0.0000000000
10
-6.7884180675
20
-21.2346364836
30
0.0000000000
10
-6.8185446479
20
-21.2345718703
30
0.0000000000
10
-6.8472075819
20
-21.2344794927
30
0.0000000000
10
-6.8736917899
20
-21.2343106935
30
0.0000000000
10
-6.8974652851
20
-21.2342347575
30
0.0000000000
10
-6.9175938604
20
-21.2337518715
30
0.0000000000
10
-6.9343648252
20
-21.2342834950
30
0.0000000000
10
-6.9460388200
20
-21.2321308972
30
0.0000000000
10
-6.9557229504
20
-21.2357059556
30
0.0000000000
10
-6.9575839478
20
-21.2329144201
30
0.0000000000
11
-6.7575873324
21
-21.2346496396
31
0.0000000000
11
-6.7885846575
21
-21.2346285495
31
0.0000000000
11
-6.8190809913
21
-21.2345650908
31
0.0000000000
11
-6.8479719146
21
-21.2344612387
31
0.0000000000
11
-6.8745566523
21
-21.2343200152
31
0.0000000000
11
-6.8985884168
21
-21.2341420883
31
0.0000000000
11
-6.9191177839
21
-21.2339334414
31
0.0000000000
11
-6.9354543390
21
-21.2337023488
31
0.0000000000
11
-6.9475332638
21
-21.2334506922
31
0.0000000000
11
-6.9575839478
21
-21.2329144201
31
0.0000000000
0
SPLINE
5
409
100
AcDbEntity
8
0
100
AcDbSpline
62
9
6
CONTINUOUS
70
0
71
3
72
16
73
12
74
10
42
0.0000001000
43
0.0000001000
44
0.0000000001
12
-0.3112800905
22
-0.0003096949
32
0.0000000000
13
-0.0003193129
23
-0.3112800808
33
0.0000000000
40
0.0000000000
40
0.0000000000
40
0.0000000000
40
0.0000000000
40
0.1119600247
40
0.2238378154
40
0.3355415143
40
0.4470001771
40
0.5581697986
40
0.6690456219
40
0.7796337392
40
0.8900164590
40
1.0000000000
40
1.0000000000
40
1.0000000000
40
1.0000000000
10
-6.7575873324
20
-20.0420924049
30
0.0000000000
10
-6.7692043080
20
-20.0421039627
30
0.0000000000
10
-6.7924770935
20
-20.0441293678
30
0.0000000000
10
-6.8262919058
20
-20.0530820582
30
0.0000000000
10
-6.8580354020
20
-20.0676791132
30
0.0000000000
10
-6.8867310022
20
-20.0874796548
30
0.0000000000
10
-6.9115105680
20
-20.1118853813
30
0.0000000000
10
-6.9316176723
20
-20.1401545182
30
0.0000000000
10
-6.9464405796
20
-20.1714328190
30
0.0000000000
10
-6.9555199318
20
-20.2047278041
30
0.0000000000
10
-6.9575722414
20
-20.2276420603
30
0.0000000000
10
-6.9575839478
20
-20.2390539555
30
0.0000000000
11
-6.7575873324
21
-20.0420924049
31
0.0000000000
11
-6.7923067325
21
-20.0451175578
31
0.0000000000
11
-6.8259717927
21
-20.0540320653
31
0.0000000000
11
-6.8575601135
21
-20.0685651721
31
0.0000000000
11
-6.8861124713
21
-20.0882755132
31
0.0000000000
11
-6.9107613945
21
-20.1125639914
31
0.0000000000
11
-6.9307591018
21
-20.1406935162
31
0.0000000000
11
-6.9454959255
21
-20.1718034930
31
0.0000000000
11
-6.9545289666
21
-20.2049548282
31
0.0000000000
11
-6.9575839478
21
-20.2390539555
31
0.0000000000
0
SPLINE
5
40A
100
AcDbEntity
8
0
100
AcDbSpline
62
0
6
CONTINUOUS
70
0
71
3
72
17
73
13
74
11
42
0.0000001000
43
0.0000001000
44
0.0000000001
12
0.0000000000
22
0.3159592551
32
0.0000000000
13
0.3159592551
23
0.0000000000
33
0.0000000000
40
0.0000000000
40
0.0000000000
40
0.0000000000
40
0.0000000000
40
0.1010535807
40
0.2027637403
40
0.3037741530
40
0.4039309850
40
0.5049284414
40
0.6054316317
40
0.7042557156
40
0.8031477012
40
0.9020851362
40
1.0000000000
40
1.0000000000
40
1.0000000000
40
1.0000000000
10
-7.0547484749
20
-17.2941882131
30
0.0000000000
10
-7.0547484749
20
-17.2835452751
30
0.0000000000
10
-7.0530889733
20
-17.2621533983
30
0.0000000000
10
-7.0456655909
20
-17.2309046947
30
0.0000000000
10
-7.0335048125
20
-17.2012725915
30
0.0000000000
10
-7.0169303619
20
-17.1739554960
30
0.0000000000
10
-6.9963218243
20
-17.1496013610
30
0.0000000000
10
-6.9722367142
20
-17.1288936429
30
0.0000000000
10
-6.9453901712
20
-17.1123456091
30
0.0000000000
10
-6.9164297280
20
-17.1002750906
30
0.0000000000
10
-6.8860286148
20
-17.0929432106
30
0.0000000000
10
-6.8652595105
20
-17.0913080553
30
0.0000000000
10
-6.8549471414
20
-17.0913080553
30
0.0000000000
11
-7.0547484749
21
-17.2941882131
31
0.0000000000
11
-7.0522758061
21
-17.2623552887
31
0.0000000000
11
-7.0448466137
21
-17.2310895453
31
0.0000000000
11
-7.0327248854
21
-17.2015659601
31
0.0000000000
11
-7.0163049691
21
-17.1745137397
31
0.0000000000
11
-6.9956867003
21
-17.1501579583
31
0.0000000000
11
-6.9716041264
21
-17.1294600323
31
0.0000000000
11
-6.9450208335
21
-17.1130804507
31
0.0000000000
11
-6.9161785154
21
-17.1010628351
31
0.0000000000
11
-6.8857887049
21
-17.0937375765
31
0.0000000000
11
-6.8549471414
21
-17.0913080553
31
0.0000000000
0
SPLINE
5
40B
100
AcDbEntity
8
0
100
AcDbSpline
62
0
6
CONTINUOUS
70
0
71
3
72
15
73
11
74
9
42
0.0000001000
43
0.0000001000
44
0.0000000001
12
-0.0034690356
22
-0.4499264785
32
0.0000000000
13
-0.2405029672
23
-0.3802685801
33
0.0000000000
40
0.0000000000
40
0.0000000000
40
0.0000000000
40
0.0000000000
40
0.0609871445
40
0.1374957028
40
0.2324407633
40
0.3469893411
40
0.4826892950
40
0.6396944231
40
0.8154863364
40
1.0000000000
40
1.0000000000
40
1.0000000000
40
1.0000000000
10
-6.2716269507
20
-20.4224536868
30
0.0000000000
10
-6.2716974729
20
-20.4316002639
30
0.0000000000
10
-6.2742757728
20
-20.4522000873
30
0.0000000000
10
-6.2837534958
20
-20.4858232929
30
0.0000000000
10
-6.2996187414
20
-20.5257374617
30
0.0000000000
10
-6.3221546909
20
-20.5723781076
30
0.0000000000
10
-6.3514218100
20
-20.6260090735
30
0.0000000000
10
-6.3871300392
20
-20.6865336997
30
0.0000000000
10
-6.4279453764
20
-20.7525198902
30
0.0000000000
10
-6.4568315382
20
-20.7981901275
30
0.0000000000
10
-6.4716235661
20
-20.8215783771
30
0.0000000000
11
-6.2716269507
21
-20.4224536868
31
0.0000000000
11
-6.2745804654
21
-20.4497348223
31
0.0000000000
11
-6.2835035413
21
-20.4829824939
31
0.0000000000
11
-6.2989535204
21
-20.5228103673
31
0.0000000000
11
-6.3211188167
21
-20.5693406602
31
0.0000000000
11
-6.3501646447
21
-20.6230461050
31
0.0000000000
11
-6.3858966736
21
-20.6839857174
31
0.0000000000
11
-6.4273663537
21
-20.7513385883
31
0.0000000000
11
-6.4716235661
21
-20.8215783771
31
0.0000000000
0
SPLINE
5
40C
100
AcDbEntity
8
0
100
AcDbSpline
62
9
6
CONTINUOUS
70
0
71
3
72
16
73
12
74
10
42
0.0000001000
43
0.0000001000
44
0.0000000001
12
-0.0003193129
22
0.3112800808
32
0.0000000000
13
-0.3112800905
23
0.0003096949
33
0.0000000000
40
0.0000000000
40
0.0000000000
40
0.0000000000
40
0.0000000000
40
0.1099835410
40
0.2203662608
40
0.3309543781
40
0.4418302014
40
0.5529998229
40
0.6644584857
40
0.7761621846
40
0.8880399753
40
1.0000000000
40
1.0000000000
40
1.0000000000
40
1.0000000000
10
-6.2716269507
20
-20.2390539555
30
0.0000000000
10
-6.2716386571
20
-20.2276420603
30
0.0000000000
10
-6.2736909667
20
-20.2047278041
30
0.0000000000
10
-6.2827703189
20
-20.1714328190
30
0.0000000000
10
-6.2975932262
20
-20.1401545182
30
0.0000000000
10
-6.3177003305
20
-20.1118853813
30
0.0000000000
10
-6.3424798963
20
-20.0874796548
30
0.0000000000
10
-6.3711754966
20
-20.0676791132
30
0.0000000000
10
-6.4029189927
20
-20.0530820582
30
0.0000000000
10
-6.4367338050
20
-20.0441293678
30
0.0000000000
10
-6.4600065905
20
-20.0421039627
30
0.0000000000
10
-6.4716235661
20
-20.0420924049
30
0.0000000000
11
-6.2716269507
21
-20.2390539555
31
0.0000000000
11
-6.2746819319
21
-20.2049548282
31
0.0000000000
11
-6.2837149730
21
-20.1718034930
31
0.0000000000
11
-6.2984517967
21
-20.1406935162
31
0.0000000000
11
-6.3184495040
21
-20.1125639914
31
0.0000000000
11
-6.3430984272
21
-20.0882755132
31
0.0000000000
11
-6.3716507850
21
-20.0685651721
31
0.0000000000
11
-6.4032391058
21
-20.0540320653
31
0.0000000000
11
-6.4369041660
21
-20.0451175578
31
0.0000000000
11
-6.4716235661
21
-20.0420924049
31
0.0000000000
0
SPLINE
5
40D
100
AcDbEntity
8
0
100
AcDbSpline
62
0
6
CONTINUOUS
70
0
71
3
72
17
73
13
74
11
42
0.0000001000
43
0.0000001000
44
0.0000000001
12
0.3159592549
22
0.0000000000
32
0.0000000000
13
0.0000000000
23
-0.3159592549
33
0.0000000000
40
0.0000000000
40
0.0000000000
40
0.0000000000
40
0.0000000000
40
0.0978975158
40
0.1968923209
40
0.2958466337
40
0.3946419441
40
0.4951347929
40
0.5961375177
40
0.6963221222
40
0.7972793733
40
0.8989333272
40
1.0000000000
40
1.0000000000
40
1.0000000000
40
1.0000000000
10
-6.3742637571
20
-17.0913080553
30
0.0000000000
10
-6.3639532151
20
-17.0913080553
30
0.0000000000
10
-6.3431799162
20
-17.0929432465
30
0.0000000000
10
-6.3127682540
20
-17.1002782512
30
0.0000000000
10
-6.2838001464
20
-17.1123558507
30
0.0000000000
10
-6.2569539179
20
-17.1289088794
30
0.0000000000
10
-6.2328737741
20
-17.1496168513
30
0.0000000000
10
-6.2122661986
20
-17.1739749511
30
0.0000000000
10
-6.1956963149
20
-17.2012924361
30
0.0000000000
10
-6.1835420715
20
-17.2309177278
30
0.0000000000
10
-6.1761217927
20
-17.2621565443
30
0.0000000000
10
-6.1744624236
20
-17.2835438962
30
0.0000000000
10
-6.1744624236
20
-17.2941882131
30
0.0000000000
11
-6.3742637571
21
-17.0913080553
31
0.0000000000
11
-6.3434276240
21
-17.0937367157
31
0.0000000000
11
-6.3130203250
21
-17.1010667750
31
0.0000000000
11
-6.2841611982
21
-17.1130952508
31
0.0000000000
11
-6.2575879379
21
-17.1294737835
31
0.0000000000
11
-6.2335100801
21
-17.1501721835
31
0.0000000000
11
-6.2128932536
21
-17.1745313666
31
0.0000000000
11
-6.1964722580
21
-17.2015931965
31
0.0000000000
11
-6.1843600962
21
-17.2311025517
31
0.0000000000
11
-6.1769357333
21
-17.2623511894
31
0.0000000000
11
-6.1744624236
21
-17.2941882131
31
0.0000000000
0
ENDSEC
0
SECTION
2
OBJECTS
0
DICTIONARY
5
C
100
AcDbDictionary
280
0
281
1
3
ACAD_GROUP
350
D
3
ACAD_MLINESTYLE
350
17
3
ACAD_LAYOUT
350
1A
3
ACAD_PLOTSETTINGS
350
19
3
ACAD_PLOTSTYLENAME
350
E
0
DICTIONARY
5
D
102
{ACAD_REACTORS
330
C
102
}
100
AcDbDictionary
280
0
281
1
0
ACDBDICTIONARYWDFLT
5
E
102
{ACAD_REACTORS
330
C
102
}
100
AcDbDictionary
281
1
3
Normal
350
F
100
AcDbDictionaryWithDefault
340
F
0
DICTIONARY
5
17
102
{ACAD_REACTORS
330
C
102
}
100
AcDbDictionary
280
0
281
1
3
Standard
350
18
0
DICTIONARY
5
19
102
{ACAD_REACTORS
330
C
102
}
100
AcDbDictionary
281
1
0
DICTIONARY
5
1A
102
{ACAD_REACTORS
330
C
102
}
100
AcDbDictionary
281
1
3
Layout1
350
1E
3
Model
350
22
0
ACDBPLACEHOLDER
5
F
102
{ACAD_REACTORS
330
E
102
}
0
MLINESTYLE
5
18
102
{ACAD_REACTORS
330
17
102
}
100
AcDbMlineStyle
2
STANDARD
70
0
3

62
256
51
90.0
52
90.0
71
2
49
0.5
62
256
6
BYLAYER
49
-0.5
62
256
6
BYLAYER
0
LAYOUT
5
1E
102
{ACAD_REACTORS
330
1A
102
}
100
AcDbPlotSettings
1

2

4

6

40
0.0
41
0.0
42
0.0
43
0.0
44
0.0
45
0.0
46
0.0
47
0.0
48
0.0
49
0.0
140
0.0
141
0.0
142
1.0
143
1.0
70
0
72
0
73
0
74
0
7

75
0
147
1.0
148
0.0
149
0.0
100
AcDbLayout
1
Layout1
70
0
71
0
10
0.0
20
0.0
11
0.0
21
0.0
12
0.0
22
0.0
32
0.0
14
0.0
24
0.0
34
0.0
15
0.0
25
0.0
35
0.0
146
0.0
13
0.0
23
0.0
33
0.0
16
0.0
26
0.0
36
0.0
17
0.0
27
0.0
37
0.0
76
0
330
1B
331
0
345
0
346
0
0
LAYOUT
5
22
102
{ACAD_REACTORS
330
1A
102
}
100
AcDbPlotSettings
1

2

4

6

40
0.0
41
0.0
42
0.0
43
0.0
44
0.0
45
0.0
46
0.0
47
0.0
48
0.0
49
0.0
140
0.0
141
0.0
142
1.0
143
1.0
70
0
72
0
73
0
74
0
7

75
0
147
1.0
148
0.0
149
0.0
100
AcDbLayout
1
Model
70
0
71
0
10
0.0
20
0.0
11
0.0
21
0.0
12
0.0
22
0.0
32
0.0
14
0.0
24
0.0
34
0.0
15
0.0
25
0.0
35
0.0
146
0.0
13
0.0
23
0.0
33
0.0
16
0.0
26
0.0
36
0.0
17
0.0
27
0.0
37
0.0
76
0
330
1F
331
0
345
0
346
0
0
ENDSEC
0
EOF
