  0
SECTION
  2
HEADER
  9
$ACADVER
  1
AC1021
  9
$DWGCODEPAGE
  3
ANSI_1252
  9
$EXTMAX
 10
558.8
 20
431.8
 30
0.0
  9
$EXTMIN
 10
0.0
 20
0.0
 30
0.0
  9
$LIMMIN
 10
0.0
 20
0.0
  9
$LIMMAX
 10
558.8
 20
431.8
  9
$VIEWCTR
 10
279.4
 20
215.9
  9
$VIEWSIZE
 40
431.8
  9
$CLAYER
  8
0
  9
$LTSCALE
 40
30.734
  9
$CELTYPE
  6
BYLAYER
  9
$DIMSCALE
 40
1.0
  9
$DIMASZ
 40
3.0
  9
$DIMEXO
 40
0.5
  9
$DIMDLI
 40
21.2344
  9
$DIMEXE
 40
1.5
  9
$DIMCEN
 40
5.0292
  9
$DIMLFAC
 40
1.0
  9
$DIMBLK
  1
_FILLED
  9
$DIMALT
 70
0
  9
$DIMALTF
 40
25.4
  9
$DIMTXT
 40
3.0
  9
$DIMTOL
 70
1
  9
$DIMLIM
 70
0
  9
$DIMTFAC
 40
1.0
  9
$DIMTP
 40
0.01
  9
$DIMTM
 40
0.01
  9
$DIMGAP
 40
0.625
  9
$DIMDSEP
 70
44
  9
$AUNITS
 70
0
  9
$PDMODE
 70
3
  9
$PDSIZE
 40
3.0
  9
$HANDSEED
  5
7D4
  9
$TILEMODE
 70
1
  9
$MEASUREMENT
 70
1
  9
$INSUNITS
 70
4
  0
ENDSEC
  0
SECTION
  2
CLASSES
  0
CLASS
  1
ACDBDICTIONARYWDFLT
  2
AcDbDictionaryWithDefault
  3
AutoCAD 2000
 90
0
 91
1
280
0
281
0
  0
CLASS
  1
ACDBPLACEHOLDER
  2
AcDbPlaceHolder
  3
AutoCAD 2000
 90
0
 91
1
280
0
281
0
  0
CLASS
  1
LAYOUT
  2
AcDbLayout
  3
AutoCAD 2000
 90
0
 91
0
280
0
281
0
  0
ENDSEC
  0
SECTION
  2
TABLES
  0
TABLE
  2
VPORT
  5
8
100
AcDbSymbolTable
 70
2
  0
VPORT
  5
1F4
100
AcDbSymbolTableRecord
100
AcDbViewportTableRecord
  2
*ACTIVE
 70
0
 10
0.0
 20
0.0
 11
1.0
 21
1.0
 12
279.4
 22
215.9
 13
0.0
 23
0.0
 14
1.0
 24
1.0
 15
0.0
 25
0.0
 16
0.0
 26
0.0
 36
1.0
 17
0.0
 27
0.0
 37
0.0
 40
431.8
 41
1.2941176471
 42
50.0
 43
0.0
 44
0.0
 50
0.0
 51
0.0
 71
0
 72
100
 73
1
 74
1
 75
0
 76
0
 77
0
 78
0
  0
ENDTAB
  0
TABLE
  2
LTYPE
  5
5
100
AcDbSymbolTable
 70
6
  0
LTYPE
  5
14
100
AcDbSymbolTableRecord
100
AcDbLinetypeTableRecord
  2
BYBLOCK
 70
0
  3

 72
65
 73
0
 40
0.0
  0
LTYPE
  5
15
100
AcDbSymbolTableRecord
100
AcDbLinetypeTableRecord
  2
BYLAYER
 70
0
  3

 72
65
 73
0
 40
0.0
  0
LTYPE
  5
16
100
AcDbSymbolTableRecord
100
AcDbLinetypeTableRecord
  2
CONTINUOUS
 70
64
  3
Solid line
 72
65
 73
0
 40
0.0
  0
LTYPE
  5
1F5
100
AcDbSymbolTableRecord
100
AcDbLinetypeTableRecord
  2
CENTER
 70
64
  3
____ _ ____ _ ____ _ ____ _ ____ _ ____ _ ____
 72
65
 73
4
 40
0.6
 49
0.375
 74
0
 49
-0.075
 74
0
 49
0.075
 74
0
 49
-0.075
 74
0
  0
LTYPE
  5
1F6
100
AcDbSymbolTableRecord
100
AcDbLinetypeTableRecord
  2
HIDDEN
 70
64
  3
- - - - - - - - - - - - - - - - - - - -
 72
65
 73
2
 40
0.2
 49
0.1
 74
0
 49
-0.1
 74
0
  0
LTYPE
  5
1F7
100
AcDbSymbolTableRecord
100
AcDbLinetypeTableRecord
  2
PHANTOM
 70
64
  3
_____ _ _ _____ _ _ _____ _ _ _____
 72
65
 73
6
 40
0.8
 49
0.45
 74
0
 49
-0.05
 74
0
 49
0.1
 74
0
 49
-0.05
 74
0
 49
0.1
 74
0
 49
-0.05
 74
0
  0
LTYPE
  5
1F8
100
AcDbSymbolTableRecord
100
AcDbLinetypeTableRecord
  2
DOT
 70
64
  3
. . . . . . . . . . . . . . . . . . . .
 72
65
 73
2
 40
0.2
 49
0.1
 74
0
 49
-0.1
 74
0
  0
LTYPE
  5
1F9
100
AcDbSymbolTableRecord
100
AcDbLinetypeTableRecord
  2
DASHED
 70
64
  3
- - - - - - - - - - - - - - - - - - - -
 72
65
 73
2
 40
0.2
 49
0.1
 74
0
 49
-0.1
 74
0
  0
ENDTAB
  0
TABLE
  2
LAYER
  5
2
100
AcDbSymbolTable
 70
36
  0
LAYER
  5
10
100
AcDbSymbolTableRecord
100
AcDbLayerTableRecord
  2
0
 70
0
 62
7
  6
CONTINUOUS
370
-3
390
F
  0
LAYER
  5
1FA
100
AcDbSymbolTableRecord
100
AcDbLayerTableRecord
  2
DEFAULT_1
 70
0
 62
7
  6
CENTER
370
-3
390
F
  0
LAYER
  5
1FB
100
AcDbSymbolTableRecord
100
AcDbLayerTableRecord
  2
DEFAULT_2
 70
0
 62
7
  6
HIDDEN
370
-3
390
F
  0
LAYER
  5
1FC
100
AcDbSymbolTableRecord
100
AcDbLayerTableRecord
  2
DEFAULT_3
 70
0
 62
7
  6
PHANTOM
370
-3
390
F
  0
LAYER
  5
1FD
100
AcDbSymbolTableRecord
100
AcDbLayerTableRecord
  2
21814370
 70
0
 62
7
  6
CONTINUOUS
370
-3
390
F
  0
LAYER
  5
1FE
100
AcDbSymbolTableRecord
100
AcDbLayerTableRecord
  2
ASSI
 70
0
 62
7
  6
CONTINUOUS
370
-3
390
F
  0
LAYER
  5
1FF
100
AcDbSymbolTableRecord
100
AcDbLayerTableRecord
  2
COLOR5
 70
0
 62
7
  6
CONTINUOUS
370
-3
390
F
  0
LAYER
  5
200
100
AcDbSymbolTableRecord
100
AcDbLayerTableRecord
  2
COORDINATE
 70
0
 62
7
  6
CONTINUOUS
370
-3
390
F
  0
LAYER
  5
201
100
AcDbSymbolTableRecord
100
AcDbLayerTableRecord
  2
COORD_ORIGINE
 70
0
 62
7
  6
CONTINUOUS
370
-3
390
F
  0
LAYER
  5
202
100
AcDbSymbolTableRecord
100
AcDbLayerTableRecord
  2
COPY-PUBBLISH
 70
0
 62
7
  6
CONTINUOUS
370
-3
390
F
  0
LAYER
  5
203
100
AcDbSymbolTableRecord
100
AcDbLayerTableRecord
  2
COSMETICHE
 70
0
 62
7
  6
CONTINUOUS
370
-3
390
F
  0
LAYER
  5
204
100
AcDbSymbolTableRecord
100
AcDbLayerTableRecord
  2
CURVE
 70
0
 62
7
  6
CONTINUOUS
370
-3
390
F
  0
LAYER
  5
205
100
AcDbSymbolTableRecord
100
AcDbLayerTableRecord
  2
DRAFT
 70
0
 62
7
  6
CONTINUOUS
370
-3
390
F
  0
LAYER
  5
206
100
AcDbSymbolTableRecord
100
AcDbLayerTableRecord
  2
IGES_SCRITTE
 70
0
 62
7
  6
CONTINUOUS
370
-3
390
F
  0
LAYER
  5
207
100
AcDbSymbolTableRecord
100
AcDbLayerTableRecord
  2
INTF_1
 70
0
 62
7
  6
CONTINUOUS
370
-3
390
F
  0
LAYER
  5
208
100
AcDbSymbolTableRecord
100
AcDbLayerTableRecord
  2
INTF_YELLOW
 70
0
 62
7
  6
CONTINUOUS
370
-3
390
F
  0
LAYER
  5
209
100
AcDbSymbolTableRecord
100
AcDbLayerTableRecord
  2
NOTE
 70
0
 62
7
  6
CONTINUOUS
370
-3
390
F
  0
LAYER
  5
20A
100
AcDbSymbolTableRecord
100
AcDbLayerTableRecord
  2
PIANI
 70
0
 62
7
  6
CONTINUOUS
370
-3
390
F
  0
LAYER
  5
20B
100
AcDbSymbolTableRecord
100
AcDbLayerTableRecord
  2
PIANI_ORIGINE
 70
0
 62
7
  6
CONTINUOUS
370
-3
390
F
  0
LAYER
  5
20C
100
AcDbSymbolTableRecord
100
AcDbLayerTableRecord
  2
PIANI_RIFERIMENTO
 70
0
 62
7
  6
CONTINUOUS
370
-3
390
F
  0
LAYER
  5
20D
100
AcDbSymbolTableRecord
100
AcDbLayerTableRecord
  2
PIANI_SFORMO
 70
0
 62
7
  6
CONTINUOUS
370
-3
390
F
  0
LAYER
  5
20E
100
AcDbSymbolTableRecord
100
AcDbLayerTableRecord
  2
PUNTI
 70
0
 62
7
  6
CONTINUOUS
370
-3
390
F
  0
LAYER
  5
20F
100
AcDbSymbolTableRecord
100
AcDbLayerTableRecord
  2
RACCORDO
 70
0
 62
7
  6
CONTINUOUS
370
-3
390
F
  0
LAYER
  5
210
100
AcDbSymbolTableRecord
100
AcDbLayerTableRecord
  2
SCRITTE
 70
0
 62
7
  6
CONTINUOUS
370
-3
390
F
  0
LAYER
  5
211
100
AcDbSymbolTableRecord
100
AcDbLayerTableRecord
  2
SMUSSO
 70
0
 62
7
  6
CONTINUOUS
370
-3
390
F
  0
LAYER
  5
212
100
AcDbSymbolTableRecord
100
AcDbLayerTableRecord
  2
SNAPLINE
 70
0
 62
7
  6
CONTINUOUS
370
-3
390
F
  0
LAYER
  5
213
100
AcDbSymbolTableRecord
100
AcDbLayerTableRecord
  2
SUPERFICI
 70
0
 62
7
  6
CONTINUOUS
370
-3
390
F
  0
LAYER
  5
214
100
AcDbSymbolTableRecord
100
AcDbLayerTableRecord
  2
TRASH
 70
0
 62
7
  6
CONTINUOUS
370
-3
390
F
  0
LAYER
  5
215
100
AcDbSymbolTableRecord
100
AcDbLayerTableRecord
  2
XSEC_DATUMS
 70
0
 62
7
  6
CONTINUOUS
370
-3
390
F
  0
ENDTAB
  0
TABLE
  2
STYLE
  5
3
100
AcDbSymbolTable
 70
1
  0
STYLE
  5
11
100
AcDbSymbolTableRecord
100
AcDbTextStyleTableRecord
  2
STANDARD
 70
0
 40
0.0
 41
0.8
 50
0.0
 71
0
 42
0.2
  3
txt
  4

  0
STYLE
  5
216
100
AcDbSymbolTableRecord
100
AcDbTextStyleTableRecord
  2
TEXTSTYLE_1
 70
0
 40
0.0
 41
0.8
 50
0.0
 71
0
 42
0.2
  3
gdt
  4

  0
ENDTAB
  0
TABLE
  2
VIEW
  5
6
100
AcDbSymbolTable
 70
0
  0
ENDTAB
  0
TABLE
  2
UCS
  5
7
100
AcDbSymbolTable
 70
0
  0
ENDTAB
  0
TABLE
  2
APPID
  5
9
100
AcDbSymbolTable
 70
1
  0
APPID
  5
217
100
AcDbSymbolTableRecord
100
AcDbRegAppTableRecord
  2
ACAD
 70
0
  0
ENDTAB
  0
TABLE
  2
BLOCK_RECORD
  5
1
100
AcDbSymbolTable
 70
0
  0
BLOCK_RECORD
  5
218
100
AcDbSymbolTableRecord
100
AcDbBlockTableRecord
  2
*Model_Space
  0
BLOCK_RECORD
  5
219
100
AcDbSymbolTableRecord
100
AcDbBlockTableRecord
  2
*Paper_Space
  0
BLOCK_RECORD
  5
21A
100
AcDbSymbolTableRecord
100
AcDbBlockTableRecord
  2
_FILLED
  0
ENDTAB
  0
TABLE
  2
DIMSTYLE
  5
A
100
AcDbSymbolTable
 70
1
100
AcDbDimStyleTable
 71
0
  0
DIMSTYLE
105
21B
100
AcDbSymbolTableRecord
100
AcDbDimStyleTableRecord
  2
STANDARD
 70
0
  3

  4

 40
1.0
 41
3.0
 42
0.5
 43
0.38
 44
1.5
 45
0.0
 46
0.0
 47
0.01
 48
0.01
140
3.0
141
0.09
142
0.0
143
25.4
144
1.0
145
0.0
146
1.0
147
0.625
 71
1.0
 72
0.0
 73
0
 74
0
 75
0
 76
0
 77
1
 78
8
 79
2
170
0
171
1
172
0
173
0
174
0
175
0
176
0
177
0
178
0
270
2
179
2
271
2
272
2
273
2
274
2
275
0
280
0
281
0
282
0
283
1
284
8
285
0
286
0
287
3
288
0
340
11
278
44
341
21A
342
21A
343
21A
344
21A
  0
ENDTAB
  0
ENDSEC
  0
SECTION
  2
BLOCKS
  0
BLOCK
  5
20
100
AcDbEntity
  8
0
100
AcDbBlockBegin
  2
*Model_Space
 70
0
 10
0.0
 20
0.0
 30
0.0
  3
*Model_Space
  1

  0
ENDBLK
  5
21
100
AcDbEntity
  8
0
100
AcDbBlockEnd
  0
BLOCK
  5
1C
100
AcDbEntity
  8
0
100
AcDbBlockBegin
  2
*Paper_Space
 70
0
 10
0.0
 20
0.0
 30
0.0
  3
*Paper_Space
  1

  0
ENDBLK
  5
1D
100
AcDbEntity
  8
0
100
AcDbBlockEnd
  0
BLOCK
  5
21C
100
AcDbEntity
  8
0
100
AcDbBlockBegin
  2
_FILLED
 70
64
 10
0.0
 20
0.0
  3
_FILLED
  1

  0
SOLID
  5
21D
100
AcDbEntity
  8
0
  6
BYBLOCK
 62
0
100
AcDbTrace
 10
0.0
 20
0.0
 11
-1.0
 21
0.3166666667
 12
-1.0
 22
-0.3166666667
 13
-1.0
 23
-0.3166666667
  0
ENDBLK
  5
21E
100
AcDbEntity
  8
0
  6
BYBLOCK
 62
0
100
AcDbBlockEnd
  0
ENDSEC
  0
SECTION
  2
ENTITIES
  0
LINE
  5
21F
100
AcDbEntity
  8
RACCORDO
100
AcDbLine
 62
250
  6
CONTINUOUS
 10
-16.5327036636
 20
31.1835253965
 11
-16.5152485986
 21
31.1922522643
  0
LINE
  5
220
100
AcDbEntity
  8
RACCORDO
100
AcDbLine
 62
7
  6
CONTINUOUS
 10
-16.2828602195
 20
-15.7077477357
 11
-14.3828517579
 21
-15.7077477357
  0
LINE
  5
221
100
AcDbEntity
  8
RACCORDO
100
AcDbLine
 62
7
  6
CONTINUOUS
 10
2.6171397805
 20
-15.7077477357
 11
4.5171482421
 21
-15.7077477357
  0
LINE
  5
222
100
AcDbEntity
  8
RACCORDO
100
AcDbLine
 62
250
  6
CONTINUOUS
 10
-16.2784883855
 20
-15.7033759017
 11
-14.3872235919
 21
-15.7033759017
  0
LINE
  5
223
100
AcDbEntity
  8
RACCORDO
100
AcDbLine
 62
250
  6
CONTINUOUS
 10
2.6215116145
 20
-15.7033759017
 11
4.5127764081
 21
-15.7033759017
  0
LINE
  5
224
100
AcDbEntity
  8
RACCORDO
100
AcDbLine
 62
250
  6
CONTINUOUS
 10
2.3715158453
 20
-15.4533801325
 11
4.7627721773
 21
-15.4533801325
  0
LINE
  5
225
100
AcDbEntity
  8
RACCORDO
100
AcDbLine
 62
250
  6
CONTINUOUS
 10
-14.1372278227
 20
-15.4533801325
 11
-16.5284841547
 21
-15.4533801325
  0
LINE
  5
226
100
AcDbEntity
  8
RACCORDO
100
AcDbLine
 62
250
  6
CONTINUOUS
 10
2.3715158453
 20
-15.052085303
 11
4.7627721773
 21
-15.052085303
  0
LINE
  5
227
100
AcDbEntity
  8
RACCORDO
100
AcDbLine
 62
250
  6
CONTINUOUS
 10
-14.1372278227
 20
-15.052085303
 11
-16.5284841547
 21
-15.052085303
  0
LINE
  5
228
100
AcDbEntity
  8
DRAFT
100
AcDbLine
 62
7
  6
CONTINUOUS
 10
-10.2828559887
 20
-15.0077477357
 11
-1.4828559887
 21
-15.0077477357
  0
LINE
  5
229
100
AcDbEntity
  8
DRAFT
100
AcDbLine
 62
7
  6
CONTINUOUS
 10
-2.3828559887
 20
-15.0019299059
 11
-9.3828559887
 21
-15.0019299059
  0
LINE
  5
22A
100
AcDbEntity
  8
ASSI
100
AcDbLine
 62
250
  6
CONTINUOUS
 10
-1.5265066356
 20
-14.9640970889
 11
-2.3828559887
 21
-14.9640970889
  0
LINE
  5
22B
100
AcDbEntity
  8
ASSI
100
AcDbLine
 62
250
  6
CONTINUOUS
 10
-9.3828559887
 20
-14.9640970889
 11
-10.2392053418
 21
-14.9640970889
  0
LINE
  5
22C
100
AcDbEntity
  8
RACCORDO
100
AcDbLine
 62
250
  6
CONTINUOUS
 10
4.5127764081
 20
-14.8355789521
 11
2.6215116145
 21
-14.8355789521
  0
LINE
  5
22D
100
AcDbEntity
  8
RACCORDO
100
AcDbLine
 62
250
  6
CONTINUOUS
 10
-14.3872235919
 20
-14.8355789521
 11
-16.2784883855
 21
-14.8355789521
  0
LWPOLYLINE
  5
22E
100
AcDbEntity
  8
RACCORDO
100
AcDbPolyline
 62
7
  6
CONTINUOUS
 90
34
 70
0
 10
-16.2828602195
 20
-15.7077477357
 10
-16.2947555047
 20
-15.7074645855
 10
-16.3066238443
 20
-15.70661577
 10
-16.3184383549
 20
-15.7052032099
 10
-16.3301722762
 20
-15.7032301035
 10
-16.3417990275
 20
-15.7007009175
 10
-16.3532922677
 20
-15.6976213775
 10
-16.3646259625
 20
-15.6939984571
 10
-16.375774438
 20
-15.6898403615
 10
-16.386712435
 20
-15.6851565079
 10
-16.3974151763
 20
-15.6799575046
 10
-16.407858417
 20
-15.6742551274
 10
-16.4180184946
 20
-15.6680622939
 10
-16.4278723938
 20
-15.6613930312
 10
-16.4373977926
 20
-15.6542624465
 10
-16.4465731078
 20
-15.6466866946
 10
-16.4553775548
 20
-15.6386829362
 10
-16.4637911892
 20
-15.6302693018
 10
-16.4717949476
 20
-15.6214648548
 10
-16.4793706994
 20
-15.6122895396
 10
-16.4865012842
 20
-15.6027641409
 10
-16.4931705468
 20
-15.5929102417
 10
-16.4993633804
 20
-15.582750164
 10
-16.5050657575
 20
-15.5723069233
 10
-16.5102647609
 20
-15.561604182
 10
-16.5149486145
 20
-15.550666185
 10
-16.5191067101
 20
-15.5395177095
 10
-16.5227296304
 20
-15.5281840148
 10
-16.5258091704
 20
-15.5166907746
 10
-16.5283383564
 20
-15.5050640232
 10
-16.5303114629
 20
-15.4933301019
 10
-16.531724023
 20
-15.4815155913
 10
-16.5325728385
 20
-15.4696472518
 10
-16.5328559887
 20
-15.4577519665
  0
LWPOLYLINE
  5
22F
100
AcDbEntity
  8
RACCORDO
100
AcDbPolyline
 62
7
  6
CONTINUOUS
 90
34
 70
0
 10
2.6171397805
 20
-15.7077477357
 10
2.6052444953
 20
-15.7074645855
 10
2.5933761557
 20
-15.70661577
 10
2.5815616451
 20
-15.7052032099
 10
2.5698277238
 20
-15.7032301035
 10
2.5582009725
 20
-15.7007009175
 10
2.5467077323
 20
-15.6976213775
 10
2.5353740375
 20
-15.6939984571
 10
2.524225562
 20
-15.6898403615
 10
2.513287565
 20
-15.6851565079
 10
2.5025848237
 20
-15.6799575046
 10
2.492141583
 20
-15.6742551274
 10
2.4819815054
 20
-15.6680622939
 10
2.4721276062
 20
-15.6613930312
 10
2.4626022074
 20
-15.6542624465
 10
2.4534268922
 20
-15.6466866946
 10
2.4446224452
 20
-15.6386829362
 10
2.4362088108
 20
-15.6302693018
 10
2.4282050524
 20
-15.6214648548
 10
2.4206293006
 20
-15.6122895396
 10
2.4134987158
 20
-15.6027641409
 10
2.4068294532
 20
-15.5929102417
 10
2.4006366196
 20
-15.582750164
 10
2.3949342425
 20
-15.5723069233
 10
2.3897352391
 20
-15.561604182
 10
2.3850513855
 20
-15.550666185
 10
2.3808932899
 20
-15.5395177095
 10
2.3772703696
 20
-15.5281840148
 10
2.3741908296
 20
-15.5166907746
 10
2.3716616436
 20
-15.5050640232
 10
2.3696885371
 20
-15.4933301019
 10
2.368275977
 20
-15.4815155913
 10
2.3674271615
 20
-15.4696472518
 10
2.3671440113
 20
-15.4577519665
  0
LWPOLYLINE
  5
230
100
AcDbEntity
  8
RACCORDO
100
AcDbPolyline
 62
250
  6
CONTINUOUS
 90
31
 70
0
 10
-16.2784883855
 20
-15.7033759017
 10
-16.2915407255
 20
-15.7030344945
 10
-16.3045656198
 20
-15.7020112319
 10
-16.3175273944
 20
-15.7003076277
 10
-16.3303931132
 20
-15.6979264976
 10
-16.3431245784
 20
-15.6948733842
 10
-16.3556787629
 20
-15.6911579444
 10
-16.3680185669
 20
-15.6867913933
 10
-16.380112923
 20
-15.6817849634
 10
-16.3919290012
 20
-15.6761522148
 10
-16.4034346017
 20
-15.6699084132
 10
-16.4145979201
 20
-15.6630707314
 10
-16.4253879993
 20
-15.6556581013
 10
-16.4357751251
 20
-15.6476909591
 10
-16.4457309623
 20
-15.6391910622
 10
-16.4552282967
 20
-15.6301816403
 10
-16.4642411159
 20
-15.6206873472
 10
-16.4727446574
 20
-15.6107342438
 10
-16.4807155656
 20
-15.6003496545
 10
-16.4881319724
 20
-15.5895620642
 10
-16.4949735482
 20
-15.5784010382
 10
-16.5012215274
 20
-15.5668971824
 10
-16.5068587757
 20
-15.5550820368
 10
-16.5118698311
 20
-15.5429879995
 10
-16.5162409462
 20
-15.5306482434
 10
-16.5199601357
 20
-15.518096596
 10
-16.5230171969
 20
-15.5053674821
 10
-16.5254037396
 20
-15.4924958424
 10
-16.5271132227
 20
-15.479516985
 10
-16.5281409657
 20
-15.4664664867
 10
-16.5284841547
 20
-15.4533801325
  0
LWPOLYLINE
  5
231
100
AcDbEntity
  8
RACCORDO
100
AcDbPolyline
 62
250
  6
CONTINUOUS
 90
31
 70
0
 10
2.6215116145
 20
-15.7033759017
 10
2.6084281285
 20
-15.7030328632
 10
2.5953805019
 20
-15.7020055733
 10
2.5824044958
 20
-15.7002968477
 10
2.5695356749
 20
-15.6979113698
 10
2.5568093104
 20
-15.6948556776
 10
2.5442602827
 20
-15.6911381462
 10
2.5319229864
 20
-15.6867689647
 10
2.5198312358
 20
-15.6817601082
 10
2.508018172
 20
-15.676125305
 10
2.4965161724
 20
-15.6698799991
 10
2.4853567619
 20
-15.6630413077
 10
2.4745705263
 20
-15.6556279743
 10
2.4641870287
 20
-15.6476603176
 10
2.4542347282
 20
-15.6391601753
 10
2.4447409023
 20
-15.6301508447
 10
2.4357315717
 20
-15.6206570188
 10
2.4272314294
 20
-15.6107047184
 10
2.4192637727
 20
-15.6003212207
 10
2.4118504393
 20
-15.5895349851
 10
2.4050117479
 20
-15.5783755746
 10
2.398766442
 20
-15.5668735751
 10
2.3931316388
 20
-15.5550605113
 10
2.3881227823
 20
-15.5429687606
 10
2.3837536009
 20
-15.5306314643
 10
2.3800360695
 20
-15.5180824367
 10
2.3769803773
 20
-15.5053560721
 10
2.3745948993
 20
-15.4924872513
 10
2.3728861737
 20
-15.4795112451
 10
2.3718588839
 20
-15.4664636185
 10
2.3715158453
 20
-15.4533801325
  0
LWPOLYLINE
  5
232
100
AcDbEntity
  8
RACCORDO
100
AcDbPolyline
 62
7
  6
CONTINUOUS
 90
11
 70
0
 10
-16.7388699765
 20
-13.5549730805
 10
-16.7210434475
 20
-13.5634500934
 10
-16.7012254815
 20
-13.5718897994
 10
-16.6810156895
 20
-13.5794845415
 10
-16.6604668854
 20
-13.5862088123
 10
-16.6395995098
 20
-13.5920504258
 10
-16.6184679002
 20
-13.5969887019
 10
-16.5971798757
 20
-13.6009987608
 10
-16.5757994348
 20
-13.6040750397
 10
-16.554344386
 20
-13.6062214755
 10
-16.5328551278
 20
-13.6074389344
  0
LINE
  5
233
100
AcDbEntity
  8
RACCORDO
100
AcDbLine
 62
250
  6
CONTINUOUS
 10
-16.5152485986
 20
-13.6077477357
 11
-16.5327036636
 21
-13.599020868
  0
LINE
  5
234
100
AcDbEntity
  8
RACCORDO
100
AcDbLine
 62
250
  6
CONTINUOUS
 10
-14.3872235919
 20
33.2878804302
 11
-14.3828517579
 21
33.2922522643
  0
LINE
  5
235
100
AcDbEntity
  8
RACCORDO
100
AcDbLine
 62
250
  6
CONTINUOUS
 10
-14.1372278227
 20
33.037884661
 11
-14.1328559887
 21
33.042256495
  0
LINE
  5
236
100
AcDbEntity
  8
RACCORDO
100
AcDbLine
 62
7
  6
CONTINUOUS
 10
-13.9668805555
 20
29.7839605285
 11
-14.1293686978
 21
29.7027226447
  0
LWPOLYLINE
  5
237
100
AcDbEntity
  8
RACCORDO
100
AcDbPolyline
 62
7
  6
CONTINUOUS
 90
11
 70
0
 10
4.7671431504
 20
-13.6074389344
 10
4.7886324085
 20
-13.6062214755
 10
4.8100874573
 20
-13.6040750397
 10
4.8314678983
 20
-13.6009987608
 10
4.8527559227
 20
-13.5969887019
 10
4.8738875324
 20
-13.5920504258
 10
4.894754908
 20
-13.5862088123
 10
4.9153037121
 20
-13.5794845415
 10
4.935513504
 20
-13.5718897994
 10
4.9553314701
 20
-13.5634500934
 10
4.973157999
 20
-13.5549730805
  0
LINE
  5
238
100
AcDbEntity
  8
RACCORDO
100
AcDbLine
 62
7
  6
CONTINUOUS
 10
4.7671440113
 20
-13.6074377037
 11
4.7632323184
 21
-13.6075601791
  0
LINE
  5
239
100
AcDbEntity
  8
RACCORDO
100
AcDbLine
 62
7
  6
CONTINUOUS
 10
4.7632323184
 20
-13.6075601791
 11
4.7593198868
 21
-13.6076520399
  0
LINE
  5
23A
100
AcDbEntity
  8
RACCORDO
100
AcDbLine
 62
7
  6
CONTINUOUS
 10
4.7593198868
 20
-13.6076520399
 11
4.7554068065
 21
-13.6077132847
  0
LINE
  5
23B
100
AcDbEntity
  8
RACCORDO
100
AcDbLine
 62
7
  6
CONTINUOUS
 10
4.7554068065
 20
-13.6077132847
 11
4.7514934369
 21
-13.6077439074
  0
LINE
  5
23C
100
AcDbEntity
  8
RACCORDO
100
AcDbLine
 62
7
  6
CONTINUOUS
 10
-16.2835789866
 20
-14.3303974666
 11
-14.3821329908
 21
-14.3303974666
  0
LINE
  5
23D
100
AcDbEntity
  8
RACCORDO
100
AcDbLine
 62
7
  6
CONTINUOUS
 10
2.6164210134
 20
-14.3303974666
 11
4.5178670092
 21
-14.3303974666
  0
LINE
  5
23E
100
AcDbEntity
  8
DRAFT
100
AcDbLine
 62
7
  6
CONTINUOUS
 10
2.3671440113
 20
-13.6077477357
 11
-1.4828559887
 21
-13.6077477357
  0
LINE
  5
23F
100
AcDbEntity
  8
RACCORDO
100
AcDbLine
 62
7
  6
CONTINUOUS
 10
2.3671440113
 20
-13.6077477357
 11
4.7514934369
 21
-13.6077439074
  0
LINE
  5
240
100
AcDbEntity
  8
DRAFT
100
AcDbLine
 62
7
  6
CONTINUOUS
 10
-10.2828559887
 20
-13.6077477357
 11
-14.1328559887
 21
-13.6077477357
  0
LINE
  5
241
100
AcDbEntity
  8
RACCORDO
100
AcDbLine
 62
7
  6
CONTINUOUS
 10
-16.5327036636
 20
-13.599020868
 11
-13.1415828565
 21
-13.599020868
  0
LINE
  5
242
100
AcDbEntity
  8
RACCORDO
100
AcDbLine
 62
7
  6
CONTINUOUS
 10
1.3758708791
 20
-13.599020868
 11
4.7669916861
 21
-13.599020868
  0
LINE
  5
243
100
AcDbEntity
  8
DRAFT
100
AcDbLine
 62
7
  6
CONTINUOUS
 10
-9.3828559887
 20
-13.5457869744
 11
-8.8828559887
 21
-13.5457869744
  0
LINE
  5
244
100
AcDbEntity
  8
DRAFT
100
AcDbLine
 62
7
  6
CONTINUOUS
 10
-2.8828559887
 20
-13.5457869744
 11
-2.3828559887
 21
-13.5457869744
  0
LINE
  5
245
100
AcDbEntity
  8
RACCORDO
100
AcDbLine
 62
250
  6
CONTINUOUS
 10
-13.2202008219
 20
-13.5204029025
 11
-8.8828559887
 21
-13.5204029025
  0
LINE
  5
246
100
AcDbEntity
  8
RACCORDO
100
AcDbLine
 62
250
  6
CONTINUOUS
 10
-2.8828559887
 20
-13.5204029025
 11
1.4544888445
 21
-13.5204029025
  0
LINE
  5
247
100
AcDbEntity
  8
0
100
AcDbLine
 62
7
  6
CONTINUOUS
 10
-2.8828559887
 20
-12.9077477357
 11
-8.8828559887
 21
-12.9077477357
  0
LINE
  5
248
100
AcDbEntity
  8
RACCORDO
100
AcDbLine
 62
7
  6
CONTINUOUS
 10
-14.1328559887
 20
-13.6077477357
 11
-16.5172054143
 21
-13.6077439074
  0
LINE
  5
249
100
AcDbEntity
  8
RACCORDO
100
AcDbLine
 62
7
  6
CONTINUOUS
 10
-16.5172054143
 20
-13.6077439074
 11
-16.5211187839
 21
-13.6077132847
  0
LINE
  5
24A
100
AcDbEntity
  8
RACCORDO
100
AcDbLine
 62
7
  6
CONTINUOUS
 10
-16.5211187839
 20
-13.6077132847
 11
-16.5250318642
 21
-13.6076520399
  0
LINE
  5
24B
100
AcDbEntity
  8
RACCORDO
100
AcDbLine
 62
7
  6
CONTINUOUS
 10
-16.5250318642
 20
-13.6076520399
 11
-16.5289442958
 21
-13.6075601791
  0
LINE
  5
24C
100
AcDbEntity
  8
RACCORDO
100
AcDbLine
 62
7
  6
CONTINUOUS
 10
-16.5289442958
 20
-13.6075601791
 11
-16.5328559887
 21
-13.6074377037
  0
LINE
  5
24D
100
AcDbEntity
  8
RACCORDO
100
AcDbLine
 62
7
  6
CONTINUOUS
 10
-13.9668805555
 20
-12.199456
 11
-14.1293686978
 21
-12.1182181162
  0
LINE
  5
24E
100
AcDbEntity
  8
RACCORDO
100
AcDbLine
 62
250
  6
CONTINUOUS
 10
-14.3872235919
 20
-15.7033759017
 11
-14.3828517579
 21
-15.7077477357
  0
LINE
  5
24F
100
AcDbEntity
  8
RACCORDO
100
AcDbLine
 62
250
  6
CONTINUOUS
 10
-14.1372278227
 20
-15.4533801325
 11
-14.1328559887
 21
-15.4577519665
  0
LINE
  5
250
100
AcDbEntity
  8
0
100
AcDbLine
 62
7
  6
CONTINUOUS
 10
-14.7827420556
 20
29.6922522643
 11
-15.5328559887
 21
28.941223318
  0
LINE
  5
251
100
AcDbEntity
  8
RACCORDO
100
AcDbLine
 62
7
  6
CONTINUOUS
 10
-14.6828559887
 20
29.6422522643
 11
-16.4471587692
 21
27.8779494838
  0
LINE
  5
252
100
AcDbEntity
  8
RACCORDO
100
AcDbLine
 62
7
  6
CONTINUOUS
 10
-14.1328559887
 20
30.1922522643
 11
-13.1415828565
 21
31.1835253965
  0
LINE
  5
253
100
AcDbEntity
  8
DRAFT
100
AcDbLine
 62
7
  6
CONTINUOUS
 10
-15.6750249243
 20
28.4032314331
 11
-14.6105547425
 21
29.467701615
  0
LINE
  5
254
100
AcDbEntity
  8
RACCORDO
100
AcDbLine
 62
250
  6
CONTINUOUS
 10
-15.8708369937
 20
27.6392291881
 11
-15.5086058749
 21
28.0014603069
  0
LINE
  5
255
100
AcDbEntity
  8
DRAFT
100
AcDbLine
 62
7
  6
CONTINUOUS
 10
-13.2828559887
 20
29.5567224461
 11
-13.3718768198
 21
29.467701615
  0
LINE
  5
256
100
AcDbEntity
  8
RACCORDO
100
AcDbLine
 62
250
  6
CONTINUOUS
 10
-13.4669567079
 20
-12.5204409795
 11
-8.8828559887
 21
-12.5204409795
  0
LINE
  5
257
100
AcDbEntity
  8
RACCORDO
100
AcDbLine
 62
250
  6
CONTINUOUS
 10
-2.8828559887
 20
-12.5204409795
 11
1.7012447304
 21
-12.5204409795
  0
LINE
  5
258
100
AcDbEntity
  8
0
100
AcDbLine
 62
7
  6
CONTINUOUS
 10
-2.8828559887
 20
-12.2077477357
 11
-8.8828559887
 21
-12.2077477357
  0
LINE
  5
259
100
AcDbEntity
  8
RACCORDO
100
AcDbLine
 62
7
  6
CONTINUOUS
 10
-13.4669567079
 20
-12.2037432814
 11
-13.1246776906
 21
-12.2037432814
  0
LINE
  5
25A
100
AcDbEntity
  8
RACCORDO
100
AcDbLine
 62
7
  6
CONTINUOUS
 10
1.3589657132
 20
-12.2037432814
 11
1.7012447304
 21
-12.2037432814
  0
LINE
  5
25B
100
AcDbEntity
  8
DRAFT
100
AcDbLine
 62
7
  6
CONTINUOUS
 10
-14.1293686978
 20
-12.1182181162
 11
-13.1816936633
 21
-12.1182181162
  0
LINE
  5
25C
100
AcDbEntity
  8
DRAFT
100
AcDbLine
 62
7
  6
CONTINUOUS
 10
1.4159816859
 20
-12.1182181162
 11
2.3636567204
 21
-12.1182181162
  0
LINE
  5
25D
100
AcDbEntity
  8
0
100
AcDbLine
 62
7
  6
CONTINUOUS
 10
3.0170300782
 20
-12.1077477357
 11
2.3671440113
 21
-12.1077477357
  0
LINE
  5
25E
100
AcDbEntity
  8
0
100
AcDbLine
 62
7
  6
CONTINUOUS
 10
-14.1328559887
 20
-12.1077477357
 11
-14.7827420556
 21
-12.1077477357
  0
LINE
  5
25F
100
AcDbEntity
  8
DRAFT
100
AcDbLine
 62
7
  6
CONTINUOUS
 10
-14.6828559887
 20
-12.0577477357
 11
-13.3683858069
 21
-12.0577477357
  0
LINE
  5
260
100
AcDbEntity
  8
DRAFT
100
AcDbLine
 62
7
  6
CONTINUOUS
 10
1.6026738294
 20
-12.0577477357
 11
2.9171440113
 21
-12.0577477357
  0
LINE
  5
261
100
AcDbEntity
  8
DRAFT
100
AcDbLine
 62
7
  6
CONTINUOUS
 10
-14.6105547425
 20
-11.8831970865
 11
-13.3718768198
 21
-11.8831970865
  0
LINE
  5
262
100
AcDbEntity
  8
DRAFT
100
AcDbLine
 62
7
  6
CONTINUOUS
 10
1.6061648424
 20
-11.8831970865
 11
2.844842765
 21
-11.8831970865
  0
LINE
  5
263
100
AcDbEntity
  8
RACCORDO
100
AcDbLine
 62
250
  6
CONTINUOUS
 10
0.4753223094
 20
-11.790672019
 11
-12.2410342868
 21
-11.790672019
  0
LINE
  5
264
100
AcDbEntity
  8
0
100
AcDbLine
 62
250
  6
CONTINUOUS
 10
-13.2828559887
 20
-11.6661509841
 11
-13.231878
 21
-11.6661509841
  0
LINE
  5
265
100
AcDbEntity
  8
RACCORDO
100
AcDbLine
 62
250
  6
CONTINUOUS
 10
1.4661660225
 20
-11.6661509841
 11
1.5171440113
 21
-11.6661509841
  0
LINE
  5
266
100
AcDbEntity
  8
RACCORDO
100
AcDbLine
 62
250
  6
CONTINUOUS
 10
0.4724387792
 20
-11.2906910574
 11
-12.2381507567
 21
-11.2906910574
  0
LINE
  5
267
100
AcDbEntity
  8
DRAFT
100
AcDbLine
 62
7
  6
CONTINUOUS
 10
-8.3828559887
 20
-11.2609816293
 11
-8.3241671119
 21
-11.2609816293
  0
LINE
  5
268
100
AcDbEntity
  8
DRAFT
100
AcDbLine
 62
7
  6
CONTINUOUS
 10
-3.4415448656
 20
-11.2609816293
 11
-3.3828559887
 21
-11.2609816293
  0
LINE
  5
269
100
AcDbEntity
  8
DRAFT
100
AcDbLine
 62
7
  6
CONTINUOUS
 10
-2.3828559887
 20
-11.2077477357
 11
-2.4828559887
 21
-11.2077477357
  0
LINE
  5
26A
100
AcDbEntity
  8
DRAFT
100
AcDbLine
 62
7
  6
CONTINUOUS
 10
-9.2828559887
 20
-11.2077477357
 11
-9.3828559887
 21
-11.2077477357
  0
LINE
  5
26B
100
AcDbEntity
  8
RACCORDO
100
AcDbLine
 62
250
  6
CONTINUOUS
 10
-13.2828559887
 20
-11.1668362168
 11
-13.234634674
 21
-11.1668362168
  0
LINE
  5
26C
100
AcDbEntity
  8
RACCORDO
100
AcDbLine
 62
250
  6
CONTINUOUS
 10
1.4689226966
 20
-11.1668362168
 11
1.5171440113
 21
-11.1668362168
  0
LINE
  5
26D
100
AcDbEntity
  8
RACCORDO
100
AcDbLine
 62
250
  6
CONTINUOUS
 10
1.3589657132
 20
-11.1647658526
 11
0.4753223094
 21
-11.1647658526
  0
LINE
  5
26E
100
AcDbEntity
  8
RACCORDO
100
AcDbLine
 62
250
  6
CONTINUOUS
 10
-12.2410342868
 20
-11.1647658526
 11
-13.1246776906
 21
-11.1647658526
  0
LINE
  5
26F
100
AcDbEntity
  8
DRAFT
100
AcDbLine
 62
7
  6
CONTINUOUS
 10
-12.1310773034
 20
-11.1300786124
 11
-9.2828559887
 21
-11.1300786124
  0
LINE
  5
270
100
AcDbEntity
  8
DRAFT
100
AcDbLine
 62
7
  6
CONTINUOUS
 10
-2.4828559887
 20
-11.1300786124
 11
0.365365326
 21
-11.1300786124
  0
LINE
  5
271
100
AcDbEntity
  8
RACCORDO
100
AcDbLine
 62
7
  6
CONTINUOUS
 10
-0.1328559887
 20
-11.1077477357
 11
-2.4896543782
 21
-11.1077477357
  0
LINE
  5
272
100
AcDbEntity
  8
RACCORDO
100
AcDbLine
 62
7
  6
CONTINUOUS
 10
-9.2760575993
 20
-11.1077477357
 11
-11.6328559887
 21
-11.1077477357
  0
LINE
  5
273
100
AcDbEntity
  8
RACCORDO
100
AcDbLine
 62
7
  6
CONTINUOUS
 10
-3.4828559887
 20
-11.0921346869
 11
-8.2828559887
 21
-11.0921346869
  0
LINE
  5
274
100
AcDbEntity
  8
RACCORDO
100
AcDbLine
 62
7
  6
CONTINUOUS
 10
-16.4471587692
 20
-10.2934449553
 11
-14.6828559887
 21
-12.0577477357
  0
LINE
  5
275
100
AcDbEntity
  8
RACCORDO
100
AcDbLine
 62
7
  6
CONTINUOUS
 10
-13.1415828565
 20
-13.599020868
 11
-14.1328559887
 21
-12.6077477357
  0
LINE
  5
276
100
AcDbEntity
  8
DRAFT
100
AcDbLine
 62
7
  6
CONTINUOUS
 10
-15.6750249243
 20
-10.8187269046
 11
-14.6105547425
 21
-11.8831970865
  0
LINE
  5
277
100
AcDbEntity
  8
RACCORDO
100
AcDbLine
 62
250
  6
CONTINUOUS
 10
-15.5086058749
 20
-10.4169557784
 11
-15.8708369937
 21
-10.0547246596
  0
LINE
  5
278
100
AcDbEntity
  8
DRAFT
100
AcDbLine
 62
7
  6
CONTINUOUS
 10
-13.2828559887
 20
-11.9722179176
 11
-13.3718768198
 21
-11.8831970865
  0
LINE
  5
279
100
AcDbEntity
  8
0
100
AcDbLine
 62
7
  6
CONTINUOUS
 10
-14.7827420556
 20
-12.1077477357
 11
-15.5328559887
 21
-11.3567187895
  0
LWPOLYLINE
  5
27A
100
AcDbEntity
  8
RACCORDO
100
AcDbPolyline
 62
250
  6
CONTINUOUS
 90
37
 70
0
 10
-15.8708369937
 20
-10.0547246596
 10
-15.9013449086
 20
-10.0235399667
 10
-15.9311652622
 20
-9.9916973857
 10
-15.9602838751
 20
-9.9592120753
 10
-15.9886868518
 20
-9.9260995608
 10
-16.0163607405
 20
-9.8923755453
 10
-16.0432925255
 20
-9.8580558914
 10
-16.0694694648
 20
-9.8231568233
 10
-16.0948790217
 20
-9.7876950421
 10
-16.119509022
 20
-9.7516875347
 10
-16.1433477158
 20
-9.7151514916
 10
-16.1663838033
 20
-9.6781042453
 10
-16.1886063543
 20
-9.6405633764
 10
-16.210004797
 20
-9.6025467465
 10
-16.2305689514
 20
-9.5640724448
 10
-16.2502890568
 20
-9.5251587293
 10
-16.2691557413
 20
-9.4858240856
 10
-16.2871600122
 20
-9.4460872553
 10
-16.3042932854
 20
-9.4059671803
 10
-16.3205474088
 20
-9.3654829494
 10
-16.335914649
 20
-9.3246538247
 10
-16.3503876817
 20
-9.2834992704
 10
-16.3639596136
 20
-9.2420388976
 10
-16.3766240002
 20
-9.2002924044
 10
-16.388374833
 20
-9.1582796033
 10
-16.3992065192
 20
-9.1160204841
 10
-16.4091139044
 20
-9.0735351518
 10
-16.418092286
 20
-9.0308437662
 10
-16.4261373983
 20
-8.9879665732
 10
-16.4332453942
 20
-8.9449240369
 10
-16.4394128705
 20
-8.9017367776
 10
-16.4446368825
 20
-8.8584254694
 10
-16.4489149682
 20
-8.8150105947
 10
-16.4522451141
 20
-8.7715125741
 10
-16.4546257285
 20
-8.7279520237
 10
-16.456055659
 20
-8.6843497469
 10
-16.4565342132
 20
-8.6407264888
  0
LINE
  5
27B
100
AcDbEntity
  8
ASSI
100
AcDbLine
 62
7
  6
CONTINUOUS
 10
-9.4767117064
 20
32.4156995484
 11
-9.5032584122
 21
32.3853298176
  0
LINE
  5
27C
100
AcDbEntity
  8
ASSI
100
AcDbLine
 62
7
  6
CONTINUOUS
 10
-9.5032584122
 20
32.3853298176
 11
-9.5336645396
 21
32.3510820847
  0
LINE
  5
27D
100
AcDbEntity
  8
ASSI
100
AcDbLine
 62
7
  6
CONTINUOUS
 10
-9.5336645396
 20
32.3510820847
 11
-9.5679343386
 21
32.3129683194
  0
LINE
  5
27E
100
AcDbEntity
  8
ASSI
100
AcDbLine
 62
7
  6
CONTINUOUS
 10
-9.5679343386
 20
32.3129683194
 11
-9.6264278112
 21
32.2486540952
  0
LINE
  5
27F
100
AcDbEntity
  8
ASSI
100
AcDbLine
 62
7
  6
CONTINUOUS
 10
-9.6264278112
 20
32.2486540952
 11
-9.8108259764
 21
32.048610079
  0
LINE
  5
280
100
AcDbEntity
  8
RACCORDO
100
AcDbLine
 62
250
  6
CONTINUOUS
 10
-15.1638379083
 20
26.9322301027
 11
-15.0944553992
 21
27.0016126117
  0
LINE
  5
281
100
AcDbEntity
  8
DRAFT
100
AcDbLine
 62
7
  6
CONTINUOUS
 10
-13.2828559887
 20
28.4922522643
 11
-13.3718768198
 21
28.4032314331
  0
LINE
  5
282
100
AcDbEntity
  8
RACCORDO
100
AcDbLine
 62
7
  6
CONTINUOUS
 10
-13.1258344873
 20
28.5492737657
 11
-13.1828559887
 21
28.4922522643
  0
LINE
  5
283
100
AcDbEntity
  8
0
100
AcDbLine
 62
7
  6
CONTINUOUS
 10
-7.3480689391
 20
-10.5199110712
 11
-7.3881589901
 21
-10.5221556874
  0
LWPOLYLINE
  5
284
100
AcDbEntity
  8
0
100
AcDbPolyline
 62
7
  6
CONTINUOUS
 90
11
 70
0
 10
-7.702833968
 20
-9.8040492449
 10
-7.6900845903
 20
-9.8033791698
 10
-7.6785922137
 20
-9.8027054219
 10
-7.668370092
 20
-9.8020282609
 10
-7.659431499
 20
-9.801349099
 10
-7.6517814771
 20
-9.8006679902
 10
-7.6454229524
 20
-9.7999848804
 10
-7.640360913
 20
-9.799301019
 10
-7.6365967692
 20
-9.7986168225
 10
-7.6341301135
 20
-9.7979318744
 10
-7.6329607003
 20
-9.7972461747
  0
LINE
  5
285
100
AcDbEntity
  8
0
100
AcDbLine
 62
7
  6
CONTINUOUS
 10
-7.3881589901
 20
-10.5221556874
 11
-7.43370534
 21
-10.5243687126
  0
LINE
  5
286
100
AcDbEntity
  8
0
100
AcDbLine
 62
7
  6
CONTINUOUS
 10
-7.732087475
 20
-9.8053785232
 11
-7.702833968
 21
-9.8040492449
  0
LINE
  5
287
100
AcDbEntity
  8
0
100
AcDbLine
 62
7
  6
CONTINUOUS
 10
-7.43370534
 20
-10.5243687126
 11
-7.4845920096
 21
-10.5265449092
  0
LINE
  5
288
100
AcDbEntity
  8
0
100
AcDbLine
 62
7
  6
CONTINUOUS
 10
-7.7663010799
 20
-9.8066913779
 11
-7.732087475
 21
-9.8053785232
  0
LINE
  5
289
100
AcDbEntity
  8
0
100
AcDbLine
 62
7
  6
CONTINUOUS
 10
-7.4845920096
 20
-10.5265449092
 11
-7.5707724083
 21
-10.5297333329
  0
LINE
  5
28A
100
AcDbEntity
  8
0
100
AcDbLine
 62
7
  6
CONTINUOUS
 10
-7.5707724083
 20
-10.5297333329
 11
-7.6684541526
 21
-10.5328192298
  0
LINE
  5
28B
100
AcDbEntity
  8
0
100
AcDbLine
 62
7
  6
CONTINUOUS
 10
-7.8269284678
 20
-9.8086293953
 11
-7.7663010799
 21
-9.8066913779
  0
LINE
  5
28C
100
AcDbEntity
  8
0
100
AcDbLine
 62
7
  6
CONTINUOUS
 10
-7.6684541526
 20
-10.5328192298
 11
-7.7772282376
 21
-10.5357895087
  0
LINE
  5
28D
100
AcDbEntity
  8
0
100
AcDbLine
 62
7
  6
CONTINUOUS
 10
-7.8984797304
 20
-9.8105207847
 11
-7.8269284678
 21
-9.8086293953
  0
LINE
  5
28E
100
AcDbEntity
  8
0
100
AcDbLine
 62
7
  6
CONTINUOUS
 10
-7.7772282376
 20
-10.5357895087
 11
-7.8966799553
 21
-10.5386330002
  0
LINE
  5
28F
100
AcDbEntity
  8
0
100
AcDbLine
 62
7
  6
CONTINUOUS
 10
-8.010055203
 20
-9.8129488911
 11
-7.8984797304
 21
-9.8105207847
  0
LINE
  5
290
100
AcDbEntity
  8
0
100
AcDbLine
 62
7
  6
CONTINUOUS
 10
-7.8966799553
 20
-10.5386330002
 11
-8.0262989185
 21
-10.5413372692
  0
LINE
  5
291
100
AcDbEntity
  8
0
100
AcDbLine
 62
7
  6
CONTINUOUS
 10
-8.0262989185
 20
-10.5413372692
 11
-8.165586004
 21
-10.5438919527
  0
LINE
  5
292
100
AcDbEntity
  8
0
100
AcDbLine
 62
7
  6
CONTINUOUS
 10
-8.165586004
 20
-10.5438919527
 11
-8.3139181823
 21
-10.5462854951
  0
LINE
  5
293
100
AcDbEntity
  8
0
100
AcDbLine
 62
7
  6
CONTINUOUS
 10
-8.2104715997
 20
-9.8163598287
 11
-8.010055203
 21
-9.8129488911
  0
LINE
  5
294
100
AcDbEntity
  8
0
100
AcDbLine
 62
7
  6
CONTINUOUS
 10
-8.3139181823
 20
-10.5462854951
 11
-8.4707258843
 21
-10.5485088728
  0
LINE
  5
295
100
AcDbEntity
  8
0
100
AcDbLine
 62
7
  6
CONTINUOUS
 10
-8.4707258843
 20
-10.5485088728
 11
-8.6353034537
 21
-10.5505520405
  0
LINE
  5
296
100
AcDbEntity
  8
0
100
AcDbLine
 62
7
  6
CONTINUOUS
 10
-8.5342924958
 20
-9.8203926979
 11
-8.2104715997
 21
-9.8163598287
  0
LINE
  5
297
100
AcDbEntity
  8
0
100
AcDbLine
 62
7
  6
CONTINUOUS
 10
-8.6353034537
 20
-10.5505520405
 11
-8.8657507598
 21
-10.5529831267
  0
LINE
  5
298
100
AcDbEntity
  8
0
100
AcDbLine
 62
7
  6
CONTINUOUS
 10
-8.8657507598
 20
-10.5529831267
 11
-9.1072413189
 21
-10.5550628721
  0
LINE
  5
299
100
AcDbEntity
  8
0
100
AcDbLine
 62
7
  6
CONTINUOUS
 10
-8.9643504079
 20
-9.8240839373
 11
-8.5342924958
 21
-9.8203926979
  0
LINE
  5
29A
100
AcDbEntity
  8
0
100
AcDbLine
 62
7
  6
CONTINUOUS
 10
-9.1072413189
 20
-10.5550628721
 11
-9.3579688661
 21
-10.556775804
  0
LINE
  5
29B
100
AcDbEntity
  8
0
100
AcDbLine
 62
7
  6
CONTINUOUS
 10
-9.3579688661
 20
-10.556775804
 11
-9.6162337411
 21
-10.5581102607
  0
LINE
  5
29C
100
AcDbEntity
  8
0
100
AcDbLine
 62
7
  6
CONTINUOUS
 10
-9.5610108241
 20
-9.8271831936
 11
-8.9643504079
 21
-9.8240839373
  0
LINE
  5
29D
100
AcDbEntity
  8
0
100
AcDbLine
 62
7
  6
CONTINUOUS
 10
-9.6162337411
 20
-10.5581102607
 11
-9.8800741313
 21
-10.559055799
  0
LINE
  5
29E
100
AcDbEntity
  8
0
100
AcDbLine
 62
7
  6
CONTINUOUS
 10
-9.8800741313
 20
-10.559055799
 11
-10.1474476562
 21
-10.5596053521
  0
LINE
  5
29F
100
AcDbEntity
  8
0
100
AcDbLine
 62
7
  6
CONTINUOUS
 10
-10.2636308093
 20
-9.8286053022
 11
-9.5610108241
 21
-9.8271831936
  0
LINE
  5
2A0
100
AcDbEntity
  8
DRAFT
100
AcDbLine
 62
7
  6
CONTINUOUS
 10
-11.5438351576
 20
-11.0187269046
 11
-0.2218768198
 21
-11.0187269046
  0
LINE
  5
2A1
100
AcDbEntity
  8
RACCORDO
100
AcDbLine
 62
250
  6
CONTINUOUS
 10
1.3601225098
 20
-10.9647692372
 11
0.4741655127
 21
-10.9647692372
  0
LINE
  5
2A2
100
AcDbEntity
  8
RACCORDO
100
AcDbLine
 62
250
  6
CONTINUOUS
 10
-12.2398774902
 20
-10.9647692372
 11
-13.1258344873
 21
-10.9647692372
  0
LINE
  5
2A3
100
AcDbEntity
  8
DRAFT
100
AcDbLine
 62
7
  6
CONTINUOUS
 10
1.5171440113
 20
-10.9077477357
 11
-0.1328559887
 21
-10.9077477357
  0
LINE
  5
2A4
100
AcDbEntity
  8
DRAFT
100
AcDbLine
 62
7
  6
CONTINUOUS
 10
-11.6328559887
 20
-10.9077477357
 11
-13.2828559887
 21
-10.9077477357
  0
LINE
  5
2A5
100
AcDbEntity
  8
DRAFT
100
AcDbLine
 62
7
  6
CONTINUOUS
 10
-15.6750249243
 20
-10.8187269046
 11
-13.3718768198
 21
-10.8187269046
  0
LINE
  5
2A6
100
AcDbEntity
  8
DRAFT
100
AcDbLine
 62
7
  6
CONTINUOUS
 10
-11.5438351576
 20
-10.8187269046
 11
-0.2218768198
 21
-10.8187269046
  0
LINE
  5
2A7
100
AcDbEntity
  8
DRAFT
100
AcDbLine
 62
7
  6
CONTINUOUS
 10
1.6061648424
 20
-10.8187269046
 11
3.9093129469
 21
-10.8187269046
  0
LINE
  5
2A8
100
AcDbEntity
  8
0
100
AcDbLine
 62
7
  6
CONTINUOUS
 10
-10.1474476562
 20
-10.5596053521
 11
-10.4165688524
 21
-10.5597555877
  0
LINE
  5
2A9
100
AcDbEntity
  8
RACCORDO
100
AcDbLine
 62
250
  6
CONTINUOUS
 10
3.7428938974
 20
-10.4169557784
 11
-7.2057570189
 21
-10.4169557784
  0
LINE
  5
2AA
100
AcDbEntity
  8
RACCORDO
100
AcDbLine
 62
250
  6
CONTINUOUS
 10
-13.5599549586
 20
-10.4169557784
 11
-15.5086058749
 21
-10.4169557784
  0
LINE
  5
2AB
100
AcDbEntity
  8
RACCORDO
100
AcDbLine
 62
250
  6
CONTINUOUS
 10
3.3287434218
 20
-9.4171080832
 11
-7.5803900664
 21
-9.4171080832
  0
LINE
  5
2AC
100
AcDbEntity
  8
RACCORDO
100
AcDbLine
 62
250
  6
CONTINUOUS
 10
-13.185321911
 20
-9.4171080832
 11
-15.0944553992
 21
-9.4171080832
  0
LINE
  5
2AD
100
AcDbEntity
  8
DRAFT
100
AcDbLine
 62
7
  6
CONTINUOUS
 10
-13.185321911
 20
-9.2446574341
 11
-7.5803900664
 21
-9.2446574341
  0
LINE
  5
2AE
100
AcDbEntity
  8
0
100
AcDbLine
 62
7
  6
CONTINUOUS
 10
-10.4165688524
 20
-10.5597555877
 11
-10.6854604032
 21
-10.5595051279
  0
LINE
  5
2AF
100
AcDbEntity
  8
0
100
AcDbLine
 62
7
  6
CONTINUOUS
 10
-10.9742761375
 20
-9.8278917174
 11
-10.2636308093
 21
-9.8286053022
  0
LINE
  5
2B0
100
AcDbEntity
  8
0
100
AcDbLine
 62
7
  6
CONTINUOUS
 10
-10.6854604032
 20
-10.5595051279
 11
-10.9521094243
 21
-10.5588559621
  0
LINE
  5
2B1
100
AcDbEntity
  8
0
100
AcDbLine
 62
7
  6
CONTINUOUS
 10
-10.9521094243
 20
-10.5588559621
 11
-11.2147263766
 21
-10.5578123755
  0
LINE
  5
2B2
100
AcDbEntity
  8
0
100
AcDbLine
 62
7
  6
CONTINUOUS
 10
-11.6452285877
 20
-9.8250908532
 11
-10.9742761375
 21
-9.8278917174
  0
LINE
  5
2B3
100
AcDbEntity
  8
0
100
AcDbLine
 62
7
  6
CONTINUOUS
 10
-11.2147263766
 20
-10.5578123755
 11
-11.4712995158
 21
-10.556382024
  0
LINE
  5
2B4
100
AcDbEntity
  8
0
100
AcDbLine
 62
7
  6
CONTINUOUS
 10
-11.4712995158
 20
-10.556382024
 11
-11.7198542663
 21
-10.554576132
  0
LINE
  5
2B5
100
AcDbEntity
  8
0
100
AcDbLine
 62
7
  6
CONTINUOUS
 10
-11.7198542663
 20
-10.554576132
 11
-11.9587292397
 21
-10.5524071095
  0
LINE
  5
2B6
100
AcDbEntity
  8
0
100
AcDbLine
 62
7
  6
CONTINUOUS
 10
-12.1868320563
 20
-9.8208494754
 11
-11.6452285877
 21
-9.8250908532
  0
LINE
  5
2B7
100
AcDbEntity
  8
0
100
AcDbLine
 62
7
  6
CONTINUOUS
 10
-11.9587292397
 20
-10.5524071095
 11
-12.1304633477
 21
-10.5505514049
  0
LINE
  5
2B8
100
AcDbEntity
  8
0
100
AcDbLine
 62
7
  6
CONTINUOUS
 10
-12.1304633477
 20
-10.5505514049
 11
-12.2950340078
 21
-10.5485082369
  0
LINE
  5
2B9
100
AcDbEntity
  8
0
100
AcDbLine
 62
7
  6
CONTINUOUS
 10
-12.5552147228
 20
-9.8163602096
 11
-12.1868320563
 21
-9.8208494754
  0
LINE
  5
2BA
100
AcDbEntity
  8
0
100
AcDbLine
 62
7
  6
CONTINUOUS
 10
-12.2950340078
 20
-10.5485082369
 11
-12.4518359307
 21
-10.5462848573
  0
LINE
  5
2BB
100
AcDbEntity
  8
0
100
AcDbLine
 62
7
  6
CONTINUOUS
 10
-12.4518359307
 20
-10.5462848573
 11
-12.6001624411
 21
-10.5438913254
  0
LINE
  5
2BC
100
AcDbEntity
  8
0
100
AcDbLine
 62
7
  6
CONTINUOUS
 10
-12.6001624411
 20
-10.5438913254
 11
-12.7394439271
 21
-10.5413366652
  0
LINE
  5
2BD
100
AcDbEntity
  8
0
100
AcDbLine
 62
7
  6
CONTINUOUS
 10
-12.7556359242
 20
-9.812949301
 11
-12.5552147228
 21
-9.8163602096
  0
LINE
  5
2BE
100
AcDbEntity
  8
0
100
AcDbLine
 62
7
  6
CONTINUOUS
 10
-12.7394439271
 20
-10.5413366652
 11
-12.8690568734
 21
-10.5386324468
  0
LINE
  5
2BF
100
AcDbEntity
  8
0
100
AcDbLine
 62
7
  6
CONTINUOUS
 10
-12.8672197742
 20
-9.8105210872
 11
-12.7556359242
 21
-9.812949301
  0
LINE
  5
2C0
100
AcDbEntity
  8
0
100
AcDbLine
 62
7
  6
CONTINUOUS
 10
-12.8690568734
 20
-10.5386324468
 11
-12.9885027372
 21
-10.5357890247
  0
LINE
  5
2C1
100
AcDbEntity
  8
0
100
AcDbLine
 62
7
  6
CONTINUOUS
 10
-12.9387747989
 20
-9.8086296478
 11
-12.8672197742
 21
-9.8105210872
  0
LINE
  5
2C2
100
AcDbEntity
  8
0
100
AcDbLine
 62
7
  6
CONTINUOUS
 10
-12.9885027372
 20
-10.5357890247
 11
-13.0972713484
 21
-10.5328188335
  0
LINE
  5
2C3
100
AcDbEntity
  8
0
100
AcDbLine
 62
7
  6
CONTINUOUS
 10
-13.0972713484
 20
-10.5328188335
 11
-13.1949486907
 21
-10.5297330216
  0
LINE
  5
2C4
100
AcDbEntity
  8
0
100
AcDbLine
 62
7
  6
CONTINUOUS
 10
-12.9994039465
 20
-9.8066916252
 11
-12.9387747989
 21
-9.8086296478
  0
LINE
  5
2C5
100
AcDbEntity
  8
0
100
AcDbLine
 62
7
  6
CONTINUOUS
 10
-13.1949486907
 20
-10.5297330216
 11
-13.2811257109
 21
-10.5265446781
  0
LINE
  5
2C6
100
AcDbEntity
  8
0
100
AcDbLine
 62
7
  6
CONTINUOUS
 10
-13.0336184896
 20
-9.8053787735
 11
-12.9994039465
 21
-9.8066916252
  0
LINE
  5
2C7
100
AcDbEntity
  8
0
100
AcDbLine
 62
7
  6
CONTINUOUS
 10
-13.2811257109
 20
-10.5265446781
 11
-13.3320107123
 21
-10.5243685265
  0
LINE
  5
2C8
100
AcDbEntity
  8
0
100
AcDbLine
 62
7
  6
CONTINUOUS
 10
-13.3320107123
 20
-10.5243685265
 11
-13.3775558263
 21
-10.5221555397
  0
LWPOLYLINE
  5
2C9
100
AcDbEntity
  8
0
100
AcDbPolyline
 62
7
  6
CONTINUOUS
 90
15
 70
0
 10
-13.3775558263
 20
-10.5221555397
 10
-13.4176446572
 20
-10.5199109732
 10
-13.4356211487
 20
-10.518778238
 10
-13.4522101129
 20
-10.5176389372
 10
-13.4674122436
 20
-10.5164931499
 10
-13.4812049689
 20
-10.5153425581
 10
-13.4935853981
 20
-10.5141872095
 10
-13.504556422
 20
-10.5130270565
 10
-13.5141041409
 20
-10.511863638
 10
-13.5222268539
 20
-10.5106969023
 10
-13.5289262619
 20
-10.5095269011
 10
-13.5341935683
 20
-10.508355329
 10
-13.5380258409
 20
-10.5071827507
 10
-13.5404260119
 20
-10.5060086014
 10
-13.5413940813
 20
-10.5048328811
  0
LWPOLYLINE
  5
2CA
100
AcDbEntity
  8
0
100
AcDbPolyline
 62
7
  6
CONTINUOUS
 90
12
 70
0
 10
-13.1327512771
 20
-9.7972461747
 10
-13.1315818759
 20
-9.7979318699
 10
-13.1291152276
 20
-9.7986168183
 10
-13.1253510598
 20
-9.7993010197
 10
-13.1202889405
 20
-9.7999848905
 10
-13.1139302517
 20
-9.8006680145
 10
-13.1062799445
 20
-9.8013491428
 10
-13.0973408972
 20
-9.8020283309
 10
-13.0871181332
 20
-9.8027055233
 10
-13.0756249423
 20
-9.8033793053
 10
-13.0628744706
 20
-9.8040494216
 10
-13.0336184896
 20
-9.8053787735
  0
LINE
  5
2CB
100
AcDbEntity
  8
RACCORDO
100
AcDbLine
 62
250
  6
CONTINUOUS
 10
-15.0944553992
 20
-9.4171080832
 11
-15.1638379083
 21
-9.3477255742
  0
LINE
  5
2CC
100
AcDbEntity
  8
DRAFT
100
AcDbLine
 62
7
  6
CONTINUOUS
 10
-13.2828559887
 20
-10.9077477357
 11
-13.3718768198
 21
-10.8187269046
  0
LINE
  5
2CD
100
AcDbEntity
  8
RACCORDO
100
AcDbLine
 62
7
  6
CONTINUOUS
 10
-13.1258344873
 20
-10.9647692372
 11
-13.1828559887
 21
-10.9077477357
  0
LINE
  5
2CE
100
AcDbEntity
  8
RACCORDO
100
AcDbLine
 62
7
  6
CONTINUOUS
 10
-13.1848389655
 20
-9.7451593551
 11
-13.1327893514
 21
-9.7972021036
  0
LWPOLYLINE
  5
2CF
100
AcDbEntity
  8
RACCORDO
100
AcDbPolyline
 62
250
  6
CONTINUOUS
 90
37
 70
0
 10
-15.1638379083
 20
-9.3477255742
 10
-15.1791027954
 20
-9.33212307
 10
-15.1940105049
 20
-9.3162063967
 10
-15.2085610368
 20
-9.2999755542
 10
-15.2227611409
 20
-9.2834223564
 10
-15.2366040675
 20
-9.2665549895
 10
-15.2500695664
 20
-9.2493980117
 10
-15.2631569451
 20
-9.2319511579
 10
-15.2758668961
 20
-9.2142146931
 10
-15.2881812476
 20
-9.1962139704
 10
-15.3000994144
 20
-9.1779486381
 10
-15.3116219817
 20
-9.1594190479
 10
-15.3227325329
 20
-9.1406516071
 10
-15.3334304826
 20
-9.1216459775
 10
-15.3437164162
 20
-9.1024024975
 10
-15.3535756735
 20
-9.0829485896
 10
-15.3630076532
 20
-9.0632839385
 10
-15.3720129566
 20
-9.0434088597
 10
-15.3805787274
 20
-9.0233517222
 10
-15.3887043364
 20
-9.0031122664
 10
-15.3963904129
 20
-8.9826907519
 10
-15.4036259887
 20
-8.9621163272
 10
-15.4104104161
 20
-8.9413887893
 10
-15.4167443429
 20
-8.9205083411
 10
-15.4226187447
 20
-8.8995047397
 10
-15.4280329685
 20
-8.8783778105
 10
-15.4329876674
 20
-8.857127728
 10
-15.4374757766
 20
-8.8357847732
 10
-15.4414966337
 20
-8.8143487807
 10
-15.4450509012
 20
-8.792819916
 10
-15.4481335015
 20
-8.7712289559
 10
-15.4507437579
 20
-8.7495755762
 10
-15.452882347
 20
-8.7278601011
 10
-15.4545462223
 20
-8.7061142798
 10
-15.4557343681
 20
-8.6843486956
 10
-15.4564478
 20
-8.6625527652
 10
-15.456686518
 20
-8.6407264888
  0
LINE
  5
2D0
100
AcDbEntity
  8
ASSI
100
AcDbLine
 62
7
  6
CONTINUOUS
 10
-9.8108259764
 20
-14.4641055505
 11
-9.7155122406
 21
-14.5671930974
  0
LINE
  5
2D1
100
AcDbEntity
  8
ASSI
100
AcDbLine
 62
7
  6
CONTINUOUS
 10
-9.7155122406
 20
-14.5671930974
 11
-9.6265263947
 21
-14.664041168
  0
LINE
  5
2D2
100
AcDbEntity
  8
ASSI
100
AcDbLine
 62
7
  6
CONTINUOUS
 10
-9.6265263947
 20
-14.664041168
 11
-9.5680788465
 21
-14.7283041047
  0
LINE
  5
2D3
100
AcDbEntity
  8
ASSI
100
AcDbLine
 62
7
  6
CONTINUOUS
 10
-9.5680788465
 20
-14.7283041047
 11
-9.5338521981
 21
-14.7663680144
  0
LINE
  5
2D4
100
AcDbEntity
  8
ASSI
100
AcDbLine
 62
7
  6
CONTINUOUS
 10
-9.5338521981
 20
-14.7663680144
 11
-9.5034794891
 21
-14.8005744904
  0
LWPOLYLINE
  5
2D5
100
AcDbEntity
  8
ASSI
100
AcDbPolyline
 62
7
  6
CONTINUOUS
 90
18
 70
0
 10
-9.5034794891
 20
-14.8005744904
 10
-9.4769454814
 20
-14.8309253962
 10
-9.4650476788
 20
-14.8447453753
 10
-9.4540401
 20
-14.8576846144
 10
-9.4439099372
 20
-14.8697448649
 10
-9.4346068268
 20
-14.8810053637
 10
-9.426126638
 20
-14.8914676606
 10
-9.4184560705
 20
-14.9011302057
 10
-9.4115478399
 20
-14.9100675864
 10
-9.4053867843
 20
-14.9182993334
 10
-9.3999859845
 20
-14.9258059159
 10
-9.3953464796
 20
-14.9326033287
 10
-9.3914582561
 20
-14.9386834664
 10
-9.3883105565
 20
-14.9440544343
 10
-9.3858944213
 20
-14.9487565432
 10
-9.3841932472
 20
-14.9528032299
 10
-9.3831869383
 20
-14.9561810575
 10
-9.3828559887
 20
-14.9588900261
  0
LINE
  5
2D6
100
AcDbEntity
  8
DRAFT
100
AcDbLine
 62
7
  6
CONTINUOUS
 10
-13.1246776906
 20
29.7882478099
 11
-13.1816936633
 21
29.7027226447
  0
LINE
  5
2D7
100
AcDbEntity
  8
RACCORDO
100
AcDbLine
 62
250
  6
CONTINUOUS
 10
-16.4565342132
 20
-8.6407264888
 11
-15.456686518
 21
-8.6407264888
  0
LINE
  5
2D8
100
AcDbEntity
  8
RACCORDO
100
AcDbLine
 62
250
  6
CONTINUOUS
 10
4.6908222358
 20
-8.6407264888
 11
3.6909745406
 21
-8.6407264888
  0
LINE
  5
2D9
100
AcDbEntity
  8
DRAFT
100
AcDbLine
 62
7
  6
CONTINUOUS
 10
-13.1327512771
 20
-9.2972280679
 11
-13.185321911
 21
-9.2446574341
  0
LINE
  5
2DA
100
AcDbEntity
  8
0
100
AcDbLine
 62
7
  6
CONTINUOUS
 10
-13.1327893514
 20
-9.7972021036
 11
-13.1327512771
 21
-9.7972461747
  0
LINE
  5
2DB
100
AcDbEntity
  8
DRAFT
100
AcDbLine
 62
7
  6
CONTINUOUS
 10
-13.1246776906
 20
-12.2037432814
 11
-13.1816936633
 21
-12.1182181162
  0
LINE
  5
2DC
100
AcDbEntity
  8
DRAFT
100
AcDbLine
 62
7
  6
CONTINUOUS
 10
-14.1293686978
 20
29.7027226447
 11
-14.1328559887
 21
29.6922522643
  0
LWPOLYLINE
  5
2DD
100
AcDbEntity
  8
0
100
AcDbPolyline
 62
7
  6
CONTINUOUS
 90
17
 70
0
 10
-13.2951913385
 20
-4.7321640286
 10
-13.2433012268
 20
-4.7452246978
 10
-13.1947292071
 20
-4.7571509818
 10
-13.1494762613
 20
-4.7678842766
 10
-13.1077703173
 20
-4.7773126197
 10
-13.0693793248
 20
-4.7854283433
 10
-13.033612692
 20
-4.7923085928
 10
-12.999686774
 20
-4.7979873284
 10
-12.9683746956
 20
-4.8022433568
 10
-12.9413200504
 20
-4.804863776
 10
-12.9194138227
 20
-4.8058059006
 10
-12.9017584686
 20
-4.8052614923
 10
-12.8873166724
 20
-4.8034643808
 10
-12.8757941248
 20
-4.8005354267
 10
-12.8674859775
 20
-4.7964873531
 10
-12.8622393392
 20
-4.7913655826
 10
-12.8600940109
 20
-4.7859219759
  0
LINE
  5
2DE
100
AcDbEntity
  8
0
100
AcDbLine
 62
7
  6
CONTINUOUS
 10
-12.3713592955
 20
-4.981247945
 11
-13.2946274211
 21
-4.7338589963
  0
LWPOLYLINE
  5
2DF
100
AcDbEntity
  8
0
100
AcDbPolyline
 62
7
  6
CONTINUOUS
 90
14
 70
0
 10
-12.8858227205
 20
-4.7514240087
 10
-12.9017198032
 20
-4.7418687147
 10
-12.9219166506
 20
-4.7323900434
 10
-12.9457237365
 20
-4.723416496
 10
-12.971028835
 20
-4.7156062657
 10
-12.99667146
 20
-4.7091631319
 10
-13.0238073504
 20
-4.7037102887
 10
-13.0537923487
 20
-4.6989329141
 10
-13.0863073717
 20
-4.6947968862
 10
-13.1216785131
 20
-4.6913561704
 10
-13.1622403246
 20
-4.6885536103
 10
-13.2087756281
 20
-4.6863698206
 10
-13.2605093278
 20
-4.6847800498
 10
-13.3174410429
 20
-4.6837198149
  0
LINE
  5
2E0
100
AcDbEntity
  8
DRAFT
100
AcDbLine
 62
7
  6
CONTINUOUS
 10
-14.1293686978
 20
-12.1182181162
 11
-14.1328559887
 21
-12.1077477357
  0
LWPOLYLINE
  5
2E1
100
AcDbEntity
  8
RACCORDO
100
AcDbPolyline
 62
7
  6
CONTINUOUS
 90
10
 70
0
 10
-15.5373478186
 20
18.3106769931
 10
-15.5374996203
 20
18.3104177735
 10
-15.53765091
 20
18.309596508
 10
-15.5378016877
 20
18.3082131966
 10
-15.5379521147
 20
18.3062648776
 10
-15.5381020296
 20
18.3037545127
 10
-15.5382509487
 20
18.3006909875
 10
-15.5383988854
 20
18.2970717639
 10
-15.5385458261
 20
18.29289938
 10
-15.5388351089
 20
18.2829439214
  0
LINE
  5
2E2
100
AcDbEntity
  8
ASSI
100
AcDbLine
 62
7
  6
CONTINUOUS
 10
-1.6629009372
 20
32.3677156141
 11
-1.6952091765
 21
32.3315911228
  0
LINE
  5
2E3
100
AcDbEntity
  8
ASSI
100
AcDbLine
 62
7
  6
CONTINUOUS
 10
-1.6952091765
 20
32.3315911228
 11
-1.7313246677
 21
32.2916170088
  0
LINE
  5
2E4
100
AcDbEntity
  8
ASSI
100
AcDbLine
 62
7
  6
CONTINUOUS
 10
-1.7313246677
 20
32.2916170088
 11
-1.7923657388
 21
32.2247369565
  0
LWPOLYLINE
  5
2E5
100
AcDbEntity
  8
ASSI
100
AcDbPolyline
 62
7
  6
CONTINUOUS
 90
3
 70
0
 10
-1.7923657388
 20
32.2247369565
 10
-1.8831688365
 20
32.126167631
 10
-1.954886001
 20
32.048610079
  0
LINE
  5
2E6
100
AcDbEntity
  8
ASSI
100
AcDbLine
 62
7
  6
CONTINUOUS
 10
-1.4828559887
 20
32.5922522643
 11
-1.5265066356
 21
32.5486016174
  0
LINE
  5
2E7
100
AcDbEntity
  8
RACCORDO
100
AcDbLine
 62
250
  6
CONTINUOUS
 10
4.6814467918
 20
27.8779494838
 11
4.1051250163
 21
27.6392291881
  0
LINE
  5
2E8
100
AcDbEntity
  8
0
100
AcDbLine
 62
7
  6
CONTINUOUS
 10
-7.4710845564
 20
-4.7338589963
 11
-8.394352682
 21
-4.981247945
  0
LWPOLYLINE
  5
2E9
100
AcDbEntity
  8
0
100
AcDbPolyline
 62
7
  6
CONTINUOUS
 90
14
 70
0
 10
-7.4482709243
 20
-4.6837198067
 10
-7.5050310905
 20
-4.6847753715
 10
-7.556634649
 20
-4.6863574166
 10
-7.6030811506
 20
-4.688530847
 10
-7.6436002144
 20
-4.6913210452
 10
-7.6789697029
 20
-4.6947488914
 10
-7.7115095497
 20
-4.698874272
 10
-7.7415546987
 20
-4.7036485121
 10
-7.7687768544
 20
-4.7091057988
 10
-7.7944903503
 20
-4.7155534456
 10
-7.8198308954
 20
-4.7233610248
 10
-7.8436582316
 20
-4.7323291212
 10
-7.8638790842
 20
-4.741808698
 10
-7.8798101719
 20
-4.7513758103
  0
LINE
  5
2EA
100
AcDbEntity
  8
0
100
AcDbLine
 62
7
  6
CONTINUOUS
 10
-7.3673386766
 20
-4.6830660327
 11
-7.4482714481
 21
-4.6837202289
  0
LINE
  5
2EB
100
AcDbEntity
  8
0
100
AcDbLine
 62
7
  6
CONTINUOUS
 10
-7.1657232395
 20
-4.682760031
 11
-7.3673386766
 21
-4.6830660327
  0
LINE
  5
2EC
100
AcDbEntity
  8
0
100
AcDbLine
 62
7
  6
CONTINUOUS
 10
-13.319643591
 20
-4.6827477357
 11
-12.1328559887
 21
-4.6827477357
  0
LINE
  5
2ED
100
AcDbEntity
  8
0
100
AcDbLine
 62
7
  6
CONTINUOUS
 10
-8.6328559887
 20
-4.6827477357
 11
-7.4460683865
 21
-4.6827477357
  0
LINE
  5
2EE
100
AcDbEntity
  8
0
100
AcDbLine
 62
250
  6
CONTINUOUS
 10
-13.4364913035
 20
-4.6327477357
 11
-12.1328559887
 21
-4.6327477357
  0
LINE
  5
2EF
100
AcDbEntity
  8
0
100
AcDbLine
 62
250
  6
CONTINUOUS
 10
-8.6328559887
 20
-4.6327477357
 11
-7.329220617
 21
-4.6327477357
  0
LINE
  5
2F0
100
AcDbEntity
  8
0
100
AcDbLine
 62
7
  6
CONTINUOUS
 10
-9.3257372631
 20
-4.1827477357
 11
-9.3984004376
 21
-4.1827477357
  0
LINE
  5
2F1
100
AcDbEntity
  8
0
100
AcDbLine
 62
7
  6
CONTINUOUS
 10
-11.3673115398
 20
-4.1827477357
 11
-11.4399747143
 21
-4.1827477357
  0
LINE
  5
2F2
100
AcDbEntity
  8
0
100
AcDbLine
 62
7
  6
CONTINUOUS
 10
-13.3983606444
 20
-4.6830660397
 11
-13.5999869163
 21
-4.6827600321
  0
LINE
  5
2F3
100
AcDbEntity
  8
0
100
AcDbLine
 62
7
  6
CONTINUOUS
 10
-13.3174405365
 20
-4.6837202231
 11
-13.3983606444
 21
-4.6830660397
  0
LWPOLYLINE
  5
2F4
100
AcDbEntity
  8
0
100
AcDbPolyline
 62
7
  6
CONTINUOUS
 90
16
 70
0
 10
-9.3257372631
 20
-4.1827477357
 10
-9.1752510865
 20
-4.2038088128
 10
-9.0245447168
 20
-4.227220393
 10
-8.8736181541
 20
-4.2529824766
 10
-8.7228109043
 20
-4.281100756
 10
-8.5717834614
 20
-4.3115695386
 10
-8.4195173079
 20
-4.3443717469
 10
-8.2661490447
 20
-4.3794242826
 10
-8.1115420708
 20
-4.4168102439
 10
-7.9542680655
 20
-4.4567618475
 10
-7.7945510606
 20
-4.4991569389
 10
-7.6321670243
 20
-4.5441176725
 10
-7.4650155405
 20
-4.592242729
 10
-7.2923964707
 20
-4.6437316684
 10
-7.1150099534
 20
-4.6983849306
 10
-6.9328559887
 20
-4.7562025156
  0
LWPOLYLINE
  5
2F5
100
AcDbEntity
  8
0
100
AcDbPolyline
 62
7
  6
CONTINUOUS
 90
3
 70
0
 10
-6.9328559887
 20
-4.7562025156
 10
-6.9149135603
 20
-4.7617434612
 10
-6.9108311287
 20
-4.7628756352
  0
LINE
  5
2F6
100
AcDbEntity
  8
RACCORDO
100
AcDbLine
 62
250
  6
CONTINUOUS
 10
4.1051250163
 20
-10.0547246596
 11
4.6814467918
 21
-10.2934449553
  0
LWPOLYLINE
  5
2F7
100
AcDbEntity
  8
RACCORDO
100
AcDbPolyline
 62
7
  6
CONTINUOUS
 90
12
 70
0
 10
-16.6710229045
 20
-0.9260699696
 10
-16.6714182154
 20
-0.9257890821
 10
-16.6718123719
 20
-0.9248174682
 10
-16.6722053738
 20
-0.9231551278
 10
-16.6725975961
 20
-0.9207988836
 10
-16.672988664
 20
-0.9177519129
 10
-16.6733774527
 20
-0.914023748
 10
-16.6737639894
 20
-0.9096117099
 10
-16.6741482469
 20
-0.9045184776
 10
-16.6745290197
 20
-0.8987616199
 10
-16.6749062315
 20
-0.8923402532
 10
-16.6752799584
 20
-0.8852552612
  0
LINE
  5
2F8
100
AcDbEntity
  8
RACCORDO
100
AcDbLine
 62
250
  6
CONTINUOUS
 10
-15.456686518
 20
-1.1247813952
 11
-15.2287653809
 21
-1.3180902262
  0
LINE
  5
2F9
100
AcDbEntity
  8
RACCORDO
100
AcDbLine
 62
250
  6
CONTINUOUS
 10
-10.96084953
 20
-5.132314777
 11
-10.7441019741
 21
-5.3380739416
  0
LINE
  5
2FA
100
AcDbEntity
  8
ASSI
100
AcDbLine
 62
7
  6
CONTINUOUS
 10
-1.4828559887
 20
-15.0077477357
 11
-1.5265066356
 21
-14.9640970889
  0
LINE
  5
2FB
100
AcDbEntity
  8
RACCORDO
100
AcDbLine
 62
250
  6
CONTINUOUS
 10
-10.5222175215
 20
-5.7196622739
 11
-10.7312598092
 21
-5.5060793214
  0
LWPOLYLINE
  5
2FC
100
AcDbEntity
  8
0
100
AcDbPolyline
 62
7
  6
CONTINUOUS
 90
3
 70
0
 10
-12.8647535898
 20
-4.7705640072
 10
-12.8735052107
 20
-4.7610595011
 10
-12.8858227205
 20
-4.7514240087
  0
LINE
  5
2FD
100
AcDbEntity
  8
ASSI
100
AcDbLine
 62
7
  6
CONTINUOUS
 10
-1.954886001
 20
-14.4641055505
 11
-1.8598847863
 21
-14.5668548002
  0
LINE
  5
2FE
100
AcDbEntity
  8
ASSI
100
AcDbLine
 62
7
  6
CONTINUOUS
 10
-1.8598847863
 20
-14.5668548002
 11
-1.7712280588
 21
-14.6633398422
  0
LINE
  5
2FF
100
AcDbEntity
  8
ASSI
100
AcDbLine
 62
7
  6
CONTINUOUS
 10
-1.7712280588
 20
-14.6633398422
 11
-1.7129338389
 21
-14.7274247439
  0
LWPOLYLINE
  5
300
100
AcDbEntity
  8
ASSI
100
AcDbPolyline
 62
7
  6
CONTINUOUS
 90
3
 70
0
 10
-1.7129338389
 20
-14.7274247439
 10
-1.6787552115
 20
-14.7654250044
 10
-1.6630991475
 20
-14.7829883764
  0
LINE
  5
301
100
AcDbEntity
  8
RACCORDO
100
AcDbLine
 62
7
  6
CONTINUOUS
 10
-16.7622548367
 20
2.6979306696
 11
-16.7629862914
 21
2.7134711978
  0
LINE
  5
302
100
AcDbEntity
  8
RACCORDO
100
AcDbLine
 62
7
  6
CONTINUOUS
 10
-16.8493466706
 20
6.2834122629
 11
-16.8500934202
 21
6.2992777468
  0
LINE
  5
303
100
AcDbEntity
  8
RACCORDO
100
AcDbLine
 62
7
  6
CONTINUOUS
 10
-16.8493466706
 20
9.8834122629
 11
-16.8500934202
 21
9.8992777468
  0
LINE
  5
304
100
AcDbEntity
  8
RACCORDO
100
AcDbLine
 62
7
  6
CONTINUOUS
 10
-16.6752799584
 20
-0.8852552612
 11
-16.6760140955
 21
-0.8691510484
  0
LINE
  5
305
100
AcDbEntity
  8
RACCORDO
100
AcDbLine
 62
7
  6
CONTINUOUS
 10
-16.7629862914
 20
2.7134711978
 11
-16.7636998646
 21
2.7314755965
  0
LINE
  5
306
100
AcDbEntity
  8
RACCORDO
100
AcDbLine
 62
7
  6
CONTINUOUS
 10
-16.8500934202
 20
6.2992777468
 11
-16.8508219143
 21
6.3176586211
  0
LINE
  5
307
100
AcDbEntity
  8
RACCORDO
100
AcDbLine
 62
7
  6
CONTINUOUS
 10
-16.8500934202
 20
9.8992777468
 11
-16.8508219143
 21
9.9176586211
  0
LINE
  5
308
100
AcDbEntity
  8
RACCORDO
100
AcDbLine
 62
7
  6
CONTINUOUS
 10
-16.6760140955
 20
-0.8691510484
 11
-16.6767292642
 21
-0.8505014524
  0
LINE
  5
309
100
AcDbEntity
  8
RACCORDO
100
AcDbLine
 62
7
  6
CONTINUOUS
 10
-16.7636998646
 20
2.7314755965
 11
-16.7643921046
 21
2.7518545494
  0
LINE
  5
30A
100
AcDbEntity
  8
RACCORDO
100
AcDbLine
 62
7
  6
CONTINUOUS
 10
-16.8508219143
 20
6.3176586211
 11
-16.8515286292
 21
6.3384637021
  0
LINE
  5
30B
100
AcDbEntity
  8
RACCORDO
100
AcDbLine
 62
7
  6
CONTINUOUS
 10
-16.8508219143
 20
9.9176586211
 11
-16.8515286292
 21
9.9384637021
  0
LINE
  5
30C
100
AcDbEntity
  8
RACCORDO
100
AcDbLine
 62
7
  6
CONTINUOUS
 10
-16.7636998646
 20
13.5314755965
 11
-16.7643921046
 21
13.5518545494
  0
LINE
  5
30D
100
AcDbEntity
  8
RACCORDO
100
AcDbLine
 62
7
  6
CONTINUOUS
 10
-16.6767292642
 20
-0.8505014524
 11
-16.6774215783
 21
-0.8294096871
  0
LINE
  5
30E
100
AcDbEntity
  8
RACCORDO
100
AcDbLine
 62
7
  6
CONTINUOUS
 10
-16.7643921046
 20
2.7518545494
 11
-16.7653861457
 21
2.7867255924
  0
LINE
  5
30F
100
AcDbEntity
  8
RACCORDO
100
AcDbLine
 62
7
  6
CONTINUOUS
 10
-16.8515286292
 20
6.3384637021
 11
-16.8525434559
 21
6.3740639057
  0
LINE
  5
310
100
AcDbEntity
  8
RACCORDO
100
AcDbLine
 62
7
  6
CONTINUOUS
 10
-16.8515286292
 20
9.9384637021
 11
-16.8525434559
 21
9.9740639057
  0
LINE
  5
311
100
AcDbEntity
  8
RACCORDO
100
AcDbLine
 62
7
  6
CONTINUOUS
 10
-16.7643921046
 20
13.5518545494
 11
-16.7653861457
 21
13.5867255924
  0
LINE
  5
312
100
AcDbEntity
  8
RACCORDO
100
AcDbLine
 62
7
  6
CONTINUOUS
 10
-16.6774215783
 20
-0.8294096871
 11
-16.6784129213
 21
-0.793349022
  0
LINE
  5
313
100
AcDbEntity
  8
RACCORDO
100
AcDbLine
 62
7
  6
CONTINUOUS
 10
-16.8525434559
 20
6.3740639057
 11
-16.8537982775
 21
6.42918193
  0
LINE
  5
314
100
AcDbEntity
  8
RACCORDO
100
AcDbLine
 62
7
  6
CONTINUOUS
 10
-16.7653861457
 20
2.7867255924
 11
-16.7666152661
 21
2.8407146935
  0
LINE
  5
315
100
AcDbEntity
  8
RACCORDO
100
AcDbLine
 62
7
  6
CONTINUOUS
 10
-16.8525434559
 20
9.9740639057
 11
-16.8537982775
 21
10.02918193
  0
LINE
  5
316
100
AcDbEntity
  8
RACCORDO
100
AcDbLine
 62
7
  6
CONTINUOUS
 10
-16.7653861457
 20
13.5867255924
 11
-16.7666152661
 21
13.6407146935
  0
LINE
  5
317
100
AcDbEntity
  8
RACCORDO
100
AcDbLine
 62
7
  6
CONTINUOUS
 10
-16.6784129213
 20
-0.793349022
 11
-16.6796324778
 21
-0.7375979057
  0
LINE
  5
318
100
AcDbEntity
  8
RACCORDO
100
AcDbLine
 62
7
  6
CONTINUOUS
 10
-16.8537982775
 20
6.42918193
 11
-16.8551860343
 21
6.5092493392
  0
LINE
  5
319
100
AcDbEntity
  8
RACCORDO
100
AcDbLine
 62
7
  6
CONTINUOUS
 10
-16.7666152661
 20
2.8407146935
 11
-16.767974599
 21
2.9191421682
  0
LINE
  5
31A
100
AcDbEntity
  8
RACCORDO
100
AcDbLine
 62
7
  6
CONTINUOUS
 10
-16.8537982775
 20
10.02918193
 11
-16.8551860343
 21
10.1092493392
  0
LINE
  5
31B
100
AcDbEntity
  8
RACCORDO
100
AcDbLine
 62
7
  6
CONTINUOUS
 10
-16.7666152661
 20
13.6407146935
 11
-16.767974599
 21
13.7191421682
  0
LINE
  5
31C
100
AcDbEntity
  8
RACCORDO
100
AcDbLine
 62
7
  6
CONTINUOUS
 10
-16.6796324778
 20
-0.7375979057
 11
-16.6809690228
 21
-0.6567921212
  0
LINE
  5
31D
100
AcDbEntity
  8
RACCORDO
100
AcDbLine
 62
7
  6
CONTINUOUS
 10
-16.8551860343
 20
6.5092493392
 11
-16.8563446417
 21
6.5999296324
  0
LINE
  5
31E
100
AcDbEntity
  8
RACCORDO
100
AcDbLine
 62
7
  6
CONTINUOUS
 10
-16.8551860343
 20
10.1092493392
 11
-16.8563446417
 21
10.1999296324
  0
LINE
  5
31F
100
AcDbEntity
  8
RACCORDO
100
AcDbLine
 62
7
  6
CONTINUOUS
 10
-16.767974599
 20
2.9191421682
 11
-16.7691094759
 21
3.0079651545
  0
LINE
  5
320
100
AcDbEntity
  8
RACCORDO
100
AcDbLine
 62
7
  6
CONTINUOUS
 10
-16.767974599
 20
13.7191421682
 11
-16.7691094759
 21
13.8079651545
  0
LINE
  5
321
100
AcDbEntity
  8
RACCORDO
100
AcDbLine
 62
7
  6
CONTINUOUS
 10
-16.6809690228
 20
-0.6567921212
 11
-16.6820679947
 21
-0.5655591149
  0
LINE
  5
322
100
AcDbEntity
  8
RACCORDO
100
AcDbLine
 62
250
  6
CONTINUOUS
 10
-16.5284841547
 20
-15.052085303
 11
-16.5328559887
 21
-14.618232884
  0
LINE
  5
323
100
AcDbEntity
  8
RACCORDO
100
AcDbLine
 62
7
  6
CONTINUOUS
 10
-16.8563446417
 20
6.5999296324
 11
-16.8572501911
 21
6.699181225
  0
LINE
  5
324
100
AcDbEntity
  8
RACCORDO
100
AcDbLine
 62
7
  6
CONTINUOUS
 10
-16.8563446417
 20
10.1999296324
 11
-16.8572501911
 21
10.299181225
  0
LINE
  5
325
100
AcDbEntity
  8
RACCORDO
100
AcDbLine
 62
7
  6
CONTINUOUS
 10
-16.7691094759
 20
3.0079651545
 11
-16.7699964779
 21
3.1051838836
  0
LINE
  5
326
100
AcDbEntity
  8
RACCORDO
100
AcDbLine
 62
7
  6
CONTINUOUS
 10
-16.7691094759
 20
13.8079651545
 11
-16.7699964779
 21
13.9051838836
  0
LINE
  5
327
100
AcDbEntity
  8
RACCORDO
100
AcDbLine
 62
7
  6
CONTINUOUS
 10
-16.681868489
 20
17.4154659423
 11
-16.6827600245
 21
17.5134980267
  0
LINE
  5
328
100
AcDbEntity
  8
RACCORDO
100
AcDbLine
 62
7
  6
CONTINUOUS
 10
-16.6820679947
 20
-0.5655591149
 11
-16.6829056568
 21
-0.4660584693
  0
LINE
  5
329
100
AcDbEntity
  8
RACCORDO
100
AcDbLine
 62
7
  6
CONTINUOUS
 10
-16.8572501911
 20
6.699181225
 11
-16.8578839926
 21
6.8047670009
  0
LINE
  5
32A
100
AcDbEntity
  8
RACCORDO
100
AcDbLine
 62
7
  6
CONTINUOUS
 10
-16.8572501911
 20
10.299181225
 11
-16.8578839926
 21
10.4047670009
  0
LINE
  5
32B
100
AcDbEntity
  8
RACCORDO
100
AcDbLine
 62
7
  6
CONTINUOUS
 10
-16.7699964779
 20
3.1051838836
 11
-16.770617298
 21
3.2086070597
  0
LINE
  5
32C
100
AcDbEntity
  8
RACCORDO
100
AcDbLine
 62
7
  6
CONTINUOUS
 10
-16.7699964779
 20
13.9051838836
 11
-16.770617298
 21
14.0086070597
  0
LINE
  5
32D
100
AcDbEntity
  8
RACCORDO
100
AcDbLine
 62
7
  6
CONTINUOUS
 10
-16.6827600245
 20
17.5134980267
 11
-16.683375194
 21
17.6179136619
  0
LINE
  5
32E
100
AcDbEntity
  8
RACCORDO
100
AcDbLine
 62
7
  6
CONTINUOUS
 10
-16.6829056568
 20
-0.4660584693
 11
-16.6834638706
 21
-0.3606327356
  0
LINE
  5
32F
100
AcDbEntity
  8
RACCORDO
100
AcDbLine
 62
7
  6
CONTINUOUS
 10
-16.8578839926
 20
6.8047670009
 11
-16.8582335534
 21
6.9143619409
  0
LINE
  5
330
100
AcDbEntity
  8
RACCORDO
100
AcDbLine
 62
7
  6
CONTINUOUS
 10
-16.8578839926
 20
10.4047670009
 11
-16.8582335534
 21
10.5143619409
  0
LINE
  5
331
100
AcDbEntity
  8
RACCORDO
100
AcDbLine
 62
7
  6
CONTINUOUS
 10
-16.683375194
 20
17.6179136619
 11
-16.6837011261
 21
17.7263279971
  0
LINE
  5
332
100
AcDbEntity
  8
RACCORDO
100
AcDbLine
 62
7
  6
CONTINUOUS
 10
-16.770617298
 20
3.2086070597
 11
-16.7709941426
 21
3.3377350358
  0
LINE
  5
333
100
AcDbEntity
  8
RACCORDO
100
AcDbLine
 62
7
  6
CONTINUOUS
 10
-16.770617298
 20
14.0086070597
 11
-16.7709941426
 21
14.1377350358
  0
LINE
  5
334
100
AcDbEntity
  8
RACCORDO
100
AcDbLine
 62
7
  6
CONTINUOUS
 10
-16.6834638706
 20
-0.3606327356
 11
-16.683730855
 21
-0.2517370671
  0
LINE
  5
335
100
AcDbEntity
  8
RACCORDO
100
AcDbLine
 62
7
  6
CONTINUOUS
 10
-17.0328559887
 20
-13.0989256763
 11
-17.0328559887
 21
30.6834302048
  0
LINE
  5
336
100
AcDbEntity
  8
RACCORDO
100
AcDbLine
 62
7
  6
CONTINUOUS
 10
-16.8582335534
 20
10.5143619409
 11
-16.8582921718
 21
10.62565608
  0
LINE
  5
337
100
AcDbEntity
  8
RACCORDO
100
AcDbLine
 62
7
  6
CONTINUOUS
 10
-16.8582335534
 20
6.9143619409
 11
-16.8582921718
 21
7.02565608
  0
LINE
  5
338
100
AcDbEntity
  8
RACCORDO
100
AcDbLine
 62
7
  6
CONTINUOUS
 10
-16.6837011261
 20
17.7263279971
 11
-16.683730855
 21
17.8362415956
  0
LINE
  5
339
100
AcDbEntity
  8
RACCORDO
100
AcDbLine
 62
7
  6
CONTINUOUS
 10
-16.683730855
 20
-0.2517370671
 11
-16.6837011261
 21
-0.1418234686
  0
LINE
  5
33A
100
AcDbEntity
  8
RACCORDO
100
AcDbLine
 62
7
  6
CONTINUOUS
 10
-16.7709941426
 20
14.1377350358
 11
-16.770959699
 21
14.268547244
  0
LINE
  5
33B
100
AcDbEntity
  8
RACCORDO
100
AcDbLine
 62
7
  6
CONTINUOUS
 10
-16.7709941426
 20
3.3377350358
 11
-16.770959699
 21
3.468547244
  0
LINE
  5
33C
100
AcDbEntity
  8
RACCORDO
100
AcDbLine
 62
7
  6
CONTINUOUS
 10
-16.8582921718
 20
10.62565608
 11
-16.8580584534
 21
10.7362543533
  0
LINE
  5
33D
100
AcDbEntity
  8
RACCORDO
100
AcDbLine
 62
7
  6
CONTINUOUS
 10
-16.8582921718
 20
7.02565608
 11
-16.8580584534
 21
7.1362543533
  0
LINE
  5
33E
100
AcDbEntity
  8
RACCORDO
100
AcDbLine
 62
7
  6
CONTINUOUS
 10
-16.683730855
 20
17.8362415956
 11
-16.6834638706
 21
17.9451372641
  0
LINE
  5
33F
100
AcDbEntity
  8
RACCORDO
100
AcDbLine
 62
7
  6
CONTINUOUS
 10
-16.6837011261
 20
-0.1418234686
 11
-16.683375194
 21
-0.0334091334
  0
LINE
  5
340
100
AcDbEntity
  8
RACCORDO
100
AcDbLine
 62
7
  6
CONTINUOUS
 10
-16.770959699
 20
14.268547244
 11
-16.7705149455
 21
14.3970000649
  0
LINE
  5
341
100
AcDbEntity
  8
RACCORDO
100
AcDbLine
 62
7
  6
CONTINUOUS
 10
-16.770959699
 20
3.468547244
 11
-16.7705149455
 21
3.5970000649
  0
LINE
  5
342
100
AcDbEntity
  8
RACCORDO
100
AcDbLine
 62
7
  6
CONTINUOUS
 10
-16.8580584534
 20
10.7362543533
 11
-16.8575370433
 21
10.8437404433
  0
LINE
  5
343
100
AcDbEntity
  8
RACCORDO
100
AcDbLine
 62
7
  6
CONTINUOUS
 10
-16.8580584534
 20
7.1362543533
 11
-16.8575370433
 21
7.2437404433
  0
LINE
  5
344
100
AcDbEntity
  8
RACCORDO
100
AcDbLine
 62
7
  6
CONTINUOUS
 10
-16.6834638706
 20
17.9451372641
 11
-16.6829056568
 21
18.0505629978
  0
LINE
  5
345
100
AcDbEntity
  8
RACCORDO
100
AcDbLine
 62
7
  6
CONTINUOUS
 10
-16.683375194
 20
-0.0334091334
 11
-16.6827600245
 21
0.0710065018
  0
LINE
  5
346
100
AcDbEntity
  8
RACCORDO
100
AcDbLine
 62
7
  6
CONTINUOUS
 10
-16.7705149455
 20
14.3970000649
 11
-16.7698398475
 21
14.4993306678
  0
LINE
  5
347
100
AcDbEntity
  8
RACCORDO
100
AcDbLine
 62
7
  6
CONTINUOUS
 10
-16.7705149455
 20
3.5970000649
 11
-16.7698398475
 21
3.6993306678
  0
LINE
  5
348
100
AcDbEntity
  8
RACCORDO
100
AcDbLine
 62
7
  6
CONTINUOUS
 10
-16.8575370433
 20
10.8437404433
 11
-16.8567382223
 21
10.9457996773
  0
LINE
  5
349
100
AcDbEntity
  8
RACCORDO
100
AcDbLine
 62
7
  6
CONTINUOUS
 10
-16.8575370433
 20
7.2437404433
 11
-16.8567382223
 21
7.3457996773
  0
LINE
  5
34A
100
AcDbEntity
  8
RACCORDO
100
AcDbLine
 62
7
  6
CONTINUOUS
 10
-16.6829056568
 20
18.0505629978
 11
-16.6820679947
 21
18.1500636434
  0
LINE
  5
34B
100
AcDbEntity
  8
RACCORDO
100
AcDbLine
 62
250
  6
CONTINUOUS
 10
-16.5328559887
 20
32.2027374125
 11
-16.5284841547
 21
32.6365898315
  0
LINE
  5
34C
100
AcDbEntity
  8
RACCORDO
100
AcDbLine
 62
7
  6
CONTINUOUS
 10
-16.6827600245
 20
0.0710065018
 11
-16.681868489
 21
0.1690385862
  0
LWPOLYLINE
  5
34D
100
AcDbEntity
  8
RACCORDO
100
AcDbPolyline
 62
250
  6
CONTINUOUS
 90
37
 70
0
 10
-16.4565342132
 20
26.2252310173
 10
-16.456055659
 20
26.2688542754
 10
-16.4546257285
 20
26.3124565522
 10
-16.4522451141
 20
26.3560171026
 10
-16.4489149682
 20
26.3995151232
 10
-16.4446368825
 20
26.4429299979
 10
-16.4394128705
 20
26.4862413061
 10
-16.4332453942
 20
26.5294285654
 10
-16.4261373983
 20
26.5724711017
 10
-16.418092286
 20
26.6153482947
 10
-16.4091139044
 20
26.6580396803
 10
-16.3992065192
 20
26.7005250126
 10
-16.388374833
 20
26.7427841319
 10
-16.3766240002
 20
26.7847969329
 10
-16.3639596136
 20
26.8265434261
 10
-16.3503876817
 20
26.8680037989
 10
-16.335914649
 20
26.9091583532
 10
-16.3205474088
 20
26.9499874779
 10
-16.3042932854
 20
26.9904717088
 10
-16.2871600122
 20
27.0305917838
 10
-16.2691557413
 20
27.0703286141
 10
-16.2502890568
 20
27.1096632578
 10
-16.2305689514
 20
27.1485769733
 10
-16.210004797
 20
27.187051275
 10
-16.1886063543
 20
27.2250679049
 10
-16.1663838033
 20
27.2626087738
 10
-16.1433477158
 20
27.2996560201
 10
-16.119509022
 20
27.3361920632
 10
-16.0948790217
 20
27.3721995706
 10
-16.0694694648
 20
27.4076613518
 10
-16.0432925255
 20
27.44256042
 10
-16.0163607405
 20
27.4768800738
 10
-15.9886868518
 20
27.5106040893
 10
-15.9602838751
 20
27.5437166038
 10
-15.9311652622
 20
27.5762019142
 10
-15.9013449086
 20
27.6080444952
 10
-15.8708369937
 20
27.6392291881
  0
LINE
  5
34E
100
AcDbEntity
  8
RACCORDO
100
AcDbLine
 62
7
  6
CONTINUOUS
 10
-16.7698398475
 20
14.4993306678
 11
-16.7689017992
 21
14.5950293431
  0
LINE
  5
34F
100
AcDbEntity
  8
RACCORDO
100
AcDbLine
 62
7
  6
CONTINUOUS
 10
-16.7698398475
 20
3.6993306678
 11
-16.7689017992
 21
3.7950293431
  0
LINE
  5
350
100
AcDbEntity
  8
RACCORDO
100
AcDbLine
 62
7
  6
CONTINUOUS
 10
-16.8567382223
 20
10.9457996773
 11
-16.8556782762
 21
11.0401557667
  0
LINE
  5
351
100
AcDbEntity
  8
RACCORDO
100
AcDbLine
 62
7
  6
CONTINUOUS
 10
-16.8567382223
 20
7.3457996773
 11
-16.8556782762
 21
7.4401557667
  0
LINE
  5
352
100
AcDbEntity
  8
RACCORDO
100
AcDbLine
 62
7
  6
CONTINUOUS
 10
-16.6820679947
 20
18.1500636434
 11
-16.6809690228
 21
18.2412966497
  0
LINE
  5
353
100
AcDbEntity
  8
RACCORDO
100
AcDbLine
 62
7
  6
CONTINUOUS
 10
-16.7689017992
 20
14.5950293431
 11
-16.7677198702
 21
14.6819400495
  0
LINE
  5
354
100
AcDbEntity
  8
RACCORDO
100
AcDbLine
 62
7
  6
CONTINUOUS
 10
-16.7689017992
 20
3.7950293431
 11
-16.7677198702
 21
3.8819400495
  0
LINE
  5
355
100
AcDbEntity
  8
RACCORDO
100
AcDbLine
 62
7
  6
CONTINUOUS
 10
-16.8556782762
 20
11.0401557667
 11
-16.8543793431
 21
11.1246781295
  0
LINE
  5
356
100
AcDbEntity
  8
RACCORDO
100
AcDbLine
 62
7
  6
CONTINUOUS
 10
-16.8556782762
 20
7.4401557667
 11
-16.8543793431
 21
7.5246781295
  0
LINE
  5
357
100
AcDbEntity
  8
RACCORDO
100
AcDbLine
 62
7
  6
CONTINUOUS
 10
-16.6809690228
 20
18.2412966497
 11
-16.6796324778
 21
18.3221024342
  0
LINE
  5
358
100
AcDbEntity
  8
RACCORDO
100
AcDbLine
 62
7
  6
CONTINUOUS
 10
-16.7677198702
 20
14.6819400495
 11
-16.7666152661
 21
14.743789835
  0
LINE
  5
359
100
AcDbEntity
  8
RACCORDO
100
AcDbLine
 62
7
  6
CONTINUOUS
 10
-16.7677198702
 20
3.8819400495
 11
-16.7666152661
 21
3.943789835
  0
LINE
  5
35A
100
AcDbEntity
  8
RACCORDO
100
AcDbLine
 62
7
  6
CONTINUOUS
 10
-16.8543793431
 20
11.1246781295
 11
-16.8531857539
 21
11.183937808
  0
LINE
  5
35B
100
AcDbEntity
  8
RACCORDO
100
AcDbLine
 62
7
  6
CONTINUOUS
 10
-16.8543793431
 20
7.5246781295
 11
-16.8531857539
 21
7.583937808
  0
LWPOLYLINE
  5
35C
100
AcDbEntity
  8
RACCORDO
100
AcDbPolyline
 62
7
  6
CONTINUOUS
 90
34
 70
0
 10
-16.5328559887
 20
33.042256495
 10
-16.5325728385
 20
33.0541517803
 10
-16.531724023
 20
33.0660201198
 10
-16.5303114629
 20
33.0778346304
 10
-16.5283383564
 20
33.0895685517
 10
-16.5258091704
 20
33.1011953031
 10
-16.5227296304
 20
33.1126885433
 10
-16.5191067101
 20
33.124022238
 10
-16.5149486145
 20
33.1351707135
 10
-16.5102647609
 20
33.1461087106
 10
-16.5050657575
 20
33.1568114518
 10
-16.4993633804
 20
33.1672546925
 10
-16.4931705468
 20
33.1774147702
 10
-16.4865012842
 20
33.1872686694
 10
-16.4793706994
 20
33.1967940681
 10
-16.4717949476
 20
33.2059693833
 10
-16.4637911892
 20
33.2147738303
 10
-16.4553775548
 20
33.2231874647
 10
-16.4465731078
 20
33.2311912231
 10
-16.4373977926
 20
33.238766975
 10
-16.4278723938
 20
33.2458975597
 10
-16.4180184946
 20
33.2525668224
 10
-16.407858417
 20
33.2587596559
 10
-16.3974151763
 20
33.2644620331
 10
-16.386712435
 20
33.2696610364
 10
-16.375774438
 20
33.27434489
 10
-16.3646259625
 20
33.2785029856
 10
-16.3532922677
 20
33.282125906
 10
-16.3417990275
 20
33.285205446
 10
-16.3301722762
 20
33.287734632
 10
-16.3184383549
 20
33.2897077384
 10
-16.3066238443
 20
33.2911202985
 10
-16.2947555047
 20
33.291969114
 10
-16.2828602195
 20
33.2922522643
  0
LINE
  5
35D
100
AcDbEntity
  8
RACCORDO
100
AcDbLine
 62
7
  6
CONTINUOUS
 10
-16.6796324778
 20
18.3221024342
 11
-16.6784129213
 21
18.3778535505
  0
LINE
  5
35E
100
AcDbEntity
  8
RACCORDO
100
AcDbLine
 62
7
  6
CONTINUOUS
 10
-16.7666152661
 20
14.743789835
 11
-16.7653861457
 21
14.7977789361
  0
LINE
  5
35F
100
AcDbEntity
  8
RACCORDO
100
AcDbLine
 62
7
  6
CONTINUOUS
 10
-16.7666152661
 20
3.943789835
 11
-16.7653861457
 21
3.9977789361
  0
LWPOLYLINE
  5
360
100
AcDbEntity
  8
RACCORDO
100
AcDbPolyline
 62
250
  6
CONTINUOUS
 90
31
 70
0
 10
-16.5284841547
 20
33.037884661
 10
-16.5281427475
 20
33.050937001
 10
-16.5271194849
 20
33.0639618954
 10
-16.5254158807
 20
33.07692367
 10
-16.5230347505
 20
33.0897893887
 10
-16.5199816371
 20
33.1025208539
 10
-16.5162661974
 20
33.1150750385
 10
-16.5118996463
 20
33.1274148424
 10
-16.5068932164
 20
33.1395091985
 10
-16.5012604678
 20
33.1513252768
 10
-16.4950166662
 20
33.1628308772
 10
-16.4881789843
 20
33.1739941956
 10
-16.4807663543
 20
33.1847842748
 10
-16.4727992121
 20
33.1951714007
 10
-16.4642993151
 20
33.2051272378
 10
-16.4552898933
 20
33.2146245723
 10
-16.4457956001
 20
33.2236373914
 10
-16.4358424967
 20
33.2321409329
 10
-16.4254579075
 20
33.2401118411
 10
-16.4146703171
 20
33.2475282479
 10
-16.4035092912
 20
33.2543698237
 10
-16.3920054354
 20
33.2606178029
 10
-16.3801902897
 20
33.2662550512
 10
-16.3680962525
 20
33.2712661067
 10
-16.3557564964
 20
33.2756372217
 10
-16.343204849
 20
33.2793564112
 10
-16.330475735
 20
33.2824134724
 10
-16.3176040954
 20
33.2848000151
 10
-16.304625238
 20
33.2865094983
 10
-16.2915747396
 20
33.2875372413
 10
-16.2784883855
 20
33.2878804302
  0
LINE
  5
361
100
AcDbEntity
  8
RACCORDO
100
AcDbLine
 62
7
  6
CONTINUOUS
 10
-16.8531857539
 20
11.183937808
 11
-16.8522113718
 21
11.2228878745
  0
LINE
  5
362
100
AcDbEntity
  8
RACCORDO
100
AcDbLine
 62
7
  6
CONTINUOUS
 10
-16.8531857539
 20
7.583937808
 11
-16.8522113718
 21
7.6228878745
  0
LINE
  5
363
100
AcDbEntity
  8
RACCORDO
100
AcDbLine
 62
7
  6
CONTINUOUS
 10
-16.6784129213
 20
18.3778535505
 11
-16.6774215783
 21
18.4139142156
  0
LINE
  5
364
100
AcDbEntity
  8
RACCORDO
100
AcDbLine
 62
7
  6
CONTINUOUS
 10
-16.7653861457
 20
14.7977789361
 11
-16.7643921046
 21
14.8326499791
  0
LINE
  5
365
100
AcDbEntity
  8
RACCORDO
100
AcDbLine
 62
7
  6
CONTINUOUS
 10
-16.7653861457
 20
3.9977789361
 11
-16.7643921046
 21
4.0326499791
  0
LINE
  5
366
100
AcDbEntity
  8
RACCORDO
100
AcDbLine
 62
7
  6
CONTINUOUS
 10
-16.8522113718
 20
11.2228878745
 11
-16.8511779706
 21
11.2567465266
  0
LINE
  5
367
100
AcDbEntity
  8
RACCORDO
100
AcDbLine
 62
7
  6
CONTINUOUS
 10
-16.8522113718
 20
7.6228878745
 11
-16.8511779706
 21
7.6567465266
  0
LINE
  5
368
100
AcDbEntity
  8
RACCORDO
100
AcDbLine
 62
7
  6
CONTINUOUS
 10
-16.6774215783
 20
18.4139142156
 11
-16.6767292642
 21
18.4350059809
  0
LINE
  5
369
100
AcDbEntity
  8
RACCORDO
100
AcDbLine
 62
7
  6
CONTINUOUS
 10
-16.7643921046
 20
14.8326499791
 11
-16.7636998646
 21
14.853028932
  0
LINE
  5
36A
100
AcDbEntity
  8
RACCORDO
100
AcDbLine
 62
7
  6
CONTINUOUS
 10
-16.7643921046
 20
4.0326499791
 11
-16.7636998646
 21
4.053028932
  0
LINE
  5
36B
100
AcDbEntity
  8
RACCORDO
100
AcDbLine
 62
7
  6
CONTINUOUS
 10
-16.8511779706
 20
11.2567465266
 11
-16.8504603661
 21
11.2763395043
  0
LINE
  5
36C
100
AcDbEntity
  8
RACCORDO
100
AcDbLine
 62
7
  6
CONTINUOUS
 10
-16.8511779706
 20
7.6567465266
 11
-16.8504603661
 21
7.6763395043
  0
LINE
  5
36D
100
AcDbEntity
  8
RACCORDO
100
AcDbLine
 62
7
  6
CONTINUOUS
 10
-16.6767292642
 20
18.4350059809
 11
-16.6760140955
 21
18.4536555769
  0
LINE
  5
36E
100
AcDbEntity
  8
RACCORDO
100
AcDbLine
 62
7
  6
CONTINUOUS
 10
-16.7636998646
 20
14.853028932
 11
-16.7629862914
 21
14.8710333307
  0
LWPOLYLINE
  5
36F
100
AcDbEntity
  8
RACCORDO
100
AcDbPolyline
 62
7
  6
CONTINUOUS
 90
14
 70
0
 10
-16.8504603661
 20
11.2763395043
 10
-16.8497221762
 20
11.2934787283
 10
-16.8493466706
 20
11.3010922656
 10
-16.8489668669
 20
11.308070472
 10
-16.8485837559
 20
11.3143935713
 10
-16.8481972998
 20
11.3200601898
 10
-16.8478075363
 20
11.3250717014
 10
-16.8474155698
 20
11.3294124505
 10
-16.8470213973
 20
11.3330802939
 10
-16.8466250219
 20
11.3360773749
 10
-16.8462275565
 20
11.3383944683
 10
-16.8458293722
 20
11.3400284989
 10
-16.845430098
 20
11.3409825418
 10
-16.8450297339
 20
11.341256597
  0
LWPOLYLINE
  5
370
100
AcDbEntity
  8
RACCORDO
100
AcDbPolyline
 62
7
  6
CONTINUOUS
 90
14
 70
0
 10
-16.8504603661
 20
7.6763395043
 10
-16.8497221762
 20
7.6934787283
 10
-16.8493466706
 20
7.7010922656
 10
-16.8489668669
 20
7.708070472
 10
-16.8485837559
 20
7.7143935713
 10
-16.8481972998
 20
7.7200601898
 10
-16.8478075363
 20
7.7250717014
 10
-16.8474155698
 20
7.7294124505
 10
-16.8470213973
 20
7.7330802939
 10
-16.8466250219
 20
7.7360773749
 10
-16.8462275565
 20
7.7383944683
 10
-16.8458293722
 20
7.7400284989
 10
-16.845430098
 20
7.7409825418
 10
-16.8450297339
 20
7.741256597
  0
LWPOLYLINE
  5
371
100
AcDbEntity
  8
RACCORDO
100
AcDbPolyline
 62
7
  6
CONTINUOUS
 90
13
 70
0
 10
-16.6760140955
 20
18.4536555769
 10
-16.6752799584
 20
18.4697597897
 10
-16.6749062315
 20
18.4768447817
 10
-16.6745290197
 20
18.4832661484
 10
-16.6741482469
 20
18.4890230061
 10
-16.6737639894
 20
18.4941162384
 10
-16.6733774527
 20
18.4985282765
 10
-16.672988664
 20
18.5022564414
 10
-16.6725975961
 20
18.5053034121
 10
-16.6722053738
 20
18.5076596563
 10
-16.6718123719
 20
18.5093219967
 10
-16.6714182154
 20
18.5102936106
 10
-16.6710229045
 20
18.5105744981
  0
LWPOLYLINE
  5
372
100
AcDbEntity
  8
RACCORDO
100
AcDbPolyline
 62
7
  6
CONTINUOUS
 90
13
 70
0
 10
-16.7629862914
 20
14.8710333307
 10
-16.7622548367
 20
14.8865738589
 10
-16.7618828121
 20
14.8934091382
 10
-16.761507548
 20
14.8996027283
 10
-16.7611290072
 20
14.9051532836
 10
-16.7607472269
 20
14.9100621497
 10
-16.7603632886
 20
14.914313992
 10
-16.7599771895
 20
14.9179067109
 10
-16.7595889326
 20
14.9208424059
 10
-16.759199608
 20
14.9231120408
 10
-16.7588095793
 20
14.9247126032
 10
-16.7584184831
 20
14.9256471055
 10
-16.7580263192
 20
14.9259155475
  0
LWPOLYLINE
  5
373
100
AcDbEntity
  8
RACCORDO
100
AcDbPolyline
 62
7
  6
CONTINUOUS
 90
10
 70
0
 10
-15.5809140844
 20
14.7183589012
 10
-15.5810681354
 20
14.7180958405
 10
-15.5812216669
 20
14.7172624057
 10
-15.5813746788
 20
14.7158585967
 10
-15.5815273348
 20
14.7138814079
 10
-15.5816794712
 20
14.711333845
 10
-15.5818305968
 20
14.7082249251
 10
-15.5819807256
 20
14.7045520726
 10
-15.5821298437
 20
14.7003178632
 10
-15.582423413
 20
14.6902148867
  0
LWPOLYLINE
  5
374
100
AcDbEntity
  8
0
100
AcDbPolyline
 62
7
  6
CONTINUOUS
 90
14
 70
0
 10
-4.5413940678
 20
28.0893374733
 10
-4.5404259964
 20
28.0905131942
 10
-4.5380258237
 20
28.0916873438
 10
-4.5341935499
 20
28.0928599222
 10
-4.5289262423
 20
28.0940314943
 10
-4.5222268336
 20
28.0952014951
 10
-4.5141041211
 20
28.0963682303
 10
-4.5045564042
 20
28.0975316483
 10
-4.4935853835
 20
28.0986918006
 10
-4.4812049588
 20
28.0998471485
 10
-4.4674122396
 20
28.1009977395
 10
-4.4522101165
 20
28.102143526
 10
-4.4356211612
 20
28.103282826
 10
-4.41764468
 20
28.1044155603
  0
LINE
  5
375
100
AcDbEntity
  8
0
100
AcDbLine
 62
7
  6
CONTINUOUS
 10
-4.1327512771
 20
27.3817506932
 11
-4.1327893514
 21
27.3817066321
  0
LWPOLYLINE
  5
376
100
AcDbEntity
  8
ASSI
100
AcDbPolyline
 62
7
  6
CONTINUOUS
 90
3
 70
0
 10
-1.621618277
 20
32.4147218707
 10
-1.6481814542
 20
32.3843509499
 10
-1.6629009372
 20
32.3677156141
  0
LINE
  5
377
100
AcDbEntity
  8
DRAFT
100
AcDbLine
 62
7
  6
CONTINUOUS
 10
-4.185321911
 20
26.8291619626
 11
-4.1327512771
 21
26.8817325964
  0
LINE
  5
378
100
AcDbEntity
  8
RACCORDO
100
AcDbLine
 62
7
  6
CONTINUOUS
 10
-4.1848389655
 20
27.3296638836
 11
-4.1327893514
 21
27.3817066321
  0
LINE
  5
379
100
AcDbEntity
  8
RACCORDO
100
AcDbLine
 62
250
  6
CONTINUOUS
 10
5.2671440113
 20
26.463951313
 11
4.6908222358
 21
26.2252310173
  0
LWPOLYLINE
  5
37A
100
AcDbEntity
  8
0
100
AcDbPolyline
 62
7
  6
CONTINUOUS
 90
3
 70
0
 10
-13.8548808651
 20
-4.7628756241
 10
-13.8507981895
 20
-4.7617433792
 10
-13.8328559887
 20
-4.7562025156
  0
LWPOLYLINE
  5
37B
100
AcDbEntity
  8
RACCORDO
100
AcDbPolyline
 62
7
  6
CONTINUOUS
 90
10
 70
0
 10
-12.0743669904
 20
-2.6827477357
 10
-12.1301505052
 20
-2.6832883734
 10
-12.1846933213
 20
-2.6850009424
 10
-12.2379954389
 20
-2.6878854428
 10
-12.2900822932
 20
-2.6919316267
 10
-12.3409284488
 20
-2.6971497421
 10
-12.3904576001
 20
-2.7035705324
 10
-12.4386443119
 20
-2.7112042455
 10
-12.4855140193
 20
-2.7200406335
 10
-12.5310667225
 20
-2.7300796965
  0
LINE
  5
37C
100
AcDbEntity
  8
RACCORDO
100
AcDbLine
 62
250
  6
CONTINUOUS
 10
-14.0328559887
 20
-2.7300796965
 11
-12.5310667225
 21
-2.7300796965
  0
LINE
  5
37D
100
AcDbEntity
  8
RACCORDO
100
AcDbLine
 62
250
  6
CONTINUOUS
 10
-6.7328559887
 20
-2.7300796965
 11
-8.2346452549
 21
-2.7300796965
  0
LINE
  5
37E
100
AcDbEntity
  8
RACCORDO
100
AcDbLine
 62
7
  6
CONTINUOUS
 10
-14.0328559887
 20
-2.6827477357
 11
-12.2143102201
 21
-2.6827477357
  0
LINE
  5
37F
100
AcDbEntity
  8
RACCORDO
100
AcDbLine
 62
7
  6
CONTINUOUS
 10
-6.7328559887
 20
-2.6827477357
 11
-9.5173043235
 21
-2.6827477357
  0
LINE
  5
380
100
AcDbEntity
  8
RACCORDO
100
AcDbLine
 62
7
  6
CONTINUOUS
 10
-11.2484076539
 20
-2.6827477357
 11
-12.0743669904
 21
-2.6827477357
  0
LWPOLYLINE
  5
381
100
AcDbEntity
  8
RACCORDO
100
AcDbPolyline
 62
7
  6
CONTINUOUS
 90
10
 70
0
 10
-8.2346452549
 20
-2.7300796965
 10
-8.2801979581
 20
-2.7200406335
 10
-8.3270676655
 20
-2.7112042455
 10
-8.3752543773
 20
-2.7035705324
 10
-8.4247835286
 20
-2.6971497421
 10
-8.4756296843
 20
-2.6919316267
 10
-8.5277165385
 20
-2.6878854428
 10
-8.5810186561
 20
-2.6850009424
 10
-8.6355614722
 20
-2.6832883734
 10
-8.691344987
 20
-2.6827477357
  0
LWPOLYLINE
  5
382
100
AcDbEntity
  8
RACCORDO
100
AcDbPolyline
 62
7
  6
CONTINUOUS
 90
10
 70
0
 10
-8.2346452549
 20
-2.7300796965
 10
-8.0993566678
 20
-2.7630345247
 10
-7.9620688367
 20
-2.7979136678
 10
-7.8227817617
 20
-2.8347171258
 10
-7.6819480057
 20
-2.8733185748
 10
-7.5391150058
 20
-2.9138443388
 10
-7.3929250731
 20
-2.9566733894
 10
-7.2429256445
 20
-3.0019320507
 10
-7.089569283
 20
-3.0494939985
 10
-6.9328559887
 20
-3.099359233
  0
LINE
  5
383
100
AcDbEntity
  8
RACCORDO
100
AcDbLine
 62
250
  6
CONTINUOUS
 10
4.6908222358
 20
-8.6407264888
 11
5.2671440113
 21
-8.8794467845
  0
LWPOLYLINE
  5
384
100
AcDbEntity
  8
RACCORDO
100
AcDbPolyline
 62
7
  6
CONTINUOUS
 90
12
 70
0
 10
-16.7580263192
 20
2.658588981
 10
-16.7584184831
 20
2.658857423
 10
-16.7588095793
 20
2.6597919253
 10
-16.759199608
 20
2.6613924877
 10
-16.7595889326
 20
2.6636621226
 10
-16.7599771895
 20
2.6665978176
 10
-16.7603632886
 20
2.6701905365
 10
-16.7607472269
 20
2.6744423788
 10
-16.7611290072
 20
2.6793512449
 10
-16.761507548
 20
2.6849018002
 10
-16.7618828121
 20
2.6910953903
 10
-16.7622548367
 20
2.6979306696
  0
LWPOLYLINE
  5
385
100
AcDbEntity
  8
ASSI
100
AcDbPolyline
 62
7
  6
CONTINUOUS
 90
19
 70
0
 10
-1.6630991475
 20
-14.7829883764
 10
-1.6346488526
 20
-14.8152545155
 10
-1.6218439172
 20
-14.8299572826
 10
-1.6099294993
 20
-14.8437860203
 10
-1.5988992806
 20
-14.8567394347
 10
-1.5887415222
 20
-14.8688188196
 10
-1.579408775
 20
-14.8801001346
 10
-1.5708974825
 20
-14.8905830814
 10
-1.5631924801
 20
-14.9002679583
 10
-1.5562450936
 20
-14.9092316193
 10
-1.5500398436
 20
-14.9174937287
 10
-1.5445891544
 20
-14.9250346223
 10
-1.539892773
 20
-14.9318721619
 10
-1.535940654
 20
-14.9379990246
 10
-1.5327223511
 20
-14.9434225332
 10
-1.5302289397
 20
-14.9481825181
 10
-1.52844425
 20
-14.952292256
 10
-1.5273487041
 20
-14.9557384701
 10
-1.526923256
 20
-14.9585211605
  0
LINE
  5
386
100
AcDbEntity
  8
0
100
AcDbLine
 62
250
  6
CONTINUOUS
 10
-7.2243178962
 20
-10.5048328811
 11
-7.6329226261
 21
-9.7972021036
  0
LINE
  5
387
100
AcDbEntity
  8
RACCORDO
100
AcDbLine
 62
7
  6
CONTINUOUS
 10
-13.5599549586
 20
-10.4169557784
 11
-13.5413940813
 21
-10.5048328811
  0
LINE
  5
388
100
AcDbEntity
  8
RACCORDO
100
AcDbLine
 62
7
  6
CONTINUOUS
 10
-16.7622548367
 20
13.4979306696
 11
-16.7629862914
 21
13.5134711978
  0
LINE
  5
389
100
AcDbEntity
  8
RACCORDO
100
AcDbLine
 62
7
  6
CONTINUOUS
 10
-16.6752799584
 20
17.1147447388
 11
-16.6760140955
 21
17.1308489516
  0
LWPOLYLINE
  5
38A
100
AcDbEntity
  8
RACCORDO
100
AcDbPolyline
 62
7
  6
CONTINUOUS
 90
8
 70
0
 10
-15.5383988854
 20
-0.7125672354
 10
-15.5382509487
 20
-0.716186459
 10
-15.5381020296
 20
-0.7192499842
 10
-15.5379521147
 20
-0.7217603491
 10
-15.5378016877
 20
-0.7237086681
 10
-15.53765091
 20
-0.7250919795
 10
-15.5374996203
 20
-0.725913245
 10
-15.5373478186
 20
-0.7261724646
  0
LWPOLYLINE
  5
38B
100
AcDbEntity
  8
RACCORDO
100
AcDbPolyline
 62
7
  6
CONTINUOUS
 90
8
 70
0
 10
-15.5819807256
 20
2.8799524559
 10
-15.5818305968
 20
2.8762796034
 10
-15.5816794712
 20
2.8731706835
 10
-15.5815273348
 20
2.8706231206
 10
-15.5813746788
 20
2.8686459318
 10
-15.5812216669
 20
2.8672421228
 10
-15.5810681354
 20
2.866408688
 10
-15.5809140844
 20
2.8661456273
  0
LWPOLYLINE
  5
38C
100
AcDbEntity
  8
RACCORDO
100
AcDbPolyline
 62
7
  6
CONTINUOUS
 90
8
 70
0
 10
-15.6255625659
 20
6.4724721472
 10
-15.625410245
 20
6.4687456658
 10
-15.6252569127
 20
6.4655913513
 10
-15.6251025549
 20
6.4630065903
 10
-15.6249476699
 20
6.4610005317
 10
-15.6247924238
 20
6.4595762251
 10
-15.6246366506
 20
6.4587306209
 10
-15.6244803501
 20
6.4584637192
  0
LWPOLYLINE
  5
38D
100
AcDbEntity
  8
RACCORDO
100
AcDbPolyline
 62
7
  6
CONTINUOUS
 90
8
 70
0
 10
-15.6255625659
 20
10.0724721472
 10
-15.625410245
 20
10.0687456658
 10
-15.6252569127
 20
10.0655913513
 10
-15.6251025549
 20
10.0630065903
 10
-15.6249476699
 20
10.0610005317
 10
-15.6247924238
 20
10.0595762251
 10
-15.6246366506
 20
10.0587306209
 10
-15.6244803501
 20
10.0584637192
  0
LWPOLYLINE
  5
38E
100
AcDbEntity
  8
RACCORDO
100
AcDbPolyline
 62
7
  6
CONTINUOUS
 90
8
 70
0
 10
-15.5819807256
 20
13.6799524559
 10
-15.5818305968
 20
13.6762796034
 10
-15.5816794712
 20
13.6731706835
 10
-15.5815273348
 20
13.6706231206
 10
-15.5813746788
 20
13.6686459318
 10
-15.5812216669
 20
13.6672421228
 10
-15.5810681354
 20
13.666408688
 10
-15.5809140844
 20
13.6661456273
  0
LWPOLYLINE
  5
38F
100
AcDbEntity
  8
RACCORDO
100
AcDbPolyline
 62
7
  6
CONTINUOUS
 90
8
 70
0
 10
-15.5383988854
 20
17.2874327646
 10
-15.5382509487
 20
17.283813541
 10
-15.5381020296
 20
17.2807500158
 10
-15.5379521147
 20
17.2782396509
 10
-15.5378016877
 20
17.2762913319
 10
-15.53765091
 20
17.2749080205
 10
-15.5374996203
 20
17.274086755
 10
-15.5373478186
 20
17.2738275354
  0
LINE
  5
390
100
AcDbEntity
  8
RACCORDO
100
AcDbLine
 62
7
  6
CONTINUOUS
 10
-16.7629862914
 20
13.5134711978
 11
-16.7636998646
 21
13.5314755965
  0
LINE
  5
391
100
AcDbEntity
  8
RACCORDO
100
AcDbLine
 62
7
  6
CONTINUOUS
 10
-16.6760140955
 20
17.1308489516
 11
-16.6767292642
 21
17.1494985476
  0
LWPOLYLINE
  5
392
100
AcDbEntity
  8
RACCORDO
100
AcDbPolyline
 62
250
  6
CONTINUOUS
 90
31
 70
0
 10
-14.1372278227
 20
-15.052085303
 10
-14.1376071772
 20
-15.0407747953
 10
-14.138668225
 20
-15.0294951762
 10
-14.1404080683
 20
-15.0182772499
 10
-14.1428219535
 20
-15.007151661
 10
-14.1459032896
 20
-14.9961487841
 10
-14.1496436713
 20
-14.9852986414
 10
-14.1540328977
 20
-14.9746308453
 10
-14.1590589798
 20
-14.9641745518
 10
-14.1647081762
 20
-14.9539583525
 10
-14.170965048
 20
-14.944010161
 10
-14.1778125136
 20
-14.9343571304
 10
-14.1852318777
 20
-14.9250256142
 10
-14.1932028813
 20
-14.9160410932
 10
-14.2017037528
 20
-14.9074281078
 10
-14.2107112731
 20
-14.8992101826
 10
-14.2202008369
 20
-14.8914097643
 10
-14.2301465325
 20
-14.8840481507
 10
-14.2405212121
 20
-14.8771454368
 10
-14.2512965645
 20
-14.8707204633
 10
-14.2624431441
 20
-14.8647907917
 10
-14.2739304583
 20
-14.8593726404
 10
-14.2857271003
 20
-14.8544808132
 10
-14.2978008812
 20
-14.8501286486
 10
-14.3101188698
 20
-14.8463280137
 10
-14.322647902
 20
-14.8430891765
 10
-14.3353532999
 20
-14.8404211364
 10
-14.3481989513
 20
-14.8383313772
 10
-14.361149266
 20
-14.8368254586
 10
-14.3741693299
 20
-14.8359072126
 10
-14.3872235919
 20
-14.8355789521
  0
LINE
  5
393
100
AcDbEntity
  8
RACCORDO
100
AcDbLine
 62
7
  6
CONTINUOUS
 10
-16.6767292642
 20
17.1494985476
 11
-16.6774215783
 21
17.1705903129
  0
LINE
  5
394
100
AcDbEntity
  8
RACCORDO
100
AcDbLine
 62
7
  6
CONTINUOUS
 10
-15.5386912461
 20
-0.7036858068
 11
-15.5383988854
 21
-0.7125672354
  0
LINE
  5
395
100
AcDbEntity
  8
RACCORDO
100
AcDbLine
 62
7
  6
CONTINUOUS
 10
-15.5822774185
 20
2.8889654877
 11
-15.5819807256
 21
2.8799524559
  0
LINE
  5
396
100
AcDbEntity
  8
RACCORDO
100
AcDbLine
 62
7
  6
CONTINUOUS
 10
-15.6258635909
 20
6.4816167821
 11
-15.6255625659
 21
6.4724721472
  0
LINE
  5
397
100
AcDbEntity
  8
RACCORDO
100
AcDbLine
 62
7
  6
CONTINUOUS
 10
-15.6258635909
 20
10.0816167821
 11
-15.6255625659
 21
10.0724721472
  0
LINE
  5
398
100
AcDbEntity
  8
RACCORDO
100
AcDbLine
 62
7
  6
CONTINUOUS
 10
-15.5822774185
 20
13.6889654877
 11
-15.5819807256
 21
13.6799524559
  0
LINE
  5
399
100
AcDbEntity
  8
RACCORDO
100
AcDbLine
 62
7
  6
CONTINUOUS
 10
-15.5386912461
 20
17.2963141932
 11
-15.5383988854
 21
17.2874327646
  0
LINE
  5
39A
100
AcDbEntity
  8
RACCORDO
100
AcDbLine
 62
7
  6
CONTINUOUS
 10
-16.6774215783
 20
17.1705903129
 11
-16.6784129213
 21
17.206650978
  0
LINE
  5
39B
100
AcDbEntity
  8
RACCORDO
100
AcDbLine
 62
7
  6
CONTINUOUS
 10
-15.5389774508
 20
-0.6926563182
 11
-15.5386912461
 21
-0.7036858068
  0
LINE
  5
39C
100
AcDbEntity
  8
RACCORDO
100
AcDbLine
 62
7
  6
CONTINUOUS
 10
-15.5825678642
 20
2.9001584089
 11
-15.5822774185
 21
2.8889654877
  0
LINE
  5
39D
100
AcDbEntity
  8
RACCORDO
100
AcDbLine
 62
7
  6
CONTINUOUS
 10
-15.6261582775
 20
6.492973136
 11
-15.6258635909
 21
6.4816167821
  0
LINE
  5
39E
100
AcDbEntity
  8
RACCORDO
100
AcDbLine
 62
7
  6
CONTINUOUS
 10
-15.6261582775
 20
10.092973136
 11
-15.6258635909
 21
10.0816167821
  0
LINE
  5
39F
100
AcDbEntity
  8
RACCORDO
100
AcDbLine
 62
7
  6
CONTINUOUS
 10
-15.5825678642
 20
13.7001584089
 11
-15.5822774185
 21
13.6889654877
  0
LINE
  5
3A0
100
AcDbEntity
  8
RACCORDO
100
AcDbLine
 62
7
  6
CONTINUOUS
 10
-15.5389774508
 20
17.3073436818
 11
-15.5386912461
 21
17.2963141932
  0
LINE
  5
3A1
100
AcDbEntity
  8
RACCORDO
100
AcDbLine
 62
7
  6
CONTINUOUS
 10
-16.6784129213
 20
17.206650978
 11
-16.6796324778
 21
17.2624020943
  0
LINE
  5
3A2
100
AcDbEntity
  8
RACCORDO
100
AcDbLine
 62
7
  6
CONTINUOUS
 10
-15.539392921
 20
-0.672191379
 11
-15.5389774508
 21
-0.6926563182
  0
LINE
  5
3A3
100
AcDbEntity
  8
RACCORDO
100
AcDbLine
 62
7
  6
CONTINUOUS
 10
-15.5829894907
 20
2.9209265932
 11
-15.5825678642
 21
2.9001584089
  0
LINE
  5
3A4
100
AcDbEntity
  8
RACCORDO
100
AcDbLine
 62
7
  6
CONTINUOUS
 10
-15.6265860603
 20
6.5140445654
 11
-15.6261582775
 21
6.492973136
  0
LINE
  5
3A5
100
AcDbEntity
  8
RACCORDO
100
AcDbLine
 62
7
  6
CONTINUOUS
 10
-15.6265860603
 20
10.1140445654
 11
-15.6261582775
 21
10.092973136
  0
LINE
  5
3A6
100
AcDbEntity
  8
RACCORDO
100
AcDbLine
 62
7
  6
CONTINUOUS
 10
-15.5829894907
 20
13.7209265932
 11
-15.5825678642
 21
13.7001584089
  0
LINE
  5
3A7
100
AcDbEntity
  8
RACCORDO
100
AcDbLine
 62
7
  6
CONTINUOUS
 10
-15.539392921
 20
17.327808621
 11
-15.5389774508
 21
17.3073436818
  0
LINE
  5
3A8
100
AcDbEntity
  8
RACCORDO
100
AcDbLine
 62
7
  6
CONTINUOUS
 10
-16.6796324778
 20
17.2624020943
 11
-16.6809690228
 21
17.3432078788
  0
LINE
  5
3A9
100
AcDbEntity
  8
RACCORDO
100
AcDbLine
 62
7
  6
CONTINUOUS
 10
-15.5399142126
 20
-0.6379758597
 11
-15.539392921
 21
-0.672191379
  0
LINE
  5
3AA
100
AcDbEntity
  8
RACCORDO
100
AcDbLine
 62
7
  6
CONTINUOUS
 10
-15.5835185066
 20
2.9556491109
 11
-15.5829894907
 21
2.9209265932
  0
LINE
  5
3AB
100
AcDbEntity
  8
RACCORDO
100
AcDbLine
 62
7
  6
CONTINUOUS
 10
-15.6271228007
 20
6.5492740814
 11
-15.6265860603
 21
6.5140445654
  0
LINE
  5
3AC
100
AcDbEntity
  8
RACCORDO
100
AcDbLine
 62
7
  6
CONTINUOUS
 10
-15.6271228007
 20
10.1492740814
 11
-15.6265860603
 21
10.1140445654
  0
LINE
  5
3AD
100
AcDbEntity
  8
RACCORDO
100
AcDbLine
 62
7
  6
CONTINUOUS
 10
-15.5835185066
 20
13.7556491109
 11
-15.5829894907
 21
13.7209265932
  0
LINE
  5
3AE
100
AcDbEntity
  8
RACCORDO
100
AcDbLine
 62
7
  6
CONTINUOUS
 10
-15.5399142126
 20
17.3620241403
 11
-15.539392921
 21
17.327808621
  0
LINE
  5
3AF
100
AcDbEntity
  8
RACCORDO
100
AcDbLine
 62
7
  6
CONTINUOUS
 10
-16.6809690228
 20
17.3432078788
 11
-16.681868489
 21
17.4154659423
  0
LINE
  5
3B0
100
AcDbEntity
  8
RACCORDO
100
AcDbLine
 62
250
  6
CONTINUOUS
 10
-16.2784883855
 20
-14.8355789521
 11
-16.2835789866
 21
-14.3303974666
  0
LINE
  5
3B1
100
AcDbEntity
  8
RACCORDO
100
AcDbLine
 62
7
  6
CONTINUOUS
 10
-15.6279455781
 20
6.6286747559
 11
-15.6271228007
 21
6.5492740814
  0
LINE
  5
3B2
100
AcDbEntity
  8
RACCORDO
100
AcDbLine
 62
7
  6
CONTINUOUS
 10
-15.5843294432
 20
3.0339071068
 11
-15.5835185066
 21
2.9556491109
  0
LINE
  5
3B3
100
AcDbEntity
  8
RACCORDO
100
AcDbLine
 62
7
  6
CONTINUOUS
 10
-15.5407133083
 20
-0.5608605422
 11
-15.5399142126
 21
-0.6379758597
  0
LINE
  5
3B4
100
AcDbEntity
  8
RACCORDO
100
AcDbLine
 62
7
  6
CONTINUOUS
 10
-15.6279455781
 20
10.2286747559
 11
-15.6271228007
 21
10.1492740814
  0
LINE
  5
3B5
100
AcDbEntity
  8
RACCORDO
100
AcDbLine
 62
7
  6
CONTINUOUS
 10
-15.5843294432
 20
13.8339071068
 11
-15.5835185066
 21
13.7556491109
  0
LINE
  5
3B6
100
AcDbEntity
  8
RACCORDO
100
AcDbLine
 62
7
  6
CONTINUOUS
 10
-15.5407133083
 20
17.4391394578
 11
-15.5399142126
 21
17.3620241403
  0
LINE
  5
3B7
100
AcDbEntity
  8
RACCORDO
100
AcDbLine
 62
7
  6
CONTINUOUS
 10
-15.6288555483
 20
6.7892220261
 11
-15.6279455781
 21
6.6286747559
  0
LINE
  5
3B8
100
AcDbEntity
  8
RACCORDO
100
AcDbLine
 62
7
  6
CONTINUOUS
 10
-15.6288555483
 20
10.3892220261
 11
-15.6279455781
 21
10.2286747559
  0
LINE
  5
3B9
100
AcDbEntity
  8
RACCORDO
100
AcDbLine
 62
7
  6
CONTINUOUS
 10
-15.5852263177
 20
3.192143894
 11
-15.5843294432
 21
3.0339071068
  0
LINE
  5
3BA
100
AcDbEntity
  8
RACCORDO
100
AcDbLine
 62
7
  6
CONTINUOUS
 10
-15.5415970872
 20
-0.4049342381
 11
-15.5407133083
 21
-0.5608605422
  0
LINE
  5
3BB
100
AcDbEntity
  8
RACCORDO
100
AcDbLine
 62
7
  6
CONTINUOUS
 10
-15.5852263177
 20
13.992143894
 11
-15.5843294432
 21
13.8339071068
  0
LINE
  5
3BC
100
AcDbEntity
  8
RACCORDO
100
AcDbLine
 62
7
  6
CONTINUOUS
 10
-15.5415970872
 20
17.5950657619
 11
-15.5407133083
 21
17.4391394578
  0
LINE
  5
3BD
100
AcDbEntity
  8
RACCORDO
100
AcDbLine
 62
7
  6
CONTINUOUS
 10
-16.5328559887
 20
-15.4577519665
 11
-16.5328559887
 21
-13.6074377037
  0
LINE
  5
3BE
100
AcDbEntity
  8
RACCORDO
100
AcDbLine
 62
7
  6
CONTINUOUS
 10
-16.5328559887
 20
31.1919422322
 11
-16.5328559887
 21
33.042256495
  0
LINE
  5
3BF
100
AcDbEntity
  8
RACCORDO
100
AcDbLine
 62
250
  6
CONTINUOUS
 10
-16.5284841547
 20
33.037884661
 11
-16.5284841547
 21
32.6365898315
  0
LINE
  5
3C0
100
AcDbEntity
  8
RACCORDO
100
AcDbLine
 62
250
  6
CONTINUOUS
 10
-16.5284841547
 20
-15.052085303
 11
-16.5284841547
 21
-15.4533801325
  0
LINE
  5
3C1
100
AcDbEntity
  8
RACCORDO
100
AcDbLine
 62
250
  6
CONTINUOUS
 10
-16.4565342132
 20
-8.6407264888
 11
-16.4565342132
 21
-0.8882498263
  0
LINE
  5
3C2
100
AcDbEntity
  8
RACCORDO
100
AcDbLine
 62
250
  6
CONTINUOUS
 10
-16.4565342132
 20
0.4727543548
 11
-16.4565342132
 21
2.7117501737
  0
LINE
  5
3C3
100
AcDbEntity
  8
RACCORDO
100
AcDbLine
 62
250
  6
CONTINUOUS
 10
-16.4565342132
 20
4.0727543548
 11
-16.4565342132
 21
6.3117501737
  0
LINE
  5
3C4
100
AcDbEntity
  8
RACCORDO
100
AcDbLine
 62
250
  6
CONTINUOUS
 10
-16.4565342132
 20
7.6727543548
 11
-16.4565342132
 21
9.9117501737
  0
LINE
  5
3C5
100
AcDbEntity
  8
RACCORDO
100
AcDbLine
 62
250
  6
CONTINUOUS
 10
-16.4565342132
 20
11.2727543548
 11
-16.4565342132
 21
13.5117501737
  0
LINE
  5
3C6
100
AcDbEntity
  8
RACCORDO
100
AcDbLine
 62
250
  6
CONTINUOUS
 10
-16.4565342132
 20
14.8727543548
 11
-16.4565342132
 21
17.1117501737
  0
LINE
  5
3C7
100
AcDbEntity
  8
RACCORDO
100
AcDbLine
 62
250
  6
CONTINUOUS
 10
-16.4565342132
 20
18.4727543548
 11
-16.4565342132
 21
26.2252310173
  0
LINE
  5
3C8
100
AcDbEntity
  8
RACCORDO
100
AcDbLine
 62
250
  6
CONTINUOUS
 10
-16.2784883855
 20
-15.7033759017
 11
-16.2784883855
 21
-14.8355789521
  0
LINE
  5
3C9
100
AcDbEntity
  8
RACCORDO
100
AcDbLine
 62
250
  6
CONTINUOUS
 10
-16.2784883855
 20
32.4922522643
 11
-16.2784883855
 21
33.2878804302
  0
LINE
  5
3CA
100
AcDbEntity
  8
0
100
AcDbLine
 62
7
  6
CONTINUOUS
 10
-15.5328559887
 20
-11.3567187895
 11
-15.5328559887
 21
-11.2077477357
  0
LINE
  5
3CB
100
AcDbEntity
  8
0
100
AcDbLine
 62
7
  6
CONTINUOUS
 10
-15.5328559887
 20
-0.7253804338
 11
-15.5328559887
 21
0.3098849623
  0
LINE
  5
3CC
100
AcDbEntity
  8
0
100
AcDbLine
 62
7
  6
CONTINUOUS
 10
-15.5328559887
 20
2.8746195662
 11
-15.5328559887
 21
3.9098849623
  0
LINE
  5
3CD
100
AcDbEntity
  8
0
100
AcDbLine
 62
7
  6
CONTINUOUS
 10
-15.5328559887
 20
6.4746195662
 11
-15.5328559887
 21
7.5098849623
  0
LINE
  5
3CE
100
AcDbEntity
  8
0
100
AcDbLine
 62
7
  6
CONTINUOUS
 10
-15.5328559887
 20
10.0746195662
 11
-15.5328559887
 21
11.1098849623
  0
LINE
  5
3CF
100
AcDbEntity
  8
0
100
AcDbLine
 62
7
  6
CONTINUOUS
 10
-15.5328559887
 20
13.6746195662
 11
-15.5328559887
 21
14.7098849623
  0
LINE
  5
3D0
100
AcDbEntity
  8
0
100
AcDbLine
 62
7
  6
CONTINUOUS
 10
-15.5328559887
 20
17.2746195662
 11
-15.5328559887
 21
18.3098849623
  0
LINE
  5
3D1
100
AcDbEntity
  8
0
100
AcDbLine
 62
7
  6
CONTINUOUS
 10
-15.5328559887
 20
28.7922522643
 11
-15.5328559887
 21
28.941223318
  0
LINE
  5
3D2
100
AcDbEntity
  8
RACCORDO
100
AcDbLine
 62
250
  6
CONTINUOUS
 10
-15.456686518
 20
-8.6407264888
 11
-15.456686518
 21
-5.4907140763
  0
LINE
  5
3D3
100
AcDbEntity
  8
RACCORDO
100
AcDbLine
 62
250
  6
CONTINUOUS
 10
-15.456686518
 20
-1.1247813952
 11
-15.456686518
 21
-0.711949701
  0
LINE
  5
3D4
100
AcDbEntity
  8
RACCORDO
100
AcDbLine
 62
250
  6
CONTINUOUS
 10
-15.456686518
 20
0.2964542295
 11
-15.456686518
 21
2.888050299
  0
LINE
  5
3D5
100
AcDbEntity
  8
RACCORDO
100
AcDbLine
 62
250
  6
CONTINUOUS
 10
-15.456686518
 20
3.8964542295
 11
-15.456686518
 21
6.488050299
  0
LINE
  5
3D6
100
AcDbEntity
  8
RACCORDO
100
AcDbLine
 62
250
  6
CONTINUOUS
 10
-15.456686518
 20
7.4964542295
 11
-15.456686518
 21
10.088050299
  0
LINE
  5
3D7
100
AcDbEntity
  8
RACCORDO
100
AcDbLine
 62
250
  6
CONTINUOUS
 10
-15.456686518
 20
11.0964542295
 11
-15.456686518
 21
13.688050299
  0
LINE
  5
3D8
100
AcDbEntity
  8
RACCORDO
100
AcDbLine
 62
250
  6
CONTINUOUS
 10
-15.456686518
 20
14.6964542295
 11
-15.456686518
 21
17.288050299
  0
LINE
  5
3D9
100
AcDbEntity
  8
RACCORDO
100
AcDbLine
 62
250
  6
CONTINUOUS
 10
-15.456686518
 20
18.2964542295
 11
-15.456686518
 21
26.2252310173
  0
LINE
  5
3DA
100
AcDbEntity
  8
0
100
AcDbLine
 62
7
  6
CONTINUOUS
 10
-15.4328559887
 20
-0.7077477357
 11
-15.4328559887
 21
0.2922522643
  0
LINE
  5
3DB
100
AcDbEntity
  8
0
100
AcDbLine
 62
7
  6
CONTINUOUS
 10
-15.4328559887
 20
2.8922522643
 11
-15.4328559887
 21
3.8922522643
  0
LINE
  5
3DC
100
AcDbEntity
  8
0
100
AcDbLine
 62
7
  6
CONTINUOUS
 10
-15.4328559887
 20
6.4922522643
 11
-15.4328559887
 21
7.4922522643
  0
LINE
  5
3DD
100
AcDbEntity
  8
0
100
AcDbLine
 62
7
  6
CONTINUOUS
 10
-15.4328559887
 20
10.0922522643
 11
-15.4328559887
 21
11.0922522643
  0
LINE
  5
3DE
100
AcDbEntity
  8
0
100
AcDbLine
 62
7
  6
CONTINUOUS
 10
-15.4328559887
 20
13.6922522643
 11
-15.4328559887
 21
14.6922522643
  0
LINE
  5
3DF
100
AcDbEntity
  8
0
100
AcDbLine
 62
7
  6
CONTINUOUS
 10
-15.4328559887
 20
17.2922522643
 11
-15.4328559887
 21
18.2922522643
  0
LINE
  5
3E0
100
AcDbEntity
  8
RACCORDO
100
AcDbLine
 62
7
  6
CONTINUOUS
 10
-15.6291880954
 20
10.644200797
 11
-15.6288555483
 21
10.3892220261
  0
LINE
  5
3E1
100
AcDbEntity
  8
RACCORDO
100
AcDbLine
 62
7
  6
CONTINUOUS
 10
-15.6291880954
 20
7.044200797
 11
-15.6288555483
 21
6.7892220261
  0
LINE
  5
3E2
100
AcDbEntity
  8
RACCORDO
100
AcDbLine
 62
7
  6
CONTINUOUS
 10
-15.5855540791
 20
14.2434531903
 11
-15.5852263177
 21
13.992143894
  0
LINE
  5
3E3
100
AcDbEntity
  8
RACCORDO
100
AcDbLine
 62
7
  6
CONTINUOUS
 10
-15.5855540791
 20
3.4434531903
 11
-15.5852263177
 21
3.192143894
  0
LINE
  5
3E4
100
AcDbEntity
  8
RACCORDO
100
AcDbLine
 62
7
  6
CONTINUOUS
 10
-15.5419200628
 20
17.8427055837
 11
-15.5415970872
 21
17.5950657619
  0
LINE
  5
3E5
100
AcDbEntity
  8
RACCORDO
100
AcDbLine
 62
7
  6
CONTINUOUS
 10
-15.5419200628
 20
-0.1572944163
 11
-15.5415970872
 21
-0.4049342381
  0
LINE
  5
3E6
100
AcDbEntity
  8
RACCORDO
100
AcDbLine
 62
7
  6
CONTINUOUS
 10
-15.6285061132
 20
10.872707456
 11
-15.6291880954
 21
10.644200797
  0
LINE
  5
3E7
100
AcDbEntity
  8
RACCORDO
100
AcDbLine
 62
7
  6
CONTINUOUS
 10
-15.6285061132
 20
7.272707456
 11
-15.6291880954
 21
7.044200797
  0
LINE
  5
3E8
100
AcDbEntity
  8
RACCORDO
100
AcDbLine
 62
7
  6
CONTINUOUS
 10
-15.5848819115
 20
14.4686713428
 11
-15.5855540791
 21
14.2434531903
  0
LINE
  5
3E9
100
AcDbEntity
  8
RACCORDO
100
AcDbLine
 62
7
  6
CONTINUOUS
 10
-15.5412577098
 20
18.0646352296
 11
-15.5419200628
 21
17.8427055837
  0
LINE
  5
3EA
100
AcDbEntity
  8
RACCORDO
100
AcDbLine
 62
7
  6
CONTINUOUS
 10
-15.5848819115
 20
3.6686713428
 11
-15.5855540791
 21
3.4434531903
  0
LINE
  5
3EB
100
AcDbEntity
  8
RACCORDO
100
AcDbLine
 62
7
  6
CONTINUOUS
 10
-15.5412577098
 20
0.0646352296
 11
-15.5419200628
 21
-0.1572944163
  0
LINE
  5
3EC
100
AcDbEntity
  8
RACCORDO
100
AcDbLine
 62
7
  6
CONTINUOUS
 10
-15.627613306
 20
10.9924194242
 11
-15.6285061132
 21
10.872707456
  0
LINE
  5
3ED
100
AcDbEntity
  8
RACCORDO
100
AcDbLine
 62
7
  6
CONTINUOUS
 10
-15.5840019529
 20
14.5866605008
 11
-15.5848819115
 21
14.4686713428
  0
LINE
  5
3EE
100
AcDbEntity
  8
RACCORDO
100
AcDbLine
 62
7
  6
CONTINUOUS
 10
-15.5403905998
 20
18.1809015774
 11
-15.5412577098
 21
18.0646352296
  0
LINE
  5
3EF
100
AcDbEntity
  8
RACCORDO
100
AcDbLine
 62
7
  6
CONTINUOUS
 10
-15.627613306
 20
7.3924194242
 11
-15.6285061132
 21
7.272707456
  0
LINE
  5
3F0
100
AcDbEntity
  8
RACCORDO
100
AcDbLine
 62
7
  6
CONTINUOUS
 10
-15.5840019529
 20
3.7866605008
 11
-15.5848819115
 21
3.6686713428
  0
LINE
  5
3F1
100
AcDbEntity
  8
RACCORDO
100
AcDbLine
 62
7
  6
CONTINUOUS
 10
-15.5403905998
 20
0.1809015774
 11
-15.5412577098
 21
0.0646352296
  0
LINE
  5
3F2
100
AcDbEntity
  8
RACCORDO
100
AcDbLine
 62
250
  6
CONTINUOUS
 10
-16.2835789866
 20
31.9149019951
 11
-16.2777611568
 21
32.4922522643
  0
LWPOLYLINE
  5
3F3
100
AcDbEntity
  8
RACCORDO
100
AcDbPolyline
 62
250
  6
CONTINUOUS
 90
37
 70
0
 10
-15.456686518
 20
26.2252310173
 10
-15.4564478
 20
26.2470572937
 10
-15.4557343681
 20
26.2688532241
 10
-15.4545462223
 20
26.2906188083
 10
-15.452882347
 20
26.3123646296
 10
-15.4507437579
 20
26.3340801047
 10
-15.4481335015
 20
26.3557334844
 10
-15.4450509012
 20
26.3773244445
 10
-15.4414966337
 20
26.3988533092
 10
-15.4374757766
 20
26.4202893017
 10
-15.4329876674
 20
26.4416322565
 10
-15.4280329685
 20
26.462882339
 10
-15.4226187447
 20
26.4840092682
 10
-15.4167443429
 20
26.5050128696
 10
-15.4104104161
 20
26.5258933178
 10
-15.4036259887
 20
26.5466208557
 10
-15.3963904129
 20
26.5671952804
 10
-15.3887043364
 20
26.5876167949
 10
-15.3805787274
 20
26.6078562507
 10
-15.3720129566
 20
26.6279133882
 10
-15.3630076532
 20
26.647788467
 10
-15.3535756735
 20
26.6674531181
 10
-15.3437164162
 20
26.686907026
 10
-15.3334304826
 20
26.706150506
 10
-15.3227325329
 20
26.7251561356
 10
-15.3116219817
 20
26.7439235764
 10
-15.3000994144
 20
26.7624531666
 10
-15.2881812476
 20
26.7807184989
 10
-15.2758668961
 20
26.7987192216
 10
-15.2631569451
 20
26.8164556864
 10
-15.2500695664
 20
26.8339025402
 10
-15.2366040675
 20
26.851059518
 10
-15.2227611409
 20
26.8679268849
 10
-15.2085610368
 20
26.8844800827
 10
-15.1940105049
 20
26.9007109252
 10
-15.1791027954
 20
26.9166275985
 10
-15.1638379083
 20
26.9322301027
  0
LINE
  5
3F4
100
AcDbEntity
  8
RACCORDO
100
AcDbLine
 62
7
  6
CONTINUOUS
 10
-16.681868489
 20
0.1690385862
 11
-16.6807197893
 21
0.2583637209
  0
LINE
  5
3F5
100
AcDbEntity
  8
RACCORDO
100
AcDbLine
 62
7
  6
CONTINUOUS
 10
-15.5396586574
 20
18.2405507585
 11
-15.5403905998
 21
18.1809015774
  0
LINE
  5
3F6
100
AcDbEntity
  8
RACCORDO
100
AcDbLine
 62
7
  6
CONTINUOUS
 10
-15.5832591647
 20
14.6471935508
 11
-15.5840019529
 21
14.5866605008
  0
LINE
  5
3F7
100
AcDbEntity
  8
RACCORDO
100
AcDbLine
 62
7
  6
CONTINUOUS
 10
-15.626859672
 20
11.0538363432
 11
-15.627613306
 21
10.9924194242
  0
LINE
  5
3F8
100
AcDbEntity
  8
RACCORDO
100
AcDbLine
 62
7
  6
CONTINUOUS
 10
-15.626859672
 20
7.4538363432
 11
-15.627613306
 21
7.3924194242
  0
LINE
  5
3F9
100
AcDbEntity
  8
RACCORDO
100
AcDbLine
 62
7
  6
CONTINUOUS
 10
-15.5832591647
 20
3.8471935508
 11
-15.5840019529
 21
3.7866605008
  0
LINE
  5
3FA
100
AcDbEntity
  8
RACCORDO
100
AcDbLine
 62
7
  6
CONTINUOUS
 10
-15.5396586574
 20
0.2405507585
 11
-15.5403905998
 21
0.1809015774
  0
LINE
  5
3FB
100
AcDbEntity
  8
RACCORDO
100
AcDbLine
 62
7
  6
CONTINUOUS
 10
-16.6807197893
 20
0.2583637209
 11
-16.6796324778
 21
0.3221024342
  0
LINE
  5
3FC
100
AcDbEntity
  8
RACCORDO
100
AcDbLine
 62
7
  6
CONTINUOUS
 10
-15.5392563569
 20
18.2640368397
 11
-15.5396586574
 21
18.2405507585
  0
LINE
  5
3FD
100
AcDbEntity
  8
RACCORDO
100
AcDbLine
 62
7
  6
CONTINUOUS
 10
-15.582850903
 20
14.6710276439
 11
-15.5832591647
 21
14.6471935508
  0
LINE
  5
3FE
100
AcDbEntity
  8
RACCORDO
100
AcDbLine
 62
7
  6
CONTINUOUS
 10
-15.6264454491
 20
11.0780184481
 11
-15.626859672
 21
11.0538363432
  0
LINE
  5
3FF
100
AcDbEntity
  8
RACCORDO
100
AcDbLine
 62
7
  6
CONTINUOUS
 10
-15.6264454491
 20
7.4780184481
 11
-15.626859672
 21
7.4538363432
  0
LINE
  5
400
100
AcDbEntity
  8
RACCORDO
100
AcDbLine
 62
7
  6
CONTINUOUS
 10
-15.582850903
 20
3.8710276439
 11
-15.5832591647
 21
3.8471935508
  0
LINE
  5
401
100
AcDbEntity
  8
RACCORDO
100
AcDbLine
 62
7
  6
CONTINUOUS
 10
-15.5392563569
 20
0.2640368397
 11
-15.5396586574
 21
0.2405507585
  0
LINE
  5
402
100
AcDbEntity
  8
RACCORDO
100
AcDbLine
 62
7
  6
CONTINUOUS
 10
-16.6796324778
 20
0.3221024342
 11
-16.6784129213
 21
0.3778535505
  0
LINE
  5
403
100
AcDbEntity
  8
RACCORDO
100
AcDbLine
 62
7
  6
CONTINUOUS
 10
-15.5388351089
 20
18.2829439214
 11
-15.5392563569
 21
18.2640368397
  0
LINE
  5
404
100
AcDbEntity
  8
RACCORDO
100
AcDbLine
 62
7
  6
CONTINUOUS
 10
-15.582423413
 20
14.6902148867
 11
-15.582850903
 21
14.6710276439
  0
LINE
  5
405
100
AcDbEntity
  8
RACCORDO
100
AcDbLine
 62
7
  6
CONTINUOUS
 10
-15.6260117171
 20
11.097485852
 11
-15.6264454491
 21
11.0780184481
  0
LINE
  5
406
100
AcDbEntity
  8
RACCORDO
100
AcDbLine
 62
7
  6
CONTINUOUS
 10
-15.6260117171
 20
7.497485852
 11
-15.6264454491
 21
7.4780184481
  0
LINE
  5
407
100
AcDbEntity
  8
RACCORDO
100
AcDbLine
 62
7
  6
CONTINUOUS
 10
-15.582423413
 20
3.8902148867
 11
-15.582850903
 21
3.8710276439
  0
LINE
  5
408
100
AcDbEntity
  8
RACCORDO
100
AcDbLine
 62
7
  6
CONTINUOUS
 10
-15.5388351089
 20
0.2829439214
 11
-15.5392563569
 21
0.2640368397
  0
LINE
  5
409
100
AcDbEntity
  8
RACCORDO
100
AcDbLine
 62
7
  6
CONTINUOUS
 10
-16.6784129213
 20
0.3778535505
 11
-16.6774215783
 21
0.4139142156
  0
LWPOLYLINE
  5
40A
100
AcDbEntity
  8
RACCORDO
100
AcDbPolyline
 62
250
  6
CONTINUOUS
 90
31
 70
0
 10
-16.5284841547
 20
-15.052085303
 10
-16.5281055991
 20
-15.0407873308
 10
-16.5270464715
 20
-15.0295170267
 10
-16.525309095
 20
-15.0183051569
 10
-16.5228973936
 20
-15.0071813478
 10
-16.5198175233
 20
-14.9961770958
 10
-16.5160784723
 20
-14.985325556
 10
-16.5116909279
 20
-14.9746574329
 10
-16.5066665289
 20
-14.9642007596
 10
-16.5010188483
 20
-14.9539838408
 10
-16.4947631558
 20
-14.9440344357
 10
-16.4879165812
 20
-14.9343799111
 10
-16.4804979729
 20
-14.9250468877
 10
-16.4725276688
 20
-14.9160609375
 10
-16.464027374
 20
-14.9074465183
 10
-16.4550202836
 20
-14.8992271399
 10
-16.4455309799
 20
-14.8914252433
 10
-16.4355853928
 20
-14.8840621551
 10
-16.4252107099
 20
-14.8771580062
 10
-16.4144352775
 20
-14.8707316596
 10
-16.4032885195
 20
-14.8648006626
 10
-16.3918008825
 20
-14.8593812153
 10
-16.3800037258
 20
-14.8544881133
 10
-16.3679292893
 20
-14.8501347302
 10
-16.3556106097
 20
-14.8463329729
 10
-16.3430813743
 20
-14.8430932264
 10
-16.3303757715
 20
-14.84042432
 10
-16.3175284507
 20
-14.8383335275
 10
-16.3045744834
 20
-14.8368265576
 10
-16.2915492697
 20
-14.8359075292
 10
-16.2784883855
 20
-14.8355789521
  0
LINE
  5
40B
100
AcDbEntity
  8
RACCORDO
100
AcDbLine
 62
7
  6
CONTINUOUS
 10
-16.6774215783
 20
0.4139142156
 11
-16.6767292642
 21
0.4350059809
  0
LINE
  5
40C
100
AcDbEntity
  8
RACCORDO
100
AcDbLine
 62
7
  6
CONTINUOUS
 10
-16.6767292642
 20
0.4350059809
 11
-16.6760140955
 21
0.4536555769
  0
LINE
  5
40D
100
AcDbEntity
  8
RACCORDO
100
AcDbLine
 62
7
  6
CONTINUOUS
 10
-16.7636998646
 20
4.053028932
 11
-16.7629862914
 21
4.0710333307
  0
LWPOLYLINE
  5
40E
100
AcDbEntity
  8
RACCORDO
100
AcDbPolyline
 62
7
  6
CONTINUOUS
 90
34
 70
0
 10
-14.1372278227
 20
32.6365898315
 10
-14.1375255491
 20
32.6303482525
 10
-14.1382968005
 20
32.6240751414
 10
-14.1395471633
 20
32.6177887254
 10
-14.1412812105
 20
32.6115146933
 10
-14.1435026532
 20
32.605265155
 10
-14.1462146733
 20
32.599038671
 10
-14.1494191701
 20
32.5928557335
 10
-14.1531170946
 20
32.5867361033
 10
-14.1573093456
 20
32.5806779468
 10
-14.1619948298
 20
32.5747027701
 10
-14.1671714717
 20
32.5688313624
 10
-14.1728378425
 20
32.5630615405
 10
-14.1789896264
 20
32.5574155596
 10
-14.1856214088
 20
32.5519150665
 10
-14.1927292116
 20
32.5465577307
 10
-14.2003052071
 20
32.5413662784
 10
-14.2083402891
 20
32.5363629696
 10
-14.2168275147
 20
32.5315455556
 10
-14.2257552242
 20
32.5269368622
 10
-14.2351102029
 20
32.5225594534
 10
-14.2448818775
 20
32.5184114055
 10
-14.2550543887
 20
32.5145151465
 10
-14.2656099758
 20
32.5108931037
 10
-14.2765335766
 20
32.5075438675
 10
-14.2878046342
 20
32.5044888344
 10
-14.2994005586
 20
32.5017496281
 10
-14.3113012564
 20
32.4993253467
 10
-14.3234680841
 20
32.497238546
 10
-14.335886139
 20
32.495505087
 10
-14.3485701331
 20
32.494118966
 10
-14.3615048437
 20
32.493095884
 10
-14.3746433452
 20
32.4924666942
 10
-14.3879508207
 20
32.4922522643
  0
LWPOLYLINE
  5
40F
100
AcDbEntity
  8
RACCORDO
100
AcDbPolyline
 62
7
  6
CONTINUOUS
 90
13
 70
0
 10
-16.6760140955
 20
0.4536555769
 10
-16.6752799584
 20
0.4697597897
 10
-16.6749062315
 20
0.4768447817
 10
-16.6745290197
 20
0.4832661484
 10
-16.6741482469
 20
0.4890230061
 10
-16.6737639894
 20
0.4941162384
 10
-16.6733774527
 20
0.4985282765
 10
-16.672988664
 20
0.5022564414
 10
-16.6725975961
 20
0.5053034121
 10
-16.6722053738
 20
0.5076596563
 10
-16.6718123719
 20
0.5093219967
 10
-16.6714182154
 20
0.5102936106
 10
-16.6710229045
 20
0.5105744981
  0
LWPOLYLINE
  5
410
100
AcDbEntity
  8
RACCORDO
100
AcDbPolyline
 62
7
  6
CONTINUOUS
 90
13
 70
0
 10
-16.7629862914
 20
4.0710333307
 10
-16.7622548367
 20
4.0865738589
 10
-16.7618828121
 20
4.0934091382
 10
-16.761507548
 20
4.0996027283
 10
-16.7611290072
 20
4.1051532836
 10
-16.7607472269
 20
4.1100621497
 10
-16.7603632886
 20
4.114313992
 10
-16.7599771895
 20
4.1179067109
 10
-16.7595889326
 20
4.1208424059
 10
-16.759199608
 20
4.1231120408
 10
-16.7588095793
 20
4.1247126032
 10
-16.7584184831
 20
4.1256471055
 10
-16.7580263192
 20
4.1259155475
  0
LINE
  5
411
100
AcDbEntity
  8
RACCORDO
100
AcDbLine
 62
7
  6
CONTINUOUS
 10
-13.1816936633
 20
29.7027226447
 11
-13.231878
 21
29.2506555127
  0
LWPOLYLINE
  5
412
100
AcDbEntity
  8
RACCORDO
100
AcDbPolyline
 62
7
  6
CONTINUOUS
 90
10
 70
0
 10
-15.6244803501
 20
11.1260408093
 10
-15.6246366506
 20
11.1257739076
 10
-15.6247924238
 20
11.1249283034
 10
-15.6249476699
 20
11.1235039968
 10
-15.6251025549
 20
11.1214979382
 10
-15.6252569127
 20
11.1189131772
 10
-15.625410245
 20
11.1157588627
 10
-15.6255625659
 20
11.1120323813
 10
-15.6257138613
 20
11.1077363464
 10
-15.6260117171
 20
11.097485852
  0
LINE
  5
413
100
AcDbEntity
  8
DRAFT
100
AcDbLine
 62
7
  6
CONTINUOUS
 10
-0.1328559887
 20
28.6922522643
 11
-0.2218768198
 21
28.6032314331
  0
LINE
  5
414
100
AcDbEntity
  8
RACCORDO
100
AcDbLine
 62
250
  6
CONTINUOUS
 10
4.5127764081
 20
33.2878804302
 11
4.5171482421
 21
33.2922522643
  0
LINE
  5
415
100
AcDbEntity
  8
DRAFT
100
AcDbLine
 62
7
  6
CONTINUOUS
 10
-0.1328559887
 20
28.4922522643
 11
-0.2218768198
 21
28.4032314331
  0
LINE
  5
416
100
AcDbEntity
  8
RACCORDO
100
AcDbLine
 62
250
  6
CONTINUOUS
 10
4.7627721773
 20
33.037884661
 11
4.7671440113
 21
33.042256495
  0
LINE
  5
417
100
AcDbEntity
  8
RACCORDO
100
AcDbLine
 62
7
  6
CONTINUOUS
 10
0.4741655127
 20
28.5492737657
 11
0.4171440113
 21
28.4922522643
  0
LINE
  5
418
100
AcDbEntity
  8
DRAFT
100
AcDbLine
 62
7
  6
CONTINUOUS
 10
1.6026738294
 20
29.6422522643
 11
1.5171440113
 21
29.5567224461
  0
LWPOLYLINE
  5
419
100
AcDbEntity
  8
0
100
AcDbPolyline
 62
7
  6
CONTINUOUS
 90
3
 70
0
 10
-3.8859018055
 20
22.3358803388
 10
-3.8735466063
 20
22.3455358693
 10
-3.8647535898
 20
22.3550685357
  0
LWPOLYLINE
  5
41A
100
AcDbEntity
  8
RACCORDO
100
AcDbPolyline
 62
7
  6
CONTINUOUS
 90
10
 70
0
 10
2.0671440113
 20
20.6838637615
 10
1.9104228149
 20
20.6339961099
 10
1.7570602479
 20
20.5864323174
 10
1.6070563101
 20
20.5411723838
 10
1.4608631925
 20
20.4983425907
 10
1.3180287041
 20
20.4578166565
 10
1.1771962725
 20
20.4192157373
 10
1.0379137067
 20
20.3824135517
 10
0.9006331975
 20
20.3475363809
 10
0.7653547451
 20
20.314584225
  0
LWPOLYLINE
  5
41B
100
AcDbEntity
  8
0
100
AcDbPolyline
 62
7
  6
CONTINUOUS
 90
16
 70
0
 10
2.0671440113
 20
22.3407070441
 10
1.8848877894
 20
22.2828581425
 10
1.7074151475
 20
22.2281796539
 10
1.5347260857
 20
22.1766715782
 10
1.3675214696
 20
22.128534113
 10
1.2051004334
 20
22.0835670607
 10
1.0453603806
 20
22.0411698291
 10
0.8880769578
 20
22.0012202244
 10
0.7334745183
 20
21.9638404403
 10
0.580123525
 20
21.9287964662
 10
0.4278873219
 20
21.8960052742
 10
0.2769025651
 20
21.8655498922
 10
0.1261496851
 20
21.837445393
 10
-0.0247111745
 20
21.8116968007
 10
-0.1753401572
 20
21.7882990911
 10
-0.3257372631
 20
21.7672522643
  0
LINE
  5
41C
100
AcDbEntity
  8
RACCORDO
100
AcDbLine
 62
7
  6
CONTINUOUS
 10
3.6671440113
 20
0.2922522643
 11
4.9053109271
 21
0.5105744981
  0
LINE
  5
41D
100
AcDbEntity
  8
RACCORDO
100
AcDbLine
 62
7
  6
CONTINUOUS
 10
-15.4328559887
 20
0.2922522643
 11
-16.6710229045
 21
0.5105744981
  0
LINE
  5
41E
100
AcDbEntity
  8
RACCORDO
100
AcDbLine
 62
250
  6
CONTINUOUS
 10
-9.8048624474
 20
-1.4831806945
 11
-10.0216100034
 21
-1.2774215299
  0
LINE
  5
41F
100
AcDbEntity
  8
DRAFT
100
AcDbLine
 62
7
  6
CONTINUOUS
 10
-0.2218768198
 20
-11.0187269046
 11
-0.1328559887
 21
-11.1077477357
  0
LINE
  5
420
100
AcDbEntity
  8
RACCORDO
100
AcDbLine
 62
250
  6
CONTINUOUS
 10
4.5127764081
 20
-15.7033759017
 11
4.5171482421
 21
-15.7077477357
  0
LINE
  5
421
100
AcDbEntity
  8
DRAFT
100
AcDbLine
 62
7
  6
CONTINUOUS
 10
-0.1328559887
 20
-10.9077477357
 11
-0.2218768198
 21
-10.8187269046
  0
LINE
  5
422
100
AcDbEntity
  8
RACCORDO
100
AcDbLine
 62
250
  6
CONTINUOUS
 10
4.7627721773
 20
-15.4533801325
 11
4.7671440113
 21
-15.4577519665
  0
LINE
  5
423
100
AcDbEntity
  8
RACCORDO
100
AcDbLine
 62
7
  6
CONTINUOUS
 10
0.4741655127
 20
-10.9647692372
 11
0.4171440113
 21
-10.9077477357
  0
LINE
  5
424
100
AcDbEntity
  8
DRAFT
100
AcDbLine
 62
7
  6
CONTINUOUS
 10
1.6026738294
 20
-12.0577477357
 11
1.5171440113
 21
-11.9722179176
  0
LINE
  5
425
100
AcDbEntity
  8
RACCORDO
100
AcDbLine
 62
250
  6
CONTINUOUS
 10
-10.2434944559
 20
-0.8958331976
 11
-10.0344521682
 21
-1.1094161501
  0
LWPOLYLINE
  5
426
100
AcDbEntity
  8
0
100
AcDbPolyline
 62
7
  6
CONTINUOUS
 90
19
 70
0
 10
-14.0328559887
 20
-3.099359233
 10
-14.032049536
 20
-3.1049001786
 10
-14.0296624042
 20
-3.1097966362
 10
-14.0257516353
 20
-3.1140486057
 10
-14.0203923225
 20
-3.1176605954
 10
-14.0136577268
 20
-3.120628097
 10
-14.0056011064
 20
-3.122937586
 10
-13.9963044107
 20
-3.1245849955
 10
-13.9858513451
 20
-3.1255743923
 10
-13.9742775647
 20
-3.1259044532
 10
-13.9616674547
 20
-3.1255742818
 10
-13.9481135809
 20
-3.1245847744
 10
-13.9336462875
 20
-3.122937296
 10
-13.9183567099
 20
-3.1206278029
 10
-13.9023535987
 20
-3.1176603388
 10
-13.8856875712
 20
-3.1140484001
 10
-13.8684537049
 20
-3.1097964857
 10
-13.8507981895
 20
-3.1049000966
 10
-13.8328559887
 20
-3.099359233
  0
LINE
  5
427
100
AcDbEntity
  8
RACCORDO
100
AcDbLine
 62
7
  6
CONTINUOUS
 10
-13.231878
 20
-11.6661509841
 11
-13.1816936633
 21
-12.1182181162
  0
LINE
  5
428
100
AcDbEntity
  8
RACCORDO
100
AcDbLine
 62
250
  6
CONTINUOUS
 10
-14.3879508207
 20
32.4922522643
 11
-14.3821329908
 21
31.9149019951
  0
LINE
  5
429
100
AcDbEntity
  8
RACCORDO
100
AcDbLine
 62
250
  6
CONTINUOUS
 10
-14.1372278227
 20
32.6365898315
 11
-14.1328559887
 21
32.2027374125
  0
LINE
  5
42A
100
AcDbEntity
  8
DRAFT
100
AcDbLine
 62
7
  6
CONTINUOUS
 10
-14.4648885459
 20
-4.0555732366
 11
-14.4648885459
 21
-2.5599222349
  0
LINE
  5
42B
100
AcDbEntity
  8
RACCORDO
100
AcDbLine
 62
250
  6
CONTINUOUS
 10
-14.3872235919
 20
-15.7033759017
 11
-14.3872235919
 21
-14.8355789521
  0
LINE
  5
42C
100
AcDbEntity
  8
RACCORDO
100
AcDbLine
 62
250
  6
CONTINUOUS
 10
-14.3872235919
 20
32.4922522643
 11
-14.3872235919
 21
33.2878804302
  0
LINE
  5
42D
100
AcDbEntity
  8
COPY-PUBBLISH
100
AcDbLine
 62
7
  6
CONTINUOUS
 10
-14.3828559887
 20
-2.4065650874
 11
-14.3828559887
 21
-4.2089303841
  0
LINE
  5
42E
100
AcDbEntity
  8
RACCORDO
100
AcDbLine
 62
250
  6
CONTINUOUS
 10
-14.1372278227
 20
-15.4533801325
 11
-14.1372278227
 21
-15.052085303
  0
LINE
  5
42F
100
AcDbEntity
  8
RACCORDO
100
AcDbLine
 62
250
  6
CONTINUOUS
 10
-14.1372278227
 20
32.6365898315
 11
-14.1372278227
 21
33.037884661
  0
LINE
  5
430
100
AcDbEntity
  8
RACCORDO
100
AcDbLine
 62
7
  6
CONTINUOUS
 10
-14.1328559887
 20
-15.4577519665
 11
-14.1328559887
 21
-13.6077477357
  0
LINE
  5
431
100
AcDbEntity
  8
DRAFT
100
AcDbLine
 62
7
  6
CONTINUOUS
 10
-14.1328559887
 20
-12.6077477357
 11
-14.1328559887
 21
-12.1077477357
  0
LINE
  5
432
100
AcDbEntity
  8
0
100
AcDbLine
 62
7
  6
CONTINUOUS
 10
-14.1328559887
 20
-4.5323292264
 11
-14.1328559887
 21
-2.0831662451
  0
LINE
  5
433
100
AcDbEntity
  8
DRAFT
100
AcDbLine
 62
7
  6
CONTINUOUS
 10
-14.1328559887
 20
29.6922522643
 11
-14.1328559887
 21
30.1922522643
  0
LINE
  5
434
100
AcDbEntity
  8
RACCORDO
100
AcDbLine
 62
7
  6
CONTINUOUS
 10
-14.1328559887
 20
31.1922522643
 11
-14.1328559887
 21
33.042256495
  0
LINE
  5
435
100
AcDbEntity
  8
0
100
AcDbLine
 62
7
  6
CONTINUOUS
 10
-14.0328559887
 20
-4.6266671034
 11
-14.0328559887
 21
-3.099359233
  0
LINE
  5
436
100
AcDbEntity
  8
RACCORDO
100
AcDbLine
 62
7
  6
CONTINUOUS
 10
-14.0328559887
 20
-3.099359233
 11
-14.0328559887
 21
-2.6827477357
  0
LINE
  5
437
100
AcDbEntity
  8
RACCORDO
100
AcDbLine
 62
250
  6
CONTINUOUS
 10
-13.9668805555
 20
30.3582276975
 11
-13.9668805555
 21
29.7839605285
  0
LINE
  5
438
100
AcDbEntity
  8
RACCORDO
100
AcDbLine
 62
250
  6
CONTINUOUS
 10
-13.9668805555
 20
-12.199456
 11
-13.9668805555
 21
-12.773723169
  0
LINE
  5
439
100
AcDbEntity
  8
0
100
AcDbLine
 62
250
  6
CONTINUOUS
 10
-13.8328559887
 20
-4.7562025156
 11
-13.8328559887
 21
-3.099359233
  0
LINE
  5
43A
100
AcDbEntity
  8
RACCORDO
100
AcDbLine
 62
250
  6
CONTINUOUS
 10
-13.4669567079
 20
30.104945508
 11
-13.4669567079
 21
29.7882478099
  0
LINE
  5
43B
100
AcDbEntity
  8
RACCORDO
100
AcDbLine
 62
250
  6
CONTINUOUS
 10
-13.4669567079
 20
-12.2037432814
 11
-13.4669567079
 21
-12.5204409795
  0
LINE
  5
43C
100
AcDbEntity
  8
DRAFT
100
AcDbLine
 62
7
  6
CONTINUOUS
 10
-13.3718768198
 20
-11.8831970865
 11
-13.3718768198
 21
-10.8187269046
  0
LINE
  5
43D
100
AcDbEntity
  8
DRAFT
100
AcDbLine
 62
7
  6
CONTINUOUS
 10
-13.3718768198
 20
28.4032314331
 11
-13.3718768198
 21
29.467701615
  0
LINE
  5
43E
100
AcDbEntity
  8
DRAFT
100
AcDbLine
 62
7
  6
CONTINUOUS
 10
-13.2828559887
 20
29.5567224461
 11
-13.2828559887
 21
28.4922522643
  0
LINE
  5
43F
100
AcDbEntity
  8
DRAFT
100
AcDbLine
 62
7
  6
CONTINUOUS
 10
-13.2828559887
 20
-10.9077477357
 11
-13.2828559887
 21
-11.9722179176
  0
LINE
  5
440
100
AcDbEntity
  8
RACCORDO
100
AcDbLine
 62
7
  6
CONTINUOUS
 10
-13.234634674
 20
28.7513407453
 11
-13.234634674
 21
28.4922522643
  0
LINE
  5
441
100
AcDbEntity
  8
RACCORDO
100
AcDbLine
 62
7
  6
CONTINUOUS
 10
-13.234634674
 20
-11.1668362168
 11
-13.234634674
 21
-10.9077477357
  0
LINE
  5
442
100
AcDbEntity
  8
RACCORDO
100
AcDbLine
 62
7
  6
CONTINUOUS
 10
-13.185321911
 20
-9.4171080832
 11
-13.185321911
 21
-9.2446574341
  0
LINE
  5
443
100
AcDbEntity
  8
0
100
AcDbLine
 62
250
  6
CONTINUOUS
 10
-13.1327512771
 20
-9.2972280679
 11
-13.1327512771
 21
-9.7972461747
  0
LINE
  5
444
100
AcDbEntity
  8
RACCORDO
100
AcDbLine
 62
7
  6
CONTINUOUS
 10
-13.1246776906
 20
-12.2037432814
 11
-13.1246776906
 21
-11.1647658526
  0
LINE
  5
445
100
AcDbEntity
  8
RACCORDO
100
AcDbLine
 62
7
  6
CONTINUOUS
 10
-13.1246776906
 20
28.7492703811
 11
-13.1246776906
 21
29.7882478099
  0
LINE
  5
446
100
AcDbEntity
  8
0
100
AcDbLine
 62
7
  6
CONTINUOUS
 10
-13.3175642589
 20
-4.726762568
 11
-13.3173528147
 21
-4.6837211886
  0
LINE
  5
447
100
AcDbEntity
  8
RACCORDO
100
AcDbLine
 62
250
  6
CONTINUOUS
 10
-14.3821329908
 20
-14.3303974666
 11
-14.3872235919
 21
-14.8355789521
  0
LINE
  5
448
100
AcDbEntity
  8
RACCORDO
100
AcDbLine
 62
250
  6
CONTINUOUS
 10
-14.1328559887
 20
-14.618232884
 11
-14.1372278227
 21
-15.052085303
  0
LWPOLYLINE
  5
449
100
AcDbEntity
  8
RACCORDO
100
AcDbPolyline
 62
7
  6
CONTINUOUS
 90
34
 70
0
 10
-14.1328559887
 20
-15.4577519665
 10
-14.133139139
 20
-15.4696472518
 10
-14.1339879545
 20
-15.4815155913
 10
-14.1354005146
 20
-15.4933301019
 10
-14.137373621
 20
-15.5050640232
 10
-14.139902807
 20
-15.5166907746
 10
-14.142982347
 20
-15.5281840148
 10
-14.1466052674
 20
-15.5395177095
 10
-14.1507633629
 20
-15.550666185
 10
-14.1554472165
 20
-15.561604182
 10
-14.1606462199
 20
-15.5723069233
 10
-14.1663485971
 20
-15.582750164
 10
-14.1725414306
 20
-15.5929102417
 10
-14.1792106932
 20
-15.6027641409
 10
-14.186341278
 20
-15.6122895396
 10
-14.1939170298
 20
-15.6214648548
 10
-14.2019207882
 20
-15.6302693018
 10
-14.2103344226
 20
-15.6386829362
 10
-14.2191388697
 20
-15.6466866946
 10
-14.2283141849
 20
-15.6542624465
 10
-14.2378395836
 20
-15.6613930312
 10
-14.2476934828
 20
-15.6680622939
 10
-14.2578535604
 20
-15.6742551274
 10
-14.2682968011
 20
-15.6799575046
 10
-14.2789995424
 20
-15.6851565079
 10
-14.2899375394
 20
-15.6898403615
 10
-14.3010860149
 20
-15.6939984571
 10
-14.3124197097
 20
-15.6976213775
 10
-14.3239129499
 20
-15.7007009175
 10
-14.3355397012
 20
-15.7032301035
 10
-14.3472736226
 20
-15.7052032099
 10
-14.3590881331
 20
-15.70661577
 10
-14.3709564727
 20
-15.7074645855
 10
-14.3828517579
 20
-15.7077477357
  0
LWPOLYLINE
  5
44A
100
AcDbEntity
  8
RACCORDO
100
AcDbPolyline
 62
250
  6
CONTINUOUS
 90
31
 70
0
 10
-14.1372278227
 20
-15.4533801325
 10
-14.1375710117
 20
-15.4664664867
 10
-14.1385987547
 20
-15.479516985
 10
-14.1403082379
 20
-15.4924958424
 10
-14.1426947806
 20
-15.5053674821
 10
-14.1457518417
 20
-15.518096596
 10
-14.1494710312
 20
-15.5306482434
 10
-14.1538421463
 20
-15.5429879995
 10
-14.1588532018
 20
-15.5550820368
 10
-14.1644904501
 20
-15.5668971824
 10
-14.1707384292
 20
-15.5784010382
 10
-14.177580005
 20
-15.5895620642
 10
-14.1849964119
 20
-15.6003496545
 10
-14.1929673201
 20
-15.6107342438
 10
-14.2014708616
 20
-15.6206873472
 10
-14.2104836807
 20
-15.6301816403
 10
-14.2199810151
 20
-15.6391910622
 10
-14.2299368523
 20
-15.6476909591
 10
-14.2403239782
 20
-15.6556581013
 10
-14.2511140574
 20
-15.6630707314
 10
-14.2622773758
 20
-15.6699084132
 10
-14.2737829762
 20
-15.6761522148
 10
-14.2855990544
 20
-15.6817849634
 10
-14.2976934106
 20
-15.6867913933
 10
-14.3100332145
 20
-15.6911579444
 10
-14.3225873991
 20
-15.6948733842
 10
-14.3353188642
 20
-15.6979264976
 10
-14.348184583
 20
-15.7003076277
 10
-14.3611463576
 20
-15.7020112319
 10
-14.374171252
 20
-15.7030344945
 10
-14.3872235919
 20
-15.7033759017
  0
LWPOLYLINE
  5
44B
100
AcDbEntity
  8
RACCORDO
100
AcDbPolyline
 62
7
  6
CONTINUOUS
 90
10
 70
0
 10
-15.6244803501
 20
7.5260408093
 10
-15.6246366506
 20
7.5257739076
 10
-15.6247924238
 20
7.5249283034
 10
-15.6249476699
 20
7.5235039968
 10
-15.6251025549
 20
7.5214979382
 10
-15.6252569127
 20
7.5189131772
 10
-15.625410245
 20
7.5157588627
 10
-15.6255625659
 20
7.5120323813
 10
-15.6257138613
 20
7.5077363464
 10
-15.6260117171
 20
7.497485852
  0
LINE
  5
44C
100
AcDbEntity
  8
DRAFT
100
AcDbLine
 62
7
  6
CONTINUOUS
 10
-1.4828559887
 20
31.1922522643
 11
-1.526923256
 21
31.1261504311
  0
LINE
  5
44D
100
AcDbEntity
  8
RACCORDO
100
AcDbLine
 62
250
  6
CONTINUOUS
 10
-1.9608495298
 20
22.7168193058
 11
-1.744101974
 21
22.922578471
  0
LWPOLYLINE
  5
44E
100
AcDbEntity
  8
RACCORDO
100
AcDbPolyline
 62
250
  6
CONTINUOUS
 90
49
 70
0
 10
-1.2434944559
 20
23.3041668024
 10
-1.2481840237
 20
23.2997232784
 10
-1.2530023049
 20
23.2954422307
 10
-1.2579492996
 20
23.2913236592
 10
-1.2630304128
 20
23.2873636503
 10
-1.2682402395
 20
23.2835661177
 10
-1.2735625644
 20
23.2799428024
 10
-1.2789977032
 20
23.2764942727
 10
-1.2845453402
 20
23.2732199603
 10
-1.2901883131
 20
23.2701299017
 10
-1.2959268887
 20
23.2672246713
 10
-1.3017608002
 20
23.2645036947
 10
-1.307672086
 20
23.2619752846
 10
-1.3136610137
 20
23.259640019
 10
-1.3197273155
 20
23.25749732
 10
-1.325852227
 20
23.2555537668
 10
-1.3320359055
 20
23.253809979
 10
-1.3382781936
 20
23.2522653371
 10
-1.3445598542
 20
23.2509245617
 10
-1.3508810177
 20
23.2497882763
 10
-1.3572415537
 20
23.2488558574
 10
-1.3636218329
 20
23.2481301556
 10
-1.3700218893
 20
23.2476118048
 10
-1.376441689
 20
23.247300171
 10
-1.3828615011
 20
23.2471962029
 10
-1.3892813481
 20
23.247300534
 10
-1.3957012076
 20
23.2476125309
 10
-1.4021012811
 20
23.248131241
 10
-1.4084814988
 20
23.2488572969
 10
-1.4148419306
 20
23.2497900661
 10
-1.4211629874
 20
23.2509266995
 10
-1.4274445701
 20
23.2522678278
 10
-1.4336867777
 20
23.2538128203
 10
-1.439870319
 20
23.2555569359
 10
-1.4459949822
 20
23.2575007745
 10
-1.4520609791
 20
23.259643736
 10
-1.4580496532
 20
23.2619792798
 10
-1.4639607937
 20
23.2645080018
 10
-1.4697946115
 20
23.267229306
 10
-1.4755330838
 20
23.2701348641
 10
-1.4811759512
 20
23.2732252717
 10
-1.486723473
 20
23.2764999332
 10
-1.4921584043
 20
23.2799487339
 10
-1.497480611
 20
23.2835724291
 10
-1.5026902272
 20
23.2873702634
 10
-1.5077704106
 20
23.291329856
 10
-1.512715547
 20
23.2954470799
 10
-1.5175312506
 20
23.299726062
 10
-1.5222175214
 20
23.3041668025
  0
LWPOLYLINE
  5
44F
100
AcDbEntity
  8
RACCORDO
100
AcDbPolyline
 62
250
  6
CONTINUOUS
 90
49
 70
0
 10
-1.0344521701
 20
23.0905838514
 10
-1.0461546546
 20
23.0795912732
 10
-1.0582038319
 20
23.0689803669
 10
-1.0705877775
 20
23.0587617749
 10
-1.0832940796
 20
23.0489459315
 10
-1.0963092513
 20
23.0395428678
 10
-1.1096196064
 20
23.0305624774
 10
-1.123211328
 20
23.0220142811
 10
-1.137070276
 20
23.0139067955
 10
-1.1511822858
 20
23.0062482181
 10
-1.1655328175
 20
22.9990466291
 10
-1.1801069066
 20
22.9923091884
 10
-1.1948898167
 20
22.9860426518
 10
-1.2098664261
 20
22.9802536889
 10
-1.2250210192
 20
22.9749480524
 10
-1.2403380556
 20
22.9701311229
 10
-1.2558017064
 20
22.9658081362
 10
-1.2713959054
 20
22.9619832529
 10
-1.2871048397
 20
22.9586602942
 10
-1.3029123226
 20
22.9558429705
 10
-1.3188018888
 20
22.9535339038
 10
-1.3347573755
 20
22.951735391
 10
-1.3507622219
 20
22.9504495911
 10
-1.3667998767
 20
22.9496775275
 10
-1.3828542286
 20
22.9494199361
 10
-1.3989087045
 20
22.9496774059
 10
-1.4149466102
 20
22.9504494009
 10
-1.4309516532
 20
22.9517351101
 10
-1.446907188
 20
22.9535335177
 10
-1.4627967393
 20
22.9558425115
 10
-1.4786042365
 20
22.9586597362
 10
-1.4943132808
 20
22.9619826013
 10
-1.5099076007
 20
22.9658074442
 10
-1.5253712652
 20
22.970130343
 10
-1.540688072
 20
22.9749470848
 10
-1.5558423087
 20
22.9802525134
 10
-1.5708187215
 20
22.9860412745
 10
-1.5856017174
 20
22.9923076763
 10
-1.6001760213
 20
22.9990451006
 10
-1.6145268204
 20
23.006246721
 10
-1.6286392179
 20
23.0139054155
 10
-1.6424985192
 20
23.0220130684
 10
-1.656090222
 20
23.0305611337
 10
-1.6693998165
 20
23.0395407367
 10
-1.6824140032
 20
23.0489428497
 10
-1.6951202562
 20
23.0587585413
 10
-1.7075057087
 20
23.0689784243
 10
-1.7195568109
 20
23.0795910995
 10
-1.7312597443
 20
23.0905839162
  0
LINE
  5
450
100
AcDbEntity
  8
RACCORDO
100
AcDbLine
 62
7
  6
CONTINUOUS
 10
-15.4328559887
 20
-0.7077477357
 11
-16.6710229045
 21
-0.9260699696
  0
LINE
  5
451
100
AcDbEntity
  8
RACCORDO
100
AcDbLine
 62
7
  6
CONTINUOUS
 10
3.6671440113
 20
-0.7077477357
 11
4.9053109271
 21
-0.9260699696
  0
LWPOLYLINE
  5
452
100
AcDbEntity
  8
RACCORDO
100
AcDbPolyline
 62
7
  6
CONTINUOUS
 90
12
 70
0
 10
-16.8450297339
 20
6.2432479315
 10
-16.845430098
 20
6.2435219867
 10
-16.8458293722
 20
6.2444760296
 10
-16.8462275565
 20
6.2461100602
 10
-16.8466250219
 20
6.2484271536
 10
-16.8470213973
 20
6.2514242346
 10
-16.8474155698
 20
6.255092078
 10
-16.8478075363
 20
6.2594328271
 10
-16.8481972998
 20
6.2644443387
 10
-16.8485837559
 20
6.2701109572
 10
-16.8489668669
 20
6.2764340566
 10
-16.8493466706
 20
6.2834122629
  0
LINE
  5
453
100
AcDbEntity
  8
DRAFT
100
AcDbLine
 62
7
  6
CONTINUOUS
 10
-1.4828559887
 20
-13.6077477357
 11
-1.526923256
 21
-13.5416459026
  0
LINE
  5
454
100
AcDbEntity
  8
RACCORDO
100
AcDbLine
 62
250
  6
CONTINUOUS
 10
-10.7312598092
 20
-5.5060793214
 11
-10.7441019741
 21
-5.3380739426
  0
LINE
  5
455
100
AcDbEntity
  8
RACCORDO
100
AcDbLine
 62
7
  6
CONTINUOUS
 10
-12.9328559887
 20
-4.8307953595
 11
-12.9328559887
 21
-5.0569579568
  0
LINE
  5
456
100
AcDbEntity
  8
RACCORDO
100
AcDbLine
 62
7
  6
CONTINUOUS
 10
-12.2410342868
 20
-11.790672019
 11
-12.2410342868
 21
-11.1647658526
  0
LINE
  5
457
100
AcDbEntity
  8
RACCORDO
100
AcDbLine
 62
7
  6
CONTINUOUS
 10
-12.2410342868
 20
28.7492703811
 11
-12.2410342868
 21
29.3751765475
  0
LINE
  5
458
100
AcDbEntity
  8
0
100
AcDbLine
 62
7
  6
CONTINUOUS
 10
-12.1328559887
 20
-1.7266964022
 11
-12.1328559887
 21
-2.6827477357
  0
LINE
  5
459
100
AcDbEntity
  8
0
100
AcDbLine
 62
7
  6
CONTINUOUS
 10
-12.1328559887
 20
-4.2992481133
 11
-12.1328559887
 21
-4.8887990693
  0
LINE
  5
45A
100
AcDbEntity
  8
DRAFT
100
AcDbLine
 62
7
  6
CONTINUOUS
 10
-12.1310773034
 20
28.7145831409
 11
-12.1310773034
 21
28.4922522643
  0
LINE
  5
45B
100
AcDbEntity
  8
DRAFT
100
AcDbLine
 62
7
  6
CONTINUOUS
 10
-12.1310773034
 20
-10.9077477357
 11
-12.1310773034
 21
-11.1300786124
  0
LINE
  5
45C
100
AcDbEntity
  8
0
100
AcDbLine
 62
7
  6
CONTINUOUS
 10
-11.8828559887
 20
-4.7438732655
 11
-11.8828559887
 21
-4.2514037963
  0
LINE
  5
45D
100
AcDbEntity
  8
0
100
AcDbLine
 62
7
  6
CONTINUOUS
 10
-11.8828559887
 20
-2.6827477357
 11
-11.8828559887
 21
-1.871622206
  0
LINE
  5
45E
100
AcDbEntity
  8
DRAFT
100
AcDbLine
 62
7
  6
CONTINUOUS
 10
-11.6328559887
 20
-10.9077477357
 11
-11.6328559887
 21
-11.1077477357
  0
LINE
  5
45F
100
AcDbEntity
  8
DRAFT
100
AcDbLine
 62
7
  6
CONTINUOUS
 10
-11.6328559887
 20
28.4922522643
 11
-11.6328559887
 21
28.6922522643
  0
LINE
  5
460
100
AcDbEntity
  8
DRAFT
100
AcDbLine
 62
7
  6
CONTINUOUS
 10
-11.5438351576
 20
28.6032314331
 11
-11.5438351576
 21
28.4032314331
  0
LINE
  5
461
100
AcDbEntity
  8
DRAFT
100
AcDbLine
 62
7
  6
CONTINUOUS
 10
-11.5438351576
 20
-11.0187269046
 11
-11.5438351576
 21
-10.8187269046
  0
LWPOLYLINE
  5
462
100
AcDbEntity
  8
ASSI
100
AcDbPolyline
 62
7
  6
CONTINUOUS
 90
17
 70
0
 10
-9.3828559887
 20
32.5433945546
 10
-9.3831882787
 20
32.5406761755
 10
-9.3841971955
 20
32.5372943443
 10
-9.3859000952
 20
32.5332490611
 10
-9.3883144452
 20
32.5285530867
 10
-9.3914548693
 20
32.5231936603
 10
-9.3953301538
 20
32.5171324989
 10
-9.3999491307
 20
32.510364365
 10
-9.4053212221
 20
32.502894496
 10
-9.411450287
 20
32.4947003217
 10
-9.418324984
 20
32.4858024293
 10
-9.4259607323
 20
32.4761802315
 10
-9.4344107212
 20
32.465749396
 10
-9.4436940988
 20
32.4545071642
 10
-9.4538138831
 20
32.4424562945
 10
-9.4648158106
 20
32.4295207307
 10
-9.4767117064
 20
32.4156995484
  0
LWPOLYLINE
  5
463
100
AcDbEntity
  8
RACCORDO
100
AcDbPolyline
 62
7
  6
CONTINUOUS
 90
10
 70
0
 10
-15.5809140844
 20
3.9183589012
 10
-15.5810681354
 20
3.9180958405
 10
-15.5812216669
 20
3.9172624057
 10
-15.5813746788
 20
3.9158585967
 10
-15.5815273348
 20
3.9138814079
 10
-15.5816794712
 20
3.911333845
 10
-15.5818305968
 20
3.9082249251
 10
-15.5819807256
 20
3.9045520726
 10
-15.5821298437
 20
3.9003178632
 10
-15.582423413
 20
3.8902148867
  0
LWPOLYLINE
  5
464
100
AcDbEntity
  8
RACCORDO
100
AcDbPolyline
 62
7
  6
CONTINUOUS
 90
5
 70
0
 10
2.0080274849
 20
30.5513687906
 10
1.9845086288
 20
30.5153212245
 10
1.9605240723
 20
30.4788980281
 10
1.9360738153
 20
30.4421702484
 10
1.9110985681
 20
30.4052411487
  0
LINE
  5
465
100
AcDbEntity
  8
RACCORDO
100
AcDbLine
 62
7
  6
CONTINUOUS
 10
0.4724387792
 20
28.8751955859
 11
0.365365326
 21
28.7145831409
  0
LWPOLYLINE
  5
466
100
AcDbEntity
  8
RACCORDO
100
AcDbPolyline
 62
7
  6
CONTINUOUS
 90
3
 70
0
 10
1.9110985681
 20
30.4052411487
 10
1.8599288414
 20
30.3308425089
 10
1.8339205097
 20
30.2933905287
  0
LINE
  5
467
100
AcDbEntity
  8
RACCORDO
100
AcDbLine
 62
7
  6
CONTINUOUS
 10
1.8339205097
 20
30.2933905287
 11
1.7546786321
 21
30.1804361515
  0
LINE
  5
468
100
AcDbEntity
  8
RACCORDO
100
AcDbLine
 62
7
  6
CONTINUOUS
 10
1.7546786321
 20
30.1804361515
 11
1.7012447304
 21
30.104945508
  0
LWPOLYLINE
  5
469
100
AcDbEntity
  8
RACCORDO
100
AcDbPolyline
 62
250
  6
CONTINUOUS
 90
58
 70
0
 10
-1.0216101498
 20
22.9225786091
 10
-1.0314737499
 20
22.9123799337
 10
-1.0416358848
 20
22.9024478381
 10
-1.0520896469
 20
22.8927926956
 10
-1.0628316986
 20
22.8834208218
 10
-1.0738520798
 20
22.8743443625
 10
-1.0851331278
 20
22.8655803831
 10
-1.0966662602
 20
22.8571369444
 10
-1.1084428614
 20
22.8490220129
 10
-1.1204430937
 20
22.8412503716
 10
-1.1326565622
 20
22.8338286746
 10
-1.1450739271
 20
22.8267627223
 10
-1.1576754359
 20
22.8200635806
 10
-1.1704476093
 20
22.813737144
 10
-1.1833822404
 20
22.8077863645
 10
-1.196466649
 20
22.8022162745
 10
-1.2096864639
 20
22.7970315526
 10
-1.2230336656
 20
22.7922339798
 10
-1.2365051003
 20
22.7878241559
 10
-1.2500901709
 20
22.7838050858
 10
-1.2637771714
 20
22.7801797564
 10
-1.2775615305
 20
22.776949475
 10
-1.2914340056
 20
22.7741166102
 10
-1.3053813391
 20
22.7716839774
 10
-1.3193929832
 20
22.7696537719
 10
-1.3334581084
 20
22.7680277598
 10
-1.3475646308
 20
22.766807368
 10
-1.3617000649
 20
22.7659939399
 10
-1.3758527273
 20
22.7655882167
 10
-1.3900111638
 20
22.7655903599
 10
-1.4041632112
 20
22.7660004758
 10
-1.4182973587
 20
22.7668182438
 10
-1.4324020028
 20
22.7680427092
 10
-1.4464648575
 20
22.7696727645
 10
-1.4604736619
 20
22.7717068814
 10
-1.4744178271
 20
22.7741430682
 10
-1.4882875763
 20
22.7769795195
 10
-1.5020695802
 20
22.7802134652
 10
-1.5157547284
 20
22.7838423385
 10
-1.5293393827
 20
22.787865404
 10
-1.5428123608
 20
22.7922800781
 10
-1.5561625298
 20
22.7970830415
 10
-1.569385879
 20
22.8022737046
 10
-1.5824749698
 20
22.8078507569
 10
-1.59541484
 20
22.8138090355
 10
-1.6081900489
 20
22.8201423475
 10
-1.620791917
 20
22.8268474611
 10
-1.6332077017
 20
22.8339182926
 10
-1.6454165177
 20
22.8413429817
 10
-1.6574086306
 20
22.8491153343
 10
-1.6691744095
 20
22.8572284356
 10
-1.6806943225
 20
22.865667426
 10
-1.691959788
 20
22.8744242897
 10
-1.7029627929
 20
22.8834907995
 10
-1.7136862116
 20
22.8928500205
 10
-1.724120181
 20
22.9024898527
 10
-1.7342610857
 20
22.9124030043
 10
-1.7441018947
 20
22.9225785463
  0
LWPOLYLINE
  5
46A
100
AcDbEntity
  8
RACCORDO
100
AcDbPolyline
 62
250
  6
CONTINUOUS
 90
58
 70
0
 10
-0.8048624474
 20
22.7168193055
 10
-0.8206495787
 20
22.7006426145
 10
-0.8368957286
 20
22.6849158014
 10
-0.8536008972
 20
22.6696388661
 10
-0.8707837905
 20
22.6547925525
 10
-0.8884257024
 20
22.6403961168
 10
-0.9064705147
 20
22.6265073273
 10
-0.924919866
 20
22.6131301574
 10
-0.9437721176
 20
22.6002606337
 10
-0.9629662354
 20
22.5879446035
 10
-0.9825034257
 20
22.5761858185
 10
-1.0023824822
 20
22.5649805269
 10
-1.0225387521
 20
22.5543633206
 10
-1.0429691541
 20
22.5443389348
 10
-1.0636767696
 20
22.5349026343
 10
-1.0846061898
 20
22.5260748043
 10
-1.1057525364
 20
22.5178585827
 10
-1.1271206878
 20
22.5102508317
 10
-1.1486698706
 20
22.5032625233
 10
-1.1704008894
 20
22.4968937012
 10
-1.1923129396
 20
22.4911443218
 10
-1.2143628341
 20
22.4860252254
 10
-1.2365539176
 20
22.4815366834
 10
-1.2588828454
 20
22.4776784245
 10
-1.2812963967
 20
22.4744604754
 10
-1.3037957694
 20
22.4718843841
 10
-1.3263797656
 20
22.4699486027
 10
-1.3489915705
 20
22.4686585134
 10
-1.3716310668
 20
22.4680159422
 10
-1.3942983718
 20
22.4680190631
 10
-1.4169370222
 20
22.4686677819
 10
-1.439547011
 20
22.4699638986
 10
-1.4621283452
 20
22.471905613
 10
-1.4846245828
 20
22.4744874303
 10
-1.5070342165
 20
22.4777107621
 10
-1.5293587536
 20
22.4815741967
 10
-1.5515462733
 20
22.4860680047
 10
-1.5735933716
 20
22.4911922697
 10
-1.5955034525
 20
22.496946908
 10
-1.6172348079
 20
22.5033219385
 10
-1.6387876119
 20
22.5103176884
 10
-1.6601616905
 20
22.5179338304
 10
-1.6813148126
 20
22.5261594022
 10
-1.7022527805
 20
22.5349982893
 10
-1.722969792
 20
22.5444466061
 10
-1.7434062101
 20
22.5544817331
 10
-1.7635641469
 20
22.5651083614
 10
-1.7834414903
 20
22.5763217999
 10
-1.8029722669
 20
22.5880853563
 10
-1.8221544458
 20
22.6004023785
 10
-1.840990058
 20
22.6132695185
 10
-1.8594192235
 20
22.6266400404
 10
-1.8774401136
 20
22.6405176772
 10
-1.895054557
 20
22.6548986959
 10
-1.9122081598
 20
22.6697251616
 10
-1.9288827905
 20
22.6849777627
 10
-1.9450965805
 20
22.7006758107
 10
-1.9608495298
 20
22.7168193058
  0
LINE
  5
46B
100
AcDbEntity
  8
RACCORDO
100
AcDbLine
 62
250
  6
CONTINUOUS
 10
-1.5222175214
 20
23.3041668025
 11
-1.7312598092
 21
23.0905838499
  0
LINE
  5
46C
100
AcDbEntity
  8
RACCORDO
100
AcDbLine
 62
250
  6
CONTINUOUS
 10
4.1051250163
 20
27.6392291881
 11
3.3981259309
 21
26.9322301027
  0
LINE
  5
46D
100
AcDbEntity
  8
RACCORDO
100
AcDbLine
 62
7
  6
CONTINUOUS
 10
3.6671440113
 20
3.8922522643
 11
4.9923143418
 21
4.1259155475
  0
LINE
  5
46E
100
AcDbEntity
  8
RACCORDO
100
AcDbLine
 62
7
  6
CONTINUOUS
 10
-15.4328559887
 20
3.8922522643
 11
-16.7580263192
 21
4.1259155475
  0
LWPOLYLINE
  5
46F
100
AcDbEntity
  8
RACCORDO
100
AcDbPolyline
 62
7
  6
CONTINUOUS
 90
12
 70
0
 10
-16.8450297339
 20
9.8432479315
 10
-16.845430098
 20
9.8435219867
 10
-16.8458293722
 20
9.8444760296
 10
-16.8462275565
 20
9.8461100602
 10
-16.8466250219
 20
9.8484271536
 10
-16.8470213973
 20
9.8514242346
 10
-16.8474155698
 20
9.855092078
 10
-16.8478075363
 20
9.8594328271
 10
-16.8481972998
 20
9.8644443387
 10
-16.8485837559
 20
9.8701109572
 10
-16.8489668669
 20
9.8764340566
 10
-16.8493466706
 20
9.8834122629
  0
LINE
  5
470
100
AcDbEntity
  8
RACCORDO
100
AcDbLine
 62
250
  6
CONTINUOUS
 10
4.1051250163
 20
-10.0547246596
 11
3.3981259309
 21
-9.3477255742
  0
LINE
  5
471
100
AcDbEntity
  8
RACCORDO
100
AcDbLine
 62
7
  6
CONTINUOUS
 10
1.7012447304
 20
-12.5204409795
 11
1.7546786321
 21
-12.595931623
  0
LINE
  5
472
100
AcDbEntity
  8
RACCORDO
100
AcDbLine
 62
7
  6
CONTINUOUS
 10
1.7546786321
 20
-12.595931623
 11
1.8339205097
 21
-12.7088860002
  0
LWPOLYLINE
  5
473
100
AcDbEntity
  8
RACCORDO
100
AcDbPolyline
 62
7
  6
CONTINUOUS
 90
7
 70
0
 10
1.8339205097
 20
-12.7088860002
 10
1.8856576205
 20
-12.7836403525
 10
1.9110985681
 20
-12.8207366202
 10
1.9360738153
 20
-12.8576657199
 10
1.9605240723
 20
-12.8943934996
 10
1.9845086288
 20
-12.930816696
 10
2.0080274849
 20
-12.9668642621
  0
LINE
  5
474
100
AcDbEntity
  8
RACCORDO
100
AcDbLine
 62
7
  6
CONTINUOUS
 10
0.4724387792
 20
-11.2906910574
 11
0.365365326
 21
-11.1300786124
  0
LWPOLYLINE
  5
475
100
AcDbEntity
  8
0
100
AcDbPolyline
 62
7
  6
CONTINUOUS
 90
20
 70
0
 10
-7.9052803369
 20
-4.7864481848
 10
-7.9035373696
 20
-4.7912716316
 10
-7.8987554674
 20
-4.7961844004
 10
-7.891237018
 20
-4.7999980276
 10
-7.8814584716
 20
-4.8028549223
 10
-7.8696872054
 20
-4.8047693587
 10
-7.8556550787
 20
-4.8056762356
 10
-7.8390348752
 20
-4.8055910608
 10
-7.8194256243
 20
-4.804461061
 10
-7.7972253038
 20
-4.8022739121
 10
-7.7733042578
 20
-4.7991347888
 10
-7.7481151523
 20
-4.7951479357
 10
-7.7211992822
 20
-4.7902969748
 10
-7.6920594047
 20
-4.7845341256
 10
-7.6604862099
 20
-4.777847633
 10
-7.6266830676
 20
-4.7702900062
 10
-7.5907724879
 20
-4.7619039448
 10
-7.5527955874
 20
-4.7527330337
 10
-7.5127111394
 20
-4.7428084778
 10
-7.4705205389
 20
-4.7321637314
  0
LINE
  5
476
100
AcDbEntity
  8
RACCORDO
100
AcDbLine
 62
250
  6
CONTINUOUS
 10
-10.0344521682
 20
-1.1094161501
 11
-10.0216100033
 21
-1.2774215289
  0
LINE
  5
477
100
AcDbEntity
  8
DRAFT
100
AcDbLine
 62
7
  6
CONTINUOUS
 10
-10.2828559887
 20
32.5922522643
 11
-10.2828559887
 21
31.1922522643
  0
LINE
  5
478
100
AcDbEntity
  8
DRAFT
100
AcDbLine
 62
7
  6
CONTINUOUS
 10
-10.2828559887
 20
-13.6077477357
 11
-10.2828559887
 21
-15.0077477357
  0
LINE
  5
479
100
AcDbEntity
  8
ASSI
100
AcDbLine
 62
250
  6
CONTINUOUS
 10
-10.2387887215
 20
-14.9585211605
 11
-10.2387887215
 21
-13.5416459026
  0
LINE
  5
47A
100
AcDbEntity
  8
ASSI
100
AcDbLine
 62
250
  6
CONTINUOUS
 10
-10.2387887215
 20
31.1261504311
 11
-10.2387887215
 21
32.543025689
  0
LINE
  5
47B
100
AcDbEntity
  8
DRAFT
100
AcDbLine
 62
7
  6
CONTINUOUS
 10
-9.3828559887
 20
-11.2077477357
 11
-9.3828559887
 21
-11.2522547615
  0
LINE
  5
47C
100
AcDbEntity
  8
ASSI
100
AcDbLine
 62
7
  6
CONTINUOUS
 10
-9.3828559887
 20
-15.0019299059
 11
-9.3828559887
 21
-13.5416676309
  0
LINE
  5
47D
100
AcDbEntity
  8
DRAFT
100
AcDbLine
 62
7
  6
CONTINUOUS
 10
-9.3828559887
 20
28.7922522643
 11
-9.3828559887
 21
28.83675929
  0
LINE
  5
47E
100
AcDbEntity
  8
ASSI
100
AcDbLine
 62
7
  6
CONTINUOUS
 10
-9.3828559887
 20
31.1261721594
 11
-9.3828559887
 21
32.5864344344
  0
LWPOLYLINE
  5
47F
100
AcDbEntity
  8
RACCORDO
100
AcDbPolyline
 62
250
  6
CONTINUOUS
 90
3
 70
0
 10
-10.7312598092
 20
-1.1094161501
 10
-10.7426098293
 20
-1.2583403718
 10
-10.7441019742
 20
-1.2774215288
  0
LWPOLYLINE
  5
480
100
AcDbEntity
  8
0
100
AcDbPolyline
 62
7
  6
CONTINUOUS
 90
4
 70
0
 10
-12.8600940109
 20
-4.7859219759
 10
-12.8600056906
 20
-4.7852503464
 10
-12.8608416445
 20
-4.7782717025
 10
-12.8647535898
 20
-4.7705640072
  0
LINE
  5
481
100
AcDbEntity
  8
0
100
AcDbLine
 62
250
  6
CONTINUOUS
 10
-12.8684248899
 20
-4.7969448302
 11
-12.8647535898
 21
-4.7705640072
  0
LWPOLYLINE
  5
482
100
AcDbEntity
  8
0
100
AcDbPolyline
 62
7
  6
CONTINUOUS
 90
4
 70
0
 10
-3.8647535898
 20
22.3550685357
 10
-3.8611479207
 20
22.3628288187
 10
-3.8602900194
 20
22.369770533
 10
-3.8604316406
 20
22.3709527133
  0
LWPOLYLINE
  5
483
100
AcDbEntity
  8
RACCORDO
100
AcDbPolyline
 62
7
  6
CONTINUOUS
 90
10
 70
0
 10
-15.5373478186
 20
0.3106769931
 10
-15.5374996203
 20
0.3104177735
 10
-15.53765091
 20
0.309596508
 10
-15.5378016877
 20
0.3082131966
 10
-15.5379521147
 20
0.3062648776
 10
-15.5381020296
 20
0.3037545127
 10
-15.5382509487
 20
0.3006909875
 10
-15.5383988854
 20
0.2970717639
 10
-15.5385458261
 20
0.29289938
 10
-15.5388351089
 20
0.2829439214
  0
LWPOLYLINE
  5
484
100
AcDbEntity
  8
RACCORDO
100
AcDbPolyline
 62
250
  6
CONTINUOUS
 90
58
 70
0
 10
-1.7441018277
 20
18.8619259194
 10
-1.7342382275
 20
18.8721245948
 10
-1.7240760927
 20
18.8820566904
 10
-1.7136223305
 20
18.8917118329
 10
-1.7028802788
 20
18.9010837067
 10
-1.6918598977
 20
18.910160166
 10
-1.6805788496
 20
18.9189241454
 10
-1.6690457173
 20
18.9273675841
 10
-1.657269116
 20
18.9354825156
 10
-1.6452688838
 20
18.943254157
 10
-1.6330554152
 20
18.9506758539
 10
-1.6206380504
 20
18.9577418062
 10
-1.6080365415
 20
18.9644409479
 10
-1.5952643681
 20
18.9707673845
 10
-1.5823297371
 20
18.976718164
 10
-1.5692453284
 20
18.982288254
 10
-1.5560255135
 20
18.9874729759
 10
-1.5426783119
 20
18.9922705487
 10
-1.5292068771
 20
18.9966803726
 10
-1.5156218065
 20
19.0006994427
 10
-1.501934806
 20
19.0043247721
 10
-1.4881504469
 20
19.0075550535
 10
-1.4742779719
 20
19.0103879184
 10
-1.4603306384
 20
19.0128205511
 10
-1.4463189942
 20
19.0148507566
 10
-1.432253869
 20
19.0164767687
 10
-1.4181473466
 20
19.0176971605
 10
-1.4040119125
 20
19.0185105886
 10
-1.3898592502
 20
19.0189163118
 10
-1.3757008137
 20
19.0189141686
 10
-1.3615487662
 20
19.0185040527
 10
-1.3474146188
 20
19.0176862847
 10
-1.3333099746
 20
19.0164618193
 10
-1.3192471199
 20
19.014831764
 10
-1.3052383155
 20
19.0127976471
 10
-1.2912941504
 20
19.0103614603
 10
-1.2774244011
 20
19.007525009
 10
-1.2636423972
 20
19.0042910633
 10
-1.249957249
 20
19.00066219
 10
-1.2363725948
 20
18.9966391245
 10
-1.2228996166
 20
18.9922244504
 10
-1.2095494477
 20
18.987421487
 10
-1.1963260985
 20
18.9822308239
 10
-1.1832370077
 20
18.9766537716
 10
-1.1702971374
 20
18.970695493
 10
-1.1575219285
 20
18.964362181
 10
-1.1449200604
 20
18.9576570674
 10
-1.1325042757
 20
18.9505862359
 10
-1.1202954597
 20
18.9431615468
 10
-1.1083033469
 20
18.9353891942
 10
-1.0965375679
 20
18.9272760929
 10
-1.0850176549
 20
18.9188371025
 10
-1.0737521894
 20
18.9100802389
 10
-1.0627491846
 20
18.901013729
 10
-1.0520257658
 20
18.891654508
 10
-1.0415917964
 20
18.8820146758
 10
-1.0314508917
 20
18.8721015242
 10
-1.0216100828
 20
18.8619259822
  0
LWPOLYLINE
  5
485
100
AcDbEntity
  8
RACCORDO
100
AcDbPolyline
 62
250
  6
CONTINUOUS
 90
58
 70
0
 10
-1.96084953
 20
19.067685223
 10
-1.9450623987
 20
19.083861914
 10
-1.9288162488
 20
19.0995887271
 10
-1.9121110803
 20
19.1148656624
 10
-1.8949281869
 20
19.129711976
 10
-1.877286275
 20
19.1441084117
 10
-1.8592414627
 20
19.1579972012
 10
-1.8407921114
 20
19.1713743711
 10
-1.8219398598
 20
19.1842438948
 10
-1.802745742
 20
19.196559925
 10
-1.7832085517
 20
19.20831871
 10
-1.7633294952
 20
19.2195240016
 10
-1.7431732253
 20
19.2301412079
 10
-1.7227428233
 20
19.2401655937
 10
-1.7020352079
 20
19.2496018942
 10
-1.6811057876
 20
19.2584297242
 10
-1.659959441
 20
19.2666459458
 10
-1.6385912896
 20
19.2742536968
 10
-1.6170421068
 20
19.2812420053
 10
-1.5953110881
 20
19.2876108273
 10
-1.5733990379
 20
19.2933602067
 10
-1.5513491433
 20
19.2984793031
 10
-1.5291580599
 20
19.3029678451
 10
-1.506829132
 20
19.306826104
 10
-1.4844155808
 20
19.3100440531
 10
-1.461916208
 20
19.3126201444
 10
-1.4393322118
 20
19.3145559258
 10
-1.4167204069
 20
19.3158460151
 10
-1.3940809106
 20
19.3164885863
 10
-1.3714136057
 20
19.3164854654
 10
-1.3487749553
 20
19.3158367466
 10
-1.3261649664
 20
19.3145406299
 10
-1.3035836322
 20
19.3125989155
 10
-1.2810873946
 20
19.3100170982
 10
-1.2586777609
 20
19.3067937664
 10
-1.2363532238
 20
19.3029303318
 10
-1.2141657041
 20
19.2984365238
 10
-1.1921186059
 20
19.2933122588
 10
-1.1702085249
 20
19.2875576205
 10
-1.1484771695
 20
19.28118259
 10
-1.1269243655
 20
19.2741868401
 10
-1.105550287
 20
19.2665706981
 10
-1.0843971648
 20
19.2583451263
 10
-1.0634591969
 20
19.2495062392
 10
-1.0427421854
 20
19.2400579224
 10
-1.0223057673
 20
19.2300227954
 10
-1.0021478305
 20
19.2193961671
 10
-0.9822704872
 20
19.2081827286
 10
-0.9627397105
 20
19.1964191722
 10
-0.9435575316
 20
19.18410215
 10
-0.9247219194
 20
19.17123501
 10
-0.9062927539
 20
19.1578644881
 10
-0.8882718638
 20
19.1439868513
 10
-0.8706574204
 20
19.1296058326
 10
-0.8535038177
 20
19.1147793669
 10
-0.836829187
 20
19.0995267658
 10
-0.820615397
 20
19.0838287178
 10
-0.8048624477
 20
19.0676852227
  0
LINE
  5
486
100
AcDbEntity
  8
RACCORDO
100
AcDbLine
 62
250
  6
CONTINUOUS
 10
-1.243494456
 20
18.480337726
 11
-1.0344521682
 21
18.6939206786
  0
LINE
  5
487
100
AcDbEntity
  8
RACCORDO
100
AcDbLine
 62
250
  6
CONTINUOUS
 10
-0.8048624477
 20
19.0676852227
 11
-1.0216100034
 21
18.8619260575
  0
LWPOLYLINE
  5
488
100
AcDbEntity
  8
RACCORDO
100
AcDbPolyline
 62
250
  6
CONTINUOUS
 90
49
 70
0
 10
-1.5222175215
 20
18.4803377261
 10
-1.5175279537
 20
18.4847812501
 10
-1.5127096725
 20
18.4890622978
 10
-1.5077626778
 20
18.4931808693
 10
-1.5026815646
 20
18.4971408782
 10
-1.4974717379
 20
18.5009384108
 10
-1.492149413
 20
18.5045617261
 10
-1.4867142742
 20
18.5080102558
 10
-1.4811666373
 20
18.5112845682
 10
-1.4755236643
 20
18.5143746268
 10
-1.4697850887
 20
18.5172798572
 10
-1.4639511772
 20
18.5200008338
 10
-1.4580398914
 20
18.5225292439
 10
-1.4520509638
 20
18.5248645095
 10
-1.4459846619
 20
18.5270072085
 10
-1.4398597505
 20
18.5289507617
 10
-1.4336760719
 20
18.5306945495
 10
-1.4274337838
 20
18.5322391914
 10
-1.4211521233
 20
18.5335799668
 10
-1.4148309597
 20
18.5347162522
 10
-1.4084704237
 20
18.5356486711
 10
-1.4020901445
 20
18.5363743729
 10
-1.3956900881
 20
18.5368927237
 10
-1.3892702884
 20
18.5372043575
 10
-1.3828504764
 20
18.5373083257
 10
-1.3764306293
 20
18.5372039945
 10
-1.3700107698
 20
18.5368919976
 10
-1.3636106963
 20
18.5363732875
 10
-1.3572304786
 20
18.5356472316
 10
-1.3508700468
 20
18.5347144624
 10
-1.34454899
 20
18.533577829
 10
-1.3382674074
 20
18.5322367007
 10
-1.3320251997
 20
18.5306917082
 10
-1.3258416584
 20
18.5289475926
 10
-1.3197169952
 20
18.527003754
 10
-1.3136509984
 20
18.5248607925
 10
-1.3076623242
 20
18.5225252487
 10
-1.3017511837
 20
18.5199965267
 10
-1.2959173659
 20
18.5172752225
 10
-1.2901788936
 20
18.5143696644
 10
-1.2845360262
 20
18.5112792568
 10
-1.2789885044
 20
18.5080045953
 10
-1.2735535731
 20
18.5045557946
 10
-1.2682313664
 20
18.5009320994
 10
-1.2630217502
 20
18.4971342651
 10
-1.2579415669
 20
18.4931746725
 10
-1.2529964304
 20
18.4890574486
 10
-1.2481807268
 20
18.4847784665
 10
-1.243494456
 20
18.480337726
  0
LWPOLYLINE
  5
489
100
AcDbEntity
  8
RACCORDO
100
AcDbPolyline
 62
250
  6
CONTINUOUS
 90
49
 70
0
 10
-1.7312598073
 20
18.6939206771
 10
-1.7195573228
 20
18.7049132553
 10
-1.7075081456
 20
18.7155241616
 10
-1.6951242
 20
18.7257427536
 10
-1.6824178979
 20
18.735558597
 10
-1.6694027261
 20
18.7449616607
 10
-1.6560923711
 20
18.7539420511
 10
-1.6425006495
 20
18.7624902474
 10
-1.6286417015
 20
18.770597733
 10
-1.6145296917
 20
18.7782563104
 10
-1.60017916
 20
18.7854578994
 10
-1.5856050708
 20
18.7921953401
 10
-1.5708221607
 20
18.7984618767
 10
-1.5558455514
 20
18.8042508396
 10
-1.5406909583
 20
18.8095564761
 10
-1.5253739218
 20
18.8143734056
 10
-1.509910271
 20
18.8186963923
 10
-1.494316072
 20
18.8225212756
 10
-1.4786071378
 20
18.8258442343
 10
-1.4627996549
 20
18.828661558
 10
-1.4469100886
 20
18.8309706247
 10
-1.430954602
 20
18.8327691375
 10
-1.4149497556
 20
18.8340549374
 10
-1.3989121007
 20
18.834827001
 10
-1.3828577488
 20
18.8350845924
 10
-1.366803273
 20
18.8348271226
 10
-1.3507653672
 20
18.8340551276
 10
-1.3347603243
 20
18.8327694184
 10
-1.3188047895
 20
18.8309710108
 10
-1.3029152381
 20
18.828662017
 10
-1.2871077409
 20
18.8258447923
 10
-1.2713986966
 20
18.8225219272
 10
-1.2558043767
 20
18.8186970843
 10
-1.2403407122
 20
18.8143741855
 10
-1.2250239054
 20
18.8095574437
 10
-1.2098696687
 20
18.8042520151
 10
-1.1948932559
 20
18.798463254
 10
-1.18011026
 20
18.7921968522
 10
-1.1655359561
 20
18.7854594279
 10
-1.151185157
 20
18.7782578075
 10
-1.1370727596
 20
18.770599113
 10
-1.1232134582
 20
18.7624914601
 10
-1.1096217555
 20
18.7539433948
 10
-1.0963121609
 20
18.7449637918
 10
-1.0832979743
 20
18.7355616788
 10
-1.0705917212
 20
18.7257459872
 10
-1.0582062688
 20
18.7155261042
 10
-1.0461551665
 20
18.704913429
 10
-1.0344522331
 20
18.6939206123
  0
LINE
  5
48A
100
AcDbEntity
  8
RACCORDO
100
AcDbLine
 62
250
  6
CONTINUOUS
 10
3.6909745406
 20
23.0752186048
 11
3.4630534035
 21
22.8819097738
  0
LINE
  5
48B
100
AcDbEntity
  8
RACCORDO
100
AcDbLine
 62
7
  6
CONTINUOUS
 10
-15.4328559887
 20
2.8922522643
 11
-16.7580263192
 21
2.658588981
  0
LINE
  5
48C
100
AcDbEntity
  8
RACCORDO
100
AcDbLine
 62
7
  6
CONTINUOUS
 10
3.6671440113
 20
2.8922522643
 11
4.9923143418
 21
2.658588981
  0
LINE
  5
48D
100
AcDbEntity
  8
0
100
AcDbLine
 62
250
  6
CONTINUOUS
 10
-7.8972894256
 20
-4.7969280294
 11
-7.9009583876
 21
-4.7705640072
  0
LINE
  5
48E
100
AcDbEntity
  8
0
100
AcDbLine
 62
7
  6
CONTINUOUS
 10
-7.4481376954
 20
-4.7280557325
 11
-7.4483623393
 21
-4.6837212295
  0
LINE
  5
48F
100
AcDbEntity
  8
RACCORDO
100
AcDbLine
 62
7
  6
CONTINUOUS
 10
-9.2828559887
 20
-11.2560560847
 11
-9.2828559887
 21
-11.1077477357
  0
LINE
  5
490
100
AcDbEntity
  8
RACCORDO
100
AcDbLine
 62
7
  6
CONTINUOUS
 10
-9.2828559887
 20
28.6922522643
 11
-9.2828559887
 21
28.8405606132
  0
LINE
  5
491
100
AcDbEntity
  8
RACCORDO
100
AcDbLine
 62
7
  6
CONTINUOUS
 10
-8.8828559887
 20
-13.5457869744
 11
-8.8828559887
 21
-12.2077477357
  0
LINE
  5
492
100
AcDbEntity
  8
0
100
AcDbLine
 62
7
  6
CONTINUOUS
 10
-8.8828559887
 20
-4.7438732655
 11
-8.8828559887
 21
-4.2514056444
  0
LINE
  5
493
100
AcDbEntity
  8
0
100
AcDbLine
 62
7
  6
CONTINUOUS
 10
-8.8828559887
 20
-2.6827477357
 11
-8.8828559887
 21
-1.871622206
  0
LINE
  5
494
100
AcDbEntity
  8
RACCORDO
100
AcDbLine
 62
7
  6
CONTINUOUS
 10
-8.8828559887
 20
29.7922522643
 11
-8.8828559887
 21
31.1302915029
  0
LINE
  5
495
100
AcDbEntity
  8
0
100
AcDbLine
 62
7
  6
CONTINUOUS
 10
-8.6328559887
 20
-1.7266964022
 11
-8.6328559887
 21
-2.6827477357
  0
LINE
  5
496
100
AcDbEntity
  8
0
100
AcDbLine
 62
7
  6
CONTINUOUS
 10
-8.6328559887
 20
-4.2992485622
 11
-8.6328559887
 21
-4.8887990693
  0
LINE
  5
497
100
AcDbEntity
  8
RACCORDO
100
AcDbLine
 62
250
  6
CONTINUOUS
 10
-8.2828559887
 20
-11.2609255266
 11
-8.2828559887
 21
-11.0921346869
  0
LINE
  5
498
100
AcDbEntity
  8
RACCORDO
100
AcDbLine
 62
250
  6
CONTINUOUS
 10
-8.2828559887
 20
28.6766392154
 11
-8.2828559887
 21
28.8454300551
  0
LINE
  5
499
100
AcDbEntity
  8
RACCORDO
100
AcDbLine
 62
7
  6
CONTINUOUS
 10
-7.8328559887
 20
-5.0569579568
 11
-7.8328559887
 21
-4.8307953595
  0
LINE
  5
49A
100
AcDbEntity
  8
0
100
AcDbLine
 62
250
  6
CONTINUOUS
 10
-7.6329607003
 20
-9.2972280679
 11
-7.6329607003
 21
-9.7972461747
  0
LINE
  5
49B
100
AcDbEntity
  8
RACCORDO
100
AcDbLine
 62
7
  6
CONTINUOUS
 10
-7.5803900664
 20
-9.4171080832
 11
-7.5803900664
 21
-9.2446574341
  0
LWPOLYLINE
  5
49C
100
AcDbEntity
  8
RACCORDO
100
AcDbPolyline
 62
250
  6
CONTINUOUS
 90
3
 70
0
 10
-10.0344521682
 20
-5.5060793214
 10
-10.0231021481
 20
-5.3571550997
 10
-10.0216100033
 20
-5.3380739427
  0
LINE
  5
49D
100
AcDbEntity
  8
RACCORDO
100
AcDbLine
 62
7
  6
CONTINUOUS
 10
-4.5599549586
 20
28.0014603069
 11
-4.5413940678
 21
28.0893374733
  0
LINE
  5
49E
100
AcDbEntity
  8
0
100
AcDbLine
 62
7
  6
CONTINUOUS
 10
-15.5328559887
 20
-11.3567187895
 11
-15.4956359264
 21
-11.2449677981
  0
LINE
  5
49F
100
AcDbEntity
  8
0
100
AcDbLine
 62
7
  6
CONTINUOUS
 10
-14.7827420556
 20
-12.1077477357
 11
-14.7452933794
 21
-11.995310345
  0
LINE
  5
4A0
100
AcDbEntity
  8
0
100
AcDbLine
 62
250
  6
CONTINUOUS
 10
1.367077374
 20
27.3817067426
 11
1.7756820535
 21
28.0893373459
  0
LWPOLYLINE
  5
4A1
100
AcDbEntity
  8
RACCORDO
100
AcDbPolyline
 62
250
  6
CONTINUOUS
 90
79
 70
0
 10
-15.456686518
 20
-1.1247813952
 10
-15.4823771927
 20
-1.1646106816
 10
-15.5082065953
 20
-1.2059655212
 10
-15.5341570003
 20
-1.2488459142
 10
-15.5602558212
 20
-1.2932611503
 10
-15.58643809
 20
-1.3392019398
 10
-15.6125478759
 20
-1.3866404132
 10
-15.6385418783
 20
-1.4355228581
 10
-15.6644269148
 20
-1.485902987
 10
-15.6901244612
 20
-1.5379140676
 10
-15.7156494662
 20
-1.5916065824
 10
-15.7409526556
 20
-1.6469300491
 10
-15.7658640109
 20
-1.7038662882
 10
-15.7904484285
 20
-1.7626257956
 10
-15.8146160812
 20
-1.8229980755
 10
-15.8379804902
 20
-1.8843334613
 10
-15.8604762381
 20
-1.9464880392
 10
-15.8821765761
 20
-2.0096057231
 10
-15.9029220263
 20
-2.073468587
 10
-15.9227948746
 20
-2.1383945067
 10
-15.9417386392
 20
-2.2040656065
 10
-15.9594062036
 20
-2.2693103338
 10
-15.9757288566
 20
-2.3339082813
 10
-15.9908363388
 20
-2.3980798562
 10
-16.0046946246
 20
-2.4613147285
 10
-16.0172895047
 20
-2.5234602798
 10
-16.0286964983
 20
-2.5846691283
 10
-16.0390146559
 20
-2.6448887985
 10
-16.0482591875
 20
-2.7040468727
 10
-16.0564627461
 20
-2.7622157685
 10
-16.063743783
 20
-2.8195602633
 10
-16.0701249563
 20
-2.8760600164
 10
-16.0756163507
 20
-2.9317353685
 10
-16.0803114016
 20
-2.9868121191
 10
-16.084229372
 20
-3.0412732274
 10
-16.0873708373
 20
-3.0951357341
 10
-16.089796881
 20
-3.1486765619
 10
-16.0915242249
 20
-3.2018809765
 10
-16.0925453385
 20
-3.2547637121
 10
-16.0928820236
 20
-3.3076458939
 10
-16.0925479889
 20
-3.360527461
 10
-16.0915295315
 20
-3.4134084743
 10
-16.0898049723
 20
-3.4666102418
 10
-16.0873819039
 20
-3.5201471113
 10
-16.0842435567
 20
-3.574004735
 10
-16.0803288075
 20
-3.6284613776
 10
-16.075637108
 20
-3.6835344075
 10
-16.0701491839
 20
-3.7392064563
 10
-16.063771502
 20
-3.7957036836
 10
-16.0564940969
 20
-3.8530459622
 10
-16.048294205
 20
-3.9112134192
 10
-16.0390529277
 20
-3.9703725953
 10
-16.0287373207
 20
-4.0305974539
 10
-16.0173324429
 20
-4.0918140316
 10
-16.0047396362
 20
-4.1539669789
 10
-15.9908839983
 20
-4.2172062987
 10
-15.9757791287
 20
-4.2813819882
 10
-15.9594575664
 20
-4.3459886885
 10
-15.9417889067
 20
-4.4112493638
 10
-15.9228423936
 20
-4.47694105
 10
-15.9029654149
 20
-4.5418894966
 10
-15.8822135805
 20
-4.6057784208
 10
-15.8605053694
 20
-4.6689241053
 10
-15.8380030995
 20
-4.7311011478
 10
-15.8146353622
 20
-4.7924486714
 10
-15.7904658707
 20
-4.8528275529
 10
-15.7658786472
 20
-4.9115950214
 10
-15.740961789
 20
-4.9685446566
 10
-15.7156520696
 20
-5.0238828788
 10
-15.690122146
 20
-5.0775861766
 10
-15.6644221691
 20
-5.129602057
 10
-15.6385364039
 20
-5.1799830131
 10
-15.6125435695
 20
-5.228863013
 10
-15.5864385289
 20
-5.2762932609
 10
-15.5602629507
 20
-5.3222225526
 10
-15.5341679385
 20
-5.3666312444
 10
-15.5082168183
 20
-5.4095127883
 10
-15.4823837701
 20
-5.4508737323
 10
-15.456686518
 20
-5.4907140763
  0
LINE
  5
4A2
100
AcDbEntity
  8
RACCORDO
100
AcDbLine
 62
7
  6
CONTINUOUS
 10
3.6671440113
 20
7.4922522643
 11
5.0793177565
 21
7.741256597
  0
LINE
  5
4A3
100
AcDbEntity
  8
RACCORDO
100
AcDbLine
 62
7
  6
CONTINUOUS
 10
-15.4328559887
 20
7.4922522643
 11
-16.8450297339
 21
7.741256597
  0
LWPOLYLINE
  5
4A4
100
AcDbEntity
  8
RACCORDO
100
AcDbPolyline
 62
7
  6
CONTINUOUS
 90
12
 70
0
 10
-16.7580263192
 20
13.458588981
 10
-16.7584184831
 20
13.458857423
 10
-16.7588095793
 20
13.4597919253
 10
-16.759199608
 20
13.4613924877
 10
-16.7595889326
 20
13.4636621226
 10
-16.7599771895
 20
13.4665978176
 10
-16.7603632886
 20
13.4701905365
 10
-16.7607472269
 20
13.4744423788
 10
-16.7611290072
 20
13.4793512449
 10
-16.761507548
 20
13.4849018002
 10
-16.7618828121
 20
13.4910953903
 10
-16.7622548367
 20
13.4979306696
  0
LINE
  5
4A5
100
AcDbEntity
  8
0
100
AcDbLine
 62
7
  6
CONTINUOUS
 10
-15.4956359264
 20
28.8294723266
 11
-15.5328559887
 21
28.941223318
  0
LINE
  5
4A6
100
AcDbEntity
  8
0
100
AcDbLine
 62
7
  6
CONTINUOUS
 10
-14.7452933794
 20
29.5798148735
 11
-14.7827420556
 21
29.6922522643
  0
LINE
  5
4A7
100
AcDbEntity
  8
0
100
AcDbLine
 62
250
  6
CONTINUOUS
 10
-6.9328559887
 20
-4.7562025156
 11
-6.9328559887
 21
-3.099359233
  0
LINE
  5
4A8
100
AcDbEntity
  8
0
100
AcDbLine
 62
7
  6
CONTINUOUS
 10
-6.7328559887
 20
-4.6266671034
 11
-6.7328559887
 21
-3.099359233
  0
LINE
  5
4A9
100
AcDbEntity
  8
RACCORDO
100
AcDbLine
 62
7
  6
CONTINUOUS
 10
-6.7328559887
 20
-3.099359233
 11
-6.7328559887
 21
-2.6827477357
  0
LINE
  5
4AA
100
AcDbEntity
  8
0
100
AcDbLine
 62
7
  6
CONTINUOUS
 10
-6.6328559887
 20
-4.5323292264
 11
-6.6328559887
 21
-2.0831662451
  0
LINE
  5
4AB
100
AcDbEntity
  8
COPY-PUBBLISH
100
AcDbLine
 62
7
  6
CONTINUOUS
 10
-6.3828559887
 20
-4.2089303841
 11
-6.3828559887
 21
-2.4065650874
  0
LINE
  5
4AC
100
AcDbEntity
  8
DRAFT
100
AcDbLine
 62
7
  6
CONTINUOUS
 10
-6.3008234315
 20
-4.0555732366
 11
-6.3008234315
 21
-2.5599222349
  0
LINE
  5
4AD
100
AcDbEntity
  8
DRAFT
100
AcDbLine
 62
7
  6
CONTINUOUS
 10
-6.2894850977
 20
10.5051030574
 11
-6.2894850977
 21
9.1922522643
  0
LINE
  5
4AE
100
AcDbEntity
  8
DRAFT
100
AcDbLine
 62
7
  6
CONTINUOUS
 10
-6.2475588743
 20
10.5229661518
 11
-6.2475588743
 21
9.1922522643
  0
LINE
  5
4AF
100
AcDbEntity
  8
DRAFT
100
AcDbLine
 62
7
  6
CONTINUOUS
 10
-6.2056326509
 20
10.5378943297
 11
-6.2056326509
 21
9.1922522643
  0
LWPOLYLINE
  5
4B0
100
AcDbEntity
  8
0
100
AcDbPolyline
 62
7
  6
CONTINUOUS
 90
19
 70
0
 10
-5.0328559887
 20
20.6838637615
 10
-5.0320495565
 20
20.6894046251
 10
-5.0296624993
 20
20.6943010142
 10
-5.0257518774
 20
20.6985529286
 10
-5.020392871
 20
20.7021648673
 10
-5.0136587173
 20
20.7051323314
 10
-5.0056023799
 20
20.7074418245
 10
-4.9963053308
 20
20.7090893029
 10
-4.9858514338
 20
20.7100788103
 10
-4.9742771252
 20
20.7104089817
 10
-4.9616675601
 20
20.7100789209
 10
-4.9481148858
 20
20.709089524
 10
-4.9336484701
 20
20.7074421145
 10
-4.9183588046
 20
20.7051326255
 10
-4.9023550787
 20
20.7021651239
 10
-4.8856884554
 20
20.6985531342
 10
-4.8684542305
 20
20.6943011647
 10
-4.8507984171
 20
20.6894047071
 10
-4.8328559887
 20
20.6838637615
  0
LWPOLYLINE
  5
4B1
100
AcDbEntity
  8
ASSI
100
AcDbPolyline
 62
7
  6
CONTINUOUS
 90
17
 70
0
 10
-10.2387887215
 20
-14.9585211605
 10
-10.2383626201
 20
-14.9557357654
 10
-10.2372652917
 20
-14.952285878
 10
-10.235477703
 20
-14.9481714982
 10
-10.2329801838
 20
-14.9434055677
 10
-10.2297566421
 20
-14.9379751448
 10
-10.2257986716
 20
-14.9318414046
 10
-10.2210963651
 20
-14.9249972679
 10
-10.2156397599
 20
-14.9174498139
 10
-10.2094285836
 20
-14.9091814557
 10
-10.202475162
 20
-14.9002114947
 10
-10.1947644129
 20
-14.8905206295
 10
-10.186248437
 20
-14.8800333695
 10
-10.1769130812
 20
-14.8687503059
 10
-10.1667545105
 20
-14.8566708475
 10
-10.1557239537
 20
-14.8437177303
 10
-10.1438090799
 20
-14.8298892014
  0
LINE
  5
4B2
100
AcDbEntity
  8
RACCORDO
100
AcDbLine
 62
7
  6
CONTINUOUS
 10
-15.6750249243
 20
-10.8187269046
 11
-15.0944553992
 21
-9.4171080832
  0
LINE
  5
4B3
100
AcDbEntity
  8
DRAFT
100
AcDbLine
 62
7
  6
CONTINUOUS
 10
-14.6828559887
 20
-12.0577477357
 11
-14.6105547425
 21
-11.8831970865
  0
LINE
  5
4B4
100
AcDbEntity
  8
DRAFT
100
AcDbLine
 62
7
  6
CONTINUOUS
 10
2.9171440113
 20
29.6422522643
 11
2.844842765
 21
29.467701615
  0
LWPOLYLINE
  5
4B5
100
AcDbEntity
  8
RACCORDO
100
AcDbPolyline
 62
250
  6
CONTINUOUS
 90
79
 70
0
 10
-15.2287653809
 20
-1.3180902262
 10
-15.2591561396
 20
-1.3544317227
 10
-15.2897752114
 20
-1.392105142
 10
-15.3205742081
 20
-1.4311390043
 10
-15.3515275084
 20
-1.4715945191
 10
-15.3825567928
 20
-1.513466823
 10
-15.4135366295
 20
-1.5566806841
 10
-15.4443807665
 20
-1.6012041854
 10
-15.4750730569
 20
-1.6471114829
 10
-15.5055924228
 20
-1.6944832682
 10
-15.535906296
 20
-1.7433826094
 10
-15.5659236441
 20
-1.793788407
 10
-15.5955331725
 20
-1.8456522706
 10
-15.6247688091
 20
-1.8991623637
 10
-15.6534633734
 20
-1.9541609496
 10
-15.6812403716
 20
-2.0100551285
 10
-15.7080011499
 20
-2.0666810407
 10
-15.7337889643
 20
-2.1241773624
 10
-15.7584846359
 20
-2.1823773662
 10
-15.7821725274
 20
-2.2415331474
 10
-15.8047145233
 20
-2.3013585589
 10
-15.8257271558
 20
-2.3608472758
 10
-15.8451780355
 20
-2.4197363792
 10
-15.8631880762
 20
-2.4782000567
 10
-15.8796844167
 20
-2.5358576261
 10
-15.8946900599
 20
-2.592528383
 10
-15.9083082084
 20
-2.6483061198
 10
-15.9206023875
 20
-2.7032189399
 10
-15.9316158868
 20
-2.7571742478
 10
-15.9414197364
 20
-2.8101959632
 10
-15.9501025148
 20
-2.8624932406
 10
-15.9577049288
 20
-2.9140289934
 10
-15.964272544
 20
-2.9647891571
 10
-15.9698750705
 20
-3.0150240337
 10
-15.9745407184
 20
-3.064703284
 10
-15.9783001361
 20
-3.1138181862
 10
-15.9811987293
 20
-3.1626561101
 10
-15.9832514684
 20
-3.2111901381
 10
-15.984473894
 20
-3.2594154085
 10
-15.984882266
 20
-3.3076548148
 10
-15.9844770414
 20
-3.3558936635
 10
-15.9832578134
 20
-3.4041173663
 10
-15.9812083926
 20
-3.4526489777
 10
-15.9783133087
 20
-3.5014832914
 10
-15.9745576171
 20
-3.5505937474
 10
-15.9698958533
 20
-3.6002689302
 10
-15.9642973252
 20
-3.6505004168
 10
-15.9577338292
 20
-3.701257577
 10
-15.9501355997
 20
-3.7527910365
 10
-15.9414571215
 20
-3.8050862888
 10
-15.9316575902
 20
-3.8581066932
 10
-15.9206480461
 20
-3.9120630394
 10
-15.9083570111
 20
-3.9669806292
 10
-15.8947413435
 20
-4.022765419
 10
-15.8797380831
 20
-4.0794429136
 10
-15.8632447623
 20
-4.1371044895
 10
-15.8452377629
 20
-4.19557189
 10
-15.8257883542
 20
-4.2544690755
 10
-15.8047745432
 20
-4.3139723956
 10
-15.7822291742
 20
-4.3738165185
 10
-15.7585362973
 20
-4.4329928446
 10
-15.7338332052
 20
-4.491216747
 10
-15.7080360727
 20
-4.5487386113
 10
-15.6812672794
 20
-4.6053848404
 10
-15.6534860791
 20
-4.6612899285
 10
-15.6247893935
 20
-4.7162945465
 10
-15.5955505993
 20
-4.7698120111
 10
-15.5659346624
 20
-4.8216881993
 10
-15.5359095889
 20
-4.8721074715
 10
-15.5055897043
 20
-4.9210165035
 10
-15.4750673894
 20
-4.9683926166
 10
-15.4443743341
 20
-5.0143007466
 10
-15.4135315556
 20
-5.0588219853
 10
-15.3825571263
 20
-5.102028145
 10
-15.3515357627
 20
-5.1438899422
 10
-15.3205872302
 20
-5.1843397105
 10
-15.2897876408
 20
-5.2233748646
 10
-15.2591642947
 20
-5.2610539261
 10
-15.2287653809
 20
-5.2974052453
  0
LINE
  5
4B6
100
AcDbEntity
  8
RACCORDO
100
AcDbLine
 62
7
  6
CONTINUOUS
 10
-15.4328559887
 20
6.4922522643
 11
-16.8450297339
 21
6.2432479315
  0
LINE
  5
4B7
100
AcDbEntity
  8
RACCORDO
100
AcDbLine
 62
7
  6
CONTINUOUS
 10
5.0793177565
 20
6.2432479315
 11
3.6671440113
 21
6.4922522643
  0
LWPOLYLINE
  5
4B8
100
AcDbEntity
  8
RACCORDO
100
AcDbPolyline
 62
7
  6
CONTINUOUS
 90
12
 70
0
 10
4.9053109271
 20
0.5105744981
 10
4.905706238
 20
0.5102936106
 10
4.9061003944
 20
0.5093219967
 10
4.9064933964
 20
0.5076596563
 10
4.9068856187
 20
0.5053034121
 10
4.9072766866
 20
0.5022564414
 10
4.9076654753
 20
0.4985282765
 10
4.908052012
 20
0.4941162384
 10
4.9084362695
 20
0.4890230061
 10
4.9088170422
 20
0.4832661484
 10
4.909194254
 20
0.4768447817
 10
4.909567981
 20
0.4697597897
  0
LINE
  5
4B9
100
AcDbEntity
  8
RACCORDO
100
AcDbLine
 62
7
  6
CONTINUOUS
 10
-15.0944553992
 20
27.0016126117
 11
-15.6750249243
 21
28.4032314331
  0
LINE
  5
4BA
100
AcDbEntity
  8
DRAFT
100
AcDbLine
 62
7
  6
CONTINUOUS
 10
-14.6828559887
 20
29.6422522643
 11
-14.6105547425
 21
29.467701615
  0
LINE
  5
4BB
100
AcDbEntity
  8
DRAFT
100
AcDbLine
 62
7
  6
CONTINUOUS
 10
2.9171440113
 20
-12.0577477357
 11
2.844842765
 21
-11.8831970865
  0
LINE
  5
4BC
100
AcDbEntity
  8
0
100
AcDbLine
 62
7
  6
CONTINUOUS
 10
-4.317574282
 20
22.312560261
 11
-4.3173496382
 21
22.268225758
  0
LINE
  5
4BD
100
AcDbEntity
  8
DRAFT
100
AcDbLine
 62
7
  6
CONTINUOUS
 10
-5.5600793266
 20
9.1922522643
 11
-5.5600793266
 21
10.5378943297
  0
LINE
  5
4BE
100
AcDbEntity
  8
DRAFT
100
AcDbLine
 62
7
  6
CONTINUOUS
 10
-5.5181531031
 20
9.1922522643
 11
-5.5181531031
 21
10.5229661518
  0
LINE
  5
4BF
100
AcDbEntity
  8
DRAFT
100
AcDbLine
 62
7
  6
CONTINUOUS
 10
-5.4762268797
 20
9.1922522643
 11
-5.4762268797
 21
10.5051030574
  0
LINE
  5
4C0
100
AcDbEntity
  8
DRAFT
100
AcDbLine
 62
7
  6
CONTINUOUS
 10
-5.4666339195
 20
21.636354531
 11
-5.4666339195
 21
20.1481499975
  0
LINE
  5
4C1
100
AcDbEntity
  8
COPY-PUBBLISH
100
AcDbLine
 62
7
  6
CONTINUOUS
 10
-5.3828559887
 20
21.7934349126
 11
-5.3828559887
 21
19.9910696159
  0
LINE
  5
4C2
100
AcDbEntity
  8
0
100
AcDbLine
 62
7
  6
CONTINUOUS
 10
-5.1328559887
 20
19.6676707736
 11
-5.1328559887
 21
22.1168337549
  0
LINE
  5
4C3
100
AcDbEntity
  8
0
100
AcDbLine
 62
7
  6
CONTINUOUS
 10
-5.0328559887
 20
22.2111716319
 11
-5.0328559887
 21
20.6838637615
  0
LINE
  5
4C4
100
AcDbEntity
  8
RACCORDO
100
AcDbLine
 62
7
  6
CONTINUOUS
 10
-5.0328559887
 20
20.2672522643
 11
-5.0328559887
 21
20.6838637615
  0
LINE
  5
4C5
100
AcDbEntity
  8
0
100
AcDbLine
 62
250
  6
CONTINUOUS
 10
-4.8328559887
 20
22.3407070441
 11
-4.8328559887
 21
20.6838637615
  0
LINE
  5
4C6
100
AcDbEntity
  8
RACCORDO
100
AcDbLine
 62
7
  6
CONTINUOUS
 10
-4.185321911
 20
27.0016126117
 11
-4.185321911
 21
26.8291619626
  0
LINE
  5
4C7
100
AcDbEntity
  8
0
100
AcDbLine
 62
250
  6
CONTINUOUS
 10
-4.1327512771
 20
26.8817325964
 11
-4.1327512771
 21
27.3817506932
  0
LINE
  5
4C8
100
AcDbEntity
  8
RACCORDO
100
AcDbLine
 62
7
  6
CONTINUOUS
 10
-3.9328559887
 20
22.6414624853
 11
-3.9328559887
 21
22.415299888
  0
LWPOLYLINE
  5
4C9
100
AcDbEntity
  8
0
100
AcDbPolyline
 62
7
  6
CONTINUOUS
 90
19
 70
0
 10
-6.7328559887
 20
-3.099359233
 10
-6.733662421
 20
-3.1049000966
 10
-6.7360494781
 20
-3.1097964857
 10
-6.7399601
 20
-3.1140484001
 10
-6.7453191064
 20
-3.1176603388
 10
-6.7520532601
 20
-3.1206278029
 10
-6.7601095975
 20
-3.122937296
 10
-6.7694066466
 20
-3.1245847744
 10
-6.7798605436
 20
-3.1255742818
 10
-6.7914348523
 20
-3.1259044532
 10
-6.8040444173
 20
-3.1255743923
 10
-6.8175970916
 20
-3.1245849955
 10
-6.8320635073
 20
-3.122937586
 10
-6.8473531729
 20
-3.120628097
 10
-6.8633568988
 20
-3.1176605954
 10
-6.880023522
 20
-3.1140486057
 10
-6.8972577469
 20
-3.1097966362
 10
-6.9149135603
 20
-3.1049001786
 10
-6.9328559887
 20
-3.099359233
  0
LWPOLYLINE
  5
4CA
100
AcDbEntity
  8
ASSI
100
AcDbPolyline
 62
7
  6
CONTINUOUS
 90
17
 70
0
 10
-1.526923256
 20
32.543025689
 10
-1.5273501772
 20
32.5402337597
 10
-1.5284482883
 20
32.5367836816
 10
-1.5302345515
 20
32.5326754545
 10
-1.5327259747
 20
32.5279217388
 10
-1.5359368315
 20
32.5225098742
 10
-1.5398759616
 20
32.5164018799
 10
-1.5445519163
 20
32.5095933135
 10
-1.5499742248
 20
32.5020886174
 10
-1.5561481674
 20
32.4938631376
 10
-1.5630632956
 20
32.4849372569
 10
-1.5707352275
 20
32.4752905925
 10
-1.5792179633
 20
32.4648373423
 10
-1.5885320556
 20
32.4535732383
 10
-1.5986801108
 20
32.4415025485
 10
-1.6097052331
 20
32.4285522746
 10
-1.621618277
 20
32.4147218707
  0
LINE
  5
4CB
100
AcDbEntity
  8
0
100
AcDbLine
 62
7
  6
CONTINUOUS
 10
3.0170300782
 20
29.6922522643
 11
2.979581402
 21
29.5798148735
  0
LINE
  5
4CC
100
AcDbEntity
  8
RACCORDO
100
AcDbLine
 62
7
  6
CONTINUOUS
 10
3.3287434218
 20
27.0016126117
 11
3.9093129469
 21
28.4032314331
  0
LWPOLYLINE
  5
4CD
100
AcDbEntity
  8
RACCORDO
100
AcDbPolyline
 62
250
  6
CONTINUOUS
 90
79
 70
0
 10
3.4630534035
 20
18.9025947547
 10
3.4934441622
 20
18.9389362512
 10
3.5240632339
 20
18.9766096705
 10
3.5548622307
 20
19.0156435328
 10
3.585815531
 20
19.0560990476
 10
3.6168448154
 20
19.0979713515
 10
3.6478246521
 20
19.1411852126
 10
3.6786687891
 20
19.1857087139
 10
3.7093610795
 20
19.2316160114
 10
3.7398804453
 20
19.2789877967
 10
3.7701943185
 20
19.3278871379
 10
3.8002116666
 20
19.3782929354
 10
3.8298211951
 20
19.4301567991
 10
3.8590568317
 20
19.4836668921
 10
3.887751396
 20
19.5386654781
 10
3.9155283941
 20
19.594559657
 10
3.9422891725
 20
19.6511855692
 10
3.9680769868
 20
19.7086818909
 10
3.9927726585
 20
19.7668818947
 10
4.0164605499
 20
19.8260376759
 10
4.0390025459
 20
19.8858630874
 10
4.0600151784
 20
19.9453518043
 10
4.0794660581
 20
20.0042409077
 10
4.0974760987
 20
20.0627045852
 10
4.1139724393
 20
20.1203621546
 10
4.1289780825
 20
20.1770329114
 10
4.142596231
 20
20.2328106483
 10
4.15489041
 20
20.2877234684
 10
4.1659039094
 20
20.3416787763
 10
4.1757077589
 20
20.3947004917
 10
4.1843905374
 20
20.4469977691
 10
4.1919929514
 20
20.4985335219
 10
4.1985605665
 20
20.5492936856
 10
4.2041630931
 20
20.5995285621
 10
4.208828741
 20
20.6492078125
 10
4.2125881586
 20
20.6983227147
 10
4.2154867518
 20
20.7471606386
 10
4.217539491
 20
20.7956946666
 10
4.2187619166
 20
20.8439199369
 10
4.2191702886
 20
20.8921593433
 10
4.2187650639
 20
20.940398192
 10
4.217545836
 20
20.9886218947
 10
4.2154964152
 20
21.0371535062
 10
4.2126013312
 20
21.0859878199
 10
4.2088456397
 20
21.1350982759
 10
4.2041838758
 20
21.1847734587
 10
4.1985853477
 20
21.2350049453
 10
4.1920218518
 20
21.2857621055
 10
4.1844236222
 20
21.337295565
 10
4.1757451441
 20
21.3895908173
 10
4.1659456128
 20
21.4426112217
 10
4.1549360687
 20
21.4965675679
 10
4.1426450336
 20
21.5514851577
 10
4.1290293661
 20
21.6072699475
 10
4.1140261057
 20
21.663947442
 10
4.0975327848
 20
21.721609018
 10
4.0795257855
 20
21.7800764185
 10
4.0600763768
 20
21.838973604
 10
4.0390625657
 20
21.8984769241
 10
4.0165171968
 20
21.958321047
 10
3.9928243199
 20
22.0174973731
 10
3.9681212278
 20
22.0757212755
 10
3.9423240953
 20
22.1332431398
 10
3.915555302
 20
22.1898893688
 10
3.8877741017
 20
22.245794457
 10
3.8590774161
 20
22.300799075
 10
3.8298386219
 20
22.3543165396
 10
3.800222685
 20
22.4061927278
 10
3.7701976115
 20
22.456612
 10
3.7398777268
 20
22.505521032
 10
3.709355412
 20
22.5528971451
 10
3.6786623567
 20
22.5988052751
 10
3.6478195781
 20
22.6433265138
 10
3.6168451489
 20
22.6865326735
 10
3.5858237853
 20
22.7283944707
 10
3.5548752528
 20
22.768844239
 10
3.5240756634
 20
22.8078793931
 10
3.4934523172
 20
22.8455584546
 10
3.4630534035
 20
22.8819097738
  0
LINE
  5
4CE
100
AcDbEntity
  8
RACCORDO
100
AcDbLine
 62
7
  6
CONTINUOUS
 10
3.6671440113
 20
11.0922522643
 11
5.0793177565
 21
11.341256597
  0
LINE
  5
4CF
100
AcDbEntity
  8
DRAFT
100
AcDbLine
 62
7
  6
CONTINUOUS
 10
-6.7990235414
 20
9.1922522643
 11
-6.2056326509
 21
9.1922522643
  0
LINE
  5
4D0
100
AcDbEntity
  8
DRAFT
100
AcDbLine
 62
7
  6
CONTINUOUS
 10
-5.5600793266
 20
9.1922522643
 11
-4.9666884361
 21
9.1922522643
  0
LINE
  5
4D1
100
AcDbEntity
  8
RACCORDO
100
AcDbLine
 62
7
  6
CONTINUOUS
 10
-15.4328559887
 20
11.0922522643
 11
-16.8450297339
 21
11.341256597
  0
LWPOLYLINE
  5
4D2
100
AcDbEntity
  8
RACCORDO
100
AcDbPolyline
 62
7
  6
CONTINUOUS
 90
12
 70
0
 10
-16.6710229045
 20
17.0739300304
 10
-16.6714182154
 20
17.0742109179
 10
-16.6718123719
 20
17.0751825318
 10
-16.6722053738
 20
17.0768448722
 10
-16.6725975961
 20
17.0792011164
 10
-16.672988664
 20
17.0822480871
 10
-16.6733774527
 20
17.085976252
 10
-16.6737639894
 20
17.0903882901
 10
-16.6741482469
 20
17.0954815224
 10
-16.6745290197
 20
17.1012383801
 10
-16.6749062315
 20
17.1076597468
 10
-16.6752799584
 20
17.1147447388
  0
LINE
  5
4D3
100
AcDbEntity
  8
RACCORDO
100
AcDbLine
 62
7
  6
CONTINUOUS
 10
3.9093129469
 20
-10.8187269046
 11
3.3287434218
 21
-9.4171080832
  0
LINE
  5
4D4
100
AcDbEntity
  8
0
100
AcDbLine
 62
7
  6
CONTINUOUS
 10
2.979581402
 20
-11.995310345
 11
3.0170300782
 21
-12.1077477357
  0
LINE
  5
4D5
100
AcDbEntity
  8
RACCORDO
100
AcDbLine
 62
250
  6
CONTINUOUS
 10
-3.4828559887
 20
-11.2609255266
 11
-3.4828559887
 21
-11.0921346869
  0
LINE
  5
4D6
100
AcDbEntity
  8
RACCORDO
100
AcDbLine
 62
250
  6
CONTINUOUS
 10
-3.4828559887
 20
28.6766392154
 11
-3.4828559887
 21
28.8454300551
  0
LINE
  5
4D7
100
AcDbEntity
  8
0
100
AcDbLine
 62
7
  6
CONTINUOUS
 10
-3.1328559887
 20
19.3112009307
 11
-3.1328559887
 21
20.2672522643
  0
LINE
  5
4D8
100
AcDbEntity
  8
0
100
AcDbLine
 62
7
  6
CONTINUOUS
 10
-3.1328559887
 20
21.8837530907
 11
-3.1328559887
 21
22.4733035978
  0
LINE
  5
4D9
100
AcDbEntity
  8
0
100
AcDbLine
 62
7
  6
CONTINUOUS
 10
-2.8828559887
 20
22.328377794
 11
-2.8828559887
 21
21.8359101729
  0
LINE
  5
4DA
100
AcDbEntity
  8
0
100
AcDbLine
 62
7
  6
CONTINUOUS
 10
-2.8828559887
 20
20.2672522643
 11
-2.8828559887
 21
19.4561267345
  0
LINE
  5
4DB
100
AcDbEntity
  8
RACCORDO
100
AcDbLine
 62
7
  6
CONTINUOUS
 10
-2.8828559887
 20
-13.5457869744
 11
-2.8828559887
 21
-12.2077477357
  0
LINE
  5
4DC
100
AcDbEntity
  8
RACCORDO
100
AcDbLine
 62
7
  6
CONTINUOUS
 10
-2.8828559887
 20
29.7922522643
 11
-2.8828559887
 21
31.1302915029
  0
LINE
  5
4DD
100
AcDbEntity
  8
RACCORDO
100
AcDbLine
 62
7
  6
CONTINUOUS
 10
-2.4828559887
 20
-11.2560560847
 11
-2.4828559887
 21
-11.1077477357
  0
LINE
  5
4DE
100
AcDbEntity
  8
RACCORDO
100
AcDbLine
 62
7
  6
CONTINUOUS
 10
-2.4828559887
 20
28.6922522643
 11
-2.4828559887
 21
28.8405606132
  0
LINE
  5
4DF
100
AcDbEntity
  8
DRAFT
100
AcDbLine
 62
7
  6
CONTINUOUS
 10
-2.3828559887
 20
28.83675929
 11
-2.3828559887
 21
28.7922522643
  0
LINE
  5
4E0
100
AcDbEntity
  8
ASSI
100
AcDbLine
 62
7
  6
CONTINUOUS
 10
-2.3828559887
 20
-15.0019299059
 11
-2.3828559887
 21
-13.5416676309
  0
LINE
  5
4E1
100
AcDbEntity
  8
DRAFT
100
AcDbLine
 62
7
  6
CONTINUOUS
 10
-2.3828559887
 20
-11.2522547615
 11
-2.3828559887
 21
-11.2077477357
  0
LINE
  5
4E2
100
AcDbEntity
  8
ASSI
100
AcDbLine
 62
7
  6
CONTINUOUS
 10
-2.3828559887
 20
31.1261721594
 11
-2.3828559887
 21
32.5864344344
  0
LWPOLYLINE
  5
4E3
100
AcDbEntity
  8
RACCORDO
100
AcDbPolyline
 62
250
  6
CONTINUOUS
 90
3
 70
0
 10
-1.7312598092
 20
23.0905838499
 10
-1.7426098293
 20
22.9416596282
 10
-1.7441019742
 20
22.9225784712
  0
LINE
  5
4E4
100
AcDbEntity
  8
RACCORDO
100
AcDbLine
 62
7
  6
CONTINUOUS
 10
-7.2057570189
 20
-10.4169557784
 11
-7.2243178962
 21
-10.5048328811
  0
LINE
  5
4E5
100
AcDbEntity
  8
0
100
AcDbLine
 62
7
  6
CONTINUOUS
 10
3.7671440113
 20
28.941223318
 11
3.729923949
 21
28.8294723266
  0
LWPOLYLINE
  5
4E6
100
AcDbEntity
  8
0
100
AcDbPolyline
 62
7
  6
CONTINUOUS
 90
4
 70
0
 10
-7.9009583876
 20
-4.7705640072
 10
-7.9045640567
 20
-4.7783242902
 10
-7.905421958
 20
-4.7852660045
 10
-7.9052803369
 20
-4.7864481848
  0
LINE
  5
4E7
100
AcDbEntity
  8
0
100
AcDbLine
 62
250
  6
CONTINUOUS
 10
-13.5413940813
 20
-10.5048328811
 11
-13.1327893514
 21
-9.7972021036
  0
LWPOLYLINE
  5
4E8
100
AcDbEntity
  8
RACCORDO
100
AcDbPolyline
 62
250
  6
CONTINUOUS
 90
79
 70
0
 10
3.6909745406
 20
18.7092859237
 10
3.7166652153
 20
18.7491152101
 10
3.7424946179
 20
18.7904700497
 10
3.7684450229
 20
18.8333504427
 10
3.7945438437
 20
18.8777656789
 10
3.8207261126
 20
18.9237064683
 10
3.8468358985
 20
18.9711449417
 10
3.8728299009
 20
19.0200273866
 10
3.8987149374
 20
19.0704075155
 10
3.9244124837
 20
19.1224185961
 10
3.9499374888
 20
19.1761111109
 10
3.9752406781
 20
19.2314345775
 10
4.0001520335
 20
19.2883708167
 10
4.024736451
 20
19.3471303241
 10
4.0489041038
 20
19.407502604
 10
4.0722685127
 20
19.4688379897
 10
4.0947642607
 20
19.5309925677
 10
4.1164645987
 20
19.5941102515
 10
4.1372100488
 20
19.6579731155
 10
4.1570828971
 20
19.7228990352
 10
4.1760266618
 20
19.788570135
 10
4.1936942262
 20
19.8538148623
 10
4.2100168791
 20
19.9184128098
 10
4.2251243613
 20
19.9825843847
 10
4.2389826472
 20
20.0458192569
 10
4.2515775273
 20
20.1079648082
 10
4.2629845208
 20
20.1691736568
 10
4.2733026784
 20
20.229393327
 10
4.2825472101
 20
20.2885514012
 10
4.2907507686
 20
20.346720297
 10
4.2980318055
 20
20.4040647918
 10
4.3044129788
 20
20.4605645449
 10
4.3099043733
 20
20.516239897
 10
4.3145994241
 20
20.5713166476
 10
4.3185173946
 20
20.6257777558
 10
4.3216588599
 20
20.6796402626
 10
4.3240849035
 20
20.7331810904
 10
4.3258122475
 20
20.786385505
 10
4.326833361
 20
20.8392682406
 10
4.3271700462
 20
20.8921504224
 10
4.3268360114
 20
20.9450319894
 10
4.3258175541
 20
20.9979130028
 10
4.3240929949
 20
21.0511147703
 10
4.3216699264
 20
21.1046516398
 10
4.3185315793
 20
21.1585092635
 10
4.3146168301
 20
21.2129659061
 10
4.3099251305
 20
21.268038936
 10
4.3044372064
 20
21.3237109848
 10
4.2980595245
 20
21.3802082121
 10
4.2907821195
 20
21.4375504907
 10
4.2825822275
 20
21.4957179477
 10
4.2733409503
 20
21.5548771238
 10
4.2630253433
 20
21.6151019824
 10
4.2516204655
 20
21.6763185601
 10
4.2390276587
 20
21.7384715074
 10
4.2251720208
 20
21.8017108272
 10
4.2100671513
 20
21.8658865167
 10
4.193745589
 20
21.930493217
 10
4.1760769293
 20
21.9957538923
 10
4.1571304162
 20
22.0614455785
 10
4.1372534375
 20
22.1263940251
 10
4.1165016031
 20
22.1902829493
 10
4.094793392
 20
22.2534286338
 10
4.0722911221
 20
22.3156056763
 10
4.0489233848
 20
22.3769531999
 10
4.0247538933
 20
22.4373320814
 10
4.0001666698
 20
22.4960995499
 10
3.9752498116
 20
22.5530491851
 10
3.9499400922
 20
22.6083874073
 10
3.9244101685
 20
22.6620907051
 10
3.8987101917
 20
22.7141065855
 10
3.8728244264
 20
22.7644875416
 10
3.8468315921
 20
22.8133675415
 10
3.8207265514
 20
22.8607977894
 10
3.7945509733
 20
22.9067270811
 10
3.7684559611
 20
22.9511357729
 10
3.7425048409
 20
22.9940173168
 10
3.7166717926
 20
23.0353782608
 10
3.6909745406
 20
23.0752186048
  0
LINE
  5
4E9
100
AcDbEntity
  8
RACCORDO
100
AcDbLine
 62
250
  6
CONTINUOUS
 10
-10.5222175214
 20
-0.8958331975
 11
-10.7312598092
 21
-1.1094161501
  0
LINE
  5
4EA
100
AcDbEntity
  8
RACCORDO
100
AcDbLine
 62
7
  6
CONTINUOUS
 10
-15.4328559887
 20
10.0922522643
 11
-16.8450297339
 21
9.8432479315
  0
LINE
  5
4EB
100
AcDbEntity
  8
RACCORDO
100
AcDbLine
 62
7
  6
CONTINUOUS
 10
5.0793177565
 20
9.8432479315
 11
3.6671440113
 21
10.0922522643
  0
LWPOLYLINE
  5
4EC
100
AcDbEntity
  8
RACCORDO
100
AcDbPolyline
 62
7
  6
CONTINUOUS
 90
12
 70
0
 10
4.9923143418
 20
4.1259155475
 10
4.9927065056
 20
4.1256471055
 10
4.9930976019
 20
4.1247126032
 10
4.9934876306
 20
4.1231120408
 10
4.9938769552
 20
4.1208424059
 10
4.9942652121
 20
4.1179067109
 10
4.9946513112
 20
4.114313992
 10
4.9950352494
 20
4.1100621497
 10
4.9954170298
 20
4.1051532836
 10
4.9957955706
 20
4.0996027283
 10
4.9961708347
 20
4.0934091382
 10
4.9965428593
 20
4.0865738589
  0
LINE
  5
4ED
100
AcDbEntity
  8
0
100
AcDbLine
 62
7
  6
CONTINUOUS
 10
3.729923949
 20
-11.2449677981
 11
3.7671440113
 21
-11.3567187895
  0
LINE
  5
4EE
100
AcDbEntity
  8
0
100
AcDbLine
 62
250
  6
CONTINUOUS
 10
-3.8684225518
 20
22.3814325579
 11
-3.8647535898
 21
22.3550685357
  0
LINE
  5
4EF
100
AcDbEntity
  8
RACCORDO
100
AcDbLine
 62
250
  6
CONTINUOUS
 10
-1.7312598092
 20
18.6939206786
 11
-1.7441019741
 21
18.8619260574
  0
LINE
  5
4F0
100
AcDbEntity
  8
ASSI
100
AcDbLine
 62
250
  6
CONTINUOUS
 10
-1.526923256
 20
-14.9585211605
 11
-1.526923256
 21
-13.5416459026
  0
LINE
  5
4F1
100
AcDbEntity
  8
ASSI
100
AcDbLine
 62
250
  6
CONTINUOUS
 10
-1.526923256
 20
31.1261504311
 11
-1.526923256
 21
32.543025689
  0
LINE
  5
4F2
100
AcDbEntity
  8
DRAFT
100
AcDbLine
 62
7
  6
CONTINUOUS
 10
-1.4828559887
 20
-15.0077477357
 11
-1.4828559887
 21
-13.6077477357
  0
LINE
  5
4F3
100
AcDbEntity
  8
DRAFT
100
AcDbLine
 62
7
  6
CONTINUOUS
 10
-1.4828559887
 20
31.1922522643
 11
-1.4828559887
 21
32.5922522643
  0
LINE
  5
4F4
100
AcDbEntity
  8
DRAFT
100
AcDbLine
 62
7
  6
CONTINUOUS
 10
-0.2218768198
 20
-11.0187269046
 11
-0.2218768198
 21
-10.8187269046
  0
LINE
  5
4F5
100
AcDbEntity
  8
DRAFT
100
AcDbLine
 62
7
  6
CONTINUOUS
 10
-0.2218768198
 20
28.4032314331
 11
-0.2218768198
 21
28.6032314331
  0
LWPOLYLINE
  5
4F6
100
AcDbEntity
  8
RACCORDO
100
AcDbPolyline
 62
250
  6
CONTINUOUS
 90
3
 70
0
 10
-1.0344521682
 20
18.6939206786
 10
-1.0231021481
 20
18.8428449003
 10
-1.0216100033
 20
18.8619260573
  0
LWPOLYLINE
  5
4F7
100
AcDbEntity
  8
0
100
AcDbPolyline
 62
7
  6
CONTINUOUS
 90
4
 70
0
 10
1.0943820335
 20
22.3704265045
 10
1.0942937132
 20
22.3697548749
 10
1.0951296671
 20
22.362776231
 10
1.0990416124
 20
22.3550685357
  0
LINE
  5
4F8
100
AcDbEntity
  8
0
100
AcDbLine
 62
250
  6
CONTINUOUS
 10
1.1027129125
 20
22.3814493587
 11
1.0990416124
 21
22.3550685357
  0
LWPOLYLINE
  5
4F9
100
AcDbEntity
  8
RACCORDO
100
AcDbPolyline
 62
7
  6
CONTINUOUS
 90
10
 70
0
 10
3.7716358412
 20
17.2738275354
 10
3.7717876429
 20
17.274086755
 10
3.7719389326
 20
17.2749080205
 10
3.7720897102
 20
17.2762913319
 10
3.7722401372
 20
17.2782396509
 10
3.7723900522
 20
17.2807500158
 10
3.7725389712
 20
17.283813541
 10
3.7726869079
 20
17.2874327646
 10
3.7728338487
 20
17.2916051485
 10
3.7731231314
 20
17.3015606071
  0
LWPOLYLINE
  5
4FA
100
AcDbEntity
  8
RACCORDO
100
AcDbPolyline
 62
7
  6
CONTINUOUS
 90
5
 70
0
 10
-13.7737394624
 20
-12.9668642621
 10
-13.7502206063
 20
-12.930816696
 10
-13.7262360497
 20
-12.8943934996
 10
-13.7017857927
 20
-12.8576657199
 10
-13.6768105456
 20
-12.8207366202
  0
LWPOLYLINE
  5
4FB
100
AcDbEntity
  8
RACCORDO
100
AcDbPolyline
 62
250
  6
CONTINUOUS
 90
58
 70
0
 10
-10.0216101498
 20
-1.2774213909
 10
-10.0314737499
 20
-1.2876200663
 10
-10.0416358848
 20
-1.2975521619
 10
-10.0520896469
 20
-1.3072073044
 10
-10.0628316986
 20
-1.3165791782
 10
-10.0738520798
 20
-1.3256556375
 10
-10.0851331278
 20
-1.3344196169
 10
-10.0966662602
 20
-1.3428630556
 10
-10.1084428614
 20
-1.3509779871
 10
-10.1204430937
 20
-1.3587496284
 10
-10.1326565622
 20
-1.3661713254
 10
-10.1450739271
 20
-1.3732372777
 10
-10.1576754359
 20
-1.3799364194
 10
-10.1704476093
 20
-1.386262856
 10
-10.1833822404
 20
-1.3922136355
 10
-10.196466649
 20
-1.3977837255
 10
-10.2096864639
 20
-1.4029684474
 10
-10.2230336656
 20
-1.4077660202
 10
-10.2365051003
 20
-1.4121758441
 10
-10.2500901709
 20
-1.4161949142
 10
-10.2637771714
 20
-1.4198202436
 10
-10.2775615305
 20
-1.423050525
 10
-10.2914340056
 20
-1.4258833898
 10
-10.3053813391
 20
-1.4283160226
 10
-10.3193929832
 20
-1.4303462281
 10
-10.3334581084
 20
-1.4319722402
 10
-10.3475646308
 20
-1.433192632
 10
-10.3617000649
 20
-1.4340060601
 10
-10.3758527273
 20
-1.4344117833
 10
-10.3900111638
 20
-1.4344096401
 10
-10.4041632112
 20
-1.4339995242
 10
-10.4182973587
 20
-1.4331817562
 10
-10.4324020028
 20
-1.4319572908
 10
-10.4464648575
 20
-1.4303272355
 10
-10.4604736619
 20
-1.4282931186
 10
-10.4744178271
 20
-1.4258569318
 10
-10.4882875763
 20
-1.4230204805
 10
-10.5020695802
 20
-1.4197865348
 10
-10.5157547284
 20
-1.4161576615
 10
-10.5293393827
 20
-1.412134596
 10
-10.5428123608
 20
-1.4077199219
 10
-10.5561625298
 20
-1.4029169585
 10
-10.569385879
 20
-1.3977262954
 10
-10.5824749698
 20
-1.3921492431
 10
-10.59541484
 20
-1.3861909645
 10
-10.6081900489
 20
-1.3798576525
 10
-10.620791917
 20
-1.3731525389
 10
-10.6332077017
 20
-1.3660817074
 10
-10.6454165177
 20
-1.3586570183
 10
-10.6574086306
 20
-1.3508846657
 10
-10.6691744095
 20
-1.3427715644
 10
-10.6806943225
 20
-1.334332574
 10
-10.691959788
 20
-1.3255757103
 10
-10.7029627929
 20
-1.3165092005
 10
-10.7136862116
 20
-1.3071499795
 10
-10.724120181
 20
-1.2975101473
 10
-10.7342610857
 20
-1.2875969957
 10
-10.7441018947
 20
-1.2774214537
  0
LWPOLYLINE
  5
4FC
100
AcDbEntity
  8
RACCORDO
100
AcDbPolyline
 62
250
  6
CONTINUOUS
 90
58
 70
0
 10
-9.8048624474
 20
-1.4831806945
 10
-9.8206495787
 20
-1.4993573855
 10
-9.8368957286
 20
-1.5150841986
 10
-9.8536008972
 20
-1.5303611339
 10
-9.8707837905
 20
-1.5452074475
 10
-9.8884257024
 20
-1.5596038832
 10
-9.9064705147
 20
-1.5734926727
 10
-9.924919866
 20
-1.5868698426
 10
-9.9437721176
 20
-1.5997393663
 10
-9.9629662354
 20
-1.6120553965
 10
-9.9825034257
 20
-1.6238141815
 10
-10.0023824822
 20
-1.6350194731
 10
-10.0225387521
 20
-1.6456366794
 10
-10.0429691541
 20
-1.6556610652
 10
-10.0636767696
 20
-1.6650973657
 10
-10.0846061898
 20
-1.6739251957
 10
-10.1057525364
 20
-1.6821414173
 10
-10.1271206878
 20
-1.6897491683
 10
-10.1486698706
 20
-1.6967374767
 10
-10.1704008894
 20
-1.7031062988
 10
-10.1923129396
 20
-1.7088556782
 10
-10.2143628341
 20
-1.7139747746
 10
-10.2365539176
 20
-1.7184633166
 10
-10.2588828454
 20
-1.7223215755
 10
-10.2812963967
 20
-1.7255395246
 10
-10.3037957694
 20
-1.7281156159
 10
-10.3263797656
 20
-1.7300513973
 10
-10.3489915705
 20
-1.7313414866
 10
-10.3716310668
 20
-1.7319840578
 10
-10.3942983718
 20
-1.7319809369
 10
-10.4169370222
 20
-1.7313322181
 10
-10.439547011
 20
-1.7300361014
 10
-10.4621283452
 20
-1.728094387
 10
-10.4846245828
 20
-1.7255125697
 10
-10.5070342165
 20
-1.7222892379
 10
-10.5293587536
 20
-1.7184258033
 10
-10.5515462733
 20
-1.7139319953
 10
-10.5735933716
 20
-1.7088077303
 10
-10.5955034525
 20
-1.703053092
 10
-10.6172348079
 20
-1.6966780615
 10
-10.6387876119
 20
-1.6896823116
 10
-10.6601616905
 20
-1.6820661696
 10
-10.6813148126
 20
-1.6738405978
 10
-10.7022527805
 20
-1.6650017107
 10
-10.722969792
 20
-1.6555533939
 10
-10.7434062101
 20
-1.6455182669
 10
-10.7635641469
 20
-1.6348916386
 10
-10.7834414903
 20
-1.6236782001
 10
-10.8029722669
 20
-1.6119146437
 10
-10.8221544458
 20
-1.5995976215
 10
-10.840990058
 20
-1.5867304815
 10
-10.8594192235
 20
-1.5733599596
 10
-10.8774401136
 20
-1.5594823228
 10
-10.895054557
 20
-1.5451013041
 10
-10.9122081598
 20
-1.5302748384
 10
-10.9288827905
 20
-1.5150222373
 10
-10.9450965805
 20
-1.4993241893
 10
-10.9608495298
 20
-1.4831806942
  0
LINE
  5
4FD
100
AcDbEntity
  8
RACCORDO
100
AcDbLine
 62
250
  6
CONTINUOUS
 10
-10.9608495298
 20
-1.4831806942
 11
-10.744101974
 21
-1.277421529
  0
LWPOLYLINE
  5
4FE
100
AcDbEntity
  8
RACCORDO
100
AcDbPolyline
 62
250
  6
CONTINUOUS
 90
49
 70
0
 10
-10.2434944559
 20
-0.8958331976
 10
-10.2481840237
 20
-0.9002767216
 10
-10.2530023049
 20
-0.9045577693
 10
-10.2579492996
 20
-0.9086763408
 10
-10.2630304128
 20
-0.9126363497
 10
-10.2682402395
 20
-0.9164338823
 10
-10.2735625644
 20
-0.9200571976
 10
-10.2789977032
 20
-0.9235057273
 10
-10.2845453402
 20
-0.9267800397
 10
-10.2901883131
 20
-0.9298700983
 10
-10.2959268887
 20
-0.9327753287
 10
-10.3017608002
 20
-0.9354963053
 10
-10.307672086
 20
-0.9380247154
 10
-10.3136610137
 20
-0.940359981
 10
-10.3197273155
 20
-0.94250268
 10
-10.325852227
 20
-0.9444462332
 10
-10.3320359055
 20
-0.946190021
 10
-10.3382781936
 20
-0.9477346629
 10
-10.3445598542
 20
-0.9490754383
 10
-10.3508810177
 20
-0.9502117237
 10
-10.3572415537
 20
-0.9511441426
 10
-10.3636218329
 20
-0.9518698444
 10
-10.3700218893
 20
-0.9523881952
 10
-10.376441689
 20
-0.952699829
 10
-10.3828615011
 20
-0.9528037971
 10
-10.3892813481
 20
-0.952699466
 10
-10.3957012076
 20
-0.9523874691
 10
-10.4021012811
 20
-0.951868759
 10
-10.4084814988
 20
-0.9511427031
 10
-10.4148419306
 20
-0.9502099339
 10
-10.4211629874
 20
-0.9490733005
 10
-10.4274445701
 20
-0.9477321722
 10
-10.4336867777
 20
-0.9461871797
 10
-10.439870319
 20
-0.9444430641
 10
-10.4459949822
 20
-0.9424992255
 10
-10.4520609791
 20
-0.940356264
 10
-10.4580496532
 20
-0.9380207202
 10
-10.4639607937
 20
-0.9354919982
 10
-10.4697946115
 20
-0.932770694
 10
-10.4755330838
 20
-0.9298651359
 10
-10.4811759512
 20
-0.9267747283
 10
-10.486723473
 20
-0.9235000668
 10
-10.4921584043
 20
-0.9200512661
 10
-10.497480611
 20
-0.9164275709
 10
-10.5026902272
 20
-0.9126297366
 10
-10.5077704106
 20
-0.908670144
 10
-10.512715547
 20
-0.9045529201
 10
-10.5175312506
 20
-0.900273938
 10
-10.5222175214
 20
-0.8958331975
  0
LWPOLYLINE
  5
4FF
100
AcDbEntity
  8
RACCORDO
100
AcDbPolyline
 62
250
  6
CONTINUOUS
 90
49
 70
0
 10
-10.0344521701
 20
-1.1094161486
 10
-10.0461546546
 20
-1.1204087268
 10
-10.0582038319
 20
-1.1310196331
 10
-10.0705877775
 20
-1.1412382251
 10
-10.0832940796
 20
-1.1510540685
 10
-10.0963092513
 20
-1.1604571322
 10
-10.1096196064
 20
-1.1694375226
 10
-10.123211328
 20
-1.1779857189
 10
-10.137070276
 20
-1.1860932045
 10
-10.1511822858
 20
-1.1937517819
 10
-10.1655328175
 20
-1.2009533709
 10
-10.1801069066
 20
-1.2076908116
 10
-10.1948898167
 20
-1.2139573482
 10
-10.2098664261
 20
-1.2197463111
 10
-10.2250210192
 20
-1.2250519476
 10
-10.2403380556
 20
-1.2298688771
 10
-10.2558017064
 20
-1.2341918638
 10
-10.2713959054
 20
-1.2380167471
 10
-10.2871048397
 20
-1.2413397058
 10
-10.3029123226
 20
-1.2441570295
 10
-10.3188018888
 20
-1.2464660962
 10
-10.3347573755
 20
-1.248264609
 10
-10.3507622219
 20
-1.2495504089
 10
-10.3667998767
 20
-1.2503224725
 10
-10.3828542286
 20
-1.2505800639
 10
-10.3989087045
 20
-1.2503225941
 10
-10.4149466102
 20
-1.2495505991
 10
-10.4309516532
 20
-1.2482648899
 10
-10.446907188
 20
-1.2464664823
 10
-10.4627967393
 20
-1.2441574885
 10
-10.4786042365
 20
-1.2413402638
 10
-10.4943132808
 20
-1.2380173987
 10
-10.5099076007
 20
-1.2341925558
 10
-10.5253712652
 20
-1.229869657
 10
-10.540688072
 20
-1.2250529152
 10
-10.5558423087
 20
-1.2197474866
 10
-10.5708187215
 20
-1.2139587255
 10
-10.5856017174
 20
-1.2076923237
 10
-10.6001760213
 20
-1.2009548994
 10
-10.6145268204
 20
-1.193753279
 10
-10.6286392179
 20
-1.1860945845
 10
-10.6424985192
 20
-1.1779869316
 10
-10.656090222
 20
-1.1694388663
 10
-10.6693998165
 20
-1.1604592633
 10
-10.6824140032
 20
-1.1510571503
 10
-10.6951202562
 20
-1.1412414587
 10
-10.7075057087
 20
-1.1310215757
 10
-10.7195568109
 20
-1.1204089005
 10
-10.7312597443
 20
-1.1094160838
  0
LINE
  5
500
100
AcDbEntity
  8
RACCORDO
100
AcDbLine
 62
250
  6
CONTINUOUS
 10
-15.456686518
 20
-5.4907140763
 11
-15.2287653809
 21
-5.2974052453
  0
LINE
  5
501
100
AcDbEntity
  8
RACCORDO
100
AcDbLine
 62
7
  6
CONTINUOUS
 10
3.6671440113
 20
14.6922522643
 11
4.9923143418
 21
14.9259155475
  0
LINE
  5
502
100
AcDbEntity
  8
RACCORDO
100
AcDbLine
 62
7
  6
CONTINUOUS
 10
-15.4328559887
 20
14.6922522643
 11
-16.7580263192
 21
14.9259155475
  0
LWPOLYLINE
  5
503
100
AcDbEntity
  8
RACCORDO
100
AcDbPolyline
 62
7
  6
CONTINUOUS
 90
12
 70
0
 10
5.0793177565
 20
7.741256597
 10
5.0797181206
 20
7.7409825418
 10
5.0801173948
 20
7.7400284989
 10
5.080515579
 20
7.7383944683
 10
5.0809130444
 20
7.7360773749
 10
5.0813094199
 20
7.7330802939
 10
5.0817035924
 20
7.7294124505
 10
5.0820955589
 20
7.7250717014
 10
5.0824853223
 20
7.7200601898
 10
5.0828717785
 20
7.7143935713
 10
5.0832548895
 20
7.708070472
 10
5.0836346931
 20
7.7010922656
  0
LINE
  5
504
100
AcDbEntity
  8
RACCORDO
100
AcDbLine
 62
250
  6
CONTINUOUS
 10
-1.0344521682
 20
23.0905838499
 11
-1.0216100033
 21
22.9225784711
  0
LINE
  5
505
100
AcDbEntity
  8
DRAFT
100
AcDbLine
 62
7
  6
CONTINUOUS
 10
-0.1328559887
 20
-10.9077477357
 11
-0.1328559887
 21
-11.1077477357
  0
LINE
  5
506
100
AcDbEntity
  8
DRAFT
100
AcDbLine
 62
7
  6
CONTINUOUS
 10
-0.1328559887
 20
28.4922522643
 11
-0.1328559887
 21
28.6922522643
  0
LINE
  5
507
100
AcDbEntity
  8
0
100
AcDbLine
 62
7
  6
CONTINUOUS
 10
0.1171440113
 20
22.328377794
 11
0.1171440113
 21
21.8359083248
  0
LINE
  5
508
100
AcDbEntity
  8
0
100
AcDbLine
 62
7
  6
CONTINUOUS
 10
0.1171440113
 20
20.2672522643
 11
0.1171440113
 21
19.4561267345
  0
LINE
  5
509
100
AcDbEntity
  8
DRAFT
100
AcDbLine
 62
7
  6
CONTINUOUS
 10
0.365365326
 20
-11.1300786124
 11
0.365365326
 21
-10.9077477357
  0
LINE
  5
50A
100
AcDbEntity
  8
DRAFT
100
AcDbLine
 62
7
  6
CONTINUOUS
 10
0.365365326
 20
28.4922522643
 11
0.365365326
 21
28.7145831409
  0
LINE
  5
50B
100
AcDbEntity
  8
0
100
AcDbLine
 62
7
  6
CONTINUOUS
 10
0.3671440113
 20
19.3112009307
 11
0.3671440113
 21
20.2672522643
  0
LINE
  5
50C
100
AcDbEntity
  8
0
100
AcDbLine
 62
7
  6
CONTINUOUS
 10
0.3671440113
 20
21.8837526418
 11
0.3671440113
 21
22.4733035978
  0
LINE
  5
50D
100
AcDbEntity
  8
RACCORDO
100
AcDbLine
 62
7
  6
CONTINUOUS
 10
0.4753223094
 20
29.3751765475
 11
0.4753223094
 21
28.7492703811
  0
LINE
  5
50E
100
AcDbEntity
  8
RACCORDO
100
AcDbLine
 62
7
  6
CONTINUOUS
 10
0.4753223094
 20
-11.1647658526
 11
0.4753223094
 21
-11.790672019
  0
LINE
  5
50F
100
AcDbEntity
  8
RACCORDO
100
AcDbLine
 62
7
  6
CONTINUOUS
 10
1.1671440113
 20
22.415299888
 11
1.1671440113
 21
22.6414624853
  0
LINE
  5
510
100
AcDbEntity
  8
RACCORDO
100
AcDbLine
 62
7
  6
CONTINUOUS
 10
1.3589657132
 20
29.7882478099
 11
1.3589657132
 21
28.7492703811
  0
LINE
  5
511
100
AcDbEntity
  8
RACCORDO
100
AcDbLine
 62
7
  6
CONTINUOUS
 10
1.3589657132
 20
-11.1647658526
 11
1.3589657132
 21
-12.2037432814
  0
LINE
  5
512
100
AcDbEntity
  8
0
100
AcDbLine
 62
250
  6
CONTINUOUS
 10
1.3670392997
 20
26.8817325964
 11
1.3670392997
 21
27.3817508237
  0
LINE
  5
513
100
AcDbEntity
  8
RACCORDO
100
AcDbLine
 62
7
  6
CONTINUOUS
 10
1.4196099336
 20
27.0016126117
 11
1.4196099336
 21
26.8291619626
  0
LINE
  5
514
100
AcDbEntity
  8
RACCORDO
100
AcDbLine
 62
7
  6
CONTINUOUS
 10
1.4689226966
 20
28.7513407453
 11
1.4689226966
 21
28.4922522643
  0
LINE
  5
515
100
AcDbEntity
  8
RACCORDO
100
AcDbLine
 62
7
  6
CONTINUOUS
 10
1.4689226966
 20
-11.1668362168
 11
1.4689226966
 21
-10.9077477357
  0
LINE
  5
516
100
AcDbEntity
  8
DRAFT
100
AcDbLine
 62
7
  6
CONTINUOUS
 10
1.5171440113
 20
-11.9722179176
 11
1.5171440113
 21
-10.9077477357
  0
LINE
  5
517
100
AcDbEntity
  8
DRAFT
100
AcDbLine
 62
7
  6
CONTINUOUS
 10
1.5171440113
 20
28.4922522643
 11
1.5171440113
 21
29.5567224461
  0
LINE
  5
518
100
AcDbEntity
  8
DRAFT
100
AcDbLine
 62
7
  6
CONTINUOUS
 10
1.6061648424
 20
29.467701615
 11
1.6061648424
 21
28.4032314331
  0
LINE
  5
519
100
AcDbEntity
  8
DRAFT
100
AcDbLine
 62
7
  6
CONTINUOUS
 10
1.6061648424
 20
-10.8187269046
 11
1.6061648424
 21
-11.8831970865
  0
LINE
  5
51A
100
AcDbEntity
  8
0
100
AcDbLine
 62
7
  6
CONTINUOUS
 10
1.5518522814
 20
22.3112670965
 11
1.5516408373
 21
22.2682257171
  0
LWPOLYLINE
  5
51B
100
AcDbEntity
  8
ASSI
100
AcDbPolyline
 62
7
  6
CONTINUOUS
 90
17
 70
0
 10
-2.3828559887
 20
-14.9588900261
 10
-2.3825244441
 20
-14.9561783145
 10
-2.3815163579
 20
-14.9527967353
 10
-2.3798122395
 20
-14.9487452886
 10
-2.3773919026
 20
-14.9440370672
 10
-2.3742388225
 20
-14.9386589783
 10
-2.3703445655
 20
-14.932571743
 10
-2.3656989265
 20
-14.9257674974
 10
-2.3602919867
 20
-14.9182541053
 10
-2.3541247801
 20
-14.9100158791
 10
-2.347210305
 20
-14.901071994
 10
-2.3395338019
 20
-14.8914032748
 10
-2.3310487569
 20
-14.8809365082
 10
-2.321742895
 20
-14.8696741473
 10
-2.3116118112
 20
-14.857613739
 10
-2.3006037897
 20
-14.8446747104
 10
-2.2887054194
 20
-14.8308548468
  0
LWPOLYLINE
  5
51C
100
AcDbEntity
  8
RACCORDO
100
AcDbPolyline
 62
7
  6
CONTINUOUS
 90
10
 70
0
 10
3.8152021069
 20
13.6661456273
 10
3.815356158
 20
13.666408688
 10
3.8155096895
 20
13.6672421228
 10
3.8156627013
 20
13.6686459318
 10
3.8158153573
 20
13.6706231206
 10
3.8159674937
 20
13.6731706835
 10
3.8161186194
 20
13.6762796034
 10
3.8162687482
 20
13.6799524559
 10
3.8164178663
 20
13.6841866653
 10
3.8167114355
 20
13.6942896418
  0
LINE
  5
51D
100
AcDbEntity
  8
RACCORDO
100
AcDbLine
 62
7
  6
CONTINUOUS
 10
-12.2381507567
 20
-11.2906910574
 11
-12.1310773034
 21
-11.1300786124
  0
LWPOLYLINE
  5
51E
100
AcDbEntity
  8
RACCORDO
100
AcDbPolyline
 62
7
  6
CONTINUOUS
 90
3
 70
0
 10
-13.6768105456
 20
-12.8207366202
 10
-13.6256408189
 20
-12.7463379804
 10
-13.5996324871
 20
-12.7088860002
  0
LINE
  5
51F
100
AcDbEntity
  8
RACCORDO
100
AcDbLine
 62
7
  6
CONTINUOUS
 10
-13.5996324871
 20
-12.7088860002
 11
-13.5203906095
 21
-12.595931623
  0
LINE
  5
520
100
AcDbEntity
  8
RACCORDO
100
AcDbLine
 62
7
  6
CONTINUOUS
 10
-13.5203906095
 20
-12.595931623
 11
-13.4669567079
 21
-12.5204409795
  0
LWPOLYLINE
  5
521
100
AcDbEntity
  8
RACCORDO
100
AcDbPolyline
 62
250
  6
CONTINUOUS
 90
58
 70
0
 10
-10.7441018277
 20
-5.3380740806
 10
-10.7342382275
 20
-5.3278754052
 10
-10.7240760927
 20
-5.3179433096
 10
-10.7136223305
 20
-5.3082881671
 10
-10.7028802788
 20
-5.2989162933
 10
-10.6918598977
 20
-5.289839834
 10
-10.6805788496
 20
-5.2810758546
 10
-10.6690457173
 20
-5.2726324159
 10
-10.657269116
 20
-5.2645174844
 10
-10.6452688838
 20
-5.256745843
 10
-10.6330554152
 20
-5.2493241461
 10
-10.6206380504
 20
-5.2422581938
 10
-10.6080365415
 20
-5.2355590521
 10
-10.5952643681
 20
-5.2292326155
 10
-10.5823297371
 20
-5.223281836
 10
-10.5692453284
 20
-5.217711746
 10
-10.5560255135
 20
-5.2125270241
 10
-10.5426783119
 20
-5.2077294513
 10
-10.5292068771
 20
-5.2033196274
 10
-10.5156218065
 20
-5.1993005573
 10
-10.501934806
 20
-5.1956752279
 10
-10.4881504469
 20
-5.1924449465
 10
-10.4742779719
 20
-5.1896120816
 10
-10.4603306384
 20
-5.1871794489
 10
-10.4463189942
 20
-5.1851492434
 10
-10.432253869
 20
-5.1835232313
 10
-10.4181473466
 20
-5.1823028395
 10
-10.4040119125
 20
-5.1814894114
 10
-10.3898592502
 20
-5.1810836882
 10
-10.3757008137
 20
-5.1810858314
 10
-10.3615487662
 20
-5.1814959473
 10
-10.3474146188
 20
-5.1823137153
 10
-10.3333099746
 20
-5.1835381807
 10
-10.3192471199
 20
-5.185168236
 10
-10.3052383155
 20
-5.1872023529
 10
-10.2912941504
 20
-5.1896385397
 10
-10.2774244011
 20
-5.192474991
 10
-10.2636423972
 20
-5.1957089367
 10
-10.249957249
 20
-5.19933781
 10
-10.2363725948
 20
-5.2033608755
 10
-10.2228996166
 20
-5.2077755496
 10
-10.2095494477
 20
-5.212578513
 10
-10.1963260985
 20
-5.2177691761
 10
-10.1832370077
 20
-5.2233462284
 10
-10.1702971374
 20
-5.229304507
 10
-10.1575219285
 20
-5.235637819
 10
-10.1449200604
 20
-5.2423429326
 10
-10.1325042757
 20
-5.2494137641
 10
-10.1202954597
 20
-5.2568384532
 10
-10.1083033469
 20
-5.2646108058
 10
-10.0965375679
 20
-5.2727239071
 10
-10.0850176549
 20
-5.2811628975
 10
-10.0737521894
 20
-5.2899197611
 10
-10.0627491846
 20
-5.298986271
 10
-10.0520257658
 20
-5.308345492
 10
-10.0415917964
 20
-5.3179853242
 10
-10.0314508917
 20
-5.3278984758
 10
-10.0216100828
 20
-5.3380740178
  0
LWPOLYLINE
  5
522
100
AcDbEntity
  8
RACCORDO
100
AcDbPolyline
 62
250
  6
CONTINUOUS
 90
58
 70
0
 10
-10.96084953
 20
-5.132314777
 10
-10.9450623987
 20
-5.116138086
 10
-10.9288162488
 20
-5.1004112729
 10
-10.9121110803
 20
-5.0851343376
 10
-10.8949281869
 20
-5.070288024
 10
-10.877286275
 20
-5.0558915883
 10
-10.8592414627
 20
-5.0420027988
 10
-10.8407921114
 20
-5.0286256289
 10
-10.8219398598
 20
-5.0157561052
 10
-10.802745742
 20
-5.003440075
 10
-10.7832085517
 20
-4.99168129
 10
-10.7633294952
 20
-4.9804759984
 10
-10.7431732253
 20
-4.9698587921
 10
-10.7227428233
 20
-4.9598344063
 10
-10.7020352079
 20
-4.9503981058
 10
-10.6811057876
 20
-4.9415702758
 10
-10.659959441
 20
-4.9333540542
 10
-10.6385912896
 20
-4.9257463032
 10
-10.6170421068
 20
-4.9187579947
 10
-10.5953110881
 20
-4.9123891727
 10
-10.5733990379
 20
-4.9066397933
 10
-10.5513491433
 20
-4.9015206969
 10
-10.5291580599
 20
-4.8970321549
 10
-10.506829132
 20
-4.893173896
 10
-10.4844155808
 20
-4.8899559469
 10
-10.461916208
 20
-4.8873798556
 10
-10.4393322118
 20
-4.8854440742
 10
-10.4167204069
 20
-4.8841539849
 10
-10.3940809106
 20
-4.8835114137
 10
-10.3714136057
 20
-4.8835145346
 10
-10.3487749553
 20
-4.8841632534
 10
-10.3261649664
 20
-4.8854593701
 10
-10.3035836322
 20
-4.8874010845
 10
-10.2810873946
 20
-4.8899829018
 10
-10.2586777609
 20
-4.8932062336
 10
-10.2363532238
 20
-4.8970696682
 10
-10.2141657041
 20
-4.9015634762
 10
-10.1921186059
 20
-4.9066877412
 10
-10.1702085249
 20
-4.9124423795
 10
-10.1484771695
 20
-4.91881741
 10
-10.1269243655
 20
-4.9258131599
 10
-10.105550287
 20
-4.9334293019
 10
-10.0843971648
 20
-4.9416548737
 10
-10.0634591969
 20
-4.9504937608
 10
-10.0427421854
 20
-4.9599420776
 10
-10.0223057673
 20
-4.9699772046
 10
-10.0021478305
 20
-4.9806038329
 10
-9.9822704872
 20
-4.9918172714
 10
-9.9627397105
 20
-5.0035808278
 10
-9.9435575316
 20
-5.01589785
 10
-9.9247219194
 20
-5.02876499
 10
-9.9062927539
 20
-5.0421355119
 10
-9.8882718638
 20
-5.0560131487
 10
-9.8706574204
 20
-5.0703941674
 10
-9.8535038177
 20
-5.0852206331
 10
-9.836829187
 20
-5.1004732342
 10
-9.820615397
 20
-5.1161712822
 10
-9.8048624477
 20
-5.1323147773
  0
LINE
  5
523
100
AcDbEntity
  8
RACCORDO
100
AcDbLine
 62
250
  6
CONTINUOUS
 10
-10.243494456
 20
-5.719662274
 11
-10.0344521682
 21
-5.5060793214
  0
LINE
  5
524
100
AcDbEntity
  8
RACCORDO
100
AcDbLine
 62
250
  6
CONTINUOUS
 10
-15.8708369937
 20
-10.0547246596
 11
-15.1638379083
 21
-9.3477255742
  0
LINE
  5
525
100
AcDbEntity
  8
RACCORDO
100
AcDbLine
 62
250
  6
CONTINUOUS
 10
-9.8048624477
 20
-5.1323147773
 11
-10.0216100034
 21
-5.3380739425
  0
LWPOLYLINE
  5
526
100
AcDbEntity
  8
RACCORDO
100
AcDbPolyline
 62
250
  6
CONTINUOUS
 90
49
 70
0
 10
-10.5222175215
 20
-5.7196622739
 10
-10.5175279537
 20
-5.7152187499
 10
-10.5127096725
 20
-5.7109377022
 10
-10.5077626778
 20
-5.7068191307
 10
-10.5026815646
 20
-5.7028591218
 10
-10.4974717379
 20
-5.6990615892
 10
-10.492149413
 20
-5.6954382739
 10
-10.4867142742
 20
-5.6919897442
 10
-10.4811666373
 20
-5.6887154318
 10
-10.4755236643
 20
-5.6856253732
 10
-10.4697850887
 20
-5.6827201428
 10
-10.4639511772
 20
-5.6799991662
 10
-10.4580398914
 20
-5.6774707561
 10
-10.4520509638
 20
-5.6751354905
 10
-10.4459846619
 20
-5.6729927915
 10
-10.4398597505
 20
-5.6710492383
 10
-10.4336760719
 20
-5.6693054505
 10
-10.4274337838
 20
-5.6677608086
 10
-10.4211521233
 20
-5.6664200332
 10
-10.4148309597
 20
-5.6652837478
 10
-10.4084704237
 20
-5.6643513289
 10
-10.4020901445
 20
-5.6636256271
 10
-10.3956900881
 20
-5.6631072763
 10
-10.3892702884
 20
-5.6627956425
 10
-10.3828504764
 20
-5.6626916743
 10
-10.3764306293
 20
-5.6627960055
 10
-10.3700107698
 20
-5.6631080024
 10
-10.3636106963
 20
-5.6636267125
 10
-10.3572304786
 20
-5.6643527684
 10
-10.3508700468
 20
-5.6652855376
 10
-10.34454899
 20
-5.666422171
 10
-10.3382674074
 20
-5.6677632993
 10
-10.3320251997
 20
-5.6693082918
 10
-10.3258416584
 20
-5.6710524074
 10
-10.3197169952
 20
-5.672996246
 10
-10.3136509984
 20
-5.6751392075
 10
-10.3076623242
 20
-5.6774747513
 10
-10.3017511837
 20
-5.6800034733
 10
-10.2959173659
 20
-5.6827247775
 10
-10.2901788936
 20
-5.6856303356
 10
-10.2845360262
 20
-5.6887207432
 10
-10.2789885044
 20
-5.6919954047
 10
-10.2735535731
 20
-5.6954442054
 10
-10.2682313664
 20
-5.6990679006
 10
-10.2630217502
 20
-5.7028657349
 10
-10.2579415669
 20
-5.7068253275
 10
-10.2529964304
 20
-5.7109425514
 10
-10.2481807268
 20
-5.7152215335
 10
-10.243494456
 20
-5.719662274
  0
LWPOLYLINE
  5
527
100
AcDbEntity
  8
RACCORDO
100
AcDbPolyline
 62
250
  6
CONTINUOUS
 90
49
 70
0
 10
-10.7312598073
 20
-5.5060793229
 10
-10.7195573228
 20
-5.4950867447
 10
-10.7075081456
 20
-5.4844758384
 10
-10.6951242
 20
-5.4742572464
 10
-10.6824178979
 20
-5.464441403
 10
-10.6694027261
 20
-5.4550383393
 10
-10.6560923711
 20
-5.4460579489
 10
-10.6425006495
 20
-5.4375097526
 10
-10.6286417015
 20
-5.429402267
 10
-10.6145296917
 20
-5.4217436896
 10
-10.60017916
 20
-5.4145421006
 10
-10.5856050708
 20
-5.4078046599
 10
-10.5708221607
 20
-5.4015381233
 10
-10.5558455514
 20
-5.3957491604
 10
-10.5406909583
 20
-5.3904435239
 10
-10.5253739218
 20
-5.3856265944
 10
-10.509910271
 20
-5.3813036077
 10
-10.494316072
 20
-5.3774787244
 10
-10.4786071378
 20
-5.3741557657
 10
-10.4627996549
 20
-5.371338442
 10
-10.4469100886
 20
-5.3690293753
 10
-10.430954602
 20
-5.3672308625
 10
-10.4149497556
 20
-5.3659450626
 10
-10.3989121007
 20
-5.365172999
 10
-10.3828577488
 20
-5.3649154076
 10
-10.366803273
 20
-5.3651728774
 10
-10.3507653672
 20
-5.3659448724
 10
-10.3347603243
 20
-5.3672305816
 10
-10.3188047895
 20
-5.3690289892
 10
-10.3029152381
 20
-5.371337983
 10
-10.2871077409
 20
-5.3741552077
 10
-10.2713986966
 20
-5.3774780728
 10
-10.2558043767
 20
-5.3813029157
 10
-10.2403407122
 20
-5.3856258145
 10
-10.2250239054
 20
-5.3904425563
 10
-10.2098696687
 20
-5.3957479849
 10
-10.1948932559
 20
-5.401536746
 10
-10.18011026
 20
-5.4078031478
 10
-10.1655359561
 20
-5.4145405721
 10
-10.151185157
 20
-5.4217421925
 10
-10.1370727596
 20
-5.429400887
 10
-10.1232134582
 20
-5.4375085399
 10
-10.1096217555
 20
-5.4460566052
 10
-10.0963121609
 20
-5.4550362082
 10
-10.0832979743
 20
-5.4644383212
 10
-10.0705917212
 20
-5.4742540128
 10
-10.0582062688
 20
-5.4844738958
 10
-10.0461551665
 20
-5.495086571
 10
-10.0344522331
 20
-5.5060793877
  0
LINE
  5
528
100
AcDbEntity
  8
RACCORDO
100
AcDbLine
 62
7
  6
CONTINUOUS
 10
-15.4328559887
 20
13.6922522643
 11
-16.7580263192
 21
13.458588981
  0
LINE
  5
529
100
AcDbEntity
  8
RACCORDO
100
AcDbLine
 62
7
  6
CONTINUOUS
 10
4.9923143418
 20
13.458588981
 11
3.6671440113
 21
13.6922522643
  0
LINE
  5
52A
100
AcDbEntity
  8
RACCORDO
100
AcDbLine
 62
250
  6
CONTINUOUS
 10
-15.8708369937
 20
27.6392291881
 11
-15.1638379083
 21
26.9322301027
  0
LINE
  5
52B
100
AcDbEntity
  8
RACCORDO
100
AcDbLine
 62
7
  6
CONTINUOUS
 10
-13.4669567079
 20
30.104945508
 11
-13.5203906095
 21
30.1804361515
  0
LINE
  5
52C
100
AcDbEntity
  8
RACCORDO
100
AcDbLine
 62
7
  6
CONTINUOUS
 10
-13.5203906095
 20
30.1804361515
 11
-13.5996324871
 21
30.2933905287
  0
LWPOLYLINE
  5
52D
100
AcDbEntity
  8
RACCORDO
100
AcDbPolyline
 62
7
  6
CONTINUOUS
 90
7
 70
0
 10
-13.5996324871
 20
30.2933905287
 10
-13.651369598
 20
30.368144881
 10
-13.6768105456
 20
30.4052411487
 10
-13.7017857927
 20
30.4421702484
 10
-13.7262360497
 20
30.4788980281
 10
-13.7502206063
 20
30.5153212245
 10
-13.7737394624
 20
30.5513687906
  0
LINE
  5
52E
100
AcDbEntity
  8
RACCORDO
100
AcDbLine
 62
7
  6
CONTINUOUS
 10
-12.2381507567
 20
28.8751955859
 11
-12.1310773034
 21
28.7145831409
  0
LWPOLYLINE
  5
52F
100
AcDbEntity
  8
0
100
AcDbPolyline
 62
7
  6
CONTINUOUS
 90
20
 70
0
 10
-3.8604316406
 20
22.3709527133
 10
-3.8621746078
 20
22.3757761601
 10
-3.86695651
 20
22.3806889289
 10
-3.8744749594
 20
22.3845025561
 10
-3.8842535058
 20
22.3873594508
 10
-3.896024772
 20
22.3892738872
 10
-3.9100568988
 20
22.3901807641
 10
-3.9266771022
 20
22.3900955893
 10
-3.9462863532
 20
22.3889655895
 10
-3.9684866737
 20
22.3867784406
 10
-3.9924077197
 20
22.3836393173
 10
-4.0175968251
 20
22.3796524642
 10
-4.0445126953
 20
22.3748015033
 10
-4.0736525728
 20
22.3690386541
 10
-4.1052257675
 20
22.3623521615
 10
-4.1390289099
 20
22.3547945347
 10
-4.1749394896
 20
22.3464084733
 10
-4.21291639
 20
22.3372375623
 10
-4.253000838
 20
22.3273130063
 10
-4.2951914385
 20
22.3166682599
  0
LWPOLYLINE
  5
530
100
AcDbEntity
  8
RACCORDO
100
AcDbPolyline
 62
7
  6
CONTINUOUS
 90
9
 70
0
 10
3.7728338487
 20
0.29289938
 10
3.7726869079
 20
0.2970717639
 10
3.7725389712
 20
0.3006909875
 10
3.7723900522
 20
0.3037545127
 10
3.7722401372
 20
0.3062648776
 10
3.7720897102
 20
0.3082131966
 10
3.7719389326
 20
0.309596508
 10
3.7717876429
 20
0.3104177735
 10
3.7716358412
 20
0.3106769931
  0
LWPOLYLINE
  5
531
100
AcDbEntity
  8
RACCORDO
100
AcDbPolyline
 62
250
  6
CONTINUOUS
 90
31
 70
0
 10
2.3715158453
 20
32.6365898315
 10
2.371895177
 20
32.625279681
 10
2.372956159
 20
32.6140004162
 10
2.3746958938
 20
32.6027828383
 10
2.3771096308
 20
32.5916575802
 10
2.3801907783
 20
32.5806550227
 10
2.3839309226
 20
32.5698052114
 10
2.38831985
 20
32.559137775
 10
2.3933455753
 20
32.5486818439
 10
2.3989943743
 20
32.5384659711
 10
2.4052508212
 20
32.5285180541
 10
2.4120978312
 20
32.5188652584
 10
2.4195167063
 20
32.5095339439
 10
2.4274871872
 20
32.5005495925
 10
2.4359875082
 20
32.4919367384
 10
2.4449944567
 20
32.4837189017
 10
2.4544834367
 20
32.4759185234
 10
2.4644285356
 20
32.4685569049
 10
2.4748025955
 20
32.4616541491
 10
2.485577287
 20
32.4552291061
 10
2.4967231867
 20
32.4492993212
 10
2.5082098575
 20
32.4438809875
 10
2.5200059317
 20
32.4389889013
 10
2.5320791966
 20
32.4346364219
 10
2.5443966827
 20
32.4308354349
 10
2.5569247536
 20
32.4275963201
 10
2.5696291977
 20
32.4249279229
 10
2.5824753218
 20
32.42283753
 10
2.5954280458
 20
32.4213308499
 10
2.6084519986
 20
32.4204119971
 10
2.6215116145
 20
32.4200834806
  0
LINE
  5
532
100
AcDbEntity
  8
RACCORDO
100
AcDbLine
 62
250
  6
CONTINUOUS
 10
2.3715158453
 20
-15.052085303
 11
2.3671440113
 21
-14.618232884
  0
LINE
  5
533
100
AcDbEntity
  8
RACCORDO
100
AcDbLine
 62
250
  6
CONTINUOUS
 10
2.6215116145
 20
-14.8355789521
 11
2.6164210134
 21
-14.3303974666
  0
LINE
  5
534
100
AcDbEntity
  8
RACCORDO
100
AcDbLine
 62
250
  6
CONTINUOUS
 10
1.7012447304
 20
-12.5204409795
 11
1.7012447304
 21
-12.2037432814
  0
LINE
  5
535
100
AcDbEntity
  8
RACCORDO
100
AcDbLine
 62
250
  6
CONTINUOUS
 10
1.7012447304
 20
29.7882478099
 11
1.7012447304
 21
30.104945508
  0
LINE
  5
536
100
AcDbEntity
  8
0
100
AcDbLine
 62
250
  6
CONTINUOUS
 10
2.0671440113
 20
22.3407070441
 11
2.0671440113
 21
20.6838637615
  0
LINE
  5
537
100
AcDbEntity
  8
RACCORDO
100
AcDbLine
 62
250
  6
CONTINUOUS
 10
2.201168578
 20
-12.773723169
 11
2.201168578
 21
-12.199456
  0
LINE
  5
538
100
AcDbEntity
  8
RACCORDO
100
AcDbLine
 62
250
  6
CONTINUOUS
 10
2.201168578
 20
29.7839605285
 11
2.201168578
 21
30.3582276975
  0
LINE
  5
539
100
AcDbEntity
  8
0
100
AcDbLine
 62
7
  6
CONTINUOUS
 10
2.2671440113
 20
22.2111716319
 11
2.2671440113
 21
20.6838637615
  0
LINE
  5
53A
100
AcDbEntity
  8
RACCORDO
100
AcDbLine
 62
7
  6
CONTINUOUS
 10
2.2671440113
 20
20.2672522643
 11
2.2671440113
 21
20.6838637615
  0
LINE
  5
53B
100
AcDbEntity
  8
DRAFT
100
AcDbLine
 62
7
  6
CONTINUOUS
 10
2.3671440113
 20
30.1922522643
 11
2.3671440113
 21
29.6922522643
  0
LINE
  5
53C
100
AcDbEntity
  8
0
100
AcDbLine
 62
7
  6
CONTINUOUS
 10
2.3671440113
 20
22.1168337549
 11
2.3671440113
 21
19.6676707736
  0
LINE
  5
53D
100
AcDbEntity
  8
DRAFT
100
AcDbLine
 62
7
  6
CONTINUOUS
 10
2.3671440113
 20
-12.1077477357
 11
2.3671440113
 21
-12.6077477357
  0
LINE
  5
53E
100
AcDbEntity
  8
RACCORDO
100
AcDbLine
 62
7
  6
CONTINUOUS
 10
2.3671440113
 20
-15.4577519665
 11
2.3671440113
 21
-13.6077477357
  0
LINE
  5
53F
100
AcDbEntity
  8
RACCORDO
100
AcDbLine
 62
7
  6
CONTINUOUS
 10
2.3671440113
 20
31.1922522643
 11
2.3671440113
 21
33.042256495
  0
LINE
  5
540
100
AcDbEntity
  8
RACCORDO
100
AcDbLine
 62
250
  6
CONTINUOUS
 10
2.3715158453
 20
33.037884661
 11
2.3715158453
 21
32.6365898315
  0
LINE
  5
541
100
AcDbEntity
  8
RACCORDO
100
AcDbLine
 62
250
  6
CONTINUOUS
 10
2.3715158453
 20
-15.052085303
 11
2.3715158453
 21
-15.4533801325
  0
LINE
  5
542
100
AcDbEntity
  8
COPY-PUBBLISH
100
AcDbLine
 62
7
  6
CONTINUOUS
 10
2.6171440113
 20
19.9910696159
 11
2.6171440113
 21
21.7934349126
  0
LINE
  5
543
100
AcDbEntity
  8
RACCORDO
100
AcDbLine
 62
250
  6
CONTINUOUS
 10
2.6215116145
 20
-15.7033759017
 11
2.6215116145
 21
-14.8355789521
  0
LINE
  5
544
100
AcDbEntity
  8
RACCORDO
100
AcDbLine
 62
250
  6
CONTINUOUS
 10
2.6215116145
 20
32.4200834806
 11
2.6215116145
 21
33.2878804302
  0
LINE
  5
545
100
AcDbEntity
  8
DRAFT
100
AcDbLine
 62
7
  6
CONTINUOUS
 10
2.7009219421
 20
20.1481499975
 11
2.7009219421
 21
21.636354531
  0
LINE
  5
546
100
AcDbEntity
  8
RACCORDO
100
AcDbLine
 62
250
  6
CONTINUOUS
 10
2.3671440113
 20
32.2027374125
 11
2.3715158453
 21
32.6365898315
  0
LINE
  5
547
100
AcDbEntity
  8
RACCORDO
100
AcDbLine
 62
250
  6
CONTINUOUS
 10
2.6164210134
 20
31.9149019951
 11
2.6215116145
 21
32.4200834806
  0
LWPOLYLINE
  5
548
100
AcDbEntity
  8
RACCORDO
100
AcDbPolyline
 62
7
  6
CONTINUOUS
 90
34
 70
0
 10
2.3671440113
 20
33.042256495
 10
2.3674271615
 20
33.0541517803
 10
2.368275977
 20
33.0660201198
 10
2.3696885371
 20
33.0778346304
 10
2.3716616436
 20
33.0895685517
 10
2.3741908296
 20
33.1011953031
 10
2.3772703696
 20
33.1126885433
 10
2.3808932899
 20
33.124022238
 10
2.3850513855
 20
33.1351707135
 10
2.3897352391
 20
33.1461087106
 10
2.3949342425
 20
33.1568114518
 10
2.4006366196
 20
33.1672546925
 10
2.4068294532
 20
33.1774147702
 10
2.4134987158
 20
33.1872686694
 10
2.4206293006
 20
33.1967940681
 10
2.4282050524
 20
33.2059693833
 10
2.4362088108
 20
33.2147738303
 10
2.4446224452
 20
33.2231874647
 10
2.4534268922
 20
33.2311912231
 10
2.4626022074
 20
33.238766975
 10
2.4721276062
 20
33.2458975597
 10
2.4819815054
 20
33.2525668224
 10
2.492141583
 20
33.2587596559
 10
2.5025848237
 20
33.2644620331
 10
2.513287565
 20
33.2696610364
 10
2.524225562
 20
33.27434489
 10
2.5353740375
 20
33.2785029856
 10
2.5467077323
 20
33.282125906
 10
2.5582009725
 20
33.285205446
 10
2.5698277238
 20
33.287734632
 10
2.5815616451
 20
33.2897077384
 10
2.5933761557
 20
33.2911202985
 10
2.6052444953
 20
33.291969114
 10
2.6171397805
 20
33.2922522643
  0
LWPOLYLINE
  5
549
100
AcDbEntity
  8
RACCORDO
100
AcDbPolyline
 62
250
  6
CONTINUOUS
 90
31
 70
0
 10
2.3715158453
 20
33.037884661
 10
2.3718590343
 20
33.0509710152
 10
2.3728867773
 20
33.0640215135
 10
2.3745962604
 20
33.0770003709
 10
2.3769828031
 20
33.0898720106
 10
2.3800398643
 20
33.1026011245
 10
2.3837590538
 20
33.1151527719
 10
2.3881301689
 20
33.1274925281
 10
2.3931412243
 20
33.1395865653
 10
2.3987784726
 20
33.1514017109
 10
2.4050264518
 20
33.1629055667
 10
2.4118680276
 20
33.1740665927
 10
2.4192844344
 20
33.184854183
 10
2.4272553426
 20
33.1952387723
 10
2.4357588841
 20
33.2051918757
 10
2.4447717033
 20
33.2146861688
 10
2.4542690377
 20
33.2236955907
 10
2.4642248749
 20
33.2321954876
 10
2.4746120007
 20
33.2401626298
 10
2.4854020799
 20
33.2475752599
 10
2.4965653983
 20
33.2544129417
 10
2.5080709988
 20
33.2606567433
 10
2.519887077
 20
33.2662894919
 10
2.5319814331
 20
33.2712959218
 10
2.5443212371
 20
33.2756624729
 10
2.5568754216
 20
33.2793779127
 10
2.5696068868
 20
33.2824310261
 10
2.5824726056
 20
33.2848121562
 10
2.5954343802
 20
33.2865157604
 10
2.6084592745
 20
33.287539023
 10
2.6215116145
 20
33.2878804302
  0
LWPOLYLINE
  5
54A
100
AcDbEntity
  8
RACCORDO
100
AcDbPolyline
 62
250
  6
CONTINUOUS
 90
31
 70
0
 10
2.3715158453
 20
-15.052085303
 10
2.3718944009
 20
-15.0407873308
 10
2.3729535285
 20
-15.0295170267
 10
2.374690905
 20
-15.0183051569
 10
2.3771026064
 20
-15.0071813478
 10
2.3801824767
 20
-14.9961770958
 10
2.3839215277
 20
-14.985325556
 10
2.3883090721
 20
-14.9746574329
 10
2.3933334711
 20
-14.9642007596
 10
2.3989811517
 20
-14.9539838408
 10
2.4052368442
 20
-14.9440344357
 10
2.4120834188
 20
-14.9343799111
 10
2.4195020271
 20
-14.9250468877
 10
2.4274723312
 20
-14.9160609375
 10
2.435972626
 20
-14.9074465183
 10
2.4449797164
 20
-14.8992271399
 10
2.4544690201
 20
-14.8914252433
 10
2.4644146072
 20
-14.8840621551
 10
2.4747892901
 20
-14.8771580062
 10
2.4855647225
 20
-14.8707316596
 10
2.4967114805
 20
-14.8648006626
 10
2.5081991175
 20
-14.8593812153
 10
2.5199962742
 20
-14.8544881133
 10
2.5320707107
 20
-14.8501347302
 10
2.5443893903
 20
-14.8463329729
 10
2.5569186257
 20
-14.8430932264
 10
2.5696242285
 20
-14.84042432
 10
2.5824715493
 20
-14.8383335275
 10
2.5954255166
 20
-14.8368265576
 10
2.6084507303
 20
-14.8359075292
 10
2.6215116145
 20
-14.8355789521
  0
LWPOLYLINE
  5
54B
100
AcDbEntity
  8
RACCORDO
100
AcDbPolyline
 62
7
  6
CONTINUOUS
 90
10
 70
0
 10
3.8587683727
 20
10.0584637192
 10
3.8589246731
 20
10.0587306209
 10
3.8590804464
 20
10.0595762251
 10
3.8592356925
 20
10.0610005317
 10
3.8593905774
 20
10.0630065903
 10
3.8595449352
 20
10.0655913513
 10
3.8596982676
 20
10.0687456658
 10
3.8598505885
 20
10.0724721472
 10
3.8600018839
 20
10.0767681821
 10
3.8602997397
 20
10.0870186765
  0
LINE
  5
54C
100
AcDbEntity
  8
DRAFT
100
AcDbLine
 62
7
  6
CONTINUOUS
 10
-10.2828559887
 20
-13.6077477357
 11
-10.2387887215
 21
-13.5416459026
  0
LWPOLYLINE
  5
54D
100
AcDbEntity
  8
RACCORDO
100
AcDbPolyline
 62
7
  6
CONTINUOUS
 90
10
 70
0
 10
-13.8328559887
 20
-3.099359233
 10
-13.6761347924
 20
-3.0494915814
 10
-13.5227722253
 20
-3.0019277889
 10
-13.3727682875
 20
-2.9566678553
 10
-13.2265751699
 20
-2.9138380622
 10
-13.0837406816
 20
-2.873312128
 10
-12.9429082499
 20
-2.8347112088
 10
-12.8036256841
 20
-2.7979090232
 10
-12.6663451749
 20
-2.7630318524
 10
-12.5310667225
 20
-2.7300796965
  0
LINE
  5
54E
100
AcDbEntity
  8
RACCORDO
100
AcDbLine
 62
7
  6
CONTINUOUS
 10
3.6671440113
 20
18.2922522643
 11
4.9053109271
 21
18.5105744981
  0
LINE
  5
54F
100
AcDbEntity
  8
RACCORDO
100
AcDbLine
 62
7
  6
CONTINUOUS
 10
-15.4328559887
 20
18.2922522643
 11
-16.6710229045
 21
18.5105744981
  0
LWPOLYLINE
  5
550
100
AcDbEntity
  8
RACCORDO
100
AcDbPolyline
 62
7
  6
CONTINUOUS
 90
12
 70
0
 10
5.0793177565
 20
11.341256597
 10
5.0797181206
 20
11.3409825418
 10
5.0801173948
 20
11.3400284989
 10
5.080515579
 20
11.3383944683
 10
5.0809130444
 20
11.3360773749
 10
5.0813094199
 20
11.3330802939
 10
5.0817035924
 20
11.3294124505
 10
5.0820955589
 20
11.3250717014
 10
5.0824853223
 20
11.3200601898
 10
5.0828717785
 20
11.3143935713
 10
5.0832548895
 20
11.308070472
 10
5.0836346931
 20
11.3010922656
  0
LINE
  5
551
100
AcDbEntity
  8
DRAFT
100
AcDbLine
 62
7
  6
CONTINUOUS
 10
-10.2828559887
 20
31.1922522643
 11
-10.2387887215
 21
31.1261504311
  0
LINE
  5
552
100
AcDbEntity
  8
RACCORDO
100
AcDbLine
 62
7
  6
CONTINUOUS
 10
4.9965428593
 20
4.0865738589
 11
4.997274314
 21
4.0710333307
  0
LINE
  5
553
100
AcDbEntity
  8
RACCORDO
100
AcDbLine
 62
7
  6
CONTINUOUS
 10
5.0836346931
 20
7.7010922656
 11
5.0843814428
 21
7.6852267817
  0
LINE
  5
554
100
AcDbEntity
  8
RACCORDO
100
AcDbLine
 62
7
  6
CONTINUOUS
 10
5.0836346931
 20
11.3010922656
 11
5.0843814428
 21
11.2852267817
  0
LINE
  5
555
100
AcDbEntity
  8
RACCORDO
100
AcDbLine
 62
7
  6
CONTINUOUS
 10
4.9965428593
 20
14.8865738589
 11
4.997274314
 21
14.8710333307
  0
LINE
  5
556
100
AcDbEntity
  8
RACCORDO
100
AcDbLine
 62
7
  6
CONTINUOUS
 10
4.909567981
 20
0.4697597897
 11
4.9103021181
 21
0.4536555769
  0
LWPOLYLINE
  5
557
100
AcDbEntity
  8
RACCORDO
100
AcDbPolyline
 62
7
  6
CONTINUOUS
 90
8
 70
0
 10
3.8162687482
 20
3.9045520726
 10
3.8161186194
 20
3.9082249251
 10
3.8159674937
 20
3.911333845
 10
3.8158153573
 20
3.9138814079
 10
3.8156627013
 20
3.9158585967
 10
3.8155096895
 20
3.9172624057
 10
3.815356158
 20
3.9180958405
 10
3.8152021069
 20
3.9183589012
  0
LWPOLYLINE
  5
558
100
AcDbEntity
  8
RACCORDO
100
AcDbPolyline
 62
7
  6
CONTINUOUS
 90
8
 70
0
 10
3.8598505885
 20
7.5120323813
 10
3.8596982676
 20
7.5157588627
 10
3.8595449352
 20
7.5189131772
 10
3.8593905774
 20
7.5214979382
 10
3.8592356925
 20
7.5235039968
 10
3.8590804464
 20
7.5249283034
 10
3.8589246731
 20
7.5257739076
 10
3.8587683727
 20
7.5260408093
  0
LWPOLYLINE
  5
559
100
AcDbEntity
  8
RACCORDO
100
AcDbPolyline
 62
7
  6
CONTINUOUS
 90
8
 70
0
 10
3.8598505885
 20
11.1120323813
 10
3.8596982676
 20
11.1157588627
 10
3.8595449352
 20
11.1189131772
 10
3.8593905774
 20
11.1214979382
 10
3.8592356925
 20
11.1235039968
 10
3.8590804464
 20
11.1249283034
 10
3.8589246731
 20
11.1257739076
 10
3.8587683727
 20
11.1260408093
  0
LWPOLYLINE
  5
55A
100
AcDbEntity
  8
RACCORDO
100
AcDbPolyline
 62
7
  6
CONTINUOUS
 90
8
 70
0
 10
3.8162687482
 20
14.7045520726
 10
3.8161186194
 20
14.7082249251
 10
3.8159674937
 20
14.711333845
 10
3.8158153573
 20
14.7138814079
 10
3.8156627013
 20
14.7158585967
 10
3.8155096895
 20
14.7172624057
 10
3.815356158
 20
14.7180958405
 10
3.8152021069
 20
14.7183589012
  0
LWPOLYLINE
  5
55B
100
AcDbEntity
  8
RACCORDO
100
AcDbPolyline
 62
7
  6
CONTINUOUS
 90
8
 70
0
 10
3.7726869079
 20
18.2970717639
 10
3.7725389712
 20
18.3006909875
 10
3.7723900522
 20
18.3037545127
 10
3.7722401372
 20
18.3062648776
 10
3.7720897102
 20
18.3082131966
 10
3.7719389326
 20
18.309596508
 10
3.7717876429
 20
18.3104177735
 10
3.7716358412
 20
18.3106769931
  0
LINE
  5
55C
100
AcDbEntity
  8
RACCORDO
100
AcDbLine
 62
7
  6
CONTINUOUS
 10
4.997274314
 20
4.0710333307
 11
4.9979878871
 21
4.053028932
  0
LINE
  5
55D
100
AcDbEntity
  8
RACCORDO
100
AcDbLine
 62
7
  6
CONTINUOUS
 10
5.0843814428
 20
7.6852267817
 11
5.0851099368
 21
7.6668459074
  0
LINE
  5
55E
100
AcDbEntity
  8
RACCORDO
100
AcDbLine
 62
7
  6
CONTINUOUS
 10
5.0843814428
 20
11.2852267817
 11
5.0851099368
 21
11.2668459074
  0
LINE
  5
55F
100
AcDbEntity
  8
RACCORDO
100
AcDbLine
 62
7
  6
CONTINUOUS
 10
4.997274314
 20
14.8710333307
 11
4.9979878871
 21
14.853028932
  0
LINE
  5
560
100
AcDbEntity
  8
RACCORDO
100
AcDbLine
 62
7
  6
CONTINUOUS
 10
4.9103021181
 20
0.4536555769
 11
4.9110172867
 21
0.4350059809
  0
LINE
  5
561
100
AcDbEntity
  8
RACCORDO
100
AcDbLine
 62
7
  6
CONTINUOUS
 10
4.9103021181
 20
18.4536555769
 11
4.9110172867
 21
18.4350059809
  0
LWPOLYLINE
  5
562
100
AcDbEntity
  8
RACCORDO
100
AcDbPolyline
 62
250
  6
CONTINUOUS
 90
31
 70
0
 10
4.7627721773
 20
-15.052085303
 10
4.7623936217
 20
-15.0407873308
 10
4.7613344941
 20
-15.0295170267
 10
4.7595971176
 20
-15.0183051569
 10
4.7571854162
 20
-15.0071813478
 10
4.7541055459
 20
-14.9961770958
 10
4.7503664949
 20
-14.985325556
 10
4.7459789505
 20
-14.9746574329
 10
4.7409545515
 20
-14.9642007596
 10
4.7353068709
 20
-14.9539838408
 10
4.7290511783
 20
-14.9440344357
 10
4.7222046037
 20
-14.9343799111
 10
4.7147859955
 20
-14.9250468877
 10
4.7068156914
 20
-14.9160609375
 10
4.6983153966
 20
-14.9074465183
 10
4.6893083061
 20
-14.8992271399
 10
4.6798190025
 20
-14.8914252433
 10
4.6698734154
 20
-14.8840621551
 10
4.6594987325
 20
-14.8771580062
 10
4.6487233001
 20
-14.8707316596
 10
4.6375765421
 20
-14.8648006626
 10
4.626088905
 20
-14.8593812153
 10
4.6142917483
 20
-14.8544881133
 10
4.6022173119
 20
-14.8501347302
 10
4.5898986323
 20
-14.8463329729
 10
4.5773693969
 20
-14.8430932264
 10
4.5646637941
 20
-14.84042432
 10
4.5518164733
 20
-14.8383335275
 10
4.538862506
 20
-14.8368265576
 10
4.5258372922
 20
-14.8359075292
 10
4.5127764081
 20
-14.8355789521
  0
LINE
  5
563
100
AcDbEntity
  8
RACCORDO
100
AcDbLine
 62
7
  6
CONTINUOUS
 10
4.9979878871
 20
4.053028932
 11
4.9986801272
 21
4.0326499791
  0
LINE
  5
564
100
AcDbEntity
  8
RACCORDO
100
AcDbLine
 62
7
  6
CONTINUOUS
 10
5.0851099368
 20
7.6668459074
 11
5.0858166517
 21
7.6460408264
  0
LINE
  5
565
100
AcDbEntity
  8
RACCORDO
100
AcDbLine
 62
7
  6
CONTINUOUS
 10
5.0851099368
 20
11.2668459074
 11
5.0858166517
 21
11.2460408264
  0
LINE
  5
566
100
AcDbEntity
  8
RACCORDO
100
AcDbLine
 62
7
  6
CONTINUOUS
 10
4.9979878871
 20
14.853028932
 11
4.9986801272
 21
14.8326499791
  0
LINE
  5
567
100
AcDbEntity
  8
RACCORDO
100
AcDbLine
 62
7
  6
CONTINUOUS
 10
4.9110172867
 20
0.4350059809
 11
4.9117096008
 21
0.4139142156
  0
LINE
  5
568
100
AcDbEntity
  8
RACCORDO
100
AcDbLine
 62
7
  6
CONTINUOUS
 10
4.9110172867
 20
18.4350059809
 11
4.9117096008
 21
18.4139142156
  0
LINE
  5
569
100
AcDbEntity
  8
RACCORDO
100
AcDbLine
 62
7
  6
CONTINUOUS
 10
3.816565441
 20
3.8955390408
 11
3.8162687482
 21
3.9045520726
  0
LINE
  5
56A
100
AcDbEntity
  8
RACCORDO
100
AcDbLine
 62
7
  6
CONTINUOUS
 10
3.8601516134
 20
7.5028877464
 11
3.8598505885
 21
7.5120323813
  0
LINE
  5
56B
100
AcDbEntity
  8
RACCORDO
100
AcDbLine
 62
7
  6
CONTINUOUS
 10
3.8601516134
 20
11.1028877464
 11
3.8598505885
 21
11.1120323813
  0
LINE
  5
56C
100
AcDbEntity
  8
RACCORDO
100
AcDbLine
 62
7
  6
CONTINUOUS
 10
3.816565441
 20
14.6955390408
 11
3.8162687482
 21
14.7045520726
  0
LINE
  5
56D
100
AcDbEntity
  8
RACCORDO
100
AcDbLine
 62
7
  6
CONTINUOUS
 10
3.7729792686
 20
18.2881903353
 11
3.7726869079
 21
18.2970717639
  0
LINE
  5
56E
100
AcDbEntity
  8
RACCORDO
100
AcDbLine
 62
7
  6
CONTINUOUS
 10
3.7731231314
 20
0.2829439214
 11
3.7728338487
 21
0.29289938
  0
LINE
  5
56F
100
AcDbEntity
  8
RACCORDO
100
AcDbLine
 62
7
  6
CONTINUOUS
 10
4.9986801272
 20
4.0326499791
 11
4.9996741683
 21
3.9977789361
  0
LINE
  5
570
100
AcDbEntity
  8
RACCORDO
100
AcDbLine
 62
7
  6
CONTINUOUS
 10
5.0858166517
 20
7.6460408264
 11
5.0868314785
 21
7.6104406228
  0
LINE
  5
571
100
AcDbEntity
  8
RACCORDO
100
AcDbLine
 62
7
  6
CONTINUOUS
 10
5.0858166517
 20
11.2460408264
 11
5.0868314785
 21
11.2104406228
  0
LINE
  5
572
100
AcDbEntity
  8
RACCORDO
100
AcDbLine
 62
7
  6
CONTINUOUS
 10
4.9986801272
 20
14.8326499791
 11
4.9996741683
 21
14.7977789361
  0
LINE
  5
573
100
AcDbEntity
  8
RACCORDO
100
AcDbLine
 62
7
  6
CONTINUOUS
 10
4.9117096008
 20
0.4139142156
 11
4.9127009438
 21
0.3778535505
  0
LINE
  5
574
100
AcDbEntity
  8
RACCORDO
100
AcDbLine
 62
7
  6
CONTINUOUS
 10
4.9117096008
 20
18.4139142156
 11
4.9127009438
 21
18.3778535505
  0
LINE
  5
575
100
AcDbEntity
  8
RACCORDO
100
AcDbLine
 62
7
  6
CONTINUOUS
 10
3.8168558867
 20
3.8843461196
 11
3.816565441
 21
3.8955390408
  0
LINE
  5
576
100
AcDbEntity
  8
RACCORDO
100
AcDbLine
 62
7
  6
CONTINUOUS
 10
3.8604463001
 20
7.4915313925
 11
3.8601516134
 21
7.5028877464
  0
LINE
  5
577
100
AcDbEntity
  8
RACCORDO
100
AcDbLine
 62
7
  6
CONTINUOUS
 10
3.8604463001
 20
11.0915313925
 11
3.8601516134
 21
11.1028877464
  0
LINE
  5
578
100
AcDbEntity
  8
RACCORDO
100
AcDbLine
 62
7
  6
CONTINUOUS
 10
3.8168558867
 20
14.6843461196
 11
3.816565441
 21
14.6955390408
  0
LINE
  5
579
100
AcDbEntity
  8
RACCORDO
100
AcDbLine
 62
7
  6
CONTINUOUS
 10
3.7732654734
 20
18.2771608467
 11
3.7729792686
 21
18.2881903353
  0
LINE
  5
57A
100
AcDbEntity
  8
RACCORDO
100
AcDbLine
 62
7
  6
CONTINUOUS
 10
4.9996741683
 20
3.9977789361
 11
5.0009032887
 21
3.943789835
  0
LINE
  5
57B
100
AcDbEntity
  8
RACCORDO
100
AcDbLine
 62
7
  6
CONTINUOUS
 10
5.0868314785
 20
7.6104406228
 11
5.0880863
 21
7.5553225985
  0
LINE
  5
57C
100
AcDbEntity
  8
RACCORDO
100
AcDbLine
 62
7
  6
CONTINUOUS
 10
4.9996741683
 20
14.7977789361
 11
5.0009032887
 21
14.743789835
  0
LINE
  5
57D
100
AcDbEntity
  8
RACCORDO
100
AcDbLine
 62
7
  6
CONTINUOUS
 10
5.0868314785
 20
11.2104406228
 11
5.0880863
 21
11.1553225985
  0
LINE
  5
57E
100
AcDbEntity
  8
RACCORDO
100
AcDbLine
 62
7
  6
CONTINUOUS
 10
3.7735443795
 20
0.2640368397
 11
3.7731231314
 21
0.2829439214
  0
LINE
  5
57F
100
AcDbEntity
  8
RACCORDO
100
AcDbLine
 62
7
  6
CONTINUOUS
 10
4.9127009438
 20
0.3778535505
 11
4.9139205004
 21
0.3221024342
  0
LINE
  5
580
100
AcDbEntity
  8
RACCORDO
100
AcDbLine
 62
7
  6
CONTINUOUS
 10
4.9127009438
 20
18.3778535505
 11
4.9139205004
 21
18.3221024342
  0
LINE
  5
581
100
AcDbEntity
  8
RACCORDO
100
AcDbLine
 62
7
  6
CONTINUOUS
 10
3.8172775132
 20
3.8635779353
 11
3.8168558867
 21
3.8843461196
  0
LINE
  5
582
100
AcDbEntity
  8
RACCORDO
100
AcDbLine
 62
7
  6
CONTINUOUS
 10
3.8608740829
 20
7.4704599631
 11
3.8604463001
 21
7.4915313925
  0
LINE
  5
583
100
AcDbEntity
  8
RACCORDO
100
AcDbLine
 62
7
  6
CONTINUOUS
 10
3.8608740829
 20
11.0704599631
 11
3.8604463001
 21
11.0915313925
  0
LINE
  5
584
100
AcDbEntity
  8
RACCORDO
100
AcDbLine
 62
7
  6
CONTINUOUS
 10
3.8172775132
 20
14.6635779353
 11
3.8168558867
 21
14.6843461196
  0
LINE
  5
585
100
AcDbEntity
  8
RACCORDO
100
AcDbLine
 62
7
  6
CONTINUOUS
 10
3.7736809436
 20
18.2566959075
 11
3.7732654734
 21
18.2771608467
  0
LINE
  5
586
100
AcDbEntity
  8
RACCORDO
100
AcDbLine
 62
7
  6
CONTINUOUS
 10
5.0009032887
 20
3.943789835
 11
5.0022626216
 21
3.8653623603
  0
LINE
  5
587
100
AcDbEntity
  8
RACCORDO
100
AcDbLine
 62
7
  6
CONTINUOUS
 10
5.0880863
 20
7.5553225985
 11
5.0894740568
 21
7.4752551893
  0
LINE
  5
588
100
AcDbEntity
  8
RACCORDO
100
AcDbLine
 62
7
  6
CONTINUOUS
 10
5.0009032887
 20
14.743789835
 11
5.0022626216
 21
14.6653623603
  0
LINE
  5
589
100
AcDbEntity
  8
RACCORDO
100
AcDbLine
 62
7
  6
CONTINUOUS
 10
5.0880863
 20
11.1553225985
 11
5.0894740568
 21
11.0752551893
  0
LINE
  5
58A
100
AcDbEntity
  8
RACCORDO
100
AcDbLine
 62
7
  6
CONTINUOUS
 10
3.7740758522
 20
0.2317465416
 11
3.7735443795
 21
0.2640368397
  0
LINE
  5
58B
100
AcDbEntity
  8
RACCORDO
100
AcDbLine
 62
7
  6
CONTINUOUS
 10
4.9139205004
 20
0.3221024342
 11
4.9152570454
 21
0.2412966497
  0
LINE
  5
58C
100
AcDbEntity
  8
RACCORDO
100
AcDbLine
 62
7
  6
CONTINUOUS
 10
4.9139205004
 20
18.3221024342
 11
4.9152570454
 21
18.2412966497
  0
LINE
  5
58D
100
AcDbEntity
  8
RACCORDO
100
AcDbLine
 62
7
  6
CONTINUOUS
 10
3.8178065292
 20
3.8288554176
 11
3.8172775132
 21
3.8635779353
  0
LINE
  5
58E
100
AcDbEntity
  8
RACCORDO
100
AcDbLine
 62
7
  6
CONTINUOUS
 10
3.8614108232
 20
7.4352304471
 11
3.8608740829
 21
7.4704599631
  0
LINE
  5
58F
100
AcDbEntity
  8
RACCORDO
100
AcDbLine
 62
7
  6
CONTINUOUS
 10
3.8614108232
 20
11.0352304471
 11
3.8608740829
 21
11.0704599631
  0
LINE
  5
590
100
AcDbEntity
  8
RACCORDO
100
AcDbLine
 62
7
  6
CONTINUOUS
 10
3.8178065292
 20
14.6288554176
 11
3.8172775132
 21
14.6635779353
  0
LINE
  5
591
100
AcDbEntity
  8
RACCORDO
100
AcDbLine
 62
7
  6
CONTINUOUS
 10
3.7742022351
 20
18.2224803882
 11
3.7736809436
 21
18.2566959075
  0
LINE
  5
592
100
AcDbEntity
  8
RACCORDO
100
AcDbLine
 62
7
  6
CONTINUOUS
 10
5.0022626216
 20
3.8653623603
 11
5.0033974985
 21
3.776539374
  0
LINE
  5
593
100
AcDbEntity
  8
RACCORDO
100
AcDbLine
 62
7
  6
CONTINUOUS
 10
5.0022626216
 20
14.6653623603
 11
5.0033974985
 21
14.576539374
  0
LINE
  5
594
100
AcDbEntity
  8
RACCORDO
100
AcDbLine
 62
7
  6
CONTINUOUS
 10
5.0894740568
 20
7.4752551893
 11
5.0906326643
 21
7.3845748961
  0
LINE
  5
595
100
AcDbEntity
  8
RACCORDO
100
AcDbLine
 62
7
  6
CONTINUOUS
 10
5.0894740568
 20
11.0752551893
 11
5.0906326643
 21
10.9845748961
  0
LINE
  5
596
100
AcDbEntity
  8
RACCORDO
100
AcDbLine
 62
7
  6
CONTINUOUS
 10
4.9152570454
 20
0.2412966497
 11
4.9163560172
 21
0.1500636434
  0
LINE
  5
597
100
AcDbEntity
  8
RACCORDO
100
AcDbLine
 62
7
  6
CONTINUOUS
 10
4.9152570454
 20
18.2412966497
 11
4.9163560172
 21
18.1500636434
  0
LINE
  5
598
100
AcDbEntity
  8
RACCORDO
100
AcDbLine
 62
250
  6
CONTINUOUS
 10
4.5127764081
 20
32.4200834806
 11
4.5178670092
 21
31.9149019951
  0
LINE
  5
599
100
AcDbEntity
  8
RACCORDO
100
AcDbLine
 62
250
  6
CONTINUOUS
 10
4.7627721773
 20
32.6365898315
 11
4.7671440113
 21
32.2027374125
  0
LINE
  5
59A
100
AcDbEntity
  8
RACCORDO
100
AcDbLine
 62
7
  6
CONTINUOUS
 10
3.7747897073
 20
0.1694453568
 11
3.7740758522
 21
0.2317465416
  0
LINE
  5
59B
100
AcDbEntity
  8
RACCORDO
100
AcDbLine
 62
7
  6
CONTINUOUS
 10
3.8186174658
 20
3.7505974217
 11
3.8178065292
 21
3.8288554176
  0
LINE
  5
59C
100
AcDbEntity
  8
RACCORDO
100
AcDbLine
 62
7
  6
CONTINUOUS
 10
3.8622336006
 20
7.3558297726
 11
3.8614108232
 21
7.4352304471
  0
LINE
  5
59D
100
AcDbEntity
  8
RACCORDO
100
AcDbLine
 62
7
  6
CONTINUOUS
 10
3.7750013309
 20
18.1453650707
 11
3.7742022351
 21
18.2224803882
  0
LINE
  5
59E
100
AcDbEntity
  8
RACCORDO
100
AcDbLine
 62
7
  6
CONTINUOUS
 10
3.8186174658
 20
14.5505974217
 11
3.8178065292
 21
14.6288554176
  0
LINE
  5
59F
100
AcDbEntity
  8
RACCORDO
100
AcDbLine
 62
7
  6
CONTINUOUS
 10
3.8622336006
 20
10.9558297726
 11
3.8614108232
 21
11.0352304471
  0
LINE
  5
5A0
100
AcDbEntity
  8
RACCORDO
100
AcDbLine
 62
7
  6
CONTINUOUS
 10
5.0033974985
 20
3.776539374
 11
5.0042845005
 21
3.6793206449
  0
LINE
  5
5A1
100
AcDbEntity
  8
RACCORDO
100
AcDbLine
 62
7
  6
CONTINUOUS
 10
5.0033974985
 20
14.576539374
 11
5.0042845005
 21
14.4793206449
  0
LINE
  5
5A2
100
AcDbEntity
  8
RACCORDO
100
AcDbLine
 62
7
  6
CONTINUOUS
 10
5.0906326643
 20
7.3845748961
 11
5.0915382136
 21
7.2853233035
  0
LINE
  5
5A3
100
AcDbEntity
  8
RACCORDO
100
AcDbLine
 62
7
  6
CONTINUOUS
 10
5.0906326643
 20
10.9845748961
 11
5.0915382136
 21
10.8853233035
  0
LINE
  5
5A4
100
AcDbEntity
  8
RACCORDO
100
AcDbLine
 62
7
  6
CONTINUOUS
 10
4.9163560172
 20
0.1500636434
 11
4.9171936794
 21
0.0505629978
  0
LINE
  5
5A5
100
AcDbEntity
  8
RACCORDO
100
AcDbLine
 62
7
  6
CONTINUOUS
 10
4.9163560172
 20
18.1500636434
 11
4.9171936794
 21
18.0505629978
  0
LINE
  5
5A6
100
AcDbEntity
  8
RACCORDO
100
AcDbLine
 62
7
  6
CONTINUOUS
 10
3.7756945935
 20
0.0352897157
 11
3.7747897073
 21
0.1694453568
  0
LINE
  5
5A7
100
AcDbEntity
  8
RACCORDO
100
AcDbLine
 62
7
  6
CONTINUOUS
 10
5.0042845005
 20
3.6793206449
 11
5.0049053206
 21
3.5758974688
  0
LINE
  5
5A8
100
AcDbEntity
  8
RACCORDO
100
AcDbLine
 62
7
  6
CONTINUOUS
 10
5.0042845005
 20
14.4793206449
 11
5.0049053206
 21
14.3758974688
  0
LINE
  5
5A9
100
AcDbEntity
  8
RACCORDO
100
AcDbLine
 62
7
  6
CONTINUOUS
 10
5.0915382136
 20
7.2853233035
 11
5.0921720152
 21
7.1797375276
  0
LINE
  5
5AA
100
AcDbEntity
  8
RACCORDO
100
AcDbLine
 62
7
  6
CONTINUOUS
 10
5.0915382136
 20
10.8853233035
 11
5.0921720152
 21
10.7797375276
  0
LINE
  5
5AB
100
AcDbEntity
  8
RACCORDO
100
AcDbLine
 62
7
  6
CONTINUOUS
 10
4.9171936794
 20
0.0505629978
 11
4.9177518932
 21
-0.0548627359
  0
LINE
  5
5AC
100
AcDbEntity
  8
RACCORDO
100
AcDbLine
 62
7
  6
CONTINUOUS
 10
4.9171936794
 20
18.0505629978
 11
4.9177518932
 21
17.9451372641
  0
LINE
  5
5AD
100
AcDbEntity
  8
RACCORDO
100
AcDbLine
 62
7
  6
CONTINUOUS
 10
3.8195143403
 20
3.5923606345
 11
3.8186174658
 21
3.7505974217
  0
LINE
  5
5AE
100
AcDbEntity
  8
RACCORDO
100
AcDbLine
 62
7
  6
CONTINUOUS
 10
3.7758851097
 20
17.9894387666
 11
3.7750013309
 21
18.1453650707
  0
LINE
  5
5AF
100
AcDbEntity
  8
RACCORDO
100
AcDbLine
 62
7
  6
CONTINUOUS
 10
3.8195143403
 20
14.3923606345
 11
3.8186174658
 21
14.5505974217
  0
LINE
  5
5B0
100
AcDbEntity
  8
RACCORDO
100
AcDbLine
 62
7
  6
CONTINUOUS
 10
3.8631435708
 20
7.1952825024
 11
3.8622336006
 21
7.3558297726
  0
LINE
  5
5B1
100
AcDbEntity
  8
RACCORDO
100
AcDbLine
 62
7
  6
CONTINUOUS
 10
3.8631435708
 20
10.7952825024
 11
3.8622336006
 21
10.9558297726
  0
LINE
  5
5B2
100
AcDbEntity
  8
RACCORDO
100
AcDbLine
 62
7
  6
CONTINUOUS
 10
5.0921720152
 20
7.1797375276
 11
5.0925215759
 21
7.0701425877
  0
LINE
  5
5B3
100
AcDbEntity
  8
RACCORDO
100
AcDbLine
 62
7
  6
CONTINUOUS
 10
5.0921720152
 20
10.7797375276
 11
5.0925215759
 21
10.6701425877
  0
LINE
  5
5B4
100
AcDbEntity
  8
RACCORDO
100
AcDbLine
 62
7
  6
CONTINUOUS
 10
5.0049053206
 20
3.5758974688
 11
5.0052821652
 21
3.4467694927
  0
LINE
  5
5B5
100
AcDbEntity
  8
RACCORDO
100
AcDbLine
 62
7
  6
CONTINUOUS
 10
5.0049053206
 20
14.3758974688
 11
5.0052821652
 21
14.2467694927
  0
LINE
  5
5B6
100
AcDbEntity
  8
RACCORDO
100
AcDbLine
 62
7
  6
CONTINUOUS
 10
4.9177518932
 20
-0.0548627359
 11
4.9180188776
 21
-0.1637584044
  0
LINE
  5
5B7
100
AcDbEntity
  8
RACCORDO
100
AcDbLine
 62
7
  6
CONTINUOUS
 10
4.9177518932
 20
17.9451372641
 11
4.9180188776
 21
17.8362415956
  0
LINE
  5
5B8
100
AcDbEntity
  8
RACCORDO
100
AcDbLine
 62
7
  6
CONTINUOUS
 10
3.7762274326
 20
-0.1909126909
 11
3.7756945935
 21
0.0352897157
  0
LINE
  5
5B9
100
AcDbEntity
  8
0
100
AcDbLine
 62
7
  6
CONTINUOUS
 10
3.6671440113
 20
18.2922522643
 11
3.6671440113
 21
17.2922522643
  0
LINE
  5
5BA
100
AcDbEntity
  8
0
100
AcDbLine
 62
7
  6
CONTINUOUS
 10
3.6671440113
 20
14.6922522643
 11
3.6671440113
 21
13.6922522643
  0
LINE
  5
5BB
100
AcDbEntity
  8
0
100
AcDbLine
 62
7
  6
CONTINUOUS
 10
3.6671440113
 20
11.0922522643
 11
3.6671440113
 21
10.0922522643
  0
LINE
  5
5BC
100
AcDbEntity
  8
0
100
AcDbLine
 62
7
  6
CONTINUOUS
 10
3.6671440113
 20
7.4922522643
 11
3.6671440113
 21
6.4922522643
  0
LINE
  5
5BD
100
AcDbEntity
  8
0
100
AcDbLine
 62
7
  6
CONTINUOUS
 10
3.6671440113
 20
3.8922522643
 11
3.6671440113
 21
2.8922522643
  0
LINE
  5
5BE
100
AcDbEntity
  8
0
100
AcDbLine
 62
7
  6
CONTINUOUS
 10
3.6671440113
 20
0.2922522643
 11
3.6671440113
 21
-0.7077477357
  0
LINE
  5
5BF
100
AcDbEntity
  8
RACCORDO
100
AcDbLine
 62
250
  6
CONTINUOUS
 10
3.6909745406
 20
26.2252310173
 11
3.6909745406
 21
23.0752186048
  0
LINE
  5
5C0
100
AcDbEntity
  8
RACCORDO
100
AcDbLine
 62
250
  6
CONTINUOUS
 10
3.6909745406
 20
18.7092859237
 11
3.6909745406
 21
18.2964542295
  0
LINE
  5
5C1
100
AcDbEntity
  8
RACCORDO
100
AcDbLine
 62
250
  6
CONTINUOUS
 10
3.6909745406
 20
17.288050299
 11
3.6909745406
 21
14.6964542295
  0
LINE
  5
5C2
100
AcDbEntity
  8
RACCORDO
100
AcDbLine
 62
250
  6
CONTINUOUS
 10
3.6909745406
 20
13.688050299
 11
3.6909745406
 21
11.0964542295
  0
LINE
  5
5C3
100
AcDbEntity
  8
RACCORDO
100
AcDbLine
 62
250
  6
CONTINUOUS
 10
3.6909745406
 20
10.088050299
 11
3.6909745406
 21
7.4964542295
  0
LINE
  5
5C4
100
AcDbEntity
  8
RACCORDO
100
AcDbLine
 62
250
  6
CONTINUOUS
 10
3.6909745406
 20
6.488050299
 11
3.6909745406
 21
3.8964542295
  0
LINE
  5
5C5
100
AcDbEntity
  8
RACCORDO
100
AcDbLine
 62
250
  6
CONTINUOUS
 10
3.6909745406
 20
2.888050299
 11
3.6909745406
 21
0.2964542295
  0
LINE
  5
5C6
100
AcDbEntity
  8
RACCORDO
100
AcDbLine
 62
250
  6
CONTINUOUS
 10
3.6909745406
 20
-0.711949701
 11
3.6909745406
 21
-8.6407264888
  0
LINE
  5
5C7
100
AcDbEntity
  8
0
100
AcDbLine
 62
7
  6
CONTINUOUS
 10
3.7671440113
 20
-11.3567187895
 11
3.7671440113
 21
-11.2077477357
  0
LINE
  5
5C8
100
AcDbEntity
  8
0
100
AcDbLine
 62
7
  6
CONTINUOUS
 10
3.7671440113
 20
-0.7253804338
 11
3.7671440113
 21
0.3098849623
  0
LINE
  5
5C9
100
AcDbEntity
  8
0
100
AcDbLine
 62
7
  6
CONTINUOUS
 10
3.7671440113
 20
2.8746195662
 11
3.7671440113
 21
3.9098849623
  0
LINE
  5
5CA
100
AcDbEntity
  8
0
100
AcDbLine
 62
7
  6
CONTINUOUS
 10
3.7671440113
 20
6.4746195662
 11
3.7671440113
 21
7.5098849623
  0
LINE
  5
5CB
100
AcDbEntity
  8
0
100
AcDbLine
 62
7
  6
CONTINUOUS
 10
3.7671440113
 20
10.0746195662
 11
3.7671440113
 21
11.1098849623
  0
LINE
  5
5CC
100
AcDbEntity
  8
0
100
AcDbLine
 62
7
  6
CONTINUOUS
 10
3.7671440113
 20
13.6746195662
 11
3.7671440113
 21
14.7098849623
  0
LINE
  5
5CD
100
AcDbEntity
  8
0
100
AcDbLine
 62
7
  6
CONTINUOUS
 10
3.7671440113
 20
17.2746195662
 11
3.7671440113
 21
18.3098849623
  0
LINE
  5
5CE
100
AcDbEntity
  8
0
100
AcDbLine
 62
7
  6
CONTINUOUS
 10
3.7671440113
 20
28.7922522643
 11
3.7671440113
 21
28.941223318
  0
LINE
  5
5CF
100
AcDbEntity
  8
RACCORDO
100
AcDbLine
 62
250
  6
CONTINUOUS
 10
4.5127764081
 20
-15.7033759017
 11
4.5127764081
 21
-14.8355789521
  0
LINE
  5
5D0
100
AcDbEntity
  8
RACCORDO
100
AcDbLine
 62
250
  6
CONTINUOUS
 10
4.5127764081
 20
32.4200834806
 11
4.5127764081
 21
33.2878804302
  0
LINE
  5
5D1
100
AcDbEntity
  8
RACCORDO
100
AcDbLine
 62
250
  6
CONTINUOUS
 10
4.6908222358
 20
26.2252310173
 11
4.6908222358
 21
18.4727543548
  0
LINE
  5
5D2
100
AcDbEntity
  8
RACCORDO
100
AcDbLine
 62
250
  6
CONTINUOUS
 10
4.6908222358
 20
17.1117501737
 11
4.6908222358
 21
14.8727543548
  0
LINE
  5
5D3
100
AcDbEntity
  8
RACCORDO
100
AcDbLine
 62
250
  6
CONTINUOUS
 10
4.6908222358
 20
13.5117501737
 11
4.6908222358
 21
11.2727543548
  0
LINE
  5
5D4
100
AcDbEntity
  8
RACCORDO
100
AcDbLine
 62
250
  6
CONTINUOUS
 10
4.6908222358
 20
9.9117501737
 11
4.6908222358
 21
7.6727543548
  0
LINE
  5
5D5
100
AcDbEntity
  8
RACCORDO
100
AcDbLine
 62
250
  6
CONTINUOUS
 10
4.6908222358
 20
6.3117501737
 11
4.6908222358
 21
4.0727543548
  0
LINE
  5
5D6
100
AcDbEntity
  8
RACCORDO
100
AcDbLine
 62
250
  6
CONTINUOUS
 10
4.6908222358
 20
2.7117501737
 11
4.6908222358
 21
0.4727543548
  0
LINE
  5
5D7
100
AcDbEntity
  8
RACCORDO
100
AcDbLine
 62
250
  6
CONTINUOUS
 10
4.6908222358
 20
-0.8882498263
 11
4.6908222358
 21
-8.6407264888
  0
LINE
  5
5D8
100
AcDbEntity
  8
RACCORDO
100
AcDbLine
 62
250
  6
CONTINUOUS
 10
4.7627721773
 20
-15.4533801325
 11
4.7627721773
 21
-15.052085303
  0
LINE
  5
5D9
100
AcDbEntity
  8
RACCORDO
100
AcDbLine
 62
250
  6
CONTINUOUS
 10
4.7627721773
 20
32.6365898315
 11
4.7627721773
 21
33.037884661
  0
LINE
  5
5DA
100
AcDbEntity
  8
RACCORDO
100
AcDbLine
 62
7
  6
CONTINUOUS
 10
4.7671440113
 20
-15.4577519665
 11
4.7671440113
 21
-13.6074377037
  0
LINE
  5
5DB
100
AcDbEntity
  8
RACCORDO
100
AcDbLine
 62
7
  6
CONTINUOUS
 10
4.7671440113
 20
31.1919422322
 11
4.7671440113
 21
33.042256495
  0
LINE
  5
5DC
100
AcDbEntity
  8
RACCORDO
100
AcDbLine
 62
7
  6
CONTINUOUS
 10
5.2671440113
 20
-13.0989256763
 11
5.2671440113
 21
30.6834302048
  0
LINE
  5
5DD
100
AcDbEntity
  8
RACCORDO
100
AcDbLine
 62
7
  6
CONTINUOUS
 10
5.0925215759
 20
10.6701425877
 11
5.0925801943
 21
10.5588484485
  0
LINE
  5
5DE
100
AcDbEntity
  8
RACCORDO
100
AcDbLine
 62
7
  6
CONTINUOUS
 10
5.0925215759
 20
7.0701425877
 11
5.0925801943
 21
6.9588484485
  0
LINE
  5
5DF
100
AcDbEntity
  8
RACCORDO
100
AcDbLine
 62
7
  6
CONTINUOUS
 10
3.7762080853
 20
17.7417989448
 11
3.7758851097
 21
17.9894387666
  0
LINE
  5
5E0
100
AcDbEntity
  8
RACCORDO
100
AcDbLine
 62
7
  6
CONTINUOUS
 10
3.8198421017
 20
14.1410513382
 11
3.8195143403
 21
14.3923606345
  0
LINE
  5
5E1
100
AcDbEntity
  8
RACCORDO
100
AcDbLine
 62
7
  6
CONTINUOUS
 10
3.8198421017
 20
3.3410513382
 11
3.8195143403
 21
3.5923606345
  0
LINE
  5
5E2
100
AcDbEntity
  8
RACCORDO
100
AcDbLine
 62
7
  6
CONTINUOUS
 10
3.863476118
 20
10.5403037315
 11
3.8631435708
 21
10.7952825024
  0
LINE
  5
5E3
100
AcDbEntity
  8
RACCORDO
100
AcDbLine
 62
7
  6
CONTINUOUS
 10
3.863476118
 20
6.9403037315
 11
3.8631435708
 21
7.1952825024
  0
LINE
  5
5E4
100
AcDbEntity
  8
RACCORDO
100
AcDbLine
 62
7
  6
CONTINUOUS
 10
4.9180188776
 20
17.8362415956
 11
4.9179891487
 21
17.7263279971
  0
LINE
  5
5E5
100
AcDbEntity
  8
RACCORDO
100
AcDbLine
 62
7
  6
CONTINUOUS
 10
4.9180188776
 20
-0.1637584044
 11
4.9179891487
 21
-0.2736720029
  0
LINE
  5
5E6
100
AcDbEntity
  8
RACCORDO
100
AcDbLine
 62
7
  6
CONTINUOUS
 10
5.0052821652
 20
14.2467694927
 11
5.0052477216
 21
14.1159572845
  0
LINE
  5
5E7
100
AcDbEntity
  8
RACCORDO
100
AcDbLine
 62
7
  6
CONTINUOUS
 10
5.0052821652
 20
3.4467694927
 11
5.0052477216
 21
3.3159572845
  0
LINE
  5
5E8
100
AcDbEntity
  8
RACCORDO
100
AcDbLine
 62
7
  6
CONTINUOUS
 10
5.0925801943
 20
10.5588484485
 11
5.092346476
 21
10.4482501752
  0
LINE
  5
5E9
100
AcDbEntity
  8
RACCORDO
100
AcDbLine
 62
7
  6
CONTINUOUS
 10
5.0925801943
 20
6.9588484485
 11
5.092346476
 21
6.8482501752
  0
LINE
  5
5EA
100
AcDbEntity
  8
RACCORDO
100
AcDbLine
 62
7
  6
CONTINUOUS
 10
3.7757624965
 20
-0.4357365906
 11
3.7762274326
 21
-0.1909126909
  0
LINE
  5
5EB
100
AcDbEntity
  8
RACCORDO
100
AcDbLine
 62
7
  6
CONTINUOUS
 10
4.9179891487
 20
17.7263279971
 11
4.9176632165
 21
17.6179136619
  0
LINE
  5
5EC
100
AcDbEntity
  8
RACCORDO
100
AcDbLine
 62
7
  6
CONTINUOUS
 10
4.9179891487
 20
-0.2736720029
 11
4.9176632165
 21
-0.3820863381
  0
LINE
  5
5ED
100
AcDbEntity
  8
RACCORDO
100
AcDbLine
 62
7
  6
CONTINUOUS
 10
5.0052477216
 20
14.1159572845
 11
5.0048029681
 21
13.9875044636
  0
LINE
  5
5EE
100
AcDbEntity
  8
RACCORDO
100
AcDbLine
 62
7
  6
CONTINUOUS
 10
5.0052477216
 20
3.3159572845
 11
5.0048029681
 21
3.1875044636
  0
LINE
  5
5EF
100
AcDbEntity
  8
RACCORDO
100
AcDbLine
 62
7
  6
CONTINUOUS
 10
3.7755457324
 20
17.5198692989
 11
3.7762080853
 21
17.7417989448
  0
LINE
  5
5F0
100
AcDbEntity
  8
RACCORDO
100
AcDbLine
 62
7
  6
CONTINUOUS
 10
3.8191699341
 20
13.9158331857
 11
3.8198421017
 21
14.1410513382
  0
LINE
  5
5F1
100
AcDbEntity
  8
RACCORDO
100
AcDbLine
 62
7
  6
CONTINUOUS
 10
3.8191699341
 20
3.1158331857
 11
3.8198421017
 21
3.3410513382
  0
LINE
  5
5F2
100
AcDbEntity
  8
RACCORDO
100
AcDbLine
 62
7
  6
CONTINUOUS
 10
3.8627941358
 20
10.3117970725
 11
3.863476118
 21
10.5403037315
  0
LINE
  5
5F3
100
AcDbEntity
  8
RACCORDO
100
AcDbLine
 62
7
  6
CONTINUOUS
 10
3.8627941358
 20
6.7117970725
 11
3.863476118
 21
6.9403037315
  0
LINE
  5
5F4
100
AcDbEntity
  8
RACCORDO
100
AcDbLine
 62
7
  6
CONTINUOUS
 10
5.092346476
 20
10.4482501752
 11
5.0918250659
 21
10.3407640852
  0
LINE
  5
5F5
100
AcDbEntity
  8
RACCORDO
100
AcDbLine
 62
7
  6
CONTINUOUS
 10
5.092346476
 20
6.8482501752
 11
5.0918250659
 21
6.7407640852
  0
LINE
  5
5F6
100
AcDbEntity
  8
RACCORDO
100
AcDbLine
 62
7
  6
CONTINUOUS
 10
4.9176632165
 20
17.6179136619
 11
4.917048047
 21
17.5134980267
  0
LINE
  5
5F7
100
AcDbEntity
  8
RACCORDO
100
AcDbLine
 62
7
  6
CONTINUOUS
 10
4.9176632165
 20
-0.3820863381
 11
4.917048047
 21
-0.4865019733
  0
LINE
  5
5F8
100
AcDbEntity
  8
RACCORDO
100
AcDbLine
 62
7
  6
CONTINUOUS
 10
5.0048029681
 20
13.9875044636
 11
5.00412787
 21
13.8851738607
  0
LINE
  5
5F9
100
AcDbEntity
  8
RACCORDO
100
AcDbLine
 62
7
  6
CONTINUOUS
 10
5.0048029681
 20
3.1875044636
 11
5.00412787
 21
3.0851738607
  0
LINE
  5
5FA
100
AcDbEntity
  8
RACCORDO
100
AcDbLine
 62
7
  6
CONTINUOUS
 10
3.7748972707
 20
-0.573096817
 11
3.7757624965
 21
-0.4357365906
  0
LINE
  5
5FB
100
AcDbEntity
  8
RACCORDO
100
AcDbLine
 62
7
  6
CONTINUOUS
 10
5.0918250659
 20
10.3407640852
 11
5.0910262449
 21
10.2387048512
  0
LINE
  5
5FC
100
AcDbEntity
  8
RACCORDO
100
AcDbLine
 62
7
  6
CONTINUOUS
 10
5.0918250659
 20
6.7407640852
 11
5.0910262449
 21
6.6387048512
  0
LINE
  5
5FD
100
AcDbEntity
  8
RACCORDO
100
AcDbLine
 62
7
  6
CONTINUOUS
 10
3.7746786224
 20
17.4036029511
 11
3.7755457324
 21
17.5198692989
  0
LINE
  5
5FE
100
AcDbEntity
  8
RACCORDO
100
AcDbLine
 62
7
  6
CONTINUOUS
 10
3.8182899755
 20
13.7978440277
 11
3.8191699341
 21
13.9158331857
  0
LINE
  5
5FF
100
AcDbEntity
  8
RACCORDO
100
AcDbLine
 62
7
  6
CONTINUOUS
 10
3.8619013285
 20
10.1920851043
 11
3.8627941358
 21
10.3117970725
  0
LINE
  5
600
100
AcDbEntity
  8
RACCORDO
100
AcDbLine
 62
7
  6
CONTINUOUS
 10
3.8182899755
 20
2.9978440277
 11
3.8191699341
 21
3.1158331857
  0
LINE
  5
601
100
AcDbEntity
  8
RACCORDO
100
AcDbLine
 62
7
  6
CONTINUOUS
 10
3.8619013285
 20
6.5920851043
 11
3.8627941358
 21
6.7117970725
  0
LINE
  5
602
100
AcDbEntity
  8
RACCORDO
100
AcDbLine
 62
250
  6
CONTINUOUS
 10
4.5178670092
 20
-14.3303974666
 11
4.5127764081
 21
-14.8355789521
  0
LINE
  5
603
100
AcDbEntity
  8
RACCORDO
100
AcDbLine
 62
250
  6
CONTINUOUS
 10
4.7671440113
 20
-14.618232884
 11
4.7627721773
 21
-15.052085303
  0
LINE
  5
604
100
AcDbEntity
  8
RACCORDO
100
AcDbLine
 62
7
  6
CONTINUOUS
 10
4.917048047
 20
17.5134980267
 11
4.9161565116
 21
17.4154659423
  0
LINE
  5
605
100
AcDbEntity
  8
RACCORDO
100
AcDbLine
 62
7
  6
CONTINUOUS
 10
4.917048047
 20
-0.4865019733
 11
4.9161565116
 21
-0.5845340577
  0
LWPOLYLINE
  5
606
100
AcDbEntity
  8
RACCORDO
100
AcDbPolyline
 62
250
  6
CONTINUOUS
 90
37
 70
0
 10
3.6909745406
 20
-8.6407264888
 10
3.6907358226
 20
-8.6625527652
 10
3.6900223907
 20
-8.6843486956
 10
3.6888342449
 20
-8.7061142798
 10
3.6871703696
 20
-8.7278601011
 10
3.6850317804
 20
-8.7495755762
 10
3.6824215241
 20
-8.7712289559
 10
3.6793389238
 20
-8.792819916
 10
3.6757846563
 20
-8.8143487807
 10
3.6717637992
 20
-8.8357847732
 10
3.6672756899
 20
-8.857127728
 10
3.6623209911
 20
-8.8783778105
 10
3.6569067673
 20
-8.8995047397
 10
3.6510323654
 20
-8.9205083411
 10
3.6446984387
 20
-8.9413887893
 10
3.6379140113
 20
-8.9621163272
 10
3.6306784354
 20
-8.9826907519
 10
3.622992359
 20
-9.0031122664
 10
3.61486675
 20
-9.0233517222
 10
3.6063009791
 20
-9.0434088597
 10
3.5972956758
 20
-9.0632839385
 10
3.5878636961
 20
-9.0829485896
 10
3.5780044388
 20
-9.1024024975
 10
3.5677185052
 20
-9.1216459775
 10
3.5570205555
 20
-9.1406516071
 10
3.5459100043
 20
-9.1594190479
 10
3.534387437
 20
-9.1779486381
 10
3.5224692702
 20
-9.1962139704
 10
3.5101549187
 20
-9.2142146931
 10
3.4974449677
 20
-9.2319511579
 10
3.484357589
 20
-9.2493980117
 10
3.4708920901
 20
-9.2665549895
 10
3.4570491635
 20
-9.2834223564
 10
3.4428490593
 20
-9.2999755542
 10
3.4282985275
 20
-9.3162063967
 10
3.413390818
 20
-9.33212307
 10
3.3981259309
 20
-9.3477255742
  0
LWPOLYLINE
  5
607
100
AcDbEntity
  8
RACCORDO
100
AcDbPolyline
 62
250
  6
CONTINUOUS
 90
37
 70
0
 10
4.6908222358
 20
-8.6407264888
 10
4.6903436815
 20
-8.6843497469
 10
4.6889137511
 20
-8.7279520237
 10
4.6865331366
 20
-8.7715125741
 10
4.6832029907
 20
-8.8150105947
 10
4.6789249051
 20
-8.8584254694
 10
4.673700893
 20
-8.9017367776
 10
4.6675334168
 20
-8.9449240369
 10
4.6604254208
 20
-8.9879665732
 10
4.6523803086
 20
-9.0308437662
 10
4.643401927
 20
-9.0735351518
 10
4.6334945418
 20
-9.1160204841
 10
4.6226628556
 20
-9.1582796033
 10
4.6109120228
 20
-9.2002924044
 10
4.5982476361
 20
-9.2420388976
 10
4.5846757043
 20
-9.2834992704
 10
4.5702026715
 20
-9.3246538247
 10
4.5548354313
 20
-9.3654829494
 10
4.5385813079
 20
-9.4059671803
 10
4.5214480348
 20
-9.4460872553
 10
4.5034437639
 20
-9.4858240856
 10
4.4845770793
 20
-9.5251587293
 10
4.464856974
 20
-9.5640724448
 10
4.4442928196
 20
-9.6025467465
 10
4.4228943769
 20
-9.6405633764
 10
4.4006718258
 20
-9.6781042453
 10
4.3776357384
 20
-9.7151514916
 10
4.3537970446
 20
-9.7516875347
 10
4.3291670443
 20
-9.7876950421
 10
4.3037574874
 20
-9.8231568233
 10
4.277580548
 20
-9.8580558914
 10
4.250648763
 20
-9.8923755453
 10
4.2229748744
 20
-9.9260995608
 10
4.1945718977
 20
-9.9592120753
 10
4.1654532848
 20
-9.9916973857
 10
4.1356329311
 20
-10.0235399667
 10
4.1051250163
 20
-10.0547246596
  0
LINE
  5
608
100
AcDbEntity
  8
RACCORDO
100
AcDbLine
 62
7
  6
CONTINUOUS
 10
5.00412787
 20
13.8851738607
 11
5.0031898218
 21
13.7894751854
  0
LINE
  5
609
100
AcDbEntity
  8
RACCORDO
100
AcDbLine
 62
7
  6
CONTINUOUS
 10
5.00412787
 20
3.0851738607
 11
5.0031898218
 21
2.9894751854
  0
LINE
  5
60A
100
AcDbEntity
  8
RACCORDO
100
AcDbLine
 62
7
  6
CONTINUOUS
 10
3.7742022351
 20
-0.6379758597
 11
3.7748972707
 21
-0.573096817
  0
LINE
  5
60B
100
AcDbEntity
  8
RACCORDO
100
AcDbLine
 62
7
  6
CONTINUOUS
 10
5.0910262449
 20
10.2387048512
 11
5.0899662988
 21
10.1443487618
  0
LINE
  5
60C
100
AcDbEntity
  8
RACCORDO
100
AcDbLine
 62
7
  6
CONTINUOUS
 10
5.0910262449
 20
6.6387048512
 11
5.0899662988
 21
6.5443487618
  0
LINE
  5
60D
100
AcDbEntity
  8
RACCORDO
100
AcDbLine
 62
7
  6
CONTINUOUS
 10
3.7739466799
 20
17.34395377
 11
3.7746786224
 21
17.4036029511
  0
LINE
  5
60E
100
AcDbEntity
  8
RACCORDO
100
AcDbLine
 62
7
  6
CONTINUOUS
 10
3.8175471872
 20
13.7373109777
 11
3.8182899755
 21
13.7978440277
  0
LINE
  5
60F
100
AcDbEntity
  8
RACCORDO
100
AcDbLine
 62
7
  6
CONTINUOUS
 10
3.8611476945
 20
10.1306681853
 11
3.8619013285
 21
10.1920851043
  0
LINE
  5
610
100
AcDbEntity
  8
RACCORDO
100
AcDbLine
 62
7
  6
CONTINUOUS
 10
3.8611476945
 20
6.5306681853
 11
3.8619013285
 21
6.5920851043
  0
LINE
  5
611
100
AcDbEntity
  8
RACCORDO
100
AcDbLine
 62
7
  6
CONTINUOUS
 10
3.8175471872
 20
2.9373109777
 11
3.8182899755
 21
2.9978440277
  0
LINE
  5
612
100
AcDbEntity
  8
RACCORDO
100
AcDbLine
 62
7
  6
CONTINUOUS
 10
4.9161565116
 20
17.4154659423
 11
4.9150078118
 21
17.3261408076
  0
LINE
  5
613
100
AcDbEntity
  8
RACCORDO
100
AcDbLine
 62
7
  6
CONTINUOUS
 10
4.9161565116
 20
-0.5845340577
 11
4.9150078118
 21
-0.6738591924
  0
LINE
  5
614
100
AcDbEntity
  8
RACCORDO
100
AcDbLine
 62
7
  6
CONTINUOUS
 10
5.0031898218
 20
13.7894751854
 11
5.0020078928
 21
13.702564479
  0
LINE
  5
615
100
AcDbEntity
  8
RACCORDO
100
AcDbLine
 62
7
  6
CONTINUOUS
 10
5.0031898218
 20
2.9894751854
 11
5.0020078928
 21
2.902564479
  0
LINE
  5
616
100
AcDbEntity
  8
RACCORDO
100
AcDbLine
 62
7
  6
CONTINUOUS
 10
3.7736809436
 20
-0.672191379
 11
3.7742022351
 21
-0.6379758597
  0
LINE
  5
617
100
AcDbEntity
  8
RACCORDO
100
AcDbLine
 62
7
  6
CONTINUOUS
 10
5.0899662988
 20
10.1443487618
 11
5.0886673657
 21
10.059826399
  0
LINE
  5
618
100
AcDbEntity
  8
RACCORDO
100
AcDbLine
 62
7
  6
CONTINUOUS
 10
5.0899662988
 20
6.5443487618
 11
5.0886673657
 21
6.459826399
  0
LINE
  5
619
100
AcDbEntity
  8
RACCORDO
100
AcDbLine
 62
7
  6
CONTINUOUS
 10
3.7735443795
 20
17.3204676888
 11
3.7739466799
 21
17.34395377
  0
LINE
  5
61A
100
AcDbEntity
  8
RACCORDO
100
AcDbLine
 62
7
  6
CONTINUOUS
 10
3.8171389256
 20
13.7134768846
 11
3.8175471872
 21
13.7373109777
  0
LINE
  5
61B
100
AcDbEntity
  8
RACCORDO
100
AcDbLine
 62
7
  6
CONTINUOUS
 10
3.8607334717
 20
10.1064860804
 11
3.8611476945
 21
10.1306681853
  0
LINE
  5
61C
100
AcDbEntity
  8
RACCORDO
100
AcDbLine
 62
7
  6
CONTINUOUS
 10
3.8607334717
 20
6.5064860804
 11
3.8611476945
 21
6.5306681853
  0
LINE
  5
61D
100
AcDbEntity
  8
RACCORDO
100
AcDbLine
 62
7
  6
CONTINUOUS
 10
3.8171389256
 20
2.9134768846
 11
3.8175471872
 21
2.9373109777
  0
LINE
  5
61E
100
AcDbEntity
  8
RACCORDO
100
AcDbLine
 62
7
  6
CONTINUOUS
 10
4.9150078118
 20
17.3261408076
 11
4.9139205004
 21
17.2624020943
  0
LINE
  5
61F
100
AcDbEntity
  8
RACCORDO
100
AcDbLine
 62
7
  6
CONTINUOUS
 10
4.9150078118
 20
-0.6738591924
 11
4.9139205004
 21
-0.7375979057
  0
LINE
  5
620
100
AcDbEntity
  8
RACCORDO
100
AcDbLine
 62
7
  6
CONTINUOUS
 10
5.0020078928
 20
13.702564479
 11
5.0009032887
 21
13.6407146935
  0
LINE
  5
621
100
AcDbEntity
  8
RACCORDO
100
AcDbLine
 62
7
  6
CONTINUOUS
 10
5.0020078928
 20
2.902564479
 11
5.0009032887
 21
2.8407146935
  0
LINE
  5
622
100
AcDbEntity
  8
RACCORDO
100
AcDbLine
 62
7
  6
CONTINUOUS
 10
5.0886673657
 20
10.059826399
 11
5.0874737765
 21
10.0005667205
  0
LINE
  5
623
100
AcDbEntity
  8
RACCORDO
100
AcDbLine
 62
7
  6
CONTINUOUS
 10
5.0886673657
 20
6.459826399
 11
5.0874737765
 21
6.4005667205
  0
LINE
  5
624
100
AcDbEntity
  8
RACCORDO
100
AcDbLine
 62
7
  6
CONTINUOUS
 10
3.7732654734
 20
-0.6926563182
 11
3.7736809436
 21
-0.672191379
  0
LINE
  5
625
100
AcDbEntity
  8
RACCORDO
100
AcDbLine
 62
7
  6
CONTINUOUS
 10
4.9139205004
 20
17.2624020943
 11
4.9127009438
 21
17.206650978
  0
LINE
  5
626
100
AcDbEntity
  8
RACCORDO
100
AcDbLine
 62
7
  6
CONTINUOUS
 10
4.9139205004
 20
-0.7375979057
 11
4.9127009438
 21
-0.793349022
  0
LINE
  5
627
100
AcDbEntity
  8
RACCORDO
100
AcDbLine
 62
7
  6
CONTINUOUS
 10
3.7731231314
 20
17.3015606071
 11
3.7735443795
 21
17.3204676888
  0
LINE
  5
628
100
AcDbEntity
  8
RACCORDO
100
AcDbLine
 62
7
  6
CONTINUOUS
 10
3.8167114355
 20
13.6942896418
 11
3.8171389256
 21
13.7134768846
  0
LINE
  5
629
100
AcDbEntity
  8
RACCORDO
100
AcDbLine
 62
7
  6
CONTINUOUS
 10
3.8602997397
 20
10.0870186765
 11
3.8607334717
 21
10.1064860804
  0
LINE
  5
62A
100
AcDbEntity
  8
RACCORDO
100
AcDbLine
 62
7
  6
CONTINUOUS
 10
3.8602997397
 20
6.4870186765
 11
3.8607334717
 21
6.5064860804
  0
LINE
  5
62B
100
AcDbEntity
  8
RACCORDO
100
AcDbLine
 62
7
  6
CONTINUOUS
 10
3.8167114355
 20
2.8942896418
 11
3.8171389256
 21
2.9134768846
  0
LINE
  5
62C
100
AcDbEntity
  8
RACCORDO
100
AcDbLine
 62
7
  6
CONTINUOUS
 10
5.0009032887
 20
13.6407146935
 11
4.9996741683
 21
13.5867255924
  0
LINE
  5
62D
100
AcDbEntity
  8
RACCORDO
100
AcDbLine
 62
7
  6
CONTINUOUS
 10
5.0009032887
 20
2.8407146935
 11
4.9996741683
 21
2.7867255924
  0
LINE
  5
62E
100
AcDbEntity
  8
RACCORDO
100
AcDbLine
 62
7
  6
CONTINUOUS
 10
5.0874737765
 20
10.0005667205
 11
5.0864993944
 21
9.961616654
  0
LINE
  5
62F
100
AcDbEntity
  8
RACCORDO
100
AcDbLine
 62
7
  6
CONTINUOUS
 10
5.0874737765
 20
6.4005667205
 11
5.0864993944
 21
6.361616654
  0
LINE
  5
630
100
AcDbEntity
  8
RACCORDO
100
AcDbLine
 62
7
  6
CONTINUOUS
 10
3.7729792686
 20
-0.7036858068
 11
3.7732654734
 21
-0.6926563182
  0
LINE
  5
631
100
AcDbEntity
  8
RACCORDO
100
AcDbLine
 62
7
  6
CONTINUOUS
 10
4.9127009438
 20
17.206650978
 11
4.9117096008
 21
17.1705903129
  0
LINE
  5
632
100
AcDbEntity
  8
RACCORDO
100
AcDbLine
 62
7
  6
CONTINUOUS
 10
4.9127009438
 20
-0.793349022
 11
4.9117096008
 21
-0.8294096871
  0
LINE
  5
633
100
AcDbEntity
  8
RACCORDO
100
AcDbLine
 62
7
  6
CONTINUOUS
 10
4.9996741683
 20
13.5867255924
 11
4.9986801272
 21
13.5518545494
  0
LINE
  5
634
100
AcDbEntity
  8
RACCORDO
100
AcDbLine
 62
7
  6
CONTINUOUS
 10
4.9996741683
 20
2.7867255924
 11
4.9986801272
 21
2.7518545494
  0
LINE
  5
635
100
AcDbEntity
  8
RACCORDO
100
AcDbLine
 62
7
  6
CONTINUOUS
 10
5.0864993944
 20
9.961616654
 11
5.0854659932
 21
9.9277580019
  0
LINE
  5
636
100
AcDbEntity
  8
RACCORDO
100
AcDbLine
 62
7
  6
CONTINUOUS
 10
5.0864993944
 20
6.361616654
 11
5.0854659932
 21
6.3277580019
  0
LWPOLYLINE
  5
637
100
AcDbEntity
  8
RACCORDO
100
AcDbPolyline
 62
250
  6
CONTINUOUS
 90
31
 70
0
 10
4.7627721773
 20
32.6365898315
 10
4.7623936217
 20
32.6252918593
 10
4.7613344941
 20
32.6140215553
 10
4.7595971176
 20
32.6028096854
 10
4.7571854162
 20
32.5916858763
 10
4.7541055459
 20
32.5806816243
 10
4.7503664949
 20
32.5698300845
 10
4.7459789505
 20
32.5591619614
 10
4.7409545515
 20
32.5487052881
 10
4.7353068709
 20
32.5384883693
 10
4.7290511783
 20
32.5285389642
 10
4.7222046037
 20
32.5188844396
 10
4.7147859955
 20
32.5095514162
 10
4.7068156914
 20
32.500565466
 10
4.6983153966
 20
32.4919510468
 10
4.6893083061
 20
32.4837316684
 10
4.6798190025
 20
32.4759297718
 10
4.6698734154
 20
32.4685666836
 10
4.6594987325
 20
32.4616625347
 10
4.6487233001
 20
32.4552361881
 10
4.6375765421
 20
32.4493051911
 10
4.626088905
 20
32.4438857438
 10
4.6142917483
 20
32.4389926418
 10
4.6022173119
 20
32.4346392587
 10
4.5898986323
 20
32.4308375014
 10
4.5773693969
 20
32.4275977549
 10
4.5646637941
 20
32.4249288485
 10
4.5518164733
 20
32.422838056
 10
4.538862506
 20
32.4213310861
 10
4.5258372922
 20
32.4204120577
 10
4.5127764081
 20
32.4200834806
  0
LINE
  5
638
100
AcDbEntity
  8
RACCORDO
100
AcDbLine
 62
7
  6
CONTINUOUS
 10
4.9117096008
 20
17.1705903129
 11
4.9110172867
 21
17.1494985476
  0
LINE
  5
639
100
AcDbEntity
  8
RACCORDO
100
AcDbLine
 62
7
  6
CONTINUOUS
 10
4.9117096008
 20
-0.8294096871
 11
4.9110172867
 21
-0.8505014524
  0
LINE
  5
63A
100
AcDbEntity
  8
RACCORDO
100
AcDbLine
 62
7
  6
CONTINUOUS
 10
4.9986801272
 20
13.5518545494
 11
4.9979878871
 21
13.5314755965
  0
LINE
  5
63B
100
AcDbEntity
  8
RACCORDO
100
AcDbLine
 62
7
  6
CONTINUOUS
 10
4.9986801272
 20
2.7518545494
 11
4.9979878871
 21
2.7314755965
  0
LINE
  5
63C
100
AcDbEntity
  8
RACCORDO
100
AcDbLine
 62
7
  6
CONTINUOUS
 10
5.0854659932
 20
9.9277580019
 11
5.0847483887
 21
9.9081650242
  0
LINE
  5
63D
100
AcDbEntity
  8
RACCORDO
100
AcDbLine
 62
7
  6
CONTINUOUS
 10
5.0854659932
 20
6.3277580019
 11
5.0847483887
 21
6.3081650242
  0
LINE
  5
63E
100
AcDbEntity
  8
RACCORDO
100
AcDbLine
 62
7
  6
CONTINUOUS
 10
4.9110172867
 20
17.1494985476
 11
4.9103021181
 21
17.1308489516
  0
LINE
  5
63F
100
AcDbEntity
  8
RACCORDO
100
AcDbLine
 62
7
  6
CONTINUOUS
 10
4.9110172867
 20
-0.8505014524
 11
4.9103021181
 21
-0.8691510484
  0
LINE
  5
640
100
AcDbEntity
  8
RACCORDO
100
AcDbLine
 62
7
  6
CONTINUOUS
 10
4.9979878871
 20
13.5314755965
 11
4.997274314
 21
13.5134711978
  0
LINE
  5
641
100
AcDbEntity
  8
RACCORDO
100
AcDbLine
 62
7
  6
CONTINUOUS
 10
4.9979878871
 20
2.7314755965
 11
4.997274314
 21
2.7134711978
  0
LWPOLYLINE
  5
642
100
AcDbEntity
  8
RACCORDO
100
AcDbPolyline
 62
7
  6
CONTINUOUS
 90
14
 70
0
 10
5.0847483887
 20
9.9081650242
 10
5.0840101988
 20
9.8910258002
 10
5.0836346931
 20
9.8834122629
 10
5.0832548895
 20
9.8764340566
 10
5.0828717785
 20
9.8701109572
 10
5.0824853223
 20
9.8644443387
 10
5.0820955589
 20
9.8594328271
 10
5.0817035924
 20
9.855092078
 10
5.0813094199
 20
9.8514242346
 10
5.0809130444
 20
9.8484271536
 10
5.080515579
 20
9.8461100602
 10
5.0801173948
 20
9.8444760296
 10
5.0797181206
 20
9.8435219867
 10
5.0793177565
 20
9.8432479315
  0
LWPOLYLINE
  5
643
100
AcDbEntity
  8
RACCORDO
100
AcDbPolyline
 62
7
  6
CONTINUOUS
 90
14
 70
0
 10
5.0847483887
 20
6.3081650242
 10
5.0840101988
 20
6.2910258002
 10
5.0836346931
 20
6.2834122629
 10
5.0832548895
 20
6.2764340566
 10
5.0828717785
 20
6.2701109572
 10
5.0824853223
 20
6.2644443387
 10
5.0820955589
 20
6.2594328271
 10
5.0817035924
 20
6.255092078
 10
5.0813094199
 20
6.2514242346
 10
5.0809130444
 20
6.2484271536
 10
5.080515579
 20
6.2461100602
 10
5.0801173948
 20
6.2444760296
 10
5.0797181206
 20
6.2435219867
 10
5.0793177565
 20
6.2432479315
  0
LWPOLYLINE
  5
644
100
AcDbEntity
  8
RACCORDO
100
AcDbPolyline
 62
7
  6
CONTINUOUS
 90
13
 70
0
 10
4.9103021181
 20
17.1308489516
 10
4.909567981
 20
17.1147447388
 10
4.909194254
 20
17.1076597468
 10
4.9088170422
 20
17.1012383801
 10
4.9084362695
 20
17.0954815224
 10
4.908052012
 20
17.0903882901
 10
4.9076654753
 20
17.085976252
 10
4.9072766866
 20
17.0822480871
 10
4.9068856187
 20
17.0792011164
 10
4.9064933964
 20
17.0768448722
 10
4.9061003944
 20
17.0751825318
 10
4.905706238
 20
17.0742109179
 10
4.9053109271
 20
17.0739300304
  0
LWPOLYLINE
  5
645
100
AcDbEntity
  8
RACCORDO
100
AcDbPolyline
 62
7
  6
CONTINUOUS
 90
13
 70
0
 10
4.997274314
 20
13.5134711978
 10
4.9965428593
 20
13.4979306696
 10
4.9961708347
 20
13.4910953903
 10
4.9957955706
 20
13.4849018002
 10
4.9954170298
 20
13.4793512449
 10
4.9950352494
 20
13.4744423788
 10
4.9946513112
 20
13.4701905365
 10
4.9942652121
 20
13.4665978176
 10
4.9938769552
 20
13.4636621226
 10
4.9934876306
 20
13.4613924877
 10
4.9930976019
 20
13.4597919253
 10
4.9927065056
 20
13.458857423
 10
4.9923143418
 20
13.458588981
  0
LWPOLYLINE
  5
646
100
AcDbEntity
  8
RACCORDO
100
AcDbPolyline
 62
7
  6
CONTINUOUS
 90
13
 70
0
 10
4.997274314
 20
2.7134711978
 10
4.9965428593
 20
2.6979306696
 10
4.9961708347
 20
2.6910953903
 10
4.9957955706
 20
2.6849018002
 10
4.9954170298
 20
2.6793512449
 10
4.9950352494
 20
2.6744423788
 10
4.9946513112
 20
2.6701905365
 10
4.9942652121
 20
2.6665978176
 10
4.9938769552
 20
2.6636621226
 10
4.9934876306
 20
2.6613924877
 10
4.9930976019
 20
2.6597919253
 10
4.9927065056
 20
2.658857423
 10
4.9923143418
 20
2.658588981
  0
LINE
  5
647
100
AcDbEntity
  8
RACCORDO
100
AcDbLine
 62
7
  6
CONTINUOUS
 10
1.4661660225
 20
-11.6661509841
 11
1.4159816859
 21
-12.1182181162
  0
LWPOLYLINE
  5
648
100
AcDbEntity
  8
RACCORDO
100
AcDbPolyline
 62
7
  6
CONTINUOUS
 90
10
 70
0
 10
3.8587683727
 20
6.4584637192
 10
3.8589246731
 20
6.4587306209
 10
3.8590804464
 20
6.4595762251
 10
3.8592356925
 20
6.4610005317
 10
3.8593905774
 20
6.4630065903
 10
3.8595449352
 20
6.4655913513
 10
3.8596982676
 20
6.4687456658
 10
3.8598505885
 20
6.4724721472
 10
3.8600018839
 20
6.4767681821
 10
3.8602997397
 20
6.4870186765
  0
LINE
  5
649
100
AcDbEntity
  8
0
100
AcDbLine
 62
7
  6
CONTINUOUS
 10
-7.6329607003
 20
-9.7972461747
 11
-7.6329226261
 21
-9.7972021036
  0
LINE
  5
64A
100
AcDbEntity
  8
DRAFT
100
AcDbLine
 62
7
  6
CONTINUOUS
 10
-13.3683858069
 20
-12.0577477357
 11
-13.2828559887
 21
-11.9722179176
  0
LINE
  5
64B
100
AcDbEntity
  8
RACCORDO
100
AcDbLine
 62
7
  6
CONTINUOUS
 10
-12.2398774902
 20
-10.9647692372
 11
-12.1828559887
 21
-10.9077477357
  0
LINE
  5
64C
100
AcDbEntity
  8
RACCORDO
100
AcDbLine
 62
250
  6
CONTINUOUS
 10
-16.5284841547
 20
-15.4533801325
 11
-16.5328559887
 21
-15.4577519665
  0
LINE
  5
64D
100
AcDbEntity
  8
DRAFT
100
AcDbLine
 62
7
  6
CONTINUOUS
 10
-11.6328559887
 20
-10.9077477357
 11
-11.5438351576
 21
-10.8187269046
  0
LINE
  5
64E
100
AcDbEntity
  8
RACCORDO
100
AcDbLine
 62
250
  6
CONTINUOUS
 10
-16.2784883855
 20
-15.7033759017
 11
-16.2828602195
 21
-15.7077477357
  0
LINE
  5
64F
100
AcDbEntity
  8
DRAFT
100
AcDbLine
 62
7
  6
CONTINUOUS
 10
-11.6328559887
 20
-11.1077477357
 11
-11.5438351576
 21
-11.0187269046
  0
LWPOLYLINE
  5
650
100
AcDbEntity
  8
0
100
AcDbPolyline
 62
7
  6
CONTINUOUS
 90
3
 70
0
 10
-7.8798101719
 20
-4.7513758103
 10
-7.8921653711
 20
-4.7610313408
 10
-7.9009583876
 20
-4.7705640072
  0
LWPOLYLINE
  5
651
100
AcDbEntity
  8
0
100
AcDbPolyline
 62
7
  6
CONTINUOUS
 90
16
 70
0
 10
-13.8328559887
 20
-4.7562025156
 10
-13.6505997668
 20
-4.698353614
 10
-13.473127125
 20
-4.6436751254
 10
-13.3004380632
 20
-4.5921670497
 10
-13.133233447
 20
-4.5440295845
 10
-12.9708124109
 20
-4.4990625322
 10
-12.811072358
 20
-4.4566653006
 10
-12.6537889352
 20
-4.4167156959
 10
-12.4991864957
 20
-4.3793359118
 10
-12.3458355024
 20
-4.3442919376
 10
-12.1935992994
 20
-4.3115007457
 10
-12.0426145425
 20
-4.2810453637
 10
-11.8918616625
 20
-4.2529408645
 10
-11.7410008029
 20
-4.2271922722
 10
-11.5903718202
 20
-4.2037945626
 10
-11.4399747143
 20
-4.1827477357
  0
LWPOLYLINE
  5
652
100
AcDbEntity
  8
0
100
AcDbPolyline
 62
7
  6
CONTINUOUS
 90
3
 70
0
 10
2.0891688876
 20
22.3473801526
 10
2.0850862121
 20
22.3462479077
 10
2.0671440113
 20
22.3407070441
  0
LINE
  5
653
100
AcDbEntity
  8
RACCORDO
100
AcDbLine
 62
7
  6
CONTINUOUS
 10
-15.4328559887
 20
17.2922522643
 11
-16.6710229045
 21
17.0739300304
  0
LINE
  5
654
100
AcDbEntity
  8
RACCORDO
100
AcDbLine
 62
7
  6
CONTINUOUS
 10
4.9053109271
 20
17.0739300304
 11
3.6671440113
 21
17.2922522643
  0
LINE
  5
655
100
AcDbEntity
  8
RACCORDO
100
AcDbLine
 62
250
  6
CONTINUOUS
 10
-1.96084953
 20
19.067685223
 11
-1.7441019741
 21
18.8619260584
  0
LINE
  5
656
100
AcDbEntity
  8
DRAFT
100
AcDbLine
 62
7
  6
CONTINUOUS
 10
-13.3683858069
 20
29.6422522643
 11
-13.2828559887
 21
29.5567224461
  0
LINE
  5
657
100
AcDbEntity
  8
RACCORDO
100
AcDbLine
 62
7
  6
CONTINUOUS
 10
-12.2398774902
 20
28.5492737657
 11
-12.1828559887
 21
28.4922522643
  0
LINE
  5
658
100
AcDbEntity
  8
RACCORDO
100
AcDbLine
 62
250
  6
CONTINUOUS
 10
-16.5284841547
 20
33.037884661
 11
-16.5328559887
 21
33.042256495
  0
LINE
  5
659
100
AcDbEntity
  8
DRAFT
100
AcDbLine
 62
7
  6
CONTINUOUS
 10
-11.6328559887
 20
28.4922522643
 11
-11.5438351576
 21
28.4032314331
  0
LINE
  5
65A
100
AcDbEntity
  8
RACCORDO
100
AcDbLine
 62
250
  6
CONTINUOUS
 10
-16.2784883855
 20
33.2878804302
 11
-16.2828602195
 21
33.2922522643
  0
LINE
  5
65B
100
AcDbEntity
  8
DRAFT
100
AcDbLine
 62
7
  6
CONTINUOUS
 10
-11.5438351576
 20
28.6032314331
 11
-11.6328559887
 21
28.6922522643
  0
LINE
  5
65C
100
AcDbEntity
  8
RACCORDO
100
AcDbLine
 62
250
  6
CONTINUOUS
 10
-1.5222175215
 20
18.4803377261
 11
-1.7312598092
 21
18.6939206786
  0
LINE
  5
65D
100
AcDbEntity
  8
0
100
AcDbLine
 62
250
  6
CONTINUOUS
 10
-4.1327893514
 20
27.3817066321
 11
-4.5413940678
 21
28.0893374733
  0
LWPOLYLINE
  5
65E
100
AcDbEntity
  8
0
100
AcDbPolyline
 62
7
  6
CONTINUOUS
 90
19
 70
0
 10
2.2671440113
 20
20.6838637615
 10
2.2663375585
 20
20.6894047071
 10
2.2639504268
 20
20.6943011647
 10
2.2600396578
 20
20.6985531342
 10
2.2546803451
 20
20.7021651239
 10
2.2479457493
 20
20.7051326255
 10
2.239889129
 20
20.7074421145
 10
2.2305924332
 20
20.709089524
 10
2.2201393677
 20
20.7100789209
 10
2.2085655873
 20
20.7104089817
 10
2.1959554773
 20
20.7100788103
 10
2.1824016035
 20
20.7090893029
 10
2.1679343101
 20
20.7074418245
 10
2.1526447325
 20
20.7051323314
 10
2.1366416212
 20
20.7021648673
 10
2.1199755938
 20
20.6985529286
 10
2.1027417275
 20
20.6943010142
 10
2.0850862121
 20
20.6894046251
 10
2.0671440113
 20
20.6838637615
  0
LINE
  5
65F
100
AcDbEntity
  8
RACCORDO
100
AcDbLine
 62
7
  6
CONTINUOUS
 10
1.4159816859
 20
29.7027226447
 11
1.4661660225
 21
29.2506555127
  0
LINE
  5
660
100
AcDbEntity
  8
RACCORDO
100
AcDbLine
 62
7
  6
CONTINUOUS
 10
4.909567981
 20
18.4697597897
 11
4.9103021181
 21
18.4536555769
  0
LWPOLYLINE
  5
661
100
AcDbEntity
  8
RACCORDO
100
AcDbPolyline
 62
7
  6
CONTINUOUS
 90
34
 70
0
 10
4.7671440113
 20
-15.4577519665
 10
4.766860861
 20
-15.4696472518
 10
4.7660120455
 20
-15.4815155913
 10
4.7645994854
 20
-15.4933301019
 10
4.762626379
 20
-15.5050640232
 10
4.760097193
 20
-15.5166907746
 10
4.757017653
 20
-15.5281840148
 10
4.7533947326
 20
-15.5395177095
 10
4.7492366371
 20
-15.550666185
 10
4.7445527835
 20
-15.561604182
 10
4.7393537801
 20
-15.5723069233
 10
4.7336514029
 20
-15.582750164
 10
4.7274585694
 20
-15.5929102417
 10
4.7207893068
 20
-15.6027641409
 10
4.713658722
 20
-15.6122895396
 10
4.7060829702
 20
-15.6214648548
 10
4.6980792118
 20
-15.6302693018
 10
4.6896655774
 20
-15.6386829362
 10
4.6808611303
 20
-15.6466866946
 10
4.6716858151
 20
-15.6542624465
 10
4.6621604164
 20
-15.6613930312
 10
4.6523065172
 20
-15.6680622939
 10
4.6421464396
 20
-15.6742551274
 10
4.6317031989
 20
-15.6799575046
 10
4.6210004576
 20
-15.6851565079
 10
4.6100624606
 20
-15.6898403615
 10
4.5989139851
 20
-15.6939984571
 10
4.5875802903
 20
-15.6976213775
 10
4.5760870501
 20
-15.7007009175
 10
4.5644602988
 20
-15.7032301035
 10
4.5527263774
 20
-15.7052032099
 10
4.5409118669
 20
-15.70661577
 10
4.5290435273
 20
-15.7074645855
 10
4.5171482421
 20
-15.7077477357
  0
LWPOLYLINE
  5
662
100
AcDbEntity
  8
RACCORDO
100
AcDbPolyline
 62
250
  6
CONTINUOUS
 90
31
 70
0
 10
4.7627721773
 20
-15.4533801325
 10
4.7624291387
 20
-15.4664636185
 10
4.7614018488
 20
-15.4795112451
 10
4.7596931233
 20
-15.4924872513
 10
4.7573076453
 20
-15.5053560721
 10
4.7542519531
 20
-15.5180824367
 10
4.7505344217
 20
-15.5306314643
 10
4.7461652402
 20
-15.5429687606
 10
4.7411563837
 20
-15.5550605113
 10
4.7355215806
 20
-15.5668735751
 10
4.7292762747
 20
-15.5783755746
 10
4.7224375832
 20
-15.5895349851
 10
4.7150242499
 20
-15.6003212207
 10
4.7070565931
 20
-15.6107047184
 10
4.6985564508
 20
-15.6206570188
 10
4.6895471203
 20
-15.6301508447
 10
4.6800532944
 20
-15.6391601753
 10
4.6701009939
 20
-15.6476603176
 10
4.6597174963
 20
-15.6556279743
 10
4.6489312607
 20
-15.6630413077
 10
4.6377718502
 20
-15.6698799991
 10
4.6262698506
 20
-15.676125305
 10
4.6144567868
 20
-15.6817601082
 10
4.6023650361
 20
-15.6867689647
 10
4.5900277399
 20
-15.6911381462
 10
4.5774787122
 20
-15.6948556776
 10
4.5647523476
 20
-15.6979113698
 10
4.5518835268
 20
-15.7002968477
 10
4.5389075207
 20
-15.7020055733
 10
4.5258598941
 20
-15.7030328632
 10
4.5127764081
 20
-15.7033759017
  0
LWPOLYLINE
  5
663
100
AcDbEntity
  8
RACCORDO
100
AcDbPolyline
 62
7
  6
CONTINUOUS
 90
13
 70
0
 10
4.9103021181
 20
-0.8691510484
 10
4.909567981
 20
-0.8852552612
 10
4.909194254
 20
-0.8923402532
 10
4.9088170422
 20
-0.8987616199
 10
4.9084362695
 20
-0.9045184776
 10
4.908052012
 20
-0.9096117099
 10
4.9076654753
 20
-0.914023748
 10
4.9072766866
 20
-0.9177519129
 10
4.9068856187
 20
-0.9207988836
 10
4.9064933964
 20
-0.9231551278
 10
4.9061003944
 20
-0.9248174682
 10
4.905706238
 20
-0.9257890821
 10
4.9053109271
 20
-0.9260699696
  0
LWPOLYLINE
  5
664
100
AcDbEntity
  8
RACCORDO
100
AcDbPolyline
 62
7
  6
CONTINUOUS
 90
10
 70
0
 10
3.8152021069
 20
2.8661456273
 10
3.815356158
 20
2.866408688
 10
3.8155096895
 20
2.8672421228
 10
3.8156627013
 20
2.8686459318
 10
3.8158153573
 20
2.8706231206
 10
3.8159674937
 20
2.8731706835
 10
3.8161186194
 20
2.8762796034
 10
3.8162687482
 20
2.8799524559
 10
3.8164178663
 20
2.8841866653
 10
3.8167114355
 20
2.8942896418
  0
LWPOLYLINE
  5
665
100
AcDbEntity
  8
0
100
AcDbPolyline
 62
7
  6
CONTINUOUS
 90
14
 70
0
 10
-7.2243178962
 20
-10.5048328811
 10
-7.2252857272
 20
-10.5060085279
 10
-7.2276856974
 20
-10.5071826254
 10
-7.2315178066
 20
-10.5083551737
 10
-7.236784967
 20
-10.509526743
 10
-7.2434842665
 20
-10.5106967632
 10
-7.251606969
 20
-10.5118635236
 10
-7.261154802
 20
-10.513026969
 10
-7.272126038
 20
-10.5141871547
 10
-7.2845067576
 20
-10.515342536
 10
-7.2982998547
 20
-10.5164931591
 10
-7.3135024355
 20
-10.5176389778
 10
-7.3300918995
 20
-10.5187783084
 10
-7.3480689391
 20
-10.5199110712
  0
LINE
  5
666
100
AcDbEntity
  8
ASSI
100
AcDbLine
 62
7
  6
CONTINUOUS
 10
-10.1438090799
 20
-14.8298892014
 11
-10.1172595424
 21
-14.799539161
  0
LINE
  5
667
100
AcDbEntity
  8
ASSI
100
AcDbLine
 62
7
  6
CONTINUOUS
 10
-10.1172595424
 20
-14.799539161
 11
-10.0869009813
 21
-14.7653627171
  0
LINE
  5
668
100
AcDbEntity
  8
ASSI
100
AcDbLine
 62
7
  6
CONTINUOUS
 10
-10.0869009813
 20
-14.7653627171
 11
-10.0527237044
 21
-14.7273644561
  0
LINE
  5
669
100
AcDbEntity
  8
ASSI
100
AcDbLine
 62
7
  6
CONTINUOUS
 10
-10.0527237044
 20
-14.7273644561
 11
-9.9944262314
 21
-14.6632766792
  0
LINE
  5
66A
100
AcDbEntity
  8
ASSI
100
AcDbLine
 62
7
  6
CONTINUOUS
 10
-9.9944262314
 20
-14.6632766792
 11
-9.8108259764
 21
-14.4641055505
  0
LINE
  5
66B
100
AcDbEntity
  8
DRAFT
100
AcDbLine
 62
7
  6
CONTINUOUS
 10
-7.5803900664
 20
-9.2446574341
 11
-7.6329607003
 21
-9.2972280679
  0
LINE
  5
66C
100
AcDbEntity
  8
RACCORDO
100
AcDbLine
 62
7
  6
CONTINUOUS
 10
-7.580873012
 20
-9.7451593551
 11
-7.6329226261
 21
-9.7972021036
  0
LINE
  5
66D
100
AcDbEntity
  8
RACCORDO
100
AcDbLine
 62
250
  6
CONTINUOUS
 10
-17.0328559887
 20
-8.8794467845
 11
-16.4565342132
 21
-8.6407264888
  0
LINE
  5
66E
100
AcDbEntity
  8
0
100
AcDbLine
 62
7
  6
CONTINUOUS
 10
-4.2946274211
 20
22.3183635248
 11
-3.3713592955
 21
22.5657524735
  0
LWPOLYLINE
  5
66F
100
AcDbEntity
  8
RACCORDO
100
AcDbPolyline
 62
7
  6
CONTINUOUS
 90
10
 70
0
 10
0.308655013
 20
20.2672522643
 10
0.3644385278
 20
20.2677929019
 10
0.4189813439
 20
20.2695054709
 10
0.4722834615
 20
20.2723899713
 10
0.5243703157
 20
20.2764361552
 10
0.5752164714
 20
20.2816542706
 10
0.6247456227
 20
20.2880750609
 10
0.6729323345
 20
20.295708774
 10
0.7198020419
 20
20.304545162
 10
0.7653547451
 20
20.314584225
  0
LINE
  5
670
100
AcDbEntity
  8
RACCORDO
100
AcDbLine
 62
7
  6
CONTINUOUS
 10
-5.0328559887
 20
20.2672522643
 11
-2.2484076539
 21
20.2672522643
  0
LINE
  5
671
100
AcDbEntity
  8
RACCORDO
100
AcDbLine
 62
7
  6
CONTINUOUS
 10
-0.5173043235
 20
20.2672522643
 11
0.308655013
 21
20.2672522643
  0
LINE
  5
672
100
AcDbEntity
  8
RACCORDO
100
AcDbLine
 62
7
  6
CONTINUOUS
 10
2.2671440113
 20
20.2672522643
 11
0.4485982427
 21
20.2672522643
  0
LINE
  5
673
100
AcDbEntity
  8
RACCORDO
100
AcDbLine
 62
250
  6
CONTINUOUS
 10
-5.0328559887
 20
20.314584225
 11
-3.5310667225
 21
20.314584225
  0
LINE
  5
674
100
AcDbEntity
  8
RACCORDO
100
AcDbLine
 62
250
  6
CONTINUOUS
 10
2.2671440113
 20
20.314584225
 11
0.7653547451
 21
20.314584225
  0
LINE
  5
675
100
AcDbEntity
  8
0
100
AcDbLine
 62
7
  6
CONTINUOUS
 10
-2.4399747143
 20
21.7672522643
 11
-2.3673115398
 21
21.7672522643
  0
LINE
  5
676
100
AcDbEntity
  8
0
100
AcDbLine
 62
7
  6
CONTINUOUS
 10
-0.3984004376
 20
21.7672522643
 11
-0.3257372631
 21
21.7672522643
  0
LWPOLYLINE
  5
677
100
AcDbEntity
  8
RACCORDO
100
AcDbPolyline
 62
7
  6
CONTINUOUS
 90
10
 70
0
 10
-3.5310667225
 20
20.314584225
 10
-3.4855140193
 20
20.304545162
 10
-3.4386443119
 20
20.295708774
 10
-3.3904576001
 20
20.2880750609
 10
-3.3409284488
 20
20.2816542706
 10
-3.2900822932
 20
20.2764361552
 10
-3.2379954389
 20
20.2723899713
 10
-3.1846933213
 20
20.2695054709
 10
-3.1301505052
 20
20.2677929019
 10
-3.0743669904
 20
20.2672522643
  0
LWPOLYLINE
  5
678
100
AcDbEntity
  8
RACCORDO
100
AcDbPolyline
 62
7
  6
CONTINUOUS
 90
10
 70
0
 10
-3.5310667225
 20
20.314584225
 10
-3.6663553096
 20
20.3475390532
 10
-3.8036431407
 20
20.3824181963
 10
-3.9429302157
 20
20.4192216543
 10
-4.0837639717
 20
20.4578231033
 10
-4.2265969716
 20
20.4983488673
 10
-4.3727869044
 20
20.541177918
 10
-4.522786333
 20
20.5864365792
 10
-4.6761426944
 20
20.633998527
 10
-4.8328559887
 20
20.6838637615
  0
LINE
  5
679
100
AcDbEntity
  8
RACCORDO
100
AcDbLine
 62
250
  6
CONTINUOUS
 10
-16.4565342132
 20
26.2252310173
 11
-17.0328559887
 21
26.463951313
  0
LWPOLYLINE
  5
67A
100
AcDbEntity
  8
RACCORDO
100
AcDbPolyline
 62
7
  6
CONTINUOUS
 90
12
 70
0
 10
4.9923143418
 20
14.9259155475
 10
4.9927065056
 20
14.9256471055
 10
4.9930976019
 20
14.9247126032
 10
4.9934876306
 20
14.9231120408
 10
4.9938769552
 20
14.9208424059
 10
4.9942652121
 20
14.9179067109
 10
4.9946513112
 20
14.914313992
 10
4.9950352494
 20
14.9100621497
 10
4.9954170298
 20
14.9051532836
 10
4.9957955706
 20
14.8996027283
 10
4.9961708347
 20
14.8934091382
 10
4.9965428593
 20
14.8865738589
  0
LINE
  5
67B
100
AcDbEntity
  8
ASSI
100
AcDbLine
 62
7
  6
CONTINUOUS
 10
-9.8108259764
 20
32.048610079
 11
-9.905899409
 21
32.1514379648
  0
LINE
  5
67C
100
AcDbEntity
  8
ASSI
100
AcDbLine
 62
7
  6
CONTINUOUS
 10
-9.905899409
 20
32.1514379648
 11
-9.9945227031
 21
32.2478872775
  0
LINE
  5
67D
100
AcDbEntity
  8
ASSI
100
AcDbLine
 62
7
  6
CONTINUOUS
 10
-9.9945227031
 20
32.2478872775
 11
-10.0528651922
 21
32.3120253061
  0
LINE
  5
67E
100
AcDbEntity
  8
ASSI
100
AcDbLine
 62
7
  6
CONTINUOUS
 10
-10.0528651922
 20
32.3120253061
 11
-10.0870853186
 21
32.3500730056
  0
LINE
  5
67F
100
AcDbEntity
  8
ASSI
100
AcDbLine
 62
7
  6
CONTINUOUS
 10
-10.0870853186
 20
32.3500730056
 11
-10.1174774875
 21
32.38429081
  0
LWPOLYLINE
  5
680
100
AcDbEntity
  8
ASSI
100
AcDbPolyline
 62
7
  6
CONTINUOUS
 90
18
 70
0
 10
-10.1174774875
 20
32.38429081
 10
-10.1440403398
 20
32.4146602635
 10
-10.155953776
 20
32.4284904535
 10
-10.1669791787
 20
32.4414404244
 10
-10.1771279367
 20
32.4535111355
 10
-10.1864443384
 20
32.4647767581
 10
-10.1949312244
 20
32.4752338065
 10
-10.2026082627
 20
32.4848857663
 10
-10.2095288033
 20
32.4938172661
 10
-10.2157081142
 20
32.5020483905
 10
-10.2211358071
 20
32.5095590549
 10
-10.2258171642
 20
32.5163736338
 10
-10.2297616308
 20
32.5224878954
 10
-10.232977276
 20
32.5279060716
 10
-10.235472475
 20
32.532665232
 10
-10.2372614208
 20
32.5367777334
 10
-10.2383611899
 20
32.540231219
 10
-10.2387887215
 20
32.543025689
  0
LINE
  5
681
100
AcDbEntity
  8
RACCORDO
100
AcDbLine
 62
7
  6
CONTINUOUS
 10
1.7942429174
 20
28.0014603069
 11
1.7756820535
 21
28.0893373459
  0
LINE
  5
682
100
AcDbEntity
  8
DRAFT
100
AcDbLine
 62
7
  6
CONTINUOUS
 10
2.3636567204
 20
-12.1182181162
 11
2.3671440113
 21
-12.1077477357
  0
LWPOLYLINE
  5
683
100
AcDbEntity
  8
RACCORDO
100
AcDbPolyline
 62
7
  6
CONTINUOUS
 90
9
 70
0
 10
3.7716358412
 20
-0.7261724646
 10
3.7717876429
 20
-0.725913245
 10
3.7719389326
 20
-0.7250919795
 10
3.7720897102
 20
-0.7237086681
 10
3.7722401372
 20
-0.7217603491
 10
3.7723900522
 20
-0.7192499842
 10
3.7725389712
 20
-0.716186459
 10
3.7726869079
 20
-0.7125672354
 10
3.7729792686
 20
-0.7036858068
  0
LINE
  5
684
100
AcDbEntity
  8
ASSI
100
AcDbLine
 62
7
  6
CONTINUOUS
 10
-10.2828559887
 20
-15.0077477357
 11
-10.2392053418
 21
-14.9640970889
  0
LINE
  5
685
100
AcDbEntity
  8
RACCORDO
100
AcDbLine
 62
250
  6
CONTINUOUS
 10
-16.4471587692
 20
-10.2934449553
 11
-15.8708369937
 21
-10.0547246596
  0
LWPOLYLINE
  5
686
100
AcDbEntity
  8
0
100
AcDbPolyline
 62
7
  6
CONTINUOUS
 90
14
 70
0
 10
-4.3174410531
 20
22.2682243352
 10
-4.2606808869
 20
22.2692799
 10
-4.2090773284
 20
22.2708619451
 10
-4.1626308268
 20
22.2730353755
 10
-4.122111763
 20
22.2758255737
 10
-4.0867422745
 20
22.2792534199
 10
-4.0542024277
 20
22.2833788005
 10
-4.0241572787
 20
22.2881530406
 10
-3.996935123
 20
22.2936103273
 10
-3.9712216271
 20
22.3000579741
 10
-3.945881082
 20
22.3078655533
 10
-3.9220537459
 20
22.3168336497
 10
-3.9018328932
 20
22.3263132265
 10
-3.8859018055
 20
22.3358803388
  0
LINE
  5
687
100
AcDbEntity
  8
0
100
AcDbLine
 62
7
  6
CONTINUOUS
 10
-4.3983733008
 20
22.2675705612
 11
-4.3174405293
 21
22.2682247574
  0
LINE
  5
688
100
AcDbEntity
  8
0
100
AcDbLine
 62
7
  6
CONTINUOUS
 10
-4.599988738
 20
22.2672645595
 11
-4.3983733008
 21
22.2675705612
  0
LINE
  5
689
100
AcDbEntity
  8
0
100
AcDbLine
 62
250
  6
CONTINUOUS
 10
1.6707793261
 20
22.2172522643
 11
0.3671440113
 21
22.2172522643
  0
LINE
  5
68A
100
AcDbEntity
  8
0
100
AcDbLine
 62
250
  6
CONTINUOUS
 10
-3.1328559887
 20
22.2172522643
 11
-4.4364913604
 21
22.2172522643
  0
LINE
  5
68B
100
AcDbEntity
  8
0
100
AcDbLine
 62
7
  6
CONTINUOUS
 10
1.5539316135
 20
22.2672522643
 11
0.3671440113
 21
22.2672522643
  0
LINE
  5
68C
100
AcDbEntity
  8
0
100
AcDbLine
 62
7
  6
CONTINUOUS
 10
-3.1328559887
 20
22.2672522643
 11
-4.319643591
 21
22.2672522643
  0
LINE
  5
68D
100
AcDbEntity
  8
0
100
AcDbLine
 62
7
  6
CONTINUOUS
 10
1.632648667
 20
22.2675705682
 11
1.8342749389
 21
22.2672645606
  0
LINE
  5
68E
100
AcDbEntity
  8
0
100
AcDbLine
 62
7
  6
CONTINUOUS
 10
1.551728559
 20
22.2682247516
 11
1.632648667
 21
22.2675705682
  0
LWPOLYLINE
  5
68F
100
AcDbEntity
  8
0
100
AcDbPolyline
 62
7
  6
CONTINUOUS
 90
16
 70
0
 10
-2.4399747143
 20
21.7672522643
 10
-2.590460891
 20
21.7883133413
 10
-2.7411672606
 20
21.8117249216
 10
-2.8920938233
 20
21.8374870051
 10
-3.0429010731
 20
21.8656052845
 10
-3.193928516
 20
21.8960740671
 10
-3.3461946695
 20
21.9288762754
 10
-3.4995629328
 20
21.9639288111
 10
-3.6541699067
 20
22.0013147724
 10
-3.811443912
 20
22.041266376
 10
-3.9711609169
 20
22.0836614674
 10
-4.1335449532
 20
22.128622201
 10
-4.3006964369
 20
22.1767472575
 10
-4.4733155067
 20
22.2282361969
 10
-4.650702024
 20
22.2828894591
 10
-4.8328559887
 20
22.3407070441
  0
LWPOLYLINE
  5
690
100
AcDbEntity
  8
0
100
AcDbPolyline
 62
7
  6
CONTINUOUS
 90
3
 70
0
 10
-4.8328559887
 20
22.3407070441
 10
-4.8507984171
 20
22.3462479897
 10
-4.8548808488
 20
22.3473801637
  0
LINE
  5
691
100
AcDbEntity
  8
RACCORDO
100
AcDbLine
 62
250
  6
CONTINUOUS
 10
-15.8708369937
 20
27.6392291881
 11
-16.4471587692
 21
27.8779494838
  0
LWPOLYLINE
  5
692
100
AcDbEntity
  8
RACCORDO
100
AcDbPolyline
 62
7
  6
CONTINUOUS
 90
12
 70
0
 10
4.9053109271
 20
18.5105744981
 10
4.905706238
 20
18.5102936106
 10
4.9061003944
 20
18.5093219967
 10
4.9064933964
 20
18.5076596563
 10
4.9068856187
 20
18.5053034121
 10
4.9072766866
 20
18.5022564414
 10
4.9076654753
 20
18.4985282765
 10
4.908052012
 20
18.4941162384
 10
4.9084362695
 20
18.4890230061
 10
4.9088170422
 20
18.4832661484
 10
4.909194254
 20
18.4768447817
 10
4.909567981
 20
18.4697597897
  0
LINE
  5
693
100
AcDbEntity
  8
RACCORDO
100
AcDbLine
 62
250
  6
CONTINUOUS
 10
3.6909745406
 20
18.7092859237
 11
3.4630534035
 21
18.9025947547
  0
LINE
  5
694
100
AcDbEntity
  8
RACCORDO
100
AcDbLine
 62
250
  6
CONTINUOUS
 10
-0.8048624474
 20
22.7168193055
 11
-1.0216100034
 21
22.9225784701
  0
LINE
  5
695
100
AcDbEntity
  8
ASSI
100
AcDbLine
 62
7
  6
CONTINUOUS
 10
-10.2828559887
 20
32.5922522643
 11
-10.2392053418
 21
32.5486016174
  0
LINE
  5
696
100
AcDbEntity
  8
RACCORDO
100
AcDbLine
 62
250
  6
CONTINUOUS
 10
-1.2434944559
 20
23.3041668024
 11
-1.0344521682
 21
23.0905838499
  0
LWPOLYLINE
  5
697
100
AcDbEntity
  8
0
100
AcDbPolyline
 62
7
  6
CONTINUOUS
 90
3
 70
0
 10
1.0990416124
 20
22.3550685357
 10
1.1077932333
 20
22.3455640296
 10
1.120110743
 20
22.3359285372
  0
LINE
  5
698
100
AcDbEntity
  8
DRAFT
100
AcDbLine
 62
7
  6
CONTINUOUS
 10
2.3636567204
 20
29.7027226447
 11
2.3671440113
 21
29.6922522643
  0
LWPOLYLINE
  5
699
100
AcDbEntity
  8
0
100
AcDbPolyline
 62
7
  6
CONTINUOUS
 90
17
 70
0
 10
1.5294793611
 20
22.3166685571
 10
1.4775892494
 20
22.3297292263
 10
1.4290172297
 20
22.3416555103
 10
1.3837642839
 20
22.3523888051
 10
1.3420583399
 20
22.3618171482
 10
1.3036673474
 20
22.3699328718
 10
1.2679007146
 20
22.3768131213
 10
1.2339747966
 20
22.3824918569
 10
1.2026627181
 20
22.3867478853
 10
1.1756080729
 20
22.3893683045
 10
1.1537018453
 20
22.3903104291
 10
1.1360464912
 20
22.3897660208
 10
1.121604695
 20
22.3879689093
 10
1.1100821474
 20
22.3850399552
 10
1.1017740001
 20
22.3809918816
 10
1.0965273618
 20
22.3758701111
 10
1.0943820335
 20
22.3704265045
  0
LINE
  5
69A
100
AcDbEntity
  8
0
100
AcDbLine
 62
7
  6
CONTINUOUS
 10
1.5289154436
 20
22.3183635248
 11
0.605647318
 21
22.5657524735
  0
LWPOLYLINE
  5
69B
100
AcDbEntity
  8
0
100
AcDbPolyline
 62
7
  6
CONTINUOUS
 90
14
 70
0
 10
1.120110743
 20
22.3359285372
 10
1.1360078258
 20
22.3263732432
 10
1.1562046732
 20
22.3168945719
 10
1.1800117591
 20
22.3079210245
 10
1.2053168576
 20
22.3001107942
 10
1.2309594826
 20
22.2936676604
 10
1.258095373
 20
22.2882148172
 10
1.2880803713
 20
22.2834374426
 10
1.3205953942
 20
22.2793014147
 10
1.3559665357
 20
22.2758606989
 10
1.3965283471
 20
22.2730581388
 10
1.4430636507
 20
22.2708743491
 10
1.4947973504
 20
22.2692845783
 10
1.5517290655
 20
22.2682243434
  0
LINE
  5
69C
100
AcDbEntity
  8
DRAFT
100
AcDbLine
 62
7
  6
CONTINUOUS
 10
1.3589657132
 20
-12.2037432814
 11
1.4159816859
 21
-12.1182181162
  0
LINE
  5
69D
100
AcDbEntity
  8
ASSI
100
AcDbLine
 62
7
  6
CONTINUOUS
 10
-2.2887054194
 20
-14.8308548468
 11
-2.2621715188
 21
-14.8005053294
  0
LINE
  5
69E
100
AcDbEntity
  8
ASSI
100
AcDbLine
 62
7
  6
CONTINUOUS
 10
-2.2621715188
 20
-14.8005053294
 11
-2.2318013239
 21
-14.7663027182
  0
LINE
  5
69F
100
AcDbEntity
  8
ASSI
100
AcDbLine
 62
7
  6
CONTINUOUS
 10
-2.2318013239
 20
-14.7663027182
 11
-2.1975756747
 21
-14.7282404581
  0
LWPOLYLINE
  5
6A0
100
AcDbEntity
  8
0
100
AcDbPolyline
 62
7
  6
CONTINUOUS
 90
12
 70
0
 10
-4.0488692043
 20
27.3892193015
 10
-4.0628725518
 20
27.3885527109
 10
-4.0756233274
 20
27.3878827127
 10
-4.0871167738
 20
27.3872090527
 10
-4.0973397666
 20
27.3865319851
 10
-4.1062790374
 20
27.3858529225
 10
-4.1139295568
 20
27.3851719203
 10
-4.1202884406
 20
27.384488923
 10
-4.1253507418
 20
27.383805177
 10
-4.1291150659
 20
27.3831210978
 10
-4.1315818252
 20
27.3824362699
 10
-4.1327512771
 20
27.3817506932
  0
LINE
  5
6A1
100
AcDbEntity
  8
RACCORDO
100
AcDbLine
 62
250
  6
CONTINUOUS
 10
-16.4565342132
 20
26.2252310173
 11
-15.456686518
 21
26.2252310173
  0
LINE
  5
6A2
100
AcDbEntity
  8
RACCORDO
100
AcDbLine
 62
250
  6
CONTINUOUS
 10
4.6908222358
 20
26.2252310173
 11
3.6909745406
 21
26.2252310173
  0
LINE
  5
6A3
100
AcDbEntity
  8
DRAFT
100
AcDbLine
 62
7
  6
CONTINUOUS
 10
1.4196099336
 20
26.8291619626
 11
-4.185321911
 21
26.8291619626
  0
LINE
  5
6A4
100
AcDbEntity
  8
RACCORDO
100
AcDbLine
 62
250
  6
CONTINUOUS
 10
-15.0944553992
 20
27.0016126117
 11
-4.185321911
 21
27.0016126117
  0
LINE
  5
6A5
100
AcDbEntity
  8
RACCORDO
100
AcDbLine
 62
250
  6
CONTINUOUS
 10
1.4196099336
 20
27.0016126117
 11
3.3287434218
 21
27.0016126117
  0
LINE
  5
6A6
100
AcDbEntity
  8
DRAFT
100
AcDbLine
 62
7
  6
CONTINUOUS
 10
1.4196099336
 20
26.8291619626
 11
1.3670392997
 21
26.8817325964
  0
LINE
  5
6A7
100
AcDbEntity
  8
RACCORDO
100
AcDbLine
 62
7
  6
CONTINUOUS
 10
1.4191269877
 20
27.3296639944
 11
1.367077374
 21
27.3817067426
  0
LINE
  5
6A8
100
AcDbEntity
  8
ASSI
100
AcDbLine
 62
7
  6
CONTINUOUS
 10
-2.1977253105
 20
32.3129103482
 11
-2.2319944069
 21
32.3510228478
  0
LINE
  5
6A9
100
AcDbEntity
  8
ASSI
100
AcDbLine
 62
7
  6
CONTINUOUS
 10
-2.2319944069
 20
32.3510228478
 11
-2.2623982876
 21
32.3852671055
  0
LWPOLYLINE
  5
6AA
100
AcDbEntity
  8
ASSI
100
AcDbPolyline
 62
7
  6
CONTINUOUS
 90
18
 70
0
 10
-2.2623982876
 20
32.3852671055
 10
-2.288944943
 20
32.4156356238
 10
-2.3008413522
 20
32.4294567002
 10
-2.3118436584
 20
32.4423920447
 10
-2.3219642415
 20
32.4544430078
 10
-2.3312500611
 20
32.4656868619
 10
-2.3397043725
 20
32.4761216534
 10
-2.3473454163
 20
32.485749336
 10
-2.3542257215
 20
32.4946530431
 10
-2.360360347
 20
32.5028530589
 10
-2.3657380106
 20
32.5103290992
 10
-2.3703625747
 20
32.5171034457
 10
-2.3742433682
 20
32.5231710799
 10
-2.3773887202
 20
32.5285370203
 10
-2.3798069398
 20
32.5332386042
 10
-2.3815125689
 20
32.5372882775
 10
-2.3825231417
 20
32.5406735943
 10
-2.3828559887
 20
32.5433945546
  0
LINE
  5
6AB
100
AcDbEntity
  8
0
100
AcDbLine
 62
7
  6
CONTINUOUS
 10
1.367077374
 20
27.3817067426
 11
1.3670392997
 21
27.3817508237
  0
LINE
  5
6AC
100
AcDbEntity
  8
DRAFT
100
AcDbLine
 62
7
  6
CONTINUOUS
 10
1.3589657132
 20
29.7882478099
 11
1.4159816859
 21
29.7027226447
  0
LINE
  5
6AD
100
AcDbEntity
  8
ASSI
100
AcDbLine
 62
7
  6
CONTINUOUS
 10
-2.1975756747
 20
-14.7282404581
 11
-2.1391244793
 21
-14.6639742627
  0
LINE
  5
6AE
100
AcDbEntity
  8
ASSI
100
AcDbLine
 62
7
  6
CONTINUOUS
 10
-2.1391244793
 20
-14.6639742627
 11
-1.954886001
 21
-14.4641055505
  0
LINE
  5
6AF
100
AcDbEntity
  8
RACCORDO
100
AcDbLine
 62
7
  6
CONTINUOUS
 10
1.3601225098
 20
-10.9647692372
 11
1.4171440113
 21
-10.9077477357
  0
LINE
  5
6B0
100
AcDbEntity
  8
DRAFT
100
AcDbLine
 62
7
  6
CONTINUOUS
 10
1.5171440113
 20
-10.9077477357
 11
1.6061648424
 21
-10.8187269046
  0
LINE
  5
6B1
100
AcDbEntity
  8
RACCORDO
100
AcDbLine
 62
250
  6
CONTINUOUS
 10
3.3981259309
 20
-9.3477255742
 11
3.3287434218
 21
-9.4171080832
  0
LINE
  5
6B2
100
AcDbEntity
  8
DRAFT
100
AcDbLine
 62
7
  6
CONTINUOUS
 10
1.5171440113
 20
-11.9722179176
 11
1.6061648424
 21
-11.8831970865
  0
LINE
  5
6B3
100
AcDbEntity
  8
0
100
AcDbLine
 62
7
  6
CONTINUOUS
 10
-4.41764468
 20
28.1044155603
 11
-4.377555874
 21
28.1066601249
  0
LINE
  5
6B4
100
AcDbEntity
  8
0
100
AcDbLine
 62
7
  6
CONTINUOUS
 10
-4.377555874
 20
28.1066601249
 11
-4.3320107905
 21
28.1088731098
  0
LINE
  5
6B5
100
AcDbEntity
  8
0
100
AcDbLine
 62
7
  6
CONTINUOUS
 10
-4.3320107905
 20
28.1088731098
 11
-4.281125828
 21
28.1110492592
  0
LINE
  5
6B6
100
AcDbEntity
  8
0
100
AcDbLine
 62
7
  6
CONTINUOUS
 10
-4.0171244466
 20
27.3905401785
 11
-4.0488692043
 21
27.3892193015
  0
LINE
  5
6B7
100
AcDbEntity
  8
0
100
AcDbLine
 62
7
  6
CONTINUOUS
 10
-4.281125828
 20
28.1110492592
 11
-4.1949488823
 21
28.1142375991
  0
LINE
  5
6B8
100
AcDbEntity
  8
0
100
AcDbLine
 62
7
  6
CONTINUOUS
 10
-3.9804336999
 20
27.3918444404
 11
-4.0171244466
 21
27.3905401785
  0
LINE
  5
6B9
100
AcDbEntity
  8
0
100
AcDbLine
 62
7
  6
CONTINUOUS
 10
-4.1949488823
 20
28.1142375991
 11
-4.0972716342
 21
28.1173234071
  0
LINE
  5
6BA
100
AcDbEntity
  8
0
100
AcDbLine
 62
7
  6
CONTINUOUS
 10
-3.9161134969
 20
27.3937682492
 11
-3.9804336999
 21
27.3918444404
  0
LINE
  5
6BB
100
AcDbEntity
  8
0
100
AcDbLine
 62
7
  6
CONTINUOUS
 10
-4.0972716342
 20
28.1173234071
 11
-3.9885031356
 21
28.1202935944
  0
LINE
  5
6BC
100
AcDbEntity
  8
0
100
AcDbLine
 62
7
  6
CONTINUOUS
 10
-3.9885031356
 20
28.1202935944
 11
-3.8690573989
 21
28.1231370125
  0
LINE
  5
6BD
100
AcDbEntity
  8
0
100
AcDbLine
 62
7
  6
CONTINUOUS
 10
-3.8136750989
 20
27.3962517186
 11
-3.9161134969
 21
27.3937682492
  0
LINE
  5
6BE
100
AcDbEntity
  8
0
100
AcDbLine
 62
7
  6
CONTINUOUS
 10
-3.8690573989
 20
28.1231370125
 11
-3.7394445908
 21
28.1258412269
  0
LINE
  5
6BF
100
AcDbEntity
  8
0
100
AcDbLine
 62
7
  6
CONTINUOUS
 10
-3.6603234828
 20
27.3991922862
 11
-3.8136750989
 21
27.3962517186
  0
LINE
  5
6C0
100
AcDbEntity
  8
0
100
AcDbLine
 62
7
  6
CONTINUOUS
 10
-3.7394445908
 20
28.1258412269
 11
-3.6001632506
 21
28.1283958833
  0
LINE
  5
6C1
100
AcDbEntity
  8
0
100
AcDbLine
 62
7
  6
CONTINUOUS
 10
-3.6001632506
 20
28.1283958833
 11
-3.4518368922
 21
28.1307894116
  0
LINE
  5
6C2
100
AcDbEntity
  8
0
100
AcDbLine
 62
7
  6
CONTINUOUS
 10
-3.4518368922
 20
28.1307894116
 11
-3.2950351248
 21
28.1330127876
  0
LINE
  5
6C3
100
AcDbEntity
  8
0
100
AcDbLine
 62
7
  6
CONTINUOUS
 10
-3.4007292005
 20
27.4029606011
 11
-3.6603234828
 21
27.3991922862
  0
LINE
  5
6C4
100
AcDbEntity
  8
0
100
AcDbLine
 62
7
  6
CONTINUOUS
 10
-3.2950351248
 20
28.1330127876
 11
-3.1304646218
 21
28.1350559524
  0
LINE
  5
6C5
100
AcDbEntity
  8
0
100
AcDbLine
 62
7
  6
CONTINUOUS
 10
-3.1304646218
 20
28.1350559524
 11
-2.9000282018
 21
28.1374870441
  0
LINE
  5
6C6
100
AcDbEntity
  8
0
100
AcDbLine
 62
7
  6
CONTINUOUS
 10
-3.0001804377
 20
27.4070644651
 11
-3.4007292005
 21
27.4029606011
  0
LINE
  5
6C7
100
AcDbEntity
  8
0
100
AcDbLine
 62
7
  6
CONTINUOUS
 10
-2.9000282018
 20
28.1374870441
 11
-2.6585493461
 21
28.1395668184
  0
LINE
  5
6C8
100
AcDbEntity
  8
0
100
AcDbLine
 62
7
  6
CONTINUOUS
 10
-2.6585493461
 20
28.1395668184
 11
-2.4078328055
 21
28.1412798144
  0
LINE
  5
6C9
100
AcDbEntity
  8
0
100
AcDbLine
 62
7
  6
CONTINUOUS
 10
-2.4838325198
 20
27.4104806071
 11
-3.0001804377
 21
27.4070644651
  0
LINE
  5
6CA
100
AcDbEntity
  8
0
100
AcDbLine
 62
7
  6
CONTINUOUS
 10
-2.4078328055
 20
28.1412798144
 11
-2.14957625
 21
28.1426143751
  0
LINE
  5
6CB
100
AcDbEntity
  8
0
100
AcDbLine
 62
7
  6
CONTINUOUS
 10
-2.14957625
 20
28.1426143751
 11
-1.8857411478
 21
28.1435600453
  0
LINE
  5
6CC
100
AcDbEntity
  8
0
100
AcDbLine
 62
7
  6
CONTINUOUS
 10
-1.8573250197
 20
27.4126622602
 11
-2.4838325198
 21
27.4104806071
  0
LINE
  5
6CD
100
AcDbEntity
  8
0
100
AcDbLine
 62
7
  6
CONTINUOUS
 10
-1.8857411478
 20
28.1435600453
 11
-1.6183704179
 21
28.1441097452
  0
LINE
  5
6CE
100
AcDbEntity
  8
RACCORDO
100
AcDbLine
 62
250
  6
CONTINUOUS
 10
-15.5086058749
 20
28.0014603069
 11
-4.5599549586
 21
28.0014603069
  0
LINE
  5
6CF
100
AcDbEntity
  8
RACCORDO
100
AcDbLine
 62
250
  6
CONTINUOUS
 10
1.7942429174
 20
28.0014603069
 11
3.7428938974
 21
28.0014603069
  0
LINE
  5
6D0
100
AcDbEntity
  8
0
100
AcDbLine
 62
7
  6
CONTINUOUS
 10
-1.6183704179
 20
28.1441097452
 11
-1.3492498846
 21
28.1442601338
  0
LINE
  5
6D1
100
AcDbEntity
  8
DRAFT
100
AcDbLine
 62
7
  6
CONTINUOUS
 10
-15.6750249243
 20
28.4032314331
 11
-13.3718768198
 21
28.4032314331
  0
LINE
  5
6D2
100
AcDbEntity
  8
DRAFT
100
AcDbLine
 62
7
  6
CONTINUOUS
 10
-11.5438351576
 20
28.4032314331
 11
-0.2218768198
 21
28.4032314331
  0
LINE
  5
6D3
100
AcDbEntity
  8
DRAFT
100
AcDbLine
 62
7
  6
CONTINUOUS
 10
1.6061648424
 20
28.4032314331
 11
3.9093129469
 21
28.4032314331
  0
LINE
  5
6D4
100
AcDbEntity
  8
DRAFT
100
AcDbLine
 62
7
  6
CONTINUOUS
 10
-13.2828559887
 20
28.4922522643
 11
-11.6328559887
 21
28.4922522643
  0
LINE
  5
6D5
100
AcDbEntity
  8
DRAFT
100
AcDbLine
 62
7
  6
CONTINUOUS
 10
-0.1328559887
 20
28.4922522643
 11
1.5171440113
 21
28.4922522643
  0
LINE
  5
6D6
100
AcDbEntity
  8
RACCORDO
100
AcDbLine
 62
250
  6
CONTINUOUS
 10
-13.1258344873
 20
28.5492737657
 11
-12.2398774902
 21
28.5492737657
  0
LINE
  5
6D7
100
AcDbEntity
  8
RACCORDO
100
AcDbLine
 62
250
  6
CONTINUOUS
 10
0.4741655127
 20
28.5492737657
 11
1.3601225098
 21
28.5492737657
  0
LINE
  5
6D8
100
AcDbEntity
  8
DRAFT
100
AcDbLine
 62
7
  6
CONTINUOUS
 10
-0.2218768198
 20
28.6032314331
 11
-11.5438351576
 21
28.6032314331
  0
LINE
  5
6D9
100
AcDbEntity
  8
RACCORDO
100
AcDbLine
 62
7
  6
CONTINUOUS
 10
-3.4828559887
 20
28.6766392154
 11
-8.2828559887
 21
28.6766392154
  0
LINE
  5
6DA
100
AcDbEntity
  8
RACCORDO
100
AcDbLine
 62
7
  6
CONTINUOUS
 10
-0.1328559887
 20
28.6922522643
 11
-2.4896543782
 21
28.6922522643
  0
LINE
  5
6DB
100
AcDbEntity
  8
RACCORDO
100
AcDbLine
 62
7
  6
CONTINUOUS
 10
-9.2760575993
 20
28.6922522643
 11
-11.6328559887
 21
28.6922522643
  0
LINE
  5
6DC
100
AcDbEntity
  8
DRAFT
100
AcDbLine
 62
7
  6
CONTINUOUS
 10
0.365365326
 20
28.7145831409
 11
-2.4828559887
 21
28.7145831409
  0
LINE
  5
6DD
100
AcDbEntity
  8
DRAFT
100
AcDbLine
 62
7
  6
CONTINUOUS
 10
-9.2828559887
 20
28.7145831409
 11
-12.1310773034
 21
28.7145831409
  0
LINE
  5
6DE
100
AcDbEntity
  8
RACCORDO
100
AcDbLine
 62
250
  6
CONTINUOUS
 10
-13.1246776906
 20
28.7492703811
 11
-12.2410342868
 21
28.7492703811
  0
LINE
  5
6DF
100
AcDbEntity
  8
RACCORDO
100
AcDbLine
 62
250
  6
CONTINUOUS
 10
0.4753223094
 20
28.7492703811
 11
1.3589657132
 21
28.7492703811
  0
LINE
  5
6E0
100
AcDbEntity
  8
RACCORDO
100
AcDbLine
 62
250
  6
CONTINUOUS
 10
-13.2828559887
 20
28.7513407453
 11
-13.234634674
 21
28.7513407453
  0
LINE
  5
6E1
100
AcDbEntity
  8
RACCORDO
100
AcDbLine
 62
250
  6
CONTINUOUS
 10
1.4689226966
 20
28.7513407453
 11
1.5171440113
 21
28.7513407453
  0
LINE
  5
6E2
100
AcDbEntity
  8
DRAFT
100
AcDbLine
 62
7
  6
CONTINUOUS
 10
-2.3828559887
 20
28.7922522643
 11
-2.4828559887
 21
28.7922522643
  0
LINE
  5
6E3
100
AcDbEntity
  8
DRAFT
100
AcDbLine
 62
7
  6
CONTINUOUS
 10
-9.2828559887
 20
28.7922522643
 11
-9.3828559887
 21
28.7922522643
  0
LINE
  5
6E4
100
AcDbEntity
  8
DRAFT
100
AcDbLine
 62
7
  6
CONTINUOUS
 10
-8.3828559887
 20
28.8454861578
 11
-8.3241671119
 21
28.8454861578
  0
LINE
  5
6E5
100
AcDbEntity
  8
DRAFT
100
AcDbLine
 62
7
  6
CONTINUOUS
 10
-3.4415448656
 20
28.8454861578
 11
-3.3828559887
 21
28.8454861578
  0
LINE
  5
6E6
100
AcDbEntity
  8
RACCORDO
100
AcDbLine
 62
250
  6
CONTINUOUS
 10
-12.2381507567
 20
28.8751955859
 11
0.4724387792
 21
28.8751955859
  0
LINE
  5
6E7
100
AcDbEntity
  8
0
100
AcDbLine
 62
7
  6
CONTINUOUS
 10
-1.1446192115
 20
27.4130209752
 11
-1.8573250197
 21
27.4126622602
  0
LINE
  5
6E8
100
AcDbEntity
  8
0
100
AcDbLine
 62
7
  6
CONTINUOUS
 10
-1.3492498846
 20
28.1442601338
 11
-1.080357167
 21
28.144009826
  0
LINE
  5
6E9
100
AcDbEntity
  8
0
100
AcDbLine
 62
7
  6
CONTINUOUS
 10
-1.080357167
 20
28.144009826
 11
-0.8137047571
 21
28.1433608043
  0
LINE
  5
6EA
100
AcDbEntity
  8
0
100
AcDbLine
 62
7
  6
CONTINUOUS
 10
-0.4479480703
 20
27.4112496674
 11
-1.1446192115
 21
27.4130209752
  0
LINE
  5
6EB
100
AcDbEntity
  8
0
100
AcDbLine
 62
7
  6
CONTINUOUS
 10
-0.8137047571
 20
28.1433608043
 11
-0.5510816511
 21
28.1423173432
  0
LINE
  5
6EC
100
AcDbEntity
  8
0
100
AcDbLine
 62
7
  6
CONTINUOUS
 10
-0.5510816511
 20
28.1423173432
 11
-0.2944995798
 21
28.140887087
  0
LINE
  5
6ED
100
AcDbEntity
  8
0
100
AcDbLine
 62
7
  6
CONTINUOUS
 10
0.1858899844
 20
27.4074690687
 11
-0.4479480703
 21
27.4112496674
  0
LINE
  5
6EE
100
AcDbEntity
  8
0
100
AcDbLine
 62
7
  6
CONTINUOUS
 10
-0.2944995798
 20
28.140887087
 11
-0.0459333927
 21
28.139081249
  0
LINE
  5
6EF
100
AcDbEntity
  8
0
100
AcDbLine
 62
7
  6
CONTINUOUS
 10
-0.0459333927
 20
28.139081249
 11
0.1929533683
 21
28.1369122463
  0
LINE
  5
6F0
100
AcDbEntity
  8
0
100
AcDbLine
 62
7
  6
CONTINUOUS
 10
0.1929533683
 20
28.1369122463
 11
0.3646953689
 21
28.1350565457
  0
LINE
  5
6F1
100
AcDbEntity
  8
0
100
AcDbLine
 62
7
  6
CONTINUOUS
 10
0.6350860079
 20
27.4029661216
 11
0.1858899844
 21
27.4074690687
  0
LINE
  5
6F2
100
AcDbEntity
  8
0
100
AcDbLine
 62
7
  6
CONTINUOUS
 10
0.3646953689
 20
28.1350565457
 11
0.5292730881
 21
28.1330133747
  0
LINE
  5
6F3
100
AcDbEntity
  8
0
100
AcDbLine
 62
7
  6
CONTINUOUS
 10
0.5292730881
 20
28.1330133747
 11
0.6860809405
 21
28.1307899934
  0
LINE
  5
6F4
100
AcDbEntity
  8
0
100
AcDbLine
 62
7
  6
CONTINUOUS
 10
0.8946594134
 20
27.3991974022
 11
0.6350860079
 21
27.4029661216
  0
LINE
  5
6F5
100
AcDbEntity
  8
0
100
AcDbLine
 62
7
  6
CONTINUOUS
 10
0.6860809405
 20
28.1307899934
 11
0.8344132612
 21
28.1283964474
  0
LINE
  5
6F6
100
AcDbEntity
  8
0
100
AcDbLine
 62
7
  6
CONTINUOUS
 10
0.8344132612
 20
28.1283964474
 11
0.9737004768
 21
28.1258417601
  0
LINE
  5
6F7
100
AcDbEntity
  8
0
100
AcDbLine
 62
7
  6
CONTINUOUS
 10
1.0479999166
 20
27.3962561971
 11
0.8946594134
 21
27.3991974022
  0
LINE
  5
6F8
100
AcDbEntity
  8
0
100
AcDbLine
 62
7
  6
CONTINUOUS
 10
0.9737004768
 20
28.1258417601
 11
1.1033195523
 21
28.1231374876
  0
LINE
  5
6F9
100
AcDbEntity
  8
0
100
AcDbLine
 62
7
  6
CONTINUOUS
 10
1.1033195523
 20
28.1231374876
 11
1.2227713659
 21
28.1202939928
  0
LINE
  5
6FA
100
AcDbEntity
  8
0
100
AcDbLine
 62
7
  6
CONTINUOUS
 10
1.1504271237
 20
27.3937721287
 11
1.0479999166
 21
27.3962561971
  0
LINE
  5
6FB
100
AcDbEntity
  8
0
100
AcDbLine
 62
7
  6
CONTINUOUS
 10
1.2227713659
 20
28.1202939928
 11
1.3315455309
 21
28.1173237107
  0
LINE
  5
6FC
100
AcDbEntity
  8
0
100
AcDbLine
 62
7
  6
CONTINUOUS
 10
1.2147413367
 20
27.3918477509
 11
1.1504271237
 21
27.3937721287
  0
LINE
  5
6FD
100
AcDbEntity
  8
0
100
AcDbLine
 62
7
  6
CONTINUOUS
 10
1.3315455309
 20
28.1173237107
 11
1.4292273438
 21
28.1142378109
  0
LINE
  5
6FE
100
AcDbEntity
  8
0
100
AcDbLine
 62
7
  6
CONTINUOUS
 10
1.2514295908
 20
27.3905430327
 11
1.2147413367
 21
27.3918477509
  0
LINE
  5
6FF
100
AcDbEntity
  8
0
100
AcDbLine
 62
7
  6
CONTINUOUS
 10
1.4292273438
 20
28.1142378109
 11
1.5154077999
 21
28.1110493843
  0
LINE
  5
700
100
AcDbEntity
  8
0
100
AcDbLine
 62
7
  6
CONTINUOUS
 10
1.5154077999
 20
28.1110493843
 11
1.5662945022
 21
28.108873186
  0
LINE
  5
701
100
AcDbEntity
  8
0
100
AcDbLine
 62
7
  6
CONTINUOUS
 10
1.5662945022
 20
28.108873186
 11
1.6118408804
 21
28.1066601592
  0
LWPOLYLINE
  5
702
100
AcDbEntity
  8
0
100
AcDbPolyline
 62
7
  6
CONTINUOUS
 90
15
 70
0
 10
1.6118408804
 20
28.1066601592
 10
1.6519309517
 20
28.1044155417
 10
1.6699079993
 20
28.1032827783
 10
1.68649747
 20
28.1021434473
 10
1.7017000563
 20
28.1009976282
 10
1.7154931583
 20
28.0998470047
 10
1.7278738823
 20
28.0986916231
 10
1.7388451221
 20
28.0975314372
 10
1.7483929589
 20
28.0963679916
 10
1.7565156655
 20
28.095201231
 10
1.7632149692
 20
28.0940312107
 10
1.7684821335
 20
28.092859641
 10
1.7723142462
 20
28.091687092
 10
1.7747142196
 20
28.0905129936
 10
1.7756820535
 20
28.0893373459
  0
LWPOLYLINE
  5
703
100
AcDbEntity
  8
0
100
AcDbPolyline
 62
7
  6
CONTINUOUS
 90
13
 70
0
 10
1.3670392997
 20
27.3817508237
 10
1.3658702011
 20
27.3824365428
 10
1.3634041797
 20
27.3831215381
 10
1.3596408289
 20
27.3838058096
 10
1.3545795046
 20
27.3844897832
 10
1.348221497
 20
27.3851730331
 10
1.3405719621
 20
27.3858542817
 10
1.3316339384
 20
27.3865335748
 10
1.3214123743
 20
27.3872108667
 10
1.3099205645
 20
27.387884743
 10
1.2971717816
 20
27.3885549431
 10
1.2831706988
 20
27.3892217276
 10
1.2514295908
 20
27.3905430327
  0
LINE
  5
704
100
AcDbEntity
  8
RACCORDO
100
AcDbLine
 62
7
  6
CONTINUOUS
 10
1.3601225098
 20
28.5492737657
 11
1.4171440113
 21
28.4922522643
  0
LINE
  5
705
100
AcDbEntity
  8
DRAFT
100
AcDbLine
 62
7
  6
CONTINUOUS
 10
1.5171440113
 20
28.4922522643
 11
1.6061648424
 21
28.4032314331
  0
LINE
  5
706
100
AcDbEntity
  8
RACCORDO
100
AcDbLine
 62
250
  6
CONTINUOUS
 10
3.3287434218
 20
27.0016126117
 11
3.3981259309
 21
26.9322301027
  0
LINE
  5
707
100
AcDbEntity
  8
DRAFT
100
AcDbLine
 62
7
  6
CONTINUOUS
 10
1.5171440113
 20
29.5567224461
 11
1.6061648424
 21
29.467701615
  0
LWPOLYLINE
  5
708
100
AcDbEntity
  8
RACCORDO
100
AcDbPolyline
 62
250
  6
CONTINUOUS
 90
37
 70
0
 10
3.3981259309
 20
26.9322301027
 10
3.413390818
 20
26.9166275985
 10
3.4282985275
 20
26.9007109252
 10
3.4428490593
 20
26.8844800827
 10
3.4570491635
 20
26.8679268849
 10
3.4708920901
 20
26.851059518
 10
3.484357589
 20
26.8339025402
 10
3.4974449677
 20
26.8164556864
 10
3.5101549187
 20
26.7987192216
 10
3.5224692702
 20
26.7807184989
 10
3.534387437
 20
26.7624531666
 10
3.5459100043
 20
26.7439235764
 10
3.5570205555
 20
26.7251561356
 10
3.5677185052
 20
26.706150506
 10
3.5780044388
 20
26.686907026
 10
3.5878636961
 20
26.6674531181
 10
3.5972956758
 20
26.647788467
 10
3.6063009791
 20
26.6279133882
 10
3.61486675
 20
26.6078562507
 10
3.622992359
 20
26.5876167949
 10
3.6306784354
 20
26.5671952804
 10
3.6379140113
 20
26.5466208557
 10
3.6446984387
 20
26.5258933178
 10
3.6510323654
 20
26.5050128696
 10
3.6569067673
 20
26.4840092682
 10
3.6623209911
 20
26.462882339
 10
3.6672756899
 20
26.4416322565
 10
3.6717637992
 20
26.4202893017
 10
3.6757846563
 20
26.3988533092
 10
3.6793389238
 20
26.3773244445
 10
3.6824215241
 20
26.3557334844
 10
3.6850317804
 20
26.3340801047
 10
3.6871703696
 20
26.3123646296
 10
3.6888342449
 20
26.2906188083
 10
3.6900223907
 20
26.2688532241
 10
3.6907358226
 20
26.2470572937
 10
3.6909745406
 20
26.2252310173
  0
LINE
  5
709
100
AcDbEntity
  8
ASSI
100
AcDbLine
 62
7
  6
CONTINUOUS
 10
-1.954886001
 20
32.048610079
 11
-2.0502746223
 21
32.1517791658
  0
LINE
  5
70A
100
AcDbEntity
  8
ASSI
100
AcDbLine
 62
7
  6
CONTINUOUS
 10
-2.0502746223
 20
32.1517791658
 11
-2.139227742
 21
32.2485923076
  0
LINE
  5
70B
100
AcDbEntity
  8
ASSI
100
AcDbLine
 62
7
  6
CONTINUOUS
 10
-2.139227742
 20
32.2485923076
 11
-2.1977253105
 21
32.3129103482
  0
LINE
  5
70C
100
AcDbEntity
  8
0
100
AcDbLine
 62
7
  6
CONTINUOUS
 10
3.0170300782
 20
-12.1077477357
 11
3.7671440113
 21
-11.3567187895
  0
LINE
  5
70D
100
AcDbEntity
  8
RACCORDO
100
AcDbLine
 62
250
  6
CONTINUOUS
 10
4.1051250163
 20
-10.0547246596
 11
3.7428938974
 21
-10.4169557784
  0
LINE
  5
70E
100
AcDbEntity
  8
DRAFT
100
AcDbLine
 62
7
  6
CONTINUOUS
 10
3.9093129469
 20
-10.8187269046
 11
2.844842765
 21
-11.8831970865
  0
LINE
  5
70F
100
AcDbEntity
  8
RACCORDO
100
AcDbLine
 62
7
  6
CONTINUOUS
 10
1.3758708791
 20
-13.599020868
 11
2.3671440113
 21
-12.6077477357
  0
LINE
  5
710
100
AcDbEntity
  8
RACCORDO
100
AcDbLine
 62
7
  6
CONTINUOUS
 10
2.9171440113
 20
-12.0577477357
 11
4.6814467918
 21
-10.2934449553
  0
LINE
  5
711
100
AcDbEntity
  8
0
100
AcDbLine
 62
250
  6
CONTINUOUS
 10
-13.2828559887
 20
29.2506555127
 11
-13.231878
 21
29.2506555127
  0
LINE
  5
712
100
AcDbEntity
  8
RACCORDO
100
AcDbLine
 62
250
  6
CONTINUOUS
 10
1.4661660225
 20
29.2506555127
 11
1.5171440113
 21
29.2506555127
  0
LINE
  5
713
100
AcDbEntity
  8
RACCORDO
100
AcDbLine
 62
250
  6
CONTINUOUS
 10
-12.2410342868
 20
29.3751765475
 11
0.4753223094
 21
29.3751765475
  0
LINE
  5
714
100
AcDbEntity
  8
DRAFT
100
AcDbLine
 62
7
  6
CONTINUOUS
 10
2.844842765
 20
29.467701615
 11
1.6061648424
 21
29.467701615
  0
LINE
  5
715
100
AcDbEntity
  8
DRAFT
100
AcDbLine
 62
7
  6
CONTINUOUS
 10
-13.3718768198
 20
29.467701615
 11
-14.6105547425
 21
29.467701615
  0
LINE
  5
716
100
AcDbEntity
  8
DRAFT
100
AcDbLine
 62
7
  6
CONTINUOUS
 10
2.9171440113
 20
29.6422522643
 11
1.6026738294
 21
29.6422522643
  0
LINE
  5
717
100
AcDbEntity
  8
DRAFT
100
AcDbLine
 62
7
  6
CONTINUOUS
 10
-13.3683858069
 20
29.6422522643
 11
-14.6828559887
 21
29.6422522643
  0
LINE
  5
718
100
AcDbEntity
  8
0
100
AcDbLine
 62
7
  6
CONTINUOUS
 10
3.0170300782
 20
29.6922522643
 11
2.3671440113
 21
29.6922522643
  0
LINE
  5
719
100
AcDbEntity
  8
0
100
AcDbLine
 62
7
  6
CONTINUOUS
 10
-14.1328559887
 20
29.6922522643
 11
-14.7827420556
 21
29.6922522643
  0
LINE
  5
71A
100
AcDbEntity
  8
DRAFT
100
AcDbLine
 62
7
  6
CONTINUOUS
 10
2.3636567204
 20
29.7027226447
 11
1.4159816859
 21
29.7027226447
  0
LINE
  5
71B
100
AcDbEntity
  8
DRAFT
100
AcDbLine
 62
7
  6
CONTINUOUS
 10
-13.1816936633
 20
29.7027226447
 11
-14.1293686978
 21
29.7027226447
  0
LINE
  5
71C
100
AcDbEntity
  8
RACCORDO
100
AcDbLine
 62
7
  6
CONTINUOUS
 10
1.7012447304
 20
29.7882478099
 11
1.3589657132
 21
29.7882478099
  0
LINE
  5
71D
100
AcDbEntity
  8
RACCORDO
100
AcDbLine
 62
7
  6
CONTINUOUS
 10
-13.1246776906
 20
29.7882478099
 11
-13.4669567079
 21
29.7882478099
  0
LINE
  5
71E
100
AcDbEntity
  8
0
100
AcDbLine
 62
7
  6
CONTINUOUS
 10
-2.8828559887
 20
29.7922522643
 11
-8.8828559887
 21
29.7922522643
  0
LINE
  5
71F
100
AcDbEntity
  8
RACCORDO
100
AcDbLine
 62
250
  6
CONTINUOUS
 10
1.7012447304
 20
30.104945508
 11
-2.8828559887
 21
30.104945508
  0
LINE
  5
720
100
AcDbEntity
  8
RACCORDO
100
AcDbLine
 62
250
  6
CONTINUOUS
 10
-8.8828559887
 20
30.104945508
 11
-13.4669567079
 21
30.104945508
  0
LINE
  5
721
100
AcDbEntity
  8
0
100
AcDbLine
 62
7
  6
CONTINUOUS
 10
-8.8828559887
 20
30.4922522643
 11
-2.8828559887
 21
30.4922522643
  0
LINE
  5
722
100
AcDbEntity
  8
RACCORDO
100
AcDbLine
 62
250
  6
CONTINUOUS
 10
3.7428938974
 20
28.0014603069
 11
4.1051250163
 21
27.6392291881
  0
LINE
  5
723
100
AcDbEntity
  8
DRAFT
100
AcDbLine
 62
7
  6
CONTINUOUS
 10
3.9093129469
 20
28.4032314331
 11
2.844842765
 21
29.467701615
  0
LINE
  5
724
100
AcDbEntity
  8
RACCORDO
100
AcDbLine
 62
7
  6
CONTINUOUS
 10
4.6814467918
 20
27.8779494838
 11
2.9171440113
 21
29.6422522643
  0
LINE
  5
725
100
AcDbEntity
  8
RACCORDO
100
AcDbLine
 62
7
  6
CONTINUOUS
 10
2.3671440113
 20
30.1922522643
 11
1.3758708791
 21
31.1835253965
  0
LINE
  5
726
100
AcDbEntity
  8
0
100
AcDbLine
 62
7
  6
CONTINUOUS
 10
3.0170300782
 20
29.6922522643
 11
3.7671440113
 21
28.941223318
  0
LWPOLYLINE
  5
727
100
AcDbEntity
  8
RACCORDO
100
AcDbPolyline
 62
250
  6
CONTINUOUS
 90
37
 70
0
 10
4.1051250163
 20
27.6392291881
 10
4.1356329311
 20
27.6080444952
 10
4.1654532848
 20
27.5762019142
 10
4.1945718977
 20
27.5437166038
 10
4.2229748744
 20
27.5106040893
 10
4.250648763
 20
27.4768800738
 10
4.277580548
 20
27.44256042
 10
4.3037574874
 20
27.4076613518
 10
4.3291670443
 20
27.3721995706
 10
4.3537970446
 20
27.3361920632
 10
4.3776357384
 20
27.2996560201
 10
4.4006718258
 20
27.2626087738
 10
4.4228943769
 20
27.2250679049
 10
4.4442928196
 20
27.187051275
 10
4.464856974
 20
27.1485769733
 10
4.4845770793
 20
27.1096632578
 10
4.5034437639
 20
27.0703286141
 10
4.5214480348
 20
27.0305917838
 10
4.5385813079
 20
26.9904717088
 10
4.5548354313
 20
26.9499874779
 10
4.5702026715
 20
26.9091583532
 10
4.5846757043
 20
26.8680037989
 10
4.5982476361
 20
26.8265434261
 10
4.6109120228
 20
26.7847969329
 10
4.6226628556
 20
26.7427841319
 10
4.6334945418
 20
26.7005250126
 10
4.643401927
 20
26.6580396803
 10
4.6523803086
 20
26.6153482947
 10
4.6604254208
 20
26.5724711017
 10
4.6675334168
 20
26.5294285654
 10
4.673700893
 20
26.4862413061
 10
4.6789249051
 20
26.4429299979
 10
4.6832029907
 20
26.3995151232
 10
4.6865331366
 20
26.3560171026
 10
4.6889137511
 20
26.3124565522
 10
4.6903436815
 20
26.2688542754
 10
4.6908222358
 20
26.2252310173
  0
LINE
  5
728
100
AcDbEntity
  8
RACCORDO
100
AcDbLine
 62
250
  6
CONTINUOUS
 10
2.3715158453
 20
-15.4533801325
 11
2.3671440113
 21
-15.4577519665
  0
LINE
  5
729
100
AcDbEntity
  8
RACCORDO
100
AcDbLine
 62
250
  6
CONTINUOUS
 10
2.6215116145
 20
-15.7033759017
 11
2.6171397805
 21
-15.7077477357
  0
LINE
  5
72A
100
AcDbEntity
  8
RACCORDO
100
AcDbLine
 62
7
  6
CONTINUOUS
 10
2.201168578
 20
-12.199456
 11
2.3636567204
 21
-12.1182181162
  0
LWPOLYLINE
  5
72B
100
AcDbEntity
  8
RACCORDO
100
AcDbPolyline
 62
7
  6
CONTINUOUS
 90
11
 70
0
 10
-16.5328551278
 20
31.1919434629
 10
-16.554344386
 20
31.190726004
 10
-16.5757994348
 20
31.1885795682
 10
-16.5971798757
 20
31.1855032893
 10
-16.6184679002
 20
31.1814932304
 10
-16.6395995098
 20
31.1765549543
 10
-16.6604668854
 20
31.1707133408
 10
-16.6810156895
 20
31.16398907
 10
-16.7012254815
 20
31.1563943279
 10
-16.7210434475
 20
31.1479546219
 10
-16.7388699765
 20
31.139477609
  0
LINE
  5
72C
100
AcDbEntity
  8
RACCORDO
100
AcDbLine
 62
7
  6
CONTINUOUS
 10
-16.5328559887
 20
31.1919422322
 11
-16.5289442958
 21
31.1920647076
  0
LINE
  5
72D
100
AcDbEntity
  8
RACCORDO
100
AcDbLine
 62
7
  6
CONTINUOUS
 10
-16.5289442958
 20
31.1920647076
 11
-16.5250318642
 21
31.1921565684
  0
LINE
  5
72E
100
AcDbEntity
  8
RACCORDO
100
AcDbLine
 62
7
  6
CONTINUOUS
 10
-16.5250318642
 20
31.1921565684
 11
-16.5211187839
 21
31.1922178132
  0
LINE
  5
72F
100
AcDbEntity
  8
RACCORDO
100
AcDbLine
 62
7
  6
CONTINUOUS
 10
-16.5211187839
 20
31.1922178132
 11
-16.5172054143
 21
31.1922484359
  0
LINE
  5
730
100
AcDbEntity
  8
RACCORDO
100
AcDbLine
 62
250
  6
CONTINUOUS
 10
1.4544888445
 20
31.104907431
 11
-2.8828559887
 21
31.104907431
  0
LINE
  5
731
100
AcDbEntity
  8
RACCORDO
100
AcDbLine
 62
250
  6
CONTINUOUS
 10
-8.8828559887
 20
31.104907431
 11
-13.2202008219
 21
31.104907431
  0
LINE
  5
732
100
AcDbEntity
  8
DRAFT
100
AcDbLine
 62
7
  6
CONTINUOUS
 10
-9.3828559887
 20
31.1302915029
 11
-8.8828559887
 21
31.1302915029
  0
LINE
  5
733
100
AcDbEntity
  8
DRAFT
100
AcDbLine
 62
7
  6
CONTINUOUS
 10
-2.8828559887
 20
31.1302915029
 11
-2.3828559887
 21
31.1302915029
  0
LINE
  5
734
100
AcDbEntity
  8
RACCORDO
100
AcDbLine
 62
7
  6
CONTINUOUS
 10
4.7669916861
 20
31.1835253965
 11
1.3758708791
 21
31.1835253965
  0
LINE
  5
735
100
AcDbEntity
  8
RACCORDO
100
AcDbLine
 62
7
  6
CONTINUOUS
 10
-13.1415828565
 20
31.1835253965
 11
-16.5327036636
 21
31.1835253965
  0
LINE
  5
736
100
AcDbEntity
  8
RACCORDO
100
AcDbLine
 62
7
  6
CONTINUOUS
 10
-16.5172054143
 20
31.1922484359
 11
-14.1328559887
 21
31.1922522643
  0
LINE
  5
737
100
AcDbEntity
  8
DRAFT
100
AcDbLine
 62
7
  6
CONTINUOUS
 10
2.3671440113
 20
31.1922522643
 11
-1.4828559887
 21
31.1922522643
  0
LINE
  5
738
100
AcDbEntity
  8
DRAFT
100
AcDbLine
 62
7
  6
CONTINUOUS
 10
-10.2828559887
 20
31.1922522643
 11
-14.1328559887
 21
31.1922522643
  0
LINE
  5
739
100
AcDbEntity
  8
RACCORDO
100
AcDbLine
 62
7
  6
CONTINUOUS
 10
-16.2835789866
 20
31.9149019951
 11
-14.3821329908
 21
31.9149019951
  0
LINE
  5
73A
100
AcDbEntity
  8
RACCORDO
100
AcDbLine
 62
7
  6
CONTINUOUS
 10
2.6164210134
 20
31.9149019951
 11
4.5178670092
 21
31.9149019951
  0
LINE
  5
73B
100
AcDbEntity
  8
RACCORDO
100
AcDbLine
 62
250
  6
CONTINUOUS
 10
2.6215116145
 20
32.4200834806
 11
4.5127764081
 21
32.4200834806
  0
LINE
  5
73C
100
AcDbEntity
  8
RACCORDO
100
AcDbLine
 62
7
  6
CONTINUOUS
 10
-14.3872235919
 20
32.4922522643
 11
-16.2784883855
 21
32.4922522643
  0
LINE
  5
73D
100
AcDbEntity
  8
ASSI
100
AcDbLine
 62
250
  6
CONTINUOUS
 10
-1.5265066356
 20
32.5486016174
 11
-2.3828559887
 21
32.5486016174
  0
LINE
  5
73E
100
AcDbEntity
  8
ASSI
100
AcDbLine
 62
250
  6
CONTINUOUS
 10
-9.3828559887
 20
32.5486016174
 11
-10.2392053418
 21
32.5486016174
  0
LINE
  5
73F
100
AcDbEntity
  8
DRAFT
100
AcDbLine
 62
7
  6
CONTINUOUS
 10
-2.3828559887
 20
32.5864344344
 11
-9.3828559887
 21
32.5864344344
  0
LINE
  5
740
100
AcDbEntity
  8
DRAFT
100
AcDbLine
 62
7
  6
CONTINUOUS
 10
-1.4828559887
 20
32.5922522643
 11
-10.2828559887
 21
32.5922522643
  0
LINE
  5
741
100
AcDbEntity
  8
RACCORDO
100
AcDbLine
 62
250
  6
CONTINUOUS
 10
2.3715158453
 20
32.6365898315
 11
4.7627721773
 21
32.6365898315
  0
LINE
  5
742
100
AcDbEntity
  8
RACCORDO
100
AcDbLine
 62
7
  6
CONTINUOUS
 10
2.3671440113
 20
31.1922522643
 11
4.7514934369
 21
31.1922484359
  0
LINE
  5
743
100
AcDbEntity
  8
RACCORDO
100
AcDbLine
 62
7
  6
CONTINUOUS
 10
4.7514934369
 20
31.1922484359
 11
4.7554068065
 21
31.1922178132
  0
LINE
  5
744
100
AcDbEntity
  8
RACCORDO
100
AcDbLine
 62
7
  6
CONTINUOUS
 10
4.7554068065
 20
31.1922178132
 11
4.7593198868
 21
31.1921565684
  0
LWPOLYLINE
  5
745
100
AcDbEntity
  8
RACCORDO
100
AcDbPolyline
 62
7
  6
CONTINUOUS
 90
34
 70
0
 10
-16.2784883855
 20
32.4922522643
 10
-16.2915128607
 20
32.4925058417
 10
-16.3044424328
 20
32.4931312404
 10
-16.3172430313
 20
32.4941284606
 10
-16.3298930883
 20
32.4955101259
 10
-16.3423492387
 20
32.4972636126
 10
-16.3545477522
 20
32.4993510492
 10
-16.3664483744
 20
32.5017735179
 10
-16.3780387734
 20
32.5045299363
 10
-16.3893007584
 20
32.5075791857
 10
-16.400211931
 20
32.5109217447
 10
-16.4107520358
 20
32.5145571345
 10
-16.420907929
 20
32.5184428005
 10
-16.4306620706
 20
32.5225787887
 10
-16.4399987856
 20
32.5269650529
 10
-16.44890912
 20
32.5315589003
 10
-16.457379963
 20
32.5363601256
 10
-16.4653996952
 20
32.5413689341
 10
-16.4729625987
 20
32.5465432475
 10
-16.480059491
 20
32.5518827302
 10
-16.4866824001
 20
32.5573877178
 10
-16.492828144
 20
32.5630171399
 10
-16.4984910251
 20
32.5687705905
 10
-16.5036663822
 20
32.5746484754
 10
-16.5083531603
 20
32.5806109419
 10
-16.5125487852
 20
32.5866575263
 10
-16.5162516354
 20
32.5927886921
 10
-16.5194626126
 20
32.5989659772
 10
-16.5221819796
 20
32.6051888361
 10
-16.524410926
 20
32.6114578142
 10
-16.5261522888
 20
32.6177360854
 10
-16.5274090275
 20
32.6240113743
 10
-16.5281847323
 20
32.6302959564
 10
-16.5284841547
 20
32.6365898315
  0
LINE
  5
746
100
AcDbEntity
  8
RACCORDO
100
AcDbLine
 62
7
  6
CONTINUOUS
 10
4.7593198868
 20
31.1921565684
 11
4.7632323184
 21
31.1920647076
  0
LINE
  5
747
100
AcDbEntity
  8
RACCORDO
100
AcDbLine
 62
7
  6
CONTINUOUS
 10
4.7632323184
 20
31.1920647076
 11
4.7671440113
 21
31.1919422322
  0
LINE
  5
748
100
AcDbEntity
  8
RACCORDO
100
AcDbLine
 62
7
  6
CONTINUOUS
 10
2.201168578
 20
29.7839605285
 11
2.3636567204
 21
29.7027226447
  0
LINE
  5
749
100
AcDbEntity
  8
RACCORDO
100
AcDbLine
 62
250
  6
CONTINUOUS
 10
2.3715158453
 20
33.037884661
 11
2.3671440113
 21
33.042256495
  0
LINE
  5
74A
100
AcDbEntity
  8
RACCORDO
100
AcDbLine
 62
250
  6
CONTINUOUS
 10
2.6215116145
 20
33.2878804302
 11
2.6171397805
 21
33.2922522643
  0
LINE
  5
74B
100
AcDbEntity
  8
RACCORDO
100
AcDbLine
 62
250
  6
CONTINUOUS
 10
4.7669916861
 20
-13.599020868
 11
4.7495366212
 21
-13.6077477357
  0
LINE
  5
74C
100
AcDbEntity
  8
RACCORDO
100
AcDbLine
 62
250
  6
CONTINUOUS
 10
2.3715158453
 20
33.037884661
 11
4.7627721773
 21
33.037884661
  0
LINE
  5
74D
100
AcDbEntity
  8
RACCORDO
100
AcDbLine
 62
250
  6
CONTINUOUS
 10
-14.1372278227
 20
33.037884661
 11
-16.5284841547
 21
33.037884661
  0
LINE
  5
74E
100
AcDbEntity
  8
RACCORDO
100
AcDbLine
 62
250
  6
CONTINUOUS
 10
4.5127764081
 20
33.2878804302
 11
2.6215116145
 21
33.2878804302
  0
LINE
  5
74F
100
AcDbEntity
  8
RACCORDO
100
AcDbLine
 62
250
  6
CONTINUOUS
 10
-14.3872235919
 20
33.2878804302
 11
-16.2784883855
 21
33.2878804302
  0
LINE
  5
750
100
AcDbEntity
  8
RACCORDO
100
AcDbLine
 62
7
  6
CONTINUOUS
 10
4.5171482421
 20
33.2922522643
 11
2.6171397805
 21
33.2922522643
  0
LINE
  5
751
100
AcDbEntity
  8
RACCORDO
100
AcDbLine
 62
7
  6
CONTINUOUS
 10
-14.3828517579
 20
33.2922522643
 11
-16.2828602195
 21
33.2922522643
  0
LWPOLYLINE
  5
752
100
AcDbEntity
  8
RACCORDO
100
AcDbPolyline
 62
7
  6
CONTINUOUS
 90
34
 70
0
 10
-14.3828517579
 20
33.2922522643
 10
-14.3709564727
 20
33.291969114
 10
-14.3590881331
 20
33.2911202985
 10
-14.3472736226
 20
33.2897077384
 10
-14.3355397012
 20
33.287734632
 10
-14.3239129499
 20
33.285205446
 10
-14.3124197097
 20
33.282125906
 10
-14.3010860149
 20
33.2785029856
 10
-14.2899375394
 20
33.27434489
 10
-14.2789995424
 20
33.2696610364
 10
-14.2682968011
 20
33.2644620331
 10
-14.2578535604
 20
33.2587596559
 10
-14.2476934828
 20
33.2525668224
 10
-14.2378395836
 20
33.2458975597
 10
-14.2283141849
 20
33.238766975
 10
-14.2191388697
 20
33.2311912231
 10
-14.2103344226
 20
33.2231874647
 10
-14.2019207882
 20
33.2147738303
 10
-14.1939170298
 20
33.2059693833
 10
-14.186341278
 20
33.1967940681
 10
-14.1792106932
 20
33.1872686694
 10
-14.1725414306
 20
33.1774147702
 10
-14.1663485971
 20
33.1672546925
 10
-14.1606462199
 20
33.1568114518
 10
-14.1554472165
 20
33.1461087106
 10
-14.1507633629
 20
33.1351707135
 10
-14.1466052674
 20
33.124022238
 10
-14.142982347
 20
33.1126885433
 10
-14.139902807
 20
33.1011953031
 10
-14.137373621
 20
33.0895685517
 10
-14.1354005146
 20
33.0778346304
 10
-14.1339879545
 20
33.0660201198
 10
-14.133139139
 20
33.0541517803
 10
-14.1328559887
 20
33.042256495
  0
LWPOLYLINE
  5
753
100
AcDbEntity
  8
RACCORDO
100
AcDbPolyline
 62
7
  6
CONTINUOUS
 90
34
 70
0
 10
4.5171482421
 20
33.2922522643
 10
4.5290435273
 20
33.291969114
 10
4.5409118669
 20
33.2911202985
 10
4.5527263774
 20
33.2897077384
 10
4.5644602988
 20
33.287734632
 10
4.5760870501
 20
33.285205446
 10
4.5875802903
 20
33.282125906
 10
4.5989139851
 20
33.2785029856
 10
4.6100624606
 20
33.27434489
 10
4.6210004576
 20
33.2696610364
 10
4.6317031989
 20
33.2644620331
 10
4.6421464396
 20
33.2587596559
 10
4.6523065172
 20
33.2525668224
 10
4.6621604164
 20
33.2458975597
 10
4.6716858151
 20
33.238766975
 10
4.6808611303
 20
33.2311912231
 10
4.6896655774
 20
33.2231874647
 10
4.6980792118
 20
33.2147738303
 10
4.7060829702
 20
33.2059693833
 10
4.713658722
 20
33.1967940681
 10
4.7207893068
 20
33.1872686694
 10
4.7274585694
 20
33.1774147702
 10
4.7336514029
 20
33.1672546925
 10
4.7393537801
 20
33.1568114518
 10
4.7445527835
 20
33.1461087106
 10
4.7492366371
 20
33.1351707135
 10
4.7533947326
 20
33.124022238
 10
4.757017653
 20
33.1126885433
 10
4.760097193
 20
33.1011953031
 10
4.762626379
 20
33.0895685517
 10
4.7645994854
 20
33.0778346304
 10
4.7660120455
 20
33.0660201198
 10
4.766860861
 20
33.0541517803
 10
4.7671440113
 20
33.042256495
  0
LWPOLYLINE
  5
754
100
AcDbEntity
  8
RACCORDO
100
AcDbPolyline
 62
250
  6
CONTINUOUS
 90
31
 70
0
 10
-14.3872235919
 20
33.2878804302
 10
-14.3741401059
 20
33.2875373917
 10
-14.3610924793
 20
33.2865101018
 10
-14.3481164732
 20
33.2848013762
 10
-14.3352476524
 20
33.2824158983
 10
-14.3225212878
 20
33.2793602061
 10
-14.3099722601
 20
33.2756426747
 10
-14.2976349639
 20
33.2712734932
 10
-14.2855432132
 20
33.2662646367
 10
-14.2737301494
 20
33.2606298335
 10
-14.2622281498
 20
33.2543845276
 10
-14.2510687393
 20
33.2475458362
 10
-14.2402825037
 20
33.2401325028
 10
-14.2298990061
 20
33.2321648461
 10
-14.2199467056
 20
33.2236647038
 10
-14.2104528797
 20
33.2146553732
 10
-14.2014435492
 20
33.2051615473
 10
-14.1929434069
 20
33.1952092469
 10
-14.1849757501
 20
33.1848257492
 10
-14.1775624168
 20
33.1740395136
 10
-14.1707237253
 20
33.1628801031
 10
-14.1644784194
 20
33.1513781036
 10
-14.1588436163
 20
33.1395650398
 10
-14.1538347598
 20
33.1274732891
 10
-14.1494655783
 20
33.1151359928
 10
-14.1457480469
 20
33.1025869652
 10
-14.1426923547
 20
33.0898606006
 10
-14.1403068767
 20
33.0769917798
 10
-14.1385981512
 20
33.0640157736
 10
-14.1375708613
 20
33.050968147
 10
-14.1372278227
 20
33.037884661
  0
LWPOLYLINE
  5
755
100
AcDbEntity
  8
RACCORDO
100
AcDbPolyline
 62
250
  6
CONTINUOUS
 90
31
 70
0
 10
4.5127764081
 20
33.2878804302
 10
4.525828748
 20
33.287539023
 10
4.5388536424
 20
33.2865157604
 10
4.551815417
 20
33.2848121562
 10
4.5646811358
 20
33.2824310261
 10
4.5774126009
 20
33.2793779127
 10
4.5899667855
 20
33.2756624729
 10
4.6023065894
 20
33.2712959218
 10
4.6144009456
 20
33.2662894919
 10
4.6262170238
 20
33.2606567433
 10
4.6377226242
 20
33.2544129417
 10
4.6488859426
 20
33.2475752599
 10
4.6596760218
 20
33.2401626298
 10
4.6700631477
 20
33.2321954876
 10
4.6800189849
 20
33.2236955907
 10
4.6895163193
 20
33.2146861688
 10
4.6985291384
 20
33.2051918757
 10
4.7070326799
 20
33.1952387723
 10
4.7150035881
 20
33.184854183
 10
4.722419995
 20
33.1740665927
 10
4.7292615708
 20
33.1629055667
 10
4.7355095499
 20
33.1514017109
 10
4.7411467982
 20
33.1395865653
 10
4.7461578537
 20
33.1274925281
 10
4.7505289688
 20
33.1151527719
 10
4.7542481583
 20
33.1026011245
 10
4.7573052194
 20
33.0898720106
 10
4.7596917621
 20
33.0770003709
 10
4.7614012453
 20
33.0640215135
 10
4.7624289883
 20
33.0509710152
 10
4.7627721773
 20
33.037884661
  0
LWPOLYLINE
  5
756
100
AcDbEntity
  8
RACCORDO
100
AcDbPolyline
 62
7
  6
CONTINUOUS
 90
11
 70
0
 10
4.973157999
 20
31.139477609
 10
4.9553314701
 20
31.1479546219
 10
4.935513504
 20
31.1563943279
 10
4.9153037121
 20
31.16398907
 10
4.894754908
 20
31.1707133408
 10
4.8738875324
 20
31.1765549543
 10
4.8527559227
 20
31.1814932304
 10
4.8314678983
 20
31.1855032893
 10
4.8100874573
 20
31.1885795682
 10
4.7886324085
 20
31.190726004
 10
4.7671431504
 20
31.1919434629
  0
LINE
  5
757
100
AcDbEntity
  8
RACCORDO
100
AcDbLine
 62
250
  6
CONTINUOUS
 10
4.7495366212
 20
31.1922522643
 11
4.7669916861
 21
31.1835253965
  0
ARC
  5
758
100
AcDbEntity
  8
RACCORDO
100
AcDbCircle
 62
250
  6
CONTINUOUS
 10
-12.8828559887
 20
-3.3077477357
 40
3.3748992716
100
AcDbArc
 50
45.6155593065
 51
139.6974192847
  0
ARC
  5
759
100
AcDbEntity
  8
RACCORDO
100
AcDbCircle
 62
250
  6
CONTINUOUS
 10
-12.8828559887
 20
-3.3077477357
 40
3.3748992713
100
AcDbArc
 50
220.3025807153
 51
314.3844406933
  0
ARC
  5
75A
100
AcDbEntity
  8
RACCORDO
100
AcDbCircle
 62
250
  6
CONTINUOUS
 10
-7.8828559887
 20
-3.3077477357
 40
3.3748992352
100
AcDbArc
 50
225.6155593065
 51
134.3844406933
  0
ARC
  5
75B
100
AcDbEntity
  8
RACCORDO
100
AcDbCircle
 62
250
  6
CONTINUOUS
 10
-12.8828559887
 20
-3.3077477357
 40
3.0760409422
100
AcDbArc
 50
45.6155593021
 51
139.6974192847
  0
ARC
  5
75C
100
AcDbEntity
  8
RACCORDO
100
AcDbCircle
 62
250
  6
CONTINUOUS
 10
-12.8828559887
 20
-3.3077477357
 40
3.0760409422
100
AcDbArc
 50
220.3025807153
 51
314.3844406975
  0
ARC
  5
75D
100
AcDbEntity
  8
RACCORDO
100
AcDbCircle
 62
250
  6
CONTINUOUS
 10
-7.8828559887
 20
-3.3077477357
 40
3.0760409419
100
AcDbArc
 50
225.6155593021
 51
134.3844406975
  0
ARC
  5
75E
100
AcDbEntity
  8
RACCORDO
100
AcDbCircle
 62
250
  6
CONTINUOUS
 10
-12.8828559887
 20
-3.3077477357
 40
2.9489817301
100
AcDbArc
 50
43.5102096142
 51
316.489790388
  0
ARC
  5
75F
100
AcDbEntity
  8
RACCORDO
100
AcDbCircle
 62
250
  6
CONTINUOUS
 10
-7.8828559887
 20
-3.3077477357
 40
2.9489817301
100
AcDbArc
 50
223.5102096142
 51
136.489790388
  0
ARC
  5
760
100
AcDbEntity
  8
RACCORDO
100
AcDbCircle
 62
250
  6
CONTINUOUS
 10
-12.8828559887
 20
-3.3077477357
 40
2.6501233087
100
AcDbArc
 50
43.5102096241
 51
316.4897903769
  0
ARC
  5
761
100
AcDbEntity
  8
RACCORDO
100
AcDbCircle
 62
250
  6
CONTINUOUS
 10
-7.8828559887
 20
-3.3077477357
 40
2.6501233087
100
AcDbArc
 50
223.5102096241
 51
136.4897903769
  0
CIRCLE
  5
762
100
AcDbEntity
  8
RACCORDO
100
AcDbCircle
 62
250
  6
CONTINUOUS
 10
-7.8828559887
 20
-3.3077477357
 40
2.4451635398
  0
CIRCLE
  5
763
100
AcDbEntity
  8
RACCORDO
100
AcDbCircle
 62
250
  6
CONTINUOUS
 10
-12.8828559887
 20
-3.3077477357
 40
2.4451635398
  0
CIRCLE
  5
764
100
AcDbEntity
  8
RACCORDO
100
AcDbCircle
 62
250
  6
CONTINUOUS
 10
-7.8828559887
 20
-3.3077477357
 40
2.147399697
  0
CIRCLE
  5
765
100
AcDbEntity
  8
RACCORDO
100
AcDbCircle
 62
250
  6
CONTINUOUS
 10
-12.8828559887
 20
-3.3077477357
 40
2.147399697
  0
CIRCLE
  5
766
100
AcDbEntity
  8
DRAFT
100
AcDbCircle
 62
7
  6
CONTINUOUS
 10
-7.8828559887
 20
-3.3077477357
 40
1.75
  0
CIRCLE
  5
767
100
AcDbEntity
  8
DRAFT
100
AcDbCircle
 62
7
  6
CONTINUOUS
 10
-12.8828559887
 20
-3.3077477357
 40
1.75
  0
ARC
  5
768
100
AcDbEntity
  8
0
100
AcDbCircle
 62
7
  6
CONTINUOUS
 10
-7.0828559887
 20
-6.1827477357
 40
1.5
100
AcDbArc
 50
92.9123166711
 51
105.0
  0
ARC
  5
769
100
AcDbEntity
  8
0
100
AcDbCircle
 62
7
  6
CONTINUOUS
 10
-13.6828559887
 20
-6.1827477357
 40
1.5
100
AcDbArc
 50
75.0
 51
87.0876260818
  0
CIRCLE
  5
76A
100
AcDbEntity
  8
0
100
AcDbCircle
 62
7
  6
CONTINUOUS
 10
-9.3828559887
 20
18.0821817387
 40
0.7
  0
CIRCLE
  5
76B
100
AcDbEntity
  8
0
100
AcDbCircle
 62
7
  6
CONTINUOUS
 10
-9.3828559887
 20
18.0821817387
 40
0.4
  0
CIRCLE
  5
76C
100
AcDbEntity
  8
RACCORDO
100
AcDbCircle
 62
250
  6
CONTINUOUS
 10
-5.8828559887
 20
9.7922522643
 40
4.9959349966
  0
CIRCLE
  5
76D
100
AcDbEntity
  8
RACCORDO
100
AcDbCircle
 62
250
  6
CONTINUOUS
 10
-5.8828559887
 20
9.7922522643
 40
4.6959806886
  0
CIRCLE
  5
76E
100
AcDbEntity
  8
RACCORDO
100
AcDbCircle
 62
250
  6
CONTINUOUS
 10
-5.8828559887
 20
9.7922522643
 40
4.6923068959
  0
CIRCLE
  5
76F
100
AcDbEntity
  8
RACCORDO
100
AcDbCircle
 62
250
  6
CONTINUOUS
 10
-5.8828559887
 20
9.7922522643
 40
4.3923525869
  0
CIRCLE
  5
770
100
AcDbEntity
  8
RACCORDO
100
AcDbCircle
 62
250
  6
CONTINUOUS
 10
-5.8828559887
 20
9.7922522643
 40
3.9576474118
  0
CIRCLE
  5
771
100
AcDbEntity
  8
RACCORDO
100
AcDbCircle
 62
250
  6
CONTINUOUS
 10
-5.8828559887
 20
9.7922522643
 40
3.6576931041
  0
CIRCLE
  5
772
100
AcDbEntity
  8
0
100
AcDbCircle
 62
250
  6
CONTINUOUS
 10
-5.8828559887
 20
9.7922522643
 40
3.608575216
  0
CIRCLE
  5
773
100
AcDbEntity
  8
0
100
AcDbCircle
 62
7
  6
CONTINUOUS
 10
-5.8828559887
 20
9.7922522643
 40
3.4
  0
CIRCLE
  5
774
100
AcDbEntity
  8
0
100
AcDbCircle
 62
7
  6
CONTINUOUS
 10
-5.8828559887
 20
9.7922522643
 40
2.2
  0
ARC
  5
775
100
AcDbEntity
  8
0
100
AcDbCircle
 62
7
  6
CONTINUOUS
 10
-5.8828559887
 20
9.5922522643
 40
1.9
100
AcDbArc
 50
17.4225107759
 51
162.5774892241
  0
CIRCLE
  5
776
100
AcDbEntity
  8
0
100
AcDbCircle
 62
7
  6
CONTINUOUS
 10
-5.8828559887
 20
9.7922522643
 40
1.85
  0
CIRCLE
  5
777
100
AcDbEntity
  8
0
100
AcDbCircle
 62
7
  6
CONTINUOUS
 10
-5.8828559887
 20
9.5922522643
 40
1.5
  0
ARC
  5
778
100
AcDbEntity
  8
0
100
AcDbCircle
 62
7
  6
CONTINUOUS
 10
-5.8828559887
 20
9.7922522643
 40
1.381939
100
AcDbArc
 50
255.0
 51
195.0
  0
CIRCLE
  5
779
100
AcDbEntity
  8
0
100
AcDbCircle
 62
7
  6
CONTINUOUS
 10
-5.8828559887
 20
9.5922522643
 40
1.0
  0
ARC
  5
77A
100
AcDbEntity
  8
RACCORDO
100
AcDbCircle
 62
250
  6
CONTINUOUS
 10
-3.8828559887
 20
20.8922522643
 40
3.3748992352
100
AcDbArc
 50
45.6155593065
 51
286.3109000869
  0
ARC
  5
77B
100
AcDbEntity
  8
RACCORDO
100
AcDbCircle
 62
250
  6
CONTINUOUS
 10
-3.8828559887
 20
20.8922522643
 40
3.3748992352
100
AcDbArc
 50
309.8861863815
 51
314.3844406933
  0
ARC
  5
77C
100
AcDbEntity
  8
RACCORDO
100
AcDbCircle
 62
250
  6
CONTINUOUS
 10
-3.8828559887
 20
20.8922522643
 40
3.0760409419
100
AcDbArc
 50
45.6155593021
 51
285.4217759468
  0
ARC
  5
77D
100
AcDbEntity
  8
RACCORDO
100
AcDbCircle
 62
250
  6
CONTINUOUS
 10
-3.8828559887
 20
20.8922522643
 40
3.0760409419
100
AcDbArc
 50
310.7593733992
 51
314.3844406975
  0
ARC
  5
77E
100
AcDbEntity
  8
RACCORDO
100
AcDbCircle
 62
250
  6
CONTINUOUS
 10
-3.8828559887
 20
20.8922522643
 40
2.9489817301
100
AcDbArc
 50
43.5102096142
 51
285.7708755764
  0
ARC
  5
77F
100
AcDbEntity
  8
RACCORDO
100
AcDbCircle
 62
250
  6
CONTINUOUS
 10
-3.8828559887
 20
20.8922522643
 40
2.9489817301
100
AcDbArc
 50
310.4325157598
 51
316.489790388
  0
ARC
  5
780
100
AcDbEntity
  8
RACCORDO
100
AcDbCircle
 62
250
  6
CONTINUOUS
 10
-3.8828559887
 20
20.8922522643
 40
2.6501233087
100
AcDbArc
 50
43.5102096241
 51
289.22078609
  0
ARC
  5
781
100
AcDbEntity
  8
RACCORDO
100
AcDbCircle
 62
250
  6
CONTINUOUS
 10
-3.8828559887
 20
20.8922522643
 40
2.6501233087
100
AcDbArc
 50
306.9677808797
 51
316.4897903769
  0
CIRCLE
  5
782
100
AcDbEntity
  8
RACCORDO
100
AcDbCircle
 62
250
  6
CONTINUOUS
 10
-3.8828559887
 20
20.8922522643
 40
2.4451635398
  0
CIRCLE
  5
783
100
AcDbEntity
  8
RACCORDO
100
AcDbCircle
 62
250
  6
CONTINUOUS
 10
-3.8828559887
 20
20.8922522643
 40
2.147399697
  0
CIRCLE
  5
784
100
AcDbEntity
  8
DRAFT
100
AcDbCircle
 62
7
  6
CONTINUOUS
 10
-3.8828559887
 20
20.8922522643
 40
1.75
  0
ARC
  5
785
100
AcDbEntity
  8
0
100
AcDbCircle
 62
7
  6
CONTINUOUS
 10
-4.6828559887
 20
23.7672522643
 40
1.5
100
AcDbArc
 50
272.9123166711
 51
285.0
  0
CIRCLE
  5
786
100
AcDbEntity
  8
0
100
AcDbCircle
 62
7
  6
CONTINUOUS
 10
-2.3828559887
 20
18.0821817387
 40
0.7
  0
CIRCLE
  5
787
100
AcDbEntity
  8
0
100
AcDbCircle
 62
7
  6
CONTINUOUS
 10
-2.3828559887
 20
18.0821817387
 40
0.4
  0
ARC
  5
788
100
AcDbEntity
  8
RACCORDO
100
AcDbCircle
 62
250
  6
CONTINUOUS
 10
1.1171440113
 20
20.8922522643
 40
3.3748992713
100
AcDbArc
 50
225.6155593065
 51
319.6974192847
  0
ARC
  5
789
100
AcDbEntity
  8
RACCORDO
100
AcDbCircle
 62
250
  6
CONTINUOUS
 10
1.1171440113
 20
20.8922522643
 40
3.374899271
100
AcDbArc
 50
40.3025807153
 51
134.3844406933
  0
ARC
  5
78A
100
AcDbEntity
  8
RACCORDO
100
AcDbCircle
 62
250
  6
CONTINUOUS
 10
1.1171440113
 20
20.8922522643
 40
3.0760409422
100
AcDbArc
 50
225.6155593021
 51
319.6974192847
  0
ARC
  5
78B
100
AcDbEntity
  8
RACCORDO
100
AcDbCircle
 62
250
  6
CONTINUOUS
 10
1.1171440113
 20
20.8922522643
 40
3.0760409422
100
AcDbArc
 50
40.3025807153
 51
134.3844406975
  0
ARC
  5
78C
100
AcDbEntity
  8
RACCORDO
100
AcDbCircle
 62
250
  6
CONTINUOUS
 10
1.1171440113
 20
20.8922522643
 40
2.9489817301
100
AcDbArc
 50
223.5102096142
 51
136.489790388
  0
ARC
  5
78D
100
AcDbEntity
  8
RACCORDO
100
AcDbCircle
 62
250
  6
CONTINUOUS
 10
1.1171440113
 20
20.8922522643
 40
2.6501233087
100
AcDbArc
 50
223.5102096241
 51
136.4897903769
  0
CIRCLE
  5
78E
100
AcDbEntity
  8
RACCORDO
100
AcDbCircle
 62
250
  6
CONTINUOUS
 10
1.1171440113
 20
20.8922522643
 40
2.4451635398
  0
CIRCLE
  5
78F
100
AcDbEntity
  8
RACCORDO
100
AcDbCircle
 62
250
  6
CONTINUOUS
 10
1.1171440113
 20
20.8922522643
 40
2.147399697
  0
CIRCLE
  5
790
100
AcDbEntity
  8
DRAFT
100
AcDbCircle
 62
7
  6
CONTINUOUS
 10
1.1171440113
 20
20.8922522643
 40
1.75
  0
ARC
  5
791
100
AcDbEntity
  8
0
100
AcDbCircle
 62
7
  6
CONTINUOUS
 10
1.9171440113
 20
23.7672522643
 40
1.5
100
AcDbArc
 50
255.0
 51
267.0876260818
  0
ELLIPSE
  5
792
100
AcDbEntity
  8
DRAFT
100
AcDbEllipse
 62
7
  6
CONTINUOUS
 10
-5.8828559887
 20
28.9746438011
 30
0.0
 11
15.0
 21
0.0
 31
0.0
 40
0.0087268678
 41
-1.7342776332
 42
-1.4073150204
  0
ELLIPSE
  5
793
100
AcDbEntity
  8
DRAFT
100
AcDbEllipse
 62
7
  6
CONTINUOUS
 10
-8.3828559887
 20
28.83675929
 30
0.0
 11
1.0
 21
0.0
 31
0.0
 40
0.0087268678
 41
1.5707963268
 42
3.1415926536
  0
ELLIPSE
  5
794
100
AcDbEntity
  8
DRAFT
100
AcDbEllipse
 62
7
  6
CONTINUOUS
 10
-3.3828559887
 20
28.83675929
 30
0.0
 11
1.0
 21
-0.0
 31
0.0
 40
0.0087268678
 41
-0.0
 42
1.5707963268
  0
ELLIPSE
  5
795
100
AcDbEntity
  8
DRAFT
100
AcDbEllipse
 62
7
  6
CONTINUOUS
 10
-5.8828559887
 20
-11.3901392726
 30
0.0
 11
15.0
 21
-0.0
 31
0.0
 40
0.0087268678
 41
1.4073150204
 42
1.7342776332
  0
ELLIPSE
  5
796
100
AcDbEntity
  8
DRAFT
100
AcDbEllipse
 62
7
  6
CONTINUOUS
 10
-3.3828559887
 20
-11.2522547615
 30
0.0
 11
1.0
 21
0.0
 31
0.0
 40
0.0087268678
 41
-1.5707963268
 42
-0.0
  0
ELLIPSE
  5
797
100
AcDbEntity
  8
DRAFT
100
AcDbEllipse
 62
7
  6
CONTINUOUS
 10
-8.3828559887
 20
-11.2522547615
 30
0.0
 11
1.0
 21
-0.0
 31
0.0
 40
0.0087268678
 41
-3.1415926536
 42
-1.5707963268
  0
ELLIPSE
  5
798
100
AcDbEntity
  8
ASSI
100
AcDbEllipse
 62
7
  6
CONTINUOUS
 10
-1.5264897123
 20
32.048610079
 30
0.0
 11
0.0
 21
0.5
 31
0.0
 40
0.0058178298
 41
0.0058177642
 42
0.149597008
  0
ELLIPSE
  5
799
100
AcDbEntity
  8
RACCORDO
100
AcDbEllipse
 62
7
  6
CONTINUOUS
 10
0.4741587434
 20
28.7492703811
 30
0.0
 11
0.0
 21
0.2
 31
0.0
 40
0.0058178298
 41
-3.1357748894
 42
-1.5707963268
  0
ELLIPSE
  5
79A
100
AcDbEntity
  8
RACCORDO
100
AcDbEllipse
 62
7
  6
CONTINUOUS
 10
1.3601292791
 20
28.7492703811
 30
0.0
 11
0.0
 21
0.2
 31
0.0
 40
0.0058178298
 41
-4.7123889804
 42
-3.1474104178
  0
ELLIPSE
  5
79B
100
AcDbEntity
  8
RACCORDO
100
AcDbEllipse
 62
7
  6
CONTINUOUS
 10
-13.1258412566
 20
28.7492703811
 30
0.0
 11
0.0
 21
0.2
 31
0.0
 40
0.0058178298
 41
-3.1357748894
 42
-1.5707963268
  0
ELLIPSE
  5
79C
100
AcDbEntity
  8
RACCORDO
100
AcDbEllipse
 62
7
  6
CONTINUOUS
 10
-12.2398707209
 20
28.7492703811
 30
0.0
 11
-0.0
 21
0.2
 31
0.0
 40
0.0058178298
 41
-4.7123889804
 42
-3.1474104178
  0
ELLIPSE
  5
79D
100
AcDbEntity
  8
RACCORDO
100
AcDbEllipse
 62
7
  6
CONTINUOUS
 10
-12.2398707209
 20
-11.1647658526
 30
0.0
 11
-0.0
 21
0.2
 31
0.0
 40
0.0058178298
 41
0.0058177642
 42
1.5707963268
  0
ELLIPSE
  5
79E
100
AcDbEntity
  8
RACCORDO
100
AcDbEllipse
 62
7
  6
CONTINUOUS
 10
-13.1258412566
 20
-11.1647658526
 30
0.0
 11
0.0
 21
0.2
 31
0.0
 40
0.0058178298
 41
-1.5707963268
 42
-0.0058177642
  0
ELLIPSE
  5
79F
100
AcDbEntity
  8
RACCORDO
100
AcDbEllipse
 62
7
  6
CONTINUOUS
 10
1.3601292791
 20
-11.1647658526
 30
0.0
 11
-0.0
 21
0.2
 31
0.0
 40
0.0058178298
 41
0.0058177642
 42
1.5707963268
  0
ELLIPSE
  5
7A0
100
AcDbEntity
  8
RACCORDO
100
AcDbEllipse
 62
7
  6
CONTINUOUS
 10
0.4741587434
 20
-11.1647658526
 30
0.0
 11
0.0
 21
0.2
 31
0.0
 40
0.0058178298
 41
-1.5707963268
 42
-0.0058177642
  0
ELLIPSE
  5
7A1
100
AcDbEntity
  8
RACCORDO
100
AcDbEllipse
 62
7
  6
CONTINUOUS
 10
2.6171482421
 20
32.2035771297
 30
0.0
 11
0.0029088041
 21
0.2886641433
 31
0.0
 40
0.8660144118
 41
-4.7007536982
 42
-3.1328662411
  0
ELLIPSE
  5
7A2
100
AcDbEntity
  8
RACCORDO
100
AcDbEllipse
 62
7
  6
CONTINUOUS
 10
1.4660137817
 20
28.7513407453
 30
0.0
 11
0.0
 21
0.5
 31
0.0
 40
0.0058178298
 41
-1.5707963268
 42
-0.0523598776
  0
ELLIPSE
  5
7A3
100
AcDbEntity
  8
RACCORDO
100
AcDbEllipse
 62
7
  6
CONTINUOUS
 10
4.5171397804
 20
32.2035771297
 30
0.0
 11
-0.0029088041
 21
0.2886641433
 31
0.0
 40
0.8660144118
 41
-3.150319066
 42
-1.582431609
  0
ELLIPSE
  5
7A4
100
AcDbEntity
  8
RACCORDO
100
AcDbEllipse
 62
7
  6
CONTINUOUS
 10
-16.2828517579
 20
32.2035771297
 30
0.0
 11
0.0029088041
 21
0.2886641433
 31
0.0
 40
0.8660144118
 41
-4.7007536982
 42
-3.1328662411
  0
ELLIPSE
  5
7A5
100
AcDbEntity
  8
RACCORDO
100
AcDbEllipse
 62
7
  6
CONTINUOUS
 10
1.4660137817
 20
-11.1668362168
 30
0.0
 11
0.0
 21
0.5
 31
0.0
 40
0.0058178298
 41
-3.089232776
 42
-1.5707963268
  0
ELLIPSE
  5
7A6
100
AcDbEntity
  8
RACCORDO
100
AcDbEllipse
 62
7
  6
CONTINUOUS
 10
-14.3828602196
 20
32.2035771297
 30
0.0
 11
-0.0029088041
 21
0.2886641433
 31
0.0
 40
0.8660144118
 41
-3.150319066
 42
-1.582431609
  0
ELLIPSE
  5
7A7
100
AcDbEntity
  8
RACCORDO
100
AcDbEllipse
 62
7
  6
CONTINUOUS
 10
-13.2317257591
 20
-11.1668362168
 30
0.0
 11
-0.0
 21
0.5
 31
0.0
 40
0.0058178298
 41
-4.7123889804
 42
-3.1939525311
  0
ELLIPSE
  5
7A8
100
AcDbEntity
  8
RACCORDO
100
AcDbEllipse
 62
7
  6
CONTINUOUS
 10
4.5171397804
 20
-14.6190726012
 30
0.0
 11
0.0029088041
 21
0.2886641433
 31
0.0
 40
0.8660144118
 41
-1.5591610446
 42
0.0087264124
  0
ELLIPSE
  5
7A9
100
AcDbEntity
  8
RACCORDO
100
AcDbEllipse
 62
7
  6
CONTINUOUS
 10
-13.2317257591
 20
28.7513407453
 30
0.0
 11
0.0
 21
0.5
 31
0.0
 40
0.0058178298
 41
0.0523598776
 42
1.5707963268
  0
ELLIPSE
  5
7AA
100
AcDbEntity
  8
RACCORDO
100
AcDbEllipse
 62
7
  6
CONTINUOUS
 10
2.6171482421
 20
-14.6190726012
 30
0.0
 11
-0.0029088041
 21
0.2886641433
 31
0.0
 40
0.8660144118
 41
-0.0087264124
 42
1.5591610446
  0
ELLIPSE
  5
7AB
100
AcDbEntity
  8
RACCORDO
100
AcDbEllipse
 62
7
  6
CONTINUOUS
 10
-12.2381253719
 20
29.3751765475
 30
0.0
 11
-0.0
 21
0.5
 31
0.0
 40
0.0058178298
 41
-4.7123889804
 42
-3.1503192998
  0
ELLIPSE
  5
7AC
100
AcDbEntity
  8
RACCORDO
100
AcDbEllipse
 62
7
  6
CONTINUOUS
 10
-14.3828602196
 20
-14.6190726012
 30
0.0
 11
0.0029088041
 21
0.2886641433
 31
0.0
 40
0.8660144118
 41
-1.5591610446
 42
0.0087264124
  0
ELLIPSE
  5
7AD
100
AcDbEntity
  8
RACCORDO
100
AcDbEllipse
 62
7
  6
CONTINUOUS
 10
0.4724133945
 20
-11.790672019
 30
0.0
 11
0.0
 21
0.5
 31
0.0
 40
0.0058178298
 41
-1.5707963268
 42
-0.0087266463
  0
ELLIPSE
  5
7AE
100
AcDbEntity
  8
RACCORDO
100
AcDbEllipse
 62
7
  6
CONTINUOUS
 10
-16.2828517579
 20
-14.6190726012
 30
0.0
 11
-0.0029088041
 21
0.2886641433
 31
0.0
 40
0.8660144118
 41
-0.0087264124
 42
1.5591610446
  0
ELLIPSE
  5
7AF
100
AcDbEntity
  8
DRAFT
100
AcDbEllipse
 62
7
  6
CONTINUOUS
 10
-9.8108259764
 20
-13.5416676309
 30
0.0
 11
0.4279699877
 21
0.0
 31
0.0
 40
0.0087268678
 41
-0.0
 42
3.1357748894
  0
ELLIPSE
  5
7B0
100
AcDbEntity
  8
RACCORDO
100
AcDbEllipse
 62
7
  6
CONTINUOUS
 10
4.7670678473
 20
30.6835063573
 30
0.0
 11
0.4473055582
 21
-0.2236357461
 31
0.0
 40
0.9998096356
 41
6.7467263073
 42
8.3176749331
  0
ELLIPSE
  5
7B1
100
AcDbEntity
  8
DRAFT
100
AcDbEllipse
 62
7
  6
CONTINUOUS
 10
-1.954886001
 20
31.1261721594
 30
0.0
 11
0.4279699877
 21
-0.0
 31
0.0
 40
0.0087268678
 41
3.1415926536
 42
6.277367543
  0
ELLIPSE
  5
7B2
100
AcDbEntity
  8
RACCORDO
100
AcDbEllipse
 62
7
  6
CONTINUOUS
 10
1.7012447304
 20
29.7838843761
 30
0.0
 11
0.5
 21
0.0
 31
0.0
 40
0.0087268678
 41
0.0174532925
 42
1.5707963268
  0
ELLIPSE
  5
7B3
100
AcDbEntity
  8
DRAFT
100
AcDbEllipse
 62
7
  6
CONTINUOUS
 10
-9.8108259764
 20
31.1261721594
 30
0.0
 11
0.4279699877
 21
0.0
 31
0.0
 40
0.0087268678
 41
-3.1357748894
 42
0.0
  0
ELLIPSE
  5
7B4
100
AcDbEntity
  8
RACCORDO
100
AcDbEllipse
 62
7
  6
CONTINUOUS
 10
-13.4669567079
 20
29.7838843761
 30
0.0
 11
0.5
 21
0.0
 31
0.0
 40
0.0087268678
 41
1.5707963268
 42
3.1241393611
  0
ELLIPSE
  5
7B5
100
AcDbEntity
  8
RACCORDO
100
AcDbEllipse
 62
7
  6
CONTINUOUS
 10
1.7012447304
 20
-12.1993798476
 30
0.0
 11
0.5
 21
0.0
 31
0.0
 40
0.0087268678
 41
-1.5707963268
 42
-0.0174532925
  0
ELLIPSE
  5
7B6
100
AcDbEntity
  8
RACCORDO
100
AcDbEllipse
 62
7
  6
CONTINUOUS
 10
-13.4669567079
 20
-12.1993798476
 30
0.0
 11
0.5
 21
0.0
 31
0.0
 40
0.0087268678
 41
-3.1241393611
 42
-1.5707963268
  0
ELLIPSE
  5
7B7
100
AcDbEntity
  8
RACCORDO
100
AcDbEllipse
 62
7
  6
CONTINUOUS
 10
-16.5327798247
 20
-13.0990018288
 30
0.0
 11
-0.4473055582
 21
0.2236357461
 31
0.0
 40
0.9998096356
 41
6.7467263073
 42
8.3176749331
  0
ELLIPSE
  5
7B8
100
AcDbEntity
  8
RACCORDO
100
AcDbEllipse
 62
7
  6
CONTINUOUS
 10
4.7670678473
 20
-13.0990018288
 30
0.0
 11
-0.4473055582
 21
-0.2236357461
 31
0.0
 40
0.9998096356
 41
1.1071030277
 42
2.6780516535
  0
ELLIPSE
  5
7B9
100
AcDbEntity
  8
RACCORDO
100
AcDbEllipse
 62
7
  6
CONTINUOUS
 10
-16.5327798247
 20
30.6835063573
 30
0.0
 11
0.4473055582
 21
0.2236357461
 31
0.0
 40
0.9998096356
 41
1.1071030277
 42
2.6780516535
  0
ELLIPSE
  5
7BA
100
AcDbEntity
  8
DRAFT
100
AcDbEllipse
 62
7
  6
CONTINUOUS
 10
-1.954886001
 20
-13.5416676309
 30
0.0
 11
0.4279699877
 21
0.0
 31
0.0
 40
0.0087268678
 41
0.0058177642
 42
3.1415926536
  0
ELLIPSE
  5
7BB
100
AcDbEntity
  8
ASSI
100
AcDbEllipse
 62
7
  6
CONTINUOUS
 10
-1.5264897123
 20
-14.4641055505
 30
0.0
 11
0.0
 21
0.5
 31
0.0
 40
0.0058178298
 41
-3.2911896616
 42
-3.1474104178
  0
ELLIPSE
  5
7BC
100
AcDbEntity
  8
ASSI
100
AcDbEllipse
 62
7
  6
CONTINUOUS
 10
-10.2392222651
 20
-14.4641055505
 30
0.0
 11
0.0
 21
0.5
 31
0.0
 40
0.0058178298
 41
-3.1357748894
 42
-2.9919956456
  0
ELLIPSE
  5
7BD
100
AcDbEntity
  8
ASSI
100
AcDbEllipse
 62
7
  6
CONTINUOUS
 10
-10.2392222651
 20
32.048610079
 30
0.0
 11
-0.0
 21
0.5
 31
0.0
 40
0.0058178298
 41
-0.149597008
 42
-0.0058177642
  0
ELLIPSE
  5
7BE
100
AcDbEntity
  8
RACCORDO
100
AcDbEllipse
 62
7
  6
CONTINUOUS
 10
-15.0325513326
 20
26.4636989468
 30
0.0
 11
1.8480888181
 21
-0.7655034529
 31
0.0
 40
0.9998215708
 41
2.7489566578
 42
3.5342286494
  0
ELLIPSE
  5
7BF
100
AcDbEntity
  8
RACCORDO
100
AcDbEllipse
 62
7
  6
CONTINUOUS
 10
-15.0325513326
 20
-8.8791944183
 30
0.0
 11
1.8480888181
 21
0.7655034529
 31
0.0
 40
0.9998215708
 41
2.7489566578
 42
3.5342286494
  0
ELLIPSE
  5
7C0
100
AcDbEntity
  8
RACCORDO
100
AcDbEllipse
 62
7
  6
CONTINUOUS
 10
3.2668393552
 20
-8.8791944183
 30
0.0
 11
1.8480888181
 21
-0.7655034529
 31
0.0
 40
0.9998215708
 41
-0.3926359958
 42
0.3926359958
  0
ELLIPSE
  5
7C1
100
AcDbEntity
  8
RACCORDO
100
AcDbEllipse
 62
7
  6
CONTINUOUS
 10
3.2668393552
 20
26.4636989468
 30
0.0
 11
1.8480888181
 21
0.7655034529
 31
0.0
 40
0.9998215708
 41
-0.3926359958
 42
0.3926359958
  0
ELLIPSE
  5
7C2
100
AcDbEntity
  8
DRAFT
100
AcDbEllipse
 62
7
  6
CONTINUOUS
 10
-10.3828559887
 20
-9.2970186408
 30
0.0
 11
2.75
 21
-0.0
 31
0.0
 40
0.0087268678
 41
-3.1328660073
 42
-0.0087266463
  0
ELLIPSE
  5
7C3
100
AcDbEntity
  8
DRAFT
100
AcDbEllipse
 62
7
  6
CONTINUOUS
 10
-1.3828559887
 20
26.8815231693
 30
0.0
 11
2.75
 21
-0.0
 31
0.0
 40
0.0087268678
 41
0.0087266463
 42
3.1328660073
  0
ELLIPSE
  5
7C4
100
AcDbEntity
  8
DRAFT
100
AcDbEllipse
 62
7
  6
CONTINUOUS
 10
-1.3828559887
 20
26.8732326449
 30
0.0
 11
2.75839524
 21
-0.0
 31
0.0
 40
0.0087268678
 41
3.1415926536
 42
6.2831853072
  0
ELLIPSE
  5
7C5
100
AcDbEntity
  8
DRAFT
100
AcDbEllipse
 62
7
  6
CONTINUOUS
 10
-10.3828559887
 20
-9.2887281164
 30
0.0
 11
2.75839524
 21
-0.0
 31
0.0
 40
0.0087268678
 41
0.0
 42
3.1415926536
  0
ELLIPSE
  5
7C6
100
AcDbEntity
  8
RACCORDO
100
AcDbEllipse
 62
7
  6
CONTINUOUS
 10
-7.5891169342
 20
-9.4171080832
 30
0.0
 11
0.0
 21
1.0
 31
0.0
 40
0.0087268678
 41
-1.9050362725
 42
-1.5707963268
  0
ELLIPSE
  5
7C7
100
AcDbEntity
  8
RACCORDO
100
AcDbEllipse
 62
7
  6
CONTINUOUS
 10
-7.7832849629
 20
-9.4171080832
 30
0.0
 11
-0.5774474454
 21
0.9999822329
 31
0.0
 40
0.0103230694
 41
-3.1301004264
 42
-1.9109973379
  0
ELLIPSE
  5
7C8
100
AcDbEntity
  8
RACCORDO
100
AcDbEllipse
 62
7
  6
CONTINUOUS
 10
-12.9824270145
 20
-9.4171080832
 30
0.0
 11
0.5774474454
 21
0.9999822329
 31
0.0
 40
0.0103230694
 41
-4.3721879693
 42
-3.1530848808
  0
ELLIPSE
  5
7C9
100
AcDbEntity
  8
RACCORDO
100
AcDbEllipse
 62
7
  6
CONTINUOUS
 10
-13.1765950432
 20
-9.4171080832
 30
0.0
 11
-0.0
 21
1.0
 31
0.0
 40
0.0087268678
 41
-4.7123889804
 42
-4.3781490346
  0
ELLIPSE
  5
7CA
100
AcDbEntity
  8
RACCORDO
100
AcDbEllipse
 62
7
  6
CONTINUOUS
 10
1.2167149733
 20
27.0016126117
 30
0.0
 11
0.5774474454
 21
0.9999822329
 31
0.0
 40
0.0103230694
 41
-1.2305951984
 42
-0.0114922272
  0
ELLIPSE
  5
7CB
100
AcDbEntity
  8
RACCORDO
100
AcDbEllipse
 62
7
  6
CONTINUOUS
 10
1.4108830658
 20
27.0016126117
 30
0.0
 11
-0.0
 21
1.0
 31
0.0
 40
0.0087268678
 41
-1.5707963268
 42
-1.2365562638
  0
ELLIPSE
  5
7CC
100
AcDbEntity
  8
RACCORDO
100
AcDbEllipse
 62
7
  6
CONTINUOUS
 10
-4.1765950432
 20
27.0016126117
 30
0.0
 11
0.0
 21
1.0
 31
0.0
 40
0.0087268678
 41
1.2365563811
 42
1.5707963268
  0
ELLIPSE
  5
7CD
100
AcDbEntity
  8
RACCORDO
100
AcDbEllipse
 62
7
  6
CONTINUOUS
 10
-3.9824270145
 20
27.0016126117
 30
0.0
 11
-0.5774474454
 21
0.9999822329
 31
0.0
 40
0.0103230694
 41
0.0114922272
 42
1.2305953157
  0
ELLIPSE
  5
7CE
100
AcDbEntity
  8
RACCORDO
100
AcDbEllipse
 62
7
  6
CONTINUOUS
 10
-8.2828559887
 20
28.6943091683
 30
0.0
 11
1.0
 21
0.0
 31
0.0
 40
0.0176699529
 41
-3.0249212651
 42
-1.5707963268
  0
ELLIPSE
  5
7CF
100
AcDbEntity
  8
RACCORDO
100
AcDbEllipse
 62
7
  6
CONTINUOUS
 10
-3.4828559887
 20
28.6943091683
 30
0.0
 11
1.0
 21
0.0
 31
0.0
 40
0.0176699529
 41
-1.5707963268
 42
-0.1166713885
  0
ELLIPSE
  5
7D0
100
AcDbEntity
  8
RACCORDO
100
AcDbEllipse
 62
7
  6
CONTINUOUS
 10
-8.2828559887
 20
-11.1098046398
 30
0.0
 11
1.0
 21
-0.0
 31
0.0
 40
0.0176699529
 41
1.5707963268
 42
3.0249212651
  0
ELLIPSE
  5
7D1
100
AcDbEntity
  8
RACCORDO
100
AcDbEllipse
 62
7
  6
CONTINUOUS
 10
-3.4828559887
 20
-11.1098046398
 30
0.0
 11
1.0
 21
-0.0
 31
0.0
 40
0.0176699529
 41
0.1166713885
 42
1.5707963268
  0
ENDSEC
  0
SECTION
  2
OBJECTS
  0
DICTIONARY
  5
C
100
AcDbDictionary
280
0
281
1
  3
ACAD_GROUP
350
D
  3
ACAD_MLINESTYLE
350
17
  3
ACAD_LAYOUT
350
1A
  3
ACAD_PLOTSETTINGS
350
19
  3
ACAD_PLOTSTYLENAME
350
E
  0
DICTIONARY
  5
D
102
{ACAD_REACTORS
330
C
102
}
100
AcDbDictionary
280
0
281
1
  0
ACDBDICTIONARYWDFLT
  5
E
102
{ACAD_REACTORS
330
C
102
}
100
AcDbDictionary
281
1
  3
Normal
350
F
100
AcDbDictionaryWithDefault
340
F
  0
DICTIONARY
  5
17
102
{ACAD_REACTORS
330
C
102
}
100
AcDbDictionary
280
0
281
1
  3
Standard
350
18
  0
DICTIONARY
  5
19
102
{ACAD_REACTORS
330
C
102
}
100
AcDbDictionary
281
1
  0
DICTIONARY
  5
1A
102
{ACAD_REACTORS
330
C
102
}
100
AcDbDictionary
281
1
  3
Model
350
7D2
  3
Layout1
350
7D3
  0
ACDBPLACEHOLDER
  5
F
102
{ACAD_REACTORS
330
E
102
}
  0
MLINESTYLE
  5
18
102
{ACAD_REACTORS
330
17
102
}
100
AcDbMlineStyle
  2
STANDARD
 70
0
  3

 62
256
 51
90.0
 52
90.0
 71
2
 49
0.5
 62
256
  6
BYLAYER
 49
-0.5
 62
256
  6
BYLAYER
  0
LAYOUT
  5
7D2
102
{ACAD_REACTORS
330
1A
102
}
100
AcDbPlotSettings
  1

  2
none_device
  4
ANSI_C_(22.00_x_17.00_Inches)
  6

 40
0.0
 41
0.0
 42
0.0
 43
0.0
 44
558.8
 45
431.8
 46
0.0
 47
0.0
 48
0.0
 49
0.0
140
0.0
141
0.0
142
1.0
143
1.0
 70
1024
 72
1
 73
0
 74
0
  7

 75
0
147
1.0
148
0.0
149
0.0
100
AcDbLayout
  1
Model
 70
0
 71
0
 10
0.0
 20
0.0
 11
558.8
 21
431.8
 12
0.0
 22
0.0
 32
0.0
 14
0.0
 24
0.0
 34
0.0
 15
0.0
 25
0.0
 35
0.0
146
0.0
 13
0.0
 23
0.0
 33
0.0
 16
1.0
 26
0.0
 36
0.0
 17
0.0
 27
1.0
 37
0.0
 76
0
330
218
345
0
346
0
  0
LAYOUT
  5
7D3
102
{ACAD_REACTORS
330
1A
102
}
100
AcDbPlotSettings
  1

  2
none_device
  4
ANSI_C_(22.00_x_17.00_Inches)
  6

 40
0.0
 41
0.0
 42
0.0
 43
0.0
 44
558.8
 45
431.8
 46
0.0
 47
0.0
 48
0.0
 49
0.0
140
0.0
141
0.0
142
1.0
143
1.0
 70
0
 72
1
 73
0
 74
0
  7

 75
0
147
1.0
148
0.0
149
0.0
100
AcDbLayout
  1
Layout1
 70
0
 71
1
 10
0.0
 20
0.0
 11
558.8
 21
431.8
 12
0.0
 22
0.0
 32
0.0
 14
0.0
 24
0.0
 34
0.0
 15
0.0
 25
0.0
 35
0.0
146
0.0
 13
0.0
 23
0.0
 33
0.0
 16
1.0
 26
0.0
 36
0.0
 17
0.0
 27
1.0
 37
0.0
 76
0
330
219
345
0
346
0
  0
ENDSEC
  0
EOF
