  0
SECTION
  2
HEADER
  9
$ACADVER
  1
AC1024
  9
$DWGCODEPAGE
  3
ANSI_1252
  9
$EXTMAX
 10
297.0
 20
210.0
 30
0.0
  9
$EXTMIN
 10
0.0
 20
0.0
 30
0.0
  9
$LIMMIN
 10
0.0
 20
0.0
  9
$LIMMAX
 10
297.0
 20
210.0
  9
$VIEWCTR
 10
148.5
 20
105.0
  9
$VIEWSIZE
 40
210.0
  9
$CLAYER
  8
0
  9
$LTSCALE
 40
16.335
  9
$CELTYPE
  6
BYLAYER
  9
$DIMSCALE
 40
1.0
  9
$DIMASZ
 40
3.0
  9
$DIMEXO
 40
0.5
  9
$DIMDLI
 40
11.286
  9
$DIMEXE
 40
1.5
  9
$DIMCEN
 40
2.673
  9
$DIMLFAC
 40
1.0
  9
$DIMBLK
  1
_FILLED
  9
$DIMALT
 70
0
  9
$DIMALTF
 40
0.0393700787
  9
$DIMTXT
 40
3.0
  9
$DIMTOL
 70
1
  9
$DIMLIM
 70
0
  9
$DIMTFAC
 40
1.0
  9
$DIMTP
 40
0.01
  9
$DIMTM
 40
0.01
  9
$DIMGAP
 40
0.625
  9
$DIMDSEP
 70
44
  9
$AUNITS
 70
0
  9
$PDMODE
 70
3
  9
$PDSIZE
 40
3.0
  9
$HANDSEED
  5
574
  9
$TILEMODE
 70
1
  9
$MEASUREMENT
 70
1
  9
$INSUNITS
 70
4
  0
ENDSEC
  0
SECTION
  2
CLASSES
  0
CLASS
  1
ACDBDICTIONARYWDFLT
  2
AcDbDictionaryWithDefault
  3
AutoCAD 2000
 90
0
 91
1
280
0
281
0
  0
CLASS
  1
ACDBPLACEHOLDER
  2
AcDbPlaceHolder
  3
AutoCAD 2000
 90
0
 91
1
280
0
281
0
  0
CLASS
  1
LAYOUT
  2
AcDbLayout
  3
AutoCAD 2000
 90
0
 91
0
280
0
281
0
  0
ENDSEC
  0
SECTION
  2
TABLES
  0
TABLE
  2
VPORT
  5
8
100
AcDbSymbolTable
 70
2
  0
VPORT
  5
1F4
100
AcDbSymbolTableRecord
100
AcDbViewportTableRecord
  2
*ACTIVE
 70
0
 10
0.0
 20
0.0
 11
1.0
 21
1.0
 12
148.5
 22
105.0
 13
0.0
 23
0.0
 14
1.0
 24
1.0
 15
0.0
 25
0.0
 16
0.0
 26
0.0
 36
1.0
 17
0.0
 27
0.0
 37
0.0
 40
210.0
 41
1.4142857143
 42
50.0
 43
0.0
 44
0.0
 50
0.0
 51
0.0
 71
0
 72
100
 73
1
 74
1
 75
0
 76
0
 77
0
 78
0
  0
ENDTAB
  0
TABLE
  2
LTYPE
  5
5
100
AcDbSymbolTable
 70
6
  0
LTYPE
  5
14
100
AcDbSymbolTableRecord
100
AcDbLinetypeTableRecord
  2
BYBLOCK
 70
0
  3

 72
65
 73
0
 40
0.0
  0
LTYPE
  5
15
100
AcDbSymbolTableRecord
100
AcDbLinetypeTableRecord
  2
BYLAYER
 70
0
  3

 72
65
 73
0
 40
0.0
  0
LTYPE
  5
16
100
AcDbSymbolTableRecord
100
AcDbLinetypeTableRecord
  2
CONTINUOUS
 70
64
  3
Solid line
 72
65
 73
0
 40
0.0
  0
LTYPE
  5
1F5
100
AcDbSymbolTableRecord
100
AcDbLinetypeTableRecord
  2
CENTER
 70
64
  3
____ _ ____ _ ____ _ ____ _ ____ _ ____ _ ____
 72
65
 73
4
 40
0.6
 49
0.375
 74
0
 49
-0.075
 74
0
 49
0.075
 74
0
 49
-0.075
 74
0
  0
LTYPE
  5
1F6
100
AcDbSymbolTableRecord
100
AcDbLinetypeTableRecord
  2
HIDDEN
 70
64
  3
- - - - - - - - - - - - - - - - - - - -
 72
65
 73
2
 40
0.2
 49
0.1
 74
0
 49
-0.1
 74
0
  0
LTYPE
  5
1F7
100
AcDbSymbolTableRecord
100
AcDbLinetypeTableRecord
  2
PHANTOM
 70
64
  3
_____ _ _ _____ _ _ _____ _ _ _____
 72
65
 73
6
 40
0.8
 49
0.45
 74
0
 49
-0.05
 74
0
 49
0.1
 74
0
 49
-0.05
 74
0
 49
0.1
 74
0
 49
-0.05
 74
0
  0
LTYPE
  5
1F8
100
AcDbSymbolTableRecord
100
AcDbLinetypeTableRecord
  2
DOT
 70
64
  3
. . . . . . . . . . . . . . . . . . . .
 72
65
 73
2
 40
0.2
 49
0.1
 74
0
 49
-0.1
 74
0
  0
LTYPE
  5
1F9
100
AcDbSymbolTableRecord
100
AcDbLinetypeTableRecord
  2
DASHED
 70
64
  3
- - - - - - - - - - - - - - - - - - - -
 72
65
 73
2
 40
0.2
 49
0.1
 74
0
 49
-0.1
 74
0
  0
ENDTAB
  0
TABLE
  2
LAYER
  5
2
100
AcDbSymbolTable
 70
36
  0
LAYER
  5
10
100
AcDbSymbolTableRecord
100
AcDbLayerTableRecord
  2
0
 70
0
 62
7
  6
CONTINUOUS
370
-3
390
F
  0
LAYER
  5
1FA
100
AcDbSymbolTableRecord
100
AcDbLayerTableRecord
  2
DEFAULT_1
 70
0
 62
7
  6
CENTER
370
-3
390
F
  0
LAYER
  5
1FB
100
AcDbSymbolTableRecord
100
AcDbLayerTableRecord
  2
DEFAULT_2
 70
0
 62
7
  6
HIDDEN
370
-3
390
F
  0
LAYER
  5
1FC
100
AcDbSymbolTableRecord
100
AcDbLayerTableRecord
  2
DEFAULT_3
 70
0
 62
7
  6
PHANTOM
370
-3
390
F
  0
LAYER
  5
1FD
100
AcDbSymbolTableRecord
100
AcDbLayerTableRecord
  2
320200000
 70
0
 62
7
  6
CONTINUOUS
370
-3
390
F
  0
LAYER
  5
1FE
100
AcDbSymbolTableRecord
100
AcDbLayerTableRecord
  2
361200000
 70
0
 62
7
  6
CONTINUOUS
370
-3
390
F
  0
LAYER
  5
1FF
100
AcDbSymbolTableRecord
100
AcDbLayerTableRecord
  2
ASSI
 70
0
 62
7
  6
CONTINUOUS
370
-3
390
F
  0
LAYER
  5
200
100
AcDbSymbolTableRecord
100
AcDbLayerTableRecord
  2
COLOR5
 70
0
 62
7
  6
CONTINUOUS
370
-3
390
F
  0
LAYER
  5
201
100
AcDbSymbolTableRecord
100
AcDbLayerTableRecord
  2
COLOR7
 70
0
 62
7
  6
CONTINUOUS
370
-3
390
F
  0
LAYER
  5
202
100
AcDbSymbolTableRecord
100
AcDbLayerTableRecord
  2
COORDINATE
 70
0
 62
7
  6
CONTINUOUS
370
-3
390
F
  0
LAYER
  5
203
100
AcDbSymbolTableRecord
100
AcDbLayerTableRecord
  2
COORD_ORIGINE
 70
0
 62
7
  6
CONTINUOUS
370
-3
390
F
  0
LAYER
  5
204
100
AcDbSymbolTableRecord
100
AcDbLayerTableRecord
  2
COPY_PUBLISH
 70
0
 62
7
  6
CONTINUOUS
370
-3
390
F
  0
LAYER
  5
205
100
AcDbSymbolTableRecord
100
AcDbLayerTableRecord
  2
COSMETIC
 70
0
 62
7
  6
CONTINUOUS
370
-3
390
F
  0
LAYER
  5
206
100
AcDbSymbolTableRecord
100
AcDbLayerTableRecord
  2
CURVE
 70
0
 62
7
  6
CONTINUOUS
370
-3
390
F
  0
LAYER
  5
207
100
AcDbSymbolTableRecord
100
AcDbLayerTableRecord
  2
DRAFT
 70
0
 62
7
  6
CONTINUOUS
370
-3
390
F
  0
LAYER
  5
208
100
AcDbSymbolTableRecord
100
AcDbLayerTableRecord
  2
GUSCI_ESTERNI
 70
0
 62
7
  6
CONTINUOUS
370
-3
390
F
  0
LAYER
  5
209
100
AcDbSymbolTableRecord
100
AcDbLayerTableRecord
  2
IMPORT
 70
0
 62
7
  6
CONTINUOUS
370
-3
390
F
  0
LAYER
  5
20A
100
AcDbSymbolTableRecord
100
AcDbLayerTableRecord
  2
IMPORT_FEATURES
 70
0
 62
7
  6
CONTINUOUS
370
-3
390
F
  0
LAYER
  5
20B
100
AcDbSymbolTableRecord
100
AcDbLayerTableRecord
  2
IMPORT_IGES
 70
0
 62
7
  6
CONTINUOUS
370
-3
390
F
  0
LAYER
  5
20C
100
AcDbSymbolTableRecord
100
AcDbLayerTableRecord
  2
INTF_1
 70
0
 62
7
  6
CONTINUOUS
370
-3
390
F
  0
LAYER
  5
20D
100
AcDbSymbolTableRecord
100
AcDbLayerTableRecord
  2
INTF_YELLOW
 70
0
 62
7
  6
CONTINUOUS
370
-3
390
F
  0
LAYER
  5
20E
100
AcDbSymbolTableRecord
100
AcDbLayerTableRecord
  2
NOTE
 70
0
 62
7
  6
CONTINUOUS
370
-3
390
F
  0
LAYER
  5
20F
100
AcDbSymbolTableRecord
100
AcDbLayerTableRecord
  2
PIANI
 70
0
 62
7
  6
CONTINUOUS
370
-3
390
F
  0
LAYER
  5
210
100
AcDbSymbolTableRecord
100
AcDbLayerTableRecord
  2
PIANI_ORIGINE
 70
0
 62
7
  6
CONTINUOUS
370
-3
390
F
  0
LAYER
  5
211
100
AcDbSymbolTableRecord
100
AcDbLayerTableRecord
  2
PIANI_RIFERIMENTO
 70
0
 62
7
  6
CONTINUOUS
370
-3
390
F
  0
LAYER
  5
212
100
AcDbSymbolTableRecord
100
AcDbLayerTableRecord
  2
PIANI_SFORMI
 70
0
 62
7
  6
CONTINUOUS
370
-3
390
F
  0
LAYER
  5
213
100
AcDbSymbolTableRecord
100
AcDbLayerTableRecord
  2
PRECARICO_MOLLA
 70
0
 62
7
  6
CONTINUOUS
370
-3
390
F
  0
LAYER
  5
214
100
AcDbSymbolTableRecord
100
AcDbLayerTableRecord
  2
PUNTI
 70
0
 62
7
  6
CONTINUOUS
370
-3
390
F
  0
LAYER
  5
215
100
AcDbSymbolTableRecord
100
AcDbLayerTableRecord
  2
RACCORDO
 70
0
 62
7
  6
CONTINUOUS
370
-3
390
F
  0
LAYER
  5
216
100
AcDbSymbolTableRecord
100
AcDbLayerTableRecord
  2
RGB____0____0____0__
 70
0
 62
7
  6
CONTINUOUS
370
-3
390
F
  0
LAYER
  5
217
100
AcDbSymbolTableRecord
100
AcDbLayerTableRecord
  2
SMUSSO
 70
0
 62
7
  6
CONTINUOUS
370
-3
390
F
  0
LAYER
  5
218
100
AcDbSymbolTableRecord
100
AcDbLayerTableRecord
  2
SUPERFICI
 70
0
 62
7
  6
CONTINUOUS
370
-3
390
F
  0
LAYER
  5
219
100
AcDbSymbolTableRecord
100
AcDbLayerTableRecord
  2
TRASH
 70
0
 62
7
  6
CONTINUOUS
370
-3
390
F
  0
LAYER
  5
21A
100
AcDbSymbolTableRecord
100
AcDbLayerTableRecord
  2
TRECCIE
 70
0
 62
7
  6
CONTINUOUS
370
-3
390
F
  0
LAYER
  5
21B
100
AcDbSymbolTableRecord
100
AcDbLayerTableRecord
  2
VARIE
 70
0
 62
7
  6
CONTINUOUS
370
-3
390
F
  0
LAYER
  5
21C
100
AcDbSymbolTableRecord
100
AcDbLayerTableRecord
  2
XSEC_DATUMS
 70
0
 62
7
  6
CONTINUOUS
370
-3
390
F
  0
LAYER
  5
21D
100
AcDbSymbolTableRecord
100
AcDbLayerTableRecord
  2
___SHELL
 70
0
 62
7
  6
CONTINUOUS
370
-3
390
F
  0
ENDTAB
  0
TABLE
  2
STYLE
  5
3
100
AcDbSymbolTable
 70
1
  0
STYLE
  5
11
100
AcDbSymbolTableRecord
100
AcDbTextStyleTableRecord
  2
STANDARD
 70
0
 40
0.0
 41
0.8
 50
0.0
 71
0
 42
0.2
  3
txt
  4

  0
STYLE
  5
21E
100
AcDbSymbolTableRecord
100
AcDbTextStyleTableRecord
  2
TEXTSTYLE_1
 70
0
 40
0.0
 41
0.8
 50
0.0
 71
0
 42
0.2
  3
gdt
  4

  0
ENDTAB
  0
TABLE
  2
VIEW
  5
6
100
AcDbSymbolTable
 70
0
  0
ENDTAB
  0
TABLE
  2
UCS
  5
7
100
AcDbSymbolTable
 70
0
  0
ENDTAB
  0
TABLE
  2
APPID
  5
9
100
AcDbSymbolTable
 70
1
  0
APPID
  5
21F
100
AcDbSymbolTableRecord
100
AcDbRegAppTableRecord
  2
ACAD
 70
0
  0
ENDTAB
  0
TABLE
  2
BLOCK_RECORD
  5
1
100
AcDbSymbolTable
 70
0
  0
BLOCK_RECORD
  5
220
100
AcDbSymbolTableRecord
100
AcDbBlockTableRecord
  2
*Model_Space
  0
BLOCK_RECORD
  5
221
100
AcDbSymbolTableRecord
100
AcDbBlockTableRecord
  2
*Paper_Space
  0
BLOCK_RECORD
  5
222
100
AcDbSymbolTableRecord
100
AcDbBlockTableRecord
  2
_FILLED
  0
ENDTAB
  0
TABLE
  2
DIMSTYLE
  5
A
100
AcDbSymbolTable
 70
1
100
AcDbDimStyleTable
 71
0
  0
DIMSTYLE
105
223
100
AcDbSymbolTableRecord
100
AcDbDimStyleTableRecord
  2
STANDARD
 70
0
  3

  4

 40
1.0
 41
3.0
 42
0.5
 43
0.38
 44
1.5
 45
0.0
 46
0.0
 47
0.01
 48
0.01
140
3.0
141
0.09
142
0.0
143
25.4
144
1.0
145
0.0
146
1.0
147
0.625
 71
1.0
 72
0.0
 73
0
 74
0
 75
0
 76
0
 77
1
 78
8
 79
2
170
0
171
1
172
0
173
0
174
0
175
0
176
0
177
0
178
0
270
2
179
2
271
2
272
2
273
2
274
2
275
0
280
0
281
0
282
0
283
1
284
8
285
0
286
0
287
3
288
0
340
11
278
44
341
222
342
222
343
222
344
222
  0
ENDTAB
  0
ENDSEC
  0
SECTION
  2
BLOCKS
  0
BLOCK
  5
20
100
AcDbEntity
  8
0
100
AcDbBlockBegin
  2
*Model_Space
 70
0
 10
0.0
 20
0.0
 30
0.0
  3
*Model_Space
  1

  0
ENDBLK
  5
21
100
AcDbEntity
  8
0
100
AcDbBlockEnd
  0
BLOCK
  5
1C
100
AcDbEntity
  8
0
100
AcDbBlockBegin
  2
*Paper_Space
 70
0
 10
0.0
 20
0.0
 30
0.0
  3
*Paper_Space
  1

  0
ENDBLK
  5
1D
100
AcDbEntity
  8
0
100
AcDbBlockEnd
  0
BLOCK
  5
224
100
AcDbEntity
  8
0
100
AcDbBlockBegin
  2
_FILLED
 70
64
 10
0.0
 20
0.0
  3
_FILLED
  1

  0
SOLID
  5
225
100
AcDbEntity
  8
0
  6
BYBLOCK
 62
0
100
AcDbTrace
 10
0.0
 20
0.0
 11
-1.0
 21
0.3166666667
 12
-1.0
 22
-0.3166666667
 13
-1.0
 23
-0.3166666667
  0
ENDBLK
  5
226
100
AcDbEntity
  8
0
  6
BYBLOCK
 62
0
100
AcDbBlockEnd
  0
ENDSEC
  0
SECTION
  2
ENTITIES
  0
LINE
  5
227
100
AcDbEntity
  8
RACCORDO
100
AcDbLine
 62
250
  6
CONTINUOUS
 10
-8.4719806268
 20
24.5413264193
 11
-8.4676087928
 21
24.5456982533
  0
LINE
  5
228
100
AcDbEntity
  8
RACCORDO
100
AcDbLine
 62
250
  6
CONTINUOUS
 10
-10.6174606984
 20
22.4456982533
 11
-10.6000056335
 21
22.4544251211
  0
LINE
  5
229
100
AcDbEntity
  8
RACCORDO
100
AcDbLine
 62
7
  6
CONTINUOUS
 10
-10.3676172544
 20
-24.4543017467
 11
-8.4676087928
 21
-24.4543017467
  0
LINE
  5
22A
100
AcDbEntity
  8
RACCORDO
100
AcDbLine
 62
7
  6
CONTINUOUS
 10
8.5323827456
 20
-24.4543017467
 11
10.4323912072
 21
-24.4543017467
  0
LINE
  5
22B
100
AcDbEntity
  8
RACCORDO
100
AcDbLine
 62
250
  6
CONTINUOUS
 10
-10.3632454204
 20
-24.4499299127
 11
-8.4719806268
 21
-24.4499299127
  0
LINE
  5
22C
100
AcDbEntity
  8
RACCORDO
100
AcDbLine
 62
250
  6
CONTINUOUS
 10
8.5367545796
 20
-24.4499299127
 11
10.4280193732
 21
-24.4499299127
  0
LINE
  5
22D
100
AcDbEntity
  8
RACCORDO
100
AcDbLine
 62
250
  6
CONTINUOUS
 10
8.2867588104
 20
-24.1999341435
 11
10.6780151424
 21
-24.1999341435
  0
LINE
  5
22E
100
AcDbEntity
  8
RACCORDO
100
AcDbLine
 62
250
  6
CONTINUOUS
 10
-8.2219848576
 20
-24.1999341435
 11
-10.6132411896
 21
-24.1999341435
  0
LINE
  5
22F
100
AcDbEntity
  8
RACCORDO
100
AcDbLine
 62
250
  6
CONTINUOUS
 10
-8.2219848576
 20
-23.798639314
 11
-10.6132411896
 21
-23.798639314
  0
LINE
  5
230
100
AcDbEntity
  8
DRAFT
100
AcDbLine
 62
7
  6
CONTINUOUS
 10
-4.3676130236
 20
-23.7543017467
 11
4.4323869764
 21
-23.7543017467
  0
LINE
  5
231
100
AcDbEntity
  8
DRAFT
100
AcDbLine
 62
7
  6
CONTINUOUS
 10
-3.4676130236
 20
-23.7484839169
 11
3.5323869764
 21
-23.7484839169
  0
LINE
  5
232
100
AcDbEntity
  8
ASSI
100
AcDbLine
 62
250
  6
CONTINUOUS
 10
-4.3239623767
 20
-23.7106510998
 11
-3.4676130236
 21
-23.7106510998
  0
LINE
  5
233
100
AcDbEntity
  8
ASSI
100
AcDbLine
 62
250
  6
CONTINUOUS
 10
3.5323869764
 20
-23.7106510998
 11
4.3887363295
 21
-23.7106510998
  0
LINE
  5
234
100
AcDbEntity
  8
RACCORDO
100
AcDbLine
 62
7
  6
CONTINUOUS
 10
8.5367545796
 20
-23.6543017467
 11
10.4280193732
 21
-23.6543017467
  0
LINE
  5
235
100
AcDbEntity
  8
RACCORDO
100
AcDbLine
 62
250
  6
CONTINUOUS
 10
-8.4719806268
 20
-23.5821329631
 11
-10.3632454204
 21
-23.5821329631
  0
LINE
  5
236
100
AcDbEntity
  8
RACCORDO
100
AcDbLine
 62
7
  6
CONTINUOUS
 10
10.4331099743
 20
-23.0769514775
 11
8.5316639785
 21
-23.0769514775
  0
LINE
  5
237
100
AcDbEntity
  8
RACCORDO
100
AcDbLine
 62
7
  6
CONTINUOUS
 10
-8.4668900257
 20
-23.0769514775
 11
-10.3683360215
 21
-23.0769514775
  0
LINE
  5
238
100
AcDbEntity
  8
RACCORDO
100
AcDbLine
 62
250
  6
CONTINUOUS
 10
-10.6000056335
 20
-22.3630286145
 11
-10.6174606984
 21
-22.3543017467
  0
LINE
  5
239
100
AcDbEntity
  8
RACCORDO
100
AcDbLine
 62
250
  6
CONTINUOUS
 10
-8.4719806268
 20
-24.4499299127
 11
-8.4676087928
 21
-24.4543017467
  0
LINE
  5
23A
100
AcDbEntity
  8
RACCORDO
100
AcDbLine
 62
250
  6
CONTINUOUS
 10
-8.2219848576
 20
24.2913306501
 11
-8.2176130236
 21
24.2957024841
  0
LINE
  5
23B
100
AcDbEntity
  8
GUSCI_ESTERNI
100
AcDbLine
 62
7
  6
CONTINUOUS
 10
5.4823869764
 20
-21.5543017467
 11
8.4079176962
 21
-21.5287710269
  0
LINE
  5
23C
100
AcDbEntity
  8
ASSI
100
AcDbLine
 62
7
  6
CONTINUOUS
 10
5.4823869764
 20
-21.5543017467
 11
8.4079176962
 21
-21.5287710269
  0
LINE
  5
23D
100
AcDbEntity
  8
RACCORDO
100
AcDbLine
 62
7
  6
CONTINUOUS
 10
10.6647795863
 20
-22.3630286145
 11
8.1408381414
 21
-22.3630286145
  0
LINE
  5
23E
100
AcDbEntity
  8
RACCORDO
100
AcDbLine
 62
7
  6
CONTINUOUS
 10
-8.0760641885
 20
-22.3630286145
 11
-10.6000056335
 21
-22.3630286145
  0
LINE
  5
23F
100
AcDbEntity
  8
RACCORDO
100
AcDbLine
 62
7
  6
CONTINUOUS
 10
-8.0168400498
 20
-22.3617828688
 11
-4.3667825382
 21
-22.3617828688
  0
LINE
  5
240
100
AcDbEntity
  8
RACCORDO
100
AcDbLine
 62
7
  6
CONTINUOUS
 10
4.431556491
 20
-22.3617828688
 11
8.0816140027
 21
-22.3617828688
  0
LINE
  5
241
100
AcDbEntity
  8
RACCORDO
100
AcDbLine
 62
7
  6
CONTINUOUS
 10
-10.6174606984
 20
-22.3543017467
 11
-7.2176130236
 21
-22.3543017467
  0
LINE
  5
242
100
AcDbEntity
  8
DRAFT
100
AcDbLine
 62
7
  6
CONTINUOUS
 10
-3.4676130236
 20
-22.3543017467
 11
-2.9676130236
 21
-22.3543017467
  0
LINE
  5
243
100
AcDbEntity
  8
DRAFT
100
AcDbLine
 62
7
  6
CONTINUOUS
 10
3.0323869764
 20
-22.3543017467
 11
3.5323869764
 21
-22.3543017467
  0
LINE
  5
244
100
AcDbEntity
  8
RACCORDO
100
AcDbLine
 62
7
  6
CONTINUOUS
 10
7.2823869764
 20
-22.3543017467
 11
10.6822346513
 21
-22.3543017467
  0
LINE
  5
245
100
AcDbEntity
  8
RACCORDO
100
AcDbLine
 62
250
  6
CONTINUOUS
 10
-7.296230989
 20
-22.2756837813
 11
-2.9676130236
 21
-22.2756837813
  0
LINE
  5
246
100
AcDbEntity
  8
RACCORDO
100
AcDbLine
 62
250
  6
CONTINUOUS
 10
3.0323869764
 20
-22.2756837813
 11
7.3610049419
 21
-22.2756837813
  0
LINE
  5
247
100
AcDbEntity
  8
DRAFT
100
AcDbLine
 62
7
  6
CONTINUOUS
 10
-5.4176130236
 20
-21.7130286145
 11
5.4823869764
 21
-21.7130286145
  0
LINE
  5
248
100
AcDbEntity
  8
RACCORDO
100
AcDbLine
 62
250
  6
CONTINUOUS
 10
5.4823869764
 20
-21.7129524592
 11
-5.4176130236
 21
-21.7129524592
  0
LINE
  5
249
100
AcDbEntity
  8
GUSCI_ESTERNI
100
AcDbLine
 62
7
  6
CONTINUOUS
 10
-5.4176130236
 20
-21.4543017467
 11
-8.3431437434
 21
-21.4287710269
  0
LINE
  5
24A
100
AcDbEntity
  8
RACCORDO
100
AcDbLine
 62
250
  6
CONTINUOUS
 10
-8.2219848576
 20
-24.1999341435
 11
-8.2176130236
 21
-24.2043059775
  0
LINE
  5
24B
100
AcDbEntity
  8
GUSCI_ESTERNI
100
AcDbLine
 62
7
  6
CONTINUOUS
 10
-10.8176130236
 20
19.0456982533
 11
-8.3431437434
 21
21.5201675335
  0
LINE
  5
24C
100
AcDbEntity
  8
DRAFT
100
AcDbLine
 62
7
  6
CONTINUOUS
 10
-10.8176130236
 20
18.9956982533
 11
-11.140304608
 21
18.6730066689
  0
LINE
  5
24D
100
AcDbEntity
  8
RACCORDO
100
AcDbLine
 62
7
  6
CONTINUOUS
 10
-8.1413830041
 20
21.5219282728
 11
-7.2176130236
 21
22.4456982533
  0
LINE
  5
24E
100
AcDbEntity
  8
GUSCI_ESTERNI
100
AcDbLine
 62
250
  6
CONTINUOUS
 10
5.4823869764
 20
-20.5543398236
 11
9.4166829806
 21
-20.5200057426
  0
LINE
  5
24F
100
AcDbEntity
  8
ASSI
100
AcDbLine
 62
250
  6
CONTINUOUS
 10
5.4823869764
 20
-20.5543398236
 11
9.4166829806
 21
-20.5200057426
  0
LINE
  5
250
100
AcDbEntity
  8
GUSCI_ESTERNI
100
AcDbLine
 62
7
  6
CONTINUOUS
 10
10.8823869764
 20
-19.4354521142
 11
10.4999014772
 21
-19.4367872459
  0
LINE
  5
251
100
AcDbEntity
  8
ASSI
100
AcDbLine
 62
7
  6
CONTINUOUS
 10
10.8823869764
 20
-19.4354521142
 11
10.4999014772
 21
-19.4367872459
  0
LINE
  5
252
100
AcDbEntity
  8
DRAFT
100
AcDbLine
 62
7
  6
CONTINUOUS
 10
-9.6176130236
 20
-20.8543017467
 11
-8.9176130236
 21
-20.8543017467
  0
LINE
  5
253
100
AcDbEntity
  8
DRAFT
100
AcDbLine
 62
7
  6
CONTINUOUS
 10
9.0823869764
 20
-20.8543017467
 11
9.6823869764
 21
-20.8543017467
  0
LINE
  5
254
100
AcDbEntity
  8
RACCORDO
100
AcDbLine
 62
250
  6
CONTINUOUS
 10
9.5391792829
 20
-20.7827033532
 11
9.15398537
 21
-20.7827033532
  0
LINE
  5
255
100
AcDbEntity
  8
RACCORDO
100
AcDbLine
 62
250
  6
CONTINUOUS
 10
-8.9892114171
 20
-20.7827033532
 11
-9.4744053301
 21
-20.7827033532
  0
LINE
  5
256
100
AcDbEntity
  8
RACCORDO
100
AcDbLine
 62
250
  6
CONTINUOUS
 10
5.4823869764
 20
-20.7129905361
 11
-5.4176130236
 21
-20.7129905361
  0
LINE
  5
257
100
AcDbEntity
  8
GUSCI_ESTERNI
100
AcDbLine
 62
250
  6
CONTINUOUS
 10
-5.4176130236
 20
-20.4543398236
 11
-9.3519090277
 21
-20.4200057426
  0
LINE
  5
258
100
AcDbEntity
  8
GUSCI_ESTERNI
100
AcDbLine
 62
7
  6
CONTINUOUS
 10
-8.3431437434
 20
-21.4287710269
 11
-10.8176130236
 21
-18.9543017467
  0
LINE
  5
259
100
AcDbEntity
  8
DRAFT
100
AcDbLine
 62
7
  6
CONTINUOUS
 10
-11.140304608
 20
-18.5816101623
 11
-10.8176130236
 21
-18.9043017467
  0
LINE
  5
25A
100
AcDbEntity
  8
RACCORDO
100
AcDbLine
 62
7
  6
CONTINUOUS
 10
-7.2176130236
 20
-22.3543017467
 11
-8.1413830041
 21
-21.4305317662
  0
LINE
  5
25B
100
AcDbEntity
  8
GUSCI_ESTERNI
100
AcDbLine
 62
7
  6
CONTINUOUS
 10
8.3823869764
 20
-18.6243017467
 11
5.4823869764
 21
-18.6243017467
  0
LINE
  5
25C
100
AcDbEntity
  8
ASSI
100
AcDbLine
 62
7
  6
CONTINUOUS
 10
8.3823869764
 20
-18.6243017467
 11
5.4823869764
 21
-18.6243017467
  0
LINE
  5
25D
100
AcDbEntity
  8
DRAFT
100
AcDbLine
 62
7
  6
CONTINUOUS
 10
-5.4176130236
 20
-18.6043017467
 11
5.4823869764
 21
-18.6043017467
  0
LINE
  5
25E
100
AcDbEntity
  8
GUSCI_ESTERNI
100
AcDbLine
 62
7
  6
CONTINUOUS
 10
-5.4176130236
 20
-18.6043017467
 11
-8.3176130236
 21
-18.6043017467
  0
LINE
  5
25F
100
AcDbEntity
  8
DRAFT
100
AcDbLine
 62
7
  6
CONTINUOUS
 10
5.4823869764
 20
-18.5868480111
 11
-5.4176130236
 21
-18.5868480111
  0
LINE
  5
260
100
AcDbEntity
  8
GUSCI_ESTERNI
100
AcDbLine
 62
7
  6
CONTINUOUS
 10
5.4823869764
 20
-17.1043017467
 11
8.6323869764
 21
-17.0974293383
  0
LINE
  5
261
100
AcDbEntity
  8
ASSI
100
AcDbLine
 62
7
  6
CONTINUOUS
 10
5.4823869764
 20
-17.1043017467
 11
8.6323869764
 21
-17.0974293383
  0
LINE
  5
262
100
AcDbEntity
  8
GUSCI_ESTERNI
100
AcDbLine
 62
7
  6
CONTINUOUS
 10
5.4823869764
 20
-17.6293017467
 11
8.6823869764
 21
-17.6293017467
  0
LINE
  5
263
100
AcDbEntity
  8
ASSI
100
AcDbLine
 62
7
  6
CONTINUOUS
 10
5.4823869764
 20
-17.6293017467
 11
8.6823869764
 21
-17.6293017467
  0
LINE
  5
264
100
AcDbEntity
  8
RACCORDO
100
AcDbLine
 62
7
  6
CONTINUOUS
 10
-5.4176130236
 20
-17.6217554823
 11
-2.2001021726
 21
-17.6217554823
  0
LINE
  5
265
100
AcDbEntity
  8
RACCORDO
100
AcDbLine
 62
7
  6
CONTINUOUS
 10
5.4823869764
 20
-17.6217554823
 11
2.2648761254
 21
-17.6217554823
  0
LINE
  5
266
100
AcDbEntity
  8
GUSCI_ESTERNI
100
AcDbLine
 62
7
  6
CONTINUOUS
 10
-8.6176130236
 20
-17.6043017467
 11
-5.4176130236
 21
-17.6043017467
  0
LINE
  5
267
100
AcDbEntity
  8
RACCORDO
100
AcDbLine
 62
7
  6
CONTINUOUS
 10
-5.4176130236
 20
-17.6043017467
 11
-2.2175559082
 21
-17.6043017467
  0
LINE
  5
268
100
AcDbEntity
  8
RACCORDO
100
AcDbLine
 62
7
  6
CONTINUOUS
 10
5.4823869764
 20
-17.6043017467
 11
2.282329861
 21
-17.6043017467
  0
LINE
  5
269
100
AcDbEntity
  8
RACCORDO
100
AcDbLine
 62
7
  6
CONTINUOUS
 10
5.4823869764
 20
-17.1043017467
 11
2.2823869764
 21
-17.1043017467
  0
LINE
  5
26A
100
AcDbEntity
  8
RACCORDO
100
AcDbLine
 62
7
  6
CONTINUOUS
 10
-2.2176130236
 20
-17.1043017467
 11
-5.4176130236
 21
-17.1043017467
  0
LINE
  5
26B
100
AcDbEntity
  8
GUSCI_ESTERNI
100
AcDbLine
 62
7
  6
CONTINUOUS
 10
-8.6176130236
 20
-16.8543017467
 11
-5.4176130236
 21
-16.8543017467
  0
LINE
  5
26C
100
AcDbEntity
  8
RACCORDO
100
AcDbLine
 62
7
  6
CONTINUOUS
 10
5.4823869764
 20
-16.8543017467
 11
2.2823869764
 21
-16.8543017467
  0
LINE
  5
26D
100
AcDbEntity
  8
RACCORDO
100
AcDbLine
 62
7
  6
CONTINUOUS
 10
-2.2176130236
 20
-16.8543017467
 11
-5.4176130236
 21
-16.8543017467
  0
LINE
  5
26E
100
AcDbEntity
  8
GUSCI_ESTERNI
100
AcDbLine
 62
7
  6
CONTINUOUS
 10
5.4823869764
 20
-16.8543017467
 11
8.6323869764
 21
-16.8543017467
  0
LINE
  5
26F
100
AcDbEntity
  8
ASSI
100
AcDbLine
 62
7
  6
CONTINUOUS
 10
5.4823869764
 20
-16.8543017467
 11
8.6323869764
 21
-16.8543017467
  0
LINE
  5
270
100
AcDbEntity
  8
GUSCI_ESTERNI
100
AcDbLine
 62
250
  6
CONTINUOUS
 10
-9.5993662199
 20
-16.3543017467
 11
-9.4836384274
 21
-16.3543017467
  0
LINE
  5
271
100
AcDbEntity
  8
GUSCI_ESTERNI
100
AcDbLine
 62
250
  6
CONTINUOUS
 10
9.6233525616
 20
-16.1043017467
 11
9.600632813
 21
-16.1043017467
  0
LINE
  5
272
100
AcDbEntity
  8
ASSI
100
AcDbLine
 62
250
  6
CONTINUOUS
 10
9.6233525616
 20
-16.1043017467
 11
9.600632813
 21
-16.1043017467
  0
LINE
  5
273
100
AcDbEntity
  8
GUSCI_ESTERNI
100
AcDbLine
 62
7
  6
CONTINUOUS
 10
-5.4176130236
 20
-17.3543017467
 11
-8.6176130236
 21
-17.3403387582
  0
LINE
  5
274
100
AcDbEntity
  8
RACCORDO
100
AcDbLine
 62
7
  6
CONTINUOUS
 10
0.0365980997
 20
21.7999093765
 11
0.0410376889
 21
21.8043489658
  0
LINE
  5
275
100
AcDbEntity
  8
RACCORDO
100
AcDbLine
 62
7
  6
CONTINUOUS
 10
9.5391792829
 20
20.8740998597
 11
9.6823869764
 21
20.9456982533
  0
LINE
  5
276
100
AcDbEntity
  8
GUSCI_ESTERNI
100
AcDbLine
 62
250
  6
CONTINUOUS
 10
9.6233525616
 20
-14.1043017467
 11
9.600632813
 21
-14.1043017467
  0
LINE
  5
277
100
AcDbEntity
  8
ASSI
100
AcDbLine
 62
250
  6
CONTINUOUS
 10
9.6233525616
 20
-14.1043017467
 11
9.600632813
 21
-14.1043017467
  0
LINE
  5
278
100
AcDbEntity
  8
RACCORDO
100
AcDbLine
 62
7
  6
CONTINUOUS
 10
9.6823869764
 20
-20.8543017467
 11
9.5391792829
 21
-20.7827033532
  0
LINE
  5
279
100
AcDbEntity
  8
ASSI
100
AcDbLine
 62
7
  6
CONTINUOUS
 10
4.4323869764
 20
23.8456982533
 11
4.3887363295
 21
23.8020476064
  0
LINE
  5
27A
100
AcDbEntity
  8
0
100
AcDbLine
 62
7
  6
CONTINUOUS
 10
-5.0176130236
 20
13.7956982533
 11
-5.3676130236
 21
13.4456982533
  0
LINE
  5
27B
100
AcDbEntity
  8
GUSCI_ESTERNI
100
AcDbLine
 62
7
  6
CONTINUOUS
 10
-5.4176130236
 20
-12.8543017467
 11
-8.6176130236
 21
-12.8682647352
  0
LINE
  5
27C
100
AcDbEntity
  8
GUSCI_ESTERNI
100
AcDbLine
 62
250
  6
CONTINUOUS
 10
-9.5993662199
 20
-13.8543017467
 11
-9.4836384274
 21
-13.8543017467
  0
LINE
  5
27D
100
AcDbEntity
  8
0
100
AcDbLine
 62
7
  6
CONTINUOUS
 10
-9.3309451614
 20
-13.6543017467
 11
-8.1676130236
 21
-13.6543017467
  0
LINE
  5
27E
100
AcDbEntity
  8
0
100
AcDbLine
 62
7
  6
CONTINUOUS
 10
-2.6676130236
 20
-13.6543017467
 11
-1.5036065919
 21
-13.6543017467
  0
LINE
  5
27F
100
AcDbEntity
  8
0
100
AcDbLine
 62
7
  6
CONTINUOUS
 10
1.5683805447
 20
-13.6543017467
 11
2.7323869764
 21
-13.6543017467
  0
LINE
  5
280
100
AcDbEntity
  8
0
100
AcDbLine
 62
7
  6
CONTINUOUS
 10
8.2323869764
 20
-13.6543017467
 11
9.3462787748
 21
-13.6543017467
  0
LINE
  5
281
100
AcDbEntity
  8
RACCORDO
100
AcDbLine
 62
7
  6
CONTINUOUS
 10
-5.4176130236
 20
-13.3543017467
 11
-2.2176130236
 21
-13.3543017467
  0
LINE
  5
282
100
AcDbEntity
  8
GUSCI_ESTERNI
100
AcDbLine
 62
7
  6
CONTINUOUS
 10
8.6323869764
 20
-13.3543017467
 11
5.4823869764
 21
-13.3543017467
  0
LINE
  5
283
100
AcDbEntity
  8
ASSI
100
AcDbLine
 62
7
  6
CONTINUOUS
 10
8.6323869764
 20
-13.3543017467
 11
5.4823869764
 21
-13.3543017467
  0
LINE
  5
284
100
AcDbEntity
  8
RACCORDO
100
AcDbLine
 62
7
  6
CONTINUOUS
 10
2.2823869764
 20
-13.3543017467
 11
5.4823869764
 21
-13.3543017467
  0
LINE
  5
285
100
AcDbEntity
  8
GUSCI_ESTERNI
100
AcDbLine
 62
7
  6
CONTINUOUS
 10
-5.4176130236
 20
-13.3543017467
 11
-8.6176130236
 21
-13.3543017467
  0
LINE
  5
286
100
AcDbEntity
  8
RACCORDO
100
AcDbLine
 62
7
  6
CONTINUOUS
 10
-5.4176130236
 20
-13.1043017467
 11
-2.2176130236
 21
-13.1043017467
  0
LINE
  5
287
100
AcDbEntity
  8
RACCORDO
100
AcDbLine
 62
7
  6
CONTINUOUS
 10
2.2823869764
 20
-13.1043017467
 11
5.4823869764
 21
-13.1043017467
  0
LINE
  5
288
100
AcDbEntity
  8
RACCORDO
100
AcDbLine
 62
7
  6
CONTINUOUS
 10
-5.4176130236
 20
-12.6043017467
 11
-2.2175559082
 21
-12.6043017467
  0
LINE
  5
289
100
AcDbEntity
  8
RACCORDO
100
AcDbLine
 62
7
  6
CONTINUOUS
 10
5.4823869764
 20
-12.6043017467
 11
2.282329861
 21
-12.6043017467
  0
LINE
  5
28A
100
AcDbEntity
  8
GUSCI_ESTERNI
100
AcDbLine
 62
7
  6
CONTINUOUS
 10
-5.4176130236
 20
-12.6043017467
 11
-8.6176130236
 21
-12.6043017467
  0
LINE
  5
28B
100
AcDbEntity
  8
RACCORDO
100
AcDbLine
 62
7
  6
CONTINUOUS
 10
-5.4176130236
 20
-12.5868480111
 11
-2.2001021726
 21
-12.5868480111
  0
LINE
  5
28C
100
AcDbEntity
  8
RACCORDO
100
AcDbLine
 62
7
  6
CONTINUOUS
 10
5.4823869764
 20
-12.5868480111
 11
2.2648761254
 21
-12.5868480111
  0
LINE
  5
28D
100
AcDbEntity
  8
GUSCI_ESTERNI
100
AcDbLine
 62
7
  6
CONTINUOUS
 10
8.6823869764
 20
-12.5793017467
 11
5.4823869764
 21
-12.5793017467
  0
LINE
  5
28E
100
AcDbEntity
  8
ASSI
100
AcDbLine
 62
7
  6
CONTINUOUS
 10
8.6823869764
 20
-12.5793017467
 11
5.4823869764
 21
-12.5793017467
  0
LINE
  5
28F
100
AcDbEntity
  8
GUSCI_ESTERNI
100
AcDbLine
 62
7
  6
CONTINUOUS
 10
5.4823869764
 20
-13.1043017467
 11
8.6323869764
 21
-13.1111741551
  0
LINE
  5
290
100
AcDbEntity
  8
ASSI
100
AcDbLine
 62
7
  6
CONTINUOUS
 10
5.4823869764
 20
-13.1043017467
 11
8.6323869764
 21
-13.1111741551
  0
LINE
  5
291
100
AcDbEntity
  8
RACCORDO
100
AcDbLine
 62
250
  6
CONTINUOUS
 10
-2.2175559082
 20
-17.6043017467
 11
-2.2001021726
 21
-17.6217554823
  0
LINE
  5
292
100
AcDbEntity
  8
ASSI
100
AcDbLine
 62
7
  6
CONTINUOUS
 10
4.4323869764
 20
-23.7543017467
 11
4.3887363295
 21
-23.7106510998
  0
LINE
  5
293
100
AcDbEntity
  8
0
100
AcDbLine
 62
7
  6
CONTINUOUS
 10
-5.7176130236
 20
-13.3543017467
 11
-5.4176130236
 21
-13.6543017467
  0
LINE
  5
294
100
AcDbEntity
  8
DRAFT
100
AcDbLine
 62
7
  6
CONTINUOUS
 10
-11.016373647
 20
4.1934330254
 11
-11.140304608
 21
11.5456982533
  0
LINE
  5
295
100
AcDbEntity
  8
RACCORDO
100
AcDbLine
 62
250
  6
CONTINUOUS
 10
-10.6132411896
 20
-23.798639314
 11
-10.6176130236
 21
-23.3647868949
  0
LINE
  5
296
100
AcDbEntity
  8
RACCORDO
100
AcDbLine
 62
250
  6
CONTINUOUS
 10
-10.3632454204
 20
-23.5821329631
 11
-10.3683360215
 21
-23.0769514775
  0
LINE
  5
297
100
AcDbEntity
  8
DRAFT
100
AcDbLine
 62
7
  6
CONTINUOUS
 10
-11.140304608
 20
18.6730066689
 11
-11.140304608
 21
11.5456982533
  0
LINE
  5
298
100
AcDbEntity
  8
DRAFT
100
AcDbLine
 62
7
  6
CONTINUOUS
 10
-11.140304608
 20
-11.4543017467
 11
-11.140304608
 21
-18.5816101623
  0
LINE
  5
299
100
AcDbEntity
  8
RACCORDO
100
AcDbLine
 62
7
  6
CONTINUOUS
 10
-11.1176130236
 20
-21.8542065551
 11
-11.1176130236
 21
-18.6043017467
  0
LINE
  5
29A
100
AcDbEntity
  8
RACCORDO
100
AcDbLine
 62
7
  6
CONTINUOUS
 10
-11.1176130236
 20
18.6956982533
 11
-11.1176130236
 21
21.9456030617
  0
LINE
  5
29B
100
AcDbEntity
  8
DRAFT
100
AcDbLine
 62
7
  6
CONTINUOUS
 10
-11.016373647
 20
4.1934330254
 11
-11.016373647
 21
-4.1020365188
  0
LINE
  5
29C
100
AcDbEntity
  8
RACCORDO
100
AcDbLine
 62
250
  6
CONTINUOUS
 10
-10.9176130236
 20
-4.1020365188
 11
-10.9176130236
 21
4.1934330254
  0
LINE
  5
29D
100
AcDbEntity
  8
GUSCI_ESTERNI
100
AcDbLine
 62
7
  6
CONTINUOUS
 10
-10.8176130236
 20
-18.9543017467
 11
-10.8176130236
 21
19.0456982533
  0
LINE
  5
29E
100
AcDbEntity
  8
RACCORDO
100
AcDbLine
 62
7
  6
CONTINUOUS
 10
-10.6176130236
 20
-22.5200137921
 11
-10.6176130236
 21
-24.2043059775
  0
LINE
  5
29F
100
AcDbEntity
  8
RACCORDO
100
AcDbLine
 62
7
  6
CONTINUOUS
 10
-10.6176130236
 20
22.6114102987
 11
-10.6176130236
 21
24.2957024841
  0
LINE
  5
2A0
100
AcDbEntity
  8
RACCORDO
100
AcDbLine
 62
250
  6
CONTINUOUS
 10
-10.6132411896
 20
24.2913306501
 11
-10.6132411896
 21
23.8900358206
  0
LINE
  5
2A1
100
AcDbEntity
  8
RACCORDO
100
AcDbLine
 62
250
  6
CONTINUOUS
 10
-10.6132411896
 20
-23.798639314
 11
-10.6132411896
 21
-24.1999341435
  0
LINE
  5
2A2
100
AcDbEntity
  8
RACCORDO
100
AcDbLine
 62
250
  6
CONTINUOUS
 10
-10.6176130236
 20
23.4561834015
 11
-10.6132411896
 21
23.8900358206
  0
LINE
  5
2A3
100
AcDbEntity
  8
RACCORDO
100
AcDbLine
 62
250
  6
CONTINUOUS
 10
-10.3683360215
 20
23.1683479841
 11
-10.3632454204
 21
23.6735294696
  0
LINE
  5
2A4
100
AcDbEntity
  8
DRAFT
100
AcDbLine
 62
7
  6
CONTINUOUS
 10
-11.140304608
 20
-11.4543017467
 11
-11.016373647
 21
-4.1020365188
  0
LINE
  5
2A5
100
AcDbEntity
  8
DRAFT
100
AcDbLine
 62
7
  6
CONTINUOUS
 10
5.4823869764
 20
-11.6217554823
 11
-5.4176130236
 21
-11.6217554823
  0
LINE
  5
2A6
100
AcDbEntity
  8
DRAFT
100
AcDbLine
 62
7
  6
CONTINUOUS
 10
-1.1545227219
 20
-11.6173920484
 11
0.0192966747
 21
-11.6173920484
  0
LINE
  5
2A7
100
AcDbEntity
  8
GUSCI_ESTERNI
100
AcDbLine
 62
7
  6
CONTINUOUS
 10
-8.3176130236
 20
-11.6043017467
 11
-5.4176130236
 21
-11.6043017467
  0
LINE
  5
2A8
100
AcDbEntity
  8
DRAFT
100
AcDbLine
 62
7
  6
CONTINUOUS
 10
-5.4176130236
 20
-11.6043017467
 11
-1.1676130236
 21
-11.6043017467
  0
LINE
  5
2A9
100
AcDbEntity
  8
DRAFT
100
AcDbLine
 62
7
  6
CONTINUOUS
 10
0.0323869764
 20
-11.6043017467
 11
5.4823869764
 21
-11.6043017467
  0
LINE
  5
2AA
100
AcDbEntity
  8
GUSCI_ESTERNI
100
AcDbLine
 62
7
  6
CONTINUOUS
 10
5.4823869764
 20
-11.5843017467
 11
8.3823869764
 21
-11.5843017467
  0
LINE
  5
2AB
100
AcDbEntity
  8
ASSI
100
AcDbLine
 62
7
  6
CONTINUOUS
 10
5.4823869764
 20
-11.5843017467
 11
8.3823869764
 21
-11.5843017467
  0
LINE
  5
2AC
100
AcDbEntity
  8
DRAFT
100
AcDbLine
 62
7
  6
CONTINUOUS
 10
-11.140304608
 20
-11.4543017467
 11
-10.8176130236
 21
-11.4543017467
  0
LINE
  5
2AD
100
AcDbEntity
  8
DRAFT
100
AcDbLine
 62
7
  6
CONTINUOUS
 10
-5.4176130236
 20
-11.4543017467
 11
-1.4176130236
 21
-11.4543017467
  0
LINE
  5
2AE
100
AcDbEntity
  8
DRAFT
100
AcDbLine
 62
7
  6
CONTINUOUS
 10
10.8823869764
 20
-11.4543017467
 11
11.2050785608
 21
-11.4543017467
  0
LINE
  5
2AF
100
AcDbEntity
  8
DRAFT
100
AcDbLine
 62
7
  6
CONTINUOUS
 10
-5.4176130236
 20
-11.4490652272
 11
-1.4228495431
 21
-11.4490652272
  0
LINE
  5
2B0
100
AcDbEntity
  8
RACCORDO
100
AcDbLine
 62
250
  6
CONTINUOUS
 10
-0.7176130236
 20
-16.1043588621
 11
-0.700159288
 21
-16.1218125977
  0
LINE
  5
2B1
100
AcDbEntity
  8
RACCORDO
100
AcDbLine
 62
250
  6
CONTINUOUS
 10
-10.3632454204
 20
-23.5821329631
 11
-10.3632454204
 21
-24.4499299127
  0
LINE
  5
2B2
100
AcDbEntity
  8
RACCORDO
100
AcDbLine
 62
250
  6
CONTINUOUS
 10
-10.3632454204
 20
23.6735294696
 11
-10.3632454204
 21
24.5413264193
  0
LINE
  5
2B3
100
AcDbEntity
  8
GUSCI_ESTERNI
100
AcDbLine
 62
7
  6
CONTINUOUS
 10
-10.1176130236
 20
-14.1043017467
 11
-10.1176130236
 21
-16.1043017467
  0
LINE
  5
2B4
100
AcDbEntity
  8
GUSCI_ESTERNI
100
AcDbLine
 62
7
  6
CONTINUOUS
 10
-9.6176130236
 20
15.9456982533
 11
-9.6176130236
 21
14.4456982533
  0
LINE
  5
2B5
100
AcDbEntity
  8
GUSCI_ESTERNI
100
AcDbLine
 62
7
  6
CONTINUOUS
 10
-9.6176130236
 20
-14.3543017467
 11
-9.6176130236
 21
-15.8543017467
  0
LINE
  5
2B6
100
AcDbEntity
  8
DRAFT
100
AcDbLine
 62
7
  6
CONTINUOUS
 10
-9.6176130236
 20
-20.1543017467
 11
-9.6176130236
 21
-20.8543017467
  0
LINE
  5
2B7
100
AcDbEntity
  8
DRAFT
100
AcDbLine
 62
7
  6
CONTINUOUS
 10
-9.6176130236
 20
20.2456982533
 11
-9.6176130236
 21
20.9456982533
  0
LINE
  5
2B8
100
AcDbEntity
  8
GUSCI_ESTERNI
100
AcDbLine
 62
7
  6
CONTINUOUS
 10
-9.5993662199
 20
-13.8543017467
 11
-9.5993662199
 21
-14.1641421784
  0
LINE
  5
2B9
100
AcDbEntity
  8
GUSCI_ESTERNI
100
AcDbLine
 62
7
  6
CONTINUOUS
 10
-9.5993662199
 20
-16.0444613151
 11
-9.5993662199
 21
-16.3543017467
  0
LINE
  5
2BA
100
AcDbEntity
  8
GUSCI_ESTERNI
100
AcDbLine
 62
7
  6
CONTINUOUS
 10
-9.5993662199
 20
13.9456982533
 11
-9.5993662199
 21
14.2555386849
  0
LINE
  5
2BB
100
AcDbEntity
  8
GUSCI_ESTERNI
100
AcDbLine
 62
7
  6
CONTINUOUS
 10
-9.5993662199
 20
16.1358578216
 11
-9.5993662199
 21
16.4456982533
  0
LINE
  5
2BC
100
AcDbEntity
  8
0
100
AcDbLine
 62
7
  6
CONTINUOUS
 10
-9.2676130236
 20
16.7048270781
 11
-9.2676130236
 21
13.6865620436
  0
LINE
  5
2BD
100
AcDbEntity
  8
DRAFT
100
AcDbLine
 62
7
  6
CONTINUOUS
 10
4.431556491
 20
22.4531793754
 11
4.3883197092
 21
22.388323288
  0
LINE
  5
2BE
100
AcDbEntity
  8
RACCORDO
100
AcDbLine
 62
250
  6
CONTINUOUS
 10
10.4280193732
 20
24.5413264193
 11
10.4323912072
 21
24.5456982533
  0
LINE
  5
2BF
100
AcDbEntity
  8
RACCORDO
100
AcDbLine
 62
250
  6
CONTINUOUS
 10
10.6780151424
 20
24.2913306501
 11
10.6823869764
 21
24.2957024841
  0
LINE
  5
2C0
100
AcDbEntity
  8
DRAFT
100
AcDbLine
 62
7
  6
CONTINUOUS
 10
-1.4176130236
 20
11.5456982533
 11
-1.4228495431
 21
11.5404617338
  0
LINE
  5
2C1
100
AcDbEntity
  8
RACCORDO
100
AcDbLine
 62
250
  6
CONTINUOUS
 10
0.0192966747
 20
-9.958703259
 11
-1.1545227219
 21
-9.958703259
  0
LINE
  5
2C2
100
AcDbEntity
  8
0
100
AcDbLine
 62
7
  6
CONTINUOUS
 10
-5.1176130236
 20
-9.7043017467
 11
-4.6176130236
 21
-9.7043017467
  0
LINE
  5
2C3
100
AcDbEntity
  8
0
100
AcDbLine
 62
7
  6
CONTINUOUS
 10
-2.5342797697
 20
-9.7043017467
 11
-1.7842797697
 21
-9.7043017467
  0
LINE
  5
2C4
100
AcDbEntity
  8
RACCORDO
100
AcDbLine
 62
250
  6
CONTINUOUS
 10
0.0279473872
 20
-8.9587413359
 11
-1.1631734344
 21
-8.9587413359
  0
LINE
  5
2C5
100
AcDbEntity
  8
DRAFT
100
AcDbLine
 62
7
  6
CONTINUOUS
 10
0.0323869764
 20
-8.9543017467
 11
-1.1676130236
 21
-8.9543017467
  0
LINE
  5
2C6
100
AcDbEntity
  8
RACCORDO
100
AcDbLine
 62
250
  6
CONTINUOUS
 10
10.4280193732
 20
-24.4499299127
 11
10.4323912072
 21
-24.4543017467
  0
LINE
  5
2C7
100
AcDbEntity
  8
RACCORDO
100
AcDbLine
 62
250
  6
CONTINUOUS
 10
10.6780151424
 20
-24.1999341435
 11
10.6823869764
 21
-24.2043059775
  0
LINE
  5
2C8
100
AcDbEntity
  8
RACCORDO
100
AcDbLine
 62
250
  6
CONTINUOUS
 10
0.7823869764
 20
-14.1042446313
 11
0.7649332408
 21
-14.0867908957
  0
LINE
  5
2C9
100
AcDbEntity
  8
DRAFT
100
AcDbLine
 62
7
  6
CONTINUOUS
 10
-1.4176130236
 20
-11.4543017467
 11
-1.4228495431
 21
-11.4490652272
  0
LINE
  5
2CA
100
AcDbEntity
  8
DRAFT
100
AcDbLine
 62
7
  6
CONTINUOUS
 10
-1.1676130236
 20
-11.6043017467
 11
-1.1545227219
 21
-11.6173920484
  0
LINE
  5
2CB
100
AcDbEntity
  8
DRAFT
100
AcDbLine
 62
7
  6
CONTINUOUS
 10
4.431556491
 20
-22.3617828688
 11
4.3883197092
 21
-22.2969267814
  0
LINE
  5
2CC
100
AcDbEntity
  8
RACCORDO
100
AcDbLine
 62
250
  6
CONTINUOUS
 10
-8.4719806268
 20
23.6735294696
 11
-8.4668900257
 21
23.1683479841
  0
LINE
  5
2CD
100
AcDbEntity
  8
RACCORDO
100
AcDbLine
 62
250
  6
CONTINUOUS
 10
-8.2219848576
 20
23.8900358206
 11
-8.2176130236
 21
23.4561834015
  0
LINE
  5
2CE
100
AcDbEntity
  8
GUSCI_ESTERNI
100
AcDbLine
 62
250
  6
CONTINUOUS
 10
-8.6176130236
 20
17.4317352648
 11
-8.6176130236
 21
16.9456982533
  0
LINE
  5
2CF
100
AcDbEntity
  8
GUSCI_ESTERNI
100
AcDbLine
 62
250
  6
CONTINUOUS
 10
-8.6176130236
 20
-12.8682647352
 11
-8.6176130236
 21
-13.3543017467
  0
LINE
  5
2D0
100
AcDbEntity
  8
GUSCI_ESTERNI
100
AcDbLine
 62
250
  6
CONTINUOUS
 10
-8.6176130236
 20
-17.3403387582
 11
-8.6176130236
 21
-16.8543017467
  0
LINE
  5
2D1
100
AcDbEntity
  8
GUSCI_ESTERNI
100
AcDbLine
 62
250
  6
CONTINUOUS
 10
-8.6176130236
 20
12.9596612418
 11
-8.6176130236
 21
13.4456982533
  0
LINE
  5
2D2
100
AcDbEntity
  8
RACCORDO
100
AcDbLine
 62
250
  6
CONTINUOUS
 10
-8.4719806268
 20
-23.5821329631
 11
-8.4719806268
 21
-24.4499299127
  0
LINE
  5
2D3
100
AcDbEntity
  8
RACCORDO
100
AcDbLine
 62
250
  6
CONTINUOUS
 10
-8.4719806268
 20
23.6735294696
 11
-8.4719806268
 21
24.5413264193
  0
LINE
  5
2D4
100
AcDbEntity
  8
RACCORDO
100
AcDbLine
 62
250
  6
CONTINUOUS
 10
-8.2219848576
 20
-24.1999341435
 11
-8.2219848576
 21
-23.798639314
  0
LINE
  5
2D5
100
AcDbEntity
  8
RACCORDO
100
AcDbLine
 62
250
  6
CONTINUOUS
 10
-8.2219848576
 20
23.8900358206
 11
-8.2219848576
 21
24.2913306501
  0
LINE
  5
2D6
100
AcDbEntity
  8
RACCORDO
100
AcDbLine
 62
7
  6
CONTINUOUS
 10
-8.2176130236
 20
-22.554515237
 11
-8.2176130236
 21
-24.2043059775
  0
LINE
  5
2D7
100
AcDbEntity
  8
RACCORDO
100
AcDbLine
 62
7
  6
CONTINUOUS
 10
-8.2176130236
 20
22.6459117436
 11
-8.2176130236
 21
24.2957024841
  0
LINE
  5
2D8
100
AcDbEntity
  8
RACCORDO
100
AcDbLine
 62
250
  6
CONTINUOUS
 10
-8.0516375903
 20
21.6116736866
 11
-8.0516375903
 21
21.5227114691
  0
LINE
  5
2D9
100
AcDbEntity
  8
RACCORDO
100
AcDbLine
 62
250
  6
CONTINUOUS
 10
-8.0516375903
 20
-21.4313149626
 11
-8.0516375903
 21
-21.52027718
  0
LINE
  5
2DA
100
AcDbEntity
  8
0
100
AcDbLine
 62
7
  6
CONTINUOUS
 10
-6.9176130236
 20
-16.8543017467
 11
-6.9176130236
 21
-13.3543017467
  0
LINE
  5
2DB
100
AcDbEntity
  8
RACCORDO
100
AcDbLine
 62
250
  6
CONTINUOUS
 10
-8.4668900257
 20
-23.0769514775
 11
-8.4719806268
 21
-23.5821329631
  0
LINE
  5
2DC
100
AcDbEntity
  8
RACCORDO
100
AcDbLine
 62
250
  6
CONTINUOUS
 10
-8.2176130236
 20
-23.3647868949
 11
-8.2219848576
 21
-23.798639314
  0
LINE
  5
2DD
100
AcDbEntity
  8
RACCORDO
100
AcDbLine
 62
250
  6
CONTINUOUS
 10
2.282329861
 20
-12.6043017467
 11
2.2648761254
 21
-12.5868480111
  0
LINE
  5
2DE
100
AcDbEntity
  8
RACCORDO
100
AcDbLine
 62
7
  6
CONTINUOUS
 10
-1.1676130236
 20
-8.9543017467
 11
-1.1631734344
 21
-8.9587413359
  0
LINE
  5
2DF
100
AcDbEntity
  8
0
100
AcDbLine
 62
7
  6
CONTINUOUS
 10
-4.6176130236
 20
-6.2149399837
 11
-2.5342797697
 21
-9.7043017467
  0
LINE
  5
2E0
100
AcDbEntity
  8
0
100
AcDbLine
 62
7
  6
CONTINUOUS
 10
-6.6111130236
 20
-13.3543017467
 11
-6.6111130236
 21
-16.8543017467
  0
LINE
  5
2E1
100
AcDbEntity
  8
0
100
AcDbLine
 62
7
  6
CONTINUOUS
 10
-6.5176130236
 20
16.9456982533
 11
-6.5176130236
 21
13.4456982533
  0
LINE
  5
2E2
100
AcDbEntity
  8
0
100
AcDbLine
 62
7
  6
CONTINUOUS
 10
-6.2111130236
 20
13.4456982533
 11
-6.2111130236
 21
16.9456982533
  0
LINE
  5
2E3
100
AcDbEntity
  8
GUSCI_ESTERNI
100
AcDbLine
 62
7
  6
CONTINUOUS
 10
-5.4176130236
 20
20.7512700734
 11
-5.4176130236
 21
17.4456982533
  0
LINE
  5
2E4
100
AcDbEntity
  8
GUSCI_ESTERNI
100
AcDbLine
 62
7
  6
CONTINUOUS
 10
-5.4176130236
 20
12.9456982533
 11
-5.4176130236
 21
1.9456982533
  0
LINE
  5
2E5
100
AcDbEntity
  8
DRAFT
100
AcDbLine
 62
7
  6
CONTINUOUS
 10
-5.4176130236
 20
-11.6217554823
 11
-5.4176130236
 21
-12.5868480111
  0
LINE
  5
2E6
100
AcDbEntity
  8
GUSCI_ESTERNI
100
AcDbLine
 62
7
  6
CONTINUOUS
 10
-5.4176130236
 20
1.1456982533
 11
-5.4176130236
 21
-12.8543017467
  0
LINE
  5
2E7
100
AcDbEntity
  8
DRAFT
100
AcDbLine
 62
7
  6
CONTINUOUS
 10
-5.4176130236
 20
-17.6217554823
 11
-5.4176130236
 21
-18.5868480111
  0
LINE
  5
2E8
100
AcDbEntity
  8
GUSCI_ESTERNI
100
AcDbLine
 62
7
  6
CONTINUOUS
 10
-5.4176130236
 20
-17.3543017467
 11
-5.4176130236
 21
-20.6597800344
  0
LINE
  5
2E9
100
AcDbEntity
  8
RACCORDO
100
AcDbLine
 62
7
  6
CONTINUOUS
 10
-5.4176130236
 20
-21.7130286145
 11
-5.4176130236
 21
-18.6043017467
  0
LINE
  5
2EA
100
AcDbEntity
  8
SMUSSO
100
AcDbLine
 62
7
  6
CONTINUOUS
 10
-5.4176130236
 20
-17.6043017467
 11
-5.4176130236
 21
-16.8543017467
  0
LINE
  5
2EB
100
AcDbEntity
  8
SMUSSO
100
AcDbLine
 62
7
  6
CONTINUOUS
 10
-5.4176130236
 20
-13.3543017467
 11
-5.4176130236
 21
-12.6043017467
  0
LINE
  5
2EC
100
AcDbEntity
  8
DRAFT
100
AcDbLine
 62
7
  6
CONTINUOUS
 10
-5.4176130236
 20
-11.6043017467
 11
-5.4176130236
 21
-11.4543017467
  0
LINE
  5
2ED
100
AcDbEntity
  8
DRAFT
100
AcDbLine
 62
7
  6
CONTINUOUS
 10
-5.4176130236
 20
-3.9543017467
 11
-5.4176130236
 21
0.1456982533
  0
LINE
  5
2EE
100
AcDbEntity
  8
DRAFT
100
AcDbLine
 62
7
  6
CONTINUOUS
 10
-5.4176130236
 20
0.9456982533
 11
-5.4176130236
 21
4.0456982533
  0
LINE
  5
2EF
100
AcDbEntity
  8
SMUSSO
100
AcDbLine
 62
7
  6
CONTINUOUS
 10
-5.4176130236
 20
11.5456982533
 11
-5.4176130236
 21
13.4456982533
  0
LINE
  5
2F0
100
AcDbEntity
  8
SMUSSO
100
AcDbLine
 62
7
  6
CONTINUOUS
 10
-5.4176130236
 20
16.9456982533
 11
-5.4176130236
 21
17.1956982533
  0
LINE
  5
2F1
100
AcDbEntity
  8
RACCORDO
100
AcDbLine
 62
7
  6
CONTINUOUS
 10
-5.4176130236
 20
17.1956982533
 11
-5.4176130236
 21
21.8043489658
  0
LINE
  5
2F2
100
AcDbEntity
  8
0
100
AcDbLine
 62
7
  6
CONTINUOUS
 10
-5.1176130236
 20
9.7956982533
 11
-5.1176130236
 21
5.7956982533
  0
LINE
  5
2F3
100
AcDbEntity
  8
0
100
AcDbLine
 62
7
  6
CONTINUOUS
 10
-5.1176130236
 20
-5.7043017467
 11
-5.1176130236
 21
-9.7043017467
  0
LINE
  5
2F4
100
AcDbEntity
  8
0
100
AcDbLine
 62
7
  6
CONTINUOUS
 10
5.4823869764
 20
13.7956982533
 11
5.1323869764
 21
13.4456982533
  0
LINE
  5
2F5
100
AcDbEntity
  8
0
100
AcDbLine
 62
7
  6
CONTINUOUS
 10
-1.7842797697
 20
-5.7043017467
 11
-2.2842797697
 21
-5.7043017467
  0
LINE
  5
2F6
100
AcDbEntity
  8
0
100
AcDbLine
 62
7
  6
CONTINUOUS
 10
-4.3676130236
 20
-5.7043017467
 11
-5.1176130236
 21
-5.7043017467
  0
LINE
  5
2F7
100
AcDbEntity
  8
0
100
AcDbLine
 62
7
  6
CONTINUOUS
 10
5.1823869764
 20
-13.3543017467
 11
5.4823869764
 21
-13.6543017467
  0
LINE
  5
2F8
100
AcDbEntity
  8
0
100
AcDbLine
 62
7
  6
CONTINUOUS
 10
-2.2842797697
 20
-9.1085570773
 11
-4.3676130236
 21
-5.7043017467
  0
LINE
  5
2F9
100
AcDbEntity
  8
0
100
AcDbLine
 62
7
  6
CONTINUOUS
 10
-4.6176130236
 20
-9.7043017467
 11
-4.6176130236
 21
-6.2149399837
  0
LINE
  5
2FA
100
AcDbEntity
  8
0
100
AcDbLine
 62
7
  6
CONTINUOUS
 10
-4.6176130236
 20
5.7956982533
 11
-4.6176130236
 21
9.2850600163
  0
LINE
  5
2FB
100
AcDbEntity
  8
DRAFT
100
AcDbLine
 62
7
  6
CONTINUOUS
 10
-4.3676130236
 20
23.8456982533
 11
-4.3676130236
 21
22.4531793754
  0
LINE
  5
2FC
100
AcDbEntity
  8
DRAFT
100
AcDbLine
 62
7
  6
CONTINUOUS
 10
-4.3676130236
 20
-22.3617828688
 11
-4.3676130236
 21
-23.7543017467
  0
LINE
  5
2FD
100
AcDbEntity
  8
ASSI
100
AcDbLine
 62
250
  6
CONTINUOUS
 10
-4.3235457563
 20
-22.2969267814
 11
-4.3235457563
 21
-23.7050751714
  0
LINE
  5
2FE
100
AcDbEntity
  8
ASSI
100
AcDbLine
 62
250
  6
CONTINUOUS
 10
-4.3235457563
 20
22.388323288
 11
-4.3235457563
 21
23.796471678
  0
LINE
  5
2FF
100
AcDbEntity
  8
0
100
AcDbLine
 62
7
  6
CONTINUOUS
 10
-4.2241130236
 20
-13.3543017467
 11
-4.2241130236
 21
-16.8543017467
  0
LINE
  5
300
100
AcDbEntity
  8
0
100
AcDbLine
 62
7
  6
CONTINUOUS
 10
-3.9176130236
 20
-16.8543017467
 11
-3.9176130236
 21
-13.3543017467
  0
LINE
  5
301
100
AcDbEntity
  8
0
100
AcDbLine
 62
7
  6
CONTINUOUS
 10
-3.8241130236
 20
13.4456982533
 11
-3.8241130236
 21
16.9456982533
  0
LINE
  5
302
100
AcDbEntity
  8
0
100
AcDbLine
 62
7
  6
CONTINUOUS
 10
-3.5176130236
 20
16.9456982533
 11
-3.5176130236
 21
13.4456982533
  0
LINE
  5
303
100
AcDbEntity
  8
ASSI
100
AcDbLine
 62
7
  6
CONTINUOUS
 10
-3.4676130236
 20
-22.2969485097
 11
-3.4676130236
 21
-23.705444037
  0
LINE
  5
304
100
AcDbEntity
  8
RACCORDO
100
AcDbLine
 62
7
  6
CONTINUOUS
 10
-3.4676130236
 20
-22.2969485097
 11
-3.4676130236
 21
-23.705444037
  0
LINE
  5
305
100
AcDbEntity
  8
ASSI
100
AcDbLine
 62
7
  6
CONTINUOUS
 10
-3.4676130236
 20
-23.7069751757
 11
-3.4676130236
 21
-23.7484839169
  0
LINE
  5
306
100
AcDbEntity
  8
ASSI
100
AcDbLine
 62
7
  6
CONTINUOUS
 10
-3.4676130236
 20
23.7983716823
 11
-3.4676130236
 21
23.8398804235
  0
LINE
  5
307
100
AcDbEntity
  8
ASSI
100
AcDbLine
 62
7
  6
CONTINUOUS
 10
-3.4676130236
 20
22.3883450163
 11
-3.4676130236
 21
23.7968405436
  0
LINE
  5
308
100
AcDbEntity
  8
GUSCI_ESTERNI
100
AcDbLine
 62
7
  6
CONTINUOUS
 10
6.4157202958
 20
6.3020811716
 11
6.2407202958
 21
6.2425067107
  0
LINE
  5
309
100
AcDbEntity
  8
ASSI
100
AcDbLine
 62
7
  6
CONTINUOUS
 10
6.4157202958
 20
6.3020811716
 11
6.2407202958
 21
6.2425067107
  0
LINE
  5
30A
100
AcDbEntity
  8
GUSCI_ESTERNI
100
AcDbLine
 62
7
  6
CONTINUOUS
 10
6.2407202958
 20
6.0042088667
 11
6.4157202958
 21
6.0637833277
  0
LINE
  5
30B
100
AcDbEntity
  8
ASSI
100
AcDbLine
 62
7
  6
CONTINUOUS
 10
6.2407202958
 20
6.0042088667
 11
6.4157202958
 21
6.0637833277
  0
LINE
  5
30C
100
AcDbEntity
  8
GUSCI_ESTERNI
100
AcDbLine
 62
7
  6
CONTINUOUS
 10
7.3490536987
 20
6.3020811716
 11
7.1740536153
 21
6.2425067107
  0
LINE
  5
30D
100
AcDbEntity
  8
ASSI
100
AcDbLine
 62
7
  6
CONTINUOUS
 10
7.3490536987
 20
6.3020811716
 11
7.1740536153
 21
6.2425067107
  0
LINE
  5
30E
100
AcDbEntity
  8
RACCORDO
100
AcDbLine
 62
7
  6
CONTINUOUS
 10
10.9823869764
 20
-4.1020365188
 11
11.0811475998
 21
-4.1020365188
  0
LINE
  5
30F
100
AcDbEntity
  8
RACCORDO
100
AcDbLine
 62
7
  6
CONTINUOUS
 10
-10.9176130236
 20
-4.1020365188
 11
-11.016373647
 21
-4.1020365188
  0
LINE
  5
310
100
AcDbEntity
  8
DRAFT
100
AcDbLine
 62
7
  6
CONTINUOUS
 10
-1.4228495431
 20
-3.9595382662
 11
-5.4176130236
 21
-3.9595382662
  0
LINE
  5
311
100
AcDbEntity
  8
DRAFT
100
AcDbLine
 62
7
  6
CONTINUOUS
 10
-5.4176130236
 20
-3.9543017467
 11
-1.4176130236
 21
-3.9543017467
  0
LINE
  5
312
100
AcDbEntity
  8
RACCORDO
100
AcDbLine
 62
7
  6
CONTINUOUS
 10
-2.9676130236
 20
-21.7130286145
 11
-2.9676130236
 21
-22.3543017467
  0
LINE
  5
313
100
AcDbEntity
  8
RACCORDO
100
AcDbLine
 62
7
  6
CONTINUOUS
 10
-2.9676130236
 20
21.8044251211
 11
-2.9676130236
 21
22.4456982533
  0
LINE
  5
314
100
AcDbEntity
  8
0
100
AcDbLine
 62
7
  6
CONTINUOUS
 10
-2.2842797697
 20
9.7956982533
 11
-2.2842797697
 21
6.3914429227
  0
LINE
  5
315
100
AcDbEntity
  8
0
100
AcDbLine
 62
7
  6
CONTINUOUS
 10
-2.2842797697
 20
-5.7043017467
 11
-2.2842797697
 21
-9.1085570773
  0
LINE
  5
316
100
AcDbEntity
  8
RACCORDO
100
AcDbLine
 62
250
  6
CONTINUOUS
 10
-2.2176130236
 20
17.1956982533
 11
-2.2176130236
 21
16.9456982533
  0
LINE
  5
317
100
AcDbEntity
  8
RACCORDO
100
AcDbLine
 62
250
  6
CONTINUOUS
 10
-2.2176130236
 20
13.4456982533
 11
-2.2176130236
 21
13.1956982533
  0
LINE
  5
318
100
AcDbEntity
  8
RACCORDO
100
AcDbLine
 62
250
  6
CONTINUOUS
 10
-2.2176130236
 20
-13.1043017467
 11
-2.2176130236
 21
-13.3543017467
  0
LINE
  5
319
100
AcDbEntity
  8
RACCORDO
100
AcDbLine
 62
250
  6
CONTINUOUS
 10
-2.2176130236
 20
-16.8543017467
 11
-2.2176130236
 21
-17.1043017467
  0
LINE
  5
31A
100
AcDbEntity
  8
0
100
AcDbLine
 62
7
  6
CONTINUOUS
 10
-1.7842797697
 20
-9.7043017467
 11
-1.7842797697
 21
-5.7043017467
  0
LINE
  5
31B
100
AcDbEntity
  8
0
100
AcDbLine
 62
7
  6
CONTINUOUS
 10
-1.7842797697
 20
5.7956982533
 11
-1.7842797697
 21
9.7956982533
  0
LINE
  5
31C
100
AcDbEntity
  8
DRAFT
100
AcDbLine
 62
7
  6
CONTINUOUS
 10
0.0323869764
 20
4.0456982533
 11
0.0376234959
 21
4.0509347728
  0
LINE
  5
31D
100
AcDbEntity
  8
0
100
AcDbLine
 62
7
  6
CONTINUOUS
 10
3.7523869764
 20
6.1956982533
 11
3.4823869764
 21
5.9276131789
  0
LINE
  5
31E
100
AcDbEntity
  8
GUSCI_ESTERNI
100
AcDbLine
 62
7
  6
CONTINUOUS
 10
7.1740536153
 20
6.0042088667
 11
7.2907202541
 21
6.0637833277
  0
LINE
  5
31F
100
AcDbEntity
  8
ASSI
100
AcDbLine
 62
7
  6
CONTINUOUS
 10
7.1740536153
 20
6.0042088667
 11
7.2907202541
 21
6.0637833277
  0
LINE
  5
320
100
AcDbEntity
  8
GUSCI_ESTERNI
100
AcDbLine
 62
7
  6
CONTINUOUS
 10
9.040720421
 20
6.3020811716
 11
8.865720421
 21
6.2425067107
  0
LINE
  5
321
100
AcDbEntity
  8
ASSI
100
AcDbLine
 62
7
  6
CONTINUOUS
 10
9.040720421
 20
6.3020811716
 11
8.865720421
 21
6.2425067107
  0
LINE
  5
322
100
AcDbEntity
  8
GUSCI_ESTERNI
100
AcDbLine
 62
7
  6
CONTINUOUS
 10
8.865720421
 20
6.0042088667
 11
9.040720421
 21
6.0637833277
  0
LINE
  5
323
100
AcDbEntity
  8
ASSI
100
AcDbLine
 62
7
  6
CONTINUOUS
 10
8.865720421
 20
6.0042088667
 11
9.040720421
 21
6.0637833277
  0
LINE
  5
324
100
AcDbEntity
  8
GUSCI_ESTERNI
100
AcDbLine
 62
7
  6
CONTINUOUS
 10
9.9740535318
 20
6.3020811716
 11
9.7990535318
 21
6.2425067107
  0
LINE
  5
325
100
AcDbEntity
  8
ASSI
100
AcDbLine
 62
7
  6
CONTINUOUS
 10
9.9740535318
 20
6.3020811716
 11
9.7990535318
 21
6.2425067107
  0
LINE
  5
326
100
AcDbEntity
  8
DRAFT
100
AcDbLine
 62
7
  6
CONTINUOUS
 10
0.0192966747
 20
14.2437744646
 11
0.0323869764
 21
11.6456982533
  0
LINE
  5
327
100
AcDbEntity
  8
DRAFT
100
AcDbLine
 62
7
  6
CONTINUOUS
 10
-1.4228495431
 20
-11.4490652272
 11
-1.4228495431
 21
-3.9595382662
  0
LINE
  5
328
100
AcDbEntity
  8
DRAFT
100
AcDbLine
 62
7
  6
CONTINUOUS
 10
-1.4228495431
 20
4.0509347728
 11
-1.4228495431
 21
11.5404617338
  0
LINE
  5
329
100
AcDbEntity
  8
DRAFT
100
AcDbLine
 62
7
  6
CONTINUOUS
 10
-1.4176130236
 20
-11.4543017467
 11
-1.4176130236
 21
-3.9543017467
  0
LINE
  5
32A
100
AcDbEntity
  8
DRAFT
100
AcDbLine
 62
7
  6
CONTINUOUS
 10
-1.4176130236
 20
4.0456982533
 11
-1.4176130236
 21
11.5456982533
  0
LINE
  5
32B
100
AcDbEntity
  8
RACCORDO
100
AcDbLine
 62
7
  6
CONTINUOUS
 10
-1.2176130236
 20
16.1649218469
 11
-1.2176130236
 21
14.2264746597
  0
LINE
  5
32C
100
AcDbEntity
  8
RACCORDO
100
AcDbLine
 62
7
  6
CONTINUOUS
 10
-1.2176130236
 20
-14.1350781531
 11
-1.2176130236
 21
-16.0735253403
  0
LINE
  5
32D
100
AcDbEntity
  8
RACCORDO
100
AcDbLine
 62
7
  6
CONTINUOUS
 10
-1.1676130236
 20
20.8043870427
 11
-1.1676130236
 21
11.6456982533
  0
LINE
  5
32E
100
AcDbEntity
  8
DRAFT
100
AcDbLine
 62
7
  6
CONTINUOUS
 10
-1.1676130236
 20
-8.9543017467
 11
-1.1676130236
 21
-11.6043017467
  0
LINE
  5
32F
100
AcDbEntity
  8
RACCORDO
100
AcDbLine
 62
7
  6
CONTINUOUS
 10
-1.1545227219
 20
19.7999855304
 11
-1.1545227219
 21
14.2437744646
  0
LINE
  5
330
100
AcDbEntity
  8
RACCORDO
100
AcDbLine
 62
7
  6
CONTINUOUS
 10
-1.1545227219
 20
-11.6173920484
 11
-1.1545227219
 21
-9.958703259
  0
LINE
  5
331
100
AcDbEntity
  8
RACCORDO
100
AcDbLine
 62
7
  6
CONTINUOUS
 10
-0.7176130236
 20
-14.1042446313
 11
-0.7176130236
 21
-16.1043588621
  0
LINE
  5
332
100
AcDbEntity
  8
RACCORDO
100
AcDbLine
 62
7
  6
CONTINUOUS
 10
-0.700159288
 20
-14.0867908957
 11
-0.700159288
 21
-16.1218125977
  0
LINE
  5
333
100
AcDbEntity
  8
RACCORDO
100
AcDbLine
 62
7
  6
CONTINUOUS
 10
0.0192966747
 20
19.7999855304
 11
0.0192966747
 21
14.2437744646
  0
LINE
  5
334
100
AcDbEntity
  8
RACCORDO
100
AcDbLine
 62
7
  6
CONTINUOUS
 10
0.0192966747
 20
-9.958703259
 11
0.0192966747
 21
-11.6173920484
  0
LINE
  5
335
100
AcDbEntity
  8
RACCORDO
100
AcDbLine
 62
7
  6
CONTINUOUS
 10
0.0323869764
 20
20.8043870427
 11
0.0323869764
 21
11.6456982533
  0
LINE
  5
336
100
AcDbEntity
  8
DRAFT
100
AcDbLine
 62
7
  6
CONTINUOUS
 10
0.0323869764
 20
6.5456982533
 11
0.0323869764
 21
4.0456982533
  0
LINE
  5
337
100
AcDbEntity
  8
DRAFT
100
AcDbLine
 62
7
  6
CONTINUOUS
 10
0.0323869764
 20
-8.9543017467
 11
0.0323869764
 21
-11.6043017467
  0
LINE
  5
338
100
AcDbEntity
  8
DRAFT
100
AcDbLine
 62
7
  6
CONTINUOUS
 10
0.0376234959
 20
6.5404617338
 11
0.0376234959
 21
4.0509347728
  0
LINE
  5
339
100
AcDbEntity
  8
DRAFT
100
AcDbLine
 62
7
  6
CONTINUOUS
 10
-1.1545227219
 20
14.2437744646
 11
-1.1676130236
 21
11.6456982533
  0
LINE
  5
33A
100
AcDbEntity
  8
GUSCI_ESTERNI
100
AcDbLine
 62
7
  6
CONTINUOUS
 10
6.2407202958
 20
6.2425067107
 11
6.1240536361
 21
6.1233577887
  0
LINE
  5
33B
100
AcDbEntity
  8
ASSI
100
AcDbLine
 62
7
  6
CONTINUOUS
 10
6.2407202958
 20
6.2425067107
 11
6.1240536361
 21
6.1233577887
  0
LINE
  5
33C
100
AcDbEntity
  8
0
100
AcDbLine
 62
7
  6
CONTINUOUS
 10
3.4823869764
 20
5.6212301294
 11
3.7523869764
 21
5.8893153111
  0
LINE
  5
33D
100
AcDbEntity
  8
0
100
AcDbLine
 62
7
  6
CONTINUOUS
 10
4.6523870193
 20
6.1956982533
 11
4.382386955
 21
5.9276131789
  0
LINE
  5
33E
100
AcDbEntity
  8
0
100
AcDbLine
 62
7
  6
CONTINUOUS
 10
4.382386955
 20
5.6212301294
 11
4.6523870193
 21
5.8893153111
  0
LINE
  5
33F
100
AcDbEntity
  8
GUSCI_ESTERNI
100
AcDbLine
 62
7
  6
CONTINUOUS
 10
9.7990535318
 20
6.0042088667
 11
9.915720421
 21
6.0637833277
  0
LINE
  5
340
100
AcDbEntity
  8
ASSI
100
AcDbLine
 62
7
  6
CONTINUOUS
 10
9.7990535318
 20
6.0042088667
 11
9.915720421
 21
6.0637833277
  0
LINE
  5
341
100
AcDbEntity
  8
RACCORDO
100
AcDbLine
 62
7
  6
CONTINUOUS
 10
0.7649332408
 20
-16.1218125977
 11
0.7649332408
 21
-14.0867908957
  0
LINE
  5
342
100
AcDbEntity
  8
RACCORDO
100
AcDbLine
 62
7
  6
CONTINUOUS
 10
0.7823869764
 20
-16.1043588621
 11
0.7823869764
 21
-14.1042446313
  0
LINE
  5
343
100
AcDbEntity
  8
RACCORDO
100
AcDbLine
 62
7
  6
CONTINUOUS
 10
1.2823869764
 20
-16.0735253403
 11
1.2823869764
 21
-14.1350781531
  0
LINE
  5
344
100
AcDbEntity
  8
RACCORDO
100
AcDbLine
 62
7
  6
CONTINUOUS
 10
1.2823869764
 20
14.2264746597
 11
1.2823869764
 21
16.1649218469
  0
LINE
  5
345
100
AcDbEntity
  8
GUSCI_ESTERNI
100
AcDbLine
 62
7
  6
CONTINUOUS
 10
6.1240536361
 20
5.8850599448
 11
6.2407202958
 21
6.0042088667
  0
LINE
  5
346
100
AcDbEntity
  8
ASSI
100
AcDbLine
 62
7
  6
CONTINUOUS
 10
6.1240536361
 20
5.8850599448
 11
6.2407202958
 21
6.0042088667
  0
LINE
  5
347
100
AcDbEntity
  8
GUSCI_ESTERNI
100
AcDbLine
 62
7
  6
CONTINUOUS
 10
7.1740536153
 20
6.2425067107
 11
6.9990536153
 21
6.0637833277
  0
LINE
  5
348
100
AcDbEntity
  8
ASSI
100
AcDbLine
 62
7
  6
CONTINUOUS
 10
7.1740536153
 20
6.2425067107
 11
6.9990536153
 21
6.0637833277
  0
LINE
  5
349
100
AcDbEntity
  8
GUSCI_ESTERNI
100
AcDbLine
 62
7
  6
CONTINUOUS
 10
7.1157203376
 20
5.9446344057
 11
7.1740536153
 21
6.0042088667
  0
LINE
  5
34A
100
AcDbEntity
  8
ASSI
100
AcDbLine
 62
7
  6
CONTINUOUS
 10
7.1157203376
 20
5.9446344057
 11
7.1740536153
 21
6.0042088667
  0
LINE
  5
34B
100
AcDbEntity
  8
GUSCI_ESTERNI
100
AcDbLine
 62
7
  6
CONTINUOUS
 10
8.865720421
 20
6.2425067107
 11
8.7490535318
 21
6.1233577887
  0
LINE
  5
34C
100
AcDbEntity
  8
ASSI
100
AcDbLine
 62
7
  6
CONTINUOUS
 10
8.865720421
 20
6.2425067107
 11
8.7490535318
 21
6.1233577887
  0
LINE
  5
34D
100
AcDbEntity
  8
DRAFT
100
AcDbLine
 62
7
  6
CONTINUOUS
 10
-1.4176130236
 20
-3.9543017467
 11
-1.4228495431
 21
-3.9595382662
  0
LINE
  5
34E
100
AcDbEntity
  8
GUSCI_ESTERNI
100
AcDbLine
 62
7
  6
CONTINUOUS
 10
5.4823869764
 20
1.1456982533
 11
6.0823869764
 21
1.1456982533
  0
LINE
  5
34F
100
AcDbEntity
  8
ASSI
100
AcDbLine
 62
7
  6
CONTINUOUS
 10
5.4823869764
 20
1.1456982533
 11
6.0823869764
 21
1.1456982533
  0
LINE
  5
350
100
AcDbEntity
  8
GUSCI_ESTERNI
100
AcDbLine
 62
7
  6
CONTINUOUS
 10
-5.4176130236
 20
1.1456982533
 11
-6.0176130236
 21
1.1456982533
  0
LINE
  5
351
100
AcDbEntity
  8
GUSCI_ESTERNI
100
AcDbLine
 62
7
  6
CONTINUOUS
 10
5.4823869764
 20
1.9456982533
 11
6.0823869764
 21
1.9456982533
  0
LINE
  5
352
100
AcDbEntity
  8
ASSI
100
AcDbLine
 62
7
  6
CONTINUOUS
 10
5.4823869764
 20
1.9456982533
 11
6.0823869764
 21
1.9456982533
  0
LINE
  5
353
100
AcDbEntity
  8
GUSCI_ESTERNI
100
AcDbLine
 62
7
  6
CONTINUOUS
 10
-5.4176130236
 20
1.9456982533
 11
-6.0176130236
 21
1.9456982533
  0
LINE
  5
354
100
AcDbEntity
  8
DRAFT
100
AcDbLine
 62
7
  6
CONTINUOUS
 10
-1.4176130236
 20
4.0456982533
 11
-1.4228495431
 21
4.0509347728
  0
LINE
  5
355
100
AcDbEntity
  8
0
100
AcDbLine
 62
7
  6
CONTINUOUS
 10
-2.2842797697
 20
6.3914429227
 11
-4.3676130236
 21
9.7956982533
  0
LINE
  5
356
100
AcDbEntity
  8
0
100
AcDbLine
 62
7
  6
CONTINUOUS
 10
-4.6176130236
 20
9.2850600163
 11
-2.5342797697
 21
5.7956982533
  0
LINE
  5
357
100
AcDbEntity
  8
RACCORDO
100
AcDbLine
 62
250
  6
CONTINUOUS
 10
2.2823869764
 20
-17.1043017467
 11
2.2823869764
 21
-16.8543017467
  0
LINE
  5
358
100
AcDbEntity
  8
RACCORDO
100
AcDbLine
 62
250
  6
CONTINUOUS
 10
2.2823869764
 20
-13.3543017467
 11
2.2823869764
 21
-13.1043017467
  0
LINE
  5
359
100
AcDbEntity
  8
RACCORDO
100
AcDbLine
 62
250
  6
CONTINUOUS
 10
2.2823869764
 20
13.1956982533
 11
2.2823869764
 21
13.4456982533
  0
LINE
  5
35A
100
AcDbEntity
  8
RACCORDO
100
AcDbLine
 62
250
  6
CONTINUOUS
 10
2.2823869764
 20
16.9456982533
 11
2.2823869764
 21
17.1956982533
  0
LINE
  5
35B
100
AcDbEntity
  8
RACCORDO
100
AcDbLine
 62
7
  6
CONTINUOUS
 10
3.0323869764
 20
-21.7130286145
 11
3.0323869764
 21
-22.3543017467
  0
LINE
  5
35C
100
AcDbEntity
  8
RACCORDO
100
AcDbLine
 62
7
  6
CONTINUOUS
 10
3.0323869764
 20
21.8044251211
 11
3.0323869764
 21
22.4456982533
  0
LINE
  5
35D
100
AcDbEntity
  8
0
100
AcDbLine
 62
7
  6
CONTINUOUS
 10
3.4823869764
 20
5.9276131789
 11
3.4823869764
 21
5.6212301294
  0
LINE
  5
35E
100
AcDbEntity
  8
ASSI
100
AcDbLine
 62
7
  6
CONTINUOUS
 10
3.5323869764
 20
-22.2969485097
 11
3.5323869764
 21
-23.705444037
  0
LINE
  5
35F
100
AcDbEntity
  8
ASSI
100
AcDbLine
 62
7
  6
CONTINUOUS
 10
3.5323869764
 20
-23.7069751757
 11
3.5323869764
 21
-23.7484839169
  0
LINE
  5
360
100
AcDbEntity
  8
ASSI
100
AcDbLine
 62
7
  6
CONTINUOUS
 10
3.5323869764
 20
23.7983716823
 11
3.5323869764
 21
23.8398804235
  0
LINE
  5
361
100
AcDbEntity
  8
ASSI
100
AcDbLine
 62
7
  6
CONTINUOUS
 10
3.5323869764
 20
22.3883450163
 11
3.5323869764
 21
23.7968405436
  0
LINE
  5
362
100
AcDbEntity
  8
RACCORDO
100
AcDbLine
 62
7
  6
CONTINUOUS
 10
3.5323869764
 20
22.3883450163
 11
3.5323869764
 21
23.7968405436
  0
LINE
  5
363
100
AcDbEntity
  8
0
100
AcDbLine
 62
7
  6
CONTINUOUS
 10
3.7523869764
 20
5.8893153111
 11
3.7523869764
 21
4.3956982533
  0
LINE
  5
364
100
AcDbEntity
  8
GUSCI_ESTERNI
100
AcDbLine
 62
7
  6
CONTINUOUS
 10
7.0573869764
 20
5.8254854838
 11
7.1157203376
 21
5.9446344057
  0
LINE
  5
365
100
AcDbEntity
  8
ASSI
100
AcDbLine
 62
7
  6
CONTINUOUS
 10
7.0573869764
 20
5.8254854838
 11
7.1157203376
 21
5.9446344057
  0
LINE
  5
366
100
AcDbEntity
  8
GUSCI_ESTERNI
100
AcDbLine
 62
7
  6
CONTINUOUS
 10
8.7490535318
 20
5.8850599448
 11
8.865720421
 21
6.0042088667
  0
LINE
  5
367
100
AcDbEntity
  8
ASSI
100
AcDbLine
 62
7
  6
CONTINUOUS
 10
8.7490535318
 20
5.8850599448
 11
8.865720421
 21
6.0042088667
  0
LINE
  5
368
100
AcDbEntity
  8
GUSCI_ESTERNI
100
AcDbLine
 62
7
  6
CONTINUOUS
 10
9.7990535318
 20
6.2425067107
 11
9.6240535318
 21
6.0637833277
  0
LINE
  5
369
100
AcDbEntity
  8
ASSI
100
AcDbLine
 62
7
  6
CONTINUOUS
 10
9.7990535318
 20
6.2425067107
 11
9.6240535318
 21
6.0637833277
  0
LINE
  5
36A
100
AcDbEntity
  8
GUSCI_ESTERNI
100
AcDbLine
 62
7
  6
CONTINUOUS
 10
9.740720421
 20
5.9446344057
 11
9.7990535318
 21
6.0042088667
  0
LINE
  5
36B
100
AcDbEntity
  8
ASSI
100
AcDbLine
 62
7
  6
CONTINUOUS
 10
9.740720421
 20
5.9446344057
 11
9.7990535318
 21
6.0042088667
  0
LINE
  5
36C
100
AcDbEntity
  8
0
100
AcDbLine
 62
7
  6
CONTINUOUS
 10
3.9823869764
 20
16.9456982533
 11
3.9823869764
 21
13.4456982533
  0
LINE
  5
36D
100
AcDbEntity
  8
0
100
AcDbLine
 62
7
  6
CONTINUOUS
 10
3.9823869764
 20
-16.8543017467
 11
3.9823869764
 21
-13.3543017467
  0
LINE
  5
36E
100
AcDbEntity
  8
0
100
AcDbLine
 62
7
  6
CONTINUOUS
 10
4.0223869764
 20
4.3956982533
 11
4.0223869764
 21
6.1956982533
  0
LINE
  5
36F
100
AcDbEntity
  8
0
100
AcDbLine
 62
7
  6
CONTINUOUS
 10
4.2888869764
 20
-13.3543017467
 11
4.2888869764
 21
-16.8543017467
  0
LINE
  5
370
100
AcDbEntity
  8
0
100
AcDbLine
 62
7
  6
CONTINUOUS
 10
4.2888869764
 20
13.4456982533
 11
4.2888869764
 21
16.9456982533
  0
LINE
  5
371
100
AcDbEntity
  8
0
100
AcDbLine
 62
7
  6
CONTINUOUS
 10
4.382386955
 20
5.9276131789
 11
4.382386955
 21
5.6212301294
  0
LINE
  5
372
100
AcDbEntity
  8
ASSI
100
AcDbLine
 62
250
  6
CONTINUOUS
 10
4.3883197092
 20
-22.2969267814
 11
4.3883197092
 21
-23.7050751714
  0
LINE
  5
373
100
AcDbEntity
  8
ASSI
100
AcDbLine
 62
250
  6
CONTINUOUS
 10
4.3883197092
 20
22.388323288
 11
4.3883197092
 21
23.796471678
  0
LINE
  5
374
100
AcDbEntity
  8
DRAFT
100
AcDbLine
 62
7
  6
CONTINUOUS
 10
4.4323869764
 20
-23.7543017467
 11
4.4323869764
 21
-22.3617828688
  0
LINE
  5
375
100
AcDbEntity
  8
DRAFT
100
AcDbLine
 62
7
  6
CONTINUOUS
 10
4.4323869764
 20
22.4531793754
 11
4.4323869764
 21
23.8456982533
  0
LINE
  5
376
100
AcDbEntity
  8
0
100
AcDbLine
 62
7
  6
CONTINUOUS
 10
4.6523870193
 20
5.8893153111
 11
4.6523870193
 21
4.3956982533
  0
LINE
  5
377
100
AcDbEntity
  8
0
100
AcDbLine
 62
7
  6
CONTINUOUS
 10
4.9223870193
 20
4.3956982533
 11
4.9223870193
 21
6.1956982533
  0
LINE
  5
378
100
AcDbEntity
  8
RACCORDO
100
AcDbLine
 62
7
  6
CONTINUOUS
 10
5.4823869764
 20
21.8044251211
 11
5.4823869764
 21
17.1956982533
  0
LINE
  5
379
100
AcDbEntity
  8
SMUSSO
100
AcDbLine
 62
7
  6
CONTINUOUS
 10
5.4823869764
 20
17.1956982533
 11
5.4823869764
 21
16.9456982533
  0
LINE
  5
37A
100
AcDbEntity
  8
SMUSSO
100
AcDbLine
 62
7
  6
CONTINUOUS
 10
5.4823869764
 20
13.4456982533
 11
5.4823869764
 21
6.5456982533
  0
LINE
  5
37B
100
AcDbEntity
  8
DRAFT
100
AcDbLine
 62
7
  6
CONTINUOUS
 10
5.4823869764
 20
6.5404617338
 11
5.4823869764
 21
4.0509347728
  0
LINE
  5
37C
100
AcDbEntity
  8
GUSCI_ESTERNI
100
AcDbLine
 62
7
  6
CONTINUOUS
 10
5.4823869764
 20
6.5404617338
 11
5.4823869764
 21
4.0509347728
  0
LINE
  5
37D
100
AcDbEntity
  8
DRAFT
100
AcDbLine
 62
7
  6
CONTINUOUS
 10
5.4823869764
 20
4.0456982533
 11
5.4823869764
 21
1.9456982533
  0
LINE
  5
37E
100
AcDbEntity
  8
DRAFT
100
AcDbLine
 62
7
  6
CONTINUOUS
 10
5.4823869764
 20
1.1456982533
 11
5.4823869764
 21
-11.5843017467
  0
LINE
  5
37F
100
AcDbEntity
  8
SMUSSO
100
AcDbLine
 62
7
  6
CONTINUOUS
 10
5.4823869764
 20
-12.6043017467
 11
5.4823869764
 21
-13.3543017467
  0
LINE
  5
380
100
AcDbEntity
  8
SMUSSO
100
AcDbLine
 62
7
  6
CONTINUOUS
 10
5.4823869764
 20
-16.8543017467
 11
5.4823869764
 21
-17.6043017467
  0
LINE
  5
381
100
AcDbEntity
  8
RACCORDO
100
AcDbLine
 62
7
  6
CONTINUOUS
 10
5.4823869764
 20
-18.6243017467
 11
5.4823869764
 21
-21.7129524592
  0
LINE
  5
382
100
AcDbEntity
  8
GUSCI_ESTERNI
100
AcDbLine
 62
7
  6
CONTINUOUS
 10
5.4823869764
 20
-20.5543398236
 11
5.4823869764
 21
-17.6293017467
  0
LINE
  5
383
100
AcDbEntity
  8
ASSI
100
AcDbLine
 62
7
  6
CONTINUOUS
 10
5.4823869764
 20
-20.7768139351
 11
5.4823869764
 21
-17.6293017467
  0
LINE
  5
384
100
AcDbEntity
  8
DRAFT
100
AcDbLine
 62
7
  6
CONTINUOUS
 10
5.4823869764
 20
-18.5868480111
 11
5.4823869764
 21
-17.6043017467
  0
LINE
  5
385
100
AcDbEntity
  8
GUSCI_ESTERNI
100
AcDbLine
 62
7
  6
CONTINUOUS
 10
5.4823869764
 20
-17.6043017467
 11
5.4823869764
 21
-16.8543017467
  0
LINE
  5
386
100
AcDbEntity
  8
ASSI
100
AcDbLine
 62
7
  6
CONTINUOUS
 10
5.4823869764
 20
-17.6043017467
 11
5.4823869764
 21
-16.8543017467
  0
LINE
  5
387
100
AcDbEntity
  8
GUSCI_ESTERNI
100
AcDbLine
 62
7
  6
CONTINUOUS
 10
5.4823869764
 20
-13.3543017467
 11
5.4823869764
 21
-12.6043017467
  0
LINE
  5
388
100
AcDbEntity
  8
ASSI
100
AcDbLine
 62
7
  6
CONTINUOUS
 10
5.4823869764
 20
-13.3543017467
 11
5.4823869764
 21
-12.6043017467
  0
LINE
  5
389
100
AcDbEntity
  8
DRAFT
100
AcDbLine
 62
7
  6
CONTINUOUS
 10
5.4823869764
 20
-12.6043017467
 11
5.4823869764
 21
-11.6217554823
  0
LINE
  5
38A
100
AcDbEntity
  8
GUSCI_ESTERNI
100
AcDbLine
 62
7
  6
CONTINUOUS
 10
5.4823869764
 20
-12.5793017467
 11
5.4823869764
 21
1.1456982533
  0
LINE
  5
38B
100
AcDbEntity
  8
ASSI
100
AcDbLine
 62
7
  6
CONTINUOUS
 10
5.4823869764
 20
-12.5793017467
 11
5.4823869764
 21
1.1456982533
  0
LINE
  5
38C
100
AcDbEntity
  8
GUSCI_ESTERNI
100
AcDbLine
 62
7
  6
CONTINUOUS
 10
5.4823869764
 20
1.9456982533
 11
5.4823869764
 21
4.0456982533
  0
LINE
  5
38D
100
AcDbEntity
  8
GUSCI_ESTERNI
100
AcDbLine
 62
7
  6
CONTINUOUS
 10
5.4823869764
 20
6.5456982533
 11
5.4823869764
 21
13.4456982533
  0
LINE
  5
38E
100
AcDbEntity
  8
ASSI
100
AcDbLine
 62
7
  6
CONTINUOUS
 10
5.4823869764
 20
1.9456982533
 11
5.4823869764
 21
13.4456982533
  0
LINE
  5
38F
100
AcDbEntity
  8
GUSCI_ESTERNI
100
AcDbLine
 62
7
  6
CONTINUOUS
 10
5.4823869764
 20
16.9456982533
 11
5.4823869764
 21
20.6457363302
  0
LINE
  5
390
100
AcDbEntity
  8
ASSI
100
AcDbLine
 62
7
  6
CONTINUOUS
 10
5.4823869764
 20
16.9456982533
 11
5.4823869764
 21
20.868224874
  0
LINE
  5
391
100
AcDbEntity
  8
DRAFT
100
AcDbLine
 62
7
  6
CONTINUOUS
 10
-5.4176130236
 20
4.0456982533
 11
-1.4176130236
 21
4.0456982533
  0
LINE
  5
392
100
AcDbEntity
  8
DRAFT
100
AcDbLine
 62
7
  6
CONTINUOUS
 10
5.4823869764
 20
4.0456982533
 11
0.0323869764
 21
4.0456982533
  0
LINE
  5
393
100
AcDbEntity
  8
DRAFT
100
AcDbLine
 62
7
  6
CONTINUOUS
 10
-5.4176130236
 20
4.0509347728
 11
-1.4228495431
 21
4.0509347728
  0
LINE
  5
394
100
AcDbEntity
  8
DRAFT
100
AcDbLine
 62
7
  6
CONTINUOUS
 10
0.0376234959
 20
4.0509347728
 11
5.4823869764
 21
4.0509347728
  0
LINE
  5
395
100
AcDbEntity
  8
RACCORDO
100
AcDbLine
 62
7
  6
CONTINUOUS
 10
10.9823869764
 20
4.1934330254
 11
11.0811475998
 21
4.1934330254
  0
LINE
  5
396
100
AcDbEntity
  8
RACCORDO
100
AcDbLine
 62
7
  6
CONTINUOUS
 10
-10.9176130236
 20
4.1934330254
 11
-11.016373647
 21
4.1934330254
  0
LINE
  5
397
100
AcDbEntity
  8
0
100
AcDbLine
 62
7
  6
CONTINUOUS
 10
3.7523869764
 20
4.3956982533
 11
4.0223869764
 21
4.3956982533
  0
LINE
  5
398
100
AcDbEntity
  8
0
100
AcDbLine
 62
7
  6
CONTINUOUS
 10
4.6523870193
 20
4.3956982533
 11
4.9223870193
 21
4.3956982533
  0
LINE
  5
399
100
AcDbEntity
  8
GUSCI_ESTERNI
100
AcDbLine
 62
7
  6
CONTINUOUS
 10
5.8323869764
 20
4.3956982533
 11
6.1240536361
 21
4.3956982533
  0
LINE
  5
39A
100
AcDbEntity
  8
ASSI
100
AcDbLine
 62
7
  6
CONTINUOUS
 10
5.8323869764
 20
4.3956982533
 11
6.1240536361
 21
4.3956982533
  0
LINE
  5
39B
100
AcDbEntity
  8
GUSCI_ESTERNI
100
AcDbLine
 62
7
  6
CONTINUOUS
 10
6.7657203376
 20
4.3956982533
 11
7.0573869764
 21
4.3956982533
  0
LINE
  5
39C
100
AcDbEntity
  8
ASSI
100
AcDbLine
 62
7
  6
CONTINUOUS
 10
6.7657203376
 20
4.3956982533
 11
7.0573869764
 21
4.3956982533
  0
LINE
  5
39D
100
AcDbEntity
  8
GUSCI_ESTERNI
100
AcDbLine
 62
7
  6
CONTINUOUS
 10
7.6990536987
 20
4.3956982533
 11
7.9907202541
 21
4.3956982533
  0
LINE
  5
39E
100
AcDbEntity
  8
ASSI
100
AcDbLine
 62
7
  6
CONTINUOUS
 10
7.6990536987
 20
4.3956982533
 11
7.9907202541
 21
4.3956982533
  0
LINE
  5
39F
100
AcDbEntity
  8
GUSCI_ESTERNI
100
AcDbLine
 62
7
  6
CONTINUOUS
 10
8.4573869764
 20
4.3956982533
 11
8.7490535318
 21
4.3956982533
  0
LINE
  5
3A0
100
AcDbEntity
  8
ASSI
100
AcDbLine
 62
7
  6
CONTINUOUS
 10
8.4573869764
 20
4.3956982533
 11
8.7490535318
 21
4.3956982533
  0
LINE
  5
3A1
100
AcDbEntity
  8
GUSCI_ESTERNI
100
AcDbLine
 62
7
  6
CONTINUOUS
 10
9.390720421
 20
4.3956982533
 11
9.6823869764
 21
4.3956982533
  0
LINE
  5
3A2
100
AcDbEntity
  8
ASSI
100
AcDbLine
 62
7
  6
CONTINUOUS
 10
9.390720421
 20
4.3956982533
 11
9.6823869764
 21
4.3956982533
  0
LINE
  5
3A3
100
AcDbEntity
  8
GUSCI_ESTERNI
100
AcDbLine
 62
7
  6
CONTINUOUS
 10
10.3240535318
 20
4.3956982533
 11
10.615720421
 21
4.3956982533
  0
LINE
  5
3A4
100
AcDbEntity
  8
ASSI
100
AcDbLine
 62
7
  6
CONTINUOUS
 10
10.3240535318
 20
4.3956982533
 11
10.615720421
 21
4.3956982533
  0
LINE
  5
3A5
100
AcDbEntity
  8
GUSCI_ESTERNI
100
AcDbLine
 62
7
  6
CONTINUOUS
 10
10.8823869764
 20
3.9985731672
 11
5.4823869764
 21
4.0456982533
  0
LINE
  5
3A6
100
AcDbEntity
  8
ASSI
100
AcDbLine
 62
7
  6
CONTINUOUS
 10
10.8823869764
 20
3.9985731672
 11
5.4823869764
 21
4.0456982533
  0
LINE
  5
3A7
100
AcDbEntity
  8
DRAFT
100
AcDbLine
 62
7
  6
CONTINUOUS
 10
0.0323869764
 20
6.5456982533
 11
0.0376234959
 21
6.5404617338
  0
LINE
  5
3A8
100
AcDbEntity
  8
GUSCI_ESTERNI
100
AcDbLine
 62
7
  6
CONTINUOUS
 10
5.8323869764
 20
6.3020811716
 11
5.8323869764
 21
4.3956982533
  0
LINE
  5
3A9
100
AcDbEntity
  8
ASSI
100
AcDbLine
 62
7
  6
CONTINUOUS
 10
5.8323869764
 20
6.3020811716
 11
5.8323869764
 21
4.3956982533
  0
LINE
  5
3AA
100
AcDbEntity
  8
GUSCI_ESTERNI
100
AcDbLine
 62
7
  6
CONTINUOUS
 10
6.1240536361
 20
4.3956982533
 11
6.1240536361
 21
5.8850599448
  0
LINE
  5
3AB
100
AcDbEntity
  8
ASSI
100
AcDbLine
 62
7
  6
CONTINUOUS
 10
6.1240536361
 20
4.3956982533
 11
6.1240536361
 21
5.8850599448
  0
LINE
  5
3AC
100
AcDbEntity
  8
GUSCI_ESTERNI
100
AcDbLine
 62
7
  6
CONTINUOUS
 10
6.1240536361
 20
6.1233577887
 11
6.1240536361
 21
6.3020811716
  0
LINE
  5
3AD
100
AcDbEntity
  8
ASSI
100
AcDbLine
 62
7
  6
CONTINUOUS
 10
6.1240536361
 20
6.1233577887
 11
6.1240536361
 21
6.3020811716
  0
LINE
  5
3AE
100
AcDbEntity
  8
0
100
AcDbLine
 62
7
  6
CONTINUOUS
 10
6.6758869764
 20
-13.3543017467
 11
6.6758869764
 21
-16.8543017467
  0
LINE
  5
3AF
100
AcDbEntity
  8
0
100
AcDbLine
 62
7
  6
CONTINUOUS
 10
6.6758869764
 20
13.4456982533
 11
6.6758869764
 21
16.9456982533
  0
LINE
  5
3B0
100
AcDbEntity
  8
GUSCI_ESTERNI
100
AcDbLine
 62
7
  6
CONTINUOUS
 10
6.7657203376
 20
5.8254854838
 11
6.7657203376
 21
4.3956982533
  0
LINE
  5
3B1
100
AcDbEntity
  8
ASSI
100
AcDbLine
 62
7
  6
CONTINUOUS
 10
6.7657203376
 20
5.8254854838
 11
6.7657203376
 21
4.3956982533
  0
LINE
  5
3B2
100
AcDbEntity
  8
0
100
AcDbLine
 62
7
  6
CONTINUOUS
 10
6.9823869764
 20
16.9456982533
 11
6.9823869764
 21
13.4456982533
  0
LINE
  5
3B3
100
AcDbEntity
  8
0
100
AcDbLine
 62
7
  6
CONTINUOUS
 10
6.9823869764
 20
-16.8543017467
 11
6.9823869764
 21
-13.3543017467
  0
LINE
  5
3B4
100
AcDbEntity
  8
GUSCI_ESTERNI
100
AcDbLine
 62
7
  6
CONTINUOUS
 10
7.0573869764
 20
4.3956982533
 11
7.0573869764
 21
5.8254854838
  0
LINE
  5
3B5
100
AcDbEntity
  8
ASSI
100
AcDbLine
 62
7
  6
CONTINUOUS
 10
7.0573869764
 20
4.3956982533
 11
7.0573869764
 21
5.8254854838
  0
LINE
  5
3B6
100
AcDbEntity
  8
GUSCI_ESTERNI
100
AcDbLine
 62
7
  6
CONTINUOUS
 10
9.6823869764
 20
5.8254854838
 11
9.740720421
 21
5.9446344057
  0
LINE
  5
3B7
100
AcDbEntity
  8
ASSI
100
AcDbLine
 62
7
  6
CONTINUOUS
 10
9.6823869764
 20
5.8254854838
 11
9.740720421
 21
5.9446344057
  0
LINE
  5
3B8
100
AcDbEntity
  8
0
100
AcDbLine
 62
7
  6
CONTINUOUS
 10
-5.4176130236
 20
-13.6543017467
 11
-5.1176130236
 21
-13.3543017467
  0
LINE
  5
3B9
100
AcDbEntity
  8
RACCORDO
100
AcDbLine
 62
7
  6
CONTINUOUS
 10
0.0323869764
 20
-8.9543017467
 11
0.0279473872
 21
-8.9587413359
  0
LINE
  5
3BA
100
AcDbEntity
  8
RACCORDO
100
AcDbLine
 62
250
  6
CONTINUOUS
 10
-2.2175559082
 20
-12.6043017467
 11
-2.2001021726
 21
-12.5868480111
  0
LINE
  5
3BB
100
AcDbEntity
  8
GUSCI_ESTERNI
100
AcDbLine
 62
7
  6
CONTINUOUS
 10
10.8823869764
 20
6.5928233394
 11
5.4823869764
 21
6.5456982533
  0
LINE
  5
3BC
100
AcDbEntity
  8
ASSI
100
AcDbLine
 62
7
  6
CONTINUOUS
 10
10.8823869764
 20
6.5928233394
 11
5.4823869764
 21
6.5456982533
  0
LINE
  5
3BD
100
AcDbEntity
  8
0
100
AcDbLine
 62
7
  6
CONTINUOUS
 10
-5.1176130236
 20
5.7956982533
 11
-4.6176130236
 21
5.7956982533
  0
LINE
  5
3BE
100
AcDbEntity
  8
0
100
AcDbLine
 62
7
  6
CONTINUOUS
 10
-2.5342797697
 20
5.7956982533
 11
-1.7842797697
 21
5.7956982533
  0
LINE
  5
3BF
100
AcDbEntity
  8
GUSCI_ESTERNI
100
AcDbLine
 62
7
  6
CONTINUOUS
 10
6.4157202958
 20
6.0637833277
 11
6.5323869764
 21
6.0637833277
  0
LINE
  5
3C0
100
AcDbEntity
  8
ASSI
100
AcDbLine
 62
7
  6
CONTINUOUS
 10
6.4157202958
 20
6.0637833277
 11
6.5323869764
 21
6.0637833277
  0
LINE
  5
3C1
100
AcDbEntity
  8
GUSCI_ESTERNI
100
AcDbLine
 62
7
  6
CONTINUOUS
 10
7.2907202541
 20
6.0637833277
 11
7.4657202541
 21
6.0637833277
  0
LINE
  5
3C2
100
AcDbEntity
  8
ASSI
100
AcDbLine
 62
7
  6
CONTINUOUS
 10
7.2907202541
 20
6.0637833277
 11
7.4657202541
 21
6.0637833277
  0
LINE
  5
3C3
100
AcDbEntity
  8
GUSCI_ESTERNI
100
AcDbLine
 62
7
  6
CONTINUOUS
 10
9.040720421
 20
6.0637833277
 11
9.1573869764
 21
6.0637833277
  0
LINE
  5
3C4
100
AcDbEntity
  8
ASSI
100
AcDbLine
 62
7
  6
CONTINUOUS
 10
9.040720421
 20
6.0637833277
 11
9.1573869764
 21
6.0637833277
  0
LINE
  5
3C5
100
AcDbEntity
  8
GUSCI_ESTERNI
100
AcDbLine
 62
7
  6
CONTINUOUS
 10
9.915720421
 20
6.0637833277
 11
10.090720421
 21
6.0637833277
  0
LINE
  5
3C6
100
AcDbEntity
  8
ASSI
100
AcDbLine
 62
7
  6
CONTINUOUS
 10
9.915720421
 20
6.0637833277
 11
10.090720421
 21
6.0637833277
  0
LINE
  5
3C7
100
AcDbEntity
  8
0
100
AcDbLine
 62
7
  6
CONTINUOUS
 10
4.9223870193
 20
6.1956982533
 11
4.6523870193
 21
6.1956982533
  0
LINE
  5
3C8
100
AcDbEntity
  8
0
100
AcDbLine
 62
7
  6
CONTINUOUS
 10
4.0223869764
 20
6.1956982533
 11
3.7523869764
 21
6.1956982533
  0
LINE
  5
3C9
100
AcDbEntity
  8
GUSCI_ESTERNI
100
AcDbLine
 62
7
  6
CONTINUOUS
 10
10.2073869764
 20
6.3020811716
 11
9.9740535318
 21
6.3020811716
  0
LINE
  5
3CA
100
AcDbEntity
  8
ASSI
100
AcDbLine
 62
7
  6
CONTINUOUS
 10
10.2073869764
 20
6.3020811716
 11
9.9740535318
 21
6.3020811716
  0
LINE
  5
3CB
100
AcDbEntity
  8
GUSCI_ESTERNI
100
AcDbLine
 62
7
  6
CONTINUOUS
 10
9.2740535318
 20
6.3020811716
 11
9.040720421
 21
6.3020811716
  0
LINE
  5
3CC
100
AcDbEntity
  8
ASSI
100
AcDbLine
 62
7
  6
CONTINUOUS
 10
9.2740535318
 20
6.3020811716
 11
9.040720421
 21
6.3020811716
  0
LINE
  5
3CD
100
AcDbEntity
  8
GUSCI_ESTERNI
100
AcDbLine
 62
7
  6
CONTINUOUS
 10
8.7490535318
 20
6.3020811716
 11
8.4573869764
 21
6.3020811716
  0
LINE
  5
3CE
100
AcDbEntity
  8
ASSI
100
AcDbLine
 62
7
  6
CONTINUOUS
 10
8.7490535318
 20
6.3020811716
 11
8.4573869764
 21
6.3020811716
  0
LINE
  5
3CF
100
AcDbEntity
  8
GUSCI_ESTERNI
100
AcDbLine
 62
7
  6
CONTINUOUS
 10
7.5823869764
 20
6.3020811716
 11
7.3490536987
 21
6.3020811716
  0
LINE
  5
3D0
100
AcDbEntity
  8
ASSI
100
AcDbLine
 62
7
  6
CONTINUOUS
 10
7.5823869764
 20
6.3020811716
 11
7.3490536987
 21
6.3020811716
  0
LINE
  5
3D1
100
AcDbEntity
  8
GUSCI_ESTERNI
100
AcDbLine
 62
7
  6
CONTINUOUS
 10
6.6490536153
 20
6.3020811716
 11
6.4157202958
 21
6.3020811716
  0
LINE
  5
3D2
100
AcDbEntity
  8
ASSI
100
AcDbLine
 62
7
  6
CONTINUOUS
 10
6.6490536153
 20
6.3020811716
 11
6.4157202958
 21
6.3020811716
  0
LINE
  5
3D3
100
AcDbEntity
  8
GUSCI_ESTERNI
100
AcDbLine
 62
7
  6
CONTINUOUS
 10
6.1240536361
 20
6.3020811716
 11
5.8323869764
 21
6.3020811716
  0
LINE
  5
3D4
100
AcDbEntity
  8
ASSI
100
AcDbLine
 62
7
  6
CONTINUOUS
 10
6.1240536361
 20
6.3020811716
 11
5.8323869764
 21
6.3020811716
  0
LINE
  5
3D5
100
AcDbEntity
  8
DRAFT
100
AcDbLine
 62
7
  6
CONTINUOUS
 10
5.4823869764
 20
6.5404617338
 11
0.0376234959
 21
6.5404617338
  0
LINE
  5
3D6
100
AcDbEntity
  8
DRAFT
100
AcDbLine
 62
7
  6
CONTINUOUS
 10
5.4823869764
 20
6.5456982533
 11
0.0323869764
 21
6.5456982533
  0
LINE
  5
3D7
100
AcDbEntity
  8
0
100
AcDbLine
 62
7
  6
CONTINUOUS
 10
-4.6676130236
 20
13.4456982533
 11
-5.0176130236
 21
13.7956982533
  0
LINE
  5
3D8
100
AcDbEntity
  8
RACCORDO
100
AcDbLine
 62
250
  6
CONTINUOUS
 10
8.2867588104
 20
-23.798639314
 11
8.2823869764
 21
-23.3647868949
  0
LINE
  5
3D9
100
AcDbEntity
  8
RACCORDO
100
AcDbLine
 62
250
  6
CONTINUOUS
 10
8.5374818084
 20
-23.6543017467
 11
8.5316639785
 21
-23.0769514775
  0
LINE
  5
3DA
100
AcDbEntity
  8
GUSCI_ESTERNI
100
AcDbLine
 62
7
  6
CONTINUOUS
 10
7.6990536987
 20
5.8254854838
 11
7.6990536987
 21
4.3956982533
  0
LINE
  5
3DB
100
AcDbEntity
  8
ASSI
100
AcDbLine
 62
7
  6
CONTINUOUS
 10
7.6990536987
 20
5.8254854838
 11
7.6990536987
 21
4.3956982533
  0
LINE
  5
3DC
100
AcDbEntity
  8
GUSCI_ESTERNI
100
AcDbLine
 62
7
  6
CONTINUOUS
 10
7.9907202541
 20
4.3956982533
 11
7.9907202541
 21
5.8254854838
  0
LINE
  5
3DD
100
AcDbEntity
  8
ASSI
100
AcDbLine
 62
7
  6
CONTINUOUS
 10
7.9907202541
 20
4.3956982533
 11
7.9907202541
 21
5.8254854838
  0
LINE
  5
3DE
100
AcDbEntity
  8
RACCORDO
100
AcDbLine
 62
7
  6
CONTINUOUS
 10
8.2823869764
 20
-22.554515237
 11
8.2823869764
 21
-24.2043059775
  0
LINE
  5
3DF
100
AcDbEntity
  8
RACCORDO
100
AcDbLine
 62
7
  6
CONTINUOUS
 10
8.2823869764
 20
22.6459117436
 11
8.2823869764
 21
24.2957024841
  0
LINE
  5
3E0
100
AcDbEntity
  8
RACCORDO
100
AcDbLine
 62
250
  6
CONTINUOUS
 10
8.2867588104
 20
24.2913306501
 11
8.2867588104
 21
23.8900358206
  0
LINE
  5
3E1
100
AcDbEntity
  8
RACCORDO
100
AcDbLine
 62
250
  6
CONTINUOUS
 10
8.2867588104
 20
-23.798639314
 11
8.2867588104
 21
-24.1999341435
  0
LINE
  5
3E2
100
AcDbEntity
  8
GUSCI_ESTERNI
100
AcDbLine
 62
7
  6
CONTINUOUS
 10
8.4573869764
 20
6.3020811716
 11
8.4573869764
 21
4.3956982533
  0
LINE
  5
3E3
100
AcDbEntity
  8
ASSI
100
AcDbLine
 62
7
  6
CONTINUOUS
 10
8.4573869764
 20
6.3020811716
 11
8.4573869764
 21
4.3956982533
  0
LINE
  5
3E4
100
AcDbEntity
  8
RACCORDO
100
AcDbLine
 62
250
  6
CONTINUOUS
 10
8.5367545796
 20
-23.6543017467
 11
8.5367545796
 21
-24.4499299127
  0
LINE
  5
3E5
100
AcDbEntity
  8
RACCORDO
100
AcDbLine
 62
250
  6
CONTINUOUS
 10
8.5367545796
 20
23.6735294696
 11
8.5367545796
 21
24.5413264193
  0
LINE
  5
3E6
100
AcDbEntity
  8
GUSCI_ESTERNI
100
AcDbLine
 62
250
  6
CONTINUOUS
 10
8.6323869764
 20
17.1888258449
 11
8.6323869764
 21
16.9456982533
  0
LINE
  5
3E7
100
AcDbEntity
  8
ASSI
100
AcDbLine
 62
250
  6
CONTINUOUS
 10
8.6323869764
 20
17.1888258449
 11
8.6323869764
 21
16.9456982533
  0
LINE
  5
3E8
100
AcDbEntity
  8
GUSCI_ESTERNI
100
AcDbLine
 62
250
  6
CONTINUOUS
 10
8.6323869764
 20
-13.1111741551
 11
8.6323869764
 21
-13.3543017467
  0
LINE
  5
3E9
100
AcDbEntity
  8
ASSI
100
AcDbLine
 62
250
  6
CONTINUOUS
 10
8.6323869764
 20
-13.1111741551
 11
8.6323869764
 21
-13.3543017467
  0
LINE
  5
3EA
100
AcDbEntity
  8
GUSCI_ESTERNI
100
AcDbLine
 62
250
  6
CONTINUOUS
 10
8.6323869764
 20
-17.0974293383
 11
8.6323869764
 21
-16.8543017467
  0
LINE
  5
3EB
100
AcDbEntity
  8
ASSI
100
AcDbLine
 62
250
  6
CONTINUOUS
 10
8.6323869764
 20
-17.0974293383
 11
8.6323869764
 21
-16.8543017467
  0
LINE
  5
3EC
100
AcDbEntity
  8
GUSCI_ESTERNI
100
AcDbLine
 62
250
  6
CONTINUOUS
 10
8.6323869764
 20
13.2025706617
 11
8.6323869764
 21
13.4456982533
  0
LINE
  5
3ED
100
AcDbEntity
  8
ASSI
100
AcDbLine
 62
250
  6
CONTINUOUS
 10
8.6323869764
 20
13.2025706617
 11
8.6323869764
 21
13.4456982533
  0
LINE
  5
3EE
100
AcDbEntity
  8
GUSCI_ESTERNI
100
AcDbLine
 62
7
  6
CONTINUOUS
 10
8.7490535318
 20
4.3956982533
 11
8.7490535318
 21
5.8850599448
  0
LINE
  5
3EF
100
AcDbEntity
  8
ASSI
100
AcDbLine
 62
7
  6
CONTINUOUS
 10
8.7490535318
 20
4.3956982533
 11
8.7490535318
 21
5.8850599448
  0
LINE
  5
3F0
100
AcDbEntity
  8
GUSCI_ESTERNI
100
AcDbLine
 62
7
  6
CONTINUOUS
 10
8.7490535318
 20
6.1233577887
 11
8.7490535318
 21
6.3020811716
  0
LINE
  5
3F1
100
AcDbEntity
  8
ASSI
100
AcDbLine
 62
7
  6
CONTINUOUS
 10
8.7490535318
 20
6.1233577887
 11
8.7490535318
 21
6.3020811716
  0
LINE
  5
3F2
100
AcDbEntity
  8
RACCORDO
100
AcDbLine
 62
250
  6
CONTINUOUS
 10
8.2823869764
 20
23.4561834015
 11
8.2867588104
 21
23.8900358206
  0
LINE
  5
3F3
100
AcDbEntity
  8
RACCORDO
100
AcDbLine
 62
250
  6
CONTINUOUS
 10
8.5316639785
 20
23.1683479841
 11
8.5367545796
 21
23.6735294696
  0
LINE
  5
3F4
100
AcDbEntity
  8
DRAFT
100
AcDbLine
 62
7
  6
CONTINUOUS
 10
-4.3667825382
 20
-22.3617828688
 11
-4.3235457563
 21
-22.2969267814
  0
LINE
  5
3F5
100
AcDbEntity
  8
DRAFT
100
AcDbLine
 62
7
  6
CONTINUOUS
 10
0.0323869764
 20
-11.6043017467
 11
0.0192966747
 21
-11.6173920484
  0
LINE
  5
3F6
100
AcDbEntity
  8
GUSCI_ESTERNI
100
AcDbLine
 62
7
  6
CONTINUOUS
 10
10.8823869764
 20
8.9640752099
 11
9.6823869764
 21
8.982213664
  0
LINE
  5
3F7
100
AcDbEntity
  8
ASSI
100
AcDbLine
 62
7
  6
CONTINUOUS
 10
10.8823869764
 20
8.9640752099
 11
9.6823869764
 21
8.982213664
  0
LINE
  5
3F8
100
AcDbEntity
  8
GUSCI_ESTERNI
100
AcDbLine
 62
7
  6
CONTINUOUS
 10
6.8240536153
 20
6.2425067107
 11
6.6490536153
 21
6.3020811716
  0
LINE
  5
3F9
100
AcDbEntity
  8
ASSI
100
AcDbLine
 62
7
  6
CONTINUOUS
 10
6.8240536153
 20
6.2425067107
 11
6.6490536153
 21
6.3020811716
  0
LINE
  5
3FA
100
AcDbEntity
  8
GUSCI_ESTERNI
100
AcDbLine
 62
7
  6
CONTINUOUS
 10
7.7573869764
 20
6.2425067107
 11
7.5823869764
 21
6.3020811716
  0
LINE
  5
3FB
100
AcDbEntity
  8
ASSI
100
AcDbLine
 62
7
  6
CONTINUOUS
 10
7.7573869764
 20
6.2425067107
 11
7.5823869764
 21
6.3020811716
  0
LINE
  5
3FC
100
AcDbEntity
  8
GUSCI_ESTERNI
100
AcDbLine
 62
7
  6
CONTINUOUS
 10
9.4490535318
 20
6.2425067107
 11
9.2740535318
 21
6.3020811716
  0
LINE
  5
3FD
100
AcDbEntity
  8
ASSI
100
AcDbLine
 62
7
  6
CONTINUOUS
 10
9.4490535318
 20
6.2425067107
 11
9.2740535318
 21
6.3020811716
  0
LINE
  5
3FE
100
AcDbEntity
  8
GUSCI_ESTERNI
100
AcDbLine
 62
7
  6
CONTINUOUS
 10
10.3823869764
 20
6.2425067107
 11
10.2073869764
 21
6.3020811716
  0
LINE
  5
3FF
100
AcDbEntity
  8
ASSI
100
AcDbLine
 62
7
  6
CONTINUOUS
 10
10.3823869764
 20
6.2425067107
 11
10.2073869764
 21
6.3020811716
  0
LINE
  5
400
100
AcDbEntity
  8
GUSCI_ESTERNI
100
AcDbLine
 62
7
  6
CONTINUOUS
 10
6.5323869764
 20
6.0637833277
 11
6.6490536153
 21
6.0042088667
  0
LINE
  5
401
100
AcDbEntity
  8
ASSI
100
AcDbLine
 62
7
  6
CONTINUOUS
 10
6.5323869764
 20
6.0637833277
 11
6.6490536153
 21
6.0042088667
  0
LINE
  5
402
100
AcDbEntity
  8
GUSCI_ESTERNI
100
AcDbLine
 62
7
  6
CONTINUOUS
 10
7.4657202541
 20
6.0637833277
 11
7.5823869764
 21
6.0042088667
  0
LINE
  5
403
100
AcDbEntity
  8
ASSI
100
AcDbLine
 62
7
  6
CONTINUOUS
 10
7.4657202541
 20
6.0637833277
 11
7.5823869764
 21
6.0042088667
  0
LINE
  5
404
100
AcDbEntity
  8
GUSCI_ESTERNI
100
AcDbLine
 62
7
  6
CONTINUOUS
 10
6.6490536153
 20
6.0042088667
 11
6.7073869764
 21
5.9446344057
  0
LINE
  5
405
100
AcDbEntity
  8
ASSI
100
AcDbLine
 62
7
  6
CONTINUOUS
 10
6.6490536153
 20
6.0042088667
 11
6.7073869764
 21
5.9446344057
  0
LINE
  5
406
100
AcDbEntity
  8
GUSCI_ESTERNI
100
AcDbLine
 62
7
  6
CONTINUOUS
 10
6.9990536153
 20
6.0637833277
 11
6.8240536153
 21
6.2425067107
  0
LINE
  5
407
100
AcDbEntity
  8
ASSI
100
AcDbLine
 62
7
  6
CONTINUOUS
 10
6.9990536153
 20
6.0637833277
 11
6.8240536153
 21
6.2425067107
  0
LINE
  5
408
100
AcDbEntity
  8
DRAFT
100
AcDbLine
 62
7
  6
CONTINUOUS
 10
-4.3667825382
 20
22.4531793754
 11
-4.3235457563
 21
22.388323288
  0
LINE
  5
409
100
AcDbEntity
  8
GUSCI_ESTERNI
100
AcDbLine
 62
7
  6
CONTINUOUS
 10
6.7073869764
 20
5.9446344057
 11
6.7657203376
 21
5.8254854838
  0
LINE
  5
40A
100
AcDbEntity
  8
ASSI
100
AcDbLine
 62
7
  6
CONTINUOUS
 10
6.7073869764
 20
5.9446344057
 11
6.7657203376
 21
5.8254854838
  0
LINE
  5
40B
100
AcDbEntity
  8
DRAFT
100
AcDbLine
 62
7
  6
CONTINUOUS
 10
11.2050785608
 20
-11.4543017467
 11
11.0811475998
 21
-4.1020365188
  0
LINE
  5
40C
100
AcDbEntity
  8
RACCORDO
100
AcDbLine
 62
250
  6
CONTINUOUS
 10
10.4280193732
 20
23.6735294696
 11
10.4331099743
 21
23.1683479841
  0
LINE
  5
40D
100
AcDbEntity
  8
RACCORDO
100
AcDbLine
 62
250
  6
CONTINUOUS
 10
10.6780151424
 20
23.8900358206
 11
10.6823869764
 21
23.4561834015
  0
LINE
  5
40E
100
AcDbEntity
  8
GUSCI_ESTERNI
100
AcDbLine
 62
7
  6
CONTINUOUS
 10
9.390720421
 20
5.8254854838
 11
9.390720421
 21
4.3956982533
  0
LINE
  5
40F
100
AcDbEntity
  8
ASSI
100
AcDbLine
 62
7
  6
CONTINUOUS
 10
9.390720421
 20
5.8254854838
 11
9.390720421
 21
4.3956982533
  0
LINE
  5
410
100
AcDbEntity
  8
GUSCI_ESTERNI
100
AcDbLine
 62
7
  6
CONTINUOUS
 10
9.6233525616
 20
-14.1043017467
 11
9.6233525616
 21
-14.220185346
  0
LINE
  5
411
100
AcDbEntity
  8
ASSI
100
AcDbLine
 62
7
  6
CONTINUOUS
 10
9.6233525616
 20
-14.1043017467
 11
9.6233525616
 21
-14.220185346
  0
LINE
  5
412
100
AcDbEntity
  8
GUSCI_ESTERNI
100
AcDbLine
 62
7
  6
CONTINUOUS
 10
9.6233525616
 20
-15.9884181474
 11
9.6233525616
 21
-16.1043017467
  0
LINE
  5
413
100
AcDbEntity
  8
ASSI
100
AcDbLine
 62
7
  6
CONTINUOUS
 10
9.6233525616
 20
-15.9884181474
 11
9.6233525616
 21
-16.1043017467
  0
LINE
  5
414
100
AcDbEntity
  8
GUSCI_ESTERNI
100
AcDbLine
 62
7
  6
CONTINUOUS
 10
9.6233525616
 20
14.1956982533
 11
9.6233525616
 21
14.3115818526
  0
LINE
  5
415
100
AcDbEntity
  8
ASSI
100
AcDbLine
 62
7
  6
CONTINUOUS
 10
9.6233525616
 20
14.1956982533
 11
9.6233525616
 21
14.3115818526
  0
LINE
  5
416
100
AcDbEntity
  8
GUSCI_ESTERNI
100
AcDbLine
 62
7
  6
CONTINUOUS
 10
9.6233525616
 20
16.079814654
 11
9.6233525616
 21
16.1956982533
  0
LINE
  5
417
100
AcDbEntity
  8
ASSI
100
AcDbLine
 62
7
  6
CONTINUOUS
 10
9.6233525616
 20
16.079814654
 11
9.6233525616
 21
16.1956982533
  0
LINE
  5
418
100
AcDbEntity
  8
GUSCI_ESTERNI
100
AcDbLine
 62
7
  6
CONTINUOUS
 10
9.6323869764
 20
-15.8543017467
 11
9.6323869764
 21
-14.3543017467
  0
LINE
  5
419
100
AcDbEntity
  8
ASSI
100
AcDbLine
 62
7
  6
CONTINUOUS
 10
9.6323869764
 20
-15.8543017467
 11
9.6323869764
 21
-14.3543017467
  0
LINE
  5
41A
100
AcDbEntity
  8
GUSCI_ESTERNI
100
AcDbLine
 62
7
  6
CONTINUOUS
 10
9.6323869764
 20
14.4456982533
 11
9.6323869764
 21
15.9456982533
  0
LINE
  5
41B
100
AcDbEntity
  8
ASSI
100
AcDbLine
 62
7
  6
CONTINUOUS
 10
9.6323869764
 20
14.4456982533
 11
9.6323869764
 21
15.9456982533
  0
LINE
  5
41C
100
AcDbEntity
  8
DRAFT
100
AcDbLine
 62
7
  6
CONTINUOUS
 10
9.6823869764
 20
-20.2543017467
 11
9.6823869764
 21
-20.8543017467
  0
LINE
  5
41D
100
AcDbEntity
  8
GUSCI_ESTERNI
100
AcDbLine
 62
7
  6
CONTINUOUS
 10
9.6823869764
 20
4.3956982533
 11
9.6823869764
 21
5.8254854838
  0
LINE
  5
41E
100
AcDbEntity
  8
ASSI
100
AcDbLine
 62
7
  6
CONTINUOUS
 10
9.6823869764
 20
4.3956982533
 11
9.6823869764
 21
5.8254854838
  0
LINE
  5
41F
100
AcDbEntity
  8
GUSCI_ESTERNI
100
AcDbLine
 62
7
  6
CONTINUOUS
 10
9.6823869764
 20
8.982213664
 11
9.6823869764
 21
20.3456982533
  0
LINE
  5
420
100
AcDbEntity
  8
ASSI
100
AcDbLine
 62
7
  6
CONTINUOUS
 10
9.6823869764
 20
8.982213664
 11
9.6823869764
 21
20.3456982533
  0
LINE
  5
421
100
AcDbEntity
  8
DRAFT
100
AcDbLine
 62
7
  6
CONTINUOUS
 10
9.6823869764
 20
20.3456982533
 11
9.6823869764
 21
20.9456982533
  0
LINE
  5
422
100
AcDbEntity
  8
GUSCI_ESTERNI
100
AcDbLine
 62
7
  6
CONTINUOUS
 10
10.1823869764
 20
-16.1293017467
 11
10.1823869764
 21
-14.0793017467
  0
LINE
  5
423
100
AcDbEntity
  8
ASSI
100
AcDbLine
 62
7
  6
CONTINUOUS
 10
10.1823869764
 20
-16.1293017467
 11
10.1823869764
 21
-14.0793017467
  0
LINE
  5
424
100
AcDbEntity
  8
GUSCI_ESTERNI
100
AcDbLine
 62
7
  6
CONTINUOUS
 10
10.3240535318
 20
5.8254854838
 11
10.3240535318
 21
4.3956982533
  0
LINE
  5
425
100
AcDbEntity
  8
ASSI
100
AcDbLine
 62
7
  6
CONTINUOUS
 10
10.3240535318
 20
5.8254854838
 11
10.3240535318
 21
4.3956982533
  0
LINE
  5
426
100
AcDbEntity
  8
RACCORDO
100
AcDbLine
 62
250
  6
CONTINUOUS
 10
10.4280193732
 20
-23.6543017467
 11
10.4280193732
 21
-24.4499299127
  0
LINE
  5
427
100
AcDbEntity
  8
RACCORDO
100
AcDbLine
 62
250
  6
CONTINUOUS
 10
10.4280193732
 20
23.6735294696
 11
10.4280193732
 21
24.5413264193
  0
LINE
  5
428
100
AcDbEntity
  8
GUSCI_ESTERNI
100
AcDbLine
 62
7
  6
CONTINUOUS
 10
10.615720421
 20
4.3956982533
 11
10.615720421
 21
5.8254854838
  0
LINE
  5
429
100
AcDbEntity
  8
ASSI
100
AcDbLine
 62
7
  6
CONTINUOUS
 10
10.615720421
 20
4.3956982533
 11
10.615720421
 21
5.8254854838
  0
LINE
  5
42A
100
AcDbEntity
  8
RACCORDO
100
AcDbLine
 62
250
  6
CONTINUOUS
 10
10.6780151424
 20
-24.1999341435
 11
10.6780151424
 21
-23.798639314
  0
LINE
  5
42B
100
AcDbEntity
  8
RACCORDO
100
AcDbLine
 62
250
  6
CONTINUOUS
 10
10.6780151424
 20
23.8900358206
 11
10.6780151424
 21
24.2913306501
  0
LINE
  5
42C
100
AcDbEntity
  8
RACCORDO
100
AcDbLine
 62
7
  6
CONTINUOUS
 10
10.6823869764
 20
-22.5200137921
 11
10.6823869764
 21
-24.2043059775
  0
LINE
  5
42D
100
AcDbEntity
  8
RACCORDO
100
AcDbLine
 62
7
  6
CONTINUOUS
 10
10.6823869764
 20
22.6114102987
 11
10.6823869764
 21
24.2957024841
  0
LINE
  5
42E
100
AcDbEntity
  8
GUSCI_ESTERNI
100
AcDbLine
 62
7
  6
CONTINUOUS
 10
10.8823869764
 20
-19.4354521142
 11
10.8823869764
 21
19.5268486208
  0
LINE
  5
42F
100
AcDbEntity
  8
ASSI
100
AcDbLine
 62
7
  6
CONTINUOUS
 10
10.8823869764
 20
-19.4354521142
 11
10.8823869764
 21
19.5268486208
  0
LINE
  5
430
100
AcDbEntity
  8
RACCORDO
100
AcDbLine
 62
250
  6
CONTINUOUS
 10
10.9823869764
 20
4.1934330254
 11
10.9823869764
 21
-4.1020365188
  0
LINE
  5
431
100
AcDbEntity
  8
RACCORDO
100
AcDbLine
 62
250
  6
CONTINUOUS
 10
10.4331099743
 20
-23.0769514775
 11
10.4272921445
 21
-23.6543017467
  0
LINE
  5
432
100
AcDbEntity
  8
RACCORDO
100
AcDbLine
 62
250
  6
CONTINUOUS
 10
10.6823869764
 20
-23.3647868949
 11
10.6780151424
 21
-23.798639314
  0
LINE
  5
433
100
AcDbEntity
  8
DRAFT
100
AcDbLine
 62
7
  6
CONTINUOUS
 10
11.0811475998
 20
4.1934330254
 11
11.2050785608
 21
11.5456982533
  0
LINE
  5
434
100
AcDbEntity
  8
RACCORDO
100
AcDbLine
 62
250
  6
CONTINUOUS
 10
-0.7176130236
 20
-14.1042446313
 11
-0.700159288
 21
-14.0867908957
  0
LINE
  5
435
100
AcDbEntity
  8
RACCORDO
100
AcDbLine
 62
250
  6
CONTINUOUS
 10
-10.6132411896
 20
-24.1999341435
 11
-10.6176130236
 21
-24.2043059775
  0
LINE
  5
436
100
AcDbEntity
  8
RACCORDO
100
AcDbLine
 62
250
  6
CONTINUOUS
 10
-10.3632454204
 20
-24.4499299127
 11
-10.3676172544
 21
-24.4543017467
  0
LINE
  5
437
100
AcDbEntity
  8
0
100
AcDbLine
 62
7
  6
CONTINUOUS
 10
-1.7842797697
 20
9.7956982533
 11
-2.2842797697
 21
9.7956982533
  0
LINE
  5
438
100
AcDbEntity
  8
0
100
AcDbLine
 62
7
  6
CONTINUOUS
 10
-4.3676130236
 20
9.7956982533
 11
-5.1176130236
 21
9.7956982533
  0
LINE
  5
439
100
AcDbEntity
  8
GUSCI_ESTERNI
100
AcDbLine
 62
7
  6
CONTINUOUS
 10
9.1573869764
 20
6.0637833277
 11
9.2740535318
 21
6.0042088667
  0
LINE
  5
43A
100
AcDbEntity
  8
ASSI
100
AcDbLine
 62
7
  6
CONTINUOUS
 10
9.1573869764
 20
6.0637833277
 11
9.2740535318
 21
6.0042088667
  0
LINE
  5
43B
100
AcDbEntity
  8
GUSCI_ESTERNI
100
AcDbLine
 62
7
  6
CONTINUOUS
 10
10.090720421
 20
6.0637833277
 11
10.2073869764
 21
6.0042088667
  0
LINE
  5
43C
100
AcDbEntity
  8
ASSI
100
AcDbLine
 62
7
  6
CONTINUOUS
 10
10.090720421
 20
6.0637833277
 11
10.2073869764
 21
6.0042088667
  0
LINE
  5
43D
100
AcDbEntity
  8
RACCORDO
100
AcDbLine
 62
250
  6
CONTINUOUS
 10
-10.6132411896
 20
24.2913306501
 11
-10.6176130236
 21
24.2957024841
  0
LINE
  5
43E
100
AcDbEntity
  8
RACCORDO
100
AcDbLine
 62
250
  6
CONTINUOUS
 10
-10.3632454204
 20
24.5413264193
 11
-10.3676172544
 21
24.5456982533
  0
LINE
  5
43F
100
AcDbEntity
  8
GUSCI_ESTERNI
100
AcDbLine
 62
7
  6
CONTINUOUS
 10
7.5823869764
 20
6.0042088667
 11
7.6407202541
 21
5.9446344057
  0
LINE
  5
440
100
AcDbEntity
  8
ASSI
100
AcDbLine
 62
7
  6
CONTINUOUS
 10
7.5823869764
 20
6.0042088667
 11
7.6407202541
 21
5.9446344057
  0
LINE
  5
441
100
AcDbEntity
  8
GUSCI_ESTERNI
100
AcDbLine
 62
7
  6
CONTINUOUS
 10
7.8740536987
 20
6.1233577887
 11
7.7573869764
 21
6.2425067107
  0
LINE
  5
442
100
AcDbEntity
  8
ASSI
100
AcDbLine
 62
7
  6
CONTINUOUS
 10
7.8740536987
 20
6.1233577887
 11
7.7573869764
 21
6.2425067107
  0
LINE
  5
443
100
AcDbEntity
  8
GUSCI_ESTERNI
100
AcDbLine
 62
7
  6
CONTINUOUS
 10
9.2740535318
 20
6.0042088667
 11
9.3323869764
 21
5.9446344057
  0
LINE
  5
444
100
AcDbEntity
  8
ASSI
100
AcDbLine
 62
7
  6
CONTINUOUS
 10
9.2740535318
 20
6.0042088667
 11
9.3323869764
 21
5.9446344057
  0
LINE
  5
445
100
AcDbEntity
  8
GUSCI_ESTERNI
100
AcDbLine
 62
7
  6
CONTINUOUS
 10
7.6407202541
 20
5.9446344057
 11
7.6990536987
 21
5.8254854838
  0
LINE
  5
446
100
AcDbEntity
  8
ASSI
100
AcDbLine
 62
7
  6
CONTINUOUS
 10
7.6407202541
 20
5.9446344057
 11
7.6990536987
 21
5.8254854838
  0
LINE
  5
447
100
AcDbEntity
  8
GUSCI_ESTERNI
100
AcDbLine
 62
7
  6
CONTINUOUS
 10
9.3323869764
 20
5.9446344057
 11
9.390720421
 21
5.8254854838
  0
LINE
  5
448
100
AcDbEntity
  8
ASSI
100
AcDbLine
 62
7
  6
CONTINUOUS
 10
9.3323869764
 20
5.9446344057
 11
9.390720421
 21
5.8254854838
  0
LINE
  5
449
100
AcDbEntity
  8
GUSCI_ESTERNI
100
AcDbLine
 62
7
  6
CONTINUOUS
 10
7.9907202541
 20
5.8254854838
 11
7.8740536987
 21
6.1233577887
  0
LINE
  5
44A
100
AcDbEntity
  8
ASSI
100
AcDbLine
 62
7
  6
CONTINUOUS
 10
7.9907202541
 20
5.8254854838
 11
7.8740536987
 21
6.1233577887
  0
LINE
  5
44B
100
AcDbEntity
  8
DRAFT
100
AcDbLine
 62
7
  6
CONTINUOUS
 10
11.0811475998
 20
-4.1020365188
 11
11.0811475998
 21
4.1934330254
  0
LINE
  5
44C
100
AcDbEntity
  8
RACCORDO
100
AcDbLine
 62
7
  6
CONTINUOUS
 10
11.1823869764
 20
21.9456030617
 11
11.1823869764
 21
18.6956982533
  0
LINE
  5
44D
100
AcDbEntity
  8
RACCORDO
100
AcDbLine
 62
7
  6
CONTINUOUS
 10
11.1823869764
 20
-18.6043017467
 11
11.1823869764
 21
-21.8542065551
  0
LINE
  5
44E
100
AcDbEntity
  8
DRAFT
100
AcDbLine
 62
7
  6
CONTINUOUS
 10
11.2050785608
 20
18.6730066689
 11
11.2050785608
 21
11.5456982533
  0
LINE
  5
44F
100
AcDbEntity
  8
DRAFT
100
AcDbLine
 62
7
  6
CONTINUOUS
 10
11.2050785608
 20
-11.4543017467
 11
11.2050785608
 21
-18.5816101623
  0
LINE
  5
450
100
AcDbEntity
  8
RACCORDO
100
AcDbLine
 62
250
  6
CONTINUOUS
 10
0.7823869764
 20
-16.1043588621
 11
0.7649332408
 21
-16.1218125977
  0
LINE
  5
451
100
AcDbEntity
  8
DRAFT
100
AcDbLine
 62
7
  6
CONTINUOUS
 10
-1.4228495431
 20
11.5404617338
 11
-5.4176130236
 21
11.5404617338
  0
LINE
  5
452
100
AcDbEntity
  8
DRAFT
100
AcDbLine
 62
7
  6
CONTINUOUS
 10
-11.140304608
 20
11.5456982533
 11
-10.8176130236
 21
11.5456982533
  0
LINE
  5
453
100
AcDbEntity
  8
DRAFT
100
AcDbLine
 62
7
  6
CONTINUOUS
 10
-5.4176130236
 20
11.5456982533
 11
-1.4176130236
 21
11.5456982533
  0
LINE
  5
454
100
AcDbEntity
  8
DRAFT
100
AcDbLine
 62
7
  6
CONTINUOUS
 10
10.8823869764
 20
11.5456982533
 11
11.2050785608
 21
11.5456982533
  0
LINE
  5
455
100
AcDbEntity
  8
GUSCI_ESTERNI
100
AcDbLine
 62
7
  6
CONTINUOUS
 10
10.8823869764
 20
11.6437744646
 11
9.6823869764
 21
11.6437744646
  0
LINE
  5
456
100
AcDbEntity
  8
ASSI
100
AcDbLine
 62
7
  6
CONTINUOUS
 10
10.8823869764
 20
11.6437744646
 11
9.6823869764
 21
11.6437744646
  0
LINE
  5
457
100
AcDbEntity
  8
DRAFT
100
AcDbLine
 62
7
  6
CONTINUOUS
 10
-1.1676130236
 20
11.6456982533
 11
0.0323869764
 21
11.6456982533
  0
LINE
  5
458
100
AcDbEntity
  8
GUSCI_ESTERNI
100
AcDbLine
 62
7
  6
CONTINUOUS
 10
9.6240535318
 20
6.0637833277
 11
9.4490535318
 21
6.2425067107
  0
LINE
  5
459
100
AcDbEntity
  8
ASSI
100
AcDbLine
 62
7
  6
CONTINUOUS
 10
9.6240535318
 20
6.0637833277
 11
9.4490535318
 21
6.2425067107
  0
LINE
  5
45A
100
AcDbEntity
  8
GUSCI_ESTERNI
100
AcDbLine
 62
7
  6
CONTINUOUS
 10
10.2073869764
 20
6.0042088667
 11
10.265720421
 21
5.9446344057
  0
LINE
  5
45B
100
AcDbEntity
  8
ASSI
100
AcDbLine
 62
7
  6
CONTINUOUS
 10
10.2073869764
 20
6.0042088667
 11
10.265720421
 21
5.9446344057
  0
LINE
  5
45C
100
AcDbEntity
  8
GUSCI_ESTERNI
100
AcDbLine
 62
7
  6
CONTINUOUS
 10
10.4990535318
 20
6.1233577887
 11
10.3823869764
 21
6.2425067107
  0
LINE
  5
45D
100
AcDbEntity
  8
ASSI
100
AcDbLine
 62
7
  6
CONTINUOUS
 10
10.4990535318
 20
6.1233577887
 11
10.3823869764
 21
6.2425067107
  0
LINE
  5
45E
100
AcDbEntity
  8
GUSCI_ESTERNI
100
AcDbLine
 62
7
  6
CONTINUOUS
 10
10.265720421
 20
5.9446344057
 11
10.3240535318
 21
5.8254854838
  0
LINE
  5
45F
100
AcDbEntity
  8
ASSI
100
AcDbLine
 62
7
  6
CONTINUOUS
 10
10.265720421
 20
5.9446344057
 11
10.3240535318
 21
5.8254854838
  0
LINE
  5
460
100
AcDbEntity
  8
GUSCI_ESTERNI
100
AcDbLine
 62
7
  6
CONTINUOUS
 10
10.615720421
 20
5.8254854838
 11
10.4990535318
 21
6.1233577887
  0
LINE
  5
461
100
AcDbEntity
  8
ASSI
100
AcDbLine
 62
7
  6
CONTINUOUS
 10
10.615720421
 20
5.8254854838
 11
10.4990535318
 21
6.1233577887
  0
LINE
  5
462
100
AcDbEntity
  8
0
100
AcDbLine
 62
7
  6
CONTINUOUS
 10
5.4823869764
 20
-13.6543017467
 11
5.7823869764
 21
-13.3543017467
  0
LINE
  5
463
100
AcDbEntity
  8
ASSI
100
AcDbLine
 62
7
  6
CONTINUOUS
 10
-4.3676130236
 20
-23.7543017467
 11
-4.3239623767
 21
-23.7106510998
  0
LINE
  5
464
100
AcDbEntity
  8
RACCORDO
100
AcDbLine
 62
250
  6
CONTINUOUS
 10
2.282329861
 20
-17.6043017467
 11
2.2648761254
 21
-17.6217554823
  0
LINE
  5
465
100
AcDbEntity
  8
RACCORDO
100
AcDbLine
 62
7
  6
CONTINUOUS
 10
-9.6176130236
 20
-20.8543017467
 11
-9.4744053301
 21
-20.7827033532
  0
LINE
  5
466
100
AcDbEntity
  8
GUSCI_ESTERNI
100
AcDbLine
 62
7
  6
CONTINUOUS
 10
5.4823869764
 20
13.1956982533
 11
8.6323869764
 21
13.2025706617
  0
LINE
  5
467
100
AcDbEntity
  8
ASSI
100
AcDbLine
 62
7
  6
CONTINUOUS
 10
5.4823869764
 20
13.1956982533
 11
8.6323869764
 21
13.2025706617
  0
LINE
  5
468
100
AcDbEntity
  8
RACCORDO
100
AcDbLine
 62
7
  6
CONTINUOUS
 10
5.4823869764
 20
13.1956982533
 11
2.2823869764
 21
13.1956982533
  0
LINE
  5
469
100
AcDbEntity
  8
RACCORDO
100
AcDbLine
 62
7
  6
CONTINUOUS
 10
-2.2176130236
 20
13.1956982533
 11
-5.4176130236
 21
13.1956982533
  0
LINE
  5
46A
100
AcDbEntity
  8
GUSCI_ESTERNI
100
AcDbLine
 62
7
  6
CONTINUOUS
 10
-8.6176130236
 20
13.4456982533
 11
-5.4176130236
 21
13.4456982533
  0
LINE
  5
46B
100
AcDbEntity
  8
RACCORDO
100
AcDbLine
 62
7
  6
CONTINUOUS
 10
5.4823869764
 20
13.4456982533
 11
2.2823869764
 21
13.4456982533
  0
LINE
  5
46C
100
AcDbEntity
  8
RACCORDO
100
AcDbLine
 62
7
  6
CONTINUOUS
 10
-2.2176130236
 20
13.4456982533
 11
-5.4176130236
 21
13.4456982533
  0
LINE
  5
46D
100
AcDbEntity
  8
GUSCI_ESTERNI
100
AcDbLine
 62
7
  6
CONTINUOUS
 10
5.4823869764
 20
13.4456982533
 11
8.6323869764
 21
13.4456982533
  0
LINE
  5
46E
100
AcDbEntity
  8
ASSI
100
AcDbLine
 62
7
  6
CONTINUOUS
 10
5.4823869764
 20
13.4456982533
 11
8.6323869764
 21
13.4456982533
  0
LINE
  5
46F
100
AcDbEntity
  8
0
100
AcDbLine
 62
7
  6
CONTINUOUS
 10
-9.2676130236
 20
13.7956982533
 11
-7.7676130236
 21
13.7956982533
  0
LINE
  5
470
100
AcDbEntity
  8
0
100
AcDbLine
 62
7
  6
CONTINUOUS
 10
-2.2676130236
 20
13.7956982533
 11
-1.4578300726
 21
13.7956982533
  0
LINE
  5
471
100
AcDbEntity
  8
0
100
AcDbLine
 62
7
  6
CONTINUOUS
 10
1.5226040254
 20
13.7956982533
 11
2.7323869764
 21
13.7956982533
  0
LINE
  5
472
100
AcDbEntity
  8
0
100
AcDbLine
 62
7
  6
CONTINUOUS
 10
8.2323869764
 20
13.7956982533
 11
9.3922498992
 21
13.7956982533
  0
LINE
  5
473
100
AcDbEntity
  8
GUSCI_ESTERNI
100
AcDbLine
 62
250
  6
CONTINUOUS
 10
-9.5993662199
 20
13.9456982533
 11
-9.4836384274
 21
13.9456982533
  0
LINE
  5
474
100
AcDbEntity
  8
GUSCI_ESTERNI
100
AcDbLine
 62
250
  6
CONTINUOUS
 10
9.6233525616
 20
14.1956982533
 11
9.600632813
 21
14.1956982533
  0
LINE
  5
475
100
AcDbEntity
  8
ASSI
100
AcDbLine
 62
250
  6
CONTINUOUS
 10
9.6233525616
 20
14.1956982533
 11
9.600632813
 21
14.1956982533
  0
LINE
  5
476
100
AcDbEntity
  8
DRAFT
100
AcDbLine
 62
7
  6
CONTINUOUS
 10
0.0192966747
 20
14.2437744646
 11
-1.1545227219
 21
14.2437744646
  0
LINE
  5
477
100
AcDbEntity
  8
GUSCI_ESTERNI
100
AcDbLine
 62
7
  6
CONTINUOUS
 10
-5.4176130236
 20
12.9456982533
 11
-8.6176130236
 21
12.9596612418
  0
LINE
  5
478
100
AcDbEntity
  8
RACCORDO
100
AcDbLine
 62
7
  6
CONTINUOUS
 10
-9.4744053301
 20
20.8740998597
 11
-9.6176130236
 21
20.9456982533
  0
LINE
  5
479
100
AcDbEntity
  8
0
100
AcDbLine
 62
7
  6
CONTINUOUS
 10
5.8323869764
 20
13.4456982533
 11
5.4823869764
 21
13.7956982533
  0
LINE
  5
47A
100
AcDbEntity
  8
ASSI
100
AcDbLine
 62
7
  6
CONTINUOUS
 10
-4.3676130236
 20
23.8456982533
 11
-4.3239623767
 21
23.8020476064
  0
LINE
  5
47B
100
AcDbEntity
  8
RACCORDO
100
AcDbLine
 62
7
  6
CONTINUOUS
 10
-1.1762637361
 20
21.8043489658
 11
-1.1718241468
 21
21.7999093765
  0
LINE
  5
47C
100
AcDbEntity
  8
GUSCI_ESTERNI
100
AcDbLine
 62
7
  6
CONTINUOUS
 10
-9.2676130236
 20
15.5120998123
 11
-9.6176130236
 21
15.5090454086
  0
LINE
  5
47D
100
AcDbEntity
  8
GUSCI_ESTERNI
100
AcDbLine
 62
250
  6
CONTINUOUS
 10
9.6233525616
 20
16.1956982533
 11
9.600632813
 21
16.1956982533
  0
LINE
  5
47E
100
AcDbEntity
  8
ASSI
100
AcDbLine
 62
250
  6
CONTINUOUS
 10
9.6233525616
 20
16.1956982533
 11
9.600632813
 21
16.1956982533
  0
LINE
  5
47F
100
AcDbEntity
  8
GUSCI_ESTERNI
100
AcDbLine
 62
7
  6
CONTINUOUS
 10
-5.4176130236
 20
17.4456982533
 11
-8.6176130236
 21
17.4317352648
  0
LINE
  5
480
100
AcDbEntity
  8
GUSCI_ESTERNI
100
AcDbLine
 62
250
  6
CONTINUOUS
 10
-9.5993662199
 20
16.4456982533
 11
-9.4836384274
 21
16.4456982533
  0
LINE
  5
481
100
AcDbEntity
  8
RACCORDO
100
AcDbLine
 62
7
  6
CONTINUOUS
 10
-5.4176130236
 20
16.9456982533
 11
-2.2176130236
 21
16.9456982533
  0
LINE
  5
482
100
AcDbEntity
  8
GUSCI_ESTERNI
100
AcDbLine
 62
7
  6
CONTINUOUS
 10
8.6323869764
 20
16.9456982533
 11
5.4823869764
 21
16.9456982533
  0
LINE
  5
483
100
AcDbEntity
  8
ASSI
100
AcDbLine
 62
7
  6
CONTINUOUS
 10
8.6323869764
 20
16.9456982533
 11
5.4823869764
 21
16.9456982533
  0
LINE
  5
484
100
AcDbEntity
  8
RACCORDO
100
AcDbLine
 62
7
  6
CONTINUOUS
 10
2.2823869764
 20
16.9456982533
 11
5.4823869764
 21
16.9456982533
  0
LINE
  5
485
100
AcDbEntity
  8
GUSCI_ESTERNI
100
AcDbLine
 62
7
  6
CONTINUOUS
 10
-5.4176130236
 20
16.9456982533
 11
-8.6176130236
 21
16.9456982533
  0
LINE
  5
486
100
AcDbEntity
  8
RACCORDO
100
AcDbLine
 62
7
  6
CONTINUOUS
 10
-5.4176130236
 20
17.1956982533
 11
-2.2176130236
 21
17.1956982533
  0
LINE
  5
487
100
AcDbEntity
  8
RACCORDO
100
AcDbLine
 62
7
  6
CONTINUOUS
 10
2.2823869764
 20
17.1956982533
 11
5.4823869764
 21
17.1956982533
  0
LINE
  5
488
100
AcDbEntity
  8
GUSCI_ESTERNI
100
AcDbLine
 62
7
  6
CONTINUOUS
 10
5.4823869764
 20
17.1956982533
 11
8.6323869764
 21
17.1888258449
  0
LINE
  5
489
100
AcDbEntity
  8
ASSI
100
AcDbLine
 62
7
  6
CONTINUOUS
 10
5.4823869764
 20
17.1956982533
 11
8.6323869764
 21
17.1888258449
  0
LINE
  5
48A
100
AcDbEntity
  8
GUSCI_ESTERNI
100
AcDbLine
 62
7
  6
CONTINUOUS
 10
-9.2676130236
 20
16.5792966943
 11
-9.3899745272
 21
16.5803645269
  0
LINE
  5
48B
100
AcDbEntity
  8
RACCORDO
100
AcDbLine
 62
250
  6
CONTINUOUS
 10
0.0192966747
 20
19.7999855304
 11
-1.1545227219
 21
19.7999855304
  0
LINE
  5
48C
100
AcDbEntity
  8
GUSCI_ESTERNI
100
AcDbLine
 62
7
  6
CONTINUOUS
 10
10.8823869764
 20
19.5268486208
 11
10.4999014772
 21
19.5281837525
  0
LINE
  5
48D
100
AcDbEntity
  8
ASSI
100
AcDbLine
 62
7
  6
CONTINUOUS
 10
10.8823869764
 20
19.5268486208
 11
10.4999014772
 21
19.5281837525
  0
LINE
  5
48E
100
AcDbEntity
  8
RACCORDO
100
AcDbLine
 62
7
  6
CONTINUOUS
 10
8.1052765873
 20
-21.5314121358
 11
7.2823869764
 21
-22.3543017467
  0
LINE
  5
48F
100
AcDbEntity
  8
DRAFT
100
AcDbLine
 62
7
  6
CONTINUOUS
 10
10.8823869764
 20
-18.9043017467
 11
11.2050785608
 21
-18.5816101623
  0
LINE
  5
490
100
AcDbEntity
  8
GUSCI_ESTERNI
100
AcDbLine
 62
7
  6
CONTINUOUS
 10
10.8823869764
 20
-19.0543017467
 11
8.4079176962
 21
-21.5287710269
  0
LINE
  5
491
100
AcDbEntity
  8
ASSI
100
AcDbLine
 62
7
  6
CONTINUOUS
 10
10.8823869764
 20
-19.0543017467
 11
8.4079176962
 21
-21.5287710269
  0
LINE
  5
492
100
AcDbEntity
  8
GUSCI_ESTERNI
100
AcDbLine
 62
250
  6
CONTINUOUS
 10
-5.4176130236
 20
20.5457363302
 11
-9.3519090277
 21
20.5114022491
  0
LINE
  5
493
100
AcDbEntity
  8
GUSCI_ESTERNI
100
AcDbLine
 62
7
  6
CONTINUOUS
 10
-5.4176130236
 20
21.5456982533
 11
-8.3431437434
 21
21.5201675335
  0
LINE
  5
494
100
AcDbEntity
  8
RACCORDO
100
AcDbLine
 62
250
  6
CONTINUOUS
 10
5.4823869764
 20
20.8043870427
 11
0.0323869764
 21
20.8043870427
  0
LINE
  5
495
100
AcDbEntity
  8
RACCORDO
100
AcDbLine
 62
250
  6
CONTINUOUS
 10
-1.1676130236
 20
20.8043870427
 11
-5.4176130236
 21
20.8043870427
  0
LINE
  5
496
100
AcDbEntity
  8
RACCORDO
100
AcDbLine
 62
250
  6
CONTINUOUS
 10
9.5391792829
 20
20.8740998597
 11
9.15398537
 21
20.8740998597
  0
LINE
  5
497
100
AcDbEntity
  8
RACCORDO
100
AcDbLine
 62
250
  6
CONTINUOUS
 10
-8.9892114171
 20
20.8740998597
 11
-9.4744053301
 21
20.8740998597
  0
LINE
  5
498
100
AcDbEntity
  8
DRAFT
100
AcDbLine
 62
7
  6
CONTINUOUS
 10
-9.6176130236
 20
20.9456982533
 11
-8.9176130236
 21
20.9456982533
  0
LINE
  5
499
100
AcDbEntity
  8
DRAFT
100
AcDbLine
 62
7
  6
CONTINUOUS
 10
9.0823869764
 20
20.9456982533
 11
9.6823869764
 21
20.9456982533
  0
LINE
  5
49A
100
AcDbEntity
  8
RACCORDO
100
AcDbLine
 62
250
  6
CONTINUOUS
 10
0.0365980997
 20
21.7999093765
 11
-1.1718241468
 21
21.7999093765
  0
LINE
  5
49B
100
AcDbEntity
  8
RACCORDO
100
AcDbLine
 62
250
  6
CONTINUOUS
 10
5.4823869764
 20
21.8043489658
 11
0.0410376889
 21
21.8043489658
  0
LINE
  5
49C
100
AcDbEntity
  8
RACCORDO
100
AcDbLine
 62
250
  6
CONTINUOUS
 10
-1.1762637361
 20
21.8043489658
 11
-5.4176130236
 21
21.8043489658
  0
LINE
  5
49D
100
AcDbEntity
  8
DRAFT
100
AcDbLine
 62
7
  6
CONTINUOUS
 10
5.4823869764
 20
21.8044251211
 11
-5.4176130236
 21
21.8044251211
  0
LINE
  5
49E
100
AcDbEntity
  8
GUSCI_ESTERNI
100
AcDbLine
 62
250
  6
CONTINUOUS
 10
5.4823869764
 20
20.6457363302
 11
9.4166829806
 21
20.6114022491
  0
LINE
  5
49F
100
AcDbEntity
  8
ASSI
100
AcDbLine
 62
250
  6
CONTINUOUS
 10
5.4823869764
 20
20.6457363302
 11
9.4166829806
 21
20.6114022491
  0
LINE
  5
4A0
100
AcDbEntity
  8
GUSCI_ESTERNI
100
AcDbLine
 62
7
  6
CONTINUOUS
 10
5.4823869764
 20
21.6456982533
 11
8.4079176962
 21
21.6201675335
  0
LINE
  5
4A1
100
AcDbEntity
  8
ASSI
100
AcDbLine
 62
7
  6
CONTINUOUS
 10
5.4823869764
 20
21.6456982533
 11
8.4079176962
 21
21.6201675335
  0
LINE
  5
4A2
100
AcDbEntity
  8
RACCORDO
100
AcDbLine
 62
7
  6
CONTINUOUS
 10
8.1052765873
 20
21.6228086424
 11
7.2823869764
 21
22.4456982533
  0
LINE
  5
4A3
100
AcDbEntity
  8
DRAFT
100
AcDbLine
 62
7
  6
CONTINUOUS
 10
11.2050785608
 20
18.6730066689
 11
10.8823869764
 21
18.9956982533
  0
LINE
  5
4A4
100
AcDbEntity
  8
GUSCI_ESTERNI
100
AcDbLine
 62
7
  6
CONTINUOUS
 10
8.4079176962
 20
21.6201675335
 11
10.8823869764
 21
19.1456982533
  0
LINE
  5
4A5
100
AcDbEntity
  8
ASSI
100
AcDbLine
 62
7
  6
CONTINUOUS
 10
8.4079176962
 20
21.6201675335
 11
10.8823869764
 21
19.1456982533
  0
LINE
  5
4A6
100
AcDbEntity
  8
RACCORDO
100
AcDbLine
 62
250
  6
CONTINUOUS
 10
8.2867588104
 20
-24.1999341435
 11
8.2823869764
 21
-24.2043059775
  0
LINE
  5
4A7
100
AcDbEntity
  8
RACCORDO
100
AcDbLine
 62
250
  6
CONTINUOUS
 10
8.5367545796
 20
-24.4499299127
 11
8.5323827456
 21
-24.4543017467
  0
LINE
  5
4A8
100
AcDbEntity
  8
RACCORDO
100
AcDbLine
 62
250
  6
CONTINUOUS
 10
7.3610049419
 20
22.3670802879
 11
3.0323869764
 21
22.3670802879
  0
LINE
  5
4A9
100
AcDbEntity
  8
RACCORDO
100
AcDbLine
 62
250
  6
CONTINUOUS
 10
-2.9676130236
 20
22.3670802879
 11
-7.296230989
 21
22.3670802879
  0
LINE
  5
4AA
100
AcDbEntity
  8
RACCORDO
100
AcDbLine
 62
7
  6
CONTINUOUS
 10
10.6822346513
 20
22.4456982533
 11
7.2823869764
 21
22.4456982533
  0
LINE
  5
4AB
100
AcDbEntity
  8
DRAFT
100
AcDbLine
 62
7
  6
CONTINUOUS
 10
3.5323869764
 20
22.4456982533
 11
3.0323869764
 21
22.4456982533
  0
LINE
  5
4AC
100
AcDbEntity
  8
DRAFT
100
AcDbLine
 62
7
  6
CONTINUOUS
 10
-2.9676130236
 20
22.4456982533
 11
-3.4676130236
 21
22.4456982533
  0
LINE
  5
4AD
100
AcDbEntity
  8
RACCORDO
100
AcDbLine
 62
7
  6
CONTINUOUS
 10
-7.2176130236
 20
22.4456982533
 11
-10.6174606984
 21
22.4456982533
  0
LINE
  5
4AE
100
AcDbEntity
  8
RACCORDO
100
AcDbLine
 62
7
  6
CONTINUOUS
 10
-8.0168400498
 20
22.4531793754
 11
-4.3667825382
 21
22.4531793754
  0
LINE
  5
4AF
100
AcDbEntity
  8
RACCORDO
100
AcDbLine
 62
7
  6
CONTINUOUS
 10
4.431556491
 20
22.4531793754
 11
8.0816140027
 21
22.4531793754
  0
LINE
  5
4B0
100
AcDbEntity
  8
RACCORDO
100
AcDbLine
 62
7
  6
CONTINUOUS
 10
-10.6000056335
 20
22.4544251211
 11
-8.0760641885
 21
22.4544251211
  0
LINE
  5
4B1
100
AcDbEntity
  8
RACCORDO
100
AcDbLine
 62
7
  6
CONTINUOUS
 10
8.1408381414
 20
22.4544251211
 11
10.6647795863
 21
22.4544251211
  0
LINE
  5
4B2
100
AcDbEntity
  8
RACCORDO
100
AcDbLine
 62
7
  6
CONTINUOUS
 10
10.4331099743
 20
23.1683479841
 11
8.5316639785
 21
23.1683479841
  0
LINE
  5
4B3
100
AcDbEntity
  8
RACCORDO
100
AcDbLine
 62
7
  6
CONTINUOUS
 10
-8.4668900257
 20
23.1683479841
 11
-10.3683360215
 21
23.1683479841
  0
LINE
  5
4B4
100
AcDbEntity
  8
RACCORDO
100
AcDbLine
 62
250
  6
CONTINUOUS
 10
8.2867588104
 20
24.2913306501
 11
8.2823869764
 21
24.2957024841
  0
LINE
  5
4B5
100
AcDbEntity
  8
RACCORDO
100
AcDbLine
 62
250
  6
CONTINUOUS
 10
8.5367545796
 20
24.5413264193
 11
8.5323827456
 21
24.5456982533
  0
LINE
  5
4B6
100
AcDbEntity
  8
RACCORDO
100
AcDbLine
 62
250
  6
CONTINUOUS
 10
10.6822346513
 20
-22.3543017467
 11
10.6647795863
 21
-22.3630286145
  0
LINE
  5
4B7
100
AcDbEntity
  8
RACCORDO
100
AcDbLine
 62
250
  6
CONTINUOUS
 10
-10.3632454204
 20
23.6735294696
 11
-8.4719806268
 21
23.6735294696
  0
LINE
  5
4B8
100
AcDbEntity
  8
RACCORDO
100
AcDbLine
 62
250
  6
CONTINUOUS
 10
8.5367545796
 20
23.6735294696
 11
10.4280193732
 21
23.6735294696
  0
LINE
  5
4B9
100
AcDbEntity
  8
ASSI
100
AcDbLine
 62
250
  6
CONTINUOUS
 10
-4.3239623767
 20
23.8020476064
 11
-3.4676130236
 21
23.8020476064
  0
LINE
  5
4BA
100
AcDbEntity
  8
ASSI
100
AcDbLine
 62
250
  6
CONTINUOUS
 10
3.5323869764
 20
23.8020476064
 11
4.3887363295
 21
23.8020476064
  0
LINE
  5
4BB
100
AcDbEntity
  8
DRAFT
100
AcDbLine
 62
7
  6
CONTINUOUS
 10
-3.4676130236
 20
23.8398804235
 11
3.5323869764
 21
23.8398804235
  0
LINE
  5
4BC
100
AcDbEntity
  8
DRAFT
100
AcDbLine
 62
7
  6
CONTINUOUS
 10
4.4323869764
 20
23.8456982533
 11
-4.3676130236
 21
23.8456982533
  0
LINE
  5
4BD
100
AcDbEntity
  8
RACCORDO
100
AcDbLine
 62
250
  6
CONTINUOUS
 10
8.2867588104
 20
23.8900358206
 11
10.6780151424
 21
23.8900358206
  0
LINE
  5
4BE
100
AcDbEntity
  8
RACCORDO
100
AcDbLine
 62
250
  6
CONTINUOUS
 10
-8.2219848576
 20
23.8900358206
 11
-10.6132411896
 21
23.8900358206
  0
LINE
  5
4BF
100
AcDbEntity
  8
RACCORDO
100
AcDbLine
 62
250
  6
CONTINUOUS
 10
8.2867588104
 20
24.2913306501
 11
10.6780151424
 21
24.2913306501
  0
LINE
  5
4C0
100
AcDbEntity
  8
RACCORDO
100
AcDbLine
 62
250
  6
CONTINUOUS
 10
-8.2219848576
 20
24.2913306501
 11
-10.6132411896
 21
24.2913306501
  0
LINE
  5
4C1
100
AcDbEntity
  8
RACCORDO
100
AcDbLine
 62
250
  6
CONTINUOUS
 10
10.4280193732
 20
24.5413264193
 11
8.5367545796
 21
24.5413264193
  0
LINE
  5
4C2
100
AcDbEntity
  8
RACCORDO
100
AcDbLine
 62
250
  6
CONTINUOUS
 10
-8.4719806268
 20
24.5413264193
 11
-10.3632454204
 21
24.5413264193
  0
LINE
  5
4C3
100
AcDbEntity
  8
RACCORDO
100
AcDbLine
 62
7
  6
CONTINUOUS
 10
10.4323912072
 20
24.5456982533
 11
8.5323827456
 21
24.5456982533
  0
LINE
  5
4C4
100
AcDbEntity
  8
RACCORDO
100
AcDbLine
 62
7
  6
CONTINUOUS
 10
-8.4676087928
 20
24.5456982533
 11
-10.3676172544
 21
24.5456982533
  0
LINE
  5
4C5
100
AcDbEntity
  8
RACCORDO
100
AcDbLine
 62
250
  6
CONTINUOUS
 10
10.6647795863
 20
22.4544251211
 11
10.6822346513
 21
22.4456982533
  0
ARC
  5
4C6
100
AcDbEntity
  8
0
100
AcDbCircle
 62
7
  6
CONTINUOUS
 10
-3.0479694613
 20
-18.7695620754
 40
7.2371706097
100
AcDbArc
 50
131.5601316655
 51
135.0245376775
  0
ARC
  5
4C7
100
AcDbEntity
  8
0
100
AcDbCircle
 62
7
  6
CONTINUOUS
 10
-7.6467558352
 20
-18.6204262763
 40
7.0323720025
100
AcDbArc
 50
44.9250002878
 51
48.4903222757
  0
ARC
  5
4C8
100
AcDbEntity
  8
GUSCI_ESTERNI
100
AcDbCircle
 62
7
  6
CONTINUOUS
 10
-8.3176130236
 20
-14.1043017467
 40
2.5
100
AcDbArc
 50
90.0
 51
180.0
  0
ARC
  5
4C9
100
AcDbEntity
  8
GUSCI_ESTERNI
100
AcDbCircle
 62
7
  6
CONTINUOUS
 10
-8.3176130236
 20
-16.1043017467
 40
2.5
100
AcDbArc
 50
180.0
 51
270.0
  0
ARC
  5
4CA
100
AcDbEntity
  8
GUSCI_ESTERNI
100
AcDbCircle
 62
7
  6
CONTINUOUS
 10
-8.6176130236
 20
-16.1043017467
 40
1.5
100
AcDbArc
 50
180.0
 51
270.0
  0
ARC
  5
4CB
100
AcDbEntity
  8
GUSCI_ESTERNI
100
AcDbCircle
 62
7
  6
CONTINUOUS
 10
-8.6176130236
 20
-14.1043017467
 40
1.5
100
AcDbArc
 50
90.0
 51
180.0
  0
ARC
  5
4CC
100
AcDbEntity
  8
RACCORDO
100
AcDbCircle
 62
7
  6
CONTINUOUS
 10
-2.2176130236
 20
-14.3543017467
 40
1.0
100
AcDbArc
 50
0.0
 51
90.0
  0
ARC
  5
4CD
100
AcDbEntity
  8
RACCORDO
100
AcDbCircle
 62
7
  6
CONTINUOUS
 10
-2.2176130236
 20
-15.8543017467
 40
1.0
100
AcDbArc
 50
270.0
 51
360.0
  0
ARC
  5
4CE
100
AcDbEntity
  8
GUSCI_ESTERNI
100
AcDbCircle
 62
7
  6
CONTINUOUS
 10
-8.6176130236
 20
-15.8543017467
 40
1.0
100
AcDbArc
 50
180.0
 51
270.0
  0
ARC
  5
4CF
100
AcDbEntity
  8
GUSCI_ESTERNI
100
AcDbCircle
 62
7
  6
CONTINUOUS
 10
-8.6176130236
 20
-14.3543017467
 40
1.0
100
AcDbArc
 50
90.0
 51
180.0
  0
ARC
  5
4D0
100
AcDbEntity
  8
RACCORDO
100
AcDbCircle
 62
7
  6
CONTINUOUS
 10
-10.6022516659
 20
-21.8611242859
 40
0.5007160523
100
AcDbArc
 50
243.4403142376
 51
252.0167420661
  0
ARC
  5
4D1
100
AcDbEntity
  8
RACCORDO
100
AcDbCircle
 62
250
  6
CONTINUOUS
 10
-8.4719908408
 20
-24.1999239295
 40
0.2500059834
100
AcDbArc
 50
270.0023408263
 51
359.9976591737
  0
ARC
  5
4D2
100
AcDbEntity
  8
RACCORDO
100
AcDbCircle
 62
250
  6
CONTINUOUS
 10
-10.3632352063
 20
-24.1999239295
 40
0.2500059834
100
AcDbArc
 50
180.0023408263
 51
269.9976591737
  0
ARC
  5
4D3
100
AcDbEntity
  8
RACCORDO
100
AcDbCircle
 62
7
  6
CONTINUOUS
 10
-8.4676076749
 20
-24.2043070954
 40
0.2499946513
100
AcDbArc
 50
269.9997437926
 51
0.0002562074
  0
ARC
  5
4D4
100
AcDbEntity
  8
RACCORDO
100
AcDbCircle
 62
7
  6
CONTINUOUS
 10
-10.3676183723
 20
-24.2043070954
 40
0.2499946513
100
AcDbArc
 50
179.9997437926
 51
270.0002562074
  0
ARC
  5
4D5
100
AcDbEntity
  8
RACCORDO
100
AcDbCircle
 62
7
  6
CONTINUOUS
 10
-10.8179283597
 20
-22.5199455357
 40
0.2003126281
100
AcDbArc
 50
359.9804767586
 51
57.7417515986
  0
ARC
  5
4D6
100
AcDbEntity
  8
RACCORDO
100
AcDbCircle
 62
7
  6
CONTINUOUS
 10
-2.2176130236
 20
14.4456982533
 40
1.0
100
AcDbArc
 50
270.0
 51
360.0
  0
ARC
  5
4D7
100
AcDbEntity
  8
RACCORDO
100
AcDbCircle
 62
7
  6
CONTINUOUS
 10
-2.2176130236
 20
15.9456982533
 40
1.0
100
AcDbArc
 50
0.0
 51
90.0
  0
ARC
  5
4D8
100
AcDbEntity
  8
GUSCI_ESTERNI
100
AcDbCircle
 62
7
  6
CONTINUOUS
 10
-8.6176130236
 20
14.4456982533
 40
1.0
100
AcDbArc
 50
180.0
 51
270.0
  0
ARC
  5
4D9
100
AcDbEntity
  8
GUSCI_ESTERNI
100
AcDbCircle
 62
7
  6
CONTINUOUS
 10
-8.6176130236
 20
15.9456982533
 40
1.0
100
AcDbArc
 50
90.0
 51
180.0
  0
ARC
  5
4DA
100
AcDbEntity
  8
RACCORDO
100
AcDbCircle
 62
7
  6
CONTINUOUS
 10
-10.6022516658
 20
21.9525207923
 40
0.5007160525
100
AcDbArc
 50
107.9832570518
 51
116.5596858129
  0
ARC
  5
4DB
100
AcDbEntity
  8
ASSI
100
AcDbCircle
 62
7
  6
CONTINUOUS
 10
-5.4176130236
 20
0.5456982533
 40
0.4
100
AcDbArc
 50
270.0
 51
90.0
  0
ARC
  5
4DC
100
AcDbEntity
  8
GUSCI_ESTERNI
100
AcDbCircle
 62
7
  6
CONTINUOUS
 10
-6.0176130236
 20
1.5456982533
 40
0.4
100
AcDbArc
 50
90.0
 51
270.0
  0
ARC
  5
4DD
100
AcDbEntity
  8
RACCORDO
100
AcDbCircle
 62
250
  6
CONTINUOUS
 10
-10.3632352064
 20
24.2913204361
 40
0.2500059834
100
AcDbArc
 50
90.0023408215
 51
179.9976591785
  0
ARC
  5
4DE
100
AcDbEntity
  8
RACCORDO
100
AcDbCircle
 62
250
  6
CONTINUOUS
 10
-8.4719908408
 20
24.2913204361
 40
0.2500059834
100
AcDbArc
 50
0.0023408215
 51
89.9976591785
  0
ARC
  5
4DF
100
AcDbEntity
  8
RACCORDO
100
AcDbCircle
 62
7
  6
CONTINUOUS
 10
-10.3676183723
 20
24.295703602
 40
0.2499946513
100
AcDbArc
 50
89.9997437926
 51
180.0002562074
  0
ARC
  5
4E0
100
AcDbEntity
  8
RACCORDO
100
AcDbCircle
 62
7
  6
CONTINUOUS
 10
-8.4676076749
 20
24.295703602
 40
0.2499946513
100
AcDbArc
 50
359.9997437926
 51
90.0002562074
  0
ARC
  5
4E1
100
AcDbEntity
  8
RACCORDO
100
AcDbCircle
 62
7
  6
CONTINUOUS
 10
-10.8179283592
 20
22.6113420431
 40
0.2003126281
100
AcDbArc
 50
302.2582481548
 51
0.0195229963
  0
ARC
  5
4E2
100
AcDbEntity
  8
0
100
AcDbCircle
 62
7
  6
CONTINUOUS
 10
3.2532441648
 20
-18.6204262763
 40
7.0323720025
100
AcDbArc
 50
44.9250002878
 51
48.4903222757
  0
ARC
  5
4E3
100
AcDbEntity
  8
RACCORDO
100
AcDbCircle
 62
7
  6
CONTINUOUS
 10
2.2823869764
 20
-15.8543017467
 40
1.0
100
AcDbArc
 50
180.0
 51
270.0
  0
ARC
  5
4E4
100
AcDbEntity
  8
RACCORDO
100
AcDbCircle
 62
7
  6
CONTINUOUS
 10
2.2823869764
 20
-14.3543017467
 40
1.0
100
AcDbArc
 50
90.0
 51
180.0
  0
ARC
  5
4E5
100
AcDbEntity
  8
RACCORDO
100
AcDbCircle
 62
7
  6
CONTINUOUS
 10
10.6670256186
 20
-21.8611242857
 40
0.5007160525
100
AcDbArc
 50
287.9832570518
 51
296.5596858129
  0
ARC
  5
4E6
100
AcDbEntity
  8
RACCORDO
100
AcDbCircle
 62
250
  6
CONTINUOUS
 10
10.4280091592
 20
-24.1999239295
 40
0.2500059834
100
AcDbArc
 50
270.0023408263
 51
359.9976591737
  0
ARC
  5
4E7
100
AcDbEntity
  8
RACCORDO
100
AcDbCircle
 62
250
  6
CONTINUOUS
 10
8.5367647936
 20
-24.1999239295
 40
0.2500059834
100
AcDbArc
 50
180.0023408215
 51
269.9976591785
  0
ARC
  5
4E8
100
AcDbEntity
  8
RACCORDO
100
AcDbCircle
 62
7
  6
CONTINUOUS
 10
10.4323923251
 20
-24.2043070954
 40
0.2499946513
100
AcDbArc
 50
269.9997437926
 51
0.0002562074
  0
ARC
  5
4E9
100
AcDbEntity
  8
RACCORDO
100
AcDbCircle
 62
7
  6
CONTINUOUS
 10
8.5323816277
 20
-24.2043070954
 40
0.2499946513
100
AcDbArc
 50
179.9997437926
 51
270.0002562074
  0
ARC
  5
4EA
100
AcDbEntity
  8
RACCORDO
100
AcDbCircle
 62
7
  6
CONTINUOUS
 10
10.8827023036
 20
-22.5199455308
 40
0.2003126281
100
AcDbArc
 50
122.2582469996
 51
180.0195246435
  0
ARC
  5
4EB
100
AcDbEntity
  8
0
100
AcDbCircle
 62
7
  6
CONTINUOUS
 10
7.8520305387
 20
-18.7695620754
 40
7.2371706097
100
AcDbArc
 50
131.5601316655
 51
135.0245376775
  0
ARC
  5
4EC
100
AcDbEntity
  8
GUSCI_ESTERNI
100
AcDbCircle
 62
7
  6
CONTINUOUS
 10
8.3823869764
 20
-16.1243017467
 40
2.5
100
AcDbArc
 50
270.0
 51
360.0
  0
ARC
  5
4ED
100
AcDbEntity
  8
GUSCI_ESTERNI
100
AcDbCircle
 62
7
  6
CONTINUOUS
 10
8.3823869764
 20
-14.0843017467
 40
2.5
100
AcDbArc
 50
0.0
 51
90.0
  0
ARC
  5
4EE
100
AcDbEntity
  8
ASSI
100
AcDbCircle
 62
7
  6
CONTINUOUS
 10
8.3823869764
 20
-16.1243017467
 40
2.5
100
AcDbArc
 50
270.0
 51
360.0
  0
ARC
  5
4EF
100
AcDbEntity
  8
ASSI
100
AcDbCircle
 62
7
  6
CONTINUOUS
 10
8.3823869764
 20
-14.0843017467
 40
2.5
100
AcDbArc
 50
0.0
 51
90.0
  0
ARC
  5
4F0
100
AcDbEntity
  8
GUSCI_ESTERNI
100
AcDbCircle
 62
7
  6
CONTINUOUS
 10
8.6823869764
 20
-14.0793017467
 40
1.5
100
AcDbArc
 50
0.0
 51
90.0
  0
ARC
  5
4F1
100
AcDbEntity
  8
GUSCI_ESTERNI
100
AcDbCircle
 62
7
  6
CONTINUOUS
 10
8.6823869764
 20
-16.1293017467
 40
1.5
100
AcDbArc
 50
270.0
 51
360.0
  0
ARC
  5
4F2
100
AcDbEntity
  8
ASSI
100
AcDbCircle
 62
7
  6
CONTINUOUS
 10
8.6823869764
 20
-14.0793017467
 40
1.5
100
AcDbArc
 50
0.0
 51
90.0
  0
ARC
  5
4F3
100
AcDbEntity
  8
ASSI
100
AcDbCircle
 62
7
  6
CONTINUOUS
 10
8.6823869764
 20
-16.1293017467
 40
1.5
100
AcDbArc
 50
270.0
 51
360.0
  0
ARC
  5
4F4
100
AcDbEntity
  8
GUSCI_ESTERNI
100
AcDbCircle
 62
7
  6
CONTINUOUS
 10
8.6323869764
 20
-14.3543017467
 40
1.0
100
AcDbArc
 50
0.0
 51
90.0
  0
ARC
  5
4F5
100
AcDbEntity
  8
GUSCI_ESTERNI
100
AcDbCircle
 62
7
  6
CONTINUOUS
 10
8.6323869764
 20
-15.8543017467
 40
1.0
100
AcDbArc
 50
270.0
 51
360.0
  0
ARC
  5
4F6
100
AcDbEntity
  8
ASSI
100
AcDbCircle
 62
7
  6
CONTINUOUS
 10
8.6323869764
 20
-14.3543017467
 40
1.0
100
AcDbArc
 50
0.0
 51
90.0
  0
ARC
  5
4F7
100
AcDbEntity
  8
ASSI
100
AcDbCircle
 62
7
  6
CONTINUOUS
 10
8.6323869764
 20
-15.8543017467
 40
1.0
100
AcDbArc
 50
270.0
 51
360.0
  0
ARC
  5
4F8
100
AcDbEntity
  8
SMUSSO
100
AcDbCircle
 62
7
  6
CONTINUOUS
 10
5.0823869764
 20
1.5456982533
 40
1.35
100
AcDbArc
 50
350.4031420291
 51
9.5968579709
  0
ARC
  5
4F9
100
AcDbEntity
  8
SMUSSO
100
AcDbCircle
 62
7
  6
CONTINUOUS
 10
5.0823869764
 20
1.5456982533
 40
0.85
100
AcDbArc
 50
331.9249350285
 51
28.0750649715
  0
ARC
  5
4FA
100
AcDbEntity
  8
ASSI
100
AcDbCircle
 62
7
  6
CONTINUOUS
 10
5.4823869764
 20
1.5456982533
 40
0.4
100
AcDbArc
 50
90.0
 51
270.0
  0
ARC
  5
4FB
100
AcDbEntity
  8
GUSCI_ESTERNI
100
AcDbCircle
 62
7
  6
CONTINUOUS
 10
6.0823869764
 20
1.5456982533
 40
0.4
100
AcDbArc
 50
270.0
 51
90.0
  0
ARC
  5
4FC
100
AcDbEntity
  8
ASSI
100
AcDbCircle
 62
7
  6
CONTINUOUS
 10
6.0823869764
 20
1.5456982533
 40
0.4
100
AcDbArc
 50
270.0
 51
90.0
  0
ARC
  5
4FD
100
AcDbEntity
  8
0
100
AcDbCircle
 62
7
  6
CONTINUOUS
 10
5.0823869764
 20
1.5456982533
 40
0.2
100
AcDbArc
 50
284.5103154316
 51
75.4896845684
  0
ARC
  5
4FE
100
AcDbEntity
  8
RACCORDO
100
AcDbCircle
 62
7
  6
CONTINUOUS
 10
2.2823869764
 20
15.9456982533
 40
1.0
100
AcDbArc
 50
90.0
 51
180.0
  0
ARC
  5
4FF
100
AcDbEntity
  8
RACCORDO
100
AcDbCircle
 62
7
  6
CONTINUOUS
 10
2.2823869764
 20
14.4456982533
 40
1.0
100
AcDbArc
 50
180.0
 51
270.0
  0
ARC
  5
500
100
AcDbEntity
  8
GUSCI_ESTERNI
100
AcDbCircle
 62
7
  6
CONTINUOUS
 10
8.6323869764
 20
15.9456982533
 40
1.0
100
AcDbArc
 50
0.0
 51
90.0
  0
ARC
  5
501
100
AcDbEntity
  8
GUSCI_ESTERNI
100
AcDbCircle
 62
7
  6
CONTINUOUS
 10
8.6323869764
 20
14.4456982533
 40
1.0
100
AcDbArc
 50
270.0
 51
360.0
  0
ARC
  5
502
100
AcDbEntity
  8
ASSI
100
AcDbCircle
 62
7
  6
CONTINUOUS
 10
8.6323869764
 20
15.9456982533
 40
1.0
100
AcDbArc
 50
0.0
 51
90.0
  0
ARC
  5
503
100
AcDbEntity
  8
ASSI
100
AcDbCircle
 62
7
  6
CONTINUOUS
 10
8.6323869764
 20
14.4456982533
 40
1.0
100
AcDbArc
 50
270.0
 51
360.0
  0
ARC
  5
504
100
AcDbEntity
  8
RACCORDO
100
AcDbCircle
 62
7
  6
CONTINUOUS
 10
10.6670256187
 20
21.9525207925
 40
0.5007160523
100
AcDbArc
 50
63.4403142376
 51
72.0167420661
  0
ARC
  5
505
100
AcDbEntity
  8
RACCORDO
100
AcDbCircle
 62
250
  6
CONTINUOUS
 10
10.4280091592
 20
24.291320436
 40
0.2500059834
100
AcDbArc
 50
0.0023408263
 51
89.9976591737
  0
ARC
  5
506
100
AcDbEntity
  8
RACCORDO
100
AcDbCircle
 62
250
  6
CONTINUOUS
 10
8.5367647937
 20
24.291320436
 40
0.2500059834
100
AcDbArc
 50
90.0023408263
 51
179.9976591737
  0
ARC
  5
507
100
AcDbEntity
  8
RACCORDO
100
AcDbCircle
 62
7
  6
CONTINUOUS
 10
8.5323816277
 20
24.295703602
 40
0.2499946513
100
AcDbArc
 50
89.9997437926
 51
180.0002562074
  0
ARC
  5
508
100
AcDbEntity
  8
RACCORDO
100
AcDbCircle
 62
7
  6
CONTINUOUS
 10
10.4323923251
 20
24.295703602
 40
0.2499946513
100
AcDbArc
 50
359.9997437926
 51
90.0002562074
  0
ARC
  5
509
100
AcDbEntity
  8
RACCORDO
100
AcDbCircle
 62
7
  6
CONTINUOUS
 10
10.8827023032
 20
22.6113420382
 40
0.2003126281
100
AcDbArc
 50
179.9804756023
 51
237.7417532471
  0
SPLINE
  5
50A
100
AcDbEntity
  8
0
100
AcDbSpline
 62
7
  6
CONTINUOUS
 70
0
 71
3
 72
9
 73
5
 74
0
 42
0.0000001
 43
0.0000001
 44
0.0000000001
 40
0.0
 40
0.0
 40
0.0
 40
0.0
 40
0.2524113349
 40
1.0
 40
1.0
 40
1.0
 40
1.0
 10
-7.3919517329
 20
13.4456954007
 30
0.0
 10
-7.4246543412
 20
13.4739306716
 30
0.0
 10
-7.5530714879
 20
13.5871146584
 30
0.0
 10
-7.6771283371
 20
13.7052135668
 30
0.0
 10
-7.7676130236
 20
13.7956982533
 30
0.0
  0
SPLINE
  5
50B
100
AcDbEntity
  8
0
100
AcDbSpline
 62
7
  6
CONTINUOUS
 70
0
 71
3
 72
9
 73
5
 74
0
 42
0.0000001
 43
0.0000001
 44
0.0000000001
 40
0.0
 40
0.0
 40
0.0
 40
0.0
 40
0.2477416241
 40
1.0
 40
1.0
 40
1.0
 40
1.0
 10
-2.2676130236
 20
13.7956982533
 30
0.0
 10
-2.2975982877
 20
13.7657129892
 30
0.0
 10
-2.4196177107
 20
13.6456714203
 30
0.0
 10
-2.5458127203
 20
13.5298432474
 30
0.0
 10
-2.6432751245
 20
13.4456947012
 30
0.0
  0
SPLINE
  5
50C
100
AcDbEntity
  8
0
100
AcDbSpline
 62
7
  6
CONTINUOUS
 70
0
 71
3
 72
9
 73
5
 74
0
 42
0.0000001
 43
0.0000001
 44
0.0000000001
 40
0.0
 40
0.0
 40
0.0
 40
0.0
 40
0.2524113349
 40
1.0
 40
1.0
 40
1.0
 40
1.0
 10
3.1080482671
 20
13.4456954007
 30
0.0
 10
3.0753456588
 20
13.4739306716
 30
0.0
 10
2.9469285121
 20
13.5871146584
 30
0.0
 10
2.8228716629
 20
13.7052135668
 30
0.0
 10
2.7323869764
 20
13.7956982533
 30
0.0
  0
SPLINE
  5
50D
100
AcDbEntity
  8
0
100
AcDbSpline
 62
7
  6
CONTINUOUS
 70
0
 71
3
 72
9
 73
5
 74
0
 42
0.0000001
 43
0.0000001
 44
0.0000000001
 40
0.0
 40
0.0
 40
0.0
 40
0.0
 40
0.2477416241
 40
1.0
 40
1.0
 40
1.0
 40
1.0
 10
8.2323869764
 20
13.7956982533
 30
0.0
 10
8.2024017123
 20
13.7657129892
 30
0.0
 10
8.0803822893
 20
13.6456714203
 30
0.0
 10
7.9541872797
 20
13.5298432474
 30
0.0
 10
7.8567248755
 20
13.4456947012
 30
0.0
  0
SPLINE
  5
50E
100
AcDbEntity
  8
RACCORDO
100
AcDbSpline
 62
7
  6
CONTINUOUS
 70
0
 71
3
 72
9
 73
5
 74
0
 42
0.0000001
 43
0.0000001
 44
0.0000000001
 40
0.0
 40
0.0
 40
0.0
 40
0.0
 40
0.4605522399
 40
1.0
 40
1.0
 40
1.0
 40
1.0
 10
10.8216162313
 20
22.4287752492
 30
0.0
 10
10.8146526348
 20
22.4310347879
 30
0.0
 10
10.7994429872
 20
22.4356673407
 30
0.0
 10
10.7840944813
 20
22.4398134184
 30
0.0
 10
10.7757897608
 20
22.441949944
 30
0.0
  0
SPLINE
  5
50F
100
AcDbEntity
  8
RACCORDO
100
AcDbSpline
 62
7
  6
CONTINUOUS
 70
0
 71
3
 72
9
 73
5
 74
0
 42
0.0000001
 43
0.0000001
 44
0.0000000001
 40
0.0
 40
0.0
 40
0.0
 40
0.0
 40
0.4605522399
 40
1.0
 40
1.0
 40
1.0
 40
1.0
 10
-10.7568422784
 20
-22.3373787426
 30
0.0
 10
-10.749878682
 20
-22.3396382813
 30
0.0
 10
-10.7346690344
 20
-22.3442708341
 30
0.0
 10
-10.7193205285
 20
-22.3484169118
 30
0.0
 10
-10.711015808
 20
-22.3505534374
 30
0.0
  0
SPLINE
  5
510
100
AcDbEntity
  8
RACCORDO
100
AcDbSpline
 62
7
  6
CONTINUOUS
 70
0
 71
3
 72
9
 73
5
 74
0
 42
0.0000001
 43
0.0000001
 44
0.0000000001
 40
0.0
 40
0.0
 40
0.0
 40
0.0
 40
0.1412338641
 40
1.0
 40
1.0
 40
1.0
 40
1.0
 10
10.7757897608
 20
-22.3505534374
 30
0.0
 10
10.7779638822
 20
-22.349994109
 30
0.0
 10
10.7933447704
 20
-22.3459859475
 30
0.0
 10
10.8086325101
 20
-22.3415916833
 30
0.0
 10
10.8216162239
 20
-22.337378745
 30
0.0
  0
SPLINE
  5
511
100
AcDbEntity
  8
RACCORDO
100
AcDbSpline
 62
7
  6
CONTINUOUS
 70
0
 71
3
 72
9
 73
5
 74
0
 42
0.0000001
 43
0.0000001
 44
0.0000000001
 40
0.0
 40
0.0
 40
0.0
 40
0.0
 40
0.1412338641
 40
1.0
 40
1.0
 40
1.0
 40
1.0
 10
-10.711015808
 20
22.441949944
 30
0.0
 10
-10.7131899294
 20
22.4413906156
 30
0.0
 10
-10.7285708176
 20
22.4373824541
 30
0.0
 10
-10.7438585573
 20
22.4329881899
 30
0.0
 10
-10.7568422711
 20
22.4287752516
 30
0.0
  0
SPLINE
  5
512
100
AcDbEntity
  8
RACCORDO
100
AcDbSpline
 62
250
  6
CONTINUOUS
 70
0
 71
3
 72
13
 73
9
 74
0
 42
0.0000001
 43
0.0000001
 44
0.0000000001
 40
0.0
 40
0.0
 40
0.0
 40
0.0
 40
0.1162401412
 40
0.2339779602
 40
0.3543714643
 40
0.4780981267
 40
0.7345386771
 40
1.0
 40
1.0
 40
1.0
 40
1.0
 10
-8.2219848576
 20
-23.798639314
 30
0.0
 10
-8.2220323841
 20
-23.7844895237
 30
0.0
 10
-8.2253906713
 20
-23.7559165111
 30
0.0
 10
-8.2399480221
 20
-23.7149564345
 30
0.0
 10
-8.2634184388
 20
-23.6772845937
 30
0.0
 10
-8.3057208303
 20
-23.632922213
 30
0.0
 10
-8.3756477476
 20
-23.5930892171
 30
0.0
 10
-8.4396662191
 20
-23.5822143693
 30
0.0
 10
-8.4719806268
 20
-23.5821329631
 30
0.0
  0
SPLINE
  5
513
100
AcDbEntity
  8
RACCORDO
100
AcDbSpline
 62
250
  6
CONTINUOUS
 70
0
 71
3
 72
13
 73
9
 74
0
 42
0.0000001
 43
0.0000001
 44
0.0000000001
 40
0.0
 40
0.0
 40
0.0
 40
0.0
 40
0.1162399782
 40
0.2339778175
 40
0.3543713311
 40
0.4780980184
 40
0.7345386243
 40
1.0
 40
1.0
 40
1.0
 40
1.0
 10
-10.6132411896
 20
-23.798639314
 30
0.0
 10
-10.6131936632
 20
-23.7844895436
 30
0.0
 10
-10.6098353787
 20
-23.7559165496
 30
0.0
 10
-10.5952780514
 20
-23.7149564819
 30
0.0
 10
-10.5718076377
 20
-23.6772846308
 30
0.0
 10
-10.5295052476
 20
-23.6329222339
 30
0.0
 10
-10.4595783192
 20
-23.593089222
 30
0.0
 10
-10.3955598345
 20
-23.5822143693
 30
0.0
 10
-10.3632454204
 20
-23.5821329631
 30
0.0
  0
SPLINE
  5
514
100
AcDbEntity
  8
ASSI
100
AcDbSpline
 62
7
  6
CONTINUOUS
 70
0
 71
3
 72
20
 73
16
 74
0
 42
0.0000001
 43
0.0000001
 44
0.0000000001
 40
0.0
 40
0.0
 40
0.0
 40
0.0
 40
0.1613624194
 40
0.3205394016
 40
0.4750144272
 40
0.6215131146
 40
0.6903945975
 40
0.7553930767
 40
0.8155665889
 40
0.8697817855
 40
0.9167083814
 40
0.9548763341
 40
0.9828739203
 40
0.9927751655
 40
1.0
 40
1.0
 40
1.0
 40
1.0
 10
3.9603569641
 20
-23.2106595614
 30
0.0
 10
3.9842991304
 20
-23.2365382216
 30
0.0
 10
4.0318593145
 20
-23.2879449374
 30
0.0
 10
4.1022228001
 20
-23.3642339386
 30
0.0
 10
4.170130677
 20
-23.4383692567
 30
0.0
 10
4.2243505712
 20
-23.4982881585
 30
0.0
 10
4.265068272
 20
-23.5440564568
 30
0.0
 10
4.2930051146
 20
-23.5759488252
 30
0.0
 10
4.3185154575
 20
-23.6057062646
 30
0.0
 10
4.3410308605
 20
-23.6328205317
 30
0.0
 10
4.3599318365
 20
-23.6566951227
 30
0.0
 10
4.3744547186
 20
-23.6766686027
 30
0.0
 10
4.3833519079
 20
-23.6907905277
 30
0.0
 10
4.3873297678
 20
-23.6998134849
 30
0.0
 10
4.3882588246
 20
-23.7034978291
 30
0.0
 10
4.3883197092
 20
-23.7050751714
 30
0.0
  0
SPLINE
  5
515
100
AcDbEntity
  8
ASSI
100
AcDbSpline
 62
7
  6
CONTINUOUS
 70
0
 71
3
 72
9
 73
5
 74
0
 42
0.0000001
 43
0.0000001
 44
0.0000000001
 40
0.0
 40
0.0
 40
0.0
 40
0.0
 40
0.2092419995
 40
1.0
 40
1.0
 40
1.0
 40
1.0
 10
3.5323869764
 20
-23.705444037
 30
0.0
 10
3.5323869764
 20
-23.705005387
 30
0.0
 10
3.5325413258
 20
-23.7029089254
 30
0.0
 10
3.5331591643
 20
-23.700875873
 30
0.0
 10
3.5337289916
 20
-23.6993191604
 30
0.0
  0
SPLINE
  5
516
100
AcDbEntity
  8
ASSI
100
AcDbSpline
 62
7
  6
CONTINUOUS
 70
0
 71
3
 72
19
 73
15
 74
0
 42
0.0000001
 43
0.0000001
 44
0.0000000001
 40
0.0
 40
0.0
 40
0.0
 40
0.0
 40
0.010113557
 40
0.0228038506
 40
0.0555394563
 40
0.0971127622
 40
0.1461914532
 40
0.2014981791
 40
0.2619067484
 40
0.3944131913
 40
0.5379346333
 40
0.6885060916
 40
0.8432742952
 40
1.0
 40
1.0
 40
1.0
 40
1.0
 10
3.5337289916
 20
-23.6993191604
 30
0.0
 10
3.5344816938
 20
-23.6972628511
 30
0.0
 10
3.5365680833
 20
-23.6927718794
 30
0.0
 10
3.5425449749
 20
-23.6823316033
 30
0.0
 10
3.5532555669
 20
-23.6668053014
 30
0.0
 10
3.5694611095
 20
-23.6455665906
 30
0.0
 10
3.5893802846
 20
-23.6210259032
 30
0.0
 10
3.612379496
 20
-23.5937463152
 30
0.0
 10
3.6475492513
 20
-23.553106099
 30
0.0
 10
3.6959649892
 20
-23.4986774178
 30
0.0
 10
3.7580000592
 20
-23.4302442445
 30
0.0
 10
3.823674524
 20
-23.3586067508
 30
0.0
 10
3.8915108488
 20
-23.2850737288
 30
0.0
 10
3.9373123802
 20
-23.2355680408
 30
0.0
 10
3.9603569641
 20
-23.2106595614
 30
0.0
  0
SPLINE
  5
517
100
AcDbEntity
  8
ASSI
100
AcDbSpline
 62
7
  6
CONTINUOUS
 70
0
 71
3
 72
20
 73
16
 74
0
 42
0.0000001
 43
0.0000001
 44
0.0000000001
 40
0.0
 40
0.0
 40
0.0
 40
0.0
 40
0.1617484059
 40
0.321292825
 40
0.4760929288
 40
0.6228387844
 40
0.6917977694
 40
0.7568300229
 40
0.8169803595
 40
0.8710996206
 40
0.9178401742
 40
0.9557172281
 40
0.9833175966
 40
0.9929928691
 40
1.0
 40
1.0
 40
1.0
 40
1.0
 10
-3.8955830113
 20
-23.2106595614
 30
0.0
 10
-3.8715701937
 20
-23.2366145873
 30
0.0
 10
-3.8238716406
 20
-23.2881708615
 30
0.0
 10
-3.7533097755
 20
-23.3646763486
 30
0.0
 10
-3.6852276627
 20
-23.4390066616
 30
0.0
 10
-3.6308869164
 20
-23.4990685469
 30
0.0
 10
-3.5901018585
 20
-23.5449275456
 30
0.0
 10
-3.5621447904
 20
-23.5768591901
 30
0.0
 10
-3.53664393
 20
-23.606629175
 30
0.0
 10
-3.5141763499
 20
-23.6337215449
 30
0.0
 10
-3.495367293
 20
-23.6575324582
 30
0.0
 10
-3.4809923185
 20
-23.6773912416
 30
0.0
 10
-3.4722486062
 20
-23.6913922941
 30
0.0
 10
-3.4684410059
 20
-23.7002937382
 30
0.0
 10
-3.4676130236
 20
-23.7039122314
 30
0.0
 10
-3.4676130236
 20
-23.705444037
 30
0.0
  0
SPLINE
  5
518
100
AcDbEntity
  8
ASSI
100
AcDbSpline
 62
7
  6
CONTINUOUS
 70
0
 71
3
 72
20
 73
16
 74
0
 42
0.0000001
 43
0.0000001
 44
0.0000000001
 40
0.0
 40
0.0
 40
0.0
 40
0.0
 40
0.0072248217
 40
0.0171260471
 40
0.0451235654
 40
0.0832914673
 40
0.1302180295
 40
0.1844332165
 40
0.2446067311
 40
0.3096052295
 40
0.3784867363
 40
0.5249854411
 40
0.6794604545
 40
0.8386374838
 40
1.0
 40
1.0
 40
1.0
 40
1.0
 10
-4.3235457563
 20
-23.7050751714
 30
0.0
 10
-4.3234848719
 20
-23.7034978319
 30
0.0
 10
-4.3225558227
 20
-23.6998134935
 30
0.0
 10
-4.3185779671
 20
-23.6907905574
 30
0.0
 10
-4.3096808024
 20
-23.6766686544
 30
0.0
 10
-4.2951579419
 20
-23.6566951988
 30
0.0
 10
-4.2762569803
 20
-23.632820623
 30
0.0
 10
-4.2537415856
 20
-23.6057063605
 30
0.0
 10
-4.2282312432
 20
-23.5759489172
 30
0.0
 10
-4.2002943939
 20
-23.5440565413
 30
0.0
 10
-4.1595766846
 20
-23.4982882328
 30
0.0
 10
-4.1053567866
 20
-23.4383693258
 30
0.0
 10
-4.0374489025
 20
-23.3642339987
 30
0.0
 10
-3.9670853974
 20
-23.2879449762
 30
0.0
 10
-3.9195251919
 20
-23.2365382371
 30
0.0
 10
-3.8955830113
 20
-23.2106595614
 30
0.0
  0
SPLINE
  5
519
100
AcDbEntity
  8
ASSI
100
AcDbSpline
 62
7
  6
CONTINUOUS
 70
0
 71
3
 72
20
 73
16
 74
0
 42
0.0000001
 43
0.0000001
 44
0.0000000001
 40
0.0
 40
0.0
 40
0.0
 40
0.0
 40
0.1617481283
 40
0.3212925436
 40
0.4760926218
 40
0.6228381983
 40
0.6917970213
 40
0.756829145
 40
0.8169794967
 40
0.8710988952
 40
0.917839743
 40
0.9557171254
 40
0.9833176291
 40
0.9929928945
 40
1.0
 40
1.0
 40
1.0
 40
1.0
 10
3.9603569641
 20
23.302056068
 30
0.0
 10
3.9363441877
 20
23.3280110494
 30
0.0
 10
3.888645676
 20
23.3795672782
 30
0.0
 10
3.8180838561
 20
23.456072716
 30
0.0
 10
3.7500017878
 20
23.5304029786
 30
0.0
 10
3.6956611084
 20
23.5904647869
 30
0.0
 10
3.654876131
 20
23.6363236904
 30
0.0
 10
3.6269191038
 20
23.6682552903
 30
0.0
 10
3.6014182293
 20
23.6980252695
 30
0.0
 10
3.5789505745
 20
23.725117705
 30
0.0
 10
3.5601414146
 20
23.7489287478
 30
0.0
 10
3.5457663263
 20
23.7687876552
 30
0.0
 10
3.5370225681
 20
23.782788794
 30
0.0
 10
3.5332149448
 20
23.7916902551
 30
0.0
 10
3.5323869764
 20
23.7953087436
 30
0.0
 10
3.5323869764
 20
23.7968405436
 30
0.0
  0
SPLINE
  5
51A
100
AcDbEntity
  8
ASSI
100
AcDbSpline
 62
7
  6
CONTINUOUS
 70
0
 71
3
 72
20
 73
16
 74
0
 42
0.0000001
 43
0.0000001
 44
0.0000000001
 40
0.0
 40
0.0
 40
0.0
 40
0.0
 40
0.0072247963
 40
0.0171260137
 40
0.0451236603
 40
0.0832918761
 40
0.1302187102
 40
0.1844340207
 40
0.2446075476
 40
0.3096059203
 40
0.3784872733
 40
0.5249857124
 40
0.6794607073
 40
0.8386377433
 40
1.0
 40
1.0
 40
1.0
 40
1.0
 10
4.3883197092
 20
23.796471678
 30
0.0
 10
4.3882588249
 20
23.794894344
 30
0.0
 10
4.3873297889
 20
23.7912100104
 30
0.0
 10
4.3833519122
 20
23.782187059
 30
0.0
 10
4.3744547035
 20
23.768065074
 30
0.0
 10
4.3599317359
 20
23.7480915015
 30
0.0
 10
4.3410306781
 20
23.724216805
 30
0.0
 10
4.3185152151
 20
23.6971024829
 30
0.0
 10
4.2930048612
 20
23.6673450467
 30
0.0
 10
4.2650680515
 20
23.6354527137
 30
0.0
 10
4.224350419
 20
23.5896844961
 30
0.0
 10
4.1701305839
 20
23.5297656612
 30
0.0
 10
4.1022227398
 20
23.4556303794
 30
0.0
 10
4.0318592746
 20
23.3793414004
 30
0.0
 10
3.9842991063
 20
23.3279347022
 30
0.0
 10
3.9603569641
 20
23.302056068
 30
0.0
  0
SPLINE
  5
51B
100
AcDbEntity
  8
ASSI
100
AcDbSpline
 62
7
  6
CONTINUOUS
 70
0
 71
3
 72
20
 73
16
 74
0
 42
0.0000001
 43
0.0000001
 44
0.0000000001
 40
0.0
 40
0.0
 40
0.0
 40
0.0
 40
0.161362154
 40
0.3205391386
 40
0.4750141431
 40
0.621512561
 40
0.6903938882
 40
0.7553922393
 40
0.8155657636
 40
0.8697810868
 40
0.9167079592
 40
0.9548762305
 40
0.9828739514
 40
0.9927751899
 40
1.0
 40
1.0
 40
1.0
 40
1.0
 10
-3.8955830113
 20
23.302056068
 30
0.0
 10
-3.9195251382
 20
23.3279346857
 30
0.0
 10
-3.9670852837
 20
23.3793413591
 30
0.0
 10
-4.0374487275
 20
23.4556303146
 30
0.0
 10
-4.1053565628
 20
23.5297655857
 30
0.0
 10
-4.1595763929
 20
23.589684414
 30
0.0
 10
-4.2002940158
 20
23.63545262
 30
0.0
 10
-4.2282308182
 20
23.6673449448
 30
0.0
 10
-4.2537411729
 20
23.6971023769
 30
0.0
 10
-4.2762566454
 20
23.7242167047
 30
0.0
 10
-4.2951577194
 20
23.7480914184
 30
0.0
 10
-4.3096807108
 20
23.7680650178
 30
0.0
 10
-4.3185779463
 20
23.7821870269
 30
0.0
 10
-4.3225558278
 20
23.7912100012
 30
0.0
 10
-4.323484872
 20
23.794894341
 30
0.0
 10
-4.3235457563
 20
23.796471678
 30
0.0
  0
SPLINE
  5
51C
100
AcDbEntity
  8
ASSI
100
AcDbSpline
 62
7
  6
CONTINUOUS
 70
0
 71
3
 72
9
 73
5
 74
0
 42
0.0000001
 43
0.0000001
 44
0.0000000001
 40
0.0
 40
0.0
 40
0.0
 40
0.0
 40
0.2092949596
 40
1.0
 40
1.0
 40
1.0
 40
1.0
 10
-3.4676130236
 20
23.7968405436
 30
0.0
 10
-3.4676130236
 20
23.7964025905
 30
0.0
 10
-3.4677668405
 20
23.7943099873
 30
0.0
 10
-3.4683828016
 20
23.7922805016
 30
0.0
 10
-3.4689510412
 20
23.7907265764
 30
0.0
  0
SPLINE
  5
51D
100
AcDbEntity
  8
ASSI
100
AcDbSpline
 62
7
  6
CONTINUOUS
 70
0
 71
3
 72
19
 73
15
 74
0
 42
0.0000001
 43
0.0000001
 44
0.0000000001
 40
0.0
 40
0.0
 40
0.0
 40
0.0
 40
0.0101088786
 40
0.022794894
 40
0.055523522
 40
0.0970920738
 40
0.1461678532
 40
0.2014729413
 40
0.2618811384
 40
0.3943894424
 40
0.537915192
 40
0.6884926043
 40
0.8432674922
 40
1.0
 40
1.0
 40
1.0
 40
1.0
 10
-3.4689510412
 20
23.7907265764
 30
0.0
 10
-3.4697027468
 20
23.7886709395
 30
0.0
 10
-3.4717874247
 20
23.7841811815
 30
0.0
 10
-3.4777613851
 20
23.7737429521
 30
0.0
 10
-3.4884693371
 20
23.7582185856
 30
0.0
 10
-3.5046725699
 20
23.7369815093
 30
0.0
 10
-3.5245904158
 20
23.7124416021
 30
0.0
 10
-3.5475890459
 20
23.6851620855
 30
0.0
 10
-3.5827591376
 20
23.6445209323
 30
0.0
 10
-3.6311763928
 20
23.5900901791
 30
0.0
 10
-3.6932142329
 20
23.5216537478
 30
0.0
 10
-3.758892306
 20
23.45001223
 30
0.0
 10
-3.8267326828
 20
23.3764747886
 30
0.0
 10
-3.8725370156
 20
23.3269660734
 30
0.0
 10
-3.8955830113
 20
23.302056068
 30
0.0
  0
SPLINE
  5
51E
100
AcDbEntity
  8
RACCORDO
100
AcDbSpline
 62
7
  6
CONTINUOUS
 70
0
 71
3
 72
15
 73
11
 74
0
 42
0.0000001
 43
0.0000001
 44
0.0000000001
 40
0.0
 40
0.0
 40
0.0
 40
0.0
 40
0.1666545511
 40
0.3262779792
 40
0.4735916211
 40
0.6057108254
 40
0.7221085607
 40
0.8242207343
 40
0.9152394685
 40
1.0
 40
1.0
 40
1.0
 40
1.0
 10
10.4280193732
 20
-23.6543017467
 30
0.0
 10
10.4454786833
 20
-23.6543017467
 30
0.0
 10
10.4796904497
 20
-23.6565718118
 30
0.0
 10
10.5285748246
 20
-23.6657302055
 30
0.0
 10
10.5724158895
 20
-23.6801362006
 30
0.0
 10
10.6096561751
 20
-23.6987618447
 30
0.0
 10
10.6394039512
 20
-23.7206719736
 30
0.0
 10
10.661195437
 20
-23.7450699951
 30
0.0
 10
10.6746957587
 20
-23.7712670118
 30
0.0
 10
10.6779256694
 20
-23.7897599568
 30
0.0
 10
10.6780151424
 20
-23.798639314
 30
0.0
  0
SPLINE
  5
51F
100
AcDbEntity
  8
RACCORDO
100
AcDbSpline
 62
7
  6
CONTINUOUS
 70
0
 71
3
 72
15
 73
11
 74
0
 42
0.0000001
 43
0.0000001
 44
0.0000000001
 40
0.0
 40
0.0
 40
0.0
 40
0.0
 40
0.0847129374
 40
0.1757006909
 40
0.2778081862
 40
0.3942292046
 40
0.5263924491
 40
0.6737522819
 40
0.8333934372
 40
1.0
 40
1.0
 40
1.0
 40
1.0
 10
8.2867588104
 20
-23.798639314
 30
0.0
 10
8.2868484396
 20
-23.7897444609
 30
0.0
 10
8.2900900311
 20
-23.7712168948
 30
0.0
 10
8.3036379929
 20
-23.7449768395
 30
0.0
 10
8.3255042971
 20
-23.7205455197
 30
0.0
 10
8.3553516891
 20
-23.698615668
 30
0.0
 10
8.3927118181
 20
-23.6799864491
 30
0.0
 10
8.4366845894
 20
-23.6656082596
 30
0.0
 10
8.4856951518
 20
-23.6564720638
 30
0.0
 10
8.5199872416
 20
-23.6543017467
 30
0.0
 10
8.5374818084
 20
-23.6543017467
 30
0.0
  0
SPLINE
  5
520
100
AcDbEntity
  8
RACCORDO
100
AcDbSpline
 62
7
  6
CONTINUOUS
 70
0
 71
3
 72
9
 73
5
 74
0
 42
0.0000001
 43
0.0000001
 44
0.0000000001
 40
0.0
 40
0.0
 40
0.0
 40
0.0
 40
0.244529052
 40
1.0
 40
1.0
 40
1.0
 40
1.0
 10
7.9198550845
 20
21.8082301452
 30
0.0
 10
7.9101521892
 20
21.7931624084
 30
0.0
 10
7.8701274871
 20
21.7317648498
 30
0.0
 10
7.8289900881
 20
21.6710996626
 30
0.0
 10
7.7975994682
 20
21.6254892458
 30
0.0
  0
SPLINE
  5
521
100
AcDbEntity
  8
RACCORDO
100
AcDbSpline
 62
7
  6
CONTINUOUS
 70
0
 71
3
 72
9
 73
5
 74
0
 42
0.0000001
 43
0.0000001
 44
0.0000000001
 40
0.0
 40
0.0
 40
0.0
 40
0.0
 40
0.5085655399
 40
1.0
 40
1.0
 40
1.0
 40
1.0
 10
-7.663772453
 20
21.5261025039
 30
0.0
 10
-7.6969194915
 20
21.5734389914
 30
0.0
 10
-7.7617153397
 20
21.6667850209
 30
0.0
 10
-7.8248480401
 20
21.7612808327
 30
0.0
 10
-7.8550811317
 20
21.8082301452
 30
0.0
  0
SPLINE
  5
522
100
AcDbEntity
  8
RACCORDO
100
AcDbSpline
 62
7
  6
CONTINUOUS
 70
0
 71
3
 72
9
 73
5
 74
0
 42
0.0000001
 43
0.0000001
 44
0.0000000001
 40
0.0
 40
0.0
 40
0.0
 40
0.0
 40
0.2548177589
 40
1.0
 40
1.0
 40
1.0
 40
1.0
 10
7.7975994682
 20
-21.5340927392
 30
0.0
 10
7.8081873572
 20
-21.5494768901
 30
0.0
 10
7.8495869202
 20
-21.6099529982
 30
0.0
 10
7.8902864721
 20
-21.6709162035
 30
0.0
 10
7.9198550845
 20
-21.7168336386
 30
0.0
  0
SPLINE
  5
523
100
AcDbEntity
  8
RACCORDO
100
AcDbSpline
 62
7
  6
CONTINUOUS
 70
0
 71
3
 72
9
 73
5
 74
0
 42
0.0000001
 43
0.0000001
 44
0.0000000001
 40
0.0
 40
0.0
 40
0.0
 40
0.0
 40
0.4914344601
 40
1.0
 40
1.0
 40
1.0
 40
1.0
 10
-7.8550811317
 20
-21.7168336386
 30
0.0
 10
-7.8248480401
 20
-21.6698843261
 30
0.0
 10
-7.7617153397
 20
-21.5753885143
 30
0.0
 10
-7.6969194915
 20
-21.4820424848
 30
0.0
 10
-7.663772453
 20
-21.4347059973
 30
0.0
  0
SPLINE
  5
524
100
AcDbEntity
  8
RACCORDO
100
AcDbSpline
 62
250
  6
CONTINUOUS
 70
0
 71
3
 72
13
 73
9
 74
0
 42
0.0000001
 43
0.0000001
 44
0.0000000001
 40
0.0
 40
0.0
 40
0.0
 40
0.0
 40
0.1162399782
 40
0.2339778175
 40
0.3543713311
 40
0.4780980184
 40
0.7345386243
 40
1.0
 40
1.0
 40
1.0
 40
1.0
 10
-10.6132411896
 20
23.8900358206
 30
0.0
 10
-10.6131936632
 20
23.8758860502
 30
0.0
 10
-10.6098353787
 20
23.8473130561
 30
0.0
 10
-10.5952780514
 20
23.8063529885
 30
0.0
 10
-10.5718076377
 20
23.7686811374
 30
0.0
 10
-10.5295052476
 20
23.7243187405
 30
0.0
 10
-10.4595783192
 20
23.6844857286
 30
0.0
 10
-10.3955598345
 20
23.6736108759
 30
0.0
 10
-10.3632454204
 20
23.6735294696
 30
0.0
  0
SPLINE
  5
525
100
AcDbEntity
  8
RACCORDO
100
AcDbSpline
 62
250
  6
CONTINUOUS
 70
0
 71
3
 72
13
 73
9
 74
0
 42
0.0000001
 43
0.0000001
 44
0.0000000001
 40
0.0
 40
0.0
 40
0.0
 40
0.0
 40
0.1162399782
 40
0.2339778175
 40
0.3543713311
 40
0.4780980184
 40
0.7345386243
 40
1.0
 40
1.0
 40
1.0
 40
1.0
 10
-8.2219848576
 20
23.8900358206
 30
0.0
 10
-8.222032384
 20
23.8758860502
 30
0.0
 10
-8.2253906685
 20
23.8473130561
 30
0.0
 10
-8.2399479958
 20
23.8063529885
 30
0.0
 10
-8.2634184095
 20
23.7686811374
 30
0.0
 10
-8.3057207996
 20
23.7243187405
 30
0.0
 10
-8.375647728
 20
23.6844857286
 30
0.0
 10
-8.4396662127
 20
23.6736108759
 30
0.0
 10
-8.4719806268
 20
23.6735294696
 30
0.0
  0
SPLINE
  5
526
100
AcDbEntity
  8
RACCORDO
100
AcDbSpline
 62
250
  6
CONTINUOUS
 70
0
 71
3
 72
13
 73
9
 74
0
 42
0.0000001
 43
0.0000001
 44
0.0000000001
 40
0.0
 40
0.0
 40
0.0
 40
0.0
 40
0.1162399782
 40
0.2339778175
 40
0.3543713311
 40
0.4780980184
 40
0.7345386243
 40
1.0
 40
1.0
 40
1.0
 40
1.0
 10
10.6780151424
 20
23.8900358206
 30
0.0
 10
10.677967616
 20
23.8758860502
 30
0.0
 10
10.6746093315
 20
23.8473130561
 30
0.0
 10
10.6600520042
 20
23.8063529885
 30
0.0
 10
10.6365815905
 20
23.7686811374
 30
0.0
 10
10.5942792004
 20
23.7243187405
 30
0.0
 10
10.524352272
 20
23.6844857286
 30
0.0
 10
10.4603337873
 20
23.6736108759
 30
0.0
 10
10.4280193732
 20
23.6735294696
 30
0.0
  0
SPLINE
  5
527
100
AcDbEntity
  8
RACCORDO
100
AcDbSpline
 62
250
  6
CONTINUOUS
 70
0
 71
3
 72
13
 73
9
 74
0
 42
0.0000001
 43
0.0000001
 44
0.0000000001
 40
0.0
 40
0.0
 40
0.0
 40
0.0
 40
0.1162401487
 40
0.2339779758
 40
0.3543714899
 40
0.478098162
 40
0.7345387303
 40
1.0
 40
1.0
 40
1.0
 40
1.0
 10
8.2867588104
 20
23.8900358206
 30
0.0
 10
8.2868063369
 20
23.8758860294
 30
0.0
 10
8.2901646245
 20
23.8473130148
 30
0.0
 10
8.3047219775
 20
23.8063529356
 30
0.0
 10
8.3281923974
 20
23.7686810927
 30
0.0
 10
8.3704947942
 20
23.7243187106
 30
0.0
 10
8.4404217114
 20
23.6844857202
 30
0.0
 10
8.5044401784
 20
23.6736108759
 30
0.0
 10
8.5367545796
 20
23.6735294696
 30
0.0
  0
ELLIPSE
  5
528
100
AcDbEntity
  8
RACCORDO
100
AcDbEllipse
 62
7
  6
CONTINUOUS
 10
0.0411138442
 20
20.8043870427
 30
0.0
 11
-0.0
 21
1.0
 31
0.0
 40
0.0087268678
 41
0.0087266463
 42
1.5707963268
  0
ELLIPSE
  5
529
100
AcDbEntity
  8
RACCORDO
100
AcDbEllipse
 62
7
  6
CONTINUOUS
 10
-1.1763398914
 20
20.8043870427
 30
0.0
 11
-0.0
 21
1.0
 31
0.0
 40
0.0087268678
 41
-1.5707963268
 42
-0.0087266463
  0
ELLIPSE
  5
52A
100
AcDbEntity
  8
RACCORDO
100
AcDbEllipse
 62
7
  6
CONTINUOUS
 10
-2.2002164056
 20
-16.1216983647
 30
0.0
 11
-1.0607409467
 21
1.0607409467
 31
0.0
 40
0.9999238505
 41
-3.9269527408
 42
-2.3562325664
  0
ELLIPSE
  5
52B
100
AcDbEntity
  8
RACCORDO
100
AcDbEllipse
 62
7
  6
CONTINUOUS
 10
-2.2002164056
 20
-14.0869051287
 30
0.0
 11
1.0607409467
 21
1.0607409467
 31
0.0
 40
0.9999238505
 41
-0.7853600872
 42
0.7853600872
  0
ELLIPSE
  5
52C
100
AcDbEntity
  8
RACCORDO
100
AcDbEllipse
 62
7
  6
CONTINUOUS
 10
2.2649903584
 20
-14.0869051287
 30
0.0
 11
-1.0607409467
 21
1.0607409467
 31
0.0
 40
0.9999238505
 41
-0.7853600872
 42
0.7853600872
  0
ELLIPSE
  5
52D
100
AcDbEntity
  8
RACCORDO
100
AcDbEllipse
 62
7
  6
CONTINUOUS
 10
2.2649903584
 20
-16.1216983647
 30
0.0
 11
1.0607409467
 21
1.0607409467
 31
0.0
 40
0.9999238505
 41
-3.9269527408
 42
-2.3562325664
  0
ELLIPSE
  5
52E
100
AcDbEntity
  8
RACCORDO
100
AcDbEllipse
 62
7
  6
CONTINUOUS
 10
2.2823869764
 20
-16.0735253403
 30
0.0
 11
0.0
 21
1.0307764064
 31
0.0
 40
0.9701425001
 41
-4.7123889804
 42
-3.1415926536
  0
ELLIPSE
  5
52F
100
AcDbEntity
  8
RACCORDO
100
AcDbEllipse
 62
7
  6
CONTINUOUS
 10
2.2823869764
 20
-14.1350781531
 30
0.0
 11
0.0
 21
1.0307764064
 31
0.0
 40
0.9701425001
 41
0.0
 42
1.5707963268
  0
ELLIPSE
  5
530
100
AcDbEntity
  8
RACCORDO
100
AcDbEllipse
 62
7
  6
CONTINUOUS
 10
-2.2176130236
 20
-14.1350781531
 30
0.0
 11
-0.0
 21
1.0307764064
 31
0.0
 40
0.9701425001
 41
-1.5707963268
 42
0.0
  0
ELLIPSE
  5
531
100
AcDbEntity
  8
RACCORDO
100
AcDbEllipse
 62
7
  6
CONTINUOUS
 10
2.282444094
 20
-16.1042446291
 30
0.0
 11
-1.0607409467
 21
-1.0607409467
 31
0.0
 40
0.9999238505
 41
-0.7853600872
 42
0.7853600872
  0
ELLIPSE
  5
532
100
AcDbEntity
  8
RACCORDO
100
AcDbEllipse
 62
7
  6
CONTINUOUS
 10
2.282444094
 20
-14.1043588643
 30
0.0
 11
-1.0607409467
 21
1.0607409467
 31
0.0
 40
0.9999238505
 41
-0.7853600872
 42
0.7853600872
  0
ELLIPSE
  5
533
100
AcDbEntity
  8
RACCORDO
100
AcDbEllipse
 62
7
  6
CONTINUOUS
 10
-2.2176701412
 20
-14.1043588643
 30
0.0
 11
1.0607409467
 21
1.0607409467
 31
0.0
 40
0.9999238505
 41
-0.7853600872
 42
0.7853600872
  0
ELLIPSE
  5
534
100
AcDbEntity
  8
RACCORDO
100
AcDbEllipse
 62
7
  6
CONTINUOUS
 10
-2.2176701412
 20
-16.1042446291
 30
0.0
 11
1.0607409467
 21
-1.0607409467
 31
0.0
 40
0.9999238505
 41
-0.7853600872
 42
0.7853600872
  0
ELLIPSE
  5
535
100
AcDbEntity
  8
RACCORDO
100
AcDbEllipse
 62
7
  6
CONTINUOUS
 10
-1.1719764575
 20
19.7999855304
 30
0.0
 11
-0.0
 21
2.0
 31
0.0
 40
0.0087268678
 41
-1.5707963268
 42
-0.0087266463
  0
ELLIPSE
  5
536
100
AcDbEntity
  8
RACCORDO
100
AcDbEllipse
 62
7
  6
CONTINUOUS
 10
-1.1632495897
 20
-9.958703259
 30
0.0
 11
0.0
 21
1.0
 31
0.0
 40
0.0087268678
 41
-1.5707963268
 42
-0.0087266463
  0
ELLIPSE
  5
537
100
AcDbEntity
  8
RACCORDO
100
AcDbEllipse
 62
7
  6
CONTINUOUS
 10
0.0367504103
 20
19.7999855304
 30
0.0
 11
-0.0
 21
2.0
 31
0.0
 40
0.0087268678
 41
0.0087266463
 42
1.5707963268
  0
ELLIPSE
  5
538
100
AcDbEntity
  8
RACCORDO
100
AcDbEllipse
 62
7
  6
CONTINUOUS
 10
0.0280235425
 20
-9.958703259
 30
0.0
 11
-0.0
 21
1.0
 31
0.0
 40
0.0087268678
 41
0.0087266463
 42
1.5707963268
  0
ELLIPSE
  5
539
100
AcDbEntity
  8
RACCORDO
100
AcDbEllipse
 62
7
  6
CONTINUOUS
 10
-2.2176130236
 20
-16.0735253403
 30
0.0
 11
-0.0
 21
1.0307764064
 31
0.0
 40
0.9701425001
 41
-3.1415926536
 42
-1.5707963268
  0
ELLIPSE
  5
53A
100
AcDbEntity
  8
RACCORDO
100
AcDbEllipse
 62
7
  6
CONTINUOUS
 10
-2.2176130236
 20
14.2264746597
 30
0.0
 11
-0.0
 21
1.0307764064
 31
0.0
 40
0.9701425001
 41
-3.1415926536
 42
-1.5707963268
  0
ELLIPSE
  5
53B
100
AcDbEntity
  8
RACCORDO
100
AcDbEllipse
 62
7
  6
CONTINUOUS
 10
-2.2176130236
 20
16.1649218469
 30
0.0
 11
-0.0
 21
1.0307764064
 31
0.0
 40
0.9701425001
 41
-1.5707963268
 42
0.0
  0
ELLIPSE
  5
53C
100
AcDbEntity
  8
RACCORDO
100
AcDbEllipse
 62
7
  6
CONTINUOUS
 10
2.2823869764
 20
16.1649218469
 30
0.0
 11
0.0
 21
1.0307764064
 31
0.0
 40
0.9701425001
 41
0.0
 42
1.5707963268
  0
ELLIPSE
  5
53D
100
AcDbEntity
  8
RACCORDO
100
AcDbEllipse
 62
7
  6
CONTINUOUS
 10
2.2823869764
 20
14.2264746597
 30
0.0
 11
-0.0
 21
1.0307764064
 31
0.0
 40
0.9701425001
 41
1.5707963268
 42
3.1415926536
  0
ELLIPSE
  5
53E
100
AcDbEntity
  8
GUSCI_ESTERNI
100
AcDbEllipse
 62
7
  6
CONTINUOUS
 10
-8.6133104343
 20
-13.8543017467
 30
0.0
 11
0.9860557856
 21
0.0
 31
0.0
 40
0.9999904802
 41
1.5751597745
 42
3.1415926536
  0
ELLIPSE
  5
53F
100
AcDbEntity
  8
GUSCI_ESTERNI
100
AcDbEllipse
 62
7
  6
CONTINUOUS
 10
-8.6133104343
 20
13.9456982533
 30
0.0
 11
0.9860557856
 21
-0.0
 31
0.0
 40
0.9999904802
 41
-3.1415926536
 42
-1.5751597745
  0
ELLIPSE
  5
540
100
AcDbEntity
  8
GUSCI_ESTERNI
100
AcDbEllipse
 62
7
  6
CONTINUOUS
 10
-8.6133104343
 20
16.4456982533
 30
0.0
 11
0.9860557856
 21
0.0
 31
0.0
 40
0.9999904802
 41
1.5751597745
 42
3.1415926536
  0
ELLIPSE
  5
541
100
AcDbEntity
  8
GUSCI_ESTERNI
100
AcDbEllipse
 62
7
  6
CONTINUOUS
 10
-8.6133104343
 20
-16.3543017467
 30
0.0
 11
0.9860557856
 21
0.0
 31
0.0
 40
0.9999904802
 41
3.1415926536
 42
4.7080255326
  0
ELLIPSE
  5
542
100
AcDbEntity
  8
GUSCI_ESTERNI
100
AcDbEllipse
 62
7
  6
CONTINUOUS
 10
8.6302202428
 20
16.1956982533
 30
0.0
 11
0.9931323188
 21
0.0
 31
0.0
 40
0.9999976201
 41
6.2831853072
 42
7.8517999153
  0
ELLIPSE
  5
543
100
AcDbEntity
  8
GUSCI_ESTERNI
100
AcDbEllipse
 62
7
  6
CONTINUOUS
 10
8.6302202428
 20
14.1956982533
 30
0.0
 11
0.9931323188
 21
0.0
 31
0.0
 40
0.9999976201
 41
-1.5686146081
 42
0.0
  0
ELLIPSE
  5
544
100
AcDbEntity
  8
GUSCI_ESTERNI
100
AcDbEllipse
 62
7
  6
CONTINUOUS
 10
8.6302202428
 20
-14.1043017467
 30
0.0
 11
0.9931323188
 21
-0.0
 31
0.0
 40
0.9999976201
 41
0.0
 42
1.5686146081
  0
ELLIPSE
  5
545
100
AcDbEntity
  8
GUSCI_ESTERNI
100
AcDbEllipse
 62
7
  6
CONTINUOUS
 10
8.6302202428
 20
-16.1043017467
 30
0.0
 11
0.9931323188
 21
-0.0
 31
0.0
 40
0.9999976201
 41
-1.5686146081
 42
-0.0
  0
ELLIPSE
  5
546
100
AcDbEntity
  8
ASSI
100
AcDbEllipse
 62
7
  6
CONTINUOUS
 10
8.6302202428
 20
-16.1043017467
 30
0.0
 11
0.9931323188
 21
0.0
 31
0.0
 40
0.9999976201
 41
-1.5686146081
 42
-0.0
  0
ELLIPSE
  5
547
100
AcDbEntity
  8
ASSI
100
AcDbEllipse
 62
7
  6
CONTINUOUS
 10
8.6302202428
 20
-14.1043017467
 30
0.0
 11
0.9931323188
 21
0.0
 31
0.0
 40
0.9999976201
 41
0.0
 42
1.5686146081
  0
ELLIPSE
  5
548
100
AcDbEntity
  8
ASSI
100
AcDbEllipse
 62
7
  6
CONTINUOUS
 10
8.6302202428
 20
14.1956982533
 30
0.0
 11
0.9931323188
 21
-0.0
 31
0.0
 40
0.9999976201
 41
4.7145706991
 42
6.2831853072
  0
ELLIPSE
  5
549
100
AcDbEntity
  8
ASSI
100
AcDbEllipse
 62
7
  6
CONTINUOUS
 10
8.6302202428
 20
16.1956982533
 30
0.0
 11
0.9931323188
 21
0.0
 31
0.0
 40
0.9999976201
 41
6.2831853072
 42
7.8517999153
  0
ELLIPSE
  5
54A
100
AcDbEntity
  8
RACCORDO
100
AcDbEllipse
 62
7
  6
CONTINUOUS
 10
8.1006120661
 20
22.4817682182
 30
0.0
 11
0.20090327
 21
0.0027587982
 31
0.0
 40
0.1416374191
 41
-1.6674458463
 42
-1.3711529984
  0
ELLIPSE
  5
54B
100
AcDbEntity
  8
RACCORDO
100
AcDbEllipse
 62
7
  6
CONTINUOUS
 10
8.0823835917
 20
22.6459727225
 30
0.0
 11
-0.0220972656
 21
0.1990550872
 31
0.0
 40
0.9986126811
 41
-2.9557058086
 42
-1.6815068062
  0
ELLIPSE
  5
54C
100
AcDbEntity
  8
RACCORDO
100
AcDbEllipse
 62
7
  6
CONTINUOUS
 10
-8.0358381132
 20
-22.3903717116
 30
0.0
 11
0.20090327
 21
0.0027587982
 31
0.0
 40
0.1416374191
 41
1.4741468073
 42
1.7704396552
  0
ELLIPSE
  5
54D
100
AcDbEntity
  8
RACCORDO
100
AcDbEllipse
 62
7
  6
CONTINUOUS
 10
-8.0176096389
 20
-22.5545762159
 30
0.0
 11
-0.0220972656
 21
0.1990550872
 31
0.0
 40
0.9986126811
 41
0.185886845
 42
1.4600858474
  0
ELLIPSE
  5
54E
100
AcDbEntity
  8
RACCORDO
100
AcDbEllipse
 62
7
  6
CONTINUOUS
 10
8.0823835917
 20
-22.5545762159
 30
0.0
 11
0.0220972656
 21
0.1990550872
 31
0.0
 40
0.9986126811
 41
-1.4600858474
 42
-0.185886845
  0
ELLIPSE
  5
54F
100
AcDbEntity
  8
RACCORDO
100
AcDbEllipse
 62
7
  6
CONTINUOUS
 10
8.1006120661
 20
-22.3903717116
 30
0.0
 11
0.20090327
 21
-0.0027587982
 31
0.0
 40
0.1416374191
 41
1.3711529984
 42
1.6674458463
  0
ELLIPSE
  5
550
100
AcDbEntity
  8
RACCORDO
100
AcDbEllipse
 62
7
  6
CONTINUOUS
 10
-8.0176096389
 20
22.6459727225
 30
0.0
 11
0.0220972656
 21
0.1990550872
 31
0.0
 40
0.9986126811
 41
-4.601678501
 42
-3.3274794986
  0
ELLIPSE
  5
551
100
AcDbEntity
  8
RACCORDO
100
AcDbEllipse
 62
7
  6
CONTINUOUS
 10
-8.0358381132
 20
22.4817682182
 30
0.0
 11
0.20090327
 21
-0.0027587982
 31
0.0
 40
0.1416374191
 41
-1.7704396552
 42
-1.4741468073
  0
ELLIPSE
  5
552
100
AcDbEntity
  8
RACCORDO
100
AcDbEllipse
 62
7
  6
CONTINUOUS
 10
-10.9176130236
 20
-3.3771652991
 30
0.0
 11
0.0
 21
0.7248712197
 31
0.0
 40
0.9656887748
 41
-3.1415926536
 42
-2.9982072934
  0
ELLIPSE
  5
553
100
AcDbEntity
  8
RACCORDO
100
AcDbEllipse
 62
7
  6
CONTINUOUS
 10
-10.9176130236
 20
3.4685618057
 30
0.0
 11
0.0
 21
0.7248712197
 31
0.0
 40
0.9656887748
 41
-0.1433853602
 42
-0.0
  0
ELLIPSE
  5
554
100
AcDbEntity
  8
RACCORDO
100
AcDbEllipse
 62
7
  6
CONTINUOUS
 10
10.9823869764
 20
3.4685618057
 30
0.0
 11
-0.0
 21
0.7248712197
 31
0.0
 40
0.9656887748
 41
-0.0
 42
0.1433853602
  0
ELLIPSE
  5
555
100
AcDbEntity
  8
RACCORDO
100
AcDbEllipse
 62
7
  6
CONTINUOUS
 10
10.9823869764
 20
-3.3771652991
 30
0.0
 11
0.0
 21
0.7248712197
 31
0.0
 40
0.9656887748
 41
-3.2849780138
 42
-3.1415926536
  0
ELLIPSE
  5
556
100
AcDbEntity
  8
RACCORDO
100
AcDbEllipse
 62
7
  6
CONTINUOUS
 10
-9.4744814912
 20
-20.2827223916
 30
0.0
 11
-0.0
 21
0.5
 31
0.0
 40
0.0174550649
 41
-3.1328660073
 42
-1.61767183
  0
ELLIPSE
  5
557
100
AcDbEntity
  8
ASSI
100
AcDbEllipse
 62
7
  6
CONTINUOUS
 10
-4.3239793
 20
23.302056068
 30
0.0
 11
-0.0
 21
0.5
 31
0.0
 40
0.0058178298
 41
-0.149597008
 42
-0.0058177642
  0
ELLIPSE
  5
558
100
AcDbEntity
  8
ASSI
100
AcDbEllipse
 62
7
  6
CONTINUOUS
 10
4.3887532528
 20
23.302056068
 30
0.0
 11
0.0
 21
0.5
 31
0.0
 40
0.0058178298
 41
0.0058177642
 42
0.149597008
  0
ELLIPSE
  5
559
100
AcDbEntity
  8
ASSI
100
AcDbEllipse
 62
7
  6
CONTINUOUS
 10
4.3887532528
 20
-23.2106595614
 30
0.0
 11
-0.0
 21
0.5
 31
0.0
 40
0.0058178298
 41
-3.2911896616
 42
-3.1474104178
  0
ELLIPSE
  5
55A
100
AcDbEntity
  8
ASSI
100
AcDbEllipse
 62
7
  6
CONTINUOUS
 10
-4.3239793
 20
-23.2106595614
 30
0.0
 11
0.0
 21
0.5
 31
0.0
 40
0.0058178298
 41
-3.1357748894
 42
-2.9919956456
  0
ELLIPSE
  5
55B
100
AcDbEntity
  8
RACCORDO
100
AcDbEllipse
 62
7
  6
CONTINUOUS
 10
9.539255444
 20
-20.2827223916
 30
0.0
 11
-0.0
 21
0.5
 31
0.0
 40
0.0174550649
 41
-4.4634352855
 42
-3.1503192998
  0
ELLIPSE
  5
55C
100
AcDbEntity
  8
RACCORDO
100
AcDbEllipse
 62
7
  6
CONTINUOUS
 10
-9.4744814912
 20
20.3741188982
 30
0.0
 11
0.0
 21
0.5
 31
0.0
 40
0.0174550649
 41
-1.5239208236
 42
-0.0087266463
  0
ELLIPSE
  5
55D
100
AcDbEntity
  8
RACCORDO
100
AcDbEllipse
 62
7
  6
CONTINUOUS
 10
9.539255444
 20
20.3741188982
 30
0.0
 11
-0.0
 21
0.5
 31
0.0
 40
0.0174550649
 41
0.0087266463
 42
1.3218426319
  0
ELLIPSE
  5
55E
100
AcDbEntity
  8
RACCORDO
100
AcDbEllipse
 62
7
  6
CONTINUOUS
 10
-8.4676172544
 20
-23.3656266121
 30
0.0
 11
0.0029088041
 21
0.2886641433
 31
0.0
 40
0.8660144118
 41
-1.5591610446
 42
0.0087264124
  0
ELLIPSE
  5
55F
100
AcDbEntity
  8
DRAFT
100
AcDbEllipse
 62
7
  6
CONTINUOUS
 10
3.9603569641
 20
-22.2969485097
 30
0.0
 11
0.4279699877
 21
-0.0
 31
0.0
 40
0.0087268678
 41
0.0058177642
 42
3.1415926536
  0
ELLIPSE
  5
560
100
AcDbEntity
  8
DRAFT
100
AcDbEllipse
 62
7
  6
CONTINUOUS
 10
-3.8955830113
 20
-22.2969485097
 30
0.0
 11
0.4279699877
 21
0.0
 31
0.0
 40
0.0087268678
 41
-0.0
 42
3.1357748894
  0
ELLIPSE
  5
561
100
AcDbEntity
  8
DRAFT
100
AcDbEllipse
 62
7
  6
CONTINUOUS
 10
3.9603569641
 20
22.3883450163
 30
0.0
 11
0.4279699877
 21
0.0
 31
0.0
 40
0.0087268678
 41
-3.1415926536
 42
-0.0058177642
  0
ELLIPSE
  5
562
100
AcDbEntity
  8
DRAFT
100
AcDbEllipse
 62
7
  6
CONTINUOUS
 10
-3.8955830113
 20
22.3883450163
 30
0.0
 11
0.4279699877
 21
0.0
 31
0.0
 40
0.0087268678
 41
-3.1357748894
 42
-0.0
  0
ELLIPSE
  5
563
100
AcDbEntity
  8
RACCORDO
100
AcDbEllipse
 62
7
  6
CONTINUOUS
 10
-10.3676087927
 20
-23.3656266121
 30
0.0
 11
-0.0029088041
 21
0.2886641433
 31
0.0
 40
0.8660144118
 41
-0.0087264124
 42
1.5591610446
  0
ELLIPSE
  5
564
100
AcDbEntity
  8
RACCORDO
100
AcDbEllipse
 62
7
  6
CONTINUOUS
 10
-10.6000817946
 20
21.9544060819
 30
0.0
 11
0.4473055582
 21
0.2236357461
 31
0.0
 40
0.9998096356
 41
1.1071030277
 42
1.3309505
  0
ELLIPSE
  5
565
100
AcDbEntity
  8
RACCORDO
100
AcDbEllipse
 62
7
  6
CONTINUOUS
 10
-10.6175368596
 20
21.9456792141
 30
0.0
 11
0.4473055582
 21
0.2236357461
 31
0.0
 40
0.9998096356
 41
1.1071030277
 42
2.6780516535
  0
ELLIPSE
  5
566
100
AcDbEntity
  8
RACCORDO
100
AcDbEllipse
 62
7
  6
CONTINUOUS
 10
-10.6000817946
 20
-21.8630095753
 30
0.0
 11
0.4473055582
 21
-0.2236357461
 31
0.0
 40
0.9998096356
 41
-1.3309505
 42
-1.1071030277
  0
ELLIPSE
  5
567
100
AcDbEntity
  8
RACCORDO
100
AcDbEllipse
 62
7
  6
CONTINUOUS
 10
10.4323827456
 20
-23.3656266121
 30
0.0
 11
0.0029088041
 21
0.2886641433
 31
0.0
 40
0.8660144118
 41
-1.5591610446
 42
0.0087264124
  0
ELLIPSE
  5
568
100
AcDbEntity
  8
RACCORDO
100
AcDbEllipse
 62
7
  6
CONTINUOUS
 10
10.6648557475
 20
21.9544060819
 30
0.0
 11
0.4473055582
 21
-0.2236357461
 31
0.0
 40
0.9998096356
 41
1.8106421536
 42
2.0344896259
  0
ELLIPSE
  5
569
100
AcDbEntity
  8
RACCORDO
100
AcDbEllipse
 62
7
  6
CONTINUOUS
 10
10.6648557475
 20
-21.8630095753
 30
0.0
 11
0.4473055582
 21
0.2236357461
 31
0.0
 40
0.9998096356
 41
-2.0344896259
 42
-1.8106421536
  0
ELLIPSE
  5
56A
100
AcDbEntity
  8
RACCORDO
100
AcDbEllipse
 62
7
  6
CONTINUOUS
 10
10.6823108124
 20
-21.8542827075
 30
0.0
 11
-0.4473055582
 21
-0.2236357461
 31
0.0
 40
0.9998096356
 41
1.1071030277
 42
2.6780516535
  0
ELLIPSE
  5
56B
100
AcDbEntity
  8
RACCORDO
100
AcDbEllipse
 62
7
  6
CONTINUOUS
 10
8.5323912073
 20
-23.3656266121
 30
0.0
 11
-0.0029088041
 21
0.2886641433
 31
0.0
 40
0.8660144118
 41
-0.0087264124
 42
1.5591610446
  0
ELLIPSE
  5
56C
100
AcDbEntity
  8
RACCORDO
100
AcDbEllipse
 62
7
  6
CONTINUOUS
 10
10.6823108124
 20
21.9456792141
 30
0.0
 11
0.4473055582
 21
-0.2236357461
 31
0.0
 40
0.9998096356
 41
6.7467263073
 42
8.3176749331
  0
ELLIPSE
  5
56D
100
AcDbEntity
  8
RACCORDO
100
AcDbEllipse
 62
7
  6
CONTINUOUS
 10
-10.6175368596
 20
-21.8542827075
 30
0.0
 11
-0.4473055582
 21
0.2236357461
 31
0.0
 40
0.9998096356
 41
6.7467263073
 42
8.3176749331
  0
ELLIPSE
  5
56E
100
AcDbEntity
  8
RACCORDO
100
AcDbEllipse
 62
7
  6
CONTINUOUS
 10
-10.3676087927
 20
23.4570231187
 30
0.0
 11
0.0029088041
 21
0.2886641433
 31
0.0
 40
0.8660144118
 41
-4.7007536982
 42
-3.1328662411
  0
ELLIPSE
  5
56F
100
AcDbEntity
  8
RACCORDO
100
AcDbEllipse
 62
7
  6
CONTINUOUS
 10
-8.4676172544
 20
23.4570231187
 30
0.0
 11
-0.0029088041
 21
0.2886641433
 31
0.0
 40
0.8660144118
 41
-3.150319066
 42
-1.582431609
  0
ELLIPSE
  5
570
100
AcDbEntity
  8
RACCORDO
100
AcDbEllipse
 62
7
  6
CONTINUOUS
 10
10.4323827456
 20
23.4570231187
 30
0.0
 11
-0.0029088041
 21
0.2886641433
 31
0.0
 40
0.8660144118
 41
-3.150319066
 42
-1.582431609
  0
ELLIPSE
  5
571
100
AcDbEntity
  8
RACCORDO
100
AcDbEllipse
 62
7
  6
CONTINUOUS
 10
8.5323912073
 20
23.4570231187
 30
0.0
 11
0.0029088041
 21
0.2886641433
 31
0.0
 40
0.8660144118
 41
-4.7007536982
 42
-3.1328662411
  0
ENDSEC
  0
SECTION
  2
OBJECTS
  0
DICTIONARY
  5
C
100
AcDbDictionary
280
0
281
1
  3
ACAD_GROUP
350
D
  3
ACAD_MLINESTYLE
350
17
  3
ACAD_LAYOUT
350
1A
  3
ACAD_PLOTSETTINGS
350
19
  3
ACAD_PLOTSTYLENAME
350
E
  0
DICTIONARY
  5
D
102
{ACAD_REACTORS
330
C
102
}
100
AcDbDictionary
280
0
281
1
  0
ACDBDICTIONARYWDFLT
  5
E
102
{ACAD_REACTORS
330
C
102
}
100
AcDbDictionary
281
1
  3
Normal
350
F
100
AcDbDictionaryWithDefault
340
F
  0
DICTIONARY
  5
17
102
{ACAD_REACTORS
330
C
102
}
100
AcDbDictionary
280
0
281
1
  3
Standard
350
18
  0
DICTIONARY
  5
19
102
{ACAD_REACTORS
330
C
102
}
100
AcDbDictionary
281
1
  0
DICTIONARY
  5
1A
102
{ACAD_REACTORS
330
C
102
}
100
AcDbDictionary
281
1
  3
Model
350
572
  3
Layout1
350
573
  0
ACDBPLACEHOLDER
  5
F
102
{ACAD_REACTORS
330
E
102
}
  0
MLINESTYLE
  5
18
102
{ACAD_REACTORS
330
17
102
}
100
AcDbMlineStyle
  2
STANDARD
 70
0
  3

 62
256
 51
90.0
 52
90.0
 71
2
 49
0.5
 62
256
  6
BYLAYER
 49
-0.5
 62
256
  6
BYLAYER
  0
LAYOUT
  5
572
102
{ACAD_REACTORS
330
1A
102
}
100
AcDbPlotSettings
  1

  2
none_device
  4
ISO_A4_(297.00_x_210.00_MM)
  6

 40
0.0
 41
0.0
 42
0.0
 43
0.0
 44
297.0
 45
210.0
 46
0.0
 47
0.0
 48
0.0
 49
0.0
140
0.0
141
0.0
142
1.0
143
1.0
 70
1024
 72
1
 73
0
 74
0
  7

 75
0
147
1.0
148
0.0
149
0.0
100
AcDbLayout
  1
Model
 70
0
 71
0
 10
0.0
 20
0.0
 11
297.0
 21
210.0
 12
0.0
 22
0.0
 32
0.0
 14
0.0
 24
0.0
 34
0.0
 15
0.0
 25
0.0
 35
0.0
146
0.0
 13
0.0
 23
0.0
 33
0.0
 16
1.0
 26
0.0
 36
0.0
 17
0.0
 27
1.0
 37
0.0
 76
0
330
220
345
0
346
0
  0
LAYOUT
  5
573
102
{ACAD_REACTORS
330
1A
102
}
100
AcDbPlotSettings
  1

  2
none_device
  4
ISO_A4_(297.00_x_210.00_MM)
  6

 40
0.0
 41
0.0
 42
0.0
 43
0.0
 44
297.0
 45
210.0
 46
0.0
 47
0.0
 48
0.0
 49
0.0
140
0.0
141
0.0
142
1.0
143
1.0
 70
0
 72
1
 73
0
 74
0
  7

 75
0
147
1.0
148
0.0
149
0.0
100
AcDbLayout
  1
Layout1
 70
0
 71
1
 10
0.0
 20
0.0
 11
297.0
 21
210.0
 12
0.0
 22
0.0
 32
0.0
 14
0.0
 24
0.0
 34
0.0
 15
0.0
 25
0.0
 35
0.0
146
0.0
 13
0.0
 23
0.0
 33
0.0
 16
1.0
 26
0.0
 36
0.0
 17
0.0
 27
1.0
 37
0.0
 76
0
330
221
345
0
346
0
  0
ENDSEC
  0
EOF
