  0
SECTION
  2
HEADER
  9
$ACADVER
  1
AC1024
  9
$DWGCODEPAGE
  3
ANSI_1252
  9
$EXTMAX
 10
297.0
 20
210.0
 30
0.0
  9
$EXTMIN
 10
0.0
 20
0.0
 30
0.0
  9
$LIMMIN
 10
0.0
 20
0.0
  9
$LIMMAX
 10
297.0
 20
210.0
  9
$VIEWCTR
 10
148.5
 20
105.0
  9
$VIEWSIZE
 40
210.0
  9
$CLAYER
  8
0
  9
$LTSCALE
 40
16.335
  9
$CELTYPE
  6
BYLAYER
  9
$DIMSCALE
 40
1.0
  9
$DIMASZ
 40
3.0
  9
$DIMEXO
 40
0.5
  9
$DIMDLI
 40
11.286
  9
$DIMEXE
 40
1.5
  9
$DIMCEN
 40
2.673
  9
$DIMLFAC
 40
1.0
  9
$DIMBLK
  1
_FILLED
  9
$DIMALT
 70
0
  9
$DIMALTF
 40
0.0393700787
  9
$DIMTXT
 40
3.0
  9
$DIMTOL
 70
1
  9
$DIMLIM
 70
0
  9
$DIMTFAC
 40
1.0
  9
$DIMTP
 40
0.01
  9
$DIMTM
 40
0.01
  9
$DIMGAP
 40
0.625
  9
$DIMDSEP
 70
44
  9
$AUNITS
 70
0
  9
$PDMODE
 70
3
  9
$PDSIZE
 40
3.0
  9
$HANDSEED
  5
8E0
  9
$TILEMODE
 70
1
  9
$MEASUREMENT
 70
1
  9
$INSUNITS
 70
4
  0
ENDSEC
  0
SECTION
  2
CLASSES
  0
CLASS
  1
ACDBDICTIONARYWDFLT
  2
AcDbDictionaryWithDefault
  3
AutoCAD 2000
 90
0
 91
1
280
0
281
0
  0
CLASS
  1
ACDBPLACEHOLDER
  2
AcDbPlaceHolder
  3
AutoCAD 2000
 90
0
 91
1
280
0
281
0
  0
CLASS
  1
LAYOUT
  2
AcDbLayout
  3
AutoCAD 2000
 90
0
 91
0
280
0
281
0
  0
ENDSEC
  0
SECTION
  2
TABLES
  0
TABLE
  2
VPORT
  5
8
100
AcDbSymbolTable
 70
2
  0
VPORT
  5
1F4
100
AcDbSymbolTableRecord
100
AcDbViewportTableRecord
  2
*ACTIVE
 70
0
 10
0.0
 20
0.0
 11
1.0
 21
1.0
 12
148.5
 22
105.0
 13
0.0
 23
0.0
 14
1.0
 24
1.0
 15
0.0
 25
0.0
 16
0.0
 26
0.0
 36
1.0
 17
0.0
 27
0.0
 37
0.0
 40
210.0
 41
1.4142857143
 42
50.0
 43
0.0
 44
0.0
 50
0.0
 51
0.0
 71
0
 72
100
 73
1
 74
1
 75
0
 76
0
 77
0
 78
0
  0
ENDTAB
  0
TABLE
  2
LTYPE
  5
5
100
AcDbSymbolTable
 70
6
  0
LTYPE
  5
14
100
AcDbSymbolTableRecord
100
AcDbLinetypeTableRecord
  2
BYBLOCK
 70
0
  3

 72
65
 73
0
 40
0.0
  0
LTYPE
  5
15
100
AcDbSymbolTableRecord
100
AcDbLinetypeTableRecord
  2
BYLAYER
 70
0
  3

 72
65
 73
0
 40
0.0
  0
LTYPE
  5
16
100
AcDbSymbolTableRecord
100
AcDbLinetypeTableRecord
  2
CONTINUOUS
 70
64
  3
Solid line
 72
65
 73
0
 40
0.0
  0
LTYPE
  5
1F5
100
AcDbSymbolTableRecord
100
AcDbLinetypeTableRecord
  2
CENTER
 70
64
  3
____ _ ____ _ ____ _ ____ _ ____ _ ____ _ ____
 72
65
 73
4
 40
0.6
 49
0.375
 74
0
 49
-0.075
 74
0
 49
0.075
 74
0
 49
-0.075
 74
0
  0
LTYPE
  5
1F6
100
AcDbSymbolTableRecord
100
AcDbLinetypeTableRecord
  2
HIDDEN
 70
64
  3
- - - - - - - - - - - - - - - - - - - -
 72
65
 73
2
 40
0.2
 49
0.1
 74
0
 49
-0.1
 74
0
  0
LTYPE
  5
1F7
100
AcDbSymbolTableRecord
100
AcDbLinetypeTableRecord
  2
PHANTOM
 70
64
  3
_____ _ _ _____ _ _ _____ _ _ _____
 72
65
 73
6
 40
0.8
 49
0.45
 74
0
 49
-0.05
 74
0
 49
0.1
 74
0
 49
-0.05
 74
0
 49
0.1
 74
0
 49
-0.05
 74
0
  0
LTYPE
  5
1F8
100
AcDbSymbolTableRecord
100
AcDbLinetypeTableRecord
  2
DOT
 70
64
  3
. . . . . . . . . . . . . . . . . . . .
 72
65
 73
2
 40
0.2
 49
0.1
 74
0
 49
-0.1
 74
0
  0
LTYPE
  5
1F9
100
AcDbSymbolTableRecord
100
AcDbLinetypeTableRecord
  2
DASHED
 70
64
  3
- - - - - - - - - - - - - - - - - - - -
 72
65
 73
2
 40
0.2
 49
0.1
 74
0
 49
-0.1
 74
0
  0
ENDTAB
  0
TABLE
  2
LAYER
  5
2
100
AcDbSymbolTable
 70
36
  0
LAYER
  5
10
100
AcDbSymbolTableRecord
100
AcDbLayerTableRecord
  2
0
 70
0
 62
7
  6
CONTINUOUS
370
-3
390
F
  0
LAYER
  5
1FA
100
AcDbSymbolTableRecord
100
AcDbLayerTableRecord
  2
DEFAULT_1
 70
0
 62
7
  6
CENTER
370
-3
390
F
  0
LAYER
  5
1FB
100
AcDbSymbolTableRecord
100
AcDbLayerTableRecord
  2
DEFAULT_2
 70
0
 62
7
  6
HIDDEN
370
-3
390
F
  0
LAYER
  5
1FC
100
AcDbSymbolTableRecord
100
AcDbLayerTableRecord
  2
DEFAULT_3
 70
0
 62
7
  6
PHANTOM
370
-3
390
F
  0
LAYER
  5
1FD
100
AcDbSymbolTableRecord
100
AcDbLayerTableRecord
  2
43000196B0
 70
0
 62
7
  6
CONTINUOUS
370
-3
390
F
  0
LAYER
  5
1FE
100
AcDbSymbolTableRecord
100
AcDbLayerTableRecord
  2
ASSI
 70
0
 62
7
  6
CONTINUOUS
370
-3
390
F
  0
LAYER
  5
1FF
100
AcDbSymbolTableRecord
100
AcDbLayerTableRecord
  2
CAVI
 70
0
 62
7
  6
CONTINUOUS
370
-3
390
F
  0
LAYER
  5
200
100
AcDbSymbolTableRecord
100
AcDbLayerTableRecord
  2
COLOR5
 70
0
 62
7
  6
CONTINUOUS
370
-3
390
F
  0
LAYER
  5
201
100
AcDbSymbolTableRecord
100
AcDbLayerTableRecord
  2
COLOR7
 70
0
 62
7
  6
CONTINUOUS
370
-3
390
F
  0
LAYER
  5
202
100
AcDbSymbolTableRecord
100
AcDbLayerTableRecord
  2
COLORE
 70
0
 62
7
  6
CONTINUOUS
370
-3
390
F
  0
LAYER
  5
203
100
AcDbSymbolTableRecord
100
AcDbLayerTableRecord
  2
COORDINATE
 70
0
 62
7
  6
CONTINUOUS
370
-3
390
F
  0
LAYER
  5
204
100
AcDbSymbolTableRecord
100
AcDbLayerTableRecord
  2
COORD_ORIGINE
 70
0
 62
7
  6
CONTINUOUS
370
-3
390
F
  0
LAYER
  5
205
100
AcDbSymbolTableRecord
100
AcDbLayerTableRecord
  2
COPY_PUBLISH
 70
0
 62
7
  6
CONTINUOUS
370
-3
390
F
  0
LAYER
  5
206
100
AcDbSymbolTableRecord
100
AcDbLayerTableRecord
  2
COSMETIC
 70
0
 62
7
  6
CONTINUOUS
370
-3
390
F
  0
LAYER
  5
207
100
AcDbSymbolTableRecord
100
AcDbLayerTableRecord
  2
CURVE
 70
0
 62
7
  6
CONTINUOUS
370
-3
390
F
  0
LAYER
  5
208
100
AcDbSymbolTableRecord
100
AcDbLayerTableRecord
  2
DRAFT
 70
0
 62
7
  6
CONTINUOUS
370
-3
390
F
  0
LAYER
  5
209
100
AcDbSymbolTableRecord
100
AcDbLayerTableRecord
  2
IMPORT_IGES
 70
0
 62
7
  6
CONTINUOUS
370
-3
390
F
  0
LAYER
  5
20A
100
AcDbSymbolTableRecord
100
AcDbLayerTableRecord
  2
IMPORT_SCRITTE
 70
0
 62
7
  6
CONTINUOUS
370
-3
390
F
  0
LAYER
  5
20B
100
AcDbSymbolTableRecord
100
AcDbLayerTableRecord
  2
INTF_1
 70
0
 62
7
  6
CONTINUOUS
370
-3
390
F
  0
LAYER
  5
20C
100
AcDbSymbolTableRecord
100
AcDbLayerTableRecord
  2
INTF_YELLOW
 70
0
 62
7
  6
CONTINUOUS
370
-3
390
F
  0
LAYER
  5
20D
100
AcDbSymbolTableRecord
100
AcDbLayerTableRecord
  2
NOTE
 70
0
 62
7
  6
CONTINUOUS
370
-3
390
F
  0
LAYER
  5
20E
100
AcDbSymbolTableRecord
100
AcDbLayerTableRecord
  2
PIANI
 70
0
 62
7
  6
CONTINUOUS
370
-3
390
F
  0
LAYER
  5
20F
100
AcDbSymbolTableRecord
100
AcDbLayerTableRecord
  2
PIANI_ORIGINE
 70
0
 62
7
  6
CONTINUOUS
370
-3
390
F
  0
LAYER
  5
210
100
AcDbSymbolTableRecord
100
AcDbLayerTableRecord
  2
PIANI_RIFERIMENTO
 70
0
 62
7
  6
CONTINUOUS
370
-3
390
F
  0
LAYER
  5
211
100
AcDbSymbolTableRecord
100
AcDbLayerTableRecord
  2
PIANI_SFORMI
 70
0
 62
7
  6
CONTINUOUS
370
-3
390
F
  0
LAYER
  5
212
100
AcDbSymbolTableRecord
100
AcDbLayerTableRecord
  2
PRECARICO_MOLLA
 70
0
 62
7
  6
CONTINUOUS
370
-3
390
F
  0
LAYER
  5
213
100
AcDbSymbolTableRecord
100
AcDbLayerTableRecord
  2
PUNTI
 70
0
 62
7
  6
CONTINUOUS
370
-3
390
F
  0
LAYER
  5
214
100
AcDbSymbolTableRecord
100
AcDbLayerTableRecord
  2
RACCORDO
 70
0
 62
7
  6
CONTINUOUS
370
-3
390
F
  0
LAYER
  5
215
100
AcDbSymbolTableRecord
100
AcDbLayerTableRecord
  2
RGB____0____0____0__
 70
0
 62
7
  6
CONTINUOUS
370
-3
390
F
  0
LAYER
  5
216
100
AcDbSymbolTableRecord
100
AcDbLayerTableRecord
  2
SMUSSO
 70
0
 62
7
  6
CONTINUOUS
370
-3
390
F
  0
LAYER
  5
217
100
AcDbSymbolTableRecord
100
AcDbLayerTableRecord
  2
SUPERFICI
 70
0
 62
7
  6
CONTINUOUS
370
-3
390
F
  0
LAYER
  5
218
100
AcDbSymbolTableRecord
100
AcDbLayerTableRecord
  2
TRASH
 70
0
 62
7
  6
CONTINUOUS
370
-3
390
F
  0
LAYER
  5
219
100
AcDbSymbolTableRecord
100
AcDbLayerTableRecord
  2
VARIE
 70
0
 62
7
  6
CONTINUOUS
370
-3
390
F
  0
LAYER
  5
21A
100
AcDbSymbolTableRecord
100
AcDbLayerTableRecord
  2
XSEC_DATUMS
 70
0
 62
7
  6
CONTINUOUS
370
-3
390
F
  0
ENDTAB
  0
TABLE
  2
STYLE
  5
3
100
AcDbSymbolTable
 70
1
  0
STYLE
  5
11
100
AcDbSymbolTableRecord
100
AcDbTextStyleTableRecord
  2
STANDARD
 70
0
 40
0.0
 41
0.8
 50
0.0
 71
0
 42
0.2
  3
txt
  4

  0
STYLE
  5
21B
100
AcDbSymbolTableRecord
100
AcDbTextStyleTableRecord
  2
TEXTSTYLE_1
 70
0
 40
0.0
 41
0.8
 50
0.0
 71
0
 42
0.2
  3
gdt
  4

  0
ENDTAB
  0
TABLE
  2
VIEW
  5
6
100
AcDbSymbolTable
 70
0
  0
ENDTAB
  0
TABLE
  2
UCS
  5
7
100
AcDbSymbolTable
 70
0
  0
ENDTAB
  0
TABLE
  2
APPID
  5
9
100
AcDbSymbolTable
 70
1
  0
APPID
  5
21C
100
AcDbSymbolTableRecord
100
AcDbRegAppTableRecord
  2
ACAD
 70
0
  0
ENDTAB
  0
TABLE
  2
BLOCK_RECORD
  5
1
100
AcDbSymbolTable
 70
0
  0
BLOCK_RECORD
  5
21D
100
AcDbSymbolTableRecord
100
AcDbBlockTableRecord
  2
*Model_Space
  0
BLOCK_RECORD
  5
21E
100
AcDbSymbolTableRecord
100
AcDbBlockTableRecord
  2
*Paper_Space
  0
BLOCK_RECORD
  5
21F
100
AcDbSymbolTableRecord
100
AcDbBlockTableRecord
  2
_FILLED
  0
ENDTAB
  0
TABLE
  2
DIMSTYLE
  5
A
100
AcDbSymbolTable
 70
1
100
AcDbDimStyleTable
 71
0
  0
DIMSTYLE
105
220
100
AcDbSymbolTableRecord
100
AcDbDimStyleTableRecord
  2
STANDARD
 70
0
  3

  4

 40
1.0
 41
3.0
 42
0.5
 43
0.38
 44
1.5
 45
0.0
 46
0.0
 47
0.01
 48
0.01
140
3.0
141
0.09
142
0.0
143
25.4
144
1.0
145
0.0
146
1.0
147
0.625
 71
1.0
 72
0.0
 73
0
 74
0
 75
0
 76
0
 77
1
 78
8
 79
2
170
0
171
1
172
0
173
0
174
0
175
0
176
0
177
0
178
0
270
2
179
2
271
2
272
2
273
2
274
2
275
0
280
0
281
0
282
0
283
1
284
8
285
0
286
0
287
3
288
0
340
11
278
44
341
21F
342
21F
343
21F
344
21F
  0
ENDTAB
  0
ENDSEC
  0
SECTION
  2
BLOCKS
  0
BLOCK
  5
20
100
AcDbEntity
  8
0
100
AcDbBlockBegin
  2
*Model_Space
 70
0
 10
0.0
 20
0.0
 30
0.0
  3
*Model_Space
  1

  0
ENDBLK
  5
21
100
AcDbEntity
  8
0
100
AcDbBlockEnd
  0
BLOCK
  5
1C
100
AcDbEntity
  8
0
100
AcDbBlockBegin
  2
*Paper_Space
 70
0
 10
0.0
 20
0.0
 30
0.0
  3
*Paper_Space
  1

  0
ENDBLK
  5
1D
100
AcDbEntity
  8
0
100
AcDbBlockEnd
  0
BLOCK
  5
221
100
AcDbEntity
  8
0
100
AcDbBlockBegin
  2
_FILLED
 70
64
 10
0.0
 20
0.0
  3
_FILLED
  1

  0
SOLID
  5
222
100
AcDbEntity
  8
0
  6
BYBLOCK
 62
0
100
AcDbTrace
 10
0.0
 20
0.0
 11
-1.0
 21
0.3166666667
 12
-1.0
 22
-0.3166666667
 13
-1.0
 23
-0.3166666667
  0
ENDBLK
  5
223
100
AcDbEntity
  8
0
  6
BYBLOCK
 62
0
100
AcDbBlockEnd
  0
ENDSEC
  0
SECTION
  2
ENTITIES
  0
LINE
  5
224
100
AcDbEntity
  8
RACCORDO
100
AcDbLine
 62
7
  6
CONTINUOUS
 10
-22.1
 20
19.1
 11
-19.6255307198
 21
21.5744692802
  0
LINE
  5
225
100
AcDbEntity
  8
DRAFT
100
AcDbLine
 62
7
  6
CONTINUOUS
 10
-22.4226915844
 20
18.6273084156
 11
-22.1
 21
18.95
  0
LINE
  5
226
100
AcDbEntity
  8
ASSI
100
AcDbLine
 62
7
  6
CONTINUOUS
 10
-22.4226915844
 20
18.6273084156
 11
-22.1
 21
18.95
  0
LINE
  5
227
100
AcDbEntity
  8
RACCORDO
100
AcDbLine
 62
7
  6
CONTINUOUS
 10
-19.3228896109
 20
21.5771103891
 11
-18.5087268678
 21
22.3912731322
  0
LINE
  5
228
100
AcDbEntity
  8
ASSI
100
AcDbLine
 62
7
  6
CONTINUOUS
 10
-19.3228896109
 20
21.5771103891
 11
-18.5087268678
 21
22.3912731322
  0
LINE
  5
229
100
AcDbEntity
  8
RACCORDO
100
AcDbLine
 62
7
  6
CONTINUOUS
 10
-19.6255307198
 20
-21.5744692802
 11
-20.9
 21
-20.3
  0
LINE
  5
22A
100
AcDbEntity
  8
0
100
AcDbLine
 62
7
  6
CONTINUOUS
 10
-20.9
 20
-20.3
 11
-22.1
 21
-19.1
  0
LINE
  5
22B
100
AcDbEntity
  8
DRAFT
100
AcDbLine
 62
7
  6
CONTINUOUS
 10
-22.1
 20
-18.95
 11
-22.4226915844
 21
-18.6273084156
  0
LINE
  5
22C
100
AcDbEntity
  8
ASSI
100
AcDbLine
 62
7
  6
CONTINUOUS
 10
-22.1
 20
-18.95
 11
-22.4226915844
 21
-18.6273084156
  0
LINE
  5
22D
100
AcDbEntity
  8
RACCORDO
100
AcDbLine
 62
7
  6
CONTINUOUS
 10
-18.5087268678
 20
-22.3912731322
 11
-19.3228896109
 21
-21.5771103891
  0
LINE
  5
22E
100
AcDbEntity
  8
ASSI
100
AcDbLine
 62
7
  6
CONTINUOUS
 10
-18.5087268678
 20
-22.3912731322
 11
-19.3228896109
 21
-21.5771103891
  0
LINE
  5
22F
100
AcDbEntity
  8
RACCORDO
100
AcDbLine
 62
250
  6
CONTINUOUS
 10
-21.6456323968
 20
-24.495628166
 11
-19.7543676032
 21
-24.495628166
  0
LINE
  5
230
100
AcDbEntity
  8
ASSI
100
AcDbLine
 62
7
  6
CONTINUOUS
 10
-21.6456323968
 20
-24.495628166
 11
-19.7543676032
 21
-24.495628166
  0
LINE
  5
231
100
AcDbEntity
  8
RACCORDO
100
AcDbLine
 62
250
  6
CONTINUOUS
 10
-2.7456323968
 20
-24.495628166
 11
-0.8543676032
 21
-24.495628166
  0
LINE
  5
232
100
AcDbEntity
  8
ASSI
100
AcDbLine
 62
7
  6
CONTINUOUS
 10
-2.7456323968
 20
-24.495628166
 11
-0.8543676032
 21
-24.495628166
  0
LINE
  5
233
100
AcDbEntity
  8
RACCORDO
100
AcDbLine
 62
250
  6
CONTINUOUS
 10
0.8543676032
 20
-24.495628166
 11
2.7456323968
 21
-24.495628166
  0
LINE
  5
234
100
AcDbEntity
  8
ASSI
100
AcDbLine
 62
7
  6
CONTINUOUS
 10
0.8543676032
 20
-24.495628166
 11
2.7456323968
 21
-24.495628166
  0
LINE
  5
235
100
AcDbEntity
  8
RACCORDO
100
AcDbLine
 62
250
  6
CONTINUOUS
 10
19.7543676032
 20
-24.495628166
 11
21.6456323968
 21
-24.495628166
  0
LINE
  5
236
100
AcDbEntity
  8
ASSI
100
AcDbLine
 62
7
  6
CONTINUOUS
 10
19.7543676032
 20
-24.495628166
 11
21.6456323968
 21
-24.495628166
  0
LINE
  5
237
100
AcDbEntity
  8
RACCORDO
100
AcDbLine
 62
250
  6
CONTINUOUS
 10
0.604371834
 20
-24.2456323968
 11
2.995628166
 21
-24.2456323968
  0
LINE
  5
238
100
AcDbEntity
  8
ASSI
100
AcDbLine
 62
250
  6
CONTINUOUS
 10
0.604371834
 20
-24.2456323968
 11
2.995628166
 21
-24.2456323968
  0
LINE
  5
239
100
AcDbEntity
  8
RACCORDO
100
AcDbLine
 62
250
  6
CONTINUOUS
 10
-0.604371834
 20
-24.2456323968
 11
-2.995628166
 21
-24.2456323968
  0
LINE
  5
23A
100
AcDbEntity
  8
ASSI
100
AcDbLine
 62
250
  6
CONTINUOUS
 10
-0.604371834
 20
-24.2456323968
 11
-2.995628166
 21
-24.2456323968
  0
LINE
  5
23B
100
AcDbEntity
  8
RACCORDO
100
AcDbLine
 62
250
  6
CONTINUOUS
 10
19.504371834
 20
-24.2456323968
 11
21.895628166
 21
-24.2456323968
  0
LINE
  5
23C
100
AcDbEntity
  8
ASSI
100
AcDbLine
 62
250
  6
CONTINUOUS
 10
19.504371834
 20
-24.2456323968
 11
21.895628166
 21
-24.2456323968
  0
LINE
  5
23D
100
AcDbEntity
  8
RACCORDO
100
AcDbLine
 62
250
  6
CONTINUOUS
 10
-19.504371834
 20
-24.2456323968
 11
-21.895628166
 21
-24.2456323968
  0
LINE
  5
23E
100
AcDbEntity
  8
ASSI
100
AcDbLine
 62
250
  6
CONTINUOUS
 10
-19.504371834
 20
-24.2456323968
 11
-21.895628166
 21
-24.2456323968
  0
LINE
  5
23F
100
AcDbEntity
  8
DRAFT
100
AcDbLine
 62
7
  6
CONTINUOUS
 10
-22.4226915844
 20
11.5
 11
-22.2987606234
 21
4.1477347721
  0
LINE
  5
240
100
AcDbEntity
  8
ASSI
100
AcDbLine
 62
7
  6
CONTINUOUS
 10
-22.4226915844
 20
11.5
 11
-22.2987606234
 21
4.1477347721
  0
LINE
  5
241
100
AcDbEntity
  8
RACCORDO
100
AcDbLine
 62
250
  6
CONTINUOUS
 10
-21.895628166
 20
-23.8443375673
 11
-21.9
 21
-23.4104851482
  0
LINE
  5
242
100
AcDbEntity
  8
ASSI
100
AcDbLine
 62
250
  6
CONTINUOUS
 10
-21.895628166
 20
-23.8443375673
 11
-21.9
 21
-23.4104851482
  0
LINE
  5
243
100
AcDbEntity
  8
RACCORDO
100
AcDbLine
 62
250
  6
CONTINUOUS
 10
-21.6456323968
 20
-23.6278312164
 11
-21.6507229979
 21
-23.1226497308
  0
LINE
  5
244
100
AcDbEntity
  8
ASSI
100
AcDbLine
 62
250
  6
CONTINUOUS
 10
-21.6456323968
 20
-23.6278312164
 11
-21.6507229979
 21
-23.1226497308
  0
LINE
  5
245
100
AcDbEntity
  8
DRAFT
100
AcDbLine
 62
7
  6
CONTINUOUS
 10
-22.4226915844
 20
-18.6273084156
 11
-22.4226915844
 21
-11.5
  0
LINE
  5
246
100
AcDbEntity
  8
ASSI
100
AcDbLine
 62
7
  6
CONTINUOUS
 10
-22.4226915844
 20
-18.6273084156
 11
-22.4226915844
 21
-11.5
  0
LINE
  5
247
100
AcDbEntity
  8
DRAFT
100
AcDbLine
 62
7
  6
CONTINUOUS
 10
-22.4226915844
 20
11.5
 11
-22.4226915844
 21
18.6273084156
  0
LINE
  5
248
100
AcDbEntity
  8
ASSI
100
AcDbLine
 62
7
  6
CONTINUOUS
 10
-22.4226915844
 20
11.5
 11
-22.4226915844
 21
18.6273084156
  0
LINE
  5
249
100
AcDbEntity
  8
RACCORDO
100
AcDbLine
 62
7
  6
CONTINUOUS
 10
-22.4
 20
-21.9411874598
 11
-22.4
 21
-18.65
  0
LINE
  5
24A
100
AcDbEntity
  8
ASSI
100
AcDbLine
 62
7
  6
CONTINUOUS
 10
-22.4
 20
-21.9411874598
 11
-22.4
 21
-18.65
  0
LINE
  5
24B
100
AcDbEntity
  8
RACCORDO
100
AcDbLine
 62
7
  6
CONTINUOUS
 10
-22.4
 20
18.65
 11
-22.4
 21
21.9411874598
  0
LINE
  5
24C
100
AcDbEntity
  8
ASSI
100
AcDbLine
 62
7
  6
CONTINUOUS
 10
-22.4
 20
18.65
 11
-22.4
 21
21.9411874598
  0
LINE
  5
24D
100
AcDbEntity
  8
DRAFT
100
AcDbLine
 62
7
  6
CONTINUOUS
 10
-22.2987606234
 20
-4.1477347721
 11
-22.2987606234
 21
4.1477347721
  0
LINE
  5
24E
100
AcDbEntity
  8
ASSI
100
AcDbLine
 62
7
  6
CONTINUOUS
 10
-22.2987606234
 20
-4.1477347721
 11
-22.2987606234
 21
4.1477347721
  0
LINE
  5
24F
100
AcDbEntity
  8
RACCORDO
100
AcDbLine
 62
250
  6
CONTINUOUS
 10
-22.2
 20
-4.1477347721
 11
-22.2
 21
4.1477347721
  0
LINE
  5
250
100
AcDbEntity
  8
ASSI
100
AcDbLine
 62
250
  6
CONTINUOUS
 10
-22.2
 20
-4.1477347721
 11
-22.2
 21
4.1477347721
  0
LINE
  5
251
100
AcDbEntity
  8
0
100
AcDbLine
 62
7
  6
CONTINUOUS
 10
-22.1
 20
-11.5980762114
 11
-22.1
 21
-19.1
  0
LINE
  5
252
100
AcDbEntity
  8
DRAFT
100
AcDbLine
 62
7
  6
CONTINUOUS
 10
-22.1
 20
-19.1
 11
-22.1
 21
-19.4811503675
  0
LINE
  5
253
100
AcDbEntity
  8
DRAFT
100
AcDbLine
 62
7
  6
CONTINUOUS
 10
-22.1
 20
-11.5980762114
 11
-22.1
 21
14.13
  0
LINE
  5
254
100
AcDbEntity
  8
RACCORDO
100
AcDbLine
 62
7
  6
CONTINUOUS
 10
-22.1
 20
14.13
 11
-22.1
 21
16.17
  0
LINE
  5
255
100
AcDbEntity
  8
DRAFT
100
AcDbLine
 62
7
  6
CONTINUOUS
 10
-22.1
 20
16.17
 11
-22.1
 21
19.4811503675
  0
LINE
  5
256
100
AcDbEntity
  8
RACCORDO
100
AcDbLine
 62
7
  6
CONTINUOUS
 10
-21.9
 20
-22.4
 11
-21.9
 21
-23.8443375673
  0
LINE
  5
257
100
AcDbEntity
  8
ASSI
100
AcDbLine
 62
7
  6
CONTINUOUS
 10
-21.9
 20
-22.4
 11
-21.9
 21
-23.8443375673
  0
LINE
  5
258
100
AcDbEntity
  8
RACCORDO
100
AcDbLine
 62
7
  6
CONTINUOUS
 10
-21.9
 20
22.4
 11
-21.9
 21
23.4104851482
  0
LINE
  5
259
100
AcDbEntity
  8
ASSI
100
AcDbLine
 62
7
  6
CONTINUOUS
 10
-21.9
 20
22.4
 11
-21.9
 21
23.4104851482
  0
LINE
  5
25A
100
AcDbEntity
  8
RACCORDO
100
AcDbLine
 62
250
  6
CONTINUOUS
 10
-21.895628166
 20
24.2456323968
 11
-21.895628166
 21
23.8443375673
  0
LINE
  5
25B
100
AcDbEntity
  8
ASSI
100
AcDbLine
 62
7
  6
CONTINUOUS
 10
-21.895628166
 20
24.2456323968
 11
-21.895628166
 21
23.8443375673
  0
LINE
  5
25C
100
AcDbEntity
  8
RACCORDO
100
AcDbLine
 62
250
  6
CONTINUOUS
 10
-21.895628166
 20
-23.8443375673
 11
-21.895628166
 21
-24.2456323968
  0
LINE
  5
25D
100
AcDbEntity
  8
ASSI
100
AcDbLine
 62
7
  6
CONTINUOUS
 10
-21.895628166
 20
-23.8443375673
 11
-21.895628166
 21
-24.2456323968
  0
LINE
  5
25E
100
AcDbEntity
  8
RACCORDO
100
AcDbLine
 62
250
  6
CONTINUOUS
 10
-21.9
 20
23.4104851482
 11
-21.895628166
 21
23.8443375673
  0
LINE
  5
25F
100
AcDbEntity
  8
ASSI
100
AcDbLine
 62
250
  6
CONTINUOUS
 10
-21.9
 20
23.4104851482
 11
-21.895628166
 21
23.8443375673
  0
LINE
  5
260
100
AcDbEntity
  8
RACCORDO
100
AcDbLine
 62
250
  6
CONTINUOUS
 10
-21.6507229979
 20
23.1226497308
 11
-21.6456323968
 21
23.6278312164
  0
LINE
  5
261
100
AcDbEntity
  8
ASSI
100
AcDbLine
 62
250
  6
CONTINUOUS
 10
-21.6507229979
 20
23.1226497308
 11
-21.6456323968
 21
23.6278312164
  0
LINE
  5
262
100
AcDbEntity
  8
DRAFT
100
AcDbLine
 62
7
  6
CONTINUOUS
 10
-22.2987606234
 20
-4.1477347721
 11
-22.4226915844
 21
-11.5
  0
LINE
  5
263
100
AcDbEntity
  8
ASSI
100
AcDbLine
 62
7
  6
CONTINUOUS
 10
-22.2987606234
 20
-4.1477347721
 11
-22.4226915844
 21
-11.5
  0
LINE
  5
264
100
AcDbEntity
  8
ASSI
100
AcDbLine
 62
250
  6
CONTINUOUS
 10
-13.4999428846
 20
17.65
 11
-13.482489149
 21
17.6674537356
  0
LINE
  5
265
100
AcDbEntity
  8
RACCORDO
100
AcDbLine
 62
250
  6
CONTINUOUS
 10
0.604371834
 20
-23.8443375673
 11
2.995628166
 21
-23.8443375673
  0
LINE
  5
266
100
AcDbEntity
  8
ASSI
100
AcDbLine
 62
250
  6
CONTINUOUS
 10
0.604371834
 20
-23.8443375673
 11
2.995628166
 21
-23.8443375673
  0
LINE
  5
267
100
AcDbEntity
  8
RACCORDO
100
AcDbLine
 62
250
  6
CONTINUOUS
 10
-0.604371834
 20
-23.8443375673
 11
-2.995628166
 21
-23.8443375673
  0
LINE
  5
268
100
AcDbEntity
  8
ASSI
100
AcDbLine
 62
250
  6
CONTINUOUS
 10
-0.604371834
 20
-23.8443375673
 11
-2.995628166
 21
-23.8443375673
  0
LINE
  5
269
100
AcDbEntity
  8
RACCORDO
100
AcDbLine
 62
250
  6
CONTINUOUS
 10
19.504371834
 20
-23.8443375673
 11
21.895628166
 21
-23.8443375673
  0
LINE
  5
26A
100
AcDbEntity
  8
ASSI
100
AcDbLine
 62
250
  6
CONTINUOUS
 10
19.504371834
 20
-23.8443375673
 11
21.895628166
 21
-23.8443375673
  0
LINE
  5
26B
100
AcDbEntity
  8
RACCORDO
100
AcDbLine
 62
250
  6
CONTINUOUS
 10
-19.504371834
 20
-23.8443375673
 11
-21.895628166
 21
-23.8443375673
  0
LINE
  5
26C
100
AcDbEntity
  8
ASSI
100
AcDbLine
 62
250
  6
CONTINUOUS
 10
-19.504371834
 20
-23.8443375673
 11
-21.895628166
 21
-23.8443375673
  0
LINE
  5
26D
100
AcDbEntity
  8
DRAFT
100
AcDbLine
 62
7
  6
CONTINUOUS
 10
-15.65
 20
-23.8
 11
-14.75
 21
-23.8
  0
LINE
  5
26E
100
AcDbEntity
  8
ASSI
100
AcDbLine
 62
7
  6
CONTINUOUS
 10
-15.65
 20
-23.8
 11
-14.75
 21
-23.8
  0
LINE
  5
26F
100
AcDbEntity
  8
DRAFT
100
AcDbLine
 62
7
  6
CONTINUOUS
 10
-7.75
 20
-23.8
 11
-6.85
 21
-23.8
  0
LINE
  5
270
100
AcDbEntity
  8
ASSI
100
AcDbLine
 62
7
  6
CONTINUOUS
 10
-7.75
 20
-23.8
 11
-6.85
 21
-23.8
  0
LINE
  5
271
100
AcDbEntity
  8
DRAFT
100
AcDbLine
 62
7
  6
CONTINUOUS
 10
6.85
 20
-23.8
 11
7.75
 21
-23.8
  0
LINE
  5
272
100
AcDbEntity
  8
ASSI
100
AcDbLine
 62
7
  6
CONTINUOUS
 10
6.85
 20
-23.8
 11
7.75
 21
-23.8
  0
LINE
  5
273
100
AcDbEntity
  8
DRAFT
100
AcDbLine
 62
7
  6
CONTINUOUS
 10
14.75
 20
-23.8
 11
15.65
 21
-23.8
  0
LINE
  5
274
100
AcDbEntity
  8
ASSI
100
AcDbLine
 62
7
  6
CONTINUOUS
 10
14.75
 20
-23.8
 11
15.65
 21
-23.8
  0
LINE
  5
275
100
AcDbEntity
  8
DRAFT
100
AcDbLine
 62
7
  6
CONTINUOUS
 10
14.75
 20
-23.7941821702
 11
7.75
 21
-23.7941821702
  0
LINE
  5
276
100
AcDbEntity
  8
ASSI
100
AcDbLine
 62
7
  6
CONTINUOUS
 10
14.75
 20
-23.7941821702
 11
7.75
 21
-23.7941821702
  0
LINE
  5
277
100
AcDbEntity
  8
DRAFT
100
AcDbLine
 62
7
  6
CONTINUOUS
 10
-7.75
 20
-23.7941821702
 11
-14.75
 21
-23.7941821702
  0
LINE
  5
278
100
AcDbEntity
  8
ASSI
100
AcDbLine
 62
7
  6
CONTINUOUS
 10
-7.75
 20
-23.7941821702
 11
-14.75
 21
-23.7941821702
  0
LINE
  5
279
100
AcDbEntity
  8
ASSI
100
AcDbLine
 62
7
  6
CONTINUOUS
 10
15.6063493531
 20
-23.7563493531
 11
14.75
 21
-23.7563493531
  0
LINE
  5
27A
100
AcDbEntity
  8
ASSI
100
AcDbLine
 62
7
  6
CONTINUOUS
 10
7.75
 20
-23.7563493531
 11
6.8936506469
 21
-23.7563493531
  0
LINE
  5
27B
100
AcDbEntity
  8
ASSI
100
AcDbLine
 62
7
  6
CONTINUOUS
 10
-6.8936506469
 20
-23.7563493531
 11
-7.75
 21
-23.7563493531
  0
LINE
  5
27C
100
AcDbEntity
  8
ASSI
100
AcDbLine
 62
7
  6
CONTINUOUS
 10
-14.75
 20
-23.7563493531
 11
-15.6063493531
 21
-23.7563493531
  0
LINE
  5
27D
100
AcDbEntity
  8
RACCORDO
100
AcDbLine
 62
250
  6
CONTINUOUS
 10
21.6456323968
 20
-23.6278312164
 11
19.7543676032
 21
-23.6278312164
  0
LINE
  5
27E
100
AcDbEntity
  8
ASSI
100
AcDbLine
 62
250
  6
CONTINUOUS
 10
21.6456323968
 20
-23.6278312164
 11
19.7543676032
 21
-23.6278312164
  0
LINE
  5
27F
100
AcDbEntity
  8
RACCORDO
100
AcDbLine
 62
250
  6
CONTINUOUS
 10
2.7456323968
 20
-23.6278312164
 11
0.8543676032
 21
-23.6278312164
  0
LINE
  5
280
100
AcDbEntity
  8
ASSI
100
AcDbLine
 62
250
  6
CONTINUOUS
 10
2.7456323968
 20
-23.6278312164
 11
0.8543676032
 21
-23.6278312164
  0
LINE
  5
281
100
AcDbEntity
  8
RACCORDO
100
AcDbLine
 62
250
  6
CONTINUOUS
 10
-0.8543676032
 20
-23.6278312164
 11
-2.7456323968
 21
-23.6278312164
  0
LINE
  5
282
100
AcDbEntity
  8
ASSI
100
AcDbLine
 62
250
  6
CONTINUOUS
 10
-0.8543676032
 20
-23.6278312164
 11
-2.7456323968
 21
-23.6278312164
  0
LINE
  5
283
100
AcDbEntity
  8
RACCORDO
100
AcDbLine
 62
250
  6
CONTINUOUS
 10
-19.7543676032
 20
-23.6278312164
 11
-21.6456323968
 21
-23.6278312164
  0
LINE
  5
284
100
AcDbEntity
  8
ASSI
100
AcDbLine
 62
250
  6
CONTINUOUS
 10
-19.7543676032
 20
-23.6278312164
 11
-21.6456323968
 21
-23.6278312164
  0
LINE
  5
285
100
AcDbEntity
  8
RACCORDO
100
AcDbLine
 62
7
  6
CONTINUOUS
 10
-21.6507229979
 20
-23.1226497308
 11
-19.7492770021
 21
-23.1226497308
  0
LINE
  5
286
100
AcDbEntity
  8
ASSI
100
AcDbLine
 62
7
  6
CONTINUOUS
 10
-21.6507229979
 20
-23.1226497308
 11
-19.7492770021
 21
-23.1226497308
  0
LINE
  5
287
100
AcDbEntity
  8
RACCORDO
100
AcDbLine
 62
7
  6
CONTINUOUS
 10
-2.7507229979
 20
-23.1226497308
 11
-0.8492770021
 21
-23.1226497308
  0
LINE
  5
288
100
AcDbEntity
  8
ASSI
100
AcDbLine
 62
7
  6
CONTINUOUS
 10
-2.7507229979
 20
-23.1226497308
 11
-0.8492770021
 21
-23.1226497308
  0
LINE
  5
289
100
AcDbEntity
  8
RACCORDO
100
AcDbLine
 62
7
  6
CONTINUOUS
 10
0.8492770021
 20
-23.1226497308
 11
2.7507229979
 21
-23.1226497308
  0
LINE
  5
28A
100
AcDbEntity
  8
ASSI
100
AcDbLine
 62
7
  6
CONTINUOUS
 10
0.8492770021
 20
-23.1226497308
 11
2.7507229979
 21
-23.1226497308
  0
LINE
  5
28B
100
AcDbEntity
  8
RACCORDO
100
AcDbLine
 62
7
  6
CONTINUOUS
 10
19.7492770021
 20
-23.1226497308
 11
21.6507229979
 21
-23.1226497308
  0
LINE
  5
28C
100
AcDbEntity
  8
ASSI
100
AcDbLine
 62
7
  6
CONTINUOUS
 10
19.7492770021
 20
-23.1226497308
 11
21.6507229979
 21
-23.1226497308
  0
LINE
  5
28D
100
AcDbEntity
  8
RACCORDO
100
AcDbLine
 62
7
  6
CONTINUOUS
 10
21.9324078424
 20
-22.4
 11
21.9
 21
-22.4
  0
LINE
  5
28E
100
AcDbEntity
  8
DRAFT
100
AcDbLine
 62
7
  6
CONTINUOUS
 10
6.85
 20
-22.4
 11
-6.85
 21
-22.4
  0
LINE
  5
28F
100
AcDbEntity
  8
ASSI
100
AcDbLine
 62
7
  6
CONTINUOUS
 10
6.85
 20
-22.4
 11
-6.85
 21
-22.4
  0
LINE
  5
290
100
AcDbEntity
  8
DRAFT
100
AcDbLine
 62
7
  6
CONTINUOUS
 10
-15.65
 20
-22.4
 11
-21.9
 21
-22.4
  0
LINE
  5
291
100
AcDbEntity
  8
DRAFT
100
AcDbLine
 62
7
  6
CONTINUOUS
 10
15.65
 20
-22.4
 11
21.9
 21
-22.4
  0
LINE
  5
292
100
AcDbEntity
  8
ASSI
100
AcDbLine
 62
7
  6
CONTINUOUS
 10
15.65
 20
-22.4
 11
21.9324078424
 21
-22.4
  0
LINE
  5
293
100
AcDbEntity
  8
RACCORDO
100
AcDbLine
 62
7
  6
CONTINUOUS
 10
-21.9
 20
-22.4
 11
-21.9324078424
 21
-22.4
  0
LINE
  5
294
100
AcDbEntity
  8
ASSI
100
AcDbLine
 62
7
  6
CONTINUOUS
 10
-15.65
 20
-22.4
 11
-21.9324078424
 21
-22.4
  0
LINE
  5
295
100
AcDbEntity
  8
RACCORDO
100
AcDbLine
 62
7
  6
CONTINUOUS
 10
-21.9498629074
 20
-22.3912731322
 11
-18.5087268678
 21
-22.3912731322
  0
LINE
  5
296
100
AcDbEntity
  8
ASSI
100
AcDbLine
 62
7
  6
CONTINUOUS
 10
-21.9498629074
 20
-22.3912731322
 11
-18.5087268678
 21
-22.3912731322
  0
LINE
  5
297
100
AcDbEntity
  8
DRAFT
100
AcDbLine
 62
7
  6
CONTINUOUS
 10
-14.75
 20
-22.3912731322
 11
-14.25
 21
-22.3912731322
  0
LINE
  5
298
100
AcDbEntity
  8
ASSI
100
AcDbLine
 62
7
  6
CONTINUOUS
 10
-14.75
 20
-22.3912731322
 11
-14.25
 21
-22.3912731322
  0
LINE
  5
299
100
AcDbEntity
  8
DRAFT
100
AcDbLine
 62
7
  6
CONTINUOUS
 10
-8.25
 20
-22.3912731322
 11
-7.75
 21
-22.3912731322
  0
LINE
  5
29A
100
AcDbEntity
  8
ASSI
100
AcDbLine
 62
7
  6
CONTINUOUS
 10
-8.25
 20
-22.3912731322
 11
-7.75
 21
-22.3912731322
  0
LINE
  5
29B
100
AcDbEntity
  8
DRAFT
100
AcDbLine
 62
7
  6
CONTINUOUS
 10
7.75
 20
-22.3912731322
 11
8.25
 21
-22.3912731322
  0
LINE
  5
29C
100
AcDbEntity
  8
ASSI
100
AcDbLine
 62
7
  6
CONTINUOUS
 10
7.75
 20
-22.3912731322
 11
8.25
 21
-22.3912731322
  0
LINE
  5
29D
100
AcDbEntity
  8
DRAFT
100
AcDbLine
 62
7
  6
CONTINUOUS
 10
14.25
 20
-22.3912731322
 11
14.75
 21
-22.3912731322
  0
LINE
  5
29E
100
AcDbEntity
  8
ASSI
100
AcDbLine
 62
7
  6
CONTINUOUS
 10
14.25
 20
-22.3912731322
 11
14.75
 21
-22.3912731322
  0
LINE
  5
29F
100
AcDbEntity
  8
RACCORDO
100
AcDbLine
 62
7
  6
CONTINUOUS
 10
18.5087268678
 20
-22.3912731322
 11
21.9498629074
 21
-22.3912731322
  0
LINE
  5
2A0
100
AcDbEntity
  8
ASSI
100
AcDbLine
 62
7
  6
CONTINUOUS
 10
18.5087268678
 20
-22.3912731322
 11
21.9498629074
 21
-22.3912731322
  0
LINE
  5
2A1
100
AcDbEntity
  8
DRAFT
100
AcDbLine
 62
7
  6
CONTINUOUS
 10
3.9799282041
 20
-22.3799282041
 11
-3.9799282041
 21
-22.3799282041
  0
LINE
  5
2A2
100
AcDbEntity
  8
ASSI
100
AcDbLine
 62
7
  6
CONTINUOUS
 10
3.9799282041
 20
-22.3799282041
 11
-3.9799282041
 21
-22.3799282041
  0
LINE
  5
2A3
100
AcDbEntity
  8
RACCORDO
100
AcDbLine
 62
250
  6
CONTINUOUS
 10
-18.5873448332
 20
-22.3126551668
 11
-14.25
 21
-22.3126551668
  0
LINE
  5
2A4
100
AcDbEntity
  8
ASSI
100
AcDbLine
 62
250
  6
CONTINUOUS
 10
-18.5873448332
 20
-22.3126551668
 11
-14.25
 21
-22.3126551668
  0
LINE
  5
2A5
100
AcDbEntity
  8
RACCORDO
100
AcDbLine
 62
250
  6
CONTINUOUS
 10
-8.25
 20
-22.3126551668
 11
-3.9126551668
 21
-22.3126551668
  0
LINE
  5
2A6
100
AcDbEntity
  8
ASSI
100
AcDbLine
 62
250
  6
CONTINUOUS
 10
-8.25
 20
-22.3126551668
 11
-3.9126551668
 21
-22.3126551668
  0
LINE
  5
2A7
100
AcDbEntity
  8
RACCORDO
100
AcDbLine
 62
250
  6
CONTINUOUS
 10
3.9126551668
 20
-22.3126551668
 11
8.25
 21
-22.3126551668
  0
LINE
  5
2A8
100
AcDbEntity
  8
ASSI
100
AcDbLine
 62
250
  6
CONTINUOUS
 10
3.9126551668
 20
-22.3126551668
 11
8.25
 21
-22.3126551668
  0
LINE
  5
2A9
100
AcDbEntity
  8
RACCORDO
100
AcDbLine
 62
250
  6
CONTINUOUS
 10
14.25
 20
-22.3126551668
 11
18.5873448332
 21
-22.3126551668
  0
LINE
  5
2AA
100
AcDbEntity
  8
ASSI
100
AcDbLine
 62
250
  6
CONTINUOUS
 10
14.25
 20
-22.3126551668
 11
18.5873448332
 21
-22.3126551668
  0
LINE
  5
2AB
100
AcDbEntity
  8
ASSI
100
AcDbLine
 62
7
  6
CONTINUOUS
 10
-10.0413492875
 20
-21.7586507125
 11
-10.0457888767
 21
-21.7542111233
  0
LINE
  5
2AC
100
AcDbEntity
  8
0
100
AcDbLine
 62
7
  6
CONTINUOUS
 10
-21.4833334446
 20
-5.8989361525
 11
-21.5416665554
 21
-5.7797872305
  0
LINE
  5
2AD
100
AcDbEntity
  8
0
100
AcDbLine
 62
7
  6
CONTINUOUS
 10
-21.8333334446
 20
-5.7797872305
 11
-21.7166665554
 21
-6.0776595354
  0
LINE
  5
2AE
100
AcDbEntity
  8
0
100
AcDbLine
 62
7
  6
CONTINUOUS
 10
-21.8333334446
 20
-4.35
 11
-21.8333334446
 21
-5.7797872305
  0
LINE
  5
2AF
100
AcDbEntity
  8
RACCORDO
100
AcDbLine
 62
250
  6
CONTINUOUS
 10
-21.6456323968
 20
-23.6278312164
 11
-21.6456323968
 21
-24.495628166
  0
LINE
  5
2B0
100
AcDbEntity
  8
ASSI
100
AcDbLine
 62
250
  6
CONTINUOUS
 10
-21.6456323968
 20
-23.6278312164
 11
-21.6456323968
 21
-24.495628166
  0
LINE
  5
2B1
100
AcDbEntity
  8
RACCORDO
100
AcDbLine
 62
250
  6
CONTINUOUS
 10
-21.6456323968
 20
23.6278312164
 11
-21.6456323968
 21
24.495628166
  0
LINE
  5
2B2
100
AcDbEntity
  8
ASSI
100
AcDbLine
 62
250
  6
CONTINUOUS
 10
-21.6456323968
 20
23.6278312164
 11
-21.6456323968
 21
24.495628166
  0
LINE
  5
2B3
100
AcDbEntity
  8
0
100
AcDbLine
 62
7
  6
CONTINUOUS
 10
-21.5416665554
 20
-5.7797872305
 11
-21.5416665554
 21
-4.35
  0
LINE
  5
2B4
100
AcDbEntity
  8
RACCORDO
100
AcDbLine
 62
7
  6
CONTINUOUS
 10
-21.4
 20
16.175
 11
-21.4
 21
14.125
  0
LINE
  5
2B5
100
AcDbEntity
  8
0
100
AcDbLine
 62
7
  6
CONTINUOUS
 10
-20.9
 20
-4.35
 11
-20.9
 21
-5.7797872305
  0
LINE
  5
2B6
100
AcDbEntity
  8
DRAFT
100
AcDbLine
 62
7
  6
CONTINUOUS
 10
-20.9
 20
-8.9365154107
 11
-20.9
 21
-11.5980762114
  0
LINE
  5
2B7
100
AcDbEntity
  8
0
100
AcDbLine
 62
7
  6
CONTINUOUS
 10
-20.9
 20
-11.5980762114
 11
-20.9
 21
-20.3
  0
LINE
  5
2B8
100
AcDbEntity
  8
DRAFT
100
AcDbLine
 62
7
  6
CONTINUOUS
 10
-20.85
 20
15.9
 11
-20.85
 21
14.4
  0
LINE
  5
2B9
100
AcDbEntity
  8
DRAFT
100
AcDbLine
 62
7
  6
CONTINUOUS
 10
-20.85
 20
-14.4
 11
-20.85
 21
-15.9
  0
LINE
  5
2BA
100
AcDbEntity
  8
DRAFT
100
AcDbLine
 62
7
  6
CONTINUOUS
 10
-20.8409655852
 20
-14.15
 11
-20.8409655852
 21
-14.2658835993
  0
LINE
  5
2BB
100
AcDbEntity
  8
DRAFT
100
AcDbLine
 62
7
  6
CONTINUOUS
 10
-20.8409655852
 20
-16.0341164007
 11
-20.8409655852
 21
-16.15
  0
LINE
  5
2BC
100
AcDbEntity
  8
DRAFT
100
AcDbLine
 62
7
  6
CONTINUOUS
 10
-20.8409655852
 20
14.15
 11
-20.8409655852
 21
14.2658835993
  0
LINE
  5
2BD
100
AcDbEntity
  8
DRAFT
100
AcDbLine
 62
7
  6
CONTINUOUS
 10
-20.8409655852
 20
16.0341164007
 11
-20.8409655852
 21
16.15
  0
LINE
  5
2BE
100
AcDbEntity
  8
DRAFT
100
AcDbLine
 62
7
  6
CONTINUOUS
 10
-20.7
 20
16.05
 11
-20.7
 21
14.25
  0
LINE
  5
2BF
100
AcDbEntity
  8
0
100
AcDbLine
 62
7
  6
CONTINUOUS
 10
-20.6083334446
 20
-5.7797872305
 11
-20.6083334446
 21
-4.35
  0
LINE
  5
2C0
100
AcDbEntity
  8
0
100
AcDbLine
 62
7
  6
CONTINUOUS
 10
-19.9666665554
 20
-4.35
 11
-19.9666665554
 21
-5.8393616915
  0
LINE
  5
2C1
100
AcDbEntity
  8
0
100
AcDbLine
 62
7
  6
CONTINUOUS
 10
-19.9666665554
 20
-6.0776595354
 11
-19.9666665554
 21
-6.2563829184
  0
LINE
  5
2C2
100
AcDbEntity
  8
DRAFT
100
AcDbLine
 62
250
  6
CONTINUOUS
 10
-19.85
 20
17.1431275916
 11
-19.85
 21
17.0386647966
  0
LINE
  5
2C3
100
AcDbEntity
  8
DRAFT
100
AcDbLine
 62
250
  6
CONTINUOUS
 10
-19.85
 20
-13.1568724084
 11
-19.85
 21
-13.4
  0
LINE
  5
2C4
100
AcDbEntity
  8
DRAFT
100
AcDbLine
 62
250
  6
CONTINUOUS
 10
-19.85
 20
-17.1431275916
 11
-19.85
 21
-16.9
  0
LINE
  5
2C5
100
AcDbEntity
  8
DRAFT
100
AcDbLine
 62
250
  6
CONTINUOUS
 10
-19.85
 20
13.1568724084
 11
-19.85
 21
13.2613352034
  0
LINE
  5
2C6
100
AcDbEntity
  8
RACCORDO
100
AcDbLine
 62
250
  6
CONTINUOUS
 10
-19.7543676032
 20
-23.6278312164
 11
-19.7543676032
 21
-24.495628166
  0
LINE
  5
2C7
100
AcDbEntity
  8
ASSI
100
AcDbLine
 62
250
  6
CONTINUOUS
 10
-19.7543676032
 20
-23.6278312164
 11
-19.7543676032
 21
-24.495628166
  0
LINE
  5
2C8
100
AcDbEntity
  8
RACCORDO
100
AcDbLine
 62
250
  6
CONTINUOUS
 10
-19.7543676032
 20
23.6278312164
 11
-19.7543676032
 21
24.495628166
  0
LINE
  5
2C9
100
AcDbEntity
  8
ASSI
100
AcDbLine
 62
250
  6
CONTINUOUS
 10
-19.7543676032
 20
23.6278312164
 11
-19.7543676032
 21
24.495628166
  0
LINE
  5
2CA
100
AcDbEntity
  8
0
100
AcDbLine
 62
7
  6
CONTINUOUS
 10
-19.675
 20
-6.2563829184
 11
-19.675
 21
-4.35
  0
LINE
  5
2CB
100
AcDbEntity
  8
ASSI
100
AcDbLine
 62
7
  6
CONTINUOUS
 10
-6.85
 20
23.8
 11
-6.8936506469
 21
23.7563493531
  0
LINE
  5
2CC
100
AcDbEntity
  8
ASSI
100
AcDbLine
 62
250
  6
CONTINUOUS
 10
-12.0
 20
16.1500571154
 11
-11.9825462644
 21
16.167510851
  0
LINE
  5
2CD
100
AcDbEntity
  8
RACCORDO
100
AcDbLine
 62
7
  6
CONTINUOUS
 10
-5.8
 20
-21.65
 11
-2.8240290954
 21
-21.6240290954
  0
LINE
  5
2CE
100
AcDbEntity
  8
RACCORDO
100
AcDbLine
 62
250
  6
CONTINUOUS
 10
-5.8
 20
-20.6500380769
 11
-1.815263811
 21
-20.615263811
  0
LINE
  5
2CF
100
AcDbEntity
  8
DRAFT
100
AcDbLine
 62
7
  6
CONTINUOUS
 10
-2.0095584763
 20
-20.8095584763
 11
-1.9592688255
 21
-20.8092688255
  0
LINE
  5
2D0
100
AcDbEntity
  8
0
100
AcDbLine
 62
7
  6
CONTINUOUS
 10
-2.35
 20
-21.8
 11
18.95
 21
-21.8
  0
LINE
  5
2D1
100
AcDbEntity
  8
ASSI
100
AcDbLine
 62
7
  6
CONTINUOUS
 10
-16.7
 20
-21.7587268678
 11
-5.8
 21
-21.7587268678
  0
LINE
  5
2D2
100
AcDbEntity
  8
ASSI
100
AcDbLine
 62
250
  6
CONTINUOUS
 10
-11.2542111233
 20
-21.7542111233
 11
-10.0457888767
 21
-21.7542111233
  0
LINE
  5
2D3
100
AcDbEntity
  8
DRAFT
100
AcDbLine
 62
7
  6
CONTINUOUS
 10
20.1498860669
 20
-20.9
 11
19.85
 21
-20.9
  0
LINE
  5
2D4
100
AcDbEntity
  8
ASSI
100
AcDbLine
 62
7
  6
CONTINUOUS
 10
20.1498860669
 20
-20.9
 11
19.85
 21
-20.9
  0
LINE
  5
2D5
100
AcDbEntity
  8
ASSI
100
AcDbLine
 62
250
  6
CONTINUOUS
 10
-16.7
 20
-20.7586887894
 11
-11.25
 21
-20.7586887894
  0
LINE
  5
2D6
100
AcDbEntity
  8
ASSI
100
AcDbLine
 62
250
  6
CONTINUOUS
 10
-10.05
 20
-20.7586887894
 11
-5.8
 21
-20.7586887894
  0
LINE
  5
2D7
100
AcDbEntity
  8
DRAFT
100
AcDbLine
 62
7
  6
CONTINUOUS
 10
21.05
 20
-20.0
 11
20.9
 21
-20.0
  0
LINE
  5
2D8
100
AcDbEntity
  8
ASSI
100
AcDbLine
 62
7
  6
CONTINUOUS
 10
21.05
 20
-20.0
 11
20.9
 21
-20.0
  0
LINE
  5
2D9
100
AcDbEntity
  8
ASSI
100
AcDbLine
 62
250
  6
CONTINUOUS
 10
-11.2369096983
 20
-19.7542872771
 11
-10.0630903017
 21
-19.7542872771
  0
LINE
  5
2DA
100
AcDbEntity
  8
RACCORDO
100
AcDbLine
 62
7
  6
CONTINUOUS
 10
-16.7
 20
-21.6
 11
-19.6255307198
 21
-21.5744692802
  0
LINE
  5
2DB
100
AcDbEntity
  8
RACCORDO
100
AcDbLine
 62
250
  6
CONTINUOUS
 10
-16.7
 20
-20.6000380769
 11
-20.6342960041
 21
-20.5657039959
  0
LINE
  5
2DC
100
AcDbEntity
  8
ASSI
100
AcDbLine
 62
7
  6
CONTINUOUS
 10
-6.85
 20
-23.8
 11
-6.8936506469
 21
-23.7563493531
  0
LINE
  5
2DD
100
AcDbEntity
  8
0
100
AcDbLine
 62
7
  6
CONTINUOUS
 10
-16.9
 20
-13.4
 11
-16.7
 21
-13.6
  0
LINE
  5
2DE
100
AcDbEntity
  8
0
100
AcDbLine
 62
7
  6
CONTINUOUS
 10
-21.7166665554
 20
-6.0776595354
 11
-21.6
 21
-6.1968084574
  0
LINE
  5
2DF
100
AcDbEntity
  8
0
100
AcDbLine
 62
7
  6
CONTINUOUS
 10
-20.55
 20
-5.8989361525
 11
-20.6083334446
 21
-5.7797872305
  0
LINE
  5
2E0
100
AcDbEntity
  8
0
100
AcDbLine
 62
7
  6
CONTINUOUS
 10
-19.2083332777
 20
-5.7797872305
 11
-19.0916667223
 21
-6.0776595354
  0
LINE
  5
2E1
100
AcDbEntity
  8
RACCORDO
100
AcDbLine
 62
250
  6
CONTINUOUS
 10
-19.7543676032
 20
23.6278312164
 11
-19.7492770021
 21
23.1226497308
  0
LINE
  5
2E2
100
AcDbEntity
  8
ASSI
100
AcDbLine
 62
250
  6
CONTINUOUS
 10
-19.7543676032
 20
23.6278312164
 11
-19.7492770021
 21
23.1226497308
  0
LINE
  5
2E3
100
AcDbEntity
  8
RACCORDO
100
AcDbLine
 62
250
  6
CONTINUOUS
 10
-19.504371834
 20
23.8443375673
 11
-19.5
 21
23.4104851482
  0
LINE
  5
2E4
100
AcDbEntity
  8
ASSI
100
AcDbLine
 62
250
  6
CONTINUOUS
 10
-19.504371834
 20
23.8443375673
 11
-19.5
 21
23.4104851482
  0
LINE
  5
2E5
100
AcDbEntity
  8
0
100
AcDbLine
 62
7
  6
CONTINUOUS
 10
-18.999912423
 20
21.6823675389
 11
-18.9990185233
 21
21.5799367693
  0
LINE
  5
2E6
100
AcDbEntity
  8
RACCORDO
100
AcDbLine
 62
250
  6
CONTINUOUS
 10
-19.504371834
 20
-24.2456323968
 11
-19.504371834
 21
-23.8443375673
  0
LINE
  5
2E7
100
AcDbEntity
  8
ASSI
100
AcDbLine
 62
7
  6
CONTINUOUS
 10
-19.504371834
 20
-24.2456323968
 11
-19.504371834
 21
-23.8443375673
  0
LINE
  5
2E8
100
AcDbEntity
  8
RACCORDO
100
AcDbLine
 62
250
  6
CONTINUOUS
 10
-19.504371834
 20
23.8443375673
 11
-19.504371834
 21
24.2456323968
  0
LINE
  5
2E9
100
AcDbEntity
  8
ASSI
100
AcDbLine
 62
7
  6
CONTINUOUS
 10
-19.504371834
 20
23.8443375673
 11
-19.504371834
 21
24.2456323968
  0
LINE
  5
2EA
100
AcDbEntity
  8
RACCORDO
100
AcDbLine
 62
7
  6
CONTINUOUS
 10
-19.5
 20
-22.4
 11
-19.5
 21
-23.4104851482
  0
LINE
  5
2EB
100
AcDbEntity
  8
ASSI
100
AcDbLine
 62
7
  6
CONTINUOUS
 10
-19.5
 20
-22.4
 11
-19.5
 21
-23.4104851482
  0
LINE
  5
2EC
100
AcDbEntity
  8
RACCORDO
100
AcDbLine
 62
7
  6
CONTINUOUS
 10
-19.5
 20
22.4
 11
-19.5
 21
23.8443375673
  0
LINE
  5
2ED
100
AcDbEntity
  8
ASSI
100
AcDbLine
 62
7
  6
CONTINUOUS
 10
-19.5
 20
22.4
 11
-19.5
 21
23.8443375673
  0
LINE
  5
2EE
100
AcDbEntity
  8
0
100
AcDbLine
 62
7
  6
CONTINUOUS
 10
-19.2083332777
 20
-4.35
 11
-19.2083332777
 21
-5.7797872305
  0
LINE
  5
2EF
100
AcDbEntity
  8
0
100
AcDbLine
 62
7
  6
CONTINUOUS
 10
-18.9166667223
 20
-5.7797872305
 11
-18.9166667223
 21
-4.35
  0
LINE
  5
2F0
100
AcDbEntity
  8
0
100
AcDbLine
 62
7
  6
CONTINUOUS
 10
-18.275
 20
-4.35
 11
-18.275
 21
-5.7797872305
  0
LINE
  5
2F1
100
AcDbEntity
  8
0
100
AcDbLine
 62
7
  6
CONTINUOUS
 10
-18.2
 20
-16.9
 11
-18.2
 21
-13.4
  0
LINE
  5
2F2
100
AcDbEntity
  8
0
100
AcDbLine
 62
7
  6
CONTINUOUS
 10
-17.9833333611
 20
-5.7797872305
 11
-17.9833333611
 21
-4.35
  0
LINE
  5
2F3
100
AcDbEntity
  8
0
100
AcDbLine
 62
7
  6
CONTINUOUS
 10
-17.8935
 20
-13.4
 11
-17.8935
 21
-16.9
  0
LINE
  5
2F4
100
AcDbEntity
  8
RACCORDO
100
AcDbLine
 62
250
  6
CONTINUOUS
 10
-19.7492770021
 20
-23.1226497308
 11
-19.7543676032
 21
-23.6278312164
  0
LINE
  5
2F5
100
AcDbEntity
  8
ASSI
100
AcDbLine
 62
250
  6
CONTINUOUS
 10
-19.7492770021
 20
-23.1226497308
 11
-19.7543676032
 21
-23.6278312164
  0
LINE
  5
2F6
100
AcDbEntity
  8
RACCORDO
100
AcDbLine
 62
250
  6
CONTINUOUS
 10
-19.5
 20
-23.4104851482
 11
-19.504371834
 21
-23.8443375673
  0
LINE
  5
2F7
100
AcDbEntity
  8
ASSI
100
AcDbLine
 62
250
  6
CONTINUOUS
 10
-19.5
 20
-23.4104851482
 11
-19.504371834
 21
-23.8443375673
  0
LINE
  5
2F8
100
AcDbEntity
  8
DRAFT
100
AcDbLine
 62
7
  6
CONTINUOUS
 10
-6.85
 20
22.4
 11
-6.8940672673
 21
22.3338981669
  0
LINE
  5
2F9
100
AcDbEntity
  8
ASSI
100
AcDbLine
 62
7
  6
CONTINUOUS
 10
-6.85
 20
22.4
 11
-6.8940672673
 21
22.3338981669
  0
LINE
  5
2FA
100
AcDbEntity
  8
ASSI
100
AcDbLine
 62
250
  6
CONTINUOUS
 10
-10.5
 20
14.1499428846
 11
-10.5174537356
 21
14.132489149
  0
LINE
  5
2FB
100
AcDbEntity
  8
DRAFT
100
AcDbLine
 62
7
  6
CONTINUOUS
 10
1.9
 20
-18.7319660113
 11
8.3
 21
-18.7319660113
  0
LINE
  5
2FC
100
AcDbEntity
  8
DRAFT
100
AcDbLine
 62
7
  6
CONTINUOUS
 10
12.8
 20
-18.7319660113
 11
19.2
 21
-18.7319660113
  0
LINE
  5
2FD
100
AcDbEntity
  8
DRAFT
100
AcDbLine
 62
7
  6
CONTINUOUS
 10
1.9
 20
-18.6970558814
 11
8.3
 21
-18.6970558814
  0
LINE
  5
2FE
100
AcDbEntity
  8
DRAFT
100
AcDbLine
 62
7
  6
CONTINUOUS
 10
12.8
 20
-18.6970558814
 11
19.2
 21
-18.6970558814
  0
LINE
  5
2FF
100
AcDbEntity
  8
DRAFT
100
AcDbLine
 62
7
  6
CONTINUOUS
 10
19.2
 20
-17.8849101299
 11
12.8
 21
-17.8849101299
  0
LINE
  5
300
100
AcDbEntity
  8
DRAFT
100
AcDbLine
 62
7
  6
CONTINUOUS
 10
19.2
 20
-17.85
 11
12.8
 21
-17.85
  0
LINE
  5
301
100
AcDbEntity
  8
ASSI
100
AcDbLine
 62
7
  6
CONTINUOUS
 10
8.3
 20
-17.85
 11
1.9
 21
-17.85
  0
LINE
  5
302
100
AcDbEntity
  8
DRAFT
100
AcDbLine
 62
7
  6
CONTINUOUS
 10
-22.1
 20
-19.4811503675
 11
-21.7175145008
 21
-19.4824854992
  0
LINE
  5
303
100
AcDbEntity
  8
0
100
AcDbLine
 62
7
  6
CONTINUOUS
 10
-21.425
 20
-5.9585106134
 11
-21.4833334446
 21
-5.8989361525
  0
LINE
  5
304
100
AcDbEntity
  8
0
100
AcDbLine
 62
7
  6
CONTINUOUS
 10
-20.8416665554
 20
-6.0180850744
 11
-20.6666665554
 21
-6.1968084574
  0
LINE
  5
305
100
AcDbEntity
  8
0
100
AcDbLine
 62
7
  6
CONTINUOUS
 10
-20.4916665554
 20
-5.9585106134
 11
-20.55
 21
-5.8989361525
  0
LINE
  5
306
100
AcDbEntity
  8
0
100
AcDbLine
 62
7
  6
CONTINUOUS
 10
-19.0916667223
 20
-6.0776595354
 11
-18.975
 21
-6.1968084574
  0
LINE
  5
307
100
AcDbEntity
  8
0
100
AcDbLine
 62
7
  6
CONTINUOUS
 10
-18.8
 20
-5.9585106134
 11
-18.8583332777
 21
-5.8989361525
  0
LINE
  5
308
100
AcDbEntity
  8
DRAFT
100
AcDbLine
 62
7
  6
CONTINUOUS
 10
-6.85
 20
-22.4
 11
-6.8940672673
 21
-22.3338981669
  0
LINE
  5
309
100
AcDbEntity
  8
ASSI
100
AcDbLine
 62
7
  6
CONTINUOUS
 10
-6.85
 20
-22.4
 11
-6.8940672673
 21
-22.3338981669
  0
LINE
  5
30A
100
AcDbEntity
  8
0
100
AcDbLine
 62
7
  6
CONTINUOUS
 10
-18.8583332777
 20
-5.8989361525
 11
-18.9166667223
 21
-5.7797872305
  0
LINE
  5
30B
100
AcDbEntity
  8
0
100
AcDbLine
 62
7
  6
CONTINUOUS
 10
-17.925
 20
-5.8989361525
 11
-17.9833333611
 21
-5.7797872305
  0
LINE
  5
30C
100
AcDbEntity
  8
0
100
AcDbLine
 62
7
  6
CONTINUOUS
 10
-17.3416666597
 20
-4.35
 11
-17.3416666597
 21
-5.8393616915
  0
LINE
  5
30D
100
AcDbEntity
  8
0
100
AcDbLine
 62
7
  6
CONTINUOUS
 10
-17.3416666597
 20
-6.0776595354
 11
-17.3416666597
 21
-6.2563829184
  0
LINE
  5
30E
100
AcDbEntity
  8
0
100
AcDbLine
 62
7
  6
CONTINUOUS
 10
-17.05
 20
-6.2563829184
 11
-17.05
 21
-4.35
  0
LINE
  5
30F
100
AcDbEntity
  8
RACCORDO
100
AcDbLine
 62
7
  6
CONTINUOUS
 10
-16.7
 20
20.6000380769
 11
-16.7
 21
18.67
  0
LINE
  5
310
100
AcDbEntity
  8
0
100
AcDbLine
 62
7
  6
CONTINUOUS
 10
-16.7
 20
18.67
 11
-16.7
 21
17.675
  0
LINE
  5
311
100
AcDbEntity
  8
DRAFT
100
AcDbLine
 62
7
  6
CONTINUOUS
 10
-16.7
 20
17.65
 11
-16.7
 21
17.05
  0
LINE
  5
312
100
AcDbEntity
  8
DRAFT
100
AcDbLine
 62
7
  6
CONTINUOUS
 10
-16.7
 20
13.25
 11
-16.7
 21
12.65
  0
LINE
  5
313
100
AcDbEntity
  8
ASSI
100
AcDbLine
 62
7
  6
CONTINUOUS
 10
-16.7
 20
12.65
 11
-16.7
 21
11.6674537356
  0
LINE
  5
314
100
AcDbEntity
  8
0
100
AcDbLine
 62
7
  6
CONTINUOUS
 10
-16.7
 20
12.625
 11
-16.7
 21
11.63
  0
LINE
  5
315
100
AcDbEntity
  8
DRAFT
100
AcDbLine
 62
7
  6
CONTINUOUS
 10
-16.7
 20
11.63
 11
-16.7
 21
-1.1
  0
LINE
  5
316
100
AcDbEntity
  8
DRAFT
100
AcDbLine
 62
7
  6
CONTINUOUS
 10
-16.7
 20
-1.9
 11
-16.7
 21
-4.0
  0
LINE
  5
317
100
AcDbEntity
  8
DRAFT
100
AcDbLine
 62
7
  6
CONTINUOUS
 10
-16.7
 20
-6.5
 11
-16.7
 21
-13.4
  0
LINE
  5
318
100
AcDbEntity
  8
RACCORDO
100
AcDbLine
 62
7
  6
CONTINUOUS
 10
-16.7
 20
-17.15
 11
-16.7
 21
-20.6000380769
  0
LINE
  5
319
100
AcDbEntity
  8
DRAFT
100
AcDbLine
 62
7
  6
CONTINUOUS
 10
-16.7
 20
-17.15
 11
-16.7
 21
-16.9
  0
LINE
  5
31A
100
AcDbEntity
  8
ASSI
100
AcDbLine
 62
7
  6
CONTINUOUS
 10
-16.7
 20
-21.7587268678
 11
-16.7
 21
-16.9
  0
LINE
  5
31B
100
AcDbEntity
  8
DRAFT
100
AcDbLine
 62
7
  6
CONTINUOUS
 10
-16.7
 20
-6.4947634805
 11
-16.7
 21
-4.0052365195
  0
LINE
  5
31C
100
AcDbEntity
  8
ASSI
100
AcDbLine
 62
7
  6
CONTINUOUS
 10
-16.7
 20
-13.4
 11
-16.7
 21
-1.9
  0
LINE
  5
31D
100
AcDbEntity
  8
ASSI
100
AcDbLine
 62
7
  6
CONTINUOUS
 10
-16.7
 20
-1.1
 11
-16.7
 21
11.63
  0
LINE
  5
31E
100
AcDbEntity
  8
ASSI
100
AcDbLine
 62
7
  6
CONTINUOUS
 10
-16.7
 20
17.65
 11
-16.7
 21
18.6325462644
  0
LINE
  5
31F
100
AcDbEntity
  8
ASSI
100
AcDbLine
 62
7
  6
CONTINUOUS
 10
-16.7
 20
18.67
 11
-16.7
 21
21.7586507125
  0
LINE
  5
320
100
AcDbEntity
  8
ASSI
100
AcDbLine
 62
7
  6
CONTINUOUS
 10
-16.1400000429
 20
-4.35
 11
-16.1400000429
 21
-6.15
  0
LINE
  5
321
100
AcDbEntity
  8
ASSI
100
AcDbLine
 62
7
  6
CONTINUOUS
 10
-15.8700000429
 20
-5.8436170578
 11
-15.8700000429
 21
-4.35
  0
LINE
  5
322
100
AcDbEntity
  8
DRAFT
100
AcDbLine
 62
7
  6
CONTINUOUS
 10
-15.65
 20
23.8
 11
-15.65
 21
22.4
  0
LINE
  5
323
100
AcDbEntity
  8
ASSI
100
AcDbLine
 62
7
  6
CONTINUOUS
 10
-15.65
 20
23.8
 11
-15.65
 21
22.4
  0
LINE
  5
324
100
AcDbEntity
  8
DRAFT
100
AcDbLine
 62
7
  6
CONTINUOUS
 10
-15.65
 20
-22.4
 11
-15.65
 21
-23.8
  0
LINE
  5
325
100
AcDbEntity
  8
ASSI
100
AcDbLine
 62
7
  6
CONTINUOUS
 10
-15.65
 20
-22.4
 11
-15.65
 21
-23.8
  0
LINE
  5
326
100
AcDbEntity
  8
ASSI
100
AcDbLine
 62
7
  6
CONTINUOUS
 10
-15.6059327327
 20
-22.3338981669
 11
-15.6059327327
 21
-23.7507734247
  0
LINE
  5
327
100
AcDbEntity
  8
ASSI
100
AcDbLine
 62
7
  6
CONTINUOUS
 10
-15.6059327327
 20
22.3338981669
 11
-15.6059327327
 21
23.7507734247
  0
LINE
  5
328
100
AcDbEntity
  8
ASSI
100
AcDbLine
 62
7
  6
CONTINUOUS
 10
-15.5999999785
 20
-5.8819149256
 11
-15.5999999785
 21
-5.5755318761
  0
LINE
  5
329
100
AcDbEntity
  8
0
100
AcDbLine
 62
7
  6
CONTINUOUS
 10
-15.5065
 20
-13.4
 11
-15.5065
 21
-16.9
  0
LINE
  5
32A
100
AcDbEntity
  8
ASSI
100
AcDbLine
 62
7
  6
CONTINUOUS
 10
-15.24
 20
-4.35
 11
-15.24
 21
-6.15
  0
LINE
  5
32B
100
AcDbEntity
  8
0
100
AcDbLine
 62
7
  6
CONTINUOUS
 10
-20.9
 20
-5.7797872305
 11
-20.9583334446
 21
-5.8989361525
  0
LINE
  5
32C
100
AcDbEntity
  8
ASSI
100
AcDbLine
 62
7
  6
CONTINUOUS
 10
-11.25
 20
11.65
 11
-11.2369096983
 21
11.6630903017
  0
LINE
  5
32D
100
AcDbEntity
  8
ASSI
100
AcDbLine
 62
250
  6
CONTINUOUS
 10
-9.0000571154
 20
12.65
 11
-9.017510851
 21
12.6325462644
  0
LINE
  5
32E
100
AcDbEntity
  8
RACCORDO
100
AcDbLine
 62
7
  6
CONTINUOUS
 10
8.1206870971
 20
-16.7591945569
 11
4.1423111063
 21
-16.8370629297
  0
LINE
  5
32F
100
AcDbEntity
  8
DRAFT
100
AcDbLine
 62
7
  6
CONTINUOUS
 10
19.2
 20
-16.7936994191
 11
12.8
 21
-16.8121302998
  0
LINE
  5
330
100
AcDbEntity
  8
DRAFT
100
AcDbLine
 62
7
  6
CONTINUOUS
 10
8.3
 20
-16.8250895128
 11
1.9
 21
-16.8435203935
  0
LINE
  5
331
100
AcDbEntity
  8
DRAFT
100
AcDbLine
 62
7
  6
CONTINUOUS
 10
-5.8
 20
-17.15
 11
-2.6
 21
-17.1430185058
  0
LINE
  5
332
100
AcDbEntity
  8
RACCORDO
100
AcDbLine
 62
7
  6
CONTINUOUS
 10
19.2
 20
-17.35
 11
12.8
 21
-17.35
  0
LINE
  5
333
100
AcDbEntity
  8
RACCORDO
100
AcDbLine
 62
7
  6
CONTINUOUS
 10
8.3
 20
-17.35
 11
1.9
 21
-17.35
  0
LINE
  5
334
100
AcDbEntity
  8
ASSI
100
AcDbLine
 62
7
  6
CONTINUOUS
 10
-5.8
 20
-17.15
 11
-9.0
 21
-17.15
  0
LINE
  5
335
100
AcDbEntity
  8
ASSI
100
AcDbLine
 62
7
  6
CONTINUOUS
 10
-13.5
 20
-17.15
 11
-16.7
 21
-17.15
  0
LINE
  5
336
100
AcDbEntity
  8
0
100
AcDbLine
 62
7
  6
CONTINUOUS
 10
-19.85
 20
-16.9
 11
-16.7
 21
-16.9
  0
LINE
  5
337
100
AcDbEntity
  8
0
100
AcDbLine
 62
7
  6
CONTINUOUS
 10
-5.8
 20
-16.9
 11
-2.6
 21
-16.9
  0
LINE
  5
338
100
AcDbEntity
  8
ASSI
100
AcDbLine
 62
7
  6
CONTINUOUS
 10
-5.8
 20
-16.9
 11
-9.0
 21
-16.9
  0
LINE
  5
339
100
AcDbEntity
  8
ASSI
100
AcDbLine
 62
7
  6
CONTINUOUS
 10
-13.5
 20
-16.9
 11
-16.7
 21
-16.9
  0
LINE
  5
33A
100
AcDbEntity
  8
DRAFT
100
AcDbLine
 62
250
  6
CONTINUOUS
 10
11.3
 20
-16.2319660113
 11
11.2650898701
 21
-16.2319660113
  0
LINE
  5
33B
100
AcDbEntity
  8
DRAFT
100
AcDbLine
 62
250
  6
CONTINUOUS
 10
20.7
 20
-16.2319660113
 11
20.7349101299
 21
-16.2319660113
  0
LINE
  5
33C
100
AcDbEntity
  8
DRAFT
100
AcDbLine
 62
250
  6
CONTINUOUS
 10
-20.8409655852
 20
-16.15
 11
-20.8182458366
 21
-16.15
  0
LINE
  5
33D
100
AcDbEntity
  8
DRAFT
100
AcDbLine
 62
7
  6
CONTINUOUS
 10
-16.7
 20
-17.15
 11
-19.85
 21
-17.1431275916
  0
LINE
  5
33E
100
AcDbEntity
  8
RACCORDO
100
AcDbLine
 62
7
  6
CONTINUOUS
 10
14.5508539589
 20
-16.8070881466
 11
12.9754932844
 21
-16.7762537628
  0
LINE
  5
33F
100
AcDbEntity
  8
0
100
AcDbLine
 62
7
  6
CONTINUOUS
 10
-18.2166666389
 20
-6.0180850744
 11
-18.0416666389
 21
-6.1968084574
  0
LINE
  5
340
100
AcDbEntity
  8
0
100
AcDbLine
 62
7
  6
CONTINUOUS
 10
-17.8666666389
 20
-5.9585106134
 11
-17.925
 21
-5.8989361525
  0
LINE
  5
341
100
AcDbEntity
  8
0
100
AcDbLine
 62
7
  6
CONTINUOUS
 10
-15.2
 20
-16.9
 11
-15.2
 21
-13.4
  0
LINE
  5
342
100
AcDbEntity
  8
ASSI
100
AcDbLine
 62
7
  6
CONTINUOUS
 10
-14.97
 20
-5.8436170578
 11
-14.97
 21
-4.35
  0
LINE
  5
343
100
AcDbEntity
  8
RACCORDO
100
AcDbLine
 62
7
  6
CONTINUOUS
 10
-14.75
 20
-22.3339198952
 11
-14.75
 21
-23.7511422903
  0
LINE
  5
344
100
AcDbEntity
  8
ASSI
100
AcDbLine
 62
7
  6
CONTINUOUS
 10
-14.75
 20
-22.3339198952
 11
-14.75
 21
-23.7511422903
  0
LINE
  5
345
100
AcDbEntity
  8
ASSI
100
AcDbLine
 62
7
  6
CONTINUOUS
 10
-14.75
 20
-23.7563493531
 11
-14.75
 21
-23.7941821702
  0
LINE
  5
346
100
AcDbEntity
  8
ASSI
100
AcDbLine
 62
7
  6
CONTINUOUS
 10
-14.75
 20
23.7563493531
 11
-14.75
 21
23.7941821702
  0
LINE
  5
347
100
AcDbEntity
  8
ASSI
100
AcDbLine
 62
7
  6
CONTINUOUS
 10
-14.75
 20
22.3339198952
 11
-14.75
 21
23.7511422903
  0
LINE
  5
348
100
AcDbEntity
  8
ASSI
100
AcDbLine
 62
7
  6
CONTINUOUS
 10
-14.7
 20
-5.8819149256
 11
-14.7
 21
-5.5755318761
  0
LINE
  5
349
100
AcDbEntity
  8
RACCORDO
100
AcDbLine
 62
7
  6
CONTINUOUS
 10
-14.25
 20
-21.7587268678
 11
-14.25
 21
-22.3912731322
  0
LINE
  5
34A
100
AcDbEntity
  8
ASSI
100
AcDbLine
 62
7
  6
CONTINUOUS
 10
-14.25
 20
-21.7587268678
 11
-14.25
 21
-22.3912731322
  0
LINE
  5
34B
100
AcDbEntity
  8
RACCORDO
100
AcDbLine
 62
7
  6
CONTINUOUS
 10
-14.25
 20
21.7587268678
 11
-14.25
 21
22.3912731322
  0
LINE
  5
34C
100
AcDbEntity
  8
ASSI
100
AcDbLine
 62
7
  6
CONTINUOUS
 10
-14.25
 20
21.7587268678
 11
-14.25
 21
22.3912731322
  0
LINE
  5
34D
100
AcDbEntity
  8
ASSI
100
AcDbLine
 62
250
  6
CONTINUOUS
 10
-13.5
 20
-13.15
 11
-13.5
 21
-13.4
  0
LINE
  5
34E
100
AcDbEntity
  8
ASSI
100
AcDbLine
 62
250
  6
CONTINUOUS
 10
-13.5
 20
-16.9
 11
-13.5
 21
-17.15
  0
LINE
  5
34F
100
AcDbEntity
  8
0
100
AcDbLine
 62
7
  6
CONTINUOUS
 10
-18.275
 20
-5.7797872305
 11
-18.3333333611
 21
-5.8989361525
  0
LINE
  5
350
100
AcDbEntity
  8
ASSI
100
AcDbLine
 62
7
  6
CONTINUOUS
 10
-11.25
 20
9.0
 11
-11.2455604108
 21
9.0044395892
  0
LINE
  5
351
100
AcDbEntity
  8
RACCORDO
100
AcDbLine
 62
7
  6
CONTINUOUS
 10
3.4
 20
21.8
 11
3.9799282041
 21
22.3799282041
  0
LINE
  5
352
100
AcDbEntity
  8
ASSI
100
AcDbLine
 62
7
  6
CONTINUOUS
 10
3.4
 20
21.8
 11
3.9799282041
 21
22.3799282041
  0
LINE
  5
353
100
AcDbEntity
  8
RACCORDO
100
AcDbLine
 62
7
  6
CONTINUOUS
 10
14.5508539589
 20
-13.3929118534
 11
12.9754932844
 21
-13.4237462372
  0
LINE
  5
354
100
AcDbEntity
  8
DRAFT
100
AcDbLine
 62
7
  6
CONTINUOUS
 10
-16.7
 20
-13.15
 11
-19.85
 21
-13.1568724084
  0
LINE
  5
355
100
AcDbEntity
  8
ASSI
100
AcDbLine
 62
7
  6
CONTINUOUS
 10
-11.2369096983
 20
-14.1980762114
 11
-10.0630903017
 21
-14.1980762114
  0
LINE
  5
356
100
AcDbEntity
  8
DRAFT
100
AcDbLine
 62
250
  6
CONTINUOUS
 10
-20.8409655852
 20
-14.15
 11
-20.8182458366
 21
-14.15
  0
LINE
  5
357
100
AcDbEntity
  8
DRAFT
100
AcDbLine
 62
250
  6
CONTINUOUS
 10
11.3
 20
-13.9680339887
 11
11.2650898701
 21
-13.9680339887
  0
LINE
  5
358
100
AcDbEntity
  8
DRAFT
100
AcDbLine
 62
250
  6
CONTINUOUS
 10
20.7
 20
-13.9680339887
 11
20.7349101299
 21
-13.9680339887
  0
LINE
  5
359
100
AcDbEntity
  8
0
100
AcDbLine
 62
7
  6
CONTINUOUS
 10
20.0280935912
 20
-13.9
 11
18.85
 21
-13.9
  0
LINE
  5
35A
100
AcDbEntity
  8
0
100
AcDbLine
 62
7
  6
CONTINUOUS
 10
13.35
 20
-13.9
 11
12.2495947862
 21
-13.9
  0
LINE
  5
35B
100
AcDbEntity
  8
0
100
AcDbLine
 62
7
  6
CONTINUOUS
 10
8.8519990527
 20
-13.9
 11
7.75
 21
-13.9
  0
LINE
  5
35C
100
AcDbEntity
  8
0
100
AcDbLine
 62
7
  6
CONTINUOUS
 10
2.25
 20
-13.9
 11
1.0411152047
 21
-13.9
  0
LINE
  5
35D
100
AcDbEntity
  8
0
100
AcDbLine
 62
7
  6
CONTINUOUS
 10
-1.8401858905
 20
-13.75
 11
-3.05
 21
-13.75
  0
LINE
  5
35E
100
AcDbEntity
  8
0
100
AcDbLine
 62
7
  6
CONTINUOUS
 10
-8.55
 20
-13.75
 11
-9.759782951
 21
-13.75
  0
LINE
  5
35F
100
AcDbEntity
  8
0
100
AcDbLine
 62
7
  6
CONTINUOUS
 10
-12.9002151931
 20
-13.6
 11
-13.95
 21
-13.6
  0
LINE
  5
360
100
AcDbEntity
  8
0
100
AcDbLine
 62
7
  6
CONTINUOUS
 10
-19.45
 20
-13.6
 11
-20.449687625
 21
-13.6
  0
LINE
  5
361
100
AcDbEntity
  8
ASSI
100
AcDbLine
 62
7
  6
CONTINUOUS
 10
-16.7
 20
-13.4
 11
-13.5
 21
-13.4
  0
LINE
  5
362
100
AcDbEntity
  8
0
100
AcDbLine
 62
7
  6
CONTINUOUS
 10
15.6
 20
-13.4
 11
14.1887131912
 21
-13.4
  0
LINE
  5
363
100
AcDbEntity
  8
ASSI
100
AcDbLine
 62
7
  6
CONTINUOUS
 10
-9.0
 20
-13.4
 11
-5.8
 21
-13.4
  0
LINE
  5
364
100
AcDbEntity
  8
0
100
AcDbLine
 62
7
  6
CONTINUOUS
 10
6.0358946536
 20
-13.4
 11
5.5
 21
-13.4
  0
LINE
  5
365
100
AcDbEntity
  8
0
100
AcDbLine
 62
7
  6
CONTINUOUS
 10
1.622589366
 20
-13.4
 11
4.5
 21
-13.4
  0
LINE
  5
366
100
AcDbEntity
  8
0
100
AcDbLine
 62
7
  6
CONTINUOUS
 10
-2.6
 20
-13.4
 11
-5.8
 21
-13.4
  0
LINE
  5
367
100
AcDbEntity
  8
0
100
AcDbLine
 62
7
  6
CONTINUOUS
 10
-16.7
 20
-13.4
 11
-19.85
 21
-13.4
  0
LINE
  5
368
100
AcDbEntity
  8
ASSI
100
AcDbLine
 62
7
  6
CONTINUOUS
 10
-16.7
 20
-13.15
 11
-13.5
 21
-13.15
  0
LINE
  5
369
100
AcDbEntity
  8
ASSI
100
AcDbLine
 62
7
  6
CONTINUOUS
 10
-9.0
 20
-13.15
 11
-5.8
 21
-13.15
  0
LINE
  5
36A
100
AcDbEntity
  8
DRAFT
100
AcDbLine
 62
7
  6
CONTINUOUS
 10
-5.8
 20
-13.15
 11
-2.6
 21
-13.1569814942
  0
LINE
  5
36B
100
AcDbEntity
  8
DRAFT
100
AcDbLine
 62
7
  6
CONTINUOUS
 10
1.9
 20
-13.3564796065
 11
8.3
 21
-13.3749104872
  0
LINE
  5
36C
100
AcDbEntity
  8
DRAFT
100
AcDbLine
 62
7
  6
CONTINUOUS
 10
12.8
 20
-13.3878697002
 11
19.2
 21
-13.4063005809
  0
LINE
  5
36D
100
AcDbEntity
  8
RACCORDO
100
AcDbLine
 62
7
  6
CONTINUOUS
 10
8.1206870971
 20
-13.4408054431
 11
4.1423111063
 21
-13.3629370703
  0
LINE
  5
36E
100
AcDbEntity
  8
0
100
AcDbLine
 62
7
  6
CONTINUOUS
 10
-21.3083334446
 20
-6.0180850744
 11
-21.425
 21
-5.9585106134
  0
LINE
  5
36F
100
AcDbEntity
  8
0
100
AcDbLine
 62
7
  6
CONTINUOUS
 10
-20.375
 20
-6.0180850744
 11
-20.4916665554
 21
-5.9585106134
  0
LINE
  5
370
100
AcDbEntity
  8
0
100
AcDbLine
 62
7
  6
CONTINUOUS
 10
-18.6833332777
 20
-6.0180850744
 11
-18.8
 21
-5.9585106134
  0
LINE
  5
371
100
AcDbEntity
  8
0
100
AcDbLine
 62
7
  6
CONTINUOUS
 10
-17.75
 20
-6.0180850744
 11
-17.8666666389
 21
-5.9585106134
  0
LINE
  5
372
100
AcDbEntity
  8
0
100
AcDbLine
 62
7
  6
CONTINUOUS
 10
-6.15
 20
-13.4
 11
-5.8
 21
-13.75
  0
LINE
  5
373
100
AcDbEntity
  8
RACCORDO
100
AcDbLine
 62
7
  6
CONTINUOUS
 10
3.4
 20
-21.8
 11
3.9799282041
 21
-22.3799282041
  0
LINE
  5
374
100
AcDbEntity
  8
ASSI
100
AcDbLine
 62
7
  6
CONTINUOUS
 10
3.4
 20
-21.8
 11
3.9799282041
 21
-22.3799282041
  0
LINE
  5
375
100
AcDbEntity
  8
ASSI
100
AcDbLine
 62
7
  6
CONTINUOUS
 10
-11.2369096983
 20
-14.1980762114
 11
-11.25
 21
-11.6
  0
LINE
  5
376
100
AcDbEntity
  8
ASSI
100
AcDbLine
 62
7
  6
CONTINUOUS
 10
-12.5
 20
-14.1807764064
 11
-12.5
 21
-16.1192235936
  0
LINE
  5
377
100
AcDbEntity
  8
ASSI
100
AcDbLine
 62
7
  6
CONTINUOUS
 10
-12.0
 20
16.1500571154
 11
-12.0
 21
14.1499428846
  0
LINE
  5
378
100
AcDbEntity
  8
ASSI
100
AcDbLine
 62
7
  6
CONTINUOUS
 10
-11.9825462644
 20
16.167510851
 11
-11.9825462644
 21
14.132489149
  0
LINE
  5
379
100
AcDbEntity
  8
ASSI
100
AcDbLine
 62
7
  6
CONTINUOUS
 10
-11.2552365195
 20
-6.4947634805
 11
-11.2552365195
 21
-4.0052365195
  0
LINE
  5
37A
100
AcDbEntity
  8
ASSI
100
AcDbLine
 62
7
  6
CONTINUOUS
 10
-11.25
 20
-20.7586887894
 11
-11.25
 21
-11.6
  0
LINE
  5
37B
100
AcDbEntity
  8
ASSI
100
AcDbLine
 62
7
  6
CONTINUOUS
 10
-11.25
 20
-6.5
 11
-11.25
 21
-4.0
  0
LINE
  5
37C
100
AcDbEntity
  8
ASSI
100
AcDbLine
 62
7
  6
CONTINUOUS
 10
-11.25
 20
9.0
 11
-11.25
 21
11.65
  0
LINE
  5
37D
100
AcDbEntity
  8
ASSI
100
AcDbLine
 62
7
  6
CONTINUOUS
 10
-11.2369096983
 20
-19.7542872771
 11
-11.2369096983
 21
-14.1980762114
  0
LINE
  5
37E
100
AcDbEntity
  8
ASSI
100
AcDbLine
 62
7
  6
CONTINUOUS
 10
-11.2369096983
 20
10.0044015123
 11
-11.2369096983
 21
11.6630903017
  0
LINE
  5
37F
100
AcDbEntity
  8
0
100
AcDbLine
 62
7
  6
CONTINUOUS
 10
-20.9583334446
 20
-5.8989361525
 11
-21.0166665554
 21
-5.9585106134
  0
LINE
  5
380
100
AcDbEntity
  8
RACCORDO
100
AcDbLine
 62
7
  6
CONTINUOUS
 10
1.9
 20
-12.85
 11
8.3
 21
-12.85
  0
LINE
  5
381
100
AcDbEntity
  8
RACCORDO
100
AcDbLine
 62
7
  6
CONTINUOUS
 10
12.8
 20
-12.85
 11
19.2
 21
-12.85
  0
LINE
  5
382
100
AcDbEntity
  8
ASSI
100
AcDbLine
 62
7
  6
CONTINUOUS
 10
1.9
 20
-12.35
 11
8.3
 21
-12.35
  0
LINE
  5
383
100
AcDbEntity
  8
DRAFT
100
AcDbLine
 62
7
  6
CONTINUOUS
 10
12.8
 20
-12.35
 11
19.2
 21
-12.35
  0
LINE
  5
384
100
AcDbEntity
  8
DRAFT
100
AcDbLine
 62
7
  6
CONTINUOUS
 10
12.8
 20
-12.3150898701
 11
19.2
 21
-12.3150898701
  0
LINE
  5
385
100
AcDbEntity
  8
ASSI
100
AcDbLine
 62
7
  6
CONTINUOUS
 10
-10.05
 20
-11.6
 11
-11.25
 21
-11.6
  0
LINE
  5
386
100
AcDbEntity
  8
0
100
AcDbLine
 62
7
  6
CONTINUOUS
 10
-22.1
 20
-11.5980762114
 11
-20.9
 21
-11.5980762114
  0
LINE
  5
387
100
AcDbEntity
  8
DRAFT
100
AcDbLine
 62
7
  6
CONTINUOUS
 10
19.2
 20
-11.5029441186
 11
12.8
 21
-11.5029441186
  0
LINE
  5
388
100
AcDbEntity
  8
DRAFT
100
AcDbLine
 62
7
  6
CONTINUOUS
 10
8.3
 20
-11.5029441186
 11
1.9
 21
-11.5029441186
  0
LINE
  5
389
100
AcDbEntity
  8
DRAFT
100
AcDbLine
 62
7
  6
CONTINUOUS
 10
-22.4226915844
 20
-11.5
 11
-22.1
 21
-11.5
  0
LINE
  5
38A
100
AcDbEntity
  8
ASSI
100
AcDbLine
 62
7
  6
CONTINUOUS
 10
-22.4226915844
 20
-11.5
 11
-22.1
 21
-11.5
  0
LINE
  5
38B
100
AcDbEntity
  8
ASSI
100
AcDbLine
 62
7
  6
CONTINUOUS
 10
-5.8
 20
-11.5
 11
-9.8
 21
-11.5
  0
LINE
  5
38C
100
AcDbEntity
  8
ASSI
100
AcDbLine
 62
7
  6
CONTINUOUS
 10
-9.7947634805
 20
-11.4947634805
 11
-5.8
 21
-11.4947634805
  0
LINE
  5
38D
100
AcDbEntity
  8
DRAFT
100
AcDbLine
 62
7
  6
CONTINUOUS
 10
19.2
 20
-11.4680339887
 11
18.5
 21
-11.4680339887
  0
LINE
  5
38E
100
AcDbEntity
  8
DRAFT
100
AcDbLine
 62
7
  6
CONTINUOUS
 10
13.5
 20
-11.4680339887
 11
12.8
 21
-11.4680339887
  0
LINE
  5
38F
100
AcDbEntity
  8
DRAFT
100
AcDbLine
 62
7
  6
CONTINUOUS
 10
8.3
 20
-11.4680339887
 11
1.9
 21
-11.4680339887
  0
LINE
  5
390
100
AcDbEntity
  8
DRAFT
100
AcDbLine
 62
7
  6
CONTINUOUS
 10
13.5087275325
 20
-11.4593064563
 11
18.4912724675
 21
-11.4593064563
  0
LINE
  5
391
100
AcDbEntity
  8
0
100
AcDbLine
 62
7
  6
CONTINUOUS
 10
-21.6
 20
-6.1968084574
 11
-21.425
 21
-6.2563829184
  0
LINE
  5
392
100
AcDbEntity
  8
0
100
AcDbLine
 62
7
  6
CONTINUOUS
 10
-20.6666665554
 20
-6.1968084574
 11
-20.4916665554
 21
-6.2563829184
  0
LINE
  5
393
100
AcDbEntity
  8
0
100
AcDbLine
 62
7
  6
CONTINUOUS
 10
-18.975
 20
-6.1968084574
 11
-18.8
 21
-6.2563829184
  0
LINE
  5
394
100
AcDbEntity
  8
0
100
AcDbLine
 62
7
  6
CONTINUOUS
 10
-18.0416666389
 20
-6.1968084574
 11
-17.8666666389
 21
-6.2563829184
  0
LINE
  5
395
100
AcDbEntity
  8
ASSI
100
AcDbLine
 62
7
  6
CONTINUOUS
 10
-11.25
 20
-6.5
 11
-11.2552365195
 21
-6.4947634805
  0
LINE
  5
396
100
AcDbEntity
  8
ASSI
100
AcDbLine
 62
7
  6
CONTINUOUS
 10
-8.9333332539
 20
-6.3457446694
 11
-6.85
 21
-9.75
  0
LINE
  5
397
100
AcDbEntity
  8
ASSI
100
AcDbLine
 62
7
  6
CONTINUOUS
 10
-10.5174537356
 20
14.132489149
 11
-10.5174537356
 21
16.167510851
  0
LINE
  5
398
100
AcDbEntity
  8
ASSI
100
AcDbLine
 62
7
  6
CONTINUOUS
 10
-10.5
 20
14.1499428846
 11
-10.5
 21
16.1500571154
  0
LINE
  5
399
100
AcDbEntity
  8
ASSI
100
AcDbLine
 62
7
  6
CONTINUOUS
 10
-10.0630903017
 20
11.6630903017
 11
-10.0630903017
 21
10.0044015123
  0
LINE
  5
39A
100
AcDbEntity
  8
ASSI
100
AcDbLine
 62
7
  6
CONTINUOUS
 10
-10.0630903017
 20
-19.7542872771
 11
-10.0630903017
 21
-14.1980762114
  0
LINE
  5
39B
100
AcDbEntity
  8
ASSI
100
AcDbLine
 62
7
  6
CONTINUOUS
 10
-10.05
 20
-20.7586887894
 11
-10.05
 21
-11.6
  0
LINE
  5
39C
100
AcDbEntity
  8
ASSI
100
AcDbLine
 62
7
  6
CONTINUOUS
 10
-10.05
 20
9.0
 11
-10.05
 21
11.65
  0
LINE
  5
39D
100
AcDbEntity
  8
ASSI
100
AcDbLine
 62
7
  6
CONTINUOUS
 10
-10.0
 20
-16.1192235936
 11
-10.0
 21
-14.1807764064
  0
LINE
  5
39E
100
AcDbEntity
  8
ASSI
100
AcDbLine
 62
7
  6
CONTINUOUS
 10
-9.8
 20
11.5
 11
-9.8
 21
4.0
  0
LINE
  5
39F
100
AcDbEntity
  8
ASSI
100
AcDbLine
 62
7
  6
CONTINUOUS
 10
-9.8
 20
-4.0
 11
-9.8
 21
-11.5
  0
LINE
  5
3A0
100
AcDbEntity
  8
ASSI
100
AcDbLine
 62
7
  6
CONTINUOUS
 10
-9.7947634805
 20
11.4947634805
 11
-9.7947634805
 21
4.0052365195
  0
LINE
  5
3A1
100
AcDbEntity
  8
ASSI
100
AcDbLine
 62
7
  6
CONTINUOUS
 10
-9.7947634805
 20
-4.0052365195
 11
-9.7947634805
 21
-11.4947634805
  0
LINE
  5
3A2
100
AcDbEntity
  8
ASSI
100
AcDbLine
 62
7
  6
CONTINUOUS
 10
-9.4333332539
 20
9.75
 11
-9.4333332539
 21
5.75
  0
LINE
  5
3A3
100
AcDbEntity
  8
ASSI
100
AcDbLine
 62
7
  6
CONTINUOUS
 10
-9.4333332539
 20
-5.75
 11
-9.4333332539
 21
-9.75
  0
LINE
  5
3A4
100
AcDbEntity
  8
ASSI
100
AcDbLine
 62
250
  6
CONTINUOUS
 10
-9.0
 20
-17.15
 11
-9.0
 21
-16.9
  0
LINE
  5
3A5
100
AcDbEntity
  8
ASSI
100
AcDbLine
 62
250
  6
CONTINUOUS
 10
-9.0
 20
-13.4
 11
-9.0
 21
-13.15
  0
LINE
  5
3A6
100
AcDbEntity
  8
ASSI
100
AcDbLine
 62
7
  6
CONTINUOUS
 10
-8.9333332539
 20
-9.75
 11
-8.9333332539
 21
-6.3457446694
  0
LINE
  5
3A7
100
AcDbEntity
  8
ASSI
100
AcDbLine
 62
7
  6
CONTINUOUS
 10
-8.9333332539
 20
5.75
 11
-8.9333332539
 21
9.1542553306
  0
LINE
  5
3A8
100
AcDbEntity
  8
ASSI
100
AcDbLine
 62
7
  6
CONTINUOUS
 10
-10.0630903017
 20
-14.1980762114
 11
-10.05
 21
-11.6
  0
LINE
  5
3A9
100
AcDbEntity
  8
0
100
AcDbLine
 62
7
  6
CONTINUOUS
 10
-21.0166665554
 20
-6.1968084574
 11
-20.8416665554
 21
-6.0180850744
  0
LINE
  5
3AA
100
AcDbEntity
  8
0
100
AcDbLine
 62
7
  6
CONTINUOUS
 10
-19.9666665554
 20
-5.8393616915
 11
-20.0833334446
 21
-5.9585106134
  0
LINE
  5
3AB
100
AcDbEntity
  8
0
100
AcDbLine
 62
7
  6
CONTINUOUS
 10
-20.0833334446
 20
-6.1968084574
 11
-19.9666665554
 21
-6.0776595354
  0
LINE
  5
3AC
100
AcDbEntity
  8
0
100
AcDbLine
 62
7
  6
CONTINUOUS
 10
-18.3333333611
 20
-5.8989361525
 11
-18.3916666389
 21
-5.9585106134
  0
LINE
  5
3AD
100
AcDbEntity
  8
0
100
AcDbLine
 62
7
  6
CONTINUOUS
 10
-18.3916666389
 20
-6.1968084574
 11
-18.2166666389
 21
-6.0180850744
  0
LINE
  5
3AE
100
AcDbEntity
  8
ASSI
100
AcDbLine
 62
7
  6
CONTINUOUS
 10
-9.8
 20
4.0
 11
-9.7947634805
 21
4.0052365195
  0
LINE
  5
3AF
100
AcDbEntity
  8
ASSI
100
AcDbLine
 62
7
  6
CONTINUOUS
 10
-9.4333332539
 20
-9.75
 11
-8.9333332539
 21
-9.75
  0
LINE
  5
3B0
100
AcDbEntity
  8
ASSI
100
AcDbLine
 62
7
  6
CONTINUOUS
 10
-6.85
 20
-9.75
 11
-6.1
 21
-9.75
  0
LINE
  5
3B1
100
AcDbEntity
  8
0
100
AcDbLine
 62
7
  6
CONTINUOUS
 10
14.3666667461
 20
-9.7180339887
 11
14.8666667461
 21
-9.7180339887
  0
LINE
  5
3B2
100
AcDbEntity
  8
0
100
AcDbLine
 62
7
  6
CONTINUOUS
 10
16.95
 20
-9.7180339887
 11
17.7
 21
-9.7180339887
  0
LINE
  5
3B3
100
AcDbEntity
  8
DRAFT
100
AcDbLine
 62
7
  6
CONTINUOUS
 10
-22.1
 20
-8.9183769566
 11
-20.9
 21
-8.9365154107
  0
LINE
  5
3B4
100
AcDbEntity
  8
ASSI
100
AcDbLine
 62
7
  6
CONTINUOUS
 10
-9.8
 20
-4.0
 11
-9.7947634805
 21
-4.0052365195
  0
LINE
  5
3B5
100
AcDbEntity
  8
ASSI
100
AcDbLine
 62
7
  6
CONTINUOUS
 10
-6.6
 20
-9.239361763
 11
-8.6833332539
 21
-5.75
  0
LINE
  5
3B6
100
AcDbEntity
  8
RACCORDO
100
AcDbLine
 62
7
  6
CONTINUOUS
 10
-8.25
 20
-21.7587268678
 11
-8.25
 21
-22.3912731322
  0
LINE
  5
3B7
100
AcDbEntity
  8
ASSI
100
AcDbLine
 62
7
  6
CONTINUOUS
 10
-8.25
 20
-21.7587268678
 11
-8.25
 21
-22.3912731322
  0
LINE
  5
3B8
100
AcDbEntity
  8
RACCORDO
100
AcDbLine
 62
7
  6
CONTINUOUS
 10
-8.25
 20
21.7587268678
 11
-8.25
 21
22.3912731322
  0
LINE
  5
3B9
100
AcDbEntity
  8
ASSI
100
AcDbLine
 62
7
  6
CONTINUOUS
 10
-8.25
 20
21.7587268678
 11
-8.25
 21
22.3912731322
  0
LINE
  5
3BA
100
AcDbEntity
  8
ASSI
100
AcDbLine
 62
7
  6
CONTINUOUS
 10
-7.75
 20
-22.3339198952
 11
-7.75
 21
-23.7511422903
  0
LINE
  5
3BB
100
AcDbEntity
  8
ASSI
100
AcDbLine
 62
7
  6
CONTINUOUS
 10
-7.75
 20
-23.7563493531
 11
-7.75
 21
-23.7941821702
  0
LINE
  5
3BC
100
AcDbEntity
  8
RACCORDO
100
AcDbLine
 62
7
  6
CONTINUOUS
 10
-7.75
 20
22.3339198952
 11
-7.75
 21
23.7511422903
  0
LINE
  5
3BD
100
AcDbEntity
  8
ASSI
100
AcDbLine
 62
7
  6
CONTINUOUS
 10
-7.75
 20
23.7563493531
 11
-7.75
 21
23.7941821702
  0
LINE
  5
3BE
100
AcDbEntity
  8
ASSI
100
AcDbLine
 62
7
  6
CONTINUOUS
 10
-7.75
 20
22.3339198952
 11
-7.75
 21
23.7511422903
  0
LINE
  5
3BF
100
AcDbEntity
  8
0
100
AcDbLine
 62
7
  6
CONTINUOUS
 10
-7.3
 20
-16.9
 11
-7.3
 21
-13.4
  0
LINE
  5
3C0
100
AcDbEntity
  8
0
100
AcDbLine
 62
7
  6
CONTINUOUS
 10
-6.9935
 20
-13.4
 11
-6.9935
 21
-16.9
  0
LINE
  5
3C1
100
AcDbEntity
  8
ASSI
100
AcDbLine
 62
7
  6
CONTINUOUS
 10
-6.8940672673
 20
-22.3338981669
 11
-6.8940672673
 21
-23.7507734247
  0
LINE
  5
3C2
100
AcDbEntity
  8
ASSI
100
AcDbLine
 62
7
  6
CONTINUOUS
 10
-6.8940672673
 20
22.3338981669
 11
-6.8940672673
 21
23.7507734247
  0
LINE
  5
3C3
100
AcDbEntity
  8
DRAFT
100
AcDbLine
 62
7
  6
CONTINUOUS
 10
-6.85
 20
-23.8
 11
-6.85
 21
-22.4
  0
LINE
  5
3C4
100
AcDbEntity
  8
ASSI
100
AcDbLine
 62
7
  6
CONTINUOUS
 10
-6.85
 20
-23.8
 11
-6.85
 21
-22.4
  0
LINE
  5
3C5
100
AcDbEntity
  8
DRAFT
100
AcDbLine
 62
7
  6
CONTINUOUS
 10
-6.85
 20
22.4
 11
-6.85
 21
23.8
  0
LINE
  5
3C6
100
AcDbEntity
  8
ASSI
100
AcDbLine
 62
7
  6
CONTINUOUS
 10
-6.85
 20
22.4
 11
-6.85
 21
23.8
  0
LINE
  5
3C7
100
AcDbEntity
  8
ASSI
100
AcDbLine
 62
7
  6
CONTINUOUS
 10
-6.6
 20
9.75
 11
-6.6
 21
6.260638237
  0
LINE
  5
3C8
100
AcDbEntity
  8
ASSI
100
AcDbLine
 62
7
  6
CONTINUOUS
 10
-6.6
 20
-5.75
 11
-6.6
 21
-9.239361763
  0
LINE
  5
3C9
100
AcDbEntity
  8
0
100
AcDbLine
 62
7
  6
CONTINUOUS
 10
-17.3416666597
 20
-5.8393616915
 11
-17.4583333194
 21
-5.9585106134
  0
LINE
  5
3CA
100
AcDbEntity
  8
0
100
AcDbLine
 62
7
  6
CONTINUOUS
 10
-17.4583333194
 20
-6.1968084574
 11
-17.3416666597
 21
-6.0776595354
  0
LINE
  5
3CB
100
AcDbEntity
  8
ASSI
100
AcDbLine
 62
7
  6
CONTINUOUS
 10
-15.5999999785
 20
-5.5755318761
 11
-15.8700000429
 21
-5.8436170578
  0
LINE
  5
3CC
100
AcDbEntity
  8
ASSI
100
AcDbLine
 62
7
  6
CONTINUOUS
 10
-15.8700000429
 20
-6.15
 11
-15.5999999785
 21
-5.8819149256
  0
LINE
  5
3CD
100
AcDbEntity
  8
ASSI
100
AcDbLine
 62
7
  6
CONTINUOUS
 10
-14.7
 20
-5.5755318761
 11
-14.97
 21
-5.8436170578
  0
LINE
  5
3CE
100
AcDbEntity
  8
DRAFT
100
AcDbLine
 62
7
  6
CONTINUOUS
 10
-22.1
 20
-6.5471250861
 11
-16.7
 21
-6.5
  0
LINE
  5
3CF
100
AcDbEntity
  8
ASSI
100
AcDbLine
 62
7
  6
CONTINUOUS
 10
-16.7
 20
-6.5
 11
-11.25
 21
-6.5
  0
LINE
  5
3D0
100
AcDbEntity
  8
ASSI
100
AcDbLine
 62
7
  6
CONTINUOUS
 10
-16.7
 20
-6.4947634805
 11
-11.2552365195
 21
-6.4947634805
  0
LINE
  5
3D1
100
AcDbEntity
  8
ASSI
100
AcDbLine
 62
7
  6
CONTINUOUS
 10
-6.1
 20
-9.75
 11
-6.1
 21
-5.75
  0
LINE
  5
3D2
100
AcDbEntity
  8
ASSI
100
AcDbLine
 62
7
  6
CONTINUOUS
 10
-6.1
 20
5.75
 11
-6.1
 21
9.75
  0
LINE
  5
3D3
100
AcDbEntity
  8
ASSI
100
AcDbLine
 62
7
  6
CONTINUOUS
 10
-5.8
 20
21.7586507125
 11
-5.8
 21
18.65
  0
LINE
  5
3D4
100
AcDbEntity
  8
ASSI
100
AcDbLine
 62
7
  6
CONTINUOUS
 10
-5.8
 20
11.65
 11
-5.8
 21
11.5
  0
LINE
  5
3D5
100
AcDbEntity
  8
ASSI
100
AcDbLine
 62
7
  6
CONTINUOUS
 10
-5.8
 20
4.0
 11
-5.8
 21
-0.1
  0
LINE
  5
3D6
100
AcDbEntity
  8
ASSI
100
AcDbLine
 62
7
  6
CONTINUOUS
 10
-5.8
 20
-0.9
 11
-5.8
 21
-4.0
  0
LINE
  5
3D7
100
AcDbEntity
  8
ASSI
100
AcDbLine
 62
7
  6
CONTINUOUS
 10
-5.8
 20
-11.5
 11
-5.8
 21
-13.4
  0
LINE
  5
3D8
100
AcDbEntity
  8
ASSI
100
AcDbLine
 62
7
  6
CONTINUOUS
 10
-5.8
 20
-16.9
 11
-5.8
 21
-21.7586507125
  0
LINE
  5
3D9
100
AcDbEntity
  8
RACCORDO
100
AcDbLine
 62
7
  6
CONTINUOUS
 10
-5.8
 20
-20.7586887894
 11
-5.8
 21
-17.15
  0
LINE
  5
3DA
100
AcDbEntity
  8
DRAFT
100
AcDbLine
 62
7
  6
CONTINUOUS
 10
-5.8
 20
-17.15
 11
-5.8
 21
-16.9
  0
LINE
  5
3DB
100
AcDbEntity
  8
DRAFT
100
AcDbLine
 62
7
  6
CONTINUOUS
 10
-5.8
 20
-13.4
 11
-5.8
 21
-0.9
  0
LINE
  5
3DC
100
AcDbEntity
  8
DRAFT
100
AcDbLine
 62
7
  6
CONTINUOUS
 10
-5.8
 20
-0.1
 11
-5.8
 21
11.65
  0
LINE
  5
3DD
100
AcDbEntity
  8
ASSI
100
AcDbLine
 62
7
  6
CONTINUOUS
 10
-5.8
 20
11.6674537356
 11
-5.8
 21
12.6325462644
  0
LINE
  5
3DE
100
AcDbEntity
  8
0
100
AcDbLine
 62
7
  6
CONTINUOUS
 10
-5.8
 20
11.65
 11
-5.8
 21
12.65
  0
LINE
  5
3DF
100
AcDbEntity
  8
DRAFT
100
AcDbLine
 62
7
  6
CONTINUOUS
 10
-5.8
 20
12.65
 11
-5.8
 21
13.25
  0
LINE
  5
3E0
100
AcDbEntity
  8
DRAFT
100
AcDbLine
 62
7
  6
CONTINUOUS
 10
-5.8
 20
17.05
 11
-5.8
 21
17.65
  0
LINE
  5
3E1
100
AcDbEntity
  8
ASSI
100
AcDbLine
 62
7
  6
CONTINUOUS
 10
-5.8
 20
17.6674537356
 11
-5.8
 21
18.6325462644
  0
LINE
  5
3E2
100
AcDbEntity
  8
0
100
AcDbLine
 62
7
  6
CONTINUOUS
 10
-5.8
 20
17.65
 11
-5.8
 21
18.65
  0
LINE
  5
3E3
100
AcDbEntity
  8
RACCORDO
100
AcDbLine
 62
7
  6
CONTINUOUS
 10
-5.8
 20
18.65
 11
-5.8
 21
20.7586887894
  0
LINE
  5
3E4
100
AcDbEntity
  8
0
100
AcDbLine
 62
7
  6
CONTINUOUS
 10
-4.6065
 20
-13.4
 11
-4.6065
 21
-16.9
  0
LINE
  5
3E5
100
AcDbEntity
  8
0
100
AcDbLine
 62
7
  6
CONTINUOUS
 10
-4.3
 20
-16.9
 11
-4.3
 21
-13.4
  0
LINE
  5
3E6
100
AcDbEntity
  8
ASSI
100
AcDbLine
 62
7
  6
CONTINUOUS
 10
15.65
 20
23.8
 11
15.6063493531
 21
23.7563493531
  0
LINE
  5
3E7
100
AcDbEntity
  8
ASSI
100
AcDbLine
 62
7
  6
CONTINUOUS
 10
-11.25
 20
-4.0
 11
-11.2552365195
 21
-4.0052365195
  0
LINE
  5
3E8
100
AcDbEntity
  8
ASSI
100
AcDbLine
 62
7
  6
CONTINUOUS
 10
-14.97
 20
-6.15
 11
-14.7
 21
-5.8819149256
  0
LINE
  5
3E9
100
AcDbEntity
  8
0
100
AcDbLine
 62
7
  6
CONTINUOUS
 10
-21.0166665554
 20
-5.9585106134
 11
-21.1333334446
 21
-6.0180850744
  0
LINE
  5
3EA
100
AcDbEntity
  8
0
100
AcDbLine
 62
7
  6
CONTINUOUS
 10
-21.425
 20
-6.2563829184
 11
-21.1916665554
 21
-6.2563829184
  0
LINE
  5
3EB
100
AcDbEntity
  8
0
100
AcDbLine
 62
7
  6
CONTINUOUS
 10
-20.4916665554
 20
-6.2563829184
 11
-20.2583334446
 21
-6.2563829184
  0
LINE
  5
3EC
100
AcDbEntity
  8
0
100
AcDbLine
 62
7
  6
CONTINUOUS
 10
-19.9666665554
 20
-6.2563829184
 11
-19.675
 21
-6.2563829184
  0
LINE
  5
3ED
100
AcDbEntity
  8
0
100
AcDbLine
 62
7
  6
CONTINUOUS
 10
-18.8
 20
-6.2563829184
 11
-18.5666667223
 21
-6.2563829184
  0
LINE
  5
3EE
100
AcDbEntity
  8
0
100
AcDbLine
 62
7
  6
CONTINUOUS
 10
-17.8666666389
 20
-6.2563829184
 11
-17.6333333194
 21
-6.2563829184
  0
LINE
  5
3EF
100
AcDbEntity
  8
0
100
AcDbLine
 62
7
  6
CONTINUOUS
 10
-17.3416666597
 20
-6.2563829184
 11
-17.05
 21
-6.2563829184
  0
LINE
  5
3F0
100
AcDbEntity
  8
ASSI
100
AcDbLine
 62
7
  6
CONTINUOUS
 10
-16.1400000429
 20
-6.15
 11
-15.8700000429
 21
-6.15
  0
LINE
  5
3F1
100
AcDbEntity
  8
ASSI
100
AcDbLine
 62
7
  6
CONTINUOUS
 10
-15.24
 20
-6.15
 11
-14.97
 21
-6.15
  0
LINE
  5
3F2
100
AcDbEntity
  8
0
100
AcDbLine
 62
7
  6
CONTINUOUS
 10
-17.6333333194
 20
-6.0180850744
 11
-17.75
 21
-6.0180850744
  0
LINE
  5
3F3
100
AcDbEntity
  8
0
100
AcDbLine
 62
7
  6
CONTINUOUS
 10
-18.5083332777
 20
-6.0180850744
 11
-18.6833332777
 21
-6.0180850744
  0
LINE
  5
3F4
100
AcDbEntity
  8
0
100
AcDbLine
 62
7
  6
CONTINUOUS
 10
-20.2583334446
 20
-6.0180850744
 11
-20.375
 21
-6.0180850744
  0
LINE
  5
3F5
100
AcDbEntity
  8
0
100
AcDbLine
 62
7
  6
CONTINUOUS
 10
-21.1333334446
 20
-6.0180850744
 11
-21.3083334446
 21
-6.0180850744
  0
LINE
  5
3F6
100
AcDbEntity
  8
ASSI
100
AcDbLine
 62
7
  6
CONTINUOUS
 10
-6.1
 20
-5.75
 11
-6.6
 21
-5.75
  0
LINE
  5
3F7
100
AcDbEntity
  8
ASSI
100
AcDbLine
 62
7
  6
CONTINUOUS
 10
-8.6833332539
 20
-5.75
 11
-9.4333332539
 21
-5.75
  0
LINE
  5
3F8
100
AcDbEntity
  8
0
100
AcDbLine
 62
7
  6
CONTINUOUS
 10
17.7
 20
-5.7180339887
 11
17.2
 21
-5.7180339887
  0
LINE
  5
3F9
100
AcDbEntity
  8
0
100
AcDbLine
 62
7
  6
CONTINUOUS
 10
15.1166667461
 20
-5.7180339887
 11
14.3666667461
 21
-5.7180339887
  0
LINE
  5
3FA
100
AcDbEntity
  8
ASSI
100
AcDbLine
 62
7
  6
CONTINUOUS
 10
-14.97
 20
-4.35
 11
-15.24
 21
-4.35
  0
LINE
  5
3FB
100
AcDbEntity
  8
ASSI
100
AcDbLine
 62
7
  6
CONTINUOUS
 10
-15.8700000429
 20
-4.35
 11
-16.1400000429
 21
-4.35
  0
LINE
  5
3FC
100
AcDbEntity
  8
0
100
AcDbLine
 62
7
  6
CONTINUOUS
 10
-17.05
 20
-4.35
 11
-17.3416666597
 21
-4.35
  0
LINE
  5
3FD
100
AcDbEntity
  8
0
100
AcDbLine
 62
7
  6
CONTINUOUS
 10
-17.9833333611
 20
-4.35
 11
-18.275
 21
-4.35
  0
LINE
  5
3FE
100
AcDbEntity
  8
0
100
AcDbLine
 62
7
  6
CONTINUOUS
 10
-18.9166667223
 20
-4.35
 11
-19.2083332777
 21
-4.35
  0
LINE
  5
3FF
100
AcDbEntity
  8
0
100
AcDbLine
 62
7
  6
CONTINUOUS
 10
-19.675
 20
-4.35
 11
-19.9666665554
 21
-4.35
  0
LINE
  5
400
100
AcDbEntity
  8
0
100
AcDbLine
 62
7
  6
CONTINUOUS
 10
-20.6083334446
 20
-4.35
 11
-20.9
 21
-4.35
  0
LINE
  5
401
100
AcDbEntity
  8
0
100
AcDbLine
 62
7
  6
CONTINUOUS
 10
-21.5416665554
 20
-4.35
 11
-21.8333334446
 21
-4.35
  0
LINE
  5
402
100
AcDbEntity
  8
RACCORDO
100
AcDbLine
 62
7
  6
CONTINUOUS
 10
-22.2
 20
-4.1477347721
 11
-22.2987606234
 21
-4.1477347721
  0
LINE
  5
403
100
AcDbEntity
  8
ASSI
100
AcDbLine
 62
7
  6
CONTINUOUS
 10
-22.2
 20
-4.1477347721
 11
-22.2987606234
 21
-4.1477347721
  0
LINE
  5
404
100
AcDbEntity
  8
DRAFT
100
AcDbLine
 62
7
  6
CONTINUOUS
 10
-22.1
 20
-3.9528749139
 11
-16.7
 21
-4.0
  0
LINE
  5
405
100
AcDbEntity
  8
0
100
AcDbLine
 62
7
  6
CONTINUOUS
 10
5.0
 20
-13.9
 11
4.5
 21
-13.4
  0
LINE
  5
406
100
AcDbEntity
  8
ASSI
100
AcDbLine
 62
7
  6
CONTINUOUS
 10
15.65
 20
-23.8
 11
15.6063493531
 21
-23.7563493531
  0
LINE
  5
407
100
AcDbEntity
  8
RACCORDO
100
AcDbLine
 62
250
  6
CONTINUOUS
 10
-2.995628166
 20
-23.8443375673
 11
-3.0
 21
-23.4104851482
  0
LINE
  5
408
100
AcDbEntity
  8
ASSI
100
AcDbLine
 62
250
  6
CONTINUOUS
 10
-2.995628166
 20
-23.8443375673
 11
-3.0
 21
-23.4104851482
  0
LINE
  5
409
100
AcDbEntity
  8
RACCORDO
100
AcDbLine
 62
250
  6
CONTINUOUS
 10
-2.7456323968
 20
-23.6278312164
 11
-2.7507229979
 21
-23.1226497308
  0
LINE
  5
40A
100
AcDbEntity
  8
ASSI
100
AcDbLine
 62
250
  6
CONTINUOUS
 10
-2.7456323968
 20
-23.6278312164
 11
-2.7507229979
 21
-23.1226497308
  0
LINE
  5
40B
100
AcDbEntity
  8
RACCORDO
100
AcDbLine
 62
7
  6
CONTINUOUS
 10
-3.0
 20
-22.4
 11
-3.0
 21
-23.8443375673
  0
LINE
  5
40C
100
AcDbEntity
  8
ASSI
100
AcDbLine
 62
7
  6
CONTINUOUS
 10
-3.0
 20
-22.4
 11
-3.0
 21
-23.8443375673
  0
LINE
  5
40D
100
AcDbEntity
  8
RACCORDO
100
AcDbLine
 62
7
  6
CONTINUOUS
 10
-3.0
 20
22.4
 11
-3.0
 21
23.4104851482
  0
LINE
  5
40E
100
AcDbEntity
  8
ASSI
100
AcDbLine
 62
7
  6
CONTINUOUS
 10
-3.0
 20
22.4
 11
-3.0
 21
23.4104851482
  0
LINE
  5
40F
100
AcDbEntity
  8
RACCORDO
100
AcDbLine
 62
250
  6
CONTINUOUS
 10
-2.995628166
 20
24.2456323968
 11
-2.995628166
 21
23.8443375673
  0
LINE
  5
410
100
AcDbEntity
  8
ASSI
100
AcDbLine
 62
7
  6
CONTINUOUS
 10
-2.995628166
 20
24.2456323968
 11
-2.995628166
 21
23.8443375673
  0
LINE
  5
411
100
AcDbEntity
  8
RACCORDO
100
AcDbLine
 62
250
  6
CONTINUOUS
 10
-2.995628166
 20
-23.8443375673
 11
-2.995628166
 21
-24.2456323968
  0
LINE
  5
412
100
AcDbEntity
  8
ASSI
100
AcDbLine
 62
7
  6
CONTINUOUS
 10
-2.995628166
 20
-23.8443375673
 11
-2.995628166
 21
-24.2456323968
  0
LINE
  5
413
100
AcDbEntity
  8
RACCORDO
100
AcDbLine
 62
250
  6
CONTINUOUS
 10
-2.7456323968
 20
-23.6278312164
 11
-2.7456323968
 21
-24.495628166
  0
LINE
  5
414
100
AcDbEntity
  8
ASSI
100
AcDbLine
 62
250
  6
CONTINUOUS
 10
-2.7456323968
 20
-23.6278312164
 11
-2.7456323968
 21
-24.495628166
  0
LINE
  5
415
100
AcDbEntity
  8
RACCORDO
100
AcDbLine
 62
250
  6
CONTINUOUS
 10
-2.7456323968
 20
23.6278312164
 11
-2.7456323968
 21
24.495628166
  0
LINE
  5
416
100
AcDbEntity
  8
ASSI
100
AcDbLine
 62
250
  6
CONTINUOUS
 10
-2.7456323968
 20
23.6278312164
 11
-2.7456323968
 21
24.495628166
  0
LINE
  5
417
100
AcDbEntity
  8
DRAFT
100
AcDbLine
 62
250
  6
CONTINUOUS
 10
-2.6
 20
17.1430185058
 11
-2.6
 21
17.0296252829
  0
LINE
  5
418
100
AcDbEntity
  8
DRAFT
100
AcDbLine
 62
250
  6
CONTINUOUS
 10
-2.6
 20
-13.1569814942
 11
-2.6
 21
-13.4
  0
LINE
  5
419
100
AcDbEntity
  8
DRAFT
100
AcDbLine
 62
250
  6
CONTINUOUS
 10
-2.6
 20
-17.1430185058
 11
-2.6
 21
-16.9
  0
LINE
  5
41A
100
AcDbEntity
  8
DRAFT
100
AcDbLine
 62
250
  6
CONTINUOUS
 10
-2.6
 20
13.1569814942
 11
-2.6
 21
13.2703747171
  0
LINE
  5
41B
100
AcDbEntity
  8
0
100
AcDbLine
 62
7
  6
CONTINUOUS
 10
-2.35
 20
-21.8
 11
-2.35
 21
-21.2
  0
LINE
  5
41C
100
AcDbEntity
  8
DRAFT
100
AcDbLine
 62
7
  6
CONTINUOUS
 10
-2.35
 20
-21.2
 11
-2.35
 21
-21.15
  0
LINE
  5
41D
100
AcDbEntity
  8
DRAFT
100
AcDbLine
 62
7
  6
CONTINUOUS
 10
-2.35
 20
21.15
 11
-2.35
 21
21.2
  0
LINE
  5
41E
100
AcDbEntity
  8
0
100
AcDbLine
 62
7
  6
CONTINUOUS
 10
-2.35
 20
21.2
 11
-2.35
 21
21.8
  0
LINE
  5
41F
100
AcDbEntity
  8
0
100
AcDbLine
 62
7
  6
CONTINUOUS
 10
-1.95
 20
16.5765947349
 11
-1.95
 21
16.6598412413
  0
LINE
  5
420
100
AcDbEntity
  8
ASSI
100
AcDbLine
 62
7
  6
CONTINUOUS
 10
-3.5005451666
 20
21.6299329617
 11
-3.500087577
 21
21.6823675389
  0
LINE
  5
421
100
AcDbEntity
  8
RACCORDO
100
AcDbLine
 62
250
  6
CONTINUOUS
 10
-3.0
 20
23.4104851482
 11
-2.995628166
 21
23.8443375673
  0
LINE
  5
422
100
AcDbEntity
  8
ASSI
100
AcDbLine
 62
250
  6
CONTINUOUS
 10
-3.0
 20
23.4104851482
 11
-2.995628166
 21
23.8443375673
  0
LINE
  5
423
100
AcDbEntity
  8
RACCORDO
100
AcDbLine
 62
250
  6
CONTINUOUS
 10
-2.7507229979
 20
23.1226497308
 11
-2.7456323968
 21
23.6278312164
  0
LINE
  5
424
100
AcDbEntity
  8
ASSI
100
AcDbLine
 62
250
  6
CONTINUOUS
 10
-2.7507229979
 20
23.1226497308
 11
-2.7456323968
 21
23.6278312164
  0
LWPOLYLINE
  5
425
100
AcDbEntity
  8
SUPERFICI
100
AcDbPolyline
 62
7
  6
CONTINUOUS
 90
3
 70
0
 10
3.4474431419
 20
13.9325171994
 10
3.4693593101
 20
13.9754957541
 10
3.5378628768
 20
14.2445763592
  0
LINE
  5
426
100
AcDbEntity
  8
0
100
AcDbLine
 62
7
  6
CONTINUOUS
 10
-16.7
 20
-13.6
 11
-16.5
 21
-13.4
  0
LINE
  5
427
100
AcDbEntity
  8
0
100
AcDbLine
 62
7
  6
CONTINUOUS
 10
-18.3916666389
 20
-5.9585106134
 11
-18.5083332777
 21
-6.0180850744
  0
LINE
  5
428
100
AcDbEntity
  8
ASSI
100
AcDbLine
 62
7
  6
CONTINUOUS
 10
-5.8
 20
-4.0052365195
 11
-9.7947634805
 21
-4.0052365195
  0
LINE
  5
429
100
AcDbEntity
  8
ASSI
100
AcDbLine
 62
7
  6
CONTINUOUS
 10
-11.2552365195
 20
-4.0052365195
 11
-16.7
 21
-4.0052365195
  0
LINE
  5
42A
100
AcDbEntity
  8
ASSI
100
AcDbLine
 62
7
  6
CONTINUOUS
 10
-16.7
 20
-4.0
 11
-11.25
 21
-4.0
  0
LINE
  5
42B
100
AcDbEntity
  8
ASSI
100
AcDbLine
 62
7
  6
CONTINUOUS
 10
-5.8
 20
-4.0
 11
-9.8
 21
-4.0
  0
LINE
  5
42C
100
AcDbEntity
  8
DRAFT
100
AcDbLine
 62
7
  6
CONTINUOUS
 10
18.4912724675
 20
-3.9767615212
 11
13.5087275325
 21
-3.9767615212
  0
LINE
  5
42D
100
AcDbEntity
  8
DRAFT
100
AcDbLine
 62
7
  6
CONTINUOUS
 10
18.5
 20
-3.9680339887
 11
13.5
 21
-3.9680339887
  0
LINE
  5
42E
100
AcDbEntity
  8
RACCORDO
100
AcDbLine
 62
250
  6
CONTINUOUS
 10
9.2954376779
 20
-14.636240319
 11
8.8323815467
 21
-14.1650309766
  0
LINE
  5
42F
100
AcDbEntity
  8
RACCORDO
100
AcDbLine
 62
250
  6
CONTINUOUS
 10
11.8007427036
 20
-15.5808188869
 11
12.2714219297
 21
-16.0597855471
  0
LINE
  5
430
100
AcDbEntity
  8
ASSI
100
AcDbLine
 62
7
  6
CONTINUOUS
 10
-8.9333332539
 20
9.1542553306
 11
-6.85
 21
5.75
  0
LINE
  5
431
100
AcDbEntity
  8
ASSI
100
AcDbLine
 62
7
  6
CONTINUOUS
 10
-6.6
 20
6.260638237
 11
-8.6833332539
 21
9.75
  0
LINE
  5
432
100
AcDbEntity
  8
RACCORDO
100
AcDbLine
 62
250
  6
CONTINUOUS
 10
-0.8543676032
 20
23.6278312164
 11
-0.8492770021
 21
23.1226497308
  0
LINE
  5
433
100
AcDbEntity
  8
ASSI
100
AcDbLine
 62
250
  6
CONTINUOUS
 10
-0.8543676032
 20
23.6278312164
 11
-0.8492770021
 21
23.1226497308
  0
LINE
  5
434
100
AcDbEntity
  8
RACCORDO
100
AcDbLine
 62
250
  6
CONTINUOUS
 10
-0.604371834
 20
23.8443375673
 11
-0.6
 21
23.4104851482
  0
LINE
  5
435
100
AcDbEntity
  8
ASSI
100
AcDbLine
 62
250
  6
CONTINUOUS
 10
-0.604371834
 20
23.8443375673
 11
-0.6
 21
23.4104851482
  0
LINE
  5
436
100
AcDbEntity
  8
DRAFT
100
AcDbLine
 62
7
  6
CONTINUOUS
 10
-1.8
 20
14.25
 11
-1.8
 21
16.05
  0
LINE
  5
437
100
AcDbEntity
  8
DRAFT
100
AcDbLine
 62
7
  6
CONTINUOUS
 10
-1.6
 20
-15.9
 11
-1.6
 21
-14.4
  0
LINE
  5
438
100
AcDbEntity
  8
DRAFT
100
AcDbLine
 62
7
  6
CONTINUOUS
 10
-1.6
 20
14.4
 11
-1.6
 21
15.9
  0
LINE
  5
439
100
AcDbEntity
  8
RACCORDO
100
AcDbLine
 62
7
  6
CONTINUOUS
 10
-1.1
 20
14.15
 11
-1.1
 21
16.15
  0
LINE
  5
43A
100
AcDbEntity
  8
RACCORDO
100
AcDbLine
 62
250
  6
CONTINUOUS
 10
-0.8543676032
 20
-23.6278312164
 11
-0.8543676032
 21
-24.495628166
  0
LINE
  5
43B
100
AcDbEntity
  8
ASSI
100
AcDbLine
 62
250
  6
CONTINUOUS
 10
-0.8543676032
 20
-23.6278312164
 11
-0.8543676032
 21
-24.495628166
  0
LINE
  5
43C
100
AcDbEntity
  8
RACCORDO
100
AcDbLine
 62
250
  6
CONTINUOUS
 10
-0.8543676032
 20
23.6278312164
 11
-0.8543676032
 21
24.495628166
  0
LINE
  5
43D
100
AcDbEntity
  8
ASSI
100
AcDbLine
 62
250
  6
CONTINUOUS
 10
-0.8543676032
 20
23.6278312164
 11
-0.8543676032
 21
24.495628166
  0
LINE
  5
43E
100
AcDbEntity
  8
RACCORDO
100
AcDbLine
 62
250
  6
CONTINUOUS
 10
-0.604371834
 20
-24.2456323968
 11
-0.604371834
 21
-23.8443375673
  0
LINE
  5
43F
100
AcDbEntity
  8
ASSI
100
AcDbLine
 62
7
  6
CONTINUOUS
 10
-0.604371834
 20
-24.2456323968
 11
-0.604371834
 21
-23.8443375673
  0
LINE
  5
440
100
AcDbEntity
  8
RACCORDO
100
AcDbLine
 62
250
  6
CONTINUOUS
 10
-0.604371834
 20
23.8443375673
 11
-0.604371834
 21
24.2456323968
  0
LINE
  5
441
100
AcDbEntity
  8
ASSI
100
AcDbLine
 62
7
  6
CONTINUOUS
 10
-0.604371834
 20
23.8443375673
 11
-0.604371834
 21
24.2456323968
  0
LINE
  5
442
100
AcDbEntity
  8
RACCORDO
100
AcDbLine
 62
7
  6
CONTINUOUS
 10
-0.6
 20
-22.4
 11
-0.6
 21
-23.4104851482
  0
LINE
  5
443
100
AcDbEntity
  8
ASSI
100
AcDbLine
 62
7
  6
CONTINUOUS
 10
-0.6
 20
-22.4
 11
-0.6
 21
-23.4104851482
  0
LINE
  5
444
100
AcDbEntity
  8
RACCORDO
100
AcDbLine
 62
7
  6
CONTINUOUS
 10
-0.6
 20
22.4
 11
-0.6
 21
23.8443375673
  0
LINE
  5
445
100
AcDbEntity
  8
ASSI
100
AcDbLine
 62
7
  6
CONTINUOUS
 10
-0.6
 20
22.4
 11
-0.6
 21
23.8443375673
  0
LINE
  5
446
100
AcDbEntity
  8
RACCORDO
100
AcDbLine
 62
7
  6
CONTINUOUS
 10
-0.35
 20
16.15
 11
-0.35
 21
14.15
  0
LINE
  5
447
100
AcDbEntity
  8
DRAFT
100
AcDbLine
 62
7
  6
CONTINUOUS
 10
-0.35
 20
-19.2
 11
-0.35
 21
14.15
  0
LINE
  5
448
100
AcDbEntity
  8
DRAFT
100
AcDbLine
 62
7
  6
CONTINUOUS
 10
-0.35
 20
16.15
 11
-0.35
 21
19.2
  0
LINE
  5
449
100
AcDbEntity
  8
RACCORDO
100
AcDbLine
 62
250
  6
CONTINUOUS
 10
-0.8492770021
 20
-23.1226497308
 11
-0.8543676032
 21
-23.6278312164
  0
LINE
  5
44A
100
AcDbEntity
  8
ASSI
100
AcDbLine
 62
250
  6
CONTINUOUS
 10
-0.8492770021
 20
-23.1226497308
 11
-0.8543676032
 21
-23.6278312164
  0
LINE
  5
44B
100
AcDbEntity
  8
RACCORDO
100
AcDbLine
 62
250
  6
CONTINUOUS
 10
-0.6
 20
-23.4104851482
 11
-0.604371834
 21
-23.8443375673
  0
LINE
  5
44C
100
AcDbEntity
  8
ASSI
100
AcDbLine
 62
250
  6
CONTINUOUS
 10
-0.6
 20
-23.4104851482
 11
-0.604371834
 21
-23.8443375673
  0
LINE
  5
44D
100
AcDbEntity
  8
DRAFT
100
AcDbLine
 62
7
  6
CONTINUOUS
 10
-15.65
 20
-22.4
 11
-15.6059327327
 21
-22.3338981669
  0
LINE
  5
44E
100
AcDbEntity
  8
ASSI
100
AcDbLine
 62
7
  6
CONTINUOUS
 10
-15.65
 20
-22.4
 11
-15.6059327327
 21
-22.3338981669
  0
LINE
  5
44F
100
AcDbEntity
  8
0
100
AcDbLine
 62
7
  6
CONTINUOUS
 10
-21.1916665554
 20
-6.2563829184
 11
-21.0166665554
 21
-6.1968084574
  0
LINE
  5
450
100
AcDbEntity
  8
0
100
AcDbLine
 62
7
  6
CONTINUOUS
 10
-20.0833334446
 20
-5.9585106134
 11
-20.2583334446
 21
-6.0180850744
  0
LINE
  5
451
100
AcDbEntity
  8
0
100
AcDbLine
 62
7
  6
CONTINUOUS
 10
-20.2583334446
 20
-6.2563829184
 11
-20.0833334446
 21
-6.1968084574
  0
LINE
  5
452
100
AcDbEntity
  8
0
100
AcDbLine
 62
7
  6
CONTINUOUS
 10
-18.5666667223
 20
-6.2563829184
 11
-18.3916666389
 21
-6.1968084574
  0
LINE
  5
453
100
AcDbEntity
  8
0
100
AcDbLine
 62
7
  6
CONTINUOUS
 10
-17.4583333194
 20
-5.9585106134
 11
-17.6333333194
 21
-6.0180850744
  0
LINE
  5
454
100
AcDbEntity
  8
0
100
AcDbLine
 62
7
  6
CONTINUOUS
 10
-17.6333333194
 20
-6.2563829184
 11
-17.4583333194
 21
-6.1968084574
  0
LINE
  5
455
100
AcDbEntity
  8
DRAFT
100
AcDbLine
 62
7
  6
CONTINUOUS
 10
-16.7
 20
-1.9
 11
-17.3
 21
-1.9
  0
LINE
  5
456
100
AcDbEntity
  8
DRAFT
100
AcDbLine
 62
7
  6
CONTINUOUS
 10
-16.7
 20
-1.1
 11
-17.3
 21
-1.1
  0
LINE
  5
457
100
AcDbEntity
  8
DRAFT
100
AcDbLine
 62
7
  6
CONTINUOUS
 10
-5.8
 20
-0.9
 11
-5.2
 21
-0.9
  0
LINE
  5
458
100
AcDbEntity
  8
DRAFT
100
AcDbLine
 62
7
  6
CONTINUOUS
 10
3.1
 20
-0.4174550649
 11
7.1
 21
-0.4174550649
  0
LINE
  5
459
100
AcDbEntity
  8
DRAFT
100
AcDbLine
 62
7
  6
CONTINUOUS
 10
14.0
 20
-0.4174550649
 11
18.0
 21
-0.4174550649
  0
LINE
  5
45A
100
AcDbEntity
  8
DRAFT
100
AcDbLine
 62
7
  6
CONTINUOUS
 10
3.1
 20
-0.399653154
 11
7.1
 21
-0.3992510137
  0
LINE
  5
45B
100
AcDbEntity
  8
DRAFT
100
AcDbLine
 62
7
  6
CONTINUOUS
 10
14.0
 20
-0.3985573218
 11
18.0
 21
-0.3981551815
  0
LINE
  5
45C
100
AcDbEntity
  8
CURVE
100
AcDbLine
 62
7
  6
CONTINUOUS
 10
3.55
 20
-0.17
 11
4.2
 21
-0.17
  0
LINE
  5
45D
100
AcDbEntity
  8
DRAFT
100
AcDbLine
 62
7
  6
CONTINUOUS
 10
-5.8
 20
-0.1
 11
-5.2
 21
-0.1
  0
LINE
  5
45E
100
AcDbEntity
  8
ASSI
100
AcDbLine
 62
7
  6
CONTINUOUS
 10
-10.05
 20
9.0
 11
-10.0544395892
 21
9.0044395892
  0
LINE
  5
45F
100
AcDbEntity
  8
ASSI
100
AcDbLine
 62
250
  6
CONTINUOUS
 10
-13.4999428846
 20
12.65
 11
-13.482489149
 21
12.6325462644
  0
LINE
  5
460
100
AcDbEntity
  8
DRAFT
100
AcDbLine
 62
7
  6
CONTINUOUS
 10
-15.65
 20
22.4
 11
-15.6059327327
 21
22.3338981669
  0
LINE
  5
461
100
AcDbEntity
  8
ASSI
100
AcDbLine
 62
7
  6
CONTINUOUS
 10
-15.65
 20
22.4
 11
-15.6059327327
 21
22.3338981669
  0
LINE
  5
462
100
AcDbEntity
  8
RACCORDO
100
AcDbLine
 62
250
  6
CONTINUOUS
 10
0.604371834
 20
-23.8443375673
 11
0.6
 21
-23.4104851482
  0
LINE
  5
463
100
AcDbEntity
  8
ASSI
100
AcDbLine
 62
250
  6
CONTINUOUS
 10
0.604371834
 20
-23.8443375673
 11
0.6
 21
-23.4104851482
  0
LINE
  5
464
100
AcDbEntity
  8
RACCORDO
100
AcDbLine
 62
250
  6
CONTINUOUS
 10
0.8543676032
 20
-23.6278312164
 11
0.8492770021
 21
-23.1226497308
  0
LINE
  5
465
100
AcDbEntity
  8
ASSI
100
AcDbLine
 62
250
  6
CONTINUOUS
 10
0.8543676032
 20
-23.6278312164
 11
0.8492770021
 21
-23.1226497308
  0
LINE
  5
466
100
AcDbEntity
  8
ASSI
100
AcDbLine
 62
7
  6
CONTINUOUS
 10
0.4
 20
-16.2319660113
 11
0.4
 21
-13.9680339887
  0
LINE
  5
467
100
AcDbEntity
  8
RACCORDO
100
AcDbLine
 62
7
  6
CONTINUOUS
 10
0.6
 20
-22.4
 11
0.6
 21
-23.8443375673
  0
LINE
  5
468
100
AcDbEntity
  8
ASSI
100
AcDbLine
 62
7
  6
CONTINUOUS
 10
0.6
 20
-22.4
 11
0.6
 21
-23.8443375673
  0
LINE
  5
469
100
AcDbEntity
  8
RACCORDO
100
AcDbLine
 62
7
  6
CONTINUOUS
 10
0.6
 20
22.4
 11
0.6
 21
23.4104851482
  0
LINE
  5
46A
100
AcDbEntity
  8
ASSI
100
AcDbLine
 62
7
  6
CONTINUOUS
 10
0.6
 20
22.4
 11
0.6
 21
23.4104851482
  0
LINE
  5
46B
100
AcDbEntity
  8
RACCORDO
100
AcDbLine
 62
250
  6
CONTINUOUS
 10
0.604371834
 20
24.2456323968
 11
0.604371834
 21
23.8443375673
  0
LINE
  5
46C
100
AcDbEntity
  8
ASSI
100
AcDbLine
 62
7
  6
CONTINUOUS
 10
0.604371834
 20
24.2456323968
 11
0.604371834
 21
23.8443375673
  0
LINE
  5
46D
100
AcDbEntity
  8
RACCORDO
100
AcDbLine
 62
250
  6
CONTINUOUS
 10
0.604371834
 20
-23.8443375673
 11
0.604371834
 21
-24.2456323968
  0
LINE
  5
46E
100
AcDbEntity
  8
ASSI
100
AcDbLine
 62
7
  6
CONTINUOUS
 10
0.604371834
 20
-23.8443375673
 11
0.604371834
 21
-24.2456323968
  0
LINE
  5
46F
100
AcDbEntity
  8
RACCORDO
100
AcDbLine
 62
250
  6
CONTINUOUS
 10
0.8543676032
 20
-23.6278312164
 11
0.8543676032
 21
-24.495628166
  0
LINE
  5
470
100
AcDbEntity
  8
ASSI
100
AcDbLine
 62
250
  6
CONTINUOUS
 10
0.8543676032
 20
-23.6278312164
 11
0.8543676032
 21
-24.495628166
  0
LINE
  5
471
100
AcDbEntity
  8
RACCORDO
100
AcDbLine
 62
250
  6
CONTINUOUS
 10
0.8543676032
 20
23.6278312164
 11
0.8543676032
 21
24.495628166
  0
LINE
  5
472
100
AcDbEntity
  8
ASSI
100
AcDbLine
 62
250
  6
CONTINUOUS
 10
0.8543676032
 20
23.6278312164
 11
0.8543676032
 21
24.495628166
  0
LINE
  5
473
100
AcDbEntity
  8
RACCORDO
100
AcDbLine
 62
7
  6
CONTINUOUS
 10
0.9
 20
-16.2319660113
 11
0.9
 21
-13.9680339887
  0
LINE
  5
474
100
AcDbEntity
  8
DRAFT
100
AcDbLine
 62
250
  6
CONTINUOUS
 10
1.9
 20
-11.4680339887
 11
1.9
 21
-11.5029441186
  0
LINE
  5
475
100
AcDbEntity
  8
DRAFT
100
AcDbLine
 62
250
  6
CONTINUOUS
 10
1.9
 20
-18.7319660113
 11
1.9
 21
-18.6970558814
  0
LINE
  5
476
100
AcDbEntity
  8
DRAFT
100
AcDbLine
 62
250
  6
CONTINUOUS
 10
1.9
 20
-17.35
 11
1.9
 21
-16.8435203935
  0
LINE
  5
477
100
AcDbEntity
  8
DRAFT
100
AcDbLine
 62
250
  6
CONTINUOUS
 10
1.9
 20
-13.3564796065
 11
1.9
 21
-12.85
  0
LINE
  5
478
100
AcDbEntity
  8
RACCORDO
100
AcDbLine
 62
250
  6
CONTINUOUS
 10
0.6
 20
23.4104851482
 11
0.604371834
 21
23.8443375673
  0
LINE
  5
479
100
AcDbEntity
  8
ASSI
100
AcDbLine
 62
250
  6
CONTINUOUS
 10
0.6
 20
23.4104851482
 11
0.604371834
 21
23.8443375673
  0
LINE
  5
47A
100
AcDbEntity
  8
RACCORDO
100
AcDbLine
 62
250
  6
CONTINUOUS
 10
0.8492770021
 20
23.1226497308
 11
0.8543676032
 21
23.6278312164
  0
LINE
  5
47B
100
AcDbEntity
  8
ASSI
100
AcDbLine
 62
250
  6
CONTINUOUS
 10
0.8492770021
 20
23.1226497308
 11
0.8543676032
 21
23.6278312164
  0
LINE
  5
47C
100
AcDbEntity
  8
DRAFT
100
AcDbLine
 62
7
  6
CONTINUOUS
 10
15.65
 20
22.4
 11
15.6059327327
 21
22.3338981669
  0
LINE
  5
47D
100
AcDbEntity
  8
ASSI
100
AcDbLine
 62
7
  6
CONTINUOUS
 10
15.65
 20
22.4
 11
15.6059327327
 21
22.3338981669
  0
LINE
  5
47E
100
AcDbEntity
  8
ASSI
100
AcDbLine
 62
7
  6
CONTINUOUS
 10
-9.8
 20
-11.5
 11
-9.7947634805
 21
-11.4947634805
  0
LINE
  5
47F
100
AcDbEntity
  8
DRAFT
100
AcDbLine
 62
7
  6
CONTINUOUS
 10
18.0
 20
0.4174550649
 11
14.0
 21
0.4174550649
  0
LINE
  5
480
100
AcDbEntity
  8
DRAFT
100
AcDbLine
 62
7
  6
CONTINUOUS
 10
7.1
 20
0.4174550649
 11
3.1
 21
0.4174550649
  0
LINE
  5
481
100
AcDbEntity
  8
DRAFT
100
AcDbLine
 62
7
  6
CONTINUOUS
 10
3.1
 20
1.5825449351
 11
7.1
 21
1.5825449351
  0
LINE
  5
482
100
AcDbEntity
  8
DRAFT
100
AcDbLine
 62
7
  6
CONTINUOUS
 10
14.0
 20
1.5825449351
 11
18.0
 21
1.5825449351
  0
LINE
  5
483
100
AcDbEntity
  8
DRAFT
100
AcDbLine
 62
7
  6
CONTINUOUS
 10
3.1
 20
1.600346846
 11
7.1
 21
1.6007489863
  0
LINE
  5
484
100
AcDbEntity
  8
DRAFT
100
AcDbLine
 62
7
  6
CONTINUOUS
 10
14.0
 20
1.6014426782
 11
18.0
 21
1.6018448185
  0
LINE
  5
485
100
AcDbEntity
  8
0
100
AcDbLine
 62
7
  6
CONTINUOUS
 10
3.55
 20
1.606
 11
4.95
 21
1.606
  0
LINE
  5
486
100
AcDbEntity
  8
0
100
AcDbLine
 62
7
  6
CONTINUOUS
 10
3.55
 20
2.1083613325
 11
4.95
 21
2.1083613325
  0
LINE
  5
487
100
AcDbEntity
  8
DRAFT
100
AcDbLine
 62
7
  6
CONTINUOUS
 10
18.0
 20
2.4174550649
 11
14.0
 21
2.4174550649
  0
LINE
  5
488
100
AcDbEntity
  8
DRAFT
100
AcDbLine
 62
7
  6
CONTINUOUS
 10
7.1
 20
2.4174550649
 11
3.1
 21
2.4174550649
  0
LINE
  5
489
100
AcDbEntity
  8
DRAFT
100
AcDbLine
 62
7
  6
CONTINUOUS
 10
18.0
 20
0.3981551815
 11
14.0
 21
0.3985573218
  0
LINE
  5
48A
100
AcDbEntity
  8
DRAFT
100
AcDbLine
 62
7
  6
CONTINUOUS
 10
7.1
 20
0.3992510137
 11
3.1
 21
0.399653154
  0
LINE
  5
48B
100
AcDbEntity
  8
DRAFT
100
AcDbLine
 62
7
  6
CONTINUOUS
 10
18.0
 20
2.3981551815
 11
14.0
 21
2.3985573218
  0
LINE
  5
48C
100
AcDbEntity
  8
DRAFT
100
AcDbLine
 62
7
  6
CONTINUOUS
 10
7.1
 20
2.3992510137
 11
3.1
 21
2.399653154
  0
LINE
  5
48D
100
AcDbEntity
  8
ASSI
100
AcDbLine
 62
7
  6
CONTINUOUS
 10
-10.05
 20
11.65
 11
-10.0630903017
 21
11.6630903017
  0
LINE
  5
48E
100
AcDbEntity
  8
ASSI
100
AcDbLine
 62
7
  6
CONTINUOUS
 10
-9.8
 20
11.5
 11
-9.7947634805
 21
11.4947634805
  0
LINE
  5
48F
100
AcDbEntity
  8
ASSI
100
AcDbLine
 62
250
  6
CONTINUOUS
 10
-12.0
 20
14.1499428846
 11
-11.9825462644
 21
14.132489149
  0
LINE
  5
490
100
AcDbEntity
  8
0
100
AcDbLine
 62
7
  6
CONTINUOUS
 10
16.1
 20
-13.9
 11
15.6
 21
-13.4
  0
LINE
  5
491
100
AcDbEntity
  8
DRAFT
100
AcDbLine
 62
7
  6
CONTINUOUS
 10
15.65
 20
-22.4
 11
15.6059327327
 21
-22.3338981669
  0
LINE
  5
492
100
AcDbEntity
  8
ASSI
100
AcDbLine
 62
7
  6
CONTINUOUS
 10
15.65
 20
-22.4
 11
15.6059327327
 21
-22.3338981669
  0
LWPOLYLINE
  5
493
100
AcDbEntity
  8
RACCORDO
100
AcDbPolyline
 62
7
  6
CONTINUOUS
 90
16
 70
0
 10
8.7619853489
 20
-13.654970824
 10
8.7758025124
 20
-13.6785702573
 10
8.7935355903
 20
-13.7128832481
 10
8.8091606584
 20
-13.7475697118
 10
8.8226709912
 20
-13.7825669127
 10
8.8340573666
 20
-13.8178080521
 10
8.8432941206
 20
-13.8531510695
 10
8.8503876866
 20
-13.888523162
 10
8.8553534265
 20
-13.9238912832
 10
8.858199883
 20
-13.9591622023
 10
8.8589472451
 20
-13.9942686884
 10
8.8576210645
 20
-14.0291599932
 10
8.854256498
 20
-14.063736711
 10
8.8489045144
 20
-14.0978972906
 10
8.8416279007
 20
-14.1315587429
 10
8.8325059814
 20
-14.1646246884
  0
LWPOLYLINE
  5
494
100
AcDbEntity
  8
RACCORDO
100
AcDbPolyline
 62
7
  6
CONTINUOUS
 90
16
 70
0
 10
12.3396973338
 20
-16.5658840528
 10
12.3287605735
 20
-16.5471656043
 10
12.3113915705
 20
-16.5135032901
 10
12.2960730125
 20
-16.4794533821
 10
12.2828080168
 20
-16.4450591942
 10
12.2715959676
 20
-16.4103476397
 10
12.262458587
 20
-16.375426513
 10
12.2553929513
 20
-16.3403601804
 10
12.2503820173
 20
-16.305151181
 10
12.2474176999
 20
-16.2698423448
 10
12.2464890317
 20
-16.2344959009
 10
12.247577817
 20
-16.1991767695
 10
12.2506556037
 20
-16.1639776828
 10
12.2556781072
 20
-16.1290099546
 10
12.2625862
 20
-16.0943798742
 10
12.271304307
 20
-16.0602008651
  0
LINE
  5
495
100
AcDbEntity
  8
RACCORDO
100
AcDbLine
 62
250
  6
CONTINUOUS
 10
2.7456323968
 20
23.6278312164
 11
2.7507229979
 21
23.1226497308
  0
LINE
  5
496
100
AcDbEntity
  8
ASSI
100
AcDbLine
 62
250
  6
CONTINUOUS
 10
2.7456323968
 20
23.6278312164
 11
2.7507229979
 21
23.1226497308
  0
LINE
  5
497
100
AcDbEntity
  8
RACCORDO
100
AcDbLine
 62
250
  6
CONTINUOUS
 10
2.995628166
 20
23.8443375673
 11
3.0
 21
23.4104851482
  0
LINE
  5
498
100
AcDbEntity
  8
ASSI
100
AcDbLine
 62
250
  6
CONTINUOUS
 10
2.995628166
 20
23.8443375673
 11
3.0
 21
23.4104851482
  0
LINE
  5
499
100
AcDbEntity
  8
RACCORDO
100
AcDbLine
 62
250
  6
CONTINUOUS
 10
2.7456323968
 20
-23.6278312164
 11
2.7456323968
 21
-24.495628166
  0
LINE
  5
49A
100
AcDbEntity
  8
ASSI
100
AcDbLine
 62
250
  6
CONTINUOUS
 10
2.7456323968
 20
-23.6278312164
 11
2.7456323968
 21
-24.495628166
  0
LINE
  5
49B
100
AcDbEntity
  8
RACCORDO
100
AcDbLine
 62
250
  6
CONTINUOUS
 10
2.7456323968
 20
23.6278312164
 11
2.7456323968
 21
24.495628166
  0
LINE
  5
49C
100
AcDbEntity
  8
ASSI
100
AcDbLine
 62
250
  6
CONTINUOUS
 10
2.7456323968
 20
23.6278312164
 11
2.7456323968
 21
24.495628166
  0
LINE
  5
49D
100
AcDbEntity
  8
RACCORDO
100
AcDbLine
 62
250
  6
CONTINUOUS
 10
2.995628166
 20
-24.2456323968
 11
2.995628166
 21
-23.8443375673
  0
LINE
  5
49E
100
AcDbEntity
  8
ASSI
100
AcDbLine
 62
7
  6
CONTINUOUS
 10
2.995628166
 20
-24.2456323968
 11
2.995628166
 21
-23.8443375673
  0
LINE
  5
49F
100
AcDbEntity
  8
RACCORDO
100
AcDbLine
 62
250
  6
CONTINUOUS
 10
2.995628166
 20
23.8443375673
 11
2.995628166
 21
24.2456323968
  0
LINE
  5
4A0
100
AcDbEntity
  8
ASSI
100
AcDbLine
 62
7
  6
CONTINUOUS
 10
2.995628166
 20
23.8443375673
 11
2.995628166
 21
24.2456323968
  0
LINE
  5
4A1
100
AcDbEntity
  8
RACCORDO
100
AcDbLine
 62
7
  6
CONTINUOUS
 10
3.0
 20
-22.4
 11
3.0
 21
-23.4104851482
  0
LINE
  5
4A2
100
AcDbEntity
  8
ASSI
100
AcDbLine
 62
7
  6
CONTINUOUS
 10
3.0
 20
-22.4
 11
3.0
 21
-23.4104851482
  0
LINE
  5
4A3
100
AcDbEntity
  8
RACCORDO
100
AcDbLine
 62
7
  6
CONTINUOUS
 10
3.0
 20
22.4
 11
3.0
 21
23.8443375673
  0
LINE
  5
4A4
100
AcDbEntity
  8
ASSI
100
AcDbLine
 62
7
  6
CONTINUOUS
 10
3.0
 20
22.4
 11
3.0
 21
23.8443375673
  0
LINE
  5
4A5
100
AcDbEntity
  8
DRAFT
100
AcDbLine
 62
250
  6
CONTINUOUS
 10
3.1
 20
14.4174550649
 11
3.1
 21
14.399653154
  0
LINE
  5
4A6
100
AcDbEntity
  8
DRAFT
100
AcDbLine
 62
250
  6
CONTINUOUS
 10
3.1
 20
12.4174550649
 11
3.1
 21
12.399653154
  0
LINE
  5
4A7
100
AcDbEntity
  8
DRAFT
100
AcDbLine
 62
250
  6
CONTINUOUS
 10
3.1
 20
10.4174550649
 11
3.1
 21
10.399653154
  0
LINE
  5
4A8
100
AcDbEntity
  8
DRAFT
100
AcDbLine
 62
250
  6
CONTINUOUS
 10
3.1
 20
8.4174550649
 11
3.1
 21
8.399653154
  0
LINE
  5
4A9
100
AcDbEntity
  8
DRAFT
100
AcDbLine
 62
250
  6
CONTINUOUS
 10
3.1
 20
6.4174550649
 11
3.1
 21
6.399653154
  0
LINE
  5
4AA
100
AcDbEntity
  8
DRAFT
100
AcDbLine
 62
250
  6
CONTINUOUS
 10
3.1
 20
4.4174550649
 11
3.1
 21
4.399653154
  0
LINE
  5
4AB
100
AcDbEntity
  8
DRAFT
100
AcDbLine
 62
250
  6
CONTINUOUS
 10
3.1
 20
2.4174550649
 11
3.1
 21
2.399653154
  0
LINE
  5
4AC
100
AcDbEntity
  8
DRAFT
100
AcDbLine
 62
250
  6
CONTINUOUS
 10
3.1
 20
0.4174550649
 11
3.1
 21
0.399653154
  0
LINE
  5
4AD
100
AcDbEntity
  8
DRAFT
100
AcDbLine
 62
250
  6
CONTINUOUS
 10
3.1
 20
-0.4174550649
 11
3.1
 21
-0.399653154
  0
LINE
  5
4AE
100
AcDbEntity
  8
DRAFT
100
AcDbLine
 62
250
  6
CONTINUOUS
 10
3.1
 20
1.5825449351
 11
3.1
 21
1.600346846
  0
LINE
  5
4AF
100
AcDbEntity
  8
DRAFT
100
AcDbLine
 62
250
  6
CONTINUOUS
 10
3.1
 20
3.5825449351
 11
3.1
 21
3.600346846
  0
LINE
  5
4B0
100
AcDbEntity
  8
DRAFT
100
AcDbLine
 62
250
  6
CONTINUOUS
 10
3.1
 20
5.5825449351
 11
3.1
 21
5.600346846
  0
LINE
  5
4B1
100
AcDbEntity
  8
DRAFT
100
AcDbLine
 62
250
  6
CONTINUOUS
 10
3.1
 20
7.5825449351
 11
3.1
 21
7.600346846
  0
LINE
  5
4B2
100
AcDbEntity
  8
DRAFT
100
AcDbLine
 62
250
  6
CONTINUOUS
 10
3.1
 20
9.5825449351
 11
3.1
 21
9.600346846
  0
LINE
  5
4B3
100
AcDbEntity
  8
DRAFT
100
AcDbLine
 62
250
  6
CONTINUOUS
 10
3.1
 20
11.5825449351
 11
3.1
 21
11.600346846
  0
LINE
  5
4B4
100
AcDbEntity
  8
DRAFT
100
AcDbLine
 62
250
  6
CONTINUOUS
 10
3.1
 20
13.5825449351
 11
3.1
 21
13.600346846
  0
LINE
  5
4B5
100
AcDbEntity
  8
0
100
AcDbLine
 62
7
  6
CONTINUOUS
 10
3.5
 20
-16.8389126733
 11
3.5
 21
-13.4
  0
LINE
  5
4B6
100
AcDbEntity
  8
RACCORDO
100
AcDbLine
 62
7
  6
CONTINUOUS
 10
3.55
 20
4.0501903973
 11
3.55
 21
3.6003920868
  0
LINE
  5
4B7
100
AcDbEntity
  8
RACCORDO
100
AcDbLine
 62
7
  6
CONTINUOUS
 10
3.55
 20
2.3996079132
 11
3.55
 21
1.6003920868
  0
LINE
  5
4B8
100
AcDbEntity
  8
RACCORDO
100
AcDbLine
 62
7
  6
CONTINUOUS
 10
3.55
 20
0.3996079132
 11
3.55
 21
-0.3996079132
  0
LINE
  5
4B9
100
AcDbEntity
  8
0
100
AcDbLine
 62
7
  6
CONTINUOUS
 10
3.65
 20
14.258
 11
3.65
 21
14.3995978597
  0
LINE
  5
4BA
100
AcDbEntity
  8
0
100
AcDbLine
 62
7
  6
CONTINUOUS
 10
3.8065
 20
-13.4
 11
3.8065
 21
-16.8380300069
  0
LINE
  5
4BB
100
AcDbEntity
  8
0
100
AcDbLine
 62
7
  6
CONTINUOUS
 10
3.95
 20
14.258
 11
3.95
 21
13.6004323008
  0
LINE
  5
4BC
100
AcDbEntity
  8
0
100
AcDbLine
 62
7
  6
CONTINUOUS
 10
3.975
 20
12.3995651858
 11
3.975
 21
11.6004348142
  0
LINE
  5
4BD
100
AcDbEntity
  8
0
100
AcDbLine
 62
7
  6
CONTINUOUS
 10
3.975
 20
10.3995651858
 11
3.975
 21
9.6004348142
  0
LINE
  5
4BE
100
AcDbEntity
  8
0
100
AcDbLine
 62
7
  6
CONTINUOUS
 10
3.975
 20
8.3995651858
 11
3.975
 21
7.6004348142
  0
LINE
  5
4BF
100
AcDbEntity
  8
0
100
AcDbLine
 62
7
  6
CONTINUOUS
 10
3.975
 20
6.3995651858
 11
3.975
 21
5.7248300563
  0
LINE
  5
4C0
100
AcDbEntity
  8
0
100
AcDbLine
 62
250
  6
CONTINUOUS
 10
4.04
 20
14.399558651
 11
4.04
 21
14.258
  0
LINE
  5
4C1
100
AcDbEntity
  8
0
100
AcDbLine
 62
250
  6
CONTINUOUS
 10
4.04
 20
9.858
 11
4.04
 21
9.600441349
  0
LINE
  5
4C2
100
AcDbEntity
  8
0
100
AcDbLine
 62
250
  6
CONTINUOUS
 10
4.05
 20
6.3995576457
 11
4.05
 21
5.6004423543
  0
LINE
  5
4C3
100
AcDbEntity
  8
0
100
AcDbLine
 62
250
  6
CONTINUOUS
 10
4.05
 20
4.3995576457
 11
4.05
 21
3.9908130619
  0
LINE
  5
4C4
100
AcDbEntity
  8
CURVE
100
AcDbLine
 62
7
  6
CONTINUOUS
 10
4.2
 20
-0.17
 11
4.2
 21
-0.3995425654
  0
LINE
  5
4C5
100
AcDbEntity
  8
RACCORDO
100
AcDbLine
 62
250
  6
CONTINUOUS
 10
2.7507229979
 20
-23.1226497308
 11
2.7456323968
 21
-23.6278312164
  0
LINE
  5
4C6
100
AcDbEntity
  8
ASSI
100
AcDbLine
 62
250
  6
CONTINUOUS
 10
2.7507229979
 20
-23.1226497308
 11
2.7456323968
 21
-23.6278312164
  0
LINE
  5
4C7
100
AcDbEntity
  8
RACCORDO
100
AcDbLine
 62
250
  6
CONTINUOUS
 10
3.0
 20
-23.4104851482
 11
2.995628166
 21
-23.8443375673
  0
LINE
  5
4C8
100
AcDbEntity
  8
ASSI
100
AcDbLine
 62
250
  6
CONTINUOUS
 10
3.0
 20
-23.4104851482
 11
2.995628166
 21
-23.8443375673
  0
LINE
  5
4C9
100
AcDbEntity
  8
SUPERFICI
100
AcDbLine
 62
7
  6
CONTINUOUS
 10
3.5378628768
 20
14.2445763592
 11
3.5405572908
 21
14.3996088626
  0
LWPOLYLINE
  5
4CA
100
AcDbEntity
  8
SUPERFICI
100
AcDbPolyline
 62
7
  6
CONTINUOUS
 90
4
 70
0
 10
5.0054939369
 20
0.399461585
 10
4.9877915866
 20
0.3787390369
 10
4.9406805168
 20
0.2984705267
 10
4.911191978
 20
0.2141282621
  0
LINE
  5
4CB
100
AcDbEntity
  8
DRAFT
100
AcDbLine
 62
7
  6
CONTINUOUS
 10
3.1
 20
3.5825449351
 11
7.1
 21
3.5825449351
  0
LINE
  5
4CC
100
AcDbEntity
  8
DRAFT
100
AcDbLine
 62
7
  6
CONTINUOUS
 10
14.0
 20
3.5825449351
 11
18.0
 21
3.5825449351
  0
LINE
  5
4CD
100
AcDbEntity
  8
DRAFT
100
AcDbLine
 62
7
  6
CONTINUOUS
 10
3.1
 20
3.600346846
 11
7.1
 21
3.6007489863
  0
LINE
  5
4CE
100
AcDbEntity
  8
DRAFT
100
AcDbLine
 62
7
  6
CONTINUOUS
 10
14.0
 20
3.6014426782
 11
18.0
 21
3.6018448185
  0
LINE
  5
4CF
100
AcDbEntity
  8
0
100
AcDbLine
 62
7
  6
CONTINUOUS
 10
4.05
 20
3.9908130619
 11
4.95
 21
3.9908130619
  0
LINE
  5
4D0
100
AcDbEntity
  8
0
100
AcDbLine
 62
7
  6
CONTINUOUS
 10
14.15
 20
3.9908130619
 11
18.05
 21
3.9908130619
  0
LINE
  5
4D1
100
AcDbEntity
  8
ASSI
100
AcDbLine
 62
7
  6
CONTINUOUS
 10
-5.8
 20
4.0
 11
-9.8
 21
4.0
  0
LINE
  5
4D2
100
AcDbEntity
  8
ASSI
100
AcDbLine
 62
7
  6
CONTINUOUS
 10
-9.7947634805
 20
4.0052365195
 11
-5.8
 21
4.0052365195
  0
LINE
  5
4D3
100
AcDbEntity
  8
RACCORDO
100
AcDbLine
 62
7
  6
CONTINUOUS
 10
-22.2
 20
4.1477347721
 11
-22.2987606234
 21
4.1477347721
  0
LINE
  5
4D4
100
AcDbEntity
  8
ASSI
100
AcDbLine
 62
7
  6
CONTINUOUS
 10
-22.2
 20
4.1477347721
 11
-22.2987606234
 21
4.1477347721
  0
LINE
  5
4D5
100
AcDbEntity
  8
DRAFT
100
AcDbLine
 62
7
  6
CONTINUOUS
 10
18.0
 20
4.4174550649
 11
14.0
 21
4.4174550649
  0
LINE
  5
4D6
100
AcDbEntity
  8
DRAFT
100
AcDbLine
 62
7
  6
CONTINUOUS
 10
7.1
 20
4.4174550649
 11
3.1
 21
4.4174550649
  0
LINE
  5
4D7
100
AcDbEntity
  8
DRAFT
100
AcDbLine
 62
7
  6
CONTINUOUS
 10
18.0
 20
4.3981551815
 11
14.0
 21
4.3985573218
  0
LINE
  5
4D8
100
AcDbEntity
  8
DRAFT
100
AcDbLine
 62
7
  6
CONTINUOUS
 10
7.1
 20
4.3992510137
 11
3.1
 21
4.399653154
  0
LINE
  5
4D9
100
AcDbEntity
  8
ASSI
100
AcDbLine
 62
250
  6
CONTINUOUS
 10
-10.5
 20
16.1500571154
 11
-10.5174537356
 21
16.167510851
  0
LWPOLYLINE
  5
4DA
100
AcDbEntity
  8
RACCORDO
100
AcDbPolyline
 62
7
  6
CONTINUOUS
 90
16
 70
0
 10
8.8325026243
 20
-16.035379788
 10
8.8414655045
 20
-16.0691427775
 10
8.8485867018
 20
-16.1034260617
 10
8.8537870274
 20
-16.1381232537
 10
8.8570044074
 20
-16.1731385238
 10
8.8581907854
 20
-16.2083640721
 10
8.857314569
 20
-16.2437041154
 10
8.8543542129
 20
-16.2791025875
 10
8.8492945788
 20
-16.3144957879
 10
8.8421277913
 20
-16.3498170682
 10
8.8328373366
 20
-16.3850515376
 10
8.8214190266
 20
-16.4201297781
 10
8.8078988079
 20
-16.454922402
 10
8.792282907
 20
-16.4893805125
 10
8.7745770063
 20
-16.5234515557
 10
8.7618072562
 20
-16.5451520302
  0
LINE
  5
4DB
100
AcDbEntity
  8
0
100
AcDbLine
 62
7
  6
CONTINUOUS
 10
4.95
 20
12.3994671641
 11
4.95
 21
11.6005328359
  0
LINE
  5
4DC
100
AcDbEntity
  8
0
100
AcDbLine
 62
7
  6
CONTINUOUS
 10
4.95
 20
10.3994671641
 11
4.95
 21
9.6005328359
  0
LINE
  5
4DD
100
AcDbEntity
  8
0
100
AcDbLine
 62
7
  6
CONTINUOUS
 10
4.95
 20
4.3994671641
 11
4.95
 21
3.6005328359
  0
LINE
  5
4DE
100
AcDbEntity
  8
0
100
AcDbLine
 62
7
  6
CONTINUOUS
 10
4.95
 20
2.3994671641
 11
4.95
 21
1.6005328359
  0
LINE
  5
4DF
100
AcDbEntity
  8
0
100
AcDbLine
 62
250
  6
CONTINUOUS
 10
5.15
 20
14.3994470571
 11
5.15
 21
14.258
  0
LINE
  5
4E0
100
AcDbEntity
  8
0
100
AcDbLine
 62
7
  6
CONTINUOUS
 10
5.25
 20
14.3994370036
 11
5.25
 21
14.258
  0
LINE
  5
4E1
100
AcDbEntity
  8
0
100
AcDbLine
 62
7
  6
CONTINUOUS
 10
5.55
 20
-0.3994068431
 11
5.55
 21
0.3994068431
  0
LINE
  5
4E2
100
AcDbEntity
  8
0
100
AcDbLine
 62
7
  6
CONTINUOUS
 10
5.55
 20
1.6005931569
 11
5.55
 21
2.3994068431
  0
LINE
  5
4E3
100
AcDbEntity
  8
0
100
AcDbLine
 62
7
  6
CONTINUOUS
 10
5.55
 20
3.6005931569
 11
5.55
 21
4.3994068431
  0
LINE
  5
4E4
100
AcDbEntity
  8
0
100
AcDbLine
 62
7
  6
CONTINUOUS
 10
5.55
 20
5.6005931569
 11
5.55
 21
6.3994068431
  0
LINE
  5
4E5
100
AcDbEntity
  8
0
100
AcDbLine
 62
7
  6
CONTINUOUS
 10
5.55
 20
7.6005931569
 11
5.55
 21
8.3994068431
  0
LINE
  5
4E6
100
AcDbEntity
  8
0
100
AcDbLine
 62
7
  6
CONTINUOUS
 10
5.55
 20
9.6005931569
 11
5.55
 21
10.3994068431
  0
LINE
  5
4E7
100
AcDbEntity
  8
0
100
AcDbLine
 62
7
  6
CONTINUOUS
 10
5.55
 20
11.6005931569
 11
5.55
 21
12.3994068431
  0
LINE
  5
4E8
100
AcDbEntity
  8
0
100
AcDbLine
 62
7
  6
CONTINUOUS
 10
5.55
 20
13.6005931569
 11
5.55
 21
14.3994068431
  0
LINE
  5
4E9
100
AcDbEntity
  8
0
100
AcDbLine
 62
7
  6
CONTINUOUS
 10
6.1935
 20
-13.4030847944
 11
6.1935
 21
-16.7969152056
  0
LINE
  5
4EA
100
AcDbEntity
  8
0
100
AcDbLine
 62
7
  6
CONTINUOUS
 10
6.5
 20
-16.7909161104
 11
6.5
 21
-13.4090838896
  0
LINE
  5
4EB
100
AcDbEntity
  8
0
100
AcDbLine
 62
7
  6
CONTINUOUS
 10
6.55
 20
-0.399306308
 11
6.55
 21
0.399306308
  0
LINE
  5
4EC
100
AcDbEntity
  8
0
100
AcDbLine
 62
7
  6
CONTINUOUS
 10
6.55
 20
1.600693692
 11
6.55
 21
2.399306308
  0
LINE
  5
4ED
100
AcDbEntity
  8
0
100
AcDbLine
 62
7
  6
CONTINUOUS
 10
6.55
 20
3.600693692
 11
6.55
 21
4.399306308
  0
LINE
  5
4EE
100
AcDbEntity
  8
0
100
AcDbLine
 62
7
  6
CONTINUOUS
 10
6.55
 20
5.600693692
 11
6.55
 21
6.399306308
  0
LINE
  5
4EF
100
AcDbEntity
  8
0
100
AcDbLine
 62
7
  6
CONTINUOUS
 10
6.55
 20
7.600693692
 11
6.55
 21
8.399306308
  0
LINE
  5
4F0
100
AcDbEntity
  8
0
100
AcDbLine
 62
7
  6
CONTINUOUS
 10
6.55
 20
9.600693692
 11
6.55
 21
10.399306308
  0
LINE
  5
4F1
100
AcDbEntity
  8
0
100
AcDbLine
 62
7
  6
CONTINUOUS
 10
6.55
 20
11.600693692
 11
6.55
 21
12.399306308
  0
LINE
  5
4F2
100
AcDbEntity
  8
0
100
AcDbLine
 62
7
  6
CONTINUOUS
 10
6.55
 20
13.600693692
 11
6.55
 21
14.399306308
  0
LINE
  5
4F3
100
AcDbEntity
  8
DRAFT
100
AcDbLine
 62
7
  6
CONTINUOUS
 10
6.85
 20
23.8
 11
6.85
 21
22.4
  0
LINE
  5
4F4
100
AcDbEntity
  8
ASSI
100
AcDbLine
 62
7
  6
CONTINUOUS
 10
6.85
 20
23.8
 11
6.85
 21
22.4
  0
LINE
  5
4F5
100
AcDbEntity
  8
DRAFT
100
AcDbLine
 62
7
  6
CONTINUOUS
 10
6.85
 20
-22.4
 11
6.85
 21
-23.8
  0
LINE
  5
4F6
100
AcDbEntity
  8
ASSI
100
AcDbLine
 62
7
  6
CONTINUOUS
 10
6.85
 20
-22.4
 11
6.85
 21
-23.8
  0
LINE
  5
4F7
100
AcDbEntity
  8
ASSI
100
AcDbLine
 62
7
  6
CONTINUOUS
 10
6.8940672673
 20
-22.3338981669
 11
6.8940672673
 21
-23.7507734247
  0
LINE
  5
4F8
100
AcDbEntity
  8
ASSI
100
AcDbLine
 62
7
  6
CONTINUOUS
 10
6.8940672673
 20
22.3338981669
 11
6.8940672673
 21
23.7507734247
  0
LINE
  5
4F9
100
AcDbEntity
  8
SUPERFICI
100
AcDbLine
 62
7
  6
CONTINUOUS
 10
4.911191978
 20
0.2141282621
 11
4.7659705698
 21
-0.3994856655
  0
LINE
  5
4FA
100
AcDbEntity
  8
0
100
AcDbLine
 62
7
  6
CONTINUOUS
 10
-5.8
 20
-13.75
 11
-5.45
 21
-13.4
  0
LINE
  5
4FB
100
AcDbEntity
  8
ASSI
100
AcDbLine
 62
7
  6
CONTINUOUS
 10
-15.65
 20
-23.8
 11
-15.6063493531
 21
-23.7563493531
  0
LWPOLYLINE
  5
4FC
100
AcDbEntity
  8
0
100
AcDbPolyline
 62
7
  6
CONTINUOUS
 90
10
 70
0
 10
14.6522479402
 20
7.8000016324
 10
14.7048395733
 20
7.805900261
 10
14.7584641561
 20
7.8242790119
 10
14.8052043717
 20
7.8521891401
 10
14.8411882649
 20
7.8843234323
 10
14.8667533936
 20
7.9165046522
 10
14.8846931067
 20
7.9476645605
 10
14.8970739732
 20
7.9766904957
 10
14.9053378453
 20
8.001715586
 10
14.9081451165
 20
8.0121345284
  0
LINE
  5
4FD
100
AcDbEntity
  8
DRAFT
100
AcDbLine
 62
7
  6
CONTINUOUS
 10
3.1
 20
5.5825449351
 11
7.1
 21
5.5825449351
  0
LINE
  5
4FE
100
AcDbEntity
  8
DRAFT
100
AcDbLine
 62
7
  6
CONTINUOUS
 10
14.0
 20
5.5825449351
 11
18.0
 21
5.5825449351
  0
LINE
  5
4FF
100
AcDbEntity
  8
DRAFT
100
AcDbLine
 62
7
  6
CONTINUOUS
 10
3.1
 20
5.600346846
 11
7.1
 21
5.6007489863
  0
LINE
  5
500
100
AcDbEntity
  8
DRAFT
100
AcDbLine
 62
7
  6
CONTINUOUS
 10
14.0
 20
5.6014426782
 11
18.0
 21
5.6018448185
  0
LINE
  5
501
100
AcDbEntity
  8
ASSI
100
AcDbLine
 62
7
  6
CONTINUOUS
 10
-9.4333332539
 20
5.75
 11
-8.9333332539
 21
5.75
  0
LINE
  5
502
100
AcDbEntity
  8
ASSI
100
AcDbLine
 62
7
  6
CONTINUOUS
 10
-6.85
 20
5.75
 11
-6.1
 21
5.75
  0
LINE
  5
503
100
AcDbEntity
  8
0
100
AcDbLine
 62
7
  6
CONTINUOUS
 10
4.05
 20
5.8408130619
 11
5.55
 21
5.8408130619
  0
LINE
  5
504
100
AcDbEntity
  8
0
100
AcDbLine
 62
7
  6
CONTINUOUS
 10
14.15
 20
5.8408130619
 11
18.05
 21
5.8408130619
  0
LINE
  5
505
100
AcDbEntity
  8
DRAFT
100
AcDbLine
 62
7
  6
CONTINUOUS
 10
18.0
 20
6.4174550649
 11
14.0
 21
6.4174550649
  0
LINE
  5
506
100
AcDbEntity
  8
DRAFT
100
AcDbLine
 62
7
  6
CONTINUOUS
 10
7.1
 20
6.4174550649
 11
3.1
 21
6.4174550649
  0
LINE
  5
507
100
AcDbEntity
  8
DRAFT
100
AcDbLine
 62
7
  6
CONTINUOUS
 10
18.0
 20
6.3981551815
 11
14.0
 21
6.3985573218
  0
LINE
  5
508
100
AcDbEntity
  8
DRAFT
100
AcDbLine
 62
7
  6
CONTINUOUS
 10
7.1
 20
6.3992510137
 11
3.1
 21
6.399653154
  0
LINE
  5
509
100
AcDbEntity
  8
DRAFT
100
AcDbLine
 62
7
  6
CONTINUOUS
 10
18.5
 20
-11.4680339887
 11
18.4912724675
 21
-11.4593064563
  0
LINE
  5
50A
100
AcDbEntity
  8
ASSI
100
AcDbLine
 62
7
  6
CONTINUOUS
 10
-15.65
 20
23.8
 11
-15.6063493531
 21
23.7563493531
  0
LINE
  5
50B
100
AcDbEntity
  8
ASSI
100
AcDbLine
 62
250
  6
CONTINUOUS
 10
-9.0000571154
 20
17.65
 11
-9.017510851
 21
17.6674537356
  0
LINE
  5
50C
100
AcDbEntity
  8
DRAFT
100
AcDbLine
 62
7
  6
CONTINUOUS
 10
13.5
 20
-3.9680339887
 11
13.5087275325
 21
-3.9767615212
  0
LWPOLYLINE
  5
50D
100
AcDbEntity
  8
SUPERFICI
100
AcDbPolyline
 62
7
  6
CONTINUOUS
 90
3
 70
0
 10
4.2088357585
 20
3.9908130619
 10
4.400557886
 20
3.6982148577
 10
4.4653647637
 20
3.600484113
  0
LINE
  5
50E
100
AcDbEntity
  8
DRAFT
100
AcDbLine
 62
250
  6
CONTINUOUS
 10
7.1
 20
14.4174550649
 11
7.1
 21
14.3992510137
  0
LINE
  5
50F
100
AcDbEntity
  8
DRAFT
100
AcDbLine
 62
250
  6
CONTINUOUS
 10
7.1
 20
12.4174550649
 11
7.1
 21
12.3992510137
  0
LINE
  5
510
100
AcDbEntity
  8
DRAFT
100
AcDbLine
 62
250
  6
CONTINUOUS
 10
7.1
 20
10.4174550649
 11
7.1
 21
10.3992510137
  0
LINE
  5
511
100
AcDbEntity
  8
DRAFT
100
AcDbLine
 62
250
  6
CONTINUOUS
 10
7.1
 20
8.4174550649
 11
7.1
 21
8.3992510137
  0
LINE
  5
512
100
AcDbEntity
  8
DRAFT
100
AcDbLine
 62
250
  6
CONTINUOUS
 10
7.1
 20
6.4174550649
 11
7.1
 21
6.3992510137
  0
LINE
  5
513
100
AcDbEntity
  8
DRAFT
100
AcDbLine
 62
250
  6
CONTINUOUS
 10
7.1
 20
4.4174550649
 11
7.1
 21
4.3992510137
  0
LINE
  5
514
100
AcDbEntity
  8
DRAFT
100
AcDbLine
 62
250
  6
CONTINUOUS
 10
7.1
 20
2.4174550649
 11
7.1
 21
2.3992510137
  0
LINE
  5
515
100
AcDbEntity
  8
DRAFT
100
AcDbLine
 62
250
  6
CONTINUOUS
 10
7.1
 20
0.4174550649
 11
7.1
 21
0.3992510137
  0
LINE
  5
516
100
AcDbEntity
  8
DRAFT
100
AcDbLine
 62
250
  6
CONTINUOUS
 10
7.1
 20
-0.4174550649
 11
7.1
 21
-0.3992510137
  0
LINE
  5
517
100
AcDbEntity
  8
DRAFT
100
AcDbLine
 62
250
  6
CONTINUOUS
 10
7.1
 20
1.5825449351
 11
7.1
 21
1.6007489863
  0
LINE
  5
518
100
AcDbEntity
  8
DRAFT
100
AcDbLine
 62
250
  6
CONTINUOUS
 10
7.1
 20
3.5825449351
 11
7.1
 21
3.6007489863
  0
LINE
  5
519
100
AcDbEntity
  8
DRAFT
100
AcDbLine
 62
250
  6
CONTINUOUS
 10
7.1
 20
5.5825449351
 11
7.1
 21
5.6007489863
  0
LINE
  5
51A
100
AcDbEntity
  8
DRAFT
100
AcDbLine
 62
250
  6
CONTINUOUS
 10
7.1
 20
7.5825449351
 11
7.1
 21
7.6007489863
  0
LINE
  5
51B
100
AcDbEntity
  8
DRAFT
100
AcDbLine
 62
250
  6
CONTINUOUS
 10
7.1
 20
9.5825449351
 11
7.1
 21
9.6007489863
  0
LINE
  5
51C
100
AcDbEntity
  8
DRAFT
100
AcDbLine
 62
250
  6
CONTINUOUS
 10
7.1
 20
11.5825449351
 11
7.1
 21
11.6007489863
  0
LINE
  5
51D
100
AcDbEntity
  8
DRAFT
100
AcDbLine
 62
250
  6
CONTINUOUS
 10
7.1
 20
13.5825449351
 11
7.1
 21
13.6007489863
  0
LINE
  5
51E
100
AcDbEntity
  8
RACCORDO
100
AcDbLine
 62
7
  6
CONTINUOUS
 10
7.75
 20
-22.3339198952
 11
7.75
 21
-23.7511422903
  0
LINE
  5
51F
100
AcDbEntity
  8
ASSI
100
AcDbLine
 62
7
  6
CONTINUOUS
 10
7.75
 20
-22.3339198952
 11
7.75
 21
-23.7511422903
  0
LINE
  5
520
100
AcDbEntity
  8
ASSI
100
AcDbLine
 62
7
  6
CONTINUOUS
 10
7.75
 20
-23.7563493531
 11
7.75
 21
-23.7941821702
  0
LINE
  5
521
100
AcDbEntity
  8
ASSI
100
AcDbLine
 62
7
  6
CONTINUOUS
 10
7.75
 20
23.7563493531
 11
7.75
 21
23.7941821702
  0
LINE
  5
522
100
AcDbEntity
  8
ASSI
100
AcDbLine
 62
7
  6
CONTINUOUS
 10
7.75
 20
22.3339198952
 11
7.75
 21
23.7511422903
  0
LINE
  5
523
100
AcDbEntity
  8
RACCORDO
100
AcDbLine
 62
7
  6
CONTINUOUS
 10
8.25
 20
-21.8
 11
8.25
 21
-22.3912731322
  0
LINE
  5
524
100
AcDbEntity
  8
ASSI
100
AcDbLine
 62
7
  6
CONTINUOUS
 10
8.25
 20
-21.8
 11
8.25
 21
-22.3912731322
  0
LINE
  5
525
100
AcDbEntity
  8
RACCORDO
100
AcDbLine
 62
7
  6
CONTINUOUS
 10
8.25
 20
21.8
 11
8.25
 21
22.3912731322
  0
LINE
  5
526
100
AcDbEntity
  8
ASSI
100
AcDbLine
 62
7
  6
CONTINUOUS
 10
8.25
 20
21.8
 11
8.25
 21
22.3912731322
  0
LINE
  5
527
100
AcDbEntity
  8
DRAFT
100
AcDbLine
 62
250
  6
CONTINUOUS
 10
8.3
 20
-11.4680339887
 11
8.3
 21
-11.5029441186
  0
LINE
  5
528
100
AcDbEntity
  8
DRAFT
100
AcDbLine
 62
250
  6
CONTINUOUS
 10
8.3
 20
-12.85
 11
8.3
 21
-13.3749104872
  0
LINE
  5
529
100
AcDbEntity
  8
DRAFT
100
AcDbLine
 62
250
  6
CONTINUOUS
 10
8.3
 20
-16.8250895128
 11
8.3
 21
-17.35
  0
LINE
  5
52A
100
AcDbEntity
  8
DRAFT
100
AcDbLine
 62
250
  6
CONTINUOUS
 10
8.3
 20
-18.7319660113
 11
8.3
 21
-18.6970558814
  0
LINE
  5
52B
100
AcDbEntity
  8
RACCORDO
100
AcDbLine
 62
7
  6
CONTINUOUS
 10
8.8323815467
 20
-16.0349639266
 11
8.8323815467
 21
-14.1650309766
  0
LINE
  5
52C
100
AcDbEntity
  8
ASSI
100
AcDbLine
 62
7
  6
CONTINUOUS
 10
-11.2542111233
 20
-21.7542111233
 11
-11.2586507125
 21
-21.7586507125
  0
LINE
  5
52D
100
AcDbEntity
  8
0
100
AcDbLine
 62
7
  6
CONTINUOUS
 10
3.95
 20
7.808
 11
5.55
 21
7.8918524469
  0
LINE
  5
52E
100
AcDbEntity
  8
DRAFT
100
AcDbLine
 62
7
  6
CONTINUOUS
 10
3.1
 20
7.5825449351
 11
7.1
 21
7.5825449351
  0
LINE
  5
52F
100
AcDbEntity
  8
DRAFT
100
AcDbLine
 62
7
  6
CONTINUOUS
 10
14.0
 20
7.5825449351
 11
18.0
 21
7.5825449351
  0
LINE
  5
530
100
AcDbEntity
  8
DRAFT
100
AcDbLine
 62
7
  6
CONTINUOUS
 10
3.1
 20
7.600346846
 11
7.1
 21
7.6007489863
  0
LINE
  5
531
100
AcDbEntity
  8
DRAFT
100
AcDbLine
 62
7
  6
CONTINUOUS
 10
14.0
 20
7.6014426782
 11
18.0
 21
7.6018448185
  0
LINE
  5
532
100
AcDbEntity
  8
DRAFT
100
AcDbLine
 62
7
  6
CONTINUOUS
 10
18.0
 20
8.4174550649
 11
14.0
 21
8.4174550649
  0
LINE
  5
533
100
AcDbEntity
  8
DRAFT
100
AcDbLine
 62
7
  6
CONTINUOUS
 10
7.1
 20
8.4174550649
 11
3.1
 21
8.4174550649
  0
LINE
  5
534
100
AcDbEntity
  8
ASSI
100
AcDbLine
 62
7
  6
CONTINUOUS
 10
-11.25
 20
9.0
 11
-10.05
 21
9.0
  0
LINE
  5
535
100
AcDbEntity
  8
ASSI
100
AcDbLine
 62
250
  6
CONTINUOUS
 10
-11.2455604108
 20
9.0044395892
 11
-10.0544395892
 21
9.0044395892
  0
LINE
  5
536
100
AcDbEntity
  8
DRAFT
100
AcDbLine
 62
7
  6
CONTINUOUS
 10
18.0
 20
8.3981551815
 11
14.0
 21
8.3985573218
  0
LINE
  5
537
100
AcDbEntity
  8
DRAFT
100
AcDbLine
 62
7
  6
CONTINUOUS
 10
7.1
 20
8.3992510137
 11
3.1
 21
8.399653154
  0
LWPOLYLINE
  5
538
100
AcDbEntity
  8
RACCORDO
100
AcDbPolyline
 62
7
  6
CONTINUOUS
 90
16
 70
0
 10
12.2713031372
 20
-14.1398006699
 10
12.2625256423
 20
-14.1058750017
 10
12.2555521703
 20
-14.0714743423
 10
12.2504607269
 20
-14.0367095628
 10
12.247312698
 20
-14.0016837793
 10
12.2461547519
 20
-13.9665066387
 10
12.2470175249
 20
-13.931270257
 10
12.2499214715
 20
-13.896036284
 10
12.2548799826
 20
-13.8608665487
 10
12.2619025794
 20
-13.8258085817
 10
12.2710076373
 20
-13.7908670599
 10
12.2821998016
 20
-13.7561075251
 10
12.2954575547
 20
-13.7216435978
 10
12.3107808252
 20
-13.6875081997
 10
12.3281668515
 20
-13.6537474462
 10
12.3395633328
 20
-13.6342083856
  0
LINE
  5
539
100
AcDbEntity
  8
RACCORDO
100
AcDbLine
 62
7
  6
CONTINUOUS
 10
9.3
 20
-13.9680339887
 11
9.3
 21
-16.2319660113
  0
LINE
  5
53A
100
AcDbEntity
  8
ASSI
100
AcDbLine
 62
7
  6
CONTINUOUS
 10
9.8
 20
-13.9680339887
 11
9.8
 21
-16.2319660113
  0
LINE
  5
53B
100
AcDbEntity
  8
DRAFT
100
AcDbLine
 62
7
  6
CONTINUOUS
 10
11.2650898701
 20
-16.2319660113
 11
11.2650898701
 21
-13.9680339887
  0
LINE
  5
53C
100
AcDbEntity
  8
DRAFT
100
AcDbLine
 62
7
  6
CONTINUOUS
 10
11.3
 20
-16.2319660113
 11
11.3
 21
-13.9680339887
  0
LINE
  5
53D
100
AcDbEntity
  8
DRAFT
100
AcDbLine
 62
7
  6
CONTINUOUS
 10
3.1
 20
9.5825449351
 11
7.1
 21
9.5825449351
  0
LINE
  5
53E
100
AcDbEntity
  8
DRAFT
100
AcDbLine
 62
7
  6
CONTINUOUS
 10
14.0
 20
9.5825449351
 11
18.0
 21
9.5825449351
  0
LINE
  5
53F
100
AcDbEntity
  8
DRAFT
100
AcDbLine
 62
7
  6
CONTINUOUS
 10
3.1
 20
9.600346846
 11
7.1
 21
9.6007489863
  0
LINE
  5
540
100
AcDbEntity
  8
DRAFT
100
AcDbLine
 62
7
  6
CONTINUOUS
 10
14.0
 20
9.6014426782
 11
18.0
 21
9.6018448185
  0
LINE
  5
541
100
AcDbEntity
  8
ASSI
100
AcDbLine
 62
7
  6
CONTINUOUS
 10
-6.1
 20
9.75
 11
-6.6
 21
9.75
  0
LINE
  5
542
100
AcDbEntity
  8
ASSI
100
AcDbLine
 62
7
  6
CONTINUOUS
 10
-8.6833332539
 20
9.75
 11
-9.4333332539
 21
9.75
  0
LINE
  5
543
100
AcDbEntity
  8
0
100
AcDbLine
 62
7
  6
CONTINUOUS
 10
3.975
 20
9.858
 11
4.95
 21
9.858
  0
LINE
  5
544
100
AcDbEntity
  8
ASSI
100
AcDbLine
 62
250
  6
CONTINUOUS
 10
-11.2369096983
 20
10.0044015123
 11
-10.0630903017
 21
10.0044015123
  0
LINE
  5
545
100
AcDbEntity
  8
DRAFT
100
AcDbLine
 62
7
  6
CONTINUOUS
 10
18.0
 20
10.4174550649
 11
14.0
 21
10.4174550649
  0
LINE
  5
546
100
AcDbEntity
  8
DRAFT
100
AcDbLine
 62
7
  6
CONTINUOUS
 10
7.1
 20
10.4174550649
 11
3.1
 21
10.4174550649
  0
LINE
  5
547
100
AcDbEntity
  8
DRAFT
100
AcDbLine
 62
7
  6
CONTINUOUS
 10
18.0
 20
10.3981551815
 11
14.0
 21
10.3985573218
  0
LINE
  5
548
100
AcDbEntity
  8
DRAFT
100
AcDbLine
 62
7
  6
CONTINUOUS
 10
7.1
 20
10.3992510137
 11
3.1
 21
10.399653154
  0
LINE
  5
549
100
AcDbEntity
  8
0
100
AcDbLine
 62
7
  6
CONTINUOUS
 10
14.8666667461
 20
-6.3137786582
 11
16.95
 21
-9.7180339887
  0
LINE
  5
54A
100
AcDbEntity
  8
0
100
AcDbLine
 62
7
  6
CONTINUOUS
 10
17.2
 20
-9.2073957518
 11
15.1166667461
 21
-5.7180339887
  0
LINE
  5
54B
100
AcDbEntity
  8
RACCORDO
100
AcDbLine
 62
7
  6
CONTINUOUS
 10
11.8
 20
-16.2319660113
 11
11.8
 21
-13.9680339887
  0
LINE
  5
54C
100
AcDbEntity
  8
RACCORDO
100
AcDbLine
 62
7
  6
CONTINUOUS
 10
12.2714219297
 20
-14.140219623
 11
12.2714219297
 21
-16.0597855471
  0
LINE
  5
54D
100
AcDbEntity
  8
DRAFT
100
AcDbLine
 62
250
  6
CONTINUOUS
 10
12.8
 20
-11.4680339887
 11
12.8
 21
-11.5029441186
  0
LINE
  5
54E
100
AcDbEntity
  8
DRAFT
100
AcDbLine
 62
250
  6
CONTINUOUS
 10
12.8
 20
-17.85
 11
12.8
 21
-17.8849101299
  0
LINE
  5
54F
100
AcDbEntity
  8
DRAFT
100
AcDbLine
 62
250
  6
CONTINUOUS
 10
12.8
 20
-18.7319660113
 11
12.8
 21
-18.6970558814
  0
LINE
  5
550
100
AcDbEntity
  8
DRAFT
100
AcDbLine
 62
250
  6
CONTINUOUS
 10
12.8
 20
-17.35
 11
12.8
 21
-16.8121302998
  0
LINE
  5
551
100
AcDbEntity
  8
DRAFT
100
AcDbLine
 62
250
  6
CONTINUOUS
 10
12.8
 20
-13.3878697002
 11
12.8
 21
-12.85
  0
LINE
  5
552
100
AcDbEntity
  8
DRAFT
100
AcDbLine
 62
250
  6
CONTINUOUS
 10
12.8
 20
-12.35
 11
12.8
 21
-12.3150898701
  0
LINE
  5
553
100
AcDbEntity
  8
DRAFT
100
AcDbLine
 62
7
  6
CONTINUOUS
 10
13.5
 20
-3.9680339887
 11
13.5
 21
-11.4680339887
  0
LINE
  5
554
100
AcDbEntity
  8
DRAFT
100
AcDbLine
 62
7
  6
CONTINUOUS
 10
13.5087275325
 20
-3.9767615212
 11
13.5087275325
 21
-11.4593064563
  0
LINE
  5
555
100
AcDbEntity
  8
RACCORDO
100
AcDbLine
 62
7
  6
CONTINUOUS
 10
20.1498860669
 20
20.9
 11
20.0749602486
 21
20.6750397514
  0
LINE
  5
556
100
AcDbEntity
  8
ASSI
100
AcDbLine
 62
7
  6
CONTINUOUS
 10
20.1498860669
 20
20.9
 11
20.0749602486
 21
20.6750397514
  0
LINE
  5
557
100
AcDbEntity
  8
SMUSSO
100
AcDbLine
 62
7
  6
CONTINUOUS
 10
20.9
 20
20.1489710538
 11
20.8253027956
 21
19.9246972044
  0
LINE
  5
558
100
AcDbEntity
  8
ASSI
100
AcDbLine
 62
7
  6
CONTINUOUS
 10
20.9
 20
20.1489710538
 11
20.8253027956
 21
19.9246972044
  0
LINE
  5
559
100
AcDbEntity
  8
RACCORDO
100
AcDbLine
 62
250
  6
CONTINUOUS
 10
8.8325066818
 20
-14.164711917
 11
8.8323815467
 21
-14.1650309766
  0
LINE
  5
55A
100
AcDbEntity
  8
RACCORDO
100
AcDbLine
 62
7
  6
CONTINUOUS
 10
-3.227550574
 20
-21.627550574
 11
-3.9799282041
 21
-22.3799282041
  0
LINE
  5
55B
100
AcDbEntity
  8
ASSI
100
AcDbLine
 62
7
  6
CONTINUOUS
 10
-3.227550574
 20
-21.627550574
 11
-3.9799282041
 21
-22.3799282041
  0
LINE
  5
55C
100
AcDbEntity
  8
RACCORDO
100
AcDbLine
 62
7
  6
CONTINUOUS
 10
-0.35
 20
-19.15
 11
-2.8240290954
 21
-21.6240290954
  0
LINE
  5
55D
100
AcDbEntity
  8
0
100
AcDbLine
 62
7
  6
CONTINUOUS
 10
-2.35
 20
-21.2
 11
-0.35
 21
-19.2
  0
LINE
  5
55E
100
AcDbEntity
  8
0
100
AcDbLine
 62
7
  6
CONTINUOUS
 10
5.5
 20
-13.4
 11
5.0
 21
-13.9
  0
LINE
  5
55F
100
AcDbEntity
  8
DRAFT
100
AcDbLine
 62
7
  6
CONTINUOUS
 10
-5.8
 20
13.15
 11
-2.6
 21
13.1569814942
  0
LINE
  5
560
100
AcDbEntity
  8
ASSI
100
AcDbLine
 62
7
  6
CONTINUOUS
 10
-5.8
 20
11.4947634805
 11
-9.7947634805
 21
11.4947634805
  0
LINE
  5
561
100
AcDbEntity
  8
DRAFT
100
AcDbLine
 62
7
  6
CONTINUOUS
 10
-22.4226915844
 20
11.5
 11
-22.1
 21
11.5
  0
LINE
  5
562
100
AcDbEntity
  8
ASSI
100
AcDbLine
 62
7
  6
CONTINUOUS
 10
-22.4226915844
 20
11.5
 11
-22.1
 21
11.5
  0
LINE
  5
563
100
AcDbEntity
  8
ASSI
100
AcDbLine
 62
7
  6
CONTINUOUS
 10
-5.8
 20
11.5
 11
-9.8
 21
11.5
  0
LINE
  5
564
100
AcDbEntity
  8
DRAFT
100
AcDbLine
 62
7
  6
CONTINUOUS
 10
3.1
 20
11.5825449351
 11
7.1
 21
11.5825449351
  0
LINE
  5
565
100
AcDbEntity
  8
DRAFT
100
AcDbLine
 62
7
  6
CONTINUOUS
 10
14.0
 20
11.5825449351
 11
18.0
 21
11.5825449351
  0
LINE
  5
566
100
AcDbEntity
  8
DRAFT
100
AcDbLine
 62
7
  6
CONTINUOUS
 10
3.1
 20
11.600346846
 11
7.1
 21
11.6007489863
  0
LINE
  5
567
100
AcDbEntity
  8
DRAFT
100
AcDbLine
 62
7
  6
CONTINUOUS
 10
14.0
 20
11.6014426782
 11
18.0
 21
11.6018448185
  0
LINE
  5
568
100
AcDbEntity
  8
RACCORDO
100
AcDbLine
 62
7
  6
CONTINUOUS
 10
-16.7
 20
11.63
 11
-19.6
 21
11.63
  0
LINE
  5
569
100
AcDbEntity
  8
RACCORDO
100
AcDbLine
 62
7
  6
CONTINUOUS
 10
-2.85
 20
11.65
 11
-5.8
 21
11.65
  0
LINE
  5
56A
100
AcDbEntity
  8
ASSI
100
AcDbLine
 62
7
  6
CONTINUOUS
 10
-5.8
 20
11.65
 11
-10.05
 21
11.65
  0
LINE
  5
56B
100
AcDbEntity
  8
ASSI
100
AcDbLine
 62
7
  6
CONTINUOUS
 10
-11.25
 20
11.65
 11
-16.7
 21
11.65
  0
LINE
  5
56C
100
AcDbEntity
  8
ASSI
100
AcDbLine
 62
7
  6
CONTINUOUS
 10
-10.0630903017
 20
11.6630903017
 11
-11.2369096983
 21
11.6630903017
  0
LINE
  5
56D
100
AcDbEntity
  8
ASSI
100
AcDbLine
 62
7
  6
CONTINUOUS
 10
-16.7
 20
11.6674537356
 11
-5.8
 21
11.6674537356
  0
LINE
  5
56E
100
AcDbEntity
  8
DRAFT
100
AcDbLine
 62
7
  6
CONTINUOUS
 10
18.0
 20
12.4174550649
 11
14.0
 21
12.4174550649
  0
LINE
  5
56F
100
AcDbEntity
  8
DRAFT
100
AcDbLine
 62
7
  6
CONTINUOUS
 10
7.1
 20
12.4174550649
 11
3.1
 21
12.4174550649
  0
LINE
  5
570
100
AcDbEntity
  8
RACCORDO
100
AcDbLine
 62
7
  6
CONTINUOUS
 10
-19.9
 20
12.625
 11
-16.7
 21
12.625
  0
LINE
  5
571
100
AcDbEntity
  8
ASSI
100
AcDbLine
 62
7
  6
CONTINUOUS
 10
-16.7
 20
12.6325462644
 11
-13.482489149
 21
12.6325462644
  0
LINE
  5
572
100
AcDbEntity
  8
ASSI
100
AcDbLine
 62
7
  6
CONTINUOUS
 10
-5.8
 20
12.6325462644
 11
-9.017510851
 21
12.6325462644
  0
LINE
  5
573
100
AcDbEntity
  8
ASSI
100
AcDbLine
 62
7
  6
CONTINUOUS
 10
-16.7
 20
12.65
 11
-13.4999428846
 21
12.65
  0
LINE
  5
574
100
AcDbEntity
  8
RACCORDO
100
AcDbLine
 62
7
  6
CONTINUOUS
 10
-5.8
 20
12.65
 11
-2.6
 21
12.65
  0
LINE
  5
575
100
AcDbEntity
  8
ASSI
100
AcDbLine
 62
7
  6
CONTINUOUS
 10
-5.8
 20
12.65
 11
-9.0000571154
 21
12.65
  0
LINE
  5
576
100
AcDbEntity
  8
DRAFT
100
AcDbLine
 62
7
  6
CONTINUOUS
 10
-19.7
 20
13.25
 11
-16.7
 21
13.25
  0
LINE
  5
577
100
AcDbEntity
  8
DRAFT
100
AcDbLine
 62
7
  6
CONTINUOUS
 10
-5.8
 20
13.25
 11
-2.8
 21
13.25
  0
LINE
  5
578
100
AcDbEntity
  8
DRAFT
100
AcDbLine
 62
7
  6
CONTINUOUS
 10
18.0
 20
12.3981551815
 11
14.0
 21
12.3985573218
  0
LINE
  5
579
100
AcDbEntity
  8
DRAFT
100
AcDbLine
 62
7
  6
CONTINUOUS
 10
7.1
 20
12.3992510137
 11
3.1
 21
12.399653154
  0
LINE
  5
57A
100
AcDbEntity
  8
DRAFT
100
AcDbLine
 62
7
  6
CONTINUOUS
 10
-16.7
 20
13.15
 11
-19.85
 21
13.1568724084
  0
LWPOLYLINE
  5
57B
100
AcDbEntity
  8
0
100
AcDbPolyline
 62
7
  6
CONTINUOUS
 90
4
 70
0
 10
14.55
 20
7.8243654864
 10
14.5810047049
 20
7.810895052
 10
14.6403473717
 20
7.8003175538
 10
14.652552484
 20
7.8000050656
  0
LINE
  5
57C
100
AcDbEntity
  8
RACCORDO
100
AcDbLine
 62
7
  6
CONTINUOUS
 10
-3.227550574
 20
21.627550574
 11
-3.9799282041
 21
22.3799282041
  0
LINE
  5
57D
100
AcDbEntity
  8
ASSI
100
AcDbLine
 62
7
  6
CONTINUOUS
 10
-3.227550574
 20
21.627550574
 11
-3.9799282041
 21
22.3799282041
  0
LINE
  5
57E
100
AcDbEntity
  8
RACCORDO
100
AcDbLine
 62
7
  6
CONTINUOUS
 10
-2.8240290954
 20
21.6240290954
 11
-0.375
 21
19.175
  0
LINE
  5
57F
100
AcDbEntity
  8
0
100
AcDbLine
 62
7
  6
CONTINUOUS
 10
-0.35
 20
19.2
 11
-2.35
 21
21.2
  0
LINE
  5
580
100
AcDbEntity
  8
RACCORDO
100
AcDbLine
 62
7
  6
CONTINUOUS
 10
20.0749602486
 20
-20.6750397514
 11
20.1498860669
 21
-20.9
  0
LINE
  5
581
100
AcDbEntity
  8
ASSI
100
AcDbLine
 62
7
  6
CONTINUOUS
 10
20.0749602486
 20
-20.6750397514
 11
20.1498860669
 21
-20.9
  0
LINE
  5
582
100
AcDbEntity
  8
SMUSSO
100
AcDbLine
 62
7
  6
CONTINUOUS
 10
20.8253027956
 20
-19.9246972044
 11
20.9
 21
-20.1489710538
  0
LINE
  5
583
100
AcDbEntity
  8
ASSI
100
AcDbLine
 62
7
  6
CONTINUOUS
 10
20.8253027956
 20
-19.9246972044
 11
20.9
 21
-20.1489710538
  0
LINE
  5
584
100
AcDbEntity
  8
0
100
AcDbLine
 62
7
  6
CONTINUOUS
 10
14.7290129931
 20
10.315156112
 11
14.7233846237
 21
10.3984845962
  0
LINE
  5
585
100
AcDbEntity
  8
0
100
AcDbLine
 62
7
  6
CONTINUOUS
 10
14.7374316426
 20
10.1828631622
 11
14.7290129931
 21
10.315156112
  0
LINE
  5
586
100
AcDbEntity
  8
0
100
AcDbLine
 62
7
  6
CONTINUOUS
 10
14.745948316
 20
10.041503417
 11
14.7374316426
 21
10.1828631622
  0
LINE
  5
587
100
AcDbEntity
  8
0
100
AcDbLine
 62
7
  6
CONTINUOUS
 10
14.758882109
 20
9.8159204912
 11
14.745948316
 21
10.041503417
  0
LINE
  5
588
100
AcDbEntity
  8
0
100
AcDbLine
 62
7
  6
CONTINUOUS
 10
14.7707648949
 20
9.6015201671
 11
14.758882109
 21
9.8159204912
  0
LINE
  5
589
100
AcDbEntity
  8
DRAFT
100
AcDbLine
 62
250
  6
CONTINUOUS
 10
14.0
 20
14.4174550649
 11
14.0
 21
14.3985573218
  0
LINE
  5
58A
100
AcDbEntity
  8
DRAFT
100
AcDbLine
 62
250
  6
CONTINUOUS
 10
14.0
 20
12.4174550649
 11
14.0
 21
12.3985573218
  0
LINE
  5
58B
100
AcDbEntity
  8
DRAFT
100
AcDbLine
 62
250
  6
CONTINUOUS
 10
14.0
 20
10.4174550649
 11
14.0
 21
10.3985573218
  0
LINE
  5
58C
100
AcDbEntity
  8
DRAFT
100
AcDbLine
 62
250
  6
CONTINUOUS
 10
14.0
 20
8.4174550649
 11
14.0
 21
8.3985573218
  0
LINE
  5
58D
100
AcDbEntity
  8
DRAFT
100
AcDbLine
 62
250
  6
CONTINUOUS
 10
14.0
 20
6.4174550649
 11
14.0
 21
6.3985573218
  0
LINE
  5
58E
100
AcDbEntity
  8
DRAFT
100
AcDbLine
 62
250
  6
CONTINUOUS
 10
14.0
 20
4.4174550649
 11
14.0
 21
4.3985573218
  0
LINE
  5
58F
100
AcDbEntity
  8
DRAFT
100
AcDbLine
 62
250
  6
CONTINUOUS
 10
14.0
 20
2.4174550649
 11
14.0
 21
2.3985573218
  0
LINE
  5
590
100
AcDbEntity
  8
DRAFT
100
AcDbLine
 62
250
  6
CONTINUOUS
 10
14.0
 20
0.4174550649
 11
14.0
 21
0.3985573218
  0
LINE
  5
591
100
AcDbEntity
  8
DRAFT
100
AcDbLine
 62
250
  6
CONTINUOUS
 10
14.0
 20
-0.4174550649
 11
14.0
 21
-0.3985573218
  0
LINE
  5
592
100
AcDbEntity
  8
DRAFT
100
AcDbLine
 62
250
  6
CONTINUOUS
 10
14.0
 20
1.5825449351
 11
14.0
 21
1.6014426782
  0
LINE
  5
593
100
AcDbEntity
  8
DRAFT
100
AcDbLine
 62
250
  6
CONTINUOUS
 10
14.0
 20
3.5825449351
 11
14.0
 21
3.6014426782
  0
LINE
  5
594
100
AcDbEntity
  8
DRAFT
100
AcDbLine
 62
250
  6
CONTINUOUS
 10
14.0
 20
5.5825449351
 11
14.0
 21
5.6014426782
  0
LINE
  5
595
100
AcDbEntity
  8
DRAFT
100
AcDbLine
 62
250
  6
CONTINUOUS
 10
14.0
 20
7.5825449351
 11
14.0
 21
7.6014426782
  0
LINE
  5
596
100
AcDbEntity
  8
DRAFT
100
AcDbLine
 62
250
  6
CONTINUOUS
 10
14.0
 20
9.5825449351
 11
14.0
 21
9.6014426782
  0
LINE
  5
597
100
AcDbEntity
  8
DRAFT
100
AcDbLine
 62
250
  6
CONTINUOUS
 10
14.0
 20
11.5825449351
 11
14.0
 21
11.6014426782
  0
LINE
  5
598
100
AcDbEntity
  8
DRAFT
100
AcDbLine
 62
250
  6
CONTINUOUS
 10
14.0
 20
13.5825449351
 11
14.0
 21
13.6014426782
  0
LINE
  5
599
100
AcDbEntity
  8
0
100
AcDbLine
 62
7
  6
CONTINUOUS
 10
14.15
 20
-0.3985422415
 11
14.15
 21
0.3985422415
  0
LINE
  5
59A
100
AcDbEntity
  8
0
100
AcDbLine
 62
7
  6
CONTINUOUS
 10
14.15
 20
1.6014577585
 11
14.15
 21
2.3985573218
  0
LINE
  5
59B
100
AcDbEntity
  8
0
100
AcDbLine
 62
7
  6
CONTINUOUS
 10
14.15
 20
3.6014426782
 11
14.15
 21
4.3985573218
  0
LINE
  5
59C
100
AcDbEntity
  8
0
100
AcDbLine
 62
7
  6
CONTINUOUS
 10
14.15
 20
5.6014426782
 11
14.15
 21
6.3985573218
  0
LINE
  5
59D
100
AcDbEntity
  8
0
100
AcDbLine
 62
7
  6
CONTINUOUS
 10
14.15
 20
7.6014577585
 11
14.15
 21
8.3985573218
  0
LINE
  5
59E
100
AcDbEntity
  8
0
100
AcDbLine
 62
7
  6
CONTINUOUS
 10
14.15
 20
9.6014426782
 11
14.15
 21
10.3985573218
  0
LINE
  5
59F
100
AcDbEntity
  8
0
100
AcDbLine
 62
7
  6
CONTINUOUS
 10
14.15
 20
11.6014426782
 11
14.15
 21
12.3985573218
  0
LINE
  5
5A0
100
AcDbEntity
  8
RACCORDO
100
AcDbLine
 62
7
  6
CONTINUOUS
 10
14.25
 20
-21.8
 11
14.25
 21
-22.3912731322
  0
LINE
  5
5A1
100
AcDbEntity
  8
ASSI
100
AcDbLine
 62
7
  6
CONTINUOUS
 10
14.25
 20
-21.8
 11
14.25
 21
-22.3912731322
  0
LINE
  5
5A2
100
AcDbEntity
  8
RACCORDO
100
AcDbLine
 62
7
  6
CONTINUOUS
 10
14.25
 20
21.8
 11
14.25
 21
22.3912731322
  0
LINE
  5
5A3
100
AcDbEntity
  8
ASSI
100
AcDbLine
 62
7
  6
CONTINUOUS
 10
14.25
 20
21.8
 11
14.25
 21
22.3912731322
  0
LINE
  5
5A4
100
AcDbEntity
  8
0
100
AcDbLine
 62
7
  6
CONTINUOUS
 10
14.3666667461
 20
-5.7180339887
 11
14.3666667461
 21
-9.7180339887
  0
LINE
  5
5A5
100
AcDbEntity
  8
0
100
AcDbLine
 62
250
  6
CONTINUOUS
 10
14.55
 20
6.3985020275
 11
14.55
 21
5.8408130619
  0
LINE
  5
5A6
100
AcDbEntity
  8
0
100
AcDbLine
 62
7
  6
CONTINUOUS
 10
14.55
 20
7.6014979725
 11
14.55
 21
8.3985020275
  0
LINE
  5
5A7
100
AcDbEntity
  8
0
100
AcDbLine
 62
7
  6
CONTINUOUS
 10
14.55
 20
9.6014979725
 11
14.55
 21
10.3985020275
  0
LINE
  5
5A8
100
AcDbEntity
  8
0
100
AcDbLine
 62
7
  6
CONTINUOUS
 10
14.55
 20
11.6014979725
 11
14.55
 21
12.3985020275
  0
LINE
  5
5A9
100
AcDbEntity
  8
0
100
AcDbLine
 62
7
  6
CONTINUOUS
 10
14.55
 20
13.6014979725
 11
14.55
 21
14.3985020275
  0
LINE
  5
5AA
100
AcDbEntity
  8
0
100
AcDbLine
 62
7
  6
CONTINUOUS
 10
14.6
 20
-16.8069466146
 11
14.6
 21
-13.4
  0
LINE
  5
5AB
100
AcDbEntity
  8
0
100
AcDbLine
 62
7
  6
CONTINUOUS
 10
14.625
 20
3.9908130619
 11
14.625
 21
3.6015055127
  0
LINE
  5
5AC
100
AcDbEntity
  8
0
100
AcDbLine
 62
7
  6
CONTINUOUS
 10
14.625
 20
2.3984944873
 11
14.625
 21
1.6015055127
  0
LINE
  5
5AD
100
AcDbEntity
  8
0
100
AcDbLine
 62
7
  6
CONTINUOUS
 10
14.625
 20
0.3984944873
 11
14.625
 21
-0.3984944873
  0
LINE
  5
5AE
100
AcDbEntity
  8
ASSI
100
AcDbLine
 62
7
  6
CONTINUOUS
 10
14.75
 20
-22.3339198952
 11
14.75
 21
-23.7511422903
  0
LINE
  5
5AF
100
AcDbEntity
  8
ASSI
100
AcDbLine
 62
7
  6
CONTINUOUS
 10
14.75
 20
-23.7563493531
 11
14.75
 21
-23.7941821702
  0
LINE
  5
5B0
100
AcDbEntity
  8
RACCORDO
100
AcDbLine
 62
7
  6
CONTINUOUS
 10
14.75
 20
22.3339198952
 11
14.75
 21
23.7511422903
  0
LINE
  5
5B1
100
AcDbEntity
  8
ASSI
100
AcDbLine
 62
7
  6
CONTINUOUS
 10
14.75
 20
23.7563493531
 11
14.75
 21
23.7941821702
  0
LINE
  5
5B2
100
AcDbEntity
  8
ASSI
100
AcDbLine
 62
7
  6
CONTINUOUS
 10
14.75
 20
22.3339198952
 11
14.75
 21
23.7511422903
  0
LINE
  5
5B3
100
AcDbEntity
  8
0
100
AcDbLine
 62
250
  6
CONTINUOUS
 10
14.8009693293
 20
11.6015232037
 11
14.8009693293
 21
12.3984767963
  0
LINE
  5
5B4
100
AcDbEntity
  8
0
100
AcDbLine
 62
250
  6
CONTINUOUS
 10
14.8009693293
 20
13.6015232037
 11
14.8009693293
 21
14.3984767963
  0
LINE
  5
5B5
100
AcDbEntity
  8
0
100
AcDbLine
 62
7
  6
CONTINUOUS
 10
14.8666667461
 20
-9.7180339887
 11
14.8666667461
 21
-6.3137786582
  0
LINE
  5
5B6
100
AcDbEntity
  8
0
100
AcDbLine
 62
7
  6
CONTINUOUS
 10
14.9065
 20
-13.4
 11
14.9065
 21
-16.8060639482
  0
LINE
  5
5B7
100
AcDbEntity
  8
RACCORDO
100
AcDbLine
 62
7
  6
CONTINUOUS
 10
15.05
 20
14.3984517599
 11
15.05
 21
13.6015482401
  0
LINE
  5
5B8
100
AcDbEntity
  8
RACCORDO
100
AcDbLine
 62
7
  6
CONTINUOUS
 10
15.05
 20
12.3984517599
 11
15.05
 21
11.6015482401
  0
LINE
  5
5B9
100
AcDbEntity
  8
RACCORDO
100
AcDbLine
 62
7
  6
CONTINUOUS
 10
15.05
 20
10.3984517599
 11
15.05
 21
9.6015482401
  0
LINE
  5
5BA
100
AcDbEntity
  8
RACCORDO
100
AcDbLine
 62
7
  6
CONTINUOUS
 10
15.05
 20
8.3984517599
 11
15.05
 21
7.6015482401
  0
LINE
  5
5BB
100
AcDbEntity
  8
ASSI
100
AcDbLine
 62
7
  6
CONTINUOUS
 10
15.6059327327
 20
-22.3338981669
 11
15.6059327327
 21
-23.7507734247
  0
LINE
  5
5BC
100
AcDbEntity
  8
ASSI
100
AcDbLine
 62
7
  6
CONTINUOUS
 10
15.6059327327
 20
22.3338981669
 11
15.6059327327
 21
23.7507734247
  0
LINE
  5
5BD
100
AcDbEntity
  8
DRAFT
100
AcDbLine
 62
7
  6
CONTINUOUS
 10
15.65
 20
-23.8
 11
15.65
 21
-22.4
  0
LINE
  5
5BE
100
AcDbEntity
  8
ASSI
100
AcDbLine
 62
7
  6
CONTINUOUS
 10
15.65
 20
-23.8
 11
15.65
 21
-22.4
  0
LINE
  5
5BF
100
AcDbEntity
  8
DRAFT
100
AcDbLine
 62
7
  6
CONTINUOUS
 10
15.65
 20
22.4
 11
15.65
 21
23.8
  0
LINE
  5
5C0
100
AcDbEntity
  8
ASSI
100
AcDbLine
 62
7
  6
CONTINUOUS
 10
15.65
 20
22.4
 11
15.65
 21
23.8
  0
LINE
  5
5C1
100
AcDbEntity
  8
DRAFT
100
AcDbLine
 62
7
  6
CONTINUOUS
 10
3.1
 20
13.5825449351
 11
7.1
 21
13.5825449351
  0
LINE
  5
5C2
100
AcDbEntity
  8
DRAFT
100
AcDbLine
 62
7
  6
CONTINUOUS
 10
14.0
 20
13.5825449351
 11
18.0
 21
13.5825449351
  0
LINE
  5
5C3
100
AcDbEntity
  8
DRAFT
100
AcDbLine
 62
7
  6
CONTINUOUS
 10
3.1
 20
13.600346846
 11
7.1
 21
13.6007489863
  0
LINE
  5
5C4
100
AcDbEntity
  8
DRAFT
100
AcDbLine
 62
7
  6
CONTINUOUS
 10
14.0
 20
13.6014426782
 11
18.0
 21
13.6018448185
  0
LINE
  5
5C5
100
AcDbEntity
  8
DRAFT
100
AcDbLine
 62
250
  6
CONTINUOUS
 10
-20.8409655852
 20
14.15
 11
-20.8182458366
 21
14.15
  0
LINE
  5
5C6
100
AcDbEntity
  8
0
100
AcDbLine
 62
7
  6
CONTINUOUS
 10
3.65
 20
14.258
 11
5.55
 21
14.258
  0
LINE
  5
5C7
100
AcDbEntity
  8
DRAFT
100
AcDbLine
 62
7
  6
CONTINUOUS
 10
18.0
 20
14.4174550649
 11
14.0
 21
14.4174550649
  0
LINE
  5
5C8
100
AcDbEntity
  8
DRAFT
100
AcDbLine
 62
7
  6
CONTINUOUS
 10
7.1
 20
14.4174550649
 11
3.1
 21
14.4174550649
  0
LINE
  5
5C9
100
AcDbEntity
  8
0
100
AcDbLine
 62
7
  6
CONTINUOUS
 10
-1.8
 20
14.74
 11
-1.6
 21
14.74
  0
LINE
  5
5CA
100
AcDbEntity
  8
DRAFT
100
AcDbLine
 62
7
  6
CONTINUOUS
 10
18.0
 20
14.3981551815
 11
14.0
 21
14.3985573218
  0
LINE
  5
5CB
100
AcDbEntity
  8
DRAFT
100
AcDbLine
 62
7
  6
CONTINUOUS
 10
7.1
 20
14.3992510137
 11
3.1
 21
14.399653154
  0
LINE
  5
5CC
100
AcDbEntity
  8
RACCORDO
100
AcDbLine
 62
250
  6
CONTINUOUS
 10
15.95
 20
14.3983612784
 11
15.95
 21
13.6016387216
  0
LINE
  5
5CD
100
AcDbEntity
  8
RACCORDO
100
AcDbLine
 62
250
  6
CONTINUOUS
 10
15.95
 20
12.3983612784
 11
15.95
 21
11.6016387216
  0
LINE
  5
5CE
100
AcDbEntity
  8
RACCORDO
100
AcDbLine
 62
250
  6
CONTINUOUS
 10
15.95
 20
10.3983612784
 11
15.95
 21
9.6016387216
  0
LINE
  5
5CF
100
AcDbEntity
  8
RACCORDO
100
AcDbLine
 62
250
  6
CONTINUOUS
 10
15.95
 20
8.3983612784
 11
15.95
 21
7.6016387216
  0
LINE
  5
5D0
100
AcDbEntity
  8
0
100
AcDbLine
 62
7
  6
CONTINUOUS
 10
16.475
 20
3.9908130619
 11
16.475
 21
3.6016915025
  0
LINE
  5
5D1
100
AcDbEntity
  8
0
100
AcDbLine
 62
7
  6
CONTINUOUS
 10
16.475
 20
2.3983084975
 11
16.475
 21
1.6016915025
  0
LINE
  5
5D2
100
AcDbEntity
  8
0
100
AcDbLine
 62
7
  6
CONTINUOUS
 10
16.475
 20
0.3983084975
 11
16.475
 21
-0.3983084975
  0
LINE
  5
5D3
100
AcDbEntity
  8
0
100
AcDbLine
 62
7
  6
CONTINUOUS
 10
17.2
 20
-5.7180339887
 11
17.2
 21
-9.2073957518
  0
LINE
  5
5D4
100
AcDbEntity
  8
0
100
AcDbLine
 62
7
  6
CONTINUOUS
 10
17.2935
 20
-13.4008101943
 11
17.2935
 21
-16.7991898057
  0
LINE
  5
5D5
100
AcDbEntity
  8
0
100
AcDbLine
 62
7
  6
CONTINUOUS
 10
17.6
 20
-16.7983071393
 11
17.6
 21
-13.4016928607
  0
LINE
  5
5D6
100
AcDbEntity
  8
0
100
AcDbLine
 62
7
  6
CONTINUOUS
 10
17.7
 20
-9.7180339887
 11
17.7
 21
-5.7180339887
  0
LINE
  5
5D7
100
AcDbEntity
  8
DRAFT
100
AcDbLine
 62
250
  6
CONTINUOUS
 10
18.0
 20
14.4174550649
 11
18.0
 21
14.3981551815
  0
LINE
  5
5D8
100
AcDbEntity
  8
DRAFT
100
AcDbLine
 62
250
  6
CONTINUOUS
 10
18.0
 20
12.4174550649
 11
18.0
 21
12.3981551815
  0
LINE
  5
5D9
100
AcDbEntity
  8
DRAFT
100
AcDbLine
 62
250
  6
CONTINUOUS
 10
18.0
 20
10.4174550649
 11
18.0
 21
10.3981551815
  0
LINE
  5
5DA
100
AcDbEntity
  8
DRAFT
100
AcDbLine
 62
250
  6
CONTINUOUS
 10
18.0
 20
8.4174550649
 11
18.0
 21
8.3981551815
  0
LINE
  5
5DB
100
AcDbEntity
  8
DRAFT
100
AcDbLine
 62
250
  6
CONTINUOUS
 10
18.0
 20
6.4174550649
 11
18.0
 21
6.3981551815
  0
LINE
  5
5DC
100
AcDbEntity
  8
DRAFT
100
AcDbLine
 62
250
  6
CONTINUOUS
 10
18.0
 20
4.4174550649
 11
18.0
 21
4.3981551815
  0
LINE
  5
5DD
100
AcDbEntity
  8
DRAFT
100
AcDbLine
 62
250
  6
CONTINUOUS
 10
18.0
 20
2.4174550649
 11
18.0
 21
2.3981551815
  0
LINE
  5
5DE
100
AcDbEntity
  8
DRAFT
100
AcDbLine
 62
250
  6
CONTINUOUS
 10
18.0
 20
0.4174550649
 11
18.0
 21
0.3981551815
  0
LINE
  5
5DF
100
AcDbEntity
  8
DRAFT
100
AcDbLine
 62
250
  6
CONTINUOUS
 10
18.0
 20
-0.4174550649
 11
18.0
 21
-0.3981551815
  0
LINE
  5
5E0
100
AcDbEntity
  8
DRAFT
100
AcDbLine
 62
250
  6
CONTINUOUS
 10
18.0
 20
1.5825449351
 11
18.0
 21
1.6018448185
  0
LINE
  5
5E1
100
AcDbEntity
  8
DRAFT
100
AcDbLine
 62
250
  6
CONTINUOUS
 10
18.0
 20
3.5825449351
 11
18.0
 21
3.6018448185
  0
LINE
  5
5E2
100
AcDbEntity
  8
DRAFT
100
AcDbLine
 62
250
  6
CONTINUOUS
 10
18.0
 20
5.5825449351
 11
18.0
 21
5.6018448185
  0
LINE
  5
5E3
100
AcDbEntity
  8
DRAFT
100
AcDbLine
 62
250
  6
CONTINUOUS
 10
18.0
 20
7.5825449351
 11
18.0
 21
7.6018448185
  0
LINE
  5
5E4
100
AcDbEntity
  8
DRAFT
100
AcDbLine
 62
250
  6
CONTINUOUS
 10
18.0
 20
9.5825449351
 11
18.0
 21
9.6018448185
  0
LINE
  5
5E5
100
AcDbEntity
  8
DRAFT
100
AcDbLine
 62
250
  6
CONTINUOUS
 10
18.0
 20
11.5825449351
 11
18.0
 21
11.6018448185
  0
LINE
  5
5E6
100
AcDbEntity
  8
DRAFT
100
AcDbLine
 62
250
  6
CONTINUOUS
 10
18.0
 20
13.5825449351
 11
18.0
 21
13.6018448185
  0
LINE
  5
5E7
100
AcDbEntity
  8
RACCORDO
100
AcDbLine
 62
250
  6
CONTINUOUS
 10
12.2714219297
 20
-16.0597855471
 11
12.271301637
 21
-16.060122915
  0
LINE
  5
5E8
100
AcDbEntity
  8
RACCORDO
100
AcDbLine
 62
250
  6
CONTINUOUS
 10
8.8323815467
 20
-16.0349639266
 11
9.2954376779
 21
-15.563759681
  0
LINE
  5
5E9
100
AcDbEntity
  8
DRAFT
100
AcDbLine
 62
7
  6
CONTINUOUS
 10
18.5
 20
-3.9680339887
 11
18.4912724675
 21
-3.9767615212
  0
LINE
  5
5EA
100
AcDbEntity
  8
DRAFT
100
AcDbLine
 62
7
  6
CONTINUOUS
 10
13.5
 20
-11.4680339887
 11
13.5087275325
 21
-11.4593064563
  0
LINE
  5
5EB
100
AcDbEntity
  8
DRAFT
100
AcDbLine
 62
7
  6
CONTINUOUS
 10
-16.7
 20
17.15
 11
-19.85
 21
17.1431275916
  0
LINE
  5
5EC
100
AcDbEntity
  8
DRAFT
100
AcDbLine
 62
250
  6
CONTINUOUS
 10
-20.8409655852
 20
16.15
 11
-20.8182458366
 21
16.15
  0
LINE
  5
5ED
100
AcDbEntity
  8
ASSI
100
AcDbLine
 62
7
  6
CONTINUOUS
 10
-20.7
 20
16.242
 11
-20.8
 21
16.242
  0
LINE
  5
5EE
100
AcDbEntity
  8
0
100
AcDbLine
 62
7
  6
CONTINUOUS
 10
-1.933978318
 20
16.55
 11
-1.8401858905
 21
16.55
  0
LINE
  5
5EF
100
AcDbEntity
  8
DRAFT
100
AcDbLine
 62
7
  6
CONTINUOUS
 10
-2.8
 20
17.05
 11
-5.8
 21
17.05
  0
LINE
  5
5F0
100
AcDbEntity
  8
DRAFT
100
AcDbLine
 62
7
  6
CONTINUOUS
 10
-16.7
 20
17.05
 11
-19.7
 21
17.05
  0
LINE
  5
5F1
100
AcDbEntity
  8
ASSI
100
AcDbLine
 62
7
  6
CONTINUOUS
 10
-16.7
 20
17.65
 11
-13.4999428846
 21
17.65
  0
LINE
  5
5F2
100
AcDbEntity
  8
RACCORDO
100
AcDbLine
 62
7
  6
CONTINUOUS
 10
-2.6
 20
17.65
 11
-5.8
 21
17.65
  0
LINE
  5
5F3
100
AcDbEntity
  8
ASSI
100
AcDbLine
 62
7
  6
CONTINUOUS
 10
-5.8
 20
17.65
 11
-9.0000571154
 21
17.65
  0
LINE
  5
5F4
100
AcDbEntity
  8
ASSI
100
AcDbLine
 62
7
  6
CONTINUOUS
 10
-16.7
 20
17.6674537356
 11
-13.482489149
 21
17.6674537356
  0
LINE
  5
5F5
100
AcDbEntity
  8
ASSI
100
AcDbLine
 62
7
  6
CONTINUOUS
 10
-5.8
 20
17.6674537356
 11
-9.017510851
 21
17.6674537356
  0
LINE
  5
5F6
100
AcDbEntity
  8
RACCORDO
100
AcDbLine
 62
7
  6
CONTINUOUS
 10
-16.7
 20
17.675
 11
-19.9
 21
17.675
  0
LINE
  5
5F7
100
AcDbEntity
  8
DRAFT
100
AcDbLine
 62
7
  6
CONTINUOUS
 10
-5.8
 20
17.15
 11
-2.6
 21
17.1430185058
  0
LWPOLYLINE
  5
5F8
100
AcDbEntity
  8
0
100
AcDbPolyline
 62
7
  6
CONTINUOUS
 90
13
 70
0
 10
14.875237003
 20
8.1501768606
 10
14.8747785502
 20
8.152206581
 10
14.8731576487
 20
8.1601469401
 10
14.870847992
 20
8.173065336
 10
14.8682523408
 20
8.1894410134
 10
14.8654748146
 20
8.2089128207
 10
14.8624927112
 20
8.2318989339
 10
14.8593924796
 20
8.2579501387
 10
14.8561968593
 20
8.2869938869
 10
14.8529052968
 20
8.3191368906
 10
14.8495427795
 20
8.3542126157
 10
14.8461161567
 20
8.3921929122
 10
14.8455804357
 20
8.3984723113
  0
LINE
  5
5F9
100
AcDbEntity
  8
RACCORDO
100
AcDbLine
 62
250
  6
CONTINUOUS
 10
19.504371834
 20
-23.8443375673
 11
19.5
 21
-23.4104851482
  0
LINE
  5
5FA
100
AcDbEntity
  8
ASSI
100
AcDbLine
 62
250
  6
CONTINUOUS
 10
19.504371834
 20
-23.8443375673
 11
19.5
 21
-23.4104851482
  0
LINE
  5
5FB
100
AcDbEntity
  8
RACCORDO
100
AcDbLine
 62
250
  6
CONTINUOUS
 10
19.7543676032
 20
-23.6278312164
 11
19.7492770021
 21
-23.1226497308
  0
LINE
  5
5FC
100
AcDbEntity
  8
ASSI
100
AcDbLine
 62
250
  6
CONTINUOUS
 10
19.7543676032
 20
-23.6278312164
 11
19.7492770021
 21
-23.1226497308
  0
LINE
  5
5FD
100
AcDbEntity
  8
0
100
AcDbLine
 62
250
  6
CONTINUOUS
 10
18.05
 20
5.8408130619
 11
18.05
 21
5.6054323184
  0
LINE
  5
5FE
100
AcDbEntity
  8
0
100
AcDbLine
 62
250
  6
CONTINUOUS
 10
18.05
 20
4.394563715
 11
18.05
 21
3.9908130619
  0
LINE
  5
5FF
100
AcDbEntity
  8
0
100
AcDbLine
 62
7
  6
CONTINUOUS
 10
18.125
 20
3.9647322123
 11
18.125
 21
3.6018448185
  0
LINE
  5
600
100
AcDbEntity
  8
0
100
AcDbLine
 62
7
  6
CONTINUOUS
 10
18.125
 20
2.3981551815
 11
18.125
 21
1.6018448185
  0
LINE
  5
601
100
AcDbEntity
  8
0
100
AcDbLine
 62
7
  6
CONTINUOUS
 10
18.125
 20
0.3981551815
 11
18.125
 21
-0.3981551815
  0
LINE
  5
602
100
AcDbEntity
  8
DRAFT
100
AcDbLine
 62
7
  6
CONTINUOUS
 10
18.4912724675
 20
-11.4593064563
 11
18.4912724675
 21
-3.9767615212
  0
LINE
  5
603
100
AcDbEntity
  8
DRAFT
100
AcDbLine
 62
7
  6
CONTINUOUS
 10
18.5
 20
-11.4680339887
 11
18.5
 21
-3.9680339887
  0
LINE
  5
604
100
AcDbEntity
  8
DRAFT
100
AcDbLine
 62
250
  6
CONTINUOUS
 10
19.2
 20
-11.4680339887
 11
19.2
 21
-11.5029441186
  0
LINE
  5
605
100
AcDbEntity
  8
DRAFT
100
AcDbLine
 62
250
  6
CONTINUOUS
 10
19.2
 20
-12.85
 11
19.2
 21
-13.4063005809
  0
LINE
  5
606
100
AcDbEntity
  8
DRAFT
100
AcDbLine
 62
250
  6
CONTINUOUS
 10
19.2
 20
-16.7936994191
 11
19.2
 21
-17.35
  0
LINE
  5
607
100
AcDbEntity
  8
DRAFT
100
AcDbLine
 62
250
  6
CONTINUOUS
 10
19.2
 20
-17.85
 11
19.2
 21
-17.8849101299
  0
LINE
  5
608
100
AcDbEntity
  8
DRAFT
100
AcDbLine
 62
250
  6
CONTINUOUS
 10
19.2
 20
-18.7319660113
 11
19.2
 21
-18.6970558814
  0
LINE
  5
609
100
AcDbEntity
  8
DRAFT
100
AcDbLine
 62
250
  6
CONTINUOUS
 10
19.2
 20
-12.35
 11
19.2
 21
-12.3150898701
  0
LINE
  5
60A
100
AcDbEntity
  8
RACCORDO
100
AcDbLine
 62
250
  6
CONTINUOUS
 10
19.3567161511
 20
-21.5432838489
 11
19.3567161511
 21
-21.3932838489
  0
LINE
  5
60B
100
AcDbEntity
  8
ASSI
100
AcDbLine
 62
250
  6
CONTINUOUS
 10
19.3567161511
 20
-21.5432838489
 11
19.3567161511
 21
-21.3932838489
  0
LINE
  5
60C
100
AcDbEntity
  8
RACCORDO
100
AcDbLine
 62
250
  6
CONTINUOUS
 10
19.3567161511
 20
21.3932838489
 11
19.3567161511
 21
21.5432838489
  0
LINE
  5
60D
100
AcDbEntity
  8
ASSI
100
AcDbLine
 62
250
  6
CONTINUOUS
 10
19.3567161511
 20
21.3932838489
 11
19.3567161511
 21
21.5432838489
  0
LINE
  5
60E
100
AcDbEntity
  8
RACCORDO
100
AcDbLine
 62
7
  6
CONTINUOUS
 10
19.5
 20
-22.4
 11
19.5
 21
-23.8443375673
  0
LINE
  5
60F
100
AcDbEntity
  8
ASSI
100
AcDbLine
 62
7
  6
CONTINUOUS
 10
19.5
 20
-22.4
 11
19.5
 21
-23.8443375673
  0
LINE
  5
610
100
AcDbEntity
  8
RACCORDO
100
AcDbLine
 62
7
  6
CONTINUOUS
 10
19.5
 20
22.4
 11
19.5
 21
23.4104851482
  0
LINE
  5
611
100
AcDbEntity
  8
ASSI
100
AcDbLine
 62
7
  6
CONTINUOUS
 10
19.5
 20
22.4
 11
19.5
 21
23.4104851482
  0
LINE
  5
612
100
AcDbEntity
  8
RACCORDO
100
AcDbLine
 62
250
  6
CONTINUOUS
 10
19.504371834
 20
24.2456323968
 11
19.504371834
 21
23.8443375673
  0
LINE
  5
613
100
AcDbEntity
  8
ASSI
100
AcDbLine
 62
7
  6
CONTINUOUS
 10
19.504371834
 20
24.2456323968
 11
19.504371834
 21
23.8443375673
  0
LINE
  5
614
100
AcDbEntity
  8
RACCORDO
100
AcDbLine
 62
250
  6
CONTINUOUS
 10
19.504371834
 20
-23.8443375673
 11
19.504371834
 21
-24.2456323968
  0
LINE
  5
615
100
AcDbEntity
  8
ASSI
100
AcDbLine
 62
7
  6
CONTINUOUS
 10
19.504371834
 20
-23.8443375673
 11
19.504371834
 21
-24.2456323968
  0
LINE
  5
616
100
AcDbEntity
  8
DRAFT
100
AcDbLine
 62
7
  6
CONTINUOUS
 10
19.5226915844
 20
21.3773084156
 11
19.5226915844
 21
21.2273084156
  0
LINE
  5
617
100
AcDbEntity
  8
ASSI
100
AcDbLine
 62
7
  6
CONTINUOUS
 10
19.5226915844
 20
21.3773084156
 11
19.5226915844
 21
21.2273084156
  0
LINE
  5
618
100
AcDbEntity
  8
DRAFT
100
AcDbLine
 62
7
  6
CONTINUOUS
 10
19.5226915844
 20
-21.2273084156
 11
19.5226915844
 21
-21.3773084156
  0
LINE
  5
619
100
AcDbEntity
  8
ASSI
100
AcDbLine
 62
7
  6
CONTINUOUS
 10
19.5226915844
 20
-21.2273084156
 11
19.5226915844
 21
-21.3773084156
  0
LINE
  5
61A
100
AcDbEntity
  8
RACCORDO
100
AcDbLine
 62
250
  6
CONTINUOUS
 10
19.7543676032
 20
-23.6278312164
 11
19.7543676032
 21
-24.495628166
  0
LINE
  5
61B
100
AcDbEntity
  8
ASSI
100
AcDbLine
 62
250
  6
CONTINUOUS
 10
19.7543676032
 20
-23.6278312164
 11
19.7543676032
 21
-24.495628166
  0
LINE
  5
61C
100
AcDbEntity
  8
RACCORDO
100
AcDbLine
 62
250
  6
CONTINUOUS
 10
19.7543676032
 20
23.6278312164
 11
19.7543676032
 21
24.495628166
  0
LINE
  5
61D
100
AcDbEntity
  8
ASSI
100
AcDbLine
 62
250
  6
CONTINUOUS
 10
19.7543676032
 20
23.6278312164
 11
19.7543676032
 21
24.495628166
  0
LINE
  5
61E
100
AcDbEntity
  8
RACCORDO
100
AcDbLine
 62
7
  6
CONTINUOUS
 10
20.2
 20
-13.9680339887
 11
20.2
 21
-16.2319660113
  0
LINE
  5
61F
100
AcDbEntity
  8
RACCORDO
100
AcDbLine
 62
250
  6
CONTINUOUS
 10
19.5
 20
23.4104851482
 11
19.504371834
 21
23.8443375673
  0
LINE
  5
620
100
AcDbEntity
  8
ASSI
100
AcDbLine
 62
250
  6
CONTINUOUS
 10
19.5
 20
23.4104851482
 11
19.504371834
 21
23.8443375673
  0
LINE
  5
621
100
AcDbEntity
  8
RACCORDO
100
AcDbLine
 62
250
  6
CONTINUOUS
 10
19.7492770021
 20
23.1226497308
 11
19.7543676032
 21
23.6278312164
  0
LINE
  5
622
100
AcDbEntity
  8
ASSI
100
AcDbLine
 62
250
  6
CONTINUOUS
 10
19.7492770021
 20
23.1226497308
 11
19.7543676032
 21
23.6278312164
  0
LINE
  5
623
100
AcDbEntity
  8
DRAFT
100
AcDbLine
 62
7
  6
CONTINUOUS
 10
6.85
 20
-22.4
 11
6.8940672673
 21
-22.3338981669
  0
LINE
  5
624
100
AcDbEntity
  8
ASSI
100
AcDbLine
 62
7
  6
CONTINUOUS
 10
6.85
 20
-22.4
 11
6.8940672673
 21
-22.3338981669
  0
LINE
  5
625
100
AcDbEntity
  8
RACCORDO
100
AcDbLine
 62
250
  6
CONTINUOUS
 10
12.2714219297
 20
-14.140219623
 11
11.8007427036
 21
-14.6191811131
  0
LINE
  5
626
100
AcDbEntity
  8
DRAFT
100
AcDbLine
 62
7
  6
CONTINUOUS
 10
-22.1
 20
19.4811503675
 11
-21.7175145008
 21
19.4824854992
  0
LINE
  5
627
100
AcDbEntity
  8
ASSI
100
AcDbLine
 62
7
  6
CONTINUOUS
 10
-16.7
 20
18.6325462644
 11
-5.8
 21
18.6325462644
  0
LINE
  5
628
100
AcDbEntity
  8
RACCORDO
100
AcDbLine
 62
7
  6
CONTINUOUS
 10
-5.8
 20
18.65
 11
-2.85
 21
18.65
  0
LINE
  5
629
100
AcDbEntity
  8
ASSI
100
AcDbLine
 62
7
  6
CONTINUOUS
 10
-5.8
 20
18.65
 11
-16.7
 21
18.65
  0
LINE
  5
62A
100
AcDbEntity
  8
RACCORDO
100
AcDbLine
 62
7
  6
CONTINUOUS
 10
-19.6
 20
18.67
 11
-16.7
 21
18.67
  0
LINE
  5
62B
100
AcDbEntity
  8
DRAFT
100
AcDbLine
 62
7
  6
CONTINUOUS
 10
20.9
 20
20.0
 11
21.05
 21
20.0
  0
LINE
  5
62C
100
AcDbEntity
  8
ASSI
100
AcDbLine
 62
7
  6
CONTINUOUS
 10
20.9
 20
20.0
 11
21.05
 21
20.0
  0
LINE
  5
62D
100
AcDbEntity
  8
DRAFT
100
AcDbLine
 62
7
  6
CONTINUOUS
 10
6.85
 20
22.4
 11
6.8940672673
 21
22.3338981669
  0
LINE
  5
62E
100
AcDbEntity
  8
ASSI
100
AcDbLine
 62
7
  6
CONTINUOUS
 10
6.85
 20
22.4
 11
6.8940672673
 21
22.3338981669
  0
LINE
  5
62F
100
AcDbEntity
  8
RACCORDO
100
AcDbLine
 62
250
  6
CONTINUOUS
 10
21.6456323968
 20
23.6278312164
 11
21.6507229979
 21
23.1226497308
  0
LINE
  5
630
100
AcDbEntity
  8
ASSI
100
AcDbLine
 62
250
  6
CONTINUOUS
 10
21.6456323968
 20
23.6278312164
 11
21.6507229979
 21
23.1226497308
  0
LINE
  5
631
100
AcDbEntity
  8
RACCORDO
100
AcDbLine
 62
250
  6
CONTINUOUS
 10
21.895628166
 20
23.8443375673
 11
21.9
 21
23.4104851482
  0
LINE
  5
632
100
AcDbEntity
  8
ASSI
100
AcDbLine
 62
250
  6
CONTINUOUS
 10
21.895628166
 20
23.8443375673
 11
21.9
 21
23.4104851482
  0
LINE
  5
633
100
AcDbEntity
  8
DRAFT
100
AcDbLine
 62
7
  6
CONTINUOUS
 10
20.7
 20
-13.9680339887
 11
20.7
 21
-16.2319660113
  0
LINE
  5
634
100
AcDbEntity
  8
DRAFT
100
AcDbLine
 62
7
  6
CONTINUOUS
 10
20.7349101299
 20
-13.9680339887
 11
20.7349101299
 21
-16.2319660113
  0
LINE
  5
635
100
AcDbEntity
  8
SMUSSO
100
AcDbLine
 62
7
  6
CONTINUOUS
 10
20.9
 20
-20.1489710538
 11
20.9
 21
-20.0
  0
LINE
  5
636
100
AcDbEntity
  8
ASSI
100
AcDbLine
 62
7
  6
CONTINUOUS
 10
20.9
 20
-20.1489710538
 11
20.9
 21
-20.0
  0
LINE
  5
637
100
AcDbEntity
  8
SMUSSO
100
AcDbLine
 62
7
  6
CONTINUOUS
 10
20.9
 20
20.0
 11
20.9
 21
20.1489710538
  0
LINE
  5
638
100
AcDbEntity
  8
ASSI
100
AcDbLine
 62
7
  6
CONTINUOUS
 10
20.9
 20
20.0
 11
20.9
 21
20.1489710538
  0
LINE
  5
639
100
AcDbEntity
  8
RACCORDO
100
AcDbLine
 62
7
  6
CONTINUOUS
 10
20.9226915844
 20
20.0
 11
20.9226915844
 21
19.8273084156
  0
LINE
  5
63A
100
AcDbEntity
  8
ASSI
100
AcDbLine
 62
7
  6
CONTINUOUS
 10
20.9226915844
 20
20.0
 11
20.9226915844
 21
19.8273084156
  0
LINE
  5
63B
100
AcDbEntity
  8
RACCORDO
100
AcDbLine
 62
7
  6
CONTINUOUS
 10
20.9226915844
 20
-19.8273084156
 11
20.9226915844
 21
-20.0
  0
LINE
  5
63C
100
AcDbEntity
  8
ASSI
100
AcDbLine
 62
7
  6
CONTINUOUS
 10
20.9226915844
 20
-19.8273084156
 11
20.9226915844
 21
-20.0
  0
LINE
  5
63D
100
AcDbEntity
  8
DRAFT
100
AcDbLine
 62
7
  6
CONTINUOUS
 10
21.45
 20
-19.3
 11
21.45
 21
19.3
  0
LINE
  5
63E
100
AcDbEntity
  8
RACCORDO
100
AcDbLine
 62
250
  6
CONTINUOUS
 10
21.6456323968
 20
-23.6278312164
 11
21.6456323968
 21
-24.495628166
  0
LINE
  5
63F
100
AcDbEntity
  8
ASSI
100
AcDbLine
 62
250
  6
CONTINUOUS
 10
21.6456323968
 20
-23.6278312164
 11
21.6456323968
 21
-24.495628166
  0
LINE
  5
640
100
AcDbEntity
  8
RACCORDO
100
AcDbLine
 62
250
  6
CONTINUOUS
 10
21.6456323968
 20
23.6278312164
 11
21.6456323968
 21
24.495628166
  0
LINE
  5
641
100
AcDbEntity
  8
ASSI
100
AcDbLine
 62
250
  6
CONTINUOUS
 10
21.6456323968
 20
23.6278312164
 11
21.6456323968
 21
24.495628166
  0
LINE
  5
642
100
AcDbEntity
  8
RACCORDO
100
AcDbLine
 62
250
  6
CONTINUOUS
 10
21.895628166
 20
-24.2456323968
 11
21.895628166
 21
-23.8443375673
  0
LINE
  5
643
100
AcDbEntity
  8
ASSI
100
AcDbLine
 62
7
  6
CONTINUOUS
 10
21.895628166
 20
-24.2456323968
 11
21.895628166
 21
-23.8443375673
  0
LINE
  5
644
100
AcDbEntity
  8
RACCORDO
100
AcDbLine
 62
250
  6
CONTINUOUS
 10
21.895628166
 20
23.8443375673
 11
21.895628166
 21
24.2456323968
  0
LINE
  5
645
100
AcDbEntity
  8
ASSI
100
AcDbLine
 62
7
  6
CONTINUOUS
 10
21.895628166
 20
23.8443375673
 11
21.895628166
 21
24.2456323968
  0
LINE
  5
646
100
AcDbEntity
  8
RACCORDO
100
AcDbLine
 62
7
  6
CONTINUOUS
 10
21.9
 20
-22.4
 11
21.9
 21
-23.4104851482
  0
LINE
  5
647
100
AcDbEntity
  8
ASSI
100
AcDbLine
 62
7
  6
CONTINUOUS
 10
21.9
 20
-22.4
 11
21.9
 21
-23.4104851482
  0
LINE
  5
648
100
AcDbEntity
  8
RACCORDO
100
AcDbLine
 62
7
  6
CONTINUOUS
 10
21.9
 20
22.4
 11
21.9
 21
23.8443375673
  0
LINE
  5
649
100
AcDbEntity
  8
ASSI
100
AcDbLine
 62
7
  6
CONTINUOUS
 10
21.9
 20
22.4
 11
21.9
 21
23.8443375673
  0
LINE
  5
64A
100
AcDbEntity
  8
RACCORDO
100
AcDbLine
 62
7
  6
CONTINUOUS
 10
22.4
 20
-21.9411874598
 11
22.4
 21
-18.65
  0
LINE
  5
64B
100
AcDbEntity
  8
ASSI
100
AcDbLine
 62
7
  6
CONTINUOUS
 10
22.4
 20
-21.9411874598
 11
22.4
 21
-18.65
  0
LINE
  5
64C
100
AcDbEntity
  8
RACCORDO
100
AcDbLine
 62
7
  6
CONTINUOUS
 10
22.4
 20
18.65
 11
22.4
 21
21.9411874598
  0
LINE
  5
64D
100
AcDbEntity
  8
ASSI
100
AcDbLine
 62
7
  6
CONTINUOUS
 10
22.4
 20
18.65
 11
22.4
 21
21.9411874598
  0
LINE
  5
64E
100
AcDbEntity
  8
DRAFT
100
AcDbLine
 62
7
  6
CONTINUOUS
 10
22.4226915844
 20
18.6273084156
 11
22.4226915844
 21
-18.6273084156
  0
LINE
  5
64F
100
AcDbEntity
  8
ASSI
100
AcDbLine
 62
7
  6
CONTINUOUS
 10
22.4226915844
 20
18.6273084156
 11
22.4226915844
 21
-18.6273084156
  0
LINE
  5
650
100
AcDbEntity
  8
RACCORDO
100
AcDbLine
 62
250
  6
CONTINUOUS
 10
21.6507229979
 20
-23.1226497308
 11
21.6456323968
 21
-23.6278312164
  0
LINE
  5
651
100
AcDbEntity
  8
ASSI
100
AcDbLine
 62
250
  6
CONTINUOUS
 10
21.6507229979
 20
-23.1226497308
 11
21.6456323968
 21
-23.6278312164
  0
LINE
  5
652
100
AcDbEntity
  8
RACCORDO
100
AcDbLine
 62
250
  6
CONTINUOUS
 10
21.9
 20
-23.4104851482
 11
21.895628166
 21
-23.8443375673
  0
LINE
  5
653
100
AcDbEntity
  8
ASSI
100
AcDbLine
 62
250
  6
CONTINUOUS
 10
21.9
 20
-23.4104851482
 11
21.895628166
 21
-23.8443375673
  0
LINE
  5
654
100
AcDbEntity
  8
0
100
AcDbLine
 62
7
  6
CONTINUOUS
 10
16.6
 20
-13.4
 11
16.1
 21
-13.9
  0
LINE
  5
655
100
AcDbEntity
  8
ASSI
100
AcDbLine
 62
7
  6
CONTINUOUS
 10
6.85
 20
-23.8
 11
6.8936506469
 21
-23.7563493531
  0
LINE
  5
656
100
AcDbEntity
  8
RACCORDO
100
AcDbLine
 62
250
  6
CONTINUOUS
 10
-16.7
 20
20.6000380769
 11
-20.6342960041
 21
20.5657039959
  0
LINE
  5
657
100
AcDbEntity
  8
RACCORDO
100
AcDbLine
 62
7
  6
CONTINUOUS
 10
-16.7
 20
21.6
 11
-19.6255307198
 21
21.5744692802
  0
LINE
  5
658
100
AcDbEntity
  8
0
100
AcDbLine
 62
7
  6
CONTINUOUS
 10
-16.7
 20
21.7024385705
 11
-18.999912423
 21
21.6823675389
  0
LINE
  5
659
100
AcDbEntity
  8
ASSI
100
AcDbLine
 62
250
  6
CONTINUOUS
 10
-16.7
 20
20.7586887894
 11
-5.8
 21
20.7586887894
  0
LINE
  5
65A
100
AcDbEntity
  8
DRAFT
100
AcDbLine
 62
7
  6
CONTINUOUS
 10
20.1498860669
 20
20.9
 11
19.85
 21
20.9
  0
LINE
  5
65B
100
AcDbEntity
  8
ASSI
100
AcDbLine
 62
7
  6
CONTINUOUS
 10
20.1498860669
 20
20.9
 11
19.85
 21
20.9
  0
LINE
  5
65C
100
AcDbEntity
  8
ASSI
100
AcDbLine
 62
7
  6
CONTINUOUS
 10
-5.8
 20
21.7587268678
 11
-16.7
 21
21.7587268678
  0
LINE
  5
65D
100
AcDbEntity
  8
0
100
AcDbLine
 62
7
  6
CONTINUOUS
 10
18.95
 20
21.8
 11
-2.35
 21
21.8
  0
LINE
  5
65E
100
AcDbEntity
  8
RACCORDO
100
AcDbLine
 62
250
  6
CONTINUOUS
 10
18.5873448332
 20
22.3126551668
 11
14.25
 21
22.3126551668
  0
LINE
  5
65F
100
AcDbEntity
  8
ASSI
100
AcDbLine
 62
250
  6
CONTINUOUS
 10
18.5873448332
 20
22.3126551668
 11
14.25
 21
22.3126551668
  0
LINE
  5
660
100
AcDbEntity
  8
RACCORDO
100
AcDbLine
 62
250
  6
CONTINUOUS
 10
8.25
 20
22.3126551668
 11
3.9126551668
 21
22.3126551668
  0
LINE
  5
661
100
AcDbEntity
  8
ASSI
100
AcDbLine
 62
250
  6
CONTINUOUS
 10
8.25
 20
22.3126551668
 11
3.9126551668
 21
22.3126551668
  0
LINE
  5
662
100
AcDbEntity
  8
RACCORDO
100
AcDbLine
 62
250
  6
CONTINUOUS
 10
-3.9126551668
 20
22.3126551668
 11
-8.25
 21
22.3126551668
  0
LINE
  5
663
100
AcDbEntity
  8
ASSI
100
AcDbLine
 62
250
  6
CONTINUOUS
 10
-3.9126551668
 20
22.3126551668
 11
-8.25
 21
22.3126551668
  0
LINE
  5
664
100
AcDbEntity
  8
RACCORDO
100
AcDbLine
 62
250
  6
CONTINUOUS
 10
-14.25
 20
22.3126551668
 11
-18.5873448332
 21
22.3126551668
  0
LINE
  5
665
100
AcDbEntity
  8
ASSI
100
AcDbLine
 62
250
  6
CONTINUOUS
 10
-14.25
 20
22.3126551668
 11
-18.5873448332
 21
22.3126551668
  0
LINE
  5
666
100
AcDbEntity
  8
DRAFT
100
AcDbLine
 62
7
  6
CONTINUOUS
 10
-3.9799282041
 20
22.3799282041
 11
3.9799282041
 21
22.3799282041
  0
LINE
  5
667
100
AcDbEntity
  8
ASSI
100
AcDbLine
 62
7
  6
CONTINUOUS
 10
-3.9799282041
 20
22.3799282041
 11
3.9799282041
 21
22.3799282041
  0
LINE
  5
668
100
AcDbEntity
  8
RACCORDO
100
AcDbLine
 62
7
  6
CONTINUOUS
 10
21.9498629074
 20
22.3912731322
 11
18.5087268678
 21
22.3912731322
  0
LINE
  5
669
100
AcDbEntity
  8
ASSI
100
AcDbLine
 62
7
  6
CONTINUOUS
 10
21.9498629074
 20
22.3912731322
 11
18.5087268678
 21
22.3912731322
  0
LINE
  5
66A
100
AcDbEntity
  8
DRAFT
100
AcDbLine
 62
7
  6
CONTINUOUS
 10
14.75
 20
22.3912731322
 11
14.25
 21
22.3912731322
  0
LINE
  5
66B
100
AcDbEntity
  8
ASSI
100
AcDbLine
 62
7
  6
CONTINUOUS
 10
14.75
 20
22.3912731322
 11
14.25
 21
22.3912731322
  0
LINE
  5
66C
100
AcDbEntity
  8
DRAFT
100
AcDbLine
 62
7
  6
CONTINUOUS
 10
8.25
 20
22.3912731322
 11
7.75
 21
22.3912731322
  0
LINE
  5
66D
100
AcDbEntity
  8
ASSI
100
AcDbLine
 62
7
  6
CONTINUOUS
 10
8.25
 20
22.3912731322
 11
7.75
 21
22.3912731322
  0
LINE
  5
66E
100
AcDbEntity
  8
DRAFT
100
AcDbLine
 62
7
  6
CONTINUOUS
 10
-7.75
 20
22.3912731322
 11
-8.25
 21
22.3912731322
  0
LINE
  5
66F
100
AcDbEntity
  8
ASSI
100
AcDbLine
 62
7
  6
CONTINUOUS
 10
-7.75
 20
22.3912731322
 11
-8.25
 21
22.3912731322
  0
LINE
  5
670
100
AcDbEntity
  8
DRAFT
100
AcDbLine
 62
7
  6
CONTINUOUS
 10
-14.25
 20
22.3912731322
 11
-14.75
 21
22.3912731322
  0
LINE
  5
671
100
AcDbEntity
  8
ASSI
100
AcDbLine
 62
7
  6
CONTINUOUS
 10
-14.25
 20
22.3912731322
 11
-14.75
 21
22.3912731322
  0
LINE
  5
672
100
AcDbEntity
  8
RACCORDO
100
AcDbLine
 62
7
  6
CONTINUOUS
 10
-18.5087268678
 20
22.3912731322
 11
-21.9498629074
 21
22.3912731322
  0
LINE
  5
673
100
AcDbEntity
  8
ASSI
100
AcDbLine
 62
7
  6
CONTINUOUS
 10
-18.5087268678
 20
22.3912731322
 11
-21.9498629074
 21
22.3912731322
  0
LINE
  5
674
100
AcDbEntity
  8
RACCORDO
100
AcDbLine
 62
7
  6
CONTINUOUS
 10
21.9328906037
 20
22.4
 11
21.9
 21
22.4
  0
LINE
  5
675
100
AcDbEntity
  8
DRAFT
100
AcDbLine
 62
7
  6
CONTINUOUS
 10
6.85
 20
22.4
 11
-6.85
 21
22.4
  0
LINE
  5
676
100
AcDbEntity
  8
ASSI
100
AcDbLine
 62
7
  6
CONTINUOUS
 10
6.85
 20
22.4
 11
-6.85
 21
22.4
  0
LINE
  5
677
100
AcDbEntity
  8
DRAFT
100
AcDbLine
 62
7
  6
CONTINUOUS
 10
-15.65
 20
22.4
 11
-21.9
 21
22.4
  0
LINE
  5
678
100
AcDbEntity
  8
DRAFT
100
AcDbLine
 62
7
  6
CONTINUOUS
 10
15.65
 20
22.4
 11
21.9
 21
22.4
  0
LINE
  5
679
100
AcDbEntity
  8
ASSI
100
AcDbLine
 62
7
  6
CONTINUOUS
 10
15.65
 20
22.4
 11
21.9328906037
 21
22.4
  0
LINE
  5
67A
100
AcDbEntity
  8
RACCORDO
100
AcDbLine
 62
7
  6
CONTINUOUS
 10
-21.9
 20
22.4
 11
-21.9328874748
 21
22.4
  0
LINE
  5
67B
100
AcDbEntity
  8
ASSI
100
AcDbLine
 62
7
  6
CONTINUOUS
 10
-15.65
 20
22.4
 11
-21.9328874748
 21
22.4
  0
LINE
  5
67C
100
AcDbEntity
  8
RACCORDO
100
AcDbLine
 62
250
  6
CONTINUOUS
 10
-5.8
 20
20.6500380769
 11
-1.815263811
 21
20.615263811
  0
LINE
  5
67D
100
AcDbEntity
  8
RACCORDO
100
AcDbLine
 62
7
  6
CONTINUOUS
 10
-5.8
 20
21.65
 11
-2.8240290954
 21
21.6240290954
  0
LINE
  5
67E
100
AcDbEntity
  8
ASSI
100
AcDbLine
 62
7
  6
CONTINUOUS
 10
-5.8
 20
21.7024385705
 11
-3.500087577
 21
21.6823675389
  0
LINE
  5
67F
100
AcDbEntity
  8
ASSI
100
AcDbLine
 62
7
  6
CONTINUOUS
 10
6.85
 20
23.8
 11
6.8936506469
 21
23.7563493531
  0
LINE
  5
680
100
AcDbEntity
  8
RACCORDO
100
AcDbLine
 62
7
  6
CONTINUOUS
 10
-21.6507229979
 20
23.1226497308
 11
-19.7492770021
 21
23.1226497308
  0
LINE
  5
681
100
AcDbEntity
  8
ASSI
100
AcDbLine
 62
7
  6
CONTINUOUS
 10
-21.6507229979
 20
23.1226497308
 11
-19.7492770021
 21
23.1226497308
  0
LINE
  5
682
100
AcDbEntity
  8
RACCORDO
100
AcDbLine
 62
7
  6
CONTINUOUS
 10
-2.7507229979
 20
23.1226497308
 11
-0.8492770021
 21
23.1226497308
  0
LINE
  5
683
100
AcDbEntity
  8
ASSI
100
AcDbLine
 62
7
  6
CONTINUOUS
 10
-2.7507229979
 20
23.1226497308
 11
-0.8492770021
 21
23.1226497308
  0
LINE
  5
684
100
AcDbEntity
  8
RACCORDO
100
AcDbLine
 62
7
  6
CONTINUOUS
 10
0.8492770021
 20
23.1226497308
 11
2.7507229979
 21
23.1226497308
  0
LINE
  5
685
100
AcDbEntity
  8
ASSI
100
AcDbLine
 62
7
  6
CONTINUOUS
 10
0.8492770021
 20
23.1226497308
 11
2.7507229979
 21
23.1226497308
  0
LINE
  5
686
100
AcDbEntity
  8
RACCORDO
100
AcDbLine
 62
7
  6
CONTINUOUS
 10
19.7492770021
 20
23.1226497308
 11
21.6507229979
 21
23.1226497308
  0
LINE
  5
687
100
AcDbEntity
  8
ASSI
100
AcDbLine
 62
7
  6
CONTINUOUS
 10
19.7492770021
 20
23.1226497308
 11
21.6507229979
 21
23.1226497308
  0
LINE
  5
688
100
AcDbEntity
  8
RACCORDO
100
AcDbLine
 62
250
  6
CONTINUOUS
 10
-21.6456323968
 20
23.6278312164
 11
-19.7543676032
 21
23.6278312164
  0
LINE
  5
689
100
AcDbEntity
  8
ASSI
100
AcDbLine
 62
250
  6
CONTINUOUS
 10
-21.6456323968
 20
23.6278312164
 11
-19.7543676032
 21
23.6278312164
  0
LINE
  5
68A
100
AcDbEntity
  8
RACCORDO
100
AcDbLine
 62
250
  6
CONTINUOUS
 10
-2.7456323968
 20
23.6278312164
 11
-0.8543676032
 21
23.6278312164
  0
LINE
  5
68B
100
AcDbEntity
  8
ASSI
100
AcDbLine
 62
250
  6
CONTINUOUS
 10
-2.7456323968
 20
23.6278312164
 11
-0.8543676032
 21
23.6278312164
  0
LINE
  5
68C
100
AcDbEntity
  8
RACCORDO
100
AcDbLine
 62
250
  6
CONTINUOUS
 10
0.8543676032
 20
23.6278312164
 11
2.7456323968
 21
23.6278312164
  0
LINE
  5
68D
100
AcDbEntity
  8
ASSI
100
AcDbLine
 62
250
  6
CONTINUOUS
 10
0.8543676032
 20
23.6278312164
 11
2.7456323968
 21
23.6278312164
  0
LINE
  5
68E
100
AcDbEntity
  8
RACCORDO
100
AcDbLine
 62
250
  6
CONTINUOUS
 10
19.7543676032
 20
23.6278312164
 11
21.6456323968
 21
23.6278312164
  0
LINE
  5
68F
100
AcDbEntity
  8
ASSI
100
AcDbLine
 62
250
  6
CONTINUOUS
 10
19.7543676032
 20
23.6278312164
 11
21.6456323968
 21
23.6278312164
  0
LINE
  5
690
100
AcDbEntity
  8
ASSI
100
AcDbLine
 62
7
  6
CONTINUOUS
 10
15.6063493531
 20
23.7563493531
 11
14.75
 21
23.7563493531
  0
LINE
  5
691
100
AcDbEntity
  8
ASSI
100
AcDbLine
 62
7
  6
CONTINUOUS
 10
7.75
 20
23.7563493531
 11
6.8936506469
 21
23.7563493531
  0
LINE
  5
692
100
AcDbEntity
  8
ASSI
100
AcDbLine
 62
7
  6
CONTINUOUS
 10
-6.8936506469
 20
23.7563493531
 11
-7.75
 21
23.7563493531
  0
LINE
  5
693
100
AcDbEntity
  8
ASSI
100
AcDbLine
 62
7
  6
CONTINUOUS
 10
-14.75
 20
23.7563493531
 11
-15.6063493531
 21
23.7563493531
  0
LINE
  5
694
100
AcDbEntity
  8
DRAFT
100
AcDbLine
 62
7
  6
CONTINUOUS
 10
14.75
 20
23.7941821702
 11
7.75
 21
23.7941821702
  0
LINE
  5
695
100
AcDbEntity
  8
ASSI
100
AcDbLine
 62
7
  6
CONTINUOUS
 10
14.75
 20
23.7941821702
 11
7.75
 21
23.7941821702
  0
LINE
  5
696
100
AcDbEntity
  8
DRAFT
100
AcDbLine
 62
7
  6
CONTINUOUS
 10
-7.75
 20
23.7941821702
 11
-14.75
 21
23.7941821702
  0
LINE
  5
697
100
AcDbEntity
  8
ASSI
100
AcDbLine
 62
7
  6
CONTINUOUS
 10
-7.75
 20
23.7941821702
 11
-14.75
 21
23.7941821702
  0
LINE
  5
698
100
AcDbEntity
  8
DRAFT
100
AcDbLine
 62
7
  6
CONTINUOUS
 10
15.65
 20
23.8
 11
14.75
 21
23.8
  0
LINE
  5
699
100
AcDbEntity
  8
ASSI
100
AcDbLine
 62
7
  6
CONTINUOUS
 10
15.65
 20
23.8
 11
14.75
 21
23.8
  0
LINE
  5
69A
100
AcDbEntity
  8
DRAFT
100
AcDbLine
 62
7
  6
CONTINUOUS
 10
7.75
 20
23.8
 11
6.85
 21
23.8
  0
LINE
  5
69B
100
AcDbEntity
  8
ASSI
100
AcDbLine
 62
7
  6
CONTINUOUS
 10
7.75
 20
23.8
 11
6.85
 21
23.8
  0
LINE
  5
69C
100
AcDbEntity
  8
DRAFT
100
AcDbLine
 62
7
  6
CONTINUOUS
 10
-6.85
 20
23.8
 11
-7.75
 21
23.8
  0
LINE
  5
69D
100
AcDbEntity
  8
ASSI
100
AcDbLine
 62
7
  6
CONTINUOUS
 10
-6.85
 20
23.8
 11
-7.75
 21
23.8
  0
LINE
  5
69E
100
AcDbEntity
  8
DRAFT
100
AcDbLine
 62
7
  6
CONTINUOUS
 10
-14.75
 20
23.8
 11
-15.65
 21
23.8
  0
LINE
  5
69F
100
AcDbEntity
  8
ASSI
100
AcDbLine
 62
7
  6
CONTINUOUS
 10
-14.75
 20
23.8
 11
-15.65
 21
23.8
  0
LINE
  5
6A0
100
AcDbEntity
  8
RACCORDO
100
AcDbLine
 62
250
  6
CONTINUOUS
 10
0.604371834
 20
23.8443375673
 11
2.995628166
 21
23.8443375673
  0
LINE
  5
6A1
100
AcDbEntity
  8
ASSI
100
AcDbLine
 62
250
  6
CONTINUOUS
 10
0.604371834
 20
23.8443375673
 11
2.995628166
 21
23.8443375673
  0
LINE
  5
6A2
100
AcDbEntity
  8
RACCORDO
100
AcDbLine
 62
250
  6
CONTINUOUS
 10
-0.604371834
 20
23.8443375673
 11
-2.995628166
 21
23.8443375673
  0
LINE
  5
6A3
100
AcDbEntity
  8
ASSI
100
AcDbLine
 62
250
  6
CONTINUOUS
 10
-0.604371834
 20
23.8443375673
 11
-2.995628166
 21
23.8443375673
  0
LINE
  5
6A4
100
AcDbEntity
  8
RACCORDO
100
AcDbLine
 62
250
  6
CONTINUOUS
 10
19.504371834
 20
23.8443375673
 11
21.895628166
 21
23.8443375673
  0
LINE
  5
6A5
100
AcDbEntity
  8
ASSI
100
AcDbLine
 62
250
  6
CONTINUOUS
 10
19.504371834
 20
23.8443375673
 11
21.895628166
 21
23.8443375673
  0
LINE
  5
6A6
100
AcDbEntity
  8
RACCORDO
100
AcDbLine
 62
250
  6
CONTINUOUS
 10
-19.504371834
 20
23.8443375673
 11
-21.895628166
 21
23.8443375673
  0
LINE
  5
6A7
100
AcDbEntity
  8
ASSI
100
AcDbLine
 62
250
  6
CONTINUOUS
 10
-19.504371834
 20
23.8443375673
 11
-21.895628166
 21
23.8443375673
  0
LINE
  5
6A8
100
AcDbEntity
  8
RACCORDO
100
AcDbLine
 62
250
  6
CONTINUOUS
 10
0.604371834
 20
24.2456323968
 11
2.995628166
 21
24.2456323968
  0
LINE
  5
6A9
100
AcDbEntity
  8
ASSI
100
AcDbLine
 62
250
  6
CONTINUOUS
 10
0.604371834
 20
24.2456323968
 11
2.995628166
 21
24.2456323968
  0
LINE
  5
6AA
100
AcDbEntity
  8
RACCORDO
100
AcDbLine
 62
250
  6
CONTINUOUS
 10
-0.604371834
 20
24.2456323968
 11
-2.995628166
 21
24.2456323968
  0
LINE
  5
6AB
100
AcDbEntity
  8
ASSI
100
AcDbLine
 62
250
  6
CONTINUOUS
 10
-0.604371834
 20
24.2456323968
 11
-2.995628166
 21
24.2456323968
  0
LINE
  5
6AC
100
AcDbEntity
  8
RACCORDO
100
AcDbLine
 62
250
  6
CONTINUOUS
 10
19.504371834
 20
24.2456323968
 11
21.895628166
 21
24.2456323968
  0
LINE
  5
6AD
100
AcDbEntity
  8
ASSI
100
AcDbLine
 62
250
  6
CONTINUOUS
 10
19.504371834
 20
24.2456323968
 11
21.895628166
 21
24.2456323968
  0
LINE
  5
6AE
100
AcDbEntity
  8
RACCORDO
100
AcDbLine
 62
250
  6
CONTINUOUS
 10
-19.504371834
 20
24.2456323968
 11
-21.895628166
 21
24.2456323968
  0
LINE
  5
6AF
100
AcDbEntity
  8
ASSI
100
AcDbLine
 62
250
  6
CONTINUOUS
 10
-19.504371834
 20
24.2456323968
 11
-21.895628166
 21
24.2456323968
  0
LINE
  5
6B0
100
AcDbEntity
  8
RACCORDO
100
AcDbLine
 62
250
  6
CONTINUOUS
 10
21.6456323968
 20
24.495628166
 11
19.7543676032
 21
24.495628166
  0
LINE
  5
6B1
100
AcDbEntity
  8
ASSI
100
AcDbLine
 62
7
  6
CONTINUOUS
 10
21.6456323968
 20
24.495628166
 11
19.7543676032
 21
24.495628166
  0
LINE
  5
6B2
100
AcDbEntity
  8
RACCORDO
100
AcDbLine
 62
250
  6
CONTINUOUS
 10
2.7456323968
 20
24.495628166
 11
0.8543676032
 21
24.495628166
  0
LINE
  5
6B3
100
AcDbEntity
  8
ASSI
100
AcDbLine
 62
7
  6
CONTINUOUS
 10
2.7456323968
 20
24.495628166
 11
0.8543676032
 21
24.495628166
  0
LINE
  5
6B4
100
AcDbEntity
  8
RACCORDO
100
AcDbLine
 62
250
  6
CONTINUOUS
 10
-0.8543676032
 20
24.495628166
 11
-2.7456323968
 21
24.495628166
  0
LINE
  5
6B5
100
AcDbEntity
  8
ASSI
100
AcDbLine
 62
7
  6
CONTINUOUS
 10
-0.8543676032
 20
24.495628166
 11
-2.7456323968
 21
24.495628166
  0
LINE
  5
6B6
100
AcDbEntity
  8
RACCORDO
100
AcDbLine
 62
250
  6
CONTINUOUS
 10
-19.7543676032
 20
24.495628166
 11
-21.6456323968
 21
24.495628166
  0
LINE
  5
6B7
100
AcDbEntity
  8
ASSI
100
AcDbLine
 62
7
  6
CONTINUOUS
 10
-19.7543676032
 20
24.495628166
 11
-21.6456323968
 21
24.495628166
  0
LINE
  5
6B8
100
AcDbEntity
  8
SMUSSO
100
AcDbLine
 62
7
  6
CONTINUOUS
 10
20.9
 20
-20.1489710538
 11
20.1498860669
 21
-20.9
  0
LINE
  5
6B9
100
AcDbEntity
  8
ASSI
100
AcDbLine
 62
7
  6
CONTINUOUS
 10
20.9
 20
-20.1489710538
 11
20.1498860669
 21
-20.9
  0
LINE
  5
6BA
100
AcDbEntity
  8
0
100
AcDbLine
 62
7
  6
CONTINUOUS
 10
21.45
 20
-19.3
 11
18.95
 21
-21.8
  0
LINE
  5
6BB
100
AcDbEntity
  8
RACCORDO
100
AcDbLine
 62
7
  6
CONTINUOUS
 10
18.5087268678
 20
-22.3912731322
 11
19.5226915844
 21
-21.3773084156
  0
LINE
  5
6BC
100
AcDbEntity
  8
ASSI
100
AcDbLine
 62
7
  6
CONTINUOUS
 10
18.5087268678
 20
-22.3912731322
 11
19.5226915844
 21
-21.3773084156
  0
LINE
  5
6BD
100
AcDbEntity
  8
DRAFT
100
AcDbLine
 62
7
  6
CONTINUOUS
 10
22.4226915844
 20
-18.6273084156
 11
21.05
 21
-20.0
  0
LINE
  5
6BE
100
AcDbEntity
  8
ASSI
100
AcDbLine
 62
7
  6
CONTINUOUS
 10
22.4226915844
 20
-18.6273084156
 11
21.05
 21
-20.0
  0
LINE
  5
6BF
100
AcDbEntity
  8
0
100
AcDbLine
 62
7
  6
CONTINUOUS
 10
18.95
 20
21.8
 11
21.45
 21
19.3
  0
LINE
  5
6C0
100
AcDbEntity
  8
RACCORDO
100
AcDbLine
 62
7
  6
CONTINUOUS
 10
19.5226915844
 20
21.3773084156
 11
18.5087268678
 21
22.3912731322
  0
LINE
  5
6C1
100
AcDbEntity
  8
ASSI
100
AcDbLine
 62
7
  6
CONTINUOUS
 10
19.5226915844
 20
21.3773084156
 11
18.5087268678
 21
22.3912731322
  0
LINE
  5
6C2
100
AcDbEntity
  8
DRAFT
100
AcDbLine
 62
7
  6
CONTINUOUS
 10
21.05
 20
20.0
 11
22.4226915844
 21
18.6273084156
  0
LINE
  5
6C3
100
AcDbEntity
  8
ASSI
100
AcDbLine
 62
7
  6
CONTINUOUS
 10
21.05
 20
20.0
 11
22.4226915844
 21
18.6273084156
  0
LINE
  5
6C4
100
AcDbEntity
  8
SMUSSO
100
AcDbLine
 62
7
  6
CONTINUOUS
 10
20.9
 20
20.1489710538
 11
20.1498860669
 21
20.9
  0
LINE
  5
6C5
100
AcDbEntity
  8
ASSI
100
AcDbLine
 62
7
  6
CONTINUOUS
 10
20.9
 20
20.1489710538
 11
20.1498860669
 21
20.9
  0
ARC
  5
6C6
100
AcDbEntity
  8
RACCORDO
100
AcDbCircle
 62
7
  6
CONTINUOUS
 10
-19.7510705959
 20
-24.2498635646
 40
0.2510706353
100
AcDbArc
 50
345.0324692448
 51
359.9678991484
  0
ARC
  5
6C7
100
AcDbEntity
  8
RACCORDO
100
AcDbCircle
 62
7
  6
CONTINUOUS
 10
-21.6498635646
 20
-24.2489294041
 40
0.2510706353
100
AcDbArc
 50
255.0324692448
 51
269.9678991484
  0
ARC
  5
6C8
100
AcDbEntity
  8
ASSI
100
AcDbCircle
 62
7
  6
CONTINUOUS
 10
-19.7510705959
 20
-24.2498635646
 40
0.2510706353
100
AcDbArc
 50
345.0324692448
 51
359.9678991484
  0
ARC
  5
6C9
100
AcDbEntity
  8
ASSI
100
AcDbCircle
 62
7
  6
CONTINUOUS
 10
-21.6498635646
 20
-24.2489294041
 40
0.2510706353
100
AcDbArc
 50
255.0324692448
 51
269.9678991484
  0
ARC
  5
6CA
100
AcDbEntity
  8
ASSI
100
AcDbCircle
 62
7
  6
CONTINUOUS
 10
-19.7505185941
 20
-24.2494814059
 40
0.2507314835
100
AcDbArc
 50
309.0176645863
 51
320.9823354137
  0
ARC
  5
6CB
100
AcDbEntity
  8
ASSI
100
AcDbCircle
 62
7
  6
CONTINUOUS
 10
-21.6494814059
 20
-24.2494814059
 40
0.2507314835
100
AcDbArc
 50
219.0176645863
 51
230.9823354137
  0
ARC
  5
6CC
100
AcDbEntity
  8
RACCORDO
100
AcDbCircle
 62
250
  6
CONTINUOUS
 10
-21.6456221828
 20
-24.2456221828
 40
0.2500059834
100
AcDbArc
 50
180.0023408259
 51
269.9976591741
  0
ARC
  5
6CD
100
AcDbEntity
  8
RACCORDO
100
AcDbCircle
 62
250
  6
CONTINUOUS
 10
-19.7543778172
 20
-24.2456221828
 40
0.2500059834
100
AcDbArc
 50
270.0023408259
 51
359.9976591741
  0
ARC
  5
6CE
100
AcDbEntity
  8
ASSI
100
AcDbCircle
 62
7
  6
CONTINUOUS
 10
-21.6456221828
 20
-24.2456221828
 40
0.2500059834
100
AcDbArc
 50
180.0023408259
 51
269.9976591741
  0
ARC
  5
6CF
100
AcDbEntity
  8
ASSI
100
AcDbCircle
 62
7
  6
CONTINUOUS
 10
-19.7543778172
 20
-24.2456221828
 40
0.2500059834
100
AcDbArc
 50
270.0023408259
 51
359.9976591741
  0
ARC
  5
6D0
100
AcDbEntity
  8
ASSI
100
AcDbCircle
 62
7
  6
CONTINUOUS
 10
-19.7499958359
 20
-24.2500023964
 40
0.2499976036
100
AcDbArc
 50
270.0000152811
 51
308.9997507286
  0
ARC
  5
6D1
100
AcDbEntity
  8
ASSI
100
AcDbCircle
 62
7
  6
CONTINUOUS
 10
-21.6500023964
 20
-24.2500041641
 40
0.2499976036
100
AcDbArc
 50
180.0000152811
 51
218.9997507286
  0
ARC
  5
6D2
100
AcDbEntity
  8
RACCORDO
100
AcDbCircle
 62
7
  6
CONTINUOUS
 10
-19.749911024
 20
-24.2500307339
 40
0.249907268
100
AcDbArc
 50
269.9999322269
 51
345.0008332589
  0
ARC
  5
6D3
100
AcDbEntity
  8
RACCORDO
100
AcDbCircle
 62
7
  6
CONTINUOUS
 10
-21.6500307339
 20
-24.250088976
 40
0.249907268
100
AcDbArc
 50
179.9999322269
 51
255.0008332589
  0
ARC
  5
6D4
100
AcDbEntity
  8
0
100
AcDbCircle
 62
7
  6
CONTINUOUS
 10
-14.1822283267
 20
-18.8661289521
 40
7.4485926552
100
AcDbArc
 50
132.9832025059
 51
135.0089350559
  0
ARC
  5
6D5
100
AcDbEntity
  8
0
100
AcDbCircle
 62
7
  6
CONTINUOUS
 10
-19.1296516658
 20
-18.7748654945
 40
7.3217500821
100
AcDbArc
 50
44.973516158
 51
47.0343464101
  0
ARC
  5
6D6
100
AcDbEntity
  8
0
100
AcDbCircle
 62
7
  6
CONTINUOUS
 10
-18.9037157087
 20
-18.5337930218
 40
6.9913535157
100
AcDbArc
 50
47.0427557576
 51
47.2492517518
  0
ARC
  5
6D7
100
AcDbEntity
  8
0
100
AcDbCircle
 62
7
  6
CONTINUOUS
 10
-14.4963527186
 20
-18.5337185752
 40
6.9912524014
100
AcDbArc
 50
132.7507465226
 51
132.95724959
  0
ARC
  5
6D8
100
AcDbEntity
  8
DRAFT
100
AcDbCircle
 62
7
  6
CONTINUOUS
 10
-19.85
 20
-15.9
 40
1.0
100
AcDbArc
 50
180.0
 51
194.4775121859
  0
ARC
  5
6D9
100
AcDbEntity
  8
0
100
AcDbCircle
 62
7
  6
CONTINUOUS
 10
-19.85
 20
-15.9
 40
1.0
100
AcDbArc
 50
194.4775121859
 51
270.0
  0
ARC
  5
6DA
100
AcDbEntity
  8
0
100
AcDbCircle
 62
7
  6
CONTINUOUS
 10
-19.85
 20
-14.4
 40
1.0
100
AcDbArc
 50
90.0
 51
165.5224878141
  0
ARC
  5
6DB
100
AcDbEntity
  8
DRAFT
100
AcDbCircle
 62
7
  6
CONTINUOUS
 10
-19.85
 20
-14.4
 40
1.0
100
AcDbArc
 50
165.5224878141
 51
180.0
  0
ARC
  5
6DC
100
AcDbEntity
  8
ASSI
100
AcDbCircle
 62
7
  6
CONTINUOUS
 10
-13.5
 20
-15.9
 40
1.0
100
AcDbArc
 50
270.0
 51
360.0
  0
ARC
  5
6DD
100
AcDbEntity
  8
ASSI
100
AcDbCircle
 62
7
  6
CONTINUOUS
 10
-13.5
 20
-14.4
 40
1.0
100
AcDbArc
 50
0.0
 51
90.0
  0
ARC
  5
6DE
100
AcDbEntity
  8
ASSI
100
AcDbCircle
 62
7
  6
CONTINUOUS
 10
-9.8293575271
 20
-25.972962321
 40
7.7406516359
100
AcDbArc
 50
33.7284524136
 51
34.1355462334
  0
ARC
  5
6DF
100
AcDbEntity
  8
ASSI
100
AcDbCircle
 62
7
  6
CONTINUOUS
 10
-8.1474647375
 20
-24.8530552872
 40
5.7200213405
100
AcDbArc
 50
32.9091607166
 51
33.7533037718
  0
ARC
  5
6E0
100
AcDbEntity
  8
ASSI
100
AcDbCircle
 62
7
  6
CONTINUOUS
 10
-6.8550879184
 20
-24.3673681049
 40
1.0920981606
100
AcDbArc
 50
141.1314966111
 51
141.7443568866
  0
ARC
  5
6E1
100
AcDbEntity
  8
RACCORDO
100
AcDbCircle
 62
7
  6
CONTINUOUS
 10
-2.7498635646
 20
-24.2489294041
 40
0.2510706353
100
AcDbArc
 50
255.0324692448
 51
269.9678991484
  0
ARC
  5
6E2
100
AcDbEntity
  8
RACCORDO
100
AcDbCircle
 62
7
  6
CONTINUOUS
 10
-0.8510705959
 20
-24.2498635646
 40
0.2510706353
100
AcDbArc
 50
345.0324692448
 51
359.9678991484
  0
ARC
  5
6E3
100
AcDbEntity
  8
ASSI
100
AcDbCircle
 62
7
  6
CONTINUOUS
 10
-2.7498635646
 20
-24.2489294041
 40
0.2510706353
100
AcDbArc
 50
255.0324692448
 51
269.9678991484
  0
ARC
  5
6E4
100
AcDbEntity
  8
ASSI
100
AcDbCircle
 62
7
  6
CONTINUOUS
 10
-0.8510705959
 20
-24.2498635646
 40
0.2510706353
100
AcDbArc
 50
345.0324692448
 51
359.9678991484
  0
ARC
  5
6E5
100
AcDbEntity
  8
ASSI
100
AcDbCircle
 62
7
  6
CONTINUOUS
 10
-2.7494814059
 20
-24.2494814059
 40
0.2507314835
100
AcDbArc
 50
219.0176645863
 51
230.9823354137
  0
ARC
  5
6E6
100
AcDbEntity
  8
ASSI
100
AcDbCircle
 62
7
  6
CONTINUOUS
 10
-0.8505185941
 20
-24.2494814059
 40
0.2507314835
100
AcDbArc
 50
309.0176645863
 51
320.9823354137
  0
ARC
  5
6E7
100
AcDbEntity
  8
RACCORDO
100
AcDbCircle
 62
250
  6
CONTINUOUS
 10
-2.7456221828
 20
-24.2456221828
 40
0.2500059834
100
AcDbArc
 50
180.0023408215
 51
269.9976591785
  0
ARC
  5
6E8
100
AcDbEntity
  8
RACCORDO
100
AcDbCircle
 62
250
  6
CONTINUOUS
 10
-0.8543778172
 20
-24.2456221828
 40
0.2500059834
100
AcDbArc
 50
270.0023408215
 51
359.9976591785
  0
ARC
  5
6E9
100
AcDbEntity
  8
ASSI
100
AcDbCircle
 62
7
  6
CONTINUOUS
 10
-2.7456221828
 20
-24.2456221828
 40
0.2500059834
100
AcDbArc
 50
180.0023408215
 51
269.9976591785
  0
ARC
  5
6EA
100
AcDbEntity
  8
ASSI
100
AcDbCircle
 62
7
  6
CONTINUOUS
 10
-0.8543778172
 20
-24.2456221828
 40
0.2500059834
100
AcDbArc
 50
270.0023408215
 51
359.9976591785
  0
ARC
  5
6EB
100
AcDbEntity
  8
ASSI
100
AcDbCircle
 62
7
  6
CONTINUOUS
 10
-2.7500023964
 20
-24.2500041641
 40
0.2499976036
100
AcDbArc
 50
180.0000152811
 51
218.9997507286
  0
ARC
  5
6EC
100
AcDbEntity
  8
ASSI
100
AcDbCircle
 62
7
  6
CONTINUOUS
 10
-0.8499958359
 20
-24.2500023964
 40
0.2499976036
100
AcDbArc
 50
270.0000152811
 51
308.9997507286
  0
ARC
  5
6ED
100
AcDbEntity
  8
RACCORDO
100
AcDbCircle
 62
7
  6
CONTINUOUS
 10
-2.7500307339
 20
-24.250088976
 40
0.249907268
100
AcDbArc
 50
179.9999322269
 51
255.0008332588
  0
ARC
  5
6EE
100
AcDbEntity
  8
RACCORDO
100
AcDbCircle
 62
7
  6
CONTINUOUS
 10
-0.849911024
 20
-24.2500307339
 40
0.249907268
100
AcDbArc
 50
269.9999322269
 51
345.0008332589
  0
ARC
  5
6EF
100
AcDbEntity
  8
0
100
AcDbCircle
 62
7
  6
CONTINUOUS
 10
-3.2822283267
 20
-19.0161289521
 40
7.4485926552
100
AcDbArc
 50
132.9832025059
 51
135.0089350559
  0
ARC
  5
6F0
100
AcDbEntity
  8
0
100
AcDbCircle
 62
7
  6
CONTINUOUS
 10
-8.2296516658
 20
-18.9248654945
 40
7.3217500821
100
AcDbArc
 50
44.973516158
 51
47.0343464101
  0
ARC
  5
6F1
100
AcDbEntity
  8
0
100
AcDbCircle
 62
7
  6
CONTINUOUS
 10
-7.9808914374
 20
-18.6591960774
 40
6.9577982818
100
AcDbArc
 50
47.042282913
 51
47.4274143357
  0
ARC
  5
6F2
100
AcDbEntity
  8
0
100
AcDbCircle
 62
7
  6
CONTINUOUS
 10
-3.6191693574
 20
-18.6591298591
 40
6.9577083907
100
AcDbArc
 50
132.5725858986
 51
132.9577222911
  0
ARC
  5
6F3
100
AcDbEntity
  8
0
100
AcDbCircle
 62
7
  6
CONTINUOUS
 10
-7.8947992469
 20
-18.5655243115
 40
6.8305730322
100
AcDbArc
 50
47.427656894
 51
47.7446901594
  0
ARC
  5
6F4
100
AcDbEntity
  8
0
100
AcDbCircle
 62
7
  6
CONTINUOUS
 10
-3.7052349872
 20
-18.5654869948
 40
6.8305223937
100
AcDbArc
 50
132.2553077868
 51
132.5723434043
  0
ARC
  5
6F5
100
AcDbEntity
  8
0
100
AcDbCircle
 62
7
  6
CONTINUOUS
 10
-7.8149352779
 20
-18.4775839966
 40
6.7117801367
100
AcDbArc
 50
47.7444989378
 51
48.1376787342
  0
ARC
  5
6F6
100
AcDbEntity
  8
0
100
AcDbCircle
 62
7
  6
CONTINUOUS
 10
-3.7850746415
 20
-18.4775734475
 40
6.7117656606
100
AcDbArc
 50
131.8623182983
 51
132.2554989487
  0
ARC
  5
6F7
100
AcDbEntity
  8
0
100
AcDbCircle
 62
7
  6
CONTINUOUS
 10
-3.8592375029
 20
-18.3948477399
 40
6.6006635813
100
AcDbArc
 50
131.5406359119
 51
131.8620889489
  0
ARC
  5
6F8
100
AcDbEntity
  8
0
100
AcDbCircle
 62
7
  6
CONTINUOUS
 10
-7.7407501741
 20
-18.3948334865
 40
6.6006447425
100
AcDbArc
 50
48.1379081493
 51
48.459362099
  0
ARC
  5
6F9
100
AcDbEntity
  8
0
100
AcDbCircle
 62
7
  6
CONTINUOUS
 10
-3.9239164295
 20
-18.3218361091
 40
6.5031235294
100
AcDbArc
 50
131.1867792319
 51
131.5406931497
  0
ARC
  5
6FA
100
AcDbEntity
  8
0
100
AcDbCircle
 62
7
  6
CONTINUOUS
 10
-7.6760520702
 20
-18.3218002124
 40
6.5030757734
100
AcDbArc
 50
48.4593048411
 51
48.8132213566
  0
ARC
  5
6FB
100
AcDbEntity
  8
0
100
AcDbCircle
 62
7
  6
CONTINUOUS
 10
-3.9888845711
 20
-18.2475827902
 40
6.4044603915
100
AcDbArc
 50
130.8076461575
 51
131.1868160374
  0
ARC
  5
6FC
100
AcDbEntity
  8
0
100
AcDbCircle
 62
7
  6
CONTINUOUS
 10
-7.6110681153
 20
-18.2475288402
 40
6.404388636
100
AcDbArc
 50
48.8131846682
 51
49.1923492268
  0
ARC
  5
6FD
100
AcDbEntity
  8
ASSI
100
AcDbCircle
 62
7
  6
CONTINUOUS
 10
-9.0
 20
-14.4
 40
1.0
100
AcDbArc
 50
90.0
 51
180.0
  0
ARC
  5
6FE
100
AcDbEntity
  8
ASSI
100
AcDbCircle
 62
7
  6
CONTINUOUS
 10
-9.0
 20
-15.9
 40
1.0
100
AcDbArc
 50
180.0
 51
270.0
  0
ARC
  5
6FF
100
AcDbEntity
  8
DRAFT
100
AcDbCircle
 62
7
  6
CONTINUOUS
 10
-2.6
 20
-14.4
 40
1.0
100
AcDbArc
 50
0.0
 51
90.0
  0
ARC
  5
700
100
AcDbEntity
  8
DRAFT
100
AcDbCircle
 62
7
  6
CONTINUOUS
 10
-2.6
 20
-15.9
 40
1.0
100
AcDbArc
 50
270.0
 51
360.0
  0
ARC
  5
701
100
AcDbEntity
  8
SMUSSO
100
AcDbCircle
 62
7
  6
CONTINUOUS
 10
-16.3
 20
-1.5
 40
1.35
100
AcDbArc
 50
170.4031420291
 51
189.5968579709
  0
ARC
  5
702
100
AcDbEntity
  8
SMUSSO
100
AcDbCircle
 62
7
  6
CONTINUOUS
 10
-16.3
 20
-1.5
 40
0.85
100
AcDbArc
 50
151.9249350285
 51
208.0750649715
  0
ARC
  5
703
100
AcDbEntity
  8
DRAFT
100
AcDbCircle
 62
7
  6
CONTINUOUS
 10
-17.3
 20
-1.5
 40
0.4
100
AcDbArc
 50
90.0
 51
270.0
  0
ARC
  5
704
100
AcDbEntity
  8
ASSI
100
AcDbCircle
 62
7
  6
CONTINUOUS
 10
-16.7
 20
-1.5
 40
0.4
100
AcDbArc
 50
270.0
 51
90.0
  0
ARC
  5
705
100
AcDbEntity
  8
0
100
AcDbCircle
 62
7
  6
CONTINUOUS
 10
-16.3
 20
-1.5
 40
0.2
100
AcDbArc
 50
104.5103154316
 51
255.4896845684
  0
ARC
  5
706
100
AcDbEntity
  8
RACCORDO
100
AcDbCircle
 62
7
  6
CONTINUOUS
 10
-19.6
 20
16.17
 40
2.5
100
AcDbArc
 50
90.0
 51
180.0
  0
ARC
  5
707
100
AcDbEntity
  8
RACCORDO
100
AcDbCircle
 62
7
  6
CONTINUOUS
 10
-19.6
 20
14.13
 40
2.5
100
AcDbArc
 50
180.0
 51
270.0
  0
ARC
  5
708
100
AcDbEntity
  8
RACCORDO
100
AcDbCircle
 62
7
  6
CONTINUOUS
 10
-19.9
 20
14.125
 40
1.5
100
AcDbArc
 50
180.0
 51
270.0
  0
ARC
  5
709
100
AcDbEntity
  8
RACCORDO
100
AcDbCircle
 62
7
  6
CONTINUOUS
 10
-19.9
 20
16.175
 40
1.5
100
AcDbArc
 50
90.0
 51
180.0
  0
ARC
  5
70A
100
AcDbEntity
  8
ASSI
100
AcDbCircle
 62
7
  6
CONTINUOUS
 10
-15.6380262745
 20
24.361891504
 40
1.0833000485
100
AcDbArc
 50
321.1511370131
 51
321.7651322027
  0
ARC
  5
70B
100
AcDbEntity
  8
0
100
AcDbCircle
 62
7
  6
CONTINUOUS
 10
-19.85
 20
15.9
 40
1.0
100
AcDbArc
 50
128.9352715281
 51
165.5224878141
  0
ARC
  5
70C
100
AcDbEntity
  8
0
100
AcDbCircle
 62
7
  6
CONTINUOUS
 10
-19.85
 20
14.4
 40
1.0
100
AcDbArc
 50
194.4775121859
 51
231.0748780925
  0
ARC
  5
70D
100
AcDbEntity
  8
DRAFT
100
AcDbCircle
 62
7
  6
CONTINUOUS
 10
-19.85
 20
14.4
 40
1.0
100
AcDbArc
 50
180.0
 51
194.4775121859
  0
ARC
  5
70E
100
AcDbEntity
  8
DRAFT
100
AcDbCircle
 62
7
  6
CONTINUOUS
 10
-19.85
 20
15.9
 40
1.0
100
AcDbArc
 50
165.5224878141
 51
180.0
  0
ARC
  5
70F
100
AcDbEntity
  8
DRAFT
100
AcDbCircle
 62
7
  6
CONTINUOUS
 10
-19.7
 20
14.25
 40
1.0
100
AcDbArc
 50
180.0
 51
270.0
  0
ARC
  5
710
100
AcDbEntity
  8
DRAFT
100
AcDbCircle
 62
7
  6
CONTINUOUS
 10
-19.7
 20
16.05
 40
1.0
100
AcDbArc
 50
90.0
 51
180.0
  0
ARC
  5
711
100
AcDbEntity
  8
RACCORDO
100
AcDbCircle
 62
7
  6
CONTINUOUS
 10
-21.6489294041
 20
24.2498635646
 40
0.2510706353
100
AcDbArc
 50
165.0324692448
 51
179.9678991484
  0
ARC
  5
712
100
AcDbEntity
  8
RACCORDO
100
AcDbCircle
 62
7
  6
CONTINUOUS
 10
-19.7501364354
 20
24.2489294041
 40
0.2510706353
100
AcDbArc
 50
75.0324692448
 51
89.9678991484
  0
ARC
  5
713
100
AcDbEntity
  8
ASSI
100
AcDbCircle
 62
7
  6
CONTINUOUS
 10
-19.7501364354
 20
24.2489294041
 40
0.2510706353
100
AcDbArc
 50
75.0324692448
 51
89.9678991484
  0
ARC
  5
714
100
AcDbEntity
  8
ASSI
100
AcDbCircle
 62
7
  6
CONTINUOUS
 10
-21.6489294041
 20
24.2498635646
 40
0.2510706353
100
AcDbArc
 50
165.0324692448
 51
179.9678991484
  0
ARC
  5
715
100
AcDbEntity
  8
ASSI
100
AcDbCircle
 62
7
  6
CONTINUOUS
 10
-19.7505185941
 20
24.2494814059
 40
0.2507314835
100
AcDbArc
 50
39.0176645863
 51
50.9823354137
  0
ARC
  5
716
100
AcDbEntity
  8
ASSI
100
AcDbCircle
 62
7
  6
CONTINUOUS
 10
-21.6494814059
 20
24.2494814059
 40
0.2507314835
100
AcDbArc
 50
129.0176645863
 51
140.9823354137
  0
ARC
  5
717
100
AcDbEntity
  8
RACCORDO
100
AcDbCircle
 62
250
  6
CONTINUOUS
 10
-21.6456221828
 20
24.2456221828
 40
0.2500059834
100
AcDbArc
 50
90.0023408259
 51
179.9976591741
  0
ARC
  5
718
100
AcDbEntity
  8
RACCORDO
100
AcDbCircle
 62
250
  6
CONTINUOUS
 10
-19.7543778172
 20
24.2456221828
 40
0.2500059834
100
AcDbArc
 50
0.0023408215
 51
89.9976591785
  0
ARC
  5
719
100
AcDbEntity
  8
ASSI
100
AcDbCircle
 62
7
  6
CONTINUOUS
 10
-19.7543778172
 20
24.2456221828
 40
0.2500059834
100
AcDbArc
 50
0.0023408215
 51
89.9976591785
  0
ARC
  5
71A
100
AcDbEntity
  8
ASSI
100
AcDbCircle
 62
7
  6
CONTINUOUS
 10
-21.6456221828
 20
24.2456221828
 40
0.2500059834
100
AcDbArc
 50
90.0023408259
 51
179.9976591741
  0
ARC
  5
71B
100
AcDbEntity
  8
ASSI
100
AcDbCircle
 62
7
  6
CONTINUOUS
 10
-19.7499976036
 20
24.2500041641
 40
0.2499976036
100
AcDbArc
 50
0.0000152811
 51
38.9997507286
  0
ARC
  5
71C
100
AcDbEntity
  8
ASSI
100
AcDbCircle
 62
7
  6
CONTINUOUS
 10
-21.6500041641
 20
24.2500023964
 40
0.2499976036
100
AcDbArc
 50
90.0000152811
 51
128.9997507286
  0
ARC
  5
71D
100
AcDbEntity
  8
RACCORDO
100
AcDbCircle
 62
7
  6
CONTINUOUS
 10
-21.650088976
 20
24.2500307339
 40
0.249907268
100
AcDbArc
 50
89.9999322269
 51
165.0008332588
  0
ARC
  5
71E
100
AcDbEntity
  8
RACCORDO
100
AcDbCircle
 62
7
  6
CONTINUOUS
 10
-19.7499692661
 20
24.250088976
 40
0.249907268
100
AcDbArc
 50
359.9999322269
 51
75.000833259
  0
ARC
  5
71F
100
AcDbEntity
  8
SMUSSO
100
AcDbCircle
 62
7
  6
CONTINUOUS
 10
-5.8
 20
-0.5
 40
0.85
100
AcDbArc
 50
334.7161175744
 51
25.2838824256
  0
ARC
  5
720
100
AcDbEntity
  8
ASSI
100
AcDbCircle
 62
7
  6
CONTINUOUS
 10
-5.8
 20
-0.5
 40
0.4
100
AcDbArc
 50
90.0
 51
270.0
  0
ARC
  5
721
100
AcDbEntity
  8
DRAFT
100
AcDbCircle
 62
7
  6
CONTINUOUS
 10
-5.2
 20
-0.5
 40
0.4
100
AcDbArc
 50
270.0
 51
90.0
  0
CIRCLE
  5
722
100
AcDbEntity
  8
0
100
AcDbCircle
 62
7
  6
CONTINUOUS
 10
-5.8
 20
-0.5
 40
0.2
  0
ARC
  5
723
100
AcDbEntity
  8
ASSI
100
AcDbCircle
 62
7
  6
CONTINUOUS
 10
-9.829357527
 20
25.9729623209
 40
7.7406516357
100
AcDbArc
 50
325.8644537667
 51
326.2715475864
  0
ARC
  5
724
100
AcDbEntity
  8
ASSI
100
AcDbCircle
 62
7
  6
CONTINUOUS
 10
-8.1474647374
 20
24.8530552872
 40
5.7200213404
100
AcDbArc
 50
326.2466962282
 51
327.0908392834
  0
ARC
  5
725
100
AcDbEntity
  8
RACCORDO
100
AcDbCircle
 62
7
  6
CONTINUOUS
 10
-2.85
 20
16.15
 40
2.5
100
AcDbArc
 50
0.0
 51
90.0
  0
ARC
  5
726
100
AcDbEntity
  8
RACCORDO
100
AcDbCircle
 62
7
  6
CONTINUOUS
 10
-2.85
 20
14.15
 40
2.5
100
AcDbArc
 50
270.0
 51
360.0
  0
ARC
  5
727
100
AcDbEntity
  8
RACCORDO
100
AcDbCircle
 62
7
  6
CONTINUOUS
 10
-2.6
 20
16.15
 40
1.5
100
AcDbArc
 50
0.0
 51
90.0
  0
ARC
  5
728
100
AcDbEntity
  8
RACCORDO
100
AcDbCircle
 62
7
  6
CONTINUOUS
 10
-2.6
 20
14.15
 40
1.5
100
AcDbArc
 50
270.0
 51
360.0
  0
ARC
  5
729
100
AcDbEntity
  8
DRAFT
100
AcDbCircle
 62
7
  6
CONTINUOUS
 10
-2.8
 20
16.05
 40
1.0
100
AcDbArc
 50
0.0
 51
90.0
  0
ARC
  5
72A
100
AcDbEntity
  8
DRAFT
100
AcDbCircle
 62
7
  6
CONTINUOUS
 10
-2.8
 20
14.25
 40
1.0
100
AcDbArc
 50
270.0
 51
360.0
  0
ARC
  5
72B
100
AcDbEntity
  8
DRAFT
100
AcDbCircle
 62
7
  6
CONTINUOUS
 10
-2.6
 20
15.9
 40
1.0
100
AcDbArc
 50
0.0
 51
60.3420558649
  0
ARC
  5
72C
100
AcDbEntity
  8
DRAFT
100
AcDbCircle
 62
7
  6
CONTINUOUS
 10
-2.6
 20
14.4
 40
1.0
100
AcDbArc
 50
299.6581020946
 51
360.0
  0
ARC
  5
72D
100
AcDbEntity
  8
RACCORDO
100
AcDbCircle
 62
7
  6
CONTINUOUS
 10
-2.7489294041
 20
24.2498635646
 40
0.2510706353
100
AcDbArc
 50
165.0324692448
 51
179.9678991484
  0
ARC
  5
72E
100
AcDbEntity
  8
RACCORDO
100
AcDbCircle
 62
7
  6
CONTINUOUS
 10
-0.8501364354
 20
24.2489294041
 40
0.2510706353
100
AcDbArc
 50
75.0324692448
 51
89.9678991484
  0
ARC
  5
72F
100
AcDbEntity
  8
ASSI
100
AcDbCircle
 62
7
  6
CONTINUOUS
 10
-0.8501364354
 20
24.2489294041
 40
0.2510706353
100
AcDbArc
 50
75.0324692448
 51
89.9678991484
  0
ARC
  5
730
100
AcDbEntity
  8
ASSI
100
AcDbCircle
 62
7
  6
CONTINUOUS
 10
-2.7489294041
 20
24.2498635646
 40
0.2510706353
100
AcDbArc
 50
165.0324692448
 51
179.9678991484
  0
ARC
  5
731
100
AcDbEntity
  8
ASSI
100
AcDbCircle
 62
7
  6
CONTINUOUS
 10
-0.8505185941
 20
24.2494814059
 40
0.2507314835
100
AcDbArc
 50
39.0176645863
 51
50.9823354137
  0
ARC
  5
732
100
AcDbEntity
  8
ASSI
100
AcDbCircle
 62
7
  6
CONTINUOUS
 10
-2.7494814059
 20
24.2494814059
 40
0.2507314835
100
AcDbArc
 50
129.0176645863
 51
140.9823354137
  0
ARC
  5
733
100
AcDbEntity
  8
RACCORDO
100
AcDbCircle
 62
250
  6
CONTINUOUS
 10
-2.7456221828
 20
24.2456221828
 40
0.2500059834
100
AcDbArc
 50
90.0023408259
 51
179.9976591741
  0
ARC
  5
734
100
AcDbEntity
  8
RACCORDO
100
AcDbCircle
 62
250
  6
CONTINUOUS
 10
-0.8543778172
 20
24.2456221828
 40
0.2500059834
100
AcDbArc
 50
0.0023408259
 51
89.9976591741
  0
ARC
  5
735
100
AcDbEntity
  8
ASSI
100
AcDbCircle
 62
7
  6
CONTINUOUS
 10
-0.8543778172
 20
24.2456221828
 40
0.2500059834
100
AcDbArc
 50
0.0023408259
 51
89.9976591741
  0
ARC
  5
736
100
AcDbEntity
  8
ASSI
100
AcDbCircle
 62
7
  6
CONTINUOUS
 10
-2.7456221828
 20
24.2456221828
 40
0.2500059834
100
AcDbArc
 50
90.0023408259
 51
179.9976591741
  0
ARC
  5
737
100
AcDbEntity
  8
ASSI
100
AcDbCircle
 62
7
  6
CONTINUOUS
 10
-0.8499976036
 20
24.2500041641
 40
0.2499976036
100
AcDbArc
 50
0.0000152811
 51
38.9997507286
  0
ARC
  5
738
100
AcDbEntity
  8
ASSI
100
AcDbCircle
 62
7
  6
CONTINUOUS
 10
-2.7500041641
 20
24.2500023964
 40
0.2499976036
100
AcDbArc
 50
90.0000152811
 51
128.9997507286
  0
ARC
  5
739
100
AcDbEntity
  8
RACCORDO
100
AcDbCircle
 62
7
  6
CONTINUOUS
 10
-2.750088976
 20
24.2500307339
 40
0.249907268
100
AcDbArc
 50
89.9999322269
 51
165.0008332589
  0
ARC
  5
73A
100
AcDbEntity
  8
RACCORDO
100
AcDbCircle
 62
7
  6
CONTINUOUS
 10
-0.8499692661
 20
24.250088976
 40
0.249907268
100
AcDbArc
 50
359.9999322269
 51
75.000833259
  0
ARC
  5
73B
100
AcDbEntity
  8
RACCORDO
100
AcDbCircle
 62
7
  6
CONTINUOUS
 10
0.8501364354
 20
-24.2489294041
 40
0.2510706353
100
AcDbArc
 50
255.0324692448
 51
269.9678991484
  0
ARC
  5
73C
100
AcDbEntity
  8
RACCORDO
100
AcDbCircle
 62
7
  6
CONTINUOUS
 10
2.7489294041
 20
-24.2498635646
 40
0.2510706353
100
AcDbArc
 50
345.0324692448
 51
359.9678991484
  0
ARC
  5
73D
100
AcDbEntity
  8
ASSI
100
AcDbCircle
 62
7
  6
CONTINUOUS
 10
2.7489294041
 20
-24.2498635646
 40
0.2510706353
100
AcDbArc
 50
345.0324692448
 51
359.9678991484
  0
ARC
  5
73E
100
AcDbEntity
  8
ASSI
100
AcDbCircle
 62
7
  6
CONTINUOUS
 10
0.8501364354
 20
-24.2489294041
 40
0.2510706353
100
AcDbArc
 50
255.0324692448
 51
269.9678991484
  0
ARC
  5
73F
100
AcDbEntity
  8
ASSI
100
AcDbCircle
 62
7
  6
CONTINUOUS
 10
2.7494814059
 20
-24.2494814059
 40
0.2507314835
100
AcDbArc
 50
309.0176645863
 51
320.9823354137
  0
ARC
  5
740
100
AcDbEntity
  8
ASSI
100
AcDbCircle
 62
7
  6
CONTINUOUS
 10
0.8505185941
 20
-24.2494814059
 40
0.2507314835
100
AcDbArc
 50
219.0176645863
 51
230.9823354137
  0
ARC
  5
741
100
AcDbEntity
  8
RACCORDO
100
AcDbCircle
 62
250
  6
CONTINUOUS
 10
0.8543778172
 20
-24.2456221828
 40
0.2500059834
100
AcDbArc
 50
180.0023408259
 51
269.9976591741
  0
ARC
  5
742
100
AcDbEntity
  8
RACCORDO
100
AcDbCircle
 62
250
  6
CONTINUOUS
 10
2.7456221828
 20
-24.2456221828
 40
0.2500059834
100
AcDbArc
 50
270.0023408259
 51
359.9976591741
  0
ARC
  5
743
100
AcDbEntity
  8
ASSI
100
AcDbCircle
 62
7
  6
CONTINUOUS
 10
2.7456221828
 20
-24.2456221828
 40
0.2500059834
100
AcDbArc
 50
270.0023408259
 51
359.9976591741
  0
ARC
  5
744
100
AcDbEntity
  8
ASSI
100
AcDbCircle
 62
7
  6
CONTINUOUS
 10
0.8543778172
 20
-24.2456221828
 40
0.2500059834
100
AcDbArc
 50
180.0023408259
 51
269.9976591741
  0
ARC
  5
745
100
AcDbEntity
  8
ASSI
100
AcDbCircle
 62
7
  6
CONTINUOUS
 10
2.7500041641
 20
-24.2500023964
 40
0.2499976036
100
AcDbArc
 50
270.0000152811
 51
308.9997507286
  0
ARC
  5
746
100
AcDbEntity
  8
ASSI
100
AcDbCircle
 62
7
  6
CONTINUOUS
 10
0.8499976036
 20
-24.2500041641
 40
0.2499976036
100
AcDbArc
 50
180.0000152811
 51
218.9997507286
  0
ARC
  5
747
100
AcDbEntity
  8
RACCORDO
100
AcDbCircle
 62
7
  6
CONTINUOUS
 10
0.8499692661
 20
-24.250088976
 40
0.249907268
100
AcDbArc
 50
179.9999322269
 51
255.0008332589
  0
ARC
  5
748
100
AcDbEntity
  8
RACCORDO
100
AcDbCircle
 62
7
  6
CONTINUOUS
 10
2.750088976
 20
-24.2500307339
 40
0.249907268
100
AcDbArc
 50
269.9999322269
 51
345.0008332589
  0
ARC
  5
749
100
AcDbEntity
  8
0
100
AcDbCircle
 62
7
  6
CONTINUOUS
 10
7.5177716733
 20
-19.1661289521
 40
7.4485926552
100
AcDbArc
 50
132.9832025059
 51
135.0089350559
  0
ARC
  5
74A
100
AcDbEntity
  8
0
100
AcDbCircle
 62
7
  6
CONTINUOUS
 10
2.5703483342
 20
-19.0748654945
 40
7.3217500821
100
AcDbArc
 50
44.973516158
 51
47.0343464101
  0
ARC
  5
74B
100
AcDbEntity
  8
0
100
AcDbCircle
 62
7
  6
CONTINUOUS
 10
2.8191085626
 20
-18.8091960774
 40
6.9577982818
100
AcDbArc
 50
47.042282913
 51
47.4274143356
  0
ARC
  5
74C
100
AcDbEntity
  8
0
100
AcDbCircle
 62
7
  6
CONTINUOUS
 10
7.1808306427
 20
-18.8091298592
 40
6.9577083908
100
AcDbArc
 50
132.5725858987
 51
132.957722291
  0
ARC
  5
74D
100
AcDbEntity
  8
0
100
AcDbCircle
 62
7
  6
CONTINUOUS
 10
2.9052007529
 20
-18.7155243117
 40
6.8305730324
100
AcDbArc
 50
47.4276568938
 51
47.7446901594
  0
ARC
  5
74E
100
AcDbEntity
  8
0
100
AcDbCircle
 62
7
  6
CONTINUOUS
 10
7.0947650126
 20
-18.7154869946
 40
6.8305223934
100
AcDbArc
 50
132.2553077868
 51
132.5723434044
  0
ARC
  5
74F
100
AcDbEntity
  8
0
100
AcDbCircle
 62
7
  6
CONTINUOUS
 10
2.985064722
 20
-18.6275839967
 40
6.7117801368
100
AcDbArc
 50
47.7444989378
 51
48.1376787342
  0
ARC
  5
750
100
AcDbEntity
  8
0
100
AcDbCircle
 62
7
  6
CONTINUOUS
 10
7.0149253585
 20
-18.6275734475
 40
6.7117656605
100
AcDbArc
 50
131.8623182982
 51
132.2554989487
  0
ARC
  5
751
100
AcDbEntity
  8
0
100
AcDbCircle
 62
7
  6
CONTINUOUS
 10
6.9407624974
 20
-18.5448477401
 40
6.6006635817
100
AcDbArc
 50
131.5406359119
 51
131.8620889488
  0
ARC
  5
752
100
AcDbEntity
  8
0
100
AcDbCircle
 62
7
  6
CONTINUOUS
 10
3.0592498259
 20
-18.5448334864
 40
6.6006447425
100
AcDbArc
 50
48.1379081492
 51
48.459362099
  0
ARC
  5
753
100
AcDbEntity
  8
0
100
AcDbCircle
 62
7
  6
CONTINUOUS
 10
6.8760835705
 20
-18.4718361091
 40
6.5031235294
100
AcDbArc
 50
131.1867792318
 51
131.5406931497
  0
ARC
  5
754
100
AcDbEntity
  8
0
100
AcDbCircle
 62
7
  6
CONTINUOUS
 10
3.1239479298
 20
-18.4718002125
 40
6.5030757735
100
AcDbArc
 50
48.4593048411
 51
48.8132213567
  0
ARC
  5
755
100
AcDbEntity
  8
0
100
AcDbCircle
 62
7
  6
CONTINUOUS
 10
6.8118929221
 20
-18.3984752477
 40
6.405644017
100
AcDbArc
 50
130.8167772366
 51
131.1867929379
  0
ARC
  5
756
100
AcDbEntity
  8
0
100
AcDbCircle
 62
7
  6
CONTINUOUS
 10
3.1881573473
 20
-18.398417899
 40
6.4055677573
100
AcDbArc
 50
48.8132076462
 51
49.1832277588
  0
ARC
  5
757
100
AcDbEntity
  8
0
100
AcDbCircle
 62
7
  6
CONTINUOUS
 10
6.6063862955
 20
-18.1591053762
 40
6.0901602754
100
AcDbArc
 50
128.6072310464
 51
130.8255650412
  0
ARC
  5
758
100
AcDbEntity
  8
0
100
AcDbCircle
 62
7
  6
CONTINUOUS
 10
3.4224804574
 20
-18.1240145189
 40
6.0447351237
100
AcDbArc
 50
49.1640334128
 51
51.0483437162
  0
ARC
  5
759
100
AcDbEntity
  8
DRAFT
100
AcDbCircle
 62
7
  6
CONTINUOUS
 10
8.3
 20
-13.9680339887
 40
2.5
100
AcDbArc
 50
25.8419327632
 51
90.0
  0
ARC
  5
75A
100
AcDbEntity
  8
DRAFT
100
AcDbCircle
 62
7
  6
CONTINUOUS
 10
1.9
 20
-13.9680339887
 40
2.5
100
AcDbArc
 50
90.0
 51
154.1580672368
  0
ARC
  5
75B
100
AcDbEntity
  8
DRAFT
100
AcDbCircle
 62
7
  6
CONTINUOUS
 10
1.9
 20
-16.2319660113
 40
2.5
100
AcDbArc
 50
205.8419327632
 51
270.0
  0
ARC
  5
75C
100
AcDbEntity
  8
DRAFT
100
AcDbCircle
 62
7
  6
CONTINUOUS
 10
8.3
 20
-16.2319660113
 40
2.5
100
AcDbArc
 50
270.0
 51
334.1580672368
  0
ARC
  5
75D
100
AcDbEntity
  8
DRAFT
100
AcDbCircle
 62
7
  6
CONTINUOUS
 10
8.3
 20
-13.9680339887
 40
2.4650898701
100
AcDbArc
 50
24.1124220597
 51
90.0
  0
ARC
  5
75E
100
AcDbEntity
  8
DRAFT
100
AcDbCircle
 62
7
  6
CONTINUOUS
 10
1.9
 20
-13.9680339887
 40
2.4650898701
100
AcDbArc
 50
90.0
 51
155.8875779403
  0
ARC
  5
75F
100
AcDbEntity
  8
DRAFT
100
AcDbCircle
 62
7
  6
CONTINUOUS
 10
1.9
 20
-16.2319660113
 40
2.4650898701
100
AcDbArc
 50
204.1124220597
 51
270.0
  0
ARC
  5
760
100
AcDbEntity
  8
DRAFT
100
AcDbCircle
 62
7
  6
CONTINUOUS
 10
8.3
 20
-16.2319660113
 40
2.4650898701
100
AcDbArc
 50
270.0
 51
335.8875779403
  0
ARC
  5
761
100
AcDbEntity
  8
0
100
AcDbCircle
 62
250
  6
CONTINUOUS
 10
15.0391621579
 20
-31.3909937461
 40
33.797553065
100
AcDbArc
 50
91.1939472288
 51
91.5080671156
  0
ARC
  5
762
100
AcDbEntity
  8
ASSI
100
AcDbCircle
 62
7
  6
CONTINUOUS
 10
13.5595132592
 20
-25.3778046046
 40
6.6709322772
100
AcDbArc
 50
33.3520345108
 51
33.9216413271
  0
ARC
  5
763
100
AcDbEntity
  8
RACCORDO
100
AcDbCircle
 62
7
  6
CONTINUOUS
 10
13.8190251975
 20
-25.2038594892
 40
6.3585173213
100
AcDbArc
 50
32.9510707769
 51
33.9259929889
  0
ARC
  5
764
100
AcDbEntity
  8
ASSI
100
AcDbCircle
 62
7
  6
CONTINUOUS
 10
14.5954043358
 20
-24.6952483169
 40
5.4303868652
100
AcDbArc
 50
32.9035551648
 51
33.3453757841
  0
ARC
  5
765
100
AcDbEntity
  8
ASSI
100
AcDbCircle
 62
7
  6
CONTINUOUS
 10
15.6449120816
 20
-24.3673681049
 40
1.0920981606
100
AcDbArc
 50
141.131496611
 51
141.7443568866
  0
ARC
  5
766
100
AcDbEntity
  8
RACCORDO
100
AcDbCircle
 62
7
  6
CONTINUOUS
 10
21.6489294041
 20
-24.2498635646
 40
0.2510706353
100
AcDbArc
 50
345.0324692448
 51
359.9678991484
  0
ARC
  5
767
100
AcDbEntity
  8
RACCORDO
100
AcDbCircle
 62
7
  6
CONTINUOUS
 10
19.7501364354
 20
-24.2489294041
 40
0.2510706353
100
AcDbArc
 50
255.0324692448
 51
269.9678991484
  0
ARC
  5
768
100
AcDbEntity
  8
ASSI
100
AcDbCircle
 62
7
  6
CONTINUOUS
 10
19.7501364354
 20
-24.2489294041
 40
0.2510706353
100
AcDbArc
 50
255.0324692448
 51
269.9678991484
  0
ARC
  5
769
100
AcDbEntity
  8
ASSI
100
AcDbCircle
 62
7
  6
CONTINUOUS
 10
21.6489294041
 20
-24.2498635646
 40
0.2510706353
100
AcDbArc
 50
345.0324692448
 51
359.9678991484
  0
ARC
  5
76A
100
AcDbEntity
  8
ASSI
100
AcDbCircle
 62
7
  6
CONTINUOUS
 10
19.7505185941
 20
-24.2494814059
 40
0.2507314835
100
AcDbArc
 50
219.0176645863
 51
230.9823354137
  0
ARC
  5
76B
100
AcDbEntity
  8
ASSI
100
AcDbCircle
 62
7
  6
CONTINUOUS
 10
21.6494814059
 20
-24.2494814059
 40
0.2507314835
100
AcDbArc
 50
309.0176645863
 51
320.9823354137
  0
ARC
  5
76C
100
AcDbEntity
  8
RACCORDO
100
AcDbCircle
 62
250
  6
CONTINUOUS
 10
21.6456221828
 20
-24.2456221828
 40
0.2500059834
100
AcDbArc
 50
270.0023408215
 51
359.9976591785
  0
ARC
  5
76D
100
AcDbEntity
  8
RACCORDO
100
AcDbCircle
 62
250
  6
CONTINUOUS
 10
19.7543778172
 20
-24.2456221828
 40
0.2500059834
100
AcDbArc
 50
180.0023408215
 51
269.9976591785
  0
ARC
  5
76E
100
AcDbEntity
  8
ASSI
100
AcDbCircle
 62
7
  6
CONTINUOUS
 10
19.7543778172
 20
-24.2456221828
 40
0.2500059834
100
AcDbArc
 50
180.0023408215
 51
269.9976591785
  0
ARC
  5
76F
100
AcDbEntity
  8
ASSI
100
AcDbCircle
 62
7
  6
CONTINUOUS
 10
21.6456221828
 20
-24.2456221828
 40
0.2500059834
100
AcDbArc
 50
270.0023408215
 51
359.9976591785
  0
ARC
  5
770
100
AcDbEntity
  8
ASSI
100
AcDbCircle
 62
7
  6
CONTINUOUS
 10
19.7499976036
 20
-24.2500041641
 40
0.2499976036
100
AcDbArc
 50
180.0000152811
 51
218.9997507286
  0
ARC
  5
771
100
AcDbEntity
  8
ASSI
100
AcDbCircle
 62
7
  6
CONTINUOUS
 10
21.6500041641
 20
-24.2500023964
 40
0.2499976036
100
AcDbArc
 50
270.0000152811
 51
308.9997507286
  0
ARC
  5
772
100
AcDbEntity
  8
RACCORDO
100
AcDbCircle
 62
7
  6
CONTINUOUS
 10
21.650088976
 20
-24.2500307339
 40
0.249907268
100
AcDbArc
 50
269.9999322269
 51
345.0008332588
  0
ARC
  5
773
100
AcDbEntity
  8
RACCORDO
100
AcDbCircle
 62
7
  6
CONTINUOUS
 10
19.7499692661
 20
-24.250088976
 40
0.249907268
100
AcDbArc
 50
179.9999322269
 51
255.0008332589
  0
ARC
  5
774
100
AcDbEntity
  8
0
100
AcDbCircle
 62
250
  6
CONTINUOUS
 10
15.669198286
 20
-21.4872575679
 40
23.8733142486
100
AcDbArc
 50
84.0828317705
 51
85.0228369835
  0
ARC
  5
775
100
AcDbEntity
  8
0
100
AcDbCircle
 62
250
  6
CONTINUOUS
 10
15.0527985514
 20
-22.3185534012
 40
22.4086443331
100
AcDbArc
 50
91.0943240076
 51
92.310541137
  0
ARC
  5
776
100
AcDbEntity
  8
0
100
AcDbCircle
 62
7
  6
CONTINUOUS
 10
18.6177716733
 20
-19.1661289521
 40
7.4485926552
100
AcDbArc
 50
132.9832025059
 51
135.0089350559
  0
ARC
  5
777
100
AcDbEntity
  8
0
100
AcDbCircle
 62
7
  6
CONTINUOUS
 10
13.6703483342
 20
-19.0748654945
 40
7.3217500821
100
AcDbArc
 50
44.973516158
 51
47.0343464101
  0
ARC
  5
778
100
AcDbEntity
  8
0
100
AcDbCircle
 62
7
  6
CONTINUOUS
 10
13.9191085626
 20
-18.8091960773
 40
6.9577982818
100
AcDbArc
 50
47.042282913
 51
47.4274143356
  0
ARC
  5
779
100
AcDbEntity
  8
0
100
AcDbCircle
 62
7
  6
CONTINUOUS
 10
18.2808306427
 20
-18.8091298592
 40
6.9577083908
100
AcDbArc
 50
132.5725858987
 51
132.957722291
  0
ARC
  5
77A
100
AcDbEntity
  8
0
100
AcDbCircle
 62
7
  6
CONTINUOUS
 10
14.0052007532
 20
-18.7155243114
 40
6.8305730321
100
AcDbArc
 50
47.4276568938
 51
47.7446901594
  0
ARC
  5
77B
100
AcDbEntity
  8
0
100
AcDbCircle
 62
7
  6
CONTINUOUS
 10
18.1947650127
 20
-18.7154869947
 40
6.8305223936
100
AcDbArc
 50
132.2553077868
 51
132.5723434043
  0
ARC
  5
77C
100
AcDbEntity
  8
0
100
AcDbCircle
 62
7
  6
CONTINUOUS
 10
14.0850647221
 20
-18.6275839966
 40
6.7117801367
100
AcDbArc
 50
47.7444989378
 51
48.1376787342
  0
ARC
  5
77D
100
AcDbEntity
  8
0
100
AcDbCircle
 62
7
  6
CONTINUOUS
 10
18.1149253586
 20
-18.6275734476
 40
6.7117656606
100
AcDbArc
 50
131.8623182982
 51
132.2554989487
  0
ARC
  5
77E
100
AcDbEntity
  8
0
100
AcDbCircle
 62
7
  6
CONTINUOUS
 10
18.0407624971
 20
-18.5448477399
 40
6.6006635813
100
AcDbArc
 50
131.5406359119
 51
131.8620889488
  0
ARC
  5
77F
100
AcDbEntity
  8
0
100
AcDbCircle
 62
7
  6
CONTINUOUS
 10
14.1592498259
 20
-18.5448334864
 40
6.6006447425
100
AcDbArc
 50
48.1379081492
 51
48.4593620991
  0
ARC
  5
780
100
AcDbEntity
  8
0
100
AcDbCircle
 62
7
  6
CONTINUOUS
 10
17.9760835704
 20
-18.471836109
 40
6.5031235292
100
AcDbArc
 50
131.1867792318
 51
131.5406931497
  0
ARC
  5
781
100
AcDbEntity
  8
0
100
AcDbCircle
 62
7
  6
CONTINUOUS
 10
14.2239479299
 20
-18.4718002124
 40
6.5030757734
100
AcDbArc
 50
48.4593048411
 51
48.8132213567
  0
ARC
  5
782
100
AcDbEntity
  8
0
100
AcDbCircle
 62
7
  6
CONTINUOUS
 10
17.9118929221
 20
-18.3984752477
 40
6.405644017
100
AcDbArc
 50
130.8167772366
 51
131.1867929379
  0
ARC
  5
783
100
AcDbEntity
  8
0
100
AcDbCircle
 62
7
  6
CONTINUOUS
 10
14.2881573471
 20
-18.3984178993
 40
6.4055677576
100
AcDbArc
 50
48.8132076462
 51
49.1832277588
  0
ARC
  5
784
100
AcDbEntity
  8
0
100
AcDbCircle
 62
7
  6
CONTINUOUS
 10
17.7125525827
 20
-18.1663534162
 40
6.099676154
100
AcDbArc
 50
128.6948606626
 51
130.8248848229
  0
ARC
  5
785
100
AcDbEntity
  8
0
100
AcDbCircle
 62
7
  6
CONTINUOUS
 10
14.5509316618
 20
-18.0900665079
 40
6.0004464953
100
AcDbArc
 50
49.1576099787
 51
51.352721661
  0
ARC
  5
786
100
AcDbEntity
  8
DRAFT
100
AcDbCircle
 62
7
  6
CONTINUOUS
 10
12.8
 20
-13.9680339887
 40
2.5
100
AcDbArc
 50
90.0
 51
154.1580672368
  0
ARC
  5
787
100
AcDbEntity
  8
DRAFT
100
AcDbCircle
 62
7
  6
CONTINUOUS
 10
19.2
 20
-13.9680339887
 40
2.5
100
AcDbArc
 50
25.8419327632
 51
90.0
  0
ARC
  5
788
100
AcDbEntity
  8
DRAFT
100
AcDbCircle
 62
7
  6
CONTINUOUS
 10
12.8
 20
-16.2319660113
 40
2.5
100
AcDbArc
 50
205.8419327632
 51
270.0
  0
ARC
  5
789
100
AcDbEntity
  8
DRAFT
100
AcDbCircle
 62
7
  6
CONTINUOUS
 10
19.2
 20
-16.2319660113
 40
2.5
100
AcDbArc
 50
270.0
 51
334.1580672368
  0
ARC
  5
78A
100
AcDbEntity
  8
DRAFT
100
AcDbCircle
 62
7
  6
CONTINUOUS
 10
19.2
 20
-13.9680339887
 40
2.4650898701
100
AcDbArc
 50
24.1124220597
 51
90.0
  0
ARC
  5
78B
100
AcDbEntity
  8
DRAFT
100
AcDbCircle
 62
7
  6
CONTINUOUS
 10
12.8
 20
-13.9680339887
 40
2.4650898701
100
AcDbArc
 50
90.0
 51
155.8875779403
  0
ARC
  5
78C
100
AcDbEntity
  8
DRAFT
100
AcDbCircle
 62
7
  6
CONTINUOUS
 10
12.8
 20
-16.2319660113
 40
2.4650898701
100
AcDbArc
 50
204.1124220597
 51
270.0
  0
ARC
  5
78D
100
AcDbEntity
  8
DRAFT
100
AcDbCircle
 62
7
  6
CONTINUOUS
 10
19.2
 20
-16.2319660113
 40
2.4650898701
100
AcDbArc
 50
270.0
 51
335.8875779403
  0
ARC
  5
78E
100
AcDbEntity
  8
0
100
AcDbCircle
 62
7
  6
CONTINUOUS
 10
1.6748457739
 20
12.2944409134
 40
2.4196545798
100
AcDbArc
 50
55.7481113893
 51
58.7843317268
  0
ARC
  5
78F
100
AcDbEntity
  8
0
100
AcDbCircle
 62
7
  6
CONTINUOUS
 10
4.0510746425
 20
6.1445924774
 40
2.1537796837
100
AcDbArc
 50
255.0126143291
 51
269.9714118939
  0
ARC
  5
790
100
AcDbEntity
  8
RACCORDO
100
AcDbCircle
 62
7
  6
CONTINUOUS
 10
2.45
 20
3.725522884
 40
1.1
100
AcDbArc
 50
0.0
 51
37.8386979968
  0
ARC
  5
791
100
AcDbEntity
  8
DRAFT
100
AcDbCircle
 62
7
  6
CONTINUOUS
 10
7.1
 20
0.0
 40
0.4174550649
100
AcDbArc
 50
270.0
 51
90.0
  0
ARC
  5
792
100
AcDbEntity
  8
DRAFT
100
AcDbCircle
 62
7
  6
CONTINUOUS
 10
3.1
 20
0.0
 40
0.4174550649
100
AcDbArc
 50
90.0
 51
270.0
  0
ARC
  5
793
100
AcDbEntity
  8
DRAFT
100
AcDbCircle
 62
7
  6
CONTINUOUS
 10
7.1
 20
2.0
 40
0.4174550649
100
AcDbArc
 50
270.0
 51
90.0
  0
ARC
  5
794
100
AcDbEntity
  8
DRAFT
100
AcDbCircle
 62
7
  6
CONTINUOUS
 10
3.1
 20
2.0
 40
0.4174550649
100
AcDbArc
 50
90.0
 51
270.0
  0
ARC
  5
795
100
AcDbEntity
  8
DRAFT
100
AcDbCircle
 62
7
  6
CONTINUOUS
 10
7.1
 20
4.0
 40
0.4174550649
100
AcDbArc
 50
270.0
 51
90.0
  0
ARC
  5
796
100
AcDbEntity
  8
DRAFT
100
AcDbCircle
 62
7
  6
CONTINUOUS
 10
3.1
 20
4.0
 40
0.4174550649
100
AcDbArc
 50
90.0
 51
270.0
  0
ARC
  5
797
100
AcDbEntity
  8
DRAFT
100
AcDbCircle
 62
7
  6
CONTINUOUS
 10
7.1
 20
6.0
 40
0.4174550649
100
AcDbArc
 50
270.0
 51
90.0
  0
ARC
  5
798
100
AcDbEntity
  8
DRAFT
100
AcDbCircle
 62
7
  6
CONTINUOUS
 10
3.1
 20
6.0
 40
0.4174550649
100
AcDbArc
 50
90.0
 51
270.0
  0
ARC
  5
799
100
AcDbEntity
  8
DRAFT
100
AcDbCircle
 62
7
  6
CONTINUOUS
 10
7.1
 20
8.0
 40
0.4174550649
100
AcDbArc
 50
270.0
 51
90.0
  0
ARC
  5
79A
100
AcDbEntity
  8
DRAFT
100
AcDbCircle
 62
7
  6
CONTINUOUS
 10
3.1
 20
8.0
 40
0.4174550649
100
AcDbArc
 50
90.0
 51
270.0
  0
ARC
  5
79B
100
AcDbEntity
  8
DRAFT
100
AcDbCircle
 62
7
  6
CONTINUOUS
 10
7.1
 20
10.0
 40
0.4174550649
100
AcDbArc
 50
270.0
 51
90.0
  0
ARC
  5
79C
100
AcDbEntity
  8
DRAFT
100
AcDbCircle
 62
7
  6
CONTINUOUS
 10
3.1
 20
10.0
 40
0.4174550649
100
AcDbArc
 50
90.0
 51
270.0
  0
ARC
  5
79D
100
AcDbEntity
  8
DRAFT
100
AcDbCircle
 62
7
  6
CONTINUOUS
 10
7.1
 20
12.0
 40
0.4174550649
100
AcDbArc
 50
270.0
 51
90.0
  0
ARC
  5
79E
100
AcDbEntity
  8
DRAFT
100
AcDbCircle
 62
7
  6
CONTINUOUS
 10
3.1
 20
12.0
 40
0.4174550649
100
AcDbArc
 50
90.0
 51
270.0
  0
ARC
  5
79F
100
AcDbEntity
  8
0
100
AcDbCircle
 62
250
  6
CONTINUOUS
 10
3.0497435565
 20
13.6401768077
 40
1.5823599999
100
AcDbArc
 50
266.5061485756
 51
273.5122569809
  0
ARC
  5
7A0
100
AcDbEntity
  8
ASSI
100
AcDbCircle
 62
7
  6
CONTINUOUS
 10
6.8619737254
 20
24.3618915041
 40
1.0833000486
100
AcDbArc
 50
321.1511370132
 51
321.7651322027
  0
ARC
  5
7A1
100
AcDbEntity
  8
DRAFT
100
AcDbCircle
 62
7
  6
CONTINUOUS
 10
7.1
 20
14.0
 40
0.4174550649
100
AcDbArc
 50
270.0
 51
90.0
  0
ARC
  5
7A2
100
AcDbEntity
  8
DRAFT
100
AcDbCircle
 62
7
  6
CONTINUOUS
 10
3.1
 20
14.0
 40
0.4174550649
100
AcDbArc
 50
90.0
 51
270.0
  0
ARC
  5
7A3
100
AcDbEntity
  8
RACCORDO
100
AcDbCircle
 62
7
  6
CONTINUOUS
 10
0.8510705959
 20
24.2498635646
 40
0.2510706353
100
AcDbArc
 50
165.0324692448
 51
179.9678991484
  0
ARC
  5
7A4
100
AcDbEntity
  8
RACCORDO
100
AcDbCircle
 62
7
  6
CONTINUOUS
 10
2.7498635646
 20
24.2489294041
 40
0.2510706353
100
AcDbArc
 50
75.0324692448
 51
89.9678991484
  0
ARC
  5
7A5
100
AcDbEntity
  8
ASSI
100
AcDbCircle
 62
7
  6
CONTINUOUS
 10
2.7498635646
 20
24.2489294041
 40
0.2510706353
100
AcDbArc
 50
75.0324692448
 51
89.9678991484
  0
ARC
  5
7A6
100
AcDbEntity
  8
ASSI
100
AcDbCircle
 62
7
  6
CONTINUOUS
 10
0.8510705959
 20
24.2498635646
 40
0.2510706353
100
AcDbArc
 50
165.0324692448
 51
179.9678991484
  0
ARC
  5
7A7
100
AcDbEntity
  8
ASSI
100
AcDbCircle
 62
7
  6
CONTINUOUS
 10
2.7494814059
 20
24.2494814059
 40
0.2507314835
100
AcDbArc
 50
39.0176645863
 51
50.9823354137
  0
ARC
  5
7A8
100
AcDbEntity
  8
ASSI
100
AcDbCircle
 62
7
  6
CONTINUOUS
 10
0.8505185941
 20
24.2494814059
 40
0.2507314835
100
AcDbArc
 50
129.0176645863
 51
140.9823354137
  0
ARC
  5
7A9
100
AcDbEntity
  8
RACCORDO
100
AcDbCircle
 62
250
  6
CONTINUOUS
 10
0.8543778172
 20
24.2456221828
 40
0.2500059834
100
AcDbArc
 50
90.0023408259
 51
179.9976591741
  0
ARC
  5
7AA
100
AcDbEntity
  8
RACCORDO
100
AcDbCircle
 62
250
  6
CONTINUOUS
 10
2.7456221828
 20
24.2456221828
 40
0.2500059834
100
AcDbArc
 50
0.0023408215
 51
89.9976591785
  0
ARC
  5
7AB
100
AcDbEntity
  8
ASSI
100
AcDbCircle
 62
7
  6
CONTINUOUS
 10
2.7456221828
 20
24.2456221828
 40
0.2500059834
100
AcDbArc
 50
0.0023408215
 51
89.9976591785
  0
ARC
  5
7AC
100
AcDbEntity
  8
ASSI
100
AcDbCircle
 62
7
  6
CONTINUOUS
 10
0.8543778172
 20
24.2456221828
 40
0.2500059834
100
AcDbArc
 50
90.0023408259
 51
179.9976591741
  0
ARC
  5
7AD
100
AcDbEntity
  8
ASSI
100
AcDbCircle
 62
7
  6
CONTINUOUS
 10
2.7500023964
 20
24.2500041641
 40
0.2499976036
100
AcDbArc
 50
0.0000152811
 51
38.9997507286
  0
ARC
  5
7AE
100
AcDbEntity
  8
ASSI
100
AcDbCircle
 62
7
  6
CONTINUOUS
 10
0.8499958359
 20
24.2500023964
 40
0.2499976036
100
AcDbArc
 50
90.0000152811
 51
128.9997507286
  0
ARC
  5
7AF
100
AcDbEntity
  8
RACCORDO
100
AcDbCircle
 62
7
  6
CONTINUOUS
 10
0.849911024
 20
24.2500307339
 40
0.249907268
100
AcDbArc
 50
89.9999322269
 51
165.0008332589
  0
ARC
  5
7B0
100
AcDbEntity
  8
RACCORDO
100
AcDbCircle
 62
7
  6
CONTINUOUS
 10
2.7500307339
 20
24.250088976
 40
0.249907268
100
AcDbArc
 50
359.9999322269
 51
75.000833259
  0
ARC
  5
7B1
100
AcDbEntity
  8
0
100
AcDbCircle
 62
7
  6
CONTINUOUS
 10
18.0469684664
 20
3.802549542
 40
2.0383829538
100
AcDbArc
 50
81.3709123234
 51
82.681329611
  0
ARC
  5
7B2
100
AcDbEntity
  8
0
100
AcDbCircle
 62
7
  6
CONTINUOUS
 10
18.0492831492
 20
3.8240919196
 40
2.0167212697
100
AcDbArc
 50
82.6685900781
 51
89.9796340101
  0
ARC
  5
7B3
100
AcDbEntity
  8
RACCORDO
100
AcDbCircle
 62
7
  6
CONTINUOUS
 10
14.05
 20
7.5
 40
1.0
100
AcDbArc
 50
5.8289023881
 51
30.8293791276
  0
ARC
  5
7B4
100
AcDbEntity
  8
DRAFT
100
AcDbCircle
 62
7
  6
CONTINUOUS
 10
18.0
 20
0.0
 40
0.4174550649
100
AcDbArc
 50
270.0
 51
90.0
  0
ARC
  5
7B5
100
AcDbEntity
  8
DRAFT
100
AcDbCircle
 62
7
  6
CONTINUOUS
 10
14.0
 20
0.0
 40
0.4174550649
100
AcDbArc
 50
90.0
 51
270.0
  0
ARC
  5
7B6
100
AcDbEntity
  8
DRAFT
100
AcDbCircle
 62
7
  6
CONTINUOUS
 10
18.0
 20
2.0
 40
0.4174550649
100
AcDbArc
 50
270.0
 51
90.0
  0
ARC
  5
7B7
100
AcDbEntity
  8
DRAFT
100
AcDbCircle
 62
7
  6
CONTINUOUS
 10
14.0
 20
2.0
 40
0.4174550649
100
AcDbArc
 50
90.0
 51
270.0
  0
ARC
  5
7B8
100
AcDbEntity
  8
DRAFT
100
AcDbCircle
 62
7
  6
CONTINUOUS
 10
18.0
 20
4.0
 40
0.4174550649
100
AcDbArc
 50
270.0
 51
90.0
  0
ARC
  5
7B9
100
AcDbEntity
  8
DRAFT
100
AcDbCircle
 62
7
  6
CONTINUOUS
 10
14.0
 20
4.0
 40
0.4174550649
100
AcDbArc
 50
90.0
 51
270.0
  0
ARC
  5
7BA
100
AcDbEntity
  8
DRAFT
100
AcDbCircle
 62
7
  6
CONTINUOUS
 10
18.0
 20
6.0
 40
0.4174550649
100
AcDbArc
 50
270.0
 51
90.0
  0
ARC
  5
7BB
100
AcDbEntity
  8
DRAFT
100
AcDbCircle
 62
7
  6
CONTINUOUS
 10
14.0
 20
6.0
 40
0.4174550649
100
AcDbArc
 50
90.0
 51
270.0
  0
ARC
  5
7BC
100
AcDbEntity
  8
DRAFT
100
AcDbCircle
 62
7
  6
CONTINUOUS
 10
18.0
 20
8.0
 40
0.4174550649
100
AcDbArc
 50
270.0
 51
90.0
  0
ARC
  5
7BD
100
AcDbEntity
  8
DRAFT
100
AcDbCircle
 62
7
  6
CONTINUOUS
 10
14.0
 20
8.0
 40
0.4174550649
100
AcDbArc
 50
90.0
 51
270.0
  0
ARC
  5
7BE
100
AcDbEntity
  8
DRAFT
100
AcDbCircle
 62
7
  6
CONTINUOUS
 10
18.0
 20
10.0
 40
0.4174550649
100
AcDbArc
 50
270.0
 51
90.0
  0
ARC
  5
7BF
100
AcDbEntity
  8
DRAFT
100
AcDbCircle
 62
7
  6
CONTINUOUS
 10
14.0
 20
10.0
 40
0.4174550649
100
AcDbArc
 50
90.0
 51
270.0
  0
ARC
  5
7C0
100
AcDbEntity
  8
DRAFT
100
AcDbCircle
 62
7
  6
CONTINUOUS
 10
18.0
 20
12.0
 40
0.4174550649
100
AcDbArc
 50
270.0
 51
90.0
  0
ARC
  5
7C1
100
AcDbEntity
  8
DRAFT
100
AcDbCircle
 62
7
  6
CONTINUOUS
 10
14.0
 20
12.0
 40
0.4174550649
100
AcDbArc
 50
90.0
 51
270.0
  0
ARC
  5
7C2
100
AcDbEntity
  8
ASSI
100
AcDbCircle
 62
7
  6
CONTINUOUS
 10
13.5595132594
 20
25.3778046044
 40
6.6709322769
100
AcDbArc
 50
326.0783586729
 51
326.6479654892
  0
ARC
  5
7C3
100
AcDbEntity
  8
RACCORDO
100
AcDbCircle
 62
7
  6
CONTINUOUS
 10
14.1742654895
 20
24.9692787508
 40
5.93282996
100
AcDbArc
 50
326.0390301802
 51
327.083906054
  0
ARC
  5
7C4
100
AcDbEntity
  8
ASSI
100
AcDbCircle
 62
7
  6
CONTINUOUS
 10
14.5954043358
 20
24.6952483168
 40
5.4303868651
100
AcDbArc
 50
326.6546242159
 51
327.0964448352
  0
ARC
  5
7C5
100
AcDbEntity
  8
DRAFT
100
AcDbCircle
 62
7
  6
CONTINUOUS
 10
18.0
 20
14.0
 40
0.4174550649
100
AcDbArc
 50
270.0
 51
90.0
  0
ARC
  5
7C6
100
AcDbEntity
  8
DRAFT
100
AcDbCircle
 62
7
  6
CONTINUOUS
 10
14.0
 20
14.0
 40
0.4174550649
100
AcDbArc
 50
90.0
 51
270.0
  0
ARC
  5
7C7
100
AcDbEntity
  8
RACCORDO
100
AcDbCircle
 62
7
  6
CONTINUOUS
 10
19.7510705959
 20
24.2498635646
 40
0.2510706353
100
AcDbArc
 50
165.0324692448
 51
179.9678991484
  0
ARC
  5
7C8
100
AcDbEntity
  8
RACCORDO
100
AcDbCircle
 62
7
  6
CONTINUOUS
 10
21.6498635646
 20
24.2489294041
 40
0.2510706353
100
AcDbArc
 50
75.0324692448
 51
89.9678991484
  0
ARC
  5
7C9
100
AcDbEntity
  8
ASSI
100
AcDbCircle
 62
7
  6
CONTINUOUS
 10
21.6498635646
 20
24.2489294041
 40
0.2510706353
100
AcDbArc
 50
75.0324692448
 51
89.9678991484
  0
ARC
  5
7CA
100
AcDbEntity
  8
ASSI
100
AcDbCircle
 62
7
  6
CONTINUOUS
 10
19.7510705959
 20
24.2498635646
 40
0.2510706353
100
AcDbArc
 50
165.0324692448
 51
179.9678991484
  0
ARC
  5
7CB
100
AcDbEntity
  8
ASSI
100
AcDbCircle
 62
7
  6
CONTINUOUS
 10
21.6494814059
 20
24.2494814059
 40
0.2507314835
100
AcDbArc
 50
39.0176645863
 51
50.9823354137
  0
ARC
  5
7CC
100
AcDbEntity
  8
ASSI
100
AcDbCircle
 62
7
  6
CONTINUOUS
 10
19.7505185941
 20
24.2494814059
 40
0.2507314835
100
AcDbArc
 50
129.0176645863
 51
140.9823354137
  0
ARC
  5
7CD
100
AcDbEntity
  8
RACCORDO
100
AcDbCircle
 62
250
  6
CONTINUOUS
 10
19.7543778172
 20
24.2456221828
 40
0.2500059834
100
AcDbArc
 50
90.0023408259
 51
179.9976591741
  0
ARC
  5
7CE
100
AcDbEntity
  8
RACCORDO
100
AcDbCircle
 62
250
  6
CONTINUOUS
 10
21.6456221828
 20
24.2456221828
 40
0.2500059834
100
AcDbArc
 50
0.0023408259
 51
89.9976591741
  0
ARC
  5
7CF
100
AcDbEntity
  8
ASSI
100
AcDbCircle
 62
7
  6
CONTINUOUS
 10
21.6456221828
 20
24.2456221828
 40
0.2500059834
100
AcDbArc
 50
0.0023408259
 51
89.9976591741
  0
ARC
  5
7D0
100
AcDbEntity
  8
ASSI
100
AcDbCircle
 62
7
  6
CONTINUOUS
 10
19.7543778172
 20
24.2456221828
 40
0.2500059834
100
AcDbArc
 50
90.0023408259
 51
179.9976591741
  0
ARC
  5
7D1
100
AcDbEntity
  8
ASSI
100
AcDbCircle
 62
7
  6
CONTINUOUS
 10
21.6500023964
 20
24.2500041641
 40
0.2499976036
100
AcDbArc
 50
0.0000152811
 51
38.9997507286
  0
ARC
  5
7D2
100
AcDbEntity
  8
ASSI
100
AcDbCircle
 62
7
  6
CONTINUOUS
 10
19.7499958359
 20
24.2500023964
 40
0.2499976036
100
AcDbArc
 50
90.0000152811
 51
128.9997507286
  0
ARC
  5
7D3
100
AcDbEntity
  8
RACCORDO
100
AcDbCircle
 62
7
  6
CONTINUOUS
 10
19.749911024
 20
24.2500307339
 40
0.249907268
100
AcDbArc
 50
89.9999322269
 51
165.0008332588
  0
ARC
  5
7D4
100
AcDbEntity
  8
RACCORDO
100
AcDbCircle
 62
7
  6
CONTINUOUS
 10
21.6500307339
 20
24.250088976
 40
0.249907268
100
AcDbArc
 50
359.9999322269
 51
75.000833259
  0
SPLINE
  5
7D5
100
AcDbEntity
  8
RACCORDO
100
AcDbSpline
 62
7
  6
CONTINUOUS
 70
0
 71
3
 72
9
 73
5
 74
0
 42
0.0000001
 43
0.0000001
 44
0.0000000001
 40
0.0
 40
0.0
 40
0.0
 40
0.0
 40
0.2500345585
 40
1.0
 40
1.0
 40
1.0
 40
1.0
 10
1.924808741
 20
-13.358732578
 30
0.0
 10
2.0040219952
 20
-13.366515193
 30
0.0
 10
2.3213532251
 20
-13.3924082674
 30
0.0
 10
2.6399397031
 20
-13.4
 30
0.0
 10
2.8786796564
 20
-13.4
 30
0.0
  0
SPLINE
  5
7D6
100
AcDbEntity
  8
RACCORDO
100
AcDbSpline
 62
250
  6
CONTINUOUS
 70
0
 71
3
 72
13
 73
9
 74
0
 42
0.0000001
 43
0.0000001
 44
0.0000000001
 40
0.0
 40
0.0
 40
0.0
 40
0.0
 40
0.0775993174
 40
0.1597511677
 40
0.2553943247
 40
0.3687349966
 40
0.6519933318
 40
1.0
 40
1.0
 40
1.0
 40
1.0
 10
3.55
 20
3.725522884
 30
0.0
 10
3.549928511
 20
3.7511034646
 30
0.0
 10
3.5403162501
 20
3.8043313437
 30
0.0
 10
3.4952698308
 20
3.8772394954
 30
0.0
 10
3.4233708019
 20
3.9421519106
 30
0.0
 10
3.2828847325
 20
4.0249128099
 30
0.0
 10
3.0461835248
 20
4.0987159899
 30
0.0
 10
2.8398867541
 20
4.129078056
 30
0.0
 10
2.7255834426
 20
4.1388550764
 30
0.0
  0
SPLINE
  5
7D7
100
AcDbEntity
  8
RACCORDO
100
AcDbSpline
 62
250
  6
CONTINUOUS
 70
0
 71
3
 72
11
 73
7
 74
0
 42
0.0000001
 43
0.0000001
 44
0.0000000001
 40
0.0
 40
0.0
 40
0.0
 40
0.0
 40
0.2263956956
 40
0.4660028709
 40
0.7237817862
 40
1.0
 40
1.0
 40
1.0
 40
1.0
 10
8.8323801848
 20
-16.0349653124
 30
0.0
 10
8.8463874077
 20
-16.0723599609
 30
0.0
 10
8.8665388419
 20
-16.1529573946
 30
0.0
 10
8.8665283286
 20
-16.2818772547
 30
0.0
 10
8.83371812
 20
-16.4155560588
 30
0.0
 10
8.7916508038
 20
-16.5006803842
 30
0.0
 10
8.7661302718
 20
-16.5421811596
 30
0.0
  0
SPLINE
  5
7D8
100
AcDbEntity
  8
RACCORDO
100
AcDbSpline
 62
250
  6
CONTINUOUS
 70
0
 71
3
 72
11
 73
7
 74
0
 42
0.0000001
 43
0.0000001
 44
0.0000000001
 40
0.0
 40
0.0
 40
0.0
 40
0.0
 40
0.2293134251
 40
0.4689915091
 40
0.7252817238
 40
1.0
 40
1.0
 40
1.0
 40
1.0
 10
12.271301637
 20
-16.0601229151
 30
0.0
 10
12.2578761444
 20
-16.0978127624
 30
0.0
 10
12.2385061927
 20
-16.1781222037
 30
0.0
 10
12.2381882403
 20
-16.3058372841
 30
0.0
 10
12.2696282061
 20
-16.4377688886
 30
0.0
 10
12.3104103046
 20
-16.5217966411
 30
0.0
 10
12.3352221292
 20
-16.5628065899
 30
0.0
  0
SPLINE
  5
7D9
100
AcDbEntity
  8
RACCORDO
100
AcDbSpline
 62
250
  6
CONTINUOUS
 70
0
 71
3
 72
11
 73
7
 74
0
 42
0.0000001
 43
0.0000001
 44
0.0000000001
 40
0.0
 40
0.0
 40
0.0
 40
0.0
 40
0.2771646218
 40
0.5362048063
 40
0.7760643769
 40
1.0
 40
1.0
 40
1.0
 40
1.0
 10
8.7662702207
 20
-13.6579125251
 30
0.0
 10
8.7918960897
 20
-13.6995402603
 30
0.0
 10
8.8341900656
 20
-13.7849724978
 30
0.0
 10
8.86736408
 20
-13.9189946143
 30
0.0
 10
8.867518676
 20
-14.047774277
 30
0.0
 10
8.8469144327
 20
-14.127938508
 30
0.0
 10
8.8325066818
 20
-14.164711917
 30
0.0
  0
SPLINE
  5
7DA
100
AcDbEntity
  8
RACCORDO
100
AcDbSpline
 62
250
  6
CONTINUOUS
 70
0
 71
3
 72
11
 73
7
 74
0
 42
0.0000001
 43
0.0000001
 44
0.0000000001
 40
0.0
 40
0.0
 40
0.0
 40
0.0
 40
0.2752986
 40
0.5320456122
 40
0.7716192642
 40
1.0
 40
1.0
 40
1.0
 40
1.0
 10
12.335098417
 20
-13.6372759296
 30
0.0
 10
12.310195402
 20
-13.6783967964
 30
0.0
 10
12.2692600409
 20
-13.7626404949
 30
0.0
 10
12.23770918
 20
-13.8948400886
 30
0.0
 10
12.2381534232
 20
-14.0225834148
 30
0.0
 10
12.2578219237
 20
-14.1027285338
 30
0.0
 10
12.271423281
 20
-14.140218248
 30
0.0
  0
SPLINE
  5
7DB
100
AcDbEntity
  8
0
100
AcDbSpline
 62
250
  6
CONTINUOUS
 70
0
 71
3
 72
9
 73
5
 74
0
 42
0.0000001
 43
0.0000001
 44
0.0000000001
 40
0.0
 40
0.0
 40
0.0
 40
0.0
 40
0.5440152703
 40
1.0
 40
1.0
 40
1.0
 40
1.0
 10
16.4759856545
 20
0.0440945307
 30
0.0
 10
16.7771670908
 20
0.024192029
 30
0.0
 10
17.3299894687
 20
-0.025506416
 30
0.0
 10
17.8792178933
 20
-0.1092555045
 30
0.0
 10
18.1268630004
 20
-0.1610131408
 30
0.0
  0
SPLINE
  5
7DC
100
AcDbEntity
  8
0
100
AcDbSpline
 62
250
  6
CONTINUOUS
 70
0
 71
3
 72
9
 73
5
 74
0
 42
0.0000001
 43
0.0000001
 44
0.0000000001
 40
0.0
 40
0.0
 40
0.0
 40
0.0
 40
0.2572700535
 40
1.0
 40
1.0
 40
1.0
 40
1.0
 10
16.4757607748
 20
2.376755202
 30
0.0
 10
16.5843414503
 20
2.3721524521
 30
0.0
 10
17.0062943916
 20
2.352112024
 30
0.0
 10
17.4278501541
 20
2.3232829196
 30
0.0
 10
17.7404153265
 20
2.2960389485
 30
0.0
  0
SPLINE
  5
7DD
100
AcDbEntity
  8
0
100
AcDbSpline
 62
7
  6
CONTINUOUS
 70
0
 71
3
 72
9
 73
5
 74
0
 42
0.0000001
 43
0.0000001
 44
0.0000000001
 40
0.0
 40
0.0
 40
0.0
 40
0.0
 40
0.6300650547
 40
1.0
 40
1.0
 40
1.0
 40
1.0
 10
18.05
 20
3.9908130619
 30
0.0
 10
18.0664456891
 20
3.9908130619
 30
0.0
 10
18.092548588
 20
3.9868093141
 30
0.0
 10
18.1173590294
 20
3.9776666341
 30
0.0
 10
18.1255539931
 20
3.9725599066
 30
0.0
  0
SPLINE
  5
7DE
100
AcDbEntity
  8
0
100
AcDbSpline
 62
7
  6
CONTINUOUS
 70
0
 71
3
 72
9
 73
5
 74
0
 42
0.0000001
 43
0.0000001
 44
0.0000000001
 40
0.0
 40
0.0
 40
0.0
 40
0.0
 40
0.3593123626
 40
1.0
 40
1.0
 40
1.0
 40
1.0
 10
18.1255539931
 20
3.9725599066
 30
0.0
 10
18.1268871092
 20
3.9717291695
 30
0.0
 10
18.1305053729
 20
3.9692747646
 30
0.0
 10
18.1339975277
 20
3.9666252507
 30
0.0
 10
18.1360853555
 20
3.9647582642
 30
0.0
  0
SPLINE
  5
7DF
100
AcDbEntity
  8
0
100
AcDbSpline
 62
7
  6
CONTINUOUS
 70
0
 71
3
 72
8
 73
4
 74
0
 42
0.0000001
 43
0.0000001
 44
0.0000000001
 40
0.0
 40
0.0
 40
0.0
 40
0.0
 40
1.0
 40
1.0
 40
1.0
 40
1.0
 10
4.0148715249
 20
5.8431582181
 30
0.0
 10
4.0265126906
 20
5.8416727747
 30
0.0
 10
4.0382644438
 20
5.8408130619
 30
0.0
 10
4.05
 20
5.8408130619
 30
0.0
  0
SPLINE
  5
7E0
100
AcDbEntity
  8
0
100
AcDbSpline
 62
7
  6
CONTINUOUS
 70
0
 71
3
 72
9
 73
5
 74
0
 42
0.0000001
 43
0.0000001
 44
0.0000000001
 40
0.0
 40
0.0
 40
0.0
 40
0.0
 40
0.5031204169
 40
1.0
 40
1.0
 40
1.0
 40
1.0
 10
3.036705221
 20
14.2944576964
 30
0.0
 10
3.1700061636
 20
14.203670683
 30
0.0
 10
3.4173395338
 20
13.9956222911
 30
0.0
 10
3.6140988943
 20
13.7386709977
 30
0.0
 10
3.6957295588
 20
13.6018990878
 30
0.0
  0
SPLINE
  5
7E1
100
AcDbEntity
  8
0
100
AcDbSpline
 62
250
  6
CONTINUOUS
 70
0
 71
3
 72
9
 73
5
 74
0
 42
0.0000001
 43
0.0000001
 44
0.0000000001
 40
0.0
 40
0.0
 40
0.0
 40
0.0
 40
0.2557061106
 40
1.0
 40
1.0
 40
1.0
 40
1.0
 10
3.950375482
 20
5.6003042549
 30
0.0
 10
3.9544062876
 20
5.6103847988
 30
0.0
 10
3.9684474761
 20
5.6504659076
 30
0.0
 10
3.9750135789
 20
5.693229455
 30
0.0
 10
3.9750344452
 20
5.7248300484
 30
0.0
  0
SPLINE
  5
7E2
100
AcDbEntity
  8
0
100
AcDbSpline
 62
250
  6
CONTINUOUS
 70
0
 71
3
 72
9
 73
5
 74
0
 42
0.0000001
 43
0.0000001
 44
0.0000000001
 40
0.0
 40
0.0
 40
0.0
 40
0.0
 40
0.4453404602
 40
1.0
 40
1.0
 40
1.0
 40
1.0
 10
3.9083394288
 20
12.39894191
 30
0.0
 10
3.8370293311
 20
12.2944214511
 30
0.0
 10
3.5857088726
 20
12.1282683339
 30
0.0
 10
3.3039748494
 20
12.0704455259
 30
0.0
 10
3.1466821957
 20
12.0607889296
 30
0.0
  0
SPLINE
  5
7E3
100
AcDbEntity
  8
0
100
AcDbSpline
 62
250
  6
CONTINUOUS
 70
0
 71
3
 72
9
 73
5
 74
0
 42
0.0000001
 43
0.0000001
 44
0.0000000001
 40
0.0
 40
0.0
 40
0.0
 40
0.0
 40
0.253537262
 40
1.0
 40
1.0
 40
1.0
 40
1.0
 10
2.9533122809
 20
12.0607578707
 30
0.0
 10
2.9326623785
 20
12.0620207077
 30
0.0
 10
2.8513268751
 20
12.0686157178
 30
0.0
 10
2.7704857232
 20
12.0817902108
 30
0.0
 10
2.7111803494
 20
12.0956829762
 30
0.0
  0
SPLINE
  5
7E4
100
AcDbEntity
  8
0
100
AcDbSpline
 62
250
  6
CONTINUOUS
 70
0
 71
3
 72
9
 73
5
 74
0
 42
0.0000001
 43
0.0000001
 44
0.0000000001
 40
0.0
 40
0.0
 40
0.0
 40
0.0
 40
0.2773431118
 40
1.0
 40
1.0
 40
1.0
 40
1.0
 10
18.211665297
 20
3.8442945443
 30
0.0
 10
18.2017026075
 20
3.8533238073
 30
0.0
 10
18.1675630689
 20
3.88760698
 30
0.0
 10
18.1411669824
 20
3.9309061288
 30
0.0
 10
18.1319572954
 20
3.9647082431
 30
0.0
  0
SPLINE
  5
7E5
100
AcDbEntity
  8
0
100
AcDbSpline
 62
250
  6
CONTINUOUS
 70
0
 71
3
 72
9
 73
5
 74
0
 42
0.0000001
 43
0.0000001
 44
0.0000000001
 40
0.0
 40
0.0
 40
0.0
 40
0.0
 40
0.2712759339
 40
1.0
 40
1.0
 40
1.0
 40
1.0
 10
18.3228861722
 20
3.7683438442
 30
0.0
 10
18.3121343515
 20
3.7740966579
 30
0.0
 10
18.2730316818
 20
3.796228022
 30
0.0
 10
18.2359370035
 20
3.8222969077
 30
0.0
 10
18.211665297
 20
3.8442945443
 30
0.0
  0
SPLINE
  5
7E6
100
AcDbEntity
  8
0
100
AcDbSpline
 62
7
  6
CONTINUOUS
 70
0
 71
3
 72
8
 73
4
 74
0
 42
0.0000001
 43
0.0000001
 44
0.0000000001
 40
0.0
 40
0.0
 40
0.0
 40
0.0
 40
1.0
 40
1.0
 40
1.0
 40
1.0
 10
16.037023167
 20
6.4003951025
 30
0.0
 10
16.1758223966
 20
6.235732005
 30
0.0
 10
16.2879269242
 20
6.0442326954
 30
0.0
 10
16.3620549193
 20
5.8420342727
 30
0.0
  0
SPLINE
  5
7E7
100
AcDbEntity
  8
ASSI
100
AcDbSpline
 62
7
  6
CONTINUOUS
 70
0
 71
3
 72
10
 73
6
 74
0
 42
0.0000001
 43
0.0000001
 44
0.0000000001
 40
0.0
 40
0.0
 40
0.0
 40
0.0
 40
0.3333333333
 40
0.6666666667
 40
1.0
 40
1.0
 40
1.0
 40
1.0
 10
9.8
 20
-16.2319660113
 30
0.0
 10
9.8
 20
-16.5051532508
 30
0.0
 10
9.6708621836
 20
-17.0515149978
 30
0.0
 10
9.1137047301
 20
-17.6843600687
 30
0.0
 10
8.5720997965
 20
-17.85
 30
0.0
 10
8.3
 20
-17.85
 30
0.0
  0
SPLINE
  5
7E8
100
AcDbEntity
  8
ASSI
100
AcDbSpline
 62
7
  6
CONTINUOUS
 70
0
 71
3
 72
10
 73
6
 74
0
 42
0.0000001
 43
0.0000001
 44
0.0000000001
 40
0.0
 40
0.0
 40
0.0
 40
0.0
 40
0.3333333333
 40
0.6666666667
 40
1.0
 40
1.0
 40
1.0
 40
1.0
 10
1.9
 20
-17.85
 30
0.0
 10
1.6279002035
 20
-17.85
 30
0.0
 10
1.0862952699
 20
-17.6843600687
 30
0.0
 10
0.5291378164
 20
-17.0515149978
 30
0.0
 10
0.4
 20
-16.5051532508
 30
0.0
 10
0.4
 20
-16.2319660113
 30
0.0
  0
SPLINE
  5
7E9
100
AcDbEntity
  8
ASSI
100
AcDbSpline
 62
7
  6
CONTINUOUS
 70
0
 71
3
 72
10
 73
6
 74
0
 42
0.0000001
 43
0.0000001
 44
0.0000000001
 40
0.0
 40
0.0
 40
0.0
 40
0.0
 40
0.3333333333
 40
0.6666666667
 40
1.0
 40
1.0
 40
1.0
 40
1.0
 10
0.4
 20
-13.9680339887
 30
0.0
 10
0.4
 20
-13.6948467492
 30
0.0
 10
0.5291378164
 20
-13.1484850022
 30
0.0
 10
1.0862952699
 20
-12.5156399313
 30
0.0
 10
1.6279002035
 20
-12.35
 30
0.0
 10
1.9
 20
-12.35
 30
0.0
  0
SPLINE
  5
7EA
100
AcDbEntity
  8
ASSI
100
AcDbSpline
 62
7
  6
CONTINUOUS
 70
0
 71
3
 72
10
 73
6
 74
0
 42
0.0000001
 43
0.0000001
 44
0.0000000001
 40
0.0
 40
0.0
 40
0.0
 40
0.0
 40
0.3333333333
 40
0.6666666667
 40
1.0
 40
1.0
 40
1.0
 40
1.0
 10
8.3
 20
-12.35
 30
0.0
 10
8.5720997965
 20
-12.35
 30
0.0
 10
9.1137047301
 20
-12.5156399313
 30
0.0
 10
9.6708621836
 20
-13.1484850022
 30
0.0
 10
9.8
 20
-13.6948467492
 30
0.0
 10
9.8
 20
-13.9680339887
 30
0.0
  0
SPLINE
  5
7EB
100
AcDbEntity
  8
DRAFT
100
AcDbSpline
 62
7
  6
CONTINUOUS
 70
0
 71
3
 72
12
 73
8
 74
0
 42
0.0000001
 43
0.0000001
 44
0.0000000001
 40
0.0
 40
0.0
 40
0.0
 40
0.0
 40
0.249092306
 40
0.3742064505
 40
0.4993299435
 40
0.7493066667
 40
1.0
 40
1.0
 40
1.0
 40
1.0
 10
12.8
 20
-17.85
 30
0.0
 10
12.5976251966
 20
-17.85
 30
0.0
 10
12.2891448511
 20
-17.7796531566
 30
0.0
 10
11.9390189028
 20
-17.5707683933
 30
0.0
 10
11.6381947273
 20
-17.293570818
 30
0.0
 10
11.3716881662
 20
-16.8460387382
 30
0.0
 10
11.3
 20
-16.4356415677
 30
0.0
 10
11.3
 20
-16.2319660113
 30
0.0
  0
SPLINE
  5
7EC
100
AcDbEntity
  8
DRAFT
100
AcDbSpline
 62
7
  6
CONTINUOUS
 70
0
 71
3
 72
12
 73
8
 74
0
 42
0.0000001
 43
0.0000001
 44
0.0000000001
 40
0.0
 40
0.0
 40
0.0
 40
0.0
 40
0.2506933333
 40
0.5006700565
 40
0.6257935495
 40
0.750907694
 40
1.0
 40
1.0
 40
1.0
 40
1.0
 10
11.3
 20
-13.9680339887
 30
0.0
 10
11.3
 20
-13.7643584323
 30
0.0
 10
11.3716881662
 20
-13.3539612618
 30
0.0
 10
11.6381947273
 20
-12.906429182
 30
0.0
 10
11.9390189028
 20
-12.6292316067
 30
0.0
 10
12.2891448511
 20
-12.4203468434
 30
0.0
 10
12.5976251966
 20
-12.35
 30
0.0
 10
12.8
 20
-12.35
 30
0.0
  0
LINE
  5
7ED
100
AcDbEntity
  8
DRAFT
100
AcDbLine
 62
7
  6
CONTINUOUS
 10
10.55
 20
-17.3216907471
 11
10.55
 21
-17.2390251296
  0
SPLINE
  5
7EE
100
AcDbEntity
  8
DRAFT
100
AcDbSpline
 62
7
  6
CONTINUOUS
 70
0
 71
3
 72
12
 73
8
 74
0
 42
0.0000001
 43
0.0000001
 44
0.0000000001
 40
0.0
 40
0.0
 40
0.0
 40
0.0
 40
0.249092306
 40
0.3742064505
 40
0.4993299435
 40
0.7493066667
 40
1.0
 40
1.0
 40
1.0
 40
1.0
 10
19.2
 20
-12.35
 30
0.0
 10
19.4023748034
 20
-12.35
 30
0.0
 10
19.7108551489
 20
-12.4203468434
 30
0.0
 10
20.0609810972
 20
-12.6292316067
 30
0.0
 10
20.3618052727
 20
-12.906429182
 30
0.0
 10
20.6283118338
 20
-13.3539612618
 30
0.0
 10
20.7
 20
-13.7643584323
 30
0.0
 10
20.7
 20
-13.9680339887
 30
0.0
  0
LINE
  5
7EF
100
AcDbEntity
  8
DRAFT
100
AcDbLine
 62
7
  6
CONTINUOUS
 10
10.55
 20
-12.8783092529
 11
10.55
 21
-12.9609748704
  0
SPLINE
  5
7F0
100
AcDbEntity
  8
DRAFT
100
AcDbSpline
 62
7
  6
CONTINUOUS
 70
0
 71
3
 72
12
 73
8
 74
0
 42
0.0000001
 43
0.0000001
 44
0.0000000001
 40
0.0
 40
0.0
 40
0.0
 40
0.0
 40
0.2506933333
 40
0.5006700565
 40
0.6257935495
 40
0.750907694
 40
1.0
 40
1.0
 40
1.0
 40
1.0
 10
20.7
 20
-16.2319660113
 30
0.0
 10
20.7
 20
-16.4356415677
 30
0.0
 10
20.6283118338
 20
-16.8460387382
 30
0.0
 10
20.3618052727
 20
-17.293570818
 30
0.0
 10
20.0609810972
 20
-17.5707683933
 30
0.0
 10
19.7108551489
 20
-17.7796531566
 30
0.0
 10
19.4023748034
 20
-17.85
 30
0.0
 10
19.2
 20
-17.85
 30
0.0
  0
SPLINE
  5
7F1
100
AcDbEntity
  8
DRAFT
100
AcDbSpline
 62
7
  6
CONTINUOUS
 70
0
 71
3
 72
12
 73
8
 74
0
 42
0.0000001
 43
0.0000001
 44
0.0000000001
 40
0.0
 40
0.0
 40
0.0
 40
0.0
 40
0.2494197117
 40
0.3748524845
 40
0.500287702
 40
0.7500590841
 40
1.0
 40
1.0
 40
1.0
 40
1.0
 10
12.8
 20
-17.8849101299
 30
0.0
 10
12.5928222577
 20
-17.8849101299
 30
0.0
 10
12.2768869515
 20
-17.812996126
 30
0.0
 10
11.9181618292
 20
-17.5991174404
 30
0.0
 10
11.6103769862
 20
-17.3154291673
 30
0.0
 10
11.3381399907
 20
-16.8583716117
 30
0.0
 10
11.2650898701
 20
-16.4395766861
 30
0.0
 10
11.2650898701
 20
-16.2319660113
 30
0.0
  0
SPLINE
  5
7F2
100
AcDbEntity
  8
DRAFT
100
AcDbSpline
 62
7
  6
CONTINUOUS
 70
0
 71
3
 72
12
 73
8
 74
0
 42
0.0000001
 43
0.0000001
 44
0.0000000001
 40
0.0
 40
0.0
 40
0.0
 40
0.0
 40
0.2499460672
 40
0.4997220401
 40
0.6251570834
 40
0.7505858872
 40
1.0
 40
1.0
 40
1.0
 40
1.0
 10
11.2650898701
 20
-13.9680339887
 30
0.0
 10
11.2650898701
 20
-13.7604189878
 30
0.0
 10
11.3381406653
 20
-13.3416147024
 30
0.0
 10
11.6103901523
 20
-12.8845550958
 30
0.0
 10
11.9181765684
 20
-12.6008673527
 30
0.0
 10
12.2769016031
 20
-12.3870043639
 30
0.0
 10
12.5928268613
 20
-12.3150898701
 30
0.0
 10
12.8
 20
-12.3150898701
 30
0.0
  0
SPLINE
  5
7F3
100
AcDbEntity
  8
DRAFT
100
AcDbSpline
 62
7
  6
CONTINUOUS
 70
0
 71
3
 72
12
 73
8
 74
0
 42
0.0000001
 43
0.0000001
 44
0.0000000001
 40
0.0
 40
0.0
 40
0.0
 40
0.0
 40
0.2494197117
 40
0.3748524845
 40
0.500287702
 40
0.7500590841
 40
1.0
 40
1.0
 40
1.0
 40
1.0
 10
19.2
 20
-12.3150898701
 30
0.0
 10
19.4071777423
 20
-12.3150898701
 30
0.0
 10
19.7231130485
 20
-12.387003874
 30
0.0
 10
20.0818381708
 20
-12.6008825596
 30
0.0
 10
20.3896230138
 20
-12.8845708327
 30
0.0
 10
20.6618600093
 20
-13.3416283883
 30
0.0
 10
20.7349101299
 20
-13.7604233139
 30
0.0
 10
20.7349101299
 20
-13.9680339887
 30
0.0
  0
SPLINE
  5
7F4
100
AcDbEntity
  8
DRAFT
100
AcDbSpline
 62
7
  6
CONTINUOUS
 70
0
 71
3
 72
12
 73
8
 74
0
 42
0.0000001
 43
0.0000001
 44
0.0000000001
 40
0.0
 40
0.0
 40
0.0
 40
0.0
 40
0.2499460672
 40
0.4997220401
 40
0.6251570834
 40
0.7505858872
 40
1.0
 40
1.0
 40
1.0
 40
1.0
 10
20.7349101299
 20
-16.2319660113
 30
0.0
 10
20.7349101299
 20
-16.4395810122
 30
0.0
 10
20.6618593347
 20
-16.8583852976
 30
0.0
 10
20.3896098477
 20
-17.3154449042
 30
0.0
 10
20.0818234316
 20
-17.5991326473
 30
0.0
 10
19.7230983969
 20
-17.8129956361
 30
0.0
 10
19.4071731387
 20
-17.8849101299
 30
0.0
 10
19.2
 20
-17.8849101299
 30
0.0
  0
SPLINE
  5
7F5
100
AcDbEntity
  8
RACCORDO
100
AcDbSpline
 62
250
  6
CONTINUOUS
 70
0
 71
3
 72
13
 73
9
 74
0
 42
0.0000001
 43
0.0000001
 44
0.0000000001
 40
0.0
 40
0.0
 40
0.0
 40
0.0
 40
0.1162401412
 40
0.2339779602
 40
0.3543714643
 40
0.4780981267
 40
0.7345386771
 40
1.0
 40
1.0
 40
1.0
 40
1.0
 10
19.504371834
 20
23.8443375673
 30
0.0
 10
19.5044193605
 20
23.830187777
 30
0.0
 10
19.5077776477
 20
23.8016147644
 30
0.0
 10
19.5223349985
 20
23.7606546878
 30
0.0
 10
19.5458054152
 20
23.722982847
 30
0.0
 10
19.5881078067
 20
23.6786204663
 30
0.0
 10
19.658034724
 20
23.6387874704
 30
0.0
 10
19.7220531955
 20
23.6279126226
 30
0.0
 10
19.7543676032
 20
23.6278312164
 30
0.0
  0
SPLINE
  5
7F6
100
AcDbEntity
  8
RACCORDO
100
AcDbSpline
 62
250
  6
CONTINUOUS
 70
0
 71
3
 72
13
 73
9
 74
0
 42
0.0000001
 43
0.0000001
 44
0.0000000001
 40
0.0
 40
0.0
 40
0.0
 40
0.0
 40
0.1162399785
 40
0.2339778175
 40
0.354371331
 40
0.4780980182
 40
0.7345386242
 40
1.0
 40
1.0
 40
1.0
 40
1.0
 10
21.895628166
 20
23.8443375673
 30
0.0
 10
21.8955806396
 20
23.8301877968
 30
0.0
 10
21.8922223551
 20
23.8016148028
 30
0.0
 10
21.8776650278
 20
23.7606547352
 30
0.0
 10
21.8541946141
 20
23.7229828841
 30
0.0
 10
21.811892224
 20
23.6786204872
 30
0.0
 10
21.7419652956
 20
23.6387874753
 30
0.0
 10
21.6779468109
 20
23.6279126226
 30
0.0
 10
21.6456323968
 20
23.6278312164
 30
0.0
  0
SPLINE
  5
7F7
100
AcDbEntity
  8
RACCORDO
100
AcDbSpline
 62
250
  6
CONTINUOUS
 70
0
 71
3
 72
13
 73
9
 74
0
 42
0.0000001
 43
0.0000001
 44
0.0000000001
 40
0.0
 40
0.0
 40
0.0
 40
0.0
 40
0.1162401412
 40
0.2339779602
 40
0.3543714643
 40
0.4780981267
 40
0.7345386771
 40
1.0
 40
1.0
 40
1.0
 40
1.0
 10
0.604371834
 20
23.8443375673
 30
0.0
 10
0.6044193605
 20
23.830187777
 30
0.0
 10
0.6077776477
 20
23.8016147644
 30
0.0
 10
0.6223349985
 20
23.7606546878
 30
0.0
 10
0.6458054152
 20
23.722982847
 30
0.0
 10
0.6881078067
 20
23.6786204663
 30
0.0
 10
0.758034724
 20
23.6387874704
 30
0.0
 10
0.8220531955
 20
23.6279126226
 30
0.0
 10
0.8543676032
 20
23.6278312164
 30
0.0
  0
SPLINE
  5
7F8
100
AcDbEntity
  8
RACCORDO
100
AcDbSpline
 62
250
  6
CONTINUOUS
 70
0
 71
3
 72
13
 73
9
 74
0
 42
0.0000001
 43
0.0000001
 44
0.0000000001
 40
0.0
 40
0.0
 40
0.0
 40
0.0
 40
0.1162399785
 40
0.2339778175
 40
0.354371331
 40
0.4780980182
 40
0.7345386242
 40
1.0
 40
1.0
 40
1.0
 40
1.0
 10
2.995628166
 20
23.8443375673
 30
0.0
 10
2.9955806396
 20
23.8301877968
 30
0.0
 10
2.9922223551
 20
23.8016148028
 30
0.0
 10
2.9776650278
 20
23.7606547352
 30
0.0
 10
2.9541946141
 20
23.7229828841
 30
0.0
 10
2.911892224
 20
23.6786204872
 30
0.0
 10
2.8419652956
 20
23.6387874753
 30
0.0
 10
2.7779468109
 20
23.6279126226
 30
0.0
 10
2.7456323968
 20
23.6278312164
 30
0.0
  0
SPLINE
  5
7F9
100
AcDbEntity
  8
ASSI
100
AcDbSpline
 62
7
  6
CONTINUOUS
 70
0
 71
3
 72
20
 73
16
 74
0
 42
0.0000001
 43
0.0000001
 44
0.0000000001
 40
0.0
 40
0.0
 40
0.0
 40
0.0
 40
0.1613586105
 40
0.320535217
 40
0.4750153704
 40
0.6215160865
 40
0.690400882
 40
0.755396962
 40
0.815569195
 40
0.8697846629
 40
0.9167111097
 40
0.9548782777
 40
0.9828745488
 40
0.9927755443
 40
1.0
 40
1.0
 40
1.0
 40
1.0
 10
-15.1779699877
 20
23.2563578147
 30
0.0
 10
-15.2019115908
 20
23.2822358662
 30
0.0
 10
-15.2494711812
 20
23.3336418942
 30
0.0
 10
-15.3198348114
 20
23.4099310531
 30
0.0
 10
-15.387743856
 20
23.4840673253
 30
0.0
 10
-15.4419648801
 20
23.5439882946
 30
0.0
 10
-15.4826834175
 20
23.5897567165
 30
0.0
 10
-15.5106198946
 20
23.6216493064
 30
0.0
 10
-15.5361297066
 20
23.6514062178
 30
0.0
 10
-15.5586450179
 20
23.6785202507
 30
0.0
 10
-15.5775459126
 20
23.7023946825
 30
0.0
 10
-15.5920685878
 20
23.7223678204
 30
0.0
 10
-15.6009648719
 20
23.7364895242
 30
0.0
 10
-15.604943343
 20
23.7455118418
 30
0.0
 10
-15.6058718514
 20
23.7491961649
 30
0.0
 10
-15.6059327327
 20
23.7507734247
 30
0.0
  0
SPLINE
  5
7FA
100
AcDbEntity
  8
ASSI
100
AcDbSpline
 62
7
  6
CONTINUOUS
 70
0
 71
3
 72
12
 73
8
 74
0
 42
0.0000001
 43
0.0000001
 44
0.0000000001
 40
0.0
 40
0.0
 40
0.0
 40
0.0
 40
0.0568655378
 40
0.1332627045
 40
0.3472465846
 40
0.6391021178
 40
1.0
 40
1.0
 40
1.0
 40
1.0
 10
-14.75
 20
23.7511422903
 30
0.0
 10
-14.75
 20
23.7497991009
 30
0.0
 10
-14.750639955
 20
23.7466681733
 30
0.0
 10
-14.7536725287
 20
23.7390402032
 30
0.0
 10
-14.760722811
 20
23.7271565522
 30
0.0
 10
-14.7724380589
 20
23.7103801219
 30
0.0
 10
-14.7818403182
 20
23.6981481812
 30
0.0
 10
-14.7871153079
 20
23.6914517067
 30
0.0
  0
SPLINE
  5
7FB
100
AcDbEntity
  8
ASSI
100
AcDbSpline
 62
7
  6
CONTINUOUS
 70
0
 71
3
 72
12
 73
8
 74
0
 42
0.0000001
 43
0.0000001
 44
0.0000000001
 40
0.0
 40
0.0
 40
0.0
 40
0.0
 40
0.0953761876
 40
0.2050957172
 40
0.4527209148
 40
0.721835338
 40
1.0
 40
1.0
 40
1.0
 40
1.0
 10
-14.7943486204
 20
23.6823718126
 30
0.0
 10
-14.8057780421
 20
23.6681721025
 30
0.0
 10
-14.8309717945
 20
23.6381348178
 30
0.0
 10
-14.8878334465
 20
23.572918168
 30
0.0
 10
-14.9680679854
 20
23.4840434255
 30
0.0
 10
-15.0708317751
 20
23.3721542408
 30
0.0
 10
-15.1418670141
 20
23.2953808744
 30
0.0
 10
-15.1779699877
 20
23.2563578147
 30
0.0
  0
SPLINE
  5
7FC
100
AcDbEntity
  8
ASSI
100
AcDbSpline
 62
7
  6
CONTINUOUS
 70
0
 71
3
 72
12
 73
8
 74
0
 42
0.0000001
 43
0.0000001
 44
0.0000000001
 40
0.0
 40
0.0
 40
0.0
 40
0.0
 40
0.058003139
 40
0.1353947863
 40
0.3503025218
 40
0.6414193797
 40
1.0
 40
1.0
 40
1.0
 40
1.0
 10
-6.8940672673
 20
23.7507734247
 30
0.0
 10
-6.894120614
 20
23.7493913647
 30
0.0
 10
-6.8948510735
 20
23.7462029783
 30
0.0
 10
-6.8980347417
 20
23.7384733982
 30
0.0
 10
-6.9052188645
 20
23.7264910033
 30
0.0
 10
-6.9170592098
 20
23.7096243513
 30
0.0
 10
-6.9265211975
 20
23.6973463677
 30
0.0
 10
-6.9318192194
 20
23.6906351837
 30
0.0
  0
SPLINE
  5
7FD
100
AcDbEntity
  8
ASSI
100
AcDbSpline
 62
7
  6
CONTINUOUS
 70
0
 71
3
 72
12
 73
8
 74
0
 42
0.0000001
 43
0.0000001
 44
0.0000000001
 40
0.0
 40
0.0
 40
0.0
 40
0.0
 40
0.0579314083
 40
0.1352823737
 40
0.3501871092
 40
0.641360008
 40
1.0
 40
1.0
 40
1.0
 40
1.0
 10
-15.6059327327
 20
-23.7507734247
 30
0.0
 10
-15.6058791961
 20
-23.7493864449
 30
0.0
 10
-15.605144015
 20
-23.7461856306
 30
0.0
 10
-15.6019409711
 20
-23.7384237231
 30
0.0
 10
-15.5947148175
 20
-23.7263879504
 30
0.0
 10
-15.5828081832
 20
-23.709443728
 30
0.0
 10
-15.5732944357
 20
-23.697108165
 30
0.0
 10
-15.5679677804
 20
-23.690365458
 30
0.0
  0
SPLINE
  5
7FE
100
AcDbEntity
  8
ASSI
100
AcDbSpline
 62
7
  6
CONTINUOUS
 70
0
 71
3
 72
20
 73
16
 74
0
 42
0.0000001
 43
0.0000001
 44
0.0000000001
 40
0.0
 40
0.0
 40
0.0
 40
0.0
 40
0.1613577236
 40
0.3205344621
 40
0.4750147653
 40
0.6215153029
 40
0.6903999797
 40
0.7553959827
 40
0.8155681441
 40
0.8697836793
 40
0.9167105607
 40
0.9548781672
 40
0.9828746046
 40
0.9927755909
 40
1.0
 40
1.0
 40
1.0
 40
1.0
 10
-7.3220300123
 20
-23.2563578147
 30
0.0
 10
-7.2980885407
 20
-23.282235724
 30
0.0
 10
-7.2505290617
 20
-23.3336416305
 30
0.0
 10
-7.1801655186
 20
-23.4099306903
 30
0.0
 10
-7.1122564588
 20
-23.4840669793
 30
0.0
 10
-7.0580354573
 20
-23.5439879259
 30
0.0
 10
-7.0173169692
 20
-23.5897562823
 30
0.0
 10
-6.9893805213
 20
-23.6216488203
 30
0.0
 10
-6.9638707165
 20
-23.6514057144
 30
0.0
 10
-6.9413553384
 20
-23.6785198148
 30
0.0
 10
-6.9224543076
 20
-23.7023943991
 30
0.0
 10
-6.907931473
 20
-23.7223677059
 30
0.0
 10
-6.8990351421
 20
-23.7364895287
 30
0.0
 10
-6.8950566337
 20
-23.7455118597
 30
0.0
 10
-6.8941281483
 20
-23.7491961751
 30
0.0
 10
-6.8940672673
 20
-23.7507734247
 30
0.0
  0
SPLINE
  5
7FF
100
AcDbEntity
  8
ASSI
100
AcDbSpline
 62
7
  6
CONTINUOUS
 70
0
 71
3
 72
12
 73
8
 74
0
 42
0.0000001
 43
0.0000001
 44
0.0000000001
 40
0.0
 40
0.0
 40
0.0
 40
0.0
 40
0.0567909234
 40
0.133146029
 40
0.3471278324
 40
0.6390420457
 40
1.0
 40
1.0
 40
1.0
 40
1.0
 10
-7.75
 20
-23.7511422903
 30
0.0
 10
-7.75
 20
-23.7497941317
 30
0.0
 10
-7.7493553954
 20
-23.7466504328
 30
0.0
 10
-7.7463030594
 20
-23.7389891698
 30
0.0
 10
-7.7392093298
 20
-23.7270502696
 30
0.0
 10
-7.7274253375
 20
-23.7101933402
 30
0.0
 10
-7.7179692827
 20
-23.6979015507
 30
0.0
 10
-7.7126644991
 20
-23.6911722748
 30
0.0
  0
SPLINE
  5
800
100
AcDbEntity
  8
ASSI
100
AcDbSpline
 62
7
  6
CONTINUOUS
 70
0
 71
3
 72
12
 73
8
 74
0
 42
0.0000001
 43
0.0000001
 44
0.0000000001
 40
0.0
 40
0.0
 40
0.0
 40
0.0
 40
0.09548014
 40
0.2052487044
 40
0.4528744359
 40
0.721924989
 40
1.0
 40
1.0
 40
1.0
 40
1.0
 10
-7.7053826971
 20
-23.6820381248
 30
0.0
 10
-7.6939444974
 20
-23.6678374796
 30
0.0
 10
-7.6687450288
 20
-23.6378051932
 30
0.0
 10
-7.6119001023
 20
-23.5726208261
 30
0.0
 10
-7.5317248288
 20
-23.4838168574
 30
0.0
 10
-7.4290566076
 20
-23.372033662
 30
0.0
 10
-7.3580943851
 20
-23.2953391515
 30
0.0
 10
-7.3220300123
 20
-23.2563578147
 30
0.0
  0
SPLINE
  5
801
100
AcDbEntity
  8
ASSI
100
AcDbSpline
 62
7
  6
CONTINUOUS
 70
0
 71
3
 72
12
 73
8
 74
0
 42
0.0000001
 43
0.0000001
 44
0.0000000001
 40
0.0
 40
0.0
 40
0.0
 40
0.0
 40
0.0579314083
 40
0.1352823737
 40
0.3501871092
 40
0.641360008
 40
1.0
 40
1.0
 40
1.0
 40
1.0
 10
6.8940672673
 20
-23.7507734247
 30
0.0
 10
6.8941208039
 20
-23.7493864449
 30
0.0
 10
6.894855985
 20
-23.7461856306
 30
0.0
 10
6.8980590289
 20
-23.7384237231
 30
0.0
 10
6.9052851825
 20
-23.7263879504
 30
0.0
 10
6.9171918168
 20
-23.709443728
 30
0.0
 10
6.9267055643
 20
-23.697108165
 30
0.0
 10
6.9320322196
 20
-23.690365458
 30
0.0
  0
SPLINE
  5
802
100
AcDbEntity
  8
ASSI
100
AcDbSpline
 62
7
  6
CONTINUOUS
 70
0
 71
3
 72
20
 73
16
 74
0
 42
0.0000001
 43
0.0000001
 44
0.0000000001
 40
0.0
 40
0.0
 40
0.0
 40
0.0
 40
0.1613577236
 40
0.3205344621
 40
0.4750147653
 40
0.6215153029
 40
0.6903999797
 40
0.7553959827
 40
0.8155681441
 40
0.8697836793
 40
0.9167105607
 40
0.9548781672
 40
0.9828746046
 40
0.9927755909
 40
1.0
 40
1.0
 40
1.0
 40
1.0
 10
15.1779699877
 20
-23.2563578147
 30
0.0
 10
15.2019114593
 20
-23.282235724
 30
0.0
 10
15.2494709383
 20
-23.3336416305
 30
0.0
 10
15.3198344814
 20
-23.4099306903
 30
0.0
 10
15.3877435412
 20
-23.4840669793
 30
0.0
 10
15.4419645427
 20
-23.5439879259
 30
0.0
 10
15.4826830308
 20
-23.5897562823
 30
0.0
 10
15.5106194787
 20
-23.6216488203
 30
0.0
 10
15.5361292835
 20
-23.6514057144
 30
0.0
 10
15.5586446616
 20
-23.6785198148
 30
0.0
 10
15.5775456924
 20
-23.7023943991
 30
0.0
 10
15.592068527
 20
-23.7223677059
 30
0.0
 10
15.6009648579
 20
-23.7364895287
 30
0.0
 10
15.6049433663
 20
-23.7455118597
 30
0.0
 10
15.6058718517
 20
-23.7491961751
 30
0.0
 10
15.6059327327
 20
-23.7507734247
 30
0.0
  0
SPLINE
  5
803
100
AcDbEntity
  8
ASSI
100
AcDbSpline
 62
7
  6
CONTINUOUS
 70
0
 71
3
 72
12
 73
8
 74
0
 42
0.0000001
 43
0.0000001
 44
0.0000000001
 40
0.0
 40
0.0
 40
0.0
 40
0.0
 40
0.0567909234
 40
0.133146029
 40
0.3471278324
 40
0.6390420457
 40
1.0
 40
1.0
 40
1.0
 40
1.0
 10
14.75
 20
-23.7511422903
 30
0.0
 10
14.75
 20
-23.7497941317
 30
0.0
 10
14.7506446046
 20
-23.7466504328
 30
0.0
 10
14.7536969406
 20
-23.7389891698
 30
0.0
 10
14.7607906702
 20
-23.7270502696
 30
0.0
 10
14.7725746625
 20
-23.7101933402
 30
0.0
 10
14.7820307173
 20
-23.6979015507
 30
0.0
 10
14.7873355009
 20
-23.6911722748
 30
0.0
  0
SPLINE
  5
804
100
AcDbEntity
  8
ASSI
100
AcDbSpline
 62
7
  6
CONTINUOUS
 70
0
 71
3
 72
12
 73
8
 74
0
 42
0.0000001
 43
0.0000001
 44
0.0000000001
 40
0.0
 40
0.0
 40
0.0
 40
0.0
 40
0.09548014
 40
0.2052487044
 40
0.4528744359
 40
0.721924989
 40
1.0
 40
1.0
 40
1.0
 40
1.0
 10
14.7946173029
 20
-23.6820381248
 30
0.0
 10
14.8060555026
 20
-23.6678374796
 30
0.0
 10
14.8312549712
 20
-23.6378051932
 30
0.0
 10
14.8880998977
 20
-23.5726208261
 30
0.0
 10
14.9682751712
 20
-23.4838168574
 30
0.0
 10
15.0709433924
 20
-23.372033662
 30
0.0
 10
15.1419056149
 20
-23.2953391515
 30
0.0
 10
15.1779699877
 20
-23.2563578147
 30
0.0
  0
SPLINE
  5
805
100
AcDbEntity
  8
ASSI
100
AcDbSpline
 62
7
  6
CONTINUOUS
 70
0
 71
3
 72
20
 73
16
 74
0
 42
0.0000001
 43
0.0000001
 44
0.0000000001
 40
0.0
 40
0.0
 40
0.0
 40
0.0
 40
0.1613586105
 40
0.320535217
 40
0.4750153704
 40
0.6215160865
 40
0.690400882
 40
0.755396962
 40
0.815569195
 40
0.8697846629
 40
0.9167111097
 40
0.9548782777
 40
0.9828745488
 40
0.9927755443
 40
1.0
 40
1.0
 40
1.0
 40
1.0
 10
7.3220300123
 20
23.2563578147
 30
0.0
 10
7.2980884092
 20
23.2822358662
 30
0.0
 10
7.2505288188
 20
23.3336418942
 30
0.0
 10
7.1801651886
 20
23.4099310531
 30
0.0
 10
7.112256144
 20
23.4840673253
 30
0.0
 10
7.0580351199
 20
23.5439882946
 30
0.0
 10
7.0173165825
 20
23.5897567165
 30
0.0
 10
6.9893801054
 20
23.6216493064
 30
0.0
 10
6.9638702934
 20
23.6514062178
 30
0.0
 10
6.9413549821
 20
23.6785202507
 30
0.0
 10
6.9224540874
 20
23.7023946825
 30
0.0
 10
6.9079314122
 20
23.7223678204
 30
0.0
 10
6.8990351281
 20
23.7364895242
 30
0.0
 10
6.895056657
 20
23.7455118418
 30
0.0
 10
6.8941281486
 20
23.7491961649
 30
0.0
 10
6.8940672673
 20
23.7507734247
 30
0.0
  0
SPLINE
  5
806
100
AcDbEntity
  8
ASSI
100
AcDbSpline
 62
7
  6
CONTINUOUS
 70
0
 71
3
 72
12
 73
8
 74
0
 42
0.0000001
 43
0.0000001
 44
0.0000000001
 40
0.0
 40
0.0
 40
0.0
 40
0.0
 40
0.0568655378
 40
0.1332627045
 40
0.3472465846
 40
0.6391021178
 40
1.0
 40
1.0
 40
1.0
 40
1.0
 10
7.75
 20
23.7511422903
 30
0.0
 10
7.75
 20
23.7497991009
 30
0.0
 10
7.749360045
 20
23.7466681733
 30
0.0
 10
7.7463274713
 20
23.7390402032
 30
0.0
 10
7.739277189
 20
23.7271565522
 30
0.0
 10
7.7275619411
 20
23.7103801219
 30
0.0
 10
7.7181596818
 20
23.6981481812
 30
0.0
 10
7.7128846921
 20
23.6914517067
 30
0.0
  0
SPLINE
  5
807
100
AcDbEntity
  8
ASSI
100
AcDbSpline
 62
7
  6
CONTINUOUS
 70
0
 71
3
 72
12
 73
8
 74
0
 42
0.0000001
 43
0.0000001
 44
0.0000000001
 40
0.0
 40
0.0
 40
0.0
 40
0.0
 40
0.0953761876
 40
0.2050957172
 40
0.4527209148
 40
0.721835338
 40
1.0
 40
1.0
 40
1.0
 40
1.0
 10
7.7056513796
 20
23.6823718126
 30
0.0
 10
7.6942219579
 20
23.6681721025
 30
0.0
 10
7.6690282055
 20
23.6381348178
 30
0.0
 10
7.6121665535
 20
23.572918168
 30
0.0
 10
7.5319320146
 20
23.4840434255
 30
0.0
 10
7.4291682249
 20
23.3721542408
 30
0.0
 10
7.3581329859
 20
23.2953808744
 30
0.0
 10
7.3220300123
 20
23.2563578147
 30
0.0
  0
SPLINE
  5
808
100
AcDbEntity
  8
ASSI
100
AcDbSpline
 62
7
  6
CONTINUOUS
 70
0
 71
3
 72
12
 73
8
 74
0
 42
0.0000001
 43
0.0000001
 44
0.0000000001
 40
0.0
 40
0.0
 40
0.0
 40
0.0
 40
0.058003139
 40
0.1353947863
 40
0.3503025218
 40
0.6414193797
 40
1.0
 40
1.0
 40
1.0
 40
1.0
 10
15.6059327327
 20
23.7507734247
 30
0.0
 10
15.605879386
 20
23.7493913647
 30
0.0
 10
15.6051489265
 20
23.7462029783
 30
0.0
 10
15.6019652583
 20
23.7384733982
 30
0.0
 10
15.5947811355
 20
23.7264910033
 30
0.0
 10
15.5829407902
 20
23.7096243513
 30
0.0
 10
15.5734788025
 20
23.6973463677
 30
0.0
 10
15.5681807806
 20
23.6906351837
 30
0.0
  0
SPLINE
  5
809
100
AcDbEntity
  8
RACCORDO
100
AcDbSpline
 62
250
  6
CONTINUOUS
 70
0
 71
3
 72
13
 73
9
 74
0
 42
0.0000001
 43
0.0000001
 44
0.0000000001
 40
0.0
 40
0.0
 40
0.0
 40
0.0
 40
0.1162399785
 40
0.2339778175
 40
0.354371331
 40
0.4780980182
 40
0.7345386242
 40
1.0
 40
1.0
 40
1.0
 40
1.0
 10
21.895628166
 20
-23.8443375673
 30
0.0
 10
21.8955806396
 20
-23.8301877968
 30
0.0
 10
21.8922223551
 20
-23.8016148028
 30
0.0
 10
21.8776650278
 20
-23.7606547352
 30
0.0
 10
21.8541946141
 20
-23.7229828841
 30
0.0
 10
21.811892224
 20
-23.6786204872
 30
0.0
 10
21.7419652956
 20
-23.6387874753
 30
0.0
 10
21.6779468109
 20
-23.6279126226
 30
0.0
 10
21.6456323968
 20
-23.6278312164
 30
0.0
  0
SPLINE
  5
80A
100
AcDbEntity
  8
RACCORDO
100
AcDbSpline
 62
250
  6
CONTINUOUS
 70
0
 71
3
 72
13
 73
9
 74
0
 42
0.0000001
 43
0.0000001
 44
0.0000000001
 40
0.0
 40
0.0
 40
0.0
 40
0.0
 40
0.1162399785
 40
0.2339778175
 40
0.354371331
 40
0.4780980182
 40
0.7345386242
 40
1.0
 40
1.0
 40
1.0
 40
1.0
 10
19.504371834
 20
-23.8443375673
 30
0.0
 10
19.5044193604
 20
-23.8301877968
 30
0.0
 10
19.5077776449
 20
-23.8016148028
 30
0.0
 10
19.5223349722
 20
-23.7606547352
 30
0.0
 10
19.5458053859
 20
-23.7229828841
 30
0.0
 10
19.588107776
 20
-23.6786204872
 30
0.0
 10
19.6580347044
 20
-23.6387874753
 30
0.0
 10
19.7220531891
 20
-23.6279126226
 30
0.0
 10
19.7543676032
 20
-23.6278312164
 30
0.0
  0
SPLINE
  5
80B
100
AcDbEntity
  8
RACCORDO
100
AcDbSpline
 62
250
  6
CONTINUOUS
 70
0
 71
3
 72
13
 73
9
 74
0
 42
0.0000001
 43
0.0000001
 44
0.0000000001
 40
0.0
 40
0.0
 40
0.0
 40
0.0
 40
0.1162399785
 40
0.2339778175
 40
0.354371331
 40
0.4780980182
 40
0.7345386242
 40
1.0
 40
1.0
 40
1.0
 40
1.0
 10
0.604371834
 20
-23.8443375673
 30
0.0
 10
0.6044193604
 20
-23.8301877968
 30
0.0
 10
0.6077776449
 20
-23.8016148028
 30
0.0
 10
0.6223349722
 20
-23.7606547352
 30
0.0
 10
0.6458053859
 20
-23.7229828841
 30
0.0
 10
0.688107776
 20
-23.6786204872
 30
0.0
 10
0.7580347044
 20
-23.6387874753
 30
0.0
 10
0.8220531891
 20
-23.6279126226
 30
0.0
 10
0.8543676032
 20
-23.6278312164
 30
0.0
  0
SPLINE
  5
80C
100
AcDbEntity
  8
RACCORDO
100
AcDbSpline
 62
7
  6
CONTINUOUS
 70
0
 71
3
 72
9
 73
5
 74
0
 42
0.0000001
 43
0.0000001
 44
0.0000000001
 40
0.0
 40
0.0
 40
0.0
 40
0.0
 40
0.253497346
 40
1.0
 40
1.0
 40
1.0
 40
1.0
 10
-3.4223245283
 20
-21.6292754193
 30
0.0
 10
-3.4157220526
 20
-21.6390170122
 30
0.0
 10
-3.3897549219
 20
-21.6774986821
 30
0.0
 10
-3.3641407526
 20
-21.7162200436
 30
0.0
 10
-3.3453180125
 20
-21.7453180125
 30
0.0
  0
SPLINE
  5
80D
100
AcDbEntity
  8
RACCORDO
100
AcDbSpline
 62
7
  6
CONTINUOUS
 70
0
 71
3
 72
9
 73
5
 74
0
 42
0.0000001
 43
0.0000001
 44
0.0000000001
 40
0.0
 40
0.0
 40
0.0
 40
0.0
 40
0.2450655868
 40
1.0
 40
1.0
 40
1.0
 40
1.0
 10
-19.1546819875
 20
-21.7453180125
 30
0.0
 10
-19.1458324857
 20
-21.7316376171
 30
0.0
 10
-19.1094492059
 20
-21.6759904029
 30
0.0
 10
-19.072165775
 20
-21.6209364784
 30
0.0
 10
-19.0437483861
 20
-21.5795642558
 30
0.0
  0
SPLINE
  5
80E
100
AcDbEntity
  8
RACCORDO
100
AcDbSpline
 62
7
  6
CONTINUOUS
 70
0
 71
3
 72
9
 73
5
 74
0
 42
0.0000001
 43
0.0000001
 44
0.0000000001
 40
0.0
 40
0.0
 40
0.0
 40
0.0
 40
0.2462083297
 40
1.0
 40
1.0
 40
1.0
 40
1.0
 10
-3.3453180125
 20
21.7453180125
 30
0.0
 10
-3.3515260594
 20
21.7357210275
 30
0.0
 10
-3.3768737384
 20
21.6968279687
 30
0.0
 10
-3.4026915816
 20
21.6582427615
 30
0.0
 10
-3.4223245283
 20
21.6292754193
 30
0.0
  0
SPLINE
  5
80F
100
AcDbEntity
  8
RACCORDO
100
AcDbSpline
 62
7
  6
CONTINUOUS
 70
0
 71
3
 72
9
 73
5
 74
0
 42
0.0000001
 43
0.0000001
 44
0.0000000001
 40
0.0
 40
0.0
 40
0.0
 40
0.0
 40
0.2543880268
 40
1.0
 40
1.0
 40
1.0
 40
1.0
 10
-19.0437483861
 20
21.5795642558
 30
0.0
 10
-19.05332407
 20
21.5935052737
 30
0.0
 10
-19.0908368993
 20
21.6483954152
 30
0.0
 10
-19.1277574936
 20
21.7036955875
 30
0.0
 10
-19.1546819875
 20
21.7453180125
 30
0.0
  0
SPLINE
  5
810
100
AcDbEntity
  8
RACCORDO
100
AcDbSpline
 62
250
  6
CONTINUOUS
 70
0
 71
3
 72
13
 73
9
 74
0
 42
0.0000001
 43
0.0000001
 44
0.0000000001
 40
0.0
 40
0.0
 40
0.0
 40
0.0
 40
0.1162401483
 40
0.2339779751
 40
0.3543714888
 40
0.4780981605
 40
0.7345387282
 40
1.0
 40
1.0
 40
1.0
 40
1.0
 10
2.995628166
 20
-23.8443375673
 30
0.0
 10
2.9955806395
 20
-23.8301877761
 30
0.0
 10
2.9922223519
 20
-23.8016147617
 30
0.0
 10
2.977664999
 20
-23.7606546825
 30
0.0
 10
2.9541945792
 20
-23.7229828397
 30
0.0
 10
2.9118921827
 20
-23.6786204577
 30
0.0
 10
2.8419652655
 20
-23.6387874671
 30
0.0
 10
2.7779467983
 20
-23.6279126226
 30
0.0
 10
2.7456323968
 20
-23.6278312164
 30
0.0
  0
SPLINE
  5
811
100
AcDbEntity
  8
RACCORDO
100
AcDbSpline
 62
250
  6
CONTINUOUS
 70
0
 71
3
 72
13
 73
9
 74
0
 42
0.0000001
 43
0.0000001
 44
0.0000000001
 40
0.0
 40
0.0
 40
0.0
 40
0.0
 40
0.1162401412
 40
0.2339779602
 40
0.3543714643
 40
0.4780981267
 40
0.7345386771
 40
1.0
 40
1.0
 40
1.0
 40
1.0
 10
-2.995628166
 20
23.8443375673
 30
0.0
 10
-2.9955806395
 20
23.830187777
 30
0.0
 10
-2.9922223523
 20
23.8016147644
 30
0.0
 10
-2.9776650015
 20
23.7606546878
 30
0.0
 10
-2.9541945848
 20
23.722982847
 30
0.0
 10
-2.9118921933
 20
23.6786204663
 30
0.0
 10
-2.841965276
 20
23.6387874704
 30
0.0
 10
-2.7779468045
 20
23.6279126226
 30
0.0
 10
-2.7456323968
 20
23.6278312164
 30
0.0
  0
SPLINE
  5
812
100
AcDbEntity
  8
RACCORDO
100
AcDbSpline
 62
250
  6
CONTINUOUS
 70
0
 71
3
 72
13
 73
9
 74
0
 42
0.0000001
 43
0.0000001
 44
0.0000000001
 40
0.0
 40
0.0
 40
0.0
 40
0.0
 40
0.1162399785
 40
0.2339778175
 40
0.354371331
 40
0.4780980182
 40
0.7345386242
 40
1.0
 40
1.0
 40
1.0
 40
1.0
 10
-21.895628166
 20
-23.8443375673
 30
0.0
 10
-21.8955806396
 20
-23.8301877968
 30
0.0
 10
-21.8922223551
 20
-23.8016148028
 30
0.0
 10
-21.8776650278
 20
-23.7606547352
 30
0.0
 10
-21.8541946141
 20
-23.7229828841
 30
0.0
 10
-21.811892224
 20
-23.6786204872
 30
0.0
 10
-21.7419652956
 20
-23.6387874753
 30
0.0
 10
-21.6779468109
 20
-23.6279126226
 30
0.0
 10
-21.6456323968
 20
-23.6278312164
 30
0.0
  0
SPLINE
  5
813
100
AcDbEntity
  8
RACCORDO
100
AcDbSpline
 62
250
  6
CONTINUOUS
 70
0
 71
3
 72
13
 73
9
 74
0
 42
0.0000001
 43
0.0000001
 44
0.0000000001
 40
0.0
 40
0.0
 40
0.0
 40
0.0
 40
0.1162401483
 40
0.2339779751
 40
0.3543714888
 40
0.4780981605
 40
0.7345387282
 40
1.0
 40
1.0
 40
1.0
 40
1.0
 10
-19.504371834
 20
-23.8443375673
 30
0.0
 10
-19.5044193605
 20
-23.8301877761
 30
0.0
 10
-19.5077776481
 20
-23.8016147617
 30
0.0
 10
-19.522335001
 20
-23.7606546825
 30
0.0
 10
-19.5458054208
 20
-23.7229828397
 30
0.0
 10
-19.5881078173
 20
-23.6786204577
 30
0.0
 10
-19.6580347345
 20
-23.6387874671
 30
0.0
 10
-19.7220532017
 20
-23.6279126226
 30
0.0
 10
-19.7543676032
 20
-23.6278312164
 30
0.0
  0
SPLINE
  5
814
100
AcDbEntity
  8
RACCORDO
100
AcDbSpline
 62
250
  6
CONTINUOUS
 70
0
 71
3
 72
13
 73
9
 74
0
 42
0.0000001
 43
0.0000001
 44
0.0000000001
 40
0.0
 40
0.0
 40
0.0
 40
0.0
 40
0.1162399785
 40
0.2339778175
 40
0.354371331
 40
0.4780980182
 40
0.7345386242
 40
1.0
 40
1.0
 40
1.0
 40
1.0
 10
-0.604371834
 20
23.8443375673
 30
0.0
 10
-0.6044193604
 20
23.8301877968
 30
0.0
 10
-0.6077776449
 20
23.8016148028
 30
0.0
 10
-0.6223349722
 20
23.7606547352
 30
0.0
 10
-0.6458053859
 20
23.7229828841
 30
0.0
 10
-0.688107776
 20
23.6786204872
 30
0.0
 10
-0.7580347044
 20
23.6387874753
 30
0.0
 10
-0.8220531891
 20
23.6279126226
 30
0.0
 10
-0.8543676032
 20
23.6278312164
 30
0.0
  0
SPLINE
  5
815
100
AcDbEntity
  8
RACCORDO
100
AcDbSpline
 62
250
  6
CONTINUOUS
 70
0
 71
3
 72
13
 73
9
 74
0
 42
0.0000001
 43
0.0000001
 44
0.0000000001
 40
0.0
 40
0.0
 40
0.0
 40
0.0
 40
0.1162401412
 40
0.2339779602
 40
0.3543714643
 40
0.4780981267
 40
0.7345386771
 40
1.0
 40
1.0
 40
1.0
 40
1.0
 10
-21.895628166
 20
23.8443375673
 30
0.0
 10
-21.8955806395
 20
23.830187777
 30
0.0
 10
-21.8922223523
 20
23.8016147644
 30
0.0
 10
-21.8776650015
 20
23.7606546878
 30
0.0
 10
-21.8541945848
 20
23.722982847
 30
0.0
 10
-21.8118921933
 20
23.6786204663
 30
0.0
 10
-21.741965276
 20
23.6387874704
 30
0.0
 10
-21.6779468045
 20
23.6279126226
 30
0.0
 10
-21.6456323968
 20
23.6278312164
 30
0.0
  0
SPLINE
  5
816
100
AcDbEntity
  8
RACCORDO
100
AcDbSpline
 62
250
  6
CONTINUOUS
 70
0
 71
3
 72
13
 73
9
 74
0
 42
0.0000001
 43
0.0000001
 44
0.0000000001
 40
0.0
 40
0.0
 40
0.0
 40
0.0
 40
0.1162399785
 40
0.2339778175
 40
0.354371331
 40
0.4780980182
 40
0.7345386242
 40
1.0
 40
1.0
 40
1.0
 40
1.0
 10
-2.995628166
 20
-23.8443375673
 30
0.0
 10
-2.9955806396
 20
-23.8301877968
 30
0.0
 10
-2.9922223551
 20
-23.8016148028
 30
0.0
 10
-2.9776650278
 20
-23.7606547352
 30
0.0
 10
-2.9541946141
 20
-23.7229828841
 30
0.0
 10
-2.911892224
 20
-23.6786204872
 30
0.0
 10
-2.8419652956
 20
-23.6387874753
 30
0.0
 10
-2.7779468109
 20
-23.6279126226
 30
0.0
 10
-2.7456323968
 20
-23.6278312164
 30
0.0
  0
SPLINE
  5
817
100
AcDbEntity
  8
RACCORDO
100
AcDbSpline
 62
250
  6
CONTINUOUS
 70
0
 71
3
 72
13
 73
9
 74
0
 42
0.0000001
 43
0.0000001
 44
0.0000000001
 40
0.0
 40
0.0
 40
0.0
 40
0.0
 40
0.1162399785
 40
0.2339778175
 40
0.354371331
 40
0.4780980182
 40
0.7345386242
 40
1.0
 40
1.0
 40
1.0
 40
1.0
 10
-0.604371834
 20
-23.8443375673
 30
0.0
 10
-0.6044193604
 20
-23.8301877968
 30
0.0
 10
-0.6077776449
 20
-23.8016148028
 30
0.0
 10
-0.6223349722
 20
-23.7606547352
 30
0.0
 10
-0.6458053859
 20
-23.7229828841
 30
0.0
 10
-0.688107776
 20
-23.6786204872
 30
0.0
 10
-0.7580347044
 20
-23.6387874753
 30
0.0
 10
-0.8220531891
 20
-23.6279126226
 30
0.0
 10
-0.8543676032
 20
-23.6278312164
 30
0.0
  0
SPLINE
  5
818
100
AcDbEntity
  8
RACCORDO
100
AcDbSpline
 62
250
  6
CONTINUOUS
 70
0
 71
3
 72
13
 73
9
 74
0
 42
0.0000001
 43
0.0000001
 44
0.0000000001
 40
0.0
 40
0.0
 40
0.0
 40
0.0
 40
0.1162399785
 40
0.2339778175
 40
0.354371331
 40
0.4780980182
 40
0.7345386242
 40
1.0
 40
1.0
 40
1.0
 40
1.0
 10
-19.504371834
 20
23.8443375673
 30
0.0
 10
-19.5044193604
 20
23.8301877968
 30
0.0
 10
-19.5077776449
 20
23.8016148028
 30
0.0
 10
-19.5223349722
 20
23.7606547352
 30
0.0
 10
-19.5458053859
 20
23.7229828841
 30
0.0
 10
-19.588107776
 20
23.6786204872
 30
0.0
 10
-19.6580347044
 20
23.6387874753
 30
0.0
 10
-19.7220531891
 20
23.6279126226
 30
0.0
 10
-19.7543676032
 20
23.6278312164
 30
0.0
  0
SPLINE
  5
819
100
AcDbEntity
  8
ASSI
100
AcDbSpline
 62
7
  6
CONTINUOUS
 70
0
 71
3
 72
8
 73
4
 74
0
 42
0.0000001
 43
0.0000001
 44
0.0000000001
 40
0.0
 40
0.0
 40
0.0
 40
0.0
 40
1.0
 40
1.0
 40
1.0
 40
1.0
 10
-19.5085181991
 20
-24.3147079838
 30
0.0
 10
-19.5174862923
 20
-24.3481787562
 30
0.0
 10
-19.5339048633
 20
-24.3804031989
 30
0.0
 10
-19.5557122911
 20
-24.4073319085
 30
0.0
  0
SPLINE
  5
81A
100
AcDbEntity
  8
ASSI
100
AcDbSpline
 62
7
  6
CONTINUOUS
 70
0
 71
3
 72
8
 73
4
 74
0
 42
0.0000001
 43
0.0000001
 44
0.0000000001
 40
0.0
 40
0.0
 40
0.0
 40
0.0
 40
1.0
 40
1.0
 40
1.0
 40
1.0
 10
-21.7147079838
 20
-24.4914818009
 30
0.0
 10
-21.7481787562
 20
-24.4825137077
 30
0.0
 10
-21.7804031989
 20
-24.4660951367
 30
0.0
 10
-21.8073319085
 20
-24.4442877089
 30
0.0
  0
SPLINE
  5
81B
100
AcDbEntity
  8
ASSI
100
AcDbSpline
 62
7
  6
CONTINUOUS
 70
0
 71
3
 72
8
 73
4
 74
0
 42
0.0000001
 43
0.0000001
 44
0.0000000001
 40
0.0
 40
0.0
 40
0.0
 40
0.0
 40
1.0
 40
1.0
 40
1.0
 40
1.0
 10
-2.8147079838
 20
-24.4914818009
 30
0.0
 10
-2.8481787562
 20
-24.4825137077
 30
0.0
 10
-2.8804031989
 20
-24.4660951367
 30
0.0
 10
-2.9073319085
 20
-24.4442877089
 30
0.0
  0
SPLINE
  5
81C
100
AcDbEntity
  8
ASSI
100
AcDbSpline
 62
7
  6
CONTINUOUS
 70
0
 71
3
 72
8
 73
4
 74
0
 42
0.0000001
 43
0.0000001
 44
0.0000000001
 40
0.0
 40
0.0
 40
0.0
 40
0.0
 40
1.0
 40
1.0
 40
1.0
 40
1.0
 10
-0.6085181991
 20
-24.3147079838
 30
0.0
 10
-0.6174862923
 20
-24.3481787562
 30
0.0
 10
-0.6339048633
 20
-24.3804031989
 30
0.0
 10
-0.6557122911
 20
-24.4073319085
 30
0.0
  0
SPLINE
  5
81D
100
AcDbEntity
  8
ASSI
100
AcDbSpline
 62
7
  6
CONTINUOUS
 70
0
 71
3
 72
8
 73
4
 74
0
 42
0.0000001
 43
0.0000001
 44
0.0000000001
 40
0.0
 40
0.0
 40
0.0
 40
0.0
 40
1.0
 40
1.0
 40
1.0
 40
1.0
 10
-19.6852920162
 20
24.4914818009
 30
0.0
 10
-19.6518212438
 20
24.4825137077
 30
0.0
 10
-19.6195968011
 20
24.4660951367
 30
0.0
 10
-19.5926680915
 20
24.4442877089
 30
0.0
  0
SPLINE
  5
81E
100
AcDbEntity
  8
ASSI
100
AcDbSpline
 62
7
  6
CONTINUOUS
 70
0
 71
3
 72
8
 73
4
 74
0
 42
0.0000001
 43
0.0000001
 44
0.0000000001
 40
0.0
 40
0.0
 40
0.0
 40
0.0
 40
1.0
 40
1.0
 40
1.0
 40
1.0
 10
-21.8914818009
 20
24.3147079838
 30
0.0
 10
-21.8825137077
 20
24.3481787562
 30
0.0
 10
-21.8660951367
 20
24.3804031989
 30
0.0
 10
-21.8442877089
 20
24.4073319085
 30
0.0
  0
SPLINE
  5
81F
100
AcDbEntity
  8
ASSI
100
AcDbSpline
 62
7
  6
CONTINUOUS
 70
0
 71
3
 72
8
 73
4
 74
0
 42
0.0000001
 43
0.0000001
 44
0.0000000001
 40
0.0
 40
0.0
 40
0.0
 40
0.0
 40
1.0
 40
1.0
 40
1.0
 40
1.0
 10
-0.7852920162
 20
24.4914818009
 30
0.0
 10
-0.7518212438
 20
24.4825137077
 30
0.0
 10
-0.7195968011
 20
24.4660951367
 30
0.0
 10
-0.6926680915
 20
24.4442877089
 30
0.0
  0
SPLINE
  5
820
100
AcDbEntity
  8
ASSI
100
AcDbSpline
 62
7
  6
CONTINUOUS
 70
0
 71
3
 72
8
 73
4
 74
0
 42
0.0000001
 43
0.0000001
 44
0.0000000001
 40
0.0
 40
0.0
 40
0.0
 40
0.0
 40
1.0
 40
1.0
 40
1.0
 40
1.0
 10
-2.9914818009
 20
24.3147079838
 30
0.0
 10
-2.9825137077
 20
24.3481787562
 30
0.0
 10
-2.9660951367
 20
24.3804031989
 30
0.0
 10
-2.9442877089
 20
24.4073319085
 30
0.0
  0
SPLINE
  5
821
100
AcDbEntity
  8
ASSI
100
AcDbSpline
 62
7
  6
CONTINUOUS
 70
0
 71
3
 72
8
 73
4
 74
0
 42
0.0000001
 43
0.0000001
 44
0.0000000001
 40
0.0
 40
0.0
 40
0.0
 40
0.0
 40
1.0
 40
1.0
 40
1.0
 40
1.0
 10
2.9914818009
 20
-24.3147079838
 30
0.0
 10
2.9825137077
 20
-24.3481787562
 30
0.0
 10
2.9660951367
 20
-24.3804031989
 30
0.0
 10
2.9442877089
 20
-24.4073319085
 30
0.0
  0
SPLINE
  5
822
100
AcDbEntity
  8
ASSI
100
AcDbSpline
 62
7
  6
CONTINUOUS
 70
0
 71
3
 72
8
 73
4
 74
0
 42
0.0000001
 43
0.0000001
 44
0.0000000001
 40
0.0
 40
0.0
 40
0.0
 40
0.0
 40
1.0
 40
1.0
 40
1.0
 40
1.0
 10
0.7852920162
 20
-24.4914818009
 30
0.0
 10
0.7518212438
 20
-24.4825137077
 30
0.0
 10
0.7195968011
 20
-24.4660951367
 30
0.0
 10
0.6926680915
 20
-24.4442877089
 30
0.0
  0
SPLINE
  5
823
100
AcDbEntity
  8
ASSI
100
AcDbSpline
 62
7
  6
CONTINUOUS
 70
0
 71
3
 72
8
 73
4
 74
0
 42
0.0000001
 43
0.0000001
 44
0.0000000001
 40
0.0
 40
0.0
 40
0.0
 40
0.0
 40
1.0
 40
1.0
 40
1.0
 40
1.0
 10
19.6852920162
 20
-24.4914818009
 30
0.0
 10
19.6518212438
 20
-24.4825137077
 30
0.0
 10
19.6195968011
 20
-24.4660951367
 30
0.0
 10
19.5926680915
 20
-24.4442877089
 30
0.0
  0
SPLINE
  5
824
100
AcDbEntity
  8
ASSI
100
AcDbSpline
 62
7
  6
CONTINUOUS
 70
0
 71
3
 72
8
 73
4
 74
0
 42
0.0000001
 43
0.0000001
 44
0.0000000001
 40
0.0
 40
0.0
 40
0.0
 40
0.0
 40
1.0
 40
1.0
 40
1.0
 40
1.0
 10
21.8914818009
 20
-24.3147079838
 30
0.0
 10
21.8825137077
 20
-24.3481787562
 30
0.0
 10
21.8660951367
 20
-24.3804031989
 30
0.0
 10
21.8442877089
 20
-24.4073319085
 30
0.0
  0
SPLINE
  5
825
100
AcDbEntity
  8
ASSI
100
AcDbSpline
 62
7
  6
CONTINUOUS
 70
0
 71
3
 72
8
 73
4
 74
0
 42
0.0000001
 43
0.0000001
 44
0.0000000001
 40
0.0
 40
0.0
 40
0.0
 40
0.0
 40
1.0
 40
1.0
 40
1.0
 40
1.0
 10
2.8147079838
 20
24.4914818009
 30
0.0
 10
2.8481787562
 20
24.4825137077
 30
0.0
 10
2.8804031989
 20
24.4660951367
 30
0.0
 10
2.9073319085
 20
24.4442877089
 30
0.0
  0
SPLINE
  5
826
100
AcDbEntity
  8
ASSI
100
AcDbSpline
 62
7
  6
CONTINUOUS
 70
0
 71
3
 72
8
 73
4
 74
0
 42
0.0000001
 43
0.0000001
 44
0.0000000001
 40
0.0
 40
0.0
 40
0.0
 40
0.0
 40
1.0
 40
1.0
 40
1.0
 40
1.0
 10
0.6085181991
 20
24.3147079838
 30
0.0
 10
0.6174862923
 20
24.3481787562
 30
0.0
 10
0.6339048633
 20
24.3804031989
 30
0.0
 10
0.6557122911
 20
24.4073319085
 30
0.0
  0
SPLINE
  5
827
100
AcDbEntity
  8
ASSI
100
AcDbSpline
 62
7
  6
CONTINUOUS
 70
0
 71
3
 72
8
 73
4
 74
0
 42
0.0000001
 43
0.0000001
 44
0.0000000001
 40
0.0
 40
0.0
 40
0.0
 40
0.0
 40
1.0
 40
1.0
 40
1.0
 40
1.0
 10
21.7147079838
 20
24.4914818009
 30
0.0
 10
21.7481787562
 20
24.4825137077
 30
0.0
 10
21.7804031989
 20
24.4660951367
 30
0.0
 10
21.8073319085
 20
24.4442877089
 30
0.0
  0
SPLINE
  5
828
100
AcDbEntity
  8
ASSI
100
AcDbSpline
 62
7
  6
CONTINUOUS
 70
0
 71
3
 72
8
 73
4
 74
0
 42
0.0000001
 43
0.0000001
 44
0.0000000001
 40
0.0
 40
0.0
 40
0.0
 40
0.0
 40
1.0
 40
1.0
 40
1.0
 40
1.0
 10
19.5085181991
 20
24.3147079838
 30
0.0
 10
19.5174862923
 20
24.3481787562
 30
0.0
 10
19.5339048633
 20
24.3804031989
 30
0.0
 10
19.5557122911
 20
24.4073319085
 30
0.0
  0
SPLINE
  5
829
100
AcDbEntity
  8
ASSI
100
AcDbSpline
 62
7
  6
CONTINUOUS
 70
0
 71
3
 72
16
 73
12
 74
0
 42
0.0000001
 43
0.0000001
 44
0.0000000001
 40
0.0
 40
0.0
 40
0.0
 40
0.0
 40
0.3205618231
 40
0.4750548488
 40
0.6215677723
 40
0.7554587648
 40
0.8698521843
 40
0.9167825414
 40
0.9549528897
 40
0.9829514936
 40
1.0
 40
1.0
 40
1.0
 40
1.0
 10
-15.1779699877
 20
23.2563578147
 30
0.0
 10
-15.2255294236
 20
23.3077639601
 30
0.0
 10
-15.2960212066
 20
23.3839358336
 30
0.0
 10
-15.3877431091
 20
23.484066807
 30
0.0
 10
-15.4514962259
 20
23.5545191166
 30
0.0
 10
-15.5086487879
 20
23.6191006942
 30
0.0
 10
-15.5505012775
 20
23.6682254629
 30
0.0
 10
-15.5775134502
 20
23.7023802008
 30
0.0
 10
-15.5921584365
 20
23.7224049219
 30
0.0
 10
-15.6015993599
 20
23.7377335313
 30
0.0
 10
-15.6057890748
 20
23.7470516657
 30
0.0
 10
-15.6059327327
 20
23.7507734247
 30
0.0
  0
LINE
  5
82A
100
AcDbEntity
  8
ASSI
100
AcDbLine
 62
7
  6
CONTINUOUS
 10
-14.75
 20
23.7511422903
 11
-14.7502774466
 21
23.7486558744
  0
SPLINE
  5
82B
100
AcDbEntity
  8
ASSI
100
AcDbSpline
 62
7
  6
CONTINUOUS
 70
0
 71
3
 72
10
 73
6
 74
0
 42
0.0000001
 43
0.0000001
 44
0.0000000001
 40
0.0
 40
0.0
 40
0.0
 40
0.0
 40
0.1481764855
 40
0.3676382775
 40
1.0
 40
1.0
 40
1.0
 40
1.0
 10
-14.7502774466
 20
23.7486558744
 30
0.0
 10
-14.7509484977
 20
23.7453477373
 30
0.0
 10
-14.7544668411
 20
23.7376078818
 30
0.0
 10
-14.7663234199
 20
23.7182118787
 30
0.0
 10
-14.7782012575
 20
23.7027678825
 30
0.0
 10
-14.7871153079
 20
23.6914517067
 30
0.0
  0
SPLINE
  5
82C
100
AcDbEntity
  8
ASSI
100
AcDbSpline
 62
7
  6
CONTINUOUS
 70
0
 71
3
 72
10
 73
6
 74
0
 42
0.0000001
 43
0.0000001
 44
0.0000000001
 40
0.0
 40
0.0
 40
0.0
 40
0.0
 40
0.2006145814
 40
0.4482363437
 40
1.0
 40
1.0
 40
1.0
 40
1.0
 10
-14.7871153079
 20
23.6914517067
 30
0.0
 10
-14.8113205907
 20
23.6607236734
 30
0.0
 10
-14.868528215
 20
23.5945780367
 30
0.0
 10
-14.9989043829
 20
23.449621856
 30
0.0
 10
-15.1049080318
 20
23.3353291787
 30
0.0
 10
-15.1779699877
 20
23.2563578147
 30
0.0
  0
SPLINE
  5
82D
100
AcDbEntity
  8
ASSI
100
AcDbSpline
 62
7
  6
CONTINUOUS
 70
0
 71
3
 72
17
 73
13
 74
0
 42
0.0000001
 43
0.0000001
 44
0.0000000001
 40
0.0
 40
0.0
 40
0.0
 40
0.0
 40
0.1617591013
 40
0.3213177464
 40
0.4761373302
 40
0.6228988516
 40
0.7569023481
 40
0.8711775475
 40
0.9179222866
 40
0.9558020563
 40
0.9834036672
 40
1.0
 40
1.0
 40
1.0
 40
1.0
 10
-7.3220300123
 20
23.2563578147
 30
0.0
 10
-7.3460422109
 20
23.2823121715
 30
0.0
 10
-7.3937400121
 20
23.3338676508
 30
0.0
 10
-7.464302377
 20
23.4103733913
 30
0.0
 10
-7.5323842778
 20
23.4847041588
 30
0.0
 10
-7.5962685058
 20
23.555311731
 30
0.0
 10
-7.6534741265
 20
23.6199780174
 30
0.0
 10
-7.6953059208
 20
23.6691184073
 30
0.0
 10
-7.7222110052
 20
23.703214075
 30
0.0
 10
-7.7367197074
 20
23.7231364827
 30
0.0
 10
-7.7459518462
 20
23.7382789045
 30
0.0
 10
-7.75
 20
23.7475145546
 30
0.0
 10
-7.75
 20
23.7511422903
 30
0.0
  0
SPLINE
  5
82E
100
AcDbEntity
  8
ASSI
100
AcDbSpline
 62
7
  6
CONTINUOUS
 70
0
 71
3
 72
16
 73
12
 74
0
 42
0.0000001
 43
0.0000001
 44
0.0000000001
 40
0.0
 40
0.0
 40
0.0
 40
0.0
 40
0.0170484586
 40
0.0450469674
 40
0.0832172254
 40
0.1301475267
 40
0.2445409411
 40
0.3784318727
 40
0.524944756
 40
0.6794377841
 40
1.0
 40
1.0
 40
1.0
 40
1.0
 10
-6.8940672673
 20
23.7507734247
 30
0.0
 10
-6.8942109248
 20
23.7470516761
 30
0.0
 10
-6.8984006202
 20
23.7377335695
 30
0.0
 10
-6.9078415128
 20
23.7224049995
 30
0.0
 10
-6.9224864602
 20
23.7023803157
 30
0.0
 10
-6.9494986079
 20
23.6682255999
 30
0.0
 10
-6.9913510793
 20
23.6191008506
 30
0.0
 10
-7.0485036197
 20
23.5545192848
 30
0.0
 10
-7.112256723
 20
23.4840669921
 30
0.0
 10
-7.2039786768
 20
23.3839359604
 30
0.0
 10
-7.2744705181
 20
23.3077640231
 30
0.0
 10
-7.3220300123
 20
23.2563578147
 30
0.0
  0
SPLINE
  5
82F
100
AcDbEntity
  8
ASSI
100
AcDbSpline
 62
7
  6
CONTINUOUS
 70
0
 71
3
 72
17
 73
13
 74
0
 42
0.0000001
 43
0.0000001
 44
0.0000000001
 40
0.0
 40
0.0
 40
0.0
 40
0.0
 40
0.161758148
 40
0.3213169375
 40
0.4761366816
 40
0.6228980235
 40
0.7569013185
 40
0.8711765173
 40
0.9179217194
 40
0.9558019495
 40
0.9834037298
 40
1.0
 40
1.0
 40
1.0
 40
1.0
 10
-15.1779699877
 20
-23.2563578147
 30
0.0
 10
-15.1539579306
 20
-23.2823120185
 30
0.0
 10
-15.1062602488
 20
-23.3338673674
 30
0.0
 10
-15.0356979777
 20
-23.4103730015
 30
0.0
 10
-14.9676160579
 20
-23.4847037886
 30
0.0
 10
-14.9037318662
 20
-23.5553113285
 30
0.0
 10
-14.8465262826
 20
-23.6199775364
 30
0.0
 10
-14.8046944484
 20
-23.6691179671
 30
0.0
 10
-14.7777892212
 20
-23.7032137782
 30
0.0
 10
-14.7632803611
 20
-23.7231363684
 30
0.0
 10
-14.7540481581
 20
-23.7382788954
 30
0.0
 10
-14.75
 20
-23.7475145683
 30
0.0
 10
-14.75
 20
-23.7511422903
 30
0.0
  0
SPLINE
  5
830
100
AcDbEntity
  8
ASSI
100
AcDbSpline
 62
7
  6
CONTINUOUS
 70
0
 71
3
 72
16
 73
12
 74
0
 42
0.0000001
 43
0.0000001
 44
0.0000000001
 40
0.0
 40
0.0
 40
0.0
 40
0.0
 40
0.0170483977
 40
0.0450470631
 40
0.0832177464
 40
0.1301484764
 40
0.2445418908
 40
0.3784326301
 40
0.5249453347
 40
0.6794385101
 40
1.0
 40
1.0
 40
1.0
 40
1.0
 10
-15.6059327327
 20
-23.7507734247
 30
0.0
 10
-15.6057890757
 20
-23.7470516894
 30
0.0
 10
-15.6015993764
 20
-23.7377335624
 30
0.0
 10
-15.5921584245
 20
-23.7224048957
 30
0.0
 10
-15.5775133316
 20
-23.7023800433
 30
0.0
 10
-15.5505010515
 20
-23.6682251949
 30
0.0
 10
-15.5086485446
 20
-23.6191004084
 30
0.0
 10
-15.4514960411
 20
-23.554518918
 30
0.0
 10
-15.3877429743
 20
-23.4840666583
 30
0.0
 10
-15.2960211315
 20
-23.3839357493
 30
0.0
 10
-15.2255293742
 20
-23.3077639067
 30
0.0
 10
-15.1779699877
 20
-23.2563578147
 30
0.0
  0
SPLINE
  5
831
100
AcDbEntity
  8
ASSI
100
AcDbSpline
 62
7
  6
CONTINUOUS
 70
0
 71
3
 72
16
 73
12
 74
0
 42
0.0000001
 43
0.0000001
 44
0.0000000001
 40
0.0
 40
0.0
 40
0.0
 40
0.0
 40
0.3205610689
 40
0.4750542447
 40
0.62156699
 40
0.7554577872
 40
0.8698512027
 40
0.9167819944
 40
0.9549527815
 40
0.9829515517
 40
1.0
 40
1.0
 40
1.0
 40
1.0
 10
-7.3220300123
 20
-23.2563578147
 30
0.0
 10
-7.2744706883
 20
-23.3077638391
 30
0.0
 10
-7.2039789929
 20
-23.3839356139
 30
0.0
 10
-7.1122572051
 20
-23.4840664606
 30
0.0
 10
-7.0485041249
 20
-23.5545187372
 30
0.0
 10
-6.9913516003
 20
-23.619100238
 30
0.0
 10
-6.949499075
 20
-23.6682250435
 30
0.0
 10
-6.9224867675
 20
-23.7023799163
 30
0.0
 10
-6.907841631
 20
-23.7224048106
 30
0.0
 10
-6.898400645
 20
-23.7377335211
 30
0.0
 10
-6.8942109247
 20
-23.7470516784
 30
0.0
 10
-6.8940672673
 20
-23.7507734247
 30
0.0
  0
LINE
  5
832
100
AcDbEntity
  8
ASSI
100
AcDbLine
 62
7
  6
CONTINUOUS
 10
-7.75
 20
-23.7511422903
 11
-7.749724994
 21
-23.748667897
  0
SPLINE
  5
833
100
AcDbEntity
  8
ASSI
100
AcDbSpline
 62
7
  6
CONTINUOUS
 70
0
 71
3
 72
10
 73
6
 74
0
 42
0.0000001
 43
0.0000001
 44
0.0000000001
 40
0.0
 40
0.0
 40
0.0
 40
0.0
 40
0.1479781912
 40
0.3674055708
 40
1.0
 40
1.0
 40
1.0
 40
1.0
 10
-7.749724994
 20
-23.748667897
 30
0.0
 10
-7.7490535747
 20
-23.7453459423
 30
0.0
 10
-7.7455142595
 20
-23.7375701386
 30
0.0
 10
-7.7335855408
 20
-23.7180760226
 30
0.0
 10
-7.7216339239
 20
-23.7025502571
 30
0.0
 10
-7.7126644991
 20
-23.6911722748
 30
0.0
  0
SPLINE
  5
834
100
AcDbEntity
  8
ASSI
100
AcDbSpline
 62
7
  6
CONTINUOUS
 70
0
 71
3
 72
10
 73
6
 74
0
 42
0.0000001
 43
0.0000001
 44
0.0000000001
 40
0.0
 40
0.0
 40
0.0
 40
0.0
 40
0.2007619351
 40
0.4483834113
 40
1.0
 40
1.0
 40
1.0
 40
1.0
 10
-7.7126644991
 20
-23.6911722748
 30
0.0
 10
-7.6884450213
 20
-23.6604491463
 30
0.0
 10
-7.6312493254
 20
-23.5943263795
 30
0.0
 10
-7.5009466954
 20
-23.4494630065
 30
0.0
 10
-7.3950280885
 20
-23.3352601323
 30
0.0
 10
-7.3220300123
 20
-23.2563578147
 30
0.0
  0
SPLINE
  5
835
100
AcDbEntity
  8
ASSI
100
AcDbSpline
 62
7
  6
CONTINUOUS
 70
0
 71
3
 72
17
 73
13
 74
0
 42
0.0000001
 43
0.0000001
 44
0.0000000001
 40
0.0
 40
0.0
 40
0.0
 40
0.0
 40
0.161758148
 40
0.3213169375
 40
0.4761366816
 40
0.6228980235
 40
0.7569013185
 40
0.8711765173
 40
0.9179217194
 40
0.9558019495
 40
0.9834037298
 40
1.0
 40
1.0
 40
1.0
 40
1.0
 10
7.3220300123
 20
-23.2563578147
 30
0.0
 10
7.3460420694
 20
-23.2823120185
 30
0.0
 10
7.3937397512
 20
-23.3338673674
 30
0.0
 10
7.4643020223
 20
-23.4103730015
 30
0.0
 10
7.5323839421
 20
-23.4847037886
 30
0.0
 10
7.5962681338
 20
-23.5553113285
 30
0.0
 10
7.6534737174
 20
-23.6199775364
 30
0.0
 10
7.6953055516
 20
-23.6691179671
 30
0.0
 10
7.7222107788
 20
-23.7032137782
 30
0.0
 10
7.7367196389
 20
-23.7231363684
 30
0.0
 10
7.7459518419
 20
-23.7382788954
 30
0.0
 10
7.75
 20
-23.7475145683
 30
0.0
 10
7.75
 20
-23.7511422903
 30
0.0
  0
SPLINE
  5
836
100
AcDbEntity
  8
ASSI
100
AcDbSpline
 62
7
  6
CONTINUOUS
 70
0
 71
3
 72
16
 73
12
 74
0
 42
0.0000001
 43
0.0000001
 44
0.0000000001
 40
0.0
 40
0.0
 40
0.0
 40
0.0
 40
0.0170483977
 40
0.0450470631
 40
0.0832177464
 40
0.1301484764
 40
0.2445418908
 40
0.3784326301
 40
0.5249453347
 40
0.6794385101
 40
1.0
 40
1.0
 40
1.0
 40
1.0
 10
6.8940672673
 20
-23.7507734247
 30
0.0
 10
6.8942109243
 20
-23.7470516894
 30
0.0
 10
6.8984006236
 20
-23.7377335624
 30
0.0
 10
6.9078415755
 20
-23.7224048957
 30
0.0
 10
6.9224866684
 20
-23.7023800433
 30
0.0
 10
6.9494989485
 20
-23.6682251949
 30
0.0
 10
6.9913514554
 20
-23.6191004084
 30
0.0
 10
7.0485039589
 20
-23.554518918
 30
0.0
 10
7.1122570257
 20
-23.4840666583
 30
0.0
 10
7.2039788685
 20
-23.3839357493
 30
0.0
 10
7.2744706258
 20
-23.3077639067
 30
0.0
 10
7.3220300123
 20
-23.2563578147
 30
0.0
  0
SPLINE
  5
837
100
AcDbEntity
  8
ASSI
100
AcDbSpline
 62
7
  6
CONTINUOUS
 70
0
 71
3
 72
16
 73
12
 74
0
 42
0.0000001
 43
0.0000001
 44
0.0000000001
 40
0.0
 40
0.0
 40
0.0
 40
0.0
 40
0.3205610689
 40
0.4750542447
 40
0.62156699
 40
0.7554577872
 40
0.8698512027
 40
0.9167819944
 40
0.9549527815
 40
0.9829515517
 40
1.0
 40
1.0
 40
1.0
 40
1.0
 10
15.1779699877
 20
-23.2563578147
 30
0.0
 10
15.2255293117
 20
-23.3077638391
 30
0.0
 10
15.2960210071
 20
-23.3839356139
 30
0.0
 10
15.3877427949
 20
-23.4840664606
 30
0.0
 10
15.4514958751
 20
-23.5545187372
 30
0.0
 10
15.5086483997
 20
-23.619100238
 30
0.0
 10
15.550500925
 20
-23.6682250435
 30
0.0
 10
15.5775132325
 20
-23.7023799163
 30
0.0
 10
15.592158369
 20
-23.7224048106
 30
0.0
 10
15.601599355
 20
-23.7377335211
 30
0.0
 10
15.6057890753
 20
-23.7470516784
 30
0.0
 10
15.6059327327
 20
-23.7507734247
 30
0.0
  0
LINE
  5
838
100
AcDbEntity
  8
ASSI
100
AcDbLine
 62
7
  6
CONTINUOUS
 10
14.75
 20
-23.7511422903
 11
14.750275006
 21
-23.748667897
  0
SPLINE
  5
839
100
AcDbEntity
  8
ASSI
100
AcDbSpline
 62
7
  6
CONTINUOUS
 70
0
 71
3
 72
10
 73
6
 74
0
 42
0.0000001
 43
0.0000001
 44
0.0000000001
 40
0.0
 40
0.0
 40
0.0
 40
0.0
 40
0.1479781912
 40
0.3674055708
 40
1.0
 40
1.0
 40
1.0
 40
1.0
 10
14.750275006
 20
-23.748667897
 30
0.0
 10
14.7509464253
 20
-23.7453459423
 30
0.0
 10
14.7544857405
 20
-23.7375701386
 30
0.0
 10
14.7664144592
 20
-23.7180760226
 30
0.0
 10
14.7783660761
 20
-23.7025502571
 30
0.0
 10
14.7873355009
 20
-23.6911722748
 30
0.0
  0
SPLINE
  5
83A
100
AcDbEntity
  8
ASSI
100
AcDbSpline
 62
7
  6
CONTINUOUS
 70
0
 71
3
 72
10
 73
6
 74
0
 42
0.0000001
 43
0.0000001
 44
0.0000000001
 40
0.0
 40
0.0
 40
0.0
 40
0.0
 40
0.2007619351
 40
0.4483834113
 40
1.0
 40
1.0
 40
1.0
 40
1.0
 10
14.7873355009
 20
-23.6911722748
 30
0.0
 10
14.8115549787
 20
-23.6604491463
 30
0.0
 10
14.8687506746
 20
-23.5943263795
 30
0.0
 10
14.9990533046
 20
-23.4494630065
 30
0.0
 10
15.1049719115
 20
-23.3352601323
 30
0.0
 10
15.1779699877
 20
-23.2563578147
 30
0.0
  0
SPLINE
  5
83B
100
AcDbEntity
  8
ASSI
100
AcDbSpline
 62
7
  6
CONTINUOUS
 70
0
 71
3
 72
16
 73
12
 74
0
 42
0.0000001
 43
0.0000001
 44
0.0000000001
 40
0.0
 40
0.0
 40
0.0
 40
0.0
 40
0.3205618231
 40
0.4750548488
 40
0.6215677723
 40
0.7554587648
 40
0.8698521843
 40
0.9167825414
 40
0.9549528897
 40
0.9829514936
 40
1.0
 40
1.0
 40
1.0
 40
1.0
 10
7.3220300123
 20
23.2563578147
 30
0.0
 10
7.2744705764
 20
23.3077639601
 30
0.0
 10
7.2039787934
 20
23.3839358336
 30
0.0
 10
7.1122568909
 20
23.484066807
 30
0.0
 10
7.0485037741
 20
23.5545191166
 30
0.0
 10
6.9913512121
 20
23.6191006942
 30
0.0
 10
6.9494987225
 20
23.6682254629
 30
0.0
 10
6.9224865498
 20
23.7023802008
 30
0.0
 10
6.9078415635
 20
23.7224049219
 30
0.0
 10
6.8984006401
 20
23.7377335313
 30
0.0
 10
6.8942109252
 20
23.7470516657
 30
0.0
 10
6.8940672673
 20
23.7507734247
 30
0.0
  0
LINE
  5
83C
100
AcDbEntity
  8
ASSI
100
AcDbLine
 62
7
  6
CONTINUOUS
 10
7.75
 20
23.7511422903
 11
7.7497225534
 21
23.7486558744
  0
SPLINE
  5
83D
100
AcDbEntity
  8
ASSI
100
AcDbSpline
 62
7
  6
CONTINUOUS
 70
0
 71
3
 72
10
 73
6
 74
0
 42
0.0000001
 43
0.0000001
 44
0.0000000001
 40
0.0
 40
0.0
 40
0.0
 40
0.0
 40
0.1481764855
 40
0.3676382775
 40
1.0
 40
1.0
 40
1.0
 40
1.0
 10
7.7497225534
 20
23.7486558744
 30
0.0
 10
7.7490515023
 20
23.7453477373
 30
0.0
 10
7.7455331589
 20
23.7376078818
 30
0.0
 10
7.7336765801
 20
23.7182118787
 30
0.0
 10
7.7217987425
 20
23.7027678825
 30
0.0
 10
7.7128846921
 20
23.6914517067
 30
0.0
  0
SPLINE
  5
83E
100
AcDbEntity
  8
ASSI
100
AcDbSpline
 62
7
  6
CONTINUOUS
 70
0
 71
3
 72
10
 73
6
 74
0
 42
0.0000001
 43
0.0000001
 44
0.0000000001
 40
0.0
 40
0.0
 40
0.0
 40
0.0
 40
0.2006145814
 40
0.4482363437
 40
1.0
 40
1.0
 40
1.0
 40
1.0
 10
7.7128846921
 20
23.6914517067
 30
0.0
 10
7.6886794093
 20
23.6607236734
 30
0.0
 10
7.631471785
 20
23.5945780367
 30
0.0
 10
7.5010956171
 20
23.449621856
 30
0.0
 10
7.3950919682
 20
23.3353291787
 30
0.0
 10
7.3220300123
 20
23.2563578147
 30
0.0
  0
SPLINE
  5
83F
100
AcDbEntity
  8
ASSI
100
AcDbSpline
 62
7
  6
CONTINUOUS
 70
0
 71
3
 72
17
 73
13
 74
0
 42
0.0000001
 43
0.0000001
 44
0.0000000001
 40
0.0
 40
0.0
 40
0.0
 40
0.0
 40
0.1617591013
 40
0.3213177464
 40
0.4761373302
 40
0.6228988516
 40
0.7569023481
 40
0.8711775475
 40
0.9179222866
 40
0.9558020563
 40
0.9834036672
 40
1.0
 40
1.0
 40
1.0
 40
1.0
 10
15.1779699877
 20
23.2563578147
 30
0.0
 10
15.1539577891
 20
23.2823121715
 30
0.0
 10
15.1062599879
 20
23.3338676508
 30
0.0
 10
15.035697623
 20
23.4103733913
 30
0.0
 10
14.9676157222
 20
23.4847041588
 30
0.0
 10
14.9037314942
 20
23.555311731
 30
0.0
 10
14.8465258735
 20
23.6199780174
 30
0.0
 10
14.8046940792
 20
23.6691184073
 30
0.0
 10
14.7777889948
 20
23.703214075
 30
0.0
 10
14.7632802926
 20
23.7231364827
 30
0.0
 10
14.7540481538
 20
23.7382789045
 30
0.0
 10
14.75
 20
23.7475145546
 30
0.0
 10
14.75
 20
23.7511422903
 30
0.0
  0
SPLINE
  5
840
100
AcDbEntity
  8
ASSI
100
AcDbSpline
 62
7
  6
CONTINUOUS
 70
0
 71
3
 72
16
 73
12
 74
0
 42
0.0000001
 43
0.0000001
 44
0.0000000001
 40
0.0
 40
0.0
 40
0.0
 40
0.0
 40
0.0170484586
 40
0.0450469674
 40
0.0832172254
 40
0.1301475267
 40
0.2445409411
 40
0.3784318727
 40
0.524944756
 40
0.6794377841
 40
1.0
 40
1.0
 40
1.0
 40
1.0
 10
15.6059327327
 20
23.7507734247
 30
0.0
 10
15.6057890752
 20
23.7470516761
 30
0.0
 10
15.6015993798
 20
23.7377335695
 30
0.0
 10
15.5921584872
 20
23.7224049995
 30
0.0
 10
15.5775135398
 20
23.7023803157
 30
0.0
 10
15.5505013921
 20
23.6682255999
 30
0.0
 10
15.5086489207
 20
23.6191008506
 30
0.0
 10
15.4514963803
 20
23.5545192848
 30
0.0
 10
15.387743277
 20
23.4840669921
 30
0.0
 10
15.2960213232
 20
23.3839359604
 30
0.0
 10
15.2255294819
 20
23.3077640231
 30
0.0
 10
15.1779699877
 20
23.2563578147
 30
0.0
  0
SPLINE
  5
841
100
AcDbEntity
  8
ASSI
100
AcDbSpline
 62
7
  6
CONTINUOUS
 70
0
 71
3
 72
9
 73
5
 74
0
 42
0.0000001
 43
0.0000001
 44
0.0000000001
 40
0.0
 40
0.0
 40
0.0
 40
0.0
 40
0.2450655868
 40
1.0
 40
1.0
 40
1.0
 40
1.0
 10
-19.1546819875
 20
-21.7453180125
 30
0.0
 10
-19.1458324857
 20
-21.7316376171
 30
0.0
 10
-19.1094492059
 20
-21.6759904029
 30
0.0
 10
-19.072165775
 20
-21.6209364784
 30
0.0
 10
-19.0437483861
 20
-21.5795642558
 30
0.0
  0
SPLINE
  5
842
100
AcDbEntity
  8
ASSI
100
AcDbSpline
 62
7
  6
CONTINUOUS
 70
0
 71
3
 72
9
 73
5
 74
0
 42
0.0000001
 43
0.0000001
 44
0.0000000001
 40
0.0
 40
0.0
 40
0.0
 40
0.0
 40
0.2543880268
 40
1.0
 40
1.0
 40
1.0
 40
1.0
 10
-19.0437483861
 20
21.5795642558
 30
0.0
 10
-19.05332407
 20
21.5935052737
 30
0.0
 10
-19.0908368993
 20
21.6483954152
 30
0.0
 10
-19.1277574936
 20
21.7036955875
 30
0.0
 10
-19.1546819875
 20
21.7453180125
 30
0.0
  0
SPLINE
  5
843
100
AcDbEntity
  8
ASSI
100
AcDbSpline
 62
250
  6
CONTINUOUS
 70
0
 71
3
 72
11
 73
7
 74
0
 42
0.0000001
 43
0.0000001
 44
0.0000000001
 40
0.0
 40
0.0
 40
0.0
 40
0.0
 40
0.2331615336
 40
0.4766703279
 40
0.7338124406
 40
1.0
 40
1.0
 40
1.0
 40
1.0
 10
-21.895628166
 20
-23.8443375673
 30
0.0
 10
-21.8955330946
 20
-23.8160324888
 30
0.0
 10
-21.881602622
 20
-23.7574897042
 30
0.0
 10
-21.8246713294
 20
-23.6858275836
 30
0.0
 10
-21.7420024088
 20
-23.638830569
 30
0.0
 10
-21.6779468109
 20
-23.6279126226
 30
0.0
 10
-21.6456323968
 20
-23.6278312164
 30
0.0
  0
SPLINE
  5
844
100
AcDbEntity
  8
ASSI
100
AcDbSpline
 62
250
  6
CONTINUOUS
 70
0
 71
3
 72
11
 73
7
 74
0
 42
0.0000001
 43
0.0000001
 44
0.0000000001
 40
0.0
 40
0.0
 40
0.0
 40
0.0
 40
0.2331616882
 40
0.4766704685
 40
0.7338125439
 40
1.0
 40
1.0
 40
1.0
 40
1.0
 10
-19.504371834
 20
-23.8443375673
 30
0.0
 10
-19.5044669055
 20
-23.8160324701
 30
0.0
 10
-19.5183973941
 20
-23.757489668
 30
0.0
 10
-19.5753287102
 20
-23.685827552
 30
0.0
 10
-19.6579976215
 20
-23.6388305608
 30
0.0
 10
-19.7220532017
 20
-23.6279126226
 30
0.0
 10
-19.7543676032
 20
-23.6278312164
 30
0.0
  0
SPLINE
  5
845
100
AcDbEntity
  8
ASSI
100
AcDbSpline
 62
250
  6
CONTINUOUS
 70
0
 71
3
 72
11
 73
7
 74
0
 42
0.0000001
 43
0.0000001
 44
0.0000000001
 40
0.0
 40
0.0
 40
0.0
 40
0.0
 40
0.2331615336
 40
0.4766703279
 40
0.7338124406
 40
1.0
 40
1.0
 40
1.0
 40
1.0
 10
-2.995628166
 20
-23.8443375673
 30
0.0
 10
-2.9955330946
 20
-23.8160324888
 30
0.0
 10
-2.981602622
 20
-23.7574897042
 30
0.0
 10
-2.9246713294
 20
-23.6858275836
 30
0.0
 10
-2.8420024088
 20
-23.638830569
 30
0.0
 10
-2.7779468109
 20
-23.6279126226
 30
0.0
 10
-2.7456323968
 20
-23.6278312164
 30
0.0
  0
SPLINE
  5
846
100
AcDbEntity
  8
ASSI
100
AcDbSpline
 62
250
  6
CONTINUOUS
 70
0
 71
3
 72
11
 73
7
 74
0
 42
0.0000001
 43
0.0000001
 44
0.0000000001
 40
0.0
 40
0.0
 40
0.0
 40
0.0
 40
0.2331615336
 40
0.4766703279
 40
0.7338124406
 40
1.0
 40
1.0
 40
1.0
 40
1.0
 10
-0.604371834
 20
-23.8443375673
 30
0.0
 10
-0.6044669054
 20
-23.8160324888
 30
0.0
 10
-0.618397378
 20
-23.7574897042
 30
0.0
 10
-0.6753286706
 20
-23.6858275836
 30
0.0
 10
-0.7579975912
 20
-23.638830569
 30
0.0
 10
-0.8220531891
 20
-23.6279126226
 30
0.0
 10
-0.8543676032
 20
-23.6278312164
 30
0.0
  0
SPLINE
  5
847
100
AcDbEntity
  8
ASSI
100
AcDbSpline
 62
250
  6
CONTINUOUS
 70
0
 71
3
 72
11
 73
7
 74
0
 42
0.0000001
 43
0.0000001
 44
0.0000000001
 40
0.0
 40
0.0
 40
0.0
 40
0.0
 40
0.2331615336
 40
0.4766703279
 40
0.7338124406
 40
1.0
 40
1.0
 40
1.0
 40
1.0
 10
-19.504371834
 20
23.8443375673
 30
0.0
 10
-19.5044669054
 20
23.8160324888
 30
0.0
 10
-19.518397378
 20
23.7574897042
 30
0.0
 10
-19.5753286706
 20
23.6858275836
 30
0.0
 10
-19.6579975912
 20
23.638830569
 30
0.0
 10
-19.7220531891
 20
23.6279126226
 30
0.0
 10
-19.7543676032
 20
23.6278312164
 30
0.0
  0
SPLINE
  5
848
100
AcDbEntity
  8
ASSI
100
AcDbSpline
 62
250
  6
CONTINUOUS
 70
0
 71
3
 72
11
 73
7
 74
0
 42
0.0000001
 43
0.0000001
 44
0.0000000001
 40
0.0
 40
0.0
 40
0.0
 40
0.0
 40
0.2331616734
 40
0.4766704348
 40
0.7338124928
 40
1.0
 40
1.0
 40
1.0
 40
1.0
 10
-21.895628166
 20
23.8443375673
 30
0.0
 10
-21.8955330945
 20
23.8160324719
 30
0.0
 10
-21.881602608
 20
23.757489674
 30
0.0
 10
-21.824671299
 20
23.6858275607
 30
0.0
 10
-21.742002389
 20
23.6388305642
 30
0.0
 10
-21.6779468045
 20
23.6279126226
 30
0.0
 10
-21.6456323968
 20
23.6278312164
 30
0.0
  0
SPLINE
  5
849
100
AcDbEntity
  8
ASSI
100
AcDbSpline
 62
250
  6
CONTINUOUS
 70
0
 71
3
 72
11
 73
7
 74
0
 42
0.0000001
 43
0.0000001
 44
0.0000000001
 40
0.0
 40
0.0
 40
0.0
 40
0.0
 40
0.2331615336
 40
0.4766703279
 40
0.7338124406
 40
1.0
 40
1.0
 40
1.0
 40
1.0
 10
-0.604371834
 20
23.8443375673
 30
0.0
 10
-0.6044669054
 20
23.8160324888
 30
0.0
 10
-0.618397378
 20
23.7574897042
 30
0.0
 10
-0.6753286706
 20
23.6858275836
 30
0.0
 10
-0.7579975912
 20
23.638830569
 30
0.0
 10
-0.8220531891
 20
23.6279126226
 30
0.0
 10
-0.8543676032
 20
23.6278312164
 30
0.0
  0
SPLINE
  5
84A
100
AcDbEntity
  8
ASSI
100
AcDbSpline
 62
250
  6
CONTINUOUS
 70
0
 71
3
 72
11
 73
7
 74
0
 42
0.0000001
 43
0.0000001
 44
0.0000000001
 40
0.0
 40
0.0
 40
0.0
 40
0.0
 40
0.2331616734
 40
0.4766704348
 40
0.7338124928
 40
1.0
 40
1.0
 40
1.0
 40
1.0
 10
-2.995628166
 20
23.8443375673
 30
0.0
 10
-2.9955330945
 20
23.8160324719
 30
0.0
 10
-2.981602608
 20
23.757489674
 30
0.0
 10
-2.924671299
 20
23.6858275607
 30
0.0
 10
-2.842002389
 20
23.6388305642
 30
0.0
 10
-2.7779468045
 20
23.6279126226
 30
0.0
 10
-2.7456323968
 20
23.6278312164
 30
0.0
  0
SPLINE
  5
84B
100
AcDbEntity
  8
ASSI
100
AcDbSpline
 62
250
  6
CONTINUOUS
 70
0
 71
3
 72
11
 73
7
 74
0
 42
0.0000001
 43
0.0000001
 44
0.0000000001
 40
0.0
 40
0.0
 40
0.0
 40
0.0
 40
0.2331616882
 40
0.4766704685
 40
0.7338125439
 40
1.0
 40
1.0
 40
1.0
 40
1.0
 10
2.995628166
 20
-23.8443375673
 30
0.0
 10
2.9955330945
 20
-23.8160324701
 30
0.0
 10
2.9816026059
 20
-23.757489668
 30
0.0
 10
2.9246712898
 20
-23.685827552
 30
0.0
 10
2.8420023785
 20
-23.6388305608
 30
0.0
 10
2.7779467983
 20
-23.6279126226
 30
0.0
 10
2.7456323968
 20
-23.6278312164
 30
0.0
  0
SPLINE
  5
84C
100
AcDbEntity
  8
ASSI
100
AcDbSpline
 62
250
  6
CONTINUOUS
 70
0
 71
3
 72
11
 73
7
 74
0
 42
0.0000001
 43
0.0000001
 44
0.0000000001
 40
0.0
 40
0.0
 40
0.0
 40
0.0
 40
0.2331615336
 40
0.4766703279
 40
0.7338124406
 40
1.0
 40
1.0
 40
1.0
 40
1.0
 10
0.604371834
 20
-23.8443375673
 30
0.0
 10
0.6044669054
 20
-23.8160324888
 30
0.0
 10
0.618397378
 20
-23.7574897042
 30
0.0
 10
0.6753286706
 20
-23.6858275836
 30
0.0
 10
0.7579975912
 20
-23.638830569
 30
0.0
 10
0.8220531891
 20
-23.6279126226
 30
0.0
 10
0.8543676032
 20
-23.6278312164
 30
0.0
  0
SPLINE
  5
84D
100
AcDbEntity
  8
ASSI
100
AcDbSpline
 62
250
  6
CONTINUOUS
 70
0
 71
3
 72
11
 73
7
 74
0
 42
0.0000001
 43
0.0000001
 44
0.0000000001
 40
0.0
 40
0.0
 40
0.0
 40
0.0
 40
0.2331615336
 40
0.4766703279
 40
0.7338124406
 40
1.0
 40
1.0
 40
1.0
 40
1.0
 10
19.504371834
 20
-23.8443375673
 30
0.0
 10
19.5044669054
 20
-23.8160324888
 30
0.0
 10
19.518397378
 20
-23.7574897042
 30
0.0
 10
19.5753286706
 20
-23.6858275836
 30
0.0
 10
19.6579975912
 20
-23.638830569
 30
0.0
 10
19.7220531891
 20
-23.6279126226
 30
0.0
 10
19.7543676032
 20
-23.6278312164
 30
0.0
  0
SPLINE
  5
84E
100
AcDbEntity
  8
ASSI
100
AcDbSpline
 62
250
  6
CONTINUOUS
 70
0
 71
3
 72
11
 73
7
 74
0
 42
0.0000001
 43
0.0000001
 44
0.0000000001
 40
0.0
 40
0.0
 40
0.0
 40
0.0
 40
0.2331615336
 40
0.4766703279
 40
0.7338124406
 40
1.0
 40
1.0
 40
1.0
 40
1.0
 10
21.895628166
 20
-23.8443375673
 30
0.0
 10
21.8955330946
 20
-23.8160324888
 30
0.0
 10
21.881602622
 20
-23.7574897042
 30
0.0
 10
21.8246713294
 20
-23.6858275836
 30
0.0
 10
21.7420024088
 20
-23.638830569
 30
0.0
 10
21.6779468109
 20
-23.6279126226
 30
0.0
 10
21.6456323968
 20
-23.6278312164
 30
0.0
  0
SPLINE
  5
84F
100
AcDbEntity
  8
ASSI
100
AcDbSpline
 62
250
  6
CONTINUOUS
 70
0
 71
3
 72
11
 73
7
 74
0
 42
0.0000001
 43
0.0000001
 44
0.0000000001
 40
0.0
 40
0.0
 40
0.0
 40
0.0
 40
0.2331615336
 40
0.4766703279
 40
0.7338124406
 40
1.0
 40
1.0
 40
1.0
 40
1.0
 10
2.995628166
 20
23.8443375673
 30
0.0
 10
2.9955330946
 20
23.8160324888
 30
0.0
 10
2.981602622
 20
23.7574897042
 30
0.0
 10
2.9246713294
 20
23.6858275836
 30
0.0
 10
2.8420024088
 20
23.638830569
 30
0.0
 10
2.7779468109
 20
23.6279126226
 30
0.0
 10
2.7456323968
 20
23.6278312164
 30
0.0
  0
SPLINE
  5
850
100
AcDbEntity
  8
ASSI
100
AcDbSpline
 62
250
  6
CONTINUOUS
 70
0
 71
3
 72
11
 73
7
 74
0
 42
0.0000001
 43
0.0000001
 44
0.0000000001
 40
0.0
 40
0.0
 40
0.0
 40
0.0
 40
0.2331616734
 40
0.4766704348
 40
0.7338124928
 40
1.0
 40
1.0
 40
1.0
 40
1.0
 10
0.604371834
 20
23.8443375673
 30
0.0
 10
0.6044669055
 20
23.8160324719
 30
0.0
 10
0.618397392
 20
23.757489674
 30
0.0
 10
0.675328701
 20
23.6858275607
 30
0.0
 10
0.757997611
 20
23.6388305642
 30
0.0
 10
0.8220531955
 20
23.6279126226
 30
0.0
 10
0.8543676032
 20
23.6278312164
 30
0.0
  0
SPLINE
  5
851
100
AcDbEntity
  8
ASSI
100
AcDbSpline
 62
250
  6
CONTINUOUS
 70
0
 71
3
 72
11
 73
7
 74
0
 42
0.0000001
 43
0.0000001
 44
0.0000000001
 40
0.0
 40
0.0
 40
0.0
 40
0.0
 40
0.2331616734
 40
0.4766704348
 40
0.7338124928
 40
1.0
 40
1.0
 40
1.0
 40
1.0
 10
19.504371834
 20
23.8443375673
 30
0.0
 10
19.5044669055
 20
23.8160324719
 30
0.0
 10
19.518397392
 20
23.757489674
 30
0.0
 10
19.575328701
 20
23.6858275607
 30
0.0
 10
19.657997611
 20
23.6388305642
 30
0.0
 10
19.7220531955
 20
23.6279126226
 30
0.0
 10
19.7543676032
 20
23.6278312164
 30
0.0
  0
SPLINE
  5
852
100
AcDbEntity
  8
ASSI
100
AcDbSpline
 62
250
  6
CONTINUOUS
 70
0
 71
3
 72
11
 73
7
 74
0
 42
0.0000001
 43
0.0000001
 44
0.0000000001
 40
0.0
 40
0.0
 40
0.0
 40
0.0
 40
0.2331615336
 40
0.4766703279
 40
0.7338124406
 40
1.0
 40
1.0
 40
1.0
 40
1.0
 10
21.895628166
 20
23.8443375673
 30
0.0
 10
21.8955330946
 20
23.8160324888
 30
0.0
 10
21.881602622
 20
23.7574897042
 30
0.0
 10
21.8246713294
 20
23.6858275836
 30
0.0
 10
21.7420024088
 20
23.638830569
 30
0.0
 10
21.6779468109
 20
23.6279126226
 30
0.0
 10
21.6456323968
 20
23.6278312164
 30
0.0
  0
ELLIPSE
  5
853
100
AcDbEntity
  8
RACCORDO
100
AcDbEllipse
 62
7
  6
CONTINUOUS
 10
12.8671786722
 20
-14.4902061453
 30
0.0
 11
0.797757865
 21
0.7991576498
 31
0.0
 40
0.8855828748
 41
0.7433912566
 42
2.3714920227
  0
ELLIPSE
  5
854
100
AcDbEntity
  8
RACCORDO
100
AcDbEllipse
 62
7
  6
CONTINUOUS
 10
12.8671786722
 20
-15.7097938547
 30
0.0
 11
-0.797757865
 21
0.7991576498
 31
0.0
 40
0.8855828748
 41
0.7701006309
 42
2.3982013969
  0
ELLIPSE
  5
855
100
AcDbEntity
  8
RACCORDO
100
AcDbEllipse
 62
7
  6
CONTINUOUS
 10
8.2290017093
 20
-14.5072653513
 30
0.0
 11
-0.797757865
 21
0.7991576498
 31
0.0
 40
0.8855828748
 41
-2.3714920227
 42
-0.7433912566
  0
ELLIPSE
  5
856
100
AcDbEntity
  8
RACCORDO
100
AcDbEllipse
 62
7
  6
CONTINUOUS
 10
8.2290017093
 20
-15.6927346487
 30
0.0
 11
0.797757865
 21
0.7991576498
 31
0.0
 40
0.8855828748
 41
3.8849839102
 42
5.5130846762
  0
ELLIPSE
  5
857
100
AcDbEntity
  8
DRAFT
100
AcDbEllipse
 62
7
  6
CONTINUOUS
 10
-19.8478332664
 20
-16.15
 30
0.0
 11
0.9931323188
 21
-0.0
 31
0.0
 40
0.9999976201
 41
-3.1415926536
 42
-1.5729780455
  0
ELLIPSE
  5
858
100
AcDbEntity
  8
DRAFT
100
AcDbEllipse
 62
7
  6
CONTINUOUS
 10
-19.8478332664
 20
-14.15
 30
0.0
 11
0.9931323188
 21
0.0
 31
0.0
 40
0.9999976201
 41
1.5729780455
 42
3.1415926536
  0
ELLIPSE
  5
859
100
AcDbEntity
  8
DRAFT
100
AcDbEllipse
 62
7
  6
CONTINUOUS
 10
-19.8478332664
 20
14.15
 30
0.0
 11
0.9931323188
 21
0.0
 31
0.0
 40
0.9999976201
 41
-3.1415926536
 42
-1.5729780455
  0
ELLIPSE
  5
85A
100
AcDbEntity
  8
DRAFT
100
AcDbEllipse
 62
7
  6
CONTINUOUS
 10
-19.8478332664
 20
16.15
 30
0.0
 11
0.9931323188
 21
0.0
 31
0.0
 40
0.9999976201
 41
1.5729780455
 42
3.1415926536
  0
ELLIPSE
  5
85B
100
AcDbEntity
  8
ASSI
100
AcDbEllipse
 62
7
  6
CONTINUOUS
 10
-11.2587268678
 20
-20.7586887894
 30
0.0
 11
0.0
 21
1.0
 31
0.0
 40
0.0087268678
 41
-3.1328660073
 42
-1.5707963268
  0
ELLIPSE
  5
85C
100
AcDbEntity
  8
ASSI
100
AcDbEllipse
 62
7
  6
CONTINUOUS
 10
-10.0412731322
 20
-20.7586887894
 30
0.0
 11
0.0
 21
1.0
 31
0.0
 40
0.0087268678
 41
1.5707963268
 42
3.1328660073
  0
ELLIPSE
  5
85D
100
AcDbEntity
  8
ASSI
100
AcDbEllipse
 62
7
  6
CONTINUOUS
 10
-9.017396618
 20
16.167396618
 30
0.0
 11
-1.0607409467
 21
1.0607409467
 31
0.0
 40
0.9999238505
 41
-0.7853600872
 42
0.7853600872
  0
ELLIPSE
  5
85E
100
AcDbEntity
  8
ASSI
100
AcDbEllipse
 62
7
  6
CONTINUOUS
 10
-9.017396618
 20
14.132603382
 30
0.0
 11
1.0607409467
 21
1.0607409467
 31
0.0
 40
0.9999238505
 41
-3.9269527408
 42
-2.3562325664
  0
ELLIPSE
  5
85F
100
AcDbEntity
  8
ASSI
100
AcDbEllipse
 62
7
  6
CONTINUOUS
 10
-13.482603382
 20
14.132603382
 30
0.0
 11
-1.0607409467
 21
1.0607409467
 31
0.0
 40
0.9999238505
 41
-3.9269527408
 42
-2.3562325664
  0
ELLIPSE
  5
860
100
AcDbEntity
  8
ASSI
100
AcDbEllipse
 62
7
  6
CONTINUOUS
 10
-13.482603382
 20
16.167396618
 30
0.0
 11
1.0607409467
 21
1.0607409467
 31
0.0
 40
0.9999238505
 41
-0.7853600872
 42
0.7853600872
  0
ELLIPSE
  5
861
100
AcDbEntity
  8
ASSI
100
AcDbEllipse
 62
7
  6
CONTINUOUS
 10
-9.0
 20
-14.1807764064
 30
0.0
 11
-0.0
 21
1.0307764064
 31
0.0
 40
0.9701425001
 41
-0.0
 42
1.5707963268
  0
ELLIPSE
  5
862
100
AcDbEntity
  8
ASSI
100
AcDbEllipse
 62
7
  6
CONTINUOUS
 10
-9.0
 20
-16.1192235936
 30
0.0
 11
0.0
 21
1.0307764064
 31
0.0
 40
0.9701425001
 41
-4.7123889804
 42
-3.1415926536
  0
ELLIPSE
  5
863
100
AcDbEntity
  8
ASSI
100
AcDbEllipse
 62
7
  6
CONTINUOUS
 10
-10.0456365661
 20
-19.7542872771
 30
0.0
 11
0.0
 21
2.0
 31
0.0
 40
0.0087268678
 41
1.5707963268
 42
3.1328660073
  0
ELLIPSE
  5
864
100
AcDbEntity
  8
ASSI
100
AcDbEllipse
 62
7
  6
CONTINUOUS
 10
-10.0543634339
 20
10.0044015123
 30
0.0
 11
-0.0
 21
1.0
 31
0.0
 40
0.0087268678
 41
-4.7123889804
 42
-3.1503192998
  0
ELLIPSE
  5
865
100
AcDbEntity
  8
ASSI
100
AcDbEllipse
 62
7
  6
CONTINUOUS
 10
-11.2543634339
 20
-19.7542872771
 30
0.0
 11
-0.0
 21
2.0
 31
0.0
 40
0.0087268678
 41
-3.1328660073
 42
-1.5707963268
  0
ELLIPSE
  5
866
100
AcDbEntity
  8
ASSI
100
AcDbEllipse
 62
7
  6
CONTINUOUS
 10
-11.2456365661
 20
10.0044015123
 30
0.0
 11
-0.0
 21
1.0
 31
0.0
 40
0.0087268678
 41
-3.1328660073
 42
-1.5707963268
  0
ELLIPSE
  5
867
100
AcDbEntity
  8
ASSI
100
AcDbEllipse
 62
7
  6
CONTINUOUS
 10
-8.9999428824
 20
14.1500571176
 30
0.0
 11
-1.0607409467
 21
-1.0607409467
 31
0.0
 40
0.9999238505
 41
-0.7853600872
 42
0.7853600872
  0
ELLIPSE
  5
868
100
AcDbEntity
  8
ASSI
100
AcDbEllipse
 62
7
  6
CONTINUOUS
 10
-8.9999428824
 20
16.1499428824
 30
0.0
 11
-1.0607409467
 21
1.0607409467
 31
0.0
 40
0.9999238505
 41
-0.7853600872
 42
0.7853600872
  0
ELLIPSE
  5
869
100
AcDbEntity
  8
ASSI
100
AcDbEllipse
 62
7
  6
CONTINUOUS
 10
-13.5000571176
 20
16.1499428824
 30
0.0
 11
1.0607409467
 21
1.0607409467
 31
0.0
 40
0.9999238505
 41
-0.7853600872
 42
0.7853600872
  0
ELLIPSE
  5
86A
100
AcDbEntity
  8
ASSI
100
AcDbEllipse
 62
7
  6
CONTINUOUS
 10
-13.5000571176
 20
14.1500571176
 30
0.0
 11
1.0607409467
 21
-1.0607409467
 31
0.0
 40
0.9999238505
 41
-0.7853600872
 42
0.7853600872
  0
ELLIPSE
  5
86B
100
AcDbEntity
  8
ASSI
100
AcDbEllipse
 62
7
  6
CONTINUOUS
 10
-13.5
 20
-16.1192235936
 30
0.0
 11
-0.0
 21
1.0307764064
 31
0.0
 40
0.9701425001
 41
-3.1415926536
 42
-1.5707963268
  0
ELLIPSE
  5
86C
100
AcDbEntity
  8
ASSI
100
AcDbEllipse
 62
7
  6
CONTINUOUS
 10
-13.5
 20
-14.1807764064
 30
0.0
 11
-0.0
 21
1.0307764064
 31
0.0
 40
0.9701425001
 41
-1.5707963268
 42
0.0
  0
ELLIPSE
  5
86D
100
AcDbEntity
  8
DRAFT
100
AcDbEllipse
 62
7
  6
CONTINUOUS
 10
-2.6016210638
 20
-13.9
 30
0.0
 11
0.7430220425
 21
-0.0
 31
0.0
 40
0.9999976201
 41
0.2728621725
 42
1.5686146081
  0
ELLIPSE
  5
86E
100
AcDbEntity
  8
DRAFT
100
AcDbEllipse
 62
7
  6
CONTINUOUS
 10
-2.6016210638
 20
-16.4
 30
0.0
 11
0.7430220425
 21
0.0
 31
0.0
 40
0.9999976201
 41
-1.5686146081
 42
-0.2728621725
  0
ELLIPSE
  5
86F
100
AcDbEntity
  8
DRAFT
100
AcDbEllipse
 62
7
  6
CONTINUOUS
 10
-2.6016210638
 20
16.4
 30
0.0
 11
0.7430220425
 21
0.0
 31
0.0
 40
0.9999976201
 41
0.2728621725
 42
1.5686146081
  0
ELLIPSE
  5
870
100
AcDbEntity
  8
DRAFT
100
AcDbEllipse
 62
7
  6
CONTINUOUS
 10
-2.6016210638
 20
13.9
 30
0.0
 11
0.7430220425
 21
0.0
 31
0.0
 40
0.9999976201
 41
-1.5686146081
 42
-0.2728621725
  0
ELLIPSE
  5
871
100
AcDbEntity
  8
DRAFT
100
AcDbEllipse
 62
7
  6
CONTINUOUS
 10
19.2
 20
-14.5243345696
 30
0.0
 11
-0.0128761934
 21
1.1179783831
 31
0.0
 40
0.8943975246
 41
-1.2451962793
 42
-0.0128765492
  0
ELLIPSE
  5
872
100
AcDbEntity
  8
DRAFT
100
AcDbEllipse
 62
7
  6
CONTINUOUS
 10
19.2
 20
-15.6756654304
 30
0.0
 11
0.0128761934
 21
1.1179783831
 31
0.0
 40
0.8943975246
 41
-3.1287161043
 42
-1.893896804
  0
ELLIPSE
  5
873
100
AcDbEntity
  8
DRAFT
100
AcDbEllipse
 62
7
  6
CONTINUOUS
 10
8.3
 20
-15.707055524
 30
0.0
 11
0.0128761934
 21
1.1179783831
 31
0.0
 40
0.8943975246
 41
-3.1287161043
 42
-1.893896804
  0
ELLIPSE
  5
874
100
AcDbEntity
  8
DRAFT
100
AcDbEllipse
 62
7
  6
CONTINUOUS
 10
8.3
 20
-14.492944476
 30
0.0
 11
-0.0128761934
 21
1.1179783831
 31
0.0
 40
0.8943975246
 41
-1.2451962793
 42
-0.0128765492
  0
ELLIPSE
  5
875
100
AcDbEntity
  8
DRAFT
100
AcDbEllipse
 62
7
  6
CONTINUOUS
 10
12.8
 20
-15.6940963111
 30
0.0
 11
0.0128761934
 21
1.1179783831
 31
0.0
 40
0.8943975246
 41
-4.3616735333
 42
-3.1287161043
  0
ELLIPSE
  5
876
100
AcDbEntity
  8
DRAFT
100
AcDbEllipse
 62
7
  6
CONTINUOUS
 10
12.8
 20
-14.5059036889
 30
0.0
 11
-0.0128761934
 21
1.1179783831
 31
0.0
 40
0.8943975246
 41
-0.0128765492
 42
1.2225714656
  0
ELLIPSE
  5
877
100
AcDbEntity
  8
DRAFT
100
AcDbEllipse
 62
7
  6
CONTINUOUS
 10
1.9
 20
-14.4745135952
 30
0.0
 11
-0.0128761934
 21
1.1179783831
 31
0.0
 40
0.8943975246
 41
-0.0128765492
 42
1.2225714656
  0
ELLIPSE
  5
878
100
AcDbEntity
  8
DRAFT
100
AcDbEllipse
 62
7
  6
CONTINUOUS
 10
1.9
 20
-15.7254864048
 30
0.0
 11
0.0128761934
 21
1.1179783831
 31
0.0
 40
0.8943975246
 41
-4.3616735333
 42
-3.1287161043
  0
ELLIPSE
  5
879
100
AcDbEntity
  8
DRAFT
100
AcDbEllipse
 62
7
  6
CONTINUOUS
 10
7.0999598613
 20
14.0
 30
0.0
 11
0.3992510178
 21
0.0
 31
0.0
 40
0.9999999949
 41
-1.5706957917
 42
1.5706957917
  0
ELLIPSE
  5
87A
100
AcDbEntity
  8
DRAFT
100
AcDbEllipse
 62
7
  6
CONTINUOUS
 10
3.0999598208
 20
14.0
 30
0.0
 11
0.3996531581
 21
0.0
 31
0.0
 40
0.9999999949
 41
1.5706957917
 42
4.7124895155
  0
ELLIPSE
  5
87B
100
AcDbEntity
  8
DRAFT
100
AcDbEllipse
 62
7
  6
CONTINUOUS
 10
7.0999598613
 20
12.0
 30
0.0
 11
0.3992510178
 21
0.0
 31
0.0
 40
0.9999999949
 41
-1.5706957917
 42
1.5706957917
  0
ELLIPSE
  5
87C
100
AcDbEntity
  8
DRAFT
100
AcDbEllipse
 62
7
  6
CONTINUOUS
 10
3.0999598208
 20
12.0
 30
0.0
 11
0.3996531581
 21
0.0
 31
0.0
 40
0.9999999949
 41
1.5706957917
 42
4.7124895155
  0
ELLIPSE
  5
87D
100
AcDbEntity
  8
DRAFT
100
AcDbEllipse
 62
7
  6
CONTINUOUS
 10
7.0999598613
 20
10.0
 30
0.0
 11
0.3992510178
 21
-0.0
 31
0.0
 40
0.9999999949
 41
-1.5706957917
 42
1.5706957917
  0
ELLIPSE
  5
87E
100
AcDbEntity
  8
DRAFT
100
AcDbEllipse
 62
7
  6
CONTINUOUS
 10
3.0999598208
 20
10.0
 30
0.0
 11
0.3996531581
 21
0.0
 31
0.0
 40
0.9999999949
 41
1.5706957917
 42
4.7124895155
  0
ELLIPSE
  5
87F
100
AcDbEntity
  8
DRAFT
100
AcDbEllipse
 62
7
  6
CONTINUOUS
 10
13.999959931
 20
0.0
 30
0.0
 11
0.3985573258
 21
-0.0
 31
0.0
 40
0.9999999949
 41
1.5706957917
 42
4.7124895155
  0
ELLIPSE
  5
880
100
AcDbEntity
  8
DRAFT
100
AcDbEllipse
 62
7
  6
CONTINUOUS
 10
17.9999599714
 20
0.0
 30
0.0
 11
0.3981551855
 21
-0.0
 31
0.0
 40
0.9999999949
 41
-1.5706957917
 42
1.5706957917
  0
ELLIPSE
  5
881
100
AcDbEntity
  8
DRAFT
100
AcDbEllipse
 62
7
  6
CONTINUOUS
 10
13.999959931
 20
2.0
 30
0.0
 11
0.3985573258
 21
0.0
 31
0.0
 40
0.9999999949
 41
1.5706957917
 42
4.7124895155
  0
ELLIPSE
  5
882
100
AcDbEntity
  8
DRAFT
100
AcDbEllipse
 62
7
  6
CONTINUOUS
 10
17.9999599714
 20
2.0
 30
0.0
 11
0.3981551855
 21
-0.0
 31
0.0
 40
0.9999999949
 41
-1.5706957917
 42
1.5706957917
  0
ELLIPSE
  5
883
100
AcDbEntity
  8
DRAFT
100
AcDbEllipse
 62
7
  6
CONTINUOUS
 10
13.999959931
 20
4.0
 30
0.0
 11
0.3985573258
 21
0.0
 31
0.0
 40
0.9999999949
 41
1.5706957917
 42
4.7124895155
  0
ELLIPSE
  5
884
100
AcDbEntity
  8
DRAFT
100
AcDbEllipse
 62
7
  6
CONTINUOUS
 10
17.9999599714
 20
4.0
 30
0.0
 11
0.3981551855
 21
0.0
 31
0.0
 40
0.9999999949
 41
-1.5706957917
 42
1.5706957917
  0
ELLIPSE
  5
885
100
AcDbEntity
  8
DRAFT
100
AcDbEllipse
 62
7
  6
CONTINUOUS
 10
13.999959931
 20
6.0
 30
0.0
 11
0.3985573258
 21
-0.0
 31
0.0
 40
0.9999999949
 41
1.5706957917
 42
4.7124895155
  0
ELLIPSE
  5
886
100
AcDbEntity
  8
DRAFT
100
AcDbEllipse
 62
7
  6
CONTINUOUS
 10
17.9999599714
 20
6.0
 30
0.0
 11
0.3981551855
 21
-0.0
 31
0.0
 40
0.9999999949
 41
-1.5706957917
 42
1.5706957917
  0
ELLIPSE
  5
887
100
AcDbEntity
  8
DRAFT
100
AcDbEllipse
 62
7
  6
CONTINUOUS
 10
13.999959931
 20
8.0
 30
0.0
 11
0.3985573258
 21
-0.0
 31
0.0
 40
0.9999999949
 41
1.5706957917
 42
4.7124895155
  0
ELLIPSE
  5
888
100
AcDbEntity
  8
DRAFT
100
AcDbEllipse
 62
7
  6
CONTINUOUS
 10
17.9999599714
 20
8.0
 30
0.0
 11
0.3981551855
 21
-0.0
 31
0.0
 40
0.9999999949
 41
-1.5706957917
 42
1.5706957917
  0
ELLIPSE
  5
889
100
AcDbEntity
  8
DRAFT
100
AcDbEllipse
 62
7
  6
CONTINUOUS
 10
13.999959931
 20
10.0
 30
0.0
 11
0.3985573258
 21
-0.0
 31
0.0
 40
0.9999999949
 41
1.5706957917
 42
4.7124895155
  0
ELLIPSE
  5
88A
100
AcDbEntity
  8
DRAFT
100
AcDbEllipse
 62
7
  6
CONTINUOUS
 10
17.9999599714
 20
10.0
 30
0.0
 11
0.3981551855
 21
0.0
 31
0.0
 40
0.9999999949
 41
-1.5706957917
 42
1.5706957917
  0
ELLIPSE
  5
88B
100
AcDbEntity
  8
DRAFT
100
AcDbEllipse
 62
7
  6
CONTINUOUS
 10
13.999959931
 20
12.0
 30
0.0
 11
0.3985573258
 21
0.0
 31
0.0
 40
0.9999999949
 41
1.5706957917
 42
4.7124895155
  0
ELLIPSE
  5
88C
100
AcDbEntity
  8
DRAFT
100
AcDbEllipse
 62
7
  6
CONTINUOUS
 10
17.9999599714
 20
12.0
 30
0.0
 11
0.3981551855
 21
-0.0
 31
0.0
 40
0.9999999949
 41
-1.5706957917
 42
1.5706957917
  0
ELLIPSE
  5
88D
100
AcDbEntity
  8
DRAFT
100
AcDbEllipse
 62
7
  6
CONTINUOUS
 10
13.999959931
 20
14.0
 30
0.0
 11
0.3985573258
 21
0.0
 31
0.0
 40
0.9999999949
 41
1.5706957917
 42
4.7124895155
  0
ELLIPSE
  5
88E
100
AcDbEntity
  8
DRAFT
100
AcDbEllipse
 62
7
  6
CONTINUOUS
 10
17.9999599714
 20
14.0
 30
0.0
 11
0.3981551855
 21
-0.0
 31
0.0
 40
0.9999999949
 41
-1.5706957917
 42
1.5706957917
  0
ELLIPSE
  5
88F
100
AcDbEntity
  8
DRAFT
100
AcDbEllipse
 62
7
  6
CONTINUOUS
 10
3.0999598208
 20
0.0
 30
0.0
 11
0.3996531581
 21
0.0
 31
0.0
 40
0.9999999949
 41
1.5706957917
 42
4.7124895155
  0
ELLIPSE
  5
890
100
AcDbEntity
  8
DRAFT
100
AcDbEllipse
 62
7
  6
CONTINUOUS
 10
7.0999598613
 20
0.0
 30
0.0
 11
0.3992510178
 21
0.0
 31
0.0
 40
0.9999999949
 41
-1.5706957917
 42
1.5706957917
  0
ELLIPSE
  5
891
100
AcDbEntity
  8
DRAFT
100
AcDbEllipse
 62
7
  6
CONTINUOUS
 10
3.0999598208
 20
2.0
 30
0.0
 11
0.3996531581
 21
0.0
 31
0.0
 40
0.9999999949
 41
1.5706957917
 42
4.7124895155
  0
ELLIPSE
  5
892
100
AcDbEntity
  8
DRAFT
100
AcDbEllipse
 62
7
  6
CONTINUOUS
 10
7.0999598613
 20
2.0
 30
0.0
 11
0.3992510178
 21
-0.0
 31
0.0
 40
0.9999999949
 41
-1.5706957917
 42
1.5706957917
  0
ELLIPSE
  5
893
100
AcDbEntity
  8
DRAFT
100
AcDbEllipse
 62
7
  6
CONTINUOUS
 10
3.0999598208
 20
4.0
 30
0.0
 11
0.3996531581
 21
0.0
 31
0.0
 40
0.9999999949
 41
1.5706957917
 42
4.7124895155
  0
ELLIPSE
  5
894
100
AcDbEntity
  8
DRAFT
100
AcDbEllipse
 62
7
  6
CONTINUOUS
 10
7.0999598613
 20
4.0
 30
0.0
 11
0.3992510178
 21
-0.0
 31
0.0
 40
0.9999999949
 41
-1.5706957917
 42
1.5706957917
  0
ELLIPSE
  5
895
100
AcDbEntity
  8
DRAFT
100
AcDbEllipse
 62
7
  6
CONTINUOUS
 10
3.0999598208
 20
6.0
 30
0.0
 11
0.3996531581
 21
0.0
 31
0.0
 40
0.9999999949
 41
1.5706957917
 42
4.7124895155
  0
ELLIPSE
  5
896
100
AcDbEntity
  8
DRAFT
100
AcDbEllipse
 62
7
  6
CONTINUOUS
 10
7.0999598613
 20
6.0
 30
0.0
 11
0.3992510178
 21
0.0
 31
0.0
 40
0.9999999949
 41
-1.5706957917
 42
1.5706957917
  0
ELLIPSE
  5
897
100
AcDbEntity
  8
DRAFT
100
AcDbEllipse
 62
7
  6
CONTINUOUS
 10
3.0999598208
 20
8.0
 30
0.0
 11
0.3996531581
 21
0.0
 31
0.0
 40
0.9999999949
 41
1.5706957917
 42
4.7124895155
  0
ELLIPSE
  5
898
100
AcDbEntity
  8
DRAFT
100
AcDbEllipse
 62
7
  6
CONTINUOUS
 10
7.0999598613
 20
8.0
 30
0.0
 11
0.3992510178
 21
0.0
 31
0.0
 40
0.9999999949
 41
-1.5706957917
 42
1.5706957917
  0
ELLIPSE
  5
899
100
AcDbEntity
  8
RACCORDO
100
AcDbEllipse
 62
7
  6
CONTINUOUS
 10
19.2
 20
-13.9680339887
 30
0.0
 11
-0.0
 21
1.1180339887
 31
0.0
 40
0.894427191
 41
-1.5707963268
 42
0.0
  0
ELLIPSE
  5
89A
100
AcDbEntity
  8
RACCORDO
100
AcDbEllipse
 62
7
  6
CONTINUOUS
 10
19.2
 20
-16.2319660113
 30
0.0
 11
0.0
 21
1.1180339887
 31
0.0
 40
0.894427191
 41
-3.1415926536
 42
-1.5707963268
  0
ELLIPSE
  5
89B
100
AcDbEntity
  8
RACCORDO
100
AcDbEllipse
 62
7
  6
CONTINUOUS
 10
8.3
 20
-16.2319660113
 30
0.0
 11
0.0
 21
1.1180339887
 31
0.0
 40
0.894427191
 41
-3.1415926536
 42
-1.5707963268
  0
ELLIPSE
  5
89C
100
AcDbEntity
  8
RACCORDO
100
AcDbEllipse
 62
7
  6
CONTINUOUS
 10
8.3
 20
-13.9680339887
 30
0.0
 11
-0.0
 21
1.1180339887
 31
0.0
 40
0.894427191
 41
-1.5707963268
 42
0.0
  0
ELLIPSE
  5
89D
100
AcDbEntity
  8
RACCORDO
100
AcDbEllipse
 62
7
  6
CONTINUOUS
 10
12.8
 20
-16.2319660113
 30
0.0
 11
0.0
 21
1.1180339887
 31
0.0
 40
0.894427191
 41
1.5707963268
 42
3.1415926536
  0
ELLIPSE
  5
89E
100
AcDbEntity
  8
RACCORDO
100
AcDbEllipse
 62
7
  6
CONTINUOUS
 10
12.8
 20
-13.9680339887
 30
0.0
 11
-0.0
 21
1.1180339887
 31
0.0
 40
0.894427191
 41
0.0
 42
1.5707963268
  0
ELLIPSE
  5
89F
100
AcDbEntity
  8
RACCORDO
100
AcDbEllipse
 62
7
  6
CONTINUOUS
 10
1.9
 20
-13.9680339887
 30
0.0
 11
0.0
 21
1.1180339887
 31
0.0
 40
0.894427191
 41
0.0
 42
1.5707963268
  0
ELLIPSE
  5
8A0
100
AcDbEntity
  8
RACCORDO
100
AcDbEllipse
 62
7
  6
CONTINUOUS
 10
1.9
 20
-16.2319660113
 30
0.0
 11
0.0
 21
1.1180339887
 31
0.0
 40
0.894427191
 41
1.5707963268
 42
3.1415926536
  0
ELLIPSE
  5
8A1
100
AcDbEntity
  8
RACCORDO
100
AcDbEllipse
 62
7
  6
CONTINUOUS
 10
21.9499314524
 20
21.9412559969
 30
0.0
 11
0.4025750024
 21
-0.2012721715
 31
0.0
 40
0.9998096356
 41
0.4635410001
 42
1.5707392502
  0
ELLIPSE
  5
8A2
100
AcDbEntity
  8
RACCORDO
100
AcDbEllipse
 62
7
  6
CONTINUOUS
 10
21.9499314524
 20
-21.9412559969
 30
0.0
 11
-0.4025750024
 21
-0.2012721715
 31
0.0
 40
0.9998096356
 41
7.3902883349
 42
8.9612369607
  0
ELLIPSE
  5
8A3
100
AcDbEntity
  8
RACCORDO
100
AcDbEllipse
 62
7
  6
CONTINUOUS
 10
21.9499314524
 20
21.9412559969
 30
0.0
 11
0.4025750024
 21
-0.2012721715
 31
0.0
 40
0.9998096356
 41
1.7729138719
 42
2.0344896259
  0
ELLIPSE
  5
8A4
100
AcDbEntity
  8
RACCORDO
100
AcDbEllipse
 62
7
  6
CONTINUOUS
 10
-21.9499314524
 20
-21.9412559969
 30
0.0
 11
-0.4025750024
 21
0.2012721715
 31
0.0
 40
0.9998096356
 41
6.7467263073
 42
8.3176749331
  0
ELLIPSE
  5
8A5
100
AcDbEntity
  8
RACCORDO
100
AcDbEllipse
 62
7
  6
CONTINUOUS
 10
19.7500042309
 20
23.4113248654
 30
0.0
 11
0.0029088041
 21
0.2886641433
 31
0.0
 40
0.8660144118
 41
-4.7007536982
 42
-3.1328662412
  0
ELLIPSE
  5
8A6
100
AcDbEntity
  8
RACCORDO
100
AcDbEllipse
 62
7
  6
CONTINUOUS
 10
21.6499957691
 20
23.4113248654
 30
0.0
 11
-0.0029088041
 21
0.2886641433
 31
0.0
 40
0.8660144118
 41
-3.150319066
 42
-1.582431609
  0
ELLIPSE
  5
8A7
100
AcDbEntity
  8
RACCORDO
100
AcDbEllipse
 62
7
  6
CONTINUOUS
 10
-22.2
 20
3.4228635524
 30
0.0
 11
-0.0
 21
0.7248712197
 31
0.0
 40
0.9656887748
 41
-0.1433768041
 42
-0.0
  0
ELLIPSE
  5
8A8
100
AcDbEntity
  8
RACCORDO
100
AcDbEllipse
 62
7
  6
CONTINUOUS
 10
0.8500042309
 20
23.4113248654
 30
0.0
 11
0.0029088041
 21
0.2886641433
 31
0.0
 40
0.8660144118
 41
-4.7007536982
 42
-3.1328662412
  0
ELLIPSE
  5
8A9
100
AcDbEntity
  8
RACCORDO
100
AcDbEllipse
 62
7
  6
CONTINUOUS
 10
-22.2
 20
-3.4228635524
 30
0.0
 11
-0.0
 21
0.7248712197
 31
0.0
 40
0.9656887748
 41
-3.1415926536
 42
-2.9982158495
  0
ELLIPSE
  5
8AA
100
AcDbEntity
  8
RACCORDO
100
AcDbEllipse
 62
7
  6
CONTINUOUS
 10
2.7499957691
 20
23.4113248654
 30
0.0
 11
-0.0029088041
 21
0.2886641433
 31
0.0
 40
0.8660144118
 41
-3.150319066
 42
-1.582431609
  0
ELLIPSE
  5
8AB
100
AcDbEntity
  8
DRAFT
100
AcDbEllipse
 62
7
  6
CONTINUOUS
 10
-15.1779699877
 20
22.3339198952
 30
0.0
 11
0.4279699877
 21
0.0
 31
0.0
 40
0.0087268678
 41
-3.1357748894
 42
-0.0
  0
ELLIPSE
  5
8AC
100
AcDbEntity
  8
DRAFT
100
AcDbEllipse
 62
7
  6
CONTINUOUS
 10
-7.3220300123
 20
22.3339198952
 30
0.0
 11
0.4279699877
 21
-0.0
 31
0.0
 40
0.0087268678
 41
-3.1415926536
 42
-0.0058177642
  0
ELLIPSE
  5
8AD
100
AcDbEntity
  8
DRAFT
100
AcDbEllipse
 62
7
  6
CONTINUOUS
 10
-15.1779699877
 20
-22.3339198952
 30
0.0
 11
0.4279699877
 21
0.0
 31
0.0
 40
0.0087268678
 41
-0.0
 42
3.1357748894
  0
ELLIPSE
  5
8AE
100
AcDbEntity
  8
DRAFT
100
AcDbEllipse
 62
7
  6
CONTINUOUS
 10
-7.3220300123
 20
-22.3339198952
 30
0.0
 11
0.4279699877
 21
0.0
 31
0.0
 40
0.0087268678
 41
0.0058177642
 42
3.1415926536
  0
ELLIPSE
  5
8AF
100
AcDbEntity
  8
DRAFT
100
AcDbEllipse
 62
7
  6
CONTINUOUS
 10
7.3220300123
 20
-22.3339198952
 30
0.0
 11
0.4279699877
 21
0.0
 31
0.0
 40
0.0087268678
 41
-0.0
 42
3.1357748894
  0
ELLIPSE
  5
8B0
100
AcDbEntity
  8
DRAFT
100
AcDbEllipse
 62
7
  6
CONTINUOUS
 10
15.1779699877
 20
-22.3339198952
 30
0.0
 11
0.4279699877
 21
0.0
 31
0.0
 40
0.0087268678
 41
0.0058177642
 42
3.1415926536
  0
ELLIPSE
  5
8B1
100
AcDbEntity
  8
DRAFT
100
AcDbEllipse
 62
7
  6
CONTINUOUS
 10
7.3220300123
 20
22.3339198952
 30
0.0
 11
0.4279699877
 21
-0.0
 31
0.0
 40
0.0087268678
 41
-3.1357748894
 42
-0.0
  0
ELLIPSE
  5
8B2
100
AcDbEntity
  8
DRAFT
100
AcDbEllipse
 62
7
  6
CONTINUOUS
 10
15.1779699877
 20
22.3339198952
 30
0.0
 11
0.4279699877
 21
0.0
 31
0.0
 40
0.0087268678
 41
-3.1415926536
 42
-0.0058177642
  0
ELLIPSE
  5
8B3
100
AcDbEntity
  8
RACCORDO
100
AcDbEllipse
 62
7
  6
CONTINUOUS
 10
21.6499957691
 20
-23.4113248654
 30
0.0
 11
0.0029088041
 21
0.2886641433
 31
0.0
 40
0.8660144118
 41
-1.5591610446
 42
0.0087264124
  0
ELLIPSE
  5
8B4
100
AcDbEntity
  8
RACCORDO
100
AcDbEllipse
 62
7
  6
CONTINUOUS
 10
19.7500042309
 20
-23.4113248654
 30
0.0
 11
-0.0029088041
 21
0.2886641433
 31
0.0
 40
0.8660144118
 41
-0.0087264124
 42
1.5591610446
  0
ELLIPSE
  5
8B5
100
AcDbEntity
  8
RACCORDO
100
AcDbEllipse
 62
7
  6
CONTINUOUS
 10
-21.9499314524
 20
21.9412559969
 30
0.0
 11
0.4025750024
 21
0.2012721715
 31
0.0
 40
0.9998096356
 41
7.3902883349
 42
8.9612369607
  0
ELLIPSE
  5
8B6
100
AcDbEntity
  8
RACCORDO
100
AcDbEllipse
 62
7
  6
CONTINUOUS
 10
0.8500042309
 20
-23.4113248654
 30
0.0
 11
-0.0029088041
 21
0.2886641433
 31
0.0
 40
0.8660144118
 41
-0.0087264124
 42
1.5591610446
  0
ELLIPSE
  5
8B7
100
AcDbEntity
  8
RACCORDO
100
AcDbEllipse
 62
7
  6
CONTINUOUS
 10
2.7499957691
 20
-23.4113248654
 30
0.0
 11
0.0029088041
 21
0.2886641433
 31
0.0
 40
0.8660144118
 41
-1.5591610446
 42
0.0087264124
  0
ELLIPSE
  5
8B8
100
AcDbEntity
  8
RACCORDO
100
AcDbEllipse
 62
7
  6
CONTINUOUS
 10
-2.7499957691
 20
23.4113248654
 30
0.0
 11
0.0029088041
 21
0.2886641433
 31
0.0
 40
0.8660144118
 41
-4.7007536982
 42
-3.1328662412
  0
ELLIPSE
  5
8B9
100
AcDbEntity
  8
RACCORDO
100
AcDbEllipse
 62
7
  6
CONTINUOUS
 10
-21.6499957691
 20
-23.4113248654
 30
0.0
 11
-0.0029088041
 21
0.2886641433
 31
0.0
 40
0.8660144118
 41
-0.0087264124
 42
1.5591610446
  0
ELLIPSE
  5
8BA
100
AcDbEntity
  8
RACCORDO
100
AcDbEllipse
 62
7
  6
CONTINUOUS
 10
-19.7500042309
 20
-23.4113248654
 30
0.0
 11
0.0029088041
 21
0.2886641433
 31
0.0
 40
0.8660144118
 41
-1.5591610446
 42
0.0087264124
  0
ELLIPSE
  5
8BB
100
AcDbEntity
  8
RACCORDO
100
AcDbEllipse
 62
7
  6
CONTINUOUS
 10
-0.8500042309
 20
23.4113248654
 30
0.0
 11
-0.0029088041
 21
0.2886641433
 31
0.0
 40
0.8660144118
 41
-3.150319066
 42
-1.582431609
  0
ELLIPSE
  5
8BC
100
AcDbEntity
  8
RACCORDO
100
AcDbEllipse
 62
7
  6
CONTINUOUS
 10
-21.6499957691
 20
23.4113248654
 30
0.0
 11
0.0029088041
 21
0.2886641433
 31
0.0
 40
0.8660144118
 41
-4.7007536982
 42
-3.1328662412
  0
ELLIPSE
  5
8BD
100
AcDbEntity
  8
RACCORDO
100
AcDbEllipse
 62
7
  6
CONTINUOUS
 10
-2.7499957691
 20
-23.4113248654
 30
0.0
 11
-0.0029088041
 21
0.2886641433
 31
0.0
 40
0.8660144118
 41
-0.0087264124
 42
1.5591610446
  0
ELLIPSE
  5
8BE
100
AcDbEntity
  8
RACCORDO
100
AcDbEllipse
 62
7
  6
CONTINUOUS
 10
-0.8500042309
 20
-23.4113248654
 30
0.0
 11
0.0029088041
 21
0.2886641433
 31
0.0
 40
0.8660144118
 41
-1.5591610446
 42
0.0087264124
  0
ELLIPSE
  5
8BF
100
AcDbEntity
  8
RACCORDO
100
AcDbEllipse
 62
7
  6
CONTINUOUS
 10
-19.7500042309
 20
23.4113248654
 30
0.0
 11
-0.0029088041
 21
0.2886641433
 31
0.0
 40
0.8660144118
 41
-3.150319066
 42
-1.582431609
  0
ELLIPSE
  5
8C0
100
AcDbEntity
  8
ASSI
100
AcDbEllipse
 62
7
  6
CONTINUOUS
 10
-15.1779699877
 20
22.3339198952
 30
0.0
 11
0.4279699877
 21
0.0
 31
0.0
 40
0.0087268678
 41
-3.1357748894
 42
-0.0
  0
ELLIPSE
  5
8C1
100
AcDbEntity
  8
ASSI
100
AcDbEllipse
 62
7
  6
CONTINUOUS
 10
-7.3220300123
 20
22.3339198952
 30
0.0
 11
0.4279699877
 21
-0.0
 31
0.0
 40
0.0087268678
 41
-3.1415926536
 42
-0.0058177642
  0
ELLIPSE
  5
8C2
100
AcDbEntity
  8
ASSI
100
AcDbEllipse
 62
7
  6
CONTINUOUS
 10
-15.1779699877
 20
-22.3339198952
 30
0.0
 11
0.4279699877
 21
0.0
 31
0.0
 40
0.0087268678
 41
-0.0
 42
3.1357748894
  0
ELLIPSE
  5
8C3
100
AcDbEntity
  8
ASSI
100
AcDbEllipse
 62
7
  6
CONTINUOUS
 10
-7.3220300123
 20
-22.3339198952
 30
0.0
 11
0.4279699877
 21
0.0
 31
0.0
 40
0.0087268678
 41
0.0058177642
 42
3.1415926536
  0
ELLIPSE
  5
8C4
100
AcDbEntity
  8
ASSI
100
AcDbEllipse
 62
7
  6
CONTINUOUS
 10
7.3220300123
 20
-22.3339198952
 30
0.0
 11
0.4279699877
 21
0.0
 31
0.0
 40
0.0087268678
 41
-0.0
 42
3.1357748894
  0
ELLIPSE
  5
8C5
100
AcDbEntity
  8
ASSI
100
AcDbEllipse
 62
7
  6
CONTINUOUS
 10
15.1779699877
 20
-22.3339198952
 30
0.0
 11
0.4279699877
 21
0.0
 31
0.0
 40
0.0087268678
 41
0.0058177642
 42
3.1415926536
  0
ELLIPSE
  5
8C6
100
AcDbEntity
  8
ASSI
100
AcDbEllipse
 62
7
  6
CONTINUOUS
 10
7.3220300123
 20
22.3339198952
 30
0.0
 11
0.4279699877
 21
-0.0
 31
0.0
 40
0.0087268678
 41
-3.1357748894
 42
-0.0
  0
ELLIPSE
  5
8C7
100
AcDbEntity
  8
ASSI
100
AcDbEllipse
 62
7
  6
CONTINUOUS
 10
15.1779699877
 20
22.3339198952
 30
0.0
 11
0.4279699877
 21
0.0
 31
0.0
 40
0.0087268678
 41
-3.1415926536
 42
-0.0058177642
  0
ELLIPSE
  5
8C8
100
AcDbEntity
  8
ASSI
100
AcDbEllipse
 62
7
  6
CONTINUOUS
 10
-21.9499314524
 20
21.9412559969
 30
0.0
 11
0.4025750024
 21
0.2012721715
 31
0.0
 40
0.9998096356
 41
7.3902883349
 42
8.9612369607
  0
ELLIPSE
  5
8C9
100
AcDbEntity
  8
ASSI
100
AcDbEllipse
 62
7
  6
CONTINUOUS
 10
21.9499314524
 20
-21.9412559969
 30
0.0
 11
-0.4025750024
 21
-0.2012721715
 31
0.0
 40
0.9998096356
 41
7.3902883349
 42
8.9612369607
  0
ELLIPSE
  5
8CA
100
AcDbEntity
  8
ASSI
100
AcDbEllipse
 62
7
  6
CONTINUOUS
 10
-21.6499957691
 20
-23.4113248654
 30
0.0
 11
-0.0029088041
 21
0.2886641433
 31
0.0
 40
0.8660144118
 41
-0.0087264124
 42
1.5591610446
  0
ELLIPSE
  5
8CB
100
AcDbEntity
  8
ASSI
100
AcDbEllipse
 62
7
  6
CONTINUOUS
 10
-19.7500042309
 20
-23.4113248654
 30
0.0
 11
0.0029088041
 21
0.2886641433
 31
0.0
 40
0.8660144118
 41
-1.5591610446
 42
0.0087264124
  0
ELLIPSE
  5
8CC
100
AcDbEntity
  8
ASSI
100
AcDbEllipse
 62
7
  6
CONTINUOUS
 10
21.9499314524
 20
21.9412559969
 30
0.0
 11
0.4025750024
 21
-0.2012721715
 31
0.0
 40
0.9998096356
 41
6.7467263073
 42
8.3176749331
  0
ELLIPSE
  5
8CD
100
AcDbEntity
  8
ASSI
100
AcDbEllipse
 62
7
  6
CONTINUOUS
 10
-21.9499314524
 20
-21.9412559969
 30
0.0
 11
-0.4025750024
 21
0.2012721715
 31
0.0
 40
0.9998096356
 41
6.7467263073
 42
8.3176749331
  0
ELLIPSE
  5
8CE
100
AcDbEntity
  8
ASSI
100
AcDbEllipse
 62
7
  6
CONTINUOUS
 10
-2.7499957691
 20
-23.4113248654
 30
0.0
 11
-0.0029088041
 21
0.2886641433
 31
0.0
 40
0.8660144118
 41
-0.0087264124
 42
1.5591610446
  0
ELLIPSE
  5
8CF
100
AcDbEntity
  8
ASSI
100
AcDbEllipse
 62
7
  6
CONTINUOUS
 10
-0.8500042309
 20
-23.4113248654
 30
0.0
 11
0.0029088041
 21
0.2886641433
 31
0.0
 40
0.8660144118
 41
-1.5591610446
 42
0.0087264124
  0
ELLIPSE
  5
8D0
100
AcDbEntity
  8
ASSI
100
AcDbEllipse
 62
7
  6
CONTINUOUS
 10
-22.2
 20
3.4228635524
 30
0.0
 11
-0.0
 21
0.7248712197
 31
0.0
 40
0.9656887748
 41
-0.1433768041
 42
-0.0
  0
ELLIPSE
  5
8D1
100
AcDbEntity
  8
ASSI
100
AcDbEllipse
 62
7
  6
CONTINUOUS
 10
-22.2
 20
-3.4228635524
 30
0.0
 11
0.0
 21
0.7248712197
 31
0.0
 40
0.9656887748
 41
-3.1415926536
 42
-2.9982158495
  0
ELLIPSE
  5
8D2
100
AcDbEntity
  8
ASSI
100
AcDbEllipse
 62
7
  6
CONTINUOUS
 10
-19.7500042309
 20
23.4113248654
 30
0.0
 11
-0.0029088041
 21
0.2886641433
 31
0.0
 40
0.8660144118
 41
-3.150319066
 42
-1.582431609
  0
ELLIPSE
  5
8D3
100
AcDbEntity
  8
ASSI
100
AcDbEllipse
 62
7
  6
CONTINUOUS
 10
-21.6499957691
 20
23.4113248654
 30
0.0
 11
0.0029088041
 21
0.2886641433
 31
0.0
 40
0.8660144118
 41
-4.7007536982
 42
-3.1328662412
  0
ELLIPSE
  5
8D4
100
AcDbEntity
  8
ASSI
100
AcDbEllipse
 62
7
  6
CONTINUOUS
 10
-0.8500042309
 20
23.4113248654
 30
0.0
 11
-0.0029088041
 21
0.2886641433
 31
0.0
 40
0.8660144118
 41
-3.150319066
 42
-1.582431609
  0
ELLIPSE
  5
8D5
100
AcDbEntity
  8
ASSI
100
AcDbEllipse
 62
7
  6
CONTINUOUS
 10
-2.7499957691
 20
23.4113248654
 30
0.0
 11
0.0029088041
 21
0.2886641433
 31
0.0
 40
0.8660144118
 41
-4.7007536982
 42
-3.1328662412
  0
ELLIPSE
  5
8D6
100
AcDbEntity
  8
ASSI
100
AcDbEllipse
 62
7
  6
CONTINUOUS
 10
2.7499957691
 20
-23.4113248654
 30
0.0
 11
0.0029088041
 21
0.2886641433
 31
0.0
 40
0.8660144118
 41
-1.5591610446
 42
0.0087264124
  0
ELLIPSE
  5
8D7
100
AcDbEntity
  8
ASSI
100
AcDbEllipse
 62
7
  6
CONTINUOUS
 10
0.8500042309
 20
-23.4113248654
 30
0.0
 11
-0.0029088041
 21
0.2886641433
 31
0.0
 40
0.8660144118
 41
-0.0087264124
 42
1.5591610446
  0
ELLIPSE
  5
8D8
100
AcDbEntity
  8
ASSI
100
AcDbEllipse
 62
7
  6
CONTINUOUS
 10
19.7500042309
 20
-23.4113248654
 30
0.0
 11
-0.0029088041
 21
0.2886641433
 31
0.0
 40
0.8660144118
 41
-0.0087264124
 42
1.5591610446
  0
ELLIPSE
  5
8D9
100
AcDbEntity
  8
ASSI
100
AcDbEllipse
 62
7
  6
CONTINUOUS
 10
21.6499957691
 20
-23.4113248654
 30
0.0
 11
0.0029088041
 21
0.2886641433
 31
0.0
 40
0.8660144118
 41
-1.5591610446
 42
0.0087264124
  0
ELLIPSE
  5
8DA
100
AcDbEntity
  8
ASSI
100
AcDbEllipse
 62
7
  6
CONTINUOUS
 10
2.7499957691
 20
23.4113248654
 30
0.0
 11
-0.0029088041
 21
0.2886641433
 31
0.0
 40
0.8660144118
 41
-3.150319066
 42
-1.582431609
  0
ELLIPSE
  5
8DB
100
AcDbEntity
  8
ASSI
100
AcDbEllipse
 62
7
  6
CONTINUOUS
 10
0.8500042309
 20
23.4113248654
 30
0.0
 11
0.0029088041
 21
0.2886641433
 31
0.0
 40
0.8660144118
 41
-4.7007536982
 42
-3.1328662412
  0
ELLIPSE
  5
8DC
100
AcDbEntity
  8
ASSI
100
AcDbEllipse
 62
7
  6
CONTINUOUS
 10
19.7500042309
 20
23.4113248654
 30
0.0
 11
0.0029088041
 21
0.2886641433
 31
0.0
 40
0.8660144118
 41
-4.7007536982
 42
-3.1328662411
  0
ELLIPSE
  5
8DD
100
AcDbEntity
  8
ASSI
100
AcDbEllipse
 62
7
  6
CONTINUOUS
 10
21.6499957691
 20
23.4113248654
 30
0.0
 11
-0.0029088041
 21
0.2886641433
 31
0.0
 40
0.8660144118
 41
-3.150319066
 42
-1.582431609
  0
ENDSEC
  0
SECTION
  2
OBJECTS
  0
DICTIONARY
  5
C
100
AcDbDictionary
280
0
281
1
  3
ACAD_GROUP
350
D
  3
ACAD_MLINESTYLE
350
17
  3
ACAD_LAYOUT
350
1A
  3
ACAD_PLOTSETTINGS
350
19
  3
ACAD_PLOTSTYLENAME
350
E
  0
DICTIONARY
  5
D
102
{ACAD_REACTORS
330
C
102
}
100
AcDbDictionary
280
0
281
1
  0
ACDBDICTIONARYWDFLT
  5
E
102
{ACAD_REACTORS
330
C
102
}
100
AcDbDictionary
281
1
  3
Normal
350
F
100
AcDbDictionaryWithDefault
340
F
  0
DICTIONARY
  5
17
102
{ACAD_REACTORS
330
C
102
}
100
AcDbDictionary
280
0
281
1
  3
Standard
350
18
  0
DICTIONARY
  5
19
102
{ACAD_REACTORS
330
C
102
}
100
AcDbDictionary
281
1
  0
DICTIONARY
  5
1A
102
{ACAD_REACTORS
330
C
102
}
100
AcDbDictionary
281
1
  3
Model
350
8DE
  3
Layout1
350
8DF
  0
ACDBPLACEHOLDER
  5
F
102
{ACAD_REACTORS
330
E
102
}
  0
MLINESTYLE
  5
18
102
{ACAD_REACTORS
330
17
102
}
100
AcDbMlineStyle
  2
STANDARD
 70
0
  3

 62
256
 51
90.0
 52
90.0
 71
2
 49
0.5
 62
256
  6
BYLAYER
 49
-0.5
 62
256
  6
BYLAYER
  0
LAYOUT
  5
8DE
102
{ACAD_REACTORS
330
1A
102
}
100
AcDbPlotSettings
  1

  2
none_device
  4
ISO_A4_(297.00_x_210.00_MM)
  6

 40
0.0
 41
0.0
 42
0.0
 43
0.0
 44
297.0
 45
210.0
 46
0.0
 47
0.0
 48
0.0
 49
0.0
140
0.0
141
0.0
142
1.0
143
1.0
 70
1024
 72
1
 73
0
 74
0
  7

 75
0
147
1.0
148
0.0
149
0.0
100
AcDbLayout
  1
Model
 70
0
 71
0
 10
0.0
 20
0.0
 11
297.0
 21
210.0
 12
0.0
 22
0.0
 32
0.0
 14
0.0
 24
0.0
 34
0.0
 15
0.0
 25
0.0
 35
0.0
146
0.0
 13
0.0
 23
0.0
 33
0.0
 16
1.0
 26
0.0
 36
0.0
 17
0.0
 27
1.0
 37
0.0
 76
0
330
21D
345
0
346
0
  0
LAYOUT
  5
8DF
102
{ACAD_REACTORS
330
1A
102
}
100
AcDbPlotSettings
  1

  2
none_device
  4
ISO_A4_(297.00_x_210.00_MM)
  6

 40
0.0
 41
0.0
 42
0.0
 43
0.0
 44
297.0
 45
210.0
 46
0.0
 47
0.0
 48
0.0
 49
0.0
140
0.0
141
0.0
142
1.0
143
1.0
 70
0
 72
1
 73
0
 74
0
  7

 75
0
147
1.0
148
0.0
149
0.0
100
AcDbLayout
  1
Layout1
 70
0
 71
1
 10
0.0
 20
0.0
 11
297.0
 21
210.0
 12
0.0
 22
0.0
 32
0.0
 14
0.0
 24
0.0
 34
0.0
 15
0.0
 25
0.0
 35
0.0
146
0.0
 13
0.0
 23
0.0
 33
0.0
 16
1.0
 26
0.0
 36
0.0
 17
0.0
 27
1.0
 37
0.0
 76
0
330
21E
345
0
346
0
  0
ENDSEC
  0
EOF
