  0
SECTION
  2
HEADER
  9
$ACADVER
  1
AC1015
  9
$DWGCODEPAGE
  3
ANSI_1252
  9
$EXTMAX
 10
297.0
 20
210.0
 30
0.0
  9
$EXTMIN
 10
0.0
 20
0.0
 30
0.0
  9
$LIMMIN
 10
0.0
 20
0.0
  9
$LIMMAX
 10
297.0
 20
210.0
  9
$VIEWCTR
 10
148.5
 20
105.0
  9
$VIEWSIZE
 40
210.0
  9
$CLAYER
  8
0
  9
$LTSCALE
 40
16.335
  9
$CELTYPE
  6
BYLAYER
  9
$DIMSCALE
 40
1.0
  9
$DIMASZ
 40
3.0
  9
$DIMEXO
 40
1.85625
  9
$DIMDLI
 40
11.286
  9
$DIMEXE
 40
5.346
  9
$DIMCEN
 40
2.673
  9
$DIMLFAC
 40
1.0
  9
$DIMBLK
  1
_FILLED
  9
$DIMTXT
 40
3.0
  9
$DIMTOL
 70
1
  9
$DIMLIM
 70
0
  9
$DIMTFAC
 40
1.0
  9
$DIMTP
 40
0.01
  9
$DIMTM
 40
0.01
  9
$PDMODE
 70
3
  9
$PDSIZE
 40
3.0
  9
$HANDSEED
  5
644
  9
$TILEMODE
 70
1
  9
$MEASUREMENT
 70
1
  9
$INSUNITS
 70
4
  0
ENDSEC
  0
SECTION
  2
CLASSES
  0
CLASS
  1
ACDBDICTIONARYWDFLT
  2
AcDbDictionaryWithDefault
  3
AutoCAD 2000
 90
0
280
0
281
0
  0
CLASS
  1
ACDBPLACEHOLDER
  2
AcDbPlaceHolder
  3
AutoCAD 2000
 90
0
280
0
281
0
  0
CLASS
  1
LAYOUT
  2
AcDbLayout
  3
AutoCAD 2000
 90
0
280
0
281
0
  0
ENDSEC
  0
SECTION
  2
TABLES
  0
TABLE
  2
VPORT
  5
8
100
AcDbSymbolTable
 70
2
  0
VPORT
  5
1F4
100
AcDbSymbolTableRecord
100
AcDbViewportTableRecord
  2
*ACTIVE
 70
0
 10
0.0
 20
0.0
 11
1.0
 21
1.0
 12
148.5
 22
105.0
 13
0.0
 23
0.0
 14
1.0
 24
1.0
 15
0.0
 25
0.0
 16
0.0
 26
0.0
 36
1.0
 17
0.0
 27
0.0
 37
0.0
 40
210.0
 41
1.4142857143
 42
50.0
 43
0.0
 44
0.0
 50
0.0
 51
0.0
 71
0
 72
100
 73
1
 74
1
 75
0
 76
0
 77
0
 78
0
  0
ENDTAB
  0
TABLE
  2
LTYPE
  5
5
100
AcDbSymbolTable
 70
6
  0
LTYPE
  5
14
100
AcDbSymbolTableRecord
100
AcDbLinetypeTableRecord
  2
BYBLOCK
 70
0
  3

 72
65
 73
0
 40
0.0
  0
LTYPE
  5
15
100
AcDbSymbolTableRecord
100
AcDbLinetypeTableRecord
  2
BYLAYER
 70
0
  3

 72
65
 73
0
 40
0.0
  0
LTYPE
  5
16
100
AcDbSymbolTableRecord
100
AcDbLinetypeTableRecord
  2
CONTINUOUS
 70
64
  3
Solid line
 72
65
 73
0
 40
0.0
  0
LTYPE
  5
1F5
100
AcDbSymbolTableRecord
100
AcDbLinetypeTableRecord
  2
CENTER
 70
64
  3
____ _ ____ _ ____ _ ____ _ ____ _ ____ _ ____
 72
65
 73
4
 40
0.6
 49
0.375
 74
0
 49
-0.075
 74
0
 49
0.075
 74
0
 49
-0.075
 74
0
  0
LTYPE
  5
1F6
100
AcDbSymbolTableRecord
100
AcDbLinetypeTableRecord
  2
HIDDEN
 70
64
  3
- - - - - - - - - - - - - - - - - - - -
 72
65
 73
2
 40
0.2
 49
0.1
 74
0
 49
-0.1
 74
0
  0
LTYPE
  5
1F7
100
AcDbSymbolTableRecord
100
AcDbLinetypeTableRecord
  2
PHANTOM
 70
64
  3
_____ _ _ _____ _ _ _____ _ _ _____
 72
65
 73
6
 40
0.8
 49
0.45
 74
0
 49
-0.05
 74
0
 49
0.1
 74
0
 49
-0.05
 74
0
 49
0.1
 74
0
 49
-0.05
 74
0
  0
LTYPE
  5
1F8
100
AcDbSymbolTableRecord
100
AcDbLinetypeTableRecord
  2
DOT
 70
64
  3
. . . . . . . . . . . . . . . . . . . .
 72
65
 73
2
 40
0.2
 49
0.1
 74
0
 49
-0.1
 74
0
  0
LTYPE
  5
1F9
100
AcDbSymbolTableRecord
100
AcDbLinetypeTableRecord
  2
DASHED
 70
64
  3
- - - - - - - - - - - - - - - - - - - -
 72
65
 73
2
 40
0.2
 49
0.1
 74
0
 49
-0.1
 74
0
  0
ENDTAB
  0
TABLE
  2
LAYER
  5
2
100
AcDbSymbolTable
 70
36
  0
LAYER
  5
10
100
AcDbSymbolTableRecord
100
AcDbLayerTableRecord
  2
0
 70
0
 62
7
  6
CONTINUOUS
370
-3
390
F
  0
LAYER
  5
1FA
100
AcDbSymbolTableRecord
100
AcDbLayerTableRecord
  2
DEFAULT_1
 70
0
 62
7
  6
CENTER
370
-3
390
F
  0
LAYER
  5
1FB
100
AcDbSymbolTableRecord
100
AcDbLayerTableRecord
  2
DEFAULT_2
 70
0
 62
7
  6
HIDDEN
370
-3
390
F
  0
LAYER
  5
1FC
100
AcDbSymbolTableRecord
100
AcDbLayerTableRecord
  2
DEFAULT_3
 70
0
 62
7
  6
PHANTOM
370
-3
390
F
  0
LAYER
  5
1FD
100
AcDbSymbolTableRecord
100
AcDbLayerTableRecord
  2
43000491A0
 70
0
 62
7
  6
CONTINUOUS
370
-3
390
F
  0
LAYER
  5
1FE
100
AcDbSymbolTableRecord
100
AcDbLayerTableRecord
  2
ASM0001
 70
0
 62
7
  6
CONTINUOUS
370
-3
390
F
  0
LAYER
  5
1FF
100
AcDbSymbolTableRecord
100
AcDbLayerTableRecord
  2
ASSI
 70
0
 62
7
  6
CONTINUOUS
370
-3
390
F
  0
LAYER
  5
200
100
AcDbSymbolTableRecord
100
AcDbLayerTableRecord
  2
CN-MRT4P5_2SQV01-VIMAR_1600000
 70
0
 62
7
  6
CONTINUOUS
370
-3
390
F
  0
LAYER
  5
201
100
AcDbSymbolTableRecord
100
AcDbLayerTableRecord
  2
COLOR5
 70
0
 62
7
  6
CONTINUOUS
370
-3
390
F
  0
LAYER
  5
202
100
AcDbSymbolTableRecord
100
AcDbLayerTableRecord
  2
COLORE_MATERIALE
 70
0
 62
7
  6
CONTINUOUS
370
-3
390
F
  0
LAYER
  5
203
100
AcDbSymbolTableRecord
100
AcDbLayerTableRecord
  2
COORDINATE
 70
0
 62
7
  6
CONTINUOUS
370
-3
390
F
  0
LAYER
  5
204
100
AcDbSymbolTableRecord
100
AcDbLayerTableRecord
  2
COORD_ORIGINE
 70
0
 62
7
  6
CONTINUOUS
370
-3
390
F
  0
LAYER
  5
205
100
AcDbSymbolTableRecord
100
AcDbLayerTableRecord
  2
COPY_PUBLISH
 70
0
 62
7
  6
CONTINUOUS
370
-3
390
F
  0
LAYER
  5
206
100
AcDbSymbolTableRecord
100
AcDbLayerTableRecord
  2
COSMETIC
 70
0
 62
7
  6
CONTINUOUS
370
-3
390
F
  0
LAYER
  5
207
100
AcDbSymbolTableRecord
100
AcDbLayerTableRecord
  2
CURVE
 70
0
 62
7
  6
CONTINUOUS
370
-3
390
F
  0
LAYER
  5
208
100
AcDbSymbolTableRecord
100
AcDbLayerTableRecord
  2
DRAFT
 70
0
 62
7
  6
CONTINUOUS
370
-3
390
F
  0
LAYER
  5
209
100
AcDbSymbolTableRecord
100
AcDbLayerTableRecord
  2
IMPORT_IGES
 70
0
 62
7
  6
CONTINUOUS
370
-3
390
F
  0
LAYER
  5
20A
100
AcDbSymbolTableRecord
100
AcDbLayerTableRecord
  2
INCISIONI
 70
0
 62
7
  6
CONTINUOUS
370
-3
390
F
  0
LAYER
  5
20B
100
AcDbSymbolTableRecord
100
AcDbLayerTableRecord
  2
INTF_1
 70
0
 62
7
  6
CONTINUOUS
370
-3
390
F
  0
LAYER
  5
20C
100
AcDbSymbolTableRecord
100
AcDbLayerTableRecord
  2
INTF_11
 70
0
 62
7
  6
CONTINUOUS
370
-3
390
F
  0
LAYER
  5
20D
100
AcDbSymbolTableRecord
100
AcDbLayerTableRecord
  2
INTF_GREEN
 70
0
 62
7
  6
CONTINUOUS
370
-3
390
F
  0
LAYER
  5
20E
100
AcDbSymbolTableRecord
100
AcDbLayerTableRecord
  2
INTF_YELLOW
 70
0
 62
7
  6
CONTINUOUS
370
-3
390
F
  0
LAYER
  5
20F
100
AcDbSymbolTableRecord
100
AcDbLayerTableRecord
  2
NOTE
 70
0
 62
7
  6
CONTINUOUS
370
-3
390
F
  0
LAYER
  5
210
100
AcDbSymbolTableRecord
100
AcDbLayerTableRecord
  2
PIANI
 70
0
 62
7
  6
CONTINUOUS
370
-3
390
F
  0
LAYER
  5
211
100
AcDbSymbolTableRecord
100
AcDbLayerTableRecord
  2
PIANI_DI_RIFERIMENTO
 70
0
 62
7
  6
CONTINUOUS
370
-3
390
F
  0
LAYER
  5
212
100
AcDbSymbolTableRecord
100
AcDbLayerTableRecord
  2
PIANI_ORIGINE
 70
0
 62
7
  6
CONTINUOUS
370
-3
390
F
  0
LAYER
  5
213
100
AcDbSymbolTableRecord
100
AcDbLayerTableRecord
  2
PIANI_RIFERIMENTO
 70
0
 62
7
  6
CONTINUOUS
370
-3
390
F
  0
LAYER
  5
214
100
AcDbSymbolTableRecord
100
AcDbLayerTableRecord
  2
PTC-4X7_5X5_0-VIMAR_750000
 70
0
 62
7
  6
CONTINUOUS
370
-3
390
F
  0
LAYER
  5
215
100
AcDbSymbolTableRecord
100
AcDbLayerTableRecord
  2
PUBLISHED_GEOMETRY
 70
0
 62
7
  6
CONTINUOUS
370
-3
390
F
  0
LAYER
  5
216
100
AcDbSymbolTableRecord
100
AcDbLayerTableRecord
  2
PUNTI
 70
0
 62
7
  6
CONTINUOUS
370
-3
390
F
  0
LAYER
  5
217
100
AcDbSymbolTableRecord
100
AcDbLayerTableRecord
  2
RACCORDO
 70
0
 62
7
  6
CONTINUOUS
370
-3
390
F
  0
LAYER
  5
218
100
AcDbSymbolTableRecord
100
AcDbLayerTableRecord
  2
SMUSSO
 70
0
 62
7
  6
CONTINUOUS
370
-3
390
F
  0
LAYER
  5
219
100
AcDbSymbolTableRecord
100
AcDbLayerTableRecord
  2
SNAPLINE
 70
0
 62
7
  6
CONTINUOUS
370
-3
390
F
  0
LAYER
  5
21A
100
AcDbSymbolTableRecord
100
AcDbLayerTableRecord
  2
SUPERFICI
 70
0
 62
7
  6
CONTINUOUS
370
-3
390
F
  0
LAYER
  5
21B
100
AcDbSymbolTableRecord
100
AcDbLayerTableRecord
  2
TRASH
 70
0
 62
7
  6
CONTINUOUS
370
-3
390
F
  0
LAYER
  5
21C
100
AcDbSymbolTableRecord
100
AcDbLayerTableRecord
  2
XSEC_DATUMS
 70
0
 62
7
  6
CONTINUOUS
370
-3
390
F
  0
LAYER
  5
21D
100
AcDbSymbolTableRecord
100
AcDbLayerTableRecord
  2
___SHELL
 70
0
 62
7
  6
CONTINUOUS
370
-3
390
F
  0
ENDTAB
  0
TABLE
  2
STYLE
  5
3
100
AcDbSymbolTable
 70
1
  0
STYLE
  5
11
100
AcDbSymbolTableRecord
100
AcDbTextStyleTableRecord
  2
STANDARD
 70
0
 40
0.0
 41
0.8
 50
0.0
 71
0
 42
0.2
  3
txt
  4

  0
STYLE
  5
21E
100
AcDbSymbolTableRecord
100
AcDbTextStyleTableRecord
  2
TEXTSTYLE_1
 70
0
 40
0.0
 41
0.8
 50
0.0
 71
0
 42
0.2
  3
gdt
  4

  0
ENDTAB
  0
TABLE
  2
VIEW
  5
6
100
AcDbSymbolTable
 70
0
  0
ENDTAB
  0
TABLE
  2
UCS
  5
7
100
AcDbSymbolTable
 70
0
  0
ENDTAB
  0
TABLE
  2
APPID
  5
9
100
AcDbSymbolTable
 70
1
  0
APPID
  5
21F
100
AcDbSymbolTableRecord
100
AcDbRegAppTableRecord
  2
ACAD
 70
0
  0
ENDTAB
  0
TABLE
  2
BLOCK_RECORD
  5
1
100
AcDbSymbolTable
 70
0
  0
BLOCK_RECORD
  5
220
100
AcDbSymbolTableRecord
100
AcDbBlockTableRecord
  2
*Model_Space
  0
BLOCK_RECORD
  5
221
100
AcDbSymbolTableRecord
100
AcDbBlockTableRecord
  2
*Paper_Space
  0
ENDTAB
  0
TABLE
  2
DIMSTYLE
  5
A
100
AcDbSymbolTable
 70
1
100
AcDbDimStyleTable
 71
0
  0
DIMSTYLE
105
222
100
AcDbSymbolTableRecord
100
AcDbDimStyleTableRecord
  2
STANDARD
 70
0
  3

  4

 40
1.0
 41
3.0
 42
0.0625
 43
0.38
 44
0.18
 45
0.0
 46
0.0
 47
0.01
 48
0.01
140
3.0
141
0.09
142
0.0
143
25.4
144
1.0
145
0.0
146
1.0
147
0.09
 71
1.0
 72
0.0
 73
0
 74
0
 75
0
 76
0
 77
1
 78
8
170
0
171
2
172
0
173
0
174
0
175
0
176
0
177
0
178
0
270
2
271
2
272
2
273
2
274
2
275
0
280
0
281
0
282
0
283
1
284
8
285
0
286
0
287
3
288
0
340
11
  0
ENDTAB
  0
ENDSEC
  0
SECTION
  2
BLOCKS
  0
BLOCK
  5
20
100
AcDbEntity
  8
0
100
AcDbBlockBegin
  2
*Model_Space
 70
0
 10
0.0
 20
0.0
 30
0.0
  3
*Model_Space
  1

  0
ENDBLK
  5
21
100
AcDbEntity
  8
0
100
AcDbBlockEnd
  0
BLOCK
  5
1C
100
AcDbEntity
  8
0
100
AcDbBlockBegin
  2
*Paper_Space
 70
0
 10
0.0
 20
0.0
 30
0.0
  3
*Paper_Space
  1

  0
ENDBLK
  5
1D
100
AcDbEntity
  8
0
100
AcDbBlockEnd
  0
ENDSEC
  0
SECTION
  2
ENTITIES
  0
LINE
  5
223
100
AcDbEntity
  8
RACCORDO
100
AcDbLine
 62
253
  6
CONTINUOUS
 10
-10.6498476749
 20
22.3912731322
 11
-10.6323926099
 21
22.4
  0
LINE
  5
224
100
AcDbEntity
  8
RACCORDO
100
AcDbLine
 62
7
  6
CONTINUOUS
 10
-10.4000042308
 20
-24.5
 11
-8.4999957692
 21
-24.5
  0
LINE
  5
225
100
AcDbEntity
  8
RACCORDO
100
AcDbLine
 62
7
  6
CONTINUOUS
 10
8.4999957692
 20
-24.5
 11
10.4000042308
 21
-24.5
  0
LINE
  5
226
100
AcDbEntity
  8
RACCORDO
100
AcDbLine
 62
253
  6
CONTINUOUS
 10
-10.3956323968
 20
-24.495628166
 11
-8.5043676032
 21
-24.495628166
  0
LINE
  5
227
100
AcDbEntity
  8
RACCORDO
100
AcDbLine
 62
253
  6
CONTINUOUS
 10
8.5043676032
 20
-24.495628166
 11
10.3956323968
 21
-24.495628166
  0
LINE
  5
228
100
AcDbEntity
  8
RACCORDO
100
AcDbLine
 62
253
  6
CONTINUOUS
 10
8.254371834
 20
-24.2456323968
 11
10.645628166
 21
-24.2456323968
  0
LINE
  5
229
100
AcDbEntity
  8
RACCORDO
100
AcDbLine
 62
253
  6
CONTINUOUS
 10
-8.254371834
 20
-24.2456323968
 11
-10.645628166
 21
-24.2456323968
  0
LINE
  5
22A
100
AcDbEntity
  8
RACCORDO
100
AcDbLine
 62
253
  6
CONTINUOUS
 10
-8.254371834
 20
-23.8443375673
 11
-10.645628166
 21
-23.8443375673
  0
LINE
  5
22B
100
AcDbEntity
  8
DRAFT
100
AcDbLine
 62
7
  6
CONTINUOUS
 10
-4.4
 20
-23.8
 11
4.4
 21
-23.8
  0
LINE
  5
22C
100
AcDbEntity
  8
DRAFT
100
AcDbLine
 62
7
  6
CONTINUOUS
 10
-3.5
 20
-23.7941821702
 11
3.5
 21
-23.7941821702
  0
LINE
  5
22D
100
AcDbEntity
  8
ASSI
100
AcDbLine
 62
253
  6
CONTINUOUS
 10
-4.3563493531
 20
-23.7563493531
 11
-3.5
 21
-23.7563493531
  0
LINE
  5
22E
100
AcDbEntity
  8
ASSI
100
AcDbLine
 62
253
  6
CONTINUOUS
 10
3.5
 20
-23.7563493531
 11
4.3563493531
 21
-23.7563493531
  0
LINE
  5
22F
100
AcDbEntity
  8
RACCORDO
100
AcDbLine
 62
7
  6
CONTINUOUS
 10
8.5043676032
 20
-23.7
 11
10.3956323968
 21
-23.7
  0
LINE
  5
230
100
AcDbEntity
  8
RACCORDO
100
AcDbLine
 62
253
  6
CONTINUOUS
 10
-8.5043676032
 20
-23.6278312164
 11
-10.3956323968
 21
-23.6278312164
  0
LINE
  5
231
100
AcDbEntity
  8
RACCORDO
100
AcDbLine
 62
253
  6
CONTINUOUS
 10
-10.6323926099
 20
-22.4
 11
-10.6498476749
 21
-22.3912731322
  0
LINE
  5
232
100
AcDbEntity
  8
RACCORDO
100
AcDbLine
 62
253
  6
CONTINUOUS
 10
-8.5043676032
 20
24.495628166
 11
-8.4999957692
 21
24.5
  0
LINE
  5
233
100
AcDbEntity
  8
RACCORDO
100
AcDbLine
 62
253
  6
CONTINUOUS
 10
-8.254371834
 20
24.2456323968
 11
-8.25
 21
24.2500042308
  0
LINE
  5
234
100
AcDbEntity
  8
DRAFT
100
AcDbLine
 62
7
  6
CONTINUOUS
 10
-8.0840245667
 20
20.9829813964
 11
-8.25
 21
20.9
  0
LINE
  5
235
100
AcDbEntity
  8
RACCORDO
100
AcDbLine
 62
7
  6
CONTINUOUS
 10
10.4007229979
 20
-23.1226497308
 11
8.4992770021
 21
-23.1226497308
  0
LINE
  5
236
100
AcDbEntity
  8
RACCORDO
100
AcDbLine
 62
7
  6
CONTINUOUS
 10
-8.4992770021
 20
-23.1226497308
 11
-10.4007229979
 21
-23.1226497308
  0
LINE
  5
237
100
AcDbEntity
  8
DRAFT
100
AcDbLine
 62
7
  6
CONTINUOUS
 10
-8.25
 20
-22.4
 11
-4.4
 21
-22.4
  0
LINE
  5
238
100
AcDbEntity
  8
RACCORDO
100
AcDbLine
 62
7
  6
CONTINUOUS
 10
10.6323926099
 20
-22.4
 11
8.25
 21
-22.4
  0
LINE
  5
239
100
AcDbEntity
  8
DRAFT
100
AcDbLine
 62
7
  6
CONTINUOUS
 10
4.4
 20
-22.4
 11
8.25
 21
-22.4
  0
LINE
  5
23A
100
AcDbEntity
  8
RACCORDO
100
AcDbLine
 62
7
  6
CONTINUOUS
 10
-8.25
 20
-22.4
 11
-10.6323926099
 21
-22.4
  0
LINE
  5
23B
100
AcDbEntity
  8
RACCORDO
100
AcDbLine
 62
7
  6
CONTINUOUS
 10
-10.6498476749
 20
-22.3912731322
 11
-7.2587268678
 21
-22.3912731322
  0
LINE
  5
23C
100
AcDbEntity
  8
RACCORDO
100
AcDbLine
 62
7
  6
CONTINUOUS
 10
7.2587268678
 20
-22.3912731322
 11
10.6498476749
 21
-22.3912731322
  0
LINE
  5
23D
100
AcDbEntity
  8
DRAFT
100
AcDbLine
 62
7
  6
CONTINUOUS
 10
3.5
 20
-22.3380392387
 11
3.0
 21
-22.3380392387
  0
LINE
  5
23E
100
AcDbEntity
  8
DRAFT
100
AcDbLine
 62
7
  6
CONTINUOUS
 10
-3.0
 20
-22.3380392387
 11
-3.5
 21
-22.3380392387
  0
LINE
  5
23F
100
AcDbEntity
  8
RACCORDO
100
AcDbLine
 62
253
  6
CONTINUOUS
 10
-7.3373448332
 20
-22.3126551668
 11
-3.0
 21
-22.3126551668
  0
LINE
  5
240
100
AcDbEntity
  8
RACCORDO
100
AcDbLine
 62
253
  6
CONTINUOUS
 10
3.0
 20
-22.3126551668
 11
7.3373448332
 21
-22.3126551668
  0
LINE
  5
241
100
AcDbEntity
  8
0
100
AcDbLine
 62
7
  6
CONTINUOUS
 10
3.0
 20
-21.7
 11
-3.0
 21
-21.7
  0
LINE
  5
242
100
AcDbEntity
  8
DRAFT
100
AcDbLine
 62
7
  6
CONTINUOUS
 10
-8.0840245667
 20
-20.9829813964
 11
-8.25
 21
-20.9
  0
LINE
  5
243
100
AcDbEntity
  8
RACCORDO
100
AcDbLine
 62
253
  6
CONTINUOUS
 10
-8.5043676032
 20
-24.495628166
 11
-8.4999957692
 21
-24.5
  0
LINE
  5
244
100
AcDbEntity
  8
RACCORDO
100
AcDbLine
 62
253
  6
CONTINUOUS
 10
-8.254371834
 20
-24.2456323968
 11
-8.25
 21
-24.2500042308
  0
LINE
  5
245
100
AcDbEntity
  8
0
100
AcDbLine
 62
7
  6
CONTINUOUS
 10
-8.9
 20
20.9
 11
-9.65
 21
20.15
  0
LINE
  5
246
100
AcDbEntity
  8
RACCORDO
100
AcDbLine
 62
7
  6
CONTINUOUS
 10
-8.8
 20
20.85
 11
-10.5643027805
 21
19.0856972195
  0
LINE
  5
247
100
AcDbEntity
  8
ASSI
100
AcDbLine
 62
7
  6
CONTINUOUS
 10
-8.8
 20
20.85
 11
-10.5643027805
 21
19.0856972195
  0
LINE
  5
248
100
AcDbEntity
  8
RACCORDO
100
AcDbLine
 62
7
  6
CONTINUOUS
 10
-8.25
 20
21.4
 11
-7.2587268678
 21
22.3912731322
  0
LINE
  5
249
100
AcDbEntity
  8
RACCORDO
100
AcDbLine
 62
7
  6
CONTINUOUS
 10
-10.0850175454
 20
19.3181305591
 11
-8.5531481045
 21
20.85
  0
LINE
  5
24A
100
AcDbEntity
  8
ASSI
100
AcDbLine
 62
7
  6
CONTINUOUS
 10
-10.0850175454
 20
19.3181305591
 11
-8.5531481045
 21
20.85
  0
LINE
  5
24B
100
AcDbEntity
  8
RACCORDO
100
AcDbLine
 62
253
  6
CONTINUOUS
 10
-9.9952378169
 20
19.1013831211
 11
-10.1730026398
 21
18.9236182982
  0
LINE
  5
24C
100
AcDbEntity
  8
ASSI
100
AcDbLine
 62
253
  6
CONTINUOUS
 10
-9.9952378169
 20
19.1013831211
 11
-10.1730026398
 21
18.9236182982
  0
LINE
  5
24D
100
AcDbEntity
  8
RACCORDO
100
AcDbLine
 62
253
  6
CONTINUOUS
 10
-7.5841007192
 20
-21.3126932437
 11
-3.0
 21
-21.3126932437
  0
LINE
  5
24E
100
AcDbEntity
  8
RACCORDO
100
AcDbLine
 62
253
  6
CONTINUOUS
 10
3.0
 20
-21.3126932437
 11
7.5841007192
 21
-21.3126932437
  0
LINE
  5
24F
100
AcDbEntity
  8
0
100
AcDbLine
 62
7
  6
CONTINUOUS
 10
-3.0
 20
-21.0
 11
3.0
 21
-21.0
  0
LINE
  5
250
100
AcDbEntity
  8
DRAFT
100
AcDbLine
 62
7
  6
CONTINUOUS
 10
-7.5841007192
 20
-20.9872686779
 11
-6.9
 21
-20.9872686779
  0
LINE
  5
251
100
AcDbEntity
  8
DRAFT
100
AcDbLine
 62
7
  6
CONTINUOUS
 10
7.5841007192
 20
-20.9872686779
 11
6.9
 21
-20.9872686779
  0
LINE
  5
252
100
AcDbEntity
  8
DRAFT
100
AcDbLine
 62
7
  6
CONTINUOUS
 10
7.3
 20
-20.9
 11
8.9
 21
-20.9
  0
LINE
  5
253
100
AcDbEntity
  8
DRAFT
100
AcDbLine
 62
7
  6
CONTINUOUS
 10
-7.3
 20
-20.9
 11
-8.9
 21
-20.9
  0
LINE
  5
254
100
AcDbEntity
  8
DRAFT
100
AcDbLine
 62
7
  6
CONTINUOUS
 10
7.4
 20
-20.85
 11
8.8
 21
-20.85
  0
LINE
  5
255
100
AcDbEntity
  8
DRAFT
100
AcDbLine
 62
7
  6
CONTINUOUS
 10
-7.4
 20
-20.85
 11
-8.8
 21
-20.85
  0
LINE
  5
256
100
AcDbEntity
  8
ASSI
100
AcDbLine
 62
7
  6
CONTINUOUS
 10
7.4
 20
-20.85
 11
8.8
 21
-20.85
  0
LINE
  5
257
100
AcDbEntity
  8
ASSI
100
AcDbLine
 62
7
  6
CONTINUOUS
 10
-7.4
 20
-20.85
 11
-8.8
 21
-20.85
  0
LINE
  5
258
100
AcDbEntity
  8
RACCORDO
100
AcDbLine
 62
253
  6
CONTINUOUS
 10
-6.9
 20
-20.5829242832
 11
6.9
 21
-20.5829242832
  0
LINE
  5
259
100
AcDbEntity
  8
RACCORDO
100
AcDbLine
 62
253
  6
CONTINUOUS
 10
7.4
 20
-20.4484702548
 11
7.3501246809
 21
-20.4484702548
  0
LINE
  5
25A
100
AcDbEntity
  8
RACCORDO
100
AcDbLine
 62
253
  6
CONTINUOUS
 10
-7.3501246809
 20
-20.4484702548
 11
-7.4
 21
-20.4484702548
  0
LINE
  5
25B
100
AcDbEntity
  8
RACCORDO
100
AcDbLine
 62
253
  6
CONTINUOUS
 10
7.4
 20
-20.1488813944
 11
7.3517786853
 21
-20.1488813944
  0
LINE
  5
25C
100
AcDbEntity
  8
RACCORDO
100
AcDbLine
 62
253
  6
CONTINUOUS
 10
-7.3517786853
 20
-20.1488813944
 11
-7.4
 21
-20.1488813944
  0
LINE
  5
25D
100
AcDbEntity
  8
RACCORDO
100
AcDbLine
 62
253
  6
CONTINUOUS
 10
-6.555294768
 20
-20.0829433217
 11
6.555294768
 21
-20.0829433217
  0
LINE
  5
25E
100
AcDbEntity
  8
DRAFT
100
AcDbLine
 62
7
  6
CONTINUOUS
 10
2.5
 20
-20.0532338935
 11
2.4413111231
 21
-20.0532338935
  0
LINE
  5
25F
100
AcDbEntity
  8
DRAFT
100
AcDbLine
 62
7
  6
CONTINUOUS
 10
-2.4413111231
 20
-20.0532338935
 11
-2.5
 21
-20.0532338935
  0
LINE
  5
260
100
AcDbEntity
  8
DRAFT
100
AcDbLine
 62
7
  6
CONTINUOUS
 10
-3.5
 20
-20.0
 11
-2.5
 21
-20.0
  0
LINE
  5
261
100
AcDbEntity
  8
DRAFT
100
AcDbLine
 62
7
  6
CONTINUOUS
 10
2.5
 20
-20.0
 11
3.5
 21
-20.0
  0
LINE
  5
262
100
AcDbEntity
  8
DRAFT
100
AcDbLine
 62
7
  6
CONTINUOUS
 10
-6.4482213147
 20
-19.9223308767
 11
-2.5
 21
-19.9223308767
  0
LINE
  5
263
100
AcDbEntity
  8
DRAFT
100
AcDbLine
 62
7
  6
CONTINUOUS
 10
2.5
 20
-19.9223308767
 11
6.4482213147
 21
-19.9223308767
  0
LINE
  5
264
100
AcDbEntity
  8
DRAFT
100
AcDbLine
 62
7
  6
CONTINUOUS
 10
-3.5
 20
-19.9
 11
-2.5
 21
-19.9
  0
LINE
  5
265
100
AcDbEntity
  8
ASSI
100
AcDbLine
 62
7
  6
CONTINUOUS
 10
-3.5
 20
-19.9
 11
-2.5
 21
-19.9
  0
LINE
  5
266
100
AcDbEntity
  8
DRAFT
100
AcDbLine
 62
7
  6
CONTINUOUS
 10
2.5
 20
-19.9
 11
3.5
 21
-19.9
  0
LINE
  5
267
100
AcDbEntity
  8
ASSI
100
AcDbLine
 62
7
  6
CONTINUOUS
 10
2.5
 20
-19.9
 11
3.5
 21
-19.9
  0
LINE
  5
268
100
AcDbEntity
  8
RACCORDO
100
AcDbLine
 62
7
  6
CONTINUOUS
 10
-1.5981173983
 20
-19.8825449351
 11
1.5981173983
 21
-19.8825449351
  0
LINE
  5
269
100
AcDbEntity
  8
ASSI
100
AcDbLine
 62
7
  6
CONTINUOUS
 10
-1.5981173983
 20
-19.8825449351
 11
1.5981173983
 21
-19.8825449351
  0
LINE
  5
26A
100
AcDbEntity
  8
0
100
AcDbLine
 62
7
  6
CONTINUOUS
 10
-9.65
 20
-20.15
 11
-8.9
 21
-20.9
  0
LINE
  5
26B
100
AcDbEntity
  8
RACCORDO
100
AcDbLine
 62
7
  6
CONTINUOUS
 10
-10.5643027805
 20
-19.0856972195
 11
-8.8
 21
-20.85
  0
LINE
  5
26C
100
AcDbEntity
  8
ASSI
100
AcDbLine
 62
7
  6
CONTINUOUS
 10
-10.5643027805
 20
-19.0856972195
 11
-8.8
 21
-20.85
  0
LINE
  5
26D
100
AcDbEntity
  8
RACCORDO
100
AcDbLine
 62
7
  6
CONTINUOUS
 10
-7.2587268678
 20
-22.3912731322
 11
-8.25
 21
-21.4
  0
LINE
  5
26E
100
AcDbEntity
  8
RACCORDO
100
AcDbLine
 62
7
  6
CONTINUOUS
 10
-8.5531481045
 20
-20.85
 11
-10.0850175454
 21
-19.3181305591
  0
LINE
  5
26F
100
AcDbEntity
  8
ASSI
100
AcDbLine
 62
7
  6
CONTINUOUS
 10
-8.5531481045
 20
-20.85
 11
-10.0850175454
 21
-19.3181305591
  0
LINE
  5
270
100
AcDbEntity
  8
RACCORDO
100
AcDbLine
 62
253
  6
CONTINUOUS
 10
-10.1730026398
 20
-18.9236182982
 11
-9.9952378169
 21
-19.1013831211
  0
LINE
  5
271
100
AcDbEntity
  8
ASSI
100
AcDbLine
 62
253
  6
CONTINUOUS
 10
-10.1730026398
 20
-18.9236182982
 11
-9.9952378169
 21
-19.1013831211
  0
LINE
  5
272
100
AcDbEntity
  8
RACCORDO
100
AcDbLine
 62
253
  6
CONTINUOUS
 10
-9.2882387315
 20
18.3943840357
 11
-9.4660056078
 21
18.2166171594
  0
LINE
  5
273
100
AcDbEntity
  8
ASSI
100
AcDbLine
 62
253
  6
CONTINUOUS
 10
-9.2882387315
 20
18.3943840357
 11
-9.4660056078
 21
18.2166171594
  0
LINE
  5
274
100
AcDbEntity
  8
DRAFT
100
AcDbLine
 62
7
  6
CONTINUOUS
 10
-7.4
 20
19.7
 11
-7.4890208311
 21
19.6109791689
  0
LINE
  5
275
100
AcDbEntity
  8
ASSI
100
AcDbLine
 62
7
  6
CONTINUOUS
 10
-7.4
 20
19.7
 11
-7.4890208311
 21
19.6109791689
  0
LINE
  5
276
100
AcDbEntity
  8
RACCORDO
100
AcDbLine
 62
7
  6
CONTINUOUS
 10
-7.2438103287
 20
19.7561896713
 11
-7.3
 21
19.7
  0
LINE
  5
277
100
AcDbEntity
  8
DRAFT
100
AcDbLine
 62
7
  6
CONTINUOUS
 10
-3.4109791689
 20
-19.8109791689
 11
3.4109791689
 21
-19.8109791689
  0
LINE
  5
278
100
AcDbEntity
  8
ASSI
100
AcDbLine
 62
7
  6
CONTINUOUS
 10
-3.4109791689
 20
-19.8109791689
 11
3.4109791689
 21
-19.8109791689
  0
LINE
  5
279
100
AcDbEntity
  8
RACCORDO
100
AcDbLine
 62
253
  6
CONTINUOUS
 10
7.2407819689
 20
-19.7564431031
 11
6.5592180311
 21
-19.7564431031
  0
LINE
  5
27A
100
AcDbEntity
  8
RACCORDO
100
AcDbLine
 62
253
  6
CONTINUOUS
 10
-6.5592180311
 20
-19.7564431031
 11
-7.2407819689
 21
-19.7564431031
  0
LINE
  5
27B
100
AcDbEntity
  8
DRAFT
100
AcDbLine
 62
7
  6
CONTINUOUS
 10
-7.4
 20
-19.7
 11
-3.5
 21
-19.7
  0
LINE
  5
27C
100
AcDbEntity
  8
ASSI
100
AcDbLine
 62
7
  6
CONTINUOUS
 10
-7.4
 20
-19.7
 11
-3.5
 21
-19.7
  0
LINE
  5
27D
100
AcDbEntity
  8
DRAFT
100
AcDbLine
 62
7
  6
CONTINUOUS
 10
3.5
 20
-19.7
 11
7.4
 21
-19.7
  0
LINE
  5
27E
100
AcDbEntity
  8
ASSI
100
AcDbLine
 62
7
  6
CONTINUOUS
 10
3.5
 20
-19.7
 11
7.4
 21
-19.7
  0
LINE
  5
27F
100
AcDbEntity
  8
RACCORDO
100
AcDbLine
 62
7
  6
CONTINUOUS
 10
9.37801846
 20
-19.6109791689
 11
7.4890208311
 21
-19.6109791689
  0
LINE
  5
280
100
AcDbEntity
  8
ASSI
100
AcDbLine
 62
7
  6
CONTINUOUS
 10
9.37801846
 20
-19.6109791689
 11
7.4890208311
 21
-19.6109791689
  0
LINE
  5
281
100
AcDbEntity
  8
DRAFT
100
AcDbLine
 62
7
  6
CONTINUOUS
 10
-3.4109791689
 20
-19.6109791689
 11
3.4109791689
 21
-19.6109791689
  0
LINE
  5
282
100
AcDbEntity
  8
ASSI
100
AcDbLine
 62
7
  6
CONTINUOUS
 10
-3.4109791689
 20
-19.6109791689
 11
3.4109791689
 21
-19.6109791689
  0
LINE
  5
283
100
AcDbEntity
  8
RACCORDO
100
AcDbLine
 62
7
  6
CONTINUOUS
 10
-7.4890208311
 20
-19.6109791689
 11
-9.37801846
 21
-19.6109791689
  0
LINE
  5
284
100
AcDbEntity
  8
ASSI
100
AcDbLine
 62
7
  6
CONTINUOUS
 10
-7.4890208311
 20
-19.6109791689
 11
-9.37801846
 21
-19.6109791689
  0
LINE
  5
285
100
AcDbEntity
  8
RACCORDO
100
AcDbLine
 62
253
  6
CONTINUOUS
 10
-9.2882387315
 20
-19.3942317309
 11
9.2882387315
 21
-19.3942317309
  0
LINE
  5
286
100
AcDbEntity
  8
ASSI
100
AcDbLine
 62
253
  6
CONTINUOUS
 10
-9.2882387315
 20
-19.3942317309
 11
9.2882387315
 21
-19.3942317309
  0
LINE
  5
287
100
AcDbEntity
  8
RACCORDO
100
AcDbLine
 62
253
  6
CONTINUOUS
 10
-9.2882387315
 20
-18.3943840357
 11
9.2882387315
 21
-18.3943840357
  0
LINE
  5
288
100
AcDbEntity
  8
ASSI
100
AcDbLine
 62
253
  6
CONTINUOUS
 10
-9.2882387315
 20
-18.3943840357
 11
9.2882387315
 21
-18.3943840357
  0
LINE
  5
289
100
AcDbEntity
  8
RACCORDO
100
AcDbLine
 62
253
  6
CONTINUOUS
 10
-9.4660056078
 20
-18.2166171594
 11
-9.2882387315
 21
-18.3943840357
  0
LINE
  5
28A
100
AcDbEntity
  8
ASSI
100
AcDbLine
 62
253
  6
CONTINUOUS
 10
-9.4660056078
 20
-18.2166171594
 11
-9.2882387315
 21
-18.3943840357
  0
LINE
  5
28B
100
AcDbEntity
  8
DRAFT
100
AcDbLine
 62
7
  6
CONTINUOUS
 10
-7.4
 20
-19.7
 11
-7.4890208311
 21
-19.6109791689
  0
LINE
  5
28C
100
AcDbEntity
  8
ASSI
100
AcDbLine
 62
7
  6
CONTINUOUS
 10
-7.4
 20
-19.7
 11
-7.4890208311
 21
-19.6109791689
  0
LINE
  5
28D
100
AcDbEntity
  8
RACCORDO
100
AcDbLine
 62
7
  6
CONTINUOUS
 10
-7.2438103287
 20
-19.7561896713
 11
-7.3
 21
-19.7
  0
LINE
  5
28E
100
AcDbEntity
  8
RACCORDO
100
AcDbLine
 62
7
  6
CONTINUOUS
 10
-9.068456817
 20
20.581543183
 11
-8.9
 21
20.9
  0
LINE
  5
28F
100
AcDbEntity
  8
DRAFT
100
AcDbLine
 62
7
  6
CONTINUOUS
 10
-7.2438103287
 20
20.9842856956
 11
-7.3
 21
20.9
  0
LINE
  5
290
100
AcDbEntity
  8
RACCORDO
100
AcDbLine
 62
253
  6
CONTINUOUS
 10
9.7588542176
 20
-17.509618074
 11
10.7587019127
 21
-17.509618074
  0
LINE
  5
291
100
AcDbEntity
  8
ASSI
100
AcDbLine
 62
253
  6
CONTINUOUS
 10
9.7588542176
 20
-17.509618074
 11
10.7587019127
 21
-17.509618074
  0
LINE
  5
292
100
AcDbEntity
  8
RACCORDO
100
AcDbLine
 62
253
  6
CONTINUOUS
 10
-9.7588542176
 20
-17.509618074
 11
-10.7587019127
 21
-17.509618074
  0
LINE
  5
293
100
AcDbEntity
  8
ASSI
100
AcDbLine
 62
253
  6
CONTINUOUS
 10
-9.7588542176
 20
-17.509618074
 11
-10.7587019127
 21
-17.509618074
  0
LINE
  5
294
100
AcDbEntity
  8
DRAFT
100
AcDbLine
 62
7
  6
CONTINUOUS
 10
-7.2438103287
 20
-20.9842856956
 11
-7.3
 21
-20.9
  0
LINE
  5
295
100
AcDbEntity
  8
RACCORDO
100
AcDbLine
 62
7
  6
CONTINUOUS
 10
-8.9
 20
-20.9
 11
-9.068456817
 21
-20.581543183
  0
LINE
  5
296
100
AcDbEntity
  8
SMUSSO
100
AcDbLine
 62
7
  6
CONTINUOUS
 10
-7.0
 20
13.35
 11
-7.5773502692
 21
12.7726497308
  0
LINE
  5
297
100
AcDbEntity
  8
ASSI
100
AcDbLine
 62
7
  6
CONTINUOUS
 10
-7.0
 20
13.35
 11
-7.5773502692
 21
12.7726497308
  0
LINE
  5
298
100
AcDbEntity
  8
RACCORDO
100
AcDbLine
 62
7
  6
CONTINUOUS
 10
9.5439339828
 20
20.1060660172
 11
9.65
 21
20.15
  0
LINE
  5
299
100
AcDbEntity
  8
0
100
AcDbLine
 62
253
  6
CONTINUOUS
 10
10.8059382733
 20
-16.0857136726
 11
10.798458671
 21
-16.0857136726
  0
LINE
  5
29A
100
AcDbEntity
  8
INCISIONI
100
AcDbLine
 62
253
  6
CONTINUOUS
 10
11.0235718509
 20
-16.0000010014
 11
11.0283089324
 21
-16.0000010014
  0
LINE
  5
29B
100
AcDbEntity
  8
0
100
AcDbLine
 62
253
  6
CONTINUOUS
 10
10.8838631171
 20
-16.0
 11
10.870761497
 21
-16.0
  0
LINE
  5
29C
100
AcDbEntity
  8
0
100
AcDbLine
 62
253
  6
CONTINUOUS
 10
10.9596868106
 20
-16.0
 11
10.9465851905
 21
-16.0
  0
LINE
  5
29D
100
AcDbEntity
  8
0
100
AcDbLine
 62
253
  6
CONTINUOUS
 10
10.9217678094
 20
-15.6
 11
10.9086804982
 21
-15.6
  0
LINE
  5
29E
100
AcDbEntity
  8
0
100
AcDbLine
 62
253
  6
CONTINUOUS
 10
10.7834994648
 20
-15.3357136726
 11
10.8096780745
 21
-15.3357136726
  0
LINE
  5
29F
100
AcDbEntity
  8
0
100
AcDbLine
 62
253
  6
CONTINUOUS
 10
10.8059382733
 20
-14.9071424484
 11
10.7872392664
 21
-14.9071424484
  0
LINE
  5
2A0
100
AcDbEntity
  8
INCISIONI
100
AcDbLine
 62
253
  6
CONTINUOUS
 10
11.0022549826
 20
-14.5071436644
 11
11.014097687
 21
-14.5071436644
  0
LINE
  5
2A1
100
AcDbEntity
  8
INCISIONI
100
AcDbLine
 62
253
  6
CONTINUOUS
 10
11.0212033092
 20
-14.4619057417
 11
11.0283089324
 21
-14.4619057417
  0
LINE
  5
2A2
100
AcDbEntity
  8
RACCORDO
100
AcDbLine
 62
7
  6
CONTINUOUS
 10
9.5439339828
 20
-20.1060660172
 11
9.65
 21
-20.15
  0
LINE
  5
2A3
100
AcDbEntity
  8
ASSI
100
AcDbLine
 62
7
  6
CONTINUOUS
 10
4.4
 20
23.8
 11
4.3563493531
 21
23.7563493531
  0
LINE
  5
2A4
100
AcDbEntity
  8
RACCORDO
100
AcDbLine
 62
253
  6
CONTINUOUS
 10
10.5643027805
 20
19.0856972195
 11
10.1730026398
 21
18.9236182982
  0
LINE
  5
2A5
100
AcDbEntity
  8
ASSI
100
AcDbLine
 62
253
  6
CONTINUOUS
 10
10.5643027805
 20
19.0856972195
 11
10.1730026398
 21
18.9236182982
  0
LINE
  5
2A6
100
AcDbEntity
  8
0
100
AcDbLine
 62
253
  6
CONTINUOUS
 10
10.7872392664
 20
-14.1571424484
 11
10.8059382733
 21
-14.1571424484
  0
LINE
  5
2A7
100
AcDbEntity
  8
0
100
AcDbLine
 62
253
  6
CONTINUOUS
 10
10.7872392664
 20
-13.7285712242
 11
10.7909790679
 21
-13.7285712242
  0
LINE
  5
2A8
100
AcDbEntity
  8
0
100
AcDbLine
 62
253
  6
CONTINUOUS
 10
10.8021984722
 20
-12.9785712242
 11
10.8059382733
 21
-12.9785712242
  0
LINE
  5
2A9
100
AcDbEntity
  8
0
100
AcDbLine
 62
253
  6
CONTINUOUS
 10
11.1046014306
 20
-12.911198
 11
11.0539971429
 21
-12.911198
  0
LINE
  5
2AA
100
AcDbEntity
  8
INCISIONI
100
AcDbLine
 62
253
  6
CONTINUOUS
 10
10.9998864416
 20
-12.8333341837
 11
11.0164662277
 21
-12.8333341837
  0
LINE
  5
2AB
100
AcDbEntity
  8
0
100
AcDbLine
 62
253
  6
CONTINUOUS
 10
10.7834994648
 20
-12.55
 11
10.8096780745
 21
-12.55
  0
LINE
  5
2AC
100
AcDbEntity
  8
RACCORDO
100
AcDbLine
 62
253
  6
CONTINUOUS
 10
10.1730026398
 20
-18.9236182982
 11
10.5643027805
 21
-19.0856972195
  0
LINE
  5
2AD
100
AcDbEntity
  8
ASSI
100
AcDbLine
 62
253
  6
CONTINUOUS
 10
10.1730026398
 20
-18.9236182982
 11
10.5643027805
 21
-19.0856972195
  0
LINE
  5
2AE
100
AcDbEntity
  8
ASSI
100
AcDbLine
 62
7
  6
CONTINUOUS
 10
4.4
 20
-23.8
 11
4.3563493531
 21
-23.7563493531
  0
LINE
  5
2AF
100
AcDbEntity
  8
RACCORDO
100
AcDbLine
 62
253
  6
CONTINUOUS
 10
-10.645628166
 20
-23.8443375673
 11
-10.65
 21
-23.4104851482
  0
LINE
  5
2B0
100
AcDbEntity
  8
ASSI
100
AcDbLine
 62
7
  6
CONTINUOUS
 10
-11.15
 20
17.6716990487
 11
-11.15
 21
-17.6716990487
  0
LINE
  5
2B1
100
AcDbEntity
  8
RACCORDO
100
AcDbLine
 62
7
  6
CONTINUOUS
 10
-11.15
 20
21.8911779406
 11
-11.15
 21
-21.8911779406
  0
LINE
  5
2B2
100
AcDbEntity
  8
RACCORDO
100
AcDbLine
 62
253
  6
CONTINUOUS
 10
-10.7587019127
 20
17.5096157267
 11
-10.7587019127
 21
-17.5096157267
  0
LINE
  5
2B3
100
AcDbEntity
  8
ASSI
100
AcDbLine
 62
253
  6
CONTINUOUS
 10
-10.7587019127
 20
17.5096157267
 11
-10.7587019127
 21
-17.5096157267
  0
LINE
  5
2B4
100
AcDbEntity
  8
RACCORDO
100
AcDbLine
 62
253
  6
CONTINUOUS
 10
-10.65
 20
23.4104851482
 11
-10.645628166
 21
23.8443375673
  0
LINE
  5
2B5
100
AcDbEntity
  8
RACCORDO
100
AcDbLine
 62
7
  6
CONTINUOUS
 10
2.5
 20
19.9
 11
2.4979803239
 21
19.8979803239
  0
LINE
  5
2B6
100
AcDbEntity
  8
ASSI
100
AcDbLine
 62
7
  6
CONTINUOUS
 10
2.5
 20
19.9
 11
2.4979803239
 21
19.8979803239
  0
LINE
  5
2B7
100
AcDbEntity
  8
SMUSSO
100
AcDbLine
 62
7
  6
CONTINUOUS
 10
0.0
 20
16.65
 11
0.5773502692
 21
17.2273502692
  0
LINE
  5
2B8
100
AcDbEntity
  8
ASSI
100
AcDbLine
 62
7
  6
CONTINUOUS
 10
0.0
 20
16.65
 11
0.5773502692
 21
17.2273502692
  0
LINE
  5
2B9
100
AcDbEntity
  8
DRAFT
100
AcDbLine
 62
7
  6
CONTINUOUS
 10
3.5
 20
19.9
 11
3.4109791689
 21
19.8109791689
  0
LINE
  5
2BA
100
AcDbEntity
  8
ASSI
100
AcDbLine
 62
7
  6
CONTINUOUS
 10
3.5
 20
19.9
 11
3.4109791689
 21
19.8109791689
  0
LINE
  5
2BB
100
AcDbEntity
  8
DRAFT
100
AcDbLine
 62
7
  6
CONTINUOUS
 10
3.5
 20
19.7
 11
3.4109791689
 21
19.6109791689
  0
LINE
  5
2BC
100
AcDbEntity
  8
ASSI
100
AcDbLine
 62
7
  6
CONTINUOUS
 10
3.5
 20
19.7
 11
3.4109791689
 21
19.6109791689
  0
LINE
  5
2BD
100
AcDbEntity
  8
SMUSSO
100
AcDbLine
 62
7
  6
CONTINUOUS
 10
-7.0
 20
8.35
 11
-7.5773502692
 21
7.7726497308
  0
LINE
  5
2BE
100
AcDbEntity
  8
ASSI
100
AcDbLine
 62
7
  6
CONTINUOUS
 10
-7.0
 20
8.35
 11
-7.5773502692
 21
7.7726497308
  0
LINE
  5
2BF
100
AcDbEntity
  8
RACCORDO
100
AcDbLine
 62
253
  6
CONTINUOUS
 10
11.15
 20
17.6716990487
 11
10.7587019127
 21
17.5096157267
  0
LINE
  5
2C0
100
AcDbEntity
  8
ASSI
100
AcDbLine
 62
253
  6
CONTINUOUS
 10
11.15
 20
17.6716990487
 11
10.7587019127
 21
17.5096157267
  0
LINE
  5
2C1
100
AcDbEntity
  8
0
100
AcDbLine
 62
253
  6
CONTINUOUS
 10
11.0644999196
 20
-12.328754
 11
11.1046014306
 21
-12.328754
  0
LINE
  5
2C2
100
AcDbEntity
  8
0
100
AcDbLine
 62
253
  6
CONTINUOUS
 10
10.7834994648
 20
-11.8
 11
10.8096780745
 21
-11.8
  0
LINE
  5
2C3
100
AcDbEntity
  8
0
100
AcDbLine
 62
253
  6
CONTINUOUS
 10
10.8838631171
 20
-11.61489
 11
10.870761497
 21
-11.61489
  0
LINE
  5
2C4
100
AcDbEntity
  8
0
100
AcDbLine
 62
253
  6
CONTINUOUS
 10
10.9596868106
 20
-11.61489
 11
10.9465851905
 21
-11.61489
  0
LINE
  5
2C5
100
AcDbEntity
  8
INCISIONI
100
AcDbLine
 62
253
  6
CONTINUOUS
 10
10.9998864416
 20
-11.3404770732
 11
11.0164662277
 21
-11.3404770732
  0
LINE
  5
2C6
100
AcDbEntity
  8
0
100
AcDbLine
 62
253
  6
CONTINUOUS
 10
11.0963494969
 20
-10.87477
 11
11.0539971429
 21
-10.87477
  0
LINE
  5
2C7
100
AcDbEntity
  8
0
100
AcDbLine
 62
253
  6
CONTINUOUS
 10
10.7834994648
 20
-10.7285712242
 11
10.8096780745
 21
-10.7285712242
  0
LINE
  5
2C8
100
AcDbEntity
  8
RACCORDO
100
AcDbLine
 62
253
  6
CONTINUOUS
 10
10.7587019127
 20
-17.5096157267
 11
11.15
 21
-17.6716990487
  0
LINE
  5
2C9
100
AcDbEntity
  8
ASSI
100
AcDbLine
 62
253
  6
CONTINUOUS
 10
10.7587019127
 20
-17.5096157267
 11
11.15
 21
-17.6716990487
  0
LINE
  5
2CA
100
AcDbEntity
  8
RACCORDO
100
AcDbLine
 62
7
  6
CONTINUOUS
 10
2.5
 20
-19.9
 11
2.4979803239
 21
-19.8979803239
  0
LINE
  5
2CB
100
AcDbEntity
  8
ASSI
100
AcDbLine
 62
7
  6
CONTINUOUS
 10
2.5
 20
-19.9
 11
2.4979803239
 21
-19.8979803239
  0
LINE
  5
2CC
100
AcDbEntity
  8
DRAFT
100
AcDbLine
 62
7
  6
CONTINUOUS
 10
3.4109791689
 20
-19.8109791689
 11
3.5
 21
-19.9
  0
LINE
  5
2CD
100
AcDbEntity
  8
ASSI
100
AcDbLine
 62
7
  6
CONTINUOUS
 10
3.4109791689
 20
-19.8109791689
 11
3.5
 21
-19.9
  0
LINE
  5
2CE
100
AcDbEntity
  8
DRAFT
100
AcDbLine
 62
7
  6
CONTINUOUS
 10
3.5
 20
-19.7
 11
3.4109791689
 21
-19.6109791689
  0
LINE
  5
2CF
100
AcDbEntity
  8
ASSI
100
AcDbLine
 62
7
  6
CONTINUOUS
 10
3.5
 20
-19.7
 11
3.4109791689
 21
-19.6109791689
  0
LINE
  5
2D0
100
AcDbEntity
  8
RACCORDO
100
AcDbLine
 62
253
  6
CONTINUOUS
 10
-10.3956323968
 20
-23.6278312164
 11
-10.4007229979
 21
-23.1226497308
  0
LINE
  5
2D1
100
AcDbEntity
  8
RACCORDO
100
AcDbLine
 62
7
  6
CONTINUOUS
 10
-10.65
 20
-22.399689968
 11
-10.65
 21
-24.2500042308
  0
LINE
  5
2D2
100
AcDbEntity
  8
RACCORDO
100
AcDbLine
 62
7
  6
CONTINUOUS
 10
-10.65
 20
22.399689968
 11
-10.65
 21
24.2500042308
  0
LINE
  5
2D3
100
AcDbEntity
  8
RACCORDO
100
AcDbLine
 62
253
  6
CONTINUOUS
 10
-10.645628166
 20
24.2456323968
 11
-10.645628166
 21
23.8443375673
  0
LINE
  5
2D4
100
AcDbEntity
  8
RACCORDO
100
AcDbLine
 62
253
  6
CONTINUOUS
 10
-10.645628166
 20
-23.8443375673
 11
-10.645628166
 21
-24.2456323968
  0
LINE
  5
2D5
100
AcDbEntity
  8
RACCORDO
100
AcDbLine
 62
253
  6
CONTINUOUS
 10
-10.3956323968
 20
-23.6278312164
 11
-10.3956323968
 21
-24.495628166
  0
LINE
  5
2D6
100
AcDbEntity
  8
RACCORDO
100
AcDbLine
 62
253
  6
CONTINUOUS
 10
-10.3956323968
 20
23.6278312164
 11
-10.3956323968
 21
24.495628166
  0
LINE
  5
2D7
100
AcDbEntity
  8
RACCORDO
100
AcDbLine
 62
253
  6
CONTINUOUS
 10
-9.7588542176
 20
17.509618074
 11
-9.7588542176
 21
-17.509618074
  0
LINE
  5
2D8
100
AcDbEntity
  8
ASSI
100
AcDbLine
 62
253
  6
CONTINUOUS
 10
-9.7588542176
 20
17.509618074
 11
-9.7588542176
 21
-17.509618074
  0
LINE
  5
2D9
100
AcDbEntity
  8
DRAFT
100
AcDbLine
 62
7
  6
CONTINUOUS
 10
-9.65
 20
20.15
 11
-9.65
 21
20.0
  0
LINE
  5
2DA
100
AcDbEntity
  8
DRAFT
100
AcDbLine
 62
7
  6
CONTINUOUS
 10
-9.65
 20
-20.0
 11
-9.65
 21
-20.15
  0
LINE
  5
2DB
100
AcDbEntity
  8
RACCORDO
100
AcDbLine
 62
253
  6
CONTINUOUS
 10
-9.2882387315
 20
-18.3943840357
 11
-9.2882387315
 21
-19.3942317309
  0
LINE
  5
2DC
100
AcDbEntity
  8
ASSI
100
AcDbLine
 62
253
  6
CONTINUOUS
 10
-9.2882387315
 20
-18.3943840357
 11
-9.2882387315
 21
-19.3942317309
  0
LINE
  5
2DD
100
AcDbEntity
  8
RACCORDO
100
AcDbLine
 62
253
  6
CONTINUOUS
 10
-9.2882387315
 20
18.3943840357
 11
-9.2882387315
 21
19.3942317309
  0
LINE
  5
2DE
100
AcDbEntity
  8
ASSI
100
AcDbLine
 62
253
  6
CONTINUOUS
 10
-9.2882387315
 20
18.3943840357
 11
-9.2882387315
 21
19.3942317309
  0
LINE
  5
2DF
100
AcDbEntity
  8
RACCORDO
100
AcDbLine
 62
253
  6
CONTINUOUS
 10
-10.4007229979
 20
23.1226497308
 11
-10.3956323968
 21
23.6278312164
  0
LINE
  5
2E0
100
AcDbEntity
  8
DRAFT
100
AcDbLine
 62
7
  6
CONTINUOUS
 10
-7.3501246809
 20
20.4484702548
 11
-7.3
 21
20.9
  0
LINE
  5
2E1
100
AcDbEntity
  8
RACCORDO
100
AcDbLine
 62
253
  6
CONTINUOUS
 10
10.3956323968
 20
24.495628166
 11
10.4000042308
 21
24.5
  0
LINE
  5
2E2
100
AcDbEntity
  8
RACCORDO
100
AcDbLine
 62
253
  6
CONTINUOUS
 10
10.645628166
 20
24.2456323968
 11
10.65
 21
24.2500042308
  0
LINE
  5
2E3
100
AcDbEntity
  8
RACCORDO
100
AcDbLine
 62
7
  6
CONTINUOUS
 10
6.5561896713
 20
19.7561896713
 11
6.5
 21
19.7
  0
LINE
  5
2E4
100
AcDbEntity
  8
0
100
AcDbLine
 62
253
  6
CONTINUOUS
 10
10.7872392664
 20
-10.3
 11
10.7909790679
 21
-10.3
  0
LINE
  5
2E5
100
AcDbEntity
  8
0
100
AcDbLine
 62
253
  6
CONTINUOUS
 10
11.0539971429
 20
-10.292325
 11
11.1046014306
 21
-10.292325
  0
LINE
  5
2E6
100
AcDbEntity
  8
INCISIONI
100
AcDbLine
 62
253
  6
CONTINUOUS
 10
11.0330460138
 20
-10.1642866105
 11
10.9998864416
 21
-10.1642866105
  0
LINE
  5
2E7
100
AcDbEntity
  8
0
100
AcDbLine
 62
253
  6
CONTINUOUS
 10
10.8021984722
 20
-9.55
 11
10.8059382733
 21
-9.55
  0
LINE
  5
2E8
100
AcDbEntity
  8
RACCORDO
100
AcDbLine
 62
253
  6
CONTINUOUS
 10
10.3956323968
 20
-24.495628166
 11
10.4000042308
 21
-24.5
  0
LINE
  5
2E9
100
AcDbEntity
  8
RACCORDO
100
AcDbLine
 62
253
  6
CONTINUOUS
 10
10.645628166
 20
-24.2456323968
 11
10.65
 21
-24.2500042308
  0
LINE
  5
2EA
100
AcDbEntity
  8
RACCORDO
100
AcDbLine
 62
7
  6
CONTINUOUS
 10
6.5561896713
 20
-19.7561896713
 11
6.5
 21
-19.7
  0
LINE
  5
2EB
100
AcDbEntity
  8
DRAFT
100
AcDbLine
 62
7
  6
CONTINUOUS
 10
-7.3
 20
-20.9
 11
-7.3501246809
 21
-20.4484702548
  0
LINE
  5
2EC
100
AcDbEntity
  8
RACCORDO
100
AcDbLine
 62
253
  6
CONTINUOUS
 10
-8.5043676032
 20
23.6278312164
 11
-8.4992770021
 21
23.1226497308
  0
LINE
  5
2ED
100
AcDbEntity
  8
RACCORDO
100
AcDbLine
 62
253
  6
CONTINUOUS
 10
-8.254371834
 20
23.8443375673
 11
-8.25
 21
23.4104851482
  0
LINE
  5
2EE
100
AcDbEntity
  8
RACCORDO
100
AcDbLine
 62
253
  6
CONTINUOUS
 10
-8.5043676032
 20
-23.6278312164
 11
-8.5043676032
 21
-24.495628166
  0
LINE
  5
2EF
100
AcDbEntity
  8
RACCORDO
100
AcDbLine
 62
253
  6
CONTINUOUS
 10
-8.5043676032
 20
23.6278312164
 11
-8.5043676032
 21
24.495628166
  0
LINE
  5
2F0
100
AcDbEntity
  8
RACCORDO
100
AcDbLine
 62
253
  6
CONTINUOUS
 10
-8.254371834
 20
-24.2456323968
 11
-8.254371834
 21
-23.8443375673
  0
LINE
  5
2F1
100
AcDbEntity
  8
RACCORDO
100
AcDbLine
 62
253
  6
CONTINUOUS
 10
-8.254371834
 20
23.8443375673
 11
-8.254371834
 21
24.2456323968
  0
LINE
  5
2F2
100
AcDbEntity
  8
DRAFT
100
AcDbLine
 62
7
  6
CONTINUOUS
 10
-8.25
 20
-21.4
 11
-8.25
 21
-20.9
  0
LINE
  5
2F3
100
AcDbEntity
  8
RACCORDO
100
AcDbLine
 62
7
  6
CONTINUOUS
 10
-8.25
 20
-22.4
 11
-8.25
 21
-24.2500042308
  0
LINE
  5
2F4
100
AcDbEntity
  8
DRAFT
100
AcDbLine
 62
7
  6
CONTINUOUS
 10
-8.25
 20
20.9
 11
-8.25
 21
21.4
  0
LINE
  5
2F5
100
AcDbEntity
  8
RACCORDO
100
AcDbLine
 62
7
  6
CONTINUOUS
 10
-8.25
 20
22.4
 11
-8.25
 21
24.2500042308
  0
LINE
  5
2F6
100
AcDbEntity
  8
DRAFT
100
AcDbLine
 62
253
  6
CONTINUOUS
 10
-8.0840245667
 20
21.5659754333
 11
-8.0840245667
 21
20.9829813964
  0
LINE
  5
2F7
100
AcDbEntity
  8
DRAFT
100
AcDbLine
 62
253
  6
CONTINUOUS
 10
-8.0840245667
 20
-20.9829813964
 11
-8.0840245667
 21
-21.5659754333
  0
LINE
  5
2F8
100
AcDbEntity
  8
DRAFT
100
AcDbLine
 62
253
  6
CONTINUOUS
 10
-7.5841007192
 20
21.3126932437
 11
-7.5841007192
 21
20.9872686779
  0
LINE
  5
2F9
100
AcDbEntity
  8
DRAFT
100
AcDbLine
 62
253
  6
CONTINUOUS
 10
-7.5841007192
 20
-20.9872686779
 11
-7.5841007192
 21
-21.3126932437
  0
LINE
  5
2FA
100
AcDbEntity
  8
SMUSSO
100
AcDbLine
 62
7
  6
CONTINUOUS
 10
-7.5773502692
 20
7.7726497308
 11
-7.5773502692
 21
12.2273502692
  0
LINE
  5
2FB
100
AcDbEntity
  8
ASSI
100
AcDbLine
 62
7
  6
CONTINUOUS
 10
-7.5773502692
 20
7.7726497308
 11
-7.5773502692
 21
12.2273502692
  0
LINE
  5
2FC
100
AcDbEntity
  8
SMUSSO
100
AcDbLine
 62
7
  6
CONTINUOUS
 10
-7.5773502692
 20
12.7726497308
 11
-7.5773502692
 21
17.2273502692
  0
LINE
  5
2FD
100
AcDbEntity
  8
ASSI
100
AcDbLine
 62
7
  6
CONTINUOUS
 10
-7.5773502692
 20
12.7726497308
 11
-7.5773502692
 21
17.2273502692
  0
LINE
  5
2FE
100
AcDbEntity
  8
DRAFT
100
AcDbLine
 62
7
  6
CONTINUOUS
 10
-7.4890208311
 20
-20.85
 11
-7.4890208311
 21
-19.6109791689
  0
LINE
  5
2FF
100
AcDbEntity
  8
ASSI
100
AcDbLine
 62
7
  6
CONTINUOUS
 10
-7.4890208311
 20
-20.85
 11
-7.4890208311
 21
-19.6109791689
  0
LINE
  5
300
100
AcDbEntity
  8
DRAFT
100
AcDbLine
 62
7
  6
CONTINUOUS
 10
-7.4890208311
 20
19.6109791689
 11
-7.4890208311
 21
20.85
  0
LINE
  5
301
100
AcDbEntity
  8
ASSI
100
AcDbLine
 62
7
  6
CONTINUOUS
 10
-7.4890208311
 20
19.6109791689
 11
-7.4890208311
 21
20.85
  0
LINE
  5
302
100
AcDbEntity
  8
DRAFT
100
AcDbLine
 62
7
  6
CONTINUOUS
 10
-7.4
 20
-20.85
 11
-7.4
 21
-19.7
  0
LINE
  5
303
100
AcDbEntity
  8
ASSI
100
AcDbLine
 62
7
  6
CONTINUOUS
 10
-7.4
 20
-20.85
 11
-7.4
 21
-19.7
  0
LINE
  5
304
100
AcDbEntity
  8
DRAFT
100
AcDbLine
 62
7
  6
CONTINUOUS
 10
-7.4
 20
19.7
 11
-7.4
 21
20.85
  0
LINE
  5
305
100
AcDbEntity
  8
ASSI
100
AcDbLine
 62
7
  6
CONTINUOUS
 10
-7.4
 20
19.7
 11
-7.4
 21
20.85
  0
LINE
  5
306
100
AcDbEntity
  8
RACCORDO
100
AcDbLine
 62
7
  6
CONTINUOUS
 10
-7.3517786853
 20
20.1488813944
 11
-7.3517786853
 21
19.7
  0
LINE
  5
307
100
AcDbEntity
  8
RACCORDO
100
AcDbLine
 62
7
  6
CONTINUOUS
 10
-7.3517786853
 20
-20.1488813944
 11
-7.3517786853
 21
-19.7
  0
LINE
  5
308
100
AcDbEntity
  8
DRAFT
100
AcDbLine
 62
253
  6
CONTINUOUS
 10
-7.2438103287
 20
20.9842856956
 11
-7.2438103287
 21
19.7561896713
  0
LINE
  5
309
100
AcDbEntity
  8
DRAFT
100
AcDbLine
 62
253
  6
CONTINUOUS
 10
-7.2438103287
 20
-20.9842856956
 11
-7.2438103287
 21
-19.7561896713
  0
LINE
  5
30A
100
AcDbEntity
  8
RACCORDO
100
AcDbLine
 62
253
  6
CONTINUOUS
 10
-8.4992770021
 20
-23.1226497308
 11
-8.5043676032
 21
-23.6278312164
  0
LINE
  5
30B
100
AcDbEntity
  8
RACCORDO
100
AcDbLine
 62
253
  6
CONTINUOUS
 10
-8.25
 20
-23.4104851482
 11
-8.254371834
 21
-23.8443375673
  0
LINE
  5
30C
100
AcDbEntity
  8
DRAFT
100
AcDbLine
 62
7
  6
CONTINUOUS
 10
4.4
 20
22.4
 11
4.3559327327
 21
22.3338981669
  0
LINE
  5
30D
100
AcDbEntity
  8
SMUSSO
100
AcDbLine
 62
7
  6
CONTINUOUS
 10
0.0
 20
11.65
 11
0.5773502692
 21
12.2273502692
  0
LINE
  5
30E
100
AcDbEntity
  8
ASSI
100
AcDbLine
 62
7
  6
CONTINUOUS
 10
0.0
 20
11.65
 11
0.5773502692
 21
12.2273502692
  0
LINE
  5
30F
100
AcDbEntity
  8
0
100
AcDbLine
 62
253
  6
CONTINUOUS
 10
10.7834994648
 20
-7.3
 11
10.8096780745
 21
-7.3
  0
LINE
  5
310
100
AcDbEntity
  8
DRAFT
100
AcDbLine
 62
7
  6
CONTINUOUS
 10
4.4
 20
-22.4
 11
4.3559327327
 21
-22.3338981669
  0
LINE
  5
311
100
AcDbEntity
  8
SMUSSO
100
AcDbLine
 62
7
  6
CONTINUOUS
 10
-7.0
 20
8.35
 11
-7.0
 21
11.65
  0
LINE
  5
312
100
AcDbEntity
  8
ASSI
100
AcDbLine
 62
7
  6
CONTINUOUS
 10
-7.0
 20
8.35
 11
-7.0
 21
11.65
  0
LINE
  5
313
100
AcDbEntity
  8
SMUSSO
100
AcDbLine
 62
7
  6
CONTINUOUS
 10
-7.0
 20
13.35
 11
-7.0
 21
16.65
  0
LINE
  5
314
100
AcDbEntity
  8
ASSI
100
AcDbLine
 62
7
  6
CONTINUOUS
 10
-7.0
 20
13.35
 11
-7.0
 21
16.65
  0
LINE
  5
315
100
AcDbEntity
  8
DRAFT
100
AcDbLine
 62
253
  6
CONTINUOUS
 10
-6.9
 20
20.9872686779
 11
-6.9
 21
20.5829242832
  0
LINE
  5
316
100
AcDbEntity
  8
DRAFT
100
AcDbLine
 62
253
  6
CONTINUOUS
 10
-6.9
 20
-20.5829242832
 11
-6.9
 21
-20.9872686779
  0
LINE
  5
317
100
AcDbEntity
  8
0
100
AcDbLine
 62
7
  6
CONTINUOUS
 10
-6.9
 20
8.55
 11
-6.9
 21
11.55
  0
LINE
  5
318
100
AcDbEntity
  8
0
100
AcDbLine
 62
7
  6
CONTINUOUS
 10
-6.9
 20
13.55
 11
-6.9
 21
16.55
  0
LINE
  5
319
100
AcDbEntity
  8
RACCORDO
100
AcDbLine
 62
253
  6
CONTINUOUS
 10
-6.5561896713
 20
20.1086060399
 11
-6.5561896713
 21
19.7561896713
  0
LINE
  5
31A
100
AcDbEntity
  8
RACCORDO
100
AcDbLine
 62
253
  6
CONTINUOUS
 10
-6.5561896713
 20
-19.7561896713
 11
-6.5561896713
 21
-20.1086060399
  0
LINE
  5
31B
100
AcDbEntity
  8
DRAFT
100
AcDbLine
 62
7
  6
CONTINUOUS
 10
-6.4482213147
 20
19.9223308767
 11
-6.4482213147
 21
19.7
  0
LINE
  5
31C
100
AcDbEntity
  8
DRAFT
100
AcDbLine
 62
7
  6
CONTINUOUS
 10
-6.4482213147
 20
-19.7
 11
-6.4482213147
 21
-19.9223308767
  0
LINE
  5
31D
100
AcDbEntity
  8
RACCORDO
100
AcDbLine
 62
7
  6
CONTINUOUS
 10
6.555294768
 20
20.0829433217
 11
6.4482213147
 21
19.9223308767
  0
LINE
  5
31E
100
AcDbEntity
  8
RACCORDO
100
AcDbLine
 62
253
  6
CONTINUOUS
 10
9.2882387315
 20
18.3943840357
 11
9.9952378169
 21
19.1013831211
  0
LINE
  5
31F
100
AcDbEntity
  8
ASSI
100
AcDbLine
 62
253
  6
CONTINUOUS
 10
9.2882387315
 20
18.3943840357
 11
9.9952378169
 21
19.1013831211
  0
LINE
  5
320
100
AcDbEntity
  8
RACCORDO
100
AcDbLine
 62
253
  6
CONTINUOUS
 10
9.4660056078
 20
18.2166171594
 11
10.1730046932
 21
18.9236162448
  0
LINE
  5
321
100
AcDbEntity
  8
ASSI
100
AcDbLine
 62
253
  6
CONTINUOUS
 10
9.4660056078
 20
18.2166171594
 11
10.1730046932
 21
18.9236162448
  0
LINE
  5
322
100
AcDbEntity
  8
DRAFT
100
AcDbLine
 62
7
  6
CONTINUOUS
 10
9.65
 20
12.0
 11
9.5
 21
11.9250057119
  0
LINE
  5
323
100
AcDbEntity
  8
0
100
AcDbLine
 62
253
  6
CONTINUOUS
 10
10.8059382733
 20
-6.8714287758
 11
10.798458671
 21
-6.8714287758
  0
LINE
  5
324
100
AcDbEntity
  8
0
100
AcDbLine
 62
253
  6
CONTINUOUS
 10
11.0624067525
 20
-6.866738
 11
11.0539971429
 21
-6.866738
  0
LINE
  5
325
100
AcDbEntity
  8
0
100
AcDbLine
 62
253
  6
CONTINUOUS
 10
10.7834994648
 20
-6.1214287758
 11
10.8096780745
 21
-6.1214287758
  0
LINE
  5
326
100
AcDbEntity
  8
0
100
AcDbLine
 62
253
  6
CONTINUOUS
 10
11.1046014306
 20
-5.793739
 11
11.0624067525
 21
-5.793739
  0
LINE
  5
327
100
AcDbEntity
  8
0
100
AcDbLine
 62
253
  6
CONTINUOUS
 10
10.7872392664
 20
-5.6928568363
 11
10.8096780745
 21
-5.6928568363
  0
LINE
  5
328
100
AcDbEntity
  8
RACCORDO
100
AcDbLine
 62
253
  6
CONTINUOUS
 10
9.2882387315
 20
-18.3943840357
 11
9.9952378169
 21
-19.1013831211
  0
LINE
  5
329
100
AcDbEntity
  8
ASSI
100
AcDbLine
 62
253
  6
CONTINUOUS
 10
9.2882387315
 20
-18.3943840357
 11
9.9952378169
 21
-19.1013831211
  0
LINE
  5
32A
100
AcDbEntity
  8
RACCORDO
100
AcDbLine
 62
253
  6
CONTINUOUS
 10
9.4660056078
 20
-18.2166171594
 11
10.1730046932
 21
-18.9236162448
  0
LINE
  5
32B
100
AcDbEntity
  8
ASSI
100
AcDbLine
 62
253
  6
CONTINUOUS
 10
9.4660056078
 20
-18.2166171594
 11
10.1730046932
 21
-18.9236162448
  0
LINE
  5
32C
100
AcDbEntity
  8
RACCORDO
100
AcDbLine
 62
7
  6
CONTINUOUS
 10
6.555294768
 20
-20.0829433217
 11
6.4482213147
 21
-19.9223308767
  0
LINE
  5
32D
100
AcDbEntity
  8
DRAFT
100
AcDbLine
 62
7
  6
CONTINUOUS
 10
-4.4
 20
23.8
 11
-4.4
 21
22.4
  0
LINE
  5
32E
100
AcDbEntity
  8
DRAFT
100
AcDbLine
 62
7
  6
CONTINUOUS
 10
-4.4
 20
-22.4
 11
-4.4
 21
-23.8
  0
LINE
  5
32F
100
AcDbEntity
  8
ASSI
100
AcDbLine
 62
253
  6
CONTINUOUS
 10
-4.3559327327
 20
23.7507734247
 11
-4.3559327327
 21
22.3338981669
  0
LINE
  5
330
100
AcDbEntity
  8
ASSI
100
AcDbLine
 62
253
  6
CONTINUOUS
 10
-4.3559327327
 20
-22.3338981669
 11
-4.3559327327
 21
-23.7507734247
  0
LINE
  5
331
100
AcDbEntity
  8
DRAFT
100
AcDbLine
 62
7
  6
CONTINUOUS
 10
-3.5
 20
20.0445070257
 11
-3.5
 21
20.0
  0
LINE
  5
332
100
AcDbEntity
  8
DRAFT
100
AcDbLine
 62
7
  6
CONTINUOUS
 10
-3.5
 20
19.9
 11
-3.5
 21
19.7
  0
LINE
  5
333
100
AcDbEntity
  8
ASSI
100
AcDbLine
 62
7
  6
CONTINUOUS
 10
-3.5
 20
19.9
 11
-3.5
 21
19.7
  0
LINE
  5
334
100
AcDbEntity
  8
DRAFT
100
AcDbLine
 62
7
  6
CONTINUOUS
 10
-3.5
 20
-19.7
 11
-3.5
 21
-19.9
  0
LINE
  5
335
100
AcDbEntity
  8
ASSI
100
AcDbLine
 62
7
  6
CONTINUOUS
 10
-3.5
 20
-19.7
 11
-3.5
 21
-19.9
  0
LINE
  5
336
100
AcDbEntity
  8
DRAFT
100
AcDbLine
 62
7
  6
CONTINUOUS
 10
-3.5
 20
-20.0445070257
 11
-3.5
 21
-20.0
  0
LINE
  5
337
100
AcDbEntity
  8
ASSI
100
AcDbLine
 62
7
  6
CONTINUOUS
 10
-3.5
 20
-22.3339198952
 11
-3.5
 21
-23.7941821702
  0
LINE
  5
338
100
AcDbEntity
  8
ASSI
100
AcDbLine
 62
7
  6
CONTINUOUS
 10
-3.5
 20
22.3339198952
 11
-3.5
 21
23.7941821702
  0
LINE
  5
339
100
AcDbEntity
  8
DRAFT
100
AcDbLine
 62
7
  6
CONTINUOUS
 10
-3.4109791689
 20
19.8109791689
 11
-3.4109791689
 21
19.6109791689
  0
LINE
  5
33A
100
AcDbEntity
  8
ASSI
100
AcDbLine
 62
7
  6
CONTINUOUS
 10
-3.4109791689
 20
19.8109791689
 11
-3.4109791689
 21
19.6109791689
  0
LINE
  5
33B
100
AcDbEntity
  8
DRAFT
100
AcDbLine
 62
7
  6
CONTINUOUS
 10
-3.4109791689
 20
-19.6109791689
 11
-3.4109791689
 21
-19.8109791689
  0
LINE
  5
33C
100
AcDbEntity
  8
ASSI
100
AcDbLine
 62
7
  6
CONTINUOUS
 10
-3.4109791689
 20
-19.6109791689
 11
-3.4109791689
 21
-19.8109791689
  0
LINE
  5
33D
100
AcDbEntity
  8
0
100
AcDbLine
 62
253
  6
CONTINUOUS
 10
11.0539971429
 20
-5.171133
 11
11.1046014306
 21
-5.171133
  0
LINE
  5
33E
100
AcDbEntity
  8
0
100
AcDbLine
 62
253
  6
CONTINUOUS
 10
10.8096780745
 20
-4.9428568363
 11
10.7872392664
 21
-4.9428568363
  0
LINE
  5
33F
100
AcDbEntity
  8
0
100
AcDbLine
 62
253
  6
CONTINUOUS
 10
10.7834994648
 20
-4.0857143879
 11
10.8096780745
 21
-4.0857143879
  0
LINE
  5
340
100
AcDbEntity
  8
RACCORDO
100
AcDbLine
 62
7
  6
CONTINUOUS
 10
-3.0
 20
-21.0
 11
-3.0
 21
-22.3380392387
  0
LINE
  5
341
100
AcDbEntity
  8
RACCORDO
100
AcDbLine
 62
7
  6
CONTINUOUS
 10
-3.0
 20
21.0
 11
-3.0
 21
22.3380392387
  0
LINE
  5
342
100
AcDbEntity
  8
RACCORDO
100
AcDbLine
 62
7
  6
CONTINUOUS
 10
-2.5
 20
20.0532338935
 11
-2.5
 21
19.9
  0
LINE
  5
343
100
AcDbEntity
  8
ASSI
100
AcDbLine
 62
7
  6
CONTINUOUS
 10
-2.5
 20
20.0532338935
 11
-2.5
 21
19.9
  0
LINE
  5
344
100
AcDbEntity
  8
RACCORDO
100
AcDbLine
 62
7
  6
CONTINUOUS
 10
-2.5
 20
-19.9
 11
-2.5
 21
-20.0532338935
  0
LINE
  5
345
100
AcDbEntity
  8
ASSI
100
AcDbLine
 62
7
  6
CONTINUOUS
 10
-2.5
 20
-19.9
 11
-2.5
 21
-20.0532338935
  0
LINE
  5
346
100
AcDbEntity
  8
RACCORDO
100
AcDbLine
 62
253
  6
CONTINUOUS
 10
-2.4979803239
 20
-20.0532338935
 11
-2.4979803239
 21
-19.8979803239
  0
LINE
  5
347
100
AcDbEntity
  8
ASSI
100
AcDbLine
 62
253
  6
CONTINUOUS
 10
-2.4979803239
 20
-20.0532338935
 11
-2.4979803239
 21
-19.8979803239
  0
LINE
  5
348
100
AcDbEntity
  8
RACCORDO
100
AcDbLine
 62
253
  6
CONTINUOUS
 10
-2.4979803239
 20
19.8979803239
 11
-2.4979803239
 21
20.0532338935
  0
LINE
  5
349
100
AcDbEntity
  8
ASSI
100
AcDbLine
 62
253
  6
CONTINUOUS
 10
-2.4979803239
 20
19.8979803239
 11
-2.4979803239
 21
20.0532338935
  0
LINE
  5
34A
100
AcDbEntity
  8
0
100
AcDbLine
 62
7
  6
CONTINUOUS
 10
-2.0
 20
16.55
 11
-2.0
 21
13.55
  0
LINE
  5
34B
100
AcDbEntity
  8
0
100
AcDbLine
 62
7
  6
CONTINUOUS
 10
-2.0
 20
11.55
 11
-2.0
 21
8.55
  0
LINE
  5
34C
100
AcDbEntity
  8
RACCORDO
100
AcDbLine
 62
253
  6
CONTINUOUS
 10
-1.5981173983
 20
-20.0522359337
 11
-1.5981173983
 21
-19.8825449351
  0
LINE
  5
34D
100
AcDbEntity
  8
ASSI
100
AcDbLine
 62
253
  6
CONTINUOUS
 10
-1.5981173983
 20
-20.0522359337
 11
-1.5981173983
 21
-19.8825449351
  0
LINE
  5
34E
100
AcDbEntity
  8
RACCORDO
100
AcDbLine
 62
253
  6
CONTINUOUS
 10
-1.5981173983
 20
19.8825449351
 11
-1.5981173983
 21
20.0522359337
  0
LINE
  5
34F
100
AcDbEntity
  8
ASSI
100
AcDbLine
 62
253
  6
CONTINUOUS
 10
-1.5981173983
 20
19.8825449351
 11
-1.5981173983
 21
20.0522359337
  0
LINE
  5
350
100
AcDbEntity
  8
RACCORDO
100
AcDbLine
 62
253
  6
CONTINUOUS
 10
-9.9952378169
 20
-19.1013831211
 11
-10.0850175454
 21
-19.3181305591
  0
LINE
  5
351
100
AcDbEntity
  8
ASSI
100
AcDbLine
 62
253
  6
CONTINUOUS
 10
-9.9952378169
 20
-19.1013831211
 11
-10.0850175454
 21
-19.3181305591
  0
LINE
  5
352
100
AcDbEntity
  8
0
100
AcDbLine
 62
253
  6
CONTINUOUS
 10
11.0818939683
 20
-3.323396
 11
11.096191821
 21
-3.323396
  0
LINE
  5
353
100
AcDbEntity
  8
0
100
AcDbLine
 62
253
  6
CONTINUOUS
 10
11.0539971429
 20
-3.323396
 11
11.0734843588
 21
-3.323396
  0
LINE
  5
354
100
AcDbEntity
  8
0
100
AcDbLine
 62
253
  6
CONTINUOUS
 10
11.1046014306
 20
-2.70079
 11
11.0539971429
 21
-2.70079
  0
LINE
  5
355
100
AcDbEntity
  8
0
100
AcDbLine
 62
253
  6
CONTINUOUS
 10
10.8059382733
 20
-1.9428568363
 11
10.798458671
 21
-1.9428568363
  0
LINE
  5
356
100
AcDbEntity
  8
RACCORDO
100
AcDbLine
 62
253
  6
CONTINUOUS
 10
-10.0850175454
 20
19.3181305591
 11
-9.9952378169
 21
19.1013831211
  0
LINE
  5
357
100
AcDbEntity
  8
ASSI
100
AcDbLine
 62
253
  6
CONTINUOUS
 10
-10.0850175454
 20
19.3181305591
 11
-9.9952378169
 21
19.1013831211
  0
LINE
  5
358
100
AcDbEntity
  8
SMUSSO
100
AcDbLine
 62
7
  6
CONTINUOUS
 10
0.0
 20
16.65
 11
0.0
 21
13.35
  0
LINE
  5
359
100
AcDbEntity
  8
ASSI
100
AcDbLine
 62
7
  6
CONTINUOUS
 10
0.0
 20
16.65
 11
0.0
 21
13.35
  0
LINE
  5
35A
100
AcDbEntity
  8
SMUSSO
100
AcDbLine
 62
7
  6
CONTINUOUS
 10
0.0
 20
11.65
 11
0.0
 21
8.35
  0
LINE
  5
35B
100
AcDbEntity
  8
ASSI
100
AcDbLine
 62
7
  6
CONTINUOUS
 10
0.0
 20
11.65
 11
0.0
 21
8.35
  0
LINE
  5
35C
100
AcDbEntity
  8
RACCORDO
100
AcDbLine
 62
253
  6
CONTINUOUS
 10
-9.2882387315
 20
-19.3942317309
 11
-9.37801846
 21
-19.6109791689
  0
LINE
  5
35D
100
AcDbEntity
  8
ASSI
100
AcDbLine
 62
253
  6
CONTINUOUS
 10
-9.2882387315
 20
-19.3942317309
 11
-9.37801846
 21
-19.6109791689
  0
LINE
  5
35E
100
AcDbEntity
  8
0
100
AcDbLine
 62
253
  6
CONTINUOUS
 10
10.7834994648
 20
-1.1928571939
 11
10.8096780745
 21
-1.1928571939
  0
LINE
  5
35F
100
AcDbEntity
  8
0
100
AcDbLine
 62
253
  6
CONTINUOUS
 10
10.7834994648
 20
-0.1214284182
 11
10.8096780745
 21
-0.1214284182
  0
LINE
  5
360
100
AcDbEntity
  8
RACCORDO
100
AcDbLine
 62
253
  6
CONTINUOUS
 10
-9.37801846
 20
19.6109791689
 11
-9.2882387315
 21
19.3942317309
  0
LINE
  5
361
100
AcDbEntity
  8
ASSI
100
AcDbLine
 62
253
  6
CONTINUOUS
 10
-9.37801846
 20
19.6109791689
 11
-9.2882387315
 21
19.3942317309
  0
LINE
  5
362
100
AcDbEntity
  8
SMUSSO
100
AcDbLine
 62
7
  6
CONTINUOUS
 10
0.5773502692
 20
17.2273502692
 11
0.5773502692
 21
12.7726497308
  0
LINE
  5
363
100
AcDbEntity
  8
ASSI
100
AcDbLine
 62
7
  6
CONTINUOUS
 10
0.5773502692
 20
17.2273502692
 11
0.5773502692
 21
12.7726497308
  0
LINE
  5
364
100
AcDbEntity
  8
SMUSSO
100
AcDbLine
 62
7
  6
CONTINUOUS
 10
0.5773502692
 20
12.2273502692
 11
0.5773502692
 21
7.7726497308
  0
LINE
  5
365
100
AcDbEntity
  8
ASSI
100
AcDbLine
 62
7
  6
CONTINUOUS
 10
0.5773502692
 20
12.2273502692
 11
0.5773502692
 21
7.7726497308
  0
LINE
  5
366
100
AcDbEntity
  8
RACCORDO
100
AcDbLine
 62
253
  6
CONTINUOUS
 10
1.5981173983
 20
20.0522359337
 11
1.5981173983
 21
19.8825449351
  0
LINE
  5
367
100
AcDbEntity
  8
ASSI
100
AcDbLine
 62
253
  6
CONTINUOUS
 10
1.5981173983
 20
20.0522359337
 11
1.5981173983
 21
19.8825449351
  0
LINE
  5
368
100
AcDbEntity
  8
RACCORDO
100
AcDbLine
 62
253
  6
CONTINUOUS
 10
1.5981173983
 20
-19.8825449351
 11
1.5981173983
 21
-20.0522359337
  0
LINE
  5
369
100
AcDbEntity
  8
ASSI
100
AcDbLine
 62
253
  6
CONTINUOUS
 10
1.5981173983
 20
-19.8825449351
 11
1.5981173983
 21
-20.0522359337
  0
LINE
  5
36A
100
AcDbEntity
  8
RACCORDO
100
AcDbLine
 62
253
  6
CONTINUOUS
 10
9.2882387315
 20
19.3942317309
 11
9.37801846
 21
19.6109791689
  0
LINE
  5
36B
100
AcDbEntity
  8
ASSI
100
AcDbLine
 62
253
  6
CONTINUOUS
 10
9.2882387315
 20
19.3942317309
 11
9.37801846
 21
19.6109791689
  0
LINE
  5
36C
100
AcDbEntity
  8
RACCORDO
100
AcDbLine
 62
253
  6
CONTINUOUS
 10
9.9952378169
 20
19.1013831211
 11
10.0850175454
 21
19.3181305591
  0
LINE
  5
36D
100
AcDbEntity
  8
ASSI
100
AcDbLine
 62
253
  6
CONTINUOUS
 10
9.9952378169
 20
19.1013831211
 11
10.0850175454
 21
19.3181305591
  0
LINE
  5
36E
100
AcDbEntity
  8
0
100
AcDbLine
 62
253
  6
CONTINUOUS
 10
10.8059382733
 20
0.3071428061
 11
10.798458671
 21
0.3071428061
  0
LINE
  5
36F
100
AcDbEntity
  8
0
100
AcDbLine
 62
253
  6
CONTINUOUS
 10
10.7834994648
 20
1.0571428061
 11
10.8096780745
 21
1.0571428061
  0
LINE
  5
370
100
AcDbEntity
  8
0
100
AcDbLine
 62
253
  6
CONTINUOUS
 10
10.8096780745
 20
1.4857143879
 11
10.7834994648
 21
1.4857143879
  0
LINE
  5
371
100
AcDbEntity
  8
0
100
AcDbLine
 62
253
  6
CONTINUOUS
 10
11.0148456478
 20
1.5714292526
 11
10.9998864416
 21
1.5714292526
  0
LINE
  5
372
100
AcDbEntity
  8
RACCORDO
100
AcDbLine
 62
253
  6
CONTINUOUS
 10
9.37801846
 20
-19.6109791689
 11
9.2882387315
 21
-19.3942317309
  0
LINE
  5
373
100
AcDbEntity
  8
ASSI
100
AcDbLine
 62
253
  6
CONTINUOUS
 10
9.37801846
 20
-19.6109791689
 11
9.2882387315
 21
-19.3942317309
  0
LINE
  5
374
100
AcDbEntity
  8
RACCORDO
100
AcDbLine
 62
253
  6
CONTINUOUS
 10
10.0850175454
 20
-19.3181305591
 11
9.9952378169
 21
-19.1013831211
  0
LINE
  5
375
100
AcDbEntity
  8
ASSI
100
AcDbLine
 62
253
  6
CONTINUOUS
 10
10.0850175454
 20
-19.3181305591
 11
9.9952378169
 21
-19.1013831211
  0
LINE
  5
376
100
AcDbEntity
  8
RACCORDO
100
AcDbLine
 62
253
  6
CONTINUOUS
 10
2.4979803239
 20
20.0532338935
 11
2.4979803239
 21
19.8979803239
  0
LINE
  5
377
100
AcDbEntity
  8
ASSI
100
AcDbLine
 62
253
  6
CONTINUOUS
 10
2.4979803239
 20
20.0532338935
 11
2.4979803239
 21
19.8979803239
  0
LINE
  5
378
100
AcDbEntity
  8
RACCORDO
100
AcDbLine
 62
253
  6
CONTINUOUS
 10
2.4979803239
 20
-19.8979803239
 11
2.4979803239
 21
-20.0532338935
  0
LINE
  5
379
100
AcDbEntity
  8
ASSI
100
AcDbLine
 62
253
  6
CONTINUOUS
 10
2.4979803239
 20
-19.8979803239
 11
2.4979803239
 21
-20.0532338935
  0
LINE
  5
37A
100
AcDbEntity
  8
RACCORDO
100
AcDbLine
 62
7
  6
CONTINUOUS
 10
2.5
 20
20.0532338935
 11
2.5
 21
19.9
  0
LINE
  5
37B
100
AcDbEntity
  8
ASSI
100
AcDbLine
 62
7
  6
CONTINUOUS
 10
2.5
 20
20.0532338935
 11
2.5
 21
19.9
  0
LINE
  5
37C
100
AcDbEntity
  8
RACCORDO
100
AcDbLine
 62
7
  6
CONTINUOUS
 10
2.5
 20
-19.9
 11
2.5
 21
-20.0532338935
  0
LINE
  5
37D
100
AcDbEntity
  8
ASSI
100
AcDbLine
 62
7
  6
CONTINUOUS
 10
2.5
 20
-19.9
 11
2.5
 21
-20.0532338935
  0
LINE
  5
37E
100
AcDbEntity
  8
RACCORDO
100
AcDbLine
 62
7
  6
CONTINUOUS
 10
3.0
 20
-21.0
 11
3.0
 21
-22.3380392387
  0
LINE
  5
37F
100
AcDbEntity
  8
RACCORDO
100
AcDbLine
 62
7
  6
CONTINUOUS
 10
3.0
 20
21.0
 11
3.0
 21
22.3380392387
  0
LINE
  5
380
100
AcDbEntity
  8
DRAFT
100
AcDbLine
 62
7
  6
CONTINUOUS
 10
3.4109791689
 20
19.8109791689
 11
3.4109791689
 21
19.6109791689
  0
LINE
  5
381
100
AcDbEntity
  8
ASSI
100
AcDbLine
 62
7
  6
CONTINUOUS
 10
3.4109791689
 20
19.8109791689
 11
3.4109791689
 21
19.6109791689
  0
LINE
  5
382
100
AcDbEntity
  8
DRAFT
100
AcDbLine
 62
7
  6
CONTINUOUS
 10
3.4109791689
 20
-19.6109791689
 11
3.4109791689
 21
-19.8109791689
  0
LINE
  5
383
100
AcDbEntity
  8
ASSI
100
AcDbLine
 62
7
  6
CONTINUOUS
 10
3.4109791689
 20
-19.6109791689
 11
3.4109791689
 21
-19.8109791689
  0
LINE
  5
384
100
AcDbEntity
  8
DRAFT
100
AcDbLine
 62
7
  6
CONTINUOUS
 10
3.5
 20
19.9
 11
3.5
 21
19.7
  0
LINE
  5
385
100
AcDbEntity
  8
ASSI
100
AcDbLine
 62
7
  6
CONTINUOUS
 10
3.5
 20
19.9
 11
3.5
 21
19.7
  0
LINE
  5
386
100
AcDbEntity
  8
DRAFT
100
AcDbLine
 62
7
  6
CONTINUOUS
 10
3.5
 20
-19.7
 11
3.5
 21
-19.9
  0
LINE
  5
387
100
AcDbEntity
  8
ASSI
100
AcDbLine
 62
7
  6
CONTINUOUS
 10
3.5
 20
-19.7
 11
3.5
 21
-19.9
  0
LINE
  5
388
100
AcDbEntity
  8
DRAFT
100
AcDbLine
 62
7
  6
CONTINUOUS
 10
3.5
 20
-20.0
 11
3.5
 21
-20.0445070257
  0
LINE
  5
389
100
AcDbEntity
  8
ASSI
100
AcDbLine
 62
7
  6
CONTINUOUS
 10
3.5
 20
-22.3339198952
 11
3.5
 21
-23.7941821702
  0
LINE
  5
38A
100
AcDbEntity
  8
DRAFT
100
AcDbLine
 62
7
  6
CONTINUOUS
 10
3.5
 20
20.0
 11
3.5
 21
20.0445070257
  0
LINE
  5
38B
100
AcDbEntity
  8
ASSI
100
AcDbLine
 62
7
  6
CONTINUOUS
 10
3.5
 20
22.3339198952
 11
3.5
 21
23.7941821702
  0
LINE
  5
38C
100
AcDbEntity
  8
0
100
AcDbLine
 62
253
  6
CONTINUOUS
 10
10.7834994648
 20
2.3428571939
 11
10.8096780745
 21
2.3428571939
  0
LINE
  5
38D
100
AcDbEntity
  8
0
100
AcDbLine
 62
253
  6
CONTINUOUS
 10
11.0260650513
 20
2.9642853737
 11
10.9998864416
 21
2.9642853737
  0
LINE
  5
38E
100
AcDbEntity
  8
0
100
AcDbLine
 62
253
  6
CONTINUOUS
 10
10.7834994648
 20
3.4142857015
 11
10.8096780745
 21
3.4142857015
  0
LINE
  5
38F
100
AcDbEntity
  8
SMUSSO
100
AcDbLine
 62
7
  6
CONTINUOUS
 10
-7.0
 20
11.65
 11
-7.5773502692
 21
12.2273502692
  0
LINE
  5
390
100
AcDbEntity
  8
ASSI
100
AcDbLine
 62
7
  6
CONTINUOUS
 10
-7.0
 20
11.65
 11
-7.5773502692
 21
12.2273502692
  0
LINE
  5
391
100
AcDbEntity
  8
ASSI
100
AcDbLine
 62
253
  6
CONTINUOUS
 10
4.3559327327
 20
23.7507734247
 11
4.3559327327
 21
22.3338981669
  0
LINE
  5
392
100
AcDbEntity
  8
ASSI
100
AcDbLine
 62
253
  6
CONTINUOUS
 10
4.3559327327
 20
-22.3338981669
 11
4.3559327327
 21
-23.7507734247
  0
LINE
  5
393
100
AcDbEntity
  8
DRAFT
100
AcDbLine
 62
7
  6
CONTINUOUS
 10
4.4
 20
-23.8
 11
4.4
 21
-22.4
  0
LINE
  5
394
100
AcDbEntity
  8
DRAFT
100
AcDbLine
 62
7
  6
CONTINUOUS
 10
4.4
 20
22.4
 11
4.4
 21
23.8
  0
LINE
  5
395
100
AcDbEntity
  8
RACCORDO
100
AcDbLine
 62
7
  6
CONTINUOUS
 10
-6.555294768
 20
-20.0829433217
 11
-6.4482213147
 21
-19.9223308767
  0
LINE
  5
396
100
AcDbEntity
  8
0
100
AcDbLine
 62
253
  6
CONTINUOUS
 10
10.7834994648
 20
4.2714285523
 11
10.8096780745
 21
4.2714285523
  0
LINE
  5
397
100
AcDbEntity
  8
0
100
AcDbLine
 62
253
  6
CONTINUOUS
 10
10.9998864416
 20
5.1071429253
 11
11.0260650513
 21
5.1071429253
  0
LINE
  5
398
100
AcDbEntity
  8
INCISIONI
100
AcDbLine
 62
253
  6
CONTINUOUS
 10
11.0777556047
 20
5.30544429
 11
11.0780545961
 21
5.30544429
  0
LINE
  5
399
100
AcDbEntity
  8
RACCORDO
100
AcDbLine
 62
7
  6
CONTINUOUS
 10
-6.555294768
 20
20.0829433217
 11
-6.4482213147
 21
19.9223308767
  0
LINE
  5
39A
100
AcDbEntity
  8
DRAFT
100
AcDbLine
 62
7
  6
CONTINUOUS
 10
6.4482213147
 20
-19.9223308767
 11
6.4482213147
 21
-19.7
  0
LINE
  5
39B
100
AcDbEntity
  8
DRAFT
100
AcDbLine
 62
7
  6
CONTINUOUS
 10
6.4482213147
 20
19.7
 11
6.4482213147
 21
19.9223308767
  0
LINE
  5
39C
100
AcDbEntity
  8
RACCORDO
100
AcDbLine
 62
253
  6
CONTINUOUS
 10
6.5561896713
 20
-20.1086060399
 11
6.5561896713
 21
-19.7561896713
  0
LINE
  5
39D
100
AcDbEntity
  8
RACCORDO
100
AcDbLine
 62
253
  6
CONTINUOUS
 10
6.5561896713
 20
19.7561896713
 11
6.5561896713
 21
20.1086060399
  0
LINE
  5
39E
100
AcDbEntity
  8
DRAFT
100
AcDbLine
 62
253
  6
CONTINUOUS
 10
6.9
 20
-20.9872686779
 11
6.9
 21
-20.5829242832
  0
LINE
  5
39F
100
AcDbEntity
  8
DRAFT
100
AcDbLine
 62
253
  6
CONTINUOUS
 10
6.9
 20
20.5829242832
 11
6.9
 21
20.9872686779
  0
LINE
  5
3A0
100
AcDbEntity
  8
DRAFT
100
AcDbLine
 62
253
  6
CONTINUOUS
 10
7.2438103287
 20
20.9842856956
 11
7.2438103287
 21
19.7561896713
  0
LINE
  5
3A1
100
AcDbEntity
  8
DRAFT
100
AcDbLine
 62
253
  6
CONTINUOUS
 10
7.2438103287
 20
-20.9842856956
 11
7.2438103287
 21
-19.7561896713
  0
LINE
  5
3A2
100
AcDbEntity
  8
RACCORDO
100
AcDbLine
 62
7
  6
CONTINUOUS
 10
7.3517786853
 20
20.1488813944
 11
7.3517786853
 21
19.7
  0
LINE
  5
3A3
100
AcDbEntity
  8
RACCORDO
100
AcDbLine
 62
7
  6
CONTINUOUS
 10
7.3517786853
 20
-20.1488813944
 11
7.3517786853
 21
-19.7
  0
LINE
  5
3A4
100
AcDbEntity
  8
DRAFT
100
AcDbLine
 62
7
  6
CONTINUOUS
 10
7.4
 20
20.85
 11
7.4
 21
19.7
  0
LINE
  5
3A5
100
AcDbEntity
  8
ASSI
100
AcDbLine
 62
7
  6
CONTINUOUS
 10
7.4
 20
20.85
 11
7.4
 21
19.7
  0
LINE
  5
3A6
100
AcDbEntity
  8
DRAFT
100
AcDbLine
 62
7
  6
CONTINUOUS
 10
7.4
 20
-19.7
 11
7.4
 21
-20.85
  0
LINE
  5
3A7
100
AcDbEntity
  8
ASSI
100
AcDbLine
 62
7
  6
CONTINUOUS
 10
7.4
 20
-19.7
 11
7.4
 21
-20.85
  0
LINE
  5
3A8
100
AcDbEntity
  8
DRAFT
100
AcDbLine
 62
7
  6
CONTINUOUS
 10
7.4890208311
 20
20.85
 11
7.4890208311
 21
19.6109791689
  0
LINE
  5
3A9
100
AcDbEntity
  8
ASSI
100
AcDbLine
 62
7
  6
CONTINUOUS
 10
7.4890208311
 20
20.85
 11
7.4890208311
 21
19.6109791689
  0
LINE
  5
3AA
100
AcDbEntity
  8
DRAFT
100
AcDbLine
 62
7
  6
CONTINUOUS
 10
7.4890208311
 20
-19.6109791689
 11
7.4890208311
 21
-20.85
  0
LINE
  5
3AB
100
AcDbEntity
  8
ASSI
100
AcDbLine
 62
7
  6
CONTINUOUS
 10
7.4890208311
 20
-19.6109791689
 11
7.4890208311
 21
-20.85
  0
LINE
  5
3AC
100
AcDbEntity
  8
RACCORDO
100
AcDbLine
 62
253
  6
CONTINUOUS
 10
-9.4660056078
 20
-18.2166171594
 11
-10.1730046932
 21
-18.9236162448
  0
LINE
  5
3AD
100
AcDbEntity
  8
ASSI
100
AcDbLine
 62
253
  6
CONTINUOUS
 10
-9.4660056078
 20
-18.2166171594
 11
-10.1730046932
 21
-18.9236162448
  0
LINE
  5
3AE
100
AcDbEntity
  8
RACCORDO
100
AcDbLine
 62
253
  6
CONTINUOUS
 10
-9.2882387315
 20
-18.3943840357
 11
-9.9952378169
 21
-19.1013831211
  0
LINE
  5
3AF
100
AcDbEntity
  8
ASSI
100
AcDbLine
 62
253
  6
CONTINUOUS
 10
-9.2882387315
 20
-18.3943840357
 11
-9.9952378169
 21
-19.1013831211
  0
LINE
  5
3B0
100
AcDbEntity
  8
0
100
AcDbLine
 62
253
  6
CONTINUOUS
 10
10.9998864416
 20
6.2142858505
 11
11.0260650513
 21
6.2142858505
  0
LINE
  5
3B1
100
AcDbEntity
  8
INCISIONI
100
AcDbLine
 62
253
  6
CONTINUOUS
 10
11.0541368045
 20
6.2587313832
 11
11.0739381528
 21
6.2587313832
  0
LINE
  5
3B2
100
AcDbEntity
  8
INCISIONI
100
AcDbLine
 62
253
  6
CONTINUOUS
 10
11.0822249185
 20
6.2788012718
 11
11.0961151164
 21
6.2788012718
  0
LINE
  5
3B3
100
AcDbEntity
  8
INCISIONI
100
AcDbLine
 62
253
  6
CONTINUOUS
 10
11.1041438693
 20
6.8615673444
 11
11.0541368045
 21
6.8615673444
  0
LINE
  5
3B4
100
AcDbEntity
  8
SMUSSO
100
AcDbLine
 62
7
  6
CONTINUOUS
 10
0.0
 20
8.35
 11
0.5773502692
 21
7.7726497308
  0
LINE
  5
3B5
100
AcDbEntity
  8
ASSI
100
AcDbLine
 62
7
  6
CONTINUOUS
 10
0.0
 20
8.35
 11
0.5773502692
 21
7.7726497308
  0
LINE
  5
3B6
100
AcDbEntity
  8
RACCORDO
100
AcDbLine
 62
253
  6
CONTINUOUS
 10
-9.4660056078
 20
18.2166171594
 11
-10.1730046932
 21
18.9236162448
  0
LINE
  5
3B7
100
AcDbEntity
  8
ASSI
100
AcDbLine
 62
253
  6
CONTINUOUS
 10
-9.4660056078
 20
18.2166171594
 11
-10.1730046932
 21
18.9236162448
  0
LINE
  5
3B8
100
AcDbEntity
  8
RACCORDO
100
AcDbLine
 62
253
  6
CONTINUOUS
 10
-9.2882387315
 20
18.3943840357
 11
-9.9952378169
 21
19.1013831211
  0
LINE
  5
3B9
100
AcDbEntity
  8
ASSI
100
AcDbLine
 62
253
  6
CONTINUOUS
 10
-9.2882387315
 20
18.3943840357
 11
-9.9952378169
 21
19.1013831211
  0
LINE
  5
3BA
100
AcDbEntity
  8
SMUSSO
100
AcDbLine
 62
7
  6
CONTINUOUS
 10
-7.0
 20
16.65
 11
-7.5773502692
 21
17.2273502692
  0
LINE
  5
3BB
100
AcDbEntity
  8
ASSI
100
AcDbLine
 62
7
  6
CONTINUOUS
 10
-7.0
 20
16.65
 11
-7.5773502692
 21
17.2273502692
  0
LINE
  5
3BC
100
AcDbEntity
  8
RACCORDO
100
AcDbLine
 62
253
  6
CONTINUOUS
 10
8.254371834
 20
-23.8443375673
 11
8.25
 21
-23.4104851482
  0
LINE
  5
3BD
100
AcDbEntity
  8
RACCORDO
100
AcDbLine
 62
253
  6
CONTINUOUS
 10
8.5050948319
 20
-23.7
 11
8.4992770021
 21
-23.1226497308
  0
LINE
  5
3BE
100
AcDbEntity
  8
DRAFT
100
AcDbLine
 62
253
  6
CONTINUOUS
 10
7.5841007192
 20
-21.3126932437
 11
7.5841007192
 21
-20.9872686779
  0
LINE
  5
3BF
100
AcDbEntity
  8
DRAFT
100
AcDbLine
 62
253
  6
CONTINUOUS
 10
7.5841007192
 20
20.9872686779
 11
7.5841007192
 21
21.3126932437
  0
LINE
  5
3C0
100
AcDbEntity
  8
DRAFT
100
AcDbLine
 62
253
  6
CONTINUOUS
 10
8.0840245667
 20
-21.5659754333
 11
8.0840245667
 21
-20.9829813964
  0
LINE
  5
3C1
100
AcDbEntity
  8
DRAFT
100
AcDbLine
 62
253
  6
CONTINUOUS
 10
8.0840245667
 20
20.9829813964
 11
8.0840245667
 21
21.5659754333
  0
LINE
  5
3C2
100
AcDbEntity
  8
DRAFT
100
AcDbLine
 62
7
  6
CONTINUOUS
 10
8.25
 20
21.4
 11
8.25
 21
20.9
  0
LINE
  5
3C3
100
AcDbEntity
  8
DRAFT
100
AcDbLine
 62
7
  6
CONTINUOUS
 10
8.25
 20
-20.9
 11
8.25
 21
-21.4
  0
LINE
  5
3C4
100
AcDbEntity
  8
RACCORDO
100
AcDbLine
 62
7
  6
CONTINUOUS
 10
8.25
 20
-22.4
 11
8.25
 21
-24.2500042308
  0
LINE
  5
3C5
100
AcDbEntity
  8
RACCORDO
100
AcDbLine
 62
7
  6
CONTINUOUS
 10
8.25
 20
22.4
 11
8.25
 21
24.2500042308
  0
LINE
  5
3C6
100
AcDbEntity
  8
RACCORDO
100
AcDbLine
 62
253
  6
CONTINUOUS
 10
8.254371834
 20
24.2456323968
 11
8.254371834
 21
23.8443375673
  0
LINE
  5
3C7
100
AcDbEntity
  8
RACCORDO
100
AcDbLine
 62
253
  6
CONTINUOUS
 10
8.254371834
 20
-23.8443375673
 11
8.254371834
 21
-24.2456323968
  0
LINE
  5
3C8
100
AcDbEntity
  8
RACCORDO
100
AcDbLine
 62
253
  6
CONTINUOUS
 10
8.5043676032
 20
-23.7
 11
8.5043676032
 21
-24.495628166
  0
LINE
  5
3C9
100
AcDbEntity
  8
RACCORDO
100
AcDbLine
 62
253
  6
CONTINUOUS
 10
8.5043676032
 20
23.6278312164
 11
8.5043676032
 21
24.495628166
  0
LINE
  5
3CA
100
AcDbEntity
  8
RACCORDO
100
AcDbLine
 62
253
  6
CONTINUOUS
 10
9.2882387315
 20
-18.3943840357
 11
9.2882387315
 21
-19.3942317309
  0
LINE
  5
3CB
100
AcDbEntity
  8
ASSI
100
AcDbLine
 62
253
  6
CONTINUOUS
 10
9.2882387315
 20
-18.3943840357
 11
9.2882387315
 21
-19.3942317309
  0
LINE
  5
3CC
100
AcDbEntity
  8
RACCORDO
100
AcDbLine
 62
253
  6
CONTINUOUS
 10
9.2882387315
 20
18.3943840357
 11
9.2882387315
 21
19.3942317309
  0
LINE
  5
3CD
100
AcDbEntity
  8
ASSI
100
AcDbLine
 62
253
  6
CONTINUOUS
 10
9.2882387315
 20
18.3943840357
 11
9.2882387315
 21
19.3942317309
  0
LINE
  5
3CE
100
AcDbEntity
  8
ASSI
100
AcDbLine
 62
7
  6
CONTINUOUS
 10
9.35
 20
17.1
 11
9.35
 21
12.9
  0
LINE
  5
3CF
100
AcDbEntity
  8
ASSI
100
AcDbLine
 62
7
  6
CONTINUOUS
 10
9.35
 20
12.1
 11
9.35
 21
7.9
  0
LINE
  5
3D0
100
AcDbEntity
  8
RACCORDO
100
AcDbLine
 62
253
  6
CONTINUOUS
 10
8.25
 20
23.4104851482
 11
8.254371834
 21
23.8443375673
  0
LINE
  5
3D1
100
AcDbEntity
  8
RACCORDO
100
AcDbLine
 62
253
  6
CONTINUOUS
 10
8.4992770021
 20
23.1226497308
 11
8.5043676032
 21
23.6278312164
  0
LINE
  5
3D2
100
AcDbEntity
  8
INCISIONI
100
AcDbLine
 62
253
  6
CONTINUOUS
 10
11.1047350258
 20
9.790227
 11
11.0541368107
 21
9.519077
  0
LINE
  5
3D3
100
AcDbEntity
  8
INCISIONI
100
AcDbLine
 62
253
  6
CONTINUOUS
 10
11.0541368107
 20
10.111193
 11
11.0870387649
 21
10.235548
  0
LINE
  5
3D4
100
AcDbEntity
  8
DRAFT
100
AcDbLine
 62
7
  6
CONTINUOUS
 10
-4.4
 20
-22.4
 11
-4.3559327327
 21
-22.3338981669
  0
LINE
  5
3D5
100
AcDbEntity
  8
RACCORDO
100
AcDbLine
 62
7
  6
CONTINUOUS
 10
-6.5561896713
 20
-19.7561896713
 11
-6.5
 21
-19.7
  0
LINE
  5
3D6
100
AcDbEntity
  8
SMUSSO
100
AcDbLine
 62
7
  6
CONTINUOUS
 10
0.5773502692
 20
7.7726497308
 11
-7.5773502692
 21
7.7726497308
  0
LINE
  5
3D7
100
AcDbEntity
  8
ASSI
100
AcDbLine
 62
7
  6
CONTINUOUS
 10
0.5773502692
 20
7.7726497308
 11
-7.5773502692
 21
7.7726497308
  0
LINE
  5
3D8
100
AcDbEntity
  8
ASSI
100
AcDbLine
 62
7
  6
CONTINUOUS
 10
9.35
 20
7.9
 11
10.8724644676
 21
7.9
  0
LINE
  5
3D9
100
AcDbEntity
  8
0
100
AcDbLine
 62
253
  6
CONTINUOUS
 10
10.9998864416
 20
8.1071429253
 11
11.0260650513
 21
8.1071429253
  0
LINE
  5
3DA
100
AcDbEntity
  8
SMUSSO
100
AcDbLine
 62
7
  6
CONTINUOUS
 10
0.0
 20
8.35
 11
-7.0
 21
8.35
  0
LINE
  5
3DB
100
AcDbEntity
  8
ASSI
100
AcDbLine
 62
7
  6
CONTINUOUS
 10
0.0
 20
8.35
 11
-7.0
 21
8.35
  0
LINE
  5
3DC
100
AcDbEntity
  8
0
100
AcDbLine
 62
7
  6
CONTINUOUS
 10
0.0
 20
8.55
 11
-7.0
 21
8.55
  0
LINE
  5
3DD
100
AcDbEntity
  8
0
100
AcDbLine
 62
253
  6
CONTINUOUS
 10
10.9998864416
 20
8.8571429253
 11
11.0260650513
 21
8.8571429253
  0
LINE
  5
3DE
100
AcDbEntity
  8
RACCORDO
100
AcDbLine
 62
7
  6
CONTINUOUS
 10
-6.5561896713
 20
19.7561896713
 11
-6.5
 21
19.7
  0
LINE
  5
3DF
100
AcDbEntity
  8
DRAFT
100
AcDbLine
 62
7
  6
CONTINUOUS
 10
-4.4
 20
22.4
 11
-4.3559327327
 21
22.3338981669
  0
LINE
  5
3E0
100
AcDbEntity
  8
INCISIONI
100
AcDbLine
 62
253
  6
CONTINUOUS
 10
11.0069920643
 20
-12.2000007749
 11
11.0330460138
 21
-12.6071436644
  0
LINE
  5
3E1
100
AcDbEntity
  8
INCISIONI
100
AcDbLine
 62
253
  6
CONTINUOUS
 10
11.0069920643
 20
-10.7071437776
 11
11.0330460138
 21
-11.1142865539
  0
LINE
  5
3E2
100
AcDbEntity
  8
0
100
AcDbLine
 62
253
  6
CONTINUOUS
 10
10.7834994648
 20
-2.3714287758
 11
10.8096780745
 21
-2.8
  0
LINE
  5
3E3
100
AcDbEntity
  8
0
100
AcDbLine
 62
253
  6
CONTINUOUS
 10
11.0731320483
 20
-14.176491
 11
11.0949286163
 21
-14.606449
  0
LINE
  5
3E4
100
AcDbEntity
  8
0
100
AcDbLine
 62
253
  6
CONTINUOUS
 10
11.0731320483
 20
-8.151456
 11
11.094931478
 21
-8.581471
  0
LINE
  5
3E5
100
AcDbEntity
  8
0
100
AcDbLine
 62
253
  6
CONTINUOUS
 10
11.0539971429
 20
-13.798889
 11
11.0647224388
 21
-14.015846
  0
LINE
  5
3E6
100
AcDbEntity
  8
0
100
AcDbLine
 62
253
  6
CONTINUOUS
 10
11.0539971429
 20
-7.773964
 11
11.0647224388
 21
-7.990812
  0
LINE
  5
3E7
100
AcDbEntity
  8
0
100
AcDbLine
 62
253
  6
CONTINUOUS
 10
11.1046014306
 20
-14.252884
 11
11.0539971429
 21
-13.20444
  0
LINE
  5
3E8
100
AcDbEntity
  8
0
100
AcDbLine
 62
253
  6
CONTINUOUS
 10
11.1046014306
 20
-8.227849
 11
11.0539971429
 21
-7.179514
  0
LINE
  5
3E9
100
AcDbEntity
  8
0
100
AcDbLine
 62
253
  6
CONTINUOUS
 10
10.7947188691
 20
1.9142857909
 11
10.8096780745
 21
1.4857143879
  0
LINE
  5
3EA
100
AcDbEntity
  8
INCISIONI
100
AcDbLine
 62
253
  6
CONTINUOUS
 10
11.0330460138
 20
-15.3214294434
 11
11.0259403907
 21
-15.0500010014
  0
LINE
  5
3EB
100
AcDbEntity
  8
0
100
AcDbLine
 62
253
  6
CONTINUOUS
 10
11.0148456478
 20
1.5714292526
 11
11.0260650513
 21
1.1428565979
  0
LINE
  5
3EC
100
AcDbEntity
  8
INCISIONI
100
AcDbLine
 62
253
  6
CONTINUOUS
 10
10.9998864416
 20
-15.0500010014
 11
11.0235718509
 21
-16.0000010014
  0
LINE
  5
3ED
100
AcDbEntity
  8
0
100
AcDbLine
 62
253
  6
CONTINUOUS
 10
10.798458671
 20
-16.0857136726
 11
10.7947188691
 21
-15.8714287758
  0
LINE
  5
3EE
100
AcDbEntity
  8
0
100
AcDbLine
 62
253
  6
CONTINUOUS
 10
10.7872392664
 20
-14.9071424484
 11
10.7834994648
 21
-14.6928575516
  0
LINE
  5
3EF
100
AcDbEntity
  8
0
100
AcDbLine
 62
253
  6
CONTINUOUS
 10
10.7834994648
 20
-13.5142863274
 11
10.7872392664
 21
-13.7285712242
  0
LINE
  5
3F0
100
AcDbEntity
  8
0
100
AcDbLine
 62
253
  6
CONTINUOUS
 10
10.8059382733
 20
-14.1571424484
 11
10.8096780745
 21
-14.3714287758
  0
LINE
  5
3F1
100
AcDbEntity
  8
0
100
AcDbLine
 62
253
  6
CONTINUOUS
 10
10.8059382733
 20
-12.9785712242
 11
10.8096780745
 21
-13.1928575516
  0
LINE
  5
3F2
100
AcDbEntity
  8
0
100
AcDbLine
 62
253
  6
CONTINUOUS
 10
10.7834994648
 20
-10.0857136726
 11
10.7872392664
 21
-10.3
  0
LINE
  5
3F3
100
AcDbEntity
  8
0
100
AcDbLine
 62
253
  6
CONTINUOUS
 10
10.8059382733
 20
-9.55
 11
10.8096780745
 21
-9.7642863274
  0
LINE
  5
3F4
100
AcDbEntity
  8
0
100
AcDbLine
 62
253
  6
CONTINUOUS
 10
10.798458671
 20
-6.8714287758
 11
10.7947188691
 21
-6.6571431637
  0
LINE
  5
3F5
100
AcDbEntity
  8
0
100
AcDbLine
 62
253
  6
CONTINUOUS
 10
10.7834994648
 20
-5.4785712242
 11
10.7872392664
 21
-5.6928568363
  0
LINE
  5
3F6
100
AcDbEntity
  8
INCISIONI
100
AcDbLine
 62
253
  6
CONTINUOUS
 10
10.9998864416
 20
-14.3714294434
 11
11.0022549826
 21
-14.5071436644
  0
LINE
  5
3F7
100
AcDbEntity
  8
0
100
AcDbLine
 62
253
  6
CONTINUOUS
 10
10.798458671
 20
-1.9428568363
 11
10.7947188691
 21
-1.7285712242
  0
LINE
  5
3F8
100
AcDbEntity
  8
0
100
AcDbLine
 62
253
  6
CONTINUOUS
 10
10.798458671
 20
0.3071428061
 11
10.7947188691
 21
0.5214284182
  0
LINE
  5
3F9
100
AcDbEntity
  8
INCISIONI
100
AcDbLine
 62
253
  6
CONTINUOUS
 10
11.0235718509
 20
-9.6214294434
 11
11.0330460138
 21
-10.1642866105
  0
LINE
  5
3FA
100
AcDbEntity
  8
INCISIONI
100
AcDbLine
 62
253
  6
CONTINUOUS
 10
11.0188347695
 20
-14.2357152224
 11
11.0212033092
 21
-14.4619057417
  0
LINE
  5
3FB
100
AcDbEntity
  8
RACCORDO
100
AcDbLine
 62
253
  6
CONTINUOUS
 10
10.3956323968
 20
23.6278312164
 11
10.4007229979
 21
23.1226497308
  0
LINE
  5
3FC
100
AcDbEntity
  8
RACCORDO
100
AcDbLine
 62
253
  6
CONTINUOUS
 10
10.645628166
 20
23.8443375673
 11
10.65
 21
23.4104851482
  0
LINE
  5
3FD
100
AcDbEntity
  8
0
100
AcDbLine
 62
7
  6
CONTINUOUS
 10
9.5
 20
17.1
 11
9.5
 21
12.9
  0
LINE
  5
3FE
100
AcDbEntity
  8
0
100
AcDbLine
 62
7
  6
CONTINUOUS
 10
9.5
 20
12.1
 11
9.5
 21
7.9
  0
LINE
  5
3FF
100
AcDbEntity
  8
DRAFT
100
AcDbLine
 62
7
  6
CONTINUOUS
 10
9.65
 20
20.15
 11
9.65
 21
20.0
  0
LINE
  5
400
100
AcDbEntity
  8
DRAFT
100
AcDbLine
 62
7
  6
CONTINUOUS
 10
9.65
 20
17.1
 11
9.65
 21
13.0
  0
LINE
  5
401
100
AcDbEntity
  8
DRAFT
100
AcDbLine
 62
7
  6
CONTINUOUS
 10
9.65
 20
12.0
 11
9.65
 21
7.9
  0
LINE
  5
402
100
AcDbEntity
  8
DRAFT
100
AcDbLine
 62
7
  6
CONTINUOUS
 10
9.65
 20
-20.0
 11
9.65
 21
-20.15
  0
LINE
  5
403
100
AcDbEntity
  8
ASSI
100
AcDbLine
 62
253
  6
CONTINUOUS
 10
9.7588542176
 20
-17.509618074
 11
9.7588542176
 21
7.9
  0
LINE
  5
404
100
AcDbEntity
  8
ASSI
100
AcDbLine
 62
253
  6
CONTINUOUS
 10
9.7588542176
 20
12.1
 11
9.7588542176
 21
12.9
  0
LINE
  5
405
100
AcDbEntity
  8
ASSI
100
AcDbLine
 62
253
  6
CONTINUOUS
 10
9.7588542176
 20
17.1
 11
9.7588542176
 21
17.509618074
  0
LINE
  5
406
100
AcDbEntity
  8
RACCORDO
100
AcDbLine
 62
253
  6
CONTINUOUS
 10
10.3956323968
 20
-23.7
 11
10.3956323968
 21
-24.495628166
  0
LINE
  5
407
100
AcDbEntity
  8
RACCORDO
100
AcDbLine
 62
253
  6
CONTINUOUS
 10
10.3956323968
 20
23.6278312164
 11
10.3956323968
 21
24.495628166
  0
LINE
  5
408
100
AcDbEntity
  8
RACCORDO
100
AcDbLine
 62
253
  6
CONTINUOUS
 10
10.645628166
 20
-24.2456323968
 11
10.645628166
 21
-23.8443375673
  0
LINE
  5
409
100
AcDbEntity
  8
RACCORDO
100
AcDbLine
 62
253
  6
CONTINUOUS
 10
10.645628166
 20
23.8443375673
 11
10.645628166
 21
24.2456323968
  0
LINE
  5
40A
100
AcDbEntity
  8
RACCORDO
100
AcDbLine
 62
7
  6
CONTINUOUS
 10
10.65
 20
-22.399689968
 11
10.65
 21
-24.2500042308
  0
LINE
  5
40B
100
AcDbEntity
  8
RACCORDO
100
AcDbLine
 62
7
  6
CONTINUOUS
 10
10.65
 20
22.399689968
 11
10.65
 21
24.2500042308
  0
LINE
  5
40C
100
AcDbEntity
  8
ASSI
100
AcDbLine
 62
253
  6
CONTINUOUS
 10
10.7587019127
 20
-17.5096157267
 11
10.7587019127
 21
7.9
  0
LINE
  5
40D
100
AcDbEntity
  8
ASSI
100
AcDbLine
 62
253
  6
CONTINUOUS
 10
10.7587019127
 20
12.1
 11
10.7587019127
 21
12.9
  0
LINE
  5
40E
100
AcDbEntity
  8
ASSI
100
AcDbLine
 62
253
  6
CONTINUOUS
 10
10.7587019127
 20
17.1
 11
10.7587019127
 21
17.5096157267
  0
LINE
  5
40F
100
AcDbEntity
  8
0
100
AcDbLine
 62
253
  6
CONTINUOUS
 10
10.7834994648
 20
3.4142857015
 11
10.7834994648
 21
2.771428597
  0
LINE
  5
410
100
AcDbEntity
  8
0
100
AcDbLine
 62
253
  6
CONTINUOUS
 10
10.7834994648
 20
-0.1214284182
 11
10.7834994648
 21
-0.7642856121
  0
LINE
  5
411
100
AcDbEntity
  8
0
100
AcDbLine
 62
253
  6
CONTINUOUS
 10
10.7834994648
 20
-5.1571431637
 11
10.7834994648
 21
-5.4785712242
  0
LINE
  5
412
100
AcDbEntity
  8
0
100
AcDbLine
 62
253
  6
CONTINUOUS
 10
10.7834994648
 20
-7.3
 11
10.7834994648
 21
-7.9428575516
  0
LINE
  5
413
100
AcDbEntity
  8
0
100
AcDbLine
 62
253
  6
CONTINUOUS
 10
10.7834994648
 20
-9.6571424484
 11
10.7834994648
 21
-10.0857136726
  0
LINE
  5
414
100
AcDbEntity
  8
0
100
AcDbLine
 62
253
  6
CONTINUOUS
 10
10.7834994648
 20
-10.7285712242
 11
10.7834994648
 21
-11.3714287758
  0
LINE
  5
415
100
AcDbEntity
  8
0
100
AcDbLine
 62
253
  6
CONTINUOUS
 10
10.7834994648
 20
-13.0857136726
 11
10.7834994648
 21
-13.5142863274
  0
LINE
  5
416
100
AcDbEntity
  8
0
100
AcDbLine
 62
253
  6
CONTINUOUS
 10
10.7834994648
 20
-14.6928575516
 11
10.7834994648
 21
-14.3714287758
  0
LINE
  5
417
100
AcDbEntity
  8
0
100
AcDbLine
 62
253
  6
CONTINUOUS
 10
10.7909790679
 20
-2.5142853737
 11
10.7909790679
 21
-3.0857146263
  0
LINE
  5
418
100
AcDbEntity
  8
0
100
AcDbLine
 62
253
  6
CONTINUOUS
 10
10.7947188691
 20
-15.8714287758
 11
10.7947188691
 21
-15.3357136726
  0
LINE
  5
419
100
AcDbEntity
  8
0
100
AcDbLine
 62
253
  6
CONTINUOUS
 10
10.7947188691
 20
-6.6571431637
 11
10.7947188691
 21
-6.1214287758
  0
LINE
  5
41A
100
AcDbEntity
  8
0
100
AcDbLine
 62
253
  6
CONTINUOUS
 10
10.7947188691
 20
-1.7285712242
 11
10.7947188691
 21
-1.1928571939
  0
LINE
  5
41B
100
AcDbEntity
  8
0
100
AcDbLine
 62
253
  6
CONTINUOUS
 10
10.7947188691
 20
0.5214284182
 11
10.7947188691
 21
1.0571428061
  0
LINE
  5
41C
100
AcDbEntity
  8
0
100
AcDbLine
 62
253
  6
CONTINUOUS
 10
10.798458671
 20
-11.1571424484
 11
10.798458671
 21
-10.7285712242
  0
LINE
  5
41D
100
AcDbEntity
  8
0
100
AcDbLine
 62
253
  6
CONTINUOUS
 10
10.798458671
 20
-7.7285712242
 11
10.798458671
 21
-7.3
  0
LINE
  5
41E
100
AcDbEntity
  8
0
100
AcDbLine
 62
253
  6
CONTINUOUS
 10
10.798458671
 20
-0.55
 11
10.798458671
 21
-0.1214284182
  0
LINE
  5
41F
100
AcDbEntity
  8
0
100
AcDbLine
 62
253
  6
CONTINUOUS
 10
10.798458671
 20
2.9857142091
 11
10.798458671
 21
3.4142857015
  0
LINE
  5
420
100
AcDbEntity
  8
0
100
AcDbLine
 62
253
  6
CONTINUOUS
 10
10.8096780745
 20
4.7
 11
10.8096780745
 21
3.8428571045
  0
LINE
  5
421
100
AcDbEntity
  8
0
100
AcDbLine
 62
253
  6
CONTINUOUS
 10
10.8096780745
 20
3.4142857015
 11
10.8096780745
 21
2.771428597
  0
LINE
  5
422
100
AcDbEntity
  8
0
100
AcDbLine
 62
253
  6
CONTINUOUS
 10
10.8096780745
 20
1.0571428061
 11
10.8096780745
 21
0.5214284182
  0
LINE
  5
423
100
AcDbEntity
  8
0
100
AcDbLine
 62
253
  6
CONTINUOUS
 10
10.8096780745
 20
-0.1214284182
 11
10.8096780745
 21
-0.7642856121
  0
LINE
  5
424
100
AcDbEntity
  8
0
100
AcDbLine
 62
253
  6
CONTINUOUS
 10
10.8096780745
 20
-1.1928571939
 11
10.8096780745
 21
-1.7285712242
  0
LINE
  5
425
100
AcDbEntity
  8
0
100
AcDbLine
 62
253
  6
CONTINUOUS
 10
10.8096780745
 20
-3.6571431637
 11
10.8096780745
 21
-4.5142856121
  0
LINE
  5
426
100
AcDbEntity
  8
0
100
AcDbLine
 62
253
  6
CONTINUOUS
 10
10.8096780745
 20
-6.1214287758
 11
10.8096780745
 21
-6.6571431637
  0
LINE
  5
427
100
AcDbEntity
  8
0
100
AcDbLine
 62
253
  6
CONTINUOUS
 10
10.8096780745
 20
-7.3
 11
10.8096780745
 21
-7.9428575516
  0
LINE
  5
428
100
AcDbEntity
  8
0
100
AcDbLine
 62
253
  6
CONTINUOUS
 10
10.8096780745
 20
-9.7642863274
 11
10.8096780745
 21
-10.1928575516
  0
LINE
  5
429
100
AcDbEntity
  8
0
100
AcDbLine
 62
253
  6
CONTINUOUS
 10
10.8096780745
 20
-10.7285712242
 11
10.8096780745
 21
-11.3714287758
  0
LINE
  5
42A
100
AcDbEntity
  8
0
100
AcDbLine
 62
253
  6
CONTINUOUS
 10
10.8096780745
 20
-13.1928575516
 11
10.8096780745
 21
-13.6214287758
  0
LINE
  5
42B
100
AcDbEntity
  8
0
100
AcDbLine
 62
253
  6
CONTINUOUS
 10
10.8096780745
 20
-14.3714287758
 11
10.8096780745
 21
-14.6928575516
  0
LINE
  5
42C
100
AcDbEntity
  8
0
100
AcDbLine
 62
253
  6
CONTINUOUS
 10
10.8096780745
 20
-15.3357136726
 11
10.8096780745
 21
-15.8714287758
  0
LINE
  5
42D
100
AcDbEntity
  8
0
100
AcDbLine
 62
253
  6
CONTINUOUS
 10
10.9086804982
 20
-15.6
 11
10.9086804982
 21
-14.1395
  0
LINE
  5
42E
100
AcDbEntity
  8
0
100
AcDbLine
 62
253
  6
CONTINUOUS
 10
10.9217678094
 20
-14.1395
 11
10.9217678094
 21
-15.6
  0
LINE
  5
42F
100
AcDbEntity
  8
0
100
AcDbLine
 62
253
  6
CONTINUOUS
 10
10.9998864416
 20
12.0714285374
 11
10.9998864416
 21
11.4285713434
  0
LINE
  5
430
100
AcDbEntity
  8
0
100
AcDbLine
 62
253
  6
CONTINUOUS
 10
10.9998864416
 20
2.9642853737
 11
10.9998864416
 21
2.428571701
  0
LINE
  5
431
100
AcDbEntity
  8
INCISIONI
100
AcDbLine
 62
253
  6
CONTINUOUS
 10
10.9998864416
 20
-13.6928578854
 11
10.9998864416
 21
-14.3714294434
  0
LINE
  5
432
100
AcDbEntity
  8
INCISIONI
100
AcDbLine
 62
253
  6
CONTINUOUS
 10
10.9998864416
 20
-16.0000010014
 11
10.9998864416
 21
-15.0500010014
  0
LINE
  5
433
100
AcDbEntity
  8
0
100
AcDbLine
 62
253
  6
CONTINUOUS
 10
10.9998864416
 20
12.8928571939
 11
10.9998864416
 21
13.428571403
  0
LINE
  5
434
100
AcDbEntity
  8
INCISIONI
100
AcDbLine
 62
253
  6
CONTINUOUS
 10
11.0069920643
 20
-13.1500007749
 11
11.0069920643
 21
-12.2000007749
  0
LINE
  5
435
100
AcDbEntity
  8
INCISIONI
100
AcDbLine
 62
253
  6
CONTINUOUS
 10
11.0069920643
 20
-11.6571436644
 11
11.0069920643
 21
-10.7071437776
  0
LINE
  5
436
100
AcDbEntity
  8
0
100
AcDbLine
 62
253
  6
CONTINUOUS
 10
11.0073660447
 20
14.5714285672
 11
11.0073660447
 21
13.9999999404
  0
LINE
  5
437
100
AcDbEntity
  8
0
100
AcDbLine
 62
253
  6
CONTINUOUS
 10
11.0073660447
 20
4.1071431637
 11
11.0073660447
 21
3.5357146263
  0
LINE
  5
438
100
AcDbEntity
  8
0
100
AcDbLine
 62
253
  6
CONTINUOUS
 10
11.0148456478
 20
11.6428573132
 11
11.0148456478
 21
12.0714285374
  0
LINE
  5
439
100
AcDbEntity
  8
INCISIONI
100
AcDbLine
 62
253
  6
CONTINUOUS
 10
11.0188347695
 20
-14.2357152224
 11
11.0188347695
 21
-13.9642867804
  0
LINE
  5
43A
100
AcDbEntity
  8
0
100
AcDbLine
 62
253
  6
CONTINUOUS
 10
11.0260650513
 20
13.428571403
 11
11.0260650513
 21
12.8928571939
  0
LINE
  5
43B
100
AcDbEntity
  8
0
100
AcDbLine
 62
253
  6
CONTINUOUS
 10
11.0260650513
 20
12.0714285374
 11
11.0260650513
 21
11.4285713434
  0
LINE
  5
43C
100
AcDbEntity
  8
0
100
AcDbLine
 62
253
  6
CONTINUOUS
 10
11.0260650513
 20
5.5357141495
 11
11.0260650513
 21
4.678571701
  0
LINE
  5
43D
100
AcDbEntity
  8
INCISIONI
100
AcDbLine
 62
253
  6
CONTINUOUS
 10
11.0330460138
 20
-15.7285721064
 11
11.0330460138
 21
-15.3214294434
  0
LINE
  5
43E
100
AcDbEntity
  8
INCISIONI
100
AcDbLine
 62
253
  6
CONTINUOUS
 10
11.0330460138
 20
-14.2357152224
 11
11.0330460138
 21
-13.6928578854
  0
LINE
  5
43F
100
AcDbEntity
  8
IMPORT_IGES
100
AcDbLine
 62
253
  6
CONTINUOUS
 10
11.0539971429
 20
13.390935
 11
11.0539971429
 21
12.785664
  0
LINE
  5
440
100
AcDbEntity
  8
IMPORT_IGES
100
AcDbLine
 62
253
  6
CONTINUOUS
 10
11.0539971429
 20
6.8615673444
 11
11.0539971429
 21
6.2587313832
  0
LINE
  5
441
100
AcDbEntity
  8
IMPORT_IGES
100
AcDbLine
 62
253
  6
CONTINUOUS
 10
11.0539971429
 20
5.3318417383
 11
11.0539971429
 21
4.7496410148
  0
LINE
  5
442
100
AcDbEntity
  8
0
100
AcDbLine
 62
253
  6
CONTINUOUS
 10
11.0539971429
 20
-2.70079
 11
11.0539971429
 21
-3.323396
  0
LINE
  5
443
100
AcDbEntity
  8
0
100
AcDbLine
 62
253
  6
CONTINUOUS
 10
11.0539971429
 20
-7.179514
 11
11.0539971429
 21
-7.773964
  0
LINE
  5
444
100
AcDbEntity
  8
0
100
AcDbLine
 62
253
  6
CONTINUOUS
 10
11.0539971429
 20
-9.348431
 11
11.0539971429
 21
-9.975074
  0
LINE
  5
445
100
AcDbEntity
  8
0
100
AcDbLine
 62
253
  6
CONTINUOUS
 10
11.0539971429
 20
-13.20444
 11
11.0539971429
 21
-13.798889
  0
LINE
  5
446
100
AcDbEntity
  8
0
100
AcDbLine
 62
253
  6
CONTINUOUS
 10
11.0539971429
 20
-15.373574
 11
11.0539971429
 21
-16.0
  0
LINE
  5
447
100
AcDbEntity
  8
0
100
AcDbLine
 62
253
  6
CONTINUOUS
 10
11.0539971429
 20
-12.911198
 11
11.0539971429
 21
-12.027546
  0
LINE
  5
448
100
AcDbEntity
  8
0
100
AcDbLine
 62
253
  6
CONTINUOUS
 10
11.0539971429
 20
-10.87477
 11
11.0539971429
 21
-10.292325
  0
LINE
  5
449
100
AcDbEntity
  8
0
100
AcDbLine
 62
253
  6
CONTINUOUS
 10
11.0539971429
 20
-6.866738
 11
11.0539971429
 21
-5.171133
  0
LINE
  5
44A
100
AcDbEntity
  8
IMPORT_IGES
100
AcDbLine
 62
253
  6
CONTINUOUS
 10
11.0539971429
 20
7.039304
 11
11.0539971429
 21
7.677235
  0
LINE
  5
44B
100
AcDbEntity
  8
IMPORT_IGES
100
AcDbLine
 62
253
  6
CONTINUOUS
 10
11.0539971429
 20
8.825329
 11
11.0539971429
 21
9.424033
  0
LINE
  5
44C
100
AcDbEntity
  8
IMPORT_IGES
100
AcDbLine
 62
253
  6
CONTINUOUS
 10
11.0539971429
 20
9.519077
 11
11.0539971429
 21
10.111193
  0
LINE
  5
44D
100
AcDbEntity
  8
IMPORT_IGES
100
AcDbLine
 62
253
  6
CONTINUOUS
 10
11.0539971429
 20
10.955216
 11
11.0539971429
 21
11.040105
  0
LINE
  5
44E
100
AcDbEntity
  8
IMPORT_IGES
100
AcDbLine
 62
253
  6
CONTINUOUS
 10
11.0539971429
 20
11.880779
 11
11.0539971429
 21
12.459827
  0
LINE
  5
44F
100
AcDbEntity
  8
IMPORT_IGES
100
AcDbLine
 62
253
  6
CONTINUOUS
 10
11.0539971429
 20
14.547617
 11
11.0539971429
 21
15.081013
  0
LINE
  5
450
100
AcDbEntity
  8
INCISIONI
100
AcDbLine
 62
253
  6
CONTINUOUS
 10
11.0541368107
 20
13.390935
 11
11.0541368107
 21
12.785664
  0
LINE
  5
451
100
AcDbEntity
  8
INCISIONI
100
AcDbLine
 62
253
  6
CONTINUOUS
 10
11.0541368045
 20
6.8615673444
 11
11.0541368045
 21
6.2587313832
  0
LINE
  5
452
100
AcDbEntity
  8
INCISIONI
100
AcDbLine
 62
253
  6
CONTINUOUS
 10
11.0541368045
 20
5.3318417383
 11
11.0541368045
 21
4.7496410148
  0
LINE
  5
453
100
AcDbEntity
  8
INCISIONI
100
AcDbLine
 62
253
  6
CONTINUOUS
 10
11.0541368107
 20
7.039304
 11
11.0541368107
 21
7.677235
  0
LINE
  5
454
100
AcDbEntity
  8
INCISIONI
100
AcDbLine
 62
253
  6
CONTINUOUS
 10
11.0541368107
 20
8.825329
 11
11.0541368107
 21
9.424033
  0
LINE
  5
455
100
AcDbEntity
  8
INCISIONI
100
AcDbLine
 62
253
  6
CONTINUOUS
 10
11.0541368107
 20
9.519077
 11
11.0541368107
 21
10.111193
  0
LINE
  5
456
100
AcDbEntity
  8
INCISIONI
100
AcDbLine
 62
253
  6
CONTINUOUS
 10
11.0541368107
 20
10.955216
 11
11.0541368107
 21
11.040105
  0
LINE
  5
457
100
AcDbEntity
  8
INCISIONI
100
AcDbLine
 62
253
  6
CONTINUOUS
 10
11.0541368107
 20
11.880779
 11
11.0541368107
 21
12.459827
  0
LINE
  5
458
100
AcDbEntity
  8
INCISIONI
100
AcDbLine
 62
253
  6
CONTINUOUS
 10
11.0541368107
 20
14.547617
 11
11.0541368107
 21
15.081013
  0
LINE
  5
459
100
AcDbEntity
  8
0
100
AcDbLine
 62
253
  6
CONTINUOUS
 10
11.0624067525
 20
-5.793739
 11
11.0624067525
 21
-6.866738
  0
LINE
  5
45A
100
AcDbEntity
  8
INCISIONI
100
AcDbLine
 62
253
  6
CONTINUOUS
 10
11.0642380163
 20
7.834033
 11
11.0642380163
 21
8.658312
  0
LINE
  5
45B
100
AcDbEntity
  8
0
100
AcDbLine
 62
253
  6
CONTINUOUS
 10
11.0647224388
 20
-7.990812
 11
11.0647224388
 21
-9.139549
  0
LINE
  5
45C
100
AcDbEntity
  8
0
100
AcDbLine
 62
253
  6
CONTINUOUS
 10
11.0647224388
 20
-14.015846
 11
11.0647224388
 21
-15.164584
  0
LINE
  5
45D
100
AcDbEntity
  8
INCISIONI
100
AcDbLine
 62
253
  6
CONTINUOUS
 10
11.0720542821
 20
8.5345
 11
11.0720542821
 21
7.954996
  0
LINE
  5
45E
100
AcDbEntity
  8
0
100
AcDbLine
 62
253
  6
CONTINUOUS
 10
11.0731320483
 20
-15.007869
 11
11.0731320483
 21
-14.176491
  0
LINE
  5
45F
100
AcDbEntity
  8
0
100
AcDbLine
 62
253
  6
CONTINUOUS
 10
11.0731320483
 20
-8.982943
 11
11.0731320483
 21
-8.151456
  0
LINE
  5
460
100
AcDbEntity
  8
0
100
AcDbLine
 62
253
  6
CONTINUOUS
 10
11.0734843588
 20
-3.58822
 11
11.0734843588
 21
-3.323396
  0
LINE
  5
461
100
AcDbEntity
  8
INCISIONI
100
AcDbLine
 62
253
  6
CONTINUOUS
 10
11.0739381528
 20
6.2587313832
 11
11.0739381528
 21
5.9341993273
  0
LINE
  5
462
100
AcDbEntity
  8
0
100
AcDbLine
 62
253
  6
CONTINUOUS
 10
11.0818939683
 20
-3.323396
 11
11.0818939683
 21
-3.686612
  0
LINE
  5
463
100
AcDbEntity
  8
INCISIONI
100
AcDbLine
 62
253
  6
CONTINUOUS
 10
11.0822249185
 20
5.9328946758
 11
11.0822249185
 21
6.2788012718
  0
LINE
  5
464
100
AcDbEntity
  8
0
100
AcDbLine
 62
253
  6
CONTINUOUS
 10
11.096191821
 20
-3.323396
 11
11.096191821
 21
-3.686612
  0
LINE
  5
465
100
AcDbEntity
  8
0
100
AcDbLine
 62
253
  6
CONTINUOUS
 10
11.1046014306
 20
-5.171133
 11
11.1046014306
 21
-5.793739
  0
LINE
  5
466
100
AcDbEntity
  8
0
100
AcDbLine
 62
253
  6
CONTINUOUS
 10
11.1046014306
 20
-10.292325
 11
11.1046014306
 21
-11.216139
  0
LINE
  5
467
100
AcDbEntity
  8
0
100
AcDbLine
 62
253
  6
CONTINUOUS
 10
11.1046014306
 20
-12.328754
 11
11.1046014306
 21
-12.911198
  0
LINE
  5
468
100
AcDbEntity
  8
0
100
AcDbLine
 62
253
  6
CONTINUOUS
 10
11.1046014306
 20
-14.991935
 11
11.1046014306
 21
-14.252884
  0
LINE
  5
469
100
AcDbEntity
  8
0
100
AcDbLine
 62
253
  6
CONTINUOUS
 10
11.1046014306
 20
-8.9669
 11
11.1046014306
 21
-8.227849
  0
LINE
  5
46A
100
AcDbEntity
  8
0
100
AcDbLine
 62
253
  6
CONTINUOUS
 10
11.1046014306
 20
-3.58822
 11
11.1046014306
 21
-2.70079
  0
LINE
  5
46B
100
AcDbEntity
  8
INCISIONI
100
AcDbLine
 62
253
  6
CONTINUOUS
 10
11.1047350258
 20
16.00026
 11
11.1047350258
 21
15.342748
  0
LINE
  5
46C
100
AcDbEntity
  8
INCISIONI
100
AcDbLine
 62
253
  6
CONTINUOUS
 10
11.1047350258
 20
14.22041
 11
11.1047350258
 21
13.615552
  0
LINE
  5
46D
100
AcDbEntity
  8
INCISIONI
100
AcDbLine
 62
253
  6
CONTINUOUS
 10
11.1047350258
 20
12.198005
 11
11.1047350258
 21
11.593234
  0
LINE
  5
46E
100
AcDbEntity
  8
INCISIONI
100
AcDbLine
 62
253
  6
CONTINUOUS
 10
11.1047350258
 20
10.389084
 11
11.1047350258
 21
9.790227
  0
LINE
  5
46F
100
AcDbEntity
  8
INCISIONI
100
AcDbLine
 62
253
  6
CONTINUOUS
 10
11.1047350258
 20
8.514517
 11
11.1047350258
 21
7.92899
  0
LINE
  5
470
100
AcDbEntity
  8
INCISIONI
100
AcDbLine
 62
253
  6
CONTINUOUS
 10
11.1047380621
 20
12.785664
 11
11.1047380621
 21
13.390935
  0
LINE
  5
471
100
AcDbEntity
  8
RACCORDO
100
AcDbLine
 62
7
  6
CONTINUOUS
 10
11.15
 20
21.8911779406
 11
11.15
 21
-21.8911779406
  0
LINE
  5
472
100
AcDbEntity
  8
ASSI
100
AcDbLine
 62
7
  6
CONTINUOUS
 10
11.15
 20
-17.6716990487
 11
11.15
 21
17.6716990487
  0
LINE
  5
473
100
AcDbEntity
  8
RACCORDO
100
AcDbLine
 62
253
  6
CONTINUOUS
 10
10.4007229979
 20
-23.1226497308
 11
10.3949051681
 21
-23.7
  0
LINE
  5
474
100
AcDbEntity
  8
RACCORDO
100
AcDbLine
 62
253
  6
CONTINUOUS
 10
10.65
 20
-23.4104851482
 11
10.645628166
 21
-23.8443375673
  0
LINE
  5
475
100
AcDbEntity
  8
0
100
AcDbLine
 62
253
  6
CONTINUOUS
 10
10.7909790679
 20
-10.3
 11
10.8021984722
 21
-9.55
  0
LINE
  5
476
100
AcDbEntity
  8
0
100
AcDbLine
 62
253
  6
CONTINUOUS
 10
10.7909790679
 20
-13.7285712242
 11
10.8021984722
 21
-12.9785712242
  0
LINE
  5
477
100
AcDbEntity
  8
0
100
AcDbLine
 62
253
  6
CONTINUOUS
 10
10.8096780745
 20
0.5214284182
 11
10.8059382733
 21
0.3071428061
  0
LINE
  5
478
100
AcDbEntity
  8
0
100
AcDbLine
 62
253
  6
CONTINUOUS
 10
11.0260650513
 20
12.8928571939
 11
11.0223252501
 21
12.6785715818
  0
LINE
  5
479
100
AcDbEntity
  8
0
100
AcDbLine
 62
253
  6
CONTINUOUS
 10
10.8096780745
 20
-1.7285712242
 11
10.8059382733
 21
-1.9428568363
  0
LINE
  5
47A
100
AcDbEntity
  8
0
100
AcDbLine
 62
253
  6
CONTINUOUS
 10
10.7872392664
 20
-4.9428568363
 11
10.7834994648
 21
-5.1571431637
  0
LINE
  5
47B
100
AcDbEntity
  8
0
100
AcDbLine
 62
253
  6
CONTINUOUS
 10
10.8096780745
 20
-6.6571431637
 11
10.8059382733
 21
-6.8714287758
  0
LINE
  5
47C
100
AcDbEntity
  8
0
100
AcDbLine
 62
253
  6
CONTINUOUS
 10
10.7853693656
 20
-9.55
 11
10.7834994648
 21
-9.6571424484
  0
LINE
  5
47D
100
AcDbEntity
  8
0
100
AcDbLine
 62
253
  6
CONTINUOUS
 10
10.8096780745
 20
-10.1928575516
 11
10.8078081731
 21
-10.3
  0
LINE
  5
47E
100
AcDbEntity
  8
0
100
AcDbLine
 62
253
  6
CONTINUOUS
 10
10.7853693656
 20
-12.9785712242
 11
10.7834994648
 21
-13.0857136726
  0
LINE
  5
47F
100
AcDbEntity
  8
0
100
AcDbLine
 62
253
  6
CONTINUOUS
 10
10.7834994648
 20
-14.3714287758
 11
10.7872392664
 21
-14.1571424484
  0
LINE
  5
480
100
AcDbEntity
  8
0
100
AcDbLine
 62
253
  6
CONTINUOUS
 10
10.8096780745
 20
-13.6214287758
 11
10.8078081731
 21
-13.7285712242
  0
LINE
  5
481
100
AcDbEntity
  8
0
100
AcDbLine
 62
253
  6
CONTINUOUS
 10
10.8096780745
 20
-14.6928575516
 11
10.8059382733
 21
-14.9071424484
  0
LINE
  5
482
100
AcDbEntity
  8
0
100
AcDbLine
 62
253
  6
CONTINUOUS
 10
10.8096780745
 20
-15.8714287758
 11
10.8059382733
 21
-16.0857136726
  0
LINE
  5
483
100
AcDbEntity
  8
0
100
AcDbLine
 62
253
  6
CONTINUOUS
 10
10.7947188691
 20
-1.5142856121
 11
10.7834994648
 21
-1.9428568363
  0
LINE
  5
484
100
AcDbEntity
  8
0
100
AcDbLine
 62
253
  6
CONTINUOUS
 10
10.7947188691
 20
-6.4428568363
 11
10.7834994648
 21
-6.8714287758
  0
LINE
  5
485
100
AcDbEntity
  8
0
100
AcDbLine
 62
253
  6
CONTINUOUS
 10
11.0260650513
 20
2.0000004768
 11
11.0148456478
 21
1.5714292526
  0
LINE
  5
486
100
AcDbEntity
  8
0
100
AcDbLine
 62
253
  6
CONTINUOUS
 10
11.0260650513
 20
16.0
 11
11.0111058459
 21
15.5714285523
  0
LINE
  5
487
100
AcDbEntity
  8
0
100
AcDbLine
 62
253
  6
CONTINUOUS
 10
11.0260650513
 20
8.8571429253
 11
10.9998864416
 21
8.1071429253
  0
LINE
  5
488
100
AcDbEntity
  8
0
100
AcDbLine
 62
253
  6
CONTINUOUS
 10
10.8096780745
 20
2.3428571939
 11
10.7947188691
 21
1.9142857909
  0
LINE
  5
489
100
AcDbEntity
  8
INCISIONI
100
AcDbLine
 62
253
  6
CONTINUOUS
 10
11.0541368107
 20
11.040105
 11
11.0871764958
 21
11.750162
  0
LINE
  5
48A
100
AcDbEntity
  8
INCISIONI
100
AcDbLine
 62
253
  6
CONTINUOUS
 10
11.1047350258
 20
11.593234
 11
11.0766427458
 21
10.994355
  0
LINE
  5
48B
100
AcDbEntity
  8
INCISIONI
100
AcDbLine
 62
253
  6
CONTINUOUS
 10
11.0541368107
 20
15.081013
 11
11.1047350258
 21
16.00026
  0
LINE
  5
48C
100
AcDbEntity
  8
INCISIONI
100
AcDbLine
 62
253
  6
CONTINUOUS
 10
11.1047350258
 20
7.92899
 11
11.0541368107
 21
7.039304
  0
LINE
  5
48D
100
AcDbEntity
  8
0
100
AcDbLine
 62
253
  6
CONTINUOUS
 10
11.0260650513
 20
14.2857142091
 11
10.9998864416
 21
13.8571428061
  0
LINE
  5
48E
100
AcDbEntity
  8
0
100
AcDbLine
 62
253
  6
CONTINUOUS
 10
11.0260650513
 20
3.8214292526
 11
10.9998864416
 21
3.3928565979
  0
LINE
  5
48F
100
AcDbEntity
  8
0
100
AcDbLine
 62
253
  6
CONTINUOUS
 10
10.8096780745
 20
-2.8
 11
10.7834994648
 21
-3.2285712242
  0
LINE
  5
490
100
AcDbEntity
  8
INCISIONI
100
AcDbLine
 62
253
  6
CONTINUOUS
 10
11.1047350258
 20
15.342748
 11
11.0699067067
 21
14.790021
  0
LINE
  5
491
100
AcDbEntity
  8
INCISIONI
100
AcDbLine
 62
253
  6
CONTINUOUS
 10
11.0541368107
 20
7.677235
 11
11.0642380163
 21
7.834033
  0
LINE
  5
492
100
AcDbEntity
  8
INCISIONI
100
AcDbLine
 62
253
  6
CONTINUOUS
 10
11.0720542821
 20
7.954996
 11
11.0908319214
 21
8.233126
  0
LINE
  5
493
100
AcDbEntity
  8
DRAFT
100
AcDbLine
 62
7
  6
CONTINUOUS
 10
7.3
 20
-20.9
 11
7.3501246809
 21
-20.4484702548
  0
LINE
  5
494
100
AcDbEntity
  8
RACCORDO
100
AcDbLine
 62
253
  6
CONTINUOUS
 10
-10.645628166
 20
-24.2456323968
 11
-10.65
 21
-24.2500042308
  0
LINE
  5
495
100
AcDbEntity
  8
0
100
AcDbLine
 62
7
  6
CONTINUOUS
 10
11.0539971429
 20
-2.9425564367
 11
11.10460143
 21
-2.8919521496
  0
LINE
  5
496
100
AcDbEntity
  8
RACCORDO
100
AcDbLine
 62
253
  6
CONTINUOUS
 10
-10.3956323968
 20
-24.495628166
 11
-10.4000042308
 21
-24.5
  0
LINE
  5
497
100
AcDbEntity
  8
0
100
AcDbLine
 62
7
  6
CONTINUOUS
 10
11.0734843588
 20
-3.3430906489
 11
11.0818939683
 21
-3.3346810393
  0
LINE
  5
498
100
AcDbEntity
  8
0
100
AcDbLine
 62
7
  6
CONTINUOUS
 10
11.0931790077
 20
-3.323396
 11
11.1046014289
 21
-3.3119735788
  0
LINE
  5
499
100
AcDbEntity
  8
0
100
AcDbLine
 62
7
  6
CONTINUOUS
 10
11.0735989594
 20
-3.7629974763
 11
11.0820244419
 21
-3.7545719938
  0
LINE
  5
49A
100
AcDbEntity
  8
0
100
AcDbLine
 62
7
  6
CONTINUOUS
 10
11.0960872326
 20
-3.740509203
 11
11.1045104595
 21
-3.7320859762
  0
LINE
  5
49B
100
AcDbEntity
  8
0
100
AcDbLine
 62
7
  6
CONTINUOUS
 10
11.0746773285
 20
-4.1819405352
 11
11.1035471437
 21
-4.15307072
  0
LINE
  5
49C
100
AcDbEntity
  8
0
100
AcDbLine
 62
7
  6
CONTINUOUS
 10
11.0789381981
 20
-4.5977010937
 11
11.0995524983
 21
-4.5770867934
  0
LINE
  5
49D
100
AcDbEntity
  8
0
100
AcDbLine
 62
253
  6
CONTINUOUS
 10
10.9998864416
 20
9.5357146263
 11
11.0260650513
 21
9.5357146263
  0
LINE
  5
49E
100
AcDbEntity
  8
SMUSSO
100
AcDbLine
 62
7
  6
CONTINUOUS
 10
0.0
 20
13.35
 11
0.5773502692
 21
12.7726497308
  0
LINE
  5
49F
100
AcDbEntity
  8
ASSI
100
AcDbLine
 62
7
  6
CONTINUOUS
 10
0.0
 20
13.35
 11
0.5773502692
 21
12.7726497308
  0
LINE
  5
4A0
100
AcDbEntity
  8
RACCORDO
100
AcDbLine
 62
253
  6
CONTINUOUS
 10
-10.645628166
 20
24.2456323968
 11
-10.65
 21
24.2500042308
  0
LINE
  5
4A1
100
AcDbEntity
  8
RACCORDO
100
AcDbLine
 62
253
  6
CONTINUOUS
 10
-10.3956323968
 20
24.495628166
 11
-10.4000042308
 21
24.5
  0
LINE
  5
4A2
100
AcDbEntity
  8
DRAFT
100
AcDbLine
 62
7
  6
CONTINUOUS
 10
7.3501246809
 20
20.4484702548
 11
7.3
 21
20.9
  0
LINE
  5
4A3
100
AcDbEntity
  8
INCISIONI
100
AcDbLine
 62
253
  6
CONTINUOUS
 10
11.0908319214
 20
8.233126
 11
11.0720542821
 21
8.5345
  0
LINE
  5
4A4
100
AcDbEntity
  8
INCISIONI
100
AcDbLine
 62
253
  6
CONTINUOUS
 10
11.0699067067
 20
14.790021
 11
11.1047350258
 21
14.22041
  0
LINE
  5
4A5
100
AcDbEntity
  8
0
100
AcDbLine
 62
253
  6
CONTINUOUS
 10
10.9998864416
 20
4.2499997616
 11
11.0260650513
 21
3.8214292526
  0
LINE
  5
4A6
100
AcDbEntity
  8
0
100
AcDbLine
 62
253
  6
CONTINUOUS
 10
10.9998864416
 20
14.7142857015
 11
11.0260650513
 21
14.2857142091
  0
LINE
  5
4A7
100
AcDbEntity
  8
INCISIONI
100
AcDbLine
 62
253
  6
CONTINUOUS
 10
11.0642380163
 20
8.658312
 11
11.0541368107
 21
8.825329
  0
LINE
  5
4A8
100
AcDbEntity
  8
INCISIONI
100
AcDbLine
 62
253
  6
CONTINUOUS
 10
11.0541368107
 20
9.424033
 11
11.1047350258
 21
8.514517
  0
LINE
  5
4A9
100
AcDbEntity
  8
INCISIONI
100
AcDbLine
 62
253
  6
CONTINUOUS
 10
11.1047350258
 20
13.615552
 11
11.0541368107
 21
14.547617
  0
LINE
  5
4AA
100
AcDbEntity
  8
INCISIONI
100
AcDbLine
 62
253
  6
CONTINUOUS
 10
11.0766427458
 20
10.994355
 11
11.1047350258
 21
10.389084
  0
LINE
  5
4AB
100
AcDbEntity
  8
INCISIONI
100
AcDbLine
 62
253
  6
CONTINUOUS
 10
11.0870387649
 20
10.235548
 11
11.0541368107
 21
10.955216
  0
LINE
  5
4AC
100
AcDbEntity
  8
0
100
AcDbLine
 62
253
  6
CONTINUOUS
 10
11.0111058459
 20
15.5714285523
 11
11.0260650513
 21
15.1428571045
  0
LINE
  5
4AD
100
AcDbEntity
  8
0
100
AcDbLine
 62
253
  6
CONTINUOUS
 10
11.0036262432
 20
12.6785715818
 11
10.9998864416
 21
12.8928571939
  0
LINE
  5
4AE
100
AcDbEntity
  8
INCISIONI
100
AcDbLine
 62
253
  6
CONTINUOUS
 10
11.014097687
 20
-14.5071436644
 11
11.0188347695
 21
-14.2357152224
  0
LINE
  5
4AF
100
AcDbEntity
  8
INCISIONI
100
AcDbLine
 62
253
  6
CONTINUOUS
 10
11.0283089324
 20
-16.0000010014
 11
11.0330460138
 21
-15.7285721064
  0
LINE
  5
4B0
100
AcDbEntity
  8
INCISIONI
100
AcDbLine
 62
253
  6
CONTINUOUS
 10
11.0283089324
 20
-14.4619057417
 11
11.0330460138
 21
-14.2357152224
  0
LINE
  5
4B1
100
AcDbEntity
  8
0
100
AcDbLine
 62
253
  6
CONTINUOUS
 10
10.7947188691
 20
-15.6571424484
 11
10.7834994648
 21
-16.0857136726
  0
LINE
  5
4B2
100
AcDbEntity
  8
0
100
AcDbLine
 62
253
  6
CONTINUOUS
 10
10.8096780745
 20
-11.8
 11
10.7834994648
 21
-12.55
  0
LINE
  5
4B3
100
AcDbEntity
  8
0
100
AcDbLine
 62
253
  6
CONTINUOUS
 10
11.1046014306
 20
-11.216139
 11
11.0644999196
 21
-12.328754
  0
LINE
  5
4B4
100
AcDbEntity
  8
0
100
AcDbLine
 62
253
  6
CONTINUOUS
 10
11.0539971429
 20
-12.027546
 11
11.0963494969
 21
-10.87477
  0
LINE
  5
4B5
100
AcDbEntity
  8
0
100
AcDbLine
 62
253
  6
CONTINUOUS
 10
11.0539971429
 20
-9.975074
 11
11.1046014306
 21
-8.9669
  0
LINE
  5
4B6
100
AcDbEntity
  8
0
100
AcDbLine
 62
253
  6
CONTINUOUS
 10
11.0539971429
 20
-16.0
 11
11.1046014306
 21
-14.991935
  0
LINE
  5
4B7
100
AcDbEntity
  8
0
100
AcDbLine
 62
253
  6
CONTINUOUS
 10
11.0647224388
 20
-9.139549
 11
11.0539971429
 21
-9.348431
  0
LINE
  5
4B8
100
AcDbEntity
  8
0
100
AcDbLine
 62
253
  6
CONTINUOUS
 10
11.0647224388
 20
-15.164584
 11
11.0539971429
 21
-15.373574
  0
LINE
  5
4B9
100
AcDbEntity
  8
0
100
AcDbLine
 62
253
  6
CONTINUOUS
 10
11.094931478
 20
-8.581471
 11
11.0731320483
 21
-8.982943
  0
LINE
  5
4BA
100
AcDbEntity
  8
0
100
AcDbLine
 62
253
  6
CONTINUOUS
 10
11.0949286163
 20
-14.606449
 11
11.0731320483
 21
-15.007869
  0
LINE
  5
4BB
100
AcDbEntity
  8
DRAFT
100
AcDbLine
 62
7
  6
CONTINUOUS
 10
-3.5
 20
-19.7
 11
-3.4109791689
 21
-19.6109791689
  0
LINE
  5
4BC
100
AcDbEntity
  8
ASSI
100
AcDbLine
 62
7
  6
CONTINUOUS
 10
-3.5
 20
-19.7
 11
-3.4109791689
 21
-19.6109791689
  0
LINE
  5
4BD
100
AcDbEntity
  8
DRAFT
100
AcDbLine
 62
7
  6
CONTINUOUS
 10
-3.4109791689
 20
-19.8109791689
 11
-3.5
 21
-19.9
  0
LINE
  5
4BE
100
AcDbEntity
  8
ASSI
100
AcDbLine
 62
7
  6
CONTINUOUS
 10
-3.4109791689
 20
-19.8109791689
 11
-3.5
 21
-19.9
  0
LINE
  5
4BF
100
AcDbEntity
  8
0
100
AcDbLine
 62
7
  6
CONTINUOUS
 10
11.0539971429
 20
-5.4626850049
 11
11.1046014306
 21
-5.4120807172
  0
LINE
  5
4C0
100
AcDbEntity
  8
0
100
AcDbLine
 62
7
  6
CONTINUOUS
 10
11.0539971429
 20
-5.8827064329
 11
11.0624067525
 21
-5.8742968233
  0
LINE
  5
4C1
100
AcDbEntity
  8
0
100
AcDbLine
 62
7
  6
CONTINUOUS
 10
11.0539971429
 20
-6.3027278609
 11
11.0624067525
 21
-6.2943182514
  0
LINE
  5
4C2
100
AcDbEntity
  8
RACCORDO
100
AcDbLine
 62
7
  6
CONTINUOUS
 10
-2.5
 20
-19.9
 11
-2.4979803239
 21
-19.8979803239
  0
LINE
  5
4C3
100
AcDbEntity
  8
ASSI
100
AcDbLine
 62
7
  6
CONTINUOUS
 10
-2.5
 20
-19.9
 11
-2.4979803239
 21
-19.8979803239
  0
LINE
  5
4C4
100
AcDbEntity
  8
0
100
AcDbLine
 62
7
  6
CONTINUOUS
 10
11.0539971429
 20
-6.722749289
 11
11.0624067525
 21
-6.7143396794
  0
LINE
  5
4C5
100
AcDbEntity
  8
RACCORDO
100
AcDbLine
 62
253
  6
CONTINUOUS
 10
-11.15
 20
-17.6716990487
 11
-10.7587019127
 21
-17.5096157267
  0
LINE
  5
4C6
100
AcDbEntity
  8
ASSI
100
AcDbLine
 62
253
  6
CONTINUOUS
 10
-11.15
 20
-17.6716990487
 11
-10.7587019127
 21
-17.5096157267
  0
LINE
  5
4C7
100
AcDbEntity
  8
0
100
AcDbLine
 62
7
  6
CONTINUOUS
 10
-7.0
 20
11.55
 11
0.0
 21
11.55
  0
LINE
  5
4C8
100
AcDbEntity
  8
SMUSSO
100
AcDbLine
 62
7
  6
CONTINUOUS
 10
-7.0
 20
11.65
 11
0.0
 21
11.65
  0
LINE
  5
4C9
100
AcDbEntity
  8
ASSI
100
AcDbLine
 62
7
  6
CONTINUOUS
 10
-7.0
 20
11.65
 11
0.0
 21
11.65
  0
LINE
  5
4CA
100
AcDbEntity
  8
0
100
AcDbLine
 62
253
  6
CONTINUOUS
 10
4.999096
 20
11.94813
 11
2.688598
 21
11.94813
  0
LINE
  5
4CB
100
AcDbEntity
  8
IMPORT_IGES
100
AcDbLine
 62
253
  6
CONTINUOUS
 10
4.999096
 20
11.94813
 11
2.688598
 21
11.94813
  0
LINE
  5
4CC
100
AcDbEntity
  8
RACCORDO
100
AcDbLine
 62
7
  6
CONTINUOUS
 10
9.65
 20
12.0
 11
9.5
 21
12.0
  0
LINE
  5
4CD
100
AcDbEntity
  8
0
100
AcDbLine
 62
253
  6
CONTINUOUS
 10
10.9998864416
 20
12.0714285374
 11
11.0260650513
 21
12.0714285374
  0
LINE
  5
4CE
100
AcDbEntity
  8
ASSI
100
AcDbLine
 62
7
  6
CONTINUOUS
 10
9.35
 20
12.1
 11
10.8724644676
 21
12.1
  0
LINE
  5
4CF
100
AcDbEntity
  8
SMUSSO
100
AcDbLine
 62
7
  6
CONTINUOUS
 10
-7.5773502692
 20
12.2273502692
 11
0.5773502692
 21
12.2273502692
  0
LINE
  5
4D0
100
AcDbEntity
  8
ASSI
100
AcDbLine
 62
7
  6
CONTINUOUS
 10
-7.5773502692
 20
12.2273502692
 11
0.5773502692
 21
12.2273502692
  0
LINE
  5
4D1
100
AcDbEntity
  8
0
100
AcDbLine
 62
253
  6
CONTINUOUS
 10
5.43249
 20
12.502991
 11
3.798021
 21
12.502991
  0
LINE
  5
4D2
100
AcDbEntity
  8
IMPORT_IGES
100
AcDbLine
 62
253
  6
CONTINUOUS
 10
5.43249
 20
12.502991
 11
3.798021
 21
12.502991
  0
LINE
  5
4D3
100
AcDbEntity
  8
0
100
AcDbLine
 62
253
  6
CONTINUOUS
 10
11.0223252501
 20
12.6785715818
 11
11.0036262432
 21
12.6785715818
  0
LINE
  5
4D4
100
AcDbEntity
  8
SMUSSO
100
AcDbLine
 62
7
  6
CONTINUOUS
 10
0.5773502692
 20
12.7726497308
 11
-7.5773502692
 21
12.7726497308
  0
LINE
  5
4D5
100
AcDbEntity
  8
ASSI
100
AcDbLine
 62
7
  6
CONTINUOUS
 10
0.5773502692
 20
12.7726497308
 11
-7.5773502692
 21
12.7726497308
  0
LINE
  5
4D6
100
AcDbEntity
  8
INCISIONI
100
AcDbLine
 62
253
  6
CONTINUOUS
 10
11.0541368107
 20
12.785664
 11
11.1047380621
 21
12.785664
  0
LINE
  5
4D7
100
AcDbEntity
  8
ASSI
100
AcDbLine
 62
7
  6
CONTINUOUS
 10
9.35
 20
12.9
 11
10.8724644676
 21
12.9
  0
LINE
  5
4D8
100
AcDbEntity
  8
RACCORDO
100
AcDbLine
 62
7
  6
CONTINUOUS
 10
9.5
 20
13.0
 11
9.65
 21
13.0
  0
LINE
  5
4D9
100
AcDbEntity
  8
RACCORDO
100
AcDbLine
 62
253
  6
CONTINUOUS
 10
-10.7587019127
 20
17.5096157267
 11
-11.15
 21
17.6716990487
  0
LINE
  5
4DA
100
AcDbEntity
  8
ASSI
100
AcDbLine
 62
253
  6
CONTINUOUS
 10
-10.7587019127
 20
17.5096157267
 11
-11.15
 21
17.6716990487
  0
LINE
  5
4DB
100
AcDbEntity
  8
DRAFT
100
AcDbLine
 62
7
  6
CONTINUOUS
 10
-3.5
 20
19.7
 11
-3.4109791689
 21
19.6109791689
  0
LINE
  5
4DC
100
AcDbEntity
  8
ASSI
100
AcDbLine
 62
7
  6
CONTINUOUS
 10
-3.5
 20
19.7
 11
-3.4109791689
 21
19.6109791689
  0
LINE
  5
4DD
100
AcDbEntity
  8
DRAFT
100
AcDbLine
 62
7
  6
CONTINUOUS
 10
-3.5
 20
19.9
 11
-3.4109791689
 21
19.8109791689
  0
LINE
  5
4DE
100
AcDbEntity
  8
ASSI
100
AcDbLine
 62
7
  6
CONTINUOUS
 10
-3.5
 20
19.9
 11
-3.4109791689
 21
19.8109791689
  0
LINE
  5
4DF
100
AcDbEntity
  8
RACCORDO
100
AcDbLine
 62
7
  6
CONTINUOUS
 10
-2.5
 20
19.9
 11
-2.4979803239
 21
19.8979803239
  0
LINE
  5
4E0
100
AcDbEntity
  8
ASSI
100
AcDbLine
 62
7
  6
CONTINUOUS
 10
-2.5
 20
19.9
 11
-2.4979803239
 21
19.8979803239
  0
LINE
  5
4E1
100
AcDbEntity
  8
0
100
AcDbLine
 62
7
  6
CONTINUOUS
 10
11.0539971429
 20
-7.562792145
 11
11.0716464505
 21
-7.5451428374
  0
LINE
  5
4E2
100
AcDbEntity
  8
0
100
AcDbLine
 62
7
  6
CONTINUOUS
 10
11.0638400089
 20
-7.972970707
 11
11.0909877238
 21
-7.9458229921
  0
LINE
  5
4E3
100
AcDbEntity
  8
ASSI
100
AcDbLine
 62
7
  6
CONTINUOUS
 10
-4.4
 20
-23.8
 11
-4.3563493531
 21
-23.7563493531
  0
LINE
  5
4E4
100
AcDbEntity
  8
0
100
AcDbLine
 62
7
  6
CONTINUOUS
 10
11.0647224388
 20
-8.3921097052
 11
11.0731320483
 21
-8.3837000956
  0
LINE
  5
4E5
100
AcDbEntity
  8
0
100
AcDbLine
 62
7
  6
CONTINUOUS
 10
11.084337509
 20
-8.3724946349
 11
11.1046014306
 21
-8.3522307134
  0
LINE
  5
4E6
100
AcDbEntity
  8
0
100
AcDbLine
 62
7
  6
CONTINUOUS
 10
11.0647224388
 20
-8.8121311332
 11
11.0731320483
 21
-8.8037215236
  0
LINE
  5
4E7
100
AcDbEntity
  8
0
100
AcDbLine
 62
7
  6
CONTINUOUS
 10
11.0834222991
 20
-8.7934312728
 11
11.1046014306
 21
-8.7722521414
  0
LINE
  5
4E8
100
AcDbEntity
  8
0
100
AcDbLine
 62
7
  6
CONTINUOUS
 10
11.059710241
 20
-9.237164759
 11
11.0926912074
 21
-9.2041837926
  0
LINE
  5
4E9
100
AcDbEntity
  8
0
100
AcDbLine
 62
7
  6
CONTINUOUS
 10
11.0539971429
 20
-9.6628992851
 11
11.07049451
 21
-9.646401918
  0
LINE
  5
4EA
100
AcDbEntity
  8
RACCORDO
100
AcDbLine
 62
253
  6
CONTINUOUS
 10
-10.5643027805
 20
-19.0856972195
 11
-10.1730026398
 21
-18.9236182982
  0
LINE
  5
4EB
100
AcDbEntity
  8
ASSI
100
AcDbLine
 62
253
  6
CONTINUOUS
 10
-10.5643027805
 20
-19.0856972195
 11
-10.1730026398
 21
-18.9236182982
  0
LINE
  5
4EC
100
AcDbEntity
  8
0
100
AcDbLine
 62
253
  6
CONTINUOUS
 10
2.688586
 20
13.052943
 11
4.999096
 21
13.052943
  0
LINE
  5
4ED
100
AcDbEntity
  8
IMPORT_IGES
100
AcDbLine
 62
253
  6
CONTINUOUS
 10
2.688586
 20
13.052943
 11
4.999096
 21
13.052943
  0
LINE
  5
4EE
100
AcDbEntity
  8
SMUSSO
100
AcDbLine
 62
7
  6
CONTINUOUS
 10
0.0
 20
13.35
 11
-7.0
 21
13.35
  0
LINE
  5
4EF
100
AcDbEntity
  8
ASSI
100
AcDbLine
 62
7
  6
CONTINUOUS
 10
0.0
 20
13.35
 11
-7.0
 21
13.35
  0
LINE
  5
4F0
100
AcDbEntity
  8
INCISIONI
100
AcDbLine
 62
253
  6
CONTINUOUS
 10
11.1047380621
 20
13.390935
 11
11.0541368107
 21
13.390935
  0
LINE
  5
4F1
100
AcDbEntity
  8
0
100
AcDbLine
 62
253
  6
CONTINUOUS
 10
10.9998864416
 20
13.428571403
 11
11.0260650513
 21
13.428571403
  0
LINE
  5
4F2
100
AcDbEntity
  8
0
100
AcDbLine
 62
7
  6
CONTINUOUS
 10
0.0
 20
13.55
 11
-7.0
 21
13.55
  0
LINE
  5
4F3
100
AcDbEntity
  8
RACCORDO
100
AcDbLine
 62
253
  6
CONTINUOUS
 10
-10.1730026398
 20
18.9236182982
 11
-10.5643027805
 21
19.0856972195
  0
LINE
  5
4F4
100
AcDbEntity
  8
ASSI
100
AcDbLine
 62
253
  6
CONTINUOUS
 10
-10.1730026398
 20
18.9236182982
 11
-10.5643027805
 21
19.0856972195
  0
LINE
  5
4F5
100
AcDbEntity
  8
ASSI
100
AcDbLine
 62
7
  6
CONTINUOUS
 10
-4.4
 20
23.8
 11
-4.3563493531
 21
23.7563493531
  0
LINE
  5
4F6
100
AcDbEntity
  8
INCISIONI
100
AcDbLine
 62
253
  6
CONTINUOUS
 10
11.0871764958
 20
11.750162
 11
11.0541368107
 21
11.880779
  0
LINE
  5
4F7
100
AcDbEntity
  8
INCISIONI
100
AcDbLine
 62
253
  6
CONTINUOUS
 10
11.0541368107
 20
12.459827
 11
11.1047350258
 21
12.198005
  0
LINE
  5
4F8
100
AcDbEntity
  8
0
100
AcDbLine
 62
7
  6
CONTINUOUS
 10
11.0539971429
 20
-10.5029421412
 11
11.1046014306
 21
-10.4523378535
  0
LINE
  5
4F9
100
AcDbEntity
  8
0
100
AcDbLine
 62
7
  6
CONTINUOUS
 10
11.0961267088
 20
-10.8808340033
 11
11.1046014306
 21
-10.8723592815
  0
LINE
  5
4FA
100
AcDbEntity
  8
0
100
AcDbLine
 62
7
  6
CONTINUOUS
 10
11.0801067904
 20
-11.3168753498
 11
11.1017507366
 21
-11.2952314035
  0
LINE
  5
4FB
100
AcDbEntity
  8
0
100
AcDbLine
 62
7
  6
CONTINUOUS
 10
11.0640868719
 20
-11.7529166962
 11
11.0860460447
 21
-11.7309575235
  0
LINE
  5
4FC
100
AcDbEntity
  8
0
100
AcDbLine
 62
7
  6
CONTINUOUS
 10
11.0539971429
 20
-12.1830278533
 11
11.0703413528
 21
-12.1666836434
  0
LINE
  5
4FD
100
AcDbEntity
  8
RACCORDO
100
AcDbLine
 62
7
  6
CONTINUOUS
 10
-9.5439339828
 20
-20.1060660172
 11
-9.65
 21
-20.15
  0
LINE
  5
4FE
100
AcDbEntity
  8
0
100
AcDbLine
 62
253
  6
CONTINUOUS
 10
11.0260650513
 20
15.1428571045
 11
10.9998864416
 21
15.1428571045
  0
LINE
  5
4FF
100
AcDbEntity
  8
0
100
AcDbLine
 62
253
  6
CONTINUOUS
 10
10.9998864416
 20
16.0
 11
11.0260650513
 21
16.0
  0
LINE
  5
500
100
AcDbEntity
  8
0
100
AcDbLine
 62
7
  6
CONTINUOUS
 10
-7.0
 20
16.55
 11
0.0
 21
16.55
  0
LINE
  5
501
100
AcDbEntity
  8
SMUSSO
100
AcDbLine
 62
7
  6
CONTINUOUS
 10
-7.0
 20
16.65
 11
0.0
 21
16.65
  0
LINE
  5
502
100
AcDbEntity
  8
ASSI
100
AcDbLine
 62
7
  6
CONTINUOUS
 10
-7.0
 20
16.65
 11
0.0
 21
16.65
  0
LINE
  5
503
100
AcDbEntity
  8
RACCORDO
100
AcDbLine
 62
7
  6
CONTINUOUS
 10
-9.5439339828
 20
20.1060660172
 11
-9.65
 21
20.15
  0
LINE
  5
504
100
AcDbEntity
  8
DRAFT
100
AcDbLine
 62
7
  6
CONTINUOUS
 10
9.65
 20
13.0
 11
9.5
 21
13.0749942881
  0
LINE
  5
505
100
AcDbEntity
  8
RACCORDO
100
AcDbLine
 62
7
  6
CONTINUOUS
 10
8.9
 20
-20.9
 11
9.068456817
 21
-20.581543183
  0
LINE
  5
506
100
AcDbEntity
  8
DRAFT
100
AcDbLine
 62
7
  6
CONTINUOUS
 10
7.2438103287
 20
-20.9842856956
 11
7.3
 21
-20.9
  0
LINE
  5
507
100
AcDbEntity
  8
0
100
AcDbLine
 62
7
  6
CONTINUOUS
 10
11.0539971429
 20
-12.6030492813
 11
11.1046014306
 21
-12.5524449936
  0
LINE
  5
508
100
AcDbEntity
  8
0
100
AcDbLine
 62
7
  6
CONTINUOUS
 10
11.0539971429
 20
-13.4430921374
 11
11.0649855786
 21
-13.4321037017
  0
LINE
  5
509
100
AcDbEntity
  8
0
100
AcDbLine
 62
7
  6
CONTINUOUS
 10
11.0570225317
 20
-13.8600881766
 11
11.0843249337
 21
-13.8327857745
  0
LINE
  5
50A
100
AcDbEntity
  8
0
100
AcDbLine
 62
7
  6
CONTINUOUS
 10
11.0647224388
 20
-14.2724096975
 11
11.0731320483
 21
-14.264000088
  0
LINE
  5
50B
100
AcDbEntity
  8
0
100
AcDbLine
 62
7
  6
CONTINUOUS
 10
11.0773542476
 20
-14.2597778887
 11
11.1036642889
 21
-14.2334678474
  0
LINE
  5
50C
100
AcDbEntity
  8
0
100
AcDbLine
 62
7
  6
CONTINUOUS
 10
11.0647224388
 20
-14.6924311256
 11
11.0731320483
 21
-14.684021516
  0
LINE
  5
50D
100
AcDbEntity
  8
0
100
AcDbLine
 62
7
  6
CONTINUOUS
 10
11.0917261684
 20
-14.6654273959
 11
11.1046014306
 21
-14.6525521338
  0
LINE
  5
50E
100
AcDbEntity
  8
ASSI
100
AcDbLine
 62
7
  6
CONTINUOUS
 10
9.35
 20
17.1
 11
10.8724644676
 21
17.1
  0
LINE
  5
50F
100
AcDbEntity
  8
SMUSSO
100
AcDbLine
 62
7
  6
CONTINUOUS
 10
-7.5773502692
 20
17.2273502692
 11
0.5773502692
 21
17.2273502692
  0
LINE
  5
510
100
AcDbEntity
  8
ASSI
100
AcDbLine
 62
7
  6
CONTINUOUS
 10
-7.5773502692
 20
17.2273502692
 11
0.5773502692
 21
17.2273502692
  0
LINE
  5
511
100
AcDbEntity
  8
RACCORDO
100
AcDbLine
 62
253
  6
CONTINUOUS
 10
9.7588542176
 20
17.509618074
 11
10.7587019127
 21
17.509618074
  0
LINE
  5
512
100
AcDbEntity
  8
ASSI
100
AcDbLine
 62
253
  6
CONTINUOUS
 10
9.7588542176
 20
17.509618074
 11
10.7587019127
 21
17.509618074
  0
LINE
  5
513
100
AcDbEntity
  8
RACCORDO
100
AcDbLine
 62
253
  6
CONTINUOUS
 10
-9.7588542176
 20
17.509618074
 11
-10.7587019127
 21
17.509618074
  0
LINE
  5
514
100
AcDbEntity
  8
ASSI
100
AcDbLine
 62
253
  6
CONTINUOUS
 10
-9.7588542176
 20
17.509618074
 11
-10.7587019127
 21
17.509618074
  0
LINE
  5
515
100
AcDbEntity
  8
RACCORDO
100
AcDbLine
 62
253
  6
CONTINUOUS
 10
9.2882387315
 20
18.3943840357
 11
-9.2882387315
 21
18.3943840357
  0
LINE
  5
516
100
AcDbEntity
  8
ASSI
100
AcDbLine
 62
253
  6
CONTINUOUS
 10
9.2882387315
 20
18.3943840357
 11
-9.2882387315
 21
18.3943840357
  0
LINE
  5
517
100
AcDbEntity
  8
DRAFT
100
AcDbLine
 62
7
  6
CONTINUOUS
 10
7.2438103287
 20
20.9842856956
 11
7.3
 21
20.9
  0
LINE
  5
518
100
AcDbEntity
  8
RACCORDO
100
AcDbLine
 62
7
  6
CONTINUOUS
 10
9.068456817
 20
20.581543183
 11
8.9
 21
20.9
  0
LINE
  5
519
100
AcDbEntity
  8
0
100
AcDbLine
 62
7
  6
CONTINUOUS
 10
11.0647224388
 20
-15.1124525536
 11
11.1003394729
 21
-15.0768355194
  0
LINE
  5
51A
100
AcDbEntity
  8
0
100
AcDbLine
 62
7
  6
CONTINUOUS
 10
11.0539971429
 20
-15.5431992775
 11
11.0781402486
 21
-15.5190561718
  0
LINE
  5
51B
100
AcDbEntity
  8
RACCORDO
100
AcDbLine
 62
7
  6
CONTINUOUS
 10
7.2438103287
 20
-19.7561896713
 11
7.3
 21
-19.7
  0
LINE
  5
51C
100
AcDbEntity
  8
0
100
AcDbLine
 62
7
  6
CONTINUOUS
 10
11.0539971429
 20
-15.9632207055
 11
11.0559410242
 21
-15.9612768242
  0
LINE
  5
51D
100
AcDbEntity
  8
DRAFT
100
AcDbLine
 62
7
  6
CONTINUOUS
 10
7.4
 20
-19.7
 11
7.4890208311
 21
-19.6109791689
  0
LINE
  5
51E
100
AcDbEntity
  8
ASSI
100
AcDbLine
 62
7
  6
CONTINUOUS
 10
7.4
 20
-19.7
 11
7.4890208311
 21
-19.6109791689
  0
LINE
  5
51F
100
AcDbEntity
  8
RACCORDO
100
AcDbLine
 62
253
  6
CONTINUOUS
 10
9.2882387315
 20
-18.3943840357
 11
9.4660056078
 21
-18.2166171594
  0
LINE
  5
520
100
AcDbEntity
  8
ASSI
100
AcDbLine
 62
253
  6
CONTINUOUS
 10
9.2882387315
 20
-18.3943840357
 11
9.4660056078
 21
-18.2166171594
  0
LINE
  5
521
100
AcDbEntity
  8
RACCORDO
100
AcDbLine
 62
253
  6
CONTINUOUS
 10
9.2882387315
 20
19.3942317309
 11
-9.2882387315
 21
19.3942317309
  0
LINE
  5
522
100
AcDbEntity
  8
ASSI
100
AcDbLine
 62
253
  6
CONTINUOUS
 10
9.2882387315
 20
19.3942317309
 11
-9.2882387315
 21
19.3942317309
  0
LINE
  5
523
100
AcDbEntity
  8
RACCORDO
100
AcDbLine
 62
7
  6
CONTINUOUS
 10
9.37801846
 20
19.6109791689
 11
7.4890208311
 21
19.6109791689
  0
LINE
  5
524
100
AcDbEntity
  8
ASSI
100
AcDbLine
 62
7
  6
CONTINUOUS
 10
9.37801846
 20
19.6109791689
 11
7.4890208311
 21
19.6109791689
  0
LINE
  5
525
100
AcDbEntity
  8
DRAFT
100
AcDbLine
 62
7
  6
CONTINUOUS
 10
-3.4109791689
 20
19.6109791689
 11
3.4109791689
 21
19.6109791689
  0
LINE
  5
526
100
AcDbEntity
  8
ASSI
100
AcDbLine
 62
7
  6
CONTINUOUS
 10
-3.4109791689
 20
19.6109791689
 11
3.4109791689
 21
19.6109791689
  0
LINE
  5
527
100
AcDbEntity
  8
RACCORDO
100
AcDbLine
 62
7
  6
CONTINUOUS
 10
-7.4890208311
 20
19.6109791689
 11
-9.37801846
 21
19.6109791689
  0
LINE
  5
528
100
AcDbEntity
  8
ASSI
100
AcDbLine
 62
7
  6
CONTINUOUS
 10
-7.4890208311
 20
19.6109791689
 11
-9.37801846
 21
19.6109791689
  0
LINE
  5
529
100
AcDbEntity
  8
DRAFT
100
AcDbLine
 62
7
  6
CONTINUOUS
 10
7.4
 20
19.7
 11
3.5
 21
19.7
  0
LINE
  5
52A
100
AcDbEntity
  8
ASSI
100
AcDbLine
 62
7
  6
CONTINUOUS
 10
7.4
 20
19.7
 11
3.5
 21
19.7
  0
LINE
  5
52B
100
AcDbEntity
  8
DRAFT
100
AcDbLine
 62
7
  6
CONTINUOUS
 10
-3.5
 20
19.7
 11
-7.4
 21
19.7
  0
LINE
  5
52C
100
AcDbEntity
  8
ASSI
100
AcDbLine
 62
7
  6
CONTINUOUS
 10
-3.5
 20
19.7
 11
-7.4
 21
19.7
  0
LINE
  5
52D
100
AcDbEntity
  8
RACCORDO
100
AcDbLine
 62
253
  6
CONTINUOUS
 10
-7.2407819689
 20
19.7564431031
 11
-6.5592180311
 21
19.7564431031
  0
LINE
  5
52E
100
AcDbEntity
  8
RACCORDO
100
AcDbLine
 62
253
  6
CONTINUOUS
 10
6.5592180311
 20
19.7564431031
 11
7.2407819689
 21
19.7564431031
  0
LINE
  5
52F
100
AcDbEntity
  8
DRAFT
100
AcDbLine
 62
7
  6
CONTINUOUS
 10
-3.4109791689
 20
19.8109791689
 11
3.4109791689
 21
19.8109791689
  0
LINE
  5
530
100
AcDbEntity
  8
ASSI
100
AcDbLine
 62
7
  6
CONTINUOUS
 10
-3.4109791689
 20
19.8109791689
 11
3.4109791689
 21
19.8109791689
  0
LINE
  5
531
100
AcDbEntity
  8
RACCORDO
100
AcDbLine
 62
7
  6
CONTINUOUS
 10
-1.5981173983
 20
19.8825449351
 11
1.5981173983
 21
19.8825449351
  0
LINE
  5
532
100
AcDbEntity
  8
ASSI
100
AcDbLine
 62
7
  6
CONTINUOUS
 10
-1.5981173983
 20
19.8825449351
 11
1.5981173983
 21
19.8825449351
  0
LINE
  5
533
100
AcDbEntity
  8
DRAFT
100
AcDbLine
 62
7
  6
CONTINUOUS
 10
-3.5
 20
19.9
 11
-2.5
 21
19.9
  0
LINE
  5
534
100
AcDbEntity
  8
ASSI
100
AcDbLine
 62
7
  6
CONTINUOUS
 10
-3.5
 20
19.9
 11
-2.5
 21
19.9
  0
LINE
  5
535
100
AcDbEntity
  8
DRAFT
100
AcDbLine
 62
7
  6
CONTINUOUS
 10
2.5
 20
19.9
 11
3.5
 21
19.9
  0
LINE
  5
536
100
AcDbEntity
  8
ASSI
100
AcDbLine
 62
7
  6
CONTINUOUS
 10
2.5
 20
19.9
 11
3.5
 21
19.9
  0
LINE
  5
537
100
AcDbEntity
  8
DRAFT
100
AcDbLine
 62
7
  6
CONTINUOUS
 10
6.4482213147
 20
19.9223308767
 11
2.5
 21
19.9223308767
  0
LINE
  5
538
100
AcDbEntity
  8
DRAFT
100
AcDbLine
 62
7
  6
CONTINUOUS
 10
-2.5
 20
19.9223308767
 11
-6.4482213147
 21
19.9223308767
  0
LINE
  5
539
100
AcDbEntity
  8
DRAFT
100
AcDbLine
 62
7
  6
CONTINUOUS
 10
-3.5
 20
20.0
 11
-2.5
 21
20.0
  0
LINE
  5
53A
100
AcDbEntity
  8
DRAFT
100
AcDbLine
 62
7
  6
CONTINUOUS
 10
2.5
 20
20.0
 11
3.5
 21
20.0
  0
LINE
  5
53B
100
AcDbEntity
  8
DRAFT
100
AcDbLine
 62
7
  6
CONTINUOUS
 10
2.5
 20
20.0532338935
 11
2.4413111231
 21
20.0532338935
  0
LINE
  5
53C
100
AcDbEntity
  8
DRAFT
100
AcDbLine
 62
7
  6
CONTINUOUS
 10
-2.4413111231
 20
20.0532338935
 11
-2.5
 21
20.0532338935
  0
LINE
  5
53D
100
AcDbEntity
  8
RACCORDO
100
AcDbLine
 62
253
  6
CONTINUOUS
 10
6.555294768
 20
20.0829433217
 11
-6.555294768
 21
20.0829433217
  0
LINE
  5
53E
100
AcDbEntity
  8
RACCORDO
100
AcDbLine
 62
253
  6
CONTINUOUS
 10
7.4
 20
20.1488813944
 11
7.3517786853
 21
20.1488813944
  0
LINE
  5
53F
100
AcDbEntity
  8
RACCORDO
100
AcDbLine
 62
253
  6
CONTINUOUS
 10
-7.3517786853
 20
20.1488813944
 11
-7.4
 21
20.1488813944
  0
LINE
  5
540
100
AcDbEntity
  8
RACCORDO
100
AcDbLine
 62
7
  6
CONTINUOUS
 10
7.2438103287
 20
19.7561896713
 11
7.3
 21
19.7
  0
LINE
  5
541
100
AcDbEntity
  8
DRAFT
100
AcDbLine
 62
7
  6
CONTINUOUS
 10
7.4
 20
19.7
 11
7.4890208311
 21
19.6109791689
  0
LINE
  5
542
100
AcDbEntity
  8
ASSI
100
AcDbLine
 62
7
  6
CONTINUOUS
 10
7.4
 20
19.7
 11
7.4890208311
 21
19.6109791689
  0
LINE
  5
543
100
AcDbEntity
  8
RACCORDO
100
AcDbLine
 62
253
  6
CONTINUOUS
 10
9.4660056078
 20
18.2166171594
 11
9.2882387315
 21
18.3943840357
  0
LINE
  5
544
100
AcDbEntity
  8
ASSI
100
AcDbLine
 62
253
  6
CONTINUOUS
 10
9.4660056078
 20
18.2166171594
 11
9.2882387315
 21
18.3943840357
  0
LINE
  5
545
100
AcDbEntity
  8
RACCORDO
100
AcDbLine
 62
253
  6
CONTINUOUS
 10
9.9952378169
 20
-19.1013831211
 11
10.1730026398
 21
-18.9236182982
  0
LINE
  5
546
100
AcDbEntity
  8
ASSI
100
AcDbLine
 62
253
  6
CONTINUOUS
 10
9.9952378169
 20
-19.1013831211
 11
10.1730026398
 21
-18.9236182982
  0
LINE
  5
547
100
AcDbEntity
  8
RACCORDO
100
AcDbLine
 62
7
  6
CONTINUOUS
 10
10.0850175454
 20
-19.3181305591
 11
8.5531481045
 21
-20.85
  0
LINE
  5
548
100
AcDbEntity
  8
ASSI
100
AcDbLine
 62
7
  6
CONTINUOUS
 10
10.0850175454
 20
-19.3181305591
 11
8.5531481045
 21
-20.85
  0
LINE
  5
549
100
AcDbEntity
  8
RACCORDO
100
AcDbLine
 62
7
  6
CONTINUOUS
 10
7.2587268678
 20
-22.3912731322
 11
8.25
 21
-21.4
  0
LINE
  5
54A
100
AcDbEntity
  8
RACCORDO
100
AcDbLine
 62
7
  6
CONTINUOUS
 10
8.8
 20
-20.85
 11
10.5643027805
 21
-19.0856972195
  0
LINE
  5
54B
100
AcDbEntity
  8
ASSI
100
AcDbLine
 62
7
  6
CONTINUOUS
 10
8.8
 20
-20.85
 11
10.5643027805
 21
-19.0856972195
  0
LINE
  5
54C
100
AcDbEntity
  8
0
100
AcDbLine
 62
7
  6
CONTINUOUS
 10
8.9
 20
-20.9
 11
9.65
 21
-20.15
  0
LINE
  5
54D
100
AcDbEntity
  8
RACCORDO
100
AcDbLine
 62
253
  6
CONTINUOUS
 10
7.4
 20
20.4484702548
 11
7.3501246809
 21
20.4484702548
  0
LINE
  5
54E
100
AcDbEntity
  8
RACCORDO
100
AcDbLine
 62
253
  6
CONTINUOUS
 10
-7.3501246809
 20
20.4484702548
 11
-7.4
 21
20.4484702548
  0
LINE
  5
54F
100
AcDbEntity
  8
RACCORDO
100
AcDbLine
 62
253
  6
CONTINUOUS
 10
6.9
 20
20.5829242832
 11
-6.9
 21
20.5829242832
  0
LINE
  5
550
100
AcDbEntity
  8
DRAFT
100
AcDbLine
 62
7
  6
CONTINUOUS
 10
7.4
 20
20.85
 11
8.8
 21
20.85
  0
LINE
  5
551
100
AcDbEntity
  8
ASSI
100
AcDbLine
 62
7
  6
CONTINUOUS
 10
7.4
 20
20.85
 11
8.8
 21
20.85
  0
LINE
  5
552
100
AcDbEntity
  8
DRAFT
100
AcDbLine
 62
7
  6
CONTINUOUS
 10
-7.4
 20
20.85
 11
-8.8
 21
20.85
  0
LINE
  5
553
100
AcDbEntity
  8
ASSI
100
AcDbLine
 62
7
  6
CONTINUOUS
 10
-7.4
 20
20.85
 11
-8.8
 21
20.85
  0
LINE
  5
554
100
AcDbEntity
  8
DRAFT
100
AcDbLine
 62
7
  6
CONTINUOUS
 10
-8.9
 20
20.9
 11
-7.3
 21
20.9
  0
LINE
  5
555
100
AcDbEntity
  8
DRAFT
100
AcDbLine
 62
7
  6
CONTINUOUS
 10
7.3
 20
20.9
 11
8.9
 21
20.9
  0
LINE
  5
556
100
AcDbEntity
  8
DRAFT
100
AcDbLine
 62
7
  6
CONTINUOUS
 10
-7.5841007192
 20
20.9872686779
 11
-6.9
 21
20.9872686779
  0
LINE
  5
557
100
AcDbEntity
  8
DRAFT
100
AcDbLine
 62
7
  6
CONTINUOUS
 10
7.5841007192
 20
20.9872686779
 11
6.9
 21
20.9872686779
  0
LINE
  5
558
100
AcDbEntity
  8
0
100
AcDbLine
 62
7
  6
CONTINUOUS
 10
-3.0
 20
21.0
 11
3.0
 21
21.0
  0
LINE
  5
559
100
AcDbEntity
  8
RACCORDO
100
AcDbLine
 62
253
  6
CONTINUOUS
 10
7.5841007192
 20
21.3126932437
 11
3.0
 21
21.3126932437
  0
LINE
  5
55A
100
AcDbEntity
  8
RACCORDO
100
AcDbLine
 62
253
  6
CONTINUOUS
 10
-3.0
 20
21.3126932437
 11
-7.5841007192
 21
21.3126932437
  0
LINE
  5
55B
100
AcDbEntity
  8
0
100
AcDbLine
 62
7
  6
CONTINUOUS
 10
-3.0
 20
21.7
 11
3.0
 21
21.7
  0
LINE
  5
55C
100
AcDbEntity
  8
RACCORDO
100
AcDbLine
 62
253
  6
CONTINUOUS
 10
10.1730026398
 20
18.9236182982
 11
9.9952378169
 21
19.1013831211
  0
LINE
  5
55D
100
AcDbEntity
  8
ASSI
100
AcDbLine
 62
253
  6
CONTINUOUS
 10
10.1730026398
 20
18.9236182982
 11
9.9952378169
 21
19.1013831211
  0
LINE
  5
55E
100
AcDbEntity
  8
RACCORDO
100
AcDbLine
 62
7
  6
CONTINUOUS
 10
8.5531481045
 20
20.85
 11
10.0850175454
 21
19.3181305591
  0
LINE
  5
55F
100
AcDbEntity
  8
ASSI
100
AcDbLine
 62
7
  6
CONTINUOUS
 10
8.5531481045
 20
20.85
 11
10.0850175454
 21
19.3181305591
  0
LINE
  5
560
100
AcDbEntity
  8
RACCORDO
100
AcDbLine
 62
7
  6
CONTINUOUS
 10
10.5643027805
 20
19.0856972195
 11
8.8
 21
20.85
  0
LINE
  5
561
100
AcDbEntity
  8
ASSI
100
AcDbLine
 62
7
  6
CONTINUOUS
 10
10.5643027805
 20
19.0856972195
 11
8.8
 21
20.85
  0
LINE
  5
562
100
AcDbEntity
  8
RACCORDO
100
AcDbLine
 62
7
  6
CONTINUOUS
 10
8.25
 20
21.4
 11
7.2587268678
 21
22.3912731322
  0
LINE
  5
563
100
AcDbEntity
  8
0
100
AcDbLine
 62
7
  6
CONTINUOUS
 10
9.65
 20
20.15
 11
8.9
 21
20.9
  0
LINE
  5
564
100
AcDbEntity
  8
RACCORDO
100
AcDbLine
 62
253
  6
CONTINUOUS
 10
8.254371834
 20
-24.2456323968
 11
8.25
 21
-24.2500042308
  0
LINE
  5
565
100
AcDbEntity
  8
RACCORDO
100
AcDbLine
 62
253
  6
CONTINUOUS
 10
8.5043676032
 20
-24.495628166
 11
8.4999957692
 21
-24.5
  0
LINE
  5
566
100
AcDbEntity
  8
DRAFT
100
AcDbLine
 62
7
  6
CONTINUOUS
 10
8.0840245667
 20
-20.9829813964
 11
8.25
 21
-20.9
  0
LINE
  5
567
100
AcDbEntity
  8
RACCORDO
100
AcDbLine
 62
253
  6
CONTINUOUS
 10
7.3373448332
 20
22.3126551668
 11
3.0
 21
22.3126551668
  0
LINE
  5
568
100
AcDbEntity
  8
RACCORDO
100
AcDbLine
 62
253
  6
CONTINUOUS
 10
-3.0
 20
22.3126551668
 11
-7.3373448332
 21
22.3126551668
  0
LINE
  5
569
100
AcDbEntity
  8
DRAFT
100
AcDbLine
 62
7
  6
CONTINUOUS
 10
3.5
 20
22.3380392387
 11
3.0
 21
22.3380392387
  0
LINE
  5
56A
100
AcDbEntity
  8
DRAFT
100
AcDbLine
 62
7
  6
CONTINUOUS
 10
-3.0
 20
22.3380392387
 11
-3.5
 21
22.3380392387
  0
LINE
  5
56B
100
AcDbEntity
  8
RACCORDO
100
AcDbLine
 62
7
  6
CONTINUOUS
 10
10.6498476749
 20
22.3912731322
 11
7.2587268678
 21
22.3912731322
  0
LINE
  5
56C
100
AcDbEntity
  8
RACCORDO
100
AcDbLine
 62
7
  6
CONTINUOUS
 10
-7.2587268678
 20
22.3912731322
 11
-10.6498476749
 21
22.3912731322
  0
LINE
  5
56D
100
AcDbEntity
  8
DRAFT
100
AcDbLine
 62
7
  6
CONTINUOUS
 10
-8.25
 20
22.4
 11
-4.4
 21
22.4
  0
LINE
  5
56E
100
AcDbEntity
  8
RACCORDO
100
AcDbLine
 62
7
  6
CONTINUOUS
 10
10.6323926099
 20
22.4
 11
8.25
 21
22.4
  0
LINE
  5
56F
100
AcDbEntity
  8
DRAFT
100
AcDbLine
 62
7
  6
CONTINUOUS
 10
4.4
 20
22.4
 11
8.25
 21
22.4
  0
LINE
  5
570
100
AcDbEntity
  8
RACCORDO
100
AcDbLine
 62
7
  6
CONTINUOUS
 10
-8.25
 20
22.4
 11
-10.6323926099
 21
22.4
  0
LINE
  5
571
100
AcDbEntity
  8
RACCORDO
100
AcDbLine
 62
7
  6
CONTINUOUS
 10
10.4007229979
 20
23.1226497308
 11
8.4992770021
 21
23.1226497308
  0
LINE
  5
572
100
AcDbEntity
  8
RACCORDO
100
AcDbLine
 62
7
  6
CONTINUOUS
 10
-8.4992770021
 20
23.1226497308
 11
-10.4007229979
 21
23.1226497308
  0
LINE
  5
573
100
AcDbEntity
  8
RACCORDO
100
AcDbLine
 62
253
  6
CONTINUOUS
 10
-10.3956323968
 20
23.6278312164
 11
-8.5043676032
 21
23.6278312164
  0
LINE
  5
574
100
AcDbEntity
  8
RACCORDO
100
AcDbLine
 62
253
  6
CONTINUOUS
 10
8.5043676032
 20
23.6278312164
 11
10.3956323968
 21
23.6278312164
  0
LINE
  5
575
100
AcDbEntity
  8
ASSI
100
AcDbLine
 62
253
  6
CONTINUOUS
 10
-4.3563493531
 20
23.7563493531
 11
-3.5
 21
23.7563493531
  0
LINE
  5
576
100
AcDbEntity
  8
ASSI
100
AcDbLine
 62
253
  6
CONTINUOUS
 10
3.5
 20
23.7563493531
 11
4.3563493531
 21
23.7563493531
  0
LINE
  5
577
100
AcDbEntity
  8
DRAFT
100
AcDbLine
 62
7
  6
CONTINUOUS
 10
-3.5
 20
23.7941821702
 11
3.5
 21
23.7941821702
  0
LINE
  5
578
100
AcDbEntity
  8
DRAFT
100
AcDbLine
 62
7
  6
CONTINUOUS
 10
4.4
 20
23.8
 11
-4.4
 21
23.8
  0
LINE
  5
579
100
AcDbEntity
  8
RACCORDO
100
AcDbLine
 62
253
  6
CONTINUOUS
 10
8.254371834
 20
23.8443375673
 11
10.645628166
 21
23.8443375673
  0
LINE
  5
57A
100
AcDbEntity
  8
RACCORDO
100
AcDbLine
 62
253
  6
CONTINUOUS
 10
-8.254371834
 20
23.8443375673
 11
-10.645628166
 21
23.8443375673
  0
LINE
  5
57B
100
AcDbEntity
  8
DRAFT
100
AcDbLine
 62
7
  6
CONTINUOUS
 10
8.0840245667
 20
20.9829813964
 11
8.25
 21
20.9
  0
LINE
  5
57C
100
AcDbEntity
  8
RACCORDO
100
AcDbLine
 62
253
  6
CONTINUOUS
 10
8.254371834
 20
24.2456323968
 11
8.25
 21
24.2500042308
  0
LINE
  5
57D
100
AcDbEntity
  8
RACCORDO
100
AcDbLine
 62
253
  6
CONTINUOUS
 10
8.5043676032
 20
24.495628166
 11
8.4999957692
 21
24.5
  0
LINE
  5
57E
100
AcDbEntity
  8
RACCORDO
100
AcDbLine
 62
253
  6
CONTINUOUS
 10
10.6498476749
 20
-22.3912731322
 11
10.6323926099
 21
-22.4
  0
LINE
  5
57F
100
AcDbEntity
  8
RACCORDO
100
AcDbLine
 62
253
  6
CONTINUOUS
 10
8.254371834
 20
24.2456323968
 11
10.645628166
 21
24.2456323968
  0
LINE
  5
580
100
AcDbEntity
  8
RACCORDO
100
AcDbLine
 62
253
  6
CONTINUOUS
 10
-8.254371834
 20
24.2456323968
 11
-10.645628166
 21
24.2456323968
  0
LINE
  5
581
100
AcDbEntity
  8
RACCORDO
100
AcDbLine
 62
253
  6
CONTINUOUS
 10
10.3956323968
 20
24.495628166
 11
8.5043676032
 21
24.495628166
  0
LINE
  5
582
100
AcDbEntity
  8
RACCORDO
100
AcDbLine
 62
253
  6
CONTINUOUS
 10
-8.5043676032
 20
24.495628166
 11
-10.3956323968
 21
24.495628166
  0
LINE
  5
583
100
AcDbEntity
  8
RACCORDO
100
AcDbLine
 62
7
  6
CONTINUOUS
 10
10.4000042308
 20
24.5
 11
8.4999957692
 21
24.5
  0
LINE
  5
584
100
AcDbEntity
  8
RACCORDO
100
AcDbLine
 62
7
  6
CONTINUOUS
 10
-8.4999957692
 20
24.5
 11
-10.4000042308
 21
24.5
  0
LINE
  5
585
100
AcDbEntity
  8
RACCORDO
100
AcDbLine
 62
253
  6
CONTINUOUS
 10
10.6323926099
 20
22.4
 11
10.6498476749
 21
22.3912731322
  0
ARC
  5
586
100
AcDbEntity
  8
INCISIONI
100
AcDbCircle
 62
253
  6
CONTINUOUS
 10
-79.7090089404
 20
5.98467421
 40
90.8056004093
100
AcDbArc
 50
359.8863943748
 51
0.1855862268
  0
ARC
  5
587
100
AcDbEntity
  8
RACCORDO
100
AcDbCircle
 62
253
  6
CONTINUOUS
 10
8.758701946
 20
-17.5094919143
 40
1.9999999708
100
AcDbArc
 50
315.0035310201
 51
359.9964530363
  0
ARC
  5
588
100
AcDbEntity
  8
RACCORDO
100
AcDbCircle
 62
253
  6
CONTINUOUS
 10
-8.758701946
 20
-17.5094919143
 40
1.9999999708
100
AcDbArc
 50
180.0035469634
 51
224.9964689797
  0
ARC
  5
589
100
AcDbEntity
  8
ASSI
100
AcDbCircle
 62
253
  6
CONTINUOUS
 10
-8.758701946
 20
-17.5094919143
 40
1.9999999708
100
AcDbArc
 50
180.0035469634
 51
224.9964689797
  0
ARC
  5
58A
100
AcDbEntity
  8
ASSI
100
AcDbCircle
 62
253
  6
CONTINUOUS
 10
8.758701946
 20
-17.5094919143
 40
1.9999999708
100
AcDbArc
 50
315.0035310201
 51
359.9964530363
  0
ARC
  5
58B
100
AcDbEntity
  8
RACCORDO
100
AcDbCircle
 62
253
  6
CONTINUOUS
 10
-9.288107352
 20
-18.3940668574
 40
1.0001648821
100
AcDbArc
 50
225.0075262522
 51
269.9924737478
  0
ARC
  5
58C
100
AcDbEntity
  8
RACCORDO
100
AcDbCircle
 62
253
  6
CONTINUOUS
 10
9.288107352
 20
-18.3940668574
 40
1.0001648821
100
AcDbArc
 50
270.0075262522
 51
314.9924737478
  0
ARC
  5
58D
100
AcDbEntity
  8
ASSI
100
AcDbCircle
 62
253
  6
CONTINUOUS
 10
9.288107352
 20
-18.3940668574
 40
1.0001648821
100
AcDbArc
 50
270.0075262522
 51
314.9924737478
  0
ARC
  5
58E
100
AcDbEntity
  8
ASSI
100
AcDbCircle
 62
253
  6
CONTINUOUS
 10
-9.288107352
 20
-18.3940668574
 40
1.0001648821
100
AcDbArc
 50
225.0075262522
 51
269.9924737478
  0
ARC
  5
58F
100
AcDbEntity
  8
RACCORDO
100
AcDbCircle
 62
253
  6
CONTINUOUS
 10
8.7590190667
 20
-17.50962327
 40
0.9998351509
100
AcDbArc
 50
314.9997022418
 51
0.0002977582
  0
ARC
  5
590
100
AcDbEntity
  8
RACCORDO
100
AcDbCircle
 62
253
  6
CONTINUOUS
 10
-8.7590190667
 20
-17.50962327
 40
0.9998351509
100
AcDbArc
 50
179.9997022418
 51
225.0002977582
  0
ARC
  5
591
100
AcDbEntity
  8
ASSI
100
AcDbCircle
 62
253
  6
CONTINUOUS
 10
8.7590190667
 20
-17.50962327
 40
0.9998351509
100
AcDbArc
 50
314.9997022418
 51
0.0002977582
  0
ARC
  5
592
100
AcDbEntity
  8
ASSI
100
AcDbCircle
 62
253
  6
CONTINUOUS
 10
-8.7590190667
 20
-17.50962327
 40
0.9998351509
100
AcDbArc
 50
179.9997022418
 51
225.0002977582
  0
ARC
  5
593
100
AcDbEntity
  8
RACCORDO
100
AcDbCircle
 62
7
  6
CONTINUOUS
 10
10.6323927659
 20
-21.8998729306
 40
0.5001270694
100
AcDbArc
 50
269.9999821258
 51
272.017544683
  0
ARC
  5
594
100
AcDbEntity
  8
RACCORDO
100
AcDbCircle
 62
7
  6
CONTINUOUS
 10
-10.6323927659
 20
-21.8998729306
 40
0.5001270694
100
AcDbArc
 50
267.982455317
 51
270.0000178742
  0
ARC
  5
595
100
AcDbEntity
  8
RACCORDO
100
AcDbCircle
 62
7
  6
CONTINUOUS
 10
-10.6324618824
 20
-21.9001237906
 40
0.499875135
100
AcDbArc
 50
243.4318543999
 51
267.9894638354
  0
ARC
  5
596
100
AcDbEntity
  8
RACCORDO
100
AcDbCircle
 62
7
  6
CONTINUOUS
 10
10.6324618824
 20
-21.9001237906
 40
0.499875135
100
AcDbArc
 50
272.0105361646
 51
296.5681456001
  0
ARC
  5
597
100
AcDbEntity
  8
RACCORDO
100
AcDbCircle
 62
253
  6
CONTINUOUS
 10
8.5043778172
 20
-24.2456221828
 40
0.2500059834
100
AcDbArc
 50
180.0023408215
 51
269.9976591785
  0
ARC
  5
598
100
AcDbEntity
  8
RACCORDO
100
AcDbCircle
 62
253
  6
CONTINUOUS
 10
10.3956221828
 20
-24.2456221828
 40
0.2500059834
100
AcDbArc
 50
270.0023408263
 51
359.9976591737
  0
ARC
  5
599
100
AcDbEntity
  8
RACCORDO
100
AcDbCircle
 62
253
  6
CONTINUOUS
 10
-10.3956221828
 20
-24.2456221828
 40
0.2500059834
100
AcDbArc
 50
180.0023408263
 51
269.9976591737
  0
ARC
  5
59A
100
AcDbEntity
  8
RACCORDO
100
AcDbCircle
 62
253
  6
CONTINUOUS
 10
-8.5043778172
 20
-24.2456221828
 40
0.2500059834
100
AcDbArc
 50
270.0023408263
 51
359.9976591737
  0
ARC
  5
59B
100
AcDbEntity
  8
RACCORDO
100
AcDbCircle
 62
7
  6
CONTINUOUS
 10
8.4999946513
 20
-24.2500053487
 40
0.2499946513
100
AcDbArc
 50
179.9997437926
 51
270.0002562074
  0
ARC
  5
59C
100
AcDbEntity
  8
RACCORDO
100
AcDbCircle
 62
7
  6
CONTINUOUS
 10
10.4000053487
 20
-24.2500053487
 40
0.2499946513
100
AcDbArc
 50
269.9997437926
 51
0.0002562074
  0
ARC
  5
59D
100
AcDbEntity
  8
RACCORDO
100
AcDbCircle
 62
7
  6
CONTINUOUS
 10
-10.4000053487
 20
-24.2500053487
 40
0.2499946513
100
AcDbArc
 50
179.9997437926
 51
270.0002562074
  0
ARC
  5
59E
100
AcDbEntity
  8
RACCORDO
100
AcDbCircle
 62
7
  6
CONTINUOUS
 10
-8.4999946513
 20
-24.2500053487
 40
0.2499946513
100
AcDbArc
 50
269.9997437926
 51
0.0002562074
  0
ARC
  5
59F
100
AcDbEntity
  8
RACCORDO
100
AcDbCircle
 62
253
  6
CONTINUOUS
 10
-8.758701946
 20
17.5094919143
 40
1.9999999708
100
AcDbArc
 50
135.0035310201
 51
179.9964530363
  0
ARC
  5
5A0
100
AcDbEntity
  8
RACCORDO
100
AcDbCircle
 62
253
  6
CONTINUOUS
 10
8.758701946
 20
17.5094919143
 40
1.9999999708
100
AcDbArc
 50
0.0035469634
 51
44.9964689797
  0
ARC
  5
5A1
100
AcDbEntity
  8
ASSI
100
AcDbCircle
 62
253
  6
CONTINUOUS
 10
-8.758701946
 20
17.5094919143
 40
1.9999999708
100
AcDbArc
 50
135.0035310201
 51
179.9964530363
  0
ARC
  5
5A2
100
AcDbEntity
  8
ASSI
100
AcDbCircle
 62
253
  6
CONTINUOUS
 10
8.758701946
 20
17.5094919143
 40
1.9999999708
100
AcDbArc
 50
0.0035469634
 51
44.9964689797
  0
ARC
  5
5A3
100
AcDbEntity
  8
IMPORT_IGES
100
AcDbCircle
 62
253
  6
CONTINUOUS
 10
5.996843
 20
12.500831
 40
1.1402490105
100
AcDbArc
 50
208.9830159648
 51
268.5541978004
  0
ARC
  5
5A4
100
AcDbEntity
  8
0
100
AcDbCircle
 62
253
  6
CONTINUOUS
 10
5.996843
 20
12.500831
 40
1.1402490105
100
AcDbArc
 50
208.9830159648
 51
268.5541978004
  0
ARC
  5
5A5
100
AcDbEntity
  8
RACCORDO
100
AcDbCircle
 62
253
  6
CONTINUOUS
 10
-9.288107352
 20
18.3940668574
 40
1.0001648821
100
AcDbArc
 50
90.0075262522
 51
134.9924737478
  0
ARC
  5
5A6
100
AcDbEntity
  8
RACCORDO
100
AcDbCircle
 62
253
  6
CONTINUOUS
 10
9.288107352
 20
18.3940668574
 40
1.0001648821
100
AcDbArc
 50
45.0075262522
 51
89.9924737478
  0
ARC
  5
5A7
100
AcDbEntity
  8
ASSI
100
AcDbCircle
 62
253
  6
CONTINUOUS
 10
9.288107352
 20
18.3940668574
 40
1.0001648821
100
AcDbArc
 50
45.0075262522
 51
89.9924737478
  0
ARC
  5
5A8
100
AcDbEntity
  8
ASSI
100
AcDbCircle
 62
253
  6
CONTINUOUS
 10
-9.288107352
 20
18.3940668574
 40
1.0001648821
100
AcDbArc
 50
90.0075262522
 51
134.9924737478
  0
ARC
  5
5A9
100
AcDbEntity
  8
RACCORDO
100
AcDbCircle
 62
253
  6
CONTINUOUS
 10
-8.7590190667
 20
17.50962327
 40
0.9998351509
100
AcDbArc
 50
134.9997022418
 51
180.0002977582
  0
ARC
  5
5AA
100
AcDbEntity
  8
RACCORDO
100
AcDbCircle
 62
253
  6
CONTINUOUS
 10
8.7590190667
 20
17.50962327
 40
0.9998351509
100
AcDbArc
 50
359.9997022418
 51
45.0002977582
  0
ARC
  5
5AB
100
AcDbEntity
  8
ASSI
100
AcDbCircle
 62
253
  6
CONTINUOUS
 10
-8.7590190667
 20
17.50962327
 40
0.9998351509
100
AcDbArc
 50
134.9997022418
 51
180.0002977582
  0
ARC
  5
5AC
100
AcDbEntity
  8
ASSI
100
AcDbCircle
 62
253
  6
CONTINUOUS
 10
8.7590190667
 20
17.50962327
 40
0.9998351509
100
AcDbArc
 50
359.9997022418
 51
45.0002977582
  0
CIRCLE
  5
5AD
100
AcDbEntity
  8
0
100
AcDbCircle
 62
253
  6
CONTINUOUS
 10
5.99852
 20
12.500551
 40
0.591552
  0
CIRCLE
  5
5AE
100
AcDbEntity
  8
IMPORT_IGES
100
AcDbCircle
 62
253
  6
CONTINUOUS
 10
5.99852
 20
12.500551
 40
0.591552
  0
ARC
  5
5AF
100
AcDbEntity
  8
RACCORDO
100
AcDbCircle
 62
7
  6
CONTINUOUS
 10
10.6323927659
 20
21.8998729306
 40
0.5001270694
100
AcDbArc
 50
87.982455317
 51
90.0000178743
  0
ARC
  5
5B0
100
AcDbEntity
  8
RACCORDO
100
AcDbCircle
 62
7
  6
CONTINUOUS
 10
-10.6323927659
 20
21.8998729305
 40
0.5001270695
100
AcDbArc
 50
89.9999821258
 51
92.0175446829
  0
ARC
  5
5B1
100
AcDbEntity
  8
RACCORDO
100
AcDbCircle
 62
7
  6
CONTINUOUS
 10
10.6324618824
 20
21.9001237906
 40
0.499875135
100
AcDbArc
 50
63.4318543999
 51
87.9894638354
  0
ARC
  5
5B2
100
AcDbEntity
  8
RACCORDO
100
AcDbCircle
 62
7
  6
CONTINUOUS
 10
-10.6324618824
 20
21.9001237906
 40
0.499875135
100
AcDbArc
 50
92.0105361646
 51
116.5681456001
  0
CIRCLE
  5
5B3
100
AcDbEntity
  8
0
100
AcDbCircle
 62
253
  6
CONTINUOUS
 10
5.99852
 20
12.500551
 40
0.419297
  0
CIRCLE
  5
5B4
100
AcDbEntity
  8
IMPORT_IGES
100
AcDbCircle
 62
253
  6
CONTINUOUS
 10
5.99852
 20
12.500551
 40
0.419297
  0
ARC
  5
5B5
100
AcDbEntity
  8
RACCORDO
100
AcDbCircle
 62
253
  6
CONTINUOUS
 10
10.3956221828
 20
24.2456221828
 40
0.2500059834
100
AcDbArc
 50
0.0023408263
 51
89.9976591737
  0
ARC
  5
5B6
100
AcDbEntity
  8
RACCORDO
100
AcDbCircle
 62
253
  6
CONTINUOUS
 10
8.5043778172
 20
24.2456221828
 40
0.2500059834
100
AcDbArc
 50
90.0023408263
 51
179.9976591737
  0
ARC
  5
5B7
100
AcDbEntity
  8
RACCORDO
100
AcDbCircle
 62
253
  6
CONTINUOUS
 10
-8.5043778172
 20
24.2456221828
 40
0.2500059834
100
AcDbArc
 50
0.0023408215
 51
89.9976591785
  0
ARC
  5
5B8
100
AcDbEntity
  8
RACCORDO
100
AcDbCircle
 62
253
  6
CONTINUOUS
 10
-10.3956221828
 20
24.2456221828
 40
0.2500059834
100
AcDbArc
 50
90.0023408215
 51
179.9976591785
  0
ARC
  5
5B9
100
AcDbEntity
  8
RACCORDO
100
AcDbCircle
 62
7
  6
CONTINUOUS
 10
8.4999946513
 20
24.2500053487
 40
0.2499946513
100
AcDbArc
 50
89.9997437926
 51
180.0002562074
  0
ARC
  5
5BA
100
AcDbEntity
  8
RACCORDO
100
AcDbCircle
 62
7
  6
CONTINUOUS
 10
10.4000053487
 20
24.2500053487
 40
0.2499946513
100
AcDbArc
 50
359.9997437926
 51
90.0002562074
  0
ARC
  5
5BB
100
AcDbEntity
  8
RACCORDO
100
AcDbCircle
 62
7
  6
CONTINUOUS
 10
-8.4999946513
 20
24.2500053487
 40
0.2499946513
100
AcDbArc
 50
359.9997437926
 51
90.0002562074
  0
ARC
  5
5BC
100
AcDbEntity
  8
RACCORDO
100
AcDbCircle
 62
7
  6
CONTINUOUS
 10
-10.4000053487
 20
24.2500053487
 40
0.2499946513
100
AcDbArc
 50
89.9997437926
 51
180.0002562074
  0
SPLINE
  5
5BD
100
AcDbEntity
  8
ASSI
100
AcDbSpline
 62
7
  6
CONTINUOUS
 70
0
 71
3
 72
20
 73
16
 74
14
 42
0.0000001
 43
0.0000001
 44
0.0000000001
 12
0.4451253217
 22
-0.481128015
 32
0.0
 13
0.0252813737
 23
-0.6549668472
 33
0.0
 40
0.0
 40
0.0
 40
0.0
 40
0.0
 40
0.1613624194
 40
0.3205394016
 40
0.4750144272
 40
0.6215131146
 40
0.6903945975
 40
0.7553930767
 40
0.8155665889
 40
0.8697817855
 40
0.9167083814
 40
0.9548763341
 40
0.9828739203
 40
0.9927751655
 40
1.0
 40
1.0
 40
1.0
 40
1.0
 10
3.9279699877
 20
-23.2563578147
 30
0.0
 10
3.951912154
 20
-23.2822364749
 30
0.0
 10
3.9994723381
 20
-23.3336431907
 30
0.0
 10
4.0698358237
 20
-23.4099321919
 30
0.0
 10
4.1377437006
 20
-23.48406751
 30
0.0
 10
4.1919635948
 20
-23.5439864117
 30
0.0
 10
4.2326812955
 20
-23.5897547101
 30
0.0
 10
4.2606181382
 20
-23.6216470785
 30
0.0
 10
4.2861284811
 20
-23.6514045179
 30
0.0
 10
4.3086438841
 20
-23.678518785
 30
0.0
 10
4.32754486
 20
-23.702393376
 30
0.0
 10
4.3420677422
 20
-23.722366856
 30
0.0
 10
4.3509649314
 20
-23.736488781
 30
0.0
 10
4.3549427914
 20
-23.7455117382
 30
0.0
 10
4.3558718482
 20
-23.7491960824
 30
0.0
 10
4.3559327327
 20
-23.7507734247
 30
0.0
 11
3.9279699877
 21
-23.2563578147
 31
0.0
 11
3.9997765949
 21
-23.3340121936
 31
0.0
 11
4.0704877548
 21
-23.4107283322
 31
0.0
 11
4.1388431419
 21
-23.4854235788
 31
0.0
 11
4.2032052128
 21
-23.5566835667
 31
0.0
 11
4.2332005713
 21
-23.5904279314
 31
0.0
 11
4.2612534815
 21
-23.6224918804
 31
0.0
 11
4.2868924139
 21
-23.6524624993
 31
0.0
 11
4.3095479031
 21
-23.6798396365
 31
0.0
 11
4.3285453323
 21
-23.7040298781
 31
0.0
 11
4.3431216653
 21
-23.7243620891
 31
0.0
 11
4.3524856812
 21
-23.7401443506
 31
0.0
 11
4.3549846384
 21
-23.7461337523
 31
0.0
 11
4.3559327327
 21
-23.7507734247
 31
0.0
  0
SPLINE
  5
5BE
100
AcDbEntity
  8
ASSI
100
AcDbSpline
 62
7
  6
CONTINUOUS
 70
0
 71
3
 72
20
 73
16
 74
14
 42
0.0000001
 43
0.0000001
 44
0.0000000001
 12
0.0
 22
0.6558200277
 32
0.0
 13
0.4453734942
 23
0.4813962602
 33
0.0
 40
0.0
 40
0.0
 40
0.0
 40
0.0
 40
0.0070071177
 40
0.01668237
 40
0.0442826676
 40
0.0821596683
 40
0.1289001864
 40
0.183019437
 40
0.2431697754
 40
0.308202048
 40
0.3771610573
 40
0.52390693
 40
0.6787070216
 40
0.8382514921
 40
1.0
 40
1.0
 40
1.0
 40
1.0
 10
3.5
 20
-23.7511422903
 30
0.0
 10
3.5
 20
-23.7496104876
 30
0.0
 10
3.5008279741
 20
-23.7459920004
 30
0.0
 10
3.5046355706
 20
-23.7370905783
 30
0.0
 10
3.5133792568
 20
-23.7230895487
 30
0.0
 10
3.5277542088
 20
-23.7032307909
 30
0.0
 10
3.5465632505
 20
-23.6794198937
 30
0.0
 10
3.5690308218
 20
-23.6523275287
 30
0.0
 10
3.5945316812
 20
-23.6225575401
 30
0.0
 10
3.622488756
 20
-23.5906258882
 30
0.0
 10
3.6632738224
 20
-23.5447668792
 30
0.0
 10
3.7176145724
 20
-23.4847049887
 30
0.0
 10
3.7856966931
 20
-23.410374666
 30
0.0
 10
3.8562585792
 20
-23.333869156
 30
0.0
 10
3.903957155
 20
-23.282312857
 30
0.0
 10
3.9279699877
 20
-23.2563578147
 30
0.0
 11
3.5
 21
-23.7511422903
 31
0.0
 11
3.5008025423
 21
-23.7466175029
 31
0.0
 11
3.5031705536
 21
-23.7407307047
 31
0.0
 11
3.51232034
 21
-23.725112722
 31
0.0
 11
3.5267455395
 21
-23.7048898675
 31
0.0
 11
3.5456488336
 21
-23.6807590898
 31
0.0
 11
3.568257971
 21
-23.6533995643
 31
0.0
 11
3.5938888167
 21
-23.6234130939
 31
0.0
 11
3.6219635342
 21
-23.5913072182
 31
0.0
 11
3.65200367
 21
-23.5575009513
 31
0.0
 11
3.7165038336
 21
-23.4860751061
 31
0.0
 11
3.7850385246
 21
-23.4111784464
 31
0.0
 11
3.8559515595
 21
-23.3342415048
 31
0.0
 11
3.9279699877
 21
-23.2563578147
 31
0.0
  0
SPLINE
  5
5BF
100
AcDbEntity
  8
ASSI
100
AcDbSpline
 62
7
  6
CONTINUOUS
 70
0
 71
3
 72
20
 73
16
 74
14
 42
0.0000001
 43
0.0000001
 44
0.0000000001
 12
0.4453734937
 22
-0.4813962596
 32
0.0
 13
0.0
 23
-0.6558200269
 33
0.0
 40
0.0
 40
0.0
 40
0.0
 40
0.0
 40
0.1617484059
 40
0.321292825
 40
0.4760929288
 40
0.6228387844
 40
0.6917977694
 40
0.7568300229
 40
0.8169803595
 40
0.8710996206
 40
0.9178401742
 40
0.9557172281
 40
0.9833175966
 40
0.9929928691
 40
1.0
 40
1.0
 40
1.0
 40
1.0
 10
-3.9279699877
 20
-23.2563578147
 30
0.0
 10
-3.9039571701
 20
-23.2823128406
 30
0.0
 10
-3.8562586171
 20
-23.3338691148
 30
0.0
 10
-3.785696752
 20
-23.4103746019
 30
0.0
 10
-3.7176146391
 20
-23.4847049149
 30
0.0
 10
-3.6632738928
 20
-23.5447668001
 30
0.0
 10
-3.6224888349
 20
-23.5906257989
 30
0.0
 10
-3.5945317668
 20
-23.6225574434
 30
0.0
 10
-3.5690309065
 20
-23.6523274283
 30
0.0
 10
-3.5465633263
 20
-23.6794197982
 30
0.0
 10
-3.5277542694
 20
-23.7032307115
 30
0.0
 10
-3.5133792949
 20
-23.7230894948
 30
0.0
 10
-3.5046355826
 20
-23.7370905474
 30
0.0
 10
-3.5008279823
 20
-23.7459919915
 30
0.0
 10
-3.5
 20
-23.7496104847
 30
0.0
 10
-3.5
 20
-23.7511422903
 30
0.0
 11
-3.9279699877
 21
-23.2563578147
 31
0.0
 11
-3.8559516049
 21
-23.3342414555
 31
0.0
 11
-3.7850385928
 21
-23.411178372
 31
0.0
 11
-3.7165038959
 21
-23.4860750371
 31
0.0
 11
-3.6520037393
 21
-23.5575008734
 31
0.0
 11
-3.621963614
 21
-23.591307128
 31
0.0
 11
-3.5938889042
 21
-23.6234129939
 31
0.0
 11
-3.5682580572
 21
-23.6533994616
 31
0.0
 11
-3.5456489129
 21
-23.6807589903
 31
0.0
 11
-3.5267456023
 21
-23.7048897846
 31
0.0
 11
-3.5123203782
 21
-23.7251126644
 31
0.0
 11
-3.503170564
 21
-23.7407306846
 31
0.0
 11
-3.5008025478
 21
-23.746617495
 31
0.0
 11
-3.5
 21
-23.7511422903
 31
0.0
  0
SPLINE
  5
5C0
100
AcDbEntity
  8
ASSI
100
AcDbSpline
 62
7
  6
CONTINUOUS
 70
0
 71
3
 72
20
 73
16
 74
14
 42
0.0000001
 43
0.0000001
 44
0.0000000001
 12
0.0252813737
 22
0.6549668479
 32
0.0
 13
0.4451253222
 23
0.4811280155
 33
0.0
 40
0.0
 40
0.0
 40
0.0
 40
0.0
 40
0.0072248217
 40
0.0171260471
 40
0.0451235654
 40
0.0832914673
 40
0.1302180295
 40
0.1844332165
 40
0.2446067311
 40
0.3096052295
 40
0.3784867363
 40
0.5249854411
 40
0.6794604545
 40
0.8386374838
 40
1.0
 40
1.0
 40
1.0
 40
1.0
 10
-4.3559327327
 20
-23.7507734247
 30
0.0
 10
-4.3558718483
 20
-23.7491960852
 30
0.0
 10
-4.3549427991
 20
-23.7455117468
 30
0.0
 10
-4.3509649436
 20
-23.7364888107
 30
0.0
 10
-4.3420677788
 20
-23.7223669077
 30
0.0
 10
-4.3275449184
 20
-23.702393452
 30
0.0
 10
-4.3086439567
 20
-23.6785188763
 30
0.0
 10
-4.286128562
 20
-23.6514046138
 30
0.0
 10
-4.2606182196
 20
-23.6216471704
 30
0.0
 10
-4.2326813703
 20
-23.5897547946
 30
0.0
 10
-4.191963661
 20
-23.543986486
 30
0.0
 10
-4.137743763
 20
-23.4840675791
 30
0.0
 10
-4.0698358789
 20
-23.409932252
 30
0.0
 10
-3.9994723738
 20
-23.3336432295
 30
0.0
 10
-3.9519121683
 20
-23.2822364904
 30
0.0
 10
-3.9279699877
 20
-23.2563578147
 30
0.0
 11
-4.3559327327
 21
-23.7507734247
 31
0.0
 11
-4.3549846436
 21
-23.7461337599
 31
0.0
 11
-4.3524856915
 21
-23.74014437
 31
0.0
 11
-4.3431217022
 21
-23.7243621445
 31
0.0
 11
-4.3285453928
 21
-23.7040299575
 31
0.0
 11
-4.3095479791
 21
-23.6798397317
 31
0.0
 11
-4.2868924963
 21
-23.6524625974
 31
0.0
 11
-4.2612535649
 21
-23.6224919755
 31
0.0
 11
-4.2332006468
 21
-23.5904280166
 31
0.0
 11
-4.203205278
 21
-23.55668364
 31
0.0
 11
-4.1388431999
 21
-23.4854236431
 31
0.0
 11
-4.0704878187
 21
-23.4107284019
 31
0.0
 11
-3.999776638
 21
-23.3340122404
 31
0.0
 11
-3.9279699877
 21
-23.2563578147
 31
0.0
  0
SPLINE
  5
5C1
100
AcDbEntity
  8
ASSI
100
AcDbSpline
 62
7
  6
CONTINUOUS
 70
0
 71
3
 72
20
 73
16
 74
14
 42
0.0000001
 43
0.0000001
 44
0.0000000001
 12
-0.0252813737
 22
-0.6549668482
 32
0.0
 13
-0.4451253224
 23
-0.4811280157
 33
0.0
 40
0.0
 40
0.0
 40
0.0
 40
0.0
 40
0.0072248101
 40
0.0171260486
 40
0.0451237695
 40
0.0832920408
 40
0.1302189132
 40
0.1844342364
 40
0.2446077607
 40
0.3096061118
 40
0.378487439
 40
0.5249858569
 40
0.6794608614
 40
0.838637846
 40
1.0
 40
1.0
 40
1.0
 40
1.0
 10
4.3559327327
 20
23.7507734247
 30
0.0
 10
4.3558718484
 20
23.7491960877
 30
0.0
 10
4.3549428042
 20
23.7455117479
 30
0.0
 10
4.3509649227
 20
23.7364887736
 30
0.0
 10
4.3420676872
 20
23.7223667645
 30
0.0
 10
4.3275446959
 20
23.7023931651
 30
0.0
 10
4.3086436218
 20
23.6785184514
 30
0.0
 10
4.2861281493
 20
23.6514041237
 30
0.0
 10
4.2606177946
 20
23.6216466915
 30
0.0
 10
4.2326809922
 20
23.5897543667
 30
0.0
 10
4.1919633693
 20
23.5439861607
 30
0.0
 10
4.1377435392
 20
23.4840673324
 30
0.0
 10
4.0698357039
 20
23.4099320613
 30
0.0
 10
3.9994722601
 20
23.3336431058
 30
0.0
 10
3.9519121146
 20
23.2822364324
 30
0.0
 10
3.9279699877
 20
23.2563578147
 30
0.0
 11
4.3559327327
 21
23.7507734247
 31
0.0
 11
4.3549846482
 21
23.7461337667
 31
0.0
 11
4.3524856912
 21
23.7401443696
 31
0.0
 11
4.3431216281
 21
23.7243620334
 31
0.0
 11
4.3285451651
 21
23.7040296586
 31
0.0
 11
4.3095476183
 21
23.6798392787
 31
0.0
 11
4.2868920667
 21
23.6524620856
 31
0.0
 11
4.26125312
 21
23.6224914684
 31
0.0
 11
4.2332002635
 21
23.5904275837
 31
0.0
 11
4.2032049717
 21
23.5566832963
 31
0.0
 11
4.1388430172
 21
23.4854234411
 31
0.0
 11
4.0704876386
 21
23.4107282053
 31
0.0
 11
3.9997764772
 21
23.3340120658
 31
0.0
 11
3.9279699877
 21
23.2563578147
 31
0.0
  0
SPLINE
  5
5C2
100
AcDbEntity
  8
ASSI
100
AcDbSpline
 62
7
  6
CONTINUOUS
 70
0
 71
3
 72
20
 73
16
 74
14
 42
0.0000001
 43
0.0000001
 44
0.0000000001
 12
-0.445373495
 22
0.4813962611
 32
0.0
 13
0.0
 23
0.6558200289
 33
0.0
 40
0.0
 40
0.0
 40
0.0
 40
0.0
 40
0.1617482366
 40
0.3212927077
 40
0.4760927764
 40
0.6228383737
 40
0.691797223
 40
0.7568293683
 40
0.816979722
 40
0.871099107
 40
0.9178399145
 40
0.9557172384
 40
0.9833176649
 40
0.9929929087
 40
1.0
 40
1.0
 40
1.0
 40
1.0
 10
3.9279699877
 20
23.2563578147
 30
0.0
 10
3.9039571952
 20
23.2823128135
 30
0.0
 10
3.8562586592
 20
23.3338690689
 30
0.0
 10
3.7856968164
 20
23.4103745317
 30
0.0
 10
3.7176147387
 20
23.4847048057
 30
0.0
 10
3.6632740542
 20
23.5447666207
 30
0.0
 10
3.6224890673
 20
23.5906255359
 30
0.0
 10
3.5945320327
 20
23.622557144
 30
0.0
 10
3.5690311594
 20
23.6523271271
 30
0.0
 10
3.5465635148
 20
23.6794195565
 30
0.0
 10
3.527754372
 20
23.7032305811
 30
0.0
 10
3.5133793084
 20
23.7230894604
 30
0.0
 10
3.5046355787
 20
23.7370905742
 30
0.0
 10
3.5008279597
 20
23.7459920114
 30
0.0
 10
3.5
 20
23.7496104934
 30
0.0
 10
3.5
 20
23.7511422903
 30
0.0
 11
3.9279699877
 21
23.2563578147
 31
0.0
 11
3.8559516799
 21
23.334241374
 31
0.0
 11
3.7850386443
 21
23.4111783158
 31
0.0
 11
3.7165039624
 21
23.4860749638
 31
0.0
 11
3.6520039178
 21
23.5575006733
 31
0.0
 11
3.6219638506
 21
23.5913068608
 31
0.0
 11
3.5938891863
 21
23.6234126723
 31
0.0
 11
3.5682583246
 21
23.6533991423
 31
0.0
 11
3.5456491212
 21
23.6807587277
 31
0.0
 11
3.5267457044
 21
23.7048896505
 31
0.0
 11
3.5123203734
 21
23.7251126717
 31
0.0
 11
3.5031705425
 21
23.7407307262
 31
0.0
 11
3.5008025316
 21
23.7466175185
 31
0.0
 11
3.5
 21
23.7511422903
 31
0.0
  0
SPLINE
  5
5C3
100
AcDbEntity
  8
ASSI
100
AcDbSpline
 62
7
  6
CONTINUOUS
 70
0
 71
3
 72
20
 73
16
 74
14
 42
0.0000001
 43
0.0000001
 44
0.0000000001
 12
0.0
 22
-0.655820028
 32
0.0
 13
-0.4453734945
 23
-0.4813962605
 33
0.0
 40
0.0
 40
0.0
 40
0.0
 40
0.0
 40
0.0070071055
 40
0.0166823709
 40
0.0442828746
 40
0.082160257
 40
0.1289011048
 40
0.1830205033
 40
0.243170855
 40
0.3082029787
 40
0.3771618017
 40
0.5239073782
 40
0.6787074564
 40
0.8382518717
 40
1.0
 40
1.0
 40
1.0
 40
1.0
 10
-3.5
 20
23.7511422903
 30
0.0
 10
-3.5
 20
23.7496104903
 30
0.0
 10
-3.5008279684
 20
23.7459920018
 30
0.0
 10
-3.5046355916
 20
23.7370905407
 30
0.0
 10
-3.5133793499
 20
23.7230894019
 30
0.0
 10
-3.5277544382
 20
23.7032304945
 30
0.0
 10
-3.5465635981
 20
23.6794194517
 30
0.0
 10
-3.5690312528
 20
23.6523270162
 30
0.0
 10
-3.5945321274
 20
23.622557037
 30
0.0
 10
-3.6224891546
 20
23.5906254371
 30
0.0
 10
-3.6632741319
 20
23.5447665336
 30
0.0
 10
-3.7176148114
 20
23.4847047253
 30
0.0
 10
-3.7856968797
 20
23.4103744627
 30
0.0
 10
-3.8562586996
 20
23.3338690249
 30
0.0
 10
-3.9039572113
 20
23.2823127961
 30
0.0
 10
-3.9279699877
 20
23.2563578147
 30
0.0
 11
-3.5
 21
23.7511422903
 31
0.0
 11
-3.5008025375
 21
23.7466175101
 31
0.0
 11
-3.5031705537
 21
23.7407307047
 31
0.0
 11
-3.5123204148
 21
23.7251126091
 31
0.0
 11
-3.5267457729
 21
23.7048895603
 31
0.0
 11
-3.5456492082
 21
23.6807586185
 31
0.0
 11
-3.5682584201
 21
23.6533990286
 31
0.0
 11
-3.5938892833
 21
23.6234125616
 31
0.0
 11
-3.6219639386
 21
23.5913067613
 31
0.0
 11
-3.6520039946
 21
23.5575005869
 31
0.0
 11
-3.7165040306
 21
23.4860748882
 31
0.0
 11
-3.7850387171
 21
23.4111782362
 31
0.0
 11
-3.855951728
 21
23.3342413217
 31
0.0
 11
-3.9279699877
 21
23.2563578147
 31
0.0
  0
SPLINE
  5
5C4
100
AcDbEntity
  8
ASSI
100
AcDbSpline
 62
7
  6
CONTINUOUS
 70
0
 71
3
 72
20
 73
16
 74
14
 42
0.0000001
 43
0.0000001
 44
0.0000000001
 12
-0.4451253229
 22
0.4811280162
 32
0.0
 13
-0.0252813737
 23
0.6549668489
 33
0.0
 40
0.0
 40
0.0
 40
0.0
 40
0.0
 40
0.1613622567
 40
0.3205392927
 40
0.4750142876
 40
0.6215127267
 40
0.6903940797
 40
0.7553924524
 40
0.8155659793
 40
0.8697812898
 40
0.9167081239
 40
0.9548763397
 40
0.9828739863
 40
0.9927752037
 40
1.0
 40
1.0
 40
1.0
 40
1.0
 10
-3.9279699877
 20
23.2563578147
 30
0.0
 10
-3.9519121299
 20
23.2822364489
 30
0.0
 10
-3.9994722982
 20
23.3336431472
 30
0.0
 10
-4.0698357633
 20
23.4099321261
 30
0.0
 10
-4.1377436075
 20
23.4840674079
 30
0.0
 10
-4.1919634425
 20
23.5439862428
 30
0.0
 10
-4.232681075
 20
23.5897544604
 30
0.0
 10
-4.2606178848
 20
23.6216467934
 30
0.0
 10
-4.2861282387
 20
23.6514042296
 30
0.0
 10
-4.3086437016
 20
23.6785185518
 30
0.0
 10
-4.3275447595
 20
23.7023932482
 30
0.0
 10
-4.342067727
 20
23.7223668207
 30
0.0
 10
-4.3509649358
 20
23.7364888057
 30
0.0
 10
-4.3549428125
 20
23.7455117571
 30
0.0
 10
-4.3558718485
 20
23.7491960907
 30
0.0
 10
-4.3559327327
 20
23.7507734247
 30
0.0
 11
-3.9279699877
 21
23.2563578147
 31
0.0
 11
-3.9997765229
 21
23.3340121154
 31
0.0
 11
-4.070487707
 21
23.4107282799
 31
0.0
 11
-4.1388430809
 21
23.4854235117
 31
0.0
 11
-4.2032050442
 21
23.5566833778
 31
0.0
 11
-4.233200347
 21
23.5904276781
 31
0.0
 11
-4.2612532124
 21
23.6224915738
 31
0.0
 11
-4.286892158
 21
23.6524621942
 31
0.0
 11
-4.3095477018
 21
23.6798393833
 31
0.0
 11
-4.3285452308
 21
23.7040297451
 31
0.0
 11
-4.3431216682
 21
23.7243620936
 31
0.0
 11
-4.3524857022
 21
23.7401443905
 31
0.0
 11
-4.3549846538
 21
23.7461337747
 31
0.0
 11
-4.3559327327
 21
23.7507734247
 31
0.0
  0
SPLINE
  5
5C5
100
AcDbEntity
  8
RACCORDO
100
AcDbSpline
 62
7
  6
CONTINUOUS
 70
0
 71
3
 72
10
 73
6
 74
4
 42
0.0000001
 43
0.0000001
 44
0.0000000001
 12
-0.3127578542
 22
0.4423063992
 32
0.0
 13
-0.292680328
 23
0.455840599
 33
0.0
 40
0.0
 40
0.0
 40
0.0
 40
0.0
 40
0.5096488713
 40
0.7586453896
 40
1.0
 40
1.0
 40
1.0
 40
1.0
 10
-7.5841007192
 20
21.3126932437
 30
0.0
 10
-7.6372329483
 20
21.3878335627
 30
0.0
 10
-7.716355377
 20
21.4996676405
 30
0.0
 10
-7.8184797954
 20
21.6485895888
 30
0.0
 10
-7.8673368915
 20
21.7224434496
 30
0.0
 10
-7.8908834737
 20
21.7591165263
 30
0.0
 11
-7.5841007192
 21
21.3126932437
 31
0.0
 11
-7.7427970122
 21
21.5386078259
 31
0.0
 11
-7.8189457104
 21
21.649941607
 31
0.0
 11
-7.8908834737
 21
21.7591165263
 31
0.0
  0
SPLINE
  5
5C6
100
AcDbEntity
  8
RACCORDO
100
AcDbSpline
 62
7
  6
CONTINUOUS
 70
0
 71
3
 72
10
 73
6
 74
4
 42
0.0000001
 43
0.0000001
 44
0.0000000001
 12
-0.292680328
 22
-0.455840599
 32
0.0
 13
-0.3127578542
 23
-0.4423063992
 33
0.0
 40
0.0
 40
0.0
 40
0.0
 40
0.0
 40
0.2413546104
 40
0.4903511287
 40
1.0
 40
1.0
 40
1.0
 40
1.0
 10
7.8908834737
 20
21.7591165263
 30
0.0
 10
7.8673368915
 20
21.7224434496
 30
0.0
 10
7.8184797954
 20
21.6485895888
 30
0.0
 10
7.716355377
 20
21.4996676405
 30
0.0
 10
7.6372329483
 20
21.3878335627
 30
0.0
 10
7.5841007192
 20
21.3126932437
 30
0.0
 11
7.8908834737
 21
21.7591165263
 31
0.0
 11
7.8189457104
 21
21.649941607
 31
0.0
 11
7.7427970122
 21
21.5386078259
 31
0.0
 11
7.5841007192
 21
21.3126932437
 31
0.0
  0
SPLINE
  5
5C7
100
AcDbEntity
  8
RACCORDO
100
AcDbSpline
 62
7
  6
CONTINUOUS
 70
0
 71
3
 72
10
 73
6
 74
4
 42
0.0000001
 43
0.0000001
 44
0.0000000001
 12
0.292680328
 22
0.455840599
 32
0.0
 13
0.3127578542
 23
0.4423063992
 33
0.0
 40
0.0
 40
0.0
 40
0.0
 40
0.0
 40
0.2413546104
 40
0.4903511287
 40
1.0
 40
1.0
 40
1.0
 40
1.0
 10
-7.8908834737
 20
-21.7591165263
 30
0.0
 10
-7.8673368915
 20
-21.7224434496
 30
0.0
 10
-7.8184797954
 20
-21.6485895888
 30
0.0
 10
-7.716355377
 20
-21.4996676405
 30
0.0
 10
-7.6372329483
 20
-21.3878335627
 30
0.0
 10
-7.5841007192
 20
-21.3126932437
 30
0.0
 11
-7.8908834737
 21
-21.7591165263
 31
0.0
 11
-7.8189457104
 21
-21.649941607
 31
0.0
 11
-7.7427970122
 21
-21.5386078259
 31
0.0
 11
-7.5841007192
 21
-21.3126932437
 31
0.0
  0
SPLINE
  5
5C8
100
AcDbEntity
  8
RACCORDO
100
AcDbSpline
 62
7
  6
CONTINUOUS
 70
0
 71
3
 72
10
 73
6
 74
4
 42
0.0000001
 43
0.0000001
 44
0.0000000001
 12
0.3127578542
 22
-0.4423063992
 32
0.0
 13
0.292680328
 23
-0.455840599
 33
0.0
 40
0.0
 40
0.0
 40
0.0
 40
0.0
 40
0.5096488713
 40
0.7586453896
 40
1.0
 40
1.0
 40
1.0
 40
1.0
 10
7.5841007192
 20
-21.3126932437
 30
0.0
 10
7.6372329483
 20
-21.3878335627
 30
0.0
 10
7.716355377
 20
-21.4996676405
 30
0.0
 10
7.8184797954
 20
-21.6485895888
 30
0.0
 10
7.8673368915
 20
-21.7224434496
 30
0.0
 10
7.8908834737
 20
-21.7591165263
 30
0.0
 11
7.5841007192
 21
-21.3126932437
 31
0.0
 11
7.7427970122
 21
-21.5386078259
 31
0.0
 11
7.8189457104
 21
-21.649941607
 31
0.0
 11
7.8908834737
 21
-21.7591165263
 31
0.0
  0
SPLINE
  5
5C9
100
AcDbEntity
  8
RACCORDO
100
AcDbSpline
 62
253
  6
CONTINUOUS
 70
0
 71
3
 72
13
 73
9
 74
7
 42
0.0000001
 43
0.0000001
 44
0.0000000001
 12
-0.0012265939
 22
-0.3651868479
 32
0.0
 13
-0.3651877491
 23
-0.0009199789
 33
0.0
 40
0.0
 40
0.0
 40
0.0
 40
0.0
 40
0.1162399782
 40
0.2339778175
 40
0.3543713311
 40
0.4780980184
 40
0.7345386243
 40
1.0
 40
1.0
 40
1.0
 40
1.0
 10
10.645628166
 20
23.8443375673
 30
0.0
 10
10.6455806396
 20
23.8301877969
 30
0.0
 10
10.6422223551
 20
23.8016148029
 30
0.0
 10
10.6276650278
 20
23.7606547352
 30
0.0
 10
10.6041946141
 20
23.7229828841
 30
0.0
 10
10.561892224
 20
23.6786204872
 30
0.0
 10
10.4919652956
 20
23.6387874753
 30
0.0
 10
10.4279468109
 20
23.6279126226
 30
0.0
 10
10.3956323968
 20
23.6278312164
 30
0.0
 11
10.645628166
 21
23.8443375673
 31
0.0
 11
10.6407004657
 21
23.8021749995
 31
0.0
 11
10.626389741
 21
23.7616298799
 31
0.0
 11
10.6032441408
 21
23.7242490909
 31
0.0
 11
10.5721495847
 21
23.6914666636
 31
0.0
 11
10.4911334639
 21
23.6444924903
 31
0.0
 11
10.3956323968
 21
23.6278312164
 31
0.0
  0
SPLINE
  5
5CA
100
AcDbEntity
  8
RACCORDO
100
AcDbSpline
 62
253
  6
CONTINUOUS
 70
0
 71
3
 72
13
 73
9
 74
7
 42
0.0000001
 43
0.0000001
 44
0.0000000001
 12
0.0012265939
 22
-0.3651868488
 32
0.0
 13
0.36518775
 23
-0.0009199789
 33
0.0
 40
0.0
 40
0.0
 40
0.0
 40
0.0
 40
0.1162401487
 40
0.2339779758
 40
0.3543714899
 40
0.478098162
 40
0.7345387303
 40
1.0
 40
1.0
 40
1.0
 40
1.0
 10
8.254371834
 20
23.8443375673
 30
0.0
 10
8.2544193605
 20
23.8301877761
 30
0.0
 10
8.2577776481
 20
23.8016147615
 30
0.0
 10
8.2723350011
 20
23.7606546823
 30
0.0
 10
8.295805421
 20
23.7229828394
 30
0.0
 10
8.3381078178
 20
23.6786204573
 30
0.0
 10
8.408034735
 20
23.6387874669
 30
0.0
 10
8.472053202
 20
23.6279126226
 30
0.0
 10
8.5043676032
 20
23.6278312164
 30
0.0
 11
8.254371834
 21
23.8443375673
 31
0.0
 11
8.2592995465
 21
23.8021749381
 31
0.0
 11
8.2736102851
 21
23.761629828
 31
0.0
 11
8.2967558954
 21
23.7242490449
 31
0.0
 11
8.3278504554
 21
23.6914666288
 31
0.0
 11
8.4088665728
 21
23.6444924765
 31
0.0
 11
8.5043676032
 21
23.6278312164
 31
0.0
  0
SPLINE
  5
5CB
100
AcDbEntity
  8
RACCORDO
100
AcDbSpline
 62
253
  6
CONTINUOUS
 70
0
 71
3
 72
13
 73
9
 74
7
 42
0.0000001
 43
0.0000001
 44
0.0000000001
 12
-0.0012265939
 22
-0.3651868479
 32
0.0
 13
-0.3651877491
 23
-0.0009199789
 33
0.0
 40
0.0
 40
0.0
 40
0.0
 40
0.0
 40
0.1162399782
 40
0.2339778175
 40
0.3543713311
 40
0.4780980184
 40
0.7345386243
 40
1.0
 40
1.0
 40
1.0
 40
1.0
 10
-8.254371834
 20
23.8443375673
 30
0.0
 10
-8.2544193604
 20
23.8301877969
 30
0.0
 10
-8.2577776449
 20
23.8016148029
 30
0.0
 10
-8.2723349722
 20
23.7606547352
 30
0.0
 10
-8.2958053859
 20
23.7229828841
 30
0.0
 10
-8.338107776
 20
23.6786204872
 30
0.0
 10
-8.4080347044
 20
23.6387874753
 30
0.0
 10
-8.4720531891
 20
23.6279126226
 30
0.0
 10
-8.5043676032
 20
23.6278312164
 30
0.0
 11
-8.254371834
 21
23.8443375673
 31
0.0
 11
-8.2592995343
 21
23.8021749995
 31
0.0
 11
-8.273610259
 21
23.7616298799
 31
0.0
 11
-8.2967558592
 21
23.7242490909
 31
0.0
 11
-8.3278504153
 21
23.6914666636
 31
0.0
 11
-8.4088665361
 21
23.6444924903
 31
0.0
 11
-8.5043676032
 21
23.6278312164
 31
0.0
  0
SPLINE
  5
5CC
100
AcDbEntity
  8
RACCORDO
100
AcDbSpline
 62
253
  6
CONTINUOUS
 70
0
 71
3
 72
13
 73
9
 74
7
 42
0.0000001
 43
0.0000001
 44
0.0000000001
 12
0.0012265939
 22
-0.3651868479
 32
0.0
 13
0.3651877491
 23
-0.0009199789
 33
0.0
 40
0.0
 40
0.0
 40
0.0
 40
0.0
 40
0.1162399782
 40
0.2339778175
 40
0.3543713311
 40
0.4780980184
 40
0.7345386243
 40
1.0
 40
1.0
 40
1.0
 40
1.0
 10
-10.645628166
 20
23.8443375673
 30
0.0
 10
-10.6455806396
 20
23.8301877969
 30
0.0
 10
-10.6422223551
 20
23.8016148029
 30
0.0
 10
-10.6276650278
 20
23.7606547352
 30
0.0
 10
-10.6041946141
 20
23.7229828841
 30
0.0
 10
-10.561892224
 20
23.6786204872
 30
0.0
 10
-10.4919652956
 20
23.6387874753
 30
0.0
 10
-10.4279468109
 20
23.6279126226
 30
0.0
 10
-10.3956323968
 20
23.6278312164
 30
0.0
 11
-10.645628166
 21
23.8443375673
 31
0.0
 11
-10.6407004657
 21
23.8021749995
 31
0.0
 11
-10.626389741
 21
23.7616298799
 31
0.0
 11
-10.6032441408
 21
23.7242490909
 31
0.0
 11
-10.5721495847
 21
23.6914666636
 31
0.0
 11
-10.4911334639
 21
23.6444924903
 31
0.0
 11
-10.3956323968
 21
23.6278312164
 31
0.0
  0
SPLINE
  5
5CD
100
AcDbEntity
  8
RACCORDO
100
AcDbSpline
 62
7
  6
CONTINUOUS
 70
0
 71
3
 72
15
 73
11
 74
9
 42
0.0000001
 43
0.0000001
 44
0.0000000001
 12
0.0031741022
 22
0.3149998123
 32
0.0
 13
0.3150158039
 23
0.0
 33
0.0
 40
0.0
 40
0.0
 40
0.0
 40
0.0
 40
0.0847129374
 40
0.1757006909
 40
0.2778081862
 40
0.3942292046
 40
0.5263924491
 40
0.6737522819
 40
0.8333934372
 40
1.0
 40
1.0
 40
1.0
 40
1.0
 10
8.254371834
 20
-23.8443375673
 30
0.0
 10
8.2544614632
 20
-23.8354427142
 30
0.0
 10
8.2577030547
 20
-23.8169151481
 30
0.0
 10
8.2712510165
 20
-23.7906750928
 30
0.0
 10
8.2931173207
 20
-23.7662437729
 30
0.0
 10
8.3229647126
 20
-23.7443139213
 30
0.0
 10
8.3603248417
 20
-23.7256847024
 30
0.0
 10
8.404297613
 20
-23.7113065128
 30
0.0
 10
8.4533081754
 20
-23.7021703171
 30
0.0
 10
8.4876002652
 20
-23.7
 30
0.0
 10
8.5050948319
 20
-23.7
 30
0.0
 11
8.254371834
 21
-23.8443375673
 31
0.0
 11
8.2588255818
 21
-23.8180259322
 31
0.0
 11
8.2716467936
 21
-23.7923907994
 31
0.0
 11
8.2927961599
 21
-23.7681560707
 31
0.0
 11
8.322129078
 21
-23.7461425298
 31
0.0
 11
8.3592515743
 21
-23.7272939361
 31
0.0
 11
8.4033052251
 21
-23.7126598996
 31
0.0
 11
8.4527144738
 21
-23.7032919418
 31
0.0
 11
8.5050948319
 21
-23.7
 31
0.0
  0
SPLINE
  5
5CE
100
AcDbEntity
  8
RACCORDO
100
AcDbSpline
 62
7
  6
CONTINUOUS
 70
0
 71
3
 72
17
 73
13
 74
11
 42
0.0000001
 43
0.0000001
 44
0.0000000001
 12
0.376066623
 22
0.4535097807
 32
0.0
 13
0.010276082
 23
0.5890599531
 33
0.0
 40
0.0
 40
0.0
 40
0.0
 40
0.0
 40
0.1537578349
 40
0.3056770223
 40
0.4536743609
 40
0.5951176179
 40
0.7264001503
 40
0.8423792007
 40
0.8924937835
 40
0.9359999855
 40
0.9719683595
 40
1.0
 40
1.0
 40
1.0
 40
1.0
 10
-6.9
 20
-20.5829242832
 30
0.0
 10
-6.8807256034
 20
-20.5596807225
 30
0.0
 10
-6.8424070684
 20
-20.5134717826
 30
0.0
 10
-6.7857620682
 20
-20.4447026951
 30
0.0
 10
-6.7311418305
 20
-20.3774019441
 30
0.0
 10
-6.6798898666
 20
-20.3125885228
 30
0.0
 10
-6.6338676648
 20
-20.2516846699
 30
0.0
 10
-6.6003911709
 20
-20.2037803265
 30
0.0
 10
-6.5789113017
 20
-20.1686555144
 30
0.0
 10
-6.5669847745
 20
-20.1461310373
 30
0.0
 10
-6.5589900786
 20
-20.1265751966
 30
0.0
 10
-6.5562856898
 20
-20.1141101455
 30
0.0
 10
-6.5561896713
 20
-20.1086060399
 30
0.0
 11
-6.9
 21
-20.5829242832
 31
0.0
 11
-6.8422150985
 21
-20.5131618689
 31
0.0
 11
-6.7853573357
 21
-20.4440387597
 31
0.0
 11
-6.7304772168
 21
-20.3762839313
 31
0.0
 11
-6.6789029721
 21
-20.3108301915
 31
0.0
 11
-6.6324618419
 21
-20.248979743
 31
0.0
 11
-6.5937939628
 21
-20.1926445981
 31
0.0
 11
-6.5785143237
 21
-20.1673808416
 31
0.0
 11
-6.5667118387
 21
-20.1446281852
 31
0.0
 11
-6.5590489268
 21
-20.1248714707
 31
0.0
 11
-6.5561896713
 21
-20.1086060399
 31
0.0
  0
SPLINE
  5
5CF
100
AcDbEntity
  8
RACCORDO
100
AcDbSpline
 62
7
  6
CONTINUOUS
 70
0
 71
3
 72
15
 73
11
 74
9
 42
0.0000001
 43
0.0000001
 44
0.0000000001
 12
0.3142904289
 22
0.0
 32
0.0
 13
0.0031667933
 23
-0.3142744742
 33
0.0
 40
0.0
 40
0.0
 40
0.0
 40
0.0
 40
0.1666545511
 40
0.3262779792
 40
0.4735916211
 40
0.6057108254
 40
0.7221085607
 40
0.8242207343
 40
0.9152394685
 40
1.0
 40
1.0
 40
1.0
 40
1.0
 10
10.3956323968
 20
-23.7
 30
0.0
 10
10.4130917069
 20
-23.7
 30
0.0
 10
10.4473034732
 20
-23.7022700651
 30
0.0
 10
10.4961878482
 20
-23.7114284588
 30
0.0
 10
10.540028913
 20
-23.7258344539
 30
0.0
 10
10.5772691987
 20
-23.744460098
 30
0.0
 10
10.6070169748
 20
-23.7663702269
 30
0.0
 10
10.6288084606
 20
-23.7907682484
 30
0.0
 10
10.6423087823
 20
-23.8169652651
 30
0.0
 10
10.645538693
 20
-23.8354582101
 30
0.0
 10
10.645628166
 20
-23.8443375673
 30
0.0
 11
10.3956323968
 21
-23.7
 31
0.0
 11
10.4479016168
 21
-23.7033728661
 31
0.0
 11
10.49717892
 21
-23.7127849448
 31
0.0
 11
10.5410978905
 21
-23.7274391667
 31
0.0
 11
10.5780992753
 21
-23.7462838901
 31
0.0
 11
10.6073337071
 21
-23.7682757411
 31
0.0
 11
10.6284113806
 21
-23.7924766616
 31
0.0
 11
10.6411891944
 21
-23.8180705836
 31
0.0
 11
10.645628166
 21
-23.8443375673
 31
0.0
  0
SPLINE
  5
5D0
100
AcDbEntity
  8
RACCORDO
100
AcDbSpline
 62
7
  6
CONTINUOUS
 70
0
 71
3
 72
17
 73
13
 74
11
 42
0.0000001
 43
0.0000001
 44
0.0000000001
 12
0.010276082
 22
-0.5890599531
 32
0.0
 13
0.376066623
 23
-0.4535097807
 33
0.0
 40
0.0
 40
0.0
 40
0.0
 40
0.0
 40
0.0280316405
 40
0.0640000145
 40
0.1075062165
 40
0.1576207993
 40
0.2735998497
 40
0.4048823821
 40
0.5463256391
 40
0.6943229777
 40
0.8462421651
 40
1.0
 40
1.0
 40
1.0
 40
1.0
 10
6.5561896713
 20
-20.1086060399
 30
0.0
 10
6.5562856898
 20
-20.1141101455
 30
0.0
 10
6.5589900786
 20
-20.1265751966
 30
0.0
 10
6.5669847745
 20
-20.1461310373
 30
0.0
 10
6.5789113017
 20
-20.1686555144
 30
0.0
 10
6.6003911709
 20
-20.2037803265
 30
0.0
 10
6.6338676648
 20
-20.2516846699
 30
0.0
 10
6.6798898666
 20
-20.3125885228
 30
0.0
 10
6.7311418305
 20
-20.3774019441
 30
0.0
 10
6.7857620682
 20
-20.4447026951
 30
0.0
 10
6.8424070684
 20
-20.5134717826
 30
0.0
 10
6.8807256034
 20
-20.5596807225
 30
0.0
 10
6.9
 20
-20.5829242832
 30
0.0
 11
6.5561896713
 21
-20.1086060399
 31
0.0
 11
6.5590489268
 21
-20.1248714707
 31
0.0
 11
6.5667118387
 21
-20.1446281852
 31
0.0
 11
6.5785143237
 21
-20.1673808416
 31
0.0
 11
6.5937939628
 21
-20.1926445981
 31
0.0
 11
6.6324618419
 21
-20.248979743
 31
0.0
 11
6.6789029721
 21
-20.3108301915
 31
0.0
 11
6.7304772168
 21
-20.3762839313
 31
0.0
 11
6.7853573357
 21
-20.4440387597
 31
0.0
 11
6.8422150986
 21
-20.5131618689
 31
0.0
 11
6.9
 21
-20.5829242832
 31
0.0
  0
SPLINE
  5
5D1
100
AcDbEntity
  8
RACCORDO
100
AcDbSpline
 62
7
  6
CONTINUOUS
 70
0
 71
3
 72
17
 73
13
 74
11
 42
0.0000001
 43
0.0000001
 44
0.0000000001
 12
-0.376066623
 22
-0.4535097807
 32
0.0
 13
-0.010276082
 23
-0.5890599531
 33
0.0
 40
0.0
 40
0.0
 40
0.0
 40
0.0
 40
0.1537578349
 40
0.3056770223
 40
0.4536743609
 40
0.5951176179
 40
0.7264001503
 40
0.8423792007
 40
0.8924937835
 40
0.9359999855
 40
0.9719683595
 40
1.0
 40
1.0
 40
1.0
 40
1.0
 10
6.9
 20
20.5829242832
 30
0.0
 10
6.8807256034
 20
20.5596807225
 30
0.0
 10
6.8424070684
 20
20.5134717826
 30
0.0
 10
6.7857620682
 20
20.4447026951
 30
0.0
 10
6.7311418305
 20
20.3774019441
 30
0.0
 10
6.6798898666
 20
20.3125885228
 30
0.0
 10
6.6338676648
 20
20.2516846699
 30
0.0
 10
6.6003911709
 20
20.2037803265
 30
0.0
 10
6.5789113017
 20
20.1686555144
 30
0.0
 10
6.5669847745
 20
20.1461310373
 30
0.0
 10
6.5589900786
 20
20.1265751966
 30
0.0
 10
6.5562856898
 20
20.1141101455
 30
0.0
 10
6.5561896713
 20
20.1086060399
 30
0.0
 11
6.9
 21
20.5829242832
 31
0.0
 11
6.8422150986
 21
20.5131618689
 31
0.0
 11
6.7853573357
 21
20.4440387597
 31
0.0
 11
6.7304772168
 21
20.3762839313
 31
0.0
 11
6.6789029721
 21
20.3108301915
 31
0.0
 11
6.6324618419
 21
20.248979743
 31
0.0
 11
6.5937939628
 21
20.1926445981
 31
0.0
 11
6.5785143237
 21
20.1673808416
 31
0.0
 11
6.5667118387
 21
20.1446281852
 31
0.0
 11
6.5590489268
 21
20.1248714707
 31
0.0
 11
6.5561896713
 21
20.1086060399
 31
0.0
  0
SPLINE
  5
5D2
100
AcDbEntity
  8
RACCORDO
100
AcDbSpline
 62
7
  6
CONTINUOUS
 70
0
 71
3
 72
17
 73
13
 74
11
 42
0.0000001
 43
0.0000001
 44
0.0000000001
 12
-0.010276082
 22
0.5890599531
 32
0.0
 13
-0.376066623
 23
0.4535097807
 33
0.0
 40
0.0
 40
0.0
 40
0.0
 40
0.0
 40
0.0280316405
 40
0.0640000145
 40
0.1075062165
 40
0.1576207993
 40
0.2735998497
 40
0.4048823821
 40
0.5463256391
 40
0.6943229777
 40
0.8462421651
 40
1.0
 40
1.0
 40
1.0
 40
1.0
 10
-6.5561896713
 20
20.1086060399
 30
0.0
 10
-6.5562856898
 20
20.1141101455
 30
0.0
 10
-6.5589900786
 20
20.1265751966
 30
0.0
 10
-6.5669847745
 20
20.1461310373
 30
0.0
 10
-6.5789113017
 20
20.1686555144
 30
0.0
 10
-6.6003911709
 20
20.2037803265
 30
0.0
 10
-6.6338676648
 20
20.2516846699
 30
0.0
 10
-6.6798898666
 20
20.3125885228
 30
0.0
 10
-6.7311418305
 20
20.3774019441
 30
0.0
 10
-6.7857620682
 20
20.4447026951
 30
0.0
 10
-6.8424070684
 20
20.5134717826
 30
0.0
 10
-6.8807256034
 20
20.5596807225
 30
0.0
 10
-6.9
 20
20.5829242832
 30
0.0
 11
-6.5561896713
 21
20.1086060399
 31
0.0
 11
-6.5590489268
 21
20.1248714707
 31
0.0
 11
-6.5667118387
 21
20.1446281852
 31
0.0
 11
-6.5785143237
 21
20.1673808416
 31
0.0
 11
-6.5937939628
 21
20.1926445981
 31
0.0
 11
-6.6324618419
 21
20.248979743
 31
0.0
 11
-6.6789029721
 21
20.3108301915
 31
0.0
 11
-6.7304772168
 21
20.3762839313
 31
0.0
 11
-6.7853573357
 21
20.4440387597
 31
0.0
 11
-6.8422150985
 21
20.5131618689
 31
0.0
 11
-6.9
 21
20.5829242832
 31
0.0
  0
SPLINE
  5
5D3
100
AcDbEntity
  8
RACCORDO
100
AcDbSpline
 62
253
  6
CONTINUOUS
 70
0
 71
3
 72
13
 73
9
 74
7
 42
0.0000001
 43
0.0000001
 44
0.0000000001
 12
0.0012265939
 22
0.3651868479
 32
0.0
 13
0.3651877491
 23
0.0009199789
 33
0.0
 40
0.0
 40
0.0
 40
0.0
 40
0.0
 40
0.1162399782
 40
0.2339778175
 40
0.3543713311
 40
0.4780980184
 40
0.7345386243
 40
1.0
 40
1.0
 40
1.0
 40
1.0
 10
-10.645628166
 20
-23.8443375673
 30
0.0
 10
-10.6455806396
 20
-23.8301877969
 30
0.0
 10
-10.6422223551
 20
-23.8016148029
 30
0.0
 10
-10.6276650278
 20
-23.7606547352
 30
0.0
 10
-10.6041946141
 20
-23.7229828841
 30
0.0
 10
-10.561892224
 20
-23.6786204872
 30
0.0
 10
-10.4919652956
 20
-23.6387874753
 30
0.0
 10
-10.4279468109
 20
-23.6279126226
 30
0.0
 10
-10.3956323968
 20
-23.6278312164
 30
0.0
 11
-10.645628166
 21
-23.8443375673
 31
0.0
 11
-10.6407004657
 21
-23.8021749995
 31
0.0
 11
-10.626389741
 21
-23.7616298799
 31
0.0
 11
-10.6032441408
 21
-23.7242490909
 31
0.0
 11
-10.5721495847
 21
-23.6914666636
 31
0.0
 11
-10.4911334639
 21
-23.6444924903
 31
0.0
 11
-10.3956323968
 21
-23.6278312164
 31
0.0
  0
SPLINE
  5
5D4
100
AcDbEntity
  8
RACCORDO
100
AcDbSpline
 62
253
  6
CONTINUOUS
 70
0
 71
3
 72
13
 73
9
 74
7
 42
0.0000001
 43
0.0000001
 44
0.0000000001
 12
-0.0012265939
 22
0.3651868486
 32
0.0
 13
-0.3651877498
 23
0.0009199789
 33
0.0
 40
0.0
 40
0.0
 40
0.0
 40
0.0
 40
0.1162401412
 40
0.2339779602
 40
0.3543714643
 40
0.4780981267
 40
0.7345386771
 40
1.0
 40
1.0
 40
1.0
 40
1.0
 10
-8.254371834
 20
-23.8443375673
 30
0.0
 10
-8.2544193605
 20
-23.830187777
 30
0.0
 10
-8.2577776477
 20
-23.8016147644
 30
0.0
 10
-8.2723349985
 20
-23.7606546878
 30
0.0
 10
-8.2958054152
 20
-23.722982847
 30
0.0
 10
-8.3381078067
 20
-23.6786204663
 30
0.0
 10
-8.408034724
 20
-23.6387874704
 30
0.0
 10
-8.4720531955
 20
-23.6279126226
 30
0.0
 10
-8.5043676032
 20
-23.6278312164
 30
0.0
 11
-8.254371834
 21
-23.8443375673
 31
0.0
 11
-8.2592995459
 21
-23.8021749409
 31
0.0
 11
-8.2736102825
 21
-23.7616298332
 31
0.0
 11
-8.2967558894
 21
-23.7242490524
 31
0.0
 11
-8.3278504455
 21
-23.6914666374
 31
0.0
 11
-8.4088665543
 21
-23.6444924834
 31
0.0
 11
-8.5043676032
 21
-23.6278312164
 31
0.0
  0
LINE
  5
5D5
100
AcDbEntity
  8
RACCORDO
100
AcDbLine
 62
7
  6
CONTINUOUS
 10
-6.5592180311
 20
-19.7564431031
 11
-6.5561896713
 21
-19.7561896713
  0
LINE
  5
5D6
100
AcDbEntity
  8
RACCORDO
100
AcDbLine
 62
7
  6
CONTINUOUS
 10
-7.2438103287
 20
-19.7561896713
 11
-7.2407819689
 21
-19.7564431031
  0
SPLINE
  5
5D7
100
AcDbEntity
  8
RACCORDO
100
AcDbSpline
 62
7
  6
CONTINUOUS
 70
0
 71
3
 72
20
 73
16
 74
14
 42
0.0000001
 43
0.0000001
 44
0.0000000001
 12
0.4544938874
 22
-0.0197774588
 32
0.0
 13
0.3324459503
 23
-0.3105407086
 33
0.0
 40
0.0
 40
0.0
 40
0.0
 40
0.0
 40
0.0066227489
 40
0.0160112777
 40
0.0432231529
 40
0.0808641638
 40
0.1274753272
 40
0.1815431787
 40
0.2416996689
 40
0.3067827407
 40
0.3758299327
 40
0.5228288916
 40
0.6779519615
 40
0.8378666588
 40
1.0
 40
1.0
 40
1.0
 40
1.0
 10
-7.240783943
 20
-19.7564431031
 30
0.0
 10
-7.2397806101
 20
-19.7564867635
 30
0.0
 10
-7.2374023114
 20
-19.7571589093
 30
0.0
 10
-7.2314810609
 20
-19.7599593973
 30
0.0
 10
-7.2220492916
 20
-19.7661958364
 30
0.0
 10
-7.208548764
 20
-19.7763459898
 30
0.0
 10
-7.1922636059
 20
-19.789580105
 30
0.0
 10
-7.1736648162
 20
-19.8053554717
 30
0.0
 10
-7.1531789764
 20
-19.8232362615
 30
0.0
 10
-7.1311689311
 20
-19.842821106
 30
0.0
 10
-7.0995162129
 20
-19.8713783936
 30
0.0
 10
-7.05801028
 20
-19.9093952291
 30
0.0
 10
-7.006599564
 20
-19.9569967134
 30
0.0
 10
-6.953654653
 20
-20.006318622
 30
0.0
 10
-6.9179668576
 20
-20.0396550253
 30
0.0
 10
-6.9
 20
-20.0564380262
 30
0.0
 11
-7.240783943
 21
-19.7564431031
 31
0.0
 11
-7.2378447674
 21
-19.7571052933
 31
0.0
 11
-7.233946691
 21
-19.7588508632
 31
0.0
 11
-7.2234418442
 21
-19.7654003768
 31
0.0
 11
-7.2096921479
 21
-19.7756067642
 31
0.0
 11
-7.1931867691
 21
-19.7889185954
 31
0.0
 11
-7.1744044402
 21
-19.8048001845
 31
0.0
 11
-7.1537696758
 21
-19.8227762514
 31
0.0
 11
-7.1316399613
 21
-19.8424460399
 31
0.0
 11
-7.1083098224
 21
-19.8634786251
 31
0.0
 11
-7.0589584571
 21
-19.9086060911
 31
0.0
 11
-7.0071567067
 21
-19.956528858
 31
0.0
 11
-6.953911996
 21
-20.0061012554
 31
0.0
 11
-6.9
 21
-20.0564380262
 31
0.0
  0
SPLINE
  5
5D8
100
AcDbEntity
  8
RACCORDO
100
AcDbSpline
 62
7
  6
CONTINUOUS
 70
0
 71
3
 72
20
 73
16
 74
14
 42
0.0000001
 43
0.0000001
 44
0.0000000001
 12
0.3324459616
 22
0.3105407191
 32
0.0
 13
0.4544939028
 23
0.0197774594
 33
0.0
 40
0.0
 40
0.0
 40
0.0
 40
0.0
 40
0.1621109778
 40
0.3220138461
 40
0.4771328859
 40
0.6241367773
 40
0.6931940107
 40
0.7582820948
 40
0.8184459252
 40
0.8725230646
 40
0.9191392063
 40
0.9567815318
 40
0.9839921408
 40
0.9933787545
 40
1.0
 40
1.0
 40
1.0
 40
1.0
 10
-6.9
 20
-20.0564380262
 30
0.0
 10
-6.88203562
 20
-20.0396573397
 30
0.0
 10
-6.8463516148
 20
-20.0063244719
 30
0.0
 10
-6.7934109426
 20
-19.9570065136
 30
0.0
 10
-6.7420015823
 20
-19.9094059984
 30
0.0
 10
-6.7004942559
 20
-19.8713882278
 30
0.0
 10
-6.6688396738
 20
-19.8428284792
 30
0.0
 10
-6.6468269622
 20
-19.8232415193
 30
0.0
 10
-6.6263386511
 20
-19.8053585724
 30
0.0
 10
-6.6077375418
 20
-19.7895808711
 30
0.0
 10
-6.5914504771
 20
-19.7763453555
 30
0.0
 10
-6.577949263
 20
-19.7661948289
 30
0.0
 10
-6.5685176612
 20
-19.7599586876
 30
0.0
 10
-6.5625969919
 20
-19.7571585623
 30
0.0
 10
-6.5602191622
 20
-19.7564867536
 30
0.0
 10
-6.559216057
 20
-19.7564431031
 30
0.0
 11
-6.9
 21
-20.0564380262
 31
0.0
 11
-6.8460954404
 21
-20.0061081946
 31
0.0
 11
-6.7928546927
 21
-19.9565394342
 31
0.0
 11
-6.7410543468
 21
-19.9086178452
 31
0.0
 11
-6.6917013654
 21
-19.8634888181
 31
0.0
 11
-6.6683680059
 21
-19.8424529816
 31
0.0
 11
-6.6462365442
 21
-19.822781725
 31
0.0
 11
-6.6255992804
 21
-19.804803442
 31
0.0
 11
-6.6068138287
 21
-19.7889190008
 31
0.0
 11
-6.5903066406
 21
-19.7756058045
 31
0.0
 11
-6.5765563763
 21
-19.7653991777
 31
0.0
 11
-6.5660519238
 21
-19.7588501197
 31
0.0
 11
-6.5621545952
 21
-19.7571050114
 31
0.0
 11
-6.559216057
 21
-19.7564431031
 31
0.0
  0
LINE
  5
5D9
100
AcDbEntity
  8
RACCORDO
100
AcDbLine
 62
7
  6
CONTINUOUS
 10
7.2407819689
 20
-19.7564431031
 11
7.2438103287
 21
-19.7561896713
  0
LINE
  5
5DA
100
AcDbEntity
  8
RACCORDO
100
AcDbLine
 62
7
  6
CONTINUOUS
 10
6.5561896713
 20
-19.7561896713
 11
6.5592180311
 21
-19.7564431031
  0
SPLINE
  5
5DB
100
AcDbEntity
  8
RACCORDO
100
AcDbSpline
 62
7
  6
CONTINUOUS
 70
0
 71
3
 72
20
 73
16
 74
14
 42
0.0000001
 43
0.0000001
 44
0.0000000001
 12
-0.3324459508
 22
-0.310540709
 32
0.0
 13
-0.4544938881
 23
-0.0197774588
 33
0.0
 40
0.0
 40
0.0
 40
0.0
 40
0.0
 40
0.162133275
 40
0.3220479283
 40
0.4771710342
 40
0.6241700391
 40
0.6932172548
 40
0.7583003584
 40
0.818456884
 40
0.872524763
 40
0.919135933
 40
0.9567769266
 40
0.983988758
 40
0.9933772659
 40
1.0
 40
1.0
 40
1.0
 40
1.0
 10
-6.9
 20
20.0564380262
 30
0.0
 10
-6.9179668503
 20
20.0396550321
 30
0.0
 10
-6.9536546334
 20
20.0063186401
 30
0.0
 10
-7.0065995365
 20
19.9569967393
 30
0.0
 10
-7.0580102566
 20
19.9093952508
 30
0.0
 10
-7.099516201
 20
19.8713784039
 30
0.0
 10
-7.1311689309
 20
19.8428211063
 30
0.0
 10
-7.1531789864
 20
19.8232362525
 30
0.0
 10
-7.1736648371
 20
19.8053554532
 30
0.0
 10
-7.1922636355
 20
19.7895800804
 30
0.0
 10
-7.2085487961
 20
19.7763459645
 30
0.0
 10
-7.2220493186
 20
19.7661958172
 30
0.0
 10
-7.2314810785
 20
19.759959388
 30
0.0
 10
-7.2374023179
 20
19.7571589028
 30
0.0
 10
-7.2397806123
 20
19.7564867634
 30
0.0
 10
-7.240783943
 20
19.7564431031
 30
0.0
 11
-6.9
 21
20.0564380262
 31
0.0
 11
-6.953911974
 21
20.0061012758
 31
0.0
 11
-7.0071566702
 21
19.9565288921
 31
0.0
 11
-7.0589584326
 21
19.9086061137
 31
0.0
 11
-7.1083098131
 21
19.8634786334
 31
0.0
 11
-7.1316399601
 21
19.842446041
 31
0.0
 11
-7.1537696855
 21
19.8227762428
 31
0.0
 11
-7.1744044622
 21
19.8048001654
 31
0.0
 11
-7.1931868012
 21
19.7889185689
 31
0.0
 11
-7.2096921831
 21
19.7756067368
 31
0.0
 11
-7.2234418745
 21
19.7654003559
 31
0.0
 11
-7.2339467052
 21
19.758850854
 31
0.0
 11
-7.2378447732
 21
19.7571052888
 31
0.0
 11
-7.240783943
 21
19.7564431031
 31
0.0
  0
SPLINE
  5
5DC
100
AcDbEntity
  8
RACCORDO
100
AcDbSpline
 62
7
  6
CONTINUOUS
 70
0
 71
3
 72
20
 73
16
 74
14
 42
0.0000001
 43
0.0000001
 44
0.0000000001
 12
-0.4544939028
 22
0.0197774594
 32
0.0
 13
-0.3324459616
 23
0.3105407191
 33
0.0
 40
0.0
 40
0.0
 40
0.0
 40
0.0
 40
0.0066212455
 40
0.0160078592
 40
0.0432184682
 40
0.0808607937
 40
0.1274769354
 40
0.1815540748
 40
0.2417179052
 40
0.3068059893
 40
0.3758632227
 40
0.5228671141
 40
0.6779861539
 40
0.8378890222
 40
1.0
 40
1.0
 40
1.0
 40
1.0
 10
-6.559216057
 20
19.7564431031
 30
0.0
 10
-6.5602191622
 20
19.7564867536
 30
0.0
 10
-6.5625969919
 20
19.7571585623
 30
0.0
 10
-6.5685176612
 20
19.7599586876
 30
0.0
 10
-6.577949263
 20
19.7661948289
 30
0.0
 10
-6.5914504771
 20
19.7763453555
 30
0.0
 10
-6.6077375418
 20
19.7895808711
 30
0.0
 10
-6.6263386511
 20
19.8053585724
 30
0.0
 10
-6.6468269622
 20
19.8232415193
 30
0.0
 10
-6.6688396738
 20
19.8428284792
 30
0.0
 10
-6.7004942559
 20
19.8713882278
 30
0.0
 10
-6.7420015823
 20
19.9094059984
 30
0.0
 10
-6.7934109426
 20
19.9570065136
 30
0.0
 10
-6.8463516148
 20
20.0063244719
 30
0.0
 10
-6.88203562
 20
20.0396573397
 30
0.0
 10
-6.9
 20
20.0564380262
 30
0.0
 11
-6.559216057
 21
19.7564431031
 31
0.0
 11
-6.5621545952
 21
19.7571050114
 31
0.0
 11
-6.5660519238
 21
19.7588501197
 31
0.0
 11
-6.5765563763
 21
19.7653991777
 31
0.0
 11
-6.5903066406
 21
19.7756058045
 31
0.0
 11
-6.6068138287
 21
19.7889190008
 31
0.0
 11
-6.6255992804
 21
19.804803442
 31
0.0
 11
-6.6462365442
 21
19.822781725
 31
0.0
 11
-6.6683680059
 21
19.8424529816
 31
0.0
 11
-6.6917013654
 21
19.8634888181
 31
0.0
 11
-6.7410543468
 21
19.9086178452
 31
0.0
 11
-6.7928546927
 21
19.9565394342
 31
0.0
 11
-6.8460954404
 21
20.0061081946
 31
0.0
 11
-6.9
 21
20.0564380262
 31
0.0
  0
LINE
  5
5DD
100
AcDbEntity
  8
RACCORDO
100
AcDbLine
 62
7
  6
CONTINUOUS
 10
-6.5561896713
 20
19.7561896713
 11
-6.5592180311
 21
19.7564431031
  0
LINE
  5
5DE
100
AcDbEntity
  8
RACCORDO
100
AcDbLine
 62
7
  6
CONTINUOUS
 10
-7.2407819689
 20
19.7564431031
 11
-7.2438103287
 21
19.7561896713
  0
SPLINE
  5
5DF
100
AcDbEntity
  8
RACCORDO
100
AcDbSpline
 62
7
  6
CONTINUOUS
 70
0
 71
3
 72
20
 73
16
 74
14
 42
0.0000001
 43
0.0000001
 44
0.0000000001
 12
-0.3324459616
 22
-0.3105407191
 32
0.0
 13
-0.4544939028
 23
-0.0197774594
 33
0.0
 40
0.0
 40
0.0
 40
0.0
 40
0.0
 40
0.1621109778
 40
0.3220138461
 40
0.4771328859
 40
0.6241367773
 40
0.6931940107
 40
0.7582820948
 40
0.8184459252
 40
0.8725230646
 40
0.9191392063
 40
0.9567815318
 40
0.9839921408
 40
0.9933787545
 40
1.0
 40
1.0
 40
1.0
 40
1.0
 10
6.9
 20
20.0564380262
 30
0.0
 10
6.88203562
 20
20.0396573397
 30
0.0
 10
6.8463516148
 20
20.0063244719
 30
0.0
 10
6.7934109426
 20
19.9570065136
 30
0.0
 10
6.7420015823
 20
19.9094059984
 30
0.0
 10
6.7004942559
 20
19.8713882278
 30
0.0
 10
6.6688396738
 20
19.8428284792
 30
0.0
 10
6.6468269622
 20
19.8232415193
 30
0.0
 10
6.6263386511
 20
19.8053585724
 30
0.0
 10
6.6077375418
 20
19.7895808711
 30
0.0
 10
6.5914504771
 20
19.7763453555
 30
0.0
 10
6.577949263
 20
19.7661948289
 30
0.0
 10
6.5685176612
 20
19.7599586876
 30
0.0
 10
6.5625969919
 20
19.7571585623
 30
0.0
 10
6.5602191622
 20
19.7564867536
 30
0.0
 10
6.559216057
 20
19.7564431031
 30
0.0
 11
6.9
 21
20.0564380262
 31
0.0
 11
6.8460954404
 21
20.0061081946
 31
0.0
 11
6.7928546927
 21
19.9565394342
 31
0.0
 11
6.7410543468
 21
19.9086178452
 31
0.0
 11
6.6917013654
 21
19.8634888181
 31
0.0
 11
6.6683680059
 21
19.8424529816
 31
0.0
 11
6.6462365442
 21
19.822781725
 31
0.0
 11
6.6255992804
 21
19.804803442
 31
0.0
 11
6.6068138287
 21
19.7889190008
 31
0.0
 11
6.5903066406
 21
19.7756058045
 31
0.0
 11
6.5765563763
 21
19.7653991777
 31
0.0
 11
6.5660519238
 21
19.7588501197
 31
0.0
 11
6.5621545952
 21
19.7571050114
 31
0.0
 11
6.559216057
 21
19.7564431031
 31
0.0
  0
SPLINE
  5
5E0
100
AcDbEntity
  8
RACCORDO
100
AcDbSpline
 62
7
  6
CONTINUOUS
 70
0
 71
3
 72
20
 73
16
 74
14
 42
0.0000001
 43
0.0000001
 44
0.0000000001
 12
-0.4544938874
 22
0.0197774588
 32
0.0
 13
-0.3324459503
 23
0.3105407086
 33
0.0
 40
0.0
 40
0.0
 40
0.0
 40
0.0
 40
0.0066227489
 40
0.0160112777
 40
0.0432231529
 40
0.0808641638
 40
0.1274753272
 40
0.1815431787
 40
0.2416996689
 40
0.3067827407
 40
0.3758299327
 40
0.5228288916
 40
0.6779519615
 40
0.8378666588
 40
1.0
 40
1.0
 40
1.0
 40
1.0
 10
7.240783943
 20
19.7564431031
 30
0.0
 10
7.2397806101
 20
19.7564867635
 30
0.0
 10
7.2374023114
 20
19.7571589093
 30
0.0
 10
7.2314810609
 20
19.7599593973
 30
0.0
 10
7.2220492916
 20
19.7661958364
 30
0.0
 10
7.208548764
 20
19.7763459898
 30
0.0
 10
7.1922636059
 20
19.789580105
 30
0.0
 10
7.1736648162
 20
19.8053554717
 30
0.0
 10
7.1531789764
 20
19.8232362615
 30
0.0
 10
7.1311689311
 20
19.842821106
 30
0.0
 10
7.0995162129
 20
19.8713783936
 30
0.0
 10
7.05801028
 20
19.9093952291
 30
0.0
 10
7.006599564
 20
19.9569967134
 30
0.0
 10
6.953654653
 20
20.006318622
 30
0.0
 10
6.9179668576
 20
20.0396550253
 30
0.0
 10
6.9
 20
20.0564380262
 30
0.0
 11
7.240783943
 21
19.7564431031
 31
0.0
 11
7.2378447674
 21
19.7571052933
 31
0.0
 11
7.233946691
 21
19.7588508632
 31
0.0
 11
7.2234418442
 21
19.7654003768
 31
0.0
 11
7.2096921479
 21
19.7756067642
 31
0.0
 11
7.1931867691
 21
19.7889185954
 31
0.0
 11
7.1744044402
 21
19.8048001845
 31
0.0
 11
7.1537696758
 21
19.8227762514
 31
0.0
 11
7.1316399613
 21
19.8424460399
 31
0.0
 11
7.1083098224
 21
19.8634786251
 31
0.0
 11
7.0589584571
 21
19.9086060911
 31
0.0
 11
7.0071567067
 21
19.956528858
 31
0.0
 11
6.953911996
 21
20.0061012554
 31
0.0
 11
6.9
 21
20.0564380262
 31
0.0
  0
LINE
  5
5E1
100
AcDbEntity
  8
RACCORDO
100
AcDbLine
 62
7
  6
CONTINUOUS
 10
7.2438103287
 20
19.7561896713
 11
7.2407819689
 21
19.7564431031
  0
LINE
  5
5E2
100
AcDbEntity
  8
RACCORDO
100
AcDbLine
 62
7
  6
CONTINUOUS
 10
6.5592180311
 20
19.7564431031
 11
6.5561896713
 21
19.7561896713
  0
SPLINE
  5
5E3
100
AcDbEntity
  8
RACCORDO
100
AcDbSpline
 62
7
  6
CONTINUOUS
 70
0
 71
3
 72
20
 73
16
 74
14
 42
0.0000001
 43
0.0000001
 44
0.0000000001
 12
0.3324459508
 22
0.310540709
 32
0.0
 13
0.4544938881
 23
0.0197774588
 33
0.0
 40
0.0
 40
0.0
 40
0.0
 40
0.0
 40
0.162133275
 40
0.3220479283
 40
0.4771710342
 40
0.6241700391
 40
0.6932172548
 40
0.7583003584
 40
0.818456884
 40
0.872524763
 40
0.919135933
 40
0.9567769266
 40
0.983988758
 40
0.9933772659
 40
1.0
 40
1.0
 40
1.0
 40
1.0
 10
6.9
 20
-20.0564380262
 30
0.0
 10
6.9179668503
 20
-20.0396550321
 30
0.0
 10
6.9536546334
 20
-20.0063186401
 30
0.0
 10
7.0065995365
 20
-19.9569967393
 30
0.0
 10
7.0580102566
 20
-19.9093952508
 30
0.0
 10
7.099516201
 20
-19.8713784039
 30
0.0
 10
7.1311689309
 20
-19.8428211063
 30
0.0
 10
7.1531789864
 20
-19.8232362525
 30
0.0
 10
7.1736648371
 20
-19.8053554532
 30
0.0
 10
7.1922636355
 20
-19.7895800804
 30
0.0
 10
7.2085487961
 20
-19.7763459645
 30
0.0
 10
7.2220493186
 20
-19.7661958172
 30
0.0
 10
7.2314810785
 20
-19.759959388
 30
0.0
 10
7.2374023179
 20
-19.7571589028
 30
0.0
 10
7.2397806123
 20
-19.7564867634
 30
0.0
 10
7.240783943
 20
-19.7564431031
 30
0.0
 11
6.9
 21
-20.0564380262
 31
0.0
 11
6.953911974
 21
-20.0061012758
 31
0.0
 11
7.0071566702
 21
-19.9565288921
 31
0.0
 11
7.0589584326
 21
-19.9086061137
 31
0.0
 11
7.1083098131
 21
-19.8634786334
 31
0.0
 11
7.1316399601
 21
-19.842446041
 31
0.0
 11
7.1537696855
 21
-19.8227762428
 31
0.0
 11
7.1744044622
 21
-19.8048001654
 31
0.0
 11
7.1931868012
 21
-19.7889185689
 31
0.0
 11
7.2096921831
 21
-19.7756067368
 31
0.0
 11
7.2234418745
 21
-19.7654003559
 31
0.0
 11
7.2339467052
 21
-19.758850854
 31
0.0
 11
7.2378447732
 21
-19.7571052888
 31
0.0
 11
7.240783943
 21
-19.7564431031
 31
0.0
  0
SPLINE
  5
5E4
100
AcDbEntity
  8
RACCORDO
100
AcDbSpline
 62
7
  6
CONTINUOUS
 70
0
 71
3
 72
20
 73
16
 74
14
 42
0.0000001
 43
0.0000001
 44
0.0000000001
 12
0.4544939028
 22
-0.0197774594
 32
0.0
 13
0.3324459616
 23
-0.3105407191
 33
0.0
 40
0.0
 40
0.0
 40
0.0
 40
0.0
 40
0.0066212455
 40
0.0160078592
 40
0.0432184682
 40
0.0808607937
 40
0.1274769354
 40
0.1815540748
 40
0.2417179052
 40
0.3068059893
 40
0.3758632227
 40
0.5228671141
 40
0.6779861539
 40
0.8378890222
 40
1.0
 40
1.0
 40
1.0
 40
1.0
 10
6.559216057
 20
-19.7564431031
 30
0.0
 10
6.5602191622
 20
-19.7564867536
 30
0.0
 10
6.5625969919
 20
-19.7571585623
 30
0.0
 10
6.5685176612
 20
-19.7599586876
 30
0.0
 10
6.577949263
 20
-19.7661948289
 30
0.0
 10
6.5914504771
 20
-19.7763453555
 30
0.0
 10
6.6077375418
 20
-19.7895808711
 30
0.0
 10
6.6263386511
 20
-19.8053585724
 30
0.0
 10
6.6468269622
 20
-19.8232415193
 30
0.0
 10
6.6688396738
 20
-19.8428284792
 30
0.0
 10
6.7004942559
 20
-19.8713882278
 30
0.0
 10
6.7420015823
 20
-19.9094059984
 30
0.0
 10
6.7934109426
 20
-19.9570065136
 30
0.0
 10
6.8463516148
 20
-20.0063244719
 30
0.0
 10
6.88203562
 20
-20.0396573397
 30
0.0
 10
6.9
 20
-20.0564380262
 30
0.0
 11
6.559216057
 21
-19.7564431031
 31
0.0
 11
6.5621545952
 21
-19.7571050114
 31
0.0
 11
6.5660519238
 21
-19.7588501197
 31
0.0
 11
6.5765563763
 21
-19.7653991777
 31
0.0
 11
6.5903066406
 21
-19.7756058045
 31
0.0
 11
6.6068138287
 21
-19.7889190008
 31
0.0
 11
6.6255992804
 21
-19.804803442
 31
0.0
 11
6.6462365442
 21
-19.822781725
 31
0.0
 11
6.6683680059
 21
-19.8424529816
 31
0.0
 11
6.6917013654
 21
-19.8634888181
 31
0.0
 11
6.7410543468
 21
-19.9086178452
 31
0.0
 11
6.7928546927
 21
-19.9565394342
 31
0.0
 11
6.8460954404
 21
-20.0061081946
 31
0.0
 11
6.9
 21
-20.0564380262
 31
0.0
  0
SPLINE
  5
5E5
100
AcDbEntity
  8
IMPORT_IGES
100
AcDbSpline
 62
253
  6
CONTINUOUS
 70
0
 71
3
 72
15
 73
11
 74
9
 42
0.0000001
 43
0.0000001
 44
0.0000000001
 12
0.5879591364
 22
1.0594030304
 32
0.0
 13
1.2116231786
 23
-0.0
 33
0.0
 40
0.0
 40
0.0
 40
0.0
 40
0.0
 40
0.1202969539
 40
0.2420622802
 40
0.3666065154
 40
0.4926474892
 40
0.619745893
 40
0.7468184568
 40
0.8727468139
 40
1.0
 40
1.0
 40
1.0
 40
1.0
 10
4.999097183
 20
13.0529437178
 30
0.0
 10
5.0226737474
 20
13.0954247037
 30
0.0
 10
5.0763923291
 20
13.1775498383
 30
0.0
 10
5.1732918101
 20
13.2899963523
 30
0.0
 10
5.2852005734
 20
13.3910382459
 30
0.0
 10
5.4104843979
 20
13.4787402846
 30
0.0
 10
5.5467850976
 20
13.5503909846
 30
0.0
 10
5.6915562995
 20
13.6030431841
 30
0.0
 10
5.8425474915
 20
13.633801752
 30
0.0
 10
5.9449431866
 20
13.6402750798
 30
0.0
 10
5.9963374899
 20
13.6402750798
 30
0.0
 11
4.999097183
 21
13.0529437178
 31
0.0
 11
5.078600944
 21
13.175105696
 31
0.0
 11
5.1747383249
 21
13.2870154551
 31
0.0
 11
5.2866801327
 21
13.388208575
 31
0.0
 11
5.411813628
 21
13.4757484211
 31
0.0
 11
5.5482174474
 21
13.5472227007
 31
0.0
 11
5.6930261991
 21
13.5995233539
 31
0.0
 11
5.8424821788
 21
13.6302295364
 31
0.0
 11
5.9963374899
 21
13.6402750798
 31
0.0
  0
SPLINE
  5
5E6
100
AcDbEntity
  8
IMPORT_IGES
100
AcDbSpline
 62
253
  6
CONTINUOUS
 70
0
 71
3
 72
27
 73
23
 74
21
 42
0.0000001
 43
0.0000001
 44
0.0000000001
 12
3.6036409953
 22
0.0
 32
0.0
 13
-3.6025799422
 23
0.0874424583
 33
0.0
 40
0.0
 40
0.0
 40
0.0
 40
0.0
 40
0.0472863914
 40
0.0954378408
 40
0.1452412382
 40
0.1958966794
 40
0.2470628986
 40
0.2986527447
 40
0.3513523726
 40
0.4043029723
 40
0.4563174715
 40
0.5082516682
 40
0.5608684613
 40
0.6133287757
 40
0.6647358919
 40
0.7160385841
 40
0.7681078211
 40
0.8201056743
 40
0.8712166211
 40
0.9222810182
 40
0.9740615212
 40
1.0
 40
1.0
 40
1.0
 40
1.0
 10
5.9963374899
 20
13.6402750798
 30
0.0
 10
6.0531385494
 20
13.6402750798
 30
0.0
 10
6.1679544852
 20
13.6304891803
 30
0.0
 10
6.3380581568
 20
13.5891226855
 30
0.0
 10
6.5041126565
 20
13.5218488378
 30
0.0
 10
6.6616200846
 20
13.4290581563
 30
0.0
 10
6.8046590539
 20
13.3115383041
 30
0.0
 10
6.9269803835
 20
13.1691918841
 30
0.0
 10
7.0242232593
 20
13.0061991033
 30
0.0
 10
7.0929809412
 20
12.8287976529
 30
0.0
 10
7.13192426
 20
12.6435658513
 30
0.0
 10
7.1403631314
 20
12.4548303821
 30
0.0
 10
7.1172263518
 20
12.2667715144
 30
0.0
 10
7.0637368685
 20
12.0856596896
 30
0.0
 10
6.9815373133
 20
11.9174330032
 30
0.0
 10
6.8735838936
 20
11.7650785269
 30
0.0
 10
6.7418717156
 20
11.631666611
 30
0.0
 10
6.5903370901
 20
11.521695748
 30
0.0
 10
6.4240504595
 20
11.4382873177
 30
0.0
 10
6.2465923114
 20
11.3834695574
 30
0.0
 10
6.092669603
 20
11.3619080391
 30
0.0
 10
5.9992255201
 20
11.3603722814
 30
0.0
 10
5.968077039
 20
11.3611283228
 30
0.0
 11
5.9963374899
 21
13.6402750798
 31
0.0
 11
6.1661672469
 21
13.6263073693
 31
0.0
 11
6.3348500451
 21
13.5856196527
 31
0.0
 11
6.501220252
 21
13.5183016409
 31
0.0
 11
6.6584079378
 21
13.4254881058
 31
0.0
 11
6.8005562844
 21
13.3080506348
 31
0.0
 11
6.9218089723
 21
13.1671223145
 31
0.0
 11
7.0192749663
 21
13.0041303119
 31
0.0
 11
7.0883702404
 21
12.8262646633
 31
0.0
 11
7.1268869263
 21
12.6428230883
 31
0.0
 11
7.13513439
 21
12.4558527017
 31
0.0
 11
7.1120796683
 21
12.2676474873
 31
0.0
 11
7.058397765
 21
12.08638124
 31
0.0
 11
6.9771663642
 21
11.919887828
 31
0.0
 11
6.8702926012
 21
11.7690325551
 31
0.0
 11
6.7384559669
 21
11.6355131368
 31
0.0
 11
6.5867950158
 21
11.5254639742
 31
0.0
 11
6.4221060917
 21
11.4429905977
 31
0.0
 11
6.2463388995
 21
11.3885073134
 31
0.0
 11
6.0615371956
 21
11.3626757042
 31
0.0
 11
5.968077039
 21
11.3611283228
 31
0.0
  0
SPLINE
  5
5E7
100
AcDbEntity
  8
IMPORT_IGES
100
AcDbSpline
 62
253
  6
CONTINUOUS
 70
0
 71
3
 72
24
 73
20
 74
18
 42
0.0000001
 43
0.0000001
 44
0.0000000001
 12
-1.7308242538
 22
-0.0000430148
 32
0.0
 13
1.7308242543
 23
0.0
 33
0.0
 40
0.0
 40
0.0
 40
0.0
 40
0.0
 40
0.0599047632
 40
0.120167886
 40
0.1820108821
 40
0.2133364811
 40
0.2445292501
 40
0.3079067496
 40
0.3717975144
 40
0.4360679063
 40
0.5005637652
 40
0.6287518979
 40
0.6924967656
 40
0.7557025368
 40
0.7868411927
 40
0.8181203606
 40
0.8798918039
 40
0.9401126794
 40
1.0
 40
1.0
 40
1.0
 40
1.0
 10
2.6885985205
 20
11.9481015955
 30
0.0
 10
2.6540369815
 20
11.9481007366
 30
0.0
 10
2.584550388
 20
11.9555236688
 30
0.0
 10
2.4835413472
 20
11.9860204335
 30
0.0
 10
2.4041658739
 20
12.0264001818
 30
0.0
 10
2.3452438689
 20
12.0675050492
 30
0.0
 10
2.2898829547
 20
12.1146880963
 30
0.0
 10
2.2300049995
 20
12.1847474617
 30
0.0
 10
2.1767016727
 20
12.2823894389
 30
0.0
 10
2.1436148084
 20
12.389300842
 30
0.0
 10
2.1283090664
 20
12.537559606
 30
0.0
 10
2.159244881
 20
12.6871167797
 30
0.0
 10
2.2303915161
 20
12.816822043
 30
0.0
 10
2.2902076364
 20
12.8866966833
 30
0.0
 10
2.3454786088
 20
12.9337351391
 30
0.0
 10
2.4043391457
 20
12.9747555672
 30
0.0
 10
2.4836431743
 20
13.0150670196
 30
0.0
 10
2.5845832047
 20
13.0455267709
 30
0.0
 10
2.6540350013
 20
13.0529437178
 30
0.0
 10
2.688586477
 20
13.0529437178
 30
0.0
 11
2.6885985205
 21
11.9481015955
 31
0.0
 11
2.5854529515
 21
11.9586605446
 31
0.0
 11
2.4855372179
 21
11.9885997003
 31
0.0
 11
2.3901653877
 21
12.0371963884
 31
0.0
 11
2.3457155579
 21
12.068243516
 31
0.0
 11
2.3046722205
 21
12.1033188392
 31
0.0
 11
2.2333418385
 21
12.1866557361
 31
0.0
 11
2.1802010315
 21
12.2836341156
 31
0.0
 11
2.1472519435
 21
12.3898831757
 31
0.0
 11
2.1359933169
 21
12.5009449727
 31
0.0
 11
2.1805647242
 21
12.7182930521
 31
0.0
 11
2.2337270853
 21
12.8149715343
 31
0.0
 11
2.3049494226
 21
12.8980095918
 31
0.0
 11
2.345944727
 21
12.9329969373
 31
0.0
 11
2.3903439415
 21
12.9639761753
 31
0.0
 11
2.4856206927
 21
13.0124866632
 31
0.0
 11
2.5854706668
 21
13.0423905219
 31
0.0
 11
2.688586477
 21
13.0529437178
 31
0.0
  0
SPLINE
  5
5E8
100
AcDbEntity
  8
0
100
AcDbSpline
 62
253
  6
CONTINUOUS
 70
0
 71
3
 72
21
 73
17
 74
15
 42
0.0000001
 43
0.0000001
 44
0.0000000001
 12
0.0056066891
 22
8.1867213218
 32
0.0
 13
0.0056065146
 23
-8.1867217143
 33
0.0
 40
0.0
 40
0.0
 40
0.0
 40
0.0
 40
0.0714285714
 40
0.1428571429
 40
0.2142857143
 40
0.2857142857
 40
0.3571428571
 40
0.4285714286
 40
0.5
 40
0.5714285714
 40
0.6428571429
 40
0.7142857143
 40
0.7857142857
 40
0.8571428571
 40
0.9285714286
 40
1.0
 40
1.0
 40
1.0
 40
1.0
 10
10.9596867582
 20
-16.000003
 30
0.0
 10
10.9598202508
 20
-15.8050810638
 30
0.0
 10
10.9593007412
 20
-15.4119858959
 30
0.0
 10
10.9561992131
 20
-14.8492255142
 30
0.0
 10
10.9509397989
 20
-14.3414920485
 30
0.0
 10
10.9437992306
 20
-13.9159278213
 30
0.0
 10
10.9351536661
 20
-13.5948393728
 30
0.0
 10
10.9254584362
 20
-13.3951668157
 30
0.0
 10
10.9152241812
 20
-13.327418785
 30
0.0
 10
10.9049899247
 20
-13.3951660992
 30
0.0
 10
10.8952946906
 20
-13.5948379775
 30
0.0
 10
10.8866491193
 20
-13.9159258207
 30
0.0
 10
10.8795085419
 20
-14.3414895479
 30
0.0
 10
10.8742491169
 20
-14.8492226454
 30
0.0
 10
10.8711475768
 20
-15.41198281
 30
0.0
 10
10.8706280588
 20
-15.8050779415
 30
0.0
 10
10.8707615472
 20
-15.9999998871
 30
0.0
 11
10.9596867582
 21
-16.000003
 31
0.0
 11
10.9589136972
 21
-15.4164662909
 31
0.0
 11
10.9558395654
 21
-14.8583966668
 31
0.0
 11
10.9506262732
 21
-14.3551869216
 31
0.0
 11
10.9435483979
 21
-13.9333404511
 31
0.0
 11
10.9349787219
 21
-13.6150753547
 31
0.0
 11
10.9253685987
 21
-13.4171542368
 31
0.0
 11
10.915224181
 21
-13.3500013425
 31
0.0
 11
10.9050797618
 21
-13.4171535265
 31
0.0
 11
10.8954696344
 21
-13.6150739716
 31
0.0
 11
10.8868999516
 21
-13.9333384681
 31
0.0
 11
10.8798220673
 21
-14.355184443
 31
0.0
 11
10.8746087644
 21
-14.8583938232
 31
0.0
 11
10.8715346207
 21
-15.4164632321
 31
0.0
 11
10.8707615472
 21
-15.9999998871
 31
0.0
  0
SPLINE
  5
5E9
100
AcDbEntity
  8
0
100
AcDbSpline
 62
253
  6
CONTINUOUS
 70
0
 71
3
 72
12
 73
8
 74
6
 42
0.0000001
 43
0.0000001
 44
0.0000000001
 12
0.0433703147
 22
-0.5294162148
 32
0.0
 13
-0.0024635167
 23
-2.537275274
 33
0.0
 40
0.0
 40
0.0
 40
0.0
 40
0.0
 40
0.2
 40
0.4
 40
0.6
 40
0.8
 40
1.0
 40
1.0
 40
1.0
 40
1.0
 10
10.9217678038
 20
-14.1394958193
 30
0.0
 10
10.9246591581
 20
-14.1747902336
 30
0.0
 10
10.9302988336
 20
-14.293205054
 30
0.0
 10
10.9375302118
 20
-14.5985751356
 30
0.0
 10
10.9429901999
 20
-15.0078982758
 30
0.0
 10
10.9462350495
 20
-15.4879076435
 30
0.0
 10
10.946749425
 20
-15.8308483151
 30
0.0
 10
10.9465851905
 20
-16.0
 30
0.0
 11
10.9217678038
 21
-14.1394958193
 31
0.0
 11
10.9300941444
 21
-14.3144963625
 31
0.0
 11
10.9372349801
 21
-14.6159006454
 31
0.0
 11
10.9426210101
 21
-15.0196793137
 31
0.0
 11
10.9458228351
 21
-15.4936412501
 31
0.0
 11
10.9465851905
 21
-16.0
 31
0.0
  0
SPLINE
  5
5EA
100
AcDbEntity
  8
0
100
AcDbSpline
 62
253
  6
CONTINUOUS
 70
0
 71
3
 72
12
 73
8
 74
6
 42
0.0000001
 43
0.0000001
 44
0.0000000001
 12
-0.0024635867
 22
2.5372726921
 32
0.0
 13
0.0433702695
 23
0.5294170747
 33
0.0
 40
0.0
 40
0.0
 40
0.0
 40
0.0
 40
0.2
 40
0.4
 40
0.6
 40
0.8
 40
1.0
 40
1.0
 40
1.0
 40
1.0
 10
10.8838631729
 20
-16.0000027662
 30
0.0
 10
10.8836989338
 20
-15.8308512534
 30
0.0
 10
10.8842132998
 20
-15.4879108464
 30
0.0
 10
10.8874581354
 20
-15.0079016712
 30
0.0
 10
10.8929181108
 20
-14.5985785613
 30
0.0
 10
10.9001494778
 20
-14.2932083957
 30
0.0
 10
10.9057891469
 20
-14.1747934716
 30
0.0
 10
10.9086804982
 20
-14.139499
 30
0.0
 11
10.8838631729
 21
-16.0000027662
 31
0.0
 11
10.8846255142
 21
-15.4936444189
 31
0.0
 11
10.8878273254
 21
-15.0196826821
 31
0.0
 11
10.8932133427
 21
-14.615904052
 31
0.0
 11
10.9003541672
 21
-14.3144996923
 31
0.0
 11
10.9086804982
 21
-14.139499
 31
0.0
  0
SPLINE
  5
5EB
100
AcDbEntity
  8
0
100
AcDbSpline
 62
253
  6
CONTINUOUS
 70
0
 71
3
 72
21
 73
17
 74
15
 42
0.0000001
 43
0.0000001
 44
0.0000000001
 12
0.0056065189
 22
8.1867183462
 32
0.0
 13
0.0056065123
 23
-8.186718361
 33
0.0
 40
0.0
 40
0.0
 40
0.0
 40
0.0
 40
0.0714285714
 40
0.1428571429
 40
0.2142857143
 40
0.2857142857
 40
0.3571428571
 40
0.4285714286
 40
0.5
 40
0.5714285714
 40
0.6428571429
 40
0.7142857143
 40
0.7857142857
 40
0.8571428571
 40
0.9285714286
 40
1.0
 40
1.0
 40
1.0
 40
1.0
 10
10.9596867582
 20
-11.61489
 30
0.0
 10
10.9598202468
 20
-11.4199681346
 30
0.0
 10
10.9593007296
 20
-11.0268731645
 30
0.0
 10
10.9561991925
 20
-10.4641132033
 30
0.0
 10
10.9509397719
 20
-9.9563802399
 30
0.0
 10
10.9437992
 20
-9.5308165506
 30
0.0
 10
10.9351536347
 20
-9.2097286309
 30
0.0
 10
10.9254584063
 20
-9.0100565534
 30
0.0
 10
10.9152241548
 20
-8.9423089202
 30
0.0
 10
10.9049899033
 20
-9.0100565264
 30
0.0
 10
10.8952946748
 20
-9.2097285782
 30
0.0
 10
10.8866491092
 20
-9.5308164751
 30
0.0
 10
10.879508537
 20
-9.9563801455
 30
0.0
 10
10.874249116
 20
-10.4641130949
 30
0.0
 10
10.8711475784
 20
-11.0268730479
 30
0.0
 10
10.8706280609
 20
-11.4199680167
 30
0.0
 10
10.8707615493
 20
-11.6148898824
 30
0.0
 11
10.9596867582
 21
-11.61489
 31
0.0
 11
10.958913686
 21
-11.0313535801
 31
0.0
 11
10.9558395452
 21
-10.4732843696
 31
0.0
 11
10.9506262467
 21
-9.9700751189
 31
0.0
 11
10.9435483678
 21
-9.5482291789
 31
0.0
 11
10.9349786908
 21
-9.2299646046
 31
0.0
 11
10.9253685691
 21
-9.0320439608
 31
0.0
 11
10.9152241548
 21
-8.9648914601
 31
0.0
 11
10.9050797404
 21
-9.032043934
 31
0.0
 11
10.8954696186
 21
-9.2299645524
 31
0.0
 11
10.8868999414
 21
-9.548229104
 31
0.0
 11
10.8798220622
 21
-9.9700750253
 31
0.0
 11
10.8746087632
 21
-10.4732842622
 31
0.0
 11
10.871534622
 21
-11.0313534646
 31
0.0
 11
10.8707615493
 21
-11.6148898824
 31
0.0
  0
SPLINE
  5
5EC
100
AcDbEntity
  8
0
100
AcDbSpline
 62
253
  6
CONTINUOUS
 70
0
 71
3
 72
20
 73
16
 74
14
 42
0.0000001
 43
0.0000001
 44
0.0000000001
 12
-0.005661185
 22
5.8306893267
 32
0.0
 13
-0.0056611912
 23
-5.8306893066
 33
0.0
 40
0.0
 40
0.0
 40
0.0
 40
0.0
 40
0.0769230769
 40
0.1538461538
 40
0.2307692308
 40
0.3076923077
 40
0.3846153846
 40
0.4615384615
 40
0.5384615385
 40
0.6153846154
 40
0.6923076923
 40
0.7692307692
 40
0.8461538462
 40
0.9230769231
 40
1.0
 40
1.0
 40
1.0
 40
1.0
 10
10.883863117
 20
-11.6148898891
 30
0.0
 10
10.8837179584
 20
-11.4653850345
 30
0.0
 10
10.8840842252
 20
-11.1629354732
 30
0.0
 10
10.8865740657
 20
-10.7322485814
 30
0.0
 10
10.8908479641
 20
-10.350018756
 30
0.0
 10
10.8966400931
 20
-10.040414091
 30
0.0
 10
10.9035896228
 20
-9.8226196994
 30
0.0
 10
10.9112637599
 20
-9.7102257864
 30
0.0
 10
10.9191845496
 20
-9.7102258004
 30
0.0
 10
10.9268586866
 20
-9.8226197405
 30
0.0
 10
10.933808216
 20
-10.0404141567
 30
0.0
 10
10.9396003447
 20
-10.3500188422
 30
0.0
 10
10.9438742428
 20
-10.7322486827
 30
0.0
 10
10.9463640828
 20
-11.1629355834
 30
0.0
 10
10.9467303493
 20
-11.465385146
 30
0.0
 10
10.9465851905
 20
-11.61489
 30
0.0
 11
10.883863117
 21
-11.6148898891
 31
0.0
 11
10.8844076319
 21
-11.1667667149
 31
0.0
 11
10.8868714087
 21
-10.7403247591
 31
0.0
 11
10.8911010026
 21
-10.3621229494
 31
0.0
 11
10.8968329933
 21
-10.0557158032
 31
0.0
 11
10.9037103907
 21
-9.8401864458
 31
0.0
 11
10.9113048687
 21
-9.7289581076
 31
0.0
 11
10.9191434408
 21
-9.7289581214
 31
0.0
 11
10.9267379187
 21
-9.8401864865
 31
0.0
 11
10.9336153159
 21
-10.0557158682
 31
0.0
 11
10.9393473063
 21
-10.3621230347
 31
0.0
 11
10.9435768998
 21
-10.7403248594
 31
0.0
 11
10.9460406761
 21
-11.1667668239
 31
0.0
 11
10.9465851905
 21
-11.61489
 31
0.0
  0
SPLINE
  5
5ED
100
AcDbEntity
  8
0
100
AcDbSpline
 62
253
  6
CONTINUOUS
 70
0
 71
3
 72
24
 73
20
 74
18
 42
0.0000001
 43
0.0000001
 44
0.0000000001
 12
-1.7308242543
 22
0.0
 32
0.0
 13
1.7308242538
 23
0.0000430148
 33
0.0
 40
0.0
 40
0.0
 40
0.0
 40
0.0
 40
0.0598873206
 40
0.1201081961
 40
0.1818796394
 40
0.2131588073
 40
0.2442974632
 40
0.3075032344
 40
0.3712481021
 40
0.4994362348
 40
0.5639320937
 40
0.6282024856
 40
0.6920932504
 40
0.7554707499
 40
0.7866635189
 40
0.8179891179
 40
0.879832114
 40
0.9400952368
 40
1.0
 40
1.0
 40
1.0
 40
1.0
 10
2.688586477
 20
13.0529437178
 30
0.0
 10
2.6540350013
 20
13.0529437178
 30
0.0
 10
2.5845832047
 20
13.0455267709
 30
0.0
 10
2.4836431743
 20
13.0150670196
 30
0.0
 10
2.4043391457
 20
12.9747555672
 30
0.0
 10
2.3454786088
 20
12.9337351391
 30
0.0
 10
2.2902076364
 20
12.8866966833
 30
0.0
 10
2.2303915161
 20
12.816822043
 30
0.0
 10
2.159244881
 20
12.6871167797
 30
0.0
 10
2.1283090664
 20
12.537559606
 30
0.0
 10
2.1436148084
 20
12.389300842
 30
0.0
 10
2.1767016727
 20
12.2823894389
 30
0.0
 10
2.2300049995
 20
12.1847474617
 30
0.0
 10
2.2898829547
 20
12.1146880963
 30
0.0
 10
2.3452438689
 20
12.0675050492
 30
0.0
 10
2.4041658739
 20
12.0264001818
 30
0.0
 10
2.4835413472
 20
11.9860204335
 30
0.0
 10
2.584550388
 20
11.9555236688
 30
0.0
 10
2.6540369815
 20
11.9481007366
 30
0.0
 10
2.6885985205
 20
11.9481015955
 30
0.0
 11
2.688586477
 21
13.0529437178
 31
0.0
 11
2.5854706668
 21
13.0423905219
 31
0.0
 11
2.4856206927
 21
13.0124866632
 31
0.0
 11
2.3903439415
 21
12.9639761753
 31
0.0
 11
2.345944727
 21
12.9329969373
 31
0.0
 11
2.3049494226
 21
12.8980095918
 31
0.0
 11
2.2337270853
 21
12.8149715343
 31
0.0
 11
2.1805647242
 21
12.7182930521
 31
0.0
 11
2.1359933169
 21
12.5009449727
 31
0.0
 11
2.1472519435
 21
12.3898831757
 31
0.0
 11
2.1802010315
 21
12.2836341156
 31
0.0
 11
2.2333418385
 21
12.1866557361
 31
0.0
 11
2.3046722205
 21
12.1033188392
 31
0.0
 11
2.3457155579
 21
12.068243516
 31
0.0
 11
2.3901653877
 21
12.0371963884
 31
0.0
 11
2.4855372179
 21
11.9885997003
 31
0.0
 11
2.5854529515
 21
11.9586605446
 31
0.0
 11
2.6885985205
 21
11.9481015955
 31
0.0
  0
SPLINE
  5
5EE
100
AcDbEntity
  8
0
100
AcDbSpline
 62
253
  6
CONTINUOUS
 70
0
 71
3
 72
13
 73
9
 74
7
 42
0.0000001
 43
0.0000001
 44
0.0000000001
 12
-0.0119226138
 22
0.0
 32
0.0
 13
-0.0014887831
 23
0.6778031497
 33
0.0
 40
0.0
 40
0.0
 40
0.0
 40
0.0
 40
0.2490801906
 40
0.3745290044
 40
0.5000465587
 40
0.6245839973
 40
0.7501008193
 40
1.0
 40
1.0
 40
1.0
 40
1.0
 10
11.0890428909
 20
-4.1187598859
 30
0.0
 10
11.0880529952
 20
-4.1187598859
 30
0.0
 10
11.0865331605
 20
-4.110949299
 30
0.0
 10
11.0847088207
 20
-4.0639042122
 30
0.0
 10
11.0834905574
 20
-4.0123287258
 30
0.0
 10
11.0826655658
 20
-3.9389346122
 30
0.0
 10
11.0821002943
 20
-3.8288650197
 30
0.0
 10
11.0820179772
 20
-3.7430729482
 30
0.0
 10
11.081893962
 20
-3.6866121309
 30
0.0
 11
11.0890428909
 21
-4.1187598859
 31
0.0
 11
11.0860993244
 21
-4.0962409458
 31
0.0
 11
11.084734405
 21
-4.0611974199
 31
0.0
 11
11.0835533886
 21
-4.0085354483
 31
0.0
 11
11.0827338344
 21
-3.9375915065
 31
0.0
 11
11.0822791734
 21
-3.8558979327
 31
0.0
 11
11.081893962
 21
-3.6866121309
 31
0.0
  0
SPLINE
  5
5EF
100
AcDbEntity
  8
0
100
AcDbSpline
 62
253
  6
CONTINUOUS
 70
0
 71
3
 72
13
 73
9
 74
7
 42
0.0000001
 43
0.0000001
 44
0.0000000001
 12
-0.0014887831
 22
-0.6778031497
 32
0.0
 13
-0.0119226138
 23
0.0
 33
0.0
 40
0.0
 40
0.0
 40
0.0
 40
0.0
 40
0.2498991807
 40
0.3754160027
 40
0.4999534413
 40
0.6254709956
 40
0.7509198094
 40
1.0
 40
1.0
 40
1.0
 40
1.0
 10
11.0961918197
 20
-3.6866121309
 30
0.0
 10
11.0960678045
 20
-3.7430729482
 30
0.0
 10
11.0959854874
 20
-3.8288650197
 30
0.0
 10
11.0954202159
 20
-3.9389346122
 30
0.0
 10
11.0945952243
 20
-4.0123287258
 30
0.0
 10
11.093376961
 20
-4.0639042122
 30
0.0
 10
11.0915526212
 20
-4.110949299
 30
0.0
 10
11.0900327865
 20
-4.1187598859
 30
0.0
 10
11.0890428909
 20
-4.1187598859
 30
0.0
 11
11.0961918197
 21
-3.6866121309
 31
0.0
 11
11.0958066084
 21
-3.8558979327
 31
0.0
 11
11.0953519474
 21
-3.9375915065
 31
0.0
 11
11.0945323931
 21
-4.0085354483
 31
0.0
 11
11.0933513768
 21
-4.0611974199
 31
0.0
 11
11.0919864574
 21
-4.0962409458
 31
0.0
 11
11.0890428909
 21
-4.1187598859
 31
0.0
  0
SPLINE
  5
5F0
100
AcDbEntity
  8
0
100
AcDbSpline
 62
253
  6
CONTINUOUS
 70
0
 71
3
 72
15
 73
11
 74
9
 42
0.0000001
 43
0.0000001
 44
0.0000000001
 12
0.0297942716
 22
0.0
 32
0.0
 13
0.0011033351
 23
1.7060017172
 33
0.0
 40
0.0
 40
0.0
 40
0.0
 40
0.0
 40
0.1248401019
 40
0.2498663855
 40
0.374885782
 40
0.5000299202
 40
0.6250550432
 40
0.7501198193
 40
0.875035251
 40
1.0
 40
1.0
 40
1.0
 40
1.0
 10
11.0890428909
 20
-4.7815268003
 30
0.0
 10
11.0902827308
 20
-4.7815268003
 30
0.0
 10
11.0927718024
 20
-4.7716793234
 30
0.0
 10
11.0963870562
 20
-4.7119708447
 30
0.0
 10
11.0995690392
 20
-4.5935070156
 30
0.0
 10
11.1018852547
 20
-4.4217447249
 30
0.0
 10
11.1033189406
 20
-4.22298974
 30
0.0
 10
11.1041543065
 20
-4.0142899176
 30
0.0
 10
11.1045020857
 20
-3.801448305
 30
0.0
 10
11.1045554688
 20
-3.6592834163
 30
0.0
 10
11.1046014281
 20
-3.5882200575
 30
0.0
 11
11.0890428909
 21
-4.7815268003
 31
0.0
 11
11.0927501132
 21
-4.7642105591
 31
0.0
 11
11.0963144417
 21
-4.7021878845
 31
0.0
 11
11.0994238105
 21
-4.584670781
 31
0.0
 11
11.1017387067
 21
-4.4171904032
 31
0.0
 11
11.1032192119
 21
-4.2213330331
 31
0.0
 11
11.1040732945
 21
-4.0135100265
 31
0.0
 11
11.1044574594
 21
-3.8013969153
 31
0.0
 11
11.1046014281
 21
-3.5882200575
 31
0.0
  0
SPLINE
  5
5F1
100
AcDbEntity
  8
0
100
AcDbSpline
 62
253
  6
CONTINUOUS
 70
0
 71
3
 72
15
 73
11
 74
9
 42
0.0000001
 43
0.0000001
 44
0.0000000001
 12
0.0011033351
 22
-1.7060017172
 32
0.0
 13
0.0297942716
 23
0.0
 33
0.0
 40
0.0
 40
0.0
 40
0.0
 40
0.0
 40
0.124964749
 40
0.2498801807
 40
0.3749449568
 40
0.4999700798
 40
0.625114218
 40
0.7501336145
 40
0.8751598981
 40
1.0
 40
1.0
 40
1.0
 40
1.0
 10
11.0734843536
 20
-3.5882200575
 30
0.0
 10
11.073530313
 20
-3.6592834163
 30
0.0
 10
11.073583696
 20
-3.801448305
 30
0.0
 10
11.0739314752
 20
-4.0142899176
 30
0.0
 10
11.0747668411
 20
-4.22298974
 30
0.0
 10
11.076200527
 20
-4.4217447249
 30
0.0
 10
11.0785167425
 20
-4.5935070156
 30
0.0
 10
11.0816987255
 20
-4.7119708447
 30
0.0
 10
11.0853139793
 20
-4.7716793234
 30
0.0
 10
11.0878030509
 20
-4.7815268003
 30
0.0
 10
11.0890428909
 20
-4.7815268003
 30
0.0
 11
11.0734843536
 21
-3.5882200575
 31
0.0
 11
11.0736283223
 21
-3.8013969153
 31
0.0
 11
11.0740124872
 21
-4.0135100265
 31
0.0
 11
11.0748665698
 21
-4.2213330331
 31
0.0
 11
11.076347075
 21
-4.4171904032
 31
0.0
 11
11.0786619713
 21
-4.584670781
 31
0.0
 11
11.0817713401
 21
-4.7021878845
 31
0.0
 11
11.0853356685
 21
-4.7642105591
 31
0.0
 11
11.0890428909
 21
-4.7815268003
 31
0.0
  0
SPLINE
  5
5F2
100
AcDbEntity
  8
0
100
AcDbSpline
 62
253
  6
CONTINUOUS
 70
0
 71
3
 72
15
 73
11
 74
9
 42
0.0000001
 43
0.0000001
 44
0.0000000001
 12
-1.2116231786
 22
0.0
 32
0.0
 13
-0.5879591364
 23
-1.0594030304
 33
0.0
 40
0.0
 40
0.0
 40
0.0
 40
0.0
 40
0.1272531861
 40
0.2531815432
 40
0.380254107
 40
0.5073525108
 40
0.6333934846
 40
0.7579377198
 40
0.8797030461
 40
1.0
 40
1.0
 40
1.0
 40
1.0
 10
5.9963374899
 20
13.6402750798
 30
0.0
 10
5.9449431866
 20
13.6402750798
 30
0.0
 10
5.8425474915
 20
13.633801752
 30
0.0
 10
5.6915562995
 20
13.6030431841
 30
0.0
 10
5.5467850976
 20
13.5503909846
 30
0.0
 10
5.4104843979
 20
13.4787402846
 30
0.0
 10
5.2852005734
 20
13.3910382459
 30
0.0
 10
5.1732918101
 20
13.2899963523
 30
0.0
 10
5.0763923291
 20
13.1775498383
 30
0.0
 10
5.0226737474
 20
13.0954247037
 30
0.0
 10
4.999097183
 20
13.0529437178
 30
0.0
 11
5.9963374899
 21
13.6402750798
 31
0.0
 11
5.8424821788
 21
13.6302295364
 31
0.0
 11
5.6930261991
 21
13.5995233539
 31
0.0
 11
5.5482174474
 21
13.5472227007
 31
0.0
 11
5.411813628
 21
13.4757484211
 31
0.0
 11
5.2866801327
 21
13.388208575
 31
0.0
 11
5.1747383249
 21
13.2870154551
 31
0.0
 11
5.078600944
 21
13.175105696
 31
0.0
 11
4.999097183
 21
13.0529437178
 31
0.0
  0
SPLINE
  5
5F3
100
AcDbEntity
  8
INCISIONI
100
AcDbSpline
 62
253
  6
CONTINUOUS
 70
0
 71
3
 72
11
 73
7
 74
5
 42
0.0000001
 43
0.0000001
 44
0.0000000001
 12
-0.0128702777
 22
-0.0113808125
 32
0.0
 13
-0.0002873858
 23
0.7373539953
 33
0.0
 40
0.0
 40
0.0
 40
0.0
 40
0.0
 40
0.2491315025
 40
0.4973515609
 40
0.7462289133
 40
1.0
 40
1.0
 40
1.0
 40
1.0
 10
11.0900878603
 20
5.4627200261
 30
0.0
 10
11.0890190631
 20
5.4617749198
 30
0.0
 10
11.0868467091
 20
5.4732383197
 30
0.0
 10
11.0839904426
 20
5.5749993121
 30
0.0
 10
11.0825023298
 20
5.746549742
 30
0.0
 10
11.0822492286
 20
5.8705216342
 30
0.0
 10
11.0822249185
 20
5.9328946758
 30
0.0
 11
11.0900878603
 21
5.4627200261
 31
0.0
 11
11.0869101472
 21
5.4874007505
 31
0.0
 11
11.0842217311
 21
5.5863253894
 31
0.0
 11
11.0826941977
 21
5.7476704692
 31
0.0
 11
11.0822249185
 21
5.9328946758
 31
0.0
  0
SPLINE
  5
5F4
100
AcDbEntity
  8
INCISIONI
100
AcDbSpline
 62
253
  6
CONTINUOUS
 70
0
 71
3
 72
9
 73
5
 74
3
 42
0.0000001
 43
0.0000001
 44
0.0000000001
 12
-0.0010753083
 22
-0.5307774627
 32
0.0
 13
-0.0093244064
 23
-0.0083576149
 33
0.0
 40
0.0
 40
0.0
 40
0.0
 40
0.0
 40
0.5000882298
 40
1.0
 40
1.0
 40
1.0
 40
1.0
 10
11.0964129695
 20
5.804625691
 30
0.0
 10
11.0962337198
 20
5.7161471704
 30
0.0
 10
11.0948748154
 20
5.5367587789
 30
0.0
 10
11.0916416538
 20
5.4641127161
 30
0.0
 10
11.0900878603
 20
5.4627200261
 30
0.0
 11
11.0964129695
 21
5.804625691
 31
0.0
 11
11.0944058459
 21
5.5634221249
 31
0.0
 11
11.0900878603
 21
5.4627200261
 31
0.0
  0
SPLINE
  5
5F5
100
AcDbEntity
  8
INCISIONI
100
AcDbSpline
 62
253
  6
CONTINUOUS
 70
0
 71
3
 72
11
 73
7
 74
5
 42
0.0000001
 43
0.0000001
 44
0.0000000001
 12
0.008931429
 22
1.4167437705
 32
0.0
 13
-0.0038258405
 23
1.4903036133
 33
0.0
 40
0.0
 40
0.0
 40
0.0
 40
0.0
 40
0.249614251
 40
0.499888924
 40
0.7499637517
 40
1.0
 40
1.0
 40
1.0
 40
1.0
 10
11.1036111487
 20
5.3678501192
 30
0.0
 10
11.104354286
 20
5.485729931
 30
0.0
 10
11.1051829773
 20
5.735014474
 30
0.0
 10
11.1054344483
 20
6.1116431473
 30
0.0
 10
11.1050302645
 20
6.4882750285
 30
0.0
 10
11.1044627356
 20
6.7373573696
 30
0.0
 10
11.1041438693
 20
6.8615673444
 30
0.0
 11
11.1036111487
 21
5.3678501192
 31
0.0
 11
11.1050170506
 21
5.7351233729
 31
0.0
 11
11.1053251084
 21
6.1117086883
 31
0.0
 11
11.1049556943
 21
6.487811254
 31
0.0
 11
11.1041438693
 21
6.8615673444
 31
0.0
  0
SPLINE
  5
5F6
100
AcDbEntity
  8
INCISIONI
100
AcDbSpline
 62
253
  6
CONTINUOUS
 70
0
 71
3
 72
18
 73
14
 74
12
 42
0.0000001
 43
0.0000001
 44
0.0000000001
 12
0.0040338679
 22
-1.7915717583
 32
0.0
 13
0.0106969353
 23
1.6992591149
 33
0.0
 40
0.0
 40
0.0
 40
0.0
 40
0.0
 40
0.0626155709
 40
0.1255750725
 40
0.1873779143
 40
0.2500548274
 40
0.3131302752
 40
0.3757850613
 40
0.5005898481
 40
0.6254073429
 40
0.7503252015
 40
0.8752611255
 40
1.0
 40
1.0
 40
1.0
 40
1.0
 10
11.0780545961
 20
5.30544429
 30
0.0
 10
11.0781387904
 20
5.2680508605
 30
0.0
 10
11.0790634276
 20
5.205742357
 30
0.0
 10
11.080320564
 20
5.1219941374
 30
0.0
 10
11.0818208141
 20
5.0470552444
 30
0.0
 10
11.0835038049
 20
4.9877497308
 30
0.0
 10
11.0853257505
 20
4.9423237958
 30
0.0
 10
11.0878683001
 20
4.9015430794
 30
0.0
 10
11.0911742261
 20
4.887359708
 30
0.0
 10
11.0951045882
 20
4.9207057947
 30
0.0
 10
11.0987448697
 20
5.0158512686
 30
0.0
 10
11.1017137723
 20
5.1675562972
 30
0.0
 10
11.1031663741
 20
5.2971955627
 30
0.0
 10
11.1036111487
 20
5.3678501192
 30
0.0
 11
11.0780545961
 21
5.30544429
 31
0.0
 11
11.079040472
 21
5.2074502929
 31
0.0
 11
11.080369463
 21
5.1229750287
 31
0.0
 11
11.0818435631
 21
5.0499699399
 31
0.0
 11
11.0835220008
 21
4.9902217399
 31
0.0
 11
11.0853449509
 21
4.9447010075
 31
0.0
 11
11.0872467451
 21
4.914117073
 31
0.0
 11
11.0911683083
 21
4.8957499389
 31
0.0
 11
11.0950550067
 21
4.9309846614
 31
0.0
 11
11.098632885
 21
5.0252799698
 31
0.0
 11
11.1015835659
 21
5.1747784359
 31
0.0
 11
11.1036111487
 21
5.3678501192
 31
0.0
  0
SPLINE
  5
5F7
100
AcDbEntity
  8
0
100
AcDbSpline
 62
253
  6
CONTINUOUS
 70
0
 71
3
 72
27
 73
23
 74
21
 42
0.0000001
 43
0.0000001
 44
0.0000000001
 12
3.6025799422
 22
-0.0874424583
 32
0.0
 13
-3.6036409953
 23
-0.0
 33
0.0
 40
0.0
 40
0.0
 40
0.0
 40
0.0
 40
0.0259384788
 40
0.0777189818
 40
0.1287833789
 40
0.1798943257
 40
0.2318921789
 40
0.2839614159
 40
0.3352641081
 40
0.3866712243
 40
0.4391315387
 40
0.4917483318
 40
0.5436825285
 40
0.5956970277
 40
0.6486476274
 40
0.7013472553
 40
0.7529371014
 40
0.8041033206
 40
0.8547587618
 40
0.9045621592
 40
0.9527136086
 40
1.0
 40
1.0
 40
1.0
 40
1.0
 10
5.968077039
 20
11.3611283228
 30
0.0
 10
5.9992255201
 20
11.3603722814
 30
0.0
 10
6.092669603
 20
11.3619080391
 30
0.0
 10
6.2465923114
 20
11.3834695574
 30
0.0
 10
6.4240504595
 20
11.4382873177
 30
0.0
 10
6.5903370901
 20
11.521695748
 30
0.0
 10
6.7418717156
 20
11.631666611
 30
0.0
 10
6.8735838936
 20
11.7650785269
 30
0.0
 10
6.9815373133
 20
11.9174330032
 30
0.0
 10
7.0637368685
 20
12.0856596896
 30
0.0
 10
7.1172263518
 20
12.2667715144
 30
0.0
 10
7.1403631314
 20
12.4548303821
 30
0.0
 10
7.13192426
 20
12.6435658513
 30
0.0
 10
7.0929809412
 20
12.8287976529
 30
0.0
 10
7.0242232593
 20
13.0061991033
 30
0.0
 10
6.9269803835
 20
13.1691918841
 30
0.0
 10
6.8046590539
 20
13.3115383041
 30
0.0
 10
6.6616200846
 20
13.4290581563
 30
0.0
 10
6.5041126565
 20
13.5218488378
 30
0.0
 10
6.3380581568
 20
13.5891226855
 30
0.0
 10
6.1679544852
 20
13.6304891803
 30
0.0
 10
6.0531385494
 20
13.6402750798
 30
0.0
 10
5.9963374899
 20
13.6402750798
 30
0.0
 11
5.968077039
 21
11.3611283228
 31
0.0
 11
6.0615371956
 21
11.3626757042
 31
0.0
 11
6.2463388995
 21
11.3885073134
 31
0.0
 11
6.4221060917
 21
11.4429905977
 31
0.0
 11
6.5867950158
 21
11.5254639742
 31
0.0
 11
6.7384559669
 21
11.6355131368
 31
0.0
 11
6.8702926012
 21
11.7690325551
 31
0.0
 11
6.9771663642
 21
11.919887828
 31
0.0
 11
7.058397765
 21
12.08638124
 31
0.0
 11
7.1120796683
 21
12.2676474873
 31
0.0
 11
7.13513439
 21
12.4558527017
 31
0.0
 11
7.1268869263
 21
12.6428230883
 31
0.0
 11
7.0883702404
 21
12.8262646633
 31
0.0
 11
7.0192749663
 21
13.0041303119
 31
0.0
 11
6.9218089723
 21
13.1671223145
 31
0.0
 11
6.8005562844
 21
13.3080506348
 31
0.0
 11
6.6584079378
 21
13.4254881058
 31
0.0
 11
6.501220252
 21
13.5183016409
 31
0.0
 11
6.3348500451
 21
13.5856196527
 31
0.0
 11
6.1661672469
 21
13.6263073693
 31
0.0
 11
5.9963374899
 21
13.6402750798
 31
0.0
  0
SPLINE
  5
5F8
100
AcDbEntity
  8
INCISIONI
100
AcDbSpline
 62
253
  6
CONTINUOUS
 70
0
 71
3
 72
11
 73
7
 74
5
 42
0.0000001
 43
0.0000001
 44
0.0000000001
 12
0.0116058544
 22
0.181193689
 32
0.0
 13
0.0044548137
 23
0.6402353954
 33
0.0
 40
0.0
 40
0.0
 40
0.0
 40
0.0
 40
0.2450440156
 40
0.5033055314
 40
0.7579591626
 40
1.0
 40
1.0
 40
1.0
 40
1.0
 10
11.0678315956
 20
4.9565587397
 30
0.0
 10
11.0687795773
 20
4.9713588828
 30
0.0
 10
11.0707338711
 20
5.0005213919
 30
0.0
 10
11.0735687121
 20
5.0651610171
 30
0.0
 10
11.0761457217
 20
5.159157879
 30
0.0
 10
11.0773961891
 20
5.2537899196
 30
0.0
 10
11.0777556047
 20
5.30544429
 30
0.0
 11
11.0678315956
 21
4.9565587397
 31
0.0
 11
11.0706655096
 21
5.0030172293
 31
0.0
 11
11.0735397299
 21
5.0705695192
 31
0.0
 11
11.076071809
 21
5.169347468
 31
0.0
 11
11.0777556047
 21
5.30544429
 31
0.0
  0
LINE
  5
5F9
100
AcDbEntity
  8
INCISIONI
100
AcDbLine
 62
253
  6
CONTINUOUS
 10
11.0541368045
 20
4.7496410148
 11
11.0678315956
 21
4.9565587397
  0
SPLINE
  5
5FA
100
AcDbEntity
  8
INCISIONI
100
AcDbSpline
 62
253
  6
CONTINUOUS
 70
0
 71
3
 72
9
 73
5
 74
3
 42
0.0000001
 43
0.0000001
 44
0.0000000001
 12
-0.0150000908
 22
-0.3229459945
 32
0.0
 13
-0.0154000008
 23
-0.2537321442
 33
0.0
 40
0.0
 40
0.0
 40
0.0
 40
0.0
 40
0.499968398
 40
1.0
 40
1.0
 40
1.0
 40
1.0
 10
11.0694798424
 20
5.5965120355
 30
0.0
 10
11.0669799853
 20
5.542691105
 30
0.0
 10
11.0618199067
 20
5.4614309255
 30
0.0
 10
11.0567036336
 20
5.3741331019
 30
0.0
 10
11.0541368045
 20
5.3318417383
 30
0.0
 11
11.0694798424
 21
5.5965120355
 31
0.0
 11
11.0618311828
 21
5.4599268412
 31
0.0
 11
11.0541368045
 21
5.3318417383
 31
0.0
  0
SPLINE
  5
5FB
100
AcDbEntity
  8
INCISIONI
100
AcDbSpline
 62
253
  6
CONTINUOUS
 70
0
 71
3
 72
11
 73
7
 74
5
 42
0.0000001
 43
0.0000001
 44
0.0000000001
 12
0.0
 22
-0.4505958664
 32
0.0
 13
-0.0073624405
 23
-0.1583423737
 33
0.0
 40
0.0
 40
0.0
 40
0.0
 40
0.0
 40
0.2477795725
 40
0.4960551195
 40
0.7486644071
 40
1.0
 40
1.0
 40
1.0
 40
1.0
 10
11.0739381528
 20
5.9341993273
 30
0.0
 10
11.0739381528
 20
5.8969831769
 30
0.0
 10
11.0737480982
 20
5.8216580962
 30
0.0
 10
11.07277574
 20
5.7211454858
 30
0.0
 10
11.0712805397
 20
5.6450913069
 30
0.0
 10
11.0700966569
 20
5.609777727
 30
0.0
 10
11.0694798424
 20
5.5965120355
 30
0.0
 11
11.0739381528
 21
5.9341993273
 31
0.0
 11
11.0736349609
 21
5.8239107377
 31
0.0
 11
11.072696587
 21
5.7258068357
 31
0.0
 11
11.0712322315
 21
5.648891914
 31
0.0
 11
11.0694798424
 21
5.5965120355
 31
0.0
  0
ELLIPSE
  5
5FC
100
AcDbEntity
  8
DRAFT
100
AcDbEllipse
 62
7
  6
CONTINUOUS
 10
2.5
 20
-20.0445070257
 30
0.0
 11
1.0
 21
-0.0
 31
0.0
 40
0.0087268678
 41
-1.5707963268
 42
0.0
  0
ELLIPSE
  5
5FD
100
AcDbEntity
  8
DRAFT
100
AcDbEllipse
 62
7
  6
CONTINUOUS
 10
2.5
 20
20.0445070257
 30
0.0
 11
1.0
 21
0.0
 31
0.0
 40
0.0087268678
 41
-0.0
 42
1.5707963268
  0
ELLIPSE
  5
5FE
100
AcDbEntity
  8
DRAFT
100
AcDbEllipse
 62
7
  6
CONTINUOUS
 10
-2.5
 20
-20.0445070257
 30
0.0
 11
1.0
 21
-0.0
 31
0.0
 40
0.0087268678
 41
3.1415926536
 42
4.7123889804
  0
ELLIPSE
  5
5FF
100
AcDbEntity
  8
DRAFT
100
AcDbEllipse
 62
7
  6
CONTINUOUS
 10
0.0
 20
-20.1823915368
 30
0.0
 11
15.0
 21
-0.0
 31
0.0
 40
0.0087268678
 41
1.4073150204
 42
1.7342776332
  0
ELLIPSE
  5
600
100
AcDbEntity
  8
DRAFT
100
AcDbEllipse
 62
7
  6
CONTINUOUS
 10
-2.5
 20
20.0445070257
 30
0.0
 11
1.0
 21
0.0
 31
0.0
 40
0.0087268678
 41
1.5707963268
 42
3.1415926536
  0
ELLIPSE
  5
601
100
AcDbEntity
  8
DRAFT
100
AcDbEllipse
 62
7
  6
CONTINUOUS
 10
0.0
 20
20.1823915368
 30
0.0
 11
15.0
 21
-0.0
 31
0.0
 40
0.0087268678
 41
-1.7342776332
 42
-1.4073150204
  0
ELLIPSE
  5
602
100
AcDbEntity
  8
RACCORDO
100
AcDbEllipse
 62
7
  6
CONTINUOUS
 10
10.649923836
 20
21.891254093
 30
0.0
 11
0.4473055582
 21
-0.2236357461
 31
0.0
 40
0.9998096356
 41
6.7467263073
 42
8.3176749331
  0
ELLIPSE
  5
603
100
AcDbEntity
  8
RACCORDO
100
AcDbEllipse
 62
7
  6
CONTINUOUS
 10
-10.649923836
 20
-21.891254093
 30
0.0
 11
-0.4473055582
 21
0.2236357461
 31
0.0
 40
0.9998096356
 41
6.7467263073
 42
8.3176749331
  0
ELLIPSE
  5
604
100
AcDbEntity
  8
DRAFT
100
AcDbEllipse
 62
7
  6
CONTINUOUS
 10
-3.9279699877
 20
22.3339198952
 30
0.0
 11
0.4279699877
 21
0.0
 31
0.0
 40
0.0087268678
 41
-3.1357748894
 42
-0.0
  0
ELLIPSE
  5
605
100
AcDbEntity
  8
DRAFT
100
AcDbEllipse
 62
7
  6
CONTINUOUS
 10
3.9279699877
 20
22.3339198952
 30
0.0
 11
0.4279699877
 21
0.0
 31
0.0
 40
0.0087268678
 41
3.1415926536
 42
6.277367543
  0
ELLIPSE
  5
606
100
AcDbEntity
  8
DRAFT
100
AcDbEllipse
 62
7
  6
CONTINUOUS
 10
-3.9279699877
 20
-22.3339198952
 30
0.0
 11
0.4279699877
 21
0.0
 31
0.0
 40
0.0087268678
 41
-0.0
 42
3.1357748894
  0
ELLIPSE
  5
607
100
AcDbEntity
  8
DRAFT
100
AcDbEllipse
 62
7
  6
CONTINUOUS
 10
3.9279699877
 20
-22.3339198952
 30
0.0
 11
0.4279699877
 21
0.0
 31
0.0
 40
0.0087268678
 41
0.0058177642
 42
3.1415926536
  0
ELLIPSE
  5
608
100
AcDbEntity
  8
ASSI
100
AcDbEllipse
 62
7
  6
CONTINUOUS
 10
-4.3563662764
 20
23.2563578147
 30
0.0
 11
-0.0
 21
0.5
 31
0.0
 40
0.0058178298
 41
-0.149597008
 42
-0.0058177642
  0
ELLIPSE
  5
609
100
AcDbEntity
  8
ASSI
100
AcDbEllipse
 62
7
  6
CONTINUOUS
 10
4.3563662764
 20
23.2563578147
 30
0.0
 11
0.0
 21
0.5
 31
0.0
 40
0.0058178298
 41
0.0058177642
 42
0.149597008
  0
ELLIPSE
  5
60A
100
AcDbEntity
  8
ASSI
100
AcDbEllipse
 62
7
  6
CONTINUOUS
 10
4.3563662764
 20
-23.2563578147
 30
0.0
 11
0.0
 21
0.5
 31
0.0
 40
0.0058178298
 41
-3.2911896616
 42
-3.1474104178
  0
ELLIPSE
  5
60B
100
AcDbEntity
  8
ASSI
100
AcDbEllipse
 62
7
  6
CONTINUOUS
 10
-4.3563662764
 20
-23.2563578147
 30
0.0
 11
0.0
 21
0.5
 31
0.0
 40
0.0058178298
 41
-3.1357748894
 42
-2.9919956456
  0
ELLIPSE
  5
60C
100
AcDbEntity
  8
RACCORDO
100
AcDbEllipse
 62
7
  6
CONTINUOUS
 10
10.649923836
 20
-21.891254093
 30
0.0
 11
-0.4473055582
 21
-0.2236357461
 31
0.0
 40
0.9998096356
 41
1.1071030277
 42
2.6780516535
  0
ELLIPSE
  5
60D
100
AcDbEntity
  8
RACCORDO
100
AcDbEllipse
 62
7
  6
CONTINUOUS
 10
-10.649923836
 20
21.891254093
 30
0.0
 11
0.4473055582
 21
0.2236357461
 31
0.0
 40
0.9998096356
 41
1.1071030277
 42
2.6780516535
  0
ELLIPSE
  5
60E
100
AcDbEntity
  8
DRAFT
100
AcDbEllipse
 62
7
  6
CONTINUOUS
 10
7.5841007192
 20
20.982905244
 30
0.0
 11
0.5
 21
0.0
 31
0.0
 40
0.0087268678
 41
0.0174532925
 42
1.5707963268
  0
ELLIPSE
  5
60F
100
AcDbEntity
  8
DRAFT
100
AcDbEllipse
 62
7
  6
CONTINUOUS
 10
-7.5841007192
 20
20.982905244
 30
0.0
 11
0.5
 21
0.0
 31
0.0
 40
0.0087268678
 41
1.5707963268
 42
3.1241393611
  0
ELLIPSE
  5
610
100
AcDbEntity
  8
DRAFT
100
AcDbEllipse
 62
7
  6
CONTINUOUS
 10
7.5841007192
 20
-20.982905244
 30
0.0
 11
0.5
 21
-0.0
 31
0.0
 40
0.0087268678
 41
-1.5707963268
 42
-0.0174532925
  0
ELLIPSE
  5
611
100
AcDbEntity
  8
DRAFT
100
AcDbEllipse
 62
7
  6
CONTINUOUS
 10
-7.5841007192
 20
-20.982905244
 30
0.0
 11
0.5
 21
-0.0
 31
0.0
 40
0.0087268678
 41
-3.1241393611
 42
-1.5707963268
  0
ELLIPSE
  5
612
100
AcDbEntity
  8
RACCORDO
100
AcDbEllipse
 62
7
  6
CONTINUOUS
 10
10.3999957691
 20
23.4113248654
 30
0.0
 11
-0.0029088041
 21
0.2886641433
 31
0.0
 40
0.8660144118
 41
-3.150319066
 42
-1.582431609
  0
ELLIPSE
  5
613
100
AcDbEntity
  8
RACCORDO
100
AcDbEllipse
 62
7
  6
CONTINUOUS
 10
8.5000042309
 20
23.4113248654
 30
0.0
 11
0.0029088041
 21
0.2886641433
 31
0.0
 40
0.8660144118
 41
-4.7007536982
 42
-3.1328662412
  0
ELLIPSE
  5
614
100
AcDbEntity
  8
RACCORDO
100
AcDbEllipse
 62
7
  6
CONTINUOUS
 10
-8.5000042309
 20
23.4113248654
 30
0.0
 11
-0.0029088041
 21
0.2886641433
 31
0.0
 40
0.8660144118
 41
-3.150319066
 42
-1.582431609
  0
ELLIPSE
  5
615
100
AcDbEntity
  8
RACCORDO
100
AcDbEllipse
 62
7
  6
CONTINUOUS
 10
-10.3999957691
 20
23.4113248654
 30
0.0
 11
0.0029088041
 21
0.2886641433
 31
0.0
 40
0.8660144118
 41
-4.7007536982
 42
-3.1328662411
  0
ELLIPSE
  5
616
100
AcDbEntity
  8
RACCORDO
100
AcDbEllipse
 62
7
  6
CONTINUOUS
 10
-7.3500333364
 20
20.1488813944
 30
0.0
 11
-0.0
 21
0.3
 31
0.0
 40
0.0058178298
 41
0.0523598776
 42
1.5707963268
  0
ELLIPSE
  5
617
100
AcDbEntity
  8
RACCORDO
100
AcDbEllipse
 62
7
  6
CONTINUOUS
 10
7.3500333364
 20
20.1488813944
 30
0.0
 11
-0.0
 21
0.3
 31
0.0
 40
0.0058178298
 41
-1.5707963268
 42
-0.0523598776
  0
ELLIPSE
  5
618
100
AcDbEntity
  8
RACCORDO
100
AcDbEllipse
 62
7
  6
CONTINUOUS
 10
-7.3500333364
 20
-20.1488813944
 30
0.0
 11
-0.0
 21
0.3
 31
0.0
 40
0.0058178298
 41
-4.7123889804
 42
-3.1939525311
  0
ELLIPSE
  5
619
100
AcDbEntity
  8
RACCORDO
100
AcDbEllipse
 62
7
  6
CONTINUOUS
 10
8.5000042309
 20
-23.4113248654
 30
0.0
 11
-0.0029088041
 21
0.2886641433
 31
0.0
 40
0.8660144118
 41
-0.0087264124
 42
1.5591610446
  0
ELLIPSE
  5
61A
100
AcDbEntity
  8
RACCORDO
100
AcDbEllipse
 62
7
  6
CONTINUOUS
 10
7.3500333364
 20
-20.1488813944
 30
0.0
 11
-0.0
 21
0.3
 31
0.0
 40
0.0058178298
 41
-3.089232776
 42
-1.5707963268
  0
ELLIPSE
  5
61B
100
AcDbEntity
  8
RACCORDO
100
AcDbEllipse
 62
7
  6
CONTINUOUS
 10
-6.5552693832
 20
-20.5829242832
 30
0.0
 11
0.0
 21
0.5
 31
0.0
 40
0.0058178298
 41
0.0087266463
 42
0.3218985522
  0
ELLIPSE
  5
61C
100
AcDbEntity
  8
RACCORDO
100
AcDbEllipse
 62
7
  6
CONTINUOUS
 10
10.3999957691
 20
-23.4113248654
 30
0.0
 11
0.0029088041
 21
0.2886641433
 31
0.0
 40
0.8660144118
 41
-1.5591610446
 42
0.0087264124
  0
ELLIPSE
  5
61D
100
AcDbEntity
  8
RACCORDO
100
AcDbEllipse
 62
7
  6
CONTINUOUS
 10
6.5552693832
 20
-20.5829242832
 30
0.0
 11
-0.0
 21
0.5
 31
0.0
 40
0.0058178298
 41
-0.3218985522
 42
-0.0087266463
  0
ELLIPSE
  5
61E
100
AcDbEntity
  8
RACCORDO
100
AcDbEllipse
 62
7
  6
CONTINUOUS
 10
6.5552693832
 20
20.5829242832
 30
0.0
 11
-0.0
 21
0.5
 31
0.0
 40
0.0058178298
 41
-3.1328660073
 42
-2.8196941014
  0
ELLIPSE
  5
61F
100
AcDbEntity
  8
RACCORDO
100
AcDbEllipse
 62
7
  6
CONTINUOUS
 10
-6.5552693832
 20
20.5829242832
 30
0.0
 11
-0.0
 21
0.5
 31
0.0
 40
0.0058178298
 41
-3.4634912058
 42
-3.1503192998
  0
ELLIPSE
  5
620
100
AcDbEntity
  8
RACCORDO
100
AcDbEllipse
 62
7
  6
CONTINUOUS
 10
-10.3999957691
 20
-23.4113248654
 30
0.0
 11
-0.0029088041
 21
0.2886641433
 31
0.0
 40
0.8660144118
 41
-0.0087264124
 42
1.5591610446
  0
ELLIPSE
  5
621
100
AcDbEntity
  8
RACCORDO
100
AcDbEllipse
 62
7
  6
CONTINUOUS
 10
-8.5000042309
 20
-23.4113248654
 30
0.0
 11
0.0029088041
 21
0.2886641433
 31
0.0
 40
0.8660144118
 41
-1.5591610446
 42
0.0087264124
  0
ELLIPSE
  5
622
100
AcDbEntity
  8
DRAFT
100
AcDbEllipse
 62
7
  6
CONTINUOUS
 10
-6.9
 20
-20.9842682398
 30
0.0
 11
0.3438161472
 21
-0.0
 31
0.0
 40
0.0087268678
 41
-3.1357748894
 42
-1.5707963268
  0
ELLIPSE
  5
623
100
AcDbEntity
  8
DRAFT
100
AcDbEllipse
 62
7
  6
CONTINUOUS
 10
-6.9
 20
20.9842682398
 30
0.0
 11
0.3438161472
 21
0.0
 31
0.0
 40
0.0087268678
 41
1.5707963268
 42
3.1357748894
  0
ELLIPSE
  5
624
100
AcDbEntity
  8
DRAFT
100
AcDbEllipse
 62
7
  6
CONTINUOUS
 10
6.9
 20
20.9842682398
 30
0.0
 11
0.3438161472
 21
0.0
 31
0.0
 40
0.0087268678
 41
0.0058177642
 42
1.5707963268
  0
ELLIPSE
  5
625
100
AcDbEntity
  8
DRAFT
100
AcDbEllipse
 62
7
  6
CONTINUOUS
 10
6.9
 20
-20.9842682398
 30
0.0
 11
0.3438161472
 21
-0.0
 31
0.0
 40
0.0087268678
 41
-1.5707963268
 42
-0.0058177642
  0
ELLIPSE
  5
626
100
AcDbEntity
  8
RACCORDO
100
AcDbEllipse
 62
7
  6
CONTINUOUS
 10
9.1496953439
 20
17.6714466826
 30
0.0
 11
1.8480888181
 21
0.7655034529
 31
0.0
 40
0.9998215708
 41
-0.3926359958
 42
0.3926359958
  0
ELLIPSE
  5
627
100
AcDbEntity
  8
RACCORDO
100
AcDbEllipse
 62
7
  6
CONTINUOUS
 10
9.1496953439
 20
-17.6714466826
 30
0.0
 11
1.8480888181
 21
-0.7655034529
 31
0.0
 40
0.9998215708
 41
-0.3926359958
 42
0.3926359958
  0
ELLIPSE
  5
628
100
AcDbEntity
  8
RACCORDO
100
AcDbEllipse
 62
7
  6
CONTINUOUS
 10
-9.1496953439
 20
-17.6714466826
 30
0.0
 11
1.8480888181
 21
0.7655034529
 31
0.0
 40
0.9998215708
 41
2.7489566578
 42
3.5342286494
  0
ELLIPSE
  5
629
100
AcDbEntity
  8
RACCORDO
100
AcDbEllipse
 62
7
  6
CONTINUOUS
 10
-9.1496953439
 20
17.6714466826
 30
0.0
 11
1.8480888181
 21
-0.7655034529
 31
0.0
 40
0.9998215708
 41
2.7489566578
 42
3.5342286494
  0
ELLIPSE
  5
62A
100
AcDbEntity
  8
RACCORDO
100
AcDbEllipse
 62
7
  6
CONTINUOUS
 10
-1.5981173983
 20
19.8982544935
 30
0.0
 11
0.9
 21
-0.0
 31
0.0
 40
0.0174550649
 41
-3.1241393611
 42
-1.5707963268
  0
ELLIPSE
  5
62B
100
AcDbEntity
  8
RACCORDO
100
AcDbEllipse
 62
7
  6
CONTINUOUS
 10
1.5981173983
 20
19.8982544935
 30
0.0
 11
0.9
 21
0.0
 31
0.0
 40
0.0174550649
 41
-1.5707963268
 42
-0.0174532925
  0
ELLIPSE
  5
62C
100
AcDbEntity
  8
RACCORDO
100
AcDbEllipse
 62
7
  6
CONTINUOUS
 10
-9.3778922769
 20
18.6108268408
 30
0.0
 11
-0.3827517265
 21
0.924044409
 31
0.0
 40
0.9998215708
 41
-0.3926359958
 42
0.3926359958
  0
ELLIPSE
  5
62D
100
AcDbEntity
  8
RACCORDO
100
AcDbEllipse
 62
7
  6
CONTINUOUS
 10
-9.3778922769
 20
-18.6108268408
 30
0.0
 11
0.3827517265
 21
0.924044409
 31
0.0
 40
0.9998215708
 41
-3.5342286494
 42
-2.7489566578
  0
ELLIPSE
  5
62E
100
AcDbEntity
  8
RACCORDO
100
AcDbEllipse
 62
7
  6
CONTINUOUS
 10
9.3778922769
 20
-18.6108268408
 30
0.0
 11
-0.3827517265
 21
0.924044409
 31
0.0
 40
0.9998215708
 41
-3.5342286494
 42
-2.7489566578
  0
ELLIPSE
  5
62F
100
AcDbEntity
  8
RACCORDO
100
AcDbEllipse
 62
7
  6
CONTINUOUS
 10
9.3778922769
 20
18.6108268408
 30
0.0
 11
0.3827517265
 21
0.924044409
 31
0.0
 40
0.9998215708
 41
-0.3926359958
 42
0.3926359958
  0
ELLIPSE
  5
630
100
AcDbEntity
  8
RACCORDO
100
AcDbEllipse
 62
7
  6
CONTINUOUS
 10
-1.5981173983
 20
-19.8982544935
 30
0.0
 11
0.9
 21
-0.0
 31
0.0
 40
0.0174550649
 41
1.5707963268
 42
3.1241393611
  0
ELLIPSE
  5
631
100
AcDbEntity
  8
RACCORDO
100
AcDbEllipse
 62
7
  6
CONTINUOUS
 10
1.5981173983
 20
-19.8982544935
 30
0.0
 11
0.9
 21
-0.0
 31
0.0
 40
0.0174550649
 41
0.0174532925
 42
1.5707963268
  0
ELLIPSE
  5
632
100
AcDbEntity
  8
ASSI
100
AcDbEllipse
 62
7
  6
CONTINUOUS
 10
-9.1496953439
 20
17.6714466826
 30
0.0
 11
1.8480888181
 21
-0.7655034529
 31
0.0
 40
0.9998215708
 41
2.7489566578
 42
3.5342286494
  0
ELLIPSE
  5
633
100
AcDbEntity
  8
ASSI
100
AcDbEllipse
 62
7
  6
CONTINUOUS
 10
-9.1496953439
 20
-17.6714466826
 30
0.0
 11
1.8480888181
 21
0.7655034529
 31
0.0
 40
0.9998215708
 41
2.7489566578
 42
3.5342286494
  0
ELLIPSE
  5
634
100
AcDbEntity
  8
ASSI
100
AcDbEllipse
 62
7
  6
CONTINUOUS
 10
9.1496953439
 20
-17.6714466826
 30
0.0
 11
1.8480888181
 21
-0.7655034529
 31
0.0
 40
0.9998215708
 41
-0.3926359958
 42
0.3926359958
  0
ELLIPSE
  5
635
100
AcDbEntity
  8
ASSI
100
AcDbEllipse
 62
7
  6
CONTINUOUS
 10
9.1496953439
 20
17.6714466826
 30
0.0
 11
1.8480888181
 21
0.7655034529
 31
0.0
 40
0.9998215708
 41
-0.3926359958
 42
0.3926359958
  0
ELLIPSE
  5
636
100
AcDbEntity
  8
ASSI
100
AcDbEllipse
 62
7
  6
CONTINUOUS
 10
9.6862428021
 20
15.0
 30
0.0
 11
0.0
 21
2.1
 31
0.0
 40
0.0087268678
 41
3.1415926536
 42
6.2831853072
  0
ELLIPSE
  5
637
100
AcDbEntity
  8
ASSI
100
AcDbEllipse
 62
7
  6
CONTINUOUS
 10
9.6862428021
 20
10.0
 30
0.0
 11
0.0
 21
2.1
 31
0.0
 40
0.0087268678
 41
3.1415926536
 42
6.2831853072
  0
ELLIPSE
  5
638
100
AcDbEntity
  8
ASSI
100
AcDbEllipse
 62
7
  6
CONTINUOUS
 10
10.8724644676
 20
15.0
 30
0.0
 11
0.0
 21
2.1
 31
0.0
 40
0.0174550649
 41
-3.1415926536
 42
0.0
  0
ELLIPSE
  5
639
100
AcDbEntity
  8
ASSI
100
AcDbEllipse
 62
7
  6
CONTINUOUS
 10
10.8724644676
 20
10.0
 30
0.0
 11
0.0
 21
2.1
 31
0.0
 40
0.0174550649
 41
-3.1415926536
 42
0.0
  0
ELLIPSE
  5
63A
100
AcDbEntity
  8
ASSI
100
AcDbEllipse
 62
7
  6
CONTINUOUS
 10
1.5981173983
 20
-19.8982544935
 30
0.0
 11
0.9
 21
-0.0
 31
0.0
 40
0.0174550649
 41
0.0174532925
 42
1.5707963268
  0
ELLIPSE
  5
63B
100
AcDbEntity
  8
ASSI
100
AcDbEllipse
 62
7
  6
CONTINUOUS
 10
-1.5981173983
 20
-19.8982544935
 30
0.0
 11
0.9
 21
-0.0
 31
0.0
 40
0.0174550649
 41
1.5707963268
 42
3.1241393611
  0
ELLIPSE
  5
63C
100
AcDbEntity
  8
ASSI
100
AcDbEllipse
 62
7
  6
CONTINUOUS
 10
1.5981173983
 20
19.8982544935
 30
0.0
 11
0.9
 21
0.0
 31
0.0
 40
0.0174550649
 41
-1.5707963268
 42
-0.0174532925
  0
ELLIPSE
  5
63D
100
AcDbEntity
  8
ASSI
100
AcDbEllipse
 62
7
  6
CONTINUOUS
 10
-1.5981173983
 20
19.8982544935
 30
0.0
 11
0.9
 21
-0.0
 31
0.0
 40
0.0174550649
 41
-3.1241393611
 42
-1.5707963268
  0
ELLIPSE
  5
63E
100
AcDbEntity
  8
ASSI
100
AcDbEllipse
 62
7
  6
CONTINUOUS
 10
9.3778922769
 20
18.6108268408
 30
0.0
 11
0.3827517265
 21
0.924044409
 31
0.0
 40
0.9998215708
 41
-0.3926359958
 42
0.3926359958
  0
ELLIPSE
  5
63F
100
AcDbEntity
  8
ASSI
100
AcDbEllipse
 62
7
  6
CONTINUOUS
 10
9.3778922769
 20
-18.6108268408
 30
0.0
 11
-0.3827517265
 21
0.924044409
 31
0.0
 40
0.9998215708
 41
-3.5342286494
 42
-2.7489566578
  0
ELLIPSE
  5
640
100
AcDbEntity
  8
ASSI
100
AcDbEllipse
 62
7
  6
CONTINUOUS
 10
-9.3778922769
 20
-18.6108268408
 30
0.0
 11
0.3827517265
 21
0.924044409
 31
0.0
 40
0.9998215708
 41
-3.5342286494
 42
-2.7489566578
  0
ELLIPSE
  5
641
100
AcDbEntity
  8
ASSI
100
AcDbEllipse
 62
7
  6
CONTINUOUS
 10
-9.3778922769
 20
18.6108268408
 30
0.0
 11
-0.3827517265
 21
0.924044409
 31
0.0
 40
0.9998215708
 41
-0.3926359958
 42
0.3926359958
  0
ENDSEC
  0
SECTION
  2
OBJECTS
  0
DICTIONARY
  5
C
100
AcDbDictionary
280
0
281
1
  3
ACAD_GROUP
350
D
  3
ACAD_MLINESTYLE
350
17
  3
ACAD_LAYOUT
350
1A
  3
ACAD_PLOTSETTINGS
350
19
  3
ACAD_PLOTSTYLENAME
350
E
  0
DICTIONARY
  5
D
102
{ACAD_REACTORS
330
C
102
}
100
AcDbDictionary
280
0
281
1
  0
ACDBDICTIONARYWDFLT
  5
E
102
{ACAD_REACTORS
330
C
102
}
100
AcDbDictionary
281
1
  3
Normal
350
F
100
AcDbDictionaryWithDefault
340
F
  0
DICTIONARY
  5
17
102
{ACAD_REACTORS
330
C
102
}
100
AcDbDictionary
280
0
281
1
  3
Standard
350
18
  0
DICTIONARY
  5
19
102
{ACAD_REACTORS
330
C
102
}
100
AcDbDictionary
281
1
  0
DICTIONARY
  5
1A
102
{ACAD_REACTORS
330
C
102
}
100
AcDbDictionary
281
1
  3
Model
350
642
  3
Layout1
350
643
  0
ACDBPLACEHOLDER
  5
F
102
{ACAD_REACTORS
330
E
102
}
  0
MLINESTYLE
  5
18
102
{ACAD_REACTORS
330
17
102
}
100
AcDbMlineStyle
  2
STANDARD
 70
0
  3

 62
256
 51
90.0
 52
90.0
 71
2
 49
0.5
 62
256
  6
BYLAYER
 49
-0.5
 62
256
  6
BYLAYER
  0
LAYOUT
  5
642
102
{ACAD_REACTORS
330
1A
102
}
100
AcDbPlotSettings
  1

  2
none_device
  4
ISO_A4_(297.00_x_210.00_MM)
  6

 40
0.0
 41
0.0
 42
0.0
 43
0.0
 44
297.0
 45
210.0
 46
0.0
 47
0.0
 48
0.0
 49
0.0
140
0.0
141
0.0
142
1.0
143
1.0
 70
1024
 72
1
 73
0
 74
0
  7

 75
0
147
1.0
148
0.0
149
0.0
100
AcDbLayout
  1
Model
 70
0
 71
0
 10
0.0
 20
0.0
 11
297.0
 21
210.0
 12
0.0
 22
0.0
 32
0.0
 14
0.0
 24
0.0
 34
0.0
 15
0.0
 25
0.0
 35
0.0
146
0.0
 13
0.0
 23
0.0
 33
0.0
 16
1.0
 26
0.0
 36
0.0
 17
0.0
 27
1.0
 37
0.0
 76
0
330
220
345
0
346
0
  0
LAYOUT
  5
643
102
{ACAD_REACTORS
330
1A
102
}
100
AcDbPlotSettings
  1

  2
none_device
  4
ISO_A4_(297.00_x_210.00_MM)
  6

 40
0.0
 41
0.0
 42
0.0
 43
0.0
 44
297.0
 45
210.0
 46
0.0
 47
0.0
 48
0.0
 49
0.0
140
0.0
141
0.0
142
1.0
143
1.0
 70
0
 72
1
 73
0
 74
0
  7

 75
0
147
1.0
148
0.0
149
0.0
100
AcDbLayout
  1
Layout1
 70
0
 71
1
 10
0.0
 20
0.0
 11
297.0
 21
210.0
 12
0.0
 22
0.0
 32
0.0
 14
0.0
 24
0.0
 34
0.0
 15
0.0
 25
0.0
 35
0.0
146
0.0
 13
0.0
 23
0.0
 33
0.0
 16
1.0
 26
0.0
 36
0.0
 17
0.0
 27
1.0
 37
0.0
 76
0
330
221
345
0
346
0
  0
ENDSEC
  0
EOF
