0
SECTION
2
HEADER
9
$ACADVER
1
AC1014
9
$HANDSEED
5
       395
9
$EXTMAX
10
297.0000000000
20
210.0000000000
9
$EXTMIN
10
0.0000000000
20
0.0000000000
9
$LIMMIN
10
0.0000000000
20
0.0000000000
9
$LIMMAX
10
297.0000000000
20
210.0000000000
9
$VIEWCTR
10
148.5000000000
20
105.0000000000
9
$VIEWSIZE
40
210.0000000000
9
$CLAYER
8
0
9
$LTSCALE
40
16.3350000000
9
$CELTYPE
6
BYLAYER
9
$DIMSCALE
40
1
9
$DIMASZ
40
3.0000000000
9
$DIMEXO
40
1.8562500000
9
$DIMDLI
40
11.2860000000
9
$DIMEXE
40
5.3460000000
9
$DIMCEN
40
2.6730000000
9
$DIMLFAC
40
1.0000000000
9
$DIMTXT
40
3.0000000000
9
$DIMTOL
70
1
9
$DIMLIM
70
0
9
$DIMTFAC
40
1.0000000000
9
$DIMTP
40
0.0100000000
9
$DIMTM
40
0.0100000000
9
$MEASUREMENT
70
1
0
ENDSEC
0
SECTION
2
CLASSES
0
ENDSEC
0
SECTION
2
TABLES
0
TABLE
2
VPORT
5
8
100
AcDbSymbolTable
70
2
0
VPORT
5
1F4
100
AcDbSymbolTableRecord
100
AcDbViewportTableRecord
2
*ACTIVE
70
0
10
0.0
20
0.0
11
1.0
21
1.0
12
148.5000000000
22
105.0000000000
13
0.0
23
0.0
14
1.0
24
1.0
15
0.0
25
0.0
16
0.0
26
0.0
36
1.0
17
0.0
27
0.0
37
0.0
40
210.0000000000
41
1.4142857143
42
50.0
43
0.0
44
0.0
50
0.0
51
0.0
71
0
72
100
73
1
74
1
75
0
76
0
77
0
78
0
0
ENDTAB
0
TABLE
2
LTYPE
5
5
100
AcDbSymbolTable
70
6
0
LTYPE
5
14
100
AcDbSymbolTableRecord
100
AcDbLinetypeTableRecord
2
BYBLOCK
70
0
3

72
65
73
0
40
0.0
0
LTYPE
5
15
100
AcDbSymbolTableRecord
100
AcDbLinetypeTableRecord
2
BYLAYER
70
0
3

72
65
73
0
40
0.0
0
LTYPE
5
16
100
AcDbSymbolTableRecord
100
AcDbLinetypeTableRecord
2
CONTINUOUS
70
64
3
Solid line
72
65
73
0
40
0
0
LTYPE
5
1F5
100
AcDbSymbolTableRecord
100
AcDbLinetypeTableRecord
2
CENTER
70
64
3
____ _ ____ _ ____ _ ____ _ ____ _ ____ _ ____
72
65
73
4
40
0.6
49
0.375
74
0
49
-0.075
74
0
49
0.075
74
0
49
-0.075
74
0
0
LTYPE
5
1F6
100
AcDbSymbolTableRecord
100
AcDbLinetypeTableRecord
2
HIDDEN
70
64
3
- - - - - - - - - - - - - - - - - - - -
72
65
73
2
40
0.2
49
0.1
74
0
49
-0.1
74
0
0
LTYPE
5
1F7
100
AcDbSymbolTableRecord
100
AcDbLinetypeTableRecord
2
PHANTOM
70
64
3
_____ _ _ _____ _ _ _____ _ _ _____
72
65
73
6
40
0.8
49
0.45
74
0
49
-0.05
74
0
49
0.1
74
0
49
-0.05
74
0
49
0.1
74
0
49
-0.05
74
0
0
LTYPE
5
1F8
100
AcDbSymbolTableRecord
100
AcDbLinetypeTableRecord
2
DOT
70
64
3
. . . . . . . . . . . . . . . . . . . .
72
65
73
2
40
0.2
49
0.1
74
0
49
-0.1
74
0
0
LTYPE
5
1F9
100
AcDbSymbolTableRecord
100
AcDbLinetypeTableRecord
2
DASHED
70
64
3
- - - - - - - - - - - - - - - - - - - -
72
65
73
2
40
0.2
49
0.1
74
0
49
-0.1
74
0
0
ENDTAB
0
TABLE
2
LAYER
5
2
100
AcDbSymbolTable
70
36
0
LAYER
5
10
100
AcDbSymbolTableRecord
100
AcDbLayerTableRecord
2
0
70
0
62
7
6
CONTINUOUS
0
LAYER
5
1FA
100
AcDbSymbolTableRecord
100
AcDbLayerTableRecord
2
DEFAULT_1
70
0
62
7
6
CENTER
0
LAYER
5
1FB
100
AcDbSymbolTableRecord
100
AcDbLayerTableRecord
2
DEFAULT_2
70
0
62
8
6
HIDDEN
0
LAYER
5
1FC
100
AcDbSymbolTableRecord
100
AcDbLayerTableRecord
2
DEFAULT_3
70
0
62
7
6
PHANTOM
0
LAYER
5
1FD
100
AcDbSymbolTableRecord
100
AcDbLayerTableRecord
2
_BLACK_HOLE
70
0
62
7
6
CONTINUOUS
0
LAYER
5
1FE
100
AcDbSymbolTableRecord
100
AcDbLayerTableRecord
2
ASSI
70
0
62
7
6
CONTINUOUS
0
LAYER
5
1FF
100
AcDbSymbolTableRecord
100
AcDbLayerTableRecord
2
CIRCUITO_LETTORE_SA
70
0
62
7
6
CONTINUOUS
0
LAYER
5
200
100
AcDbSymbolTableRecord
100
AcDbLayerTableRecord
2
COLOR5
70
0
62
7
6
CONTINUOUS
0
LAYER
5
201
100
AcDbSymbolTableRecord
100
AcDbLayerTableRecord
2
CONNETTORE_L26
70
0
62
7
6
CONTINUOUS
0
LAYER
5
202
100
AcDbSymbolTableRecord
100
AcDbLayerTableRecord
2
COORDINATE
70
0
62
7
6
CONTINUOUS
0
LAYER
5
203
100
AcDbSymbolTableRecord
100
AcDbLayerTableRecord
2
COORD_ORIGINE
70
0
62
7
6
CONTINUOUS
0
LAYER
5
204
100
AcDbSymbolTableRecord
100
AcDbLayerTableRecord
2
CORPO
70
0
62
7
6
CONTINUOUS
0
LAYER
5
205
100
AcDbSymbolTableRecord
100
AcDbLayerTableRecord
2
COSMETICI
70
0
62
7
6
CONTINUOUS
0
LAYER
5
206
100
AcDbSymbolTableRecord
100
AcDbLayerTableRecord
2
CURVE
70
0
62
7
6
CONTINUOUS
0
LAYER
5
207
100
AcDbSymbolTableRecord
100
AcDbLayerTableRecord
2
DRAFT
70
0
62
7
6
CONTINUOUS
0
LAYER
5
208
100
AcDbSymbolTableRecord
100
AcDbLayerTableRecord
2
IGES
70
0
62
7
6
CONTINUOUS
0
LAYER
5
209
100
AcDbSymbolTableRecord
100
AcDbLayerTableRecord
2
IGES-IMPORTATI
70
0
62
7
6
CONTINUOUS
0
LAYER
5
20A
100
AcDbSymbolTableRecord
100
AcDbLayerTableRecord
2
IGES_SCRITTE
70
0
62
7
6
CONTINUOUS
0
LAYER
5
20B
100
AcDbSymbolTableRecord
100
AcDbLayerTableRecord
2
INTF_1
70
0
62
7
6
CONTINUOUS
0
LAYER
5
20C
100
AcDbSymbolTableRecord
100
AcDbLayerTableRecord
2
NOTE
70
0
62
7
6
CONTINUOUS
0
LAYER
5
20D
100
AcDbSymbolTableRecord
100
AcDbLayerTableRecord
2
PIANI
70
0
62
7
6
CONTINUOUS
0
LAYER
5
20E
100
AcDbSymbolTableRecord
100
AcDbLayerTableRecord
2
PIANI_DI_RIFERIMENTO
70
0
62
7
6
CONTINUOUS
0
LAYER
5
20F
100
AcDbSymbolTableRecord
100
AcDbLayerTableRecord
2
PIANI_ORIGINE
70
0
62
7
6
CONTINUOUS
0
LAYER
5
210
100
AcDbSymbolTableRecord
100
AcDbLayerTableRecord
2
PIANI_RIFERIMENTO
70
0
62
7
6
CONTINUOUS
0
LAYER
5
211
100
AcDbSymbolTableRecord
100
AcDbLayerTableRecord
2
PUNTI
70
0
62
7
6
CONTINUOUS
0
LAYER
5
212
100
AcDbSymbolTableRecord
100
AcDbLayerTableRecord
2
RACCORDO
70
0
62
7
6
CONTINUOUS
0
LAYER
5
213
100
AcDbSymbolTableRecord
100
AcDbLayerTableRecord
2
RGB____0____0____0__
70
0
62
7
6
CONTINUOUS
0
LAYER
5
214
100
AcDbSymbolTableRecord
100
AcDbLayerTableRecord
2
SMUSSO
70
0
62
7
6
CONTINUOUS
0
LAYER
5
215
100
AcDbSymbolTableRecord
100
AcDbLayerTableRecord
2
SUPERFICI
70
0
62
7
6
CONTINUOUS
0
LAYER
5
216
100
AcDbSymbolTableRecord
100
AcDbLayerTableRecord
2
TRASH
70
0
62
7
6
CONTINUOUS
0
LAYER
5
217
100
AcDbSymbolTableRecord
100
AcDbLayerTableRecord
2
XSEC_DATUMS
70
0
62
7
6
CONTINUOUS
0
ENDTAB
0
TABLE
2
STYLE
5
3
100
AcDbSymbolTable
70
1
0
STYLE
5
11
100
AcDbSymbolTableRecord
100
AcDbTextStyleTableRecord
2
STANDARD
70
0
40
0.0
41
0.8000000000
50
0.0
71
0
42
0.2
3
txt
4

0
ENDTAB
0
TABLE
2
VIEW
5
6
100
AcDbSymbolTable
70
0
0
ENDTAB
0
TABLE
2
UCS
5
7
100
AcDbSymbolTable
70
0
0
ENDTAB
0
TABLE
2
APPID
5
9
100
AcDbSymbolTable
70
1
0
APPID
5
218
100
AcDbSymbolTableRecord
100
AcDbRegAppTableRecord
2
ACAD
70
0
0
ENDTAB
0
TABLE
2
DIMSTYLE
5
A
100
AcDbSymbolTable
70
1
0
DIMSTYLE
105
219
100
AcDbSymbolTableRecord
100
AcDbDimStyleTableRecord
2
STANDARD
70
0
3

4

5

6

7

40
1.0
41
3.0000000000
42
0.0625
43
0.38
44
0.18
45
0.0
46
0.0
47
0.0100000000
48
0.0100000000
140
3.0000000000
141
0.09
142
0.0
143
25.4
144
1.0000000000
145
0.0
146
1.0000000000
147
0.09
71
1
72
0
73
0
74
0
75
0
76
0
77
1
78
8
170
0
171
2
172
0
173
0
174
0
175
0
176
0
177
0
178
0
270
2
271
2
272
2
273
2
274
2
340
11
275
0
280
0
281
0
282
0
283
1
284
8
285
0
286
0
287
3
288
0
0
ENDTAB
0
TABLE
2
BLOCK_RECORD
5
1
100
AcDbSymbolTable
70
0
0
BLOCK_RECORD
5
1B
100
AcDbSymbolTableRecord
100
AcDbBlockTableRecord
2
*MODEL_SPACE
0
BLOCK_RECORD
5
1C
100
AcDbSymbolTableRecord
100
AcDbBlockTableRecord
2
*PAPER_SPACE
0
ENDTAB
0
ENDSEC
0
SECTION
2
BLOCKS
0
BLOCK
5
1E
100
AcDbEntity
8
0
100
AcDbBlockBegin
2
*MODEL_SPACE
70
0
10
0.0
20
0.0
30
0.0
3
*MODEL_SPACE
1

0
ENDBLK
5
1F
100
AcDbEntity
8
0
100
AcDbBlockEnd
0
BLOCK
5
20
100
AcDbEntity
8
0
100
AcDbBlockBegin
2
*PAPER_SPACE
70
0
10
0.0
20
0.0
30
0.0
3
*PAPER_SPACE
1

0
ENDBLK
5
21
100
AcDbEntity
8
0
100
AcDbBlockEnd
0
ENDSEC
0
SECTION
2
ENTITIES
0
LINE
5
21A
100
AcDbEntity
8
0
100
AcDbLine
62
7
6
CONTINUOUS
10
-63.3158716221
20
41.4087268157
11
-63.3176151644
21
41.4065528865
0
LINE
5
21B
100
AcDbEntity
8
0
100
AcDbLine
62
7
6
CONTINUOUS
10
-71.2563135668
20
15.9861256136
11
-71.2563135672
21
-44.6313883541
0
LINE
5
21C
100
AcDbEntity
8
0
100
AcDbLine
62
9
6
CONTINUOUS
10
-70.7583505250
20
-38.0766105215
11
-70.7583505607
21
21.9835523169
0
LINE
5
21D
100
AcDbEntity
8
0
100
AcDbLine
62
9
6
CONTINUOUS
10
-68.7643467814
20
-37.0182254175
11
-68.7643455151
21
23.0419376316
0
LINE
5
21E
100
AcDbEntity
8
0
100
AcDbLine
62
7
6
CONTINUOUS
10
-68.6050076946
20
23.7281264249
11
-68.6050076946
21
23.4854638880
0
LINE
5
21F
100
AcDbEntity
8
0
100
AcDbLine
62
7
6
CONTINUOUS
10
-68.6050076870
20
22.0902580098
11
-68.6050076946
21
-37.4611093738
0
LINE
5
220
100
AcDbEntity
8
0
100
AcDbLine
62
7
6
CONTINUOUS
10
-71.2557713614
20
16.0281231105
11
-71.2563135668
21
15.9861256136
0
LINE
5
221
100
AcDbEntity
8
0
100
AcDbLine
62
7
6
CONTINUOUS
10
-68.6050076870
20
22.0902580098
11
-68.6020397499
21
22.1786010938
0
LINE
5
222
100
AcDbEntity
8
0
100
AcDbLine
62
7
6
CONTINUOUS
10
-70.7342181546
20
22.2949489568
11
-70.7339170091
21
22.2969391523
0
LINE
5
223
100
AcDbEntity
8
0
100
AcDbLine
62
9
6
CONTINUOUS
10
-67.7626825541
20
-40.6015828964
11
-67.7626826071
21
-39.3402785722
0
LINE
5
224
100
AcDbEntity
8
0
100
AcDbLine
62
9
6
CONTINUOUS
10
-65.4041543207
20
-27.7469378182
11
-65.4041543207
21
-26.1289044826
0
LINE
5
225
100
AcDbEntity
8
0
100
AcDbLine
62
9
6
CONTINUOUS
10
-61.7564935956
20
41.5706060136
11
-61.7564935956
21
42.1563917636
0
LINE
5
226
100
AcDbEntity
8
0
100
AcDbLine
62
9
6
CONTINUOUS
10
-61.2813459588
20
28.8112784703
11
-61.2813459588
21
30.2254913662
0
LINE
5
227
100
AcDbEntity
8
0
100
AcDbLine
62
7
6
CONTINUOUS
10
68.2440927733
20
-47.0887228442
11
-68.2567199076
21
-47.0887228442
0
LINE
5
228
100
AcDbEntity
8
0
100
AcDbLine
62
9
6
CONTINUOUS
10
-19.1172090001
20
41.6844022128
11
-19.6563863981
21
41.0888825781
0
LINE
5
229
100
AcDbEntity
8
0
100
AcDbLine
62
9
6
CONTINUOUS
10
-18.6134214013
20
41.1112838622
11
-19.3205279621
21
40.6112838337
0
LINE
5
22A
100
AcDbEntity
8
0
100
AcDbLine
62
9
6
CONTINUOUS
10
67.7500554067
20
-40.6015828964
11
-67.7626825408
21
-40.6015828964
0
LINE
5
22B
100
AcDbEntity
8
0
100
AcDbLine
62
7
6
CONTINUOUS
10
66.6289240579
20
-39.9274237214
11
-66.6415511922
21
-39.9274237214
0
LINE
5
22C
100
AcDbEntity
8
0
100
AcDbLine
62
7
6
CONTINUOUS
10
-37.8164795977
20
-0.2148540589
11
-37.8164795977
21
-3.2148540589
0
LINE
5
22D
100
AcDbEntity
8
0
100
AcDbLine
62
7
6
CONTINUOUS
10
-37.2563135671
20
-0.2148540589
11
-37.2563135671
21
-3.2148540589
0
LINE
5
22E
100
AcDbEntity
8
0
100
AcDbLine
62
7
6
CONTINUOUS
10
-36.7563135671
20
-0.2148540589
11
-36.7563135671
21
-3.2148540589
0
LINE
5
22F
100
AcDbEntity
8
0
100
AcDbLine
62
7
6
CONTINUOUS
10
-36.1850543644
20
-0.2148540589
11
-36.1850543644
21
-3.2148540589
0
LINE
5
230
100
AcDbEntity
8
0
100
AcDbLine
62
7
6
CONTINUOUS
10
-33.8275727698
20
-3.2148540589
11
-33.8275727698
21
-0.2148540589
0
LINE
5
231
100
AcDbEntity
8
0
100
AcDbLine
62
9
6
CONTINUOUS
10
-20.7347370091
20
28.8112784703
11
-19.3205238052
21
29.8112785247
0
LINE
5
232
100
AcDbEntity
8
0
100
AcDbLine
62
7
6
CONTINUOUS
10
-33.2563135671
20
-3.2148540589
11
-33.2563135671
21
-0.2148540589
0
LINE
5
233
100
AcDbEntity
8
0
100
AcDbLine
62
7
6
CONTINUOUS
10
-32.7563135671
20
-3.2148540589
11
-32.7563135671
21
-0.2148540589
0
LINE
5
234
100
AcDbEntity
8
0
100
AcDbLine
62
7
6
CONTINUOUS
10
-32.1961475366
20
-3.2148540589
11
-32.1961475366
21
-0.2148540589
0
LINE
5
235
100
AcDbEntity
8
0
100
AcDbLine
62
9
6
CONTINUOUS
10
-10.9921004839
20
30.3331121029
11
-11.6992070447
21
29.8331120745
0
LINE
5
236
100
AcDbEntity
8
0
100
AcDbLine
62
9
6
CONTINUOUS
10
65.3915271865
20
-26.1289044826
11
67.3838797095
21
-26.0286820852
0
LINE
5
237
100
AcDbEntity
8
0
100
AcDbLine
62
9
6
CONTINUOUS
10
-65.4041543207
20
-26.1289044826
11
-67.3965068437
21
-26.0286820852
0
LINE
5
238
100
AcDbEntity
8
0
100
AcDbLine
62
9
6
CONTINUOUS
10
65.3915312787
20
-27.7469378182
11
-65.4041584129
21
-27.7469378182
0
LINE
5
239
100
AcDbEntity
8
0
100
AcDbLine
62
9
6
CONTINUOUS
10
65.3908267075
20
-26.1289044826
11
-65.4034675239
21
-26.1289044826
0
LINE
5
23A
100
AcDbEntity
8
0
100
AcDbLine
62
9
6
CONTINUOUS
10
-20.7347370091
20
28.8112784703
11
-20.7347413757
21
41.5706060136
0
LINE
5
23B
100
AcDbEntity
8
0
100
AcDbLine
62
9
6
CONTINUOUS
10
-19.3205238052
20
29.8112785247
11
-19.3205279621
21
40.6112838337
0
LINE
5
23C
100
AcDbEntity
8
0
100
AcDbLine
62
9
6
CONTINUOUS
10
-11.6992082839
20
19.0331140702
11
-11.6992070447
21
29.8331120745
0
LINE
5
23D
100
AcDbEntity
8
0
100
AcDbLine
62
9
6
CONTINUOUS
10
-10.9921017962
20
18.8260073996
11
-10.9921004839
21
30.3331121029
0
LINE
5
23E
100
AcDbEntity
8
0
100
AcDbLine
62
7
6
CONTINUOUS
10
-8.0664795977
20
2.0351459411
11
-8.0664795977
21
-0.9648540589
0
LINE
5
23F
100
AcDbEntity
8
0
100
AcDbLine
62
7
6
CONTINUOUS
10
-7.5063135671
20
2.0351459411
11
-7.5063135671
21
-0.9648540589
0
LINE
5
240
100
AcDbEntity
8
0
100
AcDbLine
62
7
6
CONTINUOUS
10
-7.0063135671
20
2.0351459411
11
-7.0063135671
21
-0.9648540589
0
LINE
5
241
100
AcDbEntity
8
0
100
AcDbLine
62
7
6
CONTINUOUS
10
-6.4350543644
20
2.0351459411
11
-6.4350543644
21
-0.9648540589
0
LINE
5
242
100
AcDbEntity
8
0
100
AcDbLine
62
9
6
CONTINUOUS
10
18.6007902029
20
41.1112844246
11
10.9794709039
21
30.3331094566
0
LINE
5
243
100
AcDbEntity
8
0
100
AcDbLine
62
9
6
CONTINUOUS
10
19.3078970741
20
40.6112844608
11
11.6865777750
21
29.8331094929
0
LINE
5
244
100
AcDbEntity
8
0
100
AcDbLine
62
7
6
CONTINUOUS
10
-4.2563070009
20
27.3660626117
11
-4.2563070009
21
25.1105710332
0
LINE
5
245
100
AcDbEntity
8
0
100
AcDbLine
62
7
6
CONTINUOUS
10
-4.2563070009
20
23.6963573040
11
-4.2563070009
21
21.6659304546
0
LINE
5
246
100
AcDbEntity
8
0
100
AcDbLine
62
7
6
CONTINUOUS
10
-3.5563071079
20
21.2515520016
11
-3.5563070009
21
23.6963572474
0
LINE
5
247
100
AcDbEntity
8
0
100
AcDbLine
62
7
6
CONTINUOUS
10
-3.5563070009
20
25.1105709767
11
-3.5563070009
21
26.8931980286
0
LINE
5
248
100
AcDbEntity
8
0
100
AcDbLine
62
7
6
CONTINUOUS
10
-1.0063070009
20
20.5012956886
11
-1.0063070009
21
20.9393609263
0
LINE
5
249
100
AcDbEntity
8
0
100
AcDbLine
62
7
6
CONTINUOUS
10
-1.0063070009
20
27.8675668859
11
-1.0063070009
21
28.5637787517
0
LINE
5
24A
100
AcDbEntity
8
0
100
AcDbLine
62
9
6
CONTINUOUS
10
19.3078899640
20
29.8112783954
11
18.0370721725
21
28.0140703807
0
LINE
5
24B
100
AcDbEntity
8
0
100
AcDbLine
62
9
6
CONTINUOUS
10
17.1980946097
20
26.8275767621
11
11.6865760610
21
19.0331113590
0
LINE
5
24C
100
AcDbEntity
8
0
100
AcDbLine
62
9
6
CONTINUOUS
10
20.7221036241
20
28.8112784703
11
12.2221097989
21
16.7904701921
0
LINE
5
24D
100
AcDbEntity
8
0
100
AcDbLine
62
9
6
CONTINUOUS
10
-37.8164795977
20
-3.2148540589
11
-37.2563135671
21
-3.2148540589
0
LINE
5
24E
100
AcDbEntity
8
0
100
AcDbLine
62
9
6
CONTINUOUS
10
37.8038524634
20
-3.2148540589
11
37.2436864329
21
-3.2148540589
0
LINE
5
24F
100
AcDbEntity
8
0
100
AcDbLine
62
9
6
CONTINUOUS
10
-36.7563135671
20
-3.2148540589
11
-36.1850543644
21
-3.2148540589
0
LINE
5
250
100
AcDbEntity
8
0
100
AcDbLine
62
9
6
CONTINUOUS
10
36.7436864329
20
-3.2148540589
11
36.1724272302
21
-3.2148540589
0
LINE
5
251
100
AcDbEntity
8
0
100
AcDbLine
62
9
6
CONTINUOUS
10
32.1835204023
20
-3.2148540589
11
32.7436864329
21
-3.2148540589
0
LINE
5
252
100
AcDbEntity
8
0
100
AcDbLine
62
9
6
CONTINUOUS
10
-32.1961475366
20
-3.2148540589
11
-32.7563135671
21
-3.2148540589
0
LINE
5
253
100
AcDbEntity
8
0
100
AcDbLine
62
9
6
CONTINUOUS
10
33.2436864329
20
-3.2148540589
11
33.8149456356
21
-3.2148540589
0
LINE
5
254
100
AcDbEntity
8
0
100
AcDbLine
62
9
6
CONTINUOUS
10
-33.2563135671
20
-3.2148540589
11
-33.8275727698
21
-3.2148540589
0
LINE
5
255
100
AcDbEntity
8
0
100
AcDbLine
62
9
6
CONTINUOUS
10
-8.0664795977
20
-0.9648540589
11
-7.5063135671
21
-0.9648540589
0
LINE
5
256
100
AcDbEntity
8
0
100
AcDbLine
62
9
6
CONTINUOUS
10
8.0538524634
20
-0.9648540589
11
7.4936864329
21
-0.9648540589
0
LINE
5
257
100
AcDbEntity
8
0
100
AcDbLine
62
9
6
CONTINUOUS
10
-7.0063135671
20
-0.9648540589
11
-6.4350543644
21
-0.9648540589
0
LINE
5
258
100
AcDbEntity
8
0
100
AcDbLine
62
9
6
CONTINUOUS
10
6.9936864329
20
-0.9648540589
11
6.4224272302
21
-0.9648540589
0
LINE
5
259
100
AcDbEntity
8
0
100
AcDbLine
62
9
6
CONTINUOUS
10
-37.8164795977
20
-0.2148540589
11
-37.2563135671
21
-0.2148540589
0
LINE
5
25A
100
AcDbEntity
8
0
100
AcDbLine
62
9
6
CONTINUOUS
10
37.8038524634
20
-0.2148540589
11
37.2436864329
21
-0.2148540589
0
LINE
5
25B
100
AcDbEntity
8
0
100
AcDbLine
62
9
6
CONTINUOUS
10
-36.7563135671
20
-0.2148540589
11
-36.1850543644
21
-0.2148540589
0
LINE
5
25C
100
AcDbEntity
8
0
100
AcDbLine
62
9
6
CONTINUOUS
10
36.7436864329
20
-0.2148540589
11
36.1724272302
21
-0.2148540589
0
LINE
5
25D
100
AcDbEntity
8
0
100
AcDbLine
62
9
6
CONTINUOUS
10
32.1835204023
20
-0.2148540589
11
32.7436864329
21
-0.2148540589
0
LINE
5
25E
100
AcDbEntity
8
0
100
AcDbLine
62
9
6
CONTINUOUS
10
-32.1961475366
20
-0.2148540589
11
-32.7563135671
21
-0.2148540589
0
LINE
5
25F
100
AcDbEntity
8
0
100
AcDbLine
62
9
6
CONTINUOUS
10
33.2436864329
20
-0.2148540589
11
33.8149456356
21
-0.2148540589
0
LINE
5
260
100
AcDbEntity
8
0
100
AcDbLine
62
9
6
CONTINUOUS
10
-33.2563135671
20
-0.2148540589
11
-33.8275727698
21
-0.2148540589
0
LINE
5
261
100
AcDbEntity
8
0
100
AcDbLine
62
9
6
CONTINUOUS
10
-12.2347421368
20
16.7904741434
11
-20.7347370091
21
28.8112784703
0
LINE
5
262
100
AcDbEntity
8
0
100
AcDbLine
62
7
6
CONTINUOUS
10
0.9936929991
20
28.5637769679
11
0.9936929991
21
27.8675667243
0
LINE
5
263
100
AcDbEntity
8
0
100
AcDbLine
62
7
6
CONTINUOUS
10
0.9936929991
20
20.9393607647
11
0.9936929991
21
20.5012974657
0
LINE
5
264
100
AcDbEntity
8
0
100
AcDbLine
62
7
6
CONTINUOUS
10
3.5436929991
20
26.8931906714
11
3.5436929991
21
25.1105704031
0
LINE
5
265
100
AcDbEntity
8
0
100
AcDbLine
62
7
6
CONTINUOUS
10
3.5436929991
20
23.6963566739
11
3.5436928921
21
21.2515579198
0
LINE
5
266
100
AcDbEntity
8
0
100
AcDbLine
62
7
6
CONTINUOUS
10
4.2436929991
20
21.6659389546
11
4.2436929991
21
23.6963566174
0
LINE
5
267
100
AcDbEntity
8
0
100
AcDbLine
62
7
6
CONTINUOUS
10
4.2436929991
20
25.1105703466
11
4.2436929991
21
27.3660522435
0
LINE
5
268
100
AcDbEntity
8
0
100
AcDbLine
62
7
6
CONTINUOUS
10
6.4224272302
20
-0.9648540589
11
6.4224272302
21
2.0351459411
0
LINE
5
269
100
AcDbEntity
8
0
100
AcDbLine
62
9
6
CONTINUOUS
10
-8.0664795977
20
2.0351459411
11
-7.5063135671
21
2.0351459411
0
LINE
5
26A
100
AcDbEntity
8
0
100
AcDbLine
62
9
6
CONTINUOUS
10
8.0538524634
20
2.0351459411
11
7.4936864329
21
2.0351459411
0
LINE
5
26B
100
AcDbEntity
8
0
100
AcDbLine
62
9
6
CONTINUOUS
10
-7.0063135671
20
2.0351459411
11
-6.4350543644
21
2.0351459411
0
LINE
5
26C
100
AcDbEntity
8
0
100
AcDbLine
62
9
6
CONTINUOUS
10
6.9936864329
20
2.0351459411
11
6.4224272302
21
2.0351459411
0
LINE
5
26D
100
AcDbEntity
8
0
100
AcDbLine
62
9
6
CONTINUOUS
10
-11.6992082839
20
19.0331140702
11
-17.2107527143
21
26.8276125531
0
LINE
5
26E
100
AcDbEntity
8
0
100
AcDbLine
62
9
6
CONTINUOUS
10
-18.0496745523
20
28.0140268289
11
-19.3205238052
21
29.8112785247
0
LINE
5
26F
100
AcDbEntity
8
0
100
AcDbLine
62
7
6
CONTINUOUS
10
6.9936864329
20
-0.9648540589
11
6.9936864329
21
2.0351459411
0
LINE
5
270
100
AcDbEntity
8
0
100
AcDbLine
62
7
6
CONTINUOUS
10
7.4936864329
20
-0.9648540589
11
7.4936864329
21
2.0351459411
0
LINE
5
271
100
AcDbEntity
8
0
100
AcDbLine
62
7
6
CONTINUOUS
10
8.0538524634
20
-0.9648540589
11
8.0538524634
21
2.0351459411
0
LINE
5
272
100
AcDbEntity
8
0
100
AcDbLine
62
9
6
CONTINUOUS
10
10.9794709039
20
30.3331094566
11
10.9794691167
21
18.8260046238
0
LINE
5
273
100
AcDbEntity
8
0
100
AcDbLine
62
9
6
CONTINUOUS
10
11.6865760610
20
19.0331113590
11
11.6865777750
21
29.8331094929
0
LINE
5
274
100
AcDbEntity
8
0
100
AcDbLine
62
9
6
CONTINUOUS
10
-11.6992070447
20
29.8331120745
11
-19.3205279621
21
40.6112838337
0
LINE
5
275
100
AcDbEntity
8
0
100
AcDbLine
62
9
6
CONTINUOUS
10
-10.9921004839
20
30.3331121029
11
-18.6134214013
21
41.1112838622
0
LINE
5
276
100
AcDbEntity
8
0
100
AcDbLine
62
9
6
CONTINUOUS
10
12.2221097989
20
16.7904701921
11
-12.2347421368
21
16.7904741434
0
LINE
5
277
100
AcDbEntity
8
0
100
AcDbLine
62
9
6
CONTINUOUS
10
19.3078970741
20
40.6112844608
11
19.3078899640
21
29.8112783954
0
LINE
5
278
100
AcDbEntity
8
0
100
AcDbLine
62
9
6
CONTINUOUS
10
20.7221110931
20
41.5706060136
11
20.7221036241
21
28.8112784703
0
LINE
5
279
100
AcDbEntity
8
0
100
AcDbLine
62
9
6
CONTINUOUS
10
61.2687188245
20
28.8112784703
11
63.2389651362
21
29.0084164880
0
LINE
5
27A
100
AcDbEntity
8
0
100
AcDbLine
62
9
6
CONTINUOUS
10
11.1240336371
20
18.2046837650
11
-11.1366662390
21
18.2046873615
0
LINE
5
27B
100
AcDbEntity
8
0
100
AcDbLine
62
7
6
CONTINUOUS
10
4.2436928848
20
22.9892499196
11
3.5436928848
21
22.9892499761
0
LINE
5
27C
100
AcDbEntity
8
0
100
AcDbLine
62
7
6
CONTINUOUS
10
-3.5563071152
20
22.9892505497
11
-4.2563071152
21
22.9892506062
0
LINE
5
27D
100
AcDbEntity
8
0
100
AcDbLine
62
7
6
CONTINUOUS
10
4.2436929991
20
23.6963566174
11
3.5436929991
21
23.6963566739
0
LINE
5
27E
100
AcDbEntity
8
0
100
AcDbLine
62
7
6
CONTINUOUS
10
-3.5563070009
20
23.6963572474
11
-4.2563070009
21
23.6963573040
0
LINE
5
27F
100
AcDbEntity
8
0
100
AcDbLine
62
9
6
CONTINUOUS
10
-61.2813459588
20
28.8112784703
11
-63.2515922704
21
29.0084164880
0
LINE
5
280
100
AcDbEntity
8
0
100
AcDbLine
62
7
6
CONTINUOUS
10
-4.2563070009
20
25.1105710332
11
-3.5563070009
21
25.1105709767
0
LINE
5
281
100
AcDbEntity
8
0
100
AcDbLine
62
7
6
CONTINUOUS
10
3.5436929991
20
25.1105704031
11
4.2436929991
21
25.1105703466
0
LINE
5
282
100
AcDbEntity
8
0
100
AcDbLine
62
9
6
CONTINUOUS
10
61.2693367518
20
28.8112784703
11
20.7221036241
21
28.8112784703
0
LINE
5
283
100
AcDbEntity
8
0
100
AcDbLine
62
9
6
CONTINUOUS
10
-20.7347370091
20
28.8112784703
11
-61.2819509645
21
28.8112784703
0
LINE
5
284
100
AcDbEntity
8
0
100
AcDbLine
62
9
6
CONTINUOUS
10
10.9794708307
20
29.6260027577
11
-10.9921005570
21
29.6260054039
0
LINE
5
285
100
AcDbEntity
8
0
100
AcDbLine
62
7
6
CONTINUOUS
10
32.1835204023
20
-3.2148540589
11
32.1835204023
21
-0.2148540589
0
LINE
5
286
100
AcDbEntity
8
0
100
AcDbLine
62
7
6
CONTINUOUS
10
32.7436864329
20
-3.2148540589
11
32.7436864329
21
-0.2148540589
0
LINE
5
287
100
AcDbEntity
8
0
100
AcDbLine
62
7
6
CONTINUOUS
10
33.2436864329
20
-3.2148540589
11
33.2436864329
21
-0.2148540589
0
LINE
5
288
100
AcDbEntity
8
0
100
AcDbLine
62
7
6
CONTINUOUS
10
33.8149456356
20
-3.2148540589
11
33.8149456356
21
-0.2148540589
0
LINE
5
289
100
AcDbEntity
8
0
100
AcDbLine
62
9
6
CONTINUOUS
10
61.2687188130
20
30.2254913662
11
20.7221036241
21
30.2254913662
0
LINE
5
28A
100
AcDbEntity
8
0
100
AcDbLine
62
9
6
CONTINUOUS
10
-20.7347370091
20
30.2254913662
11
-61.2813459466
21
30.2254913662
0
LINE
5
28B
100
AcDbEntity
8
0
100
AcDbLine
62
9
6
CONTINUOUS
10
10.9794709039
20
30.3331094566
11
-10.9921004839
21
30.3331121029
0
LINE
5
28C
100
AcDbEntity
8
0
100
AcDbLine
62
9
6
CONTINUOUS
10
11.6865777750
20
29.8331094929
11
10.9794709039
21
30.3331094566
0
LINE
5
28D
100
AcDbEntity
8
0
100
AcDbLine
62
7
6
CONTINUOUS
10
36.1724272302
20
-0.2148540589
11
36.1724272302
21
-3.2148540589
0
LINE
5
28E
100
AcDbEntity
8
0
100
AcDbLine
62
7
6
CONTINUOUS
10
36.7436864329
20
-0.2148540589
11
36.7436864329
21
-3.2148540589
0
LINE
5
28F
100
AcDbEntity
8
0
100
AcDbLine
62
7
6
CONTINUOUS
10
37.2436864329
20
-0.2148540589
11
37.2436864329
21
-3.2148540589
0
LINE
5
290
100
AcDbEntity
8
0
100
AcDbLine
62
7
6
CONTINUOUS
10
37.8038524634
20
-0.2148540589
11
37.8038524634
21
-3.2148540589
0
LINE
5
291
100
AcDbEntity
8
0
100
AcDbLine
62
9
6
CONTINUOUS
10
20.7221036241
20
28.8112784703
11
19.3078899640
21
29.8112783954
0
LINE
5
292
100
AcDbEntity
8
0
100
AcDbLine
62
9
6
CONTINUOUS
10
61.7438664740
20
41.5706060136
11
20.7221110931
21
41.5706060136
0
LINE
5
293
100
AcDbEntity
8
0
100
AcDbLine
62
9
6
CONTINUOUS
10
-20.7347413757
20
41.5706060136
11
-61.7564936074
21
41.5706060136
0
LINE
5
294
100
AcDbEntity
8
0
100
AcDbLine
62
9
6
CONTINUOUS
10
-19.1172090001
20
41.6844022128
11
19.1045776751
21
41.6844029792
0
LINE
5
295
100
AcDbEntity
8
0
100
AcDbLine
62
9
6
CONTINUOUS
10
-20.7365746996
20
41.9540508389
11
20.7239419787
21
41.9540518170
0
LINE
5
296
100
AcDbEntity
8
0
100
AcDbLine
62
7
6
CONTINUOUS
10
61.7438664613
20
42.1563931177
11
-61.7564935956
21
42.1563931177
0
LINE
5
297
100
AcDbEntity
8
0
100
AcDbLine
62
9
6
CONTINUOUS
10
19.3078970741
20
40.6112844608
11
18.6007902029
21
41.1112844246
0
LINE
5
298
100
AcDbEntity
8
0
100
AcDbLine
62
9
6
CONTINUOUS
10
19.6437554517
20
41.0888834050
11
19.1045776751
21
41.6844029792
0
LINE
5
299
100
AcDbEntity
8
0
100
AcDbLine
62
9
6
CONTINUOUS
10
61.2687188245
20
28.8112784703
11
61.2687188245
21
30.2254913662
0
LINE
5
29A
100
AcDbEntity
8
0
100
AcDbLine
62
9
6
CONTINUOUS
10
61.7438664613
20
41.5706060136
11
61.7438664613
21
42.1563931169
0
LINE
5
29B
100
AcDbEntity
8
0
100
AcDbLine
62
7
6
CONTINUOUS
10
68.5894113907
20
22.1786177222
11
68.5923805527
21
22.0902580595
0
LINE
5
29C
100
AcDbEntity
8
0
100
AcDbLine
62
9
6
CONTINUOUS
10
65.3915271865
20
-27.7469378182
11
65.3915271865
21
-26.1289044826
0
LINE
5
29D
100
AcDbEntity
8
0
100
AcDbLine
62
9
6
CONTINUOUS
10
67.7500554199
20
-40.6015828964
11
67.7500554239
21
-39.3402786215
0
LINE
5
29E
100
AcDbEntity
8
0
100
AcDbLine
62
7
6
CONTINUOUS
10
68.5923805604
20
-37.4611093743
11
68.5923805527
21
22.0902580595
0
LINE
5
29F
100
AcDbEntity
8
0
100
AcDbLine
62
7
6
CONTINUOUS
10
68.5923805604
20
23.4854638850
11
68.5923805604
21
23.7281264249
0
LINE
5
2A0
100
AcDbEntity
8
0
100
AcDbLine
62
9
6
CONTINUOUS
10
68.7517183804
20
23.0419376309
11
68.7517196472
21
-37.0182254175
0
LINE
5
2A1
100
AcDbEntity
8
0
100
AcDbLine
62
7
6
CONTINUOUS
10
71.2436864326
20
15.9861256127
11
71.2431442151
21
16.0281235094
0
LINE
5
2A2
100
AcDbEntity
8
0
100
AcDbLine
62
9
6
CONTINUOUS
10
70.7457234265
20
21.9835523161
11
70.7457233907
21
-38.0766105215
0
LINE
5
2A3
100
AcDbEntity
8
0
100
AcDbLine
62
7
6
CONTINUOUS
10
71.2436864329
20
-44.6313883538
11
71.2436864326
21
15.9861256127
0
LINE
5
2A4
100
AcDbEntity
8
0
100
AcDbLine
62
7
6
CONTINUOUS
10
63.3029174209
20
41.4091339792
11
63.3032095578
21
41.4087703831
0
LINE
5
2A5
100
AcDbEntity
8
0
100
AcDbLine
62
7
6
CONTINUOUS
10
70.7212898064
20
22.2969395814
11
70.7216049529
21
22.2948565509
0
CIRCLE
5
2A6
100
AcDbEntity
8
0
100
AcDbCircle
62
7
6
CONTINUOUS
10
57.2436864329
20
-18.4648540589
40
6.0000000000
0
CIRCLE
5
2A7
100
AcDbEntity
8
0
100
AcDbCircle
62
7
6
CONTINUOUS
10
57.2436864329
20
-18.4648540589
40
4.0481345110
0
CIRCLE
5
2A8
100
AcDbEntity
8
0
100
AcDbCircle
62
7
6
CONTINUOUS
10
-57.2563135671
20
-18.4648540589
40
6.0000000000
0
CIRCLE
5
2A9
100
AcDbEntity
8
0
100
AcDbCircle
62
7
6
CONTINUOUS
10
-57.2563135671
20
-18.4648540589
40
4.0481345110
0
CIRCLE
5
2AA
100
AcDbEntity
8
0
100
AcDbCircle
62
7
6
CONTINUOUS
10
-54.2563135671
20
21.1351456927
40
6.0000000000
0
CIRCLE
5
2AB
100
AcDbEntity
8
0
100
AcDbCircle
62
7
6
CONTINUOUS
10
-54.2563135671
20
21.1351456927
40
4.0481345110
0
CIRCLE
5
2AC
100
AcDbEntity
8
0
100
AcDbCircle
62
7
6
CONTINUOUS
10
54.2436864329
20
21.1351456927
40
6.0000000000
0
CIRCLE
5
2AD
100
AcDbEntity
8
0
100
AcDbCircle
62
7
6
CONTINUOUS
10
54.2436864329
20
21.1351456927
40
4.0481345110
0
CIRCLE
5
2AE
100
AcDbEntity
8
0
100
AcDbCircle
62
7
6
CONTINUOUS
10
-57.2563135671
20
-18.4648540589
40
7.1503111394
0
CIRCLE
5
2AF
100
AcDbEntity
8
0
100
AcDbCircle
62
7
6
CONTINUOUS
10
-54.2563135671
20
21.1351457158
40
7.1503116228
0
CIRCLE
5
2B0
100
AcDbEntity
8
0
100
AcDbCircle
62
7
6
CONTINUOUS
10
57.2436864329
20
-18.4648540589
40
7.1503111394
0
CIRCLE
5
2B1
100
AcDbEntity
8
0
100
AcDbCircle
62
7
6
CONTINUOUS
10
54.2436864329
20
21.1351457158
40
7.1503116228
0
ARC
5
2B2
100
AcDbEntity
8
0
100
AcDbCircle
62
7
6
CONTINUOUS
10
-35.0063135671
20
-0.2148540589
40
2.8101660306
100
AcDbArc
50
0.0000000000
51
180.0000000000
0
ARC
5
2B3
100
AcDbEntity
8
0
100
AcDbCircle
62
7
6
CONTINUOUS
10
-35.0063135671
20
-3.2148540589
40
2.8101660306
100
AcDbArc
50
180.0000000000
51
360.0000000000
0
ARC
5
2B4
100
AcDbEntity
8
0
100
AcDbCircle
62
7
6
CONTINUOUS
10
34.9936864329
20
-3.2148540589
40
2.8101660306
100
AcDbArc
50
180.0000000000
51
360.0000000000
0
ARC
5
2B5
100
AcDbEntity
8
0
100
AcDbCircle
62
7
6
CONTINUOUS
10
34.9936864329
20
-0.2148540589
40
2.8101660306
100
AcDbArc
50
0.0000000000
51
180.0000000000
0
ARC
5
2B6
100
AcDbEntity
8
0
100
AcDbCircle
62
7
6
CONTINUOUS
10
-0.0063135671
20
-0.9648540589
40
8.0601660306
100
AcDbArc
50
180.0000000000
51
360.0000000000
0
ARC
5
2B7
100
AcDbEntity
8
0
100
AcDbCircle
62
7
6
CONTINUOUS
10
-0.0063135671
20
2.0351459411
40
8.0601660306
100
AcDbArc
50
0.0000000000
51
180.0000000000
0
ARC
5
2B8
100
AcDbEntity
8
0
100
AcDbCircle
62
7
6
CONTINUOUS
10
-0.0063135671
20
2.0351459411
40
7.0000000000
100
AcDbArc
50
0.0000000000
51
180.0000000000
0
ARC
5
2B9
100
AcDbEntity
8
0
100
AcDbCircle
62
7
6
CONTINUOUS
10
-0.0063135671
20
2.0351459411
40
6.4287407973
100
AcDbArc
50
0.0000000000
51
180.0000000000
0
ARC
5
2BA
100
AcDbEntity
8
0
100
AcDbCircle
62
7
6
CONTINUOUS
10
-0.0063135671
20
-0.9648540589
40
6.4287407973
100
AcDbArc
50
180.0000000000
51
360.0000000000
0
ARC
5
2BB
100
AcDbEntity
8
0
100
AcDbCircle
62
7
6
CONTINUOUS
10
-0.0063135671
20
-0.9648540589
40
7.0000000000
100
AcDbArc
50
180.0000000000
51
360.0000000000
0
ARC
5
2BC
100
AcDbEntity
8
0
100
AcDbCircle
62
7
6
CONTINUOUS
10
-0.0063135671
20
2.0351459411
40
7.5000000000
100
AcDbArc
50
0.0000000000
51
180.0000000000
0
ARC
5
2BD
100
AcDbEntity
8
0
100
AcDbCircle
62
7
6
CONTINUOUS
10
-0.0063135671
20
-0.9648540589
40
7.5000000000
100
AcDbArc
50
180.0000000000
51
360.0000000000
0
ARC
5
2BE
100
AcDbEntity
8
0
100
AcDbCircle
62
7
6
CONTINUOUS
10
34.9936864329
20
-3.2148540589
40
1.7500000000
100
AcDbArc
50
180.0000000000
51
360.0000000000
0
ARC
5
2BF
100
AcDbEntity
8
0
100
AcDbCircle
62
7
6
CONTINUOUS
10
34.9936864329
20
-0.2148540589
40
1.7500000000
100
AcDbArc
50
0.0000000000
51
180.0000000000
0
ARC
5
2C0
100
AcDbEntity
8
0
100
AcDbCircle
62
7
6
CONTINUOUS
10
34.9936864329
20
-3.2148540589
40
1.1787407973
100
AcDbArc
50
180.0000000000
51
360.0000000000
0
ARC
5
2C1
100
AcDbEntity
8
0
100
AcDbCircle
62
7
6
CONTINUOUS
10
34.9936864329
20
-0.2148540589
40
1.1787407973
100
AcDbArc
50
0.0000000000
51
180.0000000000
0
ARC
5
2C2
100
AcDbEntity
8
0
100
AcDbCircle
62
7
6
CONTINUOUS
10
34.9936864329
20
-3.2148540589
40
2.2500000000
100
AcDbArc
50
180.0000000000
51
360.0000000000
0
ARC
5
2C3
100
AcDbEntity
8
0
100
AcDbCircle
62
7
6
CONTINUOUS
10
34.9936864329
20
-0.2148540589
40
2.2500000000
100
AcDbArc
50
0.0000000000
51
180.0000000000
0
ARC
5
2C4
100
AcDbEntity
8
0
100
AcDbCircle
62
7
6
CONTINUOUS
10
-35.0063135671
20
-3.2148540589
40
1.7500000000
100
AcDbArc
50
180.0000000000
51
360.0000000000
0
ARC
5
2C5
100
AcDbEntity
8
0
100
AcDbCircle
62
7
6
CONTINUOUS
10
-35.0063135671
20
-0.2148540589
40
1.7500000000
100
AcDbArc
50
0.0000000000
51
180.0000000000
0
ARC
5
2C6
100
AcDbEntity
8
0
100
AcDbCircle
62
7
6
CONTINUOUS
10
-35.0063135671
20
-0.2148540589
40
1.1787407973
100
AcDbArc
50
0.0000000000
51
180.0000000000
0
ARC
5
2C7
100
AcDbEntity
8
0
100
AcDbCircle
62
7
6
CONTINUOUS
10
-35.0063135671
20
-3.2148540589
40
1.1787407973
100
AcDbArc
50
180.0000000000
51
360.0000000000
0
ARC
5
2C8
100
AcDbEntity
8
0
100
AcDbCircle
62
7
6
CONTINUOUS
10
-35.0063135671
20
-0.2148540589
40
2.2500000000
100
AcDbArc
50
0.0000000000
51
180.0000000000
0
ARC
5
2C9
100
AcDbEntity
8
0
100
AcDbCircle
62
7
6
CONTINUOUS
10
-35.0063135671
20
-3.2148540589
40
2.2500000000
100
AcDbArc
50
180.0000000000
51
360.0000000000
0
CIRCLE
5
2CA
100
AcDbEntity
8
0
100
AcDbCircle
62
7
6
CONTINUOUS
10
54.2436864329
20
21.1351458285
40
6.1000000000
0
CIRCLE
5
2CB
100
AcDbEntity
8
0
100
AcDbCircle
62
7
6
CONTINUOUS
10
57.2436864329
20
-18.4648540589
40
6.1000000000
0
CIRCLE
5
2CC
100
AcDbEntity
8
0
100
AcDbCircle
62
7
6
CONTINUOUS
10
-54.2563135671
20
21.1351458285
40
6.1000000000
0
CIRCLE
5
2CD
100
AcDbEntity
8
0
100
AcDbCircle
62
7
6
CONTINUOUS
10
-57.2563135671
20
-18.4648540589
40
6.1000000000
0
SPLINE
5
2CE
100
AcDbEntity
8
0
100
AcDbSpline
62
7
6
CONTINUOUS
70
0
71
3
72
8
73
4
74
2
42
0.0000001000
43
0.0000001000
44
0.0000000001
12
-0.6587292172
22
0.5211790353
32
0.0000000000
13
-0.7337060965
23
0.4132276776
33
0.0000000000
40
0.0000000000
40
0.0000000000
40
0.0000000000
40
0.0000000000
40
1.0000000000
40
1.0000000000
40
1.0000000000
40
1.0000000000
10
4.2436928848
20
26.3821943705
30
0.0000000000
10
4.0241164791
20
26.5559207156
30
0.0000000000
10
3.7894858583
20
26.7112715699
30
0.0000000000
10
3.5449171594
20
26.8490141291
30
0.0000000000
11
4.2436928848
21
26.3821943705
31
0.0000000000
11
3.5449171594
21
26.8490141291
31
0.0000000000
0
SPLINE
5
2CF
100
AcDbEntity
8
0
100
AcDbSpline
62
7
6
CONTINUOUS
70
0
71
3
72
11
73
7
74
5
42
0.0000001000
43
0.0000001000
44
0.0000000001
12
-3.5525022042
22
1.2543464071
32
0.0000000000
13
-2.3800907051
23
2.9119552252
33
0.0000000000
40
0.0000000000
40
0.0000000000
40
0.0000000000
40
0.0000000000
40
0.1384756240
40
0.4003480015
40
0.6907125834
40
1.0000000000
40
1.0000000000
40
1.0000000000
40
1.0000000000
10
-14.2699932084
20
24.5466064373
30
0.0000000000
10
-14.4339715283
20
24.6045052378
30
0.0000000000
10
-14.8961624003
20
24.8055912737
30
0.0000000000
10
-15.6323569707
20
25.2685802530
30
0.0000000000
10
-16.4564161826
20
25.9713740079
30
0.0000000000
10
-16.9653753458
20
26.5274021835
30
0.0000000000
10
-17.2107527143
20
26.8276125531
30
0.0000000000
11
-14.2699932084
21
24.5466064373
31
0.0000000000
11
-14.7494593350
21
24.7516598440
31
0.0000000000
11
-15.5884113251
21
25.2675438011
31
0.0000000000
11
-16.4231657461
21
25.9716139325
31
0.0000000000
11
-17.2107527143
21
26.8276125531
31
0.0000000000
0
SPLINE
5
2D0
100
AcDbEntity
8
0
100
AcDbSpline
62
7
6
CONTINUOUS
70
0
71
3
72
11
73
7
74
5
42
0.0000001000
43
0.0000001000
44
0.0000000001
12
3.5524593604
22
1.2543316273
32
0.0000000000
13
2.3800749554
23
2.9119096008
33
0.0000000000
40
0.0000000000
40
0.0000000000
40
0.0000000000
40
0.0000000000
40
0.1384707952
40
0.4003443074
40
0.6907104369
40
1.0000000000
40
1.0000000000
40
1.0000000000
40
1.0000000000
10
14.2573638555
20
24.5466056438
30
0.0000000000
10
14.4213344797
20
24.6045017431
30
0.0000000000
10
14.8835160909
20
24.8055820325
30
0.0000000000
10
15.6197016597
20
25.2685606205
30
0.0000000000
10
16.4437585794
20
25.9713463227
30
0.0000000000
10
16.9527171620
20
26.5273690126
30
0.0000000000
10
17.1980946097
20
26.8275767621
30
0.0000000000
11
14.2573638555
21
24.5466056438
31
0.0000000000
11
14.7368080699
21
24.7516481646
31
0.0000000000
11
15.5757560102
21
25.2675242110
31
0.0000000000
11
16.4105079101
21
25.9715859604
31
0.0000000000
11
17.1980946097
21
26.8275767621
31
0.0000000000
0
SPLINE
5
2D1
100
AcDbEntity
8
0
100
AcDbSpline
62
7
6
CONTINUOUS
70
0
71
3
72
8
73
4
74
2
42
0.0000001000
43
0.0000001000
44
0.0000000001
12
0.1507368401
22
-0.3831763186
32
0.0000000000
13
0.1942685163
23
-0.3626597994
33
0.0000000000
40
0.0000000000
40
0.0000000000
40
0.0000000000
40
0.0000000000
40
1.0000000000
40
1.0000000000
40
1.0000000000
40
1.0000000000
10
-5.8846577917
20
23.6003363206
30
0.0000000000
10
-5.8344121783
20
23.4726108810
30
0.0000000000
10
-5.7764677565
20
23.3478861594
30
0.0000000000
10
-5.7117115844
20
23.2269995596
30
0.0000000000
11
-5.8846577917
21
23.6003363206
31
0.0000000000
11
-5.7117115844
21
23.2269995596
31
0.0000000000
0
SPLINE
5
2D2
100
AcDbEntity
8
0
100
AcDbSpline
62
7
6
CONTINUOUS
70
0
71
3
72
9
73
5
74
3
42
0.0000001000
43
0.0000001000
44
0.0000000001
12
0.9331396393
22
-1.7419818754
32
0.0000000000
13
1.5896109105
23
-1.1693924125
33
0.0000000000
40
0.0000000000
40
0.0000000000
40
0.0000000000
40
0.0000000000
40
0.5826409489
40
1.0000000000
40
1.0000000000
40
1.0000000000
40
1.0000000000
10
-5.7117115844
20
23.2269995596
30
0.0000000000
10
-5.5304831295
20
22.8886829020
30
0.0000000000
10
-5.1278676498
20
22.3596173457
30
0.0000000000
10
-4.6273818720
20
21.9301458393
30
0.0000000000
10
-4.4062357049
20
21.7674603367
30
0.0000000000
11
-5.7117115844
21
23.2269995596
31
0.0000000000
11
-5.0280985226
21
22.3059816260
31
0.0000000000
11
-4.4062357049
21
21.7674603367
31
0.0000000000
0
SPLINE
5
2D3
100
AcDbEntity
8
0
100
AcDbSpline
62
7
6
CONTINUOUS
70
0
71
3
72
8
73
4
74
2
42
0.0000001000
43
0.0000001000
44
0.0000000001
12
0.1458735135
22
-0.1073114048
32
0.0000000000
13
0.1492783428
23
-0.1025335211
33
0.0000000000
40
0.0000000000
40
0.0000000000
40
0.0000000000
40
0.0000000000
40
1.0000000000
40
1.0000000000
40
1.0000000000
40
1.0000000000
10
-4.4062357049
20
21.7674603367
30
0.0000000000
10
-4.3576112004
20
21.7316898685
30
0.0000000000
10
-4.3083937978
20
21.6967199120
30
0.0000000000
10
-4.2586343502
20
21.6625420717
30
0.0000000000
11
-4.4062357049
21
21.7674603367
31
0.0000000000
11
-4.2586343502
21
21.6625420717
31
0.0000000000
0
SPLINE
5
2D4
100
AcDbEntity
8
0
100
AcDbSpline
62
7
6
CONTINUOUS
70
0
71
3
72
8
73
4
74
2
42
0.0000001000
43
0.0000001000
44
0.0000000001
12
0.2031143395
22
-0.1395113853
32
0.0000000000
13
0.2087511162
23
-0.1307759475
33
0.0000000000
40
0.0000000000
40
0.0000000000
40
0.0000000000
40
0.0000000000
40
1.0000000000
40
1.0000000000
40
1.0000000000
40
1.0000000000
10
-4.2586343502
20
21.6625420717
30
0.0000000000
10
-4.1909295703
20
21.6160382766
30
0.0000000000
10
-4.1222212778
20
21.5710009623
30
0.0000000000
10
-4.0526375724
20
21.5274089798
30
0.0000000000
11
-4.2586343502
21
21.6625420717
31
0.0000000000
11
-4.0526375724
21
21.5274089798
31
0.0000000000
0
SPLINE
5
2D5
100
AcDbEntity
8
0
100
AcDbSpline
62
7
6
CONTINUOUS
70
0
71
3
72
8
73
4
74
2
42
0.0000001000
43
0.0000001000
44
0.0000000001
12
0.2009710281
22
-0.1259019694
32
0.0000000000
13
0.2056390682
23
-0.1179359172
33
0.0000000000
40
0.0000000000
40
0.0000000000
40
0.0000000000
40
0.0000000000
40
1.0000000000
40
1.0000000000
40
1.0000000000
40
1.0000000000
10
-4.0526375724
20
21.5274089798
30
0.0000000000
10
-3.9856472297
20
21.4854416567
30
0.0000000000
10
-3.9178455109
20
21.4448139388
30
0.0000000000
10
-3.8492991548
20
21.4055019664
30
0.0000000000
11
-4.0526375724
21
21.5274089798
31
0.0000000000
11
-3.8492991548
21
21.4055019664
31
0.0000000000
0
SPLINE
5
2D6
100
AcDbEntity
8
0
100
AcDbSpline
62
7
6
CONTINUOUS
70
0
71
3
72
8
73
4
74
2
42
0.0000001000
43
0.0000001000
44
0.0000000001
12
0.1749390622
22
-0.1003291784
32
0.0000000000
13
0.1780491883
23
-0.0946599679
33
0.0000000000
40
0.0000000000
40
0.0000000000
40
0.0000000000
40
0.0000000000
40
1.0000000000
40
1.0000000000
40
1.0000000000
40
1.0000000000
10
-3.8492991548
20
21.4055019664
30
0.0000000000
10
-3.7909861341
20
21.3720589069
30
0.0000000000
10
-3.7321342147
20
21.3395680607
30
0.0000000000
10
-3.6727844852
20
21.3080147380
30
0.0000000000
11
-3.8492991548
21
21.4055019664
31
0.0000000000
11
-3.6727844852
21
21.3080147380
31
0.0000000000
0
SPLINE
5
2D7
100
AcDbEntity
8
0
100
AcDbSpline
62
7
6
CONTINUOUS
70
0
71
3
72
8
73
4
74
2
42
0.0000001000
43
0.0000001000
44
0.0000000001
12
0.3991304161
22
-0.2121979478
32
0.0000000000
13
0.4127512886
23
-0.1844271542
33
0.0000000000
40
0.0000000000
40
0.0000000000
40
0.0000000000
40
0.0000000000
40
1.0000000000
40
1.0000000000
40
1.0000000000
40
1.0000000000
10
-3.6727844852
20
21.3080147380
30
0.0000000000
10
-3.5397410132
20
21.2372820888
30
0.0000000000
10
-3.4041959676
20
21.1712606431
30
0.0000000000
10
-3.2666122047
20
21.1097849250
30
0.0000000000
11
-3.6727844852
21
21.3080147380
31
0.0000000000
11
-3.2666122047
21
21.1097849250
31
0.0000000000
0
SPLINE
5
2D8
100
AcDbEntity
8
0
100
AcDbSpline
62
7
6
CONTINUOUS
70
0
71
3
72
10
73
6
74
4
42
0.0000001000
43
0.0000001000
44
0.0000000001
12
2.0888116790
22
-0.9333310502
32
0.0000000000
13
2.2699465837
23
-0.2838273464
33
0.0000000000
40
0.0000000000
40
0.0000000000
40
0.0000000000
40
0.0000000000
40
0.2004874453
40
0.8240118503
40
1.0000000000
40
1.0000000000
40
1.0000000000
40
1.0000000000
10
-3.2666122047
20
21.1097849250
30
0.0000000000
10
-3.1270186990
20
21.0474112057
30
0.0000000000
10
-2.5446577079
20
20.8102855337
30
0.0000000000
10
-1.8048055506
20
20.6149035717
30
0.0000000000
10
-1.2016185599
20
20.5248207953
30
0.0000000000
10
-1.0684573269
20
20.5081707121
30
0.0000000000
11
-3.2666122047
21
21.1097849250
31
0.0000000000
11
-2.8420189861
21
20.9365294340
31
0.0000000000
11
-1.4665995227
21
20.5676827580
31
0.0000000000
11
-1.0684573269
21
20.5081707121
31
0.0000000000
0
SPLINE
5
2D9
100
AcDbEntity
8
0
100
AcDbSpline
62
7
6
CONTINUOUS
70
0
71
3
72
8
73
4
74
2
42
0.0000001000
43
0.0000001000
44
0.0000000001
12
0.0791242975
22
-0.0098934660
32
0.0000000000
13
0.0792115278
23
-0.0091458034
33
0.0000000000
40
0.0000000000
40
0.0000000000
40
0.0000000000
40
0.0000000000
40
1.0000000000
40
1.0000000000
40
1.0000000000
40
1.0000000000
10
-1.0684573269
20
20.5081707121
30
0.0000000000
10
-1.0420825610
20
20.5048728901
30
0.0000000000
10
-1.0156925687
20
20.5016997763
30
0.0000000000
10
-0.9892887261
20
20.4986511752
30
0.0000000000
11
-1.0684573269
21
20.5081707121
31
0.0000000000
11
-0.9892887261
21
20.4986511752
31
0.0000000000
0
SPLINE
5
2DA
100
AcDbEntity
8
0
100
AcDbSpline
62
7
6
CONTINUOUS
70
0
71
3
72
8
73
4
74
2
42
0.0000001000
43
0.0000001000
44
0.0000000001
12
0.9792251734
22
-0.1130618385
32
0.0000000000
13
0.9841252109
23
-0.0000000582
33
0.0000000000
40
0.0000000000
40
0.0000000000
40
0.0000000000
40
0.0000000000
40
1.0000000000
40
1.0000000000
40
1.0000000000
40
1.0000000000
10
-0.9892887261
20
20.4986511752
30
0.0000000000
10
-0.6628803350
20
20.4609638957
30
0.0000000000
10
-0.3343553041
20
20.4423049953
30
0.0000000000
10
-0.0063135671
20
20.4423049759
30
0.0000000000
11
-0.9892887261
21
20.4986511752
31
0.0000000000
11
-0.0063135671
21
20.4423049759
31
0.0000000000
0
SPLINE
5
2DB
100
AcDbEntity
8
0
100
AcDbSpline
62
7
6
CONTINUOUS
70
0
71
3
72
8
73
4
74
2
42
0.0000001000
43
0.0000001000
44
0.0000000001
12
-0.7337059586
22
-0.4132249130
32
0.0000000000
13
-0.6587299070
23
-0.5211758148
33
0.0000000000
40
0.0000000000
40
0.0000000000
40
0.0000000000
40
0.0000000000
40
1.0000000000
40
1.0000000000
40
1.0000000000
40
1.0000000000
10
-3.5575311441
20
26.8490223059
30
0.0000000000
10
-3.8020997969
20
26.7112806682
30
0.0000000000
10
-4.0367304795
20
26.5559308142
30
0.0000000000
10
-4.2563071152
20
26.3822055426
30
0.0000000000
11
-3.5575311441
21
26.8490223059
31
0.0000000000
11
-4.2563071152
21
26.3822055426
31
0.0000000000
0
SPLINE
5
2DC
100
AcDbEntity
8
0
100
AcDbSpline
62
7
6
CONTINUOUS
70
0
71
3
72
14
73
10
74
8
42
0.0000001000
43
0.0000001000
44
0.0000000001
12
0.0000000000
22
-4.2874773161
32
0.0000000000
13
4.2874773161
23
0.0000000000
33
0.0000000000
40
0.0000000000
40
0.0000000000
40
0.0000000000
40
0.0000000000
40
0.1286685105
40
0.2604867632
40
0.3975356897
40
0.5408434688
40
0.6901481880
40
0.8440900676
40
1.0000000000
40
1.0000000000
40
1.0000000000
40
1.0000000000
10
-71.2563135672
20
-44.6313883541
30
0.0000000000
10
-71.2563135672
20
-44.8152761275
30
0.0000000000
10
-71.2043411082
20
-45.1894554587
30
0.0000000000
10
-70.9763428916
20
-45.7166098098
30
0.0000000000
10
-70.6117815765
20
-46.1866541933
30
0.0000000000
10
-70.1309295842
20
-46.5764000214
30
0.0000000000
10
-69.5583780810
20
-46.8681115274
30
0.0000000000
10
-68.9234630137
20
-47.0482516196
30
0.0000000000
10
-68.4795400071
20
-47.0887228442
30
0.0000000000
10
-68.2567199076
20
-47.0887228442
30
0.0000000000
11
-71.2563135672
21
-44.6313883541
31
0.0000000000
11
-71.1811989418
21
-45.1779139362
31
0.0000000000
11
-70.9592469043
21
-45.6976753229
31
0.0000000000
11
-70.6015964680
21
-46.1638867199
31
0.0000000000
11
-70.1261999218
21
-46.5531436249
31
0.0000000000
11
-69.5569261250
21
-46.8459017635
31
0.0000000000
11
-68.9223672736
21
-47.0274631109
31
0.0000000000
11
-68.2567199076
21
-47.0887228442
31
0.0000000000
0
SPLINE
5
2DD
100
AcDbEntity
8
0
100
AcDbSpline
62
7
6
CONTINUOUS
70
0
71
3
72
14
73
10
74
8
42
0.0000001000
43
0.0000001000
44
0.0000000001
12
4.2874772508
22
0.0000000000
32
0.0000000000
13
-0.0000000000
23
4.2874772508
33
0.0000000000
40
0.0000000000
40
0.0000000000
40
0.0000000000
40
0.0000000000
40
0.1559075126
40
0.3098459956
40
0.4591483565
40
0.6024562114
40
0.7395074584
40
0.8713289685
40
1.0000000000
40
1.0000000000
40
1.0000000000
40
1.0000000000
10
68.2440927733
20
-47.0887228442
30
0.0000000000
10
68.4669094111
20
-47.0887228442
30
0.0000000000
10
68.9108240483
20
-47.0482530091
30
0.0000000000
10
69.5457285230
20
-46.8681193603
30
0.0000000000
10
70.1182753029
20
-46.5764170284
30
0.0000000000
10
70.5991321389
20
-46.1866772332
30
0.0000000000
10
70.9637043390
20
-45.7166308340
30
0.0000000000
10
71.1917117687
20
-45.1894674186
30
0.0000000000
10
71.2436864329
20
-44.8152797272
30
0.0000000000
10
71.2436864329
20
-44.6313883538
30
0.0000000000
11
68.2440927733
21
-47.0887228442
31
0.0000000000
11
68.9097298861
21
-47.0274650223
31
0.0000000000
11
69.5442756628
21
-46.8459109547
31
0.0000000000
11
70.1135432642
21
-46.5531628990
31
0.0000000000
11
70.5889449443
21
-46.1639117654
31
0.0000000000
11
70.9466071181
21
-45.6976968450
31
0.0000000000
11
71.1685688842
21
-45.1779244358
31
0.0000000000
11
71.2436864329
21
-44.6313883538
31
0.0000000000
0
SPLINE
5
2DE
100
AcDbEntity
8
0
100
AcDbSpline
62
7
6
CONTINUOUS
70
0
71
3
72
8
73
4
74
2
42
0.0000001000
43
0.0000001000
44
0.0000000001
12
-0.0556915911
22
0.8464251684
32
0.0000000000
13
-0.0635470149
23
0.8459736229
33
0.0000000000
40
0.0000000000
40
0.0000000000
40
0.0000000000
40
0.0000000000
40
1.0000000000
40
1.0000000000
40
1.0000000000
40
1.0000000000
10
68.5894786777
20
22.1786208353
30
0.0000000000
10
68.5709148139
20
22.4607625581
30
0.0000000000
10
68.5510860998
20
22.7428423424
30
0.0000000000
10
68.5299037615
20
23.0248335500
30
0.0000000000
11
68.5894786777
21
22.1786208353
31
0.0000000000
11
68.5299037615
21
23.0248335500
31
0.0000000000
0
SPLINE
5
2DF
100
AcDbEntity
8
0
100
AcDbSpline
62
7
6
CONTINUOUS
70
0
71
3
72
11
73
7
74
5
42
0.0000001000
43
0.0000001000
44
0.0000000001
12
-1.3644600007
22
18.1644593697
32
0.0000000000
13
-10.1492491370
23
15.1569502587
33
0.0000000000
40
0.0000000000
40
0.0000000000
40
0.0000000000
40
0.0000000000
40
0.2900776270
40
0.5942747772
40
0.8519458711
40
1.0000000000
40
1.0000000000
40
1.0000000000
40
1.0000000000
10
68.5299037615
20
23.0248335500
30
0.0000000000
10
68.3979706551
20
24.7812013067
30
0.0000000000
10
68.0201027482
20
28.3723883203
30
0.0000000000
10
67.0333768387
20
33.4612727476
30
0.0000000000
10
65.6548336522
20
37.5596005857
30
0.0000000000
10
64.4738385355
20
39.7463912919
30
0.0000000000
10
63.9729591220
20
40.4944076478
30
0.0000000000
11
68.5299037615
21
23.0248335500
31
0.0000000000
11
67.9551188339
21
28.2771917892
31
0.0000000000
11
66.8504333426
21
33.7061923310
31
0.0000000000
11
65.2834057689
21
38.1297203576
31
0.0000000000
11
63.9729591220
21
40.4944076478
31
0.0000000000
0
SPLINE
5
2E0
100
AcDbEntity
8
0
100
AcDbSpline
62
7
6
CONTINUOUS
70
0
71
3
72
8
73
4
74
2
42
0.0000001000
43
0.0000001000
44
0.0000000001
12
-0.0171097315
22
0.0255517768
32
0.0000000000
13
-0.0171642005
23
0.0255127747
33
0.0000000000
40
0.0000000000
40
0.0000000000
40
0.0000000000
40
0.0000000000
40
1.0000000000
40
1.0000000000
40
1.0000000000
40
1.0000000000
10
63.9729591220
20
40.4944076478
30
0.0000000000
10
63.9672558782
20
40.5029249068
30
0.0000000000
10
63.9615435692
20
40.5114356870
30
0.0000000000
10
63.9558221690
20
40.5199399452
30
0.0000000000
11
63.9729591220
21
40.4944076478
31
0.0000000000
11
63.9558221690
21
40.5199399452
31
0.0000000000
0
SPLINE
5
2E1
100
AcDbEntity
8
0
100
AcDbSpline
62
7
6
CONTINUOUS
70
0
71
3
72
8
73
4
74
2
42
0.0000001000
43
0.0000001000
44
0.0000000001
12
-0.6162825363
22
0.9160390260
32
0.0000000000
13
-0.6902044268
23
0.8595901702
33
0.0000000000
40
0.0000000000
40
0.0000000000
40
0.0000000000
40
0.0000000000
40
1.0000000000
40
1.0000000000
40
1.0000000000
40
1.0000000000
10
63.9558221690
20
40.5199399452
30
0.0000000000
10
63.7503946569
20
40.8252862872
30
0.0000000000
10
63.5332470620
20
41.1222246622
30
0.0000000000
10
63.3031789198
20
41.4087547189
30
0.0000000000
11
63.9558221690
21
40.5199399452
31
0.0000000000
11
63.3031789198
21
41.4087547189
31
0.0000000000
0
SPLINE
5
2E2
100
AcDbEntity
8
0
100
AcDbSpline
62
7
6
CONTINUOUS
70
0
71
3
72
8
73
4
74
2
42
0.0000001000
43
0.0000001000
44
0.0000000001
12
-0.6902373954
22
-0.8596575887
32
0.0000000000
13
-0.6163077894
23
-0.9160805861
33
0.0000000000
40
0.0000000000
40
0.0000000000
40
0.0000000000
40
0.0000000000
40
1.0000000000
40
1.0000000000
40
1.0000000000
40
1.0000000000
10
-63.3158444752
20
41.4087049790
30
0.0000000000
10
-63.5459236070
20
41.1221524495
30
0.0000000000
10
-63.7630808504
20
40.8251983601
30
0.0000000000
10
-63.9685167802
20
40.5198381647
30
0.0000000000
11
-63.3158444752
21
41.4087049790
31
0.0000000000
11
-63.9685167802
21
40.5198381647
31
0.0000000000
0
SPLINE
5
2E3
100
AcDbEntity
8
0
100
AcDbSpline
62
7
6
CONTINUOUS
70
0
71
3
72
8
73
4
74
2
42
0.0000001000
43
0.0000001000
44
0.0000000001
12
-0.0225006761
22
-0.0334450300
32
0.0000000000
13
-0.0224071117
23
-0.0335119654
33
0.0000000000
40
0.0000000000
40
0.0000000000
40
0.0000000000
40
0.0000000000
40
1.0000000000
40
1.0000000000
40
1.0000000000
40
1.0000000000
10
-63.9685167802
20
40.5198381647
30
0.0000000000
10
-63.9760170055
20
40.5086898214
30
0.0000000000
10
-63.9835016076
20
40.4975302736
30
0.0000000000
10
-63.9909706448
20
40.4863596185
30
0.0000000000
11
-63.9685167802
21
40.5198381647
31
0.0000000000
11
-63.9909706448
21
40.4863596185
31
0.0000000000
0
SPLINE
5
2E4
100
AcDbEntity
8
0
100
AcDbSpline
62
7
6
CONTINUOUS
70
0
71
3
72
11
73
7
74
5
42
0.0000001000
43
0.0000001000
44
0.0000000001
12
-10.1335681452
22
-15.1557144117
32
0.0000000000
13
-1.3637281717
23
-18.1548423162
33
0.0000000000
40
0.0000000000
40
0.0000000000
40
0.0000000000
40
0.0000000000
40
0.1482020878
40
0.4061154726
40
0.7105826071
40
1.0000000000
40
1.0000000000
40
1.0000000000
40
1.0000000000
10
-63.9909706448
20
40.4863596185
30
0.0000000000
10
-64.4915759635
20
39.7376567791
30
0.0000000000
10
-65.6717727424
20
37.5492689611
30
0.0000000000
10
-67.0492108666
20
33.4487857461
30
0.0000000000
10
-68.0338243715
20
28.3632316681
30
0.0000000000
10
-68.4109699828
20
24.7762980560
30
0.0000000000
10
-68.5425322002
20
23.0248556785
30
0.0000000000
11
-63.9909706448
21
40.4863596185
31
0.0000000000
11
-65.3006144431
21
38.1197975658
31
0.0000000000
11
-66.8664080882
21
33.6937978274
31
0.0000000000
11
-67.9699166293
21
28.2625452804
31
0.0000000000
11
-68.5425322002
21
23.0248556785
31
0.0000000000
0
SPLINE
5
2E5
100
AcDbEntity
8
0
100
AcDbSpline
62
7
6
CONTINUOUS
70
0
71
3
72
8
73
4
74
2
42
0.0000001000
43
0.0000001000
44
0.0000000001
12
-0.0635494334
22
-0.8460116661
32
0.0000000000
13
-0.0556906589
23
-0.8464645854
33
0.0000000000
40
0.0000000000
40
0.0000000000
40
0.0000000000
40
0.0000000000
40
1.0000000000
40
1.0000000000
40
1.0000000000
40
1.0000000000
10
-68.5425322002
20
23.0248556785
30
0.0000000000
10
-68.5637153447
20
22.7428517898
30
0.0000000000
10
-68.5835443772
20
22.4607591299
30
0.0000000000
10
-68.6021079302
20
22.1786042681
30
0.0000000000
11
-68.5425322002
21
23.0248556785
31
0.0000000000
11
-68.6021079302
21
22.1786042681
31
0.0000000000
0
SPLINE
5
2E6
100
AcDbEntity
8
0
100
AcDbSpline
62
7
6
CONTINUOUS
70
0
71
3
72
10
73
6
74
4
42
0.0000001000
43
0.0000001000
44
0.0000000001
12
1.1148192252
22
1.3921137740
32
0.0000000000
13
1.7870325846
23
0.0009631169
33
0.0000000000
40
0.0000000000
40
0.0000000000
40
0.0000000000
40
0.0000000000
40
0.3482461831
40
0.6995089600
40
1.0000000000
40
1.0000000000
40
1.0000000000
40
1.0000000000
10
-63.3176151643
20
41.4065528864
30
0.0000000000
10
-63.1882046510
20
41.5681523225
30
0.0000000000
10
-62.8751312303
20
41.8539758775
30
0.0000000000
10
-62.3256826159
20
42.1036564717
30
0.0000000000
10
-61.9354893401
20
42.1562665795
30
0.0000000000
10
-61.7564935801
20
42.1563630489
30
0.0000000000
11
-63.3176151643
21
41.4065528864
31
0.0000000000
11
-62.8588169844
21
41.8251900335
31
0.0000000000
11
-62.2884656312
21
42.0843468913
31
0.0000000000
11
-61.7564935801
21
42.1563630489
31
0.0000000000
0
SPLINE
5
2E7
100
AcDbEntity
8
0
100
AcDbSpline
62
7
6
CONTINUOUS
70
0
71
3
72
11
73
7
74
5
42
0.0000001000
43
0.0000001000
44
0.0000000001
12
-1.1192171218
22
1.3928241072
32
0.0000000000
13
-1.7910766125
23
-0.0010702428
33
0.0000000000
40
0.0000000000
40
0.0000000000
40
0.0000000000
40
0.0000000000
40
0.1735554110
40
0.5335774111
40
0.9036262312
40
1.0000000000
40
1.0000000000
40
1.0000000000
40
1.0000000000
10
63.3029212947
20
41.4091370920
30
0.0000000000
10
63.2381725655
20
41.4897144788
30
0.0000000000
10
63.0199811250
20
41.7219725755
30
0.0000000000
10
62.5630331206
20
42.0200623405
30
0.0000000000
10
62.0798872138
20
42.1445327111
30
0.0000000000
10
61.8014041262
20
42.1563170998
30
0.0000000000
10
61.7438665251
20
42.1562827187
30
0.0000000000
11
63.3029212947
21
41.4091370920
31
0.0000000000
11
63.0907690492
21
41.6348563126
31
0.0000000000
11
62.5540912279
21
41.9849269095
31
0.0000000000
11
61.9162383110
21
42.1489512587
31
0.0000000000
11
61.7438665251
21
42.1562827187
31
0.0000000000
0
SPLINE
5
2E8
100
AcDbEntity
8
0
100
AcDbSpline
62
7
6
CONTINUOUS
70
0
71
3
72
12
73
8
74
6
42
0.0000001000
43
0.0000001000
44
0.0000000001
12
-0.5298039055
22
3.4908845811
32
0.0000000000
13
-3.4612351547
23
0.6956985311
33
0.0000000000
40
0.0000000000
40
0.0000000000
40
0.0000000000
40
0.0000000000
40
0.1428231155
40
0.3647445674
40
0.5922787452
40
0.8266742747
40
1.0000000000
40
1.0000000000
40
1.0000000000
40
1.0000000000
10
70.7214007218
20
22.2953779790
30
0.0000000000
10
70.6961779737
20
22.4615709830
30
0.0000000000
10
70.5918643553
20
22.8809051366
30
0.0000000000
10
70.2647578057
20
23.5042238305
30
0.0000000000
10
69.7008158295
20
24.0897685279
30
0.0000000000
10
69.0481917960
20
24.4688023075
30
0.0000000000
10
68.5871636215
20
24.6085005009
30
0.0000000000
10
68.3871899237
20
24.6486946517
30
0.0000000000
11
70.7214007218
21
22.2953779790
31
0.0000000000
11
70.5995931952
21
22.7845293707
31
0.0000000000
11
70.2380125342
21
23.4768225070
31
0.0000000000
11
69.6837576991
21
24.0548002653
31
0.0000000000
11
68.9715185903
21
24.4710091147
31
0.0000000000
11
68.3871899237
21
24.6486946517
31
0.0000000000
0
SPLINE
5
2E9
100
AcDbEntity
8
0
100
AcDbSpline
62
7
6
CONTINUOUS
70
0
71
3
72
12
73
8
74
6
42
0.0000001000
43
0.0000001000
44
0.0000000001
12
-3.4612990484
22
-0.6957717864
32
0.0000000000
13
-0.5298602306
23
-3.4907541922
33
0.0000000000
40
0.0000000000
40
0.0000000000
40
0.0000000000
40
0.0000000000
40
0.1805331184
40
0.4131321624
40
0.6388067128
40
0.8589334250
40
1.0000000000
40
1.0000000000
40
1.0000000000
40
1.0000000000
10
-68.3998991831
20
24.6486817138
30
0.0000000000
10
-68.6081922200
20
24.6068117637
30
0.0000000000
10
-69.0749396845
20
24.4633202553
30
0.0000000000
10
-69.7282615832
20
24.0773747109
30
0.0000000000
10
-70.2843582283
20
23.4935031785
30
0.0000000000
10
-70.6062873921
20
22.8748970242
30
0.0000000000
10
-70.7091010209
20
22.4596133846
30
0.0000000000
10
-70.7340162103
20
22.2954704718
30
0.0000000000
11
-68.3998991831
21
24.6486817138
31
0.0000000000
11
-69.0076711237
21
24.4611418254
31
0.0000000000
11
-69.7113773221
21
24.0429104316
31
0.0000000000
11
-70.2579278484
21
23.4666316118
31
0.0000000000
11
-70.6142521317
21
22.7787261683
31
0.0000000000
11
-70.7340162103
21
22.2954704718
31
0.0000000000
0
SPLINE
5
2EA
100
AcDbEntity
8
0
100
AcDbSpline
62
7
6
CONTINUOUS
70
0
71
3
72
10
73
6
74
4
42
0.0000001000
43
0.0000001000
44
0.0000000001
12
-0.1207203913
22
5.7888989678
32
0.0000000000
13
-0.8034421924
23
5.7345097634
33
0.0000000000
40
0.0000000000
40
0.0000000000
40
0.0000000000
40
0.0000000000
40
0.3612997820
40
0.7482563963
40
1.0000000000
40
1.0000000000
40
1.0000000000
40
1.0000000000
10
71.2432451153
20
16.0281250552
30
0.0000000000
10
71.2287063649
20
16.7253010336
30
0.0000000000
10
71.1712623036
20
18.1687656697
30
0.0000000000
10
71.0122351249
20
20.0928223596
30
0.0000000000
10
70.8616155991
20
21.3166552223
30
0.0000000000
10
70.7941951215
20
21.7978639401
30
0.0000000000
11
71.2432451153
21
16.0281250552
31
0.0000000000
11
71.1588818634
21
18.1183903792
31
0.0000000000
11
70.9727289923
21
20.3511216205
31
0.0000000000
11
70.7941951215
21
21.7978639401
31
0.0000000000
0
SPLINE
5
2EB
100
AcDbEntity
8
0
100
AcDbSpline
62
7
6
CONTINUOUS
70
0
71
3
72
8
73
4
74
2
42
0.0000001000
43
0.0000001000
44
0.0000000001
12
-0.0699778361
22
0.4994616762
32
0.0000000000
13
-0.0758159981
23
0.4985780820
33
0.0000000000
40
0.0000000000
40
0.0000000000
40
0.0000000000
40
0.0000000000
40
1.0000000000
40
1.0000000000
40
1.0000000000
40
1.0000000000
10
70.7941951215
20
21.7978639401
30
0.0000000000
10
70.7708691761
20
21.9643511655
30
0.0000000000
10
70.7465791879
20
22.1306989595
30
0.0000000000
10
70.7213071885
20
22.2968916535
30
0.0000000000
11
70.7941951215
21
21.7978639401
31
0.0000000000
11
70.7213071885
21
22.2968916535
31
0.0000000000
0
SPLINE
5
2EC
100
AcDbEntity
8
0
100
AcDbSpline
62
7
6
CONTINUOUS
70
0
71
3
72
8
73
4
74
2
42
0.0000001000
43
0.0000001000
44
0.0000000001
12
-0.0784374451
22
-0.5158174396
32
0.0000000000
13
-0.0721906406
23
-0.5167617127
33
0.0000000000
40
0.0000000000
40
0.0000000000
40
0.0000000000
40
0.0000000000
40
1.0000000000
40
1.0000000000
40
1.0000000000
40
1.0000000000
10
-70.7339343681
20
22.2968912211
30
0.0000000000
10
-70.7600801831
20
22.1249520746
30
0.0000000000
10
-70.7851749174
20
21.9528468890
30
0.0000000000
10
-70.8092384642
20
21.7805929848
30
0.0000000000
11
-70.7339343681
21
22.2968912211
31
0.0000000000
11
-70.8092384642
21
21.7805929848
31
0.0000000000
0
SPLINE
5
2ED
100
AcDbEntity
8
0
100
AcDbSpline
62
7
6
CONTINUOUS
70
0
71
3
72
10
73
6
74
4
42
0.0000001000
43
0.0000001000
44
0.0000000001
12
-0.7987322514
22
-5.7175589899
32
0.0000000000
13
-0.1203567805
23
-5.7714767179
33
0.0000000000
40
0.0000000000
40
0.0000000000
40
0.0000000000
40
0.0000000000
40
0.2525597918
40
0.6407720901
40
1.0000000000
40
1.0000000000
40
1.0000000000
40
1.0000000000
10
-70.8092384642
20
21.7805929848
30
0.0000000000
10
-70.8764810146
20
21.2992511488
30
0.0000000000
10
-71.0266538425
20
20.0750874614
30
0.0000000000
10
-71.1844890755
20
18.1567673070
30
0.0000000000
10
-71.2414604360
20
16.7192164959
30
0.0000000000
10
-71.2558722742
20
16.0281246565
30
0.0000000000
11
-70.8092384642
21
21.7805929848
31
0.0000000000
11
-70.9872440251
21
20.3334615861
31
0.0000000000
11
-71.1726078856
21
18.1001621220
31
0.0000000000
11
-71.2558722742
21
16.0281246565
31
0.0000000000
0
SPLINE
5
2EE
100
AcDbEntity
8
0
100
AcDbSpline
62
7
6
CONTINUOUS
70
0
71
3
72
10
73
6
74
4
42
0.0000001000
43
0.0000001000
44
0.0000000001
12
1.2204499932
22
2.0098452566
32
0.0000000000
13
0.6419724954
23
2.2636238631
33
0.0000000000
40
0.0000000000
40
0.0000000000
40
0.0000000000
40
0.0000000000
40
0.4448341468
40
0.8667752476
40
1.0000000000
40
1.0000000000
40
1.0000000000
40
1.0000000000
10
18.0370721725
20
28.0140703807
30
0.0000000000
10
18.2180381163
20
28.3120863140
30
0.0000000000
10
18.5416190505
20
28.9111081293
30
0.0000000000
10
18.8369878497
20
29.6390450346
30
0.0000000000
10
18.9654717719
20
30.0551879035
30
0.0000000000
10
18.9939806475
20
30.1557114797
30
0.0000000000
11
18.0370721725
21
28.0140703807
31
0.0000000000
11
18.5323707395
21
28.9353406197
31
0.0000000000
11
18.9017624209
21
29.8561539242
31
0.0000000000
11
18.9939806475
21
30.1557114797
31
0.0000000000
0
SPLINE
5
2EF
100
AcDbEntity
8
0
100
AcDbSpline
62
7
6
CONTINUOUS
70
0
71
3
72
9
73
5
74
3
42
0.0000001000
43
0.0000001000
44
0.0000000001
12
0.3849785055
22
1.3574515080
32
0.0000000000
13
0.0000002238
23
1.4100756683
33
0.0000000000
40
0.0000000000
40
0.0000000000
40
0.0000000000
40
0.0000000000
40
0.4239252452
40
1.0000000000
40
1.0000000000
40
1.0000000000
40
1.0000000000
10
18.9939806475
20
30.1557114797
30
0.0000000000
10
19.0483813499
20
30.3475308008
30
0.0000000000
10
19.1567477746
20
30.8056885001
30
0.0000000000
10
19.2072152139
20
31.2760139342
30
0.0000000000
10
19.2072152569
20
31.5467835991
30
0.0000000000
11
18.9939806475
21
30.1557114797
31
0.0000000000
11
19.1298546983
21
30.7381667262
31
0.0000000000
11
19.2072152569
21
31.5467835991
31
0.0000000000
0
SPLINE
5
2F0
100
AcDbEntity
8
0
100
AcDbSpline
62
7
6
CONTINUOUS
70
0
71
3
72
8
73
4
74
2
42
0.0000001000
43
0.0000001000
44
0.0000000001
12
0.9783227463
22
-0.0000000579
32
0.0000000000
13
0.9735257805
23
0.1117259596
33
0.0000000000
40
0.0000000000
40
0.0000000000
40
0.0000000000
40
0.0000000000
40
1.0000000000
40
1.0000000000
40
1.0000000000
40
1.0000000000
10
-0.0063135671
20
20.4423049759
30
0.0000000000
10
0.3197940150
20
20.4423049566
30
0.0000000000
10
0.6463792110
20
20.4607444390
30
0.0000000000
10
0.9708878046
20
20.4979864256
30
0.0000000000
11
-0.0063135671
21
20.4423049759
31
0.0000000000
11
0.9708878046
21
20.4979864256
31
0.0000000000
0
SPLINE
5
2F1
100
AcDbEntity
8
0
100
AcDbSpline
62
7
6
CONTINUOUS
70
0
71
3
72
8
73
4
74
2
42
0.0000001000
43
0.0000001000
44
0.0000000001
12
0.0228854647
22
0.0026264333
32
0.0000000000
13
0.0228784798
23
0.0026887910
33
0.0000000000
40
0.0000000000
40
0.0000000000
40
0.0000000000
40
0.0000000000
40
1.0000000000
40
1.0000000000
40
1.0000000000
40
1.0000000000
10
0.9708878046
20
20.4979864256
30
0.0000000000
10
0.9785162928
20
20.4988619033
30
0.0000000000
10
0.9861436335
20
20.4997477717
30
0.0000000000
10
0.9937697934
20
20.5006440353
30
0.0000000000
11
0.9708878046
21
20.4979864256
31
0.0000000000
11
0.9937697934
21
20.5006440353
31
0.0000000000
0
SPLINE
5
2F2
100
AcDbEntity
8
0
100
AcDbSpline
62
7
6
CONTINUOUS
70
0
71
3
72
8
73
4
74
2
42
0.0000001000
43
0.0000001000
44
0.0000000001
12
0.0621000037
22
0.0072982965
32
0.0000000000
13
0.0620458170
23
0.0077581133
33
0.0000000000
40
0.0000000000
40
0.0000000000
40
0.0000000000
40
0.0000000000
40
1.0000000000
40
1.0000000000
40
1.0000000000
40
1.0000000000
10
0.9937697934
20
20.5006440353
30
0.0000000000
10
1.0144697946
20
20.5030768008
30
0.0000000000
10
1.0351610965
20
20.5055861553
30
0.0000000000
10
1.0558430355
20
20.5081721931
30
0.0000000000
11
0.9937697934
21
20.5006440353
31
0.0000000000
11
1.0558430355
21
20.5081721931
31
0.0000000000
0
SPLINE
5
2F3
100
AcDbEntity
8
0
100
AcDbSpline
62
7
6
CONTINUOUS
70
0
71
3
72
10
73
6
74
4
42
0.0000001000
43
0.0000001000
44
0.0000000001
12
2.2699331719
22
0.2838289430
32
0.0000000000
13
2.0887997858
23
0.9333255054
33
0.0000000000
40
0.0000000000
40
0.0000000000
40
0.0000000000
40
0.0000000000
40
0.1759834887
40
0.7995114250
40
1.0000000000
40
1.0000000000
40
1.0000000000
40
1.0000000000
10
1.0558430355
20
20.5081721931
30
0.0000000000
10
1.1889999551
20
20.5248219289
30
0.0000000000
10
1.7921825618
20
20.6149044604
30
0.0000000000
10
2.5320304981
20
20.8102852199
30
0.0000000000
10
3.1143914663
20
21.0474108174
30
0.0000000000
10
3.2539849638
20
21.1097845175
30
0.0000000000
11
1.0558430355
21
20.5081721931
31
0.0000000000
11
1.4539723671
21
20.5676825834
31
0.0000000000
11
2.8293917712
21
20.9365290845
31
0.0000000000
11
3.2539849638
21
21.1097845175
31
0.0000000000
0
SPLINE
5
2F4
100
AcDbEntity
8
0
100
AcDbSpline
62
7
6
CONTINUOUS
70
0
71
3
72
8
73
4
74
2
42
0.0000001000
43
0.0000001000
44
0.0000000001
12
0.4127512589
22
0.1844270954
32
0.0000000000
13
0.3991303887
23
0.2121978904
33
0.0000000000
40
0.0000000000
40
0.0000000000
40
0.0000000000
40
0.0000000000
40
1.0000000000
40
1.0000000000
40
1.0000000000
40
1.0000000000
10
3.2539849638
20
21.1097845175
30
0.0000000000
10
3.3915687168
20
21.1712602160
30
0.0000000000
10
3.5271137530
20
21.2372816423
30
0.0000000000
10
3.6601572159
20
21.3080142724
30
0.0000000000
11
3.2539849638
21
21.1097845175
31
0.0000000000
11
3.6601572159
21
21.3080142724
31
0.0000000000
0
SPLINE
5
2F5
100
AcDbEntity
8
0
100
AcDbSpline
62
7
6
CONTINUOUS
70
0
71
3
72
8
73
4
74
2
42
0.0000001000
43
0.0000001000
44
0.0000000001
12
0.1780622556
22
0.0946668960
32
0.0000000000
13
0.1749516639
23
0.1003369431
33
0.0000000000
40
0.0000000000
40
0.0000000000
40
0.0000000000
40
0.0000000000
40
1.0000000000
40
1.0000000000
40
1.0000000000
40
1.0000000000
10
3.6601572159
20
21.3080142724
30
0.0000000000
10
3.7195113011
20
21.3395699044
30
0.0000000000
10
3.7783675032
20
21.3720631978
30
0.0000000000
10
3.8366847245
20
21.4055088455
30
0.0000000000
11
3.6601572159
21
21.3080142724
31
0.0000000000
11
3.8366847245
21
21.4055088455
31
0.0000000000
0
SPLINE
5
2F6
100
AcDbEntity
8
0
100
AcDbSpline
62
7
6
CONTINUOUS
70
0
71
3
72
8
73
4
74
2
42
0.0000001000
43
0.0000001000
44
0.0000000001
12
0.2056259205
22
0.1179290086
32
0.0000000000
13
0.2009584520
23
0.1258940700
33
0.0000000000
40
0.0000000000
40
0.0000000000
40
0.0000000000
40
0.0000000000
40
1.0000000000
40
1.0000000000
40
1.0000000000
40
1.0000000000
10
3.8366847245
20
21.4055088455
30
0.0000000000
10
3.9052266980
20
21.4448185151
30
0.0000000000
10
3.9730241232
20
21.4854437672
30
0.0000000000
10
4.0400102739
20
21.5274084572
30
0.0000000000
11
3.8366847245
21
21.4055088455
31
0.0000000000
11
4.0400102739
21
21.5274084572
31
0.0000000000
0
SPLINE
5
2F7
100
AcDbEntity
8
0
100
AcDbSpline
62
7
6
CONTINUOUS
70
0
71
3
72
8
73
4
74
2
42
0.0000001000
43
0.0000001000
44
0.0000000001
12
0.2087647485
22
0.1307844661
32
0.0000000000
13
0.2031272101
23
0.1395210509
33
0.0000000000
40
0.0000000000
40
0.0000000000
40
0.0000000000
40
0.0000000000
40
1.0000000000
40
1.0000000000
40
1.0000000000
40
1.0000000000
10
4.0400102739
20
21.5274084572
30
0.0000000000
10
4.1095985234
20
21.5710032792
30
0.0000000000
10
4.1783112457
20
21.6160436221
30
0.0000000000
10
4.2460203157
20
21.6625506391
30
0.0000000000
11
4.0400102739
21
21.5274084572
31
0.0000000000
11
4.2460203157
21
21.6625506391
31
0.0000000000
0
SPLINE
5
2F8
100
AcDbEntity
8
0
100
AcDbSpline
62
7
6
CONTINUOUS
70
0
71
3
72
8
73
4
74
2
42
0.0000001000
43
0.0000001000
44
0.0000000001
12
0.1492647593
22
0.1025247975
32
0.0000000000
13
0.1458605226
23
0.1073018336
33
0.0000000000
40
0.0000000000
40
0.0000000000
40
0.0000000000
40
0.0000000000
40
1.0000000000
40
1.0000000000
40
1.0000000000
40
1.0000000000
10
4.2460203157
20
21.6625506391
30
0.0000000000
10
4.2957752355
20
21.6967255716
30
0.0000000000
10
4.3449882023
20
21.7316924801
30
0.0000000000
10
4.3936083765
20
21.7674597579
30
0.0000000000
11
4.2460203157
21
21.6625506391
31
0.0000000000
11
4.3936083765
21
21.7674597579
31
0.0000000000
0
SPLINE
5
2F9
100
AcDbEntity
8
0
100
AcDbSpline
62
7
6
CONTINUOUS
70
0
71
3
72
10
73
6
74
4
42
0.0000001000
43
0.0000001000
44
0.0000000001
12
1.8820441606
22
1.3845198536
32
0.0000000000
13
0.8876003585
23
2.1670169091
33
0.0000000000
40
0.0000000000
40
0.0000000000
40
0.0000000000
40
0.0000000000
40
0.3525094965
40
0.8446192688
40
1.0000000000
40
1.0000000000
40
1.0000000000
40
1.0000000000
10
4.3936083765
20
21.7674597579
30
0.0000000000
10
4.6147545230
20
21.9301452234
30
0.0000000000
10
5.1152402543
20
22.3596166427
30
0.0000000000
10
5.5919230056
20
22.9860118644
30
0.0000000000
10
5.8082088497
20
23.4436385860
30
0.0000000000
10
5.8541808473
20
23.5558761432
30
0.0000000000
11
4.3936083765
21
21.7674597579
31
0.0000000000
11
5.0154711353
21
22.3059809381
31
0.0000000000
11
5.6990841236
21
23.2269987254
31
0.0000000000
11
5.8541808473
21
23.5558761432
31
0.0000000000
0
SPLINE
5
2FA
100
AcDbEntity
8
0
100
AcDbSpline
62
7
6
CONTINUOUS
70
0
71
3
72
8
73
4
74
2
42
0.0000001000
43
0.0000001000
44
0.0000000001
12
0.0181593316
22
0.0443347935
32
0.0000000000
13
0.0175381979
23
0.0445824796
33
0.0000000000
40
0.0000000000
40
0.0000000000
40
0.0000000000
40
0.0000000000
40
1.0000000000
40
1.0000000000
40
1.0000000000
40
1.0000000000
10
5.8541808473
20
23.5558761432
30
0.0000000000
10
5.8602339578
20
23.5706544077
30
0.0000000000
10
5.8661842446
20
23.5854746127
30
0.0000000000
10
5.8720303106
20
23.6003354393
30
0.0000000000
11
5.8541808473
21
23.5558761432
31
0.0000000000
11
5.8720303106
21
23.6003354393
31
0.0000000000
0
SPLINE
5
2FB
100
AcDbEntity
8
0
100
AcDbSpline
62
7
6
CONTINUOUS
70
0
71
3
72
10
73
6
74
4
42
0.0000001000
43
0.0000001000
44
0.0000000001
12
-1.2204750949
22
2.0098645726
32
0.0000000000
13
-0.6419856038
23
2.2636507230
33
0.0000000000
40
0.0000000000
40
0.0000000000
40
0.0000000000
40
0.0000000000
40
0.4448340088
40
0.8667752134
40
1.0000000000
40
1.0000000000
40
1.0000000000
40
1.0000000000
10
-18.0496745523
20
28.0140268289
30
0.0000000000
10
-18.2306441620
20
28.3120455339
30
0.0000000000
10
-18.5542317069
20
28.9110734729
30
0.0000000000
10
-18.8496069462
20
29.6390185038
30
0.0000000000
10
-18.9780934678
20
30.0551663689
30
0.0000000000
10
-19.0066029328
20
30.1556911637
30
0.0000000000
11
-18.0496745523
21
28.0140268289
31
0.0000000000
11
-18.5449832166
21
28.9353061895
31
0.0000000000
11
-18.9143828101
21
29.8561300123
31
0.0000000000
11
-19.0066029328
21
30.1556911637
31
0.0000000000
0
SPLINE
5
2FC
100
AcDbEntity
8
0
100
AcDbSpline
62
7
6
CONTINUOUS
70
0
71
3
72
9
73
5
74
3
42
0.0000001000
43
0.0000001000
44
0.0000000001
12
-0.3849864095
22
1.3574677672
32
0.0000000000
13
-0.0000002238
23
1.4100935400
33
0.0000000000
40
0.0000000000
40
0.0000000000
40
0.0000000000
40
0.0000000000
40
0.4239252593
40
1.0000000000
40
1.0000000000
40
1.0000000000
40
1.0000000000
10
-19.0066029328
20
30.1556911637
30
0.0000000000
10
-19.0610047540
20
30.3475127888
30
0.0000000000
10
-19.1693735211
20
30.8056760680
30
0.0000000000
10
-19.2198435458
20
31.2760073312
30
0.0000000000
10
-19.2198435888
20
31.5467804214
30
0.0000000000
11
-19.0066029328
21
30.1556911637
31
0.0000000000
11
-19.1424801344
21
30.7381535030
31
0.0000000000
11
-19.2198435888
21
31.5467804214
31
0.0000000000
0
SPLINE
5
2FD
100
AcDbEntity
8
0
100
AcDbSpline
62
7
6
CONTINUOUS
70
0
71
3
72
8
73
4
74
2
42
0.0000001000
43
0.0000001000
44
0.0000000001
12
0.3210519858
22
-0.0463401881
32
0.0000000000
13
0.3187396099
23
-0.0616885126
33
0.0000000000
40
0.0000000000
40
0.0000000000
40
0.0000000000
40
0.0000000000
40
1.0000000000
40
1.0000000000
40
1.0000000000
40
1.0000000000
10
0.9936929991
20
27.8675667243
30
0.0000000000
10
1.1007103277
20
27.8521199949
30
0.0000000000
10
1.2074265718
20
27.8341368068
30
0.0000000000
10
1.3136731084
20
27.8135739693
30
0.0000000000
11
0.9936929991
21
27.8675667243
31
0.0000000000
11
1.3136731084
21
27.8135739693
31
0.0000000000
0
SPLINE
5
2FE
100
AcDbEntity
8
0
100
AcDbSpline
62
7
6
CONTINUOUS
70
0
71
3
72
10
73
6
74
4
42
0.0000001000
43
0.0000001000
44
0.0000000001
12
2.3857957288
22
-0.4617442744
32
0.0000000000
13
1.9770170147
23
-1.4094769372
33
0.0000000000
40
0.0000000000
40
0.0000000000
40
0.0000000000
40
0.0000000000
40
0.2606119452
40
0.6402277674
40
1.0000000000
40
1.0000000000
40
1.0000000000
40
1.0000000000
10
1.3136731084
20
27.8135739693
30
0.0000000000
10
1.5209287303
20
27.7734619447
30
0.0000000000
10
2.0256887496
20
27.6508066270
30
0.0000000000
10
2.7854485994
20
27.3636722590
30
0.0000000000
10
3.3066010573
20
27.0622208930
30
0.0000000000
10
3.5436929991
20
26.8931906714
30
0.0000000000
11
1.3136731084
21
27.8135739693
31
0.0000000000
11
1.9288262381
21
27.6634686706
31
0.0000000000
11
2.7898215513
21
27.3344752530
31
0.0000000000
11
3.5436929991
21
26.8931906714
31
0.0000000000
0
SPLINE
5
2FF
100
AcDbEntity
8
0
100
AcDbSpline
62
7
6
CONTINUOUS
70
0
71
3
72
10
73
6
74
4
42
0.0000001000
43
0.0000001000
44
0.0000000001
12
1.9770196249
22
1.4094693790
32
0.0000000000
13
2.3857944723
23
0.4617388086
33
0.0000000000
40
0.0000000000
40
0.0000000000
40
0.0000000000
40
0.0000000000
40
0.3597723127
40
0.7393881209
40
1.0000000000
40
1.0000000000
40
1.0000000000
40
1.0000000000
10
-3.5563070009
20
26.8931980286
30
0.0000000000
10
-3.3192146933
20
27.0622273814
30
0.0000000000
10
-2.7980618314
20
27.3636769943
30
0.0000000000
10
-2.0383020035
20
27.6508092424
30
0.0000000000
10
-1.5335422536
20
27.7734633258
30
0.0000000000
10
-1.3262867934
20
27.8135748653
30
0.0000000000
11
-3.5563070009
21
26.8931980286
31
0.0000000000
11
-2.8024348115
21
27.3344801173
31
0.0000000000
11
-1.9414395222
21
27.6634710962
31
0.0000000000
11
-1.3262867934
21
27.8135748653
31
0.0000000000
0
SPLINE
5
300
100
AcDbEntity
8
0
100
AcDbSpline
62
7
6
CONTINUOUS
70
0
71
3
72
8
73
4
74
2
42
0.0000001000
43
0.0000001000
44
0.0000000001
12
0.3187393126
22
0.0616877573
32
0.0000000000
13
0.3210516505
23
0.0463394740
33
0.0000000000
40
0.0000000000
40
0.0000000000
40
0.0000000000
40
0.0000000000
40
1.0000000000
40
1.0000000000
40
1.0000000000
40
1.0000000000
10
-1.3262867934
20
27.8135748653
30
0.0000000000
10
-1.2200403559
20
27.8341374511
30
0.0000000000
10
-1.1133242178
20
27.8521203945
30
0.0000000000
10
-1.0063070009
20
27.8675668859
30
0.0000000000
11
-1.3262867934
21
27.8135748653
31
0.0000000000
11
-1.0063070009
21
27.8675668859
31
0.0000000000
0
SPLINE
5
301
100
AcDbEntity
8
0
100
AcDbSpline
62
7
6
CONTINUOUS
70
0
71
3
72
10
73
6
74
4
42
0.0000001000
43
0.0000001000
44
0.0000000001
12
0.9203053135
22
1.1259502025
32
0.0000000000
13
0.7547874248
23
1.2429890072
33
0.0000000000
40
0.0000000000
40
0.0000000000
40
0.0000000000
40
0.0000000000
40
0.3301541412
40
0.6698458588
40
1.0000000000
40
1.0000000000
40
1.0000000000
40
1.0000000000
10
17.1980947811
20
26.8275770044
30
0.0000000000
10
17.2993756513
20
26.9514893785
30
0.0000000000
10
17.4992160580
20
27.2075772892
30
0.0000000000
10
17.7791782829
20
27.6035037216
30
0.0000000000
10
17.9540067745
20
27.8772777246
30
0.0000000000
10
18.0370721725
20
28.0140703807
30
0.0000000000
11
17.1980947811
21
26.8275770044
31
0.0000000000
11
17.4933804259
21
27.2061469555
31
0.0000000000
11
17.7785816029
21
27.6094823861
31
0.0000000000
11
18.0370721725
21
28.0140703807
31
0.0000000000
0
SPLINE
5
302
100
AcDbEntity
8
0
100
AcDbSpline
62
7
6
CONTINUOUS
70
0
71
3
72
10
73
6
74
4
42
0.0000001000
43
0.0000001000
44
0.0000000001
12
0.7547431866
22
-1.2429025372
32
0.0000000000
13
0.9202390146
23
-1.1258792789
33
0.0000000000
40
0.0000000000
40
0.0000000000
40
0.0000000000
40
0.0000000000
40
0.3301545684
40
0.6698454321
40
1.0000000000
40
1.0000000000
40
1.0000000000
40
1.0000000000
10
-18.0496745523
20
28.0140268289
30
0.0000000000
10
-17.9666139153
20
27.8772435120
30
0.0000000000
10
-17.7917962482
20
27.6034885372
30
0.0000000000
10
-17.5118526030
20
27.2075885593
30
0.0000000000
10
-17.3120264190
20
26.9515172820
30
0.0000000000
10
-17.2107527143
20
26.8276125531
30
0.0000000000
11
-18.0496745523
21
28.0140268289
31
0.0000000000
11
-17.7911994923
21
27.6094661411
31
0.0000000000
11
-17.5060179448
21
27.2061586531
31
0.0000000000
11
-17.2107527143
21
26.8276125531
31
0.0000000000
0
SPLINE
5
303
100
AcDbEntity
8
0
100
AcDbSpline
62
9
6
CONTINUOUS
70
0
71
3
72
9
73
5
74
3
42
0.0000001000
43
0.0000001000
44
0.0000000001
12
0.7263811013
22
-0.9032761413
32
0.0000000000
13
0.0839381596
23
-1.1515740763
33
0.0000000000
40
0.0000000000
40
0.0000000000
40
0.0000000000
40
0.0000000000
40
0.4943212043
40
1.0000000000
40
1.0000000000
40
1.0000000000
40
1.0000000000
10
63.3032144328
20
41.4087743035
30
0.0000000000
10
63.4229029598
20
41.2599381202
30
0.0000000000
10
63.6190058766
20
40.9218435528
30
0.0000000000
10
63.7025119002
20
40.5390714832
30
0.0000000000
10
63.7166604827
20
40.3449626191
30
0.0000000000
11
63.3032144328
21
41.4087743035
31
0.0000000000
11
63.5892651801
21
40.9147663908
31
0.0000000000
11
63.7166604827
21
40.3449626191
31
0.0000000000
0
SPLINE
5
304
100
AcDbEntity
8
0
100
AcDbSpline
62
7
6
CONTINUOUS
70
0
71
3
72
8
73
4
74
2
42
0.0000001000
43
0.0000001000
44
0.0000000001
12
0.3128780599
22
-0.0534752311
32
0.0000000000
13
0.3160544148
23
0.0022048236
33
0.0000000000
40
0.0000000000
40
0.0000000000
40
0.0000000000
40
0.0000000000
40
1.0000000000
40
1.0000000000
40
1.0000000000
40
1.0000000000
10
-14.7860942709
20
24.7670943270
30
0.0000000000
10
-14.6818015843
20
24.7492692499
30
0.0000000000
10
-14.5762933154
20
24.7392099998
30
0.0000000000
10
-14.4709418438
20
24.7399449410
30
0.0000000000
11
-14.7860942709
21
24.7670943270
31
0.0000000000
11
-14.4709418438
21
24.7399449410
31
0.0000000000
0
SPLINE
5
305
100
AcDbEntity
8
0
100
AcDbSpline
62
7
6
CONTINUOUS
70
0
71
3
72
11
73
7
74
5
42
0.0000001000
43
0.0000001000
44
0.0000000001
12
2.2540518646
22
0.0157244654
32
0.0000000000
13
-0.0000003560
23
2.2432118739
33
0.0000000000
40
0.0000000000
40
0.0000000000
40
0.0000000000
40
0.0000000000
40
0.0998322420
40
0.3733474322
40
0.6566234246
40
1.0000000000
40
1.0000000000
40
1.0000000000
40
1.0000000000
10
-14.4709418438
20
24.7399449410
30
0.0000000000
10
-14.3959328268
20
24.7404682106
30
0.0000000000
10
-14.1157152548
20
24.7628885256
30
0.0000000000
10
-13.6370224862
20
24.9637988482
30
0.0000000000
10
-13.2645919637
20
25.5646449142
30
0.0000000000
10
-13.2094351256
20
26.0400288622
30
0.0000000000
10
-13.2094351664
20
26.2967843326
30
0.0000000000
11
-14.4709418438
21
24.7399449410
31
0.0000000000
11
-14.2466485751
21
24.7590233791
31
0.0000000000
11
-13.6865003651
21
25.0093844795
31
0.0000000000
11
-13.3311668940
21
25.5361978939
31
0.0000000000
11
-13.2094351664
21
26.2967843326
31
0.0000000000
0
SPLINE
5
306
100
AcDbEntity
8
0
100
AcDbSpline
62
7
6
CONTINUOUS
70
0
71
3
72
8
73
4
74
2
42
0.0000001000
43
0.0000001000
44
0.0000000001
12
0.0574810887
22
0.3292648736
32
0.0000000000
13
0.1185051272
23
0.3151333848
33
0.0000000000
40
0.0000000000
40
0.0000000000
40
0.0000000000
40
0.0000000000
40
1.0000000000
40
1.0000000000
40
1.0000000000
40
1.0000000000
10
-19.1848544958
20
30.9843312296
30
0.0000000000
10
-19.1656941329
20
31.0940861875
30
0.0000000000
10
-19.1376123725
20
31.2023256251
30
0.0000000000
10
-19.0981106635
20
31.3073700867
30
0.0000000000
11
-19.1848544958
21
30.9843312296
31
0.0000000000
11
-19.0981106635
21
31.3073700867
31
0.0000000000
0
SPLINE
5
307
100
AcDbEntity
8
0
100
AcDbSpline
62
7
6
CONTINUOUS
70
0
71
3
72
8
73
4
74
2
42
0.0000001000
43
0.0000001000
44
0.0000000001
12
0.1539312658
22
0.4093399328
32
0.0000000000
13
0.2730549047
23
0.3389100173
33
0.0000000000
40
0.0000000000
40
0.0000000000
40
0.0000000000
40
0.0000000000
40
1.0000000000
40
1.0000000000
40
1.0000000000
40
1.0000000000
10
-19.0981106635
20
31.3073700867
30
0.0000000000
10
-19.0468002415
20
31.4438167310
30
0.0000000000
10
-18.9762215128
20
31.5748726524
30
0.0000000000
10
-18.8852032113
20
31.6878426582
30
0.0000000000
11
-19.0981106635
21
31.3073700867
31
0.0000000000
11
-18.8852032113
21
31.6878426582
31
0.0000000000
0
SPLINE
5
308
100
AcDbEntity
8
0
100
AcDbSpline
62
7
6
CONTINUOUS
70
0
71
3
72
17
73
13
74
11
42
0.0000001000
43
0.0000001000
44
0.0000000001
12
5.7258747318
22
7.1068355521
32
0.0000000000
13
0.0000014374
23
-9.0568579551
33
0.0000000000
40
0.0000000000
40
0.0000000000
40
0.0000000000
40
0.0000000000
40
0.0224741950
40
0.0902187180
40
0.1698352724
40
0.2678949410
40
0.3835653154
40
0.5117666534
40
0.6452331269
40
0.7759058848
40
0.8961393284
40
1.0000000000
40
1.0000000000
40
1.0000000000
40
1.0000000000
10
-18.8852032113
20
31.6878426582
30
0.0000000000
10
-18.8423084029
20
31.7410827941
30
0.0000000000
10
-18.6518910197
20
31.9386807951
30
0.0000000000
10
-18.1519996391
20
32.1484883066
30
0.0000000000
10
-17.3956296303
20
32.0633470133
30
0.0000000000
10
-16.5785153636
20
31.7019567141
30
0.0000000000
10
-15.7382053820
20
31.0919705045
30
0.0000000000
10
-14.9343616135
20
30.2788957100
30
0.0000000000
10
-14.2275746157
20
29.3236596232
30
0.0000000000
10
-13.6725432824
20
28.2996463581
30
0.0000000000
10
-13.3116045846
20
27.2868512588
30
0.0000000000
10
-13.2094352162
20
26.6103347825
30
0.0000000000
10
-13.2094351664
20
26.2967843326
30
0.0000000000
11
-18.8852032113
21
31.6878426582
31
0.0000000000
11
-18.7427771924
21
31.8341835012
31
0.0000000000
11
-18.1826289825
21
32.0845446016
31
0.0000000000
11
-17.4630459103
21
32.0381706205
31
0.0000000000
11
-16.6423243169
21
31.6988185022
31
0.0000000000
11
-15.7869541848
21
31.0939805369
31
0.0000000000
11
-14.9662325149
21
30.2726570997
31
0.0000000000
11
-14.2466492960
21
29.3013869306
31
0.0000000000
11
-13.6865008808
21
28.2588565626
31
0.0000000000
11
-13.3311671628
21
27.2295256058
31
0.0000000000
11
-13.2094351664
21
26.2967843326
31
0.0000000000
0
SPLINE
5
309
100
AcDbEntity
8
0
100
AcDbSpline
62
7
6
CONTINUOUS
70
0
71
3
72
20
73
16
74
14
42
0.0000001000
43
0.0000001000
44
0.0000000001
12
-0.0000000475
22
12.6851634031
32
0.0000000000
13
-0.0000014555
23
-12.6851632439
33
0.0000000000
40
0.0000000000
40
0.0000000000
40
0.0000000000
40
0.0000000000
40
0.0645847163
40
0.1189574362
40
0.1688534641
40
0.2224985506
40
0.2859966662
40
0.3614144595
40
0.4478202627
40
0.5424723777
40
0.6415934214
40
0.7409184290
40
0.8361611589
40
0.9234772672
40
1.0000000000
40
1.0000000000
40
1.0000000000
40
1.0000000000
10
-19.2198435888
20
31.5467810203
30
0.0000000000
10
-19.2198435898
20
31.8198702467
30
0.0000000000
10
-19.1665351759
20
32.3271841041
30
0.0000000000
10
-18.8501432097
20
32.9903725834
30
0.0000000000
10
-18.2917348194
20
33.4064355318
30
0.0000000000
10
-17.5707664998
20
33.5115565198
30
0.0000000000
10
-16.7637230160
20
33.3408880556
30
0.0000000000
10
-15.8990041077
20
32.9256595698
30
0.0000000000
10
-15.0156445078
20
32.2890288095
30
0.0000000000
10
-14.1594784923
20
31.4652767105
30
0.0000000000
10
-13.3779144607
20
30.4995793751
30
0.0000000000
10
-12.7148517737
20
29.4461264577
30
0.0000000000
10
-12.2073824504
20
28.3637318412
30
0.0000000000
10
-11.8834788879
20
27.3134396032
30
0.0000000000
10
-11.7952235678
20
26.6203529394
30
0.0000000000
10
-11.7952236050
20
26.2967851535
30
0.0000000000
11
-19.2198435888
21
31.5467810203
31
0.0000000000
11
-19.1119696157
21
32.3589156939
31
0.0000000000
11
-18.7946201561
21
32.9712982682
31
0.0000000000
11
-18.2862371614
21
33.3483378371
31
0.0000000000
11
-17.6163659502
21
33.4681221917
31
0.0000000000
11
-16.8239369562
21
33.3236898415
31
0.0000000000
11
-15.9550032437
21
32.9234346046
31
0.0000000000
11
-15.0600640773
21
32.2906178044
31
0.0000000000
11
-14.1911300889
21
31.4620164188
31
0.0000000000
11
-13.3987006049
21
30.4857857438
31
0.0000000000
11
-12.7288287985
21
29.4186607840
31
0.0000000000
11
-12.2204452355
21
28.3226590140
31
0.0000000000
11
-11.9030953590
21
27.2614761368
31
0.0000000000
11
-11.7952236050
21
26.2967851535
31
0.0000000000
0
SPLINE
5
30A
100
AcDbEntity
8
0
100
AcDbSpline
62
9
6
CONTINUOUS
70
0
71
3
72
8
73
4
74
2
42
0.0000001000
43
0.0000001000
44
0.0000000001
12
-0.0265516494
22
-0.0331463980
32
0.0000000000
13
-0.0257920892
23
-0.0337385321
33
0.0000000000
40
0.0000000000
40
0.0000000000
40
0.0000000000
40
0.0000000000
40
1.0000000000
40
1.0000000000
40
1.0000000000
40
1.0000000000
10
-63.3176172207
20
41.4065545337
30
0.0000000000
10
-63.3264677705
20
41.3955057344
30
0.0000000000
10
-63.3351925852
20
41.3843567453
30
0.0000000000
10
-63.3437899483
20
41.3731105680
30
0.0000000000
11
-63.3176172207
21
41.4065545337
31
0.0000000000
11
-63.3437899483
21
41.3731105680
31
0.0000000000
0
SPLINE
5
30B
100
AcDbEntity
8
0
100
AcDbSpline
62
9
6
CONTINUOUS
70
0
71
3
72
9
73
5
74
3
42
0.0000001000
43
0.0000001000
44
0.0000000001
12
-0.6762959883
22
-0.8846601680
32
0.0000000000
13
-0.0749479056
23
-1.1069424704
33
0.0000000000
40
0.0000000000
40
0.0000000000
40
0.0000000000
40
0.0000000000
40
0.4728473025
40
1.0000000000
40
1.0000000000
40
1.0000000000
40
1.0000000000
10
-63.3437899483
20
41.3731105680
30
0.0000000000
10
-63.4503848595
20
41.2336741766
30
0.0000000000
10
-63.6343819026
20
40.9071911884
30
0.0000000000
10
-63.7161179534
20
40.5394718549
30
0.0000000000
10
-63.7292876169
20
40.3449626185
30
0.0000000000
11
-63.3437899483
21
41.3731105680
31
0.0000000000
11
-63.6015258904
21
40.9157011654
31
0.0000000000
11
-63.7292876169
21
40.3449626185
31
0.0000000000
0
SPLINE
5
30C
100
AcDbEntity
8
0
100
AcDbSpline
62
7
6
CONTINUOUS
70
0
71
3
72
8
73
4
74
2
42
0.0000001000
43
0.0000001000
44
0.0000000001
12
-0.3128749993
22
-0.0534742289
32
0.0000000000
13
-0.3160512494
23
0.0022048015
33
0.0000000000
40
0.0000000000
40
0.0000000000
40
0.0000000000
40
0.0000000000
40
1.0000000000
40
1.0000000000
40
1.0000000000
40
1.0000000000
10
14.7734640030
20
24.7670937914
30
0.0000000000
10
14.6691723366
20
24.7492690484
30
0.0000000000
10
14.5636651260
20
24.7392100072
30
0.0000000000
10
14.4583147096
20
24.7399449410
30
0.0000000000
11
14.7734640030
21
24.7670937914
31
0.0000000000
11
14.4583147096
21
24.7399449410
31
0.0000000000
0
SPLINE
5
30D
100
AcDbEntity
8
0
100
AcDbSpline
62
7
6
CONTINUOUS
70
0
71
3
72
11
73
7
74
5
42
0.0000001000
43
0.0000001000
44
0.0000000001
12
-2.2540518646
22
0.0157244654
32
0.0000000000
13
0.0000003560
23
2.2432118739
33
0.0000000000
40
0.0000000000
40
0.0000000000
40
0.0000000000
40
0.0000000000
40
0.0998322420
40
0.3733474322
40
0.6566234246
40
1.0000000000
40
1.0000000000
40
1.0000000000
40
1.0000000000
10
14.4583147096
20
24.7399449410
30
0.0000000000
10
14.3833056925
20
24.7404682106
30
0.0000000000
10
14.1030881205
20
24.7628885256
30
0.0000000000
10
13.6243953520
20
24.9637988482
30
0.0000000000
10
13.2519648294
20
25.5646449142
30
0.0000000000
10
13.1968079914
20
26.0400288622
30
0.0000000000
10
13.1968080321
20
26.2967843326
30
0.0000000000
11
14.4583147096
21
24.7399449410
31
0.0000000000
11
14.2340214408
21
24.7590233791
31
0.0000000000
11
13.6738732309
21
25.0093844795
31
0.0000000000
11
13.3185397598
21
25.5361978939
31
0.0000000000
11
13.1968080321
21
26.2967843326
31
0.0000000000
0
SPLINE
5
30E
100
AcDbEntity
8
0
100
AcDbSpline
62
7
6
CONTINUOUS
70
0
71
3
72
20
73
16
74
14
42
0.0000001000
43
0.0000001000
44
0.0000000001
12
0.0000000476
22
12.6851679722
32
0.0000000000
13
-0.0000020132
23
-12.6851678131
33
0.0000000000
40
0.0000000000
40
0.0000000000
40
0.0000000000
40
0.0000000000
40
0.0645847763
40
0.1189574878
40
0.1688535031
40
0.2224985843
40
0.2859967025
40
0.3614144998
40
0.4478203023
40
0.5424724083
40
0.6415934345
40
0.7409184187
40
0.8361611235
40
0.9234772089
40
1.0000000000
40
1.0000000000
40
1.0000000000
40
1.0000000000
10
19.2072152569
20
31.5467841981
30
0.0000000000
10
19.2072152579
20
31.8198737766
30
0.0000000000
10
19.1539086130
20
32.3271882814
30
0.0000000000
10
18.8375157394
20
32.9903770550
30
0.0000000000
10
18.2791070946
20
33.4064397888
30
0.0000000000
10
17.5581384408
20
33.5115601748
30
0.0000000000
10
16.7510948216
20
33.3408910249
30
0.0000000000
10
15.8863758463
20
32.9256618308
30
0.0000000000
10
15.0030162791
20
32.2890304086
30
0.0000000000
10
14.1468503766
20
31.4652777525
30
0.0000000000
10
13.3652864735
20
30.4995800029
30
0.0000000000
10
12.7022239853
20
29.4461268016
30
0.0000000000
10
12.1947544868
20
28.3637320485
30
0.0000000000
10
11.8708515593
20
27.3134393115
30
0.0000000000
10
11.7825944234
20
26.6203524556
30
0.0000000000
10
11.7825943720
20
26.2967843066
30
0.0000000000
11
19.2072152569
21
31.5467841981
31
0.0000000000
11
19.0993424033
21
32.3589200859
31
0.0000000000
11
18.7819927386
21
32.9713027141
31
0.0000000000
11
18.2736094718
21
33.3483420314
31
0.0000000000
11
17.6037379906
21
33.4681258830
31
0.0000000000
11
16.8113087904
21
33.3236928668
31
0.0000000000
11
15.9423749761
21
32.9234369049
31
0.0000000000
11
15.0474358225
21
32.2906194189
31
0.0000000000
11
14.1785019402
21
31.4620174608
31
0.0000000000
11
13.3860726081
21
30.4857863645
31
0.0000000000
11
12.7162009385
21
29.4186611331
31
0.0000000000
11
12.2078174379
21
28.3226592059
31
0.0000000000
11
11.8904675076
21
27.2614762314
31
0.0000000000
11
11.7825943720
21
26.2967843066
31
0.0000000000
0
SPLINE
5
30F
100
AcDbEntity
8
0
100
AcDbSpline
62
9
6
CONTINUOUS
70
0
71
3
72
8
73
4
74
2
42
0.0000001000
43
0.0000001000
44
0.0000000001
12
0.0466864452
22
-0.3094576106
32
0.0000000000
13
0.0014671258
23
-0.3118240372
33
0.0000000000
40
0.0000000000
40
0.0000000000
40
0.0000000000
40
0.0000000000
40
1.0000000000
40
1.0000000000
40
1.0000000000
40
1.0000000000
10
70.7214875668
20
22.2948388414
30
0.0000000000
10
70.7370497152
20
22.1916863045
30
0.0000000000
10
70.7451636632
20
22.0874900503
30
0.0000000000
10
70.7456527052
20
21.9835487046
30
0.0000000000
11
70.7214875668
21
22.2948388414
31
0.0000000000
11
70.7456527052
21
21.9835487046
31
0.0000000000
0
SPLINE
5
310
100
AcDbEntity
8
0
100
AcDbSpline
62
7
6
CONTINUOUS
70
0
71
3
72
8
73
4
74
2
42
0.0000001000
43
0.0000001000
44
0.0000000001
12
-0.0574810532
22
0.3292618278
32
0.0000000000
13
-0.1185040605
23
0.3151305481
33
0.0000000000
40
0.0000000000
40
0.0000000000
40
0.0000000000
40
0.0000000000
40
1.0000000000
40
1.0000000000
40
1.0000000000
40
1.0000000000
10
19.1722268442
20
30.9843341936
30
0.0000000000
10
19.1530664931
20
31.0940881362
30
0.0000000000
10
19.1249848827
20
31.2023265707
30
0.0000000000
10
19.0854835292
20
31.3073700867
30
0.0000000000
11
19.1722268442
21
30.9843341936
31
0.0000000000
11
19.0854835292
21
31.3073700867
31
0.0000000000
0
SPLINE
5
311
100
AcDbEntity
8
0
100
AcDbSpline
62
7
6
CONTINUOUS
70
0
71
3
72
8
73
4
74
2
42
0.0000001000
43
0.0000001000
44
0.0000000001
12
-0.1539312658
22
0.4093399328
32
0.0000000000
13
-0.2730549047
23
0.3389100173
33
0.0000000000
40
0.0000000000
40
0.0000000000
40
0.0000000000
40
0.0000000000
40
1.0000000000
40
1.0000000000
40
1.0000000000
40
1.0000000000
10
19.0854835292
20
31.3073700867
30
0.0000000000
10
19.0341731073
20
31.4438167310
30
0.0000000000
10
18.9635943786
20
31.5748726524
30
0.0000000000
10
18.8725760770
20
31.6878426582
30
0.0000000000
11
19.0854835292
21
31.3073700867
31
0.0000000000
11
18.8725760770
21
31.6878426582
31
0.0000000000
0
SPLINE
5
312
100
AcDbEntity
8
0
100
AcDbSpline
62
7
6
CONTINUOUS
70
0
71
3
72
17
73
13
74
11
42
0.0000001000
43
0.0000001000
44
0.0000000001
12
-5.7258747318
22
7.1068355521
32
0.0000000000
13
-0.0000014374
23
-9.0568579551
33
0.0000000000
40
0.0000000000
40
0.0000000000
40
0.0000000000
40
0.0000000000
40
0.0224741950
40
0.0902187180
40
0.1698352724
40
0.2678949410
40
0.3835653154
40
0.5117666534
40
0.6452331269
40
0.7759058848
40
0.8961393284
40
1.0000000000
40
1.0000000000
40
1.0000000000
40
1.0000000000
10
18.8725760770
20
31.6878426582
30
0.0000000000
10
18.8296812686
20
31.7410827941
30
0.0000000000
10
18.6392638854
20
31.9386807951
30
0.0000000000
10
18.1393725048
20
32.1484883066
30
0.0000000000
10
17.3830024961
20
32.0633470133
30
0.0000000000
10
16.5658882294
20
31.7019567141
30
0.0000000000
10
15.7255782478
20
31.0919705045
30
0.0000000000
10
14.9217344792
20
30.2788957100
30
0.0000000000
10
14.2149474814
20
29.3236596232
30
0.0000000000
10
13.6599161481
20
28.2996463581
30
0.0000000000
10
13.2989774504
20
27.2868512588
30
0.0000000000
10
13.1968080819
20
26.6103347825
30
0.0000000000
10
13.1968080321
20
26.2967843326
30
0.0000000000
11
18.8725760770
21
31.6878426582
31
0.0000000000
11
18.7301500581
21
31.8341835012
31
0.0000000000
11
18.1700018482
21
32.0845446016
31
0.0000000000
11
17.4504187761
21
32.0381706205
31
0.0000000000
11
16.6296971827
21
31.6988185022
31
0.0000000000
11
15.7743270505
21
31.0939805369
31
0.0000000000
11
14.9536053807
21
30.2726570997
31
0.0000000000
11
14.2340221617
21
29.3013869306
31
0.0000000000
11
13.6738737466
21
28.2588565626
31
0.0000000000
11
13.3185400285
21
27.2295256058
31
0.0000000000
11
13.1968080321
21
26.2967843326
31
0.0000000000
0
SPLINE
5
313
100
AcDbEntity
8
0
100
AcDbSpline
62
7
6
CONTINUOUS
70
0
71
3
72
8
73
4
74
2
42
0.0000001000
43
0.0000001000
44
0.0000000001
12
0.1139145895
22
0.2895733589
32
0.0000000000
13
0.0863848205
23
0.2987715363
33
0.0000000000
40
0.0000000000
40
0.0000000000
40
0.0000000000
40
0.0000000000
40
1.0000000000
40
1.0000000000
40
1.0000000000
40
1.0000000000
10
5.8720303106
20
23.6003354393
30
0.0000000000
10
5.9100018404
20
23.6968598922
30
0.0000000000
10
5.9435765018
20
23.7950980860
30
0.0000000000
10
5.9723714419
20
23.8946885981
30
0.0000000000
11
5.8720303106
21
23.6003354393
31
0.0000000000
11
5.9723714419
21
23.8946885981
31
0.0000000000
0
SPLINE
5
314
100
AcDbEntity
8
0
100
AcDbSpline
62
7
6
CONTINUOUS
70
0
71
3
72
15
73
11
74
9
42
0.0000001000
43
0.0000001000
44
0.0000000001
12
2.5356994830
22
8.7699994741
32
0.0000000000
13
-9.0915335083
23
0.0000009312
33
0.0000000000
40
0.0000000000
40
0.0000000000
40
0.0000000000
40
0.0000000000
40
0.0384935927
40
0.1529035695
40
0.2705441788
40
0.3967051147
40
0.5339842898
40
0.6821574565
40
0.8387886464
40
1.0000000000
40
1.0000000000
40
1.0000000000
40
1.0000000000
10
5.9723714419
20
23.8946885981
30
0.0000000000
10
6.0049075030
20
24.0072181940
30
0.0000000000
10
6.1099068536
20
24.4610643986
30
0.0000000000
10
6.1099068494
20
25.2977347785
30
0.0000000000
10
5.7365934638
20
26.3379142307
30
0.0000000000
10
5.0280222561
20
27.2690275774
30
0.0000000000
10
4.0363328293
20
28.0444092821
30
0.0000000000
10
2.8201044252
20
28.6276734391
30
0.0000000000
10
1.4475780683
20
28.9901336088
30
0.0000000000
10
0.4822392406
20
29.0717293224
30
0.0000000000
10
-0.0063135671
20
29.0717293724
30
0.0000000000
11
5.9723714419
21
23.8946885981
31
0.0000000000
11
6.0511201429
21
24.2369356160
31
0.0000000000
11
6.0511201429
21
25.2770977537
31
0.0000000000
11
5.6990841236
21
26.2870347012
31
0.0000000000
11
5.0154711353
21
27.2080525989
31
0.0000000000
11
4.0400102739
21
27.9866252374
31
0.0000000000
11
2.8293917712
21
28.5775048057
31
0.0000000000
11
1.4539723671
21
28.9463515290
31
0.0000000000
11
-0.0063135671
21
29.0717293724
31
0.0000000000
0
SPLINE
5
315
100
AcDbEntity
8
0
100
AcDbSpline
62
7
6
CONTINUOUS
70
0
71
3
72
9
73
5
74
3
42
0.0000001000
43
0.0000001000
44
0.0000000001
12
0.0000000000
22
-0.1866380814
32
0.0000000000
13
0.0003564631
23
-0.1866377410
33
0.0000000000
40
0.0000000000
40
0.0000000000
40
0.0000000000
40
0.0000000000
40
0.4972082047
40
1.0000000000
40
1.0000000000
40
1.0000000000
40
1.0000000000
10
68.5923805604
20
-37.4611093743
30
0.0000000000
10
68.5923805604
20
-37.4920420361
30
0.0000000000
10
68.5924026568
20
-37.5542547335
30
0.0000000000
10
68.5924852544
20
-37.6164673868
30
0.0000000000
10
68.5925449967
20
-37.6477473618
30
0.0000000000
11
68.5923805604
21
-37.4611093743
31
0.0000000000
11
68.5924174903
21
-37.5539073524
31
0.0000000000
11
68.5925449967
21
-37.6477473618
31
0.0000000000
0
SPLINE
5
316
100
AcDbEntity
8
0
100
AcDbSpline
62
7
6
CONTINUOUS
70
0
71
3
72
9
73
5
74
3
42
0.0000001000
43
0.0000001000
44
0.0000000001
12
0.9950584718
22
0.1195884637
32
0.0000000000
13
1.0022189196
23
-0.0000001027
33
0.0000000000
40
0.0000000000
40
0.0000000000
40
0.0000000000
40
0.0000000000
40
0.4958640728
40
1.0000000000
40
1.0000000000
40
1.0000000000
40
1.0000000000
10
-1.0063070009
20
28.5637787517
30
0.0000000000
10
-0.8418357521
20
28.5835452926
30
0.0000000000
10
-0.5088807719
20
28.6134466297
30
0.0000000000
10
-0.1747317552
20
28.6234416841
30
0.0000000000
10
-0.0063135671
20
28.6234416669
30
0.0000000000
11
-1.0063070009
21
28.5637787517
31
0.0000000000
11
-0.5113413359
21
28.6083047099
31
0.0000000000
11
-0.0063135671
21
28.6234416669
31
0.0000000000
0
SPLINE
5
317
100
AcDbEntity
8
0
100
AcDbSpline
62
7
6
CONTINUOUS
70
0
71
3
72
9
73
5
74
3
42
0.0000001000
43
0.0000001000
44
0.0000000001
12
1.0022321528
22
-0.0000001027
32
0.0000000000
13
0.9950713946
23
-0.1195918384
33
0.0000000000
40
0.0000000000
40
0.0000000000
40
0.0000000000
40
0.0000000000
40
0.5041359719
40
1.0000000000
40
1.0000000000
40
1.0000000000
40
1.0000000000
10
-0.0063135671
20
28.6234416669
30
0.0000000000
10
0.1621068597
20
28.6234416496
30
0.0000000000
10
0.4962602885
20
28.6134462620
30
0.0000000000
10
0.8292196291
20
28.5835440648
30
0.0000000000
10
0.9936929991
20
28.5637769679
30
0.0000000000
11
-0.0063135671
21
28.6234416669
31
0.0000000000
11
0.4987209057
21
28.6083042038
31
0.0000000000
11
0.9936929991
21
28.5637769679
31
0.0000000000
0
SPLINE
5
318
100
AcDbEntity
8
0
100
AcDbSpline
62
7
6
CONTINUOUS
70
0
71
3
72
9
73
5
74
3
42
0.0000001000
43
0.0000001000
44
0.0000000001
12
0.0003564631
22
0.1866377416
32
0.0000000000
13
0.0000000000
23
0.1866380820
33
0.0000000000
40
0.0000000000
40
0.0000000000
40
0.0000000000
40
0.0000000000
40
0.5037061478
40
1.0000000000
40
1.0000000000
40
1.0000000000
40
1.0000000000
10
-68.6051721309
20
-37.6477473618
30
0.0000000000
10
-68.6051122800
20
-37.6164105025
30
0.0000000000
10
-68.6050297494
20
-37.5541978488
30
0.0000000000
10
-68.6050076946
20
-37.4919851513
30
0.0000000000
10
-68.6050076946
20
-37.4611093738
30
0.0000000000
11
-68.6051721309
21
-37.6477473618
31
0.0000000000
11
-68.6050444815
21
-37.5537366991
31
0.0000000000
11
-68.6050076946
21
-37.4611093738
31
0.0000000000
0
SPLINE
5
319
100
AcDbEntity
8
0
100
AcDbSpline
62
9
6
CONTINUOUS
70
0
71
3
72
10
73
6
74
4
42
0.0000001000
43
0.0000001000
44
0.0000000001
12
0.1316528847
22
6.5753760627
32
0.0000000000
13
0.8611741842
23
6.5200676279
33
0.0000000000
40
0.0000000000
40
0.0000000000
40
0.0000000000
40
0.0000000000
40
0.3327652077
40
0.6659560186
40
1.0000000000
40
1.0000000000
40
1.0000000000
40
1.0000000000
10
-71.2563135672
20
-44.6313968775
30
0.0000000000
10
-71.2417104007
20
-43.9020447505
30
0.0000000000
10
-71.1852704696
20
-42.4428014184
30
0.0000000000
10
-71.0191037103
20
-40.2564216169
30
0.0000000000
10
-70.8542405427
20
-38.8026069714
30
0.0000000000
10
-70.7583505250
20
-38.0766105215
30
0.0000000000
11
-71.2563135672
21
-44.6313968775
31
0.0000000000
11
-71.1717689040
21
-42.4445356110
31
0.0000000000
11
-71.0057822439
21
-40.2595372750
31
0.0000000000
11
-70.7583505250
21
-38.0766105215
31
0.0000000000
0
SPLINE
5
31A
100
AcDbEntity
8
0
100
AcDbSpline
62
9
6
CONTINUOUS
70
0
71
3
72
10
73
6
74
4
42
0.0000001000
43
0.0000001000
44
0.0000000001
12
0.1291093024
22
6.5076724642
32
0.0000000000
13
0.8558484711
23
6.4524408953
33
0.0000000000
40
0.0000000000
40
0.0000000000
40
0.0000000000
40
0.0000000000
40
0.3327663372
40
0.6659595309
40
1.0000000000
40
1.0000000000
40
1.0000000000
40
1.0000000000
10
-68.2567199076
20
-47.0887228442
30
0.0000000000
10
-68.2423988311
20
-46.3668780676
30
0.0000000000
10
-68.1866265416
20
-44.9226488581
30
0.0000000000
10
-68.0217652202
20
-42.7588139281
30
0.0000000000
10
-67.8579785490
20
-41.3200416909
30
0.0000000000
10
-67.7626825408
20
-40.6015828964
30
0.0000000000
11
-68.2567199076
21
-47.0887228442
31
0.0000000000
11
-68.1731749265
21
-44.9243742104
31
0.0000000000
11
-68.0084926189
21
-42.7618969298
31
0.0000000000
11
-67.7626825408
21
-40.6015828964
31
0.0000000000
0
SPLINE
5
31B
100
AcDbEntity
8
0
100
AcDbSpline
62
9
6
CONTINUOUS
70
0
71
3
72
10
73
6
74
4
42
0.0000001000
43
0.0000001000
44
0.0000000001
12
-0.8977356674
22
-5.9120511387
32
0.0000000000
13
-0.1294026861
23
-5.9784560144
33
0.0000000000
40
0.0000000000
40
0.0000000000
40
0.0000000000
40
0.0000000000
40
0.3249184864
40
0.6603835885
40
1.0000000000
40
1.0000000000
40
1.0000000000
40
1.0000000000
10
-70.7583505607
20
21.9835522598
30
0.0000000000
10
-70.8555808654
20
21.3432406907
30
0.0000000000
10
-71.0220850136
20
20.0369293820
30
0.0000000000
10
-71.1859489429
20
18.0498434144
30
0.0000000000
10
-71.2407728812
20
16.7049046734
30
0.0000000000
10
-71.2554219732
20
16.0281107474
30
0.0000000000
11
-70.7583505607
21
21.9835522598
31
0.0000000000
11
-71.0053148450
21
20.0563567892
31
0.0000000000
11
-71.1714903320
21
18.0572296976
31
0.0000000000
11
-71.2554219732
21
16.0281107474
31
0.0000000000
0
SPLINE
5
31C
100
AcDbEntity
8
0
100
AcDbSpline
62
9
6
CONTINUOUS
70
0
71
3
72
8
73
4
74
2
42
0.0000001000
43
0.0000001000
44
0.0000000001
12
-0.0009081491
22
-0.0419568547
32
0.0000000000
13
-0.0008750486
23
-0.0419573214
33
0.0000000000
40
0.0000000000
40
0.0000000000
40
0.0000000000
40
0.0000000000
40
1.0000000000
40
1.0000000000
40
1.0000000000
40
1.0000000000
10
-71.2554219732
20
16.0281107474
30
0.0000000000
10
-71.2557246896
20
16.0141251291
30
0.0000000000
10
-71.2560218839
20
16.0001394301
30
0.0000000000
10
-71.2563135668
20
15.9861536563
30
0.0000000000
11
-71.2554219732
21
16.0281107474
31
0.0000000000
11
-71.2563135668
21
15.9861536563
31
0.0000000000
0
SPLINE
5
31D
100
AcDbEntity
8
0
100
AcDbSpline
62
7
6
CONTINUOUS
70
0
71
3
72
11
73
7
74
5
42
0.0000001000
43
0.0000001000
44
0.0000000001
12
3.2634112529
22
-2.3407779142
32
0.0000000000
13
-0.6280036884
23
-3.9815641008
33
0.0000000000
40
0.0000000000
40
0.0000000000
40
0.0000000000
40
0.0000000000
40
0.2740927535
40
0.5279015736
40
0.7667231241
40
1.0000000000
40
1.0000000000
40
1.0000000000
40
1.0000000000
10
4.2436929991
20
27.3660522435
30
0.0000000000
10
4.5418521245
20
27.1521888222
30
0.0000000000
10
5.0772557393
20
26.6802534034
30
0.0000000000
10
5.6660597834
20
25.8252497046
30
0.0000000000
10
5.9735865455
20
24.8875032699
30
0.0000000000
10
5.9735865483
20
24.2446334849
30
0.0000000000
10
5.9247536354
20
23.9350312066
30
0.0000000000
11
4.2436929991
21
27.3660522435
31
0.0000000000
11
5.0627817924
21
26.6306466467
31
0.0000000000
11
5.6325462486
21
25.7854323244
31
0.0000000000
11
5.9247536354
21
24.8718954857
31
0.0000000000
11
5.9247536354
21
23.9350312066
31
0.0000000000
0
SPLINE
5
31E
100
AcDbEntity
8
0
100
AcDbSpline
62
9
6
CONTINUOUS
70
0
71
3
72
8
73
4
74
2
42
0.0000001000
43
0.0000001000
44
0.0000000001
12
-0.0008750569
22
0.0419577204
32
0.0000000000
13
-0.0009081581
23
0.0419572538
33
0.0000000000
40
0.0000000000
40
0.0000000000
40
0.0000000000
40
0.0000000000
40
1.0000000000
40
1.0000000000
40
1.0000000000
40
1.0000000000
10
71.2436864326
20
15.9861536562
30
0.0000000000
10
71.2433947469
20
16.0001395630
30
0.0000000000
10
71.2430975497
20
16.0141253951
30
0.0000000000
10
71.2427948303
20
16.0281111464
30
0.0000000000
11
71.2436864326
21
15.9861536562
31
0.0000000000
11
71.2427948303
21
16.0281111464
31
0.0000000000
0
SPLINE
5
31F
100
AcDbEntity
8
0
100
AcDbSpline
62
9
6
CONTINUOUS
70
0
71
3
72
10
73
6
74
4
42
0.0000001000
43
0.0000001000
44
0.0000000001
12
-0.1294027235
22
5.9784556135
32
0.0000000000
13
-0.8977356060
23
5.9120507434
33
0.0000000000
40
0.0000000000
40
0.0000000000
40
0.0000000000
40
0.0000000000
40
0.3396151477
40
0.6750803098
40
1.0000000000
40
1.0000000000
40
1.0000000000
40
1.0000000000
10
71.2427948303
20
16.0281111464
30
0.0000000000
10
71.2281457886
20
16.7049025085
30
0.0000000000
10
71.1733220386
20
18.0498387611
30
0.0000000000
10
71.0094584278
20
20.0369246205
30
0.0000000000
10
70.8429540848
20
21.3432383602
30
0.0000000000
10
70.7457234265
20
21.9835522590
30
0.0000000000
11
71.2427948303
21
16.0281111464
31
0.0000000000
11
71.1588636472
21
18.0572224157
31
0.0000000000
11
70.9926884511
21
20.0563497566
31
0.0000000000
11
70.7457234265
21
21.9835522590
31
0.0000000000
0
SPLINE
5
320
100
AcDbEntity
8
0
100
AcDbSpline
62
7
6
CONTINUOUS
70
0
71
3
72
8
73
4
74
2
42
0.0000001000
43
0.0000001000
44
0.0000000001
12
-0.0810595378
22
0.3052354657
32
0.0000000000
13
-0.0492052669
23
0.3119617421
33
0.0000000000
40
0.0000000000
40
0.0000000000
40
0.0000000000
40
0.0000000000
40
1.0000000000
40
1.0000000000
40
1.0000000000
40
1.0000000000
10
-5.8720485801
20
23.6262195735
30
0.0000000000
10
-5.8990684261
20
23.7279647287
30
0.0000000000
10
-5.9209790770
20
23.8310430027
30
0.0000000000
10
-5.9373808326
20
23.9350302501
30
0.0000000000
11
-5.8720485801
21
23.6262195735
31
0.0000000000
11
-5.9373808326
21
23.9350302501
31
0.0000000000
0
SPLINE
5
321
100
AcDbEntity
8
0
100
AcDbSpline
62
7
6
CONTINUOUS
70
0
71
3
72
11
73
7
74
5
42
0.0000001000
43
0.0000001000
44
0.0000000001
12
-0.6280090503
22
3.9815818468
32
0.0000000000
13
3.2634334315
23
2.3407782114
33
0.0000000000
40
0.0000000000
40
0.0000000000
40
0.0000000000
40
0.0000000000
40
0.2332767726
40
0.4720982566
40
0.7259071093
40
1.0000000000
40
1.0000000000
40
1.0000000000
40
1.0000000000
10
-5.9373808326
20
23.9350302501
30
0.0000000000
10
-5.9862141407
20
24.2446337711
30
0.0000000000
10
-5.9862141435
20
24.8875063302
30
0.0000000000
10
-5.6786847625
20
25.8252565404
30
0.0000000000
10
-5.0898759383
20
26.6802629147
30
0.0000000000
10
-4.5544683019
20
27.1521990563
30
0.0000000000
10
-4.2563070009
20
27.3660626117
30
0.0000000000
11
-5.9373808326
21
23.9350302501
31
0.0000000000
11
-5.9373808326
21
24.8718983587
31
0.0000000000
11
-5.6451710615
21
25.7854387167
31
0.0000000000
11
-5.0754020564
21
26.6306556999
31
0.0000000000
11
-4.2563070009
21
27.3660626117
31
0.0000000000
0
SPLINE
5
322
100
AcDbEntity
8
0
100
AcDbSpline
62
7
6
CONTINUOUS
70
0
71
3
72
10
73
6
74
4
42
0.0000001000
43
0.0000001000
44
0.0000000001
12
-2.2411443052
22
-1.5977811379
32
0.0000000000
13
-2.7241559850
23
-0.3932003699
33
0.0000000000
40
0.0000000000
40
0.0000000000
40
0.0000000000
40
0.0000000000
40
0.3173717230
40
0.6522483994
40
1.0000000000
40
1.0000000000
40
1.0000000000
40
1.0000000000
10
3.5436929991
20
21.9137364056
30
0.0000000000
10
3.3066010559
20
21.7447062214
30
0.0000000000
10
2.7854485925
20
21.4432549371
30
0.0000000000
10
1.9241856842
20
21.1177598823
30
0.0000000000
10
1.3094695338
20
20.9849394507
30
0.0000000000
10
0.9936929991
20
20.9393607647
30
0.0000000000
11
3.5436929991
21
21.9137364056
31
0.0000000000
11
2.7898215513
21
21.4724519458
31
0.0000000000
11
1.9288262381
21
21.1434586673
31
0.0000000000
11
0.9936929991
21
20.9393607647
31
0.0000000000
0
SPLINE
5
323
100
AcDbEntity
8
0
100
AcDbSpline
62
9
6
CONTINUOUS
70
0
71
3
72
10
73
6
74
4
42
0.0000001000
43
0.0000001000
44
0.0000000001
12
0.8558484708
22
-6.4524408953
32
0.0000000000
13
0.1291093019
23
-6.5076724642
33
0.0000000000
40
0.0000000000
40
0.0000000000
40
0.0000000000
40
0.0000000000
40
0.3340404691
40
0.6672336628
40
1.0000000000
40
1.0000000000
40
1.0000000000
40
1.0000000000
10
67.7500554067
20
-40.6015828964
30
0.0000000000
10
67.8453514149
20
-41.3200416909
30
0.0000000000
10
68.0091380859
20
-42.7588139281
30
0.0000000000
10
68.1739994074
20
-44.9226488581
30
0.0000000000
10
68.2297716968
20
-46.3668780676
30
0.0000000000
10
68.2440927733
20
-47.0887228442
30
0.0000000000
11
67.7500554067
21
-40.6015828964
31
0.0000000000
11
67.9958654847
21
-42.7618969297
31
0.0000000000
11
68.1605477922
21
-44.9243742104
31
0.0000000000
11
68.2440927733
21
-47.0887228442
31
0.0000000000
0
SPLINE
5
324
100
AcDbEntity
8
0
100
AcDbSpline
62
9
6
CONTINUOUS
70
0
71
3
72
10
73
6
74
4
42
0.0000001000
43
0.0000001000
44
0.0000000001
12
0.8611741840
22
-6.5200676279
32
0.0000000000
13
0.1316528845
23
-6.5753760627
33
0.0000000000
40
0.0000000000
40
0.0000000000
40
0.0000000000
40
0.0000000000
40
0.3340439814
40
0.6672347923
40
1.0000000000
40
1.0000000000
40
1.0000000000
40
1.0000000000
10
70.7457233907
20
-38.0766105215
30
0.0000000000
10
70.8416134084
20
-38.8026069714
30
0.0000000000
10
71.0064765760
20
-40.2564216169
30
0.0000000000
10
71.1726433353
20
-42.4428014185
30
0.0000000000
10
71.2290832665
20
-43.9020447505
30
0.0000000000
10
71.2436864329
20
-44.6313968775
30
0.0000000000
11
70.7457233907
21
-38.0766105215
31
0.0000000000
11
70.9931551096
21
-40.2595372750
31
0.0000000000
11
71.1591417698
21
-42.4445356111
31
0.0000000000
11
71.2436864329
21
-44.6313968775
31
0.0000000000
0
SPLINE
5
325
100
AcDbEntity
8
0
100
AcDbSpline
62
7
6
CONTINUOUS
70
0
71
3
72
10
73
6
74
4
42
0.0000001000
43
0.0000001000
44
0.0000000001
12
-2.7241542746
22
0.3931953546
32
0.0000000000
13
-2.2411470482
23
1.5977731401
33
0.0000000000
40
0.0000000000
40
0.0000000000
40
0.0000000000
40
0.0000000000
40
0.3477514983
40
0.6826281795
40
1.0000000000
40
1.0000000000
40
1.0000000000
40
1.0000000000
10
-1.0063070009
20
20.9393609263
30
0.0000000000
10
-1.3220832445
20
20.9849390175
30
0.0000000000
10
-1.9367990005
20
21.1177581949
30
0.0000000000
10
-2.7980618383
20
21.4432511107
30
0.0000000000
10
-3.3192146947
20
21.7447008054
30
0.0000000000
10
-3.5563070009
20
21.9137301955
30
0.0000000000
11
-1.0063070009
21
20.9393609263
31
0.0000000000
11
-1.9414395222
21
21.1434568670
31
0.0000000000
11
-2.8024348115
21
21.4724479850
31
0.0000000000
11
-3.5563070009
21
21.9137301955
31
0.0000000000
0
SPLINE
5
326
100
AcDbEntity
8
0
100
AcDbSpline
62
7
6
CONTINUOUS
70
0
71
3
72
8
73
4
74
2
42
0.0000001000
43
0.0000001000
44
0.0000000001
12
0.1223145090
22
0.0000000000
32
0.0000000000
13
0.1223145090
23
0.0000000000
33
0.0000000000
40
0.0000000000
40
0.0000000000
40
0.0000000000
40
0.0000000000
40
1.0000000000
40
1.0000000000
40
1.0000000000
40
1.0000000000
10
68.4700660514
20
23.7281264249
30
0.0000000000
10
68.5108375544
20
23.7281264249
30
0.0000000000
10
68.5516090574
20
23.7281264249
30
0.0000000000
10
68.5923805604
20
23.7281264249
30
0.0000000000
11
68.4700660514
21
23.7281264249
31
0.0000000000
11
68.5923805604
21
23.7281264249
31
0.0000000000
0
SPLINE
5
327
100
AcDbEntity
8
0
100
AcDbSpline
62
7
6
CONTINUOUS
70
0
71
3
72
8
73
4
74
2
42
0.0000001000
43
0.0000001000
44
0.0000000001
12
0.1221655815
22
0.0000000000
32
0.0000000000
13
0.1221655815
23
0.0000000000
33
0.0000000000
40
0.0000000000
40
0.0000000000
40
0.0000000000
40
0.0000000000
40
1.0000000000
40
1.0000000000
40
1.0000000000
40
1.0000000000
10
-68.6050076946
20
23.7281264249
30
0.0000000000
10
-68.5642858341
20
23.7281264249
30
0.0000000000
10
-68.5235639736
20
23.7281264249
30
0.0000000000
10
-68.4828421131
20
23.7281264249
30
0.0000000000
11
-68.6050076946
21
23.7281264249
31
0.0000000000
11
-68.4828421131
21
23.7281264249
31
0.0000000000
0
SPLINE
5
328
100
AcDbEntity
8
0
100
AcDbSpline
62
9
6
CONTINUOUS
70
0
71
3
72
14
73
10
74
8
42
0.0000001000
43
0.0000001000
44
0.0000000001
12
-4.3063331889
22
0.1309453826
32
0.0000000000
13
-0.0049393924
23
4.3083207668
33
0.0000000000
40
0.0000000000
40
0.0000000000
40
0.0000000000
40
0.0000000000
40
0.1558934441
40
0.3098660765
40
0.4597206449
40
0.6035837911
40
0.7410120296
40
0.8724479841
40
1.0000000000
40
1.0000000000
40
1.0000000000
40
1.0000000000
10
-67.7626825516
20
-40.6015277020
30
0.0000000000
10
-67.9864589223
20
-40.5947231931
30
0.0000000000
10
-68.4310847379
20
-40.5406792335
30
0.0000000000
10
-69.0645850036
20
-40.3424003957
30
0.0000000000
10
-69.6347885800
20
-40.0364902362
30
0.0000000000
10
-70.1136950371
20
-39.6367685956
30
0.0000000000
10
-70.4769999783
20
-39.1615337326
30
0.0000000000
10
-70.7052496154
20
-38.6334964460
30
0.0000000000
10
-70.7580698381
20
-38.2597921373
30
0.0000000000
10
-70.7582798480
20
-38.0766138044
30
0.0000000000
11
-67.7626825516
21
-40.6015277020
31
0.0000000000
11
-68.4293793905
21
-40.5201961951
31
0.0000000000
11
-69.0621169310
21
-40.3209603982
31
0.0000000000
11
-69.6299664535
21
-40.0137558215
31
0.0000000000
11
-70.1038816650
21
-39.6142967454
31
0.0000000000
11
-70.4608869473
21
-39.1419491422
31
0.0000000000
11
-70.6826832660
21
-38.6209246243
31
0.0000000000
11
-70.7582798480
21
-38.0766138044
31
0.0000000000
0
SPLINE
5
329
100
AcDbEntity
8
0
100
AcDbSpline
62
9
6
CONTINUOUS
70
0
71
3
72
10
73
6
74
4
42
0.0000001000
43
0.0000001000
44
0.0000000001
12
-0.2961374260
22
0.3760196297
32
0.0000000000
13
-0.0000408233
23
0.4786315235
33
0.0000000000
40
0.0000000000
40
0.0000000000
40
0.0000000000
40
0.0000000000
40
0.3427689465
40
0.6746701114
40
1.0000000000
40
1.0000000000
40
1.0000000000
40
1.0000000000
10
-68.6050076946
20
-37.4611093738
30
0.0000000000
10
-68.6388432658
20
-37.4181467563
30
0.0000000000
10
-68.6972024770
20
-37.3265613938
30
0.0000000000
10
-68.7519753050
20
-37.1753895228
30
0.0000000000
10
-68.7643423544
20
-37.0701297976
30
0.0000000000
10
-68.7643467814
20
-37.0182254175
30
0.0000000000
11
-68.6050076946
21
-37.4611093738
31
0.0000000000
11
-68.6926173462
21
-37.3224001804
31
0.0000000000
11
-68.7463086651
21
-37.1728902441
31
0.0000000000
11
-68.7643467814
21
-37.0182254175
31
0.0000000000
0
SPLINE
5
32A
100
AcDbEntity
8
0
100
AcDbSpline
62
9
6
CONTINUOUS
70
0
71
3
72
12
73
8
74
6
42
0.0000001000
43
0.0000001000
44
0.0000000001
12
0.3245038873
22
2.3981345931
32
0.0000000000
13
2.4199901445
23
-0.0000003642
33
0.0000000000
40
0.0000000000
40
0.0000000000
40
0.0000000000
40
0.0000000000
40
0.1481466737
40
0.3216579006
40
0.5259998104
40
0.7559157503
40
1.0000000000
40
1.0000000000
40
1.0000000000
40
1.0000000000
10
-70.7583505250
20
-38.0766105215
30
0.0000000000
10
-70.7423258011
20
-37.9581853004
30
0.0000000000
10
-70.6341828725
20
-37.7097472933
30
0.0000000000
10
-70.3172366298
20
-37.4165572750
30
0.0000000000
10
-69.8763053582
20
-37.1919656718
30
0.0000000000
10
-69.3444572472
20
-37.0503132884
30
0.0000000000
10
-68.9612406077
20
-37.0182253879
30
0.0000000000
10
-68.7643467814
20
-37.0182254175
30
0.0000000000
11
-70.7583505250
21
-38.0766105215
31
0.0000000000
11
-70.6245365728
21
-37.7440060281
31
0.0000000000
11
-70.3260191330
21
-37.4487103550
31
0.0000000000
11
-69.8892293140
21
-37.2168693479
31
0.0000000000
11
-69.3528410335
21
-37.0690104995
31
0.0000000000
11
-68.7643467814
21
-37.0182254175
31
0.0000000000
0
SPLINE
5
32B
100
AcDbEntity
8
0
100
AcDbSpline
62
9
6
CONTINUOUS
70
0
71
3
72
10
73
6
74
4
42
0.0000001000
43
0.0000001000
44
0.0000000001
12
0.0000451086
22
0.4792486188
32
0.0000000000
13
0.2965467459
23
0.3764827595
33
0.0000000000
40
0.0000000000
40
0.0000000000
40
0.0000000000
40
0.0000000000
40
0.3256757322
40
0.6575855455
40
1.0000000000
40
1.0000000000
40
1.0000000000
40
1.0000000000
10
-68.7643455151
20
23.0419376316
30
0.0000000000
10
-68.7643406182
20
23.0939641799
30
0.0000000000
10
-68.7519914208
20
23.1994167379
30
0.0000000000
10
-68.6972364501
20
23.3508165164
30
0.0000000000
10
-68.6388549920
20
23.4424928417
30
0.0000000000
10
-68.6050076946
20
23.4854638880
30
0.0000000000
11
-68.7643455151
21
23.0419376316
31
0.0000000000
11
-68.7463058796
21
23.1969712644
31
0.0000000000
11
-68.6926127597
21
23.3467025613
31
0.0000000000
11
-68.6050076946
21
23.4854638880
31
0.0000000000
0
SPLINE
5
32C
100
AcDbEntity
8
0
100
AcDbSpline
62
9
6
CONTINUOUS
70
0
71
3
72
9
73
5
74
3
42
0.0000001000
43
0.0000001000
44
0.0000000001
12
0.0657526339
22
0.4859246483
32
0.0000000000
13
0.3285615978
23
0.3668337701
33
0.0000000000
40
0.0000000000
40
0.0000000000
40
0.0000000000
40
0.0000000000
40
0.7311445981
40
1.0000000000
40
1.0000000000
40
1.0000000000
40
1.0000000000
10
-70.7583505607
20
21.9835523169
30
0.0000000000
10
-70.7423256663
20
22.1019793775
30
0.0000000000
10
-70.6742012935
20
22.2584810650
30
0.0000000000
10
-70.5720789988
20
22.3875431343
30
0.0000000000
10
-70.5426338120
20
22.4204182145
30
0.0000000000
11
-70.7583505607
21
21.9835523169
31
0.0000000000
11
-70.6245337805
21
22.3161616411
31
0.0000000000
11
-70.5426338120
21
22.4204182145
31
0.0000000000
0
SPLINE
5
32D
100
AcDbEntity
8
0
100
AcDbSpline
62
9
6
CONTINUOUS
70
0
71
3
72
8
73
4
74
2
42
0.0000001000
43
0.0000001000
44
0.0000000001
12
0.1930192369
22
0.2155028915
32
0.0000000000
13
0.2353393092
23
0.1682428995
33
0.0000000000
40
0.0000000000
40
0.0000000000
40
0.0000000000
40
0.0000000000
40
1.0000000000
40
1.0000000000
40
1.0000000000
40
1.0000000000
10
-70.5426338120
20
22.4204182145
30
0.0000000000
10
-70.4782940663
20
22.4922525117
30
0.0000000000
10
-70.4044575247
20
22.5553782960
30
0.0000000000
10
-70.3260110883
20
22.6114592625
30
0.0000000000
11
-70.5426338120
21
22.4204182145
31
0.0000000000
11
-70.3260110883
21
22.6114592625
31
0.0000000000
0
SPLINE
5
32E
100
AcDbEntity
8
0
100
AcDbSpline
62
9
6
CONTINUOUS
70
0
71
3
72
10
73
6
74
4
42
0.0000001000
43
0.0000001000
44
0.0000000001
12
1.3411020163
22
0.9587471491
32
0.0000000000
13
1.6415724991
23
-0.0000025510
33
0.0000000000
40
0.0000000000
40
0.0000000000
40
0.0000000000
40
0.0000000000
40
0.3012402657
40
0.6401784723
40
1.0000000000
40
1.0000000000
40
1.0000000000
40
1.0000000000
10
-70.3260110883
20
22.6114592625
30
0.0000000000
10
-70.1913464457
20
22.7077303445
30
0.0000000000
10
-69.8762953645
20
22.8682018302
30
0.0000000000
10
-69.3444495281
20
23.0098512506
30
0.0000000000
10
-68.9612365566
20
23.0419379376
30
0.0000000000
10
-68.7643455151
20
23.0419376316
30
0.0000000000
11
-70.3260110883
21
22.6114592625
31
0.0000000000
11
-69.8892179214
21
22.8432989274
31
0.0000000000
11
-69.3528315698
21
22.9911547268
31
0.0000000000
11
-68.7643455151
21
23.0419376316
31
0.0000000000
0
SPLINE
5
32F
100
AcDbEntity
8
0
100
AcDbSpline
62
9
6
CONTINUOUS
70
0
71
3
72
8
73
4
74
2
42
0.0000001000
43
0.0000001000
44
0.0000000001
12
0.0014675619
22
0.3119170926
32
0.0000000000
13
0.0467137367
23
0.3095480868
33
0.0000000000
40
0.0000000000
40
0.0000000000
40
0.0000000000
40
0.0000000000
40
1.0000000000
40
1.0000000000
40
1.0000000000
40
1.0000000000
10
-70.7582798450
20
21.9835487574
30
0.0000000000
10
-70.7577906577
20
22.0875211216
30
0.0000000000
10
-70.7496720066
20
22.1917485454
30
0.0000000000
10
-70.7341007610
20
22.2949312410
30
0.0000000000
11
-70.7582798450
21
21.9835487574
31
0.0000000000
11
-70.7341007610
21
22.2949312410
31
0.0000000000
0
SPLINE
5
330
100
AcDbEntity
8
0
100
AcDbSpline
62
9
6
CONTINUOUS
70
0
71
3
72
13
73
9
74
7
42
0.0000001000
43
0.0000001000
44
0.0000000001
12
-0.5602318391
22
0.4503515986
32
0.0000000000
13
-0.6664943709
23
0.2691867928
33
0.0000000000
40
0.0000000000
40
0.0000000000
40
0.0000000000
40
0.0000000000
40
0.1886081772
40
0.3807981767
40
0.5676505176
40
0.7346240858
40
0.8766956144
40
1.0000000000
40
1.0000000000
40
1.0000000000
40
1.0000000000
10
-20.1217871779
20
41.5815455077
30
0.0000000000
10
-20.1570086132
20
41.6098588391
30
0.0000000000
10
-20.2290890688
20
41.6658363688
30
0.0000000000
10
-20.3399518754
20
41.7447094986
30
0.0000000000
10
-20.4503283740
20
41.8150682330
30
0.0000000000
10
-20.5540615341
20
41.8731398962
30
0.0000000000
10
-20.6473113435
20
41.9184164761
30
0.0000000000
10
-20.7061097681
20
41.9426723490
30
0.0000000000
10
-20.7335036611
20
41.9537363197
30
0.0000000000
11
-20.1217871779
21
41.5815455077
31
0.0000000000
11
-20.2289728226
21
41.6645574690
31
0.0000000000
11
-20.3416616230
21
41.7444680675
31
0.0000000000
11
-20.4550409082
21
41.8164699317
31
0.0000000000
11
-20.5598568980
21
41.8749390001
31
0.0000000000
11
-20.6518066786
21
41.9193686834
31
0.0000000000
11
-20.7335036611
21
41.9537363197
31
0.0000000000
0
SPLINE
5
331
100
AcDbEntity
8
0
100
AcDbSpline
62
9
6
CONTINUOUS
70
0
71
3
72
13
73
9
74
7
42
0.0000001000
43
0.0000001000
44
0.0000000001
12
-0.9146865972
22
0.1714134581
32
0.0000000000
13
-0.9268298722
23
0.0837886192
33
0.0000000000
40
0.0000000000
40
0.0000000000
40
0.0000000000
40
0.0000000000
40
0.1754879073
40
0.3596850609
40
0.5446227605
40
0.7151701516
40
0.8644007258
40
1.0000000000
40
1.0000000000
40
1.0000000000
40
1.0000000000
10
-19.8152904624
20
41.8251380431
30
0.0000000000
10
-19.8687959413
20
41.8351650394
30
0.0000000000
10
-19.9786188223
20
41.8548911117
30
0.0000000000
10
-20.1453589228
20
41.8821361378
30
0.0000000000
10
-20.3110286663
20
41.9062792659
30
0.0000000000
10
-20.4663290251
20
41.9261990275
30
0.0000000000
10
-20.6067358667
20
41.9417461504
30
0.0000000000
10
-20.6946822136
20
41.9502636135
30
0.0000000000
10
-20.7365746996
20
41.9540508389
30
0.0000000000
11
-19.8152904624
21
41.8251380431
31
0.0000000000
11
-19.9760303768
21
41.8540010348
31
0.0000000000
11
-20.1452075138
21
41.8816128970
31
0.0000000000
11
-20.3155156417
21
41.9064161324
31
0.0000000000
11
-20.4729456786
21
41.9265558924
31
0.0000000000
11
-20.6109729986
21
41.9418802248
31
0.0000000000
11
-20.7365746996
21
41.9540508389
31
0.0000000000
0
SPLINE
5
332
100
AcDbEntity
8
0
100
AcDbSpline
62
9
6
CONTINUOUS
70
0
71
3
72
10
73
6
74
4
42
0.0000001000
43
0.0000001000
44
0.0000000001
12
-0.1306207016
22
0.1166282187
32
0.0000000000
13
-0.1364814701
23
0.1097119748
33
0.0000000000
40
0.0000000000
40
0.0000000000
40
0.0000000000
40
0.0000000000
40
0.3416069185
40
0.6753433774
40
1.0000000000
40
1.0000000000
40
1.0000000000
40
1.0000000000
10
-19.9882122427
20
41.4683422191
30
0.0000000000
10
-20.0030858878
20
41.4816225546
30
0.0000000000
10
-20.0326967580
20
41.5076474889
30
0.0000000000
10
-20.0772134047
20
41.5454071516
30
0.0000000000
10
-20.1070173068
20
41.5696726013
30
0.0000000000
10
-20.1217871779
20
41.5815455077
30
0.0000000000
11
-19.9882122427
21
41.4683422191
31
0.0000000000
11
-20.0331577874
21
41.5078166624
31
0.0000000000
11
-20.0777446540
21
41.5455970576
31
0.0000000000
11
-20.1217871779
21
41.5815455077
31
0.0000000000
0
SPLINE
5
333
100
AcDbEntity
8
0
100
AcDbSpline
62
9
6
CONTINUOUS
70
0
71
3
72
10
73
6
74
4
42
0.0000001000
43
0.0000001000
44
0.0000000001
12
-0.3475025807
22
-0.3461547630
32
0.0000000000
13
-0.4060418377
23
-0.2751566635
33
0.0000000000
40
0.0000000000
40
0.0000000000
40
0.0000000000
40
0.0000000000
40
0.3676461908
40
0.7047730250
40
1.0000000000
40
1.0000000000
40
1.0000000000
40
1.0000000000
10
-19.6150829459
20
41.7857906383
30
0.0000000000
10
-19.6576689459
20
41.7433698116
30
0.0000000000
10
-19.7411713912
20
41.6638813504
30
0.0000000000
10
-19.8654393105
20
41.5575223621
30
0.0000000000
10
-19.9482540749
20
41.4954201089
30
0.0000000000
10
-19.9882122427
20
41.4683422191
30
0.0000000000
11
-19.6150829459
21
41.7857906383
31
0.0000000000
11
-19.7458971366
21
41.6616717722
31
0.0000000000
11
-19.8718493889
21
41.5545309183
31
0.0000000000
11
-19.9882122427
21
41.4683422191
31
0.0000000000
0
SPLINE
5
334
100
AcDbEntity
8
0
100
AcDbSpline
62
9
6
CONTINUOUS
70
0
71
3
72
10
73
6
74
4
42
0.0000001000
43
0.0000001000
44
0.0000000001
12
-0.1897925162
22
0.0388942357
32
0.0000000000
13
-0.1904301355
23
0.0356416086
33
0.0000000000
40
0.0000000000
40
0.0000000000
40
0.0000000000
40
0.0000000000
40
0.3016910973
40
0.6532451239
40
1.0000000000
40
1.0000000000
40
1.0000000000
40
1.0000000000
10
-19.6251778473
20
41.7878500959
30
0.0000000000
10
-19.6442640848
20
41.7917614441
30
0.0000000000
10
-19.6856152436
20
41.8001130324
30
0.0000000000
10
-19.7489814578
20
41.8125709425
30
0.0000000000
10
-19.7932796030
20
41.8210184092
30
0.0000000000
10
-19.8152904624
20
41.8251380431
30
0.0000000000
11
-19.6251778473
21
41.7878500959
31
0.0000000000
11
-19.6824679309
21
41.7994300046
31
0.0000000000
11
-19.7492979691
21
41.8125668603
31
0.0000000000
11
-19.8152904624
21
41.8251380431
31
0.0000000000
0
SPLINE
5
335
100
AcDbEntity
8
0
100
AcDbSpline
62
9
6
CONTINUOUS
70
0
71
3
72
11
73
7
74
5
42
0.0000001000
43
0.0000001000
44
0.0000000001
12
-0.3341895050
22
0.3782179111
32
0.0000000000
13
-0.3246716964
23
0.3864190770
33
0.0000000000
40
0.0000000000
40
0.0000000000
40
0.0000000000
40
0.0000000000
40
0.2575981579
40
0.5100143747
40
0.7571152963
40
1.0000000000
40
1.0000000000
40
1.0000000000
40
1.0000000000
10
-19.6563863981
20
41.0888825781
30
0.0000000000
10
-19.6850819317
20
41.1213586571
30
0.0000000000
10
-19.7419730912
20
41.1855890629
30
0.0000000000
10
-19.8264242966
20
41.2809424953
30
0.0000000000
10
-19.9088468833
20
41.3747844002
30
0.0000000000
10
-19.9625887788
20
41.4372972002
30
0.0000000000
10
-19.9888747084
20
41.4685822946
30
0.0000000000
11
-19.6563863981
21
41.0888825781
31
0.0000000000
11
-19.7425505077
21
41.1862422744
31
0.0000000000
11
-19.8269506187
21
41.2816705978
31
0.0000000000
11
-19.9091478709
21
41.3754641096
31
0.0000000000
11
-19.9888747084
21
41.4685822946
31
0.0000000000
0
SPLINE
5
336
100
AcDbEntity
8
0
100
AcDbSpline
62
9
6
CONTINUOUS
70
0
71
3
72
11
73
7
74
5
42
0.0000001000
43
0.0000001000
44
0.0000000001
12
-0.5074589904
22
0.1059249199
32
0.0000000000
13
-0.5078676062
23
0.1039481128
33
0.0000000000
40
0.0000000000
40
0.0000000000
40
0.0000000000
40
0.0000000000
40
0.2545705706
40
0.5037574234
40
0.7463927959
40
1.0000000000
40
1.0000000000
40
1.0000000000
40
1.0000000000
10
-19.1172090001
20
41.6844022128
30
0.0000000000
10
-19.1602703751
20
41.6933906686
30
0.0000000000
10
-19.2455162649
20
41.7110160462
30
0.0000000000
10
-19.3719157688
20
41.7366666052
30
0.0000000000
10
-19.4981891988
20
41.7620995196
30
0.0000000000
10
-19.5822448861
20
41.7790627658
30
0.0000000000
10
-19.6251778473
20
41.7878500959
30
0.0000000000
11
-19.1172090001
21
41.6844022128
31
0.0000000000
11
-19.2464436425
21
41.7111244197
31
0.0000000000
11
-19.3730315219
21
41.7368604985
31
0.0000000000
11
-19.4963291072
21
41.7617328770
31
0.0000000000
11
-19.6251778473
21
41.7878500959
31
0.0000000000
0
SPLINE
5
337
100
AcDbEntity
8
0
100
AcDbSpline
62
9
6
CONTINUOUS
70
0
71
3
72
9
73
5
74
3
42
0.0000001000
43
0.0000001000
44
0.0000000001
12
-0.0784419485
22
0.0986391865
32
0.0000000000
13
-0.0834481976
23
0.0944416578
33
0.0000000000
40
0.0000000000
40
0.0000000000
40
0.0000000000
40
0.0000000000
40
0.4975386219
40
1.0000000000
40
1.0000000000
40
1.0000000000
40
1.0000000000
10
-19.5754567636
20
40.9922877716
30
0.0000000000
10
-19.5884660633
20
41.0086467065
30
0.0000000000
10
-19.6150206952
20
41.0412047114
30
0.0000000000
10
-19.6424098993
20
41.0730648162
30
0.0000000000
10
-19.6563863981
20
41.0888825781
30
0.0000000000
11
-19.5754567636
21
40.9922877716
31
0.0000000000
11
-19.6150965671
21
41.0408716748
31
0.0000000000
11
-19.6563863981
21
41.0888825781
31
0.0000000000
0
SPLINE
5
338
100
AcDbEntity
8
0
100
AcDbSpline
62
9
6
CONTINUOUS
70
0
71
3
72
9
73
5
74
3
42
0.0000001000
43
0.0000001000
44
0.0000000001
12
-0.1183419976
22
0.1190489251
32
0.0000000000
13
-0.1244364629
23
0.1126633997
33
0.0000000000
40
0.0000000000
40
0.0000000000
40
0.0000000000
40
0.0000000000
40
0.4960533442
40
1.0000000000
40
1.0000000000
40
1.0000000000
40
1.0000000000
10
-18.9958145596
20
41.5684884752
30
0.0000000000
10
-19.0153825408
20
41.5881733476
30
0.0000000000
10
-19.0553357122
20
41.6273567867
30
0.0000000000
10
-19.0963058870
20
41.6654767649
30
0.0000000000
10
-19.1172090001
20
41.6844022128
30
0.0000000000
11
-18.9958145596
21
41.5684884752
31
0.0000000000
11
-19.0552706023
21
41.6267858150
31
0.0000000000
11
-19.1172090001
21
41.6844022128
31
0.0000000000
0
SPLINE
5
339
100
AcDbEntity
8
0
100
AcDbSpline
62
9
6
CONTINUOUS
70
0
71
3
72
10
73
6
74
4
42
0.0000001000
43
0.0000001000
44
0.0000000001
12
-0.0605571911
22
0.0825619501
32
0.0000000000
13
-0.0637299520
23
0.0801382693
33
0.0000000000
40
0.0000000000
40
0.0000000000
40
0.0000000000
40
0.0000000000
40
0.3379476159
40
0.6712663860
40
1.0000000000
40
1.0000000000
40
1.0000000000
40
1.0000000000
10
-19.5133226515
20
40.9109132028
30
0.0000000000
10
-19.5201443710
20
40.9202137409
30
0.0000000000
10
-19.5338122545
20
40.9386013321
30
0.0000000000
10
-19.5545262446
20
40.9657276944
30
0.0000000000
10
-19.5684733712
20
40.9835063906
30
0.0000000000
10
-19.5754567636
20
40.9922877716
30
0.0000000000
11
-19.5133226515
21
40.9109132028
31
0.0000000000
11
-19.5339665034
21
40.9386828654
31
0.0000000000
11
-19.5546803775
21
40.9658063521
31
0.0000000000
11
-19.5754567636
21
40.9922877716
31
0.0000000000
0
SPLINE
5
33A
100
AcDbEntity
8
0
100
AcDbSpline
62
9
6
CONTINUOUS
70
0
71
3
72
10
73
6
74
4
42
0.0000001000
43
0.0000001000
44
0.0000000001
12
-0.0912301556
22
0.0995044310
32
0.0000000000
13
-0.0951723416
23
0.0957407879
33
0.0000000000
40
0.0000000000
40
0.0000000000
40
0.0000000000
40
0.0000000000
40
0.3369715838
40
0.6702951720
40
1.0000000000
40
1.0000000000
40
1.0000000000
40
1.0000000000
10
-18.9026134009
20
41.4708390175
30
0.0000000000
10
-18.9128607243
20
41.4820157394
30
0.0000000000
10
-18.9333928935
20
41.5041126385
30
0.0000000000
10
-18.9644644508
20
41.5366636045
30
0.0000000000
10
-18.9853549661
20
41.5579664085
30
0.0000000000
10
-18.9958145596
20
41.5684884752
30
0.0000000000
11
-18.9026134009
21
41.4708390175
31
0.0000000000
11
-18.9335791784
21
41.5041626031
31
0.0000000000
11
-18.9646499801
21
41.5367107812
31
0.0000000000
11
-18.9958145596
21
41.5684884752
31
0.0000000000
0
SPLINE
5
33B
100
AcDbEntity
8
0
100
AcDbSpline
62
9
6
CONTINUOUS
70
0
71
3
72
10
73
6
74
4
42
0.0000001000
43
0.0000001000
44
0.0000000001
12
-0.1755181077
22
0.3102768039
32
0.0000000000
13
-0.2108354801
23
0.2874486067
33
0.0000000000
40
0.0000000000
40
0.0000000000
40
0.0000000000
40
0.0000000000
40
0.3329177289
40
0.6661141009
40
1.0000000000
40
1.0000000000
40
1.0000000000
40
1.0000000000
10
-19.3205279621
20
40.6112838337
30
0.0000000000
10
-19.3400056587
20
40.6457160500
30
0.0000000000
10
-19.3802011551
20
40.7139269953
30
0.0000000000
10
-19.4443706155
20
40.8139697214
30
0.0000000000
10
-19.4898576536
20
40.8789215240
30
0.0000000000
10
-19.5133226515
20
40.9109132028
30
0.0000000000
11
-19.3205279621
21
40.6112838337
31
0.0000000000
11
-19.3808209794
21
40.7135060217
31
0.0000000000
11
-19.4449951663
21
40.8134554296
31
0.0000000000
11
-19.5133226515
21
40.9109132028
31
0.0000000000
0
SPLINE
5
33C
100
AcDbEntity
8
0
100
AcDbSpline
62
9
6
CONTINUOUS
70
0
71
3
72
10
73
6
74
4
42
0.0000001000
43
0.0000001000
44
0.0000000001
12
-0.2665613422
22
0.3769741382
32
0.0000000000
13
-0.3120130508
23
0.3403120718
33
0.0000000000
40
0.0000000000
40
0.0000000000
40
0.0000000000
40
0.0000000000
40
0.3300909764
40
0.6631898549
40
1.0000000000
40
1.0000000000
40
1.0000000000
40
1.0000000000
10
-18.6134214013
20
41.1112838622
30
0.0000000000
10
-18.6427512325
20
41.1527624493
30
0.0000000000
10
-18.7033150256
20
41.2349559586
30
0.0000000000
10
-18.7996319600
20
41.3550414390
30
0.0000000000
10
-18.8675836806
20
41.4326321647
30
0.0000000000
10
-18.9026134009
20
41.4708390175
30
0.0000000000
11
-18.6134214013
21
41.1112838622
31
0.0000000000
11
-18.7038609981
21
41.2339504389
31
0.0000000000
11
-18.8001220669
21
41.3538897525
31
0.0000000000
11
-18.9026134009
21
41.4708390175
31
0.0000000000
0
SPLINE
5
33D
100
AcDbEntity
8
0
100
AcDbSpline
62
9
6
CONTINUOUS
70
0
71
3
72
15
73
11
74
9
42
0.0000001000
43
0.0000001000
44
0.0000000001
12
0.4907422180
22
1.6154017193
32
0.0000000000
13
0.4910575923
23
1.6153058782
33
0.0000000000
40
0.0000000000
40
0.0000000000
40
0.0000000000
40
0.0000000000
40
0.1363472642
40
0.2714045350
40
0.4043254370
40
0.5340921034
40
0.6593701802
40
0.7793774396
40
0.8933369643
40
1.0000000000
40
1.0000000000
40
1.0000000000
40
1.0000000000
10
-12.2347421368
20
16.7904741434
30
0.0000000000
10
-12.2124383505
20
16.8638926784
30
0.0000000000
10
-12.1679983496
20
17.0100219266
30
0.0000000000
10
-12.1018318633
20
17.2277298358
30
0.0000000000
10
-12.0367282686
20
17.4418901853
30
0.0000000000
10
-11.9732319452
20
17.6507870640
30
0.0000000000
10
-11.9118450994
20
17.8527294739
30
0.0000000000
10
-11.8530497959
20
18.0461620183
30
0.0000000000
10
-11.7972943187
20
18.2295693810
30
0.0000000000
10
-11.7611893313
20
18.3483627271
30
0.0000000000
10
-11.7437301001
20
18.4057938699
30
0.0000000000
11
-12.2347421368
21
16.7904741434
31
0.0000000000
11
-12.1677935783
21
17.0107184441
31
0.0000000000
11
-12.1014798578
21
17.2288794295
31
0.0000000000
11
-12.0362131210
21
17.4435888885
31
0.0000000000
11
-11.9724966114
21
17.6532036921
31
0.0000000000
11
-11.9109831612
21
17.8555677174
31
0.0000000000
11
-11.8520587771
21
18.0494180007
31
0.0000000000
11
-11.7961019471
21
18.2334986641
31
0.0000000000
11
-11.7437301001
21
18.4057938699
31
0.0000000000
0
SPLINE
5
33E
100
AcDbEntity
8
0
100
AcDbSpline
62
9
6
CONTINUOUS
70
0
71
3
72
15
73
11
74
9
42
0.0000001000
43
0.0000001000
44
0.0000000001
12
1.0356398508
22
1.3333419436
32
0.0000000000
13
1.0353525421
23
1.3335650538
33
0.0000000000
40
0.0000000000
40
0.0000000000
40
0.0000000000
40
0.0000000000
40
0.1363472642
40
0.2714045352
40
0.4043254363
40
0.5340921058
40
0.6593701737
40
0.7793774581
40
0.8933369351
40
1.0000000000
40
1.0000000000
40
1.0000000000
40
1.0000000000
10
-12.2347421368
20
16.7904741434
30
0.0000000000
10
-12.1876732500
20
16.8510733188
30
0.0000000000
10
-12.0940166738
20
16.9717261954
30
0.0000000000
10
-11.9544600958
20
17.1514445834
30
0.0000000000
10
-11.8171866122
20
17.3282470852
30
0.0000000000
10
-11.6832823644
20
17.5006980632
30
0.0000000000
10
-11.5538392904
20
17.6674121205
30
0.0000000000
10
-11.4298468648
20
17.8270958959
30
0.0000000000
10
-11.3122873214
20
17.9785115130
30
0.0000000000
10
-11.2361363045
20
18.0765750092
30
0.0000000000
10
-11.1993250127
20
18.1239890545
30
0.0000000000
11
-12.2347421368
21
16.7904741434
31
0.0000000000
11
-12.0935661833
21
16.9722955162
31
0.0000000000
11
-11.9537247180
21
17.1523957377
31
0.0000000000
11
-11.8160969786
21
17.3296483918
31
0.0000000000
11
-11.6817338711
21
17.5026938112
31
0.0000000000
11
-11.5520192847
21
17.6697543481
31
0.0000000000
11
-11.4277609185
21
17.8297852541
31
0.0000000000
11
-11.3097667867
21
17.9817530513
31
0.0000000000
11
-11.1993250127
21
18.1239890545
31
0.0000000000
0
SPLINE
5
33F
100
AcDbEntity
8
0
100
AcDbSpline
62
9
6
CONTINUOUS
70
0
71
3
72
9
73
5
74
3
42
0.0000001000
43
0.0000001000
44
0.0000000001
12
0.0297177750
22
0.0977506651
32
0.0000000000
13
0.0297127900
23
0.0977521805
33
0.0000000000
40
0.0000000000
40
0.0000000000
40
0.0000000000
40
0.0000000000
40
0.4946255032
40
1.0000000000
40
1.0000000000
40
1.0000000000
40
1.0000000000
10
-11.7437301001
20
18.4057938699
30
0.0000000000
10
-11.7388303770
20
18.4219105272
30
0.0000000000
10
-11.7289261920
20
18.4544946112
30
0.0000000000
10
-11.7190216287
20
18.4870785802
30
0.0000000000
10
-11.7140162666
20
18.5035457332
30
0.0000000000
11
-11.7437301001
21
18.4057938699
31
0.0000000000
11
-11.7290325595
21
18.4541443370
31
0.0000000000
11
-11.7140162666
21
18.5035457332
31
0.0000000000
0
SPLINE
5
340
100
AcDbEntity
8
0
100
AcDbSpline
62
9
6
CONTINUOUS
70
0
71
3
72
9
73
5
74
3
42
0.0000001000
43
0.0000001000
44
0.0000000001
12
0.0626520526
22
0.0807035252
32
0.0000000000
13
0.0626602321
23
0.0806971746
33
0.0000000000
40
0.0000000000
40
0.0000000000
40
0.0000000000
40
0.0000000000
40
0.4946251091
40
1.0000000000
40
1.0000000000
40
1.0000000000
40
1.0000000000
10
-11.1993250127
20
18.1239890545
30
0.0000000000
10
-11.1889952532
20
18.1372950511
30
0.0000000000
10
-11.1681079949
20
18.1641937102
30
0.0000000000
10
-11.1472218750
20
18.1910932529
30
0.0000000000
10
-11.1366662390
20
18.2046873615
30
0.0000000000
11
-11.1993250127
21
18.1239890545
31
0.0000000000
11
-11.1683328069
21
18.1639047717
31
0.0000000000
11
-11.1366662390
21
18.2046873615
31
0.0000000000
0
SPLINE
5
341
100
AcDbEntity
8
0
100
AcDbSpline
62
9
6
CONTINUOUS
70
0
71
3
72
10
73
6
74
4
42
0.0000001000
43
0.0000001000
44
0.0000000001
12
0.0954415523
22
0.3139058547
32
0.0000000000
13
-0.0123428933
23
0.3278622096
33
0.0000000000
40
0.0000000000
40
0.0000000000
40
0.0000000000
40
0.0000000000
40
0.2999733438
40
0.6307118897
40
1.0000000000
40
1.0000000000
40
1.0000000000
40
1.0000000000
10
-11.7140162666
20
18.5035457332
30
0.0000000000
10
-11.7044729594
20
18.5349335295
30
0.0000000000
10
-11.6885706470
20
18.6022506971
30
0.0000000000
10
-11.6757912542
20
18.7110714668
30
0.0000000000
10
-11.6750869429
20
18.7877907755
30
0.0000000000
10
-11.6766063041
20
18.8281493141
30
0.0000000000
11
-11.7140162666
21
18.5035457332
31
0.0000000000
11
-11.6911202872
21
18.5992650642
31
0.0000000000
11
-11.6781236163
21
18.7069974316
31
0.0000000000
11
-11.6766063041
21
18.8281493141
31
0.0000000000
0
SPLINE
5
342
100
AcDbEntity
8
0
100
AcDbSpline
62
9
6
CONTINUOUS
70
0
71
3
72
10
73
6
74
4
42
0.0000001000
43
0.0000001000
44
0.0000000001
12
-0.6339695930
22
0.1640835183
32
0.0000000000
13
-0.4999961351
23
0.4229003555
33
0.0000000000
40
0.0000000000
40
0.0000000000
40
0.0000000000
40
0.0000000000
40
0.3318209627
40
0.6681790372
40
1.0000000000
40
1.0000000000
40
1.0000000000
40
1.0000000000
10
-11.1366662390
20
18.2046873615
30
0.0000000000
10
-11.2067877059
20
18.2228361452
30
0.0000000000
10
-11.3453152504
20
18.2705572908
30
0.0000000000
10
-11.5397701342
20
18.3712145466
30
0.0000000000
10
-11.6587132003
20
18.4567699988
30
0.0000000000
10
-11.7140162666
20
18.5035457332
30
0.0000000000
11
-11.1366662390
21
18.2046873615
31
0.0000000000
11
-11.3422544834
21
18.2750511305
31
0.0000000000
11
-11.5378680640
21
18.3763081721
31
0.0000000000
11
-11.7140162666
21
18.5035457332
31
0.0000000000
0
SPLINE
5
343
100
AcDbEntity
8
0
100
AcDbSpline
62
9
6
CONTINUOUS
70
0
71
3
72
10
73
6
74
4
42
0.0000001000
43
0.0000001000
44
0.0000000001
12
0.2965467407
22
-0.3764827609
32
0.0000000000
13
0.0000451383
23
-0.4792486167
33
0.0000000000
40
0.0000000000
40
0.0000000000
40
0.0000000000
40
0.0000000000
40
0.3424144547
40
0.6743242677
40
1.0000000000
40
1.0000000000
40
1.0000000000
40
1.0000000000
10
68.5923805604
20
23.4854638850
30
0.0000000000
10
68.6262278572
20
23.4424928386
30
0.0000000000
10
68.6846093159
20
23.3508165146
30
0.0000000000
10
68.7393642877
20
23.1994167364
30
0.0000000000
10
68.7517134802
20
23.0939641789
30
0.0000000000
10
68.7517183804
20
23.0419376309
30
0.0000000000
11
68.5923805604
21
23.4854638850
31
0.0000000000
11
68.6799856256
21
23.3467025592
31
0.0000000000
11
68.7336787451
21
23.1969712630
31
0.0000000000
11
68.7517183804
21
23.0419376309
31
0.0000000000
0
SPLINE
5
344
100
AcDbEntity
8
0
100
AcDbSpline
62
9
6
CONTINUOUS
70
0
71
3
72
10
73
6
74
4
42
0.0000001000
43
0.0000001000
44
0.0000000001
12
0.1880948080
22
0.3633644467
32
0.0000000000
13
0.0647414417
23
0.4040073311
33
0.0000000000
40
0.0000000000
40
0.0000000000
40
0.0000000000
40
0.0000000000
40
0.3141653413
40
0.6457065284
40
1.0000000000
40
1.0000000000
40
1.0000000000
40
1.0000000000
10
-11.1366662390
20
18.2046873615
30
0.0000000000
10
-11.1169686158
20
18.2427395333
30
0.0000000000
10
-11.0805345765
20
18.3231226721
30
0.0000000000
10
-11.0375931267
20
18.4528228526
30
0.0000000000
10
-11.0179223094
20
18.5444967885
30
0.0000000000
10
-11.0102764860
20
18.5922091752
30
0.0000000000
11
-11.1366662390
21
18.2046873615
31
0.0000000000
11
-11.0835760576
21
18.3217561869
31
0.0000000000
11
-11.0408555906
21
18.4505077551
31
0.0000000000
11
-11.0102764860
21
18.5922091752
31
0.0000000000
0
SPLINE
5
345
100
AcDbEntity
8
0
100
AcDbSpline
62
9
6
CONTINUOUS
70
0
71
3
72
9
73
5
74
3
42
0.0000001000
43
0.0000001000
44
0.0000000001
12
-0.0077686377
22
0.2061821003
32
0.0000000000
13
-0.0359100139
23
0.2031794308
33
0.0000000000
40
0.0000000000
40
0.0000000000
40
0.0000000000
40
0.0000000000
40
0.4875361278
40
1.0000000000
40
1.0000000000
40
1.0000000000
40
1.0000000000
10
-11.6766063041
20
18.8281493141
30
0.0000000000
10
-11.6778688013
20
18.8616563884
30
0.0000000000
10
-11.6831296980
20
18.9303004459
30
0.0000000000
10
-11.6930740890
20
18.9984066976
30
0.0000000000
10
-11.6992082839
20
19.0331140702
30
0.0000000000
11
-11.6766063041
21
18.8281493141
31
0.0000000000
11
-11.6841117824
21
18.9284614725
31
0.0000000000
11
-11.6992082839
21
19.0331140702
31
0.0000000000
0
SPLINE
5
346
100
AcDbEntity
8
0
100
AcDbSpline
62
9
6
CONTINUOUS
70
0
71
3
72
9
73
5
74
3
42
0.0000001000
43
0.0000001000
44
0.0000000001
12
0.0371281447
22
0.2317335036
32
0.0000000000
13
0.0000065381
23
0.2346889767
33
0.0000000000
40
0.0000000000
40
0.0000000000
40
0.0000000000
40
0.0000000000
40
0.4946176038
40
1.0000000000
40
1.0000000000
40
1.0000000000
40
1.0000000000
10
-11.0102764860
20
18.5922091752
30
0.0000000000
10
-11.0041550746
20
18.6304156653
30
0.0000000000
10
-10.9950170793
20
18.7082092987
30
0.0000000000
10
-10.9921028976
20
18.7864715072
30
0.0000000000
10
-10.9921017962
20
18.8260073996
30
0.0000000000
11
-11.0102764860
21
18.5922091752
31
0.0000000000
11
-10.9966380826
21
18.7074865017
31
0.0000000000
11
-10.9921017962
21
18.8260073996
31
0.0000000000
0
SPLINE
5
347
100
AcDbEntity
8
0
100
AcDbSpline
62
9
6
CONTINUOUS
70
0
71
3
72
10
73
6
74
4
42
0.0000001000
43
0.0000001000
44
0.0000000001
12
-0.7468794205
22
0.0000001032
32
0.0000000000
13
-0.6098246038
23
0.4312108782
33
0.0000000000
40
0.0000000000
40
0.0000000000
40
0.0000000000
40
0.0000000000
40
0.3480320724
40
0.6845161589
40
1.0000000000
40
1.0000000000
40
1.0000000000
40
1.0000000000
10
-10.9921005570
20
29.6260054039
30
0.0000000000
10
-11.0787465545
20
29.6260054159
30
0.0000000000
10
-11.2496316426
20
29.6416406280
30
0.0000000000
10
-11.4902612528
20
29.7107944897
30
0.0000000000
10
-11.6350771085
20
29.7877653864
30
0.0000000000
10
-11.6992070447
20
29.8331120745
30
0.0000000000
11
-10.9921005570
21
29.6260054039
31
0.0000000000
11
-11.2509194798
21
29.6500994937
31
0.0000000000
11
-11.4921003294
21
29.7207397206
31
0.0000000000
11
-11.6992070447
21
29.8331120745
31
0.0000000000
0
SPLINE
5
348
100
AcDbEntity
8
0
100
AcDbSpline
62
9
6
CONTINUOUS
70
0
71
3
72
10
73
6
74
4
42
0.0000001000
43
0.0000001000
44
0.0000000001
12
-0.7468794205
22
0.0000001032
32
0.0000000000
13
-0.6098246038
23
0.4312108781
33
0.0000000000
40
0.0000000000
40
0.0000000000
40
0.0000000000
40
0.0000000000
40
0.3480320315
40
0.6845161395
40
1.0000000000
40
1.0000000000
40
1.0000000000
40
1.0000000000
10
-10.9921017962
20
18.8260073996
30
0.0000000000
10
-11.0787477835
20
18.8260074116
30
0.0000000000
10
-11.2496328666
20
18.8416426214
30
0.0000000000
10
-11.4902624783
20
18.9107964788
30
0.0000000000
10
-11.6350783438
20
18.9877673794
30
0.0000000000
10
-11.6992082839
20
19.0331140702
30
0.0000000000
11
-10.9921017962
21
18.8260073996
31
0.0000000000
11
-11.2509206889
21
18.8501014837
31
0.0000000000
11
-11.4921015551
21
18.9207417108
31
0.0000000000
11
-11.6992082839
21
19.0331140702
31
0.0000000000
0
SPLINE
5
349
100
AcDbEntity
8
0
100
AcDbSpline
62
9
6
CONTINUOUS
70
0
71
3
72
13
73
9
74
7
42
0.0000001000
43
0.0000001000
44
0.0000000001
12
-0.9266409736
22
-0.0858334960
32
0.0000000000
13
-0.9146961738
23
-0.1713528309
33
0.0000000000
40
0.0000000000
40
0.0000000000
40
0.0000000000
40
0.0000000000
40
0.1305296283
40
0.2733723263
40
0.4362503895
40
0.6211091273
40
0.8149440519
40
1.0000000000
40
1.0000000000
40
1.0000000000
40
1.0000000000
10
20.7239419787
20
41.9540518170
30
0.0000000000
10
20.6836239448
20
41.9503172122
30
0.0000000000
10
20.5992025772
20
41.9422853150
30
0.0000000000
10
20.4646851585
20
41.9274604883
30
0.0000000000
10
20.3137035255
20
41.9083535630
30
0.0000000000
10
20.1474109428
20
41.8844211547
30
0.0000000000
10
19.9747770550
20
41.8564489862
30
0.0000000000
10
19.8590826336
20
41.8357089206
30
0.0000000000
10
19.8026593110
20
41.8251389671
30
0.0000000000
11
20.7239419787
21
41.9540518170
31
0.0000000000
11
20.6030340453
21
41.9423602883
31
0.0000000000
11
20.4709022425
21
41.9278099509
31
0.0000000000
11
20.3205222219
21
41.9088096648
31
0.0000000000
11
20.1502421283
21
41.8843280561
31
0.0000000000
11
19.9721754022
21
41.8555055943
31
0.0000000000
11
19.8026593110
21
41.8251389671
31
0.0000000000
0
SPLINE
5
34A
100
AcDbEntity
8
0
100
AcDbSpline
62
9
6
CONTINUOUS
70
0
71
3
72
13
73
9
74
7
42
0.0000001000
43
0.0000001000
44
0.0000000001
12
-0.6660821364
22
-0.2701644573
32
0.0000000000
13
-0.5602167782
23
-0.4503458758
33
0.0000000000
40
0.0000000000
40
0.0000000000
40
0.0000000000
40
0.0000000000
40
0.1195611315
40
0.2552602087
40
0.4142137488
40
0.6001344866
40
0.8015842523
40
1.0000000000
40
1.0000000000
40
1.0000000000
40
1.0000000000
10
20.7208406623
20
41.9537741737
30
0.0000000000
10
20.6942948177
20
41.9430071176
30
0.0000000000
10
20.6377337160
20
41.9196957772
30
0.0000000000
10
20.5482652223
20
41.8766044453
30
0.0000000000
10
20.4474628063
20
41.8208342939
30
0.0000000000
10
20.3366356160
20
41.7510505834
30
0.0000000000
10
20.2219500133
20
41.6700462143
30
0.0000000000
10
20.1462082973
20
41.6113316354
30
0.0000000000
10
20.1091563537
20
41.5815463975
30
0.0000000000
11
20.7208406623
21
41.9537741737
31
0.0000000000
11
20.6416224289
21
41.9204579049
31
0.0000000000
11
20.5536781512
21
41.8782726103
31
0.0000000000
11
20.4536244157
21
41.8231078214
31
0.0000000000
11
20.3404175329
21
41.7520927426
31
0.0000000000
11
20.2220017519
21
41.6687586582
31
0.0000000000
11
20.1091563537
21
41.5815463975
31
0.0000000000
0
SPLINE
5
34B
100
AcDbEntity
8
0
100
AcDbSpline
62
9
6
CONTINUOUS
70
0
71
3
72
9
73
5
74
3
42
0.0000001000
43
0.0000001000
44
0.0000000001
12
-0.0657518077
22
0.4859175950
32
0.0000000000
13
-0.3285548376
23
0.3668302271
33
0.0000000000
40
0.0000000000
40
0.0000000000
40
0.0000000000
40
0.0000000000
40
0.7311442420
40
1.0000000000
40
1.0000000000
40
1.0000000000
40
1.0000000000
10
70.7457234265
20
21.9835523161
30
0.0000000000
10
70.7296987413
20
22.1019776000
30
0.0000000000
10
70.6615758935
20
22.2584770884
30
0.0000000000
10
70.5594557402
20
22.3875377931
30
0.0000000000
10
70.5300111202
20
22.4204125994
30
0.0000000000
11
70.7457234265
21
21.9835523161
31
0.0000000000
11
70.6119094812
21
22.3161569969
31
0.0000000000
11
70.5300111202
21
22.4204125994
31
0.0000000000
0
SPLINE
5
34C
100
AcDbEntity
8
0
100
AcDbSpline
62
9
6
CONTINUOUS
70
0
71
3
72
8
73
4
74
2
42
0.0000001000
43
0.0000001000
44
0.0000000001
12
-0.1930159644
22
0.2155015905
32
0.0000000000
13
-0.2353357405
23
0.1682424839
33
0.0000000000
40
0.0000000000
40
0.0000000000
40
0.0000000000
40
0.0000000000
40
1.0000000000
40
1.0000000000
40
1.0000000000
40
1.0000000000
10
70.5300111202
20
22.4204125994
30
0.0000000000
10
70.4656724654
20
22.4922464629
30
0.0000000000
10
70.3918371022
20
22.5553719977
30
0.0000000000
10
70.3133918553
20
22.6114528256
30
0.0000000000
11
70.5300111202
21
22.4204125994
31
0.0000000000
11
70.3133918553
21
22.6114528256
31
0.0000000000
0
SPLINE
5
34D
100
AcDbEntity
8
0
100
AcDbSpline
62
9
6
CONTINUOUS
70
0
71
3
72
10
73
6
74
4
42
0.0000001000
43
0.0000001000
44
0.0000000001
12
-1.3411042280
22
0.9587609003
32
0.0000000000
13
-1.6415822734
23
-0.0000008730
33
0.0000000000
40
0.0000000000
40
0.0000000000
40
0.0000000000
40
0.0000000000
40
0.3012372538
40
0.6401752997
40
1.0000000000
40
1.0000000000
40
1.0000000000
40
1.0000000000
10
70.3133918553
20
22.6114528256
30
0.0000000000
10
70.1787283371
20
22.7077243259
30
0.0000000000
10
69.8636777329
20
22.8681976031
30
0.0000000000
10
69.3318292330
20
23.0098499401
30
0.0000000000
10
68.9486123302
20
23.0419377356
30
0.0000000000
10
68.7517183804
20
23.0419376309
30
0.0000000000
11
70.3133918553
21
22.6114528256
31
0.0000000000
11
69.8766017041
21
22.8432939063
31
0.0000000000
11
69.3402130190
21
22.9911527147
31
0.0000000000
11
68.7517183804
21
23.0419376309
31
0.0000000000
0
SPLINE
5
34E
100
AcDbEntity
8
0
100
AcDbSpline
62
9
6
CONTINUOUS
70
0
71
3
72
10
73
6
74
4
42
0.0000001000
43
0.0000001000
44
0.0000000001
12
-0.1903559803
22
-0.0356647712
32
0.0000000000
13
-0.1897265019
23
-0.0388745370
33
0.0000000000
40
0.0000000000
40
0.0000000000
40
0.0000000000
40
0.0000000000
40
0.3451029281
40
0.6967308362
40
1.0000000000
40
1.0000000000
40
1.0000000000
40
1.0000000000
10
19.8026593110
20
41.8251389671
30
0.0000000000
10
19.7807618423
20
41.8210362948
30
0.0000000000
10
19.7365777016
20
41.8126202386
30
0.0000000000
10
19.6732346641
20
41.8001628657
30
0.0000000000
10
19.6317933636
20
41.7917944490
30
0.0000000000
10
19.6126139644
20
41.7878646329
30
0.0000000000
11
19.8026593110
21
41.8251389671
31
0.0000000000
11
19.7370040273
21
41.8126344387
31
0.0000000000
11
19.6701835446
21
41.7994998686
31
0.0000000000
11
19.6126139644
21
41.7878646329
31
0.0000000000
0
SPLINE
5
34F
100
AcDbEntity
8
0
100
AcDbSpline
62
9
6
CONTINUOUS
70
0
71
3
72
11
73
7
74
5
42
0.0000001000
43
0.0000001000
44
0.0000000001
12
-0.1364831821
22
-0.1097147308
32
0.0000000000
13
-0.1306226134
23
-0.1166306736
33
0.0000000000
40
0.0000000000
40
0.0000000000
40
0.0000000000
40
0.0000000000
40
0.2412751635
40
0.4885420718
40
0.7415639752
40
1.0000000000
40
1.0000000000
40
1.0000000000
40
1.0000000000
10
20.1091563537
20
41.5815463975
30
0.0000000000
10
20.0981796863
20
41.5727225843
30
0.0000000000
10
20.0760310398
20
41.5547588890
30
0.0000000000
10
20.0428063306
20
41.5270109929
30
0.0000000000
10
20.0092196279
20
41.4981412759
30
0.0000000000
10
19.9868323670
20
41.4783889068
30
0.0000000000
10
19.9755798374
20
41.4683417176
30
0.0000000000
11
20.1091563537
21
41.5815463975
31
0.0000000000
11
20.0763661519
21
41.5549019830
31
0.0000000000
11
20.0431297119
21
41.5271490672
31
0.0000000000
11
20.0095213619
21
41.4982760094
31
0.0000000000
11
19.9755798374
21
41.4683417176
31
0.0000000000
0
SPLINE
5
350
100
AcDbEntity
8
0
100
AcDbSpline
62
9
6
CONTINUOUS
70
0
71
3
72
10
73
6
74
4
42
0.0000001000
43
0.0000001000
44
0.0000000001
12
-0.0000408038
22
-0.4786315240
32
0.0000000000
13
-0.2961374278
23
-0.3760196290
33
0.0000000000
40
0.0000000000
40
0.0000000000
40
0.0000000000
40
0.0000000000
40
0.3253298886
40
0.6572310536
40
1.0000000000
40
1.0000000000
40
1.0000000000
40
1.0000000000
10
68.7517196472
20
-37.0182254175
30
0.0000000000
10
68.7517152223
20
-37.0701297977
30
0.0000000000
10
68.7393481701
20
-37.1753895231
30
0.0000000000
10
68.6845753426
20
-37.3265613939
30
0.0000000000
10
68.6262161317
20
-37.4181467570
30
0.0000000000
10
68.5923805604
20
-37.4611093743
30
0.0000000000
11
68.7517196472
21
-37.0182254175
31
0.0000000000
11
68.7336815310
21
-37.1728902443
31
0.0000000000
11
68.6799902118
21
-37.3224001807
31
0.0000000000
11
68.5923805604
21
-37.4611093743
31
0.0000000000
0
SPLINE
5
351
100
AcDbEntity
8
0
100
AcDbSpline
62
9
6
CONTINUOUS
70
0
71
3
72
10
73
6
74
4
42
0.0000001000
43
0.0000001000
44
0.0000000001
12
-0.4059268616
22
0.2750365901
32
0.0000000000
13
-0.3472531114
23
0.3461748394
33
0.0000000000
40
0.0000000000
40
0.0000000000
40
0.0000000000
40
0.0000000000
40
0.2959514323
40
0.6331528526
40
1.0000000000
40
1.0000000000
40
1.0000000000
40
1.0000000000
10
19.9762422791
20
41.4685818096
30
0.0000000000
10
19.9361974004
20
41.4957143005
30
0.0000000000
10
19.8533160019
20
41.5578905301
30
0.0000000000
10
19.7291282004
20
41.6642598536
30
0.0000000000
10
19.6457707997
20
41.7436733907
30
0.0000000000
10
19.6033078619
20
41.7860044748
30
0.0000000000
11
19.9762422791
21
41.4685818096
31
0.0000000000
11
19.8596446372
21
41.5549697096
31
0.0000000000
11
19.7337450231
21
41.6621443001
31
0.0000000000
11
19.6033078619
21
41.7860044748
31
0.0000000000
0
SPLINE
5
352
100
AcDbEntity
8
0
100
AcDbSpline
62
9
6
CONTINUOUS
70
0
71
3
72
11
73
7
74
5
42
0.0000001000
43
0.0000001000
44
0.0000000001
12
-0.5079448754
22
-0.1039138810
32
0.0000000000
13
-0.5075138779
23
-0.1059988438
33
0.0000000000
40
0.0000000000
40
0.0000000000
40
0.0000000000
40
0.0000000000
40
0.2558191762
40
0.4985786841
40
0.7470936488
40
1.0000000000
40
1.0000000000
40
1.0000000000
40
1.0000000000
10
19.6126139644
20
41.7878646329
30
0.0000000000
10
19.5692999512
20
41.7790035784
30
0.0000000000
10
19.4848407089
20
41.7619416904
30
0.0000000000
10
19.3582650834
20
41.7364657639
30
0.0000000000
10
19.2322257016
20
41.7108767298
30
0.0000000000
10
19.1473621694
20
41.6933389062
30
0.0000000000
10
19.1045776751
20
41.6844029792
30
0.0000000000
11
19.6126139644
21
41.7878646329
31
0.0000000000
11
19.4826252485
21
41.7615106585
31
0.0000000000
11
19.3592470858
21
41.7366277819
31
0.0000000000
11
19.2329843159
21
41.7109549717
31
0.0000000000
11
19.1045776751
21
41.6844029792
31
0.0000000000
0
SPLINE
5
353
100
AcDbEntity
8
0
100
AcDbSpline
62
9
6
CONTINUOUS
70
0
71
3
72
11
73
7
74
5
42
0.0000001000
43
0.0000001000
44
0.0000000001
12
-0.3251937334
22
-0.3859775860
32
0.0000000000
13
-0.3342873525
23
-0.3781291143
33
0.0000000000
40
0.0000000000
40
0.0000000000
40
0.0000000000
40
0.0000000000
40
0.2448573608
40
0.4923936839
40
0.7441120313
40
1.0000000000
40
1.0000000000
40
1.0000000000
40
1.0000000000
10
19.9762423012
20
41.4685817927
30
0.0000000000
10
19.9497002747
20
41.4370786417
30
0.0000000000
10
19.8957785328
20
41.3741876445
30
0.0000000000
10
19.8131070845
20
41.2801807862
30
0.0000000000
10
19.7288748039
20
41.1850777904
30
0.0000000000
10
19.6722688223
20
41.1211363020
30
0.0000000000
10
19.6437554517
20
41.0888834050
30
0.0000000000
11
19.9762423012
21
41.4685817927
31
0.0000000000
11
19.8958781316
21
41.3746991561
31
0.0000000000
11
19.8135172116
21
41.2807574559
31
0.0000000000
11
19.7293435664
21
41.1855996374
31
0.0000000000
11
19.6437554517
21
41.0888834050
31
0.0000000000
0
SPLINE
5
354
100
AcDbEntity
8
0
100
AcDbSpline
62
9
6
CONTINUOUS
70
0
71
3
72
12
73
8
74
6
42
0.0000001000
43
0.0000001000
44
0.0000000001
12
-0.3245039789
22
2.3981343768
32
0.0000000000
13
-2.4199899425
23
0.0000001565
33
0.0000000000
40
0.0000000000
40
0.0000000000
40
0.0000000000
40
0.0000000000
40
0.1481487867
40
0.3216619307
40
0.5260046452
40
0.7559193344
40
1.0000000000
40
1.0000000000
40
1.0000000000
40
1.0000000000
10
70.7457233907
20
-38.0766105215
30
0.0000000000
10
70.7296984338
20
-37.9581836221
30
0.0000000000
10
70.6215529952
20
-37.7097427300
30
0.0000000000
10
70.3046019398
20
-37.4165521579
30
0.0000000000
10
69.8636685388
20
-37.1919623471
30
0.0000000000
10
69.3318232233
20
-37.0503126058
30
0.0000000000
10
68.9486105659
20
-37.0182254303
30
0.0000000000
10
68.7517196472
20
-37.0182254175
30
0.0000000000
11
70.7457233907
21
-38.0766105215
31
0.0000000000
11
70.6119064286
21
-37.7440017597
31
0.0000000000
11
70.3133838865
21
-37.4487046971
31
0.0000000000
11
69.8765911145
21
-37.2168651885
31
0.0000000000
11
69.3402052667
21
-37.0690090788
31
0.0000000000
11
68.7517196472
21
-37.0182254175
31
0.0000000000
0
SPLINE
5
355
100
AcDbEntity
8
0
100
AcDbSpline
62
9
6
CONTINUOUS
70
0
71
3
72
10
73
6
74
4
42
0.0000001000
43
0.0000001000
44
0.0000000001
12
-0.1244405352
22
-0.1126672827
32
0.0000000000
13
-0.1183458678
23
-0.1190530090
33
0.0000000000
40
0.0000000000
40
0.0000000000
40
0.0000000000
40
0.0000000000
40
0.3348377069
40
0.6682129095
40
1.0000000000
40
1.0000000000
40
1.0000000000
40
1.0000000000
10
19.1045776751
20
41.6844029792
30
0.0000000000
10
19.0906885472
20
41.6718278944
30
0.0000000000
10
19.0631970420
20
41.6464816311
30
0.0000000000
10
19.0227344836
20
41.6078279085
30
0.0000000000
10
18.9962697466
20
41.5816538648
30
0.0000000000
10
18.9831812029
20
41.5684871143
30
0.0000000000
11
19.1045776751
21
41.6844029792
31
0.0000000000
11
19.0632508445
21
41.6463049642
31
0.0000000000
11
19.0227831194
21
41.6076502074
31
0.0000000000
11
18.9831812029
21
41.5684871143
31
0.0000000000
0
SPLINE
5
356
100
AcDbEntity
8
0
100
AcDbSpline
62
9
6
CONTINUOUS
70
0
71
3
72
10
73
6
74
4
42
0.0000001000
43
0.0000001000
44
0.0000000001
12
-0.0834512896
22
-0.0944445303
32
0.0000000000
13
-0.0784451965
23
-0.0986419697
33
0.0000000000
40
0.0000000000
40
0.0000000000
40
0.0000000000
40
0.0000000000
40
0.3335364614
40
0.6669260284
40
1.0000000000
40
1.0000000000
40
1.0000000000
40
1.0000000000
10
19.6437554517
20
41.0888834050
30
0.0000000000
10
19.6344774358
20
41.0783831735
30
0.0000000000
10
19.6161147324
20
41.0572192722
30
0.0000000000
10
19.5891422069
20
41.0250087608
30
0.0000000000
10
19.5715338086
20
41.0032385094
30
0.0000000000
10
19.5628244576
20
40.9922868185
30
0.0000000000
11
19.6437554517
21
41.0888834050
31
0.0000000000
11
19.6162042351
21
41.0571350439
31
0.0000000000
11
19.5892257332
21
41.0249227436
31
0.0000000000
11
19.5628244576
21
40.9922868185
31
0.0000000000
0
SPLINE
5
357
100
AcDbEntity
8
0
100
AcDbSpline
62
9
6
CONTINUOUS
70
0
71
3
72
10
73
6
74
4
42
0.0000001000
43
0.0000001000
44
0.0000000001
12
-0.0951698607
22
-0.0957385264
32
0.0000000000
13
-0.0912278698
23
-0.0995019778
33
0.0000000000
40
0.0000000000
40
0.0000000000
40
0.0000000000
40
0.0000000000
40
0.3297049654
40
0.6630285995
40
1.0000000000
40
1.0000000000
40
1.0000000000
40
1.0000000000
10
18.9831812029
20
41.5684871143
30
0.0000000000
10
18.9727218777
20
41.5579652918
30
0.0000000000
10
18.9518318980
20
41.5366629889
30
0.0000000000
10
18.9207611354
20
41.5041128095
30
0.0000000000
10
18.9002294882
20
41.4820164566
30
0.0000000000
10
18.8899824272
20
41.4708400163
30
0.0000000000
11
18.9831812029
21
41.5684871143
31
0.0000000000
11
18.9520174179
21
41.5367101635
31
0.0000000000
11
18.9209474067
21
41.5041627674
31
0.0000000000
11
18.8899824272
21
41.4708400163
31
0.0000000000
0
SPLINE
5
358
100
AcDbEntity
8
0
100
AcDbSpline
62
9
6
CONTINUOUS
70
0
71
3
72
14
73
10
74
8
42
0.0000001000
43
0.0000001000
44
0.0000000001
12
-0.0049393453
22
-4.3083207632
32
0.0000000000
13
-4.3063331851
23
-0.1309453879
33
0.0000000000
40
0.0000000000
40
0.0000000000
40
0.0000000000
40
0.0000000000
40
0.1275520002
40
0.2589879576
40
0.3964161947
40
0.5402793400
40
0.6901339087
40
0.8441065351
40
1.0000000000
40
1.0000000000
40
1.0000000000
40
1.0000000000
10
70.7456527146
20
-38.0766138079
30
0.0000000000
10
70.7454427068
20
-38.2597921183
30
0.0000000000
10
70.6926224808
20
-38.6334964058
30
0.0000000000
10
70.4643728789
20
-39.1615336841
30
0.0000000000
10
70.1010679421
20
-39.6367685520
30
0.0000000000
10
69.6221614988
20
-40.0364902038
30
0.0000000000
10
69.0519579332
20
-40.3424003610
30
0.0000000000
10
68.4184576569
20
-40.5406792361
30
0.0000000000
10
67.9738318178
20
-40.5947231893
30
0.0000000000
10
67.7500554174
20
-40.6015276994
30
0.0000000000
11
70.7456527146
21
-38.0766138079
31
0.0000000000
11
70.6700561455
21
-38.6209245612
31
0.0000000000
11
70.4482598407
21
-39.1419490978
31
0.0000000000
11
70.0912545716
21
-39.6142967026
31
0.0000000000
11
69.6173393721
21
-40.0137557862
31
0.0000000000
11
69.0494898536
21
-40.3209603720
31
0.0000000000
11
68.4167523447
21
-40.5201961811
31
0.0000000000
11
67.7500554174
21
-40.6015276994
31
0.0000000000
0
SPLINE
5
359
100
AcDbEntity
8
0
100
AcDbSpline
62
9
6
CONTINUOUS
70
0
71
3
72
10
73
6
74
4
42
0.0000001000
43
0.0000001000
44
0.0000000001
12
-0.0637283963
22
-0.0801362863
32
0.0000000000
13
-0.0605557944
23
-0.0825598488
33
0.0000000000
40
0.0000000000
40
0.0000000000
40
0.0000000000
40
0.0000000000
40
0.3287337745
40
0.6620525952
40
1.0000000000
40
1.0000000000
40
1.0000000000
40
1.0000000000
10
19.5628244576
20
40.9922868185
30
0.0000000000
10
19.5558412321
20
40.9835056506
30
0.0000000000
10
19.5418944838
20
40.9657273555
30
0.0000000000
10
19.5211810036
20
40.9386016609
30
0.0000000000
10
19.5075134875
20
40.9202145063
30
0.0000000000
10
19.5006919296
20
40.9109142107
30
0.0000000000
11
19.5628244576
21
40.9922868185
31
0.0000000000
11
19.5420486006
21
40.9658060161
31
0.0000000000
11
19.5213352502
21
40.9386831800
31
0.0000000000
11
19.5006919296
21
40.9109142107
31
0.0000000000
0
SPLINE
5
35A
100
AcDbEntity
8
0
100
AcDbSpline
62
9
6
CONTINUOUS
70
0
71
3
72
10
73
6
74
4
42
0.0000001000
43
0.0000001000
44
0.0000000001
12
-0.3120132783
22
-0.3403125470
32
0.0000000000
13
-0.2665609899
23
-0.3769750047
33
0.0000000000
40
0.0000000000
40
0.0000000000
40
0.0000000000
40
0.0000000000
40
0.3353608591
40
0.6684666882
40
1.0000000000
40
1.0000000000
40
1.0000000000
40
1.0000000000
10
18.8899824272
20
41.4708400163
30
0.0000000000
10
18.8551034135
20
41.4327975136
30
0.0000000000
10
18.7872905967
20
41.3553806603
30
0.0000000000
10
18.6909516178
20
41.2353126067
30
0.0000000000
10
18.6302481522
20
41.1529443485
30
0.0000000000
10
18.6007902029
20
41.1112844246
30
0.0000000000
11
18.8899824272
21
41.4708400163
31
0.0000000000
11
18.7879209563
21
41.3544035331
31
0.0000000000
11
18.6916358614
21
41.2344791755
31
0.0000000000
11
18.6007902029
21
41.1112844246
31
0.0000000000
0
SPLINE
5
35B
100
AcDbEntity
8
0
100
AcDbSpline
62
9
6
CONTINUOUS
70
0
71
3
72
9
73
5
74
3
42
0.0000001000
43
0.0000001000
44
0.0000000001
12
-1.8069842015
22
-12.1125152277
32
0.0000000000
13
-0.6622165082
23
-12.2286420481
33
0.0000000000
40
0.0000000000
40
0.0000000000
40
0.0000000000
40
0.0000000000
40
0.5006633040
40
1.0000000000
40
1.0000000000
40
1.0000000000
40
1.0000000000
10
-65.4041584129
20
-27.7469378182
30
0.0000000000
10
-65.7057219732
20
-29.7683684495
30
0.0000000000
10
-66.2140760612
20
-33.8204686450
30
0.0000000000
10
-66.5313281911
20
-37.8920204825
30
0.0000000000
10
-66.6415511922
20
-39.9274237214
30
0.0000000000
11
-65.4041584129
21
-27.7469378182
31
0.0000000000
11
-66.1668481155
21
-33.8307200152
31
0.0000000000
11
-66.6415511922
21
-39.9274237214
31
0.0000000000
0
SPLINE
5
35C
100
AcDbEntity
8
0
100
AcDbSpline
62
9
6
CONTINUOUS
70
0
71
3
72
10
73
6
74
4
42
0.0000001000
43
0.0000001000
44
0.0000000001
12
-0.2108395106
22
-0.2874461752
32
0.0000000000
13
-0.1755193406
23
-0.3102765926
33
0.0000000000
40
0.0000000000
40
0.0000000000
40
0.0000000000
40
0.0000000000
40
0.3324420199
40
0.6656330565
40
1.0000000000
40
1.0000000000
40
1.0000000000
40
1.0000000000
10
19.5006919296
20
40.9109142107
30
0.0000000000
10
19.4773279587
20
40.8790611484
30
0.0000000000
10
19.4319344496
20
40.8142543292
30
0.0000000000
10
19.3677475436
20
40.7142226102
30
0.0000000000
10
19.3274596959
20
40.6458665395
30
0.0000000000
10
19.3078970741
20
40.6112844608
30
0.0000000000
11
19.5006919296
21
40.9109142107
31
0.0000000000
11
19.4326511746
21
40.8138838540
31
0.0000000000
11
19.3684609265
21
40.7139468531
31
0.0000000000
11
19.3078970741
21
40.6112844608
31
0.0000000000
0
SPLINE
5
35D
100
AcDbEntity
8
0
100
AcDbSpline
62
7
6
CONTINUOUS
70
0
71
3
72
11
73
7
74
5
42
0.0000001000
43
0.0000001000
44
0.0000000001
12
-1.2958642973
22
0.0000000000
32
0.0000000000
13
-0.9129271765
23
0.9196892124
33
0.0000000000
40
0.0000000000
40
0.0000000000
40
0.0000000000
40
0.0000000000
40
0.2179111818
40
0.4587563492
40
0.7170606753
40
1.0000000000
40
1.0000000000
40
1.0000000000
40
1.0000000000
10
-66.6415511922
20
-39.9274237214
30
0.0000000000
10
-66.7356789657
20
-39.9274237214
30
0.0000000000
10
-66.9346654578
20
-39.8977972212
30
0.0000000000
10
-67.2211394143
20
-39.7735853783
30
0.0000000000
10
-67.5021728219
20
-39.5838008632
30
0.0000000000
10
-67.6765816075
20
-39.4270173205
30
0.0000000000
10
-67.7626826071
20
-39.3402785722
30
0.0000000000
11
-66.6415511922
21
-39.9274237214
31
0.0000000000
11
-66.9211735989
21
-39.8880327404
31
0.0000000000
11
-67.2094955815
21
-39.7685400601
31
0.0000000000
11
-67.4887471205
21
-39.5839838910
31
0.0000000000
11
-67.7626826071
21
-39.3402785722
31
0.0000000000
0
SPLINE
5
35E
100
AcDbEntity
8
0
100
AcDbSpline
62
9
6
CONTINUOUS
70
0
71
3
72
15
73
11
74
9
42
0.0000001000
43
0.0000001000
44
0.0000000001
12
-1.0356397189
22
1.3333424301
32
0.0000000000
13
-1.0353793805
23
1.3335446006
33
0.0000000000
40
0.0000000000
40
0.0000000000
40
0.0000000000
40
0.0000000000
40
0.1363150752
40
0.2713529661
40
0.4043087809
40
0.5340338447
40
0.6593036162
40
0.7793012758
40
0.8932033917
40
1.0000000000
40
1.0000000000
40
1.0000000000
40
1.0000000000
10
12.2221097989
20
16.7904701921
30
0.0000000000
10
12.1750520302
20
16.8510550833
30
0.0000000000
10
12.0814132013
20
16.9716850321
30
0.0000000000
10
11.9418624089
20
17.1513960974
30
0.0000000000
10
11.8045977591
20
17.3281869329
30
0.0000000000
10
11.6706989423
20
17.5006314985
30
0.0000000000
10
11.5412758868
20
17.6673187348
30
0.0000000000
10
11.4173103121
20
17.8269697669
30
0.0000000000
10
11.2997262998
20
17.9784138502
30
0.0000000000
10
11.2235508309
20
18.0765126678
30
0.0000000000
10
11.1866924955
20
18.1239853479
30
0.0000000000
11
12.2221097989
21
16.7904701921
31
0.0000000000
11
12.0809671505
21
16.9722486742
31
0.0000000000
11
11.9411457363
21
17.1523230919
31
0.0000000000
11
11.8034817870
21
17.3296223088
31
0.0000000000
11
11.6691618117
21
17.5026123370
31
0.0000000000
11
11.5394556596
21
17.6696617375
31
0.0000000000
11
11.4152074852
21
17.8296800305
31
0.0000000000
11
11.2972723723
21
17.9815710894
31
0.0000000000
11
11.1866924955
21
18.1239853479
31
0.0000000000
0
SPLINE
5
35F
100
AcDbEntity
8
0
100
AcDbSpline
62
9
6
CONTINUOUS
70
0
71
3
72
15
73
11
74
9
42
0.0000001000
43
0.0000001000
44
0.0000000001
12
-0.4907425136
22
1.6154019464
32
0.0000000000
13
-0.4910907675
23
1.6152961095
33
0.0000000000
40
0.0000000000
40
0.0000000000
40
0.0000000000
40
0.0000000000
40
0.1363150752
40
0.2713529663
40
0.4043087802
40
0.5340338471
40
0.6593036096
40
0.7793012943
40
0.8932033622
40
1.0000000000
40
1.0000000000
40
1.0000000000
40
1.0000000000
10
12.2221097989
20
16.7904701921
30
0.0000000000
10
12.1998112647
20
16.8638714047
30
0.0000000000
10
12.1553797276
20
17.0099729220
30
0.0000000000
10
12.0892160263
20
17.2276719231
30
0.0000000000
10
12.0241165518
20
17.4418182345
30
0.0000000000
10
11.9606230316
20
17.6507071824
30
0.0000000000
10
11.8992453031
20
17.8526174127
30
0.0000000000
10
11.8404634686
20
18.0460097714
30
0.0000000000
10
11.7846952316
20
18.2294524478
30
0.0000000000
10
11.7485801247
20
18.3482875292
30
0.0000000000
10
11.7310978438
20
18.4057902604
30
0.0000000000
11
12.2221097989
21
16.7904701921
31
0.0000000000
11
12.1551770569
21
17.0106625439
31
0.0000000000
11
12.0888728716
21
17.2287922735
31
0.0000000000
11
12.0235889652
21
17.4435581603
31
0.0000000000
11
11.9598929815
21
17.6531058389
31
0.0000000000
11
11.8983834582
21
17.8554564264
31
0.0000000000
11
11.8394641007
21
18.0492913804
31
0.0000000000
11
11.7835350369
21
18.2332791334
31
0.0000000000
11
11.7310978438
21
18.4057902604
31
0.0000000000
0
SPLINE
5
360
100
AcDbEntity
8
0
100
AcDbSpline
62
9
6
CONTINUOUS
70
0
71
3
72
9
73
5
74
3
42
0.0000001000
43
0.0000001000
44
0.0000000001
12
-0.0626585433
22
0.0806986618
32
0.0000000000
13
-0.0626582958
23
0.0806988540
33
0.0000000000
40
0.0000000000
40
0.0000000000
40
0.0000000000
40
0.0000000000
40
0.4950021843
40
1.0000000000
40
1.0000000000
40
1.0000000000
40
1.0000000000
10
11.1866924955
20
18.1239853479
30
0.0000000000
10
11.1763537903
20
18.1373006859
30
0.0000000000
10
11.1554675318
20
18.1642001798
30
0.0000000000
10
11.1345810712
20
18.1910995167
30
0.0000000000
10
11.1240336371
20
18.2046837650
30
0.0000000000
11
11.1866924955
21
18.1239853479
31
0.0000000000
11
11.1556762536
21
18.1639312639
31
0.0000000000
11
11.1240336371
21
18.2046837650
31
0.0000000000
0
SPLINE
5
361
100
AcDbEntity
8
0
100
AcDbSpline
62
7
6
CONTINUOUS
70
0
71
3
72
11
73
7
74
5
42
0.0000001000
43
0.0000001000
44
0.0000000001
12
-1.3630886292
22
1.3734919021
32
0.0000000000
13
0.0036960724
23
1.9350651036
33
0.0000000000
40
0.0000000000
40
0.0000000000
40
0.0000000000
40
0.0000000000
40
0.2825566581
40
0.5440431751
40
0.7826189221
40
1.0000000000
40
1.0000000000
40
1.0000000000
40
1.0000000000
10
-67.7626826071
20
-39.3402785722
30
0.0000000000
10
-67.8910658630
20
-39.2109154783
30
0.0000000000
10
-68.1234745389
20
-38.9461682878
30
0.0000000000
10
-68.3936121988
20
-38.5167189846
30
0.0000000000
10
-68.5631775637
20
-38.0828583471
30
0.0000000000
10
-68.6054377537
20
-37.7879629091
30
0.0000000000
10
-68.6051699349
20
-37.6477473964
30
0.0000000000
11
-67.7626826071
21
-39.3402785722
31
0.0000000000
11
-68.1204395326
21
-38.9268011042
31
0.0000000000
11
-68.3866403744
21
-38.4964902850
31
0.0000000000
11
-68.5502531093
21
-38.0647945134
31
0.0000000000
11
-68.6051699349
21
-37.6477473964
31
0.0000000000
0
SPLINE
5
362
100
AcDbEntity
8
0
100
AcDbSpline
62
9
6
CONTINUOUS
70
0
71
3
72
9
73
5
74
3
42
0.0000001000
43
0.0000001000
44
0.0000000001
12
-0.0297131300
22
0.0977522223
32
0.0000000000
13
-0.0297151915
23
0.0977515957
33
0.0000000000
40
0.0000000000
40
0.0000000000
40
0.0000000000
40
0.0000000000
40
0.4950025395
40
1.0000000000
40
1.0000000000
40
1.0000000000
40
1.0000000000
10
11.7310978438
20
18.4057902604
30
0.0000000000
10
11.7261951522
20
18.4219194598
30
0.0000000000
10
11.7162904345
20
18.4545034303
30
0.0000000000
10
11.7063860122
20
18.4870874905
30
0.0000000000
10
11.7013839801
20
18.5035422597
30
0.0000000000
11
11.7310978438
21
18.4057902604
31
0.0000000000
11
11.7163895037
21
18.4541777780
31
0.0000000000
11
11.7013839801
21
18.5035422597
31
0.0000000000
0
SPLINE
5
363
100
AcDbEntity
8
0
100
AcDbSpline
62
9
6
CONTINUOUS
70
0
71
3
72
10
73
6
74
4
42
0.0000001000
43
0.0000001000
44
0.0000000001
12
-0.1880926124
22
0.3633661817
32
0.0000000000
13
-0.0647369140
23
0.4040085950
33
0.0000000000
40
0.0000000000
40
0.0000000000
40
0.0000000000
40
0.0000000000
40
0.3141793989
40
0.6457124362
40
1.0000000000
40
1.0000000000
40
1.0000000000
40
1.0000000000
10
11.1240336371
20
18.2046837650
30
0.0000000000
10
11.1043353624
20
18.2427378212
30
0.0000000000
10
11.0679006831
20
18.3231216978
30
0.0000000000
10
11.0249600942
20
18.4528223123
30
0.0000000000
10
11.0052889342
20
18.5444943570
30
0.0000000000
10
10.9976437730
20
18.5922060973
30
0.0000000000
11
11.1240336371
21
18.2046837650
31
0.0000000000
11
11.0709412891
21
18.3217581069
31
0.0000000000
11
11.0282222569
21
18.4505068235
31
0.0000000000
11
10.9976437730
21
18.5922060973
31
0.0000000000
0
SPLINE
5
364
100
AcDbEntity
8
0
100
AcDbSpline
62
9
6
CONTINUOUS
70
0
71
3
72
9
73
5
74
3
42
0.0000001000
43
0.0000001000
44
0.0000000001
12
-1.7243023440
22
-11.5567515063
32
0.0000000000
13
-0.6881116395
23
-11.6643999556
33
0.0000000000
40
0.0000000000
40
0.0000000000
40
0.0000000000
40
0.0000000000
40
0.5007565665
40
1.0000000000
40
1.0000000000
40
1.0000000000
40
1.0000000000
10
-67.3965041841
20
-26.0286709788
30
0.0000000000
10
-67.6843227580
20
-27.9577107137
30
0.0000000000
10
-68.1739907083
20
-31.8231538916
30
0.0000000000
10
-68.4906603917
20
-35.7066223341
30
0.0000000000
10
-68.6051721309
20
-37.6477473618
30
0.0000000000
11
-67.3965041841
21
-26.0286709788
31
0.0000000000
11
-68.1313510906
21
-31.8335227854
31
0.0000000000
11
-68.6051721309
21
-37.6477473618
31
0.0000000000
0
SPLINE
5
365
100
AcDbEntity
8
0
100
AcDbSpline
62
9
6
CONTINUOUS
70
0
71
3
72
10
73
6
74
4
42
0.0000001000
43
0.0000001000
44
0.0000000001
12
-0.4999963669
22
-0.4229006147
32
0.0000000000
13
-0.6339699557
23
-0.1640834912
33
0.0000000000
40
0.0000000000
40
0.0000000000
40
0.0000000000
40
0.0000000000
40
0.3318209605
40
0.6681790383
40
1.0000000000
40
1.0000000000
40
1.0000000000
40
1.0000000000
10
11.7013839801
20
18.5035422597
30
0.0000000000
10
11.6460808885
20
18.4567664969
30
0.0000000000
10
11.5271377611
20
18.3712109964
30
0.0000000000
10
11.3326827687
20
18.2705536983
30
0.0000000000
10
11.1941551439
20
18.2228325456
30
0.0000000000
10
11.1240336371
20
18.2046837650
30
0.0000000000
11
11.7013839801
21
18.5035422597
31
0.0000000000
11
11.5252356895
21
18.3763046278
31
0.0000000000
11
11.3296219985
21
18.2750475429
31
0.0000000000
11
11.1240336371
21
18.2046837650
31
0.0000000000
0
SPLINE
5
366
100
AcDbEntity
8
0
100
AcDbSpline
62
9
6
CONTINUOUS
70
0
71
3
72
10
73
6
74
4
42
0.0000001000
43
0.0000001000
44
0.0000000001
12
-0.0954587859
22
0.3139011400
32
0.0000000000
13
0.0123112213
23
0.3278639036
33
0.0000000000
40
0.0000000000
40
0.0000000000
40
0.0000000000
40
0.0000000000
40
0.2999873018
40
0.6307169990
40
1.0000000000
40
1.0000000000
40
1.0000000000
40
1.0000000000
10
11.7013839801
20
18.5035422597
30
0.0000000000
10
11.6918385056
20
18.5349310450
30
0.0000000000
10
11.6759400323
20
18.6022498418
30
0.0000000000
10
11.6631556884
20
18.7110702789
30
0.0000000000
10
11.6624585705
20
18.7877881244
30
0.0000000000
10
11.6639740120
20
18.8281463132
30
0.0000000000
11
11.7013839801
21
18.5035422597
31
0.0000000000
11
11.6784874507
21
18.5992663230
31
0.0000000000
11
11.6654906037
21
18.7069959124
31
0.0000000000
11
11.6639740120
21
18.8281463132
31
0.0000000000
0
SPLINE
5
367
100
AcDbEntity
8
0
100
AcDbSpline
62
9
6
CONTINUOUS
70
0
71
3
72
9
73
5
74
3
42
0.0000001000
43
0.0000001000
44
0.0000000001
12
-0.0371297086
22
0.2317330926
32
0.0000000000
13
0.0000022602
23
0.2346888184
33
0.0000000000
40
0.0000000000
40
0.0000000000
40
0.0000000000
40
0.0000000000
40
0.5114312623
40
1.0000000000
40
1.0000000000
40
1.0000000000
40
1.0000000000
10
10.9976437730
20
18.5922060973
30
0.0000000000
10
10.9913140085
20
18.6317112800
30
0.0000000000
10
10.9822898112
20
18.7095266036
30
0.0000000000
10
10.9794687486
20
18.7877840839
30
0.0000000000
10
10.9794691167
20
18.8260046238
30
0.0000000000
11
10.9976437730
21
18.5922060973
31
0.0000000000
11
10.9837059992
21
18.7114213097
31
0.0000000000
11
10.9794691167
21
18.8260046238
31
0.0000000000
0
SPLINE
5
368
100
AcDbEntity
8
0
100
AcDbSpline
62
9
6
CONTINUOUS
70
0
71
3
72
12
73
8
74
6
42
0.0000001000
43
0.0000001000
44
0.0000000001
12
-2.8728123161
22
0.1628922661
32
0.0000000000
13
-0.0002970522
23
2.8774266986
33
0.0000000000
40
0.0000000000
40
0.0000000000
40
0.0000000000
40
0.0000000000
40
0.2167171412
40
0.4295398218
40
0.6318997007
40
0.8212618985
40
1.0000000000
40
1.0000000000
40
1.0000000000
40
1.0000000000
10
-65.4041543207
20
-27.7469378181
30
0.0000000000
10
-65.6116835448
20
-27.7351706360
30
0.0000000000
10
-66.0223676844
20
-27.6632714328
30
0.0000000000
10
-66.5792507383
20
-27.4073748173
30
0.0000000000
10
-67.0283064931
20
-27.0276862075
30
0.0000000000
10
-67.3238784859
20
-26.5558437411
30
0.0000000000
10
-67.3964891455
20
-26.2001173470
30
0.0000000000
10
-67.3965068437
20
-26.0286820852
30
0.0000000000
11
-65.4041543207
21
-27.7469378181
31
0.0000000000
11
-66.0179104397
21
-27.6366425995
31
0.0000000000
11
-66.5733637990
21
-27.3787998740
31
0.0000000000
11
-67.0144747177
21
-26.9987128140
31
0.0000000000
11
-67.2981258579
21
-26.5334905889
31
0.0000000000
11
-67.3965068437
21
-26.0286820852
31
0.0000000000
0
SPLINE
5
369
100
AcDbEntity
8
0
100
AcDbSpline
62
9
6
CONTINUOUS
70
0
71
3
72
13
73
9
74
7
42
0.0000001000
43
0.0000001000
44
0.0000000001
12
-5.4857795930
22
-54.8262446033
32
0.0000000000
13
-2.7682227141
23
-55.0304262935
33
0.0000000000
40
0.0000000000
40
0.0000000000
40
0.0000000000
40
0.0000000000
40
0.1276875629
40
0.2709649604
40
0.4298295518
40
0.6042844214
40
0.7943370162
40
1.0000000000
40
1.0000000000
40
1.0000000000
40
1.0000000000
10
-61.2819509645
20
28.8112784703
30
0.0000000000
10
-61.5154395735
20
26.4777352839
30
0.0000000000
10
-61.9941819070
20
21.5240522138
30
0.0000000000
10
-62.7023222258
20
13.6612771811
30
0.0000000000
10
-63.4214688732
20
4.9372776068
30
0.0000000000
10
-64.1321943372
20
-4.6491322817
30
0.0000000000
10
-64.8129680186
20
-15.0992610219
30
0.0000000000
10
-65.2136938761
20
-22.3563305925
30
0.0000000000
10
-65.4034675239
20
-26.1289044826
30
0.0000000000
11
-61.2819509645
21
28.8112784703
31
0.0000000000
11
-61.9594584950
21
21.8083897704
31
0.0000000000
11
-62.6672275602
21
13.9455946639
31
0.0000000000
11
-63.3865151602
21
5.2217571154
31
0.0000000000
11
-64.0973206390
21
-4.3643908687
31
0.0000000000
11
-64.7777788882
21
-14.8141590645
31
0.0000000000
11
-65.4034675239
21
-26.1289044826
31
0.0000000000
0
SPLINE
5
36A
100
AcDbEntity
8
0
100
AcDbSpline
62
9
6
CONTINUOUS
70
0
71
3
72
9
73
5
74
3
42
0.0000001000
43
0.0000001000
44
0.0000000001
12
0.0077507146
22
0.2061826440
32
0.0000000000
13
0.0359166621
23
0.2031781229
33
0.0000000000
40
0.0000000000
40
0.0000000000
40
0.0000000000
40
0.0000000000
40
0.5044567408
40
1.0000000000
40
1.0000000000
40
1.0000000000
40
1.0000000000
10
11.6639740120
20
18.8281463132
30
0.0000000000
10
11.6652773121
20
18.8628163881
30
0.0000000000
10
11.6706378322
20
18.9314584576
30
0.0000000000
10
11.6806433077
20
18.9995501759
30
0.0000000000
10
11.6865760610
20
19.0331113590
30
0.0000000000
11
11.6639740120
21
18.8281463132
31
0.0000000000
11
11.6718676456
21
18.9319302459
31
0.0000000000
11
11.6865760610
21
19.0331113590
31
0.0000000000
0
SPLINE
5
36B
100
AcDbEntity
8
0
100
AcDbSpline
62
9
6
CONTINUOUS
70
0
71
3
72
10
73
6
74
4
42
0.0000001000
43
0.0000001000
44
0.0000000001
12
-0.6098249733
22
-0.4312113343
32
0.0000000000
13
-0.7468799856
23
0.0000001196
33
0.0000000000
40
0.0000000000
40
0.0000000000
40
0.0000000000
40
0.0000000000
40
0.3153518083
40
0.6519065206
40
1.0000000000
40
1.0000000000
40
1.0000000000
40
1.0000000000
10
11.6865777750
20
29.8331094929
30
0.0000000000
10
11.6224746390
20
29.7877817349
30
0.0000000000
10
11.4776775598
20
29.7108111665
30
0.0000000000
10
11.2370504211
20
29.6416436464
30
0.0000000000
10
11.0661321817
20
29.6260027438
30
0.0000000000
10
10.9794708307
20
29.6260027577
30
0.0000000000
11
11.6865777750
21
29.8331094929
31
0.0000000000
11
11.4795627576
21
29.7207745392
31
0.0000000000
11
11.2383352183
21
29.6501053837
31
0.0000000000
11
10.9794708307
21
29.6260027577
31
0.0000000000
0
SPLINE
5
36C
100
AcDbEntity
8
0
100
AcDbSpline
62
9
6
CONTINUOUS
70
0
71
3
72
10
73
6
74
4
42
0.0000001000
43
0.0000001000
44
0.0000000001
12
-0.6098249030
22
-0.4312112846
32
0.0000000000
13
-0.7468798995
23
0.0000001196
33
0.0000000000
40
0.0000000000
40
0.0000000000
40
0.0000000000
40
0.0000000000
40
0.3154838192
40
0.6519679093
40
1.0000000000
40
1.0000000000
40
1.0000000000
40
1.0000000000
10
11.6865760610
20
19.0331113590
30
0.0000000000
10
11.6224460978
20
18.9877646314
30
0.0000000000
10
11.4776301564
20
18.9107936748
30
0.0000000000
10
11.2370003828
20
18.8416397924
30
0.0000000000
10
11.0661151743
20
18.8260046100
30
0.0000000000
10
10.9794691167
20
18.8260046238
30
0.0000000000
11
11.6865760610
21
19.0331113590
31
0.0000000000
11
11.4794692379
21
18.9207389213
31
0.0000000000
11
11.2382882247
21
18.8500986700
31
0.0000000000
11
10.9794691167
21
18.8260046238
31
0.0000000000
0
SPLINE
5
36D
100
AcDbEntity
8
0
100
AcDbSpline
62
9
6
CONTINUOUS
70
0
71
3
72
13
73
9
74
7
42
0.0000001000
43
0.0000001000
44
0.0000000001
12
-5.5151330537
22
-54.9223657836
32
0.0000000000
13
-2.7831123540
23
-55.1283705681
33
0.0000000000
40
0.0000000000
40
0.0000000000
40
0.0000000000
40
0.0000000000
40
0.1276927638
40
0.2709705514
40
0.4298347051
40
0.6042880615
40
0.7943380592
40
1.0000000000
40
1.0000000000
40
1.0000000000
40
1.0000000000
10
-63.2515977198
20
29.0085535624
30
0.0000000000
10
-63.4863452473
20
26.6708240012
30
0.0000000000
10
-63.9685479990
20
21.7084279829
30
0.0000000000
10
-64.6800958156
20
13.8316816433
30
0.0000000000
10
-65.4032017316
20
5.0923267601
30
0.0000000000
10
-66.1177831669
20
-4.5109599192
30
0.0000000000
10
-66.8018561758
20
-14.9795493798
30
0.0000000000
10
-67.2057107548
20
-22.2494017511
30
0.0000000000
10
-67.3965041841
20
-26.0286709788
30
0.0000000000
11
-63.2515977198
21
29.0085535624
31
0.0000000000
11
-63.9333437717
21
21.9931422811
31
0.0000000000
11
-64.6449067012
21
14.1164875743
31
0.0000000000
11
-65.3680494161
21
5.3772801678
31
0.0000000000
11
-66.0826638406
21
-4.2257444379
31
0.0000000000
11
-66.7667683466
21
-14.6939043279
31
0.0000000000
11
-67.3965041841
21
-26.0286709788
31
0.0000000000
0
SPLINE
5
36E
100
AcDbEntity
8
0
100
AcDbSpline
62
9
6
CONTINUOUS
70
0
71
3
72
9
73
5
74
3
42
0.0000001000
43
0.0000001000
44
0.0000000001
12
-0.0047999744
22
-0.3834212488
32
0.0000000000
13
-0.0012810145
23
-0.3834491528
33
0.0000000000
40
0.0000000000
40
0.0000000000
40
0.0000000000
40
0.0000000000
40
0.4433363364
40
1.0000000000
40
1.0000000000
40
1.0000000000
40
1.0000000000
10
20.7208372325
20
41.9540518169
30
0.0000000000
10
20.7201278982
20
41.8973902930
30
0.0000000000
10
20.7234436699
20
41.7695750235
30
0.0000000000
10
20.7223487912
20
41.6417567503
30
0.0000000000
10
20.7221110931
20
41.5706060136
30
0.0000000000
11
20.7208372325
21
41.9540518169
31
0.0000000000
11
20.7222010018
21
41.7840593960
31
0.0000000000
11
20.7221110931
21
41.5706060136
31
0.0000000000
0
SPLINE
5
36F
100
AcDbEntity
8
0
100
AcDbSpline
62
9
6
CONTINUOUS
70
0
71
3
72
10
73
6
74
4
42
0.0000001000
43
0.0000001000
44
0.0000000001
12
-1.4937595951
22
0.0000004917
32
0.0000000000
13
-1.2196499268
23
-0.8624220452
33
0.0000000000
40
0.0000000000
40
0.0000000000
40
0.0000000000
40
0.0000000000
40
0.3480935049
40
0.6846482177
40
1.0000000000
40
1.0000000000
40
1.0000000000
40
1.0000000000
10
20.7221036241
20
30.2254913662
30
0.0000000000
10
20.5487809531
20
30.2254914232
30
0.0000000000
10
20.2069445426
20
30.1942096993
30
0.0000000000
10
19.7256903484
20
30.0558748333
30
0.0000000000
10
19.4360962234
20
29.9019338384
30
0.0000000000
10
19.3078899640
20
29.8112783954
30
0.0000000000
11
20.7221036241
21
30.2254913662
31
0.0000000000
11
20.2043749310
21
30.1772862327
31
0.0000000000
11
19.7219199334
21
30.0359480931
31
0.0000000000
11
19.3078899640
21
29.8112783954
31
0.0000000000
0
SPLINE
5
370
100
AcDbEntity
8
0
100
AcDbSpline
62
9
6
CONTINUOUS
70
0
71
3
72
9
73
5
74
3
42
0.0000001000
43
0.0000001000
44
0.0000000001
12
-0.7546048116
22
0.0000009230
32
0.0000000000
13
-0.7258586829
23
-0.2062949203
33
0.0000000000
40
0.0000000000
40
0.0000000000
40
0.0000000000
40
0.0000000000
40
0.5047785282
40
1.0000000000
40
1.0000000000
40
1.0000000000
40
1.0000000000
10
20.7221110931
20
41.5706060136
30
0.0000000000
10
20.5951416577
20
41.5706061689
30
0.0000000000
10
20.3433178494
20
41.5537107278
30
0.0000000000
10
20.0960625696
20
41.5026356841
30
0.0000000000
10
19.9762423012
20
41.4685817927
30
0.0000000000
11
20.7221110931
21
41.5706060136
31
0.0000000000
11
20.3420752224
21
41.5448402478
31
0.0000000000
11
19.9762423012
21
41.4685817927
31
0.0000000000
0
SPLINE
5
371
100
AcDbEntity
8
0
100
AcDbSpline
62
9
6
CONTINUOUS
70
0
71
3
72
9
73
5
74
3
42
0.0000001000
43
0.0000001000
44
0.0000000001
12
-0.0012810115
22
0.3834480313
32
0.0000000000
13
-0.0047840301
23
0.3834203264
33
0.0000000000
40
0.0000000000
40
0.0000000000
40
0.0000000000
40
0.0000000000
40
0.5582605640
40
1.0000000000
40
1.0000000000
40
1.0000000000
40
1.0000000000
10
-20.7347413757
20
41.5706060136
30
0.0000000000
10
-20.7349797551
20
41.6419606516
30
0.0000000000
10
-20.7360620747
20
41.7697784965
30
0.0000000000
10
-20.7327801121
20
41.8975935460
30
0.0000000000
10
-20.7334845437
20
41.9540508389
30
0.0000000000
11
-20.7347413757
21
41.5706060136
31
0.0000000000
11
-20.7348280381
21
41.7846711048
31
0.0000000000
11
-20.7334845437
21
41.9540508389
31
0.0000000000
0
SPLINE
5
372
100
AcDbEntity
8
0
100
AcDbSpline
62
9
6
CONTINUOUS
70
0
71
3
72
9
73
5
74
3
42
0.0000001000
43
0.0000001000
44
0.0000000001
12
0.7546026234
22
0.0000008197
32
0.0000000000
13
0.7258567314
23
-0.2062937824
33
0.0000000000
40
0.0000000000
40
0.0000000000
40
0.0000000000
40
0.0000000000
40
0.5047986637
40
1.0000000000
40
1.0000000000
40
1.0000000000
40
1.0000000000
10
-20.7347413757
20
41.5706060136
30
0.0000000000
10
-20.6077672438
20
41.5706061515
30
0.0000000000
10
-20.3559441186
20
41.5537100994
30
0.0000000000
10
-20.1086897829
20
41.5026346135
30
0.0000000000
10
-19.9888747084
20
41.4685822946
30
0.0000000000
11
-20.7347413757
21
41.5706060136
31
0.0000000000
11
-20.3546915163
21
41.5448382813
31
0.0000000000
11
-19.9888747084
21
41.4685822946
31
0.0000000000
0
SPLINE
5
373
100
AcDbEntity
8
0
100
AcDbSpline
62
9
6
CONTINUOUS
70
0
71
3
72
10
73
6
74
4
42
0.0000001000
43
0.0000001000
44
0.0000000001
12
1.4937589198
22
0.0000002875
32
0.0000000000
13
1.2196495591
23
-0.8624213955
33
0.0000000000
40
0.0000000000
40
0.0000000000
40
0.0000000000
40
0.0000000000
40
0.3480320974
40
0.6845161865
40
1.0000000000
40
1.0000000000
40
1.0000000000
40
1.0000000000
10
-20.7347370091
20
30.2254913662
30
0.0000000000
10
-20.5614449924
20
30.2254913995
30
0.0000000000
10
-20.2196747743
20
30.1942210929
30
0.0000000000
10
-19.7384154768
20
30.0559135437
30
0.0000000000
10
-19.4487837032
20
29.9019718549
30
0.0000000000
10
-19.3205238052
20
29.8112785247
30
0.0000000000
11
-20.7347370091
21
30.2254913662
31
0.0000000000
11
-20.2170990821
21
30.1773033608
31
0.0000000000
11
-19.7347373018
21
30.0360230764
31
0.0000000000
11
-19.3205238052
21
29.8112785247
31
0.0000000000
0
SPLINE
5
374
100
AcDbEntity
8
0
100
AcDbSpline
62
9
6
CONTINUOUS
70
0
71
3
72
9
73
5
74
3
42
0.0000001000
43
0.0000001000
44
0.0000000001
12
0.4859974395
22
11.3446563455
32
0.0000000000
13
0.4643106325
23
11.3455646288
33
0.0000000000
40
0.0000000000
40
0.0000000000
40
0.0000000000
40
0.0000000000
40
0.4998531828
40
1.0000000000
40
1.0000000000
40
1.0000000000
40
1.0000000000
10
61.2687188130
20
30.2254913662
30
0.0000000000
10
61.3496946019
20
32.1157122268
30
0.0000000000
10
61.5098838562
20
35.8973420926
30
0.0000000000
10
61.6664586457
20
39.6791233340
30
0.0000000000
10
61.7438664740
20
41.5706060136
30
0.0000000000
11
61.2687188130
21
30.2254913662
31
0.0000000000
11
61.5089337335
21
35.8962694975
31
0.0000000000
11
61.7438664740
21
41.5706060136
31
0.0000000000
0
SPLINE
5
375
100
AcDbEntity
8
0
100
AcDbSpline
62
9
6
CONTINUOUS
70
0
71
3
72
10
73
6
74
4
42
0.0000001000
43
0.0000001000
44
0.0000000001
12
1.2723123302
22
-0.0260266422
32
0.0000000000
13
1.1103784282
23
-0.6286454291
33
0.0000000000
40
0.0000000000
40
0.0000000000
40
0.0000000000
40
0.0000000000
40
0.4397878588
40
0.8644128913
40
1.0000000000
40
1.0000000000
40
1.0000000000
40
1.0000000000
10
61.7438664613
20
41.5706060136
30
0.0000000000
10
61.9303822998
20
41.5667906131
30
0.0000000000
10
62.2973241747
20
41.5231032612
30
0.0000000000
10
62.7027617763
20
41.3884713140
30
0.0000000000
10
62.9149138311
20
41.2795023368
30
0.0000000000
10
62.9650981646
20
41.2510902648
30
0.0000000000
11
61.7438664613
21
41.5706060136
31
0.0000000000
11
62.2994958985
21
41.5035212456
31
0.0000000000
11
62.8113428571
21
41.3302843811
31
0.0000000000
11
62.9650981646
21
41.2510902648
31
0.0000000000
0
SPLINE
5
376
100
AcDbEntity
8
0
100
AcDbSpline
62
9
6
CONTINUOUS
70
0
71
3
72
8
73
4
74
2
42
0.0000001000
43
0.0000001000
44
0.0000000001
12
0.1465646197
22
-0.0829781775
32
0.0000000000
13
0.1391658093
23
-0.0947730525
33
0.0000000000
40
0.0000000000
40
0.0000000000
40
0.0000000000
40
0.0000000000
40
1.0000000000
40
1.0000000000
40
1.0000000000
40
1.0000000000
10
62.9650981646
20
41.2510902648
30
0.0000000000
10
63.0139530379
20
41.2234308723
30
0.0000000000
10
63.0617062488
20
41.1938395438
30
0.0000000000
10
63.1080948519
20
41.1622485263
30
0.0000000000
11
62.9650981646
21
41.2510902648
31
0.0000000000
11
63.1080948519
21
41.1622485263
31
0.0000000000
0
SPLINE
5
377
100
AcDbEntity
8
0
100
AcDbSpline
62
9
6
CONTINUOUS
70
0
71
3
72
8
73
4
74
2
42
0.0000001000
43
0.0000001000
44
0.0000000001
12
0.1350772811
22
-0.0919887315
32
0.0000000000
13
0.1266423208
23
-0.1034781052
33
0.0000000000
40
0.0000000000
40
0.0000000000
40
0.0000000000
40
0.0000000000
40
1.0000000000
40
1.0000000000
40
1.0000000000
40
1.0000000000
10
63.1080948519
20
41.1622485263
30
0.0000000000
10
63.1531206122
20
41.1315856158
30
0.0000000000
10
63.1968607682
20
41.0990387874
30
0.0000000000
10
63.2390748751
20
41.0645460856
30
0.0000000000
11
63.1080948519
21
41.1622485263
31
0.0000000000
11
63.2390748751
21
41.0645460856
31
0.0000000000
0
SPLINE
5
378
100
AcDbEntity
8
0
100
AcDbSpline
62
9
6
CONTINUOUS
70
0
71
3
72
9
73
5
74
3
42
0.0000001000
43
0.0000001000
44
0.0000000001
12
0.6800499040
22
-0.5556616073
32
0.0000000000
13
0.1968909772
23
-0.8530697531
33
0.0000000000
40
0.0000000000
40
0.0000000000
40
0.0000000000
40
0.0000000000
40
0.5231981400
40
1.0000000000
40
1.0000000000
40
1.0000000000
40
1.0000000000
10
63.2390748751
20
41.0645460856
30
0.0000000000
10
63.3576751567
20
40.9676390458
30
0.0000000000
10
63.5613356383
20
40.7530619889
30
0.0000000000
10
63.6853678213
20
40.4805443675
30
0.0000000000
10
63.7166604827
20
40.3449626191
30
0.0000000000
11
63.2390748751
21
41.0645460856
31
0.0000000000
11
63.5489875717
21
40.7272459763
31
0.0000000000
11
63.7166604827
21
40.3449626191
31
0.0000000000
0
SPLINE
5
379
100
AcDbEntity
8
0
100
AcDbSpline
62
9
6
CONTINUOUS
70
0
71
3
72
9
73
5
74
3
42
0.0000001000
43
0.0000001000
44
0.0000000001
12
0.4885955309
22
11.3359099736
32
0.0000000000
13
0.4667933723
23
11.3368286778
33
0.0000000000
40
0.0000000000
40
0.0000000000
40
0.0000000000
40
0.0000000000
40
0.4998471719
40
1.0000000000
40
1.0000000000
40
1.0000000000
40
1.0000000000
10
63.2389707795
20
29.0085564277
30
0.0000000000
10
63.3203784776
20
30.8972972749
30
0.0000000000
10
63.4814244315
20
34.6760125626
30
0.0000000000
10
63.6388368775
20
38.4548809558
30
0.0000000000
10
63.7166595526
20
40.3449299307
30
0.0000000000
11
63.2389707795
21
29.0085564277
31
0.0000000000
11
63.4804673851
21
34.6748958279
31
0.0000000000
11
63.7166595526
21
40.3449299307
31
0.0000000000
0
SPLINE
5
37A
100
AcDbEntity
8
0
100
AcDbSpline
62
9
6
CONTINUOUS
70
0
71
3
72
12
73
8
74
6
42
0.0000001000
43
0.0000001000
44
0.0000000001
12
2.4691972110
22
-0.0111135564
32
0.0000000000
13
0.6052253321
23
-2.3939007238
33
0.0000000000
40
0.0000000000
40
0.0000000000
40
0.0000000000
40
0.0000000000
40
0.2256967114
40
0.4438211417
40
0.6471518308
40
0.8322641779
40
1.0000000000
40
1.0000000000
40
1.0000000000
40
1.0000000000
10
61.2687188245
20
30.2254913662
30
0.0000000000
10
61.4544820547
20
30.2246552684
30
0.0000000000
10
61.8199828490
20
30.1766143117
30
0.0000000000
10
62.3289884026
20
30.0090105767
30
0.0000000000
10
62.7606145840
20
29.7482719947
30
0.0000000000
10
63.0816327987
20
29.4127058164
30
0.0000000000
10
63.2051258133
20
29.1422641233
30
0.0000000000
10
63.2389651362
20
29.0084164880
30
0.0000000000
11
61.2687188245
21
30.2254913662
31
0.0000000000
11
61.8219722532
21
30.1584933488
31
0.0000000000
11
62.3321637101
21
29.9858893246
31
0.0000000000
11
62.7592735654
21
29.7219762583
31
0.0000000000
11
63.0695982948
21
29.3863814021
31
0.0000000000
11
63.2389651362
21
29.0084164880
31
0.0000000000
0
SPLINE
5
37B
100
AcDbEntity
8
0
100
AcDbSpline
62
9
6
CONTINUOUS
70
0
71
3
72
9
73
5
74
3
42
0.0000001000
43
0.0000001000
44
0.0000000001
12
0.4643106325
22
-11.3455646288
32
0.0000000000
13
0.4859974403
23
-11.3446563455
33
0.0000000000
40
0.0000000000
40
0.0000000000
40
0.0000000000
40
0.0000000000
40
0.5001468649
40
1.0000000000
40
1.0000000000
40
1.0000000000
40
1.0000000000
10
-61.7564936074
20
41.5706060136
30
0.0000000000
10
-61.6790857717
20
39.6791231536
30
0.0000000000
10
-61.5225109834
20
35.8973419121
30
0.0000000000
10
-61.3623217279
20
32.1157120463
30
0.0000000000
10
-61.2813459466
20
30.2254913662
30
0.0000000000
11
-61.7564936074
21
41.5706060136
31
0.0000000000
11
-61.5215608450
21
35.8962689561
31
0.0000000000
11
-61.2813459466
21
30.2254913662
31
0.0000000000
0
SPLINE
5
37C
100
AcDbEntity
8
0
100
AcDbSpline
62
9
6
CONTINUOUS
70
0
71
3
72
12
73
8
74
6
42
0.0000001000
43
0.0000001000
44
0.0000000001
12
-2.4686528619
22
-0.0528777282
32
0.0000000000
13
-0.5795992383
23
-2.4002307660
33
0.0000000000
40
0.0000000000
40
0.0000000000
40
0.0000000000
40
0.0000000000
40
0.2254900700
40
0.4433288398
40
0.6465004415
40
0.8314572729
40
1.0000000000
40
1.0000000000
40
1.0000000000
40
1.0000000000
10
-61.2813459588
20
30.2254913662
30
0.0000000000
10
-61.4668981943
20
30.2215168986
30
0.0000000000
10
-61.8320020483
20
30.1778741206
30
0.0000000000
10
-62.3406653193
20
30.0093687292
30
0.0000000000
10
-62.7718817160
20
29.7490323698
30
0.0000000000
10
-63.0931540442
20
29.4137811030
30
0.0000000000
10
-63.2190298583
20
29.1432636344
30
0.0000000000
10
-63.2515922704
20
29.0084164880
30
0.0000000000
11
-61.2813459588
21
30.2254913662
31
0.0000000000
11
-61.8340877120
21
30.1585181570
31
0.0000000000
11
-62.3437317424
21
29.9864995744
31
0.0000000000
11
-62.7705406920
21
29.7228480465
31
0.0000000000
11
-63.0812359209
21
29.3881206968
31
0.0000000000
11
-63.2515922704
21
29.0084164880
31
0.0000000000
0
SPLINE
5
37D
100
AcDbEntity
8
0
100
AcDbSpline
62
9
6
CONTINUOUS
70
0
71
3
72
9
73
5
74
3
42
0.0000001000
43
0.0000001000
44
0.0000000001
12
0.4667934969
22
-11.3368316362
32
0.0000000000
13
0.4885956630
23
-11.3359129316
33
0.0000000000
40
0.0000000000
40
0.0000000000
40
0.0000000000
40
0.0000000000
40
0.5001527550
40
1.0000000000
40
1.0000000000
40
1.0000000000
40
1.0000000000
10
-63.7292866220
20
40.3449300234
30
0.0000000000
10
-63.6514639375
20
38.4548808314
30
0.0000000000
10
-63.4940515891
20
34.6760114462
30
0.0000000000
10
-63.3330054518
20
30.8972951784
30
0.0000000000
10
-63.2515977198
20
29.0085535624
30
0.0000000000
11
-63.7292866220
21
40.3449300234
31
0.0000000000
11
-63.4930944956
21
34.6748952664
31
0.0000000000
11
-63.2515977198
21
29.0085535624
31
0.0000000000
0
SPLINE
5
37E
100
AcDbEntity
8
0
100
AcDbSpline
62
9
6
CONTINUOUS
70
0
71
3
72
10
73
6
74
4
42
0.0000001000
43
0.0000001000
44
0.0000000001
12
-1.2730055051
22
-0.0456730087
32
0.0000000000
13
-1.1109484073
23
-0.6305617733
33
0.0000000000
40
0.0000000000
40
0.0000000000
40
0.0000000000
40
0.0000000000
40
0.4398430215
40
0.8643834222
40
1.0000000000
40
1.0000000000
40
1.0000000000
40
1.0000000000
10
-61.7564935956
20
41.5706060136
30
0.0000000000
10
-61.9431344582
20
41.5639096955
30
0.0000000000
10
-62.3105237120
20
41.5242141973
30
0.0000000000
10
-62.7163340978
20
41.3882448816
30
0.0000000000
10
-62.9286045836
20
41.2788793191
30
0.0000000000
10
-62.9788255906
20
41.2503744425
30
0.0000000000
11
-61.7564935956
21
41.5706060136
31
0.0000000000
11
-62.3127260603
21
41.5033578494
31
0.0000000000
11
-62.8249392877
21
41.3298890413
31
0.0000000000
11
-62.9788255906
21
41.2503744425
31
0.0000000000
0
SPLINE
5
37F
100
AcDbEntity
8
0
100
AcDbSpline
62
9
6
CONTINUOUS
70
0
71
3
72
8
73
4
74
2
42
0.0000001000
43
0.0000001000
44
0.0000000001
12
-0.1468501392
22
-0.0833504811
32
0.0000000000
13
-0.1393753096
23
-0.0951292223
33
0.0000000000
40
0.0000000000
40
0.0000000000
40
0.0000000000
40
0.0000000000
40
1.0000000000
40
1.0000000000
40
1.0000000000
40
1.0000000000
10
-62.9788255906
20
41.2503744425
30
0.0000000000
10
-63.0277756370
20
41.2225909488
30
0.0000000000
10
-63.0756135332
20
41.1928817800
30
0.0000000000
10
-63.1220719697
20
41.1611720392
30
0.0000000000
11
-62.9788255906
21
41.2503744425
31
0.0000000000
11
-63.1220719697
21
41.1611720392
31
0.0000000000
0
SPLINE
5
380
100
AcDbEntity
8
0
100
AcDbSpline
62
9
6
CONTINUOUS
70
0
71
3
72
8
73
4
74
2
42
0.0000001000
43
0.0000001000
44
0.0000000001
12
-0.1350358513
22
-0.0921673685
32
0.0000000000
13
-0.1265371327
23
-0.1036393307
33
0.0000000000
40
0.0000000000
40
0.0000000000
40
0.0000000000
40
0.0000000000
40
1.0000000000
40
1.0000000000
40
1.0000000000
40
1.0000000000
10
-63.1220719697
20
41.1611720392
30
0.0000000000
10
-63.1670839202
20
41.1304495831
30
0.0000000000
10
-63.2108009728
20
41.0978491915
30
0.0000000000
10
-63.2529800170
20
41.0633027479
30
0.0000000000
11
-63.1220719697
21
41.1611720392
31
0.0000000000
11
-63.2529800170
21
41.0633027479
31
0.0000000000
0
SPLINE
5
381
100
AcDbEntity
8
0
100
AcDbSpline
62
9
6
CONTINUOUS
70
0
71
3
72
9
73
5
74
3
42
0.0000001000
43
0.0000001000
44
0.0000000001
12
-0.6777312699
22
-0.5550909341
32
0.0000000000
13
-0.1884457975
23
-0.8531982302
33
0.0000000000
40
0.0000000000
40
0.0000000000
40
0.0000000000
40
0.0000000000
40
0.5239195289
40
1.0000000000
40
1.0000000000
40
1.0000000000
40
1.0000000000
10
-63.2529800170
20
41.0633027479
30
0.0000000000
10
-63.3713388996
20
40.9663617544
30
0.0000000000
10
-63.5741338719
20
40.7520833138
30
0.0000000000
10
-63.6993824956
20
40.4803596236
30
0.0000000000
10
-63.7292876169
20
40.3449626185
30
0.0000000000
11
-63.2529800170
21
41.0633027479
31
0.0000000000
11
-63.5625495654
21
40.7260641924
31
0.0000000000
11
-63.7292876169
21
40.3449626185
31
0.0000000000
0
SPLINE
5
382
100
AcDbEntity
8
0
100
AcDbSpline
62
9
6
CONTINUOUS
70
0
71
3
72
8
73
4
74
2
42
0.0000001000
43
0.0000001000
44
0.0000000001
12
0.0057940457
22
0.0879847237
32
0.0000000000
13
0.0058780744
23
0.0879804678
33
0.0000000000
40
0.0000000000
40
0.0000000000
40
0.0000000000
40
0.0000000000
40
1.0000000000
40
1.0000000000
40
1.0000000000
40
1.0000000000
10
-68.6050076946
20
22.0903921761
30
0.0000000000
10
-68.6030763460
20
22.1197204174
30
0.0000000000
10
-68.6011310423
20
22.1490479650
30
0.0000000000
10
-68.5991716842
20
22.1783747876
30
0.0000000000
11
-68.6050076946
21
22.0903921761
31
0.0000000000
11
-68.5991716842
21
22.1783747876
31
0.0000000000
0
SPLINE
5
383
100
AcDbEntity
8
0
100
AcDbSpline
62
9
6
CONTINUOUS
70
0
71
3
72
12
73
8
74
6
42
0.0000001000
43
0.0000001000
44
0.0000000001
12
1.2692302026
22
18.9972870046
32
0.0000000000
13
11.8497693297
23
14.9023492669
33
0.0000000000
40
0.0000000000
40
0.0000000000
40
0.0000000000
40
0.0000000000
40
0.2565992169
40
0.4866439838
40
0.6865312732
40
0.8571423405
40
1.0000000000
40
1.0000000000
40
1.0000000000
40
1.0000000000
10
-68.5991716842
20
22.1783747876
30
0.0000000000
10
-68.4906105255
20
23.8032711102
30
0.0000000000
10
-68.2028966825
20
26.8806883977
30
0.0000000000
10
-67.4923167933
20
31.1837322121
30
0.0000000000
10
-66.5291566901
20
34.8790324381
30
0.0000000000
10
-65.3302365294
20
37.9177735409
30
0.0000000000
10
-64.2935633927
20
39.6352917776
30
0.0000000000
10
-63.7292866220
20
40.3449300234
30
0.0000000000
11
-68.5991716842
21
22.1783747876
31
0.0000000000
11
-68.1271496155
21
27.0410421154
31
0.0000000000
11
-67.3910907280
21
31.3586544921
31
0.0000000000
11
-66.4033021708
21
35.0339527596
31
0.0000000000
11
-65.1751943315
21
38.0411715030
31
0.0000000000
11
-63.7292866220
21
40.3449300234
31
0.0000000000
0
SPLINE
5
384
100
AcDbEntity
8
0
100
AcDbSpline
62
9
6
CONTINUOUS
70
0
71
3
72
12
73
8
74
6
42
0.0000001000
43
0.0000001000
44
0.0000000001
12
11.8497591282
22
-14.9023359366
32
0.0000000000
13
1.2692324881
23
-18.9972700837
33
0.0000000000
40
0.0000000000
40
0.0000000000
40
0.0000000000
40
0.0000000000
40
0.1428577804
40
0.3134689966
40
0.5133564629
40
0.7434014326
40
1.0000000000
40
1.0000000000
40
1.0000000000
40
1.0000000000
10
63.7166595526
20
40.3449299307
30
0.0000000000
10
64.2809363150
20
39.6352917192
30
0.0000000000
10
65.3176093888
20
37.9177734894
30
0.0000000000
10
66.5165295684
20
34.8790324397
30
0.0000000000
10
67.4796896547
20
31.1837322111
30
0.0000000000
10
68.1902686420
20
26.8806938840
30
0.0000000000
10
68.4779823595
20
23.8032821826
30
0.0000000000
10
68.5865434389
20
22.1783914197
30
0.0000000000
11
63.7166595526
21
40.3449299307
31
0.0000000000
11
65.1625671984
21
38.0411714838
31
0.0000000000
11
66.3906750364
21
35.0339527683
31
0.0000000000
11
67.3784635938
21
31.3586544890
31
0.0000000000
11
68.1145224813
21
27.0410421132
31
0.0000000000
11
68.5865434389
21
22.1783914197
31
0.0000000000
0
SPLINE
5
385
100
AcDbEntity
8
0
100
AcDbSpline
62
9
6
CONTINUOUS
70
0
71
3
72
8
73
4
74
2
42
0.0000001000
43
0.0000001000
44
0.0000000001
12
0.0058792014
22
-0.0879970990
32
0.0000000000
13
0.0057951408
23
-0.0880013566
33
0.0000000000
40
0.0000000000
40
0.0000000000
40
0.0000000000
40
0.0000000000
40
1.0000000000
40
1.0000000000
40
1.0000000000
40
1.0000000000
10
68.5865434389
20
22.1783914197
30
0.0000000000
10
68.5885031727
20
22.1490590533
30
0.0000000000
10
68.5904488467
20
22.1197259617
30
0.0000000000
10
68.5923805603
20
22.0903921761
30
0.0000000000
11
68.5865434389
21
22.1783914197
31
0.0000000000
11
68.5923805603
21
22.0903921761
31
0.0000000000
0
SPLINE
5
386
100
AcDbEntity
8
0
100
AcDbSpline
62
9
6
CONTINUOUS
70
0
71
3
72
13
73
9
74
7
42
0.0000001000
43
0.0000001000
44
0.0000000001
12
-2.7682224972
22
55.0304238099
32
0.0000000000
13
-5.4857793321
23
54.8262421255
33
0.0000000000
40
0.0000000000
40
0.0000000000
40
0.0000000000
40
0.0000000000
40
0.2064365797
40
0.3969533063
40
0.5715629288
40
0.7302728925
40
0.8730861834
40
1.0000000000
40
1.0000000000
40
1.0000000000
40
1.0000000000
10
65.3908267075
20
-26.1289044826
30
0.0000000000
10
65.2003392461
20
-22.3421403258
30
0.0000000000
10
64.7982379724
20
-15.0623778523
30
0.0000000000
10
64.1152780285
20
-4.5867614614
30
0.0000000000
10
63.4032987619
20
5.0081055611
30
0.0000000000
10
62.6842871516
20
13.7235649358
30
0.0000000000
10
61.9780366838
20
21.5608303993
30
0.0000000000
10
61.5014104826
20
26.4918759235
30
0.0000000000
10
61.2693367518
20
28.8112784703
30
0.0000000000
11
65.3908267075
21
-26.1289044826
31
0.0000000000
11
64.7625800151
21
-14.7716107750
31
0.0000000000
11
64.0799413585
21
-4.2963572214
31
0.0000000000
11
63.3678818311
21
5.2982476127
31
0.0000000000
11
62.6487257782
21
14.0135466900
31
0.0000000000
11
61.9428568582
21
21.8508368048
31
0.0000000000
11
61.2693367518
21
28.8112784703
31
0.0000000000
0
SPLINE
5
387
100
AcDbEntity
8
0
100
AcDbSpline
62
9
6
CONTINUOUS
70
0
71
3
72
13
73
9
74
7
42
0.0000001000
43
0.0000001000
44
0.0000000001
12
-2.7831124569
22
55.1283715000
32
0.0000000000
13
-5.5151330928
23
54.9223667203
33
0.0000000000
40
0.0000000000
40
0.0000000000
40
0.0000000000
40
0.0000000000
40
0.2064353572
40
0.3969495271
40
0.5715576852
40
0.7302672408
40
0.8730809351
40
1.0000000000
40
1.0000000000
40
1.0000000000
40
1.0000000000
10
67.3838768386
20
-26.0286695623
30
0.0000000000
10
67.1923659005
20
-22.2351878747
30
0.0000000000
10
66.7871097825
20
-14.9426054541
30
0.0000000000
10
66.1008450277
20
-4.4484840448
30
0.0000000000
10
65.3850027896
20
5.1632772263
30
0.0000000000
10
64.6620291792
20
13.8940783969
30
0.0000000000
10
63.9523911366
20
21.7452731277
30
0.0000000000
10
63.4722959578
20
26.6849912854
30
0.0000000000
10
63.2389707795
20
29.0085564277
30
0.0000000000
11
67.3838768386
21
-26.0286695623
31
0.0000000000
11
66.7515561814
21
-14.6512890040
31
0.0000000000
11
66.0652594350
21
-4.1575959175
31
0.0000000000
11
65.3493840465
21
5.4539034573
31
0.0000000000
11
64.6263734452
21
14.1845591690
31
0.0000000000
11
63.9167207548
21
22.0356649574
31
0.0000000000
11
63.2389707795
21
29.0085564277
31
0.0000000000
0
SPLINE
5
388
100
AcDbEntity
8
0
100
AcDbSpline
62
9
6
CONTINUOUS
70
0
71
3
72
9
73
5
74
3
42
0.0000001000
43
0.0000001000
44
0.0000000001
12
-0.6622165081
22
12.2286420481
32
0.0000000000
13
-1.8069842015
23
12.1125152277
33
0.0000000000
40
0.0000000000
40
0.0000000000
40
0.0000000000
40
0.0000000000
40
0.4993366960
40
1.0000000000
40
1.0000000000
40
1.0000000000
40
1.0000000000
10
66.6289240579
20
-39.9274237214
30
0.0000000000
10
66.5187010569
20
-37.8920204825
30
0.0000000000
10
66.2014489270
20
-33.8204686450
30
0.0000000000
10
65.6930948389
20
-29.7683684495
30
0.0000000000
10
65.3915312787
20
-27.7469378182
30
0.0000000000
11
66.6289240579
21
-39.9274237214
31
0.0000000000
11
66.1542209813
21
-33.8307200152
31
0.0000000000
11
65.3915312787
21
-27.7469378182
31
0.0000000000
0
SPLINE
5
389
100
AcDbEntity
8
0
100
AcDbSpline
62
9
6
CONTINUOUS
70
0
71
3
72
12
73
8
74
6
42
0.0000001000
43
0.0000001000
44
0.0000000001
12
2.8757743809
22
0.0977370415
32
0.0000000000
13
0.0201049798
23
2.8773645249
33
0.0000000000
40
0.0000000000
40
0.0000000000
40
0.0000000000
40
0.0000000000
40
0.2173164669
40
0.4301560914
40
0.6325134554
40
0.8218393660
40
1.0000000000
40
1.0000000000
40
1.0000000000
40
1.0000000000
10
65.3915271865
20
-27.7469378181
30
0.0000000000
10
65.5998448959
20
-27.7398578619
30
0.0000000000
10
66.0107994366
20
-27.6608405996
30
0.0000000000
10
66.5682213157
20
-27.4069667920
30
0.0000000000
10
67.0166847664
20
-27.0262183810
30
0.0000000000
10
67.3121997416
20
-26.5547193105
30
0.0000000000
10
67.3826857375
20
-26.1995597813
30
0.0000000000
10
67.3838797095
20
-26.0286820852
30
0.0000000000
11
65.3915271865
21
-27.7469378181
31
0.0000000000
11
66.0069431787
21
-27.6361194949
31
0.0000000000
11
66.5622459961
21
-27.3778330245
31
0.0000000000
11
67.0030116605
21
-26.9973542281
31
0.0000000000
11
67.2861157540
21
-26.5319193276
31
0.0000000000
11
67.3838797095
21
-26.0286820852
31
0.0000000000
0
SPLINE
5
38A
100
AcDbEntity
8
0
100
AcDbSpline
62
9
6
CONTINUOUS
70
0
71
3
72
9
73
5
74
3
42
0.0000001000
43
0.0000001000
44
0.0000000001
12
-0.6881117238
22
11.6644013849
32
0.0000000000
13
-1.7243026178
23
11.5567529131
33
0.0000000000
40
0.0000000000
40
0.0000000000
40
0.0000000000
40
0.0000000000
40
0.4992433723
40
1.0000000000
40
1.0000000000
40
1.0000000000
40
1.0000000000
10
68.5925449967
20
-37.6477473618
30
0.0000000000
10
68.4780332575
20
-35.7066223340
30
0.0000000000
10
68.1613635404
20
-31.8231534149
30
0.0000000000
10
67.6716954932
20
-27.9577097675
30
0.0000000000
10
67.3838768386
20
-26.0286695623
30
0.0000000000
11
68.5925449967
21
-37.6477473618
31
0.0000000000
11
68.1187239563
21
-31.8335227849
31
0.0000000000
11
67.3838768386
21
-26.0286695623
31
0.0000000000
0
SPLINE
5
38B
100
AcDbEntity
8
0
100
AcDbSpline
62
7
6
CONTINUOUS
70
0
71
3
72
11
73
7
74
5
42
0.0000001000
43
0.0000001000
44
0.0000000001
12
0.0036960725
22
-1.9350651728
32
0.0000000000
13
-1.3630887027
23
-1.3734919266
33
0.0000000000
40
0.0000000000
40
0.0000000000
40
0.0000000000
40
0.0000000000
40
0.2173810784
40
0.4559568231
40
0.7174433382
40
1.0000000000
40
1.0000000000
40
1.0000000000
40
1.0000000000
10
68.5925428007
20
-37.6477473964
30
0.0000000000
10
68.5928106194
20
-37.7879629144
30
0.0000000000
10
68.5505504265
20
-38.0828583617
30
0.0000000000
10
68.3809850519
20
-38.5167190108
30
0.0000000000
10
68.1108473765
20
-38.9461683254
30
0.0000000000
10
67.8784386884
20
-39.2109155236
30
0.0000000000
10
67.7500554239
20
-39.3402786215
30
0.0000000000
11
68.5925428007
21
-37.6477473964
31
0.0000000000
11
68.5376259711
21
-38.0647945289
31
0.0000000000
11
68.3740132275
21
-38.4964903102
31
0.0000000000
11
68.1078123725
21
-38.9268011383
31
0.0000000000
11
67.7500554239
21
-39.3402786215
31
0.0000000000
0
SPLINE
5
38C
100
AcDbEntity
8
0
100
AcDbSpline
62
7
6
CONTINUOUS
70
0
71
3
72
11
73
7
74
5
42
0.0000001000
43
0.0000001000
44
0.0000000001
12
-0.9129271479
22
-0.9196891432
32
0.0000000000
13
-1.2958642281
23
0.0000000000
33
0.0000000000
40
0.0000000000
40
0.0000000000
40
0.0000000000
40
0.0000000000
40
0.2829393230
40
0.5412436487
40
0.7820888165
40
1.0000000000
40
1.0000000000
40
1.0000000000
40
1.0000000000
10
67.7500554239
20
-39.3402786215
30
0.0000000000
10
67.6639544275
20
-39.4270173627
30
0.0000000000
10
67.4895456488
20
-39.5838008929
30
0.0000000000
10
67.2085122533
20
-39.7735853922
30
0.0000000000
10
66.9220383095
20
-39.8977972241
30
0.0000000000
10
66.7230518271
20
-39.9274237214
30
0.0000000000
10
66.6289240579
20
-39.9274237214
30
0.0000000000
11
67.7500554239
21
-39.3402786215
31
0.0000000000
11
67.4761199487
21
-39.5839839202
31
0.0000000000
11
67.1968684216
21
-39.7685400740
31
0.0000000000
11
66.9085464521
21
-39.8880327439
31
0.0000000000
11
66.6289240579
21
-39.9274237214
31
0.0000000000
0
SPLINE
5
38D
100
AcDbEntity
8
0
100
AcDbSpline
62
7
6
CONTINUOUS
70
0
71
3
72
13
73
9
74
7
42
0.0000001000
43
0.0000001000
44
0.0000000001
12
-0.0000005894
22
-3.7135411458
32
0.0000000000
13
3.5077741966
23
1.2385538214
33
0.0000000000
40
0.0000000000
40
0.0000000000
40
0.0000000000
40
0.0000000000
40
0.2089601910
40
0.3862200395
40
0.5472290846
40
0.7153133158
40
0.9100659681
40
1.0000000000
40
1.0000000000
40
1.0000000000
40
1.0000000000
10
11.7825943720
20
26.2967843066
30
0.0000000000
10
11.7825943310
20
26.0381235509
30
0.0000000000
10
11.8309963180
20
25.5564847286
30
0.0000000000
10
12.1096033974
20
24.9214040108
30
0.0000000000
10
12.6001465432
20
24.4945347088
30
0.0000000000
10
13.2496727948
20
24.3358556513
30
0.0000000000
10
13.8139826580
20
24.4071146484
30
0.0000000000
10
14.1522077634
20
24.5094762642
30
0.0000000000
10
14.2573638555
20
24.5466056438
30
0.0000000000
11
11.7825943720
21
26.2967843066
31
0.0000000000
11
11.8783599529
21
25.5267340275
31
0.0000000000
11
12.1605732602
21
24.9320373246
31
0.0000000000
11
12.6146511181
21
24.5430461825
31
0.0000000000
11
13.2171067155
21
24.3797747881
31
0.0000000000
11
13.9368575994
21
24.4505470207
31
0.0000000000
11
14.2573638555
21
24.5466056438
31
0.0000000000
0
SPLINE
5
38E
100
AcDbEntity
8
0
100
AcDbSpline
62
7
6
CONTINUOUS
70
0
71
3
72
15
73
11
74
9
42
0.0000001000
43
0.0000001000
44
0.0000000001
12
-9.0915335410
22
0.0000009312
32
0.0000000000
13
2.5356995239
23
-8.7699994903
33
0.0000000000
40
0.0000000000
40
0.0000000000
40
0.0000000000
40
0.0000000000
40
0.1612113526
40
0.3178425405
40
0.4660157044
40
0.6032948764
40
0.7294558100
40
0.8470964203
40
0.9615064037
40
1.0000000000
40
1.0000000000
40
1.0000000000
40
1.0000000000
10
-0.0063135671
20
29.0717293724
30
0.0000000000
10
-0.4948663735
20
29.0717294225
30
0.0000000000
10
-1.4602052126
20
28.9901339074
30
0.0000000000
10
-2.8327316296
20
28.6276740092
30
0.0000000000
10
-4.0489601208
20
28.0444100729
30
0.0000000000
10
-5.0406496445
20
27.2690285185
30
0.0000000000
10
-5.7492209358
20
26.3379152395
30
0.0000000000
10
-6.1225343643
20
25.2977357739
30
0.0000000000
10
-6.1225343601
20
24.4610653545
30
0.0000000000
10
-6.0175349997
20
24.0072191190
30
0.0000000000
10
-5.9849989351
20
23.8946895123
30
0.0000000000
11
-0.0063135671
21
29.0717293724
31
0.0000000000
11
-1.4665995227
21
28.9463518263
31
0.0000000000
11
-2.8420189861
21
28.5775053725
31
0.0000000000
11
-4.0526375724
21
27.9866260223
31
0.0000000000
11
-5.0280985226
21
27.2080535337
31
0.0000000000
11
-5.7117115844
21
26.2870357105
31
0.0000000000
11
-6.0637476453
21
25.2770987639
31
0.0000000000
11
-6.0637476453
21
24.2369365631
31
0.0000000000
11
-5.9849989351
21
23.8946895123
31
0.0000000000
0
SPLINE
5
38F
100
AcDbEntity
8
0
100
AcDbSpline
62
7
6
CONTINUOUS
70
0
71
3
72
8
73
4
74
2
42
0.0000001000
43
0.0000001000
44
0.0000000001
12
0.0863848313
22
-0.2987715696
32
0.0000000000
13
0.1139146025
23
-0.2895733915
33
0.0000000000
40
0.0000000000
40
0.0000000000
40
0.0000000000
40
0.0000000000
40
1.0000000000
40
1.0000000000
40
1.0000000000
40
1.0000000000
10
-5.9849989351
20
23.8946895123
30
0.0000000000
10
-5.9562039913
20
23.7950989891
30
0.0000000000
10
-5.9226293258
20
23.6968607844
30
0.0000000000
10
-5.8846577917
20
23.6003363206
30
0.0000000000
11
-5.9849989351
21
23.8946895123
31
0.0000000000
11
-5.8846577917
21
23.6003363206
31
0.0000000000
0
SPLINE
5
390
100
AcDbEntity
8
0
100
AcDbSpline
62
7
6
CONTINUOUS
70
0
71
3
72
13
73
9
74
7
42
0.0000001000
43
0.0000001000
44
0.0000000001
12
-0.0000004261
22
-3.7135420155
32
0.0000000000
13
-3.5077750780
23
1.2385537891
33
0.0000000000
40
0.0000000000
40
0.0000000000
40
0.0000000000
40
0.0000000000
40
0.2089611331
40
0.3862215418
40
0.5472312339
40
0.7153165074
40
0.9100706690
40
1.0000000000
40
1.0000000000
40
1.0000000000
40
1.0000000000
10
-11.7952236050
20
26.2967851535
30
0.0000000000
10
-11.7952236346
20
26.0381231711
30
0.0000000000
10
-11.8436243575
20
25.5564821068
30
0.0000000000
10
-12.1222350730
20
24.9213993647
30
0.0000000000
10
-12.6127831026
20
24.4945308248
30
0.0000000000
10
-13.2623146792
20
24.3358555049
30
0.0000000000
10
-13.8266214573
20
24.4071177178
30
0.0000000000
10
-14.1648425864
20
24.5094789994
30
0.0000000000
10
-14.2699932084
20
24.5466064373
30
0.0000000000
11
-11.7952236050
21
26.2967851535
31
0.0000000000
11
-11.8909890938
21
25.5267311543
31
0.0000000000
11
-12.1732051494
21
24.9320332822
31
0.0000000000
11
-12.6272871022
21
24.5430430124
31
0.0000000000
11
-13.2297476827
21
24.3797746475
31
0.0000000000
11
-13.9495038703
21
24.4505519445
31
0.0000000000
11
-14.2699932084
21
24.5466064373
31
0.0000000000
0
ENDSEC
0
SECTION
2
OBJECTS
0
DICTIONARY
5
391
100
AcDbDictionary
3
ACAD_GROUP
350
392
3
ACAD_MLINESTYLE
350
393
0
DICTIONARY
5
392
102
{ACAD_REACTORS
330
391
102
}
100
AcDbDictionary
0
DICTIONARY
5
393
102
{ACAD_REACTORS
330
391
102
}
100
AcDbDictionary
3
STANDARD
350
394
0
MLINESTYLE
5
394
102
{ACAD_REACTORS
330
393
102
}
100
AcDbMlineStyle
2
STANDARD
70
0
3

62
256
51
90.0
52
90.0
71
2
49
0.5
62
256
6
BYLAYER
49
-0.5
62
256
6
BYLAYER
0
ENDSEC
0
EOF
