  0
SECTION
  2
HEADER
  9
$ACADVER
  1
AC1021
  9
$DWGCODEPAGE
  3
ANSI_1252
  9
$EXTMAX
 10
297.0
 20
210.0
 30
0.0
  9
$EXTMIN
 10
0.0
 20
0.0
 30
0.0
  9
$LIMMIN
 10
0.0
 20
0.0
  9
$LIMMAX
 10
297.0
 20
210.0
  9
$VIEWCTR
 10
148.5
 20
105.0
  9
$VIEWSIZE
 40
210.0
  9
$CLAYER
  8
0
  9
$LTSCALE
 40
16.335
  9
$CELTYPE
  6
BYLAYER
  9
$DIMSCALE
 40
1.0
  9
$DIMASZ
 40
3.0
  9
$DIMEXO
 40
0.5
  9
$DIMDLI
 40
11.286
  9
$DIMEXE
 40
1.5
  9
$DIMCEN
 40
2.673
  9
$DIMLFAC
 40
1.0
  9
$DIMBLK
  1
_FILLED
  9
$DIMALT
 70
0
  9
$DIMALTF
 40
0.0393700787
  9
$DIMTXT
 40
3.0
  9
$DIMTOL
 70
1
  9
$DIMLIM
 70
0
  9
$DIMTFAC
 40
1.0
  9
$DIMTP
 40
0.01
  9
$DIMTM
 40
0.01
  9
$DIMGAP
 40
0.625
  9
$DIMDSEP
 70
44
  9
$AUNITS
 70
0
  9
$PDMODE
 70
3
  9
$PDSIZE
 40
3.0
  9
$HANDSEED
  5
5A3
  9
$TILEMODE
 70
1
  9
$MEASUREMENT
 70
1
  9
$INSUNITS
 70
4
  0
ENDSEC
  0
SECTION
  2
CLASSES
  0
CLASS
  1
ACDBDICTIONARYWDFLT
  2
AcDbDictionaryWithDefault
  3
AutoCAD 2000
 90
0
 91
1
280
0
281
0
  0
CLASS
  1
ACDBPLACEHOLDER
  2
AcDbPlaceHolder
  3
AutoCAD 2000
 90
0
 91
1
280
0
281
0
  0
CLASS
  1
LAYOUT
  2
AcDbLayout
  3
AutoCAD 2000
 90
0
 91
0
280
0
281
0
  0
ENDSEC
  0
SECTION
  2
TABLES
  0
TABLE
  2
VPORT
  5
8
100
AcDbSymbolTable
 70
2
  0
VPORT
  5
1F4
100
AcDbSymbolTableRecord
100
AcDbViewportTableRecord
  2
*ACTIVE
 70
0
 10
0.0
 20
0.0
 11
1.0
 21
1.0
 12
148.5
 22
105.0
 13
0.0
 23
0.0
 14
1.0
 24
1.0
 15
0.0
 25
0.0
 16
0.0
 26
0.0
 36
1.0
 17
0.0
 27
0.0
 37
0.0
 40
210.0
 41
1.4142857143
 42
50.0
 43
0.0
 44
0.0
 50
0.0
 51
0.0
 71
0
 72
100
 73
1
 74
1
 75
0
 76
0
 77
0
 78
0
  0
ENDTAB
  0
TABLE
  2
LTYPE
  5
5
100
AcDbSymbolTable
 70
6
  0
LTYPE
  5
14
100
AcDbSymbolTableRecord
100
AcDbLinetypeTableRecord
  2
BYBLOCK
 70
0
  3

 72
65
 73
0
 40
0.0
  0
LTYPE
  5
15
100
AcDbSymbolTableRecord
100
AcDbLinetypeTableRecord
  2
BYLAYER
 70
0
  3

 72
65
 73
0
 40
0.0
  0
LTYPE
  5
16
100
AcDbSymbolTableRecord
100
AcDbLinetypeTableRecord
  2
CONTINUOUS
 70
64
  3
Solid line
 72
65
 73
0
 40
0.0
  0
LTYPE
  5
1F5
100
AcDbSymbolTableRecord
100
AcDbLinetypeTableRecord
  2
CENTER
 70
64
  3
____ _ ____ _ ____ _ ____ _ ____ _ ____ _ ____
 72
65
 73
4
 40
0.6
 49
0.375
 74
0
 49
-0.075
 74
0
 49
0.075
 74
0
 49
-0.075
 74
0
  0
LTYPE
  5
1F6
100
AcDbSymbolTableRecord
100
AcDbLinetypeTableRecord
  2
HIDDEN
 70
64
  3
- - - - - - - - - - - - - - - - - - - -
 72
65
 73
2
 40
0.2
 49
0.1
 74
0
 49
-0.1
 74
0
  0
LTYPE
  5
1F7
100
AcDbSymbolTableRecord
100
AcDbLinetypeTableRecord
  2
PHANTOM
 70
64
  3
_____ _ _ _____ _ _ _____ _ _ _____
 72
65
 73
6
 40
0.8
 49
0.45
 74
0
 49
-0.05
 74
0
 49
0.1
 74
0
 49
-0.05
 74
0
 49
0.1
 74
0
 49
-0.05
 74
0
  0
LTYPE
  5
1F8
100
AcDbSymbolTableRecord
100
AcDbLinetypeTableRecord
  2
DOT
 70
64
  3
. . . . . . . . . . . . . . . . . . . .
 72
65
 73
2
 40
0.2
 49
0.1
 74
0
 49
-0.1
 74
0
  0
LTYPE
  5
1F9
100
AcDbSymbolTableRecord
100
AcDbLinetypeTableRecord
  2
DASHED
 70
64
  3
- - - - - - - - - - - - - - - - - - - -
 72
65
 73
2
 40
0.2
 49
0.1
 74
0
 49
-0.1
 74
0
  0
ENDTAB
  0
TABLE
  2
LAYER
  5
2
100
AcDbSymbolTable
 70
36
  0
LAYER
  5
10
100
AcDbSymbolTableRecord
100
AcDbLayerTableRecord
  2
0
 70
0
 62
7
  6
CONTINUOUS
370
-3
390
F
  0
LAYER
  5
1FA
100
AcDbSymbolTableRecord
100
AcDbLayerTableRecord
  2
DEFAULT_1
 70
0
 62
7
  6
CENTER
370
-3
390
F
  0
LAYER
  5
1FB
100
AcDbSymbolTableRecord
100
AcDbLayerTableRecord
  2
DEFAULT_2
 70
0
 62
7
  6
HIDDEN
370
-3
390
F
  0
LAYER
  5
1FC
100
AcDbSymbolTableRecord
100
AcDbLayerTableRecord
  2
DEFAULT_3
 70
0
 62
7
  6
PHANTOM
370
-3
390
F
  0
LAYER
  5
1FD
100
AcDbSymbolTableRecord
100
AcDbLayerTableRecord
  2
ASSI
 70
0
 62
7
  6
CONTINUOUS
370
-3
390
F
  0
LAYER
  5
1FE
100
AcDbSymbolTableRecord
100
AcDbLayerTableRecord
  2
COORDINATE
 70
0
 62
7
  6
CONTINUOUS
370
-3
390
F
  0
LAYER
  5
1FF
100
AcDbSymbolTableRecord
100
AcDbLayerTableRecord
  2
COORD_ORIGINE
 70
0
 62
7
  6
CONTINUOUS
370
-3
390
F
  0
LAYER
  5
200
100
AcDbSymbolTableRecord
100
AcDbLayerTableRecord
  2
COPY_PUBLISH
 70
0
 62
7
  6
CONTINUOUS
370
-3
390
F
  0
LAYER
  5
201
100
AcDbSymbolTableRecord
100
AcDbLayerTableRecord
  2
COSMETICI
 70
0
 62
7
  6
CONTINUOUS
370
-3
390
F
  0
LAYER
  5
202
100
AcDbSymbolTableRecord
100
AcDbLayerTableRecord
  2
CURVE
 70
0
 62
7
  6
CONTINUOUS
370
-3
390
F
  0
LAYER
  5
203
100
AcDbSymbolTableRecord
100
AcDbLayerTableRecord
  2
DRAFT
 70
0
 62
7
  6
CONTINUOUS
370
-3
390
F
  0
LAYER
  5
204
100
AcDbSymbolTableRecord
100
AcDbLayerTableRecord
  2
IGES-IMPORTATI
 70
0
 62
7
  6
CONTINUOUS
370
-3
390
F
  0
LAYER
  5
205
100
AcDbSymbolTableRecord
100
AcDbLayerTableRecord
  2
IMPORT_IGES
 70
0
 62
7
  6
CONTINUOUS
370
-3
390
F
  0
LAYER
  5
206
100
AcDbSymbolTableRecord
100
AcDbLayerTableRecord
  2
INTF_1
 70
0
 62
7
  6
CONTINUOUS
370
-3
390
F
  0
LAYER
  5
207
100
AcDbSymbolTableRecord
100
AcDbLayerTableRecord
  2
INTF_CYAN
 70
0
 62
7
  6
CONTINUOUS
370
-3
390
F
  0
LAYER
  5
208
100
AcDbSymbolTableRecord
100
AcDbLayerTableRecord
  2
NOTE
 70
0
 62
7
  6
CONTINUOUS
370
-3
390
F
  0
LAYER
  5
209
100
AcDbSymbolTableRecord
100
AcDbLayerTableRecord
  2
PIANI
 70
0
 62
7
  6
CONTINUOUS
370
-3
390
F
  0
LAYER
  5
20A
100
AcDbSymbolTableRecord
100
AcDbLayerTableRecord
  2
PIANI_ORIGINE
 70
0
 62
7
  6
CONTINUOUS
370
-3
390
F
  0
LAYER
  5
20B
100
AcDbSymbolTableRecord
100
AcDbLayerTableRecord
  2
PIANI_RIFERIMENTO
 70
0
 62
7
  6
CONTINUOUS
370
-3
390
F
  0
LAYER
  5
20C
100
AcDbSymbolTableRecord
100
AcDbLayerTableRecord
  2
PUNTI
 70
0
 62
7
  6
CONTINUOUS
370
-3
390
F
  0
LAYER
  5
20D
100
AcDbSymbolTableRecord
100
AcDbLayerTableRecord
  2
RACCORDO
 70
0
 62
7
  6
CONTINUOUS
370
-3
390
F
  0
LAYER
  5
20E
100
AcDbSymbolTableRecord
100
AcDbLayerTableRecord
  2
RGB____0____0____0__
 70
0
 62
7
  6
CONTINUOUS
370
-3
390
F
  0
LAYER
  5
20F
100
AcDbSymbolTableRecord
100
AcDbLayerTableRecord
  2
SERIE
 70
0
 62
7
  6
CONTINUOUS
370
-3
390
F
  0
LAYER
  5
210
100
AcDbSymbolTableRecord
100
AcDbLayerTableRecord
  2
SIMBOLI
 70
0
 62
7
  6
CONTINUOUS
370
-3
390
F
  0
LAYER
  5
211
100
AcDbSymbolTableRecord
100
AcDbLayerTableRecord
  2
SMUSSO
 70
0
 62
7
  6
CONTINUOUS
370
-3
390
F
  0
LAYER
  5
212
100
AcDbSymbolTableRecord
100
AcDbLayerTableRecord
  2
SNAPLINE
 70
0
 62
7
  6
CONTINUOUS
370
-3
390
F
  0
LAYER
  5
213
100
AcDbSymbolTableRecord
100
AcDbLayerTableRecord
  2
SUPERFICI
 70
0
 62
7
  6
CONTINUOUS
370
-3
390
F
  0
LAYER
  5
214
100
AcDbSymbolTableRecord
100
AcDbLayerTableRecord
  2
TRASH
 70
0
 62
7
  6
CONTINUOUS
370
-3
390
F
  0
ENDTAB
  0
TABLE
  2
STYLE
  5
3
100
AcDbSymbolTable
 70
1
  0
STYLE
  5
11
100
AcDbSymbolTableRecord
100
AcDbTextStyleTableRecord
  2
STANDARD
 70
0
 40
0.0
 41
0.8
 50
0.0
 71
0
 42
0.2
  3
txt
  4

  0
STYLE
  5
215
100
AcDbSymbolTableRecord
100
AcDbTextStyleTableRecord
  2
TEXTSTYLE_1
 70
0
 40
0.0
 41
0.8
 50
0.0
 71
0
 42
0.2
  3
gdt
  4

  0
ENDTAB
  0
TABLE
  2
VIEW
  5
6
100
AcDbSymbolTable
 70
0
  0
ENDTAB
  0
TABLE
  2
UCS
  5
7
100
AcDbSymbolTable
 70
0
  0
ENDTAB
  0
TABLE
  2
APPID
  5
9
100
AcDbSymbolTable
 70
1
  0
APPID
  5
216
100
AcDbSymbolTableRecord
100
AcDbRegAppTableRecord
  2
ACAD
 70
0
  0
ENDTAB
  0
TABLE
  2
BLOCK_RECORD
  5
1
100
AcDbSymbolTable
 70
0
  0
BLOCK_RECORD
  5
217
100
AcDbSymbolTableRecord
100
AcDbBlockTableRecord
  2
*Model_Space
  0
BLOCK_RECORD
  5
218
100
AcDbSymbolTableRecord
100
AcDbBlockTableRecord
  2
*Paper_Space
  0
ENDTAB
  0
TABLE
  2
DIMSTYLE
  5
A
100
AcDbSymbolTable
 70
1
100
AcDbDimStyleTable
 71
0
  0
DIMSTYLE
105
219
100
AcDbSymbolTableRecord
100
AcDbDimStyleTableRecord
  2
STANDARD
 70
0
  3

  4

 40
1.0
 41
3.0
 42
0.5
 43
0.38
 44
1.5
 45
0.0
 46
0.0
 47
0.01
 48
0.01
140
3.0
141
0.09
142
0.0
143
25.4
144
1.0
145
0.0
146
1.0
147
0.625
 71
1.0
 72
0.0
 73
0
 74
0
 75
0
 76
0
 77
1
 78
8
170
0
171
2
172
0
173
0
174
0
175
0
176
0
177
0
178
0
270
2
271
2
272
2
273
2
274
2
275
0
280
0
281
0
282
0
283
1
284
8
285
0
286
0
287
3
288
0
340
11
278
44
  0
ENDTAB
  0
ENDSEC
  0
SECTION
  2
BLOCKS
  0
BLOCK
  5
20
100
AcDbEntity
  8
0
100
AcDbBlockBegin
  2
*Model_Space
 70
0
 10
0.0
 20
0.0
 30
0.0
  3
*Model_Space
  1

  0
ENDBLK
  5
21
100
AcDbEntity
  8
0
100
AcDbBlockEnd
  0
BLOCK
  5
1C
100
AcDbEntity
  8
0
100
AcDbBlockBegin
  2
*Paper_Space
 70
0
 10
0.0
 20
0.0
 30
0.0
  3
*Paper_Space
  1

  0
ENDBLK
  5
1D
100
AcDbEntity
  8
0
100
AcDbBlockEnd
  0
ENDSEC
  0
SECTION
  2
ENTITIES
  0
LINE
  5
21A
100
AcDbEntity
  8
RACCORDO
100
AcDbLine
 62
253
  6
CONTINUOUS
 10
-8.6181608917
 20
24.9915370906
 11
-8.6137890577
 21
24.9959089246
  0
LINE
  5
21B
100
AcDbEntity
  8
0
100
AcDbLine
 62
253
  6
CONTINUOUS
 10
-10.7636409633
 20
22.8871820568
 11
-10.7461858984
 21
22.8959089246
  0
LINE
  5
21C
100
AcDbEntity
  8
RACCORDO
100
AcDbLine
 62
7
  6
CONTINUOUS
 10
-10.5137975193
 20
-24.0040910754
 11
-8.6137890577
 21
-24.0040910754
  0
LINE
  5
21D
100
AcDbEntity
  8
RACCORDO
100
AcDbLine
 62
7
  6
CONTINUOUS
 10
8.3862024807
 20
-24.0040910754
 11
10.2862109423
 21
-24.0040910754
  0
LINE
  5
21E
100
AcDbEntity
  8
RACCORDO
100
AcDbLine
 62
253
  6
CONTINUOUS
 10
-10.5094256853
 20
-23.9997192414
 11
-8.6181608917
 21
-23.9997192414
  0
LINE
  5
21F
100
AcDbEntity
  8
RACCORDO
100
AcDbLine
 62
253
  6
CONTINUOUS
 10
8.3905743147
 20
-23.9997192414
 11
10.2818391083
 21
-23.9997192414
  0
LINE
  5
220
100
AcDbEntity
  8
RACCORDO
100
AcDbLine
 62
253
  6
CONTINUOUS
 10
8.1405785455
 20
-23.7497234722
 11
10.5318348775
 21
-23.7497234722
  0
LINE
  5
221
100
AcDbEntity
  8
RACCORDO
100
AcDbLine
 62
253
  6
CONTINUOUS
 10
-8.3681651225
 20
-23.7497234722
 11
-10.7594214545
 21
-23.7497234722
  0
LINE
  5
222
100
AcDbEntity
  8
RACCORDO
100
AcDbLine
 62
253
  6
CONTINUOUS
 10
-8.3681651225
 20
-23.3484286427
 11
-10.7594214545
 21
-23.3484286427
  0
LINE
  5
223
100
AcDbEntity
  8
DRAFT
100
AcDbLine
 62
7
  6
CONTINUOUS
 10
-4.5137932885
 20
-23.3040910754
 11
4.2862067115
 21
-23.3040910754
  0
LINE
  5
224
100
AcDbEntity
  8
DRAFT
100
AcDbLine
 62
7
  6
CONTINUOUS
 10
-3.6137932885
 20
-23.2982732456
 11
3.3862067115
 21
-23.2982732456
  0
LINE
  5
225
100
AcDbEntity
  8
ASSI
100
AcDbLine
 62
253
  6
CONTINUOUS
 10
-4.4701426416
 20
-23.2604404286
 11
-3.6137932885
 21
-23.2604404286
  0
LINE
  5
226
100
AcDbEntity
  8
ASSI
100
AcDbLine
 62
253
  6
CONTINUOUS
 10
3.3862067115
 20
-23.2604404286
 11
4.2425560647
 21
-23.2604404286
  0
LINE
  5
227
100
AcDbEntity
  8
RACCORDO
100
AcDbLine
 62
7
  6
CONTINUOUS
 10
8.3905743147
 20
-23.2040910754
 11
10.2818391083
 21
-23.2040910754
  0
LINE
  5
228
100
AcDbEntity
  8
RACCORDO
100
AcDbLine
 62
253
  6
CONTINUOUS
 10
-8.6181608917
 20
-23.1319222918
 11
-10.5094256853
 21
-23.1319222918
  0
LINE
  5
229
100
AcDbEntity
  8
RACCORDO
100
AcDbLine
 62
7
  6
CONTINUOUS
 10
10.2869297094
 20
-22.6267408062
 11
8.3854837137
 21
-22.6267408062
  0
LINE
  5
22A
100
AcDbEntity
  8
RACCORDO
100
AcDbLine
 62
7
  6
CONTINUOUS
 10
-8.6130702906
 20
-22.6267408062
 11
-10.5145162863
 21
-22.6267408062
  0
LWPOLYLINE
  5
22B
100
AcDbEntity
  8
RACCORDO
100
AcDbPolyline
 62
7
  6
CONTINUOUS
 90
40
 70
0
 10
10.2818391083
 20
-23.2040910754
 10
10.2928440753
 20
-23.2042748274
 10
10.3037958116
 20
-23.204728758
 10
10.3146734863
 20
-23.2054528671
 10
10.3254688757
 20
-23.2064546066
 10
10.3361497077
 20
-23.2077265246
 10
10.3466607472
 20
-23.2092462661
 10
10.3569715234
 20
-23.2110144944
 10
10.3670787047
 20
-23.2130305462
 10
10.3769699925
 20
-23.2152700766
 10
10.3866304873
 20
-23.2177334581
 10
10.3960464364
 20
-23.2204203183
 10
10.4052083008
 20
-23.2233051946
 10
10.4141037657
 20
-23.2263882309
 10
10.4227215727
 20
-23.2296692834
 10
10.431054619
 20
-23.2331224584
 10
10.4390930099
 20
-23.2367477395
 10
10.4468277571
 20
-23.240545143
 10
10.454253777
 20
-23.2444888244
 10
10.4613633905
 20
-23.2485786691
 10
10.468149669
 20
-23.2528147916
 10
10.4746091514
 20
-23.2571716913
 10
10.4807361612
 20
-23.2616491983
 10
10.4865256504
 20
-23.2662474824
 10
10.4919754757
 20
-23.2709415524
 10
10.4970817717
 20
-23.2757312071
 10
10.5018412192
 20
-23.2806166477
 10
10.5062527969
 20
-23.2855734873
 10
10.5103142883
 20
-23.2906015002
 10
10.5140239769
 20
-23.295700912
 10
10.5173818644
 20
-23.3008480129
 10
10.52038725
 20
-23.3060425486
 10
10.5230399127
 20
-23.3112847734
 10
10.5253408453
 20
-23.3165517401
 10
10.5272907524
 20
-23.3218431547
 10
10.52889081
 20
-23.3271593113
 10
10.5301430045
 20
-23.3324781449
 10
10.5310493952
 20
-23.3377923005
 10
10.5316123641
 20
-23.3431091331
 10
10.5318348775
 20
-23.3484286427
  0
LWPOLYLINE
  5
22C
100
AcDbEntity
  8
RACCORDO
100
AcDbPolyline
 62
7
  6
CONTINUOUS
 90
31
 70
0
 10
-10.5137975193
 20
-24.0040910754
 10
-10.5268812959
 20
-24.0037484773
 10
-10.5399292119
 20
-24.0027216137
 10
-10.5529055066
 20
-24.0010132964
 10
-10.5657746176
 20
-23.9986282055
 10
-10.5785012717
 20
-23.9955728745
 10
-10.5910505821
 20
-23.9918556729
 10
-10.6033881538
 20
-23.9874867861
 10
-10.6154801711
 20
-23.9824781864
 10
-10.6272934844
 20
-23.9768435998
 10
-10.6387957153
 20
-23.9705984674
 10
-10.6499553372
 20
-23.9637599051
 10
-10.6607417555
 20
-23.9563466575
 10
-10.6711254058
 20
-23.9483790422
 10
-10.6810778277
 20
-23.9398788967
 10
-10.6905717362
 20
-23.9308695231
 10
-10.6995811098
 20
-23.9213756146
 10
-10.7080812553
 20
-23.9114231928
 10
-10.7160488706
 20
-23.9010395424
 10
-10.7234621181
 20
-23.8902531242
 10
-10.7303006804
 20
-23.8790935023
 10
-10.7365458128
 20
-23.8675912714
 10
-10.7421803995
 20
-23.855777958
 10
-10.7471889992
 20
-23.8436859407
 10
-10.751557886
 20
-23.831348369
 10
-10.7552750875
 20
-23.8187990587
 10
-10.7583304186
 20
-23.8060724046
 10
-10.7607155095
 20
-23.7932032936
 10
-10.7624238267
 20
-23.7802269988
 10
-10.7634506903
 20
-23.7671790829
 10
-10.7637932885
 20
-23.7540953062
  0
LWPOLYLINE
  5
22D
100
AcDbEntity
  8
RACCORDO
100
AcDbPolyline
 62
253
  6
CONTINUOUS
 90
31
 70
0
 10
-10.5094256853
 20
-23.9997192414
 10
-10.5224796993
 20
-23.9993777466
 10
-10.5355057958
 20
-23.9983542698
 10
-10.5484682961
 20
-23.9966503978
 10
-10.5613341157
 20
-23.9942690512
 10
-10.5740652234
 20
-23.9912158283
 10
-10.5866190548
 20
-23.9875003127
 10
-10.5989586535
 20
-23.9831336639
 10
-10.6110528072
 20
-23.9781271531
 10
-10.6228686974
 20
-23.9724943341
 10
-10.6343741341
 20
-23.9662504644
 10
-10.6455373023
 20
-23.9594127193
 10
-10.6563272255
 20
-23.9520000419
 10
-10.6667141851
 20
-23.9440328739
 10
-10.6766698537
 20
-23.9355329692
 10
-10.6861670193
 20
-23.9265235577
 10
-10.6951796687
 20
-23.9170292956
 10
-10.7036830438
 20
-23.9070762419
 10
-10.7116537969
 20
-23.8966917123
 10
-10.7190700634
 20
-23.8859041858
 10
-10.7259115103
 20
-23.874743231
 10
-10.7321593695
 20
-23.8632394579
 10
-10.7377965067
 20
-23.8514244081
 10
-10.742807462
 20
-23.8393304768
 10
-10.7471784895
 20
-23.8269908339
 10
-10.7508976042
 20
-23.814439306
 10
-10.7539546039
 20
-23.801710317
 10
-10.7563410992
 20
-23.7888388041
 10
-10.7580505489
 20
-23.7758600734
 10
-10.759078272
 20
-23.7628097014
 10
-10.7594214545
 20
-23.7497234722
  0
LWPOLYLINE
  5
22E
100
AcDbEntity
  8
RACCORDO
100
AcDbPolyline
 62
7
  6
CONTINUOUS
 90
31
 70
0
 10
8.3862024807
 20
-24.0040910754
 10
8.3731187041
 20
-24.0037484773
 10
8.3600707881
 20
-24.0027216137
 10
8.3470944934
 20
-24.0010132964
 10
8.3342253824
 20
-23.9986282055
 10
8.3214987283
 20
-23.9955728745
 10
8.3089494179
 20
-23.9918556729
 10
8.2966118462
 20
-23.9874867861
 10
8.2845198289
 20
-23.9824781864
 10
8.2727065156
 20
-23.9768435998
 10
8.2612042847
 20
-23.9705984674
 10
8.2500446628
 20
-23.9637599051
 10
8.2392582445
 20
-23.9563466575
 10
8.2288745942
 20
-23.9483790422
 10
8.2189221723
 20
-23.9398788967
 10
8.2094282638
 20
-23.9308695231
 10
8.2004188902
 20
-23.9213756146
 10
8.1919187447
 20
-23.9114231928
 10
8.1839511294
 20
-23.9010395424
 10
8.1765378819
 20
-23.8902531242
 10
8.1696993196
 20
-23.8790935023
 10
8.1634541872
 20
-23.8675912714
 10
8.1578196005
 20
-23.855777958
 10
8.1528110008
 20
-23.8436859407
 10
8.148442114
 20
-23.831348369
 10
8.1447249125
 20
-23.8187990587
 10
8.1416695814
 20
-23.8060724046
 10
8.1392844905
 20
-23.7932032936
 10
8.1375761733
 20
-23.7802269988
 10
8.1365493097
 20
-23.7671790829
 10
8.1362067115
 20
-23.7540953062
  0
LWPOLYLINE
  5
22F
100
AcDbEntity
  8
RACCORDO
100
AcDbPolyline
 62
253
  6
CONTINUOUS
 90
31
 70
0
 10
8.3905743147
 20
-23.9997192414
 10
8.3774908288
 20
-23.9993762028
 10
8.3644432022
 20
-23.998348913
 10
8.351467196
 20
-23.9966401874
 10
8.3385983752
 20
-23.9942547094
 10
8.3258720106
 20
-23.9911990172
 10
8.3133229829
 20
-23.9874814858
 10
8.3009856867
 20
-23.9831123044
 10
8.288893936
 20
-23.9781034479
 10
8.2770808722
 20
-23.9724686447
 10
8.2655788727
 20
-23.9662233388
 10
8.2544194622
 20
-23.9593846474
 10
8.2436332266
 20
-23.951971314
 10
8.2332497289
 20
-23.9440036573
 10
8.2232974284
 20
-23.935503515
 10
8.2138036025
 20
-23.9264941844
 10
8.204794272
 20
-23.9170003585
 10
8.1962941297
 20
-23.907048058
 10
8.1883264729
 20
-23.8966645604
 10
8.1809131396
 20
-23.8858783248
 10
8.1740744482
 20
-23.8747189143
 10
8.1678291423
 20
-23.8632169147
 10
8.1621943391
 20
-23.8514038509
 10
8.1571854826
 20
-23.8393121003
 10
8.1528163011
 20
-23.826974804
 10
8.1490987697
 20
-23.8144257763
 10
8.1460430775
 20
-23.8016994118
 10
8.1436575996
 20
-23.7888305909
 10
8.141948874
 20
-23.7758545848
 10
8.1409215841
 20
-23.7628069582
 10
8.1405785455
 20
-23.7497234722
  0
LINE
  5
230
100
AcDbEntity
  8
0
100
AcDbLine
 62
253
  6
CONTINUOUS
 10
-10.7461858984
 20
-21.9040910754
 11
-10.7636409633
 21
-21.8953642076
  0
LINE
  5
231
100
AcDbEntity
  8
RACCORDO
100
AcDbLine
 62
253
  6
CONTINUOUS
 10
-8.6181608917
 20
-23.9997192414
 11
-8.6137890577
 21
-24.0040910754
  0
LINE
  5
232
100
AcDbEntity
  8
RACCORDO
100
AcDbLine
 62
253
  6
CONTINUOUS
 10
-8.3681651225
 20
24.7415413214
 11
-8.3637932885
 21
24.7459131554
  0
LWPOLYLINE
  5
233
100
AcDbEntity
  8
0
100
AcDbPolyline
 62
7
  6
CONTINUOUS
 90
6
 70
0
 10
10.5362067115
 20
-21.9037810434
 10
10.5332776973
 20
-21.9038756875
 10
10.5303464628
 20
-21.9039531428
 10
10.527413008
 20
-21.9040134092
 10
10.5244773328
 20
-21.9040564868
 10
10.5215394373
 20
-21.9040823755
  0
LINE
  5
234
100
AcDbEntity
  8
DRAFT
100
AcDbLine
 62
7
  6
CONTINUOUS
 10
-8.3637932885
 20
-21.9040910754
 11
-4.5137932885
 21
-21.9040910754
  0
LINE
  5
235
100
AcDbEntity
  8
0
100
AcDbLine
 62
7
  6
CONTINUOUS
 10
10.5215394373
 20
-21.9040823755
 11
8.1362067115
 21
-21.9040910754
  0
LINE
  5
236
100
AcDbEntity
  8
DRAFT
100
AcDbLine
 62
7
  6
CONTINUOUS
 10
4.2862067115
 20
-21.9040910754
 11
8.1362067115
 21
-21.9040910754
  0
LINE
  5
237
100
AcDbEntity
  8
0
100
AcDbLine
 62
7
  6
CONTINUOUS
 10
-10.7636409633
 20
-21.8953642076
 11
-7.3725201563
 21
-21.8953642076
  0
LINE
  5
238
100
AcDbEntity
  8
DRAFT
100
AcDbLine
 62
7
  6
CONTINUOUS
 10
-3.6137932885
 20
-21.8953642076
 11
-3.1137932885
 21
-21.8953642076
  0
LINE
  5
239
100
AcDbEntity
  8
DRAFT
100
AcDbLine
 62
7
  6
CONTINUOUS
 10
2.8862067115
 20
-21.8953642076
 11
3.3862067115
 21
-21.8953642076
  0
LINE
  5
23A
100
AcDbEntity
  8
0
100
AcDbLine
 62
7
  6
CONTINUOUS
 10
7.1449335793
 20
-21.8953642076
 11
10.5360543864
 21
-21.8953642076
  0
LINE
  5
23B
100
AcDbEntity
  8
RACCORDO
100
AcDbLine
 62
253
  6
CONTINUOUS
 10
-7.4545984067
 20
-21.8132859572
 11
-3.1137932885
 21
-21.8132859572
  0
LINE
  5
23C
100
AcDbEntity
  8
RACCORDO
100
AcDbLine
 62
253
  6
CONTINUOUS
 10
2.8862067115
 20
-21.8132859572
 11
7.2270118298
 21
-21.8132859572
  0
LINE
  5
23D
100
AcDbEntity
  8
RACCORDO
100
AcDbLine
 62
253
  6
CONTINUOUS
 10
-7.6978940076
 20
-21.2133088034
 11
-3.1137932885
 21
-21.2133088034
  0
LINE
  5
23E
100
AcDbEntity
  8
RACCORDO
100
AcDbLine
 62
253
  6
CONTINUOUS
 10
2.8862067115
 20
-21.2133088034
 11
7.4703074307
 21
-21.2133088034
  0
LINE
  5
23F
100
AcDbEntity
  8
0
100
AcDbLine
 62
7
  6
CONTINUOUS
 10
2.8862067115
 20
-21.2040910754
 11
-3.1137932885
 21
-21.2040910754
  0
LWPOLYLINE
  5
240
100
AcDbEntity
  8
0
100
AcDbPolyline
 62
7
  6
CONTINUOUS
 90
7
 70
0
 10
-8.3637932885
 20
-21.9040910754
 10
-10.7491260142
 20
-21.9040823755
 10
-10.7520639097
 20
-21.9040564868
 10
-10.7549995849
 20
-21.9040134092
 10
-10.7579330398
 20
-21.9039531428
 10
-10.7608642743
 20
-21.9038756875
 10
-10.7637932885
 20
-21.9037810434
  0
LWPOLYLINE
  5
241
100
AcDbEntity
  8
0
100
AcDbPolyline
 62
7
  6
CONTINUOUS
 90
11
 70
0
 10
-10.7637915667
 20
-21.9037835047
 10
-10.7852779933
 20
-21.9025657073
 10
-10.806730285
 20
-21.9004193799
 10
-10.8281080601
 20
-21.8973436138
 10
-10.8493934568
 20
-21.893334453
 10
-10.8705225487
 20
-21.8883973834
 10
-10.8913877071
 20
-21.882557152
 10
-10.9119347536
 20
-21.8758342918
 10
-10.9321430586
 20
-21.8682410221
 10
-10.95195948
 20
-21.8598030357
 10
-10.9698072879
 20
-21.8513164348
  0
LINE
  5
242
100
AcDbEntity
  8
RACCORDO
100
AcDbLine
 62
253
  6
CONTINUOUS
 10
-8.3681651225
 20
-23.7497234722
 11
-8.3637932885
 21
-23.7540953062
  0
LINE
  5
243
100
AcDbEntity
  8
0
100
AcDbLine
 62
7
  6
CONTINUOUS
 10
-9.8637932885
 20
20.6448799784
 11
-9.1136793553
 21
21.3959089246
  0
LINE
  5
244
100
AcDbEntity
  8
0
100
AcDbLine
 62
7
  6
CONTINUOUS
 10
-8.9653113034
 20
20.9504428007
 11
-9.7154252366
 21
20.1994138545
  0
LINE
  5
245
100
AcDbEntity
  8
RACCORDO
100
AcDbLine
 62
7
  6
CONTINUOUS
 10
-8.3637932885
 20
21.8959089246
 11
-7.3725201563
 21
22.8871820568
  0
LINE
  5
246
100
AcDbEntity
  8
RACCORDO
100
AcDbLine
 62
253
  6
CONTINUOUS
 10
7.6628929212
 20
-18.2826456967
 11
7.4703074307
 21
-18.3330649059
  0
LINE
  5
247
100
AcDbEntity
  8
0
100
AcDbLine
 62
7
  6
CONTINUOUS
 10
-3.1137932885
 20
-20.5040910754
 11
2.8862067115
 21
-20.5040910754
  0
LINE
  5
248
100
AcDbEntity
  8
0
100
AcDbLine
 62
7
  6
CONTINUOUS
 10
-9.1136793553
 20
-20.4040910754
 11
-8.3637932885
 21
-20.4040910754
  0
LINE
  5
249
100
AcDbEntity
  8
RACCORDO
100
AcDbLine
 62
7
  6
CONTINUOUS
 10
7.4851106459
 20
-20.4040910754
 11
8.1362067115
 21
-20.4040910754
  0
LINE
  5
24A
100
AcDbEntity
  8
0
100
AcDbLine
 62
7
  6
CONTINUOUS
 10
8.1362067115
 20
-20.4040910754
 11
8.8860927784
 21
-20.4040910754
  0
LINE
  5
24B
100
AcDbEntity
  8
RACCORDO
100
AcDbLine
 62
7
  6
CONTINUOUS
 10
-7.7126972228
 20
-20.4040910754
 11
-8.3637932885
 21
-20.4040910754
  0
LINE
  5
24C
100
AcDbEntity
  8
RACCORDO
100
AcDbLine
 62
253
  6
CONTINUOUS
 10
6.9932248284
 20
-20.1887531165
 11
-7.2208114053
 21
-20.1887531165
  0
LINE
  5
24D
100
AcDbEntity
  8
0
100
AcDbLine
 62
7
  6
CONTINUOUS
 10
8.7377247265
 20
-19.9586249515
 11
7.7856582649
 21
-19.9586249515
  0
LINE
  5
24E
100
AcDbEntity
  8
0
100
AcDbLine
 62
7
  6
CONTINUOUS
 10
-8.0132448419
 20
-19.9586249515
 11
-8.9653113034
 21
-19.9586249515
  0
LINE
  5
24F
100
AcDbEntity
  8
RACCORDO
100
AcDbLine
 62
253
  6
CONTINUOUS
 10
6.7926548916
 20
-19.8887645396
 11
-7.0202414685
 21
-19.8887645396
  0
LINE
  5
250
100
AcDbEntity
  8
0
100
AcDbLine
 62
7
  6
CONTINUOUS
 10
-6.9143417351
 20
-19.7299126992
 11
6.6867551581
 21
-19.7299126992
  0
LINE
  5
251
100
AcDbEntity
  8
RACCORDO
100
AcDbLine
 62
253
  6
CONTINUOUS
 10
-7.7544504925
 20
-18.3182583159
 11
-7.6978940076
 21
-18.3330649059
  0
LINE
  5
252
100
AcDbEntity
  8
RACCORDO
100
AcDbLine
 62
7
  6
CONTINUOUS
 10
-7.3725201563
 20
-21.8953642076
 11
-8.3637932885
 21
-20.9040910754
  0
LINE
  5
253
100
AcDbEntity
  8
0
100
AcDbLine
 62
7
  6
CONTINUOUS
 10
-9.1136793553
 20
-20.4040910754
 11
-9.8637932885
 21
-19.6530621292
  0
LINE
  5
254
100
AcDbEntity
  8
0
100
AcDbLine
 62
7
  6
CONTINUOUS
 10
-9.7154252366
 20
-19.2075960053
 11
-8.9653113034
 21
-19.9586249515
  0
LINE
  5
255
100
AcDbEntity
  8
ASSI
100
AcDbLine
 62
7
  6
CONTINUOUS
 10
-3.7048667043
 20
24.1225840797
 11
-3.7286980222
 21
24.0952297194
  0
LINE
  5
256
100
AcDbEntity
  8
ASSI
100
AcDbLine
 62
7
  6
CONTINUOUS
 10
-3.7286980222
 20
24.0952297194
 11
-3.7558141724
 21
24.0645945091
  0
LINE
  5
257
100
AcDbEntity
  8
ASSI
100
AcDbLine
 62
7
  6
CONTINUOUS
 10
-3.7558141724
 20
24.0645945091
 11
-3.7864191912
 21
24.0304256262
  0
LINE
  5
258
100
AcDbEntity
  8
ASSI
100
AcDbLine
 62
7
  6
CONTINUOUS
 10
-3.7864191912
 20
24.0304256262
 11
-3.8389398386
 21
23.9724714194
  0
LINE
  5
259
100
AcDbEntity
  8
ASSI
100
AcDbLine
 62
7
  6
CONTINUOUS
 10
-3.8389398386
 20
23.9724714194
 11
-3.9185478299
 21
23.8856554394
  0
LINE
  5
25A
100
AcDbEntity
  8
ASSI
100
AcDbLine
 62
7
  6
CONTINUOUS
 10
-3.9185478299
 20
23.8856554394
 11
-4.0417632761
 21
23.7522667393
  0
LINE
  5
25B
100
AcDbEntity
  8
RACCORDO
100
AcDbLine
 62
253
  6
CONTINUOUS
 10
6.793228213
 20
-18.40219836
 11
6.9932248284
 21
-18.40219836
  0
LINE
  5
25C
100
AcDbEntity
  8
RACCORDO
100
AcDbLine
 62
253
  6
CONTINUOUS
 10
-7.0208147899
 20
-18.40219836
 11
-7.2208114053
 21
-18.40219836
  0
LINE
  5
25D
100
AcDbEntity
  8
RACCORDO
100
AcDbLine
 62
253
  6
CONTINUOUS
 10
-7.9067725521
 20
-18.4021513069
 11
-7.7126972228
 21
-18.4021513069
  0
LINE
  5
25E
100
AcDbEntity
  8
RACCORDO
100
AcDbLine
 62
253
  6
CONTINUOUS
 10
7.6791859752
 20
-18.4021513069
 11
7.4851106459
 21
-18.4021513069
  0
LINE
  5
25F
100
AcDbEntity
  8
IMPORT_IGES
100
AcDbLine
 62
7
  6
CONTINUOUS
 10
5.9504120289
 20
-18.3182583159
 11
-8.1779605282
 21
-18.3182583159
  0
LINE
  5
260
100
AcDbEntity
  8
IMPORT_IGES
100
AcDbLine
 62
7
  6
CONTINUOUS
 10
-8.1759455933
 20
-18.3160910754
 11
5.9483590164
 21
-18.3160910754
  0
LINE
  5
261
100
AcDbEntity
  8
IMPORT_IGES
100
AcDbLine
 62
253
  6
CONTINUOUS
 10
-8.166913428
 20
-18.3070589101
 11
5.939326851
 21
-18.3070589101
  0
LINE
  5
262
100
AcDbEntity
  8
IMPORT_IGES
100
AcDbLine
 62
253
  6
CONTINUOUS
 10
6.9391745462
 20
-17.3072112149
 11
-9.1667611231
 21
-17.3072112149
  0
LINE
  5
263
100
AcDbEntity
  8
ASSI
100
AcDbLine
 62
7
  6
CONTINUOUS
 10
-4.0417632761
 20
-22.7604488901
 11
-3.8977475501
 21
-22.916422587
  0
LINE
  5
264
100
AcDbEntity
  8
ASSI
100
AcDbLine
 62
7
  6
CONTINUOUS
 10
-3.8977475501
 20
-22.916422587
 11
-3.8204356794
 21
-23.0010023699
  0
LINE
  5
265
100
AcDbEntity
  8
ASSI
100
AcDbLine
 62
7
  6
CONTINUOUS
 10
-3.8204356794
 20
-23.0010023699
 11
-3.7705206489
 21
-23.0563081081
  0
LINE
  5
266
100
AcDbEntity
  8
ASSI
100
AcDbLine
 62
7
  6
CONTINUOUS
 10
-3.7705206489
 20
-23.0563081081
 11
-3.7416239702
 21
-23.0887584734
  0
LWPOLYLINE
  5
267
100
AcDbEntity
  8
ASSI
100
AcDbPolyline
 62
7
  6
CONTINUOUS
 90
20
 70
0
 10
-3.7416239702
 20
-23.0887584734
 10
-3.7161418836
 20
-23.1177640833
 10
-3.7046223376
 20
-23.1310490107
 10
-3.6938984672
 20
-23.1435274438
 10
-3.6839082563
 20
-23.1552886
 10
-3.6746509679
 20
-23.1663330763
 10
-3.66611186
 20
-23.1766602757
 10
-3.6582266456
 20
-23.1863576247
 10
-3.6509857526
 20
-23.1954461887
 10
-3.644401671
 20
-23.2039049022
 10
-3.6384586234
 20
-23.2117579953
 10
-3.6331471725
 20
-23.2190169588
 10
-3.628482699
 20
-23.2256703017
 10
-3.624481368
 20
-23.2317077816
 10
-3.6211330216
 20
-23.2371165652
 10
-3.6184279225
 20
-23.2419094857
 10
-3.6163635835
 20
-23.2461148004
 10
-3.6149201737
 20
-23.2497419281
 10
-3.6140711024
 20
-23.2527814499
 10
-3.6137932885
 20
-23.2552333658
  0
LINE
  5
268
100
AcDbEntity
  8
IMPORT_IGES
100
AcDbLine
 62
7
  6
CONTINUOUS
 10
7.095483674
 20
-15.7419660955
 11
6.9482067115
 21
-15.7419661244
  0
LINE
  5
269
100
AcDbEntity
  8
IMPORT_IGES
100
AcDbLine
 62
253
  6
CONTINUOUS
 10
-1.9857644303
 20
-15.6759479886
 11
0.3581778533
 21
-15.6759479886
  0
LINE
  5
26A
100
AcDbEntity
  8
IMPORT_IGES
100
AcDbLine
 62
253
  6
CONTINUOUS
 10
0.3581778533
 20
-15.4259860648
 11
-1.9857644303
 21
-15.4259860648
  0
LWPOLYLINE
  5
26B
100
AcDbEntity
  8
IMPORT_IGES
100
AcDbPolyline
 62
253
  6
CONTINUOUS
 90
25
 70
0
 10
-1.9857644303
 20
-15.6759479886
 10
-2.0351573782
 20
-15.674037907
 10
-2.0839235447
 20
-15.6690333417
 10
-2.13206293
 20
-15.6609342924
 10
-2.1797635628
 20
-15.6496735255
 10
-2.2268374143
 20
-15.6353182746
 10
-2.2727203979
 20
-15.6180702417
 10
-2.317428093
 20
-15.5979327469
 10
-2.3609449203
 20
-15.5749024699
 10
-2.4026600546
 20
-15.5491711523
 10
-2.442540024
 20
-15.5206635401
 10
-2.4806183005
 20
-15.4894548873
 10
-2.5163844754
 20
-15.4559626964
 10
-2.5497959389
 20
-15.4201535081
 10
-2.5808953008
 20
-15.3820607817
 10
-2.6092999814
 20
-15.3422023981
 10
-2.6349497222
 20
-15.300558214
 10
-2.6579047817
 20
-15.2571483725
 10
-2.677963355
 20
-15.2125511844
 10
-2.6951113138
 20
-15.1667789821
 10
-2.7093627864
 20
-15.1198194332
 10
-2.7205583535
 20
-15.0722138509
 10
-2.7286448751
 20
-15.024142673
 10
-2.7336754912
 20
-14.9754254618
 10
-2.7356502016
 20
-14.9260622172
  0
LWPOLYLINE
  5
26C
100
AcDbEntity
  8
IMPORT_IGES
100
AcDbPolyline
 62
253
  6
CONTINUOUS
 90
16
 70
0
 10
-1.9857644303
 20
-15.4259860648
 10
-2.0380484074
 20
-15.4232285922
 10
-2.0897559869
 20
-15.415018897
 10
-2.1403202606
 20
-15.4014479454
 10
-2.1891955057
 20
-15.3826616773
 10
-2.2358369122
 20
-15.3588689576
 10
-2.2797108629
 20
-15.3303479516
 10
-2.3203213343
 20
-15.2974378274
 10
-2.357254688
 20
-15.2604918209
 10
-2.3901473309
 20
-15.2198749901
 10
-2.4186477918
 20
-15.1760020886
 10
-2.4424188371
 20
-15.1293699879
 10
-2.4611843723
 20
-15.0805128605
 10
-2.4747377593
 20
-15.0299755671
 10
-2.4829353226
 20
-14.9783033432
 10
-2.4856882778
 20
-14.9260622172
  0
LINE
  5
26D
100
AcDbEntity
  8
IMPORT_IGES
100
AcDbLine
 62
7
  6
CONTINUOUS
 10
7.0865398485
 20
-14.2203496937
 11
7.0863619939
 21
-14.2203719113
  0
LINE
  5
26E
100
AcDbEntity
  8
IMPORT_IGES
100
AcDbLine
 62
7
  6
CONTINUOUS
 10
0.336282864
 20
-15.4040910754
 11
-1.9638694409
 21
-15.4040910754
  0
LINE
  5
26F
100
AcDbEntity
  8
IMPORT_IGES
100
AcDbLine
 62
253
  6
CONTINUOUS
 10
1.1080636247
 20
-14.9260622172
 11
0.8581017009
 21
-14.9260622172
  0
LINE
  5
270
100
AcDbEntity
  8
IMPORT_IGES
100
AcDbLine
 62
253
  6
CONTINUOUS
 10
-2.4856882778
 20
-14.9260622172
 11
-2.7356502016
 21
-14.9260622172
  0
LINE
  5
271
100
AcDbEntity
  8
IMPORT_IGES
100
AcDbLine
 62
7
  6
CONTINUOUS
 10
7.0953905311
 20
-14.518846625
 11
6.9482067115
 21
-14.518846625
  0
LINE
  5
272
100
AcDbEntity
  8
IMPORT_IGES
100
AcDbLine
 62
7
  6
CONTINUOUS
 10
6.9482067115
 20
-14.2204364296
 11
7.0863619923
 21
-14.220437545
  0
LINE
  5
273
100
AcDbEntity
  8
ASSI
100
AcDbLine
 62
7
  6
CONTINUOUS
 10
4.1388168515
 20
24.1084562067
 11
4.113384465
 21
24.0795241423
  0
LINE
  5
274
100
AcDbEntity
  8
ASSI
100
AcDbLine
 62
7
  6
CONTINUOUS
 10
4.113384465
 20
24.0795241423
 11
4.0845811062
 21
24.0471909198
  0
LINE
  5
275
100
AcDbEntity
  8
ASSI
100
AcDbLine
 62
7
  6
CONTINUOUS
 10
4.0845811062
 20
24.0471909198
 11
4.034863365
 21
23.9921148388
  0
LINE
  5
276
100
AcDbEntity
  8
ASSI
100
AcDbLine
 62
7
  6
CONTINUOUS
 10
4.034863365
 20
23.9921148388
 11
3.9577574241
 21
23.9077666746
  0
LINE
  5
277
100
AcDbEntity
  8
ASSI
100
AcDbLine
 62
7
  6
CONTINUOUS
 10
3.9577574241
 20
23.9077666746
 11
3.8141766992
 21
23.7522667393
  0
LINE
  5
278
100
AcDbEntity
  8
ASSI
100
AcDbLine
 62
7
  6
CONTINUOUS
 10
4.2862067115
 20
24.2959089246
 11
4.2425560647
 21
24.2522582777
  0
LINE
  5
279
100
AcDbEntity
  8
IMPORT_IGES
100
AcDbLine
 62
7
  6
CONTINUOUS
 10
-2.8899758859
 20
16.7697263272
 11
-2.8881085262
 21
16.7715936868
  0
LINE
  5
27A
100
AcDbEntity
  8
IMPORT_IGES
100
AcDbLine
 62
7
  6
CONTINUOUS
 10
-4.8899758859
 20
13.4697263272
 11
-4.8881085262
 21
13.4715936868
  0
LINE
  5
27B
100
AcDbEntity
  8
IMPORT_IGES
100
AcDbLine
 62
7
  6
CONTINUOUS
 10
-5.6374599421
 20
14.522091522
 11
-5.6393481453
 21
14.5202241623
  0
LINE
  5
27C
100
AcDbEntity
  8
IMPORT_IGES
100
AcDbLine
 62
253
  6
CONTINUOUS
 10
-2.7356502016
 20
-13.5821199336
 11
-2.4856882778
 21
-13.5821199336
  0
LINE
  5
27D
100
AcDbEntity
  8
IMPORT_IGES
100
AcDbLine
 62
253
  6
CONTINUOUS
 10
0.8581017009
 20
-13.5821199336
 11
1.1080636247
 21
-13.5821199336
  0
LINE
  5
27E
100
AcDbEntity
  8
IMPORT_IGES
100
AcDbLine
 62
253
  6
CONTINUOUS
 10
7.0953089129
 20
-13.4470803604
 11
6.9482067115
 21
-13.4470747593
  0
LINE
  5
27F
100
AcDbEntity
  8
IMPORT_IGES
100
AcDbLine
 62
7
  6
CONTINUOUS
 10
-1.9638694409
 20
-13.1040910754
 11
0.336282864
 21
-13.1040910754
  0
LINE
  5
280
100
AcDbEntity
  8
IMPORT_IGES
100
AcDbLine
 62
253
  6
CONTINUOUS
 10
-1.9857644303
 20
-13.082196086
 11
0.3581778533
 21
-13.082196086
  0
LINE
  5
281
100
AcDbEntity
  8
IMPORT_IGES
100
AcDbLine
 62
7
  6
CONTINUOUS
 10
7.09526387
 20
-12.8555894662
 11
6.9482067115
 21
-12.8555977465
  0
LINE
  5
282
100
AcDbEntity
  8
IMPORT_IGES
100
AcDbLine
 62
253
  6
CONTINUOUS
 10
0.3581778533
 20
-12.8322341622
 11
-1.9857644303
 21
-12.8322341622
  0
LINE
  5
283
100
AcDbEntity
  8
IMPORT_IGES
100
AcDbLine
 62
253
  6
CONTINUOUS
 10
-1.9857644303
 20
-12.1759479886
 11
0.3581778533
 21
-12.1759479886
  0
LINE
  5
284
100
AcDbEntity
  8
IMPORT_IGES
100
AcDbLine
 62
253
  6
CONTINUOUS
 10
0.3581778533
 20
-11.9259860648
 11
-1.9857644303
 21
-11.9259860648
  0
LINE
  5
285
100
AcDbEntity
  8
IMPORT_IGES
100
AcDbLine
 62
7
  6
CONTINUOUS
 10
0.336282864
 20
-11.9040910754
 11
-1.9638694409
 21
-11.9040910754
  0
LWPOLYLINE
  5
286
100
AcDbEntity
  8
IMPORT_IGES
100
AcDbPolyline
 62
253
  6
CONTINUOUS
 90
25
 70
0
 10
0.3581778533
 20
-12.8322341622
 10
0.407570787
 20
-12.8341441603
 10
0.4563369448
 20
-12.8391486753
 10
0.5044763268
 20
-12.8472477072
 10
0.5521769636
 20
-12.8585085051
 10
0.5992508245
 20
-12.8728638199
 10
0.6451338179
 20
-12.8901119051
 10
0.6898415236
 20
-12.910249425
 10
0.7333583618
 20
-12.9332797153
 10
0.7750735011
 20
-12.9590110369
 10
0.8149534665
 20
-12.98751864
 10
0.853031733
 20
-13.0187272743
 10
0.8887978945
 20
-13.0522194507
 10
0.9222093368
 20
-13.0880286335
 10
0.953308674
 20
-13.1261213583
 10
0.9817133432
 20
-13.1659797421
 10
1.0073630964
 20
-13.2076239275
 10
1.0303181815
 20
-13.251033772
 10
1.050376779
 20
-13.2956309645
 10
1.0675247587
 20
-13.3414031742
 10
1.0817762508
 20
-13.3883627319
 10
1.0929718264
 20
-13.4359683185
 10
1.1010583424
 20
-13.4840394946
 10
1.1060889418
 20
-13.5327566996
 10
1.1080636247
 20
-13.5821199336
  0
LWPOLYLINE
  5
287
100
AcDbEntity
  8
IMPORT_IGES
100
AcDbPolyline
 62
253
  6
CONTINUOUS
 90
25
 70
0
 10
-1.9857644303
 20
-12.1759479886
 10
-2.0351573618
 20
-12.1740380033
 10
-2.0839235183
 20
-12.169033496
 10
-2.1320628998
 20
-12.1609344666
 10
-2.1797635371
 20
-12.1496736641
 10
-2.2268373994
 20
-12.1353183396
 10
-2.2727203943
 20
-12.1180702464
 10
-2.3174281017
 20
-12.0979327227
 10
-2.3609449415
 20
-12.0749024303
 10
-2.4026600816
 20
-12.0491711081
 10
-2.4425400464
 20
-12.0206635064
 10
-2.4806183114
 20
-11.9894548748
 10
-2.5163844709
 20
-11.9559627007
 10
-2.5497959098
 20
-11.9201535188
 10
-2.5808952433
 20
-11.8820607942
 10
-2.6092999107
 20
-11.8422024104
 10
-2.6349496658
 20
-11.8005582247
 10
-2.6579047549
 20
-11.7571483798
 10
-2.6779633561
 20
-11.7125511867
 10
-2.695111339
 20
-11.6667789758
 10
-2.7093628341
 20
-11.6198194168
 10
-2.7205584109
 20
-11.5722138295
 10
-2.7286449261
 20
-11.5241426537
 10
-2.733675523
 20
-11.4754254496
 10
-2.7356502016
 20
-11.4260622172
  0
LWPOLYLINE
  5
288
100
AcDbEntity
  8
IMPORT_IGES
100
AcDbPolyline
 62
253
  6
CONTINUOUS
 90
16
 70
0
 10
0.3581778533
 20
-13.082196086
 10
0.4104618462
 20
-13.0849535603
 10
0.4621694386
 20
-13.0931632599
 10
0.512733722
 20
-13.1067342179
 10
0.5616089736
 20
-13.1255204935
 10
0.6082503833
 20
-13.149313221
 10
0.6521243343
 20
-13.1778342344
 10
0.6927348035
 20
-13.2107443649
 10
0.7296681526
 20
-13.2476903761
 10
0.7625607891
 20
-13.2883072092
 10
0.7910612426
 20
-13.3321801102
 10
0.81483228
 20
-13.3788122075
 10
0.8335978077
 20
-13.4276693283
 10
0.8471511884
 20
-13.478206612
 10
0.8553487473
 20
-13.5298788231
 10
0.8581017009
 20
-13.5821199336
  0
LWPOLYLINE
  5
289
100
AcDbEntity
  8
IMPORT_IGES
100
AcDbPolyline
 62
253
  6
CONTINUOUS
 90
16
 70
0
 10
-1.9857644303
 20
-11.9259860648
 10
-2.0380484255
 20
-11.9232285903
 10
-2.0897560199
 20
-11.91501889
 10
-2.1403203047
 20
-11.901447931
 10
-2.1891955574
 20
-11.8826616543
 10
-2.2358369676
 20
-11.8588689256
 10
-2.2797109186
 20
-11.8303479111
 10
-2.3203213874
 20
-11.7974377796
 10
-2.3572547358
 20
-11.7604917677
 10
-2.3901473714
 20
-11.7198749343
 10
-2.4186478238
 20
-11.6760020333
 10
-2.44241886
 20
-11.6293699365
 10
-2.4611843865
 20
-11.5805128167
 10
-2.4747377662
 20
-11.5299755345
 10
-2.4829353245
 20
-11.4783033254
 10
-2.4856882778
 20
-11.4260622172
  0
LINE
  5
28A
100
AcDbEntity
  8
ASSI
100
AcDbLine
 62
7
  6
CONTINUOUS
 10
4.2862067115
 20
-23.3040910754
 11
4.2425560647
 21
-23.2604404286
  0
LINE
  5
28B
100
AcDbEntity
  8
ASSI
100
AcDbLine
 62
7
  6
CONTINUOUS
 10
3.8141766992
 20
-22.7604488901
 11
3.9579653905
 21
-22.916176066
  0
LINE
  5
28C
100
AcDbEntity
  8
ASSI
100
AcDbLine
 62
7
  6
CONTINUOUS
 10
3.9579653905
 20
-22.916176066
 11
4.0349717266
 21
-23.0004164413
  0
LINE
  5
28D
100
AcDbEntity
  8
ASSI
100
AcDbLine
 62
7
  6
CONTINUOUS
 10
4.0349717266
 20
-23.0004164413
 11
4.084733517
 21
-23.0555429685
  0
LINE
  5
28E
100
AcDbEntity
  8
ASSI
100
AcDbLine
 62
7
  6
CONTINUOUS
 10
4.084733517
 20
-23.0555429685
 11
4.1135778538
 21
-23.0879242661
  0
LWPOLYLINE
  5
28F
100
AcDbEntity
  8
ASSI
100
AcDbPolyline
 62
7
  6
CONTINUOUS
 90
20
 70
0
 10
4.1135778538
 20
-23.0879242661
 10
4.1390434027
 20
-23.1168981971
 10
4.1505651013
 20
-23.1301773654
 10
4.1612975107
 20
-23.1426568493
 10
4.1713007989
 20
-23.1544232773
 10
4.1805763403
 20
-23.1654774483
 10
4.1891380082
 20
-23.1758185634
 10
4.1970471322
 20
-23.1855308548
 10
4.2043127788
 20
-23.1946333284
 10
4.2109246893
 20
-23.2031069784
 10
4.2169003792
 20
-23.2109790185
 10
4.22224967
 20
-23.2182612491
 10
4.2269578787
 20
-23.2249418698
 10
4.2310101622
 20
-23.2310126939
 10
4.2344165784
 20
-23.2364617715
 10
4.2371865737
 20
-23.2413010523
 10
4.2393224716
 20
-23.2455581993
 10
4.2408433092
 20
-23.2492424335
 10
4.2417748543
 20
-23.2523445337
 10
4.2421394443
 20
-23.2548645001
  0
LWPOLYLINE
  5
290
100
AcDbEntity
  8
RACCORDO
100
AcDbPolyline
 62
253
  6
CONTINUOUS
 90
9
 70
0
 10
-7.234068968
 20
-18.3182583159
 10
-7.2333271561
 20
-18.3204477864
 10
-7.230031319
 20
-18.331784339
 10
-7.2272317837
 20
-18.3432770837
 10
-7.2249250584
 20
-18.3549241246
 10
-7.2231279748
 20
-18.3666475626
 10
-7.2218461433
 20
-18.3784214313
 10
-7.2210739535
 20
-18.3902716971
 10
-7.2208114053
 20
-18.40219836
  0
LINE
  5
291
100
AcDbEntity
  8
RACCORDO
100
AcDbLine
 62
253
  6
CONTINUOUS
 10
-10.7594214545
 20
-23.3484286427
 11
-10.7637932885
 21
-22.9145762236
  0
LINE
  5
292
100
AcDbEntity
  8
RACCORDO
100
AcDbLine
 62
253
  6
CONTINUOUS
 10
-10.5094256853
 20
-23.1319222918
 11
-10.5145162863
 21
-22.6267408062
  0
LINE
  5
293
100
AcDbEntity
  8
0
100
AcDbLine
 62
7
  6
CONTINUOUS
 10
-11.2637932885
 20
22.3870868652
 11
-11.2637932885
 21
-21.395269016
  0
LINE
  5
294
100
AcDbEntity
  8
RACCORDO
100
AcDbLine
 62
7
  6
CONTINUOUS
 10
-10.7637932885
 20
24.7459131554
 11
-10.7637932885
 21
23.9063940728
  0
LINE
  5
295
100
AcDbEntity
  8
0
100
AcDbLine
 62
7
  6
CONTINUOUS
 10
-10.7637932885
 20
-22.9145762236
 11
-10.7637932885
 21
-21.9037810434
  0
LINE
  5
296
100
AcDbEntity
  8
RACCORDO
100
AcDbLine
 62
7
  6
CONTINUOUS
 10
-10.7637932885
 20
-22.9145762236
 11
-10.7637932885
 21
-23.7540953062
  0
LINE
  5
297
100
AcDbEntity
  8
0
100
AcDbLine
 62
7
  6
CONTINUOUS
 10
-10.7637932885
 20
22.8955988926
 11
-10.7637932885
 21
23.9063940728
  0
LINE
  5
298
100
AcDbEntity
  8
RACCORDO
100
AcDbLine
 62
253
  6
CONTINUOUS
 10
-10.7594214545
 20
24.7415413214
 11
-10.7594214545
 21
24.3402464919
  0
LINE
  5
299
100
AcDbEntity
  8
RACCORDO
100
AcDbLine
 62
253
  6
CONTINUOUS
 10
-10.7594214545
 20
-23.3484286427
 11
-10.7594214545
 21
-23.7497234722
  0
LINE
  5
29A
100
AcDbEntity
  8
RACCORDO
100
AcDbLine
 62
253
  6
CONTINUOUS
 10
-10.7637932885
 20
23.9063940728
 11
-10.7594214545
 21
24.3402464919
  0
LINE
  5
29B
100
AcDbEntity
  8
RACCORDO
100
AcDbLine
 62
253
  6
CONTINUOUS
 10
-10.5145162863
 20
23.6185586554
 11
-10.5094256853
 21
24.1237401409
  0
LWPOLYLINE
  5
29C
100
AcDbEntity
  8
RACCORDO
100
AcDbPolyline
 62
7
  6
CONTINUOUS
 90
31
 70
0
 10
-10.7637932885
 20
24.7459131554
 10
-10.7634506903
 20
24.758996932
 10
-10.7624238267
 20
24.772044848
 10
-10.7607155095
 20
24.7850211427
 10
-10.7583304186
 20
24.7978902537
 10
-10.7552750875
 20
24.8106169079
 10
-10.751557886
 20
24.8231662182
 10
-10.7471889992
 20
24.8355037899
 10
-10.7421803995
 20
24.8475958072
 10
-10.7365458128
 20
24.8594091205
 10
-10.7303006804
 20
24.8709113514
 10
-10.7234621181
 20
24.8820709733
 10
-10.7160488706
 20
24.8928573916
 10
-10.7080812553
 20
24.9032410419
 10
-10.6995811098
 20
24.9131934638
 10
-10.6905717362
 20
24.9226873723
 10
-10.6810778277
 20
24.9316967459
 10
-10.6711254058
 20
24.9401968914
 10
-10.6607417555
 20
24.9481645067
 10
-10.6499553372
 20
24.9555777542
 10
-10.6387957153
 20
24.9624163166
 10
-10.6272934844
 20
24.9686614489
 10
-10.6154801711
 20
24.9742960356
 10
-10.6033881538
 20
24.9793046353
 10
-10.5910505821
 20
24.9836735221
 10
-10.5785012717
 20
24.9873907236
 10
-10.5657746176
 20
24.9904460547
 10
-10.5529055066
 20
24.9928311456
 10
-10.5399292119
 20
24.9945394628
 10
-10.5268812959
 20
24.9955663264
 10
-10.5137975193
 20
24.9959089246
  0
LWPOLYLINE
  5
29D
100
AcDbEntity
  8
RACCORDO
100
AcDbPolyline
 62
253
  6
CONTINUOUS
 90
31
 70
0
 10
-10.7594214545
 20
24.7415413214
 10
-10.7590784159
 20
24.7546248074
 10
-10.758051126
 20
24.767672434
 10
-10.7563424004
 20
24.7806484401
 10
-10.7539569225
 20
24.7935172609
 10
-10.7509012303
 20
24.8062436255
 10
-10.7471836989
 20
24.8187926532
 10
-10.7428145174
 20
24.8311299494
 10
-10.7378056609
 20
24.8432217001
 10
-10.7321708577
 20
24.8550347639
 10
-10.7259255518
 20
24.8665367635
 10
-10.7190868604
 20
24.877696174
 10
-10.7116735271
 20
24.8884824096
 10
-10.7037058703
 20
24.8988659072
 10
-10.695205728
 20
24.9088182077
 10
-10.6861963975
 20
24.9183120336
 10
-10.6767025716
 20
24.9273213641
 10
-10.6667502711
 20
24.9358215064
 10
-10.6563667734
 20
24.9437891632
 10
-10.6455805378
 20
24.9512024965
 10
-10.6344211273
 20
24.958041188
 10
-10.6229191278
 20
24.9642864939
 10
-10.611106064
 20
24.969921297
 10
-10.5990143133
 20
24.9749301535
 10
-10.5866770171
 20
24.979299335
 10
-10.5741279894
 20
24.9830168664
 10
-10.5614016248
 20
24.9860725586
 10
-10.548532804
 20
24.9884580366
 10
-10.5355567978
 20
24.9901667621
 10
-10.5225091712
 20
24.991194052
 10
-10.5094256853
 20
24.9915370906
  0
LWPOLYLINE
  5
29E
100
AcDbEntity
  8
IMPORT_IGES
100
AcDbPolyline
 62
7
  6
CONTINUOUS
 90
10
 70
0
 10
-5.6393481453
 20
14.5202241623
 10
-5.6396182487
 20
14.5196889648
 10
-5.6398896468
 20
14.5186023558
 10
-5.6401623393
 20
14.5169654742
 10
-5.6404388962
 20
14.5147773569
 10
-5.6407167475
 20
14.5120422618
 10
-5.6409881844
 20
14.5087759978
 10
-5.6412506372
 20
14.5049930888
 10
-5.6415066755
 20
14.5007004119
 10
-5.6417562994
 20
14.4959089275
  0
LINE
  5
29F
100
AcDbEntity
  8
IMPORT_IGES
100
AcDbLine
 62
7
  6
CONTINUOUS
 10
-1.3376106911
 20
16.022091522
 11
-1.3394780507
 21
16.0202241623
  0
LINE
  5
2A0
100
AcDbEntity
  8
IMPORT_IGES
100
AcDbLine
 62
7
  6
CONTINUOUS
 10
7.0949339922
 20
-10.6364968518
 11
6.9482067115
 21
-10.6368356732
  0
LINE
  5
2A1
100
AcDbEntity
  8
IMPORT_IGES
100
AcDbLine
 62
7
  6
CONTINUOUS
 10
7.0876300739
 20
-11.7702618108
 11
6.9482067115
 21
-11.7702646203
  0
LINE
  5
2A2
100
AcDbEntity
  8
IMPORT_IGES
100
AcDbLine
 62
253
  6
CONTINUOUS
 10
1.1080636247
 20
-11.4260622172
 11
0.8581017009
 21
-11.4260622172
  0
LINE
  5
2A3
100
AcDbEntity
  8
IMPORT_IGES
100
AcDbLine
 62
253
  6
CONTINUOUS
 10
-2.4856882778
 20
-11.4260622172
 11
-2.7356502016
 21
-11.4260622172
  0
LINE
  5
2A4
100
AcDbEntity
  8
IMPORT_IGES
100
AcDbLine
 62
7
  6
CONTINUOUS
 10
7.0949552814
 20
-10.9160648133
 11
6.9482067115
 21
-10.9160649165
  0
LINE
  5
2A5
100
AcDbEntity
  8
IMPORT_IGES
100
AcDbLine
 62
253
  6
CONTINUOUS
 10
-2.7356502016
 20
-10.0821199336
 11
-2.4856882778
 21
-10.0821199336
  0
LINE
  5
2A6
100
AcDbEntity
  8
IMPORT_IGES
100
AcDbLine
 62
253
  6
CONTINUOUS
 10
0.8581017009
 20
-10.0821199336
 11
1.1080636247
 21
-10.0821199336
  0
LINE
  5
2A7
100
AcDbEntity
  8
IMPORT_IGES
100
AcDbLine
 62
7
  6
CONTINUOUS
 10
7.087565588
 20
-10.9234545073
 11
6.9482067115
 21
-10.9230764355
  0
LINE
  5
2A8
100
AcDbEntity
  8
IMPORT_IGES
100
AcDbLine
 62
253
  6
CONTINUOUS
 10
-2.4637932885
 20
-13.604014923
 11
-2.4856882778
 21
-13.5821199336
  0
LINE
  5
2A9
100
AcDbEntity
  8
IMPORT_IGES
100
AcDbLine
 62
253
  6
CONTINUOUS
 10
-1.9857644303
 20
-13.082196086
 11
-1.9638694409
 21
-13.1040910754
  0
LINE
  5
2AA
100
AcDbEntity
  8
IMPORT_IGES
100
AcDbLine
 62
253
  6
CONTINUOUS
 10
0.3581778533
 20
-15.4259860648
 11
0.336282864
 21
-15.4040910754
  0
LWPOLYLINE
  5
2AB
100
AcDbEntity
  8
RACCORDO
100
AcDbPolyline
 62
253
  6
CONTINUOUS
 90
6
 70
0
 10
-7.0288383539
 20
-18.3182583159
 10
-7.0283879647
 20
-18.3204068009
 10
-7.0250943909
 20
-18.3406941614
 10
-7.0227309705
 20
-18.3611132728
 10
-7.021303179
 20
-18.3816282247
 10
-7.0208147899
 20
-18.40219836
  0
LWPOLYLINE
  5
2AC
100
AcDbEntity
  8
IMPORT_IGES
100
AcDbPolyline
 62
253
  6
CONTINUOUS
 90
19
 70
0
 10
-9.1667611231
 20
-17.3072112149
 10
-9.1629313379
 20
-17.3943368329
 10
-9.1515241926
 20
-17.4807996294
 10
-9.1326264688
 20
-17.5659418251
 10
-9.1063819338
 20
-17.6491156877
 10
-9.072990247
 20
-17.7296884593
 10
-9.0327054408
 20
-17.8070471699
 10
-8.9858339881
 20
-17.8806033013
 10
-8.9327324708
 20
-17.9497972638
 10
-8.8738048668
 20
-18.0141026537
 10
-8.8094994769
 20
-18.0730302578
 10
-8.7403055144
 20
-18.1261317751
 10
-8.666749383
 20
-18.1730032278
 10
-8.5893906723
 20
-18.2132880339
 10
-8.5088179008
 20
-18.2466797207
 10
-8.4256440381
 20
-18.2729242557
 10
-8.3405018424
 20
-18.2918219796
 10
-8.254039046
 20
-18.3032291249
 10
-8.166913428
 20
-18.3070589101
  0
LWPOLYLINE
  5
2AD
100
AcDbEntity
  8
RACCORDO
100
AcDbPolyline
 62
253
  6
CONTINUOUS
 90
31
 70
0
 10
-10.7594214545
 20
24.3402464919
 10
-10.7590428968
 20
24.3289484878
 10
-10.7579837648
 20
24.3176781635
 10
-10.7562463834
 20
24.3064662849
 10
-10.7538346798
 20
24.2953424822
 10
-10.7507548115
 20
24.2843382474
 10
-10.7470157644
 20
24.2734867243
 10
-10.7426282246
 20
24.2628186148
 10
-10.7376038316
 20
24.2523619542
 10
-10.7319561566
 20
24.2421450441
 10
-10.725700467
 20
24.2321956417
 10
-10.7188538934
 20
24.2225411165
 10
-10.7114352863
 20
24.2132080928
 10
-10.7034649851
 20
24.2042221439
 10
-10.6949646936
 20
24.1956077262
 10
-10.6859576058
 20
24.1873883483
 10
-10.6764683036
 20
24.1795864508
 10
-10.6665227169
 20
24.172223361
 10
-10.6561480345
 20
24.1653192107
 10
-10.645372603
 20
24.158892863
 10
-10.6342258459
 20
24.1529618648
 10
-10.6227382095
 20
24.1475424162
 10
-10.6109410528
 20
24.1426493127
 10
-10.598866616
 20
24.1382959281
 10
-10.5865479362
 20
24.1344941693
 10
-10.574018702
 20
24.1312544218
 10
-10.5613131005
 20
24.1285855142
 10
-10.548465778
 20
24.1264947202
 10
-10.5355118047
 20
24.1249877485
 10
-10.5224865818
 20
24.1240687186
 10
-10.5094256853
 20
24.1237401409
  0
LWPOLYLINE
  5
2AE
100
AcDbEntity
  8
RACCORDO
100
AcDbPolyline
 62
253
  6
CONTINUOUS
 90
31
 70
0
 10
-8.3681651225
 20
-23.3484286427
 10
-8.3685444542
 20
-23.3371184922
 10
-8.3696054361
 20
-23.3258392273
 10
-8.371345171
 20
-23.3146216494
 10
-8.3737589079
 20
-23.3034963914
 10
-8.3768400555
 20
-23.2924938338
 10
-8.3805801998
 20
-23.2816440226
 10
-8.3849691272
 20
-23.2709765862
 10
-8.3899948525
 20
-23.2605206551
 10
-8.3956436514
 20
-23.2503047823
 10
-8.4019000984
 20
-23.2403568652
 10
-8.4087471083
 20
-23.2307040696
 10
-8.4161659835
 20
-23.2213727551
 10
-8.4241364644
 20
-23.2123884036
 10
-8.4326367854
 20
-23.2037755496
 10
-8.4416437339
 20
-23.1955577128
 10
-8.4511327138
 20
-23.1877573346
 10
-8.4610778127
 20
-23.1803957161
 10
-8.4714518727
 20
-23.1734929603
 10
-8.4822265642
 20
-23.1670679172
 10
-8.4933724639
 20
-23.1611381324
 10
-8.5048591347
 20
-23.1557197987
 10
-8.5166552088
 20
-23.1508277125
 10
-8.5287284738
 20
-23.146475233
 10
-8.5410459599
 20
-23.1426742461
 10
-8.5535740308
 20
-23.1394351313
 10
-8.5662784749
 20
-23.1367667341
 10
-8.579124599
 20
-23.1346763412
 10
-8.592077323
 20
-23.1331696611
 10
-8.6051012758
 20
-23.1322508082
 10
-8.6181608917
 20
-23.1319222918
  0
LINE
  5
2AF
100
AcDbEntity
  8
RACCORDO
100
AcDbLine
 62
253
  6
CONTINUOUS
 10
-10.5094256853
 20
-23.1319222918
 11
-10.5094256853
 21
-23.9997192414
  0
LINE
  5
2B0
100
AcDbEntity
  8
RACCORDO
100
AcDbLine
 62
253
  6
CONTINUOUS
 10
-10.5094256853
 20
24.1237401409
 11
-10.5094256853
 21
24.9915370906
  0
LINE
  5
2B1
100
AcDbEntity
  8
0
100
AcDbLine
 62
7
  6
CONTINUOUS
 10
-9.8637932885
 20
20.6448799784
 11
-9.8637932885
 21
-19.6530621292
  0
LINE
  5
2B2
100
AcDbEntity
  8
0
100
AcDbLine
 62
7
  6
CONTINUOUS
 10
-9.7154252366
 20
20.1994138545
 11
-9.7154252366
 21
-19.2075960053
  0
LINE
  5
2B3
100
AcDbEntity
  8
IMPORT_IGES
100
AcDbLine
 62
7
  6
CONTINUOUS
 10
-9.1779605289
 20
-17.3182963928
 11
-9.1779605289
 21
18.3100761643
  0
LINE
  5
2B4
100
AcDbEntity
  8
IMPORT_IGES
100
AcDbLine
 62
7
  6
CONTINUOUS
 10
-9.1757932885
 20
18.3080612294
 11
-9.1757932885
 21
-17.3162433803
  0
LINE
  5
2B5
100
AcDbEntity
  8
IMPORT_IGES
100
AcDbLine
 62
253
  6
CONTINUOUS
 10
-9.1667611231
 20
18.2990290641
 11
-9.1667611231
 21
-17.3072112149
  0
LWPOLYLINE
  5
2B6
100
AcDbEntity
  8
RACCORDO
100
AcDbPolyline
 62
253
  6
CONTINUOUS
 90
31
 70
0
 10
-10.7594214545
 20
-23.3484286427
 10
-10.7590428968
 20
-23.3371306386
 10
-10.7579837648
 20
-23.3258603143
 10
-10.7562463834
 20
-23.3146484357
 10
-10.7538346798
 20
-23.303524633
 10
-10.7507548115
 20
-23.2925203982
 10
-10.7470157644
 20
-23.2816688751
 10
-10.7426282246
 20
-23.2710007656
 10
-10.7376038316
 20
-23.260544105
 10
-10.7319561566
 20
-23.2503271949
 10
-10.725700467
 20
-23.2403777926
 10
-10.7188538934
 20
-23.2307232674
 10
-10.7114352863
 20
-23.2213902436
 10
-10.7034649851
 20
-23.2124042948
 10
-10.6949646936
 20
-23.203789877
 10
-10.6859576058
 20
-23.1955704991
 10
-10.6764683036
 20
-23.1877686016
 10
-10.6665227169
 20
-23.1804055118
 10
-10.6561480345
 20
-23.1735013615
 10
-10.645372603
 20
-23.1670750138
 10
-10.6342258459
 20
-23.1611440157
 10
-10.6227382095
 20
-23.1557245671
 10
-10.6109410528
 20
-23.1508314635
 10
-10.598866616
 20
-23.1464780789
 10
-10.5865479362
 20
-23.1426763201
 10
-10.574018702
 20
-23.1394365726
 10
-10.5613131005
 20
-23.1367676651
 10
-10.548465778
 20
-23.1346768711
 10
-10.5355118047
 20
-23.1331698993
 10
-10.5224865818
 20
-23.1322508695
 10
-10.5094256853
 20
-23.1319222918
  0
LWPOLYLINE
  5
2B7
100
AcDbEntity
  8
RACCORDO
100
AcDbPolyline
 62
253
  6
CONTINUOUS
 90
31
 70
0
 10
-8.3681651225
 20
24.3402464919
 10
-8.3685436801
 20
24.3289484878
 10
-8.3696028122
 20
24.3176781635
 10
-8.3713401935
 20
24.3064662849
 10
-8.3737518971
 20
24.2953424822
 10
-8.3768317654
 20
24.2843382474
 10
-8.3805708126
 20
24.2734867243
 10
-8.3849583524
 20
24.2628186148
 10
-8.3899827453
 20
24.2523619542
 10
-8.3956304203
 20
24.2421450441
 10
-8.4018861099
 20
24.2321956417
 10
-8.4087326835
 20
24.2225411165
 10
-8.4161512906
 20
24.2132080928
 10
-8.4241215919
 20
24.2042221439
 10
-8.4326218834
 20
24.1956077262
 10
-8.4416289711
 20
24.1873883483
 10
-8.4511182734
 20
24.1795864508
 10
-8.46106386
 20
24.172223361
 10
-8.4714385424
 20
24.1653192107
 10
-8.4822139739
 20
24.158892863
 10
-8.493360731
 20
24.1529618648
 10
-8.5048483674
 20
24.1475424162
 10
-8.5166455241
 20
24.1426493127
 10
-8.5287199609
 20
24.1382959281
 10
-8.5410386408
 20
24.1344941693
 10
-8.553567875
 20
24.1312544218
 10
-8.5662734764
 20
24.1285855142
 10
-8.579120799
 20
24.1264947202
 10
-8.5920747722
 20
24.1249877485
 10
-8.6050999952
 20
24.1240687186
 10
-8.6181608917
 20
24.1237401409
  0
LWPOLYLINE
  5
2B8
100
AcDbEntity
  8
IMPORT_IGES
100
AcDbPolyline
 62
253
  6
CONTINUOUS
 90
19
 70
0
 10
-9.1667611231
 20
18.2990290641
 10
-9.1629313379
 20
18.3861546821
 10
-9.1515241926
 20
18.4726174785
 10
-9.1326264688
 20
18.5577596743
 10
-9.1063819338
 20
18.6409335369
 10
-9.072990247
 20
18.7215063085
 10
-9.0327054408
 20
18.7988650191
 10
-8.9858339881
 20
18.8724211505
 10
-8.9327324708
 20
18.941615113
 10
-8.8738048668
 20
19.0059205029
 10
-8.8094994769
 20
19.0648481069
 10
-8.7403055144
 20
19.1179496243
 10
-8.666749383
 20
19.1648210769
 10
-8.5893906723
 20
19.2051058831
 10
-8.5088179008
 20
19.2384975699
 10
-8.4256440381
 20
19.2647421049
 10
-8.3405018424
 20
19.2836398287
 10
-8.254039046
 20
19.295046974
 10
-8.166913428
 20
19.2988767592
  0
LINE
  5
2B9
100
AcDbEntity
  8
0
100
AcDbLine
 62
7
  6
CONTINUOUS
 10
-8.0132448419
 20
20.9504428007
 11
-7.9637932885
 21
21.3959089246
  0
LINE
  5
2BA
100
AcDbEntity
  8
DRAFT
100
AcDbLine
 62
7
  6
CONTINUOUS
 10
4.2862067115
 20
22.8959089246
 11
4.2421394443
 21
22.8298070915
  0
LINE
  5
2BB
100
AcDbEntity
  8
RACCORDO
100
AcDbLine
 62
7
  6
CONTINUOUS
 10
7.6402979429
 20
22.3918176932
 11
7.4703074307
 21
22.2051266525
  0
LINE
  5
2BC
100
AcDbEntity
  8
IMPORT_IGES
100
AcDbLine
 62
7
  6
CONTINUOUS
 10
0.6621647032
 20
14.522091522
 11
0.6603280037
 21
14.5202241623
  0
LINE
  5
2BD
100
AcDbEntity
  8
RACCORDO
100
AcDbLine
 62
253
  6
CONTINUOUS
 10
10.2818391083
 20
24.9915370906
 11
10.2862109423
 21
24.9959089246
  0
LINE
  5
2BE
100
AcDbEntity
  8
RACCORDO
100
AcDbLine
 62
253
  6
CONTINUOUS
 10
10.5318348775
 20
24.7415413214
 11
10.5362067115
 21
24.7459131554
  0
LINE
  5
2BF
100
AcDbEntity
  8
IMPORT_IGES
100
AcDbLine
 62
253
  6
CONTINUOUS
 10
5.939326851
 20
19.2988767592
 11
5.9483590164
 21
19.3079089246
  0
LINE
  5
2C0
100
AcDbEntity
  8
IMPORT_IGES
100
AcDbLine
 62
7
  6
CONTINUOUS
 10
7.0874798118
 20
-9.7970792422
 11
6.9482067115
 21
-9.7970904694
  0
LINE
  5
2C1
100
AcDbEntity
  8
IMPORT_IGES
100
AcDbLine
 62
7
  6
CONTINUOUS
 10
-1.9638694409
 20
-9.6040910754
 11
0.336282864
 21
-9.6040910754
  0
LINE
  5
2C2
100
AcDbEntity
  8
IMPORT_IGES
100
AcDbLine
 62
253
  6
CONTINUOUS
 10
-1.9857644303
 20
-9.582196086
 11
0.3581778533
 21
-9.582196086
  0
LINE
  5
2C3
100
AcDbEntity
  8
IMPORT_IGES
100
AcDbLine
 62
253
  6
CONTINUOUS
 10
0.3581778533
 20
-9.3322341622
 11
-1.9857644303
 21
-9.3322341622
  0
LINE
  5
2C4
100
AcDbEntity
  8
IMPORT_IGES
100
AcDbLine
 62
253
  6
CONTINUOUS
 10
-1.9857644303
 20
-8.6759479886
 11
0.3581778533
 21
-8.6759479886
  0
LINE
  5
2C5
100
AcDbEntity
  8
IMPORT_IGES
100
AcDbLine
 62
253
  6
CONTINUOUS
 10
0.3581778533
 20
-8.4259860648
 11
-1.9857644303
 21
-8.4259860648
  0
LINE
  5
2C6
100
AcDbEntity
  8
IMPORT_IGES
100
AcDbLine
 62
7
  6
CONTINUOUS
 10
0.336282864
 20
-8.4040910754
 11
-1.9638694409
 21
-8.4040910754
  0
LWPOLYLINE
  5
2C7
100
AcDbEntity
  8
IMPORT_IGES
100
AcDbPolyline
 62
253
  6
CONTINUOUS
 90
25
 70
0
 10
0.3581778533
 20
-9.3322341622
 10
0.4075707692
 20
-9.334144056
 10
0.4563369162
 20
-9.3391485082
 10
0.5044762941
 20
-9.3472475186
 10
0.5521769357
 20
-9.3585083549
 10
0.5992508084
 20
-9.3728637496
 10
0.6451338139
 20
-9.3901119001
 10
0.6898415329
 20
-9.4102494512
 10
0.7333583848
 20
-9.4332797582
 10
0.7750735304
 20
-9.4590110848
 10
0.8149534908
 20
-9.4875186765
 10
0.8530317448
 20
-9.5187272878
 10
0.8887978897
 20
-9.552219446
 10
0.9222093053
 20
-9.5880286219
 10
0.9533086117
 20
-9.6261213448
 10
0.9817132666
 20
-9.6659797287
 10
1.0073630353
 20
-9.7076239159
 10
1.0303181525
 20
-9.7510337642
 10
1.0503767802
 20
-9.7956309621
 10
1.067524786
 20
-9.841403181
 10
1.0817763024
 20
-9.8883627496
 10
1.0929718886
 20
-9.9359683417
 10
1.1010583975
 20
-9.9840395154
 10
1.1060889763
 20
-10.0327567127
 10
1.1080636247
 20
-10.0821199336
  0
LWPOLYLINE
  5
2C8
100
AcDbEntity
  8
IMPORT_IGES
100
AcDbPolyline
 62
253
  6
CONTINUOUS
 90
25
 70
0
 10
-1.9857644303
 20
-8.6759479886
 10
-2.0351573438
 20
-8.6740381088
 10
-2.0839234892
 20
-8.6690336651
 10
-2.1320628666
 20
-8.6609346575
 10
-2.1797635089
 20
-8.6496738161
 10
-2.2268373831
 20
-8.6353184107
 10
-2.2727203904
 20
-8.6180702514
 10
-2.3174281111
 20
-8.5979326961
 10
-2.3609449649
 20
-8.5749023869
 10
-2.4026601113
 20
-8.5491710596
 10
-2.442540071
 20
-8.5206634694
 10
-2.4806183233
 20
-8.4894548612
 10
-2.516384466
 20
-8.4559627055
 10
-2.549795878
 20
-8.4201535304
 10
-2.5808951803
 20
-8.3820608079
 10
-2.6092998333
 20
-8.3422024239
 10
-2.634949604
 20
-8.3005582365
 10
-2.6579047255
 20
-8.2571483877
 10
-2.6779633573
 20
-8.2125511891
 10
-2.6951113666
 20
-8.1667789689
 10
-2.7093628863
 20
-8.1198193989
 10
-2.7205584739
 20
-8.072213806
 10
-2.7286449819
 20
-8.0241426326
 10
-2.7336755578
 20
-7.9754254364
 10
-2.7356502016
 20
-7.9260622172
  0
LWPOLYLINE
  5
2C9
100
AcDbEntity
  8
IMPORT_IGES
100
AcDbPolyline
 62
253
  6
CONTINUOUS
 90
16
 70
0
 10
0.3581778533
 20
-9.582196086
 10
0.4104618657
 20
-9.5849535624
 10
0.4621694742
 20
-9.5931632675
 10
0.5127337698
 20
-9.6067342335
 10
0.5616090295
 20
-9.6255205184
 10
0.6082504434
 20
-9.6493132557
 10
0.6521243947
 20
-9.6778342783
 10
0.692734861
 20
-9.7107444167
 10
0.7296682044
 20
-9.7476904336
 10
0.762560833
 20
-9.7883072696
 10
0.7910612772
 20
-9.8321801701
 10
0.8148323048
 20
-9.8788122632
 10
0.8335978231
 20
-9.9276693757
 10
0.8471511959
 20
-9.9782066473
 10
0.8553487494
 20
-10.0298788424
 10
0.8581017009
 20
-10.0821199336
  0
LWPOLYLINE
  5
2CA
100
AcDbEntity
  8
IMPORT_IGES
100
AcDbPolyline
 62
253
  6
CONTINUOUS
 90
16
 70
0
 10
-1.9857644303
 20
-8.4259860648
 10
-2.0380484453
 20
-8.4232285882
 10
-2.0897560559
 20
-8.4150188823
 10
-2.1403203532
 20
-8.4014479153
 10
-2.189195614
 20
-8.3826616291
 10
-2.2358370284
 20
-8.3588688905
 10
-2.2797109798
 20
-8.3303478666
 10
-2.3203214456
 20
-8.2974377271
 10
-2.3572547882
 20
-8.2604917095
 10
-2.3901474158
 20
-8.2198748732
 10
-2.4186478588
 20
-8.1760019727
 10
-2.4424188851
 20
-8.1293698802
 10
-2.4611844021
 20
-8.0805127688
 10
-2.4747377738
 20
-8.0299754989
 10
-2.4829353266
 20
-7.9783033058
 10
-2.4856882778
 20
-7.9260622172
  0
LINE
  5
2CB
100
AcDbEntity
  8
IMPORT_IGES
100
AcDbLine
 62
253
  6
CONTINUOUS
 10
0.8362067115
 20
-14.9041672278
 11
0.8581017009
 21
-14.9260622172
  0
LINE
  5
2CC
100
AcDbEntity
  8
RACCORDO
100
AcDbLine
 62
253
  6
CONTINUOUS
 10
10.2818391083
 20
-23.9997192414
 11
10.2862109423
 21
-24.0040910754
  0
LINE
  5
2CD
100
AcDbEntity
  8
RACCORDO
100
AcDbLine
 62
253
  6
CONTINUOUS
 10
10.5318348775
 20
-23.7497234722
 11
10.5362067115
 21
-23.7540953062
  0
LINE
  5
2CE
100
AcDbEntity
  8
IMPORT_IGES
100
AcDbLine
 62
253
  6
CONTINUOUS
 10
-2.4637932885
 20
-10.104014923
 11
-2.4856882778
 21
-10.0821199336
  0
LINE
  5
2CF
100
AcDbEntity
  8
IMPORT_IGES
100
AcDbLine
 62
253
  6
CONTINUOUS
 10
5.9483590164
 20
-18.3160910754
 11
5.939326851
 21
-18.3070589101
  0
LWPOLYLINE
  5
2D0
100
AcDbEntity
  8
RACCORDO
100
AcDbPolyline
 62
7
  6
CONTINUOUS
 90
3
 70
0
 10
7.4703074307
 20
-21.2133088034
 10
7.6030682463
 20
-21.3590051156
 10
7.6402979429
 20
-21.399999844
  0
LINE
  5
2D1
100
AcDbEntity
  8
DRAFT
100
AcDbLine
 62
7
  6
CONTINUOUS
 10
4.2862067115
 20
-21.9040910754
 11
4.2421394443
 21
-21.8379892423
  0
LINE
  5
2D2
100
AcDbEntity
  8
0
100
AcDbLine
 62
7
  6
CONTINUOUS
 10
-7.9637932885
 20
-20.4040910754
 11
-8.0132448419
 21
-19.9586249515
  0
LINE
  5
2D3
100
AcDbEntity
  8
RACCORDO
100
AcDbLine
 62
253
  6
CONTINUOUS
 10
-7.9081366859
 20
-18.3182583159
 11
-7.9067725521
 21
-18.4021513069
  0
LINE
  5
2D4
100
AcDbEntity
  8
RACCORDO
100
AcDbLine
 62
253
  6
CONTINUOUS
 10
-8.6181608917
 20
24.1237401409
 11
-8.6130702906
 21
23.6185586554
  0
LINE
  5
2D5
100
AcDbEntity
  8
RACCORDO
100
AcDbLine
 62
253
  6
CONTINUOUS
 10
-8.3681651225
 20
24.3402464919
 11
-8.3637932885
 21
23.9063940728
  0
LINE
  5
2D6
100
AcDbEntity
  8
RACCORDO
100
AcDbLine
 62
253
  6
CONTINUOUS
 10
-8.6181608917
 20
-23.1319222918
 11
-8.6181608917
 21
-23.9997192414
  0
LINE
  5
2D7
100
AcDbEntity
  8
RACCORDO
100
AcDbLine
 62
253
  6
CONTINUOUS
 10
-8.6181608917
 20
24.1237401409
 11
-8.6181608917
 21
24.9915370906
  0
LINE
  5
2D8
100
AcDbEntity
  8
RACCORDO
100
AcDbLine
 62
253
  6
CONTINUOUS
 10
-8.3681651225
 20
-23.7497234722
 11
-8.3681651225
 21
-23.3484286427
  0
LINE
  5
2D9
100
AcDbEntity
  8
RACCORDO
100
AcDbLine
 62
253
  6
CONTINUOUS
 10
-8.3681651225
 20
24.3402464919
 11
-8.3681651225
 21
24.7415413214
  0
LINE
  5
2DA
100
AcDbEntity
  8
DRAFT
100
AcDbLine
 62
7
  6
CONTINUOUS
 10
-8.3637932885
 20
-20.9040910754
 11
-8.3637932885
 21
-20.4040910754
  0
LINE
  5
2DB
100
AcDbEntity
  8
RACCORDO
100
AcDbLine
 62
7
  6
CONTINUOUS
 10
-8.3637932885
 20
-21.9040910754
 11
-8.3637932885
 21
-23.7540953062
  0
LINE
  5
2DC
100
AcDbEntity
  8
DRAFT
100
AcDbLine
 62
7
  6
CONTINUOUS
 10
-8.3637932885
 20
21.3959089246
 11
-8.3637932885
 21
21.8959089246
  0
LINE
  5
2DD
100
AcDbEntity
  8
RACCORDO
100
AcDbLine
 62
7
  6
CONTINUOUS
 10
-8.3637932885
 20
22.8959089246
 11
-8.3637932885
 21
24.7459131554
  0
LINE
  5
2DE
100
AcDbEntity
  8
RACCORDO
100
AcDbLine
 62
253
  6
CONTINUOUS
 10
-8.1978178552
 20
22.0618843578
 11
-8.1978178552
 21
21.3959089246
  0
LINE
  5
2DF
100
AcDbEntity
  8
RACCORDO
100
AcDbLine
 62
253
  6
CONTINUOUS
 10
-8.1978178552
 20
-20.4040910754
 11
-8.1978178552
 21
-21.0700665087
  0
LINE
  5
2E0
100
AcDbEntity
  8
IMPORT_IGES
100
AcDbLine
 62
253
  6
CONTINUOUS
 10
-8.166913428
 20
-18.3070589101
 11
-8.166913428
 21
19.2988767592
  0
LINE
  5
2E1
100
AcDbEntity
  8
RACCORDO
100
AcDbLine
 62
7
  6
CONTINUOUS
 10
-8.0132448419
 20
-18.3182583159
 11
-8.0132448419
 21
-19.9586249515
  0
LINE
  5
2E2
100
AcDbEntity
  8
RACCORDO
100
AcDbLine
 62
7
  6
CONTINUOUS
 10
-8.0132448419
 20
19.310076165
 11
-8.0132448419
 21
20.9504428007
  0
LINE
  5
2E3
100
AcDbEntity
  8
RACCORDO
100
AcDbLine
 62
253
  6
CONTINUOUS
 10
-7.9067725521
 20
-20.4040910754
 11
-7.9067725521
 21
-18.4021513069
  0
LINE
  5
2E4
100
AcDbEntity
  8
RACCORDO
100
AcDbLine
 62
253
  6
CONTINUOUS
 10
-7.9067725521
 20
19.3939691561
 11
-7.9067725521
 21
21.3959089246
  0
LINE
  5
2E5
100
AcDbEntity
  8
RACCORDO
100
AcDbLine
 62
253
  6
CONTINUOUS
 10
-7.7126972228
 20
-20.4040910754
 11
-7.7126972228
 21
-18.4021513069
  0
LINE
  5
2E6
100
AcDbEntity
  8
RACCORDO
100
AcDbLine
 62
253
  6
CONTINUOUS
 10
-7.7126972228
 20
19.3939691561
 11
-7.7126972228
 21
21.3959089246
  0
LINE
  5
2E7
100
AcDbEntity
  8
RACCORDO
100
AcDbLine
 62
253
  6
CONTINUOUS
 10
-7.6978940076
 20
22.2051266525
 11
-7.6978940076
 21
19.324882755
  0
LINE
  5
2E8
100
AcDbEntity
  8
RACCORDO
100
AcDbLine
 62
253
  6
CONTINUOUS
 10
-7.6978940076
 20
-18.3330649059
 11
-7.6978940076
 21
-21.2133088034
  0
LINE
  5
2E9
100
AcDbEntity
  8
RACCORDO
100
AcDbLine
 62
253
  6
CONTINUOUS
 10
-7.2208114053
 20
21.1805709657
 11
-7.2208114053
 21
19.3940162092
  0
LINE
  5
2EA
100
AcDbEntity
  8
RACCORDO
100
AcDbLine
 62
253
  6
CONTINUOUS
 10
-7.2208114053
 20
-18.40219836
 11
-7.2208114053
 21
-20.1887531165
  0
LINE
  5
2EB
100
AcDbEntity
  8
RACCORDO
100
AcDbLine
 62
253
  6
CONTINUOUS
 10
-8.6130702906
 20
-22.6267408062
 11
-8.6181608917
 21
-23.1319222918
  0
LINE
  5
2EC
100
AcDbEntity
  8
RACCORDO
100
AcDbLine
 62
253
  6
CONTINUOUS
 10
-8.3637932885
 20
-22.9145762236
 11
-8.3681651225
 21
-23.3484286427
  0
LWPOLYLINE
  5
2ED
100
AcDbEntity
  8
RACCORDO
100
AcDbPolyline
 62
253
  6
CONTINUOUS
 90
8
 70
0
 10
-7.9067725521
 20
-18.4021513069
 10
-7.9065620685
 20
-18.3887827031
 10
-7.9059532709
 20
-18.3754130978
 10
-7.9049452633
 20
-18.3620537953
 10
-7.9035380146
 20
-18.348720277
 10
-7.9017311022
 20
-18.3354198106
 10
-7.8995224746
 20
-18.3221515983
 10
-7.8987537989
 20
-18.3182583159
  0
LINE
  5
2EE
100
AcDbEntity
  8
RACCORDO
100
AcDbLine
 62
253
  6
CONTINUOUS
 10
-7.9067725521
 20
19.3939691561
 11
-7.9081366859
 21
19.310076165
  0
LWPOLYLINE
  5
2EF
100
AcDbEntity
  8
RACCORDO
100
AcDbPolyline
 62
253
  6
CONTINUOUS
 90
9
 70
0
 10
-7.2208114053
 20
19.3940162092
 10
-7.2210739535
 20
19.3820895461
 10
-7.2218461434
 20
19.3702392802
 10
-7.2231279749
 20
19.3584654115
 10
-7.2249250585
 20
19.3467419734
 10
-7.2272317837
 20
19.3350949325
 10
-7.230031319
 20
19.3236021879
 10
-7.2333271561
 20
19.3122656353
 10
-7.234068968
 20
19.310076165
  0
LWPOLYLINE
  5
2F0
100
AcDbEntity
  8
RACCORDO
100
AcDbPolyline
 62
253
  6
CONTINUOUS
 90
10
 70
0
 10
-7.7126972228
 20
-18.4021513069
 10
-7.7125169765
 20
-18.3944149035
 10
-7.7119712394
 20
-18.386690192
 10
-7.7110599784
 20
-18.3789771725
 10
-7.709783865
 20
-18.3712713886
 10
-7.7081421161
 20
-18.3635772967
 10
-7.7061325039
 20
-18.3559082656
 10
-7.7037542579
 20
-18.3482687515
 10
-7.7010080822
 20
-18.3406542983
 10
-7.6978940076
 20
-18.3330649059
  0
LWPOLYLINE
  5
2F1
100
AcDbEntity
  8
RACCORDO
100
AcDbPolyline
 62
253
  6
CONTINUOUS
 90
6
 70
0
 10
-7.0208147899
 20
19.3940162092
 10
-7.021303179
 20
19.373446074
 10
-7.0227309705
 20
19.3529311222
 10
-7.0250943909
 20
19.3325120107
 10
-7.0283879648
 20
19.3122246499
 10
-7.0288383539
 20
19.310076165
  0
LWPOLYLINE
  5
2F2
100
AcDbEntity
  8
RACCORDO
100
AcDbPolyline
 62
253
  6
CONTINUOUS
 90
31
 70
0
 10
-8.3681651225
 20
-23.7497234722
 10
-8.3685083049
 20
-23.7628097014
 10
-8.369536028
 20
-23.7758600734
 10
-8.3712454777
 20
-23.7888388041
 10
-8.373631973
 20
-23.801710317
 10
-8.3766889727
 20
-23.814439306
 10
-8.3804080875
 20
-23.8269908339
 10
-8.3847791149
 20
-23.8393304768
 10
-8.3897900702
 20
-23.8514244081
 10
-8.3954272074
 20
-23.8632394579
 10
-8.4016750666
 20
-23.874743231
 10
-8.4085165135
 20
-23.8859041858
 10
-8.41593278
 20
-23.8966917123
 10
-8.4239035331
 20
-23.9070762419
 10
-8.4324069082
 20
-23.9170292956
 10
-8.4414195576
 20
-23.9265235577
 10
-8.4509167232
 20
-23.9355329692
 10
-8.4608723919
 20
-23.9440328739
 10
-8.4712593514
 20
-23.9520000419
 10
-8.4820492746
 20
-23.9594127193
 10
-8.4932124428
 20
-23.9662504644
 10
-8.5047178795
 20
-23.9724943341
 10
-8.5165337697
 20
-23.9781271531
 10
-8.5286279235
 20
-23.9831336639
 10
-8.5409675222
 20
-23.9875003127
 10
-8.5535213535
 20
-23.9912158283
 10
-8.5662524612
 20
-23.9942690512
 10
-8.5791182808
 20
-23.9966503978
 10
-8.5920807812
 20
-23.9983542698
 10
-8.6051068776
 20
-23.9993777466
 10
-8.6181608917
 20
-23.9997192414
  0
LWPOLYLINE
  5
2F3
100
AcDbEntity
  8
RACCORDO
100
AcDbPolyline
 62
7
  6
CONTINUOUS
 90
31
 70
0
 10
-8.3637932885
 20
-23.7540953062
 10
-8.3641358866
 20
-23.7671790829
 10
-8.3651627502
 20
-23.7802269988
 10
-8.3668710675
 20
-23.7932032936
 10
-8.3692561584
 20
-23.8060724046
 10
-8.3723114894
 20
-23.8187990587
 10
-8.376028691
 20
-23.831348369
 10
-8.3803975778
 20
-23.8436859407
 10
-8.3854061774
 20
-23.855777958
 10
-8.3910407641
 20
-23.8675912714
 10
-8.3972858965
 20
-23.8790935023
 10
-8.4041244588
 20
-23.8902531242
 10
-8.4115377063
 20
-23.9010395424
 10
-8.4195053217
 20
-23.9114231928
 10
-8.4280054672
 20
-23.9213756146
 10
-8.4370148407
 20
-23.9308695231
 10
-8.4465087493
 20
-23.9398788967
 10
-8.4564611711
 20
-23.9483790422
 10
-8.4668448215
 20
-23.9563466575
 10
-8.4776312397
 20
-23.9637599051
 10
-8.4887908616
 20
-23.9705984674
 10
-8.5002930925
 20
-23.9768435998
 10
-8.5121064059
 20
-23.9824781864
 10
-8.5241984232
 20
-23.9874867861
 10
-8.5365359949
 20
-23.9918556729
 10
-8.5490853052
 20
-23.9955728745
 10
-8.5618119593
 20
-23.9986282055
 10
-8.5746810703
 20
-24.0010132964
 10
-8.5876573651
 20
-24.0027216137
 10
-8.600705281
 20
-24.0037484773
 10
-8.6137890577
 20
-24.0040910754
  0
LWPOLYLINE
  5
2F4
100
AcDbEntity
  8
RACCORDO
100
AcDbPolyline
 62
7
  6
CONTINUOUS
 90
3
 70
0
 10
6.8818932528
 20
21.0421430313
 10
6.9018802769
 20
21.0676179433
 10
6.9126434477
 20
21.0811744919
  0
LINE
  5
2F5
100
AcDbEntity
  8
RACCORDO
100
AcDbLine
 62
7
  6
CONTINUOUS
 10
6.9126434477
 20
21.0811744919
 11
6.9467914483
 21
21.123588453
  0
LINE
  5
2F6
100
AcDbEntity
  8
RACCORDO
100
AcDbLine
 62
7
  6
CONTINUOUS
 10
6.9467914483
 20
21.123588453
 11
6.9932248284
 21
21.1805709657
  0
LINE
  5
2F7
100
AcDbEntity
  8
IMPORT_IGES
100
AcDbLine
 62
7
  6
CONTINUOUS
 10
1.4100241141
 20
13.4697263272
 11
1.4118914738
 21
13.4715936868
  0
LINE
  5
2F8
100
AcDbEntity
  8
IMPORT_IGES
100
AcDbLine
 62
253
  6
CONTINUOUS
 10
6.9482067115
 20
18.3080612294
 11
6.9391745462
 21
18.2990290641
  0
LINE
  5
2F9
100
AcDbEntity
  8
IMPORT_IGES
100
AcDbLine
 62
253
  6
CONTINUOUS
 10
1.1080636247
 20
-7.9260622172
 11
0.8581017009
 21
-7.9260622172
  0
LINE
  5
2FA
100
AcDbEntity
  8
IMPORT_IGES
100
AcDbLine
 62
253
  6
CONTINUOUS
 10
-2.4856882778
 20
-7.9260622172
 11
-2.7356502016
 21
-7.9260622172
  0
LINE
  5
2FB
100
AcDbEntity
  8
IMPORT_IGES
100
AcDbLine
 62
7
  6
CONTINUOUS
 10
7.0874747212
 20
-7.7568238949
 11
6.9482067115
 21
-7.7568270302
  0
LINE
  5
2FC
100
AcDbEntity
  8
IMPORT_IGES
100
AcDbLine
 62
7
  6
CONTINUOUS
 10
7.087402676
 20
-6.8107497065
 11
6.9482067115
 21
-6.8107622429
  0
LINE
  5
2FD
100
AcDbEntity
  8
IMPORT_IGES
100
AcDbLine
 62
253
  6
CONTINUOUS
 10
-2.7356502016
 20
-6.5821199336
 11
-2.4856882778
 21
-6.5821199336
  0
LINE
  5
2FE
100
AcDbEntity
  8
IMPORT_IGES
100
AcDbLine
 62
253
  6
CONTINUOUS
 10
0.8581017009
 20
-6.5821199336
 11
1.1080636247
 21
-6.5821199336
  0
LINE
  5
2FF
100
AcDbEntity
  8
IMPORT_IGES
100
AcDbLine
 62
253
  6
CONTINUOUS
 10
-1.9857644303
 20
-9.582196086
 11
-1.9638694409
 21
-9.6040910754
  0
LINE
  5
300
100
AcDbEntity
  8
IMPORT_IGES
100
AcDbLine
 62
253
  6
CONTINUOUS
 10
0.3581778533
 20
-11.9259860648
 11
0.336282864
 21
-11.9040910754
  0
LINE
  5
301
100
AcDbEntity
  8
IMPORT_IGES
100
AcDbLine
 62
253
  6
CONTINUOUS
 10
0.8362067115
 20
-11.4041672278
 11
0.8581017009
 21
-11.4260622172
  0
LINE
  5
302
100
AcDbEntity
  8
IMPORT_IGES
100
AcDbLine
 62
253
  6
CONTINUOUS
 10
6.9391745462
 20
-17.3072112149
 11
6.9482067115
 21
-17.3162433803
  0
LINE
  5
303
100
AcDbEntity
  8
RACCORDO
100
AcDbLine
 62
7
  6
CONTINUOUS
 10
6.9932248284
 20
-20.1887531165
 11
6.9467951264
 21
-20.1317750685
  0
LINE
  5
304
100
AcDbEntity
  8
RACCORDO
100
AcDbLine
 62
7
  6
CONTINUOUS
 10
6.9467951264
 20
-20.1317750685
 11
6.9126700572
 21
-20.0893898874
  0
LWPOLYLINE
  5
305
100
AcDbEntity
  8
RACCORDO
100
AcDbPolyline
 62
7
  6
CONTINUOUS
 90
23
 70
0
 10
6.9126700572
 20
-20.0893898874
 10
6.8916501349
 20
-20.0628160246
 10
6.8819338961
 20
-20.0503776009
 10
6.8727408275
 20
-20.0384609892
 10
6.8640958537
 20
-20.0271091254
 10
6.8560130656
 20
-20.0163456668
 10
6.8484819517
 20
-20.0061469561
 10
6.841485528
 20
-19.9964849572
 10
6.8350281658
 20
-19.9873731111
 10
6.8290948122
 20
-19.9787979768
 10
6.8236450212
 20
-19.9706911951
 10
6.818672345
 20
-19.9630455013
 10
6.8141754453
 20
-19.9558681602
 10
6.8101313026
 20
-19.9491126062
 10
6.8065316166
 20
-19.9427697848
 10
6.8033788174
 20
-19.9368487506
 10
6.8006686037
 20
-19.9313301016
 10
6.7983944693
 20
-19.9262186675
 10
6.7965471699
 20
-19.9215096187
 10
6.7951167796
 20
-19.9171690642
 10
6.7940936603
 20
-19.9131857072
 10
6.7934678139
 20
-19.9095708445
 10
6.793228213
 20
-19.9063244761
  0
LINE
  5
306
100
AcDbEntity
  8
RACCORDO
100
AcDbLine
 62
253
  6
CONTINUOUS
 10
-7.0208147899
 20
19.3940162092
 11
-7.019449891
 21
19.310076165
  0
LINE
  5
307
100
AcDbEntity
  8
RACCORDO
100
AcDbLine
 62
253
  6
CONTINUOUS
 10
-7.0208147899
 20
20.8981423253
 11
-7.0208147899
 21
19.3940162092
  0
LINE
  5
308
100
AcDbEntity
  8
RACCORDO
100
AcDbLine
 62
253
  6
CONTINUOUS
 10
-7.0208147899
 20
-18.40219836
 11
-7.0208147899
 21
-19.9063244761
  0
LINE
  5
309
100
AcDbEntity
  8
RACCORDO
100
AcDbLine
 62
7
  6
CONTINUOUS
 10
-6.9143417351
 20
20.7217305484
 11
-6.9143417351
 21
19.310076165
  0
LINE
  5
30A
100
AcDbEntity
  8
RACCORDO
100
AcDbLine
 62
7
  6
CONTINUOUS
 10
-6.9143417351
 20
-18.3182583159
 11
-6.9143417351
 21
-19.7299126992
  0
LINE
  5
30B
100
AcDbEntity
  8
IMPORT_IGES
100
AcDbLine
 62
253
  6
CONTINUOUS
 10
-5.9094676042
 20
14.4959089246
 11
-5.9094676042
 21
8.9959089246
  0
LINE
  5
30C
100
AcDbEntity
  8
IMPORT_IGES
100
AcDbLine
 62
253
  6
CONTINUOUS
 10
-5.6595056805
 20
8.9959089246
 11
-5.6595056805
 21
14.4959089246
  0
LINE
  5
30D
100
AcDbEntity
  8
IMPORT_IGES
100
AcDbLine
 62
7
  6
CONTINUOUS
 10
-5.6463382235
 20
13.8715327649
 11
-5.6463382235
 21
14.1202850843
  0
LINE
  5
30E
100
AcDbEntity
  8
IMPORT_IGES
100
AcDbLine
 62
7
  6
CONTINUOUS
 10
-5.6376106911
 20
8.9959089246
 11
-5.6376106911
 21
13.4697263272
  0
LINE
  5
30F
100
AcDbEntity
  8
IMPORT_IGES
100
AcDbLine
 62
253
  6
CONTINUOUS
 10
-5.2637932885
 20
8.6152618124
 11
-5.2637932885
 21
8.622091522
  0
LINE
  5
310
100
AcDbEntity
  8
RACCORDO
100
AcDbLine
 62
253
  6
CONTINUOUS
 10
-7.019449891
 20
-18.3182583159
 11
-7.0208147899
 21
-18.40219836
  0
LWPOLYLINE
  5
311
100
AcDbEntity
  8
IMPORT_IGES
100
AcDbPolyline
 62
7
  6
CONTINUOUS
 90
14
 70
0
 10
-4.8745182968
 20
8.9959089246
 10
-4.8764452616
 20
8.958572008
 10
-4.8821359507
 20
8.9213038423
 10
-4.891590364
 20
8.8844201852
 10
-4.9049194616
 20
8.8481664853
 10
-4.9220122836
 20
8.8130221394
 10
-4.9425359494
 20
8.7796414106
 10
-4.966540036
 20
8.7484915972
 10
-4.9939749665
 20
8.7197862033
 10
-5.02435913
 20
8.6937846752
 10
-5.057674267
 20
8.67093497
 10
-5.093938637
 20
8.6515225544
 10
-5.1327254074
 20
8.635739865
 10
-5.1738923007
 20
8.6240640653
  0
LWPOLYLINE
  5
312
100
AcDbEntity
  8
RACCORDO
100
AcDbPolyline
 62
7
  6
CONTINUOUS
 90
21
 70
0
 10
-7.0208147899
 20
-19.9063244761
 10
-7.0210520782
 20
-19.9095512488
 10
-7.0216721132
 20
-19.9131473364
 10
-7.022686756
 20
-19.9171127389
 10
-7.0241065484
 20
-19.9214342285
 10
-7.0259421689
 20
-19.926125033
 10
-7.0282058497
 20
-19.9312248356
 10
-7.030910116
 20
-19.9367419312
 10
-7.0340618674
 20
-19.9426680249
 10
-7.0376626356
 20
-19.9490179148
 10
-7.0417092331
 20
-19.9557823481
 10
-7.0462107942
 20
-19.9629705776
 10
-7.0511879041
 20
-19.97062516
 10
-7.0566401225
 20
-19.9787372164
 10
-7.0625745274
 20
-19.9873156257
 10
-7.0690324093
 20
-19.9964295806
 10
-7.076028587
 20
-20.0060921752
 10
-7.0835585248
 20
-20.0162903153
 10
-7.0916406634
 20
-20.0270539111
 10
-7.1002858715
 20
-20.0384068188
 10
-7.1094798298
 20
-20.0503251822
  0
LWPOLYLINE
  5
313
100
AcDbEntity
  8
ASSI
100
AcDbPolyline
 62
7
  6
CONTINUOUS
 90
18
 70
0
 10
-3.6137932885
 20
24.2470512149
 10
-3.614067869
 20
24.244620216
 10
-3.6149093457
 20
24.2415951953
 10
-3.6163440363
 20
24.237976153
 10
-3.6184024496
 20
24.2337737918
 10
-3.6211075462
 20
24.2289774089
 10
-3.6244625693
 20
24.2235548959
 10
-3.6284799521
 20
24.2174903583
 10
-3.6331714371
 20
24.2107996906
 10
-3.638516241
 20
24.2034984683
 10
-3.6444990001
 20
24.1955948697
 10
-3.651128593
 20
24.1870807166
 10
-3.6584105913
 20
24.1779470494
 10
-3.6663242079
 20
24.1682207542
 10
-3.6748811535
 20
24.1578749449
 10
-3.6841501333
 20
24.1468200037
 10
-3.694145797
 20
24.1350566077
 10
-3.7048667043
 20
24.1225840797
  0
LINE
  5
314
100
AcDbEntity
  8
RACCORDO
100
AcDbLine
 62
7
  6
CONTINUOUS
 10
6.7926548916
 20
20.8805823887
 11
6.6867551581
 21
20.7217305484
  0
LINE
  5
315
100
AcDbEntity
  8
IMPORT_IGES
100
AcDbLine
 62
7
  6
CONTINUOUS
 10
-1.9638694409
 20
-6.1040910754
 11
0.336282864
 21
-6.1040910754
  0
LINE
  5
316
100
AcDbEntity
  8
IMPORT_IGES
100
AcDbLine
 62
253
  6
CONTINUOUS
 10
-1.9857644303
 20
-6.082196086
 11
0.3581778533
 21
-6.082196086
  0
LINE
  5
317
100
AcDbEntity
  8
IMPORT_IGES
100
AcDbLine
 62
253
  6
CONTINUOUS
 10
0.3581778533
 20
-5.8322341622
 11
-1.9857644303
 21
-5.8322341622
  0
LINE
  5
318
100
AcDbEntity
  8
IMPORT_IGES
100
AcDbLine
 62
253
  6
CONTINUOUS
 10
-1.9857644303
 20
-5.1759479886
 11
0.3581778533
 21
-5.1759479886
  0
LINE
  5
319
100
AcDbEntity
  8
IMPORT_IGES
100
AcDbLine
 62
253
  6
CONTINUOUS
 10
0.3581778533
 20
-4.9259860648
 11
-1.9857644303
 21
-4.9259860648
  0
LINE
  5
31A
100
AcDbEntity
  8
IMPORT_IGES
100
AcDbLine
 62
7
  6
CONTINUOUS
 10
0.336282864
 20
-4.9040910754
 11
-1.9638694409
 21
-4.9040910754
  0
LWPOLYLINE
  5
31B
100
AcDbEntity
  8
IMPORT_IGES
100
AcDbPolyline
 62
253
  6
CONTINUOUS
 90
25
 70
0
 10
0.3581778533
 20
-5.8322341622
 10
0.4075707497
 20
-5.8341439414
 10
0.4563368846
 20
-5.8391483244
 10
0.5044762581
 20
-5.8472473112
 10
0.5521769051
 20
-5.8585081898
 10
0.5992507906
 20
-5.8728636722
 10
0.6451338097
 20
-5.8901118946
 10
0.6898415432
 20
-5.91024948
 10
0.7333584102
 20
-5.9332798053
 10
0.7750735626
 20
-5.9590111374
 10
0.8149535175
 20
-5.9875187167
 10
0.8530317578
 20
-6.0187273026
 10
0.8887978844
 20
-6.0522194408
 10
0.9222092706
 20
-6.0880286093
 10
0.9533085432
 20
-6.1261213299
 10
0.9817131825
 20
-6.1659797141
 10
1.0073629682
 20
-6.2076239031
 10
1.0303181206
 20
-6.2510337556
 10
1.0503767815
 20
-6.2956309595
 10
1.0675248161
 20
-6.3414031886
 10
1.0817763592
 20
-6.3883627691
 10
1.092971957
 20
-6.4359683672
 10
1.1010584582
 20
-6.4840395384
 10
1.1060890141
 20
-6.5327567272
 10
1.1080636247
 20
-6.5821199336
  0
LWPOLYLINE
  5
31C
100
AcDbEntity
  8
IMPORT_IGES
100
AcDbPolyline
 62
253
  6
CONTINUOUS
 90
25
 70
0
 10
-1.9857644303
 20
-5.1759479886
 10
-2.035157324
 20
-5.1740382249
 10
-2.0839234573
 20
-5.1690338512
 10
-2.1320628302
 20
-5.1609348676
 10
-2.1797634779
 20
-5.1496739833
 10
-2.2268373652
 20
-5.135318489
 10
-2.272720386
 20
-5.118070257
 10
-2.3174281215
 20
-5.097932667
 10
-2.3609449905
 20
-5.0749023392
 10
-2.4026601439
 20
-5.0491710064
 10
-2.442540098
 20
-5.0206634288
 10
-2.4806183365
 20
-4.9894548462
 10
-2.5163844606
 20
-4.9559627107
 10
-2.5497958429
 20
-4.9201535433
 10
-2.5808951109
 20
-4.8820608229
 10
-2.6092997481
 20
-4.8422024387
 10
-2.6349495361
 20
-4.8005582495
 10
-2.6579046932
 20
-4.7571483964
 10
-2.6779633586
 20
-4.7125511917
 10
-2.6951113971
 20
-4.6667789613
 10
-2.7093629437
 20
-4.6198193792
 10
-2.7205585431
 20
-4.5722137802
 10
-2.7286450433
 20
-4.5241426094
 10
-2.7336755961
 20
-4.4754254217
 10
-2.7356502016
 20
-4.4260622172
  0
LWPOLYLINE
  5
31D
100
AcDbEntity
  8
IMPORT_IGES
100
AcDbPolyline
 62
253
  6
CONTINUOUS
 90
16
 70
0
 10
0.3581778533
 20
-6.082196086
 10
0.4104618872
 20
-6.0849535647
 10
0.4621695134
 20
-6.0931632759
 10
0.5127338224
 20
-6.1067342506
 10
0.5616090911
 20
-6.1255205459
 10
0.6082505094
 20
-6.1493132939
 10
0.6521244612
 20
-6.1778343267
 10
0.6927349242
 20
-6.2107444737
 10
0.7296682613
 20
-6.2476904969
 10
0.7625608813
 20
-6.288307336
 10
0.7910613153
 20
-6.332180236
 10
0.8148323321
 20
-6.3788123244
 10
0.8335978401
 20
-6.4276694279
 10
0.8471512041
 20
-6.478206686
 10
0.8553487516
 20
-6.5298788636
 10
0.8581017009
 20
-6.5821199336
  0
LWPOLYLINE
  5
31E
100
AcDbEntity
  8
IMPORT_IGES
100
AcDbPolyline
 62
253
  6
CONTINUOUS
 90
16
 70
0
 10
-1.9857644303
 20
-4.9259860648
 10
-2.038048467
 20
-4.9232285859
 10
-2.0897560956
 20
-4.9150188738
 10
-2.1403204065
 20
-4.9014478979
 10
-2.1891956763
 20
-4.8826616013
 10
-2.2358370952
 20
-4.8588688518
 10
-2.279711047
 20
-4.8303478177
 10
-2.3203215097
 20
-4.7974376695
 10
-2.3572548459
 20
-4.7604916454
 10
-2.3901474647
 20
-4.7198748059
 10
-2.4186478973
 20
-4.676001906
 10
-2.4424189127
 20
-4.6293698183
 10
-2.4611844193
 20
-4.580512716
 10
-2.4747377822
 20
-4.5299754596
 10
-2.4829353288
 20
-4.4783032844
 10
-2.4856882778
 20
-4.4260622172
  0
LINE
  5
31F
100
AcDbEntity
  8
IMPORT_IGES
100
AcDbLine
 62
253
  6
CONTINUOUS
 10
-2.4637932885
 20
-6.604014923
 11
-2.4856882778
 21
-6.5821199336
  0
LINE
  5
320
100
AcDbEntity
  8
IMPORT_IGES
100
AcDbLine
 62
253
  6
CONTINUOUS
 10
-1.9857644303
 20
-6.082196086
 11
-1.9638694409
 21
-6.1040910754
  0
LINE
  5
321
100
AcDbEntity
  8
IMPORT_IGES
100
AcDbLine
 62
253
  6
CONTINUOUS
 10
0.3581778533
 20
-8.4259860648
 11
0.336282864
 21
-8.4040910754
  0
LINE
  5
322
100
AcDbEntity
  8
IMPORT_IGES
100
AcDbLine
 62
253
  6
CONTINUOUS
 10
0.8362067115
 20
-7.9041672278
 11
0.8581017009
 21
-7.9260622172
  0
LINE
  5
323
100
AcDbEntity
  8
RACCORDO
100
AcDbLine
 62
7
  6
CONTINUOUS
 10
6.7926548916
 20
-19.8887645396
 11
6.6867551581
 21
-19.7299126992
  0
LWPOLYLINE
  5
324
100
AcDbEntity
  8
IMPORT_IGES
100
AcDbPolyline
 62
7
  6
CONTINUOUS
 90
10
 70
0
 10
-4.8858302774
 20
14.4959089246
 10
-4.8860627207
 20
14.5006994213
 10
-4.8862932527
 20
14.5049916117
 10
-4.8865218735
 20
14.5087744321
 10
-4.8867463192
 20
14.5120409554
 10
-4.8869688537
 20
14.5147764713
 10
-4.887196268
 20
14.5169649512
 10
-4.8874308257
 20
14.5186020914
 10
-4.8876702632
 20
14.5196888813
 10
-4.8879145805
 20
14.5202241623
  0
LINE
  5
325
100
AcDbEntity
  8
IMPORT_IGES
100
AcDbLine
 62
7
  6
CONTINUOUS
 10
-5.1637932885
 20
13.4697263272
 11
-5.1637932885
 21
11.4709089246
  0
LINE
  5
326
100
AcDbEntity
  8
IMPORT_IGES
100
AcDbLine
 62
7
  6
CONTINUOUS
 10
-4.8899758859
 20
13.4697263272
 11
-4.8899758859
 21
12.0908963617
  0
LINE
  5
327
100
AcDbEntity
  8
IMPORT_IGES
100
AcDbLine
 62
7
  6
CONTINUOUS
 10
-4.8812483534
 20
14.1202850843
 11
-4.8812483534
 21
13.8715327649
  0
LINE
  5
328
100
AcDbEntity
  8
IMPORT_IGES
100
AcDbLine
 62
7
  6
CONTINUOUS
 10
-4.8742663274
 20
9.11518566
 11
-4.8742663274
 21
11.0959089246
  0
LINE
  5
329
100
AcDbEntity
  8
IMPORT_IGES
100
AcDbLine
 62
253
  6
CONTINUOUS
 10
-4.8680808965
 20
14.4959089246
 11
-4.8680808965
 21
8.9959089246
  0
LINE
  5
32A
100
AcDbEntity
  8
IMPORT_IGES
100
AcDbLine
 62
253
  6
CONTINUOUS
 10
-4.6181189727
 20
8.9959089246
 11
-4.6181189727
 21
14.4959089246
  0
LINE
  5
32B
100
AcDbEntity
  8
DRAFT
100
AcDbLine
 62
7
  6
CONTINUOUS
 10
-4.5137932885
 20
24.2959089246
 11
-4.5137932885
 21
22.8959089246
  0
LINE
  5
32C
100
AcDbEntity
  8
DRAFT
100
AcDbLine
 62
7
  6
CONTINUOUS
 10
-4.5137932885
 20
-21.9040910754
 11
-4.5137932885
 21
-23.3040910754
  0
LINE
  5
32D
100
AcDbEntity
  8
ASSI
100
AcDbLine
 62
253
  6
CONTINUOUS
 10
-4.4697260212
 20
-21.8379892423
 11
-4.4697260212
 21
-23.2548645001
  0
LINE
  5
32E
100
AcDbEntity
  8
ASSI
100
AcDbLine
 62
253
  6
CONTINUOUS
 10
-4.4697260212
 20
22.8298070915
 11
-4.4697260212
 21
24.2466823493
  0
LINE
  5
32F
100
AcDbEntity
  8
ASSI
100
AcDbLine
 62
7
  6
CONTINUOUS
 10
-3.6137932885
 20
-21.8380109706
 11
-3.6137932885
 21
-23.2982732456
  0
LINE
  5
330
100
AcDbEntity
  8
ASSI
100
AcDbLine
 62
7
  6
CONTINUOUS
 10
-3.6137932885
 20
22.8298288198
 11
-3.6137932885
 21
24.2900910948
  0
LINE
  5
331
100
AcDbEntity
  8
IMPORT_IGES
100
AcDbLine
 62
253
  6
CONTINUOUS
 10
1.1080636247
 20
-4.4260622172
 11
0.8581017009
 21
-4.4260622172
  0
LINE
  5
332
100
AcDbEntity
  8
IMPORT_IGES
100
AcDbLine
 62
253
  6
CONTINUOUS
 10
-2.4856882778
 20
-4.4260622172
 11
-2.7356502016
 21
-4.4260622172
  0
LINE
  5
333
100
AcDbEntity
  8
IMPORT_IGES
100
AcDbLine
 62
7
  6
CONTINUOUS
 10
6.9482067115
 20
-4.4254993091
 11
7.0894966439
 21
-4.4254993091
  0
LINE
  5
334
100
AcDbEntity
  8
IMPORT_IGES
100
AcDbLine
 62
253
  6
CONTINUOUS
 10
7.0945748208
 20
-3.8073067221
 11
6.9482067115
 21
-3.8073011489
  0
LINE
  5
335
100
AcDbEntity
  8
IMPORT_IGES
100
AcDbLine
 62
7
  6
CONTINUOUS
 10
7.0945271906
 20
-3.1818402869
 11
6.9482067115
 21
-3.181848999
  0
LINE
  5
336
100
AcDbEntity
  8
IMPORT_IGES
100
AcDbLine
 62
253
  6
CONTINUOUS
 10
-2.7356502016
 20
-3.0821199336
 11
-2.4856882778
 21
-3.0821199336
  0
LINE
  5
337
100
AcDbEntity
  8
IMPORT_IGES
100
AcDbLine
 62
253
  6
CONTINUOUS
 10
0.8581017009
 20
-3.0821199336
 11
1.1080636247
 21
-3.0821199336
  0
LINE
  5
338
100
AcDbEntity
  8
IMPORT_IGES
100
AcDbLine
 62
253
  6
CONTINUOUS
 10
-2.4637932885
 20
-3.104014923
 11
-2.4856882778
 21
-3.0821199336
  0
LINE
  5
339
100
AcDbEntity
  8
IMPORT_IGES
100
AcDbLine
 62
253
  6
CONTINUOUS
 10
-1.9857644303
 20
-2.582196086
 11
-1.9638694409
 21
-2.6040910754
  0
LINE
  5
33A
100
AcDbEntity
  8
IMPORT_IGES
100
AcDbLine
 62
253
  6
CONTINUOUS
 10
0.3581778533
 20
-4.9259860648
 11
0.336282864
 21
-4.9040910754
  0
LWPOLYLINE
  5
33B
100
AcDbEntity
  8
RACCORDO
100
AcDbPolyline
 62
253
  6
CONTINUOUS
 90
8
 70
0
 10
-7.8987537988
 20
19.310076165
 10
-7.8995224747
 20
19.3139694486
 10
-7.9017311025
 20
19.327237662
 10
-7.903538015
 20
19.3405381296
 10
-7.9049452637
 20
19.3538716483
 10
-7.9059532711
 20
19.3672309502
 10
-7.9065620686
 20
19.3806005543
 10
-7.9067725521
 20
19.3939691561
  0
LWPOLYLINE
  5
33C
100
AcDbEntity
  8
IMPORT_IGES
100
AcDbPolyline
 62
7
  6
CONTINUOUS
 90
3
 70
0
 10
-2.9158023436
 20
16.0825218033
 10
-2.91251179
 20
16.0355790705
 10
-2.9123255698
 20
16.022091522
  0
LINE
  5
33D
100
AcDbEntity
  8
IMPORT_IGES
100
AcDbLine
 62
253
  6
CONTINUOUS
 10
-3.3637932885
 20
15.7502346088
 11
-3.3637932885
 21
16.022091522
  0
LINE
  5
33E
100
AcDbEntity
  8
IMPORT_IGES
100
AcDbLine
 62
253
  6
CONTINUOUS
 10
-3.3637932885
 20
16.7697263272
 11
-3.3637932885
 21
17.0415832404
  0
LINE
  5
33F
100
AcDbEntity
  8
RACCORDO
100
AcDbLine
 62
7
  6
CONTINUOUS
 10
-3.1137932885
 20
-20.5040910754
 11
-3.1137932885
 21
-21.8953642076
  0
LINE
  5
340
100
AcDbEntity
  8
RACCORDO
100
AcDbLine
 62
7
  6
CONTINUOUS
 10
-3.1137932885
 20
21.4959089246
 11
-3.1137932885
 21
22.8871820568
  0
LINE
  5
341
100
AcDbEntity
  8
IMPORT_IGES
100
AcDbLine
 62
7
  6
CONTINUOUS
 10
-2.8899758859
 20
16.7697263272
 11
-2.8899758859
 21
16.022091522
  0
LINE
  5
342
100
AcDbEntity
  8
IMPORT_IGES
100
AcDbLine
 62
253
  6
CONTINUOUS
 10
-2.8881085262
 20
16.7715936868
 11
-2.8881085262
 21
16.0202241623
  0
LINE
  5
343
100
AcDbEntity
  8
IMPORT_IGES
100
AcDbLine
 62
253
  6
CONTINUOUS
 10
-2.8365954525
 20
16.0001965326
 11
-2.8365954525
 21
15.7502346088
  0
LINE
  5
344
100
AcDbEntity
  8
IMPORT_IGES
100
AcDbLine
 62
253
  6
CONTINUOUS
 10
-2.7356502016
 20
0.4178800664
 11
-2.7356502016
 21
-0.9260622172
  0
LINE
  5
345
100
AcDbEntity
  8
IMPORT_IGES
100
AcDbLine
 62
253
  6
CONTINUOUS
 10
-2.7356502016
 20
-3.0821199336
 11
-2.7356502016
 21
-4.4260622172
  0
LINE
  5
346
100
AcDbEntity
  8
IMPORT_IGES
100
AcDbLine
 62
253
  6
CONTINUOUS
 10
-2.7356502016
 20
-6.5821199336
 11
-2.7356502016
 21
-7.9260622172
  0
LINE
  5
347
100
AcDbEntity
  8
IMPORT_IGES
100
AcDbLine
 62
253
  6
CONTINUOUS
 10
-2.7356502016
 20
-10.0821199336
 11
-2.7356502016
 21
-11.4260622172
  0
LINE
  5
348
100
AcDbEntity
  8
IMPORT_IGES
100
AcDbLine
 62
253
  6
CONTINUOUS
 10
-2.7356502016
 20
-13.5821199336
 11
-2.7356502016
 21
-14.9260622172
  0
LINE
  5
349
100
AcDbEntity
  8
IMPORT_IGES
100
AcDbLine
 62
253
  6
CONTINUOUS
 10
-2.4881694481
 20
16.0133639895
 11
-2.4881694481
 21
16.7784538597
  0
LINE
  5
34A
100
AcDbEntity
  8
IMPORT_IGES
100
AcDbLine
 62
253
  6
CONTINUOUS
 10
-2.4856882778
 20
-14.9260622172
 11
-2.4856882778
 21
-13.5821199336
  0
LINE
  5
34B
100
AcDbEntity
  8
IMPORT_IGES
100
AcDbLine
 62
253
  6
CONTINUOUS
 10
-2.4856882778
 20
-11.4260622172
 11
-2.4856882778
 21
-10.0821199336
  0
LINE
  5
34C
100
AcDbEntity
  8
IMPORT_IGES
100
AcDbLine
 62
253
  6
CONTINUOUS
 10
-2.4856882778
 20
-7.9260622172
 11
-2.4856882778
 21
-6.5821199336
  0
LINE
  5
34D
100
AcDbEntity
  8
IMPORT_IGES
100
AcDbLine
 62
253
  6
CONTINUOUS
 10
-2.4856882778
 20
-4.4260622172
 11
-2.4856882778
 21
-3.0821199336
  0
LINE
  5
34E
100
AcDbEntity
  8
IMPORT_IGES
100
AcDbLine
 62
253
  6
CONTINUOUS
 10
-2.4856882778
 20
-0.9260622172
 11
-2.4856882778
 21
0.4178800664
  0
LINE
  5
34F
100
AcDbEntity
  8
IMPORT_IGES
100
AcDbLine
 62
7
  6
CONTINUOUS
 10
-2.4637932885
 20
-14.9041672278
 11
-2.4637932885
 21
-13.604014923
  0
LINE
  5
350
100
AcDbEntity
  8
IMPORT_IGES
100
AcDbLine
 62
7
  6
CONTINUOUS
 10
-2.4637932885
 20
-11.4041672278
 11
-2.4637932885
 21
-10.104014923
  0
LINE
  5
351
100
AcDbEntity
  8
IMPORT_IGES
100
AcDbLine
 62
7
  6
CONTINUOUS
 10
-2.4637932885
 20
-7.9041672278
 11
-2.4637932885
 21
-6.604014923
  0
LINE
  5
352
100
AcDbEntity
  8
IMPORT_IGES
100
AcDbLine
 62
7
  6
CONTINUOUS
 10
-2.4637932885
 20
-4.4041672278
 11
-2.4637932885
 21
-3.104014923
  0
LINE
  5
353
100
AcDbEntity
  8
IMPORT_IGES
100
AcDbLine
 62
7
  6
CONTINUOUS
 10
-2.4637932885
 20
-0.9041672278
 11
-2.4637932885
 21
0.395985077
  0
LINE
  5
354
100
AcDbEntity
  8
IMPORT_IGES
100
AcDbLine
 62
253
  6
CONTINUOUS
 10
-1.9857644303
 20
-15.6759479886
 11
-1.9857644303
 21
-15.4259860648
  0
LINE
  5
355
100
AcDbEntity
  8
IMPORT_IGES
100
AcDbLine
 62
253
  6
CONTINUOUS
 10
-1.9857644303
 20
-13.082196086
 11
-1.9857644303
 21
-12.8322341622
  0
LINE
  5
356
100
AcDbEntity
  8
IMPORT_IGES
100
AcDbLine
 62
253
  6
CONTINUOUS
 10
-1.9857644303
 20
-12.1759479886
 11
-1.9857644303
 21
-11.9259860648
  0
LINE
  5
357
100
AcDbEntity
  8
IMPORT_IGES
100
AcDbLine
 62
253
  6
CONTINUOUS
 10
-1.9857644303
 20
-9.582196086
 11
-1.9857644303
 21
-9.3322341622
  0
LINE
  5
358
100
AcDbEntity
  8
IMPORT_IGES
100
AcDbLine
 62
253
  6
CONTINUOUS
 10
-1.9857644303
 20
-8.6759479886
 11
-1.9857644303
 21
-8.4259860648
  0
LINE
  5
359
100
AcDbEntity
  8
IMPORT_IGES
100
AcDbLine
 62
253
  6
CONTINUOUS
 10
-1.9857644303
 20
-6.082196086
 11
-1.9857644303
 21
-5.8322341622
  0
LINE
  5
35A
100
AcDbEntity
  8
IMPORT_IGES
100
AcDbLine
 62
253
  6
CONTINUOUS
 10
-1.9857644303
 20
-5.1759479886
 11
-1.9857644303
 21
-4.9259860648
  0
LINE
  5
35B
100
AcDbEntity
  8
IMPORT_IGES
100
AcDbLine
 62
253
  6
CONTINUOUS
 10
-1.9857644303
 20
-2.582196086
 11
-1.9857644303
 21
-2.3322341622
  0
LINE
  5
35C
100
AcDbEntity
  8
IMPORT_IGES
100
AcDbLine
 62
253
  6
CONTINUOUS
 10
-1.9857644303
 20
-1.6759479886
 11
-1.9857644303
 21
-1.4259860648
  0
LINE
  5
35D
100
AcDbEntity
  8
IMPORT_IGES
100
AcDbLine
 62
253
  6
CONTINUOUS
 10
-1.9857644303
 20
0.917803914
 11
-1.9857644303
 21
1.1677658378
  0
LINE
  5
35E
100
AcDbEntity
  8
IMPORT_IGES
100
AcDbLine
 62
253
  6
CONTINUOUS
 10
-1.7394171288
 20
16.7784538597
 11
-1.7394171288
 21
16.0133639895
  0
LWPOLYLINE
  5
35F
100
AcDbEntity
  8
IMPORT_IGES
100
AcDbPolyline
 62
253
  6
CONTINUOUS
 90
25
 70
0
 10
-2.7356502016
 20
0.4178800664
 10
-2.7337406255
 20
0.4672729282
 10
-2.728736365
 20
0.5160390419
 10
-2.7206374201
 20
0.5641784074
 10
-2.7093764665
 20
0.6118790639
 10
-2.6950208286
 20
0.6589529723
 10
-2.677772479
 20
0.7048360151
 10
-2.6576348328
 20
0.7495437744
 10
-2.634604475
 20
0.7930606682
 10
-2.6088731333
 20
0.8347758328
 10
-2.5803655761
 20
0.8746557779
 10
-2.549157035
 20
0.9127339939
 10
-2.5156649322
 20
0.948500088
 10
-2.4798557771
 20
0.9819114224
 10
-2.4417630603
 20
1.0130106349
 10
-2.4019046757
 20
1.0414152465
 10
-2.3602604835
 20
1.0670650623
 10
-2.3168506236
 20
1.0900202771
 10
-2.2722534091
 20
1.1100789968
 10
-2.226481162
 20
1.1272270823
 10
-2.1795215604
 20
1.1414786727
 10
-2.1319159516
 20
1.1526742911
 10
-2.0838447849
 20
1.1607607786
 10
-2.0351276112
 20
1.1657912942
 10
-1.9857644303
 20
1.1677658378
  0
LWPOLYLINE
  5
360
100
AcDbEntity
  8
IMPORT_IGES
100
AcDbPolyline
 62
253
  6
CONTINUOUS
 90
25
 70
0
 10
-2.7356502016
 20
-6.5821199336
 10
-2.7337403753
 20
-6.5327270292
 10
-2.7287359638
 20
-6.4839608893
 10
-2.7206369673
 20
-6.435821514
 10
-2.7093761061
 20
-6.3881208693
 10
-2.6950206598
 20
-6.341046989
 10
-2.677772467
 20
-6.2951639755
 10
-2.6576348957
 20
-6.250456248
 10
-2.634604578
 20
-6.2069393872
 10
-2.6088732481
 20
-6.1652242376
 10
-2.5803656638
 20
-6.1253442805
 10
-2.5491570674
 20
-6.0872660345
 10
-2.5156649209
 20
-6.0514999004
 10
-2.4798557494
 20
-6.0180885021
 10
-2.4417630279
 20
-5.9869892156
 10
-2.4019046438
 20
-5.9585845698
 10
-2.3602604555
 20
-5.9329347911
 10
-2.3168506048
 20
-5.9099796532
 10
-2.2722534033
 20
-5.889921006
 10
-2.2264811784
 20
-5.8727729832
 10
-2.1795216028
 20
-5.8585214511
 10
-2.1319160072
 20
-5.8473258581
 10
-2.083844835
 20
-5.8392393537
 10
-2.0351276427
 20
-5.8342087884
 10
-1.9857644303
 20
-5.8322341622
  0
LWPOLYLINE
  5
361
100
AcDbEntity
  8
IMPORT_IGES
100
AcDbPolyline
 62
253
  6
CONTINUOUS
 90
25
 70
0
 10
-2.7356502016
 20
-13.5821199336
 10
-2.7337401645
 20
-13.5327269933
 10
-2.728735626
 20
-13.4839608314
 10
-2.7206365859
 20
-13.4358214478
 10
-2.7093758025
 20
-13.3881208129
 10
-2.6950205177
 20
-13.3410469564
 10
-2.6777724569
 20
-13.2951639676
 10
-2.6576349487
 20
-13.2504562669
 10
-2.6346046647
 20
-13.2069394338
 10
-2.6088733449
 20
-13.1652242968
 10
-2.5803657376
 20
-13.1253443296
 10
-2.5491570946
 20
-13.0872660584
 10
-2.5156649114
 20
-13.0514998906
 10
-2.4798557261
 20
-13.0180884384
 10
-2.4417630005
 20
-12.9869890896
 10
-2.4019046168
 20
-12.9585844151
 10
-2.360260432
 20
-12.9329346677
 10
-2.3168505889
 20
-12.9099795946
 10
-2.2722533985
 20
-12.8899210084
 10
-2.2264811923
 20
-12.8727730385
 10
-2.1795216387
 20
-12.8585215555
 10
-2.131916054
 20
-12.8473259839
 10
-2.0838448771
 20
-12.8392394652
 10
-2.0351276692
 20
-12.834208858
 10
-1.9857644303
 20
-12.8322341622
  0
LWPOLYLINE
  5
362
100
AcDbEntity
  8
IMPORT_IGES
100
AcDbPolyline
 62
253
  6
CONTINUOUS
 90
25
 70
0
 10
-2.7356502016
 20
-3.0821199336
 10
-2.7336800628
 20
-3.0327229906
 10
-2.7286391025
 20
-2.9839536933
 10
-2.7205273208
 20
-2.9358120417
 10
-2.7092911584
 20
-2.8881088965
 10
-2.6949841746
 20
-2.8410333971
 10
-2.6777670472
 20
-2.7951529613
 10
-2.6576201272
 20
-2.7504573889
 10
-2.6345630634
 20
-2.70695688
 10
-2.6088154804
 20
-2.6652494533
 10
-2.5803149742
 20
-2.6253614267
 10
-2.5491239486
 20
-2.5872664822
 10
-2.5156492393
 20
-2.5514836847
 10
-2.4798566427
 20
-2.5180551204
 10
-2.4417803624
 20
-2.4869387032
 10
-2.4019298455
 20
-2.458527239
 10
-2.3602778766
 20
-2.4328935938
 10
-2.3168516711
 20
-2.4099649015
 10
-2.2722423228
 20
-2.3899153704
 10
-2.2264675292
 20
-2.3727362111
 10
-2.1795095928
 20
-2.3584362129
 10
-2.1319065147
 20
-2.3472159513
 10
-2.0838376284
 20
-2.339142285
 10
-2.0351236002
 20
-2.3341483553
 10
-1.9857644303
 20
-2.3322341622
  0
LWPOLYLINE
  5
363
100
AcDbEntity
  8
IMPORT_IGES
100
AcDbPolyline
 62
253
  6
CONTINUOUS
 90
25
 70
0
 10
-2.7356502016
 20
-10.0821199336
 10
-2.7336799861
 20
-10.0327229613
 10
-2.7286389796
 20
-9.9839536469
 10
-2.7205271824
 20
-9.9358119902
 10
-2.7092910439
 20
-9.8881088573
 10
-2.6949841146
 20
-9.8410333822
 10
-2.6777670455
 20
-9.795152967
 10
-2.6576201925
 20
-9.7504574066
 10
-2.6345631998
 20
-9.7069569063
 10
-2.6088156507
 20
-9.6652494831
 10
-2.5803151124
 20
-9.6253614567
 10
-2.5491240177
 20
-9.5872665076
 10
-2.515649249
 20
-9.5514836947
 10
-2.4798566156
 20
-9.5180550899
 10
-2.4417803081
 20
-9.4869386213
 10
-2.4019297806
 20
-9.458527132
 10
-2.3602778257
 20
-9.4328934985
 10
-2.3168516508
 20
-9.4099648444
 10
-2.2722423319
 20
-9.3899153832
 10
-2.2264675654
 20
-9.3727363688
 10
-2.1795096549
 20
-9.3584365474
 10
-2.1319065875
 20
-9.3472163709
 10
-2.0838376921
 20
-9.3391426565
 10
-2.0351236397
 20
-9.3341485869
 10
-1.9857644303
 20
-9.3322341622
  0
LWPOLYLINE
  5
364
100
AcDbEntity
  8
IMPORT_IGES
100
AcDbPolyline
 62
253
  6
CONTINUOUS
 90
16
 70
0
 10
-2.4856882778
 20
0.4178800664
 10
-2.4829307952
 20
0.4701641383
 10
-2.4747210732
 20
0.5218717958
 10
-2.4611500829
 20
0.5724361287
 10
-2.4423637694
 20
0.6213114131
 10
-2.4185710024
 20
0.6679528393
 10
-2.3900499517
 20
0.7118267918
 10
-2.3571397892
 20
0.7524372493
 10
-2.3201937549
 20
0.7893705753
 10
-2.2795769102
 20
0.8222631799
 10
-2.2357040112
 20
0.8507635957
 10
-2.1890719312
 20
0.8745345934
 10
-2.1402148437
 20
0.8933000831
 10
-2.0896776093
 20
0.9068534318
 10
-2.0380054627
 20
0.9150509686
 10
-1.9857644303
 20
0.917803914
  0
LWPOLYLINE
  5
365
100
AcDbEntity
  8
IMPORT_IGES
100
AcDbPolyline
 62
253
  6
CONTINUOUS
 90
16
 70
0
 10
-2.4856882778
 20
-3.0821199336
 10
-2.4829354169
 20
-3.0298797025
 10
-2.4747380958
 20
-2.9782081652
 10
-2.4611850374
 20
-2.9276713359
 10
-2.4424198382
 20
-2.8788144103
 10
-2.4186490855
 20
-2.832182302
 10
-2.3901488927
 20
-2.7883093099
 10
-2.357256503
 20
-2.747692346
 10
-2.3203233495
 20
-2.710746139
 10
-2.2797130111
 20
-2.6778357615
 10
-2.2358391517
 20
-2.6493144877
 10
-2.1891977537
 20
-2.6255214756
 10
-2.1403223074
 20
-2.6067348715
 10
-2.0897575696
 20
-2.5931635909
 10
-2.0380493031
 20
-2.5849536531
 10
-1.9857644303
 20
-2.582196086
  0
LWPOLYLINE
  5
366
100
AcDbEntity
  8
IMPORT_IGES
100
AcDbPolyline
 62
253
  6
CONTINUOUS
 90
16
 70
0
 10
-2.4856882778
 20
-6.5821199336
 10
-2.4829308002
 20
-6.5298359086
 10
-2.4747210914
 20
-6.4781282897
 10
-2.4611501203
 20
-6.4275639862
 10
-2.4423638293
 20
-6.3786887212
 10
-2.4185710857
 20
-6.3320473047
 10
-2.3900500571
 20
-6.2881733531
 10
-2.3571399136
 20
-6.2475628888
 10
-2.320193893
 20
-6.2106295491
 10
-2.2795770552
 20
-6.1777369255
 10
-2.235704155
 20
-6.1492364874
 10
-2.1890720647
 20
-6.1254654661
 10
-2.1402149575
 20
-6.1066999539
 10
-2.0896776938
 20
-6.0931465862
 10
-2.038005509
 20
-6.0849490363
 10
-1.9857644303
 20
-6.082196086
  0
LWPOLYLINE
  5
367
100
AcDbEntity
  8
IMPORT_IGES
100
AcDbPolyline
 62
253
  6
CONTINUOUS
 90
16
 70
0
 10
-2.4856882778
 20
-10.0821199336
 10
-2.4829354124
 20
-10.0298796596
 10
-2.4747380791
 20
-9.9782080868
 10
-2.4611850031
 20
-9.9276712304
 10
-2.4424197831
 20
-9.8788142865
 10
-2.4186490085
 20
-9.8321821687
 10
-2.390148795
 20
-9.7883091754
 10
-2.3572563877
 20
-9.747692218
 10
-2.3203232216
 20
-9.7107460237
 10
-2.2797128767
 20
-9.6778356638
 10
-2.2358390182
 20
-9.6493144105
 10
-2.1891976291
 20
-9.6255214201
 10
-2.140322201
 20
-9.6067348368
 10
-2.0897574904
 20
-9.593163574
 10
-2.0380492596
 20
-9.5849536486
 10
-1.9857644303
 20
-9.582196086
  0
LWPOLYLINE
  5
368
100
AcDbEntity
  8
IMPORT_IGES
100
AcDbPolyline
 62
253
  6
CONTINUOUS
 90
16
 70
0
 10
-2.4856882778
 20
-13.5821199336
 10
-2.4829308043
 20
-13.5298359481
 10
-2.4747211068
 20
-13.4781283618
 10
-2.4611501518
 20
-13.4275640829
 10
-2.4423638798
 20
-13.3786888344
 10
-2.4185711559
 20
-13.3320474261
 10
-2.3900501459
 20
-13.2881734753
 10
-2.3571400184
 20
-13.247563005
 10
-2.3201940094
 20
-13.2106296538
 10
-2.2795771774
 20
-13.1777370143
 10
-2.2357042761
 20
-13.1492365573
 10
-2.1890721772
 20
-13.1254655162
 10
-2.1402150534
 20
-13.106699985
 10
-2.0896777651
 20
-13.0931466014
 10
-2.038005548
 20
-13.0849490404
 10
-1.9857644303
 20
-13.082196086
  0
LINE
  5
369
100
AcDbEntity
  8
0
100
AcDbLine
 62
7
  6
CONTINUOUS
 10
-9.7154252366
 20
-19.2075960053
 11
-9.8637932885
 21
-19.6530621292
  0
LINE
  5
36A
100
AcDbEntity
  8
0
100
AcDbLine
 62
7
  6
CONTINUOUS
 10
-8.9653113034
 20
-19.9586249515
 11
-9.1136793553
 21
-20.4040910754
  0
LINE
  5
36B
100
AcDbEntity
  8
IMPORT_IGES
100
AcDbLine
 62
7
  6
CONTINUOUS
 10
7.072232195
 20
8.3808438973
 11
7.0721597015
 21
8.3808028911
  0
LINE
  5
36C
100
AcDbEntity
  8
IMPORT_IGES
100
AcDbLine
 62
7
  6
CONTINUOUS
 10
-1.9638694409
 20
-2.6040910754
 11
0.336282864
 21
-2.6040910754
  0
LINE
  5
36D
100
AcDbEntity
  8
IMPORT_IGES
100
AcDbLine
 62
253
  6
CONTINUOUS
 10
-1.9857644303
 20
-2.582196086
 11
0.3581778533
 21
-2.582196086
  0
LINE
  5
36E
100
AcDbEntity
  8
IMPORT_IGES
100
AcDbLine
 62
253
  6
CONTINUOUS
 10
0.3581778533
 20
-2.3322341622
 11
-1.9857644303
 21
-2.3322341622
  0
LINE
  5
36F
100
AcDbEntity
  8
IMPORT_IGES
100
AcDbLine
 62
253
  6
CONTINUOUS
 10
-1.9857644303
 20
-1.6759479886
 11
0.3581778533
 21
-1.6759479886
  0
LINE
  5
370
100
AcDbEntity
  8
IMPORT_IGES
100
AcDbLine
 62
253
  6
CONTINUOUS
 10
0.3581778533
 20
-1.4259860648
 11
-1.9857644303
 21
-1.4259860648
  0
LINE
  5
371
100
AcDbEntity
  8
IMPORT_IGES
100
AcDbLine
 62
7
  6
CONTINUOUS
 10
0.336282864
 20
-1.4040910754
 11
-1.9638694409
 21
-1.4040910754
  0
LWPOLYLINE
  5
372
100
AcDbEntity
  8
IMPORT_IGES
100
AcDbPolyline
 62
253
  6
CONTINUOUS
 90
25
 70
0
 10
0.3581778533
 20
-2.3322341622
 10
0.4075707282
 20
-2.3341438147
 10
0.4563368498
 20
-2.3391481213
 10
0.5044762183
 20
-2.347247082
 10
0.5521768713
 20
-2.3585080073
 10
0.599250771
 20
-2.3728635868
 10
0.6451338049
 20
-2.3901118885
 10
0.6898415545
 20
-2.4102495119
 10
0.7333584382
 20
-2.4332798574
 10
0.7750735983
 20
-2.4590111955
 10
0.8149535471
 20
-2.487518761
 10
0.8530317722
 20
-2.518727319
 10
0.8887978785
 20
-2.5522194351
 10
0.9222092324
 20
-2.5880285952
 10
0.9533084675
 20
-2.6261213135
 10
0.9817130895
 20
-2.6659796979
 10
1.007362894
 20
-2.7076238889
 10
1.0303180853
 20
-2.751033746
 10
1.0503767829
 20
-2.7956309566
 10
1.0675248493
 20
-2.8414031969
 10
1.0817764219
 20
-2.8883627906
 10
1.0929720325
 20
-2.9359683953
 10
1.1010585252
 20
-2.9840395637
 10
1.1060890559
 20
-3.0327567431
 10
1.1080636247
 20
-3.0821199336
  0
LWPOLYLINE
  5
373
100
AcDbEntity
  8
IMPORT_IGES
100
AcDbPolyline
 62
253
  6
CONTINUOUS
 90
25
 70
0
 10
-1.9857644303
 20
-1.6759479886
 10
-2.0351573022
 20
-1.6740383532
 10
-2.0839234221
 20
-1.6690340569
 10
-2.1320627899
 20
-1.6609350998
 10
-2.1797634436
 20
-1.6496741681
 10
-2.2268373453
 20
-1.6353185756
 10
-2.2727203812
 20
-1.6180702631
 10
-2.317428133
 20
-1.5979326347
 10
-2.360945019
 20
-1.5749022864
 10
-2.40266018
 20
-1.5491709475
 10
-2.442540128
 20
-1.5206633838
 10
-2.480618351
 20
-1.4894548296
 10
-2.5163844546
 20
-1.4559627165
 10
-2.5497958041
 20
-1.4201535575
 10
-2.5808950342
 20
-1.3820608396
 10
-2.6092996539
 20
-1.3422024551
 10
-2.6349494609
 20
-1.3005582639
 10
-2.6579046575
 20
-1.2571484061
 10
-2.6779633601
 20
-1.2125511947
 10
-2.6951114307
 20
-1.1667789528
 10
-2.7093630073
 20
-1.1198193574
 10
-2.7205586197
 20
-1.0722137517
 10
-2.7286451112
 20
-1.0241425837
 10
-2.7336756385
 20
-0.9754254056
 10
-2.7356502016
 20
-0.9260622172
  0
LWPOLYLINE
  5
374
100
AcDbEntity
  8
IMPORT_IGES
100
AcDbPolyline
 62
253
  6
CONTINUOUS
 90
16
 70
0
 10
0.3581778533
 20
-2.582196086
 10
0.410461911
 20
-2.5849535672
 10
0.4621695567
 20
-2.5931632851
 10
0.5127338806
 20
-2.6067342695
 10
0.5616091591
 20
-2.6255205762
 10
0.6082505823
 20
-2.6493133361
 10
0.6521245346
 20
-2.67783438
 10
0.6927349941
 20
-2.7107445367
 10
0.7296683243
 20
-2.7476905669
 10
0.7625609347
 20
-2.7883074094
 10
0.7910613573
 20
-2.8321803088
 10
0.8148323622
 20
-2.878812392
 10
0.8335978588
 20
-2.9276694855
 10
0.8471512132
 20
-2.9782067288
 10
0.8553487541
 20
-3.0298788871
 10
0.8581017009
 20
-3.0821199336
  0
LWPOLYLINE
  5
375
100
AcDbEntity
  8
IMPORT_IGES
100
AcDbPolyline
 62
253
  6
CONTINUOUS
 90
16
 70
0
 10
-1.9857644303
 20
-1.4259860648
 10
-2.0380484911
 20
-1.4232285833
 10
-2.0897561395
 20
-1.4150188645
 10
-2.1403204654
 20
-1.4014478787
 10
-2.1891957452
 20
-1.3826615706
 10
-2.2358371691
 20
-1.3588688091
 10
-2.2797111214
 20
-1.3303477636
 10
-2.3203215805
 20
-1.2974376057
 10
-2.3572549097
 20
-1.2604915746
 10
-2.3901475188
 20
-1.2198747315
 10
-2.4186479399
 20
-1.1760018322
 10
-2.4424189432
 20
-1.1293697498
 10
-2.4611844383
 20
-1.0805126576
 10
-2.4747377914
 20
-1.0299754162
 10
-2.4829353313
 20
-0.9783032606
 10
-2.4856882778
 20
-0.9260622172
  0
LINE
  5
376
100
AcDbEntity
  8
IMPORT_IGES
100
AcDbLine
 62
7
  6
CONTINUOUS
 10
7.0895542476
 20
-4.4254704476
 11
7.0894966464
 21
-4.425453742
  0
LINE
  5
377
100
AcDbEntity
  8
IMPORT_IGES
100
AcDbLine
 62
253
  6
CONTINUOUS
 10
0.8362067115
 20
-4.4041672278
 11
0.8581017009
 21
-4.4260622172
  0
LINE
  5
378
100
AcDbEntity
  8
IMPORT_IGES
100
AcDbLine
 62
253
  6
CONTINUOUS
 10
-2.4637932885
 20
0.395985077
 11
-2.4856882778
 21
0.4178800664
  0
LINE
  5
379
100
AcDbEntity
  8
0
100
AcDbLine
 62
7
  6
CONTINUOUS
 10
-9.8637932885
 20
20.6448799784
 11
-9.7154252366
 21
20.1994138545
  0
LINE
  5
37A
100
AcDbEntity
  8
0
100
AcDbLine
 62
7
  6
CONTINUOUS
 10
-9.1136793553
 20
21.3959089246
 11
-8.9653113034
 21
20.9504428007
  0
LINE
  5
37B
100
AcDbEntity
  8
IMPORT_IGES
100
AcDbLine
 62
253
  6
CONTINUOUS
 10
-1.3909911244
 20
15.7502346088
 11
-1.3909911244
 21
16.0001965326
  0
LINE
  5
37C
100
AcDbEntity
  8
IMPORT_IGES
100
AcDbLine
 62
253
  6
CONTINUOUS
 10
-1.3394780507
 20
16.0202241623
 11
-1.3394780507
 21
16.7715936868
  0
LINE
  5
37D
100
AcDbEntity
  8
IMPORT_IGES
100
AcDbLine
 62
7
  6
CONTINUOUS
 10
-1.3376106911
 20
16.022091522
 11
-1.3376106911
 21
16.7697263272
  0
LINE
  5
37E
100
AcDbEntity
  8
IMPORT_IGES
100
AcDbLine
 62
7
  6
CONTINUOUS
 10
-1.1387932885
 20
16.7697263272
 11
-1.1387932885
 21
16.022091522
  0
LINE
  5
37F
100
AcDbEntity
  8
IMPORT_IGES
100
AcDbLine
 62
253
  6
CONTINUOUS
 10
-0.8637932885
 20
16.022091522
 11
-0.8637932885
 21
15.7502346088
  0
LINE
  5
380
100
AcDbEntity
  8
IMPORT_IGES
100
AcDbLine
 62
253
  6
CONTINUOUS
 10
-0.8637932885
 20
16.7697263272
 11
-0.8637932885
 21
17.0415832404
  0
LWPOLYLINE
  5
381
100
AcDbEntity
  8
IMPORT_IGES
100
AcDbPolyline
 62
7
  6
CONTINUOUS
 90
10
 70
0
 10
0.6582437006
 20
14.4959089275
 10
0.658475908
 20
14.5007702276
 10
0.6587062822
 20
14.5051014421
 10
0.6589348232
 20
14.5088973257
 10
0.659159293
 20
14.5121570483
 10
0.6593819297
 20
14.5148718831
 10
0.6596094476
 20
14.5170318848
 10
0.659844085
 20
14.5186392354
 10
0.6600836037
 20
14.5197015406
 10
0.6603280037
 20
14.5202241623
  0
LWPOLYLINE
  5
382
100
AcDbEntity
  8
ASSI
100
AcDbPolyline
 62
7
  6
CONTINUOUS
 90
18
 70
0
 10
-4.4697260212
 20
-23.2548645001
 10
-4.4693623684
 20
-23.2523486261
 10
-4.4684333748
 20
-23.2492520464
 10
-4.4669167042
 20
-23.2455747609
 10
-4.4647867253
 20
-23.24132641
 10
-4.462024319
 20
-23.2364973533
 10
-4.4586265155
 20
-23.2310586702
 10
-4.4545832856
 20
-23.2249982824
 10
-4.4498844112
 20
-23.2183282682
 10
-4.4445444157
 20
-23.2110559409
 10
-4.4385775906
 20
-23.2031929872
 10
-4.431973843
 20
-23.1947277205
 10
-4.4247155901
 20
-23.1856323948
 10
-4.4168124415
 20
-23.1759253345
 10
-4.4082554169
 20
-23.1655882152
 10
-4.3989845879
 20
-23.1545383172
 10
-4.3889866127
 20
-23.1427767566
 10
-4.378259747
 20
-23.1303024174
  0
LINE
  5
383
100
AcDbEntity
  8
IMPORT_IGES
100
AcDbLine
 62
253
  6
CONTINUOUS
 10
-2.4856882778
 20
-0.9260622172
 11
-2.4637932885
 21
-0.9041672278
  0
LINE
  5
384
100
AcDbEntity
  8
IMPORT_IGES
100
AcDbLine
 62
253
  6
CONTINUOUS
 10
-1.9638694409
 20
-1.4040910754
 11
-1.9857644303
 21
-1.4259860648
  0
LINE
  5
385
100
AcDbEntity
  8
IMPORT_IGES
100
AcDbLine
 62
253
  6
CONTINUOUS
 10
0.336282864
 20
0.8959089246
 11
0.3581778533
 21
0.917803914
  0
LINE
  5
386
100
AcDbEntity
  8
IMPORT_IGES
100
AcDbLine
 62
7
  6
CONTINUOUS
 10
7.0942647163
 20
0.264612789
 11
6.9482067115
 21
0.2645115348
  0
LINE
  5
387
100
AcDbEntity
  8
IMPORT_IGES
100
AcDbLine
 62
253
  6
CONTINUOUS
 10
1.1080636247
 20
-0.9260622172
 11
0.8581017009
 21
-0.9260622172
  0
LINE
  5
388
100
AcDbEntity
  8
IMPORT_IGES
100
AcDbLine
 62
253
  6
CONTINUOUS
 10
-2.4856882778
 20
-0.9260622172
 11
-2.7356502016
 21
-0.9260622172
  0
LINE
  5
389
100
AcDbEntity
  8
IMPORT_IGES
100
AcDbLine
 62
7
  6
CONTINUOUS
 10
7.0943451769
 20
-0.7917170414
 11
6.9482067115
 21
-0.7917205004
  0
LINE
  5
38A
100
AcDbEntity
  8
IMPORT_IGES
100
AcDbLine
 62
7
  6
CONTINUOUS
 10
7.0889953687
 20
0.0817311016
 11
6.9482067115
 21
0.0817218703
  0
LINE
  5
38B
100
AcDbEntity
  8
IMPORT_IGES
100
AcDbLine
 62
253
  6
CONTINUOUS
 10
-2.7356502016
 20
0.4178800664
 11
-2.4856882778
 21
0.4178800664
  0
LINE
  5
38C
100
AcDbEntity
  8
IMPORT_IGES
100
AcDbLine
 62
253
  6
CONTINUOUS
 10
0.8581017009
 20
0.4178800664
 11
1.1080636247
 21
0.4178800664
  0
LINE
  5
38D
100
AcDbEntity
  8
IMPORT_IGES
100
AcDbLine
 62
7
  6
CONTINUOUS
 10
7.0942472116
 20
0.4947204825
 11
6.9482067115
 21
0.4947172835
  0
LINE
  5
38E
100
AcDbEntity
  8
IMPORT_IGES
100
AcDbLine
 62
7
  6
CONTINUOUS
 10
7.0943641309
 20
-1.0403569756
 11
6.9482067115
 21
-1.0402979281
  0
LINE
  5
38F
100
AcDbEntity
  8
IMPORT_IGES
100
AcDbLine
 62
7
  6
CONTINUOUS
 10
7.0890478392
 20
-0.6070464355
 11
6.9482067115
 21
-0.6069717025
  0
LINE
  5
390
100
AcDbEntity
  8
IMPORT_IGES
100
AcDbLine
 62
253
  6
CONTINUOUS
 10
-1.9857644303
 20
0.917803914
 11
-1.9638694409
 21
0.8959089246
  0
LINE
  5
391
100
AcDbEntity
  8
IMPORT_IGES
100
AcDbLine
 62
253
  6
CONTINUOUS
 10
0.3581778533
 20
-1.4259860648
 11
0.336282864
 21
-1.4040910754
  0
LINE
  5
392
100
AcDbEntity
  8
IMPORT_IGES
100
AcDbLine
 62
253
  6
CONTINUOUS
 10
0.8362067115
 20
-0.9041672278
 11
0.8581017009
 21
-0.9260622172
  0
LWPOLYLINE
  5
393
100
AcDbEntity
  8
RACCORDO
100
AcDbPolyline
 62
253
  6
CONTINUOUS
 90
10
 70
0
 10
7.4703074307
 20
-18.3330649059
 10
7.4734217815
 20
-18.340654975
 10
7.4761681332
 20
-18.3482698972
 10
7.4785464552
 20
-18.3559096723
 10
7.4805560021
 20
-18.3635787053
 10
7.4821975855
 20
-18.3712725912
 10
7.4834735575
 20
-18.3789781158
 10
7.4843847425
 20
-18.3866908742
 10
7.4849304275
 20
-18.3944152712
 10
7.4851106459
 20
-18.4021513069
  0
LWPOLYLINE
  5
394
100
AcDbEntity
  8
RACCORDO
100
AcDbPolyline
 62
253
  6
CONTINUOUS
 90
10
 70
0
 10
-7.6978940076
 20
19.324882755
 10
-7.7010080822
 20
19.3324721478
 10
-7.7037542579
 20
19.3400866013
 10
-7.7061325039
 20
19.3477261156
 10
-7.7081421163
 20
19.355395147
 10
-7.7097838652
 20
19.3630892391
 10
-7.7110599787
 20
19.370795023
 10
-7.7119712397
 20
19.3785080423
 10
-7.7125169766
 20
19.3862327533
 10
-7.7126972228
 20
19.3939691561
  0
LWPOLYLINE
  5
395
100
AcDbEntity
  8
IMPORT_IGES
100
AcDbPolyline
 62
7
  6
CONTINUOUS
 90
14
 70
0
 10
0.6469317199
 20
8.9959089246
 10
0.6488586352
 20
8.9585723621
 10
0.6545492266
 20
8.921304514
 10
0.6640034943
 20
8.8844211324
 10
0.6773324053
 20
8.8481676411
 10
0.6944249924
 20
8.8130234536
 10
0.7149483548
 20
8.7796428808
 10
0.7389519765
 20
8.7484932922
 10
0.7663863735
 20
8.7197880731
 10
0.7967701927
 20
8.6937864828
 10
0.8300852629
 20
8.6709364703
 10
0.8663497554
 20
8.6515236483
 10
0.9051368305
 20
8.6357405498
 10
0.9463042082
 20
8.6240643977
  0
LINE
  5
396
100
AcDbEntity
  8
IMPORT_IGES
100
AcDbLine
 62
253
  6
CONTINUOUS
 10
0.3581778533
 20
1.1677658378
 11
0.3581778533
 21
0.917803914
  0
LINE
  5
397
100
AcDbEntity
  8
IMPORT_IGES
100
AcDbLine
 62
253
  6
CONTINUOUS
 10
0.3581778533
 20
-1.4259860648
 11
0.3581778533
 21
-1.6759479886
  0
LINE
  5
398
100
AcDbEntity
  8
IMPORT_IGES
100
AcDbLine
 62
253
  6
CONTINUOUS
 10
0.3581778533
 20
-2.3322341622
 11
0.3581778533
 21
-2.582196086
  0
LINE
  5
399
100
AcDbEntity
  8
IMPORT_IGES
100
AcDbLine
 62
253
  6
CONTINUOUS
 10
0.3581778533
 20
-4.9259860648
 11
0.3581778533
 21
-5.1759479886
  0
LINE
  5
39A
100
AcDbEntity
  8
IMPORT_IGES
100
AcDbLine
 62
253
  6
CONTINUOUS
 10
0.3581778533
 20
-5.8322341622
 11
0.3581778533
 21
-6.082196086
  0
LINE
  5
39B
100
AcDbEntity
  8
IMPORT_IGES
100
AcDbLine
 62
253
  6
CONTINUOUS
 10
0.3581778533
 20
-8.4259860648
 11
0.3581778533
 21
-8.6759479886
  0
LINE
  5
39C
100
AcDbEntity
  8
IMPORT_IGES
100
AcDbLine
 62
253
  6
CONTINUOUS
 10
0.3581778533
 20
-9.3322341622
 11
0.3581778533
 21
-9.582196086
  0
LINE
  5
39D
100
AcDbEntity
  8
IMPORT_IGES
100
AcDbLine
 62
253
  6
CONTINUOUS
 10
0.3581778533
 20
-11.9259860648
 11
0.3581778533
 21
-12.1759479886
  0
LINE
  5
39E
100
AcDbEntity
  8
IMPORT_IGES
100
AcDbLine
 62
253
  6
CONTINUOUS
 10
0.3581778533
 20
-12.8322341622
 11
0.3581778533
 21
-13.082196086
  0
LINE
  5
39F
100
AcDbEntity
  8
IMPORT_IGES
100
AcDbLine
 62
253
  6
CONTINUOUS
 10
0.3581778533
 20
-15.4259860648
 11
0.3581778533
 21
-15.6759479886
  0
LINE
  5
3A0
100
AcDbEntity
  8
IMPORT_IGES
100
AcDbLine
 62
253
  6
CONTINUOUS
 10
0.3905323958
 20
14.4959089246
 11
0.3905323958
 21
8.9959089246
  0
LINE
  5
3A1
100
AcDbEntity
  8
IMPORT_IGES
100
AcDbLine
 62
253
  6
CONTINUOUS
 10
0.6404943195
 20
8.9959089246
 11
0.6404943195
 21
14.4959089246
  0
LINE
  5
3A2
100
AcDbEntity
  8
IMPORT_IGES
100
AcDbLine
 62
7
  6
CONTINUOUS
 10
0.6466797505
 20
11.0959089246
 11
0.6466797505
 21
9.11518566
  0
LINE
  5
3A3
100
AcDbEntity
  8
IMPORT_IGES
100
AcDbLine
 62
7
  6
CONTINUOUS
 10
0.6536617765
 20
13.8715327649
 11
0.6536617765
 21
14.1202850843
  0
LINE
  5
3A4
100
AcDbEntity
  8
IMPORT_IGES
100
AcDbLine
 62
7
  6
CONTINUOUS
 10
0.6623893089
 20
12.0908963617
 11
0.6623893089
 21
13.4697263272
  0
LINE
  5
3A5
100
AcDbEntity
  8
IMPORT_IGES
100
AcDbLine
 62
7
  6
CONTINUOUS
 10
0.8362067115
 20
0.395985077
 11
0.8362067115
 21
-0.9041672278
  0
LINE
  5
3A6
100
AcDbEntity
  8
IMPORT_IGES
100
AcDbLine
 62
7
  6
CONTINUOUS
 10
0.8362067115
 20
-3.104014923
 11
0.8362067115
 21
-4.4041672278
  0
LINE
  5
3A7
100
AcDbEntity
  8
IMPORT_IGES
100
AcDbLine
 62
7
  6
CONTINUOUS
 10
0.8362067115
 20
-6.604014923
 11
0.8362067115
 21
-7.9041672278
  0
LINE
  5
3A8
100
AcDbEntity
  8
IMPORT_IGES
100
AcDbLine
 62
7
  6
CONTINUOUS
 10
0.8362067115
 20
-10.104014923
 11
0.8362067115
 21
-11.4041672278
  0
LINE
  5
3A9
100
AcDbEntity
  8
IMPORT_IGES
100
AcDbLine
 62
7
  6
CONTINUOUS
 10
0.8362067115
 20
-13.604014923
 11
0.8362067115
 21
-14.9041672278
  0
LINE
  5
3AA
100
AcDbEntity
  8
IMPORT_IGES
100
AcDbLine
 62
253
  6
CONTINUOUS
 10
0.8581017009
 20
0.4178800664
 11
0.8581017009
 21
-0.9260622172
  0
LINE
  5
3AB
100
AcDbEntity
  8
IMPORT_IGES
100
AcDbLine
 62
253
  6
CONTINUOUS
 10
0.8581017009
 20
-3.0821199336
 11
0.8581017009
 21
-4.4260622172
  0
LINE
  5
3AC
100
AcDbEntity
  8
IMPORT_IGES
100
AcDbLine
 62
253
  6
CONTINUOUS
 10
0.8581017009
 20
-6.5821199336
 11
0.8581017009
 21
-7.9260622172
  0
LINE
  5
3AD
100
AcDbEntity
  8
IMPORT_IGES
100
AcDbLine
 62
253
  6
CONTINUOUS
 10
0.8581017009
 20
-10.0821199336
 11
0.8581017009
 21
-11.4260622172
  0
LINE
  5
3AE
100
AcDbEntity
  8
IMPORT_IGES
100
AcDbLine
 62
253
  6
CONTINUOUS
 10
0.8581017009
 20
-13.5821199336
 11
0.8581017009
 21
-14.9260622172
  0
LINE
  5
3AF
100
AcDbEntity
  8
IMPORT_IGES
100
AcDbLine
 62
7
  6
CONTINUOUS
 10
0.9112067115
 20
11.0959089246
 11
0.9112067115
 21
13.4697263272
  0
LINE
  5
3B0
100
AcDbEntity
  8
IMPORT_IGES
100
AcDbLine
 62
7
  6
CONTINUOUS
 10
0.9112067115
 20
15.2209089246
 11
0.9112067115
 21
15.9163591787
  0
LINE
  5
3B1
100
AcDbEntity
  8
IMPORT_IGES
100
AcDbLine
 62
253
  6
CONTINUOUS
 10
1.0362067115
 20
8.622091522
 11
1.0362067115
 21
8.6152618124
  0
LINE
  5
3B2
100
AcDbEntity
  8
IMPORT_IGES
100
AcDbLine
 62
253
  6
CONTINUOUS
 10
1.1080636247
 20
-14.9260622172
 11
1.1080636247
 21
-13.5821199336
  0
LINE
  5
3B3
100
AcDbEntity
  8
IMPORT_IGES
100
AcDbLine
 62
253
  6
CONTINUOUS
 10
1.1080636247
 20
-11.4260622172
 11
1.1080636247
 21
-10.0821199336
  0
LINE
  5
3B4
100
AcDbEntity
  8
IMPORT_IGES
100
AcDbLine
 62
253
  6
CONTINUOUS
 10
1.1080636247
 20
-7.9260622172
 11
1.1080636247
 21
-6.5821199336
  0
LINE
  5
3B5
100
AcDbEntity
  8
IMPORT_IGES
100
AcDbLine
 62
253
  6
CONTINUOUS
 10
1.1080636247
 20
-4.4260622172
 11
1.1080636247
 21
-3.0821199336
  0
LINE
  5
3B6
100
AcDbEntity
  8
IMPORT_IGES
100
AcDbLine
 62
253
  6
CONTINUOUS
 10
1.1080636247
 20
-0.9260622172
 11
1.1080636247
 21
0.4178800664
  0
LINE
  5
3B7
100
AcDbEntity
  8
IMPORT_IGES
100
AcDbLine
 62
7
  6
CONTINUOUS
 10
1.2862067115
 20
15.2209089246
 11
1.2862067115
 21
15.2319083281
  0
LINE
  5
3B8
100
AcDbEntity
  8
IMPORT_IGES
100
AcDbLine
 62
7
  6
CONTINUOUS
 10
1.4100241141
 20
13.4697263272
 11
1.4100241141
 21
8.9959089246
  0
LINE
  5
3B9
100
AcDbEntity
  8
IMPORT_IGES
100
AcDbLine
 62
7
  6
CONTINUOUS
 10
1.4187516466
 20
14.1202850843
 11
1.4187516466
 21
13.8715327649
  0
LINE
  5
3BA
100
AcDbEntity
  8
IMPORT_IGES
100
AcDbLine
 62
253
  6
CONTINUOUS
 10
1.4319191035
 20
14.4959089246
 11
1.4319191035
 21
8.9959089246
  0
LINE
  5
3BB
100
AcDbEntity
  8
IMPORT_IGES
100
AcDbLine
 62
253
  6
CONTINUOUS
 10
1.6818810273
 20
8.9959089246
 11
1.6818810273
 21
14.4959089246
  0
LWPOLYLINE
  5
3BC
100
AcDbEntity
  8
IMPORT_IGES
100
AcDbPolyline
 62
253
  6
CONTINUOUS
 90
25
 70
0
 10
1.1080636247
 20
-4.4260622172
 10
1.1061539107
 20
-4.4754551025
 10
1.1011495671
 20
-4.5242212306
 10
1.0930505937
 20
-4.5723606015
 10
1.081789691
 20
-4.6200612516
 10
1.0674341587
 20
-4.6671351444
 10
1.0501858955
 20
-4.7130181711
 10
1.0300482906
 20
-4.7577259129
 10
1.0070179548
 20
-4.8012427885
 10
0.9812866196
 20
-4.8429579448
 10
0.9527790475
 20
-4.8828378966
 10
0.9215704759
 20
-4.9209161291
 10
0.8880783491
 20
-4.9566822452
 10
0.8522691849
 20
-4.9900936148
 10
0.8141764655
 20
-5.0211928681
 10
0.7743180812
 20
-5.0495974985
 10
0.7326738912
 20
-5.0752472939
 10
0.6892640363
 20
-5.0982024663
 10
0.644666829
 20
-5.1182611461
 10
0.5988945941
 20
-5.135409197
 10
0.5519350068
 20
-5.1496607553
 10
0.5043294053
 20
-5.1608563597
 10
0.4562582356
 20
-5.1689428565
 10
0.4075410516
 20
-5.1739733995
 10
0.3581778533
 20
-5.1759479886
  0
LWPOLYLINE
  5
3BD
100
AcDbEntity
  8
IMPORT_IGES
100
AcDbPolyline
 62
253
  6
CONTINUOUS
 90
25
 70
0
 10
1.1080636247
 20
-11.4260622172
 10
1.1061536804
 20
-11.4754551417
 10
1.1011491979
 20
-11.5242212939
 10
1.093050177
 20
-11.5723606738
 10
1.0817893593
 20
-11.6200613131
 10
1.0674340034
 20
-11.66713518
 10
1.0501858844
 20
-11.7130181797
 10
1.0300483485
 20
-11.7577258923
 10
1.0070180495
 20
-11.8012427376
 10
0.9812867253
 20
-11.8429578801
 10
0.9527791281
 20
-11.8828378429
 10
0.9215705057
 20
-11.920916103
 10
0.8880783387
 20
-11.9566822559
 10
0.8522691594
 20
-11.9900936844
 10
0.8141764356
 20
-12.0211930058
 10
0.7743180518
 20
-12.0495976676
 10
0.7326738654
 20
-12.0752474288
 10
0.689264019
 20
-12.0982025304
 10
0.6446668237
 20
-12.1182611435
 10
0.5988946092
 20
-12.1354091367
 10
0.551935046
 20
-12.1496606413
 10
0.5043294565
 20
-12.1608562224
 10
0.4562582816
 20
-12.1689427347
 10
0.4075410806
 20
-12.1739733235
 10
0.3581778533
 20
-12.1759479886
  0
LWPOLYLINE
  5
3BE
100
AcDbEntity
  8
IMPORT_IGES
100
AcDbPolyline
 62
253
  6
CONTINUOUS
 90
25
 70
0
 10
1.1080636247
 20
-14.9260622172
 10
1.1061535806
 20
-14.9754551587
 10
1.1011490379
 20
-15.0242213214
 10
1.0930499964
 20
-15.0723607052
 10
1.0817892156
 20
-15.1200613398
 10
1.067433936
 20
-15.1671351955
 10
1.0501858796
 20
-15.2130181835
 10
1.0300483736
 20
-15.2577258833
 10
1.0070180906
 20
-15.3012427155
 10
0.9812867712
 20
-15.3429578521
 10
0.9527791631
 20
-15.3828378197
 10
0.9215705186
 20
-15.4209160917
 10
0.8880783342
 20
-15.4566822606
 10
0.8522691484
 20
-15.4900937145
 10
0.8141764227
 20
-15.5211930654
 10
0.774318039
 20
-15.5495977408
 10
0.7326738543
 20
-15.5752474872
 10
0.6892640115
 20
-15.5982025582
 10
0.6446668214
 20
-15.6182611424
 10
0.5988946158
 20
-15.6354091105
 10
0.5519350629
 20
-15.6496605919
 10
0.5043294786
 20
-15.6608561628
 10
0.4562583016
 20
-15.6689426819
 10
0.4075410932
 20
-15.6739732905
 10
0.3581778533
 20
-15.6759479886
  0
LWPOLYLINE
  5
3BF
100
AcDbEntity
  8
IMPORT_IGES
100
AcDbPolyline
 62
253
  6
CONTINUOUS
 90
25
 70
0
 10
1.1080636247
 20
-0.9260622172
 10
1.106093527
 20
-0.9754591446
 10
1.1010525915
 20
-1.0242284327
 10
1.0929408182
 20
-1.0723700815
 10
1.081704643
 20
-1.1200732332
 10
1.06739763
 20
-1.1671487457
 10
1.0501804712
 20
-1.2130291926
 10
1.0300335151
 20
-1.2577247715
 10
1.0069764133
 20
-1.3012252849
 10
0.981228812
 20
-1.3429327135
 10
0.952728323
 20
-1.3828207403
 10
0.9215373345
 20
-1.4209156823
 10
0.8880626572
 20
-1.4566984715
 10
0.8522700803
 20
-1.490127014
 10
0.8141938146
 20
-1.5212434037
 10
0.7743433035
 20
-1.5496548544
 10
0.732691327
 20
-1.575288506
 10
0.689265105
 20
-1.5982172186
 10
0.6446557409
 20
-1.6182667873
 10
0.5988809328
 20
-1.6354460244
 10
0.5519229826
 20
-1.6497461176
 10
0.5043198987
 20
-1.6609664248
 10
0.4562510172
 20
-1.6690400653
 10
0.4075370021
 20
-1.6740339199
 10
0.3581778533
 20
-1.6759479886
  0
LWPOLYLINE
  5
3C0
100
AcDbEntity
  8
IMPORT_IGES
100
AcDbPolyline
 62
253
  6
CONTINUOUS
 90
25
 70
0
 10
1.1080636247
 20
-7.9260622172
 10
1.1060934428
 20
-7.9754591766
 10
1.1010524567
 20
-8.0242284836
 10
1.0929406663
 20
-8.072370138
 10
1.0817045173
 20
-8.1200732763
 10
1.067397564
 20
-8.1671487621
 10
1.0501804693
 20
-8.2130291864
 10
1.0300335868
 20
-8.257724752
 10
1.0069765629
 20
-8.3012252561
 10
0.9812289989
 20
-8.3429326808
 10
0.9527284747
 20
-8.3828207073
 10
0.9215374104
 20
-8.4209156544
 10
0.8880626678
 20
-8.4566984605
 10
0.8522700506
 20
-8.4901270475
 10
0.814193755
 20
-8.5212434936
 10
0.7743432322
 20
-8.5496549718
 10
0.7326912711
 20
-8.5752886105
 10
0.6892650828
 20
-8.5982172813
 10
0.6446557509
 20
-8.6182667733
 10
0.5988809726
 20
-8.6354458513
 10
0.5519230507
 20
-8.6497457504
 10
0.5043199786
 20
-8.6609659643
 10
0.4562510871
 20
-8.6690396576
 10
0.4075370454
 20
-8.6740336657
 10
0.3581778533
 20
-8.6759479886
  0
LWPOLYLINE
  5
3C1
100
AcDbEntity
  8
IMPORT_IGES
100
AcDbPolyline
 62
253
  6
CONTINUOUS
 90
16
 70
0
 10
0.8581017009
 20
-0.9260622172
 10
0.8553488424
 20
-0.9783024253
 10
0.8471515279
 20
-1.0299739435
 10
0.8335984789
 20
-1.0805107582
 10
0.8148332909
 20
-1.1293676741
 10
0.7910625499
 20
-1.1759997773
 10
0.7625623682
 20
-1.2198727688
 10
0.7296699879
 20
-1.2604897361
 10
0.6927368413
 20
-1.29743595
 10
0.6521265064
 20
-1.3303463369
 10
0.6082526465
 20
-1.3588676217
 10
0.5616112436
 20
-1.3826606454
 10
0.5127357877
 20
-1.4014472607
 10
0.4621710353
 20
-1.4150185508
 10
0.4104627496
 20
-1.4232284952
 10
0.3581778533
 20
-1.4259860648
  0
LWPOLYLINE
  5
3C2
100
AcDbEntity
  8
IMPORT_IGES
100
AcDbPolyline
 62
253
  6
CONTINUOUS
 90
16
 70
0
 10
0.8581017009
 20
-4.4260622172
 10
0.855344221
 20
-4.4783462633
 10
0.8471345063
 20
-4.5300538995
 10
0.8335635266
 20
-4.5806182162
 10
0.8147772255
 20
-4.62949349
 10
0.7909844714
 20
-4.6761349108
 10
0.7624634328
 20
-4.7200088628
 10
0.7295532808
 20
-4.7606193241
 10
0.6926072541
 20
-4.7975526576
 10
0.6519904132
 20
-4.8304452726
 10
0.6081175135
 20
-4.8589457008
 10
0.5614854278
 20
-4.8827167115
 10
0.5126283294
 20
-4.9014822136
 10
0.4620910789
 20
-4.9150355727
 10
0.4104189113
 20
-4.9232331168
 10
0.3581778533
 20
-4.9259860648
  0
LWPOLYLINE
  5
3C3
100
AcDbEntity
  8
IMPORT_IGES
100
AcDbPolyline
 62
253
  6
CONTINUOUS
 90
16
 70
0
 10
0.8581017009
 20
-7.9260622172
 10
0.8553488375
 20
-7.9783024724
 10
0.8471515095
 20
-8.0299740296
 10
0.8335984412
 20
-8.0805108741
 10
0.8148332304
 20
-8.12936781
 10
0.7910624654
 20
-8.1759999236
 10
0.762562261
 20
-8.2198729163
 10
0.7296698614
 20
-8.2604898766
 10
0.6927367009
 20
-8.2974360765
 10
0.6521263589
 20
-8.3303464441
 10
0.6082524999
 20
-8.3588677064
 10
0.5616111069
 20
-8.3826607063
 10
0.5127356708
 20
-8.4014472988
 10
0.4621709483
 20
-8.4150185694
 10
0.4104627018
 20
-8.4232285003
 10
0.3581778533
 20
-8.4259860648
  0
LWPOLYLINE
  5
3C4
100
AcDbEntity
  8
IMPORT_IGES
100
AcDbPolyline
 62
253
  6
CONTINUOUS
 90
16
 70
0
 10
0.8581017009
 20
-11.4260622172
 10
0.8553442256
 20
-11.4783462201
 10
0.8471345231
 20
-11.5300538208
 10
0.833563561
 20
-11.5806181105
 10
0.8147772806
 20
-11.6294933663
 10
0.790984548
 20
-11.6761347782
 10
0.7624635299
 20
-11.7200087294
 10
0.7295533953
 20
-11.760619197
 10
0.6926073812
 20
-11.7975525432
 10
0.6519905466
 20
-11.8304451756
 10
0.6081176459
 20
-11.8589456243
 10
0.5614855507
 20
-11.8827166567
 10
0.5126284342
 20
-11.9014821795
 10
0.4620911568
 20
-11.9150355561
 10
0.4104189539
 20
-11.9232331123
 10
0.3581778533
 20
-11.9259860648
  0
LWPOLYLINE
  5
3C5
100
AcDbEntity
  8
IMPORT_IGES
100
AcDbPolyline
 62
253
  6
CONTINUOUS
 90
16
 70
0
 10
0.8581017009
 20
-14.9260622172
 10
0.8553442275
 20
-14.9783462014
 10
0.8471345304
 20
-15.0300537867
 10
0.8335635759
 20
-15.0806180647
 10
0.8147773045
 20
-15.1294933127
 10
0.7909845812
 20
-15.1761347207
 10
0.7624635719
 20
-15.2200086715
 10
0.7295534449
 20
-15.2606191419
 10
0.6926074363
 20
-15.2975524936
 10
0.6519906045
 20
-15.3304451336
 10
0.6081177032
 20
-15.3589455912
 10
0.561485604
 20
-15.382716633
 10
0.5126284796
 20
-15.4014821648
 10
0.4620911905
 20
-15.415035549
 10
0.4104189724
 20
-15.4232331103
 10
0.3581778533
 20
-15.4259860648
  0
LWPOLYLINE
  5
3C6
100
AcDbEntity
  8
ASSI
100
AcDbPolyline
 62
7
  6
CONTINUOUS
 90
19
 70
0
 10
4.2421394443
 20
24.2466823493
 10
4.2417783862
 20
24.2441825564
 10
4.2408542897
 20
24.2410943726
 10
4.2393417591
 20
24.2374177981
 10
4.2372113091
 20
24.2331632516
 10
4.2344409733
 20
24.2283203143
 10
4.2310277713
 20
24.2228577295
 10
4.2269596525
 20
24.2167605652
 10
4.2222251036
 20
24.2100437535
 10
4.2168435645
 20
24.202720834
 10
4.2108298436
 20
24.1948006167
 10
4.2041745981
 20
24.1862742917
 10
4.1968698814
 20
24.1771289693
 10
4.1889337093
 20
24.1673890973
 10
4.18035502
 20
24.1570302279
 10
4.1710683672
 20
24.1459661275
 10
4.1610599909
 20
24.1341976683
 10
4.1503305685
 20
24.1217239782
 10
4.1388168515
 20
24.1084562067
  0
LWPOLYLINE
  5
3C7
100
AcDbEntity
  8
RACCORDO
100
AcDbPolyline
 62
253
  6
CONTINUOUS
 90
64
 70
0
 10
7.6628929132
 20
19.2744635479
 10
7.6569642528
 20
19.2548029653
 10
7.6501503052
 20
19.2354590773
 10
7.6424677221
 20
19.2164693822
 10
7.6339348018
 20
19.1978677392
 10
7.6245717806
 20
19.1796926537
 10
7.6144009345
 20
19.1619871507
 10
7.6034456719
 20
19.1447848407
 10
7.5917312263
 20
19.1281181482
 10
7.5792852849
 20
19.1120264268
 10
7.5661363938
 20
19.096540179
 10
7.5523137908
 20
19.0816871858
 10
7.537848459
 20
19.0675005682
 10
7.5227728346
 20
19.0540066282
 10
7.5071196804
 20
19.0412288302
 10
7.4909220725
 20
19.0291939341
 10
7.4742155041
 20
19.017923776
 10
7.4570354607
 20
19.0074373389
 10
7.4394160351
 20
18.9977551887
 10
7.4213947322
 20
18.9888944705
 10
7.4030092881
 20
18.9808698121
 10
7.3842947617
 20
18.9736962889
 10
7.3652904954
 20
18.9673865075
 10
7.346035428
 20
18.9619504421
 10
7.326564341
 20
18.9573977397
 10
7.3069171834
 20
18.9537363857
 10
7.2871341488
 20
18.9509720248
 10
7.2672505294
 20
18.9491094921
 10
7.2473070761
 20
18.948152261
 10
7.227344106
 20
18.9481014309
 10
7.2073963029
 20
18.9489570886
 10
7.1875039915
 20
18.9507183009
 10
7.1677079315
 20
18.9533817638
 10
7.1480434189
 20
18.9569428219
 10
7.1285506747
 20
18.9613959979
 10
7.1092696722
 20
18.9667334754
 10
7.0902351971
 20
18.9729457951
 10
7.0714862333
 20
18.9800231488
 10
7.053062168
 20
18.9879531029
 10
7.0349980718
 20
18.9967207878
 10
7.0173317457
 20
19.0063117453
 10
7.0001007651
 20
19.016709002
 10
6.9833392569
 20
19.0278922088
 10
6.9670827976
 20
19.0398425487
 10
6.9513669751
 20
19.0525383572
 10
6.936224924
 20
19.0659531089
 10
6.9216895232
 20
19.0800635039
 10
6.9077933369
 20
19.0948434033
 10
6.8945674479
 20
19.1102599222
 10
6.8820412395
 20
19.1262854366
 10
6.8702434185
 20
19.1428895925
 10
6.8592018193
 20
19.160033259
 10
6.8489415605
 20
19.177684686
 10
6.8394865813
 20
19.1958098811
 10
6.830860075
 20
19.2143643403
 10
6.8230819323
 20
19.2333132091
 10
6.8161708367
 20
19.2526190566
 10
6.8101446047
 20
19.272231784
 10
6.8050173657
 20
19.292113277
 10
6.800801457
 20
19.3122242718
 10
6.7975078594
 20
19.3325116731
 10
6.7951444165
 20
19.3529308643
 10
6.7937166084
 20
19.3734459288
 10
6.793228213
 20
19.3940162092
  0
LINE
  5
3C8
100
AcDbEntity
  8
0
100
AcDbLine
 62
7
  6
CONTINUOUS
 10
8.7377247265
 20
20.9504428007
 11
8.8860927784
 21
21.3959089246
  0
LINE
  5
3C9
100
AcDbEntity
  8
IMPORT_IGES
100
AcDbLine
 62
253
  6
CONTINUOUS
 10
0.8581017009
 20
0.4178800664
 11
0.8362067115
 21
0.395985077
  0
LINE
  5
3CA
100
AcDbEntity
  8
IMPORT_IGES
100
AcDbLine
 62
7
  6
CONTINUOUS
 10
7.0768520746
 20
6.1725611263
 11
7.0630006584
 21
6.15870971
  0
LINE
  5
3CB
100
AcDbEntity
  8
IMPORT_IGES
100
AcDbLine
 62
253
  6
CONTINUOUS
 10
-2.4856882778
 20
-4.4260622172
 11
-2.4637932885
 21
-4.4041672278
  0
LINE
  5
3CC
100
AcDbEntity
  8
IMPORT_IGES
100
AcDbLine
 62
7
  6
CONTINUOUS
 10
-1.9638694409
 20
0.8959089246
 11
0.336282864
 21
0.8959089246
  0
LINE
  5
3CD
100
AcDbEntity
  8
IMPORT_IGES
100
AcDbLine
 62
253
  6
CONTINUOUS
 10
-1.9857644303
 20
0.917803914
 11
0.3581778533
 21
0.917803914
  0
LINE
  5
3CE
100
AcDbEntity
  8
IMPORT_IGES
100
AcDbLine
 62
253
  6
CONTINUOUS
 10
0.3581778533
 20
1.1677658378
 11
-1.9857644303
 21
1.1677658378
  0
LWPOLYLINE
  5
3CF
100
AcDbEntity
  8
IMPORT_IGES
100
AcDbPolyline
 62
253
  6
CONTINUOUS
 90
25
 70
0
 10
0.3581778533
 20
1.1677658378
 10
0.4075707053
 20
1.1658563195
 10
0.456336813
 20
1.1608520938
 10
0.5044761762
 20
1.1527531609
 10
0.5521768354
 20
1.1414921859
 10
0.5992507503
 20
1.1271365037
 10
0.6451337999
 20
1.1098881179
 10
0.6898415666
 20
1.0897504544
 10
0.733358468
 20
1.0667200874
 10
0.775073636
 20
1.0409887429
 10
0.8149535784
 20
1.012481192
 10
0.8530317874
 20
0.9812726637
 10
0.8887978722
 20
0.9477805709
 10
0.9222091918
 20
0.9119714196
 10
0.9533083873
 20
0.8738787039
 10
0.981712991
 20
0.8340203192
 10
1.0073628153
 20
0.7923761261
 10
1.030318048
 20
0.748966264
 10
1.0503767845
 20
0.7043690465
 10
1.0675248844
 20
0.6585967943
 10
1.0817764883
 20
0.6116371866
 10
1.0929721126
 20
0.5640315749
 10
1.1010585962
 20
0.5159604095
 10
1.1060891002
 20
0.46724324
 10
1.1080636247
 20
0.4178800664
  0
LWPOLYLINE
  5
3D0
100
AcDbEntity
  8
IMPORT_IGES
100
AcDbPolyline
 62
253
  6
CONTINUOUS
 90
16
 70
0
 10
0.3581778533
 20
0.917803914
 10
0.4104619361
 20
0.9150464302
 10
0.4621696025
 20
0.9068367051
 10
0.5127339422
 20
0.8932657104
 10
0.5616092311
 20
0.8744793917
 10
0.6082506596
 20
0.8506866193
 10
0.6521246123
 20
0.8221655634
 10
0.6927350682
 20
0.7892553966
 10
0.729668391
 20
0.7523093591
 10
0.7625609912
 20
0.7116925128
 10
0.7910614018
 20
0.6678196141
 10
0.8148323941
 20
0.6211875364
 10
0.8335978786
 20
0.5723304535
 10
0.8471512229
 20
0.5217932258
 10
0.8553487567
 20
0.4701210881
 10
0.8581017009
 20
0.4178800664
  0
LINE
  5
3D1
100
AcDbEntity
  8
0
100
AcDbLine
 62
7
  6
CONTINUOUS
 10
8.8860927784
 20
-20.4040910754
 11
8.7377247265
 21
-19.9586249515
  0
LINE
  5
3D2
100
AcDbEntity
  8
RACCORDO
100
AcDbLine
 62
7
  6
CONTINUOUS
 10
2.8862067115
 20
-20.5040910754
 11
2.8862067115
 21
-21.8953642076
  0
LINE
  5
3D3
100
AcDbEntity
  8
RACCORDO
100
AcDbLine
 62
7
  6
CONTINUOUS
 10
2.8862067115
 20
21.4959089246
 11
2.8862067115
 21
22.8871820568
  0
LINE
  5
3D4
100
AcDbEntity
  8
ASSI
100
AcDbLine
 62
7
  6
CONTINUOUS
 10
3.3862067115
 20
-21.8380109706
 11
3.3862067115
 21
-23.2982732456
  0
LINE
  5
3D5
100
AcDbEntity
  8
ASSI
100
AcDbLine
 62
7
  6
CONTINUOUS
 10
3.3862067115
 20
22.8298288198
 11
3.3862067115
 21
24.2900910948
  0
LWPOLYLINE
  5
3D6
100
AcDbEntity
  8
RACCORDO
100
AcDbPolyline
 62
253
  6
CONTINUOUS
 90
64
 70
0
 10
7.4703074307
 20
19.324882755
 10
7.4670484669
 20
19.3134794659
 10
7.4633227996
 20
19.3023000529
 10
7.4591304289
 20
19.2913445159
 10
7.4544592644
 20
19.280590802
 10
7.4493213965
 20
19.2700609642
 10
7.4437530959
 20
19.2598211616
 10
7.4377516987
 20
19.2498738119
 10
7.4313198689
 20
19.2402164973
 10
7.4245018687
 20
19.2309081232
 10
7.4172955614
 20
19.2219514455
 10
7.4097030837
 20
19.2133437083
 10
7.4017751083
 20
19.2051355498
 10
7.3935100226
 20
19.1973298787
 10
7.3849094392
 20
19.1899237863
 10
7.3760288674
 20
19.1829591842
 10
7.3668671796
 20
19.176439008
 10
7.3574255034
 20
19.1703603222
 10
7.3477627324
 20
19.1647562323
 10
7.3378780022
 20
19.1596295659
 10
7.3277721771
 20
19.1549774953
 10
7.3175067428
 20
19.1508246432
 10
7.3070812862
 20
19.1471738216
 10
7.2964962203
 20
19.1440222184
 10
7.2858142696
 20
19.1413860196
 10
7.2750350676
 20
19.1392679087
 10
7.2641589807
 20
19.1376652022
 10
7.2532498328
 20
19.1365860354
 10
7.2423076456
 20
19.1360330723
 10
7.2313323973
 20
19.136003649
 10
7.2203878463
 20
19.1364979088
 10
7.209473972
 20
19.1375185117
 10
7.1985907949
 20
19.1390627977
 10
7.1878021357
 20
19.1411229305
 10
7.1771083459
 20
19.1437015914
 10
7.166509074
 20
19.1467960991
 10
7.1560670853
 20
19.1503905737
 10
7.1457827836
 20
19.1544878236
 10
7.1356557651
 20
19.1590850405
 10
7.1257475847
 20
19.1641579195
 10
7.1160590932
 20
19.1697092866
 10
7.1065894398
 20
19.1757363158
 10
7.0973976257
 20
19.1822062254
 10
7.0884847643
 20
19.189121949
 10
7.0798497422
 20
19.1964805529
 10
7.0715482209
 20
19.2042404543
 10
7.0635817939
 20
19.212404565
 10
7.0559488676
 20
19.2209699732
 10
7.0487003225
 20
19.2298863609
 10
7.0418382756
 20
19.2391564926
 10
7.0353606099
 20
19.2487776038
 10
7.0293118541
 20
19.2586910838
 10
7.0236946531
 20
19.2688993478
 10
7.0185063621
 20
19.2793999805
 10
7.0137835755
 20
19.2901271253
 10
7.0095293878
 20
19.3010829009
 10
7.0057407045
 20
19.3122651885
 10
7.0024448365
 20
19.323601775
 10
6.999645278
 20
19.3350945503
 10
6.9973385348
 20
19.3467416245
 10
6.9955414354
 20
19.3584651157
 10
6.9942595892
 20
19.3702390632
 10
6.9934873869
 20
19.3820894277
 10
6.9932248284
 20
19.3940162092
  0
LINE
  5
3D7
100
AcDbEntity
  8
0
100
AcDbLine
 62
7
  6
CONTINUOUS
 10
9.4878386596
 20
20.1994138545
 11
9.6362067115
 21
20.6448799784
  0
LINE
  5
3D8
100
AcDbEntity
  8
IMPORT_IGES
100
AcDbLine
 62
253
  6
CONTINUOUS
 10
-1.9638694409
 20
-4.9040910754
 11
-1.9857644303
 21
-4.9259860648
  0
LINE
  5
3D9
100
AcDbEntity
  8
IMPORT_IGES
100
AcDbLine
 62
253
  6
CONTINUOUS
 10
0.336282864
 20
-2.6040910754
 11
0.3581778533
 21
-2.582196086
  0
LINE
  5
3DA
100
AcDbEntity
  8
IMPORT_IGES
100
AcDbLine
 62
253
  6
CONTINUOUS
 10
0.8581017009
 20
-3.0821199336
 11
0.8362067115
 21
-3.104014923
  0
LINE
  5
3DB
100
AcDbEntity
  8
0
100
AcDbLine
 62
7
  6
CONTINUOUS
 10
9.6362067115
 20
-19.6530621292
 11
9.4878386596
 21
-19.2075960053
  0
LWPOLYLINE
  5
3DC
100
AcDbEntity
  8
RACCORDO
100
AcDbPolyline
 62
253
  6
CONTINUOUS
 90
10
 70
0
 10
7.6628929132
 20
-18.2826456988
 10
7.6663099001
 20
-18.2957513639
 10
7.6693243892
 20
-18.3089244341
 10
7.67193616
 20
-18.3221530577
 10
7.6741447497
 20
-18.3354213132
 10
7.6759515973
 20
-18.3487216159
 10
7.6773587841
 20
-18.3620548891
 10
7.6783667423
 20
-18.3754139078
 10
7.678975505
 20
-18.3887831483
 10
7.6791859752
 20
-18.4021513069
  0
LINE
  5
3DD
100
AcDbEntity
  8
ASSI
100
AcDbLine
 62
253
  6
CONTINUOUS
 10
4.2421394443
 20
-21.8379892423
 11
4.2421394443
 21
-23.2548645001
  0
LINE
  5
3DE
100
AcDbEntity
  8
ASSI
100
AcDbLine
 62
253
  6
CONTINUOUS
 10
4.2421394443
 20
22.8298070915
 11
4.2421394443
 21
24.2466823493
  0
LINE
  5
3DF
100
AcDbEntity
  8
DRAFT
100
AcDbLine
 62
7
  6
CONTINUOUS
 10
4.2862067115
 20
-23.3040910754
 11
4.2862067115
 21
-21.9040910754
  0
LINE
  5
3E0
100
AcDbEntity
  8
DRAFT
100
AcDbLine
 62
7
  6
CONTINUOUS
 10
4.2862067115
 20
22.8959089246
 11
4.2862067115
 21
24.2959089246
  0
LWPOLYLINE
  5
3E1
100
AcDbEntity
  8
RACCORDO
100
AcDbPolyline
 62
7
  6
CONTINUOUS
 90
21
 70
0
 10
6.793228213
 20
20.8981423253
 10
6.7934655012
 20
20.901369098
 10
6.7940855363
 20
20.9049651856
 10
6.7951001791
 20
20.9089305881
 10
6.7965199715
 20
20.9132520777
 10
6.798355592
 20
20.9179428822
 10
6.8006192728
 20
20.9230426847
 10
6.8033235391
 20
20.9285597803
 10
6.8064752904
 20
20.934485874
 10
6.8100760587
 20
20.9408357639
 10
6.8141226561
 20
20.9476001972
 10
6.8186242172
 20
20.9547884268
 10
6.8236013271
 20
20.9624430091
 10
6.8290535456
 20
20.9705550656
 10
6.8349879504
 20
20.9791334749
 10
6.8414458323
 20
20.9882474297
 10
6.84844201
 20
20.9979100243
 10
6.8559719479
 20
21.0081081645
 10
6.8640540865
 20
21.0188717603
 10
6.8726992946
 20
21.030224668
 10
6.8818932528
 20
21.0421430313
  0
LWPOLYLINE
  5
3E2
100
AcDbEntity
  8
IMPORT_IGES
100
AcDbPolyline
 62
7
  6
CONTINUOUS
 90
15
 70
0
 10
7.3840006623
 20
13.1219336376
 10
7.3774591938
 20
13.0810134692
 10
7.3667431329
 20
13.0409780262
 10
7.3520284262
 20
13.0022336919
 10
7.3334910202
 20
12.9651868497
 10
7.3113068613
 20
12.930243883
 10
7.285651896
 20
12.8978111751
 10
7.2567068588
 20
12.8682909066
 10
7.2247646828
 20
12.8419867692
 10
7.1902316658
 20
12.8191029426
 10
7.1535191263
 20
12.7998391992
 10
7.1150383832
 20
12.7843953112
 10
7.075200755
 20
12.7729710508
 10
7.0344175606
 20
12.7657661904
 10
6.9931158608
 20
12.762980696
  0
LINE
  5
3E3
100
AcDbEntity
  8
RACCORDO
100
AcDbLine
 62
7
  6
CONTINUOUS
 10
-7.0202414685
 20
-19.8887645396
 11
-6.9143417351
 21
-19.7299126992
  0
LINE
  5
3E4
100
AcDbEntity
  8
IMPORT_IGES
100
AcDbLine
 62
253
  6
CONTINUOUS
 10
-2.4856882778
 20
-7.9260622172
 11
-2.4637932885
 21
-7.9041672278
  0
LINE
  5
3E5
100
AcDbEntity
  8
IMPORT_IGES
100
AcDbLine
 62
253
  6
CONTINUOUS
 10
-1.9638694409
 20
-8.4040910754
 11
-1.9857644303
 21
-8.4259860648
  0
LINE
  5
3E6
100
AcDbEntity
  8
IMPORT_IGES
100
AcDbLine
 62
253
  6
CONTINUOUS
 10
0.336282864
 20
-6.1040910754
 11
0.3581778533
 21
-6.082196086
  0
LINE
  5
3E7
100
AcDbEntity
  8
IMPORT_IGES
100
AcDbLine
 62
7
  6
CONTINUOUS
 10
7.0630379152
 20
5.6694619096
 11
6.9482067115
 21
5.6694601203
  0
LINE
  5
3E8
100
AcDbEntity
  8
IMPORT_IGES
100
AcDbLine
 62
7
  6
CONTINUOUS
 10
-5.6376106911
 20
13.4697263272
 11
-5.6394780507
 21
13.4715936868
  0
LINE
  5
3E9
100
AcDbEntity
  8
RACCORDO
100
AcDbLine
 62
7
  6
CONTINUOUS
 10
-7.0202414685
 20
20.8805823887
 11
-6.9143417351
 21
20.7217305484
  0
LINE
  5
3EA
100
AcDbEntity
  8
IMPORT_IGES
100
AcDbLine
 62
7
  6
CONTINUOUS
 10
7.0890478213
 20
-0.6070533869
 11
7.0943451769
 21
-0.7917170414
  0
LINE
  5
3EB
100
AcDbEntity
  8
IMPORT_IGES
100
AcDbLine
 62
7
  6
CONTINUOUS
 10
7.073566047
 20
9.5193084539
 11
7.0740391016
 21
9.4983524624
  0
LINE
  5
3EC
100
AcDbEntity
  8
RACCORDO
100
AcDbLine
 62
253
  6
CONTINUOUS
 10
6.78454518
 20
-17.8681997266
 11
6.793228213
 21
-18.40219836
  0
LINE
  5
3ED
100
AcDbEntity
  8
IMPORT_IGES
100
AcDbLine
 62
7
  6
CONTINUOUS
 10
7.0740391016
 20
9.4983524624
 11
7.0746741242
 21
9.4597597875
  0
LINE
  5
3EE
100
AcDbEntity
  8
IMPORT_IGES
100
AcDbLine
 62
7
  6
CONTINUOUS
 10
7.0707895409
 20
11.65153839
 11
7.0764612953
 21
11.304103005
  0
LINE
  5
3EF
100
AcDbEntity
  8
IMPORT_IGES
100
AcDbLine
 62
7
  6
CONTINUOUS
 10
7.0746741242
 20
9.4597597875
 11
7.0753968095
 21
9.3955089231
  0
LINE
  5
3F0
100
AcDbEntity
  8
IMPORT_IGES
100
AcDbLine
 62
7
  6
CONTINUOUS
 10
7.0700391815
 20
11.722978917
 11
7.0707895409
 21
11.65153839
  0
LINE
  5
3F1
100
AcDbEntity
  8
IMPORT_IGES
100
AcDbLine
 62
7
  6
CONTINUOUS
 10
7.0753968095
 20
9.3955089231
 11
7.0763255547
 21
9.2515990964
  0
LINE
  5
3F2
100
AcDbEntity
  8
IMPORT_IGES
100
AcDbLine
 62
7
  6
CONTINUOUS
 10
7.0696436493
 20
11.7889432197
 11
7.0700391815
 21
11.722978917
  0
LINE
  5
3F3
100
AcDbEntity
  8
IMPORT_IGES
100
AcDbLine
 62
7
  6
CONTINUOUS
 10
7.0763255547
 20
9.2515990964
 11
7.0768737644
 21
9.0259598427
  0
LINE
  5
3F4
100
AcDbEntity
  8
IMPORT_IGES
100
AcDbLine
 62
253
  6
CONTINUOUS
 10
5.939326851
 20
-18.3070589101
 11
5.939326851
 21
19.2988767592
  0
LINE
  5
3F5
100
AcDbEntity
  8
RACCORDO
100
AcDbLine
 62
7
  6
CONTINUOUS
 10
6.6867551581
 20
-19.7299126992
 11
6.6867551581
 21
-17.9933990474
  0
LINE
  5
3F6
100
AcDbEntity
  8
RACCORDO
100
AcDbLine
 62
7
  6
CONTINUOUS
 10
6.6867551581
 20
18.9852170032
 11
6.6867551581
 21
20.7217305484
  0
LINE
  5
3F7
100
AcDbEntity
  8
RACCORDO
100
AcDbLine
 62
253
  6
CONTINUOUS
 10
6.793228213
 20
-19.9063244761
 11
6.793228213
 21
-18.40219836
  0
LINE
  5
3F8
100
AcDbEntity
  8
RACCORDO
100
AcDbLine
 62
253
  6
CONTINUOUS
 10
6.793228213
 20
19.3940162092
 11
6.793228213
 21
20.8981423253
  0
LINE
  5
3F9
100
AcDbEntity
  8
IMPORT_IGES
100
AcDbLine
 62
253
  6
CONTINUOUS
 10
6.9391745462
 20
-17.3072112149
 11
6.9391745462
 21
18.2990290641
  0
LINE
  5
3FA
100
AcDbEntity
  8
IMPORT_IGES
100
AcDbLine
 62
7
  6
CONTINUOUS
 10
6.9482067115
 20
-17.3162433803
 11
6.9482067115
 21
18.3080612294
  0
LINE
  5
3FB
100
AcDbEntity
  8
IMPORT_IGES
100
AcDbLine
 62
7
  6
CONTINUOUS
 10
6.950373952
 20
-17.3182963928
 11
6.950373952
 21
18.310114242
  0
LINE
  5
3FC
100
AcDbEntity
  8
RACCORDO
100
AcDbLine
 62
253
  6
CONTINUOUS
 10
6.9932248284
 20
-20.1887531165
 11
6.9932248284
 21
-18.40219836
  0
LINE
  5
3FD
100
AcDbEntity
  8
RACCORDO
100
AcDbLine
 62
253
  6
CONTINUOUS
 10
6.9932248284
 20
19.3940162092
 11
6.9932248284
 21
21.1805709657
  0
LINE
  5
3FE
100
AcDbEntity
  8
IMPORT_IGES
100
AcDbLine
 62
253
  6
CONTINUOUS
 10
6.9932336729
 20
16.7310464509
 11
6.9932255903
 21
12.7610543125
  0
LINE
  5
3FF
100
AcDbEntity
  8
IMPORT_IGES
100
AcDbLine
 62
7
  6
CONTINUOUS
 10
7.0629487944
 20
6.8397648866
 11
7.0629847853
 21
6.3671472647
  0
LINE
  5
400
100
AcDbEntity
  8
IMPORT_IGES
100
AcDbLine
 62
7
  6
CONTINUOUS
 10
7.0630006584
 20
6.15870971
 11
7.0630379163
 21
5.6694542947
  0
LINE
  5
401
100
AcDbEntity
  8
IMPORT_IGES
100
AcDbLine
 62
7
  6
CONTINUOUS
 10
7.0694215528
 20
12.1574821567
 11
7.0696436493
 21
11.7889432197
  0
LINE
  5
402
100
AcDbEntity
  8
IMPORT_IGES
100
AcDbLine
 62
7
  6
CONTINUOUS
 10
7.076380959
 20
12.3590435745
 11
7.0763957773
 21
12.1644563812
  0
LINE
  5
403
100
AcDbEntity
  8
IMPORT_IGES
100
AcDbLine
 62
7
  6
CONTINUOUS
 10
7.0764612953
 20
11.304103005
 11
7.0764800304
 21
11.0580815813
  0
LINE
  5
404
100
AcDbEntity
  8
IMPORT_IGES
100
AcDbLine
 62
7
  6
CONTINUOUS
 10
7.0764946364
 20
10.8662818748
 11
7.0765784662
 21
9.765466709
  0
LINE
  5
405
100
AcDbEntity
  8
IMPORT_IGES
100
AcDbLine
 62
7
  6
CONTINUOUS
 10
7.0767039976
 20
8.1170430389
 11
7.0767878274
 21
7.0162278732
  0
LINE
  5
406
100
AcDbEntity
  8
IMPORT_IGES
100
AcDbLine
 62
7
  6
CONTINUOUS
 10
7.0768372564
 20
6.3671483196
 11
7.0768520746
 21
6.1725611263
  0
LINE
  5
407
100
AcDbEntity
  8
IMPORT_IGES
100
AcDbLine
 62
7
  6
CONTINUOUS
 10
7.0874798118
 20
-9.7970792422
 11
7.0875437355
 21
-10.6364974146
  0
LINE
  5
408
100
AcDbEntity
  8
IMPORT_IGES
100
AcDbLine
 62
7
  6
CONTINUOUS
 10
7.087565588
 20
-10.9234545073
 11
7.087630075
 21
-11.7702694258
  0
LINE
  5
409
100
AcDbEntity
  8
IMPORT_IGES
100
AcDbLine
 62
7
  6
CONTINUOUS
 10
7.087402676
 20
-6.8107497065
 11
7.0874747224
 21
-7.7568315099
  0
LINE
  5
40A
100
AcDbEntity
  8
IMPORT_IGES
100
AcDbLine
 62
7
  6
CONTINUOUS
 10
7.0889953687
 20
0.0817311016
 11
7.0890478213
 21
-0.6070533869
  0
LINE
  5
40B
100
AcDbEntity
  8
IMPORT_IGES
100
AcDbLine
 62
7
  6
CONTINUOUS
 10
7.0949339922
 20
-10.6364968518
 11
7.0949552826
 21
-10.9160724282
  0
LINE
  5
40C
100
AcDbEntity
  8
IMPORT_IGES
100
AcDbLine
 62
7
  6
CONTINUOUS
 10
7.0942472116
 20
0.4947204825
 11
7.0942647354
 21
0.2646057955
  0
LINE
  5
40D
100
AcDbEntity
  8
IMPORT_IGES
100
AcDbLine
 62
7
  6
CONTINUOUS
 10
7.0943451769
 20
-0.7917170414
 11
7.094364112
 21
-1.0403638417
  0
LINE
  5
40E
100
AcDbEntity
  8
IMPORT_IGES
100
AcDbLine
 62
7
  6
CONTINUOUS
 10
7.0953905311
 20
-14.518846625
 11
7.0954836752
 21
-15.7419737104
  0
LINE
  5
40F
100
AcDbEntity
  8
IMPORT_IGES
100
AcDbLine
 62
7
  6
CONTINUOUS
 10
7.0768737644
 20
9.0259598427
 11
7.07674986
 21
8.7775605126
  0
LINE
  5
410
100
AcDbEntity
  8
IMPORT_IGES
100
AcDbLine
 62
7
  6
CONTINUOUS
 10
7.09526387
 20
-12.8555894662
 11
7.0950015604
 21
-13.7229146499
  0
LINE
  5
411
100
AcDbEntity
  8
IMPORT_IGES
100
AcDbLine
 62
7
  6
CONTINUOUS
 10
7.0945271906
 20
-3.1818402869
 11
7.0942844782
 21
-4.0831705149
  0
LINE
  5
412
100
AcDbEntity
  8
IMPORT_IGES
100
AcDbLine
 62
7
  6
CONTINUOUS
 10
7.07674986
 20
8.7775605126
 11
7.0760239235
 21
8.5913265354
  0
LINE
  5
413
100
AcDbEntity
  8
IMPORT_IGES
100
AcDbLine
 62
7
  6
CONTINUOUS
 10
7.0950015604
 20
-13.7229146499
 11
7.0942609623
 21
-13.8930575045
  0
LINE
  5
414
100
AcDbEntity
  8
IMPORT_IGES
100
AcDbLine
 62
7
  6
CONTINUOUS
 10
7.0942844782
 20
-4.0831705149
 11
7.0935818912
 21
-4.2339463528
  0
LINE
  5
415
100
AcDbEntity
  8
IMPORT_IGES
100
AcDbLine
 62
7
  6
CONTINUOUS
 10
7.0760239235
 20
8.5913265354
 11
7.0751803691
 21
8.4927323494
  0
LINE
  5
416
100
AcDbEntity
  8
IMPORT_IGES
100
AcDbLine
 62
7
  6
CONTINUOUS
 10
7.0942609623
 20
-13.8930575045
 11
7.0932128965
 21
-14.0099185938
  0
LINE
  5
417
100
AcDbEntity
  8
IMPORT_IGES
100
AcDbLine
 62
7
  6
CONTINUOUS
 10
7.0935818912
 20
-4.2339463528
 11
7.0927453614
 21
-4.3197064798
  0
LINE
  5
418
100
AcDbEntity
  8
IMPORT_IGES
100
AcDbLine
 62
7
  6
CONTINUOUS
 10
7.0932128965
 20
-14.0099185938
 11
7.0925008979
 21
-14.0630355577
  0
LINE
  5
419
100
AcDbEntity
  8
IMPORT_IGES
100
AcDbLine
 62
7
  6
CONTINUOUS
 10
7.0751803691
 20
8.4927323494
 11
7.0744978285
 21
8.4434874145
  0
LINE
  5
41A
100
AcDbEntity
  8
RACCORDO
100
AcDbLine
 62
253
  6
CONTINUOUS
 10
6.793228213
 20
19.3940162092
 11
6.7845451916
 21
18.860018289
  0
LINE
  5
41B
100
AcDbEntity
  8
IMPORT_IGES
100
AcDbLine
 62
7
  6
CONTINUOUS
 10
7.0927453614
 20
-4.3197064798
 11
7.0921038783
 21
-4.3623506073
  0
LWPOLYLINE
  5
41C
100
AcDbEntity
  8
IMPORT_IGES
100
AcDbPolyline
 62
7
  6
CONTINUOUS
 90
7
 70
0
 10
7.0744978285
 20
8.4434874145
 10
7.0739512125
 20
8.4163631458
 10
7.0736476945
 20
8.4046662945
 10
7.0733240701
 20
8.3951760832
 10
7.0729802183
 20
8.388192048
 10
7.0726162599
 20
8.3834146527
 10
7.072232195
 20
8.3808438973
  0
LWPOLYLINE
  5
41D
100
AcDbEntity
  8
IMPORT_IGES
100
AcDbPolyline
 62
7
  6
CONTINUOUS
 90
9
 70
0
 10
7.0921038783
 20
-4.3623506073
 10
7.0916197687
 20
-4.3857694647
 10
7.0913603818
 20
-4.39565951
 10
7.0910893755
 20
-4.4042234155
 10
7.0908067045
 20
-4.4114865612
 10
7.0905119028
 20
-4.4172615745
 10
7.0902048151
 20
-4.421485998
 10
7.0898855967
 20
-4.424222289
 10
7.0895542476
 20
-4.4254704476
  0
LWPOLYLINE
  5
41E
100
AcDbEntity
  8
RACCORDO
100
AcDbPolyline
 62
253
  6
CONTINUOUS
 90
10
 70
0
 10
7.4851106459
 20
19.3939691561
 10
7.4849304274
 20
19.3862331198
 10
7.4843847423
 20
19.3785087224
 10
7.4834735572
 20
19.3707959637
 10
7.4821975853
 20
19.3630904392
 10
7.480556002
 20
19.3553965534
 10
7.4785464552
 20
19.3477275207
 10
7.4761681332
 20
19.3400877458
 10
7.4734217815
 20
19.3324728239
 10
7.4703074307
 20
19.324882755
  0
LWPOLYLINE
  5
41F
100
AcDbEntity
  8
RACCORDO
100
AcDbPolyline
 62
253
  6
CONTINUOUS
 90
64
 70
0
 10
6.793228213
 20
-18.40219836
 10
6.7937166084
 20
-18.3816280798
 10
6.7951444165
 20
-18.3611130154
 10
6.7975078594
 20
-18.3406938241
 10
6.800801457
 20
-18.3204064226
 10
6.8050173658
 20
-18.3002954275
 10
6.8101446049
 20
-18.2804139342
 10
6.8161708369
 20
-18.2608012068
 10
6.8230819325
 20
-18.2414953594
 10
6.8308600752
 20
-18.2225464907
 10
6.8394865815
 20
-18.2039920316
 10
6.8489415607
 20
-18.1858668365
 10
6.8592018195
 20
-18.1682154094
 10
6.8702434188
 20
-18.151071743
 10
6.8820412398
 20
-18.1344675871
 10
6.8945674482
 20
-18.1184420727
 10
6.9077933372
 20
-18.1030255538
 10
6.9216895234
 20
-18.0882456544
 10
6.9362249243
 20
-18.0741352594
 10
6.9513669754
 20
-18.0607205078
 10
6.9670827979
 20
-18.0480246993
 10
6.9833392573
 20
-18.0360743595
 10
7.0001007654
 20
-18.0248911526
 10
7.017331746
 20
-18.014493896
 10
7.0349980721
 20
-18.0049029385
 10
7.0530621683
 20
-17.9961352536
 10
7.0714862337
 20
-17.9882052995
 10
7.0902351974
 20
-17.9811279459
 10
7.1092696726
 20
-17.9749156261
 10
7.128550675
 20
-17.9695781486
 10
7.1480434192
 20
-17.9651249727
 10
7.1677079318
 20
-17.9615639146
 10
7.1875039918
 20
-17.9589004517
 10
7.2073963032
 20
-17.9571392395
 10
7.2273441064
 20
-17.9562835817
 10
7.2473070764
 20
-17.9563344118
 10
7.2672505297
 20
-17.9572916429
 10
7.2871341491
 20
-17.9591541757
 10
7.3069171837
 20
-17.9619185366
 10
7.3265643413
 20
-17.9655798906
 10
7.3460354283
 20
-17.970132593
 10
7.3652904956
 20
-17.9755686584
 10
7.384294762
 20
-17.9818784398
 10
7.4030092884
 20
-17.989051963
 10
7.4213947324
 20
-17.9970766215
 10
7.4394160354
 20
-18.0059373396
 10
7.4570354609
 20
-18.0156194899
 10
7.4742155043
 20
-18.026105927
 10
7.4909220727
 20
-18.0373760851
 10
7.5071196806
 20
-18.0494109812
 10
7.5227728348
 20
-18.0621887792
 10
7.5378484591
 20
-18.0756827192
 10
7.5523137909
 20
-18.0898693368
 10
7.566136394
 20
-18.10472233
 10
7.579285285
 20
-18.1202085777
 10
7.5917312264
 20
-18.1363002992
 10
7.603445672
 20
-18.1529669917
 10
7.6144009346
 20
-18.1701693017
 10
7.6245717806
 20
-18.1878748047
 10
7.6339348019
 20
-18.2060498901
 10
7.6424677221
 20
-18.2246515332
 10
7.6501503052
 20
-18.2436412282
 10
7.6569642529
 20
-18.2629851162
 10
7.6628929132
 20
-18.2826456988
  0
LINE
  5
420
100
AcDbEntity
  8
IMPORT_IGES
100
AcDbLine
 62
7
  6
CONTINUOUS
 10
7.0942647354
 20
0.2646057955
 11
7.0889953687
 21
0.0817311016
  0
LINE
  5
421
100
AcDbEntity
  8
IMPORT_IGES
100
AcDbLine
 62
7
  6
CONTINUOUS
 10
7.3861917962
 20
13.1629379274
 11
7.3840006623
 21
13.1219336376
  0
LWPOLYLINE
  5
422
100
AcDbEntity
  8
ASSI
100
AcDbPolyline
 62
7
  6
CONTINUOUS
 90
18
 70
0
 10
3.3862067115
 20
-23.2552333658
 10
3.3864836921
 20
-23.2527855292
 10
3.3873302534
 20
-23.2497515974
 10
3.3887694661
 20
-23.2461315703
 10
3.3908277728
 20
-23.2419352951
 10
3.3935250748
 20
-23.2371529246
 10
3.3968645165
 20
-23.2317549172
 10
3.4008564247
 20
-23.225728334
 10
3.4055111302
 20
-23.2190861139
 10
3.4108128413
 20
-23.2118375317
 10
3.4167466201
 20
-23.2039939318
 10
3.4233221762
 20
-23.1955439698
 10
3.430555332
 20
-23.186462888
 10
3.4384342572
 20
-23.1767710536
 10
3.4469684475
 20
-23.1664480993
 10
3.4562207395
 20
-23.1554081661
 10
3.4662053303
 20
-23.1436521679
 10
3.4769233319
 20
-23.1311791909
  0
LWPOLYLINE
  5
423
100
AcDbEntity
  8
RACCORDO
100
AcDbPolyline
 62
7
  6
CONTINUOUS
 90
4
 70
0
 10
-7.1094798298
 20
-20.0503251822
 10
-7.1294668538
 20
-20.0758000941
 10
-7.1402300246
 20
-20.0893566427
 10
-7.1513247808
 20
-20.1031949468
  0
LINE
  5
424
100
AcDbEntity
  8
IMPORT_IGES
100
AcDbLine
 62
253
  6
CONTINUOUS
 10
0.8581017009
 20
-6.5821199336
 11
0.8362067115
 21
-6.604014923
  0
LINE
  5
425
100
AcDbEntity
  8
IMPORT_IGES
100
AcDbLine
 62
253
  6
CONTINUOUS
 10
-9.1757932885
 20
-17.3162433803
 11
-9.1667611231
 21
-17.3072112149
  0
LINE
  5
426
100
AcDbEntity
  8
IMPORT_IGES
100
AcDbLine
 62
253
  6
CONTINUOUS
 10
-2.4856882778
 20
-11.4260622172
 11
-2.4637932885
 21
-11.4041672278
  0
LINE
  5
427
100
AcDbEntity
  8
IMPORT_IGES
100
AcDbLine
 62
7
  6
CONTINUOUS
 10
7.0629487944
 20
6.8397648866
 11
6.9482067115
 21
6.8395839071
  0
LINE
  5
428
100
AcDbEntity
  8
IMPORT_IGES
100
AcDbLine
 62
7
  6
CONTINUOUS
 10
7.0630006584
 20
6.15870971
 11
6.9482067115
 21
6.1587043635
  0
LINE
  5
429
100
AcDbEntity
  8
IMPORT_IGES
100
AcDbLine
 62
7
  6
CONTINUOUS
 10
7.0768520746
 20
6.1725611263
 11
6.9482067115
 21
6.1725587435
  0
LINE
  5
42A
100
AcDbEntity
  8
IMPORT_IGES
100
AcDbLine
 62
7
  6
CONTINUOUS
 10
7.0768372564
 20
6.3671483196
 11
6.9482067115
 21
6.3671459371
  0
LINE
  5
42B
100
AcDbEntity
  8
IMPORT_IGES
100
AcDbLine
 62
7
  6
CONTINUOUS
 10
7.0767878262
 20
7.0162354881
 11
6.9482067115
 21
7.0162354654
  0
LINE
  5
42C
100
AcDbEntity
  8
IMPORT_IGES
100
AcDbLine
 62
253
  6
CONTINUOUS
 10
-9.1667611231
 20
18.2990290641
 11
-9.1757932885
 21
18.3080612294
  0
LINE
  5
42D
100
AcDbEntity
  8
IMPORT_IGES
100
AcDbLine
 62
7
  6
CONTINUOUS
 10
-4.8879145805
 20
14.5202241623
 11
-4.88975128
 21
14.522091522
  0
LWPOLYLINE
  5
42E
100
AcDbEntity
  8
IMPORT_IGES
100
AcDbPolyline
 62
7
  6
CONTINUOUS
 90
25
 70
0
 10
-4.5999845919
 20
15.3896352772
 10
-4.6046287823
 20
15.3952379318
 10
-4.6253157919
 20
15.4219942555
 10
-4.6453075968
 20
15.449769096
 10
-4.6644235311
 20
15.4785135674
 10
-4.6826367775
 20
15.5081521481
 10
-4.6999741533
 20
15.5387337573
 10
-4.7163354444
 20
15.5703973482
 10
-4.7317324976
 20
15.6030570263
 10
-4.7461534661
 20
15.6367681923
 10
-4.7594625949
 20
15.6719007185
 10
-4.7717342137
 20
15.708437389
 10
-4.7828939929
 20
15.7463657399
 10
-4.7925831882
 20
15.7860816195
 10
-4.8008930353
 20
15.827590402
 10
-4.8077322986
 20
15.8708213213
 10
-4.8124685271
 20
15.9160553445
 10
-4.8151104322
 20
15.9635526147
 10
-4.8156493026
 20
16.0128928412
 10
-4.8134265536
 20
16.063308377
 10
-4.8083131431
 20
16.1146340139
 10
-4.8004381131
 20
16.1667469722
 10
-4.7895300054
 20
16.218929811
 10
-4.7754788661
 20
16.2709702526
 10
-4.7721847385
 20
16.2809530509
  0
LWPOLYLINE
  5
42F
100
AcDbEntity
  8
RACCORDO
100
AcDbPolyline
 62
7
  6
CONTINUOUS
 90
23
 70
0
 10
-7.1402566342
 20
21.0812077367
 10
-7.1192367119
 20
21.0546338739
 10
-7.109520473
 20
21.0421954502
 10
-7.1003274045
 20
21.0302788384
 10
-7.0916824307
 20
21.0189269746
 10
-7.0835996425
 20
21.008163516
 10
-7.0760685287
 20
20.9979648053
 10
-7.0690721049
 20
20.9883028064
 10
-7.0626147428
 20
20.9791909603
 10
-7.0566813892
 20
20.970615826
 10
-7.0512315981
 20
20.9625090443
 10
-7.0462589219
 20
20.9548633505
 10
-7.0417620222
 20
20.9476860094
 10
-7.0377178795
 20
20.9409304554
 10
-7.0341181935
 20
20.934587634
 10
-7.0309653944
 20
20.9286665997
 10
-7.0282551806
 20
20.9231479507
 10
-7.0259810462
 20
20.9180365167
 10
-7.0241337469
 20
20.9133274679
 10
-7.0227033565
 20
20.9089869134
 10
-7.0216802372
 20
20.9050035563
 10
-7.0210543909
 20
20.9013886936
 10
-7.0208147899
 20
20.8981423253
  0
LWPOLYLINE
  5
430
100
AcDbEntity
  8
IMPORT_IGES
100
AcDbPolyline
 62
253
  6
CONTINUOUS
 90
16
 70
0
 10
7.3862903289
 20
15.9885180198
 10
7.3841143457
 20
16.0204033858
 10
7.3776778411
 20
16.0521861645
 10
7.3670488184
 20
16.0835443785
 10
7.3522453074
 20
16.1142436583
 10
7.3333820171
 20
16.1438172962
 10
7.3108019245
 20
16.1716184615
 10
7.2848324663
 20
16.1972217711
 10
7.2555952644
 20
16.2204409696
 10
7.2233309838
 20
16.2411034553
 10
7.188296526
 20
16.259116524
 10
7.1510482922
 20
16.274220735
 10
7.1124228174
 20
16.2861418364
 10
7.0730213035
 20
16.2947920466
 10
7.0331414922
 20
16.3001663857
 10
6.9931887017
 20
16.3022206149
  0
LINE
  5
431
100
AcDbEntity
  8
IMPORT_IGES
100
AcDbLine
 62
7
  6
CONTINUOUS
 10
7.3862200262
 20
16.3286354175
 11
7.3840362764
 21
16.3695593104
  0
LWPOLYLINE
  5
432
100
AcDbEntity
  8
IMPORT_IGES
100
AcDbPolyline
 62
253
  6
CONTINUOUS
 90
19
 70
0
 10
6.9391745462
 20
18.2990290641
 10
6.935344761
 20
18.3861546821
 10
6.9239376157
 20
18.4726174785
 10
6.9050398918
 20
18.5577596743
 10
6.8787953569
 20
18.6409335369
 10
6.8454036701
 20
18.7215063085
 10
6.8051188639
 20
18.7988650191
 10
6.7582474112
 20
18.8724211505
 10
6.7051458939
 20
18.941615113
 10
6.6462182898
 20
19.0059205029
 10
6.5819129
 20
19.0648481069
 10
6.5127189375
 20
19.1179496243
 10
6.4391628061
 20
19.1648210769
 10
6.3618040954
 20
19.2051058831
 10
6.2812313239
 20
19.2384975699
 10
6.1980574612
 20
19.2647421049
 10
6.1129152655
 20
19.2836398287
 10
6.026452469
 20
19.295046974
 10
5.939326851
 20
19.2988767592
  0
LWPOLYLINE
  5
433
100
AcDbEntity
  8
RACCORDO
100
AcDbPolyline
 62
253
  6
CONTINUOUS
 90
31
 70
0
 10
8.1405785455
 20
24.3402464919
 10
8.140957899
 20
24.3289360006
 10
8.1420189437
 20
24.3176563978
 10
8.1437587821
 20
24.3064384875
 10
8.1461726604
 20
24.2953129143
 10
8.1492539876
 20
24.2843100525
 10
8.1529943586
 20
24.2734599242
 10
8.1573835724
 20
24.2627921419
 10
8.1624096402
 20
24.2523358615
 10
8.1680588207
 20
24.242119674
 10
8.1743156754
 20
24.2321714925
 10
8.1811631226
 20
24.2225184706
 10
8.1885824667
 20
24.2131869622
 10
8.1965534482
 20
24.2042024486
 10
8.205054296
 20
24.1955894693
 10
8.2140617922
 20
24.1873715478
 10
8.2235513322
 20
24.1795711307
 10
8.2334970043
 20
24.1722095158
 10
8.2438716606
 20
24.1653067985
 10
8.2546469909
 20
24.1588818192
 10
8.265793549
 20
24.1529521399
 10
8.2772808422
 20
24.1475339793
 10
8.2890774633
 20
24.1426421414
 10
8.3011512237
 20
24.1382899646
 10
8.3134691923
 20
24.1344893159
 10
8.3259981869
 20
24.1312504679
 10
8.3387035473
 20
24.1285824138
 10
8.3515492171
 20
24.1264926297
 10
8.3644996263
 20
24.1249866812
 10
8.3775198428
 20
24.1240684115
 10
8.3905743147
 20
24.1237401409
  0
LINE
  5
434
100
AcDbEntity
  8
RACCORDO
100
AcDbLine
 62
253
  6
CONTINUOUS
 10
7.6791859752
 20
19.3939691561
 11
7.7856582649
 21
12.8460201433
  0
LINE
  5
435
100
AcDbEntity
  8
RACCORDO
100
AcDbLine
 62
253
  6
CONTINUOUS
 10
8.1405785455
 20
-23.3484286427
 11
8.1362067115
 21
-22.9145762236
  0
LINE
  5
436
100
AcDbEntity
  8
RACCORDO
100
AcDbLine
 62
253
  6
CONTINUOUS
 10
8.3913015435
 20
-23.2040910754
 11
8.3854837137
 21
-22.6267408062
  0
LINE
  5
437
100
AcDbEntity
  8
RACCORDO
100
AcDbLine
 62
253
  6
CONTINUOUS
 10
7.4703074307
 20
-21.2133088034
 11
7.4703074307
 21
-18.3330649059
  0
LINE
  5
438
100
AcDbEntity
  8
RACCORDO
100
AcDbLine
 62
253
  6
CONTINUOUS
 10
7.4703074307
 20
19.324882755
 11
7.4703074307
 21
22.2051266525
  0
LINE
  5
439
100
AcDbEntity
  8
RACCORDO
100
AcDbLine
 62
253
  6
CONTINUOUS
 10
7.4851106459
 20
21.3959089246
 11
7.4851106459
 21
19.3939691561
  0
LINE
  5
43A
100
AcDbEntity
  8
RACCORDO
100
AcDbLine
 62
253
  6
CONTINUOUS
 10
7.4851106459
 20
-18.4021513069
 11
7.4851106459
 21
-20.4040910754
  0
LINE
  5
43B
100
AcDbEntity
  8
RACCORDO
100
AcDbLine
 62
253
  6
CONTINUOUS
 10
7.6791859752
 20
21.3959089246
 11
7.6791859752
 21
19.3939691561
  0
LINE
  5
43C
100
AcDbEntity
  8
RACCORDO
100
AcDbLine
 62
253
  6
CONTINUOUS
 10
7.6791859752
 20
-18.4021513069
 11
7.6791859752
 21
-20.4040910754
  0
LINE
  5
43D
100
AcDbEntity
  8
RACCORDO
100
AcDbLine
 62
7
  6
CONTINUOUS
 10
7.7856582649
 20
-11.8542022941
 11
7.7856582649
 21
-19.9586249515
  0
LINE
  5
43E
100
AcDbEntity
  8
RACCORDO
100
AcDbLine
 62
7
  6
CONTINUOUS
 10
7.7856582649
 20
12.8460201433
 11
7.7856582649
 21
20.9504428007
  0
LINE
  5
43F
100
AcDbEntity
  8
RACCORDO
100
AcDbLine
 62
253
  6
CONTINUOUS
 10
7.9702312783
 20
-21.0700665087
 11
7.9702312783
 21
-20.4040910754
  0
LINE
  5
440
100
AcDbEntity
  8
RACCORDO
100
AcDbLine
 62
253
  6
CONTINUOUS
 10
7.9702312783
 20
21.3959089246
 11
7.9702312783
 21
22.0618843578
  0
LINE
  5
441
100
AcDbEntity
  8
DRAFT
100
AcDbLine
 62
7
  6
CONTINUOUS
 10
8.1362067115
 20
21.8959089246
 11
8.1362067115
 21
21.3959089246
  0
LINE
  5
442
100
AcDbEntity
  8
DRAFT
100
AcDbLine
 62
7
  6
CONTINUOUS
 10
8.1362067115
 20
-20.4040910754
 11
8.1362067115
 21
-20.9040910754
  0
LINE
  5
443
100
AcDbEntity
  8
RACCORDO
100
AcDbLine
 62
7
  6
CONTINUOUS
 10
8.1362067115
 20
-21.9040910754
 11
8.1362067115
 21
-23.7540953062
  0
LINE
  5
444
100
AcDbEntity
  8
RACCORDO
100
AcDbLine
 62
7
  6
CONTINUOUS
 10
8.1362067115
 20
22.8959089246
 11
8.1362067115
 21
24.7459131554
  0
LINE
  5
445
100
AcDbEntity
  8
RACCORDO
100
AcDbLine
 62
253
  6
CONTINUOUS
 10
8.1405785455
 20
24.7415413214
 11
8.1405785455
 21
24.3402464919
  0
LINE
  5
446
100
AcDbEntity
  8
RACCORDO
100
AcDbLine
 62
253
  6
CONTINUOUS
 10
8.1405785455
 20
-23.3484286427
 11
8.1405785455
 21
-23.7497234722
  0
LINE
  5
447
100
AcDbEntity
  8
RACCORDO
100
AcDbLine
 62
253
  6
CONTINUOUS
 10
8.3905743147
 20
-23.2040910754
 11
8.3905743147
 21
-23.9997192414
  0
LINE
  5
448
100
AcDbEntity
  8
RACCORDO
100
AcDbLine
 62
253
  6
CONTINUOUS
 10
8.3905743147
 20
24.1237401409
 11
8.3905743147
 21
24.9915370906
  0
LINE
  5
449
100
AcDbEntity
  8
IMPORT_IGES
100
AcDbLine
 62
7
  6
CONTINUOUS
 10
7.3862067115
 20
13.1630905858
 11
7.3862067115
 21
16.3287227498
  0
LINE
  5
44A
100
AcDbEntity
  8
IMPORT_IGES
100
AcDbLine
 62
7
  6
CONTINUOUS
 10
7.3862244267
 20
16.3273700654
 11
7.3862067115
 21
16.3107274085
  0
LINE
  5
44B
100
AcDbEntity
  8
RACCORDO
100
AcDbLine
 62
253
  6
CONTINUOUS
 10
8.1362067115
 20
23.9063940728
 11
8.1405785455
 21
24.3402464919
  0
LINE
  5
44C
100
AcDbEntity
  8
RACCORDO
100
AcDbLine
 62
253
  6
CONTINUOUS
 10
8.3854837137
 20
23.6185586554
 11
8.3905743147
 21
24.1237401409
  0
LWPOLYLINE
  5
44D
100
AcDbEntity
  8
RACCORDO
100
AcDbPolyline
 62
253
  6
CONTINUOUS
 90
10
 70
0
 10
7.6791859752
 20
19.3939691561
 10
7.6789755049
 20
19.3806009955
 10
7.6783667421
 20
19.3672317537
 10
7.6773587837
 20
19.3538727345
 10
7.6759515969
 20
19.3405394618
 10
7.6741447494
 20
19.3272391604
 10
7.6719361598
 20
19.3139709059
 10
7.6693243891
 20
19.3007422828
 10
7.6663099001
 20
19.2875692129
 10
7.6628929132
 20
19.2744635479
  0
LINE
  5
44E
100
AcDbEntity
  8
RACCORDO
100
AcDbLine
 62
253
  6
CONTINUOUS
 10
7.7856582649
 20
-11.8542022941
 11
7.6791859752
 21
-18.4021513069
  0
LINE
  5
44F
100
AcDbEntity
  8
IMPORT_IGES
100
AcDbLine
 62
7
  6
CONTINUOUS
 10
7.0925008979
 20
-14.0630355577
 11
7.0916426077
 21
-14.112219056
  0
LWPOLYLINE
  5
450
100
AcDbEntity
  8
RACCORDO
100
AcDbPolyline
 62
7
  6
CONTINUOUS
 90
44
 70
0
 10
7.7856582649
 20
12.8460201433
 10
7.7850972435
 20
12.8197128454
 10
7.783433006
 20
12.7935494313
 10
7.7806655525
 20
12.7675299008
 10
7.7767758085
 20
12.741574751
 10
7.7717828484
 20
12.7157634849
 10
7.7657438957
 20
12.6903346114
 10
7.7586519065
 20
12.6653194536
 10
7.7505139247
 20
12.6406866885
 10
7.7414083059
 20
12.6165808563
 10
7.7313474201
 20
12.5930325322
 10
7.7203188973
 20
12.570011141
 10
7.7083639827
 20
12.5475694971
 10
7.6954522539
 20
12.525665028
 10
7.6816141333
 20
12.5043403062
 10
7.6669821337
 20
12.4837758634
 10
7.6515479817
 20
12.4639902364
 10
7.6353199506
 20
12.4449648884
 10
7.618455373
 20
12.4268247402
 10
7.6009921274
 20
12.4096114262
 10
7.5828923353
 20
12.3932833121
 10
7.5641996947
 20
12.377840416
 10
7.5448891747
 20
12.3632593945
 10
7.5249858062
 20
12.3495635911
 10
7.50460838
 20
12.3368230548
 10
7.4837368579
 20
12.3250391788
 10
7.4623912781
 20
12.31421057
 10
7.4407505448
 20
12.3044030983
 10
7.4188387149
 20
12.2956366354
 10
7.3966317316
 20
12.2878913097
 10
7.3742363285
 20
12.2811733766
 10
7.3516833959
 20
12.2754846967
 10
7.3289420436
 20
12.2708234095
 10
7.3060263348
 20
12.2671901881
 10
7.2828826284
 20
12.2645779668
 10
7.2595645656
 20
12.2629938113
 10
7.236247133
 20
12.2624595922
 10
7.212930702
 20
12.2629899728
 10
7.1896149014
 20
12.2645702898
 10
7.1664736039
 20
12.2671784239
 10
7.1435603933
 20
12.2708071433
 10
7.1208216859
 20
12.2754636799
 10
7.098270604
 20
12.2811476102
 10
7.0763863914
 20
12.2877078104
  0
LWPOLYLINE
  5
451
100
AcDbEntity
  8
RACCORDO
100
AcDbPolyline
 62
253
  6
CONTINUOUS
 90
64
 70
0
 10
6.9932248284
 20
-18.40219836
 10
6.9934873869
 20
-18.3902715784
 10
6.9942595893
 20
-18.3784212138
 10
6.9955414354
 20
-18.3666472662
 10
6.9973385348
 20
-18.354923775
 10
6.999645278
 20
-18.3432767008
 10
7.0024448365
 20
-18.3317839256
 10
7.0057407045
 20
-18.320447339
 10
7.0095293878
 20
-18.3092650515
 10
7.0137835756
 20
-18.2983092759
 10
7.0185063622
 20
-18.2875821312
 10
7.0236946532
 20
-18.2770814984
 10
7.0293118542
 20
-18.2668732344
 10
7.03536061
 20
-18.2569597544
 10
7.0418382758
 20
-18.2473386432
 10
7.0487003226
 20
-18.2380685116
 10
7.0559488678
 20
-18.2291521238
 10
7.0635817941
 20
-18.2205867156
 10
7.0715482211
 20
-18.212422605
 10
7.0798497424
 20
-18.2046627035
 10
7.0884847645
 20
-18.1973040996
 10
7.0973976258
 20
-18.1903883761
 10
7.10658944
 20
-18.1839184665
 10
7.1160590934
 20
-18.1778914373
 10
7.1257475848
 20
-18.1723400703
 10
7.1356557653
 20
-18.1672671912
 10
7.1457827838
 20
-18.1626699744
 10
7.1560670855
 20
-18.1585727245
 10
7.1665090741
 20
-18.1549782498
 10
7.1771083461
 20
-18.1518837422
 10
7.1878021359
 20
-18.1493050813
 10
7.1985907951
 20
-18.1472449485
 10
7.2094739721
 20
-18.1457006625
 10
7.2203878465
 20
-18.1446800596
 10
7.2313323975
 20
-18.1441857998
 10
7.2423076457
 20
-18.1442152232
 10
7.2532498329
 20
-18.1447681862
 10
7.2641589809
 20
-18.145847353
 10
7.2750350678
 20
-18.1474500595
 10
7.2858142698
 20
-18.1495681704
 10
7.2964962205
 20
-18.1522043693
 10
7.3070812863
 20
-18.1553559725
 10
7.3175067429
 20
-18.1590067941
 10
7.3277721773
 20
-18.1631596462
 10
7.3378780024
 20
-18.1678117168
 10
7.3477627325
 20
-18.1729383832
 10
7.3574255036
 20
-18.1785424732
 10
7.3668671797
 20
-18.184621159
 10
7.3760288675
 20
-18.1911413352
 10
7.3849094393
 20
-18.1981059372
 10
7.3935100227
 20
-18.2055120296
 10
7.4017751084
 20
-18.2133177007
 10
7.4097030838
 20
-18.2215258593
 10
7.4172955614
 20
-18.2301335964
 10
7.4245018687
 20
-18.2390902741
 10
7.4313198689
 20
-18.2483986482
 10
7.4377516988
 20
-18.2580559628
 10
7.4437530959
 20
-18.2680033125
 10
7.4493213965
 20
-18.2782431152
 10
7.4544592645
 20
-18.288772953
 10
7.459130429
 20
-18.2995266668
 10
7.4633227997
 20
-18.3104822038
 10
7.4670484669
 20
-18.3216616168
 10
7.4703074307
 20
-18.3330649059
  0
LINE
  5
452
100
AcDbEntity
  8
IMPORT_IGES
100
AcDbLine
 62
7
  6
CONTINUOUS
 10
7.0916426077
 20
-14.112219056
 11
7.0909829612
 21
-14.1418459511
  0
LWPOLYLINE
  5
453
100
AcDbEntity
  8
RACCORDO
100
AcDbPolyline
 62
7
  6
CONTINUOUS
 90
31
 70
0
 10
8.1362067115
 20
24.7459131554
 10
8.1365493097
 20
24.758996932
 10
8.1375761733
 20
24.772044848
 10
8.1392844905
 20
24.7850211427
 10
8.1416695814
 20
24.7978902537
 10
8.1447249125
 20
24.8106169079
 10
8.148442114
 20
24.8231662182
 10
8.1528110008
 20
24.8355037899
 10
8.1578196005
 20
24.8475958072
 10
8.1634541872
 20
24.8594091205
 10
8.1696993196
 20
24.8709113514
 10
8.1765378819
 20
24.8820709733
 10
8.1839511294
 20
24.8928573916
 10
8.1919187447
 20
24.9032410419
 10
8.2004188902
 20
24.9131934638
 10
8.2094282638
 20
24.9226873723
 10
8.2189221723
 20
24.9316967459
 10
8.2288745942
 20
24.9401968914
 10
8.2392582445
 20
24.9481645067
 10
8.2500446628
 20
24.9555777542
 10
8.2612042847
 20
24.9624163166
 10
8.2727065156
 20
24.9686614489
 10
8.2845198289
 20
24.9742960356
 10
8.2966118462
 20
24.9793046353
 10
8.3089494179
 20
24.9836735221
 10
8.3214987283
 20
24.9873907236
 10
8.3342253824
 20
24.9904460547
 10
8.3470944934
 20
24.9928311456
 10
8.3600707881
 20
24.9945394628
 10
8.3731187041
 20
24.9955663264
 10
8.3862024807
 20
24.9959089246
  0
LWPOLYLINE
  5
454
100
AcDbEntity
  8
RACCORDO
100
AcDbPolyline
 62
253
  6
CONTINUOUS
 90
31
 70
0
 10
8.1405785455
 20
24.7415413214
 10
8.140921728
 20
24.7546275506
 10
8.1419494511
 20
24.7676779225
 10
8.1436589008
 20
24.7806566532
 10
8.1460453961
 20
24.7935281661
 10
8.1491023958
 20
24.8062571552
 10
8.1528215105
 20
24.818808683
 10
8.157192538
 20
24.8311483259
 10
8.1622034933
 20
24.8432422572
 10
8.1678406305
 20
24.855057307
 10
8.1740884897
 20
24.8665610802
 10
8.1809299366
 20
24.877722035
 10
8.1883462031
 20
24.8885095614
 10
8.1963169562
 20
24.898894091
 10
8.2048203313
 20
24.9088471447
 10
8.2138329807
 20
24.9183414068
 10
8.2233301463
 20
24.9273508184
 10
8.2332858149
 20
24.9358507231
 10
8.2436727745
 20
24.943817891
 10
8.2544626977
 20
24.9512305684
 10
8.2656258659
 20
24.9580683136
 10
8.2771313026
 20
24.9643121833
 10
8.2889471928
 20
24.9699450022
 10
8.3010413465
 20
24.9749515131
 10
8.3133809452
 20
24.9793181618
 10
8.3259347766
 20
24.9830336775
 10
8.3386658843
 20
24.9860869003
 10
8.3515317039
 20
24.9884682469
 10
8.3644942042
 20
24.990172119
 10
8.3775203007
 20
24.9911955958
 10
8.3905743147
 20
24.9915370906
  0
LWPOLYLINE
  5
455
100
AcDbEntity
  8
IMPORT_IGES
100
AcDbPolyline
 62
7
  6
CONTINUOUS
 90
10
 70
0
 10
7.0909829612
 20
-14.1418459511
 10
7.0902491692
 20
-14.1677227933
 10
7.089854021
 20
-14.1791250391
 10
7.089439549
 20
-14.1892316107
 10
7.0890057895
 20
-14.1980147379
 10
7.0885527061
 20
-14.205502191
 10
7.0880796365
 20
-14.2114989183
 10
7.08758636
 20
-14.2159399025
 10
7.0870730973
 20
-14.218890161
 10
7.0865398485
 20
-14.2203496937
  0
LWPOLYLINE
  5
456
100
AcDbEntity
  8
IMPORT_IGES
100
AcDbPolyline
 62
253
  6
CONTINUOUS
 90
19
 70
0
 10
6.9391745462
 20
-17.3072112149
 10
6.935344761
 20
-17.3943368329
 10
6.9239376157
 20
-17.4807996294
 10
6.9050398918
 20
-17.5659418251
 10
6.8787953569
 20
-17.6491156877
 10
6.8454036701
 20
-17.7296884593
 10
6.8051188639
 20
-17.8070471699
 10
6.7582474112
 20
-17.8806033013
 10
6.7051458939
 20
-17.9497972638
 10
6.6462182898
 20
-18.0141026537
 10
6.5819129
 20
-18.0730302578
 10
6.5127189375
 20
-18.1261317751
 10
6.4391628061
 20
-18.1730032278
 10
6.3618040954
 20
-18.2132880339
 10
6.2812313239
 20
-18.2466797207
 10
6.1980574612
 20
-18.2729242557
 10
6.1129152655
 20
-18.2918219796
 10
6.026452469
 20
-18.3032291249
 10
5.939326851
 20
-18.3070589101
  0
LINE
  5
457
100
AcDbEntity
  8
DRAFT
100
AcDbLine
 62
7
  6
CONTINUOUS
 10
-4.5137932885
 20
-21.9040910754
 11
-4.4697260212
 21
-21.8379892423
  0
LINE
  5
458
100
AcDbEntity
  8
RACCORDO
100
AcDbLine
 62
7
  6
CONTINUOUS
 10
-7.1513247808
 20
-20.1031949468
 11
-7.1743780252
 21
-20.1317706038
  0
LINE
  5
459
100
AcDbEntity
  8
RACCORDO
100
AcDbLine
 62
7
  6
CONTINUOUS
 10
-7.1743780252
 20
-20.1317706038
 11
-7.2208114053
 21
-20.1887531165
  0
LINE
  5
45A
100
AcDbEntity
  8
RACCORDO
100
AcDbLine
 62
7
  6
CONTINUOUS
 10
-7.8678845199
 20
-21.399999844
 11
-7.7360738642
 21
-21.2550980277
  0
LINE
  5
45B
100
AcDbEntity
  8
RACCORDO
100
AcDbLine
 62
7
  6
CONTINUOUS
 10
-7.7360738642
 20
-21.2550980277
 11
-7.6978940076
 21
-21.2133088034
  0
LINE
  5
45C
100
AcDbEntity
  8
IMPORT_IGES
100
AcDbLine
 62
253
  6
CONTINUOUS
 10
-1.9638694409
 20
-11.9040910754
 11
-1.9857644303
 21
-11.9259860648
  0
LINE
  5
45D
100
AcDbEntity
  8
IMPORT_IGES
100
AcDbLine
 62
253
  6
CONTINUOUS
 10
0.336282864
 20
-9.6040910754
 11
0.3581778533
 21
-9.582196086
  0
LINE
  5
45E
100
AcDbEntity
  8
IMPORT_IGES
100
AcDbLine
 62
253
  6
CONTINUOUS
 10
-8.166913428
 20
-18.3070589101
 11
-8.1759455933
 21
-18.3160910754
  0
LINE
  5
45F
100
AcDbEntity
  8
IMPORT_IGES
100
AcDbLine
 62
253
  6
CONTINUOUS
 10
0.8581017009
 20
-10.0821199336
 11
0.8362067115
 21
-10.104014923
  0
LWPOLYLINE
  5
460
100
AcDbEntity
  8
IMPORT_IGES
100
AcDbPolyline
 62
7
  6
CONTINUOUS
 90
3
 70
0
 10
-5.1738923007
 20
8.6240640653
 10
-5.2175815944
 20
8.6170768928
 10
-5.2560683696
 20
8.6151856695
  0
LINE
  5
461
100
AcDbEntity
  8
IMPORT_IGES
100
AcDbLine
 62
7
  6
CONTINUOUS
 10
1.0284817926
 20
8.6151856695
 11
1.0362067115
 21
8.6152618124
  0
LINE
  5
462
100
AcDbEntity
  8
IMPORT_IGES
100
AcDbLine
 62
7
  6
CONTINUOUS
 10
7.0767039976
 20
8.1170430389
 11
6.9482067115
 21
8.1170430389
  0
LINE
  5
463
100
AcDbEntity
  8
IMPORT_IGES
100
AcDbLine
 62
7
  6
CONTINUOUS
 10
6.9482067115
 20
8.3807830866
 11
7.0721597015
 21
8.3807948417
  0
LINE
  5
464
100
AcDbEntity
  8
IMPORT_IGES
100
AcDbLine
 62
253
  6
CONTINUOUS
 10
1.0362067115
 20
8.6152618124
 11
1.0284817926
 21
8.6152618124
  0
LINE
  5
465
100
AcDbEntity
  8
IMPORT_IGES
100
AcDbLine
 62
253
  6
CONTINUOUS
 10
-5.2560683696
 20
8.6152618124
 11
-5.2637932885
 21
8.6152618124
  0
LINE
  5
466
100
AcDbEntity
  8
IMPORT_IGES
100
AcDbLine
 62
7
  6
CONTINUOUS
 10
1.0362067115
 20
8.622091522
 11
0.9586399277
 21
8.622091522
  0
LINE
  5
467
100
AcDbEntity
  8
IMPORT_IGES
100
AcDbLine
 62
7
  6
CONTINUOUS
 10
-5.1862261917
 20
8.622091522
 11
-5.2637932885
 21
8.622091522
  0
LINE
  5
468
100
AcDbEntity
  8
IMPORT_IGES
100
AcDbLine
 62
253
  6
CONTINUOUS
 10
7.0769070131
 20
8.9554246066
 11
6.9482067115
 21
8.9554246066
  0
LINE
  5
469
100
AcDbEntity
  8
IMPORT_IGES
100
AcDbLine
 62
253
  6
CONTINUOUS
 10
1.6818810273
 20
8.9959089246
 11
1.4100241141
 21
8.9959089246
  0
LINE
  5
46A
100
AcDbEntity
  8
IMPORT_IGES
100
AcDbLine
 62
253
  6
CONTINUOUS
 10
0.3905323958
 20
8.9959089246
 11
0.6469317199
 21
8.9959089246
  0
LINE
  5
46B
100
AcDbEntity
  8
IMPORT_IGES
100
AcDbLine
 62
253
  6
CONTINUOUS
 10
-4.6181189727
 20
8.9959089246
 11
-4.8745182968
 21
8.9959089246
  0
LINE
  5
46C
100
AcDbEntity
  8
IMPORT_IGES
100
AcDbLine
 62
253
  6
CONTINUOUS
 10
-5.6376106911
 20
8.9959089246
 11
-5.9094676042
 21
8.9959089246
  0
LINE
  5
46D
100
AcDbEntity
  8
IMPORT_IGES
100
AcDbLine
 62
7
  6
CONTINUOUS
 10
7.0715361959
 20
9.5561000541
 11
6.9482067115
 21
9.5561000541
  0
LINE
  5
46E
100
AcDbEntity
  8
IMPORT_IGES
100
AcDbLine
 62
7
  6
CONTINUOUS
 10
-5.2560683696
 20
8.6151856695
 11
-5.2637932885
 21
8.6152618124
  0
LWPOLYLINE
  5
46F
100
AcDbEntity
  8
IMPORT_IGES
100
AcDbPolyline
 62
7
  6
CONTINUOUS
 90
3
 70
0
 10
0.9463042082
 20
8.6240643977
 10
0.9899941686
 20
8.6170769769
 10
1.0284817926
 20
8.6151856695
  0
LINE
  5
470
100
AcDbEntity
  8
IMPORT_IGES
100
AcDbLine
 62
253
  6
CONTINUOUS
 10
-8.1759455933
 20
19.3079089246
 11
-8.166913428
 21
19.2988767592
  0
LINE
  5
471
100
AcDbEntity
  8
IMPORT_IGES
100
AcDbLine
 62
7
  6
CONTINUOUS
 10
-2.8899758859
 20
16.022091522
 11
-2.8881085262
 21
16.0202241623
  0
LWPOLYLINE
  5
472
100
AcDbEntity
  8
IMPORT_IGES
100
AcDbPolyline
 62
7
  6
CONTINUOUS
 90
20
 70
0
 10
-3.1890093959
 20
16.67069283
 10
-3.1679992189
 20
16.6488248662
 10
-3.1475763725
 20
16.6260924217
 10
-3.1277408569
 20
16.6024929795
 10
-3.1084428725
 20
16.5780097908
 10
-3.0897322189
 20
16.5526595001
 10
-3.0717582939
 20
16.5264957177
 10
-3.0545570354
 20
16.4996023852
 10
-3.0380925055
 20
16.4719170924
 10
-3.0224062897
 20
16.4432705638
 10
-3.0074905461
 20
16.4137473995
 10
-2.9933531165
 20
16.3832801577
 10
-2.9800591116
 20
16.3514481442
 10
-2.9675310251
 20
16.3182485537
 10
-2.9558463633
 20
16.2836888394
 10
-2.9453027556
 20
16.2473393178
 10
-2.9358054334
 20
16.2092544063
 10
-2.9274491653
 20
16.1694067569
 10
-2.9208158871
 20
16.1272320666
 10
-2.9158023436
 20
16.0825218033
  0
LWPOLYLINE
  5
473
100
AcDbEntity
  8
RACCORDO
100
AcDbPolyline
 62
7
  6
CONTINUOUS
 90
3
 70
0
 10
-7.6978940076
 20
22.2051266525
 10
-7.8306548233
 20
22.3508229648
 10
-7.8678845199
 20
22.3918176932
  0
LINE
  5
474
100
AcDbEntity
  8
RACCORDO
100
AcDbLine
 62
7
  6
CONTINUOUS
 10
-7.2208114053
 20
21.1805709657
 11
-7.1743817034
 21
21.1235929178
  0
LWPOLYLINE
  5
475
100
AcDbEntity
  8
RACCORDO
100
AcDbPolyline
 62
7
  6
CONTINUOUS
 90
3
 70
0
 10
-7.1743817034
 20
21.1235929178
 10
-7.1513442836
 20
21.095037081
 10
-7.1402566342
 20
21.0812077367
  0
LINE
  5
476
100
AcDbEntity
  8
DRAFT
100
AcDbLine
 62
7
  6
CONTINUOUS
 10
-4.5137932885
 20
22.8959089246
 11
-4.4697260212
 21
22.8298070915
  0
LWPOLYLINE
  5
477
100
AcDbEntity
  8
IMPORT_IGES
100
AcDbPolyline
 62
7
  6
CONTINUOUS
 90
10
 70
0
 10
1.4117615686
 20
14.5202241623
 10
1.4120249197
 20
14.519701474
 10
1.4122912773
 20
14.5186390594
 10
1.4125606414
 20
14.5170316143
 10
1.4128356135
 20
14.5148716384
 10
1.4131135921
 20
14.5121569815
 10
1.4133867728
 20
14.5088974396
 10
1.413652554
 20
14.5051016222
 10
1.4139135373
 20
14.5007703801
 10
1.4141697227
 20
14.495908922
  0
LWPOLYLINE
  5
478
100
AcDbEntity
  8
IMPORT_IGES
100
AcDbPolyline
 62
7
  6
CONTINUOUS
 90
8
 70
0
 10
7.0715361959
 20
9.5561000541
 10
7.0718645732
 20
9.5547480176
 10
7.072180046
 20
9.5520764316
 10
7.0724826141
 20
9.5480852963
 10
7.0727718304
 20
9.5427033332
 10
7.073048142
 20
9.5360018207
 10
7.0733128908
 20
9.5281945939
 10
7.073566047
 20
9.5193084539
  0
LINE
  5
479
100
AcDbEntity
  8
RACCORDO
100
AcDbLine
 62
253
  6
CONTINUOUS
 10
10.2818391083
 20
24.1237401409
 11
10.2869297094
 21
23.6185586554
  0
LINE
  5
47A
100
AcDbEntity
  8
RACCORDO
100
AcDbLine
 62
253
  6
CONTINUOUS
 10
10.5318348775
 20
24.3402464919
 11
10.5362067115
 21
23.9063940728
  0
LINE
  5
47B
100
AcDbEntity
  8
0
100
AcDbLine
 62
7
  6
CONTINUOUS
 10
9.4878386596
 20
20.1994138545
 11
9.4878386596
 21
-19.2075960053
  0
LINE
  5
47C
100
AcDbEntity
  8
0
100
AcDbLine
 62
7
  6
CONTINUOUS
 10
9.6362067115
 20
20.6448799784
 11
9.6362067115
 21
-19.6530621292
  0
LINE
  5
47D
100
AcDbEntity
  8
RACCORDO
100
AcDbLine
 62
253
  6
CONTINUOUS
 10
10.2818391083
 20
-23.2040910754
 11
10.2818391083
 21
-23.9997192414
  0
LINE
  5
47E
100
AcDbEntity
  8
RACCORDO
100
AcDbLine
 62
253
  6
CONTINUOUS
 10
10.2818391083
 20
24.1237401409
 11
10.2818391083
 21
24.9915370906
  0
LINE
  5
47F
100
AcDbEntity
  8
RACCORDO
100
AcDbLine
 62
253
  6
CONTINUOUS
 10
10.5318348775
 20
-23.7497234722
 11
10.5318348775
 21
-23.3484286427
  0
LINE
  5
480
100
AcDbEntity
  8
RACCORDO
100
AcDbLine
 62
253
  6
CONTINUOUS
 10
10.5318348775
 20
24.3402464919
 11
10.5318348775
 21
24.7415413214
  0
LINE
  5
481
100
AcDbEntity
  8
0
100
AcDbLine
 62
7
  6
CONTINUOUS
 10
10.5362067115
 20
23.9063940728
 11
10.5362067115
 21
22.8955988926
  0
LINE
  5
482
100
AcDbEntity
  8
RACCORDO
100
AcDbLine
 62
7
  6
CONTINUOUS
 10
10.5362067115
 20
-23.7540953062
 11
10.5362067115
 21
-22.9145762236
  0
LINE
  5
483
100
AcDbEntity
  8
0
100
AcDbLine
 62
7
  6
CONTINUOUS
 10
10.5362067115
 20
-21.9037810434
 11
10.5362067115
 21
-22.9145762236
  0
LINE
  5
484
100
AcDbEntity
  8
RACCORDO
100
AcDbLine
 62
7
  6
CONTINUOUS
 10
10.5362067115
 20
23.9063940728
 11
10.5362067115
 21
24.7459131554
  0
LINE
  5
485
100
AcDbEntity
  8
RACCORDO
100
AcDbLine
 62
253
  6
CONTINUOUS
 10
10.2869297094
 20
-22.6267408062
 11
10.2811118796
 21
-23.2040910754
  0
LINE
  5
486
100
AcDbEntity
  8
RACCORDO
100
AcDbLine
 62
253
  6
CONTINUOUS
 10
10.5362067115
 20
-22.9145762236
 11
10.5318348775
 21
-23.3484286427
  0
LWPOLYLINE
  5
487
100
AcDbEntity
  8
RACCORDO
100
AcDbPolyline
 62
253
  6
CONTINUOUS
 90
31
 70
0
 10
10.5318348775
 20
24.3402464919
 10
10.5314563199
 20
24.3289484878
 10
10.5303971878
 20
24.3176781635
 10
10.5286598065
 20
24.3064662849
 10
10.5262481029
 20
24.2953424822
 10
10.5231682346
 20
24.2843382474
 10
10.5194291874
 20
24.2734867243
 10
10.5150416476
 20
24.2628186148
 10
10.5100172547
 20
24.2523619542
 10
10.5043695797
 20
24.2421450441
 10
10.4981138901
 20
24.2321956417
 10
10.4912673165
 20
24.2225411165
 10
10.4838487094
 20
24.2132080928
 10
10.4758784081
 20
24.2042221439
 10
10.4673781166
 20
24.1956077262
 10
10.4583710289
 20
24.1873883483
 10
10.4488817266
 20
24.1795864508
 10
10.43893614
 20
24.172223361
 10
10.4285614576
 20
24.1653192107
 10
10.4177860261
 20
24.158892863
 10
10.406639269
 20
24.1529618648
 10
10.3951516326
 20
24.1475424162
 10
10.3833544759
 20
24.1426493127
 10
10.3712800391
 20
24.1382959281
 10
10.3589613592
 20
24.1344941693
 10
10.346432125
 20
24.1312544218
 10
10.3337265236
 20
24.1285855142
 10
10.320879201
 20
24.1264947202
 10
10.3079252278
 20
24.1249877485
 10
10.2949000048
 20
24.1240687186
 10
10.2818391083
 20
24.1237401409
  0
LWPOLYLINE
  5
488
100
AcDbEntity
  8
RACCORDO
100
AcDbPolyline
 62
7
  6
CONTINUOUS
 90
40
 70
0
 10
8.1405785455
 20
-23.3484286427
 10
8.1407997779
 20
-23.3431461
 10
8.1413594138
 20
-23.3378412244
 10
8.1422609384
 20
-23.3325249906
 10
8.1435073352
 20
-23.3272127758
 10
8.1451011359
 20
-23.3219118558
 10
8.1470445801
 20
-23.3166214174
 10
8.1493393018
 20
-23.3113536301
 10
8.1519864567
 20
-23.3061202822
 10
8.154987122
 20
-23.3009203486
 10
8.1583414502
 20
-23.2957665599
 10
8.1620490986
 20
-23.2906712737
 10
8.1661099649
 20
-23.2856332692
 10
8.1705226091
 20
-23.2806657388
 10
8.1752850698
 20
-23.2757815259
 10
8.1803960195
 20
-23.2709792645
 10
8.1858523155
 20
-23.2662724966
 10
8.1916502376
 20
-23.2616744631
 10
8.1977871189
 20
-23.2571837427
 10
8.2042579862
 20
-23.2528140986
 10
8.2110572021
 20
-23.2485790598
 10
8.2181805618
 20
-23.2444772548
 10
8.2256211168
 20
-23.2405225066
 10
8.233371134
 20
-23.2367284924
 10
8.2414245807
 20
-23.233093997
 10
8.2497723689
 20
-23.229632696
 10
8.2584044848
 20
-23.2263582253
 10
8.2673127124
 20
-23.2232696103
 10
8.2764856353
 20
-23.2203801176
 10
8.2859108023
 20
-23.2177030832
 10
8.2955774962
 20
-23.2152378032
 10
8.3054717898
 20
-23.2129968107
 10
8.3155786867
 20
-23.2109928163
 10
8.3258847776
 20
-23.2092253691
 10
8.3363603038
 20
-23.2077084531
 10
8.3470006313
 20
-23.206450212
 10
8.3578298997
 20
-23.2054456933
 10
8.3688437515
 20
-23.2047052265
 10
8.3800080927
 20
-23.2042490649
 10
8.3913015435
 20
-23.2040910754
  0
LINE
  5
489
100
AcDbEntity
  8
0
100
AcDbLine
 62
7
  6
CONTINUOUS
 10
7.7362067115
 20
-20.4040910754
 11
7.7856582649
 21
-19.9586249515
  0
LINE
  5
48A
100
AcDbEntity
  8
IMPORT_IGES
100
AcDbLine
 62
253
  6
CONTINUOUS
 10
-2.4856882778
 20
-14.9260622172
 11
-2.4637932885
 21
-14.9041672278
  0
LINE
  5
48B
100
AcDbEntity
  8
RACCORDO
100
AcDbLine
 62
253
  6
CONTINUOUS
 10
-10.7594214545
 20
-23.7497234722
 11
-10.7637932885
 21
-23.7540953062
  0
LINE
  5
48C
100
AcDbEntity
  8
IMPORT_IGES
100
AcDbLine
 62
253
  6
CONTINUOUS
 10
-1.9638694409
 20
-15.4040910754
 11
-1.9857644303
 21
-15.4259860648
  0
LINE
  5
48D
100
AcDbEntity
  8
IMPORT_IGES
100
AcDbLine
 62
253
  6
CONTINUOUS
 10
0.336282864
 20
-13.1040910754
 11
0.3581778533
 21
-13.082196086
  0
LINE
  5
48E
100
AcDbEntity
  8
RACCORDO
100
AcDbLine
 62
253
  6
CONTINUOUS
 10
-10.5094256853
 20
-23.9997192414
 11
-10.5137975193
 21
-24.0040910754
  0
LINE
  5
48F
100
AcDbEntity
  8
IMPORT_IGES
100
AcDbLine
 62
253
  6
CONTINUOUS
 10
0.8581017009
 20
-13.5821199336
 11
0.8362067115
 21
-13.604014923
  0
LINE
  5
490
100
AcDbEntity
  8
IMPORT_IGES
100
AcDbLine
 62
7
  6
CONTINUOUS
 10
7.0874747224
 20
-7.7568315099
 11
7.0848229177
 21
-7.759475699
  0
LINE
  5
491
100
AcDbEntity
  8
IMPORT_IGES
100
AcDbLine
 62
7
  6
CONTINUOUS
 10
7.076578465
 20
9.7654743239
 11
6.9482067115
 21
9.7654743013
  0
LINE
  5
492
100
AcDbEntity
  8
IMPORT_IGES
100
AcDbLine
 62
7
  6
CONTINUOUS
 10
0.6466797505
 20
10.2959089246
 11
1.4100241141
 21
10.2959089246
  0
LINE
  5
493
100
AcDbEntity
  8
IMPORT_IGES
100
AcDbLine
 62
7
  6
CONTINUOUS
 10
1.4100241141
 20
10.3168550025
 11
0.6466797505
 21
10.3168550025
  0
LINE
  5
494
100
AcDbEntity
  8
IMPORT_IGES
100
AcDbLine
 62
7
  6
CONTINUOUS
 10
-5.6376106911
 20
10.6709089246
 11
-4.8742663274
 21
10.6709089246
  0
LINE
  5
495
100
AcDbEntity
  8
IMPORT_IGES
100
AcDbLine
 62
7
  6
CONTINUOUS
 10
-4.8742663274
 20
10.6918550025
 11
-5.6376106911
 21
10.6918550025
  0
LINE
  5
496
100
AcDbEntity
  8
IMPORT_IGES
100
AcDbLine
 62
7
  6
CONTINUOUS
 10
7.0764946364
 20
10.8662818748
 11
6.9482067115
 21
10.8662818748
  0
LINE
  5
497
100
AcDbEntity
  8
IMPORT_IGES
100
AcDbLine
 62
7
  6
CONTINUOUS
 10
0.6466797505
 20
11.0959089246
 11
0.9112067115
 21
11.0959089246
  0
LINE
  5
498
100
AcDbEntity
  8
IMPORT_IGES
100
AcDbLine
 62
7
  6
CONTINUOUS
 10
7.0764612953
 20
11.304103005
 11
6.9482067115
 21
11.3041000014
  0
LINE
  5
499
100
AcDbEntity
  8
IMPORT_IGES
100
AcDbLine
 62
7
  6
CONTINUOUS
 10
-5.1637932885
 20
11.4709089246
 11
-4.8772358547
 21
11.4709089246
  0
LINE
  5
49A
100
AcDbEntity
  8
IMPORT_IGES
100
AcDbLine
 62
253
  6
CONTINUOUS
 10
7.073183647
 20
11.4968173827
 11
6.9482067115
 21
11.4968173827
  0
LINE
  5
49B
100
AcDbEntity
  8
IMPORT_IGES
100
AcDbLine
 62
7
  6
CONTINUOUS
 10
7.0764800568
 20
11.0580875755
 11
6.9482067115
 21
11.0582286517
  0
LWPOLYLINE
  5
49C
100
AcDbEntity
  8
IMPORT_IGES
100
AcDbPolyline
 62
7
  6
CONTINUOUS
 90
4
 70
0
 10
-3.3007185764
 20
16.7674728503
 10
-3.2637312723
 20
16.7384396113
 10
-3.2264948788
 20
16.7062382702
 10
-3.1890093959
 20
16.67069283
  0
LINE
  5
49D
100
AcDbEntity
  8
RACCORDO
100
AcDbLine
 62
253
  6
CONTINUOUS
 10
-10.7594214545
 20
24.7415413214
 11
-10.7637932885
 21
24.7459131554
  0
LINE
  5
49E
100
AcDbEntity
  8
IMPORT_IGES
100
AcDbLine
 62
7
  6
CONTINUOUS
 10
0.6623893089
 20
13.4697263272
 11
0.6605219493
 21
13.4715936868
  0
LINE
  5
49F
100
AcDbEntity
  8
RACCORDO
100
AcDbLine
 62
253
  6
CONTINUOUS
 10
-10.5094256853
 20
24.9915370906
 11
-10.5137975193
 21
24.9959089246
  0
LINE
  5
4A0
100
AcDbEntity
  8
IMPORT_IGES
100
AcDbLine
 62
7
  6
CONTINUOUS
 10
-1.3376106911
 20
16.7697263272
 11
-1.3394780507
 21
16.7715936868
  0
LWPOLYLINE
  5
4A1
100
AcDbEntity
  8
IMPORT_IGES
100
AcDbPolyline
 62
7
  6
CONTINUOUS
 90
15
 70
0
 10
7.3840362764
 20
16.3695593104
 10
7.3775005384
 20
16.410479418
 10
7.3667885492
 20
16.4505156929
 10
7.3520763368
 20
16.4892614473
 10
7.3335399294
 20
16.5263099936
 10
7.3113553549
 20
16.5612546442
 10
7.2856986416
 20
16.5936887113
 10
7.2567505958
 20
16.6232097104
 10
7.2248042193
 20
16.6495138442
 10
7.1902659989
 20
16.6723971378
 10
7.1535474578
 20
16.6916600458
 10
7.1150601189
 20
16.707103023
 10
7.0752155054
 20
16.7185265243
 10
7.0344251403
 20
16.7257310044
 10
6.9932659407
 20
16.728514846
  0
LINE
  5
4A2
100
AcDbEntity
  8
0
100
AcDbLine
 62
7
  6
CONTINUOUS
 10
7.7856582649
 20
20.9504428007
 11
7.7362067115
 21
21.3959089246
  0
LINE
  5
4A3
100
AcDbEntity
  8
0
100
AcDbLine
 62
7
  6
CONTINUOUS
 10
11.0362067115
 20
22.3870868652
 11
11.0362067115
 21
-21.395269016
  0
LWPOLYLINE
  5
4A4
100
AcDbEntity
  8
RACCORDO
100
AcDbPolyline
 62
253
  6
CONTINUOUS
 90
31
 70
0
 10
10.5318348775
 20
-23.7497234722
 10
10.5314933827
 20
-23.7627774863
 10
10.5304699059
 20
-23.7758035827
 10
10.5287660339
 20
-23.7887660831
 10
10.5263846873
 20
-23.8016319027
 10
10.5233314644
 20
-23.8143630104
 10
10.5196159488
 20
-23.8269168417
 10
10.5152493001
 20
-23.8392564404
 10
10.5102427892
 20
-23.8513505942
 10
10.5046099702
 20
-23.8631664843
 10
10.4983661006
 20
-23.874671921
 10
10.4915283554
 20
-23.8858350892
 10
10.484115678
 20
-23.8966250125
 10
10.4761485101
 20
-23.907011972
 10
10.4676486053
 20
-23.9169676407
 10
10.4586391938
 20
-23.9264648063
 10
10.4491449317
 20
-23.9354774557
 10
10.439191878
 20
-23.9439808308
 10
10.4288073484
 20
-23.9519515839
 10
10.4180198219
 20
-23.9593678504
 10
10.4068588671
 20
-23.9662092973
 10
10.395355094
 20
-23.9724571565
 10
10.3835400442
 20
-23.9780942936
 10
10.3714461129
 20
-23.983105249
 10
10.35910647
 20
-23.9874762764
 10
10.3465549422
 20
-23.9911953912
 10
10.3338259531
 20
-23.9942523909
 10
10.3209544402
 20
-23.9966388862
 10
10.3079757095
 20
-23.9983483359
 10
10.2949253375
 20
-23.999376059
 10
10.2818391083
 20
-23.9997192414
  0
LWPOLYLINE
  5
4A5
100
AcDbEntity
  8
RACCORDO
100
AcDbPolyline
 62
7
  6
CONTINUOUS
 90
31
 70
0
 10
10.5362067115
 20
-23.7540953062
 10
10.5358641134
 20
-23.7671790829
 10
10.5348372498
 20
-23.7802269988
 10
10.5331289325
 20
-23.7932032936
 10
10.5307438416
 20
-23.8060724046
 10
10.5276885106
 20
-23.8187990587
 10
10.523971309
 20
-23.831348369
 10
10.5196024222
 20
-23.8436859407
 10
10.5145938226
 20
-23.855777958
 10
10.5089592359
 20
-23.8675912714
 10
10.5027141035
 20
-23.8790935023
 10
10.4958755412
 20
-23.8902531242
 10
10.4884622937
 20
-23.9010395424
 10
10.4804946783
 20
-23.9114231928
 10
10.4719945328
 20
-23.9213756146
 10
10.4629851593
 20
-23.9308695231
 10
10.4534912507
 20
-23.9398788967
 10
10.4435388289
 20
-23.9483790422
 10
10.4331551785
 20
-23.9563466575
 10
10.4223687603
 20
-23.9637599051
 10
10.4112091384
 20
-23.9705984674
 10
10.3997069075
 20
-23.9768435998
 10
10.3878935941
 20
-23.9824781864
 10
10.3758015768
 20
-23.9874867861
 10
10.3634640051
 20
-23.9918556729
 10
10.3509146948
 20
-23.9955728745
 10
10.3381880407
 20
-23.9986282055
 10
10.3253189297
 20
-24.0010132964
 10
10.3123426349
 20
-24.0027216137
 10
10.299294719
 20
-24.0037484773
 10
10.2862109423
 20
-24.0040910754
  0
LINE
  5
4A6
100
AcDbEntity
  8
ASSI
100
AcDbLine
 62
7
  6
CONTINUOUS
 10
-4.378259747
 20
-23.1303024174
 11
-4.3544221168
 21
-23.1029488751
  0
LINE
  5
4A7
100
AcDbEntity
  8
ASSI
100
AcDbLine
 62
7
  6
CONTINUOUS
 10
-4.3544221168
 20
-23.1029488751
 11
-4.3273149567
 21
-23.0723305314
  0
LINE
  5
4A8
100
AcDbEntity
  8
ASSI
100
AcDbLine
 62
7
  6
CONTINUOUS
 10
-4.3273149567
 20
-23.0723305314
 11
-4.2967654911
 21
-23.0382278959
  0
LWPOLYLINE
  5
4A9
100
AcDbEntity
  8
ASSI
100
AcDbPolyline
 62
7
  6
CONTINUOUS
 90
3
 70
0
 10
-4.2967654911
 20
-23.0382278959
 10
-4.2444428009
 20
-22.9804960575
 10
-4.2254936459
 20
-22.9597663153
  0
LINE
  5
4AA
100
AcDbEntity
  8
IMPORT_IGES
100
AcDbLine
 62
7
  6
CONTINUOUS
 10
6.9482067115
 20
12.7602677326
 11
6.9932255969
 21
12.7610543028
  0
LINE
  5
4AB
100
AcDbEntity
  8
IMPORT_IGES
100
AcDbLine
 62
253
  6
CONTINUOUS
 10
7.0694386997
 20
11.9323093609
 11
6.9482067115
 21
11.9323139769
  0
LINE
  5
4AC
100
AcDbEntity
  8
IMPORT_IGES
100
AcDbLine
 62
7
  6
CONTINUOUS
 10
7.0763957773
 20
12.1644563812
 11
6.9482067115
 21
12.1644547044
  0
LINE
  5
4AD
100
AcDbEntity
  8
IMPORT_IGES
100
AcDbLine
 62
7
  6
CONTINUOUS
 10
7.076380959
 20
12.3590435745
 11
6.9482067115
 21
12.3590460816
  0
LINE
  5
4AE
100
AcDbEntity
  8
IMPORT_IGES
100
AcDbLine
 62
7
  6
CONTINUOUS
 10
7.0694215528
 20
12.1574821567
 11
6.9482067115
 21
12.1577463277
  0
LINE
  5
4AF
100
AcDbEntity
  8
IMPORT_IGES
100
AcDbLine
 62
7
  6
CONTINUOUS
 10
-3.3039094397
 20
16.7697263272
 11
-3.3007185764
 21
16.7674728503
  0
LINE
  5
4B0
100
AcDbEntity
  8
IMPORT_IGES
100
AcDbLine
 62
7
  6
CONTINUOUS
 10
1.4117615686
 20
14.5202241623
 11
1.4098733652
 21
14.522091522
  0
LINE
  5
4B1
100
AcDbEntity
  8
ASSI
100
AcDbLine
 62
7
  6
CONTINUOUS
 10
-4.2249438766
 20
23.9509829737
 11
-4.2797297129
 21
24.011183063
  0
LINE
  5
4B2
100
AcDbEntity
  8
ASSI
100
AcDbLine
 62
7
  6
CONTINUOUS
 10
-4.2797297129
 20
24.011183063
 11
-4.3120077005
 21
24.0470122385
  0
LINE
  5
4B3
100
AcDbEntity
  8
ASSI
100
AcDbLine
 62
7
  6
CONTINUOUS
 10
-4.3120077005
 20
24.0470122385
 11
-4.3408318137
 21
24.0793669489
  0
LINE
  5
4B4
100
AcDbEntity
  8
ASSI
100
AcDbLine
 62
7
  6
CONTINUOUS
 10
-4.3408318137
 20
24.0793669489
 11
-4.3662788472
 21
24.1083133381
  0
LWPOLYLINE
  5
4B5
100
AcDbEntity
  8
ASSI
100
AcDbPolyline
 62
7
  6
CONTINUOUS
 90
18
 70
0
 10
-4.3662788472
 20
24.1083133381
 10
-4.3885335903
 20
24.134065596
 10
-4.3985473192
 20
24.1458388204
 10
-4.407838791
 20
24.1569071836
 10
-4.416422332
 20
24.1672701356
 10
-4.4243649779
 20
24.1770156014
 10
-4.4316778642
 20
24.1861687968
 10
-4.438342237
 20
24.1947045061
 10
-4.444365986
 20
24.202635007
 10
-4.4497581905
 20
24.2099693195
 10
-4.4545034688
 20
24.2166984236
 10
-4.4585818337
 20
24.2228075377
 10
-4.4620046182
 20
24.2282817538
 10
-4.4647833087
 20
24.2331359798
 10
-4.4669201914
 20
24.2374001581
 10
-4.4684371869
 20
24.2410842695
 10
-4.469363983
 20
24.2441783333
 10
-4.4697260212
 20
24.2466823493
  0
LINE
  5
4B6
100
AcDbEntity
  8
ASSI
100
AcDbLine
 62
7
  6
CONTINUOUS
 10
-4.2254936459
 20
-22.9597663153
 11
-4.0417632761
 21
-22.7604488901
  0
LINE
  5
4B7
100
AcDbEntity
  8
ASSI
100
AcDbLine
 62
7
  6
CONTINUOUS
 10
-4.5137932885
 20
-23.3040910754
 11
-4.4701426416
 21
-23.2604404286
  0
LWPOLYLINE
  5
4B8
100
AcDbEntity
  8
RACCORDO
100
AcDbPolyline
 62
7
  6
CONTINUOUS
 90
44
 70
0
 10
7.087593694
 20
-11.2925303559
 10
7.0982032916
 20
-11.289348307
 10
7.1207553664
 20
-11.2836609729
 10
7.1434948086
 20
-11.2790012801
 10
7.1664080658
 20
-11.2753694851
 10
7.1895484623
 20
-11.2727583869
 10
7.2128626738
 20
-11.2711751864
 10
7.2361771752
 20
-11.2706417423
 10
7.2594922979
 20
-11.2711726463
 10
7.2828077105
 20
-11.2727533068
 10
7.3059488932
 20
-11.2753618079
 10
7.3288623904
 20
-11.27899109
 10
7.3516016576
 20
-11.2836482128
 10
7.3741525423
 20
-11.2893324394
 10
7.3965457665
 20
-11.2960455553
 10
7.418750608
 20
-11.303785775
 10
7.4406607478
 20
-11.3125470056
 10
7.4623001563
 20
-11.3223489524
 10
7.4836448631
 20
-11.3331719101
 10
7.5045166381
 20
-11.3449506698
 10
7.5248954234
 20
-11.3576863861
 10
7.5448012768
 20
-11.3713779044
 10
7.5641161415
 20
-11.3859565519
 10
7.5828158269
 20
-11.4013997014
 10
7.6009245236
 20
-11.4177299801
 10
7.6183967467
 20
-11.4349465975
 10
7.6352707286
 20
-11.4530924051
 10
7.6515082368
 20
-11.4721245513
 10
7.6669490888
 20
-11.4919136917
 10
7.6815838353
 20
-11.5124778136
 10
7.6954219255
 20
-11.5337989296
 10
7.7083315245
 20
-11.5556937324
 10
7.7202810517
 20
-11.5781166985
 10
7.7313020877
 20
-11.6011133515
 10
7.7413575388
 20
-11.6246369546
 10
7.7504608362
 20
-11.648717144
 10
7.7585985487
 20
-11.6733242835
 10
7.7656932892
 20
-11.698322729
 10
7.7717394945
 20
-11.7237434597
 10
7.7767427278
 20
-11.7495554963
 10
7.7806422913
 20
-11.7755302562
 10
7.7834179524
 20
-11.8015915455
 10
7.7850899436
 20
-11.8278155581
 10
7.7856582649
 20
-11.8542022941
  0
LINE
  5
4B9
100
AcDbEntity
  8
IMPORT_IGES
100
AcDbLine
 62
7
  6
CONTINUOUS
 10
-5.6376106911
 20
13.4697263272
 11
-4.8899758859
 21
13.4697263272
  0
LINE
  5
4BA
100
AcDbEntity
  8
IMPORT_IGES
100
AcDbLine
 62
7
  6
CONTINUOUS
 10
0.6623893089
 20
13.4697263272
 11
1.4100241141
 21
13.4697263272
  0
LINE
  5
4BB
100
AcDbEntity
  8
IMPORT_IGES
100
AcDbLine
 62
253
  6
CONTINUOUS
 10
-5.6394780507
 20
13.4715936868
 11
-4.8881085262
 21
13.4715936868
  0
LINE
  5
4BC
100
AcDbEntity
  8
IMPORT_IGES
100
AcDbLine
 62
253
  6
CONTINUOUS
 10
0.6605219493
 20
13.4715936868
 11
1.4118914738
 21
13.4715936868
  0
LINE
  5
4BD
100
AcDbEntity
  8
IMPORT_IGES
100
AcDbLine
 62
253
  6
CONTINUOUS
 10
1.4187516466
 20
13.8715327649
 11
0.6536617765
 21
13.8715327649
  0
LINE
  5
4BE
100
AcDbEntity
  8
IMPORT_IGES
100
AcDbLine
 62
253
  6
CONTINUOUS
 10
-4.8812483534
 20
13.8715327649
 11
-5.6463382235
 21
13.8715327649
  0
LINE
  5
4BF
100
AcDbEntity
  8
IMPORT_IGES
100
AcDbLine
 62
253
  6
CONTINUOUS
 10
-5.6463382235
 20
14.1202850843
 11
-4.8812483534
 21
14.1202850843
  0
LINE
  5
4C0
100
AcDbEntity
  8
IMPORT_IGES
100
AcDbLine
 62
253
  6
CONTINUOUS
 10
0.6536617765
 20
14.1202850843
 11
1.4187516466
 21
14.1202850843
  0
LINE
  5
4C1
100
AcDbEntity
  8
IMPORT_IGES
100
AcDbLine
 62
253
  6
CONTINUOUS
 10
-4.8858302774
 20
14.4959089246
 11
-4.6181189727
 21
14.4959089246
  0
LINE
  5
4C2
100
AcDbEntity
  8
IMPORT_IGES
100
AcDbLine
 62
253
  6
CONTINUOUS
 10
0.3905323958
 20
14.4959089246
 11
0.6582437006
 21
14.4959089275
  0
LINE
  5
4C3
100
AcDbEntity
  8
IMPORT_IGES
100
AcDbLine
 62
253
  6
CONTINUOUS
 10
1.4141697227
 20
14.495908922
 11
1.6818810273
 21
14.4959089246
  0
LINE
  5
4C4
100
AcDbEntity
  8
IMPORT_IGES
100
AcDbLine
 62
253
  6
CONTINUOUS
 10
-5.9094676042
 20
14.4959089246
 11
-5.6417562994
 21
14.4959089275
  0
LINE
  5
4C5
100
AcDbEntity
  8
IMPORT_IGES
100
AcDbLine
 62
253
  6
CONTINUOUS
 10
1.4117615686
 20
14.5202241623
 11
0.6603280037
 21
14.5202241623
  0
LINE
  5
4C6
100
AcDbEntity
  8
IMPORT_IGES
100
AcDbLine
 62
253
  6
CONTINUOUS
 10
-4.8879145805
 20
14.5202241623
 11
-5.6393481453
 21
14.5202241623
  0
LINE
  5
4C7
100
AcDbEntity
  8
IMPORT_IGES
100
AcDbLine
 62
7
  6
CONTINUOUS
 10
1.4098733652
 20
14.522091522
 11
0.6621647032
 21
14.522091522
  0
LINE
  5
4C8
100
AcDbEntity
  8
IMPORT_IGES
100
AcDbLine
 62
7
  6
CONTINUOUS
 10
-4.88975128
 20
14.522091522
 11
-5.6374599421
 21
14.522091522
  0
LINE
  5
4C9
100
AcDbEntity
  8
ASSI
100
AcDbLine
 62
7
  6
CONTINUOUS
 10
-4.5137932885
 20
24.2959089246
 11
-4.4701426416
 21
24.2522582777
  0
LINE
  5
4CA
100
AcDbEntity
  8
ASSI
100
AcDbLine
 62
7
  6
CONTINUOUS
 10
-4.0417632761
 20
23.7522667393
 11
-4.1851106382
 21
23.9075126852
  0
LINE
  5
4CB
100
AcDbEntity
  8
ASSI
100
AcDbLine
 62
7
  6
CONTINUOUS
 10
-4.1851106382
 20
23.9075126852
 11
-4.2249438766
 21
23.9509829737
  0
LWPOLYLINE
  5
4CC
100
AcDbEntity
  8
IMPORT_IGES
100
AcDbPolyline
 62
253
  6
CONTINUOUS
 90
10
 70
0
 10
-2.1137913002
 20
15.8149719681
 10
-2.1962385429
 20
15.8140671252
 10
-2.2780229268
 20
15.8113784357
 10
-2.3592382095
 20
15.8069982839
 10
-2.440124997
 20
15.8009881466
 10
-2.5206448322
 20
15.7934291939
 10
-2.6004828562
 20
15.7844811197
 10
-2.6796117611
 20
15.7742759162
 10
-2.7582825276
 20
15.7628496879
 10
-2.8365954525
 20
15.7502346088
  0
LINE
  5
4CD
100
AcDbEntity
  8
IMPORT_IGES
100
AcDbLine
 62
7
  6
CONTINUOUS
 10
0.4779960412
 20
15.2209089246
 11
1.2862067115
 21
15.2209089246
  0
LINE
  5
4CE
100
AcDbEntity
  8
IMPORT_IGES
100
AcDbLine
 62
253
  6
CONTINUOUS
 10
-3.3637932885
 20
15.7502346088
 11
-2.8365954525
 21
15.7502346088
  0
LINE
  5
4CF
100
AcDbEntity
  8
IMPORT_IGES
100
AcDbLine
 62
253
  6
CONTINUOUS
 10
-1.3909911244
 20
15.7502346088
 11
-0.8637932885
 21
15.7502346088
  0
LINE
  5
4D0
100
AcDbEntity
  8
IMPORT_IGES
100
AcDbLine
 62
253
  6
CONTINUOUS
 10
-0.8637932885
 20
16.0001965326
 11
-3.3637932885
 21
16.0001965326
  0
LINE
  5
4D1
100
AcDbEntity
  8
IMPORT_IGES
100
AcDbLine
 62
7
  6
CONTINUOUS
 10
-1.7394171288
 20
16.0133639895
 11
-2.4881694481
 21
16.0133639895
  0
LINE
  5
4D2
100
AcDbEntity
  8
IMPORT_IGES
100
AcDbLine
 62
7
  6
CONTINUOUS
 10
-0.8637932885
 20
16.022091522
 11
-1.3376106911
 21
16.022091522
  0
LINE
  5
4D3
100
AcDbEntity
  8
IMPORT_IGES
100
AcDbLine
 62
7
  6
CONTINUOUS
 10
-2.8899758859
 20
16.022091522
 11
-3.3637932885
 21
16.022091522
  0
LINE
  5
4D4
100
AcDbEntity
  8
IMPORT_IGES
100
AcDbLine
 62
7
  6
CONTINUOUS
 10
-3.3637932885
 20
16.7697263272
 11
-2.8899758859
 21
16.7697263272
  0
LINE
  5
4D5
100
AcDbEntity
  8
IMPORT_IGES
100
AcDbLine
 62
7
  6
CONTINUOUS
 10
-1.3376106911
 20
16.7697263272
 11
-0.8637932885
 21
16.7697263272
  0
LINE
  5
4D6
100
AcDbEntity
  8
IMPORT_IGES
100
AcDbLine
 62
7
  6
CONTINUOUS
 10
-2.4881694481
 20
16.7784538597
 11
-1.7394171288
 21
16.7784538597
  0
LINE
  5
4D7
100
AcDbEntity
  8
IMPORT_IGES
100
AcDbLine
 62
253
  6
CONTINUOUS
 10
-3.3637932885
 20
16.7916213166
 11
-0.8637932885
 21
16.7916213166
  0
LINE
  5
4D8
100
AcDbEntity
  8
IMPORT_IGES
100
AcDbLine
 62
7
  6
CONTINUOUS
 10
6.9932336789
 20
16.7310464593
 11
6.9482067115
 21
16.7318332828
  0
LWPOLYLINE
  5
4D9
100
AcDbEntity
  8
IMPORT_IGES
100
AcDbPolyline
 62
253
  6
CONTINUOUS
 90
10
 70
0
 10
-1.3909911244
 20
15.7502346088
 10
-1.4693077406
 20
15.7628627487
 10
-1.5479839689
 20
15.7742978965
 10
-1.6271196512
 20
15.784507746
 10
-1.7069677662
 20
15.7934553315
 10
-1.7874979087
 20
15.8010092649
 10
-1.8683875336
 20
15.8070129279
 10
-1.9495958132
 20
15.8113872193
 10
-2.0313658
 20
15.8140707054
 10
-2.1137913002
 20
15.8149719681
  0
LINE
  5
4DA
100
AcDbEntity
  8
IMPORT_IGES
100
AcDbLine
 62
253
  6
CONTINUOUS
 10
-0.8637932885
 20
17.0415832404
 11
-3.3637932885
 21
17.0415832404
  0
LINE
  5
4DB
100
AcDbEntity
  8
IMPORT_IGES
100
AcDbLine
 62
253
  6
CONTINUOUS
 10
6.9391745462
 20
18.2990290641
 11
-9.1667611231
 21
18.2990290641
  0
LINE
  5
4DC
100
AcDbEntity
  8
ASSI
100
AcDbLine
 62
7
  6
CONTINUOUS
 10
3.4769233319
 20
-23.1311791909
 11
3.5007626847
 21
-23.1038083214
  0
LINE
  5
4DD
100
AcDbEntity
  8
ASSI
100
AcDbLine
 62
7
  6
CONTINUOUS
 10
3.5007626847
 20
-23.1038083214
 11
3.5279014062
 21
-23.0731428806
  0
LINE
  5
4DE
100
AcDbEntity
  8
ASSI
100
AcDbLine
 62
7
  6
CONTINUOUS
 10
3.5279014062
 20
-23.0731428806
 11
3.5585222685
 21
-23.0389520369
  0
LINE
  5
4DF
100
AcDbEntity
  8
ASSI
100
AcDbLine
 62
7
  6
CONTINUOUS
 10
3.5585222685
 20
-23.0389520369
 11
3.6110251483
 21
-22.9810133326
  0
LINE
  5
4E0
100
AcDbEntity
  8
ASSI
100
AcDbLine
 62
7
  6
CONTINUOUS
 10
3.6110251483
 20
-22.9810133326
 11
3.6904654197
 21
-22.8943761141
  0
LINE
  5
4E1
100
AcDbEntity
  8
ASSI
100
AcDbLine
 62
7
  6
CONTINUOUS
 10
3.6904654197
 20
-22.8943761141
 11
3.8141766992
 21
-22.7604488901
  0
LINE
  5
4E2
100
AcDbEntity
  8
IMPORT_IGES
100
AcDbLine
 62
253
  6
CONTINUOUS
 10
5.939326851
 20
19.2988767592
 11
-8.166913428
 21
19.2988767592
  0
LINE
  5
4E3
100
AcDbEntity
  8
IMPORT_IGES
100
AcDbLine
 62
7
  6
CONTINUOUS
 10
5.9483590164
 20
19.3079089246
 11
-8.1759455933
 21
19.3079089246
  0
LINE
  5
4E4
100
AcDbEntity
  8
IMPORT_IGES
100
AcDbLine
 62
7
  6
CONTINUOUS
 10
5.9503739513
 20
19.3100761643
 11
-8.1779986059
 21
19.310076165
  0
LINE
  5
4E5
100
AcDbEntity
  8
RACCORDO
100
AcDbLine
 62
253
  6
CONTINUOUS
 10
-7.9067725521
 20
19.3939691561
 11
-7.7126972228
 21
19.3939691561
  0
LINE
  5
4E6
100
AcDbEntity
  8
RACCORDO
100
AcDbLine
 62
253
  6
CONTINUOUS
 10
7.6791859752
 20
19.3939691561
 11
7.4851106459
 21
19.3939691561
  0
LINE
  5
4E7
100
AcDbEntity
  8
RACCORDO
100
AcDbLine
 62
253
  6
CONTINUOUS
 10
6.793228213
 20
19.3940162092
 11
6.9932248284
 21
19.3940162092
  0
LINE
  5
4E8
100
AcDbEntity
  8
RACCORDO
100
AcDbLine
 62
253
  6
CONTINUOUS
 10
-7.0208147899
 20
19.3940162092
 11
-7.2208114053
 21
19.3940162092
  0
LINE
  5
4E9
100
AcDbEntity
  8
ASSI
100
AcDbLine
 62
7
  6
CONTINUOUS
 10
3.8141766992
 20
23.7522667393
 11
3.6706352144
 21
23.9077233347
  0
LINE
  5
4EA
100
AcDbEntity
  8
ASSI
100
AcDbLine
 62
7
  6
CONTINUOUS
 10
3.6706352144
 20
23.9077233347
 11
3.593179058
 21
23.9924567235
  0
LINE
  5
4EB
100
AcDbEntity
  8
ASSI
100
AcDbLine
 62
7
  6
CONTINUOUS
 10
3.593179058
 20
23.9924567235
 11
3.5432635448
 21
24.0477582135
  0
LINE
  5
4EC
100
AcDbEntity
  8
ASSI
100
AcDbLine
 62
7
  6
CONTINUOUS
 10
3.5432635448
 20
24.0477582135
 11
3.5143857143
 21
24.0801833064
  0
LWPOLYLINE
  5
4ED
100
AcDbEntity
  8
ASSI
100
AcDbPolyline
 62
7
  6
CONTINUOUS
 90
20
 70
0
 10
3.5143857143
 20
24.0801833064
 10
3.4889216056
 20
24.1091616033
 10
3.4774036066
 20
24.1224411613
 10
3.4666768884
 20
24.1349189471
 10
3.4566755494
 20
24.1466874055
 10
3.4474014451
 20
24.1577468944
 10
3.4388393464
 20
24.168097056
 10
3.4309189005
 20
24.1778292622
 10
3.4236283382
 20
24.1869711845
 10
3.4169891948
 20
24.1954951515
 10
3.4109959236
 20
24.2034095201
 10
3.4056399063
 20
24.2107227268
 10
3.4009371556
 20
24.2174263351
 10
3.3969090802
 20
24.2235033929
 10
3.3935441318
 20
24.2289379921
 10
3.390830442
 20
24.2337460407
 10
3.3887654712
 20
24.2379583102
 10
3.3873262877
 20
24.2415850576
 10
3.386482161
 20
24.2446160258
 10
3.3862067115
 20
24.2470512149
  0
LINE
  5
4EE
100
AcDbEntity
  8
0
100
AcDbLine
 62
7
  6
CONTINUOUS
 10
8.7377247265
 20
-19.9586249515
 11
9.4878386596
 21
-19.2075960053
  0
LINE
  5
4EF
100
AcDbEntity
  8
0
100
AcDbLine
 62
7
  6
CONTINUOUS
 10
9.6362067115
 20
-19.6530621292
 11
8.8860927784
 21
-20.4040910754
  0
LINE
  5
4F0
100
AcDbEntity
  8
RACCORDO
100
AcDbLine
 62
7
  6
CONTINUOUS
 10
7.1449335793
 20
-21.8953642076
 11
8.1362067115
 21
-20.9040910754
  0
LINE
  5
4F1
100
AcDbEntity
  8
RACCORDO
100
AcDbLine
 62
253
  6
CONTINUOUS
 10
-7.7544504908
 20
19.310076165
 11
-7.6978940076
 21
19.324882755
  0
LINE
  5
4F2
100
AcDbEntity
  8
0
100
AcDbLine
 62
7
  6
CONTINUOUS
 10
6.6867551581
 20
20.7217305484
 11
-6.9143417351
 21
20.7217305484
  0
LINE
  5
4F3
100
AcDbEntity
  8
RACCORDO
100
AcDbLine
 62
253
  6
CONTINUOUS
 10
-7.0202414685
 20
20.8805823887
 11
6.7926548916
 21
20.8805823887
  0
LINE
  5
4F4
100
AcDbEntity
  8
0
100
AcDbLine
 62
7
  6
CONTINUOUS
 10
8.7377247265
 20
20.9504428007
 11
7.7856582649
 21
20.9504428007
  0
LINE
  5
4F5
100
AcDbEntity
  8
0
100
AcDbLine
 62
7
  6
CONTINUOUS
 10
-8.0132448419
 20
20.9504428007
 11
-8.9653113034
 21
20.9504428007
  0
LINE
  5
4F6
100
AcDbEntity
  8
RACCORDO
100
AcDbLine
 62
253
  6
CONTINUOUS
 10
-7.2208114053
 20
21.1805709657
 11
6.9932248284
 21
21.1805709657
  0
LINE
  5
4F7
100
AcDbEntity
  8
0
100
AcDbLine
 62
7
  6
CONTINUOUS
 10
-9.1136793553
 20
21.3959089246
 11
-8.3637932885
 21
21.3959089246
  0
LINE
  5
4F8
100
AcDbEntity
  8
RACCORDO
100
AcDbLine
 62
7
  6
CONTINUOUS
 10
7.4851106459
 20
21.3959089246
 11
8.1362067115
 21
21.3959089246
  0
LINE
  5
4F9
100
AcDbEntity
  8
0
100
AcDbLine
 62
7
  6
CONTINUOUS
 10
8.1362067115
 20
21.3959089246
 11
8.8860927784
 21
21.3959089246
  0
LINE
  5
4FA
100
AcDbEntity
  8
RACCORDO
100
AcDbLine
 62
7
  6
CONTINUOUS
 10
-7.7126972228
 20
21.3959089246
 11
-8.3637932885
 21
21.3959089246
  0
LINE
  5
4FB
100
AcDbEntity
  8
0
100
AcDbLine
 62
7
  6
CONTINUOUS
 10
-3.1137932885
 20
21.4959089246
 11
2.8862067115
 21
21.4959089246
  0
LINE
  5
4FC
100
AcDbEntity
  8
0
100
AcDbLine
 62
7
  6
CONTINUOUS
 10
-3.1137932885
 20
22.1959089246
 11
2.8862067115
 21
22.1959089246
  0
LINE
  5
4FD
100
AcDbEntity
  8
RACCORDO
100
AcDbLine
 62
253
  6
CONTINUOUS
 10
7.4703074307
 20
22.2051266525
 11
2.8862067115
 21
22.2051266525
  0
LINE
  5
4FE
100
AcDbEntity
  8
RACCORDO
100
AcDbLine
 62
253
  6
CONTINUOUS
 10
-3.1137932885
 20
22.2051266525
 11
-7.6978940076
 21
22.2051266525
  0
LINE
  5
4FF
100
AcDbEntity
  8
RACCORDO
100
AcDbLine
 62
253
  6
CONTINUOUS
 10
7.6628927752
 20
19.2744635841
 11
7.4703074307
 21
19.324882755
  0
LINE
  5
500
100
AcDbEntity
  8
RACCORDO
100
AcDbLine
 62
7
  6
CONTINUOUS
 10
8.1362067115
 20
21.8959089246
 11
7.1449335793
 21
22.8871820568
  0
LINE
  5
501
100
AcDbEntity
  8
0
100
AcDbLine
 62
7
  6
CONTINUOUS
 10
9.4878386596
 20
20.1994138545
 11
8.7377247265
 21
20.9504428007
  0
LINE
  5
502
100
AcDbEntity
  8
0
100
AcDbLine
 62
7
  6
CONTINUOUS
 10
8.8860927784
 20
21.3959089246
 11
9.6362067115
 21
20.6448799784
  0
LINE
  5
503
100
AcDbEntity
  8
RACCORDO
100
AcDbLine
 62
253
  6
CONTINUOUS
 10
8.1405785455
 20
-23.7497234722
 11
8.1362067115
 21
-23.7540953062
  0
LINE
  5
504
100
AcDbEntity
  8
RACCORDO
100
AcDbLine
 62
253
  6
CONTINUOUS
 10
8.3905743147
 20
-23.9997192414
 11
8.3862024807
 21
-24.0040910754
  0
LWPOLYLINE
  5
505
100
AcDbEntity
  8
0
100
AcDbPolyline
 62
7
  6
CONTINUOUS
 90
11
 70
0
 10
-10.7637924276
 20
22.8956001232
 10
-10.7852816857
 20
22.8943826644
 10
-10.8067367345
 20
22.8922362285
 10
-10.8281171755
 20
22.8891599497
 10
-10.8494051999
 20
22.8851498907
 10
-10.8705368096
 20
22.8802116147
 10
-10.8914041852
 20
22.8743700011
 10
-10.9119529893
 20
22.8676457304
 10
-10.9321627812
 20
22.8600509882
 10
-10.9519807473
 20
22.8516112822
 10
-10.9698072762
 20
22.8431342693
  0
LWPOLYLINE
  5
506
100
AcDbEntity
  8
0
100
AcDbPolyline
 62
7
  6
CONTINUOUS
 90
6
 70
0
 10
-10.7637932885
 20
22.8955988926
 10
-10.7608642743
 20
22.8956935367
 10
-10.7579330398
 20
22.895770992
 10
-10.7549995849
 20
22.8958312584
 10
-10.7520639097
 20
22.895874336
 10
-10.7491260142
 20
22.8959002247
  0
LINE
  5
507
100
AcDbEntity
  8
RACCORDO
100
AcDbLine
 62
253
  6
CONTINUOUS
 10
7.2270118298
 20
22.8051038064
 11
2.8862067115
 21
22.8051038064
  0
LINE
  5
508
100
AcDbEntity
  8
RACCORDO
100
AcDbLine
 62
253
  6
CONTINUOUS
 10
-3.1137932885
 20
22.8051038064
 11
-7.4545984067
 21
22.8051038064
  0
LINE
  5
509
100
AcDbEntity
  8
0
100
AcDbLine
 62
7
  6
CONTINUOUS
 10
10.5360543864
 20
22.8871820568
 11
7.1449335793
 21
22.8871820568
  0
LINE
  5
50A
100
AcDbEntity
  8
DRAFT
100
AcDbLine
 62
7
  6
CONTINUOUS
 10
3.3862067115
 20
22.8871820568
 11
2.8862067115
 21
22.8871820568
  0
LINE
  5
50B
100
AcDbEntity
  8
DRAFT
100
AcDbLine
 62
7
  6
CONTINUOUS
 10
-3.1137932885
 20
22.8871820568
 11
-3.6137932885
 21
22.8871820568
  0
LINE
  5
50C
100
AcDbEntity
  8
0
100
AcDbLine
 62
7
  6
CONTINUOUS
 10
-7.3725201563
 20
22.8871820568
 11
-10.7636409633
 21
22.8871820568
  0
LINE
  5
50D
100
AcDbEntity
  8
DRAFT
100
AcDbLine
 62
7
  6
CONTINUOUS
 10
-8.3637932885
 20
22.8959089246
 11
-4.5137932885
 21
22.8959089246
  0
LINE
  5
50E
100
AcDbEntity
  8
DRAFT
100
AcDbLine
 62
7
  6
CONTINUOUS
 10
4.2862067115
 20
22.8959089246
 11
8.1362067115
 21
22.8959089246
  0
LINE
  5
50F
100
AcDbEntity
  8
0
100
AcDbLine
 62
7
  6
CONTINUOUS
 10
-8.3637932885
 20
22.8959089246
 11
-10.7491260142
 21
22.8959002247
  0
LINE
  5
510
100
AcDbEntity
  8
RACCORDO
100
AcDbLine
 62
7
  6
CONTINUOUS
 10
10.2869297094
 20
23.6185586554
 11
8.3854837137
 21
23.6185586554
  0
LINE
  5
511
100
AcDbEntity
  8
RACCORDO
100
AcDbLine
 62
7
  6
CONTINUOUS
 10
-8.6130702906
 20
23.6185586554
 11
-10.5145162863
 21
23.6185586554
  0
LWPOLYLINE
  5
512
100
AcDbEntity
  8
0
100
AcDbPolyline
 62
7
  6
CONTINUOUS
 90
7
 70
0
 10
8.1362067115
 20
22.8959089246
 10
10.5215394373
 20
22.8959002247
 10
10.5244773328
 20
22.895874336
 10
10.527413008
 20
22.8958312584
 10
10.5303464628
 20
22.895770992
 10
10.5332776973
 20
22.8956935367
 10
10.5362067115
 20
22.8955988926
  0
LINE
  5
513
100
AcDbEntity
  8
RACCORDO
100
AcDbLine
 62
253
  6
CONTINUOUS
 10
8.1405785455
 20
24.7415413214
 11
8.1362067115
 21
24.7459131554
  0
LINE
  5
514
100
AcDbEntity
  8
RACCORDO
100
AcDbLine
 62
253
  6
CONTINUOUS
 10
8.3905743147
 20
24.9915370906
 11
8.3862024807
 21
24.9959089246
  0
LINE
  5
515
100
AcDbEntity
  8
0
100
AcDbLine
 62
253
  6
CONTINUOUS
 10
10.5360543864
 20
-21.8953642076
 11
10.5185993215
 21
-21.9040910754
  0
LWPOLYLINE
  5
516
100
AcDbEntity
  8
0
100
AcDbPolyline
 62
7
  6
CONTINUOUS
 90
11
 70
0
 10
10.742220711
 20
-21.8513164348
 10
10.7243729031
 20
-21.8598030357
 10
10.7045564816
 20
-21.8682410221
 10
10.6843481767
 20
-21.8758342918
 10
10.6638011301
 20
-21.882557152
 10
10.6429359717
 20
-21.8883973834
 10
10.6218068798
 20
-21.893334453
 10
10.6005214832
 20
-21.8973436138
 10
10.5791437081
 20
-21.9004193799
 10
10.5576914164
 20
-21.9025657073
 10
10.5362049898
 20
-21.9037835047
  0
LINE
  5
517
100
AcDbEntity
  8
RACCORDO
100
AcDbLine
 62
253
  6
CONTINUOUS
 10
-10.5094256853
 20
24.1237401409
 11
-8.6181608917
 21
24.1237401409
  0
LINE
  5
518
100
AcDbEntity
  8
RACCORDO
100
AcDbLine
 62
253
  6
CONTINUOUS
 10
8.3905743147
 20
24.1237401409
 11
10.2818391083
 21
24.1237401409
  0
LINE
  5
519
100
AcDbEntity
  8
ASSI
100
AcDbLine
 62
253
  6
CONTINUOUS
 10
-4.4701426416
 20
24.2522582777
 11
-3.6137932885
 21
24.2522582777
  0
LINE
  5
51A
100
AcDbEntity
  8
ASSI
100
AcDbLine
 62
253
  6
CONTINUOUS
 10
3.3862067115
 20
24.2522582777
 11
4.2425560647
 21
24.2522582777
  0
LINE
  5
51B
100
AcDbEntity
  8
DRAFT
100
AcDbLine
 62
7
  6
CONTINUOUS
 10
-3.6137932885
 20
24.2900910948
 11
3.3862067115
 21
24.2900910948
  0
LINE
  5
51C
100
AcDbEntity
  8
DRAFT
100
AcDbLine
 62
7
  6
CONTINUOUS
 10
4.2862067115
 20
24.2959089246
 11
-4.5137932885
 21
24.2959089246
  0
LINE
  5
51D
100
AcDbEntity
  8
RACCORDO
100
AcDbLine
 62
253
  6
CONTINUOUS
 10
8.1405785455
 20
24.3402464919
 11
10.5318348775
 21
24.3402464919
  0
LINE
  5
51E
100
AcDbEntity
  8
RACCORDO
100
AcDbLine
 62
253
  6
CONTINUOUS
 10
-8.3681651225
 20
24.3402464919
 11
-10.7594214545
 21
24.3402464919
  0
LINE
  5
51F
100
AcDbEntity
  8
RACCORDO
100
AcDbLine
 62
253
  6
CONTINUOUS
 10
8.1405785455
 20
24.7415413214
 11
10.5318348775
 21
24.7415413214
  0
LINE
  5
520
100
AcDbEntity
  8
RACCORDO
100
AcDbLine
 62
253
  6
CONTINUOUS
 10
-8.3681651225
 20
24.7415413214
 11
-10.7594214545
 21
24.7415413214
  0
LINE
  5
521
100
AcDbEntity
  8
RACCORDO
100
AcDbLine
 62
253
  6
CONTINUOUS
 10
10.2818391083
 20
24.9915370906
 11
8.3905743147
 21
24.9915370906
  0
LINE
  5
522
100
AcDbEntity
  8
RACCORDO
100
AcDbLine
 62
253
  6
CONTINUOUS
 10
-8.6181608917
 20
24.9915370906
 11
-10.5094256853
 21
24.9915370906
  0
LINE
  5
523
100
AcDbEntity
  8
RACCORDO
100
AcDbLine
 62
7
  6
CONTINUOUS
 10
10.2862109423
 20
24.9959089246
 11
8.3862024807
 21
24.9959089246
  0
LINE
  5
524
100
AcDbEntity
  8
RACCORDO
100
AcDbLine
 62
7
  6
CONTINUOUS
 10
-8.6137890577
 20
24.9959089246
 11
-10.5137975193
 21
24.9959089246
  0
LWPOLYLINE
  5
525
100
AcDbEntity
  8
RACCORDO
100
AcDbPolyline
 62
253
  6
CONTINUOUS
 90
31
 70
0
 10
-8.6181608917
 20
24.9915370906
 10
-8.6050774057
 20
24.991194052
 10
-8.5920297791
 20
24.9901667621
 10
-8.579053773
 20
24.9884580366
 10
-8.5661849521
 20
24.9860725586
 10
-8.5534585876
 20
24.9830168664
 10
-8.5409095599
 20
24.979299335
 10
-8.5285722636
 20
24.9749301535
 10
-8.516480513
 20
24.969921297
 10
-8.5046674492
 20
24.9642864939
 10
-8.4931654496
 20
24.958041188
 10
-8.4820060391
 20
24.9512024965
 10
-8.4712198035
 20
24.9437891632
 10
-8.4608363058
 20
24.9358215064
 10
-8.4508840054
 20
24.9273213641
 10
-8.4413901795
 20
24.9183120336
 10
-8.4323808489
 20
24.9088182077
 10
-8.4238807066
 20
24.8988659072
 10
-8.4159130499
 20
24.8884824096
 10
-8.4084997165
 20
24.877696174
 10
-8.4016610251
 20
24.8665367635
 10
-8.3954157192
 20
24.8550347639
 10
-8.389780916
 20
24.8432217001
 10
-8.3847720595
 20
24.8311299494
 10
-8.380402878
 20
24.8187926532
 10
-8.3766853467
 20
24.8062436255
 10
-8.3736296544
 20
24.7935172609
 10
-8.3712441765
 20
24.7806484401
 10
-8.3695354509
 20
24.767672434
 10
-8.368508161
 20
24.7546248074
 10
-8.3681651225
 20
24.7415413214
  0
LWPOLYLINE
  5
526
100
AcDbEntity
  8
RACCORDO
100
AcDbPolyline
 62
7
  6
CONTINUOUS
 90
31
 70
0
 10
-8.6137890577
 20
24.9959089246
 10
-8.600705281
 20
24.9955663264
 10
-8.5876573651
 20
24.9945394628
 10
-8.5746810703
 20
24.9928311456
 10
-8.5618119593
 20
24.9904460547
 10
-8.5490853052
 20
24.9873907236
 10
-8.5365359949
 20
24.9836735221
 10
-8.5241984232
 20
24.9793046353
 10
-8.5121064059
 20
24.9742960356
 10
-8.5002930925
 20
24.9686614489
 10
-8.4887908616
 20
24.9624163166
 10
-8.4776312397
 20
24.9555777542
 10
-8.4668448215
 20
24.9481645067
 10
-8.4564611711
 20
24.9401968914
 10
-8.4465087493
 20
24.9316967459
 10
-8.4370148407
 20
24.9226873723
 10
-8.4280054672
 20
24.9131934638
 10
-8.4195053217
 20
24.9032410419
 10
-8.4115377063
 20
24.8928573916
 10
-8.4041244588
 20
24.8820709733
 10
-8.3972858965
 20
24.8709113514
 10
-8.3910407641
 20
24.8594091205
 10
-8.3854061774
 20
24.8475958072
 10
-8.3803975778
 20
24.8355037899
 10
-8.376028691
 20
24.8231662182
 10
-8.3723114894
 20
24.8106169079
 10
-8.3692561584
 20
24.7978902537
 10
-8.3668710675
 20
24.7850211427
 10
-8.3651627502
 20
24.772044848
 10
-8.3641358866
 20
24.758996932
 10
-8.3637932885
 20
24.7459131554
  0
LWPOLYLINE
  5
527
100
AcDbEntity
  8
RACCORDO
100
AcDbPolyline
 62
253
  6
CONTINUOUS
 90
31
 70
0
 10
10.2818391083
 20
24.9915370906
 10
10.2948931224
 20
24.9911955958
 10
10.3079192188
 20
24.990172119
 10
10.3208817192
 20
24.9884682469
 10
10.3337475388
 20
24.9860869003
 10
10.3464786465
 20
24.9830336775
 10
10.3590324778
 20
24.9793181618
 10
10.3713720765
 20
24.9749515131
 10
10.3834662303
 20
24.9699450022
 10
10.3952821205
 20
24.9643121833
 10
10.4067875572
 20
24.9580683136
 10
10.4179507254
 20
24.9512305684
 10
10.4287406486
 20
24.943817891
 10
10.4391276081
 20
24.9358507231
 10
10.4490832768
 20
24.9273508184
 10
10.4585804424
 20
24.9183414068
 10
10.4675930918
 20
24.9088471447
 10
10.4760964669
 20
24.898894091
 10
10.48406722
 20
24.8885095614
 10
10.4914834865
 20
24.877722035
 10
10.4983249334
 20
24.8665610802
 10
10.5045727926
 20
24.855057307
 10
10.5102099298
 20
24.8432422572
 10
10.5152208851
 20
24.8311483259
 10
10.5195919125
 20
24.818808683
 10
10.5233110273
 20
24.8062571552
 10
10.526368027
 20
24.7935281661
 10
10.5287545223
 20
24.7806566532
 10
10.530463972
 20
24.7676779225
 10
10.5314916951
 20
24.7546275506
 10
10.5318348775
 20
24.7415413214
  0
LWPOLYLINE
  5
528
100
AcDbEntity
  8
RACCORDO
100
AcDbPolyline
 62
7
  6
CONTINUOUS
 90
31
 70
0
 10
10.2862109423
 20
24.9959089246
 10
10.299294719
 20
24.9955663264
 10
10.3123426349
 20
24.9945394628
 10
10.3253189297
 20
24.9928311456
 10
10.3381880407
 20
24.9904460547
 10
10.3509146948
 20
24.9873907236
 10
10.3634640051
 20
24.9836735221
 10
10.3758015768
 20
24.9793046353
 10
10.3878935941
 20
24.9742960356
 10
10.3997069075
 20
24.9686614489
 10
10.4112091384
 20
24.9624163166
 10
10.4223687603
 20
24.9555777542
 10
10.4331551785
 20
24.9481645067
 10
10.4435388289
 20
24.9401968914
 10
10.4534912507
 20
24.9316967459
 10
10.4629851593
 20
24.9226873723
 10
10.4719945328
 20
24.9131934638
 10
10.4804946783
 20
24.9032410419
 10
10.4884622937
 20
24.8928573916
 10
10.4958755412
 20
24.8820709733
 10
10.5027141035
 20
24.8709113514
 10
10.5089592359
 20
24.8594091205
 10
10.5145938226
 20
24.8475958072
 10
10.5196024222
 20
24.8355037899
 10
10.523971309
 20
24.8231662182
 10
10.5276885106
 20
24.8106169079
 10
10.5307438416
 20
24.7978902537
 10
10.5331289325
 20
24.7850211427
 10
10.5348372498
 20
24.772044848
 10
10.5358641134
 20
24.758996932
 10
10.5362067115
 20
24.7459131554
  0
LWPOLYLINE
  5
529
100
AcDbEntity
  8
0
100
AcDbPolyline
 62
7
  6
CONTINUOUS
 90
11
 70
0
 10
10.7422206993
 20
22.8431342693
 10
10.7243941703
 20
22.8516112822
 10
10.7045762043
 20
22.8600509882
 10
10.6843664124
 20
22.8676457304
 10
10.6638176082
 20
22.8743700011
 10
10.6429502326
 20
22.8802116147
 10
10.621818623
 20
22.8851498907
 10
10.6005305985
 20
22.8891599497
 10
10.5791501576
 20
22.8922362285
 10
10.5576951088
 20
22.8943826644
 10
10.5362058507
 20
22.8956001232
  0
LINE
  5
52A
100
AcDbEntity
  8
0
100
AcDbLine
 62
253
  6
CONTINUOUS
 10
10.5185993215
 20
22.8959089246
 11
10.5360543864
 21
22.8871820568
  0
ARC
  5
52B
100
AcDbEntity
  8
IMPORT_IGES
100
AcDbCircle
 62
253
  6
CONTINUOUS
 10
-3.3637932885
 20
14.4959089246
 40
2.5456743158
100
AcDbArc
 50
90.0
 51
180.0
  0
ARC
  5
52C
100
AcDbEntity
  8
IMPORT_IGES
100
AcDbCircle
 62
253
  6
CONTINUOUS
 10
-3.3637932885
 20
14.4959089246
 40
2.295712392
100
AcDbArc
 50
90.0
 51
180.0
  0
ARC
  5
52D
100
AcDbEntity
  8
IMPORT_IGES
100
AcDbCircle
 62
7
  6
CONTINUOUS
 10
-3.3637932885
 20
14.4959089246
 40
2.2738174026
100
AcDbArc
 50
90.0
 51
179.3402348497
  0
ARC
  5
52E
100
AcDbEntity
  8
IMPORT_IGES
100
AcDbCircle
 62
253
  6
CONTINUOUS
 10
-2.1137932885
 20
13.9959089246
 40
1.8973933632
100
AcDbArc
 50
112.3922189651
 51
67.6077810349
  0
CIRCLE
  5
52F
100
AcDbEntity
  8
IMPORT_IGES
100
AcDbCircle
 62
7
  6
CONTINUOUS
 10
-2.1137932885
 20
13.9959089246
 40
1.5974047863
  0
CIRCLE
  5
530
100
AcDbEntity
  8
IMPORT_IGES
100
AcDbCircle
 62
253
  6
CONTINUOUS
 10
-2.1137932885
 20
13.9959089246
 40
1.5562895046
  0
ARC
  5
531
100
AcDbEntity
  8
IMPORT_IGES
100
AcDbCircle
 62
7
  6
CONTINUOUS
 10
-3.3637932885
 20
14.4959089246
 40
1.5261825974
100
AcDbArc
 50
90.0
 51
179.0170075794
  0
ARC
  5
532
100
AcDbEntity
  8
IMPORT_IGES
100
AcDbCircle
 62
253
  6
CONTINUOUS
 10
-3.3637932885
 20
14.4959089246
 40
1.504287608
100
AcDbArc
 50
90.0
 51
180.0
  0
ARC
  5
533
100
AcDbEntity
  8
IMPORT_IGES
100
AcDbCircle
 62
253
  6
CONTINUOUS
 10
-3.3637932885
 20
14.4959089246
 40
1.2543256842
100
AcDbArc
 50
90.0
 51
180.0
  0
ARC
  5
534
100
AcDbEntity
  8
IMPORT_IGES
100
AcDbCircle
 62
253
  6
CONTINUOUS
 10
-3.8637932885
 20
15.9959089246
 40
1.2478278026
100
AcDbArc
 50
182.1032107535
 51
224.4501899129
  0
ARC
  5
535
100
AcDbEntity
  8
IMPORT_IGES
100
AcDbCircle
 62
7
  6
CONTINUOUS
 10
-3.8637932885
 20
15.9959089246
 40
0.9978373219
100
AcDbArc
 50
166.4757957595
 51
220.1693803441
  0
ARC
  5
536
100
AcDbEntity
  8
IMPORT_IGES
100
AcDbCircle
 62
7
  6
CONTINUOUS
 10
-3.8637932885
 20
15.9959089246
 40
0.9978373219
100
AcDbArc
 50
12.3513840404
 51
50.8897129948
  0
ARC
  5
537
100
AcDbEntity
  8
IMPORT_IGES
100
AcDbCircle
 62
253
  6
CONTINUOUS
 10
-5.2637932885
 20
8.9959089246
 40
0.6456743158
100
AcDbArc
 50
180.0
 51
360.0
  0
CIRCLE
  5
538
100
AcDbEntity
  8
IMPORT_IGES
100
AcDbCircle
 62
253
  6
CONTINUOUS
 10
-2.1137932885
 20
13.9959089246
 40
0.5562942685
  0
ARC
  5
539
100
AcDbEntity
  8
IMPORT_IGES
100
AcDbCircle
 62
253
  6
CONTINUOUS
 10
-5.2637932885
 20
8.9959089246
 40
0.395712392
100
AcDbArc
 50
180.0
 51
360.0
  0
ARC
  5
53A
100
AcDbEntity
  8
IMPORT_IGES
100
AcDbCircle
 62
7
  6
CONTINUOUS
 10
-5.2637932885
 20
8.9959089246
 40
0.3738174026
100
AcDbArc
 50
180.0
 51
270.0
  0
ARC
  5
53B
100
AcDbEntity
  8
IMPORT_IGES
100
AcDbCircle
 62
7
  6
CONTINUOUS
 10
-0.1137932885
 20
-7.5040910754
 40
5.8960028571
100
AcDbArc
 50
251.7156025813
 51
278.4865460271
  0
ARC
  5
53C
100
AcDbEntity
  8
IMPORT_IGES
100
AcDbCircle
 62
7
  6
CONTINUOUS
 10
-0.1137932885
 20
-7.5040910754
 40
5.8
100
AcDbArc
 50
255.0039577656
 51
277.9191537551
  0
ARC
  5
53D
100
AcDbEntity
  8
IMPORT_IGES
100
AcDbCircle
 62
7
  6
CONTINUOUS
 10
-0.1137932885
 20
-7.5040910754
 40
2.5
100
AcDbArc
 50
148.196332821
 51
159.9819888214
  0
ARC
  5
53E
100
AcDbEntity
  8
IMPORT_IGES
100
AcDbCircle
 62
7
  6
CONTINUOUS
 10
-0.1137932885
 20
-7.5040910754
 40
2.5
100
AcDbArc
 50
237.188713437
 51
290.5282438445
  0
ARC
  5
53F
100
AcDbEntity
  8
0
100
AcDbCircle
 62
253
  6
CONTINUOUS
 10
-0.1137932885
 20
-7.5040910754
 40
2.3965699136
100
AcDbArc
 50
144.5730866098
 51
168.6972231053
  0
ARC
  5
540
100
AcDbEntity
  8
0
100
AcDbCircle
 62
253
  6
CONTINUOUS
 10
-0.1137932885
 20
-7.5040910754
 40
2.3965699136
100
AcDbArc
 50
241.2010427855
 51
289.7812372657
  0
ARC
  5
541
100
AcDbEntity
  8
0
100
AcDbCircle
 62
7
  6
CONTINUOUS
 10
-0.1137932885
 20
-7.5040910754
 40
2.3528713247
100
AcDbArc
 50
143.5547167637
 51
177.3115279039
  0
ARC
  5
542
100
AcDbEntity
  8
0
100
AcDbCircle
 62
7
  6
CONTINUOUS
 10
-0.1137932885
 20
-7.5040910754
 40
2.3528713247
100
AcDbArc
 50
182.6884720961
 51
197.4816969361
  0
ARC
  5
543
100
AcDbEntity
  8
0
100
AcDbCircle
 62
7
  6
CONTINUOUS
 10
-0.1137932885
 20
-7.5040910754
 40
2.3528713247
100
AcDbArc
 50
243.2008951281
 51
289.2493943204
  0
ARC
  5
544
100
AcDbEntity
  8
0
100
AcDbCircle
 62
7
  6
CONTINUOUS
 10
-0.1137932885
 20
-7.5040910754
 40
1.8221286753
100
AcDbArc
 50
129.7889612333
 51
209.6016853631
  0
ARC
  5
545
100
AcDbEntity
  8
0
100
AcDbCircle
 62
7
  6
CONTINUOUS
 10
-0.1137932885
 20
-7.5040910754
 40
1.8047831193
100
AcDbArc
 50
129.1255864744
 51
209.9131355874
  0
ARC
  5
546
100
AcDbEntity
  8
0
100
AcDbCircle
 62
7
  6
CONTINUOUS
 10
-0.1137932885
 20
-7.5040910754
 40
1.7
100
AcDbArc
 50
124.549437996
 51
211.9666225664
  0
ARC
  5
547
100
AcDbEntity
  8
0
100
AcDbCircle
 62
7
  6
CONTINUOUS
 10
-0.1137932885
 20
-7.5040910754
 40
1.1313708499
100
AcDbArc
 50
32.6668958584
 51
232.8001216365
  0
ARC
  5
548
100
AcDbEntity
  8
RACCORDO
100
AcDbCircle
 62
253
  6
CONTINUOUS
 10
-0.1137932885
 20
12.4959089246
 40
4.1702806912
100
AcDbArc
 50
90.9250713563
 51
104.234311828
  0
ARC
  5
549
100
AcDbEntity
  8
RACCORDO
100
AcDbCircle
 62
253
  6
CONTINUOUS
 10
-0.1137932885
 20
12.4959089246
 40
3.3297193088
100
AcDbArc
 50
72.0632719677
 51
89.9737054816
  0
CIRCLE
  5
54A
100
AcDbEntity
  8
IMPORT_IGES
100
AcDbCircle
 62
7
  6
CONTINUOUS
 10
1.3862067115
 20
4.9959089246
 40
3.25
  0
ARC
  5
54B
100
AcDbEntity
  8
RACCORDO
100
AcDbCircle
 62
253
  6
CONTINUOUS
 10
-0.1137932885
 20
12.4959089246
 40
3.0297650002
100
AcDbArc
 50
70.2235076381
 51
82.4125205283
  0
ARC
  5
54C
100
AcDbEntity
  8
RACCORDO
100
AcDbCircle
 62
7
  6
CONTINUOUS
 10
-0.1137932885
 20
12.4959089246
 40
3.0
100
AcDbArc
 50
70.0175300433
 51
81.7720320327
  0
ARC
  5
54D
100
AcDbEntity
  8
IMPORT_IGES
100
AcDbCircle
 62
7
  6
CONTINUOUS
 10
-0.1137932885
 20
12.4959089246
 40
2.9
100
AcDbArc
 50
69.9937275301
 51
79.7876593838
  0
ARC
  5
54E
100
AcDbEntity
  8
IMPORT_IGES
100
AcDbCircle
 62
253
  6
CONTINUOUS
 10
-0.8637932885
 20
14.4959089246
 40
2.5456743158
100
AcDbArc
 50
0.0
 51
90.0
  0
ARC
  5
54F
100
AcDbEntity
  8
IMPORT_IGES
100
AcDbCircle
 62
253
  6
CONTINUOUS
 10
-0.8637932885
 20
14.4959089246
 40
2.295712392
100
AcDbArc
 50
0.0
 51
90.0
  0
ARC
  5
550
100
AcDbEntity
  8
IMPORT_IGES
100
AcDbCircle
 62
7
  6
CONTINUOUS
 10
-0.8637932885
 20
14.4959089246
 40
2.2738174026
100
AcDbArc
 50
0.6597651503
 51
90.0
  0
CIRCLE
  5
551
100
AcDbEntity
  8
IMPORT_IGES
100
AcDbCircle
 62
7
  6
CONTINUOUS
 10
1.3862067115
 20
4.9959089246
 40
1.6
  0
CIRCLE
  5
552
100
AcDbEntity
  8
0
100
AcDbCircle
 62
253
  6
CONTINUOUS
 10
1.3862067115
 20
4.9959089246
 40
1.5482622421
  0
ARC
  5
553
100
AcDbEntity
  8
IMPORT_IGES
100
AcDbCircle
 62
7
  6
CONTINUOUS
 10
-0.8637932885
 20
14.4959089246
 40
1.5261825974
100
AcDbArc
 50
0.982992419
 51
90.0
  0
ARC
  5
554
100
AcDbEntity
  8
IMPORT_IGES
100
AcDbCircle
 62
253
  6
CONTINUOUS
 10
-0.8637932885
 20
14.4959089246
 40
1.504287608
100
AcDbArc
 50
0.0
 51
90.0
  0
CIRCLE
  5
555
100
AcDbEntity
  8
0
100
AcDbCircle
 62
253
  6
CONTINUOUS
 10
1.3862067115
 20
4.9959089246
 40
1.3482698575
  0
ARC
  5
556
100
AcDbEntity
  8
IMPORT_IGES
100
AcDbCircle
 62
253
  6
CONTINUOUS
 10
-0.8637932885
 20
14.4959089246
 40
1.2543256842
100
AcDbArc
 50
0.0
 51
90.0
  0
CIRCLE
  5
557
100
AcDbEntity
  8
0
100
AcDbCircle
 62
7
  6
CONTINUOUS
 10
1.3862067115
 20
4.9959089246
 40
1.2278238509
  0
ARC
  5
558
100
AcDbEntity
  8
IMPORT_IGES
100
AcDbCircle
 62
253
  6
CONTINUOUS
 10
1.0362067115
 20
8.9959089246
 40
0.6456743158
100
AcDbArc
 50
180.0
 51
360.0
  0
ARC
  5
559
100
AcDbEntity
  8
IMPORT_IGES
100
AcDbCircle
 62
253
  6
CONTINUOUS
 10
1.0362067115
 20
8.9959089246
 40
0.395712392
100
AcDbArc
 50
180.0
 51
360.0
  0
ARC
  5
55A
100
AcDbEntity
  8
IMPORT_IGES
100
AcDbCircle
 62
7
  6
CONTINUOUS
 10
1.0362067115
 20
8.9959089246
 40
0.3738174026
100
AcDbArc
 50
270.0
 51
360.0
  0
ELLIPSE
  5
55B
100
AcDbEntity
  8
IMPORT_IGES
100
AcDbEllipse
 62
7
  6
CONTINUOUS
 10
5.9503358736
 20
18.3100380867
 30
0.0
 11
-0.7071606311
 21
-0.7071606311
 31
0.0
 40
0.9999238505
 41
2.3562325664
 42
3.926990817
  0
ELLIPSE
  5
55C
100
AcDbEntity
  8
IMPORT_IGES
100
AcDbEllipse
 62
7
  6
CONTINUOUS
 10
5.9503358736
 20
-17.3182202375
 30
0.0
 11
-0.7071606311
 21
0.7071606311
 31
0.0
 40
0.9999238505
 41
2.3562325664
 42
3.9269527408
  0
ELLIPSE
  5
55D
100
AcDbEntity
  8
IMPORT_IGES
100
AcDbEllipse
 62
7
  6
CONTINUOUS
 10
-8.1779224505
 20
-17.3182202375
 30
0.0
 11
0.7071606311
 21
0.7071606311
 31
0.0
 40
0.9999238505
 41
2.3562325664
 42
3.926990817
  0
ELLIPSE
  5
55E
100
AcDbEntity
  8
IMPORT_IGES
100
AcDbEllipse
 62
7
  6
CONTINUOUS
 10
-8.1779224505
 20
18.3100380867
 30
0.0
 11
0.7071606311
 21
-0.7071606311
 31
0.0
 40
0.9999238505
 41
2.3562325664
 42
3.926990817
  0
ELLIPSE
  5
55F
100
AcDbEntity
  8
IMPORT_IGES
100
AcDbEllipse
 62
7
  6
CONTINUOUS
 10
-8.1756409604
 20
18.3077565965
 30
0.0
 11
0.7073221892
 21
-0.7073221892
 31
0.0
 40
0.9996954599
 41
2.3563467834
 42
3.9268385237
  0
ELLIPSE
  5
560
100
AcDbEntity
  8
IMPORT_IGES
100
AcDbEllipse
 62
7
  6
CONTINUOUS
 10
-8.1756409604
 20
-17.3159387474
 30
0.0
 11
0.7073221892
 21
0.7073221892
 31
0.0
 40
0.9996954599
 41
-3.9268385237
 42
-2.3563467834
  0
ELLIPSE
  5
561
100
AcDbEntity
  8
IMPORT_IGES
100
AcDbEllipse
 62
7
  6
CONTINUOUS
 10
5.9480543835
 20
-17.3159387474
 30
0.0
 11
0.7073221892
 21
-0.7073221892
 31
0.0
 40
0.9996954599
 41
-0.7852458701
 42
0.7852458701
  0
ELLIPSE
  5
562
100
AcDbEntity
  8
IMPORT_IGES
100
AcDbEllipse
 62
7
  6
CONTINUOUS
 10
5.9480543835
 20
18.3077565965
 30
0.0
 11
0.7073221892
 21
0.7073221892
 31
0.0
 40
0.9996954599
 41
-0.7852458701
 42
0.7852458701
  0
ELLIPSE
  5
563
100
AcDbEntity
  8
IMPORT_IGES
100
AcDbEllipse
 62
7
  6
CONTINUOUS
 10
-1.9637171244
 20
0.3958327606
 30
0.0
 11
0.3536610946
 21
-0.3536610946
 31
0.0
 40
0.9996954599
 41
2.3563467834
 42
3.9268385237
  0
ELLIPSE
  5
564
100
AcDbEntity
  8
IMPORT_IGES
100
AcDbEllipse
 62
7
  6
CONTINUOUS
 10
0.3361305475
 20
0.3958327606
 30
0.0
 11
-0.3536610946
 21
-0.3536610946
 31
0.0
 40
0.9996954599
 41
2.3563467834
 42
3.9268385237
  0
ELLIPSE
  5
565
100
AcDbEntity
  8
IMPORT_IGES
100
AcDbEllipse
 62
7
  6
CONTINUOUS
 10
0.3361305475
 20
-0.9040149114
 30
0.0
 11
-0.3536610946
 21
0.3536610946
 31
0.0
 40
0.9996954599
 41
2.3563467834
 42
3.9268385237
  0
ELLIPSE
  5
566
100
AcDbEntity
  8
IMPORT_IGES
100
AcDbEllipse
 62
7
  6
CONTINUOUS
 10
-1.9637171244
 20
-0.9040149114
 30
0.0
 11
0.3536610946
 21
0.3536610946
 31
0.0
 40
0.9996954599
 41
2.3563467834
 42
3.9268385237
  0
ELLIPSE
  5
567
100
AcDbEntity
  8
IMPORT_IGES
100
AcDbEllipse
 62
7
  6
CONTINUOUS
 10
-1.9637171244
 20
-3.1041672394
 30
0.0
 11
0.3536610946
 21
-0.3536610946
 31
0.0
 40
0.9996954599
 41
2.3563467834
 42
3.9268385237
  0
ELLIPSE
  5
568
100
AcDbEntity
  8
IMPORT_IGES
100
AcDbEllipse
 62
7
  6
CONTINUOUS
 10
0.3361305475
 20
-3.1041672394
 30
0.0
 11
-0.3536610946
 21
-0.3536610946
 31
0.0
 40
0.9996954599
 41
2.3563467834
 42
3.9268385237
  0
ELLIPSE
  5
569
100
AcDbEntity
  8
IMPORT_IGES
100
AcDbEllipse
 62
7
  6
CONTINUOUS
 10
0.3361305475
 20
-4.4040149114
 30
0.0
 11
-0.3536610946
 21
0.3536610946
 31
0.0
 40
0.9996954599
 41
2.3563467834
 42
3.9268385237
  0
ELLIPSE
  5
56A
100
AcDbEntity
  8
IMPORT_IGES
100
AcDbEllipse
 62
7
  6
CONTINUOUS
 10
-1.9637171244
 20
-4.4040149114
 30
0.0
 11
0.3536610946
 21
0.3536610946
 31
0.0
 40
0.9996954599
 41
2.3563467834
 42
3.9268385237
  0
ELLIPSE
  5
56B
100
AcDbEntity
  8
IMPORT_IGES
100
AcDbEllipse
 62
7
  6
CONTINUOUS
 10
-1.9637171244
 20
-6.6041672394
 30
0.0
 11
0.3536610946
 21
-0.3536610946
 31
0.0
 40
0.9996954599
 41
2.3563467834
 42
3.9268385237
  0
ELLIPSE
  5
56C
100
AcDbEntity
  8
IMPORT_IGES
100
AcDbEllipse
 62
7
  6
CONTINUOUS
 10
0.3361305475
 20
-6.6041672394
 30
0.0
 11
-0.3536610946
 21
-0.3536610946
 31
0.0
 40
0.9996954599
 41
2.3563467834
 42
3.9268385237
  0
ELLIPSE
  5
56D
100
AcDbEntity
  8
IMPORT_IGES
100
AcDbEllipse
 62
7
  6
CONTINUOUS
 10
0.3361305475
 20
-7.9040149114
 30
0.0
 11
-0.3536610946
 21
0.3536610946
 31
0.0
 40
0.9996954599
 41
2.3563467834
 42
3.9268385237
  0
ELLIPSE
  5
56E
100
AcDbEntity
  8
IMPORT_IGES
100
AcDbEllipse
 62
7
  6
CONTINUOUS
 10
-1.9637171244
 20
-7.9040149114
 30
0.0
 11
0.3536610946
 21
0.3536610946
 31
0.0
 40
0.9996954599
 41
2.3563467834
 42
3.9268385237
  0
ELLIPSE
  5
56F
100
AcDbEntity
  8
IMPORT_IGES
100
AcDbEllipse
 62
7
  6
CONTINUOUS
 10
-1.9637171244
 20
-13.6041672394
 30
0.0
 11
0.3536610946
 21
-0.3536610946
 31
0.0
 40
0.9996954599
 41
2.3563467834
 42
3.9268385237
  0
ELLIPSE
  5
570
100
AcDbEntity
  8
IMPORT_IGES
100
AcDbEllipse
 62
7
  6
CONTINUOUS
 10
0.3361305475
 20
-13.6041672394
 30
0.0
 11
-0.3536610946
 21
-0.3536610946
 31
0.0
 40
0.9996954599
 41
2.3563467834
 42
3.9268385237
  0
ELLIPSE
  5
571
100
AcDbEntity
  8
IMPORT_IGES
100
AcDbEllipse
 62
7
  6
CONTINUOUS
 10
0.3361305475
 20
-14.9040149114
 30
0.0
 11
-0.3536610946
 21
0.3536610946
 31
0.0
 40
0.9996954599
 41
2.3563467834
 42
3.9268385237
  0
ELLIPSE
  5
572
100
AcDbEntity
  8
IMPORT_IGES
100
AcDbEllipse
 62
7
  6
CONTINUOUS
 10
-1.9637171244
 20
-14.9040149114
 30
0.0
 11
0.3536610946
 21
0.3536610946
 31
0.0
 40
0.9996954599
 41
2.3563467834
 42
3.9268385237
  0
ELLIPSE
  5
573
100
AcDbEntity
  8
IMPORT_IGES
100
AcDbEllipse
 62
7
  6
CONTINUOUS
 10
-1.9637171244
 20
-10.1041672394
 30
0.0
 11
0.3536610946
 21
-0.3536610946
 31
0.0
 40
0.9996954599
 41
2.3563467834
 42
3.9268385237
  0
ELLIPSE
  5
574
100
AcDbEntity
  8
IMPORT_IGES
100
AcDbEllipse
 62
7
  6
CONTINUOUS
 10
0.3361305475
 20
-10.1041672394
 30
0.0
 11
-0.3536610946
 21
-0.3536610946
 31
0.0
 40
0.9996954599
 41
2.3563467834
 42
3.9268385237
  0
ELLIPSE
  5
575
100
AcDbEntity
  8
IMPORT_IGES
100
AcDbEllipse
 62
7
  6
CONTINUOUS
 10
0.3361305475
 20
-11.4040149114
 30
0.0
 11
-0.3536610946
 21
0.3536610946
 31
0.0
 40
0.9996954599
 41
2.3563467834
 42
3.9268385237
  0
ELLIPSE
  5
576
100
AcDbEntity
  8
IMPORT_IGES
100
AcDbEllipse
 62
7
  6
CONTINUOUS
 10
-1.9637171244
 20
-11.4040149114
 30
0.0
 11
0.3536610946
 21
0.3536610946
 31
0.0
 40
0.9996954599
 41
2.3563467834
 42
3.9268385237
  0
ELLIPSE
  5
577
100
AcDbEntity
  8
IMPORT_IGES
100
AcDbEllipse
 62
7
  6
CONTINUOUS
 10
0.6536617765
 20
12.0908963617
 30
0.0
 11
0.0
 21
0.5
 31
0.0
 40
0.0174550649
 41
-3.0414252324
 42
-1.5707963268
  0
ELLIPSE
  5
578
100
AcDbEntity
  8
IMPORT_IGES
100
AcDbEllipse
 62
7
  6
CONTINUOUS
 10
0.655407283
 20
11.0959089246
 30
0.0
 11
0.0
 21
0.5
 31
0.0
 40
0.0174550649
 41
0.1001674212
 42
1.5707963268
  0
ELLIPSE
  5
579
100
AcDbEntity
  8
IMPORT_IGES
100
AcDbEllipse
 62
7
  6
CONTINUOUS
 10
-4.8829938599
 20
9.11518566
 30
0.0
 11
-0.0
 21
0.5
 31
0.0
 40
0.0174550649
 41
-1.8116723718
 42
-1.5707963268
  0
ELLIPSE
  5
57A
100
AcDbEntity
  8
IMPORT_IGES
100
AcDbEllipse
 62
7
  6
CONTINUOUS
 10
-4.8829938599
 20
11.0959089246
 30
0.0
 11
-0.0
 21
0.5
 31
0.0
 40
0.0174550649
 41
-1.5707963268
 42
-0.1001674212
  0
ELLIPSE
  5
57B
100
AcDbEntity
  8
IMPORT_IGES
100
AcDbEllipse
 62
7
  6
CONTINUOUS
 10
-4.8812483534
 20
12.0908963617
 30
0.0
 11
-0.0
 21
0.5
 31
0.0
 40
0.0174550649
 41
-4.7123889804
 42
-3.2417600748
  0
ELLIPSE
  5
57C
100
AcDbEntity
  8
IMPORT_IGES
100
AcDbEllipse
 62
7
  6
CONTINUOUS
 10
0.655407283
 20
9.11518566
 30
0.0
 11
0.0
 21
0.5
 31
0.0
 40
0.0174550649
 41
-4.7123889804
 42
-4.4715129354
  0
ELLIPSE
  5
57D
100
AcDbEntity
  8
IMPORT_IGES
100
AcDbEllipse
 62
7
  6
CONTINUOUS
 10
0.6606438024
 20
14.1202850843
 30
0.0
 11
0.0
 21
0.4
 31
0.0
 40
0.0174550649
 41
0.3509119749
 42
1.5707963268
  0
ELLIPSE
  5
57E
100
AcDbEntity
  8
IMPORT_IGES
100
AcDbEllipse
 62
7
  6
CONTINUOUS
 10
0.6606438024
 20
13.8715327649
 30
0.0
 11
0.0
 21
0.4
 31
0.0
 40
0.0174550649
 41
-4.7123889804
 42
-3.1590459461
  0
ELLIPSE
  5
57F
100
AcDbEntity
  8
IMPORT_IGES
100
AcDbEllipse
 62
7
  6
CONTINUOUS
 10
-2.4881694481
 20
16.0203460155
 30
0.0
 11
0.4
 21
0.0
 31
0.0
 40
0.0174550649
 41
-3.1241393611
 42
-1.5707963268
  0
ELLIPSE
  5
580
100
AcDbEntity
  8
IMPORT_IGES
100
AcDbEllipse
 62
7
  6
CONTINUOUS
 10
-1.7394171288
 20
16.0203460155
 30
0.0
 11
0.4
 21
-0.0
 31
0.0
 40
0.0174550649
 41
-1.5707963268
 42
-0.0174532925
  0
ELLIPSE
  5
581
100
AcDbEntity
  8
IMPORT_IGES
100
AcDbEllipse
 62
7
  6
CONTINUOUS
 10
-4.8882303794
 20
13.8715327649
 30
0.0
 11
-0.0
 21
0.4
 31
0.0
 40
0.0174550649
 41
-3.1241393611
 42
-1.5707963268
  0
ELLIPSE
  5
582
100
AcDbEntity
  8
IMPORT_IGES
100
AcDbEllipse
 62
7
  6
CONTINUOUS
 10
-4.8882303794
 20
14.1202850843
 30
0.0
 11
0.0
 21
0.4
 31
0.0
 40
0.0174550649
 41
-1.5707963268
 42
-0.350911996
  0
ELLIPSE
  5
583
100
AcDbEntity
  8
IMPORT_IGES
100
AcDbEllipse
 62
7
  6
CONTINUOUS
 10
-5.6393561976
 20
14.1202850843
 30
0.0
 11
0.0
 21
0.4
 31
0.0
 40
0.0174550649
 41
0.3509119749
 42
1.5707963268
  0
ELLIPSE
  5
584
100
AcDbEntity
  8
IMPORT_IGES
100
AcDbEllipse
 62
7
  6
CONTINUOUS
 10
-5.6393561976
 20
13.8715327649
 30
0.0
 11
0.0
 21
0.4
 31
0.0
 40
0.0174550649
 41
-4.7123889804
 42
-3.1590459461
  0
ELLIPSE
  5
585
100
AcDbEntity
  8
IMPORT_IGES
100
AcDbEllipse
 62
7
  6
CONTINUOUS
 10
-1.7394171288
 20
16.7714718337
 30
0.0
 11
0.4
 21
0.0
 31
0.0
 40
0.0174550649
 41
0.0174532925
 42
1.5707963268
  0
ELLIPSE
  5
586
100
AcDbEntity
  8
IMPORT_IGES
100
AcDbEllipse
 62
7
  6
CONTINUOUS
 10
-2.4881694481
 20
16.7714718337
 30
0.0
 11
0.4
 21
-0.0
 31
0.0
 40
0.0174550649
 41
1.5707963268
 42
3.1241393611
  0
ELLIPSE
  5
587
100
AcDbEntity
  8
IMPORT_IGES
100
AcDbEllipse
 62
7
  6
CONTINUOUS
 10
1.4117696206
 20
13.8715327649
 30
0.0
 11
0.0
 21
0.4
 31
0.0
 40
0.0174550649
 41
-3.1241393611
 42
-1.5707963268
  0
ELLIPSE
  5
588
100
AcDbEntity
  8
IMPORT_IGES
100
AcDbEllipse
 62
7
  6
CONTINUOUS
 10
1.4117696206
 20
14.1202850843
 30
0.0
 11
-0.0
 21
0.4
 31
0.0
 40
0.0174550649
 41
-1.5707963268
 42
-0.3509120146
  0
ELLIPSE
  5
589
100
AcDbEntity
  8
RACCORDO
100
AcDbEllipse
 62
7
  6
CONTINUOUS
 10
-7.0202262376
 20
-20.1887531165
 30
0.0
 11
0.0
 21
0.3
 31
0.0
 40
0.0058178298
 41
0.0087266463
 42
0.3439536743
  0
ELLIPSE
  5
58A
100
AcDbEntity
  8
RACCORDO
100
AcDbEllipse
 62
7
  6
CONTINUOUS
 10
-7.0202262376
 20
21.1805709657
 30
0.0
 11
0.0
 21
0.3
 31
0.0
 40
0.0058178298
 41
-3.4855463279
 42
-3.1503192998
  0
ELLIPSE
  5
58B
100
AcDbEntity
  8
RACCORDO
100
AcDbEllipse
 62
7
  6
CONTINUOUS
 10
6.7926396607
 20
21.1805709657
 30
0.0
 11
0.0
 21
0.3
 31
0.0
 40
0.0058178298
 41
-3.1328660073
 42
-2.7976389793
  0
ELLIPSE
  5
58C
100
AcDbEntity
  8
RACCORDO
100
AcDbEllipse
 62
7
  6
CONTINUOUS
 10
-8.6137975193
 20
-22.9154159408
 30
0.0
 11
0.0029088041
 21
0.2886641433
 31
0.0
 40
0.8660144118
 41
-1.5591610446
 42
0.0087264124
  0
ELLIPSE
  5
58D
100
AcDbEntity
  8
ASSI
100
AcDbEllipse
 62
7
  6
CONTINUOUS
 10
-4.4701595649
 20
23.7522667393
 30
0.0
 11
0.0
 21
0.5
 31
0.0
 40
0.0058178298
 41
-0.149597008
 42
-0.0058177642
  0
ELLIPSE
  5
58E
100
AcDbEntity
  8
ASSI
100
AcDbEllipse
 62
7
  6
CONTINUOUS
 10
4.242572988
 20
23.7522667393
 30
0.0
 11
-0.0
 21
0.5
 31
0.0
 40
0.0058178298
 41
0.0058177642
 42
0.149597008
  0
ELLIPSE
  5
58F
100
AcDbEntity
  8
ASSI
100
AcDbEllipse
 62
7
  6
CONTINUOUS
 10
4.242572988
 20
-22.7604488901
 30
0.0
 11
-0.0
 21
0.5
 31
0.0
 40
0.0058178298
 41
-3.2911896616
 42
-3.1474104178
  0
ELLIPSE
  5
590
100
AcDbEntity
  8
ASSI
100
AcDbEllipse
 62
7
  6
CONTINUOUS
 10
-4.4701595649
 20
-22.7604488901
 30
0.0
 11
0.0
 21
0.5
 31
0.0
 40
0.0058178298
 41
-3.1357748894
 42
-2.9919956456
  0
ELLIPSE
  5
591
100
AcDbEntity
  8
DRAFT
100
AcDbEllipse
 62
7
  6
CONTINUOUS
 10
3.8141766992
 20
-21.8380109706
 30
0.0
 11
0.4279699877
 21
0.0
 31
0.0
 40
0.0087268678
 41
0.0058177642
 42
3.1415926536
  0
ELLIPSE
  5
592
100
AcDbEntity
  8
DRAFT
100
AcDbEllipse
 62
7
  6
CONTINUOUS
 10
-4.0417632761
 20
-21.8380109706
 30
0.0
 11
0.4279699877
 21
0.0
 31
0.0
 40
0.0087268678
 41
-0.0
 42
3.1357748894
  0
ELLIPSE
  5
593
100
AcDbEntity
  8
DRAFT
100
AcDbEllipse
 62
7
  6
CONTINUOUS
 10
3.8141766992
 20
22.8298288198
 30
0.0
 11
0.4279699877
 21
-0.0
 31
0.0
 40
0.0087268678
 41
-3.1415926536
 42
-0.0058177642
  0
ELLIPSE
  5
594
100
AcDbEntity
  8
DRAFT
100
AcDbEllipse
 62
7
  6
CONTINUOUS
 10
-4.0417632761
 20
22.8298288198
 30
0.0
 11
0.4279699877
 21
-0.0
 31
0.0
 40
0.0087268678
 41
-3.1357748894
 42
-0.0
  0
ELLIPSE
  5
595
100
AcDbEntity
  8
RACCORDO
100
AcDbEllipse
 62
7
  6
CONTINUOUS
 10
-10.5137890576
 20
-22.9154159408
 30
0.0
 11
-0.0029088041
 21
0.2886641433
 31
0.0
 40
0.8660144118
 41
-0.0087264124
 42
1.5591610446
  0
ELLIPSE
  5
596
100
AcDbEntity
  8
RACCORDO
100
AcDbEllipse
 62
7
  6
CONTINUOUS
 10
10.2862024807
 20
-22.9154159408
 30
0.0
 11
0.0029088041
 21
0.2886641433
 31
0.0
 40
0.8660144118
 41
-1.5591610446
 42
0.0087264124
  0
ELLIPSE
  5
597
100
AcDbEntity
  8
0
100
AcDbEllipse
 62
7
  6
CONTINUOUS
 10
-10.7637171244
 20
-21.3953451684
 30
0.0
 11
-0.4473055582
 21
0.2236357461
 31
0.0
 40
0.9998096356
 41
6.7467263073
 42
8.3176749331
  0
ELLIPSE
  5
598
100
AcDbEntity
  8
0
100
AcDbEllipse
 62
7
  6
CONTINUOUS
 10
10.5361305475
 20
-21.3953451684
 30
0.0
 11
-0.4473055582
 21
-0.2236357461
 31
0.0
 40
0.9998096356
 41
1.1071030277
 42
2.6780516535
  0
ELLIPSE
  5
599
100
AcDbEntity
  8
RACCORDO
100
AcDbEllipse
 62
7
  6
CONTINUOUS
 10
8.3862109424
 20
-22.9154159408
 30
0.0
 11
-0.0029088041
 21
0.2886641433
 31
0.0
 40
0.8660144118
 41
-0.0087264124
 42
1.5591610446
  0
ELLIPSE
  5
59A
100
AcDbEntity
  8
RACCORDO
100
AcDbEllipse
 62
7
  6
CONTINUOUS
 10
-10.5137890576
 20
23.90723379
 30
0.0
 11
0.0029088041
 21
0.2886641433
 31
0.0
 40
0.8660144118
 41
-4.7007536982
 42
-3.1328662412
  0
ELLIPSE
  5
59B
100
AcDbEntity
  8
RACCORDO
100
AcDbEllipse
 62
7
  6
CONTINUOUS
 10
-8.6137975193
 20
23.90723379
 30
0.0
 11
-0.0029088041
 21
0.2886641433
 31
0.0
 40
0.8660144118
 41
-3.150319066
 42
-1.582431609
  0
ELLIPSE
  5
59C
100
AcDbEntity
  8
0
100
AcDbEllipse
 62
7
  6
CONTINUOUS
 10
-10.7637171244
 20
22.3871630176
 30
0.0
 11
0.4473055582
 21
0.2236357461
 31
0.0
 40
0.9998096356
 41
1.1071030277
 42
2.6780516535
  0
ELLIPSE
  5
59D
100
AcDbEntity
  8
0
100
AcDbEllipse
 62
7
  6
CONTINUOUS
 10
10.5361305475
 20
22.3871630176
 30
0.0
 11
0.4473055582
 21
-0.2236357461
 31
0.0
 40
0.9998096356
 41
6.7467263073
 42
8.3176749331
  0
ELLIPSE
  5
59E
100
AcDbEntity
  8
RACCORDO
100
AcDbEllipse
 62
7
  6
CONTINUOUS
 10
8.3862109424
 20
23.90723379
 30
0.0
 11
0.0029088041
 21
0.2886641433
 31
0.0
 40
0.8660144118
 41
-4.7007536982
 42
-3.1328662412
  0
ELLIPSE
  5
59F
100
AcDbEntity
  8
RACCORDO
100
AcDbEllipse
 62
7
  6
CONTINUOUS
 10
10.2862024807
 20
23.90723379
 30
0.0
 11
-0.0029088041
 21
0.2886641433
 31
0.0
 40
0.8660144118
 41
-3.150319066
 42
-1.582431609
  0
ELLIPSE
  5
5A0
100
AcDbEntity
  8
RACCORDO
100
AcDbEllipse
 62
7
  6
CONTINUOUS
 10
6.7926396607
 20
-20.1887531165
 30
0.0
 11
0.0
 21
0.3
 31
0.0
 40
0.0058178298
 41
-0.3439536743
 42
-0.0087266463
  0
ENDSEC
  0
SECTION
  2
OBJECTS
  0
DICTIONARY
  5
C
100
AcDbDictionary
280
0
281
1
  3
ACAD_GROUP
350
D
  3
ACAD_MLINESTYLE
350
17
  3
ACAD_LAYOUT
350
1A
  3
ACAD_PLOTSETTINGS
350
19
  3
ACAD_PLOTSTYLENAME
350
E
  0
DICTIONARY
  5
D
102
{ACAD_REACTORS
330
C
102
}
100
AcDbDictionary
280
0
281
1
  0
ACDBDICTIONARYWDFLT
  5
E
102
{ACAD_REACTORS
330
C
102
}
100
AcDbDictionary
281
1
  3
Normal
350
F
100
AcDbDictionaryWithDefault
340
F
  0
DICTIONARY
  5
17
102
{ACAD_REACTORS
330
C
102
}
100
AcDbDictionary
280
0
281
1
  3
Standard
350
18
  0
DICTIONARY
  5
19
102
{ACAD_REACTORS
330
C
102
}
100
AcDbDictionary
281
1
  0
DICTIONARY
  5
1A
102
{ACAD_REACTORS
330
C
102
}
100
AcDbDictionary
281
1
  3
Model
350
5A1
  3
Layout1
350
5A2
  0
ACDBPLACEHOLDER
  5
F
102
{ACAD_REACTORS
330
E
102
}
  0
MLINESTYLE
  5
18
102
{ACAD_REACTORS
330
17
102
}
100
AcDbMlineStyle
  2
STANDARD
 70
0
  3

 62
256
 51
90.0
 52
90.0
 71
2
 49
0.5
 62
256
  6
BYLAYER
 49
-0.5
 62
256
  6
BYLAYER
  0
LAYOUT
  5
5A1
102
{ACAD_REACTORS
330
1A
102
}
100
AcDbPlotSettings
  1

  2
none_device
  4
ISO_A4_(297.00_x_210.00_MM)
  6

 40
0.0
 41
0.0
 42
0.0
 43
0.0
 44
297.0
 45
210.0
 46
0.0
 47
0.0
 48
0.0
 49
0.0
140
0.0
141
0.0
142
1.0
143
1.0
 70
1024
 72
1
 73
0
 74
0
  7

 75
0
147
1.0
148
0.0
149
0.0
100
AcDbLayout
  1
Model
 70
0
 71
0
 10
0.0
 20
0.0
 11
297.0
 21
210.0
 12
0.0
 22
0.0
 32
0.0
 14
0.0
 24
0.0
 34
0.0
 15
0.0
 25
0.0
 35
0.0
146
0.0
 13
0.0
 23
0.0
 33
0.0
 16
1.0
 26
0.0
 36
0.0
 17
0.0
 27
1.0
 37
0.0
 76
0
330
217
345
0
346
0
  0
LAYOUT
  5
5A2
102
{ACAD_REACTORS
330
1A
102
}
100
AcDbPlotSettings
  1

  2
none_device
  4
ISO_A4_(297.00_x_210.00_MM)
  6

 40
0.0
 41
0.0
 42
0.0
 43
0.0
 44
297.0
 45
210.0
 46
0.0
 47
0.0
 48
0.0
 49
0.0
140
0.0
141
0.0
142
1.0
143
1.0
 70
0
 72
1
 73
0
 74
0
  7

 75
0
147
1.0
148
0.0
149
0.0
100
AcDbLayout
  1
Layout1
 70
0
 71
1
 10
0.0
 20
0.0
 11
297.0
 21
210.0
 12
0.0
 22
0.0
 32
0.0
 14
0.0
 24
0.0
 34
0.0
 15
0.0
 25
0.0
 35
0.0
146
0.0
 13
0.0
 23
0.0
 33
0.0
 16
1.0
 26
0.0
 36
0.0
 17
0.0
 27
1.0
 37
0.0
 76
0
330
218
345
0
346
0
  0
ENDSEC
  0
EOF
