  0
SECTION
  2
HEADER
  9
$ACADVER
  1
AC1015
  9
$DWGCODEPAGE
  3
ANSI_1252
  9
$EXTMAX
 10
297.0
 20
210.0
 30
0.0
  9
$EXTMIN
 10
0.0
 20
0.0
 30
0.0
  9
$LIMMIN
 10
0.0
 20
0.0
  9
$LIMMAX
 10
297.0
 20
210.0
  9
$VIEWCTR
 10
148.5
 20
105.0
  9
$VIEWSIZE
 40
210.0
  9
$CLAYER
  8
0
  9
$LTSCALE
 40
16.335
  9
$CELTYPE
  6
BYLAYER
  9
$DIMSCALE
 40
1.0
  9
$DIMASZ
 40
3.0
  9
$DIMEXO
 40
1.85625
  9
$DIMDLI
 40
11.286
  9
$DIMEXE
 40
5.346
  9
$DIMCEN
 40
2.673
  9
$DIMLFAC
 40
1.0
  9
$DIMBLK
  1
_FILLED
  9
$DIMTXT
 40
3.0
  9
$DIMTOL
 70
1
  9
$DIMLIM
 70
0
  9
$DIMTFAC
 40
1.0
  9
$DIMTP
 40
0.01
  9
$DIMTM
 40
0.01
  9
$PDMODE
 70
3
  9
$PDSIZE
 40
3.0
  9
$HANDSEED
  5
56A
  9
$TILEMODE
 70
1
  9
$MEASUREMENT
 70
1
  9
$INSUNITS
 70
4
  0
ENDSEC
  0
SECTION
  2
CLASSES
  0
CLASS
  1
ACDBDICTIONARYWDFLT
  2
AcDbDictionaryWithDefault
  3
AutoCAD 2000
 90
0
280
0
281
0
  0
CLASS
  1
ACDBPLACEHOLDER
  2
AcDbPlaceHolder
  3
AutoCAD 2000
 90
0
280
0
281
0
  0
CLASS
  1
LAYOUT
  2
AcDbLayout
  3
AutoCAD 2000
 90
0
280
0
281
0
  0
ENDSEC
  0
SECTION
  2
TABLES
  0
TABLE
  2
VPORT
  5
8
100
AcDbSymbolTable
 70
2
  0
VPORT
  5
1F4
100
AcDbSymbolTableRecord
100
AcDbViewportTableRecord
  2
*ACTIVE
 70
0
 10
0.0
 20
0.0
 11
1.0
 21
1.0
 12
148.5
 22
105.0
 13
0.0
 23
0.0
 14
1.0
 24
1.0
 15
0.0
 25
0.0
 16
0.0
 26
0.0
 36
1.0
 17
0.0
 27
0.0
 37
0.0
 40
210.0
 41
1.4142857143
 42
50.0
 43
0.0
 44
0.0
 50
0.0
 51
0.0
 71
0
 72
100
 73
1
 74
1
 75
0
 76
0
 77
0
 78
0
  0
ENDTAB
  0
TABLE
  2
LTYPE
  5
5
100
AcDbSymbolTable
 70
6
  0
LTYPE
  5
14
100
AcDbSymbolTableRecord
100
AcDbLinetypeTableRecord
  2
BYBLOCK
 70
0
  3

 72
65
 73
0
 40
0.0
  0
LTYPE
  5
15
100
AcDbSymbolTableRecord
100
AcDbLinetypeTableRecord
  2
BYLAYER
 70
0
  3

 72
65
 73
0
 40
0.0
  0
LTYPE
  5
16
100
AcDbSymbolTableRecord
100
AcDbLinetypeTableRecord
  2
CONTINUOUS
 70
64
  3
Solid line
 72
65
 73
0
 40
0.0
  0
LTYPE
  5
1F5
100
AcDbSymbolTableRecord
100
AcDbLinetypeTableRecord
  2
CENTER
 70
64
  3
____ _ ____ _ ____ _ ____ _ ____ _ ____ _ ____
 72
65
 73
4
 40
0.6
 49
0.375
 74
0
 49
-0.075
 74
0
 49
0.075
 74
0
 49
-0.075
 74
0
  0
LTYPE
  5
1F6
100
AcDbSymbolTableRecord
100
AcDbLinetypeTableRecord
  2
HIDDEN
 70
64
  3
- - - - - - - - - - - - - - - - - - - -
 72
65
 73
2
 40
0.2
 49
0.1
 74
0
 49
-0.1
 74
0
  0
LTYPE
  5
1F7
100
AcDbSymbolTableRecord
100
AcDbLinetypeTableRecord
  2
PHANTOM
 70
64
  3
_____ _ _ _____ _ _ _____ _ _ _____
 72
65
 73
6
 40
0.8
 49
0.45
 74
0
 49
-0.05
 74
0
 49
0.1
 74
0
 49
-0.05
 74
0
 49
0.1
 74
0
 49
-0.05
 74
0
  0
LTYPE
  5
1F8
100
AcDbSymbolTableRecord
100
AcDbLinetypeTableRecord
  2
DOT
 70
64
  3
. . . . . . . . . . . . . . . . . . . .
 72
65
 73
2
 40
0.2
 49
0.1
 74
0
 49
-0.1
 74
0
  0
LTYPE
  5
1F9
100
AcDbSymbolTableRecord
100
AcDbLinetypeTableRecord
  2
DASHED
 70
64
  3
- - - - - - - - - - - - - - - - - - - -
 72
65
 73
2
 40
0.2
 49
0.1
 74
0
 49
-0.1
 74
0
  0
ENDTAB
  0
TABLE
  2
LAYER
  5
2
100
AcDbSymbolTable
 70
36
  0
LAYER
  5
10
100
AcDbSymbolTableRecord
100
AcDbLayerTableRecord
  2
0
 70
0
 62
7
  6
CONTINUOUS
370
-3
390
F
  0
LAYER
  5
1FA
100
AcDbSymbolTableRecord
100
AcDbLayerTableRecord
  2
DEFAULT_1
 70
0
 62
7
  6
CENTER
370
-3
390
F
  0
LAYER
  5
1FB
100
AcDbSymbolTableRecord
100
AcDbLayerTableRecord
  2
DEFAULT_2
 70
0
 62
7
  6
HIDDEN
370
-3
390
F
  0
LAYER
  5
1FC
100
AcDbSymbolTableRecord
100
AcDbLayerTableRecord
  2
DEFAULT_3
 70
0
 62
7
  6
PHANTOM
370
-3
390
F
  0
LAYER
  5
1FD
100
AcDbSymbolTableRecord
100
AcDbLayerTableRecord
  2
ASSI
 70
0
 62
7
  6
CONTINUOUS
370
-3
390
F
  0
LAYER
  5
1FE
100
AcDbSymbolTableRecord
100
AcDbLayerTableRecord
  2
COORDINATE
 70
0
 62
7
  6
CONTINUOUS
370
-3
390
F
  0
LAYER
  5
1FF
100
AcDbSymbolTableRecord
100
AcDbLayerTableRecord
  2
COORD_ORIGINE
 70
0
 62
7
  6
CONTINUOUS
370
-3
390
F
  0
LAYER
  5
200
100
AcDbSymbolTableRecord
100
AcDbLayerTableRecord
  2
CURVE
 70
0
 62
7
  6
CONTINUOUS
370
-3
390
F
  0
LAYER
  5
201
100
AcDbSymbolTableRecord
100
AcDbLayerTableRecord
  2
CURVE_LED_TASTO
 70
0
 62
7
  6
CONTINUOUS
370
-3
390
F
  0
LAYER
  5
202
100
AcDbSymbolTableRecord
100
AcDbLayerTableRecord
  2
DRAFT
 70
0
 62
7
  6
CONTINUOUS
370
-3
390
F
  0
LAYER
  5
203
100
AcDbSymbolTableRecord
100
AcDbLayerTableRecord
  2
IGES_SCRITTE
 70
0
 62
7
  6
CONTINUOUS
370
-3
390
F
  0
LAYER
  5
204
100
AcDbSymbolTableRecord
100
AcDbLayerTableRecord
  2
PIANI
 70
0
 62
7
  6
CONTINUOUS
370
-3
390
F
  0
LAYER
  5
205
100
AcDbSymbolTableRecord
100
AcDbLayerTableRecord
  2
PIANI_ORIGINE
 70
0
 62
7
  6
CONTINUOUS
370
-3
390
F
  0
LAYER
  5
206
100
AcDbSymbolTableRecord
100
AcDbLayerTableRecord
  2
PIANI_RIFERIMENTO
 70
0
 62
7
  6
CONTINUOUS
370
-3
390
F
  0
LAYER
  5
207
100
AcDbSymbolTableRecord
100
AcDbLayerTableRecord
  2
PUNTI
 70
0
 62
7
  6
CONTINUOUS
370
-3
390
F
  0
LAYER
  5
208
100
AcDbSymbolTableRecord
100
AcDbLayerTableRecord
  2
RACCORDO
 70
0
 62
7
  6
CONTINUOUS
370
-3
390
F
  0
LAYER
  5
209
100
AcDbSymbolTableRecord
100
AcDbLayerTableRecord
  2
SMUSSO
 70
0
 62
7
  6
CONTINUOUS
370
-3
390
F
  0
LAYER
  5
20A
100
AcDbSymbolTableRecord
100
AcDbLayerTableRecord
  2
SNAPLINE
 70
0
 62
7
  6
CONTINUOUS
370
-3
390
F
  0
LAYER
  5
20B
100
AcDbSymbolTableRecord
100
AcDbLayerTableRecord
  2
SUPERFICI
 70
0
 62
7
  6
CONTINUOUS
370
-3
390
F
  0
LAYER
  5
20C
100
AcDbSymbolTableRecord
100
AcDbLayerTableRecord
  2
TRASH
 70
0
 62
7
  6
CONTINUOUS
370
-3
390
F
  0
ENDTAB
  0
TABLE
  2
STYLE
  5
3
100
AcDbSymbolTable
 70
1
  0
STYLE
  5
11
100
AcDbSymbolTableRecord
100
AcDbTextStyleTableRecord
  2
STANDARD
 70
0
 40
0.0
 41
0.8
 50
0.0
 71
0
 42
0.2
  3
txt
  4

  0
STYLE
  5
20D
100
AcDbSymbolTableRecord
100
AcDbTextStyleTableRecord
  2
TEXTSTYLE_1
 70
0
 40
0.0
 41
0.8
 50
0.0
 71
0
 42
0.2
  3
gdt
  4

  0
ENDTAB
  0
TABLE
  2
VIEW
  5
6
100
AcDbSymbolTable
 70
0
  0
ENDTAB
  0
TABLE
  2
UCS
  5
7
100
AcDbSymbolTable
 70
0
  0
ENDTAB
  0
TABLE
  2
APPID
  5
9
100
AcDbSymbolTable
 70
1
  0
APPID
  5
20E
100
AcDbSymbolTableRecord
100
AcDbRegAppTableRecord
  2
ACAD
 70
0
  0
ENDTAB
  0
TABLE
  2
BLOCK_RECORD
  5
1
100
AcDbSymbolTable
 70
0
  0
BLOCK_RECORD
  5
20F
100
AcDbSymbolTableRecord
100
AcDbBlockTableRecord
  2
*Model_Space
  0
BLOCK_RECORD
  5
210
100
AcDbSymbolTableRecord
100
AcDbBlockTableRecord
  2
*Paper_Space
  0
ENDTAB
  0
TABLE
  2
DIMSTYLE
  5
A
100
AcDbSymbolTable
 70
1
100
AcDbDimStyleTable
 71
0
  0
DIMSTYLE
105
211
100
AcDbSymbolTableRecord
100
AcDbDimStyleTableRecord
  2
STANDARD
 70
0
  3

  4

 40
1.0
 41
3.0
 42
0.0625
 43
0.38
 44
0.18
 45
0.0
 46
0.0
 47
0.01
 48
0.01
140
3.0
141
0.09
142
0.0
143
25.4
144
1.0
145
0.0
146
1.0
147
0.09
 71
1.0
 72
0.0
 73
0
 74
0
 75
0
 76
0
 77
1
 78
8
170
0
171
2
172
0
173
0
174
0
175
0
176
0
177
0
178
0
270
2
271
2
272
2
273
2
274
2
275
0
280
0
281
0
282
0
283
1
284
8
285
0
286
0
287
3
288
0
340
11
  0
ENDTAB
  0
ENDSEC
  0
SECTION
  2
BLOCKS
  0
BLOCK
  5
20
100
AcDbEntity
  8
0
100
AcDbBlockBegin
  2
*Model_Space
 70
0
 10
0.0
 20
0.0
 30
0.0
  3
*Model_Space
  1

  0
ENDBLK
  5
21
100
AcDbEntity
  8
0
100
AcDbBlockEnd
  0
BLOCK
  5
1C
100
AcDbEntity
  8
0
100
AcDbBlockBegin
  2
*Paper_Space
 70
0
 10
0.0
 20
0.0
 30
0.0
  3
*Paper_Space
  1

  0
ENDBLK
  5
1D
100
AcDbEntity
  8
0
100
AcDbBlockEnd
  0
ENDSEC
  0
SECTION
  2
ENTITIES
  0
LINE
  5
212
100
AcDbEntity
  8
RACCORDO
100
AcDbLine
 62
7
  6
CONTINUOUS
 10
0.7116483634
 20
26.3639614554
 11
0.6562521284
 21
26.9235612564
  0
LINE
  5
213
100
AcDbEntity
  8
RACCORDO
100
AcDbLine
 62
7
  6
CONTINUOUS
 10
2.0803418557
 20
26.3639614554
 11
2.0526458476
 21
26.9235612564
  0
LINE
  5
214
100
AcDbEntity
  8
DRAFT
100
AcDbLine
 62
7
  6
CONTINUOUS
 10
0.6729816624
 20
2.2411073945
 11
0.6490401161
 21
15.2911073945
  0
LINE
  5
215
100
AcDbEntity
  8
DRAFT
100
AcDbLine
 62
7
  6
CONTINUOUS
 10
2.0610099775
 20
2.2411073945
 11
2.0490401161
 21
15.2911073945
  0
LINE
  5
216
100
AcDbEntity
  8
RACCORDO
100
AcDbLine
 62
7
  6
CONTINUOUS
 10
0.6490401161
 20
30.2911073945
 11
0.6490401161
 21
27.4159651329
  0
LINE
  5
217
100
AcDbEntity
  8
RACCORDO
100
AcDbLine
 62
7
  6
CONTINUOUS
 10
0.6490401161
 20
18.1662496561
 11
0.6490401161
 21
15.2911073945
  0
LINE
  5
218
100
AcDbEntity
  8
RACCORDO
100
AcDbLine
 62
7
  6
CONTINUOUS
 10
0.6729816624
 20
1.4133566061
 11
0.6729816624
 21
2.2411073945
  0
LINE
  5
219
100
AcDbEntity
  8
RACCORDO
100
AcDbLine
 62
7
  6
CONTINUOUS
 10
0.6729816624
 20
43.3411073945
 11
0.6729816624
 21
44.1688581829
  0
LINE
  5
21A
100
AcDbEntity
  8
RACCORDO
100
AcDbLine
 62
7
  6
CONTINUOUS
 10
0.7188603758
 20
19.7106572101
 11
0.7188603758
 21
25.8715575789
  0
LINE
  5
21B
100
AcDbEntity
  8
RACCORDO
100
AcDbLine
 62
7
  6
CONTINUOUS
 10
2.0490401161
 20
30.2911073945
 11
2.0490401161
 21
27.4159651329
  0
LINE
  5
21C
100
AcDbEntity
  8
RACCORDO
100
AcDbLine
 62
7
  6
CONTINUOUS
 10
2.0490401161
 20
18.1662496561
 11
2.0490401161
 21
15.2911073945
  0
LINE
  5
21D
100
AcDbEntity
  8
RACCORDO
100
AcDbLine
 62
7
  6
CONTINUOUS
 10
2.0839475872
 20
19.7106572101
 11
2.0839475872
 21
25.8715575789
  0
LINE
  5
21E
100
AcDbEntity
  8
DRAFT
100
AcDbLine
 62
7
  6
CONTINUOUS
 10
2.0610099775
 20
43.3411073945
 11
2.0490401161
 21
30.2911073945
  0
LINE
  5
21F
100
AcDbEntity
  8
DRAFT
100
AcDbLine
 62
7
  6
CONTINUOUS
 10
0.6490401161
 20
30.2911073945
 11
0.6729816624
 21
43.3411073945
  0
LINE
  5
220
100
AcDbEntity
  8
RACCORDO
100
AcDbLine
 62
7
  6
CONTINUOUS
 10
2.0803418557
 20
19.2182533336
 11
2.0526458476
 21
18.6586535326
  0
LINE
  5
221
100
AcDbEntity
  8
RACCORDO
100
AcDbLine
 62
7
  6
CONTINUOUS
 10
0.7116483634
 20
19.2182533336
 11
0.6562521284
 21
18.6586535326
  0
LINE
  5
222
100
AcDbEntity
  8
RACCORDO
100
AcDbLine
 62
7
  6
CONTINUOUS
 10
7.4416726335
 20
43.0850125426
 11
7.4938949864
 21
43.2418070064
  0
LINE
  5
223
100
AcDbEntity
  8
RACCORDO
100
AcDbLine
 62
7
  6
CONTINUOUS
 10
44.6257075293
 20
0.6129904428
 11
23.9223727028
 21
0.6129904428
  0
LINE
  5
224
100
AcDbEntity
  8
RACCORDO
100
AcDbLine
 62
7
  6
CONTINUOUS
 10
1.4723727028
 20
0.6129904428
 11
22.1757075293
 21
0.6129904428
  0
LINE
  5
225
100
AcDbEntity
  8
RACCORDO
100
AcDbLine
 62
7
  6
CONTINUOUS
 10
7.4416726335
 20
2.4972022464
 11
7.4938949864
 21
2.3404077826
  0
LINE
  5
226
100
AcDbEntity
  8
RACCORDO
100
AcDbLine
 62
7
  6
CONTINUOUS
 10
3.1490401161
 20
20.2911073945
 11
3.1490401161
 21
21.7411073945
  0
LINE
  5
227
100
AcDbEntity
  8
DRAFT
100
AcDbLine
 62
7
  6
CONTINUOUS
 10
3.1490401161
 20
21.7411073945
 11
3.1490401161
 21
23.8411073945
  0
LINE
  5
228
100
AcDbEntity
  8
RACCORDO
100
AcDbLine
 62
7
  6
CONTINUOUS
 10
3.1490401161
 20
23.8411073945
 11
3.1490401161
 21
25.2911073945
  0
LINE
  5
229
100
AcDbEntity
  8
RACCORDO
100
AcDbLine
 62
7
  6
CONTINUOUS
 10
4.3490401161
 20
25.2282180594
 11
4.3490401161
 21
23.8620534724
  0
LINE
  5
22A
100
AcDbEntity
  8
RACCORDO
100
AcDbLine
 62
7
  6
CONTINUOUS
 10
4.3490401161
 20
21.7201613166
 11
4.3490401161
 21
20.3539967296
  0
LINE
  5
22B
100
AcDbEntity
  8
DRAFT
100
AcDbLine
 62
7
  6
CONTINUOUS
 10
4.3490401161
 20
21.7201613166
 11
4.3490401161
 21
23.8620534724
  0
LINE
  5
22C
100
AcDbEntity
  8
RACCORDO
100
AcDbLine
 62
253
  6
CONTINUOUS
 10
7.490586679
 20
40.0658637709
 11
7.4395923165
 21
39.9127562744
  0
LINE
  5
22D
100
AcDbEntity
  8
RACCORDO
100
AcDbLine
 62
253
  6
CONTINUOUS
 10
7.7905409365
 20
39.7662747572
 11
7.7391851044
 21
39.6120819702
  0
LINE
  5
22E
100
AcDbEntity
  8
DRAFT
100
AcDbLine
 62
7
  6
CONTINUOUS
 10
45.4250985697
 20
2.2411073945
 11
44.0370702546
 21
2.2411073945
  0
LINE
  5
22F
100
AcDbEntity
  8
DRAFT
100
AcDbLine
 62
7
  6
CONTINUOUS
 10
24.5110099775
 20
2.2411073945
 11
23.1229816624
 21
2.2411073945
  0
LINE
  5
230
100
AcDbEntity
  8
DRAFT
100
AcDbLine
 62
7
  6
CONTINUOUS
 10
0.6729816624
 20
2.2411073945
 11
2.0610099775
 21
2.2411073945
  0
LINE
  5
231
100
AcDbEntity
  8
DRAFT
100
AcDbLine
 62
7
  6
CONTINUOUS
 10
21.5870702546
 20
2.2411073945
 11
22.9750985697
 21
2.2411073945
  0
LINE
  5
232
100
AcDbEntity
  8
DRAFT
100
AcDbLine
 62
7
  6
CONTINUOUS
 10
44.0370702546
 20
2.3129904428
 11
24.5110099775
 21
2.3129904428
  0
LINE
  5
233
100
AcDbEntity
  8
DRAFT
100
AcDbLine
 62
7
  6
CONTINUOUS
 10
2.0610099775
 20
2.3129904428
 11
21.5870702546
 21
2.3129904428
  0
LINE
  5
234
100
AcDbEntity
  8
RACCORDO
100
AcDbLine
 62
7
  6
CONTINUOUS
 10
15.8042309371
 20
2.3249598413
 11
15.593849295
 21
2.3249598413
  0
LINE
  5
235
100
AcDbEntity
  8
RACCORDO
100
AcDbLine
 62
7
  6
CONTINUOUS
 10
8.0042309371
 20
2.3249598413
 11
7.793849295
 21
2.3249598413
  0
LINE
  5
236
100
AcDbEntity
  8
RACCORDO
100
AcDbLine
 62
7
  6
CONTINUOUS
 10
30.293849295
 20
2.3249598413
 11
30.5042309371
 21
2.3249598413
  0
LINE
  5
237
100
AcDbEntity
  8
RACCORDO
100
AcDbLine
 62
7
  6
CONTINUOUS
 10
38.093849295
 20
2.3249598413
 11
38.3042309371
 21
2.3249598413
  0
LINE
  5
238
100
AcDbEntity
  8
DRAFT
100
AcDbLine
 62
7
  6
CONTINUOUS
 10
44.0063955708
 20
2.4972022464
 11
38.6564075986
 21
2.4972022464
  0
LINE
  5
239
100
AcDbEntity
  8
DRAFT
100
AcDbLine
 62
7
  6
CONTINUOUS
 10
37.7416726335
 20
2.4972022464
 11
30.8564075986
 21
2.4972022464
  0
LINE
  5
23A
100
AcDbEntity
  8
DRAFT
100
AcDbLine
 62
7
  6
CONTINUOUS
 10
29.9416726335
 20
2.4972022464
 11
24.5416846613
 21
2.4972022464
  0
LINE
  5
23B
100
AcDbEntity
  8
DRAFT
100
AcDbLine
 62
7
  6
CONTINUOUS
 10
2.0916846613
 20
2.4972022464
 11
7.4416726335
 21
2.4972022464
  0
LINE
  5
23C
100
AcDbEntity
  8
DRAFT
100
AcDbLine
 62
7
  6
CONTINUOUS
 10
8.3564075986
 20
2.4972022464
 11
15.2416726335
 21
2.4972022464
  0
LINE
  5
23D
100
AcDbEntity
  8
DRAFT
100
AcDbLine
 62
7
  6
CONTINUOUS
 10
16.1564075986
 20
2.4972022464
 11
21.5563955708
 21
2.4972022464
  0
LINE
  5
23E
100
AcDbEntity
  8
DRAFT
100
AcDbLine
 62
7
  6
CONTINUOUS
 10
24.5105055006
 20
2.7911073945
 11
23.1219726317
 21
2.7911073945
  0
LINE
  5
23F
100
AcDbEntity
  8
DRAFT
100
AcDbLine
 62
7
  6
CONTINUOUS
 10
24.5391883687
 20
2.8484774999
 11
23.1793427371
 21
2.8484774999
  0
LINE
  5
240
100
AcDbEntity
  8
DRAFT
100
AcDbLine
 62
7
  6
CONTINUOUS
 10
21.5876419183
 20
2.8643570606
 11
22.9762419843
 21
2.8643570606
  0
LINE
  5
241
100
AcDbEntity
  8
DRAFT
100
AcDbLine
 62
7
  6
CONTINUOUS
 10
21.5588662266
 20
2.9219128274
 11
22.9186862176
 21
2.9219128274
  0
LINE
  5
242
100
AcDbEntity
  8
RACCORDO
100
AcDbLine
 62
253
  6
CONTINUOUS
 10
7.4395923165
 20
5.6694585146
 11
7.490586679
 21
5.5163510181
  0
LINE
  5
243
100
AcDbEntity
  8
RACCORDO
100
AcDbLine
 62
253
  6
CONTINUOUS
 10
7.7391851044
 20
5.9701328188
 11
7.7905409365
 21
5.8159400318
  0
LINE
  5
244
100
AcDbEntity
  8
0
100
AcDbLine
 62
7
  6
CONTINUOUS
 10
5.2990401161
 20
35.5957458756
 11
5.2990401161
 21
35.350179746
  0
LINE
  5
245
100
AcDbEntity
  8
0
100
AcDbLine
 62
7
  6
CONTINUOUS
 10
5.2990401161
 20
33.9340813897
 11
5.2990401161
 21
33.68851526
  0
LINE
  5
246
100
AcDbEntity
  8
0
100
AcDbLine
 62
7
  6
CONTINUOUS
 10
5.7778941464
 20
34.8017485879
 11
5.7778941464
 21
33.9340813897
  0
LINE
  5
247
100
AcDbEntity
  8
0
100
AcDbLine
 62
7
  6
CONTINUOUS
 10
5.7778941464
 20
33.68851526
 11
5.7778941464
 21
33.4183924935
  0
LINE
  5
248
100
AcDbEntity
  8
0
100
AcDbLine
 62
7
  6
CONTINUOUS
 10
6.0029964816
 20
33.4183924935
 11
6.0029964816
 21
33.68851526
  0
LINE
  5
249
100
AcDbEntity
  8
0
100
AcDbLine
 62
7
  6
CONTINUOUS
 10
6.0029964816
 20
33.9340813897
 11
6.0029964816
 21
34.5602751515
  0
LINE
  5
24A
100
AcDbEntity
  8
0
100
AcDbLine
 62
7
  6
CONTINUOUS
 10
6.2444698584
 20
33.1237130902
 11
6.2144562375
 21
32.8931537412
  0
LINE
  5
24B
100
AcDbEntity
  8
DRAFT
100
AcDbLine
 62
7
  6
CONTINUOUS
 10
2.0916846613
 20
2.4972022464
 11
2.0610099775
 21
2.3129904428
  0
LINE
  5
24C
100
AcDbEntity
  8
RACCORDO
100
AcDbLine
 62
253
  6
CONTINUOUS
 10
7.4938949864
 20
5.3166251111
 11
8.3041852457
 21
5.3166251111
  0
LINE
  5
24D
100
AcDbEntity
  8
RACCORDO
100
AcDbLine
 62
253
  6
CONTINUOUS
 10
15.2938949864
 20
5.3166251111
 11
16.1041852457
 21
5.3166251111
  0
LINE
  5
24E
100
AcDbEntity
  8
RACCORDO
100
AcDbLine
 62
253
  6
CONTINUOUS
 10
29.9938949864
 20
5.3166251111
 11
30.8041852457
 21
5.3166251111
  0
LINE
  5
24F
100
AcDbEntity
  8
RACCORDO
100
AcDbLine
 62
253
  6
CONTINUOUS
 10
37.7938949864
 20
5.3166251111
 11
38.6041852457
 21
5.3166251111
  0
LINE
  5
250
100
AcDbEntity
  8
RACCORDO
100
AcDbLine
 62
253
  6
CONTINUOUS
 10
38.3075392957
 20
5.8159400318
 11
38.0905409365
 21
5.8159400318
  0
LINE
  5
251
100
AcDbEntity
  8
RACCORDO
100
AcDbLine
 62
253
  6
CONTINUOUS
 10
30.5075392957
 20
5.8159400318
 11
30.2905409365
 21
5.8159400318
  0
LINE
  5
252
100
AcDbEntity
  8
RACCORDO
100
AcDbLine
 62
253
  6
CONTINUOUS
 10
15.8075392957
 20
5.8159400318
 11
15.5905409365
 21
5.8159400318
  0
LINE
  5
253
100
AcDbEntity
  8
RACCORDO
100
AcDbLine
 62
253
  6
CONTINUOUS
 10
8.0075392957
 20
5.8159400318
 11
7.7905409365
 21
5.8159400318
  0
LINE
  5
254
100
AcDbEntity
  8
RACCORDO
100
AcDbLine
 62
7
  6
CONTINUOUS
 10
7.7391851044
 20
5.9701328188
 11
8.0588951277
 21
5.9701328188
  0
LINE
  5
255
100
AcDbEntity
  8
RACCORDO
100
AcDbLine
 62
7
  6
CONTINUOUS
 10
15.5391851044
 20
5.9701328188
 11
15.8588951277
 21
5.9701328188
  0
LINE
  5
256
100
AcDbEntity
  8
RACCORDO
100
AcDbLine
 62
7
  6
CONTINUOUS
 10
30.2391851044
 20
5.9701328188
 11
30.5588951277
 21
5.9701328188
  0
LINE
  5
257
100
AcDbEntity
  8
RACCORDO
100
AcDbLine
 62
7
  6
CONTINUOUS
 10
38.0391851044
 20
5.9701328188
 11
38.3588951277
 21
5.9701328188
  0
LINE
  5
258
100
AcDbEntity
  8
DRAFT
100
AcDbLine
 62
7
  6
CONTINUOUS
 10
2.0916846613
 20
43.0850125426
 11
2.0610099775
 21
43.2692243462
  0
LINE
  5
259
100
AcDbEntity
  8
0
100
AcDbLine
 62
7
  6
CONTINUOUS
 10
5.8447426927
 20
32.9095247529
 11
5.8229145777
 21
33.1673694394
  0
LINE
  5
25A
100
AcDbEntity
  8
0
100
AcDbLine
 62
7
  6
CONTINUOUS
 10
6.7901724946
 20
29.0295794747
 11
6.8092720878
 21
28.7853773377
  0
LINE
  5
25B
100
AcDbEntity
  8
0
100
AcDbLine
 62
7
  6
CONTINUOUS
 10
7.0371028554
 20
32.7335358403
 11
7.0371028554
 21
31.9354456208
  0
LINE
  5
25C
100
AcDbEntity
  8
0
100
AcDbLine
 62
7
  6
CONTINUOUS
 10
7.271755017
 20
31.9354456208
 11
7.271755017
 21
32.9299886964
  0
LINE
  5
25D
100
AcDbEntity
  8
0
100
AcDbLine
 62
7
  6
CONTINUOUS
 10
7.2990401161
 20
33.68851526
 11
7.2990401161
 21
33.8890610478
  0
LINE
  5
25E
100
AcDbEntity
  8
0
100
AcDbLine
 62
7
  6
CONTINUOUS
 10
7.3072257411
 20
35.350179746
 11
7.3072257411
 21
35.5084334753
  0
LINE
  5
25F
100
AcDbEntity
  8
RACCORDO
100
AcDbLine
 62
253
  6
CONTINUOUS
 10
7.4938949864
 20
43.2418070064
 11
7.4938949864
 21
40.2655896779
  0
LINE
  5
260
100
AcDbEntity
  8
RACCORDO
100
AcDbLine
 62
253
  6
CONTINUOUS
 10
7.4938949864
 20
5.3166251111
 11
7.4938949864
 21
2.3404077826
  0
LINE
  5
261
100
AcDbEntity
  8
RACCORDO
100
AcDbLine
 62
253
  6
CONTINUOUS
 10
7.793849295
 20
43.2572549476
 11
7.793849295
 21
40.2655927303
  0
LINE
  5
262
100
AcDbEntity
  8
RACCORDO
100
AcDbLine
 62
253
  6
CONTINUOUS
 10
7.793849295
 20
5.3166220587
 11
7.793849295
 21
2.3249598413
  0
LINE
  5
263
100
AcDbEntity
  8
RACCORDO
100
AcDbLine
 62
253
  6
CONTINUOUS
 10
8.0042309371
 20
2.3249598413
 11
8.0042309371
 21
5.3166220587
  0
LINE
  5
264
100
AcDbEntity
  8
RACCORDO
100
AcDbLine
 62
253
  6
CONTINUOUS
 10
8.0042309371
 20
40.2655927303
 11
8.0042309371
 21
43.2572549476
  0
LINE
  5
265
100
AcDbEntity
  8
RACCORDO
100
AcDbLine
 62
253
  6
CONTINUOUS
 10
8.3041852457
 20
2.3404077826
 11
8.3041852457
 21
5.3166251111
  0
LINE
  5
266
100
AcDbEntity
  8
RACCORDO
100
AcDbLine
 62
253
  6
CONTINUOUS
 10
8.3041852457
 20
40.2655896779
 11
8.3041852457
 21
43.2418070064
  0
LINE
  5
267
100
AcDbEntity
  8
0
100
AcDbLine
 62
7
  6
CONTINUOUS
 10
19.3004881161
 20
37.1921613945
 11
16.8007521161
 21
36.3996963945
  0
LINE
  5
268
100
AcDbEntity
  8
0
100
AcDbLine
 62
7
  6
CONTINUOUS
 10
8.7990401161
 20
36.9911073945
 11
8.7990401161
 21
36.5509893945
  0
LINE
  5
269
100
AcDbEntity
  8
0
100
AcDbLine
 62
7
  6
CONTINUOUS
 10
8.7990401161
 20
35.2448303945
 11
8.7990401161
 21
34.0462133945
  0
LINE
  5
26A
100
AcDbEntity
  8
0
100
AcDbLine
 62
7
  6
CONTINUOUS
 10
8.7990401161
 20
33.8251123945
 11
8.7990401161
 21
33.4048983945
  0
LINE
  5
26B
100
AcDbEntity
  8
0
100
AcDbLine
 62
7
  6
CONTINUOUS
 10
8.7990401161
 20
32.2919133945
 11
8.7990401161
 21
31.8489403945
  0
LINE
  5
26C
100
AcDbEntity
  8
0
100
AcDbLine
 62
7
  6
CONTINUOUS
 10
8.7990401161
 20
31.6246773945
 11
8.7990401161
 21
31.2129493945
  0
LINE
  5
26D
100
AcDbEntity
  8
0
100
AcDbLine
 62
7
  6
CONTINUOUS
 10
8.7990401161
 20
30.3980563945
 11
8.7990401161
 21
29.7734053945
  0
LINE
  5
26E
100
AcDbEntity
  8
0
100
AcDbLine
 62
7
  6
CONTINUOUS
 10
8.7990401161
 20
29.5661133945
 11
8.7990401161
 21
29.1458993945
  0
LINE
  5
26F
100
AcDbEntity
  8
0
100
AcDbLine
 62
7
  6
CONTINUOUS
 10
8.7990401161
 20
28.0327593945
 11
8.7990401161
 21
27.5899413945
  0
LINE
  5
270
100
AcDbEntity
  8
0
100
AcDbLine
 62
7
  6
CONTINUOUS
 10
9.1397171161
 20
34.0462133945
 11
9.1397171161
 21
34.8047123945
  0
LINE
  5
271
100
AcDbEntity
  8
0
100
AcDbLine
 62
7
  6
CONTINUOUS
 10
9.2335261161
 20
33.2516093945
 11
9.2335261161
 21
32.4395703945
  0
LINE
  5
272
100
AcDbEntity
  8
0
100
AcDbLine
 62
7
  6
CONTINUOUS
 10
9.2335261161
 20
28.9925333945
 11
9.2335261161
 21
28.1804943945
  0
LINE
  5
273
100
AcDbEntity
  8
0
100
AcDbLine
 62
7
  6
CONTINUOUS
 10
9.5742031161
 20
28.2912763945
 11
9.5742031161
 21
28.8789743945
  0
LINE
  5
274
100
AcDbEntity
  8
0
100
AcDbLine
 62
7
  6
CONTINUOUS
 10
9.5742031161
 20
32.5502753945
 11
9.5742031161
 21
33.1380503945
  0
LINE
  5
275
100
AcDbEntity
  8
0
100
AcDbLine
 62
7
  6
CONTINUOUS
 10
9.5884751161
 20
36.5509893945
 11
9.5884751161
 21
36.3637861769
  0
LINE
  5
276
100
AcDbEntity
  8
0
100
AcDbLine
 62
7
  6
CONTINUOUS
 10
9.9291521161
 20
36.2942310233
 11
9.9291521161
 21
36.5509893945
  0
LINE
  5
277
100
AcDbEntity
  8
0
100
AcDbLine
 62
7
  6
CONTINUOUS
 10
10.5083641161
 20
36.5509893945
 11
10.5083641161
 21
36.2942341535
  0
LINE
  5
278
100
AcDbEntity
  8
RACCORDO
100
AcDbLine
 62
7
  6
CONTINUOUS
 10
15.2416726335
 20
43.0850125426
 11
15.2938949864
 21
43.2418070064
  0
LINE
  5
279
100
AcDbEntity
  8
RACCORDO
100
AcDbLine
 62
253
  6
CONTINUOUS
 10
15.290586679
 20
40.0658637709
 11
15.2395923165
 21
39.9127562744
  0
LINE
  5
27A
100
AcDbEntity
  8
RACCORDO
100
AcDbLine
 62
253
  6
CONTINUOUS
 10
15.5905409365
 20
39.7662747572
 11
15.5391851044
 21
39.6120819702
  0
LINE
  5
27B
100
AcDbEntity
  8
DRAFT
100
AcDbLine
 62
7
  6
CONTINUOUS
 10
22.9761076004
 20
42.7911073945
 11
22.918737495
 21
42.7337372891
  0
LINE
  5
27C
100
AcDbEntity
  8
RACCORDO
100
AcDbLine
 62
7
  6
CONTINUOUS
 10
13.0403139128
 20
32.2823811913
 11
13.0209380037
 21
32.2630052821
  0
LINE
  5
27D
100
AcDbEntity
  8
RACCORDO
100
AcDbLine
 62
7
  6
CONTINUOUS
 10
16.0577663193
 20
33.2998335977
 11
16.0767723099
 21
33.3188395884
  0
LINE
  5
27E
100
AcDbEntity
  8
0
100
AcDbLine
 62
7
  6
CONTINUOUS
 10
9.2245121161
 20
30.1851333945
 11
10.8490411161
 21
30.9716363945
  0
LINE
  5
27F
100
AcDbEntity
  8
0
100
AcDbLine
 62
7
  6
CONTINUOUS
 10
10.5147521161
 20
31.2129493945
 11
8.7990401161
 21
30.3980563945
  0
LINE
  5
280
100
AcDbEntity
  8
0
100
AcDbLine
 62
7
  6
CONTINUOUS
 10
8.7990401161
 20
31.8489403945
 11
10.8490411161
 21
32.5616153945
  0
LINE
  5
281
100
AcDbEntity
  8
0
100
AcDbLine
 62
7
  6
CONTINUOUS
 10
9.2335261161
 20
32.4395703945
 11
8.7990401161
 21
32.2919133945
  0
LINE
  5
282
100
AcDbEntity
  8
0
100
AcDbLine
 62
7
  6
CONTINUOUS
 10
10.4573071161
 20
32.8340743945
 11
9.5742031161
 21
32.5502753945
  0
LINE
  5
283
100
AcDbEntity
  8
0
100
AcDbLine
 62
7
  6
CONTINUOUS
 10
28.5182381161
 20
9.4333763945
 11
26.7975921161
 21
8.9568813945
  0
LINE
  5
284
100
AcDbEntity
  8
0
100
AcDbLine
 62
7
  6
CONTINUOUS
 10
35.2490391161
 20
8.5911073945
 11
37.2990401161
 21
8.5911073945
  0
LINE
  5
285
100
AcDbEntity
  8
0
100
AcDbLine
 62
7
  6
CONTINUOUS
 10
37.2990401161
 20
9.0312253945
 11
36.5096051161
 21
9.0312253945
  0
LINE
  5
286
100
AcDbEntity
  8
0
100
AcDbLine
 62
7
  6
CONTINUOUS
 10
36.1689281161
 20
9.0312253945
 11
35.5897161161
 21
9.0312253945
  0
LINE
  5
287
100
AcDbEntity
  8
0
100
AcDbLine
 62
7
  6
CONTINUOUS
 10
39.2929009568
 20
9.4953365944
 11
39.5302815807
 21
9.4953365944
  0
LINE
  5
288
100
AcDbEntity
  8
0
100
AcDbLine
 62
7
  6
CONTINUOUS
 10
39.2342379463
 20
9.9864689134
 11
40.7990401161
 21
9.9864689134
  0
LINE
  5
289
100
AcDbEntity
  8
0
100
AcDbLine
 62
7
  6
CONTINUOUS
 10
40.7990401161
 20
10.232035043
 11
38.790854491
 21
10.232035043
  0
LINE
  5
28A
100
AcDbEntity
  8
0
100
AcDbLine
 62
7
  6
CONTINUOUS
 10
35.2490391161
 20
10.3373843945
 11
37.2990401161
 21
10.3373843945
  0
LINE
  5
28B
100
AcDbEntity
  8
DRAFT
100
AcDbLine
 62
7
  6
CONTINUOUS
 10
22.9762419843
 20
2.8643570606
 11
22.9186862176
 21
2.9219128274
  0
LINE
  5
28C
100
AcDbEntity
  8
RACCORDO
100
AcDbLine
 62
7
  6
CONTINUOUS
 10
13.0403139128
 20
13.2998335977
 11
13.0209380037
 21
13.3192095069
  0
LINE
  5
28D
100
AcDbEntity
  8
RACCORDO
100
AcDbLine
 62
7
  6
CONTINUOUS
 10
16.0577663193
 20
12.2823811913
 11
16.0767723099
 21
12.2633752006
  0
LINE
  5
28E
100
AcDbEntity
  8
RACCORDO
100
AcDbLine
 62
7
  6
CONTINUOUS
 10
15.2416726335
 20
2.4972022464
 11
15.2938949864
 21
2.3404077826
  0
LINE
  5
28F
100
AcDbEntity
  8
RACCORDO
100
AcDbLine
 62
253
  6
CONTINUOUS
 10
15.2395923165
 20
5.6694585146
 11
15.290586679
 21
5.5163510181
  0
LINE
  5
290
100
AcDbEntity
  8
RACCORDO
100
AcDbLine
 62
253
  6
CONTINUOUS
 10
15.5391851044
 20
5.9701328188
 11
15.5905409365
 21
5.8159400318
  0
LINE
  5
291
100
AcDbEntity
  8
0
100
AcDbLine
 62
7
  6
CONTINUOUS
 10
10.8490411161
 20
28.3025393945
 11
10.8490411161
 21
28.8249723945
  0
LINE
  5
292
100
AcDbEntity
  8
0
100
AcDbLine
 62
7
  6
CONTINUOUS
 10
10.8490411161
 20
29.7734053945
 11
10.8490411161
 21
30.1851333945
  0
LINE
  5
293
100
AcDbEntity
  8
0
100
AcDbLine
 62
7
  6
CONTINUOUS
 10
10.8490411161
 20
30.9716363945
 11
10.8490411161
 21
31.6246773945
  0
LINE
  5
294
100
AcDbEntity
  8
0
100
AcDbLine
 62
7
  6
CONTINUOUS
 10
10.8490411161
 20
32.5616153945
 11
10.8490411161
 21
33.0840483945
  0
LINE
  5
295
100
AcDbEntity
  8
0
100
AcDbLine
 62
7
  6
CONTINUOUS
 10
10.8490411161
 20
34.8047123945
 11
10.8490411161
 21
35.2448303945
  0
LINE
  5
296
100
AcDbEntity
  8
0
100
AcDbLine
 62
7
  6
CONTINUOUS
 10
10.8490411161
 20
36.3637968081
 11
10.8490411161
 21
36.9911073945
  0
LINE
  5
297
100
AcDbEntity
  8
DRAFT
100
AcDbLine
 62
7
  6
CONTINUOUS
 10
21.5875747315
 20
42.7911073945
 11
21.5588918634
 21
42.7337372891
  0
LINE
  5
298
100
AcDbEntity
  8
0
100
AcDbLine
 62
7
  6
CONTINUOUS
 10
18.4330321161
 20
33.5282333945
 11
16.8007521161
 21
32.9161073945
  0
LINE
  5
299
100
AcDbEntity
  8
0
100
AcDbLine
 62
7
  6
CONTINUOUS
 10
17.9126271161
 20
32.8766673945
 11
19.3004881161
 21
33.3929493945
  0
LINE
  5
29A
100
AcDbEntity
  8
0
100
AcDbLine
 62
7
  6
CONTINUOUS
 10
26.7974431161
 20
10.6395023945
 11
29.2973281161
 21
10.6395023945
  0
LINE
  5
29B
100
AcDbEntity
  8
0
100
AcDbLine
 62
7
  6
CONTINUOUS
 10
36.9583631161
 20
10.7775023945
 11
35.2490391161
 21
10.7775023945
  0
LINE
  5
29C
100
AcDbEntity
  8
0
100
AcDbLine
 62
7
  6
CONTINUOUS
 10
40.0950837505
 20
10.7804662011
 11
40.3201860857
 21
10.7804662011
  0
LINE
  5
29D
100
AcDbEntity
  8
0
100
AcDbLine
 62
7
  6
CONTINUOUS
 10
29.2973281161
 20
11.1612953945
 11
26.7974431161
 21
11.1612953945
  0
LINE
  5
29E
100
AcDbEntity
  8
0
100
AcDbLine
 62
7
  6
CONTINUOUS
 10
37.2990401161
 20
11.5360013945
 11
36.9583631161
 21
11.5360013945
  0
LINE
  5
29F
100
AcDbEntity
  8
0
100
AcDbLine
 62
7
  6
CONTINUOUS
 10
39.1933102977
 20
11.6481333993
 11
40.0950837505
 21
11.6481333993
  0
LINE
  5
2A0
100
AcDbEntity
  8
0
100
AcDbLine
 62
7
  6
CONTINUOUS
 10
40.3201860857
 20
11.6481333993
 11
40.7990401161
 21
11.6481333993
  0
LINE
  5
2A1
100
AcDbEntity
  8
0
100
AcDbLine
 62
7
  6
CONTINUOUS
 10
40.7990401161
 20
11.893699529
 11
40.3201860857
 21
11.893699529
  0
LINE
  5
2A2
100
AcDbEntity
  8
0
100
AcDbLine
 62
7
  6
CONTINUOUS
 10
40.0950837505
 20
11.893699529
 11
38.7990401161
 21
11.893699529
  0
LINE
  5
2A3
100
AcDbEntity
  8
0
100
AcDbLine
 62
7
  6
CONTINUOUS
 10
40.3201860857
 20
12.1638222955
 11
40.0950837505
 21
12.1638222955
  0
LINE
  5
2A4
100
AcDbEntity
  8
DRAFT
100
AcDbLine
 62
7
  6
CONTINUOUS
 10
33.0767723099
 20
12.2633752006
 11
30.0213079222
 21
12.2633752006
  0
LINE
  5
2A5
100
AcDbEntity
  8
DRAFT
100
AcDbLine
 62
7
  6
CONTINUOUS
 10
13.0213079222
 20
12.2633752006
 11
16.0767723099
 21
12.2633752006
  0
LINE
  5
2A6
100
AcDbEntity
  8
RACCORDO
100
AcDbLine
 62
253
  6
CONTINUOUS
 10
13.0403139128
 20
12.2823811913
 11
16.0577663193
 21
12.2823811913
  0
LINE
  5
2A7
100
AcDbEntity
  8
RACCORDO
100
AcDbLine
 62
253
  6
CONTINUOUS
 10
30.0403139128
 20
12.2823811913
 11
33.0577663193
 21
12.2823811913
  0
LINE
  5
2A8
100
AcDbEntity
  8
0
100
AcDbLine
 62
7
  6
CONTINUOUS
 10
29.2973281161
 20
11.9413783945
 11
27.6650481161
 21
12.0539813945
  0
LINE
  5
2A9
100
AcDbEntity
  8
0
100
AcDbLine
 62
7
  6
CONTINUOUS
 10
26.7975921161
 20
11.6679043945
 11
29.2973281161
 21
11.4421923945
  0
LINE
  5
2AA
100
AcDbEntity
  8
0
100
AcDbLine
 62
7
  6
CONTINUOUS
 10
26.7975921161
 20
9.9244273945
 11
28.5182381161
 21
9.4333763945
  0
LINE
  5
2AB
100
AcDbEntity
  8
0
100
AcDbLine
 62
7
  6
CONTINUOUS
 10
29.2973281161
 20
9.6423483945
 11
26.7975921161
 21
10.4458633945
  0
LINE
  5
2AC
100
AcDbEntity
  8
RACCORDO
100
AcDbLine
 62
253
  6
CONTINUOUS
 10
8.0075392957
 20
5.8159400318
 11
8.0588951277
 21
5.9701328188
  0
LINE
  5
2AD
100
AcDbEntity
  8
RACCORDO
100
AcDbLine
 62
253
  6
CONTINUOUS
 10
8.3074935531
 20
5.5163510181
 11
8.3584879156
 21
5.6694585146
  0
LINE
  5
2AE
100
AcDbEntity
  8
0
100
AcDbLine
 62
7
  6
CONTINUOUS
 10
8.7990401161
 20
27.5899413945
 11
10.8490411161
 21
28.3025393945
  0
LINE
  5
2AF
100
AcDbEntity
  8
0
100
AcDbLine
 62
7
  6
CONTINUOUS
 10
9.2335261161
 20
28.1804943945
 11
8.7990401161
 21
28.0327593945
  0
LINE
  5
2B0
100
AcDbEntity
  8
0
100
AcDbLine
 62
7
  6
CONTINUOUS
 10
10.4571911161
 20
28.5750383945
 11
9.5742031161
 21
28.2912763945
  0
LINE
  5
2B1
100
AcDbEntity
  8
0
100
AcDbLine
 62
7
  6
CONTINUOUS
 10
16.8007521161
 20
29.4670933945
 11
19.3004881161
 21
30.2340743945
  0
LINE
  5
2B2
100
AcDbEntity
  8
0
100
AcDbLine
 62
7
  6
CONTINUOUS
 10
28.7982921161
 20
15.4300013945
 11
29.2973281161
 21
15.5651733945
  0
LINE
  5
2B3
100
AcDbEntity
  8
0
100
AcDbLine
 62
7
  6
CONTINUOUS
 10
27.4844561161
 20
15.0859503945
 11
28.4121401161
 21
15.3257213945
  0
LINE
  5
2B4
100
AcDbEntity
  8
0
100
AcDbLine
 62
7
  6
CONTINUOUS
 10
29.2973281161
 20
13.9773563945
 11
26.7975921161
 21
13.7436033945
  0
LINE
  5
2B5
100
AcDbEntity
  8
0
100
AcDbLine
 62
7
  6
CONTINUOUS
 10
27.6718521161
 20
13.3597003945
 11
29.2973281161
 21
13.4669043945
  0
LINE
  5
2B6
100
AcDbEntity
  8
RACCORDO
100
AcDbLine
 62
253
  6
CONTINUOUS
 10
13.0403139128
 20
13.2998335977
 11
16.0577663193
 21
13.2998335977
  0
LINE
  5
2B7
100
AcDbEntity
  8
RACCORDO
100
AcDbLine
 62
253
  6
CONTINUOUS
 10
30.0403139128
 20
13.2998335977
 11
33.0577663193
 21
13.2998335977
  0
LINE
  5
2B8
100
AcDbEntity
  8
DRAFT
100
AcDbLine
 62
7
  6
CONTINUOUS
 10
33.0771422284
 20
13.3192095069
 11
30.0209380037
 21
13.3192095069
  0
LINE
  5
2B9
100
AcDbEntity
  8
DRAFT
100
AcDbLine
 62
7
  6
CONTINUOUS
 10
13.0209380037
 20
13.3192095069
 11
16.0771422284
 21
13.3192095069
  0
LINE
  5
2BA
100
AcDbEntity
  8
0
100
AcDbLine
 62
7
  6
CONTINUOUS
 10
39.0609773767
 20
13.6467691682
 11
38.8263252151
 21
13.6467691682
  0
LINE
  5
2BB
100
AcDbEntity
  8
0
100
AcDbLine
 62
7
  6
CONTINUOUS
 10
35.2490391161
 20
13.9575373945
 11
37.2990401161
 21
13.9575373945
  0
LINE
  5
2BC
100
AcDbEntity
  8
0
100
AcDbLine
 62
7
  6
CONTINUOUS
 10
37.2990401161
 20
14.3692653945
 11
35.5833281161
 21
14.3692653945
  0
LINE
  5
2BD
100
AcDbEntity
  8
DRAFT
100
AcDbLine
 62
7
  6
CONTINUOUS
 10
21.5876419183
 20
2.8643570606
 11
21.5588662266
 21
2.9219128274
  0
LINE
  5
2BE
100
AcDbEntity
  8
RACCORDO
100
AcDbLine
 62
253
  6
CONTINUOUS
 10
8.0588951277
 20
39.6120819702
 11
8.0075392957
 21
39.7662747572
  0
LINE
  5
2BF
100
AcDbEntity
  8
RACCORDO
100
AcDbLine
 62
253
  6
CONTINUOUS
 10
8.3584879156
 20
39.9127562744
 11
8.3074935531
 21
40.0658637709
  0
LINE
  5
2C0
100
AcDbEntity
  8
RACCORDO
100
AcDbLine
 62
253
  6
CONTINUOUS
 10
15.2938949864
 20
43.2418070064
 11
15.2938949864
 21
40.2655896779
  0
LINE
  5
2C1
100
AcDbEntity
  8
RACCORDO
100
AcDbLine
 62
253
  6
CONTINUOUS
 10
15.2938949864
 20
5.3166251111
 11
15.2938949864
 21
2.3404077826
  0
LINE
  5
2C2
100
AcDbEntity
  8
RACCORDO
100
AcDbLine
 62
253
  6
CONTINUOUS
 10
15.593849295
 20
43.2572549476
 11
15.593849295
 21
40.2655927303
  0
LINE
  5
2C3
100
AcDbEntity
  8
RACCORDO
100
AcDbLine
 62
253
  6
CONTINUOUS
 10
15.593849295
 20
5.3166220587
 11
15.593849295
 21
2.3249598413
  0
LINE
  5
2C4
100
AcDbEntity
  8
RACCORDO
100
AcDbLine
 62
253
  6
CONTINUOUS
 10
15.8042309371
 20
2.3249598413
 11
15.8042309371
 21
5.3166220587
  0
LINE
  5
2C5
100
AcDbEntity
  8
RACCORDO
100
AcDbLine
 62
253
  6
CONTINUOUS
 10
15.8042309371
 20
40.2655927303
 11
15.8042309371
 21
43.2572549476
  0
LINE
  5
2C6
100
AcDbEntity
  8
RACCORDO
100
AcDbLine
 62
253
  6
CONTINUOUS
 10
16.1041852457
 20
2.3404077826
 11
16.1041852457
 21
5.3166251111
  0
LINE
  5
2C7
100
AcDbEntity
  8
RACCORDO
100
AcDbLine
 62
253
  6
CONTINUOUS
 10
16.1041852457
 20
40.2655896779
 11
16.1041852457
 21
43.2418070064
  0
LINE
  5
2C8
100
AcDbEntity
  8
0
100
AcDbLine
 62
7
  6
CONTINUOUS
 10
16.8007521161
 20
36.3996963945
 11
16.8007521161
 21
35.9398663945
  0
LINE
  5
2C9
100
AcDbEntity
  8
0
100
AcDbLine
 62
7
  6
CONTINUOUS
 10
16.8007521161
 20
34.9427123945
 11
16.8007521161
 21
34.4209193945
  0
LINE
  5
2CA
100
AcDbEntity
  8
0
100
AcDbLine
 62
7
  6
CONTINUOUS
 10
16.8007521161
 20
34.1400223945
 11
16.8007521161
 21
33.6408363945
  0
LINE
  5
2CB
100
AcDbEntity
  8
0
100
AcDbLine
 62
7
  6
CONTINUOUS
 10
16.8007521161
 20
32.9161073945
 11
16.8007521161
 21
32.8429253945
  0
LINE
  5
2CC
100
AcDbEntity
  8
0
100
AcDbLine
 62
7
  6
CONTINUOUS
 10
16.8007521161
 20
32.1153103945
 11
16.8007521161
 21
31.6048583945
  0
LINE
  5
2CD
100
AcDbEntity
  8
0
100
AcDbLine
 62
7
  6
CONTINUOUS
 10
16.8007521161
 20
31.5229223945
 11
16.8007521161
 21
31.0067913945
  0
LINE
  5
2CE
100
AcDbEntity
  8
0
100
AcDbLine
 62
7
  6
CONTINUOUS
 10
16.8007521161
 20
30.0170413945
 11
16.8007521161
 21
29.4670933945
  0
LINE
  5
2CF
100
AcDbEntity
  8
0
100
AcDbLine
 62
7
  6
CONTINUOUS
 10
16.8007525853
 20
29.3138699173
 11
16.8007525853
 21
28.7941765758
  0
LINE
  5
2D0
100
AcDbEntity
  8
0
100
AcDbLine
 62
7
  6
CONTINUOUS
 10
16.8007525853
 20
27.995122757
 11
16.8007525853
 21
27.4932186587
  0
LINE
  5
2D1
100
AcDbEntity
  8
RACCORDO
100
AcDbLine
 62
7
  6
CONTINUOUS
 10
8.3564075986
 20
2.4972022464
 11
8.3041852457
 21
2.3404077826
  0
LINE
  5
2D2
100
AcDbEntity
  8
DRAFT
100
AcDbLine
 62
7
  6
CONTINUOUS
 10
45.4490401161
 20
15.2911073945
 11
44.0490401161
 21
15.2911073945
  0
LINE
  5
2D3
100
AcDbEntity
  8
DRAFT
100
AcDbLine
 62
7
  6
CONTINUOUS
 10
0.6490401161
 20
15.2911073945
 11
2.0490401161
 21
15.2911073945
  0
LINE
  5
2D4
100
AcDbEntity
  8
0
100
AcDbLine
 62
7
  6
CONTINUOUS
 10
35.2490391161
 20
15.3970813945
 11
36.8735681161
 21
15.3970813945
  0
LINE
  5
2D5
100
AcDbEntity
  8
0
100
AcDbLine
 62
7
  6
CONTINUOUS
 10
37.2990401161
 20
15.8088093945
 11
35.2490391161
 21
15.8088093945
  0
LINE
  5
2D6
100
AcDbEntity
  8
0
100
AcDbLine
 62
7
  6
CONTINUOUS
 10
26.8267972777
 20
16.2683448717
 11
29.2973276468
 21
16.2683448717
  0
LINE
  5
2D7
100
AcDbEntity
  8
0
100
AcDbLine
 62
7
  6
CONTINUOUS
 10
38.8263252151
 20
12.6522260926
 11
39.8536103737
 21
12.4585016988
  0
LINE
  5
2D8
100
AcDbEntity
  8
0
100
AcDbLine
 62
7
  6
CONTINUOUS
 10
39.5984944474
 20
12.7409027837
 11
39.0609773767
 21
12.8486789487
  0
LINE
  5
2D9
100
AcDbEntity
  8
0
100
AcDbLine
 62
7
  6
CONTINUOUS
 10
28.4121401161
 20
14.8261413945
 11
27.4844561161
 21
15.0859503945
  0
LINE
  5
2DA
100
AcDbEntity
  8
0
100
AcDbLine
 62
7
  6
CONTINUOUS
 10
29.2973281161
 20
14.5754233945
 11
28.7982921161
 21
14.7194063945
  0
LINE
  5
2DB
100
AcDbEntity
  8
0
100
AcDbLine
 62
7
  6
CONTINUOUS
 10
26.7975921161
 20
14.8433683945
 11
29.2973281161
 21
14.0592923945
  0
LINE
  5
2DC
100
AcDbEntity
  8
0
100
AcDbLine
 62
7
  6
CONTINUOUS
 10
26.7975921161
 20
13.2273403945
 11
28.1854531161
 21
12.7055473945
  0
LINE
  5
2DD
100
AcDbEntity
  8
0
100
AcDbLine
 62
7
  6
CONTINUOUS
 10
29.2973281161
 20
12.7392893945
 11
27.6718521161
 21
13.3597003945
  0
LINE
  5
2DE
100
AcDbEntity
  8
RACCORDO
100
AcDbLine
 62
7
  6
CONTINUOUS
 10
8.3564075986
 20
43.0850125426
 11
8.3041852457
 21
43.2418070064
  0
LINE
  5
2DF
100
AcDbEntity
  8
0
100
AcDbLine
 62
7
  6
CONTINUOUS
 10
17.2997881161
 20
30.8628083945
 11
17.2997881161
 21
30.1522133945
  0
LINE
  5
2E0
100
AcDbEntity
  8
0
100
AcDbLine
 62
7
  6
CONTINUOUS
 10
17.6859401161
 20
30.2564933945
 11
17.6859401161
 21
30.7560733945
  0
LINE
  5
2E1
100
AcDbEntity
  8
0
100
AcDbLine
 62
7
  6
CONTINUOUS
 10
17.7790110046
 20
28.7941765758
 11
17.7790110046
 21
28.514403703
  0
LINE
  5
2E2
100
AcDbEntity
  8
0
100
AcDbLine
 62
7
  6
CONTINUOUS
 10
18.1884072887
 20
28.513278988
 11
18.1884072887
 21
28.8114784425
  0
LINE
  5
2E3
100
AcDbEntity
  8
DRAFT
100
AcDbLine
 62
7
  6
CONTINUOUS
 10
21.5563955708
 20
43.0850125426
 11
21.5870702546
 21
43.2692243462
  0
LINE
  5
2E4
100
AcDbEntity
  8
0
100
AcDbLine
 62
7
  6
CONTINUOUS
 10
27.9096729434
 20
16.7707363465
 11
27.2234467911
 21
16.7707363465
  0
LINE
  5
2E5
100
AcDbEntity
  8
0
100
AcDbLine
 62
7
  6
CONTINUOUS
 10
29.2973276468
 20
16.7880382132
 11
28.3190692275
 21
16.7880382132
  0
LINE
  5
2E6
100
AcDbEntity
  8
0
100
AcDbLine
 62
7
  6
CONTINUOUS
 10
28.1304732562
 20
17.6098487668
 11
28.1157019983
 21
17.6098487668
  0
LINE
  5
2E7
100
AcDbEntity
  8
RACCORDO
100
AcDbLine
 62
253
  6
CONTINUOUS
 10
45.4490401161
 20
18.1662496561
 11
44.0490401161
 21
18.1662496561
  0
LINE
  5
2E8
100
AcDbEntity
  8
RACCORDO
100
AcDbLine
 62
253
  6
CONTINUOUS
 10
2.0490401161
 20
18.1662496561
 11
0.6490401161
 21
18.1662496561
  0
LINE
  5
2E9
100
AcDbEntity
  8
RACCORDO
100
AcDbLine
 62
253
  6
CONTINUOUS
 10
45.4418281037
 20
18.6586535326
 11
44.0454343845
 21
18.6586535326
  0
LINE
  5
2EA
100
AcDbEntity
  8
RACCORDO
100
AcDbLine
 62
253
  6
CONTINUOUS
 10
2.0526458476
 20
18.6586535326
 11
0.6562521284
 21
18.6586535326
  0
LINE
  5
2EB
100
AcDbEntity
  8
0
100
AcDbLine
 62
7
  6
CONTINUOUS
 10
36.5238771161
 20
12.4441643945
 11
35.6407731161
 21
12.7481403945
  0
LINE
  5
2EC
100
AcDbEntity
  8
0
100
AcDbLine
 62
7
  6
CONTINUOUS
 10
37.2990401161
 20
12.1773163945
 11
36.8645541161
 21
12.3306053945
  0
LINE
  5
2ED
100
AcDbEntity
  8
0
100
AcDbLine
 62
7
  6
CONTINUOUS
 10
35.2490391161
 20
12.4981663945
 11
37.2990401161
 21
11.7571023945
  0
LINE
  5
2EE
100
AcDbEntity
  8
DRAFT
100
AcDbLine
 62
7
  6
CONTINUOUS
 10
21.5563955708
 20
2.4972022464
 11
21.5870702546
 21
2.3129904428
  0
LINE
  5
2EF
100
AcDbEntity
  8
0
100
AcDbLine
 62
7
  6
CONTINUOUS
 10
19.3004881161
 20
30.2340743945
 11
19.3004881161
 21
30.7388463945
  0
LINE
  5
2F0
100
AcDbEntity
  8
0
100
AcDbLine
 62
7
  6
CONTINUOUS
 10
19.3004881161
 20
31.8386113945
 11
19.3004881161
 21
32.3548743945
  0
LINE
  5
2F1
100
AcDbEntity
  8
0
100
AcDbLine
 62
7
  6
CONTINUOUS
 10
19.3004881161
 20
33.3929493945
 11
19.3004881161
 21
33.9143103945
  0
LINE
  5
2F2
100
AcDbEntity
  8
0
100
AcDbLine
 62
7
  6
CONTINUOUS
 10
19.3004881161
 20
35.1363513945
 11
19.3004881161
 21
35.6577873945
  0
LINE
  5
2F3
100
AcDbEntity
  8
0
100
AcDbLine
 62
7
  6
CONTINUOUS
 10
19.3004881161
 20
36.6253333945
 11
19.3004881161
 21
37.1921613945
  0
LINE
  5
2F4
100
AcDbEntity
  8
0
100
AcDbLine
 62
7
  6
CONTINUOUS
 10
19.3006371161
 20
34.4209193945
 11
19.3006371161
 21
34.9427123945
  0
LINE
  5
2F5
100
AcDbEntity
  8
RACCORDO
100
AcDbLine
 62
7
  6
CONTINUOUS
 10
20.4490401161
 20
20.3539967296
 11
20.4490401161
 21
21.7201613166
  0
LINE
  5
2F6
100
AcDbEntity
  8
DRAFT
100
AcDbLine
 62
7
  6
CONTINUOUS
 10
20.4490401161
 20
21.7201613166
 11
20.4490401161
 21
23.8620534724
  0
LINE
  5
2F7
100
AcDbEntity
  8
RACCORDO
100
AcDbLine
 62
7
  6
CONTINUOUS
 10
20.4490401161
 20
23.8620534724
 11
20.4490401161
 21
25.2282180594
  0
LINE
  5
2F8
100
AcDbEntity
  8
RACCORDO
100
AcDbLine
 62
7
  6
CONTINUOUS
 10
25.6490401161
 20
20.3539967296
 11
24.4490401161
 21
20.2911073945
  0
LINE
  5
2F9
100
AcDbEntity
  8
RACCORDO
100
AcDbLine
 62
253
  6
CONTINUOUS
 10
25.6490401161
 20
20.8542255817
 11
24.4490401161
 21
20.7913362466
  0
LINE
  5
2FA
100
AcDbEntity
  8
RACCORDO
100
AcDbLine
 62
253
  6
CONTINUOUS
 10
45.3864318687
 20
19.2182533336
 11
44.0177383764
 21
19.2182533336
  0
LINE
  5
2FB
100
AcDbEntity
  8
RACCORDO
100
AcDbLine
 62
253
  6
CONTINUOUS
 10
2.0803418557
 20
19.2182533336
 11
0.7116483634
 21
19.2182533336
  0
LINE
  5
2FC
100
AcDbEntity
  8
RACCORDO
100
AcDbLine
 62
253
  6
CONTINUOUS
 10
45.3792198563
 20
19.7106572101
 11
44.0141326449
 21
19.7106572101
  0
LINE
  5
2FD
100
AcDbEntity
  8
RACCORDO
100
AcDbLine
 62
253
  6
CONTINUOUS
 10
2.0839475872
 20
19.7106572101
 11
0.7188603758
 21
19.7106572101
  0
LINE
  5
2FE
100
AcDbEntity
  8
RACCORDO
100
AcDbLine
 62
7
  6
CONTINUOUS
 10
21.6490401161
 20
20.2911073945
 11
20.4490401161
 21
20.3539967296
  0
LINE
  5
2FF
100
AcDbEntity
  8
RACCORDO
100
AcDbLine
 62
253
  6
CONTINUOUS
 10
21.6490401161
 20
20.7913362466
 11
20.4490401161
 21
20.8542255817
  0
LINE
  5
300
100
AcDbEntity
  8
DRAFT
100
AcDbLine
 62
7
  6
CONTINUOUS
 10
22.9761076004
 20
42.7911073945
 11
22.9750985697
 21
43.3411073945
  0
LINE
  5
301
100
AcDbEntity
  8
DRAFT
100
AcDbLine
 62
7
  6
CONTINUOUS
 10
23.1219726317
 20
2.7911073945
 11
23.1229816624
 21
2.2411073945
  0
LINE
  5
302
100
AcDbEntity
  8
DRAFT
100
AcDbLine
 62
7
  6
CONTINUOUS
 10
21.5870702546
 20
43.3411073945
 11
21.5875747315
 21
42.7911073945
  0
LINE
  5
303
100
AcDbEntity
  8
RACCORDO
100
AcDbLine
 62
7
  6
CONTINUOUS
 10
21.6490401161
 20
20.2911073945
 11
21.6490401161
 21
21.7411073945
  0
LINE
  5
304
100
AcDbEntity
  8
DRAFT
100
AcDbLine
 62
7
  6
CONTINUOUS
 10
21.6490401161
 20
21.7411073945
 11
21.6490401161
 21
23.8411073945
  0
LINE
  5
305
100
AcDbEntity
  8
RACCORDO
100
AcDbLine
 62
7
  6
CONTINUOUS
 10
21.6490401161
 20
23.8411073945
 11
21.6490401161
 21
25.2911073945
  0
LINE
  5
306
100
AcDbEntity
  8
RACCORDO
100
AcDbLine
 62
7
  6
CONTINUOUS
 10
22.9750985697
 20
1.4133566061
 11
22.9750985697
 21
2.2411073945
  0
LINE
  5
307
100
AcDbEntity
  8
RACCORDO
100
AcDbLine
 62
7
  6
CONTINUOUS
 10
22.9750985697
 20
43.3411073945
 11
22.9750985697
 21
44.1688581829
  0
LINE
  5
308
100
AcDbEntity
  8
RACCORDO
100
AcDbLine
 62
7
  6
CONTINUOUS
 10
23.1229816624
 20
44.1688581829
 11
23.1229816624
 21
43.3411073945
  0
LINE
  5
309
100
AcDbEntity
  8
RACCORDO
100
AcDbLine
 62
7
  6
CONTINUOUS
 10
23.1229816624
 20
2.2411073945
 11
23.1229816624
 21
1.4133566061
  0
LINE
  5
30A
100
AcDbEntity
  8
DRAFT
100
AcDbLine
 62
7
  6
CONTINUOUS
 10
21.5876419183
 20
2.8643570606
 11
21.5870702546
 21
2.2411073945
  0
LINE
  5
30B
100
AcDbEntity
  8
DRAFT
100
AcDbLine
 62
7
  6
CONTINUOUS
 10
22.9762419843
 20
2.8643570606
 11
22.9750985697
 21
2.2411073945
  0
LINE
  5
30C
100
AcDbEntity
  8
DRAFT
100
AcDbLine
 62
7
  6
CONTINUOUS
 10
23.1218382478
 20
42.7178577284
 11
23.1229816624
 21
43.3411073945
  0
LINE
  5
30D
100
AcDbEntity
  8
RACCORDO
100
AcDbLine
 62
253
  6
CONTINUOUS
 10
15.8075392957
 20
5.8159400318
 11
15.8588951277
 21
5.9701328188
  0
LINE
  5
30E
100
AcDbEntity
  8
RACCORDO
100
AcDbLine
 62
253
  6
CONTINUOUS
 10
16.1074935531
 20
5.5163510181
 11
16.1584879156
 21
5.6694585146
  0
LINE
  5
30F
100
AcDbEntity
  8
RACCORDO
100
AcDbLine
 62
7
  6
CONTINUOUS
 10
16.1564075986
 20
2.4972022464
 11
16.1041852457
 21
2.3404077826
  0
LINE
  5
310
100
AcDbEntity
  8
RACCORDO
100
AcDbLine
 62
7
  6
CONTINUOUS
 10
29.9416726335
 20
43.0850125426
 11
29.9938949864
 21
43.2418070064
  0
LINE
  5
311
100
AcDbEntity
  8
RACCORDO
100
AcDbLine
 62
7
  6
CONTINUOUS
 10
30.0403139128
 20
32.2823811913
 11
30.0209380037
 21
32.2630052821
  0
LINE
  5
312
100
AcDbEntity
  8
RACCORDO
100
AcDbLine
 62
7
  6
CONTINUOUS
 10
33.0577663193
 20
33.2998335977
 11
33.0767723099
 21
33.3188395884
  0
LINE
  5
313
100
AcDbEntity
  8
RACCORDO
100
AcDbLine
 62
7
  6
CONTINUOUS
 10
4.3490401161
 20
20.3539967296
 11
3.1490401161
 21
20.2911073945
  0
LINE
  5
314
100
AcDbEntity
  8
RACCORDO
100
AcDbLine
 62
253
  6
CONTINUOUS
 10
4.3490401161
 20
20.8542255817
 11
3.1490401161
 21
20.7913362466
  0
LINE
  5
315
100
AcDbEntity
  8
RACCORDO
100
AcDbLine
 62
253
  6
CONTINUOUS
 10
42.9490401161
 20
21.4411530859
 11
41.7490401161
 21
21.420207008
  0
LINE
  5
316
100
AcDbEntity
  8
RACCORDO
100
AcDbLine
 62
7
  6
CONTINUOUS
 10
42.9490401161
 20
21.7411073945
 11
41.7490401161
 21
21.7201613166
  0
LINE
  5
317
100
AcDbEntity
  8
RACCORDO
100
AcDbLine
 62
253
  6
CONTINUOUS
 10
21.6490401161
 20
21.4411530859
 11
20.4490401161
 21
21.420207008
  0
LINE
  5
318
100
AcDbEntity
  8
RACCORDO
100
AcDbLine
 62
7
  6
CONTINUOUS
 10
21.6490401161
 20
21.7411073945
 11
20.4490401161
 21
21.7201613166
  0
LINE
  5
319
100
AcDbEntity
  8
RACCORDO
100
AcDbLine
 62
253
  6
CONTINUOUS
 10
4.3490401161
 20
21.420207008
 11
3.1490401161
 21
21.4411530859
  0
LINE
  5
31A
100
AcDbEntity
  8
RACCORDO
100
AcDbLine
 62
7
  6
CONTINUOUS
 10
4.3490401161
 20
21.7201613166
 11
3.1490401161
 21
21.7411073945
  0
LINE
  5
31B
100
AcDbEntity
  8
RACCORDO
100
AcDbLine
 62
253
  6
CONTINUOUS
 10
25.6490401161
 20
21.420207008
 11
24.4490401161
 21
21.4411530859
  0
LINE
  5
31C
100
AcDbEntity
  8
RACCORDO
100
AcDbLine
 62
7
  6
CONTINUOUS
 10
25.6490401161
 20
21.7201613166
 11
24.4490401161
 21
21.7411073945
  0
LINE
  5
31D
100
AcDbEntity
  8
RACCORDO
100
AcDbLine
 62
7
  6
CONTINUOUS
 10
42.9490401161
 20
20.2911073945
 11
41.7490401161
 21
20.3539967296
  0
LINE
  5
31E
100
AcDbEntity
  8
RACCORDO
100
AcDbLine
 62
253
  6
CONTINUOUS
 10
42.9490401161
 20
20.7913362466
 11
41.7490401161
 21
20.8542255817
  0
LINE
  5
31F
100
AcDbEntity
  8
0
100
AcDbLine
 62
7
  6
CONTINUOUS
 10
36.5238771161
 20
16.7032403945
 11
35.6408891161
 21
17.0071763945
  0
LINE
  5
320
100
AcDbEntity
  8
0
100
AcDbLine
 62
7
  6
CONTINUOUS
 10
37.2990401161
 20
16.4363153945
 11
36.8645541161
 21
16.5896813945
  0
LINE
  5
321
100
AcDbEntity
  8
0
100
AcDbLine
 62
7
  6
CONTINUOUS
 10
35.2490391161
 20
16.7572423945
 11
37.2990401161
 21
16.0161013945
  0
LINE
  5
322
100
AcDbEntity
  8
0
100
AcDbLine
 62
7
  6
CONTINUOUS
 10
6.0029964816
 20
34.5602751515
 11
6.9047699344
 21
33.9340813897
  0
LINE
  5
323
100
AcDbEntity
  8
0
100
AcDbLine
 62
7
  6
CONTINUOUS
 10
40.0950837505
 20
11.0219396375
 11
39.1933102977
 21
11.6481333993
  0
LINE
  5
324
100
AcDbEntity
  8
0
100
AcDbLine
 62
7
  6
CONTINUOUS
 10
38.7990401161
 20
11.6931537412
 11
40.0950837505
 21
10.7804662011
  0
LINE
  5
325
100
AcDbEntity
  8
0
100
AcDbLine
 62
7
  6
CONTINUOUS
 10
7.2990401161
 20
33.8890610478
 11
6.0029964816
 21
34.8017485879
  0
LINE
  5
326
100
AcDbEntity
  8
RACCORDO
100
AcDbLine
 62
7
  6
CONTINUOUS
 10
30.0403139128
 20
13.2998335977
 11
30.0209380037
 21
13.3192095069
  0
LINE
  5
327
100
AcDbEntity
  8
RACCORDO
100
AcDbLine
 62
7
  6
CONTINUOUS
 10
33.0577663193
 20
12.2823811913
 11
33.0767723099
 21
12.2633752006
  0
LINE
  5
328
100
AcDbEntity
  8
RACCORDO
100
AcDbLine
 62
253
  6
CONTINUOUS
 10
15.8588951277
 20
39.6120819702
 11
15.8075392957
 21
39.7662747572
  0
LINE
  5
329
100
AcDbEntity
  8
RACCORDO
100
AcDbLine
 62
253
  6
CONTINUOUS
 10
16.1584879156
 20
39.9127562744
 11
16.1074935531
 21
40.0658637709
  0
LINE
  5
32A
100
AcDbEntity
  8
RACCORDO
100
AcDbLine
 62
7
  6
CONTINUOUS
 10
16.1564075986
 20
43.0850125426
 11
16.1041852457
 21
43.2418070064
  0
LINE
  5
32B
100
AcDbEntity
  8
RACCORDO
100
AcDbLine
 62
7
  6
CONTINUOUS
 10
29.9416726335
 20
2.4972022464
 11
29.9938949864
 21
2.3404077826
  0
LINE
  5
32C
100
AcDbEntity
  8
DRAFT
100
AcDbLine
 62
7
  6
CONTINUOUS
 10
24.5110099775
 20
2.2411073945
 11
24.5105055006
 21
2.7911073945
  0
LINE
  5
32D
100
AcDbEntity
  8
DRAFT
100
AcDbLine
 62
7
  6
CONTINUOUS
 10
24.4490401161
 20
23.8411073945
 11
24.4490401161
 21
21.7411073945
  0
LINE
  5
32E
100
AcDbEntity
  8
RACCORDO
100
AcDbLine
 62
7
  6
CONTINUOUS
 10
24.4490401161
 20
20.2911073945
 11
24.4490401161
 21
21.7411073945
  0
LINE
  5
32F
100
AcDbEntity
  8
RACCORDO
100
AcDbLine
 62
7
  6
CONTINUOUS
 10
24.4490401161
 20
23.8411073945
 11
24.4490401161
 21
25.2911073945
  0
LINE
  5
330
100
AcDbEntity
  8
DRAFT
100
AcDbLine
 62
7
  6
CONTINUOUS
 10
24.5104383138
 20
42.7178577284
 11
24.5110099775
 21
43.3411073945
  0
LINE
  5
331
100
AcDbEntity
  8
RACCORDO
100
AcDbLine
 62
253
  6
CONTINUOUS
 10
29.990586679
 20
40.0658637709
 11
29.9395923165
 21
39.9127562744
  0
LINE
  5
332
100
AcDbEntity
  8
RACCORDO
100
AcDbLine
 62
253
  6
CONTINUOUS
 10
30.2905409365
 20
39.7662747572
 11
30.2391851044
 21
39.6120819702
  0
LINE
  5
333
100
AcDbEntity
  8
RACCORDO
100
AcDbLine
 62
7
  6
CONTINUOUS
 10
13.0403139128
 20
12.2823811913
 11
13.0213079222
 21
12.2633752006
  0
LINE
  5
334
100
AcDbEntity
  8
RACCORDO
100
AcDbLine
 62
7
  6
CONTINUOUS
 10
16.0577663193
 20
13.2998335977
 11
16.0771422284
 21
13.3192095069
  0
LINE
  5
335
100
AcDbEntity
  8
RACCORDO
100
AcDbLine
 62
253
  6
CONTINUOUS
 10
41.7490401161
 20
24.7279892073
 11
42.9490401161
 21
24.7908785424
  0
LINE
  5
336
100
AcDbEntity
  8
RACCORDO
100
AcDbLine
 62
7
  6
CONTINUOUS
 10
41.7490401161
 20
25.2282180594
 11
42.9490401161
 21
25.2911073945
  0
LINE
  5
337
100
AcDbEntity
  8
RACCORDO
100
AcDbLine
 62
253
  6
CONTINUOUS
 10
20.4490401161
 20
24.7279892073
 11
21.6490401161
 21
24.7908785424
  0
LINE
  5
338
100
AcDbEntity
  8
RACCORDO
100
AcDbLine
 62
7
  6
CONTINUOUS
 10
24.4490401161
 20
23.8411073945
 11
25.6490401161
 21
23.8620534724
  0
LINE
  5
339
100
AcDbEntity
  8
RACCORDO
100
AcDbLine
 62
253
  6
CONTINUOUS
 10
24.4490401161
 20
24.141061703
 11
25.6490401161
 21
24.162007781
  0
LINE
  5
33A
100
AcDbEntity
  8
RACCORDO
100
AcDbLine
 62
7
  6
CONTINUOUS
 10
3.1490401161
 20
23.8411073945
 11
4.3490401161
 21
23.8620534724
  0
LINE
  5
33B
100
AcDbEntity
  8
RACCORDO
100
AcDbLine
 62
253
  6
CONTINUOUS
 10
3.1490401161
 20
24.141061703
 11
4.3490401161
 21
24.162007781
  0
LINE
  5
33C
100
AcDbEntity
  8
RACCORDO
100
AcDbLine
 62
7
  6
CONTINUOUS
 10
20.4490401161
 20
23.8620534724
 11
21.6490401161
 21
23.8411073945
  0
LINE
  5
33D
100
AcDbEntity
  8
RACCORDO
100
AcDbLine
 62
253
  6
CONTINUOUS
 10
20.4490401161
 20
24.162007781
 11
21.6490401161
 21
24.141061703
  0
LINE
  5
33E
100
AcDbEntity
  8
RACCORDO
100
AcDbLine
 62
7
  6
CONTINUOUS
 10
41.7490401161
 20
23.8620534724
 11
42.9490401161
 21
23.8411073945
  0
LINE
  5
33F
100
AcDbEntity
  8
RACCORDO
100
AcDbLine
 62
253
  6
CONTINUOUS
 10
41.7490401161
 20
24.162007781
 11
42.9490401161
 21
24.141061703
  0
LINE
  5
340
100
AcDbEntity
  8
RACCORDO
100
AcDbLine
 62
253
  6
CONTINUOUS
 10
3.1490401161
 20
24.7908785424
 11
4.3490401161
 21
24.7279892073
  0
LINE
  5
341
100
AcDbEntity
  8
RACCORDO
100
AcDbLine
 62
7
  6
CONTINUOUS
 10
3.1490401161
 20
25.2911073945
 11
4.3490401161
 21
25.2282180594
  0
LINE
  5
342
100
AcDbEntity
  8
RACCORDO
100
AcDbLine
 62
253
  6
CONTINUOUS
 10
24.4490401161
 20
24.7908785424
 11
25.6490401161
 21
24.7279892073
  0
LINE
  5
343
100
AcDbEntity
  8
0
100
AcDbLine
 62
7
  6
CONTINUOUS
 10
9.5742031161
 20
28.8789743945
 11
10.4571911161
 21
28.5750383945
  0
LINE
  5
344
100
AcDbEntity
  8
0
100
AcDbLine
 62
7
  6
CONTINUOUS
 10
8.7990401161
 20
29.1458993945
 11
9.2335261161
 21
28.9925333945
  0
LINE
  5
345
100
AcDbEntity
  8
0
100
AcDbLine
 62
7
  6
CONTINUOUS
 10
10.8490411161
 20
28.8249723945
 11
8.7990401161
 21
29.5661133945
  0
LINE
  5
346
100
AcDbEntity
  8
RACCORDO
100
AcDbLine
 62
7
  6
CONTINUOUS
 10
13.0403139128
 20
33.2998335977
 11
13.0213079222
 21
33.3188395884
  0
LINE
  5
347
100
AcDbEntity
  8
RACCORDO
100
AcDbLine
 62
7
  6
CONTINUOUS
 10
16.0577663193
 20
32.2823811913
 11
16.0771422284
 21
32.2630052821
  0
LINE
  5
348
100
AcDbEntity
  8
RACCORDO
100
AcDbLine
 62
253
  6
CONTINUOUS
 10
29.9395923165
 20
5.6694585146
 11
29.990586679
 21
5.5163510181
  0
LINE
  5
349
100
AcDbEntity
  8
RACCORDO
100
AcDbLine
 62
253
  6
CONTINUOUS
 10
30.2391851044
 20
5.9701328188
 11
30.2905409365
 21
5.8159400318
  0
LINE
  5
34A
100
AcDbEntity
  8
RACCORDO
100
AcDbLine
 62
7
  6
CONTINUOUS
 10
25.6490401161
 20
25.2282180594
 11
25.6490401161
 21
23.8620534724
  0
LINE
  5
34B
100
AcDbEntity
  8
DRAFT
100
AcDbLine
 62
7
  6
CONTINUOUS
 10
25.6490401161
 20
23.8620534724
 11
25.6490401161
 21
21.7201613166
  0
LINE
  5
34C
100
AcDbEntity
  8
RACCORDO
100
AcDbLine
 62
7
  6
CONTINUOUS
 10
25.6490401161
 20
21.7201613166
 11
25.6490401161
 21
20.3539967296
  0
LINE
  5
34D
100
AcDbEntity
  8
0
100
AcDbLine
 62
7
  6
CONTINUOUS
 10
26.7974431161
 20
11.1612953945
 11
26.7974431161
 21
10.6395023945
  0
LINE
  5
34E
100
AcDbEntity
  8
0
100
AcDbLine
 62
7
  6
CONTINUOUS
 10
26.7975921161
 20
15.3481403945
 11
26.7975921161
 21
14.8433683945
  0
LINE
  5
34F
100
AcDbEntity
  8
0
100
AcDbLine
 62
7
  6
CONTINUOUS
 10
26.7975921161
 20
13.7436033945
 11
26.7975921161
 21
13.2273403945
  0
LINE
  5
350
100
AcDbEntity
  8
0
100
AcDbLine
 62
7
  6
CONTINUOUS
 10
26.7975921161
 20
12.1892653945
 11
26.7975921161
 21
11.6679043945
  0
LINE
  5
351
100
AcDbEntity
  8
0
100
AcDbLine
 62
7
  6
CONTINUOUS
 10
26.7975921161
 20
10.4458633945
 11
26.7975921161
 21
9.9244273945
  0
LINE
  5
352
100
AcDbEntity
  8
0
100
AcDbLine
 62
7
  6
CONTINUOUS
 10
26.7975921161
 20
8.9568813945
 11
26.7975921161
 21
8.3900533945
  0
LINE
  5
353
100
AcDbEntity
  8
RACCORDO
100
AcDbLine
 62
7
  6
CONTINUOUS
 10
20.4490401161
 20
25.2282180594
 11
21.6490401161
 21
25.2911073945
  0
LINE
  5
354
100
AcDbEntity
  8
RACCORDO
100
AcDbLine
 62
253
  6
CONTINUOUS
 10
0.7188603758
 20
25.8715575789
 11
2.0839475872
 21
25.8715575789
  0
LINE
  5
355
100
AcDbEntity
  8
RACCORDO
100
AcDbLine
 62
253
  6
CONTINUOUS
 10
44.0141326449
 20
25.8715575789
 11
45.3792198563
 21
25.8715575789
  0
LINE
  5
356
100
AcDbEntity
  8
RACCORDO
100
AcDbLine
 62
253
  6
CONTINUOUS
 10
0.7116483634
 20
26.3639614554
 11
2.0803418557
 21
26.3639614554
  0
LINE
  5
357
100
AcDbEntity
  8
RACCORDO
100
AcDbLine
 62
253
  6
CONTINUOUS
 10
44.0177383764
 20
26.3639614554
 11
45.3864318687
 21
26.3639614554
  0
LINE
  5
358
100
AcDbEntity
  8
RACCORDO
100
AcDbLine
 62
253
  6
CONTINUOUS
 10
0.6562521284
 20
26.9235612564
 11
2.0526458476
 21
26.9235612564
  0
LINE
  5
359
100
AcDbEntity
  8
RACCORDO
100
AcDbLine
 62
253
  6
CONTINUOUS
 10
44.0454343845
 20
26.9235612564
 11
45.4418281037
 21
26.9235612564
  0
LINE
  5
35A
100
AcDbEntity
  8
RACCORDO
100
AcDbLine
 62
7
  6
CONTINUOUS
 10
24.4490401161
 20
25.2911073945
 11
25.6490401161
 21
25.2282180594
  0
LINE
  5
35B
100
AcDbEntity
  8
0
100
AcDbLine
 62
7
  6
CONTINUOUS
 10
27.9096729434
 20
17.068935801
 11
27.9096729434
 21
16.7707363465
  0
LINE
  5
35C
100
AcDbEntity
  8
0
100
AcDbLine
 62
7
  6
CONTINUOUS
 10
28.3190692275
 20
16.7880382132
 11
28.3190692275
 21
17.0678110859
  0
LINE
  5
35D
100
AcDbEntity
  8
0
100
AcDbLine
 62
7
  6
CONTINUOUS
 10
28.4121401161
 20
15.3257213945
 11
28.4121401161
 21
14.8261413945
  0
LINE
  5
35E
100
AcDbEntity
  8
0
100
AcDbLine
 62
7
  6
CONTINUOUS
 10
28.7982921161
 20
14.7194063945
 11
28.7982921161
 21
15.4300013945
  0
LINE
  5
35F
100
AcDbEntity
  8
0
100
AcDbLine
 62
7
  6
CONTINUOUS
 10
29.2973281161
 20
9.1825183945
 11
29.2973281161
 21
9.6423483945
  0
LINE
  5
360
100
AcDbEntity
  8
0
100
AcDbLine
 62
7
  6
CONTINUOUS
 10
29.2973281161
 20
10.6395023945
 11
29.2973281161
 21
11.1612953945
  0
LINE
  5
361
100
AcDbEntity
  8
0
100
AcDbLine
 62
7
  6
CONTINUOUS
 10
29.2973281161
 20
11.4421923945
 11
29.2973281161
 21
11.9413783945
  0
LINE
  5
362
100
AcDbEntity
  8
0
100
AcDbLine
 62
7
  6
CONTINUOUS
 10
29.2973281161
 20
12.6661073945
 11
29.2973281161
 21
12.7392893945
  0
LINE
  5
363
100
AcDbEntity
  8
0
100
AcDbLine
 62
7
  6
CONTINUOUS
 10
29.2973281161
 20
13.4669043945
 11
29.2973281161
 21
13.9773563945
  0
LINE
  5
364
100
AcDbEntity
  8
0
100
AcDbLine
 62
7
  6
CONTINUOUS
 10
29.2973281161
 20
14.0592923945
 11
29.2973281161
 21
14.5754233945
  0
LINE
  5
365
100
AcDbEntity
  8
0
100
AcDbLine
 62
7
  6
CONTINUOUS
 10
29.2973281161
 20
15.5651733945
 11
29.2973281161
 21
16.1151213945
  0
LINE
  5
366
100
AcDbEntity
  8
0
100
AcDbLine
 62
7
  6
CONTINUOUS
 10
29.2973276468
 20
16.2683448717
 11
29.2973276468
 21
16.7880382132
  0
LINE
  5
367
100
AcDbEntity
  8
0
100
AcDbLine
 62
7
  6
CONTINUOUS
 10
29.2973276468
 20
17.587092032
 11
29.2973276468
 21
18.0889961303
  0
LINE
  5
368
100
AcDbEntity
  8
DRAFT
100
AcDbLine
 62
7
  6
CONTINUOUS
 10
24.5416846613
 20
2.4972022464
 11
24.5110099775
 21
2.3129904428
  0
LINE
  5
369
100
AcDbEntity
  8
RACCORDO
100
AcDbLine
 62
253
  6
CONTINUOUS
 10
0.6490401161
 20
27.4159651329
 11
2.0490401161
 21
27.4159651329
  0
LINE
  5
36A
100
AcDbEntity
  8
RACCORDO
100
AcDbLine
 62
253
  6
CONTINUOUS
 10
44.0490401161
 20
27.4159651329
 11
45.4490401161
 21
27.4159651329
  0
LINE
  5
36B
100
AcDbEntity
  8
0
100
AcDbLine
 62
7
  6
CONTINUOUS
 10
17.9676069759
 20
27.9723660222
 11
17.9823782338
 21
27.9723660222
  0
LINE
  5
36C
100
AcDbEntity
  8
0
100
AcDbLine
 62
7
  6
CONTINUOUS
 10
16.8007525853
 20
28.7941765758
 11
17.7790110046
 21
28.7941765758
  0
LINE
  5
36D
100
AcDbEntity
  8
0
100
AcDbLine
 62
7
  6
CONTINUOUS
 10
18.1884072887
 20
28.8114784425
 11
18.874633441
 21
28.8114784425
  0
LINE
  5
36E
100
AcDbEntity
  8
0
100
AcDbLine
 62
7
  6
CONTINUOUS
 10
19.2712829544
 20
29.3138699173
 11
16.8007525853
 21
29.3138699173
  0
LINE
  5
36F
100
AcDbEntity
  8
0
100
AcDbLine
 62
7
  6
CONTINUOUS
 10
17.6859401161
 20
30.7560733945
 11
18.6136241161
 21
30.4962643945
  0
LINE
  5
370
100
AcDbEntity
  8
0
100
AcDbLine
 62
7
  6
CONTINUOUS
 10
16.8007521161
 20
31.0067913945
 11
17.2997881161
 21
30.8628083945
  0
LINE
  5
371
100
AcDbEntity
  8
0
100
AcDbLine
 62
7
  6
CONTINUOUS
 10
19.3004881161
 20
30.7388463945
 11
16.8007521161
 21
31.5229223945
  0
LINE
  5
372
100
AcDbEntity
  8
0
100
AcDbLine
 62
7
  6
CONTINUOUS
 10
9.5742031161
 20
33.1380503945
 11
10.4573071161
 21
32.8340743945
  0
LINE
  5
373
100
AcDbEntity
  8
0
100
AcDbLine
 62
7
  6
CONTINUOUS
 10
8.7990401161
 20
33.4048983945
 11
9.2335261161
 21
33.2516093945
  0
LINE
  5
374
100
AcDbEntity
  8
0
100
AcDbLine
 62
7
  6
CONTINUOUS
 10
10.8490411161
 20
33.0840483945
 11
8.7990401161
 21
33.8251123945
  0
LINE
  5
375
100
AcDbEntity
  8
DRAFT
100
AcDbLine
 62
7
  6
CONTINUOUS
 10
24.5416846613
 20
43.0850125426
 11
24.5110099775
 21
43.2692243462
  0
LINE
  5
376
100
AcDbEntity
  8
RACCORDO
100
AcDbLine
 62
253
  6
CONTINUOUS
 10
29.9938949864
 20
43.2418070064
 11
29.9938949864
 21
40.2655896779
  0
LINE
  5
377
100
AcDbEntity
  8
RACCORDO
100
AcDbLine
 62
253
  6
CONTINUOUS
 10
29.9938949864
 20
5.3166251111
 11
29.9938949864
 21
2.3404077826
  0
LINE
  5
378
100
AcDbEntity
  8
RACCORDO
100
AcDbLine
 62
253
  6
CONTINUOUS
 10
30.293849295
 20
43.2572549476
 11
30.293849295
 21
40.2655927303
  0
LINE
  5
379
100
AcDbEntity
  8
RACCORDO
100
AcDbLine
 62
253
  6
CONTINUOUS
 10
30.293849295
 20
5.3166220587
 11
30.293849295
 21
2.3249598413
  0
LINE
  5
37A
100
AcDbEntity
  8
RACCORDO
100
AcDbLine
 62
253
  6
CONTINUOUS
 10
30.5042309371
 20
2.3249598413
 11
30.5042309371
 21
5.3166220587
  0
LINE
  5
37B
100
AcDbEntity
  8
RACCORDO
100
AcDbLine
 62
253
  6
CONTINUOUS
 10
30.5042309371
 20
40.2655927303
 11
30.5042309371
 21
43.2572549476
  0
LINE
  5
37C
100
AcDbEntity
  8
RACCORDO
100
AcDbLine
 62
253
  6
CONTINUOUS
 10
30.8041852457
 20
2.3404077826
 11
30.8041852457
 21
5.3166251111
  0
LINE
  5
37D
100
AcDbEntity
  8
RACCORDO
100
AcDbLine
 62
253
  6
CONTINUOUS
 10
30.8041852457
 20
40.2655896779
 11
30.8041852457
 21
43.2418070064
  0
LINE
  5
37E
100
AcDbEntity
  8
RACCORDO
100
AcDbLine
 62
7
  6
CONTINUOUS
 10
37.7416726335
 20
43.0850125426
 11
37.7938949864
 21
43.2418070064
  0
LINE
  5
37F
100
AcDbEntity
  8
RACCORDO
100
AcDbLine
 62
253
  6
CONTINUOUS
 10
37.790586679
 20
40.0658637709
 11
37.7395923165
 21
39.9127562744
  0
LINE
  5
380
100
AcDbEntity
  8
0
100
AcDbLine
 62
7
  6
CONTINUOUS
 10
29.2973281161
 20
16.1151213945
 11
26.7975921161
 21
15.3481403945
  0
LINE
  5
381
100
AcDbEntity
  8
0
100
AcDbLine
 62
7
  6
CONTINUOUS
 10
17.2997881161
 20
30.1522133945
 11
16.8007521161
 21
30.0170413945
  0
LINE
  5
382
100
AcDbEntity
  8
0
100
AcDbLine
 62
7
  6
CONTINUOUS
 10
18.6136241161
 20
30.4962643945
 11
17.6859401161
 21
30.2564933945
  0
LINE
  5
383
100
AcDbEntity
  8
0
100
AcDbLine
 62
7
  6
CONTINUOUS
 10
8.7990401161
 20
29.7734053945
 11
10.8490411161
 21
29.7734053945
  0
LINE
  5
384
100
AcDbEntity
  8
0
100
AcDbLine
 62
7
  6
CONTINUOUS
 10
10.8490411161
 20
30.1851333945
 11
9.2245121161
 21
30.1851333945
  0
LINE
  5
385
100
AcDbEntity
  8
DRAFT
100
AcDbLine
 62
7
  6
CONTINUOUS
 10
45.4490401161
 20
30.2911073945
 11
44.0490401161
 21
30.2911073945
  0
LINE
  5
386
100
AcDbEntity
  8
DRAFT
100
AcDbLine
 62
7
  6
CONTINUOUS
 10
0.6490401161
 20
30.2911073945
 11
2.0490401161
 21
30.2911073945
  0
LINE
  5
387
100
AcDbEntity
  8
0
100
AcDbLine
 62
7
  6
CONTINUOUS
 10
8.7990401161
 20
31.2129493945
 11
10.5147521161
 21
31.2129493945
  0
LINE
  5
388
100
AcDbEntity
  8
0
100
AcDbLine
 62
7
  6
CONTINUOUS
 10
7.271755017
 20
32.9299886964
 11
6.2444698584
 21
33.1237130902
  0
LINE
  5
389
100
AcDbEntity
  8
0
100
AcDbLine
 62
7
  6
CONTINUOUS
 10
6.4995857847
 20
32.8413120053
 11
7.0371028554
 21
32.7335358403
  0
LINE
  5
38A
100
AcDbEntity
  8
0
100
AcDbLine
 62
7
  6
CONTINUOUS
 10
19.3004881161
 20
32.3548743945
 11
17.9126271161
 21
32.8766673945
  0
LINE
  5
38B
100
AcDbEntity
  8
0
100
AcDbLine
 62
7
  6
CONTINUOUS
 10
16.8007521161
 20
32.8429253945
 11
18.4262281161
 21
32.2225143945
  0
LINE
  5
38C
100
AcDbEntity
  8
RACCORDO
100
AcDbLine
 62
7
  6
CONTINUOUS
 10
37.7416726335
 20
2.4972022464
 11
37.7938949864
 21
2.3404077826
  0
LINE
  5
38D
100
AcDbEntity
  8
RACCORDO
100
AcDbLine
 62
253
  6
CONTINUOUS
 10
37.7395923165
 20
5.6694585146
 11
37.790586679
 21
5.5163510181
  0
LINE
  5
38E
100
AcDbEntity
  8
RACCORDO
100
AcDbLine
 62
253
  6
CONTINUOUS
 10
38.0905409365
 20
39.7662747572
 11
38.0391851044
 21
39.6120819702
  0
LINE
  5
38F
100
AcDbEntity
  8
DRAFT
100
AcDbLine
 62
7
  6
CONTINUOUS
 10
24.5105055006
 20
2.7911073945
 11
24.5391883687
 21
2.8484774999
  0
LINE
  5
390
100
AcDbEntity
  8
0
100
AcDbLine
 62
7
  6
CONTINUOUS
 10
37.2990401161
 20
17.9922733945
 11
35.2490391161
 21
17.2796753945
  0
LINE
  5
391
100
AcDbEntity
  8
0
100
AcDbLine
 62
7
  6
CONTINUOUS
 10
36.8645541161
 20
17.4017203945
 11
37.2990401161
 21
17.5494553945
  0
LINE
  5
392
100
AcDbEntity
  8
0
100
AcDbLine
 62
7
  6
CONTINUOUS
 10
35.6408891161
 20
17.0071763945
 11
36.5238771161
 21
17.2909383945
  0
LINE
  5
393
100
AcDbEntity
  8
0
100
AcDbLine
 62
7
  6
CONTINUOUS
 10
16.8007521161
 20
31.6048583945
 11
19.3004881161
 21
31.8386113945
  0
LINE
  5
394
100
AcDbEntity
  8
0
100
AcDbLine
 62
7
  6
CONTINUOUS
 10
18.4262281161
 20
32.2225143945
 11
16.8007521161
 21
32.1153103945
  0
LINE
  5
395
100
AcDbEntity
  8
0
100
AcDbLine
 62
7
  6
CONTINUOUS
 10
10.8490411161
 20
31.6246773945
 11
8.7990401161
 21
31.6246773945
  0
LINE
  5
396
100
AcDbEntity
  8
0
100
AcDbLine
 62
7
  6
CONTINUOUS
 10
7.0371028554
 20
31.9354456208
 11
7.271755017
 21
31.9354456208
  0
LINE
  5
397
100
AcDbEntity
  8
DRAFT
100
AcDbLine
 62
7
  6
CONTINUOUS
 10
33.0771422284
 20
32.2630052821
 11
30.0209380037
 21
32.2630052821
  0
LINE
  5
398
100
AcDbEntity
  8
DRAFT
100
AcDbLine
 62
7
  6
CONTINUOUS
 10
13.0209380037
 20
32.2630052821
 11
16.0771422284
 21
32.2630052821
  0
LINE
  5
399
100
AcDbEntity
  8
RACCORDO
100
AcDbLine
 62
253
  6
CONTINUOUS
 10
33.0577663193
 20
32.2823811913
 11
30.0403139128
 21
32.2823811913
  0
LINE
  5
39A
100
AcDbEntity
  8
RACCORDO
100
AcDbLine
 62
253
  6
CONTINUOUS
 10
16.0577663193
 20
32.2823811913
 11
13.0403139128
 21
32.2823811913
  0
LINE
  5
39B
100
AcDbEntity
  8
RACCORDO
100
AcDbLine
 62
253
  6
CONTINUOUS
 10
33.0577663193
 20
33.2998335977
 11
30.0403139128
 21
33.2998335977
  0
LINE
  5
39C
100
AcDbEntity
  8
RACCORDO
100
AcDbLine
 62
253
  6
CONTINUOUS
 10
16.0577663193
 20
33.2998335977
 11
13.0403139128
 21
33.2998335977
  0
LINE
  5
39D
100
AcDbEntity
  8
DRAFT
100
AcDbLine
 62
7
  6
CONTINUOUS
 10
33.0767723099
 20
33.3188395884
 11
30.0213079222
 21
33.3188395884
  0
LINE
  5
39E
100
AcDbEntity
  8
DRAFT
100
AcDbLine
 62
7
  6
CONTINUOUS
 10
13.0213079222
 20
33.3188395884
 11
16.0767723099
 21
33.3188395884
  0
LINE
  5
39F
100
AcDbEntity
  8
0
100
AcDbLine
 62
7
  6
CONTINUOUS
 10
5.7778941464
 20
33.4183924935
 11
6.0029964816
 21
33.4183924935
  0
LINE
  5
3A0
100
AcDbEntity
  8
0
100
AcDbLine
 62
7
  6
CONTINUOUS
 10
16.8007521161
 20
33.6408363945
 11
18.4330321161
 21
33.5282333945
  0
LINE
  5
3A1
100
AcDbEntity
  8
0
100
AcDbLine
 62
7
  6
CONTINUOUS
 10
19.3004881161
 20
33.9143103945
 11
16.8007521161
 21
34.1400223945
  0
LINE
  5
3A2
100
AcDbEntity
  8
0
100
AcDbLine
 62
7
  6
CONTINUOUS
 10
16.8007521161
 20
35.9398663945
 11
19.3004881161
 21
35.1363513945
  0
LINE
  5
3A3
100
AcDbEntity
  8
DRAFT
100
AcDbLine
 62
7
  6
CONTINUOUS
 10
24.5104383138
 20
42.7178577284
 11
24.5392140055
 21
42.6603019616
  0
LINE
  5
3A4
100
AcDbEntity
  8
RACCORDO
100
AcDbLine
 62
253
  6
CONTINUOUS
 10
38.0391851044
 20
5.9701328188
 11
38.0905409365
 21
5.8159400318
  0
LINE
  5
3A5
100
AcDbEntity
  8
0
100
AcDbLine
 62
7
  6
CONTINUOUS
 10
35.2490391161
 20
17.2796753945
 11
35.2490391161
 21
16.7572423945
  0
LINE
  5
3A6
100
AcDbEntity
  8
0
100
AcDbLine
 62
7
  6
CONTINUOUS
 10
35.2490391161
 20
15.8088093945
 11
35.2490391161
 21
15.3970813945
  0
LINE
  5
3A7
100
AcDbEntity
  8
0
100
AcDbLine
 62
7
  6
CONTINUOUS
 10
35.2490391161
 20
14.6105783945
 11
35.2490391161
 21
13.9575373945
  0
LINE
  5
3A8
100
AcDbEntity
  8
0
100
AcDbLine
 62
7
  6
CONTINUOUS
 10
35.2490391161
 20
13.0205993945
 11
35.2490391161
 21
12.4981663945
  0
LINE
  5
3A9
100
AcDbEntity
  8
0
100
AcDbLine
 62
7
  6
CONTINUOUS
 10
35.2490391161
 20
10.7775023945
 11
35.2490391161
 21
10.3373843945
  0
LINE
  5
3AA
100
AcDbEntity
  8
0
100
AcDbLine
 62
7
  6
CONTINUOUS
 10
35.2490391161
 20
9.2184179809
 11
35.2490391161
 21
8.5911073945
  0
LINE
  5
3AB
100
AcDbEntity
  8
0
100
AcDbLine
 62
7
  6
CONTINUOUS
 10
35.5897161161
 20
9.0312253945
 11
35.5897161161
 21
9.2879806355
  0
LINE
  5
3AC
100
AcDbEntity
  8
RACCORDO
100
AcDbLine
 62
253
  6
CONTINUOUS
 10
30.5075392957
 20
5.8159400318
 11
30.5588951277
 21
5.9701328188
  0
LINE
  5
3AD
100
AcDbEntity
  8
RACCORDO
100
AcDbLine
 62
253
  6
CONTINUOUS
 10
30.8074935531
 20
5.5163510181
 11
30.8584879156
 21
5.6694585146
  0
LINE
  5
3AE
100
AcDbEntity
  8
RACCORDO
100
AcDbLine
 62
7
  6
CONTINUOUS
 10
30.0403139128
 20
12.2823811913
 11
30.0213079222
 21
12.2633752006
  0
LINE
  5
3AF
100
AcDbEntity
  8
0
100
AcDbLine
 62
7
  6
CONTINUOUS
 10
36.8735681161
 20
15.3970813945
 11
35.2490391161
 21
14.6105783945
  0
LINE
  5
3B0
100
AcDbEntity
  8
0
100
AcDbLine
 62
7
  6
CONTINUOUS
 10
27.6650481161
 20
12.0539813945
 11
29.2973281161
 21
12.6661073945
  0
LINE
  5
3B1
100
AcDbEntity
  8
0
100
AcDbLine
 62
7
  6
CONTINUOUS
 10
28.1854531161
 20
12.7055473945
 11
26.7975921161
 21
12.1892653945
  0
LINE
  5
3B2
100
AcDbEntity
  8
0
100
AcDbLine
 62
7
  6
CONTINUOUS
 10
5.2990401161
 20
33.68851526
 11
5.7778941464
 21
33.68851526
  0
LINE
  5
3B3
100
AcDbEntity
  8
0
100
AcDbLine
 62
7
  6
CONTINUOUS
 10
6.0029964816
 20
33.68851526
 11
7.2990401161
 21
33.68851526
  0
LINE
  5
3B4
100
AcDbEntity
  8
0
100
AcDbLine
 62
7
  6
CONTINUOUS
 10
6.9047699344
 20
33.9340813897
 11
6.0029964816
 21
33.9340813897
  0
LINE
  5
3B5
100
AcDbEntity
  8
0
100
AcDbLine
 62
7
  6
CONTINUOUS
 10
5.7778941464
 20
33.9340813897
 11
5.2990401161
 21
33.9340813897
  0
LINE
  5
3B6
100
AcDbEntity
  8
0
100
AcDbLine
 62
7
  6
CONTINUOUS
 10
8.7990401161
 20
34.0462133945
 11
9.1397171161
 21
34.0462133945
  0
LINE
  5
3B7
100
AcDbEntity
  8
0
100
AcDbLine
 62
7
  6
CONTINUOUS
 10
16.8007521161
 20
34.4209193945
 11
19.3006371161
 21
34.4209193945
  0
LINE
  5
3B8
100
AcDbEntity
  8
0
100
AcDbLine
 62
7
  6
CONTINUOUS
 10
6.0029964816
 20
34.8017485879
 11
5.7778941464
 21
34.8017485879
  0
LINE
  5
3B9
100
AcDbEntity
  8
0
100
AcDbLine
 62
7
  6
CONTINUOUS
 10
9.1397171161
 20
34.8047123945
 11
10.8490411161
 21
34.8047123945
  0
LINE
  5
3BA
100
AcDbEntity
  8
0
100
AcDbLine
 62
7
  6
CONTINUOUS
 10
19.3006371161
 20
34.9427123945
 11
16.8007521161
 21
34.9427123945
  0
LINE
  5
3BB
100
AcDbEntity
  8
0
100
AcDbLine
 62
7
  6
CONTINUOUS
 10
10.8490411161
 20
35.2448303945
 11
8.7990401161
 21
35.2448303945
  0
LINE
  5
3BC
100
AcDbEntity
  8
0
100
AcDbLine
 62
7
  6
CONTINUOUS
 10
5.2990401161
 20
35.350179746
 11
7.3072257411
 21
35.350179746
  0
LINE
  5
3BD
100
AcDbEntity
  8
0
100
AcDbLine
 62
7
  6
CONTINUOUS
 10
6.8638422859
 20
35.5957458756
 11
5.2990401161
 21
35.5957458756
  0
LINE
  5
3BE
100
AcDbEntity
  8
0
100
AcDbLine
 62
7
  6
CONTINUOUS
 10
19.3004881161
 20
35.6577873945
 11
17.5798421161
 21
36.1488383945
  0
LINE
  5
3BF
100
AcDbEntity
  8
RACCORDO
100
AcDbLine
 62
7
  6
CONTINUOUS
 10
30.0403139128
 20
33.2998335977
 11
30.0213079222
 21
33.3188395884
  0
LINE
  5
3C0
100
AcDbEntity
  8
RACCORDO
100
AcDbLine
 62
253
  6
CONTINUOUS
 10
30.5588951277
 20
39.6120819702
 11
30.5075392957
 21
39.7662747572
  0
LINE
  5
3C1
100
AcDbEntity
  8
RACCORDO
100
AcDbLine
 62
253
  6
CONTINUOUS
 10
30.8584879156
 20
39.9127562744
 11
30.8074935531
 21
40.0658637709
  0
LINE
  5
3C2
100
AcDbEntity
  8
0
100
AcDbLine
 62
7
  6
CONTINUOUS
 10
36.1689281161
 20
9.2879837657
 11
36.1689281161
 21
9.0312253945
  0
LINE
  5
3C3
100
AcDbEntity
  8
0
100
AcDbLine
 62
7
  6
CONTINUOUS
 10
36.5096051161
 20
9.0312253945
 11
36.5096051161
 21
9.2184286121
  0
LINE
  5
3C4
100
AcDbEntity
  8
0
100
AcDbLine
 62
7
  6
CONTINUOUS
 10
36.5238771161
 20
17.2909383945
 11
36.5238771161
 21
16.7032403945
  0
LINE
  5
3C5
100
AcDbEntity
  8
0
100
AcDbLine
 62
7
  6
CONTINUOUS
 10
36.5238771161
 20
13.0319393945
 11
36.5238771161
 21
12.4441643945
  0
LINE
  5
3C6
100
AcDbEntity
  8
0
100
AcDbLine
 62
7
  6
CONTINUOUS
 10
36.8645541161
 20
12.3306053945
 11
36.8645541161
 21
13.1426443945
  0
LINE
  5
3C7
100
AcDbEntity
  8
0
100
AcDbLine
 62
7
  6
CONTINUOUS
 10
36.8645541161
 20
16.5896813945
 11
36.8645541161
 21
17.4017203945
  0
LINE
  5
3C8
100
AcDbEntity
  8
0
100
AcDbLine
 62
7
  6
CONTINUOUS
 10
36.9583631161
 20
11.5360013945
 11
36.9583631161
 21
10.7775023945
  0
LINE
  5
3C9
100
AcDbEntity
  8
0
100
AcDbLine
 62
7
  6
CONTINUOUS
 10
37.2990401161
 20
8.5911073945
 11
37.2990401161
 21
9.0312253945
  0
LINE
  5
3CA
100
AcDbEntity
  8
0
100
AcDbLine
 62
7
  6
CONTINUOUS
 10
37.2990401161
 20
10.3373843945
 11
37.2990401161
 21
11.5360013945
  0
LINE
  5
3CB
100
AcDbEntity
  8
0
100
AcDbLine
 62
7
  6
CONTINUOUS
 10
37.2990401161
 20
11.7571023945
 11
37.2990401161
 21
12.1773163945
  0
LINE
  5
3CC
100
AcDbEntity
  8
0
100
AcDbLine
 62
7
  6
CONTINUOUS
 10
37.2990401161
 20
13.2903013945
 11
37.2990401161
 21
13.7332743945
  0
LINE
  5
3CD
100
AcDbEntity
  8
0
100
AcDbLine
 62
7
  6
CONTINUOUS
 10
37.2990401161
 20
13.9575373945
 11
37.2990401161
 21
14.3692653945
  0
LINE
  5
3CE
100
AcDbEntity
  8
0
100
AcDbLine
 62
7
  6
CONTINUOUS
 10
37.2990401161
 20
15.1841583945
 11
37.2990401161
 21
15.8088093945
  0
LINE
  5
3CF
100
AcDbEntity
  8
0
100
AcDbLine
 62
7
  6
CONTINUOUS
 10
37.2990401161
 20
16.0161013945
 11
37.2990401161
 21
16.4363153945
  0
LINE
  5
3D0
100
AcDbEntity
  8
0
100
AcDbLine
 62
7
  6
CONTINUOUS
 10
37.2990401161
 20
17.5494553945
 11
37.2990401161
 21
17.9922733945
  0
LINE
  5
3D1
100
AcDbEntity
  8
RACCORDO
100
AcDbLine
 62
253
  6
CONTINUOUS
 10
37.7938949864
 20
43.2418070064
 11
37.7938949864
 21
40.2655896779
  0
LINE
  5
3D2
100
AcDbEntity
  8
RACCORDO
100
AcDbLine
 62
253
  6
CONTINUOUS
 10
37.7938949864
 20
5.3166251111
 11
37.7938949864
 21
2.3404077826
  0
LINE
  5
3D3
100
AcDbEntity
  8
RACCORDO
100
AcDbLine
 62
7
  6
CONTINUOUS
 10
30.8564075986
 20
2.4972022464
 11
30.8041852457
 21
2.3404077826
  0
LINE
  5
3D4
100
AcDbEntity
  8
RACCORDO
100
AcDbLine
 62
7
  6
CONTINUOUS
 10
33.0577663193
 20
13.2998335977
 11
33.0771422284
 21
13.3192095069
  0
LINE
  5
3D5
100
AcDbEntity
  8
DRAFT
100
AcDbLine
 62
7
  6
CONTINUOUS
 10
23.1219726317
 20
2.7911073945
 11
23.1793427371
 21
2.8484774999
  0
LINE
  5
3D6
100
AcDbEntity
  8
0
100
AcDbLine
 62
7
  6
CONTINUOUS
 10
35.5833281161
 20
14.3692653945
 11
37.2990401161
 21
15.1841583945
  0
LINE
  5
3D7
100
AcDbEntity
  8
0
100
AcDbLine
 62
7
  6
CONTINUOUS
 10
37.2990401161
 20
13.7332743945
 11
35.2490391161
 21
13.0205993945
  0
LINE
  5
3D8
100
AcDbEntity
  8
0
100
AcDbLine
 62
7
  6
CONTINUOUS
 10
36.8645541161
 20
13.1426443945
 11
37.2990401161
 21
13.2903013945
  0
LINE
  5
3D9
100
AcDbEntity
  8
0
100
AcDbLine
 62
7
  6
CONTINUOUS
 10
35.6407731161
 20
12.7481403945
 11
36.5238771161
 21
13.0319393945
  0
LINE
  5
3DA
100
AcDbEntity
  8
0
100
AcDbLine
 62
7
  6
CONTINUOUS
 10
26.7975921161
 20
8.3900533945
 11
29.2973281161
 21
9.1825183945
  0
LINE
  5
3DB
100
AcDbEntity
  8
0
100
AcDbLine
 62
7
  6
CONTINUOUS
 10
17.5798421161
 20
36.1488383945
 11
19.3004881161
 21
36.6253333945
  0
LINE
  5
3DC
100
AcDbEntity
  8
0
100
AcDbLine
 62
7
  6
CONTINUOUS
 10
6.8051792753
 20
36.0868781946
 11
6.5677986514
 21
36.0868781946
  0
LINE
  5
3DD
100
AcDbEntity
  8
0
100
AcDbLine
 62
7
  6
CONTINUOUS
 10
8.7990401161
 20
36.5509893945
 11
9.5884751161
 21
36.5509893945
  0
LINE
  5
3DE
100
AcDbEntity
  8
0
100
AcDbLine
 62
7
  6
CONTINUOUS
 10
9.9291521161
 20
36.5509893945
 11
10.5083641161
 21
36.5509893945
  0
LINE
  5
3DF
100
AcDbEntity
  8
0
100
AcDbLine
 62
7
  6
CONTINUOUS
 10
10.8490411161
 20
36.9911073945
 11
8.7990401161
 21
36.9911073945
  0
LINE
  5
3E0
100
AcDbEntity
  8
RACCORDO
100
AcDbLine
 62
7
  6
CONTINUOUS
 10
33.0577663193
 20
32.2823811913
 11
33.0771422284
 21
32.2630052821
  0
LINE
  5
3E1
100
AcDbEntity
  8
DRAFT
100
AcDbLine
 62
7
  6
CONTINUOUS
 10
23.1218382478
 20
42.7178577284
 11
23.1793940145
 21
42.6603019616
  0
LINE
  5
3E2
100
AcDbEntity
  8
RACCORDO
100
AcDbLine
 62
7
  6
CONTINUOUS
 10
30.8564075986
 20
43.0850125426
 11
30.8041852457
 21
43.2418070064
  0
LINE
  5
3E3
100
AcDbEntity
  8
0
100
AcDbLine
 62
7
  6
CONTINUOUS
 10
40.2533375394
 20
12.6726900361
 11
40.2751656544
 21
12.4148453496
  0
LINE
  5
3E4
100
AcDbEntity
  8
0
100
AcDbLine
 62
7
  6
CONTINUOUS
 10
39.3079077375
 20
16.5526353143
 11
39.2888081443
 21
16.7968374513
  0
LINE
  5
3E5
100
AcDbEntity
  8
RACCORDO
100
AcDbLine
 62
253
  6
CONTINUOUS
 10
38.093849295
 20
43.2572549476
 11
38.093849295
 21
40.2655927303
  0
LINE
  5
3E6
100
AcDbEntity
  8
RACCORDO
100
AcDbLine
 62
253
  6
CONTINUOUS
 10
38.093849295
 20
5.3166220587
 11
38.093849295
 21
2.3249598413
  0
LINE
  5
3E7
100
AcDbEntity
  8
RACCORDO
100
AcDbLine
 62
253
  6
CONTINUOUS
 10
38.3042309371
 20
2.3249598413
 11
38.3042309371
 21
5.3166220587
  0
LINE
  5
3E8
100
AcDbEntity
  8
RACCORDO
100
AcDbLine
 62
253
  6
CONTINUOUS
 10
38.3042309371
 20
40.2655927303
 11
38.3042309371
 21
43.2572549476
  0
LINE
  5
3E9
100
AcDbEntity
  8
RACCORDO
100
AcDbLine
 62
253
  6
CONTINUOUS
 10
38.6041852457
 20
2.3404077826
 11
38.6041852457
 21
5.3166251111
  0
LINE
  5
3EA
100
AcDbEntity
  8
RACCORDO
100
AcDbLine
 62
253
  6
CONTINUOUS
 10
38.6041852457
 20
40.2655896779
 11
38.6041852457
 21
43.2418070064
  0
LINE
  5
3EB
100
AcDbEntity
  8
0
100
AcDbLine
 62
7
  6
CONTINUOUS
 10
38.790854491
 20
10.232035043
 11
38.790854491
 21
10.0737813137
  0
LINE
  5
3EC
100
AcDbEntity
  8
0
100
AcDbLine
 62
7
  6
CONTINUOUS
 10
38.7990401161
 20
11.893699529
 11
38.7990401161
 21
11.6931537412
  0
LINE
  5
3ED
100
AcDbEntity
  8
0
100
AcDbLine
 62
7
  6
CONTINUOUS
 10
38.8263252151
 20
13.6467691682
 11
38.8263252151
 21
12.6522260926
  0
LINE
  5
3EE
100
AcDbEntity
  8
0
100
AcDbLine
 62
7
  6
CONTINUOUS
 10
39.0609773767
 20
12.8486789487
 11
39.0609773767
 21
13.6467691682
  0
LINE
  5
3EF
100
AcDbEntity
  8
0
100
AcDbLine
 62
7
  6
CONTINUOUS
 10
40.0950837505
 20
12.1638222955
 11
40.0950837505
 21
11.893699529
  0
LINE
  5
3F0
100
AcDbEntity
  8
0
100
AcDbLine
 62
7
  6
CONTINUOUS
 10
40.0950837505
 20
11.6481333993
 11
40.0950837505
 21
11.0219396375
  0
LINE
  5
3F1
100
AcDbEntity
  8
RACCORDO
100
AcDbLine
 62
7
  6
CONTINUOUS
 10
38.3588951277
 20
39.6120819702
 11
38.0391851044
 21
39.6120819702
  0
LINE
  5
3F2
100
AcDbEntity
  8
RACCORDO
100
AcDbLine
 62
7
  6
CONTINUOUS
 10
30.5588951277
 20
39.6120819702
 11
30.2391851044
 21
39.6120819702
  0
LINE
  5
3F3
100
AcDbEntity
  8
RACCORDO
100
AcDbLine
 62
7
  6
CONTINUOUS
 10
15.8588951277
 20
39.6120819702
 11
15.5391851044
 21
39.6120819702
  0
LINE
  5
3F4
100
AcDbEntity
  8
RACCORDO
100
AcDbLine
 62
7
  6
CONTINUOUS
 10
8.0588951277
 20
39.6120819702
 11
7.7391851044
 21
39.6120819702
  0
LINE
  5
3F5
100
AcDbEntity
  8
RACCORDO
100
AcDbLine
 62
253
  6
CONTINUOUS
 10
7.7905409365
 20
39.7662747572
 11
8.0075392957
 21
39.7662747572
  0
LINE
  5
3F6
100
AcDbEntity
  8
RACCORDO
100
AcDbLine
 62
253
  6
CONTINUOUS
 10
15.5905409365
 20
39.7662747572
 11
15.8075392957
 21
39.7662747572
  0
LINE
  5
3F7
100
AcDbEntity
  8
RACCORDO
100
AcDbLine
 62
253
  6
CONTINUOUS
 10
30.2905409365
 20
39.7662747572
 11
30.5075392957
 21
39.7662747572
  0
LINE
  5
3F8
100
AcDbEntity
  8
RACCORDO
100
AcDbLine
 62
253
  6
CONTINUOUS
 10
38.0905409365
 20
39.7662747572
 11
38.3075392957
 21
39.7662747572
  0
LINE
  5
3F9
100
AcDbEntity
  8
0
100
AcDbLine
 62
7
  6
CONTINUOUS
 10
40.3201860857
 20
10.7804662011
 11
40.3201860857
 21
11.6481333993
  0
LINE
  5
3FA
100
AcDbEntity
  8
0
100
AcDbLine
 62
7
  6
CONTINUOUS
 10
40.3201860857
 20
11.893699529
 11
40.3201860857
 21
12.1638222955
  0
LINE
  5
3FB
100
AcDbEntity
  8
0
100
AcDbLine
 62
7
  6
CONTINUOUS
 10
40.7990401161
 20
9.9864689134
 11
40.7990401161
 21
10.232035043
  0
LINE
  5
3FC
100
AcDbEntity
  8
0
100
AcDbLine
 62
7
  6
CONTINUOUS
 10
40.7990401161
 20
11.6481333993
 11
40.7990401161
 21
11.893699529
  0
LINE
  5
3FD
100
AcDbEntity
  8
DRAFT
100
AcDbLine
 62
7
  6
CONTINUOUS
 10
41.7490401161
 20
23.8620534724
 11
41.7490401161
 21
21.7201613166
  0
LINE
  5
3FE
100
AcDbEntity
  8
RACCORDO
100
AcDbLine
 62
7
  6
CONTINUOUS
 10
41.7490401161
 20
20.3539967296
 11
41.7490401161
 21
21.7201613166
  0
LINE
  5
3FF
100
AcDbEntity
  8
RACCORDO
100
AcDbLine
 62
7
  6
CONTINUOUS
 10
41.7490401161
 20
23.8620534724
 11
41.7490401161
 21
25.2282180594
  0
LINE
  5
400
100
AcDbEntity
  8
0
100
AcDbLine
 62
7
  6
CONTINUOUS
 10
39.8536103737
 20
12.4585016988
 11
39.8836239946
 21
12.6890610478
  0
LINE
  5
401
100
AcDbEntity
  8
DRAFT
100
AcDbLine
 62
7
  6
CONTINUOUS
 10
44.0063955708
 20
43.0850125426
 11
44.0370702546
 21
43.2692243462
  0
LINE
  5
402
100
AcDbEntity
  8
RACCORDO
100
AcDbLine
 62
253
  6
CONTINUOUS
 10
7.4938949864
 20
40.2655896779
 11
8.3041852457
 21
40.2655896779
  0
LINE
  5
403
100
AcDbEntity
  8
RACCORDO
100
AcDbLine
 62
253
  6
CONTINUOUS
 10
15.2938949864
 20
40.2655896779
 11
16.1041852457
 21
40.2655896779
  0
LINE
  5
404
100
AcDbEntity
  8
RACCORDO
100
AcDbLine
 62
253
  6
CONTINUOUS
 10
29.9938949864
 20
40.2655896779
 11
30.8041852457
 21
40.2655896779
  0
LINE
  5
405
100
AcDbEntity
  8
RACCORDO
100
AcDbLine
 62
253
  6
CONTINUOUS
 10
37.7938949864
 20
40.2655896779
 11
38.6041852457
 21
40.2655896779
  0
LINE
  5
406
100
AcDbEntity
  8
DRAFT
100
AcDbLine
 62
7
  6
CONTINUOUS
 10
44.0063955708
 20
2.4972022464
 11
44.0370702546
 21
2.3129904428
  0
LINE
  5
407
100
AcDbEntity
  8
RACCORDO
100
AcDbLine
 62
7
  6
CONTINUOUS
 10
44.0177383764
 20
19.2182533336
 11
44.0454343845
 21
18.6586535326
  0
LINE
  5
408
100
AcDbEntity
  8
DRAFT
100
AcDbLine
 62
7
  6
CONTINUOUS
 10
44.0370702546
 20
43.3411073945
 11
44.0490401161
 21
30.2911073945
  0
LINE
  5
409
100
AcDbEntity
  8
RACCORDO
100
AcDbLine
 62
7
  6
CONTINUOUS
 10
42.9490401161
 20
25.2911073945
 11
42.9490401161
 21
23.8411073945
  0
LINE
  5
40A
100
AcDbEntity
  8
DRAFT
100
AcDbLine
 62
7
  6
CONTINUOUS
 10
42.9490401161
 20
23.8411073945
 11
42.9490401161
 21
21.7411073945
  0
LINE
  5
40B
100
AcDbEntity
  8
RACCORDO
100
AcDbLine
 62
7
  6
CONTINUOUS
 10
42.9490401161
 20
21.7411073945
 11
42.9490401161
 21
20.2911073945
  0
LINE
  5
40C
100
AcDbEntity
  8
RACCORDO
100
AcDbLine
 62
7
  6
CONTINUOUS
 10
44.0141326449
 20
25.8715575789
 11
44.0141326449
 21
19.7106572101
  0
LINE
  5
40D
100
AcDbEntity
  8
RACCORDO
100
AcDbLine
 62
7
  6
CONTINUOUS
 10
44.0490401161
 20
15.2911073945
 11
44.0490401161
 21
18.1662496561
  0
LINE
  5
40E
100
AcDbEntity
  8
RACCORDO
100
AcDbLine
 62
7
  6
CONTINUOUS
 10
44.0490401161
 20
27.4159651329
 11
44.0490401161
 21
30.2911073945
  0
LINE
  5
40F
100
AcDbEntity
  8
DRAFT
100
AcDbLine
 62
7
  6
CONTINUOUS
 10
44.0370702546
 20
2.2411073945
 11
44.0490401161
 21
15.2911073945
  0
LINE
  5
410
100
AcDbEntity
  8
RACCORDO
100
AcDbLine
 62
7
  6
CONTINUOUS
 10
44.0177383764
 20
26.3639614554
 11
44.0454343845
 21
26.9235612564
  0
LINE
  5
411
100
AcDbEntity
  8
RACCORDO
100
AcDbLine
 62
253
  6
CONTINUOUS
 10
38.3075392957
 20
5.8159400318
 11
38.3588951277
 21
5.9701328188
  0
LINE
  5
412
100
AcDbEntity
  8
RACCORDO
100
AcDbLine
 62
253
  6
CONTINUOUS
 10
38.6074935531
 20
5.5163510181
 11
38.6584879156
 21
5.6694585146
  0
LINE
  5
413
100
AcDbEntity
  8
RACCORDO
100
AcDbLine
 62
7
  6
CONTINUOUS
 10
38.6564075986
 20
2.4972022464
 11
38.6041852457
 21
2.3404077826
  0
LINE
  5
414
100
AcDbEntity
  8
DRAFT
100
AcDbLine
 62
7
  6
CONTINUOUS
 10
24.5392140055
 20
42.6603019616
 11
23.1793940145
 21
42.6603019616
  0
LINE
  5
415
100
AcDbEntity
  8
DRAFT
100
AcDbLine
 62
7
  6
CONTINUOUS
 10
24.5104383138
 20
42.7178577284
 11
23.1218382478
 21
42.7178577284
  0
LINE
  5
416
100
AcDbEntity
  8
DRAFT
100
AcDbLine
 62
7
  6
CONTINUOUS
 10
21.5588918634
 20
42.7337372891
 11
22.918737495
 21
42.7337372891
  0
LINE
  5
417
100
AcDbEntity
  8
DRAFT
100
AcDbLine
 62
7
  6
CONTINUOUS
 10
21.5875747315
 20
42.7911073945
 11
22.9761076004
 21
42.7911073945
  0
LINE
  5
418
100
AcDbEntity
  8
DRAFT
100
AcDbLine
 62
7
  6
CONTINUOUS
 10
44.0063955708
 20
43.0850125426
 11
38.6564075986
 21
43.0850125426
  0
LINE
  5
419
100
AcDbEntity
  8
DRAFT
100
AcDbLine
 62
7
  6
CONTINUOUS
 10
37.7416726335
 20
43.0850125426
 11
30.8564075986
 21
43.0850125426
  0
LINE
  5
41A
100
AcDbEntity
  8
DRAFT
100
AcDbLine
 62
7
  6
CONTINUOUS
 10
29.9416726335
 20
43.0850125426
 11
24.5416846613
 21
43.0850125426
  0
LINE
  5
41B
100
AcDbEntity
  8
DRAFT
100
AcDbLine
 62
7
  6
CONTINUOUS
 10
2.0916846613
 20
43.0850125426
 11
7.4416726335
 21
43.0850125426
  0
LINE
  5
41C
100
AcDbEntity
  8
DRAFT
100
AcDbLine
 62
7
  6
CONTINUOUS
 10
8.3564075986
 20
43.0850125426
 11
15.2416726335
 21
43.0850125426
  0
LINE
  5
41D
100
AcDbEntity
  8
DRAFT
100
AcDbLine
 62
7
  6
CONTINUOUS
 10
16.1564075986
 20
43.0850125426
 11
21.5563955708
 21
43.0850125426
  0
LINE
  5
41E
100
AcDbEntity
  8
RACCORDO
100
AcDbLine
 62
7
  6
CONTINUOUS
 10
15.8042309371
 20
43.2572549476
 11
15.593849295
 21
43.2572549476
  0
LINE
  5
41F
100
AcDbEntity
  8
RACCORDO
100
AcDbLine
 62
7
  6
CONTINUOUS
 10
8.0042309371
 20
43.2572549476
 11
7.793849295
 21
43.2572549476
  0
LINE
  5
420
100
AcDbEntity
  8
RACCORDO
100
AcDbLine
 62
7
  6
CONTINUOUS
 10
30.293849295
 20
43.2572549476
 11
30.5042309371
 21
43.2572549476
  0
LINE
  5
421
100
AcDbEntity
  8
RACCORDO
100
AcDbLine
 62
7
  6
CONTINUOUS
 10
38.093849295
 20
43.2572549476
 11
38.3042309371
 21
43.2572549476
  0
LINE
  5
422
100
AcDbEntity
  8
DRAFT
100
AcDbLine
 62
7
  6
CONTINUOUS
 10
44.0370702546
 20
43.2692243462
 11
24.5110099775
 21
43.2692243462
  0
LINE
  5
423
100
AcDbEntity
  8
DRAFT
100
AcDbLine
 62
7
  6
CONTINUOUS
 10
2.0610099775
 20
43.2692243462
 11
21.5870702546
 21
43.2692243462
  0
LINE
  5
424
100
AcDbEntity
  8
DRAFT
100
AcDbLine
 62
7
  6
CONTINUOUS
 10
45.4250985697
 20
43.3411073945
 11
44.0370702546
 21
43.3411073945
  0
LINE
  5
425
100
AcDbEntity
  8
DRAFT
100
AcDbLine
 62
7
  6
CONTINUOUS
 10
24.5110099775
 20
43.3411073945
 11
23.1229816624
 21
43.3411073945
  0
LINE
  5
426
100
AcDbEntity
  8
DRAFT
100
AcDbLine
 62
7
  6
CONTINUOUS
 10
0.6729816624
 20
43.3411073945
 11
2.0610099775
 21
43.3411073945
  0
LINE
  5
427
100
AcDbEntity
  8
DRAFT
100
AcDbLine
 62
7
  6
CONTINUOUS
 10
21.5870702546
 20
43.3411073945
 11
22.9750985697
 21
43.3411073945
  0
LINE
  5
428
100
AcDbEntity
  8
RACCORDO
100
AcDbLine
 62
253
  6
CONTINUOUS
 10
38.3588951277
 20
39.6120819702
 11
38.3075392957
 21
39.7662747572
  0
LINE
  5
429
100
AcDbEntity
  8
RACCORDO
100
AcDbLine
 62
253
  6
CONTINUOUS
 10
38.6584879156
 20
39.9127562744
 11
38.6074935531
 21
40.0658637709
  0
LINE
  5
42A
100
AcDbEntity
  8
RACCORDO
100
AcDbLine
 62
7
  6
CONTINUOUS
 10
38.6564075986
 20
43.0850125426
 11
38.6041852457
 21
43.2418070064
  0
LINE
  5
42B
100
AcDbEntity
  8
RACCORDO
100
AcDbLine
 62
7
  6
CONTINUOUS
 10
45.3864318687
 20
19.2182533336
 11
45.4418281037
 21
18.6586535326
  0
LINE
  5
42C
100
AcDbEntity
  8
DRAFT
100
AcDbLine
 62
7
  6
CONTINUOUS
 10
45.4250985697
 20
43.3411073945
 11
45.4490401161
 21
30.2911073945
  0
LINE
  5
42D
100
AcDbEntity
  8
RACCORDO
100
AcDbLine
 62
7
  6
CONTINUOUS
 10
45.3792198563
 20
25.8715575789
 11
45.3792198563
 21
19.7106572101
  0
LINE
  5
42E
100
AcDbEntity
  8
RACCORDO
100
AcDbLine
 62
7
  6
CONTINUOUS
 10
45.4250985697
 20
44.1688581829
 11
45.4250985697
 21
43.3411073945
  0
LINE
  5
42F
100
AcDbEntity
  8
RACCORDO
100
AcDbLine
 62
7
  6
CONTINUOUS
 10
45.4250985697
 20
2.2411073945
 11
45.4250985697
 21
1.4133566061
  0
LINE
  5
430
100
AcDbEntity
  8
RACCORDO
100
AcDbLine
 62
7
  6
CONTINUOUS
 10
45.4490401161
 20
15.2911073945
 11
45.4490401161
 21
18.1662496561
  0
LINE
  5
431
100
AcDbEntity
  8
RACCORDO
100
AcDbLine
 62
7
  6
CONTINUOUS
 10
45.4490401161
 20
27.4159651329
 11
45.4490401161
 21
30.2911073945
  0
LINE
  5
432
100
AcDbEntity
  8
DRAFT
100
AcDbLine
 62
7
  6
CONTINUOUS
 10
45.4490401161
 20
15.2911073945
 11
45.4250985697
 21
2.2411073945
  0
LINE
  5
433
100
AcDbEntity
  8
RACCORDO
100
AcDbLine
 62
7
  6
CONTINUOUS
 10
45.3864318687
 20
26.3639614554
 11
45.4418281037
 21
26.9235612564
  0
LINE
  5
434
100
AcDbEntity
  8
RACCORDO
100
AcDbLine
 62
7
  6
CONTINUOUS
 10
44.6257075293
 20
44.9692243462
 11
23.9223727028
 21
44.9692243462
  0
LINE
  5
435
100
AcDbEntity
  8
RACCORDO
100
AcDbLine
 62
7
  6
CONTINUOUS
 10
1.4723727028
 20
44.9692243462
 11
22.1757075293
 21
44.9692243462
  0
ARC
  5
436
100
AcDbEntity
  8
RACCORDO
100
AcDbCircle
 62
253
  6
CONTINUOUS
 10
8.0074142876
 20
5.5158104206
 40
0.3001079694
100
AcDbArc
 50
0.1032191403
 51
89.9761452653
  0
ARC
  5
437
100
AcDbEntity
  8
RACCORDO
100
AcDbCircle
 62
253
  6
CONTINUOUS
 10
15.8074142876
 20
5.5158104206
 40
0.3001079693
100
AcDbArc
 50
0.1032191356
 51
89.97614527
  0
ARC
  5
438
100
AcDbEntity
  8
RACCORDO
100
AcDbCircle
 62
253
  6
CONTINUOUS
 10
30.5074142876
 20
5.5158104205
 40
0.3001079694
100
AcDbArc
 50
0.1032191414
 51
89.9761452642
  0
ARC
  5
439
100
AcDbEntity
  8
RACCORDO
100
AcDbCircle
 62
253
  6
CONTINUOUS
 10
38.3074142876
 20
5.5158104206
 40
0.3001079693
100
AcDbArc
 50
0.1032191347
 51
89.9761452709
  0
ARC
  5
43A
100
AcDbEntity
  8
RACCORDO
100
AcDbCircle
 62
253
  6
CONTINUOUS
 10
15.8074142972
 20
40.0664043588
 40
0.3001079647
100
AcDbArc
 50
270.0238528968
 51
359.8967826969
  0
ARC
  5
43B
100
AcDbEntity
  8
RACCORDO
100
AcDbCircle
 62
253
  6
CONTINUOUS
 10
8.0074142972
 20
40.0664043588
 40
0.3001079647
100
AcDbArc
 50
270.0238528964
 51
359.8967826973
  0
ARC
  5
43C
100
AcDbEntity
  8
RACCORDO
100
AcDbCircle
 62
253
  6
CONTINUOUS
 10
30.5074142972
 20
40.0664043588
 40
0.3001079647
100
AcDbArc
 50
270.0238528987
 51
359.896782695
  0
ARC
  5
43D
100
AcDbEntity
  8
RACCORDO
100
AcDbCircle
 62
253
  6
CONTINUOUS
 10
38.3074142973
 20
40.0664043588
 40
0.3001079646
100
AcDbArc
 50
270.0238528906
 51
359.896782703
  0
ARC
  5
43E
100
AcDbEntity
  8
RACCORDO
100
AcDbCircle
 62
253
  6
CONTINUOUS
 10
15.5906618479
 20
5.5158146792
 40
0.3001026633
100
AcDbArc
 50
90.0230730024
 51
179.8975925929
  0
ARC
  5
43F
100
AcDbEntity
  8
RACCORDO
100
AcDbCircle
 62
253
  6
CONTINUOUS
 10
15.5906618461
 20
40.066400108
 40
0.3001026633
100
AcDbArc
 50
180.1024070743
 51
269.9769273294
  0
ARC
  5
440
100
AcDbEntity
  8
RACCORDO
100
AcDbCircle
 62
253
  6
CONTINUOUS
 10
7.7906618461
 20
40.066400108
 40
0.3001026633
100
AcDbArc
 50
180.1024070743
 51
269.9769273294
  0
ARC
  5
441
100
AcDbEntity
  8
RACCORDO
100
AcDbCircle
 62
253
  6
CONTINUOUS
 10
7.7906618479
 20
5.5158146792
 40
0.3001026633
100
AcDbArc
 50
90.0230730024
 51
179.8975925929
  0
ARC
  5
442
100
AcDbEntity
  8
RACCORDO
100
AcDbCircle
 62
253
  6
CONTINUOUS
 10
38.0906618461
 20
40.066400108
 40
0.3001026633
100
AcDbArc
 50
180.1024070743
 51
269.9769273294
  0
ARC
  5
443
100
AcDbEntity
  8
RACCORDO
100
AcDbCircle
 62
253
  6
CONTINUOUS
 10
30.2906618461
 20
40.066400108
 40
0.3001026633
100
AcDbArc
 50
180.1024070743
 51
269.9769273294
  0
ARC
  5
444
100
AcDbEntity
  8
RACCORDO
100
AcDbCircle
 62
253
  6
CONTINUOUS
 10
30.2906618479
 20
5.5158146792
 40
0.3001026633
100
AcDbArc
 50
90.0230730024
 51
179.8975925929
  0
ARC
  5
445
100
AcDbEntity
  8
RACCORDO
100
AcDbCircle
 62
253
  6
CONTINUOUS
 10
38.0906618479
 20
5.5158146792
 40
0.3001026633
100
AcDbArc
 50
90.0230730024
 51
179.8975925929
  0
SPLINE
  5
446
100
AcDbEntity
  8
0
100
AcDbSpline
 62
7
  6
CONTINUOUS
 70
0
 71
3
 72
8
 73
4
 74
2
 42
0.0000001
 43
0.0000001
 44
0.0000000001
 12
0.2363600352
 22
-0.2302472995
 32
0.0
 13
0.0000000236
 23
-0.3356065326
 33
0.0
 40
0.0
 40
0.0
 40
0.0
 40
0.0
 40
1.0
 40
1.0
 40
1.0
 40
1.0
 10
6.2598168475
 20
29.6724949828
 30
0.0
 10
6.3386035259
 20
29.595745883
 30
0.0
 10
6.3795312934
 20
29.5016120398
 30
0.0
 10
6.3795313012
 20
29.3897431956
 30
0.0
 11
6.2598168475
 21
29.6724949828
 31
0.0
 11
6.3795313012
 21
29.3897431956
 31
0.0
  0
SPLINE
  5
447
100
AcDbEntity
  8
0
100
AcDbSpline
 62
7
  6
CONTINUOUS
 70
0
 71
3
 72
8
 73
4
 74
2
 42
0.0000001
 43
0.0000001
 44
0.0000000001
 12
0.0000000236
 22
-0.3356066183
 32
0.0
 13
-0.2373805689
 23
-0.2210097079
 33
0.0
 40
0.0
 40
0.0
 40
0.0
 40
0.0
 40
1.0
 40
1.0
 40
1.0
 40
1.0
 10
6.3795313012
 20
29.3897431956
 30
0.0
 10
6.3795313091
 20
29.2778743229
 30
0.0
 10
6.3386035411
 20
29.1851046893
 30
0.0
 10
6.2594766848
 20
29.1114347867
 30
0.0
 11
6.3795313012
 21
29.3897431956
 31
0.0
 11
6.2594766848
 21
29.1114347867
 31
0.0
  0
SPLINE
  5
448
100
AcDbEntity
  8
0
100
AcDbSpline
 62
7
  6
CONTINUOUS
 70
0
 71
3
 72
8
 73
4
 74
2
 42
0.0000001
 43
0.0000001
 44
0.0000000001
 12
-0.2373806419
 22
-0.2210097759
 32
0.0
 13
-0.4133697152
 23
0.0
 33
0.0
 40
0.0
 40
0.0
 40
0.0
 40
0.0
 40
1.0
 40
1.0
 40
1.0
 40
1.0
 10
6.2594766848
 20
29.1114347867
 30
0.0
 10
6.1803498041
 20
29.0377648614
 30
0.0
 10
6.0712092888
 20
29.0009301446
 30
0.0
 10
5.9334193837
 20
29.0009301446
 30
0.0
 11
6.2594766848
 21
29.1114347867
 31
0.0
 11
5.9334193837
 21
29.0009301446
 31
0.0
  0
SPLINE
  5
449
100
AcDbEntity
  8
0
100
AcDbSpline
 62
7
  6
CONTINUOUS
 70
0
 71
3
 72
8
 73
4
 74
2
 42
0.0000001
 43
0.0000001
 44
0.0000000001
 12
-0.4338335395
 22
0.0
 32
0.0
 13
-0.2495433152
 23
0.2211401419
 33
0.0
 40
0.0
 40
0.0
 40
0.0
 40
0.0
 40
1.0
 40
1.0
 40
1.0
 40
1.0
 10
5.9334193837
 20
29.0009301446
 30
0.0
 10
5.7888082039
 20
29.0009301446
 30
0.0
 10
5.6755749059
 20
29.0391290925
 30
0.0
 10
5.5923938008
 20
29.1128424731
 30
0.0
 11
5.9334193837
 21
29.0009301446
 31
0.0
 11
5.5923938008
 21
29.1128424731
 31
0.0
  0
SPLINE
  5
44A
100
AcDbEntity
  8
0
100
AcDbSpline
 62
7
  6
CONTINUOUS
 70
0
 71
3
 72
8
 73
4
 74
2
 42
0.0000001
 43
0.0000001
 44
0.0000000001
 12
-0.2538673519
 22
0.2249720141
 32
0.0
 13
-0.0
 23
0.311050415
 33
0.0
 40
0.0
 40
0.0
 40
0.0
 40
0.0
 40
1.0
 40
1.0
 40
1.0
 40
1.0
 10
5.5923938008
 20
29.1128424731
 30
0.0
 10
5.5077713501
 20
29.1878331445
 30
0.0
 10
5.4668436569
 20
29.2765100739
 30
0.0
 10
5.4668436569
 20
29.3801935456
 30
0.0
 11
5.5923938008
 21
29.1128424731
 31
0.0
 11
5.4668436569
 21
29.3801935456
 31
0.0
  0
SPLINE
  5
44B
100
AcDbEntity
  8
0
100
AcDbSpline
 62
7
  6
CONTINUOUS
 70
0
 71
3
 72
8
 73
4
 74
2
 42
0.0000001
 43
0.0000001
 44
0.0000000001
 12
-0.0
 22
0.2128229141
 32
0.0
 13
0.1218581482
 23
0.1929419996
 33
0.0
 40
0.0
 40
0.0
 40
0.0
 40
0.0
 40
1.0
 40
1.0
 40
1.0
 40
1.0
 10
5.4668436569
 20
29.3801935456
 30
0.0
 10
5.4668436569
 20
29.451134517
 30
0.0
 10
5.48594325
 20
29.519347503
 30
0.0
 10
5.5265626328
 20
29.5836615029
 30
0.0
 11
5.4668436569
 21
29.3801935456
 31
0.0
 11
5.5265626328
 21
29.5836615029
 31
0.0
  0
SPLINE
  5
44C
100
AcDbEntity
  8
0
100
AcDbSpline
 62
7
  6
CONTINUOUS
 70
0
 71
3
 72
8
 73
4
 74
2
 42
0.0000001
 43
0.0000001
 44
0.0000000001
 12
0.123708056
 22
0.1958710192
 32
0.0
 13
0.2329286915
 23
0.1071885759
 33
0.0
 40
0.0
 40
0.0
 40
0.0
 40
0.0
 40
1.0
 40
1.0
 40
1.0
 40
1.0
 10
5.5265626328
 20
29.5836615029
 30
0.0
 10
5.5677986514
 20
29.6489518426
 30
0.0
 10
5.626461662
 20
29.6994293473
 30
0.0
 10
5.7041045592
 20
29.7351588726
 30
0.0
 11
5.5265626328
 21
29.5836615029
 31
0.0
 11
5.7041045592
 21
29.7351588726
 31
0.0
  0
SPLINE
  5
44D
100
AcDbEntity
  8
0
100
AcDbSpline
 62
7
  6
CONTINUOUS
 70
0
 71
3
 72
8
 73
4
 74
2
 42
0.0000001
 43
0.0000001
 44
0.0000000001
 12
0.2295543271
 22
0.1056357688
 32
0.0
 13
0.2537516356
 23
0.0
 33
0.0
 40
0.0
 40
0.0
 40
0.0
 40
0.0
 40
1.0
 40
1.0
 40
1.0
 40
1.0
 10
5.7041045592
 20
29.7351588726
 30
0.0
 10
5.7806226682
 20
29.7703707955
 30
0.0
 10
5.8624780547
 20
29.7881058
 30
0.0
 10
5.9470619333
 20
29.7881058
 30
0.0
 11
5.7041045592
 21
29.7351588726
 31
0.0
 11
5.9470619333
 21
29.7881058
 31
0.0
  0
SPLINE
  5
44E
100
AcDbEntity
  8
0
100
AcDbSpline
 62
7
  6
CONTINUOUS
 70
0
 71
3
 72
8
 73
4
 74
2
 42
0.0000001
 43
0.0000001
 44
0.0000000001
 12
0.3847203255
 22
0.0
 32
0.0
 13
0.2384011301
 23
-0.2322356077
 33
0.0
 40
0.0
 40
0.0
 40
0.0
 40
0.0
 40
1.0
 40
1.0
 40
1.0
 40
1.0
 10
5.9470619333
 20
29.7881058
 30
0.0
 10
6.0753020417
 20
29.7881058
 30
0.0
 10
6.1803498041
 20
29.749906852
 30
0.0
 10
6.2598168475
 20
29.6724949828
 30
0.0
 11
5.9470619333
 21
29.7881058
 31
0.0
 11
6.2598168475
 21
29.6724949828
 31
0.0
  0
SPLINE
  5
44F
100
AcDbEntity
  8
0
100
AcDbSpline
 62
7
  6
CONTINUOUS
 70
0
 71
3
 72
8
 73
4
 74
2
 42
0.0000001
 43
0.0000001
 44
0.0000000001
 12
0.2631023094
 22
0.3018532819
 32
0.0
 13
-0.0
 23
0.4706697464
 33
0.0
 40
0.0
 40
0.0
 40
0.0
 40
0.0
 40
1.0
 40
1.0
 40
1.0
 40
1.0
 10
7.174504391
 20
28.967160662
 30
0.0
 10
7.2622051608
 20
29.0677784226
 30
0.0
 10
7.3072257411
 20
29.1960185311
 30
0.0
 10
7.3072257411
 20
29.3529084466
 30
0.0
 11
7.174504391
 21
28.967160662
 31
0.0
 11
7.3072257411
 21
29.3529084466
 31
0.0
  0
SPLINE
  5
450
100
AcDbEntity
  8
0
100
AcDbSpline
 62
7
  6
CONTINUOUS
 70
0
 71
3
 72
8
 73
4
 74
2
 42
0.0000001
 43
0.0000001
 44
0.0000000001
 12
-0.0
 22
0.6343789101
 32
0.0
 13
-0.4582152856
 23
0.3726568339
 33
0.0
 40
0.0
 40
0.0
 40
0.0
 40
0.0
 40
1.0
 40
1.0
 40
1.0
 40
1.0
 10
7.3072257411
 20
29.3529084466
 30
0.0
 10
7.3072257411
 20
29.5643680833
 30
0.0
 10
7.2308272493
 20
29.7321713708
 30
0.0
 10
7.0780888208
 20
29.8563903154
 30
0.0
 11
7.3072257411
 21
29.3529084466
 31
0.0
 11
7.0780888208
 21
29.8563903154
 31
0.0
  0
SPLINE
  5
451
100
AcDbEntity
  8
0
100
AcDbSpline
 62
7
  6
CONTINUOUS
 70
0
 71
3
 72
8
 73
4
 74
2
 42
0.0000001
 43
0.0000001
 44
0.0000000001
 12
-0.5281420457
 22
0.4295267941
 32
0.0
 13
-1.1582536697
 23
0.0
 33
0.0
 40
0.0
 40
0.0
 40
0.0
 40
0.0
 40
1.0
 40
1.0
 40
1.0
 40
1.0
 10
7.0780888208
 20
29.8563903154
 30
0.0
 10
6.9020414722
 20
29.9995659135
 30
0.0
 10
6.6210046184
 20
30.0705068849
 30
0.0
 10
6.2349200618
 20
30.0705068849
 30
0.0
 11
7.0780888208
 21
29.8563903154
 31
0.0
 11
6.2349200618
 21
30.0705068849
 31
0.0
  0
SPLINE
  5
452
100
AcDbEntity
  8
0
100
AcDbSpline
 62
7
  6
CONTINUOUS
 70
0
 71
3
 72
8
 73
4
 74
2
 42
0.0000001
 43
0.0000001
 44
0.0000000001
 12
-1.0395634174
 22
0.0
 32
0.0
 13
-0.4512146025
 23
-0.3876343147
 33
0.0
 40
0.0
 40
0.0
 40
0.0
 40
0.0
 40
1.0
 40
1.0
 40
1.0
 40
1.0
 10
6.2349200618
 20
30.0705068849
 30
0.0
 10
5.8883989227
 20
30.0705068849
 30
0.0
 10
5.6401042414
 20
30.006387069
 30
0.0
 10
5.4896993739
 20
29.8771756308
 30
0.0
 11
6.2349200618
 21
30.0705068849
 31
0.0
 11
5.4896993739
 21
29.8771756308
 31
0.0
  0
SPLINE
  5
453
100
AcDbEntity
  8
0
100
AcDbSpline
 62
7
  6
CONTINUOUS
 70
0
 71
3
 72
8
 73
4
 74
2
 42
0.0000001
 43
0.0000001
 44
0.0000000001
 12
-0.4491946937
 22
-0.3858990296
 32
0.0
 13
-0.0
 23
-0.6139154434
 33
0.0
 40
0.0
 40
0.0
 40
0.0
 40
0.0
 40
1.0
 40
1.0
 40
1.0
 40
1.0
 10
5.4896993739
 20
29.8771756308
 30
0.0
 10
5.3399678093
 20
29.7485426209
 30
0.0
 10
5.264933705
 20
29.5807388566
 30
0.0
 10
5.264933705
 20
29.3761003755
 30
0.0
 11
5.4896993739
 21
29.8771756308
 31
0.0
 11
5.264933705
 21
29.3761003755
 31
0.0
  0
SPLINE
  5
454
100
AcDbEntity
  8
0
100
AcDbSpline
 62
7
  6
CONTINUOUS
 70
0
 71
3
 72
8
 73
4
 74
2
 42
0.0000001
 43
0.0000001
 44
0.0000000001
 12
-0.0
 22
-0.360162735
 32
0.0
 13
0.1728012694
 23
-0.2859453999
 33
0.0
 40
0.0
 40
0.0
 40
0.0
 40
0.0
 40
1.0
 40
1.0
 40
1.0
 40
1.0
 10
5.264933705
 20
29.3761003755
 30
0.0
 10
5.264933705
 20
29.2560461305
 30
0.0
 10
5.2935830901
 20
29.1496341966
 30
0.0
 10
5.3511835132
 20
29.0543190633
 30
0.0
 11
5.264933705
 21
29.3761003755
 31
0.0
 11
5.3511835132
 21
29.0543190633
 31
0.0
  0
SPLINE
  5
455
100
AcDbEntity
  8
0
100
AcDbSpline
 62
7
  6
CONTINUOUS
 70
0
 71
3
 72
8
 73
4
 74
2
 42
0.0000001
 43
0.0000001
 44
0.0000000001
 12
0.1709913544
 22
-0.2829504169
 32
0.0
 13
0.3233287724
 23
-0.1637105762
 33
0.0
 40
0.0
 40
0.0
 40
0.0
 40
0.0
 40
1.0
 40
1.0
 40
1.0
 40
1.0
 10
5.3511835132
 20
29.0543190633
 30
0.0
 10
5.4081806314
 20
28.9600022576
 30
0.0
 10
5.4900360179
 20
28.8863323472
 30
0.0
 10
5.5978122753
 20
28.8317621551
 30
0.0
 11
5.3511835132
 21
29.0543190633
 31
0.0
 11
5.5978122753
 21
28.8317621551
 31
0.0
  0
SPLINE
  5
456
100
AcDbEntity
  8
0
100
AcDbSpline
 62
7
  6
CONTINUOUS
 70
0
 71
3
 72
8
 73
4
 74
2
 42
0.0000001
 43
0.0000001
 44
0.0000000001
 12
0.3233288435
 22
-0.1637106122
 32
0.0
 13
0.3765349388
 23
0.0
 33
0.0
 40
0.0
 40
0.0
 40
0.0
 40
0.0
 40
1.0
 40
1.0
 40
1.0
 40
1.0
 10
5.5978122753
 20
28.8317621551
 30
0.0
 10
5.7055885565
 20
28.7771919511
 30
0.0
 10
5.8229145777
 20
28.749906852
 30
0.0
 10
5.948426224
 20
28.749906852
 30
0.0
 11
5.5978122753
 21
28.8317621551
 31
0.0
 11
5.948426224
 21
28.749906852
 31
0.0
  0
SPLINE
  5
457
100
AcDbEntity
  8
0
100
AcDbSpline
 62
7
  6
CONTINUOUS
 70
0
 71
3
 72
8
 73
4
 74
2
 42
0.0000001
 43
0.0000001
 44
0.0000000001
 12
0.5729876161
 22
0.0
 32
0.0
 13
0.3601640289
 23
0.3437929733
 33
0.0
 40
0.0
 40
0.0
 40
0.0
 40
0.0
 40
1.0
 40
1.0
 40
1.0
 40
1.0
 10
5.948426224
 20
28.749906852
 30
0.0
 10
6.139422096
 20
28.749906852
 30
0.0
 10
6.2949473631
 20
28.8085697434
 30
0.0
 10
6.4150020394
 20
28.9231674012
 30
0.0
 11
5.948426224
 21
28.749906852
 31
0.0
 11
6.4150020394
 21
28.9231674012
 31
0.0
  0
SPLINE
  5
458
100
AcDbEntity
  8
0
100
AcDbSpline
 62
7
  6
CONTINUOUS
 70
0
 71
3
 72
8
 73
4
 74
2
 42
0.0000001
 43
0.0000001
 44
0.0000000001
 12
0.360163408
 22
0.3437923806
 32
0.0
 13
0.0
 23
0.4911317825
 33
0.0
 40
0.0
 40
0.0
 40
0.0
 40
0.0
 40
1.0
 40
1.0
 40
1.0
 40
1.0
 10
6.4150020394
 20
28.9231674012
 30
0.0
 10
6.5350565088
 20
29.0377648614
 30
0.0
 10
6.5964479816
 20
29.1769192956
 30
0.0
 10
6.5964479816
 20
29.3406298898
 30
0.0
 11
6.4150020394
 21
28.9231674012
 31
0.0
 11
6.5964479816
 21
29.3406298898
 31
0.0
  0
SPLINE
  5
459
100
AcDbEntity
  8
0
100
AcDbSpline
 62
7
  6
CONTINUOUS
 70
0
 71
3
 72
8
 73
4
 74
2
 42
0.0000001
 43
0.0000001
 44
0.0000000001
 12
0.0
 22
0.2824015617
 32
0.0
 13
-0.1301381767
 23
0.2541762429
 33
0.0
 40
0.0
 40
0.0
 40
0.0
 40
0.0
 40
1.0
 40
1.0
 40
1.0
 40
1.0
 10
6.5964479816
 20
29.3406298898
 30
0.0
 10
6.5964479816
 20
29.4347637437
 30
0.0
 10
6.5746199262
 20
29.5248044274
 30
0.0
 10
6.531240534
 20
29.6095298417
 30
0.0
 11
6.5964479816
 21
29.3406298898
 31
0.0
 11
6.531240534
 21
29.6095298417
 31
0.0
  0
SPLINE
  5
45A
100
AcDbEntity
  8
0
100
AcDbSpline
 62
7
  6
CONTINUOUS
 70
0
 71
3
 72
8
 73
4
 74
2
 42
0.0000001
 43
0.0000001
 44
0.0000000001
 12
-0.1317992032
 22
0.2574204368
 32
0.0
 13
-0.2701227665
 23
0.1759886742
 33
0.0
 40
0.0
 40
0.0
 40
0.0
 40
0.0
 40
1.0
 40
1.0
 40
1.0
 40
1.0
 10
6.531240534
 20
29.6095298417
 30
0.0
 10
6.4873074662
 20
29.695336654
 30
0.0
 10
6.4204589498
 20
29.7676423333
 30
0.0
 10
6.3304180276
 20
29.8263052247
 30
0.0
 11
6.531240534
 21
29.6095298417
 31
0.0
 11
6.3304180276
 21
29.8263052247
 31
0.0
  0
SPLINE
  5
45B
100
AcDbEntity
  8
0
100
AcDbSpline
 62
7
  6
CONTINUOUS
 70
0
 71
3
 72
8
 73
4
 74
2
 42
0.0000001
 43
0.0000001
 44
0.0000000001
 12
0.5975443125
 22
-0.0040926933
 32
0.0
 13
0.3278438811
 23
-0.1340238859
 33
0.0
 40
0.0
 40
0.0
 40
0.0
 40
0.0
 40
1.0
 40
1.0
 40
1.0
 40
1.0
 10
6.3304180276
 20
29.8263052247
 30
0.0
 10
6.5295994651
 20
29.8249409936
 30
0.0
 10
6.6837604415
 20
29.8017485879
 30
0.0
 10
6.7930417352
 20
29.7570739592
 30
0.0
 11
6.3304180276
 21
29.8263052247
 31
0.0
 11
6.7930417352
 21
29.7570739592
 31
0.0
  0
SPLINE
  5
45C
100
AcDbEntity
  8
0
100
AcDbSpline
 62
7
  6
CONTINUOUS
 70
0
 71
3
 72
8
 73
4
 74
2
 42
0.0000001
 43
0.0000001
 44
0.0000000001
 12
0.3229065175
 22
-0.132005472
 32
0.0
 13
0.1723718791
 23
-0.2329349168
 33
0.0
 40
0.0
 40
0.0
 40
0.0
 40
0.0
 40
1.0
 40
1.0
 40
1.0
 40
1.0
 10
6.7930417352
 20
29.7570739592
 30
0.0
 10
6.9006772411
 20
29.7130721352
 30
0.0
 10
6.9825326574
 20
29.6516803048
 30
0.0
 10
7.0399899504
 20
29.5740353325
 30
0.0
 11
6.7930417352
 21
29.7570739592
 31
0.0
 11
7.0399899504
 21
29.5740353325
 31
0.0
  0
SPLINE
  5
45D
100
AcDbEntity
  8
0
100
AcDbSpline
 62
7
  6
CONTINUOUS
 70
0
 71
3
 72
8
 73
4
 74
2
 42
0.0000001
 43
0.0000001
 44
0.0000000001
 12
0.1304927916
 22
-0.1763415686
 32
0.0
 13
-0.0
 23
-0.2373805046
 33
0.0
 40
0.0
 40
0.0
 40
0.0
 40
0.0
 40
1.0
 40
1.0
 40
1.0
 40
1.0
 10
7.0399899504
 20
29.5740353325
 30
0.0
 10
7.0834875476
 20
29.5152548097
 30
0.0
 10
7.1053157222
 20
29.4470418237
 30
0.0
 10
7.1053157222
 20
29.3679149888
 30
0.0
 11
7.0399899504
 21
29.5740353325
 31
0.0
 11
7.1053157222
 21
29.3679149888
 31
0.0
  0
SPLINE
  5
45E
100
AcDbEntity
  8
0
100
AcDbSpline
 62
7
  6
CONTINUOUS
 70
0
 71
3
 72
8
 73
4
 74
2
 42
0.0000001
 43
0.0000001
 44
0.0000000001
 12
-0.0
 22
-0.2905869484
 32
0.0
 13
-0.2108998442
 23
-0.1981950397
 33
0.0
 40
0.0
 40
0.0
 40
0.0
 40
0.0
 40
1.0
 40
1.0
 40
1.0
 40
1.0
 10
7.1053157222
 20
29.3679149888
 30
0.0
 10
7.1053157222
 20
29.2710526727
 30
0.0
 10
7.0698449981
 20
29.1891973756
 30
0.0
 10
6.99954505
 20
29.1231323623
 30
0.0
 11
7.1053157222
 21
29.3679149888
 31
0.0
 11
6.99954505
 21
29.1231323623
 31
0.0
  0
SPLINE
  5
45F
100
AcDbEntity
  8
0
100
AcDbSpline
 62
7
  6
CONTINUOUS
 70
0
 71
3
 72
8
 73
4
 74
2
 42
0.0000001
 43
0.0000001
 44
0.0000000001
 12
-0.1287997817
 22
-0.121040762
 32
0.0
 13
-0.2864938974
 23
-0.0654845238
 33
0.0
 40
0.0
 40
0.0
 40
0.0
 40
0.0
 40
1.0
 40
1.0
 40
1.0
 40
1.0
 10
6.99954505
 20
29.1231323623
 30
0.0
 10
6.9566117894
 20
29.0827854417
 30
0.0
 10
6.8856704604
 20
29.0514076493
 30
0.0
 10
6.7901724946
 20
29.0295794747
 30
0.0
 11
6.99954505
 21
29.1231323623
 31
0.0
 11
6.7901724946
 21
29.0295794747
 31
0.0
  0
SPLINE
  5
460
100
AcDbEntity
  8
0
100
AcDbSpline
 62
7
  6
CONTINUOUS
 70
0
 71
3
 72
8
 73
4
 74
2
 42
0.0000001
 43
0.0000001
 44
0.0000000001
 12
0.4665756226
 22
0.0613918304
 32
0.0
 13
0.2648647859
 23
0.3038753444
 33
0.0
 40
0.0
 40
0.0
 40
0.0
 40
0.0
 40
1.0
 40
1.0
 40
1.0
 40
1.0
 10
6.8092720878
 20
28.7853773377
 30
0.0
 10
6.9647972953
 20
28.8058412812
 30
0.0
 10
7.086216129
 20
28.8658688805
 30
0.0
 10
7.174504391
 20
28.967160662
 30
0.0
 11
6.8092720878
 21
28.7853773377
 31
0.0
 11
7.174504391
 21
28.967160662
 31
0.0
  0
SPLINE
  5
461
100
AcDbEntity
  8
0
100
AcDbSpline
 62
7
  6
CONTINUOUS
 70
0
 71
3
 72
8
 73
4
 74
2
 42
0.0000001
 43
0.0000001
 44
0.0000000001
 12
0.2873352698
 22
-0.1993389081
 32
0.0
 13
-0.0
 23
-0.3397006989
 33
0.0
 40
0.0
 40
0.0
 40
0.0
 40
0.0
 40
1.0
 40
1.0
 40
1.0
 40
1.0
 10
6.9604240253
 20
31.2338155037
 30
0.0
 10
7.0562024486
 20
31.167369201
 30
0.0
 10
7.1039514911
 20
31.0773285172
 30
0.0
 10
7.1039514911
 20
30.964094951
 30
0.0
 11
6.9604240253
 21
31.2338155037
 31
0.0
 11
7.1039514911
 21
30.964094951
 31
0.0
  0
SPLINE
  5
462
100
AcDbEntity
  8
0
100
AcDbSpline
 62
7
  6
CONTINUOUS
 70
0
 71
3
 72
8
 73
4
 74
2
 42
0.0000001
 43
0.0000001
 44
0.0000000001
 12
-0.0
 22
-0.3437919617
 32
0.0
 13
-0.3240060674
 23
-0.228230698
 33
0.0
 40
0.0
 40
0.0
 40
0.0
 40
0.0
 40
1.0
 40
1.0
 40
1.0
 40
1.0
 10
7.1039514911
 20
30.964094951
 30
0.0
 10
7.1039514911
 20
30.8494976304
 30
0.0
 10
7.0493811738
 20
30.7539995454
 30
0.0
 10
6.9413791513
 20
30.6779226461
 30
0.0
 11
7.1039514911
 21
30.964094951
 31
0.0
 11
6.9413791513
 21
30.6779226461
 31
0.0
  0
SPLINE
  5
463
100
AcDbEntity
  8
0
100
AcDbSpline
 62
7
  6
CONTINUOUS
 70
0
 71
3
 72
8
 73
4
 74
2
 42
0.0000001
 43
0.0000001
 44
0.0000000001
 12
-0.3267443312
 22
-0.2301595379
 32
0.0
 13
-0.9863573313
 23
0.0
 33
0.0
 40
0.0
 40
0.0
 40
0.0
 40
0.0
 40
1.0
 40
1.0
 40
1.0
 40
1.0
 10
6.9413791513
 20
30.6779226461
 30
0.0
 10
6.8324643743
 20
30.6012028001
 30
0.0
 10
6.6141833436
 20
30.5616396211
 30
0.0
 10
6.2853975665
 20
30.5616396211
 30
0.0
 11
6.9413791513
 21
30.6779226461
 31
0.0
 11
6.2853975665
 21
30.5616396211
 31
0.0
  0
SPLINE
  5
464
100
AcDbEntity
  8
0
100
AcDbSpline
 62
7
  6
CONTINUOUS
 70
0
 71
3
 72
8
 73
4
 74
2
 42
0.0000001
 43
0.0000001
 44
0.0000000001
 12
-0.9822646379
 22
0.0
 32
0.0
 13
-0.327421546
 23
0.229195118
 33
0.0
 40
0.0
 40
0.0
 40
0.0
 40
0.0
 40
1.0
 40
1.0
 40
1.0
 40
1.0
 10
6.2853975665
 20
30.5616396211
 30
0.0
 10
5.9579760206
 20
30.5616396211
 30
0.0
 10
5.7396949601
 20
30.6012028001
 30
0.0
 10
5.6305544448
 20
30.6776011727
 30
0.0
 11
6.2853975665
 21
30.5616396211
 31
0.0
 11
5.6305544448
 21
30.6776011727
 31
0.0
  0
SPLINE
  5
465
100
AcDbEntity
  8
0
100
AcDbSpline
 62
7
  6
CONTINUOUS
 70
0
 71
3
 72
8
 73
4
 74
2
 42
0.0000001
 43
0.0000001
 44
0.0000000001
 12
-0.327421546
 22
0.229195118
 32
0.0
 13
-0.0
 23
0.335606575
 33
0.0
 40
0.0
 40
0.0
 40
0.0
 40
0.0
 40
1.0
 40
1.0
 40
1.0
 40
1.0
 10
5.6305544448
 20
30.6776011727
 30
0.0
 10
5.5214139294
 20
30.7539995454
 30
0.0
 10
5.4668436569
 20
30.8494976304
 30
0.0
 10
5.4668436569
 20
30.9613664887
 30
0.0
 11
5.6305544448
 21
30.6776011727
 31
0.0
 11
5.4668436569
 21
30.9613664887
 31
0.0
  0
SPLINE
  5
466
100
AcDbEntity
  8
0
100
AcDbSpline
 62
7
  6
CONTINUOUS
 70
0
 71
3
 72
8
 73
4
 74
2
 42
0.0000001
 43
0.0000001
 44
0.0000000001
 12
-0.0
 22
0.3397006989
 32
0.0
 13
0.327421546
 23
0.229195118
 33
0.0
 40
0.0
 40
0.0
 40
0.0
 40
0.0
 40
1.0
 40
1.0
 40
1.0
 40
1.0
 10
5.4668436569
 20
30.9613664887
 30
0.0
 10
5.4668436569
 20
31.074600055
 30
0.0
 10
5.5200496685
 20
31.1700976632
 30
0.0
 10
5.6291901839
 20
31.2464960359
 30
0.0
 11
5.4668436569
 21
30.9613664887
 31
0.0
 11
5.6291901839
 21
31.2464960359
 31
0.0
  0
SPLINE
  5
467
100
AcDbEntity
  8
0
100
AcDbSpline
 62
7
  6
CONTINUOUS
 70
0
 71
3
 72
8
 73
4
 74
2
 42
0.0000001
 43
0.0000001
 44
0.0000000001
 12
0.327421546
 22
0.229195118
 32
0.0
 13
0.9863575101
 23
0.0
 33
0.0
 40
0.0
 40
0.0
 40
0.0
 40
0.0
 40
1.0
 40
1.0
 40
1.0
 40
1.0
 10
5.6291901839
 20
31.2464960359
 30
0.0
 10
5.7383306992
 20
31.3228944085
 30
0.0
 10
5.9566117298
 20
31.3610938332
 30
0.0
 10
6.2853975665
 20
31.3610938332
 30
0.0
 11
5.6291901839
 21
31.2464960359
 31
0.0
 11
6.2853975665
 21
31.3610938332
 31
0.0
  0
SPLINE
  5
468
100
AcDbEntity
  8
0
100
AcDbSpline
 62
7
  6
CONTINUOUS
 70
0
 71
3
 72
8
 73
4
 74
2
 42
0.0000001
 43
0.0000001
 44
0.0000000001
 12
0.9822646379
 22
0.0
 32
0.0
 13
0.3675078222
 23
-0.2549586345
 33
0.0
 40
0.0
 40
0.0
 40
0.0
 40
0.0
 40
1.0
 40
1.0
 40
1.0
 40
1.0
 10
6.2853975665
 20
31.3610938332
 30
0.0
 10
6.6128191125
 20
31.3610938332
 30
0.0
 10
6.8379214179
 20
31.3188017152
 30
0.0
 10
6.9604240253
 20
31.2338155037
 30
0.0
 11
6.2853975665
 21
31.3610938332
 31
0.0
 11
6.9604240253
 21
31.2338155037
 31
0.0
  0
SPLINE
  5
469
100
AcDbEntity
  8
0
100
AcDbSpline
 62
7
  6
CONTINUOUS
 70
0
 71
3
 72
8
 73
4
 74
2
 42
0.0000001
 43
0.0000001
 44
0.0000000001
 12
-0.4162741642
 22
-0.3289306513
 32
0.0
 13
0.0
 23
-0.5811738968
 33
0.0
 40
0.0
 40
0.0
 40
0.0
 40
0.0
 40
1.0
 40
1.0
 40
1.0
 40
1.0
 10
5.4719045818
 20
31.4161671856
 30
0.0
 10
5.3331465271
 20
31.3065236352
 30
0.0
 10
5.264933705
 20
31.155091121
 30
0.0
 10
5.264933705
 20
30.9613664887
 30
0.0
 11
5.4719045818
 21
31.4161671856
 31
0.0
 11
5.264933705
 21
30.9613664887
 31
0.0
  0
SPLINE
  5
46A
100
AcDbEntity
  8
0
100
AcDbSpline
 62
7
  6
CONTINUOUS
 70
0
 71
3
 72
8
 73
4
 74
2
 42
0.0000001
 43
0.0000001
 44
0.0000000001
 12
0.0
 22
-0.4379253387
 32
0.0
 13
0.2373806358
 23
-0.286494254
 33
0.0
 40
0.0
 40
0.0
 40
0.0
 40
0.0
 40
1.0
 40
1.0
 40
1.0
 40
1.0
 10
5.264933705
 20
30.9613664887
 30
0.0
 10
5.264933705
 20
30.8153913758
 30
0.0
 10
5.3031328853
 20
30.6939724229
 30
0.0
 10
5.3822597639
 20
30.5984743382
 30
0.0
 11
5.264933705
 21
30.9613664887
 31
0.0
 11
5.3822597639
 21
30.5984743382
 31
0.0
  0
SPLINE
  5
46B
100
AcDbEntity
  8
0
100
AcDbSpline
 62
7
  6
CONTINUOUS
 70
0
 71
3
 72
8
 73
4
 74
2
 42
0.0000001
 43
0.0000001
 44
0.0000000001
 12
0.2373806375
 22
-0.2864942561
 32
0.0
 13
0.4344458497
 23
-0.1454985406
 33
0.0
 40
0.0
 40
0.0
 40
0.0
 40
0.0
 40
1.0
 40
1.0
 40
1.0
 40
1.0
 10
5.3822597639
 20
30.5984743382
 30
0.0
 10
5.461386643
 20
30.5029762528
 30
0.0
 10
5.5718914044
 20
30.4306710503
 30
0.0
 10
5.7167066876
 20
30.3821715368
 30
0.0
 11
5.3822597639
 21
30.5984743382
 31
0.0
 11
5.7167066876
 21
30.3821715368
 31
0.0
  0
SPLINE
  5
46C
100
AcDbEntity
  8
0
100
AcDbSpline
 62
7
  6
CONTINUOUS
 70
0
 71
3
 72
8
 73
4
 74
2
 42
0.0000001
 43
0.0000001
 44
0.0000000001
 12
0.4332212292
 22
-0.1450884078
 32
0.0
 13
0.703956306
 23
0.0
 33
0.0
 40
0.0
 40
0.0
 40
0.0
 40
0.0
 40
1.0
 40
1.0
 40
1.0
 40
1.0
 10
5.7167066876
 20
30.3821715368
 30
0.0
 10
5.861113764
 20
30.3338087342
 30
0.0
 10
6.0507454645
 20
30.3092520974
 30
0.0
 10
6.2853975665
 20
30.3092520974
 30
0.0
 11
5.7167066876
 21
30.3821715368
 31
0.0
 11
6.2853975665
 21
30.3092520974
 31
0.0
  0
SPLINE
  5
46D
100
AcDbEntity
  8
0
100
AcDbSpline
 62
7
  6
CONTINUOUS
 70
0
 71
3
 72
8
 73
4
 74
2
 42
0.0000001
 43
0.0000001
 44
0.0000000001
 12
0.5934516191
 22
0.0
 32
0.0
 13
0.351978582
 23
0.0900414859
 33
0.0
 40
0.0
 40
0.0
 40
0.0
 40
0.0
 40
1.0
 40
1.0
 40
1.0
 40
1.0
 10
6.2853975665
 20
30.3092520974
 30
0.0
 10
6.4832147729
 20
30.3092520974
 30
0.0
 10
6.6401042115
 20
30.3242586396
 30
0.0
 10
6.7574304055
 20
30.3542724682
 30
0.0
 11
6.2853975665
 21
30.3092520974
 31
0.0
 11
6.7574304055
 21
30.3542724682
 31
0.0
  0
SPLINE
  5
46E
100
AcDbEntity
  8
0
100
AcDbSpline
 62
7
  6
CONTINUOUS
 70
0
 71
3
 72
8
 73
4
 74
2
 42
0.0000001
 43
0.0000001
 44
0.0000000001
 12
0.3519779028
 22
0.0900413121
 32
0.0
 13
0.2446318754
 23
0.1569719983
 33
0.0
 40
0.0
 40
0.0
 40
0.0
 40
0.0
 40
1.0
 40
1.0
 40
1.0
 40
1.0
 10
6.7574304055
 20
30.3542724682
 30
0.0
 10
6.8747563731
 20
30.3842862389
 30
0.0
 10
6.9729828012
 20
30.4265778802
 30
0.0
 10
7.0545267597
 20
30.4789018796
 30
0.0
 11
6.7574304055
 21
30.3542724682
 31
0.0
 11
7.0545267597
 21
30.4789018796
 31
0.0
  0
SPLINE
  5
46F
100
AcDbEntity
  8
0
100
AcDbSpline
 62
7
  6
CONTINUOUS
 70
0
 71
3
 72
8
 73
4
 74
2
 42
0.0000001
 43
0.0000001
 44
0.0000000001
 12
0.2465006224
 22
0.15817111
 32
0.0
 13
0.1301142459
 23
0.2419308151
 33
0.0
 40
0.0
 40
0.0
 40
0.0
 40
0.0
 40
1.0
 40
1.0
 40
1.0
 40
1.0
 10
7.0545267597
 20
30.4789018796
 30
0.0
 10
7.1366936338
 20
30.531625583
 30
0.0
 10
7.1980851066
 20
30.5984743379
 30
0.0
 10
7.2414565219
 20
30.6791179429
 30
0.0
 11
7.0545267597
 21
30.4789018796
 31
0.0
 11
7.2414565219
 21
30.6791179429
 31
0.0
  0
SPLINE
  5
470
100
AcDbEntity
  8
0
100
AcDbSpline
 62
7
  6
CONTINUOUS
 70
0
 71
3
 72
8
 73
4
 74
2
 42
0.0000001
 43
0.0000001
 44
0.0000000001
 12
0.131823134
 22
0.2451082741
 32
0.0
 13
0.0
 23
0.3192358017
 33
0.0
 40
0.0
 40
0.0
 40
0.0
 40
0.0
 40
1.0
 40
1.0
 40
1.0
 40
1.0
 10
7.2414565219
 20
30.6791179429
 30
0.0
 10
7.2853975665
 20
30.7608207009
 30
0.0
 10
7.3072257411
 20
30.8549545548
 30
0.0
 10
7.3072257411
 20
30.9613664887
 30
0.0
 11
7.2414565219
 21
30.6791179429
 31
0.0
 11
7.3072257411
 21
30.9613664887
 31
0.0
  0
SPLINE
  5
471
100
AcDbEntity
  8
0
100
AcDbSpline
 62
7
  6
CONTINUOUS
 70
0
 71
3
 72
8
 73
4
 74
2
 42
0.0000001
 43
0.0000001
 44
0.0000000001
 12
0.0
 22
0.4379267693
 32
0.0
 13
-0.2345072137
 23
0.2854868258
 33
0.0
 40
0.0
 40
0.0
 40
0.0
 40
0.0
 40
1.0
 40
1.0
 40
1.0
 40
1.0
 10
7.3072257411
 20
30.9613664887
 30
0.0
 10
7.3072257411
 20
31.1073420785
 30
0.0
 10
7.2676622045
 20
31.2287610314
 30
0.0
 10
7.1894931333
 20
31.3239233067
 30
0.0
 11
7.3072257411
 21
30.9613664887
 31
0.0
 11
7.1894931333
 21
31.3239233067
 31
0.0
  0
SPLINE
  5
472
100
AcDbEntity
  8
0
100
AcDbSpline
 62
7
  6
CONTINUOUS
 70
0
 71
3
 72
8
 73
4
 74
2
 42
0.0000001
 43
0.0000001
 44
0.0000000001
 12
-0.2361611022
 22
0.2875002538
 32
0.0
 13
-0.4338333792
 23
0.1473397664
 33
0.0
 40
0.0
 40
0.0
 40
0.0
 40
0.0
 40
1.0
 40
1.0
 40
1.0
 40
1.0
 10
7.1894931333
 20
31.3239233067
 30
0.0
 10
7.1107727659
 20
31.4197567246
 30
0.0
 10
7.0002679002
 20
31.492062404
 30
0.0
 10
6.8556567738
 20
31.5411756594
 30
0.0
 11
7.1894931333
 21
31.3239233067
 31
0.0
 11
6.8556567738
 21
31.5411756594
 31
0.0
  0
SPLINE
  5
473
100
AcDbEntity
  8
0
100
AcDbSpline
 62
7
  6
CONTINUOUS
 70
0
 71
3
 72
8
 73
4
 74
2
 42
0.0000001
 43
0.0000001
 44
0.0000000001
 12
-0.4338336998
 22
0.1473398753
 32
0.0
 13
-0.7080491781
 23
0.0
 33
0.0
 40
0.0
 40
0.0
 40
0.0
 40
0.0
 40
1.0
 40
1.0
 40
1.0
 40
1.0
 10
6.8556567738
 20
31.5411756594
 30
0.0
 10
6.7110455406
 20
31.5902889512
 30
0.0
 10
6.5214139592
 20
31.6134813569
 30
0.0
 10
6.2853975665
 20
31.6134813569
 30
0.0
 11
6.8556567738
 21
31.5411756594
 31
0.0
 11
6.2853975665
 21
31.6134813569
 31
0.0
  0
SPLINE
  5
474
100
AcDbEntity
  8
0
100
AcDbSpline
 62
7
  6
CONTINUOUS
 70
0
 71
3
 72
8
 73
4
 74
2
 42
0.0000001
 43
0.0000001
 44
0.0000000001
 12
-1.1296044588
 22
0.0
 32
0.0
 13
-0.5005061959
 23
-0.3954889425
 33
0.0
 40
0.0
 40
0.0
 40
0.0
 40
0.0
 40
1.0
 40
1.0
 40
1.0
 40
1.0
 10
6.2853975665
 20
31.6134813569
 30
0.0
 10
5.9088627469
 20
31.6134813569
 30
0.0
 10
5.6387399804
 20
31.5479968331
 30
0.0
 10
5.4719045818
 20
31.4161671856
 30
0.0
 11
6.2853975665
 21
31.6134813569
 31
0.0
 11
5.4719045818
 21
31.4161671856
 31
0.0
  0
SPLINE
  5
475
100
AcDbEntity
  8
0
100
AcDbSpline
 62
7
  6
CONTINUOUS
 70
0
 71
3
 72
8
 73
4
 74
2
 42
0.0000001
 43
0.0000001
 44
0.0000000001
 12
-0.3058139858
 22
-0.3448104457
 32
0.0
 13
-0.0
 23
-0.5484316349
 33
0.0
 40
0.0
 40
0.0
 40
0.0
 40
0.0
 40
1.0
 40
1.0
 40
1.0
 40
1.0
 10
5.4173491882
 20
32.9712556012
 30
0.0
 10
5.315411193
 20
32.8563187859
 30
0.0
 10
5.264933705
 20
32.7076149724
 30
0.0
 10
5.264933705
 20
32.5248044274
 30
0.0
 11
5.4173491882
 21
32.9712556012
 31
0.0
 11
5.264933705
 21
32.5248044274
 31
0.0
  0
SPLINE
  5
476
100
AcDbEntity
  8
0
100
AcDbSpline
 62
7
  6
CONTINUOUS
 70
0
 71
3
 72
8
 73
4
 74
2
 42
0.0000001
 43
0.0000001
 44
0.0000000001
 12
-0.0
 22
-0.6630277634
 32
0.0
 13
0.4857471805
 23
-0.3863383787
 33
0.0
 40
0.0
 40
0.0
 40
0.0
 40
0.0
 40
1.0
 40
1.0
 40
1.0
 40
1.0
 10
5.264933705
 20
32.5248044274
 30
0.0
 10
5.264933705
 20
32.303795173
 30
0.0
 10
5.345424838
 20
32.127806022
 30
0.0
 10
5.5073405649
 20
31.9990265624
 30
0.0
 11
5.264933705
 21
32.5248044274
 31
0.0
 11
5.5073405649
 21
31.9990265624
 31
0.0
  0
SPLINE
  5
477
100
AcDbEntity
  8
0
100
AcDbSpline
 62
7
  6
CONTINUOUS
 70
0
 71
3
 72
8
 73
4
 74
2
 42
0.0000001
 43
0.0000001
 44
0.0000000001
 12
0.3941982467
 22
-0.3135250551
 32
0.0
 13
0.5443384051
 23
0.0
 33
0.0
 40
0.0
 40
0.0
 40
0.0
 40
0.0
 40
1.0
 40
1.0
 40
1.0
 40
1.0
 10
5.5073405649
 20
31.9990265624
 30
0.0
 10
5.6387399804
 20
31.8945182107
 30
0.0
 10
5.7956294787
 20
31.8413122437
 30
0.0
 10
5.9770756137
 20
31.8413122437
 30
0.0
 11
5.5073405649
 21
31.9990265624
 31
0.0
 11
5.9770756137
 21
31.8413122437
 31
0.0
  0
SPLINE
  5
478
100
AcDbEntity
  8
0
100
AcDbSpline
 62
7
  6
CONTINUOUS
 70
0
 71
3
 72
8
 73
4
 74
2
 42
0.0000001
 43
0.0000001
 44
0.0000000001
 12
0.5688949227
 22
0.0
 32
0.0
 13
0.3632379455
 23
0.3611856119
 33
0.0
 40
0.0
 40
0.0
 40
0.0
 40
0.0
 40
1.0
 40
1.0
 40
1.0
 40
1.0
 10
5.9770756137
 20
31.8413122437
 30
0.0
 10
6.1667072546
 20
31.8413122437
 30
0.0
 10
6.3222325218
 20
31.9013393662
 30
0.0
 10
6.4433118369
 20
32.0217345702
 30
0.0
 11
5.9770756137
 21
31.8413122437
 31
0.0
 11
6.4433118369
 21
32.0217345702
 31
0.0
  0
SPLINE
  5
479
100
AcDbEntity
  8
0
100
AcDbSpline
 62
7
  6
CONTINUOUS
 70
0
 71
3
 72
8
 73
4
 74
2
 42
0.0000001
 43
0.0000001
 44
0.0000000001
 12
0.3611820059
 22
0.3591412886
 32
0.0
 13
-0.0
 23
0.5238747597
 33
0.0
 40
0.0
 40
0.0
 40
0.0
 40
0.0
 40
1.0
 40
1.0
 40
1.0
 40
1.0
 10
6.4433118369
 20
32.0217345702
 30
0.0
 10
6.5637058389
 20
32.1414483331
 30
0.0
 10
6.6250974309
 20
32.2887881539
 30
0.0
 10
6.6250974309
 20
32.4634130738
 30
0.0
 11
6.4433118369
 21
32.0217345702
 31
0.0
 11
6.6250974309
 21
32.4634130738
 31
0.0
  0
SPLINE
  5
47A
100
AcDbEntity
  8
0
100
AcDbSpline
 62
7
  6
CONTINUOUS
 70
0
 71
3
 72
8
 73
4
 74
2
 42
0.0000001
 43
0.0000001
 44
0.0000000001
 12
-0.0
 22
0.3969984055
 32
0.0
 13
-0.2496589422
 23
0.3601634502
 33
0.0
 40
0.0
 40
0.0
 40
0.0
 40
0.0
 40
1.0
 40
1.0
 40
1.0
 40
1.0
 10
6.6250974309
 20
32.4634130738
 30
0.0
 10
6.6250974309
 20
32.5957458756
 30
0.0
 10
6.5828054321
 20
32.7212575219
 30
0.0
 10
6.4995857847
 20
32.8413120053
 30
0.0
 11
6.6250974309
 21
32.4634130738
 31
0.0
 11
6.4995857847
 21
32.8413120053
 31
0.0
  0
SPLINE
  5
47B
100
AcDbEntity
  8
0
100
AcDbSpline
 62
7
  6
CONTINUOUS
 70
0
 71
3
 72
8
 73
4
 74
2
 42
0.0000001
 43
0.0000001
 44
0.0000000001
 12
0.1718961596
 22
-0.1064121723
 32
0.0
 13
0.1072827393
 23
-0.1918707513
 33
0.0
 40
0.0
 40
0.0
 40
0.0
 40
0.0
 40
1.0
 40
1.0
 40
1.0
 40
1.0
 10
6.2144562375
 20
32.8931537412
 30
0.0
 10
6.2717549574
 20
32.8576830171
 30
0.0
 10
6.3181397092
 20
32.8072055123
 30
0.0
 10
6.3539006223
 20
32.7432485952
 30
0.0
 11
6.2144562375
 21
32.8931537412
 31
0.0
 11
6.3539006223
 21
32.7432485952
 31
0.0
  0
SPLINE
  5
47C
100
AcDbEntity
  8
0
100
AcDbSpline
 62
7
  6
CONTINUOUS
 70
0
 71
3
 72
8
 73
4
 74
2
 42
0.0000001
 43
0.0000001
 44
0.0000000001
 12
0.1055412477
 22
-0.1887561656
 32
0.0
 13
0.0
 23
-0.2373805046
 33
0.0
 40
0.0
 40
0.0
 40
0.0
 40
0.0
 40
1.0
 40
1.0
 40
1.0
 40
1.0
 10
6.3539006223
 20
32.7432485952
 30
0.0
 10
6.3890810382
 20
32.6803298734
 30
0.0
 10
6.4081806314
 20
32.608024194
 30
0.0
 10
6.4081806314
 20
32.5288973592
 30
0.0
 11
6.3539006223
 21
32.7432485952
 31
0.0
 11
6.4081806314
 21
32.5288973592
 31
0.0
  0
SPLINE
  5
47D
100
AcDbEntity
  8
0
100
AcDbSpline
 62
7
  6
CONTINUOUS
 70
0
 71
3
 72
8
 73
4
 74
2
 42
0.0000001
 43
0.0000001
 44
0.0000000001
 12
0.0
 22
-0.3806276321
 32
0.0
 13
-0.2424684267
 23
-0.2363556247
 33
0.0
 40
0.0
 40
0.0
 40
0.0
 40
0.0
 40
1.0
 40
1.0
 40
1.0
 40
1.0
 10
6.4081806314
 20
32.5288973592
 30
0.0
 10
6.4081806314
 20
32.4020214818
 30
0.0
 10
6.3672529828
 20
32.2997020028
 30
0.0
 10
6.2864301739
 20
32.2209167946
 30
0.0
 11
6.4081806314
 21
32.5288973592
 31
0.0
 11
6.2864301739
 21
32.2209167946
 31
0.0
  0
SPLINE
  5
47E
100
AcDbEntity
  8
0
100
AcDbSpline
 62
7
  6
CONTINUOUS
 70
0
 71
3
 72
8
 73
4
 74
2
 42
0.0000001
 43
0.0000001
 44
0.0000000001
 12
-0.244571199
 22
-0.2384053845
 32
0.0
 13
-0.4174624085
 23
0.0
 33
0.0
 40
0.0
 40
0.0
 40
0.0
 40
0.0
 40
1.0
 40
1.0
 40
1.0
 40
1.0
 10
6.2864301739
 20
32.2209167946
 30
0.0
 10
6.204906441
 20
32.1414483331
 30
0.0
 10
6.0944016349
 20
32.101885154
 30
0.0
 10
5.9552474987
 20
32.101885154
 30
0.0
 11
6.2864301739
 21
32.2209167946
 31
0.0
 11
5.9552474987
 21
32.101885154
 31
0.0
  0
SPLINE
  5
47F
100
AcDbEntity
  8
0
100
AcDbSpline
 62
7
  6
CONTINUOUS
 70
0
 71
3
 72
8
 73
4
 74
2
 42
0.0000001
 43
0.0000001
 44
0.0000000001
 12
-0.442019105
 22
0.0
 32
0.0
 13
-0.2669620958
 23
0.2445458908
 33
0.0
 40
0.0
 40
0.0
 40
0.0
 40
0.0
 40
1.0
 40
1.0
 40
1.0
 40
1.0
 10
5.9552474987
 20
32.101885154
 30
0.0
 10
5.8079077971
 20
32.101885154
 30
0.0
 10
5.6892174554
 20
32.1428125642
 30
0.0
 10
5.6002300901
 20
32.2243278611
 30
0.0
 11
5.9552474987
 21
32.101885154
 31
0.0
 11
5.6002300901
 21
32.2243278611
 31
0.0
  0
SPLINE
  5
480
100
AcDbEntity
  8
0
100
AcDbSpline
 62
7
  6
CONTINUOUS
 70
0
 71
3
 72
8
 73
4
 74
2
 42
0.0000001
 43
0.0000001
 44
0.0000000001
 12
-0.2691906544
 22
0.2465873223
 32
0.0
 13
0.0
 23
0.3519780636
 33
0.0
 40
0.0
 40
0.0
 40
0.0
 40
0.0
 40
1.0
 40
1.0
 40
1.0
 40
1.0
 10
5.6002300901
 20
32.2243278611
 30
0.0
 10
5.5104998719
 20
32.3065236352
 30
0.0
 10
5.4668436569
 20
32.4074784062
 30
0.0
 10
5.4668436569
 20
32.5248044274
 30
0.0
 11
5.6002300901
 21
32.2243278611
 31
0.0
 11
5.4668436569
 21
32.5248044274
 31
0.0
  0
SPLINE
  5
481
100
AcDbEntity
  8
0
100
AcDbSpline
 62
7
  6
CONTINUOUS
 70
0
 71
3
 72
8
 73
4
 74
2
 42
0.0000001
 43
0.0000001
 44
0.0000000001
 12
0.0
 22
0.2946796417
 32
0.0
 13
0.1882671944
 23
0.2087310631
 33
0.0
 40
0.0
 40
0.0
 40
0.0
 40
0.0
 40
1.0
 40
1.0
 40
1.0
 40
1.0
 10
5.4668436569
 20
32.5248044274
 30
0.0
 10
5.4668436569
 20
32.6230309747
 30
0.0
 10
5.4982215684
 20
32.7076149724
 30
0.0
 10
5.5609772999
 20
32.7771919934
 30
0.0
 11
5.4668436569
 21
32.5248044274
 31
0.0
 11
5.5609772999
 21
32.7771919934
 31
0.0
  0
SPLINE
  5
482
100
AcDbEntity
  8
0
100
AcDbSpline
 62
7
  6
CONTINUOUS
 70
0
 71
3
 72
8
 73
4
 74
2
 42
0.0000001
 43
0.0000001
 44
0.0000000001
 12
0.1882676103
 22
0.2087315242
 32
0.0
 13
0.37653476
 23
0.0572984219
 33
0.0
 40
0.0
 40
0.0
 40
0.0
 40
0.0
 40
1.0
 40
1.0
 40
1.0
 40
1.0
 10
5.5609772999
 20
32.7771919934
 30
0.0
 10
5.62373317
 20
32.8467691682
 30
0.0
 10
5.719231106
 20
32.8904252789
 30
0.0
 10
5.8447426927
 20
32.9095247529
 30
0.0
 11
5.5609772999
 21
32.7771919934
 31
0.0
 11
5.8447426927
 21
32.9095247529
 31
0.0
  0
SPLINE
  5
483
100
AcDbEntity
  8
0
100
AcDbSpline
 62
7
  6
CONTINUOUS
 70
0
 71
3
 72
8
 73
4
 74
2
 42
0.0000001
 43
0.0000001
 44
0.0000000001
 12
-0.5075033605
 22
-0.0491137505
 32
0.0
 13
-0.3040086581
 23
-0.3427749082
 33
0.0
 40
0.0
 40
0.0
 40
0.0
 40
0.0
 40
1.0
 40
1.0
 40
1.0
 40
1.0
 10
5.8229145777
 20
33.1673694394
 30
0.0
 10
5.6537467909
 20
33.1509981893
 30
0.0
 10
5.5186854076
 20
33.0855139039
 30
0.0
 10
5.4173491882
 20
32.9712556012
 30
0.0
 11
5.8229145777
 21
33.1673694394
 31
0.0
 11
5.4173491882
 21
32.9712556012
 31
0.0
  0
SPLINE
  5
484
100
AcDbEntity
  8
0
100
AcDbSpline
 62
7
  6
CONTINUOUS
 70
0
 71
3
 72
8
 73
4
 74
2
 42
0.0000001
 43
0.0000001
 44
0.0000000001
 12
-0.2619373798
 22
0.1309685111
 32
0.0
 13
-0.2743360463
 23
0.3068498705
 33
0.0
 40
0.0
 40
0.0
 40
0.0
 40
0.0
 40
1.0
 40
1.0
 40
1.0
 40
1.0
 10
7.3072257411
 20
35.5084334753
 30
0.0
 10
7.2199132812
 20
35.5520896457
 30
0.0
 10
7.1312365901
 20
35.6243952654
 30
0.0
 10
7.0397912414
 20
35.7266785555
 30
0.0
 11
7.3072257411
 21
35.5084334753
 31
0.0
 11
7.0397912414
 21
35.7266785555
 31
0.0
  0
SPLINE
  5
485
100
AcDbEntity
  8
0
100
AcDbSpline
 62
7
  6
CONTINUOUS
 70
0
 71
3
 72
8
 73
4
 74
2
 42
0.0000001
 43
0.0000001
 44
0.0000000001
 12
-0.2781879243
 22
0.3111582662
 32
0.0
 13
-0.1923601627
 23
0.4092769325
 33
0.0
 40
0.0
 40
0.0
 40
0.0
 40
0.0
 40
1.0
 40
1.0
 40
1.0
 40
1.0
 10
7.0397912414
 20
35.7266785555
 30
0.0
 10
6.9470619333
 20
35.8303979776
 30
0.0
 10
6.8692993295
 20
35.9504525505
 30
0.0
 10
6.8051792753
 20
36.0868781946
 30
0.0
 11
7.0397912414
 21
35.7266785555
 31
0.0
 11
6.8051792753
 21
36.0868781946
 31
0.0
  0
SPLINE
  5
486
100
AcDbEntity
  8
0
100
AcDbSpline
 62
7
  6
CONTINUOUS
 70
0
 71
3
 72
8
 73
4
 74
2
 42
0.0000001
 43
0.0000001
 44
0.0000000001
 12
0.0818552971
 22
-0.229195118
 32
0.0
 13
0.1703796531
 23
-0.2873875595
 33
0.0
 40
0.0
 40
0.0
 40
0.0
 40
0.0
 40
1.0
 40
1.0
 40
1.0
 40
1.0
 10
6.5677986514
 20
36.0868781946
 30
0.0
 10
6.5950837505
 20
36.010479822
 30
0.0
 10
6.6373757493
 20
35.9245316825
 30
0.0
 10
6.694168967
 20
35.8287358293
 30
0.0
 11
6.5677986514
 21
36.0868781946
 31
0.0
 11
6.694168967
 21
35.8287358293
 31
0.0
  0
SPLINE
  5
487
100
AcDbEntity
  8
0
100
AcDbSpline
 62
7
  6
CONTINUOUS
 70
0
 71
3
 72
8
 73
4
 74
2
 42
0.0000001
 43
0.0000001
 44
0.0000000001
 12
0.1693199729
 22
-0.2856001459
 32
0.0
 13
0.1718963385
 23
-0.1800819039
 33
0.0
 40
0.0
 40
0.0
 40
0.0
 40
0.0
 40
1.0
 40
1.0
 40
1.0
 40
1.0
 10
6.694168967
 20
35.8287358293
 30
0.0
 10
6.750608958
 20
35.7335357807
 30
0.0
 10
6.8065435064
 20
35.6557731769
 30
0.0
 10
6.8638422859
 20
35.5957458756
 30
0.0
 11
6.694168967
 21
35.8287358293
 31
0.0
 11
6.8638422859
 21
35.5957458756
 31
0.0
  0
SPLINE
  5
488
100
AcDbEntity
  8
0
100
AcDbSpline
 62
7
  6
CONTINUOUS
 70
0
 71
3
 72
15
 73
11
 74
9
 42
0.0000001
 43
0.0000001
 44
0.0000000001
 12
-0.4835184717
 22
0.0
 32
0.0
 13
-0.0603858414
 23
0.4797329266
 33
0.0
 40
0.0
 40
0.0
 40
0.0
 40
0.0
 40
0.1698011113
 40
0.3679333228
 40
0.4547700576
 40
0.5366051795
 40
0.6096283322
 40
0.7028986669
 40
0.875422557
 40
1.0
 40
1.0
 40
1.0
 40
1.0
 10
10.218757919
 20
35.9887494412
 30
0.0
 10
10.1913905944
 20
35.9887494412
 30
0.0
 10
10.1319617001
 20
35.9919186612
 30
0.0
 10
10.0606439669
 20
36.0160195538
 30
0.0
 10
10.0129364078
 20
36.051390303
 30
0.0
 10
9.9848033836
 20
36.0784377151
 30
0.0
 10
9.9611959774
 20
36.11135692
 30
0.0
 10
9.9460935484
 20
36.1645554696
 30
0.0
 10
9.9370686996
 20
36.2267022424
 30
0.0
 10
9.9316596873
 20
36.2743097228
 30
0.0
 10
9.9291521161
 20
36.2942310233
 30
0.0
 11
10.218757919
 21
35.9887494412
 31
0.0
 11
10.1369060151
 21
35.9951525591
 31
0.0
 11
10.0468766353
 21
36.0279010352
 31
0.0
 11
10.0128967414
 21
36.052564548
 31
0.0
 11
9.9846969608
 21
36.080321741
 31
0.0
 11
9.9647438444
 21
36.1094512974
 31
0.0
 11
9.9503284187
 21
36.1521832382
 31
0.0
 11
9.936452409
 21
36.2344395476
 31
0.0
 11
9.9291521161
 21
36.2942310233
 31
0.0
  0
SPLINE
  5
489
100
AcDbEntity
  8
0
100
AcDbSpline
 62
7
  6
CONTINUOUS
 70
0
 71
3
 72
15
 73
11
 74
9
 42
0.0000001
 43
0.0000001
 44
0.0000000001
 12
-0.0603868396
 22
-0.4797359534
 32
0.0
 13
-0.4835216266
 23
0.0
 33
0.0
 40
0.0
 40
0.0
 40
0.0
 40
0.0
 40
0.124583155
 40
0.2971059195
 40
0.3903756456
 40
0.4633983218
 40
0.5452329097
 40
0.6320690779
 40
0.8301999967
 40
1.0
 40
1.0
 40
1.0
 40
1.0
 10
10.5083641161
 20
36.2942341535
 30
0.0
 10
10.5058563884
 20
36.274311814
 30
0.0
 10
10.5004472893
 20
36.2267032812
 30
0.0
 10
10.4914222896
 20
36.1645554696
 30
0.0
 10
10.4763198607
 20
36.11135692
 30
0.0
 10
10.4527124545
 20
36.0784377151
 30
0.0
 10
10.4245794302
 20
36.051390303
 30
0.0
 10
10.3768718711
 20
36.0160195538
 30
0.0
 10
10.305554138
 20
35.9919186612
 30
0.0
 10
10.2461252436
 20
35.9887494412
 30
0.0
 10
10.218757919
 20
35.9887494412
 30
0.0
 11
10.5083641161
 21
36.2942341535
 31
0.0
 11
10.5010634291
 21
36.2344395476
 31
0.0
 11
10.4871874194
 21
36.1521832382
 31
0.0
 11
10.4727719937
 21
36.1094512974
 31
0.0
 11
10.4528188773
 21
36.080321741
 31
0.0
 11
10.4246190967
 21
36.052564548
 31
0.0
 11
10.3906392028
 21
36.0279010352
 31
0.0
 11
10.300609823
 21
35.9951525591
 31
0.0
 11
10.218757919
 21
35.9887494412
 31
0.0
  0
SPLINE
  5
48A
100
AcDbEntity
  8
0
100
AcDbSpline
 62
7
  6
CONTINUOUS
 70
0
 71
3
 72
18
 73
14
 74
12
 42
0.0000001
 43
0.0000001
 44
0.0000000001
 12
0.0447291003
 22
-1.2068445068
 32
0.0
 13
1.2076731161
 23
0.0
 33
0.0
 40
0.0
 40
0.0
 40
0.0
 40
0.0
 40
0.080438448
 40
0.1871258711
 40
0.2845998599
 40
0.3554555511
 40
0.4291498603
 40
0.5086748088
 40
0.5822945178
 40
0.6545914158
 40
0.8099244779
 40
0.8991825523
 40
1.0
 40
1.0
 40
1.0
 40
1.0
 10
9.5884751161
 20
36.3637861769
 30
0.0
 10
9.5896744292
 20
36.3314272772
 30
0.0
 10
9.592739959
 20
36.2561377609
 30
0.0
 10
9.5988899546
 20
36.1418513029
 30
0.0
 10
9.609558465
 20
36.0311792562
 30
0.0
 10
9.6371992511
 20
35.9374460624
 30
0.0
 10
9.6675775078
 20
35.8525388397
 30
0.0
 10
9.7061424483
 20
35.769391779
 30
0.0
 10
9.7590970337
 20
35.6949556781
 30
0.0
 10
9.8476769986
 20
35.6111846711
 30
0.0
 10
9.9649212347
 20
35.5527145736
 30
0.0
 10
10.1014833953
 20
35.5246673191
 30
0.0
 10
10.1781730786
 20
35.5202417948
 30
0.0
 10
10.218757919
 20
35.5202417948
 30
0.0
 11
9.5884751161
 21
36.3637861769
 31
0.0
 11
9.5924906832
 21
36.266725856
 31
0.0
 11
9.6000470143
 21
36.1381040935
 31
0.0
 11
9.6148477402
 21
36.0213215448
 31
0.0
 11
9.6376171154
 21
35.9388359804
 31
0.0
 11
9.6680077035
 21
35.8551868958
 31
0.0
 11
9.7098257696
 21
35.7687290546
 31
0.0
 11
9.7616047549
 21
35.6964541229
 31
0.0
 11
9.8250047448
 21
35.6364236679
 31
0.0
 11
9.9918715386
 21
35.550714464
 31
0.0
 11
10.097252972
 21
35.5280335406
 31
0.0
 11
10.218757919
 21
35.5202417948
 31
0.0
  0
SPLINE
  5
48B
100
AcDbEntity
  8
0
100
AcDbSpline
 62
7
  6
CONTINUOUS
 70
0
 71
3
 72
18
 73
14
 74
12
 42
0.0000001
 43
0.0000001
 44
0.0000000001
 12
1.2076837546
 22
0.0
 32
0.0
 13
0.0447285268
 23
1.206855095
 33
0.0
 40
0.0
 40
0.0
 40
0.0
 40
0.0
 40
0.1008165596
 40
0.1900738478
 40
0.3454055415
 40
0.4177018026
 40
0.4913208631
 40
0.5708451111
 40
0.6445387711
 40
0.7153938381
 40
0.8128669683
 40
0.9195534516
 40
1.0
 40
1.0
 40
1.0
 40
1.0
 10
10.218757919
 20
35.5202417948
 30
0.0
 10
10.2593427595
 20
35.5202417948
 30
0.0
 10
10.3360324428
 20
35.5246673191
 30
0.0
 10
10.4725946034
 20
35.5527145736
 30
0.0
 10
10.5898388395
 20
35.6111846711
 30
0.0
 10
10.6784188044
 20
35.6949556781
 30
0.0
 10
10.7313733898
 20
35.769391779
 30
0.0
 10
10.7699383302
 20
35.8525388397
 30
0.0
 10
10.800316587
 20
35.9374460624
 30
0.0
 10
10.8279573731
 20
36.0311792562
 30
0.0
 10
10.8386258835
 20
36.1418513029
 30
0.0
 10
10.8447760695
 20
36.2561412983
 30
0.0
 10
10.8478416975
 20
36.3314343658
 30
0.0
 10
10.8490411161
 20
36.3637968081
 30
0.0
 11
10.218757919
 21
35.5202417948
 31
0.0
 11
10.340262866
 21
35.5280335406
 31
0.0
 11
10.4456442994
 21
35.550714464
 31
0.0
 11
10.6125110933
 21
35.6364236679
 31
0.0
 11
10.6759110832
 21
35.6964541229
 31
0.0
 11
10.7276900685
 21
35.7687290546
 31
0.0
 11
10.7695081346
 21
35.8551868958
 31
0.0
 11
10.7998987227
 21
35.9388359804
 31
0.0
 11
10.8226680978
 21
36.0213215448
 31
0.0
 11
10.8374688238
 21
36.1381040935
 31
0.0
 11
10.8450251549
 21
36.266725856
 31
0.0
 11
10.8490411161
 21
36.3637968081
 31
0.0
  0
SPLINE
  5
48C
100
AcDbEntity
  8
0
100
AcDbSpline
 62
7
  6
CONTINUOUS
 70
0
 71
3
 72
9
 73
5
 74
3
 42
0.0000001
 43
0.0000001
 44
0.0000000001
 12
0.0690021442
 22
-0.4043857955
 32
0.0
 13
-0.0472917492
 23
-0.4074959278
 33
0.0
 40
0.0
 40
0.0
 40
0.0
 40
0.0
 40
0.5157730833
 40
1.0
 40
1.0
 40
1.0
 40
1.0
 10
18.874633441
 20
28.8114784425
 30
0.0
 10
18.8864965906
 20
28.741954673
 30
0.0
 10
18.9039064843
 20
28.6057687114
 30
0.0
 10
18.8969849004
 20
28.468501172
 30
0.0
 10
18.8893515877
 20
28.4027276731
 30
0.0
 11
18.874633441
 21
28.8114784425
 31
0.0
 11
18.8979829944
 21
28.601184843
 31
0.0
 11
18.8893515877
 21
28.4027276731
 31
0.0
  0
SPLINE
  5
48D
100
AcDbEntity
  8
0
100
AcDbSpline
 62
7
  6
CONTINUOUS
 70
0
 71
3
 72
11
 73
7
 74
5
 42
0.0000001
 43
0.0000001
 44
0.0000000001
 12
-0.0539851999
 22
-0.465279798
 32
0.0
 13
-0.4683458999
 23
-0.0073251589
 33
0.0
 40
0.0
 40
0.0
 40
0.0
 40
0.0
 40
0.2563590326
 40
0.5005096934
 40
0.7431114866
 40
1.0
 40
1.0
 40
1.0
 40
1.0
 10
18.8893515877
 20
28.4027276731
 30
0.0
 10
18.8847383899
 20
28.3629681135
 30
0.0
 10
18.8633655411
 20
28.2860432257
 30
0.0
 10
18.7949233732
 20
28.1893962493
 30
0.0
 10
18.6957577414
 20
28.1238256915
 30
0.0
 10
18.6169693546
 20
28.1085776731
 30
0.0
 10
18.5768651273
 20
28.1079504234
 30
0.0
 11
18.8893515877
 21
28.4027276731
 31
0.0
 11
18.8563576999
 21
28.2872704244
 31
0.0
 11
18.7897291693
 21
28.1943238542
 31
0.0
 11
18.6947894517
 21
28.1318781506
 31
0.0
 11
18.5768651273
 21
28.1079504234
 31
0.0
  0
SPLINE
  5
48E
100
AcDbEntity
  8
0
100
AcDbSpline
 62
7
  6
CONTINUOUS
 70
0
 71
3
 72
12
 73
8
 74
6
 42
0.0000001
 43
0.0000001
 44
0.0000000001
 12
-0.6370405383
 22
-0.00982973
 32
0.0
 13
-0.01422691
 23
0.6369575073
 33
0.0
 40
0.0
 40
0.0
 40
0.0
 40
0.0
 40
0.2905572816
 40
0.4112277123
 40
0.5251830923
 40
0.7538171785
 40
1.0
 40
1.0
 40
1.0
 40
1.0
 10
18.5768651273
 20
28.1079504234
 30
0.0
 10
18.5151662049
 20
28.1069983902
 30
0.0
 10
18.4249346179
 20
28.1182362863
 30
0.0
 10
18.3268419311
 20
28.1736854388
 30
0.0
 10
18.2556099734
 20
28.2430775214
 30
0.0
 10
18.2012257112
 20
28.3598128045
 30
0.0
 10
18.1895747623
 20
28.4610096559
 30
0.0
 10
18.1884072887
 20
28.513278988
 30
0.0
 11
18.5768651273
 21
28.1079504234
 31
0.0
 11
18.3943593123
 21
28.1389439387
 31
0.0
 11
18.3276367259
 21
28.1771381933
 31
0.0
 11
18.2755703631
 21
28.2277372642
 31
0.0
 11
18.2103143364
 21
28.3579693105
 31
0.0
 11
18.1884072887
 21
28.513278988
 31
0.0
  0
SPLINE
  5
48F
100
AcDbEntity
  8
0
100
AcDbSpline
 62
7
  6
CONTINUOUS
 70
0
 71
3
 72
30
 73
26
 74
24
 42
0.0000001
 43
0.0000001
 44
0.0000000001
 12
0.1997259873
 22
-1.5478764014
 32
0.0
 13
0.5296216599
 23
1.468098335
 33
0.0
 40
0.0
 40
0.0
 40
0.0
 40
0.0
 40
0.007353389
 40
0.0194327631
 40
0.0561133174
 40
0.0799159575
 40
0.1068586579
 40
0.1689297051
 40
0.2406059842
 40
0.3214237214
 40
0.365593897
 40
0.4126050185
 40
0.462857119
 40
0.489356978
 40
0.5168583551
 40
0.5389626688
 40
0.5604194375
 40
0.6015433218
 40
0.6405387583
 40
0.6776587168
 40
0.7469697912
 40
0.8105221546
 40
0.8684615353
 40
0.9202118201
 40
1.0
 40
1.0
 40
1.0
 40
1.0
 10
17.9823782338
 20
27.9723660222
 30
0.0
 10
17.9828677881
 20
27.9685719764
 30
0.0
 10
17.9864527325
 20
27.9589696889
 30
0.0
 10
17.9990905372
 20
27.9327366401
 30
0.0
 10
18.0199858025
 20
27.9010176116
 30
0.0
 10
18.047888415
 20
27.8651163863
 30
0.0
 10
18.0869232335
 20
27.8212195461
 30
0.0
 10
18.1489075252
 20
27.7646828964
 30
0.0
 10
18.2421931627
 20
27.7025187855
 30
0.0
 10
18.3364433081
 20
27.6611225107
 30
0.0
 10
18.4226804821
 20
27.6368240636
 30
0.0
 10
18.4952290309
 20
27.6238443802
 30
0.0
 10
18.5595280377
 20
27.6187905544
 30
0.0
 10
18.6137795065
 20
27.6184442489
 30
0.0
 10
18.6533555979
 20
27.6200687235
 30
0.0
 10
18.6902003157
 20
27.6232284024
 30
0.0
 10
18.7339054314
 20
27.6288657892
 30
0.0
 10
18.7858522873
 20
27.6389308599
 30
0.0
 10
18.8445821212
 20
27.6556741988
 30
0.0
 10
18.9153678361
 20
27.6825904756
 30
0.0
 10
18.9938970561
 20
27.7241937784
 30
0.0
 10
19.073487577
 20
27.7840913788
 30
0.0
 10
19.137337758
 20
27.8481576219
 30
0.0
 10
19.197363183
 20
27.9264412202
 30
0.0
 10
19.2308787724
 20
27.9871192615
 30
0.0
 10
19.2449646218
 20
28.0261648928
 30
0.0
 11
17.9823782338
 21
27.9723660222
 31
0.0
 11
17.985694246
 21
27.961379026
 31
0.0
 11
17.9937376293
 21
27.9443286184
 31
0.0
 11
18.0243880989
 21
27.8959773666
 31
0.0
 11
18.0471859719
 21
27.8666464211
 31
0.0
 11
18.0750927583
 21
27.8351918626
 31
0.0
 11
18.1466147513
 21
27.7698517019
 31
0.0
 11
18.2397172147
 21
27.7078364801
 31
0.0
 11
18.3551632851
 21
27.6570257929
 31
0.0
 11
18.4215036532
 21
27.6382845233
 31
0.0
 11
18.4937160994
 21
27.6252992357
 31
0.0
 11
18.5718960157
 21
27.6190548795
 31
0.0
 11
18.6132535851
 21
27.6187683474
 31
0.0
 11
18.6561387942
 21
27.6205364042
 31
0.0
 11
18.6905092166
 21
27.6235051399
 31
0.0
 11
18.7237209711
 21
27.6277958139
 31
0.0
 11
18.7867198243
 21
27.6400647089
 31
0.0
 11
18.8452380499
 21
27.6567865529
 31
0.0
 11
18.8993783441
 21
27.6774048098
 31
0.0
 11
18.9949359227
 21
27.7281044168
 31
0.0
 11
19.0742141295
 21
27.7877112399
 31
0.0
 11
19.1380345336
 21
27.8517729891
 31
0.0
 11
19.1872187042
 21
27.9158373743
 31
0.0
 11
19.2449646218
 21
28.0261648928
 31
0.0
  0
SPLINE
  5
490
100
AcDbEntity
  8
0
100
AcDbSpline
 62
7
  6
CONTINUOUS
 70
0
 71
3
 72
10
 73
6
 74
4
 42
0.0000001
 43
0.0000001
 44
0.0000000001
 12
0.4409971245
 22
1.2206616097
 32
0.0
 13
-0.1889069371
 23
1.2840589544
 33
0.0
 40
0.0
 40
0.0
 40
0.0
 40
0.0
 40
0.2954237646
 40
0.5848737211
 40
1.0
 40
1.0
 40
1.0
 40
1.0
 10
19.2449646218
 20
28.0261648928
 30
0.0
 10
19.288391632
 20
28.1463690422
 30
0.0
 10
19.3306093034
 20
28.3995532601
 30
0.0
 10
19.3305280759
 20
28.832340329
 30
0.0
 10
19.2974230323
 20
29.1361877121
 30
0.0
 10
19.2712829544
 20
29.3138699173
 30
0.0
 11
19.2449646218
 21
28.0261648928
 31
0.0
 11
19.320257266
 21
28.4021243353
 31
0.0
 11
19.3249608596
 21
28.77776628
 31
0.0
 11
19.2712829544
 21
29.3138699173
 31
0.0
  0
SPLINE
  5
491
100
AcDbEntity
  8
0
100
AcDbSpline
 62
7
  6
CONTINUOUS
 70
0
 71
3
 72
10
 73
6
 74
4
 42
0.0000001
 43
0.0000001
 44
0.0000000001
 12
-0.0
 22
-0.3878256038
 32
0.0
 13
-0.3630980532
 23
-0.1362662933
 33
0.0
 40
0.0
 40
0.0
 40
0.0
 40
0.0
 40
0.3517340052
 40
0.6302069713
 40
1.0
 40
1.0
 40
1.0
 40
1.0
 10
17.7790110046
 20
28.514403703
 30
0.0
 10
17.7790110046
 20
28.4689332187
 30
0.0
 10
17.7606270331
 20
28.3857061009
 30
0.0
 10
17.6792705047
 20
28.2815368224
 30
0.0
 10
17.6035113471
 20
28.2400867285
 30
0.0
 10
17.5587543041
 20
28.2232899534
 30
0.0
 11
17.7790110046
 21
28.514403703
 31
0.0
 11
17.7482453612
 21
28.3815069022
 31
0.0
 11
17.6824524588
 21
28.2958619002
 31
0.0
 11
17.5587543041
 21
28.2232899534
 31
0.0
  0
SPLINE
  5
492
100
AcDbEntity
  8
0
100
AcDbSpline
 62
7
  6
CONTINUOUS
 70
0
 71
3
 72
12
 73
8
 74
6
 42
0.0000001
 43
0.0000001
 44
0.0000000001
 12
-0.7410859988
 22
-0.2784157442
 32
0.0
 13
-0.7608382387
 23
-0.2187440487
 33
0.0
 40
0.0
 40
0.0
 40
0.0
 40
0.0
 40
0.0878983825
 40
0.2222450728
 40
0.5586412841
 40
0.8657366917
 40
1.0
 40
1.0
 40
1.0
 40
1.0
 10
17.5587543041
 20
28.2232899534
 30
0.0
 10
17.5370408839
 20
28.2151325222
 30
0.0
 10
17.4811996019
 20
28.1971040149
 30
0.0
 10
17.3404818589
 20
28.1532369745
 30
0.0
 10
17.1436725233
 20
28.0948707965
 30
0.0
 10
16.9466813054
 20
28.0372919631
 30
0.0
 10
16.8348034716
 20
28.0049125235
 30
0.0
 10
16.8007525853
 20
27.995122757
 30
0.0
 11
17.5587543041
 21
28.2232899534
 31
0.0
 11
17.492848198
 21
28.200962126
 31
0.0
 11
17.3913334371
 21
28.1692365574
 31
0.0
 11
17.1362129127
 21
28.0928487805
 31
0.0
 11
16.9028626544
 21
28.0246397909
 31
0.0
 11
16.8007525853
 21
27.995122757
 31
0.0
  0
SPLINE
  5
493
100
AcDbEntity
  8
0
100
AcDbSpline
 62
7
  6
CONTINUOUS
 70
0
 71
3
 72
9
 73
5
 74
3
 42
0.0000001
 43
0.0000001
 44
0.0000000001
 12
0.675231447
 22
0.1833909485
 32
0.0
 13
0.675086514
 23
0.1839237496
 33
0.0
 40
0.0
 40
0.0
 40
0.0
 40
0.0
 40
0.1980141723
 40
1.0
 40
1.0
 40
1.0
 40
1.0
 10
16.8007525853
 20
27.4932186587
 30
0.0
 10
16.8453210507
 20
27.5053233277
 30
0.0
 10
17.0709041137
 20
27.5645702583
 30
0.0
 10
17.2968549945
 20
27.622430388
 30
0.0
 10
17.4773249334
 20
27.6715984682
 30
0.0
 11
16.8007525853
 21
27.4932186587
 31
0.0
 11
16.9346727597
 21
27.5287324156
 31
0.0
 11
17.4773249334
 21
27.6715984682
 31
0.0
  0
SPLINE
  5
494
100
AcDbEntity
  8
0
100
AcDbSpline
 62
7
  6
CONTINUOUS
 70
0
 71
3
 72
11
 73
7
 74
5
 42
0.0000001
 43
0.0000001
 44
0.0000000001
 12
0.5744159999
 22
0.1564882182
 32
0.0
 13
0.2205116102
 23
0.5530071728
 33
0.0
 40
0.0
 40
0.0
 40
0.0
 40
0.0
 40
0.2372378168
 40
0.4941807103
 40
0.7480747245
 40
1.0
 40
1.0
 40
1.0
 40
1.0
 10
17.4773249334
 20
27.6715984682
 30
0.0
 10
17.5227493326
 20
27.6839734426
 30
0.0
 10
17.6175289264
 20
27.7092605621
 30
0.0
 10
17.7571361443
 20
27.7609404442
 30
0.0
 10
17.8875332214
 20
27.8414623877
 30
0.0
 10
17.9490894932
 20
27.925927194
 30
0.0
 10
17.9676069759
 20
27.9723660222
 30
0.0
 11
17.4773249334
 21
27.6715984682
 31
0.0
 11
17.613160931
 21
27.7102924741
 31
0.0
 11
17.7556801964
 21
27.7658659929
 31
0.0
 11
17.881592341
 21
27.8494976378
 31
0.0
 11
17.9676069759
 21
27.9723660222
 31
0.0
  0
SPLINE
  5
495
100
AcDbEntity
  8
RACCORDO
100
AcDbSpline
 62
7
  6
CONTINUOUS
 70
0
 71
3
 72
22
 73
18
 74
16
 42
0.0000001
 43
0.0000001
 44
0.0000000001
 12
0.4713048109
 22
0.0
 32
0.0
 13
-0.0002828359
 23
-0.471304726
 33
0.0
 40
0.0
 40
0.0
 40
0.0
 40
0.0
 40
0.0663149344
 40
0.1329395485
 40
0.1994999818
 40
0.2657505327
 40
0.3322714882
 40
0.3990532112
 40
0.4657169853
 40
0.5320756235
 40
0.5988341173
 40
0.665804098
 40
0.7325973371
 40
0.7991829111
 40
0.8661422809
 40
0.9332098822
 40
1.0
 40
1.0
 40
1.0
 40
1.0
 10
8.0588951277
 20
5.9701328188
 30
0.0
 10
8.0693133102
 20
5.9701328188
 30
0.0
 10
8.0902147468
 20
5.9690398071
 30
0.0
 10
8.1212249245
 20
5.9641280161
 30
0.0
 10
8.1515429785
 20
5.9559948784
 30
0.0
 10
8.1808280123
 20
5.9447433703
 30
0.0
 10
8.2088091108
 20
5.9304779924
 30
0.0
 10
8.2351952873
 20
5.9133221256
 30
0.0
 10
8.2596166156
 20
5.8935097971
 30
0.0
 10
8.2818316125
 20
5.8712579284
 30
0.0
 10
8.3016319629
 20
5.8467696524
 30
0.0
 10
8.3187939868
 20
5.8202834025
 30
0.0
 10
8.3330753326
 20
5.7921700916
 30
0.0
 10
8.3443453313
 20
5.7627227404
 30
0.0
 10
8.3524925108
 20
5.7322169024
 30
0.0
 10
8.357408398
 20
5.7009977444
 30
0.0
 10
8.3584942125
 20
5.6799513473
 30
0.0
 10
8.3584879156
 20
5.6694585146
 30
0.0
 11
8.0588951277
 21
5.9701328188
 31
0.0
 11
8.0901069887
 21
5.9684998826
 31
0.0
 11
8.12112091
 21
5.9635878409
 31
0.0
 11
8.1514198495
 21
5.9554596796
 31
0.0
 11
8.180566891
 21
5.9442614278
 31
0.0
 11
8.2084981628
 21
5.9300217022
 31
0.0
 11
8.2348857819
 21
5.9128653421
 31
0.0
 11
8.2592854324
 21
5.8930712031
 31
0.0
 11
8.2813823161
 21
5.8709383665
 31
0.0
 11
8.3011654
 21
5.8464723152
 31
0.0
 11
8.3183294965
 21
5.8199839391
 31
0.0
 11
8.3325874849
 21
5.7919179707
 31
0.0
 11
8.3438049503
 21
5.7626091877
 31
0.0
 11
8.3519484543
 21
5.732119715
 31
0.0
 11
8.3568651809
 21
5.7008951642
 31
0.0
 11
8.3584879156
 21
5.6694585146
 31
0.0
  0
SPLINE
  5
496
100
AcDbEntity
  8
RACCORDO
100
AcDbSpline
 62
7
  6
CONTINUOUS
 70
0
 71
3
 72
22
 73
18
 74
16
 42
0.0000001
 43
0.0000001
 44
0.0000000001
 12
-0.0002828359
 22
0.471304726
 32
0.0
 13
0.4713048109
 23
0.0
 33
0.0
 40
0.0
 40
0.0
 40
0.0
 40
0.0
 40
0.0667945217
 40
0.1338658392
 40
0.2008266427
 40
0.2674117364
 40
0.334204157
 40
0.4011733146
 40
0.467930961
 40
0.5342887878
 40
0.6009517644
 40
0.6677326525
 40
0.734252752
 40
0.8005024859
 40
0.8670621005
 40
0.9336858885
 40
1.0
 40
1.0
 40
1.0
 40
1.0
 10
15.2395923165
 20
5.6694585146
 30
0.0
 10
15.2395860192
 20
5.6799520391
 30
0.0
 10
15.2406719723
 20
5.7009997152
 30
0.0
 10
15.2455884003
 20
5.7322203165
 30
0.0
 10
15.2537361924
 20
5.7627267542
 30
0.0
 10
15.2650066284
 20
5.7921739597
 30
0.0
 10
15.2792882045
 20
5.8202867774
 30
0.0
 10
15.296450341
 20
5.8467724859
 30
0.0
 10
15.3162507148
 20
5.8712602388
 30
0.0
 10
15.338465654
 20
5.8935116168
 30
0.0
 10
15.3628868503
 20
5.9133234954
 30
0.0
 10
15.3892728205
 20
5.9304789583
 30
0.0
 10
15.4172536496
 20
5.9447439923
 30
0.0
 10
15.4465383671
 20
5.9559952263
 30
0.0
 10
15.4768560719
 20
5.9641281647
 30
0.0
 10
15.5078658743
 20
5.9690398343
 30
0.0
 10
15.5287670512
 20
5.9701328188
 30
0.0
 10
15.5391851044
 20
5.9701328188
 30
0.0
 11
15.2395923165
 21
5.6694585146
 31
0.0
 11
15.2412152664
 21
5.7008972313
 31
0.0
 11
15.2461325716
 21
5.7321234642
 31
0.0
 11
15.2542766719
 21
5.762613477
 31
0.0
 11
15.2654944843
 21
5.7919218848
 31
0.0
 11
15.2797526796
 21
5.8199873154
 31
0.0
 11
15.2969168915
 21
5.8464751544
 31
0.0
 11
15.316699994
 21
5.8709406772
 31
0.0
 11
15.3387968227
 21
5.8930730282
 31
0.0
 11
15.363196349
 21
5.9128667239
 31
0.0
 11
15.3895837614
 21
5.9300226798
 31
0.0
 11
15.4175147572
 21
5.9442620586
 31
0.0
 11
15.4466614901
 21
5.95546004
 31
0.0
 11
15.4769600833
 21
5.9635880028
 31
0.0
 11
15.5079736297
 21
5.9684999231
 31
0.0
 11
15.5391851044
 21
5.9701328188
 31
0.0
  0
SPLINE
  5
497
100
AcDbEntity
  8
RACCORDO
100
AcDbSpline
 62
7
  6
CONTINUOUS
 70
0
 71
3
 72
22
 73
18
 74
16
 42
0.0000001
 43
0.0000001
 44
0.0000000001
 12
0.4713048109
 22
0.0
 32
0.0
 13
-0.0002828359
 23
-0.471304726
 33
0.0
 40
0.0
 40
0.0
 40
0.0
 40
0.0
 40
0.0663149344
 40
0.1329395485
 40
0.1994999818
 40
0.2657505327
 40
0.3322714882
 40
0.3990532112
 40
0.4657169853
 40
0.5320756235
 40
0.5988341173
 40
0.665804098
 40
0.7325973371
 40
0.7991829111
 40
0.8661422809
 40
0.9332098822
 40
1.0
 40
1.0
 40
1.0
 40
1.0
 10
15.8588951277
 20
5.9701328188
 30
0.0
 10
15.8693133102
 20
5.9701328188
 30
0.0
 10
15.8902147468
 20
5.9690398071
 30
0.0
 10
15.9212249245
 20
5.9641280161
 30
0.0
 10
15.9515429785
 20
5.9559948784
 30
0.0
 10
15.9808280123
 20
5.9447433703
 30
0.0
 10
16.0088091108
 20
5.9304779924
 30
0.0
 10
16.0351952873
 20
5.9133221256
 30
0.0
 10
16.0596166156
 20
5.8935097971
 30
0.0
 10
16.0818316125
 20
5.8712579284
 30
0.0
 10
16.1016319629
 20
5.8467696524
 30
0.0
 10
16.1187939868
 20
5.8202834025
 30
0.0
 10
16.1330753326
 20
5.7921700916
 30
0.0
 10
16.1443453313
 20
5.7627227404
 30
0.0
 10
16.1524925108
 20
5.7322169024
 30
0.0
 10
16.157408398
 20
5.7009977444
 30
0.0
 10
16.1584942125
 20
5.6799513473
 30
0.0
 10
16.1584879156
 20
5.6694585146
 30
0.0
 11
15.8588951277
 21
5.9701328188
 31
0.0
 11
15.8901069887
 21
5.9684998826
 31
0.0
 11
15.92112091
 21
5.9635878409
 31
0.0
 11
15.9514198495
 21
5.9554596796
 31
0.0
 11
15.980566891
 21
5.9442614278
 31
0.0
 11
16.0084981628
 21
5.9300217022
 31
0.0
 11
16.0348857819
 21
5.9128653421
 31
0.0
 11
16.0592854324
 21
5.8930712031
 31
0.0
 11
16.0813823161
 21
5.8709383665
 31
0.0
 11
16.1011654
 21
5.8464723152
 31
0.0
 11
16.1183294965
 21
5.8199839391
 31
0.0
 11
16.1325874849
 21
5.7919179707
 31
0.0
 11
16.1438049503
 21
5.7626091877
 31
0.0
 11
16.1519484543
 21
5.732119715
 31
0.0
 11
16.1568651809
 21
5.7008951642
 31
0.0
 11
16.1584879156
 21
5.6694585146
 31
0.0
  0
SPLINE
  5
498
100
AcDbEntity
  8
RACCORDO
100
AcDbSpline
 62
7
  6
CONTINUOUS
 70
0
 71
3
 72
22
 73
18
 74
16
 42
0.0000001
 43
0.0000001
 44
0.0000000001
 12
-0.4713048109
 22
0.0
 32
0.0
 13
0.0002828359
 23
0.471304726
 33
0.0
 40
0.0
 40
0.0
 40
0.0
 40
0.0
 40
0.0663149344
 40
0.1329395485
 40
0.1994999818
 40
0.2657505327
 40
0.3322714882
 40
0.3990532112
 40
0.4657169853
 40
0.5320756235
 40
0.5988341173
 40
0.665804098
 40
0.7325973371
 40
0.7991829111
 40
0.8661422809
 40
0.9332098822
 40
1.0
 40
1.0
 40
1.0
 40
1.0
 10
15.5391851044
 20
39.6120819702
 30
0.0
 10
15.5287669219
 20
39.6120819702
 30
0.0
 10
15.5078654853
 20
39.6131749819
 30
0.0
 10
15.4768553076
 20
39.6180867729
 30
0.0
 10
15.4465372536
 20
39.6262199106
 30
0.0
 10
15.4172522198
 20
39.6374714187
 30
0.0
 10
15.3892711213
 20
39.6517367966
 30
0.0
 10
15.3628849448
 20
39.6688926634
 30
0.0
 10
15.3384636165
 20
39.6887049919
 30
0.0
 10
15.3162486197
 20
39.7109568606
 30
0.0
 10
15.2964482692
 20
39.7354451366
 30
0.0
 10
15.2792862453
 20
39.7619313865
 30
0.0
 10
15.2650048995
 20
39.7900446974
 30
0.0
 10
15.2537349008
 20
39.8194920485
 30
0.0
 10
15.2455877213
 20
39.8499978866
 30
0.0
 10
15.2406718341
 20
39.8812170446
 30
0.0
 10
15.2395860196
 20
39.9022634417
 30
0.0
 10
15.2395923165
 20
39.9127562744
 30
0.0
 11
15.5391851044
 21
39.6120819702
 31
0.0
 11
15.5079732435
 21
39.6137149064
 31
0.0
 11
15.4769593221
 21
39.6186269481
 31
0.0
 11
15.4466603826
 21
39.6267551094
 31
0.0
 11
15.4175133411
 21
39.6379533612
 31
0.0
 11
15.3895820693
 21
39.6521930868
 31
0.0
 11
15.3631944502
 21
39.6693494469
 31
0.0
 11
15.3387947997
 21
39.6891435859
 31
0.0
 11
15.316697916
 21
39.7112764225
 31
0.0
 11
15.2969148321
 21
39.7357424738
 31
0.0
 11
15.2797507356
 21
39.7622308499
 31
0.0
 11
15.2654927472
 21
39.7902968183
 31
0.0
 11
15.2542752818
 21
39.8196056013
 31
0.0
 11
15.2461317778
 21
39.8500950739
 31
0.0
 11
15.2412150512
 21
39.8813196248
 31
0.0
 11
15.2395923165
 21
39.9127562744
 31
0.0
  0
SPLINE
  5
499
100
AcDbEntity
  8
RACCORDO
100
AcDbSpline
 62
7
  6
CONTINUOUS
 70
0
 71
3
 72
22
 73
18
 74
16
 42
0.0000001
 43
0.0000001
 44
0.0000000001
 12
0.0002828359
 22
-0.471304726
 32
0.0
 13
-0.4713048109
 23
0.0
 33
0.0
 40
0.0
 40
0.0
 40
0.0
 40
0.0
 40
0.0667945217
 40
0.1338658392
 40
0.2008266427
 40
0.2674117364
 40
0.334204157
 40
0.4011733146
 40
0.467930961
 40
0.5342887878
 40
0.6009517644
 40
0.6677326525
 40
0.734252752
 40
0.8005024859
 40
0.8670621005
 40
0.9336858885
 40
1.0
 40
1.0
 40
1.0
 40
1.0
 10
16.1584879156
 20
39.9127562744
 30
0.0
 10
16.1584942129
 20
39.9022627498
 30
0.0
 10
16.1574082598
 20
39.8812150738
 30
0.0
 10
16.1524918318
 20
39.8499944725
 30
0.0
 10
16.1443440397
 20
39.8194880348
 30
0.0
 10
16.1330736037
 20
39.7900408293
 30
0.0
 10
16.1187920276
 20
39.7619280116
 30
0.0
 10
16.1016298911
 20
39.7354423031
 30
0.0
 10
16.0818295173
 20
39.7109545502
 30
0.0
 10
16.0596145781
 20
39.6887031722
 30
0.0
 10
16.0351933818
 20
39.6688912936
 30
0.0
 10
16.0088074116
 20
39.6517358307
 30
0.0
 10
15.9808265825
 20
39.6374707967
 30
0.0
 10
15.951541865
 20
39.6262195627
 30
0.0
 10
15.9212241602
 20
39.6180866243
 30
0.0
 10
15.8902143578
 20
39.6131749547
 30
0.0
 10
15.8693131809
 20
39.6120819702
 30
0.0
 10
15.8588951277
 20
39.6120819702
 30
0.0
 11
16.1584879156
 21
39.9127562744
 31
0.0
 11
16.1568649657
 21
39.8813175576
 31
0.0
 11
16.1519476605
 21
39.8500913248
 31
0.0
 11
16.1438035602
 21
39.819601312
 31
0.0
 11
16.1325857478
 21
39.7902929042
 31
0.0
 11
16.1183275525
 21
39.7622274736
 31
0.0
 11
16.1011633406
 21
39.7357396346
 31
0.0
 11
16.0813802381
 21
39.7112741118
 31
0.0
 11
16.0592834094
 21
39.6891417608
 31
0.0
 11
16.0348838831
 21
39.6693480651
 31
0.0
 11
16.0084964707
 21
39.6521921092
 31
0.0
 11
15.9805654749
 21
39.6379527304
 31
0.0
 11
15.951418742
 21
39.626754749
 31
0.0
 11
15.9211201488
 21
39.6186267862
 31
0.0
 11
15.8901066024
 21
39.6137148659
 31
0.0
 11
15.8588951277
 21
39.6120819702
 31
0.0
  0
SPLINE
  5
49A
100
AcDbEntity
  8
RACCORDO
100
AcDbSpline
 62
7
  6
CONTINUOUS
 70
0
 71
3
 72
22
 73
18
 74
16
 42
0.0000001
 43
0.0000001
 44
0.0000000001
 12
-0.4713048109
 22
0.0
 32
0.0
 13
0.0002828359
 23
0.471304726
 33
0.0
 40
0.0
 40
0.0
 40
0.0
 40
0.0
 40
0.0663149344
 40
0.1329395485
 40
0.1994999818
 40
0.2657505327
 40
0.3322714882
 40
0.3990532112
 40
0.4657169853
 40
0.5320756235
 40
0.5988341173
 40
0.665804098
 40
0.7325973371
 40
0.7991829111
 40
0.8661422809
 40
0.9332098822
 40
1.0
 40
1.0
 40
1.0
 40
1.0
 10
7.7391851044
 20
39.6120819702
 30
0.0
 10
7.7287669219
 20
39.6120819702
 30
0.0
 10
7.7078654853
 20
39.6131749819
 30
0.0
 10
7.6768553076
 20
39.6180867729
 30
0.0
 10
7.6465372536
 20
39.6262199106
 30
0.0
 10
7.6172522198
 20
39.6374714187
 30
0.0
 10
7.5892711213
 20
39.6517367966
 30
0.0
 10
7.5628849448
 20
39.6688926634
 30
0.0
 10
7.5384636165
 20
39.6887049919
 30
0.0
 10
7.5162486197
 20
39.7109568606
 30
0.0
 10
7.4964482692
 20
39.7354451366
 30
0.0
 10
7.4792862453
 20
39.7619313865
 30
0.0
 10
7.4650048995
 20
39.7900446974
 30
0.0
 10
7.4537349008
 20
39.8194920485
 30
0.0
 10
7.4455877213
 20
39.8499978866
 30
0.0
 10
7.4406718341
 20
39.8812170446
 30
0.0
 10
7.4395860196
 20
39.9022634417
 30
0.0
 10
7.4395923165
 20
39.9127562744
 30
0.0
 11
7.7391851044
 21
39.6120819702
 31
0.0
 11
7.7079732435
 21
39.6137149064
 31
0.0
 11
7.6769593221
 21
39.6186269481
 31
0.0
 11
7.6466603826
 21
39.6267551094
 31
0.0
 11
7.6175133411
 21
39.6379533612
 31
0.0
 11
7.5895820693
 21
39.6521930868
 31
0.0
 11
7.5631944502
 21
39.6693494469
 31
0.0
 11
7.5387947997
 21
39.6891435859
 31
0.0
 11
7.516697916
 21
39.7112764225
 31
0.0
 11
7.4969148321
 21
39.7357424738
 31
0.0
 11
7.4797507356
 21
39.7622308499
 31
0.0
 11
7.4654927472
 21
39.7902968183
 31
0.0
 11
7.4542752818
 21
39.8196056013
 31
0.0
 11
7.4461317778
 21
39.8500950739
 31
0.0
 11
7.4412150512
 21
39.8813196248
 31
0.0
 11
7.4395923165
 21
39.9127562744
 31
0.0
  0
SPLINE
  5
49B
100
AcDbEntity
  8
RACCORDO
100
AcDbSpline
 62
7
  6
CONTINUOUS
 70
0
 71
3
 72
22
 73
18
 74
16
 42
0.0000001
 43
0.0000001
 44
0.0000000001
 12
0.0002828359
 22
-0.471304726
 32
0.0
 13
-0.4713048109
 23
0.0
 33
0.0
 40
0.0
 40
0.0
 40
0.0
 40
0.0
 40
0.0667945217
 40
0.1338658392
 40
0.2008266427
 40
0.2674117364
 40
0.334204157
 40
0.4011733146
 40
0.467930961
 40
0.5342887878
 40
0.6009517644
 40
0.6677326525
 40
0.734252752
 40
0.8005024859
 40
0.8670621005
 40
0.9336858885
 40
1.0
 40
1.0
 40
1.0
 40
1.0
 10
8.3584879156
 20
39.9127562744
 30
0.0
 10
8.3584942129
 20
39.9022627498
 30
0.0
 10
8.3574082598
 20
39.8812150738
 30
0.0
 10
8.3524918318
 20
39.8499944725
 30
0.0
 10
8.3443440397
 20
39.8194880348
 30
0.0
 10
8.3330736037
 20
39.7900408293
 30
0.0
 10
8.3187920276
 20
39.7619280116
 30
0.0
 10
8.3016298911
 20
39.7354423031
 30
0.0
 10
8.2818295173
 20
39.7109545502
 30
0.0
 10
8.2596145781
 20
39.6887031722
 30
0.0
 10
8.2351933818
 20
39.6688912936
 30
0.0
 10
8.2088074116
 20
39.6517358307
 30
0.0
 10
8.1808265825
 20
39.6374707967
 30
0.0
 10
8.151541865
 20
39.6262195627
 30
0.0
 10
8.1212241602
 20
39.6180866242
 30
0.0
 10
8.0902143578
 20
39.6131749547
 30
0.0
 10
8.0693131809
 20
39.6120819702
 30
0.0
 10
8.0588951277
 20
39.6120819702
 30
0.0
 11
8.3584879156
 21
39.9127562744
 31
0.0
 11
8.3568649657
 21
39.8813175576
 31
0.0
 11
8.3519476605
 21
39.8500913248
 31
0.0
 11
8.3438035602
 21
39.819601312
 31
0.0
 11
8.3325857478
 21
39.7902929042
 31
0.0
 11
8.3183275525
 21
39.7622274736
 31
0.0
 11
8.3011633406
 21
39.7357396346
 31
0.0
 11
8.2813802381
 21
39.7112741118
 31
0.0
 11
8.2592834094
 21
39.6891417608
 31
0.0
 11
8.2348838831
 21
39.6693480651
 31
0.0
 11
8.2084964707
 21
39.6521921092
 31
0.0
 11
8.1805654749
 21
39.6379527304
 31
0.0
 11
8.151418742
 21
39.626754749
 31
0.0
 11
8.1211201488
 21
39.6186267862
 31
0.0
 11
8.0901066024
 21
39.6137148659
 31
0.0
 11
8.0588951277
 21
39.6120819702
 31
0.0
  0
SPLINE
  5
49C
100
AcDbEntity
  8
RACCORDO
100
AcDbSpline
 62
253
  6
CONTINUOUS
 70
0
 71
3
 72
23
 73
19
 74
17
 42
0.0000001
 43
0.0000001
 44
0.0000000001
 12
0.0000001452
 22
0.4993489509
 32
0.0
 13
0.0659129137
 23
0.4949796588
 33
0.0
 40
0.0
 40
0.0
 40
0.0
 40
0.0
 40
0.0948781765
 40
0.1889072328
 40
0.2812375878
 40
0.3710366822
 40
0.4574970018
 40
0.5398407551
 40
0.6173264663
 40
0.6892567436
 40
0.7549844646
 40
0.8139182864
 40
0.8655278
 40
0.9093484777
 40
0.9449865124
 40
0.972122099
 40
0.9905125568
 40
1.0
 40
1.0
 40
1.0
 40
1.0
 10
15.8042309361
 20
5.3166220587
 30
0.0
 10
15.8042309407
 20
5.332414498
 30
0.0
 10
15.8042413118
 20
5.3638580418
 30
0.0
 10
15.8042879336
 20
5.4106699201
 30
0.0
 10
15.804365172
 20
5.4566363457
 30
0.0
 10
15.8044722944
 20
5.5013428946
 30
0.0
 10
15.8046083203
 20
5.5443870908
 30
0.0
 10
15.8047719638
 20
5.5853816183
 30
0.0
 10
15.804961706
 20
5.6239574841
 30
0.0
 10
15.8051756714
 20
5.6597674539
 30
0.0
 10
15.8054119875
 20
5.6924892308
 30
0.0
 10
15.8056676185
 20
5.7218284478
 30
0.0
 10
15.8059419229
 20
5.7475206544
 30
0.0
 10
15.8062255431
 20
5.7693356341
 30
0.0
 10
15.8065319322
 20
5.7870742083
 30
0.0
 10
15.8068095553
 20
5.8005846115
 30
0.0
 10
15.807152041
 20
5.8097289374
 30
0.0
 10
15.8073308166
 20
5.814374668
 30
0.0
 10
15.8075392649
 20
5.8159400318
 30
0.0
 11
15.8042309361
 21
5.3166220587
 31
0.0
 11
15.8042466418
 21
5.3639993739
 31
0.0
 11
15.8042936197
 21
5.4109526611
 31
0.0
 11
15.8043714567
 21
5.4570576613
 31
0.0
 11
15.8044794441
 21
5.5018986148
 31
0.0
 11
15.8046166161
 21
5.5450722668
 31
0.0
 11
15.8047817362
 21
5.5861902021
 31
0.0
 11
15.8049733193
 21
5.6248821364
 31
0.0
 11
15.8051896406
 21
5.6607997935
 31
0.0
 11
15.8054287538
 21
5.693619991
 31
0.0
 11
15.8056885075
 21
5.7230473867
 31
0.0
 11
15.8059665628
 21
5.7488170431
 31
0.0
 11
15.8062604184
 21
5.7706968793
 31
0.0
 11
15.8065674216
 21
5.7884900462
 31
0.0
 11
15.8068848358
 21
5.8020364547
 31
0.0
 11
15.8072097391
 21
5.8112139612
 31
0.0
 11
15.8075392649
 21
5.8159400318
 31
0.0
  0
SPLINE
  5
49D
100
AcDbEntity
  8
RACCORDO
100
AcDbSpline
 62
253
  6
CONTINUOUS
 70
0
 71
3
 72
23
 73
19
 74
17
 42
0.0000001
 43
0.0000001
 44
0.0000000001
 12
0.065912914
 22
-0.4949796587
 32
0.0
 13
0.0000001452
 23
-0.4993489509
 33
0.0
 40
0.0
 40
0.0
 40
0.0
 40
0.0
 40
0.0094874432
 40
0.027877901
 40
0.0550134876
 40
0.0906515223
 40
0.1344722
 40
0.1860817136
 40
0.2450155354
 40
0.3107432563
 40
0.3826735337
 40
0.4601592449
 40
0.5425029982
 40
0.6289633178
 40
0.7187624122
 40
0.8110927672
 40
0.9051218235
 40
1.0
 40
1.0
 40
1.0
 40
1.0
 10
15.5905409672
 20
5.8159400318
 30
0.0
 10
15.5907494155
 20
5.814374668
 30
0.0
 10
15.5909281911
 20
5.8097289374
 30
0.0
 10
15.5912706768
 20
5.8005846115
 30
0.0
 10
15.5915482999
 20
5.7870742083
 30
0.0
 10
15.591854689
 20
5.7693356341
 30
0.0
 10
15.5921383092
 20
5.7475206544
 30
0.0
 10
15.5924126136
 20
5.7218284478
 30
0.0
 10
15.5926682446
 20
5.6924892308
 30
0.0
 10
15.5929045607
 20
5.6597674539
 30
0.0
 10
15.5931185261
 20
5.6239574841
 30
0.0
 10
15.5933082683
 20
5.5853816184
 30
0.0
 10
15.5934719118
 20
5.5443870908
 30
0.0
 10
15.5936079377
 20
5.5013428946
 30
0.0
 10
15.5937150601
 20
5.4566363457
 30
0.0
 10
15.5937922985
 20
5.4106699201
 30
0.0
 10
15.5938389203
 20
5.3638580418
 30
0.0
 10
15.5938492914
 20
5.332414498
 30
0.0
 10
15.593849296
 20
5.3166220587
 30
0.0
 11
15.5905409672
 21
5.8159400318
 31
0.0
 11
15.590870493
 21
5.8112139612
 31
0.0
 11
15.5911953963
 21
5.8020364547
 31
0.0
 11
15.5915128105
 21
5.7884900462
 31
0.0
 11
15.5918198137
 21
5.7706968793
 31
0.0
 11
15.5921136693
 21
5.7488170431
 31
0.0
 11
15.5923917246
 21
5.7230473867
 31
0.0
 11
15.5926514783
 21
5.693619991
 31
0.0
 11
15.5928905915
 21
5.6607997935
 31
0.0
 11
15.5931069128
 21
5.6248821364
 31
0.0
 11
15.5932984959
 21
5.5861902021
 31
0.0
 11
15.5934636161
 21
5.5450722668
 31
0.0
 11
15.593600788
 21
5.5018986148
 31
0.0
 11
15.5937087754
 21
5.4570576613
 31
0.0
 11
15.5937866124
 21
5.4109526611
 31
0.0
 11
15.5938335903
 21
5.3639993739
 31
0.0
 11
15.593849296
 21
5.3166220587
 31
0.0
  0
SPLINE
  5
49E
100
AcDbEntity
  8
RACCORDO
100
AcDbSpline
 62
253
  6
CONTINUOUS
 70
0
 71
3
 72
23
 73
19
 74
17
 42
0.0000001
 43
0.0000001
 44
0.0000000001
 12
0.065912914
 22
-0.4949796587
 32
0.0
 13
0.0000001452
 23
-0.4993489509
 33
0.0
 40
0.0
 40
0.0
 40
0.0
 40
0.0
 40
0.0094874432
 40
0.027877901
 40
0.0550134876
 40
0.0906515223
 40
0.1344722
 40
0.1860817136
 40
0.2450155354
 40
0.3107432563
 40
0.3826735337
 40
0.4601592449
 40
0.5425029982
 40
0.6289633178
 40
0.7187624122
 40
0.8110927672
 40
0.9051218235
 40
1.0
 40
1.0
 40
1.0
 40
1.0
 10
7.7905409672
 20
5.8159400318
 30
0.0
 10
7.7907494155
 20
5.814374668
 30
0.0
 10
7.7909281911
 20
5.8097289374
 30
0.0
 10
7.7912706768
 20
5.8005846115
 30
0.0
 10
7.7915482999
 20
5.7870742083
 30
0.0
 10
7.791854689
 20
5.7693356341
 30
0.0
 10
7.7921383092
 20
5.7475206544
 30
0.0
 10
7.7924126136
 20
5.7218284478
 30
0.0
 10
7.7926682446
 20
5.6924892308
 30
0.0
 10
7.7929045607
 20
5.6597674539
 30
0.0
 10
7.7931185261
 20
5.6239574841
 30
0.0
 10
7.7933082683
 20
5.5853816184
 30
0.0
 10
7.7934719118
 20
5.5443870908
 30
0.0
 10
7.7936079377
 20
5.5013428946
 30
0.0
 10
7.7937150601
 20
5.4566363457
 30
0.0
 10
7.7937922985
 20
5.4106699201
 30
0.0
 10
7.7938389203
 20
5.3638580418
 30
0.0
 10
7.7938492914
 20
5.332414498
 30
0.0
 10
7.793849296
 20
5.3166220587
 30
0.0
 11
7.7905409672
 21
5.8159400318
 31
0.0
 11
7.790870493
 21
5.8112139612
 31
0.0
 11
7.7911953963
 21
5.8020364547
 31
0.0
 11
7.7915128105
 21
5.7884900462
 31
0.0
 11
7.7918198137
 21
5.7706968793
 31
0.0
 11
7.7921136693
 21
5.7488170431
 31
0.0
 11
7.7923917246
 21
5.7230473867
 31
0.0
 11
7.7926514783
 21
5.693619991
 31
0.0
 11
7.7928905915
 21
5.6607997935
 31
0.0
 11
7.7931069128
 21
5.6248821364
 31
0.0
 11
7.7932984959
 21
5.5861902021
 31
0.0
 11
7.7934636161
 21
5.5450722668
 31
0.0
 11
7.793600788
 21
5.5018986148
 31
0.0
 11
7.7937087754
 21
5.4570576613
 31
0.0
 11
7.7937866124
 21
5.4109526611
 31
0.0
 11
7.7938335903
 21
5.3639993739
 31
0.0
 11
7.793849296
 21
5.3166220587
 31
0.0
  0
SPLINE
  5
49F
100
AcDbEntity
  8
RACCORDO
100
AcDbSpline
 62
253
  6
CONTINUOUS
 70
0
 71
3
 72
23
 73
19
 74
17
 42
0.0000001
 43
0.0000001
 44
0.0000000001
 12
0.0000001452
 22
0.4993489509
 32
0.0
 13
0.0659129137
 23
0.4949796588
 33
0.0
 40
0.0
 40
0.0
 40
0.0
 40
0.0
 40
0.0948781765
 40
0.1889072328
 40
0.2812375878
 40
0.3710366822
 40
0.4574970018
 40
0.5398407551
 40
0.6173264663
 40
0.6892567436
 40
0.7549844646
 40
0.8139182864
 40
0.8655278
 40
0.9093484777
 40
0.9449865124
 40
0.972122099
 40
0.9905125568
 40
1.0
 40
1.0
 40
1.0
 40
1.0
 10
8.0042309361
 20
5.3166220587
 30
0.0
 10
8.0042309407
 20
5.332414498
 30
0.0
 10
8.0042413118
 20
5.3638580418
 30
0.0
 10
8.0042879336
 20
5.4106699201
 30
0.0
 10
8.004365172
 20
5.4566363457
 30
0.0
 10
8.0044722944
 20
5.5013428946
 30
0.0
 10
8.0046083203
 20
5.5443870908
 30
0.0
 10
8.0047719638
 20
5.5853816183
 30
0.0
 10
8.004961706
 20
5.6239574841
 30
0.0
 10
8.0051756714
 20
5.6597674539
 30
0.0
 10
8.0054119875
 20
5.6924892308
 30
0.0
 10
8.0056676185
 20
5.7218284478
 30
0.0
 10
8.0059419229
 20
5.7475206544
 30
0.0
 10
8.0062255431
 20
5.7693356341
 30
0.0
 10
8.0065319322
 20
5.7870742083
 30
0.0
 10
8.0068095553
 20
5.8005846115
 30
0.0
 10
8.007152041
 20
5.8097289374
 30
0.0
 10
8.0073308166
 20
5.814374668
 30
0.0
 10
8.0075392649
 20
5.8159400318
 30
0.0
 11
8.0042309361
 21
5.3166220587
 31
0.0
 11
8.0042466418
 21
5.3639993739
 31
0.0
 11
8.0042936197
 21
5.4109526611
 31
0.0
 11
8.0043714567
 21
5.4570576613
 31
0.0
 11
8.0044794441
 21
5.5018986148
 31
0.0
 11
8.0046166161
 21
5.5450722668
 31
0.0
 11
8.0047817362
 21
5.5861902021
 31
0.0
 11
8.0049733193
 21
5.6248821364
 31
0.0
 11
8.0051896406
 21
5.6607997935
 31
0.0
 11
8.0054287538
 21
5.693619991
 31
0.0
 11
8.0056885075
 21
5.7230473867
 31
0.0
 11
8.0059665628
 21
5.7488170431
 31
0.0
 11
8.0062604184
 21
5.7706968793
 31
0.0
 11
8.0065674216
 21
5.7884900462
 31
0.0
 11
8.0068848358
 21
5.8020364547
 31
0.0
 11
8.0072097391
 21
5.8112139612
 31
0.0
 11
8.0075392649
 21
5.8159400318
 31
0.0
  0
SPLINE
  5
4A0
100
AcDbEntity
  8
RACCORDO
100
AcDbSpline
 62
253
  6
CONTINUOUS
 70
0
 71
3
 72
23
 73
19
 74
17
 42
0.0000001
 43
0.0000001
 44
0.0000000001
 12
-0.0000001452
 22
-0.4993489509
 32
0.0
 13
-0.0659129137
 23
-0.4949796588
 33
0.0
 40
0.0
 40
0.0
 40
0.0
 40
0.0
 40
0.0948781765
 40
0.1889072328
 40
0.2812375878
 40
0.3710366822
 40
0.4574970018
 40
0.5398407551
 40
0.6173264663
 40
0.6892567436
 40
0.7549844646
 40
0.8139182864
 40
0.8655278
 40
0.9093484777
 40
0.9449865124
 40
0.972122099
 40
0.9905125568
 40
1.0
 40
1.0
 40
1.0
 40
1.0
 10
15.593849296
 20
40.2655927303
 30
0.0
 10
15.5938492914
 20
40.249800291
 30
0.0
 10
15.5938389203
 20
40.2183567472
 30
0.0
 10
15.5937922985
 20
40.1715448689
 30
0.0
 10
15.5937150601
 20
40.1255784433
 30
0.0
 10
15.5936079377
 20
40.0808718944
 30
0.0
 10
15.5934719118
 20
40.0378276982
 30
0.0
 10
15.5933082683
 20
39.9968331706
 30
0.0
 10
15.5931185261
 20
39.9582573049
 30
0.0
 10
15.5929045607
 20
39.9224473351
 30
0.0
 10
15.5926682447
 20
39.8897255582
 30
0.0
 10
15.5924126136
 20
39.8603863412
 30
0.0
 10
15.5921383092
 20
39.8346941346
 30
0.0
 10
15.591854689
 20
39.8128791549
 30
0.0
 10
15.5915482999
 20
39.7951405807
 30
0.0
 10
15.5912706768
 20
39.7816301775
 30
0.0
 10
15.5909281911
 20
39.7724858516
 30
0.0
 10
15.5907494155
 20
39.767840121
 30
0.0
 10
15.5905409672
 20
39.7662747572
 30
0.0
 11
15.593849296
 21
40.2655927303
 31
0.0
 11
15.5938335903
 21
40.2182154151
 31
0.0
 11
15.5937866124
 21
40.1712621279
 31
0.0
 11
15.5937087754
 21
40.1251571277
 31
0.0
 11
15.593600788
 21
40.0803161742
 31
0.0
 11
15.5934636161
 21
40.0371425222
 31
0.0
 11
15.5932984959
 21
39.9960245869
 31
0.0
 11
15.5931069128
 21
39.9573326526
 31
0.0
 11
15.5928905915
 21
39.9214149955
 31
0.0
 11
15.5926514783
 21
39.888594798
 31
0.0
 11
15.5923917246
 21
39.8591674023
 31
0.0
 11
15.5921136693
 21
39.8333977459
 31
0.0
 11
15.5918198137
 21
39.8115179097
 31
0.0
 11
15.5915128105
 21
39.7937247428
 31
0.0
 11
15.5911953963
 21
39.7801783343
 31
0.0
 11
15.590870493
 21
39.7710008278
 31
0.0
 11
15.5905409672
 21
39.7662747572
 31
0.0
  0
SPLINE
  5
4A1
100
AcDbEntity
  8
RACCORDO
100
AcDbSpline
 62
253
  6
CONTINUOUS
 70
0
 71
3
 72
23
 73
19
 74
17
 42
0.0000001
 43
0.0000001
 44
0.0000000001
 12
-0.065912914
 22
0.4949796587
 32
0.0
 13
-0.0000001452
 23
0.4993489509
 33
0.0
 40
0.0
 40
0.0
 40
0.0
 40
0.0
 40
0.0094874432
 40
0.027877901
 40
0.0550134876
 40
0.0906515223
 40
0.1344722
 40
0.1860817136
 40
0.2450155354
 40
0.3107432563
 40
0.3826735337
 40
0.4601592449
 40
0.5425029982
 40
0.6289633178
 40
0.7187624122
 40
0.8110927672
 40
0.9051218235
 40
1.0
 40
1.0
 40
1.0
 40
1.0
 10
15.8075392649
 20
39.7662747572
 30
0.0
 10
15.8073308166
 20
39.767840121
 30
0.0
 10
15.807152041
 20
39.7724858516
 30
0.0
 10
15.8068095553
 20
39.7816301775
 30
0.0
 10
15.8065319322
 20
39.7951405807
 30
0.0
 10
15.8062255431
 20
39.8128791549
 30
0.0
 10
15.8059419229
 20
39.8346941346
 30
0.0
 10
15.8056676185
 20
39.8603863411
 30
0.0
 10
15.8054119875
 20
39.8897255582
 30
0.0
 10
15.8051756714
 20
39.9224473351
 30
0.0
 10
15.804961706
 20
39.9582573049
 30
0.0
 10
15.8047719638
 20
39.9968331706
 30
0.0
 10
15.8046083203
 20
40.0378276982
 30
0.0
 10
15.8044722944
 20
40.0808718944
 30
0.0
 10
15.804365172
 20
40.1255784433
 30
0.0
 10
15.8042879336
 20
40.1715448689
 30
0.0
 10
15.8042413118
 20
40.2183567472
 30
0.0
 10
15.8042309407
 20
40.249800291
 30
0.0
 10
15.8042309361
 20
40.2655927303
 30
0.0
 11
15.8075392649
 21
39.7662747572
 31
0.0
 11
15.8072097391
 21
39.7710008278
 31
0.0
 11
15.8068848358
 21
39.7801783343
 31
0.0
 11
15.8065674216
 21
39.7937247428
 31
0.0
 11
15.8062604184
 21
39.8115179097
 31
0.0
 11
15.8059665628
 21
39.8333977459
 31
0.0
 11
15.8056885075
 21
39.8591674023
 31
0.0
 11
15.8054287538
 21
39.888594798
 31
0.0
 11
15.8051896406
 21
39.9214149955
 31
0.0
 11
15.8049733193
 21
39.9573326526
 31
0.0
 11
15.8047817362
 21
39.9960245869
 31
0.0
 11
15.8046166161
 21
40.0371425222
 31
0.0
 11
15.8044794441
 21
40.0803161742
 31
0.0
 11
15.8043714567
 21
40.1251571277
 31
0.0
 11
15.8042936197
 21
40.1712621279
 31
0.0
 11
15.8042466418
 21
40.2182154151
 31
0.0
 11
15.8042309361
 21
40.2655927303
 31
0.0
  0
SPLINE
  5
4A2
100
AcDbEntity
  8
RACCORDO
100
AcDbSpline
 62
253
  6
CONTINUOUS
 70
0
 71
3
 72
23
 73
19
 74
17
 42
0.0000001
 43
0.0000001
 44
0.0000000001
 12
-0.065912914
 22
0.4949796587
 32
0.0
 13
-0.0000001452
 23
0.4993489509
 33
0.0
 40
0.0
 40
0.0
 40
0.0
 40
0.0
 40
0.0094874432
 40
0.027877901
 40
0.0550134876
 40
0.0906515223
 40
0.1344722
 40
0.1860817136
 40
0.2450155354
 40
0.3107432563
 40
0.3826735337
 40
0.4601592449
 40
0.5425029982
 40
0.6289633178
 40
0.7187624122
 40
0.8110927672
 40
0.9051218235
 40
1.0
 40
1.0
 40
1.0
 40
1.0
 10
8.0075392649
 20
39.7662747572
 30
0.0
 10
8.0073308166
 20
39.767840121
 30
0.0
 10
8.007152041
 20
39.7724858516
 30
0.0
 10
8.0068095553
 20
39.7816301775
 30
0.0
 10
8.0065319322
 20
39.7951405807
 30
0.0
 10
8.0062255431
 20
39.8128791549
 30
0.0
 10
8.0059419229
 20
39.8346941346
 30
0.0
 10
8.0056676185
 20
39.8603863411
 30
0.0
 10
8.0054119875
 20
39.8897255582
 30
0.0
 10
8.0051756714
 20
39.9224473351
 30
0.0
 10
8.004961706
 20
39.9582573049
 30
0.0
 10
8.0047719638
 20
39.9968331706
 30
0.0
 10
8.0046083203
 20
40.0378276982
 30
0.0
 10
8.0044722944
 20
40.0808718944
 30
0.0
 10
8.004365172
 20
40.1255784433
 30
0.0
 10
8.0042879336
 20
40.1715448689
 30
0.0
 10
8.0042413118
 20
40.2183567472
 30
0.0
 10
8.0042309407
 20
40.249800291
 30
0.0
 10
8.0042309361
 20
40.2655927303
 30
0.0
 11
8.0075392649
 21
39.7662747572
 31
0.0
 11
8.0072097391
 21
39.7710008278
 31
0.0
 11
8.0068848358
 21
39.7801783343
 31
0.0
 11
8.0065674216
 21
39.7937247428
 31
0.0
 11
8.0062604184
 21
39.8115179097
 31
0.0
 11
8.0059665628
 21
39.8333977459
 31
0.0
 11
8.0056885075
 21
39.8591674023
 31
0.0
 11
8.0054287538
 21
39.888594798
 31
0.0
 11
8.0051896406
 21
39.9214149955
 31
0.0
 11
8.0049733193
 21
39.9573326526
 31
0.0
 11
8.0047817362
 21
39.9960245869
 31
0.0
 11
8.0046166161
 21
40.0371425222
 31
0.0
 11
8.0044794441
 21
40.0803161742
 31
0.0
 11
8.0043714567
 21
40.1251571277
 31
0.0
 11
8.0042936197
 21
40.1712621279
 31
0.0
 11
8.0042466418
 21
40.2182154151
 31
0.0
 11
8.0042309361
 21
40.2655927303
 31
0.0
  0
SPLINE
  5
4A3
100
AcDbEntity
  8
RACCORDO
100
AcDbSpline
 62
253
  6
CONTINUOUS
 70
0
 71
3
 72
23
 73
19
 74
17
 42
0.0000001
 43
0.0000001
 44
0.0000000001
 12
-0.0000001452
 22
-0.4993489509
 32
0.0
 13
-0.0659129137
 23
-0.4949796588
 33
0.0
 40
0.0
 40
0.0
 40
0.0
 40
0.0
 40
0.0948781765
 40
0.1889072328
 40
0.2812375878
 40
0.3710366822
 40
0.4574970018
 40
0.5398407551
 40
0.6173264663
 40
0.6892567436
 40
0.7549844646
 40
0.8139182864
 40
0.8655278
 40
0.9093484777
 40
0.9449865124
 40
0.972122099
 40
0.9905125568
 40
1.0
 40
1.0
 40
1.0
 40
1.0
 10
7.793849296
 20
40.2655927303
 30
0.0
 10
7.7938492914
 20
40.249800291
 30
0.0
 10
7.7938389203
 20
40.2183567472
 30
0.0
 10
7.7937922985
 20
40.1715448689
 30
0.0
 10
7.7937150601
 20
40.1255784433
 30
0.0
 10
7.7936079377
 20
40.0808718944
 30
0.0
 10
7.7934719118
 20
40.0378276982
 30
0.0
 10
7.7933082683
 20
39.9968331706
 30
0.0
 10
7.7931185261
 20
39.9582573049
 30
0.0
 10
7.7929045607
 20
39.9224473351
 30
0.0
 10
7.7926682447
 20
39.8897255582
 30
0.0
 10
7.7924126136
 20
39.8603863412
 30
0.0
 10
7.7921383092
 20
39.8346941346
 30
0.0
 10
7.791854689
 20
39.8128791549
 30
0.0
 10
7.7915482999
 20
39.7951405807
 30
0.0
 10
7.7912706768
 20
39.7816301775
 30
0.0
 10
7.7909281911
 20
39.7724858516
 30
0.0
 10
7.7907494155
 20
39.767840121
 30
0.0
 10
7.7905409672
 20
39.7662747572
 30
0.0
 11
7.793849296
 21
40.2655927303
 31
0.0
 11
7.7938335903
 21
40.2182154151
 31
0.0
 11
7.7937866124
 21
40.1712621279
 31
0.0
 11
7.7937087754
 21
40.1251571277
 31
0.0
 11
7.793600788
 21
40.0803161742
 31
0.0
 11
7.7934636161
 21
40.0371425222
 31
0.0
 11
7.7932984959
 21
39.9960245869
 31
0.0
 11
7.7931069128
 21
39.9573326526
 31
0.0
 11
7.7928905915
 21
39.9214149955
 31
0.0
 11
7.7926514783
 21
39.888594798
 31
0.0
 11
7.7923917246
 21
39.8591674023
 31
0.0
 11
7.7921136693
 21
39.8333977459
 31
0.0
 11
7.7918198137
 21
39.8115179097
 31
0.0
 11
7.7915128105
 21
39.7937247428
 31
0.0
 11
7.7911953963
 21
39.7801783343
 31
0.0
 11
7.790870493
 21
39.7710008278
 31
0.0
 11
7.7905409672
 21
39.7662747572
 31
0.0
  0
SPLINE
  5
4A4
100
AcDbEntity
  8
RACCORDO
100
AcDbSpline
 62
7
  6
CONTINUOUS
 70
0
 71
3
 72
22
 73
18
 74
16
 42
0.0000001
 43
0.0000001
 44
0.0000000001
 12
-0.0002828359
 22
0.471304726
 32
0.0
 13
0.4713048109
 23
0.0
 33
0.0
 40
0.0
 40
0.0
 40
0.0
 40
0.0
 40
0.0667945217
 40
0.1338658392
 40
0.2008266427
 40
0.2674117364
 40
0.334204157
 40
0.4011733146
 40
0.467930961
 40
0.5342887878
 40
0.6009517644
 40
0.6677326525
 40
0.734252752
 40
0.8005024859
 40
0.8670621005
 40
0.9336858885
 40
1.0
 40
1.0
 40
1.0
 40
1.0
 10
7.4395923165
 20
5.6694585146
 30
0.0
 10
7.4395860192
 20
5.6799520391
 30
0.0
 10
7.4406719723
 20
5.7009997152
 30
0.0
 10
7.4455884003
 20
5.7322203165
 30
0.0
 10
7.4537361924
 20
5.7627267542
 30
0.0
 10
7.4650066284
 20
5.7921739597
 30
0.0
 10
7.4792882045
 20
5.8202867774
 30
0.0
 10
7.496450341
 20
5.8467724859
 30
0.0
 10
7.5162507148
 20
5.8712602388
 30
0.0
 10
7.538465654
 20
5.8935116168
 30
0.0
 10
7.5628868503
 20
5.9133234954
 30
0.0
 10
7.5892728205
 20
5.9304789583
 30
0.0
 10
7.6172536496
 20
5.9447439923
 30
0.0
 10
7.6465383671
 20
5.9559952263
 30
0.0
 10
7.6768560719
 20
5.9641281647
 30
0.0
 10
7.7078658743
 20
5.9690398343
 30
0.0
 10
7.7287670512
 20
5.9701328188
 30
0.0
 10
7.7391851044
 20
5.9701328188
 30
0.0
 11
7.4395923165
 21
5.6694585146
 31
0.0
 11
7.4412152664
 21
5.7008972313
 31
0.0
 11
7.4461325716
 21
5.7321234642
 31
0.0
 11
7.4542766719
 21
5.762613477
 31
0.0
 11
7.4654944843
 21
5.7919218848
 31
0.0
 11
7.4797526796
 21
5.8199873154
 31
0.0
 11
7.4969168915
 21
5.8464751544
 31
0.0
 11
7.516699994
 21
5.8709406772
 31
0.0
 11
7.5387968227
 21
5.8930730282
 31
0.0
 11
7.563196349
 21
5.9128667239
 31
0.0
 11
7.5895837614
 21
5.9300226798
 31
0.0
 11
7.6175147572
 21
5.9442620586
 31
0.0
 11
7.6466614901
 21
5.95546004
 31
0.0
 11
7.6769600833
 21
5.9635880028
 31
0.0
 11
7.7079736297
 21
5.9684999231
 31
0.0
 11
7.7391851044
 21
5.9701328188
 31
0.0
  0
SPLINE
  5
4A5
100
AcDbEntity
  8
RACCORDO
100
AcDbSpline
 62
253
  6
CONTINUOUS
 70
0
 71
3
 72
23
 73
19
 74
17
 42
0.0000001
 43
0.0000001
 44
0.0000000001
 12
-0.0631212937
 22
0.1895705544
 32
0.0
 13
-0.0000000518
 23
0.1998031351
 33
0.0
 40
0.0
 40
0.0
 40
0.0
 40
0.0
 40
0.0096020493
 40
0.0280462855
 40
0.0552117228
 40
0.0908660949
 40
0.1346938063
 40
0.1863033606
 40
0.2452316609
 40
0.3109492923
 40
0.3828654024
 40
0.4603333628
 40
0.5426562833
 40
0.6290931622
 40
0.7188666563
 40
0.8111697276
 40
0.9051702336
 40
1.0
 40
1.0
 40
1.0
 40
1.0
 10
16.1074935531
 20
40.0658637709
 30
0.0
 10
16.1072915219
 20
40.0664705262
 30
0.0
 10
16.1071021776
 20
40.0683490017
 30
0.0
 10
16.1067666548
 20
40.0719968577
 30
0.0
 10
16.1064852746
 20
40.0774096614
 30
0.0
 10
16.1061802997
 20
40.0845029384
 30
0.0
 10
16.105896125
 20
40.0932304073
 30
0.0
 10
16.1056219896
 20
40.1035073003
 30
0.0
 10
16.1053662909
 20
40.1152434844
 30
0.0
 10
16.1051299878
 20
40.1283325708
 30
0.0
 10
16.1049160122
 20
40.1426570036
 30
0.0
 10
16.1047262695
 20
40.1580877764
 30
0.0
 10
16.104562623
 20
40.1744860002
 30
0.0
 10
16.104426599
 20
40.1917040614
 30
0.0
 10
16.1043194728
 20
40.2095870267
 30
0.0
 10
16.104242241
 20
40.2279738954
 30
0.0
 10
16.1041956195
 20
40.2466976203
 30
0.0
 10
16.1041852473
 20
40.2592739163
 30
0.0
 10
16.1041852457
 20
40.2655896779
 30
0.0
 11
16.1074935531
 21
40.0658637709
 31
0.0
 11
16.1071640885
 21
40.0677537895
 31
0.0
 11
16.1068391544
 21
40.0714246527
 31
0.0
 11
16.1065217502
 21
40.0768431037
 31
0.0
 11
16.1062147388
 21
40.0839603404
 31
0.0
 11
16.1059208813
 21
40.0927123226
 31
0.0
 11
16.1056428219
 21
40.1030203237
 31
0.0
 11
16.1053830647
 21
40.1147915172
 31
0.0
 11
16.105143948
 21
40.1279199285
 31
0.0
 11
16.1049276241
 21
40.1422873643
 31
0.0
 11
16.1047360394
 21
40.15776452
 31
0.0
 11
16.1045709181
 21
40.1742120688
 31
0.0
 11
16.1044337468
 21
40.1914818834
 31
0.0
 11
16.1043257587
 21
40.2094185839
 31
0.0
 11
16.1042479252
 21
40.2278608627
 31
0.0
 11
16.1042009467
 21
40.2466423997
 31
0.0
 11
16.1041852457
 21
40.2655896779
 31
0.0
  0
SPLINE
  5
4A6
100
AcDbEntity
  8
RACCORDO
100
AcDbSpline
 62
253
  6
CONTINUOUS
 70
0
 71
3
 72
23
 73
19
 74
17
 42
0.0000001
 43
0.0000001
 44
0.0000000001
 12
-0.0000000518
 22
-0.1998031351
 32
0.0
 13
-0.0631212938
 23
-0.1895705543
 33
0.0
 40
0.0
 40
0.0
 40
0.0
 40
0.0
 40
0.0948297664
 40
0.1888302723
 40
0.2811333437
 40
0.3709068378
 40
0.4573437167
 40
0.5396666372
 40
0.6171345976
 40
0.6890507077
 40
0.7547683391
 40
0.8136966394
 40
0.8653061937
 40
0.909133905
 40
0.9447882772
 40
0.9719537145
 40
0.9903979507
 40
1.0
 40
1.0
 40
1.0
 40
1.0
 10
15.2938949864
 20
40.2655896779
 30
0.0
 10
15.2938949848
 20
40.2592739163
 30
0.0
 10
15.2938846126
 20
40.2466976203
 30
0.0
 10
15.2938379911
 20
40.2279738954
 30
0.0
 10
15.2937607593
 20
40.2095870267
 30
0.0
 10
15.2936536331
 20
40.1917040614
 30
0.0
 10
15.2935176091
 20
40.1744860002
 30
0.0
 10
15.2933539626
 20
40.1580877764
 30
0.0
 10
15.2931642199
 20
40.1426570036
 30
0.0
 10
15.2929502443
 20
40.1283325708
 30
0.0
 10
15.2927139412
 20
40.1152434844
 30
0.0
 10
15.2924582425
 20
40.1035073003
 30
0.0
 10
15.2921841071
 20
40.0932304073
 30
0.0
 10
15.2918999324
 20
40.0845029384
 30
0.0
 10
15.2915949575
 20
40.0774096614
 30
0.0
 10
15.2913135773
 20
40.0719968577
 30
0.0
 10
15.2909780545
 20
40.0683490017
 30
0.0
 10
15.2907887102
 20
40.0664705262
 30
0.0
 10
15.290586679
 20
40.0658637709
 30
0.0
 11
15.2938949864
 21
40.2655896779
 31
0.0
 11
15.2938792854
 21
40.2466423997
 31
0.0
 11
15.2938323069
 21
40.2278608627
 31
0.0
 11
15.2937544734
 21
40.2094185839
 31
0.0
 11
15.2936464853
 21
40.1914818834
 31
0.0
 11
15.293509314
 21
40.1742120688
 31
0.0
 11
15.2933441927
 21
40.15776452
 31
0.0
 11
15.293152608
 21
40.1422873643
 31
0.0
 11
15.2929362841
 21
40.1279199285
 31
0.0
 11
15.2926971674
 21
40.1147915172
 31
0.0
 11
15.2924374102
 21
40.1030203237
 31
0.0
 11
15.2921593508
 21
40.0927123226
 31
0.0
 11
15.2918654933
 21
40.0839603404
 31
0.0
 11
15.2915584819
 21
40.0768431037
 31
0.0
 11
15.2912410777
 21
40.0714246527
 31
0.0
 11
15.2909161436
 21
40.0677537895
 31
0.0
 11
15.290586679
 21
40.0658637709
 31
0.0
  0
SPLINE
  5
4A7
100
AcDbEntity
  8
RACCORDO
100
AcDbSpline
 62
253
  6
CONTINUOUS
 70
0
 71
3
 72
23
 73
19
 74
17
 42
0.0000001
 43
0.0000001
 44
0.0000000001
 12
-0.0631212937
 22
0.1895705544
 32
0.0
 13
-0.0000000518
 23
0.1998031351
 33
0.0
 40
0.0
 40
0.0
 40
0.0
 40
0.0
 40
0.0096020493
 40
0.0280462855
 40
0.0552117228
 40
0.0908660949
 40
0.1346938063
 40
0.1863033606
 40
0.2452316609
 40
0.3109492923
 40
0.3828654024
 40
0.4603333628
 40
0.5426562833
 40
0.6290931622
 40
0.7188666563
 40
0.8111697276
 40
0.9051702336
 40
1.0
 40
1.0
 40
1.0
 40
1.0
 10
8.3074935531
 20
40.0658637709
 30
0.0
 10
8.3072915219
 20
40.0664705262
 30
0.0
 10
8.3071021776
 20
40.0683490017
 30
0.0
 10
8.3067666548
 20
40.0719968577
 30
0.0
 10
8.3064852746
 20
40.0774096614
 30
0.0
 10
8.3061802997
 20
40.0845029384
 30
0.0
 10
8.305896125
 20
40.0932304073
 30
0.0
 10
8.3056219896
 20
40.1035073003
 30
0.0
 10
8.3053662909
 20
40.1152434844
 30
0.0
 10
8.3051299878
 20
40.1283325708
 30
0.0
 10
8.3049160122
 20
40.1426570036
 30
0.0
 10
8.3047262695
 20
40.1580877764
 30
0.0
 10
8.304562623
 20
40.1744860002
 30
0.0
 10
8.304426599
 20
40.1917040614
 30
0.0
 10
8.3043194728
 20
40.2095870267
 30
0.0
 10
8.304242241
 20
40.2279738954
 30
0.0
 10
8.3041956195
 20
40.2466976203
 30
0.0
 10
8.3041852473
 20
40.2592739163
 30
0.0
 10
8.3041852457
 20
40.2655896779
 30
0.0
 11
8.3074935531
 21
40.0658637709
 31
0.0
 11
8.3071640885
 21
40.0677537895
 31
0.0
 11
8.3068391544
 21
40.0714246527
 31
0.0
 11
8.3065217502
 21
40.0768431037
 31
0.0
 11
8.3062147388
 21
40.0839603404
 31
0.0
 11
8.3059208813
 21
40.0927123226
 31
0.0
 11
8.3056428219
 21
40.1030203237
 31
0.0
 11
8.3053830647
 21
40.1147915172
 31
0.0
 11
8.305143948
 21
40.1279199285
 31
0.0
 11
8.3049276241
 21
40.1422873643
 31
0.0
 11
8.3047360394
 21
40.15776452
 31
0.0
 11
8.3045709181
 21
40.1742120688
 31
0.0
 11
8.3044337468
 21
40.1914818834
 31
0.0
 11
8.3043257587
 21
40.2094185839
 31
0.0
 11
8.3042479252
 21
40.2278608627
 31
0.0
 11
8.3042009467
 21
40.2466423997
 31
0.0
 11
8.3041852457
 21
40.2655896779
 31
0.0
  0
SPLINE
  5
4A8
100
AcDbEntity
  8
RACCORDO
100
AcDbSpline
 62
253
  6
CONTINUOUS
 70
0
 71
3
 72
23
 73
19
 74
17
 42
0.0000001
 43
0.0000001
 44
0.0000000001
 12
-0.0000000518
 22
-0.1998031351
 32
0.0
 13
-0.0631212938
 23
-0.1895705543
 33
0.0
 40
0.0
 40
0.0
 40
0.0
 40
0.0
 40
0.0948297664
 40
0.1888302723
 40
0.2811333437
 40
0.3709068378
 40
0.4573437167
 40
0.5396666372
 40
0.6171345976
 40
0.6890507077
 40
0.7547683391
 40
0.8136966394
 40
0.8653061937
 40
0.909133905
 40
0.9447882772
 40
0.9719537145
 40
0.9903979507
 40
1.0
 40
1.0
 40
1.0
 40
1.0
 10
7.4938949864
 20
40.2655896779
 30
0.0
 10
7.4938949848
 20
40.2592739163
 30
0.0
 10
7.4938846126
 20
40.2466976203
 30
0.0
 10
7.4938379911
 20
40.2279738954
 30
0.0
 10
7.4937607593
 20
40.2095870267
 30
0.0
 10
7.4936536331
 20
40.1917040614
 30
0.0
 10
7.4935176091
 20
40.1744860002
 30
0.0
 10
7.4933539626
 20
40.1580877764
 30
0.0
 10
7.4931642199
 20
40.1426570036
 30
0.0
 10
7.4929502443
 20
40.1283325708
 30
0.0
 10
7.4927139412
 20
40.1152434844
 30
0.0
 10
7.4924582425
 20
40.1035073003
 30
0.0
 10
7.4921841071
 20
40.0932304073
 30
0.0
 10
7.4918999324
 20
40.0845029384
 30
0.0
 10
7.4915949575
 20
40.0774096614
 30
0.0
 10
7.4913135773
 20
40.0719968577
 30
0.0
 10
7.4909780545
 20
40.0683490017
 30
0.0
 10
7.4907887102
 20
40.0664705262
 30
0.0
 10
7.490586679
 20
40.0658637709
 30
0.0
 11
7.4938949864
 21
40.2655896779
 31
0.0
 11
7.4938792854
 21
40.2466423997
 31
0.0
 11
7.4938323069
 21
40.2278608627
 31
0.0
 11
7.4937544734
 21
40.2094185839
 31
0.0
 11
7.4936464853
 21
40.1914818834
 31
0.0
 11
7.493509314
 21
40.1742120688
 31
0.0
 11
7.4933441927
 21
40.15776452
 31
0.0
 11
7.493152608
 21
40.1422873643
 31
0.0
 11
7.4929362841
 21
40.1279199285
 31
0.0
 11
7.4926971674
 21
40.1147915172
 31
0.0
 11
7.4924374102
 21
40.1030203237
 31
0.0
 11
7.4921593508
 21
40.0927123226
 31
0.0
 11
7.4918654933
 21
40.0839603404
 31
0.0
 11
7.4915584819
 21
40.0768431037
 31
0.0
 11
7.4912410777
 21
40.0714246527
 31
0.0
 11
7.4909161436
 21
40.0677537895
 31
0.0
 11
7.490586679
 21
40.0658637709
 31
0.0
  0
SPLINE
  5
4A9
100
AcDbEntity
  8
RACCORDO
100
AcDbSpline
 62
253
  6
CONTINUOUS
 70
0
 71
3
 72
23
 73
19
 74
17
 42
0.0000001
 43
0.0000001
 44
0.0000000001
 12
0.0631212937
 22
-0.1895705544
 32
0.0
 13
0.0000000518
 23
-0.1998031351
 33
0.0
 40
0.0
 40
0.0
 40
0.0
 40
0.0
 40
0.0096020493
 40
0.0280462855
 40
0.0552117228
 40
0.0908660949
 40
0.1346938063
 40
0.1863033606
 40
0.2452316609
 40
0.3109492923
 40
0.3828654024
 40
0.4603333628
 40
0.5426562833
 40
0.6290931622
 40
0.7188666563
 40
0.8111697276
 40
0.9051702336
 40
1.0
 40
1.0
 40
1.0
 40
1.0
 10
15.290586679
 20
5.5163510181
 30
0.0
 10
15.2907887102
 20
5.5157442628
 30
0.0
 10
15.2909780545
 20
5.5138657873
 30
0.0
 10
15.2913135773
 20
5.5102179313
 30
0.0
 10
15.2915949575
 20
5.5048051276
 30
0.0
 10
15.2918999324
 20
5.4977118506
 30
0.0
 10
15.2921841071
 20
5.4889843817
 30
0.0
 10
15.2924582425
 20
5.4787074887
 30
0.0
 10
15.2927139412
 20
5.4669713046
 30
0.0
 10
15.2929502443
 20
5.4538822182
 30
0.0
 10
15.2931642199
 20
5.4395577854
 30
0.0
 10
15.2933539626
 20
5.4241270126
 30
0.0
 10
15.2935176091
 20
5.4077287888
 30
0.0
 10
15.2936536331
 20
5.3905107276
 30
0.0
 10
15.2937607593
 20
5.3726277623
 30
0.0
 10
15.2938379911
 20
5.3542408936
 30
0.0
 10
15.2938846126
 20
5.3355171687
 30
0.0
 10
15.2938949848
 20
5.3229408727
 30
0.0
 10
15.2938949864
 20
5.3166251111
 30
0.0
 11
15.290586679
 21
5.5163510181
 31
0.0
 11
15.2909161436
 21
5.5144609995
 31
0.0
 11
15.2912410777
 21
5.5107901363
 31
0.0
 11
15.2915584819
 21
5.5053716853
 31
0.0
 11
15.2918654933
 21
5.4982544486
 31
0.0
 11
15.2921593508
 21
5.4895024664
 31
0.0
 11
15.2924374102
 21
5.4791944653
 31
0.0
 11
15.2926971674
 21
5.4674232718
 31
0.0
 11
15.2929362841
 21
5.4542948605
 31
0.0
 11
15.293152608
 21
5.4399274247
 31
0.0
 11
15.2933441927
 21
5.424450269
 31
0.0
 11
15.293509314
 21
5.4080027202
 31
0.0
 11
15.2936464853
 21
5.3907329056
 31
0.0
 11
15.2937544734
 21
5.3727962051
 31
0.0
 11
15.2938323069
 21
5.3543539263
 31
0.0
 11
15.2938792854
 21
5.3355723893
 31
0.0
 11
15.2938949864
 21
5.3166251111
 31
0.0
  0
SPLINE
  5
4AA
100
AcDbEntity
  8
RACCORDO
100
AcDbSpline
 62
253
  6
CONTINUOUS
 70
0
 71
3
 72
23
 73
19
 74
17
 42
0.0000001
 43
0.0000001
 44
0.0000000001
 12
0.0000000518
 22
0.1998031351
 32
0.0
 13
0.0631212938
 23
0.1895705543
 33
0.0
 40
0.0
 40
0.0
 40
0.0
 40
0.0
 40
0.0948297664
 40
0.1888302723
 40
0.2811333437
 40
0.3709068378
 40
0.4573437167
 40
0.5396666372
 40
0.6171345976
 40
0.6890507077
 40
0.7547683391
 40
0.8136966394
 40
0.8653061937
 40
0.909133905
 40
0.9447882772
 40
0.9719537145
 40
0.9903979507
 40
1.0
 40
1.0
 40
1.0
 40
1.0
 10
16.1041852457
 20
5.3166251111
 30
0.0
 10
16.1041852473
 20
5.3229408727
 30
0.0
 10
16.1041956195
 20
5.3355171687
 30
0.0
 10
16.104242241
 20
5.3542408936
 30
0.0
 10
16.1043194728
 20
5.3726277623
 30
0.0
 10
16.104426599
 20
5.3905107276
 30
0.0
 10
16.104562623
 20
5.4077287888
 30
0.0
 10
16.1047262695
 20
5.4241270126
 30
0.0
 10
16.1049160122
 20
5.4395577854
 30
0.0
 10
16.1051299878
 20
5.4538822182
 30
0.0
 10
16.1053662909
 20
5.4669713046
 30
0.0
 10
16.1056219896
 20
5.4787074887
 30
0.0
 10
16.105896125
 20
5.4889843817
 30
0.0
 10
16.1061802997
 20
5.4977118506
 30
0.0
 10
16.1064852746
 20
5.5048051276
 30
0.0
 10
16.1067666548
 20
5.5102179313
 30
0.0
 10
16.1071021776
 20
5.5138657873
 30
0.0
 10
16.1072915219
 20
5.5157442628
 30
0.0
 10
16.1074935531
 20
5.5163510181
 30
0.0
 11
16.1041852457
 21
5.3166251111
 31
0.0
 11
16.1042009467
 21
5.3355723893
 31
0.0
 11
16.1042479252
 21
5.3543539263
 31
0.0
 11
16.1043257587
 21
5.3727962051
 31
0.0
 11
16.1044337468
 21
5.3907329056
 31
0.0
 11
16.1045709181
 21
5.4080027202
 31
0.0
 11
16.1047360394
 21
5.424450269
 31
0.0
 11
16.1049276241
 21
5.4399274247
 31
0.0
 11
16.105143948
 21
5.4542948605
 31
0.0
 11
16.1053830647
 21
5.4674232718
 31
0.0
 11
16.1056428219
 21
5.4791944653
 31
0.0
 11
16.1059208813
 21
5.4895024664
 31
0.0
 11
16.1062147388
 21
5.4982544486
 31
0.0
 11
16.1065217502
 21
5.5053716853
 31
0.0
 11
16.1068391544
 21
5.5107901363
 31
0.0
 11
16.1071640885
 21
5.5144609995
 31
0.0
 11
16.1074935531
 21
5.5163510181
 31
0.0
  0
SPLINE
  5
4AB
100
AcDbEntity
  8
RACCORDO
100
AcDbSpline
 62
253
  6
CONTINUOUS
 70
0
 71
3
 72
23
 73
19
 74
17
 42
0.0000001
 43
0.0000001
 44
0.0000000001
 12
0.0631212937
 22
-0.1895705544
 32
0.0
 13
0.0000000518
 23
-0.1998031351
 33
0.0
 40
0.0
 40
0.0
 40
0.0
 40
0.0
 40
0.0096020493
 40
0.0280462855
 40
0.0552117228
 40
0.0908660949
 40
0.1346938063
 40
0.1863033606
 40
0.2452316609
 40
0.3109492923
 40
0.3828654024
 40
0.4603333628
 40
0.5426562833
 40
0.6290931622
 40
0.7188666563
 40
0.8111697276
 40
0.9051702336
 40
1.0
 40
1.0
 40
1.0
 40
1.0
 10
7.490586679
 20
5.5163510181
 30
0.0
 10
7.4907887102
 20
5.5157442628
 30
0.0
 10
7.4909780545
 20
5.5138657873
 30
0.0
 10
7.4913135773
 20
5.5102179313
 30
0.0
 10
7.4915949575
 20
5.5048051276
 30
0.0
 10
7.4918999324
 20
5.4977118506
 30
0.0
 10
7.4921841071
 20
5.4889843817
 30
0.0
 10
7.4924582425
 20
5.4787074887
 30
0.0
 10
7.4927139412
 20
5.4669713046
 30
0.0
 10
7.4929502443
 20
5.4538822182
 30
0.0
 10
7.4931642199
 20
5.4395577854
 30
0.0
 10
7.4933539626
 20
5.4241270126
 30
0.0
 10
7.4935176091
 20
5.4077287888
 30
0.0
 10
7.4936536331
 20
5.3905107276
 30
0.0
 10
7.4937607593
 20
5.3726277623
 30
0.0
 10
7.4938379911
 20
5.3542408936
 30
0.0
 10
7.4938846126
 20
5.3355171687
 30
0.0
 10
7.4938949848
 20
5.3229408727
 30
0.0
 10
7.4938949864
 20
5.3166251111
 30
0.0
 11
7.490586679
 21
5.5163510181
 31
0.0
 11
7.4909161436
 21
5.5144609995
 31
0.0
 11
7.4912410777
 21
5.5107901363
 31
0.0
 11
7.4915584819
 21
5.5053716853
 31
0.0
 11
7.4918654933
 21
5.4982544486
 31
0.0
 11
7.4921593508
 21
5.4895024664
 31
0.0
 11
7.4924374102
 21
5.4791944653
 31
0.0
 11
7.4926971674
 21
5.4674232718
 31
0.0
 11
7.4929362841
 21
5.4542948605
 31
0.0
 11
7.493152608
 21
5.4399274247
 31
0.0
 11
7.4933441927
 21
5.424450269
 31
0.0
 11
7.493509314
 21
5.4080027202
 31
0.0
 11
7.4936464853
 21
5.3907329056
 31
0.0
 11
7.4937544734
 21
5.3727962051
 31
0.0
 11
7.4938323069
 21
5.3543539263
 31
0.0
 11
7.4938792854
 21
5.3355723893
 31
0.0
 11
7.4938949864
 21
5.3166251111
 31
0.0
  0
SPLINE
  5
4AC
100
AcDbEntity
  8
RACCORDO
100
AcDbSpline
 62
253
  6
CONTINUOUS
 70
0
 71
3
 72
23
 73
19
 74
17
 42
0.0000001
 43
0.0000001
 44
0.0000000001
 12
0.0000000518
 22
0.1998031351
 32
0.0
 13
0.0631212938
 23
0.1895705543
 33
0.0
 40
0.0
 40
0.0
 40
0.0
 40
0.0
 40
0.0948297664
 40
0.1888302723
 40
0.2811333437
 40
0.3709068378
 40
0.4573437167
 40
0.5396666372
 40
0.6171345976
 40
0.6890507077
 40
0.7547683391
 40
0.8136966394
 40
0.8653061937
 40
0.909133905
 40
0.9447882772
 40
0.9719537145
 40
0.9903979507
 40
1.0
 40
1.0
 40
1.0
 40
1.0
 10
8.3041852457
 20
5.3166251111
 30
0.0
 10
8.3041852473
 20
5.3229408727
 30
0.0
 10
8.3041956195
 20
5.3355171687
 30
0.0
 10
8.304242241
 20
5.3542408936
 30
0.0
 10
8.3043194728
 20
5.3726277623
 30
0.0
 10
8.304426599
 20
5.3905107276
 30
0.0
 10
8.304562623
 20
5.4077287888
 30
0.0
 10
8.3047262695
 20
5.4241270126
 30
0.0
 10
8.3049160122
 20
5.4395577854
 30
0.0
 10
8.3051299878
 20
5.4538822182
 30
0.0
 10
8.3053662909
 20
5.4669713046
 30
0.0
 10
8.3056219896
 20
5.4787074887
 30
0.0
 10
8.305896125
 20
5.4889843817
 30
0.0
 10
8.3061802997
 20
5.4977118506
 30
0.0
 10
8.3064852746
 20
5.5048051276
 30
0.0
 10
8.3067666548
 20
5.5102179313
 30
0.0
 10
8.3071021776
 20
5.5138657873
 30
0.0
 10
8.3072915219
 20
5.5157442628
 30
0.0
 10
8.3074935531
 20
5.5163510181
 30
0.0
 11
8.3041852457
 21
5.3166251111
 31
0.0
 11
8.3042009467
 21
5.3355723893
 31
0.0
 11
8.3042479252
 21
5.3543539263
 31
0.0
 11
8.3043257587
 21
5.3727962051
 31
0.0
 11
8.3044337468
 21
5.3907329056
 31
0.0
 11
8.3045709181
 21
5.4080027202
 31
0.0
 11
8.3047360394
 21
5.424450269
 31
0.0
 11
8.3049276241
 21
5.4399274247
 31
0.0
 11
8.305143948
 21
5.4542948605
 31
0.0
 11
8.3053830647
 21
5.4674232718
 31
0.0
 11
8.3056428219
 21
5.4791944653
 31
0.0
 11
8.3059208813
 21
5.4895024664
 31
0.0
 11
8.3062147388
 21
5.4982544486
 31
0.0
 11
8.3065217502
 21
5.5053716853
 31
0.0
 11
8.3068391544
 21
5.5107901363
 31
0.0
 11
8.3071640885
 21
5.5144609995
 31
0.0
 11
8.3074935531
 21
5.5163510181
 31
0.0
  0
SPLINE
  5
4AD
100
AcDbEntity
  8
0
100
AcDbSpline
 62
7
  6
CONTINUOUS
 70
0
 71
3
 72
8
 73
4
 74
2
 42
0.0000001
 43
0.0000001
 44
0.0000000001
 12
-0.2363600352
 22
0.2302472995
 32
0.0
 13
-0.0000000236
 23
0.3356065326
 33
0.0
 40
0.0
 40
0.0
 40
0.0
 40
0.0
 40
1.0
 40
1.0
 40
1.0
 40
1.0
 10
39.8382633846
 20
15.9097198062
 30
0.0
 10
39.7594767062
 20
15.986468906
 30
0.0
 10
39.7185489387
 20
16.0806027492
 30
0.0
 10
39.7185489309
 20
16.1924715934
 30
0.0
 11
39.8382633846
 21
15.9097198062
 31
0.0
 11
39.7185489309
 21
16.1924715934
 31
0.0
  0
SPLINE
  5
4AE
100
AcDbEntity
  8
0
100
AcDbSpline
 62
7
  6
CONTINUOUS
 70
0
 71
3
 72
8
 73
4
 74
2
 42
0.0000001
 43
0.0000001
 44
0.0000000001
 12
-0.0000000236
 22
0.3356066183
 32
0.0
 13
0.2373805689
 23
0.2210097079
 33
0.0
 40
0.0
 40
0.0
 40
0.0
 40
0.0
 40
1.0
 40
1.0
 40
1.0
 40
1.0
 10
39.7185489309
 20
16.1924715934
 30
0.0
 10
39.718548923
 20
16.3043404661
 30
0.0
 10
39.759476691
 20
16.3971100997
 30
0.0
 10
39.8386035473
 20
16.4707800023
 30
0.0
 11
39.7185489309
 21
16.1924715934
 31
0.0
 11
39.8386035473
 21
16.4707800023
 31
0.0
  0
SPLINE
  5
4AF
100
AcDbEntity
  8
0
100
AcDbSpline
 62
7
  6
CONTINUOUS
 70
0
 71
3
 72
8
 73
4
 74
2
 42
0.0000001
 43
0.0000001
 44
0.0000000001
 12
0.2373806419
 22
0.2210097759
 32
0.0
 13
0.4133697152
 23
0.0
 33
0.0
 40
0.0
 40
0.0
 40
0.0
 40
0.0
 40
1.0
 40
1.0
 40
1.0
 40
1.0
 10
39.8386035473
 20
16.4707800023
 30
0.0
 10
39.917730428
 20
16.5444499276
 30
0.0
 10
40.0268709433
 20
16.5812846444
 30
0.0
 10
40.1646608484
 20
16.5812846444
 30
0.0
 11
39.8386035473
 21
16.4707800023
 31
0.0
 11
40.1646608484
 21
16.5812846444
 31
0.0
  0
SPLINE
  5
4B0
100
AcDbEntity
  8
0
100
AcDbSpline
 62
7
  6
CONTINUOUS
 70
0
 71
3
 72
8
 73
4
 74
2
 42
0.0000001
 43
0.0000001
 44
0.0000000001
 12
0.4338335395
 22
0.0
 32
0.0
 13
0.2495433152
 23
-0.2211401419
 33
0.0
 40
0.0
 40
0.0
 40
0.0
 40
0.0
 40
1.0
 40
1.0
 40
1.0
 40
1.0
 10
40.1646608484
 20
16.5812846444
 30
0.0
 10
40.3092720282
 20
16.5812846444
 30
0.0
 10
40.4225053263
 20
16.5430856965
 30
0.0
 10
40.5056864313
 20
16.4693723159
 30
0.0
 11
40.1646608484
 21
16.5812846444
 31
0.0
 11
40.5056864313
 21
16.4693723159
 31
0.0
  0
SPLINE
  5
4B1
100
AcDbEntity
  8
0
100
AcDbSpline
 62
7
  6
CONTINUOUS
 70
0
 71
3
 72
8
 73
4
 74
2
 42
0.0000001
 43
0.0000001
 44
0.0000000001
 12
0.2538673519
 22
-0.2249720141
 32
0.0
 13
0.0
 23
-0.311050415
 33
0.0
 40
0.0
 40
0.0
 40
0.0
 40
0.0
 40
1.0
 40
1.0
 40
1.0
 40
1.0
 10
40.5056864313
 20
16.4693723159
 30
0.0
 10
40.590308882
 20
16.3943816445
 30
0.0
 10
40.6312365752
 20
16.3057047151
 30
0.0
 10
40.6312365752
 20
16.2020212434
 30
0.0
 11
40.5056864313
 21
16.4693723159
 31
0.0
 11
40.6312365752
 21
16.2020212434
 31
0.0
  0
SPLINE
  5
4B2
100
AcDbEntity
  8
0
100
AcDbSpline
 62
7
  6
CONTINUOUS
 70
0
 71
3
 72
8
 73
4
 74
2
 42
0.0000001
 43
0.0000001
 44
0.0000000001
 12
0.0
 22
-0.2128229141
 32
0.0
 13
-0.1218581482
 23
-0.1929419996
 33
0.0
 40
0.0
 40
0.0
 40
0.0
 40
0.0
 40
1.0
 40
1.0
 40
1.0
 40
1.0
 10
40.6312365752
 20
16.2020212434
 30
0.0
 10
40.6312365752
 20
16.131080272
 30
0.0
 10
40.6121369821
 20
16.062867286
 30
0.0
 10
40.5715175993
 20
15.9985532861
 30
0.0
 11
40.6312365752
 21
16.2020212434
 31
0.0
 11
40.5715175993
 21
15.9985532861
 31
0.0
  0
SPLINE
  5
4B3
100
AcDbEntity
  8
0
100
AcDbSpline
 62
7
  6
CONTINUOUS
 70
0
 71
3
 72
8
 73
4
 74
2
 42
0.0000001
 43
0.0000001
 44
0.0000000001
 12
-0.123708056
 22
-0.1958710192
 32
0.0
 13
-0.2329286915
 23
-0.1071885759
 33
0.0
 40
0.0
 40
0.0
 40
0.0
 40
0.0
 40
1.0
 40
1.0
 40
1.0
 40
1.0
 10
40.5715175993
 20
15.9985532861
 30
0.0
 10
40.5302815807
 20
15.9332629464
 30
0.0
 10
40.4716185701
 20
15.8827854417
 30
0.0
 10
40.3939756729
 20
15.8470559164
 30
0.0
 11
40.5715175993
 21
15.9985532861
 31
0.0
 11
40.3939756729
 21
15.8470559164
 31
0.0
  0
SPLINE
  5
4B4
100
AcDbEntity
  8
0
100
AcDbSpline
 62
7
  6
CONTINUOUS
 70
0
 71
3
 72
8
 73
4
 74
2
 42
0.0000001
 43
0.0000001
 44
0.0000000001
 12
-0.2295543271
 22
-0.1056357688
 32
0.0
 13
-0.2537516356
 23
0.0
 33
0.0
 40
0.0
 40
0.0
 40
0.0
 40
0.0
 40
1.0
 40
1.0
 40
1.0
 40
1.0
 10
40.3939756729
 20
15.8470559164
 30
0.0
 10
40.3174575639
 20
15.8118439935
 30
0.0
 10
40.2356021774
 20
15.794108989
 30
0.0
 10
40.1510182988
 20
15.794108989
 30
0.0
 11
40.3939756729
 21
15.8470559164
 31
0.0
 11
40.1510182988
 21
15.794108989
 31
0.0
  0
SPLINE
  5
4B5
100
AcDbEntity
  8
0
100
AcDbSpline
 62
7
  6
CONTINUOUS
 70
0
 71
3
 72
8
 73
4
 74
2
 42
0.0000001
 43
0.0000001
 44
0.0000000001
 12
-0.3847203255
 22
0.0
 32
0.0
 13
-0.2384011301
 23
0.2322356077
 33
0.0
 40
0.0
 40
0.0
 40
0.0
 40
0.0
 40
1.0
 40
1.0
 40
1.0
 40
1.0
 10
40.1510182988
 20
15.794108989
 30
0.0
 10
40.0227781904
 20
15.794108989
 30
0.0
 10
39.917730428
 20
15.8323079369
 30
0.0
 10
39.8382633846
 20
15.9097198062
 30
0.0
 11
40.1510182988
 21
15.794108989
 31
0.0
 11
39.8382633846
 21
15.9097198062
 31
0.0
  0
SPLINE
  5
4B6
100
AcDbEntity
  8
0
100
AcDbSpline
 62
7
  6
CONTINUOUS
 70
0
 71
3
 72
8
 73
4
 74
2
 42
0.0000001
 43
0.0000001
 44
0.0000000001
 12
-0.2631023094
 22
-0.3018532819
 32
0.0
 13
0.0
 23
-0.4706697464
 33
0.0
 40
0.0
 40
0.0
 40
0.0
 40
0.0
 40
1.0
 40
1.0
 40
1.0
 40
1.0
 10
38.9235758411
 20
16.615054127
 30
0.0
 10
38.8358750713
 20
16.5144363664
 30
0.0
 10
38.790854491
 20
16.3861962579
 30
0.0
 10
38.790854491
 20
16.2293063424
 30
0.0
 11
38.9235758411
 21
16.615054127
 31
0.0
 11
38.790854491
 21
16.2293063424
 31
0.0
  0
SPLINE
  5
4B7
100
AcDbEntity
  8
0
100
AcDbSpline
 62
7
  6
CONTINUOUS
 70
0
 71
3
 72
8
 73
4
 74
2
 42
0.0000001
 43
0.0000001
 44
0.0000000001
 12
0.0
 22
-0.6343789101
 32
0.0
 13
0.4582152856
 23
-0.3726568339
 33
0.0
 40
0.0
 40
0.0
 40
0.0
 40
0.0
 40
1.0
 40
1.0
 40
1.0
 40
1.0
 10
38.790854491
 20
16.2293063424
 30
0.0
 10
38.790854491
 20
16.0178467057
 30
0.0
 10
38.8672529828
 20
15.8500434182
 30
0.0
 10
39.0199914114
 20
15.7258244736
 30
0.0
 11
38.790854491
 21
16.2293063424
 31
0.0
 11
39.0199914114
 21
15.7258244736
 31
0.0
  0
SPLINE
  5
4B8
100
AcDbEntity
  8
0
100
AcDbSpline
 62
7
  6
CONTINUOUS
 70
0
 71
3
 72
8
 73
4
 74
2
 42
0.0000001
 43
0.0000001
 44
0.0000000001
 12
0.5281420457
 22
-0.4295267941
 32
0.0
 13
1.1582536697
 23
0.0
 33
0.0
 40
0.0
 40
0.0
 40
0.0
 40
0.0
 40
1.0
 40
1.0
 40
1.0
 40
1.0
 10
39.0199914114
 20
15.7258244736
 30
0.0
 10
39.1960387599
 20
15.5826488755
 30
0.0
 10
39.4770756137
 20
15.5117079041
 30
0.0
 10
39.8631601703
 20
15.5117079041
 30
0.0
 11
39.0199914114
 21
15.7258244736
 31
0.0
 11
39.8631601703
 21
15.5117079041
 31
0.0
  0
SPLINE
  5
4B9
100
AcDbEntity
  8
0
100
AcDbSpline
 62
7
  6
CONTINUOUS
 70
0
 71
3
 72
8
 73
4
 74
2
 42
0.0000001
 43
0.0000001
 44
0.0000000001
 12
1.0395634174
 22
0.0
 32
0.0
 13
0.4512146025
 23
0.3876343147
 33
0.0
 40
0.0
 40
0.0
 40
0.0
 40
0.0
 40
1.0
 40
1.0
 40
1.0
 40
1.0
 10
39.8631601703
 20
15.5117079041
 30
0.0
 10
40.2096813094
 20
15.5117079041
 30
0.0
 10
40.4579759908
 20
15.57582772
 30
0.0
 10
40.6083808582
 20
15.7050391582
 30
0.0
 11
39.8631601703
 21
15.5117079041
 31
0.0
 11
40.6083808582
 21
15.7050391582
 31
0.0
  0
SPLINE
  5
4BA
100
AcDbEntity
  8
0
100
AcDbSpline
 62
7
  6
CONTINUOUS
 70
0
 71
3
 72
8
 73
4
 74
2
 42
0.0000001
 43
0.0000001
 44
0.0000000001
 12
0.4491946937
 22
0.3858990296
 32
0.0
 13
0.0
 23
0.6139154434
 33
0.0
 40
0.0
 40
0.0
 40
0.0
 40
0.0
 40
1.0
 40
1.0
 40
1.0
 40
1.0
 10
40.6083808582
 20
15.7050391582
 30
0.0
 10
40.7581124228
 20
15.8336721681
 30
0.0
 10
40.8331465271
 20
16.0014759324
 30
0.0
 10
40.8331465271
 20
16.2061144135
 30
0.0
 11
40.6083808582
 21
15.7050391582
 31
0.0
 11
40.8331465271
 21
16.2061144135
 31
0.0
  0
SPLINE
  5
4BB
100
AcDbEntity
  8
0
100
AcDbSpline
 62
7
  6
CONTINUOUS
 70
0
 71
3
 72
8
 73
4
 74
2
 42
0.0000001
 43
0.0000001
 44
0.0000000001
 12
0.0
 22
0.360162735
 32
0.0
 13
-0.1728012694
 23
0.2859453999
 33
0.0
 40
0.0
 40
0.0
 40
0.0
 40
0.0
 40
1.0
 40
1.0
 40
1.0
 40
1.0
 10
40.8331465271
 20
16.2061144135
 30
0.0
 10
40.8331465271
 20
16.3261686585
 30
0.0
 10
40.804497142
 20
16.4325805924
 30
0.0
 10
40.7468967189
 20
16.5278957257
 30
0.0
 11
40.8331465271
 21
16.2061144135
 31
0.0
 11
40.7468967189
 21
16.5278957257
 31
0.0
  0
SPLINE
  5
4BC
100
AcDbEntity
  8
0
100
AcDbSpline
 62
7
  6
CONTINUOUS
 70
0
 71
3
 72
8
 73
4
 74
2
 42
0.0000001
 43
0.0000001
 44
0.0000000001
 12
-0.1709913544
 22
0.2829504169
 32
0.0
 13
-0.3233287724
 23
0.1637105762
 33
0.0
 40
0.0
 40
0.0
 40
0.0
 40
0.0
 40
1.0
 40
1.0
 40
1.0
 40
1.0
 10
40.7468967189
 20
16.5278957257
 30
0.0
 10
40.6898996007
 20
16.6222125314
 30
0.0
 10
40.6080442142
 20
16.6958824418
 30
0.0
 10
40.5002679568
 20
16.7504526339
 30
0.0
 11
40.7468967189
 21
16.5278957257
 31
0.0
 11
40.5002679568
 21
16.7504526339
 31
0.0
  0
SPLINE
  5
4BD
100
AcDbEntity
  8
0
100
AcDbSpline
 62
7
  6
CONTINUOUS
 70
0
 71
3
 72
8
 73
4
 74
2
 42
0.0000001
 43
0.0000001
 44
0.0000000001
 12
-0.3233288435
 22
0.1637106122
 32
0.0
 13
-0.3765349388
 23
0.0
 33
0.0
 40
0.0
 40
0.0
 40
0.0
 40
0.0
 40
1.0
 40
1.0
 40
1.0
 40
1.0
 10
40.5002679568
 20
16.7504526339
 30
0.0
 10
40.3924916756
 20
16.8050228379
 30
0.0
 10
40.2751656544
 20
16.8323079369
 30
0.0
 10
40.1496540081
 20
16.8323079369
 30
0.0
 11
40.5002679568
 21
16.7504526339
 31
0.0
 11
40.1496540081
 21
16.8323079369
 31
0.0
  0
SPLINE
  5
4BE
100
AcDbEntity
  8
0
100
AcDbSpline
 62
7
  6
CONTINUOUS
 70
0
 71
3
 72
8
 73
4
 74
2
 42
0.0000001
 43
0.0000001
 44
0.0000000001
 12
-0.5729876161
 22
0.0
 32
0.0
 13
-0.3601640289
 23
-0.3437929733
 33
0.0
 40
0.0
 40
0.0
 40
0.0
 40
0.0
 40
1.0
 40
1.0
 40
1.0
 40
1.0
 10
40.1496540081
 20
16.8323079369
 30
0.0
 10
39.9586581361
 20
16.8323079369
 30
0.0
 10
39.803132869
 20
16.7736450456
 30
0.0
 10
39.6830781927
 20
16.6590473878
 30
0.0
 11
40.1496540081
 21
16.8323079369
 31
0.0
 11
39.6830781927
 21
16.6590473878
 31
0.0
  0
SPLINE
  5
4BF
100
AcDbEntity
  8
0
100
AcDbSpline
 62
7
  6
CONTINUOUS
 70
0
 71
3
 72
8
 73
4
 74
2
 42
0.0000001
 43
0.0000001
 44
0.0000000001
 12
-0.360163408
 22
-0.3437923806
 32
0.0
 13
-0.0
 23
-0.4911317825
 33
0.0
 40
0.0
 40
0.0
 40
0.0
 40
0.0
 40
1.0
 40
1.0
 40
1.0
 40
1.0
 10
39.6830781927
 20
16.6590473878
 30
0.0
 10
39.5630237233
 20
16.5444499276
 30
0.0
 10
39.5016322505
 20
16.4052954934
 30
0.0
 10
39.5016322505
 20
16.2415848992
 30
0.0
 11
39.6830781927
 21
16.6590473878
 31
0.0
 11
39.5016322505
 21
16.2415848992
 31
0.0
  0
SPLINE
  5
4C0
100
AcDbEntity
  8
0
100
AcDbSpline
 62
7
  6
CONTINUOUS
 70
0
 71
3
 72
8
 73
4
 74
2
 42
0.0000001
 43
0.0000001
 44
0.0000000001
 12
-0.0
 22
-0.2824015617
 32
0.0
 13
0.1301381767
 23
-0.2541762429
 33
0.0
 40
0.0
 40
0.0
 40
0.0
 40
0.0
 40
1.0
 40
1.0
 40
1.0
 40
1.0
 10
39.5016322505
 20
16.2415848992
 30
0.0
 10
39.5016322505
 20
16.1474510453
 30
0.0
 10
39.5234603059
 20
16.0574103616
 30
0.0
 10
39.5668396981
 20
15.9726849473
 30
0.0
 11
39.5016322505
 21
16.2415848992
 31
0.0
 11
39.5668396981
 21
15.9726849473
 31
0.0
  0
SPLINE
  5
4C1
100
AcDbEntity
  8
0
100
AcDbSpline
 62
7
  6
CONTINUOUS
 70
0
 71
3
 72
8
 73
4
 74
2
 42
0.0000001
 43
0.0000001
 44
0.0000000001
 12
0.1317992032
 22
-0.2574204368
 32
0.0
 13
0.2701227665
 23
-0.1759886742
 33
0.0
 40
0.0
 40
0.0
 40
0.0
 40
0.0
 40
1.0
 40
1.0
 40
1.0
 40
1.0
 10
39.5668396981
 20
15.9726849473
 30
0.0
 10
39.6107727659
 20
15.886878135
 30
0.0
 10
39.6776212823
 20
15.8145724557
 30
0.0
 10
39.7676622045
 20
15.7559095643
 30
0.0
 11
39.5668396981
 21
15.9726849473
 31
0.0
 11
39.7676622045
 21
15.7559095643
 31
0.0
  0
SPLINE
  5
4C2
100
AcDbEntity
  8
0
100
AcDbSpline
 62
7
  6
CONTINUOUS
 70
0
 71
3
 72
8
 73
4
 74
2
 42
0.0000001
 43
0.0000001
 44
0.0000000001
 12
-0.5975443125
 22
0.0040926933
 32
0.0
 13
-0.3278438811
 23
0.1340238859
 33
0.0
 40
0.0
 40
0.0
 40
0.0
 40
0.0
 40
1.0
 40
1.0
 40
1.0
 40
1.0
 10
39.7676622045
 20
15.7559095643
 30
0.0
 10
39.568480767
 20
15.7572737954
 30
0.0
 10
39.4143197906
 20
15.7804662011
 30
0.0
 10
39.3050384969
 20
15.8251408297
 30
0.0
 11
39.7676622045
 21
15.7559095643
 31
0.0
 11
39.3050384969
 21
15.8251408297
 31
0.0
  0
SPLINE
  5
4C3
100
AcDbEntity
  8
0
100
AcDbSpline
 62
7
  6
CONTINUOUS
 70
0
 71
3
 72
8
 73
4
 74
2
 42
0.0000001
 43
0.0000001
 44
0.0000000001
 12
-0.3229065175
 22
0.132005472
 32
0.0
 13
-0.1723718791
 23
0.2329349168
 33
0.0
 40
0.0
 40
0.0
 40
0.0
 40
0.0
 40
1.0
 40
1.0
 40
1.0
 40
1.0
 10
39.3050384969
 20
15.8251408297
 30
0.0
 10
39.197402991
 20
15.8691426537
 30
0.0
 10
39.1155475747
 20
15.9305344842
 30
0.0
 10
39.0580902817
 20
16.0081794565
 30
0.0
 11
39.3050384969
 21
15.8251408297
 31
0.0
 11
39.0580902817
 21
16.0081794565
 31
0.0
  0
SPLINE
  5
4C4
100
AcDbEntity
  8
0
100
AcDbSpline
 62
7
  6
CONTINUOUS
 70
0
 71
3
 72
8
 73
4
 74
2
 42
0.0000001
 43
0.0000001
 44
0.0000000001
 12
-0.1304927916
 22
0.1763415686
 32
0.0
 13
0.0
 23
0.2373805046
 33
0.0
 40
0.0
 40
0.0
 40
0.0
 40
0.0
 40
1.0
 40
1.0
 40
1.0
 40
1.0
 10
39.0580902817
 20
16.0081794565
 30
0.0
 10
39.0145926845
 20
16.0669599793
 30
0.0
 10
38.9927645099
 20
16.1351729653
 30
0.0
 10
38.9927645099
 20
16.2142998002
 30
0.0
 11
39.0580902817
 21
16.0081794565
 31
0.0
 11
38.9927645099
 21
16.2142998002
 31
0.0
  0
SPLINE
  5
4C5
100
AcDbEntity
  8
0
100
AcDbSpline
 62
7
  6
CONTINUOUS
 70
0
 71
3
 72
8
 73
4
 74
2
 42
0.0000001
 43
0.0000001
 44
0.0000000001
 12
0.0
 22
0.2905869484
 32
0.0
 13
0.2108998442
 23
0.1981950397
 33
0.0
 40
0.0
 40
0.0
 40
0.0
 40
0.0
 40
1.0
 40
1.0
 40
1.0
 40
1.0
 10
38.9927645099
 20
16.2142998002
 30
0.0
 10
38.9927645099
 20
16.3111621163
 30
0.0
 10
39.028235234
 20
16.3930174134
 30
0.0
 10
39.0985351821
 20
16.4590824266
 30
0.0
 11
38.9927645099
 21
16.2142998002
 31
0.0
 11
39.0985351821
 21
16.4590824266
 31
0.0
  0
SPLINE
  5
4C6
100
AcDbEntity
  8
0
100
AcDbSpline
 62
7
  6
CONTINUOUS
 70
0
 71
3
 72
8
 73
4
 74
2
 42
0.0000001
 43
0.0000001
 44
0.0000000001
 12
0.1287997817
 22
0.121040762
 32
0.0
 13
0.2864938974
 23
0.0654845238
 33
0.0
 40
0.0
 40
0.0
 40
0.0
 40
0.0
 40
1.0
 40
1.0
 40
1.0
 40
1.0
 10
39.0985351821
 20
16.4590824266
 30
0.0
 10
39.1414684427
 20
16.4994293473
 30
0.0
 10
39.2124097717
 20
16.5308071397
 30
0.0
 10
39.3079077375
 20
16.5526353143
 30
0.0
 11
39.0985351821
 21
16.4590824266
 31
0.0
 11
39.3079077375
 21
16.5526353143
 31
0.0
  0
SPLINE
  5
4C7
100
AcDbEntity
  8
0
100
AcDbSpline
 62
7
  6
CONTINUOUS
 70
0
 71
3
 72
8
 73
4
 74
2
 42
0.0000001
 43
0.0000001
 44
0.0000000001
 12
-0.4665756226
 22
-0.0613918304
 32
0.0
 13
-0.2648647859
 23
-0.3038753444
 33
0.0
 40
0.0
 40
0.0
 40
0.0
 40
0.0
 40
1.0
 40
1.0
 40
1.0
 40
1.0
 10
39.2888081443
 20
16.7968374513
 30
0.0
 10
39.1332829368
 20
16.7763735078
 30
0.0
 10
39.0118641031
 20
16.7163459084
 30
0.0
 10
38.9235758411
 20
16.615054127
 30
0.0
 11
39.2888081443
 21
16.7968374513
 31
0.0
 11
38.9235758411
 21
16.615054127
 31
0.0
  0
SPLINE
  5
4C8
100
AcDbEntity
  8
0
100
AcDbSpline
 62
7
  6
CONTINUOUS
 70
0
 71
3
 72
8
 73
4
 74
2
 42
0.0000001
 43
0.0000001
 44
0.0000000001
 12
-0.2873352698
 22
0.1993389081
 32
0.0
 13
0.0
 23
0.3397006989
 33
0.0
 40
0.0
 40
0.0
 40
0.0
 40
0.0
 40
1.0
 40
1.0
 40
1.0
 40
1.0
 10
39.1376562068
 20
14.3483992853
 30
0.0
 10
39.0418777835
 20
14.414845588
 30
0.0
 10
38.994128741
 20
14.5048862718
 30
0.0
 10
38.994128741
 20
14.618119838
 30
0.0
 11
39.1376562068
 21
14.3483992853
 31
0.0
 11
38.994128741
 21
14.618119838
 31
0.0
  0
SPLINE
  5
4C9
100
AcDbEntity
  8
0
100
AcDbSpline
 62
7
  6
CONTINUOUS
 70
0
 71
3
 72
8
 73
4
 74
2
 42
0.0000001
 43
0.0000001
 44
0.0000000001
 12
0.0
 22
0.3437919617
 32
0.0
 13
0.3240060674
 23
0.228230698
 33
0.0
 40
0.0
 40
0.0
 40
0.0
 40
0.0
 40
1.0
 40
1.0
 40
1.0
 40
1.0
 10
38.994128741
 20
14.618119838
 30
0.0
 10
38.994128741
 20
14.7327171586
 30
0.0
 10
39.0486990583
 20
14.8282152436
 30
0.0
 10
39.1567010808
 20
14.9042921429
 30
0.0
 11
38.994128741
 21
14.618119838
 31
0.0
 11
39.1567010808
 21
14.9042921429
 31
0.0
  0
SPLINE
  5
4CA
100
AcDbEntity
  8
0
100
AcDbSpline
 62
7
  6
CONTINUOUS
 70
0
 71
3
 72
8
 73
4
 74
2
 42
0.0000001
 43
0.0000001
 44
0.0000000001
 12
0.3267443312
 22
0.2301595379
 32
0.0
 13
0.9863573313
 23
0.0
 33
0.0
 40
0.0
 40
0.0
 40
0.0
 40
0.0
 40
1.0
 40
1.0
 40
1.0
 40
1.0
 10
39.1567010808
 20
14.9042921429
 30
0.0
 10
39.2656158578
 20
14.9810119889
 30
0.0
 10
39.4838968885
 20
15.0205751679
 30
0.0
 10
39.8126826656
 20
15.0205751679
 30
0.0
 11
39.1567010808
 21
14.9042921429
 31
0.0
 11
39.8126826656
 21
15.0205751679
 31
0.0
  0
SPLINE
  5
4CB
100
AcDbEntity
  8
0
100
AcDbSpline
 62
7
  6
CONTINUOUS
 70
0
 71
3
 72
8
 73
4
 74
2
 42
0.0000001
 43
0.0000001
 44
0.0000000001
 12
0.9822646379
 22
0.0
 32
0.0
 13
0.327421546
 23
-0.229195118
 33
0.0
 40
0.0
 40
0.0
 40
0.0
 40
0.0
 40
1.0
 40
1.0
 40
1.0
 40
1.0
 10
39.8126826656
 20
15.0205751679
 30
0.0
 10
40.1401042115
 20
15.0205751679
 30
0.0
 10
40.358385272
 20
14.9810119889
 30
0.0
 10
40.4675257873
 20
14.9046136163
 30
0.0
 11
39.8126826656
 21
15.0205751679
 31
0.0
 11
40.4675257873
 21
14.9046136163
 31
0.0
  0
SPLINE
  5
4CC
100
AcDbEntity
  8
0
100
AcDbSpline
 62
7
  6
CONTINUOUS
 70
0
 71
3
 72
8
 73
4
 74
2
 42
0.0000001
 43
0.0000001
 44
0.0000000001
 12
0.327421546
 22
-0.229195118
 32
0.0
 13
0.0
 23
-0.335606575
 33
0.0
 40
0.0
 40
0.0
 40
0.0
 40
0.0
 40
1.0
 40
1.0
 40
1.0
 40
1.0
 10
40.4675257873
 20
14.9046136163
 30
0.0
 10
40.5766663027
 20
14.8282152436
 30
0.0
 10
40.6312365752
 20
14.7327171586
 30
0.0
 10
40.6312365752
 20
14.6208483003
 30
0.0
 11
40.4675257873
 21
14.9046136163
 31
0.0
 11
40.6312365752
 21
14.6208483003
 31
0.0
  0
SPLINE
  5
4CD
100
AcDbEntity
  8
0
100
AcDbSpline
 62
7
  6
CONTINUOUS
 70
0
 71
3
 72
8
 73
4
 74
2
 42
0.0000001
 43
0.0000001
 44
0.0000000001
 12
0.0
 22
-0.3397006989
 32
0.0
 13
-0.327421546
 23
-0.229195118
 33
0.0
 40
0.0
 40
0.0
 40
0.0
 40
0.0
 40
1.0
 40
1.0
 40
1.0
 40
1.0
 10
40.6312365752
 20
14.6208483003
 30
0.0
 10
40.6312365752
 20
14.507614734
 30
0.0
 10
40.5780305636
 20
14.4121171258
 30
0.0
 10
40.4688900482
 20
14.3357187531
 30
0.0
 11
40.6312365752
 21
14.6208483003
 31
0.0
 11
40.4688900482
 21
14.3357187531
 31
0.0
  0
SPLINE
  5
4CE
100
AcDbEntity
  8
0
100
AcDbSpline
 62
7
  6
CONTINUOUS
 70
0
 71
3
 72
8
 73
4
 74
2
 42
0.0000001
 43
0.0000001
 44
0.0000000001
 12
-0.327421546
 22
-0.229195118
 32
0.0
 13
-0.9863575101
 23
0.0
 33
0.0
 40
0.0
 40
0.0
 40
0.0
 40
0.0
 40
1.0
 40
1.0
 40
1.0
 40
1.0
 10
40.4688900482
 20
14.3357187531
 30
0.0
 10
40.3597495329
 20
14.2593203805
 30
0.0
 10
40.1414685023
 20
14.2211209557
 30
0.0
 10
39.8126826656
 20
14.2211209557
 30
0.0
 11
40.4688900482
 21
14.3357187531
 31
0.0
 11
39.8126826656
 21
14.2211209557
 31
0.0
  0
SPLINE
  5
4CF
100
AcDbEntity
  8
0
100
AcDbSpline
 62
7
  6
CONTINUOUS
 70
0
 71
3
 72
8
 73
4
 74
2
 42
0.0000001
 43
0.0000001
 44
0.0000000001
 12
-0.9822646379
 22
0.0
 32
0.0
 13
-0.3675078222
 23
0.2549586345
 33
0.0
 40
0.0
 40
0.0
 40
0.0
 40
0.0
 40
1.0
 40
1.0
 40
1.0
 40
1.0
 10
39.8126826656
 20
14.2211209557
 30
0.0
 10
39.4852611196
 20
14.2211209557
 30
0.0
 10
39.2601588142
 20
14.2634130738
 30
0.0
 10
39.1376562068
 20
14.3483992853
 30
0.0
 11
39.8126826656
 21
14.2211209557
 31
0.0
 11
39.1376562068
 21
14.3483992853
 31
0.0
  0
SPLINE
  5
4D0
100
AcDbEntity
  8
0
100
AcDbSpline
 62
7
  6
CONTINUOUS
 70
0
 71
3
 72
8
 73
4
 74
2
 42
0.0000001
 43
0.0000001
 44
0.0000000001
 12
0.4162741642
 22
0.3289306513
 32
0.0
 13
-0.0
 23
0.5811738968
 33
0.0
 40
0.0
 40
0.0
 40
0.0
 40
0.0
 40
1.0
 40
1.0
 40
1.0
 40
1.0
 10
40.6261756503
 20
14.1660476034
 30
0.0
 10
40.764933705
 20
14.2756911538
 30
0.0
 10
40.8331465271
 20
14.427123668
 30
0.0
 10
40.8331465271
 20
14.6208483003
 30
0.0
 11
40.6261756503
 21
14.1660476034
 31
0.0
 11
40.8331465271
 21
14.6208483003
 31
0.0
  0
SPLINE
  5
4D1
100
AcDbEntity
  8
0
100
AcDbSpline
 62
7
  6
CONTINUOUS
 70
0
 71
3
 72
8
 73
4
 74
2
 42
0.0000001
 43
0.0000001
 44
0.0000000001
 12
-0.0
 22
0.4379253387
 32
0.0
 13
-0.2373806358
 23
0.286494254
 33
0.0
 40
0.0
 40
0.0
 40
0.0
 40
0.0
 40
1.0
 40
1.0
 40
1.0
 40
1.0
 10
40.8331465271
 20
14.6208483003
 30
0.0
 10
40.8331465271
 20
14.7668234132
 30
0.0
 10
40.7949473468
 20
14.8882423661
 30
0.0
 10
40.7158204682
 20
14.9837404508
 30
0.0
 11
40.8331465271
 21
14.6208483003
 31
0.0
 11
40.7158204682
 21
14.9837404508
 31
0.0
  0
SPLINE
  5
4D2
100
AcDbEntity
  8
0
100
AcDbSpline
 62
7
  6
CONTINUOUS
 70
0
 71
3
 72
8
 73
4
 74
2
 42
0.0000001
 43
0.0000001
 44
0.0000000001
 12
-0.2373806375
 22
0.2864942561
 32
0.0
 13
-0.4344458497
 23
0.1454985406
 33
0.0
 40
0.0
 40
0.0
 40
0.0
 40
0.0
 40
1.0
 40
1.0
 40
1.0
 40
1.0
 10
40.7158204682
 20
14.9837404508
 30
0.0
 10
40.6366935891
 20
15.0792385362
 30
0.0
 10
40.5261888277
 20
15.1515437386
 30
0.0
 10
40.3813735445
 20
15.2000432522
 30
0.0
 11
40.7158204682
 21
14.9837404508
 31
0.0
 11
40.3813735445
 21
15.2000432522
 31
0.0
  0
SPLINE
  5
4D3
100
AcDbEntity
  8
0
100
AcDbSpline
 62
7
  6
CONTINUOUS
 70
0
 71
3
 72
8
 73
4
 74
2
 42
0.0000001
 43
0.0000001
 44
0.0000000001
 12
-0.4332212292
 22
0.1450884078
 32
0.0
 13
-0.703956306
 23
0.0
 33
0.0
 40
0.0
 40
0.0
 40
0.0
 40
0.0
 40
1.0
 40
1.0
 40
1.0
 40
1.0
 10
40.3813735445
 20
15.2000432522
 30
0.0
 10
40.2369664681
 20
15.2484060548
 30
0.0
 10
40.0473347676
 20
15.2729626916
 30
0.0
 10
39.8126826656
 20
15.2729626916
 30
0.0
 11
40.3813735445
 21
15.2000432522
 31
0.0
 11
39.8126826656
 21
15.2729626916
 31
0.0
  0
SPLINE
  5
4D4
100
AcDbEntity
  8
0
100
AcDbSpline
 62
7
  6
CONTINUOUS
 70
0
 71
3
 72
8
 73
4
 74
2
 42
0.0000001
 43
0.0000001
 44
0.0000000001
 12
-0.5934516191
 22
0.0
 32
0.0
 13
-0.351978582
 23
-0.0900414859
 33
0.0
 40
0.0
 40
0.0
 40
0.0
 40
0.0
 40
1.0
 40
1.0
 40
1.0
 40
1.0
 10
39.8126826656
 20
15.2729626916
 30
0.0
 10
39.6148654592
 20
15.2729626916
 30
0.0
 10
39.4579760206
 20
15.2579561494
 30
0.0
 10
39.3406498266
 20
15.2279423208
 30
0.0
 11
39.8126826656
 21
15.2729626916
 31
0.0
 11
39.3406498266
 21
15.2279423208
 31
0.0
  0
SPLINE
  5
4D5
100
AcDbEntity
  8
0
100
AcDbSpline
 62
7
  6
CONTINUOUS
 70
0
 71
3
 72
8
 73
4
 74
2
 42
0.0000001
 43
0.0000001
 44
0.0000000001
 12
-0.3519779028
 22
-0.0900413121
 32
0.0
 13
-0.2446318754
 23
-0.1569719983
 33
0.0
 40
0.0
 40
0.0
 40
0.0
 40
0.0
 40
1.0
 40
1.0
 40
1.0
 40
1.0
 10
39.3406498266
 20
15.2279423208
 30
0.0
 10
39.223323859
 20
15.19792855
 30
0.0
 10
39.1250974309
 20
15.1556369088
 30
0.0
 10
39.0435534724
 20
15.1033129094
 30
0.0
 11
39.3406498266
 21
15.2279423208
 31
0.0
 11
39.0435534724
 21
15.1033129094
 31
0.0
  0
SPLINE
  5
4D6
100
AcDbEntity
  8
0
100
AcDbSpline
 62
7
  6
CONTINUOUS
 70
0
 71
3
 72
8
 73
4
 74
2
 42
0.0000001
 43
0.0000001
 44
0.0000000001
 12
-0.2465006224
 22
-0.15817111
 32
0.0
 13
-0.1301142459
 23
-0.2419308151
 33
0.0
 40
0.0
 40
0.0
 40
0.0
 40
0.0
 40
1.0
 40
1.0
 40
1.0
 40
1.0
 10
39.0435534724
 20
15.1033129094
 30
0.0
 10
38.9613865983
 20
15.050589206
 30
0.0
 10
38.8999951255
 20
14.9837404511
 30
0.0
 10
38.8566237102
 20
14.9030968461
 30
0.0
 11
39.0435534724
 21
15.1033129094
 31
0.0
 11
38.8566237102
 21
14.9030968461
 31
0.0
  0
SPLINE
  5
4D7
100
AcDbEntity
  8
0
100
AcDbSpline
 62
7
  6
CONTINUOUS
 70
0
 71
3
 72
8
 73
4
 74
2
 42
0.0000001
 43
0.0000001
 44
0.0000000001
 12
-0.131823134
 22
-0.2451082741
 32
0.0
 13
-0.0
 23
-0.3192358017
 33
0.0
 40
0.0
 40
0.0
 40
0.0
 40
0.0
 40
1.0
 40
1.0
 40
1.0
 40
1.0
 10
38.8566237102
 20
14.9030968461
 30
0.0
 10
38.8126826656
 20
14.8213940881
 30
0.0
 10
38.790854491
 20
14.7272602342
 30
0.0
 10
38.790854491
 20
14.6208483003
 30
0.0
 11
38.8566237102
 21
14.9030968461
 31
0.0
 11
38.790854491
 21
14.6208483003
 31
0.0
  0
SPLINE
  5
4D8
100
AcDbEntity
  8
0
100
AcDbSpline
 62
7
  6
CONTINUOUS
 70
0
 71
3
 72
8
 73
4
 74
2
 42
0.0000001
 43
0.0000001
 44
0.0000000001
 12
-0.0
 22
-0.4379267693
 32
0.0
 13
0.2345072137
 23
-0.2854868258
 33
0.0
 40
0.0
 40
0.0
 40
0.0
 40
0.0
 40
1.0
 40
1.0
 40
1.0
 40
1.0
 10
38.790854491
 20
14.6208483003
 30
0.0
 10
38.790854491
 20
14.4748727105
 30
0.0
 10
38.8304180276
 20
14.3534537576
 30
0.0
 10
38.9085870988
 20
14.2582914823
 30
0.0
 11
38.790854491
 21
14.6208483003
 31
0.0
 11
38.9085870988
 21
14.2582914823
 31
0.0
  0
SPLINE
  5
4D9
100
AcDbEntity
  8
0
100
AcDbSpline
 62
7
  6
CONTINUOUS
 70
0
 71
3
 72
8
 73
4
 74
2
 42
0.0000001
 43
0.0000001
 44
0.0000000001
 12
0.2361611022
 22
-0.2875002538
 32
0.0
 13
0.4338333792
 23
-0.1473397664
 33
0.0
 40
0.0
 40
0.0
 40
0.0
 40
0.0
 40
1.0
 40
1.0
 40
1.0
 40
1.0
 10
38.9085870988
 20
14.2582914823
 30
0.0
 10
38.9873074662
 20
14.1624580644
 30
0.0
 10
39.0978123319
 20
14.090152385
 30
0.0
 10
39.2424234583
 20
14.0410391296
 30
0.0
 11
38.9085870988
 21
14.2582914823
 31
0.0
 11
39.2424234583
 21
14.0410391296
 31
0.0
  0
SPLINE
  5
4DA
100
AcDbEntity
  8
0
100
AcDbSpline
 62
7
  6
CONTINUOUS
 70
0
 71
3
 72
8
 73
4
 74
2
 42
0.0000001
 43
0.0000001
 44
0.0000000001
 12
0.4338336998
 22
-0.1473398753
 32
0.0
 13
0.7080491781
 23
0.0
 33
0.0
 40
0.0
 40
0.0
 40
0.0
 40
0.0
 40
1.0
 40
1.0
 40
1.0
 40
1.0
 10
39.2424234583
 20
14.0410391296
 30
0.0
 10
39.3870346916
 20
13.9919258378
 30
0.0
 10
39.5766662729
 20
13.9687334321
 30
0.0
 10
39.8126826656
 20
13.9687334321
 30
0.0
 11
39.2424234583
 21
14.0410391296
 31
0.0
 11
39.8126826656
 21
13.9687334321
 31
0.0
  0
SPLINE
  5
4DB
100
AcDbEntity
  8
0
100
AcDbSpline
 62
7
  6
CONTINUOUS
 70
0
 71
3
 72
8
 73
4
 74
2
 42
0.0000001
 43
0.0000001
 44
0.0000000001
 12
1.1296044588
 22
0.0
 32
0.0
 13
0.5005061959
 23
0.3954889425
 33
0.0
 40
0.0
 40
0.0
 40
0.0
 40
0.0
 40
1.0
 40
1.0
 40
1.0
 40
1.0
 10
39.8126826656
 20
13.9687334321
 30
0.0
 10
40.1892174852
 20
13.9687334321
 30
0.0
 10
40.4593402517
 20
14.0342179559
 30
0.0
 10
40.6261756503
 20
14.1660476034
 30
0.0
 11
39.8126826656
 21
13.9687334321
 31
0.0
 11
40.6261756503
 21
14.1660476034
 31
0.0
  0
SPLINE
  5
4DC
100
AcDbEntity
  8
0
100
AcDbSpline
 62
7
  6
CONTINUOUS
 70
0
 71
3
 72
8
 73
4
 74
2
 42
0.0000001
 43
0.0000001
 44
0.0000000001
 12
0.3058139858
 22
0.3448104457
 32
0.0
 13
0.0
 23
0.5484316349
 33
0.0
 40
0.0
 40
0.0
 40
0.0
 40
0.0
 40
1.0
 40
1.0
 40
1.0
 40
1.0
 10
40.6807310439
 20
12.6109591878
 30
0.0
 10
40.7826690391
 20
12.725896003
 30
0.0
 10
40.8331465271
 20
12.8745998166
 30
0.0
 10
40.8331465271
 20
13.0574103616
 30
0.0
 11
40.6807310439
 21
12.6109591878
 31
0.0
 11
40.8331465271
 21
13.0574103616
 31
0.0
  0
SPLINE
  5
4DD
100
AcDbEntity
  8
0
100
AcDbSpline
 62
7
  6
CONTINUOUS
 70
0
 71
3
 72
8
 73
4
 74
2
 42
0.0000001
 43
0.0000001
 44
0.0000000001
 12
0.0
 22
0.6630277634
 32
0.0
 13
-0.4857471805
 23
0.3863383787
 33
0.0
 40
0.0
 40
0.0
 40
0.0
 40
0.0
 40
1.0
 40
1.0
 40
1.0
 40
1.0
 10
40.8331465271
 20
13.0574103616
 30
0.0
 10
40.8331465271
 20
13.278419616
 30
0.0
 10
40.7526553941
 20
13.454408767
 30
0.0
 10
40.5907396672
 20
13.5831882266
 30
0.0
 11
40.8331465271
 21
13.0574103616
 31
0.0
 11
40.5907396672
 21
13.5831882266
 31
0.0
  0
SPLINE
  5
4DE
100
AcDbEntity
  8
0
100
AcDbSpline
 62
7
  6
CONTINUOUS
 70
0
 71
3
 72
8
 73
4
 74
2
 42
0.0000001
 43
0.0000001
 44
0.0000000001
 12
-0.3941982467
 22
0.3135250551
 32
0.0
 13
-0.5443384051
 23
0.0
 33
0.0
 40
0.0
 40
0.0
 40
0.0
 40
0.0
 40
1.0
 40
1.0
 40
1.0
 40
1.0
 10
40.5907396672
 20
13.5831882266
 30
0.0
 10
40.4593402517
 20
13.6876965783
 30
0.0
 10
40.3024507534
 20
13.7409025453
 30
0.0
 10
40.1210046184
 20
13.7409025453
 30
0.0
 11
40.5907396672
 21
13.5831882266
 31
0.0
 11
40.1210046184
 21
13.7409025453
 31
0.0
  0
SPLINE
  5
4DF
100
AcDbEntity
  8
0
100
AcDbSpline
 62
7
  6
CONTINUOUS
 70
0
 71
3
 72
8
 73
4
 74
2
 42
0.0000001
 43
0.0000001
 44
0.0000000001
 12
-0.5688949227
 22
0.0
 32
0.0
 13
-0.3632379455
 23
-0.3611856119
 33
0.0
 40
0.0
 40
0.0
 40
0.0
 40
0.0
 40
1.0
 40
1.0
 40
1.0
 40
1.0
 10
40.1210046184
 20
13.7409025453
 30
0.0
 10
39.9313729775
 20
13.7409025453
 30
0.0
 10
39.7758477104
 20
13.6808754228
 30
0.0
 10
39.6547683952
 20
13.5604802188
 30
0.0
 11
40.1210046184
 21
13.7409025453
 31
0.0
 11
39.6547683952
 21
13.5604802188
 31
0.0
  0
SPLINE
  5
4E0
100
AcDbEntity
  8
0
100
AcDbSpline
 62
7
  6
CONTINUOUS
 70
0
 71
3
 72
8
 73
4
 74
2
 42
0.0000001
 43
0.0000001
 44
0.0000000001
 12
-0.3611820059
 22
-0.3591412886
 32
0.0
 13
0.0
 23
-0.5238747597
 33
0.0
 40
0.0
 40
0.0
 40
0.0
 40
0.0
 40
1.0
 40
1.0
 40
1.0
 40
1.0
 10
39.6547683952
 20
13.5604802188
 30
0.0
 10
39.5343743932
 20
13.4407664559
 30
0.0
 10
39.4729828012
 20
13.2934266351
 30
0.0
 10
39.4729828012
 20
13.1188017152
 30
0.0
 11
39.6547683952
 21
13.5604802188
 31
0.0
 11
39.4729828012
 21
13.1188017152
 31
0.0
  0
SPLINE
  5
4E1
100
AcDbEntity
  8
0
100
AcDbSpline
 62
7
  6
CONTINUOUS
 70
0
 71
3
 72
8
 73
4
 74
2
 42
0.0000001
 43
0.0000001
 44
0.0000000001
 12
0.0
 22
-0.3969984055
 32
0.0
 13
0.2496589422
 23
-0.3601634502
 33
0.0
 40
0.0
 40
0.0
 40
0.0
 40
0.0
 40
1.0
 40
1.0
 40
1.0
 40
1.0
 10
39.4729828012
 20
13.1188017152
 30
0.0
 10
39.4729828012
 20
12.9864689134
 30
0.0
 10
39.5152748
 20
12.8609572671
 30
0.0
 10
39.5984944474
 20
12.7409027837
 30
0.0
 11
39.4729828012
 21
13.1188017152
 31
0.0
 11
39.5984944474
 21
12.7409027837
 31
0.0
  0
SPLINE
  5
4E2
100
AcDbEntity
  8
0
100
AcDbSpline
 62
7
  6
CONTINUOUS
 70
0
 71
3
 72
8
 73
4
 74
2
 42
0.0000001
 43
0.0000001
 44
0.0000000001
 12
-0.1718961596
 22
0.1064121723
 32
0.0
 13
-0.1072827393
 23
0.1918707513
 33
0.0
 40
0.0
 40
0.0
 40
0.0
 40
0.0
 40
1.0
 40
1.0
 40
1.0
 40
1.0
 10
39.8836239946
 20
12.6890610478
 30
0.0
 10
39.8263252747
 20
12.7245317719
 30
0.0
 10
39.7799405229
 20
12.7750092767
 30
0.0
 10
39.7441796098
 20
12.8389661938
 30
0.0
 11
39.8836239946
 21
12.6890610478
 31
0.0
 11
39.7441796098
 21
12.8389661938
 31
0.0
  0
SPLINE
  5
4E3
100
AcDbEntity
  8
0
100
AcDbSpline
 62
7
  6
CONTINUOUS
 70
0
 71
3
 72
8
 73
4
 74
2
 42
0.0000001
 43
0.0000001
 44
0.0000000001
 12
-0.1055412477
 22
0.1887561656
 32
0.0
 13
0.0
 23
0.2373805046
 33
0.0
 40
0.0
 40
0.0
 40
0.0
 40
0.0
 40
1.0
 40
1.0
 40
1.0
 40
1.0
 10
39.7441796098
 20
12.8389661938
 30
0.0
 10
39.7089991939
 20
12.9018849156
 30
0.0
 10
39.6898996007
 20
12.974190595
 30
0.0
 10
39.6898996007
 20
13.0533174298
 30
0.0
 11
39.7441796098
 21
12.8389661938
 31
0.0
 11
39.6898996007
 21
13.0533174298
 31
0.0
  0
SPLINE
  5
4E4
100
AcDbEntity
  8
0
100
AcDbSpline
 62
7
  6
CONTINUOUS
 70
0
 71
3
 72
8
 73
4
 74
2
 42
0.0000001
 43
0.0000001
 44
0.0000000001
 12
0.0
 22
0.3806276321
 32
0.0
 13
0.2424684267
 23
0.2363556247
 33
0.0
 40
0.0
 40
0.0
 40
0.0
 40
0.0
 40
1.0
 40
1.0
 40
1.0
 40
1.0
 10
39.6898996007
 20
13.0533174298
 30
0.0
 10
39.6898996007
 20
13.1801933072
 30
0.0
 10
39.7308272493
 20
13.2825127862
 30
0.0
 10
39.8116500582
 20
13.3612979944
 30
0.0
 11
39.6898996007
 21
13.0533174298
 31
0.0
 11
39.8116500582
 21
13.3612979944
 31
0.0
  0
SPLINE
  5
4E5
100
AcDbEntity
  8
0
100
AcDbSpline
 62
7
  6
CONTINUOUS
 70
0
 71
3
 72
8
 73
4
 74
2
 42
0.0000001
 43
0.0000001
 44
0.0000000001
 12
0.244571199
 22
0.2384053845
 32
0.0
 13
0.4174624085
 23
0.0
 33
0.0
 40
0.0
 40
0.0
 40
0.0
 40
0.0
 40
1.0
 40
1.0
 40
1.0
 40
1.0
 10
39.8116500582
 20
13.3612979944
 30
0.0
 10
39.8931737911
 20
13.4407664559
 30
0.0
 10
40.0036785972
 20
13.4803296349
 30
0.0
 10
40.1428327334
 20
13.4803296349
 30
0.0
 11
39.8116500582
 21
13.3612979944
 31
0.0
 11
40.1428327334
 21
13.4803296349
 31
0.0
  0
SPLINE
  5
4E6
100
AcDbEntity
  8
0
100
AcDbSpline
 62
7
  6
CONTINUOUS
 70
0
 71
3
 72
8
 73
4
 74
2
 42
0.0000001
 43
0.0000001
 44
0.0000000001
 12
0.442019105
 22
0.0
 32
0.0
 13
0.2669620958
 23
-0.2445458908
 33
0.0
 40
0.0
 40
0.0
 40
0.0
 40
0.0
 40
1.0
 40
1.0
 40
1.0
 40
1.0
 10
40.1428327334
 20
13.4803296349
 30
0.0
 10
40.290172435
 20
13.4803296349
 30
0.0
 10
40.4088627767
 20
13.4394022248
 30
0.0
 10
40.497850142
 20
13.3578869279
 30
0.0
 11
40.1428327334
 21
13.4803296349
 31
0.0
 11
40.497850142
 21
13.3578869279
 31
0.0
  0
SPLINE
  5
4E7
100
AcDbEntity
  8
0
100
AcDbSpline
 62
7
  6
CONTINUOUS
 70
0
 71
3
 72
8
 73
4
 74
2
 42
0.0000001
 43
0.0000001
 44
0.0000000001
 12
0.2691906544
 22
-0.2465873223
 32
0.0
 13
-0.0
 23
-0.3519780636
 33
0.0
 40
0.0
 40
0.0
 40
0.0
 40
0.0
 40
1.0
 40
1.0
 40
1.0
 40
1.0
 10
40.497850142
 20
13.3578869279
 30
0.0
 10
40.5875803602
 20
13.2756911538
 30
0.0
 10
40.6312365752
 20
13.1747363828
 30
0.0
 10
40.6312365752
 20
13.0574103616
 30
0.0
 11
40.497850142
 21
13.3578869279
 31
0.0
 11
40.6312365752
 21
13.0574103616
 31
0.0
  0
SPLINE
  5
4E8
100
AcDbEntity
  8
0
100
AcDbSpline
 62
7
  6
CONTINUOUS
 70
0
 71
3
 72
8
 73
4
 74
2
 42
0.0000001
 43
0.0000001
 44
0.0000000001
 12
-0.0
 22
-0.2946796417
 32
0.0
 13
-0.1882671944
 23
-0.2087310631
 33
0.0
 40
0.0
 40
0.0
 40
0.0
 40
0.0
 40
1.0
 40
1.0
 40
1.0
 40
1.0
 10
40.6312365752
 20
13.0574103616
 30
0.0
 10
40.6312365752
 20
12.9591838143
 30
0.0
 10
40.5998586637
 20
12.8745998166
 30
0.0
 10
40.5371029322
 20
12.8050227956
 30
0.0
 11
40.6312365752
 21
13.0574103616
 31
0.0
 11
40.5371029322
 21
12.8050227956
 31
0.0
  0
SPLINE
  5
4E9
100
AcDbEntity
  8
0
100
AcDbSpline
 62
7
  6
CONTINUOUS
 70
0
 71
3
 72
8
 73
4
 74
2
 42
0.0000001
 43
0.0000001
 44
0.0000000001
 12
-0.1882676103
 22
-0.2087315242
 32
0.0
 13
-0.37653476
 23
-0.0572984219
 33
0.0
 40
0.0
 40
0.0
 40
0.0
 40
0.0
 40
1.0
 40
1.0
 40
1.0
 40
1.0
 10
40.5371029322
 20
12.8050227956
 30
0.0
 10
40.4743470621
 20
12.7354456208
 30
0.0
 10
40.3788491261
 20
12.6917895101
 30
0.0
 10
40.2533375394
 20
12.6726900361
 30
0.0
 11
40.5371029322
 21
12.8050227956
 31
0.0
 11
40.2533375394
 21
12.6726900361
 31
0.0
  0
SPLINE
  5
4EA
100
AcDbEntity
  8
0
100
AcDbSpline
 62
7
  6
CONTINUOUS
 70
0
 71
3
 72
8
 73
4
 74
2
 42
0.0000001
 43
0.0000001
 44
0.0000000001
 12
0.5075033605
 22
0.0491137505
 32
0.0
 13
0.3040086581
 23
0.3427749082
 33
0.0
 40
0.0
 40
0.0
 40
0.0
 40
0.0
 40
1.0
 40
1.0
 40
1.0
 40
1.0
 10
40.2751656544
 20
12.4148453496
 30
0.0
 10
40.4443334412
 20
12.4312165997
 30
0.0
 10
40.5793948245
 20
12.4967008851
 30
0.0
 10
40.6807310439
 20
12.6109591878
 30
0.0
 11
40.2751656544
 21
12.4148453496
 31
0.0
 11
40.6807310439
 21
12.6109591878
 31
0.0
  0
SPLINE
  5
4EB
100
AcDbEntity
  8
0
100
AcDbSpline
 62
7
  6
CONTINUOUS
 70
0
 71
3
 72
8
 73
4
 74
2
 42
0.0000001
 43
0.0000001
 44
0.0000000001
 12
0.2619373798
 22
-0.1309685111
 32
0.0
 13
0.2743360463
 23
-0.3068498705
 33
0.0
 40
0.0
 40
0.0
 40
0.0
 40
0.0
 40
1.0
 40
1.0
 40
1.0
 40
1.0
 10
38.790854491
 20
10.0737813137
 30
0.0
 10
38.8781669509
 20
10.0301251433
 30
0.0
 10
38.966843642
 20
9.9578195236
 30
0.0
 10
39.0582889907
 20
9.8555362334
 30
0.0
 11
38.790854491
 21
10.0737813137
 31
0.0
 11
39.0582889907
 21
9.8555362334
 31
0.0
  0
SPLINE
  5
4EC
100
AcDbEntity
  8
0
100
AcDbSpline
 62
7
  6
CONTINUOUS
 70
0
 71
3
 72
8
 73
4
 74
2
 42
0.0000001
 43
0.0000001
 44
0.0000000001
 12
0.2781879243
 22
-0.3111582662
 32
0.0
 13
0.1923601627
 23
-0.4092769325
 33
0.0
 40
0.0
 40
0.0
 40
0.0
 40
0.0
 40
1.0
 40
1.0
 40
1.0
 40
1.0
 10
39.0582889907
 20
9.8555362334
 30
0.0
 10
39.1510182988
 20
9.7518168114
 30
0.0
 10
39.2287809026
 20
9.6317622385
 30
0.0
 10
39.2929009568
 20
9.4953365944
 30
0.0
 11
39.0582889907
 21
9.8555362334
 31
0.0
 11
39.2929009568
 21
9.4953365944
 31
0.0
  0
SPLINE
  5
4ED
100
AcDbEntity
  8
0
100
AcDbSpline
 62
7
  6
CONTINUOUS
 70
0
 71
3
 72
8
 73
4
 74
2
 42
0.0000001
 43
0.0000001
 44
0.0000000001
 12
-0.0818552971
 22
0.229195118
 32
0.0
 13
-0.1703796531
 23
0.2873875595
 33
0.0
 40
0.0
 40
0.0
 40
0.0
 40
0.0
 40
1.0
 40
1.0
 40
1.0
 40
1.0
 10
39.5302815807
 20
9.4953365944
 30
0.0
 10
39.5029964816
 20
9.571734967
 30
0.0
 10
39.4607044828
 20
9.6576831065
 30
0.0
 10
39.4039112651
 20
9.7534789596
 30
0.0
 11
39.5302815807
 21
9.4953365944
 31
0.0
 11
39.4039112651
 21
9.7534789596
 31
0.0
  0
SPLINE
  5
4EE
100
AcDbEntity
  8
0
100
AcDbSpline
 62
7
  6
CONTINUOUS
 70
0
 71
3
 72
8
 73
4
 74
2
 42
0.0000001
 43
0.0000001
 44
0.0000000001
 12
-0.1693199729
 22
0.2856001459
 32
0.0
 13
-0.1718963385
 23
0.1800819039
 33
0.0
 40
0.0
 40
0.0
 40
0.0
 40
0.0
 40
1.0
 40
1.0
 40
1.0
 40
1.0
 10
39.4039112651
 20
9.7534789596
 30
0.0
 10
39.3474712741
 20
9.8486790083
 30
0.0
 10
39.2915367257
 20
9.926441612
 30
0.0
 10
39.2342379463
 20
9.9864689134
 30
0.0
 11
39.4039112651
 21
9.7534789596
 31
0.0
 11
39.2342379463
 21
9.9864689134
 31
0.0
  0
SPLINE
  5
4EF
100
AcDbEntity
  8
0
100
AcDbSpline
 62
7
  6
CONTINUOUS
 70
0
 71
3
 72
15
 73
11
 74
9
 42
0.0000001
 43
0.0000001
 44
0.0000000001
 12
0.4835184717
 22
0.0
 32
0.0
 13
0.0603858414
 23
-0.4797329266
 33
0.0
 40
0.0
 40
0.0
 40
0.0
 40
0.0
 40
0.1698011113
 40
0.3679333228
 40
0.4547700576
 40
0.5366051795
 40
0.6096283322
 40
0.7028986669
 40
0.875422557
 40
1.0
 40
1.0
 40
1.0
 40
1.0
 10
35.8793223131
 20
9.5934653478
 30
0.0
 10
35.9066896377
 20
9.5934653478
 30
0.0
 10
35.966118532
 20
9.5902961278
 30
0.0
 10
36.0374362652
 20
9.5661952352
 30
0.0
 10
36.0851438243
 20
9.530824486
 30
0.0
 10
36.1132768485
 20
9.5037770739
 30
0.0
 10
36.1368842547
 20
9.470857869
 30
0.0
 10
36.1519866837
 20
9.4176593194
 30
0.0
 10
36.1610115325
 20
9.3555125466
 30
0.0
 10
36.1664205448
 20
9.3079050661
 30
0.0
 10
36.1689281161
 20
9.2879837657
 30
0.0
 11
35.8793223131
 21
9.5934653478
 31
0.0
 11
35.961174217
 21
9.5870622299
 31
0.0
 11
36.0512035968
 21
9.5543137537
 31
0.0
 11
36.0851834907
 21
9.5296502409
 31
0.0
 11
36.1133832713
 21
9.501893048
 31
0.0
 11
36.1333363877
 21
9.4727634916
 31
0.0
 11
36.1477518134
 21
9.4300315508
 31
0.0
 11
36.1616278231
 21
9.3477752414
 31
0.0
 11
36.1689281161
 21
9.2879837657
 31
0.0
  0
SPLINE
  5
4F0
100
AcDbEntity
  8
0
100
AcDbSpline
 62
7
  6
CONTINUOUS
 70
0
 71
3
 72
15
 73
11
 74
9
 42
0.0000001
 43
0.0000001
 44
0.0000000001
 12
0.0603868396
 22
0.4797359534
 32
0.0
 13
0.4835216266
 23
-0.0
 33
0.0
 40
0.0
 40
0.0
 40
0.0
 40
0.0
 40
0.124583155
 40
0.2971059195
 40
0.3903756456
 40
0.4633983218
 40
0.5452329097
 40
0.6320690779
 40
0.8301999967
 40
1.0
 40
1.0
 40
1.0
 40
1.0
 10
35.5897161161
 20
9.2879806355
 30
0.0
 10
35.5922238437
 20
9.307902975
 30
0.0
 10
35.5976329428
 20
9.3555115078
 30
0.0
 10
35.6066579425
 20
9.4176593194
 30
0.0
 10
35.6217603714
 20
9.470857869
 30
0.0
 10
35.6453677776
 20
9.5037770739
 30
0.0
 10
35.6735008019
 20
9.530824486
 30
0.0
 10
35.721208361
 20
9.5661952352
 30
0.0
 10
35.7925260941
 20
9.5902961278
 30
0.0
 10
35.8519549885
 20
9.5934653478
 30
0.0
 10
35.8793223131
 20
9.5934653478
 30
0.0
 11
35.5897161161
 21
9.2879806355
 31
0.0
 11
35.597016803
 21
9.3477752414
 31
0.0
 11
35.6108928127
 21
9.4300315508
 31
0.0
 11
35.6253082384
 21
9.4727634916
 31
0.0
 11
35.6452613548
 21
9.501893048
 31
0.0
 11
35.6734611354
 21
9.5296502409
 31
0.0
 11
35.7074410293
 21
9.5543137537
 31
0.0
 11
35.7974704091
 21
9.5870622299
 31
0.0
 11
35.8793223131
 21
9.5934653478
 31
0.0
  0
SPLINE
  5
4F1
100
AcDbEntity
  8
0
100
AcDbSpline
 62
7
  6
CONTINUOUS
 70
0
 71
3
 72
18
 73
14
 74
12
 42
0.0000001
 43
0.0000001
 44
0.0000000001
 12
-0.0447291003
 22
1.2068445068
 32
0.0
 13
-1.2076731161
 23
-0.0
 33
0.0
 40
0.0
 40
0.0
 40
0.0
 40
0.0
 40
0.080438448
 40
0.1871258711
 40
0.2845998599
 40
0.3554555511
 40
0.4291498603
 40
0.5086748088
 40
0.5822945178
 40
0.6545914158
 40
0.8099244779
 40
0.8991825523
 40
1.0
 40
1.0
 40
1.0
 40
1.0
 10
36.5096051161
 20
9.2184286121
 30
0.0
 10
36.5084058029
 20
9.2507875118
 30
0.0
 10
36.5053402732
 20
9.3260770281
 30
0.0
 10
36.4991902775
 20
9.4403634861
 30
0.0
 10
36.4885217671
 20
9.5510355328
 30
0.0
 10
36.460880981
 20
9.6447687266
 30
0.0
 10
36.4305027243
 20
9.7296759493
 30
0.0
 10
36.3919377838
 20
9.81282301
 30
0.0
 10
36.3389831984
 20
9.8872591109
 30
0.0
 10
36.2504032335
 20
9.9710301179
 30
0.0
 10
36.1331589974
 20
10.0295002154
 30
0.0
 10
35.9965968368
 20
10.0575474699
 30
0.0
 10
35.9199071535
 20
10.0619729942
 30
0.0
 10
35.8793223131
 20
10.0619729942
 30
0.0
 11
36.5096051161
 21
9.2184286121
 31
0.0
 11
36.5055895489
 21
9.315488933
 31
0.0
 11
36.4980332178
 21
9.4441106955
 31
0.0
 11
36.4832324919
 21
9.5608932442
 31
0.0
 11
36.4604631167
 21
9.6433788085
 31
0.0
 11
36.4300725286
 21
9.7270278931
 31
0.0
 11
36.3882544625
 21
9.8134857344
 31
0.0
 11
36.3364754772
 21
9.8857606661
 31
0.0
 11
36.2730754874
 21
9.9457911211
 31
0.0
 11
36.1062086935
 21
10.031500325
 31
0.0
 11
36.0008272601
 21
10.0541812484
 31
0.0
 11
35.8793223131
 21
10.0619729942
 31
0.0
  0
SPLINE
  5
4F2
100
AcDbEntity
  8
0
100
AcDbSpline
 62
7
  6
CONTINUOUS
 70
0
 71
3
 72
18
 73
14
 74
12
 42
0.0000001
 43
0.0000001
 44
0.0000000001
 12
-1.2076837546
 22
0.0
 32
0.0
 13
-0.0447285268
 23
-1.206855095
 33
0.0
 40
0.0
 40
0.0
 40
0.0
 40
0.0
 40
0.1008165596
 40
0.1900738478
 40
0.3454055415
 40
0.4177018026
 40
0.4913208631
 40
0.5708451111
 40
0.6445387711
 40
0.7153938381
 40
0.8128669683
 40
0.9195534516
 40
1.0
 40
1.0
 40
1.0
 40
1.0
 10
35.8793223131
 20
10.0619729942
 30
0.0
 10
35.8387374726
 20
10.0619729942
 30
0.0
 10
35.7620477893
 20
10.0575474699
 30
0.0
 10
35.6254856287
 20
10.0295002154
 30
0.0
 10
35.5082413926
 20
9.9710301179
 30
0.0
 10
35.4196614277
 20
9.8872591109
 30
0.0
 10
35.3667068423
 20
9.81282301
 30
0.0
 10
35.3281419019
 20
9.7296759493
 30
0.0
 10
35.2977636451
 20
9.6447687266
 30
0.0
 10
35.270122859
 20
9.5510355328
 30
0.0
 10
35.2594543486
 20
9.4403634861
 30
0.0
 10
35.2533041626
 20
9.3260734907
 30
0.0
 10
35.2502385346
 20
9.2507804232
 30
0.0
 10
35.2490391161
 20
9.2184179809
 30
0.0
 11
35.8793223131
 21
10.0619729942
 31
0.0
 11
35.7578173661
 21
10.0541812484
 31
0.0
 11
35.6524359327
 21
10.031500325
 31
0.0
 11
35.4855691388
 21
9.9457911211
 31
0.0
 11
35.4221691489
 21
9.8857606661
 31
0.0
 11
35.3703901636
 21
9.8134857344
 31
0.0
 11
35.3285720975
 21
9.7270278931
 31
0.0
 11
35.2981815094
 21
9.6433788085
 31
0.0
 11
35.2754121343
 21
9.5608932442
 31
0.0
 11
35.2606114083
 21
9.4441106955
 31
0.0
 11
35.2530550772
 21
9.315488933
 31
0.0
 11
35.2490391161
 21
9.2184179809
 31
0.0
  0
SPLINE
  5
4F3
100
AcDbEntity
  8
0
100
AcDbSpline
 62
7
  6
CONTINUOUS
 70
0
 71
3
 72
9
 73
5
 74
3
 42
0.0000001
 43
0.0000001
 44
0.0000000001
 12
-0.0690021442
 22
0.4043857955
 32
0.0
 13
0.0472917492
 23
0.4074959278
 33
0.0
 40
0.0
 40
0.0
 40
0.0
 40
0.0
 40
0.5157730833
 40
1.0
 40
1.0
 40
1.0
 40
1.0
 10
27.2234467911
 20
16.7707363465
 30
0.0
 10
27.2115836415
 20
16.840260116
 30
0.0
 10
27.1941737478
 20
16.9764460776
 30
0.0
 10
27.2010953317
 20
17.113713617
 30
0.0
 10
27.2087286444
 20
17.1794871159
 30
0.0
 11
27.2234467911
 21
16.7707363465
 31
0.0
 11
27.2000972377
 21
16.981029946
 31
0.0
 11
27.2087286444
 21
17.1794871159
 31
0.0
  0
SPLINE
  5
4F4
100
AcDbEntity
  8
0
100
AcDbSpline
 62
7
  6
CONTINUOUS
 70
0
 71
3
 72
11
 73
7
 74
5
 42
0.0000001
 43
0.0000001
 44
0.0000000001
 12
0.0539851999
 22
0.465279798
 32
0.0
 13
0.4683458999
 23
0.0073251589
 33
0.0
 40
0.0
 40
0.0
 40
0.0
 40
0.0
 40
0.2563590326
 40
0.5005096934
 40
0.7431114866
 40
1.0
 40
1.0
 40
1.0
 40
1.0
 10
27.2087286444
 20
17.1794871159
 30
0.0
 10
27.2133418422
 20
17.2192466755
 30
0.0
 10
27.234714691
 20
17.2961715633
 30
0.0
 10
27.3031568589
 20
17.3928185397
 30
0.0
 10
27.4023224907
 20
17.4583890974
 30
0.0
 10
27.4811108775
 20
17.4736371159
 30
0.0
 10
27.5212151048
 20
17.4742643656
 30
0.0
 11
27.2087286444
 21
17.1794871159
 31
0.0
 11
27.2417225322
 21
17.2949443646
 31
0.0
 11
27.3083510628
 21
17.3878909348
 31
0.0
 11
27.4032907804
 21
17.4503366384
 31
0.0
 11
27.5212151048
 21
17.4742643656
 31
0.0
  0
SPLINE
  5
4F5
100
AcDbEntity
  8
0
100
AcDbSpline
 62
7
  6
CONTINUOUS
 70
0
 71
3
 72
12
 73
8
 74
6
 42
0.0000001
 43
0.0000001
 44
0.0000000001
 12
0.6370405383
 22
0.00982973
 32
0.0
 13
0.01422691
 23
-0.6369575073
 33
0.0
 40
0.0
 40
0.0
 40
0.0
 40
0.0
 40
0.2905572816
 40
0.4112277123
 40
0.5251830923
 40
0.7538171785
 40
1.0
 40
1.0
 40
1.0
 40
1.0
 10
27.5212151048
 20
17.4742643656
 30
0.0
 10
27.5829140272
 20
17.4752163988
 30
0.0
 10
27.6731456142
 20
17.4639785027
 30
0.0
 10
27.771238301
 20
17.4085293502
 30
0.0
 10
27.8424702587
 20
17.3391372676
 30
0.0
 10
27.8968545209
 20
17.2224019845
 30
0.0
 10
27.9085054698
 20
17.1212051331
 30
0.0
 10
27.9096729434
 20
17.068935801
 30
0.0
 11
27.5212151048
 21
17.4742643656
 31
0.0
 11
27.7037209198
 21
17.4432708503
 31
0.0
 11
27.7704435062
 21
17.4050765957
 31
0.0
 11
27.822509869
 21
17.3544775247
 31
0.0
 11
27.8877658957
 21
17.2242454785
 31
0.0
 11
27.9096729434
 21
17.068935801
 31
0.0
  0
SPLINE
  5
4F6
100
AcDbEntity
  8
0
100
AcDbSpline
 62
7
  6
CONTINUOUS
 70
0
 71
3
 72
30
 73
26
 74
24
 42
0.0000001
 43
0.0000001
 44
0.0000000001
 12
-0.1997259873
 22
1.5478764014
 32
0.0
 13
-0.5296216599
 23
-1.468098335
 33
0.0
 40
0.0
 40
0.0
 40
0.0
 40
0.0
 40
0.007353389
 40
0.0194327631
 40
0.0561133174
 40
0.0799159575
 40
0.1068586579
 40
0.1689297051
 40
0.2406059842
 40
0.3214237214
 40
0.365593897
 40
0.4126050185
 40
0.462857119
 40
0.489356978
 40
0.5168583551
 40
0.5389626688
 40
0.5604194375
 40
0.6015433218
 40
0.6405387583
 40
0.6776587168
 40
0.7469697912
 40
0.8105221546
 40
0.8684615353
 40
0.9202118201
 40
1.0
 40
1.0
 40
1.0
 40
1.0
 10
28.1157019983
 20
17.6098487668
 30
0.0
 10
28.115212444
 20
17.6136428126
 30
0.0
 10
28.1116274996
 20
17.6232451001
 30
0.0
 10
28.0989896949
 20
17.6494781489
 30
0.0
 10
28.0780944296
 20
17.6811971774
 30
0.0
 10
28.0501918171
 20
17.7170984027
 30
0.0
 10
28.0111569986
 20
17.7609952429
 30
0.0
 10
27.9491727069
 20
17.8175318926
 30
0.0
 10
27.8558870694
 20
17.8796960035
 30
0.0
 10
27.761636924
 20
17.9210922782
 30
0.0
 10
27.67539975
 20
17.9453907253
 30
0.0
 10
27.6028512012
 20
17.9583704088
 30
0.0
 10
27.5385521944
 20
17.9634242346
 30
0.0
 10
27.4843007256
 20
17.9637705401
 30
0.0
 10
27.4447246342
 20
17.9621460655
 30
0.0
 10
27.4078799164
 20
17.9589863866
 30
0.0
 10
27.3641748007
 20
17.9533489997
 30
0.0
 10
27.3122279448
 20
17.943283929
 30
0.0
 10
27.2534981109
 20
17.9265405902
 30
0.0
 10
27.182712396
 20
17.8996243134
 30
0.0
 10
27.104183176
 20
17.8580210106
 30
0.0
 10
27.0245926551
 20
17.7981234102
 30
0.0
 10
26.9607424741
 20
17.7340571671
 30
0.0
 10
26.9007170491
 20
17.6557735688
 30
0.0
 10
26.8672014597
 20
17.5950955275
 30
0.0
 10
26.8531156103
 20
17.5560498962
 30
0.0
 11
28.1157019983
 21
17.6098487668
 31
0.0
 11
28.1123859861
 21
17.620835763
 31
0.0
 11
28.1043426028
 21
17.6378861706
 31
0.0
 11
28.0736921332
 21
17.6862374224
 31
0.0
 11
28.0508942602
 21
17.7155683679
 31
0.0
 11
28.0229874738
 21
17.7470229264
 31
0.0
 11
27.9514654808
 21
17.8123630871
 31
0.0
 11
27.8583630174
 21
17.8743783089
 31
0.0
 11
27.742916947
 21
17.9251889961
 31
0.0
 11
27.6765765789
 21
17.9439302657
 31
0.0
 11
27.6043641327
 21
17.9569155533
 31
0.0
 11
27.5261842164
 21
17.9631599095
 31
0.0
 11
27.484826647
 21
17.9634464416
 31
0.0
 11
27.4419414379
 21
17.9616783848
 31
0.0
 11
27.4075710155
 21
17.9587096491
 31
0.0
 11
27.374359261
 21
17.9544189751
 31
0.0
 11
27.3113604078
 21
17.9421500801
 31
0.0
 11
27.2528421822
 21
17.9254282361
 31
0.0
 11
27.198701888
 21
17.9048099792
 31
0.0
 11
27.1031443094
 21
17.8541103722
 31
0.0
 11
27.0238661026
 21
17.7945035491
 31
0.0
 11
26.9600456985
 21
17.7304417999
 31
0.0
 11
26.9108615279
 21
17.6663774147
 31
0.0
 11
26.8531156103
 21
17.5560498962
 31
0.0
  0
SPLINE
  5
4F7
100
AcDbEntity
  8
0
100
AcDbSpline
 62
7
  6
CONTINUOUS
 70
0
 71
3
 72
10
 73
6
 74
4
 42
0.0000001
 43
0.0000001
 44
0.0000000001
 12
-0.4409971245
 22
-1.2206616097
 32
0.0
 13
0.1889069371
 23
-1.2840589544
 33
0.0
 40
0.0
 40
0.0
 40
0.0
 40
0.0
 40
0.2954237646
 40
0.5848737211
 40
1.0
 40
1.0
 40
1.0
 40
1.0
 10
26.8531156103
 20
17.5560498962
 30
0.0
 10
26.8096886001
 20
17.4358457468
 30
0.0
 10
26.7674709287
 20
17.1826615289
 30
0.0
 10
26.7675521562
 20
16.74987446
 30
0.0
 10
26.8006571998
 20
16.4460270769
 30
0.0
 10
26.8267972777
 20
16.2683448717
 30
0.0
 11
26.8531156103
 21
17.5560498962
 31
0.0
 11
26.7778229661
 21
17.1800904537
 31
0.0
 11
26.7731193725
 21
16.804448509
 31
0.0
 11
26.8267972777
 21
16.2683448717
 31
0.0
  0
SPLINE
  5
4F8
100
AcDbEntity
  8
0
100
AcDbSpline
 62
7
  6
CONTINUOUS
 70
0
 71
3
 72
10
 73
6
 74
4
 42
0.0000001
 43
0.0000001
 44
0.0000000001
 12
0.0
 22
0.3878256038
 32
0.0
 13
0.3630980532
 23
0.1362662933
 33
0.0
 40
0.0
 40
0.0
 40
0.0
 40
0.0
 40
0.3517340052
 40
0.6302069713
 40
1.0
 40
1.0
 40
1.0
 40
1.0
 10
28.3190692275
 20
17.0678110859
 30
0.0
 10
28.3190692275
 20
17.1132815703
 30
0.0
 10
28.337453199
 20
17.1965086881
 30
0.0
 10
28.4188097274
 20
17.3006779666
 30
0.0
 10
28.494568885
 20
17.3421280605
 30
0.0
 10
28.539325928
 20
17.3589248356
 30
0.0
 11
28.3190692275
 21
17.0678110859
 31
0.0
 11
28.3498348709
 21
17.2007078868
 31
0.0
 11
28.4156277733
 21
17.2863528888
 31
0.0
 11
28.539325928
 21
17.3589248356
 31
0.0
  0
SPLINE
  5
4F9
100
AcDbEntity
  8
0
100
AcDbSpline
 62
7
  6
CONTINUOUS
 70
0
 71
3
 72
12
 73
8
 74
6
 42
0.0000001
 43
0.0000001
 44
0.0000000001
 12
0.7410859988
 22
0.2784157442
 32
0.0
 13
0.7608382387
 23
0.2187440487
 33
0.0
 40
0.0
 40
0.0
 40
0.0
 40
0.0
 40
0.0878983825
 40
0.2222450728
 40
0.5586412841
 40
0.8657366917
 40
1.0
 40
1.0
 40
1.0
 40
1.0
 10
28.539325928
 20
17.3589248356
 30
0.0
 10
28.5610393482
 20
17.3670822668
 30
0.0
 10
28.6168806302
 20
17.3851107741
 30
0.0
 10
28.7575983732
 20
17.4289778145
 30
0.0
 10
28.9544077088
 20
17.4873439925
 30
0.0
 10
29.1513989267
 20
17.5449228259
 30
0.0
 10
29.2632767605
 20
17.5773022654
 30
0.0
 10
29.2973276468
 20
17.587092032
 30
0.0
 11
28.539325928
 21
17.3589248356
 31
0.0
 11
28.6052320341
 21
17.381252663
 31
0.0
 11
28.706746795
 21
17.4129782316
 31
0.0
 11
28.9618673194
 21
17.4893660085
 31
0.0
 11
29.1952175777
 21
17.5575749981
 31
0.0
 11
29.2973276468
 21
17.587092032
 31
0.0
  0
SPLINE
  5
4FA
100
AcDbEntity
  8
0
100
AcDbSpline
 62
7
  6
CONTINUOUS
 70
0
 71
3
 72
9
 73
5
 74
3
 42
0.0000001
 43
0.0000001
 44
0.0000000001
 12
-0.675231447
 22
-0.1833909485
 32
0.0
 13
-0.675086514
 23
-0.1839237496
 33
0.0
 40
0.0
 40
0.0
 40
0.0
 40
0.0
 40
0.1980141723
 40
1.0
 40
1.0
 40
1.0
 40
1.0
 10
29.2973276468
 20
18.0889961303
 30
0.0
 10
29.2527591814
 20
18.0768914613
 30
0.0
 10
29.0271761184
 20
18.0176445307
 30
0.0
 10
28.8012252376
 20
17.9597844009
 30
0.0
 10
28.6207552987
 20
17.9106163208
 30
0.0
 11
29.2973276468
 21
18.0889961303
 31
0.0
 11
29.1634074724
 21
18.0534823734
 31
0.0
 11
28.6207552987
 21
17.9106163208
 31
0.0
  0
SPLINE
  5
4FB
100
AcDbEntity
  8
0
100
AcDbSpline
 62
7
  6
CONTINUOUS
 70
0
 71
3
 72
11
 73
7
 74
5
 42
0.0000001
 43
0.0000001
 44
0.0000000001
 12
-0.5744159999
 22
-0.1564882182
 32
0.0
 13
-0.2205116102
 23
-0.5530071728
 33
0.0
 40
0.0
 40
0.0
 40
0.0
 40
0.0
 40
0.2372378168
 40
0.4941807103
 40
0.7480747245
 40
1.0
 40
1.0
 40
1.0
 40
1.0
 10
28.6207552987
 20
17.9106163208
 30
0.0
 10
28.5753308995
 20
17.8982413464
 30
0.0
 10
28.4805513057
 20
17.8729542269
 30
0.0
 10
28.3409440878
 20
17.8212743448
 30
0.0
 10
28.2105470107
 20
17.7407524012
 30
0.0
 10
28.1489907389
 20
17.656287595
 30
0.0
 10
28.1304732562
 20
17.6098487668
 30
0.0
 11
28.6207552987
 21
17.9106163208
 31
0.0
 11
28.4849193011
 21
17.8719223149
 31
0.0
 11
28.3424000357
 21
17.8163487961
 31
0.0
 11
28.2164878911
 21
17.7327171512
 31
0.0
 11
28.1304732562
 21
17.6098487668
 31
0.0
  0
SPLINE
  5
4FC
100
AcDbEntity
  8
RACCORDO
100
AcDbSpline
 62
7
  6
CONTINUOUS
 70
0
 71
3
 72
22
 73
18
 74
16
 42
0.0000001
 43
0.0000001
 44
0.0000000001
 12
-0.4713048109
 22
0.0
 32
0.0
 13
0.0002828359
 23
0.471304726
 33
0.0
 40
0.0
 40
0.0
 40
0.0
 40
0.0
 40
0.0663149344
 40
0.1329395485
 40
0.1994999818
 40
0.2657505327
 40
0.3322714882
 40
0.3990532112
 40
0.4657169853
 40
0.5320756235
 40
0.5988341173
 40
0.665804098
 40
0.7325973371
 40
0.7991829111
 40
0.8661422809
 40
0.9332098822
 40
1.0
 40
1.0
 40
1.0
 40
1.0
 10
38.0391851044
 20
39.6120819702
 30
0.0
 10
38.0287669219
 20
39.6120819702
 30
0.0
 10
38.0078654853
 20
39.6131749819
 30
0.0
 10
37.9768553076
 20
39.6180867729
 30
0.0
 10
37.9465372536
 20
39.6262199106
 30
0.0
 10
37.9172522198
 20
39.6374714187
 30
0.0
 10
37.8892711213
 20
39.6517367966
 30
0.0
 10
37.8628849448
 20
39.6688926634
 30
0.0
 10
37.8384636165
 20
39.6887049919
 30
0.0
 10
37.8162486197
 20
39.7109568606
 30
0.0
 10
37.7964482692
 20
39.7354451366
 30
0.0
 10
37.7792862453
 20
39.7619313865
 30
0.0
 10
37.7650048995
 20
39.7900446974
 30
0.0
 10
37.7537349008
 20
39.8194920485
 30
0.0
 10
37.7455877213
 20
39.8499978866
 30
0.0
 10
37.7406718341
 20
39.8812170446
 30
0.0
 10
37.7395860196
 20
39.9022634417
 30
0.0
 10
37.7395923165
 20
39.9127562744
 30
0.0
 11
38.0391851044
 21
39.6120819702
 31
0.0
 11
38.0079732435
 21
39.6137149064
 31
0.0
 11
37.9769593221
 21
39.6186269481
 31
0.0
 11
37.9466603826
 21
39.6267551094
 31
0.0
 11
37.9175133411
 21
39.6379533612
 31
0.0
 11
37.8895820693
 21
39.6521930868
 31
0.0
 11
37.8631944502
 21
39.6693494469
 31
0.0
 11
37.8387947997
 21
39.6891435859
 31
0.0
 11
37.816697916
 21
39.7112764225
 31
0.0
 11
37.7969148321
 21
39.7357424738
 31
0.0
 11
37.7797507356
 21
39.7622308499
 31
0.0
 11
37.7654927472
 21
39.7902968183
 31
0.0
 11
37.7542752818
 21
39.8196056012
 31
0.0
 11
37.7461317778
 21
39.8500950739
 31
0.0
 11
37.7412150512
 21
39.8813196248
 31
0.0
 11
37.7395923165
 21
39.9127562744
 31
0.0
  0
SPLINE
  5
4FD
100
AcDbEntity
  8
RACCORDO
100
AcDbSpline
 62
7
  6
CONTINUOUS
 70
0
 71
3
 72
22
 73
18
 74
16
 42
0.0000001
 43
0.0000001
 44
0.0000000001
 12
0.0002828359
 22
-0.471304726
 32
0.0
 13
-0.4713048109
 23
0.0
 33
0.0
 40
0.0
 40
0.0
 40
0.0
 40
0.0
 40
0.0667945217
 40
0.1338658392
 40
0.2008266427
 40
0.2674117364
 40
0.334204157
 40
0.4011733146
 40
0.467930961
 40
0.5342887878
 40
0.6009517644
 40
0.6677326525
 40
0.734252752
 40
0.8005024859
 40
0.8670621005
 40
0.9336858885
 40
1.0
 40
1.0
 40
1.0
 40
1.0
 10
30.8584879156
 20
39.9127562744
 30
0.0
 10
30.8584942129
 20
39.9022627498
 30
0.0
 10
30.8574082598
 20
39.8812150738
 30
0.0
 10
30.8524918318
 20
39.8499944725
 30
0.0
 10
30.8443440397
 20
39.8194880348
 30
0.0
 10
30.8330736037
 20
39.7900408293
 30
0.0
 10
30.8187920276
 20
39.7619280116
 30
0.0
 10
30.8016298911
 20
39.7354423031
 30
0.0
 10
30.7818295173
 20
39.7109545502
 30
0.0
 10
30.7596145781
 20
39.6887031722
 30
0.0
 10
30.7351933818
 20
39.6688912936
 30
0.0
 10
30.7088074116
 20
39.6517358307
 30
0.0
 10
30.6808265825
 20
39.6374707967
 30
0.0
 10
30.651541865
 20
39.6262195627
 30
0.0
 10
30.6212241602
 20
39.6180866243
 30
0.0
 10
30.5902143578
 20
39.6131749547
 30
0.0
 10
30.5693131809
 20
39.6120819702
 30
0.0
 10
30.5588951277
 20
39.6120819702
 30
0.0
 11
30.8584879156
 21
39.9127562744
 31
0.0
 11
30.8568649657
 21
39.8813175576
 31
0.0
 11
30.8519476605
 21
39.8500913248
 31
0.0
 11
30.8438035602
 21
39.819601312
 31
0.0
 11
30.8325857478
 21
39.7902929042
 31
0.0
 11
30.8183275525
 21
39.7622274736
 31
0.0
 11
30.8011633406
 21
39.7357396346
 31
0.0
 11
30.7813802381
 21
39.7112741118
 31
0.0
 11
30.7592834094
 21
39.6891417608
 31
0.0
 11
30.7348838831
 21
39.6693480651
 31
0.0
 11
30.7084964707
 21
39.6521921092
 31
0.0
 11
30.6805654749
 21
39.6379527304
 31
0.0
 11
30.651418742
 21
39.626754749
 31
0.0
 11
30.6211201488
 21
39.6186267862
 31
0.0
 11
30.5901066024
 21
39.6137148659
 31
0.0
 11
30.5588951277
 21
39.6120819702
 31
0.0
  0
SPLINE
  5
4FE
100
AcDbEntity
  8
RACCORDO
100
AcDbSpline
 62
7
  6
CONTINUOUS
 70
0
 71
3
 72
22
 73
18
 74
16
 42
0.0000001
 43
0.0000001
 44
0.0000000001
 12
-0.4713048109
 22
0.0
 32
0.0
 13
0.0002828359
 23
0.471304726
 33
0.0
 40
0.0
 40
0.0
 40
0.0
 40
0.0
 40
0.0663149344
 40
0.1329395485
 40
0.1994999818
 40
0.2657505327
 40
0.3322714882
 40
0.3990532112
 40
0.4657169853
 40
0.5320756235
 40
0.5988341173
 40
0.665804098
 40
0.7325973371
 40
0.7991829111
 40
0.8661422809
 40
0.9332098822
 40
1.0
 40
1.0
 40
1.0
 40
1.0
 10
30.2391851044
 20
39.6120819702
 30
0.0
 10
30.2287669219
 20
39.6120819702
 30
0.0
 10
30.2078654853
 20
39.6131749819
 30
0.0
 10
30.1768553076
 20
39.6180867729
 30
0.0
 10
30.1465372536
 20
39.6262199106
 30
0.0
 10
30.1172522198
 20
39.6374714187
 30
0.0
 10
30.0892711213
 20
39.6517367966
 30
0.0
 10
30.0628849448
 20
39.6688926634
 30
0.0
 10
30.0384636165
 20
39.6887049919
 30
0.0
 10
30.0162486197
 20
39.7109568606
 30
0.0
 10
29.9964482692
 20
39.7354451366
 30
0.0
 10
29.9792862453
 20
39.7619313865
 30
0.0
 10
29.9650048995
 20
39.7900446974
 30
0.0
 10
29.9537349008
 20
39.8194920485
 30
0.0
 10
29.9455877213
 20
39.8499978866
 30
0.0
 10
29.9406718341
 20
39.8812170446
 30
0.0
 10
29.9395860196
 20
39.9022634417
 30
0.0
 10
29.9395923165
 20
39.9127562744
 30
0.0
 11
30.2391851044
 21
39.6120819702
 31
0.0
 11
30.2079732435
 21
39.6137149064
 31
0.0
 11
30.1769593221
 21
39.6186269481
 31
0.0
 11
30.1466603826
 21
39.6267551094
 31
0.0
 11
30.1175133411
 21
39.6379533612
 31
0.0
 11
30.0895820693
 21
39.6521930868
 31
0.0
 11
30.0631944502
 21
39.6693494469
 31
0.0
 11
30.0387947997
 21
39.6891435859
 31
0.0
 11
30.016697916
 21
39.7112764225
 31
0.0
 11
29.9969148321
 21
39.7357424738
 31
0.0
 11
29.9797507356
 21
39.7622308499
 31
0.0
 11
29.9654927472
 21
39.7902968183
 31
0.0
 11
29.9542752818
 21
39.8196056012
 31
0.0
 11
29.9461317778
 21
39.8500950739
 31
0.0
 11
29.9412150512
 21
39.8813196248
 31
0.0
 11
29.9395923165
 21
39.9127562744
 31
0.0
  0
SPLINE
  5
4FF
100
AcDbEntity
  8
RACCORDO
100
AcDbSpline
 62
7
  6
CONTINUOUS
 70
0
 71
3
 72
22
 73
18
 74
16
 42
0.0000001
 43
0.0000001
 44
0.0000000001
 12
0.4713048109
 22
0.0
 32
0.0
 13
-0.0002828359
 23
-0.471304726
 33
0.0
 40
0.0
 40
0.0
 40
0.0
 40
0.0
 40
0.0663149344
 40
0.1329395485
 40
0.1994999818
 40
0.2657505327
 40
0.3322714882
 40
0.3990532112
 40
0.4657169853
 40
0.5320756235
 40
0.5988341173
 40
0.665804098
 40
0.7325973371
 40
0.7991829111
 40
0.8661422809
 40
0.9332098822
 40
1.0
 40
1.0
 40
1.0
 40
1.0
 10
30.5588951277
 20
5.9701328188
 30
0.0
 10
30.5693133102
 20
5.9701328188
 30
0.0
 10
30.5902147468
 20
5.9690398071
 30
0.0
 10
30.6212249245
 20
5.9641280161
 30
0.0
 10
30.6515429785
 20
5.9559948784
 30
0.0
 10
30.6808280123
 20
5.9447433703
 30
0.0
 10
30.7088091108
 20
5.9304779924
 30
0.0
 10
30.7351952873
 20
5.9133221256
 30
0.0
 10
30.7596166156
 20
5.8935097971
 30
0.0
 10
30.7818316125
 20
5.8712579284
 30
0.0
 10
30.8016319629
 20
5.8467696524
 30
0.0
 10
30.8187939868
 20
5.8202834025
 30
0.0
 10
30.8330753326
 20
5.7921700916
 30
0.0
 10
30.8443453313
 20
5.7627227404
 30
0.0
 10
30.8524925108
 20
5.7322169024
 30
0.0
 10
30.857408398
 20
5.7009977444
 30
0.0
 10
30.8584942125
 20
5.6799513473
 30
0.0
 10
30.8584879156
 20
5.6694585146
 30
0.0
 11
30.5588951277
 21
5.9701328188
 31
0.0
 11
30.5901069887
 21
5.9684998826
 31
0.0
 11
30.62112091
 21
5.9635878409
 31
0.0
 11
30.6514198495
 21
5.9554596796
 31
0.0
 11
30.680566891
 21
5.9442614278
 31
0.0
 11
30.7084981628
 21
5.9300217022
 31
0.0
 11
30.7348857819
 21
5.9128653421
 31
0.0
 11
30.7592854324
 21
5.8930712031
 31
0.0
 11
30.7813823161
 21
5.8709383665
 31
0.0
 11
30.8011654
 21
5.8464723152
 31
0.0
 11
30.8183294965
 21
5.8199839391
 31
0.0
 11
30.8325874849
 21
5.7919179707
 31
0.0
 11
30.8438049503
 21
5.7626091877
 31
0.0
 11
30.8519484543
 21
5.732119715
 31
0.0
 11
30.8568651809
 21
5.7008951642
 31
0.0
 11
30.8584879156
 21
5.6694585146
 31
0.0
  0
SPLINE
  5
500
100
AcDbEntity
  8
RACCORDO
100
AcDbSpline
 62
7
  6
CONTINUOUS
 70
0
 71
3
 72
22
 73
18
 74
16
 42
0.0000001
 43
0.0000001
 44
0.0000000001
 12
-0.0002828359
 22
0.471304726
 32
0.0
 13
0.4713048109
 23
0.0
 33
0.0
 40
0.0
 40
0.0
 40
0.0
 40
0.0
 40
0.0667945217
 40
0.1338658392
 40
0.2008266427
 40
0.2674117364
 40
0.334204157
 40
0.4011733146
 40
0.467930961
 40
0.5342887878
 40
0.6009517644
 40
0.6677326525
 40
0.734252752
 40
0.8005024859
 40
0.8670621005
 40
0.9336858885
 40
1.0
 40
1.0
 40
1.0
 40
1.0
 10
29.9395923165
 20
5.6694585146
 30
0.0
 10
29.9395860192
 20
5.6799520391
 30
0.0
 10
29.9406719723
 20
5.7009997152
 30
0.0
 10
29.9455884003
 20
5.7322203165
 30
0.0
 10
29.9537361924
 20
5.7627267542
 30
0.0
 10
29.9650066284
 20
5.7921739597
 30
0.0
 10
29.9792882045
 20
5.8202867774
 30
0.0
 10
29.996450341
 20
5.8467724859
 30
0.0
 10
30.0162507148
 20
5.8712602388
 30
0.0
 10
30.038465654
 20
5.8935116168
 30
0.0
 10
30.0628868503
 20
5.9133234954
 30
0.0
 10
30.0892728205
 20
5.9304789583
 30
0.0
 10
30.1172536496
 20
5.9447439923
 30
0.0
 10
30.1465383671
 20
5.9559952263
 30
0.0
 10
30.1768560719
 20
5.9641281647
 30
0.0
 10
30.2078658743
 20
5.9690398343
 30
0.0
 10
30.2287670512
 20
5.9701328188
 30
0.0
 10
30.2391851044
 20
5.9701328188
 30
0.0
 11
29.9395923165
 21
5.6694585146
 31
0.0
 11
29.9412152664
 21
5.7008972313
 31
0.0
 11
29.9461325716
 21
5.7321234642
 31
0.0
 11
29.9542766719
 21
5.762613477
 31
0.0
 11
29.9654944843
 21
5.7919218848
 31
0.0
 11
29.9797526796
 21
5.8199873154
 31
0.0
 11
29.9969168915
 21
5.8464751544
 31
0.0
 11
30.016699994
 21
5.8709406772
 31
0.0
 11
30.0387968227
 21
5.8930730282
 31
0.0
 11
30.063196349
 21
5.9128667239
 31
0.0
 11
30.0895837614
 21
5.9300226798
 31
0.0
 11
30.1175147572
 21
5.9442620586
 31
0.0
 11
30.1466614901
 21
5.95546004
 31
0.0
 11
30.1769600833
 21
5.9635880028
 31
0.0
 11
30.2079736297
 21
5.9684999231
 31
0.0
 11
30.2391851044
 21
5.9701328188
 31
0.0
  0
SPLINE
  5
501
100
AcDbEntity
  8
RACCORDO
100
AcDbSpline
 62
7
  6
CONTINUOUS
 70
0
 71
3
 72
22
 73
18
 74
16
 42
0.0000001
 43
0.0000001
 44
0.0000000001
 12
0.4713048109
 22
0.0
 32
0.0
 13
-0.0002828359
 23
-0.471304726
 33
0.0
 40
0.0
 40
0.0
 40
0.0
 40
0.0
 40
0.0663149344
 40
0.1329395485
 40
0.1994999818
 40
0.2657505327
 40
0.3322714882
 40
0.3990532112
 40
0.4657169853
 40
0.5320756235
 40
0.5988341173
 40
0.665804098
 40
0.7325973371
 40
0.7991829111
 40
0.8661422809
 40
0.9332098822
 40
1.0
 40
1.0
 40
1.0
 40
1.0
 10
38.3588951277
 20
5.9701328188
 30
0.0
 10
38.3693133102
 20
5.9701328188
 30
0.0
 10
38.3902147468
 20
5.9690398071
 30
0.0
 10
38.4212249245
 20
5.9641280161
 30
0.0
 10
38.4515429785
 20
5.9559948784
 30
0.0
 10
38.4808280123
 20
5.9447433703
 30
0.0
 10
38.5088091108
 20
5.9304779924
 30
0.0
 10
38.5351952873
 20
5.9133221256
 30
0.0
 10
38.5596166156
 20
5.8935097971
 30
0.0
 10
38.5818316125
 20
5.8712579284
 30
0.0
 10
38.6016319629
 20
5.8467696524
 30
0.0
 10
38.6187939868
 20
5.8202834025
 30
0.0
 10
38.6330753326
 20
5.7921700916
 30
0.0
 10
38.6443453313
 20
5.7627227404
 30
0.0
 10
38.6524925108
 20
5.7322169024
 30
0.0
 10
38.657408398
 20
5.7009977444
 30
0.0
 10
38.6584942125
 20
5.6799513473
 30
0.0
 10
38.6584879156
 20
5.6694585146
 30
0.0
 11
38.3588951277
 21
5.9701328188
 31
0.0
 11
38.3901069887
 21
5.9684998826
 31
0.0
 11
38.42112091
 21
5.9635878409
 31
0.0
 11
38.4514198495
 21
5.9554596796
 31
0.0
 11
38.480566891
 21
5.9442614278
 31
0.0
 11
38.5084981628
 21
5.9300217022
 31
0.0
 11
38.5348857819
 21
5.9128653421
 31
0.0
 11
38.5592854324
 21
5.8930712031
 31
0.0
 11
38.5813823161
 21
5.8709383665
 31
0.0
 11
38.6011654
 21
5.8464723152
 31
0.0
 11
38.6183294965
 21
5.8199839391
 31
0.0
 11
38.6325874849
 21
5.7919179707
 31
0.0
 11
38.6438049503
 21
5.7626091877
 31
0.0
 11
38.6519484543
 21
5.732119715
 31
0.0
 11
38.6568651809
 21
5.7008951642
 31
0.0
 11
38.6584879156
 21
5.6694585146
 31
0.0
  0
SPLINE
  5
502
100
AcDbEntity
  8
RACCORDO
100
AcDbSpline
 62
7
  6
CONTINUOUS
 70
0
 71
3
 72
22
 73
18
 74
16
 42
0.0000001
 43
0.0000001
 44
0.0000000001
 12
-0.0002828359
 22
0.471304726
 32
0.0
 13
0.4713048109
 23
-0.0
 33
0.0
 40
0.0
 40
0.0
 40
0.0
 40
0.0
 40
0.0667945217
 40
0.1338658392
 40
0.2008266427
 40
0.2674117364
 40
0.334204157
 40
0.4011733146
 40
0.467930961
 40
0.5342887878
 40
0.6009517644
 40
0.6677326525
 40
0.734252752
 40
0.8005024859
 40
0.8670621005
 40
0.9336858885
 40
1.0
 40
1.0
 40
1.0
 40
1.0
 10
37.7395923165
 20
5.6694585146
 30
0.0
 10
37.7395860192
 20
5.6799520391
 30
0.0
 10
37.7406719723
 20
5.7009997152
 30
0.0
 10
37.7455884003
 20
5.7322203165
 30
0.0
 10
37.7537361924
 20
5.7627267542
 30
0.0
 10
37.7650066284
 20
5.7921739597
 30
0.0
 10
37.7792882045
 20
5.8202867774
 30
0.0
 10
37.796450341
 20
5.8467724859
 30
0.0
 10
37.8162507148
 20
5.8712602388
 30
0.0
 10
37.838465654
 20
5.8935116168
 30
0.0
 10
37.8628868503
 20
5.9133234954
 30
0.0
 10
37.8892728205
 20
5.9304789583
 30
0.0
 10
37.9172536496
 20
5.9447439923
 30
0.0
 10
37.9465383671
 20
5.9559952263
 30
0.0
 10
37.9768560719
 20
5.9641281647
 30
0.0
 10
38.0078658743
 20
5.9690398343
 30
0.0
 10
38.0287670512
 20
5.9701328188
 30
0.0
 10
38.0391851044
 20
5.9701328188
 30
0.0
 11
37.7395923165
 21
5.6694585146
 31
0.0
 11
37.7412152664
 21
5.7008972313
 31
0.0
 11
37.7461325716
 21
5.7321234642
 31
0.0
 11
37.7542766719
 21
5.762613477
 31
0.0
 11
37.7654944843
 21
5.7919218848
 31
0.0
 11
37.7797526796
 21
5.8199873154
 31
0.0
 11
37.7969168915
 21
5.8464751544
 31
0.0
 11
37.816699994
 21
5.8709406772
 31
0.0
 11
37.8387968227
 21
5.8930730282
 31
0.0
 11
37.863196349
 21
5.9128667239
 31
0.0
 11
37.8895837614
 21
5.9300226798
 31
0.0
 11
37.9175147572
 21
5.9442620586
 31
0.0
 11
37.9466614901
 21
5.95546004
 31
0.0
 11
37.9769600833
 21
5.9635880028
 31
0.0
 11
38.0079736297
 21
5.9684999231
 31
0.0
 11
38.0391851044
 21
5.9701328188
 31
0.0
  0
SPLINE
  5
503
100
AcDbEntity
  8
RACCORDO
100
AcDbSpline
 62
253
  6
CONTINUOUS
 70
0
 71
3
 72
23
 73
19
 74
17
 42
0.0000001
 43
0.0000001
 44
0.0000000001
 12
-0.0000001452
 22
-0.4993489509
 32
0.0
 13
-0.0659129137
 23
-0.4949796588
 33
0.0
 40
0.0
 40
0.0
 40
0.0
 40
0.0
 40
0.0948781765
 40
0.1889072328
 40
0.2812375878
 40
0.3710366822
 40
0.4574970018
 40
0.5398407551
 40
0.6173264663
 40
0.6892567436
 40
0.7549844646
 40
0.8139182864
 40
0.8655278
 40
0.9093484777
 40
0.9449865124
 40
0.972122099
 40
0.9905125568
 40
1.0
 40
1.0
 40
1.0
 40
1.0
 10
30.293849296
 20
40.2655927303
 30
0.0
 10
30.2938492914
 20
40.249800291
 30
0.0
 10
30.2938389203
 20
40.2183567472
 30
0.0
 10
30.2937922985
 20
40.1715448689
 30
0.0
 10
30.2937150601
 20
40.1255784433
 30
0.0
 10
30.2936079377
 20
40.0808718944
 30
0.0
 10
30.2934719118
 20
40.0378276982
 30
0.0
 10
30.2933082683
 20
39.9968331706
 30
0.0
 10
30.2931185261
 20
39.9582573049
 30
0.0
 10
30.2929045607
 20
39.9224473351
 30
0.0
 10
30.2926682447
 20
39.8897255582
 30
0.0
 10
30.2924126136
 20
39.8603863412
 30
0.0
 10
30.2921383092
 20
39.8346941346
 30
0.0
 10
30.291854689
 20
39.8128791549
 30
0.0
 10
30.2915482999
 20
39.7951405807
 30
0.0
 10
30.2912706768
 20
39.7816301775
 30
0.0
 10
30.2909281911
 20
39.7724858516
 30
0.0
 10
30.2907494155
 20
39.767840121
 30
0.0
 10
30.2905409672
 20
39.7662747572
 30
0.0
 11
30.293849296
 21
40.2655927303
 31
0.0
 11
30.2938335903
 21
40.2182154151
 31
0.0
 11
30.2937866124
 21
40.1712621279
 31
0.0
 11
30.2937087754
 21
40.1251571277
 31
0.0
 11
30.293600788
 21
40.0803161742
 31
0.0
 11
30.2934636161
 21
40.0371425222
 31
0.0
 11
30.2932984959
 21
39.9960245869
 31
0.0
 11
30.2931069128
 21
39.9573326526
 31
0.0
 11
30.2928905915
 21
39.9214149955
 31
0.0
 11
30.2926514783
 21
39.888594798
 31
0.0
 11
30.2923917246
 21
39.8591674023
 31
0.0
 11
30.2921136693
 21
39.8333977459
 31
0.0
 11
30.2918198137
 21
39.8115179097
 31
0.0
 11
30.2915128105
 21
39.7937247428
 31
0.0
 11
30.2911953963
 21
39.7801783343
 31
0.0
 11
30.290870493
 21
39.7710008278
 31
0.0
 11
30.2905409672
 21
39.7662747572
 31
0.0
  0
SPLINE
  5
504
100
AcDbEntity
  8
RACCORDO
100
AcDbSpline
 62
253
  6
CONTINUOUS
 70
0
 71
3
 72
23
 73
19
 74
17
 42
0.0000001
 43
0.0000001
 44
0.0000000001
 12
-0.065912914
 22
0.4949796587
 32
0.0
 13
-0.0000001452
 23
0.4993489509
 33
0.0
 40
0.0
 40
0.0
 40
0.0
 40
0.0
 40
0.0094874432
 40
0.027877901
 40
0.0550134876
 40
0.0906515223
 40
0.1344722
 40
0.1860817136
 40
0.2450155354
 40
0.3107432563
 40
0.3826735337
 40
0.4601592449
 40
0.5425029982
 40
0.6289633178
 40
0.7187624122
 40
0.8110927672
 40
0.9051218235
 40
1.0
 40
1.0
 40
1.0
 40
1.0
 10
30.5075392649
 20
39.7662747572
 30
0.0
 10
30.5073308166
 20
39.767840121
 30
0.0
 10
30.507152041
 20
39.7724858516
 30
0.0
 10
30.5068095553
 20
39.7816301775
 30
0.0
 10
30.5065319322
 20
39.7951405807
 30
0.0
 10
30.5062255431
 20
39.8128791549
 30
0.0
 10
30.5059419229
 20
39.8346941346
 30
0.0
 10
30.5056676185
 20
39.8603863411
 30
0.0
 10
30.5054119875
 20
39.8897255582
 30
0.0
 10
30.5051756714
 20
39.9224473351
 30
0.0
 10
30.504961706
 20
39.9582573049
 30
0.0
 10
30.5047719638
 20
39.9968331706
 30
0.0
 10
30.5046083203
 20
40.0378276982
 30
0.0
 10
30.5044722944
 20
40.0808718944
 30
0.0
 10
30.504365172
 20
40.1255784433
 30
0.0
 10
30.5042879336
 20
40.1715448689
 30
0.0
 10
30.5042413118
 20
40.2183567472
 30
0.0
 10
30.5042309407
 20
40.249800291
 30
0.0
 10
30.5042309361
 20
40.2655927303
 30
0.0
 11
30.5075392649
 21
39.7662747572
 31
0.0
 11
30.5072097391
 21
39.7710008278
 31
0.0
 11
30.5068848358
 21
39.7801783343
 31
0.0
 11
30.5065674216
 21
39.7937247428
 31
0.0
 11
30.5062604184
 21
39.8115179097
 31
0.0
 11
30.5059665628
 21
39.8333977459
 31
0.0
 11
30.5056885075
 21
39.8591674023
 31
0.0
 11
30.5054287538
 21
39.888594798
 31
0.0
 11
30.5051896406
 21
39.9214149955
 31
0.0
 11
30.5049733193
 21
39.9573326526
 31
0.0
 11
30.5047817362
 21
39.9960245869
 31
0.0
 11
30.5046166161
 21
40.0371425222
 31
0.0
 11
30.5044794441
 21
40.0803161742
 31
0.0
 11
30.5043714567
 21
40.1251571277
 31
0.0
 11
30.5042936197
 21
40.1712621279
 31
0.0
 11
30.5042466418
 21
40.2182154151
 31
0.0
 11
30.5042309361
 21
40.2655927303
 31
0.0
  0
SPLINE
  5
505
100
AcDbEntity
  8
RACCORDO
100
AcDbSpline
 62
253
  6
CONTINUOUS
 70
0
 71
3
 72
23
 73
19
 74
17
 42
0.0000001
 43
0.0000001
 44
0.0000000001
 12
-0.065912914
 22
0.4949796587
 32
0.0
 13
-0.0000001452
 23
0.4993489509
 33
0.0
 40
0.0
 40
0.0
 40
0.0
 40
0.0
 40
0.0094874432
 40
0.027877901
 40
0.0550134876
 40
0.0906515223
 40
0.1344722
 40
0.1860817136
 40
0.2450155354
 40
0.3107432563
 40
0.3826735337
 40
0.4601592449
 40
0.5425029982
 40
0.6289633178
 40
0.7187624122
 40
0.8110927672
 40
0.9051218235
 40
1.0
 40
1.0
 40
1.0
 40
1.0
 10
38.3075392649
 20
39.7662747572
 30
0.0
 10
38.3073308166
 20
39.767840121
 30
0.0
 10
38.307152041
 20
39.7724858516
 30
0.0
 10
38.3068095553
 20
39.7816301775
 30
0.0
 10
38.3065319322
 20
39.7951405807
 30
0.0
 10
38.3062255431
 20
39.8128791549
 30
0.0
 10
38.3059419229
 20
39.8346941346
 30
0.0
 10
38.3056676185
 20
39.8603863411
 30
0.0
 10
38.3054119875
 20
39.8897255582
 30
0.0
 10
38.3051756714
 20
39.9224473351
 30
0.0
 10
38.304961706
 20
39.9582573049
 30
0.0
 10
38.3047719638
 20
39.9968331706
 30
0.0
 10
38.3046083203
 20
40.0378276982
 30
0.0
 10
38.3044722944
 20
40.0808718944
 30
0.0
 10
38.304365172
 20
40.1255784433
 30
0.0
 10
38.3042879336
 20
40.1715448689
 30
0.0
 10
38.3042413118
 20
40.2183567472
 30
0.0
 10
38.3042309407
 20
40.249800291
 30
0.0
 10
38.3042309361
 20
40.2655927303
 30
0.0
 11
38.3075392649
 21
39.7662747572
 31
0.0
 11
38.3072097391
 21
39.7710008278
 31
0.0
 11
38.3068848358
 21
39.7801783343
 31
0.0
 11
38.3065674216
 21
39.7937247428
 31
0.0
 11
38.3062604184
 21
39.8115179097
 31
0.0
 11
38.3059665628
 21
39.8333977459
 31
0.0
 11
38.3056885075
 21
39.8591674023
 31
0.0
 11
38.3054287538
 21
39.888594798
 31
0.0
 11
38.3051896406
 21
39.9214149955
 31
0.0
 11
38.3049733193
 21
39.9573326526
 31
0.0
 11
38.3047817362
 21
39.9960245869
 31
0.0
 11
38.3046166161
 21
40.0371425222
 31
0.0
 11
38.3044794441
 21
40.0803161742
 31
0.0
 11
38.3043714567
 21
40.1251571277
 31
0.0
 11
38.3042936197
 21
40.1712621279
 31
0.0
 11
38.3042466418
 21
40.2182154151
 31
0.0
 11
38.3042309361
 21
40.2655927303
 31
0.0
  0
SPLINE
  5
506
100
AcDbEntity
  8
RACCORDO
100
AcDbSpline
 62
253
  6
CONTINUOUS
 70
0
 71
3
 72
23
 73
19
 74
17
 42
0.0000001
 43
0.0000001
 44
0.0000000001
 12
-0.0000001452
 22
-0.4993489509
 32
0.0
 13
-0.0659129137
 23
-0.4949796588
 33
0.0
 40
0.0
 40
0.0
 40
0.0
 40
0.0
 40
0.0948781765
 40
0.1889072328
 40
0.2812375878
 40
0.3710366822
 40
0.4574970018
 40
0.5398407551
 40
0.6173264663
 40
0.6892567436
 40
0.7549844646
 40
0.8139182864
 40
0.8655278
 40
0.9093484777
 40
0.9449865124
 40
0.972122099
 40
0.9905125568
 40
1.0
 40
1.0
 40
1.0
 40
1.0
 10
38.093849296
 20
40.2655927303
 30
0.0
 10
38.0938492914
 20
40.249800291
 30
0.0
 10
38.0938389203
 20
40.2183567472
 30
0.0
 10
38.0937922985
 20
40.1715448689
 30
0.0
 10
38.0937150601
 20
40.1255784433
 30
0.0
 10
38.0936079377
 20
40.0808718944
 30
0.0
 10
38.0934719118
 20
40.0378276982
 30
0.0
 10
38.0933082683
 20
39.9968331706
 30
0.0
 10
38.0931185261
 20
39.9582573049
 30
0.0
 10
38.0929045607
 20
39.9224473351
 30
0.0
 10
38.0926682447
 20
39.8897255582
 30
0.0
 10
38.0924126136
 20
39.8603863412
 30
0.0
 10
38.0921383092
 20
39.8346941346
 30
0.0
 10
38.091854689
 20
39.8128791549
 30
0.0
 10
38.0915482999
 20
39.7951405807
 30
0.0
 10
38.0912706768
 20
39.7816301775
 30
0.0
 10
38.0909281911
 20
39.7724858516
 30
0.0
 10
38.0907494155
 20
39.767840121
 30
0.0
 10
38.0905409672
 20
39.7662747572
 30
0.0
 11
38.093849296
 21
40.2655927303
 31
0.0
 11
38.0938335903
 21
40.2182154151
 31
0.0
 11
38.0937866124
 21
40.1712621279
 31
0.0
 11
38.0937087754
 21
40.1251571277
 31
0.0
 11
38.093600788
 21
40.0803161742
 31
0.0
 11
38.0934636161
 21
40.0371425222
 31
0.0
 11
38.0932984959
 21
39.9960245869
 31
0.0
 11
38.0931069128
 21
39.9573326526
 31
0.0
 11
38.0928905915
 21
39.9214149955
 31
0.0
 11
38.0926514783
 21
39.888594798
 31
0.0
 11
38.0923917246
 21
39.8591674023
 31
0.0
 11
38.0921136693
 21
39.8333977459
 31
0.0
 11
38.0918198137
 21
39.8115179097
 31
0.0
 11
38.0915128105
 21
39.7937247428
 31
0.0
 11
38.0911953963
 21
39.7801783343
 31
0.0
 11
38.090870493
 21
39.7710008278
 31
0.0
 11
38.0905409672
 21
39.7662747572
 31
0.0
  0
SPLINE
  5
507
100
AcDbEntity
  8
RACCORDO
100
AcDbSpline
 62
253
  6
CONTINUOUS
 70
0
 71
3
 72
23
 73
19
 74
17
 42
0.0000001
 43
0.0000001
 44
0.0000000001
 12
0.0000001452
 22
0.4993489509
 32
0.0
 13
0.0659129137
 23
0.4949796588
 33
0.0
 40
0.0
 40
0.0
 40
0.0
 40
0.0
 40
0.0948781765
 40
0.1889072328
 40
0.2812375878
 40
0.3710366822
 40
0.4574970018
 40
0.5398407551
 40
0.6173264663
 40
0.6892567436
 40
0.7549844646
 40
0.8139182864
 40
0.8655278
 40
0.9093484777
 40
0.9449865124
 40
0.972122099
 40
0.9905125568
 40
1.0
 40
1.0
 40
1.0
 40
1.0
 10
30.5042309361
 20
5.3166220587
 30
0.0
 10
30.5042309407
 20
5.332414498
 30
0.0
 10
30.5042413118
 20
5.3638580418
 30
0.0
 10
30.5042879336
 20
5.4106699201
 30
0.0
 10
30.504365172
 20
5.4566363457
 30
0.0
 10
30.5044722944
 20
5.5013428946
 30
0.0
 10
30.5046083203
 20
5.5443870908
 30
0.0
 10
30.5047719638
 20
5.5853816183
 30
0.0
 10
30.504961706
 20
5.6239574841
 30
0.0
 10
30.5051756714
 20
5.6597674539
 30
0.0
 10
30.5054119875
 20
5.6924892308
 30
0.0
 10
30.5056676185
 20
5.7218284478
 30
0.0
 10
30.5059419229
 20
5.7475206544
 30
0.0
 10
30.5062255431
 20
5.7693356341
 30
0.0
 10
30.5065319322
 20
5.7870742083
 30
0.0
 10
30.5068095553
 20
5.8005846115
 30
0.0
 10
30.507152041
 20
5.8097289374
 30
0.0
 10
30.5073308166
 20
5.814374668
 30
0.0
 10
30.5075392649
 20
5.8159400318
 30
0.0
 11
30.5042309361
 21
5.3166220587
 31
0.0
 11
30.5042466418
 21
5.3639993739
 31
0.0
 11
30.5042936197
 21
5.4109526611
 31
0.0
 11
30.5043714567
 21
5.4570576613
 31
0.0
 11
30.5044794441
 21
5.5018986148
 31
0.0
 11
30.5046166161
 21
5.5450722668
 31
0.0
 11
30.5047817362
 21
5.5861902021
 31
0.0
 11
30.5049733193
 21
5.6248821364
 31
0.0
 11
30.5051896406
 21
5.6607997935
 31
0.0
 11
30.5054287538
 21
5.693619991
 31
0.0
 11
30.5056885075
 21
5.7230473867
 31
0.0
 11
30.5059665628
 21
5.7488170431
 31
0.0
 11
30.5062604184
 21
5.7706968793
 31
0.0
 11
30.5065674216
 21
5.7884900462
 31
0.0
 11
30.5068848358
 21
5.8020364547
 31
0.0
 11
30.5072097391
 21
5.8112139612
 31
0.0
 11
30.5075392649
 21
5.8159400318
 31
0.0
  0
SPLINE
  5
508
100
AcDbEntity
  8
RACCORDO
100
AcDbSpline
 62
253
  6
CONTINUOUS
 70
0
 71
3
 72
23
 73
19
 74
17
 42
0.0000001
 43
0.0000001
 44
0.0000000001
 12
0.065912914
 22
-0.4949796587
 32
0.0
 13
0.0000001452
 23
-0.4993489509
 33
0.0
 40
0.0
 40
0.0
 40
0.0
 40
0.0
 40
0.0094874432
 40
0.027877901
 40
0.0550134876
 40
0.0906515223
 40
0.1344722
 40
0.1860817136
 40
0.2450155354
 40
0.3107432563
 40
0.3826735337
 40
0.4601592449
 40
0.5425029982
 40
0.6289633178
 40
0.7187624122
 40
0.8110927672
 40
0.9051218235
 40
1.0
 40
1.0
 40
1.0
 40
1.0
 10
30.2905409672
 20
5.8159400318
 30
0.0
 10
30.2907494155
 20
5.814374668
 30
0.0
 10
30.2909281911
 20
5.8097289374
 30
0.0
 10
30.2912706768
 20
5.8005846115
 30
0.0
 10
30.2915482999
 20
5.7870742083
 30
0.0
 10
30.291854689
 20
5.7693356341
 30
0.0
 10
30.2921383092
 20
5.7475206544
 30
0.0
 10
30.2924126136
 20
5.7218284478
 30
0.0
 10
30.2926682446
 20
5.6924892308
 30
0.0
 10
30.2929045607
 20
5.6597674539
 30
0.0
 10
30.2931185261
 20
5.6239574841
 30
0.0
 10
30.2933082683
 20
5.5853816184
 30
0.0
 10
30.2934719118
 20
5.5443870908
 30
0.0
 10
30.2936079377
 20
5.5013428946
 30
0.0
 10
30.2937150601
 20
5.4566363457
 30
0.0
 10
30.2937922985
 20
5.4106699201
 30
0.0
 10
30.2938389203
 20
5.3638580418
 30
0.0
 10
30.2938492914
 20
5.332414498
 30
0.0
 10
30.293849296
 20
5.3166220587
 30
0.0
 11
30.2905409672
 21
5.8159400318
 31
0.0
 11
30.290870493
 21
5.8112139612
 31
0.0
 11
30.2911953963
 21
5.8020364547
 31
0.0
 11
30.2915128105
 21
5.7884900462
 31
0.0
 11
30.2918198137
 21
5.7706968793
 31
0.0
 11
30.2921136693
 21
5.7488170431
 31
0.0
 11
30.2923917246
 21
5.7230473867
 31
0.0
 11
30.2926514783
 21
5.693619991
 31
0.0
 11
30.2928905915
 21
5.6607997935
 31
0.0
 11
30.2931069128
 21
5.6248821364
 31
0.0
 11
30.2932984959
 21
5.5861902021
 31
0.0
 11
30.2934636161
 21
5.5450722668
 31
0.0
 11
30.293600788
 21
5.5018986148
 31
0.0
 11
30.2937087754
 21
5.4570576613
 31
0.0
 11
30.2937866124
 21
5.4109526611
 31
0.0
 11
30.2938335903
 21
5.3639993739
 31
0.0
 11
30.293849296
 21
5.3166220587
 31
0.0
  0
SPLINE
  5
509
100
AcDbEntity
  8
RACCORDO
100
AcDbSpline
 62
253
  6
CONTINUOUS
 70
0
 71
3
 72
23
 73
19
 74
17
 42
0.0000001
 43
0.0000001
 44
0.0000000001
 12
0.065912914
 22
-0.4949796587
 32
0.0
 13
0.0000001452
 23
-0.4993489509
 33
0.0
 40
0.0
 40
0.0
 40
0.0
 40
0.0
 40
0.0094874432
 40
0.027877901
 40
0.0550134876
 40
0.0906515223
 40
0.1344722
 40
0.1860817136
 40
0.2450155354
 40
0.3107432563
 40
0.3826735337
 40
0.4601592449
 40
0.5425029982
 40
0.6289633178
 40
0.7187624122
 40
0.8110927672
 40
0.9051218235
 40
1.0
 40
1.0
 40
1.0
 40
1.0
 10
38.0905409672
 20
5.8159400318
 30
0.0
 10
38.0907494155
 20
5.814374668
 30
0.0
 10
38.0909281911
 20
5.8097289374
 30
0.0
 10
38.0912706768
 20
5.8005846115
 30
0.0
 10
38.0915482999
 20
5.7870742083
 30
0.0
 10
38.091854689
 20
5.7693356341
 30
0.0
 10
38.0921383092
 20
5.7475206544
 30
0.0
 10
38.0924126136
 20
5.7218284478
 30
0.0
 10
38.0926682446
 20
5.6924892308
 30
0.0
 10
38.0929045607
 20
5.6597674539
 30
0.0
 10
38.0931185261
 20
5.6239574841
 30
0.0
 10
38.0933082683
 20
5.5853816184
 30
0.0
 10
38.0934719118
 20
5.5443870908
 30
0.0
 10
38.0936079377
 20
5.5013428946
 30
0.0
 10
38.0937150601
 20
5.4566363457
 30
0.0
 10
38.0937922985
 20
5.4106699201
 30
0.0
 10
38.0938389203
 20
5.3638580418
 30
0.0
 10
38.0938492914
 20
5.332414498
 30
0.0
 10
38.093849296
 20
5.3166220587
 30
0.0
 11
38.0905409672
 21
5.8159400318
 31
0.0
 11
38.090870493
 21
5.8112139612
 31
0.0
 11
38.0911953963
 21
5.8020364547
 31
0.0
 11
38.0915128105
 21
5.7884900462
 31
0.0
 11
38.0918198137
 21
5.7706968793
 31
0.0
 11
38.0921136693
 21
5.7488170431
 31
0.0
 11
38.0923917246
 21
5.7230473867
 31
0.0
 11
38.0926514783
 21
5.693619991
 31
0.0
 11
38.0928905915
 21
5.6607997935
 31
0.0
 11
38.0931069128
 21
5.6248821364
 31
0.0
 11
38.0932984959
 21
5.5861902021
 31
0.0
 11
38.0934636161
 21
5.5450722668
 31
0.0
 11
38.093600788
 21
5.5018986148
 31
0.0
 11
38.0937087754
 21
5.4570576613
 31
0.0
 11
38.0937866124
 21
5.4109526611
 31
0.0
 11
38.0938335903
 21
5.3639993739
 31
0.0
 11
38.093849296
 21
5.3166220587
 31
0.0
  0
SPLINE
  5
50A
100
AcDbEntity
  8
RACCORDO
100
AcDbSpline
 62
253
  6
CONTINUOUS
 70
0
 71
3
 72
23
 73
19
 74
17
 42
0.0000001
 43
0.0000001
 44
0.0000000001
 12
0.0000001452
 22
0.4993489509
 32
0.0
 13
0.0659129137
 23
0.4949796588
 33
0.0
 40
0.0
 40
0.0
 40
0.0
 40
0.0
 40
0.0948781765
 40
0.1889072328
 40
0.2812375878
 40
0.3710366822
 40
0.4574970018
 40
0.5398407551
 40
0.6173264663
 40
0.6892567436
 40
0.7549844646
 40
0.8139182864
 40
0.8655278
 40
0.9093484777
 40
0.9449865124
 40
0.972122099
 40
0.9905125568
 40
1.0
 40
1.0
 40
1.0
 40
1.0
 10
38.3042309361
 20
5.3166220587
 30
0.0
 10
38.3042309407
 20
5.332414498
 30
0.0
 10
38.3042413118
 20
5.3638580418
 30
0.0
 10
38.3042879336
 20
5.4106699201
 30
0.0
 10
38.304365172
 20
5.4566363457
 30
0.0
 10
38.3044722944
 20
5.5013428946
 30
0.0
 10
38.3046083203
 20
5.5443870908
 30
0.0
 10
38.3047719638
 20
5.5853816183
 30
0.0
 10
38.304961706
 20
5.6239574841
 30
0.0
 10
38.3051756714
 20
5.6597674539
 30
0.0
 10
38.3054119875
 20
5.6924892308
 30
0.0
 10
38.3056676185
 20
5.7218284478
 30
0.0
 10
38.3059419229
 20
5.7475206544
 30
0.0
 10
38.3062255431
 20
5.7693356341
 30
0.0
 10
38.3065319322
 20
5.7870742083
 30
0.0
 10
38.3068095553
 20
5.8005846115
 30
0.0
 10
38.307152041
 20
5.8097289374
 30
0.0
 10
38.3073308166
 20
5.814374668
 30
0.0
 10
38.3075392649
 20
5.8159400318
 30
0.0
 11
38.3042309361
 21
5.3166220587
 31
0.0
 11
38.3042466418
 21
5.3639993739
 31
0.0
 11
38.3042936197
 21
5.4109526611
 31
0.0
 11
38.3043714567
 21
5.4570576613
 31
0.0
 11
38.3044794441
 21
5.5018986148
 31
0.0
 11
38.3046166161
 21
5.5450722668
 31
0.0
 11
38.3047817362
 21
5.5861902021
 31
0.0
 11
38.3049733193
 21
5.6248821364
 31
0.0
 11
38.3051896406
 21
5.6607997935
 31
0.0
 11
38.3054287538
 21
5.693619991
 31
0.0
 11
38.3056885075
 21
5.7230473867
 31
0.0
 11
38.3059665628
 21
5.7488170431
 31
0.0
 11
38.3062604184
 21
5.7706968793
 31
0.0
 11
38.3065674216
 21
5.7884900462
 31
0.0
 11
38.3068848358
 21
5.8020364547
 31
0.0
 11
38.3072097391
 21
5.8112139612
 31
0.0
 11
38.3075392649
 21
5.8159400318
 31
0.0
  0
SPLINE
  5
50B
100
AcDbEntity
  8
RACCORDO
100
AcDbSpline
 62
7
  6
CONTINUOUS
 70
0
 71
3
 72
22
 73
18
 74
16
 42
0.0000001
 43
0.0000001
 44
0.0000000001
 12
0.0002828359
 22
-0.471304726
 32
0.0
 13
-0.4713048109
 23
0.0
 33
0.0
 40
0.0
 40
0.0
 40
0.0
 40
0.0
 40
0.0667945217
 40
0.1338658392
 40
0.2008266427
 40
0.2674117364
 40
0.334204157
 40
0.4011733146
 40
0.467930961
 40
0.5342887878
 40
0.6009517644
 40
0.6677326525
 40
0.734252752
 40
0.8005024859
 40
0.8670621005
 40
0.9336858885
 40
1.0
 40
1.0
 40
1.0
 40
1.0
 10
38.6584879156
 20
39.9127562744
 30
0.0
 10
38.6584942129
 20
39.9022627498
 30
0.0
 10
38.6574082598
 20
39.8812150738
 30
0.0
 10
38.6524918318
 20
39.8499944725
 30
0.0
 10
38.6443440397
 20
39.8194880348
 30
0.0
 10
38.6330736037
 20
39.7900408293
 30
0.0
 10
38.6187920276
 20
39.7619280116
 30
0.0
 10
38.6016298911
 20
39.7354423031
 30
0.0
 10
38.5818295173
 20
39.7109545502
 30
0.0
 10
38.5596145781
 20
39.6887031722
 30
0.0
 10
38.5351933818
 20
39.6688912936
 30
0.0
 10
38.5088074116
 20
39.6517358307
 30
0.0
 10
38.4808265825
 20
39.6374707967
 30
0.0
 10
38.451541865
 20
39.6262195627
 30
0.0
 10
38.4212241602
 20
39.6180866243
 30
0.0
 10
38.3902143578
 20
39.6131749547
 30
0.0
 10
38.3693131809
 20
39.6120819702
 30
0.0
 10
38.3588951277
 20
39.6120819702
 30
0.0
 11
38.6584879156
 21
39.9127562744
 31
0.0
 11
38.6568649657
 21
39.8813175576
 31
0.0
 11
38.6519476605
 21
39.8500913248
 31
0.0
 11
38.6438035602
 21
39.819601312
 31
0.0
 11
38.6325857478
 21
39.7902929042
 31
0.0
 11
38.6183275525
 21
39.7622274736
 31
0.0
 11
38.6011633406
 21
39.7357396346
 31
0.0
 11
38.5813802381
 21
39.7112741118
 31
0.0
 11
38.5592834094
 21
39.6891417608
 31
0.0
 11
38.5348838831
 21
39.6693480651
 31
0.0
 11
38.5084964707
 21
39.6521921092
 31
0.0
 11
38.4805654749
 21
39.6379527304
 31
0.0
 11
38.451418742
 21
39.626754749
 31
0.0
 11
38.4211201488
 21
39.6186267862
 31
0.0
 11
38.3901066024
 21
39.6137148659
 31
0.0
 11
38.3588951277
 21
39.6120819702
 31
0.0
  0
SPLINE
  5
50C
100
AcDbEntity
  8
RACCORDO
100
AcDbSpline
 62
253
  6
CONTINUOUS
 70
0
 71
3
 72
23
 73
19
 74
17
 42
0.0000001
 43
0.0000001
 44
0.0000000001
 12
0.0631212937
 22
-0.1895705544
 32
0.0
 13
0.0000000518
 23
-0.1998031351
 33
0.0
 40
0.0
 40
0.0
 40
0.0
 40
0.0
 40
0.0096020493
 40
0.0280462855
 40
0.0552117228
 40
0.0908660949
 40
0.1346938063
 40
0.1863033606
 40
0.2452316609
 40
0.3109492923
 40
0.3828654024
 40
0.4603333628
 40
0.5426562833
 40
0.6290931622
 40
0.7188666563
 40
0.8111697276
 40
0.9051702336
 40
1.0
 40
1.0
 40
1.0
 40
1.0
 10
29.990586679
 20
5.5163510181
 30
0.0
 10
29.9907887102
 20
5.5157442628
 30
0.0
 10
29.9909780545
 20
5.5138657873
 30
0.0
 10
29.9913135773
 20
5.5102179313
 30
0.0
 10
29.9915949575
 20
5.5048051276
 30
0.0
 10
29.9918999324
 20
5.4977118506
 30
0.0
 10
29.9921841071
 20
5.4889843817
 30
0.0
 10
29.9924582425
 20
5.4787074887
 30
0.0
 10
29.9927139412
 20
5.4669713046
 30
0.0
 10
29.9929502443
 20
5.4538822182
 30
0.0
 10
29.9931642199
 20
5.4395577854
 30
0.0
 10
29.9933539626
 20
5.4241270126
 30
0.0
 10
29.9935176091
 20
5.4077287888
 30
0.0
 10
29.9936536331
 20
5.3905107276
 30
0.0
 10
29.9937607593
 20
5.3726277623
 30
0.0
 10
29.9938379911
 20
5.3542408936
 30
0.0
 10
29.9938846126
 20
5.3355171687
 30
0.0
 10
29.9938949848
 20
5.3229408727
 30
0.0
 10
29.9938949864
 20
5.3166251111
 30
0.0
 11
29.990586679
 21
5.5163510181
 31
0.0
 11
29.9909161436
 21
5.5144609995
 31
0.0
 11
29.9912410777
 21
5.5107901363
 31
0.0
 11
29.9915584819
 21
5.5053716853
 31
0.0
 11
29.9918654933
 21
5.4982544486
 31
0.0
 11
29.9921593508
 21
5.4895024664
 31
0.0
 11
29.9924374102
 21
5.4791944653
 31
0.0
 11
29.9926971674
 21
5.4674232718
 31
0.0
 11
29.9929362841
 21
5.4542948605
 31
0.0
 11
29.993152608
 21
5.4399274247
 31
0.0
 11
29.9933441927
 21
5.424450269
 31
0.0
 11
29.993509314
 21
5.4080027202
 31
0.0
 11
29.9936464853
 21
5.3907329056
 31
0.0
 11
29.9937544734
 21
5.3727962051
 31
0.0
 11
29.9938323069
 21
5.3543539263
 31
0.0
 11
29.9938792854
 21
5.3355723893
 31
0.0
 11
29.9938949864
 21
5.3166251111
 31
0.0
  0
SPLINE
  5
50D
100
AcDbEntity
  8
RACCORDO
100
AcDbSpline
 62
253
  6
CONTINUOUS
 70
0
 71
3
 72
23
 73
19
 74
17
 42
0.0000001
 43
0.0000001
 44
0.0000000001
 12
0.0000000518
 22
0.1998031351
 32
0.0
 13
0.0631212938
 23
0.1895705543
 33
0.0
 40
0.0
 40
0.0
 40
0.0
 40
0.0
 40
0.0948297664
 40
0.1888302723
 40
0.2811333437
 40
0.3709068378
 40
0.4573437167
 40
0.5396666372
 40
0.6171345976
 40
0.6890507077
 40
0.7547683391
 40
0.8136966394
 40
0.8653061937
 40
0.909133905
 40
0.9447882772
 40
0.9719537145
 40
0.9903979507
 40
1.0
 40
1.0
 40
1.0
 40
1.0
 10
30.8041852457
 20
5.3166251111
 30
0.0
 10
30.8041852473
 20
5.3229408727
 30
0.0
 10
30.8041956195
 20
5.3355171687
 30
0.0
 10
30.804242241
 20
5.3542408936
 30
0.0
 10
30.8043194728
 20
5.3726277623
 30
0.0
 10
30.804426599
 20
5.3905107276
 30
0.0
 10
30.804562623
 20
5.4077287888
 30
0.0
 10
30.8047262695
 20
5.4241270126
 30
0.0
 10
30.8049160122
 20
5.4395577854
 30
0.0
 10
30.8051299878
 20
5.4538822182
 30
0.0
 10
30.8053662909
 20
5.4669713046
 30
0.0
 10
30.8056219896
 20
5.4787074887
 30
0.0
 10
30.805896125
 20
5.4889843817
 30
0.0
 10
30.8061802997
 20
5.4977118506
 30
0.0
 10
30.8064852746
 20
5.5048051276
 30
0.0
 10
30.8067666548
 20
5.5102179313
 30
0.0
 10
30.8071021776
 20
5.5138657873
 30
0.0
 10
30.8072915219
 20
5.5157442628
 30
0.0
 10
30.8074935531
 20
5.5163510181
 30
0.0
 11
30.8041852457
 21
5.3166251111
 31
0.0
 11
30.8042009467
 21
5.3355723893
 31
0.0
 11
30.8042479252
 21
5.3543539263
 31
0.0
 11
30.8043257587
 21
5.3727962051
 31
0.0
 11
30.8044337468
 21
5.3907329056
 31
0.0
 11
30.8045709181
 21
5.4080027202
 31
0.0
 11
30.8047360394
 21
5.424450269
 31
0.0
 11
30.8049276241
 21
5.4399274247
 31
0.0
 11
30.805143948
 21
5.4542948605
 31
0.0
 11
30.8053830647
 21
5.4674232718
 31
0.0
 11
30.8056428219
 21
5.4791944653
 31
0.0
 11
30.8059208813
 21
5.4895024664
 31
0.0
 11
30.8062147388
 21
5.4982544486
 31
0.0
 11
30.8065217502
 21
5.5053716853
 31
0.0
 11
30.8068391544
 21
5.5107901363
 31
0.0
 11
30.8071640885
 21
5.5144609995
 31
0.0
 11
30.8074935531
 21
5.5163510181
 31
0.0
  0
SPLINE
  5
50E
100
AcDbEntity
  8
RACCORDO
100
AcDbSpline
 62
253
  6
CONTINUOUS
 70
0
 71
3
 72
23
 73
19
 74
17
 42
0.0000001
 43
0.0000001
 44
0.0000000001
 12
0.0631212937
 22
-0.1895705544
 32
0.0
 13
0.0000000518
 23
-0.1998031351
 33
0.0
 40
0.0
 40
0.0
 40
0.0
 40
0.0
 40
0.0096020493
 40
0.0280462855
 40
0.0552117228
 40
0.0908660949
 40
0.1346938063
 40
0.1863033606
 40
0.2452316609
 40
0.3109492923
 40
0.3828654024
 40
0.4603333628
 40
0.5426562833
 40
0.6290931622
 40
0.7188666563
 40
0.8111697276
 40
0.9051702336
 40
1.0
 40
1.0
 40
1.0
 40
1.0
 10
37.790586679
 20
5.5163510181
 30
0.0
 10
37.7907887102
 20
5.5157442628
 30
0.0
 10
37.7909780545
 20
5.5138657873
 30
0.0
 10
37.7913135773
 20
5.5102179313
 30
0.0
 10
37.7915949575
 20
5.5048051276
 30
0.0
 10
37.7918999324
 20
5.4977118506
 30
0.0
 10
37.7921841071
 20
5.4889843817
 30
0.0
 10
37.7924582425
 20
5.4787074887
 30
0.0
 10
37.7927139412
 20
5.4669713046
 30
0.0
 10
37.7929502443
 20
5.4538822182
 30
0.0
 10
37.7931642199
 20
5.4395577854
 30
0.0
 10
37.7933539626
 20
5.4241270126
 30
0.0
 10
37.7935176091
 20
5.4077287888
 30
0.0
 10
37.7936536331
 20
5.3905107276
 30
0.0
 10
37.7937607593
 20
5.3726277623
 30
0.0
 10
37.7938379911
 20
5.3542408936
 30
0.0
 10
37.7938846126
 20
5.3355171687
 30
0.0
 10
37.7938949848
 20
5.3229408727
 30
0.0
 10
37.7938949864
 20
5.3166251111
 30
0.0
 11
37.790586679
 21
5.5163510181
 31
0.0
 11
37.7909161436
 21
5.5144609995
 31
0.0
 11
37.7912410777
 21
5.5107901363
 31
0.0
 11
37.7915584819
 21
5.5053716853
 31
0.0
 11
37.7918654933
 21
5.4982544486
 31
0.0
 11
37.7921593508
 21
5.4895024664
 31
0.0
 11
37.7924374102
 21
5.4791944653
 31
0.0
 11
37.7926971674
 21
5.4674232718
 31
0.0
 11
37.7929362841
 21
5.4542948605
 31
0.0
 11
37.793152608
 21
5.4399274247
 31
0.0
 11
37.7933441927
 21
5.424450269
 31
0.0
 11
37.793509314
 21
5.4080027202
 31
0.0
 11
37.7936464853
 21
5.3907329056
 31
0.0
 11
37.7937544734
 21
5.3727962051
 31
0.0
 11
37.7938323069
 21
5.3543539263
 31
0.0
 11
37.7938792854
 21
5.3355723893
 31
0.0
 11
37.7938949864
 21
5.3166251111
 31
0.0
  0
SPLINE
  5
50F
100
AcDbEntity
  8
RACCORDO
100
AcDbSpline
 62
253
  6
CONTINUOUS
 70
0
 71
3
 72
23
 73
19
 74
17
 42
0.0000001
 43
0.0000001
 44
0.0000000001
 12
0.0000000518
 22
0.1998031351
 32
0.0
 13
0.0631212938
 23
0.1895705543
 33
0.0
 40
0.0
 40
0.0
 40
0.0
 40
0.0
 40
0.0948297664
 40
0.1888302723
 40
0.2811333437
 40
0.3709068378
 40
0.4573437167
 40
0.5396666372
 40
0.6171345976
 40
0.6890507077
 40
0.7547683391
 40
0.8136966394
 40
0.8653061937
 40
0.909133905
 40
0.9447882772
 40
0.9719537145
 40
0.9903979507
 40
1.0
 40
1.0
 40
1.0
 40
1.0
 10
38.6041852457
 20
5.3166251111
 30
0.0
 10
38.6041852473
 20
5.3229408727
 30
0.0
 10
38.6041956195
 20
5.3355171687
 30
0.0
 10
38.604242241
 20
5.3542408936
 30
0.0
 10
38.6043194728
 20
5.3726277623
 30
0.0
 10
38.604426599
 20
5.3905107276
 30
0.0
 10
38.604562623
 20
5.4077287888
 30
0.0
 10
38.6047262695
 20
5.4241270126
 30
0.0
 10
38.6049160122
 20
5.4395577854
 30
0.0
 10
38.6051299878
 20
5.4538822182
 30
0.0
 10
38.6053662909
 20
5.4669713046
 30
0.0
 10
38.6056219896
 20
5.4787074887
 30
0.0
 10
38.605896125
 20
5.4889843817
 30
0.0
 10
38.6061802997
 20
5.4977118506
 30
0.0
 10
38.6064852746
 20
5.5048051276
 30
0.0
 10
38.6067666548
 20
5.5102179313
 30
0.0
 10
38.6071021776
 20
5.5138657873
 30
0.0
 10
38.6072915219
 20
5.5157442628
 30
0.0
 10
38.6074935531
 20
5.5163510181
 30
0.0
 11
38.6041852457
 21
5.3166251111
 31
0.0
 11
38.6042009467
 21
5.3355723893
 31
0.0
 11
38.6042479252
 21
5.3543539263
 31
0.0
 11
38.6043257587
 21
5.3727962051
 31
0.0
 11
38.6044337468
 21
5.3907329056
 31
0.0
 11
38.6045709181
 21
5.4080027202
 31
0.0
 11
38.6047360394
 21
5.424450269
 31
0.0
 11
38.6049276241
 21
5.4399274247
 31
0.0
 11
38.605143948
 21
5.4542948605
 31
0.0
 11
38.6053830647
 21
5.4674232718
 31
0.0
 11
38.6056428219
 21
5.4791944653
 31
0.0
 11
38.6059208813
 21
5.4895024664
 31
0.0
 11
38.6062147388
 21
5.4982544486
 31
0.0
 11
38.6065217502
 21
5.5053716853
 31
0.0
 11
38.6068391544
 21
5.5107901363
 31
0.0
 11
38.6071640885
 21
5.5144609995
 31
0.0
 11
38.6074935531
 21
5.5163510181
 31
0.0
  0
SPLINE
  5
510
100
AcDbEntity
  8
RACCORDO
100
AcDbSpline
 62
253
  6
CONTINUOUS
 70
0
 71
3
 72
23
 73
19
 74
17
 42
0.0000001
 43
0.0000001
 44
0.0000000001
 12
-0.0631212937
 22
0.1895705544
 32
0.0
 13
-0.0000000518
 23
0.1998031351
 33
0.0
 40
0.0
 40
0.0
 40
0.0
 40
0.0
 40
0.0096020493
 40
0.0280462855
 40
0.0552117228
 40
0.0908660949
 40
0.1346938063
 40
0.1863033606
 40
0.2452316609
 40
0.3109492923
 40
0.3828654024
 40
0.4603333628
 40
0.5426562833
 40
0.6290931622
 40
0.7188666563
 40
0.8111697276
 40
0.9051702336
 40
1.0
 40
1.0
 40
1.0
 40
1.0
 10
30.8074935531
 20
40.0658637709
 30
0.0
 10
30.8072915219
 20
40.0664705262
 30
0.0
 10
30.8071021776
 20
40.0683490017
 30
0.0
 10
30.8067666548
 20
40.0719968577
 30
0.0
 10
30.8064852746
 20
40.0774096614
 30
0.0
 10
30.8061802997
 20
40.0845029384
 30
0.0
 10
30.805896125
 20
40.0932304073
 30
0.0
 10
30.8056219896
 20
40.1035073003
 30
0.0
 10
30.8053662909
 20
40.1152434844
 30
0.0
 10
30.8051299878
 20
40.1283325708
 30
0.0
 10
30.8049160122
 20
40.1426570036
 30
0.0
 10
30.8047262695
 20
40.1580877764
 30
0.0
 10
30.804562623
 20
40.1744860002
 30
0.0
 10
30.804426599
 20
40.1917040614
 30
0.0
 10
30.8043194728
 20
40.2095870267
 30
0.0
 10
30.804242241
 20
40.2279738954
 30
0.0
 10
30.8041956195
 20
40.2466976203
 30
0.0
 10
30.8041852473
 20
40.2592739163
 30
0.0
 10
30.8041852457
 20
40.2655896779
 30
0.0
 11
30.8074935531
 21
40.0658637709
 31
0.0
 11
30.8071640885
 21
40.0677537895
 31
0.0
 11
30.8068391544
 21
40.0714246527
 31
0.0
 11
30.8065217502
 21
40.0768431037
 31
0.0
 11
30.8062147388
 21
40.0839603404
 31
0.0
 11
30.8059208813
 21
40.0927123226
 31
0.0
 11
30.8056428219
 21
40.1030203237
 31
0.0
 11
30.8053830647
 21
40.1147915172
 31
0.0
 11
30.805143948
 21
40.1279199285
 31
0.0
 11
30.8049276241
 21
40.1422873643
 31
0.0
 11
30.8047360394
 21
40.15776452
 31
0.0
 11
30.8045709181
 21
40.1742120688
 31
0.0
 11
30.8044337468
 21
40.1914818834
 31
0.0
 11
30.8043257587
 21
40.2094185839
 31
0.0
 11
30.8042479252
 21
40.2278608627
 31
0.0
 11
30.8042009467
 21
40.2466423997
 31
0.0
 11
30.8041852457
 21
40.2655896779
 31
0.0
  0
SPLINE
  5
511
100
AcDbEntity
  8
RACCORDO
100
AcDbSpline
 62
253
  6
CONTINUOUS
 70
0
 71
3
 72
23
 73
19
 74
17
 42
0.0000001
 43
0.0000001
 44
0.0000000001
 12
-0.0000000518
 22
-0.1998031351
 32
0.0
 13
-0.0631212938
 23
-0.1895705543
 33
0.0
 40
0.0
 40
0.0
 40
0.0
 40
0.0
 40
0.0948297664
 40
0.1888302723
 40
0.2811333437
 40
0.3709068378
 40
0.4573437167
 40
0.5396666372
 40
0.6171345976
 40
0.6890507077
 40
0.7547683391
 40
0.8136966394
 40
0.8653061937
 40
0.909133905
 40
0.9447882772
 40
0.9719537145
 40
0.9903979507
 40
1.0
 40
1.0
 40
1.0
 40
1.0
 10
29.9938949864
 20
40.2655896779
 30
0.0
 10
29.9938949848
 20
40.2592739163
 30
0.0
 10
29.9938846126
 20
40.2466976203
 30
0.0
 10
29.9938379911
 20
40.2279738954
 30
0.0
 10
29.9937607593
 20
40.2095870267
 30
0.0
 10
29.9936536331
 20
40.1917040614
 30
0.0
 10
29.9935176091
 20
40.1744860002
 30
0.0
 10
29.9933539626
 20
40.1580877764
 30
0.0
 10
29.9931642199
 20
40.1426570036
 30
0.0
 10
29.9929502443
 20
40.1283325708
 30
0.0
 10
29.9927139412
 20
40.1152434844
 30
0.0
 10
29.9924582425
 20
40.1035073003
 30
0.0
 10
29.9921841071
 20
40.0932304073
 30
0.0
 10
29.9918999324
 20
40.0845029384
 30
0.0
 10
29.9915949575
 20
40.0774096614
 30
0.0
 10
29.9913135773
 20
40.0719968577
 30
0.0
 10
29.9909780545
 20
40.0683490017
 30
0.0
 10
29.9907887102
 20
40.0664705262
 30
0.0
 10
29.990586679
 20
40.0658637709
 30
0.0
 11
29.9938949864
 21
40.2655896779
 31
0.0
 11
29.9938792854
 21
40.2466423997
 31
0.0
 11
29.9938323069
 21
40.2278608627
 31
0.0
 11
29.9937544734
 21
40.2094185839
 31
0.0
 11
29.9936464853
 21
40.1914818834
 31
0.0
 11
29.993509314
 21
40.1742120688
 31
0.0
 11
29.9933441927
 21
40.15776452
 31
0.0
 11
29.993152608
 21
40.1422873643
 31
0.0
 11
29.9929362841
 21
40.1279199285
 31
0.0
 11
29.9926971674
 21
40.1147915172
 31
0.0
 11
29.9924374102
 21
40.1030203237
 31
0.0
 11
29.9921593508
 21
40.0927123226
 31
0.0
 11
29.9918654933
 21
40.0839603404
 31
0.0
 11
29.9915584819
 21
40.0768431037
 31
0.0
 11
29.9912410777
 21
40.0714246527
 31
0.0
 11
29.9909161436
 21
40.0677537895
 31
0.0
 11
29.990586679
 21
40.0658637709
 31
0.0
  0
SPLINE
  5
512
100
AcDbEntity
  8
RACCORDO
100
AcDbSpline
 62
253
  6
CONTINUOUS
 70
0
 71
3
 72
23
 73
19
 74
17
 42
0.0000001
 43
0.0000001
 44
0.0000000001
 12
-0.0631212937
 22
0.1895705544
 32
0.0
 13
-0.0000000518
 23
0.1998031351
 33
0.0
 40
0.0
 40
0.0
 40
0.0
 40
0.0
 40
0.0096020493
 40
0.0280462855
 40
0.0552117228
 40
0.0908660949
 40
0.1346938063
 40
0.1863033606
 40
0.2452316609
 40
0.3109492923
 40
0.3828654024
 40
0.4603333628
 40
0.5426562833
 40
0.6290931622
 40
0.7188666563
 40
0.8111697276
 40
0.9051702336
 40
1.0
 40
1.0
 40
1.0
 40
1.0
 10
38.6074935531
 20
40.0658637709
 30
0.0
 10
38.6072915219
 20
40.0664705262
 30
0.0
 10
38.6071021776
 20
40.0683490017
 30
0.0
 10
38.6067666548
 20
40.0719968577
 30
0.0
 10
38.6064852746
 20
40.0774096614
 30
0.0
 10
38.6061802997
 20
40.0845029384
 30
0.0
 10
38.605896125
 20
40.0932304073
 30
0.0
 10
38.6056219896
 20
40.1035073003
 30
0.0
 10
38.6053662909
 20
40.1152434844
 30
0.0
 10
38.6051299878
 20
40.1283325708
 30
0.0
 10
38.6049160122
 20
40.1426570036
 30
0.0
 10
38.6047262695
 20
40.1580877764
 30
0.0
 10
38.604562623
 20
40.1744860002
 30
0.0
 10
38.604426599
 20
40.1917040614
 30
0.0
 10
38.6043194728
 20
40.2095870267
 30
0.0
 10
38.604242241
 20
40.2279738954
 30
0.0
 10
38.6041956195
 20
40.2466976203
 30
0.0
 10
38.6041852473
 20
40.2592739163
 30
0.0
 10
38.6041852457
 20
40.2655896779
 30
0.0
 11
38.6074935531
 21
40.0658637709
 31
0.0
 11
38.6071640885
 21
40.0677537895
 31
0.0
 11
38.6068391544
 21
40.0714246527
 31
0.0
 11
38.6065217502
 21
40.0768431037
 31
0.0
 11
38.6062147388
 21
40.0839603404
 31
0.0
 11
38.6059208813
 21
40.0927123226
 31
0.0
 11
38.6056428219
 21
40.1030203237
 31
0.0
 11
38.6053830647
 21
40.1147915172
 31
0.0
 11
38.605143948
 21
40.1279199285
 31
0.0
 11
38.6049276241
 21
40.1422873643
 31
0.0
 11
38.6047360394
 21
40.15776452
 31
0.0
 11
38.6045709181
 21
40.1742120688
 31
0.0
 11
38.6044337468
 21
40.1914818834
 31
0.0
 11
38.6043257587
 21
40.2094185839
 31
0.0
 11
38.6042479252
 21
40.2278608627
 31
0.0
 11
38.6042009467
 21
40.2466423997
 31
0.0
 11
38.6041852457
 21
40.2655896779
 31
0.0
  0
SPLINE
  5
513
100
AcDbEntity
  8
RACCORDO
100
AcDbSpline
 62
253
  6
CONTINUOUS
 70
0
 71
3
 72
23
 73
19
 74
17
 42
0.0000001
 43
0.0000001
 44
0.0000000001
 12
-0.0000000518
 22
-0.1998031351
 32
0.0
 13
-0.0631212938
 23
-0.1895705543
 33
0.0
 40
0.0
 40
0.0
 40
0.0
 40
0.0
 40
0.0948297664
 40
0.1888302723
 40
0.2811333437
 40
0.3709068378
 40
0.4573437167
 40
0.5396666372
 40
0.6171345976
 40
0.6890507077
 40
0.7547683391
 40
0.8136966394
 40
0.8653061937
 40
0.909133905
 40
0.9447882772
 40
0.9719537145
 40
0.9903979507
 40
1.0
 40
1.0
 40
1.0
 40
1.0
 10
37.7938949864
 20
40.2655896779
 30
0.0
 10
37.7938949848
 20
40.2592739163
 30
0.0
 10
37.7938846126
 20
40.2466976203
 30
0.0
 10
37.7938379911
 20
40.2279738954
 30
0.0
 10
37.7937607593
 20
40.2095870267
 30
0.0
 10
37.7936536331
 20
40.1917040614
 30
0.0
 10
37.7935176091
 20
40.1744860002
 30
0.0
 10
37.7933539626
 20
40.1580877764
 30
0.0
 10
37.7931642199
 20
40.1426570036
 30
0.0
 10
37.7929502443
 20
40.1283325708
 30
0.0
 10
37.7927139412
 20
40.1152434844
 30
0.0
 10
37.7924582425
 20
40.1035073003
 30
0.0
 10
37.7921841071
 20
40.0932304073
 30
0.0
 10
37.7918999324
 20
40.0845029384
 30
0.0
 10
37.7915949575
 20
40.0774096614
 30
0.0
 10
37.7913135773
 20
40.0719968577
 30
0.0
 10
37.7909780545
 20
40.0683490017
 30
0.0
 10
37.7907887102
 20
40.0664705262
 30
0.0
 10
37.790586679
 20
40.0658637709
 30
0.0
 11
37.7938949864
 21
40.2655896779
 31
0.0
 11
37.7938792854
 21
40.2466423997
 31
0.0
 11
37.7938323069
 21
40.2278608627
 31
0.0
 11
37.7937544734
 21
40.2094185839
 31
0.0
 11
37.7936464853
 21
40.1914818834
 31
0.0
 11
37.793509314
 21
40.1742120688
 31
0.0
 11
37.7933441927
 21
40.15776452
 31
0.0
 11
37.793152608
 21
40.1422873643
 31
0.0
 11
37.7929362841
 21
40.1279199285
 31
0.0
 11
37.7926971674
 21
40.1147915172
 31
0.0
 11
37.7924374102
 21
40.1030203237
 31
0.0
 11
37.7921593508
 21
40.0927123226
 31
0.0
 11
37.7918654933
 21
40.0839603404
 31
0.0
 11
37.7915584819
 21
40.0768431037
 31
0.0
 11
37.7912410777
 21
40.0714246527
 31
0.0
 11
37.7909161436
 21
40.0677537895
 31
0.0
 11
37.790586679
 21
40.0658637709
 31
0.0
  0
ELLIPSE
  5
514
100
AcDbEntity
  8
RACCORDO
100
AcDbEllipse
 62
7
  6
CONTINUOUS
 10
0.7101328433
 20
25.8715575789
 30
0.0
 11
0.0
 21
0.5
 31
0.0
 40
0.0174550649
 41
-1.5707963268
 42
-0.1745329252
  0
ELLIPSE
  5
515
100
AcDbEntity
  8
RACCORDO
100
AcDbEllipse
 62
7
  6
CONTINUOUS
 10
0.7101328433
 20
19.7106572101
 30
0.0
 11
0.0
 21
0.5
 31
0.0
 40
0.0174550649
 41
-2.9670597284
 42
-1.5707963268
  0
ELLIPSE
  5
516
100
AcDbEntity
  8
RACCORDO
100
AcDbEllipse
 62
7
  6
CONTINUOUS
 10
22.1749767073
 20
1.4140883196
 30
0.0
 11
0.2531825638
 21
-0.7601653717
 31
0.0
 40
0.9984778551
 41
-0.3210503505
 42
1.2488325878
  0
ELLIPSE
  5
517
100
AcDbEntity
  8
RACCORDO
100
AcDbEllipse
 62
7
  6
CONTINUOUS
 10
22.1749767073
 20
44.1681264694
 30
0.0
 11
-0.2531825638
 21
-0.7601653717
 31
-0.0
 40
0.9984778551
 41
1.8927600658
 42
3.4626430041
  0
ELLIPSE
  5
518
100
AcDbEntity
  8
RACCORDO
100
AcDbEllipse
 62
7
  6
CONTINUOUS
 10
1.4731035248
 20
44.1681264694
 30
0.0
 11
-0.2531825638
 21
0.7601653717
 31
-0.0
 40
0.9984778551
 41
-0.3210503505
 42
1.2488325878
  0
ELLIPSE
  5
519
100
AcDbEntity
  8
RACCORDO
100
AcDbEllipse
 62
7
  6
CONTINUOUS
 10
0.6577676485
 20
18.1662496561
 30
0.0
 11
0.0
 21
0.5
 31
0.0
 40
0.0174550649
 41
0.1745329252
 42
1.5707963268
  0
ELLIPSE
  5
51A
100
AcDbEntity
  8
RACCORDO
100
AcDbEllipse
 62
7
  6
CONTINUOUS
 10
0.6577676485
 20
27.4159651329
 30
0.0
 11
0.0
 21
0.5
 31
0.0
 40
0.0174550649
 41
-4.7123889804
 42
-3.3161255788
  0
ELLIPSE
  5
51B
100
AcDbEntity
  8
DRAFT
100
AcDbEllipse
 62
7
  6
CONTINUOUS
 10
31.6043871257
 20
22.7911073945
 30
0.0
 11
0.0
 21
498.0
 31
0.0
 40
0.0174550649
 41
1.5307401744
 42
1.6107049007
  0
ELLIPSE
  5
51C
100
AcDbEntity
  8
RACCORDO
100
AcDbEllipse
 62
7
  6
CONTINUOUS
 10
1.4731035248
 20
1.4140883196
 30
0.0
 11
0.2531825638
 21
0.7601653717
 31
0.0
 40
0.9984778551
 41
1.8927600658
 42
3.4626430041
  0
ELLIPSE
  5
51D
100
AcDbEntity
  8
RACCORDO
100
AcDbEllipse
 62
7
  6
CONTINUOUS
 10
8.0042309371
 20
2.3406821751
 30
0.0
 11
0.3
 21
0.0
 31
0.0
 40
0.0524077793
 41
-1.5707963268
 42
-0.0174532925
  0
ELLIPSE
  5
51E
100
AcDbEntity
  8
RACCORDO
100
AcDbEllipse
 62
7
  6
CONTINUOUS
 10
15.593849295
 20
2.3406821751
 30
0.0
 11
0.3
 21
-0.0
 31
0.0
 40
0.0524077793
 41
-3.1241393611
 42
-1.5707963268
  0
ELLIPSE
  5
51F
100
AcDbEntity
  8
DRAFT
100
AcDbEllipse
 62
7
  6
CONTINUOUS
 10
7.3808548727
 20
22.7911073945
 30
0.0
 11
0.0
 21
498.3
 31
0.0
 40
0.0174550649
 41
-1.5517867575
 42
-1.5496674575
  0
ELLIPSE
  5
520
100
AcDbEntity
  8
RACCORDO
100
AcDbEllipse
 62
7
  6
CONTINUOUS
 10
15.8042309371
 20
2.3406821751
 30
0.0
 11
0.3
 21
-0.0
 31
0.0
 40
0.0524077793
 41
-1.5707963268
 42
-0.0174532925
  0
ELLIPSE
  5
521
100
AcDbEntity
  8
DRAFT
100
AcDbEllipse
 62
7
  6
CONTINUOUS
 10
21.7172253594
 20
22.7911073945
 30
0.0
 11
0.0
 21
498.3
 31
0.0
 40
0.0174550649
 41
1.5496674575
 42
1.5517867575
  0
ELLIPSE
  5
522
100
AcDbEntity
  8
RACCORDO
100
AcDbEllipse
 62
7
  6
CONTINUOUS
 10
15.593849295
 20
43.2415326139
 30
0.0
 11
0.3
 21
-0.0
 31
0.0
 40
0.0524077793
 41
1.5707963268
 42
3.1241393611
  0
ELLIPSE
  5
523
100
AcDbEntity
  8
DRAFT
100
AcDbEllipse
 62
7
  6
CONTINUOUS
 10
7.3808548727
 20
22.7911073945
 30
0.0
 11
0.0
 21
498.3
 31
0.0
 40
0.0174550649
 41
-1.591925196
 42
-1.5898058961
  0
ELLIPSE
  5
524
100
AcDbEntity
  8
DRAFT
100
AcDbEllipse
 62
7
  6
CONTINUOUS
 10
21.7172253594
 20
22.7911073945
 30
0.0
 11
0.0
 21
498.3
 31
0.0
 40
0.0174550649
 41
-4.6933794111
 42
-4.6912601111
  0
ELLIPSE
  5
525
100
AcDbEntity
  8
RACCORDO
100
AcDbEllipse
 62
7
  6
CONTINUOUS
 10
15.8042309371
 20
43.2415326139
 30
0.0
 11
0.3
 21
-0.0
 31
0.0
 40
0.0524077793
 41
0.0174532925
 42
1.5707963268
  0
ELLIPSE
  5
526
100
AcDbEntity
  8
RACCORDO
100
AcDbEllipse
 62
7
  6
CONTINUOUS
 10
7.793849295
 20
43.2415326139
 30
0.0
 11
0.3
 21
0.0
 31
0.0
 40
0.0524077793
 41
1.5707963268
 42
3.1241393611
  0
ELLIPSE
  5
527
100
AcDbEntity
  8
RACCORDO
100
AcDbEllipse
 62
7
  6
CONTINUOUS
 10
16.1323152295
 20
22.7911073945
 30
0.0
 11
0.0
 21
498.3
 31
0.0
 40
0.0174550649
 41
1.5300587804
 42
1.53642944
  0
ELLIPSE
  5
528
100
AcDbEntity
  8
RACCORDO
100
AcDbEllipse
 62
7
  6
CONTINUOUS
 10
-0.3342349974
 20
22.7911073945
 30
0.0
 11
0.0
 21
498.3
 31
0.0
 40
0.0174550649
 41
-1.53642944
 42
-1.5300587804
  0
ELLIPSE
  5
529
100
AcDbEntity
  8
RACCORDO
100
AcDbEllipse
 62
7
  6
CONTINUOUS
 10
23.9323152295
 20
22.7911073945
 30
0.0
 11
0.0
 21
498.3
 31
0.0
 40
0.0174550649
 41
1.5300587804
 42
1.53642944
  0
ELLIPSE
  5
52A
100
AcDbEntity
  8
RACCORDO
100
AcDbEllipse
 62
7
  6
CONTINUOUS
 10
8.0042309371
 20
43.2415326139
 30
0.0
 11
0.3
 21
0.0
 31
0.0
 40
0.0524077793
 41
0.0174532925
 42
1.5707963268
  0
ELLIPSE
  5
52B
100
AcDbEntity
  8
RACCORDO
100
AcDbEllipse
 62
7
  6
CONTINUOUS
 10
7.4657650026
 20
22.7911073945
 30
0.0
 11
0.0
 21
498.3
 31
0.0
 40
0.0174550649
 41
-1.53642944
 42
-1.5300587804
  0
ELLIPSE
  5
52C
100
AcDbEntity
  8
RACCORDO
100
AcDbEllipse
 62
7
  6
CONTINUOUS
 10
7.4657650026
 20
22.7911073945
 30
0.0
 11
0.0
 21
498.3
 31
0.0
 40
0.0174550649
 41
-1.6115338732
 42
-1.6051632136
  0
ELLIPSE
  5
52D
100
AcDbEntity
  8
RACCORDO
100
AcDbEllipse
 62
7
  6
CONTINUOUS
 10
23.9323152295
 20
22.7911073945
 30
0.0
 11
0.0
 21
498.3
 31
0.0
 40
0.0174550649
 41
-4.6780220936
 42
-4.671651434
  0
ELLIPSE
  5
52E
100
AcDbEntity
  8
RACCORDO
100
AcDbEllipse
 62
7
  6
CONTINUOUS
 10
2.0795841533
 20
25.8715575789
 30
0.0
 11
0.0
 21
0.5
 31
0.0
 40
0.0087268678
 41
-1.5707963268
 42
-0.1745329252
  0
ELLIPSE
  5
52F
100
AcDbEntity
  8
RACCORDO
100
AcDbEllipse
 62
7
  6
CONTINUOUS
 10
-0.3342349974
 20
22.7911073945
 30
0.0
 11
0.0
 21
498.3
 31
0.0
 40
0.0174550649
 41
-1.6115338732
 42
-1.6051632136
  0
ELLIPSE
  5
530
100
AcDbEntity
  8
RACCORDO
100
AcDbEllipse
 62
7
  6
CONTINUOUS
 10
2.0795841533
 20
19.7106572101
 30
0.0
 11
-0.0
 21
0.5
 31
0.0
 40
0.0087268678
 41
-2.9670597284
 42
-1.5707963268
  0
ELLIPSE
  5
531
100
AcDbEntity
  8
DRAFT
100
AcDbEllipse
 62
7
  6
CONTINUOUS
 10
25.9013859369
 20
22.7911073945
 30
0.0
 11
0.0
 21
498.0
 31
0.0
 40
0.0087268678
 41
-4.7073787271
 42
-4.6724804065
  0
ELLIPSE
  5
532
100
AcDbEntity
  8
RACCORDO
100
AcDbEllipse
 62
7
  6
CONTINUOUS
 10
7.793849295
 20
2.3406821751
 30
0.0
 11
0.3
 21
-0.0
 31
0.0
 40
0.0524077793
 41
-3.1241393611
 42
-1.5707963268
  0
ELLIPSE
  5
533
100
AcDbEntity
  8
DRAFT
100
AcDbEllipse
 62
7
  6
CONTINUOUS
 10
25.9013859369
 20
22.7911073945
 30
0.0
 11
0.0
 21
498.0
 31
0.0
 40
0.0087268678
 41
1.5307401744
 42
1.5657860735
  0
ELLIPSE
  5
534
100
AcDbEntity
  8
RACCORDO
100
AcDbEllipse
 62
7
  6
CONTINUOUS
 10
16.1323152295
 20
22.7911073945
 30
0.0
 11
0.0
 21
498.3
 31
0.0
 40
0.0174550649
 41
-4.6780220936
 42
-4.671651434
  0
ELLIPSE
  5
535
100
AcDbEntity
  8
DRAFT
100
AcDbEllipse
 62
7
  6
CONTINUOUS
 10
25.9013859369
 20
22.7911073945
 30
0.0
 11
0.0
 21
498.3
 31
0.0
 40
0.0087268678
 41
-4.7073820189
 42
-4.671651434
  0
ELLIPSE
  5
536
100
AcDbEntity
  8
DRAFT
100
AcDbEllipse
 62
7
  6
CONTINUOUS
 10
25.9013859369
 20
22.7911073945
 30
0.0
 11
0.0
 21
498.3
 31
0.0
 40
0.0087268678
 41
1.5300587804
 42
1.5657893653
  0
ELLIPSE
  5
537
100
AcDbEntity
  8
RACCORDO
100
AcDbEllipse
 62
7
  6
CONTINUOUS
 10
2.0534035499
 20
27.4159651329
 30
0.0
 11
0.0
 21
0.5
 31
0.0
 40
0.0087268678
 41
-4.7123889804
 42
-3.3161255788
  0
ELLIPSE
  5
538
100
AcDbEntity
  8
DRAFT
100
AcDbEllipse
 62
7
  6
CONTINUOUS
 10
-2.2533057048
 20
22.7911073945
 30
0.0
 11
0.0
 21
498.3
 31
0.0
 40
0.0087268678
 41
-1.6115338732
 42
-1.5300587804
  0
ELLIPSE
  5
539
100
AcDbEntity
  8
RACCORDO
100
AcDbEllipse
 62
7
  6
CONTINUOUS
 10
2.0534035499
 20
18.1662496561
 30
0.0
 11
0.0
 21
0.5
 31
0.0
 40
0.0087268678
 41
0.1745329252
 42
1.5707963268
  0
ELLIPSE
  5
53A
100
AcDbEntity
  8
RACCORDO
100
AcDbEllipse
 62
7
  6
CONTINUOUS
 10
16.0579213176
 20
32.7911073945
 30
0.0
 11
0.0
 21
0.5088036965
 31
0.0
 40
0.0174550649
 41
0.0174532925
 42
3.1241393611
  0
ELLIPSE
  5
53B
100
AcDbEntity
  8
RACCORDO
100
AcDbEllipse
 62
7
  6
CONTINUOUS
 10
13.0401589145
 20
32.7911073945
 30
0.0
 11
0.0
 21
0.5088036965
 31
0.0
 40
0.0174550649
 41
-3.1241393611
 42
-0.0174532925
  0
ELLIPSE
  5
53C
100
AcDbEntity
  8
RACCORDO
100
AcDbEllipse
 62
7
  6
CONTINUOUS
 10
13.0401589145
 20
12.7911073945
 30
0.0
 11
0.0
 21
0.5088036965
 31
0.0
 40
0.0174550649
 41
-3.1241393611
 42
-0.0174532925
  0
ELLIPSE
  5
53D
100
AcDbEntity
  8
RACCORDO
100
AcDbEllipse
 62
7
  6
CONTINUOUS
 10
16.0579213176
 20
12.7911073945
 30
0.0
 11
0.0
 21
0.5088036965
 31
0.0
 40
0.0174550649
 41
0.0174532925
 42
3.1241393611
  0
ELLIPSE
  5
53E
100
AcDbEntity
  8
RACCORDO
100
AcDbEllipse
 62
7
  6
CONTINUOUS
 10
45.3879473888
 20
19.7106572101
 30
0.0
 11
-0.0
 21
0.5
 31
0.0
 40
0.0174550649
 41
-4.7123889804
 42
-3.3161255788
  0
ELLIPSE
  5
53F
100
AcDbEntity
  8
RACCORDO
100
AcDbEllipse
 62
7
  6
CONTINUOUS
 10
45.3879473888
 20
25.8715575789
 30
0.0
 11
0.0
 21
0.5
 31
0.0
 40
0.0174550649
 41
0.1745329252
 42
1.5707963268
  0
ELLIPSE
  5
540
100
AcDbEntity
  8
RACCORDO
100
AcDbEllipse
 62
7
  6
CONTINUOUS
 10
23.9231035248
 20
44.1681264694
 30
0.0
 11
-0.2531825638
 21
0.7601653717
 31
-0.0
 40
0.9984778551
 41
-0.3210503505
 42
1.2488325878
  0
ELLIPSE
  5
541
100
AcDbEntity
  8
RACCORDO
100
AcDbEllipse
 62
7
  6
CONTINUOUS
 10
23.9231035248
 20
1.4140883196
 30
0.0
 11
0.2531825638
 21
0.7601653717
 31
0.0
 40
0.9984778551
 41
1.8927600658
 42
3.4626430041
  0
ELLIPSE
  5
542
100
AcDbEntity
  8
RACCORDO
100
AcDbEllipse
 62
7
  6
CONTINUOUS
 10
44.6249767073
 20
1.4140883196
 30
0.0
 11
0.2531825638
 21
-0.7601653717
 31
0.0
 40
0.9984778551
 41
-0.3210503505
 42
1.2488325878
  0
ELLIPSE
  5
543
100
AcDbEntity
  8
RACCORDO
100
AcDbEllipse
 62
7
  6
CONTINUOUS
 10
45.4403125836
 20
27.4159651329
 30
0.0
 11
-0.0
 21
0.5
 31
0.0
 40
0.0174550649
 41
-2.9670597284
 42
-1.5707963268
  0
ELLIPSE
  5
544
100
AcDbEntity
  8
RACCORDO
100
AcDbEllipse
 62
7
  6
CONTINUOUS
 10
45.4403125836
 20
18.1662496561
 30
0.0
 11
-0.0
 21
0.5
 31
0.0
 40
0.0174550649
 41
-1.5707963268
 42
-0.1745329252
  0
ELLIPSE
  5
545
100
AcDbEntity
  8
DRAFT
100
AcDbEllipse
 62
7
  6
CONTINUOUS
 10
14.4936931064
 20
22.7911073945
 30
0.0
 11
0.0
 21
498.0
 31
0.0
 40
0.0174550649
 41
-1.6108524791
 42
-1.5308877529
  0
ELLIPSE
  5
546
100
AcDbEntity
  8
RACCORDO
100
AcDbEllipse
 62
7
  6
CONTINUOUS
 10
44.6249767073
 20
44.1681264694
 30
0.0
 11
-0.2531825638
 21
-0.7601653717
 31
-0.0
 40
0.9984778551
 41
1.8927600658
 42
3.4626430041
  0
ELLIPSE
  5
547
100
AcDbEntity
  8
RACCORDO
100
AcDbEllipse
 62
7
  6
CONTINUOUS
 10
38.093849295
 20
43.2415326139
 30
0.0
 11
0.3
 21
-0.0
 31
0.0
 40
0.0524077793
 41
1.5707963268
 42
3.1241393611
  0
ELLIPSE
  5
548
100
AcDbEntity
  8
RACCORDO
100
AcDbEllipse
 62
7
  6
CONTINUOUS
 10
30.5042309371
 20
43.2415326139
 30
0.0
 11
0.3
 21
0.0
 31
0.0
 40
0.0524077793
 41
0.0174532925
 42
1.5707963268
  0
ELLIPSE
  5
549
100
AcDbEntity
  8
DRAFT
100
AcDbEllipse
 62
7
  6
CONTINUOUS
 10
38.7172253594
 20
22.7911073945
 30
0.0
 11
0.0
 21
498.3
 31
0.0
 40
0.0174550649
 41
-4.6933794111
 42
-4.6912601111
  0
ELLIPSE
  5
54A
100
AcDbEntity
  8
RACCORDO
100
AcDbEllipse
 62
7
  6
CONTINUOUS
 10
30.293849295
 20
43.2415326139
 30
0.0
 11
0.3
 21
0.0
 31
0.0
 40
0.0524077793
 41
1.5707963268
 42
3.1241393611
  0
ELLIPSE
  5
54B
100
AcDbEntity
  8
DRAFT
100
AcDbEllipse
 62
7
  6
CONTINUOUS
 10
24.3808548727
 20
22.7911073945
 30
0.0
 11
0.0
 21
498.3
 31
0.0
 40
0.0174550649
 41
-1.591925196
 42
-1.5898058961
  0
ELLIPSE
  5
54C
100
AcDbEntity
  8
RACCORDO
100
AcDbEllipse
 62
7
  6
CONTINUOUS
 10
30.5042309371
 20
2.3406821751
 30
0.0
 11
0.3
 21
-0.0
 31
0.0
 40
0.0524077793
 41
-1.5707963268
 42
-0.0174532925
  0
ELLIPSE
  5
54D
100
AcDbEntity
  8
DRAFT
100
AcDbEllipse
 62
7
  6
CONTINUOUS
 10
38.7172253594
 20
22.7911073945
 30
0.0
 11
0.0
 21
498.3
 31
0.0
 40
0.0174550649
 41
1.5496674575
 42
1.5517867575
  0
ELLIPSE
  5
54E
100
AcDbEntity
  8
DRAFT
100
AcDbEllipse
 62
7
  6
CONTINUOUS
 10
24.3808548727
 20
22.7911073945
 30
0.0
 11
0.0
 21
498.3
 31
0.0
 40
0.0174550649
 41
-1.5517867575
 42
-1.5496674575
  0
ELLIPSE
  5
54F
100
AcDbEntity
  8
RACCORDO
100
AcDbEllipse
 62
7
  6
CONTINUOUS
 10
30.293849295
 20
2.3406821751
 30
0.0
 11
0.3
 21
-0.0
 31
0.0
 40
0.0524077793
 41
-3.1241393611
 42
-1.5707963268
  0
ELLIPSE
  5
550
100
AcDbEntity
  8
RACCORDO
100
AcDbEllipse
 62
7
  6
CONTINUOUS
 10
38.3042309371
 20
2.3406821751
 30
0.0
 11
0.3
 21
0.0
 31
0.0
 40
0.0524077793
 41
-1.5707963268
 42
-0.0174532925
  0
ELLIPSE
  5
551
100
AcDbEntity
  8
RACCORDO
100
AcDbEllipse
 62
7
  6
CONTINUOUS
 10
29.9657650026
 20
22.7911073945
 30
0.0
 11
0.0
 21
498.3
 31
0.0
 40
0.0174550649
 41
-1.6115338732
 42
-1.6051632136
  0
ELLIPSE
  5
552
100
AcDbEntity
  8
RACCORDO
100
AcDbEllipse
 62
7
  6
CONTINUOUS
 10
46.4323152295
 20
22.7911073945
 30
0.0
 11
0.0
 21
498.3
 31
0.0
 40
0.0174550649
 41
-4.6780220936
 42
-4.671651434
  0
ELLIPSE
  5
553
100
AcDbEntity
  8
RACCORDO
100
AcDbEllipse
 62
7
  6
CONTINUOUS
 10
22.1657650026
 20
22.7911073945
 30
0.0
 11
0.0
 21
498.3
 31
0.0
 40
0.0174550649
 41
-1.6115338732
 42
-1.6051632136
  0
ELLIPSE
  5
554
100
AcDbEntity
  8
RACCORDO
100
AcDbEllipse
 62
7
  6
CONTINUOUS
 10
38.093849295
 20
2.3406821751
 30
0.0
 11
0.3
 21
-0.0
 31
0.0
 40
0.0524077793
 41
-3.1241393611
 42
-1.5707963268
  0
ELLIPSE
  5
555
100
AcDbEntity
  8
RACCORDO
100
AcDbEllipse
 62
7
  6
CONTINUOUS
 10
38.6323152295
 20
22.7911073945
 30
0.0
 11
0.0
 21
498.3
 31
0.0
 40
0.0174550649
 41
-4.6780220936
 42
-4.671651434
  0
ELLIPSE
  5
556
100
AcDbEntity
  8
RACCORDO
100
AcDbEllipse
 62
7
  6
CONTINUOUS
 10
38.6323152295
 20
22.7911073945
 30
0.0
 11
0.0
 21
498.3
 31
0.0
 40
0.0174550649
 41
1.5300587804
 42
1.53642944
  0
ELLIPSE
  5
557
100
AcDbEntity
  8
RACCORDO
100
AcDbEllipse
 62
7
  6
CONTINUOUS
 10
22.1657650026
 20
22.7911073945
 30
0.0
 11
0.0
 21
498.3
 31
0.0
 40
0.0174550649
 41
-1.53642944
 42
-1.5300587804
  0
ELLIPSE
  5
558
100
AcDbEntity
  8
RACCORDO
100
AcDbEllipse
 62
7
  6
CONTINUOUS
 10
44.0184960788
 20
19.7106572101
 30
0.0
 11
-0.0
 21
0.5
 31
0.0
 40
0.0087268678
 41
-4.7123889804
 42
-3.3161255788
  0
ELLIPSE
  5
559
100
AcDbEntity
  8
RACCORDO
100
AcDbEllipse
 62
7
  6
CONTINUOUS
 10
46.4323152295
 20
22.7911073945
 30
0.0
 11
0.0
 21
498.3
 31
0.0
 40
0.0174550649
 41
1.5300587804
 42
1.53642944
  0
ELLIPSE
  5
55A
100
AcDbEntity
  8
RACCORDO
100
AcDbEllipse
 62
7
  6
CONTINUOUS
 10
44.0184960788
 20
25.8715575789
 30
0.0
 11
-0.0
 21
0.5
 31
0.0
 40
0.0087268678
 41
0.1745329252
 42
1.5707963268
  0
ELLIPSE
  5
55B
100
AcDbEntity
  8
DRAFT
100
AcDbEllipse
 62
7
  6
CONTINUOUS
 10
20.1966942952
 20
22.7911073945
 30
0.0
 11
0.0
 21
498.0
 31
0.0
 40
0.0087268678
 41
-1.5657860735
 42
-1.5308877529
  0
ELLIPSE
  5
55C
100
AcDbEntity
  8
RACCORDO
100
AcDbEllipse
 62
7
  6
CONTINUOUS
 10
38.3042309371
 20
43.2415326139
 30
0.0
 11
0.3
 21
0.0
 31
0.0
 40
0.0524077793
 41
0.0174532925
 42
1.5707963268
  0
ELLIPSE
  5
55D
100
AcDbEntity
  8
DRAFT
100
AcDbEllipse
 62
7
  6
CONTINUOUS
 10
20.1966942952
 20
22.7911073945
 30
0.0
 11
0.0
 21
498.0
 31
0.0
 40
0.0087268678
 41
-1.6108524791
 42
-1.5758065801
  0
ELLIPSE
  5
55E
100
AcDbEntity
  8
RACCORDO
100
AcDbEllipse
 62
7
  6
CONTINUOUS
 10
29.9657650026
 20
22.7911073945
 30
0.0
 11
0.0
 21
498.3
 31
0.0
 40
0.0174550649
 41
-1.53642944
 42
-1.5300587804
  0
ELLIPSE
  5
55F
100
AcDbEntity
  8
DRAFT
100
AcDbEllipse
 62
7
  6
CONTINUOUS
 10
20.1966942952
 20
22.7911073945
 30
0.0
 11
0.0
 21
498.3
 31
0.0
 40
0.0087268678
 41
-1.5657893653
 42
-1.5300587804
  0
ELLIPSE
  5
560
100
AcDbEntity
  8
DRAFT
100
AcDbEllipse
 62
7
  6
CONTINUOUS
 10
20.1966942952
 20
22.7911073945
 30
0.0
 11
0.0
 21
498.3
 31
0.0
 40
0.0087268678
 41
-1.6115338732
 42
-1.5758032883
  0
ELLIPSE
  5
561
100
AcDbEntity
  8
RACCORDO
100
AcDbEllipse
 62
7
  6
CONTINUOUS
 10
44.0446766822
 20
18.1662496561
 30
0.0
 11
0.0
 21
0.5
 31
0.0
 40
0.0087268678
 41
-1.5707963268
 42
-0.1745329252
  0
ELLIPSE
  5
562
100
AcDbEntity
  8
DRAFT
100
AcDbEllipse
 62
7
  6
CONTINUOUS
 10
48.3513859369
 20
22.7911073945
 30
0.0
 11
0.0
 21
498.3
 31
0.0
 40
0.0087268678
 41
1.5300587804
 42
1.6115338732
  0
ELLIPSE
  5
563
100
AcDbEntity
  8
RACCORDO
100
AcDbEllipse
 62
7
  6
CONTINUOUS
 10
44.0446766822
 20
27.4159651329
 30
0.0
 11
-0.0
 21
0.5
 31
0.0
 40
0.0087268678
 41
-2.9670597284
 42
-1.5707963268
  0
ELLIPSE
  5
564
100
AcDbEntity
  8
RACCORDO
100
AcDbEllipse
 62
7
  6
CONTINUOUS
 10
30.0401589145
 20
12.7911073945
 30
0.0
 11
0.0
 21
0.5088036965
 31
0.0
 40
0.0174550649
 41
-3.1241393611
 42
-0.0174532925
  0
ELLIPSE
  5
565
100
AcDbEntity
  8
RACCORDO
100
AcDbEllipse
 62
7
  6
CONTINUOUS
 10
33.0579213176
 20
12.7911073945
 30
0.0
 11
0.0
 21
0.5088036965
 31
0.0
 40
0.0174550649
 41
0.0174532925
 42
3.1241393611
  0
ELLIPSE
  5
566
100
AcDbEntity
  8
RACCORDO
100
AcDbEllipse
 62
7
  6
CONTINUOUS
 10
33.0579213176
 20
32.7911073945
 30
0.0
 11
0.0
 21
0.5088036965
 31
0.0
 40
0.0174550649
 41
0.0174532925
 42
3.1241393611
  0
ELLIPSE
  5
567
100
AcDbEntity
  8
RACCORDO
100
AcDbEllipse
 62
7
  6
CONTINUOUS
 10
30.0401589145
 20
32.7911073945
 30
0.0
 11
-0.0
 21
0.5088036965
 31
0.0
 40
0.0174550649
 41
-3.1241393611
 42
-0.0174532925
  0
ENDSEC
  0
SECTION
  2
OBJECTS
  0
DICTIONARY
  5
C
100
AcDbDictionary
280
0
281
1
  3
ACAD_GROUP
350
D
  3
ACAD_MLINESTYLE
350
17
  3
ACAD_LAYOUT
350
1A
  3
ACAD_PLOTSETTINGS
350
19
  3
ACAD_PLOTSTYLENAME
350
E
  0
DICTIONARY
  5
D
102
{ACAD_REACTORS
330
C
102
}
100
AcDbDictionary
280
0
281
1
  0
ACDBDICTIONARYWDFLT
  5
E
102
{ACAD_REACTORS
330
C
102
}
100
AcDbDictionary
281
1
  3
Normal
350
F
100
AcDbDictionaryWithDefault
340
F
  0
DICTIONARY
  5
17
102
{ACAD_REACTORS
330
C
102
}
100
AcDbDictionary
280
0
281
1
  3
Standard
350
18
  0
DICTIONARY
  5
19
102
{ACAD_REACTORS
330
C
102
}
100
AcDbDictionary
281
1
  0
DICTIONARY
  5
1A
102
{ACAD_REACTORS
330
C
102
}
100
AcDbDictionary
281
1
  3
Model
350
568
  3
Layout1
350
569
  0
ACDBPLACEHOLDER
  5
F
102
{ACAD_REACTORS
330
E
102
}
  0
MLINESTYLE
  5
18
102
{ACAD_REACTORS
330
17
102
}
100
AcDbMlineStyle
  2
STANDARD
 70
0
  3

 62
256
 51
90.0
 52
90.0
 71
2
 49
0.5
 62
256
  6
BYLAYER
 49
-0.5
 62
256
  6
BYLAYER
  0
LAYOUT
  5
568
102
{ACAD_REACTORS
330
1A
102
}
100
AcDbPlotSettings
  1

  2
none_device
  4
ISO_A4_(297.00_x_210.00_MM)
  6

 40
0.0
 41
0.0
 42
0.0
 43
0.0
 44
297.0
 45
210.0
 46
0.0
 47
0.0
 48
0.0
 49
0.0
140
0.0
141
0.0
142
1.0
143
1.0
 70
1024
 72
1
 73
0
 74
0
  7

 75
0
147
1.0
148
0.0
149
0.0
100
AcDbLayout
  1
Model
 70
0
 71
0
 10
0.0
 20
0.0
 11
297.0
 21
210.0
 12
0.0
 22
0.0
 32
0.0
 14
0.0
 24
0.0
 34
0.0
 15
0.0
 25
0.0
 35
0.0
146
0.0
 13
0.0
 23
0.0
 33
0.0
 16
1.0
 26
0.0
 36
0.0
 17
0.0
 27
1.0
 37
0.0
 76
0
330
20F
345
0
346
0
  0
LAYOUT
  5
569
102
{ACAD_REACTORS
330
1A
102
}
100
AcDbPlotSettings
  1

  2
none_device
  4
ISO_A4_(297.00_x_210.00_MM)
  6

 40
0.0
 41
0.0
 42
0.0
 43
0.0
 44
297.0
 45
210.0
 46
0.0
 47
0.0
 48
0.0
 49
0.0
140
0.0
141
0.0
142
1.0
143
1.0
 70
0
 72
1
 73
0
 74
0
  7

 75
0
147
1.0
148
0.0
149
0.0
100
AcDbLayout
  1
Layout1
 70
0
 71
1
 10
0.0
 20
0.0
 11
297.0
 21
210.0
 12
0.0
 22
0.0
 32
0.0
 14
0.0
 24
0.0
 34
0.0
 15
0.0
 25
0.0
 35
0.0
146
0.0
 13
0.0
 23
0.0
 33
0.0
 16
1.0
 26
0.0
 36
0.0
 17
0.0
 27
1.0
 37
0.0
 76
0
330
210
345
0
346
0
  0
ENDSEC
  0
EOF
