  0
SECTION
  2
HEADER
  9
$ACADVER
  1
AC1024
  9
$DWGCODEPAGE
  3
ANSI_1252
  9
$EXTMAX
 10
297.0
 20
210.0
 30
0.0
  9
$EXTMIN
 10
0.0
 20
0.0
 30
0.0
  9
$LIMMIN
 10
0.0
 20
0.0
  9
$LIMMAX
 10
297.0
 20
210.0
  9
$VIEWCTR
 10
148.5
 20
105.0
  9
$VIEWSIZE
 40
210.0
  9
$CLAYER
  8
0
  9
$LTSCALE
 40
16.335
  9
$CELTYPE
  6
BYLAYER
  9
$DIMSCALE
 40
1.0
  9
$DIMASZ
 40
3.0
  9
$DIMEXO
 40
0.5
  9
$DIMDLI
 40
11.286
  9
$DIMEXE
 40
1.5
  9
$DIMCEN
 40
2.673
  9
$DIMLFAC
 40
1.0
  9
$DIMBLK
  1
_FILLED
  9
$DIMALT
 70
0
  9
$DIMALTF
 40
0.0393700787
  9
$DIMTXT
 40
3.0
  9
$DIMTOL
 70
1
  9
$DIMLIM
 70
0
  9
$DIMTFAC
 40
1.0
  9
$DIMTP
 40
0.01
  9
$DIMTM
 40
0.01
  9
$DIMGAP
 40
0.625
  9
$DIMDSEP
 70
44
  9
$AUNITS
 70
0
  9
$PDMODE
 70
3
  9
$PDSIZE
 40
3.0
  9
$HANDSEED
  5
43F
  9
$TILEMODE
 70
1
  9
$MEASUREMENT
 70
1
  9
$INSUNITS
 70
4
  0
ENDSEC
  0
SECTION
  2
CLASSES
  0
CLASS
  1
ACDBDICTIONARYWDFLT
  2
AcDbDictionaryWithDefault
  3
AutoCAD 2000
 90
0
 91
1
280
0
281
0
  0
CLASS
  1
ACDBPLACEHOLDER
  2
AcDbPlaceHolder
  3
AutoCAD 2000
 90
0
 91
1
280
0
281
0
  0
CLASS
  1
LAYOUT
  2
AcDbLayout
  3
AutoCAD 2000
 90
0
 91
0
280
0
281
0
  0
ENDSEC
  0
SECTION
  2
TABLES
  0
TABLE
  2
VPORT
  5
8
100
AcDbSymbolTable
 70
2
  0
VPORT
  5
1F4
100
AcDbSymbolTableRecord
100
AcDbViewportTableRecord
  2
*ACTIVE
 70
0
 10
0.0
 20
0.0
 11
1.0
 21
1.0
 12
148.5
 22
105.0
 13
0.0
 23
0.0
 14
1.0
 24
1.0
 15
0.0
 25
0.0
 16
0.0
 26
0.0
 36
1.0
 17
0.0
 27
0.0
 37
0.0
 40
210.0
 41
1.4142857143
 42
50.0
 43
0.0
 44
0.0
 50
0.0
 51
0.0
 71
0
 72
100
 73
1
 74
1
 75
0
 76
0
 77
0
 78
0
  0
ENDTAB
  0
TABLE
  2
LTYPE
  5
5
100
AcDbSymbolTable
 70
6
  0
LTYPE
  5
14
100
AcDbSymbolTableRecord
100
AcDbLinetypeTableRecord
  2
BYBLOCK
 70
0
  3

 72
65
 73
0
 40
0.0
  0
LTYPE
  5
15
100
AcDbSymbolTableRecord
100
AcDbLinetypeTableRecord
  2
BYLAYER
 70
0
  3

 72
65
 73
0
 40
0.0
  0
LTYPE
  5
16
100
AcDbSymbolTableRecord
100
AcDbLinetypeTableRecord
  2
CONTINUOUS
 70
64
  3
Solid line
 72
65
 73
0
 40
0.0
  0
LTYPE
  5
1F5
100
AcDbSymbolTableRecord
100
AcDbLinetypeTableRecord
  2
CENTER
 70
64
  3
____ _ ____ _ ____ _ ____ _ ____ _ ____ _ ____
 72
65
 73
4
 40
0.6
 49
0.375
 74
0
 49
-0.075
 74
0
 49
0.075
 74
0
 49
-0.075
 74
0
  0
LTYPE
  5
1F6
100
AcDbSymbolTableRecord
100
AcDbLinetypeTableRecord
  2
HIDDEN
 70
64
  3
- - - - - - - - - - - - - - - - - - - -
 72
65
 73
2
 40
0.2
 49
0.1
 74
0
 49
-0.1
 74
0
  0
LTYPE
  5
1F7
100
AcDbSymbolTableRecord
100
AcDbLinetypeTableRecord
  2
PHANTOM
 70
64
  3
_____ _ _ _____ _ _ _____ _ _ _____
 72
65
 73
6
 40
0.8
 49
0.45
 74
0
 49
-0.05
 74
0
 49
0.1
 74
0
 49
-0.05
 74
0
 49
0.1
 74
0
 49
-0.05
 74
0
  0
LTYPE
  5
1F8
100
AcDbSymbolTableRecord
100
AcDbLinetypeTableRecord
  2
DOT
 70
64
  3
. . . . . . . . . . . . . . . . . . . .
 72
65
 73
2
 40
0.2
 49
0.1
 74
0
 49
-0.1
 74
0
  0
LTYPE
  5
1F9
100
AcDbSymbolTableRecord
100
AcDbLinetypeTableRecord
  2
DASHED
 70
64
  3
- - - - - - - - - - - - - - - - - - - -
 72
65
 73
2
 40
0.2
 49
0.1
 74
0
 49
-0.1
 74
0
  0
ENDTAB
  0
TABLE
  2
LAYER
  5
2
100
AcDbSymbolTable
 70
36
  0
LAYER
  5
10
100
AcDbSymbolTableRecord
100
AcDbLayerTableRecord
  2
0
 70
0
 62
7
  6
CONTINUOUS
370
-3
390
F
  0
LAYER
  5
1FA
100
AcDbSymbolTableRecord
100
AcDbLayerTableRecord
  2
DEFAULT_1
 70
0
 62
7
  6
CENTER
370
-3
390
F
  0
LAYER
  5
1FB
100
AcDbSymbolTableRecord
100
AcDbLayerTableRecord
  2
DEFAULT_2
 70
0
 62
7
  6
HIDDEN
370
-3
390
F
  0
LAYER
  5
1FC
100
AcDbSymbolTableRecord
100
AcDbLayerTableRecord
  2
DEFAULT_3
 70
0
 62
7
  6
PHANTOM
370
-3
390
F
  0
LAYER
  5
1FD
100
AcDbSymbolTableRecord
100
AcDbLayerTableRecord
  2
ASSI
 70
0
 62
7
  6
CONTINUOUS
370
-3
390
F
  0
LAYER
  5
1FE
100
AcDbSymbolTableRecord
100
AcDbLayerTableRecord
  2
COLOR6
 70
0
 62
7
  6
CONTINUOUS
370
-3
390
F
  0
LAYER
  5
1FF
100
AcDbSymbolTableRecord
100
AcDbLayerTableRecord
  2
COORDINATE
 70
0
 62
7
  6
CONTINUOUS
370
-3
390
F
  0
LAYER
  5
200
100
AcDbSymbolTableRecord
100
AcDbLayerTableRecord
  2
COORD_ORIGINE
 70
0
 62
7
  6
CONTINUOUS
370
-3
390
F
  0
LAYER
  5
201
100
AcDbSymbolTableRecord
100
AcDbLayerTableRecord
  2
COPY_PUBLISH
 70
0
 62
7
  6
CONTINUOUS
370
-3
390
F
  0
LAYER
  5
202
100
AcDbSymbolTableRecord
100
AcDbLayerTableRecord
  2
COSMETIC
 70
0
 62
7
  6
CONTINUOUS
370
-3
390
F
  0
LAYER
  5
203
100
AcDbSymbolTableRecord
100
AcDbLayerTableRecord
  2
COSMETICI
 70
0
 62
7
  6
CONTINUOUS
370
-3
390
F
  0
LAYER
  5
204
100
AcDbSymbolTableRecord
100
AcDbLayerTableRecord
  2
CURVE
 70
0
 62
7
  6
CONTINUOUS
370
-3
390
F
  0
LAYER
  5
205
100
AcDbSymbolTableRecord
100
AcDbLayerTableRecord
  2
DRAFT
 70
0
 62
7
  6
CONTINUOUS
370
-3
390
F
  0
LAYER
  5
206
100
AcDbSymbolTableRecord
100
AcDbLayerTableRecord
  2
IMPORT_IGES
 70
0
 62
7
  6
CONTINUOUS
370
-3
390
F
  0
LAYER
  5
207
100
AcDbSymbolTableRecord
100
AcDbLayerTableRecord
  2
INTFCLR_2
 70
0
 62
7
  6
CONTINUOUS
370
-3
390
F
  0
LAYER
  5
208
100
AcDbSymbolTableRecord
100
AcDbLayerTableRecord
  2
INTF_14
 70
0
 62
7
  6
CONTINUOUS
370
-3
390
F
  0
LAYER
  5
209
100
AcDbSymbolTableRecord
100
AcDbLayerTableRecord
  2
LINEA_CHIUSURA
 70
0
 62
7
  6
CONTINUOUS
370
-3
390
F
  0
LAYER
  5
20A
100
AcDbSymbolTableRecord
100
AcDbLayerTableRecord
  2
NOTE
 70
0
 62
7
  6
CONTINUOUS
370
-3
390
F
  0
LAYER
  5
20B
100
AcDbSymbolTableRecord
100
AcDbLayerTableRecord
  2
PIANI
 70
0
 62
7
  6
CONTINUOUS
370
-3
390
F
  0
LAYER
  5
20C
100
AcDbSymbolTableRecord
100
AcDbLayerTableRecord
  2
PIANI_ORIGINE
 70
0
 62
7
  6
CONTINUOUS
370
-3
390
F
  0
LAYER
  5
20D
100
AcDbSymbolTableRecord
100
AcDbLayerTableRecord
  2
PUNTI
 70
0
 62
7
  6
CONTINUOUS
370
-3
390
F
  0
LAYER
  5
20E
100
AcDbSymbolTableRecord
100
AcDbLayerTableRecord
  2
RACCORDO
 70
0
 62
7
  6
CONTINUOUS
370
-3
390
F
  0
LAYER
  5
20F
100
AcDbSymbolTableRecord
100
AcDbLayerTableRecord
  2
SIMBOLI
 70
0
 62
7
  6
CONTINUOUS
370
-3
390
F
  0
LAYER
  5
210
100
AcDbSymbolTableRecord
100
AcDbLayerTableRecord
  2
SMUSSO
 70
0
 62
7
  6
CONTINUOUS
370
-3
390
F
  0
LAYER
  5
211
100
AcDbSymbolTableRecord
100
AcDbLayerTableRecord
  2
SNAPLINE
 70
0
 62
7
  6
CONTINUOUS
370
-3
390
F
  0
LAYER
  5
212
100
AcDbSymbolTableRecord
100
AcDbLayerTableRecord
  2
SUPERFICI
 70
0
 62
7
  6
CONTINUOUS
370
-3
390
F
  0
LAYER
  5
213
100
AcDbSymbolTableRecord
100
AcDbLayerTableRecord
  2
TRASH
 70
0
 62
7
  6
CONTINUOUS
370
-3
390
F
  0
LAYER
  5
214
100
AcDbSymbolTableRecord
100
AcDbLayerTableRecord
  2
XSEC_DATUMS
 70
0
 62
7
  6
CONTINUOUS
370
-3
390
F
  0
LAYER
  5
215
100
AcDbSymbolTableRecord
100
AcDbLayerTableRecord
  2
___SHELL
 70
0
 62
7
  6
CONTINUOUS
370
-3
390
F
  0
ENDTAB
  0
TABLE
  2
STYLE
  5
3
100
AcDbSymbolTable
 70
1
  0
STYLE
  5
11
100
AcDbSymbolTableRecord
100
AcDbTextStyleTableRecord
  2
STANDARD
 70
0
 40
0.0
 41
0.8
 50
0.0
 71
0
 42
0.2
  3
txt
  4

  0
STYLE
  5
216
100
AcDbSymbolTableRecord
100
AcDbTextStyleTableRecord
  2
TEXTSTYLE_1
 70
0
 40
0.0
 41
0.8
 50
0.0
 71
0
 42
0.2
  3
gdt
  4

  0
ENDTAB
  0
TABLE
  2
VIEW
  5
6
100
AcDbSymbolTable
 70
0
  0
ENDTAB
  0
TABLE
  2
UCS
  5
7
100
AcDbSymbolTable
 70
0
  0
ENDTAB
  0
TABLE
  2
APPID
  5
9
100
AcDbSymbolTable
 70
1
  0
APPID
  5
217
100
AcDbSymbolTableRecord
100
AcDbRegAppTableRecord
  2
ACAD
 70
0
  0
ENDTAB
  0
TABLE
  2
BLOCK_RECORD
  5
1
100
AcDbSymbolTable
 70
0
  0
BLOCK_RECORD
  5
218
100
AcDbSymbolTableRecord
100
AcDbBlockTableRecord
  2
*Model_Space
  0
BLOCK_RECORD
  5
219
100
AcDbSymbolTableRecord
100
AcDbBlockTableRecord
  2
*Paper_Space
  0
BLOCK_RECORD
  5
21A
100
AcDbSymbolTableRecord
100
AcDbBlockTableRecord
  2
_FILLED
  0
ENDTAB
  0
TABLE
  2
DIMSTYLE
  5
A
100
AcDbSymbolTable
 70
1
100
AcDbDimStyleTable
 71
0
  0
DIMSTYLE
105
21B
100
AcDbSymbolTableRecord
100
AcDbDimStyleTableRecord
  2
STANDARD
 70
0
  3

  4

 40
1.0
 41
3.0
 42
0.5
 43
0.38
 44
1.5
 45
0.0
 46
0.0
 47
0.01
 48
0.01
140
3.0
141
0.09
142
0.0
143
25.4
144
1.0
145
0.0
146
1.0
147
0.625
 71
1.0
 72
0.0
 73
0
 74
0
 75
0
 76
0
 77
1
 78
8
 79
2
170
0
171
1
172
0
173
0
174
0
175
0
176
0
177
0
178
0
270
2
179
2
271
2
272
2
273
2
274
2
275
0
280
0
281
0
282
0
283
1
284
8
285
0
286
0
287
3
288
0
340
11
278
44
341
21A
342
21A
343
21A
344
21A
  0
ENDTAB
  0
ENDSEC
  0
SECTION
  2
BLOCKS
  0
BLOCK
  5
20
100
AcDbEntity
  8
0
100
AcDbBlockBegin
  2
*Model_Space
 70
0
 10
0.0
 20
0.0
 30
0.0
  3
*Model_Space
  1

  0
ENDBLK
  5
21
100
AcDbEntity
  8
0
100
AcDbBlockEnd
  0
BLOCK
  5
1C
100
AcDbEntity
  8
0
100
AcDbBlockBegin
  2
*Paper_Space
 70
0
 10
0.0
 20
0.0
 30
0.0
  3
*Paper_Space
  1

  0
ENDBLK
  5
1D
100
AcDbEntity
  8
0
100
AcDbBlockEnd
  0
BLOCK
  5
21C
100
AcDbEntity
  8
0
100
AcDbBlockBegin
  2
_FILLED
 70
64
 10
0.0
 20
0.0
  3
_FILLED
  1

  0
SOLID
  5
21D
100
AcDbEntity
  8
0
  6
BYBLOCK
 62
0
100
AcDbTrace
 10
0.0
 20
0.0
 11
-1.0
 21
0.3166666667
 12
-1.0
 22
-0.3166666667
 13
-1.0
 23
-0.3166666667
  0
ENDBLK
  5
21E
100
AcDbEntity
  8
0
  6
BYBLOCK
 62
0
100
AcDbBlockEnd
  0
ENDSEC
  0
SECTION
  2
ENTITIES
  0
LINE
  5
21F
100
AcDbEntity
  8
0
100
AcDbLine
 62
7
  6
CONTINUOUS
 10
-28.3593272772
 20
30.3489312712
 11
-31.8948611832
 21
26.8133973653
  0
LINE
  5
220
100
AcDbEntity
  8
0
100
AcDbLine
 62
7
  6
CONTINUOUS
 10
-31.8948611832
 20
-28.064229489
 11
-28.3593272772
 21
-31.599763395
  0
LINE
  5
221
100
AcDbEntity
  8
DRAFT
100
AcDbLine
 62
7
  6
CONTINUOUS
 10
-41.1039410775
 20
36.3745839381
 11
-41.1039410775
 21
-37.6254160619
  0
LINE
  5
222
100
AcDbEntity
  8
0
100
AcDbLine
 62
7
  6
CONTINUOUS
 10
-29.4817004229
 20
24.400236605
 11
-25.946166517
 21
27.935770511
  0
LINE
  5
223
100
AcDbEntity
  8
DRAFT
100
AcDbLine
 62
7
  6
CONTINUOUS
 10
-37.9205138501
 20
-40.8088432894
 11
36.0794861499
 21
-40.8088432894
  0
LINE
  5
224
100
AcDbEntity
  8
0
100
AcDbLine
 62
7
  6
CONTINUOUS
 10
-25.946166517
 20
-29.1866026347
 11
-29.4817004229
 21
-25.6510687288
  0
LINE
  5
225
100
AcDbEntity
  8
DRAFT
100
AcDbLine
 62
7
  6
CONTINUOUS
 10
-23.4746245513
 20
18.0969973245
 11
-19.6429272364
 21
21.9286946394
  0
LINE
  5
226
100
AcDbEntity
  8
0
100
AcDbLine
 62
7
  6
CONTINUOUS
 10
-15.0452420686
 20
26.5257501863
 11
-16.544946501
 21
25.0260457539
  0
LINE
  5
227
100
AcDbEntity
  8
DRAFT
100
AcDbLine
 62
7
  6
CONTINUOUS
 10
-23.4484419539
 20
18.0861521375
 11
-19.6320820495
 21
21.902512042
  0
LINE
  5
228
100
AcDbEntity
  8
0
100
AcDbLine
 62
7
  6
CONTINUOUS
 10
-16.4590883484
 20
24.9860094398
 11
-15.008368433
 21
26.4367293552
  0
LINE
  5
229
100
AcDbEntity
  8
DRAFT
100
AcDbLine
 62
7
  6
CONTINUOUS
 10
-13.3814930189
 20
26.6136047693
 11
-13.4705138501
 21
26.5245839381
  0
LINE
  5
22A
100
AcDbEntity
  8
0
100
AcDbLine
 62
250
  6
CONTINUOUS
 10
-13.4705138501
 20
26.0745382467
 11
-13.3814930189
 21
26.1635590778
  0
LINE
  5
22B
100
AcDbEntity
  8
0
100
AcDbLine
 62
250
  6
CONTINUOUS
 10
-13.1705595415
 20
25.7745839381
 11
-13.0815387104
 21
25.8636047693
  0
LINE
  5
22C
100
AcDbEntity
  8
DRAFT
100
AcDbLine
 62
7
  6
CONTINUOUS
 10
-14.6425857462
 20
23.402512042
 11
-14.6705138501
 21
23.3745839381
  0
LINE
  5
22D
100
AcDbEntity
  8
DRAFT
100
AcDbLine
 62
7
  6
CONTINUOUS
 10
-16.6801743763
 20
24.285563107
 11
-16.6135033637
 21
24.3466558343
  0
LINE
  5
22E
100
AcDbEntity
  8
0
100
AcDbLine
 62
250
  6
CONTINUOUS
 10
-7.8819393517
 20
24.9860094398
 11
-7.7960811991
 21
25.0260457539
  0
LWPOLYLINE
  5
22F
100
AcDbEntity
  8
0
100
AcDbPolyline
 62
7
  6
CONTINUOUS
 90
19
 70
0
 10
9.3294404585
 20
-27.0254160619
 10
9.3033849867
 20
-27.0265494526
 10
9.2775013897
 20
-27.0299458487
 10
9.2519864534
 20
-27.035586239
 10
9.2270306005
 20
-27.0434360546
 10
9.2028303616
 20
-27.0534412817
 10
9.1795852831
 20
-27.0655248759
 10
9.1574747648
 20
-27.0795969028
 10
9.1366683551
 20
-27.0955528888
 10
9.1173351916
 20
-27.1132651035
 10
9.0996229769
 20
-27.1325982671
 10
9.0836669909
 20
-27.1534046768
 10
9.069594964
 20
-27.175515195
 10
9.0575113698
 20
-27.1987602736
 10
9.0475061427
 20
-27.2229605125
 10
9.0396563271
 20
-27.2479163653
 10
9.0340159368
 20
-27.2734313016
 10
9.0306195406
 20
-27.2993148986
 10
9.0294861499
 20
-27.3253703704
  0
LINE
  5
230
100
AcDbEntity
  8
0
100
AcDbLine
 62
7
  6
CONTINUOUS
 10
-14.8331423429
 20
-27.864436893
 11
-13.3814930189
 21
-27.864436893
  0
LINE
  5
231
100
AcDbEntity
  8
DRAFT
100
AcDbLine
 62
7
  6
CONTINUOUS
 10
-12.5346764349
 20
-27.864436893
 11
-11.8063512652
 21
-27.864436893
  0
LINE
  5
232
100
AcDbEntity
  8
0
100
AcDbLine
 62
7
  6
CONTINUOUS
 10
-10.9595346812
 20
-27.864436893
 11
-9.5078853572
 21
-27.864436893
  0
LINE
  5
233
100
AcDbEntity
  8
0
100
AcDbLine
 62
7
  6
CONTINUOUS
 10
7.6668576571
 20
-27.864436893
 11
9.1185069811
 21
-27.864436893
  0
LINE
  5
234
100
AcDbEntity
  8
DRAFT
100
AcDbLine
 62
7
  6
CONTINUOUS
 10
9.9653235651
 20
-27.864436893
 11
10.6936487348
 21
-27.864436893
  0
LINE
  5
235
100
AcDbEntity
  8
0
100
AcDbLine
 62
7
  6
CONTINUOUS
 10
11.5404653188
 20
-27.864436893
 11
12.9921146428
 21
-27.864436893
  0
LINE
  5
236
100
AcDbEntity
  8
0
100
AcDbLine
 62
7
  6
CONTINUOUS
 10
12.9552410073
 20
-27.7754160619
 11
11.6294861499
 21
-27.7754160619
  0
LINE
  5
237
100
AcDbEntity
  8
DRAFT
100
AcDbLine
 62
7
  6
CONTINUOUS
 10
10.6294861499
 20
-27.7754160619
 11
10.0294861499
 21
-27.7754160619
  0
LINE
  5
238
100
AcDbEntity
  8
0
100
AcDbLine
 62
7
  6
CONTINUOUS
 10
9.0294861499
 20
-27.7754160619
 11
7.7037312926
 21
-27.7754160619
  0
LINE
  5
239
100
AcDbEntity
  8
0
100
AcDbLine
 62
7
  6
CONTINUOUS
 10
-9.5447589927
 20
-27.7754160619
 11
-10.8705138501
 21
-27.7754160619
  0
LINE
  5
23A
100
AcDbEntity
  8
DRAFT
100
AcDbLine
 62
7
  6
CONTINUOUS
 10
-11.8705138501
 20
-27.7754160619
 11
-12.4705138501
 21
-27.7754160619
  0
LINE
  5
23B
100
AcDbEntity
  8
0
100
AcDbLine
 62
7
  6
CONTINUOUS
 10
-13.4705138501
 20
-27.7754160619
 11
-14.7962687074
 21
-27.7754160619
  0
LINE
  5
23C
100
AcDbEntity
  8
0
100
AcDbLine
 62
7
  6
CONTINUOUS
 10
-13.0815387104
 20
-27.114436893
 11
-13.0008712683
 21
-27.114436893
  0
LINE
  5
23D
100
AcDbEntity
  8
0
100
AcDbLine
 62
7
  6
CONTINUOUS
 10
-11.3401564318
 20
-27.114436893
 11
-11.2594889897
 21
-27.114436893
  0
LINE
  5
23E
100
AcDbEntity
  8
0
100
AcDbLine
 62
7
  6
CONTINUOUS
 10
9.4184612896
 20
-27.114436893
 11
9.4991287317
 21
-27.114436893
  0
LINE
  5
23F
100
AcDbEntity
  8
0
100
AcDbLine
 62
7
  6
CONTINUOUS
 10
11.1598435682
 20
-27.114436893
 11
11.2405110103
 21
-27.114436893
  0
LINE
  5
240
100
AcDbEntity
  8
0
100
AcDbLine
 62
7
  6
CONTINUOUS
 10
-13.1705595415
 20
-27.0254160619
 11
-12.9367086835
 21
-27.0254160619
  0
LINE
  5
241
100
AcDbEntity
  8
0
100
AcDbLine
 62
7
  6
CONTINUOUS
 10
-11.4043190166
 20
-27.0254160619
 11
-11.1704681586
 21
-27.0254160619
  0
LINE
  5
242
100
AcDbEntity
  8
0
100
AcDbLine
 62
7
  6
CONTINUOUS
 10
9.3294404585
 20
-27.0254160619
 11
9.5632913165
 21
-27.0254160619
  0
LINE
  5
243
100
AcDbEntity
  8
0
100
AcDbLine
 62
7
  6
CONTINUOUS
 10
11.0956809834
 20
-27.0254160619
 11
11.3295318414
 21
-27.0254160619
  0
LINE
  5
244
100
AcDbEntity
  8
0
100
AcDbLine
 62
250
  6
CONTINUOUS
 10
-7.7960811991
 20
-26.2768778776
 11
-7.8819393517
 21
-26.2368415635
  0
LINE
  5
245
100
AcDbEntity
  8
DRAFT
100
AcDbLine
 62
7
  6
CONTINUOUS
 10
-16.6801743763
 20
-25.5363952307
 11
-16.6135033637
 21
-25.597487958
  0
LINE
  5
246
100
AcDbEntity
  8
DRAFT
100
AcDbLine
 62
7
  6
CONTINUOUS
 10
-19.6429272364
 20
-23.1795267631
 11
-23.4746245513
 21
-19.3478294482
  0
LINE
  5
247
100
AcDbEntity
  8
0
100
AcDbLine
 62
7
  6
CONTINUOUS
 10
-16.544946501
 20
-26.2768778776
 11
-15.0452420686
 21
-27.7765823101
  0
LINE
  5
248
100
AcDbEntity
  8
DRAFT
100
AcDbLine
 62
7
  6
CONTINUOUS
 10
-19.6320820495
 20
-23.1533441657
 11
-23.4484419539
 21
-19.3369842613
  0
LINE
  5
249
100
AcDbEntity
  8
0
100
AcDbLine
 62
7
  6
CONTINUOUS
 10
-15.008368433
 20
-27.6875614789
 11
-16.4590883484
 21
-26.2368415635
  0
LINE
  5
24A
100
AcDbEntity
  8
DRAFT
100
AcDbLine
 62
7
  6
CONTINUOUS
 10
-13.3814930189
 20
-27.864436893
 11
-13.4705138501
 21
-27.7754160619
  0
LINE
  5
24B
100
AcDbEntity
  8
0
100
AcDbLine
 62
250
  6
CONTINUOUS
 10
-13.4705138501
 20
-27.3253703704
 11
-13.3814930189
 21
-27.4143912015
  0
LINE
  5
24C
100
AcDbEntity
  8
0
100
AcDbLine
 62
250
  6
CONTINUOUS
 10
-13.1705595415
 20
-27.0254160619
 11
-13.0815387104
 21
-27.114436893
  0
LINE
  5
24D
100
AcDbEntity
  8
DRAFT
100
AcDbLine
 62
7
  6
CONTINUOUS
 10
-14.6705138501
 20
-24.6254160619
 11
-14.6425857462
 21
-24.6533441657
  0
LINE
  5
24E
100
AcDbEntity
  8
DRAFT
100
AcDbLine
 62
7
  6
CONTINUOUS
 10
-23.5095346812
 20
-23.214436893
 11
-23.5095346812
 21
21.9636047693
  0
LINE
  5
24F
100
AcDbEntity
  8
DRAFT
100
AcDbLine
 62
7
  6
CONTINUOUS
 10
-23.4746245513
 20
-23.1795267631
 11
-23.4746245513
 21
-19.3478294482
  0
LINE
  5
250
100
AcDbEntity
  8
DRAFT
100
AcDbLine
 62
7
  6
CONTINUOUS
 10
-23.4746245513
 20
18.0969973245
 11
-23.4746245513
 21
21.9286946394
  0
LINE
  5
251
100
AcDbEntity
  8
DRAFT
100
AcDbLine
 62
7
  6
CONTINUOUS
 10
-23.4205138501
 20
-19.3649123651
 11
-23.4205138501
 21
18.1140802414
  0
LINE
  5
252
100
AcDbEntity
  8
DRAFT
100
AcDbLine
 62
7
  6
CONTINUOUS
 10
-11.8705138501
 20
26.5245839381
 11
-11.8063512652
 21
26.6136047693
  0
LINE
  5
253
100
AcDbEntity
  8
0
100
AcDbLine
 62
250
  6
CONTINUOUS
 10
-11.6247180745
 20
26.0687051969
 11
-11.6888806593
 21
25.9796843658
  0
LINE
  5
254
100
AcDbEntity
  8
0
100
AcDbLine
 62
250
  6
CONTINUOUS
 10
-11.3401564318
 20
25.8636047693
 11
-11.4043190166
 21
25.7745839381
  0
LINE
  5
255
100
AcDbEntity
  8
DRAFT
100
AcDbLine
 62
7
  6
CONTINUOUS
 10
-12.5814930189
 20
23.4636047693
 11
-12.6705138501
 21
23.3745839381
  0
LINE
  5
256
100
AcDbEntity
  8
DRAFT
100
AcDbLine
 62
7
  6
CONTINUOUS
 10
-12.5814930189
 20
21.9636047693
 11
-12.6705138501
 21
21.8745839381
  0
LINE
  5
257
100
AcDbEntity
  8
DRAFT
100
AcDbLine
 62
7
  6
CONTINUOUS
 10
-9.6705138501
 20
24.3745839381
 11
-9.6984419539
 21
24.3466558343
  0
LINE
  5
258
100
AcDbEntity
  8
0
100
AcDbLine
 62
250
  6
CONTINUOUS
 10
-7.7952261855
 20
24.8000524547
 11
-7.7093680328
 21
24.8400887688
  0
LWPOLYLINE
  5
259
100
AcDbEntity
  8
0
100
AcDbPolyline
 62
7
  6
CONTINUOUS
 90
19
 70
0
 10
-13.1705595415
 20
-27.0254160619
 10
-13.1966150133
 20
-27.0265494526
 10
-13.2224986103
 20
-27.0299458487
 10
-13.2480135466
 20
-27.035586239
 10
-13.2729693995
 20
-27.0434360546
 10
-13.2971696384
 20
-27.0534412817
 10
-13.3204147169
 20
-27.0655248759
 10
-13.3425252352
 20
-27.0795969028
 10
-13.3633316449
 20
-27.0955528888
 10
-13.3826648084
 20
-27.1132651035
 10
-13.4003770231
 20
-27.1325982671
 10
-13.4163330091
 20
-27.1534046768
 10
-13.430405036
 20
-27.175515195
 10
-13.4424886302
 20
-27.1987602736
 10
-13.4524938573
 20
-27.2229605125
 10
-13.4603436729
 20
-27.2479163653
 10
-13.4659840632
 20
-27.2734313016
 10
-13.4693804594
 20
-27.2993148986
 10
-13.4705138501
 20
-27.3253703704
  0
LINE
  5
25A
100
AcDbEntity
  8
DRAFT
100
AcDbLine
 62
7
  6
CONTINUOUS
 10
-14.6477860884
 20
-25.9754160619
 11
-9.6932416117
 21
-25.9754160619
  0
LINE
  5
25B
100
AcDbEntity
  8
DRAFT
100
AcDbLine
 62
7
  6
CONTINUOUS
 10
7.8522139116
 20
-25.9754160619
 11
12.8067583883
 21
-25.9754160619
  0
LINE
  5
25C
100
AcDbEntity
  8
DRAFT
100
AcDbLine
 62
7
  6
CONTINUOUS
 10
-14.6705138501
 20
-25.6254160619
 11
-9.6705138501
 21
-25.6254160619
  0
LINE
  5
25D
100
AcDbEntity
  8
DRAFT
100
AcDbLine
 62
7
  6
CONTINUOUS
 10
7.8294861499
 20
-25.6254160619
 11
12.8294861499
 21
-25.6254160619
  0
LINE
  5
25E
100
AcDbEntity
  8
DRAFT
100
AcDbLine
 62
7
  6
CONTINUOUS
 10
-16.6135033637
 20
-25.597487958
 11
-14.6425857462
 21
-25.597487958
  0
LINE
  5
25F
100
AcDbEntity
  8
DRAFT
100
AcDbLine
 62
7
  6
CONTINUOUS
 10
-9.6984419539
 20
-25.597487958
 11
-7.7275243364
 21
-25.597487958
  0
LINE
  5
260
100
AcDbEntity
  8
DRAFT
100
AcDbLine
 62
7
  6
CONTINUOUS
 10
5.8864966363
 20
-25.597487958
 11
7.8574142538
 21
-25.597487958
  0
LINE
  5
261
100
AcDbEntity
  8
DRAFT
100
AcDbLine
 62
7
  6
CONTINUOUS
 10
12.8015580461
 20
-25.597487958
 11
14.7724756636
 21
-25.597487958
  0
LINE
  5
262
100
AcDbEntity
  8
DRAFT
100
AcDbLine
 62
7
  6
CONTINUOUS
 10
-16.6801743763
 20
-25.5363952307
 11
-7.6608533238
 21
-25.5363952307
  0
LINE
  5
263
100
AcDbEntity
  8
DRAFT
100
AcDbLine
 62
7
  6
CONTINUOUS
 10
5.8198256237
 20
-25.5363952307
 11
14.8391466762
 21
-25.5363952307
  0
LINE
  5
264
100
AcDbEntity
  8
DRAFT
100
AcDbLine
 62
7
  6
CONTINUOUS
 10
14.9110587127
 20
-24.714436893
 11
10.7404653188
 21
-24.714436893
  0
LINE
  5
265
100
AcDbEntity
  8
DRAFT
100
AcDbLine
 62
7
  6
CONTINUOUS
 10
9.9185069811
 20
-24.714436893
 11
5.7479135872
 21
-24.714436893
  0
LINE
  5
266
100
AcDbEntity
  8
DRAFT
100
AcDbLine
 62
7
  6
CONTINUOUS
 10
-7.5889412873
 20
-24.714436893
 11
-11.7595346812
 21
-24.714436893
  0
LINE
  5
267
100
AcDbEntity
  8
DRAFT
100
AcDbLine
 62
7
  6
CONTINUOUS
 10
-12.5814930189
 20
-24.714436893
 11
-16.7520864128
 21
-24.714436893
  0
LINE
  5
268
100
AcDbEntity
  8
DRAFT
100
AcDbLine
 62
7
  6
CONTINUOUS
 10
14.8550775422
 20
-24.6533441657
 11
12.8015580461
 21
-24.6533441657
  0
LINE
  5
269
100
AcDbEntity
  8
DRAFT
100
AcDbLine
 62
7
  6
CONTINUOUS
 10
7.8574142538
 20
-24.6533441657
 11
5.8038947577
 21
-24.6533441657
  0
LINE
  5
26A
100
AcDbEntity
  8
DRAFT
100
AcDbLine
 62
7
  6
CONTINUOUS
 10
-7.6449224578
 20
-24.6533441657
 11
-9.6984419539
 21
-24.6533441657
  0
LINE
  5
26B
100
AcDbEntity
  8
DRAFT
100
AcDbLine
 62
7
  6
CONTINUOUS
 10
-14.6425857462
 20
-24.6533441657
 11
-16.6961052423
 21
-24.6533441657
  0
LINE
  5
26C
100
AcDbEntity
  8
DRAFT
100
AcDbLine
 62
7
  6
CONTINUOUS
 10
-14.6705138501
 20
-24.6254160619
 11
-12.6705138501
 21
-24.6254160619
  0
LINE
  5
26D
100
AcDbEntity
  8
DRAFT
100
AcDbLine
 62
7
  6
CONTINUOUS
 10
-11.6705138501
 20
-24.6254160619
 11
-9.6705138501
 21
-24.6254160619
  0
LINE
  5
26E
100
AcDbEntity
  8
DRAFT
100
AcDbLine
 62
7
  6
CONTINUOUS
 10
7.8294861499
 20
-24.6254160619
 11
9.8294861499
 21
-24.6254160619
  0
LINE
  5
26F
100
AcDbEntity
  8
DRAFT
100
AcDbLine
 62
7
  6
CONTINUOUS
 10
10.8294861499
 20
-24.6254160619
 11
12.8294861499
 21
-24.6254160619
  0
LINE
  5
270
100
AcDbEntity
  8
DRAFT
100
AcDbLine
 62
7
  6
CONTINUOUS
 10
-23.5095346812
 20
-23.214436893
 11
-16.883319408
 21
-23.214436893
  0
LINE
  5
271
100
AcDbEntity
  8
DRAFT
100
AcDbLine
 62
7
  6
CONTINUOUS
 10
10.7404653188
 20
-23.214436893
 11
9.9185069811
 21
-23.214436893
  0
LINE
  5
272
100
AcDbEntity
  8
DRAFT
100
AcDbLine
 62
7
  6
CONTINUOUS
 10
-7.4577082921
 20
-23.214436893
 11
5.616680592
 21
-23.214436893
  0
LINE
  5
273
100
AcDbEntity
  8
DRAFT
100
AcDbLine
 62
7
  6
CONTINUOUS
 10
-11.7595346812
 20
-23.214436893
 11
-12.5814930189
 21
-23.214436893
  0
LINE
  5
274
100
AcDbEntity
  8
DRAFT
100
AcDbLine
 62
7
  6
CONTINUOUS
 10
15.0422917079
 20
-23.214436893
 11
21.6685069811
 21
-23.214436893
  0
LINE
  5
275
100
AcDbEntity
  8
DRAFT
100
AcDbLine
 62
7
  6
CONTINUOUS
 10
21.6335968512
 20
-23.1795267631
 11
17.8018995363
 21
-23.1795267631
  0
LINE
  5
276
100
AcDbEntity
  8
DRAFT
100
AcDbLine
 62
7
  6
CONTINUOUS
 10
-19.6429272364
 20
-23.1795267631
 11
-23.4746245513
 21
-23.1795267631
  0
LINE
  5
277
100
AcDbEntity
  8
DRAFT
100
AcDbLine
 62
7
  6
CONTINUOUS
 10
-19.6495371144
 20
-23.1358891008
 11
-19.3030587851
 21
-23.1358891008
  0
LINE
  5
278
100
AcDbEntity
  8
DRAFT
100
AcDbLine
 62
7
  6
CONTINUOUS
 10
17.8085094143
 20
-23.1358891008
 11
17.462031085
 21
-23.1358891008
  0
LINE
  5
279
100
AcDbEntity
  8
DRAFT
100
AcDbLine
 62
7
  6
CONTINUOUS
 10
0.062031085
 20
-23.1358891008
 11
3.1969412149
 21
-23.1358891008
  0
LINE
  5
27A
100
AcDbEntity
  8
DRAFT
100
AcDbLine
 62
7
  6
CONTINUOUS
 10
-1.9030587851
 20
-23.1358891008
 11
-5.037968915
 21
-23.1358891008
  0
LINE
  5
27B
100
AcDbEntity
  8
DRAFT
100
AcDbLine
 62
7
  6
CONTINUOUS
 10
17.4515580461
 20
-23.1254160619
 11
14.9607191452
 21
-23.1254160619
  0
LINE
  5
27C
100
AcDbEntity
  8
DRAFT
100
AcDbLine
 62
7
  6
CONTINUOUS
 10
-14.6705138501
 20
-23.1254160619
 11
-9.6705138501
 21
-23.1254160619
  0
LINE
  5
27D
100
AcDbEntity
  8
DRAFT
100
AcDbLine
 62
7
  6
CONTINUOUS
 10
5.6982531547
 20
-23.1254160619
 11
3.2074142538
 21
-23.1254160619
  0
LINE
  5
27E
100
AcDbEntity
  8
DRAFT
100
AcDbLine
 62
7
  6
CONTINUOUS
 10
0.0515580461
 20
-23.1254160619
 11
-1.8925857462
 21
-23.1254160619
  0
LINE
  5
27F
100
AcDbEntity
  8
DRAFT
100
AcDbLine
 62
7
  6
CONTINUOUS
 10
-5.0484419539
 20
-23.1254160619
 11
-7.5392808548
 21
-23.1254160619
  0
LINE
  5
280
100
AcDbEntity
  8
DRAFT
100
AcDbLine
 62
7
  6
CONTINUOUS
 10
7.8294861499
 20
-23.1254160619
 11
12.8294861499
 21
-23.1254160619
  0
LINE
  5
281
100
AcDbEntity
  8
DRAFT
100
AcDbLine
 62
7
  6
CONTINUOUS
 10
-16.8017468453
 20
-23.1254160619
 11
-19.2925857462
 21
-23.1254160619
  0
LINE
  5
282
100
AcDbEntity
  8
0
100
AcDbLine
 62
250
  6
CONTINUOUS
 10
-7.7093680328
 20
-26.0909208925
 11
-7.7952261855
 21
-26.0508845784
  0
LINE
  5
283
100
AcDbEntity
  8
DRAFT
100
AcDbLine
 62
7
  6
CONTINUOUS
 10
-12.6705138501
 20
-24.6254160619
 11
-12.5814930189
 21
-24.714436893
  0
LINE
  5
284
100
AcDbEntity
  8
DRAFT
100
AcDbLine
 62
7
  6
CONTINUOUS
 10
-12.5814930189
 20
-23.214436893
 11
-12.6705138501
 21
-23.1254160619
  0
LINE
  5
285
100
AcDbEntity
  8
DRAFT
100
AcDbLine
 62
7
  6
CONTINUOUS
 10
-9.6984419539
 20
-25.597487958
 11
-9.6705138501
 21
-25.6254160619
  0
LINE
  5
286
100
AcDbEntity
  8
DRAFT
100
AcDbLine
 62
7
  6
CONTINUOUS
 10
-11.8705138501
 20
-27.7754160619
 11
-11.8063512652
 21
-27.864436893
  0
LINE
  5
287
100
AcDbEntity
  8
0
100
AcDbLine
 62
250
  6
CONTINUOUS
 10
-11.6888806593
 20
-27.2305164895
 11
-11.6247180745
 21
-27.3195373206
  0
LINE
  5
288
100
AcDbEntity
  8
0
100
AcDbLine
 62
250
  6
CONTINUOUS
 10
-11.4043190166
 20
-27.0254160619
 11
-11.3401564318
 21
-27.114436893
  0
LINE
  5
289
100
AcDbEntity
  8
0
100
AcDbLine
 62
7
  6
CONTINUOUS
 10
-12.7163096257
 20
26.0687051969
 11
-12.5346764349
 21
26.6136047693
  0
LINE
  5
28A
100
AcDbEntity
  8
0
100
AcDbLine
 62
7
  6
CONTINUOUS
 10
-12.6521470408
 20
25.9796843658
 11
-12.4705138501
 21
26.5245839381
  0
LWPOLYLINE
  5
28B
100
AcDbEntity
  8
0
100
AcDbPolyline
 62
7
  6
CONTINUOUS
 90
16
 70
0
 10
-12.6521470408
 20
25.9796843658
 10
-12.6609646907
 20
25.9564791264
 10
-12.6716927968
 20
25.9340409305
 10
-12.68426822
 20
25.9125290207
 10
-12.6986190832
 20
25.8920915172
 10
-12.7146519638
 20
25.8728836931
 10
-12.7322473706
 20
25.8550626871
 10
-12.7512934498
 20
25.83875182
 10
-12.7716554837
 20
25.8240756963
 10
-12.79315223
 20
25.8111649481
 10
-12.815622877
 20
25.8001079764
 10
-12.8389150609
 20
25.7909718977
 10
-12.8628419206
 20
25.7838203796
 10
-12.887226608
 20
25.7786929488
 10
-12.9119058748
 20
25.7756109543
 10
-12.9367086835
 20
25.7745839381
  0
LINE
  5
28C
100
AcDbEntity
  8
DRAFT
100
AcDbLine
 62
7
  6
CONTINUOUS
 10
-7.5889412873
 20
23.4636047693
 11
-7.6449224578
 21
23.402512042
  0
LINE
  5
28D
100
AcDbEntity
  8
DRAFT
100
AcDbLine
 62
7
  6
CONTINUOUS
 10
-7.4577082921
 20
21.9636047693
 11
-7.5392808548
 21
21.8745839381
  0
LINE
  5
28E
100
AcDbEntity
  8
DRAFT
100
AcDbLine
 62
7
  6
CONTINUOUS
 10
-5.0484419539
 20
21.8745839381
 11
-5.037968915
 21
21.8850569771
  0
LINE
  5
28F
100
AcDbEntity
  8
DRAFT
100
AcDbLine
 62
7
  6
CONTINUOUS
 10
-5.0484419539
 20
-23.1254160619
 11
-5.037968915
 21
-23.1358891008
  0
LINE
  5
290
100
AcDbEntity
  8
DRAFT
100
AcDbLine
 62
7
  6
CONTINUOUS
 10
-7.5889412873
 20
-24.714436893
 11
-7.6449224578
 21
-24.6533441657
  0
LINE
  5
291
100
AcDbEntity
  8
DRAFT
100
AcDbLine
 62
7
  6
CONTINUOUS
 10
-7.5392808548
 20
-23.1254160619
 11
-7.4577082921
 21
-23.214436893
  0
LWPOLYLINE
  5
292
100
AcDbEntity
  8
0
100
AcDbPolyline
 62
7
  6
CONTINUOUS
 90
16
 70
0
 10
-12.6521470408
 20
-27.2305164895
 10
-12.6609646907
 20
-27.2073112501
 10
-12.6716927968
 20
-27.1848730542
 10
-12.68426822
 20
-27.1633611445
 10
-12.6986190832
 20
-27.1429236409
 10
-12.7146519638
 20
-27.1237158168
 10
-12.7322473706
 20
-27.1058948108
 10
-12.7512934498
 20
-27.0895839437
 10
-12.7716554837
 20
-27.07490782
 10
-12.79315223
 20
-27.0619970718
 10
-12.815622877
 20
-27.0509401001
 10
-12.8389150609
 20
-27.0418040215
 10
-12.8628419206
 20
-27.0346525033
 10
-12.887226608
 20
-27.0295250726
 10
-12.9119058748
 20
-27.026443078
 10
-12.9367086835
 20
-27.0254160619
  0
LINE
  5
293
100
AcDbEntity
  8
0
100
AcDbLine
 62
7
  6
CONTINUOUS
 10
-12.5346764349
 20
-27.864436893
 11
-12.7163096257
 21
-27.3195373206
  0
LINE
  5
294
100
AcDbEntity
  8
0
100
AcDbLine
 62
7
  6
CONTINUOUS
 10
-12.4705138501
 20
-27.7754160619
 11
-12.6521470408
 21
-27.2305164895
  0
LINE
  5
295
100
AcDbEntity
  8
DRAFT
100
AcDbLine
 62
7
  6
CONTINUOUS
 10
-16.883319408
 20
-23.214436893
 11
-16.7520864128
 21
-24.714436893
  0
LINE
  5
296
100
AcDbEntity
  8
0
100
AcDbLine
 62
7
  6
CONTINUOUS
 10
-16.6801743763
 20
-25.5363952307
 11
-16.6316596673
 21
-26.0909208925
  0
LINE
  5
297
100
AcDbEntity
  8
0
100
AcDbLine
 62
7
  6
CONTINUOUS
 10
-16.8017468453
 20
-23.1254160619
 11
-16.6682834133
 21
-24.6509100711
  0
LINE
  5
298
100
AcDbEntity
  8
0
100
AcDbLine
 62
7
  6
CONTINUOUS
 10
-16.5856815347
 20
-25.5950538633
 11
-16.5458015146
 21
-26.0508845784
  0
LINE
  5
299
100
AcDbEntity
  8
0
100
AcDbLine
 62
7
  6
CONTINUOUS
 10
-16.6316596673
 20
24.8400887688
 11
-16.6801743763
 21
24.285563107
  0
LINE
  5
29A
100
AcDbEntity
  8
DRAFT
100
AcDbLine
 62
7
  6
CONTINUOUS
 10
-16.7520864128
 20
23.4636047693
 11
-16.883319408
 21
21.9636047693
  0
LINE
  5
29B
100
AcDbEntity
  8
0
100
AcDbLine
 62
7
  6
CONTINUOUS
 10
-16.8017468453
 20
21.8745839381
 11
-16.6682834133
 21
23.4000779474
  0
LINE
  5
29C
100
AcDbEntity
  8
0
100
AcDbLine
 62
7
  6
CONTINUOUS
 10
-16.5856815347
 20
24.3442217396
 11
-16.5458015146
 21
24.8000524547
  0
LINE
  5
29D
100
AcDbEntity
  8
0
100
AcDbLine
 62
250
  6
CONTINUOUS
 10
-9.5447589927
 20
26.5245839381
 11
-9.5078853572
 21
26.6136047693
  0
LINE
  5
29E
100
AcDbEntity
  8
0
100
AcDbLine
 62
250
  6
CONTINUOUS
 10
-9.3326592671
 20
26.4367293552
 11
-9.2957856315
 21
26.5257501863
  0
LINE
  5
29F
100
AcDbEntity
  8
DRAFT
100
AcDbLine
 62
7
  6
CONTINUOUS
 10
0.0515580461
 20
21.8745839381
 11
0.062031085
 21
21.8850569771
  0
LINE
  5
2A0
100
AcDbEntity
  8
0
100
AcDbLine
 62
250
  6
CONTINUOUS
 10
14.6180606483
 20
24.9860094398
 11
14.7039188009
 21
25.0260457539
  0
LINE
  5
2A1
100
AcDbEntity
  8
0
100
AcDbLine
 62
250
  6
CONTINUOUS
 10
14.7047738145
 20
24.8000524547
 11
14.7906319672
 21
24.8400887688
  0
LINE
  5
2A2
100
AcDbEntity
  8
0
100
AcDbLine
 62
250
  6
CONTINUOUS
 10
14.7039188009
 20
-26.2768778776
 11
14.6180606483
 21
-26.2368415635
  0
LINE
  5
2A3
100
AcDbEntity
  8
0
100
AcDbLine
 62
250
  6
CONTINUOUS
 10
14.7906319672
 20
-26.0909208925
 11
14.7047738145
 21
-26.0508845784
  0
LINE
  5
2A4
100
AcDbEntity
  8
DRAFT
100
AcDbLine
 62
7
  6
CONTINUOUS
 10
0.0515580461
 20
-23.1254160619
 11
0.062031085
 21
-23.1358891008
  0
LINE
  5
2A5
100
AcDbEntity
  8
0
100
AcDbLine
 62
250
  6
CONTINUOUS
 10
-9.5447589927
 20
-27.7754160619
 11
-9.5078853572
 21
-27.864436893
  0
LINE
  5
2A6
100
AcDbEntity
  8
0
100
AcDbLine
 62
250
  6
CONTINUOUS
 10
-9.3326592671
 20
-27.6875614789
 11
-9.2957856315
 21
-27.7765823101
  0
LWPOLYLINE
  5
2A7
100
AcDbEntity
  8
0
100
AcDbPolyline
 62
7
  6
CONTINUOUS
 90
19
 70
0
 10
-13.4705138501
 20
26.0745382467
 10
-13.4693804594
 20
26.0484827749
 10
-13.4659840632
 20
26.0225991779
 10
-13.4603436729
 20
25.9970842416
 10
-13.4524938573
 20
25.9721283887
 10
-13.4424886302
 20
25.9479281498
 10
-13.430405036
 20
25.9246830713
 10
-13.4163330091
 20
25.902572553
 10
-13.4003770231
 20
25.8817661433
 10
-13.3826648084
 20
25.8624329798
 10
-13.3633316449
 20
25.844720765
 10
-13.3425252352
 20
25.8287647791
 10
-13.3204147169
 20
25.8146927522
 10
-13.2971696384
 20
25.802609158
 10
-13.2729693995
 20
25.7926039308
 10
-13.2480135466
 20
25.7847541153
 10
-13.2224986103
 20
25.779113725
 10
-13.1966150133
 20
25.7757173288
 10
-13.1705595415
 20
25.7745839381
  0
LWPOLYLINE
  5
2A8
100
AcDbEntity
  8
0
100
AcDbPolyline
 62
7
  6
CONTINUOUS
 90
19
 70
0
 10
-10.8705138501
 20
-27.3253703704
 10
-10.8716472407
 20
-27.2993148986
 10
-10.8750436369
 20
-27.2734313016
 10
-10.8806840272
 20
-27.2479163653
 10
-10.8885338428
 20
-27.2229605125
 10
-10.8985390699
 20
-27.1987602736
 10
-10.9106226641
 20
-27.175515195
 10
-10.924694691
 20
-27.1534046768
 10
-10.940650677
 20
-27.1325982671
 10
-10.9583628917
 20
-27.1132651035
 10
-10.9776960552
 20
-27.0955528888
 10
-10.998502465
 20
-27.0795969028
 10
-11.0206129832
 20
-27.0655248759
 10
-11.0438580617
 20
-27.0534412817
 10
-11.0680583006
 20
-27.0434360546
 10
-11.0930141535
 20
-27.035586239
 10
-11.1185290898
 20
-27.0299458487
 10
-11.1444126868
 20
-27.0265494526
 10
-11.1704681586
 20
-27.0254160619
  0
LINE
  5
2A9
100
AcDbEntity
  8
DRAFT
100
AcDbLine
 62
7
  6
CONTINUOUS
 10
-14.6513152284
 20
-25.6252225842
 11
-14.6477860884
 21
-25.9754160619
  0
LINE
  5
2AA
100
AcDbEntity
  8
DRAFT
100
AcDbLine
 62
7
  6
CONTINUOUS
 10
-14.6705138501
 20
24.3745839381
 11
-14.6705138501
 21
24.3466558343
  0
LINE
  5
2AB
100
AcDbEntity
  8
DRAFT
100
AcDbLine
 62
7
  6
CONTINUOUS
 10
-14.6705138501
 20
23.402512042
 11
-14.6705138501
 21
21.8745839381
  0
LINE
  5
2AC
100
AcDbEntity
  8
DRAFT
100
AcDbLine
 62
7
  6
CONTINUOUS
 10
-14.6705138501
 20
-23.1254160619
 11
-14.6705138501
 21
-24.6533441657
  0
LINE
  5
2AD
100
AcDbEntity
  8
DRAFT
100
AcDbLine
 62
7
  6
CONTINUOUS
 10
-14.6705138501
 20
-25.597487958
 11
-14.6705138501
 21
-25.6254160619
  0
LINE
  5
2AE
100
AcDbEntity
  8
0
100
AcDbLine
 62
7
  6
CONTINUOUS
 10
-13.4705138501
 20
-27.7754160619
 11
-13.4705138501
 21
-27.3253703704
  0
LINE
  5
2AF
100
AcDbEntity
  8
0
100
AcDbLine
 62
7
  6
CONTINUOUS
 10
-13.4705138501
 20
26.0745382467
 11
-13.4705138501
 21
26.5245839381
  0
LINE
  5
2B0
100
AcDbEntity
  8
0
100
AcDbLine
 62
7
  6
CONTINUOUS
 10
-13.3814930189
 20
-27.864436893
 11
-13.3814930189
 21
-27.4143912015
  0
LINE
  5
2B1
100
AcDbEntity
  8
0
100
AcDbLine
 62
7
  6
CONTINUOUS
 10
-13.3814930189
 20
26.1635590778
 11
-13.3814930189
 21
26.6136047693
  0
LINE
  5
2B2
100
AcDbEntity
  8
DRAFT
100
AcDbLine
 62
7
  6
CONTINUOUS
 10
-12.6705138501
 20
23.3745839381
 11
-12.6705138501
 21
21.8745839381
  0
LINE
  5
2B3
100
AcDbEntity
  8
DRAFT
100
AcDbLine
 62
7
  6
CONTINUOUS
 10
-12.6705138501
 20
-23.1254160619
 11
-12.6705138501
 21
-24.6254160619
  0
LINE
  5
2B4
100
AcDbEntity
  8
DRAFT
100
AcDbLine
 62
7
  6
CONTINUOUS
 10
-12.5814930189
 20
-23.214436893
 11
-12.5814930189
 21
-24.714436893
  0
LINE
  5
2B5
100
AcDbEntity
  8
DRAFT
100
AcDbLine
 62
7
  6
CONTINUOUS
 10
-12.5814930189
 20
21.9636047693
 11
-12.5814930189
 21
23.4636047693
  0
LINE
  5
2B6
100
AcDbEntity
  8
DRAFT
100
AcDbLine
 62
7
  6
CONTINUOUS
 10
-14.6477860884
 20
24.7245839381
 11
-14.6513152284
 21
24.3743904604
  0
LINE
  5
2B7
100
AcDbEntity
  8
0
100
AcDbLine
 62
7
  6
CONTINUOUS
 10
7.4547579314
 20
26.5257501863
 11
5.955053499
 21
25.0260457539
  0
LINE
  5
2B8
100
AcDbEntity
  8
0
100
AcDbLine
 62
7
  6
CONTINUOUS
 10
6.0409116516
 20
24.9860094398
 11
7.491631567
 21
26.4367293552
  0
LINE
  5
2B9
100
AcDbEntity
  8
DRAFT
100
AcDbLine
 62
7
  6
CONTINUOUS
 10
9.1185069811
 20
26.6136047693
 11
9.0294861499
 21
26.5245839381
  0
LINE
  5
2BA
100
AcDbEntity
  8
0
100
AcDbLine
 62
250
  6
CONTINUOUS
 10
9.0294861499
 20
26.0745382467
 11
9.1185069811
 21
26.1635590778
  0
LINE
  5
2BB
100
AcDbEntity
  8
0
100
AcDbLine
 62
250
  6
CONTINUOUS
 10
9.3294404585
 20
25.7745839381
 11
9.4184612896
 21
25.8636047693
  0
LINE
  5
2BC
100
AcDbEntity
  8
DRAFT
100
AcDbLine
 62
7
  6
CONTINUOUS
 10
5.8198256237
 20
24.285563107
 11
5.8864966363
 21
24.3466558343
  0
LINE
  5
2BD
100
AcDbEntity
  8
DRAFT
100
AcDbLine
 62
7
  6
CONTINUOUS
 10
5.8198256237
 20
-25.5363952307
 11
5.8864966363
 21
-25.597487958
  0
LINE
  5
2BE
100
AcDbEntity
  8
0
100
AcDbLine
 62
7
  6
CONTINUOUS
 10
5.955053499
 20
-26.2768778776
 11
7.4547579314
 21
-27.7765823101
  0
LINE
  5
2BF
100
AcDbEntity
  8
0
100
AcDbLine
 62
7
  6
CONTINUOUS
 10
7.491631567
 20
-27.6875614789
 11
6.0409116516
 21
-26.2368415635
  0
LINE
  5
2C0
100
AcDbEntity
  8
DRAFT
100
AcDbLine
 62
7
  6
CONTINUOUS
 10
9.1185069811
 20
-27.864436893
 11
9.0294861499
 21
-27.7754160619
  0
LINE
  5
2C1
100
AcDbEntity
  8
0
100
AcDbLine
 62
250
  6
CONTINUOUS
 10
9.0294861499
 20
-27.3253703704
 11
9.1185069811
 21
-27.4143912015
  0
LINE
  5
2C2
100
AcDbEntity
  8
0
100
AcDbLine
 62
250
  6
CONTINUOUS
 10
9.3294404585
 20
-27.0254160619
 11
9.4184612896
 21
-27.114436893
  0
LINE
  5
2C3
100
AcDbEntity
  8
DRAFT
100
AcDbLine
 62
7
  6
CONTINUOUS
 10
-9.6932416117
 20
24.7245839381
 11
-9.6897124717
 21
24.3743904604
  0
LINE
  5
2C4
100
AcDbEntity
  8
DRAFT
100
AcDbLine
 62
7
  6
CONTINUOUS
 10
-11.7595346812
 20
-23.214436893
 11
-11.7595346812
 21
-24.714436893
  0
LINE
  5
2C5
100
AcDbEntity
  8
DRAFT
100
AcDbLine
 62
7
  6
CONTINUOUS
 10
-11.7595346812
 20
21.9636047693
 11
-11.7595346812
 21
23.4636047693
  0
LINE
  5
2C6
100
AcDbEntity
  8
DRAFT
100
AcDbLine
 62
7
  6
CONTINUOUS
 10
-11.6705138501
 20
23.3745839381
 11
-11.6705138501
 21
21.8745839381
  0
LINE
  5
2C7
100
AcDbEntity
  8
DRAFT
100
AcDbLine
 62
7
  6
CONTINUOUS
 10
-11.6705138501
 20
-23.1254160619
 11
-11.6705138501
 21
-24.6254160619
  0
LINE
  5
2C8
100
AcDbEntity
  8
0
100
AcDbLine
 62
7
  6
CONTINUOUS
 10
-10.9595346812
 20
26.6136047693
 11
-10.9595346812
 21
26.1635590778
  0
LINE
  5
2C9
100
AcDbEntity
  8
0
100
AcDbLine
 62
7
  6
CONTINUOUS
 10
-10.9595346812
 20
-27.4143912015
 11
-10.9595346812
 21
-27.864436893
  0
LINE
  5
2CA
100
AcDbEntity
  8
0
100
AcDbLine
 62
7
  6
CONTINUOUS
 10
-10.8705138501
 20
26.5245839381
 11
-10.8705138501
 21
26.0745382467
  0
LINE
  5
2CB
100
AcDbEntity
  8
0
100
AcDbLine
 62
7
  6
CONTINUOUS
 10
-10.8705138501
 20
-27.3253703704
 11
-10.8705138501
 21
-27.7754160619
  0
LINE
  5
2CC
100
AcDbEntity
  8
DRAFT
100
AcDbLine
 62
7
  6
CONTINUOUS
 10
-9.6705138501
 20
24.3745839381
 11
-9.6705138501
 21
24.3466558343
  0
LINE
  5
2CD
100
AcDbEntity
  8
DRAFT
100
AcDbLine
 62
7
  6
CONTINUOUS
 10
-9.6705138501
 20
23.402512042
 11
-9.6705138501
 21
21.8745839381
  0
LINE
  5
2CE
100
AcDbEntity
  8
DRAFT
100
AcDbLine
 62
7
  6
CONTINUOUS
 10
-9.6705138501
 20
-23.1254160619
 11
-9.6705138501
 21
-24.6533441657
  0
LINE
  5
2CF
100
AcDbEntity
  8
DRAFT
100
AcDbLine
 62
7
  6
CONTINUOUS
 10
-9.6705138501
 20
-25.597487958
 11
-9.6705138501
 21
-25.6254160619
  0
LINE
  5
2D0
100
AcDbEntity
  8
DRAFT
100
AcDbLine
 62
7
  6
CONTINUOUS
 10
-9.6897124717
 20
-25.6252225842
 11
-9.6932416117
 21
-25.9754160619
  0
LINE
  5
2D1
100
AcDbEntity
  8
DRAFT
100
AcDbLine
 62
7
  6
CONTINUOUS
 10
-19.6320820495
 20
-23.1533441657
 11
-19.6429272364
 21
-23.1795267631
  0
LINE
  5
2D2
100
AcDbEntity
  8
DRAFT
100
AcDbLine
 62
7
  6
CONTINUOUS
 10
7.8574142538
 20
23.402512042
 11
7.8294861499
 21
23.3745839381
  0
LINE
  5
2D3
100
AcDbEntity
  8
DRAFT
100
AcDbLine
 62
7
  6
CONTINUOUS
 10
9.9185069811
 20
23.4636047693
 11
9.8294861499
 21
23.3745839381
  0
LINE
  5
2D4
100
AcDbEntity
  8
DRAFT
100
AcDbLine
 62
7
  6
CONTINUOUS
 10
9.9185069811
 20
21.9636047693
 11
9.8294861499
 21
21.8745839381
  0
LINE
  5
2D5
100
AcDbEntity
  8
DRAFT
100
AcDbLine
 62
7
  6
CONTINUOUS
 10
12.8294861499
 20
24.3745839381
 11
12.8015580461
 21
24.3466558343
  0
LINE
  5
2D6
100
AcDbEntity
  8
DRAFT
100
AcDbLine
 62
7
  6
CONTINUOUS
 10
21.6074142538
 20
18.0861521375
 11
21.6335968512
 21
18.0969973245
  0
LINE
  5
2D7
100
AcDbEntity
  8
DRAFT
100
AcDbLine
 62
7
  6
CONTINUOUS
 10
21.6074142538
 20
-19.3369842613
 11
21.6335968512
 21
-19.3478294482
  0
LINE
  5
2D8
100
AcDbEntity
  8
DRAFT
100
AcDbLine
 62
7
  6
CONTINUOUS
 10
7.8294861499
 20
-24.6254160619
 11
7.8574142538
 21
-24.6533441657
  0
LINE
  5
2D9
100
AcDbEntity
  8
DRAFT
100
AcDbLine
 62
7
  6
CONTINUOUS
 10
9.8294861499
 20
-24.6254160619
 11
9.9185069811
 21
-24.714436893
  0
LINE
  5
2DA
100
AcDbEntity
  8
DRAFT
100
AcDbLine
 62
7
  6
CONTINUOUS
 10
9.9185069811
 20
-23.214436893
 11
9.8294861499
 21
-23.1254160619
  0
LINE
  5
2DB
100
AcDbEntity
  8
DRAFT
100
AcDbLine
 62
7
  6
CONTINUOUS
 10
12.8015580461
 20
-25.597487958
 11
12.8294861499
 21
-25.6254160619
  0
LINE
  5
2DC
100
AcDbEntity
  8
DRAFT
100
AcDbLine
 62
7
  6
CONTINUOUS
 10
-19.6320820495
 20
21.902512042
 11
-19.6429272364
 21
21.9286946394
  0
LINE
  5
2DD
100
AcDbEntity
  8
0
100
AcDbLine
 62
7
  6
CONTINUOUS
 10
-7.5392808548
 20
21.8745839381
 11
-7.6727442868
 21
23.4000779474
  0
LINE
  5
2DE
100
AcDbEntity
  8
0
100
AcDbLine
 62
7
  6
CONTINUOUS
 10
-7.7553461654
 20
24.3442217396
 11
-7.7952261855
 21
24.8000524547
  0
LINE
  5
2DF
100
AcDbEntity
  8
DRAFT
100
AcDbLine
 62
7
  6
CONTINUOUS
 10
-7.4577082921
 20
21.9636047693
 11
-7.5889412873
 21
23.4636047693
  0
LINE
  5
2E0
100
AcDbEntity
  8
0
100
AcDbLine
 62
7
  6
CONTINUOUS
 10
-7.6608533238
 20
24.285563107
 11
-7.7093680328
 21
24.8400887688
  0
LINE
  5
2E1
100
AcDbEntity
  8
0
100
AcDbLine
 62
7
  6
CONTINUOUS
 10
-7.5392808548
 20
-23.1254160619
 11
-7.6727442868
 21
-24.6509100711
  0
LINE
  5
2E2
100
AcDbEntity
  8
0
100
AcDbLine
 62
7
  6
CONTINUOUS
 10
-7.7553461654
 20
-25.5950538633
 11
-7.7952261855
 21
-26.0508845784
  0
LINE
  5
2E3
100
AcDbEntity
  8
0
100
AcDbLine
 62
7
  6
CONTINUOUS
 10
-7.7093680328
 20
-26.0909208925
 11
-7.6608533238
 21
-25.5363952307
  0
LINE
  5
2E4
100
AcDbEntity
  8
DRAFT
100
AcDbLine
 62
7
  6
CONTINUOUS
 10
-7.5889412873
 20
-24.714436893
 11
-7.4577082921
 21
-23.214436893
  0
LINE
  5
2E5
100
AcDbEntity
  8
DRAFT
100
AcDbLine
 62
7
  6
CONTINUOUS
 10
10.6294861499
 20
26.5245839381
 11
10.6936487348
 21
26.6136047693
  0
LINE
  5
2E6
100
AcDbEntity
  8
0
100
AcDbLine
 62
250
  6
CONTINUOUS
 10
10.8752819255
 20
26.0687051969
 11
10.8111193407
 21
25.9796843658
  0
LINE
  5
2E7
100
AcDbEntity
  8
0
100
AcDbLine
 62
250
  6
CONTINUOUS
 10
11.1598435682
 20
25.8636047693
 11
11.0956809834
 21
25.7745839381
  0
LINE
  5
2E8
100
AcDbEntity
  8
DRAFT
100
AcDbLine
 62
7
  6
CONTINUOUS
 10
14.9110587127
 20
23.4636047693
 11
14.8550775422
 21
23.402512042
  0
LINE
  5
2E9
100
AcDbEntity
  8
DRAFT
100
AcDbLine
 62
7
  6
CONTINUOUS
 10
15.0422917079
 20
21.9636047693
 11
14.9607191452
 21
21.8745839381
  0
LINE
  5
2EA
100
AcDbEntity
  8
DRAFT
100
AcDbLine
 62
7
  6
CONTINUOUS
 10
14.9110587127
 20
-24.714436893
 11
14.8550775422
 21
-24.6533441657
  0
LINE
  5
2EB
100
AcDbEntity
  8
DRAFT
100
AcDbLine
 62
7
  6
CONTINUOUS
 10
14.9607191452
 20
-23.1254160619
 11
15.0422917079
 21
-23.214436893
  0
LINE
  5
2EC
100
AcDbEntity
  8
DRAFT
100
AcDbLine
 62
7
  6
CONTINUOUS
 10
10.6294861499
 20
-27.7754160619
 11
10.6936487348
 21
-27.864436893
  0
LINE
  5
2ED
100
AcDbEntity
  8
0
100
AcDbLine
 62
250
  6
CONTINUOUS
 10
10.8111193407
 20
-27.2305164895
 11
10.8752819255
 21
-27.3195373206
  0
LINE
  5
2EE
100
AcDbEntity
  8
0
100
AcDbLine
 62
250
  6
CONTINUOUS
 10
11.0956809834
 20
-27.0254160619
 11
11.1598435682
 21
-27.114436893
  0
LINE
  5
2EF
100
AcDbEntity
  8
0
100
AcDbLine
 62
7
  6
CONTINUOUS
 10
-11.6888806593
 20
-27.2305164895
 11
-11.8705138501
 21
-27.7754160619
  0
LINE
  5
2F0
100
AcDbEntity
  8
0
100
AcDbLine
 62
7
  6
CONTINUOUS
 10
-11.6247180745
 20
-27.3195373206
 11
-11.8063512652
 21
-27.864436893
  0
LWPOLYLINE
  5
2F1
100
AcDbEntity
  8
0
100
AcDbPolyline
 62
7
  6
CONTINUOUS
 90
16
 70
0
 10
-11.6888806593
 20
-27.2305164895
 10
-11.6800630094
 20
-27.2073112501
 10
-11.6693349033
 20
-27.1848730542
 10
-11.6567594801
 20
-27.1633611445
 10
-11.6424086169
 20
-27.1429236409
 10
-11.6263757363
 20
-27.1237158168
 10
-11.6087803295
 20
-27.1058948108
 10
-11.5897342503
 20
-27.0895839437
 10
-11.5693722164
 20
-27.07490782
 10
-11.5478754701
 20
-27.0619970718
 10
-11.5254048231
 20
-27.0509401001
 10
-11.5021126392
 20
-27.0418040215
 10
-11.4781857795
 20
-27.0346525033
 10
-11.4538010921
 20
-27.0295250726
 10
-11.4291218253
 20
-27.026443078
 10
-11.4043190166
 20
-27.0254160619
  0
LINE
  5
2F2
100
AcDbEntity
  8
0
100
AcDbLine
 62
250
  6
CONTINUOUS
 10
-15.008368433
 20
-27.6875614789
 11
-15.0452420686
 21
-27.7765823101
  0
LINE
  5
2F3
100
AcDbEntity
  8
0
100
AcDbLine
 62
250
  6
CONTINUOUS
 10
-14.7962687074
 20
-27.7754160619
 11
-14.8331423429
 21
-27.864436893
  0
LINE
  5
2F4
100
AcDbEntity
  8
DRAFT
100
AcDbLine
 62
7
  6
CONTINUOUS
 10
17.4515580461
 20
21.8745839381
 11
17.462031085
 21
21.8850569771
  0
LINE
  5
2F5
100
AcDbEntity
  8
DRAFT
100
AcDbLine
 62
7
  6
CONTINUOUS
 10
-23.4746245513
 20
-23.1795267631
 11
-23.5095346812
 21
-23.214436893
  0
LINE
  5
2F6
100
AcDbEntity
  8
DRAFT
100
AcDbLine
 62
7
  6
CONTINUOUS
 10
21.6335968512
 20
21.9286946394
 11
21.6685069811
 21
21.9636047693
  0
LINE
  5
2F7
100
AcDbEntity
  8
DRAFT
100
AcDbLine
 62
7
  6
CONTINUOUS
 10
17.4515580461
 20
-23.1254160619
 11
17.462031085
 21
-23.1358891008
  0
LINE
  5
2F8
100
AcDbEntity
  8
DRAFT
100
AcDbLine
 62
7
  6
CONTINUOUS
 10
21.6335968512
 20
-23.1795267631
 11
21.6685069811
 21
-23.214436893
  0
LINE
  5
2F9
100
AcDbEntity
  8
DRAFT
100
AcDbLine
 62
7
  6
CONTINUOUS
 10
-23.4746245513
 20
21.9286946394
 11
-23.5095346812
 21
21.9636047693
  0
LINE
  5
2FA
100
AcDbEntity
  8
0
100
AcDbLine
 62
250
  6
CONTINUOUS
 10
-15.008368433
 20
26.4367293552
 11
-15.0452420686
 21
26.5257501863
  0
LINE
  5
2FB
100
AcDbEntity
  8
0
100
AcDbLine
 62
250
  6
CONTINUOUS
 10
-14.7962687074
 20
26.5245839381
 11
-14.8331423429
 21
26.6136047693
  0
LWPOLYLINE
  5
2FC
100
AcDbEntity
  8
0
100
AcDbPolyline
 62
7
  6
CONTINUOUS
 90
16
 70
0
 10
-11.6888806593
 20
25.9796843658
 10
-11.6800630094
 20
25.9564791264
 10
-11.6693349033
 20
25.9340409305
 10
-11.6567594801
 20
25.9125290207
 10
-11.6424086169
 20
25.8920915172
 10
-11.6263757363
 20
25.8728836931
 10
-11.6087803295
 20
25.8550626871
 10
-11.5897342503
 20
25.83875182
 10
-11.5693722164
 20
25.8240756963
 10
-11.5478754701
 20
25.8111649481
 10
-11.5254048231
 20
25.8001079764
 10
-11.5021126392
 20
25.7909718977
 10
-11.4781857795
 20
25.7838203796
 10
-11.4538010921
 20
25.7786929488
 10
-11.4291218253
 20
25.7756109543
 10
-11.4043190166
 20
25.7745839381
  0
LINE
  5
2FD
100
AcDbEntity
  8
0
100
AcDbLine
 62
7
  6
CONTINUOUS
 10
-11.8705138501
 20
26.5245839381
 11
-11.6888806593
 21
25.9796843658
  0
LINE
  5
2FE
100
AcDbEntity
  8
0
100
AcDbLine
 62
7
  6
CONTINUOUS
 10
-11.8063512652
 20
26.6136047693
 11
-11.6247180745
 21
26.0687051969
  0
LINE
  5
2FF
100
AcDbEntity
  8
0
100
AcDbLine
 62
7
  6
CONTINUOUS
 10
9.7836903743
 20
26.0687051969
 11
9.9653235651
 21
26.6136047693
  0
LINE
  5
300
100
AcDbEntity
  8
0
100
AcDbLine
 62
7
  6
CONTINUOUS
 10
9.8478529592
 20
25.9796843658
 11
10.0294861499
 21
26.5245839381
  0
LWPOLYLINE
  5
301
100
AcDbEntity
  8
0
100
AcDbPolyline
 62
7
  6
CONTINUOUS
 90
16
 70
0
 10
9.8478529592
 20
25.9796843658
 10
9.8390353093
 20
25.9564791264
 10
9.8283072032
 20
25.9340409305
 10
9.81573178
 20
25.9125290207
 10
9.8013809168
 20
25.8920915172
 10
9.7853480362
 20
25.8728836931
 10
9.7677526294
 20
25.8550626871
 10
9.7487065502
 20
25.83875182
 10
9.7283445163
 20
25.8240756963
 10
9.70684777
 20
25.8111649481
 10
9.684377123
 20
25.8001079764
 10
9.6610849391
 20
25.7909718977
 10
9.6371580794
 20
25.7838203796
 10
9.612773392
 20
25.7786929488
 10
9.5880941252
 20
25.7756109543
 10
9.5632913165
 20
25.7745839381
  0
LINE
  5
302
100
AcDbEntity
  8
0
100
AcDbLine
 62
250
  6
CONTINUOUS
 10
12.9552410073
 20
26.5245839381
 11
12.9921146428
 21
26.6136047693
  0
LINE
  5
303
100
AcDbEntity
  8
0
100
AcDbLine
 62
250
  6
CONTINUOUS
 10
13.1673407329
 20
26.4367293552
 11
13.2042143685
 21
26.5257501863
  0
LINE
  5
304
100
AcDbEntity
  8
DRAFT
100
AcDbLine
 62
7
  6
CONTINUOUS
 10
-16.883319408
 20
-23.214436893
 11
-16.8017468453
 21
-23.1254160619
  0
LINE
  5
305
100
AcDbEntity
  8
DRAFT
100
AcDbLine
 62
7
  6
CONTINUOUS
 10
-19.2925857462
 20
-23.1254160619
 11
-19.3030587851
 21
-23.1358891008
  0
LINE
  5
306
100
AcDbEntity
  8
DRAFT
100
AcDbLine
 62
7
  6
CONTINUOUS
 10
-19.2925857462
 20
21.8745839381
 11
-19.3030587851
 21
21.8850569771
  0
LINE
  5
307
100
AcDbEntity
  8
DRAFT
100
AcDbLine
 62
7
  6
CONTINUOUS
 10
-16.8017468453
 20
21.8745839381
 11
-16.883319408
 21
21.9636047693
  0
LINE
  5
308
100
AcDbEntity
  8
0
100
AcDbLine
 62
250
  6
CONTINUOUS
 10
12.9552410073
 20
-27.7754160619
 11
12.9921146428
 21
-27.864436893
  0
LINE
  5
309
100
AcDbEntity
  8
0
100
AcDbLine
 62
250
  6
CONTINUOUS
 10
13.1673407329
 20
-27.6875614789
 11
13.2042143685
 21
-27.7765823101
  0
LWPOLYLINE
  5
30A
100
AcDbEntity
  8
0
100
AcDbPolyline
 62
7
  6
CONTINUOUS
 90
16
 70
0
 10
9.8478529592
 20
-27.2305164895
 10
9.8390353093
 20
-27.2073112501
 10
9.8283072032
 20
-27.1848730542
 10
9.81573178
 20
-27.1633611445
 10
9.8013809168
 20
-27.1429236409
 10
9.7853480362
 20
-27.1237158168
 10
9.7677526294
 20
-27.1058948108
 10
9.7487065502
 20
-27.0895839437
 10
9.7283445163
 20
-27.07490782
 10
9.70684777
 20
-27.0619970718
 10
9.684377123
 20
-27.0509401001
 10
9.6610849391
 20
-27.0418040215
 10
9.6371580794
 20
-27.0346525033
 10
9.612773392
 20
-27.0295250726
 10
9.5880941252
 20
-27.026443078
 10
9.5632913165
 20
-27.0254160619
  0
LINE
  5
30B
100
AcDbEntity
  8
0
100
AcDbLine
 62
7
  6
CONTINUOUS
 10
9.9653235651
 20
-27.864436893
 11
9.7836903743
 21
-27.3195373206
  0
LINE
  5
30C
100
AcDbEntity
  8
0
100
AcDbLine
 62
7
  6
CONTINUOUS
 10
10.0294861499
 20
-27.7754160619
 11
9.8478529592
 21
-27.2305164895
  0
LINE
  5
30D
100
AcDbEntity
  8
DRAFT
100
AcDbLine
 62
7
  6
CONTINUOUS
 10
5.616680592
 20
-23.214436893
 11
5.7479135872
 21
-24.714436893
  0
LINE
  5
30E
100
AcDbEntity
  8
0
100
AcDbLine
 62
7
  6
CONTINUOUS
 10
5.8198256237
 20
-25.5363952307
 11
5.8683403327
 21
-26.0909208925
  0
LINE
  5
30F
100
AcDbEntity
  8
0
100
AcDbLine
 62
7
  6
CONTINUOUS
 10
5.6982531547
 20
-23.1254160619
 11
5.8317165867
 21
-24.6509100711
  0
LINE
  5
310
100
AcDbEntity
  8
0
100
AcDbLine
 62
7
  6
CONTINUOUS
 10
5.9143184653
 20
-25.5950538633
 11
5.9541984854
 21
-26.0508845784
  0
LINE
  5
311
100
AcDbEntity
  8
0
100
AcDbLine
 62
7
  6
CONTINUOUS
 10
5.8683403327
 20
24.8400887688
 11
5.8198256237
 21
24.285563107
  0
LINE
  5
312
100
AcDbEntity
  8
DRAFT
100
AcDbLine
 62
7
  6
CONTINUOUS
 10
5.7479135872
 20
23.4636047693
 11
5.616680592
 21
21.9636047693
  0
LINE
  5
313
100
AcDbEntity
  8
0
100
AcDbLine
 62
7
  6
CONTINUOUS
 10
5.6982531547
 20
21.8745839381
 11
5.8317165867
 21
23.4000779474
  0
LINE
  5
314
100
AcDbEntity
  8
0
100
AcDbLine
 62
7
  6
CONTINUOUS
 10
5.9143184653
 20
24.3442217396
 11
5.9541984854
 21
24.8000524547
  0
LINE
  5
315
100
AcDbEntity
  8
0
100
AcDbLine
 62
250
  6
CONTINUOUS
 10
-13.0008712683
 20
-27.114436893
 11
-12.9367086835
 21
-27.0254160619
  0
LINE
  5
316
100
AcDbEntity
  8
0
100
AcDbLine
 62
250
  6
CONTINUOUS
 10
-12.7163096257
 20
-27.3195373206
 11
-12.6521470408
 21
-27.2305164895
  0
LINE
  5
317
100
AcDbEntity
  8
DRAFT
100
AcDbLine
 62
7
  6
CONTINUOUS
 10
-12.4705138501
 20
-27.7754160619
 11
-12.5346764349
 21
-27.864436893
  0
LINE
  5
318
100
AcDbEntity
  8
DRAFT
100
AcDbLine
 62
7
  6
CONTINUOUS
 10
-16.7520864128
 20
-24.714436893
 11
-16.6961052423
 21
-24.6533441657
  0
LINE
  5
319
100
AcDbEntity
  8
DRAFT
100
AcDbLine
 62
7
  6
CONTINUOUS
 10
-14.6425857462
 20
-25.597487958
 11
-14.6705138501
 21
-25.6254160619
  0
LINE
  5
31A
100
AcDbEntity
  8
DRAFT
100
AcDbLine
 62
7
  6
CONTINUOUS
 10
-14.6705138501
 20
24.3745839381
 11
-14.6425857462
 21
24.3466558343
  0
LINE
  5
31B
100
AcDbEntity
  8
DRAFT
100
AcDbLine
 62
7
  6
CONTINUOUS
 10
-16.7520864128
 20
23.4636047693
 11
-16.6961052423
 21
23.402512042
  0
LINE
  5
31C
100
AcDbEntity
  8
0
100
AcDbLine
 62
250
  6
CONTINUOUS
 10
-12.9367086835
 20
25.7745839381
 11
-13.0008712683
 21
25.8636047693
  0
LINE
  5
31D
100
AcDbEntity
  8
0
100
AcDbLine
 62
250
  6
CONTINUOUS
 10
-12.6521470408
 20
25.9796843658
 11
-12.7163096257
 21
26.0687051969
  0
LINE
  5
31E
100
AcDbEntity
  8
DRAFT
100
AcDbLine
 62
7
  6
CONTINUOUS
 10
-12.4705138501
 20
26.5245839381
 11
-12.5346764349
 21
26.6136047693
  0
LWPOLYLINE
  5
31F
100
AcDbEntity
  8
0
100
AcDbPolyline
 62
7
  6
CONTINUOUS
 90
19
 70
0
 10
9.0294861499
 20
26.0745382467
 10
9.0306195406
 20
26.0484827749
 10
9.0340159368
 20
26.0225991779
 10
9.0396563271
 20
25.9970842416
 10
9.0475061427
 20
25.9721283887
 10
9.0575113698
 20
25.9479281498
 10
9.069594964
 20
25.9246830713
 10
9.0836669909
 20
25.902572553
 10
9.0996229769
 20
25.8817661433
 10
9.1173351916
 20
25.8624329798
 10
9.1366683551
 20
25.844720765
 10
9.1574747648
 20
25.8287647791
 10
9.1795852831
 20
25.8146927522
 10
9.2028303616
 20
25.802609158
 10
9.2270306005
 20
25.7926039308
 10
9.2519864534
 20
25.7847541153
 10
9.2775013897
 20
25.779113725
 10
9.3033849867
 20
25.7757173288
 10
9.3294404585
 20
25.7745839381
  0
LWPOLYLINE
  5
320
100
AcDbEntity
  8
0
100
AcDbPolyline
 62
7
  6
CONTINUOUS
 90
19
 70
0
 10
11.6294861499
 20
-27.3253703704
 10
11.6283527593
 20
-27.2993148986
 10
11.6249563631
 20
-27.2734313016
 10
11.6193159728
 20
-27.2479163653
 10
11.6114661572
 20
-27.2229605125
 10
11.6014609301
 20
-27.1987602736
 10
11.5893773359
 20
-27.175515195
 10
11.575305309
 20
-27.1534046768
 10
11.559349323
 20
-27.1325982671
 10
11.5416371083
 20
-27.1132651035
 10
11.5223039448
 20
-27.0955528888
 10
11.501497535
 20
-27.0795969028
 10
11.4793870168
 20
-27.0655248759
 10
11.4561419383
 20
-27.0534412817
 10
11.4319416994
 20
-27.0434360546
 10
11.4069858465
 20
-27.035586239
 10
11.3814709102
 20
-27.0299458487
 10
11.3555873132
 20
-27.0265494526
 10
11.3295318414
 20
-27.0254160619
  0
LINE
  5
321
100
AcDbEntity
  8
DRAFT
100
AcDbLine
 62
7
  6
CONTINUOUS
 10
7.8486847716
 20
-25.6252225842
 11
7.8522139116
 21
-25.9754160619
  0
LINE
  5
322
100
AcDbEntity
  8
DRAFT
100
AcDbLine
 62
7
  6
CONTINUOUS
 10
7.8294861499
 20
24.3745839381
 11
7.8294861499
 21
24.3466558343
  0
LINE
  5
323
100
AcDbEntity
  8
DRAFT
100
AcDbLine
 62
7
  6
CONTINUOUS
 10
7.8294861499
 20
23.402512042
 11
7.8294861499
 21
21.8745839381
  0
LINE
  5
324
100
AcDbEntity
  8
DRAFT
100
AcDbLine
 62
7
  6
CONTINUOUS
 10
7.8294861499
 20
-23.1254160619
 11
7.8294861499
 21
-24.6533441657
  0
LINE
  5
325
100
AcDbEntity
  8
DRAFT
100
AcDbLine
 62
7
  6
CONTINUOUS
 10
7.8294861499
 20
-25.597487958
 11
7.8294861499
 21
-25.6254160619
  0
LINE
  5
326
100
AcDbEntity
  8
0
100
AcDbLine
 62
7
  6
CONTINUOUS
 10
9.0294861499
 20
-27.7754160619
 11
9.0294861499
 21
-27.3253703704
  0
LINE
  5
327
100
AcDbEntity
  8
0
100
AcDbLine
 62
7
  6
CONTINUOUS
 10
9.0294861499
 20
26.0745382467
 11
9.0294861499
 21
26.5245839381
  0
LINE
  5
328
100
AcDbEntity
  8
0
100
AcDbLine
 62
7
  6
CONTINUOUS
 10
9.1185069811
 20
-27.864436893
 11
9.1185069811
 21
-27.4143912015
  0
LINE
  5
329
100
AcDbEntity
  8
0
100
AcDbLine
 62
7
  6
CONTINUOUS
 10
9.1185069811
 20
26.1635590778
 11
9.1185069811
 21
26.6136047693
  0
LINE
  5
32A
100
AcDbEntity
  8
DRAFT
100
AcDbLine
 62
7
  6
CONTINUOUS
 10
9.8294861499
 20
23.3745839381
 11
9.8294861499
 21
21.8745839381
  0
LINE
  5
32B
100
AcDbEntity
  8
DRAFT
100
AcDbLine
 62
7
  6
CONTINUOUS
 10
9.8294861499
 20
-23.1254160619
 11
9.8294861499
 21
-24.6254160619
  0
LINE
  5
32C
100
AcDbEntity
  8
DRAFT
100
AcDbLine
 62
7
  6
CONTINUOUS
 10
9.9185069811
 20
-23.214436893
 11
9.9185069811
 21
-24.714436893
  0
LINE
  5
32D
100
AcDbEntity
  8
DRAFT
100
AcDbLine
 62
7
  6
CONTINUOUS
 10
9.9185069811
 20
21.9636047693
 11
9.9185069811
 21
23.4636047693
  0
LINE
  5
32E
100
AcDbEntity
  8
DRAFT
100
AcDbLine
 62
7
  6
CONTINUOUS
 10
10.7404653188
 20
-23.214436893
 11
10.7404653188
 21
-24.714436893
  0
LINE
  5
32F
100
AcDbEntity
  8
DRAFT
100
AcDbLine
 62
7
  6
CONTINUOUS
 10
10.7404653188
 20
21.9636047693
 11
10.7404653188
 21
23.4636047693
  0
LINE
  5
330
100
AcDbEntity
  8
DRAFT
100
AcDbLine
 62
7
  6
CONTINUOUS
 10
10.8294861499
 20
23.3745839381
 11
10.8294861499
 21
21.8745839381
  0
LINE
  5
331
100
AcDbEntity
  8
DRAFT
100
AcDbLine
 62
7
  6
CONTINUOUS
 10
10.8294861499
 20
-23.1254160619
 11
10.8294861499
 21
-24.6254160619
  0
LINE
  5
332
100
AcDbEntity
  8
DRAFT
100
AcDbLine
 62
7
  6
CONTINUOUS
 10
7.8522139116
 20
24.7245839381
 11
7.8486847716
 21
24.3743904604
  0
LINE
  5
333
100
AcDbEntity
  8
DRAFT
100
AcDbLine
 62
7
  6
CONTINUOUS
 10
17.7910543493
 20
21.902512042
 11
17.8018995363
 21
21.9286946394
  0
LINE
  5
334
100
AcDbEntity
  8
DRAFT
100
AcDbLine
 62
7
  6
CONTINUOUS
 10
-11.6705138501
 20
-23.1254160619
 11
-11.7595346812
 21
-23.214436893
  0
LINE
  5
335
100
AcDbEntity
  8
DRAFT
100
AcDbLine
 62
7
  6
CONTINUOUS
 10
-11.6705138501
 20
-24.6254160619
 11
-11.7595346812
 21
-24.714436893
  0
LINE
  5
336
100
AcDbEntity
  8
DRAFT
100
AcDbLine
 62
7
  6
CONTINUOUS
 10
-9.6705138501
 20
-24.6254160619
 11
-9.6984419539
 21
-24.6533441657
  0
LINE
  5
337
100
AcDbEntity
  8
0
100
AcDbLine
 62
250
  6
CONTINUOUS
 10
-11.1704681586
 20
-27.0254160619
 11
-11.2594889897
 21
-27.114436893
  0
LINE
  5
338
100
AcDbEntity
  8
0
100
AcDbLine
 62
250
  6
CONTINUOUS
 10
-10.8705138501
 20
-27.3253703704
 11
-10.9595346812
 21
-27.4143912015
  0
LINE
  5
339
100
AcDbEntity
  8
DRAFT
100
AcDbLine
 62
7
  6
CONTINUOUS
 10
-23.4484419539
 20
-19.3369842613
 11
-23.4746245513
 21
-19.3478294482
  0
LINE
  5
33A
100
AcDbEntity
  8
DRAFT
100
AcDbLine
 62
7
  6
CONTINUOUS
 10
-23.4484419539
 20
18.0861521375
 11
-23.4746245513
 21
18.0969973245
  0
LINE
  5
33B
100
AcDbEntity
  8
DRAFT
100
AcDbLine
 62
7
  6
CONTINUOUS
 10
-11.6705138501
 20
21.8745839381
 11
-11.7595346812
 21
21.9636047693
  0
LINE
  5
33C
100
AcDbEntity
  8
DRAFT
100
AcDbLine
 62
7
  6
CONTINUOUS
 10
-11.7595346812
 20
23.4636047693
 11
-11.6705138501
 21
23.3745839381
  0
LINE
  5
33D
100
AcDbEntity
  8
DRAFT
100
AcDbLine
 62
7
  6
CONTINUOUS
 10
-9.6984419539
 20
23.402512042
 11
-9.6705138501
 21
23.3745839381
  0
LINE
  5
33E
100
AcDbEntity
  8
0
100
AcDbLine
 62
250
  6
CONTINUOUS
 10
-11.1704681586
 20
25.7745839381
 11
-11.2594889897
 21
25.8636047693
  0
LINE
  5
33F
100
AcDbEntity
  8
0
100
AcDbLine
 62
250
  6
CONTINUOUS
 10
-10.8705138501
 20
26.0745382467
 11
-10.9595346812
 21
26.1635590778
  0
LINE
  5
340
100
AcDbEntity
  8
DRAFT
100
AcDbLine
 62
7
  6
CONTINUOUS
 10
17.7910543493
 20
-23.1533441657
 11
17.8018995363
 21
-23.1795267631
  0
LINE
  5
341
100
AcDbEntity
  8
DRAFT
100
AcDbLine
 62
7
  6
CONTINUOUS
 10
12.8067583883
 20
24.7245839381
 11
12.8102875283
 21
24.3743904604
  0
LINE
  5
342
100
AcDbEntity
  8
0
100
AcDbLine
 62
7
  6
CONTINUOUS
 10
11.5404653188
 20
26.6136047693
 11
11.5404653188
 21
26.1635590778
  0
LINE
  5
343
100
AcDbEntity
  8
0
100
AcDbLine
 62
7
  6
CONTINUOUS
 10
11.5404653188
 20
-27.4143912015
 11
11.5404653188
 21
-27.864436893
  0
LINE
  5
344
100
AcDbEntity
  8
0
100
AcDbLine
 62
7
  6
CONTINUOUS
 10
11.6294861499
 20
26.5245839381
 11
11.6294861499
 21
26.0745382467
  0
LINE
  5
345
100
AcDbEntity
  8
0
100
AcDbLine
 62
7
  6
CONTINUOUS
 10
11.6294861499
 20
-27.3253703704
 11
11.6294861499
 21
-27.7754160619
  0
LINE
  5
346
100
AcDbEntity
  8
DRAFT
100
AcDbLine
 62
7
  6
CONTINUOUS
 10
12.8294861499
 20
24.3745839381
 11
12.8294861499
 21
24.3466558343
  0
LINE
  5
347
100
AcDbEntity
  8
DRAFT
100
AcDbLine
 62
7
  6
CONTINUOUS
 10
12.8294861499
 20
23.402512042
 11
12.8294861499
 21
21.8745839381
  0
LINE
  5
348
100
AcDbEntity
  8
DRAFT
100
AcDbLine
 62
7
  6
CONTINUOUS
 10
12.8294861499
 20
-23.1254160619
 11
12.8294861499
 21
-24.6533441657
  0
LINE
  5
349
100
AcDbEntity
  8
DRAFT
100
AcDbLine
 62
7
  6
CONTINUOUS
 10
12.8294861499
 20
-25.597487958
 11
12.8294861499
 21
-25.6254160619
  0
LINE
  5
34A
100
AcDbEntity
  8
DRAFT
100
AcDbLine
 62
7
  6
CONTINUOUS
 10
12.8102875283
 20
-25.6252225842
 11
12.8067583883
 21
-25.9754160619
  0
LINE
  5
34B
100
AcDbEntity
  8
DRAFT
100
AcDbLine
 62
7
  6
CONTINUOUS
 10
-10.9595346812
 20
-27.864436893
 11
-10.8705138501
 21
-27.7754160619
  0
LINE
  5
34C
100
AcDbEntity
  8
0
100
AcDbLine
 62
7
  6
CONTINUOUS
 10
-7.8819393517
 20
-26.2368415635
 11
-9.3326592671
 21
-27.6875614789
  0
LINE
  5
34D
100
AcDbEntity
  8
0
100
AcDbLine
 62
7
  6
CONTINUOUS
 10
-9.2957856315
 20
-27.7765823101
 11
-7.7960811991
 21
-26.2768778776
  0
LINE
  5
34E
100
AcDbEntity
  8
DRAFT
100
AcDbLine
 62
7
  6
CONTINUOUS
 10
-1.8925857462
 20
-23.1254160619
 11
-1.9030587851
 21
-23.1358891008
  0
LINE
  5
34F
100
AcDbEntity
  8
DRAFT
100
AcDbLine
 62
7
  6
CONTINUOUS
 10
-7.6608533238
 20
-25.5363952307
 11
-7.7275243364
 21
-25.597487958
  0
LINE
  5
350
100
AcDbEntity
  8
DRAFT
100
AcDbLine
 62
7
  6
CONTINUOUS
 10
-7.6608533238
 20
24.285563107
 11
-7.7275243364
 21
24.3466558343
  0
LINE
  5
351
100
AcDbEntity
  8
DRAFT
100
AcDbLine
 62
7
  6
CONTINUOUS
 10
-10.9595346812
 20
26.6136047693
 11
-10.8705138501
 21
26.5245839381
  0
LINE
  5
352
100
AcDbEntity
  8
0
100
AcDbLine
 62
7
  6
CONTINUOUS
 10
-9.3326592671
 20
26.4367293552
 11
-7.8819393517
 21
24.9860094398
  0
LINE
  5
353
100
AcDbEntity
  8
0
100
AcDbLine
 62
7
  6
CONTINUOUS
 10
-7.7960811991
 20
25.0260457539
 11
-9.2957856315
 21
26.5257501863
  0
LINE
  5
354
100
AcDbEntity
  8
DRAFT
100
AcDbLine
 62
7
  6
CONTINUOUS
 10
-1.8925857462
 20
21.8745839381
 11
-1.9030587851
 21
21.8850569771
  0
LINE
  5
355
100
AcDbEntity
  8
0
100
AcDbLine
 62
7
  6
CONTINUOUS
 10
14.9607191452
 20
21.8745839381
 11
14.8272557132
 21
23.4000779474
  0
LINE
  5
356
100
AcDbEntity
  8
0
100
AcDbLine
 62
7
  6
CONTINUOUS
 10
14.7446538346
 20
24.3442217396
 11
14.7047738145
 21
24.8000524547
  0
LINE
  5
357
100
AcDbEntity
  8
DRAFT
100
AcDbLine
 62
7
  6
CONTINUOUS
 10
15.0422917079
 20
21.9636047693
 11
14.9110587127
 21
23.4636047693
  0
LINE
  5
358
100
AcDbEntity
  8
0
100
AcDbLine
 62
7
  6
CONTINUOUS
 10
14.8391466762
 20
24.285563107
 11
14.7906319672
 21
24.8400887688
  0
LINE
  5
359
100
AcDbEntity
  8
0
100
AcDbLine
 62
7
  6
CONTINUOUS
 10
14.9607191452
 20
-23.1254160619
 11
14.8272557132
 21
-24.6509100711
  0
LINE
  5
35A
100
AcDbEntity
  8
0
100
AcDbLine
 62
7
  6
CONTINUOUS
 10
14.7446538346
 20
-25.5950538633
 11
14.7047738145
 21
-26.0508845784
  0
LINE
  5
35B
100
AcDbEntity
  8
0
100
AcDbLine
 62
7
  6
CONTINUOUS
 10
14.7906319672
 20
-26.0909208925
 11
14.8391466762
 21
-25.5363952307
  0
LINE
  5
35C
100
AcDbEntity
  8
DRAFT
100
AcDbLine
 62
7
  6
CONTINUOUS
 10
14.9110587127
 20
-24.714436893
 11
15.0422917079
 21
-23.214436893
  0
LINE
  5
35D
100
AcDbEntity
  8
0
100
AcDbLine
 62
250
  6
CONTINUOUS
 10
7.491631567
 20
-27.6875614789
 11
7.4547579314
 21
-27.7765823101
  0
LINE
  5
35E
100
AcDbEntity
  8
0
100
AcDbLine
 62
250
  6
CONTINUOUS
 10
7.7037312926
 20
-27.7754160619
 11
7.6668576571
 21
-27.864436893
  0
LINE
  5
35F
100
AcDbEntity
  8
DRAFT
100
AcDbLine
 62
7
  6
CONTINUOUS
 10
3.2074142538
 20
-23.1254160619
 11
3.1969412149
 21
-23.1358891008
  0
LINE
  5
360
100
AcDbEntity
  8
0
100
AcDbLine
 62
250
  6
CONTINUOUS
 10
-16.5458015146
 20
-26.0508845784
 11
-16.6316596673
 21
-26.0909208925
  0
LINE
  5
361
100
AcDbEntity
  8
0
100
AcDbLine
 62
250
  6
CONTINUOUS
 10
-16.4590883484
 20
-26.2368415635
 11
-16.544946501
 21
-26.2768778776
  0
LINE
  5
362
100
AcDbEntity
  8
0
100
AcDbLine
 62
250
  6
CONTINUOUS
 10
-16.6316596673
 20
24.8400887688
 11
-16.5458015146
 21
24.8000524547
  0
LINE
  5
363
100
AcDbEntity
  8
0
100
AcDbLine
 62
250
  6
CONTINUOUS
 10
-16.544946501
 20
25.0260457539
 11
-16.4590883484
 21
24.9860094398
  0
LINE
  5
364
100
AcDbEntity
  8
DRAFT
100
AcDbLine
 62
7
  6
CONTINUOUS
 10
3.2074142538
 20
21.8745839381
 11
3.1969412149
 21
21.8850569771
  0
LINE
  5
365
100
AcDbEntity
  8
0
100
AcDbLine
 62
250
  6
CONTINUOUS
 10
7.491631567
 20
26.4367293552
 11
7.4547579314
 21
26.5257501863
  0
LINE
  5
366
100
AcDbEntity
  8
0
100
AcDbLine
 62
250
  6
CONTINUOUS
 10
7.7037312926
 20
26.5245839381
 11
7.6668576571
 21
26.6136047693
  0
LINE
  5
367
100
AcDbEntity
  8
DRAFT
100
AcDbLine
 62
7
  6
CONTINUOUS
 10
21.5794861499
 20
18.1140802414
 11
21.5794861499
 21
-19.3649123651
  0
LINE
  5
368
100
AcDbEntity
  8
DRAFT
100
AcDbLine
 62
7
  6
CONTINUOUS
 10
21.6335968512
 20
21.9286946394
 11
21.6335968512
 21
18.0969973245
  0
LINE
  5
369
100
AcDbEntity
  8
DRAFT
100
AcDbLine
 62
7
  6
CONTINUOUS
 10
21.6335968512
 20
-19.3478294482
 11
21.6335968512
 21
-23.1795267631
  0
LINE
  5
36A
100
AcDbEntity
  8
DRAFT
100
AcDbLine
 62
7
  6
CONTINUOUS
 10
21.6685069811
 20
21.9636047693
 11
21.6685069811
 21
-23.214436893
  0
LINE
  5
36B
100
AcDbEntity
  8
0
100
AcDbLine
 62
7
  6
CONTINUOUS
 10
10.8111193407
 20
-27.2305164895
 11
10.6294861499
 21
-27.7754160619
  0
LINE
  5
36C
100
AcDbEntity
  8
0
100
AcDbLine
 62
7
  6
CONTINUOUS
 10
10.8752819255
 20
-27.3195373206
 11
10.6936487348
 21
-27.864436893
  0
LWPOLYLINE
  5
36D
100
AcDbEntity
  8
0
100
AcDbPolyline
 62
7
  6
CONTINUOUS
 90
16
 70
0
 10
10.8111193407
 20
-27.2305164895
 10
10.8199369906
 20
-27.2073112501
 10
10.8306650967
 20
-27.1848730542
 10
10.8432405199
 20
-27.1633611445
 10
10.8575913831
 20
-27.1429236409
 10
10.8736242637
 20
-27.1237158168
 10
10.8912196705
 20
-27.1058948108
 10
10.9102657497
 20
-27.0895839437
 10
10.9306277836
 20
-27.07490782
 10
10.9521245299
 20
-27.0619970718
 10
10.9745951769
 20
-27.0509401001
 10
10.9978873608
 20
-27.0418040215
 10
11.0218142205
 20
-27.0346525033
 10
11.0461989079
 20
-27.0295250726
 10
11.0708781747
 20
-27.026443078
 10
11.0956809834
 20
-27.0254160619
  0
LINE
  5
36E
100
AcDbEntity
  8
DRAFT
100
AcDbLine
 62
7
  6
CONTINUOUS
 10
5.616680592
 20
-23.214436893
 11
5.6982531547
 21
-23.1254160619
  0
LINE
  5
36F
100
AcDbEntity
  8
DRAFT
100
AcDbLine
 62
7
  6
CONTINUOUS
 10
5.7479135872
 20
-24.714436893
 11
5.8038947577
 21
-24.6533441657
  0
LINE
  5
370
100
AcDbEntity
  8
DRAFT
100
AcDbLine
 62
7
  6
CONTINUOUS
 10
-19.2925857462
 20
21.8745839381
 11
-16.8017468453
 21
21.8745839381
  0
LINE
  5
371
100
AcDbEntity
  8
DRAFT
100
AcDbLine
 62
7
  6
CONTINUOUS
 10
-14.6705138501
 20
21.8745839381
 11
-9.6705138501
 21
21.8745839381
  0
LINE
  5
372
100
AcDbEntity
  8
DRAFT
100
AcDbLine
 62
7
  6
CONTINUOUS
 10
-7.5392808548
 20
21.8745839381
 11
-5.0484419539
 21
21.8745839381
  0
LINE
  5
373
100
AcDbEntity
  8
DRAFT
100
AcDbLine
 62
7
  6
CONTINUOUS
 10
-1.8925857462
 20
21.8745839381
 11
0.0515580461
 21
21.8745839381
  0
LINE
  5
374
100
AcDbEntity
  8
DRAFT
100
AcDbLine
 62
7
  6
CONTINUOUS
 10
3.2074142538
 20
21.8745839381
 11
5.6982531547
 21
21.8745839381
  0
LINE
  5
375
100
AcDbEntity
  8
DRAFT
100
AcDbLine
 62
7
  6
CONTINUOUS
 10
7.8294861499
 20
21.8745839381
 11
12.8294861499
 21
21.8745839381
  0
LINE
  5
376
100
AcDbEntity
  8
DRAFT
100
AcDbLine
 62
7
  6
CONTINUOUS
 10
14.9607191452
 20
21.8745839381
 11
17.4515580461
 21
21.8745839381
  0
LINE
  5
377
100
AcDbEntity
  8
DRAFT
100
AcDbLine
 62
7
  6
CONTINUOUS
 10
-19.6495371144
 20
21.8850569771
 11
-19.3030587851
 21
21.8850569771
  0
LINE
  5
378
100
AcDbEntity
  8
DRAFT
100
AcDbLine
 62
7
  6
CONTINUOUS
 10
17.8085094143
 20
21.8850569771
 11
17.462031085
 21
21.8850569771
  0
LINE
  5
379
100
AcDbEntity
  8
DRAFT
100
AcDbLine
 62
7
  6
CONTINUOUS
 10
0.062031085
 20
21.8850569771
 11
3.1969412149
 21
21.8850569771
  0
LINE
  5
37A
100
AcDbEntity
  8
DRAFT
100
AcDbLine
 62
7
  6
CONTINUOUS
 10
-1.9030587851
 20
21.8850569771
 11
-5.037968915
 21
21.8850569771
  0
LINE
  5
37B
100
AcDbEntity
  8
DRAFT
100
AcDbLine
 62
7
  6
CONTINUOUS
 10
-23.4746245513
 20
21.9286946394
 11
-19.6429272364
 21
21.9286946394
  0
LINE
  5
37C
100
AcDbEntity
  8
DRAFT
100
AcDbLine
 62
7
  6
CONTINUOUS
 10
17.8018995363
 20
21.9286946394
 11
21.6335968512
 21
21.9286946394
  0
LINE
  5
37D
100
AcDbEntity
  8
DRAFT
100
AcDbLine
 62
7
  6
CONTINUOUS
 10
21.6685069811
 20
21.9636047693
 11
15.0422917079
 21
21.9636047693
  0
LINE
  5
37E
100
AcDbEntity
  8
DRAFT
100
AcDbLine
 62
7
  6
CONTINUOUS
 10
10.7404653188
 20
21.9636047693
 11
9.9185069811
 21
21.9636047693
  0
LINE
  5
37F
100
AcDbEntity
  8
DRAFT
100
AcDbLine
 62
7
  6
CONTINUOUS
 10
5.616680592
 20
21.9636047693
 11
-7.4577082921
 21
21.9636047693
  0
LINE
  5
380
100
AcDbEntity
  8
DRAFT
100
AcDbLine
 62
7
  6
CONTINUOUS
 10
-11.7595346812
 20
21.9636047693
 11
-12.5814930189
 21
21.9636047693
  0
LINE
  5
381
100
AcDbEntity
  8
DRAFT
100
AcDbLine
 62
7
  6
CONTINUOUS
 10
-16.883319408
 20
21.9636047693
 11
-23.5095346812
 21
21.9636047693
  0
LINE
  5
382
100
AcDbEntity
  8
DRAFT
100
AcDbLine
 62
7
  6
CONTINUOUS
 10
5.6982531547
 20
21.8745839381
 11
5.616680592
 21
21.9636047693
  0
LINE
  5
383
100
AcDbEntity
  8
DRAFT
100
AcDbLine
 62
7
  6
CONTINUOUS
 10
5.7479135872
 20
23.4636047693
 11
5.8038947577
 21
23.402512042
  0
LWPOLYLINE
  5
384
100
AcDbEntity
  8
0
100
AcDbPolyline
 62
7
  6
CONTINUOUS
 90
16
 70
0
 10
10.8111193407
 20
25.9796843658
 10
10.8199369906
 20
25.9564791264
 10
10.8306650967
 20
25.9340409305
 10
10.8432405199
 20
25.9125290207
 10
10.8575913831
 20
25.8920915172
 10
10.8736242637
 20
25.8728836931
 10
10.8912196705
 20
25.8550626871
 10
10.9102657497
 20
25.83875182
 10
10.9306277836
 20
25.8240756963
 10
10.9521245299
 20
25.8111649481
 10
10.9745951769
 20
25.8001079764
 10
10.9978873608
 20
25.7909718977
 10
11.0218142205
 20
25.7838203796
 10
11.0461989079
 20
25.7786929488
 10
11.0708781747
 20
25.7756109543
 10
11.0956809834
 20
25.7745839381
  0
LINE
  5
385
100
AcDbEntity
  8
0
100
AcDbLine
 62
7
  6
CONTINUOUS
 10
10.6294861499
 20
26.5245839381
 11
10.8111193407
 21
25.9796843658
  0
LINE
  5
386
100
AcDbEntity
  8
0
100
AcDbLine
 62
7
  6
CONTINUOUS
 10
10.6936487348
 20
26.6136047693
 11
10.8752819255
 21
26.0687051969
  0
LINE
  5
387
100
AcDbEntity
  8
0
100
AcDbLine
 62
250
  6
CONTINUOUS
 10
9.4991287317
 20
-27.114436893
 11
9.5632913165
 21
-27.0254160619
  0
LINE
  5
388
100
AcDbEntity
  8
0
100
AcDbLine
 62
250
  6
CONTINUOUS
 10
9.7836903743
 20
-27.3195373206
 11
9.8478529592
 21
-27.2305164895
  0
LINE
  5
389
100
AcDbEntity
  8
DRAFT
100
AcDbLine
 62
7
  6
CONTINUOUS
 10
10.0294861499
 20
-27.7754160619
 11
9.9653235651
 21
-27.864436893
  0
LINE
  5
38A
100
AcDbEntity
  8
DRAFT
100
AcDbLine
 62
7
  6
CONTINUOUS
 10
7.8574142538
 20
-25.597487958
 11
7.8294861499
 21
-25.6254160619
  0
LINE
  5
38B
100
AcDbEntity
  8
DRAFT
100
AcDbLine
 62
7
  6
CONTINUOUS
 10
10.8294861499
 20
-23.1254160619
 11
10.7404653188
 21
-23.214436893
  0
LINE
  5
38C
100
AcDbEntity
  8
DRAFT
100
AcDbLine
 62
7
  6
CONTINUOUS
 10
10.8294861499
 20
-24.6254160619
 11
10.7404653188
 21
-24.714436893
  0
LINE
  5
38D
100
AcDbEntity
  8
DRAFT
100
AcDbLine
 62
7
  6
CONTINUOUS
 10
12.8294861499
 20
-24.6254160619
 11
12.8015580461
 21
-24.6533441657
  0
LINE
  5
38E
100
AcDbEntity
  8
0
100
AcDbLine
 62
250
  6
CONTINUOUS
 10
5.9541984854
 20
-26.0508845784
 11
5.8683403327
 21
-26.0909208925
  0
LINE
  5
38F
100
AcDbEntity
  8
0
100
AcDbLine
 62
250
  6
CONTINUOUS
 10
6.0409116516
 20
-26.2368415635
 11
5.955053499
 21
-26.2768778776
  0
LWPOLYLINE
  5
390
100
AcDbEntity
  8
0
100
AcDbPolyline
 62
7
  6
CONTINUOUS
 90
19
 70
0
 10
11.3295318414
 20
25.7745839381
 10
11.3555873132
 20
25.7757173288
 10
11.3814709102
 20
25.779113725
 10
11.4069858465
 20
25.7847541153
 10
11.4319416994
 20
25.7926039308
 10
11.4561419383
 20
25.802609158
 10
11.4793870168
 20
25.8146927522
 10
11.501497535
 20
25.8287647791
 10
11.5223039448
 20
25.844720765
 10
11.5416371083
 20
25.8624329798
 10
11.559349323
 20
25.8817661433
 10
11.575305309
 20
25.902572553
 10
11.5893773359
 20
25.9246830713
 10
11.6014609301
 20
25.9479281498
 10
11.6114661572
 20
25.9721283887
 10
11.6193159728
 20
25.9970842416
 10
11.6249563631
 20
26.0225991779
 10
11.6283527593
 20
26.0484827749
 10
11.6294861499
 20
26.0745382467
  0
LWPOLYLINE
  5
391
100
AcDbEntity
  8
0
100
AcDbPolyline
 62
7
  6
CONTINUOUS
 90
19
 70
0
 10
-11.1704681586
 20
25.7745839381
 10
-11.1444126868
 20
25.7757173288
 10
-11.1185290898
 20
25.779113725
 10
-11.0930141535
 20
25.7847541153
 10
-11.0680583006
 20
25.7926039308
 10
-11.0438580617
 20
25.802609158
 10
-11.0206129832
 20
25.8146927522
 10
-10.998502465
 20
25.8287647791
 10
-10.9776960552
 20
25.844720765
 10
-10.9583628917
 20
25.8624329798
 10
-10.940650677
 20
25.8817661433
 10
-10.924694691
 20
25.902572553
 10
-10.9106226641
 20
25.9246830713
 10
-10.8985390699
 20
25.9479281498
 10
-10.8885338428
 20
25.9721283887
 10
-10.8806840272
 20
25.9970842416
 10
-10.8750436369
 20
26.0225991779
 10
-10.8716472407
 20
26.0484827749
 10
-10.8705138501
 20
26.0745382467
  0
LINE
  5
392
100
AcDbEntity
  8
DRAFT
100
AcDbLine
 62
7
  6
CONTINUOUS
 10
-14.6705138501
 20
23.3745839381
 11
-12.6705138501
 21
23.3745839381
  0
LINE
  5
393
100
AcDbEntity
  8
DRAFT
100
AcDbLine
 62
7
  6
CONTINUOUS
 10
-11.6705138501
 20
23.3745839381
 11
-9.6705138501
 21
23.3745839381
  0
LINE
  5
394
100
AcDbEntity
  8
DRAFT
100
AcDbLine
 62
7
  6
CONTINUOUS
 10
7.8294861499
 20
23.3745839381
 11
9.8294861499
 21
23.3745839381
  0
LINE
  5
395
100
AcDbEntity
  8
DRAFT
100
AcDbLine
 62
7
  6
CONTINUOUS
 10
10.8294861499
 20
23.3745839381
 11
12.8294861499
 21
23.3745839381
  0
LINE
  5
396
100
AcDbEntity
  8
DRAFT
100
AcDbLine
 62
7
  6
CONTINUOUS
 10
-16.6961052423
 20
23.402512042
 11
-14.6425857462
 21
23.402512042
  0
LINE
  5
397
100
AcDbEntity
  8
DRAFT
100
AcDbLine
 62
7
  6
CONTINUOUS
 10
-9.6984419539
 20
23.402512042
 11
-7.6449224578
 21
23.402512042
  0
LINE
  5
398
100
AcDbEntity
  8
DRAFT
100
AcDbLine
 62
7
  6
CONTINUOUS
 10
5.8038947577
 20
23.402512042
 11
7.8574142538
 21
23.402512042
  0
LINE
  5
399
100
AcDbEntity
  8
DRAFT
100
AcDbLine
 62
7
  6
CONTINUOUS
 10
12.8015580461
 20
23.402512042
 11
14.8550775422
 21
23.402512042
  0
LINE
  5
39A
100
AcDbEntity
  8
DRAFT
100
AcDbLine
 62
7
  6
CONTINUOUS
 10
-16.7520864128
 20
23.4636047693
 11
-12.5814930189
 21
23.4636047693
  0
LINE
  5
39B
100
AcDbEntity
  8
DRAFT
100
AcDbLine
 62
7
  6
CONTINUOUS
 10
-11.7595346812
 20
23.4636047693
 11
-7.5889412873
 21
23.4636047693
  0
LINE
  5
39C
100
AcDbEntity
  8
DRAFT
100
AcDbLine
 62
7
  6
CONTINUOUS
 10
5.7479135872
 20
23.4636047693
 11
9.9185069811
 21
23.4636047693
  0
LINE
  5
39D
100
AcDbEntity
  8
DRAFT
100
AcDbLine
 62
7
  6
CONTINUOUS
 10
10.7404653188
 20
23.4636047693
 11
14.9110587127
 21
23.4636047693
  0
LINE
  5
39E
100
AcDbEntity
  8
DRAFT
100
AcDbLine
 62
7
  6
CONTINUOUS
 10
14.8391466762
 20
24.285563107
 11
5.8198256237
 21
24.285563107
  0
LINE
  5
39F
100
AcDbEntity
  8
DRAFT
100
AcDbLine
 62
7
  6
CONTINUOUS
 10
-7.6608533238
 20
24.285563107
 11
-16.6801743763
 21
24.285563107
  0
LINE
  5
3A0
100
AcDbEntity
  8
DRAFT
100
AcDbLine
 62
7
  6
CONTINUOUS
 10
14.7724756636
 20
24.3466558343
 11
12.8015580461
 21
24.3466558343
  0
LINE
  5
3A1
100
AcDbEntity
  8
DRAFT
100
AcDbLine
 62
7
  6
CONTINUOUS
 10
7.8574142538
 20
24.3466558343
 11
5.8864966363
 21
24.3466558343
  0
LINE
  5
3A2
100
AcDbEntity
  8
DRAFT
100
AcDbLine
 62
7
  6
CONTINUOUS
 10
-7.7275243364
 20
24.3466558343
 11
-9.6984419539
 21
24.3466558343
  0
LINE
  5
3A3
100
AcDbEntity
  8
DRAFT
100
AcDbLine
 62
7
  6
CONTINUOUS
 10
-14.6425857462
 20
24.3466558343
 11
-16.6135033637
 21
24.3466558343
  0
LINE
  5
3A4
100
AcDbEntity
  8
DRAFT
100
AcDbLine
 62
7
  6
CONTINUOUS
 10
-14.6705138501
 20
24.3745839381
 11
-9.6705138501
 21
24.3745839381
  0
LINE
  5
3A5
100
AcDbEntity
  8
DRAFT
100
AcDbLine
 62
7
  6
CONTINUOUS
 10
7.8294861499
 20
24.3745839381
 11
12.8294861499
 21
24.3745839381
  0
LINE
  5
3A6
100
AcDbEntity
  8
DRAFT
100
AcDbLine
 62
7
  6
CONTINUOUS
 10
-14.6477860884
 20
24.7245839381
 11
-9.6932416117
 21
24.7245839381
  0
LINE
  5
3A7
100
AcDbEntity
  8
DRAFT
100
AcDbLine
 62
7
  6
CONTINUOUS
 10
7.8522139116
 20
24.7245839381
 11
12.8067583883
 21
24.7245839381
  0
LINE
  5
3A8
100
AcDbEntity
  8
0
100
AcDbLine
 62
7
  6
CONTINUOUS
 10
11.3295318414
 20
25.7745839381
 11
11.0956809834
 21
25.7745839381
  0
LINE
  5
3A9
100
AcDbEntity
  8
0
100
AcDbLine
 62
7
  6
CONTINUOUS
 10
9.5632913165
 20
25.7745839381
 11
9.3294404585
 21
25.7745839381
  0
LINE
  5
3AA
100
AcDbEntity
  8
0
100
AcDbLine
 62
7
  6
CONTINUOUS
 10
-11.1704681586
 20
25.7745839381
 11
-11.4043190166
 21
25.7745839381
  0
LINE
  5
3AB
100
AcDbEntity
  8
0
100
AcDbLine
 62
7
  6
CONTINUOUS
 10
-12.9367086835
 20
25.7745839381
 11
-13.1705595415
 21
25.7745839381
  0
LINE
  5
3AC
100
AcDbEntity
  8
0
100
AcDbLine
 62
7
  6
CONTINUOUS
 10
11.2405110103
 20
25.8636047693
 11
11.1598435682
 21
25.8636047693
  0
LINE
  5
3AD
100
AcDbEntity
  8
0
100
AcDbLine
 62
7
  6
CONTINUOUS
 10
9.4991287317
 20
25.8636047693
 11
9.4184612896
 21
25.8636047693
  0
LINE
  5
3AE
100
AcDbEntity
  8
0
100
AcDbLine
 62
7
  6
CONTINUOUS
 10
-11.2594889897
 20
25.8636047693
 11
-11.3401564318
 21
25.8636047693
  0
LINE
  5
3AF
100
AcDbEntity
  8
0
100
AcDbLine
 62
7
  6
CONTINUOUS
 10
-13.0008712683
 20
25.8636047693
 11
-13.0815387104
 21
25.8636047693
  0
LINE
  5
3B0
100
AcDbEntity
  8
0
100
AcDbLine
 62
250
  6
CONTINUOUS
 10
5.8683403327
 20
24.8400887688
 11
5.9541984854
 21
24.8000524547
  0
LINE
  5
3B1
100
AcDbEntity
  8
0
100
AcDbLine
 62
250
  6
CONTINUOUS
 10
5.955053499
 20
25.0260457539
 11
6.0409116516
 21
24.9860094398
  0
LINE
  5
3B2
100
AcDbEntity
  8
DRAFT
100
AcDbLine
 62
7
  6
CONTINUOUS
 10
7.8294861499
 20
24.3745839381
 11
7.8574142538
 21
24.3466558343
  0
LINE
  5
3B3
100
AcDbEntity
  8
DRAFT
100
AcDbLine
 62
7
  6
CONTINUOUS
 10
10.8294861499
 20
21.8745839381
 11
10.7404653188
 21
21.9636047693
  0
LINE
  5
3B4
100
AcDbEntity
  8
DRAFT
100
AcDbLine
 62
7
  6
CONTINUOUS
 10
10.7404653188
 20
23.4636047693
 11
10.8294861499
 21
23.3745839381
  0
LINE
  5
3B5
100
AcDbEntity
  8
DRAFT
100
AcDbLine
 62
7
  6
CONTINUOUS
 10
12.8015580461
 20
23.402512042
 11
12.8294861499
 21
23.3745839381
  0
LINE
  5
3B6
100
AcDbEntity
  8
0
100
AcDbLine
 62
250
  6
CONTINUOUS
 10
9.5632913165
 20
25.7745839381
 11
9.4991287317
 21
25.8636047693
  0
LINE
  5
3B7
100
AcDbEntity
  8
0
100
AcDbLine
 62
250
  6
CONTINUOUS
 10
9.8478529592
 20
25.9796843658
 11
9.7836903743
 21
26.0687051969
  0
LINE
  5
3B8
100
AcDbEntity
  8
DRAFT
100
AcDbLine
 62
7
  6
CONTINUOUS
 10
10.0294861499
 20
26.5245839381
 11
9.9653235651
 21
26.6136047693
  0
LINE
  5
3B9
100
AcDbEntity
  8
0
100
AcDbLine
 62
250
  6
CONTINUOUS
 10
11.3295318414
 20
-27.0254160619
 11
11.2405110103
 21
-27.114436893
  0
LINE
  5
3BA
100
AcDbEntity
  8
0
100
AcDbLine
 62
250
  6
CONTINUOUS
 10
11.6294861499
 20
-27.3253703704
 11
11.5404653188
 21
-27.4143912015
  0
LINE
  5
3BB
100
AcDbEntity
  8
DRAFT
100
AcDbLine
 62
7
  6
CONTINUOUS
 10
11.5404653188
 20
-27.864436893
 11
11.6294861499
 21
-27.7754160619
  0
LINE
  5
3BC
100
AcDbEntity
  8
0
100
AcDbLine
 62
7
  6
CONTINUOUS
 10
14.6180606483
 20
-26.2368415635
 11
13.1673407329
 21
-27.6875614789
  0
LINE
  5
3BD
100
AcDbEntity
  8
DRAFT
100
AcDbLine
 62
7
  6
CONTINUOUS
 10
21.6074142538
 20
-19.3369842613
 11
17.7910543493
 21
-23.1533441657
  0
LINE
  5
3BE
100
AcDbEntity
  8
0
100
AcDbLine
 62
7
  6
CONTINUOUS
 10
13.2042143685
 20
-27.7765823101
 11
14.7039188009
 21
-26.2768778776
  0
LINE
  5
3BF
100
AcDbEntity
  8
DRAFT
100
AcDbLine
 62
7
  6
CONTINUOUS
 10
21.6335968512
 20
-19.3478294482
 11
17.8018995363
 21
-23.1795267631
  0
LINE
  5
3C0
100
AcDbEntity
  8
DRAFT
100
AcDbLine
 62
7
  6
CONTINUOUS
 10
14.8391466762
 20
-25.5363952307
 11
14.7724756636
 21
-25.597487958
  0
LINE
  5
3C1
100
AcDbEntity
  8
0
100
AcDbLine
 62
7
  6
CONTINUOUS
 10
-14.7962687074
 20
26.5245839381
 11
-13.4705138501
 21
26.5245839381
  0
LINE
  5
3C2
100
AcDbEntity
  8
DRAFT
100
AcDbLine
 62
7
  6
CONTINUOUS
 10
-12.4705138501
 20
26.5245839381
 11
-11.8705138501
 21
26.5245839381
  0
LINE
  5
3C3
100
AcDbEntity
  8
0
100
AcDbLine
 62
7
  6
CONTINUOUS
 10
-10.8705138501
 20
26.5245839381
 11
-9.5447589927
 21
26.5245839381
  0
LINE
  5
3C4
100
AcDbEntity
  8
0
100
AcDbLine
 62
7
  6
CONTINUOUS
 10
7.7037312926
 20
26.5245839381
 11
9.0294861499
 21
26.5245839381
  0
LINE
  5
3C5
100
AcDbEntity
  8
DRAFT
100
AcDbLine
 62
7
  6
CONTINUOUS
 10
10.0294861499
 20
26.5245839381
 11
10.6294861499
 21
26.5245839381
  0
LINE
  5
3C6
100
AcDbEntity
  8
0
100
AcDbLine
 62
7
  6
CONTINUOUS
 10
11.6294861499
 20
26.5245839381
 11
12.9552410073
 21
26.5245839381
  0
LINE
  5
3C7
100
AcDbEntity
  8
0
100
AcDbLine
 62
7
  6
CONTINUOUS
 10
12.9921146428
 20
26.6136047693
 11
11.5404653188
 21
26.6136047693
  0
LINE
  5
3C8
100
AcDbEntity
  8
DRAFT
100
AcDbLine
 62
7
  6
CONTINUOUS
 10
10.6936487348
 20
26.6136047693
 11
9.9653235651
 21
26.6136047693
  0
LINE
  5
3C9
100
AcDbEntity
  8
0
100
AcDbLine
 62
7
  6
CONTINUOUS
 10
9.1185069811
 20
26.6136047693
 11
7.6668576571
 21
26.6136047693
  0
LINE
  5
3CA
100
AcDbEntity
  8
0
100
AcDbLine
 62
7
  6
CONTINUOUS
 10
-9.5078853572
 20
26.6136047693
 11
-10.9595346812
 21
26.6136047693
  0
LINE
  5
3CB
100
AcDbEntity
  8
DRAFT
100
AcDbLine
 62
7
  6
CONTINUOUS
 10
-11.8063512652
 20
26.6136047693
 11
-12.5346764349
 21
26.6136047693
  0
LINE
  5
3CC
100
AcDbEntity
  8
0
100
AcDbLine
 62
7
  6
CONTINUOUS
 10
-13.3814930189
 20
26.6136047693
 11
-14.8331423429
 21
26.6136047693
  0
LINE
  5
3CD
100
AcDbEntity
  8
DRAFT
100
AcDbLine
 62
7
  6
CONTINUOUS
 10
14.8391466762
 20
24.285563107
 11
14.7724756636
 21
24.3466558343
  0
LINE
  5
3CE
100
AcDbEntity
  8
0
100
AcDbLine
 62
250
  6
CONTINUOUS
 10
11.3295318414
 20
25.7745839381
 11
11.2405110103
 21
25.8636047693
  0
LINE
  5
3CF
100
AcDbEntity
  8
0
100
AcDbLine
 62
250
  6
CONTINUOUS
 10
11.6294861499
 20
26.0745382467
 11
11.5404653188
 21
26.1635590778
  0
LINE
  5
3D0
100
AcDbEntity
  8
DRAFT
100
AcDbLine
 62
7
  6
CONTINUOUS
 10
11.5404653188
 20
26.6136047693
 11
11.6294861499
 21
26.5245839381
  0
LINE
  5
3D1
100
AcDbEntity
  8
0
100
AcDbLine
 62
7
  6
CONTINUOUS
 10
13.1673407329
 20
26.4367293552
 11
14.6180606483
 21
24.9860094398
  0
LINE
  5
3D2
100
AcDbEntity
  8
DRAFT
100
AcDbLine
 62
7
  6
CONTINUOUS
 10
17.7910543493
 20
21.902512042
 11
21.6074142538
 21
18.0861521375
  0
LINE
  5
3D3
100
AcDbEntity
  8
0
100
AcDbLine
 62
7
  6
CONTINUOUS
 10
14.7039188009
 20
25.0260457539
 11
13.2042143685
 21
26.5257501863
  0
LINE
  5
3D4
100
AcDbEntity
  8
DRAFT
100
AcDbLine
 62
7
  6
CONTINUOUS
 10
17.8018995363
 20
21.9286946394
 11
21.6335968512
 21
18.0969973245
  0
LINE
  5
3D5
100
AcDbEntity
  8
0
100
AcDbLine
 62
7
  6
CONTINUOUS
 10
27.6406727228
 20
-25.6510687288
 11
24.1051388168
 21
-29.1866026347
  0
LINE
  5
3D6
100
AcDbEntity
  8
0
100
AcDbLine
 62
7
  6
CONTINUOUS
 10
24.1051388168
 20
27.935770511
 11
27.6406727228
 21
24.400236605
  0
LINE
  5
3D7
100
AcDbEntity
  8
DRAFT
100
AcDbLine
 62
7
  6
CONTINUOUS
 10
39.2629133774
 20
-37.6254160619
 11
39.2629133774
 21
36.3745839381
  0
LINE
  5
3D8
100
AcDbEntity
  8
0
100
AcDbLine
 62
7
  6
CONTINUOUS
 10
26.5182995771
 20
-31.599763395
 11
30.053833483
 21
-28.064229489
  0
LINE
  5
3D9
100
AcDbEntity
  8
DRAFT
100
AcDbLine
 62
7
  6
CONTINUOUS
 10
36.0794861499
 20
39.5580111656
 11
-37.9205138501
 21
39.5580111656
  0
LINE
  5
3DA
100
AcDbEntity
  8
0
100
AcDbLine
 62
7
  6
CONTINUOUS
 10
30.053833483
 20
26.8133973653
 11
26.5182995771
 21
30.3489312712
  0
ARC
  5
3DB
100
AcDbEntity
  8
0
100
AcDbCircle
 62
7
  6
CONTINUOUS
 10
-5.5205138501
 20
-30.2706517668
 40
3.3063623377
100
AcDbArc
 50
23.0461299817
 51
324.8370368861
  0
ARC
  5
3DC
100
AcDbEntity
  8
DRAFT
100
AcDbCircle
 62
7
  6
CONTINUOUS
 10
-37.9205138501
 20
-37.6254160619
 40
3.1834272275
100
AcDbArc
 50
180.0
 51
270.0
  0
ARC
  5
3DD
100
AcDbEntity
  8
0
100
AcDbCircle
 62
7
  6
CONTINUOUS
 10
-27.1527468971
 20
-30.3931830148
 40
1.7063623377
100
AcDbArc
 50
225.0
 51
45.0
  0
ARC
  5
3DE
100
AcDbEntity
  8
0
100
AcDbCircle
 62
7
  6
CONTINUOUS
 10
-30.688280803
 20
-26.8576491089
 40
1.7063623377
100
AcDbArc
 50
45.0
 51
225.0
  0
ARC
  5
3DF
100
AcDbEntity
  8
0
100
AcDbCircle
 62
7
  6
CONTINUOUS
 10
-30.565749555
 20
-5.2254160619
 40
1.6063623377
100
AcDbArc
 50
188.8201478292
 51
8.8201478292
  0
CIRCLE
  5
3E0
100
AcDbEntity
  8
CURVE
100
AcDbCircle
 62
7
  6
CONTINUOUS
 10
-28.9205138501
 20
-28.6254160619
 40
0.005
  0
ARC
  5
3E1
100
AcDbEntity
  8
0
100
AcDbCircle
 62
7
  6
CONTINUOUS
 10
-30.565749555
 20
3.9745839381
 40
3.3063623377
100
AcDbArc
 50
293.0461299817
 51
234.8370368861
  0
ARC
  5
3E2
100
AcDbEntity
  8
DRAFT
100
AcDbCircle
 62
7
  6
CONTINUOUS
 10
-37.9205138501
 20
36.3745839381
 40
3.1834272275
100
AcDbArc
 50
90.0
 51
180.0
  0
ARC
  5
3E3
100
AcDbEntity
  8
0
100
AcDbCircle
 62
7
  6
CONTINUOUS
 10
-30.688280803
 20
25.6068169852
 40
1.7063623377
100
AcDbArc
 50
135.0
 51
315.0
  0
ARC
  5
3E4
100
AcDbEntity
  8
0
100
AcDbCircle
 62
7
  6
CONTINUOUS
 10
-27.1527468971
 20
29.1423508911
 40
1.7063623377
100
AcDbArc
 50
315.0
 51
135.0
  0
ARC
  5
3E5
100
AcDbEntity
  8
0
100
AcDbCircle
 62
7
  6
CONTINUOUS
 10
-5.5205138501
 20
29.0198196431
 40
1.6063623377
100
AcDbArc
 50
98.8201478292
 51
278.8201478292
  0
CIRCLE
  5
3E6
100
AcDbEntity
  8
CURVE
100
AcDbCircle
 62
7
  6
CONTINUOUS
 10
-28.9205138501
 20
27.3745839381
 40
0.005
  0
ARC
  5
3E7
100
AcDbEntity
  8
0
100
AcDbCircle
 62
7
  6
CONTINUOUS
 10
28.7247218549
 20
-5.2254160619
 40
3.3063623377
100
AcDbArc
 50
113.0461299817
 51
54.8370368861
  0
ARC
  5
3E8
100
AcDbEntity
  8
DRAFT
100
AcDbCircle
 62
7
  6
CONTINUOUS
 10
36.0794861499
 20
-37.6254160619
 40
3.1834272275
100
AcDbArc
 50
270.0
 51
360.0
  0
ARC
  5
3E9
100
AcDbEntity
  8
0
100
AcDbCircle
 62
7
  6
CONTINUOUS
 10
28.8472531029
 20
-26.8576491089
 40
1.7063623377
100
AcDbArc
 50
315.0
 51
135.0
  0
ARC
  5
3EA
100
AcDbEntity
  8
0
100
AcDbCircle
 62
7
  6
CONTINUOUS
 10
25.311719197
 20
-30.3931830148
 40
1.7063623377
100
AcDbArc
 50
135.0
 51
315.0
  0
ARC
  5
3EB
100
AcDbEntity
  8
0
100
AcDbCircle
 62
7
  6
CONTINUOUS
 10
3.6794861499
 20
-30.2706517668
 40
1.6063623377
100
AcDbArc
 50
278.8201478292
 51
98.8201478292
  0
CIRCLE
  5
3EC
100
AcDbEntity
  8
CURVE
100
AcDbCircle
 62
7
  6
CONTINUOUS
 10
27.0794861499
 20
-28.6254160619
 40
0.005
  0
CIRCLE
  5
3ED
100
AcDbEntity
  8
CURVE
100
AcDbCircle
 62
7
  6
CONTINUOUS
 10
-0.9205138501
 20
-30.6254160619
 40
0.005
  0
ARC
  5
3EE
100
AcDbEntity
  8
0
100
AcDbCircle
 62
7
  6
CONTINUOUS
 10
-0.9205138501
 20
-0.6254160619
 40
31.6063623377
100
AcDbArc
 50
356.5590799622
 51
8.8201478292
  0
ARC
  5
3EF
100
AcDbEntity
  8
0
100
AcDbCircle
 62
7
  6
CONTINUOUS
 10
-0.9205138501
 20
-0.6254160619
 40
31.6063623377
100
AcDbArc
 50
176.5590799622
 51
188.8201478292
  0
ARC
  5
3F0
100
AcDbEntity
  8
0
100
AcDbCircle
 62
7
  6
CONTINUOUS
 10
-0.9205138501
 20
-0.6254160619
 40
31.6063623377
100
AcDbArc
 50
266.5590799622
 51
278.8201478292
  0
ARC
  5
3F1
100
AcDbEntity
  8
0
100
AcDbCircle
 62
7
  6
CONTINUOUS
 10
-0.9205138501
 20
-0.6254160619
 40
31.6063623377
100
AcDbArc
 50
86.5590799622
 51
98.8201478292
  0
ARC
  5
3F2
100
AcDbEntity
  8
0
100
AcDbCircle
 62
7
  6
CONTINUOUS
 10
-0.9205138501
 20
-0.6254160619
 40
28.3936376623
100
AcDbArc
 50
356.8554908542
 51
8.8201478292
  0
ARC
  5
3F3
100
AcDbEntity
  8
0
100
AcDbCircle
 62
7
  6
CONTINUOUS
 10
-0.9205138501
 20
-0.6254160619
 40
28.3936376623
100
AcDbArc
 50
176.8554908542
 51
188.8201478292
  0
ARC
  5
3F4
100
AcDbEntity
  8
0
100
AcDbCircle
 62
7
  6
CONTINUOUS
 10
-0.9205138501
 20
-0.6254160619
 40
28.3936376623
100
AcDbArc
 50
266.8554908542
 51
278.8201478292
  0
ARC
  5
3F5
100
AcDbEntity
  8
0
100
AcDbCircle
 62
7
  6
CONTINUOUS
 10
-0.9205138501
 20
-0.6254160619
 40
28.3936376623
100
AcDbArc
 50
86.8554908542
 51
98.8201478292
  0
ARC
  5
3F6
100
AcDbEntity
  8
0
100
AcDbCircle
 62
7
  6
CONTINUOUS
 10
3.6794861499
 20
29.0198196431
 40
3.3063623377
100
AcDbArc
 50
203.0461299817
 51
144.8370368861
  0
ARC
  5
3F7
100
AcDbEntity
  8
DRAFT
100
AcDbCircle
 62
7
  6
CONTINUOUS
 10
36.0794861499
 20
36.3745839381
 40
3.1834272275
100
AcDbArc
 50
0.0
 51
90.0
  0
ARC
  5
3F8
100
AcDbEntity
  8
0
100
AcDbCircle
 62
7
  6
CONTINUOUS
 10
25.311719197
 20
29.1423508911
 40
1.7063623377
100
AcDbArc
 50
45.0
 51
225.0
  0
ARC
  5
3F9
100
AcDbEntity
  8
0
100
AcDbCircle
 62
7
  6
CONTINUOUS
 10
28.8472531029
 20
25.6068169852
 40
1.7063623377
100
AcDbArc
 50
225.0
 51
45.0
  0
ARC
  5
3FA
100
AcDbEntity
  8
0
100
AcDbCircle
 62
7
  6
CONTINUOUS
 10
28.7247218549
 20
3.9745839381
 40
1.6063623377
100
AcDbArc
 50
8.8201478292
 51
188.8201478292
  0
CIRCLE
  5
3FB
100
AcDbEntity
  8
CURVE
100
AcDbCircle
 62
7
  6
CONTINUOUS
 10
27.0794861499
 20
27.3745839381
 40
0.005
  0
CIRCLE
  5
3FC
100
AcDbEntity
  8
CURVE
100
AcDbCircle
 62
7
  6
CONTINUOUS
 10
-0.9205138501
 20
29.3745839381
 40
0.005
  0
ELLIPSE
  5
3FD
100
AcDbEntity
  8
0
100
AcDbEllipse
 62
7
  6
CONTINUOUS
 10
-16.3915934075
 20
24.8413400327
 30
0.0
 11
0.0613079453
 21
0.300268975
 31
0.0
 40
0.4792132085
 41
1.4565989118
 42
1.8056093283
  0
ELLIPSE
  5
3FE
100
AcDbEntity
  8
0
100
AcDbEllipse
 62
7
  6
CONTINUOUS
 10
-16.3915934075
 20
24.8413400327
 30
0.0
 11
0.1906113921
 21
0.2399737875
 31
0.0
 40
0.4792132085
 41
1.3359833253
 42
1.6849937418
  0
ELLIPSE
  5
3FF
100
AcDbEntity
  8
0
100
AcDbEllipse
 62
7
  6
CONTINUOUS
 10
-14.8583723512
 20
26.3745610889
 30
0.0
 11
0.2440046096
 21
0.1884669564
 31
0.0
 40
0.473479458
 41
1.4430130577
 42
1.8356490535
  0
ELLIPSE
  5
400
100
AcDbEntity
  8
0
100
AcDbEllipse
 62
7
  6
CONTINUOUS
 10
-14.8583723512
 20
26.3745610889
 30
0.0
 11
0.305803577
 21
0.0392710511
 31
0.0
 40
0.473479458
 41
1.3059436001
 42
1.6985795958
  0
ELLIPSE
  5
401
100
AcDbEntity
  8
0
100
AcDbEllipse
 62
7
  6
CONTINUOUS
 10
-9.4826553489
 20
26.3745610889
 30
0.0
 11
0.305803577
 21
-0.0392710511
 31
0.0
 40
0.473479458
 41
1.4430130577
 42
1.8356490535
  0
ELLIPSE
  5
402
100
AcDbEntity
  8
0
100
AcDbEllipse
 62
7
  6
CONTINUOUS
 10
-9.4826553489
 20
26.3745610889
 30
0.0
 11
0.2440046096
 21
-0.1884669564
 31
0.0
 40
0.473479458
 41
1.3059436001
 42
1.6985795958
  0
ELLIPSE
  5
403
100
AcDbEntity
  8
0
100
AcDbEllipse
 62
7
  6
CONTINUOUS
 10
-7.9494342926
 20
24.8413400327
 30
0.0
 11
-0.1906113921
 21
0.2399737875
 31
0.0
 40
0.4792132085
 41
-1.6849937418
 42
-1.3359833253
  0
ELLIPSE
  5
404
100
AcDbEntity
  8
0
100
AcDbEllipse
 62
7
  6
CONTINUOUS
 10
-7.9494342926
 20
24.8413400327
 30
0.0
 11
-0.0613079453
 21
0.300268975
 31
0.0
 40
0.4792132085
 41
-1.8056093283
 42
-1.4565989118
  0
ELLIPSE
  5
405
100
AcDbEntity
  8
0
100
AcDbEllipse
 62
7
  6
CONTINUOUS
 10
6.1084065925
 20
24.8413400327
 30
0.0
 11
0.0613079453
 21
0.300268975
 31
0.0
 40
0.4792132085
 41
1.4565989118
 42
1.8056093283
  0
ELLIPSE
  5
406
100
AcDbEntity
  8
0
100
AcDbEllipse
 62
7
  6
CONTINUOUS
 10
6.1084065925
 20
24.8413400327
 30
0.0
 11
0.1906113921
 21
0.2399737875
 31
0.0
 40
0.4792132085
 41
1.3359833253
 42
1.6849937418
  0
ELLIPSE
  5
407
100
AcDbEntity
  8
0
100
AcDbEllipse
 62
7
  6
CONTINUOUS
 10
7.6416276488
 20
26.3745610889
 30
0.0
 11
0.2440046096
 21
0.1884669564
 31
0.0
 40
0.473479458
 41
1.4430130577
 42
1.8356490535
  0
ELLIPSE
  5
408
100
AcDbEntity
  8
0
100
AcDbEllipse
 62
7
  6
CONTINUOUS
 10
7.6416276488
 20
26.3745610889
 30
0.0
 11
0.305803577
 21
0.0392710511
 31
0.0
 40
0.473479458
 41
1.3059436001
 42
1.6985795958
  0
ELLIPSE
  5
409
100
AcDbEntity
  8
0
100
AcDbEllipse
 62
7
  6
CONTINUOUS
 10
13.0173446511
 20
26.3745610889
 30
0.0
 11
0.305803577
 21
-0.0392710511
 31
0.0
 40
0.473479458
 41
1.4430130577
 42
1.8356490535
  0
ELLIPSE
  5
40A
100
AcDbEntity
  8
0
100
AcDbEllipse
 62
7
  6
CONTINUOUS
 10
13.0173446511
 20
26.3745610889
 30
0.0
 11
0.2440046096
 21
-0.1884669564
 31
0.0
 40
0.473479458
 41
1.3059436001
 42
1.6985795958
  0
ELLIPSE
  5
40B
100
AcDbEntity
  8
0
100
AcDbEllipse
 62
7
  6
CONTINUOUS
 10
14.5505657074
 20
24.8413400327
 30
0.0
 11
-0.1906113921
 21
0.2399737875
 31
0.0
 40
0.4792132085
 41
-1.6849937418
 42
-1.3359833253
  0
ELLIPSE
  5
40C
100
AcDbEntity
  8
0
100
AcDbEllipse
 62
7
  6
CONTINUOUS
 10
14.5505657074
 20
24.8413400327
 30
0.0
 11
-0.0613079453
 21
0.300268975
 31
0.0
 40
0.4792132085
 41
-1.8056093283
 42
-1.4565989118
  0
ELLIPSE
  5
40D
100
AcDbEntity
  8
0
100
AcDbEllipse
 62
7
  6
CONTINUOUS
 10
7.6416276488
 20
-27.6253932127
 30
0.0
 11
0.305803577
 21
-0.0392710511
 31
0.0
 40
0.473479458
 41
-1.6985795958
 42
-1.3059436001
  0
ELLIPSE
  5
40E
100
AcDbEntity
  8
0
100
AcDbEllipse
 62
7
  6
CONTINUOUS
 10
7.6416276488
 20
-27.6253932127
 30
0.0
 11
0.2440046096
 21
-0.1884669564
 31
0.0
 40
0.473479458
 41
-1.8356490535
 42
-1.4430130577
  0
ELLIPSE
  5
40F
100
AcDbEntity
  8
0
100
AcDbEllipse
 62
7
  6
CONTINUOUS
 10
6.1084065925
 20
-26.0921721564
 30
0.0
 11
-0.1906113921
 21
0.2399737875
 31
0.0
 40
0.4792132085
 41
1.4565989118
 42
1.8056093283
  0
ELLIPSE
  5
410
100
AcDbEntity
  8
0
100
AcDbEllipse
 62
7
  6
CONTINUOUS
 10
6.1084065925
 20
-26.0921721564
 30
0.0
 11
-0.0613079453
 21
0.300268975
 31
0.0
 40
0.4792132085
 41
1.3359833253
 42
1.6849937418
  0
ELLIPSE
  5
411
100
AcDbEntity
  8
0
100
AcDbEllipse
 62
7
  6
CONTINUOUS
 10
-16.3915934075
 20
-26.0921721564
 30
0.0
 11
-0.1906113921
 21
0.2399737875
 31
0.0
 40
0.4792132085
 41
1.4565989118
 42
1.8056093283
  0
ELLIPSE
  5
412
100
AcDbEntity
  8
0
100
AcDbEllipse
 62
7
  6
CONTINUOUS
 10
-16.3915934075
 20
-26.0921721564
 30
0.0
 11
-0.0613079453
 21
0.300268975
 31
0.0
 40
0.4792132085
 41
1.3359833253
 42
1.6849937418
  0
ELLIPSE
  5
413
100
AcDbEntity
  8
0
100
AcDbEllipse
 62
7
  6
CONTINUOUS
 10
-14.8583723512
 20
-27.6253932127
 30
0.0
 11
0.305803577
 21
-0.0392710511
 31
0.0
 40
0.473479458
 41
-1.6985795958
 42
-1.3059436001
  0
ELLIPSE
  5
414
100
AcDbEntity
  8
0
100
AcDbEllipse
 62
7
  6
CONTINUOUS
 10
-14.8583723512
 20
-27.6253932127
 30
0.0
 11
0.2440046096
 21
-0.1884669564
 31
0.0
 40
0.473479458
 41
-1.8356490535
 42
-1.4430130577
  0
ELLIPSE
  5
415
100
AcDbEntity
  8
0
100
AcDbEllipse
 62
7
  6
CONTINUOUS
 10
-9.4826553489
 20
-27.6253932127
 30
0.0
 11
0.2440046096
 21
0.1884669564
 31
0.0
 40
0.473479458
 41
-1.6985795958
 42
-1.3059436001
  0
ELLIPSE
  5
416
100
AcDbEntity
  8
0
100
AcDbEllipse
 62
7
  6
CONTINUOUS
 10
-9.4826553489
 20
-27.6253932127
 30
0.0
 11
0.305803577
 21
0.0392710511
 31
0.0
 40
0.473479458
 41
-1.8356490535
 42
-1.4430130577
  0
ELLIPSE
  5
417
100
AcDbEntity
  8
0
100
AcDbEllipse
 62
7
  6
CONTINUOUS
 10
-7.9494342926
 20
-26.0921721564
 30
0.0
 11
0.0613079453
 21
0.300268975
 31
0.0
 40
0.4792132085
 41
-1.6849937418
 42
-1.3359833253
  0
ELLIPSE
  5
418
100
AcDbEntity
  8
0
100
AcDbEllipse
 62
7
  6
CONTINUOUS
 10
-7.9494342926
 20
-26.0921721564
 30
0.0
 11
0.1906113921
 21
0.2399737875
 31
0.0
 40
0.4792132085
 41
-1.8056093283
 42
-1.4565989118
  0
ELLIPSE
  5
419
100
AcDbEntity
  8
0
100
AcDbEllipse
 62
7
  6
CONTINUOUS
 10
14.5505657074
 20
-26.0921721564
 30
0.0
 11
0.0613079453
 21
0.300268975
 31
0.0
 40
0.4792132085
 41
-1.6849937418
 42
-1.3359833253
  0
ELLIPSE
  5
41A
100
AcDbEntity
  8
0
100
AcDbEllipse
 62
7
  6
CONTINUOUS
 10
14.5505657074
 20
-26.0921721564
 30
0.0
 11
0.1906113921
 21
0.2399737875
 31
0.0
 40
0.4792132085
 41
-1.8056093283
 42
-1.4565989118
  0
ELLIPSE
  5
41B
100
AcDbEntity
  8
0
100
AcDbEllipse
 62
7
  6
CONTINUOUS
 10
13.0173446511
 20
-27.6253932127
 30
0.0
 11
0.2440046096
 21
0.1884669564
 31
0.0
 40
0.473479458
 41
-1.6985795958
 42
-1.3059436001
  0
ELLIPSE
  5
41C
100
AcDbEntity
  8
0
100
AcDbEllipse
 62
7
  6
CONTINUOUS
 10
13.0173446511
 20
-27.6253932127
 30
0.0
 11
0.305803577
 21
0.0392710511
 31
0.0
 40
0.473479458
 41
-1.8356490535
 42
-1.4430130577
  0
ELLIPSE
  5
41D
100
AcDbEntity
  8
0
100
AcDbEllipse
 62
7
  6
CONTINUOUS
 10
-8.0082690677
 20
-26.0647370502
 30
0.0
 11
0.2719392391
 21
-0.1268073498
 31
0.0
 40
0.9998275239
 41
-0.3490104165
 42
0.3490104165
  0
ELLIPSE
  5
41E
100
AcDbEntity
  8
0
100
AcDbEllipse
 62
7
  6
CONTINUOUS
 10
-16.3327586324
 20
24.8139049265
 30
0.0
 11
0.2719392391
 21
-0.1268073498
 31
0.0
 40
0.9998275239
 41
2.7925822371
 42
3.4906030701
  0
ELLIPSE
  5
41F
100
AcDbEntity
  8
0
100
AcDbEllipse
 62
7
  6
CONTINUOUS
 10
14.4917309323
 20
-26.0647370502
 30
0.0
 11
0.2719392391
 21
-0.1268073498
 31
0.0
 40
0.9998275239
 41
-0.3490104165
 42
0.3490104165
  0
ELLIPSE
  5
420
100
AcDbEntity
  8
0
100
AcDbEllipse
 62
7
  6
CONTINUOUS
 10
12.9920767879
 20
-27.5643911946
 30
0.0
 11
-0.1148255179
 21
0.2772133227
 31
0.0
 40
0.9998215708
 41
-3.5342286494
 42
-2.7489566578
  0
ELLIPSE
  5
421
100
AcDbEntity
  8
0
100
AcDbEllipse
 62
7
  6
CONTINUOUS
 10
-14.833104488
 20
26.3135590709
 30
0.0
 11
-0.1148255179
 21
0.2772133227
 31
0.0
 40
0.9998215708
 41
-0.3926359958
 42
0.3926359958
  0
ELLIPSE
  5
422
100
AcDbEntity
  8
0
100
AcDbEllipse
 62
7
  6
CONTINUOUS
 10
-9.5079232121
 20
26.3135590709
 30
0.0
 11
0.1148255179
 21
0.2772133227
 31
0.0
 40
0.9998215708
 41
-0.3926359958
 42
0.3926359958
  0
ELLIPSE
  5
423
100
AcDbEntity
  8
0
100
AcDbEllipse
 62
7
  6
CONTINUOUS
 10
-8.0082690677
 20
24.8139049265
 30
0.0
 11
0.2719392391
 21
0.1268073498
 31
0.0
 40
0.9998275239
 41
-0.3490104165
 42
0.3490104165
  0
ELLIPSE
  5
424
100
AcDbEntity
  8
0
100
AcDbEllipse
 62
7
  6
CONTINUOUS
 10
6.1672413676
 20
24.8139049265
 30
0.0
 11
0.2719392391
 21
-0.1268073498
 31
0.0
 40
0.9998275239
 41
2.7925822371
 42
3.4906030701
  0
ELLIPSE
  5
425
100
AcDbEntity
  8
0
100
AcDbEllipse
 62
7
  6
CONTINUOUS
 10
9.4185526795
 20
-27.4144825914
 30
0.0
 11
-0.2121966568
 21
0.2121966568
 31
0.0
 40
0.9996954599
 41
-0.7852458701
 42
0.7852458701
  0
ELLIPSE
  5
426
100
AcDbEntity
  8
0
100
AcDbEllipse
 62
7
  6
CONTINUOUS
 10
9.4990628616
 20
-27.4144825914
 30
0.0
 11
-0.1754536852
 21
-0.2434289847
 31
0.0
 40
0.9997686012
 41
2.5171795382
 42
3.766005769
  0
ELLIPSE
  5
427
100
AcDbEntity
  8
0
100
AcDbEllipse
 62
7
  6
CONTINUOUS
 10
11.1599094383
 20
-27.4144825914
 30
0.0
 11
-0.1754536852
 21
0.2434289847
 31
0.0
 40
0.9997686012
 41
-0.6244131154
 42
0.6244131154
  0
ELLIPSE
  5
428
100
AcDbEntity
  8
0
100
AcDbEllipse
 62
7
  6
CONTINUOUS
 10
11.2404196204
 20
-27.4144825914
 30
0.0
 11
0.2121966568
 21
0.2121966568
 31
0.0
 40
0.9996954599
 41
-0.7852458701
 42
0.7852458701
  0
ELLIPSE
  5
429
100
AcDbEntity
  8
0
100
AcDbEllipse
 62
7
  6
CONTINUOUS
 10
-13.0814473205
 20
-27.4144825914
 30
0.0
 11
-0.2121966568
 21
0.2121966568
 31
0.0
 40
0.9996954599
 41
-0.7852458701
 42
0.7852458701
  0
ELLIPSE
  5
42A
100
AcDbEntity
  8
0
100
AcDbEllipse
 62
7
  6
CONTINUOUS
 10
-13.0009371384
 20
-27.4144825914
 30
0.0
 11
-0.1754536852
 21
-0.2434289847
 31
0.0
 40
0.9997686012
 41
2.5171795382
 42
3.766005769
  0
ELLIPSE
  5
42B
100
AcDbEntity
  8
0
100
AcDbEllipse
 62
7
  6
CONTINUOUS
 10
-11.3400905617
 20
-27.4144825914
 30
0.0
 11
-0.1754536852
 21
0.2434289847
 31
0.0
 40
0.9997686012
 41
-0.6244131154
 42
0.6244131154
  0
ELLIPSE
  5
42C
100
AcDbEntity
  8
0
100
AcDbEllipse
 62
7
  6
CONTINUOUS
 10
-11.2595803796
 20
-27.4144825914
 30
0.0
 11
0.2121966568
 21
0.2121966568
 31
0.0
 40
0.9996954599
 41
-0.7852458701
 42
0.7852458701
  0
ELLIPSE
  5
42D
100
AcDbEntity
  8
0
100
AcDbEllipse
 62
7
  6
CONTINUOUS
 10
11.2404196204
 20
26.1636504677
 30
0.0
 11
0.2121966568
 21
-0.2121966568
 31
0.0
 40
0.9996954599
 41
-0.7852458701
 42
0.7852458701
  0
ELLIPSE
  5
42E
100
AcDbEntity
  8
0
100
AcDbEllipse
 62
7
  6
CONTINUOUS
 10
11.1599094383
 20
26.1636504677
 30
0.0
 11
0.1754536852
 21
0.2434289847
 31
0.0
 40
0.9997686012
 41
2.5171795382
 42
3.766005769
  0
ELLIPSE
  5
42F
100
AcDbEntity
  8
0
100
AcDbEllipse
 62
7
  6
CONTINUOUS
 10
9.4990628616
 20
26.1636504677
 30
0.0
 11
0.1754536852
 21
-0.2434289847
 31
0.0
 40
0.9997686012
 41
-0.6244131154
 42
0.6244131154
  0
ELLIPSE
  5
430
100
AcDbEntity
  8
0
100
AcDbEllipse
 62
7
  6
CONTINUOUS
 10
9.4185526795
 20
26.1636504677
 30
0.0
 11
-0.2121966568
 21
-0.2121966568
 31
0.0
 40
0.9996954599
 41
-0.7852458701
 42
0.7852458701
  0
ELLIPSE
  5
431
100
AcDbEntity
  8
0
100
AcDbEllipse
 62
7
  6
CONTINUOUS
 10
-11.2595803796
 20
26.1636504677
 30
0.0
 11
0.2121966568
 21
-0.2121966568
 31
0.0
 40
0.9996954599
 41
-0.7852458701
 42
0.7852458701
  0
ELLIPSE
  5
432
100
AcDbEntity
  8
0
100
AcDbEllipse
 62
7
  6
CONTINUOUS
 10
-11.3400905617
 20
26.1636504677
 30
0.0
 11
0.1754536852
 21
0.2434289847
 31
0.0
 40
0.9997686012
 41
2.5171795382
 42
3.766005769
  0
ELLIPSE
  5
433
100
AcDbEntity
  8
0
100
AcDbEllipse
 62
7
  6
CONTINUOUS
 10
-13.0009371384
 20
26.1636504677
 30
0.0
 11
0.1754536852
 21
-0.2434289847
 31
0.0
 40
0.9997686012
 41
-0.6244131154
 42
0.6244131154
  0
ELLIPSE
  5
434
100
AcDbEntity
  8
0
100
AcDbEllipse
 62
7
  6
CONTINUOUS
 10
-13.0814473205
 20
26.1636504677
 30
0.0
 11
-0.2121966568
 21
-0.2121966568
 31
0.0
 40
0.9996954599
 41
-0.7852458701
 42
0.7852458701
  0
ELLIPSE
  5
435
100
AcDbEntity
  8
0
100
AcDbEllipse
 62
7
  6
CONTINUOUS
 10
7.666895512
 20
26.3135590709
 30
0.0
 11
-0.1148255179
 21
0.2772133227
 31
0.0
 40
0.9998215708
 41
-0.3926359958
 42
0.3926359958
  0
ELLIPSE
  5
436
100
AcDbEntity
  8
0
100
AcDbEllipse
 62
7
  6
CONTINUOUS
 10
12.9920767879
 20
26.3135590709
 30
0.0
 11
0.1148255179
 21
0.2772133227
 31
0.0
 40
0.9998215708
 41
-0.3926359958
 42
0.3926359958
  0
ELLIPSE
  5
437
100
AcDbEntity
  8
0
100
AcDbEllipse
 62
7
  6
CONTINUOUS
 10
14.4917309323
 20
24.8139049265
 30
0.0
 11
0.2719392391
 21
0.1268073498
 31
0.0
 40
0.9998275239
 41
-0.3490104165
 42
0.3490104165
  0
ELLIPSE
  5
438
100
AcDbEntity
  8
0
100
AcDbEllipse
 62
7
  6
CONTINUOUS
 10
7.666895512
 20
-27.5643911946
 30
0.0
 11
0.1148255179
 21
0.2772133227
 31
0.0
 40
0.9998215708
 41
-3.5342286494
 42
-2.7489566578
  0
ELLIPSE
  5
439
100
AcDbEntity
  8
0
100
AcDbEllipse
 62
7
  6
CONTINUOUS
 10
6.1672413676
 20
-26.0647370502
 30
0.0
 11
0.2719392391
 21
0.1268073498
 31
0.0
 40
0.9998275239
 41
2.7925822371
 42
3.4906030701
  0
ELLIPSE
  5
43A
100
AcDbEntity
  8
0
100
AcDbEllipse
 62
7
  6
CONTINUOUS
 10
-16.3327586324
 20
-26.0647370502
 30
0.0
 11
0.2719392391
 21
0.1268073498
 31
0.0
 40
0.9998275239
 41
2.7925822371
 42
3.4906030701
  0
ELLIPSE
  5
43B
100
AcDbEntity
  8
0
100
AcDbEllipse
 62
7
  6
CONTINUOUS
 10
-14.833104488
 20
-27.5643911946
 30
0.0
 11
0.1148255179
 21
0.2772133227
 31
0.0
 40
0.9998215708
 41
-3.5342286494
 42
-2.7489566578
  0
ELLIPSE
  5
43C
100
AcDbEntity
  8
0
100
AcDbEllipse
 62
7
  6
CONTINUOUS
 10
-9.5079232121
 20
-27.5643911946
 30
0.0
 11
-0.1148255179
 21
0.2772133227
 31
0.0
 40
0.9998215708
 41
-3.5342286494
 42
-2.7489566578
  0
ENDSEC
  0
SECTION
  2
OBJECTS
  0
DICTIONARY
  5
C
100
AcDbDictionary
280
0
281
1
  3
ACAD_GROUP
350
D
  3
ACAD_MLINESTYLE
350
17
  3
ACAD_LAYOUT
350
1A
  3
ACAD_PLOTSETTINGS
350
19
  3
ACAD_PLOTSTYLENAME
350
E
  0
DICTIONARY
  5
D
102
{ACAD_REACTORS
330
C
102
}
100
AcDbDictionary
280
0
281
1
  0
ACDBDICTIONARYWDFLT
  5
E
102
{ACAD_REACTORS
330
C
102
}
100
AcDbDictionary
281
1
  3
Normal
350
F
100
AcDbDictionaryWithDefault
340
F
  0
DICTIONARY
  5
17
102
{ACAD_REACTORS
330
C
102
}
100
AcDbDictionary
280
0
281
1
  3
Standard
350
18
  0
DICTIONARY
  5
19
102
{ACAD_REACTORS
330
C
102
}
100
AcDbDictionary
281
1
  0
DICTIONARY
  5
1A
102
{ACAD_REACTORS
330
C
102
}
100
AcDbDictionary
281
1
  3
Model
350
43D
  3
Layout1
350
43E
  0
ACDBPLACEHOLDER
  5
F
102
{ACAD_REACTORS
330
E
102
}
  0
MLINESTYLE
  5
18
102
{ACAD_REACTORS
330
17
102
}
100
AcDbMlineStyle
  2
STANDARD
 70
0
  3

 62
256
 51
90.0
 52
90.0
 71
2
 49
0.5
 62
256
  6
BYLAYER
 49
-0.5
 62
256
  6
BYLAYER
  0
LAYOUT
  5
43D
102
{ACAD_REACTORS
330
1A
102
}
100
AcDbPlotSettings
  1

  2
none_device
  4
ISO_A4_(297.00_x_210.00_MM)
  6

 40
0.0
 41
0.0
 42
0.0
 43
0.0
 44
297.0
 45
210.0
 46
0.0
 47
0.0
 48
0.0
 49
0.0
140
0.0
141
0.0
142
1.0
143
1.0
 70
1024
 72
1
 73
0
 74
0
  7

 75
0
147
1.0
148
0.0
149
0.0
100
AcDbLayout
  1
Model
 70
0
 71
0
 10
0.0
 20
0.0
 11
297.0
 21
210.0
 12
0.0
 22
0.0
 32
0.0
 14
0.0
 24
0.0
 34
0.0
 15
0.0
 25
0.0
 35
0.0
146
0.0
 13
0.0
 23
0.0
 33
0.0
 16
1.0
 26
0.0
 36
0.0
 17
0.0
 27
1.0
 37
0.0
 76
0
330
218
345
0
346
0
  0
LAYOUT
  5
43E
102
{ACAD_REACTORS
330
1A
102
}
100
AcDbPlotSettings
  1

  2
none_device
  4
ISO_A4_(297.00_x_210.00_MM)
  6

 40
0.0
 41
0.0
 42
0.0
 43
0.0
 44
297.0
 45
210.0
 46
0.0
 47
0.0
 48
0.0
 49
0.0
140
0.0
141
0.0
142
1.0
143
1.0
 70
0
 72
1
 73
0
 74
0
  7

 75
0
147
1.0
148
0.0
149
0.0
100
AcDbLayout
  1
Layout1
 70
0
 71
1
 10
0.0
 20
0.0
 11
297.0
 21
210.0
 12
0.0
 22
0.0
 32
0.0
 14
0.0
 24
0.0
 34
0.0
 15
0.0
 25
0.0
 35
0.0
146
0.0
 13
0.0
 23
0.0
 33
0.0
 16
1.0
 26
0.0
 36
0.0
 17
0.0
 27
1.0
 37
0.0
 76
0
330
219
345
0
346
0
  0
ENDSEC
  0
EOF
