0
SECTION
2
HEADER
9
$ACADVER
1
AC1015
9
$DWGCODEPAGE
3
ANSI_1252
9
$EXTMAX
10
431.8000000000
20
558.8000000000
30
0.0000000000
9
$EXTMIN
10
0.0000000000
20
0.0000000000
30
0.0000000000
9
$LIMMIN
10
0.0000000000
20
0.0000000000
9
$LIMMAX
10
431.8000000000
20
558.8000000000
9
$VIEWCTR
10
215.9000000000
20
279.4000000000
9
$VIEWSIZE
40
558.8000000000
9
$CLAYER
8
0
9
$LTSCALE
40
36.4254814815
9
$CELTYPE
6
BYLAYER
9
$DIMSCALE
40
1
9
$DIMASZ
40
3.0000000000
9
$DIMEXO
40
4.1392592593
9
$DIMDLI
40
25.1666962963
9
$DIMEXE
40
11.9210666667
9
$DIMCEN
40
5.9605333333
9
$DIMLFAC
40
1.0000000000
9
$DIMBLK
1
_FILLED
9
$DIMTXT
40
3.0000000000
9
$DIMTOL
70
1
9
$DIMLIM
70
0
9
$DIMTFAC
40
1.0000000000
9
$DIMTP
40
0.0100000000
9
$DIMTM
40
0.0100000000
9
$PDMODE
70
3
9
$PDSIZE
40
3.0000000000
9
$HANDSEED
5
32D
9
$MEASUREMENT
70
1
9
$INSUNITS
70
4
0
ENDSEC
0
SECTION
2
CLASSES
0
CLASS
1
ACDBDICTIONARYWDFLT
2
AcDbDictionaryWithDefault
3
AutoCAD 2000
90
0
280
0
281
0
0
CLASS
1
ACDBPLACEHOLDER
2
AcDbPlaceHolder
3
AutoCAD 2000
90
0
280
0
281
0
0
CLASS
1
LAYOUT
2
AcDbLayout
3
AutoCAD 2000
90
0
280
0
281
0
0
ENDSEC
0
SECTION
2
TABLES
0
TABLE
2
VPORT
5
8
100
AcDbSymbolTable
70
2
0
VPORT
5
1F4
100
AcDbSymbolTableRecord
100
AcDbViewportTableRecord
2
*ACTIVE
70
0
10
0.0
20
0.0
11
1.0
21
1.0
12
215.9000000000
22
279.4000000000
13
0.0
23
0.0
14
1.0
24
1.0
15
0.0
25
0.0
16
0.0
26
0.0
36
1.0
17
0.0
27
0.0
37
0.0
40
558.8000000000
41
0.7727272727
42
50.0
43
0.0
44
0.0
50
0.0
51
0.0
71
0
72
100
73
1
74
1
75
0
76
0
77
0
78
0
0
ENDTAB
0
TABLE
2
LTYPE
5
5
100
AcDbSymbolTable
70
6
0
LTYPE
5
14
100
AcDbSymbolTableRecord
100
AcDbLinetypeTableRecord
2
BYBLOCK
70
0
3

72
65
73
0
40
0.0
0
LTYPE
5
15
100
AcDbSymbolTableRecord
100
AcDbLinetypeTableRecord
2
BYLAYER
70
0
3

72
65
73
0
40
0.0
0
LTYPE
5
16
100
AcDbSymbolTableRecord
100
AcDbLinetypeTableRecord
2
CONTINUOUS
70
64
3
Solid line
72
65
73
0
40
0
0
LTYPE
5
1F5
100
AcDbSymbolTableRecord
100
AcDbLinetypeTableRecord
2
CENTER
70
64
3
____ _ ____ _ ____ _ ____ _ ____ _ ____ _ ____
72
65
73
4
40
0.6
49
0.375
74
0
49
-0.075
74
0
49
0.075
74
0
49
-0.075
74
0
0
LTYPE
5
1F6
100
AcDbSymbolTableRecord
100
AcDbLinetypeTableRecord
2
HIDDEN
70
64
3
- - - - - - - - - - - - - - - - - - - -
72
65
73
2
40
0.2
49
0.1
74
0
49
-0.1
74
0
0
LTYPE
5
1F7
100
AcDbSymbolTableRecord
100
AcDbLinetypeTableRecord
2
PHANTOM
70
64
3
_____ _ _ _____ _ _ _____ _ _ _____
72
65
73
6
40
0.8
49
0.45
74
0
49
-0.05
74
0
49
0.1
74
0
49
-0.05
74
0
49
0.1
74
0
49
-0.05
74
0
0
LTYPE
5
1F8
100
AcDbSymbolTableRecord
100
AcDbLinetypeTableRecord
2
DOT
70
64
3
. . . . . . . . . . . . . . . . . . . .
72
65
73
2
40
0.2
49
0.1
74
0
49
-0.1
74
0
0
LTYPE
5
1F9
100
AcDbSymbolTableRecord
100
AcDbLinetypeTableRecord
2
DASHED
70
64
3
- - - - - - - - - - - - - - - - - - - -
72
65
73
2
40
0.2
49
0.1
74
0
49
-0.1
74
0
0
ENDTAB
0
TABLE
2
LAYER
5
2
100
AcDbSymbolTable
70
36
0
LAYER
5
10
100
AcDbSymbolTableRecord
100
AcDbLayerTableRecord
2
0
70
0
62
7
6
CONTINUOUS
370
-3
390
F
0
LAYER
5
1FA
100
AcDbSymbolTableRecord
100
AcDbLayerTableRecord
2
DEFAULT_1
70
0
62
7
6
CENTER
370
-3
390
F
0
LAYER
5
1FB
100
AcDbSymbolTableRecord
100
AcDbLayerTableRecord
2
DEFAULT_2
70
0
62
9
6
HIDDEN
370
-3
390
F
0
LAYER
5
1FC
100
AcDbSymbolTableRecord
100
AcDbLayerTableRecord
2
DEFAULT_3
70
0
62
7
6
PHANTOM
370
-3
390
F
0
LAYER
5
1FD
100
AcDbSymbolTableRecord
100
AcDbLayerTableRecord
2
_2D_DELETED_OBJS
70
0
62
7
6
CONTINUOUS
370
-3
390
F
0
LAYER
5
1FE
100
AcDbSymbolTableRecord
100
AcDbLayerTableRecord
2
0
70
0
62
7
6
CONTINUOUS
370
-3
390
F
0
LAYER
5
1FF
100
AcDbSymbolTableRecord
100
AcDbLayerTableRecord
2
ASSI
70
0
62
7
6
CONTINUOUS
370
-3
390
F
0
LAYER
5
200
100
AcDbSymbolTableRecord
100
AcDbLayerTableRecord
2
COORDINATE
70
0
62
7
6
CONTINUOUS
370
-3
390
F
0
LAYER
5
201
100
AcDbSymbolTableRecord
100
AcDbLayerTableRecord
2
COORD_ORIGINE
70
0
62
7
6
CONTINUOUS
370
-3
390
F
0
LAYER
5
202
100
AcDbSymbolTableRecord
100
AcDbLayerTableRecord
2
CURVE
70
0
62
7
6
CONTINUOUS
370
-3
390
F
0
LAYER
5
203
100
AcDbSymbolTableRecord
100
AcDbLayerTableRecord
2
CURVE_LED_TASTO
70
0
62
7
6
CONTINUOUS
370
-3
390
F
0
LAYER
5
204
100
AcDbSymbolTableRecord
100
AcDbLayerTableRecord
2
DEFAULT_1
70
0
62
7
6
CONTINUOUS
370
-3
390
F
0
LAYER
5
205
100
AcDbSymbolTableRecord
100
AcDbLayerTableRecord
2
DEFAULT_2
70
0
62
7
6
CONTINUOUS
370
-3
390
F
0
LAYER
5
206
100
AcDbSymbolTableRecord
100
AcDbLayerTableRecord
2
DEFAULT_3
70
0
62
7
6
CONTINUOUS
370
-3
390
F
0
LAYER
5
207
100
AcDbSymbolTableRecord
100
AcDbLayerTableRecord
2
DRAFT
70
0
62
7
6
CONTINUOUS
370
-3
390
F
0
LAYER
5
208
100
AcDbSymbolTableRecord
100
AcDbLayerTableRecord
2
IGES_SCRITTE
70
0
62
7
6
CONTINUOUS
370
-3
390
F
0
LAYER
5
209
100
AcDbSymbolTableRecord
100
AcDbLayerTableRecord
2
PIANI
70
0
62
7
6
CONTINUOUS
370
-3
390
F
0
LAYER
5
20A
100
AcDbSymbolTableRecord
100
AcDbLayerTableRecord
2
PIANI_ORIGINE
70
0
62
7
6
CONTINUOUS
370
-3
390
F
0
LAYER
5
20B
100
AcDbSymbolTableRecord
100
AcDbLayerTableRecord
2
PIANI_RIFERIMENTO
70
0
62
7
6
CONTINUOUS
370
-3
390
F
0
LAYER
5
20C
100
AcDbSymbolTableRecord
100
AcDbLayerTableRecord
2
PUNTI
70
0
62
7
6
CONTINUOUS
370
-3
390
F
0
LAYER
5
20D
100
AcDbSymbolTableRecord
100
AcDbLayerTableRecord
2
RACCORDO
70
0
62
7
6
CONTINUOUS
370
-3
390
F
0
LAYER
5
20E
100
AcDbSymbolTableRecord
100
AcDbLayerTableRecord
2
SMUSSO
70
0
62
7
6
CONTINUOUS
370
-3
390
F
0
LAYER
5
20F
100
AcDbSymbolTableRecord
100
AcDbLayerTableRecord
2
SNAPLINE
70
0
62
7
6
CONTINUOUS
370
-3
390
F
0
LAYER
5
210
100
AcDbSymbolTableRecord
100
AcDbLayerTableRecord
2
SUPERFICI
70
0
62
7
6
CONTINUOUS
370
-3
390
F
0
LAYER
5
211
100
AcDbSymbolTableRecord
100
AcDbLayerTableRecord
2
TRASH
70
0
62
7
6
CONTINUOUS
370
-3
390
F
0
LAYER
5
212
100
AcDbSymbolTableRecord
100
AcDbLayerTableRecord
2
_2D_DELETED_OBJS
70
0
62
7
6
CONTINUOUS
370
-3
390
F
0
ENDTAB
0
TABLE
2
STYLE
5
3
100
AcDbSymbolTable
70
1
0
STYLE
5
11
100
AcDbSymbolTableRecord
100
AcDbTextStyleTableRecord
2
STANDARD
70
0
40
0.0
41
0.8000000000
50
0.0
71
0
42
0.2
3
txt
4

0
ENDTAB
0
TABLE
2
VIEW
5
6
100
AcDbSymbolTable
70
0
0
ENDTAB
0
TABLE
2
UCS
5
7
100
AcDbSymbolTable
70
0
0
ENDTAB
0
TABLE
2
APPID
5
9
100
AcDbSymbolTable
70
1
0
APPID
5
213
100
AcDbSymbolTableRecord
100
AcDbRegAppTableRecord
2
ACAD
70
0
0
ENDTAB
0
TABLE
2
BLOCK_RECORD
5
1
100
AcDbSymbolTable
70
0
0
BLOCK_RECORD
5
1F
100
AcDbSymbolTableRecord
100
AcDbBlockTableRecord
2
*MODEL_SPACE
0
BLOCK_RECORD
5
1B
100
AcDbSymbolTableRecord
100
AcDbBlockTableRecord
2
*PAPER_SPACE
0
ENDTAB
0
TABLE
2
DIMSTYLE
5
A
100
AcDbSymbolTable
70
1
100
AcDbDimStyleTable
71
0
0
DIMSTYLE
105
214
100
AcDbSymbolTableRecord
100
AcDbDimStyleTableRecord
2
STANDARD
70
0
3

4

40
1.0
41
3.0000000000
42
0.0625
43
0.38
44
0.18
45
0.0
46
0.0
47
0.0100000000
48
0.0100000000
140
3.0000000000
141
0.09
142
0.0
143
25.4
144
1.0000000000
145
0.0
146
1.0000000000
147
0.09
71
1
72
0
73
0
74
0
75
0
76
0
77
1
78
8
170
0
171
2
172
0
173
0
174
0
175
0
176
0
177
0
178
0
270
2
271
2
272
2
273
2
274
2
275
0
280
0
281
0
282
0
283
1
284
8
285
0
286
0
287
3
288
0
340
11
0
ENDTAB
0
ENDSEC
0
SECTION
2
BLOCKS
0
BLOCK
5
20
100
AcDbEntity
8
0
100
AcDbBlockBegin
2
*MODEL_SPACE
70
0
10
0.0
20
0.0
30
0.0
3
*MODEL_SPACE
1

0
ENDBLK
5
21
100
AcDbEntity
8
0
100
AcDbBlockEnd
0
BLOCK
5
1C
100
AcDbEntity
8
0
100
AcDbBlockBegin
2
*PAPER_SPACE
70
0
10
0.0
20
0.0
30
0.0
3
*PAPER_SPACE
1

0
ENDBLK
5
1D
100
AcDbEntity
8
0
100
AcDbBlockEnd
0
ENDSEC
0
SECTION
2
ENTITIES
0
LINE
5
215
100
AcDbEntity
8
0
100
AcDbLine
62
0
6
CONTINUOUS
10
-20.8439587422
20
5.6400413464
11
-20.8491948629
21
17.2292718310
0
LINE
5
216
100
AcDbEntity
8
0
100
AcDbLine
62
0
6
CONTINUOUS
10
-21.8832296473
20
21.4293936748
11
-21.8832296473
21
-20.6708500129
0
LINE
5
217
100
AcDbEntity
8
0
100
AcDbLine
62
0
6
CONTINUOUS
10
-20.8832296473
20
20.7292718310
11
-20.8832296473
21
-19.9707281690
0
LINE
5
218
100
AcDbEntity
8
0
100
AcDbLine
62
0
6
CONTINUOUS
10
-20.8491948629
20
20.6952370466
11
-20.8491948629
21
17.2292718310
0
LINE
5
219
100
AcDbEntity
8
0
100
AcDbLine
62
0
6
CONTINUOUS
10
-20.8491948629
20
-16.4707281690
11
-20.8491948629
21
-19.9366933847
0
LINE
5
21A
100
AcDbEntity
8
0
100
AcDbLine
62
0
6
CONTINUOUS
10
-20.8439587422
20
-4.8814976845
11
-20.8439587422
21
5.6400413464
0
LINE
5
21B
100
AcDbEntity
8
0
100
AcDbLine
62
0
6
CONTINUOUS
10
-20.8491948629
20
-16.4707281690
11
-20.8439587422
21
-4.8814976845
0
LINE
5
21C
100
AcDbEntity
8
0
100
AcDbLine
62
0
6
CONTINUOUS
10
-21.0833514912
20
-21.4707281690
11
21.6168921966
21
-21.4707281690
0
LINE
5
21D
100
AcDbEntity
8
0
100
AcDbLine
62
0
6
CONTINUOUS
10
-20.8832296473
20
-19.9707281690
11
21.4167703527
21
-19.9707281690
0
LINE
5
21E
100
AcDbEntity
8
0
100
AcDbLine
62
0
6
CONTINUOUS
10
-20.8491948629
20
-19.9366933847
11
-18.7902087934
21
-19.9366933847
0
LINE
5
21F
100
AcDbEntity
8
0
100
AcDbLine
62
0
6
CONTINUOUS
10
-16.4832296473
20
-19.9366933847
11
17.0167703527
21
-19.9366933847
0
LINE
5
220
100
AcDbEntity
8
0
100
AcDbLine
62
0
6
CONTINUOUS
10
19.3237494988
20
-19.9366933847
11
21.3827355683
21
-19.9366933847
0
LINE
5
221
100
AcDbEntity
8
0
100
AcDbLine
62
9
6
CONTINUOUS
10
17.5143239831
20
-19.6793068128
11
17.0167703527
21
-19.6793068128
0
LINE
5
222
100
AcDbEntity
8
0
100
AcDbLine
62
9
6
CONTINUOUS
10
-16.4832296473
20
-19.6793068128
11
-16.9807832777
21
-19.6793068128
0
LINE
5
223
100
AcDbEntity
8
0
100
AcDbLine
62
0
6
CONTINUOUS
10
17.5316907753
20
-19.6207281690
11
17.0167703527
21
-19.6207281690
0
LINE
5
224
100
AcDbEntity
8
0
100
AcDbLine
62
0
6
CONTINUOUS
10
-16.4832296473
20
-19.6207281690
11
-16.9981500699
21
-19.6207281690
0
LINE
5
225
100
AcDbEntity
8
0
100
AcDbLine
62
0
6
CONTINUOUS
10
-16.4832296473
20
20.7292718310
11
-16.4832296473
21
20.3792718310
0
LINE
5
226
100
AcDbEntity
8
0
100
AcDbLine
62
0
6
CONTINUOUS
10
-16.4832296473
20
-19.6207281690
11
-16.4832296473
21
-19.9707281690
0
LINE
5
227
100
AcDbEntity
8
0
100
AcDbLine
62
9
6
CONTINUOUS
10
-16.9807832777
20
-19.6793068128
11
-18.6335159172
21
-19.9707281690
0
LINE
5
228
100
AcDbEntity
8
0
100
AcDbLine
62
0
6
CONTINUOUS
10
-16.9982810104
20
-19.6207281690
11
-18.9789417517
21
-19.9699720974
0
LINE
5
229
100
AcDbEntity
8
0
100
AcDbLine
62
0
6
CONTINUOUS
10
-20.8491948629
20
-16.4707281690
11
-8.5332296473
21
-16.4707281690
0
LINE
5
22A
100
AcDbEntity
8
0
100
AcDbLine
62
0
6
CONTINUOUS
10
9.0667703527
20
-16.4707281690
11
21.3827355683
21
-16.4707281690
0
LINE
5
22B
100
AcDbEntity
8
0
100
AcDbLine
62
9
6
CONTINUOUS
10
19.1670566226
20
-19.9707281690
11
17.5143239831
21
-19.6793068128
0
LINE
5
22C
100
AcDbEntity
8
0
100
AcDbLine
62
0
6
CONTINUOUS
10
19.5124824571
20
-19.9699720974
11
17.5318217158
21
-19.6207281690
0
LINE
5
22D
100
AcDbEntity
8
0
100
AcDbLine
62
0
6
CONTINUOUS
10
-15.8832296473
20
-8.2707281690
11
-15.8832296473
21
-13.9707281690
0
LINE
5
22E
100
AcDbEntity
8
0
100
AcDbLine
62
9
6
CONTINUOUS
10
-15.5832296473
20
-7.9707281690
11
-15.5832296473
21
-14.2707281690
0
LINE
5
22F
100
AcDbEntity
8
0
100
AcDbLine
62
9
6
CONTINUOUS
10
-15.3832296473
20
-7.9707281690
11
-15.3832296473
21
-14.2707281690
0
LINE
5
230
100
AcDbEntity
8
0
100
AcDbLine
62
0
6
CONTINUOUS
10
-15.0832296473
20
-13.9707281690
11
-15.0832296473
21
-8.2707281690
0
LINE
5
231
100
AcDbEntity
8
0
100
AcDbLine
62
0
6
CONTINUOUS
10
9.1667703527
20
-15.0512708459
11
9.3167703527
21
-15.0476426543
0
LINE
5
232
100
AcDbEntity
8
0
100
AcDbLine
62
0
6
CONTINUOUS
10
-8.6848579615
20
-15.0307504793
11
-8.7832296473
21
-15.0331298881
0
LINE
5
233
100
AcDbEntity
8
0
100
AcDbLine
62
0
6
CONTINUOUS
10
-9.5832296473
20
-15.1037486919
11
-8.5832296473
21
-15.1037486919
0
LINE
5
234
100
AcDbEntity
8
0
100
AcDbLine
62
0
6
CONTINUOUS
10
9.1167703527
20
-15.1037486919
11
10.1167703527
21
-15.1037486919
0
LINE
5
235
100
AcDbEntity
8
0
100
AcDbLine
62
0
6
CONTINUOUS
10
-8.6848579615
20
-15.0307504793
11
-8.6332296473
21
-15.0307504793
0
LINE
5
236
100
AcDbEntity
8
0
100
AcDbLine
62
0
6
CONTINUOUS
10
9.1667703527
20
-15.0307504793
11
9.2183986670
21
-15.0307504793
0
LINE
5
237
100
AcDbEntity
8
0
100
AcDbLine
62
0
6
CONTINUOUS
10
5.4667703527
20
-14.5707281690
11
-3.8332296473
21
-14.5707281690
0
LINE
5
238
100
AcDbEntity
8
0
100
AcDbLine
62
0
6
CONTINUOUS
10
-6.8832296473
20
-14.5707281690
11
-6.0832296473
21
-14.5707281690
0
LINE
5
239
100
AcDbEntity
8
0
100
AcDbLine
62
0
6
CONTINUOUS
10
15.6167703527
20
-14.5707281690
11
16.4167703527
21
-14.5707281690
0
LINE
5
23A
100
AcDbEntity
8
0
100
AcDbLine
62
9
6
CONTINUOUS
10
16.4167703527
20
-14.3307281690
11
15.6167703527
21
-14.3307281690
0
LINE
5
23B
100
AcDbEntity
8
0
100
AcDbLine
62
9
6
CONTINUOUS
10
15.5567703527
20
-14.2707281690
11
15.3167703527
21
-14.2707281690
0
LINE
5
23C
100
AcDbEntity
8
0
100
AcDbLine
62
0
6
CONTINUOUS
10
-15.5832296473
20
-14.2707281690
11
-15.3832296473
21
-14.2707281690
0
LINE
5
23D
100
AcDbEntity
8
0
100
AcDbLine
62
0
6
CONTINUOUS
10
6.9167703527
20
-14.2707281690
11
7.1167703527
21
-14.2707281690
0
LINE
5
23E
100
AcDbEntity
8
0
100
AcDbLine
62
9
6
CONTINUOUS
10
16.4767703527
20
-14.2707281690
11
16.7167703527
21
-14.2707281690
0
LINE
5
23F
100
AcDbEntity
8
0
100
AcDbLine
62
9
6
CONTINUOUS
10
-15.8832296473
20
-13.9707281690
11
-15.0832296473
21
-13.9707281690
0
LINE
5
240
100
AcDbEntity
8
0
100
AcDbLine
62
9
6
CONTINUOUS
10
6.6167703527
20
-13.9707281690
11
7.4167703527
21
-13.9707281690
0
LINE
5
241
100
AcDbEntity
8
0
100
AcDbLine
62
0
6
CONTINUOUS
10
-8.7832296473
20
-15.0476426543
11
-8.6332296473
21
-15.0512708459
0
LINE
5
242
100
AcDbEntity
8
0
100
AcDbLine
62
0
6
CONTINUOUS
10
9.3167703527
20
-15.0331298881
11
9.2183986670
21
-15.0307504793
0
LINE
5
243
100
AcDbEntity
8
0
100
AcDbLine
62
0
6
CONTINUOUS
10
-8.6961494760
20
-15.1037486919
11
-8.6961692363
21
-15.0497484666
0
LINE
5
244
100
AcDbEntity
8
0
100
AcDbLine
62
0
6
CONTINUOUS
10
-8.6982966069
20
-9.2361677605
11
-8.6983065745
21
-9.2089287169
0
LINE
5
245
100
AcDbEntity
8
0
100
AcDbLine
62
0
6
CONTINUOUS
10
-9.5832296473
20
-15.1037486919
11
-9.5832296473
21
-9.1523732132
0
LINE
5
246
100
AcDbEntity
8
0
100
AcDbLine
62
0
6
CONTINUOUS
10
-8.8832296473
20
-9.2454784992
11
-8.8832296473
21
-15.0403862712
0
LINE
5
247
100
AcDbEntity
8
0
100
AcDbLine
62
9
6
CONTINUOUS
10
-8.7832296473
20
-9.2382221161
11
-8.7832296473
21
-15.0331298881
0
LINE
5
248
100
AcDbEntity
8
0
100
AcDbLine
62
0
6
CONTINUOUS
10
-8.6848579615
20
-9.2358427073
11
-8.6848579615
21
-15.0307504793
0
LINE
5
249
100
AcDbEntity
8
0
100
AcDbLine
62
0
6
CONTINUOUS
10
-8.6332296473
20
-15.1037486919
11
-8.6332296473
21
-9.1733181816
0
LINE
5
24A
100
AcDbEntity
8
0
100
AcDbLine
62
0
6
CONTINUOUS
10
-8.5832296473
20
-9.1523732132
11
-8.5832296473
21
-15.1037486919
0
LINE
5
24B
100
AcDbEntity
8
0
100
AcDbLine
62
0
6
CONTINUOUS
10
-8.5332296473
20
-16.4707281690
11
-8.5332296473
21
-4.8814976845
0
LINE
5
24C
100
AcDbEntity
8
0
100
AcDbLine
62
0
6
CONTINUOUS
10
-8.6848579615
20
-9.2358427073
11
-8.7832296473
21
-9.2382221161
0
LINE
5
24D
100
AcDbEntity
8
0
100
AcDbLine
62
0
6
CONTINUOUS
10
9.2183986670
20
-9.2358427073
11
9.1667703527
21
-9.2358427073
0
LINE
5
24E
100
AcDbEntity
8
0
100
AcDbLine
62
0
6
CONTINUOUS
10
-8.6332296473
20
-9.2358427073
11
-8.6848579615
21
-9.2358427073
0
LINE
5
24F
100
AcDbEntity
8
0
100
AcDbLine
62
0
6
CONTINUOUS
10
-9.5832296473
20
-9.2089287169
11
-8.6983065745
21
-9.2089287169
0
LINE
5
250
100
AcDbEntity
8
0
100
AcDbLine
62
0
6
CONTINUOUS
10
9.2318472799
20
-9.2089287169
11
10.1167703527
21
-9.2089287169
0
LINE
5
251
100
AcDbEntity
8
0
100
AcDbLine
62
0
6
CONTINUOUS
10
-8.5832296473
20
-9.1733181816
11
-8.6908952495
21
-9.1733181816
0
LINE
5
252
100
AcDbEntity
8
0
100
AcDbLine
62
0
6
CONTINUOUS
10
9.1167703527
20
-9.1733181816
11
9.2244359550
21
-9.1733181816
0
LINE
5
253
100
AcDbEntity
8
0
100
AcDbLine
62
0
6
CONTINUOUS
10
-9.5832296473
20
-9.1523732132
11
-8.5832296473
21
-9.1523732132
0
LINE
5
254
100
AcDbEntity
8
0
100
AcDbLine
62
0
6
CONTINUOUS
10
9.1167703527
20
-9.1523732132
11
10.1167703527
21
-9.1523732132
0
LINE
5
255
100
AcDbEntity
8
0
100
AcDbLine
62
9
6
CONTINUOUS
10
-15.8832296473
20
-8.2707281690
11
-15.0832296473
21
-8.2707281690
0
LINE
5
256
100
AcDbEntity
8
0
100
AcDbLine
62
9
6
CONTINUOUS
10
6.6167703527
20
-8.2707281690
11
7.4167703527
21
-8.2707281690
0
LINE
5
257
100
AcDbEntity
8
0
100
AcDbLine
62
9
6
CONTINUOUS
10
15.5567703527
20
-7.9707281690
11
15.3167703527
21
-7.9707281690
0
LINE
5
258
100
AcDbEntity
8
0
100
AcDbLine
62
0
6
CONTINUOUS
10
7.1167703527
20
-7.9707281690
11
6.9167703527
21
-7.9707281690
0
LINE
5
259
100
AcDbEntity
8
0
100
AcDbLine
62
0
6
CONTINUOUS
10
-15.3832296473
20
-7.9707281690
11
-15.5832296473
21
-7.9707281690
0
LINE
5
25A
100
AcDbEntity
8
0
100
AcDbLine
62
9
6
CONTINUOUS
10
16.4767703527
20
-7.9707281690
11
16.7167703527
21
-7.9707281690
0
LINE
5
25B
100
AcDbEntity
8
0
100
AcDbLine
62
9
6
CONTINUOUS
10
15.6167703527
20
-7.9107281690
11
16.4167703527
21
-7.9107281690
0
LINE
5
25C
100
AcDbEntity
8
0
100
AcDbLine
62
0
6
CONTINUOUS
10
-7.0546619219
20
-7.7245912386
11
-5.9117974145
21
-7.7245912386
0
LINE
5
25D
100
AcDbEntity
8
0
100
AcDbLine
62
0
6
CONTINUOUS
10
-3.8332296473
20
-7.7245912386
11
5.4667703527
21
-7.7245912386
0
LINE
5
25E
100
AcDbEntity
8
0
100
AcDbLine
62
0
6
CONTINUOUS
10
16.4167703527
20
-7.6707281690
11
15.6167703527
21
-7.6707281690
0
LINE
5
25F
100
AcDbEntity
8
0
100
AcDbLine
62
0
6
CONTINUOUS
10
-6.0832296473
20
-7.6707281690
11
-6.8832296473
21
-7.6707281690
0
LINE
5
260
100
AcDbEntity
8
0
100
AcDbLine
62
0
6
CONTINUOUS
10
-3.8332296473
20
-7.6707281690
11
5.4667703527
21
-7.6707281690
0
LINE
5
261
100
AcDbEntity
8
0
100
AcDbLine
62
0
6
CONTINUOUS
10
9.3167703527
20
-9.2382221161
11
9.2183986670
21
-9.2358427073
0
LINE
5
262
100
AcDbEntity
8
0
100
AcDbLine
62
0
6
CONTINUOUS
10
-7.1832296473
20
-7.9707395926
11
-7.1832296473
21
-14.2707281690
0
LINE
5
263
100
AcDbEntity
8
0
100
AcDbLine
62
0
6
CONTINUOUS
10
-5.7832296473
20
-14.2707281690
11
-5.7832296473
21
-7.9707395926
0
LINE
5
264
100
AcDbEntity
8
0
100
AcDbLine
62
0
6
CONTINUOUS
10
-8.6983065745
20
-9.2089287169
11
-8.6908952495
21
-9.1733181816
0
LINE
5
265
100
AcDbEntity
8
0
100
AcDbLine
62
0
6
CONTINUOUS
10
-8.5332296473
20
-5.9207281690
11
9.0667703527
21
-5.9207281690
0
LINE
5
266
100
AcDbEntity
8
0
100
AcDbLine
62
0
6
CONTINUOUS
10
-3.8332296473
20
-7.6707281690
11
-3.8332296473
21
-14.5707281690
0
LINE
5
267
100
AcDbEntity
8
0
100
AcDbLine
62
0
6
CONTINUOUS
10
12.9925004885
20
-2.6743861505
11
12.8089122279
21
-2.6994211861
0
LINE
5
268
100
AcDbEntity
8
0
100
AcDbLine
62
0
6
CONTINUOUS
10
11.8409011363
20
-2.6889901855
11
11.6489677969
21
-2.7035932113
0
LINE
5
269
100
AcDbEntity
8
0
100
AcDbLine
62
0
6
CONTINUOUS
10
-20.8439587422
20
-4.8814976845
11
21.3774994477
21
-4.8814976845
0
LINE
5
26A
100
AcDbEntity
8
0
100
AcDbLine
62
0
6
CONTINUOUS
10
9.8339473527
20
-3.0958051690
11
10.0175353527
21
-3.0958051690
0
LINE
5
26B
100
AcDbEntity
8
0
100
AcDbLine
62
0
6
CONTINUOUS
10
11.0752543527
20
-3.0958051690
11
11.2588423527
21
-3.0958051690
0
LINE
5
26C
100
AcDbEntity
8
0
100
AcDbLine
62
0
6
CONTINUOUS
10
13.9417355774
20
-3.0958051690
11
14.9306093527
21
-3.0958051690
0
LINE
5
26D
100
AcDbEntity
8
0
100
AcDbLine
62
0
6
CONTINUOUS
10
14.9306093527
20
-2.9205611690
11
14.1972013702
21
-2.9205611690
0
LINE
5
26E
100
AcDbEntity
8
0
100
AcDbLine
62
0
6
CONTINUOUS
10
10.4264363527
20
-2.7390591690
11
11.0752543527
21
-2.7390591690
0
LINE
5
26F
100
AcDbEntity
8
0
100
AcDbLine
62
0
6
CONTINUOUS
10
11.2588423527
20
-2.7390591690
11
11.4612073527
21
-2.7390591690
0
LINE
5
270
100
AcDbEntity
8
0
100
AcDbLine
62
0
6
CONTINUOUS
10
11.4612073527
20
-2.5700751690
11
11.2588423527
21
-2.5700751690
0
LINE
5
271
100
AcDbEntity
8
0
100
AcDbLine
62
0
6
CONTINUOUS
10
11.0752543527
20
-2.5700751690
11
10.6067973527
21
-2.5700751690
0
LINE
5
272
100
AcDbEntity
8
0
100
AcDbLine
62
0
6
CONTINUOUS
10
11.9725943527
20
-1.7960831690
11
12.5669093527
21
-1.7960831690
0
LINE
5
273
100
AcDbEntity
8
0
100
AcDbLine
62
0
6
CONTINUOUS
10
12.5669093527
20
-1.6208401690
11
11.8262973527
21
-1.6208401690
0
LINE
5
274
100
AcDbEntity
8
0
100
AcDbLine
62
0
6
CONTINUOUS
10
11.2588423527
20
-1.6020631690
11
11.1086343527
21
-1.6020631690
0
LINE
5
275
100
AcDbEntity
8
0
100
AcDbLine
62
0
6
CONTINUOUS
10
10.0175353527
20
-1.5958051690
11
9.8992067960
21
-1.5958051690
0
LINE
5
276
100
AcDbEntity
8
0
100
AcDbLine
62
0
6
CONTINUOUS
10
-20.8832296473
20
-19.9707281690
11
-20.8491948629
21
-19.9366933847
0
LINE
5
277
100
AcDbEntity
8
0
100
AcDbLine
62
0
6
CONTINUOUS
10
13.9772014503
20
-2.0276551788
11
14.1649622679
21
-2.0464311606
0
LINE
5
278
100
AcDbEntity
8
0
100
AcDbLine
62
0
6
CONTINUOUS
10
11.6823473527
20
-2.3885731690
11
11.8555048720
21
-2.4136072441
0
LINE
5
279
100
AcDbEntity
8
0
100
AcDbLine
62
0
6
CONTINUOUS
10
12.8276882410
20
-1.9838441487
11
13.0112766867
21
-2.0172232298
0
LINE
5
27A
100
AcDbEntity
8
0
100
AcDbLine
62
0
6
CONTINUOUS
10
-20.8491948629
20
20.6952370466
11
-20.8832296473
21
20.7292718310
0
LINE
5
27B
100
AcDbEntity
8
0
100
AcDbLine
62
0
6
CONTINUOUS
10
21.3827355683
20
20.6952370466
11
21.4167703527
21
20.7292718310
0
LINE
5
27C
100
AcDbEntity
8
0
100
AcDbLine
62
0
6
CONTINUOUS
10
15.3288313527
20
2.3792798310
11
15.7005393527
21
2.3792838310
0
LINE
5
27D
100
AcDbEntity
8
0
100
AcDbLine
62
0
6
CONTINUOUS
10
12.7704363527
20
2.3792758310
11
13.1004483527
21
2.3792798310
0
LINE
5
27E
100
AcDbEntity
8
0
100
AcDbLine
62
0
6
CONTINUOUS
10
11.5784013527
20
2.3792758310
11
11.9084053527
21
2.3792798310
0
LINE
5
27F
100
AcDbEntity
8
0
100
AcDbLine
62
0
6
CONTINUOUS
10
10.2763663527
20
2.3792718310
11
10.6063783527
21
2.3792758310
0
LINE
5
280
100
AcDbEntity
8
0
100
AcDbLine
62
0
6
CONTINUOUS
10
9.1965523527
20
2.3792718310
11
9.5265773527
21
2.3792758310
0
LINE
5
281
100
AcDbEntity
8
0
100
AcDbLine
62
0
6
CONTINUOUS
10
10.9363823527
20
2.3792758310
11
11.2663953527
21
2.3792758310
0
LINE
5
282
100
AcDbEntity
8
0
100
AcDbLine
62
0
6
CONTINUOUS
10
12.2204163527
20
2.3792758310
11
12.5504293527
21
2.3792758310
0
LINE
5
283
100
AcDbEntity
8
0
100
AcDbLine
62
0
6
CONTINUOUS
10
14.3800353527
20
2.3792798310
11
14.7100523527
21
2.3792798310
0
LINE
5
284
100
AcDbEntity
8
0
100
AcDbLine
62
0
6
CONTINUOUS
10
13.8300123527
20
2.3792798310
11
14.1600283527
21
2.3792758310
0
LINE
5
285
100
AcDbEntity
8
0
100
AcDbLine
62
0
6
CONTINUOUS
10
13.2046333527
20
2.7037778310
11
13.7258313527
21
2.7037778310
0
LINE
5
286
100
AcDbEntity
8
0
100
AcDbLine
62
0
6
CONTINUOUS
10
21.4167703527
20
-19.9707281690
11
21.3827355683
21
-19.9366933847
0
LINE
5
287
100
AcDbEntity
8
0
100
AcDbLine
62
0
6
CONTINUOUS
10
13.6251643527
20
3.0172898310
11
13.3052953527
21
3.0172898310
0
LINE
5
288
100
AcDbEntity
8
0
100
AcDbLine
62
0
6
CONTINUOUS
10
14.7100893527
20
3.0172938310
11
14.9981173527
21
3.0172898310
0
LINE
5
289
100
AcDbEntity
8
0
100
AcDbLine
62
0
6
CONTINUOUS
10
15.1070236098
20
3.3225558310
11
14.7055023527
21
3.3225558310
0
LINE
5
28A
100
AcDbEntity
8
0
100
AcDbLine
62
0
6
CONTINUOUS
10
14.7054983527
20
3.7240918310
11
15.1070236098
21
3.7240918310
0
LINE
5
28B
100
AcDbEntity
8
0
100
AcDbLine
62
0
6
CONTINUOUS
10
12.5504293527
20
4.0293498310
11
12.0515393527
21
4.0293498310
0
LINE
5
28C
100
AcDbEntity
8
0
100
AcDbLine
62
0
6
CONTINUOUS
10
11.4352723527
20
4.0293498310
11
10.9363823527
21
4.0293498310
0
LINE
5
28D
100
AcDbEntity
8
0
100
AcDbLine
62
0
6
CONTINUOUS
10
10.6063823527
20
4.0293498310
11
10.2763703527
21
4.0293498310
0
LINE
5
28E
100
AcDbEntity
8
0
100
AcDbLine
62
0
6
CONTINUOUS
10
10.0563633527
20
4.0293498310
11
9.7263463527
21
4.0293498310
0
LINE
5
28F
100
AcDbEntity
8
0
100
AcDbLine
62
0
6
CONTINUOUS
10
8.9967873527
20
4.0293498310
11
8.6667703527
21
4.0293498310
0
LINE
5
290
100
AcDbEntity
8
0
100
AcDbLine
62
0
6
CONTINUOUS
10
15.1528498524
20
4.0293548310
11
14.3800353527
21
4.0293548310
0
LINE
5
291
100
AcDbEntity
8
0
100
AcDbLine
62
0
6
CONTINUOUS
10
13.6302423527
20
4.0293548310
11
13.3002133527
21
4.0293548310
0
LINE
5
292
100
AcDbEntity
8
0
100
AcDbLine
62
0
6
CONTINUOUS
10
5.4667703527
20
-14.5707281690
11
5.4667703527
21
-7.6707281690
0
LINE
5
293
100
AcDbEntity
8
0
100
AcDbLine
62
0
6
CONTINUOUS
10
6.6167703527
20
-8.2707281690
11
6.6167703527
21
-13.9707281690
0
LINE
5
294
100
AcDbEntity
8
0
100
AcDbLine
62
0
6
CONTINUOUS
10
-20.8439587422
20
5.6400413464
11
21.3774994477
21
5.6400413464
0
LINE
5
295
100
AcDbEntity
8
0
100
AcDbLine
62
9
6
CONTINUOUS
10
6.9167703527
20
-7.9707281690
11
6.9167703527
21
-14.2707281690
0
LINE
5
296
100
AcDbEntity
8
0
100
AcDbLine
62
9
6
CONTINUOUS
10
7.1167703527
20
-7.9707281690
11
7.1167703527
21
-14.2707281690
0
LINE
5
297
100
AcDbEntity
8
0
100
AcDbLine
62
0
6
CONTINUOUS
10
7.4167703527
20
-13.9707281690
11
7.4167703527
21
-8.2707281690
0
LINE
5
298
100
AcDbEntity
8
0
100
AcDbLine
62
0
6
CONTINUOUS
10
9.7263463527
20
4.0293498310
11
9.3615693527
21
2.8931848310
0
LINE
5
299
100
AcDbEntity
8
0
100
AcDbLine
62
0
6
CONTINUOUS
10
9.5265773527
20
2.3792758310
11
10.0563633527
21
4.0293498310
0
LINE
5
29A
100
AcDbEntity
8
0
100
AcDbLine
62
0
6
CONTINUOUS
10
9.2318472799
20
-9.2089287169
11
9.2244359550
21
-9.1733181816
0
LINE
5
29B
100
AcDbEntity
8
0
100
AcDbLine
62
0
6
CONTINUOUS
10
9.0667703527
20
-4.8814976845
11
9.0667703527
21
-16.4707281690
0
LINE
5
29C
100
AcDbEntity
8
0
100
AcDbLine
62
0
6
CONTINUOUS
10
9.1167703527
20
-15.1037486919
11
9.1167703527
21
-9.1523732132
0
LINE
5
29D
100
AcDbEntity
8
0
100
AcDbLine
62
0
6
CONTINUOUS
10
9.1667703527
20
-9.1733181816
11
9.1667703527
21
-15.1037486919
0
LINE
5
29E
100
AcDbEntity
8
0
100
AcDbLine
62
0
6
CONTINUOUS
10
9.2183986670
20
-9.2358427073
11
9.2183986670
21
-15.0307504793
0
LINE
5
29F
100
AcDbEntity
8
0
100
AcDbLine
62
9
6
CONTINUOUS
10
9.3167703527
20
-9.2382221161
11
9.3167703527
21
-15.0331298881
0
LINE
5
2A0
100
AcDbEntity
8
0
100
AcDbLine
62
0
6
CONTINUOUS
10
9.4167703527
20
-9.2454784992
11
9.4167703527
21
-15.0403862712
0
LINE
5
2A1
100
AcDbEntity
8
0
100
AcDbLine
62
0
6
CONTINUOUS
10
9.4667703527
20
-1.9708049665
11
9.4667703527
21
-2.1481019931
0
LINE
5
2A2
100
AcDbEntity
8
0
100
AcDbLine
62
0
6
CONTINUOUS
10
9.8339473527
20
-1.9269937994
11
9.8339473527
21
-3.0958051690
0
LINE
5
2A3
100
AcDbEntity
8
0
100
AcDbLine
62
0
6
CONTINUOUS
10
10.0175353527
20
-3.0958051690
11
10.0175353527
21
-1.5958051690
0
LINE
5
2A4
100
AcDbEntity
8
0
100
AcDbLine
62
0
6
CONTINUOUS
10
10.1167703527
20
-9.1523732132
11
10.1167703527
21
-15.1037486919
0
LINE
5
2A5
100
AcDbEntity
8
0
100
AcDbLine
62
0
6
CONTINUOUS
10
10.2763703527
20
4.0293498310
11
10.2763663527
21
2.3792718310
0
LINE
5
2A6
100
AcDbEntity
8
0
100
AcDbLine
62
0
6
CONTINUOUS
10
10.4264363527
20
-2.5700751690
11
10.4264363527
21
-2.7390591690
0
LINE
5
2A7
100
AcDbEntity
8
0
100
AcDbLine
62
0
6
CONTINUOUS
10
10.6063783527
20
2.3792758310
11
10.6063823527
21
4.0293498310
0
LINE
5
2A8
100
AcDbEntity
8
0
100
AcDbLine
62
0
6
CONTINUOUS
10
9.2296901814
20
-15.1037486919
11
9.2297099418
21
-15.0497484666
0
LINE
5
2A9
100
AcDbEntity
8
0
100
AcDbLine
62
0
6
CONTINUOUS
10
9.2318373123
20
-9.2361677605
11
9.2318472799
21
-9.2089287169
0
LINE
5
2AA
100
AcDbEntity
8
0
100
AcDbLine
62
0
6
CONTINUOUS
10
12.0515393527
20
4.0293498310
11
11.7434053527
21
2.9547628310
0
LINE
5
2AB
100
AcDbEntity
8
0
100
AcDbLine
62
0
6
CONTINUOUS
10
11.9084053527
20
2.3792798310
11
12.2204123527
21
3.4673888310
0
LINE
5
2AC
100
AcDbEntity
8
0
100
AcDbLine
62
0
6
CONTINUOUS
10
10.6067973527
20
-2.5700751690
11
11.0752543527
21
-1.8980801690
0
LINE
5
2AD
100
AcDbEntity
8
0
100
AcDbLine
62
0
6
CONTINUOUS
10
11.1086343527
20
-1.6020631690
11
10.4264363527
21
-2.5700751690
0
LINE
5
2AE
100
AcDbEntity
8
0
100
AcDbLine
62
0
6
CONTINUOUS
10
8.6667703527
20
4.0293498310
11
9.1965523527
21
2.3792718310
0
LINE
5
2AF
100
AcDbEntity
8
0
100
AcDbLine
62
0
6
CONTINUOUS
10
9.3615693527
20
2.8931848310
11
8.9967873527
21
4.0293498310
0
LINE
5
2B0
100
AcDbEntity
8
0
100
AcDbLine
62
0
6
CONTINUOUS
10
10.9363823527
20
4.0293498310
11
10.9363823527
21
2.3792758310
0
LINE
5
2B1
100
AcDbEntity
8
0
100
AcDbLine
62
0
6
CONTINUOUS
10
11.0752543527
20
-1.8980801690
11
11.0752543527
21
-2.5700751690
0
LINE
5
2B2
100
AcDbEntity
8
0
100
AcDbLine
62
0
6
CONTINUOUS
10
11.0752543527
20
-2.7390591690
11
11.0752543527
21
-3.0958051690
0
LINE
5
2B3
100
AcDbEntity
8
0
100
AcDbLine
62
0
6
CONTINUOUS
10
11.2588423527
20
-3.0958051690
11
11.2588423527
21
-2.7390591690
0
LINE
5
2B4
100
AcDbEntity
8
0
100
AcDbLine
62
0
6
CONTINUOUS
10
11.2588423527
20
-2.5700751690
11
11.2588423527
21
-1.6020631690
0
LINE
5
2B5
100
AcDbEntity
8
0
100
AcDbLine
62
0
6
CONTINUOUS
10
11.2663953527
20
2.3792758310
11
11.2663953527
21
3.4673888310
0
LINE
5
2B6
100
AcDbEntity
8
0
100
AcDbLine
62
0
6
CONTINUOUS
10
11.4612073527
20
-2.7390591690
11
11.4612073527
21
-2.5700751690
0
LINE
5
2B7
100
AcDbEntity
8
0
100
AcDbLine
62
0
6
CONTINUOUS
10
12.2204123527
20
3.4673888310
11
12.2204163527
21
2.3792758310
0
LINE
5
2B8
100
AcDbEntity
8
0
100
AcDbLine
62
0
6
CONTINUOUS
10
12.5504293527
20
2.3792758310
11
12.5504293527
21
4.0293498310
0
LINE
5
2B9
100
AcDbEntity
8
0
100
AcDbLine
62
0
6
CONTINUOUS
10
12.5669093527
20
-1.7960831690
11
12.5669093527
21
-1.6208401690
0
LINE
5
2BA
100
AcDbEntity
8
0
100
AcDbLine
62
0
6
CONTINUOUS
10
11.8262973527
20
-1.6208401690
11
11.6823473527
21
-2.3885731690
0
LINE
5
2BB
100
AcDbEntity
8
0
100
AcDbLine
62
0
6
CONTINUOUS
10
11.8929262681
20
-2.1989865967
11
11.9725943527
21
-1.7960831690
0
LINE
5
2BC
100
AcDbEntity
8
0
100
AcDbLine
62
0
6
CONTINUOUS
10
13.3002133527
20
4.0293548310
11
12.7704363527
21
2.3792758310
0
LINE
5
2BD
100
AcDbEntity
8
0
100
AcDbLine
62
0
6
CONTINUOUS
10
13.1004483527
20
2.3792798310
11
13.2046333527
21
2.7037778310
0
LINE
5
2BE
100
AcDbEntity
8
0
100
AcDbLine
62
0
6
CONTINUOUS
10
13.3052953527
20
3.0172898310
11
13.4652263527
21
3.5154408310
0
LINE
5
2BF
100
AcDbEntity
8
0
100
AcDbLine
62
0
6
CONTINUOUS
10
11.2663953527
20
3.4673888310
11
11.5784013527
21
2.3792758310
0
LINE
5
2C0
100
AcDbEntity
8
0
100
AcDbLine
62
0
6
CONTINUOUS
10
11.7434053527
20
2.9547628310
11
11.4352723527
21
4.0293498310
0
LINE
5
2C1
100
AcDbEntity
8
0
100
AcDbLine
62
0
6
CONTINUOUS
10
14.3800353527
20
4.0293548310
11
14.3800353527
21
2.3792798310
0
LINE
5
2C2
100
AcDbEntity
8
0
100
AcDbLine
62
0
6
CONTINUOUS
10
14.7055023527
20
3.3225558310
11
14.7054983527
21
3.7240918310
0
LINE
5
2C3
100
AcDbEntity
8
0
100
AcDbLine
62
0
6
CONTINUOUS
10
14.9306093527
20
-3.0958051690
11
14.9306093527
21
-2.9205611690
0
LINE
5
2C4
100
AcDbEntity
8
0
100
AcDbLine
62
0
6
CONTINUOUS
10
14.7100523527
20
2.3792798310
11
14.7100893527
21
3.0172938310
0
LINE
5
2C5
100
AcDbEntity
8
0
100
AcDbLine
62
0
6
CONTINUOUS
10
13.1914094142
20
-2.2258466851
11
13.1710033024
21
-2.3864865648
0
LINE
5
2C6
100
AcDbEntity
8
0
100
AcDbLine
62
0
6
CONTINUOUS
10
14.9981173527
20
3.0172898310
11
15.3288313527
21
2.3792798310
0
LINE
5
2C7
100
AcDbEntity
8
0
100
AcDbLine
62
0
6
CONTINUOUS
10
15.7005393527
20
2.3792838310
11
15.3492579510
21
3.0569776059
0
LINE
5
2C8
100
AcDbEntity
8
0
100
AcDbLine
62
0
6
CONTINUOUS
10
13.4652263527
20
3.5154408310
11
13.6251643527
21
3.0172898310
0
LINE
5
2C9
100
AcDbEntity
8
0
100
AcDbLine
62
0
6
CONTINUOUS
10
13.7258313527
20
2.7037778310
11
13.8300123527
21
2.3792798310
0
LINE
5
2CA
100
AcDbEntity
8
0
100
AcDbLine
62
0
6
CONTINUOUS
10
14.1600283527
20
2.3792758310
11
13.6302423527
21
4.0293548310
0
LINE
5
2CB
100
AcDbEntity
8
0
100
AcDbLine
62
0
6
CONTINUOUS
10
15.3167703527
20
-7.9707281690
11
15.3167703527
21
-14.2707281690
0
LINE
5
2CC
100
AcDbEntity
8
0
100
AcDbLine
62
9
6
CONTINUOUS
10
15.5567703527
20
-14.2707281690
11
15.5567703527
21
-7.9707281690
0
LINE
5
2CD
100
AcDbEntity
8
0
100
AcDbLine
62
9
6
CONTINUOUS
10
15.6167703527
20
-7.9107281690
11
15.6167703527
21
-7.6707281690
0
LINE
5
2CE
100
AcDbEntity
8
0
100
AcDbLine
62
9
6
CONTINUOUS
10
15.6167703527
20
-14.3307281690
11
15.6167703527
21
-14.5707281690
0
LINE
5
2CF
100
AcDbEntity
8
0
100
AcDbLine
62
9
6
CONTINUOUS
10
16.4167703527
20
-7.9107281690
11
16.4167703527
21
-7.6707281690
0
LINE
5
2D0
100
AcDbEntity
8
0
100
AcDbLine
62
9
6
CONTINUOUS
10
16.4167703527
20
-14.3307281690
11
16.4167703527
21
-14.5707281690
0
LINE
5
2D1
100
AcDbEntity
8
0
100
AcDbLine
62
9
6
CONTINUOUS
10
16.4767703527
20
-7.9707281690
11
16.4767703527
21
-14.2707281690
0
LINE
5
2D2
100
AcDbEntity
8
0
100
AcDbLine
62
0
6
CONTINUOUS
10
16.7167703527
20
-14.2707281690
11
16.7167703527
21
-7.9707281690
0
LINE
5
2D3
100
AcDbEntity
8
0
100
AcDbLine
62
0
6
CONTINUOUS
10
17.0167703527
20
-19.6207281690
11
17.0167703527
21
-19.9707281690
0
LINE
5
2D4
100
AcDbEntity
8
0
100
AcDbLine
62
0
6
CONTINUOUS
10
17.0167703527
20
20.3792718310
11
17.0167703527
21
20.7292718310
0
LINE
5
2D5
100
AcDbEntity
8
0
100
AcDbLine
62
0
6
CONTINUOUS
10
17.5318217158
20
20.3792718310
11
19.5124824571
21
20.7285157593
0
LINE
5
2D6
100
AcDbEntity
8
0
100
AcDbLine
62
9
6
CONTINUOUS
10
17.5143239831
20
20.4378504747
11
19.1670566226
21
20.7292718310
0
LINE
5
2D7
100
AcDbEntity
8
0
100
AcDbLine
62
0
6
CONTINUOUS
10
-20.8491948629
20
17.2292718310
11
21.3827355683
21
17.2292718310
0
LINE
5
2D8
100
AcDbEntity
8
0
100
AcDbLine
62
0
6
CONTINUOUS
10
-18.9789417517
20
20.7285157593
11
-16.9982810104
21
20.3792718310
0
LINE
5
2D9
100
AcDbEntity
8
0
100
AcDbLine
62
9
6
CONTINUOUS
10
-18.6335159172
20
20.7292718310
11
-16.9807832777
21
20.4378504747
0
LINE
5
2DA
100
AcDbEntity
8
0
100
AcDbLine
62
0
6
CONTINUOUS
10
17.5316907753
20
20.3792718310
11
17.0167703527
21
20.3792718310
0
LINE
5
2DB
100
AcDbEntity
8
0
100
AcDbLine
62
0
6
CONTINUOUS
10
-16.4832296473
20
20.3792718310
11
-16.9981500699
21
20.3792718310
0
LINE
5
2DC
100
AcDbEntity
8
0
100
AcDbLine
62
9
6
CONTINUOUS
10
17.5143239831
20
20.4378504747
11
17.0167703527
21
20.4378504747
0
LINE
5
2DD
100
AcDbEntity
8
0
100
AcDbLine
62
9
6
CONTINUOUS
10
-16.4832296473
20
20.4378504747
11
-16.9807832777
21
20.4378504747
0
LINE
5
2DE
100
AcDbEntity
8
0
100
AcDbLine
62
0
6
CONTINUOUS
10
-20.8491948629
20
20.6952370466
11
-18.7902087934
21
20.6952370466
0
LINE
5
2DF
100
AcDbEntity
8
0
100
AcDbLine
62
0
6
CONTINUOUS
10
-16.4832296473
20
20.6952370466
11
17.0167703527
21
20.6952370466
0
LINE
5
2E0
100
AcDbEntity
8
0
100
AcDbLine
62
0
6
CONTINUOUS
10
19.3237494988
20
20.6952370466
11
21.3827355683
21
20.6952370466
0
LINE
5
2E1
100
AcDbEntity
8
0
100
AcDbLine
62
0
6
CONTINUOUS
10
-20.8832296473
20
20.7292718310
11
21.4167703527
21
20.7292718310
0
LINE
5
2E2
100
AcDbEntity
8
0
100
AcDbLine
62
0
6
CONTINUOUS
10
21.3827355683
20
-16.4707281690
11
21.3774994477
21
-4.8814976845
0
LINE
5
2E3
100
AcDbEntity
8
0
100
AcDbLine
62
0
6
CONTINUOUS
10
21.3774994477
20
-4.8814976845
11
21.3774994477
21
5.6400413464
0
LINE
5
2E4
100
AcDbEntity
8
0
100
AcDbLine
62
0
6
CONTINUOUS
10
21.3827355683
20
20.6952370466
11
21.3827355683
21
17.2292718310
0
LINE
5
2E5
100
AcDbEntity
8
0
100
AcDbLine
62
0
6
CONTINUOUS
10
21.3827355683
20
-16.4707281690
11
21.3827355683
21
-19.9366933847
0
LINE
5
2E6
100
AcDbEntity
8
0
100
AcDbLine
62
0
6
CONTINUOUS
10
21.4167703527
20
20.7292718310
11
21.4167703527
21
-19.9707281690
0
LINE
5
2E7
100
AcDbEntity
8
0
100
AcDbLine
62
0
6
CONTINUOUS
10
22.4167703527
20
21.4293936748
11
22.4167703527
21
-20.6708500129
0
LINE
5
2E8
100
AcDbEntity
8
0
100
AcDbLine
62
0
6
CONTINUOUS
10
21.3774994477
20
5.6400413464
11
21.3827355683
21
17.2292718310
0
LINE
5
2E9
100
AcDbEntity
8
0
100
AcDbLine
62
0
6
CONTINUOUS
10
-21.0833514912
20
22.2292718310
11
21.6168921966
21
22.2292718310
0
CIRCLE
5
2EA
100
AcDbEntity
8
0
100
AcDbCircle
62
0
6
CONTINUOUS
10
0.2667703527
20
0.3792718310
40
1.2500000000
0
CIRCLE
5
2EB
100
AcDbEntity
8
0
100
AcDbCircle
62
0
6
CONTINUOUS
10
0.2667703527
20
0.3792718310
40
1.2185839459
0
CIRCLE
5
2EC
100
AcDbEntity
8
0
100
AcDbCircle
62
0
6
CONTINUOUS
10
0.2667703527
20
0.3792718310
40
1.7000000000
0
ARC
5
2ED
100
AcDbEntity
8
0
100
AcDbCircle
62
0
6
CONTINUOUS
10
15.1070083527
20
3.5233238310
40
0.2007690000
100
AcDbArc
50
270.0043541036
51
89.9956458964
0
ARC
5
2EE
100
AcDbEntity
8
0
100
AcDbCircle
62
0
6
CONTINUOUS
10
15.1528133527
20
3.5233238310
40
0.5060329798
100
AcDbArc
50
292.8428677796
51
89.9958672882
0
ARC
5
2EF
100
AcDbEntity
8
0
100
AcDbCircle
62
0
6
CONTINUOUS
10
7.1167703527
20
-8.2707281690
40
0.3000000000
100
AcDbArc
50
0.0000000000
51
90.0000000000
0
ARC
5
2F0
100
AcDbEntity
8
0
100
AcDbCircle
62
0
6
CONTINUOUS
10
6.9167703527
20
-8.2707281690
40
0.3000000000
100
AcDbArc
50
90.0000000000
51
180.0000000000
0
ARC
5
2F1
100
AcDbEntity
8
0
100
AcDbCircle
62
0
6
CONTINUOUS
10
7.1167703527
20
-13.9707281690
40
0.3000000000
100
AcDbArc
50
270.0000000000
51
360.0000000000
0
ARC
5
2F2
100
AcDbEntity
8
0
100
AcDbCircle
62
0
6
CONTINUOUS
10
6.9167703527
20
-13.9707281690
40
0.3000000000
100
AcDbArc
50
180.0000000000
51
270.0000000000
0
ARC
5
2F3
100
AcDbEntity
8
0
100
AcDbCircle
62
0
6
CONTINUOUS
10
-15.3832296473
20
-8.2707281690
40
0.3000000000
100
AcDbArc
50
0.0000000000
51
90.0000000000
0
ARC
5
2F4
100
AcDbEntity
8
0
100
AcDbCircle
62
0
6
CONTINUOUS
10
-15.5832296473
20
-8.2707281690
40
0.3000000000
100
AcDbArc
50
90.0000000000
51
180.0000000000
0
ARC
5
2F5
100
AcDbEntity
8
0
100
AcDbCircle
62
0
6
CONTINUOUS
10
-15.3832296473
20
-13.9707281690
40
0.3000000000
100
AcDbArc
50
270.0000000000
51
360.0000000000
0
ARC
5
2F6
100
AcDbEntity
8
0
100
AcDbCircle
62
0
6
CONTINUOUS
10
-15.5832296473
20
-13.9707281690
40
0.3000000000
100
AcDbArc
50
180.0000000000
51
270.0000000000
0
ARC
5
2F7
100
AcDbEntity
8
0
100
AcDbCircle
62
0
6
CONTINUOUS
10
-6.0832296473
20
-14.2707281690
40
0.3000000000
100
AcDbArc
50
270.0000000000
51
360.0000000000
0
ARC
5
2F8
100
AcDbEntity
8
0
100
AcDbCircle
62
0
6
CONTINUOUS
10
-6.8832296473
20
-14.2707281690
40
0.3000000000
100
AcDbArc
50
180.0000000000
51
270.0000000000
0
ARC
5
2F9
100
AcDbEntity
8
0
100
AcDbCircle
62
0
6
CONTINUOUS
10
16.4167703527
20
-14.2707281690
40
0.3000000000
100
AcDbArc
50
270.0000000000
51
360.0000000000
0
ARC
5
2FA
100
AcDbEntity
8
0
100
AcDbCircle
62
0
6
CONTINUOUS
10
15.6167703527
20
-14.2707281690
40
0.3000000000
100
AcDbArc
50
180.0000000000
51
270.0000000000
0
ARC
5
2FB
100
AcDbEntity
8
0
100
AcDbCircle
62
0
6
CONTINUOUS
10
15.6167703527
20
-7.9707281690
40
0.3000000000
100
AcDbArc
50
90.0000000000
51
180.0000000000
0
ARC
5
2FC
100
AcDbEntity
8
0
100
AcDbCircle
62
0
6
CONTINUOUS
10
16.4167703527
20
-7.9707281690
40
0.3000000000
100
AcDbArc
50
0.0000000000
51
90.0000000000
0
CIRCLE
5
2FD
100
AcDbEntity
8
0
100
AcDbCircle
62
0
6
CONTINUOUS
10
0.2667703527
20
0.3792718310
40
2.7500000000
0
CIRCLE
5
2FE
100
AcDbEntity
8
0
100
AcDbCircle
62
0
6
CONTINUOUS
10
0.2667703527
20
0.3792718310
40
1.7750000000
0
CIRCLE
5
2FF
100
AcDbEntity
8
0
100
AcDbCircle
62
9
6
CONTINUOUS
10
0.2667703527
20
0.3792718310
40
2.2947467430
0
CIRCLE
5
300
100
AcDbEntity
8
0
100
AcDbCircle
62
9
6
CONTINUOUS
10
0.2667703527
20
0.3792718310
40
2.7447296094
0
ARC
5
301
100
AcDbEntity
8
0
100
AcDbCircle
62
9
6
CONTINUOUS
10
16.4167703527
20
-7.9707281690
40
0.0599999956
100
AcDbArc
50
0.0000000000
51
90.0000000000
0
ARC
5
302
100
AcDbEntity
8
0
100
AcDbCircle
62
9
6
CONTINUOUS
10
15.6167703527
20
-7.9707281690
40
0.0599999956
100
AcDbArc
50
90.0000000000
51
180.0000000000
0
ARC
5
303
100
AcDbEntity
8
0
100
AcDbCircle
62
9
6
CONTINUOUS
10
15.6167703527
20
-14.2707281690
40
0.0599999956
100
AcDbArc
50
180.0000000000
51
270.0000000000
0
ARC
5
304
100
AcDbEntity
8
0
100
AcDbCircle
62
9
6
CONTINUOUS
10
16.4167703527
20
-14.2707281690
40
0.0599999956
100
AcDbArc
50
270.0000000000
51
360.0000000000
0
SPLINE
5
305
100
AcDbEntity
8
0
100
AcDbSpline
62
0
6
CONTINUOUS
70
0
71
3
72
10
73
6
74
4
42
0.0000001000
43
0.0000001000
44
0.0000000001
12
-0.1004305828
22
-0.0024292093
32
0.0000000000
13
0.0000000000
23
-0.0254065880
33
0.0000000000
40
0.0000000000
40
0.0000000000
40
0.0000000000
40
0.0000000000
40
0.5299798799
40
0.8765950990
40
1.0000000000
40
1.0000000000
40
1.0000000000
40
1.0000000000
10
-8.7832296473
20
-9.2382221161
30
0.0000000000
10
-8.8009717100
20
-9.2386512601
30
0.0000000000
10
-8.8334830260
20
-9.2403027017
30
0.0000000000
10
-8.8585708602
20
-9.2404528642
30
0.0000000000
10
-8.8832296473
20
-9.2444334000
30
0.0000000000
10
-8.8832296473
20
-9.2454784992
30
0.0000000000
11
-8.7832296473
21
-9.2382221161
31
0.0000000000
11
-8.8364385359
21
-9.2400926143
31
0.0000000000
11
-8.8711681714
21
-9.2426127297
31
0.0000000000
11
-8.8832296473
21
-9.2454784992
31
0.0000000000
0
SPLINE
5
306
100
AcDbEntity
8
0
100
AcDbSpline
62
0
6
CONTINUOUS
70
0
71
3
72
8
73
4
74
2
42
0.0000001000
43
0.0000001000
44
0.0000000001
12
0.0193057008
22
0.0004669652
32
0.0000000000
13
0.0199920335
23
0.0007553203
33
0.0000000000
40
0.0000000000
40
0.0000000000
40
0.0000000000
40
0.0000000000
40
1.0000000000
40
1.0000000000
40
1.0000000000
40
1.0000000000
10
9.3167703527
20
-15.0476426543
30
0.0000000000
10
9.3232055863
20
-15.0474869992
30
0.0000000000
10
9.3298926140
20
-15.0472564477
30
0.0000000000
10
9.3365566251
20
-15.0470046743
30
0.0000000000
11
9.3167703527
21
-15.0476426543
31
0.0000000000
11
9.3365566251
21
-15.0470046743
31
0.0000000000
0
SPLINE
5
307
100
AcDbEntity
8
0
100
AcDbSpline
62
0
6
CONTINUOUS
70
0
71
3
72
10
73
6
74
4
42
0.0000001000
43
0.0000001000
44
0.0000000001
12
0.0840089346
22
0.0031739469
32
0.0000000000
13
0.0000000000
23
0.0205226973
33
0.0000000000
40
0.0000000000
40
0.0000000000
40
0.0000000000
40
0.0000000000
40
0.4181268014
40
0.8472278071
40
1.0000000000
40
1.0000000000
40
1.0000000000
40
1.0000000000
10
9.3365566251
20
-15.0470046743
30
0.0000000000
10
9.3482654209
20
-15.0465623035
30
0.0000000000
10
9.3718463483
20
-15.0455332031
30
0.0000000000
10
9.3921115656
20
-15.0454119062
30
0.0000000000
10
9.4167703527
20
-15.0414313703
30
0.0000000000
10
9.4167703527
20
-15.0403862712
30
0.0000000000
11
9.3365566251
21
-15.0470046743
31
0.0000000000
11
9.3699792413
21
-15.0457721561
31
0.0000000000
11
9.4047088769
21
-15.0432520407
31
0.0000000000
11
9.4167703527
21
-15.0403862712
31
0.0000000000
0
SPLINE
5
308
100
AcDbEntity
8
0
100
AcDbSpline
62
0
6
CONTINUOUS
70
0
71
3
72
10
73
6
74
4
42
0.0000001000
43
0.0000001000
44
0.0000000001
12
0.0000000000
22
0.0254065880
32
0.0000000000
13
-0.1004305828
23
0.0024292093
33
0.0000000000
40
0.0000000000
40
0.0000000000
40
0.0000000000
40
0.0000000000
40
0.1234049010
40
0.4700201201
40
1.0000000000
40
1.0000000000
40
1.0000000000
40
1.0000000000
10
9.4167703527
20
-9.2454784992
30
0.0000000000
10
9.4167703527
20
-9.2444334000
30
0.0000000000
10
9.3921115656
20
-9.2404528642
30
0.0000000000
10
9.3670237314
20
-9.2403027017
30
0.0000000000
10
9.3345124154
20
-9.2386512601
30
0.0000000000
10
9.3167703527
20
-9.2382221161
30
0.0000000000
11
9.4167703527
21
-9.2454784992
31
0.0000000000
11
9.4047088769
21
-9.2426127297
31
0.0000000000
11
9.3699792413
21
-9.2400926143
31
0.0000000000
11
9.3167703527
21
-9.2382221161
31
0.0000000000
0
SPLINE
5
309
100
AcDbEntity
8
0
100
AcDbSpline
62
0
6
CONTINUOUS
70
0
71
3
72
10
73
6
74
4
42
0.0000001000
43
0.0000001000
44
0.0000000001
12
0.0000000000
22
-0.0254065880
32
0.0000000000
13
0.1004305828
23
-0.0024292093
33
0.0000000000
40
0.0000000000
40
0.0000000000
40
0.0000000000
40
0.0000000000
40
0.1234049010
40
0.4700201201
40
1.0000000000
40
1.0000000000
40
1.0000000000
40
1.0000000000
10
-8.8832296473
20
-15.0403862712
30
0.0000000000
10
-8.8832296473
20
-15.0414313703
30
0.0000000000
10
-8.8585708602
20
-15.0454119062
30
0.0000000000
10
-8.8334830260
20
-15.0455620687
30
0.0000000000
10
-8.8009717100
20
-15.0472135103
30
0.0000000000
10
-8.7832296473
20
-15.0476426543
30
0.0000000000
11
-8.8832296473
21
-15.0403862712
31
0.0000000000
11
-8.8711681714
21
-15.0432520407
31
0.0000000000
11
-8.8364385359
21
-15.0457721561
31
0.0000000000
11
-8.7832296473
21
-15.0476426543
31
0.0000000000
0
SPLINE
5
30A
100
AcDbEntity
8
0
100
AcDbSpline
62
0
6
CONTINUOUS
70
0
71
3
72
10
73
6
74
4
42
0.0000001000
43
0.0000001000
44
0.0000000001
12
0.0000000000
22
0.0254065880
32
0.0000000000
13
-0.1004305828
23
0.0024292093
33
0.0000000000
40
0.0000000000
40
0.0000000000
40
0.0000000000
40
0.0000000000
40
0.1234049010
40
0.4700201201
40
1.0000000000
40
1.0000000000
40
1.0000000000
40
1.0000000000
10
9.4167703527
20
-15.0403862712
30
0.0000000000
10
9.4167703527
20
-15.0393411720
30
0.0000000000
10
9.3921115656
20
-15.0353606362
30
0.0000000000
10
9.3670237314
20
-15.0352104736
30
0.0000000000
10
9.3345124154
20
-15.0335590321
30
0.0000000000
10
9.3167703527
20
-15.0331298881
30
0.0000000000
11
9.4167703527
21
-15.0403862712
31
0.0000000000
11
9.4047088769
21
-15.0375205017
31
0.0000000000
11
9.3699792413
21
-15.0350003863
31
0.0000000000
11
9.3167703527
21
-15.0331298881
31
0.0000000000
0
SPLINE
5
30B
100
AcDbEntity
8
0
100
AcDbSpline
62
0
6
CONTINUOUS
70
0
71
3
72
10
73
6
74
4
42
0.0000001000
43
0.0000001000
44
0.0000000001
12
-0.1004305828
22
-0.0024292093
32
0.0000000000
13
0.0000000000
23
-0.0254065880
33
0.0000000000
40
0.0000000000
40
0.0000000000
40
0.0000000000
40
0.0000000000
40
0.5299798799
40
0.8765950990
40
1.0000000000
40
1.0000000000
40
1.0000000000
40
1.0000000000
10
-8.7832296473
20
-15.0331298881
30
0.0000000000
10
-8.8009717100
20
-15.0335590321
30
0.0000000000
10
-8.8334830260
20
-15.0352104736
30
0.0000000000
10
-8.8585708602
20
-15.0353606362
30
0.0000000000
10
-8.8832296473
20
-15.0393411720
30
0.0000000000
10
-8.8832296473
20
-15.0403862712
30
0.0000000000
11
-8.7832296473
21
-15.0331298881
31
0.0000000000
11
-8.8364385359
21
-15.0350003863
31
0.0000000000
11
-8.8711681714
21
-15.0375205017
31
0.0000000000
11
-8.8832296473
21
-15.0403862712
31
0.0000000000
0
SPLINE
5
30C
100
AcDbEntity
8
0
100
AcDbSpline
62
0
6
CONTINUOUS
70
0
71
3
72
8
73
4
74
2
42
0.0000001000
43
0.0000001000
44
0.0000000001
12
0.0000000000
22
0.0111866955
32
0.0000000000
13
0.0004175412
23
0.0111842087
33
0.0000000000
40
0.0000000000
40
0.0000000000
40
0.0000000000
40
0.0000000000
40
1.0000000000
40
1.0000000000
40
1.0000000000
40
1.0000000000
10
-7.1832296473
20
-7.9707395926
30
0.0000000000
10
-7.1832296473
20
-7.9670106941
30
0.0000000000
10
-7.1831599849
20
-7.9632806781
30
0.0000000000
10
-7.1830208045
20
-7.9595526085
30
0.0000000000
11
-7.1832296473
21
-7.9707395926
31
0.0000000000
11
-7.1830208045
21
-7.9595526085
31
0.0000000000
0
SPLINE
5
30D
100
AcDbEntity
8
0
100
AcDbSpline
62
0
6
CONTINUOUS
70
0
71
3
72
21
73
17
74
15
42
0.0000001000
43
0.0000001000
44
0.0000000001
12
0.0171624680
22
0.4597118081
32
0.0000000000
13
0.4598140235
23
-0.0000000000
33
0.0000000000
40
0.0000000000
40
0.0000000000
40
0.0000000000
40
0.0000000000
40
0.0486010703
40
0.1219312773
40
0.1951303958
40
0.2680357809
40
0.3413639976
40
0.4147878921
40
0.4878362526
40
0.5608877903
40
0.6343141779
40
0.7076349387
40
0.7805325253
40
0.8537388622
40
0.9270723452
40
1.0000000000
40
1.0000000000
40
1.0000000000
40
1.0000000000
10
-7.1830208045
20
-7.9595526085
30
0.0000000000
10
-7.1827427664
20
-7.9521051132
30
0.0000000000
10
-7.1813492032
20
-7.9334401850
30
0.0000000000
10
-7.1763361693
20
-7.9038944058
30
0.0000000000
10
-7.1670090372
20
-7.8715060006
30
0.0000000000
10
-7.1541203257
20
-7.8403653094
30
0.0000000000
10
-7.1378111953
20
-7.8108308005
30
0.0000000000
10
-7.1182761720
20
-7.7832963092
30
0.0000000000
10
-7.0958073065
20
-7.7581568386
30
0.0000000000
10
-7.0706687311
20
-7.7356863838
30
0.0000000000
10
-7.0431353449
20
-7.7161502570
30
0.0000000000
10
-7.0136032719
20
-7.6998407840
30
0.0000000000
10
-6.9824643388
20
-7.6869510677
30
0.0000000000
10
-6.9500758593
20
-7.6776225857
30
0.0000000000
10
-6.9168451496
20
-7.6719837080
30
0.0000000000
10
-6.8944073667
20
-7.6707281690
30
0.0000000000
10
-6.8832296473
20
-7.6707281690
30
0.0000000000
11
-7.1830208045
21
-7.9595526085
31
0.0000000000
11
-7.1813555576
21
-7.9372578521
31
0.0000000000
11
-7.1757157415
21
-7.9040146067
31
0.0000000000
11
-7.1664013016
21
-7.8716711234
31
0.0000000000
11
-7.1535813605
21
-7.8406963729
31
0.0000000000
11
-7.1372823203
21
-7.8111802678
31
0.0000000000
11
-7.1177467756
21
-7.7836450117
31
0.0000000000
11
-7.0953635048
21
-7.7586013038
31
0.0000000000
11
-7.0703198795
21
-7.7362157483
31
0.0000000000
11
-7.0427845706
21
-7.7166782970
31
0.0000000000
11
-7.0132721739
21
-7.7003796333
31
0.0000000000
11
-6.9823013409
21
-7.6875596034
31
0.0000000000
11
-6.9499550186
21
-7.6782430285
31
0.0000000000
11
-6.9167103897
21
-7.6726023612
31
0.0000000000
11
-6.8832296473
21
-7.6707281690
31
0.0000000000
0
SPLINE
5
30E
100
AcDbEntity
8
0
100
AcDbSpline
62
0
6
CONTINUOUS
70
0
71
3
72
61
73
57
74
55
42
0.0000001000
43
0.0000001000
44
0.0000000001
12
0.0065334797
22
0.9054794866
32
0.0000000000
13
-0.0147771662
23
-0.9053920181
33
0.0000000000
40
0.0000000000
40
0.0000000000
40
0.0000000000
40
0.0000000000
40
0.0820175003
40
0.1561681088
40
0.1914316824
40
0.2261221121
40
0.2434294585
40
0.2607967935
40
0.2695120616
40
0.2781907840
40
0.2954420978
40
0.3126062378
40
0.3297461301
40
0.3641899297
40
0.3992863808
40
0.4172346921
40
0.4355191133
40
0.4541917288
40
0.4733014492
40
0.4830352885
40
0.4928952350
40
0.5028864803
40
0.5130140141
40
0.5181304666
40
0.5232192002
40
0.5256535330
40
0.5280798485
40
0.5329086836
40
0.5424730468
40
0.5519170001
40
0.5704615368
40
0.5885834605
40
0.6063256358
40
0.6237337329
40
0.6577305369
40
0.6910002314
40
0.7239848448
40
0.7405190590
40
0.7571518108
40
0.7655233543
40
0.7739096178
40
0.7904430087
40
0.8066778255
40
0.8226628923
40
0.8540768087
40
0.8851274554
40
0.9162600813
40
0.9320025428
40
0.9479296515
40
0.9640931076
40
0.9805423831
40
0.9888896801
40
0.9930963803
40
0.9952082838
40
0.9972463353
40
1.0000000000
40
1.0000000000
40
1.0000000000
40
1.0000000000
10
14.1649622837
20
-2.0464311607
30
0.0000000000
10
14.1651409036
20
-2.0216761060
30
0.0000000000
10
14.1689779311
20
-1.9744209337
30
0.0000000000
10
14.1851938036
20
-1.9184307070
30
0.0000000000
10
14.2046703029
20
-1.8794297325
30
0.0000000000
10
14.2193064475
20
-1.8574400643
30
0.0000000000
10
14.2325114943
20
-1.8411785659
30
0.0000000000
10
14.2413944386
20
-1.8315417729
30
0.0000000000
10
14.2488571301
20
-1.8241647410
30
0.0000000000
10
14.2565064064
20
-1.8170325852
30
0.0000000000
10
14.2664126934
20
-1.8085902161
30
0.0000000000
10
14.2788519231
20
-1.7992243983
30
0.0000000000
10
14.2961653883
20
-1.7877667947
30
0.0000000000
10
14.3192716247
20
-1.7753495711
30
0.0000000000
10
14.3439129550
20
-1.7656829701
30
0.0000000000
10
14.3645532185
20
-1.7595283416
30
0.0000000000
10
14.3806767738
20
-1.7556617316
30
0.0000000000
10
14.3973239998
20
-1.7525803952
30
0.0000000000
10
14.4115455519
20
-1.7506781244
30
0.0000000000
10
14.4231730362
20
-1.7495417314
30
0.0000000000
10
14.4320790931
20
-1.7488798637
30
0.0000000000
10
14.4411164120
20
-1.7484137511
30
0.0000000000
10
14.4487306170
20
-1.7481891104
30
0.0000000000
10
14.4548672642
20
-1.7481066791
30
0.0000000000
10
14.4586823690
20
-1.7480951304
30
0.0000000000
10
14.4616854088
20
-1.7481099321
30
0.0000000000
10
14.4646098891
20
-1.7481398626
30
0.0000000000
10
14.4696858344
20
-1.7482322026
30
0.0000000000
10
14.4768771300
20
-1.7484789561
30
0.0000000000
10
14.4881945607
20
-1.7491179801
30
0.0000000000
10
14.5020611150
20
-1.7503721033
30
0.0000000000
10
14.5183340957
20
-1.7526281071
30
0.0000000000
10
14.5341389469
20
-1.7556266463
30
0.0000000000
10
14.5544226684
20
-1.7605740472
30
0.0000000000
10
14.5787430012
20
-1.7686127843
30
0.0000000000
10
14.6062674111
20
-1.7813396129
30
0.0000000000
10
14.6276162224
20
-1.7944477743
30
0.0000000000
10
14.6436523570
20
-1.8063589964
30
0.0000000000
10
14.6532720652
20
-1.8144122825
30
0.0000000000
10
14.6607157216
20
-1.8212085461
30
0.0000000000
10
14.6679444042
20
-1.8281897930
30
0.0000000000
10
14.6765479980
20
-1.8371580493
30
0.0000000000
10
14.6861507322
20
-1.8483186859
30
0.0000000000
10
14.6978526110
20
-1.8635593742
30
0.0000000000
10
14.7106424390
20
-1.8835573145
30
0.0000000000
10
14.7229414595
20
-1.9090635832
30
0.0000000000
10
14.7305486655
20
-1.9313848424
30
0.0000000000
10
14.7350591892
20
-1.9498050680
30
0.0000000000
10
14.7376798084
20
-1.9640113389
30
0.0000000000
10
14.7395239776
20
-1.9785530906
30
0.0000000000
10
14.7404099163
20
-1.9908908342
30
0.0000000000
10
14.7406950305
20
-1.9996412012
30
0.0000000000
10
14.7407540635
20
-2.0040676038
30
0.0000000000
10
14.7407639836
20
-2.0065899252
30
0.0000000000
10
14.7407584450
20
-2.0086736817
30
0.0000000000
10
14.7407419548
20
-2.0101199254
30
0.0000000000
10
14.7407283910
20
-2.0109509741
30
0.0000000000
11
14.1649622837
21
-2.0464311607
31
0.0000000000
11
14.1717616603
21
-1.9724759693
31
0.0000000000
11
14.1910229331
21
-1.9081543789
31
0.0000000000
11
14.2053267815
21
-1.8796060652
31
0.0000000000
11
14.2227461045
21
-1.8534660725
31
0.0000000000
11
14.2326240689
21
-1.8412991966
31
0.0000000000
11
14.2432809021
21
-1.8297344009
31
0.0000000000
11
14.2488916330
21
-1.8241847467
31
0.0000000000
11
14.2546400745
21
-1.8188262797
31
0.0000000000
11
14.2665313472
21
-1.8086962770
31
0.0000000000
11
14.2789484730
21
-1.7993488497
31
0.0000000000
11
14.2918914519
21
-1.7907839978
31
0.0000000000
11
14.3193549689
21
-1.7760020197
31
0.0000000000
11
14.3489218983
21
-1.7643503429
31
0.0000000000
11
14.3644941425
21
-1.7596983674
31
0.0000000000
11
14.3805922398
21
-1.7558289673
31
0.0000000000
11
14.3972161903
21
-1.7527421424
31
0.0000000000
11
14.4143659937
21
-1.7504378929
31
0.0000000000
11
14.4231380904
21
-1.7495792339
31
0.0000000000
11
14.4320416503
21
-1.7489162187
31
0.0000000000
11
14.4410766735
21
-1.7484488473
31
0.0000000000
11
14.4502431599
21
-1.7481771198
31
0.0000000000
11
14.4548757019
21
-1.7481146225
31
0.0000000000
11
14.4594835456
21
-1.7481009709
31
0.0000000000
11
14.4616878143
21
-1.7481118963
31
0.0000000000
11
14.4638847353
21
-1.7481343896
31
0.0000000000
11
14.4682565342
21
-1.7482140803
31
0.0000000000
11
14.4769119593
21
-1.7485122778
31
0.0000000000
11
14.4854498209
21
-1.7489955633
31
0.0000000000
11
14.5021728534
21
-1.7505173987
31
0.0000000000
11
14.5184256320
21
-1.7527795863
31
0.0000000000
11
14.5342081564
21
-1.7557821263
31
0.0000000000
11
14.5495204268
21
-1.7595250186
31
0.0000000000
11
14.5787342054
21
-1.7692318602
31
0.0000000000
11
14.6060669677
21
-1.7819001111
31
0.0000000000
11
14.6315187138
21
-1.7975297713
31
0.0000000000
11
14.6435392057
21
-1.8064551299
31
0.0000000000
11
14.6550894436
21
-1.8161208409
31
0.0000000000
11
14.6606882173
21
-1.8212313284
31
0.0000000000
11
14.6661525776
21
-1.8265045034
31
0.0000000000
11
14.6765095603
21
-1.8373149078
31
0.0000000000
11
14.6860929924
21
-1.8484624511
31
0.0000000000
11
14.6949028739
21
-1.8599471333
31
0.0000000000
11
14.7102019852
21
-1.8839279145
31
0.0000000000
11
14.7224068942
21
-1.9092572514
31
0.0000000000
11
14.7315176010
21
-1.9359351440
31
0.0000000000
11
14.7349126285
21
-1.9497797986
31
0.0000000000
11
14.7375341054
21
-1.9639615922
31
0.0000000000
11
14.7393820318
21
-1.9784805247
31
0.0000000000
11
14.7404564076
21
-1.9933365961
31
0.0000000000
11
14.7407035140
21
-2.0008910589
31
0.0000000000
11
14.7407545468
21
-2.0046998971
31
0.0000000000
11
14.7407619332
21
-2.0066122178
31
0.0000000000
11
14.7407567314
21
-2.0084576724
31
0.0000000000
11
14.7407283910
21
-2.0109509741
31
0.0000000000
0
SPLINE
5
30F
100
AcDbEntity
8
0
100
AcDbSpline
62
0
6
CONTINUOUS
70
0
71
3
72
154
73
150
74
148
42
0.0000001000
43
0.0000001000
44
0.0000000001
12
1.1850010692
22
1.9292445170
32
0.0000000000
13
-1.7052057586
23
-1.4900084865
33
0.0000000000
40
0.0000000000
40
0.0000000000
40
0.0000000000
40
0.0000000000
40
0.0148526061
40
0.0225129854
40
0.0303384730
40
0.0383358489
40
0.0424010907
40
0.0465116513
40
0.0506682617
40
0.0527640681
40
0.0548716499
40
0.0570138883
40
0.0593013150
40
0.0617487852
40
0.0643565152
40
0.0700534063
40
0.0763931446
40
0.0910040364
40
0.0992763771
40
0.1081937834
40
0.1177565417
40
0.1279648843
40
0.1388190020
40
0.1444882794
40
0.1503190577
40
0.1563113529
40
0.1624651797
40
0.1687805517
40
0.1719988213
40
0.1752574818
40
0.1769019592
40
0.1785565347
40
0.1793876094
40
0.1802212087
40
0.1806389552
40
0.1808480650
40
0.1810573327
40
0.1815407927
40
0.1820422391
40
0.1830434465
40
0.1840424067
40
0.1860335857
40
0.1880157769
40
0.1899889811
40
0.1939084317
40
0.1977919441
40
0.2016395251
40
0.2054511817
40
0.2129667483
40
0.2203387053
40
0.2275671158
40
0.2346520465
40
0.2483917385
40
0.2615584229
40
0.2861754927
40
0.3085104194
40
0.3285725881
40
0.3377555162
40
0.3463755529
40
0.3504753047
40
0.3544568736
40
0.3622820767
40
0.3699397456
40
0.3774323265
40
0.3919321267
40
0.4190708542
40
0.4317732671
40
0.4439397271
40
0.4556520366
40
0.4671542368
40
0.4785073253
40
0.4841393977
40
0.4897474068
40
0.4953358891
40
0.5009094286
40
0.5064726465
40
0.5092519092
40
0.5120303354
40
0.5148085082
40
0.5175870107
40
0.5203664258
40
0.5217566666
40
0.5231473539
40
0.5245385602
40
0.5259303582
40
0.5266265029
40
0.5273228226
40
0.5280193264
40
0.5283676503
40
0.5287160237
40
0.5290644476
40
0.5291515616
40
0.5292386788
40
0.5293257993
40
0.5294020683
40
0.5294876687
40
0.5296588241
40
0.5298299187
40
0.5301719264
40
0.5305136925
40
0.5308552179
40
0.5315375499
40
0.5322189293
40
0.5335788558
40
0.5362875648
40
0.5389818027
40
0.5416620194
40
0.5443286717
40
0.5496230271
40
0.5548687774
40
0.5600698223
40
0.5652301631
40
0.5703538960
40
0.5805072825
40
0.5905654157
40
0.6005636771
40
0.6105380856
40
0.6205249178
40
0.6406710901
40
0.6509096064
40
0.6613006036
40
0.6718761806
40
0.6772390509
40
0.6826014069
40
0.6932929135
40
0.7039748679
40
0.7254590235
40
0.7473757536
40
0.7700191219
40
0.7817017444
40
0.7936634323
40
0.8059325235
40
0.8185352823
40
0.8249697935
40
0.8314966407
40
0.8347955878
40
0.8381186311
40
0.8414267292
40
0.8447054966
40
0.8511937953
40
0.8575918285
40
0.8701262902
40
0.8942201729
40
0.9171795020
40
0.9392199335
40
0.9605849670
40
0.9815416581
40
0.9919594198
40
1.0000000000
40
1.0000000000
40
1.0000000000
40
1.0000000000
10
14.1972013482
20
-2.9205611555
30
0.0000000000
10
14.2030681329
20
-2.9110097192
30
0.0000000000
10
14.2124658605
20
-2.8968356178
30
0.0000000000
10
14.2259938869
20
-2.8783602117
30
0.0000000000
10
14.2368909854
20
-2.8643796798
30
0.0000000000
10
14.2464566607
20
-2.8528103543
30
0.0000000000
10
14.2544263981
20
-2.8435649988
30
0.0000000000
10
14.2605980187
20
-2.8365977339
30
0.0000000000
10
14.2658608027
20
-2.8308120085
30
0.0000000000
10
14.2701510663
20
-2.8261858032
30
0.0000000000
10
14.2734299652
20
-2.8226952082
30
0.0000000000
10
14.2768303467
20
-2.8191203667
30
0.0000000000
10
14.2804542666
20
-2.8154046250
30
0.0000000000
10
14.2843616971
20
-2.8114751023
30
0.0000000000
10
14.2901341636
20
-2.8057717970
30
0.0000000000
10
14.2980878722
20
-2.7980973089
30
0.0000000000
10
14.3127308407
20
-2.7843114330
30
0.0000000000
10
14.3290214362
20
-2.7694425298
30
0.0000000000
10
14.3469069917
20
-2.7534390251
30
0.0000000000
10
14.3620352294
20
-2.7400678643
30
0.0000000000
10
14.3783328182
20
-2.7258139954
30
0.0000000000
10
14.3958001430
20
-2.7106777321
30
0.0000000000
10
14.4110999420
20
-2.6975273963
30
0.0000000000
10
14.4239233509
20
-2.6865645393
30
0.0000000000
10
14.4339723522
20
-2.6780030624
30
0.0000000000
10
14.4443138376
20
-2.6692210295
30
0.0000000000
10
14.4549478119
20
-2.6602184449
30
0.0000000000
10
14.4639949655
20
-2.6525816505
30
0.0000000000
10
14.4713788078
20
-2.6463618023
30
0.0000000000
10
14.4760692065
20
-2.6424161666
30
0.0000000000
10
14.4798580753
20
-2.6392320767
30
0.0000000000
10
14.4822449916
20
-2.6372274608
30
0.0000000000
10
14.4841636780
20
-2.6356168915
30
0.0000000000
10
14.4853675439
20
-2.6346066083
30
0.0000000000
10
14.4862119977
20
-2.6338982505
30
0.0000000000
10
14.4866953728
20
-2.6334926117
30
0.0000000000
10
14.4872171852
20
-2.6330556239
30
0.0000000000
10
14.4879045804
20
-2.6324727471
30
0.0000000000
10
14.4890484455
20
-2.6315040592
30
0.0000000000
10
14.4904886545
20
-2.6302832935
30
0.0000000000
10
14.4927860639
20
-2.6283350160
30
0.0000000000
10
14.4956469406
20
-2.6259064977
30
0.0000000000
10
14.4990665510
20
-2.6230000258
30
0.0000000000
10
14.5035925721
20
-2.6191482004
30
0.0000000000
10
14.5092067822
20
-2.6143609972
30
0.0000000000
10
14.5158899471
20
-2.6086472184
30
0.0000000000
10
14.5225037457
20
-2.6029775067
30
0.0000000000
10
14.5311885429
20
-2.5955119854
30
0.0000000000
10
14.5418714364
20
-2.5862905424
30
0.0000000000
10
14.5544750043
20
-2.5753479538
30
0.0000000000
10
14.5668011251
20
-2.5645816425
30
0.0000000000
10
14.5827034133
20
-2.5506044690
30
0.0000000000
10
14.6018907593
20
-2.5335764183
30
0.0000000000
10
14.6307925600
20
-2.5075621094
30
0.0000000000
10
14.6641767012
20
-2.4768324678
30
0.0000000000
10
14.7007589184
20
-2.4419043723
30
0.0000000000
10
14.7283114497
20
-2.4143981723
30
0.0000000000
10
14.7480939379
20
-2.3937740962
30
0.0000000000
10
14.7593449454
20
-2.3816626010
30
0.0000000000
10
14.7677946879
20
-2.3723094043
30
0.0000000000
10
14.7757547486
20
-2.3633230757
30
0.0000000000
10
14.7853603052
20
-2.3522078204
30
0.0000000000
10
14.7964662901
20
-2.3388904682
30
0.0000000000
10
14.8104832684
20
-2.3214456021
30
0.0000000000
10
14.8328838853
20
-2.2918908130
30
0.0000000000
10
14.8556644739
20
-2.2577058778
30
0.0000000000
10
14.8748971474
20
-2.2234731912
30
0.0000000000
10
14.8871082910
20
-2.1986945686
30
0.0000000000
10
14.8974590983
20
-2.1740647475
30
0.0000000000
10
14.9062906833
20
-2.1495043196
30
0.0000000000
10
14.9124438130
20
-2.1288912078
30
0.0000000000
10
14.9166280295
20
-2.1123594844
30
0.0000000000
10
14.9193945513
20
-2.0999620243
30
0.0000000000
10
14.9217975466
20
-2.0875340655
30
0.0000000000
10
14.9238370119
20
-2.0750755683
30
0.0000000000
10
14.9252340413
20
-2.0646648032
30
0.0000000000
10
14.9261694351
20
-2.0563238487
30
0.0000000000
10
14.9267799658
20
-2.0500621989
30
0.0000000000
10
14.9272996633
20
-2.0437929440
30
0.0000000000
10
14.9277285306
20
-2.0375160766
30
0.0000000000
10
14.9280101931
20
-2.0322796393
30
0.0000000000
10
14.9281901110
20
-2.0280870513
30
0.0000000000
10
14.9283023633
20
-2.0249402947
30
0.0000000000
10
14.9283919114
20
-2.0217916370
30
0.0000000000
10
14.9284476083
20
-2.0191664730
30
0.0000000000
10
14.9284808171
20
-2.0170654360
30
0.0000000000
10
14.9285000509
20
-2.0154889958
30
0.0000000000
10
14.9285113484
20
-2.0141749892
30
0.0000000000
10
14.9285175492
20
-2.0131235517
30
0.0000000000
10
14.9285207810
20
-2.0123348001
30
0.0000000000
10
14.9285221408
20
-2.0117431799
30
0.0000000000
10
14.9285226038
20
-2.0113487299
30
0.0000000000
10
14.9285227468
20
-2.0111514865
30
0.0000000000
10
14.9285227982
20
-2.0109624279
30
0.0000000000
10
14.9285227726
20
-2.0107745141
30
0.0000000000
10
14.9285226476
20
-2.0105231788
30
0.0000000000
10
14.9285222971
20
-2.0102002782
30
0.0000000000
10
14.9285213330
20
-2.0096838667
30
0.0000000000
10
14.9285193714
20
-2.0090386963
30
0.0000000000
10
14.9285158060
20
-2.0082649061
30
0.0000000000
10
14.9285094396
20
-2.0072342831
30
0.0000000000
10
14.9284984573
20
-2.0059473774
30
0.0000000000
10
14.9284744371
20
-2.0038919724
30
0.0000000000
10
14.9284155622
20
-2.0003075766
30
0.0000000000
10
14.9282831447
20
-1.9952051715
30
0.0000000000
10
14.9280465092
20
-1.9891091980
30
0.0000000000
10
14.9277323546
20
-1.9830484913
30
0.0000000000
10
14.9272114036
20
-1.9750342369
30
0.0000000000
10
14.9263676048
20
-1.9651015193
30
0.0000000000
10
14.9250423284
20
-1.9532942975
30
0.0000000000
10
14.9234067958
20
-1.9416281111
30
0.0000000000
10
14.9214609466
20
-1.9301028991
30
0.0000000000
10
14.9184621897
20
-1.9149712520
30
0.0000000000
10
14.9139386012
20
-1.8963813457
30
0.0000000000
10
14.9072490914
20
-1.8745715528
30
0.0000000000
10
14.8993147895
20
-1.8533269122
30
0.0000000000
10
14.8901348905
20
-1.8326478230
30
0.0000000000
10
14.8762007736
20
-1.8057603908
30
0.0000000000
10
14.8597467174
20
-1.7800155187
30
0.0000000000
10
14.8409794368
20
-1.7556117706
30
0.0000000000
10
14.8255848592
20
-1.7377720775
30
0.0000000000
10
14.8117886789
20
-1.7234574481
30
0.0000000000
10
14.8001940877
20
-1.7123194544
30
0.0000000000
10
14.7882076994
20
-1.7014729580
30
0.0000000000
10
14.7726333247
20
-1.6886219583
30
0.0000000000
10
14.7464624001
20
-1.6695870909
30
0.0000000000
10
14.7112944968
20
-1.6486540071
30
0.0000000000
10
14.6656326425
20
-1.6284010202
30
0.0000000000
10
14.6250515273
20
-1.6156498475
30
0.0000000000
10
14.5910022999
20
-1.6077890464
30
0.0000000000
10
14.5643105825
20
-1.6030135176
30
0.0000000000
10
14.5367356819
20
-1.5994209568
30
0.0000000000
10
14.5131847383
20
-1.5974260288
30
0.0000000000
10
14.4939171526
20
-1.5964087369
30
0.0000000000
10
14.4816507289
20
-1.5960158519
30
0.0000000000
10
14.4717285455
20
-1.5958474001
30
0.0000000000
10
14.4642343176
20
-1.5957948042
30
0.0000000000
10
14.4567551775
20
-1.5958141452
30
0.0000000000
10
14.4468878553
20
-1.5959295979
30
0.0000000000
10
14.4346912125
20
-1.5962431627
30
0.0000000000
10
14.4155242017
20
-1.5971048302
30
0.0000000000
10
14.3831348002
20
-1.5995184257
30
0.0000000000
10
14.3385187909
20
-1.6056312815
30
0.0000000000
10
14.2876533280
20
-1.6174729431
30
0.0000000000
10
14.2401835874
20
-1.6337400613
30
0.0000000000
10
14.1961321342
20
-1.6544431145
30
0.0000000000
10
14.1622073017
20
-1.6754495420
30
0.0000000000
10
14.1383922456
20
-1.6932975726
30
0.0000000000
10
14.1276872867
20
-1.7022210160
30
0.0000000000
10
14.1231170055
20
-1.7062145269
30
0.0000000000
11
14.1972013482
21
-2.9205611555
31
0.0000000000
11
14.2157471006
21
-2.8925094719
31
0.0000000000
11
14.2259889802
21
-2.8785124279
31
0.0000000000
11
14.2368767749
21
-2.8645347243
31
0.0000000000
11
14.2484104848
21
-2.8505763609
31
0.0000000000
11
14.2544195579
21
-2.8436044319
31
0.0000000000
11
14.2605901098
21
-2.8366373379
31
0.0000000000
11
14.2669221404
21
-2.8296750790
31
0.0000000000
11
14.2701487103
21
-2.8261957627
31
0.0000000000
11
14.2734156499
21
-2.8227176552
31
0.0000000000
11
14.2767618680
21
-2.8192065356
31
0.0000000000
11
14.2803756833
21
-2.8154967747
31
0.0000000000
11
14.2842819974
21
-2.8115664714
31
0.0000000000
11
14.2884808103
21
-2.8074156254
31
0.0000000000
11
14.2977559326
21
-2.7984523059
31
0.0000000000
11
14.3082010503
21
-2.7886068162
31
0.0000000000
11
14.3326012715
21
-2.7662693262
31
0.0000000000
11
14.3465563751
21
-2.7537773258
31
0.0000000000
11
14.3616814740
21
-2.7404031553
31
0.0000000000
11
14.3779765682
21
-2.7261468146
31
0.0000000000
11
14.3954416577
21
-2.7110083036
31
0.0000000000
11
14.4140767425
21
-2.6949876225
31
0.0000000000
11
14.4238330332
21
-2.6866464681
31
0.0000000000
11
14.4338818226
21
-2.6780847711
31
0.0000000000
11
14.4442231109
21
-2.6693025316
31
0.0000000000
11
14.4548568981
21
-2.6602997496
31
0.0000000000
11
14.4657831840
21
-2.6510764249
31
0.0000000000
11
14.4713560141
21
-2.6463820592
31
0.0000000000
11
14.4770019688
21
-2.6416325578
31
0.0000000000
11
14.4798523680
21
-2.6392371312
31
0.0000000000
11
14.4827210483
21
-2.6368279207
31
0.0000000000
11
14.4841622439
21
-2.6356181465
31
0.0000000000
11
14.4856080098
21
-2.6344049264
31
0.0000000000
11
14.4863326066
21
-2.6337970240
31
0.0000000000
11
14.4866953334
21
-2.6334927498
31
0.0000000000
11
14.4870583460
21
-2.6331882602
31
0.0000000000
11
14.4878942999
21
-2.6324816141
31
0.0000000000
11
14.4887605808
21
-2.6317477641
31
0.0000000000
11
14.4904898910
21
-2.6302821296
31
0.0000000000
11
14.4922148657
21
-2.6288192494
31
0.0000000000
11
14.4956518086
21
-2.6259017512
31
0.0000000000
11
14.4990714096
21
-2.6229952695
31
0.0000000000
11
14.5024736687
21
-2.6200998044
31
0.0000000000
11
14.5092261611
21
-2.6143419239
31
0.0000000000
11
14.5159092857
21
-2.6086281096
31
0.0000000000
11
14.5225230426
21
-2.6029583615
31
0.0000000000
11
14.5290674317
21
-2.5973326796
31
0.0000000000
11
14.5419481069
21
-2.5862135143
31
0.0000000000
11
14.5545513111
21
-2.5752706138
31
0.0000000000
11
14.5668770443
21
-2.5645039782
31
0.0000000000
11
14.5789253067
21
-2.5539136073
31
0.0000000000
11
14.6021894186
21
-2.5332616599
31
0.0000000000
11
14.6243436469
21
-2.5133147717
31
0.0000000000
11
14.6653224523
21
-2.4755361728
31
0.0000000000
11
14.7018617229
21
-2.4405778106
31
0.0000000000
11
14.7339614587
21
-2.4084396851
31
0.0000000000
11
14.7483465011
21
-2.3934282111
31
0.0000000000
11
14.7616216598
21
-2.3791217963
31
0.0000000000
11
14.7678430327
21
-2.3722329860
31
0.0000000000
11
14.7738219773
21
-2.3654863202
31
0.0000000000
11
14.7854030065
21
-2.3520782179
31
0.0000000000
11
14.7965049177
21
-2.3387610077
31
0.0000000000
11
14.8071277107
21
-2.3255346897
31
0.0000000000
11
14.8269359425
21
-2.2993547302
31
0.0000000000
11
14.8608029886
21
-2.2480855171
31
0.0000000000
11
14.8748618029
21
-2.2229962635
31
0.0000000000
11
14.8870041448
21
-2.1982705786
31
0.0000000000
11
14.8973015401
21
-2.1738335547
31
0.0000000000
11
14.9061001735
21
-2.1493226388
31
0.0000000000
11
14.9134458216
21
-2.1246898899
31
0.0000000000
11
14.9165737761
21
-2.1123278281
31
0.0000000000
11
14.9193384843
21
-2.0999353081
31
0.0000000000
11
14.9217399462
21
-2.0875123299
31
0.0000000000
11
14.9237781617
21
-2.0750588934
31
0.0000000000
11
14.9254531309
21
-2.0625749987
31
0.0000000000
11
14.9261543981
21
-2.0563216295
31
0.0000000000
11
14.9267648538
21
-2.0500606457
31
0.0000000000
11
14.9272844978
21
-2.0437920474
31
0.0000000000
11
14.9277133303
21
-2.0375158346
31
0.0000000000
11
14.9280513512
21
-2.0312320071
31
0.0000000000
11
14.9281863073
21
-2.0280872380
31
0.0000000000
11
14.9282985605
21
-2.0249405651
31
0.0000000000
11
14.9283881108
21
-2.0217919887
31
0.0000000000
11
14.9284549582
21
-2.0186415086
31
0.0000000000
11
14.9284798684
21
-2.0170655547
31
0.0000000000
11
14.9284991028
21
-2.0154891249
31
0.0000000000
11
14.9285126614
21
-2.0139122192
31
0.0000000000
11
14.9285173124
21
-2.0131235878
31
0.0000000000
11
14.9285205444
21
-2.0123348375
31
0.0000000000
11
14.9285223575
21
-2.0115459682
31
0.0000000000
11
14.9285225890
21
-2.0113487323
31
0.0000000000
11
14.9285227319
21
-2.0111514890
31
0.0000000000
11
14.9285227861
21
-2.0109542382
31
0.0000000000
11
14.9285227638
21
-2.0107815567
31
0.0000000000
11
14.9285226670
21
-2.0105877475
31
0.0000000000
11
14.9285222465
21
-2.0102002325
31
0.0000000000
11
14.9285215233
21
-2.0098128554
31
0.0000000000
11
14.9285191685
21
-2.0090385148
31
0.0000000000
11
14.9285156027
21
-2.0082647256
31
0.0000000000
11
14.9285108258
21
-2.0074914879
31
0.0000000000
11
14.9284976390
21
-2.0059466668
31
0.0000000000
11
14.9284796081
21
-2.0044040516
31
0.0000000000
11
14.9284290138
21
-2.0013254387
31
0.0000000000
11
14.9282696956
21
-1.9951946827
31
0.0000000000
11
14.9280328713
21
-1.9890992200
31
0.0000000000
11
14.9277185409
21
-1.9830390505
31
0.0000000000
11
14.9273267043
21
-1.9770141743
31
0.0000000000
11
14.9263105128
21
-1.9650703017
31
0.0000000000
11
14.9249842967
21
-1.9532676022
31
0.0000000000
11
14.9233480561
21
-1.9416060757
31
0.0000000000
11
14.9214017910
21
-1.9300857223
31
0.0000000000
11
14.9191455013
21
-1.9187065419
31
0.0000000000
11
14.9137028484
21
-1.8963717002
31
0.0000000000
11
14.9070200973
21
-1.8746015508
31
0.0000000000
11
14.8990972481
21
-1.8533960935
31
0.0000000000
11
14.8899343007
21
-1.8327553284
31
0.0000000000
11
14.8795312552
21
-1.8126792556
31
0.0000000000
11
14.8550048697
21
-1.7742211864
31
0.0000000000
11
14.8408815298
21
-1.7558391901
31
0.0000000000
11
14.8255180917
21
-1.7380218860
31
0.0000000000
11
14.8089145555
21
-1.7207692741
31
0.0000000000
11
14.8001526524
21
-1.7123632735
31
0.0000000000
11
14.7911493505
21
-1.7042180865
31
0.0000000000
11
14.7724773722
21
-1.6888127027
31
0.0000000000
11
14.7529182280
21
-1.6745873058
31
0.0000000000
11
14.7111384415
21
-1.6496764725
31
0.0000000000
11
14.6658099912
21
-1.6294855865
31
0.0000000000
11
14.6169328769
21
-1.6140146479
31
0.0000000000
11
14.5911635709
21
-1.6080491589
31
0.0000000000
11
14.5645070988
21
-1.6032636567
31
0.0000000000
11
14.5369634608
21
-1.5996581414
31
0.0000000000
11
14.5085326568
21
-1.5972326129
31
0.0000000000
11
14.4939845676
21
-1.5964623437
31
0.0000000000
11
14.4792146868
21
-1.5959870712
31
0.0000000000
11
14.4717465747
21
-1.5958600587
31
0.0000000000
11
14.4642230146
21
-1.5958067954
31
0.0000000000
11
14.4567331275
21
-1.5958256301
31
0.0000000000
11
14.4493101374
21
-1.5959128895
31
0.0000000000
11
14.4346247898
21
-1.5962922785
31
0.0000000000
11
14.4201536190
21
-1.5969448275
31
0.0000000000
11
14.3918538079
21
-1.5990694056
31
0.0000000000
11
14.3378243075
21
-1.6065964823
31
0.0000000000
11
14.2872216362
21
-1.6184941198
31
0.0000000000
11
14.2400457939
21
-1.6347623179
31
0.0000000000
11
14.1962967807
21
-1.6554010767
31
0.0000000000
11
14.1559745966
21
-1.6804103963
31
0.0000000000
11
14.1370985655
21
-1.6945540163
31
0.0000000000
11
14.1231170055
21
-1.7062145269
31
0.0000000000
0
SPLINE
5
310
100
AcDbEntity
8
0
100
AcDbSpline
62
0
6
CONTINUOUS
70
0
71
3
72
98
73
94
74
92
42
0.0000001000
43
0.0000001000
44
0.0000000001
12
0.9674517765
22
0.2541652045
32
0.0000000000
13
-0.9695597133
23
-0.2473704141
33
0.0000000000
40
0.0000000000
40
0.0000000000
40
0.0000000000
40
0.0000000000
40
0.0171785587
40
0.0336485429
40
0.0494172331
40
0.0644924835
40
0.0788832840
40
0.0858253654
40
0.0926003422
40
0.0992097597
40
0.1056552822
40
0.1119387046
40
0.1150202598
40
0.1180620294
40
0.1210642803
40
0.1240272899
40
0.1254941735
40
0.1269513559
40
0.1276763216
40
0.1283988763
40
0.1291190249
40
0.1298367722
40
0.1301947470
40
0.1305521233
40
0.1309089019
40
0.1310870672
40
0.1312650832
40
0.1314429502
40
0.1318417425
40
0.1322771268
40
0.1327122499
40
0.1335817144
40
0.1344501403
40
0.1361838923
40
0.1379135414
40
0.1413606599
40
0.1447917834
40
0.1482071948
40
0.1516071809
40
0.1549920323
40
0.1617174386
40
0.1683858907
40
0.1815612182
40
0.1945390837
40
0.2073408943
40
0.2199889507
40
0.2325063757
40
0.2572391767
40
0.2817427903
40
0.3062203849
40
0.3308757716
40
0.3559084195
40
0.3685998091
40
0.3811894401
40
0.3936486252
40
0.4060014663
40
0.4304811685
40
0.4548376992
40
0.4792771713
40
0.5040036238
40
0.5292141286
40
0.5420623008
40
0.5551000823
40
0.5683485114
40
0.5818276396
40
0.5886599917
40
0.5921003352
40
0.5938384864
40
0.5956470504
40
0.5992523407
40
0.6028421172
40
0.6099763010
40
0.6170522224
40
0.6240724877
40
0.6379560972
40
0.6651709483
40
0.6918143526
40
0.7180859838
40
0.7441940466
40
0.7703506522
40
0.7967667424
40
0.8101395567
40
0.8236532359
40
0.8373317203
40
0.8442150835
40
0.8510531941
40
0.8645923154
40
0.8779693935
40
0.9043298343
40
0.9303452929
40
0.9562287103
40
0.9821962759
40
1.0000000000
40
1.0000000000
40
1.0000000000
40
1.0000000000
10
13.1710033052
20
-2.3864865752
30
0.0000000000
10
13.1765431142
20
-2.3850311779
30
0.0000000000
10
13.1874196833
20
-2.3822759869
30
0.0000000000
10
13.2034693403
20
-2.3785426851
30
0.0000000000
10
13.2189087861
20
-2.3752962171
30
0.0000000000
10
13.2337381085
20
-2.3725365675
30
0.0000000000
10
13.2457269757
20
-2.3706201407
30
0.0000000000
10
13.2550110595
20
-2.3693379415
30
0.0000000000
10
13.2617379234
20
-2.3685096842
30
0.0000000000
10
13.2683121857
20
-2.3678032344
30
0.0000000000
10
13.2747338524
20
-2.3672186037
30
0.0000000000
10
13.2799914925
20
-2.3668304541
30
0.0000000000
10
13.2841208177
20
-2.3665819675
30
0.0000000000
10
13.2871596438
20
-2.3664272718
30
0.0000000000
10
13.2901603059
20
-2.3663030386
30
0.0000000000
10
13.2926371883
20
-2.3662246393
30
0.0000000000
10
13.2945995348
20
-2.3661773002
30
0.0000000000
10
13.2958160062
20
-2.3661541197
30
0.0000000000
10
13.2967844020
20
-2.3661394023
30
0.0000000000
10
13.2975071050
20
-2.3661302866
30
0.0000000000
10
13.2982274225
20
-2.3661230751
30
0.0000000000
10
13.2988261989
20
-2.3661186486
30
0.0000000000
10
13.2993040259
20
-2.3661160617
30
0.0000000000
10
13.2996615002
20
-2.3661145993
30
0.0000000000
10
13.2999590229
20
-2.3661137767
30
0.0000000000
10
13.3001967427
20
-2.3661133575
30
0.0000000000
10
13.3003748088
20
-2.3661131608
30
0.0000000000
10
13.3006264381
20
-2.3661130589
30
0.0000000000
10
13.3009638809
20
-2.3661132225
30
0.0000000000
10
13.3013870995
20
-2.3661138489
30
0.0000000000
10
13.3019672514
20
-2.3661153564
30
0.0000000000
10
13.3026917873
20
-2.3661184346
30
0.0000000000
10
13.3038493036
20
-2.3661259146
30
0.0000000000
10
13.3052935886
20
-2.3661400481
30
0.0000000000
10
13.3075975157
20
-2.3661728613
30
0.0000000000
10
13.3104670326
20
-2.3662329824
30
0.0000000000
10
13.3138977193
20
-2.3663358873
30
0.0000000000
10
13.3173116223
20
-2.3664694668
30
0.0000000000
10
13.3207087450
20
-2.3666337215
30
0.0000000000
10
13.3252060055
20
-2.3668930584
30
0.0000000000
10
13.3307865193
20
-2.3672934653
30
0.0000000000
10
13.3396094153
20
-2.3680958791
30
0.0000000000
10
13.3504778265
20
-2.3694027394
30
0.0000000000
10
13.3633046500
20
-2.3714689063
30
0.0000000000
10
13.3758633614
20
-2.3740267000
30
0.0000000000
10
13.3881540568
20
-2.3770763828
30
0.0000000000
10
13.4041175946
20
-2.3817785155
30
0.0000000000
10
13.4234707103
20
-2.3888956590
30
0.0000000000
10
13.4457044872
20
-2.3994502260
30
0.0000000000
10
13.4668564485
20
-2.4119850691
30
0.0000000000
10
13.4869210883
20
-2.4264956654
30
0.0000000000
10
13.5026433984
20
-2.4401557626
30
0.0000000000
10
13.5145844426
20
-2.4519445596
30
0.0000000000
10
13.5231609797
20
-2.4611581926
30
0.0000000000
10
13.5312539897
20
-2.4706517338
30
0.0000000000
10
13.5413535183
20
-2.4836232540
30
0.0000000000
10
13.5527894101
20
-2.5005561916
30
0.0000000000
10
13.5645585083
20
-2.5220056319
30
0.0000000000
10
13.5743339014
20
-2.5445245667
30
0.0000000000
10
13.5821138149
20
-2.5681059771
30
0.0000000000
10
13.5869053440
20
-2.5885132011
30
0.0000000000
10
13.5897553123
20
-2.6053139237
30
0.0000000000
10
13.5914117452
20
-2.6182606024
30
0.0000000000
10
13.5925731533
20
-2.6314717145
30
0.0000000000
10
13.5931261515
20
-2.6426506844
30
0.0000000000
10
13.5932993076
20
-2.6505686649
30
0.0000000000
10
13.5933326153
20
-2.6545733250
30
0.0000000000
10
13.5933362591
20
-2.6569030041
30
0.0000000000
10
13.5933292322
20
-2.6592876733
30
0.0000000000
10
13.5932997124
20
-2.6622896318
30
0.0000000000
10
13.5932083805
20
-2.6670665741
30
0.0000000000
10
13.5930117848
20
-2.6729986640
30
0.0000000000
10
13.5926426468
20
-2.6800682438
30
0.0000000000
10
13.5919759778
20
-2.6893741921
30
0.0000000000
10
13.5903599519
20
-2.7053402617
30
0.0000000000
10
13.5867298175
20
-2.7276619252
30
0.0000000000
10
13.5802050213
20
-2.7536044838
30
0.0000000000
10
13.5715387532
20
-2.7785241926
30
0.0000000000
10
13.5607308134
20
-2.8024152906
30
0.0000000000
10
13.5477837747
20
-2.8252722904
30
0.0000000000
10
13.5352626422
20
-2.8433846195
30
0.0000000000
10
13.5242262648
20
-2.8573207870
30
0.0000000000
10
13.5153830786
20
-2.8675603505
30
0.0000000000
10
13.5076028508
20
-2.8758448769
30
0.0000000000
10
13.5011500474
20
-2.8823129277
30
0.0000000000
10
13.4946009818
20
-2.8886166209
30
0.0000000000
10
13.4862525601
20
-2.8961700617
30
0.0000000000
10
13.4725844465
20
-2.9075228847
30
0.0000000000
10
13.4548239384
20
-2.9204292996
30
0.0000000000
10
13.4323936283
20
-2.9338309344
30
0.0000000000
10
13.4089492432
20
-2.9450705875
30
0.0000000000
10
13.3871451040
20
-2.9531619692
30
0.0000000000
10
13.3731068248
20
-2.9571932539
30
0.0000000000
10
13.3673529002
20
-2.9586612921
30
0.0000000000
11
13.1710033052
21
-2.3864865752
31
0.0000000000
11
13.1876622128
21
-2.3822735257
31
0.0000000000
11
13.2037100695
21
-2.3785480237
31
0.0000000000
11
13.2191472508
21
-2.3753099705
31
0.0000000000
11
13.2339737567
21
-2.3725593663
31
0.0000000000
11
13.2481895872
21
-2.3702962108
31
0.0000000000
11
13.2550684992
21
-2.3693474264
31
0.0000000000
11
13.2617947424
21
-2.3685205043
31
0.0000000000
11
13.2683683167
21
-2.3678154443
31
0.0000000000
11
13.2747892222
21
-2.3672322466
31
0.0000000000
11
13.2810574588
21
-2.3667709110
31
0.0000000000
11
13.2841343263
21
-2.3665859416
31
0.0000000000
11
13.2871730266
21
-2.3664314377
31
0.0000000000
11
13.2901735596
21
-2.3663073994
31
0.0000000000
11
13.2931359255
21
-2.3662138266
31
0.0000000000
11
13.2946027957
21
-2.3661784648
31
0.0000000000
11
13.2960601241
21
-2.3661507194
31
0.0000000000
11
13.2967852102
21
-2.3661397028
31
0.0000000000
11
13.2975079107
21
-2.3661305904
31
0.0000000000
11
13.2982282259
21
-2.3661233820
31
0.0000000000
11
13.2989461556
21
-2.3661180777
31
0.0000000000
11
13.2993042259
21
-2.3661161396
31
0.0000000000
11
13.2996616998
21
-2.3661146776
31
0.0000000000
11
13.3000185774
21
-2.3661136915
31
0.0000000000
11
13.3001967925
21
-2.3661133770
31
0.0000000000
11
13.3003748586
21
-2.3661131815
31
0.0000000000
11
13.3005527755
21
-2.3661131050
31
0.0000000000
11
13.3009516800
21
-2.3661132798
31
0.0000000000
11
13.3013871864
21
-2.3661139303
31
0.0000000000
11
13.3018224305
21
-2.3661150599
31
0.0000000000
11
13.3026921318
21
-2.3661187571
31
0.0000000000
11
13.3035607839
21
-2.3661243713
31
0.0000000000
11
13.3052949407
21
-2.3661413508
31
0.0000000000
11
13.3070249009
21
-2.3661659985
31
0.0000000000
11
13.3104722314
21
-2.3662382984
31
0.0000000000
11
13.3139027754
21
-2.3663412710
31
0.0000000000
11
13.3173165329
21
-2.3664749163
31
0.0000000000
11
13.3207135039
21
-2.3666392342
31
0.0000000000
11
13.3240936883
21
-2.3668342249
31
0.0000000000
11
13.3308036977
21
-2.3673162243
31
0.0000000000
11
13.3374465611
21
-2.3679209144
31
0.0000000000
11
13.3505308499
21
-2.3694983668
31
0.0000000000
11
13.3633465545
21
-2.3715665823
31
0.0000000000
11
13.3758936750
21
-2.3741255607
31
0.0000000000
11
13.3881722114
21
-2.3771753021
31
0.0000000000
11
13.4001821637
21
-2.3807158066
31
0.0000000000
11
13.4233963160
21
-2.3892691043
31
0.0000000000
11
13.4455361319
21
-2.3997854541
31
0.0000000000
11
13.4666016115
21
-2.4122648558
31
0.0000000000
11
13.4865927546
21
-2.4267073094
31
0.0000000000
11
13.5055095613
21
-2.4431128150
31
0.0000000000
11
13.5145443710
21
-2.4520310126
31
0.0000000000
11
13.5231218368
21
-2.4612513764
31
0.0000000000
11
13.5312051277
21
-2.4707371068
31
0.0000000000
11
13.5387942436
21
-2.4804882039
31
0.0000000000
11
13.5524899504
21
-2.5007864982
31
0.0000000000
11
13.5642089572
21
-2.5221462594
31
0.0000000000
11
13.5739512641
21
-2.5445674874
31
0.0000000000
11
13.5817168711
21
-2.5680501822
31
0.0000000000
11
13.5875057781
21
-2.5925943437
31
0.0000000000
11
13.5896589691
21
-2.6052644746
31
0.0000000000
11
13.5913179851
21
-2.6181999721
31
0.0000000000
11
13.5924828261
21
-2.6314008364
31
0.0000000000
11
13.5931534922
21
-2.6448670673
31
0.0000000000
11
13.5933035096
21
-2.6516996953
31
0.0000000000
11
13.5933321894
21
-2.6551408875
31
0.0000000000
11
13.5933349413
21
-2.6568795256
31
0.0000000000
11
13.5933296102
21
-2.6586885907
31
0.0000000000
11
13.5932940700
21
-2.6622947204
31
0.0000000000
11
13.5932253590
21
-2.6658848497
31
0.0000000000
11
13.5929884243
21
-2.6730171067
31
0.0000000000
11
13.5926188063
21
-2.6800853617
31
0.0000000000
11
13.5921165049
21
-2.6870896147
31
0.0000000000
11
13.5907138518
21
-2.7009061149
31
0.0000000000
11
13.5863163449
21
-2.7277710913
31
0.0000000000
11
13.5797959036
21
-2.7536120360
31
0.0000000000
11
13.5711525279
21
-2.7784289490
31
0.0000000000
11
13.5603862178
21
-2.8022218302
31
0.0000000000
11
13.5474969733
21
-2.8249906797
31
0.0000000000
11
13.5324847945
21
-2.8467354975
31
0.0000000000
11
13.5241826047
21
-2.8572238945
31
0.0000000000
11
13.5153496813
21
-2.8674562835
31
0.0000000000
11
13.5059860243
21
-2.8774326646
31
0.0000000000
11
13.5011230397
21
-2.8823069584
31
0.0000000000
11
13.4961945588
21
-2.8870499694
31
0.0000000000
11
13.4861496857
21
-2.8961335541
31
0.0000000000
11
13.4758542639
21
-2.9046805558
31
0.0000000000
11
13.4545117745
21
-2.9201648099
31
0.0000000000
11
13.4321670906
21
-2.9335027318
31
0.0000000000
11
13.4088202123
21
-2.9446943214
31
0.0000000000
11
13.3844711394
21
-2.9537395787
31
0.0000000000
11
13.3673529002
21
-2.9586612921
31
0.0000000000
0
SPLINE
5
311
100
AcDbEntity
8
0
100
AcDbSpline
62
0
6
CONTINUOUS
70
0
71
3
72
100
73
96
74
94
42
0.0000001000
43
0.0000001000
44
0.0000000001
12
0.1502316152
22
-1.5284622735
32
0.0000000000
13
-0.1999571077
23
1.5228089451
33
0.0000000000
40
0.0000000000
40
0.0000000000
40
0.0000000000
40
0.0000000000
40
0.0445614745
40
0.0871563956
40
0.1285725876
40
0.1696657813
40
0.1903790590
40
0.2008228992
40
0.2113412837
40
0.2219470251
40
0.2326110276
40
0.2537469640
40
0.2746956610
40
0.2955701201
40
0.3164845460
40
0.3375524933
40
0.3588850655
40
0.3805893024
40
0.3916143190
40
0.4027698430
40
0.4140675809
40
0.4255188030
40
0.4371343328
40
0.4430071285
40
0.4459603160
40
0.4489248895
40
0.4519010014
40
0.4548888022
40
0.4556375977
40
0.4563871353
40
0.4567621832
40
0.4571645647
40
0.4579959761
40
0.4596562833
40
0.4613132562
40
0.4646172835
40
0.4679082456
40
0.4744516660
40
0.4809450626
40
0.4873899698
40
0.5001402226
40
0.5251267201
40
0.5495249752
40
0.5734533759
40
0.5970373870
40
0.6204080207
40
0.6436998898
40
0.6670489698
40
0.6787893262
40
0.6905943658
40
0.7024804264
40
0.7084591017
40
0.7144640024
40
0.7204607505
40
0.7264148077
40
0.7382014793
40
0.7498389867
40
0.7613424290
40
0.7840060511
40
0.8063269000
40
0.8284417656
40
0.8504912719
40
0.8726172890
40
0.8949602297
40
0.9062579522
40
0.9176605524
40
0.9234064614
40
0.9291845666
40
0.9349967958
40
0.9408450429
40
0.9467311672
40
0.9496890326
40
0.9511717611
40
0.9526570550
40
0.9541449420
40
0.9548898669
40
0.9556354504
40
0.9560084903
40
0.9563816961
40
0.9565683614
40
0.9567226342
40
0.9569986696
40
0.9575503354
40
0.9581014621
40
0.9592021031
40
0.9603006026
40
0.9624912143
40
0.9646733792
40
0.9668471778
40
0.9711699817
40
0.9754603084
40
0.9797188355
40
0.9881430981
40
0.9964486679
40
1.0000000000
40
1.0000000000
40
1.0000000000
40
1.0000000000
10
12.8089122241
20
-2.6994211864
30
0.0000000000
10
12.8111437382
20
-2.7221246973
30
0.0000000000
10
12.8180634534
20
-2.7663401127
30
0.0000000000
10
12.8367254536
20
-2.8296689967
30
0.0000000000
10
12.8634184217
20
-2.8881324781
30
0.0000000000
10
12.8923008148
20
-2.9326306733
30
0.0000000000
10
12.9157188129
20
-2.9612973686
30
0.0000000000
10
12.9300799762
20
-2.9770815094
30
0.0000000000
10
12.9413720453
20
-2.9886475619
30
0.0000000000
10
12.9531396341
20
-2.9998931967
30
0.0000000000
10
12.9693362707
20
-3.0143539330
30
0.0000000000
10
12.9904326430
20
-3.0312524310
30
0.0000000000
10
13.0170158266
20
-3.0495290584
30
0.0000000000
10
13.0447810895
20
-3.0657328953
30
0.0000000000
10
13.0737248309
20
-3.0798620712
30
0.0000000000
10
13.1038448188
20
-3.0919159593
30
0.0000000000
10
13.1351373267
20
-3.1018944832
30
0.0000000000
10
13.1620510901
20
-3.1084471936
30
0.0000000000
10
13.1841217779
20
-3.1126630417
30
0.0000000000
10
13.2010558688
20
-3.1153255941
30
0.0000000000
10
13.2182826861
20
-3.1174718368
30
0.0000000000
10
13.2358023902
20
-3.1191019204
30
0.0000000000
10
13.2505912593
20
-3.1200267794
30
0.0000000000
10
13.2610478967
20
-3.1204500341
30
0.0000000000
10
13.2670813904
20
-3.1206286785
30
0.0000000000
10
13.2716334392
20
-3.1207306838
30
0.0000000000
10
13.2762038156
20
-3.1208004565
30
0.0000000000
10
13.2796402538
20
-3.1208285702
30
0.0000000000
10
13.2819368805
20
-3.1208372844
30
0.0000000000
10
13.2828959426
20
-3.1208392420
30
0.0000000000
10
13.2836776619
20
-3.1208398107
30
0.0000000000
10
13.2845012960
20
-3.1208396676
30
0.0000000000
10
13.2859829079
20
-3.1208374132
30
0.0000000000
10
13.2881067857
20
-3.1208283373
30
0.0000000000
10
13.2914964132
20
-3.1208013780
30
0.0000000000
10
13.2957206037
20
-3.1207443813
30
0.0000000000
10
13.3024452887
20
-3.1206035250
30
0.0000000000
10
13.3108001908
20
-3.1203345183
30
0.0000000000
10
13.3207628793
20
-3.1198615166
30
0.0000000000
10
13.3338884298
20
-3.1190344192
30
0.0000000000
10
13.3564256756
20
-3.1170818517
30
0.0000000000
10
13.3879722890
20
-3.1128087043
30
0.0000000000
10
13.4247642654
20
-3.1052418838
30
0.0000000000
10
13.4602354787
20
-3.0952686964
30
0.0000000000
10
13.4943820023
20
-3.0828879303
30
0.0000000000
10
13.5272008673
20
-3.0680989035
30
0.0000000000
10
13.5586874858
20
-3.0509030972
30
0.0000000000
10
13.5837718489
20
-3.0345954055
30
0.0000000000
10
13.6031299269
20
-3.0203885251
30
0.0000000000
10
13.6173448151
20
-3.0091141159
30
0.0000000000
10
13.6288907475
20
-2.9992391625
30
0.0000000000
10
13.6379580825
20
-2.9910463258
30
0.0000000000
10
13.6446749070
20
-2.9847515932
30
0.0000000000
10
13.6512726662
20
-2.9783503295
30
0.0000000000
10
13.6598502055
20
-2.9697413762
30
0.0000000000
10
13.6701880162
20
-2.9588129846
30
0.0000000000
10
13.6820086756
20
-2.9453912330
30
0.0000000000
10
13.6968578888
20
-2.9272372010
30
0.0000000000
10
13.7139108783
20
-2.9038443647
30
0.0000000000
10
13.7319560775
20
-2.8745742209
30
0.0000000000
10
13.7474809316
20
-2.8442435092
30
0.0000000000
10
13.7604820152
20
-2.8128558962
30
0.0000000000
10
13.7709578287
20
-2.7804163221
30
0.0000000000
10
13.7775592492
20
-2.7526081210
30
0.0000000000
10
13.7815840270
20
-2.7298980878
30
0.0000000000
10
13.7835808432
20
-2.7154688404
30
0.0000000000
10
13.7848660881
20
-2.7038018010
30
0.0000000000
10
13.7856757421
20
-2.6949631215
30
0.0000000000
10
13.7863285670
20
-2.6860589904
30
0.0000000000
10
13.7868245770
20
-2.6770893749
30
0.0000000000
10
13.7871067678
20
-2.6695726694
30
0.0000000000
10
13.7872359200
20
-2.6642875024
30
0.0000000000
10
13.7872902965
20
-2.6612542666
30
0.0000000000
10
13.7873213155
20
-2.6589733010
30
0.0000000000
10
13.7873389917
20
-2.6570699201
30
0.0000000000
10
13.7873482400
20
-2.6555451799
30
0.0000000000
10
13.7873519806
20
-2.6545911568
30
0.0000000000
10
13.7873537491
20
-2.6538274279
30
0.0000000000
10
13.7873543443
20
-2.6533498314
30
0.0000000000
10
13.7873545070
20
-2.6529842308
30
0.0000000000
10
13.7873544935
20
-2.6526683758
30
0.0000000000
10
13.7873541837
20
-2.6521656615
30
0.0000000000
10
13.7873529629
20
-2.6514597816
30
0.0000000000
10
13.7873493365
20
-2.6503317558
30
0.0000000000
10
13.7873416672
20
-2.6489237956
30
0.0000000000
10
13.7873227090
20
-2.6466765720
30
0.0000000000
10
13.7872864850
20
-2.6438758090
30
0.0000000000
10
13.7872228737
20
-2.6405249212
30
0.0000000000
10
13.7871114707
20
-2.6360832651
30
0.0000000000
10
13.7869222464
20
-2.6305640691
30
0.0000000000
10
13.7866143348
20
-2.6239815381
30
0.0000000000
10
13.7860984606
20
-2.6153074168
30
0.0000000000
10
13.7852546290
20
-2.6045944382
30
0.0000000000
10
13.7841657446
20
-2.5942676999
30
0.0000000000
10
13.7834113118
20
-2.5882443781
30
0.0000000000
10
13.7831746071
20
-2.5864417114
30
0.0000000000
11
12.8089122241
21
-2.6994211864
31
0.0000000000
11
12.8197176758
21
-2.7670015368
31
0.0000000000
11
12.8383698007
21
-2.8297045877
31
0.0000000000
11
12.8648685912
21
-2.8875302607
31
0.0000000000
11
12.8992140472
21
-2.9404785558
31
0.0000000000
11
12.9193292748
21
-2.9651236866
31
0.0000000000
11
12.9301225135
21
-2.9769889978
31
0.0000000000
11
12.9414061688
21
-2.9885494729
31
0.0000000000
11
12.9531802407
21
-2.9998051119
31
0.0000000000
11
12.9654009265
21
-3.0107090561
31
0.0000000000
11
12.9907441134
21
-3.0309932724
31
0.0000000000
11
13.0172605190
21
-3.0492146871
31
0.0000000000
11
13.0449501433
21
-3.0653733002
31
0.0000000000
11
13.0738129862
21
-3.0794691116
31
0.0000000000
11
13.1038490477
21
-3.0915021213
31
0.0000000000
11
13.1350583279
21
-3.1014723293
31
0.0000000000
11
13.1674408267
21
-3.1093797357
31
0.0000000000
11
13.1840720331
21
-3.1125598883
31
0.0000000000
11
13.2009965442
21
-3.1152243404
31
0.0000000000
11
13.2182143599
21
-3.1173730922
31
0.0000000000
11
13.2357254803
21
-3.1190061435
31
0.0000000000
11
13.2535299053
21
-3.1201234944
31
0.0000000000
11
13.2625421071
21
-3.1204887822
31
0.0000000000
11
13.2670757053
21
-3.1206230792
31
0.0000000000
11
13.2716276350
21
-3.1207251449
31
0.0000000000
11
13.2761978963
21
-3.1207949793
31
0.0000000000
11
13.2807864891
21
-3.1208325825
31
0.0000000000
11
13.2819365017
21
-3.1208369471
31
0.0000000000
11
13.2830876599
21
-3.1208392973
31
0.0000000000
11
13.2836636686
21
-3.1208397170
31
0.0000000000
11
13.2842816573
21
-3.1208396152
31
0.0000000000
11
13.2855585603
21
-3.1208376681
31
0.0000000000
11
13.2881084827
21
-3.1208267645
31
0.0000000000
11
13.2906532269
21
-3.1208065149
31
0.0000000000
11
13.2957271803
21
-3.1207379780
31
0.0000000000
11
13.3007804208
21
-3.1206320572
31
0.0000000000
11
13.3108247624
21
-3.1203080642
31
0.0000000000
11
13.3207862518
21
-3.1198345360
31
0.0000000000
11
13.3306648889
21
-3.1192114727
31
0.0000000000
11
13.3501736063
21
-3.1175167402
31
0.0000000000
11
13.3881968139
21
-3.1123328529
31
0.0000000000
11
13.4248943852
21
-3.1047564021
31
0.0000000000
11
13.4602663202
21
-3.0947873879
31
0.0000000000
11
13.4943126189
21
-3.0824258103
31
0.0000000000
11
13.5270332814
21
-3.0676716693
31
0.0000000000
11
13.5584283076
21
-3.0505249649
31
0.0000000000
11
13.5884976975
21
-3.0309856971
31
0.0000000000
11
13.6030352788
21
-3.0203188519
31
0.0000000000
11
13.6172414511
21
-3.0090538659
31
0.0000000000
11
13.6311162143
21
-2.9971907390
31
0.0000000000
11
13.6379293175
21
-2.9910348727
31
0.0000000000
11
13.6446595684
21
-2.9847294713
31
0.0000000000
11
13.6512700085
21
-2.9783165427
31
0.0000000000
11
13.6577236793
21
-2.9718380951
31
0.0000000000
11
13.6701607129
21
-2.9586846429
31
0.0000000000
11
13.6819706692
21
-2.9452691147
31
0.0000000000
11
13.6931535482
21
-2.9315915105
31
0.0000000000
11
13.7136380741
21
-2.9034500741
31
0.0000000000
11
13.7316142907
21
-2.8742603336
31
0.0000000000
11
13.7470821981
21
-2.8440222891
31
0.0000000000
11
13.7600417961
21
-2.8127359406
31
0.0000000000
11
13.7704930849
21
-2.7804012880
31
0.0000000000
11
13.7784360643
21
-2.7470183313
31
0.0000000000
11
13.7814669380
21
-2.7299337390
31
0.0000000000
11
13.7838707344
21
-2.7125870706
31
0.0000000000
11
13.7848374787
21
-2.7038154579
31
0.0000000000
11
13.7856474535
21
-2.6949783263
31
0.0000000000
11
13.7863006591
21
-2.6860756756
31
0.0000000000
11
13.7867970953
21
-2.6771075059
31
0.0000000000
11
13.7871367622
21
-2.6680738172
31
0.0000000000
11
13.7872478071
21
-2.6635324032
31
0.0000000000
11
13.7872886325
21
-2.6612555538
31
0.0000000000
11
13.7873196597
21
-2.6589746095
31
0.0000000000
11
13.7873408889
21
-2.6566895702
31
0.0000000000
11
13.7873478292
21
-2.6555455150
31
0.0000000000
11
13.7873523200
21
-2.6544004360
31
0.0000000000
11
13.7873536468
21
-2.6538275127
31
0.0000000000
11
13.7873543613
21
-2.6532543333
31
0.0000000000
11
13.7873544889
21
-2.6529676477
31
0.0000000000
11
13.7873544799
21
-2.6527307112
31
0.0000000000
11
13.7873542182
21
-2.6523067685
31
0.0000000000
11
13.7873527526
21
-2.6514595062
31
0.0000000000
11
13.7873500307
21
-2.6506130749
31
0.0000000000
11
13.7873408183
21
-2.6489227053
31
0.0000000000
11
13.7873265810
21
-2.6472356594
31
0.0000000000
11
13.7872830315
21
-2.6438715394
31
0.0000000000
11
13.7872193822
21
-2.6405207147
31
0.0000000000
11
13.7871356331
21
-2.6371831854
31
0.0000000000
11
13.7869078357
21
-2.6305480131
31
0.0000000000
11
13.7865996391
21
-2.6239660224
31
0.0000000000
11
13.7862110434
21
-2.6174372133
31
0.0000000000
11
13.7851926547
21
-2.6045391400
31
0.0000000000
11
13.7838526696
21
-2.5918537933
31
0.0000000000
11
13.7831746071
21
-2.5864417114
31
0.0000000000
0
SPLINE
5
312
100
AcDbEntity
8
0
100
AcDbSpline
62
0
6
CONTINUOUS
70
0
71
3
72
95
73
91
74
89
42
0.0000001000
43
0.0000001000
44
0.0000000001
12
1.1386372280
22
0.5224976680
32
0.0000000000
13
-1.1294356983
23
-0.5428777540
33
0.0000000000
40
0.0000000000
40
0.0000000000
40
0.0000000000
40
0.0000000000
40
0.0738247784
40
0.1082631196
40
0.1250907451
40
0.1417495819
40
0.1583161989
40
0.1665735212
40
0.1747721581
40
0.2070929622
40
0.2231059596
40
0.2391056125
40
0.2551601844
40
0.2713372436
40
0.2794934348
40
0.2877048367
40
0.2959793466
40
0.3001428046
40
0.3043249174
40
0.3064232762
40
0.3085266479
40
0.3090532886
40
0.3096038400
40
0.3107122612
40
0.3129266727
40
0.3173461782
40
0.3217541058
40
0.3305388814
40
0.3392891099
40
0.3567158275
40
0.3741006969
40
0.4089882489
40
0.4266353783
40
0.4444960326
40
0.4626301008
40
0.4810132673
40
0.4993390341
40
0.5176367938
40
0.5544315012
40
0.5920096535
40
0.6112768513
40
0.6309445250
40
0.6409486412
40
0.6510185732
40
0.6710918669
40
0.6911214702
40
0.7111640105
40
0.7312760059
40
0.7515133927
40
0.7719310767
40
0.7822251204
40
0.7925841411
40
0.7977901212
40
0.8030147344
40
0.8082587602
40
0.8135229695
40
0.8188081243
40
0.8214588037
40
0.8241150010
40
0.8254451993
40
0.8267768118
40
0.8274431522
40
0.8281098504
40
0.8284433342
40
0.8286101098
40
0.8286988705
40
0.8288198105
40
0.8290616397
40
0.8293034012
40
0.8297867217
40
0.8307525537
40
0.8317173104
40
0.8336436115
40
0.8355656562
40
0.8374834747
40
0.8413065479
40
0.8451130850
40
0.8489033357
40
0.8526775530
40
0.8601788497
40
0.8676191269
40
0.8750005243
40
0.8823252334
40
0.8968130283
40
0.9111016129
40
0.9252103198
40
0.9391592293
40
0.9529691191
40
0.9802524828
40
1.0000000000
40
1.0000000000
40
1.0000000000
40
1.0000000000
10
13.5085493106
20
-2.2848152953
30
0.0000000000
10
13.5365691910
20
-2.2719575371
30
0.0000000000
10
13.5761704590
20
-2.2491362616
30
0.0000000000
10
13.6158460258
20
-2.2149559682
30
0.0000000000
10
13.6354074208
20
-2.1943865953
30
0.0000000000
10
13.6487708801
20
-2.1782936926
30
0.0000000000
10
13.6589069994
20
-2.1642274280
30
0.0000000000
10
13.6663873669
20
-2.1526395999
30
0.0000000000
10
13.6769146257
20
-2.1352011008
30
0.0000000000
10
13.6875356530
20
-2.1140263456
30
0.0000000000
10
13.6971744111
20
-2.0889341714
30
0.0000000000
10
13.7031364545
20
-2.0697511201
30
0.0000000000
10
13.7078490133
20
-2.0501548449
30
0.0000000000
10
13.7107279996
20
-2.0335237327
30
0.0000000000
10
13.7124098473
20
-2.0200357778
30
0.0000000000
10
13.7133637784
20
-2.0097878641
30
0.0000000000
10
13.7138983291
20
-2.0011798552
30
0.0000000000
10
13.7141713481
20
-1.9942444933
30
0.0000000000
10
13.7142774636
20
-1.9898842260
30
0.0000000000
10
13.7143236273
20
-1.9863834240
30
0.0000000000
10
13.7143350518
20
-1.9844088734
30
0.0000000000
10
13.7143366151
20
-1.9830806746
30
0.0000000000
10
13.7143359998
20
-1.9821679648
30
0.0000000000
10
13.7143304981
20
-1.9805504500
30
0.0000000000
10
13.7143016667
20
-1.9773173635
30
0.0000000000
10
13.7142096136
20
-1.9727070282
30
0.0000000000
10
13.7139538106
20
-1.9653564399
30
0.0000000000
10
13.7134306617
20
-1.9562064551
30
0.0000000000
10
13.7121594791
20
-1.9416602740
30
0.0000000000
10
13.7097532166
20
-1.9236156299
30
0.0000000000
10
13.7041493780
20
-1.8950401002
30
0.0000000000
10
13.6958920632
20
-1.8669437950
30
0.0000000000
10
13.6850988702
20
-1.8395864689
30
0.0000000000
10
13.6756652752
20
-1.8192537702
30
0.0000000000
10
13.6649374718
20
-1.7992270321
30
0.0000000000
10
13.6530344910
20
-1.7796450341
30
0.0000000000
10
13.6398488407
20
-1.7608147167
30
0.0000000000
10
13.6206790147
20
-1.7368648810
30
0.0000000000
10
13.5936056921
20
-1.7090539149
30
0.0000000000
10
13.5629459397
20
-1.6846177474
30
0.0000000000
10
13.5362924396
20
-1.6669715533
30
0.0000000000
10
13.5186277833
20
-1.6566701315
30
0.0000000000
10
13.5039621155
20
-1.6488983920
30
0.0000000000
10
13.4889448942
20
-1.6414404321
30
0.0000000000
10
13.4698167643
20
-1.6328642949
30
0.0000000000
10
13.4463733647
20
-1.6238178562
30
0.0000000000
10
13.4224661057
20
-1.6160268566
30
0.0000000000
10
13.3980957343
20
-1.6094918025
30
0.0000000000
10
13.3732631857
20
-1.6042126102
30
0.0000000000
10
13.3522410473
20
-1.6008688211
30
0.0000000000
10
13.3352115680
20
-1.5988181362
30
0.0000000000
10
13.3244601045
20
-1.5977955819
30
0.0000000000
10
13.3158035006
20
-1.5971335076
30
0.0000000000
10
13.3092710588
20
-1.5967143711
30
0.0000000000
10
13.3027097296
20
-1.5963735075
30
0.0000000000
10
13.2961195030
20
-1.5961109140
30
0.0000000000
10
13.2906091745
20
-1.5959574678
30
0.0000000000
10
13.2861867275
20
-1.5958737293
30
0.0000000000
10
13.2834153094
20
-1.5958376628
30
0.0000000000
10
13.2811945953
20
-1.5958185771
30
0.0000000000
10
13.2798047834
20
-1.5958107204
30
0.0000000000
10
13.2786920347
20
-1.5958068788
30
0.0000000000
10
13.2779960981
20
-1.5958054962
30
0.0000000000
10
13.2775087782
20
-1.5958050634
30
0.0000000000
10
13.2772628042
20
-1.5958049797
30
0.0000000000
10
13.2771055881
20
-1.5958049707
30
0.0000000000
10
13.2769170298
20
-1.5958050005
30
0.0000000000
10
13.2766645786
20
-1.5958051329
30
0.0000000000
10
13.2762607978
20
-1.5958055426
30
0.0000000000
10
13.2755546752
20
-1.5958067784
30
0.0000000000
10
13.2745466342
20
-1.5958100265
30
0.0000000000
10
13.2729360226
20
-1.5958183857
30
0.0000000000
10
13.2709261380
20
-1.5958347600
30
0.0000000000
10
13.2685183649
20
-1.5958639163
30
0.0000000000
10
13.2653187394
20
-1.5959153966
30
0.0000000000
10
13.2613326697
20
-1.5960034114
30
0.0000000000
10
13.2565658658
20
-1.5961471309
30
0.0000000000
10
13.2518207700
20
-1.5963288370
30
0.0000000000
10
13.2455360626
20
-1.5966211492
30
0.0000000000
10
13.2377335115
20
-1.5970809516
30
0.0000000000
10
13.2284377237
20
-1.5977858407
30
0.0000000000
10
13.2192287140
20
-1.5986427133
30
0.0000000000
10
13.2071107628
20
-1.5999828696
30
0.0000000000
10
13.1921717622
20
-1.6020347501
30
0.0000000000
10
13.1745258000
20
-1.6051146857
30
0.0000000000
10
13.1572268007
20
-1.6088032587
30
0.0000000000
10
13.1402746327
20
-1.6131007334
30
0.0000000000
10
13.1182265594
20
-1.6196149654
30
0.0000000000
10
13.0943033750
20
-1.6282590713
30
0.0000000000
10
13.0763390451
20
-1.6362332011
30
0.0000000000
10
13.0689045282
20
-1.6398066970
30
0.0000000000
11
13.5085493106
21
-2.2848152953
31
0.0000000000
11
13.5881302792
21
-2.2376900344
31
0.0000000000
11
13.6207564440
21
-2.2094595966
31
0.0000000000
11
13.6352784465
21
-2.1941774258
31
0.0000000000
11
13.6486063959
21
-2.1781172872
31
0.0000000000
11
13.6607402919
21
-2.1612791806
31
0.0000000000
11
13.6663563364
21
-2.1525916178
31
0.0000000000
11
13.6716620853
21
-2.1437969019
31
0.0000000000
11
13.6897771106
21
-2.1075836723
31
0.0000000000
11
13.6969698413
21
-2.0888564380
31
0.0000000000
11
13.7029193839
21
-2.0697154575
31
0.0000000000
11
13.7076257385
21
-2.0501607306
31
0.0000000000
11
13.7110889051
21
-2.0301922573
31
0.0000000000
11
13.7123542929
21
-2.0200528659
31
0.0000000000
11
13.7133088837
21
-2.0098100378
31
0.0000000000
11
13.7139526775
21
-1.9994637732
31
0.0000000000
11
13.7141580256
21
-1.9942518521
31
0.0000000000
11
13.7142856743
21
-1.9890140720
31
0.0000000000
11
13.7143203615
21
-1.9863854847
31
0.0000000000
11
13.7143356238
21
-1.9837504326
31
0.0000000000
11
13.7143364043
21
-1.9830906595
31
0.0000000000
11
13.7143359488
21
-1.9824009309
31
0.0000000000
11
13.7143312173
21
-1.9810123131
31
0.0000000000
11
13.7143064685
21
-1.9782382169
31
0.0000000000
11
13.7141958264
21
-1.9727025824
31
0.0000000000
11
13.7140036587
21
-1.9671836916
31
0.0000000000
11
13.7133747461
21
-1.9561961417
31
0.0000000000
11
13.7124197307
21
-1.9452755670
31
0.0000000000
11
13.7095313914
21
-1.9236353434
31
0.0000000000
11
13.7053386407
21
-1.9022630209
31
0.0000000000
11
13.6930399055
21
-1.8603220791
31
0.0000000000
11
13.6849339209
21
-1.8397534599
31
0.0000000000
11
13.6755235251
21
-1.8194527418
31
0.0000000000
11
13.6648087179
21
-1.7994199247
31
0.0000000000
11
13.6528133106
21
-1.7797601227
31
0.0000000000
11
13.6396459419
21
-1.7609529179
31
0.0000000000
11
13.6253200056
21
-1.7430574370
31
0.0000000000
11
13.5931924302
21
-1.7100016466
31
0.0000000000
11
13.5564305843
21
-1.6805927517
31
0.0000000000
11
13.5363118100
21
-1.6672558899
31
0.0000000000
11
13.5150344680
21
-1.6548307520
31
0.0000000000
11
13.5039613342
21
-1.6489600795
31
0.0000000000
11
13.4926624839
21
-1.6433486023
31
0.0000000000
11
13.4697143642
21
-1.6330630284
31
0.0000000000
11
13.4463037541
21
-1.6240296113
31
0.0000000000
11
13.4224306537
21
-1.6162483511
31
0.0000000000
11
13.3980950628
21
-1.6097192477
31
0.0000000000
11
13.3732969817
21
-1.6044423011
31
0.0000000000
11
13.3480364101
21
-1.6004175113
31
0.0000000000
11
13.3352326904
21
-1.5988746752
31
0.0000000000
11
13.3223133482
21
-1.5976448784
31
0.0000000000
11
13.3158103186
21
-1.5971473696
31
0.0000000000
11
13.3092783833
21
-1.5967281207
31
0.0000000000
11
13.3027175424
21
-1.5963871316
31
0.0000000000
11
13.2961277959
21
-1.5961244022
31
0.0000000000
11
13.2895091437
21
-1.5959399327
31
0.0000000000
11
13.2861889780
21
-1.5958770453
31
0.0000000000
11
13.2828615859
21
-1.5958337230
31
0.0000000000
11
13.2811951799
21
-1.5958193986
31
0.0000000000
11
13.2795269673
21
-1.5958099655
31
0.0000000000
11
13.2786921836
21
-1.5958070832
31
0.0000000000
11
13.2778569482
21
-1.5958054237
31
0.0000000000
11
13.2774391611
21
-1.5958050524
31
0.0000000000
11
13.2772302252
21
-1.5958049815
31
0.0000000000
11
13.2771190262
21
-1.5958049748
31
0.0000000000
11
13.2769675130
21
-1.5958049987
31
0.0000000000
11
13.2766645503
21
-1.5958051577
31
0.0000000000
11
13.2763616725
21
-1.5958054650
31
0.0000000000
11
13.2757561713
21
-1.5958065248
31
0.0000000000
11
13.2745461868
21
-1.5958104250
31
0.0000000000
11
13.2733375596
21
-1.5958166992
31
0.0000000000
11
13.2709243768
21
-1.5958363697
31
0.0000000000
11
13.2685166230
21
-1.5958655363
31
0.0000000000
11
13.2661142981
21
-1.5959041990
31
0.0000000000
11
13.2613259353
21
-1.5960100127
31
0.0000000000
11
13.2565592882
21
-1.5961538108
31
0.0000000000
11
13.2518143570
21
-1.5963355933
31
0.0000000000
11
13.2470911416
21
-1.5965553602
31
0.0000000000
11
13.2377098583
21
-1.5971088472
31
0.0000000000
11
13.2284154382
21
-1.5978142719
31
0.0000000000
11
13.2192078815
21
-1.5986716341
31
0.0000000000
11
13.2100871879
21
-1.5996809340
31
0.0000000000
11
13.1921063908
21
-1.6021553466
31
0.0000000000
11
13.1744730467
21
-1.6052375096
31
0.0000000000
11
13.1571871557
21
-1.6089274231
31
0.0000000000
11
13.1402487178
21
-1.6132250870
31
0.0000000000
11
13.1236577330
21
-1.6181305014
31
0.0000000000
11
13.0915181228
21
-1.6297645815
31
0.0000000000
11
13.0689045282
21
-1.6398066970
31
0.0000000000
0
SPLINE
5
313
100
AcDbEntity
8
0
100
AcDbSpline
62
0
6
CONTINUOUS
70
0
71
3
72
68
73
64
74
62
42
0.0000001000
43
0.0000001000
44
0.0000000001
12
0.1265533069
22
0.8409887125
32
0.0000000000
13
-0.1398803576
23
-0.8389538135
33
0.0000000000
40
0.0000000000
40
0.0000000000
40
0.0000000000
40
0.0000000000
40
0.1284319864
40
0.1848801711
40
0.2116737684
40
0.2377443285
40
0.2632952159
40
0.2759263051
40
0.2884299072
40
0.3375287869
40
0.3863793761
40
0.4112075983
40
0.4365313565
40
0.4625206274
40
0.4758168271
40
0.4893372143
40
0.4961872354
40
0.5031066931
40
0.5167635917
40
0.5301638592
40
0.5433248615
40
0.5689984025
40
0.5939466230
40
0.6183415618
40
0.6423671462
40
0.6662158507
40
0.6900844294
40
0.7141691490
40
0.7263524380
40
0.7384715711
40
0.7622709456
40
0.7856468049
40
0.8087929649
40
0.8319090198
40
0.8551953379
40
0.8669668802
40
0.8788538179
40
0.8908792161
40
0.9030653537
40
0.9092257501
40
0.9154342812
40
0.9216934773
40
0.9280058076
40
0.9311826898
40
0.9343737531
40
0.9375792885
40
0.9391875777
40
0.9407995923
40
0.9416070082
40
0.9420110702
40
0.9424153689
40
0.9426176071
40
0.9428653198
40
0.9433755681
40
0.9443947073
40
0.9464275784
40
0.9484532864
40
0.9524834141
40
0.9564855390
40
0.9644074539
40
0.9722228105
40
0.9875482764
40
1.0000000000
40
1.0000000000
40
1.0000000000
40
1.0000000000
10
13.0112766692
20
-2.0172232271
30
0.0000000000
10
13.0166945001
20
-1.9812199435
30
0.0000000000
10
13.0290031909
20
-1.9295977459
30
0.0000000000
10
13.0551974089
20
-1.8753546208
30
0.0000000000
10
13.0720446085
20
-1.8493035867
30
0.0000000000
10
13.0856957276
20
-1.8317231533
30
0.0000000000
10
13.0981457009
20
-1.8183890590
30
0.0000000000
10
13.1086629366
20
-1.8085926496
30
0.0000000000
10
13.1246307420
20
-1.7948820588
30
0.0000000000
10
13.1505555882
20
-1.7770069331
30
0.0000000000
10
13.1824484478
20
-1.7625953982
30
0.0000000000
10
13.2093346157
20
-1.7544467488
30
0.0000000000
10
13.2304676608
20
-1.7499314936
30
0.0000000000
10
13.2486477243
20
-1.7475491414
30
0.0000000000
10
13.2635790291
20
-1.7464414478
30
0.0000000000
10
13.2731186823
20
-1.7460834430
30
0.0000000000
10
13.2808548068
20
-1.7459979080
30
0.0000000000
10
13.2886299751
20
-1.7460447935
30
0.0000000000
10
13.2982591907
20
-1.7463455242
30
0.0000000000
10
13.3096377698
20
-1.7471046061
30
0.0000000000
10
13.3243693556
20
-1.7486311915
30
0.0000000000
10
13.3422402912
20
-1.7515110725
30
0.0000000000
10
13.3629164396
20
-1.7565877857
30
0.0000000000
10
13.3826444462
20
-1.7632589271
30
0.0000000000
10
13.4014199452
20
-1.7715255891
30
0.0000000000
10
13.4192393530
20
-1.7813877351
30
0.0000000000
10
13.4360978071
20
-1.7928434626
30
0.0000000000
10
13.4492948998
20
-1.8036742206
30
0.0000000000
10
13.4593042950
20
-1.8130586751
30
0.0000000000
10
13.4688551809
20
-1.8227960811
30
0.0000000000
10
13.4798486026
20
-1.8355427510
30
0.0000000000
10
13.4914747189
20
-1.8517701681
30
0.0000000000
10
13.5014544878
20
-1.8688367932
30
0.0000000000
10
13.5097841094
20
-1.8867378680
30
0.0000000000
10
13.5153302853
20
-1.9022955855
30
0.0000000000
10
13.5189399130
20
-1.9151086014
30
0.0000000000
10
13.5212476812
20
-1.9249612880
30
0.0000000000
10
13.5231454926
20
-1.9350202761
30
0.0000000000
10
13.5243810679
20
-1.9435439479
30
0.0000000000
10
13.5251665199
20
-1.9504608924
30
0.0000000000
10
13.5256555035
20
-1.9557193958
30
0.0000000000
10
13.5260422010
20
-1.9610295501
30
0.0000000000
10
13.5262787027
20
-1.9654880415
30
0.0000000000
10
13.5264170874
20
-1.9690800995
30
0.0000000000
10
13.5264955404
20
-1.9717929536
30
0.0000000000
10
13.5265395652
20
-1.9740618348
30
0.0000000000
10
13.5265620475
20
-1.9758833354
30
0.0000000000
10
13.5265707846
20
-1.9770251080
30
0.0000000000
10
13.5265741090
20
-1.9778255217
30
0.0000000000
10
13.5265752113
20
-1.9782835701
30
0.0000000000
10
13.5265755684
20
-1.9785700604
30
0.0000000000
10
13.5265756574
20
-1.9788122280
30
0.0000000000
10
13.5265755902
20
-1.9790844308
30
0.0000000000
10
13.5265750006
20
-1.9795882132
30
0.0000000000
10
13.5265718937
20
-1.9805980589
30
0.0000000000
10
13.5265619794
20
-1.9820374930
30
0.0000000000
10
13.5265344340
20
-1.9843303683
30
0.0000000000
10
13.5264781509
20
-1.9871811613
30
0.0000000000
10
13.5263415473
20
-1.9917019383
30
0.0000000000
10
13.5260837996
20
-1.9972923367
30
0.0000000000
10
13.5254864086
20
-2.0060784385
30
0.0000000000
10
13.5244658780
20
-2.0161205370
30
0.0000000000
10
13.5233309788
20
-2.0239151481
30
0.0000000000
10
13.5227503949
20
-2.0273972884
30
0.0000000000
11
13.0112766692
21
-2.0172232271
31
0.0000000000
11
13.0388963932
21
-1.9115470533
31
0.0000000000
11
13.0600297023
21
-1.8684421414
31
0.0000000000
11
13.0724272113
21
-1.8493230273
31
0.0000000000
11
13.0860452900
21
-1.8318261410
31
0.0000000000
11
13.1008839385
21
-1.8159514826
31
0.0000000000
11
13.1087376485
21
-1.8086224888
31
0.0000000000
11
13.1168087885
21
-1.8016990521
31
0.0000000000
11
13.1512303226
21
-1.7780608746
31
0.0000000000
11
13.1890710159
21
-1.7609116086
31
0.0000000000
11
13.2092735472
21
-1.7547703174
31
0.0000000000
11
13.2303308683
21
-1.7502512540
31
0.0000000000
11
13.2522429792
21
-1.7473544185
31
0.0000000000
11
13.2635195808
21
-1.7465143363
31
0.0000000000
11
13.2750098798
21
-1.7460798109
31
0.0000000000
11
13.2808351659
21
-1.7460146321
31
0.0000000000
11
13.2867197637
21
-1.7460498935
31
0.0000000000
11
13.2983285737
21
-1.7464168863
31
0.0000000000
11
13.3096994114
21
-1.7471791021
31
0.0000000000
11
13.3208322768
21
-1.7483365409
31
0.0000000000
11
13.3423840909
21
-1.7518370875
31
0.0000000000
11
13.3629840159
21
-1.7569185261
31
0.0000000000
11
13.3826320519
21
-1.7635808566
31
0.0000000000
11
13.4013281988
21
-1.7718240792
31
0.0000000000
11
13.4190724567
21
-1.7816481938
31
0.0000000000
11
13.4358648256
21
-1.7930532004
31
0.0000000000
11
13.4517053054
21
-1.8060390990
31
0.0000000000
11
13.4592668420
21
-1.8131229609
31
0.0000000000
11
13.4664822247
21
-1.8204828856
31
0.0000000000
11
13.4796860830
21
-1.8358233546
31
0.0000000000
11
13.4912540650
21
-1.8519913162
31
0.0000000000
11
13.5011861708
21
-1.8689867705
31
0.0000000000
11
13.5094824003
21
-1.8868097174
31
0.0000000000
11
13.5161427536
21
-1.9054601569
31
0.0000000000
11
13.5188594767
21
-1.9150956864
31
0.0000000000
11
13.5211672307
21
-1.9249380891
31
0.0000000000
11
13.5230660156
21
-1.9349873649
31
0.0000000000
11
13.5245558314
21
-1.9452435139
31
0.0000000000
11
13.5251473760
21
-1.9504491658
31
0.0000000000
11
13.5256366783
21
-1.9557065360
31
0.0000000000
11
13.5260237383
21
-1.9610156245
31
0.0000000000
11
13.5263085560
21
-1.9663764313
31
0.0000000000
11
13.5264126240
21
-1.9690762291
31
0.0000000000
11
13.5264911315
21
-1.9717889564
31
0.0000000000
11
13.5265440784
21
-1.9745146133
31
0.0000000000
11
13.5265609666
21
-1.9758822904
31
0.0000000000
11
13.5265714647
21
-1.9772531998
31
0.0000000000
11
13.5265743174
21
-1.9779398667
31
0.0000000000
11
13.5265751447
21
-1.9782835031
31
0.0000000000
11
13.5265755726
21
-1.9786273416
31
0.0000000000
11
13.5265756368
21
-1.9787993366
31
0.0000000000
11
13.5265755874
21
-1.9790100056
31
0.0000000000
11
13.5265750775
21
-1.9794439497
31
0.0000000000
11
13.5265724102
21
-1.9803106800
31
0.0000000000
11
13.5265604860
21
-1.9820395091
31
0.0000000000
11
13.5265397756
21
-1.9837621628
31
0.0000000000
11
13.5264719959
21
-1.9871889441
31
0.0000000000
11
13.5263690712
21
-1.9905910240
31
0.0000000000
11
13.5260577868
21
-1.9973210795
31
0.0000000000
11
13.5256059223
21
-2.0039523292
31
0.0000000000
11
13.5242804531
21
-2.0169184115
31
0.0000000000
11
13.5227503949
21
-2.0273972884
31
0.0000000000
0
SPLINE
5
314
100
AcDbEntity
8
0
100
AcDbSpline
62
0
6
CONTINUOUS
70
0
71
3
72
104
73
100
74
98
42
0.0000001000
43
0.0000001000
44
0.0000000001
12
0.5718062738
22
0.9130507045
32
0.0000000000
13
-0.5800752208
23
-0.9079151168
33
0.0000000000
40
0.0000000000
40
0.0000000000
40
0.0000000000
40
0.0000000000
40
0.0352878273
40
0.0705993135
40
0.0884477377
40
0.1065097711
40
0.1248508719
40
0.1341466775
40
0.1435354148
40
0.1529603027
40
0.1623674154
40
0.1811702612
40
0.2000362694
40
0.2190540765
40
0.2286483787
40
0.2383128301
40
0.2480577429
40
0.2578931760
40
0.2628480560
40
0.2678292102
40
0.2728378156
40
0.2778750301
40
0.2829419917
40
0.2854869952
40
0.2880398531
40
0.2906007021
40
0.2918841676
40
0.2931696816
40
0.2944572607
40
0.2957469215
40
0.2963925380
40
0.2970386812
40
0.2973619509
40
0.2976853531
40
0.2980088880
40
0.2981707052
40
0.2983325558
40
0.2984627048
40
0.2985928287
40
0.2988530014
40
0.2993730467
40
0.2998926924
40
0.3004119395
40
0.3014492404
40
0.3024849561
40
0.3045516559
40
0.3066120924
40
0.3086663179
40
0.3107143852
40
0.3147922455
40
0.3188461188
40
0.3228764451
40
0.3308681402
40
0.3387711168
40
0.3465891750
40
0.3543262401
40
0.3619863619
40
0.3770915003
40
0.3919404414
40
0.4065698383
40
0.4210180149
40
0.4495206500
40
0.4777890268
40
0.5061622486
40
0.5204985518
40
0.5349857522
40
0.5495237721
40
0.5640149930
40
0.5930194036
40
0.6223545013
40
0.6523536187
40
0.6833286583
40
0.7155632062
40
0.7322363210
40
0.7493159706
40
0.7580169820
40
0.7668293844
40
0.7712783480
40
0.7757562782
40
0.7802635334
40
0.7825282734
40
0.7836634397
40
0.7848004771
40
0.7859963905
40
0.7871904631
40
0.7895731070
40
0.7943165411
40
0.7990311563
40
0.8037173237
40
0.8130057365
40
0.8221849788
40
0.8402280900
40
0.8578745668
40
0.8751533960
40
0.8920954514
40
0.9250931956
40
0.9571591560
40
0.9886019404
40
1.0000000000
40
1.0000000000
40
1.0000000000
40
1.0000000000
10
11.8555048579
20
-2.4136072353
30
0.0000000000
10
11.8622307916
20
-2.4028673768
30
0.0000000000
10
11.8770439807
20
-2.3821959836
30
0.0000000000
10
11.8987402123
20
-2.3588785886
30
0.0000000000
10
11.9178429495
20
-2.3418511722
30
0.0000000000
10
11.9331594803
20
-2.3297918204
30
0.0000000000
10
11.9466412536
20
-2.3204169799
30
0.0000000000
10
11.9578756816
20
-2.3133027221
30
0.0000000000
10
11.9665491150
20
-2.3081360554
30
0.0000000000
10
11.9754131939
20
-2.3032195093
30
0.0000000000
10
11.9874579475
20
-2.2970843743
30
0.0000000000
10
12.0029107399
20
-2.2901925364
30
0.0000000000
10
12.0220448530
20
-2.2831995294
30
0.0000000000
10
12.0384339398
20
-2.2784482322
30
0.0000000000
10
12.0518123667
20
-2.2752845509
30
0.0000000000
10
12.0620235770
20
-2.2732221585
30
0.0000000000
10
12.0723814389
20
-2.2714775037
30
0.0000000000
10
12.0811136153
20
-2.2702912815
30
0.0000000000
10
12.0881697176
20
-2.2695001804
30
0.0000000000
10
12.0935118605
20
-2.2689847021
30
0.0000000000
10
12.0988907139
20
-2.2685485732
30
0.0000000000
10
12.1043062882
20
-2.2681917894
30
0.0000000000
10
12.1088430159
20
-2.2679609395
30
0.0000000000
10
12.1124904191
20
-2.2678157607
30
0.0000000000
10
12.1152392975
20
-2.2677265446
30
0.0000000000
10
12.1175358654
20
-2.2676687713
30
0.0000000000
10
12.1193776706
20
-2.2676324461
30
0.0000000000
10
12.1207624133
20
-2.2676101387
30
0.0000000000
10
12.1221494517
20
-2.2675927894
30
0.0000000000
10
12.1233067604
20
-2.2675824677
30
0.0000000000
10
12.1242337503
20
-2.2675766863
30
0.0000000000
10
12.1248137141
20
-2.2675741049
30
0.0000000000
10
12.1252779716
20
-2.2675726592
30
0.0000000000
10
12.1256263793
20
-2.2675718845
30
0.0000000000
10
12.1259168089
20
-2.2675714974
30
0.0000000000
10
12.1261492242
20
-2.2675713422
30
0.0000000000
10
12.1263121932
20
-2.2675713069
30
0.0000000000
10
12.1264637809
20
-2.2675713312
30
0.0000000000
10
12.1266506768
20
-2.2675714174
30
0.0000000000
10
12.1269775873
20
-2.2675717201
30
0.0000000000
10
12.1274443775
20
-2.2675725845
30
0.0000000000
10
12.1280042014
20
-2.2675743139
30
0.0000000000
10
12.1287497714
20
-2.2675775411
30
0.0000000000
10
12.1296806560
20
-2.2675833028
30
0.0000000000
10
12.1311672046
20
-2.2675962052
30
0.0000000000
10
12.1330210891
20
-2.2676192364
30
0.0000000000
10
12.1352405338
20
-2.2676579651
30
0.0000000000
10
12.1374530659
20
-2.2677077641
30
0.0000000000
10
12.1403895129
20
-2.2677888023
30
0.0000000000
10
12.1440429538
20
-2.2679176555
30
0.0000000000
10
12.1484059804
20
-2.2681167942
30
0.0000000000
10
12.1541699629
20
-2.2684404297
30
0.0000000000
10
12.1613072631
20
-2.2689548040
30
0.0000000000
10
12.1697860510
20
-2.2697510173
30
0.0000000000
10
12.1781543041
20
-2.2707244281
30
0.0000000000
10
12.1864120644
20
-2.2718750605
30
0.0000000000
10
12.1972238094
20
-2.2736371554
30
0.0000000000
10
12.2104762793
20
-2.2762788244
30
0.0000000000
10
12.2260120306
20
-2.2801739988
30
0.0000000000
10
12.2411065705
20
-2.2847801259
30
0.0000000000
10
12.2605512243
20
-2.2918351823
30
0.0000000000
10
12.2838745358
20
-2.3024608840
30
0.0000000000
10
12.3101952592
20
-2.3181369927
30
0.0000000000
10
12.3305717474
20
-2.3335413966
30
0.0000000000
10
12.3459102756
20
-2.3472136219
30
0.0000000000
10
12.3569800012
20
-2.3581753884
30
0.0000000000
10
12.3674955579
20
-2.3697457679
30
0.0000000000
10
12.3806505014
20
-2.3859207390
30
0.0000000000
10
12.3954610582
20
-2.4075462991
30
0.0000000000
10
12.4104644328
20
-2.4355644634
30
0.0000000000
10
12.4227138307
20
-2.4656546435
30
0.0000000000
10
12.4322115149
20
-2.4978033388
30
0.0000000000
10
12.4377768433
20
-2.5259856782
30
0.0000000000
10
12.4409026048
20
-2.5494800938
30
0.0000000000
10
12.4423028312
20
-2.5646657230
30
0.0000000000
10
12.4430891166
20
-2.5770639654
30
0.0000000000
10
12.4434409209
20
-2.5849434961
30
0.0000000000
10
12.4436382428
20
-2.5913108191
30
0.0000000000
10
12.4437442505
20
-2.5961340260
30
0.0000000000
10
12.4437971227
20
-2.6001736686
30
0.0000000000
10
12.4438156289
20
-2.6030131376
30
0.0000000000
10
12.4438209340
20
-2.6046423808
30
0.0000000000
10
12.4438222647
20
-2.6058878081
30
0.0000000000
10
12.4438208873
20
-2.6071543890
30
0.0000000000
10
12.4438153528
20
-2.6088682686
30
0.0000000000
10
12.4437959994
20
-2.6118560430
30
0.0000000000
10
12.4437407285
20
-2.6161078237
30
0.0000000000
10
12.4436299210
20
-2.6211859794
30
0.0000000000
10
12.4434236271
20
-2.6278943073
30
0.0000000000
10
12.4430557809
20
-2.6362014133
30
0.0000000000
10
12.4422334876
20
-2.6492874740
30
0.0000000000
10
12.4407688115
20
-2.6653379124
30
0.0000000000
10
12.4382900761
20
-2.6842021091
30
0.0000000000
10
12.4350999499
20
-2.7025588980
30
0.0000000000
10
12.4299442953
20
-2.7261466306
30
0.0000000000
10
12.4217404418
20
-2.7544774735
30
0.0000000000
10
12.4089386610
20
-2.7867401845
30
0.0000000000
10
12.3965280855
20
-2.8106640235
30
0.0000000000
10
12.3884907574
20
-2.8237869054
30
0.0000000000
10
12.3862868468
20
-2.8272363956
30
0.0000000000
11
11.8555048579
21
-2.4136072353
31
0.0000000000
11
11.8776648029
21
-2.3827174063
31
0.0000000000
11
11.9035613693
21
-2.3548507399
31
0.0000000000
11
11.9179108285
21
-2.3420511837
31
0.0000000000
11
11.9331944050
21
-2.3300074788
31
0.0000000000
11
11.9494120990
21
-2.3187196252
31
0.0000000000
11
11.9578712399
21
-2.3133591427
31
0.0000000000
11
11.9665639102
21
-2.3081876230
31
0.0000000000
11
11.9754468167
21
-2.3032692421
31
0.0000000000
11
11.9844766663
21
-2.2986681762
31
0.0000000000
11
12.0029771944
21
-2.2904179889
31
0.0000000000
11
12.0220654946
21
-2.2834370613
31
0.0000000000
11
12.0417415670
21
-2.2777253932
31
0.0000000000
11
12.0518000177
21
-2.2753455315
31
0.0000000000
11
12.0620054114
21
-2.2732829847
31
0.0000000000
11
12.0723577482
21
-2.2715377528
31
0.0000000000
11
12.0828570280
21
-2.2701098357
31
0.0000000000
11
12.0881617715
21
-2.2695148703
31
0.0000000000
11
12.0935032508
21
-2.2689992336
31
0.0000000000
11
12.0988814659
21
-2.2685629256
31
0.0000000000
11
12.1042964167
21
-2.2682059464
31
0.0000000000
11
12.1097481032
21
-2.2679282959
31
0.0000000000
11
12.1124877224
21
-2.2678192189
31
0.0000000000
11
12.1152365256
21
-2.2677299740
31
0.0000000000
11
12.1179945126
21
-2.2676605614
31
0.0000000000
11
12.1193769501
21
-2.2676332922
31
0.0000000000
11
12.1207616836
21
-2.2676109810
31
0.0000000000
11
12.1221487131
21
-2.2675936278
31
0.0000000000
11
12.1235380386
21
-2.2675812327
31
0.0000000000
11
12.1242335623
21
-2.2675768944
31
0.0000000000
11
12.1249296600
21
-2.2675737956
31
0.0000000000
11
12.1252779241
21
-2.2675727111
31
0.0000000000
11
12.1256263318
21
-2.2675719364
31
0.0000000000
11
12.1259748829
21
-2.2675714715
31
0.0000000000
11
12.1261492122
21
-2.2675713553
31
0.0000000000
11
12.1263235775
21
-2.2675713166
31
0.0000000000
11
12.1264637899
21
-2.2675713382
31
0.0000000000
11
12.1266039753
21
-2.2675714031
31
0.0000000000
11
12.1268842651
21
-2.2675716625
31
0.0000000000
11
12.1274445207
21
-2.2675727004
31
0.0000000000
11
12.1280043441
21
-2.2675744301
31
0.0000000000
11
12.1285637355
21
-2.2675768516
31
0.0000000000
11
12.1296812218
21
-2.2675837704
31
0.0000000000
11
12.1307969797
21
-2.2675934567
31
0.0000000000
11
12.1330233101
21
-2.2676211318
31
0.0000000000
11
12.1352427266
21
-2.2676598770
31
0.0000000000
11
12.1374552294
21
-2.2677096922
31
0.0000000000
11
12.1396608184
21
-2.2677705775
31
0.0000000000
11
12.1440512549
21
-2.2679255582
31
0.0000000000
11
12.1484140361
21
-2.2681248191
31
0.0000000000
11
12.1527491622
21
-2.2683683602
31
0.0000000000
11
12.1613364486
21
-2.2689882830
31
0.0000000000
11
12.1698131141
21
-2.2697853265
31
0.0000000000
11
12.1781791586
21
-2.2707594909
31
0.0000000000
11
12.1864345822
21
-2.2719107761
31
0.0000000000
11
12.1945793849
21
-2.2732391821
31
0.0000000000
11
12.2105371275
21
-2.2764273564
31
0.0000000000
11
12.2260523865
21
-2.2803240139
31
0.0000000000
11
12.2411251617
21
-2.2849291546
31
0.0000000000
11
12.2557554532
21
-2.2902427785
31
0.0000000000
11
12.2836885852
21
-2.3029954757
31
0.0000000000
11
12.3098517823
21
-2.3185821058
31
0.0000000000
11
12.3342450447
21
-2.3370026685
31
0.0000000000
11
12.3457779504
21
-2.3472756747
31
0.0000000000
11
12.3568683723
21
-2.3582571640
31
0.0000000000
11
12.3673978905
21
-2.3698516364
31
0.0000000000
11
12.3772480850
21
-2.3819635916
31
0.0000000000
11
12.3949105026
21
-2.4077399506
31
0.0000000000
11
12.4098556253
21
-2.4355862411
31
0.0000000000
11
12.4220834529
21
-2.4655024630
31
0.0000000000
11
12.4315939855
21
-2.4974886164
31
0.0000000000
11
12.4383872230
21
-2.5315447012
31
0.0000000000
11
12.4407648562
21
-2.5493489680
31
0.0000000000
11
12.4424631656
21
-2.5676707175
31
0.0000000000
11
12.4430575739
21
-2.5770256484
31
0.0000000000
11
12.4434821512
21
-2.5865099500
31
0.0000000000
11
12.4436307533
21
-2.5913006148
31
0.0000000000
11
12.4437368976
21
-2.5961236223
31
0.0000000000
11
12.4438005842
21
-2.6009789724
31
0.0000000000
11
12.4438165059
21
-2.6034187760
31
0.0000000000
11
12.4438204863
21
-2.6046417099
31
0.0000000000
11
12.4438218131
21
-2.6058666653
31
0.0000000000
11
12.4438204263
21
-2.6071550490
31
0.0000000000
11
12.4438162661
21
-2.6084414437
31
0.0000000000
11
12.4437996252
21
-2.6110082658
31
0.0000000000
11
12.4437330617
21
-2.6161180410
31
0.0000000000
11
12.4436221225
21
-2.6211959908
31
0.0000000000
11
12.4434668075
21
-2.6262421151
31
0.0000000000
11
12.4430230506
21
-2.6362388877
31
0.0000000000
11
12.4424017909
21
-2.6461083587
31
0.0000000000
11
12.4406267632
21
-2.6654653959
31
0.0000000000
11
12.4381417244
21
-2.6843132269
31
0.0000000000
11
12.4349466745
21
-2.7026518515
31
0.0000000000
11
12.4310416136
21
-2.7204812698
31
0.0000000000
11
12.4211014584
21
-2.7546124875
31
0.0000000000
11
12.4083212589
21
-2.7867068799
31
0.0000000000
11
12.3927010151
21
-2.8167644471
31
0.0000000000
11
12.3862868468
21
-2.8272363956
31
0.0000000000
0
SPLINE
5
315
100
AcDbEntity
8
0
100
AcDbSpline
62
0
6
CONTINUOUS
70
0
71
3
72
115
73
111
74
109
42
0.0000001000
43
0.0000001000
44
0.0000000001
12
0.1545783245
22
-1.5925492835
32
0.0000000000
13
-0.1822255959
23
1.5897415969
33
0.0000000000
40
0.0000000000
40
0.0000000000
40
0.0000000000
40
0.0000000000
40
0.0500741595
40
0.0974087846
40
0.1432410989
40
0.1660384826
40
0.1889734435
40
0.2005485756
40
0.2122214872
40
0.2239618895
40
0.2356514533
40
0.2473041818
40
0.2589423696
40
0.2822590220
40
0.3057848493
40
0.3296930327
40
0.3418449444
40
0.3541534574
40
0.3666374944
40
0.3793151921
40
0.3922038696
40
0.4053200103
40
0.4119685347
40
0.4186797183
40
0.4220594073
40
0.4254554408
40
0.4288680388
40
0.4322974181
40
0.4340184709
40
0.4357437988
40
0.4374734282
40
0.4383398645
40
0.4392073858
40
0.4396415544
40
0.4400759955
40
0.4401846484
40
0.4403137906
40
0.4405788334
40
0.4411086325
40
0.4421670881
40
0.4432240262
40
0.4453333748
40
0.4474367336
40
0.4516256860
40
0.4557913368
40
0.4640544151
40
0.4722297466
40
0.4803211177
40
0.4883324339
40
0.4962677189
40
0.5119257938
40
0.5273308462
40
0.5575186538
40
0.5871474201
40
0.6165421274
40
0.6312608778
40
0.6460458168
40
0.6609378881
40
0.6759771605
40
0.6835647999
40
0.6912037130
40
0.6988985407
40
0.7066538236
40
0.7105555942
40
0.7125127420
40
0.7144741492
40
0.7164398827
40
0.7184100090
40
0.7193967412
40
0.7198905279
40
0.7201310903
40
0.7203330484
40
0.7207368810
40
0.7211406026
40
0.7219477146
40
0.7227543890
40
0.7235606298
40
0.7251718269
40
0.7283891980
40
0.7316001118
40
0.7348048440
40
0.7411968047
40
0.7475673863
40
0.7539188485
40
0.7602534714
40
0.7728808286
40
0.7854685956
40
0.7980355137
40
0.8106004172
40
0.8357948023
40
0.8612058946
40
0.8869793552
40
0.9000479924
40
0.9132589419
40
0.9266284188
40
0.9333777550
40
0.9401725395
40
0.9470146346
40
0.9504540233
40
0.9539059203
40
0.9547708773
40
0.9556366333
40
0.9574422023
40
0.9592557718
40
0.9610648822
40
0.9682573369
40
0.9753812366
40
0.9824388846
40
0.9963643477
40
1.0000000000
40
1.0000000000
40
1.0000000000
40
1.0000000000
10
11.6489678143
20
-2.7035932097
30
0.0000000000
10
11.6515479408
20
-2.7301750652
30
0.0000000000
10
11.6599567583
20
-2.7816588415
30
0.0000000000
10
11.6838469285
20
-2.8545605191
30
0.0000000000
10
11.7129597266
20
-2.9095193467
30
0.0000000000
10
11.7413445097
20
-2.9493211484
30
0.0000000000
10
11.7612158257
20
-2.9726011948
30
0.0000000000
10
11.7783754301
20
-2.9902799446
30
0.0000000000
10
11.7919273405
20
-3.0031167857
30
0.0000000000
10
11.8060422773
20
-3.0154247613
30
0.0000000000
10
11.8206713548
20
-3.0271003826
30
0.0000000000
10
11.8357517146
20
-3.0380951492
30
0.0000000000
10
11.8564661204
20
-3.0518484935
30
0.0000000000
10
11.8835690877
20
-3.0673726395
30
0.0000000000
10
11.9178603250
20
-3.0832272187
30
0.0000000000
10
11.9477705346
20
-3.0940844667
30
0.0000000000
10
11.9725148570
20
-3.1013982339
30
0.0000000000
10
11.9916230073
20
-3.1062296667
30
0.0000000000
10
12.0111774774
20
-3.1103763480
30
0.0000000000
10
12.0311786689
20
-3.1138386462
30
0.0000000000
10
12.0516262361
20
-3.1166166104
30
0.0000000000
10
12.0689586674
20
-3.1183534812
30
0.0000000000
10
12.0830406960
20
-3.1194053618
30
0.0000000000
10
12.0919540584
20
-3.1199221549
30
0.0000000000
10
12.0991397778
20
-3.1202507386
30
0.0000000000
10
12.1045698836
20
-3.1204550501
30
0.0000000000
10
12.1100279347
20
-3.1206166468
30
0.0000000000
10
12.1145939601
20
-3.1207155931
30
0.0000000000
10
12.1182606602
20
-3.1207734714
30
0.0000000000
10
12.1210210696
20
-3.1208062555
30
0.0000000000
10
12.1233257941
20
-3.1208246655
30
0.0000000000
10
12.1251730563
20
-3.1208340644
30
0.0000000000
10
12.1263294097
20
-3.1208377166
30
0.0000000000
10
12.1272553645
20
-3.1208393049
30
0.0000000000
10
12.1277765821
20
-3.1208396977
30
0.0000000000
10
12.1281351157
20
-3.1208397534
30
0.0000000000
10
12.1284033015
20
-3.1208397230
30
0.0000000000
10
12.1288961033
20
-3.1208394368
30
0.0000000000
10
12.1298845485
20
-3.1208379372
30
0.0000000000
10
12.1312953413
20
-3.1208331477
30
0.0000000000
10
12.1335485471
20
-3.1208198403
30
0.0000000000
10
12.1363589660
20
-3.1207926320
30
0.0000000000
10
12.1408394727
20
-3.1207265552
30
0.0000000000
10
12.1464158856
20
-3.1206017482
30
0.0000000000
10
12.1552742264
20
-3.1203121413
30
0.0000000000
10
12.1662513742
20
-3.1197818956
30
0.0000000000
10
12.1793035488
20
-3.1188724844
30
0.0000000000
10
12.1921991787
20
-3.1176917007
30
0.0000000000
10
12.2049383448
20
-3.1162395016
30
0.0000000000
10
12.2216396586
20
-3.1139517722
30
0.0000000000
10
12.2421460650
20
-3.1104195246
30
0.0000000000
10
12.2740479719
20
-3.1033422560
30
0.0000000000
10
12.3125427589
20
-3.0917803906
30
0.0000000000
10
12.3565298940
20
-3.0734216607
30
0.0000000000
10
12.3910810309
20
-3.0544604998
30
0.0000000000
10
12.4173326908
20
-3.0371864483
30
0.0000000000
10
12.4364057011
20
-3.0231355783
30
0.0000000000
10
12.4548483355
20
-3.0079979936
30
0.0000000000
10
12.4696492568
20
-2.9945172035
30
0.0000000000
10
12.4811669186
20
-2.9832055077
30
0.0000000000
10
12.4896745594
20
-2.9744246966
30
0.0000000000
10
12.4980252502
20
-2.9653726641
30
0.0000000000
10
12.5048394331
20
-2.9576191769
30
0.0000000000
10
12.5095352768
20
-2.9520807499
30
0.0000000000
10
12.5122045063
20
-2.9488757466
30
0.0000000000
10
12.5141987839
20
-2.9464524776
30
0.0000000000
10
12.5161832368
20
-2.9440122297
30
0.0000000000
10
12.5178279595
20
-2.9419657948
30
0.0000000000
10
12.5189744551
20
-2.9405261540
30
0.0000000000
10
12.5195450068
20
-2.9398070821
30
0.0000000000
10
12.5198545759
20
-2.9394152361
30
0.0000000000
10
12.5201365553
20
-2.9390627468
30
0.0000000000
10
12.5204718257
20
-2.9386414541
30
0.0000000000
10
12.5210076985
20
-2.9379673174
30
0.0000000000
10
12.5216756828
20
-2.9371237338
30
0.0000000000
10
12.5224746744
20
-2.9361100557
30
0.0000000000
10
12.5235360179
20
-2.9347571141
30
0.0000000000
10
12.5253827917
20
-2.9323861903
30
0.0000000000
10
12.5279942885
20
-2.9289853092
30
0.0000000000
10
12.5310855957
20
-2.9248815625
30
0.0000000000
10
12.5351447991
20
-2.9193875010
30
0.0000000000
10
12.5401095028
20
-2.9124676577
30
0.0000000000
10
12.5458960124
20
-2.9040740342
30
0.0000000000
10
12.5515060509
20
-2.8955980233
30
0.0000000000
10
12.5587426374
20
-2.8841997402
30
0.0000000000
10
12.5673536979
20
-2.8697378726
30
0.0000000000
10
12.5769910840
20
-2.8520355573
30
0.0000000000
10
12.5859218005
20
-2.8340030576
30
0.0000000000
10
12.5968956554
20
-2.8095016192
30
0.0000000000
10
12.6088689313
20
-2.7779700286
30
0.0000000000
10
12.6203792069
20
-2.7388547589
30
0.0000000000
10
12.6275713092
20
-2.7053142656
30
0.0000000000
10
12.6319176490
20
-2.6778896401
30
0.0000000000
10
12.6344863362
20
-2.6568950857
30
0.0000000000
10
12.6360329814
20
-2.6391825365
30
0.0000000000
10
12.6369201374
20
-2.6248552059
30
0.0000000000
10
12.6374111501
20
-2.6139929096
30
0.0000000000
10
12.6376727769
20
-2.6048886979
30
0.0000000000
10
12.6377942949
20
-2.5975650196
30
0.0000000000
10
12.6378296376
20
-2.5934283680
30
0.0000000000
10
12.6378394656
20
-2.5906642679
30
0.0000000000
10
12.6378424219
20
-2.5887782123
30
0.0000000000
10
12.6378387518
20
-2.5863862135
30
0.0000000000
10
12.6378217812
20
-2.5834911258
30
0.0000000000
10
12.6377629313
20
-2.5777232249
30
0.0000000000
10
12.6375816270
20
-2.5691242099
30
0.0000000000
10
12.6371383710
20
-2.5577324950
30
0.0000000000
10
12.6362837137
20
-2.5427654745
30
0.0000000000
10
12.6351733106
20
-2.5296789216
30
0.0000000000
10
12.6341541826
20
-2.5203675655
30
0.0000000000
10
12.6339333463
20
-2.5184409829
30
0.0000000000
11
11.6489678143
21
-2.7035932097
31
0.0000000000
11
11.6622643333
21
-2.7826025228
31
0.0000000000
11
11.6861240131
21
-2.8544830347
31
0.0000000000
11
11.7205468888
21
-2.9192351054
31
0.0000000000
11
11.7417195251
21
-2.9489379754
31
0.0000000000
11
11.7655329603
21
-2.9768587350
31
0.0000000000
11
11.7784299775
21
-2.9901508234
31
0.0000000000
11
11.7919871945
21
-3.0029973843
31
0.0000000000
11
11.8061502956
21
-3.0153377352
31
0.0000000000
11
11.8207693699
21
-3.0270043928
31
0.0000000000
11
11.8358357269
21
-3.0379876478
31
0.0000000000
11
11.8513493666
21
-3.0482875003
31
0.0000000000
11
11.8837184942
21
-3.0668369977
31
0.0000000000
11
11.9178767525
21
-3.0826528849
31
0.0000000000
11
11.9538241416
21
-3.0957351620
31
0.0000000000
11
11.9724687602
21
-3.1012511968
31
0.0000000000
11
11.9915606616
21
-3.1060838290
31
0.0000000000
11
12.0110998456
21
-3.1102330587
31
0.0000000000
11
12.0310863123
21
-3.1136988858
31
0.0000000000
11
12.0515200617
21
-3.1164813104
31
0.0000000000
11
12.0724010938
21
-3.1185803325
31
0.0000000000
11
12.0830093409
21
-3.1193735676
31
0.0000000000
11
12.0937294086
21
-3.1199959520
31
0.0000000000
11
12.0991313752
21
-3.1202430753
31
0.0000000000
11
12.1045612970
21
-3.1204474859
31
0.0000000000
11
12.1100191740
21
-3.1206091838
31
0.0000000000
11
12.1155050061
21
-3.1207281690
31
0.0000000000
11
12.1182584054
21
-3.1207716444
31
0.0000000000
11
12.1210187934
21
-3.1208044417
31
0.0000000000
11
12.1237861703
21
-3.1208265607
31
0.0000000000
11
12.1251724795
21
-3.1208336159
31
0.0000000000
11
12.1265605359
21
-3.1208380016
31
0.0000000000
11
12.1272552193
21
-3.1208391934
31
0.0000000000
11
12.1279503395
21
-3.1208397177
31
0.0000000000
11
12.1281241878
21
-3.1208397445
31
0.0000000000
11
12.1283308197
21
-3.1208397206
31
0.0000000000
11
12.1287548969
21
-3.1208394747
31
0.0000000000
11
12.1296025923
21
-3.1208381880
31
0.0000000000
11
12.1312961473
21
-3.1208324357
31
0.0000000000
11
12.1329872543
21
-3.1208224449
31
0.0000000000
11
12.1363621246
21
-3.1207897478
31
0.0000000000
11
12.1397272034
21
-3.1207400966
31
0.0000000000
11
12.1464279859
21
-3.1205899320
31
0.0000000000
11
12.1530896020
21
-3.1203719512
31
0.0000000000
11
12.1662953348
21
-3.1197325408
31
0.0000000000
11
12.1793444018
21
-3.1188218654
31
0.0000000000
11
12.1922368028
21
-3.1176399250
31
0.0000000000
11
12.2049725379
21
-3.1161867196
31
0.0000000000
11
12.2175516072
21
-3.1144622492
31
0.0000000000
11
12.2422397480
21
-3.1101995133
31
0.0000000000
11
12.2663012254
21
-3.1048517174
31
0.0000000000
11
12.3125441893
21
-3.0909009453
31
0.0000000000
11
12.3562804991
21
-3.0726099331
31
0.0000000000
11
12.3975101547
21
-3.0499786807
31
0.0000000000
11
12.4171849872
21
-3.0370354644
31
0.0000000000
11
12.4362331561
21
-3.0230071881
31
0.0000000000
11
12.4546546615
21
-3.0078938518
31
0.0000000000
11
12.4724495033
21
-2.9916954554
31
0.0000000000
11
12.4811119254
21
-2.9831893596
31
0.0000000000
11
12.4896176816
21
-2.9744119989
31
0.0000000000
11
12.4979667719
21
-2.9653633732
31
0.0000000000
11
12.5061591964
21
-2.9560434824
31
0.0000000000
11
12.5101966589
21
-2.9512818127
31
0.0000000000
11
12.5122007027
21
-2.9488755467
31
0.0000000000
11
12.5141949549
21
-2.9464523266
31
0.0000000000
11
12.5161794155
21
-2.9440121525
31
0.0000000000
11
12.5181540845
21
-2.9415550244
31
0.0000000000
11
12.5191377471
21
-2.9403201025
31
0.0000000000
11
12.5196286605
21
-2.9397010522
31
0.0000000000
11
12.5198676720
21
-2.9393993445
31
0.0000000000
11
12.5200692255
21
-2.9391467668
31
0.0000000000
11
12.5204718156
21
-2.9386413703
31
0.0000000000
11
12.5208737163
21
-2.9381356524
31
0.0000000000
11
12.5216754501
21
-2.9371232524
31
0.0000000000
11
12.5224744267
21
-2.9361095668
31
0.0000000000
11
12.5232706461
21
-2.9350945955
31
0.0000000000
11
12.5248548137
21
-2.9330607960
31
0.0000000000
11
12.5279900632
21
-2.9289777692
31
0.0000000000
11
12.5310811987
21
-2.9248741721
31
0.0000000000
11
12.5341282201
21
-2.9207500046
31
0.0000000000
11
12.5400899207
21
-2.9124399588
31
0.0000000000
11
12.5458751651
21
-2.9040476317
31
0.0000000000
11
12.5514839532
21
-2.8955730233
31
0.0000000000
11
12.5569162851
21
-2.8870161336
31
0.0000000000
11
12.5672515801
21
-2.8696555103
31
0.0000000000
11
12.5768810500
21
-2.8519657619
31
0.0000000000
11
12.5858046949
21
-2.8339468884
31
0.0000000000
11
12.5940225148
21
-2.8155988897
31
0.0000000000
11
12.6083406796
21
-2.7779155168
31
0.0000000000
11
12.6198355442
21
-2.7389156434
31
0.0000000000
11
12.6285071088
21
-2.6985992694
31
0.0000000000
11
12.6317841535
21
-2.6779473947
31
0.0000000000
11
12.6343553732
21
-2.6569663948
31
0.0000000000
11
12.6362207679
21
-2.6356562698
31
0.0000000000
11
12.6368887809
21
-2.6248777853
31
0.0000000000
11
12.6373803376
21
-2.6140170196
31
0.0000000000
11
12.6376954381
21
-2.6030739726
31
0.0000000000
11
12.6377868172
21
-2.5975715936
31
0.0000000000
11
12.6378340823
21
-2.5920486443
31
0.0000000000
11
12.6378390057
21
-2.5906646928
31
0.0000000000
11
12.6378411720
21
-2.5892794557
31
0.0000000000
11
12.6378366793
21
-2.5863904880
31
0.0000000000
11
12.6378196654
21
-2.5834887656
31
0.0000000000
11
12.6377901149
21
-2.5805942788
31
0.0000000000
11
12.6375465475
21
-2.5690886870
31
0.0000000000
11
12.6371023951
21
-2.5576988641
31
0.0000000000
11
12.6364576577
21
-2.5464248102
31
0.0000000000
11
12.6345664281
21
-2.5242240091
31
0.0000000000
11
12.6339333463
21
-2.5184409829
31
0.0000000000
0
SPLINE
5
316
100
AcDbEntity
8
0
100
AcDbSpline
62
0
6
CONTINUOUS
70
0
71
3
72
21
73
17
74
15
42
0.0000001000
43
0.0000001000
44
0.0000000001
12
-0.2581997771
22
-0.5213134852
32
0.0000000000
13
-0.5265109458
23
-0.2474289706
33
0.0000000000
40
0.0000000000
40
0.0000000000
40
0.0000000000
40
0.0000000000
40
0.0718610422
40
0.1486219788
40
0.2308036103
40
0.3188308899
40
0.3651520061
40
0.4130584920
40
0.4376173100
40
0.4625080421
40
0.5125365139
40
0.5628804960
40
0.6135818696
40
0.7162099619
40
0.8560570472
40
1.0000000000
40
1.0000000000
40
1.0000000000
40
1.0000000000
10
9.8992068065
20
-1.5958051743
30
0.0000000000
10
9.8930219715
20
-1.6082925510
30
0.0000000000
10
9.8788944103
20
-1.6334710383
30
0.0000000000
10
9.8536288903
20
-1.6704707298
30
0.0000000000
10
9.8236485375
20
-1.7078704479
30
0.0000000000
10
9.7952402239
20
-1.7388290739
30
0.0000000000
10
9.7702470485
20
-1.7638221366
30
0.0000000000
10
9.7535181275
20
-1.7796615282
30
0.0000000000
10
9.7395654498
20
-1.7923797290
30
0.0000000000
10
9.7251479381
20
-1.8051968921
30
0.0000000000
10
9.7066331591
20
-1.8209266760
30
0.0000000000
10
9.6837648986
20
-1.8392440092
30
0.0000000000
10
9.6522395206
20
-1.8630439279
30
0.0000000000
10
9.6054254421
20
-1.8953565465
30
0.0000000000
10
9.5411096601
20
-1.9339288969
30
0.0000000000
10
9.4920328661
20
-1.9589330810
30
0.0000000000
10
9.4667703527
20
-1.9708049665
30
0.0000000000
11
9.8992068065
21
-1.5958051743
31
0.0000000000
11
9.8788594699
21
-1.6323245769
31
0.0000000000
11
9.8537801973
21
-1.6692727845
31
0.0000000000
11
9.8239690878
21
-1.7066495974
31
0.0000000000
11
9.7894261414
21
-1.7444550156
31
0.0000000000
11
9.7703802293
21
-1.7635184517
31
0.0000000000
11
9.7501513580
21
-1.7826890390
31
0.0000000000
11
9.7395933126
21
-1.7923145145
31
0.0000000000
11
9.7287674134
21
-1.8019309970
31
0.0000000000
11
9.7065909133
21
-1.8207791769
31
0.0000000000
11
9.6837334015
21
-1.8390904558
31
0.0000000000
11
9.6601948782
21
-1.8568648337
31
0.0000000000
11
9.6110747968
21
-1.8908028870
31
0.0000000000
11
9.5413439493
21
-1.9327129078
31
0.0000000000
11
9.4667703527
21
-1.9708049665
31
0.0000000000
0
SPLINE
5
317
100
AcDbEntity
8
0
100
AcDbSpline
62
0
6
CONTINUOUS
70
0
71
3
72
23
73
19
74
17
42
0.0000001000
43
0.0000001000
44
0.0000000001
12
0.4043100911
22
0.1490778252
32
0.0000000000
13
0.3119786391
23
0.2972543943
33
0.0000000000
40
0.0000000000
40
0.0000000000
40
0.0000000000
40
0.0000000000
40
0.0820461119
40
0.1693809725
40
0.2621276467
40
0.3603888679
40
0.4116161596
40
0.4377580691
40
0.4642535597
40
0.4911037042
40
0.5181497154
40
0.5712367048
40
0.6228897412
40
0.6731243975
40
0.7219576033
40
0.7694077886
40
0.8893228344
40
1.0000000000
40
1.0000000000
40
1.0000000000
40
1.0000000000
10
9.4667703527
20
-2.1481019931
30
0.0000000000
10
9.4778277097
20
-2.1440249078
30
0.0000000000
10
9.5004613008
20
-2.1350758031
30
0.0000000000
10
9.5349059152
20
-2.1198494646
30
0.0000000000
10
9.5708898032
20
-2.1024072332
30
0.0000000000
10
9.6017156248
20
-2.0862579576
30
0.0000000000
10
9.6238162906
20
-2.0740917452
30
0.0000000000
10
9.6368143702
20
-2.0667683653
30
0.0000000000
10
9.6467254297
20
-2.0610997495
30
0.0000000000
10
9.6567131208
20
-2.0553040111
30
0.0000000000
10
9.6699567962
20
-2.0475095785
30
0.0000000000
10
9.6861535319
20
-2.0377098641
30
0.0000000000
10
9.7050041692
20
-2.0258679246
30
0.0000000000
10
9.7231289122
20
-2.0140254308
30
0.0000000000
10
9.7405284354
20
-2.0021829690
30
0.0000000000
10
9.7658475736
20
-1.9841992679
30
0.0000000000
10
9.7975326896
20
-1.9598473585
30
0.0000000000
10
9.8224377006
20
-1.9379602084
30
0.0000000000
10
9.8339473378
20
-1.9269937838
30
0.0000000000
11
9.4667703527
21
-2.1481019931
31
0.0000000000
11
9.4996663078
21
-2.1351464517
31
0.0000000000
11
9.5341047801
21
-2.1199699603
31
0.0000000000
11
9.5700857695
21
-2.1025725190
31
0.0000000000
11
9.6076092761
21
-2.0829541277
31
0.0000000000
11
9.6269494734
21
-2.0723120758
31
0.0000000000
11
9.6367641830
21
-2.0667828358
31
0.0000000000
11
9.6466752999
21
-2.0611147865
31
0.0000000000
11
9.6566828242
21
-2.0553079277
31
0.0000000000
11
9.6667249990
21
-2.0493931062
31
0.0000000000
11
9.6862957333
21
-2.0375480402
31
0.0000000000
11
9.7051404759
21
-2.0257029748
31
0.0000000000
11
9.7232592268
21
-2.0138579099
31
0.0000000000
11
9.7406519860
21
-2.0020128456
31
0.0000000000
11
9.7573187535
21
-1.9901677819
31
0.0000000000
11
9.7982141741
21
-1.9585809480
31
0.0000000000
11
9.8339473378
21
-1.9269937838
31
0.0000000000
0
SPLINE
5
318
100
AcDbEntity
8
0
100
AcDbSpline
62
0
6
CONTINUOUS
70
0
71
3
72
25
73
21
74
19
42
0.0000001000
43
0.0000001000
44
0.0000000001
12
0.0000000000
22
-1.2560642624
32
0.0000000000
13
1.2560642624
23
0.0000000000
33
0.0000000000
40
0.0000000000
40
0.0000000000
40
0.0000000000
40
0.0000000000
40
0.0554624562
40
0.1111117095
40
0.1667092040
40
0.2221289211
40
0.2777196322
40
0.3333873424
40
0.3889186099
40
0.4443564347
40
0.4999973651
40
0.5556373916
40
0.6110746179
40
0.6666070807
40
0.7222752633
40
0.7778647827
40
0.8332842708
40
0.8888844416
40
0.9445354399
40
1.0000000000
40
1.0000000000
40
1.0000000000
40
1.0000000000
10
-21.8832296473
20
-20.6708500129
30
0.0000000000
10
-21.8832296473
20
-20.6940714826
30
0.0000000000
10
-21.8812018588
20
-20.7406180326
30
0.0000000000
10
-21.8720868313
20
-20.8099048782
30
0.0000000000
10
-21.8569647839
20
-20.8781200094
30
0.0000000000
10
-21.8359679125
20
-20.9447337428
30
0.0000000000
10
-21.8092387269
20
-21.0092943151
30
0.0000000000
10
-21.7769552085
20
-21.0713173074
30
0.0000000000
10
-21.7394189397
20
-21.1302332250
30
0.0000000000
10
-21.6969032289
20
-21.1856484849
30
0.0000000000
10
-21.6496888206
20
-21.2371821164
30
0.0000000000
10
-21.5981558012
20
-21.2843968164
30
0.0000000000
10
-21.5427410780
20
-21.3269130114
30
0.0000000000
10
-21.4838251430
20
-21.3644500953
30
0.0000000000
10
-21.4218022432
20
-21.3967342272
30
0.0000000000
10
-21.3572422816
20
-21.4234638375
30
0.0000000000
10
-21.2906282591
20
-21.4444615381
30
0.0000000000
10
-21.2224115259
20
-21.4595845241
30
0.0000000000
10
-21.1531220062
20
-21.4687002331
30
0.0000000000
10
-21.1065738418
20
-21.4707281690
30
0.0000000000
10
-21.0833514912
20
-21.4707281690
30
0.0000000000
11
-21.8832296473
21
-20.6708500129
31
0.0000000000
11
-21.8801968224
21
-20.7404483740
31
0.0000000000
11
-21.8710802846
21
-20.8097503531
31
0.0000000000
11
-21.8559659744
21
-20.8779291533
31
0.0000000000
11
-21.8350394148
21
-20.9443199078
31
0.0000000000
11
-21.8083290698
21
-21.0088347022
31
0.0000000000
11
-21.7760453904
21
-21.0708579324
31
0.0000000000
11
-21.7385663599
21
-21.1296839643
31
0.0000000000
11
-21.6961798795
21
-21.1849307424
31
0.0000000000
11
-21.6489678786
21
-21.2364617155
31
0.0000000000
11
-21.5974381674
21
-21.2836734128
31
0.0000000000
11
-21.5421924170
21
-21.3260599978
31
0.0000000000
11
-21.4833654827
21
-21.3635404060
31
0.0000000000
11
-21.4213419972
21
-21.3958248801
31
0.0000000000
11
-21.3568288251
21
-21.4225352306
31
0.0000000000
11
-21.2904385558
21
-21.4434623726
31
0.0000000000
11
-21.2222565969
21
-21.4585779663
31
0.0000000000
11
-21.1529524874
21
-21.4676951141
31
0.0000000000
11
-21.0833514912
21
-21.4707281690
31
0.0000000000
0
SPLINE
5
319
100
AcDbEntity
8
0
100
AcDbSpline
62
0
6
CONTINUOUS
70
0
71
3
72
25
73
21
74
19
42
0.0000001000
43
0.0000001000
44
0.0000000001
12
-1.2560642624
22
0.0000000000
32
0.0000000000
13
-0.0000000000
23
-1.2560642624
33
0.0000000000
40
0.0000000000
40
0.0000000000
40
0.0000000000
40
0.0000000000
40
0.0554645601
40
0.1111155584
40
0.1667157292
40
0.2221352173
40
0.2777247367
40
0.3333929193
40
0.3889253821
40
0.4443626084
40
0.5000026349
40
0.5556435653
40
0.6110813901
40
0.6666126576
40
0.7222803678
40
0.7778710789
40
0.8332907960
40
0.8888882905
40
0.9445375438
40
1.0000000000
40
1.0000000000
40
1.0000000000
40
1.0000000000
10
-21.0833514912
20
22.2292718310
30
0.0000000000
10
-21.1065738418
20
22.2292718310
30
0.0000000000
10
-21.1531220062
20
22.2272438950
30
0.0000000000
10
-21.2224115259
20
22.2181281860
30
0.0000000000
10
-21.2906282591
20
22.2030052000
30
0.0000000000
10
-21.3572422816
20
22.1820074994
30
0.0000000000
10
-21.4218022432
20
22.1552778891
30
0.0000000000
10
-21.4838251430
20
22.1229937572
30
0.0000000000
10
-21.5427410780
20
22.0854566733
30
0.0000000000
10
-21.5981558012
20
22.0429404783
30
0.0000000000
10
-21.6496888206
20
21.9957257783
30
0.0000000000
10
-21.6969032289
20
21.9441921468
30
0.0000000000
10
-21.7394189397
20
21.8887768869
30
0.0000000000
10
-21.7769552085
20
21.8298609693
30
0.0000000000
10
-21.8092387269
20
21.7678379770
30
0.0000000000
10
-21.8359679125
20
21.7032774047
30
0.0000000000
10
-21.8569647839
20
21.6366636713
30
0.0000000000
10
-21.8720868313
20
21.5684485401
30
0.0000000000
10
-21.8812018588
20
21.4991616945
30
0.0000000000
10
-21.8832296473
20
21.4526151445
30
0.0000000000
10
-21.8832296473
20
21.4293936748
30
0.0000000000
11
-21.0833514912
21
22.2292718310
31
0.0000000000
11
-21.1529524874
21
22.2262387760
31
0.0000000000
11
-21.2222565969
21
22.2171216282
31
0.0000000000
11
-21.2904385558
21
22.2020060345
31
0.0000000000
11
-21.3568288251
21
22.1810788925
31
0.0000000000
11
-21.4213419972
21
22.1543685420
31
0.0000000000
11
-21.4833654827
21
22.1220840679
31
0.0000000000
11
-21.5421924170
21
22.0846036597
31
0.0000000000
11
-21.5974381674
21
22.0422170747
31
0.0000000000
11
-21.6489678786
21
21.9950053774
31
0.0000000000
11
-21.6961798795
21
21.9434744043
31
0.0000000000
11
-21.7385663599
21
21.8882276262
31
0.0000000000
11
-21.7760453904
21
21.8294015943
31
0.0000000000
11
-21.8083290698
21
21.7673783641
31
0.0000000000
11
-21.8350394148
21
21.7028635697
31
0.0000000000
11
-21.8559659744
21
21.6364728152
31
0.0000000000
11
-21.8710802846
21
21.5682940150
31
0.0000000000
11
-21.8801968224
21
21.4989920359
31
0.0000000000
11
-21.8832296473
21
21.4293936748
31
0.0000000000
0
SPLINE
5
31A
100
AcDbEntity
8
0
100
AcDbSpline
62
0
6
CONTINUOUS
70
0
71
3
72
25
73
21
74
19
42
0.0000001000
43
0.0000001000
44
0.0000000001
12
0.0000000000
22
1.2560642624
32
0.0000000000
13
-1.2560642624
23
0.0000000000
33
0.0000000000
40
0.0000000000
40
0.0000000000
40
0.0000000000
40
0.0000000000
40
0.0554624562
40
0.1111117095
40
0.1667092040
40
0.2221289211
40
0.2777196322
40
0.3333873424
40
0.3889186099
40
0.4443564347
40
0.4999973651
40
0.5556373916
40
0.6110746179
40
0.6666070807
40
0.7222752633
40
0.7778647827
40
0.8332842708
40
0.8888844416
40
0.9445354399
40
1.0000000000
40
1.0000000000
40
1.0000000000
40
1.0000000000
10
22.4167703527
20
21.4293936748
30
0.0000000000
10
22.4167703527
20
21.4526151445
30
0.0000000000
10
22.4147425642
20
21.4991616945
30
0.0000000000
10
22.4056275367
20
21.5684485401
30
0.0000000000
10
22.3905054893
20
21.6366636713
30
0.0000000000
10
22.3695086180
20
21.7032774047
30
0.0000000000
10
22.3427794323
20
21.7678379770
30
0.0000000000
10
22.3104959139
20
21.8298609693
30
0.0000000000
10
22.2729596451
20
21.8887768869
30
0.0000000000
10
22.2304439344
20
21.9441921468
30
0.0000000000
10
22.1832295261
20
21.9957257783
30
0.0000000000
10
22.1316965066
20
22.0429404783
30
0.0000000000
10
22.0762817834
20
22.0854566733
30
0.0000000000
10
22.0173658484
20
22.1229937572
30
0.0000000000
10
21.9553429487
20
22.1552778891
30
0.0000000000
10
21.8907829871
20
22.1820074994
30
0.0000000000
10
21.8241689645
20
22.2030052000
30
0.0000000000
10
21.7559522313
20
22.2181281860
30
0.0000000000
10
21.6866627117
20
22.2272438950
30
0.0000000000
10
21.6401145472
20
22.2292718310
30
0.0000000000
10
21.6168921966
20
22.2292718310
30
0.0000000000
11
22.4167703527
21
21.4293936748
31
0.0000000000
11
22.4137375279
21
21.4989920359
31
0.0000000000
11
22.4046209901
21
21.5682940150
31
0.0000000000
11
22.3895066798
21
21.6364728152
31
0.0000000000
11
22.3685801202
21
21.7028635697
31
0.0000000000
11
22.3418697752
21
21.7673783641
31
0.0000000000
11
22.3095860958
21
21.8294015943
31
0.0000000000
11
22.2721070653
21
21.8882276262
31
0.0000000000
11
22.2297205849
21
21.9434744043
31
0.0000000000
11
22.1825085841
21
21.9950053774
31
0.0000000000
11
22.1309788729
21
22.0422170747
31
0.0000000000
11
22.0757331224
21
22.0846036597
31
0.0000000000
11
22.0169061881
21
22.1220840679
31
0.0000000000
11
21.9548827026
21
22.1543685420
31
0.0000000000
11
21.8903695306
21
22.1810788925
31
0.0000000000
11
21.8239792613
21
22.2020060345
31
0.0000000000
11
21.7557973024
21
22.2171216282
31
0.0000000000
11
21.6864931929
21
22.2262387760
31
0.0000000000
11
21.6168921966
21
22.2292718310
31
0.0000000000
0
SPLINE
5
31B
100
AcDbEntity
8
0
100
AcDbSpline
62
0
6
CONTINUOUS
70
0
71
3
72
25
73
21
74
19
42
0.0000001000
43
0.0000001000
44
0.0000000001
12
1.2560642624
22
0.0000000000
32
0.0000000000
13
0.0000000000
23
1.2560642624
33
0.0000000000
40
0.0000000000
40
0.0000000000
40
0.0000000000
40
0.0000000000
40
0.0554645601
40
0.1111155584
40
0.1667157292
40
0.2221352173
40
0.2777247367
40
0.3333929193
40
0.3889253821
40
0.4443626084
40
0.5000026349
40
0.5556435653
40
0.6110813901
40
0.6666126576
40
0.7222803678
40
0.7778710789
40
0.8332907960
40
0.8888882905
40
0.9445375438
40
1.0000000000
40
1.0000000000
40
1.0000000000
40
1.0000000000
10
21.6168921966
20
-21.4707281690
30
0.0000000000
10
21.6401145472
20
-21.4707281690
30
0.0000000000
10
21.6866627117
20
-21.4687002331
30
0.0000000000
10
21.7559522313
20
-21.4595845241
30
0.0000000000
10
21.8241689645
20
-21.4444615381
30
0.0000000000
10
21.8907829871
20
-21.4234638375
30
0.0000000000
10
21.9553429487
20
-21.3967342272
30
0.0000000000
10
22.0173658484
20
-21.3644500953
30
0.0000000000
10
22.0762817834
20
-21.3269130114
30
0.0000000000
10
22.1316965066
20
-21.2843968164
30
0.0000000000
10
22.1832295261
20
-21.2371821164
30
0.0000000000
10
22.2304439344
20
-21.1856484849
30
0.0000000000
10
22.2729596451
20
-21.1302332250
30
0.0000000000
10
22.3104959139
20
-21.0713173074
30
0.0000000000
10
22.3427794323
20
-21.0092943151
30
0.0000000000
10
22.3695086180
20
-20.9447337428
30
0.0000000000
10
22.3905054893
20
-20.8781200094
30
0.0000000000
10
22.4056275367
20
-20.8099048782
30
0.0000000000
10
22.4147425642
20
-20.7406180326
30
0.0000000000
10
22.4167703527
20
-20.6940714826
30
0.0000000000
10
22.4167703527
20
-20.6708500129
30
0.0000000000
11
21.6168921966
21
-21.4707281690
31
0.0000000000
11
21.6864931929
21
-21.4676951141
31
0.0000000000
11
21.7557973024
21
-21.4585779663
31
0.0000000000
11
21.8239792613
21
-21.4434623726
31
0.0000000000
11
21.8903695306
21
-21.4225352306
31
0.0000000000
11
21.9548827026
21
-21.3958248801
31
0.0000000000
11
22.0169061881
21
-21.3635404060
31
0.0000000000
11
22.0757331224
21
-21.3260599978
31
0.0000000000
11
22.1309788729
21
-21.2836734128
31
0.0000000000
11
22.1825085841
21
-21.2364617155
31
0.0000000000
11
22.2297205849
21
-21.1849307424
31
0.0000000000
11
22.2721070653
21
-21.1296839643
31
0.0000000000
11
22.3095860958
21
-21.0708579324
31
0.0000000000
11
22.3418697752
21
-21.0088347022
31
0.0000000000
11
22.3685801202
21
-20.9443199078
31
0.0000000000
11
22.3895066798
21
-20.8779291533
31
0.0000000000
11
22.4046209901
21
-20.8097503531
31
0.0000000000
11
22.4137375279
21
-20.7404483740
31
0.0000000000
11
22.4167703527
21
-20.6708500129
31
0.0000000000
0
SPLINE
5
31C
100
AcDbEntity
8
0
100
AcDbSpline
62
0
6
CONTINUOUS
70
0
71
3
72
21
73
17
74
15
42
0.0000001000
43
0.0000001000
44
0.0000000001
12
0.4710007190
22
0.0000000000
32
0.0000000000
13
0.0000000000
23
-0.4710007190
33
0.0000000000
40
0.0000000000
40
0.0000000000
40
0.0000000000
40
0.0000000000
40
0.0711917974
40
0.1427749434
40
0.2142307758
40
0.2854005816
40
0.3569840959
40
0.4286622408
40
0.4999751091
40
0.5712921348
40
0.6429764481
40
0.7145588660
40
0.7857290753
40
0.8572014305
40
0.9287985772
40
1.0000000000
40
1.0000000000
40
1.0000000000
40
1.0000000000
10
-6.0832296473
20
-7.6707281690
30
0.0000000000
10
-6.0720525180
20
-7.6707281690
30
0.0000000000
10
-6.0496166789
20
-7.6719835328
30
0.0000000000
10
-6.0163896590
20
-7.6776213515
30
0.0000000000
10
-5.9840034747
20
-7.6869481654
30
0.0000000000
10
-5.9528646607
20
-7.6998365500
30
0.0000000000
10
-5.9233316257
20
-7.7161454368
30
0.0000000000
10
-5.8957981591
20
-7.7356804164
30
0.0000000000
10
-5.8706592996
20
-7.7581495269
30
0.0000000000
10
-5.8481890891
20
-7.7832887142
30
0.0000000000
10
-5.8286529183
20
-7.8108231261
30
0.0000000000
10
-5.8123432017
20
-7.8403566735
30
0.0000000000
10
-5.7994531593
20
-7.8714974827
30
0.0000000000
10
-5.7901243595
20
-7.9038881817
30
0.0000000000
10
-5.7844852446
20
-7.9371213999
30
0.0000000000
10
-5.7832296473
20
-7.9595609521
30
0.0000000000
10
-5.7832296473
20
-7.9707395926
30
0.0000000000
11
-6.0832296473
21
-7.6707281690
31
0.0000000000
11
-6.0497506672
21
-7.6726021632
31
0.0000000000
11
-6.0165099604
21
-7.6782417317
31
0.0000000000
11
-5.9841687057
21
-7.6875558417
31
0.0000000000
11
-5.9531958542
21
-7.7003754323
31
0.0000000000
11
-5.9236812578
21
-7.7166741935
31
0.0000000000
11
-5.8961470319
21
-7.7362096718
31
0.0000000000
11
-5.8711038901
21
-7.7585932034
31
0.0000000000
11
-5.8487185950
21
-7.7836373952
31
0.0000000000
11
-5.8291810765
21
-7.8111737360
31
0.0000000000
11
-5.8128821336
21
-7.8406876421
31
0.0000000000
11
-5.8000617541
21
-7.8716603727
31
0.0000000000
11
-5.7907448500
21
-7.9040089213
31
0.0000000000
11
-5.7851039350
21
-7.9372560882
31
0.0000000000
11
-5.7832296473
21
-7.9707395926
31
0.0000000000
0
SPLINE
5
31D
100
AcDbEntity
8
0
100
AcDbSpline
62
0
6
CONTINUOUS
70
0
71
3
72
127
73
123
74
121
42
0.0000001000
43
0.0000001000
44
0.0000000001
12
-0.0226632844
22
-1.3885718389
32
0.0000000000
13
0.0429942772
23
-1.3880764734
33
0.0000000000
40
0.0000000000
40
0.0000000000
40
0.0000000000
40
0.0000000000
40
0.0008538636
40
0.0035094319
40
0.0088413262
40
0.0142047136
40
0.0196038847
40
0.0305252936
40
0.0416391273
40
0.0529762426
40
0.0764281866
40
0.1010988742
40
0.1271690880
40
0.1407800200
40
0.1547961673
40
0.1619612858
40
0.1692333679
40
0.1766672171
40
0.1843830087
40
0.2006813144
40
0.2181477903
40
0.2566283678
40
0.2998997563
40
0.3233489389
40
0.3480134013
40
0.3738973476
40
0.3872978340
40
0.4010045129
40
0.4150177664
40
0.4293379520
40
0.4439654045
40
0.4589004384
40
0.4664833957
40
0.4741433575
40
0.4780022263
40
0.4818803590
40
0.4857777597
40
0.4896944324
40
0.4936303811
40
0.4956055853
40
0.4965949950
40
0.4975856100
40
0.4985774301
40
0.4995704556
40
0.4998189003
40
0.5000674203
40
0.5001917086
40
0.5002863498
40
0.5004459517
40
0.5007650575
40
0.5010840328
40
0.5017215920
40
0.5023586292
40
0.5036311380
40
0.5049015596
40
0.5061698943
40
0.5087003041
40
0.5112223700
40
0.5137360946
40
0.5187385295
40
0.5237076307
40
0.5286434194
40
0.5335459178
40
0.5432511274
40
0.5528234494
40
0.5622630763
40
0.5715702084
40
0.5897877791
40
0.6074779994
40
0.6246428205
40
0.6412843787
40
0.6574050181
40
0.6880933756
40
0.7026678322
40
0.7167334311
40
0.7302940559
40
0.7433840281
40
0.7562351287
40
0.7688997312
40
0.7936912193
40
0.8178090997
40
0.8296328503
40
0.8413086062
40
0.8528437241
40
0.8642458329
40
0.8755228316
40
0.8811170864
40
0.8866831478
40
0.8922220768
40
0.8977349500
40
0.9004819735
40
0.9018531901
40
0.9032228982
40
0.9039071923
40
0.9045911158
40
0.9052746709
40
0.9056163110
40
0.9059578598
40
0.9061286001
40
0.9062844473
40
0.9063882379
40
0.9064920208
40
0.9066995630
40
0.9069070743
40
0.9077368122
40
0.9085660666
40
0.9093948476
40
0.9110510267
40
0.9127054323
40
0.9143581447
40
0.9176587933
40
0.9209536414
40
0.9242433410
40
0.9275285475
40
0.9340879494
40
0.9406373001
40
0.9471819129
40
0.9537271127
40
0.9602782228
40
0.9734180668
40
0.9866448585
40
1.0000000000
40
1.0000000000
40
1.0000000000
40
1.0000000000
10
14.7407283910
20
-2.0109509741
30
0.0000000000
10
14.7407219406
20
-2.0113461911
30
0.0000000000
10
14.7406916295
20
-2.0129704949
30
0.0000000000
10
14.7405763339
20
-2.0170617579
30
0.0000000000
10
14.7402685967
20
-2.0232353064
30
0.0000000000
10
14.7396859850
20
-2.0306638506
30
0.0000000000
10
14.7386200760
20
-2.0406460253
30
0.0000000000
10
14.7367447396
20
-2.0532135303
30
0.0000000000
10
14.7336462041
20
-2.0683554587
30
0.0000000000
10
14.7283138575
20
-2.0889329146
30
0.0000000000
10
14.7194110914
20
-2.1150266376
30
0.0000000000
10
14.7054226175
20
-2.1464370346
30
0.0000000000
10
14.6911283624
20
-2.1726086310
30
0.0000000000
10
14.6780639740
20
-2.1937599823
30
0.0000000000
10
14.6691362717
20
-2.2071690949
30
0.0000000000
10
14.6615756376
20
-2.2179549258
30
0.0000000000
10
14.6556366707
20
-2.2261549868
30
0.0000000000
10
14.6494153435
20
-2.2344637952
30
0.0000000000
10
14.6404820789
20
-2.2459591121
30
0.0000000000
10
14.6283337553
20
-2.2608337503
30
0.0000000000
10
14.6064652509
20
-2.2861409788
30
0.0000000000
10
14.5751538383
20
-2.3197652087
30
0.0000000000
10
14.5406546874
20
-2.3541489574
30
0.0000000000
10
14.5100417134
20
-2.3833468041
30
0.0000000000
10
14.4849318188
20
-2.4066478116
30
0.0000000000
10
14.4629844156
20
-2.4265144153
30
0.0000000000
10
14.4446610885
20
-2.4428238451
30
0.0000000000
10
14.4303743219
20
-2.4554028549
30
0.0000000000
10
14.4157018866
20
-2.4681876824
30
0.0000000000
10
14.4006437641
20
-2.4811783256
30
0.0000000000
10
14.3851999568
20
-2.4943747822
30
0.0000000000
10
14.3720766756
20
-2.5054858000
30
0.0000000000
10
14.3613857350
20
-2.5144779796
30
0.0000000000
10
14.3546065420
20
-2.5201553239
30
0.0000000000
10
14.3491350368
20
-2.5247229801
30
0.0000000000
10
14.3449970339
20
-2.5281701547
30
0.0000000000
10
14.3408349232
20
-2.5316301917
30
0.0000000000
10
14.3366487046
20
-2.5351030908
30
0.0000000000
10
14.3331443960
20
-2.5380043354
30
0.0000000000
10
14.3306823435
20
-2.5400395951
30
0.0000000000
10
14.3292707251
20
-2.5412056320
30
0.0000000000
10
14.3282098567
20
-2.5420814931
30
0.0000000000
10
14.3271474920
20
-2.5429581709
30
0.0000000000
10
14.3263499222
20
-2.5436159469
30
0.0000000000
10
14.3258177841
20
-2.5440547712
30
0.0000000000
10
14.3255958290
20
-2.5442376428
30
0.0000000000
10
14.3254289668
20
-2.5443754155
30
0.0000000000
10
14.3252934513
20
-2.5444865023
30
0.0000000000
10
14.3250878141
20
-2.5446543014
30
0.0000000000
10
14.3248019228
20
-2.5448880066
30
0.0000000000
10
14.3243446739
20
-2.5452616744
30
0.0000000000
10
14.3237735850
20
-2.5457286211
30
0.0000000000
10
14.3228609425
20
-2.5464751724
30
0.0000000000
10
14.3217218940
20
-2.5474076450
30
0.0000000000
10
14.3203572698
20
-2.5485259087
30
0.0000000000
10
14.3185429955
20
-2.5500141578
30
0.0000000000
10
14.3162821418
20
-2.5518715680
30
0.0000000000
10
14.3135780688
20
-2.5540976640
30
0.0000000000
10
14.3099935137
20
-2.5570546984
30
0.0000000000
10
14.3055407592
20
-2.5607393742
30
0.0000000000
10
14.3002332941
20
-2.5651498233
30
0.0000000000
10
14.2949705890
20
-2.5695417295
30
0.0000000000
10
14.2880369336
20
-2.5753530973
30
0.0000000000
10
14.2794814550
20
-2.5825707198
30
0.0000000000
10
14.2693586139
20
-2.5911874706
30
0.0000000000
10
14.2594147998
20
-2.5997300479
30
0.0000000000
10
14.2464876046
20
-2.6109410327
30
0.0000000000
10
14.2307733203
20
-2.6247673703
30
0.0000000000
10
14.2124942944
20
-2.6411834804
30
0.0000000000
10
14.1949312087
20
-2.6573028699
30
0.0000000000
10
14.1780838955
20
-2.6731255455
30
0.0000000000
10
14.1569211858
20
-2.6934943861
30
0.0000000000
10
14.1368267898
20
-2.7135915315
30
0.0000000000
10
14.1178532744
20
-2.7334491681
30
0.0000000000
10
14.1045849664
20
-2.7477884737
30
0.0000000000
10
14.0920230537
20
-2.7618414547
30
0.0000000000
10
14.0800904807
20
-2.7756989341
30
0.0000000000
10
14.0687098100
20
-2.7894795807
30
0.0000000000
10
14.0542599872
20
-2.8077441439
30
0.0000000000
10
14.0372988795
20
-2.8306642024
30
0.0000000000
10
14.0216210015
20
-2.8540147073
30
0.0000000000
10
14.0100084583
20
-2.8727527970
30
0.0000000000
10
14.0018086916
20
-2.8867472607
30
0.0000000000
10
13.9940615381
20
-2.9007747139
30
0.0000000000
10
13.9867670067
20
-2.9148351668
30
0.0000000000
10
13.9810503770
20
-2.9266107687
30
0.0000000000
10
13.9767062601
20
-2.9360455246
30
0.0000000000
10
13.9735698425
20
-2.9431112623
30
0.0000000000
10
13.9705465763
20
-2.9501851800
30
0.0000000000
10
13.9681186963
20
-2.9560937050
30
0.0000000000
10
13.9664680423
20
-2.9602352954
30
0.0000000000
10
13.9655400703
20
-2.9626001994
30
0.0000000000
10
13.9649661460
20
-2.9640782700
30
0.0000000000
10
13.9645105485
20
-2.9652609774
30
0.0000000000
10
13.9641707072
20
-2.9661478924
30
0.0000000000
10
13.9638889538
20
-2.9668871987
30
0.0000000000
10
13.9636644078
20
-2.9674786962
30
0.0000000000
10
13.9635245075
20
-2.9678484084
30
0.0000000000
10
13.9634150985
20
-2.9681376993
30
0.0000000000
10
13.9633450217
20
-2.9683241990
30
0.0000000000
10
13.9632840685
20
-2.9684810026
30
0.0000000000
10
13.9632149685
20
-2.9686603114
30
0.0000000000
10
13.9631285962
20
-2.9688844201
30
0.0000000000
10
13.9629219629
20
-2.9694223285
30
0.0000000000
10
13.9626138198
20
-2.9702295461
30
0.0000000000
10
13.9622068748
20
-2.9713068770
30
0.0000000000
10
13.9616697189
20
-2.9727439679
30
0.0000000000
10
13.9610081903
20
-2.9745423431
30
0.0000000000
10
13.9602300292
20
-2.9767041542
30
0.0000000000
10
13.9592141666
20
-2.9795893884
30
0.0000000000
10
13.9579839197
20
-2.9832041194
30
0.0000000000
10
13.9565705094
20
-2.9875565146
30
0.0000000000
10
13.9552206831
20
-2.9919215810
30
0.0000000000
10
13.9535066733
20
-2.9977552125
30
0.0000000000
10
13.9515222187
20
-3.0050813061
30
0.0000000000
10
13.9493941185
20
-3.0139279693
30
0.0000000000
10
13.9475205140
20
-3.0228253073
30
0.0000000000
10
13.9459014271
20
-3.0317733570
30
0.0000000000
10
13.9440802754
20
-3.0437824792
30
0.0000000000
10
13.9424401133
20
-3.0589411111
30
0.0000000000
10
13.9414946226
20
-3.0773134714
30
0.0000000000
10
13.9415441900
20
-3.0896258495
30
0.0000000000
10
13.9417355882
20
-3.0958051687
30
0.0000000000
11
14.7407283910
21
-2.0109509741
31
0.0000000000
11
14.7407062760
21
-2.0121365747
31
0.0000000000
11
14.7406023973
21
-2.0158230111
31
0.0000000000
11
14.7402343699
21
-2.0232184860
31
0.0000000000
11
14.7396526492
21
-2.0306440972
31
0.0000000000
11
14.7388572351
21
-2.0380998447
31
0.0000000000
11
14.7366253268
21
-2.0531017484
31
0.0000000000
11
14.7335386452
21
-2.0682241972
31
0.0000000000
11
14.7295971903
21
-2.0834671910
31
0.0000000000
11
14.7191499603
21
-2.1143148140
31
0.0000000000
11
14.7052836369
21
-2.1456446172
31
0.0000000000
11
14.6879982200
21
-2.1774566007
31
0.0000000000
11
14.6780733515
21
-2.1935434101
31
0.0000000000
11
14.6672937096
21
-2.2097507646
31
0.0000000000
11
14.6615833487
21
-2.2178996462
31
0.0000000000
11
14.6556592944
21
-2.2260786641
31
0.0000000000
11
14.6494695117
21
-2.2343409501
31
0.0000000000
11
14.6428982491
21
-2.2428046954
31
0.0000000000
11
14.6285985406
21
-2.2603495760
31
0.0000000000
11
14.6127559213
21
-2.2787176432
31
0.0000000000
11
14.5764419501
21
-2.3179233371
31
0.0000000000
11
14.5339563355
21
-2.3604217772
31
0.0000000000
11
14.5103991619
21
-2.3829057771
31
0.0000000000
11
14.4852990774
21
-2.4062129635
31
0.0000000000
11
14.4586560821
21
-2.4303433365
31
0.0000000000
11
14.4447559929
21
-2.4427172179
31
0.0000000000
11
14.4304701759
21
-2.4552968960
31
0.0000000000
11
14.4157986313
21
-2.4680823707
31
0.0000000000
11
14.4007413589
21
-2.4810736421
31
0.0000000000
11
14.3852983588
21
-2.4942707100
31
0.0000000000
11
14.3694696310
21
-2.5076735747
31
0.0000000000
11
14.3614106192
21
-2.5144521807
31
0.0000000000
11
14.3532551755
21
-2.5212822359
31
0.0000000000
11
14.3491412917
21
-2.5247165570
31
0.0000000000
11
14.3450032998
21
-2.5281637403
31
0.0000000000
11
14.3408412000
21
-2.5316237859
31
0.0000000000
11
14.3366549923
21
-2.5350966938
31
0.0000000000
11
14.3324446765
21
-2.5385824640
31
0.0000000000
11
14.3303304781
21
-2.5403301725
31
0.0000000000
11
14.3292711188
21
-2.5412052326
31
0.0000000000
11
14.3282102528
21
-2.5420810965
31
0.0000000000
11
14.3271478800
21
-2.5429577644
31
0.0000000000
11
14.3260840004
21
-2.5438352361
31
0.0000000000
11
14.3258177951
21
-2.5440547297
31
0.0000000000
11
14.3255514956
21
-2.5442742735
31
0.0000000000
11
14.3254183105
21
-2.5443840642
31
0.0000000000
11
14.3253166843
21
-2.5444674102
31
0.0000000000
11
14.3251450355
21
-2.5446076369
31
0.0000000000
11
14.3248018690
21
-2.5448880362
31
0.0000000000
11
14.3244588773
21
-2.5451683629
31
0.0000000000
11
14.3237734185
21
-2.5457287992
31
0.0000000000
11
14.3230886591
21
-2.5462889457
31
0.0000000000
11
14.3217212386
21
-2.5474083696
31
0.0000000000
11
14.3203566156
21
-2.5485266345
31
0.0000000000
11
14.3189947901
21
-2.5496437404
31
0.0000000000
11
14.3162795320
21
-2.5518744755
31
0.0000000000
11
14.3135754641
21
-2.5541005749
31
0.0000000000
11
14.3108825866
21
-2.5563220384
31
0.0000000000
11
14.3055304023
21
-2.5607510582
31
0.0000000000
11
14.3002229793
21
-2.5651615350
31
0.0000000000
11
14.2949603174
21
-2.5695534687
31
0.0000000000
11
14.2897424167
21
-2.5739268594
31
0.0000000000
11
14.2794408988
21
-2.5826180115
31
0.0000000000
11
14.2693184256
21
-2.5912349913
31
0.0000000000
11
14.2593749971
21
-2.5997777989
31
0.0000000000
11
14.2496106134
21
-2.6082464343
31
0.0000000000
11
14.2306189799
21
-2.6249611883
31
0.0000000000
11
14.2123435253
21
-2.6413792532
31
0.0000000000
11
14.1947842495
21
-2.6575006292
31
0.0000000000
11
14.1779411525
21
-2.6733253162
31
0.0000000000
11
14.1618142344
21
-2.6888533141
31
0.0000000000
11
14.1317089345
21
-2.7190192431
31
0.0000000000
11
14.1177305528
21
-2.7336571741
31
0.0000000000
11
14.1044683499
21
-2.7479984161
31
0.0000000000
11
14.0919223258
21
-2.7620429691
31
0.0000000000
11
14.0800664408
21
-2.7758233668
31
0.0000000000
11
14.0687037699
21
-2.7895856455
31
0.0000000000
11
14.0577936261
21
-2.8033806392
31
0.0000000000
11
14.0373309197
21
-2.8310687712
31
0.0000000000
11
14.0186783215
21
-2.8588877630
31
0.0000000000
11
14.0100308130
21
-2.8728463313
31
0.0000000000
11
14.0018358316
21
-2.8868376145
31
0.0000000000
11
13.9940933772
21
-2.9008616126
31
0.0000000000
11
13.9868034499
21
-2.9149183257
31
0.0000000000
11
13.9799660497
21
-2.9290077537
31
0.0000000000
11
13.9767170472
21
-2.9360647358
31
0.0000000000
11
13.9735811765
21
-2.9431298966
31
0.0000000000
11
13.9705584375
21
-2.9502032361
31
0.0000000000
11
13.9676488304
21
-2.9572847544
31
0.0000000000
11
13.9662364512
21
-2.9608285806
31
0.0000000000
11
13.9655408677
21
-2.9626012604
31
0.0000000000
11
13.9648523550
21
-2.9643744514
31
0.0000000000
11
13.9645107501
21
-2.9652612386
31
0.0000000000
11
13.9641709130
21
-2.9661481536
31
0.0000000000
11
13.9638328435
21
-2.9670351964
31
0.0000000000
11
13.9636644716
21
-2.9674787657
31
0.0000000000
11
13.9634965417
21
-2.9679223670
31
0.0000000000
11
13.9634127424
21
-2.9681441796
31
0.0000000000
11
13.9633360876
21
-2.9683465819
31
0.0000000000
11
13.9632841327
21
-2.9684810310
31
0.0000000000
11
13.9632322398
21
-2.9686154925
31
0.0000000000
11
13.9631286403
21
-2.9688844525
31
0.0000000000
11
13.9630252891
21
-2.9691534618
31
0.0000000000
11
13.9626143679
21
-2.9702299936
31
0.0000000000
11
13.9622074201
21
-2.9713073160
31
0.0000000000
11
13.9618044459
21
-2.9723854291
31
0.0000000000
11
13.9610104181
21
-2.9745440273
31
0.0000000000
11
13.9602322842
21
-2.9767057883
31
0.0000000000
11
13.9594700445
21
-2.9788707119
31
0.0000000000
11
13.9579932471
21
-2.9832100475
31
0.0000000000
11
13.9565800260
21
-2.9875620339
31
0.0000000000
11
13.9552303810
21
-2.9919266712
31
0.0000000000
11
13.9539443123
21
-2.9963039594
31
0.0000000000
11
13.9515629035
21
-3.0050964884
31
0.0000000000
11
13.9494357995
21
-3.0139396210
31
0.0000000000
11
13.9475630004
21
-3.0228333572
31
0.0000000000
11
13.9459445061
21
-3.0317776969
31
0.0000000000
11
13.9445803167
21
-3.0407726401
31
0.0000000000
11
13.9426148525
21
-3.0589143373
31
0.0000000000
11
13.9416666076
21
-3.0772584488
31
0.0000000000
11
13.9417355882
21
-3.0958051687
31
0.0000000000
0
SPLINE
5
31E
100
AcDbEntity
8
0
100
AcDbSpline
62
0
6
CONTINUOUS
70
0
71
3
72
14
73
10
74
8
42
0.0000001000
43
0.0000001000
44
0.0000000001
12
-0.2723606748
22
-0.2379887089
32
0.0000000000
13
-0.0330716797
23
-0.3601157857
33
0.0000000000
40
0.0000000000
40
0.0000000000
40
0.0000000000
40
0.0000000000
40
0.0148970758
40
0.0799734894
40
0.1449514725
40
0.2755394419
40
0.4086691499
40
0.6893459119
40
1.0000000000
40
1.0000000000
40
1.0000000000
40
1.0000000000
10
14.1231170055
20
-1.7062145269
30
0.0000000000
10
14.1217645463
20
-1.7073963055
30
0.0000000000
10
14.1145476627
20
-1.7137905876
30
0.0000000000
10
14.1019026285
20
-1.7258657649
30
0.0000000000
10
14.0805541059
20
-1.7489401090
30
0.0000000000
10
14.0563972473
20
-1.7804854452
30
0.0000000000
10
14.0230078091
20
-1.8371417689
30
0.0000000000
10
13.9922561780
20
-1.9196486240
30
0.0000000000
10
13.9806260865
20
-1.9903647002
30
0.0000000000
10
13.9772014690
20
-2.0276551805
30
0.0000000000
11
14.1231170055
21
-1.7062145269
31
0.0000000000
11
14.1190842315
21
-1.7097877935
31
0.0000000000
11
14.1020675688
21
-1.7260440661
31
0.0000000000
11
14.0861097034
21
-1.7432924173
31
0.0000000000
11
14.0573703644
21
-1.7807653557
31
0.0000000000
11
14.0328662146
21
-1.8222066086
31
0.0000000000
11
13.9965634825
21
-1.9169940581
31
0.0000000000
11
13.9772014690
21
-2.0276551805
31
0.0000000000
0
SPLINE
5
31F
100
AcDbEntity
8
0
100
AcDbSpline
62
0
6
CONTINUOUS
70
0
71
3
72
45
73
41
74
39
42
0.0000001000
43
0.0000001000
44
0.0000000001
12
-0.5223438780
22
-0.1332691732
32
0.0000000000
13
-0.1068721656
23
0.5281913804
33
0.0000000000
40
0.0000000000
40
0.0000000000
40
0.0000000000
40
0.0000000000
40
0.0157071095
40
0.0653987485
40
0.0907160243
40
0.1035108195
40
0.1164029068
40
0.1293973671
40
0.1359346185
40
0.1424993134
40
0.1490920531
40
0.1507446955
40
0.1523991371
40
0.1540183151
40
0.1547168362
40
0.1554149821
40
0.1582038288
40
0.1609867383
40
0.1665349405
40
0.1720600200
40
0.1775624008
40
0.1885006787
40
0.1993533769
40
0.2101240748
40
0.2314332523
40
0.2524593747
40
0.2732339373
40
0.2937895918
40
0.3343711575
40
0.3744923701
40
0.4144429088
40
0.4545161538
40
0.4950028183
40
0.5154940432
40
0.5361957243
40
0.5785338082
40
0.6225023013
40
0.6684543678
40
0.7674438684
40
1.0000000000
40
1.0000000000
40
1.0000000000
40
1.0000000000
10
13.3673529002
20
-2.9586612921
30
0.0000000000
10
13.3646180627
20
-2.9593590499
30
0.0000000000
10
13.3531898595
20
-2.9621027940
30
0.0000000000
10
13.3371291750
20
-2.9649828758
30
0.0000000000
10
13.3214575598
20
-2.9667952954
30
0.0000000000
10
13.3123279196
20
-2.9675713344
30
0.0000000000
10
13.3053936544
20
-2.9680212340
30
0.0000000000
10
13.2995748322
20
-2.9682837880
30
0.0000000000
10
13.2948892241
20
-2.9684271337
30
0.0000000000
10
13.2913521579
20
-2.9685013256
30
0.0000000000
10
13.2886919287
20
-2.9685317636
30
0.0000000000
10
13.2869136335
20
-2.9685416289
30
0.0000000000
10
13.2860287244
20
-2.9685444462
30
0.0000000000
10
13.2853152018
20
-2.9685450773
30
0.0000000000
10
13.2847734606
20
-2.9685446260
30
0.0000000000
10
13.2840216112
20
-2.9685431878
30
0.0000000000
10
13.2828953459
20
-2.9685380203
30
0.0000000000
10
13.2808979235
20
-2.9685202514
30
0.0000000000
10
13.2784091733
20
-2.9684819823
30
0.0000000000
10
13.2754324850
20
-2.9684102349
30
0.0000000000
10
13.2714888352
20
-2.9682804672
30
0.0000000000
10
13.2665910291
20
-2.9680541843
30
0.0000000000
10
13.2607536352
20
-2.9676789677
30
0.0000000000
10
13.2530674623
20
-2.9670434893
30
0.0000000000
10
13.2435834254
20
-2.9659935362
30
0.0000000000
10
13.2323689303
20
-2.9643160871
30
0.0000000000
10
13.2213614053
20
-2.9622254818
30
0.0000000000
10
13.2070244182
20
-2.9589020921
30
0.0000000000
10
13.1895673649
20
-2.9537128321
30
0.0000000000
10
13.1693639241
20
-2.9457969862
30
0.0000000000
10
13.1499939239
20
-2.9362186856
30
0.0000000000
10
13.1314629235
20
-2.9249791672
30
0.0000000000
10
13.1167748092
20
-2.9142741555
30
0.0000000000
10
13.1054739078
20
-2.9049118479
30
0.0000000000
10
13.0942929519
20
-2.8948990107
30
0.0000000000
10
13.0809465627
20
-2.8810191676
30
0.0000000000
10
13.0661368824
20
-2.8624025235
30
0.0000000000
10
13.0473436791
20
-2.8341020674
30
0.0000000000
10
13.0167830095
20
-2.7733064903
30
0.0000000000
10
13.0007850879
20
-2.7153308639
30
0.0000000000
10
12.9925004954
20
-2.6743861491
30
0.0000000000
11
13.3673529002
21
-2.9586612921
31
0.0000000000
11
13.3591198721
21
-2.9606385038
31
0.0000000000
11
13.3327664103
21
-2.9653910967
31
0.0000000000
11
13.3192138565
21
-2.9669625185
31
0.0000000000
11
13.3123436239
21
-2.9675470108
31
0.0000000000
11
13.3054107541
21
-2.9679973573
31
0.0000000000
11
13.2984152471
21
-2.9683135580
31
0.0000000000
11
13.2948940047
21
-2.9684213537
31
0.0000000000
11
13.2913571030
21
-2.9684956130
31
0.0000000000
11
13.2878045420
21
-2.9685363358
31
0.0000000000
11
13.2869139550
21
-2.9685412764
31
0.0000000000
11
13.2860223893
21
-2.9685441210
31
0.0000000000
11
13.2851498227
21
-2.9685448746
31
0.0000000000
11
13.2847733933
21
-2.9685445582
31
0.0000000000
11
13.2843971667
21
-2.9685438390
31
0.0000000000
11
13.2828942870
21
-2.9685369353
31
0.0000000000
11
13.2813946504
21
-2.9685235882
31
0.0000000000
11
13.2784051064
21
-2.9684775635
31
0.0000000000
11
13.2754285345
21
-2.9684057649
31
0.0000000000
11
13.2724649349
21
-2.9683081926
31
0.0000000000
11
13.2665766522
21
-2.9680357264
31
0.0000000000
11
13.2607402584
21
-2.9676601649
31
0.0000000000
11
13.2549557535
21
-2.9671815081
31
0.0000000000
11
13.2435424102
21
-2.9659149085
31
0.0000000000
11
13.2323366223
21
-2.9642359277
31
0.0000000000
11
13.2213383898
21
-2.9621445657
31
0.0000000000
11
13.2105477127
21
-2.9596408224
31
0.0000000000
11
13.1895890247
21
-2.9533961920
31
0.0000000000
11
13.1694605583
21
-2.9455020366
31
0.0000000000
11
13.1501623136
21
-2.9359583562
31
0.0000000000
11
13.1316942905
21
-2.9247651508
31
0.0000000000
11
13.1140564890
21
-2.9119224204
31
0.0000000000
11
13.1055489214
21
-2.9048824833
31
0.0000000000
11
13.0972511454
21
-2.8974256765
31
0.0000000000
11
13.0814146739
21
-2.8810011205
31
0.0000000000
11
13.0666275810
21
-2.8624871663
31
0.0000000000
11
13.0528898668
21
-2.8418838138
31
0.0000000000
11
13.0285625744
21
-2.7944089145
31
0.0000000000
11
12.9925004954
21
-2.6743861491
31
0.0000000000
0
SPLINE
5
320
100
AcDbEntity
8
0
100
AcDbSpline
62
0
6
CONTINUOUS
70
0
71
3
72
22
73
18
74
16
42
0.0000001000
43
0.0000001000
44
0.0000000001
12
-0.0568211835
22
0.4327318369
32
0.0000000000
13
-0.4252459920
23
0.0981740011
33
0.0000000000
40
0.0000000000
40
0.0000000000
40
0.0000000000
40
0.0000000000
40
0.0163337875
40
0.0447901758
40
0.1006647028
40
0.1553244098
40
0.2089749695
40
0.2618338362
40
0.3141283410
40
0.3660932224
40
0.4179676937
40
0.4439375078
40
0.4698004232
40
0.5722130449
40
0.6745690158
40
0.7788383210
40
1.0000000000
40
1.0000000000
40
1.0000000000
40
1.0000000000
10
13.7831746071
20
-2.5864417114
30
0.0000000000
10
13.7828652387
20
-2.5840856614
30
0.0000000000
10
13.7819665870
20
-2.5776315761
30
0.0000000000
10
13.7796304923
20
-2.5631731526
30
0.0000000000
10
13.7755528978
20
-2.5433557914
30
0.0000000000
10
13.7693381826
20
-2.5202780941
30
0.0000000000
10
13.7618309723
20
-2.4980491614
30
0.0000000000
10
13.7530308100
20
-2.4766706341
30
0.0000000000
10
13.7429373175
20
-2.4561436061
30
0.0000000000
10
13.7315509905
20
-2.4364699509
30
0.0000000000
10
13.7209905361
20
-2.4207955186
30
0.0000000000
10
13.7119316527
20
-2.4087274422
30
0.0000000000
10
13.6978625753
20
-2.3912441928
30
0.0000000000
10
13.6745911192
20
-2.3669064338
30
0.0000000000
10
13.6391463776
20
-2.3390093449
30
0.0000000000
10
13.5852818599
20
-2.3075242144
30
0.0000000000
10
13.5398986831
20
-2.2920527376
30
0.0000000000
10
13.5085493106
20
-2.2848152953
30
0.0000000000
11
13.7831746071
21
-2.5864417114
31
0.0000000000
11
13.7821910880
21
-2.5793811730
31
0.0000000000
11
13.7802079101
21
-2.5671212793
31
0.0000000000
11
13.7752767648
21
-2.5432396713
31
0.0000000000
11
13.7690592339
21
-2.5202089693
31
0.0000000000
11
13.7615553172
21
-2.4980291734
31
0.0000000000
11
13.7527650148
21
-2.4767002835
31
0.0000000000
11
13.7426883267
21
-2.4562222996
31
0.0000000000
11
13.7313252529
21
-2.4365952217
31
0.0000000000
11
13.7186757933
21
-2.4178190498
31
0.0000000000
11
13.7118720671
21
-2.4087542955
31
0.0000000000
11
13.7047943193
21
-2.3999616525
31
0.0000000000
11
13.6738790398
21
-2.3676818666
31
0.0000000000
11
13.6387968992
21
-2.3400273379
31
0.0000000000
11
13.5995478974
21
-2.3169980664
31
0.0000000000
11
13.5085493106
21
-2.2848152953
31
0.0000000000
0
SPLINE
5
321
100
AcDbEntity
8
0
100
AcDbSpline
62
0
6
CONTINUOUS
70
0
71
3
72
19
73
15
74
13
42
0.0000001000
43
0.0000001000
44
0.0000000001
12
-0.3938510421
22
-0.1893095548
32
0.0000000000
13
-0.0782293570
23
-0.4298074462
33
0.0000000000
40
0.0000000000
40
0.0000000000
40
0.0000000000
40
0.0000000000
40
0.0207710818
40
0.0978579462
40
0.1751632161
40
0.2140711830
40
0.2532121143
40
0.2923342364
40
0.3313906603
40
0.4095627699
40
0.4882904107
40
0.6494003190
40
0.8188279985
40
1.0000000000
40
1.0000000000
40
1.0000000000
40
1.0000000000
10
13.0689045282
20
-1.6398066970
30
0.0000000000
10
13.0661776241
20
-1.6411174184
30
0.0000000000
10
13.0533991916
20
-1.6474353590
30
0.0000000000
10
13.0311354580
20
-1.6599435545
30
0.0000000000
10
13.0077975321
20
-1.6757446701
30
0.0000000000
10
12.9898763034
20
-1.6895599631
30
0.0000000000
10
12.9767891854
20
-1.7005158878
30
0.0000000000
10
12.9641495943
20
-1.7120178092
30
0.0000000000
10
12.9479622276
20
-1.7280367117
30
0.0000000000
10
12.9289569366
20
-1.7493728262
30
0.0000000000
10
12.9011105185
20
-1.7864303431
30
0.0000000000
10
12.8713269913
20
-1.8383722132
30
0.0000000000
10
12.8443573472
20
-1.9080904957
30
0.0000000000
10
12.8324125749
20
-1.9578877923
30
0.0000000000
10
12.8276882518
20
-1.9838441507
30
0.0000000000
11
13.0689045282
21
-1.6398066970
31
0.0000000000
11
13.0607683249
21
-1.6438296635
31
0.0000000000
11
13.0314083395
21
-1.6603257473
31
0.0000000000
11
13.0034381665
21
-1.6792528329
31
0.0000000000
11
12.9899742596
21
-1.6896280014
31
0.0000000000
11
12.9768645227
21
-1.7006064319
31
0.0000000000
11
12.9642248212
21
-1.7121106977
31
0.0000000000
11
12.9520971354
21
-1.7241127460
31
0.0000000000
11
12.9293778108
21
-1.7496101895
31
0.0000000000
11
12.9087065489
21
-1.7770987624
31
0.0000000000
11
12.8735082132
21
-1.8380492965
31
0.0000000000
11
12.8465021283
21
-1.9069643482
31
0.0000000000
11
12.8276882518
21
-1.9838441507
31
0.0000000000
0
SPLINE
5
322
100
AcDbEntity
8
0
100
AcDbSpline
62
0
6
CONTINUOUS
70
0
71
3
72
69
73
65
74
63
42
0.0000001000
43
0.0000001000
44
0.0000000001
12
-0.0697811986
22
-0.4185233986
32
0.0000000000
13
-0.4217215890
23
0.0463596150
33
0.0000000000
40
0.0000000000
40
0.0000000000
40
0.0000000000
40
0.0000000000
40
0.0050019928
40
0.0342756632
40
0.0629359586
40
0.0910629256
40
0.1460370564
40
0.1999429091
40
0.2535480468
40
0.3076328375
40
0.3351056395
40
0.3629796159
40
0.3913417610
40
0.4201446860
40
0.4773967111
40
0.5341849658
40
0.5907463513
40
0.6473206188
40
0.7041473565
40
0.7327331185
40
0.7614701942
40
0.7903871711
40
0.8195121071
40
0.8488724640
40
0.8636497402
40
0.8784958645
40
0.8859458091
40
0.8934141769
40
0.9009013654
40
0.9084077694
40
0.9159337807
40
0.9197042666
40
0.9234797998
40
0.9253694749
40
0.9272604298
40
0.9282063892
40
0.9291526708
40
0.9296259327
40
0.9298625939
40
0.9301583983
40
0.9304312774
40
0.9307964928
40
0.9311632821
40
0.9315316457
40
0.9319015842
40
0.9322730981
40
0.9330208540
40
0.9337749175
40
0.9345352924
40
0.9353019825
40
0.9368543224
40
0.9384319666
40
0.9400349422
40
0.9416632751
40
0.9433169900
40
0.9467006537
40
0.9501861157
40
0.9537735371
40
0.9574630660
40
0.9651489493
40
0.9732447657
40
0.9817513404
40
0.9906693845
40
1.0000000000
40
1.0000000000
40
1.0000000000
40
1.0000000000
10
13.5227503949
20
-2.0273972884
30
0.0000000000
10
13.5226340466
20
-2.0280951054
30
0.0000000000
10
13.5218170110
20
-2.0328735359
30
0.0000000000
10
13.5200653891
20
-2.0416037503
30
0.0000000000
10
13.5170548082
20
-2.0534025467
30
0.0000000000
10
13.5123259583
20
-2.0684903695
30
0.0000000000
10
13.5049956284
20
-2.0864756886
30
0.0000000000
10
13.4938460772
20
-2.1066307103
30
0.0000000000
10
13.4804122546
20
-2.1251868813
30
0.0000000000
10
13.4673827916
20
-2.1392395814
30
0.0000000000
10
13.4559074669
20
-2.1496333920
30
0.0000000000
10
13.4466916791
20
-2.1570739530
30
0.0000000000
10
13.4369283595
20
-2.1641070095
30
0.0000000000
10
13.4233125885
20
-2.1728568936
30
0.0000000000
10
13.4058426390
20
-2.1830260715
30
0.0000000000
10
13.3842278352
20
-2.1937838665
30
0.0000000000
10
13.3620507582
20
-2.2030826975
30
0.0000000000
10
13.3393085428
20
-2.2109144228
30
0.0000000000
10
13.3199237369
20
-2.2162096571
30
0.0000000000
10
13.3041628591
20
-2.2197119756
30
0.0000000000
10
13.2921771641
20
-2.2219790686
30
0.0000000000
10
13.2800510858
20
-2.2238809159
30
0.0000000000
10
13.2677845691
20
-2.2254176046
30
0.0000000000
10
13.2574678990
20
-2.2263917547
30
0.0000000000
10
13.2491475799
20
-2.2269895396
30
0.0000000000
10
13.2439129023
20
-2.2272876081
30
0.0000000000
10
13.2397079926
20
-2.2274806026
30
0.0000000000
10
13.2365417154
20
-2.2276027222
30
0.0000000000
10
13.2333666548
20
-2.2277020401
30
0.0000000000
10
13.2301828090
20
-2.2277785565
30
0.0000000000
10
13.2275240409
20
-2.2278232894
30
0.0000000000
10
13.2253926801
20
-2.2278476973
30
0.0000000000
10
13.2240583159
20
-2.2278582087
30
0.0000000000
10
13.2229897321
20
-2.2278637705
30
0.0000000000
10
13.2223212980
20
-2.2278660600
30
0.0000000000
10
13.2217862769
20
-2.2278671793
30
0.0000000000
10
13.2214517461
20
-2.2278675823
30
0.0000000000
10
13.2212175245
20
-2.2278677081
30
0.0000000000
10
13.2210752938
20
-2.2278677380
30
0.0000000000
10
13.2209614014
20
-2.2278677307
30
0.0000000000
10
13.2208293288
20
-2.2278675803
30
0.0000000000
10
13.2206872178
20
-2.2278672716
30
0.0000000000
10
13.2205316038
20
-2.2278667447
30
0.0000000000
10
13.2203753226
20
-2.2278660293
30
0.0000000000
10
13.2202183742
20
-2.2278651250
30
0.0000000000
10
13.2200077743
20
-2.2278636642
30
0.0000000000
10
13.2197428560
20
-2.2278613632
30
0.0000000000
10
13.2194229539
20
-2.2278578523
30
0.0000000000
10
13.2191003831
20
-2.2278535858
30
0.0000000000
10
13.2186649431
20
-2.2278468623
30
0.0000000000
10
13.2181139674
20
-2.2278365474
30
0.0000000000
10
13.2174448031
20
-2.2278211982
30
0.0000000000
10
13.2167649640
20
-2.2278028275
30
0.0000000000
10
13.2160744501
20
-2.2277814354
30
0.0000000000
10
13.2151323495
20
-2.2277486332
30
0.0000000000
10
13.2139280164
20
-2.2276999279
30
0.0000000000
10
13.2124508953
20
-2.2276298378
30
0.0000000000
10
13.2109310764
20
-2.2275476677
30
0.0000000000
10
13.2088188502
20
-2.2274202521
30
0.0000000000
10
13.2060717427
20
-2.2272298399
30
0.0000000000
10
13.2026477482
20
-2.2269560968
30
0.0000000000
10
13.1990529741
20
-2.2266340771
30
0.0000000000
10
13.1952873531
20
-2.2262637685
30
0.0000000000
10
13.1927210558
20
-2.2259908645
30
0.0000000000
10
13.1914094151
20
-2.2258466766
30
0.0000000000
11
13.5227503949
21
-2.0273972884
31
0.0000000000
11
13.5223926637
21
-2.0294892707
31
0.0000000000
11
13.5199425541
21
-2.0416649069
31
0.0000000000
11
13.5169301242
21
-2.0534453201
31
0.0000000000
11
13.5133553740
21
-2.0648305103
31
0.0000000000
11
13.5045189130
21
-2.0864152217
31
0.0000000000
11
13.4934331709
21
-2.1064190411
31
0.0000000000
11
13.4800981478
21
-2.1248419685
31
0.0000000000
11
13.4645138438
21
-2.1416840039
31
0.0000000000
11
13.4558782114
21
-2.1495121872
31
0.0000000000
11
13.4466802587
21
-2.1569451474
31
0.0000000000
11
13.4369199859
21
-2.1639828846
31
0.0000000000
11
13.4266662482
21
-2.1706303647
31
0.0000000000
11
13.4056595698
21
-2.1828253194
31
0.0000000000
11
13.3840905705
21
-2.1935610487
31
0.0000000000
11
13.3619592503
21
-2.2028375526
31
0.0000000000
11
13.3392656091
21
-2.2106548312
31
0.0000000000
11
13.3160096470
21
-2.2170128845
31
0.0000000000
11
13.3041707957
21
-2.2196447016
31
0.0000000000
11
13.2921913641
21
-2.2219117124
31
0.0000000000
11
13.2800713522
21
-2.2238139169
31
0.0000000000
11
13.2678107602
21
-2.2253513150
31
0.0000000000
11
13.2554095879
21
-2.2265239068
31
0.0000000000
11
13.2491562841
21
-2.2269734003
31
0.0000000000
11
13.2428678353
21
-2.2273316923
31
0.0000000000
11
13.2397104315
21
-2.2274766377
31
0.0000000000
11
13.2365442415
21
-2.2275987826
31
0.0000000000
11
13.2333692652
21
-2.2276981272
31
0.0000000000
11
13.2301855026
21
-2.2277746714
31
0.0000000000
11
13.2269929537
21
-2.2278284152
31
0.0000000000
11
13.2253933845
21
-2.2278467369
31
0.0000000000
11
13.2237916186
21
-2.2278593586
31
0.0000000000
11
13.2229899120
21
-2.2278635319
31
0.0000000000
11
13.2221876562
21
-2.2278662801
31
0.0000000000
11
13.2217863224
21
-2.2278671199
31
0.0000000000
11
13.2213848513
21
-2.2278676034
31
0.0000000000
11
13.2211840643
21
-2.2278677115
31
0.0000000000
11
13.2210836579
21
-2.2278677322
31
0.0000000000
11
13.2209581593
21
-2.2278677071
31
0.0000000000
11
13.2208423871
21
-2.2278675781
31
0.0000000000
11
13.2206874404
21
-2.2278672408
31
0.0000000000
11
13.2205318265
21
-2.2278667146
31
0.0000000000
11
13.2203755454
21
-2.2278659996
31
0.0000000000
11
13.2202185972
21
-2.2278650956
31
0.0000000000
11
13.2200609817
21
-2.2278640028
31
0.0000000000
11
13.2197437492
21
-2.2278612504
31
0.0000000000
11
13.2194238479
21
-2.2278577426
31
0.0000000000
11
13.2191012778
21
-2.2278534791
31
0.0000000000
11
13.2187760390
21
-2.2278484601
31
0.0000000000
11
13.2181175550
21
-2.2278361556
31
0.0000000000
11
13.2174483959
21
-2.2278208288
31
0.0000000000
11
13.2167685617
21
-2.2278024799
31
0.0000000000
11
13.2160780524
21
-2.2277811088
31
0.0000000000
11
13.2153768681
21
-2.2277567155
31
0.0000000000
11
13.2139424741
21
-2.2276988623
31
0.0000000000
11
13.2124653797
21
-2.2276289205
31
0.0000000000
11
13.2109455850
21
-2.2275468900
31
0.0000000000
11
13.2093830900
21
-2.2274527707
31
0.0000000000
11
13.2061299988
21
-2.2272282661
31
0.0000000000
11
13.2027061061
21
-2.2269554066
31
0.0000000000
11
13.1991114120
21
-2.2266341923
31
0.0000000000
11
13.1953459165
21
-2.2262646231
31
0.0000000000
11
13.1914094151
21
-2.2258466766
31
0.0000000000
0
SPLINE
5
323
100
AcDbEntity
8
0
100
AcDbSpline
62
0
6
CONTINUOUS
70
0
71
3
72
65
73
61
74
59
42
0.0000001000
43
0.0000001000
44
0.0000000001
12
-0.4050143905
22
-0.6339155242
32
0.0000000000
13
-0.1133386452
23
0.7436097753
33
0.0000000000
40
0.0000000000
40
0.0000000000
40
0.0000000000
40
0.0000000000
40
0.0060105698
40
0.0282998279
40
0.0506035716
40
0.0617806949
40
0.0729840336
40
0.0841457596
40
0.0951969670
40
0.1169910749
40
0.1384193499
40
0.1595359400
40
0.2010475628
40
0.2420154531
40
0.2624575941
40
0.2829497883
40
0.3035539261
40
0.3243308976
40
0.3453400902
40
0.3559506789
40
0.3666406728
40
0.3774168881
40
0.3828395168
40
0.3882861818
40
0.3937576884
40
0.3992548309
40
0.4020132730
40
0.4047784168
40
0.4075503585
40
0.4089389100
40
0.4096338359
40
0.4103291970
40
0.4109057698
40
0.4114820020
40
0.4126334477
40
0.4149322890
40
0.4172257806
40
0.4195139803
40
0.4240747240
40
0.4286150069
40
0.4376359895
40
0.4465809526
40
0.4554539025
40
0.4642589437
40
0.4816811085
40
0.4988831766
40
0.5159011856
40
0.5495252194
40
0.5828706751
40
0.6162535716
40
0.6499888756
40
0.6670892641
40
0.6843908939
40
0.7018417400
40
0.7193996590
40
0.7550161229
40
0.7916202581
40
0.8295511747
40
0.9105146196
40
1.0000000000
40
1.0000000000
40
1.0000000000
40
1.0000000000
10
12.3862868468
20
-2.8272363956
30
0.0000000000
10
12.3854753910
20
-2.8285064601
30
0.0000000000
10
12.3816129508
20
-2.8344595971
30
0.0000000000
10
12.3743561960
20
-2.8448746427
30
0.0000000000
10
12.3657701183
20
-2.8559201829
30
0.0000000000
10
12.3585552756
20
-2.8644930810
30
0.0000000000
10
12.3529725464
20
-2.8707842744
30
0.0000000000
10
12.3472605708
20
-2.8769150582
30
0.0000000000
10
12.3395544696
20
-2.8848133415
30
0.0000000000
10
12.3297052940
20
-2.8942118340
30
0.0000000000
10
12.3174926755
20
-2.9047624854
30
0.0000000000
10
12.3008557239
20
-2.9177130970
30
0.0000000000
10
12.2791282456
20
-2.9320432688
30
0.0000000000
10
12.2561119043
20
-2.9438369396
30
0.0000000000
10
12.2371127478
20
-2.9516537001
30
0.0000000000
10
12.2225338036
20
-2.9567311381
30
0.0000000000
10
12.2076184525
20
-2.9610255551
30
0.0000000000
10
12.1923669307
20
-2.9645373625
30
0.0000000000
10
12.1794198172
20
-2.9668042522
30
0.0000000000
10
12.1689065790
20
-2.9682292304
30
0.0000000000
10
12.1609109744
20
-2.9691064324
30
0.0000000000
10
12.1541922201
20
-2.9696735803
30
0.0000000000
10
12.1487766106
20
-2.9700302786
30
0.0000000000
10
12.1446852086
20
-2.9702496072
30
0.0000000000
10
12.1405727952
20
-2.9704201677
30
0.0000000000
10
12.1371323710
20
-2.9705215414
30
0.0000000000
10
12.1343696868
20
-2.9705783421
30
0.0000000000
10
12.1322899389
20
-2.9706088032
30
0.0000000000
10
12.1305535126
20
-2.9706240190
30
0.0000000000
10
12.1293361112
20
-2.9706293454
30
0.0000000000
10
12.1286393675
20
-2.9706308677
30
0.0000000000
10
12.1281462117
20
-2.9706312287
30
0.0000000000
10
12.1276828164
20
-2.9706309427
30
0.0000000000
10
12.1271050667
20
-2.9706298643
30
0.0000000000
10
12.1260954935
20
-2.9706260952
30
0.0000000000
10
12.1246553753
20
-2.9706153261
30
0.0000000000
10
12.1229303292
20
-2.9705937688
30
0.0000000000
10
12.1206383685
20
-2.9705535690
30
0.0000000000
10
12.1177835640
20
-2.9704818228
30
0.0000000000
10
12.1132425635
20
-2.9703212374
30
0.0000000000
10
12.1076063511
20
-2.9700347506
30
0.0000000000
10
12.1008938115
20
-2.9695521291
30
0.0000000000
10
12.0942469461
20
-2.9689314116
30
0.0000000000
10
12.0855035564
20
-2.9679233040
30
0.0000000000
10
12.0747291451
20
-2.9663203818
30
0.0000000000
10
12.0620164411
20
-2.9638365555
30
0.0000000000
10
12.0454854358
20
-2.9598041696
30
0.0000000000
10
12.0253970782
20
-2.9533706140
30
0.0000000000
10
12.0022567215
20
-2.9433894189
30
0.0000000000
10
11.9801796195
20
-2.9311790074
30
0.0000000000
10
11.9627460171
20
-2.9192022291
30
0.0000000000
10
11.9493755632
20
-2.9085597581
30
0.0000000000
10
11.9395717324
20
-2.9000134843
30
0.0000000000
10
11.9301134809
20
-2.8909178755
30
0.0000000000
10
11.9180236542
20
-2.8779693401
30
0.0000000000
10
11.9039656569
20
-2.8603340273
30
0.0000000000
10
11.8889617448
20
-2.8370958834
30
0.0000000000
10
11.8709327167
20
-2.8024703406
30
0.0000000000
10
11.8530314113
20
-2.7531316265
30
0.0000000000
10
11.8442818427
20
-2.7111709217
30
0.0000000000
10
11.8409011255
20
-2.6889901872
30
0.0000000000
11
12.3862868468
21
-2.8272363956
31
0.0000000000
11
12.3838258766
21
-2.8310294212
31
0.0000000000
11
12.3742407269
21
-2.8447851890
31
0.0000000000
11
12.3639455662
21
-2.8580317505
31
0.0000000000
11
12.3585317317
21
-2.8644640789
31
0.0000000000
11
12.3529403945
21
-2.8707691057
31
0.0000000000
11
12.3472182539
21
-2.8769129602
31
0.0000000000
11
12.3414120096
21
-2.8828617717
31
0.0000000000
11
12.3295472097
21
-2.8941742657
31
0.0000000000
11
12.3173459946
21
-2.9047065877
31
0.0000000000
11
12.3048083646
21
-2.9144587378
31
0.0000000000
11
12.2787238591
21
-2.9316225218
31
0.0000000000
11
12.2512936934
21
-2.9456656178
31
0.0000000000
11
12.2370739880
21
-2.9515169078
31
0.0000000000
11
12.2225178674
21
-2.9565880259
31
0.0000000000
11
12.2076253318
21
-2.9608789719
31
0.0000000000
11
12.1923963811
21
-2.9643897459
31
0.0000000000
11
12.1768310154
21
-2.9671203479
31
0.0000000000
11
12.1689221769
21
-2.9681930844
31
0.0000000000
11
12.1609292345
21
-2.9690707779
31
0.0000000000
11
12.1528521885
21
-2.9697534284
31
0.0000000000
11
12.1487821265
21
-2.9700216125
31
0.0000000000
11
12.1446910386
21
-2.9702410359
31
0.0000000000
11
12.1405789248
21
-2.9704116985
31
0.0000000000
11
12.1364457850
21
-2.9705336004
31
0.0000000000
11
12.1343713304
21
-2.9705762660
31
0.0000000000
11
12.1322916193
21
-2.9706067415
31
0.0000000000
11
12.1302066517
21
-2.9706250268
31
0.0000000000
11
12.1291621967
21
-2.9706295981
31
0.0000000000
11
12.1286394765
21
-2.9706307409
31
0.0000000000
11
12.1281164276
21
-2.9706311219
31
0.0000000000
11
12.1276827311
21
-2.9706308523
31
0.0000000000
11
12.1272492914
21
-2.9706300435
31
0.0000000000
11
12.1263831828
21
-2.9706268085
31
0.0000000000
11
12.1246540485
21
-2.9706138682
31
0.0000000000
11
12.1229290246
21
-2.9705923011
31
0.0000000000
11
12.1212081112
21
-2.9705621072
31
0.0000000000
11
12.1177786159
21
-2.9704758387
31
0.0000000000
11
12.1143655626
21
-2.9703550630
31
0.0000000000
11
12.1075887816
21
-2.9700099893
31
0.0000000000
11
12.1008777684
21
-2.9695268862
31
0.0000000000
11
12.0942325229
21
-2.9689057537
31
0.0000000000
11
12.0876530451
21
-2.9681465916
31
0.0000000000
11
12.0746913927
21
-2.9662141792
31
0.0000000000
11
12.0619928112
21
-2.9637296489
31
0.0000000000
11
12.0495573006
21
-2.9606930009
31
0.0000000000
11
12.0254754921
21
-2.9529633512
31
0.0000000000
11
12.0024459671
21
-2.9430252301
31
0.0000000000
11
11.9804687258
21
-2.9308786378
31
0.0000000000
11
11.9595437680
21
-2.9165235741
31
0.0000000000
11
11.9494758955
21
-2.9085178655
31
0.0000000000
11
11.9396710938
21
-2.8999600390
31
0.0000000000
11
11.9302165865
21
-2.8908541696
31
0.0000000000
11
11.9211995967
21
-2.8812043321
31
0.0000000000
11
11.9044781700
21
-2.8602727526
31
0.0000000000
11
11.8895068138
21
-2.8371653007
31
0.0000000000
11
11.8762855281
21
-2.8118819762
31
0.0000000000
11
11.8550931680
21
-2.7547877099
31
0.0000000000
11
11.8409011255
21
-2.6889901872
31
0.0000000000
0
SPLINE
5
324
100
AcDbEntity
8
0
100
AcDbSpline
62
0
6
CONTINUOUS
70
0
71
3
72
65
73
61
74
59
42
0.0000001000
43
0.0000001000
44
0.0000000001
12
-0.1116867348
22
0.9743584450
32
0.0000000000
13
-0.8027051559
23
-0.5633570713
33
0.0000000000
40
0.0000000000
40
0.0000000000
40
0.0000000000
40
0.0000000000
40
0.0164039525
40
0.0383889651
40
0.0814408506
40
0.1235350296
40
0.1649950159
40
0.2061592789
40
0.2473735740
40
0.2681127209
40
0.2889928926
40
0.3100555526
40
0.3312486903
40
0.3521874171
40
0.3728550066
40
0.4135150393
40
0.4535454995
40
0.4932687383
40
0.5330145827
40
0.5731123015
40
0.5933987293
40
0.6138921913
40
0.6346302834
40
0.6451030096
40
0.6556503784
40
0.6662767002
40
0.6716208540
40
0.6769863184
40
0.6823736048
40
0.6850755974
40
0.6877832344
40
0.6891391901
40
0.6904965801
40
0.6911758156
40
0.6918554126
40
0.6925115899
40
0.6927683973
40
0.6930251851
40
0.6940521416
40
0.6950787905
40
0.6961051366
40
0.6971311850
40
0.6991824067
40
0.7012324963
40
0.7053294268
40
0.7094223025
40
0.7135114408
40
0.7216796978
40
0.7298368310
40
0.7379854043
40
0.7461279899
40
0.7624048670
40
0.7786887556
40
0.7950002782
40
0.8113599531
40
0.8277881179
40
0.8609250395
40
0.8945726158
40
0.9288803754
40
1.0000000000
40
1.0000000000
40
1.0000000000
40
1.0000000000
10
12.6339333463
20
-2.5184409829
30
0.0000000000
10
12.6333226450
20
-2.5131132064
30
0.0000000000
10
12.6317172235
20
-2.5006652976
30
0.0000000000
10
12.6274078736
20
-2.4743886160
30
0.0000000000
10
12.6196395214
20
-2.4401956162
30
0.0000000000
10
12.6070160437
20
-2.4007267764
30
0.0000000000
10
12.5911527352
20
-2.3631091844
30
0.0000000000
10
12.5720514481
20
-2.3273542786
30
0.0000000000
10
12.5534706042
20
-2.2991682657
30
0.0000000000
10
12.5370583205
20
-2.2776223771
30
0.0000000000
10
12.5239185733
20
-2.2618908511
30
0.0000000000
10
12.5099955155
20
-2.2466472487
30
0.0000000000
10
12.4954149849
20
-2.2320054191
30
0.0000000000
10
12.4803582405
20
-2.2180428579
30
0.0000000000
10
12.4598887156
20
-2.2005924185
30
0.0000000000
10
12.4333224928
20
-2.1807171398
30
0.0000000000
10
12.3997915676
20
-2.1600012720
30
0.0000000000
10
12.3647817329
20
-2.1425501515
30
0.0000000000
10
12.3283026306
20
-2.1283697772
30
0.0000000000
10
12.2967996165
20
-2.1193133113
30
0.0000000000
10
12.2709575650
20
-2.1136996974
30
0.0000000000
10
12.2511336786
20
-2.1102844798
30
0.0000000000
10
12.2343656465
20
-2.1081226348
30
0.0000000000
10
12.2207792115
20
-2.1067958526
30
0.0000000000
10
12.2104642665
20
-2.1060001969
30
0.0000000000
10
12.2018093017
20
-2.1055070768
30
0.0000000000
10
12.1948409143
20
-2.1052133988
30
0.0000000000
10
12.1895816773
20
-2.1050433864
30
0.0000000000
10
12.1851845200
20
-2.1049440408
30
0.0000000000
10
12.1816555343
20
-2.1048898242
30
0.0000000000
10
12.1794440537
20
-2.1048664728
30
0.0000000000
10
12.1776720367
20
-2.1048541153
30
0.0000000000
10
12.1765630503
20
-2.1048490291
30
0.0000000000
10
12.1756751508
20
-2.1048465402
30
0.0000000000
10
12.1750164673
20
-2.1048454832
30
0.0000000000
10
12.1744958701
20
-2.1048452381
30
0.0000000000
10
12.1741134845
20
-2.1048453985
30
0.0000000000
10
12.1736098956
20
-2.1048458905
30
0.0000000000
10
12.1728546552
20
-2.1048476567
30
0.0000000000
10
12.1718478630
20
-2.1048522131
30
0.0000000000
10
12.1708413799
20
-2.1048589686
30
0.0000000000
10
12.1695000059
20
-2.1048709073
30
0.0000000000
10
12.1678240476
20
-2.1048913275
30
0.0000000000
10
12.1651444948
20
-2.1049357241
30
0.0000000000
10
12.1617980375
20
-2.1050132016
30
0.0000000000
10
12.1577861821
20
-2.1051413958
30
0.0000000000
10
12.1524458424
20
-2.1053591592
30
0.0000000000
10
12.1457819049
20
-2.1057192986
30
0.0000000000
10
12.1378017925
20
-2.1062924573
30
0.0000000000
10
12.1298414303
20
-2.1070064418
30
0.0000000000
10
12.1192560017
20
-2.1081459518
30
0.0000000000
10
12.1060666662
20
-2.1099232295
30
0.0000000000
10
12.0903167778
20
-2.1126200711
30
0.0000000000
10
12.0746461894
20
-2.1158806889
30
0.0000000000
10
12.0590549053
20
-2.1197051471
30
0.0000000000
10
12.0383149949
20
-2.1255721424
30
0.0000000000
10
12.0125425304
20
-2.1343445128
30
0.0000000000
10
11.9820307089
20
-2.1471013257
30
0.0000000000
10
11.9413035292
20
-2.1673567255
30
0.0000000000
10
11.9119556389
20
-2.1856313598
30
0.0000000000
10
11.8929262758
20
-2.1989866076
30
0.0000000000
11
12.6339333463
21
-2.5184409829
31
0.0000000000
11
12.6318728587
21
-2.5024862836
31
0.0000000000
11
12.6283769495
21
-2.4812116339
31
0.0000000000
11
12.6189781115
21
-2.4400515615
31
0.0000000000
11
12.6063699143
21
-2.4007437919
31
0.0000000000
11
12.5905523577
21
-2.3632883251
31
0.0000000000
11
12.5715254418
21
-2.3276851610
31
0.0000000000
11
12.5492891667
21
-2.2939342997
31
0.0000000000
11
12.5369675194
21
-2.2777534826
31
0.0000000000
11
12.5238435322
21
-2.2620357412
31
0.0000000000
11
12.5099172052
21
-2.2467810755
31
0.0000000000
11
12.4952599725
21
-2.2320462444
31
0.0000000000
11
12.4801977519
21
-2.2180902104
31
0.0000000000
11
12.4647707250
21
-2.2049449003
31
0.0000000000
11
12.4328222525
21
-2.1810864521
31
0.0000000000
11
12.3994145551
21
-2.1604708997
31
0.0000000000
11
12.3645476327
21
-2.1430982433
31
0.0000000000
11
12.3282214853
21
-2.1289684827
31
0.0000000000
11
12.2904361130
21
-2.1180816179
31
0.0000000000
11
12.2709962175
21
-2.1138542715
31
0.0000000000
11
12.2511915157
21
-2.1104376491
31
0.0000000000
11
12.2310220077
21
-2.1078317506
31
0.0000000000
11
12.2208004514
21
-2.1068328229
31
0.0000000000
11
12.2104876935
21
-2.1060365761
31
0.0000000000
11
12.2000837340
21
-2.1054430104
31
0.0000000000
11
12.1948475537
21
-2.1052222329
31
0.0000000000
11
12.1895885730
21
-2.1050521256
31
0.0000000000
11
12.1843067919
21
-2.1049326886
31
0.0000000000
11
12.1816573512
21
-2.1048919714
31
0.0000000000
11
12.1790022104
21
-2.1048639218
31
0.0000000000
11
12.1776725025
21
-2.1048546474
31
0.0000000000
11
12.1763413695
21
-2.1048485398
31
0.0000000000
11
12.1756752687
21
-2.1048466736
31
0.0000000000
11
12.1750088115
21
-2.1048455991
31
0.0000000000
11
12.1743653205
21
-2.1048453139
31
0.0000000000
11
12.1741134781
21
-2.1048454219
31
0.0000000000
11
12.1738616550
21
-2.1048456674
31
0.0000000000
11
12.1728545559
21
-2.1048480241
31
0.0000000000
11
12.1718477661
21
-2.1048525804
31
0.0000000000
11
12.1708412855
21
-2.1048593364
31
0.0000000000
11
12.1698351141
21
-2.1048682919
31
0.0000000000
11
12.1678236990
21
-2.1048928019
31
0.0000000000
11
12.1658135208
21
-2.1049261102
31
0.0000000000
11
12.1617968751
21
-2.1050191223
31
0.0000000000
11
12.1577851770
21
-2.1051473281
31
0.0000000000
11
12.1537784265
21
-2.1053107277
31
0.0000000000
11
12.1457797685
21
-2.1057431081
31
0.0000000000
11
12.1378009008
21
-2.1063162636
31
0.0000000000
11
12.1298418237
21
-2.1070301940
31
0.0000000000
11
12.1219025370
21
-2.1078848995
31
0.0000000000
11
12.1060833350
21
-2.1100166356
31
0.0000000000
11
12.0903432949
21
-2.1127114717
31
0.0000000000
11
12.0746824166
21
-2.1159694079
31
0.0000000000
11
12.0591007002
21
-2.1197904441
31
0.0000000000
11
12.0435981457
21
-2.1241745805
31
0.0000000000
11
12.0128305221
21
-2.1346321535
31
0.0000000000
11
11.9823795460
21
-2.1473421268
31
0.0000000000
11
11.9522452173
21
-2.1623045004
31
0.0000000000
11
11.8929262758
21
-2.1989866076
31
0.0000000000
0
SPLINE
5
325
100
AcDbEntity
8
0
100
AcDbSpline
62
0
6
CONTINUOUS
70
0
71
3
72
30
73
26
74
24
42
0.0000001000
43
0.0000001000
44
0.0000000001
12
0.3454338662
22
0.0000000000
32
0.0000000000
13
-0.3401859497
23
-0.0599839614
33
0.0000000000
40
0.0000000000
40
0.0000000000
40
0.0000000000
40
0.0000000000
40
0.1006933585
40
0.1925046530
40
0.2759791938
40
0.3517343547
40
0.4204563649
40
0.4828688731
40
0.5397115760
40
0.5917259098
40
0.6396459433
40
0.6841915551
40
0.7260617496
40
0.7660428591
40
0.8044441838
40
0.8406388465
40
0.8739557326
40
0.9039438150
40
0.9302557052
40
0.9525731909
40
0.9706718235
40
0.9843649974
40
0.9937420665
40
0.9989613186
40
1.0000000000
40
1.0000000000
40
1.0000000000
40
1.0000000000
10
19.1670566226
20
20.7292718310
30
0.0000000000
10
19.1786509213
20
20.7292718310
30
0.0000000000
10
19.2008167969
20
20.7292704302
30
0.0000000000
10
19.2325943163
20
20.7292640367
30
0.0000000000
10
19.2615003353
20
20.7292540518
30
0.0000000000
10
19.2877477459
20
20.7292410194
30
0.0000000000
10
19.3115699749
20
20.7292254090
30
0.0000000000
10
19.3332145337
20
20.7292075979
30
0.0000000000
10
19.3529352911
20
20.7291878582
30
0.0000000000
10
19.3709873146
20
20.7291663430
30
0.0000000000
10
19.3876233920
20
20.7291430697
30
0.0000000000
10
19.4030914178
20
20.7291178984
30
0.0000000000
10
19.4176453286
20
20.7290904689
30
0.0000000000
10
19.4314916998
20
20.7290602480
30
0.0000000000
10
19.4446847321
20
20.7290267100
30
0.0000000000
10
19.4571097943
20
20.7289897195
30
0.0000000000
10
19.4685681193
20
20.7289490554
30
0.0000000000
10
19.4788819979
20
20.7289059130
30
0.0000000000
10
19.4879493529
20
20.7288573170
30
0.0000000000
10
19.4955885735
20
20.7288130955
30
0.0000000000
10
19.5019386147
20
20.7287470385
30
0.0000000000
10
19.5063824189
20
20.7287297050
30
0.0000000000
10
19.5102716370
20
20.7286010540
30
0.0000000000
10
19.5110813034
20
20.7286722252
30
0.0000000000
10
19.5126002387
20
20.7285365273
30
0.0000000000
10
19.5124824571
20
20.7285157593
30
0.0000000000
11
19.1670566226
21
20.7292718310
31
0.0000000000
11
19.2018395187
21
20.7292695286
31
0.0000000000
11
19.2335542484
21
20.7292630449
31
0.0000000000
11
19.2623891800
21
20.7292529834
31
0.0000000000
11
19.2885575749
21
20.7292398912
31
0.0000000000
11
19.3122964794
21
20.7292242379
31
0.0000000000
11
19.3338558660
21
20.7292064004
31
0.0000000000
11
19.3534912507
21
20.7291866493
31
0.0000000000
11
19.3714587503
21
20.7291651354
31
0.0000000000
11
19.3880119364
21
20.7291418731
31
0.0000000000
11
19.4033994787
21
20.7291167166
31
0.0000000000
11
19.4178628359
21
20.7290893242
31
0.0000000000
11
19.4316736319
21
20.7290590067
31
0.0000000000
11
19.4449387065
21
20.7290250743
31
0.0000000000
11
19.4574415123
21
20.7289874910
31
0.0000000000
11
19.4689502198
21
20.7289464198
31
0.0000000000
11
19.4793090237
21
20.7289019593
31
0.0000000000
11
19.4883979162
21
20.7288542132
31
0.0000000000
11
19.4961069643
21
20.7288034219
31
0.0000000000
11
19.5023586158
21
20.7287499006
31
0.0000000000
11
19.5070883756
21
20.7286943487
31
0.0000000000
11
19.5103270244
21
20.7286369630
31
0.0000000000
11
19.5121289351
21
20.7285770501
31
0.0000000000
11
19.5124824571
21
20.7285157593
31
0.0000000000
0
SPLINE
5
326
100
AcDbEntity
8
0
100
AcDbSpline
62
0
6
CONTINUOUS
70
0
71
3
72
14
73
10
74
8
42
0.0000001000
43
0.0000001000
44
0.0000000001
12
0.0620200008
22
0.0000000000
32
0.0000000000
13
0.0106120410
23
0.0611053606
33
0.0000000000
40
0.0000000000
40
0.0000000000
40
0.0000000000
40
0.0000000000
40
0.0389317246
40
0.1096836358
40
0.2172426316
40
0.3616733369
40
0.5416916402
40
0.7553038063
40
1.0000000000
40
1.0000000000
40
1.0000000000
40
1.0000000000
10
-16.9981500699
20
20.3792718310
30
0.0000000000
10
-16.9973452213
20
20.3792718310
30
0.0000000000
10
-16.9954100054
20
20.3810078114
30
0.0000000000
10
-16.9934726476
20
20.3849231010
30
0.0000000000
10
-16.9910752635
20
20.3912281550
30
0.0000000000
10
-16.9886338281
20
20.3997984053
30
0.0000000000
10
-16.9860238196
20
20.4106227743
30
0.0000000000
10
-16.9833528928
20
20.4235445859
30
0.0000000000
10
-16.9816488531
20
20.4328663917
30
0.0000000000
10
-16.9807832777
20
20.4378504747
30
0.0000000000
11
-16.9981500699
21
20.3792718310
31
0.0000000000
11
-16.9960920055
21
20.3805345270
31
0.0000000000
11
-16.9938427142
21
20.3843022223
31
0.0000000000
11
-16.9914307277
21
20.3905217089
31
0.0000000000
11
-16.9888864207
21
20.3991103622
31
0.0000000000
11
-16.9862416469
21
20.4099573196
31
0.0000000000
11
-16.9835293680
21
20.4229249352
31
0.0000000000
11
-16.9807832777
21
20.4378504747
31
0.0000000000
0
SPLINE
5
327
100
AcDbEntity
8
0
100
AcDbSpline
62
0
6
CONTINUOUS
70
0
71
3
72
29
73
25
74
23
42
0.0000001000
43
0.0000001000
44
0.0000000001
12
-0.3401859594
22
0.0599839631
32
0.0000000000
13
0.3454338761
23
0.0000000000
33
0.0000000000
40
0.0000000000
40
0.0000000000
40
0.0000000000
40
0.0000000000
40
0.0010345250
40
0.0062438226
40
0.0155015458
40
0.0286636504
40
0.0458463884
40
0.0671138435
40
0.0922094433
40
0.1209329819
40
0.1535328129
40
0.1899916377
40
0.2301098885
40
0.2736373235
40
0.3207714989
40
0.3720139117
40
0.4278733830
40
0.4888484173
40
0.5554049443
40
0.6279670107
40
0.7072575657
40
0.7946644682
40
0.8917365496
40
1.0000000000
40
1.0000000000
40
1.0000000000
40
1.0000000000
10
-18.9789417517
20
20.7285157593
30
0.0000000000
10
-18.9790590620
20
20.7285364442
30
0.0000000000
10
-18.9775437560
20
20.7286723774
30
0.0000000000
10
-18.9767431365
20
20.7286009893
30
0.0000000000
10
-18.9729443080
20
20.7287273378
30
0.0000000000
10
-18.9686661235
20
20.7287448548
30
0.0000000000
10
-18.9626113562
20
20.7288085990
30
0.0000000000
10
-18.9553357175
20
20.7288518911
30
0.0000000000
10
-18.9466758578
20
20.7288994950
30
0.0000000000
10
-18.9367299380
20
20.7289423550
30
0.0000000000
10
-18.9254694105
20
20.7289834983
30
0.0000000000
10
-18.9128988119
20
20.7290219069
30
0.0000000000
10
-18.8990693213
20
20.7290577250
30
0.0000000000
10
-18.8840108041
20
20.7290908191
30
0.0000000000
10
-18.8676713332
20
20.7291213361
30
0.0000000000
10
-18.8499119060
20
20.7291494234
30
0.0000000000
10
-18.8305587679
20
20.7291751437
30
0.0000000000
10
-18.8094422892
20
20.7291984241
30
0.0000000000
10
-18.7864025924
20
20.7292190888
30
0.0000000000
10
-18.7612539590
20
20.7292369106
30
0.0000000000
10
-18.7337045146
20
20.7292516389
30
0.0000000000
10
-18.7033328718
20
20.7292629233
30
0.0000000000
10
-18.6696251546
20
20.7292702253
30
0.0000000000
10
-18.6459818716
20
20.7292718310
30
0.0000000000
10
-18.6335159172
20
20.7292718310
30
0.0000000000
11
-18.9789417517
21
20.7285157593
31
0.0000000000
11
-18.9785896727
21
20.7285769681
31
0.0000000000
11
-18.9767912014
21
20.7286368495
31
0.0000000000
11
-18.9735937755
21
20.7286936924
31
0.0000000000
11
-18.9690474583
21
20.7287476022
31
0.0000000000
11
-18.9631121836
21
20.7287993018
31
0.0000000000
11
-18.9557658511
21
20.7288488218
31
0.0000000000
11
-18.9470971069
21
20.7288955797
31
0.0000000000
11
-18.9371751205
21
20.7289394209
31
0.0000000000
11
-18.9259141106
21
20.7289808133
31
0.0000000000
11
-18.9133200574
21
20.7290196895
31
0.0000000000
11
-18.8994619016
21
20.7290558391
31
0.0000000000
11
-18.8844260879
21
20.7290891123
31
0.0000000000
11
-18.8681443757
21
20.7291197086
31
0.0000000000
11
-18.8504435328
21
20.7291478697
31
0.0000000000
11
-18.8311477964
21
20.7291736643
31
0.0000000000
11
-18.8100849669
21
20.7291970255
31
0.0000000000
11
-18.7870940972
21
20.7292177783
31
0.0000000000
11
-18.7620287077
21
20.7292356667
31
0.0000000000
11
-18.7346390679
21
20.7292504311
31
0.0000000000
11
-18.7044457649
21
20.7292617711
31
0.0000000000
11
-18.6709137804
21
20.7292691603
31
0.0000000000
11
-18.6335159172
21
20.7292718310
31
0.0000000000
0
SPLINE
5
328
100
AcDbEntity
8
0
100
AcDbSpline
62
0
6
CONTINUOUS
70
0
71
3
72
29
73
25
74
23
42
0.0000001000
43
0.0000001000
44
0.0000000001
12
0.3401859593
22
-0.0599839631
32
0.0000000000
13
-0.3454338761
23
0.0000000000
33
0.0000000000
40
0.0000000000
40
0.0000000000
40
0.0000000000
40
0.0000000000
40
0.0010345250
40
0.0062438226
40
0.0155015458
40
0.0286636504
40
0.0458463884
40
0.0671138435
40
0.0922094433
40
0.1209329819
40
0.1535328129
40
0.1899916377
40
0.2301098885
40
0.2736373235
40
0.3207714989
40
0.3720139117
40
0.4278733830
40
0.4888484173
40
0.5554049443
40
0.6279670107
40
0.7072575657
40
0.7946644682
40
0.8917365496
40
1.0000000000
40
1.0000000000
40
1.0000000000
40
1.0000000000
10
19.5124824571
20
-19.9699720974
30
0.0000000000
10
19.5125997674
20
-19.9699927823
30
0.0000000000
10
19.5110844615
20
-19.9701287155
30
0.0000000000
10
19.5102838419
20
-19.9700573274
30
0.0000000000
10
19.5064850135
20
-19.9701836759
30
0.0000000000
10
19.5022068289
20
-19.9702011929
30
0.0000000000
10
19.4961520617
20
-19.9702649371
30
0.0000000000
10
19.4888764230
20
-19.9703082292
30
0.0000000000
10
19.4802165632
20
-19.9703558331
30
0.0000000000
10
19.4702706434
20
-19.9703986931
30
0.0000000000
10
19.4590101160
20
-19.9704398364
30
0.0000000000
10
19.4464395173
20
-19.9704782450
30
0.0000000000
10
19.4326100268
20
-19.9705140631
30
0.0000000000
10
19.4175515095
20
-19.9705471572
30
0.0000000000
10
19.4012120386
20
-19.9705776742
30
0.0000000000
10
19.3834526114
20
-19.9706057615
30
0.0000000000
10
19.3640994733
20
-19.9706314818
30
0.0000000000
10
19.3429829946
20
-19.9706547622
30
0.0000000000
10
19.3199432978
20
-19.9706754269
30
0.0000000000
10
19.2947946645
20
-19.9706932487
30
0.0000000000
10
19.2672452200
20
-19.9707079770
30
0.0000000000
10
19.2368735773
20
-19.9707192614
30
0.0000000000
10
19.2031658600
20
-19.9707265634
30
0.0000000000
10
19.1795225771
20
-19.9707281690
30
0.0000000000
10
19.1670566226
20
-19.9707281690
30
0.0000000000
11
19.5124824571
21
-19.9699720974
31
0.0000000000
11
19.5121303781
21
-19.9700333062
31
0.0000000000
11
19.5103319069
21
-19.9700931876
31
0.0000000000
11
19.5071344809
21
-19.9701500305
31
0.0000000000
11
19.5025881637
21
-19.9702039403
31
0.0000000000
11
19.4966528891
21
-19.9702556399
31
0.0000000000
11
19.4893065565
21
-19.9703051599
31
0.0000000000
11
19.4806378123
21
-19.9703519178
31
0.0000000000
11
19.4707158259
21
-19.9703957590
31
0.0000000000
11
19.4594548160
21
-19.9704371514
31
0.0000000000
11
19.4468607628
21
-19.9704760276
31
0.0000000000
11
19.4330026071
21
-19.9705121772
31
0.0000000000
11
19.4179667933
21
-19.9705454504
31
0.0000000000
11
19.4016850811
21
-19.9705760467
31
0.0000000000
11
19.3839842383
21
-19.9706042078
31
0.0000000000
11
19.3646885018
21
-19.9706300024
31
0.0000000000
11
19.3436256723
21
-19.9706533636
31
0.0000000000
11
19.3206348026
21
-19.9706741164
31
0.0000000000
11
19.2955694131
21
-19.9706920048
31
0.0000000000
11
19.2681797734
21
-19.9707067692
31
0.0000000000
11
19.2379864704
21
-19.9707181092
31
0.0000000000
11
19.2044544858
21
-19.9707254984
31
0.0000000000
11
19.1670566226
21
-19.9707281690
31
0.0000000000
0
SPLINE
5
329
100
AcDbEntity
8
0
100
AcDbSpline
62
0
6
CONTINUOUS
70
0
71
3
72
14
73
10
74
8
42
0.0000001000
43
0.0000001000
44
0.0000000001
12
-0.0620200008
22
0.0000000000
32
0.0000000000
13
-0.0106120410
23
-0.0611053606
33
0.0000000000
40
0.0000000000
40
0.0000000000
40
0.0000000000
40
0.0000000000
40
0.0389317246
40
0.1096836358
40
0.2172426316
40
0.3616733369
40
0.5416916402
40
0.7553038063
40
1.0000000000
40
1.0000000000
40
1.0000000000
40
1.0000000000
10
17.5316907753
20
-19.6207281690
30
0.0000000000
10
17.5308859268
20
-19.6207281690
30
0.0000000000
10
17.5289507108
20
-19.6224641495
30
0.0000000000
10
17.5270133531
20
-19.6263794391
30
0.0000000000
10
17.5246159690
20
-19.6326844931
30
0.0000000000
10
17.5221745335
20
-19.6412547434
30
0.0000000000
10
17.5195645250
20
-19.6520791124
30
0.0000000000
10
17.5168935982
20
-19.6650009240
30
0.0000000000
10
17.5151895585
20
-19.6743227298
30
0.0000000000
10
17.5143239831
20
-19.6793068128
30
0.0000000000
11
17.5316907753
21
-19.6207281690
31
0.0000000000
11
17.5296327109
21
-19.6219908651
31
0.0000000000
11
17.5273834196
21
-19.6257585604
31
0.0000000000
11
17.5249714332
21
-19.6319780470
31
0.0000000000
11
17.5224271262
21
-19.6405667003
31
0.0000000000
11
17.5197823523
21
-19.6514136577
31
0.0000000000
11
17.5170700734
21
-19.6643812733
31
0.0000000000
11
17.5143239831
21
-19.6793068128
31
0.0000000000
0
SPLINE
5
32A
100
AcDbEntity
8
0
100
AcDbSpline
62
0
6
CONTINUOUS
70
0
71
3
72
14
73
10
74
8
42
0.0000001000
43
0.0000001000
44
0.0000000001
12
-0.0620200008
22
0.0000000000
32
0.0000000000
13
-0.0106120410
23
0.0611053606
33
0.0000000000
40
0.0000000000
40
0.0000000000
40
0.0000000000
40
0.0000000000
40
0.0389317246
40
0.1096836358
40
0.2172426316
40
0.3616733369
40
0.5416916402
40
0.7553038063
40
1.0000000000
40
1.0000000000
40
1.0000000000
40
1.0000000000
10
17.5316907753
20
20.3792718310
30
0.0000000000
10
17.5308859268
20
20.3792718310
30
0.0000000000
10
17.5289507108
20
20.3810078114
30
0.0000000000
10
17.5270133531
20
20.3849231010
30
0.0000000000
10
17.5246159690
20
20.3912281550
30
0.0000000000
10
17.5221745335
20
20.3997984053
30
0.0000000000
10
17.5195645250
20
20.4106227743
30
0.0000000000
10
17.5168935982
20
20.4235445859
30
0.0000000000
10
17.5151895585
20
20.4328663917
30
0.0000000000
10
17.5143239831
20
20.4378504747
30
0.0000000000
11
17.5316907753
21
20.3792718310
31
0.0000000000
11
17.5296327109
21
20.3805345270
31
0.0000000000
11
17.5273834196
21
20.3843022223
31
0.0000000000
11
17.5249714332
21
20.3905217089
31
0.0000000000
11
17.5224271262
21
20.3991103622
31
0.0000000000
11
17.5197823523
21
20.4099573196
31
0.0000000000
11
17.5170700734
21
20.4229249352
31
0.0000000000
11
17.5143239831
21
20.4378504747
31
0.0000000000
0
SPLINE
5
32B
100
AcDbEntity
8
0
100
AcDbSpline
62
0
6
CONTINUOUS
70
0
71
3
72
30
73
26
74
24
42
0.0000001000
43
0.0000001000
44
0.0000000001
12
-0.3454338662
22
0.0000000000
32
0.0000000000
13
0.3401859496
23
0.0599839614
33
0.0000000000
40
0.0000000000
40
0.0000000000
40
0.0000000000
40
0.0000000000
40
0.1006933585
40
0.1925046530
40
0.2759791938
40
0.3517343547
40
0.4204563649
40
0.4828688731
40
0.5397115760
40
0.5917259098
40
0.6396459433
40
0.6841915551
40
0.7260617496
40
0.7660428591
40
0.8044441838
40
0.8406388465
40
0.8739557326
40
0.9039438150
40
0.9302557052
40
0.9525731909
40
0.9706718235
40
0.9843649974
40
0.9937420665
40
0.9989613186
40
1.0000000000
40
1.0000000000
40
1.0000000000
40
1.0000000000
10
-18.6335159172
20
-19.9707281690
30
0.0000000000
10
-18.6451102159
20
-19.9707281690
30
0.0000000000
10
-18.6672760915
20
-19.9707267683
30
0.0000000000
10
-18.6990536109
20
-19.9707203748
30
0.0000000000
10
-18.7279596299
20
-19.9707103899
30
0.0000000000
10
-18.7542070405
20
-19.9706973575
30
0.0000000000
10
-18.7780292694
20
-19.9706817471
30
0.0000000000
10
-18.7996738283
20
-19.9706639360
30
0.0000000000
10
-18.8193945856
20
-19.9706441963
30
0.0000000000
10
-18.8374466091
20
-19.9706226811
30
0.0000000000
10
-18.8540826866
20
-19.9705994078
30
0.0000000000
10
-18.8695507124
20
-19.9705742365
30
0.0000000000
10
-18.8841046232
20
-19.9705468070
30
0.0000000000
10
-18.8979509944
20
-19.9705165861
30
0.0000000000
10
-18.9111440267
20
-19.9704830481
30
0.0000000000
10
-18.9235690889
20
-19.9704460576
30
0.0000000000
10
-18.9350274138
20
-19.9704053935
30
0.0000000000
10
-18.9453412925
20
-19.9703622511
30
0.0000000000
10
-18.9544086475
20
-19.9703136551
30
0.0000000000
10
-18.9620478681
20
-19.9702694336
30
0.0000000000
10
-18.9683979093
20
-19.9702033766
30
0.0000000000
10
-18.9728417135
20
-19.9701860431
30
0.0000000000
10
-18.9767309315
20
-19.9700573921
30
0.0000000000
10
-18.9775405979
20
-19.9701285633
30
0.0000000000
10
-18.9790595333
20
-19.9699928654
30
0.0000000000
10
-18.9789417517
20
-19.9699720974
30
0.0000000000
11
-18.6335159172
21
-19.9707281690
31
0.0000000000
11
-18.6682988133
21
-19.9707258667
31
0.0000000000
11
-18.7000135430
21
-19.9707193830
31
0.0000000000
11
-18.7288484746
21
-19.9707093215
31
0.0000000000
11
-18.7550168695
21
-19.9706962293
31
0.0000000000
11
-18.7787557740
21
-19.9706805760
31
0.0000000000
11
-18.8003151606
21
-19.9706627385
31
0.0000000000
11
-18.8199505453
21
-19.9706429874
31
0.0000000000
11
-18.8379180449
21
-19.9706214735
31
0.0000000000
11
-18.8544712309
21
-19.9705982112
31
0.0000000000
11
-18.8698587733
21
-19.9705730547
31
0.0000000000
11
-18.8843221305
21
-19.9705456623
31
0.0000000000
11
-18.8981329265
21
-19.9705153448
31
0.0000000000
11
-18.9113980011
21
-19.9704814124
31
0.0000000000
11
-18.9239008069
21
-19.9704438291
31
0.0000000000
11
-18.9354095144
21
-19.9704027579
31
0.0000000000
11
-18.9457683182
21
-19.9703582974
31
0.0000000000
11
-18.9548572108
21
-19.9703105513
31
0.0000000000
11
-18.9625662589
21
-19.9702597600
31
0.0000000000
11
-18.9688179104
21
-19.9702062387
31
0.0000000000
11
-18.9735476701
21
-19.9701506868
31
0.0000000000
11
-18.9767863190
21
-19.9700933011
31
0.0000000000
11
-18.9785882297
21
-19.9700333882
31
0.0000000000
11
-18.9789417517
21
-19.9699720974
31
0.0000000000
0
SPLINE
5
32C
100
AcDbEntity
8
0
100
AcDbSpline
62
0
6
CONTINUOUS
70
0
71
3
72
14
73
10
74
8
42
0.0000001000
43
0.0000001000
44
0.0000000001
12
0.0620200008
22
0.0000000000
32
0.0000000000
13
0.0106120410
23
-0.0611053606
33
0.0000000000
40
0.0000000000
40
0.0000000000
40
0.0000000000
40
0.0000000000
40
0.0389317246
40
0.1096836358
40
0.2172426316
40
0.3616733369
40
0.5416916402
40
0.7553038063
40
1.0000000000
40
1.0000000000
40
1.0000000000
40
1.0000000000
10
-16.9981500699
20
-19.6207281690
30
0.0000000000
10
-16.9973452213
20
-19.6207281690
30
0.0000000000
10
-16.9954100054
20
-19.6224641495
30
0.0000000000
10
-16.9934726476
20
-19.6263794391
30
0.0000000000
10
-16.9910752635
20
-19.6326844931
30
0.0000000000
10
-16.9886338281
20
-19.6412547434
30
0.0000000000
10
-16.9860238196
20
-19.6520791124
30
0.0000000000
10
-16.9833528928
20
-19.6650009240
30
0.0000000000
10
-16.9816488531
20
-19.6743227298
30
0.0000000000
10
-16.9807832777
20
-19.6793068128
30
0.0000000000
11
-16.9981500699
21
-19.6207281690
31
0.0000000000
11
-16.9960920055
21
-19.6219908651
31
0.0000000000
11
-16.9938427142
21
-19.6257585604
31
0.0000000000
11
-16.9914307277
21
-19.6319780470
31
0.0000000000
11
-16.9888864207
21
-19.6405667003
31
0.0000000000
11
-16.9862416469
21
-19.6514136577
31
0.0000000000
11
-16.9835293680
21
-19.6643812733
31
0.0000000000
11
-16.9807832777
21
-19.6793068128
31
0.0000000000
0
ENDSEC
0
SECTION
2
OBJECTS
0
DICTIONARY
5
C
100
AcDbDictionary
280
0
281
1
3
ACAD_GROUP
350
D
3
ACAD_MLINESTYLE
350
17
3
ACAD_LAYOUT
350
1A
3
ACAD_PLOTSETTINGS
350
19
3
ACAD_PLOTSTYLENAME
350
E
0
DICTIONARY
5
D
102
{ACAD_REACTORS
330
C
102
}
100
AcDbDictionary
280
0
281
1
0
ACDBDICTIONARYWDFLT
5
E
102
{ACAD_REACTORS
330
C
102
}
100
AcDbDictionary
281
1
3
Normal
350
F
100
AcDbDictionaryWithDefault
340
F
0
DICTIONARY
5
17
102
{ACAD_REACTORS
330
C
102
}
100
AcDbDictionary
280
0
281
1
3
Standard
350
18
0
DICTIONARY
5
19
102
{ACAD_REACTORS
330
C
102
}
100
AcDbDictionary
281
1
0
DICTIONARY
5
1A
102
{ACAD_REACTORS
330
C
102
}
100
AcDbDictionary
281
1
3
Layout1
350
1E
3
Model
350
22
0
ACDBPLACEHOLDER
5
F
102
{ACAD_REACTORS
330
E
102
}
0
MLINESTYLE
5
18
102
{ACAD_REACTORS
330
17
102
}
100
AcDbMlineStyle
2
STANDARD
70
0
3

62
256
51
90.0
52
90.0
71
2
49
0.5
62
256
6
BYLAYER
49
-0.5
62
256
6
BYLAYER
0
LAYOUT
5
1E
102
{ACAD_REACTORS
330
1A
102
}
100
AcDbPlotSettings
1

2

4

6

40
0.0
41
0.0
42
0.0
43
0.0
44
0.0
45
0.0
46
0.0
47
0.0
48
0.0
49
0.0
140
0.0
141
0.0
142
1.0
143
1.0
70
0
72
0
73
0
74
0
7

75
0
147
1.0
148
0.0
149
0.0
100
AcDbLayout
1
Layout1
70
0
71
0
10
0.0
20
0.0
11
0.0
21
0.0
12
0.0
22
0.0
32
0.0
14
0.0
24
0.0
34
0.0
15
0.0
25
0.0
35
0.0
146
0.0
13
0.0
23
0.0
33
0.0
16
0.0
26
0.0
36
0.0
17
0.0
27
0.0
37
0.0
76
0
330
1B
331
0
345
0
346
0
0
LAYOUT
5
22
102
{ACAD_REACTORS
330
1A
102
}
100
AcDbPlotSettings
1

2

4

6

40
0.0
41
0.0
42
0.0
43
0.0
44
0.0
45
0.0
46
0.0
47
0.0
48
0.0
49
0.0
140
0.0
141
0.0
142
1.0
143
1.0
70
0
72
0
73
0
74
0
7

75
0
147
1.0
148
0.0
149
0.0
100
AcDbLayout
1
Model
70
0
71
0
10
0.0
20
0.0
11
0.0
21
0.0
12
0.0
22
0.0
32
0.0
14
0.0
24
0.0
34
0.0
15
0.0
25
0.0
35
0.0
146
0.0
13
0.0
23
0.0
33
0.0
16
0.0
26
0.0
36
0.0
17
0.0
27
0.0
37
0.0
76
0
330
1F
331
0
345
0
346
0
0
ENDSEC
0
EOF
