0
SECTION
2
HEADER
9
$ACADVER
1
AC1015
9
$DWGCODEPAGE
3
ANSI_1252
9
$EXTMAX
10
431.8000000000
20
558.8000000000
30
0.0000000000
9
$EXTMIN
10
0.0000000000
20
0.0000000000
30
0.0000000000
9
$LIMMIN
10
0.0000000000
20
0.0000000000
9
$LIMMAX
10
431.8000000000
20
558.8000000000
9
$VIEWCTR
10
215.9000000000
20
279.4000000000
9
$VIEWSIZE
40
558.8000000000
9
$CLAYER
8
0
9
$LTSCALE
40
36.4254814815
9
$CELTYPE
6
BYLAYER
9
$DIMSCALE
40
1
9
$DIMASZ
40
3.0000000000
9
$DIMEXO
40
4.1392592593
9
$DIMDLI
40
25.1666962963
9
$DIMEXE
40
11.9210666667
9
$DIMCEN
40
5.9605333333
9
$DIMLFAC
40
1.0000000000
9
$DIMBLK
1
_FILLED
9
$DIMTXT
40
3.0000000000
9
$DIMTOL
70
1
9
$DIMLIM
70
0
9
$DIMTFAC
40
1.0000000000
9
$DIMTP
40
0.0100000000
9
$DIMTM
40
0.0100000000
9
$PDMODE
70
3
9
$PDSIZE
40
3.0000000000
9
$HANDSEED
5
2CB
9
$MEASUREMENT
70
1
9
$INSUNITS
70
4
0
ENDSEC
0
SECTION
2
CLASSES
0
CLASS
1
ACDBDICTIONARYWDFLT
2
AcDbDictionaryWithDefault
3
AutoCAD 2000
90
0
280
0
281
0
0
CLASS
1
ACDBPLACEHOLDER
2
AcDbPlaceHolder
3
AutoCAD 2000
90
0
280
0
281
0
0
CLASS
1
LAYOUT
2
AcDbLayout
3
AutoCAD 2000
90
0
280
0
281
0
0
ENDSEC
0
SECTION
2
TABLES
0
TABLE
2
VPORT
5
8
100
AcDbSymbolTable
70
2
0
VPORT
5
1F4
100
AcDbSymbolTableRecord
100
AcDbViewportTableRecord
2
*ACTIVE
70
0
10
0.0
20
0.0
11
1.0
21
1.0
12
215.9000000000
22
279.4000000000
13
0.0
23
0.0
14
1.0
24
1.0
15
0.0
25
0.0
16
0.0
26
0.0
36
1.0
17
0.0
27
0.0
37
0.0
40
558.8000000000
41
0.7727272727
42
50.0
43
0.0
44
0.0
50
0.0
51
0.0
71
0
72
100
73
1
74
1
75
0
76
0
77
0
78
0
0
ENDTAB
0
TABLE
2
LTYPE
5
5
100
AcDbSymbolTable
70
6
0
LTYPE
5
14
100
AcDbSymbolTableRecord
100
AcDbLinetypeTableRecord
2
BYBLOCK
70
0
3

72
65
73
0
40
0.0
0
LTYPE
5
15
100
AcDbSymbolTableRecord
100
AcDbLinetypeTableRecord
2
BYLAYER
70
0
3

72
65
73
0
40
0.0
0
LTYPE
5
16
100
AcDbSymbolTableRecord
100
AcDbLinetypeTableRecord
2
CONTINUOUS
70
64
3
Solid line
72
65
73
0
40
0
0
LTYPE
5
1F5
100
AcDbSymbolTableRecord
100
AcDbLinetypeTableRecord
2
CENTER
70
64
3
____ _ ____ _ ____ _ ____ _ ____ _ ____ _ ____
72
65
73
4
40
0.6
49
0.375
74
0
49
-0.075
74
0
49
0.075
74
0
49
-0.075
74
0
0
LTYPE
5
1F6
100
AcDbSymbolTableRecord
100
AcDbLinetypeTableRecord
2
HIDDEN
70
64
3
- - - - - - - - - - - - - - - - - - - -
72
65
73
2
40
0.2
49
0.1
74
0
49
-0.1
74
0
0
LTYPE
5
1F7
100
AcDbSymbolTableRecord
100
AcDbLinetypeTableRecord
2
PHANTOM
70
64
3
_____ _ _ _____ _ _ _____ _ _ _____
72
65
73
6
40
0.8
49
0.45
74
0
49
-0.05
74
0
49
0.1
74
0
49
-0.05
74
0
49
0.1
74
0
49
-0.05
74
0
0
LTYPE
5
1F8
100
AcDbSymbolTableRecord
100
AcDbLinetypeTableRecord
2
DOT
70
64
3
. . . . . . . . . . . . . . . . . . . .
72
65
73
2
40
0.2
49
0.1
74
0
49
-0.1
74
0
0
LTYPE
5
1F9
100
AcDbSymbolTableRecord
100
AcDbLinetypeTableRecord
2
DASHED
70
64
3
- - - - - - - - - - - - - - - - - - - -
72
65
73
2
40
0.2
49
0.1
74
0
49
-0.1
74
0
0
ENDTAB
0
TABLE
2
LAYER
5
2
100
AcDbSymbolTable
70
36
0
LAYER
5
10
100
AcDbSymbolTableRecord
100
AcDbLayerTableRecord
2
0
70
0
62
7
6
CONTINUOUS
370
-3
390
F
0
LAYER
5
1FA
100
AcDbSymbolTableRecord
100
AcDbLayerTableRecord
2
DEFAULT_1
70
0
62
7
6
CENTER
370
-3
390
F
0
LAYER
5
1FB
100
AcDbSymbolTableRecord
100
AcDbLayerTableRecord
2
DEFAULT_2
70
0
62
9
6
HIDDEN
370
-3
390
F
0
LAYER
5
1FC
100
AcDbSymbolTableRecord
100
AcDbLayerTableRecord
2
DEFAULT_3
70
0
62
7
6
PHANTOM
370
-3
390
F
0
LAYER
5
1FD
100
AcDbSymbolTableRecord
100
AcDbLayerTableRecord
2
_2D_DELETED_OBJS
70
0
62
7
6
CONTINUOUS
370
-3
390
F
0
LAYER
5
1FE
100
AcDbSymbolTableRecord
100
AcDbLayerTableRecord
2
ASSI
70
0
62
7
6
CONTINUOUS
370
-3
390
F
0
LAYER
5
1FF
100
AcDbSymbolTableRecord
100
AcDbLayerTableRecord
2
COORDINATE
70
0
62
7
6
CONTINUOUS
370
-3
390
F
0
LAYER
5
200
100
AcDbSymbolTableRecord
100
AcDbLayerTableRecord
2
COORD_ORIGINE
70
0
62
7
6
CONTINUOUS
370
-3
390
F
0
LAYER
5
201
100
AcDbSymbolTableRecord
100
AcDbLayerTableRecord
2
CURVE
70
0
62
7
6
CONTINUOUS
370
-3
390
F
0
LAYER
5
202
100
AcDbSymbolTableRecord
100
AcDbLayerTableRecord
2
CURVE_LED_TASTO
70
0
62
7
6
CONTINUOUS
370
-3
390
F
0
LAYER
5
203
100
AcDbSymbolTableRecord
100
AcDbLayerTableRecord
2
DRAFT
70
0
62
7
6
CONTINUOUS
370
-3
390
F
0
LAYER
5
204
100
AcDbSymbolTableRecord
100
AcDbLayerTableRecord
2
IGES_SCRITTE
70
0
62
7
6
CONTINUOUS
370
-3
390
F
0
LAYER
5
205
100
AcDbSymbolTableRecord
100
AcDbLayerTableRecord
2
PIANI
70
0
62
7
6
CONTINUOUS
370
-3
390
F
0
LAYER
5
206
100
AcDbSymbolTableRecord
100
AcDbLayerTableRecord
2
PIANI_ORIGINE
70
0
62
7
6
CONTINUOUS
370
-3
390
F
0
LAYER
5
207
100
AcDbSymbolTableRecord
100
AcDbLayerTableRecord
2
PIANI_RIFERIMENTO
70
0
62
7
6
CONTINUOUS
370
-3
390
F
0
LAYER
5
208
100
AcDbSymbolTableRecord
100
AcDbLayerTableRecord
2
PUNTI
70
0
62
7
6
CONTINUOUS
370
-3
390
F
0
LAYER
5
209
100
AcDbSymbolTableRecord
100
AcDbLayerTableRecord
2
RACCORDO
70
0
62
7
6
CONTINUOUS
370
-3
390
F
0
LAYER
5
20A
100
AcDbSymbolTableRecord
100
AcDbLayerTableRecord
2
SMUSSO
70
0
62
7
6
CONTINUOUS
370
-3
390
F
0
LAYER
5
20B
100
AcDbSymbolTableRecord
100
AcDbLayerTableRecord
2
SNAPLINE
70
0
62
7
6
CONTINUOUS
370
-3
390
F
0
LAYER
5
20C
100
AcDbSymbolTableRecord
100
AcDbLayerTableRecord
2
SUPERFICI
70
0
62
7
6
CONTINUOUS
370
-3
390
F
0
LAYER
5
20D
100
AcDbSymbolTableRecord
100
AcDbLayerTableRecord
2
TRASH
70
0
62
7
6
CONTINUOUS
370
-3
390
F
0
ENDTAB
0
TABLE
2
STYLE
5
3
100
AcDbSymbolTable
70
1
0
STYLE
5
11
100
AcDbSymbolTableRecord
100
AcDbTextStyleTableRecord
2
STANDARD
70
0
40
0.0
41
0.8000000000
50
0.0
71
0
42
0.2
3
txt
4

0
ENDTAB
0
TABLE
2
VIEW
5
6
100
AcDbSymbolTable
70
0
0
ENDTAB
0
TABLE
2
UCS
5
7
100
AcDbSymbolTable
70
0
0
ENDTAB
0
TABLE
2
APPID
5
9
100
AcDbSymbolTable
70
1
0
APPID
5
20E
100
AcDbSymbolTableRecord
100
AcDbRegAppTableRecord
2
ACAD
70
0
0
ENDTAB
0
TABLE
2
BLOCK_RECORD
5
1
100
AcDbSymbolTable
70
0
0
BLOCK_RECORD
5
1F
100
AcDbSymbolTableRecord
100
AcDbBlockTableRecord
2
*MODEL_SPACE
0
BLOCK_RECORD
5
1B
100
AcDbSymbolTableRecord
100
AcDbBlockTableRecord
2
*PAPER_SPACE
0
ENDTAB
0
TABLE
2
DIMSTYLE
5
A
100
AcDbSymbolTable
70
1
100
AcDbDimStyleTable
71
0
0
DIMSTYLE
105
20F
100
AcDbSymbolTableRecord
100
AcDbDimStyleTableRecord
2
STANDARD
70
0
3

4

40
1.0
41
3.0000000000
42
0.0625
43
0.38
44
0.18
45
0.0
46
0.0
47
0.0100000000
48
0.0100000000
140
3.0000000000
141
0.09
142
0.0
143
25.4
144
1.0000000000
145
0.0
146
1.0000000000
147
0.09
71
1
72
0
73
0
74
0
75
0
76
0
77
1
78
8
170
0
171
2
172
0
173
0
174
0
175
0
176
0
177
0
178
0
270
2
271
2
272
2
273
2
274
2
275
0
280
0
281
0
282
0
283
1
284
8
285
0
286
0
287
3
288
0
340
11
0
ENDTAB
0
ENDSEC
0
SECTION
2
BLOCKS
0
BLOCK
5
20
100
AcDbEntity
8
0
100
AcDbBlockBegin
2
*MODEL_SPACE
70
0
10
0.0
20
0.0
30
0.0
3
*MODEL_SPACE
1

0
ENDBLK
5
21
100
AcDbEntity
8
0
100
AcDbBlockEnd
0
BLOCK
5
1C
100
AcDbEntity
8
0
100
AcDbBlockBegin
2
*PAPER_SPACE
70
0
10
0.0
20
0.0
30
0.0
3
*PAPER_SPACE
1

0
ENDBLK
5
1D
100
AcDbEntity
8
0
100
AcDbBlockEnd
0
ENDSEC
0
SECTION
2
ENTITIES
0
LINE
5
210
100
AcDbEntity
8
0
100
AcDbLine
62
0
6
CONTINUOUS
10
-21.1526579398
20
5.2619697091
11
-21.1578940604
21
16.8512001937
0
LINE
5
211
100
AcDbEntity
8
0
100
AcDbLine
62
0
6
CONTINUOUS
10
-22.1919288448
20
21.0513220375
11
-22.1919288448
21
0.3512001937
0
LINE
5
212
100
AcDbEntity
8
0
100
AcDbLine
62
0
6
CONTINUOUS
10
-22.1919288448
20
-0.3487998063
11
-22.1919288448
21
-21.0489216502
0
LINE
5
213
100
AcDbEntity
8
0
100
AcDbLine
62
0
6
CONTINUOUS
10
-21.7918679136
20
-0.1487998063
11
-21.7918679136
21
0.1512001937
0
LINE
5
214
100
AcDbEntity
8
0
100
AcDbLine
62
0
6
CONTINUOUS
10
-21.1919288448
20
20.3512001937
11
-21.1919288448
21
-20.3487998063
0
LINE
5
215
100
AcDbEntity
8
0
100
AcDbLine
62
0
6
CONTINUOUS
10
-21.1578940604
20
20.3171654093
11
-21.1578940604
21
16.8512001937
0
LINE
5
216
100
AcDbEntity
8
0
100
AcDbLine
62
0
6
CONTINUOUS
10
-21.1578940604
20
-16.8487998063
11
-21.1578940604
21
-20.3147650220
0
LINE
5
217
100
AcDbEntity
8
0
100
AcDbLine
62
0
6
CONTINUOUS
10
-21.1526579398
20
-5.2595693218
11
-21.1526579398
21
5.2619697091
0
LINE
5
218
100
AcDbEntity
8
0
100
AcDbLine
62
0
6
CONTINUOUS
10
-21.1578940604
20
-16.8487998063
11
-21.1526579398
21
-5.2595693218
0
LINE
5
219
100
AcDbEntity
8
0
100
AcDbLine
62
0
6
CONTINUOUS
10
-21.3920506887
20
-21.8487998063
11
21.3081929991
21
-21.8487998063
0
LINE
5
21A
100
AcDbEntity
8
0
100
AcDbLine
62
0
6
CONTINUOUS
10
-21.1919288448
20
-20.3487998063
11
21.1080711552
21
-20.3487998063
0
LINE
5
21B
100
AcDbEntity
8
0
100
AcDbLine
62
0
6
CONTINUOUS
10
-21.1578940604
20
-20.3147650220
11
-19.0989079909
21
-20.3147650220
0
LINE
5
21C
100
AcDbEntity
8
0
100
AcDbLine
62
0
6
CONTINUOUS
10
-16.7919288448
20
-20.3147650220
11
16.7080711552
21
-20.3147650220
0
LINE
5
21D
100
AcDbEntity
8
0
100
AcDbLine
62
0
6
CONTINUOUS
10
19.0150503013
20
-20.3147650220
11
21.0740363708
21
-20.3147650220
0
LINE
5
21E
100
AcDbEntity
8
0
100
AcDbLine
62
9
6
CONTINUOUS
10
17.2056247856
20
-20.0573784501
11
16.7080711552
21
-20.0573784501
0
LINE
5
21F
100
AcDbEntity
8
0
100
AcDbLine
62
9
6
CONTINUOUS
10
-16.7919288448
20
-20.0573784501
11
-17.2894824753
21
-20.0573784501
0
LINE
5
220
100
AcDbEntity
8
0
100
AcDbLine
62
0
6
CONTINUOUS
10
17.2229915778
20
-19.9987998063
11
16.7080711552
21
-19.9987998063
0
LINE
5
221
100
AcDbEntity
8
0
100
AcDbLine
62
0
6
CONTINUOUS
10
-16.7919288448
20
-19.9987998063
11
-17.3068492674
21
-19.9987998063
0
LINE
5
222
100
AcDbEntity
8
0
100
AcDbLine
62
0
6
CONTINUOUS
10
-16.7919288448
20
20.3512001937
11
-16.7919288448
21
20.0013374321
0
LINE
5
223
100
AcDbEntity
8
0
100
AcDbLine
62
0
6
CONTINUOUS
10
-16.7919288448
20
-19.9987998063
11
-16.7919288448
21
-20.3487998063
0
LINE
5
224
100
AcDbEntity
8
0
100
AcDbLine
62
9
6
CONTINUOUS
10
-17.2894824753
20
-20.0573784501
11
-18.9422151147
21
-20.3487998063
0
LINE
5
225
100
AcDbEntity
8
0
100
AcDbLine
62
0
6
CONTINUOUS
10
-17.3069802080
20
-19.9987998063
11
-19.2876409492
21
-20.3480437347
0
LINE
5
226
100
AcDbEntity
8
0
100
AcDbLine
62
0
6
CONTINUOUS
10
-21.1578940604
20
-16.8487998063
11
21.0740363708
21
-16.8487998063
0
LINE
5
227
100
AcDbEntity
8
0
100
AcDbLine
62
9
6
CONTINUOUS
10
18.8583574251
20
-20.3487998063
11
17.2056247856
21
-20.0573784501
0
LINE
5
228
100
AcDbEntity
8
0
100
AcDbLine
62
0
6
CONTINUOUS
10
19.2037832596
20
-20.3480437347
11
17.2231225183
21
-19.9987998063
0
LINE
5
229
100
AcDbEntity
8
0
100
AcDbLine
62
0
6
CONTINUOUS
10
12.6838012910
20
-3.0524577878
11
12.5002130304
21
-3.0774928234
0
LINE
5
22A
100
AcDbEntity
8
0
100
AcDbLine
62
0
6
CONTINUOUS
10
11.5322019388
20
-3.0670618228
11
11.3402685994
21
-3.0816648486
0
LINE
5
22B
100
AcDbEntity
8
0
100
AcDbLine
62
0
6
CONTINUOUS
10
-21.1526579398
20
-5.2595693218
11
21.0688002501
21
-5.2595693218
0
LINE
5
22C
100
AcDbEntity
8
0
100
AcDbLine
62
0
6
CONTINUOUS
10
9.5252481552
20
-3.4738768063
11
9.7088361552
21
-3.4738768063
0
LINE
5
22D
100
AcDbEntity
8
0
100
AcDbLine
62
0
6
CONTINUOUS
10
10.7665551552
20
-3.4738768063
11
10.9501431552
21
-3.4738768063
0
LINE
5
22E
100
AcDbEntity
8
0
100
AcDbLine
62
0
6
CONTINUOUS
10
13.6330363799
20
-3.4738768063
11
14.6219101552
21
-3.4738768063
0
LINE
5
22F
100
AcDbEntity
8
0
100
AcDbLine
62
0
6
CONTINUOUS
10
14.6219101552
20
-3.2986328063
11
13.8885021727
21
-3.2986328063
0
LINE
5
230
100
AcDbEntity
8
0
100
AcDbLine
62
0
6
CONTINUOUS
10
10.1177371552
20
-3.1171308063
11
10.7665551552
21
-3.1171308063
0
LINE
5
231
100
AcDbEntity
8
0
100
AcDbLine
62
0
6
CONTINUOUS
10
10.9501431552
20
-3.1171308063
11
11.1525081552
21
-3.1171308063
0
LINE
5
232
100
AcDbEntity
8
0
100
AcDbLine
62
0
6
CONTINUOUS
10
11.1525081552
20
-2.9481468063
11
10.9501431552
21
-2.9481468063
0
LINE
5
233
100
AcDbEntity
8
0
100
AcDbLine
62
0
6
CONTINUOUS
10
10.7665551552
20
-2.9481468063
11
10.2980981552
21
-2.9481468063
0
LINE
5
234
100
AcDbEntity
8
0
100
AcDbLine
62
0
6
CONTINUOUS
10
11.6638951552
20
-2.1741548063
11
12.2582101552
21
-2.1741548063
0
LINE
5
235
100
AcDbEntity
8
0
100
AcDbLine
62
0
6
CONTINUOUS
10
12.2582101552
20
-1.9989118063
11
11.5175981552
21
-1.9989118063
0
LINE
5
236
100
AcDbEntity
8
0
100
AcDbLine
62
0
6
CONTINUOUS
10
10.9501431552
20
-1.9801348063
11
10.7999351552
21
-1.9801348063
0
LINE
5
237
100
AcDbEntity
8
0
100
AcDbLine
62
0
6
CONTINUOUS
10
9.7088361552
20
-1.9738768063
11
9.5905075984
21
-1.9738768063
0
LINE
5
238
100
AcDbEntity
8
0
100
AcDbLine
62
0
6
CONTINUOUS
10
-21.1919288448
20
-20.3487998063
11
-21.1578940604
21
-20.3147650220
0
LINE
5
239
100
AcDbEntity
8
0
100
AcDbLine
62
0
6
CONTINUOUS
10
-21.7918679136
20
-0.1487998063
11
-21.9918983792
21
-0.1487998063
0
LINE
5
23A
100
AcDbEntity
8
0
100
AcDbLine
62
0
6
CONTINUOUS
10
21.7080102240
20
-0.1487998063
11
21.9080406896
21
-0.1487998063
0
LINE
5
23B
100
AcDbEntity
8
0
100
AcDbLine
62
0
6
CONTINUOUS
10
-21.7918679136
20
0.1512001937
11
-21.9918983792
21
0.1512001937
0
LINE
5
23C
100
AcDbEntity
8
0
100
AcDbLine
62
0
6
CONTINUOUS
10
21.7080102240
20
0.1512001937
11
21.9080406896
21
0.1512001937
0
LINE
5
23D
100
AcDbEntity
8
0
100
AcDbLine
62
0
6
CONTINUOUS
10
13.6685022528
20
-2.4057268161
11
13.8562630704
21
-2.4245027979
0
LINE
5
23E
100
AcDbEntity
8
0
100
AcDbLine
62
0
6
CONTINUOUS
10
11.3736481552
20
-2.7666448063
11
11.5468056744
21
-2.7916788814
0
LINE
5
23F
100
AcDbEntity
8
0
100
AcDbLine
62
0
6
CONTINUOUS
10
12.5189890434
20
-2.3619157860
11
12.7025774892
21
-2.3952948671
0
LINE
5
240
100
AcDbEntity
8
0
100
AcDbLine
62
0
6
CONTINUOUS
10
-21.1578940604
20
20.3171654093
11
-21.1919288448
21
20.3512001937
0
LINE
5
241
100
AcDbEntity
8
0
100
AcDbLine
62
0
6
CONTINUOUS
10
21.0740363708
20
20.3171654093
11
21.1080711552
21
20.3512001937
0
LINE
5
242
100
AcDbEntity
8
0
100
AcDbLine
62
0
6
CONTINUOUS
10
15.0201321552
20
2.0012081937
11
15.3918401552
21
2.0012121937
0
LINE
5
243
100
AcDbEntity
8
0
100
AcDbLine
62
0
6
CONTINUOUS
10
12.4617371552
20
2.0012041937
11
12.7917491552
21
2.0012081937
0
LINE
5
244
100
AcDbEntity
8
0
100
AcDbLine
62
0
6
CONTINUOUS
10
11.2697021552
20
2.0012041937
11
11.5997061552
21
2.0012081937
0
LINE
5
245
100
AcDbEntity
8
0
100
AcDbLine
62
0
6
CONTINUOUS
10
9.9676671552
20
2.0012001937
11
10.2976791552
21
2.0012041937
0
LINE
5
246
100
AcDbEntity
8
0
100
AcDbLine
62
0
6
CONTINUOUS
10
8.8878531552
20
2.0012001937
11
9.2178781552
21
2.0012041937
0
LINE
5
247
100
AcDbEntity
8
0
100
AcDbLine
62
0
6
CONTINUOUS
10
10.6276831552
20
2.0012041937
11
10.9576961552
21
2.0012041937
0
LINE
5
248
100
AcDbEntity
8
0
100
AcDbLine
62
0
6
CONTINUOUS
10
11.9117171552
20
2.0012041937
11
12.2417301552
21
2.0012041937
0
LINE
5
249
100
AcDbEntity
8
0
100
AcDbLine
62
0
6
CONTINUOUS
10
14.0713361552
20
2.0012081937
11
14.4013531552
21
2.0012081937
0
LINE
5
24A
100
AcDbEntity
8
0
100
AcDbLine
62
0
6
CONTINUOUS
10
13.5213131552
20
2.0012081937
11
13.8513291552
21
2.0012041937
0
LINE
5
24B
100
AcDbEntity
8
0
100
AcDbLine
62
0
6
CONTINUOUS
10
12.8959341552
20
2.3257061937
11
13.4171321552
21
2.3257061937
0
LINE
5
24C
100
AcDbEntity
8
0
100
AcDbLine
62
0
6
CONTINUOUS
10
21.1080711552
20
-20.3487998063
11
21.0740363708
21
-20.3147650220
0
LINE
5
24D
100
AcDbEntity
8
0
100
AcDbLine
62
0
6
CONTINUOUS
10
13.3164651552
20
2.6392181937
11
12.9965961552
21
2.6392181937
0
LINE
5
24E
100
AcDbEntity
8
0
100
AcDbLine
62
0
6
CONTINUOUS
10
14.4013901552
20
2.6392221937
11
14.6894181552
21
2.6392181937
0
LINE
5
24F
100
AcDbEntity
8
0
100
AcDbLine
62
0
6
CONTINUOUS
10
14.7983244122
20
2.9444841937
11
14.3968031552
21
2.9444841937
0
LINE
5
250
100
AcDbEntity
8
0
100
AcDbLine
62
0
6
CONTINUOUS
10
14.3967991552
20
3.3460201937
11
14.7983244122
21
3.3460201937
0
LINE
5
251
100
AcDbEntity
8
0
100
AcDbLine
62
0
6
CONTINUOUS
10
12.2417301552
20
3.6512781937
11
11.7428401552
21
3.6512781937
0
LINE
5
252
100
AcDbEntity
8
0
100
AcDbLine
62
0
6
CONTINUOUS
10
11.1265731552
20
3.6512781937
11
10.6276831552
21
3.6512781937
0
LINE
5
253
100
AcDbEntity
8
0
100
AcDbLine
62
0
6
CONTINUOUS
10
10.2976831552
20
3.6512781937
11
9.9676711552
21
3.6512781937
0
LINE
5
254
100
AcDbEntity
8
0
100
AcDbLine
62
0
6
CONTINUOUS
10
9.7476641552
20
3.6512781937
11
9.4176471552
21
3.6512781937
0
LINE
5
255
100
AcDbEntity
8
0
100
AcDbLine
62
0
6
CONTINUOUS
10
8.6880881552
20
3.6512781937
11
8.3580711552
21
3.6512781937
0
LINE
5
256
100
AcDbEntity
8
0
100
AcDbLine
62
0
6
CONTINUOUS
10
14.8441506549
20
3.6512831937
11
14.0713361552
21
3.6512831937
0
LINE
5
257
100
AcDbEntity
8
0
100
AcDbLine
62
0
6
CONTINUOUS
10
13.3215431552
20
3.6512831937
11
12.9915141552
21
3.6512831937
0
LINE
5
258
100
AcDbEntity
8
0
100
AcDbLine
62
0
6
CONTINUOUS
10
-21.1526579398
20
5.2619697091
11
21.0688002501
21
5.2619697091
0
LINE
5
259
100
AcDbEntity
8
0
100
AcDbLine
62
0
6
CONTINUOUS
10
9.4176471552
20
3.6512781937
11
9.0528701552
21
2.5151131937
0
LINE
5
25A
100
AcDbEntity
8
0
100
AcDbLine
62
0
6
CONTINUOUS
10
9.2178781552
20
2.0012041937
11
9.7476641552
21
3.6512781937
0
LINE
5
25B
100
AcDbEntity
8
0
100
AcDbLine
62
0
6
CONTINUOUS
10
9.1580711552
20
-2.3488766038
11
9.1580711552
21
-2.5261736304
0
LINE
5
25C
100
AcDbEntity
8
0
100
AcDbLine
62
0
6
CONTINUOUS
10
9.5252481552
20
-2.3050654367
11
9.5252481552
21
-3.4738768063
0
LINE
5
25D
100
AcDbEntity
8
0
100
AcDbLine
62
0
6
CONTINUOUS
10
9.7088361552
20
-3.4738768063
11
9.7088361552
21
-1.9738768063
0
LINE
5
25E
100
AcDbEntity
8
0
100
AcDbLine
62
0
6
CONTINUOUS
10
9.9676711552
20
3.6512781937
11
9.9676671552
21
2.0012001937
0
LINE
5
25F
100
AcDbEntity
8
0
100
AcDbLine
62
0
6
CONTINUOUS
10
10.1177371552
20
-2.9481468063
11
10.1177371552
21
-3.1171308063
0
LINE
5
260
100
AcDbEntity
8
0
100
AcDbLine
62
0
6
CONTINUOUS
10
10.2976791552
20
2.0012041937
11
10.2976831552
21
3.6512781937
0
LINE
5
261
100
AcDbEntity
8
0
100
AcDbLine
62
0
6
CONTINUOUS
10
11.7428401552
20
3.6512781937
11
11.4347061552
21
2.5766911937
0
LINE
5
262
100
AcDbEntity
8
0
100
AcDbLine
62
0
6
CONTINUOUS
10
11.5997061552
20
2.0012081937
11
11.9117131552
21
3.0893171937
0
LINE
5
263
100
AcDbEntity
8
0
100
AcDbLine
62
0
6
CONTINUOUS
10
10.2980981552
20
-2.9481468063
11
10.7665551552
21
-2.2761518063
0
LINE
5
264
100
AcDbEntity
8
0
100
AcDbLine
62
0
6
CONTINUOUS
10
10.7999351552
20
-1.9801348063
11
10.1177371552
21
-2.9481468063
0
LINE
5
265
100
AcDbEntity
8
0
100
AcDbLine
62
0
6
CONTINUOUS
10
8.3580711552
20
3.6512781937
11
8.8878531552
21
2.0012001937
0
LINE
5
266
100
AcDbEntity
8
0
100
AcDbLine
62
0
6
CONTINUOUS
10
9.0528701552
20
2.5151131937
11
8.6880881552
21
3.6512781937
0
LINE
5
267
100
AcDbEntity
8
0
100
AcDbLine
62
0
6
CONTINUOUS
10
10.6276831552
20
3.6512781937
11
10.6276831552
21
2.0012041937
0
LINE
5
268
100
AcDbEntity
8
0
100
AcDbLine
62
0
6
CONTINUOUS
10
10.7665551552
20
-2.2761518063
11
10.7665551552
21
-2.9481468063
0
LINE
5
269
100
AcDbEntity
8
0
100
AcDbLine
62
0
6
CONTINUOUS
10
10.7665551552
20
-3.1171308063
11
10.7665551552
21
-3.4738768063
0
LINE
5
26A
100
AcDbEntity
8
0
100
AcDbLine
62
0
6
CONTINUOUS
10
10.9501431552
20
-3.4738768063
11
10.9501431552
21
-3.1171308063
0
LINE
5
26B
100
AcDbEntity
8
0
100
AcDbLine
62
0
6
CONTINUOUS
10
10.9501431552
20
-2.9481468063
11
10.9501431552
21
-1.9801348063
0
LINE
5
26C
100
AcDbEntity
8
0
100
AcDbLine
62
0
6
CONTINUOUS
10
10.9576961552
20
2.0012041937
11
10.9576961552
21
3.0893171937
0
LINE
5
26D
100
AcDbEntity
8
0
100
AcDbLine
62
0
6
CONTINUOUS
10
11.1525081552
20
-3.1171308063
11
11.1525081552
21
-2.9481468063
0
LINE
5
26E
100
AcDbEntity
8
0
100
AcDbLine
62
0
6
CONTINUOUS
10
11.9117131552
20
3.0893171937
11
11.9117171552
21
2.0012041937
0
LINE
5
26F
100
AcDbEntity
8
0
100
AcDbLine
62
0
6
CONTINUOUS
10
12.2417301552
20
2.0012041937
11
12.2417301552
21
3.6512781937
0
LINE
5
270
100
AcDbEntity
8
0
100
AcDbLine
62
0
6
CONTINUOUS
10
12.2582101552
20
-2.1741548063
11
12.2582101552
21
-1.9989118063
0
LINE
5
271
100
AcDbEntity
8
0
100
AcDbLine
62
0
6
CONTINUOUS
10
11.5175981552
20
-1.9989118063
11
11.3736481552
21
-2.7666448063
0
LINE
5
272
100
AcDbEntity
8
0
100
AcDbLine
62
0
6
CONTINUOUS
10
11.5842270706
20
-2.5770582340
11
11.6638951552
21
-2.1741548063
0
LINE
5
273
100
AcDbEntity
8
0
100
AcDbLine
62
0
6
CONTINUOUS
10
12.9915141552
20
3.6512831937
11
12.4617371552
21
2.0012041937
0
LINE
5
274
100
AcDbEntity
8
0
100
AcDbLine
62
0
6
CONTINUOUS
10
12.7917491552
20
2.0012081937
11
12.8959341552
21
2.3257061937
0
LINE
5
275
100
AcDbEntity
8
0
100
AcDbLine
62
0
6
CONTINUOUS
10
12.9965961552
20
2.6392181937
11
13.1565271552
21
3.1373691937
0
LINE
5
276
100
AcDbEntity
8
0
100
AcDbLine
62
0
6
CONTINUOUS
10
10.9576961552
20
3.0893171937
11
11.2697021552
21
2.0012041937
0
LINE
5
277
100
AcDbEntity
8
0
100
AcDbLine
62
0
6
CONTINUOUS
10
11.4347061552
20
2.5766911937
11
11.1265731552
21
3.6512781937
0
LINE
5
278
100
AcDbEntity
8
0
100
AcDbLine
62
0
6
CONTINUOUS
10
14.0713361552
20
3.6512831937
11
14.0713361552
21
2.0012081937
0
LINE
5
279
100
AcDbEntity
8
0
100
AcDbLine
62
0
6
CONTINUOUS
10
14.3968031552
20
2.9444841937
11
14.3967991552
21
3.3460201937
0
LINE
5
27A
100
AcDbEntity
8
0
100
AcDbLine
62
0
6
CONTINUOUS
10
14.6219101552
20
-3.4738768063
11
14.6219101552
21
-3.2986328063
0
LINE
5
27B
100
AcDbEntity
8
0
100
AcDbLine
62
0
6
CONTINUOUS
10
14.4013531552
20
2.0012081937
11
14.4013901552
21
2.6392221937
0
LINE
5
27C
100
AcDbEntity
8
0
100
AcDbLine
62
0
6
CONTINUOUS
10
12.8827102167
20
-2.6039183224
11
12.8623041049
21
-2.7645582021
0
LINE
5
27D
100
AcDbEntity
8
0
100
AcDbLine
62
0
6
CONTINUOUS
10
14.6894181552
20
2.6392181937
11
15.0201321552
21
2.0012081937
0
LINE
5
27E
100
AcDbEntity
8
0
100
AcDbLine
62
0
6
CONTINUOUS
10
15.3918401552
20
2.0012121937
11
15.0405587535
21
2.6789059686
0
LINE
5
27F
100
AcDbEntity
8
0
100
AcDbLine
62
0
6
CONTINUOUS
10
13.1565271552
20
3.1373691937
11
13.3164651552
21
2.6392181937
0
LINE
5
280
100
AcDbEntity
8
0
100
AcDbLine
62
0
6
CONTINUOUS
10
13.4171321552
20
2.3257061937
11
13.5213131552
21
2.0012081937
0
LINE
5
281
100
AcDbEntity
8
0
100
AcDbLine
62
0
6
CONTINUOUS
10
13.8513291552
20
2.0012041937
11
13.3215431552
21
3.6512831937
0
LINE
5
282
100
AcDbEntity
8
0
100
AcDbLine
62
0
6
CONTINUOUS
10
16.7080711552
20
20.0012001937
11
16.7080711552
21
20.3512001937
0
LINE
5
283
100
AcDbEntity
8
0
100
AcDbLine
62
0
6
CONTINUOUS
10
16.7080711552
20
-19.9987998063
11
16.7080711552
21
-20.3487998063
0
LINE
5
284
100
AcDbEntity
8
0
100
AcDbLine
62
0
6
CONTINUOUS
10
17.2231225183
20
20.0012001937
11
19.2037832596
21
20.3504441220
0
LINE
5
285
100
AcDbEntity
8
0
100
AcDbLine
62
9
6
CONTINUOUS
10
17.2056247856
20
20.0597788374
11
18.8583574251
21
20.3512001937
0
LINE
5
286
100
AcDbEntity
8
0
100
AcDbLine
62
0
6
CONTINUOUS
10
-21.1578940604
20
16.8512001937
11
21.0740363708
21
16.8512001937
0
LINE
5
287
100
AcDbEntity
8
0
100
AcDbLine
62
0
6
CONTINUOUS
10
-19.2876409492
20
20.3504441220
11
-17.3069802080
21
20.0012001937
0
LINE
5
288
100
AcDbEntity
8
0
100
AcDbLine
62
9
6
CONTINUOUS
10
-18.9422151147
20
20.3512001937
11
-17.2894824753
21
20.0597788374
0
LINE
5
289
100
AcDbEntity
8
0
100
AcDbLine
62
0
6
CONTINUOUS
10
17.2229915778
20
20.0012001937
11
16.7080711552
21
20.0012001937
0
LINE
5
28A
100
AcDbEntity
8
0
100
AcDbLine
62
0
6
CONTINUOUS
10
-16.7919288448
20
20.0012001937
11
-17.3068492674
21
20.0012001937
0
LINE
5
28B
100
AcDbEntity
8
0
100
AcDbLine
62
9
6
CONTINUOUS
10
17.2056247856
20
20.0597788374
11
16.7080711552
21
20.0597788374
0
LINE
5
28C
100
AcDbEntity
8
0
100
AcDbLine
62
9
6
CONTINUOUS
10
-16.7919288448
20
20.0597788374
11
-17.2894824753
21
20.0597788374
0
LINE
5
28D
100
AcDbEntity
8
0
100
AcDbLine
62
0
6
CONTINUOUS
10
-21.1578940604
20
20.3171654093
11
-19.0989079909
21
20.3171654093
0
LINE
5
28E
100
AcDbEntity
8
0
100
AcDbLine
62
0
6
CONTINUOUS
10
-16.7919288448
20
20.3171654093
11
16.7080711552
21
20.3171654093
0
LINE
5
28F
100
AcDbEntity
8
0
100
AcDbLine
62
0
6
CONTINUOUS
10
19.0150503013
20
20.3171654093
11
21.0740363708
21
20.3171654093
0
LINE
5
290
100
AcDbEntity
8
0
100
AcDbLine
62
0
6
CONTINUOUS
10
-21.1919288448
20
20.3512001937
11
21.1080711552
21
20.3512001937
0
LINE
5
291
100
AcDbEntity
8
0
100
AcDbLine
62
0
6
CONTINUOUS
10
21.0740363708
20
-16.8487998063
11
21.0688002501
21
-5.2595693218
0
LINE
5
292
100
AcDbEntity
8
0
100
AcDbLine
62
0
6
CONTINUOUS
10
21.0688002501
20
-5.2595693218
11
21.0688002501
21
5.2619697091
0
LINE
5
293
100
AcDbEntity
8
0
100
AcDbLine
62
0
6
CONTINUOUS
10
21.0740363708
20
20.3171654093
11
21.0740363708
21
16.8512001937
0
LINE
5
294
100
AcDbEntity
8
0
100
AcDbLine
62
0
6
CONTINUOUS
10
21.0740363708
20
-16.8487998063
11
21.0740363708
21
-20.3147650220
0
LINE
5
295
100
AcDbEntity
8
0
100
AcDbLine
62
0
6
CONTINUOUS
10
21.1080711552
20
20.3512001937
11
21.1080711552
21
-20.3487998063
0
LINE
5
296
100
AcDbEntity
8
0
100
AcDbLine
62
0
6
CONTINUOUS
10
21.7080102240
20
-0.1487998063
11
21.7080102240
21
0.1512001937
0
LINE
5
297
100
AcDbEntity
8
0
100
AcDbLine
62
0
6
CONTINUOUS
10
22.1080711552
20
21.0513220375
11
22.1080711552
21
0.3512001937
0
LINE
5
298
100
AcDbEntity
8
0
100
AcDbLine
62
0
6
CONTINUOUS
10
22.1080711552
20
-0.3487998063
11
22.1080711552
21
-21.0489216502
0
LINE
5
299
100
AcDbEntity
8
0
100
AcDbLine
62
0
6
CONTINUOUS
10
21.0688002501
20
5.2619697091
11
21.0740363708
21
16.8512001937
0
LINE
5
29A
100
AcDbEntity
8
0
100
AcDbLine
62
0
6
CONTINUOUS
10
-21.3920506887
20
21.8512001937
11
21.3081929991
21
21.8512001937
0
CIRCLE
5
29B
100
AcDbEntity
8
0
100
AcDbCircle
62
0
6
CONTINUOUS
10
-0.0419288448
20
0.0012001937
40
1.2500000000
0
CIRCLE
5
29C
100
AcDbEntity
8
0
100
AcDbCircle
62
0
6
CONTINUOUS
10
-0.0419288448
20
0.0012001937
40
1.2185839459
0
CIRCLE
5
29D
100
AcDbEntity
8
0
100
AcDbCircle
62
0
6
CONTINUOUS
10
-0.0419288448
20
0.0012001937
40
1.7000000000
0
CIRCLE
5
29E
100
AcDbEntity
8
0
100
AcDbCircle
62
0
6
CONTINUOUS
10
-0.0419288448
20
0.0012001937
40
1.7750000000
0
CIRCLE
5
29F
100
AcDbEntity
8
0
100
AcDbCircle
62
0
6
CONTINUOUS
10
-0.0419288448
20
0.0012001937
40
2.7500000000
0
CIRCLE
5
2A0
100
AcDbEntity
8
0
100
AcDbCircle
62
9
6
CONTINUOUS
10
-0.0419288448
20
0.0012001937
40
2.2947467430
0
ARC
5
2A1
100
AcDbEntity
8
0
100
AcDbCircle
62
0
6
CONTINUOUS
10
14.7983091552
20
3.1452521937
40
0.2007690000
100
AcDbArc
50
270.0043541036
51
89.9956458964
0
ARC
5
2A2
100
AcDbEntity
8
0
100
AcDbCircle
62
0
6
CONTINUOUS
10
14.8441141552
20
3.1452521937
40
0.5060329798
100
AcDbArc
50
292.8428677796
51
89.9958672882
0
CIRCLE
5
2A3
100
AcDbEntity
8
0
100
AcDbCircle
62
0
6
CONTINUOUS
10
-0.0419288448
20
0.0012001937
40
2.7447296094
0
SPLINE
5
2A4
100
AcDbEntity
8
0
100
AcDbSpline
62
0
6
CONTINUOUS
70
0
71
3
72
14
73
10
74
8
42
0.0000001000
43
0.0000001000
44
0.0000000001
12
-0.2723774530
22
-0.2379882340
32
0.0000000000
13
-0.0330728069
23
-0.3601280602
33
0.0000000000
40
0.0000000000
40
0.0000000000
40
0.0000000000
40
0.0000000000
40
0.0149306518
40
0.0800048474
40
0.1449806158
40
0.2755641343
40
0.4086893047
40
0.6893565001
40
1.0000000000
40
1.0000000000
40
1.0000000000
40
1.0000000000
10
13.8144270915
20
-2.0842780525
30
0.0000000000
10
13.8130715005
20
-2.0854624923
30
0.0000000000
10
13.8058514387
20
-2.0918593855
30
0.0000000000
10
13.7932034309
20
-2.1039374022
30
0.0000000000
10
13.7718549084
20
-2.1270117463
30
0.0000000000
10
13.7476980498
20
-2.1585570825
30
0.0000000000
10
13.7143086116
20
-2.2152134062
30
0.0000000000
10
13.6835569804
20
-2.2977202613
30
0.0000000000
10
13.6719268890
20
-2.3684363375
30
0.0000000000
10
13.6685022715
20
-2.4057268178
30
0.0000000000
11
13.8144270915
21
-2.0842780525
31
0.0000000000
11
13.8103850339
21
-2.0878594308
31
0.0000000000
11
13.7933683712
21
-2.1041157034
31
0.0000000000
11
13.7774105058
21
-2.1213640546
31
0.0000000000
11
13.7486711669
21
-2.1588369930
31
0.0000000000
11
13.7241670171
21
-2.2002782459
31
0.0000000000
11
13.6878642850
21
-2.2950656954
31
0.0000000000
11
13.6685022715
21
-2.4057268178
31
0.0000000000
0
SPLINE
5
2A5
100
AcDbEntity
8
0
100
AcDbSpline
62
0
6
CONTINUOUS
70
0
71
3
72
14
73
10
74
8
42
0.0000001000
43
0.0000001000
44
0.0000000001
12
-0.0620200008
22
0.0000000000
32
0.0000000000
13
-0.0106120410
23
0.0611053606
33
0.0000000000
40
0.0000000000
40
0.0000000000
40
0.0000000000
40
0.0000000000
40
0.0389317246
40
0.1096836358
40
0.2172426316
40
0.3616733369
40
0.5416916402
40
0.7553038063
40
1.0000000000
40
1.0000000000
40
1.0000000000
40
1.0000000000
10
17.2229915778
20
20.0012001937
30
0.0000000000
10
17.2221867292
20
20.0012001937
30
0.0000000000
10
17.2202515133
20
20.0029361741
30
0.0000000000
10
17.2183141555
20
20.0068514637
30
0.0000000000
10
17.2159167714
20
20.0131565177
30
0.0000000000
10
17.2134753360
20
20.0217267680
30
0.0000000000
10
17.2108653274
20
20.0325511370
30
0.0000000000
10
17.2081944007
20
20.0454729486
30
0.0000000000
10
17.2064903610
20
20.0547947544
30
0.0000000000
10
17.2056247856
20
20.0597788374
30
0.0000000000
11
17.2229915778
21
20.0012001937
31
0.0000000000
11
17.2209335134
21
20.0024628897
31
0.0000000000
11
17.2186842220
21
20.0062305850
31
0.0000000000
11
17.2162722356
21
20.0124500716
31
0.0000000000
11
17.2137279286
21
20.0210387249
31
0.0000000000
11
17.2110831548
21
20.0318856823
31
0.0000000000
11
17.2083708759
21
20.0448532979
31
0.0000000000
11
17.2056247856
21
20.0597788374
31
0.0000000000
0
SPLINE
5
2A6
100
AcDbEntity
8
0
100
AcDbSpline
62
0
6
CONTINUOUS
70
0
71
3
72
14
73
10
74
8
42
0.0000001000
43
0.0000001000
44
0.0000000001
12
-0.0620200008
22
0.0000000000
32
0.0000000000
13
-0.0106120410
23
-0.0611053606
33
0.0000000000
40
0.0000000000
40
0.0000000000
40
0.0000000000
40
0.0000000000
40
0.0389317246
40
0.1096836358
40
0.2172426316
40
0.3616733369
40
0.5416916402
40
0.7553038063
40
1.0000000000
40
1.0000000000
40
1.0000000000
40
1.0000000000
10
17.2229915778
20
-19.9987998063
30
0.0000000000
10
17.2221867292
20
-19.9987998063
30
0.0000000000
10
17.2202515133
20
-20.0005357868
30
0.0000000000
10
17.2183141555
20
-20.0044510764
30
0.0000000000
10
17.2159167714
20
-20.0107561304
30
0.0000000000
10
17.2134753360
20
-20.0193263807
30
0.0000000000
10
17.2108653274
20
-20.0301507497
30
0.0000000000
10
17.2081944007
20
-20.0430725613
30
0.0000000000
10
17.2064903610
20
-20.0523943671
30
0.0000000000
10
17.2056247856
20
-20.0573784501
30
0.0000000000
11
17.2229915778
21
-19.9987998063
31
0.0000000000
11
17.2209335134
21
-20.0000625024
31
0.0000000000
11
17.2186842220
21
-20.0038301977
31
0.0000000000
11
17.2162722356
21
-20.0100496843
31
0.0000000000
11
17.2137279286
21
-20.0186383376
31
0.0000000000
11
17.2110831548
21
-20.0294852950
31
0.0000000000
11
17.2083708759
21
-20.0424529106
31
0.0000000000
11
17.2056247856
21
-20.0573784501
31
0.0000000000
0
SPLINE
5
2A7
100
AcDbEntity
8
0
100
AcDbSpline
62
0
6
CONTINUOUS
70
0
71
3
72
14
73
10
74
8
42
0.0000001000
43
0.0000001000
44
0.0000000001
12
0.0620200008
22
0.0000000000
32
0.0000000000
13
0.0106120410
23
-0.0611053606
33
0.0000000000
40
0.0000000000
40
0.0000000000
40
0.0000000000
40
0.0000000000
40
0.0389317246
40
0.1096836358
40
0.2172426316
40
0.3616733369
40
0.5416916402
40
0.7553038063
40
1.0000000000
40
1.0000000000
40
1.0000000000
40
1.0000000000
10
-17.3068492674
20
-19.9987998063
30
0.0000000000
10
-17.3060444189
20
-19.9987998063
30
0.0000000000
10
-17.3041092029
20
-20.0005357868
30
0.0000000000
10
-17.3021718452
20
-20.0044510764
30
0.0000000000
10
-17.2997744611
20
-20.0107561304
30
0.0000000000
10
-17.2973330256
20
-20.0193263807
30
0.0000000000
10
-17.2947230171
20
-20.0301507497
30
0.0000000000
10
-17.2920520903
20
-20.0430725613
30
0.0000000000
10
-17.2903480506
20
-20.0523943671
30
0.0000000000
10
-17.2894824753
20
-20.0573784501
30
0.0000000000
11
-17.3068492674
21
-19.9987998063
31
0.0000000000
11
-17.3047912030
21
-20.0000625024
31
0.0000000000
11
-17.3025419117
21
-20.0038301977
31
0.0000000000
11
-17.3001299253
21
-20.0100496843
31
0.0000000000
11
-17.2975856183
21
-20.0186383376
31
0.0000000000
11
-17.2949408445
21
-20.0294852950
31
0.0000000000
11
-17.2922285655
21
-20.0424529106
31
0.0000000000
11
-17.2894824753
21
-20.0573784501
31
0.0000000000
0
SPLINE
5
2A8
100
AcDbEntity
8
0
100
AcDbSpline
62
0
6
CONTINUOUS
70
0
71
3
72
14
73
10
74
8
42
0.0000001000
43
0.0000001000
44
0.0000000001
12
0.0620200008
22
0.0000000000
32
0.0000000000
13
0.0106120410
23
0.0611053606
33
0.0000000000
40
0.0000000000
40
0.0000000000
40
0.0000000000
40
0.0000000000
40
0.0389317246
40
0.1096836358
40
0.2172426316
40
0.3616733369
40
0.5416916402
40
0.7553038063
40
1.0000000000
40
1.0000000000
40
1.0000000000
40
1.0000000000
10
-17.3068492674
20
20.0012001937
30
0.0000000000
10
-17.3060444189
20
20.0012001937
30
0.0000000000
10
-17.3041092029
20
20.0029361741
30
0.0000000000
10
-17.3021718452
20
20.0068514637
30
0.0000000000
10
-17.2997744611
20
20.0131565177
30
0.0000000000
10
-17.2973330256
20
20.0217267680
30
0.0000000000
10
-17.2947230171
20
20.0325511370
30
0.0000000000
10
-17.2920520903
20
20.0454729486
30
0.0000000000
10
-17.2903480506
20
20.0547947544
30
0.0000000000
10
-17.2894824753
20
20.0597788374
30
0.0000000000
11
-17.3068492674
21
20.0012001937
31
0.0000000000
11
-17.3047912030
21
20.0024628897
31
0.0000000000
11
-17.3025419117
21
20.0062305850
31
0.0000000000
11
-17.3001299253
21
20.0124500716
31
0.0000000000
11
-17.2975856183
21
20.0210387249
31
0.0000000000
11
-17.2949408445
21
20.0318856823
31
0.0000000000
11
-17.2922285655
21
20.0448532979
31
0.0000000000
11
-17.2894824753
21
20.0597788374
31
0.0000000000
0
SPLINE
5
2A9
100
AcDbEntity
8
0
100
AcDbSpline
62
0
6
CONTINUOUS
70
0
71
3
72
20
73
16
74
14
42
0.0000001000
43
0.0000001000
44
0.0000000001
12
-0.3139920960
22
0.0000000000
32
0.0000000000
13
0.0000000000
23
-0.3139920960
33
0.0000000000
40
0.0000000000
40
0.0000000000
40
0.0000000000
40
0.0000000000
40
0.0766769394
40
0.1537626427
40
0.2306557316
40
0.3073962026
40
0.3846179431
40
0.4617356747
40
0.5383974664
40
0.6154991133
40
0.6927108307
40
0.7694445799
40
0.8463036489
40
0.9233495776
40
1.0000000000
40
1.0000000000
40
1.0000000000
40
1.0000000000
10
-21.9918983792
20
-0.1487998063
30
0.0000000000
10
-21.9999236969
20
-0.1487998063
30
0.0000000000
10
-22.0160338738
20
-0.1497705007
30
0.0000000000
10
-22.0398363887
20
-0.1541256073
30
0.0000000000
10
-22.0629494415
20
-0.1613221212
30
0.0000000000
10
-22.0850401871
20
-0.1712535936
30
0.0000000000
10
-22.1057930074
20
-0.1837896273
30
0.0000000000
10
-22.1248710814
20
-0.1987377790
30
0.0000000000
10
-22.1419997393
20
-0.2158660773
30
0.0000000000
10
-22.1569467081
20
-0.2349415806
30
0.0000000000
10
-22.1694815428
20
-0.2556911126
30
0.0000000000
10
-22.1794110482
20
-0.2777769348
30
0.0000000000
10
-22.1866050423
20
-0.3008819139
30
0.0000000000
10
-22.1909584582
20
-0.3246740276
30
0.0000000000
10
-22.1919288448
20
-0.3407772641
30
0.0000000000
10
-22.1919288448
20
-0.3487998063
30
0.0000000000
11
-21.9918983792
21
-0.1487998063
31
0.0000000000
11
-22.0159307076
21
-0.1502484953
31
0.0000000000
11
-22.0397398466
21
-0.1546043091
31
0.0000000000
11
-22.0627920349
21
-0.1617821056
31
0.0000000000
11
-22.0847691112
21
-0.1716624184
31
0.0000000000
11
-22.1055234148
21
-0.1841994306
31
0.0000000000
11
-22.1245838660
21
-0.1991337649
31
0.0000000000
11
-22.1416049325
21
-0.2161545112
31
0.0000000000
11
-22.1565366249
21
-0.2352106163
31
0.0000000000
11
-22.1690725446
21
-0.2559619030
31
0.0000000000
11
-22.1789521599
21
-0.2779369787
31
0.0000000000
11
-22.1861267470
21
-0.3009789785
31
0.0000000000
11
-22.1904804992
21
-0.3247757985
31
0.0000000000
11
-22.1919288448
21
-0.3487998063
31
0.0000000000
0
SPLINE
5
2AA
100
AcDbEntity
8
0
100
AcDbSpline
62
0
6
CONTINUOUS
70
0
71
3
72
61
73
57
74
55
42
0.0000001000
43
0.0000001000
44
0.0000000001
12
0.0065338832
22
0.9055354060
32
0.0000000000
13
-0.0149777768
23
-0.9054446335
33
0.0000000000
40
0.0000000000
40
0.0000000000
40
0.0000000000
40
0.0000000000
40
0.0820124355
40
0.1561584650
40
0.1914198609
40
0.2261081484
40
0.2434144260
40
0.2607806885
40
0.2694954185
40
0.2781736049
40
0.2954238534
40
0.3125869334
40
0.3297257673
40
0.3641674399
40
0.3992617237
40
0.4172089266
40
0.4354922187
40
0.4541636812
40
0.4732722215
40
0.4830054597
40
0.4928647973
40
0.5028554256
40
0.5129823340
40
0.5180984706
40
0.5231868899
40
0.5256210723
40
0.5280472380
40
0.5328757750
40
0.5424395475
40
0.5518829176
40
0.5704263091
40
0.5885471137
40
0.6062881934
40
0.6236952156
40
0.6576899202
40
0.6909575601
40
0.7239401366
40
0.7404733298
40
0.7571050545
40
0.7654760810
40
0.7738618266
40
0.7903941966
40
0.8066280108
40
0.8226120905
40
0.8540240670
40
0.8850727962
40
0.9162034996
40
0.9319449890
40
0.9478711141
40
0.9640335721
40
0.9804818318
40
0.9888286133
40
0.9930350538
40
0.9951468268
40
0.9971847524
40
1.0000000000
40
1.0000000000
40
1.0000000000
40
1.0000000000
10
13.8562630861
20
-2.4245027980
30
0.0000000000
10
13.8564417060
20
-2.3997477433
30
0.0000000000
10
13.8602787336
20
-2.3524925710
30
0.0000000000
10
13.8764946061
20
-2.2965023443
30
0.0000000000
10
13.8959711054
20
-2.2575013698
30
0.0000000000
10
13.9106072499
20
-2.2355117016
30
0.0000000000
10
13.9238122968
20
-2.2192502032
30
0.0000000000
10
13.9326952411
20
-2.2096134102
30
0.0000000000
10
13.9401579325
20
-2.2022363783
30
0.0000000000
10
13.9478072088
20
-2.1951042225
30
0.0000000000
10
13.9577134959
20
-2.1866618534
30
0.0000000000
10
13.9701527255
20
-2.1772960356
30
0.0000000000
10
13.9874661908
20
-2.1658384320
30
0.0000000000
10
14.0105724271
20
-2.1534212084
30
0.0000000000
10
14.0352137574
20
-2.1437546074
30
0.0000000000
10
14.0558540210
20
-2.1375999789
30
0.0000000000
10
14.0719775763
20
-2.1337333689
30
0.0000000000
10
14.0886248022
20
-2.1306520325
30
0.0000000000
10
14.1028463543
20
-2.1287497617
30
0.0000000000
10
14.1144738387
20
-2.1276133687
30
0.0000000000
10
14.1233798956
20
-2.1269515010
30
0.0000000000
10
14.1324172145
20
-2.1264853884
30
0.0000000000
10
14.1400314195
20
-2.1262607477
30
0.0000000000
10
14.1461680667
20
-2.1261783164
30
0.0000000000
10
14.1499831715
20
-2.1261667676
30
0.0000000000
10
14.1529862113
20
-2.1261815694
30
0.0000000000
10
14.1559106915
20
-2.1262114999
30
0.0000000000
10
14.1609866369
20
-2.1263038399
30
0.0000000000
10
14.1681779325
20
-2.1265505934
30
0.0000000000
10
14.1794953631
20
-2.1271896174
30
0.0000000000
10
14.1933619174
20
-2.1284437406
30
0.0000000000
10
14.2096348982
20
-2.1306997444
30
0.0000000000
10
14.2254397494
20
-2.1336982836
30
0.0000000000
10
14.2457234709
20
-2.1386456845
30
0.0000000000
10
14.2700438037
20
-2.1466844216
30
0.0000000000
10
14.2975682136
20
-2.1594112502
30
0.0000000000
10
14.3189170248
20
-2.1725194116
30
0.0000000000
10
14.3349531594
20
-2.1844306337
30
0.0000000000
10
14.3445728676
20
-2.1924839198
30
0.0000000000
10
14.3520165240
20
-2.1992801834
30
0.0000000000
10
14.3592452067
20
-2.2062614303
30
0.0000000000
10
14.3678488005
20
-2.2152296866
30
0.0000000000
10
14.3774515347
20
-2.2263903232
30
0.0000000000
10
14.3891534134
20
-2.2416310115
30
0.0000000000
10
14.4019432414
20
-2.2616289518
30
0.0000000000
10
14.4142422620
20
-2.2871352205
30
0.0000000000
10
14.4218494680
20
-2.3094564797
30
0.0000000000
10
14.4263599916
20
-2.3278767053
30
0.0000000000
10
14.4289806109
20
-2.3420829762
30
0.0000000000
10
14.4308247801
20
-2.3566247279
30
0.0000000000
10
14.4317107188
20
-2.3689624715
30
0.0000000000
10
14.4319958329
20
-2.3777128385
30
0.0000000000
10
14.4320548659
20
-2.3821392411
30
0.0000000000
10
14.4320647860
20
-2.3846615625
30
0.0000000000
10
14.4320591979
20
-2.3867639593
30
0.0000000000
10
14.4320423301
20
-2.3882288417
30
0.0000000000
10
14.4320282747
20
-2.3890785253
30
0.0000000000
11
13.8562630861
21
-2.4245027980
31
0.0000000000
11
13.8630624628
21
-2.3505476066
31
0.0000000000
11
13.8823237356
21
-2.2862260162
31
0.0000000000
11
13.8966275840
21
-2.2576777025
31
0.0000000000
11
13.9140469069
21
-2.2315377098
31
0.0000000000
11
13.9239248714
21
-2.2193708339
31
0.0000000000
11
13.9345817045
21
-2.2078060382
31
0.0000000000
11
13.9401924354
21
-2.2022563840
31
0.0000000000
11
13.9459408769
21
-2.1968979170
31
0.0000000000
11
13.9578321497
21
-2.1867679143
31
0.0000000000
11
13.9702492755
21
-2.1774204870
31
0.0000000000
11
13.9831922544
21
-2.1688556350
31
0.0000000000
11
14.0106557714
21
-2.1540736570
31
0.0000000000
11
14.0402227007
21
-2.1424219802
31
0.0000000000
11
14.0557949450
21
-2.1377700047
31
0.0000000000
11
14.0718930423
21
-2.1339006046
31
0.0000000000
11
14.0885169927
21
-2.1308137797
31
0.0000000000
11
14.1056667962
21
-2.1285095302
31
0.0000000000
11
14.1144388928
21
-2.1276508712
31
0.0000000000
11
14.1233424528
21
-2.1269878560
31
0.0000000000
11
14.1323774759
21
-2.1265204846
31
0.0000000000
11
14.1415439624
21
-2.1262487571
31
0.0000000000
11
14.1461765043
21
-2.1261862598
31
0.0000000000
11
14.1507843481
21
-2.1261726082
31
0.0000000000
11
14.1529886168
21
-2.1261835336
31
0.0000000000
11
14.1551855378
21
-2.1262060269
31
0.0000000000
11
14.1595573367
21
-2.1262857176
31
0.0000000000
11
14.1682127618
21
-2.1265839151
31
0.0000000000
11
14.1767506233
21
-2.1270672006
31
0.0000000000
11
14.1934736559
21
-2.1285890360
31
0.0000000000
11
14.2097264344
21
-2.1308512236
31
0.0000000000
11
14.2255089589
21
-2.1338537636
31
0.0000000000
11
14.2408212293
21
-2.1375966559
31
0.0000000000
11
14.2700350078
21
-2.1473034975
31
0.0000000000
11
14.2973677702
21
-2.1599717484
31
0.0000000000
11
14.3228195163
21
-2.1756014086
31
0.0000000000
11
14.3348400082
21
-2.1845267672
31
0.0000000000
11
14.3463902461
21
-2.1941924782
31
0.0000000000
11
14.3519890197
21
-2.1993029657
31
0.0000000000
11
14.3574533801
21
-2.2045761406
31
0.0000000000
11
14.3678103627
21
-2.2153865450
31
0.0000000000
11
14.3773937948
21
-2.2265340884
31
0.0000000000
11
14.3862036763
21
-2.2380187706
31
0.0000000000
11
14.4015027877
21
-2.2619995518
31
0.0000000000
11
14.4137076967
21
-2.2873288887
31
0.0000000000
11
14.4228184034
21
-2.3140067812
31
0.0000000000
11
14.4262134309
21
-2.3278514359
31
0.0000000000
11
14.4288349079
21
-2.3420332295
31
0.0000000000
11
14.4306828342
21
-2.3565521620
31
0.0000000000
11
14.4317572100
21
-2.3714082334
31
0.0000000000
11
14.4320043165
21
-2.3789626962
31
0.0000000000
11
14.4320553493
21
-2.3827715343
31
0.0000000000
11
14.4320627356
21
-2.3846838551
31
0.0000000000
11
14.4320575339
21
-2.3865293097
31
0.0000000000
11
14.4320282747
21
-2.3890785253
31
0.0000000000
0
SPLINE
5
2AB
100
AcDbEntity
8
0
100
AcDbSpline
62
0
6
CONTINUOUS
70
0
71
3
72
154
73
150
74
148
42
0.0000001000
43
0.0000001000
44
0.0000000001
12
1.1849946179
22
1.9292340139
32
0.0000000000
13
-1.7052433974
23
-1.4899466173
33
0.0000000000
40
0.0000000000
40
0.0000000000
40
0.0000000000
40
0.0000000000
40
0.0148526870
40
0.0225131079
40
0.0303386381
40
0.0383360576
40
0.0424013215
40
0.0465119046
40
0.0506685375
40
0.0527643553
40
0.0548719486
40
0.0570141987
40
0.0593016379
40
0.0617491214
40
0.0643568656
40
0.0700537877
40
0.0763935605
40
0.0910045318
40
0.0992769176
40
0.1081943724
40
0.1177571828
40
0.1279655810
40
0.1388197578
40
0.1444890660
40
0.1503198760
40
0.1563122039
40
0.1624660642
40
0.1687814706
40
0.1719997577
40
0.1752584360
40
0.1769029222
40
0.1785575068
40
0.1793885860
40
0.1802221899
40
0.1806399386
40
0.1808490496
40
0.1810583184
40
0.1815417810
40
0.1820432302
40
0.1830444431
40
0.1840434087
40
0.1860345985
40
0.1880168005
40
0.1899900154
40
0.1939094873
40
0.1977930209
40
0.2016406229
40
0.2054523002
40
0.2129679078
40
0.2203399049
40
0.2275683547
40
0.2346533240
40
0.2483930908
40
0.2615598469
40
0.2861770507
40
0.3085120990
40
0.3285743769
40
0.3377573550
40
0.3463774386
40
0.3504772127
40
0.3544588033
40
0.3622840490
40
0.3699417597
40
0.3774343814
40
0.3919342604
40
0.4190731357
40
0.4317756178
40
0.4439421439
40
0.4556545172
40
0.4671567801
40
0.4785099303
40
0.4841420335
40
0.4897500731
40
0.4953385858
40
0.5009121557
40
0.5064754039
40
0.5092546816
40
0.5120331230
40
0.5148113109
40
0.5175898286
40
0.5203692587
40
0.5217595071
40
0.5231502020
40
0.5245414159
40
0.5259332215
40
0.5266293699
40
0.5273256934
40
0.5280222010
40
0.5283705269
40
0.5287189021
40
0.5290673279
40
0.5291544424
40
0.5292415601
40
0.5293286811
40
0.5294049504
40
0.5294905514
40
0.5296617076
40
0.5298328032
40
0.5301748127
40
0.5305165807
40
0.5308581079
40
0.5315404436
40
0.5322218268
40
0.5335817607
40
0.5362904845
40
0.5389847370
40
0.5416649683
40
0.5443316351
40
0.5496260193
40
0.5548717982
40
0.5600728715
40
0.5652332403
40
0.5703570011
40
0.5805104429
40
0.5905686308
40
0.6005669467
40
0.6105414095
40
0.6205282961
40
0.6406745780
40
0.6509131501
40
0.6613042038
40
0.6718798384
40
0.6772427379
40
0.6826051232
40
0.6932966879
40
0.7039787004
40
0.7254629730
40
0.7473798225
40
0.7700233140
40
0.7817060001
40
0.7936677532
40
0.8059369112
40
0.8185397385
40
0.8249742848
40
0.8315011675
40
0.8348001326
40
0.8381231940
40
0.8414313100
40
0.8447100953
40
0.8511984294
40
0.8575964974
40
0.8701310274
40
0.8942250412
40
0.9171844953
40
0.9392250468
40
0.9605901966
40
0.9815470018
40
0.9919648203
40
1.0000000000
40
1.0000000000
40
1.0000000000
40
1.0000000000
10
13.8885021506
20
-3.2986327928
30
0.0000000000
10
13.8943689353
20
-3.2890813565
30
0.0000000000
10
13.9037666629
20
-3.2749072551
30
0.0000000000
10
13.9172946894
20
-3.2564318490
30
0.0000000000
10
13.9281917879
20
-3.2424513171
30
0.0000000000
10
13.9377574632
20
-3.2308819916
30
0.0000000000
10
13.9457272006
20
-3.2216366361
30
0.0000000000
10
13.9518988212
20
-3.2146693712
30
0.0000000000
10
13.9571616051
20
-3.2088836458
30
0.0000000000
10
13.9614518688
20
-3.2042574405
30
0.0000000000
10
13.9647307676
20
-3.2007668455
30
0.0000000000
10
13.9681311491
20
-3.1971920040
30
0.0000000000
10
13.9717550690
20
-3.1934762623
30
0.0000000000
10
13.9756624996
20
-3.1895467396
30
0.0000000000
10
13.9814349661
20
-3.1838434343
30
0.0000000000
10
13.9893886747
20
-3.1761689462
30
0.0000000000
10
14.0040316431
20
-3.1623830703
30
0.0000000000
10
14.0203222386
20
-3.1475141671
30
0.0000000000
10
14.0382077942
20
-3.1315106624
30
0.0000000000
10
14.0533360318
20
-3.1181395016
30
0.0000000000
10
14.0696336207
20
-3.1038856327
30
0.0000000000
10
14.0871009454
20
-3.0887493694
30
0.0000000000
10
14.1024007445
20
-3.0755990336
30
0.0000000000
10
14.1152241534
20
-3.0646361766
30
0.0000000000
10
14.1252731547
20
-3.0560746997
30
0.0000000000
10
14.1356146401
20
-3.0472926668
30
0.0000000000
10
14.1462486144
20
-3.0382900822
30
0.0000000000
10
14.1552957679
20
-3.0306532878
30
0.0000000000
10
14.1626796102
20
-3.0244334396
30
0.0000000000
10
14.1673700090
20
-3.0204878039
30
0.0000000000
10
14.1711588778
20
-3.0173037140
30
0.0000000000
10
14.1735457941
20
-3.0152990981
30
0.0000000000
10
14.1754644805
20
-3.0136885288
30
0.0000000000
10
14.1766683464
20
-3.0126782456
30
0.0000000000
10
14.1775128002
20
-3.0119698878
30
0.0000000000
10
14.1779961753
20
-3.0115642490
30
0.0000000000
10
14.1785179876
20
-3.0111272612
30
0.0000000000
10
14.1792053829
20
-3.0105443844
30
0.0000000000
10
14.1803492479
20
-3.0095756965
30
0.0000000000
10
14.1817894570
20
-3.0083549308
30
0.0000000000
10
14.1840868664
20
-3.0064066533
30
0.0000000000
10
14.1869477430
20
-3.0039781350
30
0.0000000000
10
14.1903673534
20
-3.0010716631
30
0.0000000000
10
14.1948933745
20
-2.9972198377
30
0.0000000000
10
14.2005075846
20
-2.9924326345
30
0.0000000000
10
14.2071907495
20
-2.9867188557
30
0.0000000000
10
14.2138045482
20
-2.9810491440
30
0.0000000000
10
14.2224893454
20
-2.9735836227
30
0.0000000000
10
14.2331722388
20
-2.9643621797
30
0.0000000000
10
14.2457758068
20
-2.9534195911
30
0.0000000000
10
14.2581019276
20
-2.9426532798
30
0.0000000000
10
14.2740042158
20
-2.9286761063
30
0.0000000000
10
14.2931915617
20
-2.9116480556
30
0.0000000000
10
14.3220933625
20
-2.8856337467
30
0.0000000000
10
14.3554775036
20
-2.8549041051
30
0.0000000000
10
14.3920597209
20
-2.8199760096
30
0.0000000000
10
14.4196122522
20
-2.7924698096
30
0.0000000000
10
14.4393947403
20
-2.7718457335
30
0.0000000000
10
14.4506457479
20
-2.7597342383
30
0.0000000000
10
14.4590954904
20
-2.7503810416
30
0.0000000000
10
14.4670555511
20
-2.7413947130
30
0.0000000000
10
14.4766611076
20
-2.7302794577
30
0.0000000000
10
14.4877670925
20
-2.7169621055
30
0.0000000000
10
14.5017840708
20
-2.6995172394
30
0.0000000000
10
14.5241846878
20
-2.6699624503
30
0.0000000000
10
14.5469652764
20
-2.6357775151
30
0.0000000000
10
14.5661979499
20
-2.6015448285
30
0.0000000000
10
14.5784090935
20
-2.5767662059
30
0.0000000000
10
14.5887599008
20
-2.5521363848
30
0.0000000000
10
14.5975914858
20
-2.5275759569
30
0.0000000000
10
14.6037446154
20
-2.5069628451
30
0.0000000000
10
14.6079288320
20
-2.4904311217
30
0.0000000000
10
14.6106953538
20
-2.4780336615
30
0.0000000000
10
14.6130983491
20
-2.4656057027
30
0.0000000000
10
14.6151378143
20
-2.4531472056
30
0.0000000000
10
14.6165348438
20
-2.4427364405
30
0.0000000000
10
14.6174702376
20
-2.4343954860
30
0.0000000000
10
14.6180807683
20
-2.4281338362
30
0.0000000000
10
14.6186004657
20
-2.4218645813
30
0.0000000000
10
14.6190293330
20
-2.4155877139
30
0.0000000000
10
14.6193109956
20
-2.4103512766
30
0.0000000000
10
14.6194909135
20
-2.4061586886
30
0.0000000000
10
14.6196031658
20
-2.4030119320
30
0.0000000000
10
14.6196927139
20
-2.3998632743
30
0.0000000000
10
14.6197484107
20
-2.3972381103
30
0.0000000000
10
14.6197816196
20
-2.3951370733
30
0.0000000000
10
14.6198008534
20
-2.3935606331
30
0.0000000000
10
14.6198121509
20
-2.3922466265
30
0.0000000000
10
14.6198183516
20
-2.3911951890
30
0.0000000000
10
14.6198215835
20
-2.3904064374
30
0.0000000000
10
14.6198229432
20
-2.3898148172
30
0.0000000000
10
14.6198234062
20
-2.3894203672
30
0.0000000000
10
14.6198235493
20
-2.3892231238
30
0.0000000000
10
14.6198236006
20
-2.3890340652
30
0.0000000000
10
14.6198235751
20
-2.3888461514
30
0.0000000000
10
14.6198234501
20
-2.3885948161
30
0.0000000000
10
14.6198230995
20
-2.3882719155
30
0.0000000000
10
14.6198221355
20
-2.3877555040
30
0.0000000000
10
14.6198201738
20
-2.3871103336
30
0.0000000000
10
14.6198166085
20
-2.3863365434
30
0.0000000000
10
14.6198102421
20
-2.3853059204
30
0.0000000000
10
14.6197992597
20
-2.3840190147
30
0.0000000000
10
14.6197752395
20
-2.3819636097
30
0.0000000000
10
14.6197163647
20
-2.3783792139
30
0.0000000000
10
14.6195839471
20
-2.3732768088
30
0.0000000000
10
14.6193473117
20
-2.3671808353
30
0.0000000000
10
14.6190331570
20
-2.3611201286
30
0.0000000000
10
14.6185122061
20
-2.3531058742
30
0.0000000000
10
14.6176684073
20
-2.3431731566
30
0.0000000000
10
14.6163431309
20
-2.3313659348
30
0.0000000000
10
14.6147075983
20
-2.3196997484
30
0.0000000000
10
14.6127617491
20
-2.3081745364
30
0.0000000000
10
14.6097629921
20
-2.2930428893
30
0.0000000000
10
14.6052394036
20
-2.2744529830
30
0.0000000000
10
14.5985498938
20
-2.2526431901
30
0.0000000000
10
14.5906155920
20
-2.2313985495
30
0.0000000000
10
14.5814356929
20
-2.2107194603
30
0.0000000000
10
14.5675015761
20
-2.1838320281
30
0.0000000000
10
14.5510475198
20
-2.1580871560
30
0.0000000000
10
14.5322802393
20
-2.1336834079
30
0.0000000000
10
14.5168856617
20
-2.1158437148
30
0.0000000000
10
14.5030894814
20
-2.1015290853
30
0.0000000000
10
14.4914948902
20
-2.0903910917
30
0.0000000000
10
14.4795085019
20
-2.0795445953
30
0.0000000000
10
14.4639341272
20
-2.0666935955
30
0.0000000000
10
14.4377632026
20
-2.0476587281
30
0.0000000000
10
14.4025952993
20
-2.0267256444
30
0.0000000000
10
14.3569334450
20
-2.0064726575
30
0.0000000000
10
14.3163523298
20
-1.9937214847
30
0.0000000000
10
14.2823031023
20
-1.9858606837
30
0.0000000000
10
14.2556113849
20
-1.9810851549
30
0.0000000000
10
14.2280364844
20
-1.9774925941
30
0.0000000000
10
14.2044855408
20
-1.9754976661
30
0.0000000000
10
14.1852179550
20
-1.9744803742
30
0.0000000000
10
14.1729515313
20
-1.9740874892
30
0.0000000000
10
14.1630293479
20
-1.9739190374
30
0.0000000000
10
14.1555351201
20
-1.9738664415
30
0.0000000000
10
14.1480559799
20
-1.9738857825
30
0.0000000000
10
14.1381886578
20
-1.9740012351
30
0.0000000000
10
14.1259920149
20
-1.9743148000
30
0.0000000000
10
14.1068250041
20
-1.9751764675
30
0.0000000000
10
14.0744356026
20
-1.9775900630
30
0.0000000000
10
14.0298195933
20
-1.9837029188
30
0.0000000000
10
13.9789541305
20
-1.9955445804
30
0.0000000000
10
13.9314843898
20
-2.0118116986
30
0.0000000000
10
13.8874329366
20
-2.0325147518
30
0.0000000000
10
13.8535081042
20
-2.0535211793
30
0.0000000000
10
13.8296963375
20
-2.0713667447
30
0.0000000000
10
13.8189944039
20
-2.0802873895
30
0.0000000000
10
13.8144270915
20
-2.0842780525
30
0.0000000000
11
13.8885021506
21
-3.2986327928
31
0.0000000000
11
13.9070479031
21
-3.2705811092
31
0.0000000000
11
13.9172897827
21
-3.2565840652
31
0.0000000000
11
13.9281775774
21
-3.2426063616
31
0.0000000000
11
13.9397112872
21
-3.2286479982
31
0.0000000000
11
13.9457203603
21
-3.2216760692
31
0.0000000000
11
13.9518909122
21
-3.2147089752
31
0.0000000000
11
13.9582229429
21
-3.2077467163
31
0.0000000000
11
13.9614495128
21
-3.2042674000
31
0.0000000000
11
13.9647164524
21
-3.2007892925
31
0.0000000000
11
13.9680626704
21
-3.1972781728
31
0.0000000000
11
13.9716764857
21
-3.1935684120
31
0.0000000000
11
13.9755827998
21
-3.1896381087
31
0.0000000000
11
13.9797816128
21
-3.1854872627
31
0.0000000000
11
13.9890567351
21
-3.1765239432
31
0.0000000000
11
13.9995018528
21
-3.1666784535
31
0.0000000000
11
14.0239020740
21
-3.1443409635
31
0.0000000000
11
14.0378571776
21
-3.1318489631
31
0.0000000000
11
14.0529822765
21
-3.1184747926
31
0.0000000000
11
14.0692773707
21
-3.1042184519
31
0.0000000000
11
14.0867424602
21
-3.0890799409
31
0.0000000000
11
14.1053775450
21
-3.0730592598
31
0.0000000000
11
14.1151338356
21
-3.0647181054
31
0.0000000000
11
14.1251826251
21
-3.0561564084
31
0.0000000000
11
14.1355239134
21
-3.0473741689
31
0.0000000000
11
14.1461577005
21
-3.0383713868
31
0.0000000000
11
14.1570839865
21
-3.0291480622
31
0.0000000000
11
14.1626568165
21
-3.0244536965
31
0.0000000000
11
14.1683027713
21
-3.0197041951
31
0.0000000000
11
14.1711531704
21
-3.0173087685
31
0.0000000000
11
14.1740218507
21
-3.0148995580
31
0.0000000000
11
14.1754630463
21
-3.0136897838
31
0.0000000000
11
14.1769088122
21
-3.0124765637
31
0.0000000000
11
14.1776334090
21
-3.0118686613
31
0.0000000000
11
14.1779961359
21
-3.0115643871
31
0.0000000000
11
14.1783591484
21
-3.0112598975
31
0.0000000000
11
14.1791951024
21
-3.0105532514
31
0.0000000000
11
14.1800613833
21
-3.0098194014
31
0.0000000000
11
14.1817906934
21
-3.0083537669
31
0.0000000000
11
14.1835156681
21
-3.0068908866
31
0.0000000000
11
14.1869526111
21
-3.0039733885
31
0.0000000000
11
14.1903722121
21
-3.0010669068
31
0.0000000000
11
14.1937744712
21
-2.9981714417
31
0.0000000000
11
14.2005269635
21
-2.9924135612
31
0.0000000000
11
14.2072100881
21
-2.9866997469
31
0.0000000000
11
14.2138238450
21
-2.9810299988
31
0.0000000000
11
14.2203682342
21
-2.9754043168
31
0.0000000000
11
14.2332489093
21
-2.9642851516
31
0.0000000000
11
14.2458521135
21
-2.9533422511
31
0.0000000000
11
14.2581778468
21
-2.9425756155
31
0.0000000000
11
14.2702261092
21
-2.9319852446
31
0.0000000000
11
14.2934902211
21
-2.9113332972
31
0.0000000000
11
14.3156444493
21
-2.8913864090
31
0.0000000000
11
14.3566232547
21
-2.8536078101
31
0.0000000000
11
14.3931625253
21
-2.8186494479
31
0.0000000000
11
14.4252622612
21
-2.7865113224
31
0.0000000000
11
14.4396473035
21
-2.7714998484
31
0.0000000000
11
14.4529224622
21
-2.7571934335
31
0.0000000000
11
14.4591438352
21
-2.7503046233
31
0.0000000000
11
14.4651227797
21
-2.7435579575
31
0.0000000000
11
14.4767038090
21
-2.7301498552
31
0.0000000000
11
14.4878057202
21
-2.7168326450
31
0.0000000000
11
14.4984285132
21
-2.7036063270
31
0.0000000000
11
14.5182367449
21
-2.6774263675
31
0.0000000000
11
14.5521037910
21
-2.6261571544
31
0.0000000000
11
14.5661626054
21
-2.6010679008
31
0.0000000000
11
14.5783049473
21
-2.5763422159
31
0.0000000000
11
14.5886023426
21
-2.5519051920
31
0.0000000000
11
14.5974009760
21
-2.5273942761
31
0.0000000000
11
14.6047466240
21
-2.5027615272
31
0.0000000000
11
14.6078745786
21
-2.4903994654
31
0.0000000000
11
14.6106392868
21
-2.4780069454
31
0.0000000000
11
14.6130407486
21
-2.4655839671
31
0.0000000000
11
14.6150789642
21
-2.4531305307
31
0.0000000000
11
14.6167539334
21
-2.4406466360
31
0.0000000000
11
14.6174552006
21
-2.4343932668
31
0.0000000000
11
14.6180656562
21
-2.4281322830
31
0.0000000000
11
14.6185853003
21
-2.4218636847
31
0.0000000000
11
14.6190141328
21
-2.4155874718
31
0.0000000000
11
14.6193521537
21
-2.4093036444
31
0.0000000000
11
14.6194871098
21
-2.4061588753
31
0.0000000000
11
14.6195993630
21
-2.4030122024
31
0.0000000000
11
14.6196889133
21
-2.3998636260
31
0.0000000000
11
14.6197557607
21
-2.3967131459
31
0.0000000000
11
14.6197806708
21
-2.3951371920
31
0.0000000000
11
14.6197999052
21
-2.3935607622
31
0.0000000000
11
14.6198134639
21
-2.3919838564
31
0.0000000000
11
14.6198181148
21
-2.3911952251
31
0.0000000000
11
14.6198213469
21
-2.3904064748
31
0.0000000000
11
14.6198231599
21
-2.3896176055
31
0.0000000000
11
14.6198233915
21
-2.3894203696
31
0.0000000000
11
14.6198235344
21
-2.3892231263
31
0.0000000000
11
14.6198235886
21
-2.3890258755
31
0.0000000000
11
14.6198235662
21
-2.3888531940
31
0.0000000000
11
14.6198234695
21
-2.3886593848
31
0.0000000000
11
14.6198230490
21
-2.3882718698
31
0.0000000000
11
14.6198223258
21
-2.3878844927
31
0.0000000000
11
14.6198199710
21
-2.3871101521
31
0.0000000000
11
14.6198164051
21
-2.3863363629
31
0.0000000000
11
14.6198116283
21
-2.3855631252
31
0.0000000000
11
14.6197984415
21
-2.3840183041
31
0.0000000000
11
14.6197804105
21
-2.3824756889
31
0.0000000000
11
14.6197298163
21
-2.3793970759
31
0.0000000000
11
14.6195704981
21
-2.3732663200
31
0.0000000000
11
14.6193336738
21
-2.3671708573
31
0.0000000000
11
14.6190193434
21
-2.3611106878
31
0.0000000000
11
14.6186275068
21
-2.3550858116
31
0.0000000000
11
14.6176113153
21
-2.3431419390
31
0.0000000000
11
14.6162850992
21
-2.3313392395
31
0.0000000000
11
14.6146488586
21
-2.3196777130
31
0.0000000000
11
14.6127025935
21
-2.3081573596
31
0.0000000000
11
14.6104463038
21
-2.2967781792
31
0.0000000000
11
14.6050036508
21
-2.2744433375
31
0.0000000000
11
14.5983208998
21
-2.2526731881
31
0.0000000000
11
14.5903980505
21
-2.2314677308
31
0.0000000000
11
14.5812351032
21
-2.2108269657
31
0.0000000000
11
14.5708320576
21
-2.1907508929
31
0.0000000000
11
14.5463056722
21
-2.1522928237
31
0.0000000000
11
14.5321823323
21
-2.1339108274
31
0.0000000000
11
14.5168188942
21
-2.1160935233
31
0.0000000000
11
14.5002153580
21
-2.0988409114
31
0.0000000000
11
14.4914534549
21
-2.0904349108
31
0.0000000000
11
14.4824501530
21
-2.0822897238
31
0.0000000000
11
14.4637781747
21
-2.0668843400
31
0.0000000000
11
14.4442190304
21
-2.0526589431
31
0.0000000000
11
14.4024392440
21
-2.0277481098
31
0.0000000000
11
14.3571107936
21
-2.0075572238
31
0.0000000000
11
14.3082336794
21
-1.9920862852
31
0.0000000000
11
14.2824643733
21
-1.9861207962
31
0.0000000000
11
14.2558079013
21
-1.9813352940
31
0.0000000000
11
14.2282642633
21
-1.9777297787
31
0.0000000000
11
14.1998334593
21
-1.9753042502
31
0.0000000000
11
14.1852853700
21
-1.9745339810
31
0.0000000000
11
14.1705154893
21
-1.9740587085
31
0.0000000000
11
14.1630473771
21
-1.9739316960
31
0.0000000000
11
14.1555238171
21
-1.9738784327
31
0.0000000000
11
14.1480339299
21
-1.9738972674
31
0.0000000000
11
14.1406109398
21
-1.9739845268
31
0.0000000000
11
14.1259255922
21
-1.9743639158
31
0.0000000000
11
14.1114544215
21
-1.9750164648
31
0.0000000000
11
14.0831546104
21
-1.9771410429
31
0.0000000000
11
14.0291251100
21
-1.9846681196
31
0.0000000000
11
13.9785224386
21
-1.9965657571
31
0.0000000000
11
13.9313465964
21
-2.0128339552
31
0.0000000000
11
13.8875975832
21
-2.0334727140
31
0.0000000000
11
13.8472753991
21
-2.0584820336
31
0.0000000000
11
13.8283993679
21
-2.0726256536
31
0.0000000000
11
13.8144270915
21
-2.0842780525
31
0.0000000000
0
SPLINE
5
2AC
100
AcDbEntity
8
0
100
AcDbSpline
62
0
6
CONTINUOUS
70
0
71
3
72
98
73
94
74
92
42
0.0000001000
43
0.0000001000
44
0.0000000001
12
0.9674624662
22
0.2541680128
32
0.0000000000
13
-0.9695796146
23
-0.2473372428
33
0.0000000000
40
0.0000000000
40
0.0000000000
40
0.0000000000
40
0.0000000000
40
0.0171783689
40
0.0336481711
40
0.0494166870
40
0.0644917709
40
0.0788824124
40
0.0858244171
40
0.0925993190
40
0.0992086635
40
0.1056541148
40
0.1119374678
40
0.1150189889
40
0.1180607249
40
0.1210629427
40
0.1240259195
40
0.1254927869
40
0.1269499532
40
0.1276749109
40
0.1283974576
40
0.1291175982
40
0.1298353376
40
0.1301933084
40
0.1305506808
40
0.1309074554
40
0.1310856188
40
0.1312636329
40
0.1314414978
40
0.1318402857
40
0.1322756652
40
0.1327107835
40
0.1335802384
40
0.1344486547
40
0.1361823876
40
0.1379120175
40
0.1413590980
40
0.1447901836
40
0.1482055572
40
0.1516055057
40
0.1549903198
40
0.1617156517
40
0.1683840301
40
0.1815592121
40
0.1945369342
40
0.2073386033
40
0.2199865200
40
0.2325038067
40
0.2572363343
40
0.2817396773
40
0.3062170014
40
0.3308721157
40
0.3559044870
40
0.3685957363
40
0.3811852283
40
0.3936442757
40
0.4059969803
40
0.4304764120
40
0.4548326736
40
0.4792718756
40
0.5039980549
40
0.5292082812
40
0.5420563114
40
0.5550939489
40
0.5683422316
40
0.5818212109
40
0.5886534874
40
0.5920937929
40
0.5938319249
40
0.5956404689
40
0.5992457194
40
0.6028354563
40
0.6099695612
40
0.6170454044
40
0.6240655922
40
0.6379490482
40
0.6651635986
40
0.6918067086
40
0.7180780495
40
0.7441858238
40
0.7703421404
40
0.7967579387
40
0.8101306053
40
0.8236441352
40
0.8373224684
40
0.8442057556
40
0.8510437906
40
0.8645827623
40
0.8779596926
40
0.9043198421
40
0.9303350133
40
0.9562181447
40
0.9821854233
40
1.0000000000
40
1.0000000000
40
1.0000000000
40
1.0000000000
10
12.8623041076
20
-2.7645582125
30
0.0000000000
10
12.8678439167
20
-2.7631028152
30
0.0000000000
10
12.8787204857
20
-2.7603476242
30
0.0000000000
10
12.8947701428
20
-2.7566143224
30
0.0000000000
10
12.9102095886
20
-2.7533678544
30
0.0000000000
10
12.9250389110
20
-2.7506082048
30
0.0000000000
10
12.9370277782
20
-2.7486917779
30
0.0000000000
10
12.9463118619
20
-2.7474095788
30
0.0000000000
10
12.9530387259
20
-2.7465813215
30
0.0000000000
10
12.9596129882
20
-2.7458748717
30
0.0000000000
10
12.9660346549
20
-2.7452902410
30
0.0000000000
10
12.9712922950
20
-2.7449020914
30
0.0000000000
10
12.9754216202
20
-2.7446536048
30
0.0000000000
10
12.9784604463
20
-2.7444989091
30
0.0000000000
10
12.9814611083
20
-2.7443746759
30
0.0000000000
10
12.9839379907
20
-2.7442962766
30
0.0000000000
10
12.9859003373
20
-2.7442489374
30
0.0000000000
10
12.9871168087
20
-2.7442257570
30
0.0000000000
10
12.9880852044
20
-2.7442110396
30
0.0000000000
10
12.9888079075
20
-2.7442019239
30
0.0000000000
10
12.9895282250
20
-2.7441947124
30
0.0000000000
10
12.9901270014
20
-2.7441902859
30
0.0000000000
10
12.9906048284
20
-2.7441876990
30
0.0000000000
10
12.9909623027
20
-2.7441862366
30
0.0000000000
10
12.9912598254
20
-2.7441854140
30
0.0000000000
10
12.9914975452
20
-2.7441849948
30
0.0000000000
10
12.9916756113
20
-2.7441847980
30
0.0000000000
10
12.9919272405
20
-2.7441846962
30
0.0000000000
10
12.9922646833
20
-2.7441848597
30
0.0000000000
10
12.9926879019
20
-2.7441854862
30
0.0000000000
10
12.9932680539
20
-2.7441869937
30
0.0000000000
10
12.9939925897
20
-2.7441900719
30
0.0000000000
10
12.9951501061
20
-2.7441975519
30
0.0000000000
10
12.9965943910
20
-2.7442116854
30
0.0000000000
10
12.9988983182
20
-2.7442444986
30
0.0000000000
10
13.0017678351
20
-2.7443046197
30
0.0000000000
10
13.0051985217
20
-2.7444075246
30
0.0000000000
10
13.0086124248
20
-2.7445411041
30
0.0000000000
10
13.0120095475
20
-2.7447053587
30
0.0000000000
10
13.0165068080
20
-2.7449646957
30
0.0000000000
10
13.0220873218
20
-2.7453651025
30
0.0000000000
10
13.0309102178
20
-2.7461675164
30
0.0000000000
10
13.0417786289
20
-2.7474743767
30
0.0000000000
10
13.0546054524
20
-2.7495405436
30
0.0000000000
10
13.0671641639
20
-2.7520983373
30
0.0000000000
10
13.0794548593
20
-2.7551480201
30
0.0000000000
10
13.0954183971
20
-2.7598501528
30
0.0000000000
10
13.1147715128
20
-2.7669672963
30
0.0000000000
10
13.1370052897
20
-2.7775218633
30
0.0000000000
10
13.1581572510
20
-2.7900567064
30
0.0000000000
10
13.1782218908
20
-2.8045673027
30
0.0000000000
10
13.1939442009
20
-2.8182273999
30
0.0000000000
10
13.2058852450
20
-2.8300161969
30
0.0000000000
10
13.2144617821
20
-2.8392298299
30
0.0000000000
10
13.2225547921
20
-2.8487233711
30
0.0000000000
10
13.2326543207
20
-2.8616948913
30
0.0000000000
10
13.2440902125
20
-2.8786278289
30
0.0000000000
10
13.2558593108
20
-2.9000772692
30
0.0000000000
10
13.2656347039
20
-2.9225962040
30
0.0000000000
10
13.2734146174
20
-2.9461776144
30
0.0000000000
10
13.2782061465
20
-2.9665848384
30
0.0000000000
10
13.2810561148
20
-2.9833855610
30
0.0000000000
10
13.2827125477
20
-2.9963322397
30
0.0000000000
10
13.2838739558
20
-3.0095433518
30
0.0000000000
10
13.2844269539
20
-3.0207223217
30
0.0000000000
10
13.2846001101
20
-3.0286403021
30
0.0000000000
10
13.2846334178
20
-3.0326449623
30
0.0000000000
10
13.2846370616
20
-3.0349746414
30
0.0000000000
10
13.2846300346
20
-3.0373593106
30
0.0000000000
10
13.2846005148
20
-3.0403612691
30
0.0000000000
10
13.2845091830
20
-3.0451382114
30
0.0000000000
10
13.2843125873
20
-3.0510703013
30
0.0000000000
10
13.2839434493
20
-3.0581398811
30
0.0000000000
10
13.2832767802
20
-3.0674458294
30
0.0000000000
10
13.2816607543
20
-3.0834118990
30
0.0000000000
10
13.2780306200
20
-3.1057335625
30
0.0000000000
10
13.2715058238
20
-3.1316761211
30
0.0000000000
10
13.2628395557
20
-3.1565958299
30
0.0000000000
10
13.2520316159
20
-3.1804869279
30
0.0000000000
10
13.2390845771
20
-3.2033439277
30
0.0000000000
10
13.2265634447
20
-3.2214562568
30
0.0000000000
10
13.2155270672
20
-3.2353924243
30
0.0000000000
10
13.2066838810
20
-3.2456319878
30
0.0000000000
10
13.1989036533
20
-3.2539165141
30
0.0000000000
10
13.1924508499
20
-3.2603845650
30
0.0000000000
10
13.1859017843
20
-3.2666882582
30
0.0000000000
10
13.1775533626
20
-3.2742416990
30
0.0000000000
10
13.1638852489
20
-3.2855945220
30
0.0000000000
10
13.1461247409
20
-3.2985009369
30
0.0000000000
10
13.1236944307
20
-3.3119025717
30
0.0000000000
10
13.1002500457
20
-3.3231422248
30
0.0000000000
10
13.0784424477
20
-3.3312348900
30
0.0000000000
10
13.0644005397
20
-3.3352669264
30
0.0000000000
10
13.0586429896
20
-3.3367356625
30
0.0000000000
11
12.8623041076
21
-2.7645582125
31
0.0000000000
11
12.8789630153
21
-2.7603451630
31
0.0000000000
11
12.8950108720
21
-2.7566196610
31
0.0000000000
11
12.9104480533
21
-2.7533816078
31
0.0000000000
11
12.9252745592
21
-2.7506310035
31
0.0000000000
11
12.9394903897
21
-2.7483678481
31
0.0000000000
11
12.9463693017
21
-2.7474190637
31
0.0000000000
11
12.9530955449
21
-2.7465921416
31
0.0000000000
11
12.9596691192
21
-2.7458870816
31
0.0000000000
11
12.9660900246
21
-2.7453038839
31
0.0000000000
11
12.9723582612
21
-2.7448425483
31
0.0000000000
11
12.9754351287
21
-2.7446575789
31
0.0000000000
11
12.9784738290
21
-2.7445030750
31
0.0000000000
11
12.9814743621
21
-2.7443790367
31
0.0000000000
11
12.9844367279
21
-2.7442854639
31
0.0000000000
11
12.9859035982
21
-2.7442501021
31
0.0000000000
11
12.9873609266
21
-2.7442223567
31
0.0000000000
11
12.9880860126
21
-2.7442113401
31
0.0000000000
11
12.9888087132
21
-2.7442022277
31
0.0000000000
11
12.9895290283
21
-2.7441950193
31
0.0000000000
11
12.9902469580
21
-2.7441897150
31
0.0000000000
11
12.9906050283
21
-2.7441877769
31
0.0000000000
11
12.9909625023
21
-2.7441863149
31
0.0000000000
11
12.9913193798
21
-2.7441853288
31
0.0000000000
11
12.9914975950
21
-2.7441850143
31
0.0000000000
11
12.9916756610
21
-2.7441848188
31
0.0000000000
11
12.9918535780
21
-2.7441847423
31
0.0000000000
11
12.9922524825
21
-2.7441849171
31
0.0000000000
11
12.9926879889
21
-2.7441855675
31
0.0000000000
11
12.9931232329
21
-2.7441866972
31
0.0000000000
11
12.9939929342
21
-2.7441903944
31
0.0000000000
11
12.9948615864
21
-2.7441960086
31
0.0000000000
11
12.9965957432
21
-2.7442129881
31
0.0000000000
11
12.9983257034
21
-2.7442376358
31
0.0000000000
11
13.0017730339
21
-2.7443099357
31
0.0000000000
11
13.0052035779
21
-2.7444129083
31
0.0000000000
11
13.0086173353
21
-2.7445465536
31
0.0000000000
11
13.0120143063
21
-2.7447108715
31
0.0000000000
11
13.0153944908
21
-2.7449058622
31
0.0000000000
11
13.0221045002
21
-2.7453878616
31
0.0000000000
11
13.0287473636
21
-2.7459925517
31
0.0000000000
11
13.0418316523
21
-2.7475700041
31
0.0000000000
11
13.0546473569
21
-2.7496382196
31
0.0000000000
11
13.0671944774
21
-2.7521971980
31
0.0000000000
11
13.0794730139
21
-2.7552469394
31
0.0000000000
11
13.0914829662
21
-2.7587874438
31
0.0000000000
11
13.1146971185
21
-2.7673407416
31
0.0000000000
11
13.1368369344
21
-2.7778570914
31
0.0000000000
11
13.1579024139
21
-2.7903364931
31
0.0000000000
11
13.1778935570
21
-2.8047789467
31
0.0000000000
11
13.1968103638
21
-2.8211844523
31
0.0000000000
11
13.2058451734
21
-2.8301026499
31
0.0000000000
11
13.2144226393
21
-2.8393230137
31
0.0000000000
11
13.2225059302
21
-2.8488087441
31
0.0000000000
11
13.2300950460
21
-2.8585598412
31
0.0000000000
11
13.2437907528
21
-2.8788581355
31
0.0000000000
11
13.2555097597
21
-2.9002178967
31
0.0000000000
11
13.2652520666
21
-2.9226391247
31
0.0000000000
11
13.2730176735
21
-2.9461218194
31
0.0000000000
11
13.2788065805
21
-2.9706659810
31
0.0000000000
11
13.2809597715
21
-2.9833361119
31
0.0000000000
11
13.2826187876
21
-2.9962716094
31
0.0000000000
11
13.2837836286
21
-3.0094724737
31
0.0000000000
11
13.2844542947
21
-3.0229387046
31
0.0000000000
11
13.2846043121
21
-3.0297713326
31
0.0000000000
11
13.2846329919
21
-3.0332125247
31
0.0000000000
11
13.2846357437
21
-3.0349511629
31
0.0000000000
11
13.2846304127
21
-3.0367602280
31
0.0000000000
11
13.2845948725
21
-3.0403663577
31
0.0000000000
11
13.2845261614
21
-3.0439564870
31
0.0000000000
11
13.2842892268
21
-3.0510887440
31
0.0000000000
11
13.2839196088
21
-3.0581569990
31
0.0000000000
11
13.2834173073
21
-3.0651612520
31
0.0000000000
11
13.2820146543
21
-3.0789777522
31
0.0000000000
11
13.2776171473
21
-3.1058427286
31
0.0000000000
11
13.2710967060
21
-3.1316836733
31
0.0000000000
11
13.2624533303
21
-3.1565005863
31
0.0000000000
11
13.2516870203
21
-3.1802934675
31
0.0000000000
11
13.2387977758
21
-3.2030623170
31
0.0000000000
11
13.2237855970
21
-3.2248071348
31
0.0000000000
11
13.2154834072
21
-3.2352955318
31
0.0000000000
11
13.2066504838
21
-3.2455279208
31
0.0000000000
11
13.1972868268
21
-3.2555043019
31
0.0000000000
11
13.1924238421
21
-3.2603785957
31
0.0000000000
11
13.1874953613
21
-3.2651216067
31
0.0000000000
11
13.1774504881
21
-3.2742051914
31
0.0000000000
11
13.1671550664
21
-3.2827521931
31
0.0000000000
11
13.1458125770
21
-3.2982364472
31
0.0000000000
11
13.1234678931
21
-3.3115743691
31
0.0000000000
11
13.1001210147
21
-3.3227659587
31
0.0000000000
11
13.0757719419
21
-3.3318112160
31
0.0000000000
11
13.0586429896
21
-3.3367356625
31
0.0000000000
0
SPLINE
5
2AD
100
AcDbEntity
8
0
100
AcDbSpline
62
0
6
CONTINUOUS
70
0
71
3
72
100
73
96
74
94
42
0.0000001000
43
0.0000001000
44
0.0000000001
12
0.1502315915
22
-1.5284620331
32
0.0000000000
13
-0.1999562726
23
1.5228088114
33
0.0000000000
40
0.0000000000
40
0.0000000000
40
0.0000000000
40
0.0000000000
40
0.0445614815
40
0.0871564093
40
0.1285726079
40
0.1696658080
40
0.1903790890
40
0.2008229307
40
0.2113413170
40
0.2219470600
40
0.2326110642
40
0.2537470039
40
0.2746957042
40
0.2955701666
40
0.3164845957
40
0.3375525464
40
0.3588851220
40
0.3805893623
40
0.3916143806
40
0.4027699064
40
0.4140676461
40
0.4255188700
40
0.4371344016
40
0.4430071982
40
0.4459603861
40
0.4489249601
40
0.4519010725
40
0.4548888737
40
0.4556376693
40
0.4563872071
40
0.4567622550
40
0.4571646366
40
0.4579960481
40
0.4596563556
40
0.4613133288
40
0.4646173566
40
0.4679083192
40
0.4744517406
40
0.4809451382
40
0.4873900465
40
0.5001403012
40
0.5251268027
40
0.5495250617
40
0.5734534661
40
0.5970374809
40
0.6204081182
40
0.6436999910
40
0.6670490747
40
0.6787894329
40
0.6905944744
40
0.7024805369
40
0.7084592131
40
0.7144641148
40
0.7204608638
40
0.7264149220
40
0.7382015954
40
0.7498391047
40
0.7613425487
40
0.7840061744
40
0.8063270268
40
0.8284418959
40
0.8504914057
40
0.8726174263
40
0.8949603705
40
0.9062580948
40
0.9176606967
40
0.9234066066
40
0.9291847128
40
0.9349969428
40
0.9408451909
40
0.9467313161
40
0.9496891820
40
0.9511719107
40
0.9526572048
40
0.9541450920
40
0.9548900171
40
0.9556356007
40
0.9560086406
40
0.9563818465
40
0.9565685118
40
0.9567227847
40
0.9569988201
40
0.9575504860
40
0.9581016128
40
0.9592022539
40
0.9603007536
40
0.9624913657
40
0.9646735310
40
0.9668473299
40
0.9711701344
40
0.9754604619
40
0.9797189896
40
0.9881432535
40
0.9964488247
40
1.0000000000
40
1.0000000000
40
1.0000000000
40
1.0000000000
10
12.5002130266
20
-3.0774928237
30
0.0000000000
10
12.5024445407
20
-3.1001963346
30
0.0000000000
10
12.5093642559
20
-3.1444117500
30
0.0000000000
10
12.5280262561
20
-3.2077406340
30
0.0000000000
10
12.5547192241
20
-3.2662041154
30
0.0000000000
10
12.5836016173
20
-3.3107023106
30
0.0000000000
10
12.6070196154
20
-3.3393690059
30
0.0000000000
10
12.6213807786
20
-3.3551531467
30
0.0000000000
10
12.6326728477
20
-3.3667191992
30
0.0000000000
10
12.6444404366
20
-3.3779648340
30
0.0000000000
10
12.6606370732
20
-3.3924255703
30
0.0000000000
10
12.6817334455
20
-3.4093240683
30
0.0000000000
10
12.7083166290
20
-3.4276006957
30
0.0000000000
10
12.7360818920
20
-3.4438045325
30
0.0000000000
10
12.7650256333
20
-3.4579337085
30
0.0000000000
10
12.7951456212
20
-3.4699875966
30
0.0000000000
10
12.8264381292
20
-3.4799661205
30
0.0000000000
10
12.8533518926
20
-3.4865188309
30
0.0000000000
10
12.8754225804
20
-3.4907346790
30
0.0000000000
10
12.8923566712
20
-3.4933972314
30
0.0000000000
10
12.9095834885
20
-3.4955434741
30
0.0000000000
10
12.9271031926
20
-3.4971735577
30
0.0000000000
10
12.9418920618
20
-3.4980984167
30
0.0000000000
10
12.9523486992
20
-3.4985216714
30
0.0000000000
10
12.9583821928
20
-3.4987003158
30
0.0000000000
10
12.9629342417
20
-3.4988023211
30
0.0000000000
10
12.9675046180
20
-3.4988720938
30
0.0000000000
10
12.9709410563
20
-3.4989002075
30
0.0000000000
10
12.9732376830
20
-3.4989089217
30
0.0000000000
10
12.9741967451
20
-3.4989108792
30
0.0000000000
10
12.9749784643
20
-3.4989114479
30
0.0000000000
10
12.9758020984
20
-3.4989113049
30
0.0000000000
10
12.9772837104
20
-3.4989090505
30
0.0000000000
10
12.9794075881
20
-3.4988999746
30
0.0000000000
10
12.9827972156
20
-3.4988730153
30
0.0000000000
10
12.9870214061
20
-3.4988160186
30
0.0000000000
10
12.9937460911
20
-3.4986751623
30
0.0000000000
10
13.0021009933
20
-3.4984061556
30
0.0000000000
10
13.0120636818
20
-3.4979331539
30
0.0000000000
10
13.0251892323
20
-3.4971060565
30
0.0000000000
10
13.0477264781
20
-3.4951534890
30
0.0000000000
10
13.0792730915
20
-3.4908803416
30
0.0000000000
10
13.1160650679
20
-3.4833135211
30
0.0000000000
10
13.1515362812
20
-3.4733403337
30
0.0000000000
10
13.1856828048
20
-3.4609595675
30
0.0000000000
10
13.2185016697
20
-3.4461705408
30
0.0000000000
10
13.2499882882
20
-3.4289747345
30
0.0000000000
10
13.2750726514
20
-3.4126670428
30
0.0000000000
10
13.2944307294
20
-3.3984601624
30
0.0000000000
10
13.3086456176
20
-3.3871857532
30
0.0000000000
10
13.3201915499
20
-3.3773107998
30
0.0000000000
10
13.3292588849
20
-3.3691179631
30
0.0000000000
10
13.3359757094
20
-3.3628232304
30
0.0000000000
10
13.3425734686
20
-3.3564219668
30
0.0000000000
10
13.3511510079
20
-3.3478130135
30
0.0000000000
10
13.3614888186
20
-3.3368846219
30
0.0000000000
10
13.3733094780
20
-3.3234628703
30
0.0000000000
10
13.3881586913
20
-3.3053088383
30
0.0000000000
10
13.4052116807
20
-3.2819160020
30
0.0000000000
10
13.4232568800
20
-3.2526458582
30
0.0000000000
10
13.4387817341
20
-3.2223151465
30
0.0000000000
10
13.4517828177
20
-3.1909275335
30
0.0000000000
10
13.4622586312
20
-3.1584879594
30
0.0000000000
10
13.4688600517
20
-3.1306797583
30
0.0000000000
10
13.4728848294
20
-3.1079697251
30
0.0000000000
10
13.4748816457
20
-3.0935404777
30
0.0000000000
10
13.4761668906
20
-3.0818734383
30
0.0000000000
10
13.4769765446
20
-3.0730347588
30
0.0000000000
10
13.4776293694
20
-3.0641306277
30
0.0000000000
10
13.4781253795
20
-3.0551610122
30
0.0000000000
10
13.4784075702
20
-3.0476443067
30
0.0000000000
10
13.4785367225
20
-3.0423591397
30
0.0000000000
10
13.4785910990
20
-3.0393259039
30
0.0000000000
10
13.4786221180
20
-3.0370449383
30
0.0000000000
10
13.4786397942
20
-3.0351415574
30
0.0000000000
10
13.4786490425
20
-3.0336168172
30
0.0000000000
10
13.4786527831
20
-3.0326627941
30
0.0000000000
10
13.4786545516
20
-3.0318990652
30
0.0000000000
10
13.4786551468
20
-3.0314214687
30
0.0000000000
10
13.4786553095
20
-3.0310558681
30
0.0000000000
10
13.4786552959
20
-3.0307400130
30
0.0000000000
10
13.4786549862
20
-3.0302372988
30
0.0000000000
10
13.4786537654
20
-3.0295314189
30
0.0000000000
10
13.4786501389
20
-3.0284033931
30
0.0000000000
10
13.4786424697
20
-3.0269954328
30
0.0000000000
10
13.4786235115
20
-3.0247482093
30
0.0000000000
10
13.4785872875
20
-3.0219474463
30
0.0000000000
10
13.4785236762
20
-3.0185965585
30
0.0000000000
10
13.4784122731
20
-3.0141549024
30
0.0000000000
10
13.4782230489
20
-3.0086357064
30
0.0000000000
10
13.4779151372
20
-3.0020531754
30
0.0000000000
10
13.4773992630
20
-2.9933790541
30
0.0000000000
10
13.4765554315
20
-2.9826660755
30
0.0000000000
10
13.4754665555
20
-2.9723394173
30
0.0000000000
10
13.4747121342
20
-2.9663161752
30
0.0000000000
10
13.4744754410
20
-2.9645135882
30
0.0000000000
11
12.5002130266
21
-3.0774928237
31
0.0000000000
11
12.5110184783
21
-3.1450731741
31
0.0000000000
11
12.5296706032
21
-3.2077762250
31
0.0000000000
11
12.5561693936
21
-3.2656018980
31
0.0000000000
11
12.5905148497
21
-3.3185501931
31
0.0000000000
11
12.6106300773
21
-3.3431953239
31
0.0000000000
11
12.6214233159
21
-3.3550606351
31
0.0000000000
11
12.6327069712
21
-3.3666211102
31
0.0000000000
11
12.6444810431
21
-3.3778767492
31
0.0000000000
11
12.6567017289
21
-3.3887806934
31
0.0000000000
11
12.6820449159
21
-3.4090649097
31
0.0000000000
11
12.7085613215
21
-3.4272863244
31
0.0000000000
11
12.7362509458
21
-3.4434449375
31
0.0000000000
11
12.7651137887
21
-3.4575407489
31
0.0000000000
11
12.7951498502
21
-3.4695737586
31
0.0000000000
11
12.8263591304
21
-3.4795439666
31
0.0000000000
11
12.8587416292
21
-3.4874513730
31
0.0000000000
11
12.8753728356
21
-3.4906315256
31
0.0000000000
11
12.8922973467
21
-3.4932959777
31
0.0000000000
11
12.9095151624
21
-3.4954447295
31
0.0000000000
11
12.9270262828
21
-3.4970777808
31
0.0000000000
11
12.9448307078
21
-3.4981951317
31
0.0000000000
11
12.9538429096
21
-3.4985604195
31
0.0000000000
11
12.9583765078
21
-3.4986947165
31
0.0000000000
11
12.9629284375
21
-3.4987967822
31
0.0000000000
11
12.9674986988
21
-3.4988666166
31
0.0000000000
11
12.9720872916
21
-3.4989042198
31
0.0000000000
11
12.9732373041
21
-3.4989085844
31
0.0000000000
11
12.9743884624
21
-3.4989109346
31
0.0000000000
11
12.9749644711
21
-3.4989113543
31
0.0000000000
11
12.9755824597
21
-3.4989112525
31
0.0000000000
11
12.9768593628
21
-3.4989093054
31
0.0000000000
11
12.9794092852
21
-3.4988984018
31
0.0000000000
11
12.9819540293
21
-3.4988781522
31
0.0000000000
11
12.9870279828
21
-3.4988096152
31
0.0000000000
11
12.9920812232
21
-3.4987036945
31
0.0000000000
11
13.0021255649
21
-3.4983797015
31
0.0000000000
11
13.0120870542
21
-3.4979061733
31
0.0000000000
11
13.0219656913
21
-3.4972831100
31
0.0000000000
11
13.0414744087
21
-3.4955883775
31
0.0000000000
11
13.0794976163
21
-3.4904044902
31
0.0000000000
11
13.1161951876
21
-3.4828280394
31
0.0000000000
11
13.1515671227
21
-3.4728590252
31
0.0000000000
11
13.1856134214
21
-3.4604974476
31
0.0000000000
11
13.2183340839
21
-3.4457433066
31
0.0000000000
11
13.2497291100
21
-3.4285966022
31
0.0000000000
11
13.2797984999
21
-3.4090573344
31
0.0000000000
11
13.2943360813
21
-3.3983904892
31
0.0000000000
11
13.3085422535
21
-3.3871255032
31
0.0000000000
11
13.3224170167
21
-3.3752623763
31
0.0000000000
11
13.3292301199
21
-3.3691065100
31
0.0000000000
11
13.3359603709
21
-3.3628011086
31
0.0000000000
11
13.3425708110
21
-3.3563881800
31
0.0000000000
11
13.3490244818
21
-3.3499097324
31
0.0000000000
11
13.3614615154
21
-3.3367562802
31
0.0000000000
11
13.3732714717
21
-3.3233407520
31
0.0000000000
11
13.3844543506
21
-3.3096631478
31
0.0000000000
11
13.4049388766
21
-3.2815217114
31
0.0000000000
11
13.4229150932
21
-3.2523319709
31
0.0000000000
11
13.4383830005
21
-3.2220939264
31
0.0000000000
11
13.4513425986
21
-3.1908075779
31
0.0000000000
11
13.4617938873
21
-3.1584729253
31
0.0000000000
11
13.4697368668
21
-3.1250899686
31
0.0000000000
11
13.4727677405
21
-3.1080053763
31
0.0000000000
11
13.4751715369
21
-3.0906587079
31
0.0000000000
11
13.4761382811
21
-3.0818870952
31
0.0000000000
11
13.4769482560
21
-3.0730499636
31
0.0000000000
11
13.4776014615
21
-3.0641473129
31
0.0000000000
11
13.4780978978
21
-3.0551791432
31
0.0000000000
11
13.4784375646
21
-3.0461454545
31
0.0000000000
11
13.4785486096
21
-3.0416040405
31
0.0000000000
11
13.4785894349
21
-3.0393271911
31
0.0000000000
11
13.4786204622
21
-3.0370462468
31
0.0000000000
11
13.4786416914
21
-3.0347612075
31
0.0000000000
11
13.4786486317
21
-3.0336171523
31
0.0000000000
11
13.4786531225
21
-3.0324720733
31
0.0000000000
11
13.4786544493
21
-3.0318991499
31
0.0000000000
11
13.4786551637
21
-3.0313259706
31
0.0000000000
11
13.4786552913
21
-3.0310392850
31
0.0000000000
11
13.4786552824
21
-3.0308023485
31
0.0000000000
11
13.4786550207
21
-3.0303784058
31
0.0000000000
11
13.4786535551
21
-3.0295311435
31
0.0000000000
11
13.4786508332
21
-3.0286847122
31
0.0000000000
11
13.4786416208
21
-3.0269943426
31
0.0000000000
11
13.4786273835
21
-3.0253072967
31
0.0000000000
11
13.4785838340
21
-3.0219431767
31
0.0000000000
11
13.4785201847
21
-3.0185923520
31
0.0000000000
11
13.4784364356
21
-3.0152548227
31
0.0000000000
11
13.4782086381
21
-3.0086196504
31
0.0000000000
11
13.4779004415
21
-3.0020376597
31
0.0000000000
11
13.4775118459
21
-2.9955088506
31
0.0000000000
11
13.4764934572
21
-2.9826107773
31
0.0000000000
11
13.4751534720
21
-2.9699254306
31
0.0000000000
11
13.4744754410
21
-2.9645135882
31
0.0000000000
0
SPLINE
5
2AE
100
AcDbEntity
8
0
100
AcDbSpline
62
0
6
CONTINUOUS
70
0
71
3
72
95
73
91
74
89
42
0.0000001000
43
0.0000001000
44
0.0000000001
12
1.1386370360
22
0.5224975799
32
0.0000000000
13
-1.1294357891
23
-0.5428770782
33
0.0000000000
40
0.0000000000
40
0.0000000000
40
0.0000000000
40
0.0000000000
40
0.0738247909
40
0.1082631379
40
0.1250907662
40
0.1417496058
40
0.1583162256
40
0.1665735493
40
0.1747721875
40
0.2070929971
40
0.2231059972
40
0.2391056528
40
0.2551602274
40
0.2713372893
40
0.2794934819
40
0.2877048852
40
0.2959793965
40
0.3001428552
40
0.3043249687
40
0.3064233278
40
0.3085266999
40
0.3090533407
40
0.3096038922
40
0.3107123135
40
0.3129267255
40
0.3173462317
40
0.3217541601
40
0.3305389372
40
0.3392891671
40
0.3567158877
40
0.3741007599
40
0.4089883178
40
0.4266354502
40
0.4444961076
40
0.4626301788
40
0.4810133484
40
0.4993391183
40
0.5176368811
40
0.5544315946
40
0.5920097533
40
0.6112769543
40
0.6309446314
40
0.6409487492
40
0.6510186829
40
0.6710919801
40
0.6911215867
40
0.7111641304
40
0.7312761292
40
0.7515135194
40
0.7719312068
40
0.7822252523
40
0.7925842747
40
0.7977902556
40
0.8030148697
40
0.8082588964
40
0.8135231066
40
0.8188082624
40
0.8214589421
40
0.8241151399
40
0.8254453384
40
0.8267769512
40
0.8274432917
40
0.8281099900
40
0.8284434738
40
0.8286102495
40
0.8286990102
40
0.8288199502
40
0.8290617794
40
0.8293035410
40
0.8297868616
40
0.8307526938
40
0.8317174506
40
0.8336437521
40
0.8355657971
40
0.8374836159
40
0.8413066897
40
0.8451132274
40
0.8489034788
40
0.8526776967
40
0.8601789947
40
0.8676192732
40
0.8750006718
40
0.8823253821
40
0.8968131795
40
0.9111017665
40
0.9252104757
40
0.9391593876
40
0.9529692798
40
0.9802526481
40
1.0000000000
40
1.0000000000
40
1.0000000000
40
1.0000000000
10
13.1998501131
20
-2.6628869326
30
0.0000000000
10
13.2278699934
20
-2.6500291744
30
0.0000000000
10
13.2674712614
20
-2.6272078989
30
0.0000000000
10
13.3071468282
20
-2.5930276055
30
0.0000000000
10
13.3267082233
20
-2.5724582326
30
0.0000000000
10
13.3400716826
20
-2.5563653299
30
0.0000000000
10
13.3502078019
20
-2.5422990653
30
0.0000000000
10
13.3576881693
20
-2.5307112372
30
0.0000000000
10
13.3682154281
20
-2.5132727381
30
0.0000000000
10
13.3788364555
20
-2.4920979829
30
0.0000000000
10
13.3884752136
20
-2.4670058087
30
0.0000000000
10
13.3944372570
20
-2.4478227574
30
0.0000000000
10
13.3991498158
20
-2.4282264822
30
0.0000000000
10
13.4020288020
20
-2.4115953699
30
0.0000000000
10
13.4037106498
20
-2.3981074151
30
0.0000000000
10
13.4046645808
20
-2.3878595014
30
0.0000000000
10
13.4051991315
20
-2.3792514925
30
0.0000000000
10
13.4054721506
20
-2.3723161306
30
0.0000000000
10
13.4055782661
20
-2.3679558633
30
0.0000000000
10
13.4056244298
20
-2.3644550613
30
0.0000000000
10
13.4056358543
20
-2.3624805107
30
0.0000000000
10
13.4056374176
20
-2.3611523118
30
0.0000000000
10
13.4056368022
20
-2.3602396021
30
0.0000000000
10
13.4056313006
20
-2.3586220873
30
0.0000000000
10
13.4056024692
20
-2.3553890008
30
0.0000000000
10
13.4055104161
20
-2.3507786654
30
0.0000000000
10
13.4052546130
20
-2.3434280772
30
0.0000000000
10
13.4047314642
20
-2.3342780924
30
0.0000000000
10
13.4034602815
20
-2.3197319113
30
0.0000000000
10
13.4010540190
20
-2.3016872672
30
0.0000000000
10
13.3954501804
20
-2.2731117374
30
0.0000000000
10
13.3871928657
20
-2.2450154323
30
0.0000000000
10
13.3763996726
20
-2.2176581062
30
0.0000000000
10
13.3669660777
20
-2.1973254075
30
0.0000000000
10
13.3562382742
20
-2.1772986694
30
0.0000000000
10
13.3443352935
20
-2.1577166714
30
0.0000000000
10
13.3311496432
20
-2.1388863540
30
0.0000000000
10
13.3119798171
20
-2.1149365183
30
0.0000000000
10
13.2849064946
20
-2.0871255522
30
0.0000000000
10
13.2542467422
20
-2.0626893847
30
0.0000000000
10
13.2275932421
20
-2.0450431906
30
0.0000000000
10
13.2099285858
20
-2.0347417688
30
0.0000000000
10
13.1952629180
20
-2.0269700293
30
0.0000000000
10
13.1802456966
20
-2.0195120694
30
0.0000000000
10
13.1611175667
20
-2.0109359322
30
0.0000000000
10
13.1376741672
20
-2.0018894935
30
0.0000000000
10
13.1137669082
20
-1.9940984939
30
0.0000000000
10
13.0893965368
20
-1.9875634398
30
0.0000000000
10
13.0645639881
20
-1.9822842475
30
0.0000000000
10
13.0435418497
20
-1.9789404584
30
0.0000000000
10
13.0265123705
20
-1.9768897735
30
0.0000000000
10
13.0157609070
20
-1.9758672192
30
0.0000000000
10
13.0071043031
20
-1.9752051449
30
0.0000000000
10
13.0005718613
20
-1.9747860084
30
0.0000000000
10
12.9940105321
20
-1.9744451448
30
0.0000000000
10
12.9874203054
20
-1.9741825513
30
0.0000000000
10
12.9819099770
20
-1.9740291051
30
0.0000000000
10
12.9774875300
20
-1.9739453666
30
0.0000000000
10
12.9747161118
20
-1.9739093001
30
0.0000000000
10
12.9724953978
20
-1.9738902144
30
0.0000000000
10
12.9711055859
20
-1.9738823577
30
0.0000000000
10
12.9699928372
20
-1.9738785161
30
0.0000000000
10
12.9692969006
20
-1.9738771335
30
0.0000000000
10
12.9688095807
20
-1.9738767007
30
0.0000000000
10
12.9685636066
20
-1.9738766170
30
0.0000000000
10
12.9684063906
20
-1.9738766080
30
0.0000000000
10
12.9682178323
20
-1.9738766378
30
0.0000000000
10
12.9679653810
20
-1.9738767702
30
0.0000000000
10
12.9675616003
20
-1.9738771799
30
0.0000000000
10
12.9668554776
20
-1.9738784157
30
0.0000000000
10
12.9658474366
20
-1.9738816638
30
0.0000000000
10
12.9642368251
20
-1.9738900230
30
0.0000000000
10
12.9622269405
20
-1.9739063973
30
0.0000000000
10
12.9598191674
20
-1.9739355536
30
0.0000000000
10
12.9566195419
20
-1.9739870339
30
0.0000000000
10
12.9526334722
20
-1.9740750487
30
0.0000000000
10
12.9478666683
20
-1.9742187682
30
0.0000000000
10
12.9431215724
20
-1.9744004743
30
0.0000000000
10
12.9368368650
20
-1.9746927865
30
0.0000000000
10
12.9290343139
20
-1.9751525889
30
0.0000000000
10
12.9197385262
20
-1.9758574780
30
0.0000000000
10
12.9105295165
20
-1.9767143506
30
0.0000000000
10
12.8984115652
20
-1.9780545069
30
0.0000000000
10
12.8834725647
20
-1.9801063873
30
0.0000000000
10
12.8658266025
20
-1.9831863230
30
0.0000000000
10
12.8485276032
20
-1.9868748960
30
0.0000000000
10
12.8315754352
20
-1.9911723707
30
0.0000000000
10
12.8095273619
20
-1.9976866027
30
0.0000000000
10
12.7856042438
20
-2.0063306847
30
0.0000000000
10
12.7676399764
20
-2.0143047812
30
0.0000000000
10
12.7602055210
20
-2.0178782428
30
0.0000000000
11
13.1998501131
21
-2.6628869326
31
0.0000000000
11
13.2794310816
21
-2.6157616717
31
0.0000000000
11
13.3120572464
21
-2.5875312339
31
0.0000000000
11
13.3265792490
21
-2.5722490631
31
0.0000000000
11
13.3399071983
21
-2.5561889245
31
0.0000000000
11
13.3520410944
21
-2.5393508179
31
0.0000000000
11
13.3576571389
21
-2.5306632551
31
0.0000000000
11
13.3629628877
21
-2.5218685392
31
0.0000000000
11
13.3810779131
21
-2.4856553096
31
0.0000000000
11
13.3882706437
21
-2.4669280753
31
0.0000000000
11
13.3942201864
21
-2.4477870948
31
0.0000000000
11
13.3989265410
21
-2.4282323679
31
0.0000000000
11
13.4023897076
21
-2.4082638946
31
0.0000000000
11
13.4036550954
21
-2.3981245032
31
0.0000000000
11
13.4046096862
21
-2.3878816751
31
0.0000000000
11
13.4052534800
21
-2.3775354105
31
0.0000000000
11
13.4054588280
21
-2.3723234894
31
0.0000000000
11
13.4055864768
21
-2.3670857093
31
0.0000000000
11
13.4056211640
21
-2.3644571220
31
0.0000000000
11
13.4056364263
21
-2.3618220699
31
0.0000000000
11
13.4056372068
21
-2.3611622968
31
0.0000000000
11
13.4056367512
21
-2.3604725682
31
0.0000000000
11
13.4056320198
21
-2.3590839504
31
0.0000000000
11
13.4056072709
21
-2.3563098542
31
0.0000000000
11
13.4054966289
21
-2.3507742197
31
0.0000000000
11
13.4053044612
21
-2.3452553289
31
0.0000000000
11
13.4046755486
21
-2.3342677790
31
0.0000000000
11
13.4037205331
21
-2.3233472043
31
0.0000000000
11
13.4008321938
21
-2.3017069807
31
0.0000000000
11
13.3966394432
21
-2.2803346582
31
0.0000000000
11
13.3843407080
21
-2.2383937164
31
0.0000000000
11
13.3762347234
21
-2.2178250972
31
0.0000000000
11
13.3668243275
21
-2.1975243791
31
0.0000000000
11
13.3561095203
21
-2.1774915620
31
0.0000000000
11
13.3441141131
21
-2.1578317600
31
0.0000000000
11
13.3309467444
21
-2.1390245552
31
0.0000000000
11
13.3166208080
21
-2.1211290743
31
0.0000000000
11
13.2844932326
21
-2.0880732839
31
0.0000000000
11
13.2477313868
21
-2.0586643890
31
0.0000000000
11
13.2276126124
21
-2.0453275272
31
0.0000000000
11
13.2063352705
21
-2.0329023893
31
0.0000000000
11
13.1952621367
21
-2.0270317168
31
0.0000000000
11
13.1839632864
21
-2.0214202395
31
0.0000000000
11
13.1610151667
21
-2.0111346657
31
0.0000000000
11
13.1376045566
21
-2.0021012486
31
0.0000000000
11
13.1137314561
21
-1.9943199884
31
0.0000000000
11
13.0893958653
21
-1.9877908850
31
0.0000000000
11
13.0645977841
21
-1.9825139384
31
0.0000000000
11
13.0393372126
21
-1.9784891486
31
0.0000000000
11
13.0265334929
21
-1.9769463125
31
0.0000000000
11
13.0136141507
21
-1.9757165156
31
0.0000000000
11
13.0071111211
21
-1.9752190069
31
0.0000000000
11
13.0005791858
21
-1.9747997580
31
0.0000000000
11
12.9940183449
21
-1.9744587688
31
0.0000000000
11
12.9874285984
21
-1.9741960395
31
0.0000000000
11
12.9808099462
21
-1.9740115700
31
0.0000000000
11
12.9774897805
21
-1.9739486826
31
0.0000000000
11
12.9741623883
21
-1.9739053603
31
0.0000000000
11
12.9724959824
21
-1.9738910359
31
0.0000000000
11
12.9708277698
21
-1.9738816028
31
0.0000000000
11
12.9699929860
21
-1.9738787205
31
0.0000000000
11
12.9691577506
21
-1.9738770609
31
0.0000000000
11
12.9687399636
21
-1.9738766897
31
0.0000000000
11
12.9685310277
21
-1.9738766188
31
0.0000000000
11
12.9684198286
21
-1.9738766121
31
0.0000000000
11
12.9682683155
21
-1.9738766360
31
0.0000000000
11
12.9679653528
21
-1.9738767950
31
0.0000000000
11
12.9676624750
21
-1.9738771023
31
0.0000000000
11
12.9670569738
21
-1.9738781621
31
0.0000000000
11
12.9658469893
21
-1.9738820623
31
0.0000000000
11
12.9646383620
21
-1.9738883365
31
0.0000000000
11
12.9622251793
21
-1.9739080070
31
0.0000000000
11
12.9598174255
21
-1.9739371736
31
0.0000000000
11
12.9574151006
21
-1.9739758363
31
0.0000000000
11
12.9526267377
21
-1.9740816500
31
0.0000000000
11
12.9478600907
21
-1.9742254481
31
0.0000000000
11
12.9431151595
21
-1.9744072306
31
0.0000000000
11
12.9383919441
21
-1.9746269975
31
0.0000000000
11
12.9290106608
21
-1.9751804845
31
0.0000000000
11
12.9197162407
21
-1.9758859092
31
0.0000000000
11
12.9105086839
21
-1.9767432714
31
0.0000000000
11
12.9013879904
21
-1.9777525713
31
0.0000000000
11
12.8834071932
21
-1.9802269839
31
0.0000000000
11
12.8657738491
21
-1.9833091469
31
0.0000000000
11
12.8484879581
21
-1.9869990604
31
0.0000000000
11
12.8315495203
21
-1.9912967243
31
0.0000000000
11
12.8149585355
21
-1.9962021387
31
0.0000000000
11
12.7828189252
21
-2.0078362188
31
0.0000000000
11
12.7602055210
21
-2.0178782428
31
0.0000000000
0
SPLINE
5
2AF
100
AcDbEntity
8
0
100
AcDbSpline
62
0
6
CONTINUOUS
70
0
71
3
72
68
73
64
74
62
42
0.0000001000
43
0.0000001000
44
0.0000000001
12
0.1265546448
22
0.8409976031
32
0.0000000000
13
-0.1399112276
23
-0.8389577882
33
0.0000000000
40
0.0000000000
40
0.0000000000
40
0.0000000000
40
0.0000000000
40
0.1284306287
40
0.1848782167
40
0.2116715306
40
0.2377418152
40
0.2632924325
40
0.2759233882
40
0.2884268581
40
0.3375252187
40
0.3863752915
40
0.4112032513
40
0.4365267417
40
0.4625157379
40
0.4758117971
40
0.4893320412
40
0.4961819900
40
0.5031013745
40
0.5167581287
40
0.5301582546
40
0.5433191178
40
0.5689923874
40
0.5939403441
40
0.6183350250
40
0.6423603554
40
0.6662088079
40
0.6900771342
40
0.7141615991
40
0.7263447594
40
0.7384637644
40
0.7622628872
40
0.7856384995
40
0.8087844148
40
0.8319002253
40
0.8551862972
40
0.8669577151
40
0.8788445271
40
0.8908697982
40
0.9030558070
40
0.9092161382
40
0.9154246037
40
0.9216837336
40
0.9279959972
40
0.9311728459
40
0.9343638754
40
0.9375693769
40
0.9391776491
40
0.9407896467
40
0.9415970540
40
0.9420011117
40
0.9424054061
40
0.9426076423
40
0.9428553523
40
0.9433655952
40
0.9443847236
40
0.9464175733
40
0.9484432599
40
0.9524733449
40
0.9564754275
40
0.9643972587
40
0.9722125327
40
0.9875378366
40
1.0000000000
40
1.0000000000
40
1.0000000000
40
1.0000000000
10
12.7025774717
20
-2.3952948644
30
0.0000000000
10
12.7079953026
20
-2.3592915808
30
0.0000000000
10
12.7203039934
20
-2.3076693832
30
0.0000000000
10
12.7464982114
20
-2.2534262581
30
0.0000000000
10
12.7633454109
20
-2.2273752240
30
0.0000000000
10
12.7769965300
20
-2.2097947906
30
0.0000000000
10
12.7894465033
20
-2.1964606963
30
0.0000000000
10
12.7999637391
20
-2.1866642869
30
0.0000000000
10
12.8159315444
20
-2.1729536961
30
0.0000000000
10
12.8418563907
20
-2.1550785704
30
0.0000000000
10
12.8737492503
20
-2.1406670355
30
0.0000000000
10
12.9006354181
20
-2.1325183861
30
0.0000000000
10
12.9217684632
20
-2.1280031308
30
0.0000000000
10
12.9399485268
20
-2.1256207787
30
0.0000000000
10
12.9548798316
20
-2.1245130851
30
0.0000000000
10
12.9644194847
20
-2.1241550802
30
0.0000000000
10
12.9721556092
20
-2.1240695453
30
0.0000000000
10
12.9799307776
20
-2.1241164308
30
0.0000000000
10
12.9895599932
20
-2.1244171614
30
0.0000000000
10
13.0009385722
20
-2.1251762434
30
0.0000000000
10
13.0156701581
20
-2.1267028288
30
0.0000000000
10
13.0335410937
20
-2.1295827098
30
0.0000000000
10
13.0542172420
20
-2.1346594230
30
0.0000000000
10
13.0739452487
20
-2.1413305644
30
0.0000000000
10
13.0927207476
20
-2.1495972264
30
0.0000000000
10
13.1105401554
20
-2.1594593724
30
0.0000000000
10
13.1273986096
20
-2.1709150999
30
0.0000000000
10
13.1405957023
20
-2.1817458579
30
0.0000000000
10
13.1506050974
20
-2.1911303124
30
0.0000000000
10
13.1601559833
20
-2.2008677184
30
0.0000000000
10
13.1711494051
20
-2.2136143883
30
0.0000000000
10
13.1827755213
20
-2.2298418053
30
0.0000000000
10
13.1927552903
20
-2.2469084305
30
0.0000000000
10
13.2010849119
20
-2.2648095053
30
0.0000000000
10
13.2066310878
20
-2.2803672228
30
0.0000000000
10
13.2102407155
20
-2.2931802387
30
0.0000000000
10
13.2125484837
20
-2.3030329253
30
0.0000000000
10
13.2144462951
20
-2.3130919134
30
0.0000000000
10
13.2156818704
20
-2.3216155852
30
0.0000000000
10
13.2164673224
20
-2.3285325297
30
0.0000000000
10
13.2169563060
20
-2.3337910331
30
0.0000000000
10
13.2173430034
20
-2.3391011874
30
0.0000000000
10
13.2175795052
20
-2.3435596788
30
0.0000000000
10
13.2177178899
20
-2.3471517368
30
0.0000000000
10
13.2177963429
20
-2.3498645909
30
0.0000000000
10
13.2178403677
20
-2.3521334721
30
0.0000000000
10
13.2178628499
20
-2.3539549727
30
0.0000000000
10
13.2178715871
20
-2.3550967453
30
0.0000000000
10
13.2178749114
20
-2.3558971589
30
0.0000000000
10
13.2178760138
20
-2.3563552074
30
0.0000000000
10
13.2178763708
20
-2.3566416977
30
0.0000000000
10
13.2178764598
20
-2.3568838652
30
0.0000000000
10
13.2178763927
20
-2.3571560681
30
0.0000000000
10
13.2178758031
20
-2.3576598505
30
0.0000000000
10
13.2178726962
20
-2.3586696962
30
0.0000000000
10
13.2178627819
20
-2.3601091303
30
0.0000000000
10
13.2178352364
20
-2.3624020056
30
0.0000000000
10
13.2177789533
20
-2.3652527986
30
0.0000000000
10
13.2176423497
20
-2.3697735756
30
0.0000000000
10
13.2173846021
20
-2.3753639740
30
0.0000000000
10
13.2167872111
20
-2.3841500758
30
0.0000000000
10
13.2157663773
20
-2.3941951570
30
0.0000000000
10
13.2146309173
20
-2.4019927184
30
0.0000000000
10
13.2140497185
20
-2.4054777948
30
0.0000000000
11
12.7025774717
21
-2.3952948644
31
0.0000000000
11
12.7301971957
21
-2.2896186906
31
0.0000000000
11
12.7513305047
21
-2.2465137787
31
0.0000000000
11
12.7637280138
21
-2.2273946646
31
0.0000000000
11
12.7773460925
21
-2.2098977783
31
0.0000000000
11
12.7921847409
21
-2.1940231199
31
0.0000000000
11
12.8000384510
21
-2.1866941261
31
0.0000000000
11
12.8081095909
21
-2.1797706894
31
0.0000000000
11
12.8425311251
21
-2.1561325119
31
0.0000000000
11
12.8803718184
21
-2.1389832459
31
0.0000000000
11
12.9005743497
21
-2.1328419547
31
0.0000000000
11
12.9216316708
21
-2.1283228913
31
0.0000000000
11
12.9435437817
21
-2.1254260558
31
0.0000000000
11
12.9548203832
21
-2.1245859735
31
0.0000000000
11
12.9663106823
21
-2.1241514482
31
0.0000000000
11
12.9721359683
21
-2.1240862694
31
0.0000000000
11
12.9780205662
21
-2.1241215308
31
0.0000000000
11
12.9896293761
21
-2.1244885236
31
0.0000000000
11
13.0010002138
21
-2.1252507394
31
0.0000000000
11
13.0121330793
21
-2.1264081782
31
0.0000000000
11
13.0336848933
21
-2.1299087248
31
0.0000000000
11
13.0542848184
21
-2.1349901633
31
0.0000000000
11
13.0739328544
21
-2.1416524939
31
0.0000000000
11
13.0926290013
21
-2.1498957165
31
0.0000000000
11
13.1103732592
21
-2.1597198311
31
0.0000000000
11
13.1271656280
21
-2.1711248377
31
0.0000000000
11
13.1430061078
21
-2.1841107363
31
0.0000000000
11
13.1505676445
21
-2.1911945981
31
0.0000000000
11
13.1577830272
21
-2.1985545229
31
0.0000000000
11
13.1709868855
21
-2.2138949919
31
0.0000000000
11
13.1825548675
21
-2.2300629535
31
0.0000000000
11
13.1924869733
21
-2.2470584078
31
0.0000000000
11
13.2007832028
21
-2.2648813547
31
0.0000000000
11
13.2074435561
21
-2.2835317942
31
0.0000000000
11
13.2101602791
21
-2.2931673237
31
0.0000000000
11
13.2124680331
21
-2.3030097264
31
0.0000000000
11
13.2143668180
21
-2.3130590022
31
0.0000000000
11
13.2158566339
21
-2.3233151512
31
0.0000000000
11
13.2164481784
21
-2.3285208031
31
0.0000000000
11
13.2169374807
21
-2.3337781733
31
0.0000000000
11
13.2173245407
21
-2.3390872618
31
0.0000000000
11
13.2176093585
21
-2.3444480686
31
0.0000000000
11
13.2177134265
21
-2.3471478664
31
0.0000000000
11
13.2177919339
21
-2.3498605937
31
0.0000000000
11
13.2178448808
21
-2.3525862506
31
0.0000000000
11
13.2178617691
21
-2.3539539276
31
0.0000000000
11
13.2178722671
21
-2.3553248371
31
0.0000000000
11
13.2178751199
21
-2.3560115039
31
0.0000000000
11
13.2178759472
21
-2.3563551404
31
0.0000000000
11
13.2178763751
21
-2.3566989789
31
0.0000000000
11
13.2178764393
21
-2.3568709739
31
0.0000000000
11
13.2178763899
21
-2.3570816429
31
0.0000000000
11
13.2178758799
21
-2.3575155870
31
0.0000000000
11
13.2178732127
21
-2.3583823173
31
0.0000000000
11
13.2178612885
21
-2.3601111464
31
0.0000000000
11
13.2178405780
21
-2.3618338001
31
0.0000000000
11
13.2177727984
21
-2.3652605814
31
0.0000000000
11
13.2176698737
21
-2.3686626613
31
0.0000000000
11
13.2173585893
21
-2.3753927168
31
0.0000000000
11
13.2169067248
21
-2.3820239665
31
0.0000000000
11
13.2155812556
21
-2.3949900487
31
0.0000000000
11
13.2140497185
21
-2.4054777948
31
0.0000000000
0
SPLINE
5
2B0
100
AcDbEntity
8
0
100
AcDbSpline
62
0
6
CONTINUOUS
70
0
71
3
72
104
73
100
74
98
42
0.0000001000
43
0.0000001000
44
0.0000000001
12
0.5718077351
22
0.9130530379
32
0.0000000000
13
-0.5800844376
23
-0.9079124882
33
0.0000000000
40
0.0000000000
40
0.0000000000
40
0.0000000000
40
0.0000000000
40
0.0352877371
40
0.0705991331
40
0.0884475116
40
0.1065094989
40
0.1248505528
40
0.1341463346
40
0.1435350480
40
0.1529599118
40
0.1623670005
40
0.1811697982
40
0.2000357582
40
0.2190535167
40
0.2286477944
40
0.2383122211
40
0.2480571090
40
0.2578925170
40
0.2628473843
40
0.2678285257
40
0.2728371184
40
0.2778743200
40
0.2829412687
40
0.2854862657
40
0.2880391170
40
0.2905999594
40
0.2918834217
40
0.2931689324
40
0.2944565082
40
0.2957461657
40
0.2963917806
40
0.2970379221
40
0.2973611910
40
0.2976845924
40
0.2980081264
40
0.2981699433
40
0.2983317934
40
0.2984619420
40
0.2985920656
40
0.2988522377
40
0.2993722816
40
0.2998919260
40
0.3004111718
40
0.3014484700
40
0.3024841831
40
0.3045508776
40
0.3066113088
40
0.3086655290
40
0.3107135911
40
0.3147914410
40
0.3188453040
40
0.3228756199
40
0.3308672946
40
0.3387702510
40
0.3465882892
40
0.3543253346
40
0.3619854368
40
0.3770905366
40
0.3919394398
40
0.4065687992
40
0.4210169389
40
0.4495195012
40
0.4777878058
40
0.5061609551
40
0.5204972216
40
0.5349843850
40
0.5495223677
40
0.5640135516
40
0.5930178881
40
0.6223529109
40
0.6523519516
40
0.6833269120
40
0.7155613776
40
0.7322344497
40
0.7493140557
40
0.7580150448
40
0.7668274247
40
0.7712763770
40
0.7757542957
40
0.7802615394
40
0.7825262736
40
0.7836614370
40
0.7847984715
40
0.7859943819
40
0.7871884514
40
0.7895710892
40
0.7943145112
40
0.7990291143
40
0.8037152698
40
0.8130036588
40
0.8221828776
40
0.8402259428
40
0.8578723745
40
0.8751511595
40
0.8920931716
40
0.9250908315
40
0.9571567099
40
0.9885994140
40
1.0000000000
40
1.0000000000
40
1.0000000000
40
1.0000000000
10
11.5468056604
20
-2.7916788726
30
0.0000000000
10
11.5535315941
20
-2.7809390141
30
0.0000000000
10
11.5683447832
20
-2.7602676209
30
0.0000000000
10
11.5900410148
20
-2.7369502259
30
0.0000000000
10
11.6091437519
20
-2.7199228095
30
0.0000000000
10
11.6244602828
20
-2.7078634577
30
0.0000000000
10
11.6379420561
20
-2.6984886172
30
0.0000000000
10
11.6491764841
20
-2.6913743594
30
0.0000000000
10
11.6578499174
20
-2.6862076926
30
0.0000000000
10
11.6667139964
20
-2.6812911466
30
0.0000000000
10
11.6787587499
20
-2.6751560116
30
0.0000000000
10
11.6942115424
20
-2.6682641737
30
0.0000000000
10
11.7133456555
20
-2.6612711667
30
0.0000000000
10
11.7297347423
20
-2.6565198695
30
0.0000000000
10
11.7431131692
20
-2.6533561882
30
0.0000000000
10
11.7533243795
20
-2.6512937958
30
0.0000000000
10
11.7636822413
20
-2.6495491410
30
0.0000000000
10
11.7724144178
20
-2.6483629188
30
0.0000000000
10
11.7794705200
20
-2.6475718177
30
0.0000000000
10
11.7848126630
20
-2.6470563394
30
0.0000000000
10
11.7901915164
20
-2.6466202105
30
0.0000000000
10
11.7956070907
20
-2.6462634267
30
0.0000000000
10
11.8001438183
20
-2.6460325768
30
0.0000000000
10
11.8037912215
20
-2.6458873980
30
0.0000000000
10
11.8065400999
20
-2.6457981819
30
0.0000000000
10
11.8088366679
20
-2.6457404085
30
0.0000000000
10
11.8106784730
20
-2.6457040834
30
0.0000000000
10
11.8120632158
20
-2.6456817760
30
0.0000000000
10
11.8134502542
20
-2.6456644267
30
0.0000000000
10
11.8146075629
20
-2.6456541050
30
0.0000000000
10
11.8155345528
20
-2.6456483236
30
0.0000000000
10
11.8161145166
20
-2.6456457422
30
0.0000000000
10
11.8165787740
20
-2.6456442965
30
0.0000000000
10
11.8169271818
20
-2.6456435218
30
0.0000000000
10
11.8172176113
20
-2.6456431347
30
0.0000000000
10
11.8174500266
20
-2.6456429795
30
0.0000000000
10
11.8176129957
20
-2.6456429442
30
0.0000000000
10
11.8177645834
20
-2.6456429685
30
0.0000000000
10
11.8179514793
20
-2.6456430547
30
0.0000000000
10
11.8182783898
20
-2.6456433574
30
0.0000000000
10
11.8187451800
20
-2.6456442218
30
0.0000000000
10
11.8193050039
20
-2.6456459512
30
0.0000000000
10
11.8200505738
20
-2.6456491784
30
0.0000000000
10
11.8209814585
20
-2.6456549401
30
0.0000000000
10
11.8224680071
20
-2.6456678425
30
0.0000000000
10
11.8243218915
20
-2.6456908737
30
0.0000000000
10
11.8265413363
20
-2.6457296024
30
0.0000000000
10
11.8287538684
20
-2.6457794014
30
0.0000000000
10
11.8316903154
20
-2.6458604396
30
0.0000000000
10
11.8353437562
20
-2.6459892928
30
0.0000000000
10
11.8397067828
20
-2.6461884315
30
0.0000000000
10
11.8454707653
20
-2.6465120670
30
0.0000000000
10
11.8526080655
20
-2.6470264413
30
0.0000000000
10
11.8610868534
20
-2.6478226546
30
0.0000000000
10
11.8694551065
20
-2.6487960653
30
0.0000000000
10
11.8777128668
20
-2.6499466978
30
0.0000000000
10
11.8885246118
20
-2.6517087927
30
0.0000000000
10
11.9017770817
20
-2.6543504617
30
0.0000000000
10
11.9173128330
20
-2.6582456361
30
0.0000000000
10
11.9324073730
20
-2.6628517632
30
0.0000000000
10
11.9518520268
20
-2.6699068196
30
0.0000000000
10
11.9751753382
20
-2.6805325212
30
0.0000000000
10
12.0014960616
20
-2.6962086300
30
0.0000000000
10
12.0218725499
20
-2.7116130339
30
0.0000000000
10
12.0372110780
20
-2.7252852592
30
0.0000000000
10
12.0482808037
20
-2.7362470257
30
0.0000000000
10
12.0587963603
20
-2.7478174052
30
0.0000000000
10
12.0719513039
20
-2.7639923763
30
0.0000000000
10
12.0867618607
20
-2.7856179364
30
0.0000000000
10
12.1017652353
20
-2.8136361007
30
0.0000000000
10
12.1140146332
20
-2.8437262808
30
0.0000000000
10
12.1235123173
20
-2.8758749761
30
0.0000000000
10
12.1290776458
20
-2.9040573155
30
0.0000000000
10
12.1322034073
20
-2.9275517311
30
0.0000000000
10
12.1336036336
20
-2.9427373603
30
0.0000000000
10
12.1343899190
20
-2.9551356027
30
0.0000000000
10
12.1347417234
20
-2.9630151334
30
0.0000000000
10
12.1349390453
20
-2.9693824564
30
0.0000000000
10
12.1350450530
20
-2.9742056633
30
0.0000000000
10
12.1350979251
20
-2.9782453059
30
0.0000000000
10
12.1351164314
20
-2.9810847749
30
0.0000000000
10
12.1351217364
20
-2.9827140181
30
0.0000000000
10
12.1351230672
20
-2.9839594454
30
0.0000000000
10
12.1351216898
20
-2.9852260263
30
0.0000000000
10
12.1351161553
20
-2.9869399059
30
0.0000000000
10
12.1350968019
20
-2.9899276803
30
0.0000000000
10
12.1350415310
20
-2.9941794609
30
0.0000000000
10
12.1349307235
20
-2.9992576167
30
0.0000000000
10
12.1347244295
20
-3.0059659446
30
0.0000000000
10
12.1343565834
20
-3.0142730506
30
0.0000000000
10
12.1335342901
20
-3.0273591113
30
0.0000000000
10
12.1320696140
20
-3.0434095497
30
0.0000000000
10
12.1295908785
20
-3.0622737464
30
0.0000000000
10
12.1264007523
20
-3.0806305353
30
0.0000000000
10
12.1212450978
20
-3.1042182679
30
0.0000000000
10
12.1130412443
20
-3.1325491108
30
0.0000000000
10
12.1002394634
20
-3.1648118218
30
0.0000000000
10
12.0878284645
20
-3.1887364770
30
0.0000000000
10
12.0797906010
20
-3.2018601083
30
0.0000000000
10
12.0775861668
20
-3.2053103531
30
0.0000000000
11
11.5468056604
21
-2.7916788726
31
0.0000000000
11
11.5689656054
21
-2.7607890436
31
0.0000000000
11
11.5948621717
21
-2.7329223772
31
0.0000000000
11
11.6092116309
21
-2.7201228210
31
0.0000000000
11
11.6244952075
21
-2.7080791161
31
0.0000000000
11
11.6407129014
21
-2.6967912625
31
0.0000000000
11
11.6491720424
21
-2.6914307800
31
0.0000000000
11
11.6578647127
21
-2.6862592603
31
0.0000000000
11
11.6667476192
21
-2.6813408794
31
0.0000000000
11
11.6757774687
21
-2.6767398135
31
0.0000000000
11
11.6942779968
21
-2.6684896262
31
0.0000000000
11
11.7133662971
21
-2.6615086986
31
0.0000000000
11
11.7330423694
21
-2.6557970305
31
0.0000000000
11
11.7431008201
21
-2.6534171688
31
0.0000000000
11
11.7533062139
21
-2.6513546220
31
0.0000000000
11
11.7636585507
21
-2.6496093901
31
0.0000000000
11
11.7741578305
21
-2.6481814730
31
0.0000000000
11
11.7794625740
21
-2.6475865076
31
0.0000000000
11
11.7848040533
21
-2.6470708709
31
0.0000000000
11
11.7901822683
21
-2.6466345629
31
0.0000000000
11
11.7955972191
21
-2.6462775837
31
0.0000000000
11
11.8010489057
21
-2.6459999331
31
0.0000000000
11
11.8037885249
21
-2.6458908562
31
0.0000000000
11
11.8065373280
21
-2.6458016113
31
0.0000000000
11
11.8092953151
21
-2.6457321987
31
0.0000000000
11
11.8106777526
21
-2.6457049295
31
0.0000000000
11
11.8120624861
21
-2.6456826183
31
0.0000000000
11
11.8134495156
21
-2.6456652651
31
0.0000000000
11
11.8148388410
21
-2.6456528700
31
0.0000000000
11
11.8155343648
21
-2.6456485317
31
0.0000000000
11
11.8162304625
21
-2.6456454329
31
0.0000000000
11
11.8165787266
21
-2.6456443483
31
0.0000000000
11
11.8169271342
21
-2.6456435737
31
0.0000000000
11
11.8172756853
21
-2.6456431088
31
0.0000000000
11
11.8174500147
21
-2.6456429926
31
0.0000000000
11
11.8176243799
21
-2.6456429539
31
0.0000000000
11
11.8177645924
21
-2.6456429755
31
0.0000000000
11
11.8179047778
21
-2.6456430404
31
0.0000000000
11
11.8181850676
21
-2.6456432998
31
0.0000000000
11
11.8187453232
21
-2.6456443377
31
0.0000000000
11
11.8193051466
21
-2.6456460673
31
0.0000000000
11
11.8198645379
21
-2.6456484889
31
0.0000000000
11
11.8209820243
21
-2.6456554077
31
0.0000000000
11
11.8220977821
21
-2.6456650940
31
0.0000000000
11
11.8243241125
21
-2.6456927691
31
0.0000000000
11
11.8265435291
21
-2.6457315143
31
0.0000000000
11
11.8287560319
21
-2.6457813295
31
0.0000000000
11
11.8309616208
21
-2.6458422148
31
0.0000000000
11
11.8353520573
21
-2.6459971955
31
0.0000000000
11
11.8397148386
21
-2.6461964564
31
0.0000000000
11
11.8440499647
21
-2.6464399975
31
0.0000000000
11
11.8526372510
21
-2.6470599203
31
0.0000000000
11
11.8611139165
21
-2.6478569638
31
0.0000000000
11
11.8694799611
21
-2.6488311282
31
0.0000000000
11
11.8777353847
21
-2.6499824134
31
0.0000000000
11
11.8858801874
21
-2.6513108194
31
0.0000000000
11
11.9018379300
21
-2.6544989937
31
0.0000000000
11
11.9173531889
21
-2.6583956512
31
0.0000000000
11
11.9324259641
21
-2.6630007919
31
0.0000000000
11
11.9470562557
21
-2.6683144157
31
0.0000000000
11
11.9749893876
21
-2.6810671130
31
0.0000000000
11
12.0011525848
21
-2.6966537431
31
0.0000000000
11
12.0255458472
21
-2.7150743058
31
0.0000000000
11
12.0370787528
21
-2.7253473120
31
0.0000000000
11
12.0481691748
21
-2.7363288013
31
0.0000000000
11
12.0586986930
21
-2.7479232737
31
0.0000000000
11
12.0685488874
21
-2.7600352289
31
0.0000000000
11
12.0862113051
21
-2.7858115879
31
0.0000000000
11
12.1011564277
21
-2.8136578784
31
0.0000000000
11
12.1133842553
21
-2.8435741003
31
0.0000000000
11
12.1228947879
21
-2.8755602537
31
0.0000000000
11
12.1296880255
21
-2.9096163385
31
0.0000000000
11
12.1320656586
21
-2.9274206052
31
0.0000000000
11
12.1337639680
21
-2.9457423548
31
0.0000000000
11
12.1343583763
21
-2.9550972857
31
0.0000000000
11
12.1347829537
21
-2.9645815873
31
0.0000000000
11
12.1349315557
21
-2.9693722521
31
0.0000000000
11
12.1350377001
21
-2.9741952595
31
0.0000000000
11
12.1351013867
21
-2.9790506097
31
0.0000000000
11
12.1351173083
21
-2.9814904133
31
0.0000000000
11
12.1351212887
21
-2.9827133472
31
0.0000000000
11
12.1351226155
21
-2.9839383026
31
0.0000000000
11
12.1351212288
21
-2.9852266863
31
0.0000000000
11
12.1351170686
21
-2.9865130810
31
0.0000000000
11
12.1351004277
21
-2.9890799031
31
0.0000000000
11
12.1350338642
21
-2.9941896783
31
0.0000000000
11
12.1349229249
21
-2.9992676281
31
0.0000000000
11
12.1347676100
21
-3.0043137524
31
0.0000000000
11
12.1343238531
21
-3.0143105250
31
0.0000000000
11
12.1337025934
21
-3.0241799960
31
0.0000000000
11
12.1319275657
21
-3.0435370332
31
0.0000000000
11
12.1294425269
21
-3.0623848642
31
0.0000000000
11
12.1262474770
21
-3.0807234888
31
0.0000000000
11
12.1223424160
21
-3.0985529071
31
0.0000000000
11
12.1124022609
21
-3.1326841248
31
0.0000000000
11
12.0996220614
21
-3.1647785172
31
0.0000000000
11
12.0840018176
21
-3.1948360844
31
0.0000000000
11
12.0775861668
21
-3.2053103531
31
0.0000000000
0
SPLINE
5
2B1
100
AcDbEntity
8
0
100
AcDbSpline
62
0
6
CONTINUOUS
70
0
71
3
72
115
73
111
74
109
42
0.0000001000
43
0.0000001000
44
0.0000000001
12
0.1545783896
22
-1.5925499546
32
0.0000000000
13
-0.1822275563
23
1.5897420499
33
0.0000000000
40
0.0000000000
40
0.0000000000
40
0.0000000000
40
0.0000000000
40
0.0500741384
40
0.0974087435
40
0.1432410385
40
0.1660384126
40
0.1889733639
40
0.2005484911
40
0.2122213977
40
0.2239617951
40
0.2356513540
40
0.2473040776
40
0.2589422604
40
0.2822589031
40
0.3057847205
40
0.3296928938
40
0.3418448003
40
0.3541533082
40
0.3666373400
40
0.3793150323
40
0.3922037044
40
0.4053198395
40
0.4119683611
40
0.4186795418
40
0.4220592294
40
0.4254552615
40
0.4288678580
40
0.4322972359
40
0.4340182880
40
0.4357436152
40
0.4374732439
40
0.4383396797
40
0.4392072007
40
0.4396413692
40
0.4400758101
40
0.4401844629
40
0.4403136051
40
0.4405786477
40
0.4411084466
40
0.4421669018
40
0.4432238394
40
0.4453331871
40
0.4474365451
40
0.4516254957
40
0.4557911448
40
0.4640542196
40
0.4722295476
40
0.4803209153
40
0.4883322281
40
0.4962675098
40
0.5119255781
40
0.5273306240
40
0.5575184189
40
0.5871471727
40
0.6165418676
40
0.6312606118
40
0.6460455446
40
0.6609376096
40
0.6759768756
40
0.6835645119
40
0.6912034217
40
0.6988982462
40
0.7066535259
40
0.7105552947
40
0.7125124418
40
0.7144738481
40
0.7164395808
40
0.7184097063
40
0.7193964380
40
0.7198902246
40
0.7201307868
40
0.7203327448
40
0.7207365773
40
0.7211402987
40
0.7219474104
40
0.7227540844
40
0.7235603249
40
0.7251715213
40
0.7283888911
40
0.7315998036
40
0.7348045344
40
0.7411964924
40
0.7475670713
40
0.7539185308
40
0.7602531511
40
0.7728805029
40
0.7854682647
40
0.7980351775
40
0.8106000756
40
0.8357944501
40
0.8612055317
40
0.8869789815
40
0.9000476131
40
0.9132585570
40
0.9266280284
40
0.9333773617
40
0.9401721433
40
0.9470142355
40
0.9504536228
40
0.9539055184
40
0.9547704749
40
0.9556362306
40
0.9574417988
40
0.9592553676
40
0.9610644773
40
0.9682569288
40
0.9753808256
40
0.9824384706
40
0.9963639279
40
1.0000000000
40
1.0000000000
40
1.0000000000
40
1.0000000000
10
11.3402686168
20
-3.0816648469
30
0.0000000000
10
11.3428487433
20
-3.1082467025
30
0.0000000000
10
11.3512575607
20
-3.1597304788
30
0.0000000000
10
11.3751477309
20
-3.2326321564
30
0.0000000000
10
11.4042605291
20
-3.2875909840
30
0.0000000000
10
11.4326453122
20
-3.3273927857
30
0.0000000000
10
11.4525166281
20
-3.3506728321
30
0.0000000000
10
11.4696762326
20
-3.3683515819
30
0.0000000000
10
11.4832281429
20
-3.3811884230
30
0.0000000000
10
11.4973430798
20
-3.3934963986
30
0.0000000000
10
11.5119721573
20
-3.4051720199
30
0.0000000000
10
11.5270525171
20
-3.4161667865
30
0.0000000000
10
11.5477669229
20
-3.4299201308
30
0.0000000000
10
11.5748698901
20
-3.4454442768
30
0.0000000000
10
11.6091611275
20
-3.4612988560
30
0.0000000000
10
11.6390713370
20
-3.4721561040
30
0.0000000000
10
11.6638156595
20
-3.4794698712
30
0.0000000000
10
11.6829238098
20
-3.4843013040
30
0.0000000000
10
11.7024782799
20
-3.4884479853
30
0.0000000000
10
11.7224794714
20
-3.4919102835
30
0.0000000000
10
11.7429270386
20
-3.4946882477
30
0.0000000000
10
11.7602594698
20
-3.4964251185
30
0.0000000000
10
11.7743414984
20
-3.4974769991
30
0.0000000000
10
11.7832548609
20
-3.4979937922
30
0.0000000000
10
11.7904405802
20
-3.4983223759
30
0.0000000000
10
11.7958706861
20
-3.4985266874
30
0.0000000000
10
11.8013287372
20
-3.4986882841
30
0.0000000000
10
11.8058947626
20
-3.4987872304
30
0.0000000000
10
11.8095614627
20
-3.4988451087
30
0.0000000000
10
11.8123218721
20
-3.4988778928
30
0.0000000000
10
11.8146265965
20
-3.4988963028
30
0.0000000000
10
11.8164738588
20
-3.4989057017
30
0.0000000000
10
11.8176302121
20
-3.4989093539
30
0.0000000000
10
11.8185561669
20
-3.4989109422
30
0.0000000000
10
11.8190773846
20
-3.4989113350
30
0.0000000000
10
11.8194359181
20
-3.4989113906
30
0.0000000000
10
11.8197041040
20
-3.4989113603
30
0.0000000000
10
11.8201969058
20
-3.4989110741
30
0.0000000000
10
11.8211853510
20
-3.4989095745
30
0.0000000000
10
11.8225961438
20
-3.4989047850
30
0.0000000000
10
11.8248493496
20
-3.4988914776
30
0.0000000000
10
11.8276597685
20
-3.4988642693
30
0.0000000000
10
11.8321402752
20
-3.4987981925
30
0.0000000000
10
11.8377166881
20
-3.4986733855
30
0.0000000000
10
11.8465750289
20
-3.4983837786
30
0.0000000000
10
11.8575521766
20
-3.4978535329
30
0.0000000000
10
11.8706043513
20
-3.4969441216
30
0.0000000000
10
11.8834999811
20
-3.4957633380
30
0.0000000000
10
11.8962391473
20
-3.4943111389
30
0.0000000000
10
11.9129404611
20
-3.4920234094
30
0.0000000000
10
11.9334468674
20
-3.4884911619
30
0.0000000000
10
11.9653487744
20
-3.4814138933
30
0.0000000000
10
12.0038435613
20
-3.4698520279
30
0.0000000000
10
12.0478306964
20
-3.4514932980
30
0.0000000000
10
12.0823818334
20
-3.4325321371
30
0.0000000000
10
12.1086334932
20
-3.4152580856
30
0.0000000000
10
12.1277065036
20
-3.4012072156
30
0.0000000000
10
12.1461491380
20
-3.3860696309
30
0.0000000000
10
12.1609500592
20
-3.3725888408
30
0.0000000000
10
12.1724677210
20
-3.3612771450
30
0.0000000000
10
12.1809753619
20
-3.3524963339
30
0.0000000000
10
12.1893260527
20
-3.3434443014
30
0.0000000000
10
12.1961402356
20
-3.3356908141
30
0.0000000000
10
12.2008360793
20
-3.3301523872
30
0.0000000000
10
12.2035053087
20
-3.3269473839
30
0.0000000000
10
12.2054995863
20
-3.3245241149
30
0.0000000000
10
12.2074840393
20
-3.3220838670
30
0.0000000000
10
12.2091287620
20
-3.3200374321
30
0.0000000000
10
12.2102752575
20
-3.3185977913
30
0.0000000000
10
12.2108458092
20
-3.3178787194
30
0.0000000000
10
12.2111553784
20
-3.3174868734
30
0.0000000000
10
12.2114373577
20
-3.3171343841
30
0.0000000000
10
12.2117726282
20
-3.3167130914
30
0.0000000000
10
12.2123085010
20
-3.3160389547
30
0.0000000000
10
12.2129764853
20
-3.3151953711
30
0.0000000000
10
12.2137754768
20
-3.3141816930
30
0.0000000000
10
12.2148368204
20
-3.3128287514
30
0.0000000000
10
12.2166835942
20
-3.3104578276
30
0.0000000000
10
12.2192950909
20
-3.3070569465
30
0.0000000000
10
12.2223863981
20
-3.3029531998
30
0.0000000000
10
12.2264456016
20
-3.2974591383
30
0.0000000000
10
12.2314103053
20
-3.2905392950
30
0.0000000000
10
12.2371968148
20
-3.2821456715
30
0.0000000000
10
12.2428068534
20
-3.2736696606
30
0.0000000000
10
12.2500434399
20
-3.2622713775
30
0.0000000000
10
12.2586545004
20
-3.2478095099
30
0.0000000000
10
12.2682918865
20
-3.2301071946
30
0.0000000000
10
12.2772226029
20
-3.2120746949
30
0.0000000000
10
12.2881964579
20
-3.1875732565
30
0.0000000000
10
12.3001697337
20
-3.1560416659
30
0.0000000000
10
12.3116800094
20
-3.1169263962
30
0.0000000000
10
12.3188721117
20
-3.0833859029
30
0.0000000000
10
12.3232184514
20
-3.0559612774
30
0.0000000000
10
12.3257871387
20
-3.0349667230
30
0.0000000000
10
12.3273337839
20
-3.0172541738
30
0.0000000000
10
12.3282209399
20
-3.0029268432
30
0.0000000000
10
12.3287119525
20
-2.9920645469
30
0.0000000000
10
12.3289735793
20
-2.9829603352
30
0.0000000000
10
12.3290950973
20
-2.9756366569
30
0.0000000000
10
12.3291304401
20
-2.9715000053
30
0.0000000000
10
12.3291402681
20
-2.9687359052
30
0.0000000000
10
12.3291432243
20
-2.9668498495
30
0.0000000000
10
12.3291395543
20
-2.9644578508
30
0.0000000000
10
12.3291225837
20
-2.9615627631
30
0.0000000000
10
12.3290637338
20
-2.9557948622
30
0.0000000000
10
12.3288824295
20
-2.9471958472
30
0.0000000000
10
12.3284391735
20
-2.9358041323
30
0.0000000000
10
12.3275845161
20
-2.9208371118
30
0.0000000000
10
12.3264740941
20
-2.9077503349
30
0.0000000000
10
12.3254549362
20
-2.8984387559
30
0.0000000000
10
12.3252340720
20
-2.8965119503
30
0.0000000000
11
11.3402686168
21
-3.0816648469
31
0.0000000000
11
11.3535651357
21
-3.1606741601
31
0.0000000000
11
11.3774248156
21
-3.2325546720
31
0.0000000000
11
11.4118476913
21
-3.2973067427
31
0.0000000000
11
11.4330203276
21
-3.3270096127
31
0.0000000000
11
11.4568337628
21
-3.3549303723
31
0.0000000000
11
11.4697307800
21
-3.3682224607
31
0.0000000000
11
11.4832879969
21
-3.3810690216
31
0.0000000000
11
11.4974510981
21
-3.3934093725
31
0.0000000000
11
11.5120701724
21
-3.4050760301
31
0.0000000000
11
11.5271365294
21
-3.4160592851
31
0.0000000000
11
11.5426501691
21
-3.4263591376
31
0.0000000000
11
11.5750192966
21
-3.4449086350
31
0.0000000000
11
11.6091775550
21
-3.4607245222
31
0.0000000000
11
11.6451249441
21
-3.4738067993
31
0.0000000000
11
11.6637695627
21
-3.4793228341
31
0.0000000000
11
11.6828614640
21
-3.4841554663
31
0.0000000000
11
11.7024006480
21
-3.4883046960
31
0.0000000000
11
11.7223871147
21
-3.4917705231
31
0.0000000000
11
11.7428208642
21
-3.4945529477
31
0.0000000000
11
11.7637018963
21
-3.4966519698
31
0.0000000000
11
11.7743101433
21
-3.4974452049
31
0.0000000000
11
11.7850302111
21
-3.4980675893
31
0.0000000000
11
11.7904321777
21
-3.4983147126
31
0.0000000000
11
11.7958620995
21
-3.4985191232
31
0.0000000000
11
11.8013199765
21
-3.4986808211
31
0.0000000000
11
11.8068058086
21
-3.4987998063
31
0.0000000000
11
11.8095592078
21
-3.4988432817
31
0.0000000000
11
11.8123195959
21
-3.4988760789
31
0.0000000000
11
11.8150869727
21
-3.4988981980
31
0.0000000000
11
11.8164732819
21
-3.4989052532
31
0.0000000000
11
11.8178613384
21
-3.4989096389
31
0.0000000000
11
11.8185560218
21
-3.4989108307
31
0.0000000000
11
11.8192511420
21
-3.4989113550
31
0.0000000000
11
11.8194249903
21
-3.4989113818
31
0.0000000000
11
11.8196316222
21
-3.4989113579
31
0.0000000000
11
11.8200556994
21
-3.4989111120
31
0.0000000000
11
11.8209033948
21
-3.4989098253
31
0.0000000000
11
11.8225969497
21
-3.4989040730
31
0.0000000000
11
11.8242880568
21
-3.4988940822
31
0.0000000000
11
11.8276629271
21
-3.4988613851
31
0.0000000000
11
11.8310280058
21
-3.4988117339
31
0.0000000000
11
11.8377287884
21
-3.4986615693
31
0.0000000000
11
11.8443904045
21
-3.4984435885
31
0.0000000000
11
11.8575961373
21
-3.4978041781
31
0.0000000000
11
11.8706452042
21
-3.4968935027
31
0.0000000000
11
11.8835376053
21
-3.4957115623
31
0.0000000000
11
11.8962733404
21
-3.4942583569
31
0.0000000000
11
11.9088524097
21
-3.4925338865
31
0.0000000000
11
11.9335405505
21
-3.4882711506
31
0.0000000000
11
11.9576020278
21
-3.4829233546
31
0.0000000000
11
12.0038449918
21
-3.4689725826
31
0.0000000000
11
12.0475813016
21
-3.4506815704
31
0.0000000000
11
12.0888109572
21
-3.4280503180
31
0.0000000000
11
12.1084857896
21
-3.4151071017
31
0.0000000000
11
12.1275339586
21
-3.4010788254
31
0.0000000000
11
12.1459554640
21
-3.3859654891
31
0.0000000000
11
12.1637503058
21
-3.3697670927
31
0.0000000000
11
12.1724127279
21
-3.3612609969
31
0.0000000000
11
12.1809184841
21
-3.3524836362
31
0.0000000000
11
12.1892675744
21
-3.3434350105
31
0.0000000000
11
12.1974599988
21
-3.3341151197
31
0.0000000000
11
12.2014974613
21
-3.3293534499
31
0.0000000000
11
12.2035015052
21
-3.3269471840
31
0.0000000000
11
12.2054957574
21
-3.3245239639
31
0.0000000000
11
12.2074802180
21
-3.3220837898
31
0.0000000000
11
12.2094548869
21
-3.3196266617
31
0.0000000000
11
12.2104385496
21
-3.3183917398
31
0.0000000000
11
12.2109294629
21
-3.3177726894
31
0.0000000000
11
12.2111684744
21
-3.3174709818
31
0.0000000000
11
12.2113700280
21
-3.3172184041
31
0.0000000000
11
12.2117726180
21
-3.3167130076
31
0.0000000000
11
12.2121745188
21
-3.3162072897
31
0.0000000000
11
12.2129762525
21
-3.3151948897
31
0.0000000000
11
12.2137752291
21
-3.3141812041
31
0.0000000000
11
12.2145714486
21
-3.3131662328
31
0.0000000000
11
12.2161556161
21
-3.3111324333
31
0.0000000000
11
12.2192908657
21
-3.3070494065
31
0.0000000000
11
12.2223820012
21
-3.3029458094
31
0.0000000000
11
12.2254290226
21
-3.2988216419
31
0.0000000000
11
12.2313907232
21
-3.2905115961
31
0.0000000000
11
12.2371759676
21
-3.2821192690
31
0.0000000000
11
12.2427847557
21
-3.2736446606
31
0.0000000000
11
12.2482170876
21
-3.2650877709
31
0.0000000000
11
12.2585523825
21
-3.2477271476
31
0.0000000000
11
12.2681818525
21
-3.2300373992
31
0.0000000000
11
12.2771054974
21
-3.2120185257
31
0.0000000000
11
12.2853233173
21
-3.1936705270
31
0.0000000000
11
12.2996414820
21
-3.1559871541
31
0.0000000000
11
12.3111363467
21
-3.1169872807
31
0.0000000000
11
12.3198079112
21
-3.0766709067
31
0.0000000000
11
12.3230849560
21
-3.0560190320
31
0.0000000000
11
12.3256561757
21
-3.0350380321
31
0.0000000000
11
12.3275215704
21
-3.0137279070
31
0.0000000000
11
12.3281895834
21
-3.0029494226
31
0.0000000000
11
12.3286811401
21
-2.9920886569
31
0.0000000000
11
12.3289962405
21
-2.9811456099
31
0.0000000000
11
12.3290876197
21
-2.9756432309
31
0.0000000000
11
12.3291348847
21
-2.9701202815
31
0.0000000000
11
12.3291398082
21
-2.9687363301
31
0.0000000000
11
12.3291419745
21
-2.9673510930
31
0.0000000000
11
12.3291374818
21
-2.9644621253
31
0.0000000000
11
12.3291204679
21
-2.9615604029
31
0.0000000000
11
12.3290909174
21
-2.9586659161
31
0.0000000000
11
12.3288473499
21
-2.9471603243
31
0.0000000000
11
12.3284031975
21
-2.9357705014
31
0.0000000000
11
12.3277584602
21
-2.9244964475
31
0.0000000000
11
12.3258672306
21
-2.9022956463
31
0.0000000000
11
12.3252340720
21
-2.8965119503
31
0.0000000000
0
SPLINE
5
2B2
100
AcDbEntity
8
0
100
AcDbSpline
62
0
6
CONTINUOUS
70
0
71
3
72
21
73
17
74
15
42
0.0000001000
43
0.0000001000
44
0.0000000001
12
-0.2581997771
22
-0.5213134852
32
0.0000000000
13
-0.5265109458
23
-0.2474289706
33
0.0000000000
40
0.0000000000
40
0.0000000000
40
0.0000000000
40
0.0000000000
40
0.0718610422
40
0.1486219788
40
0.2308036103
40
0.3188308899
40
0.3651520061
40
0.4130584920
40
0.4376173100
40
0.4625080421
40
0.5125365139
40
0.5628804960
40
0.6135818696
40
0.7162099619
40
0.8560570472
40
1.0000000000
40
1.0000000000
40
1.0000000000
40
1.0000000000
10
9.5905076090
20
-1.9738768116
30
0.0000000000
10
9.5843227740
20
-1.9863641883
30
0.0000000000
10
9.5701952128
20
-2.0115426756
30
0.0000000000
10
9.5449296928
20
-2.0485423670
30
0.0000000000
10
9.5149493399
20
-2.0859420852
30
0.0000000000
10
9.4865410264
20
-2.1169007112
30
0.0000000000
10
9.4615478509
20
-2.1418937739
30
0.0000000000
10
9.4448189300
20
-2.1577331655
30
0.0000000000
10
9.4308662522
20
-2.1704513663
30
0.0000000000
10
9.4164487405
20
-2.1832685294
30
0.0000000000
10
9.3979339615
20
-2.1989983133
30
0.0000000000
10
9.3750657010
20
-2.2173156465
30
0.0000000000
10
9.3435403230
20
-2.2411155652
30
0.0000000000
10
9.2967262446
20
-2.2734281838
30
0.0000000000
10
9.2324104626
20
-2.3120005342
30
0.0000000000
10
9.1833336686
20
-2.3370047182
30
0.0000000000
10
9.1580711552
20
-2.3488766038
30
0.0000000000
11
9.5905076090
21
-1.9738768116
31
0.0000000000
11
9.5701602724
21
-2.0103962141
31
0.0000000000
11
9.5450809998
21
-2.0473444218
31
0.0000000000
11
9.5152698903
21
-2.0847212347
31
0.0000000000
11
9.4807269438
21
-2.1225266529
31
0.0000000000
11
9.4616810317
21
-2.1415900890
31
0.0000000000
11
9.4414521604
21
-2.1607606763
31
0.0000000000
11
9.4308941150
21
-2.1703861518
31
0.0000000000
11
9.4200682158
21
-2.1800026343
31
0.0000000000
11
9.3978917157
21
-2.1988508142
31
0.0000000000
11
9.3750342040
21
-2.2171620931
31
0.0000000000
11
9.3514956807
21
-2.2349364710
31
0.0000000000
11
9.3023755992
21
-2.2688745242
31
0.0000000000
11
9.2326447518
21
-2.3107845451
31
0.0000000000
11
9.1580711552
21
-2.3488766038
31
0.0000000000
0
SPLINE
5
2B3
100
AcDbEntity
8
0
100
AcDbSpline
62
0
6
CONTINUOUS
70
0
71
3
72
23
73
19
74
17
42
0.0000001000
43
0.0000001000
44
0.0000000001
12
0.4043100911
22
0.1490778252
32
0.0000000000
13
0.3119786391
23
0.2972543943
33
0.0000000000
40
0.0000000000
40
0.0000000000
40
0.0000000000
40
0.0000000000
40
0.0820461119
40
0.1693809725
40
0.2621276467
40
0.3603888679
40
0.4116161596
40
0.4377580691
40
0.4642535597
40
0.4911037042
40
0.5181497154
40
0.5712367048
40
0.6228897412
40
0.6731243975
40
0.7219576033
40
0.7694077886
40
0.8893228344
40
1.0000000000
40
1.0000000000
40
1.0000000000
40
1.0000000000
10
9.1580711552
20
-2.5261736304
30
0.0000000000
10
9.1691285122
20
-2.5220965451
30
0.0000000000
10
9.1917621033
20
-2.5131474404
30
0.0000000000
10
9.2262067176
20
-2.4979211019
30
0.0000000000
10
9.2621906056
20
-2.4804788705
30
0.0000000000
10
9.2930164273
20
-2.4643295949
30
0.0000000000
10
9.3151170930
20
-2.4521633825
30
0.0000000000
10
9.3281151727
20
-2.4448400026
30
0.0000000000
10
9.3380262321
20
-2.4391713868
30
0.0000000000
10
9.3480139233
20
-2.4333756483
30
0.0000000000
10
9.3612575986
20
-2.4255812158
30
0.0000000000
10
9.3774543343
20
-2.4157815014
30
0.0000000000
10
9.3963049716
20
-2.4039395619
30
0.0000000000
10
9.4144297147
20
-2.3920970681
30
0.0000000000
10
9.4318292379
20
-2.3802546062
30
0.0000000000
10
9.4571483761
20
-2.3622709052
30
0.0000000000
10
9.4888334921
20
-2.3379189958
30
0.0000000000
10
9.5137385031
20
-2.3160318457
30
0.0000000000
10
9.5252481403
20
-2.3050654211
30
0.0000000000
11
9.1580711552
21
-2.5261736304
31
0.0000000000
11
9.1909671103
21
-2.5132180890
31
0.0000000000
11
9.2254055825
21
-2.4980415976
31
0.0000000000
11
9.2613865720
21
-2.4806441563
31
0.0000000000
11
9.2989100786
21
-2.4610257650
31
0.0000000000
11
9.3182502759
21
-2.4503837131
31
0.0000000000
11
9.3280649855
21
-2.4448544731
31
0.0000000000
11
9.3379761024
21
-2.4391864238
31
0.0000000000
11
9.3479836267
21
-2.4333795650
31
0.0000000000
11
9.3580258015
21
-2.4274647435
31
0.0000000000
11
9.3775965358
21
-2.4156196775
31
0.0000000000
11
9.3964412784
21
-2.4037746121
31
0.0000000000
11
9.4145600293
21
-2.3919295472
31
0.0000000000
11
9.4319527885
21
-2.3800844829
31
0.0000000000
11
9.4486195560
21
-2.3682394192
31
0.0000000000
11
9.4895149765
21
-2.3366525853
31
0.0000000000
11
9.5252481403
21
-2.3050654211
31
0.0000000000
0
SPLINE
5
2B4
100
AcDbEntity
8
0
100
AcDbSpline
62
0
6
CONTINUOUS
70
0
71
3
72
25
73
21
74
19
42
0.0000001000
43
0.0000001000
44
0.0000000001
12
0.0000000000
22
-1.2560642624
32
0.0000000000
13
1.2560642624
23
0.0000000000
33
0.0000000000
40
0.0000000000
40
0.0000000000
40
0.0000000000
40
0.0000000000
40
0.0554624562
40
0.1111117095
40
0.1667092040
40
0.2221289211
40
0.2777196322
40
0.3333873424
40
0.3889186099
40
0.4443564347
40
0.4999973651
40
0.5556373916
40
0.6110746179
40
0.6666070807
40
0.7222752633
40
0.7778647827
40
0.8332842708
40
0.8888844416
40
0.9445354399
40
1.0000000000
40
1.0000000000
40
1.0000000000
40
1.0000000000
10
-22.1919288448
20
-21.0489216502
30
0.0000000000
10
-22.1919288448
20
-21.0721431199
30
0.0000000000
10
-22.1899010563
20
-21.1186896699
30
0.0000000000
10
-22.1807860288
20
-21.1879765155
30
0.0000000000
10
-22.1656639814
20
-21.2561916467
30
0.0000000000
10
-22.1446671101
20
-21.3228053801
30
0.0000000000
10
-22.1179379244
20
-21.3873659524
30
0.0000000000
10
-22.0856544060
20
-21.4493889447
30
0.0000000000
10
-22.0481181372
20
-21.5083048623
30
0.0000000000
10
-22.0056024265
20
-21.5637201222
30
0.0000000000
10
-21.9583880182
20
-21.6152537537
30
0.0000000000
10
-21.9068549988
20
-21.6624684537
30
0.0000000000
10
-21.8514402755
20
-21.7049846487
30
0.0000000000
10
-21.7925243405
20
-21.7425217326
30
0.0000000000
10
-21.7305014408
20
-21.7748058645
30
0.0000000000
10
-21.6659414792
20
-21.8015354748
30
0.0000000000
10
-21.5993274566
20
-21.8225331754
30
0.0000000000
10
-21.5311107234
20
-21.8376561614
30
0.0000000000
10
-21.4618212038
20
-21.8467718704
30
0.0000000000
10
-21.4152730393
20
-21.8487998063
30
0.0000000000
10
-21.3920506887
20
-21.8487998063
30
0.0000000000
11
-22.1919288448
21
-21.0489216502
31
0.0000000000
11
-22.1888960200
21
-21.1185200113
31
0.0000000000
11
-22.1797794822
21
-21.1878219904
31
0.0000000000
11
-22.1646651719
21
-21.2560007906
31
0.0000000000
11
-22.1437386123
21
-21.3223915451
31
0.0000000000
11
-22.1170282673
21
-21.3869063395
31
0.0000000000
11
-22.0847445879
21
-21.4489295697
31
0.0000000000
11
-22.0472655574
21
-21.5077556016
31
0.0000000000
11
-22.0048790770
21
-21.5630023797
31
0.0000000000
11
-21.9576670762
21
-21.6145333528
31
0.0000000000
11
-21.9061373650
21
-21.6617450501
31
0.0000000000
11
-21.8508916145
21
-21.7041316351
31
0.0000000000
11
-21.7920646802
21
-21.7416120433
31
0.0000000000
11
-21.7300411947
21
-21.7738965174
31
0.0000000000
11
-21.6655280227
21
-21.8006068679
31
0.0000000000
11
-21.5991377534
21
-21.8215340099
31
0.0000000000
11
-21.5309557945
21
-21.8366496036
31
0.0000000000
11
-21.4616516850
21
-21.8457667514
31
0.0000000000
11
-21.3920506887
21
-21.8487998063
31
0.0000000000
0
SPLINE
5
2B5
100
AcDbEntity
8
0
100
AcDbSpline
62
0
6
CONTINUOUS
70
0
71
3
72
25
73
21
74
19
42
0.0000001000
43
0.0000001000
44
0.0000000001
12
-1.2560642624
22
0.0000000000
32
0.0000000000
13
0.0000000000
23
-1.2560642624
33
0.0000000000
40
0.0000000000
40
0.0000000000
40
0.0000000000
40
0.0000000000
40
0.0554645601
40
0.1111155584
40
0.1667157292
40
0.2221352173
40
0.2777247367
40
0.3333929193
40
0.3889253821
40
0.4443626084
40
0.5000026349
40
0.5556435653
40
0.6110813901
40
0.6666126576
40
0.7222803678
40
0.7778710789
40
0.8332907960
40
0.8888882905
40
0.9445375438
40
1.0000000000
40
1.0000000000
40
1.0000000000
40
1.0000000000
10
-21.3920506887
20
21.8512001937
30
0.0000000000
10
-21.4152730393
20
21.8512001937
30
0.0000000000
10
-21.4618212038
20
21.8491722577
30
0.0000000000
10
-21.5311107234
20
21.8400565487
30
0.0000000000
10
-21.5993274566
20
21.8249335627
30
0.0000000000
10
-21.6659414792
20
21.8039358621
30
0.0000000000
10
-21.7305014408
20
21.7772062518
30
0.0000000000
10
-21.7925243405
20
21.7449221199
30
0.0000000000
10
-21.8514402755
20
21.7073850360
30
0.0000000000
10
-21.9068549988
20
21.6648688410
30
0.0000000000
10
-21.9583880182
20
21.6176541410
30
0.0000000000
10
-22.0056024265
20
21.5661205095
30
0.0000000000
10
-22.0481181372
20
21.5107052496
30
0.0000000000
10
-22.0856544060
20
21.4517893320
30
0.0000000000
10
-22.1179379244
20
21.3897663397
30
0.0000000000
10
-22.1446671101
20
21.3252057674
30
0.0000000000
10
-22.1656639814
20
21.2585920340
30
0.0000000000
10
-22.1807860288
20
21.1903769028
30
0.0000000000
10
-22.1899010563
20
21.1210900572
30
0.0000000000
10
-22.1919288448
20
21.0745435072
30
0.0000000000
10
-22.1919288448
20
21.0513220375
30
0.0000000000
11
-21.3920506887
21
21.8512001937
31
0.0000000000
11
-21.4616516850
21
21.8481671387
31
0.0000000000
11
-21.5309557945
21
21.8390499909
31
0.0000000000
11
-21.5991377534
21
21.8239343972
31
0.0000000000
11
-21.6655280227
21
21.8030072552
31
0.0000000000
11
-21.7300411947
21
21.7762969047
31
0.0000000000
11
-21.7920646802
21
21.7440124306
31
0.0000000000
11
-21.8508916145
21
21.7065320224
31
0.0000000000
11
-21.9061373650
21
21.6641454375
31
0.0000000000
11
-21.9576670762
21
21.6169337401
31
0.0000000000
11
-22.0048790770
21
21.5654027671
31
0.0000000000
11
-22.0472655574
21
21.5101559889
31
0.0000000000
11
-22.0847445879
21
21.4513299570
31
0.0000000000
11
-22.1170282673
21
21.3893067268
31
0.0000000000
11
-22.1437386123
21
21.3247919324
31
0.0000000000
11
-22.1646651719
21
21.2584011779
31
0.0000000000
11
-22.1797794822
21
21.1902223777
31
0.0000000000
11
-22.1888960200
21
21.1209203986
31
0.0000000000
11
-22.1919288448
21
21.0513220375
31
0.0000000000
0
SPLINE
5
2B6
100
AcDbEntity
8
0
100
AcDbSpline
62
0
6
CONTINUOUS
70
0
71
3
72
25
73
21
74
19
42
0.0000001000
43
0.0000001000
44
0.0000000001
12
0.0000000000
22
1.2560642624
32
0.0000000000
13
-1.2560642624
23
0.0000000000
33
0.0000000000
40
0.0000000000
40
0.0000000000
40
0.0000000000
40
0.0000000000
40
0.0554624562
40
0.1111117095
40
0.1667092040
40
0.2221289211
40
0.2777196322
40
0.3333873424
40
0.3889186099
40
0.4443564347
40
0.4999973651
40
0.5556373916
40
0.6110746179
40
0.6666070807
40
0.7222752633
40
0.7778647827
40
0.8332842708
40
0.8888844416
40
0.9445354399
40
1.0000000000
40
1.0000000000
40
1.0000000000
40
1.0000000000
10
22.1080711552
20
21.0513220375
30
0.0000000000
10
22.1080711552
20
21.0745435072
30
0.0000000000
10
22.1060433667
20
21.1210900572
30
0.0000000000
10
22.0969283391
20
21.1903769028
30
0.0000000000
10
22.0818062918
20
21.2585920340
30
0.0000000000
10
22.0608094204
20
21.3252057674
30
0.0000000000
10
22.0340802348
20
21.3897663397
30
0.0000000000
10
22.0017967164
20
21.4517893320
30
0.0000000000
10
21.9642604476
20
21.5107052496
30
0.0000000000
10
21.9217447368
20
21.5661205095
30
0.0000000000
10
21.8745303285
20
21.6176541410
30
0.0000000000
10
21.8229973091
20
21.6648688410
30
0.0000000000
10
21.7675825859
20
21.7073850360
30
0.0000000000
10
21.7086666509
20
21.7449221199
30
0.0000000000
10
21.6466437511
20
21.7772062518
30
0.0000000000
10
21.5820837895
20
21.8039358621
30
0.0000000000
10
21.5154697670
20
21.8249335627
30
0.0000000000
10
21.4472530338
20
21.8400565487
30
0.0000000000
10
21.3779635141
20
21.8491722577
30
0.0000000000
10
21.3314153496
20
21.8512001937
30
0.0000000000
10
21.3081929991
20
21.8512001937
30
0.0000000000
11
22.1080711552
21
21.0513220375
31
0.0000000000
11
22.1050383303
21
21.1209203986
31
0.0000000000
11
22.0959217925
21
21.1902223777
31
0.0000000000
11
22.0808074823
21
21.2584011779
31
0.0000000000
11
22.0598809227
21
21.3247919324
31
0.0000000000
11
22.0331705777
21
21.3893067268
31
0.0000000000
11
22.0008868983
21
21.4513299570
31
0.0000000000
11
21.9634078678
21
21.5101559889
31
0.0000000000
11
21.9210213874
21
21.5654027671
31
0.0000000000
11
21.8738093865
21
21.6169337401
31
0.0000000000
11
21.8222796753
21
21.6641454375
31
0.0000000000
11
21.7670339249
21
21.7065320224
31
0.0000000000
11
21.7082069906
21
21.7440124306
31
0.0000000000
11
21.6461835051
21
21.7762969047
31
0.0000000000
11
21.5816703330
21
21.8030072552
31
0.0000000000
11
21.5152800637
21
21.8239343972
31
0.0000000000
11
21.4470981048
21
21.8390499909
31
0.0000000000
11
21.3777939953
21
21.8481671387
31
0.0000000000
11
21.3081929991
21
21.8512001937
31
0.0000000000
0
SPLINE
5
2B7
100
AcDbEntity
8
0
100
AcDbSpline
62
0
6
CONTINUOUS
70
0
71
3
72
25
73
21
74
19
42
0.0000001000
43
0.0000001000
44
0.0000000001
12
1.2560642624
22
0.0000000000
32
0.0000000000
13
0.0000000000
23
1.2560642624
33
0.0000000000
40
0.0000000000
40
0.0000000000
40
0.0000000000
40
0.0000000000
40
0.0554645601
40
0.1111155584
40
0.1667157292
40
0.2221352173
40
0.2777247367
40
0.3333929193
40
0.3889253821
40
0.4443626084
40
0.5000026349
40
0.5556435653
40
0.6110813901
40
0.6666126576
40
0.7222803678
40
0.7778710789
40
0.8332907960
40
0.8888882905
40
0.9445375438
40
1.0000000000
40
1.0000000000
40
1.0000000000
40
1.0000000000
10
21.3081929991
20
-21.8487998063
30
0.0000000000
10
21.3314153496
20
-21.8487998063
30
0.0000000000
10
21.3779635141
20
-21.8467718704
30
0.0000000000
10
21.4472530338
20
-21.8376561614
30
0.0000000000
10
21.5154697670
20
-21.8225331754
30
0.0000000000
10
21.5820837895
20
-21.8015354748
30
0.0000000000
10
21.6466437511
20
-21.7748058645
30
0.0000000000
10
21.7086666509
20
-21.7425217326
30
0.0000000000
10
21.7675825859
20
-21.7049846487
30
0.0000000000
10
21.8229973091
20
-21.6624684537
30
0.0000000000
10
21.8745303285
20
-21.6152537537
30
0.0000000000
10
21.9217447368
20
-21.5637201222
30
0.0000000000
10
21.9642604476
20
-21.5083048623
30
0.0000000000
10
22.0017967164
20
-21.4493889447
30
0.0000000000
10
22.0340802348
20
-21.3873659524
30
0.0000000000
10
22.0608094204
20
-21.3228053801
30
0.0000000000
10
22.0818062918
20
-21.2561916467
30
0.0000000000
10
22.0969283391
20
-21.1879765155
30
0.0000000000
10
22.1060433667
20
-21.1186896699
30
0.0000000000
10
22.1080711552
20
-21.0721431199
30
0.0000000000
10
22.1080711552
20
-21.0489216502
30
0.0000000000
11
21.3081929991
21
-21.8487998063
31
0.0000000000
11
21.3777939953
21
-21.8457667514
31
0.0000000000
11
21.4470981048
21
-21.8366496036
31
0.0000000000
11
21.5152800637
21
-21.8215340099
31
0.0000000000
11
21.5816703330
21
-21.8006068679
31
0.0000000000
11
21.6461835051
21
-21.7738965174
31
0.0000000000
11
21.7082069906
21
-21.7416120433
31
0.0000000000
11
21.7670339249
21
-21.7041316351
31
0.0000000000
11
21.8222796753
21
-21.6617450501
31
0.0000000000
11
21.8738093865
21
-21.6145333528
31
0.0000000000
11
21.9210213874
21
-21.5630023797
31
0.0000000000
11
21.9634078678
21
-21.5077556016
31
0.0000000000
11
22.0008868983
21
-21.4489295697
31
0.0000000000
11
22.0331705777
21
-21.3869063395
31
0.0000000000
11
22.0598809227
21
-21.3223915451
31
0.0000000000
11
22.0808074823
21
-21.2560007906
31
0.0000000000
11
22.0959217925
21
-21.1878219904
31
0.0000000000
11
22.1050383303
21
-21.1185200113
31
0.0000000000
11
22.1080711552
21
-21.0489216502
31
0.0000000000
0
SPLINE
5
2B8
100
AcDbEntity
8
0
100
AcDbSpline
62
0
6
CONTINUOUS
70
0
71
3
72
20
73
16
74
14
42
0.0000001000
43
0.0000001000
44
0.0000000001
12
0.0000000000
22
0.3139920960
32
0.0000000000
13
-0.3139920960
23
0.0000000000
33
0.0000000000
40
0.0000000000
40
0.0000000000
40
0.0000000000
40
0.0000000000
40
0.0766504224
40
0.1536963511
40
0.2305554201
40
0.3072891693
40
0.3845008867
40
0.4616025336
40
0.5382643253
40
0.6153820569
40
0.6926037974
40
0.7693442684
40
0.8462373573
40
0.9233230606
40
1.0000000000
40
1.0000000000
40
1.0000000000
40
1.0000000000
10
22.1080711552
20
-0.3487998063
30
0.0000000000
10
22.1080711552
20
-0.3407772641
30
0.0000000000
10
22.1071007685
20
-0.3246740276
30
0.0000000000
10
22.1027473527
20
-0.3008819139
30
0.0000000000
10
22.0955533586
20
-0.2777769348
30
0.0000000000
10
22.0856238532
20
-0.2556911126
30
0.0000000000
10
22.0730890185
20
-0.2349415806
30
0.0000000000
10
22.0581420497
20
-0.2158660773
30
0.0000000000
10
22.0410133918
20
-0.1987377790
30
0.0000000000
10
22.0219353177
20
-0.1837896273
30
0.0000000000
10
22.0011824975
20
-0.1712535936
30
0.0000000000
10
21.9790917519
20
-0.1613221212
30
0.0000000000
10
21.9559786990
20
-0.1541256073
30
0.0000000000
10
21.9321761841
20
-0.1497705007
30
0.0000000000
10
21.9160660072
20
-0.1487998063
30
0.0000000000
10
21.9080406896
20
-0.1487998063
30
0.0000000000
11
22.1080711552
21
-0.3487998063
31
0.0000000000
11
22.1066228095
21
-0.3247757985
31
0.0000000000
11
22.1022690573
21
-0.3009789785
31
0.0000000000
11
22.0950944703
21
-0.2779369787
31
0.0000000000
11
22.0852148550
21
-0.2559619030
31
0.0000000000
11
22.0726789353
21
-0.2352106163
31
0.0000000000
11
22.0577472428
21
-0.2161545112
31
0.0000000000
11
22.0407261764
21
-0.1991337649
31
0.0000000000
11
22.0216657251
21
-0.1841994306
31
0.0000000000
11
22.0009114215
21
-0.1716624184
31
0.0000000000
11
21.9789343453
21
-0.1617821056
31
0.0000000000
11
21.9558821570
21
-0.1546043091
31
0.0000000000
11
21.9320730180
21
-0.1502484953
31
0.0000000000
11
21.9080406896
21
-0.1487998063
31
0.0000000000
0
SPLINE
5
2B9
100
AcDbEntity
8
0
100
AcDbSpline
62
0
6
CONTINUOUS
70
0
71
3
72
20
73
16
74
14
42
0.0000001000
43
0.0000001000
44
0.0000000001
12
0.3139920960
22
0.0000000000
32
0.0000000000
13
0.0000000000
23
0.3139920960
33
0.0000000000
40
0.0000000000
40
0.0000000000
40
0.0000000000
40
0.0000000000
40
0.0766769394
40
0.1537626427
40
0.2306557316
40
0.3073962026
40
0.3846179431
40
0.4617356747
40
0.5383974664
40
0.6154991133
40
0.6927108307
40
0.7694445799
40
0.8463036489
40
0.9233495776
40
1.0000000000
40
1.0000000000
40
1.0000000000
40
1.0000000000
10
21.9080406896
20
0.1512001937
30
0.0000000000
10
21.9160660072
20
0.1512001937
30
0.0000000000
10
21.9321761841
20
0.1521708880
30
0.0000000000
10
21.9559786990
20
0.1565259946
30
0.0000000000
10
21.9790917519
20
0.1637225085
30
0.0000000000
10
22.0011824975
20
0.1736539809
30
0.0000000000
10
22.0219353177
20
0.1861900146
30
0.0000000000
10
22.0410133918
20
0.2011381663
30
0.0000000000
10
22.0581420497
20
0.2182664646
30
0.0000000000
10
22.0730890185
20
0.2373419679
30
0.0000000000
10
22.0856238532
20
0.2580914999
30
0.0000000000
10
22.0955533586
20
0.2801773221
30
0.0000000000
10
22.1027473527
20
0.3032823012
30
0.0000000000
10
22.1071007685
20
0.3270744149
30
0.0000000000
10
22.1080711552
20
0.3431776514
30
0.0000000000
10
22.1080711552
20
0.3512001937
30
0.0000000000
11
21.9080406896
21
0.1512001937
31
0.0000000000
11
21.9320730180
21
0.1526488826
31
0.0000000000
11
21.9558821570
21
0.1570046964
31
0.0000000000
11
21.9789343453
21
0.1641824929
31
0.0000000000
11
22.0009114215
21
0.1740628057
31
0.0000000000
11
22.0216657251
21
0.1865998179
31
0.0000000000
11
22.0407261764
21
0.2015341522
31
0.0000000000
11
22.0577472428
21
0.2185548985
31
0.0000000000
11
22.0726789353
21
0.2376110036
31
0.0000000000
11
22.0852148550
21
0.2583622903
31
0.0000000000
11
22.0950944703
21
0.2803373660
31
0.0000000000
11
22.1022690573
21
0.3033793658
31
0.0000000000
11
22.1066228095
21
0.3271761858
31
0.0000000000
11
22.1080711552
21
0.3512001937
31
0.0000000000
0
SPLINE
5
2BA
100
AcDbEntity
8
0
100
AcDbSpline
62
0
6
CONTINUOUS
70
0
71
3
72
20
73
16
74
14
42
0.0000001000
43
0.0000001000
44
0.0000000001
12
0.0000000000
22
-0.3139920960
32
0.0000000000
13
0.3139920960
23
-0.0000000000
33
0.0000000000
40
0.0000000000
40
0.0000000000
40
0.0000000000
40
0.0000000000
40
0.0766504224
40
0.1536963511
40
0.2305554201
40
0.3072891693
40
0.3845008867
40
0.4616025336
40
0.5382643253
40
0.6153820569
40
0.6926037974
40
0.7693442684
40
0.8462373573
40
0.9233230606
40
1.0000000000
40
1.0000000000
40
1.0000000000
40
1.0000000000
10
-22.1919288448
20
0.3512001937
30
0.0000000000
10
-22.1919288448
20
0.3431776514
30
0.0000000000
10
-22.1909584582
20
0.3270744149
30
0.0000000000
10
-22.1866050423
20
0.3032823012
30
0.0000000000
10
-22.1794110482
20
0.2801773221
30
0.0000000000
10
-22.1694815428
20
0.2580914999
30
0.0000000000
10
-22.1569467081
20
0.2373419679
30
0.0000000000
10
-22.1419997393
20
0.2182664646
30
0.0000000000
10
-22.1248710814
20
0.2011381663
30
0.0000000000
10
-22.1057930074
20
0.1861900146
30
0.0000000000
10
-22.0850401871
20
0.1736539809
30
0.0000000000
10
-22.0629494415
20
0.1637225085
30
0.0000000000
10
-22.0398363887
20
0.1565259946
30
0.0000000000
10
-22.0160338738
20
0.1521708880
30
0.0000000000
10
-21.9999236969
20
0.1512001937
30
0.0000000000
10
-21.9918983792
20
0.1512001937
30
0.0000000000
11
-22.1919288448
21
0.3512001937
31
0.0000000000
11
-22.1904804992
21
0.3271761858
31
0.0000000000
11
-22.1861267470
21
0.3033793658
31
0.0000000000
11
-22.1789521599
21
0.2803373660
31
0.0000000000
11
-22.1690725446
21
0.2583622903
31
0.0000000000
11
-22.1565366249
21
0.2376110036
31
0.0000000000
11
-22.1416049325
21
0.2185548985
31
0.0000000000
11
-22.1245838660
21
0.2015341522
31
0.0000000000
11
-22.1055234148
21
0.1865998179
31
0.0000000000
11
-22.0847691112
21
0.1740628057
31
0.0000000000
11
-22.0627920349
21
0.1641824929
31
0.0000000000
11
-22.0397398466
21
0.1570046964
31
0.0000000000
11
-22.0159307076
21
0.1526488826
31
0.0000000000
11
-21.9918983792
21
0.1512001937
31
0.0000000000
0
SPLINE
5
2BB
100
AcDbEntity
8
0
100
AcDbSpline
62
0
6
CONTINUOUS
70
0
71
3
72
127
73
123
74
121
42
0.0000001000
43
0.0000001000
44
0.0000000001
12
-0.0229686113
22
-1.3885108664
32
0.0000000000
13
0.0429925459
23
-1.3880205793
33
0.0000000000
40
0.0000000000
40
0.0000000000
40
0.0000000000
40
0.0000000000
40
0.0008136291
40
0.0034693043
40
0.0088014133
40
0.0141650167
40
0.0195644052
40
0.0304862539
40
0.0416005352
40
0.0529381070
40
0.0763909953
40
0.1010626764
40
0.1271339401
40
0.1407454202
40
0.1547621319
40
0.1619275389
40
0.1691999138
40
0.1766340624
40
0.1843501647
40
0.2006491267
40
0.2181163059
40
0.2565984330
40
0.2998715640
40
0.3233216909
40
0.3479871465
40
0.3738721351
40
0.3872731611
40
0.4009803920
40
0.4149942098
40
0.4293149721
40
0.4439430136
40
0.4588786489
40
0.4664619115
40
0.4741221818
40
0.4779812060
40
0.4818594949
40
0.4857570525
40
0.4896738829
40
0.4936099902
40
0.4955852739
40
0.4965747235
40
0.4975653783
40
0.4985572384
40
0.4995503038
40
0.4997987585
40
0.5000472886
40
0.5001715819
40
0.5002662269
40
0.5004258352
40
0.5007449538
40
0.5010639420
40
0.5017015268
40
0.5023385897
40
0.5036111498
40
0.5048816226
40
0.5061500083
40
0.5086805200
40
0.5112026874
40
0.5137165132
40
0.5187191497
40
0.5236884509
40
0.5286244384
40
0.5335271342
40
0.5432327346
40
0.5528054421
40
0.5622454491
40
0.5715529560
40
0.5897712603
40
0.6074621929
40
0.6246277053
40
0.6412699336
40
0.6573912222
40
0.6880808154
40
0.7026558589
40
0.7167220243
40
0.7302831951
40
0.7433736944
40
0.7562253126
40
0.7688904251
40
0.7936829115
40
0.8178017631
40
0.8296259898
40
0.8413022158
40
0.8528377983
40
0.8642403663
40
0.8755178190
40
0.8811122991
40
0.8866785847
40
0.8922177367
40
0.8977308319
40
0.9004779660
40
0.9018492378
40
0.9032190011
40
0.9039033228
40
0.9045872738
40
0.9052708564
40
0.9056125103
40
0.9059540728
40
0.9061248200
40
0.9062806735
40
0.9063844683
40
0.9064882553
40
0.9066958059
40
0.9069033255
40
0.9077330968
40
0.9085623847
40
0.9093911990
40
0.9110474448
40
0.9127019170
40
0.9143546960
40
0.9176554775
40
0.9209504583
40
0.9242402904
40
0.9275256291
40
0.9340852952
40
0.9406349096
40
0.9471797860
40
0.9537252494
40
0.9602766233
40
0.9734169963
40
0.9866443207
40
1.0000000000
40
1.0000000000
40
1.0000000000
40
1.0000000000
10
14.4320282747
20
-2.3890785253
30
0.0000000000
10
14.4320220454
20
-2.3894551029
30
0.0000000000
10
14.4319919068
20
-2.3910607656
30
0.0000000000
10
14.4318771363
20
-2.3951333952
30
0.0000000000
10
14.4315693992
20
-2.4013069437
30
0.0000000000
10
14.4309867875
20
-2.4087354879
30
0.0000000000
10
14.4299208784
20
-2.4187176626
30
0.0000000000
10
14.4280455421
20
-2.4312851676
30
0.0000000000
10
14.4249470065
20
-2.4464270960
30
0.0000000000
10
14.4196146599
20
-2.4670045519
30
0.0000000000
10
14.4107118939
20
-2.4930982749
30
0.0000000000
10
14.3967234200
20
-2.5245086719
30
0.0000000000
10
14.3824291649
20
-2.5506802683
30
0.0000000000
10
14.3693647765
20
-2.5718316196
30
0.0000000000
10
14.3604370742
20
-2.5852407322
30
0.0000000000
10
14.3528764400
20
-2.5960265631
30
0.0000000000
10
14.3469374731
20
-2.6042266241
30
0.0000000000
10
14.3407161459
20
-2.6125354324
30
0.0000000000
10
14.3317828814
20
-2.6240307494
30
0.0000000000
10
14.3196345577
20
-2.6389053876
30
0.0000000000
10
14.2977660534
20
-2.6642126161
30
0.0000000000
10
14.2664546408
20
-2.6978368460
30
0.0000000000
10
14.2319554899
20
-2.7322205947
30
0.0000000000
10
14.2013425159
20
-2.7614184414
30
0.0000000000
10
14.1762326213
20
-2.7847194489
30
0.0000000000
10
14.1542852181
20
-2.8045860526
30
0.0000000000
10
14.1359618909
20
-2.8208954824
30
0.0000000000
10
14.1216751243
20
-2.8334744922
30
0.0000000000
10
14.1070026890
20
-2.8462593197
30
0.0000000000
10
14.0919445666
20
-2.8592499629
30
0.0000000000
10
14.0765007593
20
-2.8724464195
30
0.0000000000
10
14.0633774780
20
-2.8835574372
30
0.0000000000
10
14.0526865375
20
-2.8925496169
30
0.0000000000
10
14.0459073445
20
-2.8982269612
30
0.0000000000
10
14.0404358392
20
-2.9027946174
30
0.0000000000
10
14.0362978363
20
-2.9062417920
30
0.0000000000
10
14.0321357257
20
-2.9097018290
30
0.0000000000
10
14.0279495071
20
-2.9131747281
30
0.0000000000
10
14.0244451984
20
-2.9160759727
30
0.0000000000
10
14.0219831460
20
-2.9181112324
30
0.0000000000
10
14.0205715276
20
-2.9192772693
30
0.0000000000
10
14.0195106592
20
-2.9201531304
30
0.0000000000
10
14.0184482945
20
-2.9210298082
30
0.0000000000
10
14.0176507247
20
-2.9216875842
30
0.0000000000
10
14.0171185865
20
-2.9221264085
30
0.0000000000
10
14.0168966315
20
-2.9223092801
30
0.0000000000
10
14.0167297693
20
-2.9224470528
30
0.0000000000
10
14.0165942537
20
-2.9225581396
30
0.0000000000
10
14.0163886166
20
-2.9227259386
30
0.0000000000
10
14.0161027253
20
-2.9229596439
30
0.0000000000
10
14.0156454764
20
-2.9233333117
30
0.0000000000
10
14.0150743874
20
-2.9238002584
30
0.0000000000
10
14.0141617449
20
-2.9245468097
30
0.0000000000
10
14.0130226965
20
-2.9254792823
30
0.0000000000
10
14.0116580722
20
-2.9265975460
30
0.0000000000
10
14.0098437979
20
-2.9280857951
30
0.0000000000
10
14.0075829442
20
-2.9299432053
30
0.0000000000
10
14.0048788713
20
-2.9321693013
30
0.0000000000
10
14.0012943161
20
-2.9351263356
30
0.0000000000
10
13.9968415616
20
-2.9388110114
30
0.0000000000
10
13.9915340965
20
-2.9432214606
30
0.0000000000
10
13.9862713914
20
-2.9476133668
30
0.0000000000
10
13.9793377361
20
-2.9534247346
30
0.0000000000
10
13.9707822575
20
-2.9606423571
30
0.0000000000
10
13.9606594164
20
-2.9692591079
30
0.0000000000
10
13.9507156023
20
-2.9778016852
30
0.0000000000
10
13.9377884071
20
-2.9890126700
30
0.0000000000
10
13.9220741228
20
-3.0028390076
30
0.0000000000
10
13.9037950968
20
-3.0192551177
30
0.0000000000
10
13.8862320112
20
-3.0353745072
30
0.0000000000
10
13.8693846979
20
-3.0511971828
30
0.0000000000
10
13.8482219883
20
-3.0715660234
30
0.0000000000
10
13.8281275923
20
-3.0916631688
30
0.0000000000
10
13.8091540769
20
-3.1115208054
30
0.0000000000
10
13.7958857689
20
-3.1258601110
30
0.0000000000
10
13.7833238562
20
-3.1399130920
30
0.0000000000
10
13.7713912831
20
-3.1537705714
30
0.0000000000
10
13.7600106124
20
-3.1675512179
30
0.0000000000
10
13.7455607896
20
-3.1858157812
30
0.0000000000
10
13.7285996819
20
-3.2087358396
30
0.0000000000
10
13.7129218040
20
-3.2320863446
30
0.0000000000
10
13.7013092608
20
-3.2508244343
30
0.0000000000
10
13.6931094941
20
-3.2648188980
30
0.0000000000
10
13.6853623406
20
-3.2788463512
30
0.0000000000
10
13.6780678092
20
-3.2929068041
30
0.0000000000
10
13.6723511795
20
-3.3046824060
30
0.0000000000
10
13.6680070626
20
-3.3141171619
30
0.0000000000
10
13.6648706449
20
-3.3211828996
30
0.0000000000
10
13.6618473788
20
-3.3282568173
30
0.0000000000
10
13.6594194988
20
-3.3341653423
30
0.0000000000
10
13.6577688448
20
-3.3383069327
30
0.0000000000
10
13.6568408728
20
-3.3406718367
30
0.0000000000
10
13.6562669485
20
-3.3421499073
30
0.0000000000
10
13.6558113509
20
-3.3433326147
30
0.0000000000
10
13.6554715096
20
-3.3442195297
30
0.0000000000
10
13.6551897563
20
-3.3449588360
30
0.0000000000
10
13.6549652102
20
-3.3455503335
30
0.0000000000
10
13.6548253100
20
-3.3459200457
30
0.0000000000
10
13.6547159010
20
-3.3462093366
30
0.0000000000
10
13.6546458242
20
-3.3463958363
30
0.0000000000
10
13.6545848710
20
-3.3465526399
30
0.0000000000
10
13.6545157709
20
-3.3467319487
30
0.0000000000
10
13.6544293986
20
-3.3469560574
30
0.0000000000
10
13.6542227653
20
-3.3474939658
30
0.0000000000
10
13.6539146222
20
-3.3483011834
30
0.0000000000
10
13.6535076773
20
-3.3493785143
30
0.0000000000
10
13.6529705213
20
-3.3508156052
30
0.0000000000
10
13.6523089928
20
-3.3526139804
30
0.0000000000
10
13.6515308317
20
-3.3547757915
30
0.0000000000
10
13.6505149691
20
-3.3576610257
30
0.0000000000
10
13.6492847221
20
-3.3612757567
30
0.0000000000
10
13.6478713119
20
-3.3656281519
30
0.0000000000
10
13.6465214855
20
-3.3699932183
30
0.0000000000
10
13.6448074758
20
-3.3758268498
30
0.0000000000
10
13.6428230212
20
-3.3831529434
30
0.0000000000
10
13.6406949210
20
-3.3919996065
30
0.0000000000
10
13.6388213165
20
-3.4008969446
30
0.0000000000
10
13.6372022296
20
-3.4098449943
30
0.0000000000
10
13.6353810779
20
-3.4218541165
30
0.0000000000
10
13.6337409157
20
-3.4370127484
30
0.0000000000
10
13.6327954251
20
-3.4553851087
30
0.0000000000
10
13.6328449925
20
-3.4676974868
30
0.0000000000
10
13.6330363907
20
-3.4738768060
30
0.0000000000
11
14.4320282747
21
-2.3890785253
31
0.0000000000
11
14.4320070785
21
-2.3902082120
31
0.0000000000
11
14.4319031998
21
-2.3938946484
31
0.0000000000
11
14.4315351724
21
-2.4012901233
31
0.0000000000
11
14.4309534516
21
-2.4087157345
31
0.0000000000
11
14.4301580375
21
-2.4161714820
31
0.0000000000
11
14.4279261293
21
-2.4311733857
31
0.0000000000
11
14.4248394477
21
-2.4462958345
31
0.0000000000
11
14.4208979928
21
-2.4615388283
31
0.0000000000
11
14.4104507628
21
-2.4923864513
31
0.0000000000
11
14.3965844393
21
-2.5237162545
31
0.0000000000
11
14.3792990224
21
-2.5555282380
31
0.0000000000
11
14.3693741540
21
-2.5716150474
31
0.0000000000
11
14.3585945121
21
-2.5878224018
31
0.0000000000
11
14.3528841512
21
-2.5959712835
31
0.0000000000
11
14.3469600969
21
-2.6041503014
31
0.0000000000
11
14.3407703142
21
-2.6124125874
31
0.0000000000
11
14.3341990515
21
-2.6208763327
31
0.0000000000
11
14.3198993431
21
-2.6384212133
31
0.0000000000
11
14.3040567238
21
-2.6567892804
31
0.0000000000
11
14.2677427526
21
-2.6959949744
31
0.0000000000
11
14.2252571379
21
-2.7384934145
31
0.0000000000
11
14.2016999643
21
-2.7609774144
31
0.0000000000
11
14.1765998799
21
-2.7842846008
31
0.0000000000
11
14.1499568846
21
-2.8084149738
31
0.0000000000
11
14.1360567953
21
-2.8207888552
31
0.0000000000
11
14.1217709784
21
-2.8333685333
31
0.0000000000
11
14.1070994337
21
-2.8461540080
31
0.0000000000
11
14.0920421614
21
-2.8591452794
31
0.0000000000
11
14.0765991613
21
-2.8723423473
31
0.0000000000
11
14.0607704335
21
-2.8857452120
31
0.0000000000
11
14.0527114217
21
-2.8925238180
31
0.0000000000
11
14.0445559780
21
-2.8993538732
31
0.0000000000
11
14.0404420941
21
-2.9027881943
31
0.0000000000
11
14.0363041023
21
-2.9062353776
31
0.0000000000
11
14.0321420025
21
-2.9096954232
31
0.0000000000
11
14.0279557947
21
-2.9131683311
31
0.0000000000
11
14.0237454790
21
-2.9166541013
31
0.0000000000
11
14.0216312806
21
-2.9184018098
31
0.0000000000
11
14.0205719213
21
-2.9192768699
31
0.0000000000
11
14.0195110552
21
-2.9201527338
31
0.0000000000
11
14.0184486824
21
-2.9210294017
31
0.0000000000
11
14.0173848029
21
-2.9219068734
31
0.0000000000
11
14.0171185975
21
-2.9221263670
31
0.0000000000
11
14.0168522980
21
-2.9223459108
31
0.0000000000
11
14.0167191130
21
-2.9224557015
31
0.0000000000
11
14.0166174867
21
-2.9225390475
31
0.0000000000
11
14.0164458379
21
-2.9226792742
31
0.0000000000
11
14.0161026714
21
-2.9229596735
31
0.0000000000
11
14.0157596798
21
-2.9232400002
31
0.0000000000
11
14.0150742210
21
-2.9238004365
31
0.0000000000
11
14.0143894616
21
-2.9243605830
31
0.0000000000
11
14.0130220410
21
-2.9254800069
31
0.0000000000
11
14.0116574180
21
-2.9265982718
31
0.0000000000
11
14.0102955926
21
-2.9277153777
31
0.0000000000
11
14.0075803344
21
-2.9299461128
31
0.0000000000
11
14.0048762666
21
-2.9321722121
31
0.0000000000
11
14.0021833890
21
-2.9343936757
31
0.0000000000
11
13.9968312048
21
-2.9388226955
31
0.0000000000
11
13.9915237817
21
-2.9432331723
31
0.0000000000
11
13.9862611199
21
-2.9476251060
31
0.0000000000
11
13.9810432191
21
-2.9519984967
31
0.0000000000
11
13.9707417013
21
-2.9606896488
31
0.0000000000
11
13.9606192281
21
-2.9693066286
31
0.0000000000
11
13.9506757996
21
-2.9778494362
31
0.0000000000
11
13.9409114158
21
-2.9863180716
31
0.0000000000
11
13.9219197824
21
-3.0030328255
31
0.0000000000
11
13.9036443278
21
-3.0194508905
31
0.0000000000
11
13.8860850520
21
-3.0355722665
31
0.0000000000
11
13.8692419550
21
-3.0513969535
31
0.0000000000
11
13.8531150368
21
-3.0669249514
31
0.0000000000
11
13.8230097370
21
-3.0970908804
31
0.0000000000
11
13.8090313552
21
-3.1117288114
31
0.0000000000
11
13.7957691523
21
-3.1260700534
31
0.0000000000
11
13.7832231282
21
-3.1401146064
31
0.0000000000
11
13.7713672433
21
-3.1538950041
31
0.0000000000
11
13.7600045724
21
-3.1676572828
31
0.0000000000
11
13.7490944286
21
-3.1814522765
31
0.0000000000
11
13.7286317221
21
-3.2091404085
31
0.0000000000
11
13.7099791240
21
-3.2369594003
31
0.0000000000
11
13.7013316155
21
-3.2509179686
31
0.0000000000
11
13.6931366340
21
-3.2649092518
31
0.0000000000
11
13.6853941797
21
-3.2789332499
31
0.0000000000
11
13.6781042524
21
-3.2929899630
31
0.0000000000
11
13.6712668521
21
-3.3070793910
31
0.0000000000
11
13.6680178496
21
-3.3141363731
31
0.0000000000
11
13.6648819789
21
-3.3212015339
31
0.0000000000
11
13.6618592400
21
-3.3282748734
31
0.0000000000
11
13.6589496328
21
-3.3353563917
31
0.0000000000
11
13.6575372537
21
-3.3389002179
31
0.0000000000
11
13.6568416702
21
-3.3406728977
31
0.0000000000
11
13.6561531574
21
-3.3424460887
31
0.0000000000
11
13.6558115526
21
-3.3433328759
31
0.0000000000
11
13.6554717154
21
-3.3442197909
31
0.0000000000
11
13.6551336459
21
-3.3451068337
31
0.0000000000
11
13.6549652741
21
-3.3455504030
31
0.0000000000
11
13.6547973441
21
-3.3459940043
31
0.0000000000
11
13.6547135449
21
-3.3462158169
31
0.0000000000
11
13.6546368901
21
-3.3464182192
31
0.0000000000
11
13.6545849351
21
-3.3465526683
31
0.0000000000
11
13.6545330422
21
-3.3466871298
31
0.0000000000
11
13.6544294427
21
-3.3469560897
31
0.0000000000
11
13.6543260916
21
-3.3472250991
31
0.0000000000
11
13.6539151703
21
-3.3483016309
31
0.0000000000
11
13.6535082226
21
-3.3493789533
31
0.0000000000
11
13.6531052484
21
-3.3504570664
31
0.0000000000
11
13.6523112205
21
-3.3526156646
31
0.0000000000
11
13.6515330867
21
-3.3547774256
31
0.0000000000
11
13.6507708469
21
-3.3569423492
31
0.0000000000
11
13.6492940496
21
-3.3612816848
31
0.0000000000
11
13.6478808284
21
-3.3656336712
31
0.0000000000
11
13.6465311835
21
-3.3699983085
31
0.0000000000
11
13.6452451147
21
-3.3743755966
31
0.0000000000
11
13.6428637059
21
-3.3831681257
31
0.0000000000
11
13.6407366020
21
-3.3920112583
31
0.0000000000
11
13.6388638028
21
-3.4009049944
31
0.0000000000
11
13.6372453086
21
-3.4098493342
31
0.0000000000
11
13.6358811192
21
-3.4188442774
31
0.0000000000
11
13.6339156549
21
-3.4369859746
31
0.0000000000
11
13.6329674101
21
-3.4553300861
31
0.0000000000
11
13.6330363907
21
-3.4738768060
31
0.0000000000
0
SPLINE
5
2BC
100
AcDbEntity
8
0
100
AcDbSpline
62
0
6
CONTINUOUS
70
0
71
3
72
14
73
10
74
8
42
0.0000001000
43
0.0000001000
44
0.0000000001
12
-0.2723774530
22
-0.2379882340
32
0.0000000000
13
-0.0330728069
23
-0.3601280602
33
0.0000000000
40
0.0000000000
40
0.0000000000
40
0.0000000000
40
0.0000000000
40
0.0149306518
40
0.0800048474
40
0.1449806158
40
0.2755641343
40
0.4086893047
40
0.6893565001
40
1.0000000000
40
1.0000000000
40
1.0000000000
40
1.0000000000
10
13.8144270915
20
-2.0842780525
30
0.0000000000
10
13.8130715005
20
-2.0854624923
30
0.0000000000
10
13.8058514387
20
-2.0918593855
30
0.0000000000
10
13.7932034309
20
-2.1039374022
30
0.0000000000
10
13.7718549084
20
-2.1270117463
30
0.0000000000
10
13.7476980498
20
-2.1585570825
30
0.0000000000
10
13.7143086116
20
-2.2152134062
30
0.0000000000
10
13.6835569804
20
-2.2977202613
30
0.0000000000
10
13.6719268890
20
-2.3684363375
30
0.0000000000
10
13.6685022715
20
-2.4057268178
30
0.0000000000
11
13.8144270915
21
-2.0842780525
31
0.0000000000
11
13.8103850339
21
-2.0878594308
31
0.0000000000
11
13.7933683712
21
-2.1041157034
31
0.0000000000
11
13.7774105058
21
-2.1213640546
31
0.0000000000
11
13.7486711669
21
-2.1588369930
31
0.0000000000
11
13.7241670171
21
-2.2002782459
31
0.0000000000
11
13.6878642850
21
-2.2950656954
31
0.0000000000
11
13.6685022715
21
-2.4057268178
31
0.0000000000
0
SPLINE
5
2BD
100
AcDbEntity
8
0
100
AcDbSpline
62
0
6
CONTINUOUS
70
0
71
3
72
45
73
41
74
39
42
0.0000001000
43
0.0000001000
44
0.0000000001
12
-0.5223381150
22
-0.1332470972
32
0.0000000000
13
-0.1068699737
23
0.5281805475
33
0.0000000000
40
0.0000000000
40
0.0000000000
40
0.0000000000
40
0.0000000000
40
0.0156869217
40
0.0653795799
40
0.0906973750
40
0.1034924325
40
0.1163847843
40
0.1293795111
40
0.1359168966
40
0.1424817261
40
0.1490746010
40
0.1507272773
40
0.1523817528
40
0.1540009641
40
0.1546994994
40
0.1553976597
40
0.1581865636
40
0.1609695302
40
0.1665178462
40
0.1720430390
40
0.1775455326
40
0.1884840349
40
0.1993369557
40
0.2101078745
40
0.2314174890
40
0.2524440426
40
0.2732190313
40
0.2937751074
40
0.3343575054
40
0.3744795410
40
0.4144308990
40
0.4545049660
40
0.4949924608
40
0.5154841060
40
0.5361862117
40
0.5785251640
40
0.6224945589
40
0.6684475678
40
0.7674390987
40
1.0000000000
40
1.0000000000
40
1.0000000000
40
1.0000000000
10
13.0586429896
20
-3.3367356625
30
0.0000000000
10
13.0559116972
20
-3.3374324081
30
0.0000000000
10
13.0444870309
20
-3.3401750825
30
0.0000000000
10
13.0284299774
20
-3.3430545131
30
0.0000000000
10
13.0127583623
20
-3.3448669327
30
0.0000000000
10
13.0036287221
20
-3.3456429716
30
0.0000000000
10
12.9966944569
20
-3.3460928713
30
0.0000000000
10
12.9908756346
20
-3.3463554253
30
0.0000000000
10
12.9861900265
20
-3.3464987710
30
0.0000000000
10
12.9826529604
20
-3.3465729629
30
0.0000000000
10
12.9799927311
20
-3.3466034009
30
0.0000000000
10
12.9782144359
20
-3.3466132662
30
0.0000000000
10
12.9773295269
20
-3.3466160835
30
0.0000000000
10
12.9766160042
20
-3.3466167146
30
0.0000000000
10
12.9760742631
20
-3.3466162633
30
0.0000000000
10
12.9753224136
20
-3.3466148251
30
0.0000000000
10
12.9741961484
20
-3.3466096576
30
0.0000000000
10
12.9721987259
20
-3.3465918887
30
0.0000000000
10
12.9697099758
20
-3.3465536196
30
0.0000000000
10
12.9667332874
20
-3.3464818722
30
0.0000000000
10
12.9627896376
20
-3.3463521045
30
0.0000000000
10
12.9578918316
20
-3.3461258216
30
0.0000000000
10
12.9520544377
20
-3.3457506049
30
0.0000000000
10
12.9443682648
20
-3.3451151266
30
0.0000000000
10
12.9348842279
20
-3.3440651735
30
0.0000000000
10
12.9236697328
20
-3.3423877244
30
0.0000000000
10
12.9126622078
20
-3.3402971191
30
0.0000000000
10
12.8983252207
20
-3.3369737294
30
0.0000000000
10
12.8808681673
20
-3.3317844694
30
0.0000000000
10
12.8606647266
20
-3.3238686235
30
0.0000000000
10
12.8412947264
20
-3.3142903229
30
0.0000000000
10
12.8227637260
20
-3.3030508045
30
0.0000000000
10
12.8080756116
20
-3.2923457928
30
0.0000000000
10
12.7967747103
20
-3.2829834852
30
0.0000000000
10
12.7855937544
20
-3.2729706480
30
0.0000000000
10
12.7722473651
20
-3.2590908049
30
0.0000000000
10
12.7574376849
20
-3.2404741608
30
0.0000000000
10
12.7386444816
20
-3.2121737047
30
0.0000000000
10
12.7080838119
20
-3.1513781275
30
0.0000000000
10
12.6920858903
20
-3.0934025012
30
0.0000000000
10
12.6838012979
20
-3.0524577864
30
0.0000000000
11
13.0586429896
21
-3.3367356625
31
0.0000000000
11
13.0504206746
21
-3.3387101411
31
0.0000000000
11
13.0240672128
21
-3.3434627340
31
0.0000000000
11
13.0105146590
21
-3.3450341558
31
0.0000000000
11
13.0036444263
21
-3.3456186481
31
0.0000000000
11
12.9967115565
21
-3.3460689946
31
0.0000000000
11
12.9897160496
21
-3.3463851953
31
0.0000000000
11
12.9861948072
21
-3.3464929910
31
0.0000000000
11
12.9826579055
21
-3.3465672503
31
0.0000000000
11
12.9791053445
21
-3.3466079731
31
0.0000000000
11
12.9782147575
21
-3.3466129137
31
0.0000000000
11
12.9773231918
21
-3.3466157583
31
0.0000000000
11
12.9764506251
21
-3.3466165119
31
0.0000000000
11
12.9760741958
21
-3.3466161954
31
0.0000000000
11
12.9756979692
21
-3.3466154763
31
0.0000000000
11
12.9741950895
21
-3.3466085726
31
0.0000000000
11
12.9726954529
21
-3.3465952254
31
0.0000000000
11
12.9697059088
21
-3.3465492008
31
0.0000000000
11
12.9667293370
21
-3.3464774022
31
0.0000000000
11
12.9637657373
21
-3.3463798299
31
0.0000000000
11
12.9578774547
21
-3.3461073637
31
0.0000000000
11
12.9520410609
21
-3.3457318022
31
0.0000000000
11
12.9462565560
21
-3.3452531454
31
0.0000000000
11
12.9348432126
21
-3.3439865458
31
0.0000000000
11
12.9236374247
21
-3.3423075650
31
0.0000000000
11
12.9126391922
21
-3.3402162030
31
0.0000000000
11
12.9018485151
21
-3.3377124597
31
0.0000000000
11
12.8808898271
21
-3.3314678293
31
0.0000000000
11
12.8607613608
21
-3.3235736739
31
0.0000000000
11
12.8414631160
21
-3.3140299935
31
0.0000000000
11
12.8229950929
21
-3.3028367881
31
0.0000000000
11
12.8053572915
21
-3.2899940577
31
0.0000000000
11
12.7968497238
21
-3.2829541206
31
0.0000000000
11
12.7885519479
21
-3.2754973138
31
0.0000000000
11
12.7727154764
21
-3.2590727578
31
0.0000000000
11
12.7579283835
21
-3.2405588035
31
0.0000000000
11
12.7441906692
21
-3.2199554511
31
0.0000000000
11
12.7198633768
21
-3.1724805518
31
0.0000000000
11
12.6838012979
21
-3.0524577864
31
0.0000000000
0
SPLINE
5
2BE
100
AcDbEntity
8
0
100
AcDbSpline
62
0
6
CONTINUOUS
70
0
71
3
72
22
73
18
74
16
42
0.0000001000
43
0.0000001000
44
0.0000000001
12
-0.0568209866
22
0.4327321065
32
0.0000000000
13
-0.4252462273
23
0.0981740555
33
0.0000000000
40
0.0000000000
40
0.0000000000
40
0.0000000000
40
0.0000000000
40
0.0163343319
40
0.0447907044
40
0.1006652006
40
0.1553248772
40
0.2089754073
40
0.2618342448
40
0.3141287206
40
0.3660935732
40
0.4179680158
40
0.4439378155
40
0.4698007166
40
0.5722132817
40
0.6745691959
40
0.7788384434
40
1.0000000000
40
1.0000000000
40
1.0000000000
40
1.0000000000
10
13.4744754410
20
-2.9645135882
30
0.0000000000
10
13.4741660634
20
-2.9621574582
30
0.0000000000
10
13.4732674024
20
-2.9557032929
30
0.0000000000
10
13.4709312948
20
-2.9412447899
30
0.0000000000
10
13.4668537002
20
-2.9214274287
30
0.0000000000
10
13.4606389850
20
-2.8983497314
30
0.0000000000
10
13.4531317747
20
-2.8761207987
30
0.0000000000
10
13.4443316125
20
-2.8547422714
30
0.0000000000
10
13.4342381200
20
-2.8342152434
30
0.0000000000
10
13.4228517930
20
-2.8145415882
30
0.0000000000
10
13.4122913385
20
-2.7988671559
30
0.0000000000
10
13.4032324552
20
-2.7867990795
30
0.0000000000
10
13.3891633778
20
-2.7693158301
30
0.0000000000
10
13.3658919216
20
-2.7449780711
30
0.0000000000
10
13.3304471800
20
-2.7170809822
30
0.0000000000
10
13.2765826623
20
-2.6855958517
30
0.0000000000
10
13.2311994856
20
-2.6701243749
30
0.0000000000
10
13.1998501131
20
-2.6628869326
30
0.0000000000
11
13.4744754410
21
-2.9645135882
31
0.0000000000
11
13.4734918905
21
-2.9574528103
31
0.0000000000
11
13.4715087125
21
-2.9451929166
31
0.0000000000
11
13.4665775673
21
-2.9213113086
31
0.0000000000
11
13.4603600363
21
-2.8982806066
31
0.0000000000
11
13.4528561196
21
-2.8761008107
31
0.0000000000
11
13.4440658173
21
-2.8547719208
31
0.0000000000
11
13.4339891292
21
-2.8342939369
31
0.0000000000
11
13.4226260553
21
-2.8146668590
31
0.0000000000
11
13.4099765958
21
-2.7958906871
31
0.0000000000
11
13.4031728696
21
-2.7868259328
31
0.0000000000
11
13.3960951218
21
-2.7780332898
31
0.0000000000
11
13.3651798422
21
-2.7457535039
31
0.0000000000
11
13.3300977016
21
-2.7180989752
31
0.0000000000
11
13.2908486999
21
-2.6950697037
31
0.0000000000
11
13.1998501131
21
-2.6628869326
31
0.0000000000
0
SPLINE
5
2BF
100
AcDbEntity
8
0
100
AcDbSpline
62
0
6
CONTINUOUS
70
0
71
3
72
19
73
15
74
13
42
0.0000001000
43
0.0000001000
44
0.0000000001
12
-0.3938513306
22
-0.1893094425
32
0.0000000000
13
-0.0782293948
23
-0.4298076540
33
0.0000000000
40
0.0000000000
40
0.0000000000
40
0.0000000000
40
0.0000000000
40
0.0207715552
40
0.0978583823
40
0.1751636148
40
0.2140715630
40
0.2532124753
40
0.2923345785
40
0.3313909836
40
0.4095630554
40
0.4882906580
40
0.6494004885
40
0.8188280861
40
1.0000000000
40
1.0000000000
40
1.0000000000
40
1.0000000000
10
12.7602055210
20
-2.0178782428
30
0.0000000000
10
12.7574785528
20
-2.0191889933
30
0.0000000000
10
12.7447000555
20
-2.0255069618
30
0.0000000000
10
12.7224362605
20
-2.0380151918
30
0.0000000000
10
12.6990983345
20
-2.0538163073
30
0.0000000000
10
12.6811771058
20
-2.0676316004
30
0.0000000000
10
12.6680899878
20
-2.0785875251
30
0.0000000000
10
12.6554503968
20
-2.0900894465
30
0.0000000000
10
12.6392630300
20
-2.1061083490
30
0.0000000000
10
12.6202577390
20
-2.1274444635
30
0.0000000000
10
12.5924113209
20
-2.1645019804
30
0.0000000000
10
12.5626277937
20
-2.2164438505
30
0.0000000000
10
12.5356581497
20
-2.2861621330
30
0.0000000000
10
12.5237133774
20
-2.3359594296
30
0.0000000000
10
12.5189890543
20
-2.3619157880
30
0.0000000000
11
12.7602055210
21
-2.0178782428
31
0.0000000000
11
12.7520691274
21
-2.0219013008
31
0.0000000000
11
12.7227091419
21
-2.0383973846
31
0.0000000000
11
12.6947389689
21
-2.0573244702
31
0.0000000000
11
12.6812750621
21
-2.0676996387
31
0.0000000000
11
12.6681653251
21
-2.0786780691
31
0.0000000000
11
12.6555256236
21
-2.0901823350
31
0.0000000000
11
12.6433979378
21
-2.1021843833
31
0.0000000000
11
12.6206786132
21
-2.1276818268
31
0.0000000000
11
12.6000073513
21
-2.1551703997
31
0.0000000000
11
12.5648090157
21
-2.2161209338
31
0.0000000000
11
12.5378029308
21
-2.2850359855
31
0.0000000000
11
12.5189890543
21
-2.3619157880
31
0.0000000000
0
SPLINE
5
2C0
100
AcDbEntity
8
0
100
AcDbSpline
62
0
6
CONTINUOUS
70
0
71
3
72
69
73
65
74
63
42
0.0000001000
43
0.0000001000
44
0.0000000001
12
-0.0697943816
22
-0.4185120880
32
0.0000000000
13
-0.4217126521
23
0.0463586326
33
0.0000000000
40
0.0000000000
40
0.0000000000
40
0.0000000000
40
0.0000000000
40
0.0049809070
40
0.0342551978
40
0.0629161005
40
0.0910436636
40
0.1460189594
40
0.1999259544
40
0.2535322282
40
0.3076181650
40
0.3350915492
40
0.3629661163
40
0.3913288625
40
0.4201323979
40
0.4773856362
40
0.5341750943
40
0.5907376784
40
0.6473131449
40
0.7041410869
40
0.7327274547
40
0.7614651393
40
0.7903827290
40
0.8195082823
40
0.8488692614
40
0.8636468507
40
0.8784932896
40
0.8859433921
40
0.8934119181
40
0.9008992653
40
0.9084058284
40
0.9159319991
40
0.9197025650
40
0.9234781782
40
0.9253678933
40
0.9272588884
40
0.9282048678
40
0.9291511694
40
0.9296244413
40
0.9298611076
40
0.9301569182
40
0.9304298031
40
0.9307950263
40
0.9311618233
40
0.9315301948
40
0.9319001411
40
0.9322716629
40
0.9330194346
40
0.9337735140
40
0.9345339051
40
0.9353006115
40
0.9368529843
40
0.9384306619
40
0.9400336714
40
0.9416620388
40
0.9433157888
40
0.9466995242
40
0.9501850600
40
0.9537725575
40
0.9574621646
40
0.9651482108
40
0.9732441987
40
0.9817509536
40
0.9906691868
40
1.0000000000
40
1.0000000000
40
1.0000000000
40
1.0000000000
10
13.2140497185
20
-2.4054777948
30
0.0000000000
10
13.2139338387
20
-2.4061726514
30
0.0000000000
10
13.2131172237
20
-2.4109481128
30
0.0000000000
10
13.2113661915
20
-2.4196753876
30
0.0000000000
10
13.2083556107
20
-2.4314741840
30
0.0000000000
10
13.2036267608
20
-2.4465620068
30
0.0000000000
10
13.1962964308
20
-2.4645473259
30
0.0000000000
10
13.1851468796
20
-2.4847023476
30
0.0000000000
10
13.1717130570
20
-2.5032585186
30
0.0000000000
10
13.1586835940
20
-2.5173112187
30
0.0000000000
10
13.1472082694
20
-2.5277050293
30
0.0000000000
10
13.1379924815
20
-2.5351455903
30
0.0000000000
10
13.1282291620
20
-2.5421786468
30
0.0000000000
10
13.1146133910
20
-2.5509285309
30
0.0000000000
10
13.0971434414
20
-2.5610977088
30
0.0000000000
10
13.0755286376
20
-2.5718555038
30
0.0000000000
10
13.0533515607
20
-2.5811543348
30
0.0000000000
10
13.0306093453
20
-2.5889860601
30
0.0000000000
10
13.0112245394
20
-2.5942812944
30
0.0000000000
10
12.9954636615
20
-2.5977836129
30
0.0000000000
10
12.9834779665
20
-2.6000507058
30
0.0000000000
10
12.9713518883
20
-2.6019525532
30
0.0000000000
10
12.9590853715
20
-2.6034892418
30
0.0000000000
10
12.9487687015
20
-2.6044633920
30
0.0000000000
10
12.9404483823
20
-2.6050611769
30
0.0000000000
10
12.9352137048
20
-2.6053592454
30
0.0000000000
10
12.9310087950
20
-2.6055522399
30
0.0000000000
10
12.9278425179
20
-2.6056743595
30
0.0000000000
10
12.9246674572
20
-2.6057736774
30
0.0000000000
10
12.9214836114
20
-2.6058501938
30
0.0000000000
10
12.9188248434
20
-2.6058949267
30
0.0000000000
10
12.9166934826
20
-2.6059193346
30
0.0000000000
10
12.9153591183
20
-2.6059298460
30
0.0000000000
10
12.9142905345
20
-2.6059354078
30
0.0000000000
10
12.9136221005
20
-2.6059376973
30
0.0000000000
10
12.9130870794
20
-2.6059388166
30
0.0000000000
10
12.9127525485
20
-2.6059392196
30
0.0000000000
10
12.9125183270
20
-2.6059393454
30
0.0000000000
10
12.9123760963
20
-2.6059393753
30
0.0000000000
10
12.9122622039
20
-2.6059393680
30
0.0000000000
10
12.9121301313
20
-2.6059392176
30
0.0000000000
10
12.9119880202
20
-2.6059389089
30
0.0000000000
10
12.9118324062
20
-2.6059383820
30
0.0000000000
10
12.9116761250
20
-2.6059376666
30
0.0000000000
10
12.9115191766
20
-2.6059367623
30
0.0000000000
10
12.9113085768
20
-2.6059353015
30
0.0000000000
10
12.9110436585
20
-2.6059330005
30
0.0000000000
10
12.9107237564
20
-2.6059294896
30
0.0000000000
10
12.9104011855
20
-2.6059252231
30
0.0000000000
10
12.9099657456
20
-2.6059184996
30
0.0000000000
10
12.9094147699
20
-2.6059081847
30
0.0000000000
10
12.9087456056
20
-2.6058928355
30
0.0000000000
10
12.9080657665
20
-2.6058744648
30
0.0000000000
10
12.9073752526
20
-2.6058530727
30
0.0000000000
10
12.9064331520
20
-2.6058202705
30
0.0000000000
10
12.9052288189
20
-2.6057715652
30
0.0000000000
10
12.9037516978
20
-2.6057014751
30
0.0000000000
10
12.9022318788
20
-2.6056193050
30
0.0000000000
10
12.9001196527
20
-2.6054918894
30
0.0000000000
10
12.8973725452
20
-2.6053014772
30
0.0000000000
10
12.8939485507
20
-2.6050277341
30
0.0000000000
10
12.8903537766
20
-2.6047057144
30
0.0000000000
10
12.8865881556
20
-2.6043354058
30
0.0000000000
10
12.8840218583
20
-2.6040625018
30
0.0000000000
10
12.8827102176
20
-2.6039183139
30
0.0000000000
11
13.2140497185
21
-2.4054777948
31
0.0000000000
11
13.2136934662
21
-2.4075609080
31
0.0000000000
11
13.2112433565
21
-2.4197365442
31
0.0000000000
11
13.2082309266
21
-2.4315169574
31
0.0000000000
11
13.2046561765
21
-2.4429021476
31
0.0000000000
11
13.1958197154
21
-2.4644868590
31
0.0000000000
11
13.1847339734
21
-2.4844906784
31
0.0000000000
11
13.1713989503
21
-2.5029136058
31
0.0000000000
11
13.1558146463
21
-2.5197556412
31
0.0000000000
11
13.1471790139
21
-2.5275838244
31
0.0000000000
11
13.1379810612
21
-2.5350167846
31
0.0000000000
11
13.1282207883
21
-2.5420545218
31
0.0000000000
11
13.1179670507
21
-2.5487020020
31
0.0000000000
11
13.0969603723
21
-2.5608969567
31
0.0000000000
11
13.0753913730
21
-2.5716326860
31
0.0000000000
11
13.0532600527
21
-2.5809091899
31
0.0000000000
11
13.0305664116
21
-2.5887264685
31
0.0000000000
11
13.0073104495
21
-2.5950845218
31
0.0000000000
11
12.9954715981
21
-2.5977163389
31
0.0000000000
11
12.9834921665
21
-2.5999833497
31
0.0000000000
11
12.9713721547
21
-2.6018855542
31
0.0000000000
11
12.9591115626
21
-2.6034229523
31
0.0000000000
11
12.9467103903
21
-2.6045955441
31
0.0000000000
11
12.9404570866
21
-2.6050450376
31
0.0000000000
11
12.9341686378
21
-2.6054033296
31
0.0000000000
11
12.9310112340
21
-2.6055482749
31
0.0000000000
11
12.9278450440
21
-2.6056704199
31
0.0000000000
11
12.9246700676
21
-2.6057697645
31
0.0000000000
11
12.9214863050
21
-2.6058463087
31
0.0000000000
11
12.9182937562
21
-2.6059000525
31
0.0000000000
11
12.9166941869
21
-2.6059183742
31
0.0000000000
11
12.9150924211
21
-2.6059309959
31
0.0000000000
11
12.9142907145
21
-2.6059351692
31
0.0000000000
11
12.9134884587
21
-2.6059379174
31
0.0000000000
11
12.9130871249
21
-2.6059387572
31
0.0000000000
11
12.9126856538
21
-2.6059392407
31
0.0000000000
11
12.9124848667
21
-2.6059393488
31
0.0000000000
11
12.9123844603
21
-2.6059393695
31
0.0000000000
11
12.9122589618
21
-2.6059393444
31
0.0000000000
11
12.9121431896
21
-2.6059392154
31
0.0000000000
11
12.9119882429
21
-2.6059388781
31
0.0000000000
11
12.9118326290
21
-2.6059383519
31
0.0000000000
11
12.9116763479
21
-2.6059376369
31
0.0000000000
11
12.9115193996
21
-2.6059367329
31
0.0000000000
11
12.9113617842
21
-2.6059356401
31
0.0000000000
11
12.9110445516
21
-2.6059328877
31
0.0000000000
11
12.9107246503
21
-2.6059293798
31
0.0000000000
11
12.9104020803
21
-2.6059251164
31
0.0000000000
11
12.9100768414
21
-2.6059200974
31
0.0000000000
11
12.9094183574
21
-2.6059077929
31
0.0000000000
11
12.9087491983
21
-2.6058924661
31
0.0000000000
11
12.9080693642
21
-2.6058741172
31
0.0000000000
11
12.9073788549
21
-2.6058527461
31
0.0000000000
11
12.9066776705
21
-2.6058283528
31
0.0000000000
11
12.9052432765
21
-2.6057704996
31
0.0000000000
11
12.9037661822
21
-2.6057005578
31
0.0000000000
11
12.9022463875
21
-2.6056185273
31
0.0000000000
11
12.9006838924
21
-2.6055244080
31
0.0000000000
11
12.8974308012
21
-2.6052999034
31
0.0000000000
11
12.8940069086
21
-2.6050270439
31
0.0000000000
11
12.8904122145
21
-2.6047058296
31
0.0000000000
11
12.8866467190
21
-2.6043362604
31
0.0000000000
11
12.8827102176
21
-2.6039183139
31
0.0000000000
0
SPLINE
5
2C1
100
AcDbEntity
8
0
100
AcDbSpline
62
0
6
CONTINUOUS
70
0
71
3
72
65
73
61
74
59
42
0.0000001000
43
0.0000001000
44
0.0000000001
12
-0.4050183084
22
-0.6339097487
32
0.0000000000
13
-0.1133382304
23
0.7436070535
33
0.0000000000
40
0.0000000000
40
0.0000000000
40
0.0000000000
40
0.0000000000
40
0.0060069317
40
0.0282962713
40
0.0506000966
40
0.0617772608
40
0.0729806406
40
0.0841424074
40
0.0951936553
40
0.1169878430
40
0.1384161964
40
0.1595328638
40
0.2010446385
40
0.2420126787
40
0.2624548946
40
0.2829471638
40
0.3035513770
40
0.3243284245
40
0.3453376940
40
0.3559483216
40
0.3666383545
40
0.3774146093
40
0.3828372579
40
0.3882839428
40
0.3937554694
40
0.3992526321
40
0.4020110842
40
0.4047762382
40
0.4075481901
40
0.4089367466
40
0.4096316750
40
0.4103270387
40
0.4109036137
40
0.4114798479
40
0.4126312979
40
0.4149301476
40
0.4172236475
40
0.4195118557
40
0.4240726160
40
0.4286129156
40
0.4376339311
40
0.4465789270
40
0.4554519094
40
0.4642569828
40
0.4816792113
40
0.4988813424
40
0.5158994137
40
0.5495235706
40
0.5828691484
40
0.6162521671
40
0.6499875945
40
0.6670880456
40
0.6843897387
40
0.7018406486
40
0.7193986320
40
0.7550152262
40
0.7916194954
40
0.8295505508
40
0.9105142921
40
1.0000000000
40
1.0000000000
40
1.0000000000
40
1.0000000000
10
12.0775861668
20
-3.2053103531
30
0.0000000000
10
12.0767751944
20
-3.2065796373
30
0.0000000000
10
12.0729132284
20
-3.2125319878
30
0.0000000000
10
12.0656569985
20
-3.2229462800
30
0.0000000000
10
12.0570709208
20
-3.2339918202
30
0.0000000000
10
12.0498560781
20
-3.2425647183
30
0.0000000000
10
12.0442733489
20
-3.2488559117
30
0.0000000000
10
12.0385613732
20
-3.2549866955
30
0.0000000000
10
12.0308552721
20
-3.2628849788
30
0.0000000000
10
12.0210060965
20
-3.2722834713
30
0.0000000000
10
12.0087934780
20
-3.2828341227
30
0.0000000000
10
11.9921565264
20
-3.2957847343
30
0.0000000000
10
11.9704290480
20
-3.3101149061
30
0.0000000000
10
11.9474127068
20
-3.3219085769
30
0.0000000000
10
11.9284135503
20
-3.3297253374
30
0.0000000000
10
11.9138346061
20
-3.3348027753
30
0.0000000000
10
11.8989192550
20
-3.3390971924
30
0.0000000000
10
11.8836677332
20
-3.3426089998
30
0.0000000000
10
11.8707206197
20
-3.3448758895
30
0.0000000000
10
11.8602073815
20
-3.3463008677
30
0.0000000000
10
11.8522117768
20
-3.3471780697
30
0.0000000000
10
11.8454930226
20
-3.3477452176
30
0.0000000000
10
11.8400774130
20
-3.3481019159
30
0.0000000000
10
11.8359860110
20
-3.3483212445
30
0.0000000000
10
11.8318735976
20
-3.3484918050
30
0.0000000000
10
11.8284331734
20
-3.3485931787
30
0.0000000000
10
11.8256704892
20
-3.3486499794
30
0.0000000000
10
11.8235907414
20
-3.3486804405
30
0.0000000000
10
11.8218543150
20
-3.3486956562
30
0.0000000000
10
11.8206369137
20
-3.3487009827
30
0.0000000000
10
11.8199401700
20
-3.3487025050
30
0.0000000000
10
11.8194470142
20
-3.3487028660
30
0.0000000000
10
11.8189836188
20
-3.3487025800
30
0.0000000000
10
11.8184058691
20
-3.3487015016
30
0.0000000000
10
11.8173962960
20
-3.3486977325
30
0.0000000000
10
11.8159561778
20
-3.3486869634
30
0.0000000000
10
11.8142311317
20
-3.3486654061
30
0.0000000000
10
11.8119391709
20
-3.3486252063
30
0.0000000000
10
11.8090843665
20
-3.3485534601
30
0.0000000000
10
11.8045433659
20
-3.3483928747
30
0.0000000000
10
11.7989071535
20
-3.3481063879
30
0.0000000000
10
11.7921946139
20
-3.3476237664
30
0.0000000000
10
11.7855477485
20
-3.3470030489
30
0.0000000000
10
11.7768043589
20
-3.3459949413
30
0.0000000000
10
11.7660299476
20
-3.3443920191
30
0.0000000000
10
11.7533172436
20
-3.3419081928
30
0.0000000000
10
11.7367862383
20
-3.3378758069
30
0.0000000000
10
11.7166978807
20
-3.3314422513
30
0.0000000000
10
11.6935575239
20
-3.3214610562
30
0.0000000000
10
11.6714804220
20
-3.3092506447
30
0.0000000000
10
11.6540468196
20
-3.2972738664
30
0.0000000000
10
11.6406763656
20
-3.2866313954
30
0.0000000000
10
11.6308725349
20
-3.2780851216
30
0.0000000000
10
11.6214142833
20
-3.2689895128
30
0.0000000000
10
11.6093244566
20
-3.2560409774
30
0.0000000000
10
11.5952664594
20
-3.2384056646
30
0.0000000000
10
11.5802625473
20
-3.2151675207
30
0.0000000000
10
11.5622335192
20
-3.1805419779
30
0.0000000000
10
11.5443322137
20
-3.1312032638
30
0.0000000000
10
11.5355826452
20
-3.0892425590
30
0.0000000000
10
11.5322019279
20
-3.0670618245
30
0.0000000000
11
12.0775861668
21
-3.2053103531
31
0.0000000000
11
12.0751266790
21
-3.2091010585
31
0.0000000000
11
12.0655415294
21
-3.2228568263
31
0.0000000000
11
12.0552463687
21
-3.2361033878
31
0.0000000000
11
12.0498325342
21
-3.2425357162
31
0.0000000000
11
12.0442411969
21
-3.2488407430
31
0.0000000000
11
12.0385190564
21
-3.2549845975
31
0.0000000000
11
12.0327128121
21
-3.2609334090
31
0.0000000000
11
12.0208480121
21
-3.2722459030
31
0.0000000000
11
12.0086467971
21
-3.2827782250
31
0.0000000000
11
11.9961091670
21
-3.2925303751
31
0.0000000000
11
11.9700246616
21
-3.3096941591
31
0.0000000000
11
11.9425944959
21
-3.3237372551
31
0.0000000000
11
11.9283747904
21
-3.3295885451
31
0.0000000000
11
11.9138186699
21
-3.3346596632
31
0.0000000000
11
11.8989261343
21
-3.3389506092
31
0.0000000000
11
11.8836971836
21
-3.3424613832
31
0.0000000000
11
11.8681318178
21
-3.3451919852
31
0.0000000000
11
11.8602229793
21
-3.3462647217
31
0.0000000000
11
11.8522300370
21
-3.3471424152
31
0.0000000000
11
11.8441529909
21
-3.3478250657
31
0.0000000000
11
11.8400829290
21
-3.3480932498
31
0.0000000000
11
11.8359918411
21
-3.3483126732
31
0.0000000000
11
11.8318797273
21
-3.3484833358
31
0.0000000000
11
11.8277465875
21
-3.3486052377
31
0.0000000000
11
11.8256721329
21
-3.3486479033
31
0.0000000000
11
11.8235924218
21
-3.3486783788
31
0.0000000000
11
11.8215074542
21
-3.3486966641
31
0.0000000000
11
11.8204629992
21
-3.3487012354
31
0.0000000000
11
11.8199402789
21
-3.3487023782
31
0.0000000000
11
11.8194172301
21
-3.3487027592
31
0.0000000000
11
11.8189835335
21
-3.3487024896
31
0.0000000000
11
11.8185500939
21
-3.3487016808
31
0.0000000000
11
11.8176839853
21
-3.3486984458
31
0.0000000000
11
11.8159548509
21
-3.3486855055
31
0.0000000000
11
11.8142298271
21
-3.3486639384
31
0.0000000000
11
11.8125089137
21
-3.3486337445
31
0.0000000000
11
11.8090794184
21
-3.3485474760
31
0.0000000000
11
11.8056663650
21
-3.3484267003
31
0.0000000000
11
11.7988895841
21
-3.3480816266
31
0.0000000000
11
11.7921785708
21
-3.3475985235
31
0.0000000000
11
11.7855333253
21
-3.3469773909
31
0.0000000000
11
11.7789538475
21
-3.3462182289
31
0.0000000000
11
11.7659921952
21
-3.3442858165
31
0.0000000000
11
11.7532936137
21
-3.3418012862
31
0.0000000000
11
11.7408581030
21
-3.3387646382
31
0.0000000000
11
11.7167762945
21
-3.3310349885
31
0.0000000000
11
11.6937467696
21
-3.3210968674
31
0.0000000000
11
11.6717695282
21
-3.3089502751
31
0.0000000000
11
11.6508445705
21
-3.2945952114
31
0.0000000000
11
11.6407766979
21
-3.2865895028
31
0.0000000000
11
11.6309718963
21
-3.2780316763
31
0.0000000000
11
11.6215173889
21
-3.2689258069
31
0.0000000000
11
11.6125003992
21
-3.2592759693
31
0.0000000000
11
11.5957789725
21
-3.2383443899
31
0.0000000000
11
11.5808076163
21
-3.2152369380
31
0.0000000000
11
11.5675863305
21
-3.1899536135
31
0.0000000000
11
11.5463939705
21
-3.1328593472
31
0.0000000000
11
11.5322019279
21
-3.0670618245
31
0.0000000000
0
SPLINE
5
2C2
100
AcDbEntity
8
0
100
AcDbSpline
62
0
6
CONTINUOUS
70
0
71
3
72
65
73
61
74
59
42
0.0000001000
43
0.0000001000
44
0.0000000001
12
-0.1116878126
22
0.9743576421
32
0.0000000000
13
-0.8027046040
23
-0.5633566839
33
0.0000000000
40
0.0000000000
40
0.0000000000
40
0.0000000000
40
0.0000000000
40
0.0164032763
40
0.0383883039
40
0.0814402190
40
0.1235344270
40
0.1649944418
40
0.2061587331
40
0.2473730566
40
0.2681122177
40
0.2889924038
40
0.3100550783
40
0.3312482305
40
0.3521869717
40
0.3728545754
40
0.4135146361
40
0.4535451238
40
0.4932683899
40
0.5330142616
40
0.5731120080
40
0.5933984498
40
0.6138919258
40
0.6346300322
40
0.6451027656
40
0.6556501417
40
0.6662764707
40
0.6716206283
40
0.6769860963
40
0.6823733865
40
0.6850753808
40
0.6877830198
40
0.6891389763
40
0.6904963673
40
0.6911756033
40
0.6918552007
40
0.6925113785
40
0.6927681861
40
0.6930249741
40
0.6940519313
40
0.6950785808
40
0.6961049277
40
0.6971309768
40
0.6991821999
40
0.7012322909
40
0.7053292242
40
0.7094221027
40
0.7135112438
40
0.7216795065
40
0.7298366452
40
0.7379852241
40
0.7461278153
40
0.7624047037
40
0.7786886034
40
0.7950001373
40
0.8113598234
40
0.8277879995
40
0.8609249439
40
0.8945725433
40
0.9288803265
40
1.0000000000
40
1.0000000000
40
1.0000000000
40
1.0000000000
10
12.3252340720
20
-2.8965119503
30
0.0000000000
10
12.3246233900
20
-2.8911843978
30
0.0000000000
10
12.3230179896
20
-2.8787367130
30
0.0000000000
10
12.3187086761
20
-2.8524602532
30
0.0000000000
10
12.3109403238
20
-2.8182672535
30
0.0000000000
10
12.2983168461
20
-2.7787984137
30
0.0000000000
10
12.2824535377
20
-2.7411808217
30
0.0000000000
10
12.2633522505
20
-2.7054259159
30
0.0000000000
10
12.2447714067
20
-2.6772399030
30
0.0000000000
10
12.2283591229
20
-2.6556940144
30
0.0000000000
10
12.2152193758
20
-2.6399624884
30
0.0000000000
10
12.2012963180
20
-2.6247188860
30
0.0000000000
10
12.1867157874
20
-2.6100770564
30
0.0000000000
10
12.1716590429
20
-2.5961144952
30
0.0000000000
10
12.1511895180
20
-2.5786640558
30
0.0000000000
10
12.1246232953
20
-2.5587887771
30
0.0000000000
10
12.0910923701
20
-2.5380729092
30
0.0000000000
10
12.0560825353
20
-2.5206217888
30
0.0000000000
10
12.0196034331
20
-2.5064414145
30
0.0000000000
10
11.9881004190
20
-2.4973849486
30
0.0000000000
10
11.9622583675
20
-2.4917713347
30
0.0000000000
10
11.9424344811
20
-2.4883561171
30
0.0000000000
10
11.9256664490
20
-2.4861942721
30
0.0000000000
10
11.9120800140
20
-2.4848674899
30
0.0000000000
10
11.9017650689
20
-2.4840718342
30
0.0000000000
10
11.8931101042
20
-2.4835787141
30
0.0000000000
10
11.8861417168
20
-2.4832850361
30
0.0000000000
10
11.8808824798
20
-2.4831150236
30
0.0000000000
10
11.8764853225
20
-2.4830156781
30
0.0000000000
10
11.8729563368
20
-2.4829614615
30
0.0000000000
10
11.8707448561
20
-2.4829381101
30
0.0000000000
10
11.8689728392
20
-2.4829257526
30
0.0000000000
10
11.8678638527
20
-2.4829206664
30
0.0000000000
10
11.8669759533
20
-2.4829181775
30
0.0000000000
10
11.8663172698
20
-2.4829171205
30
0.0000000000
10
11.8657966725
20
-2.4829168754
30
0.0000000000
10
11.8654142870
20
-2.4829170358
30
0.0000000000
10
11.8649106980
20
-2.4829175278
30
0.0000000000
10
11.8641554577
20
-2.4829192940
30
0.0000000000
10
11.8631486655
20
-2.4829238504
30
0.0000000000
10
11.8621421824
20
-2.4829306059
30
0.0000000000
10
11.8608008084
20
-2.4829425446
30
0.0000000000
10
11.8591248500
20
-2.4829629648
30
0.0000000000
10
11.8564452972
20
-2.4830073614
30
0.0000000000
10
11.8530988399
20
-2.4830848389
30
0.0000000000
10
11.8490869845
20
-2.4832130331
30
0.0000000000
10
11.8437466448
20
-2.4834307965
30
0.0000000000
10
11.8370827074
20
-2.4837909359
30
0.0000000000
10
11.8291025950
20
-2.4843640946
30
0.0000000000
10
11.8211422328
20
-2.4850780791
30
0.0000000000
10
11.8105568041
20
-2.4862175891
30
0.0000000000
10
11.7973674686
20
-2.4879948668
30
0.0000000000
10
11.7816175803
20
-2.4906917084
30
0.0000000000
10
11.7659469919
20
-2.4939523262
30
0.0000000000
10
11.7503557078
20
-2.4977767844
30
0.0000000000
10
11.7296157973
20
-2.5036437797
30
0.0000000000
10
11.7038433329
20
-2.5124161501
30
0.0000000000
10
11.6733315114
20
-2.5251729630
30
0.0000000000
10
11.6326043316
20
-2.5454283627
30
0.0000000000
10
11.6032564414
20
-2.5637029971
30
0.0000000000
10
11.5842270782
20
-2.5770582449
30
0.0000000000
11
12.3252340720
21
-2.8965119503
31
0.0000000000
11
12.3231736612
21
-2.8805579209
31
0.0000000000
11
12.3196777519
21
-2.8592832712
31
0.0000000000
11
12.3102789140
21
-2.8181231988
31
0.0000000000
11
12.2976707167
21
-2.7788154292
31
0.0000000000
11
12.2818531602
21
-2.7413599624
31
0.0000000000
11
12.2628262443
21
-2.7057567983
31
0.0000000000
11
12.2405899691
21
-2.6720059370
31
0.0000000000
11
12.2282683218
21
-2.6558251199
31
0.0000000000
11
12.2151443347
21
-2.6401073785
31
0.0000000000
11
12.2012180077
21
-2.6248527128
31
0.0000000000
11
12.1865607750
21
-2.6101178817
31
0.0000000000
11
12.1714985543
21
-2.5961618477
31
0.0000000000
11
12.1560715274
21
-2.5830165376
31
0.0000000000
11
12.1241230550
21
-2.5591580894
31
0.0000000000
11
12.0907153575
21
-2.5385425370
31
0.0000000000
11
12.0558484351
21
-2.5211698806
31
0.0000000000
11
12.0195222878
21
-2.5070401200
31
0.0000000000
11
11.9817369155
21
-2.4961532552
31
0.0000000000
11
11.9622970199
21
-2.4919259088
31
0.0000000000
11
11.9424923182
21
-2.4885092864
31
0.0000000000
11
11.9223228102
21
-2.4859033879
31
0.0000000000
11
11.9121012538
21
-2.4849044602
31
0.0000000000
11
11.9017884959
21
-2.4841082134
31
0.0000000000
11
11.8913845365
21
-2.4835146477
31
0.0000000000
11
11.8861483562
21
-2.4832938701
31
0.0000000000
11
11.8808893755
21
-2.4831237629
31
0.0000000000
11
11.8756075944
21
-2.4830043259
31
0.0000000000
11
11.8729581537
21
-2.4829636087
31
0.0000000000
11
11.8703030129
21
-2.4829355591
31
0.0000000000
11
11.8689733049
21
-2.4829262846
31
0.0000000000
11
11.8676421720
21
-2.4829201771
31
0.0000000000
11
11.8669760711
21
-2.4829183109
31
0.0000000000
11
11.8663096140
21
-2.4829172364
31
0.0000000000
11
11.8656661230
21
-2.4829169512
31
0.0000000000
11
11.8654142806
21
-2.4829170592
31
0.0000000000
11
11.8651624575
21
-2.4829173047
31
0.0000000000
11
11.8641553584
21
-2.4829196614
31
0.0000000000
11
11.8631485686
21
-2.4829242177
31
0.0000000000
11
11.8621420879
21
-2.4829309737
31
0.0000000000
11
11.8611359166
21
-2.4829399292
31
0.0000000000
11
11.8591245014
21
-2.4829644392
31
0.0000000000
11
11.8571143232
21
-2.4829977475
31
0.0000000000
11
11.8530976775
21
-2.4830907596
31
0.0000000000
11
11.8490859795
21
-2.4832189654
31
0.0000000000
11
11.8450792290
21
-2.4833823650
31
0.0000000000
11
11.8370805709
21
-2.4838147454
31
0.0000000000
11
11.8291017033
21
-2.4843879009
31
0.0000000000
11
11.8211426262
21
-2.4851018313
31
0.0000000000
11
11.8132033395
21
-2.4859565368
31
0.0000000000
11
11.7973841375
21
-2.4880882728
31
0.0000000000
11
11.7816440974
21
-2.4907831090
31
0.0000000000
11
11.7659832191
21
-2.4940410452
31
0.0000000000
11
11.7504015027
21
-2.4978620814
31
0.0000000000
11
11.7348989481
21
-2.5022462178
31
0.0000000000
11
11.7041313246
21
-2.5127037908
31
0.0000000000
11
11.6736803485
21
-2.5254137641
31
0.0000000000
11
11.6435460198
21
-2.5403761377
31
0.0000000000
11
11.5842270782
21
-2.5770582449
31
0.0000000000
0
SPLINE
5
2C3
100
AcDbEntity
8
0
100
AcDbSpline
62
0
6
CONTINUOUS
70
0
71
3
72
28
73
24
74
22
42
0.0000001000
43
0.0000001000
44
0.0000000001
12
-0.3454300435
22
0.0000000000
32
0.0000000000
13
0.3401821849
23
0.0599832976
33
0.0000000000
40
0.0000000000
40
0.0000000000
40
0.0000000000
40
0.0000000000
40
0.1006721552
40
0.1924680299
40
0.2759316549
40
0.3516798957
40
0.4203983397
40
0.4828099750
40
0.5396538399
40
0.5916707236
40
0.6395940628
40
0.6841431247
40
0.7260161999
40
0.7659994190
40
0.8044031208
40
0.8406014253
40
0.8739228830
40
0.9039164770
40
0.9302351081
40
0.9525604834
40
0.9706674103
40
0.9843677314
40
1.0000000000
40
1.0000000000
40
1.0000000000
40
1.0000000000
10
-18.9422151147
20
-20.3487998063
30
0.0000000000
10
-18.9538068437
20
-20.3487998063
30
0.0000000000
10
-18.9759682571
20
-20.3487984062
30
0.0000000000
10
-19.0077399510
20
-20.3487920153
30
0.0000000000
10
-19.0366418210
20
-20.3487820341
30
0.0000000000
10
-19.0628864768
20
-20.3487690060
30
0.0000000000
10
-19.0867071342
20
-20.3487534000
30
0.0000000000
10
-19.1083510761
20
-20.3487355932
30
0.0000000000
10
-19.1280719425
20
-20.3487158574
30
0.0000000000
10
-19.1461245728
20
-20.3486943457
30
0.0000000000
10
-19.1627615423
20
-20.3486710761
30
0.0000000000
10
-19.1782304911
20
-20.3486459066
30
0.0000000000
10
-19.1927852652
20
-20.3486184856
30
0.0000000000
10
-19.2066321490
20
-20.3485882525
30
0.0000000000
10
-19.2198266079
20
-20.3485547775
30
0.0000000000
10
-19.2322505837
20
-20.3485175943
30
0.0000000000
10
-19.2437175039
20
-20.3484775854
30
0.0000000000
10
-19.2540104681
20
-20.3484323745
30
0.0000000000
10
-19.2631496908
20
-20.3483901255
30
0.0000000000
10
-19.2705884644
20
-20.3483274072
30
0.0000000000
10
-19.2774942660
20
-20.3483117350
30
0.0000000000
10
-19.2810400124
20
-20.3481482815
30
0.0000000000
10
-19.2894135557
20
-20.3483562930
30
0.0000000000
10
-19.2876409492
20
-20.3480437347
30
0.0000000000
11
-18.9422151147
21
-20.3487998063
31
0.0000000000
11
-18.9769903016
21
-20.3487975051
31
0.0000000000
11
-19.0086993539
21
-20.3487910240
31
0.0000000000
11
-19.0375301958
21
-20.3487809662
31
0.0000000000
11
-19.0636959106
21
-20.3487678783
31
0.0000000000
11
-19.0874333206
21
-20.3487522294
31
0.0000000000
11
-19.1089921671
21
-20.3487343962
31
0.0000000000
11
-19.1286277359
21
-20.3487146489
31
0.0000000000
11
-19.1465959174
21
-20.3486931385
31
0.0000000000
11
-19.1631500622
21
-20.3486698794
31
0.0000000000
11
-19.1785386260
21
-20.3486447260
31
0.0000000000
11
-19.1930028183
21
-20.3486173373
31
0.0000000000
11
-19.2068141901
21
-20.3485870245
31
0.0000000000
11
-19.2200799391
21
-20.3485530974
31
0.0000000000
11
-19.2325838646
21
-20.3485155191
31
0.0000000000
11
-19.2440940239
21
-20.3484744525
31
0.0000000000
11
-19.2544546170
21
-20.3484299958
31
0.0000000000
11
-19.2635457375
21
-20.3483822511
31
0.0000000000
11
-19.2712574256
21
-20.3483314572
31
0.0000000000
11
-19.2775118731
21
-20.3482779280
31
0.0000000000
11
-19.2822440494
21
-20.3482223641
31
0.0000000000
11
-19.2876409492
21
-20.3480437347
31
0.0000000000
0
SPLINE
5
2C4
100
AcDbEntity
8
0
100
AcDbSpline
62
0
6
CONTINUOUS
70
0
71
3
72
13
73
9
74
7
42
0.0000001000
43
0.0000001000
44
0.0000000001
12
0.0544982303
22
-0.0379612099
32
0.0000000000
13
0.0105812365
23
-0.0609279850
33
0.0000000000
40
0.0000000000
40
0.0000000000
40
0.0000000000
40
0.0000000000
40
0.1070917172
40
0.2149638423
40
0.3598150190
40
0.5403573977
40
0.7545914386
40
1.0000000000
40
1.0000000000
40
1.0000000000
40
1.0000000000
10
-17.3068492674
20
-19.9987998063
30
0.0000000000
10
-17.3049038311
20
-20.0001549167
30
0.0000000000
10
-17.3022138029
20
-20.0036524259
30
0.0000000000
10
-17.2998581071
20
-20.0107912653
30
0.0000000000
10
-17.2973011702
20
-20.0193130000
30
0.0000000000
10
-17.2947342694
20
-20.0301554761
30
0.0000000000
10
-17.2920481065
20
-20.0430708879
30
0.0000000000
10
-17.2903480506
20
-20.0523943671
30
0.0000000000
10
-17.2894824753
20
-20.0573784501
30
0.0000000000
11
-17.3068492674
21
-19.9987998063
31
0.0000000000
11
-17.3025419117
21
-20.0038301977
31
0.0000000000
11
-17.3001299253
21
-20.0100496843
31
0.0000000000
11
-17.2975856183
21
-20.0186383376
31
0.0000000000
11
-17.2949408445
21
-20.0294852950
31
0.0000000000
11
-17.2922285655
21
-20.0424529106
31
0.0000000000
11
-17.2894824753
21
-20.0573784501
31
0.0000000000
0
SPLINE
5
2C5
100
AcDbEntity
8
0
100
AcDbSpline
62
0
6
CONTINUOUS
70
0
71
3
72
27
73
23
74
21
42
0.0000001000
43
0.0000001000
44
0.0000000001
12
-0.3401821933
22
0.0599832990
32
0.0000000000
13
0.3454300519
23
0.0000000000
33
0.0000000000
40
0.0000000000
40
0.0000000000
40
0.0000000000
40
0.0000000000
40
0.0154996861
40
0.0286686716
40
0.0458599800
40
0.0671368017
40
0.0922414294
40
0.1209733341
40
0.1535811407
40
0.1900466437
40
0.2301699530
40
0.2737010066
40
0.3208378726
40
0.3720819818
40
0.4279418705
40
0.4889157973
40
0.5554694111
40
0.6280269569
40
0.7073104263
40
0.7947067262
40
0.8917621963
40
1.0000000000
40
1.0000000000
40
1.0000000000
40
1.0000000000
10
-19.2876409492
20
20.3504441220
30
0.0000000000
10
-19.2893985216
20
20.3507540294
30
0.0000000000
10
-19.2811884520
20
20.3505504397
30
0.0000000000
10
-19.2777354781
20
20.3507075137
30
0.0000000000
10
-19.2711615234
20
20.3507242139
30
0.0000000000
10
-19.2640724622
20
20.3507847870
30
0.0000000000
10
-19.2553443903
20
20.3508264487
30
0.0000000000
10
-19.2454171490
20
20.3508712662
30
0.0000000000
10
-19.2341471560
20
20.3509117743
30
0.0000000000
10
-19.2215766234
20
20.3509503786
30
0.0000000000
10
-19.2077448383
20
20.3509861293
30
0.0000000000
10
-19.1926853852
20
20.3510192360
30
0.0000000000
10
-19.1763451110
20
20.3510497411
30
0.0000000000
10
-19.1585853462
20
20.3510778237
30
0.0000000000
10
-19.1392323006
20
20.3511035372
30
0.0000000000
10
-19.1181164724
20
20.3511268116
30
0.0000000000
10
-19.0950780136
20
20.3511474703
30
0.0000000000
10
-19.0699313306
20
20.3511652867
30
0.0000000000
10
-19.0423847483
20
20.3511800099
30
0.0000000000
10
-19.0120173911
20
20.3511912900
30
0.0000000000
10
-18.9783161336
20
20.3511985888
30
0.0000000000
10
-18.9546779781
20
20.3512001937
30
0.0000000000
10
-18.9422151147
20
20.3512001937
30
0.0000000000
11
-19.2876409492
21
20.3504441220
31
0.0000000000
11
-19.2822898508
21
20.3506220996
31
0.0000000000
11
-19.2777412071
21
20.3506760198
31
0.0000000000
11
-19.2718030376
21
20.3507277281
31
0.0000000000
11
-19.2644535509
21
20.3507772536
31
0.0000000000
11
-19.2557817841
21
20.3508240131
31
0.0000000000
11
-19.2458570176
21
20.3508678532
31
0.0000000000
11
-19.2345933773
21
20.3509092431
31
0.0000000000
11
-19.2219971567
21
20.3509481149
31
0.0000000000
11
-19.2081374070
21
20.3509842587
31
0.0000000000
11
-19.1931005097
21
20.3510175256
31
0.0000000000
11
-19.1768180483
21
20.3510481154
31
0.0000000000
11
-19.1591168154
21
20.3510762702
31
0.0000000000
11
-19.1398211484
21
20.3511020585
31
0.0000000000
11
-19.1187589346
21
20.3511254135
31
0.0000000000
11
-19.0957693257
21
20.3511461604
31
0.0000000000
11
-19.0707057753
21
20.3511640433
31
0.0000000000
11
-19.0433188863
21
20.3511788027
31
0.0000000000
11
-19.0131295801
21
20.3511901384
31
0.0000000000
11
-18.9796037048
21
20.3511975244
31
0.0000000000
11
-18.9422151147
21
20.3512001937
31
0.0000000000
0
SPLINE
5
2C6
100
AcDbEntity
8
0
100
AcDbSpline
62
0
6
CONTINUOUS
70
0
71
3
72
28
73
24
74
22
42
0.0000001000
43
0.0000001000
44
0.0000000001
12
0.3454300435
22
0.0000000000
32
0.0000000000
13
-0.3401821849
23
-0.0599832976
33
0.0000000000
40
0.0000000000
40
0.0000000000
40
0.0000000000
40
0.0000000000
40
0.1006721552
40
0.1924680299
40
0.2759316549
40
0.3516798957
40
0.4203983397
40
0.4828099750
40
0.5396538399
40
0.5916707236
40
0.6395940628
40
0.6841431247
40
0.7260161999
40
0.7659994190
40
0.8044031208
40
0.8406014253
40
0.8739228830
40
0.9039164770
40
0.9302351081
40
0.9525604834
40
0.9706674103
40
0.9843677314
40
1.0000000000
40
1.0000000000
40
1.0000000000
40
1.0000000000
10
18.8583574251
20
20.3512001937
30
0.0000000000
10
18.8699491541
20
20.3512001937
30
0.0000000000
10
18.8921105674
20
20.3511987935
30
0.0000000000
10
18.9238822614
20
20.3511924027
30
0.0000000000
10
18.9527841314
20
20.3511824214
30
0.0000000000
10
18.9790287871
20
20.3511693933
30
0.0000000000
10
19.0028494446
20
20.3511537873
30
0.0000000000
10
19.0244933864
20
20.3511359805
30
0.0000000000
10
19.0442142528
20
20.3511162447
30
0.0000000000
10
19.0622668832
20
20.3510947330
30
0.0000000000
10
19.0789038526
20
20.3510714634
30
0.0000000000
10
19.0943728015
20
20.3510462939
30
0.0000000000
10
19.1089275756
20
20.3510188729
30
0.0000000000
10
19.1227744594
20
20.3509886398
30
0.0000000000
10
19.1359689183
20
20.3509551648
30
0.0000000000
10
19.1483928941
20
20.3509179816
30
0.0000000000
10
19.1598598143
20
20.3508779727
30
0.0000000000
10
19.1701527784
20
20.3508327618
30
0.0000000000
10
19.1792920012
20
20.3507905128
30
0.0000000000
10
19.1867307748
20
20.3507277945
30
0.0000000000
10
19.1936365764
20
20.3507121223
30
0.0000000000
10
19.1971823227
20
20.3505486688
30
0.0000000000
10
19.2055558660
20
20.3507566803
30
0.0000000000
10
19.2037832596
20
20.3504441220
30
0.0000000000
11
18.8583574251
21
20.3512001937
31
0.0000000000
11
18.8931326120
21
20.3511978924
31
0.0000000000
11
18.9248416643
21
20.3511914114
31
0.0000000000
11
18.9536725062
21
20.3511813536
31
0.0000000000
11
18.9798382210
21
20.3511682656
31
0.0000000000
11
19.0035756309
21
20.3511526167
31
0.0000000000
11
19.0251344774
21
20.3511347835
31
0.0000000000
11
19.0447700462
21
20.3511150362
31
0.0000000000
11
19.0627382278
21
20.3510935258
31
0.0000000000
11
19.0792923726
21
20.3510702667
31
0.0000000000
11
19.0946809364
21
20.3510451133
31
0.0000000000
11
19.1091451286
21
20.3510177247
31
0.0000000000
11
19.1229565005
21
20.3509874118
31
0.0000000000
11
19.1362222495
21
20.3509534847
31
0.0000000000
11
19.1487261749
21
20.3509159065
31
0.0000000000
11
19.1602363342
21
20.3508748399
31
0.0000000000
11
19.1705969273
21
20.3508303831
31
0.0000000000
11
19.1796880478
21
20.3507826385
31
0.0000000000
11
19.1873997359
21
20.3507318446
31
0.0000000000
11
19.1936541834
21
20.3506783153
31
0.0000000000
11
19.1983863597
21
20.3506227514
31
0.0000000000
11
19.2037832596
21
20.3504441220
31
0.0000000000
0
SPLINE
5
2C7
100
AcDbEntity
8
0
100
AcDbSpline
62
0
6
CONTINUOUS
70
0
71
3
72
13
73
9
74
7
42
0.0000001000
43
0.0000001000
44
0.0000000001
12
-0.0573876231
22
-0.0356468683
32
0.0000000000
13
-0.0106063188
23
-0.0610724114
33
0.0000000000
40
0.0000000000
40
0.0000000000
40
0.0000000000
40
0.0000000000
40
0.1092033016
40
0.2168203264
40
0.3613289535
40
0.5414443785
40
0.7551717904
40
1.0000000000
40
1.0000000000
40
1.0000000000
40
1.0000000000
10
17.2232358104
20
-19.9988197828
30
0.0000000000
10
17.2211468378
20
-20.0001173680
30
0.0000000000
10
17.2183530203
20
-20.0035875601
30
0.0000000000
10
17.2160072544
20
-20.0107978169
30
0.0000000000
10
17.2134408768
20
-20.0193105049
30
0.0000000000
10
17.2108774995
20
-20.0301563575
30
0.0000000000
10
17.2081900912
20
-20.0430705759
30
0.0000000000
10
17.2064903610
20
-20.0523943671
30
0.0000000000
10
17.2056247856
20
-20.0573784501
30
0.0000000000
11
17.2232358104
21
-19.9988197828
31
0.0000000000
11
17.2186842220
21
-20.0038301977
31
0.0000000000
11
17.2162722356
21
-20.0100496843
31
0.0000000000
11
17.2137279286
21
-20.0186383376
31
0.0000000000
11
17.2110831548
21
-20.0294852950
31
0.0000000000
11
17.2083708759
21
-20.0424529106
31
0.0000000000
11
17.2056247856
21
-20.0573784501
31
0.0000000000
0
SPLINE
5
2C8
100
AcDbEntity
8
0
100
AcDbSpline
62
0
6
CONTINUOUS
70
0
71
3
72
27
73
23
74
21
42
0.0000001000
43
0.0000001000
44
0.0000000001
12
0.3401821933
22
-0.0599832990
32
0.0000000000
13
-0.3454300519
23
0.0000000000
33
0.0000000000
40
0.0000000000
40
0.0000000000
40
0.0000000000
40
0.0000000000
40
0.0154996861
40
0.0286686716
40
0.0458599800
40
0.0671368017
40
0.0922414294
40
0.1209733341
40
0.1535811407
40
0.1900466437
40
0.2301699530
40
0.2737010066
40
0.3208378726
40
0.3720819818
40
0.4279418705
40
0.4889157973
40
0.5554694111
40
0.6280269569
40
0.7073104263
40
0.7947067262
40
0.8917621963
40
1.0000000000
40
1.0000000000
40
1.0000000000
40
1.0000000000
10
19.2037832596
20
-20.3480437347
30
0.0000000000
10
19.2055408320
20
-20.3483536421
30
0.0000000000
10
19.1973307623
20
-20.3481500524
30
0.0000000000
10
19.1938777885
20
-20.3483071264
30
0.0000000000
10
19.1873038338
20
-20.3483238266
30
0.0000000000
10
19.1802147726
20
-20.3483843997
30
0.0000000000
10
19.1714867007
20
-20.3484260614
30
0.0000000000
10
19.1615594594
20
-20.3484708789
30
0.0000000000
10
19.1502894664
20
-20.3485113869
30
0.0000000000
10
19.1377189338
20
-20.3485499913
30
0.0000000000
10
19.1238871486
20
-20.3485857420
30
0.0000000000
10
19.1088276955
20
-20.3486188487
30
0.0000000000
10
19.0924874214
20
-20.3486493538
30
0.0000000000
10
19.0747276565
20
-20.3486774364
30
0.0000000000
10
19.0553746110
20
-20.3487031499
30
0.0000000000
10
19.0342587827
20
-20.3487264242
30
0.0000000000
10
19.0112203239
20
-20.3487470830
30
0.0000000000
10
18.9860736409
20
-20.3487648993
30
0.0000000000
10
18.9585270586
20
-20.3487796226
30
0.0000000000
10
18.9281597015
20
-20.3487909027
30
0.0000000000
10
18.8944584439
20
-20.3487982015
30
0.0000000000
10
18.8708202885
20
-20.3487998063
30
0.0000000000
10
18.8583574251
20
-20.3487998063
30
0.0000000000
11
19.2037832596
21
-20.3480437347
31
0.0000000000
11
19.1984321612
21
-20.3482217123
31
0.0000000000
11
19.1938835174
21
-20.3482756325
31
0.0000000000
11
19.1879453480
21
-20.3483273408
31
0.0000000000
11
19.1805958612
21
-20.3483768662
31
0.0000000000
11
19.1719240944
21
-20.3484236258
31
0.0000000000
11
19.1619993279
21
-20.3484674659
31
0.0000000000
11
19.1507356876
21
-20.3485088557
31
0.0000000000
11
19.1381394670
21
-20.3485477275
31
0.0000000000
11
19.1242797173
21
-20.3485838714
31
0.0000000000
11
19.1092428200
21
-20.3486171383
31
0.0000000000
11
19.0929603587
21
-20.3486477281
31
0.0000000000
11
19.0752591258
21
-20.3486758829
31
0.0000000000
11
19.0559634588
21
-20.3487016712
31
0.0000000000
11
19.0349012450
21
-20.3487250262
31
0.0000000000
11
19.0119116361
21
-20.3487457731
31
0.0000000000
11
18.9868480857
21
-20.3487636560
31
0.0000000000
11
18.9594611967
21
-20.3487784154
31
0.0000000000
11
18.9292718904
21
-20.3487897511
31
0.0000000000
11
18.8957460151
21
-20.3487971371
31
0.0000000000
11
18.8583574251
21
-20.3487998063
31
0.0000000000
0
SPLINE
5
2C9
100
AcDbEntity
8
0
100
AcDbSpline
62
0
6
CONTINUOUS
70
0
71
3
72
13
73
9
74
7
42
0.0000001000
43
0.0000001000
44
0.0000000001
12
0.0544982303
22
0.0379612099
32
0.0000000000
13
0.0105812365
23
0.0609279850
33
0.0000000000
40
0.0000000000
40
0.0000000000
40
0.0000000000
40
0.0000000000
40
0.1070917172
40
0.2149638423
40
0.3598150190
40
0.5403573977
40
0.7545914386
40
1.0000000000
40
1.0000000000
40
1.0000000000
40
1.0000000000
10
-17.3068492674
20
20.0012001937
30
0.0000000000
10
-17.3049038311
20
20.0025553040
30
0.0000000000
10
-17.3022138029
20
20.0060528132
30
0.0000000000
10
-17.2998581071
20
20.0131916527
30
0.0000000000
10
-17.2973011702
20
20.0217133873
30
0.0000000000
10
-17.2947342694
20
20.0325558634
30
0.0000000000
10
-17.2920481065
20
20.0454712753
30
0.0000000000
10
-17.2903480506
20
20.0547947544
30
0.0000000000
10
-17.2894824753
20
20.0597788374
30
0.0000000000
11
-17.3068492674
21
20.0012001937
31
0.0000000000
11
-17.3025419117
21
20.0062305850
31
0.0000000000
11
-17.3001299253
21
20.0124500716
31
0.0000000000
11
-17.2975856183
21
20.0210387249
31
0.0000000000
11
-17.2949408445
21
20.0318856823
31
0.0000000000
11
-17.2922285655
21
20.0448532979
31
0.0000000000
11
-17.2894824753
21
20.0597788374
31
0.0000000000
0
SPLINE
5
2CA
100
AcDbEntity
8
0
100
AcDbSpline
62
0
6
CONTINUOUS
70
0
71
3
72
13
73
9
74
7
42
0.0000001000
43
0.0000001000
44
0.0000000001
12
-0.0544982303
22
0.0379612099
32
0.0000000000
13
-0.0105812365
23
0.0609279850
33
0.0000000000
40
0.0000000000
40
0.0000000000
40
0.0000000000
40
0.0000000000
40
0.1070917172
40
0.2149638423
40
0.3598150190
40
0.5403573977
40
0.7545914386
40
1.0000000000
40
1.0000000000
40
1.0000000000
40
1.0000000000
10
17.2229915778
20
20.0012001937
30
0.0000000000
10
17.2210461414
20
20.0025553040
30
0.0000000000
10
17.2183561133
20
20.0060528132
30
0.0000000000
10
17.2160004175
20
20.0131916527
30
0.0000000000
10
17.2134434805
20
20.0217133873
30
0.0000000000
10
17.2108765797
20
20.0325558634
30
0.0000000000
10
17.2081904168
20
20.0454712753
30
0.0000000000
10
17.2064903610
20
20.0547947544
30
0.0000000000
10
17.2056247856
20
20.0597788374
30
0.0000000000
11
17.2229915778
21
20.0012001937
31
0.0000000000
11
17.2186842220
21
20.0062305850
31
0.0000000000
11
17.2162722356
21
20.0124500716
31
0.0000000000
11
17.2137279286
21
20.0210387249
31
0.0000000000
11
17.2110831548
21
20.0318856823
31
0.0000000000
11
17.2083708759
21
20.0448532979
31
0.0000000000
11
17.2056247856
21
20.0597788374
31
0.0000000000
0
ENDSEC
0
SECTION
2
OBJECTS
0
DICTIONARY
5
C
100
AcDbDictionary
280
0
281
1
3
ACAD_GROUP
350
D
3
ACAD_MLINESTYLE
350
17
3
ACAD_LAYOUT
350
1A
3
ACAD_PLOTSETTINGS
350
19
3
ACAD_PLOTSTYLENAME
350
E
0
DICTIONARY
5
D
102
{ACAD_REACTORS
330
C
102
}
100
AcDbDictionary
280
0
281
1
0
ACDBDICTIONARYWDFLT
5
E
102
{ACAD_REACTORS
330
C
102
}
100
AcDbDictionary
281
1
3
Normal
350
F
100
AcDbDictionaryWithDefault
340
F
0
DICTIONARY
5
17
102
{ACAD_REACTORS
330
C
102
}
100
AcDbDictionary
280
0
281
1
3
Standard
350
18
0
DICTIONARY
5
19
102
{ACAD_REACTORS
330
C
102
}
100
AcDbDictionary
281
1
0
DICTIONARY
5
1A
102
{ACAD_REACTORS
330
C
102
}
100
AcDbDictionary
281
1
3
Layout1
350
1E
3
Model
350
22
0
ACDBPLACEHOLDER
5
F
102
{ACAD_REACTORS
330
E
102
}
0
MLINESTYLE
5
18
102
{ACAD_REACTORS
330
17
102
}
100
AcDbMlineStyle
2
STANDARD
70
0
3

62
256
51
90.0
52
90.0
71
2
49
0.5
62
256
6
BYLAYER
49
-0.5
62
256
6
BYLAYER
0
LAYOUT
5
1E
102
{ACAD_REACTORS
330
1A
102
}
100
AcDbPlotSettings
1

2

4

6

40
0.0
41
0.0
42
0.0
43
0.0
44
0.0
45
0.0
46
0.0
47
0.0
48
0.0
49
0.0
140
0.0
141
0.0
142
1.0
143
1.0
70
0
72
0
73
0
74
0
7

75
0
147
1.0
148
0.0
149
0.0
100
AcDbLayout
1
Layout1
70
0
71
0
10
0.0
20
0.0
11
0.0
21
0.0
12
0.0
22
0.0
32
0.0
14
0.0
24
0.0
34
0.0
15
0.0
25
0.0
35
0.0
146
0.0
13
0.0
23
0.0
33
0.0
16
0.0
26
0.0
36
0.0
17
0.0
27
0.0
37
0.0
76
0
330
1B
331
0
345
0
346
0
0
LAYOUT
5
22
102
{ACAD_REACTORS
330
1A
102
}
100
AcDbPlotSettings
1

2

4

6

40
0.0
41
0.0
42
0.0
43
0.0
44
0.0
45
0.0
46
0.0
47
0.0
48
0.0
49
0.0
140
0.0
141
0.0
142
1.0
143
1.0
70
0
72
0
73
0
74
0
7

75
0
147
1.0
148
0.0
149
0.0
100
AcDbLayout
1
Model
70
0
71
0
10
0.0
20
0.0
11
0.0
21
0.0
12
0.0
22
0.0
32
0.0
14
0.0
24
0.0
34
0.0
15
0.0
25
0.0
35
0.0
146
0.0
13
0.0
23
0.0
33
0.0
16
0.0
26
0.0
36
0.0
17
0.0
27
0.0
37
0.0
76
0
330
1F
331
0
345
0
346
0
0
ENDSEC
0
EOF
