  0
SECTION
  2
HEADER
  9
$ACADVER
  1
AC1015
  9
$DWGCODEPAGE
  3
ANSI_1252
  9
$EXTMAX
 10
297.0
 20
210.0
 30
0.0
  9
$EXTMIN
 10
0.0
 20
0.0
 30
0.0
  9
$LIMMIN
 10
0.0
 20
0.0
  9
$LIMMAX
 10
297.0
 20
210.0
  9
$VIEWCTR
 10
148.5
 20
105.0
  9
$VIEWSIZE
 40
210.0
  9
$CLAYER
  8
0
  9
$LTSCALE
 40
16.335
  9
$CELTYPE
  6
BYLAYER
  9
$DIMSCALE
 40
1.0
  9
$DIMASZ
 40
3.0
  9
$DIMEXO
 40
0.5
  9
$DIMDLI
 40
11.286
  9
$DIMEXE
 40
1.5
  9
$DIMCEN
 40
2.673
  9
$DIMLFAC
 40
1.0
  9
$DIMBLK
  1
_FILLED
  9
$DIMTXT
 40
3.0
  9
$DIMTOL
 70
1
  9
$DIMLIM
 70
0
  9
$DIMTFAC
 40
1.0
  9
$DIMTP
 40
0.01
  9
$DIMTM
 40
0.01
  9
$DIMGAP
 40
0.625
  9
$DIMDSEP
 70
44
  9
$PDMODE
 70
3
  9
$PDSIZE
 40
3.0
  9
$HANDSEED
  5
50B
  9
$TILEMODE
 70
1
  9
$MEASUREMENT
 70
1
  9
$INSUNITS
 70
4
  0
ENDSEC
  0
SECTION
  2
CLASSES
  0
CLASS
  1
ACDBDICTIONARYWDFLT
  2
AcDbDictionaryWithDefault
  3
AutoCAD 2000
 90
0
280
0
281
0
  0
CLASS
  1
ACDBPLACEHOLDER
  2
AcDbPlaceHolder
  3
AutoCAD 2000
 90
0
280
0
281
0
  0
CLASS
  1
LAYOUT
  2
AcDbLayout
  3
AutoCAD 2000
 90
0
280
0
281
0
  0
ENDSEC
  0
SECTION
  2
TABLES
  0
TABLE
  2
VPORT
  5
8
100
AcDbSymbolTable
 70
2
  0
VPORT
  5
1F4
100
AcDbSymbolTableRecord
100
AcDbViewportTableRecord
  2
*ACTIVE
 70
0
 10
0.0
 20
0.0
 11
1.0
 21
1.0
 12
148.5
 22
105.0
 13
0.0
 23
0.0
 14
1.0
 24
1.0
 15
0.0
 25
0.0
 16
0.0
 26
0.0
 36
1.0
 17
0.0
 27
0.0
 37
0.0
 40
210.0
 41
1.4142857143
 42
50.0
 43
0.0
 44
0.0
 50
0.0
 51
0.0
 71
0
 72
100
 73
1
 74
1
 75
0
 76
0
 77
0
 78
0
  0
ENDTAB
  0
TABLE
  2
LTYPE
  5
5
100
AcDbSymbolTable
 70
6
  0
LTYPE
  5
14
100
AcDbSymbolTableRecord
100
AcDbLinetypeTableRecord
  2
BYBLOCK
 70
0
  3

 72
65
 73
0
 40
0.0
  0
LTYPE
  5
15
100
AcDbSymbolTableRecord
100
AcDbLinetypeTableRecord
  2
BYLAYER
 70
0
  3

 72
65
 73
0
 40
0.0
  0
LTYPE
  5
16
100
AcDbSymbolTableRecord
100
AcDbLinetypeTableRecord
  2
CONTINUOUS
 70
64
  3
Solid line
 72
65
 73
0
 40
0.0
  0
LTYPE
  5
1F5
100
AcDbSymbolTableRecord
100
AcDbLinetypeTableRecord
  2
CENTER
 70
64
  3
____ _ ____ _ ____ _ ____ _ ____ _ ____ _ ____
 72
65
 73
4
 40
0.6
 49
0.375
 74
0
 49
-0.075
 74
0
 49
0.075
 74
0
 49
-0.075
 74
0
  0
LTYPE
  5
1F6
100
AcDbSymbolTableRecord
100
AcDbLinetypeTableRecord
  2
HIDDEN
 70
64
  3
- - - - - - - - - - - - - - - - - - - -
 72
65
 73
2
 40
0.2
 49
0.1
 74
0
 49
-0.1
 74
0
  0
LTYPE
  5
1F7
100
AcDbSymbolTableRecord
100
AcDbLinetypeTableRecord
  2
PHANTOM
 70
64
  3
_____ _ _ _____ _ _ _____ _ _ _____
 72
65
 73
6
 40
0.8
 49
0.45
 74
0
 49
-0.05
 74
0
 49
0.1
 74
0
 49
-0.05
 74
0
 49
0.1
 74
0
 49
-0.05
 74
0
  0
LTYPE
  5
1F8
100
AcDbSymbolTableRecord
100
AcDbLinetypeTableRecord
  2
DOT
 70
64
  3
. . . . . . . . . . . . . . . . . . . .
 72
65
 73
2
 40
0.2
 49
0.1
 74
0
 49
-0.1
 74
0
  0
LTYPE
  5
1F9
100
AcDbSymbolTableRecord
100
AcDbLinetypeTableRecord
  2
DASHED
 70
64
  3
- - - - - - - - - - - - - - - - - - - -
 72
65
 73
2
 40
0.2
 49
0.1
 74
0
 49
-0.1
 74
0
  0
ENDTAB
  0
TABLE
  2
LAYER
  5
2
100
AcDbSymbolTable
 70
36
  0
LAYER
  5
10
100
AcDbSymbolTableRecord
100
AcDbLayerTableRecord
  2
0
 70
0
 62
7
  6
CONTINUOUS
370
-3
390
F
  0
LAYER
  5
1FA
100
AcDbSymbolTableRecord
100
AcDbLayerTableRecord
  2
DEFAULT_1
 70
0
 62
7
  6
CENTER
370
-3
390
F
  0
LAYER
  5
1FB
100
AcDbSymbolTableRecord
100
AcDbLayerTableRecord
  2
DEFAULT_2
 70
0
 62
7
  6
HIDDEN
370
-3
390
F
  0
LAYER
  5
1FC
100
AcDbSymbolTableRecord
100
AcDbLayerTableRecord
  2
DEFAULT_3
 70
0
 62
7
  6
PHANTOM
370
-3
390
F
  0
LAYER
  5
1FD
100
AcDbSymbolTableRecord
100
AcDbLayerTableRecord
  2
ASSI
 70
0
 62
7
  6
CONTINUOUS
370
-3
390
F
  0
LAYER
  5
1FE
100
AcDbSymbolTableRecord
100
AcDbLayerTableRecord
  2
COORDINATE
 70
0
 62
7
  6
CONTINUOUS
370
-3
390
F
  0
LAYER
  5
1FF
100
AcDbSymbolTableRecord
100
AcDbLayerTableRecord
  2
COORD_ORIGINE
 70
0
 62
7
  6
CONTINUOUS
370
-3
390
F
  0
LAYER
  5
200
100
AcDbSymbolTableRecord
100
AcDbLayerTableRecord
  2
COPY_PUBLISH
 70
0
 62
7
  6
CONTINUOUS
370
-3
390
F
  0
LAYER
  5
201
100
AcDbSymbolTableRecord
100
AcDbLayerTableRecord
  2
COSMETICI
 70
0
 62
7
  6
CONTINUOUS
370
-3
390
F
  0
LAYER
  5
202
100
AcDbSymbolTableRecord
100
AcDbLayerTableRecord
  2
CURVE
 70
0
 62
7
  6
CONTINUOUS
370
-3
390
F
  0
LAYER
  5
203
100
AcDbSymbolTableRecord
100
AcDbLayerTableRecord
  2
CURVE_LED_TASTO
 70
0
 62
7
  6
CONTINUOUS
370
-3
390
F
  0
LAYER
  5
204
100
AcDbSymbolTableRecord
100
AcDbLayerTableRecord
  2
DRAFT
 70
0
 62
7
  6
CONTINUOUS
370
-3
390
F
  0
LAYER
  5
205
100
AcDbSymbolTableRecord
100
AcDbLayerTableRecord
  2
IGES_SCRITTE
 70
0
 62
7
  6
CONTINUOUS
370
-3
390
F
  0
LAYER
  5
206
100
AcDbSymbolTableRecord
100
AcDbLayerTableRecord
  2
IMPORT_IGES
 70
0
 62
7
  6
CONTINUOUS
370
-3
390
F
  0
LAYER
  5
207
100
AcDbSymbolTableRecord
100
AcDbLayerTableRecord
  2
NOTE
 70
0
 62
7
  6
CONTINUOUS
370
-3
390
F
  0
LAYER
  5
208
100
AcDbSymbolTableRecord
100
AcDbLayerTableRecord
  2
PIANI
 70
0
 62
7
  6
CONTINUOUS
370
-3
390
F
  0
LAYER
  5
209
100
AcDbSymbolTableRecord
100
AcDbLayerTableRecord
  2
PIANI_ORIGINE
 70
0
 62
7
  6
CONTINUOUS
370
-3
390
F
  0
LAYER
  5
20A
100
AcDbSymbolTableRecord
100
AcDbLayerTableRecord
  2
PIANI_RIFERIMENTO
 70
0
 62
7
  6
CONTINUOUS
370
-3
390
F
  0
LAYER
  5
20B
100
AcDbSymbolTableRecord
100
AcDbLayerTableRecord
  2
PUNTI
 70
0
 62
7
  6
CONTINUOUS
370
-3
390
F
  0
LAYER
  5
20C
100
AcDbSymbolTableRecord
100
AcDbLayerTableRecord
  2
RACCORDO
 70
0
 62
7
  6
CONTINUOUS
370
-3
390
F
  0
LAYER
  5
20D
100
AcDbSymbolTableRecord
100
AcDbLayerTableRecord
  2
SIMBOLI
 70
0
 62
7
  6
CONTINUOUS
370
-3
390
F
  0
LAYER
  5
20E
100
AcDbSymbolTableRecord
100
AcDbLayerTableRecord
  2
SMUSSO
 70
0
 62
7
  6
CONTINUOUS
370
-3
390
F
  0
LAYER
  5
20F
100
AcDbSymbolTableRecord
100
AcDbLayerTableRecord
  2
SNAPLINE
 70
0
 62
7
  6
CONTINUOUS
370
-3
390
F
  0
LAYER
  5
210
100
AcDbSymbolTableRecord
100
AcDbLayerTableRecord
  2
SUPERFICI
 70
0
 62
7
  6
CONTINUOUS
370
-3
390
F
  0
LAYER
  5
211
100
AcDbSymbolTableRecord
100
AcDbLayerTableRecord
  2
TRASH
 70
0
 62
7
  6
CONTINUOUS
370
-3
390
F
  0
ENDTAB
  0
TABLE
  2
STYLE
  5
3
100
AcDbSymbolTable
 70
1
  0
STYLE
  5
11
100
AcDbSymbolTableRecord
100
AcDbTextStyleTableRecord
  2
STANDARD
 70
0
 40
0.0
 41
0.8
 50
0.0
 71
0
 42
0.2
  3
txt
  4

  0
STYLE
  5
212
100
AcDbSymbolTableRecord
100
AcDbTextStyleTableRecord
  2
TEXTSTYLE_1
 70
0
 40
0.0
 41
0.8
 50
0.0
 71
0
 42
0.2
  3
gdt
  4

  0
ENDTAB
  0
TABLE
  2
VIEW
  5
6
100
AcDbSymbolTable
 70
0
  0
ENDTAB
  0
TABLE
  2
UCS
  5
7
100
AcDbSymbolTable
 70
0
  0
ENDTAB
  0
TABLE
  2
APPID
  5
9
100
AcDbSymbolTable
 70
1
  0
APPID
  5
213
100
AcDbSymbolTableRecord
100
AcDbRegAppTableRecord
  2
ACAD
 70
0
  0
ENDTAB
  0
TABLE
  2
BLOCK_RECORD
  5
1
100
AcDbSymbolTable
 70
0
  0
BLOCK_RECORD
  5
214
100
AcDbSymbolTableRecord
100
AcDbBlockTableRecord
  2
*Model_Space
  0
BLOCK_RECORD
  5
215
100
AcDbSymbolTableRecord
100
AcDbBlockTableRecord
  2
*Paper_Space
  0
ENDTAB
  0
TABLE
  2
DIMSTYLE
  5
A
100
AcDbSymbolTable
 70
1
100
AcDbDimStyleTable
 71
0
  0
DIMSTYLE
105
216
100
AcDbSymbolTableRecord
100
AcDbDimStyleTableRecord
  2
STANDARD
 70
0
  3

  4

 40
1.0
 41
3.0
 42
0.5
 43
0.38
 44
1.5
 45
0.0
 46
0.0
 47
0.01
 48
0.01
140
3.0
141
0.09
142
0.0
143
25.4
144
1.0
145
0.0
146
1.0
147
0.625
 71
1.0
 72
0.0
 73
0
 74
0
 75
0
 76
0
 77
1
 78
8
170
0
171
2
172
0
173
0
174
0
175
0
176
0
177
0
178
0
270
2
271
2
272
2
273
2
274
2
275
0
280
0
281
0
282
0
283
1
284
8
285
0
286
0
287
3
288
0
340
11
278
44
  0
ENDTAB
  0
ENDSEC
  0
SECTION
  2
BLOCKS
  0
BLOCK
  5
20
100
AcDbEntity
  8
0
100
AcDbBlockBegin
  2
*Model_Space
 70
0
 10
0.0
 20
0.0
 30
0.0
  3
*Model_Space
  1

  0
ENDBLK
  5
21
100
AcDbEntity
  8
0
100
AcDbBlockEnd
  0
BLOCK
  5
1C
100
AcDbEntity
  8
0
100
AcDbBlockBegin
  2
*Paper_Space
 70
0
 10
0.0
 20
0.0
 30
0.0
  3
*Paper_Space
  1

  0
ENDBLK
  5
1D
100
AcDbEntity
  8
0
100
AcDbBlockEnd
  0
ENDSEC
  0
SECTION
  2
ENTITIES
  0
LINE
  5
217
100
AcDbEntity
  8
RACCORDO
100
AcDbLine
 62
7
  6
CONTINUOUS
 10
-44.7527004082
 20
-1.9386867418
 11
-44.7527004082
 21
40.7615569459
  0
LINE
  5
218
100
AcDbEntity
  8
ASSI
100
AcDbLine
 62
7
  6
CONTINUOUS
 10
-44.7527004082
 20
-1.9386867418
 11
-44.7527004082
 21
40.7615569459
  0
LINE
  5
219
100
AcDbEntity
  8
0
100
AcDbLine
 62
7
  6
CONTINUOUS
 10
-44.0527004082
 20
22.361435102
 11
-44.0527004082
 21
19.461435102
  0
LINE
  5
21A
100
AcDbEntity
  8
ASSI
100
AcDbLine
 62
7
  6
CONTINUOUS
 10
-44.0527004082
 20
22.361435102
 11
-44.0527004082
 21
19.461435102
  0
LINE
  5
21B
100
AcDbEntity
  8
DRAFT
100
AcDbLine
 62
7
  6
CONTINUOUS
 10
-28.1634699236
 20
-1.6992939929
 11
-33.3027004082
 21
-1.7016159444
  0
LINE
  5
21C
100
AcDbEntity
  8
ASSI
100
AcDbLine
 62
7
  6
CONTINUOUS
 10
-28.1634699236
 20
-1.6992939929
 11
-33.3027004082
 21
-1.7016159444
  0
LINE
  5
21D
100
AcDbEntity
  8
DRAFT
100
AcDbLine
 62
7
  6
CONTINUOUS
 10
-38.3027004082
 20
-1.7038749903
 11
-39.7527004082
 21
-1.7045301136
  0
LINE
  5
21E
100
AcDbEntity
  8
ASSI
100
AcDbLine
 62
7
  6
CONTINUOUS
 10
-38.3027004082
 20
-1.7038749903
 11
-39.7527004082
 21
-1.7045301136
  0
LINE
  5
21F
100
AcDbEntity
  8
RACCORDO
100
AcDbLine
 62
7
  6
CONTINUOUS
 10
-43.952822252
 20
-2.738564898
 11
-23.2527004082
 21
-2.738564898
  0
LINE
  5
220
100
AcDbEntity
  8
ASSI
100
AcDbLine
 62
7
  6
CONTINUOUS
 10
-43.952822252
 20
-2.738564898
 11
-23.2527004082
 21
-2.738564898
  0
LINE
  5
221
100
AcDbEntity
  8
RACCORDO
100
AcDbLine
 62
7
  6
CONTINUOUS
 10
-22.5527004082
 20
-2.738564898
 11
-1.8525785643
 21
-2.738564898
  0
LINE
  5
222
100
AcDbEntity
  8
ASSI
100
AcDbLine
 62
7
  6
CONTINUOUS
 10
-22.5527004082
 20
-2.738564898
 11
-1.8525785643
 21
-2.738564898
  0
LINE
  5
223
100
AcDbEntity
  8
0
100
AcDbLine
 62
7
  6
CONTINUOUS
 10
-22.7527004082
 20
-2.3385039667
 11
-23.0527004082
 21
-2.3385039667
  0
LINE
  5
224
100
AcDbEntity
  8
ASSI
100
AcDbLine
 62
7
  6
CONTINUOUS
 10
-22.7527004082
 20
-2.3385039667
 11
-23.0527004082
 21
-2.3385039667
  0
LINE
  5
225
100
AcDbEntity
  8
DRAFT
100
AcDbLine
 62
7
  6
CONTINUOUS
 10
-43.2527004082
 20
-1.738564898
 11
-2.5527004082
 21
-1.738564898
  0
LINE
  5
226
100
AcDbEntity
  8
ASSI
100
AcDbLine
 62
7
  6
CONTINUOUS
 10
-43.2527004082
 20
-1.738564898
 11
-2.5527004082
 21
-1.738564898
  0
LINE
  5
227
100
AcDbEntity
  8
DRAFT
100
AcDbLine
 62
7
  6
CONTINUOUS
 10
-43.2273854938
 20
-1.7045301136
 11
-39.7527004082
 21
-1.7045301136
  0
LINE
  5
228
100
AcDbEntity
  8
ASSI
100
AcDbLine
 62
7
  6
CONTINUOUS
 10
-43.2273854938
 20
-1.7045301136
 11
-39.7527004082
 21
-1.7045301136
  0
LINE
  5
229
100
AcDbEntity
  8
DRAFT
100
AcDbLine
 62
7
  6
CONTINUOUS
 10
-6.0527004082
 20
-1.7045301136
 11
-2.5780153225
 21
-1.7045301136
  0
LINE
  5
22A
100
AcDbEntity
  8
ASSI
100
AcDbLine
 62
7
  6
CONTINUOUS
 10
-6.0527004082
 20
-1.7045301136
 11
-2.5780153225
 21
-1.7045301136
  0
LINE
  5
22B
100
AcDbEntity
  8
DRAFT
100
AcDbLine
 62
7
  6
CONTINUOUS
 10
-17.6419308927
 20
-1.6992939929
 11
-28.1634699236
 21
-1.6992939929
  0
LINE
  5
22C
100
AcDbEntity
  8
ASSI
100
AcDbLine
 62
7
  6
CONTINUOUS
 10
-17.6419308927
 20
-1.6992939929
 11
-28.1634699236
 21
-1.6992939929
  0
LINE
  5
22D
100
AcDbEntity
  8
DRAFT
100
AcDbLine
 62
7
  6
CONTINUOUS
 10
-38.3027004082
 20
-1.694930559
 11
-33.3027004082
 21
-1.694930559
  0
LINE
  5
22E
100
AcDbEntity
  8
ASSI
100
AcDbLine
 62
7
  6
CONTINUOUS
 10
-38.3027004082
 20
-1.694930559
 11
-33.3027004082
 21
-1.694930559
  0
LINE
  5
22F
100
AcDbEntity
  8
DRAFT
100
AcDbLine
 62
7
  6
CONTINUOUS
 10
-12.5027004082
 20
-1.694930559
 11
-7.5027004082
 21
-1.694930559
  0
LINE
  5
230
100
AcDbEntity
  8
ASSI
100
AcDbLine
 62
7
  6
CONTINUOUS
 10
-12.5027004082
 20
-1.694930559
 11
-7.5027004082
 21
-1.694930559
  0
LINE
  5
231
100
AcDbEntity
  8
DRAFT
100
AcDbLine
 62
7
  6
CONTINUOUS
 10
-6.0527004082
 20
-1.7045301136
 11
-7.5027004082
 21
-1.7038749903
  0
LINE
  5
232
100
AcDbEntity
  8
ASSI
100
AcDbLine
 62
7
  6
CONTINUOUS
 10
-6.0527004082
 20
-1.7045301136
 11
-7.5027004082
 21
-1.7038749903
  0
LINE
  5
233
100
AcDbEntity
  8
DRAFT
100
AcDbLine
 62
7
  6
CONTINUOUS
 10
-12.5027004082
 20
-1.7016159444
 11
-17.6419308927
 21
-1.6992939929
  0
LINE
  5
234
100
AcDbEntity
  8
ASSI
100
AcDbLine
 62
7
  6
CONTINUOUS
 10
-12.5027004082
 20
-1.7016159444
 11
-17.6419308927
 21
-1.6992939929
  0
LINE
  5
235
100
AcDbEntity
  8
DRAFT
100
AcDbLine
 62
7
  6
CONTINUOUS
 10
-43.2527004082
 20
-1.738564898
 11
-43.2527004082
 21
2.661435102
  0
LINE
  5
236
100
AcDbEntity
  8
0
100
AcDbLine
 62
7
  6
CONTINUOUS
 10
-43.2527004082
 20
2.661435102
 11
-43.2527004082
 21
19.061435102
  0
LINE
  5
237
100
AcDbEntity
  8
ASSI
100
AcDbLine
 62
7
  6
CONTINUOUS
 10
-43.2527004082
 20
-1.738564898
 11
-43.2527004082
 21
19.061435102
  0
LINE
  5
238
100
AcDbEntity
  8
0
100
AcDbLine
 62
7
  6
CONTINUOUS
 10
-43.2527004082
 20
22.761435102
 11
-43.2527004082
 21
36.161435102
  0
LINE
  5
239
100
AcDbEntity
  8
DRAFT
100
AcDbLine
 62
7
  6
CONTINUOUS
 10
-43.2527004082
 20
36.161435102
 11
-43.2527004082
 21
40.561435102
  0
LINE
  5
23A
100
AcDbEntity
  8
ASSI
100
AcDbLine
 62
7
  6
CONTINUOUS
 10
-43.2527004082
 20
22.761435102
 11
-43.2527004082
 21
40.561435102
  0
LINE
  5
23B
100
AcDbEntity
  8
0
100
AcDbLine
 62
7
  6
CONTINUOUS
 10
-43.2483369743
 20
22.761435102
 11
-43.2483369743
 21
20.9157985359
  0
LINE
  5
23C
100
AcDbEntity
  8
ASSI
100
AcDbLine
 62
7
  6
CONTINUOUS
 10
-43.2483369743
 20
22.761435102
 11
-43.2483369743
 21
20.9157985359
  0
LINE
  5
23D
100
AcDbEntity
  8
0
100
AcDbLine
 62
7
  6
CONTINUOUS
 10
-43.2483369743
 20
19.0570716681
 11
-43.2483369743
 21
19.061435102
  0
LINE
  5
23E
100
AcDbEntity
  8
DRAFT
100
AcDbLine
 62
7
  6
CONTINUOUS
 10
-43.2273854938
 20
40.5361201877
 11
-43.2273854938
 21
38.661435102
  0
LINE
  5
23F
100
AcDbEntity
  8
ASSI
100
AcDbLine
 62
7
  6
CONTINUOUS
 10
-43.2273854938
 20
40.5361201877
 11
-43.2273854938
 21
38.661435102
  0
LINE
  5
240
100
AcDbEntity
  8
DRAFT
100
AcDbLine
 62
7
  6
CONTINUOUS
 10
-43.2273854938
 20
36.161435102
 11
-43.2273854938
 21
35.061435102
  0
LINE
  5
241
100
AcDbEntity
  8
ASSI
100
AcDbLine
 62
7
  6
CONTINUOUS
 10
-43.2273854938
 20
36.161435102
 11
-43.2273854938
 21
35.061435102
  0
LINE
  5
242
100
AcDbEntity
  8
DRAFT
100
AcDbLine
 62
7
  6
CONTINUOUS
 10
-43.2273854938
 20
3.761435102
 11
-43.2273854938
 21
2.661435102
  0
LINE
  5
243
100
AcDbEntity
  8
ASSI
100
AcDbLine
 62
7
  6
CONTINUOUS
 10
-43.2273854938
 20
3.761435102
 11
-43.2273854938
 21
2.661435102
  0
LINE
  5
244
100
AcDbEntity
  8
DRAFT
100
AcDbLine
 62
7
  6
CONTINUOUS
 10
-43.2273854938
 20
0.161435102
 11
-43.2273854938
 21
-1.7132499836
  0
LINE
  5
245
100
AcDbEntity
  8
ASSI
100
AcDbLine
 62
7
  6
CONTINUOUS
 10
-43.2273854938
 20
0.161435102
 11
-43.2273854938
 21
-1.7132499836
  0
LINE
  5
246
100
AcDbEntity
  8
0
100
AcDbLine
 62
7
  6
CONTINUOUS
 10
-43.2186656238
 20
3.761435102
 11
-43.2186656238
 21
19.0274003177
  0
LINE
  5
247
100
AcDbEntity
  8
ASSI
100
AcDbLine
 62
7
  6
CONTINUOUS
 10
-43.2186656238
 20
3.761435102
 11
-43.2186656238
 21
19.0274003177
  0
LINE
  5
248
100
AcDbEntity
  8
DRAFT
100
AcDbLine
 62
7
  6
CONTINUOUS
 10
-43.2186656238
 20
20.9454698864
 11
-43.2186656238
 21
35.061435102
  0
LINE
  5
249
100
AcDbEntity
  8
ASSI
100
AcDbLine
 62
7
  6
CONTINUOUS
 10
-43.2186656238
 20
20.9454698864
 11
-43.2186656238
 21
35.061435102
  0
LINE
  5
24A
100
AcDbEntity
  8
0
100
AcDbLine
 62
7
  6
CONTINUOUS
 10
-42.8527004082
 20
2.1463837389
 11
-42.8527004082
 21
2.661435102
  0
LINE
  5
24B
100
AcDbEntity
  8
ASSI
100
AcDbLine
 62
7
  6
CONTINUOUS
 10
-42.8527004082
 20
2.1463837389
 11
-42.8527004082
 21
2.661435102
  0
LINE
  5
24C
100
AcDbEntity
  8
0
100
AcDbLine
 62
7
  6
CONTINUOUS
 10
-42.8527004082
 20
36.161435102
 11
-42.8527004082
 21
36.6764864652
  0
LINE
  5
24D
100
AcDbEntity
  8
ASSI
100
AcDbLine
 62
7
  6
CONTINUOUS
 10
-42.8527004082
 20
36.161435102
 11
-42.8527004082
 21
36.6764864652
  0
LINE
  5
24E
100
AcDbEntity
  8
0
100
AcDbLine
 62
7
  6
CONTINUOUS
 10
-42.6483369743
 20
20.2570545317
 11
-42.6483369743
 21
20.9157985359
  0
LINE
  5
24F
100
AcDbEntity
  8
ASSI
100
AcDbLine
 62
7
  6
CONTINUOUS
 10
-42.6483369743
 20
20.2570545317
 11
-42.6483369743
 21
20.9157985359
  0
LINE
  5
250
100
AcDbEntity
  8
0
100
AcDbLine
 62
7
  6
CONTINUOUS
 10
-42.6186656238
 20
20.2273831812
 11
-42.6186656238
 21
20.9454698864
  0
LINE
  5
251
100
AcDbEntity
  8
ASSI
100
AcDbLine
 62
7
  6
CONTINUOUS
 10
-42.6186656238
 20
20.2273831812
 11
-42.6186656238
 21
20.9454698864
  0
LINE
  5
252
100
AcDbEntity
  8
0
100
AcDbLine
 62
7
  6
CONTINUOUS
 10
-7.5027004082
 20
-0.588564898
 11
-12.5027004082
 21
-0.588564898
  0
LINE
  5
253
100
AcDbEntity
  8
ASSI
100
AcDbLine
 62
7
  6
CONTINUOUS
 10
-7.5027004082
 20
-0.588564898
 11
-12.5027004082
 21
-0.588564898
  0
LINE
  5
254
100
AcDbEntity
  8
0
100
AcDbLine
 62
7
  6
CONTINUOUS
 10
-33.3027004082
 20
-0.588564898
 11
-38.3027004082
 21
-0.588564898
  0
LINE
  5
255
100
AcDbEntity
  8
ASSI
100
AcDbLine
 62
7
  6
CONTINUOUS
 10
-33.3027004082
 20
-0.588564898
 11
-38.3027004082
 21
-0.588564898
  0
LINE
  5
256
100
AcDbEntity
  8
DRAFT
100
AcDbLine
 62
7
  6
CONTINUOUS
 10
-43.2527004082
 20
0.161435102
 11
-43.2027004082
 21
0.161435102
  0
LINE
  5
257
100
AcDbEntity
  8
ASSI
100
AcDbLine
 62
7
  6
CONTINUOUS
 10
-43.2527004082
 20
0.161435102
 11
-43.2027004082
 21
0.161435102
  0
LINE
  5
258
100
AcDbEntity
  8
DRAFT
100
AcDbLine
 62
7
  6
CONTINUOUS
 10
-2.6027004082
 20
0.161435102
 11
-2.5527004082
 21
0.161435102
  0
LINE
  5
259
100
AcDbEntity
  8
ASSI
100
AcDbLine
 62
7
  6
CONTINUOUS
 10
-2.6027004082
 20
0.161435102
 11
-2.5527004082
 21
0.161435102
  0
LINE
  5
25A
100
AcDbEntity
  8
DRAFT
100
AcDbLine
 62
7
  6
CONTINUOUS
 10
-39.7527004082
 20
-1.7045301136
 11
-39.7527004082
 21
40.5274003177
  0
LINE
  5
25B
100
AcDbEntity
  8
ASSI
100
AcDbLine
 62
7
  6
CONTINUOUS
 10
-39.7527004082
 20
-1.7045301136
 11
-39.7527004082
 21
40.5274003177
  0
LINE
  5
25C
100
AcDbEntity
  8
0
100
AcDbLine
 62
7
  6
CONTINUOUS
 10
-43.2027004082
 20
0.161435102
 11
-42.8527004082
 21
2.1463837389
  0
LINE
  5
25D
100
AcDbEntity
  8
ASSI
100
AcDbLine
 62
7
  6
CONTINUOUS
 10
-43.2027004082
 20
0.161435102
 11
-42.8527004082
 21
2.1463837389
  0
LINE
  5
25E
100
AcDbEntity
  8
SUPERFICI
100
AcDbLine
 62
7
  6
CONTINUOUS
 10
-24.0755194082
 20
2.004173102
 11
-25.3251794082
 21
2.004173102
  0
LINE
  5
25F
100
AcDbEntity
  8
IGES_SCRITTE
100
AcDbLine
 62
7
  6
CONTINUOUS
 10
-24.0755194082
 20
2.004173102
 11
-25.3251794082
 21
2.004173102
  0
LINE
  5
260
100
AcDbEntity
  8
ASSI
100
AcDbLine
 62
7
  6
CONTINUOUS
 10
-24.0755194082
 20
2.004173102
 11
-25.3251794082
 21
2.004173102
  0
LINE
  5
261
100
AcDbEntity
  8
SUPERFICI
100
AcDbLine
 62
7
  6
CONTINUOUS
 10
-25.1229684082
 20
2.167862102
 11
-24.0755194082
 21
2.167862102
  0
LINE
  5
262
100
AcDbEntity
  8
IGES_SCRITTE
100
AcDbLine
 62
7
  6
CONTINUOUS
 10
-25.1229684082
 20
2.167862102
 11
-24.0755194082
 21
2.167862102
  0
LINE
  5
263
100
AcDbEntity
  8
ASSI
100
AcDbLine
 62
7
  6
CONTINUOUS
 10
-25.1229684082
 20
2.167862102
 11
-24.0755194082
 21
2.167862102
  0
LINE
  5
264
100
AcDbEntity
  8
SUPERFICI
100
AcDbLine
 62
7
  6
CONTINUOUS
 10
-20.4802214082
 20
2.261789102
 11
-21.7308924082
 21
2.261789102
  0
LINE
  5
265
100
AcDbEntity
  8
IGES_SCRITTE
100
AcDbLine
 62
7
  6
CONTINUOUS
 10
-20.4802214082
 20
2.261789102
 11
-21.7308924082
 21
2.261789102
  0
LINE
  5
266
100
AcDbEntity
  8
ASSI
100
AcDbLine
 62
7
  6
CONTINUOUS
 10
-20.4802214082
 20
2.261789102
 11
-21.7308924082
 21
2.261789102
  0
LINE
  5
267
100
AcDbEntity
  8
SUPERFICI
100
AcDbLine
 62
7
  6
CONTINUOUS
 10
-21.7308924082
 20
2.430735102
 11
-20.4802214082
 21
2.430735102
  0
LINE
  5
268
100
AcDbEntity
  8
IGES_SCRITTE
100
AcDbLine
 62
7
  6
CONTINUOUS
 10
-21.7308924082
 20
2.430735102
 11
-20.4802214082
 21
2.430735102
  0
LINE
  5
269
100
AcDbEntity
  8
ASSI
100
AcDbLine
 62
7
  6
CONTINUOUS
 10
-21.7308924082
 20
2.430735102
 11
-20.4802214082
 21
2.430735102
  0
LINE
  5
26A
100
AcDbEntity
  8
SUPERFICI
100
AcDbLine
 62
7
  6
CONTINUOUS
 10
-21.5812564082
 20
2.611916102
 11
-21.7308924082
 21
2.611916102
  0
LINE
  5
26B
100
AcDbEntity
  8
IGES_SCRITTE
100
AcDbLine
 62
7
  6
CONTINUOUS
 10
-21.5812564082
 20
2.611916102
 11
-21.7308924082
 21
2.611916102
  0
LINE
  5
26C
100
AcDbEntity
  8
ASSI
100
AcDbLine
 62
7
  6
CONTINUOUS
 10
-21.5812564082
 20
2.611916102
 11
-21.7308924082
 21
2.611916102
  0
LINE
  5
26D
100
AcDbEntity
  8
DRAFT
100
AcDbLine
 62
7
  6
CONTINUOUS
 10
-43.2527004082
 20
2.661435102
 11
-42.8527004082
 21
2.661435102
  0
LINE
  5
26E
100
AcDbEntity
  8
ASSI
100
AcDbLine
 62
7
  6
CONTINUOUS
 10
-43.2527004082
 20
2.661435102
 11
-42.8527004082
 21
2.661435102
  0
LINE
  5
26F
100
AcDbEntity
  8
DRAFT
100
AcDbLine
 62
7
  6
CONTINUOUS
 10
-2.9527004082
 20
2.661435102
 11
-2.5527004082
 21
2.661435102
  0
LINE
  5
270
100
AcDbEntity
  8
ASSI
100
AcDbLine
 62
7
  6
CONTINUOUS
 10
-2.9527004082
 20
2.661435102
 11
-2.5527004082
 21
2.661435102
  0
LINE
  5
271
100
AcDbEntity
  8
SUPERFICI
100
AcDbLine
 62
7
  6
CONTINUOUS
 10
-20.4802214082
 20
3.035040102
 11
-21.5812564082
 21
3.035040102
  0
LINE
  5
272
100
AcDbEntity
  8
IGES_SCRITTE
100
AcDbLine
 62
7
  6
CONTINUOUS
 10
-20.4802214082
 20
3.035040102
 11
-21.5812564082
 21
3.035040102
  0
LINE
  5
273
100
AcDbEntity
  8
ASSI
100
AcDbLine
 62
7
  6
CONTINUOUS
 10
-20.4802214082
 20
3.035040102
 11
-21.5812564082
 21
3.035040102
  0
LINE
  5
274
100
AcDbEntity
  8
SUPERFICI
100
AcDbLine
 62
7
  6
CONTINUOUS
 10
-24.0755194082
 20
3.038478102
 11
-25.1249914082
 21
3.038478102
  0
LINE
  5
275
100
AcDbEntity
  8
IGES_SCRITTE
100
AcDbLine
 62
7
  6
CONTINUOUS
 10
-24.0755194082
 20
3.038478102
 11
-25.1249914082
 21
3.038478102
  0
LINE
  5
276
100
AcDbEntity
  8
ASSI
100
AcDbLine
 62
7
  6
CONTINUOUS
 10
-24.0755194082
 20
3.038478102
 11
-25.1249914082
 21
3.038478102
  0
LINE
  5
277
100
AcDbEntity
  8
SUPERFICI
100
AcDbLine
 62
7
  6
CONTINUOUS
 10
-24.2633804082
 20
2.604893102
 11
-25.3251794082
 21
2.961840102
  0
LINE
  5
278
100
AcDbEntity
  8
IGES_SCRITTE
100
AcDbLine
 62
7
  6
CONTINUOUS
 10
-24.2633804082
 20
2.604893102
 11
-25.3251794082
 21
2.961840102
  0
LINE
  5
279
100
AcDbEntity
  8
ASSI
100
AcDbLine
 62
7
  6
CONTINUOUS
 10
-24.2633804082
 20
2.604893102
 11
-25.3251794082
 21
2.961840102
  0
LINE
  5
27A
100
AcDbEntity
  8
0
100
AcDbLine
 62
7
  6
CONTINUOUS
 10
-42.8527004082
 20
36.6764864652
 11
-43.2027004082
 21
38.661435102
  0
LINE
  5
27B
100
AcDbEntity
  8
ASSI
100
AcDbLine
 62
7
  6
CONTINUOUS
 10
-42.8527004082
 20
36.6764864652
 11
-43.2027004082
 21
38.661435102
  0
LINE
  5
27C
100
AcDbEntity
  8
DRAFT
100
AcDbLine
 62
7
  6
CONTINUOUS
 10
-38.3027004082
 20
40.5267451944
 11
-38.3027004082
 21
39.411435102
  0
LINE
  5
27D
100
AcDbEntity
  8
ASSI
100
AcDbLine
 62
7
  6
CONTINUOUS
 10
-38.3027004082
 20
40.5267451944
 11
-38.3027004082
 21
39.411435102
  0
LINE
  5
27E
100
AcDbEntity
  8
DRAFT
100
AcDbLine
 62
7
  6
CONTINUOUS
 10
-38.3027004082
 20
-1.7038749903
 11
-38.3027004082
 21
-0.588564898
  0
LINE
  5
27F
100
AcDbEntity
  8
ASSI
100
AcDbLine
 62
7
  6
CONTINUOUS
 10
-38.3027004082
 20
-1.7038749903
 11
-38.3027004082
 21
-0.588564898
  0
LINE
  5
280
100
AcDbEntity
  8
DRAFT
100
AcDbLine
 62
7
  6
CONTINUOUS
 10
-43.2186656238
 20
20.9454698864
 11
-43.2483369743
 21
20.9157985359
  0
LINE
  5
281
100
AcDbEntity
  8
ASSI
100
AcDbLine
 62
7
  6
CONTINUOUS
 10
-43.2186656238
 20
20.9454698864
 11
-43.2483369743
 21
20.9157985359
  0
LINE
  5
282
100
AcDbEntity
  8
DRAFT
100
AcDbLine
 62
7
  6
CONTINUOUS
 10
-42.6483369743
 20
20.9157985359
 11
-42.6186656238
 21
20.9454698864
  0
LINE
  5
283
100
AcDbEntity
  8
ASSI
100
AcDbLine
 62
7
  6
CONTINUOUS
 10
-42.6483369743
 20
20.9157985359
 11
-42.6186656238
 21
20.9454698864
  0
LINE
  5
284
100
AcDbEntity
  8
ASSI
100
AcDbLine
 62
7
  6
CONTINUOUS
 10
-24.9027124082
 20
34.845204102
 11
-25.5804061831
 21
34.4939227004
  0
LINE
  5
285
100
AcDbEntity
  8
ASSI
100
AcDbLine
 62
7
  6
CONTINUOUS
 10
-25.5407184082
 20
34.142782102
 11
-24.9027084082
 21
34.473496102
  0
LINE
  5
286
100
AcDbEntity
  8
SUPERFICI
100
AcDbLine
 62
7
  6
CONTINUOUS
 10
-25.3251794082
 20
3.202167102
 11
-24.0755194082
 21
3.202167102
  0
LINE
  5
287
100
AcDbEntity
  8
IGES_SCRITTE
100
AcDbLine
 62
7
  6
CONTINUOUS
 10
-25.3251794082
 20
3.202167102
 11
-24.0755194082
 21
3.202167102
  0
LINE
  5
288
100
AcDbEntity
  8
ASSI
100
AcDbLine
 62
7
  6
CONTINUOUS
 10
-25.3251794082
 20
3.202167102
 11
-24.0755194082
 21
3.202167102
  0
LINE
  5
289
100
AcDbEntity
  8
SUPERFICI
100
AcDbLine
 62
7
  6
CONTINUOUS
 10
-21.5812564082
 20
3.203886102
 11
-20.4802214082
 21
3.203886102
  0
LINE
  5
28A
100
AcDbEntity
  8
IGES_SCRITTE
100
AcDbLine
 62
7
  6
CONTINUOUS
 10
-21.5812564082
 20
3.203886102
 11
-20.4802214082
 21
3.203886102
  0
LINE
  5
28B
100
AcDbEntity
  8
ASSI
100
AcDbLine
 62
7
  6
CONTINUOUS
 10
-21.5812564082
 20
3.203886102
 11
-20.4802214082
 21
3.203886102
  0
LINE
  5
28C
100
AcDbEntity
  8
SUPERFICI
100
AcDbLine
 62
7
  6
CONTINUOUS
 10
-21.7308924082
 20
3.627011102
 11
-21.5812564082
 21
3.627011102
  0
LINE
  5
28D
100
AcDbEntity
  8
IGES_SCRITTE
100
AcDbLine
 62
7
  6
CONTINUOUS
 10
-21.7308924082
 20
3.627011102
 11
-21.5812564082
 21
3.627011102
  0
LINE
  5
28E
100
AcDbEntity
  8
ASSI
100
AcDbLine
 62
7
  6
CONTINUOUS
 10
-21.7308924082
 20
3.627011102
 11
-21.5812564082
 21
3.627011102
  0
LINE
  5
28F
100
AcDbEntity
  8
SUPERFICI
100
AcDbLine
 62
7
  6
CONTINUOUS
 10
-22.2778704082
 20
3.680091102
 11
-23.5275304082
 21
3.680091102
  0
LINE
  5
290
100
AcDbEntity
  8
IGES_SCRITTE
100
AcDbLine
 62
7
  6
CONTINUOUS
 10
-22.2778704082
 20
3.680091102
 11
-23.5275304082
 21
3.680091102
  0
LINE
  5
291
100
AcDbEntity
  8
ASSI
100
AcDbLine
 62
7
  6
CONTINUOUS
 10
-22.2778704082
 20
3.680091102
 11
-23.5275304082
 21
3.680091102
  0
LINE
  5
292
100
AcDbEntity
  8
DRAFT
100
AcDbLine
 62
7
  6
CONTINUOUS
 10
-2.5867351925
 20
3.761435102
 11
-2.5780153225
 21
3.761435102
  0
LINE
  5
293
100
AcDbEntity
  8
ASSI
100
AcDbLine
 62
7
  6
CONTINUOUS
 10
-2.5867351925
 20
3.761435102
 11
-2.5780153225
 21
3.761435102
  0
LINE
  5
294
100
AcDbEntity
  8
DRAFT
100
AcDbLine
 62
7
  6
CONTINUOUS
 10
-43.2186656238
 20
3.761435102
 11
-43.2273854938
 21
3.761435102
  0
LINE
  5
295
100
AcDbEntity
  8
ASSI
100
AcDbLine
 62
7
  6
CONTINUOUS
 10
-43.2186656238
 20
3.761435102
 11
-43.2273854938
 21
3.761435102
  0
LINE
  5
296
100
AcDbEntity
  8
SUPERFICI
100
AcDbLine
 62
7
  6
CONTINUOUS
 10
-23.5275304082
 20
3.849038102
 11
-22.2778704082
 21
3.849038102
  0
LINE
  5
297
100
AcDbEntity
  8
IGES_SCRITTE
100
AcDbLine
 62
7
  6
CONTINUOUS
 10
-23.5275304082
 20
3.849038102
 11
-22.2778704082
 21
3.849038102
  0
LINE
  5
298
100
AcDbEntity
  8
ASSI
100
AcDbLine
 62
7
  6
CONTINUOUS
 10
-23.5275304082
 20
3.849038102
 11
-22.2778704082
 21
3.849038102
  0
LINE
  5
299
100
AcDbEntity
  8
SUPERFICI
100
AcDbLine
 62
7
  6
CONTINUOUS
 10
-22.2778704082
 20
4.137996102
 11
-23.5275304082
 21
4.137996102
  0
LINE
  5
29A
100
AcDbEntity
  8
IGES_SCRITTE
100
AcDbLine
 62
7
  6
CONTINUOUS
 10
-22.2778704082
 20
4.137996102
 11
-23.5275304082
 21
4.137996102
  0
LINE
  5
29B
100
AcDbEntity
  8
ASSI
100
AcDbLine
 62
7
  6
CONTINUOUS
 10
-22.2778704082
 20
4.137996102
 11
-23.5275304082
 21
4.137996102
  0
LINE
  5
29C
100
AcDbEntity
  8
SUPERFICI
100
AcDbLine
 62
7
  6
CONTINUOUS
 10
-23.2933744082
 20
4.301786102
 11
-22.2778704082
 21
4.301786102
  0
LINE
  5
29D
100
AcDbEntity
  8
IGES_SCRITTE
100
AcDbLine
 62
7
  6
CONTINUOUS
 10
-23.2933744082
 20
4.301786102
 11
-22.2778704082
 21
4.301786102
  0
LINE
  5
29E
100
AcDbEntity
  8
ASSI
100
AcDbLine
 62
7
  6
CONTINUOUS
 10
-23.2933744082
 20
4.301786102
 11
-22.2778704082
 21
4.301786102
  0
LINE
  5
29F
100
AcDbEntity
  8
IGES_SCRITTE
100
AcDbLine
 62
7
  6
CONTINUOUS
 10
-25.3251794082
 20
4.629974102
 11
-24.0755194082
 21
4.629974102
  0
LINE
  5
2A0
100
AcDbEntity
  8
SUPERFICI
100
AcDbLine
 62
7
  6
CONTINUOUS
 10
-24.0755194082
 20
4.629974102
 11
-25.3251794082
 21
4.629974102
  0
LINE
  5
2A1
100
AcDbEntity
  8
ASSI
100
AcDbLine
 62
7
  6
CONTINUOUS
 10
-24.0755194082
 20
4.629974102
 11
-25.3251794082
 21
4.629974102
  0
LINE
  5
2A2
100
AcDbEntity
  8
SUPERFICI
100
AcDbLine
 62
7
  6
CONTINUOUS
 10
-25.1805984082
 20
4.798819102
 11
-24.2201004082
 21
4.798819102
  0
LINE
  5
2A3
100
AcDbEntity
  8
ASSI
100
AcDbLine
 62
7
  6
CONTINUOUS
 10
-25.1805984082
 20
4.798819102
 11
-24.2201004082
 21
4.798819102
  0
LINE
  5
2A4
100
AcDbEntity
  8
IGES_SCRITTE
100
AcDbLine
 62
7
  6
CONTINUOUS
 10
-24.2201004082
 20
4.798819102
 11
-25.1805984082
 21
4.798819102
  0
LINE
  5
2A5
100
AcDbEntity
  8
SUPERFICI
100
AcDbLine
 62
7
  6
CONTINUOUS
 10
-20.4802214082
 20
4.945118102
 11
-21.7308924082
 21
4.945118102
  0
LINE
  5
2A6
100
AcDbEntity
  8
IGES_SCRITTE
100
AcDbLine
 62
7
  6
CONTINUOUS
 10
-20.4802214082
 20
4.945118102
 11
-21.7308924082
 21
4.945118102
  0
LINE
  5
2A7
100
AcDbEntity
  8
ASSI
100
AcDbLine
 62
7
  6
CONTINUOUS
 10
-20.4802214082
 20
4.945118102
 11
-21.7308924082
 21
4.945118102
  0
LINE
  5
2A8
100
AcDbEntity
  8
SUPERFICI
100
AcDbLine
 62
7
  6
CONTINUOUS
 10
-22.5127894082
 20
4.966957102
 11
-23.5275304082
 21
4.966957102
  0
LINE
  5
2A9
100
AcDbEntity
  8
IGES_SCRITTE
100
AcDbLine
 62
7
  6
CONTINUOUS
 10
-22.5127894082
 20
4.966957102
 11
-23.5275304082
 21
4.966957102
  0
LINE
  5
2AA
100
AcDbEntity
  8
ASSI
100
AcDbLine
 62
7
  6
CONTINUOUS
 10
-22.5127894082
 20
4.966957102
 11
-23.5275304082
 21
4.966957102
  0
LINE
  5
2AB
100
AcDbEntity
  8
SUPERFICI
100
AcDbLine
 62
7
  6
CONTINUOUS
 10
-21.7308924082
 20
5.113964102
 11
-20.6298574082
 21
5.113964102
  0
LINE
  5
2AC
100
AcDbEntity
  8
IGES_SCRITTE
100
AcDbLine
 62
7
  6
CONTINUOUS
 10
-21.7308924082
 20
5.113964102
 11
-20.6298574082
 21
5.113964102
  0
LINE
  5
2AD
100
AcDbEntity
  8
ASSI
100
AcDbLine
 62
7
  6
CONTINUOUS
 10
-21.7308924082
 20
5.113964102
 11
-20.6298574082
 21
5.113964102
  0
LINE
  5
2AE
100
AcDbEntity
  8
SUPERFICI
100
AcDbLine
 62
7
  6
CONTINUOUS
 10
-23.5275304082
 20
5.130545102
 11
-22.2778704082
 21
5.130545102
  0
LINE
  5
2AF
100
AcDbEntity
  8
IGES_SCRITTE
100
AcDbLine
 62
7
  6
CONTINUOUS
 10
-23.5275304082
 20
5.130545102
 11
-22.2778704082
 21
5.130545102
  0
LINE
  5
2B0
100
AcDbEntity
  8
ASSI
100
AcDbLine
 62
7
  6
CONTINUOUS
 10
-23.5275304082
 20
5.130545102
 11
-22.2778704082
 21
5.130545102
  0
LINE
  5
2B1
100
AcDbEntity
  8
SUPERFICI
100
AcDbLine
 62
7
  6
CONTINUOUS
 10
-25.1249914082
 20
3.038478102
 11
-24.0755194082
 21
2.686733102
  0
LINE
  5
2B2
100
AcDbEntity
  8
IGES_SCRITTE
100
AcDbLine
 62
7
  6
CONTINUOUS
 10
-25.1249914082
 20
3.038478102
 11
-24.0755194082
 21
2.686733102
  0
LINE
  5
2B3
100
AcDbEntity
  8
ASSI
100
AcDbLine
 62
7
  6
CONTINUOUS
 10
-25.1249914082
 20
3.038478102
 11
-24.0755194082
 21
2.686733102
  0
LINE
  5
2B4
100
AcDbEntity
  8
SUPERFICI
100
AcDbLine
 62
7
  6
CONTINUOUS
 10
-24.4394984082
 20
3.656635102
 11
-24.0755194082
 21
3.526007102
  0
LINE
  5
2B5
100
AcDbEntity
  8
ASSI
100
AcDbLine
 62
7
  6
CONTINUOUS
 10
-24.4394984082
 20
3.656635102
 11
-24.0755194082
 21
3.526007102
  0
LINE
  5
2B6
100
AcDbEntity
  8
IGES_SCRITTE
100
AcDbLine
 62
7
  6
CONTINUOUS
 10
-24.0755194082
 20
3.526007102
 11
-24.4394984082
 21
3.656635102
  0
LINE
  5
2B7
100
AcDbEntity
  8
SUPERFICI
100
AcDbLine
 62
7
  6
CONTINUOUS
 10
-25.1440594082
 20
3.910883102
 11
-24.5891334082
 21
3.708906102
  0
LINE
  5
2B8
100
AcDbEntity
  8
ASSI
100
AcDbLine
 62
7
  6
CONTINUOUS
 10
-25.1440594082
 20
3.910883102
 11
-24.5891334082
 21
3.708906102
  0
LINE
  5
2B9
100
AcDbEntity
  8
IGES_SCRITTE
100
AcDbLine
 62
7
  6
CONTINUOUS
 10
-24.5891334082
 20
3.708906102
 11
-25.1440594082
 21
3.910883102
  0
LINE
  5
2BA
100
AcDbEntity
  8
IGES_SCRITTE
100
AcDbLine
 62
7
  6
CONTINUOUS
 10
-25.3251794082
 20
3.822043102
 11
-24.0755194082
 21
3.351904102
  0
LINE
  5
2BB
100
AcDbEntity
  8
SUPERFICI
100
AcDbLine
 62
7
  6
CONTINUOUS
 10
-24.0755194082
 20
3.351904102
 11
-25.3251794082
 21
3.822043102
  0
LINE
  5
2BC
100
AcDbEntity
  8
ASSI
100
AcDbLine
 62
7
  6
CONTINUOUS
 10
-24.0755194082
 20
3.351904102
 11
-25.3251794082
 21
3.822043102
  0
LINE
  5
2BD
100
AcDbEntity
  8
0
100
AcDbLine
 62
7
  6
CONTINUOUS
 10
-43.2483369743
 20
19.0570716681
 11
-43.2186656238
 21
19.0274003177
  0
LINE
  5
2BE
100
AcDbEntity
  8
ASSI
100
AcDbLine
 62
7
  6
CONTINUOUS
 10
-43.2483369743
 20
19.0592533851
 11
-43.2186656238
 21
19.0274003177
  0
LINE
  5
2BF
100
AcDbEntity
  8
ASSI
100
AcDbLine
 62
7
  6
CONTINUOUS
 10
-24.9027044082
 20
33.304693102
 11
-26.5527834082
 21
32.774907102
  0
LINE
  5
2C0
100
AcDbEntity
  8
ASSI
100
AcDbLine
 62
7
  6
CONTINUOUS
 10
-25.2272064082
 20
32.870496102
 11
-24.9027084082
 21
32.974677102
  0
LINE
  5
2C1
100
AcDbEntity
  8
ASSI
100
AcDbLine
 62
7
  6
CONTINUOUS
 10
-26.0388694082
 20
32.609891102
 11
-25.5407184082
 21
32.769829102
  0
LINE
  5
2C2
100
AcDbEntity
  8
ASSI
100
AcDbLine
 62
7
  6
CONTINUOUS
 10
-24.9146922585
 20
5.462170042
 11
-24.9144451753
 21
5.4622247176
  0
LWPOLYLINE
  5
2C3
100
AcDbEntity
  8
ASSI
100
AcDbPolyline
 62
7
  6
CONTINUOUS
 90
5
 70
0
 10
-24.9010441499
 20
5.4658659351
 10
-24.8873036719
 20
5.4691714552
 10
-24.8734826989
 20
5.4721203934
 10
-24.8595931054
 20
5.4747465406
 10
-24.8456467656
 20
5.4770836879
  0
LINE
  5
2C4
100
AcDbEntity
  8
ASSI
100
AcDbLine
 62
7
  6
CONTINUOUS
 10
-24.8757800886
 20
5.6481979818
 11
-24.875267389
 21
5.6482806146
  0
LWPOLYLINE
  5
2C5
100
AcDbEntity
  8
ASSI
100
AcDbPolyline
 62
7
  6
CONTINUOUS
 90
6
 70
0
 10
-24.8579170257
 20
5.6514879606
 10
-24.8404994425
 20
5.6542560717
 10
-24.823023668
 20
5.6565700697
 10
-24.805498731
 20
5.6584150762
 10
-24.7880200016
 20
5.6597850062
 10
-24.7705106504
 20
5.6607467559
  0
LINE
  5
2C6
100
AcDbEntity
  8
ASSI
100
AcDbLine
 62
7
  6
CONTINUOUS
 10
-24.8316555541
 20
5.4791656262
 11
-24.8298878063
 21
5.4794118589
  0
LWPOLYLINE
  5
2C7
100
AcDbEntity
  8
ASSI
100
AcDbPolyline
 62
7
  6
CONTINUOUS
 90
7
 70
0
 10
-24.8176313452
 20
5.4810261465
 10
-24.798146619
 20
5.4832853479
 10
-24.7786280068
 20
5.4851683235
 10
-24.7590822441
 20
5.4866596711
 10
-24.7395160664
 20
5.4877439888
 10
-24.7199362093
 20
5.4884058742
 10
-24.7003494081
 20
5.4886299254
  0
LINE
  5
2C8
100
AcDbEntity
  8
ASSI
100
AcDbLine
 62
7
  6
CONTINUOUS
 10
-24.7529797964
 20
5.6613712764
 11
-24.7480430659
 21
5.661623167
  0
LWPOLYLINE
  5
2C9
100
AcDbEntity
  8
SUPERFICI
100
AcDbPolyline
 62
7
  6
CONTINUOUS
 90
49
 70
0
 10
-24.7003494081
 20
5.4886299254
 10
-24.724171351
 20
5.488161205
 10
-24.7471004099
 20
5.4872654349
 10
-24.7691365849
 20
5.4859426153
 10
-24.7902583261
 20
5.4841538536
 10
-24.8104871834
 20
5.4819380424
 10
-24.8298878063
 20
5.4794118589
 10
-24.8484786421
 20
5.4766215098
 10
-24.8662412435
 20
5.4735207884
 10
-24.8831849175
 20
5.4700877524
 10
-24.89922451
 20
5.4663223923
 10
-24.9144451753
 20
5.4622247176
 10
-24.9291116828
 20
5.4577728153
 10
-24.9432546693
 20
5.4529596468
 10
-24.9568434982
 20
5.4477922507
 10
-24.9700510293
 20
5.4422698299
 10
-24.9829453144
 20
5.4363739563
 10
-24.9954583016
 20
5.430123058
 10
-25.0075586955
 20
5.4235716225
 10
-25.0192448943
 20
5.4167171612
 10
-25.0305184996
 20
5.4095621627
 10
-25.0413530213
 20
5.4021685799
 10
-25.0517538723
 20
5.3945279904
 10
-25.0617156397
 20
5.3866488167
 10
-25.0711955942
 20
5.3786182786
 10
-25.0801792037
 20
5.3704444398
 10
-25.0886810004
 20
5.3621192365
 10
-25.0967018519
 20
5.3537056981
 10
-25.1042178561
 20
5.3452389926
 10
-25.111252915
 20
5.3366839518
 10
-25.1178796019
 20
5.3279981011
 10
-25.1240839214
 20
5.3192252688
 10
-25.1298798689
 20
5.3103216265
 10
-25.135382004
 20
5.3011132138
 10
-25.1406189394
 20
5.2915824617
 10
-25.1455620624
 20
5.2817469392
 10
-25.1502400943
 20
5.2714853924
 10
-25.1546827753
 20
5.260753078
 10
-25.1588603653
 20
5.2495947394
 10
-25.1627123657
 20
5.2380233528
 10
-25.1662359185
 20
5.2260537265
 10
-25.1694338816
 20
5.2136710523
 10
-25.17225433
 20
5.2008438821
 10
-25.1747002126
 20
5.1875807358
 10
-25.1767685805
 20
5.1738730935
 10
-25.1783986612
 20
5.1596639471
 10
-25.1795701973
 20
5.1449342939
 10
-25.1803034463
 20
5.1297031367
 10
-25.1805984082
 20
5.1139704754
  0
LWPOLYLINE
  5
2CA
100
AcDbEntity
  8
ASSI
100
AcDbPolyline
 62
7
  6
CONTINUOUS
 90
49
 70
0
 10
-24.7003494081
 20
5.4886299254
 10
-24.724171351
 20
5.488161205
 10
-24.7471004099
 20
5.4872654349
 10
-24.7691365849
 20
5.4859426153
 10
-24.7902583261
 20
5.4841538536
 10
-24.8104871834
 20
5.4819380424
 10
-24.8298878063
 20
5.4794118589
 10
-24.8484786421
 20
5.4766215098
 10
-24.8662412435
 20
5.4735207884
 10
-24.8831849175
 20
5.4700877524
 10
-24.89922451
 20
5.4663223923
 10
-24.9144451753
 20
5.4622247176
 10
-24.9291116828
 20
5.4577728153
 10
-24.9432546693
 20
5.4529596468
 10
-24.9568434982
 20
5.4477922507
 10
-24.9700510293
 20
5.4422698299
 10
-24.9829453144
 20
5.4363739563
 10
-24.9954583016
 20
5.430123058
 10
-25.0075586955
 20
5.4235716225
 10
-25.0192448943
 20
5.4167171612
 10
-25.0305184996
 20
5.4095621627
 10
-25.0413530213
 20
5.4021685799
 10
-25.0517538723
 20
5.3945279904
 10
-25.0617156397
 20
5.3866488167
 10
-25.0711955942
 20
5.3786182786
 10
-25.0801792037
 20
5.3704444398
 10
-25.0886810004
 20
5.3621192365
 10
-25.0967018519
 20
5.3537056981
 10
-25.1042178561
 20
5.3452389926
 10
-25.111252915
 20
5.3366839518
 10
-25.1178796019
 20
5.3279981011
 10
-25.1240839214
 20
5.3192252688
 10
-25.1298798689
 20
5.3103216265
 10
-25.135382004
 20
5.3011132138
 10
-25.1406189394
 20
5.2915824617
 10
-25.1455620624
 20
5.2817469392
 10
-25.1502400943
 20
5.2714853924
 10
-25.1546827753
 20
5.260753078
 10
-25.1588603653
 20
5.2495947394
 10
-25.1627123657
 20
5.2380233528
 10
-25.1662359185
 20
5.2260537265
 10
-25.1694338816
 20
5.2136710523
 10
-25.17225433
 20
5.2008438821
 10
-25.1747002126
 20
5.1875807358
 10
-25.1767685805
 20
5.1738730935
 10
-25.1783986612
 20
5.1596639471
 10
-25.1795701973
 20
5.1449342939
 10
-25.1803034463
 20
5.1297031367
 10
-25.1805984082
 20
5.1139704754
  0
LWPOLYLINE
  5
2CB
100
AcDbEntity
  8
ASSI
100
AcDbPolyline
 62
7
  6
CONTINUOUS
 90
3
 70
0
 10
-24.7354365586
 20
5.6617295185
 10
-24.7178900562
 20
5.6618924331
 10
-24.7003494081
 20
5.6619309711
  0
LWPOLYLINE
  5
2CC
100
AcDbEntity
  8
SUPERFICI
100
AcDbPolyline
 62
7
  6
CONTINUOUS
 90
52
 70
0
 10
-24.7003494081
 20
5.6619309711
 10
-24.6761167585
 20
5.6620212109
 10
-24.6526557504
 20
5.661623167
 10
-24.6299663838
 20
5.6607368393
 10
-24.6082738913
 20
5.6594164956
 10
-24.5873530404
 20
5.6576078682
 10
-24.5665281335
 20
5.6551481538
 10
-24.5456754586
 20
5.6519986113
 10
-24.5249187277
 20
5.6481979818
 10
-24.5039533804
 20
5.6436996854
 10
-24.4823424143
 20
5.638389786
 10
-24.4605228317
 20
5.6323822196
 10
-24.4395010786
 20
5.6259722143
 10
-24.4196136142
 20
5.6192283446
 10
-24.4005239792
 20
5.612082036
 10
-24.3822292426
 20
5.6046227933
 10
-24.3647959627
 20
5.596885105
 10
-24.3481575811
 20
5.5888344825
 10
-24.3321114906
 20
5.5804569657
 10
-24.3166072493
 20
5.5717366291
 10
-24.3016952991
 20
5.562689398
 10
-24.2873243584
 20
5.5533490887
 10
-24.2734655981
 20
5.5436979112
 10
-24.2601478474
 20
5.5337536555
 10
-24.2474063126
 20
5.5236035078
 10
-24.2352730026
 20
5.5132769875
 10
-24.2237159085
 20
5.5027445752
 10
-24.2126742101
 20
5.4920048992
 10
-24.2021694114
 20
5.4810956972
 10
-24.1921800084
 20
5.4699792314
 10
-24.1825806689
 20
5.4585409168
 10
-24.1733330082
 20
5.4467480928
 10
-24.164475411
 20
5.43463342
 10
-24.1559976989
 20
5.4221802957
 10
-24.1478857003
 20
5.40937507
 10
-24.1401535867
 20
5.3962313927
 10
-24.1328336952
 20
5.3827736109
 10
-24.1259400858
 20
5.3690388296
 10
-24.1194586985
 20
5.3549899437
 10
-24.1133796896
 20
5.3405399853
 10
-24.1076901185
 20
5.3256717675
 10
-24.1024029258
 20
5.3104024771
 10
-24.0975470908
 20
5.2946967069
 10
-24.093111337
 20
5.2785193793
 10
-24.0891069408
 20
5.2619055719
 10
-24.0855967103
 20
5.2449251103
 10
-24.0825837673
 20
5.2275597376
 10
-24.0800649901
 20
5.2098277107
 10
-24.0780938214
 20
5.1918536259
 10
-24.0766880752
 20
5.1736790151
 10
-24.0758299375
 20
5.1552623464
 10
-24.0755194082
 20
5.1366036196
  0
LWPOLYLINE
  5
2CD
100
AcDbEntity
  8
ASSI
100
AcDbPolyline
 62
7
  6
CONTINUOUS
 90
52
 70
0
 10
-24.7003494081
 20
5.6619309711
 10
-24.6761167585
 20
5.6620212109
 10
-24.6526557504
 20
5.661623167
 10
-24.6299663838
 20
5.6607368393
 10
-24.6082738913
 20
5.6594164956
 10
-24.5873530404
 20
5.6576078682
 10
-24.5665281335
 20
5.6551481538
 10
-24.5456754586
 20
5.6519986113
 10
-24.5249187277
 20
5.6481979818
 10
-24.5039533804
 20
5.6436996854
 10
-24.4823424143
 20
5.638389786
 10
-24.4605228317
 20
5.6323822196
 10
-24.4395010786
 20
5.6259722143
 10
-24.4196136142
 20
5.6192283446
 10
-24.4005239792
 20
5.612082036
 10
-24.3822292426
 20
5.6046227933
 10
-24.3647959627
 20
5.596885105
 10
-24.3481575811
 20
5.5888344825
 10
-24.3321114906
 20
5.5804569657
 10
-24.3166072493
 20
5.5717366291
 10
-24.3016952991
 20
5.562689398
 10
-24.2873243584
 20
5.5533490887
 10
-24.2734655981
 20
5.5436979112
 10
-24.2601478474
 20
5.5337536555
 10
-24.2474063126
 20
5.5236035078
 10
-24.2352730026
 20
5.5132769875
 10
-24.2237159085
 20
5.5027445752
 10
-24.2126742101
 20
5.4920048992
 10
-24.2021694114
 20
5.4810956972
 10
-24.1921800084
 20
5.4699792314
 10
-24.1825806689
 20
5.4585409168
 10
-24.1733330082
 20
5.4467480928
 10
-24.164475411
 20
5.43463342
 10
-24.1559976989
 20
5.4221802957
 10
-24.1478857003
 20
5.40937507
 10
-24.1401535867
 20
5.3962313927
 10
-24.1328336952
 20
5.3827736109
 10
-24.1259400858
 20
5.3690388296
 10
-24.1194586985
 20
5.3549899437
 10
-24.1133796896
 20
5.3405399853
 10
-24.1076901185
 20
5.3256717675
 10
-24.1024029258
 20
5.3104024771
 10
-24.0975470908
 20
5.2946967069
 10
-24.093111337
 20
5.2785193793
 10
-24.0891069408
 20
5.2619055719
 10
-24.0855967103
 20
5.2449251103
 10
-24.0825837673
 20
5.2275597376
 10
-24.0800649901
 20
5.2098277107
 10
-24.0780938214
 20
5.1918536259
 10
-24.0766880752
 20
5.1736790151
 10
-24.0758299375
 20
5.1552623464
 10
-24.0755194082
 20
5.1366036196
  0
LINE
  5
2CE
100
AcDbEntity
  8
SUPERFICI
100
AcDbLine
 62
7
  6
CONTINUOUS
 10
-20.6298574082
 20
5.747792102
 11
-20.4802214082
 21
5.747792102
  0
LINE
  5
2CF
100
AcDbEntity
  8
IGES_SCRITTE
100
AcDbLine
 62
7
  6
CONTINUOUS
 10
-20.6298574082
 20
5.747792102
 11
-20.4802214082
 21
5.747792102
  0
LINE
  5
2D0
100
AcDbEntity
  8
ASSI
100
AcDbLine
 62
7
  6
CONTINUOUS
 10
-20.6298574082
 20
5.747792102
 11
-20.4802214082
 21
5.747792102
  0
LINE
  5
2D1
100
AcDbEntity
  8
SUPERFICI
100
AcDbLine
 62
7
  6
CONTINUOUS
 10
-24.0755194082
 20
5.895810102
 11
-25.3251794082
 21
5.895810102
  0
LINE
  5
2D2
100
AcDbEntity
  8
IGES_SCRITTE
100
AcDbLine
 62
7
  6
CONTINUOUS
 10
-24.0755194082
 20
5.895810102
 11
-25.3251794082
 21
5.895810102
  0
LINE
  5
2D3
100
AcDbEntity
  8
ASSI
100
AcDbLine
 62
7
  6
CONTINUOUS
 10
-24.0755194082
 20
5.895810102
 11
-25.3251794082
 21
5.895810102
  0
LINE
  5
2D4
100
AcDbEntity
  8
SUPERFICI
100
AcDbLine
 62
7
  6
CONTINUOUS
 10
-20.4802214082
 20
6.016024102
 11
-20.9837254082
 21
6.016024102
  0
LINE
  5
2D5
100
AcDbEntity
  8
IGES_SCRITTE
100
AcDbLine
 62
7
  6
CONTINUOUS
 10
-20.4802214082
 20
6.016024102
 11
-20.9837254082
 21
6.016024102
  0
LINE
  5
2D6
100
AcDbEntity
  8
ASSI
100
AcDbLine
 62
7
  6
CONTINUOUS
 10
-20.4802214082
 20
6.016024102
 11
-20.9837254082
 21
6.016024102
  0
LINE
  5
2D7
100
AcDbEntity
  8
SUPERFICI
100
AcDbLine
 62
7
  6
CONTINUOUS
 10
-25.1755434082
 20
6.064756102
 11
-24.7923554082
 21
6.064756102
  0
LINE
  5
2D8
100
AcDbEntity
  8
IGES_SCRITTE
100
AcDbLine
 62
7
  6
CONTINUOUS
 10
-25.1755434082
 20
6.064756102
 11
-24.7923554082
 21
6.064756102
  0
LINE
  5
2D9
100
AcDbEntity
  8
ASSI
100
AcDbLine
 62
7
  6
CONTINUOUS
 10
-25.1755434082
 20
6.064756102
 11
-24.7923554082
 21
6.064756102
  0
LINE
  5
2DA
100
AcDbEntity
  8
SUPERFICI
100
AcDbLine
 62
7
  6
CONTINUOUS
 10
-24.6427194082
 20
6.064756102
 11
-24.2251554082
 21
6.064756102
  0
LINE
  5
2DB
100
AcDbEntity
  8
IGES_SCRITTE
100
AcDbLine
 62
7
  6
CONTINUOUS
 10
-24.6427194082
 20
6.064756102
 11
-24.2251554082
 21
6.064756102
  0
LINE
  5
2DC
100
AcDbEntity
  8
ASSI
100
AcDbLine
 62
7
  6
CONTINUOUS
 10
-24.6427194082
 20
6.064756102
 11
-24.2251554082
 21
6.064756102
  0
LINE
  5
2DD
100
AcDbEntity
  8
SUPERFICI
100
AcDbLine
 62
7
  6
CONTINUOUS
 10
-20.9837254082
 20
6.184869102
 11
-20.4802214082
 21
6.184869102
  0
LINE
  5
2DE
100
AcDbEntity
  8
IGES_SCRITTE
100
AcDbLine
 62
7
  6
CONTINUOUS
 10
-20.9837254082
 20
6.184869102
 11
-20.4802214082
 21
6.184869102
  0
LINE
  5
2DF
100
AcDbEntity
  8
ASSI
100
AcDbLine
 62
7
  6
CONTINUOUS
 10
-20.9837254082
 20
6.184869102
 11
-20.4802214082
 21
6.184869102
  0
LINE
  5
2E0
100
AcDbEntity
  8
SUPERFICI
100
AcDbLine
 62
7
  6
CONTINUOUS
 10
-24.7923554082
 20
6.749036102
 11
-24.6427194082
 21
6.749036102
  0
LINE
  5
2E1
100
AcDbEntity
  8
IGES_SCRITTE
100
AcDbLine
 62
7
  6
CONTINUOUS
 10
-24.7923554082
 20
6.749036102
 11
-24.6427194082
 21
6.749036102
  0
LINE
  5
2E2
100
AcDbEntity
  8
ASSI
100
AcDbLine
 62
7
  6
CONTINUOUS
 10
-24.7923554082
 20
6.749036102
 11
-24.6427194082
 21
6.749036102
  0
LINE
  5
2E3
100
AcDbEntity
  8
SUPERFICI
100
AcDbLine
 62
7
  6
CONTINUOUS
 10
-25.3251794082
 20
6.806464102
 11
-25.1755434082
 21
6.806464102
  0
LINE
  5
2E4
100
AcDbEntity
  8
IGES_SCRITTE
100
AcDbLine
 62
7
  6
CONTINUOUS
 10
-25.3251794082
 20
6.806464102
 11
-25.1755434082
 21
6.806464102
  0
LINE
  5
2E5
100
AcDbEntity
  8
ASSI
100
AcDbLine
 62
7
  6
CONTINUOUS
 10
-25.3251794082
 20
6.806464102
 11
-25.1755434082
 21
6.806464102
  0
LINE
  5
2E6
100
AcDbEntity
  8
SUPERFICI
100
AcDbLine
 62
7
  6
CONTINUOUS
 10
-24.2251554082
 20
6.818697102
 11
-24.0755194082
 21
6.818697102
  0
LINE
  5
2E7
100
AcDbEntity
  8
IGES_SCRITTE
100
AcDbLine
 62
7
  6
CONTINUOUS
 10
-24.2251554082
 20
6.818697102
 11
-24.0755194082
 21
6.818697102
  0
LINE
  5
2E8
100
AcDbEntity
  8
ASSI
100
AcDbLine
 62
7
  6
CONTINUOUS
 10
-24.2251554082
 20
6.818697102
 11
-24.0755194082
 21
6.818697102
  0
LWPOLYLINE
  5
2E9
100
AcDbEntity
  8
ASSI
100
AcDbPolyline
 62
7
  6
CONTINUOUS
 90
3
 70
0
 10
-24.6652622577
 20
5.6617295185
 10
-24.6828087601
 20
5.6618924331
 10
-24.7003494081
 20
5.6619309711
  0
LINE
  5
2EA
100
AcDbEntity
  8
ASSI
100
AcDbLine
 62
7
  6
CONTINUOUS
 10
-24.6477190199
 20
5.6613712764
 11
-24.6526557504
 21
5.661623167
  0
LWPOLYLINE
  5
2EB
100
AcDbEntity
  8
ASSI
100
AcDbPolyline
 62
7
  6
CONTINUOUS
 90
7
 70
0
 10
-24.5830674711
 20
5.4810261465
 10
-24.6025521973
 20
5.4832853479
 10
-24.6220708095
 20
5.4851683235
 10
-24.6416165722
 20
5.4866596711
 10
-24.6611827499
 20
5.4877439888
 10
-24.680762607
 20
5.4884058742
 10
-24.7003494081
 20
5.4886299254
  0
LINE
  5
2EC
100
AcDbEntity
  8
ASSI
100
AcDbLine
 62
7
  6
CONTINUOUS
 10
-24.5690432622
 20
5.4791656262
 11
-24.57081101
 21
5.4794118589
  0
LWPOLYLINE
  5
2ED
100
AcDbEntity
  8
ASSI
100
AcDbPolyline
 62
7
  6
CONTINUOUS
 90
6
 70
0
 10
-24.5427817906
 20
5.6514879606
 10
-24.5601993738
 20
5.6542560717
 10
-24.5776751483
 20
5.6565700697
 10
-24.5952000853
 20
5.6584150762
 10
-24.6126788147
 20
5.6597850062
 10
-24.6301881659
 20
5.6607467559
  0
LINE
  5
2EE
100
AcDbEntity
  8
ASSI
100
AcDbLine
 62
7
  6
CONTINUOUS
 10
-24.5249187277
 20
5.6481979818
 11
-24.5254314273
 21
5.6482806146
  0
LWPOLYLINE
  5
2EF
100
AcDbEntity
  8
ASSI
100
AcDbPolyline
 62
7
  6
CONTINUOUS
 90
5
 70
0
 10
-24.4996546664
 20
5.4658659351
 10
-24.5133951444
 20
5.4691714552
 10
-24.5272161174
 20
5.4721203934
 10
-24.5411057109
 20
5.4747465406
 10
-24.5550520506
 20
5.4770836879
  0
LINE
  5
2F0
100
AcDbEntity
  8
ASSI
100
AcDbLine
 62
7
  6
CONTINUOUS
 10
-24.4860065578
 20
5.462170042
 11
-24.486253641
 21
5.4622247176
  0
LWPOLYLINE
  5
2F1
100
AcDbEntity
  8
ASSI
100
AcDbPolyline
 62
7
  6
CONTINUOUS
 90
5
 70
0
 10
-24.4376385488
 20
5.6253676878
 10
-24.4556872512
 20
5.6309961414
 10
-24.4738739436
 20
5.6361719503
 10
-24.4909684752
 20
5.6406077312
 10
-24.5081573126
 20
5.6446489121
  0
LINE
  5
2F2
100
AcDbEntity
  8
SUPERFICI
100
AcDbLine
 62
7
  6
CONTINUOUS
 10
-20.8442004082
 20
3.980474102
 11
-20.4802214082
 21
3.849847102
  0
LINE
  5
2F3
100
AcDbEntity
  8
ASSI
100
AcDbLine
 62
7
  6
CONTINUOUS
 10
-20.8442004082
 20
3.980474102
 11
-20.4802214082
 21
3.849847102
  0
LINE
  5
2F4
100
AcDbEntity
  8
IGES_SCRITTE
100
AcDbLine
 62
7
  6
CONTINUOUS
 10
-20.4802214082
 20
3.849847102
 11
-20.8442004082
 21
3.980474102
  0
LINE
  5
2F5
100
AcDbEntity
  8
SUPERFICI
100
AcDbLine
 62
7
  6
CONTINUOUS
 10
-21.5487594082
 20
4.234723102
 11
-20.9938354082
 21
4.032645102
  0
LINE
  5
2F6
100
AcDbEntity
  8
ASSI
100
AcDbLine
 62
7
  6
CONTINUOUS
 10
-21.5487594082
 20
4.234723102
 11
-20.9938354082
 21
4.032645102
  0
LINE
  5
2F7
100
AcDbEntity
  8
IGES_SCRITTE
100
AcDbLine
 62
7
  6
CONTINUOUS
 10
-20.9938354082
 20
4.032645102
 11
-21.5487594082
 21
4.234723102
  0
LINE
  5
2F8
100
AcDbEntity
  8
IGES_SCRITTE
100
AcDbLine
 62
7
  6
CONTINUOUS
 10
-21.7308924082
 20
4.145882102
 11
-20.4802214082
 21
3.675744102
  0
LINE
  5
2F9
100
AcDbEntity
  8
SUPERFICI
100
AcDbLine
 62
7
  6
CONTINUOUS
 10
-20.4802214082
 20
3.675744102
 11
-21.7308924082
 21
4.145882102
  0
LINE
  5
2FA
100
AcDbEntity
  8
ASSI
100
AcDbLine
 62
7
  6
CONTINUOUS
 10
-20.4802214082
 20
3.675744102
 11
-21.7308924082
 21
4.145882102
  0
LINE
  5
2FB
100
AcDbEntity
  8
ASSI
100
AcDbLine
 62
7
  6
CONTINUOUS
 10
-24.4005239792
 20
5.612082036
 11
-24.4020332359
 21
5.6126834742
  0
LINE
  5
2FC
100
AcDbEntity
  8
ASSI
100
AcDbLine
 62
7
  6
CONTINUOUS
 10
-24.3822292426
 20
5.6046227933
 11
-24.3845156862
 21
5.6055930279
  0
LWPOLYLINE
  5
2FD
100
AcDbEntity
  8
ASSI
100
AcDbPolyline
 62
7
  6
CONTINUOUS
 90
3
 70
0
 10
-24.3481575811
 20
5.5888344825
 10
-24.3501484525
 20
5.5898287406
 10
-24.3672142483
 20
5.5979805644
  0
LWPOLYLINE
  5
2FE
100
AcDbEntity
  8
ASSI
100
AcDbPolyline
 62
7
  6
CONTINUOUS
 90
8
 70
0
 10
-24.3920140838
 20
5.4229339548
 10
-24.4032222901
 20
5.4290718914
 10
-24.414613073
 20
5.4348538447
 10
-24.4261724089
 20
5.4402816025
 10
-24.4378862742
 20
5.4453569531
 10
-24.4497406453
 20
5.4500816843
 10
-24.4617214987
 20
5.4544575842
 10
-24.4738148107
 20
5.4584864407
  0
LINE
  5
2FF
100
AcDbEntity
  8
ASSI
100
AcDbLine
 62
7
  6
CONTINUOUS
 10
-24.3321114906
 20
5.5804569657
 11
-24.3333378294
 21
5.5811202134
  0
LINE
  5
300
100
AcDbEntity
  8
ASSI
100
AcDbLine
 62
7
  6
CONTINUOUS
 10
-24.3810024776
 20
5.4164382468
 11
-24.381453922
 21
5.4167171612
  0
LINE
  5
301
100
AcDbEntity
  8
0
100
AcDbLine
 62
253
  6
CONTINUOUS
 10
-42.6483369743
 20
20.2570545317
 11
-42.6186656238
 21
20.2273831812
  0
LINE
  5
302
100
AcDbEntity
  8
ASSI
100
AcDbLine
 62
253
  6
CONTINUOUS
 10
-42.6483369743
 20
20.2570545317
 11
-42.6186656238
 21
20.2273831812
  0
LINE
  5
303
100
AcDbEntity
  8
DRAFT
100
AcDbLine
 62
7
  6
CONTINUOUS
 10
-33.3027004082
 20
40.5244861485
 11
-33.3027004082
 21
39.411435102
  0
LINE
  5
304
100
AcDbEntity
  8
ASSI
100
AcDbLine
 62
7
  6
CONTINUOUS
 10
-33.3027004082
 20
40.5244861485
 11
-33.3027004082
 21
39.411435102
  0
LINE
  5
305
100
AcDbEntity
  8
DRAFT
100
AcDbLine
 62
7
  6
CONTINUOUS
 10
-33.3027004082
 20
-1.7016159444
 11
-33.3027004082
 21
-0.588564898
  0
LINE
  5
306
100
AcDbEntity
  8
ASSI
100
AcDbLine
 62
7
  6
CONTINUOUS
 10
-33.3027004082
 20
-1.7016159444
 11
-33.3027004082
 21
-0.588564898
  0
LWPOLYLINE
  5
307
100
AcDbEntity
  8
ASSI
100
AcDbPolyline
 62
7
  6
CONTINUOUS
 90
37
 70
0
 10
-43.2481176293
 20
19.0572498109
 10
-43.2175751092
 20
19.0807746298
 10
-43.1876647095
 20
19.1050665866
 10
-43.1583864301
 20
19.1301256814
 10
-43.1297135744
 20
19.1559761433
 10
-43.1016728391
 20
19.182593743
 10
-43.0743443135
 20
19.2099057933
 10
-43.0477375373
 20
19.2379070768
 10
-43.0218429709
 20
19.2666028108
 10
-42.9967120848
 20
19.2959359603
 10
-42.9723463969
 20
19.3259077924
 10
-42.9487443894
 20
19.3565170399
 10
-42.9259529793
 20
19.3877028656
 10
-42.9039737775
 20
19.4194664162
 10
-42.8828051729
 20
19.4518065451
 10
-42.8624892494
 20
19.4846589752
 10
-42.8430277016
 20
19.5180247255
 10
-42.8244188348
 20
19.551902777
 10
-42.8066996484
 20
19.5862257952
 10
-42.7898719108
 20
19.6209946657
 10
-42.7739338535
 20
19.6562085029
 10
-42.7589171709
 20
19.6917973156
 10
-42.7448236946
 20
19.7277618505
 10
-42.731651593
 20
19.7641013607
 10
-42.7194270657
 20
19.8007436153
 10
-42.7081519966
 20
19.8376892175
 10
-42.6978245018
 20
19.8749375639
 10
-42.6884651293
 20
19.9124146133
 10
-42.6800758042
 20
19.9501208221
 10
-42.6726546014
 20
19.9880557338
 10
-42.6662162939
 20
20.0261439385
 10
-42.6607628364
 20
20.0643857425
 10
-42.6562922741
 20
20.1027808393
 10
-42.652813516
 20
20.1412528996
 10
-42.6503295314
 20
20.1797764802
 10
-42.6488373508
 20
20.2183770242
 10
-42.6483369743
 20
20.2570545317
  0
LINE
  5
308
100
AcDbEntity
  8
ASSI
100
AcDbLine
 62
7
  6
CONTINUOUS
 10
-25.4781914082
 20
30.888070102
 11
-26.5527784082
 21
30.579937102
  0
LINE
  5
309
100
AcDbEntity
  8
ASSI
100
AcDbLine
 62
7
  6
CONTINUOUS
 10
-25.9908174082
 20
30.411060102
 11
-24.9027044082
 21
30.723066102
  0
LINE
  5
30A
100
AcDbEntity
  8
SUPERFICI
100
AcDbLine
 62
7
  6
CONTINUOUS
 10
-21.1303274082
 20
6.099537102
 11
-21.7308924082
 21
6.458258102
  0
LINE
  5
30B
100
AcDbEntity
  8
IGES_SCRITTE
100
AcDbLine
 62
7
  6
CONTINUOUS
 10
-21.1303274082
 20
6.099537102
 11
-21.7308924082
 21
6.458258102
  0
LINE
  5
30C
100
AcDbEntity
  8
ASSI
100
AcDbLine
 62
7
  6
CONTINUOUS
 10
-21.1303274082
 20
6.099537102
 11
-21.7308924082
 21
6.458258102
  0
LINE
  5
30D
100
AcDbEntity
  8
SUPERFICI
100
AcDbLine
 62
7
  6
CONTINUOUS
 10
-21.7308924082
 20
6.656727102
 11
-20.9837254082
 21
6.184869102
  0
LINE
  5
30E
100
AcDbEntity
  8
IGES_SCRITTE
100
AcDbLine
 62
7
  6
CONTINUOUS
 10
-21.7308924082
 20
6.656727102
 11
-20.9837254082
 21
6.184869102
  0
LINE
  5
30F
100
AcDbEntity
  8
ASSI
100
AcDbLine
 62
7
  6
CONTINUOUS
 10
-21.7308924082
 20
6.656727102
 11
-20.9837254082
 21
6.184869102
  0
LINE
  5
310
100
AcDbEntity
  8
ASSI
100
AcDbLine
 62
7
  6
CONTINUOUS
 10
-25.4166134082
 20
28.506234102
 11
-26.5527784082
 21
28.141452102
  0
LINE
  5
311
100
AcDbEntity
  8
ASSI
100
AcDbLine
 62
7
  6
CONTINUOUS
 10
-26.5527784082
 20
27.811435102
 11
-24.9027004082
 21
28.341217102
  0
LINE
  5
312
100
AcDbEntity
  8
ASSI
100
AcDbLine
 62
253
  6
CONTINUOUS
 10
-43.2483369743
 20
19.0592533851
 11
-43.2527004082
 21
19.061435102
  0
LWPOLYLINE
  5
313
100
AcDbEntity
  8
ASSI
100
AcDbPolyline
 62
7
  6
CONTINUOUS
 90
17
 70
0
 10
-24.1478857003
 20
5.40937507
 10
-24.1488581431
 20
5.4109624371
 10
-24.1571933224
 20
5.4239903029
 10
-24.165964107
 20
5.4367226339
 10
-24.1751638695
 20
5.4491436171
 10
-24.1847859822
 20
5.4612374399
 10
-24.1948238176
 20
5.4729882896
 10
-24.2056590484
 20
5.4847935855
 10
-24.2169118611
 20
5.4962109408
 10
-24.228560192
 20
5.5072379943
 10
-24.2405819771
 20
5.5178723848
 10
-24.2529551526
 20
5.5281117511
 10
-24.2656576547
 20
5.537953732
 10
-24.2786674195
 20
5.5473959664
 10
-24.2919623832
 20
5.5564360929
 10
-24.305520482
 20
5.5650717503
 10
-24.319319652
 20
5.5733005776
  0
LINE
  5
314
100
AcDbEntity
  8
ASSI
100
AcDbLine
 62
7
  6
CONTINUOUS
 10
-24.1401535867
 20
5.3962313927
 11
-24.1409651967
 21
5.3976548489
  0
LINE
  5
315
100
AcDbEntity
  8
ASSI
100
AcDbLine
 62
7
  6
CONTINUOUS
 10
-24.1328336952
 20
5.3827736109
 11
-24.1335211108
 21
5.3840833513
  0
LINE
  5
316
100
AcDbEntity
  8
ASSI
100
AcDbLine
 62
7
  6
CONTINUOUS
 10
-24.1259400858
 20
5.3690388296
 11
-24.1265325127
 21
5.3702637568
  0
LINE
  5
317
100
AcDbEntity
  8
ASSI
100
AcDbLine
 62
7
  6
CONTINUOUS
 10
-24.1132592773
 20
5.3402400086
 11
-24.1133796896
 21
5.3405399853
  0
LINE
  5
318
100
AcDbEntity
  8
ASSI
100
AcDbLine
 62
7
  6
CONTINUOUS
 10
-24.1194586985
 20
5.3549899437
 11
-24.1200060302
 21
5.3562118782
  0
LINE
  5
319
100
AcDbEntity
  8
DRAFT
100
AcDbLine
 62
7
  6
CONTINUOUS
 10
-28.1634699236
 20
-1.6992939929
 11
-28.1634699236
 21
40.522164197
  0
LINE
  5
31A
100
AcDbEntity
  8
ASSI
100
AcDbLine
 62
7
  6
CONTINUOUS
 10
-28.1634699236
 20
-1.6992939929
 11
-28.1634699236
 21
40.522164197
  0
LWPOLYLINE
  5
31B
100
AcDbEntity
  8
ASSI
100
AcDbPolyline
 62
7
  6
CONTINUOUS
 90
10
 70
0
 10
-24.0777851521
 20
5.188457723
 10
-24.079565548
 20
5.2057348202
 10
-24.0818701036
 20
5.2229675135
 10
-24.0847057334
 20
5.2401306476
 10
-24.0880793518
 20
5.2571990671
 10
-24.0919978731
 20
5.2741476167
 10
-24.0964682119
 20
5.290951141
 10
-24.1014972826
 20
5.3075844846
 10
-24.1070919996
 20
5.3240224923
 10
-24.1076901185
 20
5.3256717675
  0
LINE
  5
31C
100
AcDbEntity
  8
ASSI
100
AcDbLine
 62
7
  6
CONTINUOUS
 10
-26.5527834082
 20
34.2975146018
 11
-26.5527834082
 21
33.524700102
  0
LINE
  5
31D
100
AcDbEntity
  8
ASSI
100
AcDbLine
 62
7
  6
CONTINUOUS
 10
-26.5527834082
 20
32.774907102
 11
-26.5527834082
 21
32.444878102
  0
LINE
  5
31E
100
AcDbEntity
  8
ASSI
100
AcDbLine
 62
7
  6
CONTINUOUS
 10
-26.5527784082
 20
31.695094102
 11
-26.5527784082
 21
31.196204102
  0
LINE
  5
31F
100
AcDbEntity
  8
ASSI
100
AcDbLine
 62
7
  6
CONTINUOUS
 10
-26.5527784082
 20
30.579937102
 11
-26.5527784082
 21
30.081047102
  0
LINE
  5
320
100
AcDbEntity
  8
ASSI
100
AcDbLine
 62
7
  6
CONTINUOUS
 10
-26.5527784082
 20
29.751047102
 11
-26.5527784082
 21
29.421035102
  0
LINE
  5
321
100
AcDbEntity
  8
ASSI
100
AcDbLine
 62
7
  6
CONTINUOUS
 10
-26.5527784082
 20
29.201028102
 11
-26.5527784082
 21
28.871011102
  0
LINE
  5
322
100
AcDbEntity
  8
ASSI
100
AcDbLine
 62
7
  6
CONTINUOUS
 10
-26.5527784082
 20
28.141452102
 11
-26.5527784082
 21
27.811435102
  0
LINE
  5
323
100
AcDbEntity
  8
ASSI
100
AcDbLine
 62
7
  6
CONTINUOUS
 10
-26.2475204082
 20
33.850163102
 11
-26.2475204082
 21
34.2516883591
  0
LINE
  5
324
100
AcDbEntity
  8
ASSI
100
AcDbLine
 62
7
  6
CONTINUOUS
 10
-25.8459844082
 20
34.2516883591
 11
-25.8459844082
 21
33.850167102
  0
LINE
  5
325
100
AcDbEntity
  8
ASSI
100
AcDbLine
 62
7
  6
CONTINUOUS
 10
-25.5407224082
 20
33.854754102
 11
-25.5407184082
 21
34.142782102
  0
LINE
  5
326
100
AcDbEntity
  8
ASSI
100
AcDbLine
 62
7
  6
CONTINUOUS
 10
-25.5407184082
 20
32.769829102
 11
-25.5407184082
 21
32.449960102
  0
LINE
  5
327
100
AcDbEntity
  8
IGES_SCRITTE
100
AcDbLine
 62
7
  6
CONTINUOUS
 10
-25.3251794082
 20
5.136611102
 11
-25.3251794082
 21
4.629974102
  0
LINE
  5
328
100
AcDbEntity
  8
IGES_SCRITTE
100
AcDbLine
 62
7
  6
CONTINUOUS
 10
-25.3251794082
 20
4.013536102
 11
-25.3251794082
 21
3.822043102
  0
LINE
  5
329
100
AcDbEntity
  8
SUPERFICI
100
AcDbLine
 62
7
  6
CONTINUOUS
 10
-25.3251794082
 20
2.004173102
 11
-25.3251794082
 21
2.246218102
  0
LINE
  5
32A
100
AcDbEntity
  8
IGES_SCRITTE
100
AcDbLine
 62
7
  6
CONTINUOUS
 10
-25.3251794082
 20
2.004173102
 11
-25.3251794082
 21
2.246218102
  0
LINE
  5
32B
100
AcDbEntity
  8
ASSI
100
AcDbLine
 62
7
  6
CONTINUOUS
 10
-25.3251794082
 20
2.004173102
 11
-25.3251794082
 21
2.246218102
  0
LINE
  5
32C
100
AcDbEntity
  8
SUPERFICI
100
AcDbLine
 62
7
  6
CONTINUOUS
 10
-25.3251794082
 20
2.961840102
 11
-25.3251794082
 21
3.202167102
  0
LINE
  5
32D
100
AcDbEntity
  8
IGES_SCRITTE
100
AcDbLine
 62
7
  6
CONTINUOUS
 10
-25.3251794082
 20
2.961840102
 11
-25.3251794082
 21
3.202167102
  0
LINE
  5
32E
100
AcDbEntity
  8
ASSI
100
AcDbLine
 62
7
  6
CONTINUOUS
 10
-25.3251794082
 20
2.961840102
 11
-25.3251794082
 21
3.202167102
  0
LINE
  5
32F
100
AcDbEntity
  8
SUPERFICI
100
AcDbLine
 62
7
  6
CONTINUOUS
 10
-25.3251794082
 20
3.822043102
 11
-25.3251794082
 21
4.013536102
  0
LINE
  5
330
100
AcDbEntity
  8
ASSI
100
AcDbLine
 62
7
  6
CONTINUOUS
 10
-25.3251794082
 20
3.822043102
 11
-25.3251794082
 21
4.013536102
  0
LINE
  5
331
100
AcDbEntity
  8
SUPERFICI
100
AcDbLine
 62
7
  6
CONTINUOUS
 10
-25.3251794082
 20
4.629974102
 11
-25.3251794082
 21
5.1366036188
  0
LINE
  5
332
100
AcDbEntity
  8
ASSI
100
AcDbLine
 62
7
  6
CONTINUOUS
 10
-25.3251794082
 20
4.629974102
 11
-25.3251794082
 21
5.1366036188
  0
LINE
  5
333
100
AcDbEntity
  8
SUPERFICI
100
AcDbLine
 62
7
  6
CONTINUOUS
 10
-25.3251794082
 20
5.895810102
 11
-25.3251794082
 21
6.806464102
  0
LINE
  5
334
100
AcDbEntity
  8
IGES_SCRITTE
100
AcDbLine
 62
7
  6
CONTINUOUS
 10
-25.3251794082
 20
5.895810102
 11
-25.3251794082
 21
6.806464102
  0
LINE
  5
335
100
AcDbEntity
  8
ASSI
100
AcDbLine
 62
7
  6
CONTINUOUS
 10
-25.3251794082
 20
5.895810102
 11
-25.3251794082
 21
6.806464102
  0
LINE
  5
336
100
AcDbEntity
  8
ASSI
100
AcDbLine
 62
7
  6
CONTINUOUS
 10
-25.2272064082
 20
32.349298102
 11
-25.2272064082
 21
32.870496102
  0
LINE
  5
337
100
AcDbEntity
  8
SUPERFICI
100
AcDbLine
 62
7
  6
CONTINUOUS
 10
-25.1805984082
 20
5.1139704754
 11
-25.1805984082
 21
4.798819102
  0
LINE
  5
338
100
AcDbEntity
  8
ASSI
100
AcDbLine
 62
7
  6
CONTINUOUS
 10
-25.1805984082
 20
5.1139704754
 11
-25.1805984082
 21
4.798819102
  0
LINE
  5
339
100
AcDbEntity
  8
IGES_SCRITTE
100
AcDbLine
 62
7
  6
CONTINUOUS
 10
-25.1805984082
 20
4.798819102
 11
-25.1805984082
 21
5.113964102
  0
LINE
  5
33A
100
AcDbEntity
  8
SUPERFICI
100
AcDbLine
 62
7
  6
CONTINUOUS
 10
-25.1755434082
 20
6.806464102
 11
-25.1755434082
 21
6.064756102
  0
LINE
  5
33B
100
AcDbEntity
  8
IGES_SCRITTE
100
AcDbLine
 62
7
  6
CONTINUOUS
 10
-25.1755434082
 20
6.806464102
 11
-25.1755434082
 21
6.064756102
  0
LINE
  5
33C
100
AcDbEntity
  8
ASSI
100
AcDbLine
 62
7
  6
CONTINUOUS
 10
-25.1755434082
 20
6.806464102
 11
-25.1755434082
 21
6.064756102
  0
LINE
  5
33D
100
AcDbEntity
  8
ASSI
100
AcDbLine
 62
7
  6
CONTINUOUS
 10
-24.9027084082
 20
32.974677102
 11
-24.9027044082
 21
33.304693102
  0
LINE
  5
33E
100
AcDbEntity
  8
ASSI
100
AcDbLine
 62
7
  6
CONTINUOUS
 10
-24.9027084082
 20
33.524700102
 11
-24.9027084082
 21
33.854717102
  0
LINE
  5
33F
100
AcDbEntity
  8
ASSI
100
AcDbLine
 62
7
  6
CONTINUOUS
 10
-24.9027044082
 20
30.081047102
 11
-24.9027044082
 21
30.411060102
  0
LINE
  5
340
100
AcDbEntity
  8
ASSI
100
AcDbLine
 62
7
  6
CONTINUOUS
 10
-24.9027044082
 20
31.365081102
 11
-24.9027044082
 21
31.695094102
  0
LINE
  5
341
100
AcDbEntity
  8
ASSI
100
AcDbLine
 62
7
  6
CONTINUOUS
 10
-24.9027004082
 20
28.341217102
 11
-24.9027044082
 21
28.671242102
  0
LINE
  5
342
100
AcDbEntity
  8
ASSI
100
AcDbLine
 62
7
  6
CONTINUOUS
 10
-24.9027004082
 20
29.421031102
 11
-24.9027044082
 21
29.751043102
  0
LINE
  5
343
100
AcDbEntity
  8
ASSI
100
AcDbLine
 62
7
  6
CONTINUOUS
 10
-24.9027044082
 20
30.723066102
 11
-24.9027084082
 21
31.053070102
  0
LINE
  5
344
100
AcDbEntity
  8
ASSI
100
AcDbLine
 62
7
  6
CONTINUOUS
 10
-24.9027044082
 20
31.915101102
 11
-24.9027084082
 21
32.245113102
  0
LINE
  5
345
100
AcDbEntity
  8
ASSI
100
AcDbLine
 62
7
  6
CONTINUOUS
 10
-24.9027084082
 20
34.473496102
 11
-24.9027124082
 21
34.845204102
  0
LINE
  5
346
100
AcDbEntity
  8
SUPERFICI
100
AcDbLine
 62
7
  6
CONTINUOUS
 10
-24.7923554082
 20
6.064756102
 11
-24.7923554082
 21
6.749036102
  0
LINE
  5
347
100
AcDbEntity
  8
IGES_SCRITTE
100
AcDbLine
 62
7
  6
CONTINUOUS
 10
-24.7923554082
 20
6.064756102
 11
-24.7923554082
 21
6.749036102
  0
LINE
  5
348
100
AcDbEntity
  8
ASSI
100
AcDbLine
 62
7
  6
CONTINUOUS
 10
-24.7923554082
 20
6.064756102
 11
-24.7923554082
 21
6.749036102
  0
LWPOLYLINE
  5
349
100
AcDbEntity
  8
IGES_SCRITTE
100
AcDbPolyline
 62
7
  6
CONTINUOUS
 90
54
 70
0
 10
-25.1805987192
 20
5.1139640152
 10
-25.1804510188
 20
5.1260116903
 10
-25.1800006343
 20
5.1380633033
 10
-25.1792366401
 20
5.1501070088
 10
-25.178148111
 20
5.1621309619
 10
-25.1767241216
 20
5.1741233174
 10
-25.1749537465
 20
5.1860722302
 10
-25.1728260604
 20
5.1979658551
 10
-25.170330138
 20
5.2097923471
 10
-25.1674550538
 20
5.2215398609
 10
-25.1644626851
 20
5.2322784576
 10
-25.1611345016
 20
5.2429219109
 10
-25.1574656183
 20
5.2534521272
 10
-25.15345115
 20
5.2638510128
 10
-25.1490862117
 20
5.2741004741
 10
-25.1443659184
 20
5.2841824174
 10
-25.139285385
 20
5.294078749
 10
-25.1338397264
 20
5.3037713755
 10
-25.1280240577
 20
5.313242203
 10
-25.1217060651
 20
5.3226630474
 10
-25.1150158823
 20
5.3318305601
 10
-25.1079718001
 20
5.3407412751
 10
-25.1005921091
 20
5.3493917265
 10
-25.0928951004
 20
5.3577784484
 10
-25.0848990645
 20
5.3658979747
 10
-25.0766222923
 20
5.3737468395
 10
-25.0680830746
 20
5.3813215768
 10
-25.0592997021
 20
5.3886187208
 10
-25.0502904657
 20
5.3956348054
 10
-25.0410736562
 20
5.4023663646
 10
-25.0304973211
 20
5.4095829794
 10
-25.0196963387
 20
5.4164382468
 10
-25.0086847325
 20
5.4229339548
 10
-24.9974765262
 20
5.4290718914
 10
-24.9860857433
 20
5.4348538447
 10
-24.9745264074
 20
5.4402816025
 10
-24.9628125421
 20
5.4453569531
 10
-24.950958171
 20
5.4500816843
 10
-24.9389773176
 20
5.4544575842
 10
-24.9268840056
 20
5.4584864407
 10
-24.9146922585
 20
5.462170042
 10
-24.9010441499
 20
5.4658659351
 10
-24.8873036719
 20
5.4691714552
 10
-24.8734826989
 20
5.4721203934
 10
-24.8595931054
 20
5.4747465406
 10
-24.8456467656
 20
5.4770836879
 10
-24.8316555541
 20
5.4791656262
 10
-24.8176313452
 20
5.4810261465
 10
-24.798146619
 20
5.4832853479
 10
-24.7786280068
 20
5.4851683235
 10
-24.7590822441
 20
5.4866596711
 10
-24.7395160664
 20
5.4877439888
 10
-24.7199362093
 20
5.4884058742
 10
-24.7003494081
 20
5.4886299254
  0
LWPOLYLINE
  5
34A
100
AcDbEntity
  8
ASSI
100
AcDbPolyline
 62
7
  6
CONTINUOUS
 90
5
 70
0
 10
-25.1805987192
 20
5.1139640152
 10
-25.1804510188
 20
5.1260116903
 10
-25.1800006343
 20
5.1380633033
 10
-25.1792366401
 20
5.1501070088
 10
-25.178148111
 20
5.1621309619
  0
LWPOLYLINE
  5
34B
100
AcDbEntity
  8
IGES_SCRITTE
100
AcDbPolyline
 62
7
  6
CONTINUOUS
 90
55
 70
0
 10
-25.3251790381
 20
5.1366115617
 10
-25.3249296347
 20
5.1538709384
 10
-25.3241768149
 20
5.1711613773
 10
-25.3229136642
 20
5.188457723
 10
-25.3211332683
 20
5.2057348202
 10
-25.3188287126
 20
5.2229675135
 10
-25.3159930829
 20
5.2401306476
 10
-25.3126194645
 20
5.2571990671
 10
-25.3087009432
 20
5.2741476167
 10
-25.3042306044
 20
5.290951141
 10
-25.2992015337
 20
5.3075844846
 10
-25.2936068167
 20
5.3240224923
 10
-25.287439539
 20
5.3402400086
 10
-25.2806927861
 20
5.3562118782
 10
-25.2741663036
 20
5.3702637568
 10
-25.2671777055
 20
5.3840833513
 10
-25.2597336195
 20
5.3976548489
 10
-25.2518406731
 20
5.4109624371
 10
-25.2435054939
 20
5.4239903029
 10
-25.2347347093
 20
5.4367226339
 10
-25.2255349468
 20
5.4491436171
 10
-25.2159128341
 20
5.4612374399
 10
-25.2058749987
 20
5.4729882896
 10
-25.1950397679
 20
5.4847935855
 10
-25.1837869551
 20
5.4962109408
 10
-25.1721386243
 20
5.5072379943
 10
-25.1601168392
 20
5.5178723848
 10
-25.1477436637
 20
5.5281117511
 10
-25.1350411616
 20
5.537953732
 10
-25.1220313968
 20
5.5473959664
 10
-25.1087364331
 20
5.5564360929
 10
-25.0951783343
 20
5.5650717503
 10
-25.0813791643
 20
5.5733005776
 10
-25.0673609869
 20
5.5811202134
 10
-25.0505503638
 20
5.5898287406
 10
-25.033484568
 20
5.5979805644
 10
-25.0161831301
 20
5.6055930279
 10
-24.9986655804
 20
5.6126834742
 10
-24.9809514494
 20
5.6192692465
 10
-24.9630602675
 20
5.6253676878
 10
-24.9450115651
 20
5.6309961414
 10
-24.9268248727
 20
5.6361719503
 10
-24.9097303411
 20
5.6406077312
 10
-24.8925415037
 20
5.6446489121
 10
-24.875267389
 20
5.6482806146
 10
-24.8579170257
 20
5.6514879606
 10
-24.8404994425
 20
5.6542560717
 10
-24.823023668
 20
5.6565700697
 10
-24.805498731
 20
5.6584150762
 10
-24.7880200016
 20
5.6597850062
 10
-24.7705106504
 20
5.6607467559
 10
-24.7529797964
 20
5.6613712764
 10
-24.7354365586
 20
5.6617295185
 10
-24.7178900562
 20
5.6618924331
 10
-24.7003494081
 20
5.6619309711
  0
LWPOLYLINE
  5
34C
100
AcDbEntity
  8
SUPERFICI
100
AcDbPolyline
 62
7
  6
CONTINUOUS
 90
52
 70
0
 10
-25.3251794082
 20
5.1366036188
 10
-25.3248688788
 20
5.1552623459
 10
-25.3240107411
 20
5.173679015
 10
-25.3226049949
 20
5.1918536259
 10
-25.3206338261
 20
5.2098277108
 10
-25.3181150489
 20
5.2275597376
 10
-25.315102106
 20
5.2449251103
 10
-25.3115918755
 20
5.2619055719
 10
-25.3075874793
 20
5.2785193793
 10
-25.3031517255
 20
5.2946967069
 10
-25.2982958905
 20
5.3104024771
 10
-25.2930086978
 20
5.3256717675
 10
-25.2873191267
 20
5.3405399853
 10
-25.2812401178
 20
5.3549899437
 10
-25.2747587304
 20
5.3690388296
 10
-25.2678651211
 20
5.3827736109
 10
-25.2605452295
 20
5.3962313927
 10
-25.252813116
 20
5.40937507
 10
-25.2447011174
 20
5.4221802957
 10
-25.2362234053
 20
5.43463342
 10
-25.2273658081
 20
5.4467480928
 10
-25.2181181474
 20
5.4585409168
 10
-25.2085188079
 20
5.4699792314
 10
-25.1985294049
 20
5.4810956972
 10
-25.1880246062
 20
5.4920048992
 10
-25.1769829078
 20
5.5027445752
 10
-25.1654258137
 20
5.5132769875
 10
-25.1532925037
 20
5.5236035078
 10
-25.1405509689
 20
5.5337536555
 10
-25.1272332182
 20
5.5436979112
 10
-25.1133744579
 20
5.5533490887
 10
-25.0990035172
 20
5.562689398
 10
-25.084091567
 20
5.5717366291
 10
-25.0685873257
 20
5.5804569657
 10
-25.0525412352
 20
5.5888344825
 10
-25.0359028536
 20
5.596885105
 10
-25.0184695737
 20
5.6046227933
 10
-25.000174837
 20
5.612082036
 10
-24.9810852021
 20
5.6192283446
 10
-24.9611977377
 20
5.6259722143
 10
-24.9401759846
 20
5.6323822196
 10
-24.918356402
 20
5.638389786
 10
-24.8967454359
 20
5.6436996854
 10
-24.8757800886
 20
5.6481979818
 10
-24.8550233577
 20
5.6519986113
 10
-24.8341706828
 20
5.6551481538
 10
-24.8133457759
 20
5.6576078682
 10
-24.792424925
 20
5.6594164956
 10
-24.7707324324
 20
5.6607368393
 10
-24.7480430659
 20
5.661623167
 10
-24.7245820578
 20
5.6620212109
 10
-24.7003494081
 20
5.6619309711
  0
LWPOLYLINE
  5
34D
100
AcDbEntity
  8
ASSI
100
AcDbPolyline
 62
7
  6
CONTINUOUS
 90
52
 70
0
 10
-25.3251794082
 20
5.1366036188
 10
-25.3248688788
 20
5.1552623459
 10
-25.3240107411
 20
5.173679015
 10
-25.3226049949
 20
5.1918536259
 10
-25.3206338261
 20
5.2098277108
 10
-25.3181150489
 20
5.2275597376
 10
-25.315102106
 20
5.2449251103
 10
-25.3115918755
 20
5.2619055719
 10
-25.3075874793
 20
5.2785193793
 10
-25.3031517255
 20
5.2946967069
 10
-25.2982958905
 20
5.3104024771
 10
-25.2930086978
 20
5.3256717675
 10
-25.2873191267
 20
5.3405399853
 10
-25.2812401178
 20
5.3549899437
 10
-25.2747587304
 20
5.3690388296
 10
-25.2678651211
 20
5.3827736109
 10
-25.2605452295
 20
5.3962313927
 10
-25.252813116
 20
5.40937507
 10
-25.2447011174
 20
5.4221802957
 10
-25.2362234053
 20
5.43463342
 10
-25.2273658081
 20
5.4467480928
 10
-25.2181181474
 20
5.4585409168
 10
-25.2085188079
 20
5.4699792314
 10
-25.1985294049
 20
5.4810956972
 10
-25.1880246062
 20
5.4920048992
 10
-25.1769829078
 20
5.5027445752
 10
-25.1654258137
 20
5.5132769875
 10
-25.1532925037
 20
5.5236035078
 10
-25.1405509689
 20
5.5337536555
 10
-25.1272332182
 20
5.5436979112
 10
-25.1133744579
 20
5.5533490887
 10
-25.0990035172
 20
5.562689398
 10
-25.084091567
 20
5.5717366291
 10
-25.0685873257
 20
5.5804569657
 10
-25.0525412352
 20
5.5888344825
 10
-25.0359028536
 20
5.596885105
 10
-25.0184695737
 20
5.6046227933
 10
-25.000174837
 20
5.612082036
 10
-24.9810852021
 20
5.6192283446
 10
-24.9611977377
 20
5.6259722143
 10
-24.9401759846
 20
5.6323822196
 10
-24.918356402
 20
5.638389786
 10
-24.8967454359
 20
5.6436996854
 10
-24.8757800886
 20
5.6481979818
 10
-24.8550233577
 20
5.6519986113
 10
-24.8341706828
 20
5.6551481538
 10
-24.8133457759
 20
5.6576078682
 10
-24.792424925
 20
5.6594164956
 10
-24.7707324324
 20
5.6607368393
 10
-24.7480430659
 20
5.661623167
 10
-24.7245820578
 20
5.6620212109
 10
-24.7003494081
 20
5.6619309711
  0
LWPOLYLINE
  5
34E
100
AcDbEntity
  8
ASSI
100
AcDbPolyline
 62
7
  6
CONTINUOUS
 90
3
 70
0
 10
-25.3249296347
 20
5.1538709384
 10
-25.3241768149
 20
5.1711613773
 10
-25.3240107411
 20
5.173679015
  0
LWPOLYLINE
  5
34F
100
AcDbEntity
  8
ASSI
100
AcDbPolyline
 62
7
  6
CONTINUOUS
 90
24
 70
0
 10
-24.2257450698
 20
5.1860722302
 10
-24.2278727558
 20
5.1979658551
 10
-24.2303686783
 20
5.2097923471
 10
-24.2332437625
 20
5.2215398609
 10
-24.2362361311
 20
5.2322784576
 10
-24.2395643146
 20
5.2429219109
 10
-24.243233198
 20
5.2534521272
 10
-24.2472476663
 20
5.2638510128
 10
-24.2516126046
 20
5.2741004741
 10
-24.2563328979
 20
5.2841824174
 10
-24.2614134313
 20
5.294078749
 10
-24.2668590898
 20
5.3037713755
 10
-24.2726747585
 20
5.313242203
 10
-24.2789927511
 20
5.3226630474
 10
-24.285682934
 20
5.3318305601
 10
-24.2927270162
 20
5.3407412751
 10
-24.3001067071
 20
5.3493917265
 10
-24.3078037159
 20
5.3577784484
 10
-24.3157997518
 20
5.3658979747
 10
-24.324076524
 20
5.3737468395
 10
-24.3326157417
 20
5.3813215768
 10
-24.3413991142
 20
5.3886187208
 10
-24.3504083505
 20
5.3956348054
 10
-24.3596251601
 20
5.4023663646
  0
LINE
  5
350
100
AcDbEntity
  8
ASSI
100
AcDbLine
 62
7
  6
CONTINUOUS
 10
-24.2239302358
 20
5.1738730934
 11
-24.2239746947
 21
5.1741233174
  0
LWPOLYLINE
  5
351
100
AcDbEntity
  8
ASSI
100
AcDbPolyline
 62
7
  6
CONTINUOUS
 90
3
 70
0
 10
-24.0757691816
 20
5.1538709384
 10
-24.0765220014
 20
5.1711613773
 10
-24.0766880752
 20
5.1736790151
  0
LWPOLYLINE
  5
352
100
AcDbEntity
  8
SUPERFICI
100
AcDbPolyline
 62
7
  6
CONTINUOUS
 90
49
 70
0
 10
-24.2201004082
 20
5.1139704761
 10
-24.22039537
 20
5.1297031371
 10
-24.221128619
 20
5.1449342941
 10
-24.2223001551
 20
5.1596639471
 10
-24.2239302358
 20
5.1738730934
 10
-24.2259986037
 20
5.1875807357
 10
-24.2284444863
 20
5.2008438821
 10
-24.2312649347
 20
5.2136710523
 10
-24.2344628978
 20
5.2260537265
 10
-24.2379864506
 20
5.2380233528
 10
-24.241838451
 20
5.2495947394
 10
-24.246016041
 20
5.260753078
 10
-24.250458722
 20
5.2714853924
 10
-24.2551367539
 20
5.2817469392
 10
-24.2600798769
 20
5.2915824617
 10
-24.2653168123
 20
5.3011132138
 10
-24.2708189474
 20
5.3103216265
 10
-24.2766148949
 20
5.3192252688
 10
-24.2828192144
 20
5.3279981011
 10
-24.2894459013
 20
5.3366839518
 10
-24.2964809602
 20
5.3452389926
 10
-24.3039969644
 20
5.3537056981
 10
-24.3120178158
 20
5.3621192365
 10
-24.3205196126
 20
5.3704444398
 10
-24.3295032221
 20
5.3786182786
 10
-24.3389831766
 20
5.3866488167
 10
-24.348944944
 20
5.3945279904
 10
-24.359345795
 20
5.4021685799
 10
-24.3701803167
 20
5.4095621627
 10
-24.381453922
 20
5.4167171612
 10
-24.3931401208
 20
5.4235716225
 10
-24.4052405147
 20
5.430123058
 10
-24.4177535019
 20
5.4363739563
 10
-24.430647787
 20
5.4422698299
 10
-24.4438553181
 20
5.4477922507
 10
-24.4574441469
 20
5.4529596468
 10
-24.4715871335
 20
5.4577728153
 10
-24.486253641
 20
5.4622247176
 10
-24.5014743062
 20
5.4663223923
 10
-24.5175138988
 20
5.4700877524
 10
-24.5344575728
 20
5.4735207884
 10
-24.5522201742
 20
5.4766215098
 10
-24.57081101
 20
5.4794118589
 10
-24.5902116329
 20
5.4819380424
 10
-24.6104404902
 20
5.4841538536
 10
-24.6315622314
 20
5.4859426153
 10
-24.6535984064
 20
5.4872654349
 10
-24.6765274653
 20
5.488161205
 10
-24.7003494081
 20
5.4886299254
  0
LWPOLYLINE
  5
353
100
AcDbEntity
  8
ASSI
100
AcDbPolyline
 62
7
  6
CONTINUOUS
 90
49
 70
0
 10
-24.2201004082
 20
5.1139704761
 10
-24.22039537
 20
5.1297031371
 10
-24.221128619
 20
5.1449342941
 10
-24.2223001551
 20
5.1596639471
 10
-24.2239302358
 20
5.1738730934
 10
-24.2259986037
 20
5.1875807357
 10
-24.2284444863
 20
5.2008438821
 10
-24.2312649347
 20
5.2136710523
 10
-24.2344628978
 20
5.2260537265
 10
-24.2379864506
 20
5.2380233528
 10
-24.241838451
 20
5.2495947394
 10
-24.246016041
 20
5.260753078
 10
-24.250458722
 20
5.2714853924
 10
-24.2551367539
 20
5.2817469392
 10
-24.2600798769
 20
5.2915824617
 10
-24.2653168123
 20
5.3011132138
 10
-24.2708189474
 20
5.3103216265
 10
-24.2766148949
 20
5.3192252688
 10
-24.2828192144
 20
5.3279981011
 10
-24.2894459013
 20
5.3366839518
 10
-24.2964809602
 20
5.3452389926
 10
-24.3039969644
 20
5.3537056981
 10
-24.3120178158
 20
5.3621192365
 10
-24.3205196126
 20
5.3704444398
 10
-24.3295032221
 20
5.3786182786
 10
-24.3389831766
 20
5.3866488167
 10
-24.348944944
 20
5.3945279904
 10
-24.359345795
 20
5.4021685799
 10
-24.3701803167
 20
5.4095621627
 10
-24.381453922
 20
5.4167171612
 10
-24.3931401208
 20
5.4235716225
 10
-24.4052405147
 20
5.430123058
 10
-24.4177535019
 20
5.4363739563
 10
-24.430647787
 20
5.4422698299
 10
-24.4438553181
 20
5.4477922507
 10
-24.4574441469
 20
5.4529596468
 10
-24.4715871335
 20
5.4577728153
 10
-24.486253641
 20
5.4622247176
 10
-24.5014743062
 20
5.4663223923
 10
-24.5175138988
 20
5.4700877524
 10
-24.5344575728
 20
5.4735207884
 10
-24.5522201742
 20
5.4766215098
 10
-24.57081101
 20
5.4794118589
 10
-24.5902116329
 20
5.4819380424
 10
-24.6104404902
 20
5.4841538536
 10
-24.6315622314
 20
5.4859426153
 10
-24.6535984064
 20
5.4872654349
 10
-24.6765274653
 20
5.488161205
 10
-24.7003494081
 20
5.4886299254
  0
LWPOLYLINE
  5
354
100
AcDbEntity
  8
IGES_SCRITTE
100
AcDbPolyline
 62
7
  6
CONTINUOUS
 90
55
 70
0
 10
-24.0755197782
 20
5.1366115617
 10
-24.0757691816
 20
5.1538709384
 10
-24.0765220014
 20
5.1711613773
 10
-24.0777851521
 20
5.188457723
 10
-24.079565548
 20
5.2057348202
 10
-24.0818701036
 20
5.2229675135
 10
-24.0847057334
 20
5.2401306476
 10
-24.0880793518
 20
5.2571990671
 10
-24.0919978731
 20
5.2741476167
 10
-24.0964682119
 20
5.290951141
 10
-24.1014972826
 20
5.3075844846
 10
-24.1070919996
 20
5.3240224923
 10
-24.1132592773
 20
5.3402400086
 10
-24.1200060302
 20
5.3562118782
 10
-24.1265325127
 20
5.3702637568
 10
-24.1335211108
 20
5.3840833513
 10
-24.1409651967
 20
5.3976548489
 10
-24.1488581431
 20
5.4109624371
 10
-24.1571933224
 20
5.4239903029
 10
-24.165964107
 20
5.4367226339
 10
-24.1751638695
 20
5.4491436171
 10
-24.1847859822
 20
5.4612374399
 10
-24.1948238176
 20
5.4729882896
 10
-24.2056590484
 20
5.4847935855
 10
-24.2169118611
 20
5.4962109408
 10
-24.228560192
 20
5.5072379943
 10
-24.2405819771
 20
5.5178723848
 10
-24.2529551526
 20
5.5281117511
 10
-24.2656576547
 20
5.537953732
 10
-24.2786674195
 20
5.5473959664
 10
-24.2919623832
 20
5.5564360929
 10
-24.305520482
 20
5.5650717503
 10
-24.319319652
 20
5.5733005776
 10
-24.3333378294
 20
5.5811202134
 10
-24.3501484525
 20
5.5898287406
 10
-24.3672142483
 20
5.5979805644
 10
-24.3845156862
 20
5.6055930279
 10
-24.4020332359
 20
5.6126834742
 10
-24.4197473669
 20
5.6192692465
 10
-24.4376385488
 20
5.6253676878
 10
-24.4556872512
 20
5.6309961414
 10
-24.4738739436
 20
5.6361719503
 10
-24.4909684752
 20
5.6406077312
 10
-24.5081573126
 20
5.6446489121
 10
-24.5254314273
 20
5.6482806146
 10
-24.5427817906
 20
5.6514879606
 10
-24.5601993738
 20
5.6542560717
 10
-24.5776751483
 20
5.6565700697
 10
-24.5952000853
 20
5.6584150762
 10
-24.6126788147
 20
5.6597850062
 10
-24.6301881659
 20
5.6607467559
 10
-24.6477190199
 20
5.6613712764
 10
-24.6652622577
 20
5.6617295185
 10
-24.6828087601
 20
5.6618924331
 10
-24.7003494081
 20
5.6619309711
  0
LWPOLYLINE
  5
355
100
AcDbEntity
  8
IGES_SCRITTE
100
AcDbPolyline
 62
7
  6
CONTINUOUS
 90
54
 70
0
 10
-24.2201000971
 20
5.1139640152
 10
-24.2202477975
 20
5.1260116903
 10
-24.220698182
 20
5.1380633033
 10
-24.2214621762
 20
5.1501070088
 10
-24.2225507053
 20
5.1621309619
 10
-24.2239746947
 20
5.1741233174
 10
-24.2257450698
 20
5.1860722302
 10
-24.2278727558
 20
5.1979658551
 10
-24.2303686783
 20
5.2097923471
 10
-24.2332437625
 20
5.2215398609
 10
-24.2362361311
 20
5.2322784576
 10
-24.2395643146
 20
5.2429219109
 10
-24.243233198
 20
5.2534521272
 10
-24.2472476663
 20
5.2638510128
 10
-24.2516126046
 20
5.2741004741
 10
-24.2563328979
 20
5.2841824174
 10
-24.2614134313
 20
5.294078749
 10
-24.2668590898
 20
5.3037713755
 10
-24.2726747585
 20
5.313242203
 10
-24.2789927511
 20
5.3226630474
 10
-24.285682934
 20
5.3318305601
 10
-24.2927270162
 20
5.3407412751
 10
-24.3001067071
 20
5.3493917265
 10
-24.3078037159
 20
5.3577784484
 10
-24.3157997518
 20
5.3658979747
 10
-24.324076524
 20
5.3737468395
 10
-24.3326157417
 20
5.3813215768
 10
-24.3413991142
 20
5.3886187208
 10
-24.3504083505
 20
5.3956348054
 10
-24.3596251601
 20
5.4023663646
 10
-24.3702014952
 20
5.4095829794
 10
-24.3810024776
 20
5.4164382468
 10
-24.3920140838
 20
5.4229339548
 10
-24.4032222901
 20
5.4290718914
 10
-24.414613073
 20
5.4348538447
 10
-24.4261724089
 20
5.4402816025
 10
-24.4378862742
 20
5.4453569531
 10
-24.4497406453
 20
5.4500816843
 10
-24.4617214987
 20
5.4544575842
 10
-24.4738148107
 20
5.4584864407
 10
-24.4860065578
 20
5.462170042
 10
-24.4996546664
 20
5.4658659351
 10
-24.5133951444
 20
5.4691714552
 10
-24.5272161174
 20
5.4721203934
 10
-24.5411057109
 20
5.4747465406
 10
-24.5550520506
 20
5.4770836879
 10
-24.5690432622
 20
5.4791656262
 10
-24.5830674711
 20
5.4810261465
 10
-24.6025521973
 20
5.4832853479
 10
-24.6220708095
 20
5.4851683235
 10
-24.6416165722
 20
5.4866596711
 10
-24.6611827499
 20
5.4877439888
 10
-24.680762607
 20
5.4884058742
 10
-24.7003494081
 20
5.4886299254
  0
LWPOLYLINE
  5
356
100
AcDbEntity
  8
ASSI
100
AcDbPolyline
 62
7
  6
CONTINUOUS
 90
5
 70
0
 10
-24.2201000971
 20
5.1139640152
 10
-24.2202477975
 20
5.1260116903
 10
-24.220698182
 20
5.1380633033
 10
-24.2214621762
 20
5.1501070088
 10
-24.2225507053
 20
5.1621309619
  0
LINE
  5
357
100
AcDbEntity
  8
SUPERFICI
100
AcDbLine
 62
7
  6
CONTINUOUS
 10
-24.6427194082
 20
6.749036102
 11
-24.6427194082
 21
6.064756102
  0
LINE
  5
358
100
AcDbEntity
  8
IGES_SCRITTE
100
AcDbLine
 62
7
  6
CONTINUOUS
 10
-24.6427194082
 20
6.749036102
 11
-24.6427194082
 21
6.064756102
  0
LINE
  5
359
100
AcDbEntity
  8
ASSI
100
AcDbLine
 62
7
  6
CONTINUOUS
 10
-24.6427194082
 20
6.749036102
 11
-24.6427194082
 21
6.064756102
  0
LINE
  5
35A
100
AcDbEntity
  8
IGES_SCRITTE
100
AcDbLine
 62
7
  6
CONTINUOUS
 10
-24.5891334082
 20
4.097150102
 11
-24.5891334082
 21
3.708906102
  0
LINE
  5
35B
100
AcDbEntity
  8
SUPERFICI
100
AcDbLine
 62
7
  6
CONTINUOUS
 10
-24.5891334082
 20
3.708906102
 11
-24.5891334082
 21
4.097150102
  0
LINE
  5
35C
100
AcDbEntity
  8
ASSI
100
AcDbLine
 62
7
  6
CONTINUOUS
 10
-24.5891334082
 20
3.708906102
 11
-24.5891334082
 21
4.097150102
  0
LINE
  5
35D
100
AcDbEntity
  8
SUPERFICI
100
AcDbLine
 62
7
  6
CONTINUOUS
 10
-24.4394984082
 20
4.158116102
 11
-24.4394984082
 21
3.656635102
  0
LINE
  5
35E
100
AcDbEntity
  8
ASSI
100
AcDbLine
 62
7
  6
CONTINUOUS
 10
-24.4394984082
 20
4.158116102
 11
-24.4394984082
 21
3.656635102
  0
LINE
  5
35F
100
AcDbEntity
  8
IGES_SCRITTE
100
AcDbLine
 62
7
  6
CONTINUOUS
 10
-24.4394984082
 20
3.656635102
 11
-24.4394984082
 21
4.158116102
  0
LINE
  5
360
100
AcDbEntity
  8
SUPERFICI
100
AcDbLine
 62
7
  6
CONTINUOUS
 10
-24.2251554082
 20
6.064756102
 11
-24.2251554082
 21
6.818697102
  0
LINE
  5
361
100
AcDbEntity
  8
IGES_SCRITTE
100
AcDbLine
 62
7
  6
CONTINUOUS
 10
-24.2251554082
 20
6.064756102
 11
-24.2251554082
 21
6.818697102
  0
LINE
  5
362
100
AcDbEntity
  8
ASSI
100
AcDbLine
 62
7
  6
CONTINUOUS
 10
-24.2251554082
 20
6.064756102
 11
-24.2251554082
 21
6.818697102
  0
LINE
  5
363
100
AcDbEntity
  8
IGES_SCRITTE
100
AcDbLine
 62
7
  6
CONTINUOUS
 10
-24.2201004082
 20
5.113964102
 11
-24.2201004082
 21
4.798819102
  0
LINE
  5
364
100
AcDbEntity
  8
SUPERFICI
100
AcDbLine
 62
7
  6
CONTINUOUS
 10
-24.2201004082
 20
4.798819102
 11
-24.2201004082
 21
5.1139704761
  0
LINE
  5
365
100
AcDbEntity
  8
ASSI
100
AcDbLine
 62
7
  6
CONTINUOUS
 10
-24.2201004082
 20
4.798819102
 11
-24.2201004082
 21
5.1139704761
  0
LINE
  5
366
100
AcDbEntity
  8
SUPERFICI
100
AcDbLine
 62
7
  6
CONTINUOUS
 10
-24.0755194082
 20
6.818697102
 11
-24.0755194082
 21
5.895810102
  0
LINE
  5
367
100
AcDbEntity
  8
IGES_SCRITTE
100
AcDbLine
 62
7
  6
CONTINUOUS
 10
-24.0755194082
 20
6.818697102
 11
-24.0755194082
 21
5.895810102
  0
LINE
  5
368
100
AcDbEntity
  8
ASSI
100
AcDbLine
 62
7
  6
CONTINUOUS
 10
-24.0755194082
 20
6.818697102
 11
-24.0755194082
 21
5.895810102
  0
LINE
  5
369
100
AcDbEntity
  8
SUPERFICI
100
AcDbLine
 62
7
  6
CONTINUOUS
 10
-24.0755194082
 20
5.1366036196
 11
-24.0755194082
 21
4.629974102
  0
LINE
  5
36A
100
AcDbEntity
  8
ASSI
100
AcDbLine
 62
7
  6
CONTINUOUS
 10
-24.0755194082
 20
5.1366036196
 11
-24.0755194082
 21
4.629974102
  0
LINE
  5
36B
100
AcDbEntity
  8
SUPERFICI
100
AcDbLine
 62
7
  6
CONTINUOUS
 10
-24.0755194082
 20
4.466285102
 11
-24.0755194082
 21
4.281768102
  0
LINE
  5
36C
100
AcDbEntity
  8
ASSI
100
AcDbLine
 62
7
  6
CONTINUOUS
 10
-24.0755194082
 20
4.466285102
 11
-24.0755194082
 21
4.281768102
  0
LINE
  5
36D
100
AcDbEntity
  8
SUPERFICI
100
AcDbLine
 62
7
  6
CONTINUOUS
 10
-24.0755194082
 20
3.526007102
 11
-24.0755194082
 21
3.351904102
  0
LINE
  5
36E
100
AcDbEntity
  8
ASSI
100
AcDbLine
 62
7
  6
CONTINUOUS
 10
-24.0755194082
 20
3.526007102
 11
-24.0755194082
 21
3.351904102
  0
LINE
  5
36F
100
AcDbEntity
  8
SUPERFICI
100
AcDbLine
 62
7
  6
CONTINUOUS
 10
-24.0755194082
 20
3.202167102
 11
-24.0755194082
 21
3.038478102
  0
LINE
  5
370
100
AcDbEntity
  8
IGES_SCRITTE
100
AcDbLine
 62
7
  6
CONTINUOUS
 10
-24.0755194082
 20
3.202167102
 11
-24.0755194082
 21
3.038478102
  0
LINE
  5
371
100
AcDbEntity
  8
ASSI
100
AcDbLine
 62
7
  6
CONTINUOUS
 10
-24.0755194082
 20
3.202167102
 11
-24.0755194082
 21
3.038478102
  0
LINE
  5
372
100
AcDbEntity
  8
SUPERFICI
100
AcDbLine
 62
7
  6
CONTINUOUS
 10
-24.0755194082
 20
2.686733102
 11
-24.0755194082
 21
2.519607102
  0
LINE
  5
373
100
AcDbEntity
  8
IGES_SCRITTE
100
AcDbLine
 62
7
  6
CONTINUOUS
 10
-24.0755194082
 20
2.686733102
 11
-24.0755194082
 21
2.519607102
  0
LINE
  5
374
100
AcDbEntity
  8
ASSI
100
AcDbLine
 62
7
  6
CONTINUOUS
 10
-24.0755194082
 20
2.686733102
 11
-24.0755194082
 21
2.519607102
  0
LINE
  5
375
100
AcDbEntity
  8
SUPERFICI
100
AcDbLine
 62
7
  6
CONTINUOUS
 10
-24.0755194082
 20
2.167862102
 11
-24.0755194082
 21
2.004173102
  0
LINE
  5
376
100
AcDbEntity
  8
IGES_SCRITTE
100
AcDbLine
 62
7
  6
CONTINUOUS
 10
-24.0755194082
 20
2.167862102
 11
-24.0755194082
 21
2.004173102
  0
LINE
  5
377
100
AcDbEntity
  8
ASSI
100
AcDbLine
 62
7
  6
CONTINUOUS
 10
-24.0755194082
 20
2.167862102
 11
-24.0755194082
 21
2.004173102
  0
LINE
  5
378
100
AcDbEntity
  8
IGES_SCRITTE
100
AcDbLine
 62
7
  6
CONTINUOUS
 10
-24.0755194082
 20
3.351904102
 11
-24.0755194082
 21
3.526007102
  0
LINE
  5
379
100
AcDbEntity
  8
IGES_SCRITTE
100
AcDbLine
 62
7
  6
CONTINUOUS
 10
-24.0755194082
 20
4.281768102
 11
-24.0755194082
 21
4.466285102
  0
LINE
  5
37A
100
AcDbEntity
  8
IGES_SCRITTE
100
AcDbLine
 62
7
  6
CONTINUOUS
 10
-24.0755194082
 20
4.629974102
 11
-24.0755194082
 21
5.136611102
  0
LINE
  5
37B
100
AcDbEntity
  8
SUPERFICI
100
AcDbLine
 62
7
  6
CONTINUOUS
 10
-23.5275304082
 20
3.680091102
 11
-23.5275304082
 21
3.849038102
  0
LINE
  5
37C
100
AcDbEntity
  8
IGES_SCRITTE
100
AcDbLine
 62
7
  6
CONTINUOUS
 10
-23.5275304082
 20
3.680091102
 11
-23.5275304082
 21
3.849038102
  0
LINE
  5
37D
100
AcDbEntity
  8
ASSI
100
AcDbLine
 62
7
  6
CONTINUOUS
 10
-23.5275304082
 20
3.680091102
 11
-23.5275304082
 21
3.849038102
  0
LINE
  5
37E
100
AcDbEntity
  8
SUPERFICI
100
AcDbLine
 62
7
  6
CONTINUOUS
 10
-23.5275304082
 20
4.137996102
 11
-23.5275304082
 21
4.338285102
  0
LINE
  5
37F
100
AcDbEntity
  8
IGES_SCRITTE
100
AcDbLine
 62
7
  6
CONTINUOUS
 10
-23.5275304082
 20
4.137996102
 11
-23.5275304082
 21
4.338285102
  0
LINE
  5
380
100
AcDbEntity
  8
ASSI
100
AcDbLine
 62
7
  6
CONTINUOUS
 10
-23.5275304082
 20
4.137996102
 11
-23.5275304082
 21
4.338285102
  0
LINE
  5
381
100
AcDbEntity
  8
SUPERFICI
100
AcDbLine
 62
7
  6
CONTINUOUS
 10
-23.5275304082
 20
4.966957102
 11
-23.5275304082
 21
5.130545102
  0
LINE
  5
382
100
AcDbEntity
  8
IGES_SCRITTE
100
AcDbLine
 62
7
  6
CONTINUOUS
 10
-23.5275304082
 20
4.966957102
 11
-23.5275304082
 21
5.130545102
  0
LINE
  5
383
100
AcDbEntity
  8
ASSI
100
AcDbLine
 62
7
  6
CONTINUOUS
 10
-23.5275304082
 20
4.966957102
 11
-23.5275304082
 21
5.130545102
  0
LINE
  5
384
100
AcDbEntity
  8
RACCORDO
100
AcDbLine
 62
7
  6
CONTINUOUS
 10
-23.0527004082
 20
-2.3385039667
 11
-23.0527004082
 21
-2.5385344324
  0
LINE
  5
385
100
AcDbEntity
  8
ASSI
100
AcDbLine
 62
7
  6
CONTINUOUS
 10
-23.0527004082
 20
-2.3385039667
 11
-23.0527004082
 21
-2.5385344324
  0
LINE
  5
386
100
AcDbEntity
  8
RACCORDO
100
AcDbLine
 62
7
  6
CONTINUOUS
 10
-23.0527004082
 20
41.1613741708
 11
-23.0527004082
 21
41.3614046364
  0
LINE
  5
387
100
AcDbEntity
  8
ASSI
100
AcDbLine
 62
7
  6
CONTINUOUS
 10
-23.0527004082
 20
41.1613741708
 11
-23.0527004082
 21
41.3614046364
  0
LINE
  5
388
100
AcDbEntity
  8
CURVE
100
AcDbLine
 62
252
  6
CONTINUOUS
 10
-22.9027004082
 20
-2.738564898
 11
-22.9027004082
 21
-2.3385717704
  0
LINE
  5
389
100
AcDbEntity
  8
ASSI
100
AcDbLine
 62
252
  6
CONTINUOUS
 10
-22.9027004082
 20
-2.738564898
 11
-22.9027004082
 21
-2.3385717704
  0
LINE
  5
38A
100
AcDbEntity
  8
CURVE
100
AcDbLine
 62
252
  6
CONTINUOUS
 10
-22.9027004082
 20
41.1614419568
 11
-22.9027004082
 21
41.561435102
  0
LINE
  5
38B
100
AcDbEntity
  8
ASSI
100
AcDbLine
 62
252
  6
CONTINUOUS
 10
-22.9027004082
 20
41.1614419568
 11
-22.9027004082
 21
41.561435102
  0
LINE
  5
38C
100
AcDbEntity
  8
RACCORDO
100
AcDbLine
 62
7
  6
CONTINUOUS
 10
-22.7527004082
 20
-2.3385039667
 11
-22.7527004082
 21
-2.5385344324
  0
LINE
  5
38D
100
AcDbEntity
  8
ASSI
100
AcDbLine
 62
7
  6
CONTINUOUS
 10
-22.7527004082
 20
-2.3385039667
 11
-22.7527004082
 21
-2.5385344324
  0
LINE
  5
38E
100
AcDbEntity
  8
RACCORDO
100
AcDbLine
 62
7
  6
CONTINUOUS
 10
-22.7527004082
 20
41.1613741708
 11
-22.7527004082
 21
41.3614046364
  0
LINE
  5
38F
100
AcDbEntity
  8
ASSI
100
AcDbLine
 62
7
  6
CONTINUOUS
 10
-22.7527004082
 20
41.1613741708
 11
-22.7527004082
 21
41.3614046364
  0
LWPOLYLINE
  5
390
100
AcDbEntity
  8
ASSI
100
AcDbPolyline
 62
7
  6
CONTINUOUS
 90
10
 70
0
 10
-25.3229136642
 20
5.188457723
 10
-25.3211332683
 20
5.2057348202
 10
-25.3188287126
 20
5.2229675135
 10
-25.3159930829
 20
5.2401306476
 10
-25.3126194645
 20
5.2571990671
 10
-25.3087009432
 20
5.2741476167
 10
-25.3042306044
 20
5.290951141
 10
-25.2992015337
 20
5.3075844846
 10
-25.2936068167
 20
5.3240224923
 10
-25.2930086978
 20
5.3256717675
  0
LINE
  5
391
100
AcDbEntity
  8
ASSI
100
AcDbLine
 62
7
  6
CONTINUOUS
 10
-25.1767685805
 20
5.1738730935
 11
-25.1767241216
 21
5.1741233174
  0
LWPOLYLINE
  5
392
100
AcDbEntity
  8
ASSI
100
AcDbPolyline
 62
7
  6
CONTINUOUS
 90
23
 70
0
 10
-25.1749537465
 20
5.1860722302
 10
-25.1728260604
 20
5.1979658551
 10
-25.170330138
 20
5.2097923471
 10
-25.1674550538
 20
5.2215398609
 10
-25.1644626851
 20
5.2322784576
 10
-25.1611345016
 20
5.2429219109
 10
-25.1574656183
 20
5.2534521272
 10
-25.15345115
 20
5.2638510128
 10
-25.1490862117
 20
5.2741004741
 10
-25.1443659184
 20
5.2841824174
 10
-25.139285385
 20
5.294078749
 10
-25.1338397264
 20
5.3037713755
 10
-25.1280240577
 20
5.313242203
 10
-25.1217060651
 20
5.3226630474
 10
-25.1150158823
 20
5.3318305601
 10
-25.1079718001
 20
5.3407412751
 10
-25.1005921091
 20
5.3493917265
 10
-25.0928951004
 20
5.3577784484
 10
-25.0848990645
 20
5.3658979747
 10
-25.0766222923
 20
5.3737468395
 10
-25.0680830746
 20
5.3813215768
 10
-25.0592997021
 20
5.3886187208
 10
-25.0502904657
 20
5.3956348054
  0
LINE
  5
393
100
AcDbEntity
  8
0
100
AcDbLine
 62
7
  6
CONTINUOUS
 10
-20.5395844285
 20
31.9723529903
 11
-20.5062053474
 21
32.155941436
  0
LINE
  5
394
100
AcDbEntity
  8
ASSI
100
AcDbLine
 62
7
  6
CONTINUOUS
 10
-20.5395844285
 20
31.9723529903
 11
-20.5062053474
 21
32.155941436
  0
LINE
  5
395
100
AcDbEntity
  8
DRAFT
100
AcDbLine
 62
7
  6
CONTINUOUS
 10
-2.5527004082
 20
40.561435102
 11
-2.5780153225
 21
40.5361201877
  0
LINE
  5
396
100
AcDbEntity
  8
ASSI
100
AcDbLine
 62
7
  6
CONTINUOUS
 10
-2.5527004082
 20
40.561435102
 11
-2.5780153225
 21
40.5361201877
  0
LINE
  5
397
100
AcDbEntity
  8
0
100
AcDbLine
 62
253
  6
CONTINUOUS
 10
-43.2483369743
 20
19.061435102
 11
-43.2527004082
 21
19.061435102
  0
LINE
  5
398
100
AcDbEntity
  8
0
100
AcDbLine
 62
7
  6
CONTINUOUS
 10
-44.0527004082
 20
19.461435102
 11
-43.6527156395
 21
19.461435102
  0
LINE
  5
399
100
AcDbEntity
  8
ASSI
100
AcDbLine
 62
7
  6
CONTINUOUS
 10
-44.0527004082
 20
19.461435102
 11
-43.6527156395
 21
19.461435102
  0
LWPOLYLINE
  5
39A
100
AcDbEntity
  8
ASSI
100
AcDbPolyline
 62
7
  6
CONTINUOUS
 90
46
 70
0
 10
-43.6483522056
 20
19.461435102
 10
-43.6343633111
 20
19.4611889505
 10
-43.6204253262
 20
19.4604585024
 10
-43.6065382509
 20
19.4592437575
 10
-43.5926853014
 20
19.4575420569
 10
-43.5788832615
 20
19.4553560597
 10
-43.5651824822
 20
19.4526937427
 10
-43.5515833338
 20
19.4495533658
 10
-43.5380854461
 20
19.4459366692
 10
-43.5247380593
 20
19.4418568502
 10
-43.5115417237
 20
19.4373122171
 10
-43.498495889
 20
19.4323044617
 10
-43.4856481449
 20
19.4268518567
 10
-43.4729992155
 20
19.4209527773
 10
-43.4605483767
 20
19.4146088484
 10
-43.4483410456
 20
19.4078432173
 10
-43.4363781124
 20
19.400654344
 10
-43.4246586869
 20
19.3930437684
 10
-43.4132255161
 20
19.3850392583
 10
-43.4020796461
 20
19.376639375
 10
-43.3912200308
 20
19.3678455572
 10
-43.3806862788
 20
19.3586898877
 10
-43.3704795809
 20
19.3491710455
 10
-43.3605987464
 20
19.3392903516
 10
-43.3510798118
 20
19.3290838523
 10
-43.3419240992
 20
19.3185503582
 10
-43.3331302866
 20
19.3076910587
 10
-43.3247304441
 20
19.2965455675
 10
-43.3167260107
 20
19.2851128403
 10
-43.3091155474
 20
19.2733939214
 10
-43.3019268074
 20
19.2614315583
 10
-43.2951613307
 20
19.2492248628
 10
-43.2888175774
 20
19.2367747231
 10
-43.2829186798
 20
19.2241265516
 10
-43.2774662626
 20
19.2112796258
 10
-43.2724587012
 20
19.1982346682
 10
-43.2679142551
 20
19.1850392587
 10
-43.263834615
 20
19.1716928485
 10
-43.2602180902
 20
19.1581959863
 10
-43.2570778673
 20
19.1445978987
 10
-43.2544238091
 20
19.1310532274
 10
-43.2522460528
 20
19.1174073306
 10
-43.2505281969
 20
19.1032455104
 10
-43.249264774
 20
19.088429534
 10
-43.2484612515
 20
19.0730976342
 10
-43.2481176293
 20
19.0572498109
  0
LINE
  5
39B
100
AcDbEntity
  8
DRAFT
100
AcDbLine
 62
7
  6
CONTINUOUS
 10
-2.5527004082
 20
-1.738564898
 11
-2.5780153225
 21
-1.7132499836
  0
LINE
  5
39C
100
AcDbEntity
  8
ASSI
100
AcDbLine
 62
7
  6
CONTINUOUS
 10
-2.5527004082
 20
-1.738564898
 11
-2.5780153225
 21
-1.7132499836
  0
LINE
  5
39D
100
AcDbEntity
  8
SUPERFICI
100
AcDbLine
 62
7
  6
CONTINUOUS
 10
-22.2778704082
 20
5.130545102
 11
-22.2778704082
 21
4.940771102
  0
LINE
  5
39E
100
AcDbEntity
  8
IGES_SCRITTE
100
AcDbLine
 62
7
  6
CONTINUOUS
 10
-22.2778704082
 20
5.130545102
 11
-22.2778704082
 21
4.940771102
  0
LINE
  5
39F
100
AcDbEntity
  8
ASSI
100
AcDbLine
 62
7
  6
CONTINUOUS
 10
-22.2778704082
 20
5.130545102
 11
-22.2778704082
 21
4.940771102
  0
LINE
  5
3A0
100
AcDbEntity
  8
SUPERFICI
100
AcDbLine
 62
7
  6
CONTINUOUS
 10
-22.2778704082
 20
4.301786102
 11
-22.2778704082
 21
4.137996102
  0
LINE
  5
3A1
100
AcDbEntity
  8
IGES_SCRITTE
100
AcDbLine
 62
7
  6
CONTINUOUS
 10
-22.2778704082
 20
4.301786102
 11
-22.2778704082
 21
4.137996102
  0
LINE
  5
3A2
100
AcDbEntity
  8
ASSI
100
AcDbLine
 62
7
  6
CONTINUOUS
 10
-22.2778704082
 20
4.301786102
 11
-22.2778704082
 21
4.137996102
  0
LINE
  5
3A3
100
AcDbEntity
  8
SUPERFICI
100
AcDbLine
 62
7
  6
CONTINUOUS
 10
-22.2778704082
 20
3.849038102
 11
-22.2778704082
 21
3.680091102
  0
LINE
  5
3A4
100
AcDbEntity
  8
IGES_SCRITTE
100
AcDbLine
 62
7
  6
CONTINUOUS
 10
-22.2778704082
 20
3.849038102
 11
-22.2778704082
 21
3.680091102
  0
LINE
  5
3A5
100
AcDbEntity
  8
ASSI
100
AcDbLine
 62
7
  6
CONTINUOUS
 10
-22.2778704082
 20
3.849038102
 11
-22.2778704082
 21
3.680091102
  0
LINE
  5
3A6
100
AcDbEntity
  8
IGES_SCRITTE
100
AcDbLine
 62
7
  6
CONTINUOUS
 10
-21.7308924082
 20
4.337375102
 11
-21.7308924082
 21
4.145882102
  0
LINE
  5
3A7
100
AcDbEntity
  8
SUPERFICI
100
AcDbLine
 62
7
  6
CONTINUOUS
 10
-21.7308924082
 20
2.261789102
 11
-21.7308924082
 21
2.430735102
  0
LINE
  5
3A8
100
AcDbEntity
  8
IGES_SCRITTE
100
AcDbLine
 62
7
  6
CONTINUOUS
 10
-21.7308924082
 20
2.261789102
 11
-21.7308924082
 21
2.430735102
  0
LINE
  5
3A9
100
AcDbEntity
  8
ASSI
100
AcDbLine
 62
7
  6
CONTINUOUS
 10
-21.7308924082
 20
2.261789102
 11
-21.7308924082
 21
2.430735102
  0
LINE
  5
3AA
100
AcDbEntity
  8
SUPERFICI
100
AcDbLine
 62
7
  6
CONTINUOUS
 10
-21.7308924082
 20
2.611916102
 11
-21.7308924082
 21
3.627011102
  0
LINE
  5
3AB
100
AcDbEntity
  8
IGES_SCRITTE
100
AcDbLine
 62
7
  6
CONTINUOUS
 10
-21.7308924082
 20
2.611916102
 11
-21.7308924082
 21
3.627011102
  0
LINE
  5
3AC
100
AcDbEntity
  8
ASSI
100
AcDbLine
 62
7
  6
CONTINUOUS
 10
-21.7308924082
 20
2.611916102
 11
-21.7308924082
 21
3.627011102
  0
LINE
  5
3AD
100
AcDbEntity
  8
SUPERFICI
100
AcDbLine
 62
7
  6
CONTINUOUS
 10
-21.7308924082
 20
4.145882102
 11
-21.7308924082
 21
4.337375102
  0
LINE
  5
3AE
100
AcDbEntity
  8
ASSI
100
AcDbLine
 62
7
  6
CONTINUOUS
 10
-21.7308924082
 20
4.145882102
 11
-21.7308924082
 21
4.337375102
  0
LINE
  5
3AF
100
AcDbEntity
  8
SUPERFICI
100
AcDbLine
 62
7
  6
CONTINUOUS
 10
-21.7308924082
 20
4.945118102
 11
-21.7308924082
 21
5.113964102
  0
LINE
  5
3B0
100
AcDbEntity
  8
IGES_SCRITTE
100
AcDbLine
 62
7
  6
CONTINUOUS
 10
-21.7308924082
 20
4.945118102
 11
-21.7308924082
 21
5.113964102
  0
LINE
  5
3B1
100
AcDbEntity
  8
ASSI
100
AcDbLine
 62
7
  6
CONTINUOUS
 10
-21.7308924082
 20
4.945118102
 11
-21.7308924082
 21
5.113964102
  0
LINE
  5
3B2
100
AcDbEntity
  8
SUPERFICI
100
AcDbLine
 62
7
  6
CONTINUOUS
 10
-21.7308924082
 20
5.544065102
 11
-21.7308924082
 21
5.740816102
  0
LINE
  5
3B3
100
AcDbEntity
  8
IGES_SCRITTE
100
AcDbLine
 62
7
  6
CONTINUOUS
 10
-21.7308924082
 20
5.544065102
 11
-21.7308924082
 21
5.740816102
  0
LINE
  5
3B4
100
AcDbEntity
  8
ASSI
100
AcDbLine
 62
7
  6
CONTINUOUS
 10
-21.7308924082
 20
5.544065102
 11
-21.7308924082
 21
5.740816102
  0
LINE
  5
3B5
100
AcDbEntity
  8
SUPERFICI
100
AcDbLine
 62
7
  6
CONTINUOUS
 10
-21.7308924082
 20
6.458258102
 11
-21.7308924082
 21
6.656727102
  0
LINE
  5
3B6
100
AcDbEntity
  8
IGES_SCRITTE
100
AcDbLine
 62
7
  6
CONTINUOUS
 10
-21.7308924082
 20
6.458258102
 11
-21.7308924082
 21
6.656727102
  0
LINE
  5
3B7
100
AcDbEntity
  8
ASSI
100
AcDbLine
 62
7
  6
CONTINUOUS
 10
-21.7308924082
 20
6.458258102
 11
-21.7308924082
 21
6.656727102
  0
LINE
  5
3B8
100
AcDbEntity
  8
SUPERFICI
100
AcDbLine
 62
7
  6
CONTINUOUS
 10
-21.5812564082
 20
3.627011102
 11
-21.5812564082
 21
3.203886102
  0
LINE
  5
3B9
100
AcDbEntity
  8
IGES_SCRITTE
100
AcDbLine
 62
7
  6
CONTINUOUS
 10
-21.5812564082
 20
3.627011102
 11
-21.5812564082
 21
3.203886102
  0
LINE
  5
3BA
100
AcDbEntity
  8
ASSI
100
AcDbLine
 62
7
  6
CONTINUOUS
 10
-21.5812564082
 20
3.627011102
 11
-21.5812564082
 21
3.203886102
  0
LINE
  5
3BB
100
AcDbEntity
  8
SUPERFICI
100
AcDbLine
 62
7
  6
CONTINUOUS
 10
-21.5812564082
 20
3.035040102
 11
-21.5812564082
 21
2.611916102
  0
LINE
  5
3BC
100
AcDbEntity
  8
IGES_SCRITTE
100
AcDbLine
 62
7
  6
CONTINUOUS
 10
-21.5812564082
 20
3.035040102
 11
-21.5812564082
 21
2.611916102
  0
LINE
  5
3BD
100
AcDbEntity
  8
ASSI
100
AcDbLine
 62
7
  6
CONTINUOUS
 10
-21.5812564082
 20
3.035040102
 11
-21.5812564082
 21
2.611916102
  0
LINE
  5
3BE
100
AcDbEntity
  8
IGES_SCRITTE
100
AcDbLine
 62
7
  6
CONTINUOUS
 10
-20.9938354082
 20
4.420989102
 11
-20.9938354082
 21
4.032645102
  0
LINE
  5
3BF
100
AcDbEntity
  8
SUPERFICI
100
AcDbLine
 62
7
  6
CONTINUOUS
 10
-20.9938354082
 20
4.032645102
 11
-20.9938354082
 21
4.420989102
  0
LINE
  5
3C0
100
AcDbEntity
  8
ASSI
100
AcDbLine
 62
7
  6
CONTINUOUS
 10
-20.9938354082
 20
4.032645102
 11
-20.9938354082
 21
4.420989102
  0
LINE
  5
3C1
100
AcDbEntity
  8
0
100
AcDbLine
 62
7
  6
CONTINUOUS
 10
-20.9276234082
 20
29.162200102
 11
-20.9276234082
 21
29.0438715453
  0
LINE
  5
3C2
100
AcDbEntity
  8
ASSI
100
AcDbLine
 62
7
  6
CONTINUOUS
 10
-20.9276234082
 20
29.162200102
 11
-20.9276234082
 21
29.0438715453
  0
LINE
  5
3C3
100
AcDbEntity
  8
0
100
AcDbLine
 62
7
  6
CONTINUOUS
 10
-20.9213654082
 20
30.403507102
 11
-20.9213654082
 21
30.253299102
  0
LINE
  5
3C4
100
AcDbEntity
  8
ASSI
100
AcDbLine
 62
7
  6
CONTINUOUS
 10
-20.9213654082
 20
30.403507102
 11
-20.9213654082
 21
30.253299102
  0
LINE
  5
3C5
100
AcDbEntity
  8
0
100
AcDbLine
 62
7
  6
CONTINUOUS
 10
-20.9025884082
 20
31.711574102
 11
-20.9025884082
 21
30.970962102
  0
LINE
  5
3C6
100
AcDbEntity
  8
ASSI
100
AcDbLine
 62
7
  6
CONTINUOUS
 10
-20.9025884082
 20
31.711574102
 11
-20.9025884082
 21
30.970962102
  0
LINE
  5
3C7
100
AcDbEntity
  8
SUPERFICI
100
AcDbLine
 62
7
  6
CONTINUOUS
 10
-20.8442004082
 20
4.481956102
 11
-20.8442004082
 21
3.980474102
  0
LINE
  5
3C8
100
AcDbEntity
  8
ASSI
100
AcDbLine
 62
7
  6
CONTINUOUS
 10
-20.8442004082
 20
4.481956102
 11
-20.8442004082
 21
3.980474102
  0
LINE
  5
3C9
100
AcDbEntity
  8
IGES_SCRITTE
100
AcDbLine
 62
7
  6
CONTINUOUS
 10
-20.8442004082
 20
3.980474102
 11
-20.8442004082
 21
4.481956102
  0
LINE
  5
3CA
100
AcDbEntity
  8
0
100
AcDbLine
 62
7
  6
CONTINUOUS
 10
-20.7273454082
 20
31.117259102
 11
-20.7273454082
 21
31.711574102
  0
LINE
  5
3CB
100
AcDbEntity
  8
ASSI
100
AcDbLine
 62
7
  6
CONTINUOUS
 10
-20.7273454082
 20
31.117259102
 11
-20.7273454082
 21
31.711574102
  0
LINE
  5
3CC
100
AcDbEntity
  8
SUPERFICI
100
AcDbLine
 62
7
  6
CONTINUOUS
 10
-20.6298574082
 20
5.113964102
 11
-20.6298574082
 21
5.747792102
  0
LINE
  5
3CD
100
AcDbEntity
  8
IGES_SCRITTE
100
AcDbLine
 62
7
  6
CONTINUOUS
 10
-20.6298574082
 20
5.113964102
 11
-20.6298574082
 21
5.747792102
  0
LINE
  5
3CE
100
AcDbEntity
  8
ASSI
100
AcDbLine
 62
7
  6
CONTINUOUS
 10
-20.6298574082
 20
5.113964102
 11
-20.6298574082
 21
5.747792102
  0
LINE
  5
3CF
100
AcDbEntity
  8
0
100
AcDbLine
 62
7
  6
CONTINUOUS
 10
-20.4957733984
 20
33.1218661997
 11
-20.4769974166
 21
33.3096270172
  0
LINE
  5
3D0
100
AcDbEntity
  8
ASSI
100
AcDbLine
 62
7
  6
CONTINUOUS
 10
-20.4957733984
 20
33.1218661997
 11
-20.4769974166
 21
33.3096270172
  0
LINE
  5
3D1
100
AcDbEntity
  8
0
100
AcDbLine
 62
7
  6
CONTINUOUS
 10
-20.1348554082
 20
30.827012102
 11
-20.1098213331
 21
31.0001696213
  0
LINE
  5
3D2
100
AcDbEntity
  8
ASSI
100
AcDbLine
 62
7
  6
CONTINUOUS
 10
-20.1348554082
 20
30.827012102
 11
-20.1098213331
 21
31.0001696213
  0
LINE
  5
3D3
100
AcDbEntity
  8
DRAFT
100
AcDbLine
 62
7
  6
CONTINUOUS
 10
-43.2273854938
 20
-1.7132499836
 11
-43.2527004082
 21
-1.738564898
  0
LINE
  5
3D4
100
AcDbEntity
  8
ASSI
100
AcDbLine
 62
7
  6
CONTINUOUS
 10
-43.2273854938
 20
-1.7132499836
 11
-43.2527004082
 21
-1.738564898
  0
LINE
  5
3D5
100
AcDbEntity
  8
DRAFT
100
AcDbLine
 62
7
  6
CONTINUOUS
 10
-42.6483369743
 20
20.9157985359
 11
-43.2483369743
 21
20.9157985359
  0
LINE
  5
3D6
100
AcDbEntity
  8
ASSI
100
AcDbLine
 62
7
  6
CONTINUOUS
 10
-42.6483369743
 20
20.9157985359
 11
-43.2483369743
 21
20.9157985359
  0
LINE
  5
3D7
100
AcDbEntity
  8
DRAFT
100
AcDbLine
 62
7
  6
CONTINUOUS
 10
-43.2186656238
 20
20.9454698864
 11
-42.6186656238
 21
20.9454698864
  0
LINE
  5
3D8
100
AcDbEntity
  8
ASSI
100
AcDbLine
 62
7
  6
CONTINUOUS
 10
-43.2186656238
 20
20.9454698864
 11
-42.6186656238
 21
20.9454698864
  0
LINE
  5
3D9
100
AcDbEntity
  8
DRAFT
100
AcDbLine
 62
7
  6
CONTINUOUS
 10
-43.2273854938
 20
40.5361201877
 11
-43.2527004082
 21
40.561435102
  0
LINE
  5
3DA
100
AcDbEntity
  8
ASSI
100
AcDbLine
 62
7
  6
CONTINUOUS
 10
-43.2273854938
 20
40.5361201877
 11
-43.2527004082
 21
40.561435102
  0
LINE
  5
3DB
100
AcDbEntity
  8
0
100
AcDbLine
 62
7
  6
CONTINUOUS
 10
-19.8344383917
 20
30.9855658857
 11
-19.8198353659
 21
30.7936325462
  0
LINE
  5
3DC
100
AcDbEntity
  8
ASSI
100
AcDbLine
 62
7
  6
CONTINUOUS
 10
-19.8344383917
 20
30.9855658857
 11
-19.8198353659
 21
30.7936325462
  0
LINE
  5
3DD
100
AcDbEntity
  8
SUPERFICI
100
AcDbLine
 62
7
  6
CONTINUOUS
 10
-20.4802214082
 20
6.184869102
 11
-20.4802214082
 21
6.016024102
  0
LINE
  5
3DE
100
AcDbEntity
  8
IGES_SCRITTE
100
AcDbLine
 62
7
  6
CONTINUOUS
 10
-20.4802214082
 20
6.184869102
 11
-20.4802214082
 21
6.016024102
  0
LINE
  5
3DF
100
AcDbEntity
  8
ASSI
100
AcDbLine
 62
7
  6
CONTINUOUS
 10
-20.4802214082
 20
6.184869102
 11
-20.4802214082
 21
6.016024102
  0
LINE
  5
3E0
100
AcDbEntity
  8
SUPERFICI
100
AcDbLine
 62
7
  6
CONTINUOUS
 10
-20.4802214082
 20
5.747792102
 11
-20.4802214082
 21
4.945118102
  0
LINE
  5
3E1
100
AcDbEntity
  8
IGES_SCRITTE
100
AcDbLine
 62
7
  6
CONTINUOUS
 10
-20.4802214082
 20
5.747792102
 11
-20.4802214082
 21
4.945118102
  0
LINE
  5
3E2
100
AcDbEntity
  8
ASSI
100
AcDbLine
 62
7
  6
CONTINUOUS
 10
-20.4802214082
 20
5.747792102
 11
-20.4802214082
 21
4.945118102
  0
LINE
  5
3E3
100
AcDbEntity
  8
SUPERFICI
100
AcDbLine
 62
7
  6
CONTINUOUS
 10
-20.4802214082
 20
4.790124102
 11
-20.4802214082
 21
4.605607102
  0
LINE
  5
3E4
100
AcDbEntity
  8
ASSI
100
AcDbLine
 62
7
  6
CONTINUOUS
 10
-20.4802214082
 20
4.790124102
 11
-20.4802214082
 21
4.605607102
  0
LINE
  5
3E5
100
AcDbEntity
  8
SUPERFICI
100
AcDbLine
 62
7
  6
CONTINUOUS
 10
-20.4802214082
 20
3.849847102
 11
-20.4802214082
 21
3.675744102
  0
LINE
  5
3E6
100
AcDbEntity
  8
ASSI
100
AcDbLine
 62
7
  6
CONTINUOUS
 10
-20.4802214082
 20
3.849847102
 11
-20.4802214082
 21
3.675744102
  0
LINE
  5
3E7
100
AcDbEntity
  8
SUPERFICI
100
AcDbLine
 62
7
  6
CONTINUOUS
 10
-20.4802214082
 20
3.203886102
 11
-20.4802214082
 21
3.035040102
  0
LINE
  5
3E8
100
AcDbEntity
  8
IGES_SCRITTE
100
AcDbLine
 62
7
  6
CONTINUOUS
 10
-20.4802214082
 20
3.203886102
 11
-20.4802214082
 21
3.035040102
  0
LINE
  5
3E9
100
AcDbEntity
  8
ASSI
100
AcDbLine
 62
7
  6
CONTINUOUS
 10
-20.4802214082
 20
3.203886102
 11
-20.4802214082
 21
3.035040102
  0
LINE
  5
3EA
100
AcDbEntity
  8
SUPERFICI
100
AcDbLine
 62
7
  6
CONTINUOUS
 10
-20.4802214082
 20
2.430735102
 11
-20.4802214082
 21
2.261789102
  0
LINE
  5
3EB
100
AcDbEntity
  8
IGES_SCRITTE
100
AcDbLine
 62
7
  6
CONTINUOUS
 10
-20.4802214082
 20
2.430735102
 11
-20.4802214082
 21
2.261789102
  0
LINE
  5
3EC
100
AcDbEntity
  8
ASSI
100
AcDbLine
 62
7
  6
CONTINUOUS
 10
-20.4802214082
 20
2.430735102
 11
-20.4802214082
 21
2.261789102
  0
LINE
  5
3ED
100
AcDbEntity
  8
IGES_SCRITTE
100
AcDbLine
 62
7
  6
CONTINUOUS
 10
-20.4802214082
 20
3.675744102
 11
-20.4802214082
 21
3.849847102
  0
LINE
  5
3EE
100
AcDbEntity
  8
IGES_SCRITTE
100
AcDbLine
 62
7
  6
CONTINUOUS
 10
-20.4802214082
 20
4.605607102
 11
-20.4802214082
 21
4.790124102
  0
LINE
  5
3EF
100
AcDbEntity
  8
0
100
AcDbLine
 62
7
  6
CONTINUOUS
 10
-19.9533534082
 20
30.605872102
 11
-19.9533534082
 21
30.403507102
  0
LINE
  5
3F0
100
AcDbEntity
  8
ASSI
100
AcDbLine
 62
7
  6
CONTINUOUS
 10
-19.9533534082
 20
30.605872102
 11
-19.9533534082
 21
30.403507102
  0
LINE
  5
3F1
100
AcDbEntity
  8
0
100
AcDbLine
 62
7
  6
CONTINUOUS
 10
-19.9533534082
 20
30.219919102
 11
-19.9533534082
 21
29.751462102
  0
LINE
  5
3F2
100
AcDbEntity
  8
ASSI
100
AcDbLine
 62
7
  6
CONTINUOUS
 10
-19.9533534082
 20
30.219919102
 11
-19.9533534082
 21
29.751462102
  0
LINE
  5
3F3
100
AcDbEntity
  8
0
100
AcDbLine
 62
7
  6
CONTINUOUS
 10
-19.7843694082
 20
29.571101102
 11
-19.7843694082
 21
30.219919102
  0
LINE
  5
3F4
100
AcDbEntity
  8
ASSI
100
AcDbLine
 62
7
  6
CONTINUOUS
 10
-19.7843694082
 20
29.571101102
 11
-19.7843694082
 21
30.219919102
  0
LINE
  5
3F5
100
AcDbEntity
  8
0
100
AcDbLine
 62
7
  6
CONTINUOUS
 10
-19.7843694082
 20
30.403507102
 11
-19.7843694082
 21
30.605872102
  0
LINE
  5
3F6
100
AcDbEntity
  8
ASSI
100
AcDbLine
 62
7
  6
CONTINUOUS
 10
-19.7843694082
 20
30.403507102
 11
-19.7843694082
 21
30.605872102
  0
LINE
  5
3F7
100
AcDbEntity
  8
0
100
AcDbLine
 62
7
  6
CONTINUOUS
 10
-19.6028674082
 20
34.075274102
 11
-19.6028674082
 21
33.3418661196
  0
LINE
  5
3F8
100
AcDbEntity
  8
ASSI
100
AcDbLine
 62
7
  6
CONTINUOUS
 10
-19.6028674082
 20
34.075274102
 11
-19.6028674082
 21
33.3418661196
  0
LINE
  5
3F9
100
AcDbEntity
  8
0
100
AcDbLine
 62
7
  6
CONTINUOUS
 10
-19.4276234082
 20
28.978612102
 11
-19.4276234082
 21
29.162200102
  0
LINE
  5
3FA
100
AcDbEntity
  8
ASSI
100
AcDbLine
 62
7
  6
CONTINUOUS
 10
-19.4276234082
 20
28.978612102
 11
-19.4276234082
 21
29.162200102
  0
LINE
  5
3FB
100
AcDbEntity
  8
0
100
AcDbLine
 62
7
  6
CONTINUOUS
 10
-19.4276234082
 20
30.219919102
 11
-19.4276234082
 21
30.403507102
  0
LINE
  5
3FC
100
AcDbEntity
  8
ASSI
100
AcDbLine
 62
7
  6
CONTINUOUS
 10
-19.4276234082
 20
30.219919102
 11
-19.4276234082
 21
30.403507102
  0
LINE
  5
3FD
100
AcDbEntity
  8
0
100
AcDbLine
 62
7
  6
CONTINUOUS
 10
-19.4276234082
 20
33.0864003267
 11
-19.4276234082
 21
34.075274102
  0
LINE
  5
3FE
100
AcDbEntity
  8
ASSI
100
AcDbLine
 62
7
  6
CONTINUOUS
 10
-19.4276234082
 20
33.0864003267
 11
-19.4276234082
 21
34.075274102
  0
LINE
  5
3FF
100
AcDbEntity
  8
ASSI
100
AcDbLine
 62
7
  6
CONTINUOUS
 10
-25.287439539
 20
5.3402400086
 11
-25.2873191267
 21
5.3405399853
  0
LINE
  5
400
100
AcDbEntity
  8
ASSI
100
AcDbLine
 62
7
  6
CONTINUOUS
 10
-25.2812401178
 20
5.3549899437
 11
-25.2806927861
 21
5.3562118782
  0
LINE
  5
401
100
AcDbEntity
  8
ASSI
100
AcDbLine
 62
7
  6
CONTINUOUS
 10
-25.2747587304
 20
5.3690388296
 11
-25.2741663036
 21
5.3702637568
  0
LINE
  5
402
100
AcDbEntity
  8
ASSI
100
AcDbLine
 62
7
  6
CONTINUOUS
 10
-25.2678651211
 20
5.3827736109
 11
-25.2671777055
 21
5.3840833513
  0
LINE
  5
403
100
AcDbEntity
  8
0
100
AcDbLine
 62
7
  6
CONTINUOUS
 10
-43.6527156395
 20
22.361435102
 11
-44.0527004082
 21
22.361435102
  0
LINE
  5
404
100
AcDbEntity
  8
ASSI
100
AcDbLine
 62
7
  6
CONTINUOUS
 10
-43.6527156395
 20
22.361435102
 11
-44.0527004082
 21
22.361435102
  0
LINE
  5
405
100
AcDbEntity
  8
0
100
AcDbLine
 62
253
  6
CONTINUOUS
 10
-43.2527004082
 20
22.761435102
 11
-43.2483369743
 21
22.761435102
  0
LINE
  5
406
100
AcDbEntity
  8
ASSI
100
AcDbLine
 62
253
  6
CONTINUOUS
 10
-43.2527004082
 20
22.761435102
 11
-43.2483369743
 21
22.761435102
  0
LINE
  5
407
100
AcDbEntity
  8
DRAFT
100
AcDbLine
 62
7
  6
CONTINUOUS
 10
-17.6419308927
 20
-1.6992939929
 11
-17.6419308927
 21
40.522164197
  0
LINE
  5
408
100
AcDbEntity
  8
ASSI
100
AcDbLine
 62
7
  6
CONTINUOUS
 10
-17.6419308927
 20
-1.6992939929
 11
-17.6419308927
 21
40.522164197
  0
LINE
  5
409
100
AcDbEntity
  8
ASSI
100
AcDbLine
 62
7
  6
CONTINUOUS
 10
-25.2605452295
 20
5.3962313927
 11
-25.2597336195
 21
5.3976548489
  0
LWPOLYLINE
  5
40A
100
AcDbEntity
  8
ASSI
100
AcDbPolyline
 62
7
  6
CONTINUOUS
 90
17
 70
0
 10
-25.252813116
 20
5.40937507
 10
-25.2518406731
 20
5.4109624371
 10
-25.2435054939
 20
5.4239903029
 10
-25.2347347093
 20
5.4367226339
 10
-25.2255349468
 20
5.4491436171
 10
-25.2159128341
 20
5.4612374399
 10
-25.2058749987
 20
5.4729882896
 10
-25.1950397679
 20
5.4847935855
 10
-25.1837869551
 20
5.4962109408
 10
-25.1721386243
 20
5.5072379943
 10
-25.1601168392
 20
5.5178723848
 10
-25.1477436637
 20
5.5281117511
 10
-25.1350411616
 20
5.537953732
 10
-25.1220313968
 20
5.5473959664
 10
-25.1087364331
 20
5.5564360929
 10
-25.0951783343
 20
5.5650717503
 10
-25.0813791643
 20
5.5733005776
  0
LWPOLYLINE
  5
40B
100
AcDbEntity
  8
0
100
AcDbPolyline
 62
7
  6
CONTINUOUS
 90
19
 70
0
 10
-20.3753265841
 20
28.611435102
 10
-20.383294031
 20
28.6321743955
 10
-20.3922219971
 20
28.6536439789
 10
-20.4021104825
 20
28.6758438524
 10
-20.4130652377
 20
28.6989629249
 10
-20.4249805121
 20
28.7228122874
 10
-20.4375390538
 20
28.7468252129
 10
-20.4508804316
 20
28.7712265498
 10
-20.4648650766
 20
28.7957914497
 10
-20.4787570308
 20
28.8192786396
 10
-20.4923217507
 20
28.8412794368
 10
-20.5057937797
 20
28.8622025239
 10
-20.5191407895
 20
28.8820326765
 10
-20.5323556341
 20
28.9007433161
 10
-20.5454454595
 20
28.9183610212
 10
-20.5583993756
 20
28.9349503013
 10
-20.5712137523
 20
28.9505326598
 10
-20.5838922197
 20
28.9650865933
 10
-20.5964347778
 20
28.978612102
  0
LWPOLYLINE
  5
40C
100
AcDbEntity
  8
ASSI
100
AcDbPolyline
 62
7
  6
CONTINUOUS
 90
19
 70
0
 10
-20.3753265841
 20
28.611435102
 10
-20.383294031
 20
28.6321743955
 10
-20.3922219971
 20
28.6536439789
 10
-20.4021104825
 20
28.6758438524
 10
-20.4130652377
 20
28.6989629249
 10
-20.4249805121
 20
28.7228122874
 10
-20.4375390538
 20
28.7468252129
 10
-20.4508804316
 20
28.7712265498
 10
-20.4648650766
 20
28.7957914497
 10
-20.4787570308
 20
28.8192786396
 10
-20.4923217507
 20
28.8412794368
 10
-20.5057937797
 20
28.8622025239
 10
-20.5191407895
 20
28.8820326765
 10
-20.5323556341
 20
28.9007433161
 10
-20.5454454595
 20
28.9183610212
 10
-20.5583993756
 20
28.9349503013
 10
-20.5712137523
 20
28.9505326598
 10
-20.5838922197
 20
28.9650865933
 10
-20.5964347778
 20
28.978612102
  0
LWPOLYLINE
  5
40D
100
AcDbEntity
  8
0
100
AcDbPolyline
 62
7
  6
CONTINUOUS
 90
86
 70
0
 10
-20.1369420124
 20
32.3156680518
 10
-20.1409997037
 20
32.3316750126
 10
-20.1446096726
 20
32.3471430567
 10
-20.1477719192
 20
32.3620721842
 10
-20.1504889486
 20
32.3764527827
 10
-20.1527582557
 20
32.3902944644
 10
-20.1545723249
 20
32.4036260664
 10
-20.1559305275
 20
32.4162433546
 10
-20.1568334923
 20
32.428350563
 10
-20.15727559
 20
32.4405892303
 10
-20.1572445882
 20
32.4532892845
 10
-20.1567527193
 20
32.4661207975
 10
-20.1558310514
 20
32.4787355232
 10
-20.1544720407
 20
32.4910758471
 10
-20.152683231
 20
32.5031993837
 10
-20.150518322
 20
32.5149307297
 10
-20.1479872182
 20
32.5261811357
 10
-20.1450800151
 20
32.5370393512
 10
-20.1418206986
 20
32.5475962215
 10
-20.1382181185
 20
32.5578590147
 10
-20.134263425
 20
32.5678204626
 10
-20.1299540547
 20
32.5775496064
 10
-20.1252984427
 20
32.5870514706
 10
-20.1202881539
 20
32.5963210305
 10
-20.1148953196
 20
32.6054122536
 10
-20.1091277023
 20
32.6143305274
 10
-20.1029775395
 20
32.6230704642
 10
-20.0963936745
 20
32.6316698693
 10
-20.0893090096
 20
32.6402002351
 10
-20.0817906425
 20
32.6485900691
 10
-20.0739887101
 20
32.6566626984
 10
-20.0659030334
 20
32.6643989947
 10
-20.0575337914
 20
32.6718180864
 10
-20.0490316574
 20
32.6788006861
 10
-20.0404598819
 20
32.6852892977
 10
-20.0317552144
 20
32.6913414172
 10
-20.0228785772
 20
32.697010245
 10
-20.0138352667
 20
32.7023039034
 10
-20.0046199865
 20
32.7072142701
 10
-19.9951777699
 20
32.711770178
 10
-19.9855134904
 20
32.7159803666
 10
-19.9756222745
 20
32.7198360966
 10
-19.9654345341
 20
32.7233399831
 10
-19.9549566139
 20
32.7265011364
 10
-19.9441821693
 20
32.7293104463
 10
-19.9330225779
 20
32.7317431972
 10
-19.9214770019
 20
32.7338098596
 10
-19.9095462791
 20
32.7354999631
 10
-19.8971443008
 20
32.7367573813
 10
-19.8840498984
 20
32.7375754651
 10
-19.8704842406
 20
32.7379608636
 10
-19.8570247248
 20
32.7378773974
 10
-19.8437652433
 20
32.7372962236
 10
-19.8306119038
 20
32.7362461851
 10
-19.8178604262
 20
32.734777631
 10
-19.805640503
 20
32.732895905
 10
-19.7938224417
 20
32.7305956633
 10
-19.7823128848
 20
32.7279112243
 10
-19.7711050698
 20
32.7248519682
 10
-19.7602057592
 20
32.7214085148
 10
-19.7495418839
 20
32.7175870417
 10
-19.739109044
 20
32.7133964588
 10
-19.7289116393
 20
32.7088278562
 10
-19.7188898006
 20
32.7038606823
 10
-19.7090400927
 20
32.69850442
 10
-19.6993659508
 20
32.6927495863
 10
-19.6898178109
 20
32.6865471817
 10
-19.680378348
 20
32.6798935761
 10
-19.671064887
 20
32.6727923995
 10
-19.6618798392
 20
32.6652055417
 10
-19.6527180991
 20
32.6570188629
 10
-19.6436847721
 20
32.6483465031
 10
-19.6350975855
 20
32.6394927711
 10
-19.6270527934
 20
32.630532797
 10
-19.6194541417
 20
32.6213914509
 10
-19.6123305953
 20
32.6121476515
 10
-19.6057117685
 20
32.6028418492
 10
-19.5995680469
 20
32.5934335937
 10
-19.5938395525
 20
32.5838804533
 10
-19.5885169224
 20
32.574185944
 10
-19.5836095194
 20
32.5643465497
 10
-19.5790855534
 20
32.5543092916
 10
-19.5749363486
 20
32.5440785098
 10
-19.5711705808
 20
32.533649864
 10
-19.5677824868
 20
32.5229573548
 10
-19.5647630685
 20
32.5120073149
  0
LWPOLYLINE
  5
40E
100
AcDbEntity
  8
ASSI
100
AcDbPolyline
 62
7
  6
CONTINUOUS
 90
86
 70
0
 10
-20.1369420124
 20
32.3156680518
 10
-20.1409997037
 20
32.3316750126
 10
-20.1446096726
 20
32.3471430567
 10
-20.1477719192
 20
32.3620721842
 10
-20.1504889486
 20
32.3764527827
 10
-20.1527582557
 20
32.3902944644
 10
-20.1545723249
 20
32.4036260664
 10
-20.1559305275
 20
32.4162433546
 10
-20.1568334923
 20
32.428350563
 10
-20.15727559
 20
32.4405892303
 10
-20.1572445882
 20
32.4532892845
 10
-20.1567527193
 20
32.4661207975
 10
-20.1558310514
 20
32.4787355232
 10
-20.1544720407
 20
32.4910758471
 10
-20.152683231
 20
32.5031993837
 10
-20.150518322
 20
32.5149307297
 10
-20.1479872182
 20
32.5261811357
 10
-20.1450800151
 20
32.5370393512
 10
-20.1418206986
 20
32.5475962215
 10
-20.1382181185
 20
32.5578590147
 10
-20.134263425
 20
32.5678204626
 10
-20.1299540547
 20
32.5775496064
 10
-20.1252984427
 20
32.5870514706
 10
-20.1202881539
 20
32.5963210305
 10
-20.1148953196
 20
32.6054122536
 10
-20.1091277023
 20
32.6143305274
 10
-20.1029775395
 20
32.6230704642
 10
-20.0963936745
 20
32.6316698693
 10
-20.0893090096
 20
32.6402002351
 10
-20.0817906425
 20
32.6485900691
 10
-20.0739887101
 20
32.6566626984
 10
-20.0659030334
 20
32.6643989947
 10
-20.0575337914
 20
32.6718180864
 10
-20.0490316574
 20
32.6788006861
 10
-20.0404598819
 20
32.6852892977
 10
-20.0317552144
 20
32.6913414172
 10
-20.0228785772
 20
32.697010245
 10
-20.0138352667
 20
32.7023039034
 10
-20.0046199865
 20
32.7072142701
 10
-19.9951777699
 20
32.711770178
 10
-19.9855134904
 20
32.7159803666
 10
-19.9756222745
 20
32.7198360966
 10
-19.9654345341
 20
32.7233399831
 10
-19.9549566139
 20
32.7265011364
 10
-19.9441821693
 20
32.7293104463
 10
-19.9330225779
 20
32.7317431972
 10
-19.9214770019
 20
32.7338098596
 10
-19.9095462791
 20
32.7354999631
 10
-19.8971443008
 20
32.7367573813
 10
-19.8840498984
 20
32.7375754651
 10
-19.8704842406
 20
32.7379608636
 10
-19.8570247248
 20
32.7378773974
 10
-19.8437652433
 20
32.7372962236
 10
-19.8306119038
 20
32.7362461851
 10
-19.8178604262
 20
32.734777631
 10
-19.805640503
 20
32.732895905
 10
-19.7938224417
 20
32.7305956633
 10
-19.7823128848
 20
32.7279112243
 10
-19.7711050698
 20
32.7248519682
 10
-19.7602057592
 20
32.7214085148
 10
-19.7495418839
 20
32.7175870417
 10
-19.739109044
 20
32.7133964588
 10
-19.7289116393
 20
32.7088278562
 10
-19.7188898006
 20
32.7038606823
 10
-19.7090400927
 20
32.69850442
 10
-19.6993659508
 20
32.6927495863
 10
-19.6898178109
 20
32.6865471817
 10
-19.680378348
 20
32.6798935761
 10
-19.671064887
 20
32.6727923995
 10
-19.6618798392
 20
32.6652055417
 10
-19.6527180991
 20
32.6570188629
 10
-19.6436847721
 20
32.6483465031
 10
-19.6350975855
 20
32.6394927711
 10
-19.6270527934
 20
32.630532797
 10
-19.6194541417
 20
32.6213914509
 10
-19.6123305953
 20
32.6121476515
 10
-19.6057117685
 20
32.6028418492
 10
-19.5995680469
 20
32.5934335937
 10
-19.5938395525
 20
32.5838804533
 10
-19.5885169224
 20
32.574185944
 10
-19.5836095194
 20
32.5643465497
 10
-19.5790855534
 20
32.5543092916
 10
-19.5749363486
 20
32.5440785098
 10
-19.5711705808
 20
32.533649864
 10
-19.5677824868
 20
32.5229573548
 10
-19.5647630685
 20
32.5120073149
  0
LWPOLYLINE
  5
40F
100
AcDbEntity
  8
0
100
AcDbPolyline
 62
7
  6
CONTINUOUS
 90
45
 70
0
 10
-19.5647630685
 20
32.5120073149
 10
-19.562121324
 20
32.5007934116
 10
-19.5598784847
 20
32.4892306467
 10
-19.5580257434
 20
32.4772437305
 10
-19.5565719073
 20
32.4649079528
 10
-19.5555646293
 20
32.4523641853
 10
-19.5550231114
 20
32.4394477112
 10
-19.5549281516
 20
32.4263232474
 10
-19.5552697968
 20
32.4136258159
 10
-19.5560636483
 20
32.4015855166
 10
-19.5572941047
 20
32.3899722496
 10
-19.5589044087
 20
32.3787307374
 10
-19.5608852768
 20
32.3678715622
 10
-19.5632459925
 20
32.3573841417
 10
-19.5659576485
 20
32.3471814513
 10
-19.5690107896
 20
32.3372577924
 10
-19.5724148711
 20
32.3276188635
 10
-19.5761693513
 20
32.3181947351
 10
-19.580265239
 20
32.3089808871
 10
-19.5847115255
 20
32.2999818395
 10
-19.5895346431
 20
32.2911412234
 10
-19.5947683584
 20
32.2824085308
 10
-19.6003789048
 20
32.2738342697
 10
-19.606291416
 20
32.2655135946
 10
-19.6125117795
 20
32.2574427767
 10
-19.6190341078
 20
32.2496255449
 10
-19.625765871
 20
32.2421682403
 10
-19.6325621595
 20
32.2352000585
 10
-19.6395678829
 20
32.2285918039
 10
-19.6471252411
 20
32.2220622309
 10
-19.6552979705
 20
32.2155195098
 10
-19.6640223346
 20
32.2090554703
 10
-19.6734493232
 20
32.2026643553
 10
-19.6836010025
 20
32.1963246153
 10
-19.6944553063
 20
32.1900577998
 10
-19.7060970255
 20
32.1839228003
 10
-19.7185308802
 20
32.17791745
 10
-19.7317521501
 20
32.1720439156
 10
-19.7458314653
 20
32.166367589
 10
-19.7607710779
 20
32.1608886577
 10
-19.7765687356
 20
32.1556069342
 10
-19.793288312
 20
32.1505872476
 10
-19.8109510982
 20
32.1458512075
 10
-19.8295358031
 20
32.1413772042
 10
-19.8490424267
 20
32.1371652378
  0
LWPOLYLINE
  5
410
100
AcDbEntity
  8
ASSI
100
AcDbPolyline
 62
7
  6
CONTINUOUS
 90
45
 70
0
 10
-19.5647630685
 20
32.5120073149
 10
-19.562121324
 20
32.5007934116
 10
-19.5598784847
 20
32.4892306467
 10
-19.5580257434
 20
32.4772437305
 10
-19.5565719073
 20
32.4649079528
 10
-19.5555646293
 20
32.4523641853
 10
-19.5550231114
 20
32.4394477112
 10
-19.5549281516
 20
32.4263232474
 10
-19.5552697968
 20
32.4136258159
 10
-19.5560636483
 20
32.4015855166
 10
-19.5572941047
 20
32.3899722496
 10
-19.5589044087
 20
32.3787307374
 10
-19.5608852768
 20
32.3678715622
 10
-19.5632459925
 20
32.3573841417
 10
-19.5659576485
 20
32.3471814513
 10
-19.5690107896
 20
32.3372577924
 10
-19.5724148711
 20
32.3276188635
 10
-19.5761693513
 20
32.3181947351
 10
-19.580265239
 20
32.3089808871
 10
-19.5847115255
 20
32.2999818395
 10
-19.5895346431
 20
32.2911412234
 10
-19.5947683584
 20
32.2824085308
 10
-19.6003789048
 20
32.2738342697
 10
-19.606291416
 20
32.2655135946
 10
-19.6125117795
 20
32.2574427767
 10
-19.6190341078
 20
32.2496255449
 10
-19.625765871
 20
32.2421682403
 10
-19.6325621595
 20
32.2352000585
 10
-19.6395678829
 20
32.2285918039
 10
-19.6471252411
 20
32.2220622309
 10
-19.6552979705
 20
32.2155195098
 10
-19.6640223346
 20
32.2090554703
 10
-19.6734493232
 20
32.2026643553
 10
-19.6836010025
 20
32.1963246153
 10
-19.6944553063
 20
32.1900577998
 10
-19.7060970255
 20
32.1839228003
 10
-19.7185308802
 20
32.17791745
 10
-19.7317521501
 20
32.1720439156
 10
-19.7458314653
 20
32.166367589
 10
-19.7607710779
 20
32.1608886577
 10
-19.7765687356
 20
32.1556069342
 10
-19.793288312
 20
32.1505872476
 10
-19.8109510982
 20
32.1458512075
 10
-19.8295358031
 20
32.1413772042
 10
-19.8490424267
 20
32.1371652378
  0
LINE
  5
411
100
AcDbEntity
  8
0
100
AcDbLine
 62
7
  6
CONTINUOUS
 10
-19.8490424267
 20
32.1371652378
 11
-19.8240073911
 21
31.9535769772
  0
LINE
  5
412
100
AcDbEntity
  8
ASSI
100
AcDbLine
 62
7
  6
CONTINUOUS
 10
-19.8490424267
 20
32.1371652378
 11
-19.8240073911
 21
31.9535769772
  0
LINE
  5
413
100
AcDbEntity
  8
ASSI
100
AcDbLine
 62
7
  6
CONTINUOUS
 10
-26.5527784082
 20
28.871011102
 11
-25.4166134082
 21
28.506234102
  0
LINE
  5
414
100
AcDbEntity
  8
ASSI
100
AcDbLine
 62
7
  6
CONTINUOUS
 10
-24.9027044082
 20
28.671242102
 11
-26.5527784082
 21
29.201028102
  0
LWPOLYLINE
  5
415
100
AcDbEntity
  8
0
100
AcDbPolyline
 62
7
  6
CONTINUOUS
 90
28
 70
0
 10
-20.8836219717
 20
32.2135694679
 10
-20.8770453838
 20
32.2004817043
 10
-20.8700274597
 20
32.1876998858
 10
-20.8625363585
 20
32.1751590017
 10
-20.8545486263
 20
32.1628179277
 10
-20.8460877168
 20
32.150717788
 10
-20.8371921505
 20
32.1389169449
 10
-20.8278450416
 20
32.1273988582
 10
-20.8180632759
 20
32.1161800681
 10
-20.8079360312
 20
32.1053685572
 10
-20.797513494
 20
32.0950181336
 10
-20.7867454779
 20
32.0850749892
 10
-20.7755706014
 20
32.0754856832
 10
-20.7640023326
 20
32.0662447773
 10
-20.7520272033
 20
32.0573577097
 10
-20.7395434279
 20
32.0487873536
 10
-20.7265414918
 20
32.0405151473
 10
-20.7130309097
 20
32.0325596524
 10
-20.6989384393
 20
32.024939428
 10
-20.6842960317
 20
32.0176568497
 10
-20.6690717359
 20
32.0107095418
 10
-20.6530964566
 20
32.0041089361
 10
-20.6363712921
 20
31.9978386922
 10
-20.6188951441
 20
31.9919151505
 10
-20.6004956228
 20
31.9863987642
 10
-20.5811152647
 20
31.9813096842
 10
-20.5608115333
 20
31.9766277596
 10
-20.5395844285
 20
31.9723529903
  0
LWPOLYLINE
  5
416
100
AcDbEntity
  8
ASSI
100
AcDbPolyline
 62
7
  6
CONTINUOUS
 90
28
 70
0
 10
-20.8836219717
 20
32.2135694679
 10
-20.8770453838
 20
32.2004817043
 10
-20.8700274597
 20
32.1876998858
 10
-20.8625363585
 20
32.1751590017
 10
-20.8545486263
 20
32.1628179277
 10
-20.8460877168
 20
32.150717788
 10
-20.8371921505
 20
32.1389169449
 10
-20.8278450416
 20
32.1273988582
 10
-20.8180632759
 20
32.1161800681
 10
-20.8079360312
 20
32.1053685572
 10
-20.797513494
 20
32.0950181336
 10
-20.7867454779
 20
32.0850749892
 10
-20.7755706014
 20
32.0754856832
 10
-20.7640023326
 20
32.0662447773
 10
-20.7520272033
 20
32.0573577097
 10
-20.7395434279
 20
32.0487873536
 10
-20.7265414918
 20
32.0405151473
 10
-20.7130309097
 20
32.0325596524
 10
-20.6989384393
 20
32.024939428
 10
-20.6842960317
 20
32.0176568497
 10
-20.6690717359
 20
32.0107095418
 10
-20.6530964566
 20
32.0041089361
 10
-20.6363712921
 20
31.9978386922
 10
-20.6188951441
 20
31.9919151505
 10
-20.6004956228
 20
31.9863987642
 10
-20.5811152647
 20
31.9813096842
 10
-20.5608115333
 20
31.9766277596
 10
-20.5395844285
 20
31.9723529903
  0
LWPOLYLINE
  5
417
100
AcDbEntity
  8
0
100
AcDbPolyline
 62
7
  6
CONTINUOUS
 90
88
 70
0
 10
-20.2386132819
 20
32.6532140599
 10
-20.2458258042
 20
32.668116216
 10
-20.2531992925
 20
32.6822363939
 10
-20.2607337467
 20
32.6955745938
 10
-20.2684318339
 20
32.7080809796
 10
-20.2762908869
 20
32.7198053873
 10
-20.2843029053
 20
32.7308973247
 10
-20.2924595351
 20
32.7413669288
 10
-20.3007691302
 20
32.7512040627
 10
-20.3092487515
 20
32.7605278237
 10
-20.3178823435
 20
32.7693439499
 10
-20.3266859616
 20
32.7776467031
 10
-20.3357248334
 20
32.7855379666
 10
-20.3449766251
 20
32.7930185054
 10
-20.3544636705
 20
32.8000875544
 10
-20.364318198
 20
32.8068447009
 10
-20.3746698298
 20
32.8133732584
 10
-20.3853889438
 20
32.8195899135
 10
-20.3962189016
 20
32.8253443134
 10
-20.4070676871
 20
32.8305800617
 10
-20.4180273164
 20
32.8353535547
 10
-20.4291172006
 20
32.8396836287
 10
-20.4403231978
 20
32.843572076
 10
-20.4516594498
 20
32.8470171043
 10
-20.4631877921
 20
32.8500321723
 10
-20.4748995081
 20
32.8526266854
 10
-20.4868033145
 20
32.8547912383
 10
-20.4989871966
 20
32.8565110739
 10
-20.5114874206
 20
32.8577945078
 10
-20.5242677205
 20
32.8586332245
 10
-20.5373072833
 20
32.85898752
 10
-20.5507327692
 20
32.8588444178
 10
-20.5644175181
 20
32.8582168944
 10
-20.577960737
 20
32.857104176
 10
-20.5912110824
 20
32.8555071812
 10
-20.6043198978
 20
32.8534249913
 10
-20.6173404207
 20
32.8508540768
 10
-20.6302730796
 20
32.8478026058
 10
-20.6431174461
 20
32.8442624101
 10
-20.6559254722
 20
32.8402054561
 10
-20.6687163265
 20
32.835629958
 10
-20.6814708405
 20
32.8305377015
 10
-20.6941834597
 20
32.82490601
 10
-20.7070058155
 20
32.8186408255
 10
-20.7197862765
 20
32.811836206
 10
-20.7320643951
 20
32.8047516482
 10
-20.7436342366
 20
32.7975020979
 10
-20.7547017356
 20
32.7899726094
 10
-20.7654242475
 20
32.7820778424
 10
-20.7758270628
 20
32.7738139272
 10
-20.7858848911
 20
32.7651847335
 10
-20.7956792164
 20
32.7561165308
 10
-20.8052284962
 20
32.7466104742
 10
-20.8145142731
 20
32.7366654085
 10
-20.823562659
 20
32.7262041377
 10
-20.8323790686
 20
32.7152377731
 10
-20.8409580872
 20
32.7037552033
 10
-20.8493095822
 20
32.6916458993
 10
-20.8574789869
 20
32.6788358792
 10
-20.8654208681
 20
32.6653991249
 10
-20.8730087939
 20
32.6514470523
 10
-20.8802610807
 20
32.6369095855
 10
-20.887159412
 20
32.6218568004
 10
-20.8935224074
 20
32.606610341
 10
-20.8992856909
 20
32.5912977772
 10
-20.9045136383
 20
32.5757915392
 10
-20.9092179965
 20
32.560030561
 10
-20.9134065521
 20
32.5440229853
 10
-20.9170715184
 20
32.5277606694
 10
-20.9202012823
 20
32.5111581198
 10
-20.9228061197
 20
32.4942292283
 10
-20.9248757546
 20
32.4769601029
 10
-20.9263677468
 20
32.4592235738
 10
-20.9272734591
 20
32.4407653569
 10
-20.9276015287
 20
32.4218397362
 10
-20.9273354264
 20
32.4030823939
 10
-20.9264440543
 20
32.3845554165
 10
-20.9249585103
 20
32.3661967174
 10
-20.9229555589
 20
32.3484557198
 10
-20.9204419089
 20
32.331524708
 10
-20.9174108515
 20
32.3152113976
 10
-20.9139190241
 20
32.2993883587
 10
-20.9099772762
 20
32.2840472439
 10
-20.9055747584
 20
32.2691964006
 10
-20.9007355601
 20
32.2547334402
 10
-20.895469263
 20
32.2406515458
 10
-20.8897662854
 20
32.2269575343
 10
-20.8836219717
 20
32.2135694679
  0
LWPOLYLINE
  5
418
100
AcDbEntity
  8
ASSI
100
AcDbPolyline
 62
7
  6
CONTINUOUS
 90
88
 70
0
 10
-20.2386132819
 20
32.6532140599
 10
-20.2458258042
 20
32.668116216
 10
-20.2531992925
 20
32.6822363939
 10
-20.2607337467
 20
32.6955745938
 10
-20.2684318339
 20
32.7080809796
 10
-20.2762908869
 20
32.7198053873
 10
-20.2843029053
 20
32.7308973247
 10
-20.2924595351
 20
32.7413669288
 10
-20.3007691302
 20
32.7512040627
 10
-20.3092487515
 20
32.7605278237
 10
-20.3178823435
 20
32.7693439499
 10
-20.3266859616
 20
32.7776467031
 10
-20.3357248334
 20
32.7855379666
 10
-20.3449766251
 20
32.7930185054
 10
-20.3544636705
 20
32.8000875544
 10
-20.364318198
 20
32.8068447009
 10
-20.3746698298
 20
32.8133732584
 10
-20.3853889438
 20
32.8195899135
 10
-20.3962189016
 20
32.8253443134
 10
-20.4070676871
 20
32.8305800617
 10
-20.4180273164
 20
32.8353535547
 10
-20.4291172006
 20
32.8396836287
 10
-20.4403231978
 20
32.843572076
 10
-20.4516594498
 20
32.8470171043
 10
-20.4631877921
 20
32.8500321723
 10
-20.4748995081
 20
32.8526266854
 10
-20.4868033145
 20
32.8547912383
 10
-20.4989871966
 20
32.8565110739
 10
-20.5114874206
 20
32.8577945078
 10
-20.5242677205
 20
32.8586332245
 10
-20.5373072833
 20
32.85898752
 10
-20.5507327692
 20
32.8588444178
 10
-20.5644175181
 20
32.8582168944
 10
-20.577960737
 20
32.857104176
 10
-20.5912110824
 20
32.8555071812
 10
-20.6043198978
 20
32.8534249913
 10
-20.6173404207
 20
32.8508540768
 10
-20.6302730796
 20
32.8478026058
 10
-20.6431174461
 20
32.8442624101
 10
-20.6559254722
 20
32.8402054561
 10
-20.6687163265
 20
32.835629958
 10
-20.6814708405
 20
32.8305377015
 10
-20.6941834597
 20
32.82490601
 10
-20.7070058155
 20
32.8186408255
 10
-20.7197862765
 20
32.811836206
 10
-20.7320643951
 20
32.8047516482
 10
-20.7436342366
 20
32.7975020979
 10
-20.7547017356
 20
32.7899726094
 10
-20.7654242475
 20
32.7820778424
 10
-20.7758270628
 20
32.7738139272
 10
-20.7858848911
 20
32.7651847335
 10
-20.7956792164
 20
32.7561165308
 10
-20.8052284962
 20
32.7466104742
 10
-20.8145142731
 20
32.7366654085
 10
-20.823562659
 20
32.7262041377
 10
-20.8323790686
 20
32.7152377731
 10
-20.8409580872
 20
32.7037552033
 10
-20.8493095822
 20
32.6916458993
 10
-20.8574789869
 20
32.6788358792
 10
-20.8654208681
 20
32.6653991249
 10
-20.8730087939
 20
32.6514470523
 10
-20.8802610807
 20
32.6369095855
 10
-20.887159412
 20
32.6218568004
 10
-20.8935224074
 20
32.606610341
 10
-20.8992856909
 20
32.5912977772
 10
-20.9045136383
 20
32.5757915392
 10
-20.9092179965
 20
32.560030561
 10
-20.9134065521
 20
32.5440229853
 10
-20.9170715184
 20
32.5277606694
 10
-20.9202012823
 20
32.5111581198
 10
-20.9228061197
 20
32.4942292283
 10
-20.9248757546
 20
32.4769601029
 10
-20.9263677468
 20
32.4592235738
 10
-20.9272734591
 20
32.4407653569
 10
-20.9276015287
 20
32.4218397362
 10
-20.9273354264
 20
32.4030823939
 10
-20.9264440543
 20
32.3845554165
 10
-20.9249585103
 20
32.3661967174
 10
-20.9229555589
 20
32.3484557198
 10
-20.9204419089
 20
32.331524708
 10
-20.9174108515
 20
32.3152113976
 10
-20.9139190241
 20
32.2993883587
 10
-20.9099772762
 20
32.2840472439
 10
-20.9055747584
 20
32.2691964006
 10
-20.9007355601
 20
32.2547334402
 10
-20.895469263
 20
32.2406515458
 10
-20.8897662854
 20
32.2269575343
 10
-20.8836219717
 20
32.2135694679
  0
LINE
  5
419
100
AcDbEntity
  8
DRAFT
100
AcDbLine
 62
7
  6
CONTINUOUS
 10
-12.5027004082
 20
40.5244861485
 11
-12.5027004082
 21
39.411435102
  0
LINE
  5
41A
100
AcDbEntity
  8
ASSI
100
AcDbLine
 62
7
  6
CONTINUOUS
 10
-12.5027004082
 20
40.5244861485
 11
-12.5027004082
 21
39.411435102
  0
LINE
  5
41B
100
AcDbEntity
  8
DRAFT
100
AcDbLine
 62
7
  6
CONTINUOUS
 10
-12.5027004082
 20
-1.7016159444
 11
-12.5027004082
 21
-0.588564898
  0
LINE
  5
41C
100
AcDbEntity
  8
ASSI
100
AcDbLine
 62
7
  6
CONTINUOUS
 10
-12.5027004082
 20
-1.7016159444
 11
-12.5027004082
 21
-0.588564898
  0
LINE
  5
41D
100
AcDbEntity
  8
ASSI
100
AcDbLine
 62
7
  6
CONTINUOUS
 10
-25.0413530213
 20
5.4021685799
 11
-25.0410736562
 21
5.4023663646
  0
LINE
  5
41E
100
AcDbEntity
  8
0
100
AcDbLine
 62
7
  6
CONTINUOUS
 10
-20.5526236107
 20
28.611435102
 11
-20.3753265841
 21
28.611435102
  0
LINE
  5
41F
100
AcDbEntity
  8
ASSI
100
AcDbLine
 62
7
  6
CONTINUOUS
 10
-20.5526236107
 20
28.611435102
 11
-20.3753265841
 21
28.611435102
  0
LINE
  5
420
100
AcDbEntity
  8
0
100
AcDbLine
 62
7
  6
CONTINUOUS
 10
-20.5964347778
 20
28.978612102
 11
-19.4276234082
 21
28.978612102
  0
LINE
  5
421
100
AcDbEntity
  8
ASSI
100
AcDbLine
 62
7
  6
CONTINUOUS
 10
-20.5964347778
 20
28.978612102
 11
-19.4276234082
 21
28.978612102
  0
LINE
  5
422
100
AcDbEntity
  8
0
100
AcDbLine
 62
7
  6
CONTINUOUS
 10
-19.4276234082
 20
29.162200102
 11
-20.9276234082
 21
29.162200102
  0
LINE
  5
423
100
AcDbEntity
  8
ASSI
100
AcDbLine
 62
7
  6
CONTINUOUS
 10
-19.4276234082
 20
29.162200102
 11
-20.9276234082
 21
29.162200102
  0
LINE
  5
424
100
AcDbEntity
  8
ASSI
100
AcDbLine
 62
7
  6
CONTINUOUS
 10
-26.5527784082
 20
29.421035102
 11
-24.9027004082
 21
29.421031102
  0
LINE
  5
425
100
AcDbEntity
  8
0
100
AcDbLine
 62
7
  6
CONTINUOUS
 10
-19.9533534082
 20
29.571101102
 11
-19.7843694082
 21
29.571101102
  0
LINE
  5
426
100
AcDbEntity
  8
ASSI
100
AcDbLine
 62
7
  6
CONTINUOUS
 10
-19.9533534082
 20
29.571101102
 11
-19.7843694082
 21
29.571101102
  0
LINE
  5
427
100
AcDbEntity
  8
ASSI
100
AcDbLine
 62
7
  6
CONTINUOUS
 10
-24.9027044082
 20
29.751043102
 11
-26.5527784082
 21
29.751047102
  0
LINE
  5
428
100
AcDbEntity
  8
ASSI
100
AcDbLine
 62
7
  6
CONTINUOUS
 10
-26.5527784082
 20
31.196204102
 11
-25.4781914082
 21
30.888070102
  0
LINE
  5
429
100
AcDbEntity
  8
ASSI
100
AcDbLine
 62
7
  6
CONTINUOUS
 10
-24.9027084082
 20
31.053070102
 11
-25.9908174082
 21
31.365077102
  0
LWPOLYLINE
  5
42A
100
AcDbEntity
  8
0
100
AcDbPolyline
 62
7
  6
CONTINUOUS
 90
25
 70
0
 10
-20.9276234082
 20
29.0438715453
 10
-20.9146858738
 20
29.0372421076
 10
-20.9014059337
 20
29.0297692739
 10
-20.8877835877
 20
29.0214530442
 10
-20.8738137662
 20
29.0123273963
 10
-20.859501539
 20
29.0023583524
 10
-20.8448621151
 20
28.9914439793
 10
-20.8298967514
 20
28.9795827711
 10
-20.814604191
 20
28.9667762337
 10
-20.7989958731
 20
28.9529269516
 10
-20.7830747094
 20
28.9380477704
 10
-20.7668377881
 20
28.9221258445
 10
-20.7502878133
 20
28.9050252208
 10
-20.7333306912
 20
28.8867065414
 10
-20.7160605155
 20
28.8672091642
 10
-20.6987622711
 20
28.8465152101
 10
-20.6814109901
 20
28.8245407301
 10
-20.6640316404
 20
28.8013696732
 10
-20.6469841099
 20
28.7772360077
 10
-20.6303795946
 20
28.7522640959
 10
-20.6141068985
 20
28.7263295754
 10
-20.598192322
 20
28.6992933277
 10
-20.5826446319
 20
28.6711089798
 10
-20.5674550615
 20
28.6418229045
 10
-20.5526236107
 20
28.611435102
  0
LWPOLYLINE
  5
42B
100
AcDbEntity
  8
ASSI
100
AcDbPolyline
 62
7
  6
CONTINUOUS
 90
25
 70
0
 10
-20.9276234082
 20
29.0438715453
 10
-20.9146858738
 20
29.0372421076
 10
-20.9014059337
 20
29.0297692739
 10
-20.8877835877
 20
29.0214530442
 10
-20.8738137662
 20
29.0123273963
 10
-20.859501539
 20
29.0023583524
 10
-20.8448621151
 20
28.9914439793
 10
-20.8298967514
 20
28.9795827711
 10
-20.814604191
 20
28.9667762337
 10
-20.7989958731
 20
28.9529269516
 10
-20.7830747094
 20
28.9380477704
 10
-20.7668377881
 20
28.9221258445
 10
-20.7502878133
 20
28.9050252208
 10
-20.7333306912
 20
28.8867065414
 10
-20.7160605155
 20
28.8672091642
 10
-20.6987622711
 20
28.8465152101
 10
-20.6814109901
 20
28.8245407301
 10
-20.6640316404
 20
28.8013696732
 10
-20.6469841099
 20
28.7772360077
 10
-20.6303795946
 20
28.7522640959
 10
-20.6141068985
 20
28.7263295754
 10
-20.598192322
 20
28.6992933277
 10
-20.5826446319
 20
28.6711089798
 10
-20.5674550615
 20
28.6418229045
 10
-20.5526236107
 20
28.611435102
  0
LINE
  5
42C
100
AcDbEntity
  8
0
100
AcDbLine
 62
7
  6
CONTINUOUS
 10
-19.9533534082
 20
29.751462102
 11
-20.6253484082
 21
30.219919102
  0
LINE
  5
42D
100
AcDbEntity
  8
ASSI
100
AcDbLine
 62
7
  6
CONTINUOUS
 10
-19.9533534082
 20
29.751462102
 11
-20.6253484082
 21
30.219919102
  0
LINE
  5
42E
100
AcDbEntity
  8
0
100
AcDbLine
 62
7
  6
CONTINUOUS
 10
-20.9213654082
 20
30.253299102
 11
-19.9533534082
 21
29.571101102
  0
LINE
  5
42F
100
AcDbEntity
  8
ASSI
100
AcDbLine
 62
7
  6
CONTINUOUS
 10
-20.9213654082
 20
30.253299102
 11
-19.9533534082
 21
29.571101102
  0
LINE
  5
430
100
AcDbEntity
  8
SUPERFICI
100
AcDbLine
 62
7
  6
CONTINUOUS
 10
-20.9837254082
 20
6.016024102
 11
-21.7308924082
 21
5.544065102
  0
LINE
  5
431
100
AcDbEntity
  8
IGES_SCRITTE
100
AcDbLine
 62
7
  6
CONTINUOUS
 10
-20.9837254082
 20
6.016024102
 11
-21.7308924082
 21
5.544065102
  0
LINE
  5
432
100
AcDbEntity
  8
ASSI
100
AcDbLine
 62
7
  6
CONTINUOUS
 10
-20.9837254082
 20
6.016024102
 11
-21.7308924082
 21
5.544065102
  0
LINE
  5
433
100
AcDbEntity
  8
SUPERFICI
100
AcDbLine
 62
7
  6
CONTINUOUS
 10
-22.2778704082
 20
4.940771102
 11
-23.2933744082
 21
4.301786102
  0
LINE
  5
434
100
AcDbEntity
  8
IGES_SCRITTE
100
AcDbLine
 62
7
  6
CONTINUOUS
 10
-22.2778704082
 20
4.940771102
 11
-23.2933744082
 21
4.301786102
  0
LINE
  5
435
100
AcDbEntity
  8
ASSI
100
AcDbLine
 62
7
  6
CONTINUOUS
 10
-22.2778704082
 20
4.940771102
 11
-23.2933744082
 21
4.301786102
  0
LINE
  5
436
100
AcDbEntity
  8
SUPERFICI
100
AcDbLine
 62
7
  6
CONTINUOUS
 10
-23.5275304082
 20
4.338285102
 11
-22.5127894082
 21
4.966957102
  0
LINE
  5
437
100
AcDbEntity
  8
IGES_SCRITTE
100
AcDbLine
 62
7
  6
CONTINUOUS
 10
-23.5275304082
 20
4.338285102
 11
-22.5127894082
 21
4.966957102
  0
LINE
  5
438
100
AcDbEntity
  8
ASSI
100
AcDbLine
 62
7
  6
CONTINUOUS
 10
-23.5275304082
 20
4.338285102
 11
-22.5127894082
 21
4.966957102
  0
LINE
  5
439
100
AcDbEntity
  8
SUPERFICI
100
AcDbLine
 62
7
  6
CONTINUOUS
 10
-21.7308924082
 20
5.740816102
 11
-21.1303274082
 21
6.099537102
  0
LINE
  5
43A
100
AcDbEntity
  8
IGES_SCRITTE
100
AcDbLine
 62
7
  6
CONTINUOUS
 10
-21.7308924082
 20
5.740816102
 11
-21.1303274082
 21
6.099537102
  0
LINE
  5
43B
100
AcDbEntity
  8
ASSI
100
AcDbLine
 62
7
  6
CONTINUOUS
 10
-21.7308924082
 20
5.740816102
 11
-21.1303274082
 21
6.099537102
  0
LINE
  5
43C
100
AcDbEntity
  8
ASSI
100
AcDbLine
 62
7
  6
CONTINUOUS
 10
-25.0196963387
 20
5.4164382468
 11
-25.0192448943
 21
5.4167171612
  0
LINE
  5
43D
100
AcDbEntity
  8
ASSI
100
AcDbLine
 62
7
  6
CONTINUOUS
 10
-25.0685873257
 20
5.5804569657
 11
-25.0673609869
 21
5.5811202134
  0
LWPOLYLINE
  5
43E
100
AcDbEntity
  8
ASSI
100
AcDbPolyline
 62
7
  6
CONTINUOUS
 90
8
 70
0
 10
-25.0086847325
 20
5.4229339548
 10
-24.9974765262
 20
5.4290718914
 10
-24.9860857433
 20
5.4348538447
 10
-24.9745264074
 20
5.4402816025
 10
-24.9628125421
 20
5.4453569531
 10
-24.950958171
 20
5.4500816843
 10
-24.9389773176
 20
5.4544575842
 10
-24.9268840056
 20
5.4584864407
  0
LWPOLYLINE
  5
43F
100
AcDbEntity
  8
ASSI
100
AcDbPolyline
 62
7
  6
CONTINUOUS
 90
3
 70
0
 10
-25.0525412352
 20
5.5888344825
 10
-25.0505503638
 20
5.5898287406
 10
-25.033484568
 20
5.5979805644
  0
LINE
  5
440
100
AcDbEntity
  8
ASSI
100
AcDbLine
 62
7
  6
CONTINUOUS
 10
-25.0184695737
 20
5.6046227933
 11
-25.0161831301
 21
5.6055930279
  0
LINE
  5
441
100
AcDbEntity
  8
ASSI
100
AcDbLine
 62
7
  6
CONTINUOUS
 10
-25.000174837
 20
5.612082036
 11
-24.9986655804
 21
5.6126834742
  0
LWPOLYLINE
  5
442
100
AcDbEntity
  8
ASSI
100
AcDbPolyline
 62
7
  6
CONTINUOUS
 90
5
 70
0
 10
-24.9630602675
 20
5.6253676878
 10
-24.9450115651
 20
5.6309961414
 10
-24.9268248727
 20
5.6361719503
 10
-24.9097303411
 20
5.6406077312
 10
-24.8925415037
 20
5.6446489121
  0
LWPOLYLINE
  5
443
100
AcDbEntity
  8
0
100
AcDbPolyline
 62
7
  6
CONTINUOUS
 90
61
 70
0
 10
-20.0049882642
 20
31.7785980188
 10
-20.023325097
 20
31.7762063966
 10
-20.0409891105
 20
31.7732652549
 10
-20.0581172124
 20
31.7698389712
 10
-20.0747193948
 20
31.7659383743
 10
-20.0907856656
 20
31.7615526353
 10
-20.1064229566
 20
31.7567136453
 10
-20.1216372794
 20
31.7514312764
 10
-20.1364226223
 20
31.7456956564
 10
-20.1508678824
 20
31.7395090589
 10
-20.164979271
 20
31.7328804029
 10
-20.1787505769
 20
31.7258007693
 10
-20.1922520628
 20
31.7182456746
 10
-20.2054897935
 20
31.710223261
 10
-20.2184577042
 20
31.7017253863
 10
-20.2312078635
 20
31.6927031392
 10
-20.2437313311
 20
31.6831788329
 10
-20.2560370474
 20
31.6731301543
 10
-20.2682039015
 20
31.6624412535
 10
-20.2803980726
 20
31.6509336382
 10
-20.2924533815
 20
31.6387858006
 10
-20.3039501808
 20
31.6264173679
 10
-20.3147627376
 20
31.6139338269
 10
-20.3250167847
 20
31.6012296907
 10
-20.3346698731
 20
31.5884081254
 10
-20.3436842996
 20
31.5755196083
 10
-20.3520977672
 20
31.5625136621
 10
-20.3599809369
 20
31.5493420209
 10
-20.3673435841
 20
31.5360085077
 10
-20.3741759333
 20
31.5225092995
 10
-20.3805193183
 20
31.5087846611
 10
-20.3863829756
 20
31.494838979
 10
-20.3917576686
 20
31.4806678668
 10
-20.3966570214
 20
31.4661984296
 10
-20.4010905884
 20
31.4514354793
 10
-20.4050488152
 20
31.436374204
 10
-20.4085166622
 20
31.4209272732
 10
-20.4115045157
 20
31.4050259071
 10
-20.4140019895
 20
31.3887388855
 10
-20.4159628856
 20
31.3721852175
 10
-20.4173743689
 20
31.3551822007
 10
-20.4182492746
 20
31.3379125375
 10
-20.4185799097
 20
31.3210433438
 10
-20.4183638507
 20
31.3048938143
 10
-20.4176035211
 20
31.2891447544
 10
-20.4162984989
 20
31.2735056964
 10
-20.4144533539
 20
31.2579057307
 10
-20.4120635164
 20
31.2424157669
 10
-20.4091148549
 20
31.2269580665
 10
-20.4056177598
 20
31.2115295682
 10
-20.4015618407
 20
31.1961333332
 10
-20.3969017957
 20
31.1807008071
 10
-20.3916484861
 20
31.1652304786
 10
-20.3857910505
 20
31.1497238589
 10
-20.3792516025
 20
31.1341169271
 10
-20.3720447318
 20
31.1184124069
 10
-20.3641558487
 20
31.1026075747
 10
-20.3554632975
 20
31.0866302388
 10
-20.3459265265
 20
31.0704563353
 10
-20.3355860875
 20
31.0541099282
 10
-20.3244419805
 20
31.0375910175
  0
LWPOLYLINE
  5
444
100
AcDbEntity
  8
ASSI
100
AcDbPolyline
 62
7
  6
CONTINUOUS
 90
61
 70
0
 10
-20.0049882642
 20
31.7785980188
 10
-20.023325097
 20
31.7762063966
 10
-20.0409891105
 20
31.7732652549
 10
-20.0581172124
 20
31.7698389712
 10
-20.0747193948
 20
31.7659383743
 10
-20.0907856656
 20
31.7615526353
 10
-20.1064229566
 20
31.7567136453
 10
-20.1216372794
 20
31.7514312764
 10
-20.1364226223
 20
31.7456956564
 10
-20.1508678824
 20
31.7395090589
 10
-20.164979271
 20
31.7328804029
 10
-20.1787505769
 20
31.7258007693
 10
-20.1922520628
 20
31.7182456746
 10
-20.2054897935
 20
31.710223261
 10
-20.2184577042
 20
31.7017253863
 10
-20.2312078635
 20
31.6927031392
 10
-20.2437313311
 20
31.6831788329
 10
-20.2560370474
 20
31.6731301543
 10
-20.2682039015
 20
31.6624412535
 10
-20.2803980726
 20
31.6509336382
 10
-20.2924533815
 20
31.6387858006
 10
-20.3039501808
 20
31.6264173679
 10
-20.3147627376
 20
31.6139338269
 10
-20.3250167847
 20
31.6012296907
 10
-20.3346698731
 20
31.5884081254
 10
-20.3436842996
 20
31.5755196083
 10
-20.3520977672
 20
31.5625136621
 10
-20.3599809369
 20
31.5493420209
 10
-20.3673435841
 20
31.5360085077
 10
-20.3741759333
 20
31.5225092995
 10
-20.3805193183
 20
31.5087846611
 10
-20.3863829756
 20
31.494838979
 10
-20.3917576686
 20
31.4806678668
 10
-20.3966570214
 20
31.4661984296
 10
-20.4010905884
 20
31.4514354793
 10
-20.4050488152
 20
31.436374204
 10
-20.4085166622
 20
31.4209272732
 10
-20.4115045157
 20
31.4050259071
 10
-20.4140019895
 20
31.3887388855
 10
-20.4159628856
 20
31.3721852175
 10
-20.4173743689
 20
31.3551822007
 10
-20.4182492746
 20
31.3379125375
 10
-20.4185799097
 20
31.3210433438
 10
-20.4183638507
 20
31.3048938143
 10
-20.4176035211
 20
31.2891447544
 10
-20.4162984989
 20
31.2735056964
 10
-20.4144533539
 20
31.2579057307
 10
-20.4120635164
 20
31.2424157669
 10
-20.4091148549
 20
31.2269580665
 10
-20.4056177598
 20
31.2115295682
 10
-20.4015618407
 20
31.1961333332
 10
-20.3969017957
 20
31.1807008071
 10
-20.3916484861
 20
31.1652304786
 10
-20.3857910505
 20
31.1497238589
 10
-20.3792516025
 20
31.1341169271
 10
-20.3720447318
 20
31.1184124069
 10
-20.3641558487
 20
31.1026075747
 10
-20.3554632975
 20
31.0866302388
 10
-20.3459265265
 20
31.0704563353
 10
-20.3355860875
 20
31.0541099282
 10
-20.3244419805
 20
31.0375910175
  0
LWPOLYLINE
  5
445
100
AcDbEntity
  8
0
100
AcDbPolyline
 62
7
  6
CONTINUOUS
 90
94
 70
0
 10
-19.8240073911
 20
31.9535769772
 10
-19.8052182638
 20
31.9557746952
 10
-19.7870314446
 20
31.9584539551
 10
-19.7694469335
 20
31.961614757
 10
-19.7525034915
 20
31.9652716671
 10
-19.7361623575
 20
31.9694101192
 10
-19.7203072491
 20
31.9739864142
 10
-19.7049335415
 20
31.9789895517
 10
-19.6900458594
 20
31.9844305321
 10
-19.6755417943
 20
31.9902986582
 10
-19.6614124721
 20
31.9965854082
 10
-19.6476667669
 20
32.0032993038
 10
-19.6342288926
 20
32.0104552133
 10
-19.6210892347
 20
32.0180487213
 10
-19.6082574076
 20
32.026084243
 10
-19.5956864686
 20
32.0345898928
 10
-19.5833785211
 20
32.0435517055
 10
-19.5713314618
 20
32.0529836463
 10
-19.5594920379
 20
32.0629557244
 10
-19.5477716481
 20
32.0735572963
 10
-19.5362588937
 20
32.0846990056
 10
-19.5251663259
 20
32.0961827921
 10
-19.5145259055
 20
32.1079932339
 10
-19.5043056716
 20
32.1201457528
 10
-19.4946222928
 20
32.1324885541
 10
-19.485535696
 20
32.144950771
 10
-19.4769859543
 20
32.1576032703
 10
-19.4689099554
 20
32.1705068581
 10
-19.461295812
 20
32.1836603948
 10
-19.4541554115
 20
32.19706502
 10
-19.4474613034
 20
32.2107849578
 10
-19.441205029
 20
32.2248147065
 10
-19.435395047
 20
32.2391597677
 10
-19.4300292834
 20
32.2539008704
 10
-19.4250988322
 20
32.2690306488
 10
-19.4206125993
 20
32.2845564686
 10
-19.4165952289
 20
32.300581156
 10
-19.4130360324
 20
32.3170970531
 10
-19.4099456984
 20
32.3341118178
 10
-19.4073809366
 20
32.3517512504
 10
-19.405332964
 20
32.3700758792
 10
-19.4038105637
 20
32.389025176
 10
-19.4028967949
 20
32.408543356
 10
-19.4026224837
 20
32.4289656828
 10
-19.402956804
 20
32.4499568929
 10
-19.4038903368
 20
32.4704554116
 10
-19.4054452702
 20
32.4901375735
 10
-19.407599416
 20
32.509327044
 10
-19.41027679
 20
32.5279332436
 10
-19.4134670068
 20
32.5458870669
 10
-19.4171804519
 20
32.5632576193
 10
-19.4213722973
 20
32.5801616383
 10
-19.4260326307
 20
32.5966064647
 10
-19.4311713646
 20
32.6125847576
 10
-19.4367734079
 20
32.6281912326
 10
-19.4428299272
 20
32.643432089
 10
-19.4493497559
 20
32.6583011273
 10
-19.4563443037
 20
32.6728744646
 10
-19.463804972
 20
32.687157072
 10
-19.4717403593
 20
32.7011439783
 10
-19.480187671
 20
32.7148963873
 10
-19.4891356371
 20
32.7284164888
 10
-19.4985955276
 20
32.7417020931
 10
-19.5086383571
 20
32.7548078336
 10
-19.5193320666
 20
32.7678080113
 10
-19.5306087151
 20
32.7806283253
 10
-19.5423354933
 20
32.793100507
 10
-19.5545972473
 20
32.8052814008
 10
-19.5673091311
 20
32.8171141622
 10
-19.5800837979
 20
32.8282599891
 10
-19.5927796605
 20
32.838573527
 10
-19.6055383062
 20
32.8482001304
 10
-19.6183971493
 20
32.8572370602
 10
-19.631352249
 20
32.8656944382
 10
-19.6444075462
 20
32.8735621427
 10
-19.6576122785
 20
32.8809070691
 10
-19.6709621228
 20
32.8877385781
 10
-19.6844614022
 20
32.894047309
 10
-19.6981723235
 20
32.8998720754
 10
-19.7120916497
 20
32.9052225098
 10
-19.7262226177
 20
32.9100889798
 10
-19.7406371452
 20
32.914481402
 10
-19.7553309748
 20
32.9184091365
 10
-19.7703083639
 20
32.9218628233
 10
-19.7856540022
 20
32.9248242984
 10
-19.8013587808
 20
32.9273034778
 10
-19.8174318088
 20
32.9292904454
 10
-19.8339851025
 20
32.9307372894
 10
-19.851301477
 20
32.9316332443
 10
-19.8690981174
 20
32.9319890754
 10
-19.8866385953
 20
32.931789167
 10
-19.9038158884
 20
32.9309990537
 10
-19.9207370191
 20
32.9296532008
 10
-19.9369866263
 20
32.9278393878
  0
LWPOLYLINE
  5
446
100
AcDbEntity
  8
ASSI
100
AcDbPolyline
 62
7
  6
CONTINUOUS
 90
94
 70
0
 10
-19.8240073911
 20
31.9535769772
 10
-19.8052182638
 20
31.9557746952
 10
-19.7870314446
 20
31.9584539551
 10
-19.7694469335
 20
31.961614757
 10
-19.7525034915
 20
31.9652716671
 10
-19.7361623575
 20
31.9694101192
 10
-19.7203072491
 20
31.9739864142
 10
-19.7049335415
 20
31.9789895517
 10
-19.6900458594
 20
31.9844305321
 10
-19.6755417943
 20
31.9902986582
 10
-19.6614124721
 20
31.9965854082
 10
-19.6476667669
 20
32.0032993038
 10
-19.6342288926
 20
32.0104552133
 10
-19.6210892347
 20
32.0180487213
 10
-19.6082574076
 20
32.026084243
 10
-19.5956864686
 20
32.0345898928
 10
-19.5833785211
 20
32.0435517055
 10
-19.5713314618
 20
32.0529836463
 10
-19.5594920379
 20
32.0629557244
 10
-19.5477716481
 20
32.0735572963
 10
-19.5362588937
 20
32.0846990056
 10
-19.5251663259
 20
32.0961827921
 10
-19.5145259055
 20
32.1079932339
 10
-19.5043056716
 20
32.1201457528
 10
-19.4946222928
 20
32.1324885541
 10
-19.485535696
 20
32.144950771
 10
-19.4769859543
 20
32.1576032703
 10
-19.4689099554
 20
32.1705068581
 10
-19.461295812
 20
32.1836603948
 10
-19.4541554115
 20
32.19706502
 10
-19.4474613034
 20
32.2107849578
 10
-19.441205029
 20
32.2248147065
 10
-19.435395047
 20
32.2391597677
 10
-19.4300292834
 20
32.2539008704
 10
-19.4250988322
 20
32.2690306488
 10
-19.4206125993
 20
32.2845564686
 10
-19.4165952289
 20
32.300581156
 10
-19.4130360324
 20
32.3170970531
 10
-19.4099456984
 20
32.3341118178
 10
-19.4073809366
 20
32.3517512504
 10
-19.405332964
 20
32.3700758792
 10
-19.4038105637
 20
32.389025176
 10
-19.4028967949
 20
32.408543356
 10
-19.4026224837
 20
32.4289656828
 10
-19.402956804
 20
32.4499568929
 10
-19.4038903368
 20
32.4704554116
 10
-19.4054452702
 20
32.4901375735
 10
-19.407599416
 20
32.509327044
 10
-19.41027679
 20
32.5279332436
 10
-19.4134670068
 20
32.5458870669
 10
-19.4171804519
 20
32.5632576193
 10
-19.4213722973
 20
32.5801616383
 10
-19.4260326307
 20
32.5966064647
 10
-19.4311713646
 20
32.6125847576
 10
-19.4367734079
 20
32.6281912326
 10
-19.4428299272
 20
32.643432089
 10
-19.4493497559
 20
32.6583011273
 10
-19.4563443037
 20
32.6728744646
 10
-19.463804972
 20
32.687157072
 10
-19.4717403593
 20
32.7011439783
 10
-19.480187671
 20
32.7148963873
 10
-19.4891356371
 20
32.7284164888
 10
-19.4985955276
 20
32.7417020931
 10
-19.5086383571
 20
32.7548078336
 10
-19.5193320666
 20
32.7678080113
 10
-19.5306087151
 20
32.7806283253
 10
-19.5423354933
 20
32.793100507
 10
-19.5545972473
 20
32.8052814008
 10
-19.5673091311
 20
32.8171141622
 10
-19.5800837979
 20
32.8282599891
 10
-19.5927796605
 20
32.838573527
 10
-19.6055383062
 20
32.8482001304
 10
-19.6183971493
 20
32.8572370602
 10
-19.631352249
 20
32.8656944382
 10
-19.6444075462
 20
32.8735621427
 10
-19.6576122785
 20
32.8809070691
 10
-19.6709621228
 20
32.8877385781
 10
-19.6844614022
 20
32.894047309
 10
-19.6981723235
 20
32.8998720754
 10
-19.7120916497
 20
32.9052225098
 10
-19.7262226177
 20
32.9100889798
 10
-19.7406371452
 20
32.914481402
 10
-19.7553309748
 20
32.9184091365
 10
-19.7703083639
 20
32.9218628233
 10
-19.7856540022
 20
32.9248242984
 10
-19.8013587808
 20
32.9273034778
 10
-19.8174318088
 20
32.9292904454
 10
-19.8339851025
 20
32.9307372894
 10
-19.851301477
 20
32.9316332443
 10
-19.8690981174
 20
32.9319890754
 10
-19.8866385953
 20
32.931789167
 10
-19.9038158884
 20
32.9309990537
 10
-19.9207370191
 20
32.9296532008
 10
-19.9369866263
 20
32.9278393878
  0
LWPOLYLINE
  5
447
100
AcDbEntity
  8
0
100
AcDbPolyline
 62
7
  6
CONTINUOUS
 90
94
 70
0
 10
-19.8198353659
 20
30.7936325462
 10
-19.800544543
 20
30.7958713239
 10
-19.7819314021
 20
30.7985900044
 10
-19.7639959432
 20
30.8017885877
 10
-19.7467830716
 20
30.8054842512
 10
-19.7302478821
 20
30.8096598174
 10
-19.7142556581
 20
30.814263754
 10
-19.6988020221
 20
30.8192825367
 10
-19.6838913516
 20
30.8247296897
 10
-19.6694020631
 20
30.8305942527
 10
-19.6553139323
 20
30.8368746264
 10
-19.6416471836
 20
30.8435724101
 10
-19.6283409053
 20
30.8506814414
 10
-19.6154002743
 20
30.8581858565
 10
-19.6028201138
 20
30.8661015192
 10
-19.5905239828
 20
30.8744698579
 10
-19.5785006433
 20
30.8832870432
 10
-19.5667613333
 20
30.8925569045
 10
-19.5552633253
 20
30.9023323581
 10
-19.5439338216
 20
30.9126868033
 10
-19.5328456199
 20
30.9235468408
 10
-19.5221743858
 20
30.9347451901
 10
-19.5119558426
 20
30.946254702
 10
-19.5021542669
 20
30.9581025256
 10
-19.4928381547
 20
30.9702028274
 10
-19.484047057
 20
30.9825039118
 10
-19.4757414228
 20
30.9950574743
 10
-19.4678710944
 20
31.0079327684
 10
-19.4604247308
 20
31.0211265004
 10
-19.453413673
 20
31.0346419641
 10
-19.4468217871
 20
31.0485582933
 10
-19.4406396312
 20
31.062870243
 10
-19.4348766472
 20
31.0775830584
 10
-19.4295450269
 20
31.0927916091
 10
-19.4246356014
 20
31.1084855273
 10
-19.4201575395
 20
31.1246751808
 10
-19.4161505398
 20
31.1414865429
 10
-19.4126025701
 20
31.158909606
 10
-19.4095256625
 20
31.1769543776
 10
-19.4069956115
 20
31.1957768541
 10
-19.4050079088
 20
31.2156485904
 10
-19.4035670628
 20
31.2362980317
 10
-19.402762393
 20
31.2570665097
 10
-19.402639446
 20
31.2780208307
 10
-19.4031526752
 20
31.2990941884
 10
-19.4042547608
 20
31.3194274965
 10
-19.4059567577
 20
31.3386856239
 10
-19.4082476108
 20
31.3572037017
 10
-19.4110468352
 20
31.3751280361
 10
-19.4143423918
 20
31.3924665614
 10
-19.4181463195
 20
31.4092113433
 10
-19.4224142506
 20
31.425484885
 10
-19.4271364111
 20
31.441296701
 10
-19.4323225748
 20
31.4566372769
 10
-19.4379576965
 20
31.4716005733
 10
-19.4440320485
 20
31.486191165
 10
-19.4505553585
 20
31.5004044773
 10
-19.457541763
 20
31.5143207467
 10
-19.4649833248
 20
31.5279474206
 10
-19.4728879812
 20
31.5412770515
 10
-19.4812936811
 20
31.5543675346
 10
-19.4901908286
 20
31.5672225636
 10
-19.4995890195
 20
31.5798384447
 10
-19.5095549897
 20
31.5922619915
 10
-19.5200776462
 20
31.6044974214
 10
-19.531168082
 20
31.616540517
 10
-19.5429263115
 20
31.62842544
 10
-19.5554278623
 20
31.6402071084
 10
-19.5685972068
 20
31.6518306041
 10
-19.5823077776
 20
31.6631653348
 10
-19.5966389332
 20
31.674272062
 10
-19.611511315
 20
31.6850900241
 10
-19.6265602806
 20
31.6953063442
 10
-19.6416483659
 20
31.7048005609
 10
-19.6569130349
 20
31.7136931358
 10
-19.672402037
 20
31.7220325757
 10
-19.6881076848
 20
31.7298251768
 10
-19.7040376656
 20
31.737064643
 10
-19.720262791
 20
31.7437805938
 10
-19.7367795533
 20
31.7499827321
 10
-19.7535914601
 20
31.755661355
 10
-19.7707798449
 20
31.7608169727
 10
-19.7883380981
 20
31.7654588626
 10
-19.8062728293
 20
31.7695777474
 10
-19.8246852011
 20
31.7731463047
 10
-19.8435936851
 20
31.776175232
 10
-19.8629798097
 20
31.7786538317
 10
-19.8828893228
 20
31.780522689
 10
-19.9036500959
 20
31.7817699395
 10
-19.9249342576
 20
31.7824074475
 10
-19.9458039419
 20
31.7824113915
 10
-19.9660326407
 20
31.7817458164
 10
-19.9858468621
 20
31.7804466773
 10
-20.0049882642
 20
31.7785980188
  0
LWPOLYLINE
  5
448
100
AcDbEntity
  8
ASSI
100
AcDbPolyline
 62
7
  6
CONTINUOUS
 90
94
 70
0
 10
-19.8198353659
 20
30.7936325462
 10
-19.800544543
 20
30.7958713239
 10
-19.7819314021
 20
30.7985900044
 10
-19.7639959432
 20
30.8017885877
 10
-19.7467830716
 20
30.8054842512
 10
-19.7302478821
 20
30.8096598174
 10
-19.7142556581
 20
30.814263754
 10
-19.6988020221
 20
30.8192825367
 10
-19.6838913516
 20
30.8247296897
 10
-19.6694020631
 20
30.8305942527
 10
-19.6553139323
 20
30.8368746264
 10
-19.6416471836
 20
30.8435724101
 10
-19.6283409053
 20
30.8506814414
 10
-19.6154002743
 20
30.8581858565
 10
-19.6028201138
 20
30.8661015192
 10
-19.5905239828
 20
30.8744698579
 10
-19.5785006433
 20
30.8832870432
 10
-19.5667613333
 20
30.8925569045
 10
-19.5552633253
 20
30.9023323581
 10
-19.5439338216
 20
30.9126868033
 10
-19.5328456199
 20
30.9235468408
 10
-19.5221743858
 20
30.9347451901
 10
-19.5119558426
 20
30.946254702
 10
-19.5021542669
 20
30.9581025256
 10
-19.4928381547
 20
30.9702028274
 10
-19.484047057
 20
30.9825039118
 10
-19.4757414228
 20
30.9950574743
 10
-19.4678710944
 20
31.0079327684
 10
-19.4604247308
 20
31.0211265004
 10
-19.453413673
 20
31.0346419641
 10
-19.4468217871
 20
31.0485582933
 10
-19.4406396312
 20
31.062870243
 10
-19.4348766472
 20
31.0775830584
 10
-19.4295450269
 20
31.0927916091
 10
-19.4246356014
 20
31.1084855273
 10
-19.4201575395
 20
31.1246751808
 10
-19.4161505398
 20
31.1414865429
 10
-19.4126025701
 20
31.158909606
 10
-19.4095256625
 20
31.1769543776
 10
-19.4069956115
 20
31.1957768541
 10
-19.4050079088
 20
31.2156485904
 10
-19.4035670628
 20
31.2362980317
 10
-19.402762393
 20
31.2570665097
 10
-19.402639446
 20
31.2780208307
 10
-19.4031526752
 20
31.2990941884
 10
-19.4042547608
 20
31.3194274965
 10
-19.4059567577
 20
31.3386856239
 10
-19.4082476108
 20
31.3572037017
 10
-19.4110468352
 20
31.3751280361
 10
-19.4143423918
 20
31.3924665614
 10
-19.4181463195
 20
31.4092113433
 10
-19.4224142506
 20
31.425484885
 10
-19.4271364111
 20
31.441296701
 10
-19.4323225748
 20
31.4566372769
 10
-19.4379576965
 20
31.4716005733
 10
-19.4440320485
 20
31.486191165
 10
-19.4505553585
 20
31.5004044773
 10
-19.457541763
 20
31.5143207467
 10
-19.4649833248
 20
31.5279474206
 10
-19.4728879812
 20
31.5412770515
 10
-19.4812936811
 20
31.5543675346
 10
-19.4901908286
 20
31.5672225636
 10
-19.4995890195
 20
31.5798384447
 10
-19.5095549897
 20
31.5922619915
 10
-19.5200776462
 20
31.6044974214
 10
-19.531168082
 20
31.616540517
 10
-19.5429263115
 20
31.62842544
 10
-19.5554278623
 20
31.6402071084
 10
-19.5685972068
 20
31.6518306041
 10
-19.5823077776
 20
31.6631653348
 10
-19.5966389332
 20
31.674272062
 10
-19.611511315
 20
31.6850900241
 10
-19.6265602806
 20
31.6953063442
 10
-19.6416483659
 20
31.7048005609
 10
-19.6569130349
 20
31.7136931358
 10
-19.672402037
 20
31.7220325757
 10
-19.6881076848
 20
31.7298251768
 10
-19.7040376656
 20
31.737064643
 10
-19.720262791
 20
31.7437805938
 10
-19.7367795533
 20
31.7499827321
 10
-19.7535914601
 20
31.755661355
 10
-19.7707798449
 20
31.7608169727
 10
-19.7883380981
 20
31.7654588626
 10
-19.8062728293
 20
31.7695777474
 10
-19.8246852011
 20
31.7731463047
 10
-19.8435936851
 20
31.776175232
 10
-19.8629798097
 20
31.7786538317
 10
-19.8828893228
 20
31.780522689
 10
-19.9036500959
 20
31.7817699395
 10
-19.9249342576
 20
31.7824074475
 10
-19.9458039419
 20
31.7824113915
 10
-19.9660326407
 20
31.7817458164
 10
-19.9858468621
 20
31.7804466773
 10
-20.0049882642
 20
31.7785980188
  0
LINE
  5
449
100
AcDbEntity
  8
ASSI
100
AcDbLine
 62
7
  6
CONTINUOUS
 10
-26.5527784082
 20
30.081047102
 11
-24.9027044082
 21
30.081047102
  0
LINE
  5
44A
100
AcDbEntity
  8
0
100
AcDbLine
 62
7
  6
CONTINUOUS
 10
-20.6253484082
 20
30.219919102
 11
-19.9533534082
 21
30.219919102
  0
LINE
  5
44B
100
AcDbEntity
  8
ASSI
100
AcDbLine
 62
7
  6
CONTINUOUS
 10
-20.6253484082
 20
30.219919102
 11
-19.9533534082
 21
30.219919102
  0
LINE
  5
44C
100
AcDbEntity
  8
0
100
AcDbLine
 62
7
  6
CONTINUOUS
 10
-19.7843694082
 20
30.219919102
 11
-19.4276234082
 21
30.219919102
  0
LINE
  5
44D
100
AcDbEntity
  8
ASSI
100
AcDbLine
 62
7
  6
CONTINUOUS
 10
-19.7843694082
 20
30.219919102
 11
-19.4276234082
 21
30.219919102
  0
LINE
  5
44E
100
AcDbEntity
  8
0
100
AcDbLine
 62
7
  6
CONTINUOUS
 10
-19.4276234082
 20
30.403507102
 11
-19.7843694082
 21
30.403507102
  0
LINE
  5
44F
100
AcDbEntity
  8
ASSI
100
AcDbLine
 62
7
  6
CONTINUOUS
 10
-19.4276234082
 20
30.403507102
 11
-19.7843694082
 21
30.403507102
  0
LINE
  5
450
100
AcDbEntity
  8
0
100
AcDbLine
 62
7
  6
CONTINUOUS
 10
-19.9533534082
 20
30.403507102
 11
-20.9213654082
 21
30.403507102
  0
LINE
  5
451
100
AcDbEntity
  8
ASSI
100
AcDbLine
 62
7
  6
CONTINUOUS
 10
-19.9533534082
 20
30.403507102
 11
-20.9213654082
 21
30.403507102
  0
LINE
  5
452
100
AcDbEntity
  8
ASSI
100
AcDbLine
 62
7
  6
CONTINUOUS
 10
-24.9027044082
 20
30.411060102
 11
-25.9908174082
 21
30.411060102
  0
LINE
  5
453
100
AcDbEntity
  8
0
100
AcDbLine
 62
7
  6
CONTINUOUS
 10
-19.7843694082
 20
30.605872102
 11
-19.9533534082
 21
30.605872102
  0
LINE
  5
454
100
AcDbEntity
  8
ASSI
100
AcDbLine
 62
7
  6
CONTINUOUS
 10
-19.7843694082
 20
30.605872102
 11
-19.9533534082
 21
30.605872102
  0
LINE
  5
455
100
AcDbEntity
  8
ASSI
100
AcDbLine
 62
7
  6
CONTINUOUS
 10
-25.9908174082
 20
31.365077102
 11
-24.9027044082
 21
31.365081102
  0
LINE
  5
456
100
AcDbEntity
  8
ASSI
100
AcDbLine
 62
7
  6
CONTINUOUS
 10
-24.9027044082
 20
31.695094102
 11
-26.5527784082
 21
31.695094102
  0
LINE
  5
457
100
AcDbEntity
  8
0
100
AcDbLine
 62
7
  6
CONTINUOUS
 10
-20.7273454082
 20
31.711574102
 11
-20.9025884082
 21
31.711574102
  0
LINE
  5
458
100
AcDbEntity
  8
ASSI
100
AcDbLine
 62
7
  6
CONTINUOUS
 10
-20.7273454082
 20
31.711574102
 11
-20.9025884082
 21
31.711574102
  0
LINE
  5
459
100
AcDbEntity
  8
0
100
AcDbLine
 62
7
  6
CONTINUOUS
 10
-20.9025884082
 20
30.970962102
 11
-20.1348554082
 21
30.827012102
  0
LINE
  5
45A
100
AcDbEntity
  8
ASSI
100
AcDbLine
 62
7
  6
CONTINUOUS
 10
-20.9025884082
 20
30.970962102
 11
-20.1348554082
 21
30.827012102
  0
LINE
  5
45B
100
AcDbEntity
  8
0
100
AcDbLine
 62
7
  6
CONTINUOUS
 10
-20.3244419805
 20
31.0375910175
 11
-20.7273454082
 21
31.117259102
  0
LINE
  5
45C
100
AcDbEntity
  8
ASSI
100
AcDbLine
 62
7
  6
CONTINUOUS
 10
-20.3244419805
 20
31.0375910175
 11
-20.7273454082
 21
31.117259102
  0
LINE
  5
45D
100
AcDbEntity
  8
ASSI
100
AcDbLine
 62
7
  6
CONTINUOUS
 10
-26.5527834082
 20
32.444878102
 11
-24.9027044082
 21
31.915101102
  0
LINE
  5
45E
100
AcDbEntity
  8
ASSI
100
AcDbLine
 62
7
  6
CONTINUOUS
 10
-24.9027084082
 20
32.245113102
 11
-25.2272064082
 21
32.349298102
  0
LINE
  5
45F
100
AcDbEntity
  8
ASSI
100
AcDbLine
 62
7
  6
CONTINUOUS
 10
-25.5407184082
 20
32.449960102
 11
-26.0388694082
 21
32.609891102
  0
LWPOLYLINE
  5
460
100
AcDbEntity
  8
0
100
AcDbPolyline
 62
7
  6
CONTINUOUS
 90
85
 70
0
 10
-20.1098213331
 20
31.0001696213
 10
-20.119624676
 20
31.0065744121
 10
-20.1291426744
 20
31.0133307525
 10
-20.1383753284
 20
31.0204386425
 10
-20.1473096737
 20
31.0278817406
 10
-20.1559586745
 20
31.0356763884
 10
-20.1643612237
 20
31.0438716094
 10
-20.1725310286
 20
31.0524720358
 10
-20.1804543818
 20
31.0614730356
 10
-20.1881290546
 20
31.0709097367
 10
-20.195649424
 20
31.0809505178
 10
-20.202921113
 20
31.0914270001
 10
-20.209658762
 20
31.1018691752
 10
-20.2157325197
 20
31.1120613203
 10
-20.2212722375
 20
31.1222191582
 10
-20.2263821096
 20
31.1325198488
 10
-20.2310848243
 20
31.1429874776
 10
-20.2353576934
 20
31.1535979592
 10
-20.2392368467
 20
31.1644561968
 10
-20.2427383512
 20
31.1755696062
 10
-20.2458461399
 20
31.1869307715
 10
-20.2485481417
 20
31.1986223486
 10
-20.2508549487
 20
31.2106377782
 10
-20.2527559689
 20
31.2229836194
 10
-20.2542073552
 20
31.2357622061
 10
-20.2552077754
 20
31.2490732493
 10
-20.2557585618
 20
31.262817038
 10
-20.2558198643
 20
31.2767967717
 10
-20.2553619619
 20
31.2912013279
 10
-20.2544145755
 20
31.3058418293
 10
-20.2530270183
 20
31.3199548431
 10
-20.2511949916
 20
31.3332629373
 10
-20.2489227941
 20
31.3460435439
 10
-20.2462726342
 20
31.3583655275
 10
-20.2432561367
 20
31.3702178701
 10
-20.2398616769
 20
31.3816115895
 10
-20.2361165887
 20
31.392648604
 10
-20.232029743
 20
31.4033375939
 10
-20.2275922689
 20
31.4136698788
 10
-20.2228048878
 20
31.4237213364
 10
-20.2176770481
 20
31.4334967099
 10
-20.2121993014
 20
31.442991256
 10
-20.2063440242
 20
31.452266622
 10
-20.2001134853
 20
31.4613348632
 10
-20.1935054158
 20
31.4701839242
 10
-20.1864853866
 20
31.4788392864
 10
-20.1789899171
 20
31.4873655675
 10
-20.1710824878
 20
31.4956981499
 10
-20.1629191106
 20
31.5036686618
 10
-20.1545578492
 20
31.5112160193
 10
-20.1459406401
 20
31.5184013065
 10
-20.1370493042
 20
31.5252394042
 10
-20.1278986485
 20
31.5317273497
 10
-20.1184738662
 20
31.5378681057
 10
-20.1087123579
 20
31.5436854415
 10
-20.0986222144
 20
31.5491870647
 10
-20.0881953449
 20
31.5543652675
 10
-20.0773448788
 20
31.5592206958
 10
-20.066079663
 20
31.5637627117
 10
-20.0543908505
 20
31.5679819531
 10
-20.0421650289
 20
31.5718509793
 10
-20.0294141133
 20
31.5753807514
 10
-20.0161261886
 20
31.5785603083
 10
-20.0021520974
 20
31.5813293262
 10
-19.9874897444
 20
31.583701492
 10
-19.9721412247
 20
31.5856631187
 10
-19.9559636665
 20
31.5871128218
 10
-19.9385806805
 20
31.5880357496
 10
-19.920368656
 20
31.5884467538
 10
-19.9023138883
 20
31.5882890041
 10
-19.8845452773
 20
31.5875127509
 10
-19.8669339232
 20
31.5861677439
 10
-19.8500794219
 20
31.5843464022
 10
-19.8342363587
 20
31.5820543741
 10
-19.8191501483
 20
31.5792860113
 10
-19.8046566309
 20
31.5761167886
 10
-19.7907420851
 20
31.5725584856
 10
-19.7774202322
 20
31.5685993227
 10
-19.7645680764
 20
31.5642794349
 10
-19.75217732
 20
31.5596090539
 10
-19.7402562605
 20
31.5545779479
 10
-19.7287067953
 20
31.549195557
 10
-19.7175196012
 20
31.5434696638
 10
-19.7067040012
 20
31.5373924856
 10
-19.6961898614
 20
31.5309501137
  0
LWPOLYLINE
  5
461
100
AcDbEntity
  8
ASSI
100
AcDbPolyline
 62
7
  6
CONTINUOUS
 90
85
 70
0
 10
-20.1098213331
 20
31.0001696213
 10
-20.119624676
 20
31.0065744121
 10
-20.1291426744
 20
31.0133307525
 10
-20.1383753284
 20
31.0204386425
 10
-20.1473096737
 20
31.0278817406
 10
-20.1559586745
 20
31.0356763884
 10
-20.1643612237
 20
31.0438716094
 10
-20.1725310286
 20
31.0524720358
 10
-20.1804543818
 20
31.0614730356
 10
-20.1881290546
 20
31.0709097367
 10
-20.195649424
 20
31.0809505178
 10
-20.202921113
 20
31.0914270001
 10
-20.209658762
 20
31.1018691752
 10
-20.2157325197
 20
31.1120613203
 10
-20.2212722375
 20
31.1222191582
 10
-20.2263821096
 20
31.1325198488
 10
-20.2310848243
 20
31.1429874776
 10
-20.2353576934
 20
31.1535979592
 10
-20.2392368467
 20
31.1644561968
 10
-20.2427383512
 20
31.1755696062
 10
-20.2458461399
 20
31.1869307715
 10
-20.2485481417
 20
31.1986223486
 10
-20.2508549487
 20
31.2106377782
 10
-20.2527559689
 20
31.2229836194
 10
-20.2542073552
 20
31.2357622061
 10
-20.2552077754
 20
31.2490732493
 10
-20.2557585618
 20
31.262817038
 10
-20.2558198643
 20
31.2767967717
 10
-20.2553619619
 20
31.2912013279
 10
-20.2544145755
 20
31.3058418293
 10
-20.2530270183
 20
31.3199548431
 10
-20.2511949916
 20
31.3332629373
 10
-20.2489227941
 20
31.3460435439
 10
-20.2462726342
 20
31.3583655275
 10
-20.2432561367
 20
31.3702178701
 10
-20.2398616769
 20
31.3816115895
 10
-20.2361165887
 20
31.392648604
 10
-20.232029743
 20
31.4033375939
 10
-20.2275922689
 20
31.4136698788
 10
-20.2228048878
 20
31.4237213364
 10
-20.2176770481
 20
31.4334967099
 10
-20.2121993014
 20
31.442991256
 10
-20.2063440242
 20
31.452266622
 10
-20.2001134853
 20
31.4613348632
 10
-20.1935054158
 20
31.4701839242
 10
-20.1864853866
 20
31.4788392864
 10
-20.1789899171
 20
31.4873655675
 10
-20.1710824878
 20
31.4956981499
 10
-20.1629191106
 20
31.5036686618
 10
-20.1545578492
 20
31.5112160193
 10
-20.1459406401
 20
31.5184013065
 10
-20.1370493042
 20
31.5252394042
 10
-20.1278986485
 20
31.5317273497
 10
-20.1184738662
 20
31.5378681057
 10
-20.1087123579
 20
31.5436854415
 10
-20.0986222144
 20
31.5491870647
 10
-20.0881953449
 20
31.5543652675
 10
-20.0773448788
 20
31.5592206958
 10
-20.066079663
 20
31.5637627117
 10
-20.0543908505
 20
31.5679819531
 10
-20.0421650289
 20
31.5718509793
 10
-20.0294141133
 20
31.5753807514
 10
-20.0161261886
 20
31.5785603083
 10
-20.0021520974
 20
31.5813293262
 10
-19.9874897444
 20
31.583701492
 10
-19.9721412247
 20
31.5856631187
 10
-19.9559636665
 20
31.5871128218
 10
-19.9385806805
 20
31.5880357496
 10
-19.920368656
 20
31.5884467538
 10
-19.9023138883
 20
31.5882890041
 10
-19.8845452773
 20
31.5875127509
 10
-19.8669339232
 20
31.5861677439
 10
-19.8500794219
 20
31.5843464022
 10
-19.8342363587
 20
31.5820543741
 10
-19.8191501483
 20
31.5792860113
 10
-19.8046566309
 20
31.5761167886
 10
-19.7907420851
 20
31.5725584856
 10
-19.7774202322
 20
31.5685993227
 10
-19.7645680764
 20
31.5642794349
 10
-19.75217732
 20
31.5596090539
 10
-19.7402562605
 20
31.5545779479
 10
-19.7287067953
 20
31.549195557
 10
-19.7175196012
 20
31.5434696638
 10
-19.7067040012
 20
31.5373924856
 10
-19.6961898614
 20
31.5309501137
  0
LWPOLYLINE
  5
462
100
AcDbEntity
  8
0
100
AcDbPolyline
 62
7
  6
CONTINUOUS
 90
64
 70
0
 10
-19.6961898614
 20
31.5309501137
 10
-19.6859967971
 20
31.5241741165
 10
-19.676105193
 20
31.5170329255
 10
-19.6663860694
 20
31.5094179267
 10
-19.656707316
 20
31.5012061325
 10
-19.6472010431
 20
31.4925205305
 10
-19.6381346014
 20
31.4836214688
 10
-19.6295686091
 20
31.4745483805
 10
-19.6214424481
 20
31.4652618326
 10
-19.6138416138
 20
31.4559038749
 10
-19.6068198197
 20
31.4465354462
 10
-19.6003233524
 20
31.4370956077
 10
-19.5942765677
 20
31.4275435925
 10
-19.5886688201
 20
31.417882183
 10
-19.583510755
 20
31.4081085968
 10
-19.5787586648
 20
31.3981737206
 10
-19.5744037297
 20
31.3880831117
 10
-19.5704547695
 20
31.3778312128
 10
-19.5668945358
 20
31.3673522388
 10
-19.5637130405
 20
31.3566500687
 10
-19.5609202718
 20
31.3457208235
 10
-19.558528945
 20
31.3344870809
 10
-19.556529257
 20
31.322922922
 10
-19.554931011
 20
31.3110542657
 10
-19.553776332
 20
31.2988814467
 10
-19.5530766875
 20
31.2862033794
 10
-19.55282061
 20
31.2732211493
 10
-19.5530158222
 20
31.2605383471
 10
-19.5536829714
 20
31.248333464
 10
-19.5548014102
 20
31.2364280089
 10
-19.5563169193
 20
31.2248900991
 10
-19.5582208212
 20
31.2137726193
 10
-19.5605217933
 20
31.2030226848
 10
-19.5631916479
 20
31.1925497589
 10
-19.5662208851
 20
31.1823466595
 10
-19.5696190047
 20
31.1724205688
 10
-19.5733863185
 20
31.1627024958
 10
-19.5775138628
 20
31.1531878034
 10
-19.5820106013
 20
31.1438811288
 10
-19.5869037372
 20
31.1347273928
 10
-19.5921970653
 20
31.1257081155
 10
-19.5978867908
 20
31.1168417769
 10
-19.6039887327
 20
31.1081287381
 10
-19.6105928594
 20
31.0994705198
 10
-19.6176092025
 20
31.0909656013
 10
-19.6247836761
 20
31.082909782
 10
-19.6319494025
 20
31.0754805866
 10
-19.6392732595
 20
31.0685004902
 10
-19.6470017943
 20
31.0617327183
 10
-19.6551829755
 20
31.055104092
 10
-19.6637688345
 20
31.0486877902
 10
-19.6728620123
 20
31.0424665745
 10
-19.6824516211
 20
31.0364311726
 10
-19.6925485486
 20
31.0305908569
 10
-19.7032880994
 20
31.0249562061
 10
-19.7146620853
 20
31.0195158497
 10
-19.7266786944
 20
31.0142811582
 10
-19.7394977954
 20
31.0092968222
 10
-19.753141051
 20
31.0045470632
 10
-19.7675867986
 20
31.0000476597
 10
-19.7829299184
 20
30.9958906376
 10
-19.7992020372
 20
30.9921066722
 10
-19.8163715283
 20
30.9886650882
 10
-19.8344383917
 20
30.9855658857
  0
LWPOLYLINE
  5
463
100
AcDbEntity
  8
ASSI
100
AcDbPolyline
 62
7
  6
CONTINUOUS
 90
64
 70
0
 10
-19.6961898614
 20
31.5309501137
 10
-19.6859967971
 20
31.5241741165
 10
-19.676105193
 20
31.5170329255
 10
-19.6663860694
 20
31.5094179267
 10
-19.656707316
 20
31.5012061325
 10
-19.6472010431
 20
31.4925205305
 10
-19.6381346014
 20
31.4836214688
 10
-19.6295686091
 20
31.4745483805
 10
-19.6214424481
 20
31.4652618326
 10
-19.6138416138
 20
31.4559038749
 10
-19.6068198197
 20
31.4465354462
 10
-19.6003233524
 20
31.4370956077
 10
-19.5942765677
 20
31.4275435925
 10
-19.5886688201
 20
31.417882183
 10
-19.583510755
 20
31.4081085968
 10
-19.5787586648
 20
31.3981737206
 10
-19.5744037297
 20
31.3880831117
 10
-19.5704547695
 20
31.3778312128
 10
-19.5668945358
 20
31.3673522388
 10
-19.5637130405
 20
31.3566500687
 10
-19.5609202718
 20
31.3457208235
 10
-19.558528945
 20
31.3344870809
 10
-19.556529257
 20
31.322922922
 10
-19.554931011
 20
31.3110542657
 10
-19.553776332
 20
31.2988814467
 10
-19.5530766875
 20
31.2862033794
 10
-19.55282061
 20
31.2732211493
 10
-19.5530158222
 20
31.2605383471
 10
-19.5536829714
 20
31.248333464
 10
-19.5548014102
 20
31.2364280089
 10
-19.5563169193
 20
31.2248900991
 10
-19.5582208212
 20
31.2137726193
 10
-19.5605217933
 20
31.2030226848
 10
-19.5631916479
 20
31.1925497589
 10
-19.5662208851
 20
31.1823466595
 10
-19.5696190047
 20
31.1724205688
 10
-19.5733863185
 20
31.1627024958
 10
-19.5775138628
 20
31.1531878034
 10
-19.5820106013
 20
31.1438811288
 10
-19.5869037372
 20
31.1347273928
 10
-19.5921970653
 20
31.1257081155
 10
-19.5978867908
 20
31.1168417769
 10
-19.6039887327
 20
31.1081287381
 10
-19.6105928594
 20
31.0994705198
 10
-19.6176092025
 20
31.0909656013
 10
-19.6247836761
 20
31.082909782
 10
-19.6319494025
 20
31.0754805866
 10
-19.6392732595
 20
31.0685004902
 10
-19.6470017943
 20
31.0617327183
 10
-19.6551829755
 20
31.055104092
 10
-19.6637688345
 20
31.0486877902
 10
-19.6728620123
 20
31.0424665745
 10
-19.6824516211
 20
31.0364311726
 10
-19.6925485486
 20
31.0305908569
 10
-19.7032880994
 20
31.0249562061
 10
-19.7146620853
 20
31.0195158497
 10
-19.7266786944
 20
31.0142811582
 10
-19.7394977954
 20
31.0092968222
 10
-19.753141051
 20
31.0045470632
 10
-19.7675867986
 20
31.0000476597
 10
-19.7829299184
 20
30.9958906376
 10
-19.7992020372
 20
30.9921066722
 10
-19.8163715283
 20
30.9886650882
 10
-19.8344383917
 20
30.9855658857
  0
LWPOLYLINE
  5
464
100
AcDbEntity
  8
0
100
AcDbPolyline
 62
7
  6
CONTINUOUS
 90
23
 70
0
 10
-20.817219002
 20
33.2677937993
 10
-20.8077253183
 20
33.2573131568
 10
-20.7980017163
 20
33.2473290825
 10
-20.787992901
 20
33.2377884555
 10
-20.7776083656
 20
33.2285963361
 10
-20.7668365523
 20
33.2197267422
 10
-20.7556890188
 20
33.2112056559
 10
-20.7441099316
 20
33.2030160833
 10
-20.7321168082
 20
33.1951565616
 10
-20.7196921311
 20
33.1876285537
 10
-20.7067275138
 20
33.1804194538
 10
-20.6932352383
 20
33.1735212481
 10
-20.6792030226
 20
33.1669419505
 10
-20.6644856338
 20
33.1606929966
 10
-20.6490701567
 20
33.154755576
 10
-20.6329695065
 20
33.1491484992
 10
-20.6160771952
 20
33.1439396336
 10
-20.5984359517
 20
33.1391263573
 10
-20.5800030471
 20
33.1347112922
 10
-20.5605438069
 20
33.1307701707
 10
-20.5399800063
 20
33.1273282368
 10
-20.5183898701
 20
33.1243602465
 10
-20.4957733984
 20
33.1218661997
  0
LWPOLYLINE
  5
465
100
AcDbEntity
  8
ASSI
100
AcDbPolyline
 62
7
  6
CONTINUOUS
 90
23
 70
0
 10
-20.817219002
 20
33.2677937993
 10
-20.8077253183
 20
33.2573131568
 10
-20.7980017163
 20
33.2473290825
 10
-20.787992901
 20
33.2377884555
 10
-20.7776083656
 20
33.2285963361
 10
-20.7668365523
 20
33.2197267422
 10
-20.7556890188
 20
33.2112056559
 10
-20.7441099316
 20
33.2030160833
 10
-20.7321168082
 20
33.1951565616
 10
-20.7196921311
 20
33.1876285537
 10
-20.7067275138
 20
33.1804194538
 10
-20.6932352383
 20
33.1735212481
 10
-20.6792030226
 20
33.1669419505
 10
-20.6644856338
 20
33.1606929966
 10
-20.6490701567
 20
33.154755576
 10
-20.6329695065
 20
33.1491484992
 10
-20.6160771952
 20
33.1439396336
 10
-20.5984359517
 20
33.1391263573
 10
-20.5800030471
 20
33.1347112922
 10
-20.5605438069
 20
33.1307701707
 10
-20.5399800063
 20
33.1273282368
 10
-20.5183898701
 20
33.1243602465
 10
-20.4957733984
 20
33.1218661997
  0
LWPOLYLINE
  5
466
100
AcDbEntity
  8
0
100
AcDbPolyline
 62
7
  6
CONTINUOUS
 90
100
 70
0
 10
-19.9249620585
 20
33.6723947205
 10
-19.9465362706
 20
33.6973530439
 10
-19.969236145
 20
33.7232335832
 10
-19.9926934187
 20
33.7496655585
 10
-20.0156795705
 20
33.775130327
 10
-20.037797654
 20
33.7991734136
 10
-20.0594446156
 20
33.8222492935
 10
-20.0805827729
 20
33.8442027495
 10
-20.1011825879
 20
33.8650141919
 10
-20.1212735987
 20
33.8847032104
 10
-20.1409067372
 20
33.9031733568
 10
-20.1600983991
 20
33.9203614265
 10
-20.1788321887
 20
33.9363306241
 10
-20.1971098516
 20
33.951174115
 10
-20.2149327072
 20
33.9648851837
 10
-20.232299436
 20
33.9774705458
 10
-20.2492078248
 20
33.9890435135
 10
-20.2656233386
 20
33.9995876033
 10
-20.2815805123
 20
34.0091192988
 10
-20.2971807377
 20
34.0178013626
 10
-20.3122723434
 20
34.0255821147
 10
-20.3270070007
 20
34.0325132352
 10
-20.3419411156
 20
34.0389125273
 10
-20.3573530517
 20
34.0449101938
 10
-20.3729644454
 20
34.050376032
 10
-20.3884966117
 20
34.0552372372
 10
-20.4038365218
 20
34.0594541372
 10
-20.4190972045
 20
34.0630664042
 10
-20.4343390616
 20
34.0661202505
 10
-20.4495258746
 20
34.0686250508
 10
-20.4646938621
 20
34.0705714304
 10
-20.4800120812
 20
34.0719774777
 10
-20.4955894635
 20
34.0728475747
 10
-20.5113170774
 20
34.0731773393
 10
-20.5270371858
 20
34.0729717142
 10
-20.5428374811
 20
34.0722153002
 10
-20.5586302708
 20
34.0709234963
 10
-20.5739947409
 20
34.0691474429
 10
-20.5887594679
 20
34.0668926978
 10
-20.6030958753
 20
34.0641537032
 10
-20.6170974184
 20
34.0609649252
 10
-20.6307685038
 20
34.0573364434
 10
-20.644104725
 20
34.0532581784
 10
-20.6571863178
 20
34.0487343584
 10
-20.6700191382
 20
34.0437737614
 10
-20.6825973303
 20
34.0383676095
 10
-20.6949835624
 20
34.0324937974
 10
-20.7071796888
 20
34.026162666
 10
-20.7191838553
 20
34.0193638744
 10
-20.7310531672
 20
34.012044295
 10
-20.7427957874
 20
34.0042111909
 10
-20.754403553
 20
33.9958572989
 10
-20.7659090807
 20
33.9869077023
 10
-20.7774488936
 20
33.9772229041
 10
-20.7888864687
 20
33.9669424012
 10
-20.799844853
 20
33.9564097668
 10
-20.8102048803
 20
33.945729161
 10
-20.8200857168
 20
33.9347964238
 10
-20.8294679083
 20
33.9236426488
 10
-20.8383082603
 20
33.912323553
 10
-20.8466499672
 20
33.9007834194
 10
-20.8546031591
 20
33.8888861905
 10
-20.8622014708
 20
33.8766104984
 10
-20.8694112674
 20
33.8639777109
 10
-20.8762417735
 20
33.850915874
 10
-20.8826990254
 20
33.8374366652
 10
-20.8887769868
 20
33.8235284069
 10
-20.8944667736
 20
33.8090841124
 10
-20.8997790359
 20
33.7941109154
 10
-20.9047031237
 20
33.7786016822
 10
-20.909198202
 20
33.7624280244
 10
-20.9132752552
 20
33.7456046571
 10
-20.9169232989
 20
33.7281168653
 10
-20.9200685458
 20
33.7097921153
 10
-20.9227251377
 20
33.6906149755
 10
-20.9248789328
 20
33.6706008774
 10
-20.926413718
 20
33.6496235825
 10
-20.9273034879
 20
33.627175763
 10
-20.9275742481
 20
33.6037647466
 10
-20.9271878015
 20
33.5807862789
 10
-20.9260918642
 20
33.5585323207
 10
-20.9243387201
 20
33.5367109111
 10
-20.9220470248
 20
33.5158419125
 10
-20.9192258206
 20
33.4961633178
 10
-20.9158660652
 20
33.4774371342
 10
-20.9120592867
 20
33.459469245
 10
-20.9078183767
 20
33.4422455321
 10
-20.9031304437
 20
33.4257801137
 10
-20.898048341
 20
33.4099212276
 10
-20.8925824201
 20
33.3946576014
 10
-20.8867223296
 20
33.3800005076
 10
-20.8804898683
 20
33.3658320016
 10
-20.8738939161
 20
33.3521433026
 10
-20.8669255931
 20
33.3389431914
 10
-20.8595800592
 20
33.326140066
 10
-20.8518501611
 20
33.3137093798
 10
-20.843743052
 20
33.3016756794
 10
-20.8352753512
 20
33.2900210031
 10
-20.8264274724
 20
33.2787178892
 10
-20.817219002
 20
33.2677937993
  0
LWPOLYLINE
  5
467
100
AcDbEntity
  8
ASSI
100
AcDbPolyline
 62
7
  6
CONTINUOUS
 90
37
 70
0
 10
-19.9249620585
 20
33.6723947205
 10
-19.9465362706
 20
33.6973530439
 10
-19.969236145
 20
33.7232335832
 10
-19.9926934187
 20
33.7496655585
 10
-20.0156795705
 20
33.775130327
 10
-20.037797654
 20
33.7991734136
 10
-20.0594446156
 20
33.8222492935
 10
-20.0805827729
 20
33.8442027495
 10
-20.1011825879
 20
33.8650141919
 10
-20.1212735987
 20
33.8847032104
 10
-20.1409067372
 20
33.9031733568
 10
-20.1600983991
 20
33.9203614265
 10
-20.1788321887
 20
33.9363306241
 10
-20.1971098516
 20
33.951174115
 10
-20.2149327072
 20
33.9648851837
 10
-20.232299436
 20
33.9774705458
 10
-20.2492078248
 20
33.9890435135
 10
-20.2656233386
 20
33.9995876033
 10
-20.2815805123
 20
34.0091192988
 10
-20.2971807377
 20
34.0178013626
 10
-20.3122723434
 20
34.0255821147
 10
-20.3270070007
 20
34.0325132352
 10
-20.3419411156
 20
34.0389125273
 10
-20.3573530517
 20
34.0449101938
 10
-20.3729644454
 20
34.050376032
 10
-20.3884966117
 20
34.0552372372
 10
-20.4038365218
 20
34.0594541372
 10
-20.4190972045
 20
34.0630664042
 10
-20.4343390616
 20
34.0661202505
 10
-20.4495258746
 20
34.0686250508
 10
-20.4646938621
 20
34.0705714304
 10
-20.4800120812
 20
34.0719774777
 10
-20.4955894635
 20
34.0728475747
 10
-20.5113170774
 20
34.0731773393
 10
-20.5270371858
 20
34.0729717142
 10
-20.5428374811
 20
34.0722153002
 10
-20.5586302708
 20
34.0709234963
  0
LINE
  5
468
100
AcDbEntity
  8
0
100
AcDbLine
 62
7
  6
CONTINUOUS
 10
-19.7967169456
 20
33.5219737451
 11
-19.8298130472
 21
33.5603439772
  0
LINE
  5
469
100
AcDbEntity
  8
ASSI
100
AcDbLine
 62
7
  6
CONTINUOUS
 10
-19.7967169456
 20
33.5219737451
 11
-19.8298130472
 21
33.5603439772
  0
LINE
  5
46A
100
AcDbEntity
  8
0
100
AcDbLine
 62
7
  6
CONTINUOUS
 10
-19.8298130472
 20
33.5603439772
 11
-19.9249620585
 21
33.6723947205
  0
LINE
  5
46B
100
AcDbEntity
  8
ASSI
100
AcDbLine
 62
7
  6
CONTINUOUS
 10
-19.8298130472
 20
33.5603439772
 11
-19.9249620585
 21
33.6723947205
  0
LINE
  5
46C
100
AcDbEntity
  8
0
100
AcDbLine
 62
7
  6
CONTINUOUS
 10
-20.0426147001
 20
33.5456205313
 11
-19.9967932857
 21
33.4915038653
  0
LINE
  5
46D
100
AcDbEntity
  8
ASSI
100
AcDbLine
 62
7
  6
CONTINUOUS
 10
-20.0426147001
 20
33.5456205313
 11
-19.9967932857
 21
33.4915038653
  0
LWPOLYLINE
  5
46E
100
AcDbEntity
  8
0
100
AcDbPolyline
 62
7
  6
CONTINUOUS
 90
36
 70
0
 10
-19.9967932857
 20
33.4915038653
 10
-19.9511572189
 20
33.4365204006
 10
-19.9288880899
 20
33.4101247456
 10
-19.9073618851
 20
33.3853735838
 10
-19.8863795147
 20
33.361805638
 10
-19.8658774037
 20
33.3393945701
 10
-19.8458462207
 20
33.3181419292
 10
-19.8262952971
 20
33.2980461661
 10
-19.8071890526
 20
33.2790762949
 10
-19.7885229568
 20
33.2612298018
 10
-19.7703015402
 20
33.2445092006
 10
-19.7525028132
 20
33.2288910458
 10
-19.735117525
 20
33.214410248
 10
-19.7181549264
 20
33.2010318967
 10
-19.7016207806
 20
33.1886278145
 10
-19.6855165128
 20
33.1772092975
 10
-19.6698406978
 20
33.1667650498
 10
-19.6545948227
 20
33.1571330062
 10
-19.6397823302
 20
33.1483084655
 10
-19.6253997778
 20
33.140296129
 10
-19.611438325
 20
33.1329480354
 10
-19.5979055333
 20
33.1262577676
 10
-19.5847938413
 20
33.1202317426
 10
-19.5720717243
 20
33.1147412506
 10
-19.5598332057
 20
33.1097609062
 10
-19.547984262
 20
33.1053160947
 10
-19.5362112988
 20
33.1013542622
 10
-19.5244654637
 20
33.0978689582
 10
-19.512795609
 20
33.0948666332
 10
-19.5010346971
 20
33.0923140855
 10
-19.489149254
 20
33.0901994105
 10
-19.4771727537
 20
33.0885345128
 10
-19.4650385806
 20
33.0873219044
 10
-19.4527245293
 20
33.0865624226
 10
-19.4402528052
 20
33.08625523
 10
-19.4276234082
 20
33.0864003267
  0
LWPOLYLINE
  5
46F
100
AcDbEntity
  8
ASSI
100
AcDbPolyline
 62
7
  6
CONTINUOUS
 90
36
 70
0
 10
-19.9967932857
 20
33.4915038653
 10
-19.9511572189
 20
33.4365204006
 10
-19.9288880899
 20
33.4101247456
 10
-19.9073618851
 20
33.3853735838
 10
-19.8863795147
 20
33.361805638
 10
-19.8658774037
 20
33.3393945701
 10
-19.8458462207
 20
33.3181419292
 10
-19.8262952971
 20
33.2980461661
 10
-19.8071890526
 20
33.2790762949
 10
-19.7885229568
 20
33.2612298018
 10
-19.7703015402
 20
33.2445092006
 10
-19.7525028132
 20
33.2288910458
 10
-19.735117525
 20
33.214410248
 10
-19.7181549264
 20
33.2010318967
 10
-19.7016207806
 20
33.1886278145
 10
-19.6855165128
 20
33.1772092975
 10
-19.6698406978
 20
33.1667650498
 10
-19.6545948227
 20
33.1571330062
 10
-19.6397823302
 20
33.1483084655
 10
-19.6253997778
 20
33.140296129
 10
-19.611438325
 20
33.1329480354
 10
-19.5979055333
 20
33.1262577676
 10
-19.5847938413
 20
33.1202317426
 10
-19.5720717243
 20
33.1147412506
 10
-19.5598332057
 20
33.1097609062
 10
-19.547984262
 20
33.1053160947
 10
-19.5362112988
 20
33.1013542622
 10
-19.5244654637
 20
33.0978689582
 10
-19.512795609
 20
33.0948666332
 10
-19.5010346971
 20
33.0923140855
 10
-19.489149254
 20
33.0901994105
 10
-19.4771727537
 20
33.0885345128
 10
-19.4650385806
 20
33.0873219044
 10
-19.4527245293
 20
33.0865624226
 10
-19.4402528052
 20
33.08625523
 10
-19.4276234082
 20
33.0864003267
  0
LINE
  5
470
100
AcDbEntity
  8
SUPERFICI
100
AcDbLine
 62
7
  6
CONTINUOUS
 10
-25.3251794082
 20
4.013536102
 11
-24.0755194082
 21
4.466285102
  0
LINE
  5
471
100
AcDbEntity
  8
ASSI
100
AcDbLine
 62
7
  6
CONTINUOUS
 10
-25.3251794082
 20
4.013536102
 11
-24.0755194082
 21
4.466285102
  0
LINE
  5
472
100
AcDbEntity
  8
IGES_SCRITTE
100
AcDbLine
 62
7
  6
CONTINUOUS
 10
-24.0755194082
 20
4.466285102
 11
-25.3251794082
 21
4.013536102
  0
LINE
  5
473
100
AcDbEntity
  8
SUPERFICI
100
AcDbLine
 62
7
  6
CONTINUOUS
 10
-21.7308924082
 20
4.337375102
 11
-20.4802214082
 21
4.790124102
  0
LINE
  5
474
100
AcDbEntity
  8
ASSI
100
AcDbLine
 62
7
  6
CONTINUOUS
 10
-21.7308924082
 20
4.337375102
 11
-20.4802214082
 21
4.790124102
  0
LINE
  5
475
100
AcDbEntity
  8
IGES_SCRITTE
100
AcDbLine
 62
7
  6
CONTINUOUS
 10
-20.4802214082
 20
4.790124102
 11
-21.7308924082
 21
4.337375102
  0
LINE
  5
476
100
AcDbEntity
  8
IGES_SCRITTE
100
AcDbLine
 62
7
  6
CONTINUOUS
 10
-24.4394984082
 20
4.158116102
 11
-24.0755194082
 21
4.281768102
  0
LINE
  5
477
100
AcDbEntity
  8
SUPERFICI
100
AcDbLine
 62
7
  6
CONTINUOUS
 10
-24.0755194082
 20
4.281768102
 11
-24.4394984082
 21
4.158116102
  0
LINE
  5
478
100
AcDbEntity
  8
ASSI
100
AcDbLine
 62
7
  6
CONTINUOUS
 10
-24.0755194082
 20
4.281768102
 11
-24.4394984082
 21
4.158116102
  0
LINE
  5
479
100
AcDbEntity
  8
IGES_SCRITTE
100
AcDbLine
 62
7
  6
CONTINUOUS
 10
-25.1440594082
 20
3.910883102
 11
-24.5891334082
 21
4.097150102
  0
LINE
  5
47A
100
AcDbEntity
  8
SUPERFICI
100
AcDbLine
 62
7
  6
CONTINUOUS
 10
-24.5891334082
 20
4.097150102
 11
-25.1440594082
 21
3.910883102
  0
LINE
  5
47B
100
AcDbEntity
  8
ASSI
100
AcDbLine
 62
7
  6
CONTINUOUS
 10
-24.5891334082
 20
4.097150102
 11
-25.1440594082
 21
3.910883102
  0
LWPOLYLINE
  5
47C
100
AcDbEntity
  8
0
100
AcDbPolyline
 62
7
  6
CONTINUOUS
 90
34
 70
0
 10
-19.9369866263
 20
32.9278393878
 10
-19.9523789014
 20
32.9255649772
 10
-19.9670996531
 20
32.9228226065
 10
-19.9812909469
 20
32.9196779681
 10
-19.9949621619
 20
32.9161427243
 10
-20.0081039189
 20
32.9122052128
 10
-20.0208301466
 20
32.907896139
 10
-20.033151995
 20
32.9032235223
 10
-20.045058314
 20
32.8981793432
 10
-20.056629582
 20
32.8927702487
 10
-20.0678725496
 20
32.8870033936
 10
-20.0787804662
 20
32.880871623
 10
-20.0894135593
 20
32.8743601188
 10
-20.0998147395
 20
32.8674430021
 10
-20.1099410963
 20
32.8601461518
 10
-20.1197241252
 20
32.8525323865
 10
-20.1291487257
 20
32.8446118795
 10
-20.1382299984
 20
32.8363744576
 10
-20.1469447407
 20
32.8278524199
 10
-20.1552682459
 20
32.8190766566
 10
-20.1632252208
 20
32.8100162775
 10
-20.1708665834
 20
32.8006109112
 10
-20.1782061058
 20
32.7908596236
 10
-20.185230016
 20
32.7807633488
 10
-20.1919479149
 20
32.770264517
 10
-20.1983590462
 20
32.759386667
 10
-20.2044641663
 20
32.74810626
 10
-20.2102751454
 20
32.7362951106
 10
-20.2158098114
 20
32.7239405716
 10
-20.2210503364
 20
32.7110552902
 10
-20.2259551073
 20
32.6975490227
 10
-20.230510253
 20
32.6833916879
 10
-20.2347296445
 20
32.6686133669
 10
-20.2386132819
 20
32.6532140599
  0
LWPOLYLINE
  5
47D
100
AcDbEntity
  8
ASSI
100
AcDbPolyline
 62
7
  6
CONTINUOUS
 90
34
 70
0
 10
-19.9369866263
 20
32.9278393878
 10
-19.9523789014
 20
32.9255649772
 10
-19.9670996531
 20
32.9228226065
 10
-19.9812909469
 20
32.9196779681
 10
-19.9949621619
 20
32.9161427243
 10
-20.0081039189
 20
32.9122052128
 10
-20.0208301466
 20
32.907896139
 10
-20.033151995
 20
32.9032235223
 10
-20.045058314
 20
32.8981793432
 10
-20.056629582
 20
32.8927702487
 10
-20.0678725496
 20
32.8870033936
 10
-20.0787804662
 20
32.880871623
 10
-20.0894135593
 20
32.8743601188
 10
-20.0998147395
 20
32.8674430021
 10
-20.1099410963
 20
32.8601461518
 10
-20.1197241252
 20
32.8525323865
 10
-20.1291487257
 20
32.8446118795
 10
-20.1382299984
 20
32.8363744576
 10
-20.1469447407
 20
32.8278524199
 10
-20.1552682459
 20
32.8190766566
 10
-20.1632252208
 20
32.8100162775
 10
-20.1708665834
 20
32.8006109112
 10
-20.1782061058
 20
32.7908596236
 10
-20.185230016
 20
32.7807633488
 10
-20.1919479149
 20
32.770264517
 10
-20.1983590462
 20
32.759386667
 10
-20.2044641663
 20
32.74810626
 10
-20.2102751454
 20
32.7362951106
 10
-20.2158098114
 20
32.7239405716
 10
-20.2210503364
 20
32.7110552902
 10
-20.2259551073
 20
32.6975490227
 10
-20.230510253
 20
32.6833916879
 10
-20.2347296445
 20
32.6686133669
 10
-20.2386132819
 20
32.6532140599
  0
LWPOLYLINE
  5
47E
100
AcDbEntity
  8
ASSI
100
AcDbPolyline
 62
7
  6
CONTINUOUS
 90
64
 70
0
 10
-20.5586302708
 20
34.0709234963
 10
-20.5739947409
 20
34.0691474429
 10
-20.5887594679
 20
34.0668926978
 10
-20.6030958753
 20
34.0641537032
 10
-20.6170974184
 20
34.0609649252
 10
-20.6307685038
 20
34.0573364434
 10
-20.644104725
 20
34.0532581784
 10
-20.6571863178
 20
34.0487343584
 10
-20.6700191382
 20
34.0437737614
 10
-20.6825973303
 20
34.0383676095
 10
-20.6949835624
 20
34.0324937974
 10
-20.7071796888
 20
34.026162666
 10
-20.7191838553
 20
34.0193638744
 10
-20.7310531672
 20
34.012044295
 10
-20.7427957874
 20
34.0042111909
 10
-20.754403553
 20
33.9958572989
 10
-20.7659090807
 20
33.9869077023
 10
-20.7774488936
 20
33.9772229041
 10
-20.7888864687
 20
33.9669424012
 10
-20.799844853
 20
33.9564097668
 10
-20.8102048803
 20
33.945729161
 10
-20.8200857168
 20
33.9347964238
 10
-20.8294679083
 20
33.9236426488
 10
-20.8383082603
 20
33.912323553
 10
-20.8466499672
 20
33.9007834194
 10
-20.8546031591
 20
33.8888861905
 10
-20.8622014708
 20
33.8766104984
 10
-20.8694112674
 20
33.8639777109
 10
-20.8762417735
 20
33.850915874
 10
-20.8826990254
 20
33.8374366652
 10
-20.8887769868
 20
33.8235284069
 10
-20.8944667736
 20
33.8090841124
 10
-20.8997790359
 20
33.7941109154
 10
-20.9047031237
 20
33.7786016822
 10
-20.909198202
 20
33.7624280244
 10
-20.9132752552
 20
33.7456046571
 10
-20.9169232989
 20
33.7281168653
 10
-20.9200685458
 20
33.7097921153
 10
-20.9227251377
 20
33.6906149755
 10
-20.9248789328
 20
33.6706008774
 10
-20.926413718
 20
33.6496235825
 10
-20.9273034879
 20
33.627175763
 10
-20.9275742481
 20
33.6037647466
 10
-20.9271878015
 20
33.5807862789
 10
-20.9260918642
 20
33.5585323207
 10
-20.9243387201
 20
33.5367109111
 10
-20.9220470248
 20
33.5158419125
 10
-20.9192258206
 20
33.4961633178
 10
-20.9158660652
 20
33.4774371342
 10
-20.9120592867
 20
33.459469245
 10
-20.9078183767
 20
33.4422455321
 10
-20.9031304437
 20
33.4257801137
 10
-20.898048341
 20
33.4099212276
 10
-20.8925824201
 20
33.3946576014
 10
-20.8867223296
 20
33.3800005076
 10
-20.8804898683
 20
33.3658320016
 10
-20.8738939161
 20
33.3521433026
 10
-20.8669255931
 20
33.3389431914
 10
-20.8595800592
 20
33.326140066
 10
-20.8518501611
 20
33.3137093798
 10
-20.843743052
 20
33.3016756794
 10
-20.8352753512
 20
33.2900210031
 10
-20.8264274724
 20
33.2787178892
 10
-20.817219002
 20
33.2677937993
  0
LINE
  5
47F
100
AcDbEntity
  8
ASSI
100
AcDbLine
 62
7
  6
CONTINUOUS
 10
-26.5527834082
 20
33.524700102
 11
-24.9027084082
 21
33.524700102
  0
LINE
  5
480
100
AcDbEntity
  8
ASSI
100
AcDbLine
 62
7
  6
CONTINUOUS
 10
-25.8459844082
 20
33.850167102
 11
-26.2475204082
 21
33.850163102
  0
LINE
  5
481
100
AcDbEntity
  8
0
100
AcDbLine
 62
7
  6
CONTINUOUS
 10
-19.4276234082
 20
34.075274102
 11
-19.6028674082
 21
34.075274102
  0
LINE
  5
482
100
AcDbEntity
  8
ASSI
100
AcDbLine
 62
7
  6
CONTINUOUS
 10
-19.4276234082
 20
34.075274102
 11
-19.6028674082
 21
34.075274102
  0
LINE
  5
483
100
AcDbEntity
  8
ASSI
100
AcDbLine
 62
7
  6
CONTINUOUS
 10
-24.9027084082
 20
33.854717102
 11
-25.5407224082
 21
33.854754102
  0
LWPOLYLINE
  5
484
100
AcDbEntity
  8
0
100
AcDbPolyline
 62
7
  6
CONTINUOUS
 90
82
 70
0
 10
-20.4769974166
 20
33.3096270172
 10
-20.4929936608
 20
33.3100632394
 10
-20.508280036
 20
33.3109346953
 10
-20.5228565424
 20
33.3122413849
 10
-20.5366729759
 20
33.3140089427
 10
-20.5497795404
 20
33.3162117342
 10
-20.5623268486
 20
33.3187728562
 10
-20.5743386154
 20
33.321686107
 10
-20.5857911257
 20
33.3249576883
 10
-20.5967638472
 20
33.3285293015
 10
-20.6072424039
 20
33.3323837483
 10
-20.6172411717
 20
33.3365382271
 10
-20.6268827457
 20
33.3409860353
 10
-20.6361835517
 20
33.3457217402
 10
-20.6451271639
 20
33.3507507745
 10
-20.6537869004
 20
33.356082734
 10
-20.6621680466
 20
33.3617073553
 10
-20.6702653171
 20
33.3676349018
 10
-20.6781361741
 20
33.3739057601
 10
-20.6858111086
 20
33.3805431573
 10
-20.6932596296
 20
33.3875238663
 10
-20.7004477258
 20
33.3948185917
 10
-20.7073944197
 20
33.4024500388
 10
-20.7140806888
 20
33.4103955024
 10
-20.7204154549
 20
33.4185575715
 10
-20.7263596694
 20
33.4268883456
 10
-20.731952381
 20
33.4354357252
 10
-20.7372196572
 20
33.4442460011
 10
-20.7421677208
 20
33.4533108588
 10
-20.7467903491
 20
33.4626386127
 10
-20.751094941
 20
33.472300497
 10
-20.7550902058
 20
33.4822892118
 10
-20.7587674342
 20
33.4926120568
 10
-20.7621078977
 20
33.5033621661
 10
-20.7651217469
 20
33.5145301405
 10
-20.7677988312
 20
33.5261253791
 10
-20.7700899695
 20
33.538269213
 10
-20.7720059448
 20
33.551037624
 10
-20.7735359742
 20
33.5643546304
 10
-20.7745985282
 20
33.5781136181
 10
-20.7751673088
 20
33.5925989653
 10
-20.7752686141
 20
33.6075262937
 10
-20.774899809
 20
33.6219358547
 10
-20.774033559
 20
33.6355090878
 10
-20.7726971987
 20
33.6485645535
 10
-20.7709700969
 20
33.6610981846
 10
-20.7688627591
 20
33.6730694047
 10
-20.7663646798
 20
33.6845187902
 10
-20.7635237122
 20
33.6955640023
 10
-20.7603495641
 20
33.7062152392
 10
-20.7568325276
 20
33.7164623028
 10
-20.7529913316
 20
33.7263922596
 10
-20.7488359341
 20
33.7360096022
 10
-20.7443563769
 20
33.745309838
 10
-20.7395415149
 20
33.7543665562
 10
-20.734399203
 20
33.7631873616
 10
-20.7289215862
 20
33.7717646492
 10
-20.7230739537
 20
33.7801491941
 10
-20.7168594412
 20
33.788348159
 10
-20.7102749129
 20
33.7963543811
 10
-20.7032762512
 20
33.8041971464
 10
-20.6957428777
 20
33.8119855969
 10
-20.6877953707
 20
33.8196105907
 10
-20.6797513479
 20
33.8267739883
 10
-20.6717153123
 20
33.8333632592
 10
-20.6635827608
 20
33.8394909339
 10
-20.655357802
 20
33.8451964639
 10
-20.6470560262
 20
33.8504769851
 10
-20.6386618432
 20
33.8553353615
 10
-20.6301325898
 20
33.8598196368
 10
-20.6214726776
 20
33.8639384118
 10
-20.6126776951
 20
33.8676830857
 10
-20.6036917447
 20
33.8710759001
 10
-20.5945186225
 20
33.8741261737
 10
-20.5851545324
 20
33.8768245878
 10
-20.5755321885
 20
33.8791654275
 10
-20.5656224412
 20
33.8811578155
 10
-20.55545444
 20
33.8827926292
 10
-20.545048348
 20
33.8840367849
 10
-20.5342883055
 20
33.8848893649
 10
-20.523290172
 20
33.885351287
 10
-20.5124216892
 20
33.8853922216
  0
LWPOLYLINE
  5
485
100
AcDbEntity
  8
ASSI
100
AcDbPolyline
 62
7
  6
CONTINUOUS
 90
82
 70
0
 10
-20.4769974166
 20
33.3096270172
 10
-20.4929936608
 20
33.3100632394
 10
-20.508280036
 20
33.3109346953
 10
-20.5228565424
 20
33.3122413849
 10
-20.5366729759
 20
33.3140089427
 10
-20.5497795404
 20
33.3162117342
 10
-20.5623268486
 20
33.3187728562
 10
-20.5743386154
 20
33.321686107
 10
-20.5857911257
 20
33.3249576883
 10
-20.5967638472
 20
33.3285293015
 10
-20.6072424039
 20
33.3323837483
 10
-20.6172411717
 20
33.3365382271
 10
-20.6268827457
 20
33.3409860353
 10
-20.6361835517
 20
33.3457217402
 10
-20.6451271639
 20
33.3507507745
 10
-20.6537869004
 20
33.356082734
 10
-20.6621680466
 20
33.3617073553
 10
-20.6702653171
 20
33.3676349018
 10
-20.6781361741
 20
33.3739057601
 10
-20.6858111086
 20
33.3805431573
 10
-20.6932596296
 20
33.3875238663
 10
-20.7004477258
 20
33.3948185917
 10
-20.7073944197
 20
33.4024500388
 10
-20.7140806888
 20
33.4103955024
 10
-20.7204154549
 20
33.4185575715
 10
-20.7263596694
 20
33.4268883456
 10
-20.731952381
 20
33.4354357252
 10
-20.7372196572
 20
33.4442460011
 10
-20.7421677208
 20
33.4533108588
 10
-20.7467903491
 20
33.4626386127
 10
-20.751094941
 20
33.472300497
 10
-20.7550902058
 20
33.4822892118
 10
-20.7587674342
 20
33.4926120568
 10
-20.7621078977
 20
33.5033621661
 10
-20.7651217469
 20
33.5145301405
 10
-20.7677988312
 20
33.5261253791
 10
-20.7700899695
 20
33.538269213
 10
-20.7720059448
 20
33.551037624
 10
-20.7735359742
 20
33.5643546304
 10
-20.7745985282
 20
33.5781136181
 10
-20.7751673088
 20
33.5925989653
 10
-20.7752686141
 20
33.6075262937
 10
-20.774899809
 20
33.6219358547
 10
-20.774033559
 20
33.6355090878
 10
-20.7726971987
 20
33.6485645535
 10
-20.7709700969
 20
33.6610981846
 10
-20.7688627591
 20
33.6730694047
 10
-20.7663646798
 20
33.6845187902
 10
-20.7635237122
 20
33.6955640023
 10
-20.7603495641
 20
33.7062152392
 10
-20.7568325276
 20
33.7164623028
 10
-20.7529913316
 20
33.7263922596
 10
-20.7488359341
 20
33.7360096022
 10
-20.7443563769
 20
33.745309838
 10
-20.7395415149
 20
33.7543665562
 10
-20.734399203
 20
33.7631873616
 10
-20.7289215862
 20
33.7717646492
 10
-20.7230739537
 20
33.7801491941
 10
-20.7168594412
 20
33.788348159
 10
-20.7102749129
 20
33.7963543811
 10
-20.7032762512
 20
33.8041971464
 10
-20.6957428777
 20
33.8119855969
 10
-20.6877953707
 20
33.8196105907
 10
-20.6797513479
 20
33.8267739883
 10
-20.6717153123
 20
33.8333632592
 10
-20.6635827608
 20
33.8394909339
 10
-20.655357802
 20
33.8451964639
 10
-20.6470560262
 20
33.8504769851
 10
-20.6386618432
 20
33.8553353615
 10
-20.6301325898
 20
33.8598196368
 10
-20.6214726776
 20
33.8639384118
 10
-20.6126776951
 20
33.8676830857
 10
-20.6036917447
 20
33.8710759001
 10
-20.5945186225
 20
33.8741261737
 10
-20.5851545324
 20
33.8768245878
 10
-20.5755321885
 20
33.8791654275
 10
-20.5656224412
 20
33.8811578155
 10
-20.55545444
 20
33.8827926292
 10
-20.545048348
 20
33.8840367849
 10
-20.5342883055
 20
33.8848893649
 10
-20.523290172
 20
33.885351287
 10
-20.5124216892
 20
33.8853922216
  0
LWPOLYLINE
  5
486
100
AcDbEntity
  8
0
100
AcDbPolyline
 62
7
  6
CONTINUOUS
 90
32
 70
0
 10
-20.5124216892
 20
33.8853922216
 10
-20.5019126388
 20
33.8850150704
 10
-20.4915332391
 20
33.8842169317
 10
-20.4809618854
 20
33.882958771
 10
-20.4701254453
 20
33.8812559091
 10
-20.4590970512
 20
33.8790930253
 10
-20.447774497
 20
33.8763851231
 10
-20.4361535185
 20
33.8731463655
 10
-20.4242383799
 20
33.8693625894
 10
-20.4119396669
 20
33.8649063098
 10
-20.3992386089
 20
33.8597804364
 10
-20.3861539765
 20
33.8539820593
 10
-20.3726526676
 20
33.8473749643
 10
-20.3587102915
 20
33.8399470155
 10
-20.344351239
 20
33.8317103488
 10
-20.3296155801
 20
33.8225651569
 10
-20.314472517
 20
33.812481315
 10
-20.2989528476
 20
33.8014889479
 10
-20.2831890355
 20
33.7895786236
 10
-20.2672768404
 20
33.7767658821
 10
-20.2511205026
 20
33.7630351834
 10
-20.2345652062
 20
33.7483304755
 10
-20.2175751274
 20
33.7326295913
 10
-20.2001860899
 20
33.7159546979
 10
-20.1823507497
 20
33.6983162445
 10
-20.1640933965
 20
33.6797531649
 10
-20.1453897404
 20
33.6602265253
 10
-20.1261195682
 20
33.6396299731
 10
-20.106300882
 20
33.6179971657
 10
-20.0859156796
 20
33.5952944456
 10
-20.0647897408
 20
33.5713144881
 10
-20.0426147001
 20
33.5456205313
  0
LWPOLYLINE
  5
487
100
AcDbEntity
  8
ASSI
100
AcDbPolyline
 62
7
  6
CONTINUOUS
 90
32
 70
0
 10
-20.5124216892
 20
33.8853922216
 10
-20.5019126388
 20
33.8850150704
 10
-20.4915332391
 20
33.8842169317
 10
-20.4809618854
 20
33.882958771
 10
-20.4701254453
 20
33.8812559091
 10
-20.4590970512
 20
33.8790930253
 10
-20.447774497
 20
33.8763851231
 10
-20.4361535185
 20
33.8731463655
 10
-20.4242383799
 20
33.8693625894
 10
-20.4119396669
 20
33.8649063098
 10
-20.3992386089
 20
33.8597804364
 10
-20.3861539765
 20
33.8539820593
 10
-20.3726526676
 20
33.8473749643
 10
-20.3587102915
 20
33.8399470155
 10
-20.344351239
 20
33.8317103488
 10
-20.3296155801
 20
33.8225651569
 10
-20.314472517
 20
33.812481315
 10
-20.2989528476
 20
33.8014889479
 10
-20.2831890355
 20
33.7895786236
 10
-20.2672768404
 20
33.7767658821
 10
-20.2511205026
 20
33.7630351834
 10
-20.2345652062
 20
33.7483304755
 10
-20.2175751274
 20
33.7326295913
 10
-20.2001860899
 20
33.7159546979
 10
-20.1823507497
 20
33.6983162445
 10
-20.1640933965
 20
33.6797531649
 10
-20.1453897404
 20
33.6602265253
 10
-20.1261195682
 20
33.6396299731
 10
-20.106300882
 20
33.6179971657
 10
-20.0859156796
 20
33.5952944456
 10
-20.0647897408
 20
33.5713144881
 10
-20.0426147001
 20
33.5456205313
  0
LINE
  5
488
100
AcDbEntity
  8
0
100
AcDbLine
 62
7
  6
CONTINUOUS
 10
-20.2975818921
 20
32.3360741635
 11
-20.1369420124
 21
32.3156680518
  0
LINE
  5
489
100
AcDbEntity
  8
ASSI
100
AcDbLine
 62
7
  6
CONTINUOUS
 10
-20.2975818921
 20
32.3360741635
 11
-20.1369420124
 21
32.3156680518
  0
LWPOLYLINE
  5
48A
100
AcDbEntity
  8
0
100
AcDbPolyline
 62
7
  6
CONTINUOUS
 90
80
 70
0
 10
-20.5062053474
 20
32.155941436
 10
-20.5241750889
 20
32.1589696892
 10
-20.5412507882
 20
32.1623388534
 10
-20.5574324453
 20
32.1660489286
 10
-20.572693812
 20
32.1701315241
 10
-20.5870611365
 20
32.1745550305
 10
-20.6006131635
 20
32.1792246199
 10
-20.6133359464
 20
32.1841321174
 10
-20.6252434319
 20
32.1892856979
 10
-20.6364562041
 20
32.194615058
 10
-20.6469585008
 20
32.2000979558
 10
-20.6567660843
 20
32.2057566331
 10
-20.6660468257
 20
32.211587512
 10
-20.6748115581
 20
32.2175755836
 10
-20.6830494484
 20
32.2237358568
 10
-20.6908958686
 20
32.2301097798
 10
-20.6983448975
 20
32.2366693851
 10
-20.7054024564
 20
32.2434426403
 10
-20.7122216816
 20
32.2505548965
 10
-20.7189069264
 20
32.2581132397
 10
-20.7253538375
 20
32.266010584
 10
-20.7314024904
 20
32.2740510221
 10
-20.7369860816
 20
32.2821542334
 10
-20.7421714147
 20
32.2904005386
 10
-20.7469989768
 20
32.2988349935
 10
-20.7514781681
 20
32.3074579805
 10
-20.7555995884
 20
32.3162691172
 10
-20.7593755245
 20
32.3253123113
 10
-20.7628113643
 20
32.3345710902
 10
-20.7659017199
 20
32.3440619265
 10
-20.7686427136
 20
32.3538781455
 10
-20.7710470367
 20
32.3640192411
 10
-20.7731019981
 20
32.3744857195
 10
-20.7747656461
 20
32.3853724245
 10
-20.7760431065
 20
32.3967790076
 10
-20.7769292535
 20
32.4086058174
 10
-20.7773667591
 20
32.420648744
 10
-20.7773232361
 20
32.433073236
 10
-20.7768310716
 20
32.4457138449
 10
-20.775930099
 20
32.4578701153
 10
-20.7746131459
 20
32.4692829685
 10
-20.7728873848
 20
32.4802114832
 10
-20.7708141658
 20
32.4907324401
 10
-20.7684048694
 20
32.5008396065
 10
-20.7656481151
 20
32.510539215
 10
-20.7625711125
 20
32.5199267448
 10
-20.7591833823
 20
32.5290098841
 10
-20.7554754038
 20
32.5377809446
 10
-20.7514458243
 20
32.5463123409
 10
-20.7471031426
 20
32.5546102934
 10
-20.7424388601
 20
32.5626685818
 10
-20.7374261274
 20
32.5705409592
 10
-20.7320676595
 20
32.5782381744
 10
-20.7263607415
 20
32.5857494787
 10
-20.7202703801
 20
32.5930963798
 10
-20.7137084866
 20
32.6003618365
 10
-20.7067631497
 20
32.6074628899
 10
-20.6996636423
 20
32.614172171
 10
-20.6924752346
 20
32.620412852
 10
-20.6851326565
 20
32.6262617606
 10
-20.6776693701
 20
32.6317220114
 10
-20.6701119171
 20
32.6367797207
 10
-20.6624337558
 20
32.6414487721
 10
-20.6545887242
 20
32.6457739303
 10
-20.6465812245
 20
32.6497646259
 10
-20.6384068543
 20
32.6534114282
 10
-20.6300062446
 20
32.6567308103
 10
-20.6213850004
 20
32.6597321386
 10
-20.6125375165
 20
32.6624060466
 10
-20.6033876078
 20
32.6647409076
 10
-20.5939432531
 20
32.6667470913
 10
-20.5841964736
 20
32.668414228
 10
-20.5740471473
 20
32.6696995818
 10
-20.563387876
 20
32.6706024392
 10
-20.5523260579
 20
32.6711235138
 10
-20.5410837664
 20
32.6712222102
 10
-20.5295037963
 20
32.6708669683
 10
-20.5177433527
 20
32.6700893482
 10
-20.5064961242
 20
32.6689434353
 10
-20.4960203887
 20
32.6674258444
  0
LWPOLYLINE
  5
48B
100
AcDbEntity
  8
ASSI
100
AcDbPolyline
 62
7
  6
CONTINUOUS
 90
80
 70
0
 10
-20.5062053474
 20
32.155941436
 10
-20.5241750889
 20
32.1589696892
 10
-20.5412507882
 20
32.1623388534
 10
-20.5574324453
 20
32.1660489286
 10
-20.572693812
 20
32.1701315241
 10
-20.5870611365
 20
32.1745550305
 10
-20.6006131635
 20
32.1792246199
 10
-20.6133359464
 20
32.1841321174
 10
-20.6252434319
 20
32.1892856979
 10
-20.6364562041
 20
32.194615058
 10
-20.6469585008
 20
32.2000979558
 10
-20.6567660843
 20
32.2057566331
 10
-20.6660468257
 20
32.211587512
 10
-20.6748115581
 20
32.2175755836
 10
-20.6830494484
 20
32.2237358568
 10
-20.6908958686
 20
32.2301097798
 10
-20.6983448975
 20
32.2366693851
 10
-20.7054024564
 20
32.2434426403
 10
-20.7122216816
 20
32.2505548965
 10
-20.7189069264
 20
32.2581132397
 10
-20.7253538375
 20
32.266010584
 10
-20.7314024904
 20
32.2740510221
 10
-20.7369860816
 20
32.2821542334
 10
-20.7421714147
 20
32.2904005386
 10
-20.7469989768
 20
32.2988349935
 10
-20.7514781681
 20
32.3074579805
 10
-20.7555995884
 20
32.3162691172
 10
-20.7593755245
 20
32.3253123113
 10
-20.7628113643
 20
32.3345710902
 10
-20.7659017199
 20
32.3440619265
 10
-20.7686427136
 20
32.3538781455
 10
-20.7710470367
 20
32.3640192411
 10
-20.7731019981
 20
32.3744857195
 10
-20.7747656461
 20
32.3853724245
 10
-20.7760431065
 20
32.3967790076
 10
-20.7769292535
 20
32.4086058174
 10
-20.7773667591
 20
32.420648744
 10
-20.7773232361
 20
32.433073236
 10
-20.7768310716
 20
32.4457138449
 10
-20.775930099
 20
32.4578701153
 10
-20.7746131459
 20
32.4692829685
 10
-20.7728873848
 20
32.4802114832
 10
-20.7708141658
 20
32.4907324401
 10
-20.7684048694
 20
32.5008396065
 10
-20.7656481151
 20
32.510539215
 10
-20.7625711125
 20
32.5199267448
 10
-20.7591833823
 20
32.5290098841
 10
-20.7554754038
 20
32.5377809446
 10
-20.7514458243
 20
32.5463123409
 10
-20.7471031426
 20
32.5546102934
 10
-20.7424388601
 20
32.5626685818
 10
-20.7374261274
 20
32.5705409592
 10
-20.7320676595
 20
32.5782381744
 10
-20.7263607415
 20
32.5857494787
 10
-20.7202703801
 20
32.5930963798
 10
-20.7137084866
 20
32.6003618365
 10
-20.7067631497
 20
32.6074628899
 10
-20.6996636423
 20
32.614172171
 10
-20.6924752346
 20
32.620412852
 10
-20.6851326565
 20
32.6262617606
 10
-20.6776693701
 20
32.6317220114
 10
-20.6701119171
 20
32.6367797207
 10
-20.6624337558
 20
32.6414487721
 10
-20.6545887242
 20
32.6457739303
 10
-20.6465812245
 20
32.6497646259
 10
-20.6384068543
 20
32.6534114282
 10
-20.6300062446
 20
32.6567308103
 10
-20.6213850004
 20
32.6597321386
 10
-20.6125375165
 20
32.6624060466
 10
-20.6033876078
 20
32.6647409076
 10
-20.5939432531
 20
32.6667470913
 10
-20.5841964736
 20
32.668414228
 10
-20.5740471473
 20
32.6696995818
 10
-20.563387876
 20
32.6706024392
 10
-20.5523260579
 20
32.6711235138
 10
-20.5410837664
 20
32.6712222102
 10
-20.5295037963
 20
32.6708669683
 10
-20.5177433527
 20
32.6700893482
 10
-20.5064961242
 20
32.6689434353
 10
-20.4960203887
 20
32.6674258444
  0
LWPOLYLINE
  5
48C
100
AcDbEntity
  8
0
100
AcDbPolyline
 62
7
  6
CONTINUOUS
 90
42
 70
0
 10
-20.4960203887
 20
32.6674258444
 10
-20.4860578683
 20
32.6655399607
 10
-20.4765274178
 20
32.6633500244
 10
-20.4674367186
 20
32.6608683287
 10
-20.4587780893
 20
32.6580825805
 10
-20.4504473408
 20
32.6550201398
 10
-20.4424343711
 20
32.6516901113
 10
-20.4347492822
 20
32.6480833904
 10
-20.4273181903
 20
32.6442000241
 10
-20.4201341978
 20
32.6400482381
 10
-20.4132042024
 20
32.6356198067
 10
-20.4064750127
 20
32.6308901002
 10
-20.3999408826
 20
32.6258675238
 10
-20.3936075583
 20
32.6205436722
 10
-20.3874390876
 20
32.6148687009
 10
-20.3814323308
 20
32.6088542808
 10
-20.3755904275
 20
32.6024887408
 10
-20.3698868454
 20
32.5956872236
 10
-20.364343978
 20
32.5884501869
 10
-20.3589394317
 20
32.5807771729
 10
-20.353579493
 20
32.5725819511
 10
-20.3482226592
 20
32.5638684749
 10
-20.3429104331
 20
32.5546327909
 10
-20.3376736089
 20
32.5447768084
 10
-20.3324617205
 20
32.5342526361
 10
-20.3273252341
 20
32.5231081652
 10
-20.3224463429
 20
32.5113889793
 10
-20.3178139877
 20
32.4989621291
 10
-20.3134392278
 20
32.4859605638
 10
-20.3095374343
 20
32.4728287147
 10
-20.3061728292
 20
32.4595252886
 10
-20.3032811906
 20
32.4460915789
 10
-20.3008852242
 20
32.4330958964
 10
-20.2990444656
 20
32.4207185657
 10
-20.2976993793
 20
32.4087792623
 10
-20.2966940641
 20
32.3973053242
 10
-20.2959729853
 20
32.3863878966
 10
-20.2955916777
 20
32.3759358343
 10
-20.2955608443
 20
32.3657030397
 10
-20.2958840527
 20
32.35560748
 10
-20.2965577354
 20
32.345731188
 10
-20.2975818921
 20
32.3360741635
  0
LWPOLYLINE
  5
48D
100
AcDbEntity
  8
ASSI
100
AcDbPolyline
 62
7
  6
CONTINUOUS
 90
42
 70
0
 10
-20.4960203887
 20
32.6674258444
 10
-20.4860578683
 20
32.6655399607
 10
-20.4765274178
 20
32.6633500244
 10
-20.4674367186
 20
32.6608683287
 10
-20.4587780893
 20
32.6580825805
 10
-20.4504473408
 20
32.6550201398
 10
-20.4424343711
 20
32.6516901113
 10
-20.4347492822
 20
32.6480833904
 10
-20.4273181903
 20
32.6442000241
 10
-20.4201341978
 20
32.6400482381
 10
-20.4132042024
 20
32.6356198067
 10
-20.4064750127
 20
32.6308901002
 10
-20.3999408826
 20
32.6258675238
 10
-20.3936075583
 20
32.6205436722
 10
-20.3874390876
 20
32.6148687009
 10
-20.3814323308
 20
32.6088542808
 10
-20.3755904275
 20
32.6024887408
 10
-20.3698868454
 20
32.5956872236
 10
-20.364343978
 20
32.5884501869
 10
-20.3589394317
 20
32.5807771729
 10
-20.353579493
 20
32.5725819511
 10
-20.3482226592
 20
32.5638684749
 10
-20.3429104331
 20
32.5546327909
 10
-20.3376736089
 20
32.5447768084
 10
-20.3324617205
 20
32.5342526361
 10
-20.3273252341
 20
32.5231081652
 10
-20.3224463429
 20
32.5113889793
 10
-20.3178139877
 20
32.4989621291
 10
-20.3134392278
 20
32.4859605638
 10
-20.3095374343
 20
32.4728287147
 10
-20.3061728292
 20
32.4595252886
 10
-20.3032811906
 20
32.4460915789
 10
-20.3008852242
 20
32.4330958964
 10
-20.2990444656
 20
32.4207185657
 10
-20.2976993793
 20
32.4087792623
 10
-20.2966940641
 20
32.3973053242
 10
-20.2959729853
 20
32.3863878966
 10
-20.2955916777
 20
32.3759358343
 10
-20.2955608443
 20
32.3657030397
 10
-20.2958840527
 20
32.35560748
 10
-20.2965577354
 20
32.345731188
 10
-20.2975818921
 20
32.3360741635
  0
LWPOLYLINE
  5
48E
100
AcDbEntity
  8
0
100
AcDbPolyline
 62
7
  6
CONTINUOUS
 90
14
 70
0
 10
-19.6028674082
 20
33.3418661196
 10
-19.6172618687
 20
33.3509729782
 10
-19.6319530851
 20
33.361080969
 10
-19.6469410573
 20
33.3721900918
 10
-19.6624759378
 20
33.3844990687
 10
-19.6783075742
 20
33.3978091776
 10
-19.6936855088
 20
33.4115242528
 10
-19.7081364334
 20
33.4253396106
 10
-19.7221336563
 20
33.4395599346
 10
-19.7363466441
 20
33.4545031101
 10
-19.7509126831
 20
33.470261537
 10
-19.7656944871
 20
33.4867428153
 10
-19.7809496647
 20
33.5039876299
 10
-19.7967169456
 20
33.5219737451
  0
LWPOLYLINE
  5
48F
100
AcDbEntity
  8
ASSI
100
AcDbPolyline
 62
7
  6
CONTINUOUS
 90
14
 70
0
 10
-19.6028674082
 20
33.3418661196
 10
-19.6172618687
 20
33.3509729782
 10
-19.6319530851
 20
33.361080969
 10
-19.6469410573
 20
33.3721900918
 10
-19.6624759378
 20
33.3844990687
 10
-19.6783075742
 20
33.3978091776
 10
-19.6936855088
 20
33.4115242528
 10
-19.7081364334
 20
33.4253396106
 10
-19.7221336563
 20
33.4395599346
 10
-19.7363466441
 20
33.4545031101
 10
-19.7509126831
 20
33.470261537
 10
-19.7656944871
 20
33.4867428153
 10
-19.7809496647
 20
33.5039876299
 10
-19.7967169456
 20
33.5219737451
  0
LINE
  5
490
100
AcDbEntity
  8
DRAFT
100
AcDbLine
 62
7
  6
CONTINUOUS
 10
-7.5027004082
 20
40.5267451944
 11
-7.5027004082
 21
39.411435102
  0
LINE
  5
491
100
AcDbEntity
  8
ASSI
100
AcDbLine
 62
7
  6
CONTINUOUS
 10
-7.5027004082
 20
40.5267451944
 11
-7.5027004082
 21
39.411435102
  0
LINE
  5
492
100
AcDbEntity
  8
DRAFT
100
AcDbLine
 62
7
  6
CONTINUOUS
 10
-7.5027004082
 20
-1.7038749903
 11
-7.5027004082
 21
-0.588564898
  0
LINE
  5
493
100
AcDbEntity
  8
ASSI
100
AcDbLine
 62
7
  6
CONTINUOUS
 10
-7.5027004082
 20
-1.7038749903
 11
-7.5027004082
 21
-0.588564898
  0
LINE
  5
494
100
AcDbEntity
  8
DRAFT
100
AcDbLine
 62
7
  6
CONTINUOUS
 10
-6.0527004082
 20
-1.7045301136
 11
-6.0527004082
 21
40.5274003177
  0
LINE
  5
495
100
AcDbEntity
  8
ASSI
100
AcDbLine
 62
7
  6
CONTINUOUS
 10
-6.0527004082
 20
-1.7045301136
 11
-6.0527004082
 21
40.5274003177
  0
LINE
  5
496
100
AcDbEntity
  8
0
100
AcDbLine
 62
7
  6
CONTINUOUS
 10
-2.9527004082
 20
36.6764864652
 11
-2.6027004082
 21
38.661435102
  0
LINE
  5
497
100
AcDbEntity
  8
ASSI
100
AcDbLine
 62
7
  6
CONTINUOUS
 10
-2.9527004082
 20
36.6764864652
 11
-2.6027004082
 21
38.661435102
  0
LINE
  5
498
100
AcDbEntity
  8
IGES_SCRITTE
100
AcDbLine
 62
7
  6
CONTINUOUS
 10
-20.8442004082
 20
4.481956102
 11
-20.4802214082
 21
4.605607102
  0
LINE
  5
499
100
AcDbEntity
  8
SUPERFICI
100
AcDbLine
 62
7
  6
CONTINUOUS
 10
-20.4802214082
 20
4.605607102
 11
-20.8442004082
 21
4.481956102
  0
LINE
  5
49A
100
AcDbEntity
  8
ASSI
100
AcDbLine
 62
7
  6
CONTINUOUS
 10
-20.4802214082
 20
4.605607102
 11
-20.8442004082
 21
4.481956102
  0
LINE
  5
49B
100
AcDbEntity
  8
SUPERFICI
100
AcDbLine
 62
7
  6
CONTINUOUS
 10
-25.3251794082
 20
2.246218102
 11
-24.2633804082
 21
2.604893102
  0
LINE
  5
49C
100
AcDbEntity
  8
IGES_SCRITTE
100
AcDbLine
 62
7
  6
CONTINUOUS
 10
-25.3251794082
 20
2.246218102
 11
-24.2633804082
 21
2.604893102
  0
LINE
  5
49D
100
AcDbEntity
  8
ASSI
100
AcDbLine
 62
7
  6
CONTINUOUS
 10
-25.3251794082
 20
2.246218102
 11
-24.2633804082
 21
2.604893102
  0
LINE
  5
49E
100
AcDbEntity
  8
SUPERFICI
100
AcDbLine
 62
7
  6
CONTINUOUS
 10
-24.0755194082
 20
2.519607102
 11
-25.1229684082
 21
2.167862102
  0
LINE
  5
49F
100
AcDbEntity
  8
IGES_SCRITTE
100
AcDbLine
 62
7
  6
CONTINUOUS
 10
-24.0755194082
 20
2.519607102
 11
-25.1229684082
 21
2.167862102
  0
LINE
  5
4A0
100
AcDbEntity
  8
ASSI
100
AcDbLine
 62
7
  6
CONTINUOUS
 10
-24.0755194082
 20
2.519607102
 11
-25.1229684082
 21
2.167862102
  0
LINE
  5
4A1
100
AcDbEntity
  8
IGES_SCRITTE
100
AcDbLine
 62
7
  6
CONTINUOUS
 10
-21.5487594082
 20
4.234723102
 11
-20.9938354082
 21
4.420989102
  0
LINE
  5
4A2
100
AcDbEntity
  8
SUPERFICI
100
AcDbLine
 62
7
  6
CONTINUOUS
 10
-20.9938354082
 20
4.420989102
 11
-21.5487594082
 21
4.234723102
  0
LINE
  5
4A3
100
AcDbEntity
  8
ASSI
100
AcDbLine
 62
7
  6
CONTINUOUS
 10
-20.9938354082
 20
4.420989102
 11
-21.5487594082
 21
4.234723102
  0
LINE
  5
4A4
100
AcDbEntity
  8
DRAFT
100
AcDbLine
 62
7
  6
CONTINUOUS
 10
-2.5867351925
 20
35.061435102
 11
-2.5780153225
 21
35.061435102
  0
LINE
  5
4A5
100
AcDbEntity
  8
ASSI
100
AcDbLine
 62
7
  6
CONTINUOUS
 10
-2.5867351925
 20
35.061435102
 11
-2.5780153225
 21
35.061435102
  0
LINE
  5
4A6
100
AcDbEntity
  8
DRAFT
100
AcDbLine
 62
7
  6
CONTINUOUS
 10
-43.2186656238
 20
35.061435102
 11
-43.2273854938
 21
35.061435102
  0
LINE
  5
4A7
100
AcDbEntity
  8
ASSI
100
AcDbLine
 62
7
  6
CONTINUOUS
 10
-43.2186656238
 20
35.061435102
 11
-43.2273854938
 21
35.061435102
  0
LINE
  5
4A8
100
AcDbEntity
  8
DRAFT
100
AcDbLine
 62
7
  6
CONTINUOUS
 10
-43.2527004082
 20
36.161435102
 11
-42.8527004082
 21
36.161435102
  0
LINE
  5
4A9
100
AcDbEntity
  8
ASSI
100
AcDbLine
 62
7
  6
CONTINUOUS
 10
-43.2527004082
 20
36.161435102
 11
-42.8527004082
 21
36.161435102
  0
LINE
  5
4AA
100
AcDbEntity
  8
DRAFT
100
AcDbLine
 62
7
  6
CONTINUOUS
 10
-2.9527004082
 20
36.161435102
 11
-2.5527004082
 21
36.161435102
  0
LINE
  5
4AB
100
AcDbEntity
  8
ASSI
100
AcDbLine
 62
7
  6
CONTINUOUS
 10
-2.9527004082
 20
36.161435102
 11
-2.5527004082
 21
36.161435102
  0
LINE
  5
4AC
100
AcDbEntity
  8
0
100
AcDbLine
 62
7
  6
CONTINUOUS
 10
-2.6027004082
 20
0.161435102
 11
-2.9527004082
 21
2.1463837389
  0
LINE
  5
4AD
100
AcDbEntity
  8
ASSI
100
AcDbLine
 62
7
  6
CONTINUOUS
 10
-2.6027004082
 20
0.161435102
 11
-2.9527004082
 21
2.1463837389
  0
LINE
  5
4AE
100
AcDbEntity
  8
0
100
AcDbLine
 62
7
  6
CONTINUOUS
 10
-2.9527004082
 20
2.1463837389
 11
-2.9527004082
 21
2.661435102
  0
LINE
  5
4AF
100
AcDbEntity
  8
ASSI
100
AcDbLine
 62
7
  6
CONTINUOUS
 10
-2.9527004082
 20
2.1463837389
 11
-2.9527004082
 21
2.661435102
  0
LINE
  5
4B0
100
AcDbEntity
  8
0
100
AcDbLine
 62
7
  6
CONTINUOUS
 10
-2.9527004082
 20
36.161435102
 11
-2.9527004082
 21
36.6764864652
  0
LINE
  5
4B1
100
AcDbEntity
  8
ASSI
100
AcDbLine
 62
7
  6
CONTINUOUS
 10
-2.9527004082
 20
36.161435102
 11
-2.9527004082
 21
36.6764864652
  0
LINE
  5
4B2
100
AcDbEntity
  8
DRAFT
100
AcDbLine
 62
7
  6
CONTINUOUS
 10
-2.5867351925
 20
3.761435102
 11
-2.5867351925
 21
35.061435102
  0
LINE
  5
4B3
100
AcDbEntity
  8
ASSI
100
AcDbLine
 62
7
  6
CONTINUOUS
 10
-2.5867351925
 20
3.761435102
 11
-2.5867351925
 21
35.061435102
  0
LINE
  5
4B4
100
AcDbEntity
  8
DRAFT
100
AcDbLine
 62
7
  6
CONTINUOUS
 10
-2.5780153225
 20
-1.7132499836
 11
-2.5780153225
 21
0.161435102
  0
LINE
  5
4B5
100
AcDbEntity
  8
ASSI
100
AcDbLine
 62
7
  6
CONTINUOUS
 10
-2.5780153225
 20
-1.7132499836
 11
-2.5780153225
 21
0.161435102
  0
LINE
  5
4B6
100
AcDbEntity
  8
DRAFT
100
AcDbLine
 62
7
  6
CONTINUOUS
 10
-2.5780153225
 20
2.661435102
 11
-2.5780153225
 21
3.761435102
  0
LINE
  5
4B7
100
AcDbEntity
  8
ASSI
100
AcDbLine
 62
7
  6
CONTINUOUS
 10
-2.5780153225
 20
2.661435102
 11
-2.5780153225
 21
3.761435102
  0
LINE
  5
4B8
100
AcDbEntity
  8
DRAFT
100
AcDbLine
 62
7
  6
CONTINUOUS
 10
-2.5780153225
 20
35.061435102
 11
-2.5780153225
 21
36.161435102
  0
LINE
  5
4B9
100
AcDbEntity
  8
ASSI
100
AcDbLine
 62
7
  6
CONTINUOUS
 10
-2.5780153225
 20
35.061435102
 11
-2.5780153225
 21
36.161435102
  0
LINE
  5
4BA
100
AcDbEntity
  8
DRAFT
100
AcDbLine
 62
7
  6
CONTINUOUS
 10
-2.5780153225
 20
38.661435102
 11
-2.5780153225
 21
40.5361201877
  0
LINE
  5
4BB
100
AcDbEntity
  8
ASSI
100
AcDbLine
 62
7
  6
CONTINUOUS
 10
-2.5780153225
 20
38.661435102
 11
-2.5780153225
 21
40.5361201877
  0
LINE
  5
4BC
100
AcDbEntity
  8
DRAFT
100
AcDbLine
 62
7
  6
CONTINUOUS
 10
-2.5527004082
 20
-1.738564898
 11
-2.5527004082
 21
40.561435102
  0
LINE
  5
4BD
100
AcDbEntity
  8
ASSI
100
AcDbLine
 62
7
  6
CONTINUOUS
 10
-2.5527004082
 20
-1.738564898
 11
-2.5527004082
 21
40.561435102
  0
LINE
  5
4BE
100
AcDbEntity
  8
DRAFT
100
AcDbLine
 62
7
  6
CONTINUOUS
 10
-43.2527004082
 20
38.661435102
 11
-43.2027004082
 21
38.661435102
  0
LINE
  5
4BF
100
AcDbEntity
  8
ASSI
100
AcDbLine
 62
7
  6
CONTINUOUS
 10
-43.2527004082
 20
38.661435102
 11
-43.2027004082
 21
38.661435102
  0
LINE
  5
4C0
100
AcDbEntity
  8
DRAFT
100
AcDbLine
 62
7
  6
CONTINUOUS
 10
-2.6027004082
 20
38.661435102
 11
-2.5527004082
 21
38.661435102
  0
LINE
  5
4C1
100
AcDbEntity
  8
ASSI
100
AcDbLine
 62
7
  6
CONTINUOUS
 10
-2.6027004082
 20
38.661435102
 11
-2.5527004082
 21
38.661435102
  0
LINE
  5
4C2
100
AcDbEntity
  8
0
100
AcDbLine
 62
7
  6
CONTINUOUS
 10
-38.3027004082
 20
39.411435102
 11
-33.3027004082
 21
39.411435102
  0
LINE
  5
4C3
100
AcDbEntity
  8
ASSI
100
AcDbLine
 62
7
  6
CONTINUOUS
 10
-38.3027004082
 20
39.411435102
 11
-33.3027004082
 21
39.411435102
  0
LINE
  5
4C4
100
AcDbEntity
  8
0
100
AcDbLine
 62
7
  6
CONTINUOUS
 10
-12.5027004082
 20
39.411435102
 11
-7.5027004082
 21
39.411435102
  0
LINE
  5
4C5
100
AcDbEntity
  8
ASSI
100
AcDbLine
 62
7
  6
CONTINUOUS
 10
-12.5027004082
 20
39.411435102
 11
-7.5027004082
 21
39.411435102
  0
LINE
  5
4C6
100
AcDbEntity
  8
RACCORDO
100
AcDbLine
 62
7
  6
CONTINUOUS
 10
-1.0527004082
 20
-1.9386867418
 11
-1.0527004082
 21
40.7615569459
  0
LINE
  5
4C7
100
AcDbEntity
  8
ASSI
100
AcDbLine
 62
7
  6
CONTINUOUS
 10
-1.0527004082
 20
-1.9386867418
 11
-1.0527004082
 21
40.7615569459
  0
LINE
  5
4C8
100
AcDbEntity
  8
DRAFT
100
AcDbLine
 62
7
  6
CONTINUOUS
 10
-6.0527004082
 20
40.5274003177
 11
-7.5027004082
 21
40.5267451944
  0
LINE
  5
4C9
100
AcDbEntity
  8
ASSI
100
AcDbLine
 62
7
  6
CONTINUOUS
 10
-6.0527004082
 20
40.5274003177
 11
-7.5027004082
 21
40.5267451944
  0
LINE
  5
4CA
100
AcDbEntity
  8
DRAFT
100
AcDbLine
 62
7
  6
CONTINUOUS
 10
-12.5027004082
 20
40.5244861485
 11
-17.6419308927
 21
40.522164197
  0
LINE
  5
4CB
100
AcDbEntity
  8
ASSI
100
AcDbLine
 62
7
  6
CONTINUOUS
 10
-12.5027004082
 20
40.5244861485
 11
-17.6419308927
 21
40.522164197
  0
LINE
  5
4CC
100
AcDbEntity
  8
DRAFT
100
AcDbLine
 62
7
  6
CONTINUOUS
 10
-7.5027004082
 20
40.5178007631
 11
-12.5027004082
 21
40.5178007631
  0
LINE
  5
4CD
100
AcDbEntity
  8
ASSI
100
AcDbLine
 62
7
  6
CONTINUOUS
 10
-7.5027004082
 20
40.5178007631
 11
-12.5027004082
 21
40.5178007631
  0
LINE
  5
4CE
100
AcDbEntity
  8
DRAFT
100
AcDbLine
 62
7
  6
CONTINUOUS
 10
-33.3027004082
 20
40.5178007631
 11
-38.3027004082
 21
40.5178007631
  0
LINE
  5
4CF
100
AcDbEntity
  8
ASSI
100
AcDbLine
 62
7
  6
CONTINUOUS
 10
-33.3027004082
 20
40.5178007631
 11
-38.3027004082
 21
40.5178007631
  0
LINE
  5
4D0
100
AcDbEntity
  8
DRAFT
100
AcDbLine
 62
7
  6
CONTINUOUS
 10
-17.6419308927
 20
40.522164197
 11
-28.1634699236
 21
40.522164197
  0
LINE
  5
4D1
100
AcDbEntity
  8
ASSI
100
AcDbLine
 62
7
  6
CONTINUOUS
 10
-17.6419308927
 20
40.522164197
 11
-28.1634699236
 21
40.522164197
  0
LINE
  5
4D2
100
AcDbEntity
  8
DRAFT
100
AcDbLine
 62
7
  6
CONTINUOUS
 10
-2.5780153225
 20
40.5274003177
 11
-6.0527004082
 21
40.5274003177
  0
LINE
  5
4D3
100
AcDbEntity
  8
ASSI
100
AcDbLine
 62
7
  6
CONTINUOUS
 10
-2.5780153225
 20
40.5274003177
 11
-6.0527004082
 21
40.5274003177
  0
LINE
  5
4D4
100
AcDbEntity
  8
DRAFT
100
AcDbLine
 62
7
  6
CONTINUOUS
 10
-39.7527004082
 20
40.5274003177
 11
-43.2273854938
 21
40.5274003177
  0
LINE
  5
4D5
100
AcDbEntity
  8
ASSI
100
AcDbLine
 62
7
  6
CONTINUOUS
 10
-39.7527004082
 20
40.5274003177
 11
-43.2273854938
 21
40.5274003177
  0
LINE
  5
4D6
100
AcDbEntity
  8
DRAFT
100
AcDbLine
 62
7
  6
CONTINUOUS
 10
-43.2527004082
 20
40.561435102
 11
-2.5527004082
 21
40.561435102
  0
LINE
  5
4D7
100
AcDbEntity
  8
ASSI
100
AcDbLine
 62
7
  6
CONTINUOUS
 10
-43.2527004082
 20
40.561435102
 11
-2.5527004082
 21
40.561435102
  0
LINE
  5
4D8
100
AcDbEntity
  8
0
100
AcDbLine
 62
7
  6
CONTINUOUS
 10
-22.7527004082
 20
41.1613741708
 11
-23.0527004082
 21
41.1613741708
  0
LINE
  5
4D9
100
AcDbEntity
  8
ASSI
100
AcDbLine
 62
7
  6
CONTINUOUS
 10
-22.7527004082
 20
41.1613741708
 11
-23.0527004082
 21
41.1613741708
  0
LINE
  5
4DA
100
AcDbEntity
  8
RACCORDO
100
AcDbLine
 62
7
  6
CONTINUOUS
 10
-43.952822252
 20
41.561435102
 11
-23.2527004082
 21
41.561435102
  0
LINE
  5
4DB
100
AcDbEntity
  8
ASSI
100
AcDbLine
 62
7
  6
CONTINUOUS
 10
-43.952822252
 20
41.561435102
 11
-23.2527004082
 21
41.561435102
  0
LINE
  5
4DC
100
AcDbEntity
  8
RACCORDO
100
AcDbLine
 62
7
  6
CONTINUOUS
 10
-22.5527004082
 20
41.561435102
 11
-1.8525785643
 21
41.561435102
  0
LINE
  5
4DD
100
AcDbEntity
  8
ASSI
100
AcDbLine
 62
7
  6
CONTINUOUS
 10
-22.5527004082
 20
41.561435102
 11
-1.8525785643
 21
41.561435102
  0
LINE
  5
4DE
100
AcDbEntity
  8
DRAFT
100
AcDbLine
 62
7
  6
CONTINUOUS
 10
-28.1634699236
 20
40.522164197
 11
-33.3027004082
 21
40.5244861485
  0
LINE
  5
4DF
100
AcDbEntity
  8
ASSI
100
AcDbLine
 62
7
  6
CONTINUOUS
 10
-28.1634699236
 20
40.522164197
 11
-33.3027004082
 21
40.5244861485
  0
LINE
  5
4E0
100
AcDbEntity
  8
DRAFT
100
AcDbLine
 62
7
  6
CONTINUOUS
 10
-38.3027004082
 20
40.5267451944
 11
-39.7527004082
 21
40.5274003177
  0
LINE
  5
4E1
100
AcDbEntity
  8
ASSI
100
AcDbLine
 62
7
  6
CONTINUOUS
 10
-38.3027004082
 20
40.5267451944
 11
-39.7527004082
 21
40.5274003177
  0
CIRCLE
  5
4E2
100
AcDbEntity
  8
DRAFT
100
AcDbCircle
 62
7
  6
CONTINUOUS
 10
-22.9027004082
 20
19.411435102
 40
2.75
  0
CIRCLE
  5
4E3
100
AcDbEntity
  8
ASSI
100
AcDbCircle
 62
7
  6
CONTINUOUS
 10
-22.9027004082
 20
19.411435102
 40
2.75
  0
CIRCLE
  5
4E4
100
AcDbEntity
  8
RACCORDO
100
AcDbCircle
 62
253
  6
CONTINUOUS
 10
-22.9027004082
 20
19.411435102
 40
2.7447296094
  0
CIRCLE
  5
4E5
100
AcDbEntity
  8
ASSI
100
AcDbCircle
 62
7
  6
CONTINUOUS
 10
-22.9027004082
 20
19.411435102
 40
2.7447296094
  0
CIRCLE
  5
4E6
100
AcDbEntity
  8
RACCORDO
100
AcDbCircle
 62
253
  6
CONTINUOUS
 10
-22.9027004082
 20
19.411435102
 40
2.294746743
  0
CIRCLE
  5
4E7
100
AcDbEntity
  8
ASSI
100
AcDbCircle
 62
253
  6
CONTINUOUS
 10
-22.9027004082
 20
19.411435102
 40
2.294746743
  0
CIRCLE
  5
4E8
100
AcDbEntity
  8
0
100
AcDbCircle
 62
7
  6
CONTINUOUS
 10
-22.9027004082
 20
19.411435102
 40
1.775
  0
CIRCLE
  5
4E9
100
AcDbEntity
  8
ASSI
100
AcDbCircle
 62
7
  6
CONTINUOUS
 10
-22.9027004082
 20
19.411435102
 40
1.775
  0
CIRCLE
  5
4EA
100
AcDbEntity
  8
0
100
AcDbCircle
 62
7
  6
CONTINUOUS
 10
-22.9027004082
 20
19.411435102
 40
1.7
  0
CIRCLE
  5
4EB
100
AcDbEntity
  8
ASSI
100
AcDbCircle
 62
7
  6
CONTINUOUS
 10
-22.9027004082
 20
19.411435102
 40
1.7
  0
CIRCLE
  5
4EC
100
AcDbEntity
  8
DRAFT
100
AcDbCircle
 62
7
  6
CONTINUOUS
 10
-22.9027004082
 20
19.411435102
 40
1.25
  0
CIRCLE
  5
4ED
100
AcDbEntity
  8
DRAFT
100
AcDbCircle
 62
7
  6
CONTINUOUS
 10
-22.9027004082
 20
19.411435102
 40
1.2185839459
  0
ARC
  5
4EE
100
AcDbEntity
  8
ASSI
100
AcDbCircle
 62
7
  6
CONTINUOUS
 10
-26.0467524082
 20
34.297478102
 40
0.5060329798
100
AcDbArc
 50
22.8428677796
 51
179.9958672882
  0
ARC
  5
4EF
100
AcDbEntity
  8
ASSI
100
AcDbCircle
 62
7
  6
CONTINUOUS
 10
-26.0467524082
 20
34.251673102
 40
0.200769
100
AcDbArc
 50
0.0043541036
 51
179.9956458964
  0
ELLIPSE
  5
4F0
100
AcDbEntity
  8
RACCORDO
100
AcDbEllipse
 62
7
  6
CONTINUOUS
 10
-22.5527004082
 20
-2.5385344324
 30
0.0
 11
0.0
 21
0.2000304656
 31
0.0
 40
0.9998476952
 41
1.5707963268
 42
3.1415926536
  0
ELLIPSE
  5
4F1
100
AcDbEntity
  8
RACCORDO
100
AcDbEllipse
 62
7
  6
CONTINUOUS
 10
-1.8528222706
 20
-1.9384430355
 30
0.0
 11
0.5658577513
 21
-0.5658577513
 31
0.0
 40
0.9996954599
 41
-0.7852458701
 42
0.7852458701
  0
ELLIPSE
  5
4F2
100
AcDbEntity
  8
RACCORDO
100
AcDbEllipse
 62
7
  6
CONTINUOUS
 10
-43.9525785457
 20
-1.9384430355
 30
0.0
 11
0.5658577513
 21
0.5658577513
 31
0.0
 40
0.9996954599
 41
2.3563467834
 42
3.9268385237
  0
ELLIPSE
  5
4F3
100
AcDbEntity
  8
RACCORDO
100
AcDbEllipse
 62
7
  6
CONTINUOUS
 10
-43.9525785457
 20
40.7613132396
 30
0.0
 11
-0.5658577513
 21
0.5658577513
 31
0.0
 40
0.9996954599
 41
-0.7852458702
 42
0.7852458701
  0
ELLIPSE
  5
4F4
100
AcDbEntity
  8
RACCORDO
100
AcDbEllipse
 62
7
  6
CONTINUOUS
 10
-1.8528222706
 20
40.7613132396
 30
0.0
 11
-0.5658577513
 21
-0.5658577513
 31
0.0
 40
0.9996954599
 41
2.3563467834
 42
3.9268385237
  0
ELLIPSE
  5
4F5
100
AcDbEntity
  8
RACCORDO
100
AcDbEllipse
 62
7
  6
CONTINUOUS
 10
-22.5527004082
 20
41.3614046364
 30
0.0
 11
0.0
 21
0.2000304656
 31
0.0
 40
0.9998476952
 41
-0.0
 42
1.5707963268
  0
ELLIPSE
  5
4F6
100
AcDbEntity
  8
RACCORDO
100
AcDbEllipse
 62
7
  6
CONTINUOUS
 10
-23.2527004082
 20
-2.5385344324
 30
0.0
 11
-0.0
 21
-0.2000304656
 31
0.0
 40
0.9998476952
 41
-0.0
 42
1.5707963268
  0
ELLIPSE
  5
4F7
100
AcDbEntity
  8
RACCORDO
100
AcDbEllipse
 62
7
  6
CONTINUOUS
 10
-23.2527004082
 20
41.3614046364
 30
0.0
 11
-0.0
 21
-0.2000304656
 31
0.0
 40
0.9998476952
 41
1.5707963268
 42
3.1415926536
  0
ELLIPSE
  5
4F8
100
AcDbEntity
  8
0
100
AcDbEllipse
 62
7
  6
CONTINUOUS
 10
-43.6527156395
 20
19.061435102
 30
0.0
 11
-0.4000152314
 21
0.0
 31
0.0
 40
0.9999619231
 41
9.4247779608
 42
10.9955742876
  0
ELLIPSE
  5
4F9
100
AcDbEntity
  8
0
100
AcDbEllipse
 62
7
  6
CONTINUOUS
 10
-43.6527156395
 20
22.761435102
 30
0.0
 11
0.4000152314
 21
-0.0
 31
0.0
 40
0.9999619231
 41
-1.466074115
 42
0.0
  0
ELLIPSE
  5
4FA
100
AcDbEntity
  8
0
100
AcDbEllipse
 62
7
  6
CONTINUOUS
 10
-44.1483940918
 20
20.2571687646
 30
0.0
 11
1.0607409467
 21
-1.0607409467
 31
0.0
 40
0.9999238505
 41
-0.1419160922
 42
0.7853600872
  0
ELLIPSE
  5
4FB
100
AcDbEntity
  8
0
100
AcDbEllipse
 62
7
  6
CONTINUOUS
 10
-44.1187227414
 20
20.2274974142
 30
0.0
 11
-1.0607409467
 21
1.0607409467
 31
0.0
 40
0.9999238505
 41
-3.2835087458
 42
-2.3562325664
  0
ELLIPSE
  5
4FC
100
AcDbEntity
  8
0
100
AcDbEllipse
 62
7
  6
CONTINUOUS
 10
-43.6483522056
 20
22.761435102
 30
0.0
 11
0.4000152314
 21
-0.0
 31
0.0
 40
0.9999619231
 41
-1.466074115
 42
0.0
  0
ELLIPSE
  5
4FD
100
AcDbEntity
  8
ASSI
100
AcDbEllipse
 62
7
  6
CONTINUOUS
 10
-22.5527004082
 20
-2.5385344324
 30
0.0
 11
0.0
 21
0.2000304656
 31
0.0
 40
0.9998476952
 41
1.5707963268
 42
3.1415926536
  0
ELLIPSE
  5
4FE
100
AcDbEntity
  8
ASSI
100
AcDbEllipse
 62
7
  6
CONTINUOUS
 10
-1.8528222706
 20
-1.9384430355
 30
0.0
 11
0.5658577513
 21
-0.5658577513
 31
0.0
 40
0.9996954599
 41
-0.7852458701
 42
0.7852458701
  0
ELLIPSE
  5
4FF
100
AcDbEntity
  8
ASSI
100
AcDbEllipse
 62
7
  6
CONTINUOUS
 10
-43.9525785457
 20
-1.9384430355
 30
0.0
 11
0.5658577513
 21
0.5658577513
 31
0.0
 40
0.9996954599
 41
2.3563467834
 42
3.9268385237
  0
ELLIPSE
  5
500
100
AcDbEntity
  8
ASSI
100
AcDbEllipse
 62
7
  6
CONTINUOUS
 10
-43.9525785457
 20
40.7613132396
 30
0.0
 11
-0.5658577513
 21
0.5658577513
 31
0.0
 40
0.9996954599
 41
-0.7852458702
 42
0.7852458701
  0
ELLIPSE
  5
501
100
AcDbEntity
  8
ASSI
100
AcDbEllipse
 62
7
  6
CONTINUOUS
 10
-1.8528222706
 20
40.7613132396
 30
0.0
 11
-0.5658577513
 21
-0.5658577513
 31
0.0
 40
0.9996954599
 41
2.3563467834
 42
3.9268385237
  0
ELLIPSE
  5
502
100
AcDbEntity
  8
ASSI
100
AcDbEllipse
 62
7
  6
CONTINUOUS
 10
-22.5527004082
 20
41.3614046364
 30
0.0
 11
0.0
 21
0.2000304656
 31
0.0
 40
0.9998476952
 41
0.0
 42
1.5707963268
  0
ELLIPSE
  5
503
100
AcDbEntity
  8
ASSI
100
AcDbEllipse
 62
7
  6
CONTINUOUS
 10
-23.2527004082
 20
-2.5385344324
 30
0.0
 11
-0.0
 21
-0.2000304656
 31
0.0
 40
0.9998476952
 41
-0.0
 42
1.5707963268
  0
ELLIPSE
  5
504
100
AcDbEntity
  8
ASSI
100
AcDbEllipse
 62
7
  6
CONTINUOUS
 10
-23.2527004082
 20
41.3614046364
 30
0.0
 11
-0.0
 21
-0.2000304656
 31
0.0
 40
0.9998476952
 41
1.5707963268
 42
3.1415926536
  0
ELLIPSE
  5
505
100
AcDbEntity
  8
ASSI
100
AcDbEllipse
 62
7
  6
CONTINUOUS
 10
-43.6527156395
 20
19.061435102
 30
0.0
 11
-0.4000152314
 21
0.0
 31
0.0
 40
0.9999619231
 41
3.1415926536
 42
4.7123889804
  0
ELLIPSE
  5
506
100
AcDbEntity
  8
ASSI
100
AcDbEllipse
 62
7
  6
CONTINUOUS
 10
-44.1187227414
 20
20.2274974142
 30
0.0
 11
-1.0607409467
 21
1.0607409467
 31
0.0
 40
0.9999238505
 41
-3.2835087458
 42
-2.3562325664
  0
ELLIPSE
  5
507
100
AcDbEntity
  8
ASSI
100
AcDbEllipse
 62
7
  6
CONTINUOUS
 10
-43.6483522056
 20
22.761435102
 30
0.0
 11
0.4000152314
 21
0.0
 31
0.0
 40
0.9999619231
 41
-1.5707963268
 42
0.0
  0
ELLIPSE
  5
508
100
AcDbEntity
  8
ASSI
100
AcDbEllipse
 62
7
  6
CONTINUOUS
 10
-43.6527156395
 20
22.761435102
 30
0.0
 11
0.4000152314
 21
-0.0
 31
0.0
 40
0.9999619231
 41
-1.5707963268
 42
0.0
  0
ENDSEC
  0
SECTION
  2
OBJECTS
  0
DICTIONARY
  5
C
100
AcDbDictionary
280
0
281
1
  3
ACAD_GROUP
350
D
  3
ACAD_MLINESTYLE
350
17
  3
ACAD_LAYOUT
350
1A
  3
ACAD_PLOTSETTINGS
350
19
  3
ACAD_PLOTSTYLENAME
350
E
  0
DICTIONARY
  5
D
102
{ACAD_REACTORS
330
C
102
}
100
AcDbDictionary
280
0
281
1
  0
ACDBDICTIONARYWDFLT
  5
E
102
{ACAD_REACTORS
330
C
102
}
100
AcDbDictionary
281
1
  3
Normal
350
F
100
AcDbDictionaryWithDefault
340
F
  0
DICTIONARY
  5
17
102
{ACAD_REACTORS
330
C
102
}
100
AcDbDictionary
280
0
281
1
  3
Standard
350
18
  0
DICTIONARY
  5
19
102
{ACAD_REACTORS
330
C
102
}
100
AcDbDictionary
281
1
  0
DICTIONARY
  5
1A
102
{ACAD_REACTORS
330
C
102
}
100
AcDbDictionary
281
1
  3
Model
350
509
  3
Layout1
350
50A
  0
ACDBPLACEHOLDER
  5
F
102
{ACAD_REACTORS
330
E
102
}
  0
MLINESTYLE
  5
18
102
{ACAD_REACTORS
330
17
102
}
100
AcDbMlineStyle
  2
STANDARD
 70
0
  3

 62
256
 51
90.0
 52
90.0
 71
2
 49
0.5
 62
256
  6
BYLAYER
 49
-0.5
 62
256
  6
BYLAYER
  0
LAYOUT
  5
509
102
{ACAD_REACTORS
330
1A
102
}
100
AcDbPlotSettings
  1

  2
none_device
  4
ISO_A4_(297.00_x_210.00_MM)
  6

 40
0.0
 41
0.0
 42
0.0
 43
0.0
 44
297.0
 45
210.0
 46
0.0
 47
0.0
 48
0.0
 49
0.0
140
0.0
141
0.0
142
1.0
143
1.0
 70
1024
 72
1
 73
0
 74
0
  7

 75
0
147
1.0
148
0.0
149
0.0
100
AcDbLayout
  1
Model
 70
0
 71
0
 10
0.0
 20
0.0
 11
297.0
 21
210.0
 12
0.0
 22
0.0
 32
0.0
 14
0.0
 24
0.0
 34
0.0
 15
0.0
 25
0.0
 35
0.0
146
0.0
 13
0.0
 23
0.0
 33
0.0
 16
1.0
 26
0.0
 36
0.0
 17
0.0
 27
1.0
 37
0.0
 76
0
330
214
345
0
346
0
  0
LAYOUT
  5
50A
102
{ACAD_REACTORS
330
1A
102
}
100
AcDbPlotSettings
  1

  2
none_device
  4
ISO_A4_(297.00_x_210.00_MM)
  6

 40
0.0
 41
0.0
 42
0.0
 43
0.0
 44
297.0
 45
210.0
 46
0.0
 47
0.0
 48
0.0
 49
0.0
140
0.0
141
0.0
142
1.0
143
1.0
 70
0
 72
1
 73
0
 74
0
  7

 75
0
147
1.0
148
0.0
149
0.0
100
AcDbLayout
  1
Layout1
 70
0
 71
1
 10
0.0
 20
0.0
 11
297.0
 21
210.0
 12
0.0
 22
0.0
 32
0.0
 14
0.0
 24
0.0
 34
0.0
 15
0.0
 25
0.0
 35
0.0
146
0.0
 13
0.0
 23
0.0
 33
0.0
 16
1.0
 26
0.0
 36
0.0
 17
0.0
 27
1.0
 37
0.0
 76
0
330
215
345
0
346
0
  0
ENDSEC
  0
EOF
