  0
SECTION
  2
HEADER
  9
$ACADVER
  1
AC1015
  9
$DWGCODEPAGE
  3
ANSI_1252
  9
$EXTMAX
 10
297.0
 20
210.0
 30
0.0
  9
$EXTMIN
 10
0.0
 20
0.0
 30
0.0
  9
$LIMMIN
 10
0.0
 20
0.0
  9
$LIMMAX
 10
297.0
 20
210.0
  9
$VIEWCTR
 10
148.5
 20
105.0
  9
$VIEWSIZE
 40
210.0
  9
$CLAYER
  8
0
  9
$LTSCALE
 40
16.335
  9
$CELTYPE
  6
BYLAYER
  9
$DIMSCALE
 40
1.0
  9
$DIMASZ
 40
3.0
  9
$DIMEXO
 40
1.85625
  9
$DIMDLI
 40
11.286
  9
$DIMEXE
 40
5.346
  9
$DIMCEN
 40
2.673
  9
$DIMLFAC
 40
1.0
  9
$DIMBLK
  1
_FILLED
  9
$DIMTXT
 40
3.0
  9
$DIMTOL
 70
1
  9
$DIMLIM
 70
0
  9
$DIMTFAC
 40
1.0
  9
$DIMTP
 40
0.01
  9
$DIMTM
 40
0.01
  9
$PDMODE
 70
3
  9
$PDSIZE
 40
3.0
  9
$HANDSEED
  5
892
  9
$TILEMODE
 70
1
  9
$MEASUREMENT
 70
1
  9
$INSUNITS
 70
4
  0
ENDSEC
  0
SECTION
  2
CLASSES
  0
CLASS
  1
ACDBDICTIONARYWDFLT
  2
AcDbDictionaryWithDefault
  3
AutoCAD 2000
 90
0
280
0
281
0
  0
CLASS
  1
ACDBPLACEHOLDER
  2
AcDbPlaceHolder
  3
AutoCAD 2000
 90
0
280
0
281
0
  0
CLASS
  1
LAYOUT
  2
AcDbLayout
  3
AutoCAD 2000
 90
0
280
0
281
0
  0
ENDSEC
  0
SECTION
  2
TABLES
  0
TABLE
  2
VPORT
  5
8
100
AcDbSymbolTable
 70
2
  0
VPORT
  5
1F4
100
AcDbSymbolTableRecord
100
AcDbViewportTableRecord
  2
*ACTIVE
 70
0
 10
0.0
 20
0.0
 11
1.0
 21
1.0
 12
148.5
 22
105.0
 13
0.0
 23
0.0
 14
1.0
 24
1.0
 15
0.0
 25
0.0
 16
0.0
 26
0.0
 36
1.0
 17
0.0
 27
0.0
 37
0.0
 40
210.0
 41
1.4142857143
 42
50.0
 43
0.0
 44
0.0
 50
0.0
 51
0.0
 71
0
 72
100
 73
1
 74
1
 75
0
 76
0
 77
0
 78
0
  0
ENDTAB
  0
TABLE
  2
LTYPE
  5
5
100
AcDbSymbolTable
 70
6
  0
LTYPE
  5
14
100
AcDbSymbolTableRecord
100
AcDbLinetypeTableRecord
  2
BYBLOCK
 70
0
  3

 72
65
 73
0
 40
0.0
  0
LTYPE
  5
15
100
AcDbSymbolTableRecord
100
AcDbLinetypeTableRecord
  2
BYLAYER
 70
0
  3

 72
65
 73
0
 40
0.0
  0
LTYPE
  5
16
100
AcDbSymbolTableRecord
100
AcDbLinetypeTableRecord
  2
CONTINUOUS
 70
64
  3
Solid line
 72
65
 73
0
 40
0.0
  0
LTYPE
  5
1F5
100
AcDbSymbolTableRecord
100
AcDbLinetypeTableRecord
  2
CENTER
 70
64
  3
____ _ ____ _ ____ _ ____ _ ____ _ ____ _ ____
 72
65
 73
4
 40
0.6
 49
0.375
 74
0
 49
-0.075
 74
0
 49
0.075
 74
0
 49
-0.075
 74
0
  0
LTYPE
  5
1F6
100
AcDbSymbolTableRecord
100
AcDbLinetypeTableRecord
  2
HIDDEN
 70
64
  3
- - - - - - - - - - - - - - - - - - - -
 72
65
 73
2
 40
0.2
 49
0.1
 74
0
 49
-0.1
 74
0
  0
LTYPE
  5
1F7
100
AcDbSymbolTableRecord
100
AcDbLinetypeTableRecord
  2
PHANTOM
 70
64
  3
_____ _ _ _____ _ _ _____ _ _ _____
 72
65
 73
6
 40
0.8
 49
0.45
 74
0
 49
-0.05
 74
0
 49
0.1
 74
0
 49
-0.05
 74
0
 49
0.1
 74
0
 49
-0.05
 74
0
  0
LTYPE
  5
1F8
100
AcDbSymbolTableRecord
100
AcDbLinetypeTableRecord
  2
DOT
 70
64
  3
. . . . . . . . . . . . . . . . . . . .
 72
65
 73
2
 40
0.2
 49
0.1
 74
0
 49
-0.1
 74
0
  0
LTYPE
  5
1F9
100
AcDbSymbolTableRecord
100
AcDbLinetypeTableRecord
  2
DASHED
 70
64
  3
- - - - - - - - - - - - - - - - - - - -
 72
65
 73
2
 40
0.2
 49
0.1
 74
0
 49
-0.1
 74
0
  0
ENDTAB
  0
TABLE
  2
LAYER
  5
2
100
AcDbSymbolTable
 70
36
  0
LAYER
  5
10
100
AcDbSymbolTableRecord
100
AcDbLayerTableRecord
  2
0
 70
0
 62
7
  6
CONTINUOUS
370
-3
390
F
  0
LAYER
  5
1FA
100
AcDbSymbolTableRecord
100
AcDbLayerTableRecord
  2
DEFAULT_1
 70
0
 62
7
  6
CENTER
370
-3
390
F
  0
LAYER
  5
1FB
100
AcDbSymbolTableRecord
100
AcDbLayerTableRecord
  2
DEFAULT_2
 70
0
 62
7
  6
HIDDEN
370
-3
390
F
  0
LAYER
  5
1FC
100
AcDbSymbolTableRecord
100
AcDbLayerTableRecord
  2
DEFAULT_3
 70
0
 62
7
  6
PHANTOM
370
-3
390
F
  0
LAYER
  5
1FD
100
AcDbSymbolTableRecord
100
AcDbLayerTableRecord
  2
201A_260000
 70
0
 62
7
  6
CONTINUOUS
370
-3
390
F
  0
LAYER
  5
1FE
100
AcDbSymbolTableRecord
100
AcDbLayerTableRecord
  2
201A_260000_1
 70
0
 62
7
  6
CONTINUOUS
370
-3
390
F
  0
LAYER
  5
1FF
100
AcDbSymbolTableRecord
100
AcDbLayerTableRecord
  2
201A_260000_2
 70
0
 62
7
  6
CONTINUOUS
370
-3
390
F
  0
LAYER
  5
200
100
AcDbSymbolTableRecord
100
AcDbLayerTableRecord
  2
2125-CC-RF-VIMAR_65000
 70
0
 62
7
  6
CONTINUOUS
370
-3
390
F
  0
LAYER
  5
201
100
AcDbSymbolTableRecord
100
AcDbLayerTableRecord
  2
2125-CC-RF-VIMAR_65000_1
 70
0
 62
7
  6
CONTINUOUS
370
-3
390
F
  0
LAYER
  5
202
100
AcDbSymbolTableRecord
100
AcDbLayerTableRecord
  2
2125-R1-RF-VIMAR_60000
 70
0
 62
7
  6
CONTINUOUS
370
-3
390
F
  0
LAYER
  5
203
100
AcDbSymbolTableRecord
100
AcDbLayerTableRecord
  2
2125-R1-RF-VIMAR_60000_1
 70
0
 62
7
  6
CONTINUOUS
370
-3
390
F
  0
LAYER
  5
204
100
AcDbSymbolTableRecord
100
AcDbLayerTableRecord
  2
2125-R1-RF-VIMAR_60000_2
 70
0
 62
7
  6
CONTINUOUS
370
-3
390
F
  0
LAYER
  5
205
100
AcDbSymbolTableRecord
100
AcDbLayerTableRecord
  2
3216-R1-RF-VIMAR_60000
 70
0
 62
7
  6
CONTINUOUS
370
-3
390
F
  0
LAYER
  5
206
100
AcDbSymbolTableRecord
100
AcDbLayerTableRecord
  2
43000463A0
 70
0
 62
7
  6
CONTINUOUS
370
-3
390
F
  0
LAYER
  5
207
100
AcDbSymbolTableRecord
100
AcDbLayerTableRecord
  2
ASSI
 70
0
 62
7
  6
CONTINUOUS
370
-3
390
F
  0
LAYER
  5
208
100
AcDbSymbolTableRecord
100
AcDbLayerTableRecord
  2
AX-D100-1-VIMAR_300000
 70
0
 62
7
  6
CONTINUOUS
370
-3
390
F
  0
LAYER
  5
209
100
AcDbSymbolTableRecord
100
AcDbLayerTableRecord
  2
AX-R5W-3-VIMAR_2200000
 70
0
 62
7
  6
CONTINUOUS
370
-3
390
F
  0
LAYER
  5
20A
100
AcDbSymbolTableRecord
100
AcDbLayerTableRecord
  2
CN-1S-HEADER-PIH-1_254000
 70
0
 62
7
  6
CONTINUOUS
370
-3
390
F
  0
LAYER
  5
20B
100
AcDbSymbolTableRecord
100
AcDbLayerTableRecord
  2
CN-CSF_CSM_2-VIMAR_1150000
 70
0
 62
7
  6
CONTINUOUS
370
-3
390
F
  0
LAYER
  5
20C
100
AcDbSymbolTableRecord
100
AcDbLayerTableRecord
  2
CN-MKDSN2-VIMAR_1500000
 70
0
 62
7
  6
CONTINUOUS
370
-3
390
F
  0
LAYER
  5
20D
100
AcDbSymbolTableRecord
100
AcDbLayerTableRecord
  2
CN1-REF_SQUAREHOLE14_SPEA-VIMAR
 70
0
 62
7
  6
CONTINUOUS
370
-3
390
F
  0
LAYER
  5
20E
100
AcDbSymbolTableRecord
100
AcDbLayerTableRecord
  2
CN1-REF_SQUAREHOLE14_SPEA-VIM_1
 70
0
 62
7
  6
CONTINUOUS
370
-3
390
F
  0
LAYER
  5
20F
100
AcDbSymbolTableRecord
100
AcDbLayerTableRecord
  2
CN1-REF_SQUAREHOLE14_SPEA-VIM_2
 70
0
 62
7
  6
CONTINUOUS
370
-3
390
F
  0
LAYER
  5
210
100
AcDbSymbolTableRecord
100
AcDbLayerTableRecord
  2
CN1-REF_SQUAREHOLE14_SPEA-VIM_3
 70
0
 62
7
  6
CONTINUOUS
370
-3
390
F
  0
LAYER
  5
211
100
AcDbSymbolTableRecord
100
AcDbLayerTableRecord
  2
COLOR5
 70
0
 62
7
  6
CONTINUOUS
370
-3
390
F
  0
LAYER
  5
212
100
AcDbSymbolTableRecord
100
AcDbLayerTableRecord
  2
COLORE_MATERIALE
 70
0
 62
7
  6
CONTINUOUS
370
-3
390
F
  0
LAYER
  5
213
100
AcDbSymbolTableRecord
100
AcDbLayerTableRecord
  2
COORDINATE
 70
0
 62
7
  6
CONTINUOUS
370
-3
390
F
  0
LAYER
  5
214
100
AcDbSymbolTableRecord
100
AcDbLayerTableRecord
  2
COORD_ORIGINE
 70
0
 62
7
  6
CONTINUOUS
370
-3
390
F
  0
LAYER
  5
215
100
AcDbSymbolTableRecord
100
AcDbLayerTableRecord
  2
COPY_PUBLISH
 70
0
 62
7
  6
CONTINUOUS
370
-3
390
F
  0
LAYER
  5
216
100
AcDbSymbolTableRecord
100
AcDbLayerTableRecord
  2
COSMETIC
 70
0
 62
7
  6
CONTINUOUS
370
-3
390
F
  0
LAYER
  5
217
100
AcDbSymbolTableRecord
100
AcDbLayerTableRecord
  2
CP-DO-214AC-D-VIMAR_240000
 70
0
 62
7
  6
CONTINUOUS
370
-3
390
F
  0
LAYER
  5
218
100
AcDbSymbolTableRecord
100
AcDbLayerTableRecord
  2
CP-DO-214AC-D-VIMAR_240000_1
 70
0
 62
7
  6
CONTINUOUS
370
-3
390
F
  0
LAYER
  5
219
100
AcDbSymbolTableRecord
100
AcDbLayerTableRecord
  2
CP-DO-214AC-D-VIMAR_240000_2
 70
0
 62
7
  6
CONTINUOUS
370
-3
390
F
  0
LAYER
  5
21A
100
AcDbSymbolTableRecord
100
AcDbLayerTableRecord
  2
CURVE
 70
0
 62
7
  6
CONTINUOUS
370
-3
390
F
  0
LAYER
  5
21B
100
AcDbSymbolTableRecord
100
AcDbLayerTableRecord
  2
DRAFT
 70
0
 62
7
  6
CONTINUOUS
370
-3
390
F
  0
LAYER
  5
21C
100
AcDbSymbolTableRecord
100
AcDbLayerTableRecord
  2
E2_MARK_10000
 70
0
 62
7
  6
CONTINUOUS
370
-3
390
F
  0
LAYER
  5
21D
100
AcDbSymbolTableRecord
100
AcDbLayerTableRecord
  2
FL-9_2X6X5_530000
 70
0
 62
7
  6
CONTINUOUS
370
-3
390
F
  0
LAYER
  5
21E
100
AcDbSymbolTableRecord
100
AcDbLayerTableRecord
  2
IGES_IMPORT
 70
0
 62
7
  6
CONTINUOUS
370
-3
390
F
  0
LAYER
  5
21F
100
AcDbSymbolTableRecord
100
AcDbLayerTableRecord
  2
IMPORT_IGES
 70
0
 62
7
  6
CONTINUOUS
370
-3
390
F
  0
LAYER
  5
220
100
AcDbSymbolTableRecord
100
AcDbLayerTableRecord
  2
INTF_GREEN
 70
0
 62
7
  6
CONTINUOUS
370
-3
390
F
  0
LAYER
  5
221
100
AcDbSymbolTableRecord
100
AcDbLayerTableRecord
  2
LOGO_RESIST-RESTYLING_10000
 70
0
 62
7
  6
CONTINUOUS
370
-3
390
F
  0
LAYER
  5
222
100
AcDbSymbolTableRecord
100
AcDbLayerTableRecord
  2
NO-PB_MARK_10000
 70
0
 62
7
  6
CONTINUOUS
370
-3
390
F
  0
LAYER
  5
223
100
AcDbSymbolTableRecord
100
AcDbLayerTableRecord
  2
NOTE
 70
0
 62
7
  6
CONTINUOUS
370
-3
390
F
  0
LAYER
  5
224
100
AcDbSymbolTableRecord
100
AcDbLayerTableRecord
  2
PIANI
 70
0
 62
7
  6
CONTINUOUS
370
-3
390
F
  0
LAYER
  5
225
100
AcDbSymbolTableRecord
100
AcDbLayerTableRecord
  2
PIANI_DI_RIFERIMENTO
 70
0
 62
7
  6
CONTINUOUS
370
-3
390
F
  0
LAYER
  5
226
100
AcDbSymbolTableRecord
100
AcDbLayerTableRecord
  2
PIANI_ORIGINE
 70
0
 62
7
  6
CONTINUOUS
370
-3
390
F
  0
LAYER
  5
227
100
AcDbSymbolTableRecord
100
AcDbLayerTableRecord
  2
PIANI_RIFERIMENTO
 70
0
 62
7
  6
CONTINUOUS
370
-3
390
F
  0
LAYER
  5
228
100
AcDbSymbolTableRecord
100
AcDbLayerTableRecord
  2
PUBLISHED_GEOMETRY
 70
0
 62
7
  6
CONTINUOUS
370
-3
390
F
  0
LAYER
  5
229
100
AcDbSymbolTableRecord
100
AcDbLayerTableRecord
  2
PUNTI
 70
0
 62
7
  6
CONTINUOUS
370
-3
390
F
  0
LAYER
  5
22A
100
AcDbSymbolTableRecord
100
AcDbLayerTableRecord
  2
RACCORDO
 70
0
 62
7
  6
CONTINUOUS
370
-3
390
F
  0
LAYER
  5
22B
100
AcDbSymbolTableRecord
100
AcDbLayerTableRecord
  2
RD-CE35-1-VIMAR_1150000
 70
0
 62
7
  6
CONTINUOUS
370
-3
390
F
  0
LAYER
  5
22C
100
AcDbSymbolTableRecord
100
AcDbLayerTableRecord
  2
RD-CE50-11-VIMAR_1250000
 70
0
 62
7
  6
CONTINUOUS
370
-3
390
F
  0
LAYER
  5
22D
100
AcDbSymbolTableRecord
100
AcDbLayerTableRecord
  2
RD-CE50-11-VIMAR_1250000_1
 70
0
 62
7
  6
CONTINUOUS
370
-3
390
F
  0
LAYER
  5
22E
100
AcDbSymbolTableRecord
100
AcDbLayerTableRecord
  2
RD-L50-4-VIMAR_950000
 70
0
 62
7
  6
CONTINUOUS
370
-3
390
F
  0
LAYER
  5
22F
100
AcDbSymbolTableRecord
100
AcDbLayerTableRecord
  2
RD-ZNR75-1-VIMAR_0
 70
0
 62
7
  6
CONTINUOUS
370
-3
390
F
  0
LAYER
  5
230
100
AcDbSymbolTableRecord
100
AcDbLayerTableRecord
  2
SMD8C-VIMAR_343000
 70
0
 62
7
  6
CONTINUOUS
370
-3
390
F
  0
LAYER
  5
231
100
AcDbSymbolTableRecord
100
AcDbLayerTableRecord
  2
SMUSSO
 70
0
 62
7
  6
CONTINUOUS
370
-3
390
F
  0
LAYER
  5
232
100
AcDbSymbolTableRecord
100
AcDbLayerTableRecord
  2
SNAPLINE
 70
0
 62
7
  6
CONTINUOUS
370
-3
390
F
  0
LAYER
  5
233
100
AcDbSymbolTableRecord
100
AcDbLayerTableRecord
  2
SUPERFICI
 70
0
 62
7
  6
CONTINUOUS
370
-3
390
F
  0
LAYER
  5
234
100
AcDbSymbolTableRecord
100
AcDbLayerTableRecord
  2
TR-29V-1-VIMAR_1400000
 70
0
 62
7
  6
CONTINUOUS
370
-3
390
F
  0
LAYER
  5
235
100
AcDbSymbolTableRecord
100
AcDbLayerTableRecord
  2
TRASH
 70
0
 62
7
  6
CONTINUOUS
370
-3
390
F
  0
LAYER
  5
236
100
AcDbSymbolTableRecord
100
AcDbLayerTableRecord
  2
XSEC_DATUMS
 70
0
 62
7
  6
CONTINUOUS
370
-3
390
F
  0
LAYER
  5
237
100
AcDbSymbolTableRecord
100
AcDbLayerTableRecord
  2
___SHELL
 70
0
 62
7
  6
CONTINUOUS
370
-3
390
F
  0
ENDTAB
  0
TABLE
  2
STYLE
  5
3
100
AcDbSymbolTable
 70
1
  0
STYLE
  5
11
100
AcDbSymbolTableRecord
100
AcDbTextStyleTableRecord
  2
STANDARD
 70
0
 40
0.0
 41
0.8
 50
0.0
 71
0
 42
0.2
  3
txt
  4

  0
STYLE
  5
238
100
AcDbSymbolTableRecord
100
AcDbTextStyleTableRecord
  2
TEXTSTYLE_1
 70
0
 40
0.0
 41
0.8
 50
0.0
 71
0
 42
0.2
  3
gdt
  4

  0
ENDTAB
  0
TABLE
  2
VIEW
  5
6
100
AcDbSymbolTable
 70
0
  0
ENDTAB
  0
TABLE
  2
UCS
  5
7
100
AcDbSymbolTable
 70
0
  0
ENDTAB
  0
TABLE
  2
APPID
  5
9
100
AcDbSymbolTable
 70
1
  0
APPID
  5
239
100
AcDbSymbolTableRecord
100
AcDbRegAppTableRecord
  2
ACAD
 70
0
  0
ENDTAB
  0
TABLE
  2
BLOCK_RECORD
  5
1
100
AcDbSymbolTable
 70
0
  0
BLOCK_RECORD
  5
23A
100
AcDbSymbolTableRecord
100
AcDbBlockTableRecord
  2
*Model_Space
  0
BLOCK_RECORD
  5
23B
100
AcDbSymbolTableRecord
100
AcDbBlockTableRecord
  2
*Paper_Space
  0
ENDTAB
  0
TABLE
  2
DIMSTYLE
  5
A
100
AcDbSymbolTable
 70
1
100
AcDbDimStyleTable
 71
0
  0
DIMSTYLE
105
23C
100
AcDbSymbolTableRecord
100
AcDbDimStyleTableRecord
  2
STANDARD
 70
0
  3

  4

 40
1.0
 41
3.0
 42
0.0625
 43
0.38
 44
0.18
 45
0.0
 46
0.0
 47
0.01
 48
0.01
140
3.0
141
0.09
142
0.0
143
25.4
144
1.0
145
0.0
146
1.0
147
0.09
 71
1.0
 72
0.0
 73
0
 74
0
 75
0
 76
0
 77
1
 78
8
170
0
171
2
172
0
173
0
174
0
175
0
176
0
177
0
178
0
270
2
271
2
272
2
273
2
274
2
275
0
280
0
281
0
282
0
283
1
284
8
285
0
286
0
287
3
288
0
340
11
  0
ENDTAB
  0
ENDSEC
  0
SECTION
  2
BLOCKS
  0
BLOCK
  5
20
100
AcDbEntity
  8
0
100
AcDbBlockBegin
  2
*Model_Space
 70
0
 10
0.0
 20
0.0
 30
0.0
  3
*Model_Space
  1

  0
ENDBLK
  5
21
100
AcDbEntity
  8
0
100
AcDbBlockEnd
  0
BLOCK
  5
1C
100
AcDbEntity
  8
0
100
AcDbBlockBegin
  2
*Paper_Space
 70
0
 10
0.0
 20
0.0
 30
0.0
  3
*Paper_Space
  1

  0
ENDBLK
  5
1D
100
AcDbEntity
  8
0
100
AcDbBlockEnd
  0
ENDSEC
  0
SECTION
  2
ENTITIES
  0
LINE
  5
23D
100
AcDbEntity
  8
RACCORDO
100
AcDbLine
 62
253
  6
CONTINUOUS
 10
-10.6466029582
 20
22.392895367
 11
-10.6323926099
 21
22.4
  0
LINE
  5
23E
100
AcDbEntity
  8
ASSI
100
AcDbLine
 62
253
  6
CONTINUOUS
 10
-10.6466029582
 20
22.392895367
 11
-10.6323926099
 21
22.4
  0
LINE
  5
23F
100
AcDbEntity
  8
RACCORDO
100
AcDbLine
 62
253
  6
CONTINUOUS
 10
-10.3956323968
 20
-24.495628166
 11
-8.5043676032
 21
-24.495628166
  0
LINE
  5
240
100
AcDbEntity
  8
ASSI
100
AcDbLine
 62
7
  6
CONTINUOUS
 10
-10.3956323968
 20
-24.495628166
 11
-8.5043676032
 21
-24.495628166
  0
LINE
  5
241
100
AcDbEntity
  8
RACCORDO
100
AcDbLine
 62
253
  6
CONTINUOUS
 10
8.5043676032
 20
-24.495628166
 11
10.3956323968
 21
-24.495628166
  0
LINE
  5
242
100
AcDbEntity
  8
ASSI
100
AcDbLine
 62
7
  6
CONTINUOUS
 10
8.5043676032
 20
-24.495628166
 11
10.3956323968
 21
-24.495628166
  0
LINE
  5
243
100
AcDbEntity
  8
RACCORDO
100
AcDbLine
 62
253
  6
CONTINUOUS
 10
-8.254371834
 20
-24.2456323968
 11
-10.645628166
 21
-24.2456323968
  0
LINE
  5
244
100
AcDbEntity
  8
RACCORDO
100
AcDbLine
 62
253
  6
CONTINUOUS
 10
8.254371834
 20
-24.2456323968
 11
10.645628166
 21
-24.2456323968
  0
LINE
  5
245
100
AcDbEntity
  8
ASSI
100
AcDbLine
 62
253
  6
CONTINUOUS
 10
-8.254371834
 20
-24.2456323968
 11
-10.645628166
 21
-24.2456323968
  0
LINE
  5
246
100
AcDbEntity
  8
ASSI
100
AcDbLine
 62
253
  6
CONTINUOUS
 10
8.254371834
 20
-24.2456323968
 11
10.645628166
 21
-24.2456323968
  0
LINE
  5
247
100
AcDbEntity
  8
RACCORDO
100
AcDbLine
 62
253
  6
CONTINUOUS
 10
-8.254371834
 20
-23.8443375673
 11
-10.645628166
 21
-23.8443375673
  0
LINE
  5
248
100
AcDbEntity
  8
ASSI
100
AcDbLine
 62
253
  6
CONTINUOUS
 10
-8.254371834
 20
-23.8443375673
 11
-10.645628166
 21
-23.8443375673
  0
LINE
  5
249
100
AcDbEntity
  8
DRAFT
100
AcDbLine
 62
7
  6
CONTINUOUS
 10
-4.4
 20
-23.8
 11
4.4
 21
-23.8
  0
LINE
  5
24A
100
AcDbEntity
  8
ASSI
100
AcDbLine
 62
7
  6
CONTINUOUS
 10
-4.4
 20
-23.8
 11
4.4
 21
-23.8
  0
LINE
  5
24B
100
AcDbEntity
  8
DRAFT
100
AcDbLine
 62
7
  6
CONTINUOUS
 10
-3.5
 20
-23.7941821702
 11
3.5
 21
-23.7941821702
  0
LINE
  5
24C
100
AcDbEntity
  8
ASSI
100
AcDbLine
 62
7
  6
CONTINUOUS
 10
-3.5
 20
-23.7941821702
 11
3.5
 21
-23.7941821702
  0
LINE
  5
24D
100
AcDbEntity
  8
ASSI
100
AcDbLine
 62
7
  6
CONTINUOUS
 10
-4.3563493531
 20
-23.7563493531
 11
-3.5
 21
-23.7563493531
  0
LINE
  5
24E
100
AcDbEntity
  8
ASSI
100
AcDbLine
 62
7
  6
CONTINUOUS
 10
3.5
 20
-23.7563493531
 11
4.3563493531
 21
-23.7563493531
  0
LINE
  5
24F
100
AcDbEntity
  8
RACCORDO
100
AcDbLine
 62
7
  6
CONTINUOUS
 10
8.5043676032
 20
-23.7
 11
10.3956323968
 21
-23.7
  0
LINE
  5
250
100
AcDbEntity
  8
ASSI
100
AcDbLine
 62
7
  6
CONTINUOUS
 10
8.5043676032
 20
-23.7
 11
10.3956323968
 21
-23.7
  0
LINE
  5
251
100
AcDbEntity
  8
RACCORDO
100
AcDbLine
 62
253
  6
CONTINUOUS
 10
-8.5043676032
 20
-23.6278312164
 11
-10.3956323968
 21
-23.6278312164
  0
LINE
  5
252
100
AcDbEntity
  8
ASSI
100
AcDbLine
 62
253
  6
CONTINUOUS
 10
-8.5043676032
 20
-23.6278312164
 11
-10.3956323968
 21
-23.6278312164
  0
LINE
  5
253
100
AcDbEntity
  8
RACCORDO
100
AcDbLine
 62
253
  6
CONTINUOUS
 10
-10.6323926099
 20
-22.4
 11
-10.6466017773
 21
-22.3928959574
  0
LINE
  5
254
100
AcDbEntity
  8
ASSI
100
AcDbLine
 62
253
  6
CONTINUOUS
 10
-10.6323926099
 20
-22.4
 11
-10.6466017773
 21
-22.3928959574
  0
LINE
  5
255
100
AcDbEntity
  8
RACCORDO
100
AcDbLine
 62
7
  6
CONTINUOUS
 10
10.4007229979
 20
-23.1226497308
 11
8.4992770021
 21
-23.1226497308
  0
LINE
  5
256
100
AcDbEntity
  8
ASSI
100
AcDbLine
 62
7
  6
CONTINUOUS
 10
10.4007229979
 20
-23.1226497308
 11
8.4992770021
 21
-23.1226497308
  0
LINE
  5
257
100
AcDbEntity
  8
RACCORDO
100
AcDbLine
 62
7
  6
CONTINUOUS
 10
-8.4992770021
 20
-23.1226497308
 11
-10.4007229979
 21
-23.1226497308
  0
LINE
  5
258
100
AcDbEntity
  8
ASSI
100
AcDbLine
 62
7
  6
CONTINUOUS
 10
-8.4992770021
 20
-23.1226497308
 11
-10.4007229979
 21
-23.1226497308
  0
LINE
  5
259
100
AcDbEntity
  8
RACCORDO
100
AcDbLine
 62
7
  6
CONTINUOUS
 10
10.6323926099
 20
-22.4
 11
8.25
 21
-22.4
  0
LINE
  5
25A
100
AcDbEntity
  8
DRAFT
100
AcDbLine
 62
7
  6
CONTINUOUS
 10
-8.25
 20
-22.4
 11
-4.4
 21
-22.4
  0
LINE
  5
25B
100
AcDbEntity
  8
DRAFT
100
AcDbLine
 62
7
  6
CONTINUOUS
 10
4.4
 20
-22.4
 11
8.25
 21
-22.4
  0
LINE
  5
25C
100
AcDbEntity
  8
ASSI
100
AcDbLine
 62
7
  6
CONTINUOUS
 10
4.4
 20
-22.4
 11
10.6323926099
 21
-22.4
  0
LINE
  5
25D
100
AcDbEntity
  8
RACCORDO
100
AcDbLine
 62
7
  6
CONTINUOUS
 10
-8.25
 20
-22.4
 11
-10.6323926099
 21
-22.4
  0
LINE
  5
25E
100
AcDbEntity
  8
ASSI
100
AcDbLine
 62
7
  6
CONTINUOUS
 10
-4.4
 20
-22.4
 11
-10.6323926099
 21
-22.4
  0
LINE
  5
25F
100
AcDbEntity
  8
RACCORDO
100
AcDbLine
 62
7
  6
CONTINUOUS
 10
-10.6498476749
 20
-22.3912731322
 11
-7.2587268678
 21
-22.3912731322
  0
LINE
  5
260
100
AcDbEntity
  8
ASSI
100
AcDbLine
 62
7
  6
CONTINUOUS
 10
-10.6498476749
 20
-22.3912731322
 11
-7.2587268678
 21
-22.3912731322
  0
LINE
  5
261
100
AcDbEntity
  8
RACCORDO
100
AcDbLine
 62
7
  6
CONTINUOUS
 10
7.2587268678
 20
-22.3912731322
 11
10.6498476749
 21
-22.3912731322
  0
LINE
  5
262
100
AcDbEntity
  8
ASSI
100
AcDbLine
 62
7
  6
CONTINUOUS
 10
7.2587268678
 20
-22.3912731322
 11
10.6498476749
 21
-22.3912731322
  0
LINE
  5
263
100
AcDbEntity
  8
DRAFT
100
AcDbLine
 62
7
  6
CONTINUOUS
 10
3.5
 20
-22.3380392387
 11
3.0
 21
-22.3380392387
  0
LINE
  5
264
100
AcDbEntity
  8
ASSI
100
AcDbLine
 62
7
  6
CONTINUOUS
 10
3.5
 20
-22.3380392387
 11
3.0
 21
-22.3380392387
  0
LINE
  5
265
100
AcDbEntity
  8
DRAFT
100
AcDbLine
 62
7
  6
CONTINUOUS
 10
-3.0
 20
-22.3380392387
 11
-3.5
 21
-22.3380392387
  0
LINE
  5
266
100
AcDbEntity
  8
ASSI
100
AcDbLine
 62
7
  6
CONTINUOUS
 10
-3.0
 20
-22.3380392387
 11
-3.5
 21
-22.3380392387
  0
LINE
  5
267
100
AcDbEntity
  8
RACCORDO
100
AcDbLine
 62
253
  6
CONTINUOUS
 10
-7.3373448332
 20
-22.3126551668
 11
-3.0
 21
-22.3126551668
  0
LINE
  5
268
100
AcDbEntity
  8
ASSI
100
AcDbLine
 62
253
  6
CONTINUOUS
 10
-7.3373448332
 20
-22.3126551668
 11
-3.0
 21
-22.3126551668
  0
LINE
  5
269
100
AcDbEntity
  8
RACCORDO
100
AcDbLine
 62
253
  6
CONTINUOUS
 10
3.0
 20
-22.3126551668
 11
7.3373448332
 21
-22.3126551668
  0
LINE
  5
26A
100
AcDbEntity
  8
ASSI
100
AcDbLine
 62
253
  6
CONTINUOUS
 10
3.0
 20
-22.3126551668
 11
7.3373448332
 21
-22.3126551668
  0
LINE
  5
26B
100
AcDbEntity
  8
0
100
AcDbLine
 62
7
  6
CONTINUOUS
 10
3.0
 20
-21.7
 11
-3.0
 21
-21.7
  0
LINE
  5
26C
100
AcDbEntity
  8
ASSI
100
AcDbLine
 62
7
  6
CONTINUOUS
 10
3.0
 20
-21.7
 11
-3.0
 21
-21.7
  0
LINE
  5
26D
100
AcDbEntity
  8
0
100
AcDbLine
 62
7
  6
CONTINUOUS
 10
-8.9
 20
20.9
 11
-9.65
 21
20.15
  0
LINE
  5
26E
100
AcDbEntity
  8
ASSI
100
AcDbLine
 62
7
  6
CONTINUOUS
 10
-8.9
 20
20.9
 11
-9.65
 21
20.15
  0
LINE
  5
26F
100
AcDbEntity
  8
RACCORDO
100
AcDbLine
 62
7
  6
CONTINUOUS
 10
-8.8
 20
20.85
 11
-10.5643027805
 21
19.0856972195
  0
LINE
  5
270
100
AcDbEntity
  8
ASSI
100
AcDbLine
 62
7
  6
CONTINUOUS
 10
-8.8
 20
20.85
 11
-10.5643027805
 21
19.0856972195
  0
LINE
  5
271
100
AcDbEntity
  8
RACCORDO
100
AcDbLine
 62
7
  6
CONTINUOUS
 10
-8.25
 20
21.4
 11
-7.2587268678
 21
22.3912731322
  0
LINE
  5
272
100
AcDbEntity
  8
ASSI
100
AcDbLine
 62
7
  6
CONTINUOUS
 10
-8.25
 20
21.4
 11
-7.2587268678
 21
22.3912731322
  0
LINE
  5
273
100
AcDbEntity
  8
RACCORDO
100
AcDbLine
 62
7
  6
CONTINUOUS
 10
-10.0850175454
 20
19.3181305591
 11
-8.5531481045
 21
20.85
  0
LINE
  5
274
100
AcDbEntity
  8
ASSI
100
AcDbLine
 62
7
  6
CONTINUOUS
 10
-10.0850175454
 20
19.3181305591
 11
-8.5531481045
 21
20.85
  0
LINE
  5
275
100
AcDbEntity
  8
RACCORDO
100
AcDbLine
 62
253
  6
CONTINUOUS
 10
-9.8824478728
 20
18.8290841082
 11
-9.9007029088
 21
18.8108290722
  0
LINE
  5
276
100
AcDbEntity
  8
ASSI
100
AcDbLine
 62
253
  6
CONTINUOUS
 10
-9.8824478728
 20
18.8290841082
 11
-9.9007029088
 21
18.8108290722
  0
LINE
  5
277
100
AcDbEntity
  8
RACCORDO
100
AcDbLine
 62
253
  6
CONTINUOUS
 10
-7.5841007192
 20
-21.3126932437
 11
-3.0
 21
-21.3126932437
  0
LINE
  5
278
100
AcDbEntity
  8
ASSI
100
AcDbLine
 62
253
  6
CONTINUOUS
 10
-7.5841007192
 20
-21.3126932437
 11
-3.0
 21
-21.3126932437
  0
LINE
  5
279
100
AcDbEntity
  8
RACCORDO
100
AcDbLine
 62
253
  6
CONTINUOUS
 10
3.0
 20
-21.3126932437
 11
7.5841007192
 21
-21.3126932437
  0
LINE
  5
27A
100
AcDbEntity
  8
ASSI
100
AcDbLine
 62
253
  6
CONTINUOUS
 10
3.0
 20
-21.3126932437
 11
7.5841007192
 21
-21.3126932437
  0
LINE
  5
27B
100
AcDbEntity
  8
0
100
AcDbLine
 62
7
  6
CONTINUOUS
 10
-3.0
 20
-21.0
 11
3.0
 21
-21.0
  0
LINE
  5
27C
100
AcDbEntity
  8
ASSI
100
AcDbLine
 62
7
  6
CONTINUOUS
 10
-3.0
 20
-21.0
 11
3.0
 21
-21.0
  0
LINE
  5
27D
100
AcDbEntity
  8
0
100
AcDbLine
 62
7
  6
CONTINUOUS
 10
-8.9
 20
-20.9
 11
-8.25
 21
-20.9
  0
LINE
  5
27E
100
AcDbEntity
  8
RACCORDO
100
AcDbLine
 62
7
  6
CONTINUOUS
 10
6.9
 20
-20.9
 11
8.25
 21
-20.9
  0
LINE
  5
27F
100
AcDbEntity
  8
RACCORDO
100
AcDbLine
 62
7
  6
CONTINUOUS
 10
-6.9
 20
-20.9
 11
-8.25
 21
-20.9
  0
LINE
  5
280
100
AcDbEntity
  8
0
100
AcDbLine
 62
7
  6
CONTINUOUS
 10
8.25
 20
-20.9
 11
8.9
 21
-20.9
  0
LINE
  5
281
100
AcDbEntity
  8
ASSI
100
AcDbLine
 62
7
  6
CONTINUOUS
 10
-6.9
 20
-20.9
 11
-8.9
 21
-20.9
  0
LINE
  5
282
100
AcDbEntity
  8
ASSI
100
AcDbLine
 62
7
  6
CONTINUOUS
 10
6.9
 20
-20.9
 11
8.9
 21
-20.9
  0
LINE
  5
283
100
AcDbEntity
  8
DRAFT
100
AcDbLine
 62
7
  6
CONTINUOUS
 10
7.4
 20
-20.85
 11
8.8
 21
-20.85
  0
LINE
  5
284
100
AcDbEntity
  8
DRAFT
100
AcDbLine
 62
7
  6
CONTINUOUS
 10
-7.4
 20
-20.85
 11
-8.8
 21
-20.85
  0
LINE
  5
285
100
AcDbEntity
  8
ASSI
100
AcDbLine
 62
7
  6
CONTINUOUS
 10
7.4
 20
-20.85
 11
8.8
 21
-20.85
  0
LINE
  5
286
100
AcDbEntity
  8
ASSI
100
AcDbLine
 62
7
  6
CONTINUOUS
 10
-7.4
 20
-20.85
 11
-8.8
 21
-20.85
  0
LINE
  5
287
100
AcDbEntity
  8
RACCORDO
100
AcDbLine
 62
253
  6
CONTINUOUS
 10
-6.9
 20
-20.5829242832
 11
6.9
 21
-20.5829242832
  0
LINE
  5
288
100
AcDbEntity
  8
ASSI
100
AcDbLine
 62
253
  6
CONTINUOUS
 10
-6.9
 20
-20.5829242832
 11
6.9
 21
-20.5829242832
  0
LINE
  5
289
100
AcDbEntity
  8
RACCORDO
100
AcDbLine
 62
253
  6
CONTINUOUS
 10
7.4
 20
-20.4484702548
 11
7.3501246809
 21
-20.4484702548
  0
LINE
  5
28A
100
AcDbEntity
  8
ASSI
100
AcDbLine
 62
253
  6
CONTINUOUS
 10
7.4
 20
-20.4484702548
 11
7.3501246809
 21
-20.4484702548
  0
LINE
  5
28B
100
AcDbEntity
  8
RACCORDO
100
AcDbLine
 62
253
  6
CONTINUOUS
 10
-7.3501246809
 20
-20.4484702548
 11
-7.4
 21
-20.4484702548
  0
LINE
  5
28C
100
AcDbEntity
  8
ASSI
100
AcDbLine
 62
253
  6
CONTINUOUS
 10
-7.3501246809
 20
-20.4484702548
 11
-7.4
 21
-20.4484702548
  0
LINE
  5
28D
100
AcDbEntity
  8
RACCORDO
100
AcDbLine
 62
253
  6
CONTINUOUS
 10
7.4
 20
-20.1488813944
 11
7.3517786853
 21
-20.1488813944
  0
LINE
  5
28E
100
AcDbEntity
  8
ASSI
100
AcDbLine
 62
253
  6
CONTINUOUS
 10
7.4
 20
-20.1488813944
 11
7.3517786853
 21
-20.1488813944
  0
LINE
  5
28F
100
AcDbEntity
  8
RACCORDO
100
AcDbLine
 62
253
  6
CONTINUOUS
 10
-7.3517786853
 20
-20.1488813944
 11
-7.4
 21
-20.1488813944
  0
LINE
  5
290
100
AcDbEntity
  8
ASSI
100
AcDbLine
 62
253
  6
CONTINUOUS
 10
-7.3517786853
 20
-20.1488813944
 11
-7.4
 21
-20.1488813944
  0
LINE
  5
291
100
AcDbEntity
  8
RACCORDO
100
AcDbLine
 62
253
  6
CONTINUOUS
 10
-6.555294768
 20
-20.0829433217
 11
6.555294768
 21
-20.0829433217
  0
LINE
  5
292
100
AcDbEntity
  8
ASSI
100
AcDbLine
 62
7
  6
CONTINUOUS
 10
-6.555294768
 20
-20.0829433217
 11
6.555294768
 21
-20.0829433217
  0
LINE
  5
293
100
AcDbEntity
  8
DRAFT
100
AcDbLine
 62
7
  6
CONTINUOUS
 10
2.5
 20
-20.0532338935
 11
2.4413111231
 21
-20.0532338935
  0
LINE
  5
294
100
AcDbEntity
  8
ASSI
100
AcDbLine
 62
7
  6
CONTINUOUS
 10
2.5
 20
-20.0532338935
 11
2.4413111231
 21
-20.0532338935
  0
LINE
  5
295
100
AcDbEntity
  8
DRAFT
100
AcDbLine
 62
7
  6
CONTINUOUS
 10
-2.4413111231
 20
-20.0532338935
 11
-2.5
 21
-20.0532338935
  0
LINE
  5
296
100
AcDbEntity
  8
ASSI
100
AcDbLine
 62
7
  6
CONTINUOUS
 10
-2.4413111231
 20
-20.0532338935
 11
-2.5
 21
-20.0532338935
  0
LINE
  5
297
100
AcDbEntity
  8
DRAFT
100
AcDbLine
 62
7
  6
CONTINUOUS
 10
-3.5
 20
-20.0
 11
-2.5
 21
-20.0
  0
LINE
  5
298
100
AcDbEntity
  8
ASSI
100
AcDbLine
 62
7
  6
CONTINUOUS
 10
-3.5
 20
-20.0
 11
-2.5
 21
-20.0
  0
LINE
  5
299
100
AcDbEntity
  8
DRAFT
100
AcDbLine
 62
7
  6
CONTINUOUS
 10
2.5
 20
-20.0
 11
3.5
 21
-20.0
  0
LINE
  5
29A
100
AcDbEntity
  8
ASSI
100
AcDbLine
 62
7
  6
CONTINUOUS
 10
2.5
 20
-20.0
 11
3.5
 21
-20.0
  0
LINE
  5
29B
100
AcDbEntity
  8
DRAFT
100
AcDbLine
 62
7
  6
CONTINUOUS
 10
-6.4482213147
 20
-19.9223308767
 11
-2.5
 21
-19.9223308767
  0
LINE
  5
29C
100
AcDbEntity
  8
ASSI
100
AcDbLine
 62
7
  6
CONTINUOUS
 10
-6.4482213147
 20
-19.9223308767
 11
-2.5
 21
-19.9223308767
  0
LINE
  5
29D
100
AcDbEntity
  8
DRAFT
100
AcDbLine
 62
7
  6
CONTINUOUS
 10
2.5
 20
-19.9223308767
 11
6.4482213147
 21
-19.9223308767
  0
LINE
  5
29E
100
AcDbEntity
  8
ASSI
100
AcDbLine
 62
7
  6
CONTINUOUS
 10
2.5
 20
-19.9223308767
 11
6.4482213147
 21
-19.9223308767
  0
LINE
  5
29F
100
AcDbEntity
  8
DRAFT
100
AcDbLine
 62
7
  6
CONTINUOUS
 10
-3.5
 20
-19.9
 11
-2.5
 21
-19.9
  0
LINE
  5
2A0
100
AcDbEntity
  8
ASSI
100
AcDbLine
 62
7
  6
CONTINUOUS
 10
-3.5
 20
-19.9
 11
-2.5
 21
-19.9
  0
LINE
  5
2A1
100
AcDbEntity
  8
DRAFT
100
AcDbLine
 62
7
  6
CONTINUOUS
 10
2.5
 20
-19.9
 11
3.5
 21
-19.9
  0
LINE
  5
2A2
100
AcDbEntity
  8
ASSI
100
AcDbLine
 62
7
  6
CONTINUOUS
 10
2.5
 20
-19.9
 11
3.5
 21
-19.9
  0
LINE
  5
2A3
100
AcDbEntity
  8
RACCORDO
100
AcDbLine
 62
7
  6
CONTINUOUS
 10
-1.5981173983
 20
-19.8825449351
 11
1.5981173983
 21
-19.8825449351
  0
LINE
  5
2A4
100
AcDbEntity
  8
ASSI
100
AcDbLine
 62
7
  6
CONTINUOUS
 10
-1.5981173983
 20
-19.8825449351
 11
1.5981173983
 21
-19.8825449351
  0
LINE
  5
2A5
100
AcDbEntity
  8
0
100
AcDbLine
 62
7
  6
CONTINUOUS
 10
-9.65
 20
-20.15
 11
-8.9
 21
-20.9
  0
LINE
  5
2A6
100
AcDbEntity
  8
ASSI
100
AcDbLine
 62
7
  6
CONTINUOUS
 10
-9.65
 20
-20.15
 11
-8.9
 21
-20.9
  0
LINE
  5
2A7
100
AcDbEntity
  8
RACCORDO
100
AcDbLine
 62
7
  6
CONTINUOUS
 10
-10.5643027805
 20
-19.0856972195
 11
-8.8
 21
-20.85
  0
LINE
  5
2A8
100
AcDbEntity
  8
ASSI
100
AcDbLine
 62
7
  6
CONTINUOUS
 10
-10.5643027805
 20
-19.0856972195
 11
-8.8
 21
-20.85
  0
LINE
  5
2A9
100
AcDbEntity
  8
RACCORDO
100
AcDbLine
 62
7
  6
CONTINUOUS
 10
-7.2587268678
 20
-22.3912731322
 11
-8.25
 21
-21.4
  0
LINE
  5
2AA
100
AcDbEntity
  8
ASSI
100
AcDbLine
 62
7
  6
CONTINUOUS
 10
-7.2587268678
 20
-22.3912731322
 11
-8.25
 21
-21.4
  0
LINE
  5
2AB
100
AcDbEntity
  8
RACCORDO
100
AcDbLine
 62
7
  6
CONTINUOUS
 10
-8.5531481045
 20
-20.85
 11
-10.0850175454
 21
-19.3181305591
  0
LINE
  5
2AC
100
AcDbEntity
  8
ASSI
100
AcDbLine
 62
7
  6
CONTINUOUS
 10
-8.5531481045
 20
-20.85
 11
-10.0850175454
 21
-19.3181305591
  0
LINE
  5
2AD
100
AcDbEntity
  8
RACCORDO
100
AcDbLine
 62
253
  6
CONTINUOUS
 10
-9.9007029088
 20
-18.8108290722
 11
-9.8824478728
 21
-18.8290841082
  0
LINE
  5
2AE
100
AcDbEntity
  8
ASSI
100
AcDbLine
 62
253
  6
CONTINUOUS
 10
-9.9007029088
 20
-18.8108290722
 11
-9.8824478728
 21
-18.8290841082
  0
LINE
  5
2AF
100
AcDbEntity
  8
RACCORDO
100
AcDbLine
 62
253
  6
CONTINUOUS
 10
-9.1754487874
 20
18.1220850228
 11
-9.1937065949
 21
18.1038272153
  0
LINE
  5
2B0
100
AcDbEntity
  8
ASSI
100
AcDbLine
 62
253
  6
CONTINUOUS
 10
-9.1754487874
 20
18.1220850228
 11
-9.1937065949
 21
18.1038272153
  0
LINE
  5
2B1
100
AcDbEntity
  8
DRAFT
100
AcDbLine
 62
7
  6
CONTINUOUS
 10
-7.4
 20
19.7
 11
-7.4890208311
 21
19.6109791689
  0
LINE
  5
2B2
100
AcDbEntity
  8
ASSI
100
AcDbLine
 62
7
  6
CONTINUOUS
 10
-7.4
 20
19.7
 11
-7.4890208311
 21
19.6109791689
  0
LINE
  5
2B3
100
AcDbEntity
  8
RACCORDO
100
AcDbLine
 62
7
  6
CONTINUOUS
 10
-7.2438103287
 20
19.7561896713
 11
-7.3
 21
19.7
  0
LINE
  5
2B4
100
AcDbEntity
  8
ASSI
100
AcDbLine
 62
7
  6
CONTINUOUS
 10
-7.2438103287
 20
19.7561896713
 11
-7.3
 21
19.7
  0
LINE
  5
2B5
100
AcDbEntity
  8
DRAFT
100
AcDbLine
 62
7
  6
CONTINUOUS
 10
-3.4109791689
 20
-19.8109791689
 11
3.4109791689
 21
-19.8109791689
  0
LINE
  5
2B6
100
AcDbEntity
  8
ASSI
100
AcDbLine
 62
7
  6
CONTINUOUS
 10
-3.4109791689
 20
-19.8109791689
 11
3.4109791689
 21
-19.8109791689
  0
LINE
  5
2B7
100
AcDbEntity
  8
RACCORDO
100
AcDbLine
 62
253
  6
CONTINUOUS
 10
7.2407819689
 20
-19.7564431031
 11
6.5592180311
 21
-19.7564431031
  0
LINE
  5
2B8
100
AcDbEntity
  8
ASSI
100
AcDbLine
 62
7
  6
CONTINUOUS
 10
7.2407819689
 20
-19.7564431031
 11
6.5592180311
 21
-19.7564431031
  0
LINE
  5
2B9
100
AcDbEntity
  8
RACCORDO
100
AcDbLine
 62
253
  6
CONTINUOUS
 10
-6.5592180311
 20
-19.7564431031
 11
-7.2407819689
 21
-19.7564431031
  0
LINE
  5
2BA
100
AcDbEntity
  8
ASSI
100
AcDbLine
 62
7
  6
CONTINUOUS
 10
-6.5592180311
 20
-19.7564431031
 11
-7.2407819689
 21
-19.7564431031
  0
LINE
  5
2BB
100
AcDbEntity
  8
DRAFT
100
AcDbLine
 62
7
  6
CONTINUOUS
 10
-7.4
 20
-19.7
 11
-3.5
 21
-19.7
  0
LINE
  5
2BC
100
AcDbEntity
  8
ASSI
100
AcDbLine
 62
7
  6
CONTINUOUS
 10
-7.4
 20
-19.7
 11
-3.5
 21
-19.7
  0
LINE
  5
2BD
100
AcDbEntity
  8
DRAFT
100
AcDbLine
 62
7
  6
CONTINUOUS
 10
3.5
 20
-19.7
 11
7.4
 21
-19.7
  0
LINE
  5
2BE
100
AcDbEntity
  8
ASSI
100
AcDbLine
 62
7
  6
CONTINUOUS
 10
3.5
 20
-19.7
 11
7.4
 21
-19.7
  0
LINE
  5
2BF
100
AcDbEntity
  8
RACCORDO
100
AcDbLine
 62
7
  6
CONTINUOUS
 10
9.37801846
 20
-19.6109791689
 11
7.4890208311
 21
-19.6109791689
  0
LINE
  5
2C0
100
AcDbEntity
  8
ASSI
100
AcDbLine
 62
7
  6
CONTINUOUS
 10
9.37801846
 20
-19.6109791689
 11
7.4890208311
 21
-19.6109791689
  0
LINE
  5
2C1
100
AcDbEntity
  8
DRAFT
100
AcDbLine
 62
7
  6
CONTINUOUS
 10
-3.4109791689
 20
-19.6109791689
 11
3.4109791689
 21
-19.6109791689
  0
LINE
  5
2C2
100
AcDbEntity
  8
ASSI
100
AcDbLine
 62
7
  6
CONTINUOUS
 10
-3.4109791689
 20
-19.6109791689
 11
3.4109791689
 21
-19.6109791689
  0
LINE
  5
2C3
100
AcDbEntity
  8
RACCORDO
100
AcDbLine
 62
7
  6
CONTINUOUS
 10
-7.4890208311
 20
-19.6109791689
 11
-9.37801846
 21
-19.6109791689
  0
LINE
  5
2C4
100
AcDbEntity
  8
ASSI
100
AcDbLine
 62
7
  6
CONTINUOUS
 10
-7.4890208311
 20
-19.6109791689
 11
-9.37801846
 21
-19.6109791689
  0
LINE
  5
2C5
100
AcDbEntity
  8
RACCORDO
100
AcDbLine
 62
7
  6
CONTINUOUS
 10
9.2587214036
 20
-19.3229705976
 11
-6.25
 21
-19.3229705976
  0
LINE
  5
2C6
100
AcDbEntity
  8
ASSI
100
AcDbLine
 62
7
  6
CONTINUOUS
 10
9.2587214036
 20
-19.3229705976
 11
-6.25
 21
-19.3229705976
  0
LINE
  5
2C7
100
AcDbEntity
  8
0
100
AcDbLine
 62
7
  6
CONTINUOUS
 10
9.2579983912
 20
-19.3212250911
 11
-0.65
 21
-19.3212250911
  0
LINE
  5
2C8
100
AcDbEntity
  8
RACCORDO
100
AcDbLine
 62
253
  6
CONTINUOUS
 10
-9.1754487874
 20
-19.121932718
 11
-6.75
 21
-19.121932718
  0
LINE
  5
2C9
100
AcDbEntity
  8
ASSI
100
AcDbLine
 62
253
  6
CONTINUOUS
 10
-9.1754487874
 20
-19.121932718
 11
-6.75
 21
-19.121932718
  0
LINE
  5
2CA
100
AcDbEntity
  8
0
100
AcDbLine
 62
253
  6
CONTINUOUS
 10
9.1754487874
 20
-19.121932718
 11
-6.15
 21
-19.121932718
  0
LINE
  5
2CB
100
AcDbEntity
  8
RACCORDO
100
AcDbLine
 62
7
  6
CONTINUOUS
 10
-6.3521043532
 20
-19.1187463379
 11
-6.75
 21
-19.1187463379
  0
LINE
  5
2CC
100
AcDbEntity
  8
ASSI
100
AcDbLine
 62
7
  6
CONTINUOUS
 10
-6.3521043532
 20
-19.1187463379
 11
-6.75
 21
-19.1187463379
  0
LINE
  5
2CD
100
AcDbEntity
  8
0
100
AcDbLine
 62
7
  6
CONTINUOUS
 10
-6.65
 20
-19.0760242242
 11
-6.15
 21
-19.0760242242
  0
LINE
  5
2CE
100
AcDbEntity
  8
RACCORDO
100
AcDbLine
 62
253
  6
CONTINUOUS
 10
-9.1754487874
 20
-18.1220850228
 11
-6.75
 21
-18.1220850228
  0
LINE
  5
2CF
100
AcDbEntity
  8
ASSI
100
AcDbLine
 62
253
  6
CONTINUOUS
 10
-9.1754487874
 20
-18.1220850228
 11
-6.75
 21
-18.1220850228
  0
LINE
  5
2D0
100
AcDbEntity
  8
0
100
AcDbLine
 62
253
  6
CONTINUOUS
 10
9.1767078253
 20
-18.1220850228
 11
-6.65
 21
-18.1220850228
  0
LINE
  5
2D1
100
AcDbEntity
  8
RACCORDO
100
AcDbLine
 62
253
  6
CONTINUOUS
 10
-9.1937065949
 20
-18.1038272153
 11
-9.1754487874
 21
-18.1220850228
  0
LINE
  5
2D2
100
AcDbEntity
  8
ASSI
100
AcDbLine
 62
253
  6
CONTINUOUS
 10
-9.1937065949
 20
-18.1038272153
 11
-9.1754487874
 21
-18.1220850228
  0
LINE
  5
2D3
100
AcDbEntity
  8
DRAFT
100
AcDbLine
 62
7
  6
CONTINUOUS
 10
-7.4
 20
-19.7
 11
-7.4890208311
 21
-19.6109791689
  0
LINE
  5
2D4
100
AcDbEntity
  8
ASSI
100
AcDbLine
 62
7
  6
CONTINUOUS
 10
-7.4
 20
-19.7
 11
-7.4890208311
 21
-19.6109791689
  0
LINE
  5
2D5
100
AcDbEntity
  8
RACCORDO
100
AcDbLine
 62
7
  6
CONTINUOUS
 10
-7.2438103287
 20
-19.7561896713
 11
-7.3
 21
-19.7
  0
LINE
  5
2D6
100
AcDbEntity
  8
ASSI
100
AcDbLine
 62
7
  6
CONTINUOUS
 10
-7.2438103287
 20
-19.7561896713
 11
-7.3
 21
-19.7
  0
LINE
  5
2D7
100
AcDbEntity
  8
RACCORDO
100
AcDbLine
 62
7
  6
CONTINUOUS
 10
-9.068456817
 20
20.581543183
 11
-8.9
 21
20.9
  0
LINE
  5
2D8
100
AcDbEntity
  8
ASSI
100
AcDbLine
 62
7
  6
CONTINUOUS
 10
-9.068456817
 20
20.581543183
 11
-8.9
 21
20.9
  0
LINE
  5
2D9
100
AcDbEntity
  8
SUPERFICI
100
AcDbLine
 62
253
  6
CONTINUOUS
 10
9.4865552047
 20
-17.3968281299
 11
10.4864028998
 21
-17.3968281299
  0
LINE
  5
2DA
100
AcDbEntity
  8
RACCORDO
100
AcDbLine
 62
253
  6
CONTINUOUS
 10
-9.4865552047
 20
-17.3968281299
 11
-10.4864028998
 21
-17.3968281299
  0
LINE
  5
2DB
100
AcDbEntity
  8
ASSI
100
AcDbLine
 62
253
  6
CONTINUOUS
 10
-9.4865552047
 20
-17.3968281299
 11
-10.4864028998
 21
-17.3968281299
  0
LINE
  5
2DC
100
AcDbEntity
  8
RACCORDO
100
AcDbLine
 62
7
  6
CONTINUOUS
 10
-8.9
 20
-20.9
 11
-9.068456817
 21
-20.581543183
  0
LINE
  5
2DD
100
AcDbEntity
  8
ASSI
100
AcDbLine
 62
7
  6
CONTINUOUS
 10
-8.9
 20
-20.9
 11
-9.068456817
 21
-20.581543183
  0
LINE
  5
2DE
100
AcDbEntity
  8
CURVE
100
AcDbLine
 62
253
  6
CONTINUOUS
 10
-8.8
 20
13.4166670799
 11
-8.6142857254
 21
13.6023806572
  0
LINE
  5
2DF
100
AcDbEntity
  8
CURVE
100
AcDbLine
 62
253
  6
CONTINUOUS
 10
-7.5
 20
13.3238090515
 11
-7.685714294
 21
13.1380954742
  0
LINE
  5
2E0
100
AcDbEntity
  8
CURVE
100
AcDbLine
 62
253
  6
CONTINUOUS
 10
-8.0571428627
 20
12.6738090515
 11
-8.2428571761
 21
12.4880954742
  0
LINE
  5
2E1
100
AcDbEntity
  8
CURVE
100
AcDbLine
 62
253
  6
CONTINUOUS
 10
-8.6142857254
 20
13.6023806572
 11
-8.4285714507
 21
13.6952386856
  0
LINE
  5
2E2
100
AcDbEntity
  8
CURVE
100
AcDbLine
 62
253
  6
CONTINUOUS
 10
-7.685714294
 20
13.1380954742
 11
-7.871428588
 21
13.0452386856
  0
LINE
  5
2E3
100
AcDbEntity
  8
RACCORDO
100
AcDbLine
 62
7
  6
CONTINUOUS
 10
9.5439339828
 20
20.1060660172
 11
9.65
 21
20.15
  0
LINE
  5
2E4
100
AcDbEntity
  8
ASSI
100
AcDbLine
 62
7
  6
CONTINUOUS
 10
9.5439339828
 20
20.1060660172
 11
9.65
 21
20.15
  0
LINE
  5
2E5
100
AcDbEntity
  8
CURVE
100
AcDbLine
 62
253
  6
CONTINUOUS
 10
11.018358992
 20
-16.0000010014
 11
11.0041477466
 21
-16.0000010014
  0
LINE
  5
2E6
100
AcDbEntity
  8
CURVE
100
AcDbLine
 62
253
  6
CONTINUOUS
 10
10.8532639465
 20
-16.0
 11
10.8663695613
 21
-16.0
  0
LINE
  5
2E7
100
AcDbEntity
  8
CURVE
100
AcDbLine
 62
253
  6
CONTINUOUS
 10
10.9291106917
 20
-16.0
 11
10.9422162532
 21
-16.0
  0
LINE
  5
2E8
100
AcDbEntity
  8
CURVE
100
AcDbLine
 62
253
  6
CONTINUOUS
 10
10.8008987014
 20
-15.6285711288
 11
10.8138653217
 21
-15.6285711288
  0
LINE
  5
2E9
100
AcDbEntity
  8
CURVE
100
AcDbLine
 62
253
  6
CONTINUOUS
 10
10.8911944505
 20
-15.6
 11
10.9042857492
 21
-15.6
  0
LINE
  5
2EA
100
AcDbEntity
  8
CURVE
100
AcDbLine
 62
253
  6
CONTINUOUS
 10
11.0041477466
 20
-15.0500010014
 11
11.018358992
 21
-15.0500010014
  0
LINE
  5
2EB
100
AcDbEntity
  8
CURVE
100
AcDbLine
 62
253
  6
CONTINUOUS
 10
11.0088848281
 20
-14.5071436644
 11
10.9994106647
 21
-14.5071436644
  0
LINE
  5
2EC
100
AcDbEntity
  8
CURVE
100
AcDbLine
 62
253
  6
CONTINUOUS
 10
10.8008987014
 20
-14.4214291573
 11
10.8235902858
 21
-14.4214291573
  0
LINE
  5
2ED
100
AcDbEntity
  8
CURVE
100
AcDbLine
 62
253
  6
CONTINUOUS
 10
11.0230960735
 20
-14.416667366
 11
11.0159904503
 21
-14.416667366
  0
LINE
  5
2EE
100
AcDbEntity
  8
0
100
AcDbLine
 62
253
  6
CONTINUOUS
 10
10.0999980534
 20
-18.8933759045
 11
9.8915753908
 21
-18.8199565902
  0
LINE
  5
2EF
100
AcDbEntity
  8
RACCORDO
100
AcDbLine
 62
7
  6
CONTINUOUS
 10
9.5439339828
 20
-20.1060660172
 11
9.65
 21
-20.15
  0
LINE
  5
2F0
100
AcDbEntity
  8
ASSI
100
AcDbLine
 62
7
  6
CONTINUOUS
 10
9.5439339828
 20
-20.1060660172
 11
9.65
 21
-20.15
  0
LINE
  5
2F1
100
AcDbEntity
  8
CURVE
100
AcDbLine
 62
253
  6
CONTINUOUS
 10
-7.685714294
 20
12.0238090515
 11
-7.5
 21
12.2095238686
  0
LINE
  5
2F2
100
AcDbEntity
  8
ASSI
100
AcDbLine
 62
7
  6
CONTINUOUS
 10
4.4
 20
23.8
 11
4.3563493531
 21
23.7563493531
  0
LINE
  5
2F3
100
AcDbEntity
  8
CURVE
100
AcDbLine
 62
253
  6
CONTINUOUS
 10
-8.8
 20
10.3833329201
 11
-8.6142857254
 21
10.5690477371
  0
LINE
  5
2F4
100
AcDbEntity
  8
CURVE
100
AcDbLine
 62
253
  6
CONTINUOUS
 10
-7.5
 20
10.2904761314
 11
-7.685714294
 21
10.1047613144
  0
LINE
  5
2F5
100
AcDbEntity
  8
CURVE
100
AcDbLine
 62
253
  6
CONTINUOUS
 10
-8.6142857254
 20
10.5690477371
 11
-8.4285714507
 21
10.6619045258
  0
LINE
  5
2F6
100
AcDbEntity
  8
RACCORDO
100
AcDbLine
 62
253
  6
CONTINUOUS
 10
10.5643027805
 20
19.0856972195
 11
9.9007029088
 21
18.8108290722
  0
LINE
  5
2F7
100
AcDbEntity
  8
ASSI
100
AcDbLine
 62
253
  6
CONTINUOUS
 10
10.5643027805
 20
19.0856972195
 11
9.9007029088
 21
18.8108290722
  0
LINE
  5
2F8
100
AcDbEntity
  8
CURVE
100
AcDbLine
 62
253
  6
CONTINUOUS
 10
11.0159904503
 20
-13.6476199627
 11
11.0230960735
 21
-13.6476199627
  0
LINE
  5
2F9
100
AcDbEntity
  8
CURVE
100
AcDbLine
 62
253
  6
CONTINUOUS
 10
10.9994106647
 20
-13.5571436644
 11
11.0088848281
 21
-13.5571436644
  0
LINE
  5
2FA
100
AcDbEntity
  8
CURVE
100
AcDbLine
 62
253
  6
CONTINUOUS
 10
10.9994106647
 20
-13.0142865539
 11
11.0088848281
 21
-13.0142865539
  0
LINE
  5
2FB
100
AcDbEntity
  8
CURVE
100
AcDbLine
 62
7
  6
CONTINUOUS
 10
11.1046306717
 20
-12.911198
 11
11.0540263841
 21
-12.911198
  0
LINE
  5
2FC
100
AcDbEntity
  8
CURVE
100
AcDbLine
 62
253
  6
CONTINUOUS
 10
10.8235902858
 20
-12.5642859459
 11
10.8008987014
 21
-12.5642859459
  0
LINE
  5
2FD
100
AcDbEntity
  8
RACCORDO
100
AcDbLine
 62
253
  6
CONTINUOUS
 10
10.1017435599
 20
-18.8940989169
 11
10.5643027805
 21
-19.0856972195
  0
LINE
  5
2FE
100
AcDbEntity
  8
ASSI
100
AcDbLine
 62
253
  6
CONTINUOUS
 10
10.1017435599
 20
-18.8940989169
 11
10.5643027805
 21
-19.0856972195
  0
LINE
  5
2FF
100
AcDbEntity
  8
ASSI
100
AcDbLine
 62
7
  6
CONTINUOUS
 10
4.4
 20
-23.8
 11
4.3563493531
 21
-23.7563493531
  0
LINE
  5
300
100
AcDbEntity
  8
DRAFT
100
AcDbLine
 62
7
  6
CONTINUOUS
 10
-6.25
 20
-19.3229705976
 11
-6.3521043532
 21
-19.1187463379
  0
LINE
  5
301
100
AcDbEntity
  8
ASSI
100
AcDbLine
 62
7
  6
CONTINUOUS
 10
-6.25
 20
-19.3229705976
 11
-6.3521043532
 21
-19.1187463379
  0
LINE
  5
302
100
AcDbEntity
  8
RACCORDO
100
AcDbLine
 62
253
  6
CONTINUOUS
 10
-10.645628166
 20
-23.8443375673
 11
-10.65
 21
-23.4104851482
  0
LINE
  5
303
100
AcDbEntity
  8
ASSI
100
AcDbLine
 62
253
  6
CONTINUOUS
 10
-10.645628166
 20
-23.8443375673
 11
-10.65
 21
-23.4104851482
  0
LINE
  5
304
100
AcDbEntity
  8
RACCORDO
100
AcDbLine
 62
7
  6
CONTINUOUS
 10
-11.15
 20
21.8911779406
 11
-11.15
 21
-21.8911779406
  0
LINE
  5
305
100
AcDbEntity
  8
ASSI
100
AcDbLine
 62
7
  6
CONTINUOUS
 10
-11.15
 20
21.8911779406
 11
-11.15
 21
-21.8911779406
  0
LINE
  5
306
100
AcDbEntity
  8
RACCORDO
100
AcDbLine
 62
253
  6
CONTINUOUS
 10
-10.65
 20
23.4104851482
 11
-10.645628166
 21
23.8443375673
  0
LINE
  5
307
100
AcDbEntity
  8
ASSI
100
AcDbLine
 62
253
  6
CONTINUOUS
 10
-10.65
 20
23.4104851482
 11
-10.645628166
 21
23.8443375673
  0
LINE
  5
308
100
AcDbEntity
  8
CURVE
100
AcDbLine
 62
253
  6
CONTINUOUS
 10
-8.0571428627
 20
9.6404761314
 11
-8.2428571761
 21
9.4547613144
  0
LINE
  5
309
100
AcDbEntity
  8
RACCORDO
100
AcDbLine
 62
7
  6
CONTINUOUS
 10
2.5
 20
19.9
 11
2.4979803239
 21
19.8979803239
  0
LINE
  5
30A
100
AcDbEntity
  8
ASSI
100
AcDbLine
 62
7
  6
CONTINUOUS
 10
2.5
 20
19.9
 11
2.4979803239
 21
19.8979803239
  0
LINE
  5
30B
100
AcDbEntity
  8
SMUSSO
100
AcDbLine
 62
7
  6
CONTINUOUS
 10
-5.25
 20
12.15
 11
-5.8273502692
 21
11.5726497308
  0
LINE
  5
30C
100
AcDbEntity
  8
ASSI
100
AcDbLine
 62
7
  6
CONTINUOUS
 10
-5.25
 20
12.15
 11
-5.8273502692
 21
11.5726497308
  0
LINE
  5
30D
100
AcDbEntity
  8
DRAFT
100
AcDbLine
 62
7
  6
CONTINUOUS
 10
3.5
 20
19.9
 11
3.4109791689
 21
19.8109791689
  0
LINE
  5
30E
100
AcDbEntity
  8
ASSI
100
AcDbLine
 62
7
  6
CONTINUOUS
 10
3.5
 20
19.9
 11
3.4109791689
 21
19.8109791689
  0
LINE
  5
30F
100
AcDbEntity
  8
DRAFT
100
AcDbLine
 62
7
  6
CONTINUOUS
 10
3.5
 20
19.7
 11
3.4109791689
 21
19.6109791689
  0
LINE
  5
310
100
AcDbEntity
  8
ASSI
100
AcDbLine
 62
7
  6
CONTINUOUS
 10
3.5
 20
19.7
 11
3.4109791689
 21
19.6109791689
  0
LINE
  5
311
100
AcDbEntity
  8
CURVE
100
AcDbLine
 62
253
  6
CONTINUOUS
 10
-7.685714294
 20
10.1047613144
 11
-7.871428588
 21
10.0119045258
  0
LINE
  5
312
100
AcDbEntity
  8
RACCORDO
100
AcDbLine
 62
253
  6
CONTINUOUS
 10
11.15
 20
17.6716990487
 11
10.4864028998
 21
17.3968249551
  0
LINE
  5
313
100
AcDbEntity
  8
ASSI
100
AcDbLine
 62
253
  6
CONTINUOUS
 10
11.15
 20
17.6716990487
 11
10.4864028998
 21
17.3968249551
  0
LINE
  5
314
100
AcDbEntity
  8
CURVE
100
AcDbLine
 62
7
  6
CONTINUOUS
 10
11.0645291608
 20
-12.328754
 11
11.1046306717
 21
-12.328754
  0
LINE
  5
315
100
AcDbEntity
  8
CURVE
100
AcDbLine
 62
253
  6
CONTINUOUS
 10
11.0136219105
 20
-12.2000007749
 11
11.0278331549
 21
-12.2000007749
  0
LINE
  5
316
100
AcDbEntity
  8
CURVE
100
AcDbLine
 62
253
  6
CONTINUOUS
 10
10.8532639486
 20
-11.61489
 11
10.8663695081
 21
-11.61489
  0
LINE
  5
317
100
AcDbEntity
  8
CURVE
100
AcDbLine
 62
253
  6
CONTINUOUS
 10
10.9291106917
 20
-11.61489
 11
10.9422162511
 21
-11.61489
  0
LINE
  5
318
100
AcDbEntity
  8
CURVE
100
AcDbLine
 62
253
  6
CONTINUOUS
 10
10.8235902858
 20
-11.6047620773
 11
10.8008987014
 21
-11.6047620773
  0
LINE
  5
319
100
AcDbEntity
  8
CURVE
100
AcDbLine
 62
253
  6
CONTINUOUS
 10
10.9946735827
 20
-11.3404770732
 11
11.0112533688
 21
-11.3404770732
  0
LINE
  5
31A
100
AcDbEntity
  8
CURVE
100
AcDbLine
 62
7
  6
CONTINUOUS
 10
11.0963787381
 20
-10.87477
 11
11.0540263841
 21
-10.87477
  0
LINE
  5
31B
100
AcDbEntity
  8
RACCORDO
100
AcDbLine
 62
253
  6
CONTINUOUS
 10
10.6874407794
 20
-17.4801007461
 11
11.15
 21
-17.6716990487
  0
LINE
  5
31C
100
AcDbEntity
  8
ASSI
100
AcDbLine
 62
253
  6
CONTINUOUS
 10
10.6874407794
 20
-17.4801007461
 11
11.15
 21
-17.6716990487
  0
LINE
  5
31D
100
AcDbEntity
  8
0
100
AcDbLine
 62
253
  6
CONTINUOUS
 10
10.6856952729
 20
-17.4793777337
 11
10.4864028998
 21
-17.3968249552
  0
LINE
  5
31E
100
AcDbEntity
  8
RACCORDO
100
AcDbLine
 62
7
  6
CONTINUOUS
 10
2.5
 20
-19.9
 11
2.4979803239
 21
-19.8979803239
  0
LINE
  5
31F
100
AcDbEntity
  8
ASSI
100
AcDbLine
 62
7
  6
CONTINUOUS
 10
2.5
 20
-19.9
 11
2.4979803239
 21
-19.8979803239
  0
LINE
  5
320
100
AcDbEntity
  8
DRAFT
100
AcDbLine
 62
7
  6
CONTINUOUS
 10
3.4109791689
 20
-19.8109791689
 11
3.5
 21
-19.9
  0
LINE
  5
321
100
AcDbEntity
  8
ASSI
100
AcDbLine
 62
7
  6
CONTINUOUS
 10
3.4109791689
 20
-19.8109791689
 11
3.5
 21
-19.9
  0
LINE
  5
322
100
AcDbEntity
  8
DRAFT
100
AcDbLine
 62
7
  6
CONTINUOUS
 10
3.5
 20
-19.7
 11
3.4109791689
 21
-19.6109791689
  0
LINE
  5
323
100
AcDbEntity
  8
ASSI
100
AcDbLine
 62
7
  6
CONTINUOUS
 10
3.5
 20
-19.7
 11
3.4109791689
 21
-19.6109791689
  0
LINE
  5
324
100
AcDbEntity
  8
RACCORDO
100
AcDbLine
 62
253
  6
CONTINUOUS
 10
-10.3956323968
 20
-23.6278312164
 11
-10.4007229979
 21
-23.1226497308
  0
LINE
  5
325
100
AcDbEntity
  8
ASSI
100
AcDbLine
 62
253
  6
CONTINUOUS
 10
-10.3956323968
 20
-23.6278312164
 11
-10.4007229979
 21
-23.1226497308
  0
LINE
  5
326
100
AcDbEntity
  8
RACCORDO
100
AcDbLine
 62
7
  6
CONTINUOUS
 10
-10.65
 20
-22.399689968
 11
-10.65
 21
-23.8443375673
  0
LINE
  5
327
100
AcDbEntity
  8
ASSI
100
AcDbLine
 62
7
  6
CONTINUOUS
 10
-10.65
 20
-22.399689968
 11
-10.65
 21
-23.8443375673
  0
LINE
  5
328
100
AcDbEntity
  8
RACCORDO
100
AcDbLine
 62
7
  6
CONTINUOUS
 10
-10.65
 20
22.399689968
 11
-10.65
 21
23.8443375673
  0
LINE
  5
329
100
AcDbEntity
  8
ASSI
100
AcDbLine
 62
7
  6
CONTINUOUS
 10
-10.65
 20
22.399689968
 11
-10.65
 21
23.8443375673
  0
LINE
  5
32A
100
AcDbEntity
  8
RACCORDO
100
AcDbLine
 62
253
  6
CONTINUOUS
 10
-10.645628166
 20
24.2456323968
 11
-10.645628166
 21
23.8443375673
  0
LINE
  5
32B
100
AcDbEntity
  8
ASSI
100
AcDbLine
 62
7
  6
CONTINUOUS
 10
-10.645628166
 20
24.2456323968
 11
-10.645628166
 21
23.8443375673
  0
LINE
  5
32C
100
AcDbEntity
  8
RACCORDO
100
AcDbLine
 62
253
  6
CONTINUOUS
 10
-10.645628166
 20
-23.8443375673
 11
-10.645628166
 21
-24.2456323968
  0
LINE
  5
32D
100
AcDbEntity
  8
ASSI
100
AcDbLine
 62
7
  6
CONTINUOUS
 10
-10.645628166
 20
-23.8443375673
 11
-10.645628166
 21
-24.2456323968
  0
LINE
  5
32E
100
AcDbEntity
  8
RACCORDO
100
AcDbLine
 62
253
  6
CONTINUOUS
 10
-10.4864028998
 20
17.3968249552
 11
-10.4864028998
 21
-17.3968249551
  0
LINE
  5
32F
100
AcDbEntity
  8
ASSI
100
AcDbLine
 62
253
  6
CONTINUOUS
 10
-10.4864028998
 20
17.3968249552
 11
-10.4864028998
 21
-17.3968249551
  0
LINE
  5
330
100
AcDbEntity
  8
RACCORDO
100
AcDbLine
 62
253
  6
CONTINUOUS
 10
-10.3956323968
 20
-23.6278312164
 11
-10.3956323968
 21
-24.495628166
  0
LINE
  5
331
100
AcDbEntity
  8
ASSI
100
AcDbLine
 62
253
  6
CONTINUOUS
 10
-10.3956323968
 20
-23.6278312164
 11
-10.3956323968
 21
-24.495628166
  0
LINE
  5
332
100
AcDbEntity
  8
RACCORDO
100
AcDbLine
 62
253
  6
CONTINUOUS
 10
-10.3956323968
 20
23.6278312164
 11
-10.3956323968
 21
24.495628166
  0
LINE
  5
333
100
AcDbEntity
  8
ASSI
100
AcDbLine
 62
253
  6
CONTINUOUS
 10
-10.3956323968
 20
23.6278312164
 11
-10.3956323968
 21
24.495628166
  0
LINE
  5
334
100
AcDbEntity
  8
0
100
AcDbLine
 62
7
  6
CONTINUOUS
 10
-9.65
 20
20.15
 11
-9.65
 21
20.0
  0
LINE
  5
335
100
AcDbEntity
  8
ASSI
100
AcDbLine
 62
7
  6
CONTINUOUS
 10
-9.65
 20
20.15
 11
-9.65
 21
20.0
  0
LINE
  5
336
100
AcDbEntity
  8
0
100
AcDbLine
 62
7
  6
CONTINUOUS
 10
-9.65
 20
-20.0
 11
-9.65
 21
-20.15
  0
LINE
  5
337
100
AcDbEntity
  8
ASSI
100
AcDbLine
 62
7
  6
CONTINUOUS
 10
-9.65
 20
-20.0
 11
-9.65
 21
-20.15
  0
LINE
  5
338
100
AcDbEntity
  8
RACCORDO
100
AcDbLine
 62
253
  6
CONTINUOUS
 10
-9.4865552047
 20
17.3968281299
 11
-9.4865552047
 21
-17.3968281299
  0
LINE
  5
339
100
AcDbEntity
  8
ASSI
100
AcDbLine
 62
253
  6
CONTINUOUS
 10
-9.4865552047
 20
17.3968281299
 11
-9.4865552047
 21
-17.3968281299
  0
LINE
  5
33A
100
AcDbEntity
  8
RACCORDO
100
AcDbLine
 62
253
  6
CONTINUOUS
 10
-9.1754487874
 20
-18.1220850228
 11
-9.1754487874
 21
-19.121932718
  0
LINE
  5
33B
100
AcDbEntity
  8
ASSI
100
AcDbLine
 62
253
  6
CONTINUOUS
 10
-9.1754487874
 20
-18.1220850228
 11
-9.1754487874
 21
-19.121932718
  0
LINE
  5
33C
100
AcDbEntity
  8
RACCORDO
100
AcDbLine
 62
253
  6
CONTINUOUS
 10
-9.1754487874
 20
18.1220850228
 11
-9.1754487874
 21
19.121932718
  0
LINE
  5
33D
100
AcDbEntity
  8
ASSI
100
AcDbLine
 62
253
  6
CONTINUOUS
 10
-9.1754487874
 20
18.1220850228
 11
-9.1754487874
 21
19.121932718
  0
LINE
  5
33E
100
AcDbEntity
  8
RACCORDO
100
AcDbLine
 62
253
  6
CONTINUOUS
 10
-10.4007229979
 20
23.1226497308
 11
-10.3956323968
 21
23.6278312164
  0
LINE
  5
33F
100
AcDbEntity
  8
ASSI
100
AcDbLine
 62
253
  6
CONTINUOUS
 10
-10.4007229979
 20
23.1226497308
 11
-10.3956323968
 21
23.6278312164
  0
LINE
  5
340
100
AcDbEntity
  8
RACCORDO
100
AcDbLine
 62
7
  6
CONTINUOUS
 10
-7.3501246809
 20
20.4484702548
 11
-7.3
 21
20.9
  0
LINE
  5
341
100
AcDbEntity
  8
ASSI
100
AcDbLine
 62
7
  6
CONTINUOUS
 10
-7.3501246809
 20
20.4484702548
 11
-7.3
 21
20.9
  0
LINE
  5
342
100
AcDbEntity
  8
CURVE
100
AcDbLine
 62
253
  6
CONTINUOUS
 10
-7.9952381045
 20
6.26666646
 11
-7.8095238104
 21
6.5142858028
  0
LINE
  5
343
100
AcDbEntity
  8
SMUSSO
100
AcDbLine
 62
7
  6
CONTINUOUS
 10
1.75
 20
15.45
 11
2.3273502692
 21
16.0273502692
  0
LINE
  5
344
100
AcDbEntity
  8
ASSI
100
AcDbLine
 62
7
  6
CONTINUOUS
 10
1.75
 20
15.45
 11
2.3273502692
 21
16.0273502692
  0
LINE
  5
345
100
AcDbEntity
  8
RACCORDO
100
AcDbLine
 62
7
  6
CONTINUOUS
 10
6.5561896713
 20
19.7561896713
 11
6.5
 21
19.7
  0
LINE
  5
346
100
AcDbEntity
  8
ASSI
100
AcDbLine
 62
7
  6
CONTINUOUS
 10
6.5561896713
 20
19.7561896713
 11
6.5
 21
19.7
  0
LINE
  5
347
100
AcDbEntity
  8
CURVE
100
AcDbLine
 62
253
  6
CONTINUOUS
 10
-8.8
 20
4.2857141972
 11
-8.6142857254
 21
4.4714283943
  0
LINE
  5
348
100
AcDbEntity
  8
CURVE
100
AcDbLine
 62
7
  6
CONTINUOUS
 10
11.0540263841
 20
-10.292325
 11
11.1046306717
 21
-10.292325
  0
LINE
  5
349
100
AcDbEntity
  8
CURVE
100
AcDbLine
 62
253
  6
CONTINUOUS
 10
11.0278331549
 20
-10.1642866105
 11
10.9946735827
 21
-10.1642866105
  0
LINE
  5
34A
100
AcDbEntity
  8
CURVE
100
AcDbLine
 62
253
  6
CONTINUOUS
 10
10.8235902858
 20
-9.9642859459
 11
10.8008987014
 21
-9.9642859459
  0
LINE
  5
34B
100
AcDbEntity
  8
CURVE
100
AcDbLine
 62
253
  6
CONTINUOUS
 10
10.8235902858
 20
-9.3142859459
 11
10.8008987014
 21
-9.3142859459
  0
LINE
  5
34C
100
AcDbEntity
  8
RACCORDO
100
AcDbLine
 62
7
  6
CONTINUOUS
 10
6.5561896713
 20
-19.7561896713
 11
6.5
 21
-19.7
  0
LINE
  5
34D
100
AcDbEntity
  8
ASSI
100
AcDbLine
 62
7
  6
CONTINUOUS
 10
6.5561896713
 20
-19.7561896713
 11
6.5
 21
-19.7
  0
LINE
  5
34E
100
AcDbEntity
  8
RACCORDO
100
AcDbLine
 62
7
  6
CONTINUOUS
 10
-7.3
 20
-20.9
 11
-7.3501246809
 21
-20.4484702548
  0
LINE
  5
34F
100
AcDbEntity
  8
ASSI
100
AcDbLine
 62
7
  6
CONTINUOUS
 10
-7.3
 20
-20.9
 11
-7.3501246809
 21
-20.4484702548
  0
LINE
  5
350
100
AcDbEntity
  8
RACCORDO
100
AcDbLine
 62
253
  6
CONTINUOUS
 10
-8.5043676032
 20
23.6278312164
 11
-8.4992770021
 21
23.1226497308
  0
LINE
  5
351
100
AcDbEntity
  8
ASSI
100
AcDbLine
 62
253
  6
CONTINUOUS
 10
-8.5043676032
 20
23.6278312164
 11
-8.4992770021
 21
23.1226497308
  0
LINE
  5
352
100
AcDbEntity
  8
RACCORDO
100
AcDbLine
 62
253
  6
CONTINUOUS
 10
-8.254371834
 20
23.8443375673
 11
-8.25
 21
23.4104851482
  0
LINE
  5
353
100
AcDbEntity
  8
ASSI
100
AcDbLine
 62
253
  6
CONTINUOUS
 10
-8.254371834
 20
23.8443375673
 11
-8.25
 21
23.4104851482
  0
LINE
  5
354
100
AcDbEntity
  8
CURVE
100
AcDbLine
 62
253
  6
CONTINUOUS
 10
-8.8
 20
3.3571429014
 11
-8.8
 21
2.9857141972
  0
LINE
  5
355
100
AcDbEntity
  8
CURVE
100
AcDbLine
 62
253
  6
CONTINUOUS
 10
-8.8
 20
2.4285712957
 11
-8.8
 21
2.15
  0
LINE
  5
356
100
AcDbEntity
  8
CURVE
100
AcDbLine
 62
253
  6
CONTINUOUS
 10
-8.8
 20
-0.5428571761
 11
-8.8
 21
-0.8214285493
  0
LINE
  5
357
100
AcDbEntity
  8
CURVE
100
AcDbLine
 62
253
  6
CONTINUOUS
 10
-8.8
 20
0.2928570986
 11
-8.8
 21
0.3857143521
  0
LINE
  5
358
100
AcDbEntity
  8
CURVE
100
AcDbLine
 62
253
  6
CONTINUOUS
 10
-8.8
 20
4.1928574085
 11
-8.8
 21
4.2857141972
  0
LINE
  5
359
100
AcDbEntity
  8
CURVE
100
AcDbLine
 62
253
  6
CONTINUOUS
 10
-8.8
 20
9.0833329201
 11
-8.8
 21
9.6404761314
  0
LINE
  5
35A
100
AcDbEntity
  8
CURVE
100
AcDbLine
 62
253
  6
CONTINUOUS
 10
-8.8
 20
10.2904761314
 11
-8.8
 21
10.3833329201
  0
LINE
  5
35B
100
AcDbEntity
  8
CURVE
100
AcDbLine
 62
253
  6
CONTINUOUS
 10
-8.8
 20
13.3238090515
 11
-8.8
 21
13.4166670799
  0
LINE
  5
35C
100
AcDbEntity
  8
RACCORDO
100
AcDbLine
 62
253
  6
CONTINUOUS
 10
-8.5043676032
 20
-23.6278312164
 11
-8.5043676032
 21
-24.495628166
  0
LINE
  5
35D
100
AcDbEntity
  8
ASSI
100
AcDbLine
 62
253
  6
CONTINUOUS
 10
-8.5043676032
 20
-23.6278312164
 11
-8.5043676032
 21
-24.495628166
  0
LINE
  5
35E
100
AcDbEntity
  8
RACCORDO
100
AcDbLine
 62
253
  6
CONTINUOUS
 10
-8.5043676032
 20
23.6278312164
 11
-8.5043676032
 21
24.495628166
  0
LINE
  5
35F
100
AcDbEntity
  8
ASSI
100
AcDbLine
 62
253
  6
CONTINUOUS
 10
-8.5043676032
 20
23.6278312164
 11
-8.5043676032
 21
24.495628166
  0
LINE
  5
360
100
AcDbEntity
  8
CURVE
100
AcDbLine
 62
253
  6
CONTINUOUS
 10
-8.4285714507
 20
15.0880954742
 11
-8.4285714507
 21
15.6452386856
  0
LINE
  5
361
100
AcDbEntity
  8
RACCORDO
100
AcDbLine
 62
253
  6
CONTINUOUS
 10
-8.254371834
 20
-24.2456323968
 11
-8.254371834
 21
-23.8443375673
  0
LINE
  5
362
100
AcDbEntity
  8
ASSI
100
AcDbLine
 62
7
  6
CONTINUOUS
 10
-8.254371834
 20
-24.2456323968
 11
-8.254371834
 21
-23.8443375673
  0
LINE
  5
363
100
AcDbEntity
  8
RACCORDO
100
AcDbLine
 62
253
  6
CONTINUOUS
 10
-8.254371834
 20
23.8443375673
 11
-8.254371834
 21
24.2456323968
  0
LINE
  5
364
100
AcDbEntity
  8
ASSI
100
AcDbLine
 62
7
  6
CONTINUOUS
 10
-8.254371834
 20
23.8443375673
 11
-8.254371834
 21
24.2456323968
  0
LINE
  5
365
100
AcDbEntity
  8
DRAFT
100
AcDbLine
 62
7
  6
CONTINUOUS
 10
-8.25
 20
-21.4
 11
-8.25
 21
-20.9
  0
LINE
  5
366
100
AcDbEntity
  8
ASSI
100
AcDbLine
 62
7
  6
CONTINUOUS
 10
-8.25
 20
-21.4
 11
-8.25
 21
-20.9
  0
LINE
  5
367
100
AcDbEntity
  8
RACCORDO
100
AcDbLine
 62
7
  6
CONTINUOUS
 10
-8.25
 20
-22.4
 11
-8.25
 21
-23.8443375673
  0
LINE
  5
368
100
AcDbEntity
  8
ASSI
100
AcDbLine
 62
7
  6
CONTINUOUS
 10
-8.25
 20
-22.4
 11
-8.25
 21
-23.8443375673
  0
LINE
  5
369
100
AcDbEntity
  8
DRAFT
100
AcDbLine
 62
7
  6
CONTINUOUS
 10
-8.25
 20
20.9
 11
-8.25
 21
21.4
  0
LINE
  5
36A
100
AcDbEntity
  8
ASSI
100
AcDbLine
 62
7
  6
CONTINUOUS
 10
-8.25
 20
20.9
 11
-8.25
 21
21.4
  0
LINE
  5
36B
100
AcDbEntity
  8
RACCORDO
100
AcDbLine
 62
7
  6
CONTINUOUS
 10
-8.25
 20
22.4
 11
-8.25
 21
23.8443375673
  0
LINE
  5
36C
100
AcDbEntity
  8
ASSI
100
AcDbLine
 62
7
  6
CONTINUOUS
 10
-8.25
 20
22.4
 11
-8.25
 21
23.8443375673
  0
LINE
  5
36D
100
AcDbEntity
  8
CURVE
100
AcDbLine
 62
253
  6
CONTINUOUS
 10
-8.2428571761
 20
12.4880954742
 11
-8.2428571761
 21
12.085714817
  0
LINE
  5
36E
100
AcDbEntity
  8
CURVE
100
AcDbLine
 62
253
  6
CONTINUOUS
 10
-8.2428571761
 20
9.4547613144
 11
-8.2428571761
 21
9.0833329201
  0
LINE
  5
36F
100
AcDbEntity
  8
CURVE
100
AcDbLine
 62
253
  6
CONTINUOUS
 10
-8.2428571761
 20
3.3571429014
 11
-8.2428571761
 21
3.1714287043
  0
LINE
  5
370
100
AcDbEntity
  8
CURVE
100
AcDbLine
 62
253
  6
CONTINUOUS
 10
-8.2428571761
 20
14.0666670799
 11
-8.2428571761
 21
14.7166670799
  0
LINE
  5
371
100
AcDbEntity
  8
RACCORDO
100
AcDbLine
 62
253
  6
CONTINUOUS
 10
-8.0840245667
 20
21.5659754333
 11
-8.0840245667
 21
20.9
  0
LINE
  5
372
100
AcDbEntity
  8
ASSI
100
AcDbLine
 62
253
  6
CONTINUOUS
 10
-8.0840245667
 20
21.5659754333
 11
-8.0840245667
 21
20.9
  0
LINE
  5
373
100
AcDbEntity
  8
RACCORDO
100
AcDbLine
 62
253
  6
CONTINUOUS
 10
-8.0840245667
 20
-20.9
 11
-8.0840245667
 21
-21.5659754333
  0
LINE
  5
374
100
AcDbEntity
  8
ASSI
100
AcDbLine
 62
253
  6
CONTINUOUS
 10
-8.0840245667
 20
-20.9
 11
-8.0840245667
 21
-21.5659754333
  0
LINE
  5
375
100
AcDbEntity
  8
CURVE
100
AcDbLine
 62
253
  6
CONTINUOUS
 10
-7.9642857254
 20
1.0357141972
 11
-7.9642857254
 21
1.5928570986
  0
LINE
  5
376
100
AcDbEntity
  8
RACCORDO
100
AcDbLine
 62
253
  6
CONTINUOUS
 10
-7.5841007192
 20
21.3126932437
 11
-7.5841007192
 21
20.9
  0
LINE
  5
377
100
AcDbEntity
  8
ASSI
100
AcDbLine
 62
253
  6
CONTINUOUS
 10
-7.5841007192
 20
21.3126932437
 11
-7.5841007192
 21
20.9
  0
LINE
  5
378
100
AcDbEntity
  8
RACCORDO
100
AcDbLine
 62
253
  6
CONTINUOUS
 10
-7.5841007192
 20
-20.9
 11
-7.5841007192
 21
-21.3126932437
  0
LINE
  5
379
100
AcDbEntity
  8
ASSI
100
AcDbLine
 62
253
  6
CONTINUOUS
 10
-7.5841007192
 20
-20.9
 11
-7.5841007192
 21
-21.3126932437
  0
LINE
  5
37A
100
AcDbEntity
  8
CURVE
100
AcDbLine
 62
253
  6
CONTINUOUS
 10
-7.5
 20
13.4166670799
 11
-7.5
 21
13.3238090515
  0
LINE
  5
37B
100
AcDbEntity
  8
CURVE
100
AcDbLine
 62
253
  6
CONTINUOUS
 10
-7.5
 20
10.3833329201
 11
-7.5
 21
10.2904761314
  0
LINE
  5
37C
100
AcDbEntity
  8
CURVE
100
AcDbLine
 62
253
  6
CONTINUOUS
 10
-7.5
 20
4.2857141972
 11
-7.5
 21
4.1928574085
  0
LINE
  5
37D
100
AcDbEntity
  8
CURVE
100
AcDbLine
 62
253
  6
CONTINUOUS
 10
-7.5
 20
2.6142858028
 11
-7.5
 21
1.9642858028
  0
LINE
  5
37E
100
AcDbEntity
  8
CURVE
100
AcDbLine
 62
253
  6
CONTINUOUS
 10
-7.5
 20
0.3857143521
 11
-7.5
 21
0.2928570986
  0
LINE
  5
37F
100
AcDbEntity
  8
CURVE
100
AcDbLine
 62
253
  6
CONTINUOUS
 10
-7.5
 20
-0.3571429014
 11
-7.5
 21
-1.0071428239
  0
LINE
  5
380
100
AcDbEntity
  8
CURVE
100
AcDbLine
 62
253
  6
CONTINUOUS
 10
-7.5
 20
2.9857141972
 11
-7.5
 21
3.45
  0
LINE
  5
381
100
AcDbEntity
  8
CURVE
100
AcDbLine
 62
253
  6
CONTINUOUS
 10
-7.5
 20
9.0833329201
 11
-7.5
 21
9.4547613144
  0
LINE
  5
382
100
AcDbEntity
  8
CURVE
100
AcDbLine
 62
253
  6
CONTINUOUS
 10
-7.5
 20
12.2095238686
 11
-7.5
 21
12.4880954742
  0
LINE
  5
383
100
AcDbEntity
  8
CURVE
100
AcDbLine
 62
253
  6
CONTINUOUS
 10
-7.5
 20
15.0880954742
 11
-7.5
 21
15.6452386856
  0
LINE
  5
384
100
AcDbEntity
  8
DRAFT
100
AcDbLine
 62
7
  6
CONTINUOUS
 10
-7.4890208311
 20
-20.85
 11
-7.4890208311
 21
-19.6109791689
  0
LINE
  5
385
100
AcDbEntity
  8
ASSI
100
AcDbLine
 62
7
  6
CONTINUOUS
 10
-7.4890208311
 20
-20.85
 11
-7.4890208311
 21
-19.6109791689
  0
LINE
  5
386
100
AcDbEntity
  8
DRAFT
100
AcDbLine
 62
7
  6
CONTINUOUS
 10
-7.4890208311
 20
19.6109791689
 11
-7.4890208311
 21
20.85
  0
LINE
  5
387
100
AcDbEntity
  8
ASSI
100
AcDbLine
 62
7
  6
CONTINUOUS
 10
-7.4890208311
 20
19.6109791689
 11
-7.4890208311
 21
20.85
  0
LINE
  5
388
100
AcDbEntity
  8
DRAFT
100
AcDbLine
 62
7
  6
CONTINUOUS
 10
-7.4
 20
-20.85
 11
-7.4
 21
-19.7
  0
LINE
  5
389
100
AcDbEntity
  8
ASSI
100
AcDbLine
 62
7
  6
CONTINUOUS
 10
-7.4
 20
-20.85
 11
-7.4
 21
-19.7
  0
LINE
  5
38A
100
AcDbEntity
  8
DRAFT
100
AcDbLine
 62
7
  6
CONTINUOUS
 10
-7.4
 20
19.7
 11
-7.4
 21
20.85
  0
LINE
  5
38B
100
AcDbEntity
  8
ASSI
100
AcDbLine
 62
7
  6
CONTINUOUS
 10
-7.4
 20
19.7
 11
-7.4
 21
20.85
  0
LINE
  5
38C
100
AcDbEntity
  8
RACCORDO
100
AcDbLine
 62
7
  6
CONTINUOUS
 10
-7.3517786853
 20
20.1488813944
 11
-7.3517786853
 21
19.7
  0
LINE
  5
38D
100
AcDbEntity
  8
ASSI
100
AcDbLine
 62
7
  6
CONTINUOUS
 10
-7.3517786853
 20
20.1488813944
 11
-7.3517786853
 21
19.7
  0
LINE
  5
38E
100
AcDbEntity
  8
RACCORDO
100
AcDbLine
 62
7
  6
CONTINUOUS
 10
-7.3517786853
 20
-20.1488813944
 11
-7.3517786853
 21
-19.7
  0
LINE
  5
38F
100
AcDbEntity
  8
ASSI
100
AcDbLine
 62
7
  6
CONTINUOUS
 10
-7.3517786853
 20
-20.1488813944
 11
-7.3517786853
 21
-19.7
  0
LINE
  5
390
100
AcDbEntity
  8
RACCORDO
100
AcDbLine
 62
253
  6
CONTINUOUS
 10
-7.2438103287
 20
-20.9
 11
-7.2438103287
 21
-19.7561896713
  0
LINE
  5
391
100
AcDbEntity
  8
ASSI
100
AcDbLine
 62
7
  6
CONTINUOUS
 10
-7.2438103287
 20
-20.9
 11
-7.2438103287
 21
-19.7561896713
  0
LINE
  5
392
100
AcDbEntity
  8
RACCORDO
100
AcDbLine
 62
253
  6
CONTINUOUS
 10
-7.2438103287
 20
19.7561896713
 11
-7.2438103287
 21
20.9
  0
LINE
  5
393
100
AcDbEntity
  8
ASSI
100
AcDbLine
 62
7
  6
CONTINUOUS
 10
-7.2438103287
 20
19.7561896713
 11
-7.2438103287
 21
20.9
  0
LINE
  5
394
100
AcDbEntity
  8
RACCORDO
100
AcDbLine
 62
253
  6
CONTINUOUS
 10
-8.4992770021
 20
-23.1226497308
 11
-8.5043676032
 21
-23.6278312164
  0
LINE
  5
395
100
AcDbEntity
  8
ASSI
100
AcDbLine
 62
253
  6
CONTINUOUS
 10
-8.4992770021
 20
-23.1226497308
 11
-8.5043676032
 21
-23.6278312164
  0
LINE
  5
396
100
AcDbEntity
  8
RACCORDO
100
AcDbLine
 62
253
  6
CONTINUOUS
 10
-8.25
 20
-23.4104851482
 11
-8.254371834
 21
-23.8443375673
  0
LINE
  5
397
100
AcDbEntity
  8
ASSI
100
AcDbLine
 62
253
  6
CONTINUOUS
 10
-8.25
 20
-23.4104851482
 11
-8.254371834
 21
-23.8443375673
  0
LINE
  5
398
100
AcDbEntity
  8
DRAFT
100
AcDbLine
 62
7
  6
CONTINUOUS
 10
4.4
 20
22.4
 11
4.3559327327
 21
22.3338981669
  0
LINE
  5
399
100
AcDbEntity
  8
ASSI
100
AcDbLine
 62
7
  6
CONTINUOUS
 10
4.4
 20
22.4
 11
4.3559327327
 21
22.3338981669
  0
LINE
  5
39A
100
AcDbEntity
  8
SMUSSO
100
AcDbLine
 62
7
  6
CONTINUOUS
 10
-5.25
 20
7.15
 11
-5.8273502692
 21
6.5726497308
  0
LINE
  5
39B
100
AcDbEntity
  8
ASSI
100
AcDbLine
 62
7
  6
CONTINUOUS
 10
-5.25
 20
7.15
 11
-5.8273502692
 21
6.5726497308
  0
LINE
  5
39C
100
AcDbEntity
  8
CURVE
100
AcDbLine
 62
253
  6
CONTINUOUS
 10
-7.5
 20
4.1928574085
 11
-7.685714294
 21
4.0071425915
  0
LINE
  5
39D
100
AcDbEntity
  8
CURVE
100
AcDbLine
 62
253
  6
CONTINUOUS
 10
-8.0571428627
 20
3.5428574085
 11
-8.2428571761
 21
3.3571429014
  0
LINE
  5
39E
100
AcDbEntity
  8
CURVE
100
AcDbLine
 62
253
  6
CONTINUOUS
 10
-8.6142857254
 20
2.6142858028
 11
-8.8
 21
2.4285712957
  0
LINE
  5
39F
100
AcDbEntity
  8
CURVE
100
AcDbLine
 62
253
  6
CONTINUOUS
 10
-6.4285714507
 20
4.6642858028
 11
-6.3357142746
 21
4.7571425915
  0
LINE
  5
3A0
100
AcDbEntity
  8
CURVE
100
AcDbLine
 62
253
  6
CONTINUOUS
 10
-6.8
 20
3.2714287043
 11
-6.6142857254
 21
3.4571429014
  0
LINE
  5
3A1
100
AcDbEntity
  8
CURVE
100
AcDbLine
 62
253
  6
CONTINUOUS
 10
-8.6142857254
 20
3.5119045258
 11
-8.8
 21
3.3571429014
  0
LINE
  5
3A2
100
AcDbEntity
  8
CURVE
100
AcDbLine
 62
253
  6
CONTINUOUS
 10
-8.6142857254
 20
4.4714283943
 11
-8.4285714507
 21
4.5642858028
  0
LINE
  5
3A3
100
AcDbEntity
  8
CURVE
100
AcDbLine
 62
253
  6
CONTINUOUS
 10
-8.8
 20
4.9357141972
 11
-7.5
 21
5.3071425915
  0
LINE
  5
3A4
100
AcDbEntity
  8
CURVE
100
AcDbLine
 62
253
  6
CONTINUOUS
 10
-6.8
 20
5.5
 11
-5.5
 21
5.8714283943
  0
LINE
  5
3A5
100
AcDbEntity
  8
CURVE
100
AcDbLine
 62
253
  6
CONTINUOUS
 10
10.8235902858
 20
-8.7261904716
 11
10.8008987014
 21
-8.7261904716
  0
LINE
  5
3A6
100
AcDbEntity
  8
CURVE
100
AcDbLine
 62
253
  6
CONTINUOUS
 10
-8.4285714507
 20
-1.75
 11
-8.8
 21
-1.378571412
  0
LINE
  5
3A7
100
AcDbEntity
  8
DRAFT
100
AcDbLine
 62
7
  6
CONTINUOUS
 10
4.4
 20
-22.4
 11
4.3559327327
 21
-22.3338981669
  0
LINE
  5
3A8
100
AcDbEntity
  8
ASSI
100
AcDbLine
 62
7
  6
CONTINUOUS
 10
4.4
 20
-22.4
 11
4.3559327327
 21
-22.3338981669
  0
LINE
  5
3A9
100
AcDbEntity
  8
SMUSSO
100
AcDbLine
 62
7
  6
CONTINUOUS
 10
-6.3503593119
 20
-2.8996406881
 11
-6.3521043532
 21
-2.6979261096
  0
LINE
  5
3AA
100
AcDbEntity
  8
ASSI
100
AcDbLine
 62
7
  6
CONTINUOUS
 10
-6.3503593119
 20
-2.8996406881
 11
-6.3521043532
 21
-2.6979261096
  0
LINE
  5
3AB
100
AcDbEntity
  8
RACCORDO
100
AcDbLine
 62
253
  6
CONTINUOUS
 10
-6.9
 20
20.9
 11
-6.9
 21
20.5829242832
  0
LINE
  5
3AC
100
AcDbEntity
  8
ASSI
100
AcDbLine
 62
253
  6
CONTINUOUS
 10
-6.9
 20
20.9
 11
-6.9
 21
20.5829242832
  0
LINE
  5
3AD
100
AcDbEntity
  8
RACCORDO
100
AcDbLine
 62
253
  6
CONTINUOUS
 10
-6.9
 20
-20.5829242832
 11
-6.9
 21
-20.9
  0
LINE
  5
3AE
100
AcDbEntity
  8
ASSI
100
AcDbLine
 62
253
  6
CONTINUOUS
 10
-6.9
 20
-20.5829242832
 11
-6.9
 21
-20.9
  0
LINE
  5
3AF
100
AcDbEntity
  8
CURVE
100
AcDbLine
 62
253
  6
CONTINUOUS
 10
-6.8
 20
-1.0
 11
-6.8
 21
-0.35
  0
LINE
  5
3B0
100
AcDbEntity
  8
CURVE
100
AcDbLine
 62
253
  6
CONTINUOUS
 10
-6.8
 20
0.3
 11
-6.8
 21
0.3928570986
  0
LINE
  5
3B1
100
AcDbEntity
  8
CURVE
100
AcDbLine
 62
253
  6
CONTINUOUS
 10
-6.8
 20
1.9714287043
 11
-6.8
 21
2.5285712957
  0
LINE
  5
3B2
100
AcDbEntity
  8
CURVE
100
AcDbLine
 62
253
  6
CONTINUOUS
 10
-6.8
 20
3.1785712957
 11
-6.8
 21
3.2714287043
  0
LINE
  5
3B3
100
AcDbEntity
  8
RACCORDO
100
AcDbLine
 62
7
  6
CONTINUOUS
 10
-6.75
 20
-19.1187463379
 11
-6.75
 21
-1.8909141526
  0
LINE
  5
3B4
100
AcDbEntity
  8
ASSI
100
AcDbLine
 62
7
  6
CONTINUOUS
 10
-6.75
 20
-19.1187463379
 11
-6.75
 21
-1.8909141526
  0
LINE
  5
3B5
100
AcDbEntity
  8
0
100
AcDbLine
 62
7
  6
CONTINUOUS
 10
-6.65
 20
-19.0760242242
 11
-6.65
 21
-3.1
  0
LINE
  5
3B6
100
AcDbEntity
  8
RACCORDO
100
AcDbLine
 62
253
  6
CONTINUOUS
 10
-6.5561896713
 20
20.1086060399
 11
-6.5561896713
 21
19.7561896713
  0
LINE
  5
3B7
100
AcDbEntity
  8
ASSI
100
AcDbLine
 62
7
  6
CONTINUOUS
 10
-6.5561896713
 20
20.1086060399
 11
-6.5561896713
 21
19.7561896713
  0
LINE
  5
3B8
100
AcDbEntity
  8
RACCORDO
100
AcDbLine
 62
253
  6
CONTINUOUS
 10
-6.5561896713
 20
-19.7561896713
 11
-6.5561896713
 21
-20.1086060399
  0
LINE
  5
3B9
100
AcDbEntity
  8
ASSI
100
AcDbLine
 62
7
  6
CONTINUOUS
 10
-6.5561896713
 20
-19.7561896713
 11
-6.5561896713
 21
-20.1086060399
  0
LINE
  5
3BA
100
AcDbEntity
  8
DRAFT
100
AcDbLine
 62
7
  6
CONTINUOUS
 10
-6.4482213147
 20
19.9223308767
 11
-6.4482213147
 21
19.7
  0
LINE
  5
3BB
100
AcDbEntity
  8
ASSI
100
AcDbLine
 62
7
  6
CONTINUOUS
 10
-6.4482213147
 20
19.9223308767
 11
-6.4482213147
 21
19.7
  0
LINE
  5
3BC
100
AcDbEntity
  8
DRAFT
100
AcDbLine
 62
7
  6
CONTINUOUS
 10
-6.4482213147
 20
-19.7
 11
-6.4482213147
 21
-19.9223308767
  0
LINE
  5
3BD
100
AcDbEntity
  8
ASSI
100
AcDbLine
 62
7
  6
CONTINUOUS
 10
-6.4482213147
 20
-19.7
 11
-6.4482213147
 21
-19.9223308767
  0
LINE
  5
3BE
100
AcDbEntity
  8
CURVE
100
AcDbLine
 62
253
  6
CONTINUOUS
 10
-6.4285714507
 20
3.9214287043
 11
-6.4285714507
 21
4.6642858028
  0
LINE
  5
3BF
100
AcDbEntity
  8
SMUSSO
100
AcDbLine
 62
7
  6
CONTINUOUS
 10
-6.3521043532
 20
-19.1187463379
 11
-6.3521043532
 21
-19.0760242242
  0
LINE
  5
3C0
100
AcDbEntity
  8
ASSI
100
AcDbLine
 62
7
  6
CONTINUOUS
 10
-6.3521043532
 20
-19.1187463379
 11
-6.3521043532
 21
-19.0760242242
  0
LINE
  5
3C1
100
AcDbEntity
  8
SMUSSO
100
AcDbLine
 62
7
  6
CONTINUOUS
 10
-6.3521043532
 20
-3.1
 11
-6.3521043532
 21
-2.6979261096
  0
LINE
  5
3C2
100
AcDbEntity
  8
ASSI
100
AcDbLine
 62
7
  6
CONTINUOUS
 10
-6.3521043532
 20
-3.1
 11
-6.3521043532
 21
-2.6979261096
  0
LINE
  5
3C3
100
AcDbEntity
  8
DRAFT
100
AcDbLine
 62
7
  6
CONTINUOUS
 10
-6.3459955457
 20
-3.1
 11
-6.3459955457
 21
-2.9040044543
  0
LINE
  5
3C4
100
AcDbEntity
  8
ASSI
100
AcDbLine
 62
7
  6
CONTINUOUS
 10
-6.3459955457
 20
-3.1
 11
-6.3459955457
 21
-2.9040044543
  0
LINE
  5
3C5
100
AcDbEntity
  8
RACCORDO
100
AcDbLine
 62
7
  6
CONTINUOUS
 10
-6.3
 20
-3.1
 11
-6.3
 21
-2.9040044543
  0
LINE
  5
3C6
100
AcDbEntity
  8
DRAFT
100
AcDbLine
 62
7
  6
CONTINUOUS
 10
-6.25
 20
-19.3229705976
 11
-6.25
 21
-19.0760242242
  0
LINE
  5
3C7
100
AcDbEntity
  8
ASSI
100
AcDbLine
 62
7
  6
CONTINUOUS
 10
-6.25
 20
-19.3229705976
 11
-6.25
 21
-19.0760242242
  0
LINE
  5
3C8
100
AcDbEntity
  8
CURVE
100
AcDbLine
 62
253
  6
CONTINUOUS
 10
-6.2428571761
 20
2.3428570986
 11
-6.2428571761
 21
1.9714287043
  0
LINE
  5
3C9
100
AcDbEntity
  8
DRAFT
100
AcDbLine
 62
7
  6
CONTINUOUS
 10
-6.202003141
 20
-3.1
 11
-6.202003141
 21
-3.0
  0
LINE
  5
3CA
100
AcDbEntity
  8
ASSI
100
AcDbLine
 62
7
  6
CONTINUOUS
 10
-6.202003141
 20
-3.1
 11
-6.202003141
 21
-3.0
  0
LINE
  5
3CB
100
AcDbEntity
  8
0
100
AcDbLine
 62
7
  6
CONTINUOUS
 10
-6.15
 20
-19.0760242242
 11
-6.15
 21
-19.121932718
  0
LINE
  5
3CC
100
AcDbEntity
  8
CURVE
100
AcDbLine
 62
253
  6
CONTINUOUS
 10
-5.9642857254
 20
1.0428570986
 11
-5.9642857254
 21
1.6
  0
LINE
  5
3CD
100
AcDbEntity
  8
CURVE
100
AcDbLine
 62
253
  6
CONTINUOUS
 10
-5.871428588
 20
5.2523806572
 11
-5.871428588
 21
5.7476193428
  0
LINE
  5
3CE
100
AcDbEntity
  8
SMUSSO
100
AcDbLine
 62
7
  6
CONTINUOUS
 10
-5.8273502692
 20
6.5726497308
 11
-5.8273502692
 21
11.0273502692
  0
LINE
  5
3CF
100
AcDbEntity
  8
ASSI
100
AcDbLine
 62
7
  6
CONTINUOUS
 10
-5.8273502692
 20
6.5726497308
 11
-5.8273502692
 21
11.0273502692
  0
LINE
  5
3D0
100
AcDbEntity
  8
SMUSSO
100
AcDbLine
 62
7
  6
CONTINUOUS
 10
-5.8273502692
 20
11.5726497308
 11
-5.8273502692
 21
16.0273502692
  0
LINE
  5
3D1
100
AcDbEntity
  8
ASSI
100
AcDbLine
 62
7
  6
CONTINUOUS
 10
-5.8273502692
 20
11.5726497308
 11
-5.8273502692
 21
16.0273502692
  0
LINE
  5
3D2
100
AcDbEntity
  8
CURVE
100
AcDbLine
 62
253
  6
CONTINUOUS
 10
-5.5
 20
3.2714287043
 11
-5.5
 21
3.1785712957
  0
LINE
  5
3D3
100
AcDbEntity
  8
CURVE
100
AcDbLine
 62
253
  6
CONTINUOUS
 10
-5.5
 20
0.3928570986
 11
-5.5
 21
0.3
  0
LINE
  5
3D4
100
AcDbEntity
  8
CURVE
100
AcDbLine
 62
253
  6
CONTINUOUS
 10
-5.5
 20
1.9714287043
 11
-5.5
 21
2.3428570986
  0
LINE
  5
3D5
100
AcDbEntity
  8
SMUSSO
100
AcDbLine
 62
7
  6
CONTINUOUS
 10
-5.25
 20
7.15
 11
-5.25
 21
10.45
  0
LINE
  5
3D6
100
AcDbEntity
  8
ASSI
100
AcDbLine
 62
7
  6
CONTINUOUS
 10
-5.25
 20
7.15
 11
-5.25
 21
10.45
  0
LINE
  5
3D7
100
AcDbEntity
  8
SMUSSO
100
AcDbLine
 62
7
  6
CONTINUOUS
 10
-5.25
 20
12.15
 11
-5.25
 21
15.45
  0
LINE
  5
3D8
100
AcDbEntity
  8
ASSI
100
AcDbLine
 62
7
  6
CONTINUOUS
 10
-5.25
 20
12.15
 11
-5.25
 21
15.45
  0
LINE
  5
3D9
100
AcDbEntity
  8
RACCORDO
100
AcDbLine
 62
7
  6
CONTINUOUS
 10
6.555294768
 20
20.0829433217
 11
6.4482213147
 21
19.9223308767
  0
LINE
  5
3DA
100
AcDbEntity
  8
ASSI
100
AcDbLine
 62
7
  6
CONTINUOUS
 10
6.555294768
 20
20.0829433217
 11
6.4482213147
 21
19.9223308767
  0
LINE
  5
3DB
100
AcDbEntity
  8
CURVE
100
AcDbLine
 62
253
  6
CONTINUOUS
 10
-8.8
 20
0.3857143521
 11
-8.6142857254
 21
0.5714285493
  0
LINE
  5
3DC
100
AcDbEntity
  8
RACCORDO
100
AcDbLine
 62
253
  6
CONTINUOUS
 10
9.1754487874
 20
18.1220850228
 11
9.8824478728
 21
18.8290841082
  0
LINE
  5
3DD
100
AcDbEntity
  8
ASSI
100
AcDbLine
 62
253
  6
CONTINUOUS
 10
9.1754487874
 20
18.1220850228
 11
9.8824478728
 21
18.8290841082
  0
LINE
  5
3DE
100
AcDbEntity
  8
RACCORDO
100
AcDbLine
 62
253
  6
CONTINUOUS
 10
9.1937065949
 20
18.1038272153
 11
9.9007056803
 21
18.8108263007
  0
LINE
  5
3DF
100
AcDbEntity
  8
ASSI
100
AcDbLine
 62
253
  6
CONTINUOUS
 10
9.1937065949
 20
18.1038272153
 11
9.9007056803
 21
18.8108263007
  0
LINE
  5
3E0
100
AcDbEntity
  8
SMUSSO
100
AcDbLine
 62
7
  6
CONTINUOUS
 10
1.75
 20
10.45
 11
2.3273502692
 21
11.0273502692
  0
LINE
  5
3E1
100
AcDbEntity
  8
ASSI
100
AcDbLine
 62
7
  6
CONTINUOUS
 10
1.75
 20
10.45
 11
2.3273502692
 21
11.0273502692
  0
LINE
  5
3E2
100
AcDbEntity
  8
CURVE
100
AcDbLine
 62
253
  6
CONTINUOUS
 10
-5.5
 20
3.1785712957
 11
-5.685714294
 21
2.9928570986
  0
LINE
  5
3E3
100
AcDbEntity
  8
CURVE
100
AcDbLine
 62
253
  6
CONTINUOUS
 10
-6.0571428627
 20
2.5285712957
 11
-6.2428571761
 21
2.3428570986
  0
LINE
  5
3E4
100
AcDbEntity
  8
CURVE
100
AcDbLine
 62
253
  6
CONTINUOUS
 10
-8.6142857254
 20
-0.3571429014
 11
-8.8
 21
-0.5428571761
  0
LINE
  5
3E5
100
AcDbEntity
  8
CURVE
100
AcDbLine
 62
253
  6
CONTINUOUS
 10
-7.5
 20
0.2928570986
 11
-7.685714294
 21
0.1071429014
  0
LINE
  5
3E6
100
AcDbEntity
  8
CURVE
100
AcDbLine
 62
253
  6
CONTINUOUS
 10
-7.685714294
 20
4.0071425915
 11
-7.871428588
 21
3.9142858028
  0
LINE
  5
3E7
100
AcDbEntity
  8
CURVE
100
AcDbLine
 62
253
  6
CONTINUOUS
 10
3.1
 20
8.5
 11
5.0
 21
9.45
  0
LINE
  5
3E8
100
AcDbEntity
  8
CURVE
100
AcDbLine
 62
253
  6
CONTINUOUS
 10
-6.6142857254
 20
3.4571429014
 11
-6.4285714507
 21
3.55
  0
LINE
  5
3E9
100
AcDbEntity
  8
CURVE
100
AcDbLine
 62
7
  6
CONTINUOUS
 10
11.0624359936
 20
-6.866738
 11
11.0540263841
 21
-6.866738
  0
LINE
  5
3EA
100
AcDbEntity
  8
CURVE
100
AcDbLine
 62
253
  6
CONTINUOUS
 10
10.8235902858
 20
-6.5285717487
 11
10.8008987014
 21
-6.5285717487
  0
LINE
  5
3EB
100
AcDbEntity
  8
CURVE
100
AcDbLine
 62
253
  6
CONTINUOUS
 10
10.8041403565
 20
-6.0023811102
 11
10.8203486311
 21
-6.0023811102
  0
LINE
  5
3EC
100
AcDbEntity
  8
CURVE
100
AcDbLine
 62
7
  6
CONTINUOUS
 10
11.1046306717
 20
-5.793739
 11
11.0624359936
 21
-5.793739
  0
LINE
  5
3ED
100
AcDbEntity
  8
CURVE
100
AcDbLine
 62
253
  6
CONTINUOUS
 10
10.8235902858
 20
-5.3523812652
 11
10.8008987014
 21
-5.3523812652
  0
LINE
  5
3EE
100
AcDbEntity
  8
CURVE
100
AcDbLine
 62
253
  6
CONTINUOUS
 10
-8.8
 20
-0.8214285493
 11
-8.5214285493
 21
-1.0071428239
  0
LINE
  5
3EF
100
AcDbEntity
  8
SMUSSO
100
AcDbLine
 62
7
  6
CONTINUOUS
 10
-6.3459955457
 20
-2.9040044543
 11
-6.3503593119
 21
-2.8996406881
  0
LINE
  5
3F0
100
AcDbEntity
  8
ASSI
100
AcDbLine
 62
7
  6
CONTINUOUS
 10
-6.3459955457
 20
-2.9040044543
 11
-6.3503593119
 21
-2.8996406881
  0
LINE
  5
3F1
100
AcDbEntity
  8
SUPERFICI
100
AcDbLine
 62
253
  6
CONTINUOUS
 10
9.1937005118
 20
-18.1038332984
 11
9.9004640385
 21
-18.8105968252
  0
LINE
  5
3F2
100
AcDbEntity
  8
CURVE
100
AcDbLine
 62
253
  6
CONTINUOUS
 10
-8.6142857254
 20
0.1071429014
 11
-8.8
 21
0.2928570986
  0
LINE
  5
3F3
100
AcDbEntity
  8
RACCORDO
100
AcDbLine
 62
7
  6
CONTINUOUS
 10
6.555294768
 20
-20.0829433217
 11
6.4482213147
 21
-19.9223308767
  0
LINE
  5
3F4
100
AcDbEntity
  8
ASSI
100
AcDbLine
 62
7
  6
CONTINUOUS
 10
6.555294768
 20
-20.0829433217
 11
6.4482213147
 21
-19.9223308767
  0
LINE
  5
3F5
100
AcDbEntity
  8
CURVE
100
AcDbLine
 62
253
  6
CONTINUOUS
 10
-8.2428571761
 20
3.3571429014
 11
-8.3357142746
 21
3.5119045258
  0
LINE
  5
3F6
100
AcDbEntity
  8
DRAFT
100
AcDbLine
 62
7
  6
CONTINUOUS
 10
-6.25
 20
-2.9040044543
 11
-6.202003141
 21
-3.0
  0
LINE
  5
3F7
100
AcDbEntity
  8
ASSI
100
AcDbLine
 62
7
  6
CONTINUOUS
 10
-6.25
 20
-2.9040044543
 11
-6.202003141
 21
-3.0
  0
LINE
  5
3F8
100
AcDbEntity
  8
SMUSSO
100
AcDbLine
 62
7
  6
CONTINUOUS
 10
-3.6176696161
 20
-2.5720953298
 11
-3.6148360075
 21
-2.8996406881
  0
LINE
  5
3F9
100
AcDbEntity
  8
ASSI
100
AcDbLine
 62
7
  6
CONTINUOUS
 10
-3.6176696161
 20
-2.5720953298
 11
-3.6148360075
 21
-2.8996406881
  0
LINE
  5
3FA
100
AcDbEntity
  8
0
100
AcDbLine
 62
7
  6
CONTINUOUS
 10
-4.5
 20
7.5
 11
-4.5
 21
10.1
  0
LINE
  5
3FB
100
AcDbEntity
  8
0
100
AcDbLine
 62
7
  6
CONTINUOUS
 10
-4.5
 20
12.5
 11
-4.5
 21
15.1
  0
LINE
  5
3FC
100
AcDbEntity
  8
DRAFT
100
AcDbLine
 62
7
  6
CONTINUOUS
 10
-4.4
 20
23.8
 11
-4.4
 21
22.4
  0
LINE
  5
3FD
100
AcDbEntity
  8
ASSI
100
AcDbLine
 62
7
  6
CONTINUOUS
 10
-4.4
 20
23.8
 11
-4.4
 21
22.4
  0
LINE
  5
3FE
100
AcDbEntity
  8
DRAFT
100
AcDbLine
 62
7
  6
CONTINUOUS
 10
-4.4
 20
-22.4
 11
-4.4
 21
-23.8
  0
LINE
  5
3FF
100
AcDbEntity
  8
ASSI
100
AcDbLine
 62
7
  6
CONTINUOUS
 10
-4.4
 20
-22.4
 11
-4.4
 21
-23.8
  0
LINE
  5
400
100
AcDbEntity
  8
ASSI
100
AcDbLine
 62
7
  6
CONTINUOUS
 10
-4.3559327327
 20
23.7507734247
 11
-4.3559327327
 21
22.3338981669
  0
LINE
  5
401
100
AcDbEntity
  8
ASSI
100
AcDbLine
 62
7
  6
CONTINUOUS
 10
-4.3559327327
 20
-22.3338981669
 11
-4.3559327327
 21
-23.7507734247
  0
LINE
  5
402
100
AcDbEntity
  8
SMUSSO
100
AcDbLine
 62
7
  6
CONTINUOUS
 10
-4.1
 20
-1.8909141526
 11
-4.1
 21
0.7
  0
LINE
  5
403
100
AcDbEntity
  8
ASSI
100
AcDbLine
 62
7
  6
CONTINUOUS
 10
-4.1
 20
-1.8909141526
 11
-4.1
 21
0.7
  0
LINE
  5
404
100
AcDbEntity
  8
SMUSSO
100
AcDbLine
 62
7
  6
CONTINUOUS
 10
-3.6176696161
 20
-2.5720953298
 11
-3.6176696161
 21
0.2176696161
  0
LINE
  5
405
100
AcDbEntity
  8
ASSI
100
AcDbLine
 62
7
  6
CONTINUOUS
 10
-3.6176696161
 20
-2.5720953298
 11
-3.6176696161
 21
0.2176696161
  0
LINE
  5
406
100
AcDbEntity
  8
DRAFT
100
AcDbLine
 62
7
  6
CONTINUOUS
 10
-3.6
 20
-1.5148356752
 11
-3.6
 21
-2.9144766957
  0
LINE
  5
407
100
AcDbEntity
  8
ASSI
100
AcDbLine
 62
7
  6
CONTINUOUS
 10
-3.6
 20
-1.5148356752
 11
-3.6
 21
-2.9144766957
  0
LINE
  5
408
100
AcDbEntity
  8
ASSI
100
AcDbLine
 62
7
  6
CONTINUOUS
 10
-3.5
 20
23.7511422903
 11
-3.5
 21
22.3339198952
  0
LINE
  5
409
100
AcDbEntity
  8
DRAFT
100
AcDbLine
 62
7
  6
CONTINUOUS
 10
-3.5
 20
20.0445070257
 11
-3.5
 21
20.0
  0
LINE
  5
40A
100
AcDbEntity
  8
ASSI
100
AcDbLine
 62
7
  6
CONTINUOUS
 10
-3.5
 20
20.0445070257
 11
-3.5
 21
20.0
  0
LINE
  5
40B
100
AcDbEntity
  8
DRAFT
100
AcDbLine
 62
7
  6
CONTINUOUS
 10
-3.5
 20
19.9
 11
-3.5
 21
19.7
  0
LINE
  5
40C
100
AcDbEntity
  8
ASSI
100
AcDbLine
 62
7
  6
CONTINUOUS
 10
-3.5
 20
19.9
 11
-3.5
 21
19.7
  0
LINE
  5
40D
100
AcDbEntity
  8
0
100
AcDbLine
 62
7
  6
CONTINUOUS
 10
-3.5
 20
-0.6
 11
-3.5
 21
-2.3
  0
LINE
  5
40E
100
AcDbEntity
  8
DRAFT
100
AcDbLine
 62
7
  6
CONTINUOUS
 10
-3.5
 20
-19.7
 11
-3.5
 21
-19.9
  0
LINE
  5
40F
100
AcDbEntity
  8
ASSI
100
AcDbLine
 62
7
  6
CONTINUOUS
 10
-3.5
 20
-19.7
 11
-3.5
 21
-19.9
  0
LINE
  5
410
100
AcDbEntity
  8
DRAFT
100
AcDbLine
 62
7
  6
CONTINUOUS
 10
-3.5
 20
-20.0445070257
 11
-3.5
 21
-20.0
  0
LINE
  5
411
100
AcDbEntity
  8
ASSI
100
AcDbLine
 62
7
  6
CONTINUOUS
 10
-3.5
 20
-20.0445070257
 11
-3.5
 21
-20.0
  0
LINE
  5
412
100
AcDbEntity
  8
ASSI
100
AcDbLine
 62
7
  6
CONTINUOUS
 10
-3.5
 20
-22.3339198952
 11
-3.5
 21
-23.7511422903
  0
LINE
  5
413
100
AcDbEntity
  8
ASSI
100
AcDbLine
 62
7
  6
CONTINUOUS
 10
-3.5
 20
-23.7561448042
 11
-3.5
 21
-23.7941821702
  0
LINE
  5
414
100
AcDbEntity
  8
SMUSSO
100
AcDbLine
 62
7
  6
CONTINUOUS
 10
-3.5
 20
-3.1
 11
-3.5
 21
-2.3
  0
LINE
  5
415
100
AcDbEntity
  8
0
100
AcDbLine
 62
7
  6
CONTINUOUS
 10
-3.5
 20
7.5
 11
-3.5
 21
10.1
  0
LINE
  5
416
100
AcDbEntity
  8
0
100
AcDbLine
 62
7
  6
CONTINUOUS
 10
-3.5
 20
12.5
 11
-3.5
 21
15.1
  0
LINE
  5
417
100
AcDbEntity
  8
ASSI
100
AcDbLine
 62
7
  6
CONTINUOUS
 10
-3.5
 20
23.7561448042
 11
-3.5
 21
23.7941821702
  0
LINE
  5
418
100
AcDbEntity
  8
DRAFT
100
AcDbLine
 62
7
  6
CONTINUOUS
 10
-3.4109791689
 20
19.8109791689
 11
-3.4109791689
 21
19.6109791689
  0
LINE
  5
419
100
AcDbEntity
  8
ASSI
100
AcDbLine
 62
7
  6
CONTINUOUS
 10
-3.4109791689
 20
19.8109791689
 11
-3.4109791689
 21
19.6109791689
  0
LINE
  5
41A
100
AcDbEntity
  8
DRAFT
100
AcDbLine
 62
7
  6
CONTINUOUS
 10
-3.4109791689
 20
-19.6109791689
 11
-3.4109791689
 21
-19.8109791689
  0
LINE
  5
41B
100
AcDbEntity
  8
ASSI
100
AcDbLine
 62
7
  6
CONTINUOUS
 10
-3.4109791689
 20
-19.6109791689
 11
-3.4109791689
 21
-19.8109791689
  0
LINE
  5
41C
100
AcDbEntity
  8
CURVE
100
AcDbLine
 62
253
  6
CONTINUOUS
 10
-6.8
 20
0.3928570986
 11
-6.6142857254
 21
0.5785714507
  0
LINE
  5
41D
100
AcDbEntity
  8
CURVE
100
AcDbLine
 62
253
  6
CONTINUOUS
 10
-5.5
 20
0.3
 11
-5.685714294
 21
0.1142857254
  0
LINE
  5
41E
100
AcDbEntity
  8
CURVE
100
AcDbLine
 62
253
  6
CONTINUOUS
 10
-5.685714294
 20
2.9928570986
 11
-5.871428588
 21
2.9
  0
LINE
  5
41F
100
AcDbEntity
  8
CURVE
100
AcDbLine
 62
253
  6
CONTINUOUS
 10
-8.6142857254
 20
0.5714285493
 11
-8.4285714507
 21
0.6642856479
  0
LINE
  5
420
100
AcDbEntity
  8
CURVE
100
AcDbLine
 62
253
  6
CONTINUOUS
 10
-7.685714294
 20
0.1071429014
 11
-7.871428588
 21
0.0142856479
  0
LINE
  5
421
100
AcDbEntity
  8
CURVE
100
AcDbLine
 62
253
  6
CONTINUOUS
 10
-6.6142857254
 20
0.5785714507
 11
-6.4285714507
 21
0.6714285493
  0
LINE
  5
422
100
AcDbEntity
  8
CURVE
100
AcDbLine
 62
7
  6
CONTINUOUS
 10
11.0540263841
 20
-5.171133
 11
11.1046306717
 21
-5.171133
  0
LINE
  5
423
100
AcDbEntity
  8
CURVE
100
AcDbLine
 62
253
  6
CONTINUOUS
 10
10.8008987014
 20
-3.8666669905
 11
10.8235902858
 21
-3.8666669905
  0
LINE
  5
424
100
AcDbEntity
  8
CURVE
100
AcDbLine
 62
253
  6
CONTINUOUS
 10
-8.4285714507
 20
0.0142856479
 11
-8.6142857254
 21
0.1071429014
  0
LINE
  5
425
100
AcDbEntity
  8
CURVE
100
AcDbLine
 62
253
  6
CONTINUOUS
 10
-7.5
 20
-1.0071428239
 11
-8.4285714507
 21
-0.3571429014
  0
LINE
  5
426
100
AcDbEntity
  8
CURVE
100
AcDbLine
 62
253
  6
CONTINUOUS
 10
-7.685714294
 20
0.5714285493
 11
-7.5
 21
0.3857143521
  0
LINE
  5
427
100
AcDbEntity
  8
SMUSSO
100
AcDbLine
 62
7
  6
CONTINUOUS
 10
-3.6
 20
-2.9144766957
 11
-3.6148360075
 21
-2.8996406881
  0
LINE
  5
428
100
AcDbEntity
  8
ASSI
100
AcDbLine
 62
7
  6
CONTINUOUS
 10
-3.6
 20
-2.9144766957
 11
-3.6148360075
 21
-2.8996406881
  0
LINE
  5
429
100
AcDbEntity
  8
CURVE
100
AcDbLine
 62
253
  6
CONTINUOUS
 10
-6.6142857254
 20
0.1142857254
 11
-6.8
 21
0.3
  0
LINE
  5
42A
100
AcDbEntity
  8
DRAFT
100
AcDbLine
 62
7
  6
CONTINUOUS
 10
-3.6
 20
-1.5148356752
 11
-3.6148356752
 21
-1.5
  0
LINE
  5
42B
100
AcDbEntity
  8
ASSI
100
AcDbLine
 62
7
  6
CONTINUOUS
 10
-3.6
 20
-1.5148356752
 11
-3.6148356752
 21
-1.5
  0
LINE
  5
42C
100
AcDbEntity
  8
CURVE
100
AcDbLine
 62
253
  6
CONTINUOUS
 10
-5.685714294
 20
0.5785714507
 11
-5.5
 21
0.3928570986
  0
LINE
  5
42D
100
AcDbEntity
  8
SMUSSO
100
AcDbLine
 62
7
  6
CONTINUOUS
 10
-4.1
 20
-1.8909141526
 11
-3.6176696161
 21
-2.5720953298
  0
LINE
  5
42E
100
AcDbEntity
  8
ASSI
100
AcDbLine
 62
7
  6
CONTINUOUS
 10
-4.1
 20
-1.8909141526
 11
-3.6176696161
 21
-2.5720953298
  0
LINE
  5
42F
100
AcDbEntity
  8
CURVE
100
AcDbLine
 62
253
  6
CONTINUOUS
 10
-7.9023809671
 20
6.05
 11
-7.9952381045
 21
6.26666646
  0
LINE
  5
430
100
AcDbEntity
  8
CURVE
100
AcDbLine
 62
253
  6
CONTINUOUS
 10
-7.8095238104
 20
6.5142858028
 11
-7.9023809671
 21
6.7619045258
  0
LINE
  5
431
100
AcDbEntity
  8
RACCORDO
100
AcDbLine
 62
7
  6
CONTINUOUS
 10
-3.0
 20
-21.0
 11
-3.0
 21
-22.3380392387
  0
LINE
  5
432
100
AcDbEntity
  8
ASSI
100
AcDbLine
 62
7
  6
CONTINUOUS
 10
-3.0
 20
-21.0
 11
-3.0
 21
-22.3380392387
  0
LINE
  5
433
100
AcDbEntity
  8
RACCORDO
100
AcDbLine
 62
7
  6
CONTINUOUS
 10
-3.0
 20
21.0
 11
-3.0
 21
22.3380392387
  0
LINE
  5
434
100
AcDbEntity
  8
ASSI
100
AcDbLine
 62
7
  6
CONTINUOUS
 10
-3.0
 20
21.0
 11
-3.0
 21
22.3380392387
  0
LINE
  5
435
100
AcDbEntity
  8
RACCORDO
100
AcDbLine
 62
7
  6
CONTINUOUS
 10
-2.5
 20
20.0532338935
 11
-2.5
 21
19.9
  0
LINE
  5
436
100
AcDbEntity
  8
ASSI
100
AcDbLine
 62
7
  6
CONTINUOUS
 10
-2.5
 20
20.0532338935
 11
-2.5
 21
19.9
  0
LINE
  5
437
100
AcDbEntity
  8
RACCORDO
100
AcDbLine
 62
7
  6
CONTINUOUS
 10
-2.5
 20
-19.9
 11
-2.5
 21
-20.0532338935
  0
LINE
  5
438
100
AcDbEntity
  8
ASSI
100
AcDbLine
 62
7
  6
CONTINUOUS
 10
-2.5
 20
-19.9
 11
-2.5
 21
-20.0532338935
  0
LINE
  5
439
100
AcDbEntity
  8
RACCORDO
100
AcDbLine
 62
253
  6
CONTINUOUS
 10
-2.4979803239
 20
-20.0532338935
 11
-2.4979803239
 21
-19.8979803239
  0
LINE
  5
43A
100
AcDbEntity
  8
ASSI
100
AcDbLine
 62
253
  6
CONTINUOUS
 10
-2.4979803239
 20
-20.0532338935
 11
-2.4979803239
 21
-19.8979803239
  0
LINE
  5
43B
100
AcDbEntity
  8
RACCORDO
100
AcDbLine
 62
253
  6
CONTINUOUS
 10
-2.4979803239
 20
19.8979803239
 11
-2.4979803239
 21
20.0532338935
  0
LINE
  5
43C
100
AcDbEntity
  8
ASSI
100
AcDbLine
 62
253
  6
CONTINUOUS
 10
-2.4979803239
 20
19.8979803239
 11
-2.4979803239
 21
20.0532338935
  0
LINE
  5
43D
100
AcDbEntity
  8
RACCORDO
100
AcDbLine
 62
253
  6
CONTINUOUS
 10
-1.5981173983
 20
-20.0522359337
 11
-1.5981173983
 21
-19.8825449351
  0
LINE
  5
43E
100
AcDbEntity
  8
ASSI
100
AcDbLine
 62
253
  6
CONTINUOUS
 10
-1.5981173983
 20
-20.0522359337
 11
-1.5981173983
 21
-19.8825449351
  0
LINE
  5
43F
100
AcDbEntity
  8
RACCORDO
100
AcDbLine
 62
253
  6
CONTINUOUS
 10
-1.5981173983
 20
19.8825449351
 11
-1.5981173983
 21
20.0522359337
  0
LINE
  5
440
100
AcDbEntity
  8
ASSI
100
AcDbLine
 62
253
  6
CONTINUOUS
 10
-1.5981173983
 20
19.8825449351
 11
-1.5981173983
 21
20.0522359337
  0
LINE
  5
441
100
AcDbEntity
  8
RACCORDO
100
AcDbLine
 62
253
  6
CONTINUOUS
 10
-9.8824478728
 20
-18.8290841082
 11
-10.0850175454
 21
-19.3181305591
  0
LINE
  5
442
100
AcDbEntity
  8
ASSI
100
AcDbLine
 62
253
  6
CONTINUOUS
 10
-9.8824478728
 20
-18.8290841082
 11
-10.0850175454
 21
-19.3181305591
  0
LINE
  5
443
100
AcDbEntity
  8
CURVE
100
AcDbLine
 62
253
  6
CONTINUOUS
 10
-5.685714294
 20
0.1142857254
 11
-5.871428588
 21
0.0214285493
  0
LINE
  5
444
100
AcDbEntity
  8
CURVE
100
AcDbLine
 62
7
  6
CONTINUOUS
 10
11.0540263841
 20
-3.323396
 11
11.0735135999
 21
-3.323396
  0
LINE
  5
445
100
AcDbEntity
  8
CURVE
100
AcDbLine
 62
7
  6
CONTINUOUS
 10
11.0819232095
 20
-3.323396
 11
11.0962210622
 21
-3.323396
  0
LINE
  5
446
100
AcDbEntity
  8
CURVE
100
AcDbLine
 62
253
  6
CONTINUOUS
 10
10.8235902858
 20
-3.1238098145
 11
10.8008987014
 21
-3.1238098145
  0
LINE
  5
447
100
AcDbEntity
  8
0
100
AcDbLine
 62
7
  6
CONTINUOUS
 10
-3.5
 20
-3.1
 11
-6.65
 21
-3.1
  0
LINE
  5
448
100
AcDbEntity
  8
0
100
AcDbLine
 62
7
  6
CONTINUOUS
 10
8.0
 20
-3.1
 11
10.6856952729
 21
-3.1
  0
LINE
  5
449
100
AcDbEntity
  8
DRAFT
100
AcDbLine
 62
7
  6
CONTINUOUS
 10
-6.202003141
 20
-3.0
 11
-3.5
 21
-3.0
  0
LINE
  5
44A
100
AcDbEntity
  8
ASSI
100
AcDbLine
 62
7
  6
CONTINUOUS
 10
-6.202003141
 20
-3.0
 11
-3.5
 21
-3.0
  0
LINE
  5
44B
100
AcDbEntity
  8
DRAFT
100
AcDbLine
 62
7
  6
CONTINUOUS
 10
8.0
 20
-3.0
 11
10.6874407794
 21
-3.0
  0
LINE
  5
44C
100
AcDbEntity
  8
ASSI
100
AcDbLine
 62
7
  6
CONTINUOUS
 10
8.0
 20
-3.0
 11
10.6874407794
 21
-3.0
  0
LINE
  5
44D
100
AcDbEntity
  8
DRAFT
100
AcDbLine
 62
7
  6
CONTINUOUS
 10
8.1
 20
-2.9144766957
 11
8.0
 21
-2.9144766957
  0
LINE
  5
44E
100
AcDbEntity
  8
ASSI
100
AcDbLine
 62
7
  6
CONTINUOUS
 10
8.1
 20
-2.9144766957
 11
8.0
 21
-2.9144766957
  0
LINE
  5
44F
100
AcDbEntity
  8
DRAFT
100
AcDbLine
 62
7
  6
CONTINUOUS
 10
-3.5
 20
-2.9144766957
 11
-3.6
 21
-2.9144766957
  0
LINE
  5
450
100
AcDbEntity
  8
ASSI
100
AcDbLine
 62
7
  6
CONTINUOUS
 10
-3.5
 20
-2.9144766957
 11
-3.6
 21
-2.9144766957
  0
LINE
  5
451
100
AcDbEntity
  8
DRAFT
100
AcDbLine
 62
7
  6
CONTINUOUS
 10
-6.25
 20
-2.9040044543
 11
-6.3459955457
 21
-2.9040044543
  0
LINE
  5
452
100
AcDbEntity
  8
ASSI
100
AcDbLine
 62
7
  6
CONTINUOUS
 10
-6.25
 20
-2.9040044543
 11
-6.3459955457
 21
-2.9040044543
  0
LINE
  5
453
100
AcDbEntity
  8
SMUSSO
100
AcDbLine
 62
7
  6
CONTINUOUS
 10
-6.3503593119
 20
-2.8996406881
 11
-3.6148360075
 21
-2.8996406881
  0
LINE
  5
454
100
AcDbEntity
  8
ASSI
100
AcDbLine
 62
7
  6
CONTINUOUS
 10
-6.3503593119
 20
-2.8996406881
 11
-3.6148360075
 21
-2.8996406881
  0
LINE
  5
455
100
AcDbEntity
  8
SMUSSO
100
AcDbLine
 62
7
  6
CONTINUOUS
 10
8.1148360075
 20
-2.8996406881
 11
10.4867068681
 21
-2.8996406881
  0
LINE
  5
456
100
AcDbEntity
  8
ASSI
100
AcDbLine
 62
7
  6
CONTINUOUS
 10
8.1148360075
 20
-2.8996406881
 11
10.4867068681
 21
-2.8996406881
  0
LINE
  5
457
100
AcDbEntity
  8
SMUSSO
100
AcDbLine
 62
7
  6
CONTINUOUS
 10
8.0
 20
-2.8
 11
-3.5
 21
-2.8
  0
LINE
  5
458
100
AcDbEntity
  8
CURVE
100
AcDbLine
 62
7
  6
CONTINUOUS
 10
11.1046306717
 20
-2.70079
 11
11.0540263841
 21
-2.70079
  0
LINE
  5
459
100
AcDbEntity
  8
SMUSSO
100
AcDbLine
 62
7
  6
CONTINUOUS
 10
-6.3521043532
 20
-2.6979261096
 11
-6.75
 21
-2.6979261096
  0
LINE
  5
45A
100
AcDbEntity
  8
ASSI
100
AcDbLine
 62
7
  6
CONTINUOUS
 10
-6.3521043532
 20
-2.6979261096
 11
-6.75
 21
-2.6979261096
  0
LINE
  5
45B
100
AcDbEntity
  8
SMUSSO
100
AcDbLine
 62
7
  6
CONTINUOUS
 10
8.0
 20
-2.3
 11
-3.5
 21
-2.3
  0
LINE
  5
45C
100
AcDbEntity
  8
SMUSSO
100
AcDbLine
 62
7
  6
CONTINUOUS
 10
-6.75
 20
-1.8909141526
 11
-4.1
 21
-1.8909141526
  0
LINE
  5
45D
100
AcDbEntity
  8
ASSI
100
AcDbLine
 62
7
  6
CONTINUOUS
 10
-6.75
 20
-1.8909141526
 11
-4.1
 21
-1.8909141526
  0
LINE
  5
45E
100
AcDbEntity
  8
RACCORDO
100
AcDbLine
 62
7
  6
CONTINUOUS
 10
8.6
 20
-1.8909141526
 11
9.4865552047
 21
-1.8909141526
  0
LINE
  5
45F
100
AcDbEntity
  8
ASSI
100
AcDbLine
 62
7
  6
CONTINUOUS
 10
8.6
 20
-1.8909141526
 11
9.4865552047
 21
-1.8909141526
  0
LINE
  5
460
100
AcDbEntity
  8
CURVE
100
AcDbLine
 62
253
  6
CONTINUOUS
 10
-6.8
 20
-0.35
 11
-5.5
 21
-0.7214285687
  0
LINE
  5
461
100
AcDbEntity
  8
CURVE
100
AcDbLine
 62
253
  6
CONTINUOUS
 10
-7.871428588
 20
0.6642856479
 11
-7.685714294
 21
0.5714285493
  0
LINE
  5
462
100
AcDbEntity
  8
CURVE
100
AcDbLine
 62
253
  6
CONTINUOUS
 10
-6.4285714507
 20
0.0214285493
 11
-6.6142857254
 21
0.1142857254
  0
LINE
  5
463
100
AcDbEntity
  8
CURVE
100
AcDbLine
 62
253
  6
CONTINUOUS
 10
-5.871428588
 20
0.6714285493
 11
-5.685714294
 21
0.5785714507
  0
LINE
  5
464
100
AcDbEntity
  8
CURVE
100
AcDbLine
 62
253
  6
CONTINUOUS
 10
-8.8
 20
2.15
 11
-8.5214285493
 21
1.9642858028
  0
LINE
  5
465
100
AcDbEntity
  8
CURVE
100
AcDbLine
 62
253
  6
CONTINUOUS
 10
-7.5
 20
1.9642858028
 11
-8.4285714507
 21
2.6142858028
  0
LINE
  5
466
100
AcDbEntity
  8
CURVE
100
AcDbLine
 62
253
  6
CONTINUOUS
 10
-8.6142857254
 20
4.0071425915
 11
-8.8
 21
4.1928574085
  0
LINE
  5
467
100
AcDbEntity
  8
CURVE
100
AcDbLine
 62
253
  6
CONTINUOUS
 10
-7.5
 20
3.45
 11
-7.592857147
 21
3.5428574085
  0
LINE
  5
468
100
AcDbEntity
  8
CURVE
100
AcDbLine
 62
253
  6
CONTINUOUS
 10
-6.6142857254
 20
2.9928570986
 11
-6.8
 21
3.1785712957
  0
LINE
  5
469
100
AcDbEntity
  8
DRAFT
100
AcDbLine
 62
7
  6
CONTINUOUS
 10
-3.6148356752
 20
0.2148356752
 11
-4.1
 21
0.7
  0
LINE
  5
46A
100
AcDbEntity
  8
ASSI
100
AcDbLine
 62
7
  6
CONTINUOUS
 10
-3.6148356752
 20
0.2148356752
 11
-4.1
 21
0.7
  0
LINE
  5
46B
100
AcDbEntity
  8
CURVE
100
AcDbLine
 62
253
  6
CONTINUOUS
 10
-7.685714294
 20
4.4714283943
 11
-7.5
 21
4.2857141972
  0
LINE
  5
46C
100
AcDbEntity
  8
CURVE
100
AcDbLine
 62
253
  6
CONTINUOUS
 10
-5.5
 20
2.3428570986
 11
-5.685714294
 21
2.5285712957
  0
LINE
  5
46D
100
AcDbEntity
  8
RACCORDO
100
AcDbLine
 62
253
  6
CONTINUOUS
 10
-10.0850175454
 20
19.3181305591
 11
-9.8824478728
 21
18.8290841082
  0
LINE
  5
46E
100
AcDbEntity
  8
ASSI
100
AcDbLine
 62
253
  6
CONTINUOUS
 10
-10.0850175454
 20
19.3181305591
 11
-9.8824478728
 21
18.8290841082
  0
LINE
  5
46F
100
AcDbEntity
  8
0
100
AcDbLine
 62
7
  6
CONTINUOUS
 10
-0.7
 20
15.1
 11
-0.7
 21
12.5
  0
LINE
  5
470
100
AcDbEntity
  8
0
100
AcDbLine
 62
7
  6
CONTINUOUS
 10
-0.7
 20
10.1
 11
-0.7
 21
7.5
  0
LINE
  5
471
100
AcDbEntity
  8
0
100
AcDbLine
 62
7
  6
CONTINUOUS
 10
-0.65
 20
-19.3212250911
 11
-0.65
 21
-19.1379469093
  0
LINE
  5
472
100
AcDbEntity
  8
RACCORDO
100
AcDbLine
 62
253
  6
CONTINUOUS
 10
-9.1754487874
 20
-19.121932718
 11
-9.37801846
 21
-19.6109791689
  0
LINE
  5
473
100
AcDbEntity
  8
ASSI
100
AcDbLine
 62
253
  6
CONTINUOUS
 10
-9.1754487874
 20
-19.121932718
 11
-9.37801846
 21
-19.6109791689
  0
LINE
  5
474
100
AcDbEntity
  8
DRAFT
100
AcDbLine
 62
7
  6
CONTINUOUS
 10
8.1
 20
-1.5148356752
 11
8.0
 21
-1.5148356752
  0
LINE
  5
475
100
AcDbEntity
  8
ASSI
100
AcDbLine
 62
7
  6
CONTINUOUS
 10
8.1
 20
-1.5148356752
 11
8.0
 21
-1.5148356752
  0
LINE
  5
476
100
AcDbEntity
  8
DRAFT
100
AcDbLine
 62
7
  6
CONTINUOUS
 10
-3.5
 20
-1.5148356752
 11
-3.6
 21
-1.5148356752
  0
LINE
  5
477
100
AcDbEntity
  8
ASSI
100
AcDbLine
 62
7
  6
CONTINUOUS
 10
-3.5
 20
-1.5148356752
 11
-3.6
 21
-1.5148356752
  0
LINE
  5
478
100
AcDbEntity
  8
CURVE
100
AcDbLine
 62
253
  6
CONTINUOUS
 10
10.6438031171
 20
-1.5
 11
10.6263480522
 21
-1.5
  0
LINE
  5
479
100
AcDbEntity
  8
CURVE
100
AcDbLine
 62
253
  6
CONTINUOUS
 10
10.5565277924
 20
-1.5
 11
10.5390727275
 21
-1.5
  0
LINE
  5
47A
100
AcDbEntity
  8
0
100
AcDbLine
 62
7
  6
CONTINUOUS
 10
-3.6148356752
 20
-1.4
 11
-3.5
 21
-1.4
  0
LINE
  5
47B
100
AcDbEntity
  8
RACCORDO
100
AcDbLine
 62
7
  6
CONTINUOUS
 10
-3.5
 20
-1.4
 11
-3.6148356752
 21
-1.4
  0
LINE
  5
47C
100
AcDbEntity
  8
0
100
AcDbLine
 62
7
  6
CONTINUOUS
 10
8.0
 20
-1.4
 11
8.1148356752
 21
-1.4
  0
LINE
  5
47D
100
AcDbEntity
  8
RACCORDO
100
AcDbLine
 62
7
  6
CONTINUOUS
 10
8.0
 20
-1.4
 11
8.1148356752
 21
-1.4
  0
LINE
  5
47E
100
AcDbEntity
  8
CURVE
100
AcDbLine
 62
253
  6
CONTINUOUS
 10
-8.8
 20
-1.378571412
 11
-7.5
 21
-1.378571412
  0
LINE
  5
47F
100
AcDbEntity
  8
CURVE
100
AcDbLine
 62
253
  6
CONTINUOUS
 10
-6.5214285493
 20
-1.0
 11
-6.8
 21
-1.0
  0
LINE
  5
480
100
AcDbEntity
  8
0
100
AcDbLine
 62
253
  6
CONTINUOUS
 10
-3.5
 20
-0.6
 11
8.0
 21
-0.6
  0
LINE
  5
481
100
AcDbEntity
  8
CURVE
100
AcDbLine
 62
253
  6
CONTINUOUS
 10
-8.4285714507
 20
-0.3571429014
 11
-8.6142857254
 21
-0.3571429014
  0
LINE
  5
482
100
AcDbEntity
  8
CURVE
100
AcDbLine
 62
253
  6
CONTINUOUS
 10
10.6874407794
 20
0.0
 11
10.774716104
 21
0.0
  0
LINE
  5
483
100
AcDbEntity
  8
CURVE
100
AcDbLine
 62
253
  6
CONTINUOUS
 10
10.5854533277
 20
0.0
 11
10.5873235155
 21
0.0
  0
LINE
  5
484
100
AcDbEntity
  8
CURVE
100
AcDbLine
 62
253
  6
CONTINUOUS
 10
10.5648812874
 20
0.0
 11
10.5667514736
 21
0.0
  0
LINE
  5
485
100
AcDbEntity
  8
CURVE
100
AcDbLine
 62
253
  6
CONTINUOUS
 10
-7.871428588
 20
0.0142856479
 11
-8.4285714507
 21
0.0142856479
  0
LINE
  5
486
100
AcDbEntity
  8
CURVE
100
AcDbLine
 62
253
  6
CONTINUOUS
 10
-5.871428588
 20
0.0214285493
 11
-6.4285714507
 21
0.0214285493
  0
LINE
  5
487
100
AcDbEntity
  8
RACCORDO
100
AcDbLine
 62
7
  6
CONTINUOUS
 10
-3.5
 20
0.2
 11
-3.6148356752
 21
0.2
  0
LINE
  5
488
100
AcDbEntity
  8
0
100
AcDbLine
 62
7
  6
CONTINUOUS
 10
-3.6148356752
 20
0.2
 11
8.1148356752
 21
0.2
  0
LINE
  5
489
100
AcDbEntity
  8
RACCORDO
100
AcDbLine
 62
7
  6
CONTINUOUS
 10
8.0
 20
0.2
 11
8.1148356752
 21
0.2
  0
LINE
  5
48A
100
AcDbEntity
  8
DRAFT
100
AcDbLine
 62
7
  6
CONTINUOUS
 10
8.1148356752
 20
0.2104722413
 11
8.0
 21
0.2104722413
  0
LINE
  5
48B
100
AcDbEntity
  8
ASSI
100
AcDbLine
 62
7
  6
CONTINUOUS
 10
8.1148356752
 20
0.2104722413
 11
8.0
 21
0.2104722413
  0
LINE
  5
48C
100
AcDbEntity
  8
DRAFT
100
AcDbLine
 62
7
  6
CONTINUOUS
 10
-3.5
 20
0.2104722413
 11
-3.6148356752
 21
0.2104722413
  0
LINE
  5
48D
100
AcDbEntity
  8
ASSI
100
AcDbLine
 62
7
  6
CONTINUOUS
 10
-3.5
 20
0.2104722413
 11
-3.6148356752
 21
0.2104722413
  0
LINE
  5
48E
100
AcDbEntity
  8
DRAFT
100
AcDbLine
 62
7
  6
CONTINUOUS
 10
-3.6176696161
 20
0.2176696161
 11
8.1176696161
 21
0.2176696161
  0
LINE
  5
48F
100
AcDbEntity
  8
ASSI
100
AcDbLine
 62
7
  6
CONTINUOUS
 10
-3.6176696161
 20
0.2176696161
 11
8.1176696161
 21
0.2176696161
  0
LINE
  5
490
100
AcDbEntity
  8
DRAFT
100
AcDbLine
 62
7
  6
CONTINUOUS
 10
-3.5
 20
0.2104722413
 11
-3.4958112949
 21
0.2083780483
  0
LINE
  5
491
100
AcDbEntity
  8
ASSI
100
AcDbLine
 62
7
  6
CONTINUOUS
 10
-3.5
 20
0.2104722413
 11
-3.4958112949
 21
0.2083780483
  0
LINE
  5
492
100
AcDbEntity
  8
CURVE
100
AcDbLine
 62
253
  6
CONTINUOUS
 10
-6.4285714507
 20
2.9
 11
-6.6142857254
 21
2.9928570986
  0
LINE
  5
493
100
AcDbEntity
  8
CURVE
100
AcDbLine
 62
253
  6
CONTINUOUS
 10
-8.4285714507
 20
3.9142858028
 11
-8.6142857254
 21
4.0071425915
  0
LINE
  5
494
100
AcDbEntity
  8
CURVE
100
AcDbLine
 62
253
  6
CONTINUOUS
 10
-5.685714294
 20
3.4571429014
 11
-5.5
 21
3.2714287043
  0
LINE
  5
495
100
AcDbEntity
  8
RACCORDO
100
AcDbLine
 62
253
  6
CONTINUOUS
 10
-9.37801846
 20
19.6109791689
 11
-9.1754487874
 21
19.121932718
  0
LINE
  5
496
100
AcDbEntity
  8
ASSI
100
AcDbLine
 62
253
  6
CONTINUOUS
 10
-9.37801846
 20
19.6109791689
 11
-9.1754487874
 21
19.121932718
  0
LINE
  5
497
100
AcDbEntity
  8
RACCORDO
100
AcDbLine
 62
253
  6
CONTINUOUS
 10
1.5981173983
 20
20.0522359337
 11
1.5981173983
 21
19.8825449351
  0
LINE
  5
498
100
AcDbEntity
  8
ASSI
100
AcDbLine
 62
253
  6
CONTINUOUS
 10
1.5981173983
 20
20.0522359337
 11
1.5981173983
 21
19.8825449351
  0
LINE
  5
499
100
AcDbEntity
  8
RACCORDO
100
AcDbLine
 62
253
  6
CONTINUOUS
 10
1.5981173983
 20
-19.8825449351
 11
1.5981173983
 21
-20.0522359337
  0
LINE
  5
49A
100
AcDbEntity
  8
ASSI
100
AcDbLine
 62
253
  6
CONTINUOUS
 10
1.5981173983
 20
-19.8825449351
 11
1.5981173983
 21
-20.0522359337
  0
LINE
  5
49B
100
AcDbEntity
  8
SMUSSO
100
AcDbLine
 62
7
  6
CONTINUOUS
 10
1.75
 20
15.45
 11
1.75
 21
12.15
  0
LINE
  5
49C
100
AcDbEntity
  8
ASSI
100
AcDbLine
 62
7
  6
CONTINUOUS
 10
1.75
 20
15.45
 11
1.75
 21
12.15
  0
LINE
  5
49D
100
AcDbEntity
  8
SMUSSO
100
AcDbLine
 62
7
  6
CONTINUOUS
 10
1.75
 20
10.45
 11
1.75
 21
7.15
  0
LINE
  5
49E
100
AcDbEntity
  8
ASSI
100
AcDbLine
 62
7
  6
CONTINUOUS
 10
1.75
 20
10.45
 11
1.75
 21
7.15
  0
LINE
  5
49F
100
AcDbEntity
  8
RACCORDO
100
AcDbLine
 62
253
  6
CONTINUOUS
 10
9.1754487874
 20
19.121932718
 11
9.37801846
 21
19.6109791689
  0
LINE
  5
4A0
100
AcDbEntity
  8
ASSI
100
AcDbLine
 62
253
  6
CONTINUOUS
 10
9.1754487874
 20
19.121932718
 11
9.37801846
 21
19.6109791689
  0
LINE
  5
4A1
100
AcDbEntity
  8
RACCORDO
100
AcDbLine
 62
253
  6
CONTINUOUS
 10
9.8824478728
 20
18.8290841082
 11
10.0850175454
 21
19.3181305591
  0
LINE
  5
4A2
100
AcDbEntity
  8
ASSI
100
AcDbLine
 62
253
  6
CONTINUOUS
 10
9.8824478728
 20
18.8290841082
 11
10.0850175454
 21
19.3181305591
  0
LINE
  5
4A3
100
AcDbEntity
  8
CURVE
100
AcDbLine
 62
253
  6
CONTINUOUS
 10
10.6371951297
 20
0.4285714477
 11
10.6272208075
 21
0.4285714477
  0
LINE
  5
4A4
100
AcDbEntity
  8
CURVE
100
AcDbLine
 62
253
  6
CONTINUOUS
 10
-8.4285714507
 20
0.6642856479
 11
-7.871428588
 21
0.6642856479
  0
LINE
  5
4A5
100
AcDbEntity
  8
CURVE
100
AcDbLine
 62
253
  6
CONTINUOUS
 10
-6.4285714507
 20
0.6714285493
 11
-5.871428588
 21
0.6714285493
  0
LINE
  5
4A6
100
AcDbEntity
  8
SMUSSO
100
AcDbLine
 62
7
  6
CONTINUOUS
 10
-4.1
 20
0.7
 11
8.6
 21
0.7
  0
LINE
  5
4A7
100
AcDbEntity
  8
ASSI
100
AcDbLine
 62
7
  6
CONTINUOUS
 10
-4.1
 20
0.7
 11
8.6
 21
0.7
  0
LINE
  5
4A8
100
AcDbEntity
  8
CURVE
100
AcDbLine
 62
253
  6
CONTINUOUS
 10
10.6153762944
 20
1.071428597
 11
10.600414811
 21
1.071428597
  0
LINE
  5
4A9
100
AcDbEntity
  8
CURVE
100
AcDbLine
 62
253
  6
CONTINUOUS
 10
10.7092596106
 20
1.25
 11
10.7528972729
 21
1.25
  0
LINE
  5
4AA
100
AcDbEntity
  8
CURVE
100
AcDbLine
 62
253
  6
CONTINUOUS
 10
10.5873235155
 20
1.5
 11
10.5854533277
 21
1.5
  0
LINE
  5
4AB
100
AcDbEntity
  8
CURVE
100
AcDbLine
 62
253
  6
CONTINUOUS
 10
10.5667514736
 20
1.5
 11
10.5648812874
 21
1.5
  0
LINE
  5
4AC
100
AcDbEntity
  8
CURVE
100
AcDbLine
 62
253
  6
CONTINUOUS
 10
-6.2428571761
 20
1.9714287043
 11
-6.8
 21
1.9714287043
  0
LINE
  5
4AD
100
AcDbEntity
  8
CURVE
100
AcDbLine
 62
253
  6
CONTINUOUS
 10
10.5396961229
 20
2.0
 11
10.530345195
 21
2.0
  0
LINE
  5
4AE
100
AcDbEntity
  8
CURVE
100
AcDbLine
 62
253
  6
CONTINUOUS
 10
10.5490470508
 20
2.0
 11
10.5621383495
 21
2.0
  0
LINE
  5
4AF
100
AcDbEntity
  8
CURVE
100
AcDbLine
 62
253
  6
CONTINUOUS
 10
-5.871428588
 20
3.55
 11
-5.685714294
 21
3.4571429014
  0
LINE
  5
4B0
100
AcDbEntity
  8
CURVE
100
AcDbLine
 62
253
  6
CONTINUOUS
 10
-7.871428588
 20
4.5642858028
 11
-7.685714294
 21
4.4714283943
  0
LINE
  5
4B1
100
AcDbEntity
  8
CURVE
100
AcDbLine
 62
253
  6
CONTINUOUS
 10
-8.6142857254
 20
10.1047613144
 11
-8.8
 21
10.2904761314
  0
LINE
  5
4B2
100
AcDbEntity
  8
CURVE
100
AcDbLine
 62
253
  6
CONTINUOUS
 10
-7.5
 20
9.4547613144
 11
-7.685714294
 21
9.6404761314
  0
LINE
  5
4B3
100
AcDbEntity
  8
CURVE
100
AcDbLine
 62
253
  6
CONTINUOUS
 10
-7.685714294
 20
10.5690477371
 11
-7.5
 21
10.3833329201
  0
LINE
  5
4B4
100
AcDbEntity
  8
RACCORDO
100
AcDbLine
 62
253
  6
CONTINUOUS
 10
9.37801846
 20
-19.6109791689
 11
9.2587214036
 21
-19.3229705976
  0
LINE
  5
4B5
100
AcDbEntity
  8
ASSI
100
AcDbLine
 62
253
  6
CONTINUOUS
 10
9.37801846
 20
-19.6109791689
 11
9.2587214036
 21
-19.3229705976
  0
LINE
  5
4B6
100
AcDbEntity
  8
0
100
AcDbLine
 62
253
  6
CONTINUOUS
 10
9.1754487874
 20
-19.121932718
 11
9.2579983912
 21
-19.3212250911
  0
LINE
  5
4B7
100
AcDbEntity
  8
RACCORDO
100
AcDbLine
 62
253
  6
CONTINUOUS
 10
10.0850175454
 20
-19.3181305591
 11
9.965720489
 21
-19.0301219878
  0
LINE
  5
4B8
100
AcDbEntity
  8
ASSI
100
AcDbLine
 62
253
  6
CONTINUOUS
 10
10.0850175454
 20
-19.3181305591
 11
9.965720489
 21
-19.0301219878
  0
LINE
  5
4B9
100
AcDbEntity
  8
SMUSSO
100
AcDbLine
 62
7
  6
CONTINUOUS
 10
2.3273502692
 20
16.0273502692
 11
2.3273502692
 21
11.5726497308
  0
LINE
  5
4BA
100
AcDbEntity
  8
ASSI
100
AcDbLine
 62
7
  6
CONTINUOUS
 10
2.3273502692
 20
16.0273502692
 11
2.3273502692
 21
11.5726497308
  0
LINE
  5
4BB
100
AcDbEntity
  8
SMUSSO
100
AcDbLine
 62
7
  6
CONTINUOUS
 10
2.3273502692
 20
11.0273502692
 11
2.3273502692
 21
6.5726497308
  0
LINE
  5
4BC
100
AcDbEntity
  8
ASSI
100
AcDbLine
 62
7
  6
CONTINUOUS
 10
2.3273502692
 20
11.0273502692
 11
2.3273502692
 21
6.5726497308
  0
LINE
  5
4BD
100
AcDbEntity
  8
RACCORDO
100
AcDbLine
 62
253
  6
CONTINUOUS
 10
2.4979803239
 20
20.0532338935
 11
2.4979803239
 21
19.8979803239
  0
LINE
  5
4BE
100
AcDbEntity
  8
ASSI
100
AcDbLine
 62
253
  6
CONTINUOUS
 10
2.4979803239
 20
20.0532338935
 11
2.4979803239
 21
19.8979803239
  0
LINE
  5
4BF
100
AcDbEntity
  8
RACCORDO
100
AcDbLine
 62
253
  6
CONTINUOUS
 10
2.4979803239
 20
-19.8979803239
 11
2.4979803239
 21
-20.0532338935
  0
LINE
  5
4C0
100
AcDbEntity
  8
ASSI
100
AcDbLine
 62
253
  6
CONTINUOUS
 10
2.4979803239
 20
-19.8979803239
 11
2.4979803239
 21
-20.0532338935
  0
LINE
  5
4C1
100
AcDbEntity
  8
RACCORDO
100
AcDbLine
 62
7
  6
CONTINUOUS
 10
2.5
 20
20.0532338935
 11
2.5
 21
19.9
  0
LINE
  5
4C2
100
AcDbEntity
  8
ASSI
100
AcDbLine
 62
7
  6
CONTINUOUS
 10
2.5
 20
20.0532338935
 11
2.5
 21
19.9
  0
LINE
  5
4C3
100
AcDbEntity
  8
RACCORDO
100
AcDbLine
 62
7
  6
CONTINUOUS
 10
2.5
 20
-19.9
 11
2.5
 21
-20.0532338935
  0
LINE
  5
4C4
100
AcDbEntity
  8
ASSI
100
AcDbLine
 62
7
  6
CONTINUOUS
 10
2.5
 20
-19.9
 11
2.5
 21
-20.0532338935
  0
LINE
  5
4C5
100
AcDbEntity
  8
RACCORDO
100
AcDbLine
 62
7
  6
CONTINUOUS
 10
3.0
 20
-21.0
 11
3.0
 21
-22.3380392387
  0
LINE
  5
4C6
100
AcDbEntity
  8
ASSI
100
AcDbLine
 62
7
  6
CONTINUOUS
 10
3.0
 20
-21.0
 11
3.0
 21
-22.3380392387
  0
LINE
  5
4C7
100
AcDbEntity
  8
RACCORDO
100
AcDbLine
 62
7
  6
CONTINUOUS
 10
3.0
 20
21.0
 11
3.0
 21
22.3380392387
  0
LINE
  5
4C8
100
AcDbEntity
  8
ASSI
100
AcDbLine
 62
7
  6
CONTINUOUS
 10
3.0
 20
21.0
 11
3.0
 21
22.3380392387
  0
LINE
  5
4C9
100
AcDbEntity
  8
DRAFT
100
AcDbLine
 62
7
  6
CONTINUOUS
 10
3.4109791689
 20
19.8109791689
 11
3.4109791689
 21
19.6109791689
  0
LINE
  5
4CA
100
AcDbEntity
  8
ASSI
100
AcDbLine
 62
7
  6
CONTINUOUS
 10
3.4109791689
 20
19.8109791689
 11
3.4109791689
 21
19.6109791689
  0
LINE
  5
4CB
100
AcDbEntity
  8
DRAFT
100
AcDbLine
 62
7
  6
CONTINUOUS
 10
3.4109791689
 20
-19.6109791689
 11
3.4109791689
 21
-19.8109791689
  0
LINE
  5
4CC
100
AcDbEntity
  8
ASSI
100
AcDbLine
 62
7
  6
CONTINUOUS
 10
3.4109791689
 20
-19.6109791689
 11
3.4109791689
 21
-19.8109791689
  0
LINE
  5
4CD
100
AcDbEntity
  8
ASSI
100
AcDbLine
 62
7
  6
CONTINUOUS
 10
3.5
 20
23.7511422903
 11
3.5
 21
22.3339198952
  0
LINE
  5
4CE
100
AcDbEntity
  8
DRAFT
100
AcDbLine
 62
7
  6
CONTINUOUS
 10
3.5
 20
19.9
 11
3.5
 21
19.7
  0
LINE
  5
4CF
100
AcDbEntity
  8
ASSI
100
AcDbLine
 62
7
  6
CONTINUOUS
 10
3.5
 20
19.9
 11
3.5
 21
19.7
  0
LINE
  5
4D0
100
AcDbEntity
  8
DRAFT
100
AcDbLine
 62
7
  6
CONTINUOUS
 10
3.5
 20
-19.7
 11
3.5
 21
-19.9
  0
LINE
  5
4D1
100
AcDbEntity
  8
ASSI
100
AcDbLine
 62
7
  6
CONTINUOUS
 10
3.5
 20
-19.7
 11
3.5
 21
-19.9
  0
LINE
  5
4D2
100
AcDbEntity
  8
DRAFT
100
AcDbLine
 62
7
  6
CONTINUOUS
 10
3.5
 20
-20.0
 11
3.5
 21
-20.0445070257
  0
LINE
  5
4D3
100
AcDbEntity
  8
ASSI
100
AcDbLine
 62
7
  6
CONTINUOUS
 10
3.5
 20
-20.0
 11
3.5
 21
-20.0445070257
  0
LINE
  5
4D4
100
AcDbEntity
  8
ASSI
100
AcDbLine
 62
7
  6
CONTINUOUS
 10
3.5
 20
-22.3339198952
 11
3.5
 21
-23.7511422903
  0
LINE
  5
4D5
100
AcDbEntity
  8
ASSI
100
AcDbLine
 62
7
  6
CONTINUOUS
 10
3.5
 20
-23.7561448042
 11
3.5
 21
-23.7941821702
  0
LINE
  5
4D6
100
AcDbEntity
  8
DRAFT
100
AcDbLine
 62
7
  6
CONTINUOUS
 10
3.5
 20
20.0
 11
3.5
 21
20.0445070257
  0
LINE
  5
4D7
100
AcDbEntity
  8
ASSI
100
AcDbLine
 62
7
  6
CONTINUOUS
 10
3.5
 20
20.0
 11
3.5
 21
20.0445070257
  0
LINE
  5
4D8
100
AcDbEntity
  8
ASSI
100
AcDbLine
 62
7
  6
CONTINUOUS
 10
3.5
 20
23.7561448042
 11
3.5
 21
23.7941821702
  0
LINE
  5
4D9
100
AcDbEntity
  8
DRAFT
100
AcDbLine
 62
7
  6
CONTINUOUS
 10
8.0
 20
0.2104722413
 11
7.9958112949
 21
0.2083780483
  0
LINE
  5
4DA
100
AcDbEntity
  8
ASSI
100
AcDbLine
 62
7
  6
CONTINUOUS
 10
8.0
 20
0.2104722413
 11
7.9958112949
 21
0.2083780483
  0
LINE
  5
4DB
100
AcDbEntity
  8
CURVE
100
AcDbLine
 62
253
  6
CONTINUOUS
 10
10.6525306495
 20
2.5
 11
10.6455486236
 21
2.5
  0
LINE
  5
4DC
100
AcDbEntity
  8
CURVE
100
AcDbLine
 62
253
  6
CONTINUOUS
 10
10.6385665976
 20
2.5
 11
10.6315845716
 21
2.5
  0
LINE
  5
4DD
100
AcDbEntity
  8
CURVE
100
AcDbLine
 62
253
  6
CONTINUOUS
 10
10.6246025457
 20
2.5
 11
10.6176205197
 21
2.5
  0
LINE
  5
4DE
100
AcDbEntity
  8
CURVE
100
AcDbLine
 62
253
  6
CONTINUOUS
 10
-5.685714294
 20
2.5285712957
 11
-6.0571428627
 21
2.5285712957
  0
LINE
  5
4DF
100
AcDbEntity
  8
CURVE
100
AcDbLine
 62
253
  6
CONTINUOUS
 10
-8.4285714507
 20
2.6142858028
 11
-8.6142857254
 21
2.6142858028
  0
LINE
  5
4E0
100
AcDbEntity
  8
CURVE
100
AcDbLine
 62
253
  6
CONTINUOUS
 10
10.5340855663
 20
2.8571428955
 11
10.5378259375
 21
2.8571428955
  0
LINE
  5
4E1
100
AcDbEntity
  8
CURVE
100
AcDbLine
 62
253
  6
CONTINUOUS
 10
-5.871428588
 20
2.9
 11
-6.4285714507
 21
2.9
  0
LINE
  5
4E2
100
AcDbEntity
  8
CURVE
100
AcDbLine
 62
253
  6
CONTINUOUS
 10
10.6525306495
 20
3.0
 11
10.6176205197
 21
3.0
  0
LINE
  5
4E3
100
AcDbEntity
  8
CURVE
100
AcDbLine
 62
253
  6
CONTINUOUS
 10
10.5527874216
 20
3.5
 11
10.5583979771
 21
3.5
  0
LINE
  5
4E4
100
AcDbEntity
  8
CURVE
100
AcDbLine
 62
253
  6
CONTINUOUS
 10
10.530345195
 20
3.5
 11
10.5378259375
 21
3.5
  0
LINE
  5
4E5
100
AcDbEntity
  8
CURVE
100
AcDbLine
 62
253
  6
CONTINUOUS
 10
-8.3357142746
 20
3.5119045258
 11
-8.6142857254
 21
3.5119045258
  0
LINE
  5
4E6
100
AcDbEntity
  8
CURVE
100
AcDbLine
 62
253
  6
CONTINUOUS
 10
-7.592857147
 20
3.5428574085
 11
-8.0571428627
 21
3.5428574085
  0
LINE
  5
4E7
100
AcDbEntity
  8
CURVE
100
AcDbLine
 62
253
  6
CONTINUOUS
 10
-6.4285714507
 20
3.55
 11
-5.871428588
 21
3.55
  0
LINE
  5
4E8
100
AcDbEntity
  8
CURVE
100
AcDbLine
 62
253
  6
CONTINUOUS
 10
10.7528972729
 20
3.75
 11
10.7092596106
 21
3.75
  0
LINE
  5
4E9
100
AcDbEntity
  8
CURVE
100
AcDbLine
 62
253
  6
CONTINUOUS
 10
-7.5
 20
5.3071425915
 11
-8.8
 21
5.6785716057
  0
LINE
  5
4EA
100
AcDbEntity
  8
CURVE
100
AcDbLine
 62
253
  6
CONTINUOUS
 10
-5.5
 20
5.1285716057
 11
-6.8
 21
5.5
  0
LINE
  5
4EB
100
AcDbEntity
  8
SMUSSO
100
AcDbLine
 62
7
  6
CONTINUOUS
 10
10.4867068681
 20
-2.8996406881
 11
10.6874407794
 21
-3.0
  0
LINE
  5
4EC
100
AcDbEntity
  8
ASSI
100
AcDbLine
 62
7
  6
CONTINUOUS
 10
10.4867068681
 20
-2.8996406881
 11
10.6874407794
 21
-3.0
  0
LINE
  5
4ED
100
AcDbEntity
  8
CURVE
100
AcDbLine
 62
253
  6
CONTINUOUS
 10
-8.8
 20
12.4880954742
 11
-8.5214285493
 21
12.2095238686
  0
LINE
  5
4EE
100
AcDbEntity
  8
CURVE
100
AcDbLine
 62
253
  6
CONTINUOUS
 10
-8.6142857254
 20
13.1380954742
 11
-8.8
 21
13.3238090515
  0
LINE
  5
4EF
100
AcDbEntity
  8
CURVE
100
AcDbLine
 62
253
  6
CONTINUOUS
 10
-7.5
 20
12.4880954742
 11
-7.685714294
 21
12.6738090515
  0
LINE
  5
4F0
100
AcDbEntity
  8
SMUSSO
100
AcDbLine
 62
7
  6
CONTINUOUS
 10
-5.25
 20
10.45
 11
-5.8273502692
 21
11.0273502692
  0
LINE
  5
4F1
100
AcDbEntity
  8
ASSI
100
AcDbLine
 62
7
  6
CONTINUOUS
 10
-5.25
 20
10.45
 11
-5.8273502692
 21
11.0273502692
  0
LINE
  5
4F2
100
AcDbEntity
  8
0
100
AcDbLine
 62
253
  6
CONTINUOUS
 10
9.8915753908
 20
-18.8199565902
 11
9.9649974766
 21
-19.0283764813
  0
LINE
  5
4F3
100
AcDbEntity
  8
ASSI
100
AcDbLine
 62
7
  6
CONTINUOUS
 10
4.3559327327
 20
23.7507734247
 11
4.3559327327
 21
22.3338981669
  0
LINE
  5
4F4
100
AcDbEntity
  8
ASSI
100
AcDbLine
 62
7
  6
CONTINUOUS
 10
4.3559327327
 20
-22.3338981669
 11
4.3559327327
 21
-23.7507734247
  0
LINE
  5
4F5
100
AcDbEntity
  8
DRAFT
100
AcDbLine
 62
7
  6
CONTINUOUS
 10
4.4
 20
-23.8
 11
4.4
 21
-22.4
  0
LINE
  5
4F6
100
AcDbEntity
  8
ASSI
100
AcDbLine
 62
7
  6
CONTINUOUS
 10
4.4
 20
-23.8
 11
4.4
 21
-22.4
  0
LINE
  5
4F7
100
AcDbEntity
  8
DRAFT
100
AcDbLine
 62
7
  6
CONTINUOUS
 10
4.4
 20
22.4
 11
4.4
 21
23.8
  0
LINE
  5
4F8
100
AcDbEntity
  8
ASSI
100
AcDbLine
 62
7
  6
CONTINUOUS
 10
4.4
 20
22.4
 11
4.4
 21
23.8
  0
LINE
  5
4F9
100
AcDbEntity
  8
CURVE
100
AcDbLine
 62
253
  6
CONTINUOUS
 10
5.0
 20
13.5
 11
5.0
 21
14.1785714447
  0
LINE
  5
4FA
100
AcDbEntity
  8
RACCORDO
100
AcDbLine
 62
7
  6
CONTINUOUS
 10
-6.555294768
 20
-20.0829433217
 11
-6.4482213147
 21
-19.9223308767
  0
LINE
  5
4FB
100
AcDbEntity
  8
ASSI
100
AcDbLine
 62
7
  6
CONTINUOUS
 10
-6.555294768
 20
-20.0829433217
 11
-6.4482213147
 21
-19.9223308767
  0
LINE
  5
4FC
100
AcDbEntity
  8
DRAFT
100
AcDbLine
 62
7
  6
CONTINUOUS
 10
8.1176696161
 20
0.2176696161
 11
8.6
 21
0.7
  0
LINE
  5
4FD
100
AcDbEntity
  8
ASSI
100
AcDbLine
 62
7
  6
CONTINUOUS
 10
8.1148356752
 20
0.2148356752
 11
8.6
 21
0.7
  0
LINE
  5
4FE
100
AcDbEntity
  8
CURVE
100
AcDbLine
 62
253
  6
CONTINUOUS
 10
-7.871428588
 20
3.9142858028
 11
-8.4285714507
 21
3.9142858028
  0
LINE
  5
4FF
100
AcDbEntity
  8
CURVE
100
AcDbLine
 62
253
  6
CONTINUOUS
 10
-5.5
 20
3.9214287043
 11
-6.4285714507
 21
3.9214287043
  0
LINE
  5
500
100
AcDbEntity
  8
CURVE
100
AcDbLine
 62
253
  6
CONTINUOUS
 10
10.5944302196
 20
4.0
 11
10.5888196626
 21
4.0
  0
LINE
  5
501
100
AcDbEntity
  8
CURVE
100
AcDbLine
 62
253
  6
CONTINUOUS
 10
-6.4285714507
 20
4.3238096714
 11
-5.5
 21
4.3238096714
  0
LINE
  5
502
100
AcDbEntity
  8
CURVE
100
AcDbLine
 62
253
  6
CONTINUOUS
 10
10.5751049687
 20
4.4285714477
 11
10.5651306459
 21
4.4285714477
  0
LINE
  5
503
100
AcDbEntity
  8
CURVE
100
AcDbLine
 62
253
  6
CONTINUOUS
 10
-8.4285714507
 20
4.5642858028
 11
-7.871428588
 21
4.5642858028
  0
LINE
  5
504
100
AcDbEntity
  8
CURVE
100
AcDbLine
 62
253
  6
CONTINUOUS
 10
-6.3357142746
 20
4.7571425915
 11
-5.5
 21
4.7571425915
  0
LINE
  5
505
100
AcDbEntity
  8
CURVE
100
AcDbLine
 62
253
  6
CONTINUOUS
 10
10.774716104
 20
5.0
 11
10.6874407794
 21
5.0
  0
LINE
  5
506
100
AcDbEntity
  8
CURVE
100
AcDbLine
 62
253
  6
CONTINUOUS
 10
11.0780619259
 20
5.30544429
 11
11.0777628434
 21
5.30544429
  0
LINE
  5
507
100
AcDbEntity
  8
CURVE
100
AcDbLine
 62
253
  6
CONTINUOUS
 10
-8.4285714507
 20
10.0119045258
 11
-8.6142857254
 21
10.1047613144
  0
LINE
  5
508
100
AcDbEntity
  8
CURVE
100
AcDbLine
 62
253
  6
CONTINUOUS
 10
-8.6761904836
 20
11.7761909485
 11
-7.5309523815
 21
11.0333329201
  0
LINE
  5
509
100
AcDbEntity
  8
CURVE
100
AcDbLine
 62
253
  6
CONTINUOUS
 10
-7.685714294
 20
13.6023806572
 11
-7.5
 21
13.4166670799
  0
LINE
  5
50A
100
AcDbEntity
  8
RACCORDO
100
AcDbLine
 62
7
  6
CONTINUOUS
 10
-6.555294768
 20
20.0829433217
 11
-6.4482213147
 21
19.9223308767
  0
LINE
  5
50B
100
AcDbEntity
  8
ASSI
100
AcDbLine
 62
7
  6
CONTINUOUS
 10
-6.555294768
 20
20.0829433217
 11
-6.4482213147
 21
19.9223308767
  0
LINE
  5
50C
100
AcDbEntity
  8
DRAFT
100
AcDbLine
 62
7
  6
CONTINUOUS
 10
6.4482213147
 20
-19.9223308767
 11
6.4482213147
 21
-19.7
  0
LINE
  5
50D
100
AcDbEntity
  8
ASSI
100
AcDbLine
 62
7
  6
CONTINUOUS
 10
6.4482213147
 20
-19.9223308767
 11
6.4482213147
 21
-19.7
  0
LINE
  5
50E
100
AcDbEntity
  8
DRAFT
100
AcDbLine
 62
7
  6
CONTINUOUS
 10
6.4482213147
 20
19.7
 11
6.4482213147
 21
19.9223308767
  0
LINE
  5
50F
100
AcDbEntity
  8
ASSI
100
AcDbLine
 62
7
  6
CONTINUOUS
 10
6.4482213147
 20
19.7
 11
6.4482213147
 21
19.9223308767
  0
LINE
  5
510
100
AcDbEntity
  8
RACCORDO
100
AcDbLine
 62
253
  6
CONTINUOUS
 10
6.5561896713
 20
-20.1086060399
 11
6.5561896713
 21
-19.7561896713
  0
LINE
  5
511
100
AcDbEntity
  8
ASSI
100
AcDbLine
 62
7
  6
CONTINUOUS
 10
6.5561896713
 20
-20.1086060399
 11
6.5561896713
 21
-19.7561896713
  0
LINE
  5
512
100
AcDbEntity
  8
RACCORDO
100
AcDbLine
 62
253
  6
CONTINUOUS
 10
6.5561896713
 20
19.7561896713
 11
6.5561896713
 21
20.1086060399
  0
LINE
  5
513
100
AcDbEntity
  8
ASSI
100
AcDbLine
 62
7
  6
CONTINUOUS
 10
6.5561896713
 20
19.7561896713
 11
6.5561896713
 21
20.1086060399
  0
LINE
  5
514
100
AcDbEntity
  8
RACCORDO
100
AcDbLine
 62
253
  6
CONTINUOUS
 10
6.9
 20
-20.9
 11
6.9
 21
-20.5829242832
  0
LINE
  5
515
100
AcDbEntity
  8
ASSI
100
AcDbLine
 62
253
  6
CONTINUOUS
 10
6.9
 20
-20.9
 11
6.9
 21
-20.5829242832
  0
LINE
  5
516
100
AcDbEntity
  8
RACCORDO
100
AcDbLine
 62
253
  6
CONTINUOUS
 10
6.9
 20
20.5829242832
 11
6.9
 21
20.9
  0
LINE
  5
517
100
AcDbEntity
  8
ASSI
100
AcDbLine
 62
253
  6
CONTINUOUS
 10
6.9
 20
20.5829242832
 11
6.9
 21
20.9
  0
LINE
  5
518
100
AcDbEntity
  8
RACCORDO
100
AcDbLine
 62
253
  6
CONTINUOUS
 10
7.2438103287
 20
20.9
 11
7.2438103287
 21
19.7561896713
  0
LINE
  5
519
100
AcDbEntity
  8
ASSI
100
AcDbLine
 62
7
  6
CONTINUOUS
 10
7.2438103287
 20
20.9
 11
7.2438103287
 21
19.7561896713
  0
LINE
  5
51A
100
AcDbEntity
  8
RACCORDO
100
AcDbLine
 62
253
  6
CONTINUOUS
 10
7.2438103287
 20
-19.7561896713
 11
7.2438103287
 21
-20.9
  0
LINE
  5
51B
100
AcDbEntity
  8
ASSI
100
AcDbLine
 62
7
  6
CONTINUOUS
 10
7.2438103287
 20
-19.7561896713
 11
7.2438103287
 21
-20.9
  0
LINE
  5
51C
100
AcDbEntity
  8
RACCORDO
100
AcDbLine
 62
7
  6
CONTINUOUS
 10
7.3517786853
 20
20.1488813944
 11
7.3517786853
 21
19.7
  0
LINE
  5
51D
100
AcDbEntity
  8
ASSI
100
AcDbLine
 62
7
  6
CONTINUOUS
 10
7.3517786853
 20
20.1488813944
 11
7.3517786853
 21
19.7
  0
LINE
  5
51E
100
AcDbEntity
  8
RACCORDO
100
AcDbLine
 62
7
  6
CONTINUOUS
 10
7.3517786853
 20
-20.1488813944
 11
7.3517786853
 21
-19.7
  0
LINE
  5
51F
100
AcDbEntity
  8
ASSI
100
AcDbLine
 62
7
  6
CONTINUOUS
 10
7.3517786853
 20
-20.1488813944
 11
7.3517786853
 21
-19.7
  0
LINE
  5
520
100
AcDbEntity
  8
DRAFT
100
AcDbLine
 62
7
  6
CONTINUOUS
 10
7.4
 20
20.85
 11
7.4
 21
19.7
  0
LINE
  5
521
100
AcDbEntity
  8
ASSI
100
AcDbLine
 62
7
  6
CONTINUOUS
 10
7.4
 20
20.85
 11
7.4
 21
19.7
  0
LINE
  5
522
100
AcDbEntity
  8
DRAFT
100
AcDbLine
 62
7
  6
CONTINUOUS
 10
7.4
 20
-19.7
 11
7.4
 21
-20.85
  0
LINE
  5
523
100
AcDbEntity
  8
ASSI
100
AcDbLine
 62
7
  6
CONTINUOUS
 10
7.4
 20
-19.7
 11
7.4
 21
-20.85
  0
LINE
  5
524
100
AcDbEntity
  8
DRAFT
100
AcDbLine
 62
7
  6
CONTINUOUS
 10
7.4890208311
 20
20.85
 11
7.4890208311
 21
19.6109791689
  0
LINE
  5
525
100
AcDbEntity
  8
ASSI
100
AcDbLine
 62
7
  6
CONTINUOUS
 10
7.4890208311
 20
20.85
 11
7.4890208311
 21
19.6109791689
  0
LINE
  5
526
100
AcDbEntity
  8
DRAFT
100
AcDbLine
 62
7
  6
CONTINUOUS
 10
7.4890208311
 20
-19.6109791689
 11
7.4890208311
 21
-20.85
  0
LINE
  5
527
100
AcDbEntity
  8
ASSI
100
AcDbLine
 62
7
  6
CONTINUOUS
 10
7.4890208311
 20
-19.6109791689
 11
7.4890208311
 21
-20.85
  0
LINE
  5
528
100
AcDbEntity
  8
RACCORDO
100
AcDbLine
 62
253
  6
CONTINUOUS
 10
-9.1937065949
 20
-18.1038272153
 11
-9.9007056803
 21
-18.8108263007
  0
LINE
  5
529
100
AcDbEntity
  8
ASSI
100
AcDbLine
 62
253
  6
CONTINUOUS
 10
-9.1937065949
 20
-18.1038272153
 11
-9.9007056803
 21
-18.8108263007
  0
LINE
  5
52A
100
AcDbEntity
  8
RACCORDO
100
AcDbLine
 62
253
  6
CONTINUOUS
 10
-9.1754487874
 20
-18.1220850228
 11
-9.8824478728
 21
-18.8290841082
  0
LINE
  5
52B
100
AcDbEntity
  8
ASSI
100
AcDbLine
 62
253
  6
CONTINUOUS
 10
-9.1754487874
 20
-18.1220850228
 11
-9.8824478728
 21
-18.8290841082
  0
LINE
  5
52C
100
AcDbEntity
  8
DRAFT
100
AcDbLine
 62
7
  6
CONTINUOUS
 10
8.1
 20
-1.5148356752
 11
8.1148356752
 21
-1.5
  0
LINE
  5
52D
100
AcDbEntity
  8
ASSI
100
AcDbLine
 62
7
  6
CONTINUOUS
 10
8.1
 20
-1.5148356752
 11
8.1148356752
 21
-1.5
  0
LINE
  5
52E
100
AcDbEntity
  8
CURVE
100
AcDbLine
 62
253
  6
CONTINUOUS
 10
11.0739442284
 20
6.2587313832
 11
11.0541368471
 21
6.2587313832
  0
LINE
  5
52F
100
AcDbEntity
  8
CURVE
100
AcDbLine
 62
253
  6
CONTINUOUS
 10
11.0961279489
 20
6.2788012718
 11
11.082233519
 21
6.2788012718
  0
LINE
  5
530
100
AcDbEntity
  8
SMUSSO
100
AcDbLine
 62
7
  6
CONTINUOUS
 10
2.3273502692
 20
6.5726497308
 11
-5.8273502692
 21
6.5726497308
  0
LINE
  5
531
100
AcDbEntity
  8
ASSI
100
AcDbLine
 62
7
  6
CONTINUOUS
 10
2.3273502692
 20
6.5726497308
 11
-5.8273502692
 21
6.5726497308
  0
LINE
  5
532
100
AcDbEntity
  8
RACCORDO
100
AcDbLine
 62
7
  6
CONTINUOUS
 10
9.35
 20
6.7
 11
10.5870741561
 21
6.7
  0
LINE
  5
533
100
AcDbEntity
  8
ASSI
100
AcDbLine
 62
7
  6
CONTINUOUS
 10
9.35
 20
6.7
 11
10.5870741561
 21
6.7
  0
LINE
  5
534
100
AcDbEntity
  8
CURVE
100
AcDbLine
 62
253
  6
CONTINUOUS
 10
11.0541368471
 20
6.8615673444
 11
11.104159148
 21
6.8615673444
  0
LINE
  5
535
100
AcDbEntity
  8
SMUSSO
100
AcDbLine
 62
7
  6
CONTINUOUS
 10
1.75
 20
7.15
 11
-5.25
 21
7.15
  0
LINE
  5
536
100
AcDbEntity
  8
ASSI
100
AcDbLine
 62
7
  6
CONTINUOUS
 10
1.75
 20
7.15
 11
-5.25
 21
7.15
  0
LINE
  5
537
100
AcDbEntity
  8
0
100
AcDbLine
 62
7
  6
CONTINUOUS
 10
1.75
 20
7.5
 11
-4.5
 21
7.5
  0
LINE
  5
538
100
AcDbEntity
  8
CURVE
100
AcDbLine
 62
253
  6
CONTINUOUS
 10
-7.871428588
 20
10.6619045258
 11
-7.685714294
 21
10.5690477371
  0
LINE
  5
539
100
AcDbEntity
  8
CURVE
100
AcDbLine
 62
253
  6
CONTINUOUS
 10
-8.5214285493
 20
12.2095238686
 11
-8.15
 21
12.0238090515
  0
LINE
  5
53A
100
AcDbEntity
  8
SMUSSO
100
AcDbLine
 62
7
  6
CONTINUOUS
 10
1.75
 20
7.15
 11
2.3273502692
 21
6.5726497308
  0
LINE
  5
53B
100
AcDbEntity
  8
ASSI
100
AcDbLine
 62
7
  6
CONTINUOUS
 10
1.75
 20
7.15
 11
2.3273502692
 21
6.5726497308
  0
LINE
  5
53C
100
AcDbEntity
  8
RACCORDO
100
AcDbLine
 62
253
  6
CONTINUOUS
 10
-9.1937065949
 20
18.1038272153
 11
-9.9007056803
 21
18.8108263007
  0
LINE
  5
53D
100
AcDbEntity
  8
ASSI
100
AcDbLine
 62
253
  6
CONTINUOUS
 10
-9.1937065949
 20
18.1038272153
 11
-9.9007056803
 21
18.8108263007
  0
LINE
  5
53E
100
AcDbEntity
  8
RACCORDO
100
AcDbLine
 62
253
  6
CONTINUOUS
 10
-9.1754487874
 20
18.1220850228
 11
-9.8824478728
 21
18.8290841082
  0
LINE
  5
53F
100
AcDbEntity
  8
ASSI
100
AcDbLine
 62
253
  6
CONTINUOUS
 10
-9.1754487874
 20
18.1220850228
 11
-9.8824478728
 21
18.8290841082
  0
LINE
  5
540
100
AcDbEntity
  8
SMUSSO
100
AcDbLine
 62
7
  6
CONTINUOUS
 10
-5.25
 20
15.45
 11
-5.8273502692
 21
16.0273502692
  0
LINE
  5
541
100
AcDbEntity
  8
ASSI
100
AcDbLine
 62
7
  6
CONTINUOUS
 10
-5.25
 20
15.45
 11
-5.8273502692
 21
16.0273502692
  0
LINE
  5
542
100
AcDbEntity
  8
RACCORDO
100
AcDbLine
 62
253
  6
CONTINUOUS
 10
8.254371834
 20
-23.8443375673
 11
8.25
 21
-23.4104851482
  0
LINE
  5
543
100
AcDbEntity
  8
ASSI
100
AcDbLine
 62
253
  6
CONTINUOUS
 10
8.254371834
 20
-23.8443375673
 11
8.25
 21
-23.4104851482
  0
LINE
  5
544
100
AcDbEntity
  8
RACCORDO
100
AcDbLine
 62
253
  6
CONTINUOUS
 10
8.5050948319
 20
-23.7
 11
8.4992770021
 21
-23.1226497308
  0
LINE
  5
545
100
AcDbEntity
  8
ASSI
100
AcDbLine
 62
253
  6
CONTINUOUS
 10
8.5050948319
 20
-23.7
 11
8.4992770021
 21
-23.1226497308
  0
LINE
  5
546
100
AcDbEntity
  8
RACCORDO
100
AcDbLine
 62
253
  6
CONTINUOUS
 10
7.5841007192
 20
-21.3126932437
 11
7.5841007192
 21
-20.9
  0
LINE
  5
547
100
AcDbEntity
  8
ASSI
100
AcDbLine
 62
253
  6
CONTINUOUS
 10
7.5841007192
 20
-21.3126932437
 11
7.5841007192
 21
-20.9
  0
LINE
  5
548
100
AcDbEntity
  8
RACCORDO
100
AcDbLine
 62
253
  6
CONTINUOUS
 10
7.5841007192
 20
20.9
 11
7.5841007192
 21
21.3126932437
  0
LINE
  5
549
100
AcDbEntity
  8
ASSI
100
AcDbLine
 62
253
  6
CONTINUOUS
 10
7.5841007192
 20
20.9
 11
7.5841007192
 21
21.3126932437
  0
LINE
  5
54A
100
AcDbEntity
  8
0
100
AcDbLine
 62
7
  6
CONTINUOUS
 10
8.0
 20
-0.6
 11
8.0
 21
-2.3
  0
LINE
  5
54B
100
AcDbEntity
  8
SMUSSO
100
AcDbLine
 62
7
  6
CONTINUOUS
 10
8.0
 20
-2.3
 11
8.0
 21
-3.1
  0
LINE
  5
54C
100
AcDbEntity
  8
RACCORDO
100
AcDbLine
 62
253
  6
CONTINUOUS
 10
8.0840245667
 20
-21.5659754333
 11
8.0840245667
 21
-20.9
  0
LINE
  5
54D
100
AcDbEntity
  8
ASSI
100
AcDbLine
 62
253
  6
CONTINUOUS
 10
8.0840245667
 20
-21.5659754333
 11
8.0840245667
 21
-20.9
  0
LINE
  5
54E
100
AcDbEntity
  8
RACCORDO
100
AcDbLine
 62
253
  6
CONTINUOUS
 10
8.0840245667
 20
20.9
 11
8.0840245667
 21
21.5659754333
  0
LINE
  5
54F
100
AcDbEntity
  8
ASSI
100
AcDbLine
 62
253
  6
CONTINUOUS
 10
8.0840245667
 20
20.9
 11
8.0840245667
 21
21.5659754333
  0
LINE
  5
550
100
AcDbEntity
  8
DRAFT
100
AcDbLine
 62
7
  6
CONTINUOUS
 10
8.1
 20
-1.5148356752
 11
8.1
 21
-2.9144766957
  0
LINE
  5
551
100
AcDbEntity
  8
ASSI
100
AcDbLine
 62
7
  6
CONTINUOUS
 10
8.1
 20
-1.5148356752
 11
8.1
 21
-2.9144766957
  0
LINE
  5
552
100
AcDbEntity
  8
SMUSSO
100
AcDbLine
 62
7
  6
CONTINUOUS
 10
8.1176696161
 20
-2.5720953298
 11
8.1176696161
 21
0.2176696161
  0
LINE
  5
553
100
AcDbEntity
  8
ASSI
100
AcDbLine
 62
7
  6
CONTINUOUS
 10
8.1176696161
 20
-2.5720953298
 11
8.1176696161
 21
0.2176696161
  0
LINE
  5
554
100
AcDbEntity
  8
DRAFT
100
AcDbLine
 62
7
  6
CONTINUOUS
 10
8.25
 20
21.4
 11
8.25
 21
20.9
  0
LINE
  5
555
100
AcDbEntity
  8
ASSI
100
AcDbLine
 62
7
  6
CONTINUOUS
 10
8.25
 20
21.4
 11
8.25
 21
20.9
  0
LINE
  5
556
100
AcDbEntity
  8
DRAFT
100
AcDbLine
 62
7
  6
CONTINUOUS
 10
8.25
 20
-20.9
 11
8.25
 21
-21.4
  0
LINE
  5
557
100
AcDbEntity
  8
ASSI
100
AcDbLine
 62
7
  6
CONTINUOUS
 10
8.25
 20
-20.9
 11
8.25
 21
-21.4
  0
LINE
  5
558
100
AcDbEntity
  8
RACCORDO
100
AcDbLine
 62
7
  6
CONTINUOUS
 10
8.25
 20
-22.4
 11
8.25
 21
-23.8443375673
  0
LINE
  5
559
100
AcDbEntity
  8
ASSI
100
AcDbLine
 62
7
  6
CONTINUOUS
 10
8.25
 20
-22.4
 11
8.25
 21
-23.8443375673
  0
LINE
  5
55A
100
AcDbEntity
  8
RACCORDO
100
AcDbLine
 62
7
  6
CONTINUOUS
 10
8.25
 20
22.4
 11
8.25
 21
23.8443375673
  0
LINE
  5
55B
100
AcDbEntity
  8
ASSI
100
AcDbLine
 62
7
  6
CONTINUOUS
 10
8.25
 20
22.4
 11
8.25
 21
23.8443375673
  0
LINE
  5
55C
100
AcDbEntity
  8
RACCORDO
100
AcDbLine
 62
253
  6
CONTINUOUS
 10
8.254371834
 20
24.2456323968
 11
8.254371834
 21
23.8443375673
  0
LINE
  5
55D
100
AcDbEntity
  8
ASSI
100
AcDbLine
 62
7
  6
CONTINUOUS
 10
8.254371834
 20
24.2456323968
 11
8.254371834
 21
23.8443375673
  0
LINE
  5
55E
100
AcDbEntity
  8
RACCORDO
100
AcDbLine
 62
253
  6
CONTINUOUS
 10
8.254371834
 20
-23.8443375673
 11
8.254371834
 21
-24.2456323968
  0
LINE
  5
55F
100
AcDbEntity
  8
ASSI
100
AcDbLine
 62
7
  6
CONTINUOUS
 10
8.254371834
 20
-23.8443375673
 11
8.254371834
 21
-24.2456323968
  0
LINE
  5
560
100
AcDbEntity
  8
RACCORDO
100
AcDbLine
 62
253
  6
CONTINUOUS
 10
8.5043676032
 20
-23.7
 11
8.5043676032
 21
-24.495628166
  0
LINE
  5
561
100
AcDbEntity
  8
ASSI
100
AcDbLine
 62
253
  6
CONTINUOUS
 10
8.5043676032
 20
-23.7
 11
8.5043676032
 21
-24.495628166
  0
LINE
  5
562
100
AcDbEntity
  8
RACCORDO
100
AcDbLine
 62
253
  6
CONTINUOUS
 10
8.5043676032
 20
23.6278312164
 11
8.5043676032
 21
24.495628166
  0
LINE
  5
563
100
AcDbEntity
  8
ASSI
100
AcDbLine
 62
253
  6
CONTINUOUS
 10
8.5043676032
 20
23.6278312164
 11
8.5043676032
 21
24.495628166
  0
LINE
  5
564
100
AcDbEntity
  8
SMUSSO
100
AcDbLine
 62
7
  6
CONTINUOUS
 10
8.6
 20
0.7
 11
8.6
 21
-1.8909141526
  0
LINE
  5
565
100
AcDbEntity
  8
ASSI
100
AcDbLine
 62
7
  6
CONTINUOUS
 10
8.6
 20
0.7
 11
8.6
 21
-1.8909141526
  0
LINE
  5
566
100
AcDbEntity
  8
SUPERFICI
100
AcDbLine
 62
253
  6
CONTINUOUS
 10
9.1754487874
 20
-18.1220850228
 11
9.1754487874
 21
-19.121932718
  0
LINE
  5
567
100
AcDbEntity
  8
RACCORDO
100
AcDbLine
 62
253
  6
CONTINUOUS
 10
9.1754487874
 20
18.1220850228
 11
9.1754487874
 21
19.121932718
  0
LINE
  5
568
100
AcDbEntity
  8
ASSI
100
AcDbLine
 62
253
  6
CONTINUOUS
 10
9.1754487874
 20
18.1220850228
 11
9.1754487874
 21
19.121932718
  0
LINE
  5
569
100
AcDbEntity
  8
ASSI
100
AcDbLine
 62
7
  6
CONTINUOUS
 10
9.35
 20
15.9
 11
9.35
 21
11.7
  0
LINE
  5
56A
100
AcDbEntity
  8
ASSI
100
AcDbLine
 62
7
  6
CONTINUOUS
 10
9.35
 20
10.9
 11
9.35
 21
6.7
  0
LINE
  5
56B
100
AcDbEntity
  8
SMUSSO
100
AcDbLine
 62
7
  6
CONTINUOUS
 10
8.1148360075
 20
-2.8996406881
 11
8.1176696161
 21
-2.5720953298
  0
LINE
  5
56C
100
AcDbEntity
  8
ASSI
100
AcDbLine
 62
7
  6
CONTINUOUS
 10
8.1148360075
 20
-2.8996406881
 11
8.1176696161
 21
-2.5720953298
  0
LINE
  5
56D
100
AcDbEntity
  8
RACCORDO
100
AcDbLine
 62
253
  6
CONTINUOUS
 10
8.25
 20
23.4104851482
 11
8.254371834
 21
23.8443375673
  0
LINE
  5
56E
100
AcDbEntity
  8
ASSI
100
AcDbLine
 62
253
  6
CONTINUOUS
 10
8.25
 20
23.4104851482
 11
8.254371834
 21
23.8443375673
  0
LINE
  5
56F
100
AcDbEntity
  8
RACCORDO
100
AcDbLine
 62
253
  6
CONTINUOUS
 10
8.4992770021
 20
23.1226497308
 11
8.5043676032
 21
23.6278312164
  0
LINE
  5
570
100
AcDbEntity
  8
ASSI
100
AcDbLine
 62
253
  6
CONTINUOUS
 10
8.4992770021
 20
23.1226497308
 11
8.5043676032
 21
23.6278312164
  0
LINE
  5
571
100
AcDbEntity
  8
CURVE
100
AcDbLine
 62
253
  6
CONTINUOUS
 10
11.0541368532
 20
9.519077
 11
11.1047504846
 21
9.790227
  0
LINE
  5
572
100
AcDbEntity
  8
CURVE
100
AcDbLine
 62
253
  6
CONTINUOUS
 10
11.087048832
 20
10.235548
 11
11.0541368532
 21
10.111193
  0
LINE
  5
573
100
AcDbEntity
  8
DRAFT
100
AcDbLine
 62
7
  6
CONTINUOUS
 10
-4.4
 20
-22.4
 11
-4.3559327327
 21
-22.3338981669
  0
LINE
  5
574
100
AcDbEntity
  8
ASSI
100
AcDbLine
 62
7
  6
CONTINUOUS
 10
-4.4
 20
-22.4
 11
-4.3559327327
 21
-22.3338981669
  0
LINE
  5
575
100
AcDbEntity
  8
SMUSSO
100
AcDbLine
 62
7
  6
CONTINUOUS
 10
8.1176696161
 20
-2.5720953298
 11
8.6
 21
-1.8909141526
  0
LINE
  5
576
100
AcDbEntity
  8
ASSI
100
AcDbLine
 62
7
  6
CONTINUOUS
 10
8.1176696161
 20
-2.5720953298
 11
8.6
 21
-1.8909141526
  0
LINE
  5
577
100
AcDbEntity
  8
SMUSSO
100
AcDbLine
 62
7
  6
CONTINUOUS
 10
8.1
 20
-2.9144766957
 11
8.1148360075
 21
-2.8996406881
  0
LINE
  5
578
100
AcDbEntity
  8
ASSI
100
AcDbLine
 62
7
  6
CONTINUOUS
 10
8.1
 20
-2.9144766957
 11
8.1148360075
 21
-2.8996406881
  0
LINE
  5
579
100
AcDbEntity
  8
RACCORDO
100
AcDbLine
 62
7
  6
CONTINUOUS
 10
-6.5561896713
 20
-19.7561896713
 11
-6.5
 21
-19.7
  0
LINE
  5
57A
100
AcDbEntity
  8
ASSI
100
AcDbLine
 62
7
  6
CONTINUOUS
 10
-6.5561896713
 20
-19.7561896713
 11
-6.5
 21
-19.7
  0
LINE
  5
57B
100
AcDbEntity
  8
CURVE
100
AcDbLine
 62
253
  6
CONTINUOUS
 10
5.0
 20
8.5
 11
3.1
 21
8.5
  0
LINE
  5
57C
100
AcDbEntity
  8
CURVE
100
AcDbLine
 62
253
  6
CONTINUOUS
 10
-8.2428571761
 20
9.0833329201
 11
-8.8
 21
9.0833329201
  0
LINE
  5
57D
100
AcDbEntity
  8
CURVE
100
AcDbLine
 62
253
  6
CONTINUOUS
 10
-8.4285714507
 20
13.0452386856
 11
-8.6142857254
 21
13.1380954742
  0
LINE
  5
57E
100
AcDbEntity
  8
CURVE
100
AcDbLine
 62
253
  6
CONTINUOUS
 10
-7.871428588
 20
13.6952386856
 11
-7.685714294
 21
13.6023806572
  0
LINE
  5
57F
100
AcDbEntity
  8
CURVE
100
AcDbLine
 62
253
  6
CONTINUOUS
 10
-8.4285714507
 20
15.6452386856
 11
-7.5
 21
15.0880954742
  0
LINE
  5
580
100
AcDbEntity
  8
RACCORDO
100
AcDbLine
 62
7
  6
CONTINUOUS
 10
-6.5561896713
 20
19.7561896713
 11
-6.5
 21
19.7
  0
LINE
  5
581
100
AcDbEntity
  8
ASSI
100
AcDbLine
 62
7
  6
CONTINUOUS
 10
-6.5561896713
 20
19.7561896713
 11
-6.5
 21
19.7
  0
LINE
  5
582
100
AcDbEntity
  8
DRAFT
100
AcDbLine
 62
7
  6
CONTINUOUS
 10
-4.4
 20
22.4
 11
-4.3559327327
 21
22.3338981669
  0
LINE
  5
583
100
AcDbEntity
  8
ASSI
100
AcDbLine
 62
7
  6
CONTINUOUS
 10
-4.4
 20
22.4
 11
-4.3559327327
 21
22.3338981669
  0
LINE
  5
584
100
AcDbEntity
  8
CURVE
100
AcDbLine
 62
253
  6
CONTINUOUS
 10
11.0017792054
 20
-10.7071437776
 11
11.0278331549
 21
-11.1142865539
  0
LINE
  5
585
100
AcDbEntity
  8
CURVE
100
AcDbLine
 62
253
  6
CONTINUOUS
 10
10.8235902858
 20
-13.6785711288
 11
10.8008987014
 21
-13.3071433544
  0
LINE
  5
586
100
AcDbEntity
  8
CURVE
100
AcDbLine
 62
253
  6
CONTINUOUS
 10
10.8235902858
 20
-4.6095241666
 11
10.8008987014
 21
-4.2380955398
  0
LINE
  5
587
100
AcDbEntity
  8
CURVE
100
AcDbLine
 62
7
  6
CONTINUOUS
 10
11.0731612895
 20
-14.176491
 11
11.0949578574
 21
-14.606449
  0
LINE
  5
588
100
AcDbEntity
  8
CURVE
100
AcDbLine
 62
7
  6
CONTINUOUS
 10
11.0731612895
 20
-8.151456
 11
11.0949607192
 21
-8.581471
  0
LINE
  5
589
100
AcDbEntity
  8
CURVE
100
AcDbLine
 62
7
  6
CONTINUOUS
 10
11.0540263841
 20
-13.798889
 11
11.0647516799
 21
-14.015846
  0
LINE
  5
58A
100
AcDbEntity
  8
CURVE
100
AcDbLine
 62
7
  6
CONTINUOUS
 10
11.0540263841
 20
-7.773964
 11
11.0647516799
 21
-7.990812
  0
LINE
  5
58B
100
AcDbEntity
  8
CURVE
100
AcDbLine
 62
7
  6
CONTINUOUS
 10
11.1046306717
 20
-14.252884
 11
11.0540263841
 21
-13.20444
  0
LINE
  5
58C
100
AcDbEntity
  8
CURVE
100
AcDbLine
 62
7
  6
CONTINUOUS
 10
11.1046306717
 20
-8.227849
 11
11.0540263841
 21
-7.179514
  0
LINE
  5
58D
100
AcDbEntity
  8
CURVE
100
AcDbLine
 62
253
  6
CONTINUOUS
 10
11.0041477466
 20
-16.0000010014
 11
10.9994106647
 21
-15.8642867804
  0
LINE
  5
58E
100
AcDbEntity
  8
CURVE
100
AcDbLine
 62
253
  6
CONTINUOUS
 10
11.018358992
 20
-15.0500010014
 11
11.0230960735
 21
-15.1857152224
  0
LINE
  5
58F
100
AcDbEntity
  8
CURVE
100
AcDbLine
 62
253
  6
CONTINUOUS
 10
10.8235902858
 20
-3.8666669905
 11
10.8106236663
 21
-3.4952384025
  0
LINE
  5
590
100
AcDbEntity
  8
CURVE
100
AcDbLine
 62
253
  6
CONTINUOUS
 10
10.8235902858
 20
-16.0000007629
 11
10.8138653217
 21
-15.6285711288
  0
LINE
  5
591
100
AcDbEntity
  8
CURVE
100
AcDbLine
 62
253
  6
CONTINUOUS
 10
11.0230960735
 20
-13.6476199627
 11
11.0278331549
 21
-13.8285721064
  0
LINE
  5
592
100
AcDbEntity
  8
CURVE
100
AcDbLine
 62
253
  6
CONTINUOUS
 10
10.5611409165
 20
0.2142857239
 11
10.5648812874
 21
0.0
  0
LINE
  5
593
100
AcDbEntity
  8
CURVE
100
AcDbLine
 62
253
  6
CONTINUOUS
 10
10.5817129584
 20
0.2142857239
 11
10.5854533277
 21
0.0
  0
LINE
  5
594
100
AcDbEntity
  8
CURVE
100
AcDbLine
 62
253
  6
CONTINUOUS
 10
10.5378259375
 20
2.8571428955
 11
10.5415663083
 21
2.6428571492
  0
LINE
  5
595
100
AcDbEntity
  8
CURVE
100
AcDbLine
 62
253
  6
CONTINUOUS
 10
10.5704918444
 20
1.2857142985
 11
10.5667514736
 21
1.5
  0
LINE
  5
596
100
AcDbEntity
  8
CURVE
100
AcDbLine
 62
253
  6
CONTINUOUS
 10
10.5910638847
 20
1.2857142985
 11
10.5873235155
 21
1.5
  0
LINE
  5
597
100
AcDbEntity
  8
CURVE
100
AcDbLine
 62
253
  6
CONTINUOUS
 10
10.5583979771
 20
3.5
 11
10.5621383495
 21
3.2857142985
  0
LINE
  5
598
100
AcDbEntity
  8
CURVE
100
AcDbLine
 62
253
  6
CONTINUOUS
 10
10.6172464853
 20
0.9642857015
 11
10.6153762944
 21
1.071428597
  0
LINE
  5
599
100
AcDbEntity
  8
CURVE
100
AcDbLine
 62
253
  6
CONTINUOUS
 10
10.5888196626
 20
4.0
 11
10.5850792917
 21
4.2142857239
  0
LINE
  5
59A
100
AcDbEntity
  8
CURVE
100
AcDbLine
 62
253
  6
CONTINUOUS
 10
10.8008987014
 20
-5.816666913
 11
10.8041403565
 21
-6.0023811102
  0
LINE
  5
59B
100
AcDbEntity
  8
CURVE
100
AcDbLine
 62
253
  6
CONTINUOUS
 10
10.9994106647
 20
-15.8642867804
 11
10.9946735827
 21
-15.5928578854
  0
LINE
  5
59C
100
AcDbEntity
  8
CURVE
100
AcDbLine
 62
253
  6
CONTINUOUS
 10
10.9994106647
 20
-14.5071436644
 11
10.9946735827
 21
-14.2357152224
  0
LINE
  5
59D
100
AcDbEntity
  8
CURVE
100
AcDbLine
 62
253
  6
CONTINUOUS
 10
11.0230960735
 20
-15.1857152224
 11
11.0278331549
 21
-15.4571436644
  0
LINE
  5
59E
100
AcDbEntity
  8
CURVE
100
AcDbLine
 62
253
  6
CONTINUOUS
 10
10.9946735827
 20
-12.7428581119
 11
10.9994106647
 21
-13.0142865539
  0
LINE
  5
59F
100
AcDbEntity
  8
CURVE
100
AcDbLine
 62
253
  6
CONTINUOUS
 10
11.0088848281
 20
-13.5571436644
 11
11.0136219105
 21
-13.8285721064
  0
LINE
  5
5A0
100
AcDbEntity
  8
CURVE
100
AcDbLine
 62
253
  6
CONTINUOUS
 10
11.018358992
 20
-9.6214294434
 11
11.0278331549
 21
-10.1642866105
  0
LINE
  5
5A1
100
AcDbEntity
  8
RACCORDO
100
AcDbLine
 62
7
  6
CONTINUOUS
 10
10.4864028998
 20
-2.882073723
 11
10.4867068681
 21
-2.8996406881
  0
LINE
  5
5A2
100
AcDbEntity
  8
ASSI
100
AcDbLine
 62
7
  6
CONTINUOUS
 10
10.4864028998
 20
-2.882073723
 11
10.4867068681
 21
-2.8996406881
  0
LINE
  5
5A3
100
AcDbEntity
  8
CURVE
100
AcDbLine
 62
253
  6
CONTINUOUS
 10
10.5378259375
 20
3.5
 11
10.5409429132
 21
3.2857142985
  0
LINE
  5
5A4
100
AcDbEntity
  8
CURVE
100
AcDbLine
 62
253
  6
CONTINUOUS
 10
11.0159904503
 20
-14.416667366
 11
11.0136219105
 21
-14.2357152224
  0
LINE
  5
5A5
100
AcDbEntity
  8
RACCORDO
100
AcDbLine
 62
253
  6
CONTINUOUS
 10
10.3956323968
 20
23.6278312164
 11
10.4007229979
 21
23.1226497308
  0
LINE
  5
5A6
100
AcDbEntity
  8
ASSI
100
AcDbLine
 62
253
  6
CONTINUOUS
 10
10.3956323968
 20
23.6278312164
 11
10.4007229979
 21
23.1226497308
  0
LINE
  5
5A7
100
AcDbEntity
  8
RACCORDO
100
AcDbLine
 62
253
  6
CONTINUOUS
 10
10.645628166
 20
23.8443375673
 11
10.65
 21
23.4104851482
  0
LINE
  5
5A8
100
AcDbEntity
  8
ASSI
100
AcDbLine
 62
253
  6
CONTINUOUS
 10
10.645628166
 20
23.8443375673
 11
10.65
 21
23.4104851482
  0
LINE
  5
5A9
100
AcDbEntity
  8
CURVE
100
AcDbLine
 62
253
  6
CONTINUOUS
 10
10.6206128139
 20
4.0
 11
10.6056513336
 21
5.5
  0
LINE
  5
5AA
100
AcDbEntity
  8
CURVE
100
AcDbLine
 62
253
  6
CONTINUOUS
 10
10.5592707319
 20
0.4285714477
 11
10.5611409165
 21
0.2142857239
  0
LINE
  5
5AB
100
AcDbEntity
  8
CURVE
100
AcDbLine
 62
253
  6
CONTINUOUS
 10
10.572362029
 20
1.071428597
 11
10.5704918444
 21
1.2857142985
  0
LINE
  5
5AC
100
AcDbEntity
  8
CURVE
100
AcDbLine
 62
253
  6
CONTINUOUS
 10
10.5798427707
 20
0.4285714477
 11
10.5817129584
 21
0.2142857239
  0
LINE
  5
5AD
100
AcDbEntity
  8
CURVE
100
AcDbLine
 62
253
  6
CONTINUOUS
 10
10.5929340694
 20
1.071428597
 11
10.5910638847
 21
1.2857142985
  0
LINE
  5
5AE
100
AcDbEntity
  8
CURVE
100
AcDbLine
 62
253
  6
CONTINUOUS
 10
10.5770998328
 20
2.0
 11
10.5696190911
 21
3.5
  0
LINE
  5
5AF
100
AcDbEntity
  8
CURVE
100
AcDbLine
 62
253
  6
CONTINUOUS
 10
10.5775985501
 20
4.0
 11
10.5701178076
 21
5.5
  0
LINE
  5
5B0
100
AcDbEntity
  8
CURVE
100
AcDbLine
 62
253
  6
CONTINUOUS
 10
10.6396887071
 20
0.0
 11
10.6322079686
 21
1.5
  0
LINE
  5
5B1
100
AcDbEntity
  8
0
100
AcDbLine
 62
253
  6
CONTINUOUS
 10
9.4865552047
 20
-3.1
 11
9.4865552047
 21
-17.3968281299
  0
LINE
  5
5B2
100
AcDbEntity
  8
RACCORDO
100
AcDbLine
 62
253
  6
CONTINUOUS
 10
9.4865552047
 20
-1.8909141526
 11
9.4865552047
 21
6.7
  0
LINE
  5
5B3
100
AcDbEntity
  8
ASSI
100
AcDbLine
 62
253
  6
CONTINUOUS
 10
9.4865552047
 20
-1.8909141526
 11
9.4865552047
 21
6.7
  0
LINE
  5
5B4
100
AcDbEntity
  8
RACCORDO
100
AcDbLine
 62
253
  6
CONTINUOUS
 10
9.4865552047
 20
10.9
 11
9.4865552047
 21
11.7
  0
LINE
  5
5B5
100
AcDbEntity
  8
ASSI
100
AcDbLine
 62
253
  6
CONTINUOUS
 10
9.4865552047
 20
10.9
 11
9.4865552047
 21
11.7
  0
LINE
  5
5B6
100
AcDbEntity
  8
RACCORDO
100
AcDbLine
 62
253
  6
CONTINUOUS
 10
9.4865552047
 20
15.9
 11
9.4865552047
 21
17.3968281299
  0
LINE
  5
5B7
100
AcDbEntity
  8
ASSI
100
AcDbLine
 62
253
  6
CONTINUOUS
 10
9.4865552047
 20
15.9
 11
9.4865552047
 21
17.3968281299
  0
LINE
  5
5B8
100
AcDbEntity
  8
0
100
AcDbLine
 62
7
  6
CONTINUOUS
 10
9.65
 20
20.15
 11
9.65
 21
20.0
  0
LINE
  5
5B9
100
AcDbEntity
  8
ASSI
100
AcDbLine
 62
7
  6
CONTINUOUS
 10
9.65
 20
20.15
 11
9.65
 21
20.0
  0
LINE
  5
5BA
100
AcDbEntity
  8
0
100
AcDbLine
 62
7
  6
CONTINUOUS
 10
9.65
 20
-20.0
 11
9.65
 21
-20.15
  0
LINE
  5
5BB
100
AcDbEntity
  8
ASSI
100
AcDbLine
 62
7
  6
CONTINUOUS
 10
9.65
 20
-20.0
 11
9.65
 21
-20.15
  0
LINE
  5
5BC
100
AcDbEntity
  8
RACCORDO
100
AcDbLine
 62
253
  6
CONTINUOUS
 10
10.3956323968
 20
-23.7
 11
10.3956323968
 21
-24.495628166
  0
LINE
  5
5BD
100
AcDbEntity
  8
ASSI
100
AcDbLine
 62
253
  6
CONTINUOUS
 10
10.3956323968
 20
-23.7
 11
10.3956323968
 21
-24.495628166
  0
LINE
  5
5BE
100
AcDbEntity
  8
RACCORDO
100
AcDbLine
 62
253
  6
CONTINUOUS
 10
10.3956323968
 20
23.6278312164
 11
10.3956323968
 21
24.495628166
  0
LINE
  5
5BF
100
AcDbEntity
  8
ASSI
100
AcDbLine
 62
253
  6
CONTINUOUS
 10
10.3956323968
 20
23.6278312164
 11
10.3956323968
 21
24.495628166
  0
LINE
  5
5C0
100
AcDbEntity
  8
0
100
AcDbLine
 62
253
  6
CONTINUOUS
 10
10.4864028998
 20
-3.1
 11
10.4864028998
 21
-17.3968249552
  0
LINE
  5
5C1
100
AcDbEntity
  8
RACCORDO
100
AcDbLine
 62
253
  6
CONTINUOUS
 10
10.4864028998
 20
-2.882073723
 11
10.4864028998
 21
6.7
  0
LINE
  5
5C2
100
AcDbEntity
  8
ASSI
100
AcDbLine
 62
253
  6
CONTINUOUS
 10
10.4864028998
 20
-2.882073723
 11
10.4864028998
 21
6.7
  0
LINE
  5
5C3
100
AcDbEntity
  8
RACCORDO
100
AcDbLine
 62
253
  6
CONTINUOUS
 10
10.4864028998
 20
10.9
 11
10.4864028998
 21
11.7
  0
LINE
  5
5C4
100
AcDbEntity
  8
ASSI
100
AcDbLine
 62
253
  6
CONTINUOUS
 10
10.4864028998
 20
10.9
 11
10.4864028998
 21
11.7
  0
LINE
  5
5C5
100
AcDbEntity
  8
RACCORDO
100
AcDbLine
 62
253
  6
CONTINUOUS
 10
10.4864028998
 20
15.9
 11
10.4864028998
 21
17.3968249551
  0
LINE
  5
5C6
100
AcDbEntity
  8
ASSI
100
AcDbLine
 62
253
  6
CONTINUOUS
 10
10.4864028998
 20
15.9
 11
10.4864028998
 21
17.3968249551
  0
LINE
  5
5C7
100
AcDbEntity
  8
CURVE
100
AcDbLine
 62
253
  6
CONTINUOUS
 10
10.5409429132
 20
3.2857142985
 11
10.5409429132
 21
2.9642857015
  0
LINE
  5
5C8
100
AcDbEntity
  8
CURVE
100
AcDbLine
 62
253
  6
CONTINUOUS
 10
10.5415663083
 20
2.6428571492
 11
10.5415663083
 21
2.1071428619
  0
LINE
  5
5C9
100
AcDbEntity
  8
CURVE
100
AcDbLine
 62
253
  6
CONTINUOUS
 10
10.54780026
 20
-1.0
 11
10.54780026
 21
-2.0
  0
LINE
  5
5CA
100
AcDbEntity
  8
CURVE
100
AcDbLine
 62
253
  6
CONTINUOUS
 10
10.5517899894
 20
0.0
 11
10.5517899894
 21
1.5
  0
LINE
  5
5CB
100
AcDbEntity
  8
CURVE
100
AcDbLine
 62
253
  6
CONTINUOUS
 10
10.5592707319
 20
1.071428597
 11
10.5592707319
 21
0.4285714477
  0
LINE
  5
5CC
100
AcDbEntity
  8
CURVE
100
AcDbLine
 62
253
  6
CONTINUOUS
 10
10.5621383495
 20
3.2857142985
 11
10.5621383495
 21
3.071428597
  0
LINE
  5
5CD
100
AcDbEntity
  8
CURVE
100
AcDbLine
 62
253
  6
CONTINUOUS
 10
10.572362029
 20
0.4285714477
 11
10.572362029
 21
1.071428597
  0
LINE
  5
5CE
100
AcDbEntity
  8
CURVE
100
AcDbLine
 62
253
  6
CONTINUOUS
 10
10.5798427707
 20
1.071428597
 11
10.5798427707
 21
0.4285714477
  0
LINE
  5
5CF
100
AcDbEntity
  8
CURVE
100
AcDbLine
 62
253
  6
CONTINUOUS
 10
10.5850792917
 20
4.2142857239
 11
10.5850792917
 21
5.5
  0
LINE
  5
5D0
100
AcDbEntity
  8
CURVE
100
AcDbLine
 62
253
  6
CONTINUOUS
 10
10.5929340694
 20
0.4285714477
 11
10.5929340694
 21
1.071428597
  0
LINE
  5
5D1
100
AcDbEntity
  8
CURVE
100
AcDbLine
 62
253
  6
CONTINUOUS
 10
10.5981705889
 20
5.5
 11
10.5981705889
 21
4.2142857239
  0
LINE
  5
5D2
100
AcDbEntity
  8
CURVE
100
AcDbLine
 62
253
  6
CONTINUOUS
 10
10.600414811
 20
1.071428597
 11
10.600414811
 21
0.0
  0
LINE
  5
5D3
100
AcDbEntity
  8
CURVE
100
AcDbLine
 62
253
  6
CONTINUOUS
 10
10.6085189486
 20
-0.0
 11
10.6085189486
 21
1.071428597
  0
LINE
  5
5D4
100
AcDbEntity
  8
CURVE
100
AcDbLine
 62
253
  6
CONTINUOUS
 10
10.6172464853
 20
0.0
 11
10.6172464853
 21
0.9642857015
  0
LINE
  5
5D5
100
AcDbEntity
  8
RACCORDO
100
AcDbLine
 62
253
  6
CONTINUOUS
 10
10.645628166
 20
-24.2456323968
 11
10.645628166
 21
-23.8443375673
  0
LINE
  5
5D6
100
AcDbEntity
  8
ASSI
100
AcDbLine
 62
7
  6
CONTINUOUS
 10
10.645628166
 20
-24.2456323968
 11
10.645628166
 21
-23.8443375673
  0
LINE
  5
5D7
100
AcDbEntity
  8
RACCORDO
100
AcDbLine
 62
253
  6
CONTINUOUS
 10
10.645628166
 20
23.8443375673
 11
10.645628166
 21
24.2456323968
  0
LINE
  5
5D8
100
AcDbEntity
  8
ASSI
100
AcDbLine
 62
7
  6
CONTINUOUS
 10
10.645628166
 20
23.8443375673
 11
10.645628166
 21
24.2456323968
  0
LINE
  5
5D9
100
AcDbEntity
  8
RACCORDO
100
AcDbLine
 62
7
  6
CONTINUOUS
 10
10.65
 20
-22.399689968
 11
10.65
 21
-23.8443375673
  0
LINE
  5
5DA
100
AcDbEntity
  8
ASSI
100
AcDbLine
 62
7
  6
CONTINUOUS
 10
10.65
 20
-22.399689968
 11
10.65
 21
-23.8443375673
  0
LINE
  5
5DB
100
AcDbEntity
  8
RACCORDO
100
AcDbLine
 62
7
  6
CONTINUOUS
 10
10.65
 20
22.399689968
 11
10.65
 21
23.8443375673
  0
LINE
  5
5DC
100
AcDbEntity
  8
ASSI
100
AcDbLine
 62
7
  6
CONTINUOUS
 10
10.65
 20
22.399689968
 11
10.65
 21
23.8443375673
  0
LINE
  5
5DD
100
AcDbEntity
  8
0
100
AcDbLine
 62
7
  6
CONTINUOUS
 10
10.6856952729
 20
-3.1
 11
10.6856952729
 21
-17.4793777337
  0
LINE
  5
5DE
100
AcDbEntity
  8
CURVE
100
AcDbLine
 62
253
  6
CONTINUOUS
 10
10.6874407794
 20
5.0
 11
10.6874407794
 21
0.0
  0
LINE
  5
5DF
100
AcDbEntity
  8
ASSI
100
AcDbLine
 62
7
  6
CONTINUOUS
 10
10.6874407794
 20
-3.0
 11
10.6874407794
 21
-17.4801007461
  0
LINE
  5
5E0
100
AcDbEntity
  8
RACCORDO
100
AcDbLine
 62
7
  6
CONTINUOUS
 10
10.6874407794
 20
-3.0
 11
10.6874407794
 21
-17.4801007461
  0
LINE
  5
5E1
100
AcDbEntity
  8
CURVE
100
AcDbLine
 62
253
  6
CONTINUOUS
 10
10.7092596106
 20
3.75
 11
10.7092596106
 21
1.25
  0
LINE
  5
5E2
100
AcDbEntity
  8
CURVE
100
AcDbLine
 62
253
  6
CONTINUOUS
 10
10.7528972729
 20
1.25
 11
10.7528972729
 21
3.75
  0
LINE
  5
5E3
100
AcDbEntity
  8
CURVE
100
AcDbLine
 62
253
  6
CONTINUOUS
 10
10.774716104
 20
0.0
 11
10.774716104
 21
5.0
  0
LINE
  5
5E4
100
AcDbEntity
  8
CURVE
100
AcDbLine
 62
253
  6
CONTINUOUS
 10
10.8008987014
 20
-5.3523812652
 11
10.8008987014
 21
-5.816666913
  0
LINE
  5
5E5
100
AcDbEntity
  8
CURVE
100
AcDbLine
 62
253
  6
CONTINUOUS
 10
10.8008987014
 20
-6.5285717487
 11
10.8008987014
 21
-7.0857146502
  0
LINE
  5
5E6
100
AcDbEntity
  8
CURVE
100
AcDbLine
 62
253
  6
CONTINUOUS
 10
10.8008987014
 20
-14.8857143402
 11
10.8008987014
 21
-14.4214291573
  0
LINE
  5
5E7
100
AcDbEntity
  8
CURVE
100
AcDbLine
 62
253
  6
CONTINUOUS
 10
10.8073820116
 20
-13.9261904716
 11
10.8073820116
 21
-13.4309524059
  0
LINE
  5
5E8
100
AcDbEntity
  8
CURVE
100
AcDbLine
 62
253
  6
CONTINUOUS
 10
10.8073820116
 20
-4.8571431994
 11
10.8073820116
 21
-4.3619050562
  0
LINE
  5
5E9
100
AcDbEntity
  8
CURVE
100
AcDbLine
 62
253
  6
CONTINUOUS
 10
10.8138653217
 20
-6.5285717487
 11
10.8138653217
 21
-6.9000001431
  0
LINE
  5
5EA
100
AcDbEntity
  8
CURVE
100
AcDbLine
 62
253
  6
CONTINUOUS
 10
10.8235902858
 20
-12.9357143402
 11
10.8235902858
 21
-12.1928575516
  0
LINE
  5
5EB
100
AcDbEntity
  8
CURVE
100
AcDbLine
 62
253
  6
CONTINUOUS
 10
10.8235902858
 20
-7.0857146502
 11
10.8235902858
 21
-6.5285717487
  0
LINE
  5
5EC
100
AcDbEntity
  8
CURVE
100
AcDbLine
 62
253
  6
CONTINUOUS
 10
10.8235902858
 20
-5.816666913
 11
10.8235902858
 21
-5.3523812652
  0
LINE
  5
5ED
100
AcDbEntity
  8
CURVE
100
AcDbLine
 62
253
  6
CONTINUOUS
 10
10.8911944505
 20
-14.139499
 11
10.8911944505
 21
-15.6
  0
LINE
  5
5EE
100
AcDbEntity
  8
CURVE
100
AcDbLine
 62
253
  6
CONTINUOUS
 10
10.9042857492
 20
-15.6
 11
10.9042857492
 21
-14.139495888
  0
LINE
  5
5EF
100
AcDbEntity
  8
CURVE
100
AcDbLine
 62
253
  6
CONTINUOUS
 10
10.9946735827
 20
-12.2000007749
 11
10.9946735827
 21
-12.7428581119
  0
LINE
  5
5F0
100
AcDbEntity
  8
CURVE
100
AcDbLine
 62
253
  6
CONTINUOUS
 10
10.9946735827
 20
-15.5928578854
 11
10.9946735827
 21
-15.4571436644
  0
LINE
  5
5F1
100
AcDbEntity
  8
CURVE
100
AcDbLine
 62
253
  6
CONTINUOUS
 10
10.9946735827
 20
-14.2357152224
 11
10.9946735827
 21
-13.8285721064
  0
LINE
  5
5F2
100
AcDbEntity
  8
CURVE
100
AcDbLine
 62
253
  6
CONTINUOUS
 10
11.0017792054
 20
-11.6571436644
 11
11.0017792054
 21
-10.7071437776
  0
LINE
  5
5F3
100
AcDbEntity
  8
CURVE
100
AcDbLine
 62
253
  6
CONTINUOUS
 10
11.0136219105
 20
-13.8285721064
 11
11.0136219105
 21
-14.2357152224
  0
LINE
  5
5F4
100
AcDbEntity
  8
CURVE
100
AcDbLine
 62
253
  6
CONTINUOUS
 10
11.0136219105
 20
-12.7428581119
 11
11.0136219105
 21
-12.2000007749
  0
LINE
  5
5F5
100
AcDbEntity
  8
CURVE
100
AcDbLine
 62
253
  6
CONTINUOUS
 10
11.0278331549
 20
-12.2000007749
 11
11.0278331549
 21
-13.0142865539
  0
LINE
  5
5F6
100
AcDbEntity
  8
CURVE
100
AcDbLine
 62
253
  6
CONTINUOUS
 10
11.0278331549
 20
-13.8285721064
 11
11.0278331549
 21
-14.2357152224
  0
LINE
  5
5F7
100
AcDbEntity
  8
CURVE
100
AcDbLine
 62
253
  6
CONTINUOUS
 10
11.0278331549
 20
-15.4571436644
 11
11.0278331549
 21
-15.5928578854
  0
LINE
  5
5F8
100
AcDbEntity
  8
CURVE
100
AcDbLine
 62
7
  6
CONTINUOUS
 10
11.0540263841
 20
-2.70079
 11
11.0540263841
 21
-3.323396
  0
LINE
  5
5F9
100
AcDbEntity
  8
CURVE
100
AcDbLine
 62
7
  6
CONTINUOUS
 10
11.0540263841
 20
-7.179514
 11
11.0540263841
 21
-7.773964
  0
LINE
  5
5FA
100
AcDbEntity
  8
CURVE
100
AcDbLine
 62
7
  6
CONTINUOUS
 10
11.0540263841
 20
-9.348431
 11
11.0540263841
 21
-9.975074
  0
LINE
  5
5FB
100
AcDbEntity
  8
CURVE
100
AcDbLine
 62
7
  6
CONTINUOUS
 10
11.0540263841
 20
-13.20444
 11
11.0540263841
 21
-13.798889
  0
LINE
  5
5FC
100
AcDbEntity
  8
CURVE
100
AcDbLine
 62
7
  6
CONTINUOUS
 10
11.0540263841
 20
-15.373574
 11
11.0540263841
 21
-16.0
  0
LINE
  5
5FD
100
AcDbEntity
  8
CURVE
100
AcDbLine
 62
7
  6
CONTINUOUS
 10
11.0540263841
 20
-12.911198
 11
11.0540263841
 21
-12.027546
  0
LINE
  5
5FE
100
AcDbEntity
  8
CURVE
100
AcDbLine
 62
7
  6
CONTINUOUS
 10
11.0540263841
 20
-10.87477
 11
11.0540263841
 21
-10.292325
  0
LINE
  5
5FF
100
AcDbEntity
  8
CURVE
100
AcDbLine
 62
7
  6
CONTINUOUS
 10
11.0540263841
 20
-6.866738
 11
11.0540263841
 21
-5.171133
  0
LINE
  5
600
100
AcDbEntity
  8
CURVE
100
AcDbLine
 62
253
  6
CONTINUOUS
 10
11.0541368532
 20
15.081013
 11
11.0541368532
 21
14.547617
  0
LINE
  5
601
100
AcDbEntity
  8
CURVE
100
AcDbLine
 62
253
  6
CONTINUOUS
 10
11.0541368532
 20
12.459827
 11
11.0541368532
 21
11.880779
  0
LINE
  5
602
100
AcDbEntity
  8
CURVE
100
AcDbLine
 62
253
  6
CONTINUOUS
 10
11.0541368532
 20
11.040105
 11
11.0541368532
 21
10.955216
  0
LINE
  5
603
100
AcDbEntity
  8
CURVE
100
AcDbLine
 62
253
  6
CONTINUOUS
 10
11.0541368532
 20
10.111193
 11
11.0541368532
 21
9.519077
  0
LINE
  5
604
100
AcDbEntity
  8
CURVE
100
AcDbLine
 62
253
  6
CONTINUOUS
 10
11.0541368532
 20
9.424033
 11
11.0541368532
 21
8.825329
  0
LINE
  5
605
100
AcDbEntity
  8
CURVE
100
AcDbLine
 62
253
  6
CONTINUOUS
 10
11.0541368532
 20
7.677235
 11
11.0541368532
 21
7.039304
  0
LINE
  5
606
100
AcDbEntity
  8
CURVE
100
AcDbLine
 62
253
  6
CONTINUOUS
 10
11.0541368471
 20
4.7496410148
 11
11.0541368471
 21
5.3318417383
  0
LINE
  5
607
100
AcDbEntity
  8
CURVE
100
AcDbLine
 62
253
  6
CONTINUOUS
 10
11.0541368471
 20
6.2587313832
 11
11.0541368471
 21
6.8615673444
  0
LINE
  5
608
100
AcDbEntity
  8
CURVE
100
AcDbLine
 62
253
  6
CONTINUOUS
 10
11.0541368532
 20
12.785664
 11
11.0541368532
 21
13.390935
  0
LINE
  5
609
100
AcDbEntity
  8
CURVE
100
AcDbLine
 62
7
  6
CONTINUOUS
 10
11.0624359936
 20
-5.793739
 11
11.0624359936
 21
-6.866738
  0
LINE
  5
60A
100
AcDbEntity
  8
CURVE
100
AcDbLine
 62
253
  6
CONTINUOUS
 10
11.0642411365
 20
8.658312
 11
11.0642411365
 21
7.834033
  0
LINE
  5
60B
100
AcDbEntity
  8
CURVE
100
AcDbLine
 62
7
  6
CONTINUOUS
 10
11.0647516799
 20
-7.990812
 11
11.0647516799
 21
-9.139549
  0
LINE
  5
60C
100
AcDbEntity
  8
CURVE
100
AcDbLine
 62
7
  6
CONTINUOUS
 10
11.0647516799
 20
-14.015846
 11
11.0647516799
 21
-15.164584
  0
LINE
  5
60D
100
AcDbEntity
  8
CURVE
100
AcDbLine
 62
253
  6
CONTINUOUS
 10
11.0720597837
 20
7.954996
 11
11.0720597837
 21
8.5345
  0
LINE
  5
60E
100
AcDbEntity
  8
CURVE
100
AcDbLine
 62
7
  6
CONTINUOUS
 10
11.0731612895
 20
-15.007869
 11
11.0731612895
 21
-14.176491
  0
LINE
  5
60F
100
AcDbEntity
  8
CURVE
100
AcDbLine
 62
7
  6
CONTINUOUS
 10
11.0731612895
 20
-8.982943
 11
11.0731612895
 21
-8.151456
  0
LINE
  5
610
100
AcDbEntity
  8
CURVE
100
AcDbLine
 62
7
  6
CONTINUOUS
 10
11.0735135999
 20
-3.58822
 11
11.0735135999
 21
-3.323396
  0
LINE
  5
611
100
AcDbEntity
  8
CURVE
100
AcDbLine
 62
253
  6
CONTINUOUS
 10
11.0739442284
 20
5.9341993273
 11
11.0739442284
 21
6.2587313832
  0
LINE
  5
612
100
AcDbEntity
  8
CURVE
100
AcDbLine
 62
7
  6
CONTINUOUS
 10
11.0819232095
 20
-3.323396
 11
11.0819232095
 21
-3.686612
  0
LINE
  5
613
100
AcDbEntity
  8
CURVE
100
AcDbLine
 62
253
  6
CONTINUOUS
 10
11.082233519
 20
6.2788012718
 11
11.082233519
 21
5.9328946758
  0
LINE
  5
614
100
AcDbEntity
  8
CURVE
100
AcDbLine
 62
7
  6
CONTINUOUS
 10
11.0962210622
 20
-3.323396
 11
11.0962210622
 21
-3.686612
  0
LINE
  5
615
100
AcDbEntity
  8
CURVE
100
AcDbLine
 62
7
  6
CONTINUOUS
 10
11.1046306717
 20
-5.171133
 11
11.1046306717
 21
-5.793739
  0
LINE
  5
616
100
AcDbEntity
  8
CURVE
100
AcDbLine
 62
7
  6
CONTINUOUS
 10
11.1046306717
 20
-10.292325
 11
11.1046306717
 21
-11.216139
  0
LINE
  5
617
100
AcDbEntity
  8
CURVE
100
AcDbLine
 62
7
  6
CONTINUOUS
 10
11.1046306717
 20
-12.328754
 11
11.1046306717
 21
-12.911198
  0
LINE
  5
618
100
AcDbEntity
  8
CURVE
100
AcDbLine
 62
7
  6
CONTINUOUS
 10
11.1046306717
 20
-14.991935
 11
11.1046306717
 21
-14.252884
  0
LINE
  5
619
100
AcDbEntity
  8
CURVE
100
AcDbLine
 62
7
  6
CONTINUOUS
 10
11.1046306717
 20
-8.9669
 11
11.1046306717
 21
-8.227849
  0
LINE
  5
61A
100
AcDbEntity
  8
CURVE
100
AcDbLine
 62
7
  6
CONTINUOUS
 10
11.1046306717
 20
-3.58822
 11
11.1046306717
 21
-2.70079
  0
LINE
  5
61B
100
AcDbEntity
  8
CURVE
100
AcDbLine
 62
253
  6
CONTINUOUS
 10
11.1047504846
 20
7.92899
 11
11.1047504846
 21
8.514517
  0
LINE
  5
61C
100
AcDbEntity
  8
CURVE
100
AcDbLine
 62
253
  6
CONTINUOUS
 10
11.1047504846
 20
9.790227
 11
11.1047504846
 21
10.389084
  0
LINE
  5
61D
100
AcDbEntity
  8
CURVE
100
AcDbLine
 62
253
  6
CONTINUOUS
 10
11.1047504846
 20
11.593234
 11
11.1047504846
 21
12.198005
  0
LINE
  5
61E
100
AcDbEntity
  8
CURVE
100
AcDbLine
 62
253
  6
CONTINUOUS
 10
11.1047504846
 20
13.615552
 11
11.1047504846
 21
14.22041
  0
LINE
  5
61F
100
AcDbEntity
  8
CURVE
100
AcDbLine
 62
253
  6
CONTINUOUS
 10
11.1047504846
 20
15.342748
 11
11.1047504846
 21
16.00026
  0
LINE
  5
620
100
AcDbEntity
  8
CURVE
100
AcDbLine
 62
253
  6
CONTINUOUS
 10
11.1047535218
 20
13.390935
 11
11.1047535218
 21
12.785664
  0
LINE
  5
621
100
AcDbEntity
  8
RACCORDO
100
AcDbLine
 62
7
  6
CONTINUOUS
 10
11.15
 20
21.8911779406
 11
11.15
 21
-21.8911779406
  0
LINE
  5
622
100
AcDbEntity
  8
ASSI
100
AcDbLine
 62
7
  6
CONTINUOUS
 10
11.15
 20
21.8911779406
 11
11.15
 21
-21.8911779406
  0
LINE
  5
623
100
AcDbEntity
  8
CURVE
100
AcDbLine
 62
253
  6
CONTINUOUS
 10
10.5701178076
 20
5.5
 11
10.5626370652
 21
4.0
  0
LINE
  5
624
100
AcDbEntity
  8
CURVE
100
AcDbLine
 62
253
  6
CONTINUOUS
 10
10.5845805745
 20
3.5
 11
10.5770998328
 21
2.0
  0
LINE
  5
625
100
AcDbEntity
  8
CURVE
100
AcDbLine
 62
253
  6
CONTINUOUS
 10
10.6322079686
 20
1.5
 11
10.6247272238
 21
0.0
  0
LINE
  5
626
100
AcDbEntity
  8
CURVE
100
AcDbLine
 62
253
  6
CONTINUOUS
 10
10.5611409165
 20
1.2857142985
 11
10.5592707319
 21
1.071428597
  0
LINE
  5
627
100
AcDbEntity
  8
CURVE
100
AcDbLine
 62
253
  6
CONTINUOUS
 10
10.5704918444
 20
0.2142857239
 11
10.572362029
 21
0.4285714477
  0
LINE
  5
628
100
AcDbEntity
  8
CURVE
100
AcDbLine
 62
253
  6
CONTINUOUS
 10
10.5817129584
 20
1.2857142985
 11
10.5798427707
 21
1.071428597
  0
LINE
  5
629
100
AcDbEntity
  8
CURVE
100
AcDbLine
 62
253
  6
CONTINUOUS
 10
10.5910638847
 20
0.2142857239
 11
10.5929340694
 21
0.4285714477
  0
LINE
  5
62A
100
AcDbEntity
  8
CURVE
100
AcDbLine
 62
253
  6
CONTINUOUS
 10
10.6206128139
 20
5.5
 11
10.6056513336
 21
4.0
  0
LINE
  5
62B
100
AcDbEntity
  8
RACCORDO
100
AcDbLine
 62
253
  6
CONTINUOUS
 10
10.4007229979
 20
-23.1226497308
 11
10.3949051681
 21
-23.7
  0
LINE
  5
62C
100
AcDbEntity
  8
ASSI
100
AcDbLine
 62
253
  6
CONTINUOUS
 10
10.4007229979
 20
-23.1226497308
 11
10.3949051681
 21
-23.7
  0
LINE
  5
62D
100
AcDbEntity
  8
RACCORDO
100
AcDbLine
 62
253
  6
CONTINUOUS
 10
10.65
 20
-23.4104851482
 11
10.645628166
 21
-23.8443375673
  0
LINE
  5
62E
100
AcDbEntity
  8
ASSI
100
AcDbLine
 62
253
  6
CONTINUOUS
 10
10.65
 20
-23.4104851482
 11
10.645628166
 21
-23.8443375673
  0
LINE
  5
62F
100
AcDbEntity
  8
CURVE
100
AcDbLine
 62
253
  6
CONTINUOUS
 10
10.5490470508
 20
3.178571403
 11
10.5527874216
 21
3.5
  0
LINE
  5
630
100
AcDbEntity
  8
CURVE
100
AcDbLine
 62
253
  6
CONTINUOUS
 10
10.5621383495
 20
3.071428597
 11
10.5490470508
 21
2.0
  0
LINE
  5
631
100
AcDbEntity
  8
CURVE
100
AcDbLine
 62
253
  6
CONTINUOUS
 10
11.0136219105
 20
-13.8285721064
 11
11.0159904503
 21
-13.6476199627
  0
LINE
  5
632
100
AcDbEntity
  8
CURVE
100
AcDbLine
 62
253
  6
CONTINUOUS
 10
10.5415663083
 20
2.1071428619
 11
10.5396961229
 21
2.0
  0
LINE
  5
633
100
AcDbEntity
  8
CURVE
100
AcDbLine
 62
253
  6
CONTINUOUS
 10
10.5981705889
 20
4.2142857239
 11
10.5944302196
 21
4.0
  0
LINE
  5
634
100
AcDbEntity
  8
CURVE
100
AcDbLine
 62
253
  6
CONTINUOUS
 10
10.5517899894
 20
1.5
 11
10.544309247
 21
1.071428597
  0
LINE
  5
635
100
AcDbEntity
  8
CURVE
100
AcDbLine
 62
253
  6
CONTINUOUS
 10
10.5648812874
 20
1.5
 11
10.5611409165
 21
1.2857142985
  0
LINE
  5
636
100
AcDbEntity
  8
CURVE
100
AcDbLine
 62
253
  6
CONTINUOUS
 10
10.5854533277
 20
1.5
 11
10.5817129584
 21
1.2857142985
  0
LINE
  5
637
100
AcDbEntity
  8
CURVE
100
AcDbLine
 62
253
  6
CONTINUOUS
 10
10.5667514736
 20
0.0
 11
10.5704918444
 21
0.2142857239
  0
LINE
  5
638
100
AcDbEntity
  8
CURVE
100
AcDbLine
 62
253
  6
CONTINUOUS
 10
10.5873235155
 20
0.0
 11
10.5910638847
 21
0.2142857239
  0
LINE
  5
639
100
AcDbEntity
  8
CURVE
100
AcDbLine
 62
253
  6
CONTINUOUS
 10
10.8203486311
 20
-6.0023811102
 11
10.8235902858
 21
-5.816666913
  0
LINE
  5
63A
100
AcDbEntity
  8
CURVE
100
AcDbLine
 62
253
  6
CONTINUOUS
 10
10.5409429132
 20
2.9642857015
 11
10.5378259375
 21
2.8571428955
  0
LINE
  5
63B
100
AcDbEntity
  8
CURVE
100
AcDbLine
 62
253
  6
CONTINUOUS
 10
10.8106236663
 20
-3.4952384025
 11
10.8235902858
 21
-3.1238098145
  0
LINE
  5
63C
100
AcDbEntity
  8
CURVE
100
AcDbLine
 62
253
  6
CONTINUOUS
 10
10.8008987014
 20
-9.9642859459
 11
10.8235902858
 21
-9.3142859459
  0
LINE
  5
63D
100
AcDbEntity
  8
CURVE
100
AcDbLine
 62
253
  6
CONTINUOUS
 10
11.0871866048
 20
11.750162
 11
11.0541368532
 21
11.040105
  0
LINE
  5
63E
100
AcDbEntity
  8
CURVE
100
AcDbLine
 62
253
  6
CONTINUOUS
 10
11.0766496454
 20
10.994355
 11
11.1047504846
 21
11.593234
  0
LINE
  5
63F
100
AcDbEntity
  8
CURVE
100
AcDbLine
 62
253
  6
CONTINUOUS
 10
11.1047504846
 20
16.00026
 11
11.0541368532
 21
15.081013
  0
LINE
  5
640
100
AcDbEntity
  8
CURVE
100
AcDbLine
 62
253
  6
CONTINUOUS
 10
11.0541368532
 20
7.039304
 11
11.1047504846
 21
7.92899
  0
LINE
  5
641
100
AcDbEntity
  8
CURVE
100
AcDbLine
 62
253
  6
CONTINUOUS
 10
10.8008987014
 20
-4.9809527159
 11
10.8235902858
 21
-4.6095241666
  0
LINE
  5
642
100
AcDbEntity
  8
CURVE
100
AcDbLine
 62
253
  6
CONTINUOUS
 10
11.069911554
 20
14.790021
 11
11.1047504846
 21
15.342748
  0
LINE
  5
643
100
AcDbEntity
  8
CURVE
100
AcDbLine
 62
253
  6
CONTINUOUS
 10
11.0642411365
 20
7.834033
 11
11.0541368532
 21
7.677235
  0
LINE
  5
644
100
AcDbEntity
  8
CURVE
100
AcDbLine
 62
253
  6
CONTINUOUS
 10
11.0908431442
 20
8.233126
 11
11.0720597837
 21
7.954996
  0
LINE
  5
645
100
AcDbEntity
  8
RACCORDO
100
AcDbLine
 62
7
  6
CONTINUOUS
 10
7.3
 20
-20.9
 11
7.3501246809
 21
-20.4484702548
  0
LINE
  5
646
100
AcDbEntity
  8
ASSI
100
AcDbLine
 62
7
  6
CONTINUOUS
 10
7.3
 20
-20.9
 11
7.3501246809
 21
-20.4484702548
  0
LINE
  5
647
100
AcDbEntity
  8
CURVE
100
AcDbLine
 62
7
  6
CONTINUOUS
 10
11.0540263841
 20
-2.9425271956
 11
11.1046306712
 21
-2.8919229084
  0
LINE
  5
648
100
AcDbEntity
  8
CURVE
100
AcDbLine
 62
7
  6
CONTINUOUS
 10
11.0735135999
 20
-3.3430614077
 11
11.0819232095
 21
-3.3346517981
  0
LINE
  5
649
100
AcDbEntity
  8
CURVE
100
AcDbLine
 62
7
  6
CONTINUOUS
 10
11.0931790077
 20
-3.323396
 11
11.10463067
 21
-3.3119443376
  0
LINE
  5
64A
100
AcDbEntity
  8
CURVE
100
AcDbLine
 62
7
  6
CONTINUOUS
 10
11.0736281782
 20
-3.7629682575
 11
11.0820536293
 21
-3.7545428063
  0
LINE
  5
64B
100
AcDbEntity
  8
CURVE
100
AcDbLine
 62
7
  6
CONTINUOUS
 10
11.0961165278
 20
-3.7404799079
 11
11.104539723
 21
-3.7320567126
  0
LINE
  5
64C
100
AcDbEntity
  8
CURVE
100
AcDbLine
 62
7
  6
CONTINUOUS
 10
11.0747064298
 20
-4.1819114339
 11
11.103576526
 21
-4.1530413377
  0
LINE
  5
64D
100
AcDbEntity
  8
CURVE
100
AcDbLine
 62
7
  6
CONTINUOUS
 10
11.0789668322
 20
-4.5976724595
 11
11.0995822442
 21
-4.5770570475
  0
LINE
  5
64E
100
AcDbEntity
  8
CURVE
100
AcDbLine
 62
253
  6
CONTINUOUS
 10
5.0
 20
9.45
 11
3.1
 21
9.45
  0
LINE
  5
64F
100
AcDbEntity
  8
CURVE
100
AcDbLine
 62
253
  6
CONTINUOUS
 10
-7.685714294
 20
9.6404761314
 11
-8.0571428627
 21
9.6404761314
  0
LINE
  5
650
100
AcDbEntity
  8
CURVE
100
AcDbLine
 62
253
  6
CONTINUOUS
 10
-7.871428588
 20
10.0119045258
 11
-8.4285714507
 21
10.0119045258
  0
LINE
  5
651
100
AcDbEntity
  8
0
100
AcDbLine
 62
7
  6
CONTINUOUS
 10
-4.5
 20
10.1
 11
1.75
 21
10.1
  0
LINE
  5
652
100
AcDbEntity
  8
SMUSSO
100
AcDbLine
 62
7
  6
CONTINUOUS
 10
-5.25
 20
10.45
 11
1.75
 21
10.45
  0
LINE
  5
653
100
AcDbEntity
  8
ASSI
100
AcDbLine
 62
7
  6
CONTINUOUS
 10
-5.25
 20
10.45
 11
1.75
 21
10.45
  0
LINE
  5
654
100
AcDbEntity
  8
CURVE
100
AcDbLine
 62
253
  6
CONTINUOUS
 10
-8.4285714507
 20
10.6619045258
 11
-7.871428588
 21
10.6619045258
  0
LINE
  5
655
100
AcDbEntity
  8
RACCORDO
100
AcDbLine
 62
7
  6
CONTINUOUS
 10
9.35
 20
10.9
 11
10.5870741561
 21
10.9
  0
LINE
  5
656
100
AcDbEntity
  8
ASSI
100
AcDbLine
 62
7
  6
CONTINUOUS
 10
9.35
 20
10.9
 11
10.5870741561
 21
10.9
  0
LINE
  5
657
100
AcDbEntity
  8
SMUSSO
100
AcDbLine
 62
7
  6
CONTINUOUS
 10
-5.8273502692
 20
11.0273502692
 11
2.3273502692
 21
11.0273502692
  0
LINE
  5
658
100
AcDbEntity
  8
ASSI
100
AcDbLine
 62
7
  6
CONTINUOUS
 10
-5.8273502692
 20
11.0273502692
 11
2.3273502692
 21
11.0273502692
  0
LINE
  5
659
100
AcDbEntity
  8
SMUSSO
100
AcDbLine
 62
7
  6
CONTINUOUS
 10
1.75
 20
12.15
 11
2.3273502692
 21
11.5726497308
  0
LINE
  5
65A
100
AcDbEntity
  8
ASSI
100
AcDbLine
 62
7
  6
CONTINUOUS
 10
1.75
 20
12.15
 11
2.3273502692
 21
11.5726497308
  0
LINE
  5
65B
100
AcDbEntity
  8
RACCORDO
100
AcDbLine
 62
7
  6
CONTINUOUS
 10
7.3501246809
 20
20.4484702548
 11
7.3
 21
20.9
  0
LINE
  5
65C
100
AcDbEntity
  8
ASSI
100
AcDbLine
 62
7
  6
CONTINUOUS
 10
7.3501246809
 20
20.4484702548
 11
7.3
 21
20.9
  0
LINE
  5
65D
100
AcDbEntity
  8
CURVE
100
AcDbLine
 62
253
  6
CONTINUOUS
 10
11.0720597837
 20
8.5345
 11
11.0908431442
 21
8.233126
  0
LINE
  5
65E
100
AcDbEntity
  8
CURVE
100
AcDbLine
 62
253
  6
CONTINUOUS
 10
11.1047504846
 20
14.22041
 11
11.069911554
 21
14.790021
  0
LINE
  5
65F
100
AcDbEntity
  8
CURVE
100
AcDbLine
 62
253
  6
CONTINUOUS
 10
11.0541368532
 20
8.825329
 11
11.0642411365
 21
8.658312
  0
LINE
  5
660
100
AcDbEntity
  8
CURVE
100
AcDbLine
 62
253
  6
CONTINUOUS
 10
11.1047504846
 20
8.514517
 11
11.0541368532
 21
9.424033
  0
LINE
  5
661
100
AcDbEntity
  8
CURVE
100
AcDbLine
 62
253
  6
CONTINUOUS
 10
11.0541368532
 20
14.547617
 11
11.1047504846
 21
13.615552
  0
LINE
  5
662
100
AcDbEntity
  8
CURVE
100
AcDbLine
 62
253
  6
CONTINUOUS
 10
11.1047504846
 20
10.389084
 11
11.0766496454
 21
10.994355
  0
LINE
  5
663
100
AcDbEntity
  8
CURVE
100
AcDbLine
 62
253
  6
CONTINUOUS
 10
11.0541368532
 20
10.955216
 11
11.087048832
 21
10.235548
  0
LINE
  5
664
100
AcDbEntity
  8
CURVE
100
AcDbLine
 62
253
  6
CONTINUOUS
 10
10.9946735827
 20
-13.8285721064
 11
10.9994106647
 21
-13.5571436644
  0
LINE
  5
665
100
AcDbEntity
  8
CURVE
100
AcDbLine
 62
253
  6
CONTINUOUS
 10
11.0088848281
 20
-13.0142865539
 11
11.0136219105
 21
-12.7428581119
  0
LINE
  5
666
100
AcDbEntity
  8
CURVE
100
AcDbLine
 62
253
  6
CONTINUOUS
 10
11.0136219105
 20
-14.2357152224
 11
11.0088848281
 21
-14.5071436644
  0
LINE
  5
667
100
AcDbEntity
  8
CURVE
100
AcDbLine
 62
253
  6
CONTINUOUS
 10
10.9946735827
 20
-15.4571436644
 11
10.9994106647
 21
-15.1857152224
  0
LINE
  5
668
100
AcDbEntity
  8
CURVE
100
AcDbLine
 62
253
  6
CONTINUOUS
 10
11.0278331549
 20
-15.5928578854
 11
11.0230960735
 21
-15.8642867804
  0
LINE
  5
669
100
AcDbEntity
  8
CURVE
100
AcDbLine
 62
253
  6
CONTINUOUS
 10
10.8138653217
 20
-15.6285711288
 11
10.8235902858
 21
-15.2571427345
  0
LINE
  5
66A
100
AcDbEntity
  8
CURVE
100
AcDbLine
 62
253
  6
CONTINUOUS
 10
11.0278331549
 20
-14.2357152224
 11
11.0230960735
 21
-14.416667366
  0
LINE
  5
66B
100
AcDbEntity
  8
CURVE
100
AcDbLine
 62
253
  6
CONTINUOUS
 10
10.9994106647
 20
-15.1857152224
 11
11.0041477466
 21
-15.0500010014
  0
LINE
  5
66C
100
AcDbEntity
  8
CURVE
100
AcDbLine
 62
253
  6
CONTINUOUS
 10
11.0230960735
 20
-15.8642867804
 11
11.018358992
 21
-16.0000010014
  0
LINE
  5
66D
100
AcDbEntity
  8
CURVE
100
AcDbLine
 62
7
  6
CONTINUOUS
 10
11.1046306717
 20
-11.216139
 11
11.0645291608
 21
-12.328754
  0
LINE
  5
66E
100
AcDbEntity
  8
CURVE
100
AcDbLine
 62
7
  6
CONTINUOUS
 10
11.0540263841
 20
-12.027546
 11
11.0963787381
 21
-10.87477
  0
LINE
  5
66F
100
AcDbEntity
  8
CURVE
100
AcDbLine
 62
7
  6
CONTINUOUS
 10
11.0540263841
 20
-9.975074
 11
11.1046306717
 21
-8.9669
  0
LINE
  5
670
100
AcDbEntity
  8
CURVE
100
AcDbLine
 62
7
  6
CONTINUOUS
 10
11.0540263841
 20
-16.0
 11
11.1046306717
 21
-14.991935
  0
LINE
  5
671
100
AcDbEntity
  8
CURVE
100
AcDbLine
 62
7
  6
CONTINUOUS
 10
11.0647516799
 20
-9.139549
 11
11.0540263841
 21
-9.348431
  0
LINE
  5
672
100
AcDbEntity
  8
CURVE
100
AcDbLine
 62
7
  6
CONTINUOUS
 10
11.0647516799
 20
-15.164584
 11
11.0540263841
 21
-15.373574
  0
LINE
  5
673
100
AcDbEntity
  8
CURVE
100
AcDbLine
 62
7
  6
CONTINUOUS
 10
11.0949607192
 20
-8.581471
 11
11.0731612895
 21
-8.982943
  0
LINE
  5
674
100
AcDbEntity
  8
CURVE
100
AcDbLine
 62
7
  6
CONTINUOUS
 10
11.0949578574
 20
-14.606449
 11
11.0731612895
 21
-15.007869
  0
LINE
  5
675
100
AcDbEntity
  8
CURVE
100
AcDbLine
 62
253
  6
CONTINUOUS
 10
10.8008987014
 20
-14.0500007629
 11
10.8235902858
 21
-13.6785711288
  0
LINE
  5
676
100
AcDbEntity
  8
DRAFT
100
AcDbLine
 62
7
  6
CONTINUOUS
 10
-3.5
 20
-19.7
 11
-3.4109791689
 21
-19.6109791689
  0
LINE
  5
677
100
AcDbEntity
  8
ASSI
100
AcDbLine
 62
7
  6
CONTINUOUS
 10
-3.5
 20
-19.7
 11
-3.4109791689
 21
-19.6109791689
  0
LINE
  5
678
100
AcDbEntity
  8
DRAFT
100
AcDbLine
 62
7
  6
CONTINUOUS
 10
-3.4109791689
 20
-19.8109791689
 11
-3.5
 21
-19.9
  0
LINE
  5
679
100
AcDbEntity
  8
ASSI
100
AcDbLine
 62
7
  6
CONTINUOUS
 10
-3.4109791689
 20
-19.8109791689
 11
-3.5
 21
-19.9
  0
LINE
  5
67A
100
AcDbEntity
  8
CURVE
100
AcDbLine
 62
7
  6
CONTINUOUS
 10
11.0540263841
 20
-5.4626557637
 11
11.1046306717
 21
-5.412051476
  0
LINE
  5
67B
100
AcDbEntity
  8
CURVE
100
AcDbLine
 62
7
  6
CONTINUOUS
 10
11.0540263841
 20
-5.8826771917
 11
11.0624359936
 21
-5.8742675822
  0
LINE
  5
67C
100
AcDbEntity
  8
CURVE
100
AcDbLine
 62
7
  6
CONTINUOUS
 10
11.0540263841
 20
-6.3026986198
 11
11.0624359936
 21
-6.2942890102
  0
LINE
  5
67D
100
AcDbEntity
  8
RACCORDO
100
AcDbLine
 62
7
  6
CONTINUOUS
 10
-2.5
 20
-19.9
 11
-2.4979803239
 21
-19.8979803239
  0
LINE
  5
67E
100
AcDbEntity
  8
ASSI
100
AcDbLine
 62
7
  6
CONTINUOUS
 10
-2.5
 20
-19.9
 11
-2.4979803239
 21
-19.8979803239
  0
LINE
  5
67F
100
AcDbEntity
  8
CURVE
100
AcDbLine
 62
7
  6
CONTINUOUS
 10
11.0540263841
 20
-6.7227200478
 11
11.0624359936
 21
-6.7143104382
  0
LINE
  5
680
100
AcDbEntity
  8
RACCORDO
100
AcDbLine
 62
253
  6
CONTINUOUS
 10
-11.15
 20
-17.6716990487
 11
-10.4864028998
 21
-17.3968249551
  0
LINE
  5
681
100
AcDbEntity
  8
ASSI
100
AcDbLine
 62
253
  6
CONTINUOUS
 10
-11.15
 20
-17.6716990487
 11
-10.4864028998
 21
-17.3968249551
  0
LINE
  5
682
100
AcDbEntity
  8
SMUSSO
100
AcDbLine
 62
7
  6
CONTINUOUS
 10
2.3273502692
 20
11.5726497308
 11
-5.8273502692
 21
11.5726497308
  0
LINE
  5
683
100
AcDbEntity
  8
ASSI
100
AcDbLine
 62
7
  6
CONTINUOUS
 10
2.3273502692
 20
11.5726497308
 11
-5.8273502692
 21
11.5726497308
  0
LINE
  5
684
100
AcDbEntity
  8
RACCORDO
100
AcDbLine
 62
7
  6
CONTINUOUS
 10
9.35
 20
11.7
 11
10.5870741561
 21
11.7
  0
LINE
  5
685
100
AcDbEntity
  8
ASSI
100
AcDbLine
 62
7
  6
CONTINUOUS
 10
9.35
 20
11.7
 11
10.5870741561
 21
11.7
  0
LINE
  5
686
100
AcDbEntity
  8
CURVE
100
AcDbLine
 62
253
  6
CONTINUOUS
 10
-8.15
 20
12.0238090515
 11
-7.685714294
 21
12.0238090515
  0
LINE
  5
687
100
AcDbEntity
  8
SMUSSO
100
AcDbLine
 62
7
  6
CONTINUOUS
 10
1.75
 20
12.15
 11
-5.25
 21
12.15
  0
LINE
  5
688
100
AcDbEntity
  8
ASSI
100
AcDbLine
 62
7
  6
CONTINUOUS
 10
1.75
 20
12.15
 11
-5.25
 21
12.15
  0
LINE
  5
689
100
AcDbEntity
  8
0
100
AcDbLine
 62
7
  6
CONTINUOUS
 10
1.75
 20
12.5
 11
-4.5
 21
12.5
  0
LINE
  5
68A
100
AcDbEntity
  8
CURVE
100
AcDbLine
 62
253
  6
CONTINUOUS
 10
-7.685714294
 20
12.6738090515
 11
-8.0571428627
 21
12.6738090515
  0
LINE
  5
68B
100
AcDbEntity
  8
CURVE
100
AcDbLine
 62
253
  6
CONTINUOUS
 10
11.1047535218
 20
12.785664
 11
11.0541368532
 21
12.785664
  0
LINE
  5
68C
100
AcDbEntity
  8
RACCORDO
100
AcDbLine
 62
253
  6
CONTINUOUS
 10
-10.4864028998
 20
17.3968249552
 11
-11.15
 21
17.6716990487
  0
LINE
  5
68D
100
AcDbEntity
  8
ASSI
100
AcDbLine
 62
253
  6
CONTINUOUS
 10
-10.4864028998
 20
17.3968249552
 11
-11.15
 21
17.6716990487
  0
LINE
  5
68E
100
AcDbEntity
  8
DRAFT
100
AcDbLine
 62
7
  6
CONTINUOUS
 10
-3.5
 20
19.7
 11
-3.4109791689
 21
19.6109791689
  0
LINE
  5
68F
100
AcDbEntity
  8
ASSI
100
AcDbLine
 62
7
  6
CONTINUOUS
 10
-3.5
 20
19.7
 11
-3.4109791689
 21
19.6109791689
  0
LINE
  5
690
100
AcDbEntity
  8
DRAFT
100
AcDbLine
 62
7
  6
CONTINUOUS
 10
-3.5
 20
19.9
 11
-3.4109791689
 21
19.8109791689
  0
LINE
  5
691
100
AcDbEntity
  8
ASSI
100
AcDbLine
 62
7
  6
CONTINUOUS
 10
-3.5
 20
19.9
 11
-3.4109791689
 21
19.8109791689
  0
LINE
  5
692
100
AcDbEntity
  8
RACCORDO
100
AcDbLine
 62
7
  6
CONTINUOUS
 10
-2.5
 20
19.9
 11
-2.4979803239
 21
19.8979803239
  0
LINE
  5
693
100
AcDbEntity
  8
ASSI
100
AcDbLine
 62
7
  6
CONTINUOUS
 10
-2.5
 20
19.9
 11
-2.4979803239
 21
19.8979803239
  0
LINE
  5
694
100
AcDbEntity
  8
CURVE
100
AcDbLine
 62
7
  6
CONTINUOUS
 10
11.0540263841
 20
-7.5627629038
 11
11.0716743451
 21
-7.5451149428
  0
LINE
  5
695
100
AcDbEntity
  8
CURVE
100
AcDbLine
 62
7
  6
CONTINUOUS
 10
11.063867872
 20
-7.9729428439
 11
11.0910156185
 21
-7.9457950974
  0
LINE
  5
696
100
AcDbEntity
  8
ASSI
100
AcDbLine
 62
7
  6
CONTINUOUS
 10
-4.4
 20
-23.8
 11
-4.3563493531
 21
-23.7563493531
  0
LINE
  5
697
100
AcDbEntity
  8
CURVE
100
AcDbLine
 62
7
  6
CONTINUOUS
 10
11.0647516799
 20
-8.392080464
 11
11.0731612895
 21
-8.3836708544
  0
LINE
  5
698
100
AcDbEntity
  8
CURVE
100
AcDbLine
 62
7
  6
CONTINUOUS
 10
11.0843653394
 20
-8.3724668046
 11
11.1046306717
 21
-8.3522014722
  0
LINE
  5
699
100
AcDbEntity
  8
CURVE
100
AcDbLine
 62
7
  6
CONTINUOUS
 10
11.0647516799
 20
-8.812101892
 11
11.0731612895
 21
-8.8036922825
  0
LINE
  5
69A
100
AcDbEntity
  8
CURVE
100
AcDbLine
 62
7
  6
CONTINUOUS
 10
11.0834532192
 20
-8.7934003527
 11
11.1046306717
 21
-8.7722229002
  0
LINE
  5
69B
100
AcDbEntity
  8
CURVE
100
AcDbLine
 62
7
  6
CONTINUOUS
 10
11.0597410648
 20
-9.2371339352
 11
11.0927219939
 21
-9.2041530061
  0
LINE
  5
69C
100
AcDbEntity
  8
CURVE
100
AcDbLine
 62
7
  6
CONTINUOUS
 10
11.0540263841
 20
-9.662870044
 11
11.0705252965
 21
-9.6463711316
  0
LINE
  5
69D
100
AcDbEntity
  8
RACCORDO
100
AcDbLine
 62
253
  6
CONTINUOUS
 10
-10.5643027805
 20
-19.0856972195
 11
-9.9007029088
 21
-18.8108290722
  0
LINE
  5
69E
100
AcDbEntity
  8
ASSI
100
AcDbLine
 62
253
  6
CONTINUOUS
 10
-10.5643027805
 20
-19.0856972195
 11
-9.9007029088
 21
-18.8108290722
  0
LINE
  5
69F
100
AcDbEntity
  8
CURVE
100
AcDbLine
 62
253
  6
CONTINUOUS
 10
-7.871428588
 20
13.0452386856
 11
-8.4285714507
 21
13.0452386856
  0
LINE
  5
6A0
100
AcDbEntity
  8
CURVE
100
AcDbLine
 62
253
  6
CONTINUOUS
 10
11.0541368532
 20
13.390935
 11
11.1047535218
 21
13.390935
  0
LINE
  5
6A1
100
AcDbEntity
  8
CURVE
100
AcDbLine
 62
253
  6
CONTINUOUS
 10
3.1
 20
13.5
 11
5.0
 21
13.5
  0
LINE
  5
6A2
100
AcDbEntity
  8
CURVE
100
AcDbLine
 62
253
  6
CONTINUOUS
 10
-8.4285714507
 20
13.6952386856
 11
-7.871428588
 21
13.6952386856
  0
LINE
  5
6A3
100
AcDbEntity
  8
CURVE
100
AcDbLine
 62
253
  6
CONTINUOUS
 10
-7.5
 20
14.0666670799
 11
-8.8
 21
14.0666670799
  0
LINE
  5
6A4
100
AcDbEntity
  8
CURVE
100
AcDbLine
 62
253
  6
CONTINUOUS
 10
-8.8
 20
14.7166670799
 11
-7.5
 21
14.7166670799
  0
LINE
  5
6A5
100
AcDbEntity
  8
RACCORDO
100
AcDbLine
 62
253
  6
CONTINUOUS
 10
-9.9007029088
 20
18.8108290722
 11
-10.5643027805
 21
19.0856972195
  0
LINE
  5
6A6
100
AcDbEntity
  8
ASSI
100
AcDbLine
 62
253
  6
CONTINUOUS
 10
-9.9007029088
 20
18.8108290722
 11
-10.5643027805
 21
19.0856972195
  0
LINE
  5
6A7
100
AcDbEntity
  8
ASSI
100
AcDbLine
 62
7
  6
CONTINUOUS
 10
-4.4
 20
23.8
 11
-4.3563493531
 21
23.7563493531
  0
LINE
  5
6A8
100
AcDbEntity
  8
CURVE
100
AcDbLine
 62
253
  6
CONTINUOUS
 10
11.0541368532
 20
11.880779
 11
11.0871866048
 21
11.750162
  0
LINE
  5
6A9
100
AcDbEntity
  8
CURVE
100
AcDbLine
 62
253
  6
CONTINUOUS
 10
11.1047504846
 20
12.198005
 11
11.0541368532
 21
12.459827
  0
LINE
  5
6AA
100
AcDbEntity
  8
CURVE
100
AcDbLine
 62
7
  6
CONTINUOUS
 10
11.0540263841
 20
-10.5029129
 11
11.1046306717
 21
-10.4523086123
  0
LINE
  5
6AB
100
AcDbEntity
  8
CURVE
100
AcDbLine
 62
7
  6
CONTINUOUS
 10
11.0961570652
 20
-10.8808036469
 11
11.1046306717
 21
-10.8723300404
  0
LINE
  5
6AC
100
AcDbEntity
  8
CURVE
100
AcDbLine
 62
7
  6
CONTINUOUS
 10
11.0801371468
 20
-11.3168449933
 11
11.1017810711
 21
-11.295201069
  0
LINE
  5
6AD
100
AcDbEntity
  8
CURVE
100
AcDbLine
 62
7
  6
CONTINUOUS
 10
11.0641172284
 20
-11.7528863397
 11
11.0860763792
 21
-11.730927189
  0
LINE
  5
6AE
100
AcDbEntity
  8
CURVE
100
AcDbLine
 62
7
  6
CONTINUOUS
 10
11.0540263841
 20
-12.1829986121
 11
11.0703716873
 21
-12.1666533089
  0
LINE
  5
6AF
100
AcDbEntity
  8
RACCORDO
100
AcDbLine
 62
7
  6
CONTINUOUS
 10
-9.5439339828
 20
-20.1060660172
 11
-9.65
 21
-20.15
  0
LINE
  5
6B0
100
AcDbEntity
  8
ASSI
100
AcDbLine
 62
7
  6
CONTINUOUS
 10
-9.5439339828
 20
-20.1060660172
 11
-9.65
 21
-20.15
  0
LINE
  5
6B1
100
AcDbEntity
  8
0
100
AcDbLine
 62
7
  6
CONTINUOUS
 10
-4.5
 20
15.1
 11
1.75
 21
15.1
  0
LINE
  5
6B2
100
AcDbEntity
  8
SMUSSO
100
AcDbLine
 62
7
  6
CONTINUOUS
 10
-5.25
 20
15.45
 11
1.75
 21
15.45
  0
LINE
  5
6B3
100
AcDbEntity
  8
ASSI
100
AcDbLine
 62
7
  6
CONTINUOUS
 10
-5.25
 20
15.45
 11
1.75
 21
15.45
  0
LINE
  5
6B4
100
AcDbEntity
  8
RACCORDO
100
AcDbLine
 62
7
  6
CONTINUOUS
 10
9.35
 20
15.9
 11
10.5870741561
 21
15.9
  0
LINE
  5
6B5
100
AcDbEntity
  8
ASSI
100
AcDbLine
 62
7
  6
CONTINUOUS
 10
9.35
 20
15.9
 11
10.5870741561
 21
15.9
  0
LINE
  5
6B6
100
AcDbEntity
  8
SMUSSO
100
AcDbLine
 62
7
  6
CONTINUOUS
 10
-5.8273502692
 20
16.0273502692
 11
2.3273502692
 21
16.0273502692
  0
LINE
  5
6B7
100
AcDbEntity
  8
ASSI
100
AcDbLine
 62
7
  6
CONTINUOUS
 10
-5.8273502692
 20
16.0273502692
 11
2.3273502692
 21
16.0273502692
  0
LINE
  5
6B8
100
AcDbEntity
  8
RACCORDO
100
AcDbLine
 62
7
  6
CONTINUOUS
 10
-9.5439339828
 20
20.1060660172
 11
-9.65
 21
20.15
  0
LINE
  5
6B9
100
AcDbEntity
  8
ASSI
100
AcDbLine
 62
7
  6
CONTINUOUS
 10
-9.5439339828
 20
20.1060660172
 11
-9.65
 21
20.15
  0
LINE
  5
6BA
100
AcDbEntity
  8
RACCORDO
100
AcDbLine
 62
7
  6
CONTINUOUS
 10
8.9
 20
-20.9
 11
9.068456817
 21
-20.581543183
  0
LINE
  5
6BB
100
AcDbEntity
  8
ASSI
100
AcDbLine
 62
7
  6
CONTINUOUS
 10
8.9
 20
-20.9
 11
9.068456817
 21
-20.581543183
  0
LINE
  5
6BC
100
AcDbEntity
  8
CURVE
100
AcDbLine
 62
7
  6
CONTINUOUS
 10
11.0540263841
 20
-12.6030200401
 11
11.1046306717
 21
-12.5524157525
  0
LINE
  5
6BD
100
AcDbEntity
  8
CURVE
100
AcDbLine
 62
7
  6
CONTINUOUS
 10
11.0540263841
 20
-13.4430628962
 11
11.0650134734
 21
-13.4320758069
  0
LINE
  5
6BE
100
AcDbEntity
  8
CURVE
100
AcDbLine
 62
7
  6
CONTINUOUS
 10
11.0570503954
 20
-13.8600603129
 11
11.0843528285
 21
-13.8327578797
  0
LINE
  5
6BF
100
AcDbEntity
  8
CURVE
100
AcDbLine
 62
7
  6
CONTINUOUS
 10
11.0647516799
 20
-14.2723804564
 11
11.0731612895
 21
-14.2639708468
  0
LINE
  5
6C0
100
AcDbEntity
  8
CURVE
100
AcDbLine
 62
7
  6
CONTINUOUS
 10
11.0773820779
 20
-14.2597500584
 11
11.1036921837
 21
-14.2334399526
  0
LINE
  5
6C1
100
AcDbEntity
  8
CURVE
100
AcDbLine
 62
7
  6
CONTINUOUS
 10
11.0647516799
 20
-14.6924018844
 11
11.0731612895
 21
-14.6839922748
  0
LINE
  5
6C2
100
AcDbEntity
  8
CURVE
100
AcDbLine
 62
7
  6
CONTINUOUS
 10
11.0917570885
 20
-14.6653964758
 11
11.1046306717
 21
-14.6525228926
  0
LINE
  5
6C3
100
AcDbEntity
  8
RACCORDO
100
AcDbLine
 62
253
  6
CONTINUOUS
 10
9.4865552047
 20
17.3968281299
 11
10.4864028998
 21
17.3968281299
  0
LINE
  5
6C4
100
AcDbEntity
  8
ASSI
100
AcDbLine
 62
253
  6
CONTINUOUS
 10
9.4865552047
 20
17.3968281299
 11
10.4864028998
 21
17.3968281299
  0
LINE
  5
6C5
100
AcDbEntity
  8
RACCORDO
100
AcDbLine
 62
253
  6
CONTINUOUS
 10
-9.4865552047
 20
17.3968281299
 11
-10.4864028998
 21
17.3968281299
  0
LINE
  5
6C6
100
AcDbEntity
  8
ASSI
100
AcDbLine
 62
253
  6
CONTINUOUS
 10
-9.4865552047
 20
17.3968281299
 11
-10.4864028998
 21
17.3968281299
  0
LINE
  5
6C7
100
AcDbEntity
  8
RACCORDO
100
AcDbLine
 62
253
  6
CONTINUOUS
 10
9.1754487874
 20
18.1220850228
 11
-9.1754487874
 21
18.1220850228
  0
LINE
  5
6C8
100
AcDbEntity
  8
ASSI
100
AcDbLine
 62
253
  6
CONTINUOUS
 10
9.1754487874
 20
18.1220850228
 11
-9.1754487874
 21
18.1220850228
  0
LINE
  5
6C9
100
AcDbEntity
  8
RACCORDO
100
AcDbLine
 62
7
  6
CONTINUOUS
 10
9.068456817
 20
20.581543183
 11
8.9
 21
20.9
  0
LINE
  5
6CA
100
AcDbEntity
  8
ASSI
100
AcDbLine
 62
7
  6
CONTINUOUS
 10
9.068456817
 20
20.581543183
 11
8.9
 21
20.9
  0
LINE
  5
6CB
100
AcDbEntity
  8
CURVE
100
AcDbLine
 62
7
  6
CONTINUOUS
 10
11.0647516799
 20
-15.1124233124
 11
11.1003702596
 21
-15.0768047328
  0
LINE
  5
6CC
100
AcDbEntity
  8
CURVE
100
AcDbLine
 62
7
  6
CONTINUOUS
 10
11.0540263841
 20
-15.5431700363
 11
11.0781710352
 21
-15.5190253851
  0
LINE
  5
6CD
100
AcDbEntity
  8
RACCORDO
100
AcDbLine
 62
7
  6
CONTINUOUS
 10
7.2438103287
 20
-19.7561896713
 11
7.3
 21
-19.7
  0
LINE
  5
6CE
100
AcDbEntity
  8
ASSI
100
AcDbLine
 62
7
  6
CONTINUOUS
 10
7.2438103287
 20
-19.7561896713
 11
7.3
 21
-19.7
  0
LINE
  5
6CF
100
AcDbEntity
  8
CURVE
100
AcDbLine
 62
7
  6
CONTINUOUS
 10
11.0540263841
 20
-15.9631914643
 11
11.0559718109
 21
-15.9612460375
  0
LINE
  5
6D0
100
AcDbEntity
  8
DRAFT
100
AcDbLine
 62
7
  6
CONTINUOUS
 10
7.4
 20
-19.7
 11
7.4890208311
 21
-19.6109791689
  0
LINE
  5
6D1
100
AcDbEntity
  8
ASSI
100
AcDbLine
 62
7
  6
CONTINUOUS
 10
7.4
 20
-19.7
 11
7.4890208311
 21
-19.6109791689
  0
LINE
  5
6D2
100
AcDbEntity
  8
RACCORDO
100
AcDbLine
 62
253
  6
CONTINUOUS
 10
9.1754487874
 20
19.121932718
 11
-9.1754487874
 21
19.121932718
  0
LINE
  5
6D3
100
AcDbEntity
  8
ASSI
100
AcDbLine
 62
253
  6
CONTINUOUS
 10
9.1754487874
 20
19.121932718
 11
-9.1754487874
 21
19.121932718
  0
LINE
  5
6D4
100
AcDbEntity
  8
RACCORDO
100
AcDbLine
 62
7
  6
CONTINUOUS
 10
9.37801846
 20
19.6109791689
 11
7.4890208311
 21
19.6109791689
  0
LINE
  5
6D5
100
AcDbEntity
  8
ASSI
100
AcDbLine
 62
7
  6
CONTINUOUS
 10
9.37801846
 20
19.6109791689
 11
7.4890208311
 21
19.6109791689
  0
LINE
  5
6D6
100
AcDbEntity
  8
DRAFT
100
AcDbLine
 62
7
  6
CONTINUOUS
 10
-3.4109791689
 20
19.6109791689
 11
3.4109791689
 21
19.6109791689
  0
LINE
  5
6D7
100
AcDbEntity
  8
ASSI
100
AcDbLine
 62
7
  6
CONTINUOUS
 10
-3.4109791689
 20
19.6109791689
 11
3.4109791689
 21
19.6109791689
  0
LINE
  5
6D8
100
AcDbEntity
  8
RACCORDO
100
AcDbLine
 62
7
  6
CONTINUOUS
 10
-7.4890208311
 20
19.6109791689
 11
-9.37801846
 21
19.6109791689
  0
LINE
  5
6D9
100
AcDbEntity
  8
ASSI
100
AcDbLine
 62
7
  6
CONTINUOUS
 10
-7.4890208311
 20
19.6109791689
 11
-9.37801846
 21
19.6109791689
  0
LINE
  5
6DA
100
AcDbEntity
  8
DRAFT
100
AcDbLine
 62
7
  6
CONTINUOUS
 10
7.4
 20
19.7
 11
3.5
 21
19.7
  0
LINE
  5
6DB
100
AcDbEntity
  8
ASSI
100
AcDbLine
 62
7
  6
CONTINUOUS
 10
7.4
 20
19.7
 11
3.5
 21
19.7
  0
LINE
  5
6DC
100
AcDbEntity
  8
DRAFT
100
AcDbLine
 62
7
  6
CONTINUOUS
 10
-3.5
 20
19.7
 11
-7.4
 21
19.7
  0
LINE
  5
6DD
100
AcDbEntity
  8
ASSI
100
AcDbLine
 62
7
  6
CONTINUOUS
 10
-3.5
 20
19.7
 11
-7.4
 21
19.7
  0
LINE
  5
6DE
100
AcDbEntity
  8
RACCORDO
100
AcDbLine
 62
253
  6
CONTINUOUS
 10
-7.2407819689
 20
19.7564431031
 11
-6.5592180311
 21
19.7564431031
  0
LINE
  5
6DF
100
AcDbEntity
  8
ASSI
100
AcDbLine
 62
7
  6
CONTINUOUS
 10
-7.2407819689
 20
19.7564431031
 11
-6.5592180311
 21
19.7564431031
  0
LINE
  5
6E0
100
AcDbEntity
  8
RACCORDO
100
AcDbLine
 62
253
  6
CONTINUOUS
 10
6.5592180311
 20
19.7564431031
 11
7.2407819689
 21
19.7564431031
  0
LINE
  5
6E1
100
AcDbEntity
  8
ASSI
100
AcDbLine
 62
7
  6
CONTINUOUS
 10
6.5592180311
 20
19.7564431031
 11
7.2407819689
 21
19.7564431031
  0
LINE
  5
6E2
100
AcDbEntity
  8
DRAFT
100
AcDbLine
 62
7
  6
CONTINUOUS
 10
-3.4109791689
 20
19.8109791689
 11
3.4109791689
 21
19.8109791689
  0
LINE
  5
6E3
100
AcDbEntity
  8
ASSI
100
AcDbLine
 62
7
  6
CONTINUOUS
 10
-3.4109791689
 20
19.8109791689
 11
3.4109791689
 21
19.8109791689
  0
LINE
  5
6E4
100
AcDbEntity
  8
RACCORDO
100
AcDbLine
 62
7
  6
CONTINUOUS
 10
-1.5981173983
 20
19.8825449351
 11
1.5981173983
 21
19.8825449351
  0
LINE
  5
6E5
100
AcDbEntity
  8
ASSI
100
AcDbLine
 62
7
  6
CONTINUOUS
 10
-1.5981173983
 20
19.8825449351
 11
1.5981173983
 21
19.8825449351
  0
LINE
  5
6E6
100
AcDbEntity
  8
DRAFT
100
AcDbLine
 62
7
  6
CONTINUOUS
 10
-3.5
 20
19.9
 11
-2.5
 21
19.9
  0
LINE
  5
6E7
100
AcDbEntity
  8
ASSI
100
AcDbLine
 62
7
  6
CONTINUOUS
 10
-3.5
 20
19.9
 11
-2.5
 21
19.9
  0
LINE
  5
6E8
100
AcDbEntity
  8
DRAFT
100
AcDbLine
 62
7
  6
CONTINUOUS
 10
2.5
 20
19.9
 11
3.5
 21
19.9
  0
LINE
  5
6E9
100
AcDbEntity
  8
ASSI
100
AcDbLine
 62
7
  6
CONTINUOUS
 10
2.5
 20
19.9
 11
3.5
 21
19.9
  0
LINE
  5
6EA
100
AcDbEntity
  8
DRAFT
100
AcDbLine
 62
7
  6
CONTINUOUS
 10
6.4482213147
 20
19.9223308767
 11
2.5
 21
19.9223308767
  0
LINE
  5
6EB
100
AcDbEntity
  8
ASSI
100
AcDbLine
 62
7
  6
CONTINUOUS
 10
6.4482213147
 20
19.9223308767
 11
2.5
 21
19.9223308767
  0
LINE
  5
6EC
100
AcDbEntity
  8
DRAFT
100
AcDbLine
 62
7
  6
CONTINUOUS
 10
-2.5
 20
19.9223308767
 11
-6.4482213147
 21
19.9223308767
  0
LINE
  5
6ED
100
AcDbEntity
  8
ASSI
100
AcDbLine
 62
7
  6
CONTINUOUS
 10
-2.5
 20
19.9223308767
 11
-6.4482213147
 21
19.9223308767
  0
LINE
  5
6EE
100
AcDbEntity
  8
DRAFT
100
AcDbLine
 62
7
  6
CONTINUOUS
 10
-3.5
 20
20.0
 11
-2.5
 21
20.0
  0
LINE
  5
6EF
100
AcDbEntity
  8
ASSI
100
AcDbLine
 62
7
  6
CONTINUOUS
 10
-3.5
 20
20.0
 11
-2.5
 21
20.0
  0
LINE
  5
6F0
100
AcDbEntity
  8
DRAFT
100
AcDbLine
 62
7
  6
CONTINUOUS
 10
2.5
 20
20.0
 11
3.5
 21
20.0
  0
LINE
  5
6F1
100
AcDbEntity
  8
ASSI
100
AcDbLine
 62
7
  6
CONTINUOUS
 10
2.5
 20
20.0
 11
3.5
 21
20.0
  0
LINE
  5
6F2
100
AcDbEntity
  8
DRAFT
100
AcDbLine
 62
7
  6
CONTINUOUS
 10
2.5
 20
20.0532338935
 11
2.4413111231
 21
20.0532338935
  0
LINE
  5
6F3
100
AcDbEntity
  8
ASSI
100
AcDbLine
 62
7
  6
CONTINUOUS
 10
2.5
 20
20.0532338935
 11
2.4413111231
 21
20.0532338935
  0
LINE
  5
6F4
100
AcDbEntity
  8
DRAFT
100
AcDbLine
 62
7
  6
CONTINUOUS
 10
-2.4413111231
 20
20.0532338935
 11
-2.5
 21
20.0532338935
  0
LINE
  5
6F5
100
AcDbEntity
  8
ASSI
100
AcDbLine
 62
7
  6
CONTINUOUS
 10
-2.4413111231
 20
20.0532338935
 11
-2.5
 21
20.0532338935
  0
LINE
  5
6F6
100
AcDbEntity
  8
RACCORDO
100
AcDbLine
 62
253
  6
CONTINUOUS
 10
6.555294768
 20
20.0829433217
 11
-6.555294768
 21
20.0829433217
  0
LINE
  5
6F7
100
AcDbEntity
  8
ASSI
100
AcDbLine
 62
7
  6
CONTINUOUS
 10
6.555294768
 20
20.0829433217
 11
-6.555294768
 21
20.0829433217
  0
LINE
  5
6F8
100
AcDbEntity
  8
RACCORDO
100
AcDbLine
 62
253
  6
CONTINUOUS
 10
7.4
 20
20.1488813944
 11
7.3517786853
 21
20.1488813944
  0
LINE
  5
6F9
100
AcDbEntity
  8
ASSI
100
AcDbLine
 62
253
  6
CONTINUOUS
 10
7.4
 20
20.1488813944
 11
7.3517786853
 21
20.1488813944
  0
LINE
  5
6FA
100
AcDbEntity
  8
RACCORDO
100
AcDbLine
 62
253
  6
CONTINUOUS
 10
-7.3517786853
 20
20.1488813944
 11
-7.4
 21
20.1488813944
  0
LINE
  5
6FB
100
AcDbEntity
  8
ASSI
100
AcDbLine
 62
253
  6
CONTINUOUS
 10
-7.3517786853
 20
20.1488813944
 11
-7.4
 21
20.1488813944
  0
LINE
  5
6FC
100
AcDbEntity
  8
RACCORDO
100
AcDbLine
 62
7
  6
CONTINUOUS
 10
7.2438103287
 20
19.7561896713
 11
7.3
 21
19.7
  0
LINE
  5
6FD
100
AcDbEntity
  8
ASSI
100
AcDbLine
 62
7
  6
CONTINUOUS
 10
7.2438103287
 20
19.7561896713
 11
7.3
 21
19.7
  0
LINE
  5
6FE
100
AcDbEntity
  8
DRAFT
100
AcDbLine
 62
7
  6
CONTINUOUS
 10
7.4
 20
19.7
 11
7.4890208311
 21
19.6109791689
  0
LINE
  5
6FF
100
AcDbEntity
  8
ASSI
100
AcDbLine
 62
7
  6
CONTINUOUS
 10
7.4
 20
19.7
 11
7.4890208311
 21
19.6109791689
  0
LINE
  5
700
100
AcDbEntity
  8
RACCORDO
100
AcDbLine
 62
253
  6
CONTINUOUS
 10
9.1937065949
 20
18.1038272153
 11
9.1754487874
 21
18.1220850228
  0
LINE
  5
701
100
AcDbEntity
  8
ASSI
100
AcDbLine
 62
253
  6
CONTINUOUS
 10
9.1937065949
 20
18.1038272153
 11
9.1754487874
 21
18.1220850228
  0
LINE
  5
702
100
AcDbEntity
  8
RACCORDO
100
AcDbLine
 62
253
  6
CONTINUOUS
 10
9.9007029088
 20
18.8108290722
 11
9.8824478728
 21
18.8290841082
  0
LINE
  5
703
100
AcDbEntity
  8
ASSI
100
AcDbLine
 62
253
  6
CONTINUOUS
 10
9.9007029088
 20
18.8108290722
 11
9.8824478728
 21
18.8290841082
  0
LINE
  5
704
100
AcDbEntity
  8
0
100
AcDbLine
 62
7
  6
CONTINUOUS
 10
10.0999980534
 20
-18.8933759045
 11
9.9649974766
 21
-19.0283764813
  0
LINE
  5
705
100
AcDbEntity
  8
RACCORDO
100
AcDbLine
 62
7
  6
CONTINUOUS
 10
9.965720489
 20
-19.0301219878
 11
10.1017435599
 21
-18.8940989169
  0
LINE
  5
706
100
AcDbEntity
  8
ASSI
100
AcDbLine
 62
7
  6
CONTINUOUS
 10
9.965720489
 20
-19.0301219878
 11
10.1017435599
 21
-18.8940989169
  0
LINE
  5
707
100
AcDbEntity
  8
RACCORDO
100
AcDbLine
 62
7
  6
CONTINUOUS
 10
10.0850175454
 20
-19.3181305591
 11
8.5531481045
 21
-20.85
  0
LINE
  5
708
100
AcDbEntity
  8
ASSI
100
AcDbLine
 62
7
  6
CONTINUOUS
 10
10.0850175454
 20
-19.3181305591
 11
8.5531481045
 21
-20.85
  0
LINE
  5
709
100
AcDbEntity
  8
RACCORDO
100
AcDbLine
 62
7
  6
CONTINUOUS
 10
7.2587268678
 20
-22.3912731322
 11
8.25
 21
-21.4
  0
LINE
  5
70A
100
AcDbEntity
  8
ASSI
100
AcDbLine
 62
7
  6
CONTINUOUS
 10
7.2587268678
 20
-22.3912731322
 11
8.25
 21
-21.4
  0
LINE
  5
70B
100
AcDbEntity
  8
RACCORDO
100
AcDbLine
 62
7
  6
CONTINUOUS
 10
8.8
 20
-20.85
 11
10.5643027805
 21
-19.0856972195
  0
LINE
  5
70C
100
AcDbEntity
  8
ASSI
100
AcDbLine
 62
7
  6
CONTINUOUS
 10
8.8
 20
-20.85
 11
10.5643027805
 21
-19.0856972195
  0
LINE
  5
70D
100
AcDbEntity
  8
0
100
AcDbLine
 62
7
  6
CONTINUOUS
 10
8.9
 20
-20.9
 11
9.65
 21
-20.15
  0
LINE
  5
70E
100
AcDbEntity
  8
ASSI
100
AcDbLine
 62
7
  6
CONTINUOUS
 10
8.9
 20
-20.9
 11
9.65
 21
-20.15
  0
LINE
  5
70F
100
AcDbEntity
  8
RACCORDO
100
AcDbLine
 62
253
  6
CONTINUOUS
 10
7.4
 20
20.4484702548
 11
7.3501246809
 21
20.4484702548
  0
LINE
  5
710
100
AcDbEntity
  8
ASSI
100
AcDbLine
 62
253
  6
CONTINUOUS
 10
7.4
 20
20.4484702548
 11
7.3501246809
 21
20.4484702548
  0
LINE
  5
711
100
AcDbEntity
  8
RACCORDO
100
AcDbLine
 62
253
  6
CONTINUOUS
 10
-7.3501246809
 20
20.4484702548
 11
-7.4
 21
20.4484702548
  0
LINE
  5
712
100
AcDbEntity
  8
ASSI
100
AcDbLine
 62
253
  6
CONTINUOUS
 10
-7.3501246809
 20
20.4484702548
 11
-7.4
 21
20.4484702548
  0
LINE
  5
713
100
AcDbEntity
  8
RACCORDO
100
AcDbLine
 62
253
  6
CONTINUOUS
 10
6.9
 20
20.5829242832
 11
-6.9
 21
20.5829242832
  0
LINE
  5
714
100
AcDbEntity
  8
ASSI
100
AcDbLine
 62
253
  6
CONTINUOUS
 10
6.9
 20
20.5829242832
 11
-6.9
 21
20.5829242832
  0
LINE
  5
715
100
AcDbEntity
  8
DRAFT
100
AcDbLine
 62
7
  6
CONTINUOUS
 10
7.4
 20
20.85
 11
8.8
 21
20.85
  0
LINE
  5
716
100
AcDbEntity
  8
ASSI
100
AcDbLine
 62
7
  6
CONTINUOUS
 10
7.4
 20
20.85
 11
8.8
 21
20.85
  0
LINE
  5
717
100
AcDbEntity
  8
DRAFT
100
AcDbLine
 62
7
  6
CONTINUOUS
 10
-7.4
 20
20.85
 11
-8.8
 21
20.85
  0
LINE
  5
718
100
AcDbEntity
  8
ASSI
100
AcDbLine
 62
7
  6
CONTINUOUS
 10
-7.4
 20
20.85
 11
-8.8
 21
20.85
  0
LINE
  5
719
100
AcDbEntity
  8
0
100
AcDbLine
 62
7
  6
CONTINUOUS
 10
-8.9
 20
20.9
 11
-8.25
 21
20.9
  0
LINE
  5
71A
100
AcDbEntity
  8
RACCORDO
100
AcDbLine
 62
7
  6
CONTINUOUS
 10
6.9
 20
20.9
 11
8.25
 21
20.9
  0
LINE
  5
71B
100
AcDbEntity
  8
RACCORDO
100
AcDbLine
 62
7
  6
CONTINUOUS
 10
-6.9
 20
20.9
 11
-8.25
 21
20.9
  0
LINE
  5
71C
100
AcDbEntity
  8
0
100
AcDbLine
 62
7
  6
CONTINUOUS
 10
8.25
 20
20.9
 11
8.9
 21
20.9
  0
LINE
  5
71D
100
AcDbEntity
  8
ASSI
100
AcDbLine
 62
7
  6
CONTINUOUS
 10
-6.9
 20
20.9
 11
-8.9
 21
20.9
  0
LINE
  5
71E
100
AcDbEntity
  8
ASSI
100
AcDbLine
 62
7
  6
CONTINUOUS
 10
6.9
 20
20.9
 11
8.9
 21
20.9
  0
LINE
  5
71F
100
AcDbEntity
  8
0
100
AcDbLine
 62
7
  6
CONTINUOUS
 10
-3.0
 20
21.0
 11
3.0
 21
21.0
  0
LINE
  5
720
100
AcDbEntity
  8
ASSI
100
AcDbLine
 62
7
  6
CONTINUOUS
 10
-3.0
 20
21.0
 11
3.0
 21
21.0
  0
LINE
  5
721
100
AcDbEntity
  8
RACCORDO
100
AcDbLine
 62
253
  6
CONTINUOUS
 10
7.5841007192
 20
21.3126932437
 11
3.0
 21
21.3126932437
  0
LINE
  5
722
100
AcDbEntity
  8
ASSI
100
AcDbLine
 62
253
  6
CONTINUOUS
 10
7.5841007192
 20
21.3126932437
 11
3.0
 21
21.3126932437
  0
LINE
  5
723
100
AcDbEntity
  8
RACCORDO
100
AcDbLine
 62
253
  6
CONTINUOUS
 10
-3.0
 20
21.3126932437
 11
-7.5841007192
 21
21.3126932437
  0
LINE
  5
724
100
AcDbEntity
  8
ASSI
100
AcDbLine
 62
253
  6
CONTINUOUS
 10
-3.0
 20
21.3126932437
 11
-7.5841007192
 21
21.3126932437
  0
LINE
  5
725
100
AcDbEntity
  8
0
100
AcDbLine
 62
7
  6
CONTINUOUS
 10
-3.0
 20
21.7
 11
3.0
 21
21.7
  0
LINE
  5
726
100
AcDbEntity
  8
ASSI
100
AcDbLine
 62
7
  6
CONTINUOUS
 10
-3.0
 20
21.7
 11
3.0
 21
21.7
  0
LINE
  5
727
100
AcDbEntity
  8
RACCORDO
100
AcDbLine
 62
7
  6
CONTINUOUS
 10
8.5531481045
 20
20.85
 11
10.0850175454
 21
19.3181305591
  0
LINE
  5
728
100
AcDbEntity
  8
ASSI
100
AcDbLine
 62
7
  6
CONTINUOUS
 10
8.5531481045
 20
20.85
 11
10.0850175454
 21
19.3181305591
  0
LINE
  5
729
100
AcDbEntity
  8
RACCORDO
100
AcDbLine
 62
7
  6
CONTINUOUS
 10
10.5643027805
 20
19.0856972195
 11
8.8
 21
20.85
  0
LINE
  5
72A
100
AcDbEntity
  8
ASSI
100
AcDbLine
 62
7
  6
CONTINUOUS
 10
10.5643027805
 20
19.0856972195
 11
8.8
 21
20.85
  0
LINE
  5
72B
100
AcDbEntity
  8
RACCORDO
100
AcDbLine
 62
7
  6
CONTINUOUS
 10
8.25
 20
21.4
 11
7.2587268678
 21
22.3912731322
  0
LINE
  5
72C
100
AcDbEntity
  8
ASSI
100
AcDbLine
 62
7
  6
CONTINUOUS
 10
8.25
 20
21.4
 11
7.2587268678
 21
22.3912731322
  0
LINE
  5
72D
100
AcDbEntity
  8
0
100
AcDbLine
 62
7
  6
CONTINUOUS
 10
9.65
 20
20.15
 11
8.9
 21
20.9
  0
LINE
  5
72E
100
AcDbEntity
  8
ASSI
100
AcDbLine
 62
7
  6
CONTINUOUS
 10
9.65
 20
20.15
 11
8.9
 21
20.9
  0
LINE
  5
72F
100
AcDbEntity
  8
RACCORDO
100
AcDbLine
 62
253
  6
CONTINUOUS
 10
7.3373448332
 20
22.3126551668
 11
3.0
 21
22.3126551668
  0
LINE
  5
730
100
AcDbEntity
  8
ASSI
100
AcDbLine
 62
253
  6
CONTINUOUS
 10
7.3373448332
 20
22.3126551668
 11
3.0
 21
22.3126551668
  0
LINE
  5
731
100
AcDbEntity
  8
RACCORDO
100
AcDbLine
 62
253
  6
CONTINUOUS
 10
-3.0
 20
22.3126551668
 11
-7.3373448332
 21
22.3126551668
  0
LINE
  5
732
100
AcDbEntity
  8
ASSI
100
AcDbLine
 62
253
  6
CONTINUOUS
 10
-3.0
 20
22.3126551668
 11
-7.3373448332
 21
22.3126551668
  0
LINE
  5
733
100
AcDbEntity
  8
DRAFT
100
AcDbLine
 62
7
  6
CONTINUOUS
 10
3.5
 20
22.3380392387
 11
3.0
 21
22.3380392387
  0
LINE
  5
734
100
AcDbEntity
  8
ASSI
100
AcDbLine
 62
7
  6
CONTINUOUS
 10
3.5
 20
22.3380392387
 11
3.0
 21
22.3380392387
  0
LINE
  5
735
100
AcDbEntity
  8
DRAFT
100
AcDbLine
 62
7
  6
CONTINUOUS
 10
-3.0
 20
22.3380392387
 11
-3.5
 21
22.3380392387
  0
LINE
  5
736
100
AcDbEntity
  8
ASSI
100
AcDbLine
 62
7
  6
CONTINUOUS
 10
-3.0
 20
22.3380392387
 11
-3.5
 21
22.3380392387
  0
LINE
  5
737
100
AcDbEntity
  8
RACCORDO
100
AcDbLine
 62
7
  6
CONTINUOUS
 10
10.6498476749
 20
22.3912731322
 11
7.2587268678
 21
22.3912731322
  0
LINE
  5
738
100
AcDbEntity
  8
ASSI
100
AcDbLine
 62
7
  6
CONTINUOUS
 10
10.6498476749
 20
22.3912731322
 11
7.2587268678
 21
22.3912731322
  0
LINE
  5
739
100
AcDbEntity
  8
RACCORDO
100
AcDbLine
 62
7
  6
CONTINUOUS
 10
-7.2587268678
 20
22.3912731322
 11
-10.6498476749
 21
22.3912731322
  0
LINE
  5
73A
100
AcDbEntity
  8
ASSI
100
AcDbLine
 62
7
  6
CONTINUOUS
 10
-7.2587268678
 20
22.3912731322
 11
-10.6498476749
 21
22.3912731322
  0
LINE
  5
73B
100
AcDbEntity
  8
RACCORDO
100
AcDbLine
 62
7
  6
CONTINUOUS
 10
10.6323926099
 20
22.4
 11
8.25
 21
22.4
  0
LINE
  5
73C
100
AcDbEntity
  8
DRAFT
100
AcDbLine
 62
7
  6
CONTINUOUS
 10
-8.25
 20
22.4
 11
-4.4
 21
22.4
  0
LINE
  5
73D
100
AcDbEntity
  8
DRAFT
100
AcDbLine
 62
7
  6
CONTINUOUS
 10
4.4
 20
22.4
 11
8.25
 21
22.4
  0
LINE
  5
73E
100
AcDbEntity
  8
ASSI
100
AcDbLine
 62
7
  6
CONTINUOUS
 10
4.4
 20
22.4
 11
10.6323926099
 21
22.4
  0
LINE
  5
73F
100
AcDbEntity
  8
RACCORDO
100
AcDbLine
 62
7
  6
CONTINUOUS
 10
-8.25
 20
22.4
 11
-10.6323926099
 21
22.4
  0
LINE
  5
740
100
AcDbEntity
  8
ASSI
100
AcDbLine
 62
7
  6
CONTINUOUS
 10
-4.4
 20
22.4
 11
-10.6323926099
 21
22.4
  0
LINE
  5
741
100
AcDbEntity
  8
RACCORDO
100
AcDbLine
 62
7
  6
CONTINUOUS
 10
10.4007229979
 20
23.1226497308
 11
8.4992770021
 21
23.1226497308
  0
LINE
  5
742
100
AcDbEntity
  8
ASSI
100
AcDbLine
 62
7
  6
CONTINUOUS
 10
10.4007229979
 20
23.1226497308
 11
8.4992770021
 21
23.1226497308
  0
LINE
  5
743
100
AcDbEntity
  8
RACCORDO
100
AcDbLine
 62
7
  6
CONTINUOUS
 10
-8.4992770021
 20
23.1226497308
 11
-10.4007229979
 21
23.1226497308
  0
LINE
  5
744
100
AcDbEntity
  8
ASSI
100
AcDbLine
 62
7
  6
CONTINUOUS
 10
-8.4992770021
 20
23.1226497308
 11
-10.4007229979
 21
23.1226497308
  0
LINE
  5
745
100
AcDbEntity
  8
RACCORDO
100
AcDbLine
 62
253
  6
CONTINUOUS
 10
-10.3956323968
 20
23.6278312164
 11
-8.5043676032
 21
23.6278312164
  0
LINE
  5
746
100
AcDbEntity
  8
ASSI
100
AcDbLine
 62
253
  6
CONTINUOUS
 10
-10.3956323968
 20
23.6278312164
 11
-8.5043676032
 21
23.6278312164
  0
LINE
  5
747
100
AcDbEntity
  8
RACCORDO
100
AcDbLine
 62
253
  6
CONTINUOUS
 10
8.5043676032
 20
23.6278312164
 11
10.3956323968
 21
23.6278312164
  0
LINE
  5
748
100
AcDbEntity
  8
ASSI
100
AcDbLine
 62
253
  6
CONTINUOUS
 10
8.5043676032
 20
23.6278312164
 11
10.3956323968
 21
23.6278312164
  0
LINE
  5
749
100
AcDbEntity
  8
ASSI
100
AcDbLine
 62
7
  6
CONTINUOUS
 10
-4.3563493531
 20
23.7563493531
 11
-3.5
 21
23.7563493531
  0
LINE
  5
74A
100
AcDbEntity
  8
ASSI
100
AcDbLine
 62
7
  6
CONTINUOUS
 10
3.5
 20
23.7563493531
 11
4.3563493531
 21
23.7563493531
  0
LINE
  5
74B
100
AcDbEntity
  8
DRAFT
100
AcDbLine
 62
7
  6
CONTINUOUS
 10
-3.5
 20
23.7941821702
 11
3.5
 21
23.7941821702
  0
LINE
  5
74C
100
AcDbEntity
  8
ASSI
100
AcDbLine
 62
7
  6
CONTINUOUS
 10
-3.5
 20
23.7941821702
 11
3.5
 21
23.7941821702
  0
LINE
  5
74D
100
AcDbEntity
  8
DRAFT
100
AcDbLine
 62
7
  6
CONTINUOUS
 10
4.4
 20
23.8
 11
-4.4
 21
23.8
  0
LINE
  5
74E
100
AcDbEntity
  8
ASSI
100
AcDbLine
 62
7
  6
CONTINUOUS
 10
4.4
 20
23.8
 11
-4.4
 21
23.8
  0
LINE
  5
74F
100
AcDbEntity
  8
RACCORDO
100
AcDbLine
 62
253
  6
CONTINUOUS
 10
8.254371834
 20
23.8443375673
 11
10.645628166
 21
23.8443375673
  0
LINE
  5
750
100
AcDbEntity
  8
RACCORDO
100
AcDbLine
 62
253
  6
CONTINUOUS
 10
-8.254371834
 20
23.8443375673
 11
-10.645628166
 21
23.8443375673
  0
LINE
  5
751
100
AcDbEntity
  8
ASSI
100
AcDbLine
 62
253
  6
CONTINUOUS
 10
8.254371834
 20
23.8443375673
 11
10.645628166
 21
23.8443375673
  0
LINE
  5
752
100
AcDbEntity
  8
ASSI
100
AcDbLine
 62
253
  6
CONTINUOUS
 10
-8.254371834
 20
23.8443375673
 11
-10.645628166
 21
23.8443375673
  0
LINE
  5
753
100
AcDbEntity
  8
RACCORDO
100
AcDbLine
 62
253
  6
CONTINUOUS
 10
10.6466029582
 20
-22.392895367
 11
10.6323926099
 21
-22.4
  0
LINE
  5
754
100
AcDbEntity
  8
ASSI
100
AcDbLine
 62
253
  6
CONTINUOUS
 10
10.6466029582
 20
-22.392895367
 11
10.6323926099
 21
-22.4
  0
LINE
  5
755
100
AcDbEntity
  8
RACCORDO
100
AcDbLine
 62
253
  6
CONTINUOUS
 10
8.254371834
 20
24.2456323968
 11
10.645628166
 21
24.2456323968
  0
LINE
  5
756
100
AcDbEntity
  8
RACCORDO
100
AcDbLine
 62
253
  6
CONTINUOUS
 10
-8.254371834
 20
24.2456323968
 11
-10.645628166
 21
24.2456323968
  0
LINE
  5
757
100
AcDbEntity
  8
ASSI
100
AcDbLine
 62
253
  6
CONTINUOUS
 10
8.254371834
 20
24.2456323968
 11
10.645628166
 21
24.2456323968
  0
LINE
  5
758
100
AcDbEntity
  8
ASSI
100
AcDbLine
 62
253
  6
CONTINUOUS
 10
-8.254371834
 20
24.2456323968
 11
-10.645628166
 21
24.2456323968
  0
LINE
  5
759
100
AcDbEntity
  8
RACCORDO
100
AcDbLine
 62
253
  6
CONTINUOUS
 10
10.3956323968
 20
24.495628166
 11
8.5043676032
 21
24.495628166
  0
LINE
  5
75A
100
AcDbEntity
  8
ASSI
100
AcDbLine
 62
7
  6
CONTINUOUS
 10
10.3956323968
 20
24.495628166
 11
8.5043676032
 21
24.495628166
  0
LINE
  5
75B
100
AcDbEntity
  8
RACCORDO
100
AcDbLine
 62
253
  6
CONTINUOUS
 10
-8.5043676032
 20
24.495628166
 11
-10.3956323968
 21
24.495628166
  0
LINE
  5
75C
100
AcDbEntity
  8
ASSI
100
AcDbLine
 62
7
  6
CONTINUOUS
 10
-8.5043676032
 20
24.495628166
 11
-10.3956323968
 21
24.495628166
  0
LINE
  5
75D
100
AcDbEntity
  8
RACCORDO
100
AcDbLine
 62
253
  6
CONTINUOUS
 10
10.6323926099
 20
22.4
 11
10.6466017773
 21
22.3928959574
  0
LINE
  5
75E
100
AcDbEntity
  8
ASSI
100
AcDbLine
 62
253
  6
CONTINUOUS
 10
10.6323926099
 20
22.4
 11
10.6466017773
 21
22.3928959574
  0
ARC
  5
75F
100
AcDbEntity
  8
CURVE
100
AcDbCircle
 62
253
  6
CONTINUOUS
 10
-80.5721788324
 20
5.9833401104
 40
91.6687814635
100
AcDbArc
 50
359.8883075786
 51
0.1846725388
  0
ARC
  5
760
100
AcDbEntity
  8
RACCORDO
100
AcDbCircle
 62
7
  6
CONTINUOUS
 10
-10.6323927659
 20
-21.8998729306
 40
0.5001270694
100
AcDbArc
 50
267.982455317
 51
270.0000178742
  0
ARC
  5
761
100
AcDbEntity
  8
ASSI
100
AcDbCircle
 62
7
  6
CONTINUOUS
 10
-10.6323927659
 20
-21.8998729306
 40
0.5001270694
100
AcDbArc
 50
267.982455317
 51
270.0000178742
  0
ARC
  5
762
100
AcDbEntity
  8
RACCORDO
100
AcDbCircle
 62
7
  6
CONTINUOUS
 10
-10.6324618824
 20
-21.9001237906
 40
0.499875135
100
AcDbArc
 50
243.4318543999
 51
267.9894638354
  0
ARC
  5
763
100
AcDbEntity
  8
ASSI
100
AcDbCircle
 62
7
  6
CONTINUOUS
 10
-8.5008468614
 20
-24.2497761815
 40
0.250870749
100
AcDbArc
 50
338.2057000398
 51
351.7942873162
  0
ARC
  5
764
100
AcDbEntity
  8
ASSI
100
AcDbCircle
 62
7
  6
CONTINUOUS
 10
-10.3997761815
 20
-24.2491531386
 40
0.250870749
100
AcDbArc
 50
248.2057000398
 51
261.7942873162
  0
ARC
  5
765
100
AcDbEntity
  8
RACCORDO
100
AcDbCircle
 62
7
  6
CONTINUOUS
 10
-8.5000482821
 20
-24.2494450489
 40
0.2505549566
100
AcDbArc
 50
270.0120084182
 51
280.8966878703
  0
ARC
  5
766
100
AcDbEntity
  8
RACCORDO
100
AcDbCircle
 62
7
  6
CONTINUOUS
 10
-10.3994450489
 20
-24.2499517179
 40
0.2505549566
100
AcDbArc
 50
180.0120084182
 51
190.8966878703
  0
ARC
  5
767
100
AcDbEntity
  8
RACCORDO
100
AcDbCircle
 62
7
  6
CONTINUOUS
 10
-8.5003768759
 20
-24.2499774933
 40
0.2503768773
100
AcDbArc
 50
351.8245330495
 51
359.9938814446
  0
ARC
  5
768
100
AcDbEntity
  8
RACCORDO
100
AcDbCircle
 62
7
  6
CONTINUOUS
 10
-10.3999774933
 20
-24.2496231241
 40
0.2503768773
100
AcDbArc
 50
261.8245330495
 51
269.9938814446
  0
ARC
  5
769
100
AcDbEntity
  8
ASSI
100
AcDbCircle
 62
7
  6
CONTINUOUS
 10
-8.5003768759
 20
-24.2499774933
 40
0.2503768773
100
AcDbArc
 50
351.8245330495
 51
359.9938814446
  0
ARC
  5
76A
100
AcDbEntity
  8
ASSI
100
AcDbCircle
 62
7
  6
CONTINUOUS
 10
-10.3999774933
 20
-24.2496231241
 40
0.2503768773
100
AcDbArc
 50
261.8245330495
 51
269.9938814446
  0
ARC
  5
76B
100
AcDbEntity
  8
RACCORDO
100
AcDbCircle
 62
253
  6
CONTINUOUS
 10
-8.5043778172
 20
-24.2456221828
 40
0.2500059834
100
AcDbArc
 50
270.0023408263
 51
359.9976591737
  0
ARC
  5
76C
100
AcDbEntity
  8
RACCORDO
100
AcDbCircle
 62
253
  6
CONTINUOUS
 10
-10.3956221828
 20
-24.2456221828
 40
0.2500059834
100
AcDbArc
 50
180.0023408263
 51
269.9976591737
  0
ARC
  5
76D
100
AcDbEntity
  8
ASSI
100
AcDbCircle
 62
7
  6
CONTINUOUS
 10
-8.5043778172
 20
-24.2456221828
 40
0.2500059834
100
AcDbArc
 50
270.0023408263
 51
359.9976591737
  0
ARC
  5
76E
100
AcDbEntity
  8
ASSI
100
AcDbCircle
 62
7
  6
CONTINUOUS
 10
-10.3956221828
 20
-24.2456221828
 40
0.2500059834
100
AcDbArc
 50
180.0023408263
 51
269.9976591737
  0
ARC
  5
76F
100
AcDbEntity
  8
RACCORDO
100
AcDbCircle
 62
7
  6
CONTINUOUS
 10
-8.4999945496
 20
-24.2500054504
 40
0.2499945075
100
AcDbArc
 50
280.9088746851
 51
349.0911253149
  0
ARC
  5
770
100
AcDbEntity
  8
RACCORDO
100
AcDbCircle
 62
7
  6
CONTINUOUS
 10
-10.4000054504
 20
-24.2500054504
 40
0.2499945075
100
AcDbArc
 50
190.9088746851
 51
259.0911253149
  0
ARC
  5
771
100
AcDbEntity
  8
ASSI
100
AcDbCircle
 62
7
  6
CONTINUOUS
 10
-8.4999923615
 20
-24.2500076385
 40
0.249991413
100
AcDbArc
 50
291.8177557666
 51
338.1822442334
  0
ARC
  5
772
100
AcDbEntity
  8
ASSI
100
AcDbCircle
 62
7
  6
CONTINUOUS
 10
-10.4000076385
 20
-24.2500076385
 40
0.249991413
100
AcDbArc
 50
201.8177557666
 51
248.1822442334
  0
ARC
  5
773
100
AcDbEntity
  8
RACCORDO
100
AcDbCircle
 62
7
  6
CONTINUOUS
 10
-8.499822046
 20
-24.250035419
 40
0.2498194496
100
AcDbArc
 50
349.0903870881
 51
351.8195876917
  0
ARC
  5
774
100
AcDbEntity
  8
RACCORDO
100
AcDbCircle
 62
7
  6
CONTINUOUS
 10
-10.400035419
 20
-24.250177954
 40
0.2498194496
100
AcDbArc
 50
259.0903870881
 51
261.8195876916
  0
ARC
  5
775
100
AcDbEntity
  8
RACCORDO
100
AcDbCircle
 62
253
  6
CONTINUOUS
 10
-8.4864013515
 20
-17.3967013151
 40
2.0000015524
100
AcDbArc
 50
180.0035420266
 51
224.9964793091
  0
ARC
  5
776
100
AcDbEntity
  8
ASSI
100
AcDbCircle
 62
253
  6
CONTINUOUS
 10
-8.4864013515
 20
-17.3967013151
 40
2.0000015524
100
AcDbArc
 50
180.0035420266
 51
224.9964793091
  0
ARC
  5
777
100
AcDbEntity
  8
RACCORDO
100
AcDbCircle
 62
253
  6
CONTINUOUS
 10
-9.1753174078
 20
-18.1217678446
 40
1.0001648821
100
AcDbArc
 50
225.0075262524
 51
269.9924737476
  0
ARC
  5
778
100
AcDbEntity
  8
ASSI
100
AcDbCircle
 62
253
  6
CONTINUOUS
 10
-9.1753174078
 20
-18.1217678446
 40
1.0001648821
100
AcDbArc
 50
225.0075262524
 51
269.9924737476
  0
ARC
  5
779
100
AcDbEntity
  8
RACCORDO
100
AcDbCircle
 62
253
  6
CONTINUOUS
 10
-8.4867192671
 20
-17.396833
 40
0.9998359376
100
AcDbArc
 50
179.9997209164
 51
225.0002790836
  0
ARC
  5
77A
100
AcDbEntity
  8
ASSI
100
AcDbCircle
 62
253
  6
CONTINUOUS
 10
-8.4867192671
 20
-17.396833
 40
0.9998359376
100
AcDbArc
 50
179.9997209164
 51
225.0002790836
  0
ARC
  5
77B
100
AcDbEntity
  8
ASSI
100
AcDbCircle
 62
7
  6
CONTINUOUS
 10
10.6324141787
 20
-21.8996247637
 40
0.5003763446
100
AcDbArc
 50
274.4787600334
 51
276.947928
  0
ARC
  5
77C
100
AcDbEntity
  8
RACCORDO
100
AcDbCircle
 62
7
  6
CONTINUOUS
 10
10.6323927659
 20
-21.8998729306
 40
0.5001270694
100
AcDbArc
 50
269.9999821258
 51
272.017544683
  0
ARC
  5
77D
100
AcDbEntity
  8
ASSI
100
AcDbCircle
 62
7
  6
CONTINUOUS
 10
10.6323927659
 20
-21.8998729306
 40
0.5001270694
100
AcDbArc
 50
269.9999821258
 51
272.017544683
  0
ARC
  5
77E
100
AcDbEntity
  8
RACCORDO
100
AcDbCircle
 62
7
  6
CONTINUOUS
 10
10.6324618824
 20
-21.9001237906
 40
0.499875135
100
AcDbArc
 50
272.0105361646
 51
296.5681456001
  0
ARC
  5
77F
100
AcDbEntity
  8
ASSI
100
AcDbCircle
 62
7
  6
CONTINUOUS
 10
10.6324914973
 20
-21.9006538455
 40
0.4993443675
100
AcDbArc
 50
272.0092739346
 51
274.4791361631
  0
ARC
  5
780
100
AcDbEntity
  8
ASSI
100
AcDbCircle
 62
7
  6
CONTINUOUS
 10
10.3991531386
 20
-24.2497761815
 40
0.250870749
100
AcDbArc
 50
338.2057000398
 51
351.7942873162
  0
ARC
  5
781
100
AcDbEntity
  8
ASSI
100
AcDbCircle
 62
7
  6
CONTINUOUS
 10
8.5002238185
 20
-24.2491531386
 40
0.250870749
100
AcDbArc
 50
248.2057000397
 51
261.7942873162
  0
ARC
  5
782
100
AcDbEntity
  8
RACCORDO
100
AcDbCircle
 62
7
  6
CONTINUOUS
 10
10.3999517179
 20
-24.2494450489
 40
0.2505549566
100
AcDbArc
 50
270.0120084182
 51
280.8966878703
  0
ARC
  5
783
100
AcDbEntity
  8
RACCORDO
100
AcDbCircle
 62
7
  6
CONTINUOUS
 10
8.5005549511
 20
-24.2499517179
 40
0.2505549566
100
AcDbArc
 50
180.0120084182
 51
190.8966878703
  0
ARC
  5
784
100
AcDbEntity
  8
RACCORDO
100
AcDbCircle
 62
7
  6
CONTINUOUS
 10
10.3996231241
 20
-24.2499774933
 40
0.2503768773
100
AcDbArc
 50
351.8245330495
 51
359.9938814446
  0
ARC
  5
785
100
AcDbEntity
  8
RACCORDO
100
AcDbCircle
 62
7
  6
CONTINUOUS
 10
8.5000225067
 20
-24.2496231241
 40
0.2503768773
100
AcDbArc
 50
261.8245330495
 51
269.9938814446
  0
ARC
  5
786
100
AcDbEntity
  8
ASSI
100
AcDbCircle
 62
7
  6
CONTINUOUS
 10
10.3996231241
 20
-24.2499774933
 40
0.2503768773
100
AcDbArc
 50
351.8245330495
 51
359.9938814446
  0
ARC
  5
787
100
AcDbEntity
  8
ASSI
100
AcDbCircle
 62
7
  6
CONTINUOUS
 10
8.5000225067
 20
-24.2496231241
 40
0.2503768773
100
AcDbArc
 50
261.8245330495
 51
269.9938814446
  0
ARC
  5
788
100
AcDbEntity
  8
RACCORDO
100
AcDbCircle
 62
253
  6
CONTINUOUS
 10
10.3956221828
 20
-24.2456221828
 40
0.2500059834
100
AcDbArc
 50
270.0023408263
 51
359.9976591737
  0
ARC
  5
789
100
AcDbEntity
  8
RACCORDO
100
AcDbCircle
 62
253
  6
CONTINUOUS
 10
8.5043778172
 20
-24.2456221828
 40
0.2500059834
100
AcDbArc
 50
180.0023408215
 51
269.9976591785
  0
ARC
  5
78A
100
AcDbEntity
  8
ASSI
100
AcDbCircle
 62
7
  6
CONTINUOUS
 10
10.3956221828
 20
-24.2456221828
 40
0.2500059834
100
AcDbArc
 50
270.0023408263
 51
359.9976591737
  0
ARC
  5
78B
100
AcDbEntity
  8
ASSI
100
AcDbCircle
 62
7
  6
CONTINUOUS
 10
8.5043778172
 20
-24.2456221828
 40
0.2500059834
100
AcDbArc
 50
180.0023408215
 51
269.9976591785
  0
ARC
  5
78C
100
AcDbEntity
  8
RACCORDO
100
AcDbCircle
 62
7
  6
CONTINUOUS
 10
10.4000054504
 20
-24.2500054504
 40
0.2499945075
100
AcDbArc
 50
280.9088746851
 51
349.0911253149
  0
ARC
  5
78D
100
AcDbEntity
  8
RACCORDO
100
AcDbCircle
 62
7
  6
CONTINUOUS
 10
8.4999945496
 20
-24.2500054504
 40
0.2499945075
100
AcDbArc
 50
190.9088746851
 51
259.0911253149
  0
ARC
  5
78E
100
AcDbEntity
  8
ASSI
100
AcDbCircle
 62
7
  6
CONTINUOUS
 10
10.4000076385
 20
-24.2500076385
 40
0.249991413
100
AcDbArc
 50
291.8177557666
 51
338.1822442334
  0
ARC
  5
78F
100
AcDbEntity
  8
ASSI
100
AcDbCircle
 62
7
  6
CONTINUOUS
 10
8.4999923615
 20
-24.2500076385
 40
0.249991413
100
AcDbArc
 50
201.8177557666
 51
248.1822442334
  0
ARC
  5
790
100
AcDbEntity
  8
RACCORDO
100
AcDbCircle
 62
7
  6
CONTINUOUS
 10
10.400177954
 20
-24.250035419
 40
0.2498194496
100
AcDbArc
 50
349.0903870881
 51
351.8195876916
  0
ARC
  5
791
100
AcDbEntity
  8
RACCORDO
100
AcDbCircle
 62
7
  6
CONTINUOUS
 10
8.499964581
 20
-24.250177954
 40
0.2498194496
100
AcDbArc
 50
259.0903870881
 51
261.8195876917
  0
ARC
  5
792
100
AcDbEntity
  8
SUPERFICI
100
AcDbCircle
 62
253
  6
CONTINUOUS
 10
8.4864013515
 20
-17.3967013151
 40
2.0000015524
100
AcDbArc
 50
315.0035206907
 51
359.9964579731
  0
ARC
  5
793
100
AcDbEntity
  8
SUPERFICI
100
AcDbCircle
 62
253
  6
CONTINUOUS
 10
9.1753174078
 20
-18.1217678446
 40
1.0001648821
100
AcDbArc
 50
270.0075262524
 51
314.9924737476
  0
ARC
  5
794
100
AcDbEntity
  8
RACCORDO
100
AcDbCircle
 62
253
  6
CONTINUOUS
 10
-8.4864013515
 20
17.3967013151
 40
2.0000015524
100
AcDbArc
 50
135.0035206907
 51
179.9964579731
  0
ARC
  5
795
100
AcDbEntity
  8
ASSI
100
AcDbCircle
 62
253
  6
CONTINUOUS
 10
-8.4864013515
 20
17.3967013151
 40
2.0000015524
100
AcDbArc
 50
135.0035206907
 51
179.9964579731
  0
ARC
  5
796
100
AcDbEntity
  8
RACCORDO
100
AcDbCircle
 62
253
  6
CONTINUOUS
 10
-9.1753174078
 20
18.1217678446
 40
1.0001648821
100
AcDbArc
 50
90.0075262524
 51
134.9924737476
  0
ARC
  5
797
100
AcDbEntity
  8
ASSI
100
AcDbCircle
 62
253
  6
CONTINUOUS
 10
-9.1753174078
 20
18.1217678446
 40
1.0001648821
100
AcDbArc
 50
90.0075262524
 51
134.9924737476
  0
ARC
  5
798
100
AcDbEntity
  8
RACCORDO
100
AcDbCircle
 62
253
  6
CONTINUOUS
 10
-8.4867192671
 20
17.396833
 40
0.9998359376
100
AcDbArc
 50
134.9997209164
 51
180.0002790836
  0
ARC
  5
799
100
AcDbEntity
  8
ASSI
100
AcDbCircle
 62
253
  6
CONTINUOUS
 10
-8.4867192671
 20
17.396833
 40
0.9998359376
100
AcDbArc
 50
134.9997209164
 51
180.0002790836
  0
ARC
  5
79A
100
AcDbEntity
  8
ASSI
100
AcDbCircle
 62
7
  6
CONTINUOUS
 10
-10.6324141787
 20
21.8996247637
 40
0.5003763446
100
AcDbArc
 50
94.4787600335
 51
96.947928
  0
ARC
  5
79B
100
AcDbEntity
  8
RACCORDO
100
AcDbCircle
 62
7
  6
CONTINUOUS
 10
-10.6323927659
 20
21.8998729305
 40
0.5001270695
100
AcDbArc
 50
89.9999821258
 51
92.0175446829
  0
ARC
  5
79C
100
AcDbEntity
  8
ASSI
100
AcDbCircle
 62
7
  6
CONTINUOUS
 10
-10.6323927659
 20
21.8998729305
 40
0.5001270695
100
AcDbArc
 50
89.9999821258
 51
92.0175446829
  0
ARC
  5
79D
100
AcDbEntity
  8
RACCORDO
100
AcDbCircle
 62
7
  6
CONTINUOUS
 10
-10.6324618824
 20
21.9001237906
 40
0.499875135
100
AcDbArc
 50
92.0105361646
 51
116.5681456001
  0
ARC
  5
79E
100
AcDbEntity
  8
ASSI
100
AcDbCircle
 62
7
  6
CONTINUOUS
 10
-10.6324914973
 20
21.9006538455
 40
0.4993443675
100
AcDbArc
 50
92.0092739345
 51
94.4791361631
  0
ARC
  5
79F
100
AcDbEntity
  8
ASSI
100
AcDbCircle
 62
7
  6
CONTINUOUS
 10
-8.5002238185
 20
24.2491531386
 40
0.250870749
100
AcDbArc
 50
68.2057000397
 51
81.7942873163
  0
ARC
  5
7A0
100
AcDbEntity
  8
ASSI
100
AcDbCircle
 62
7
  6
CONTINUOUS
 10
-10.3991531386
 20
24.2497761815
 40
0.250870749
100
AcDbArc
 50
158.2057000398
 51
171.7942873162
  0
ARC
  5
7A1
100
AcDbEntity
  8
RACCORDO
100
AcDbCircle
 62
7
  6
CONTINUOUS
 10
-8.5005549511
 20
24.2499517179
 40
0.2505549566
100
AcDbArc
 50
0.0120084182
 51
10.8966878703
  0
ARC
  5
7A2
100
AcDbEntity
  8
RACCORDO
100
AcDbCircle
 62
7
  6
CONTINUOUS
 10
-10.3999517179
 20
24.2494450489
 40
0.2505549566
100
AcDbArc
 50
90.0120084182
 51
100.8966878703
  0
ARC
  5
7A3
100
AcDbEntity
  8
RACCORDO
100
AcDbCircle
 62
7
  6
CONTINUOUS
 10
-8.5000225067
 20
24.2496231241
 40
0.2503768773
100
AcDbArc
 50
81.8245330495
 51
89.9938814446
  0
ARC
  5
7A4
100
AcDbEntity
  8
RACCORDO
100
AcDbCircle
 62
7
  6
CONTINUOUS
 10
-10.3996231241
 20
24.2499774933
 40
0.2503768773
100
AcDbArc
 50
171.8245330494
 51
179.9938814446
  0
ARC
  5
7A5
100
AcDbEntity
  8
ASSI
100
AcDbCircle
 62
7
  6
CONTINUOUS
 10
-8.5000225067
 20
24.2496231241
 40
0.2503768773
100
AcDbArc
 50
81.8245330495
 51
89.9938814446
  0
ARC
  5
7A6
100
AcDbEntity
  8
ASSI
100
AcDbCircle
 62
7
  6
CONTINUOUS
 10
-10.3996231241
 20
24.2499774933
 40
0.2503768773
100
AcDbArc
 50
171.8245330494
 51
179.9938814446
  0
ARC
  5
7A7
100
AcDbEntity
  8
RACCORDO
100
AcDbCircle
 62
253
  6
CONTINUOUS
 10
-8.5043778172
 20
24.2456221828
 40
0.2500059834
100
AcDbArc
 50
0.0023408215
 51
89.9976591785
  0
ARC
  5
7A8
100
AcDbEntity
  8
RACCORDO
100
AcDbCircle
 62
253
  6
CONTINUOUS
 10
-10.3956221828
 20
24.2456221828
 40
0.2500059834
100
AcDbArc
 50
90.0023408215
 51
179.9976591785
  0
ARC
  5
7A9
100
AcDbEntity
  8
ASSI
100
AcDbCircle
 62
7
  6
CONTINUOUS
 10
-8.5043778172
 20
24.2456221828
 40
0.2500059834
100
AcDbArc
 50
0.0023408215
 51
89.9976591785
  0
ARC
  5
7AA
100
AcDbEntity
  8
ASSI
100
AcDbCircle
 62
7
  6
CONTINUOUS
 10
-10.3956221828
 20
24.2456221828
 40
0.2500059834
100
AcDbArc
 50
90.0023408215
 51
179.9976591785
  0
ARC
  5
7AB
100
AcDbEntity
  8
RACCORDO
100
AcDbCircle
 62
7
  6
CONTINUOUS
 10
-8.4999945496
 20
24.2500054504
 40
0.2499945075
100
AcDbArc
 50
10.9088746851
 51
79.0911253149
  0
ARC
  5
7AC
100
AcDbEntity
  8
RACCORDO
100
AcDbCircle
 62
7
  6
CONTINUOUS
 10
-10.4000054504
 20
24.2500054504
 40
0.2499945075
100
AcDbArc
 50
100.9088746851
 51
169.0911253149
  0
ARC
  5
7AD
100
AcDbEntity
  8
ASSI
100
AcDbCircle
 62
7
  6
CONTINUOUS
 10
-8.4999923615
 20
24.2500076385
 40
0.249991413
100
AcDbArc
 50
21.8177557666
 51
68.1822442334
  0
ARC
  5
7AE
100
AcDbEntity
  8
ASSI
100
AcDbCircle
 62
7
  6
CONTINUOUS
 10
-10.4000076385
 20
24.2500076385
 40
0.249991413
100
AcDbArc
 50
111.8177557666
 51
158.1822442334
  0
ARC
  5
7AF
100
AcDbEntity
  8
RACCORDO
100
AcDbCircle
 62
7
  6
CONTINUOUS
 10
-8.499964581
 20
24.250177954
 40
0.2498194496
100
AcDbArc
 50
79.0903870881
 51
81.8195876917
  0
ARC
  5
7B0
100
AcDbEntity
  8
RACCORDO
100
AcDbCircle
 62
7
  6
CONTINUOUS
 10
-10.400177954
 20
24.250035419
 40
0.2498194497
100
AcDbArc
 50
169.0903870882
 51
171.8195876916
  0
ARC
  5
7B1
100
AcDbEntity
  8
RACCORDO
100
AcDbCircle
 62
253
  6
CONTINUOUS
 10
8.4864013515
 20
17.3967013151
 40
2.0000015524
100
AcDbArc
 50
0.0035420266
 51
44.9964793091
  0
ARC
  5
7B2
100
AcDbEntity
  8
ASSI
100
AcDbCircle
 62
253
  6
CONTINUOUS
 10
8.4864013515
 20
17.3967013151
 40
2.0000015524
100
AcDbArc
 50
0.0035420266
 51
44.9964793091
  0
ARC
  5
7B3
100
AcDbEntity
  8
RACCORDO
100
AcDbCircle
 62
253
  6
CONTINUOUS
 10
9.1753174078
 20
18.1217678446
 40
1.0001648821
100
AcDbArc
 50
45.0075262524
 51
89.9924737476
  0
ARC
  5
7B4
100
AcDbEntity
  8
ASSI
100
AcDbCircle
 62
253
  6
CONTINUOUS
 10
9.1753174078
 20
18.1217678446
 40
1.0001648821
100
AcDbArc
 50
45.0075262524
 51
89.9924737476
  0
ARC
  5
7B5
100
AcDbEntity
  8
RACCORDO
100
AcDbCircle
 62
253
  6
CONTINUOUS
 10
8.4867192671
 20
17.396833
 40
0.9998359376
100
AcDbArc
 50
359.9997209164
 51
45.0002790836
  0
ARC
  5
7B6
100
AcDbEntity
  8
ASSI
100
AcDbCircle
 62
253
  6
CONTINUOUS
 10
8.4867192671
 20
17.396833
 40
0.9998359376
100
AcDbArc
 50
359.9997209164
 51
45.0002790836
  0
ARC
  5
7B7
100
AcDbEntity
  8
RACCORDO
100
AcDbCircle
 62
7
  6
CONTINUOUS
 10
10.6323927659
 20
21.8998729305
 40
0.5001270695
100
AcDbArc
 50
87.9824553171
 51
90.0000178742
  0
ARC
  5
7B8
100
AcDbEntity
  8
ASSI
100
AcDbCircle
 62
7
  6
CONTINUOUS
 10
10.6323927659
 20
21.8998729305
 40
0.5001270695
100
AcDbArc
 50
87.9824553171
 51
90.0000178742
  0
ARC
  5
7B9
100
AcDbEntity
  8
RACCORDO
100
AcDbCircle
 62
7
  6
CONTINUOUS
 10
10.6324618824
 20
21.9001237906
 40
0.499875135
100
AcDbArc
 50
63.4318543999
 51
87.9894638354
  0
ARC
  5
7BA
100
AcDbEntity
  8
ASSI
100
AcDbCircle
 62
7
  6
CONTINUOUS
 10
8.5008468614
 20
24.2497761815
 40
0.250870749
100
AcDbArc
 50
158.2057000398
 51
171.7942873162
  0
ARC
  5
7BB
100
AcDbEntity
  8
ASSI
100
AcDbCircle
 62
7
  6
CONTINUOUS
 10
10.3997761815
 20
24.2491531386
 40
0.250870749
100
AcDbArc
 50
68.2057000397
 51
81.7942873162
  0
ARC
  5
7BC
100
AcDbEntity
  8
RACCORDO
100
AcDbCircle
 62
7
  6
CONTINUOUS
 10
8.5000482821
 20
24.2494450489
 40
0.2505549566
100
AcDbArc
 50
90.0120084183
 51
100.8966878703
  0
ARC
  5
7BD
100
AcDbEntity
  8
RACCORDO
100
AcDbCircle
 62
7
  6
CONTINUOUS
 10
10.3994450489
 20
24.2499517179
 40
0.2505549566
100
AcDbArc
 50
0.0120084182
 51
10.8966878703
  0
ARC
  5
7BE
100
AcDbEntity
  8
RACCORDO
100
AcDbCircle
 62
7
  6
CONTINUOUS
 10
8.5003768759
 20
24.2499774933
 40
0.2503768773
100
AcDbArc
 50
171.8245330495
 51
179.9938814446
  0
ARC
  5
7BF
100
AcDbEntity
  8
RACCORDO
100
AcDbCircle
 62
7
  6
CONTINUOUS
 10
10.3999774933
 20
24.2496231241
 40
0.2503768773
100
AcDbArc
 50
81.8245330495
 51
89.9938814446
  0
ARC
  5
7C0
100
AcDbEntity
  8
ASSI
100
AcDbCircle
 62
7
  6
CONTINUOUS
 10
8.5003768759
 20
24.2499774933
 40
0.2503768773
100
AcDbArc
 50
171.8245330495
 51
179.9938814446
  0
ARC
  5
7C1
100
AcDbEntity
  8
ASSI
100
AcDbCircle
 62
7
  6
CONTINUOUS
 10
10.3999774933
 20
24.2496231241
 40
0.2503768773
100
AcDbArc
 50
81.8245330495
 51
89.9938814446
  0
ARC
  5
7C2
100
AcDbEntity
  8
RACCORDO
100
AcDbCircle
 62
253
  6
CONTINUOUS
 10
10.3956221828
 20
24.2456221828
 40
0.2500059834
100
AcDbArc
 50
0.0023408263
 51
89.9976591737
  0
ARC
  5
7C3
100
AcDbEntity
  8
RACCORDO
100
AcDbCircle
 62
253
  6
CONTINUOUS
 10
8.5043778172
 20
24.2456221828
 40
0.2500059834
100
AcDbArc
 50
90.0023408263
 51
179.9976591737
  0
ARC
  5
7C4
100
AcDbEntity
  8
ASSI
100
AcDbCircle
 62
7
  6
CONTINUOUS
 10
10.3956221828
 20
24.2456221828
 40
0.2500059834
100
AcDbArc
 50
0.0023408263
 51
89.9976591737
  0
ARC
  5
7C5
100
AcDbEntity
  8
ASSI
100
AcDbCircle
 62
7
  6
CONTINUOUS
 10
8.5043778172
 20
24.2456221828
 40
0.2500059834
100
AcDbArc
 50
90.0023408263
 51
179.9976591737
  0
ARC
  5
7C6
100
AcDbEntity
  8
RACCORDO
100
AcDbCircle
 62
7
  6
CONTINUOUS
 10
8.4999945496
 20
24.2500054504
 40
0.2499945075
100
AcDbArc
 50
100.9088746851
 51
169.0911253149
  0
ARC
  5
7C7
100
AcDbEntity
  8
RACCORDO
100
AcDbCircle
 62
7
  6
CONTINUOUS
 10
10.4000054504
 20
24.2500054504
 40
0.2499945075
100
AcDbArc
 50
10.9088746851
 51
79.0911253149
  0
ARC
  5
7C8
100
AcDbEntity
  8
ASSI
100
AcDbCircle
 62
7
  6
CONTINUOUS
 10
8.4999923615
 20
24.2500076385
 40
0.249991413
100
AcDbArc
 50
111.8177557666
 51
158.1822442334
  0
ARC
  5
7C9
100
AcDbEntity
  8
ASSI
100
AcDbCircle
 62
7
  6
CONTINUOUS
 10
10.4000076385
 20
24.2500076385
 40
0.249991413
100
AcDbArc
 50
21.8177557666
 51
68.1822442334
  0
ARC
  5
7CA
100
AcDbEntity
  8
RACCORDO
100
AcDbCircle
 62
7
  6
CONTINUOUS
 10
8.499822046
 20
24.250035419
 40
0.2498194496
100
AcDbArc
 50
169.0903870881
 51
171.8195876917
  0
ARC
  5
7CB
100
AcDbEntity
  8
RACCORDO
100
AcDbCircle
 62
7
  6
CONTINUOUS
 10
10.400035419
 20
24.250177954
 40
0.2498194496
100
AcDbArc
 50
79.0903870881
 51
81.8195876917
  0
SPLINE
  5
7CC
100
AcDbEntity
  8
SUPERFICI
100
AcDbSpline
 62
253
  6
CONTINUOUS
 70
0
 71
3
 72
10
 73
6
 74
4
 42
0.0000001
 43
0.0000001
 44
0.0000000001
 12
0.570526676
 22
0.5705325703
 32
0.0
 13
0.0000036538
 23
0.8068507308
 33
0.0
 40
0.0
 40
0.0
 40
0.0
 40
0.0
 40
0.2507127634
 40
0.501333281
 40
1.0
 40
1.0
 40
1.0
 40
1.0
 10
9.1767078253
 20
-18.1220850228
 30
0.0
 10
9.2243872651
 20
-18.0744050904
 30
0.0
 10
9.3132999611
 20
-17.9717752247
 30
0.0
 10
9.4443885222
 20
-17.7353576737
 30
0.0
 10
9.4865545973
 20
-17.5309446654
 30
0.0
 10
9.4865552047
 20
-17.3968281299
 30
0.0
 11
9.1767078253
 21
-18.1220850228
 31
0.0
 11
9.3075157777
 21
-17.9677813481
 31
0.0
 11
9.4056010848
 21
-17.7909494772
 31
0.0
 11
9.4865552047
 21
-17.3968281299
 31
0.0
  0
SPLINE
  5
7CD
100
AcDbEntity
  8
RACCORDO
100
AcDbSpline
 62
7
  6
CONTINUOUS
 70
0
 71
3
 72
17
 73
13
 74
11
 42
0.0000001
 43
0.0000001
 44
0.0000000001
 12
0.376066623
 22
0.4535097807
 32
0.0
 13
0.010276082
 23
0.5890599531
 33
0.0
 40
0.0
 40
0.0
 40
0.0
 40
0.0
 40
0.1537578349
 40
0.3056770223
 40
0.4536743609
 40
0.5951176179
 40
0.7264001503
 40
0.8423792007
 40
0.8924937835
 40
0.9359999855
 40
0.9719683595
 40
1.0
 40
1.0
 40
1.0
 40
1.0
 10
-6.9
 20
-20.5829242832
 30
0.0
 10
-6.8807256034
 20
-20.5596807225
 30
0.0
 10
-6.8424070684
 20
-20.5134717826
 30
0.0
 10
-6.7857620682
 20
-20.4447026951
 30
0.0
 10
-6.7311418305
 20
-20.3774019441
 30
0.0
 10
-6.6798898666
 20
-20.3125885228
 30
0.0
 10
-6.6338676648
 20
-20.2516846699
 30
0.0
 10
-6.6003911709
 20
-20.2037803265
 30
0.0
 10
-6.5789113017
 20
-20.1686555144
 30
0.0
 10
-6.5669847745
 20
-20.1461310373
 30
0.0
 10
-6.5589900786
 20
-20.1265751966
 30
0.0
 10
-6.5562856898
 20
-20.1141101455
 30
0.0
 10
-6.5561896713
 20
-20.1086060399
 30
0.0
 11
-6.9
 21
-20.5829242832
 31
0.0
 11
-6.8422150986
 21
-20.5131618689
 31
0.0
 11
-6.7853573357
 21
-20.4440387597
 31
0.0
 11
-6.7304772168
 21
-20.3762839313
 31
0.0
 11
-6.6789029721
 21
-20.3108301915
 31
0.0
 11
-6.6324618419
 21
-20.248979743
 31
0.0
 11
-6.5937939628
 21
-20.1926445981
 31
0.0
 11
-6.5785143237
 21
-20.1673808416
 31
0.0
 11
-6.5667118387
 21
-20.1446281852
 31
0.0
 11
-6.5590489268
 21
-20.1248714707
 31
0.0
 11
-6.5561896713
 21
-20.1086060399
 31
0.0
  0
SPLINE
  5
7CE
100
AcDbEntity
  8
RACCORDO
100
AcDbSpline
 62
7
  6
CONTINUOUS
 70
0
 71
3
 72
17
 73
13
 74
11
 42
0.0000001
 43
0.0000001
 44
0.0000000001
 12
0.010276082
 22
-0.5890599531
 32
0.0
 13
0.376066623
 23
-0.4535097807
 33
0.0
 40
0.0
 40
0.0
 40
0.0
 40
0.0
 40
0.0280316405
 40
0.0640000145
 40
0.1075062165
 40
0.1576207993
 40
0.2735998497
 40
0.4048823821
 40
0.5463256391
 40
0.6943229777
 40
0.8462421651
 40
1.0
 40
1.0
 40
1.0
 40
1.0
 10
6.5561896713
 20
-20.1086060399
 30
0.0
 10
6.5562856898
 20
-20.1141101455
 30
0.0
 10
6.5589900786
 20
-20.1265751966
 30
0.0
 10
6.5669847745
 20
-20.1461310373
 30
0.0
 10
6.5789113017
 20
-20.1686555144
 30
0.0
 10
6.6003911709
 20
-20.2037803265
 30
0.0
 10
6.6338676648
 20
-20.2516846699
 30
0.0
 10
6.6798898666
 20
-20.3125885228
 30
0.0
 10
6.7311418305
 20
-20.3774019441
 30
0.0
 10
6.7857620682
 20
-20.4447026951
 30
0.0
 10
6.8424070684
 20
-20.5134717826
 30
0.0
 10
6.8807256034
 20
-20.5596807225
 30
0.0
 10
6.9
 20
-20.5829242832
 30
0.0
 11
6.5561896713
 21
-20.1086060399
 31
0.0
 11
6.5590489268
 21
-20.1248714707
 31
0.0
 11
6.5667118387
 21
-20.1446281852
 31
0.0
 11
6.5785143237
 21
-20.1673808416
 31
0.0
 11
6.5937939628
 21
-20.1926445981
 31
0.0
 11
6.6324618419
 21
-20.248979743
 31
0.0
 11
6.6789029721
 21
-20.3108301915
 31
0.0
 11
6.7304772168
 21
-20.3762839313
 31
0.0
 11
6.7853573357
 21
-20.4440387597
 31
0.0
 11
6.8422150986
 21
-20.5131618689
 31
0.0
 11
6.9
 21
-20.5829242832
 31
0.0
  0
SPLINE
  5
7CF
100
AcDbEntity
  8
RACCORDO
100
AcDbSpline
 62
7
  6
CONTINUOUS
 70
0
 71
3
 72
17
 73
13
 74
11
 42
0.0000001
 43
0.0000001
 44
0.0000000001
 12
-0.376066623
 22
-0.4535097807
 32
0.0
 13
-0.010276082
 23
-0.5890599531
 33
0.0
 40
0.0
 40
0.0
 40
0.0
 40
0.0
 40
0.1537578349
 40
0.3056770223
 40
0.4536743609
 40
0.5951176179
 40
0.7264001503
 40
0.8423792007
 40
0.8924937835
 40
0.9359999855
 40
0.9719683595
 40
1.0
 40
1.0
 40
1.0
 40
1.0
 10
6.9
 20
20.5829242832
 30
0.0
 10
6.8807256034
 20
20.5596807225
 30
0.0
 10
6.8424070684
 20
20.5134717826
 30
0.0
 10
6.7857620682
 20
20.4447026951
 30
0.0
 10
6.7311418305
 20
20.3774019441
 30
0.0
 10
6.6798898666
 20
20.3125885228
 30
0.0
 10
6.6338676648
 20
20.2516846699
 30
0.0
 10
6.6003911709
 20
20.2037803265
 30
0.0
 10
6.5789113017
 20
20.1686555144
 30
0.0
 10
6.5669847745
 20
20.1461310373
 30
0.0
 10
6.5589900786
 20
20.1265751966
 30
0.0
 10
6.5562856898
 20
20.1141101455
 30
0.0
 10
6.5561896713
 20
20.1086060399
 30
0.0
 11
6.9
 21
20.5829242832
 31
0.0
 11
6.8422150986
 21
20.5131618689
 31
0.0
 11
6.7853573357
 21
20.4440387597
 31
0.0
 11
6.7304772168
 21
20.3762839313
 31
0.0
 11
6.6789029721
 21
20.3108301915
 31
0.0
 11
6.6324618419
 21
20.248979743
 31
0.0
 11
6.5937939628
 21
20.1926445981
 31
0.0
 11
6.5785143237
 21
20.1673808416
 31
0.0
 11
6.5667118387
 21
20.1446281852
 31
0.0
 11
6.5590489268
 21
20.1248714707
 31
0.0
 11
6.5561896713
 21
20.1086060399
 31
0.0
  0
SPLINE
  5
7D0
100
AcDbEntity
  8
RACCORDO
100
AcDbSpline
 62
7
  6
CONTINUOUS
 70
0
 71
3
 72
17
 73
13
 74
11
 42
0.0000001
 43
0.0000001
 44
0.0000000001
 12
-0.010276082
 22
0.5890599531
 32
0.0
 13
-0.376066623
 23
0.4535097807
 33
0.0
 40
0.0
 40
0.0
 40
0.0
 40
0.0
 40
0.0280316405
 40
0.0640000145
 40
0.1075062165
 40
0.1576207993
 40
0.2735998497
 40
0.4048823821
 40
0.5463256391
 40
0.6943229777
 40
0.8462421651
 40
1.0
 40
1.0
 40
1.0
 40
1.0
 10
-6.5561896713
 20
20.1086060399
 30
0.0
 10
-6.5562856898
 20
20.1141101455
 30
0.0
 10
-6.5589900786
 20
20.1265751966
 30
0.0
 10
-6.5669847745
 20
20.1461310373
 30
0.0
 10
-6.5789113017
 20
20.1686555144
 30
0.0
 10
-6.6003911709
 20
20.2037803265
 30
0.0
 10
-6.6338676648
 20
20.2516846699
 30
0.0
 10
-6.6798898666
 20
20.3125885228
 30
0.0
 10
-6.7311418305
 20
20.3774019441
 30
0.0
 10
-6.7857620682
 20
20.4447026951
 30
0.0
 10
-6.8424070684
 20
20.5134717826
 30
0.0
 10
-6.8807256034
 20
20.5596807225
 30
0.0
 10
-6.9
 20
20.5829242832
 30
0.0
 11
-6.5561896713
 21
20.1086060399
 31
0.0
 11
-6.5590489268
 21
20.1248714707
 31
0.0
 11
-6.5667118387
 21
20.1446281852
 31
0.0
 11
-6.5785143237
 21
20.1673808416
 31
0.0
 11
-6.5937939628
 21
20.1926445981
 31
0.0
 11
-6.6324618419
 21
20.248979743
 31
0.0
 11
-6.6789029721
 21
20.3108301915
 31
0.0
 11
-6.7304772168
 21
20.3762839313
 31
0.0
 11
-6.7853573357
 21
20.4440387597
 31
0.0
 11
-6.8422150986
 21
20.5131618689
 31
0.0
 11
-6.9
 21
20.5829242832
 31
0.0
  0
SPLINE
  5
7D1
100
AcDbEntity
  8
ASSI
100
AcDbSpline
 62
7
  6
CONTINUOUS
 70
0
 71
3
 72
12
 73
8
 74
6
 42
0.0000001
 43
0.0000001
 44
0.0000000001
 12
0.0
 22
0.0569563512
 32
0.0
 13
0.0344835377
 23
0.0453311325
 33
0.0
 40
0.0
 40
0.0
 40
0.0
 40
0.0
 40
0.0602420179
 40
0.1386254
 40
0.3529642682
 40
0.6422328995
 40
1.0
 40
1.0
 40
1.0
 40
1.0
 10
3.5
 20
-23.7511422903
 30
0.0
 10
3.5
 20
-23.7499985685
 30
0.0
 10
3.5004659593
 20
-23.7473750638
 30
0.0
 10
3.5027448284
 20
-23.7410636191
 30
0.0
 10
3.508121448
 20
-23.7313510022
 30
0.0
 10
3.5171722201
 20
-23.7177366147
 30
0.0
 10
3.5244819399
 20
-23.7078540534
 30
0.0
 10
3.5285942983
 20
-23.7024480575
 30
0.0
 11
3.5
 21
-23.7511422903
 31
0.0
 11
3.500486008
 21
-23.7477457195
 31
0.0
 11
3.5019254394
 21
-23.7435197066
 31
0.0
 11
3.5075449893
 21
-23.7326820435
 31
0.0
 11
3.5165546319
 21
-23.7188880389
 31
0.0
 11
3.5285942983
 21
-23.7024480575
 31
0.0
  0
SPLINE
  5
7D2
100
AcDbEntity
  8
ASSI
100
AcDbSpline
 62
7
  6
CONTINUOUS
 70
0
 71
3
 72
13
 73
9
 74
7
 42
0.0000001
 43
0.0000001
 44
0.0000000001
 12
0.4066591045
 22
-0.4395505674
 32
0.0
 13
0.3625845692
 23
-0.4765592919
 33
0.0
 40
0.0
 40
0.0
 40
0.0
 40
0.0
 40
0.2843957208
 40
0.5580689415
 40
0.6864528182
 40
0.8057064711
 40
0.9119703924
 40
1.0
 40
1.0
 40
1.0
 40
1.0
 10
-3.9279699877
 20
-23.2563578147
 30
0.0
 10
-3.8894192846
 20
-23.2980265815
 30
0.0
 10
-3.8137724842
 20
-23.3797937657
 30
0.0
 10
-3.7211192919
 20
-23.4807395927
 30
0.0
 10
-3.6514113302
 20
-23.5579954878
 30
0.0
 10
-3.6045639832
 20
-23.6108705307
 30
0.0
 10
-3.5637804547
 20
-23.6583423538
 30
0.0
 10
-3.5392696597
 20
-23.6884170031
 30
0.0
 10
-3.5286302672
 20
-23.7024007789
 30
0.0
 11
-3.9279699877
 21
-23.2563578147
 31
0.0
 11
-3.8124026816
 21
-23.3814425191
 31
0.0
 11
-3.7017432151
 21
-23.5023175998
 31
0.0
 11
-3.6502798367
 21
-23.5594291245
 31
0.0
 11
-3.6029896834
 21
-23.6129371696
 31
0.0
 11
-3.5616363989
 21
-23.6612999372
 31
0.0
 11
-3.5286302672
 21
-23.7024007789
 31
0.0
  0
SPLINE
  5
7D3
100
AcDbEntity
  8
ASSI
100
AcDbSpline
 62
7
  6
CONTINUOUS
 70
0
 71
3
 72
20
 73
16
 74
14
 42
0.0000001
 43
0.0000001
 44
0.0000000001
 12
0.0252813737
 22
0.6549668479
 32
0.0
 13
0.4451253222
 23
0.4811280155
 33
0.0
 40
0.0
 40
0.0
 40
0.0
 40
0.0
 40
0.0072248217
 40
0.0171260471
 40
0.0451235654
 40
0.0832914673
 40
0.1302180295
 40
0.1844332165
 40
0.2446067311
 40
0.3096052295
 40
0.3784867363
 40
0.5249854411
 40
0.6794604545
 40
0.8386374838
 40
1.0
 40
1.0
 40
1.0
 40
1.0
 10
-4.3559327327
 20
-23.7507734247
 30
0.0
 10
-4.3558718483
 20
-23.7491960852
 30
0.0
 10
-4.3549427991
 20
-23.7455117468
 30
0.0
 10
-4.3509649436
 20
-23.7364888107
 30
0.0
 10
-4.3420677788
 20
-23.7223669077
 30
0.0
 10
-4.3275449184
 20
-23.702393452
 30
0.0
 10
-4.3086439567
 20
-23.6785188763
 30
0.0
 10
-4.286128562
 20
-23.6514046138
 30
0.0
 10
-4.2606182196
 20
-23.6216471704
 30
0.0
 10
-4.2326813703
 20
-23.5897547946
 30
0.0
 10
-4.191963661
 20
-23.543986486
 30
0.0
 10
-4.137743763
 20
-23.4840675791
 30
0.0
 10
-4.0698358789
 20
-23.409932252
 30
0.0
 10
-3.9994723738
 20
-23.3336432295
 30
0.0
 10
-3.9519121683
 20
-23.2822364904
 30
0.0
 10
-3.9279699877
 20
-23.2563578147
 30
0.0
 11
-4.3559327327
 21
-23.7507734247
 31
0.0
 11
-4.3549846436
 21
-23.7461337599
 31
0.0
 11
-4.3524856915
 21
-23.74014437
 31
0.0
 11
-4.3431217022
 21
-23.7243621445
 31
0.0
 11
-4.3285453928
 21
-23.7040299575
 31
0.0
 11
-4.3095479791
 21
-23.6798397317
 31
0.0
 11
-4.2868924963
 21
-23.6524625974
 31
0.0
 11
-4.2612535649
 21
-23.6224919755
 31
0.0
 11
-4.2332006468
 21
-23.5904280166
 31
0.0
 11
-4.203205278
 21
-23.55668364
 31
0.0
 11
-4.1388431999
 21
-23.4854236431
 31
0.0
 11
-4.0704878187
 21
-23.4107284019
 31
0.0
 11
-3.999776638
 21
-23.3340122404
 31
0.0
 11
-3.9279699877
 21
-23.2563578147
 31
0.0
  0
SPLINE
  5
7D4
100
AcDbEntity
  8
ASSI
100
AcDbSpline
 62
7
  6
CONTINUOUS
 70
0
 71
3
 72
20
 73
16
 74
14
 42
0.0000001
 43
0.0000001
 44
0.0000000001
 12
-0.0252813737
 22
-0.6549668482
 32
0.0
 13
-0.4451253224
 23
-0.4811280157
 33
0.0
 40
0.0
 40
0.0
 40
0.0
 40
0.0
 40
0.0072248101
 40
0.0171260486
 40
0.0451237695
 40
0.0832920408
 40
0.1302189132
 40
0.1844342364
 40
0.2446077607
 40
0.3096061118
 40
0.378487439
 40
0.5249858569
 40
0.6794608614
 40
0.838637846
 40
1.0
 40
1.0
 40
1.0
 40
1.0
 10
4.3559327327
 20
23.7507734247
 30
0.0
 10
4.3558718484
 20
23.7491960877
 30
0.0
 10
4.3549428042
 20
23.7455117479
 30
0.0
 10
4.3509649227
 20
23.7364887736
 30
0.0
 10
4.3420676872
 20
23.7223667645
 30
0.0
 10
4.3275446959
 20
23.7023931651
 30
0.0
 10
4.3086436218
 20
23.6785184514
 30
0.0
 10
4.2861281493
 20
23.6514041237
 30
0.0
 10
4.2606177946
 20
23.6216466915
 30
0.0
 10
4.2326809922
 20
23.5897543667
 30
0.0
 10
4.1919633693
 20
23.5439861607
 30
0.0
 10
4.1377435392
 20
23.4840673324
 30
0.0
 10
4.0698357039
 20
23.4099320613
 30
0.0
 10
3.9994722601
 20
23.3336431058
 30
0.0
 10
3.9519121146
 20
23.2822364324
 30
0.0
 10
3.9279699877
 20
23.2563578147
 30
0.0
 11
4.3559327327
 21
23.7507734247
 31
0.0
 11
4.3549846482
 21
23.7461337667
 31
0.0
 11
4.3524856912
 21
23.7401443696
 31
0.0
 11
4.3431216281
 21
23.7243620334
 31
0.0
 11
4.3285451651
 21
23.7040296586
 31
0.0
 11
4.3095476183
 21
23.6798392787
 31
0.0
 11
4.2868920667
 21
23.6524620856
 31
0.0
 11
4.26125312
 21
23.6224914684
 31
0.0
 11
4.2332002635
 21
23.5904275837
 31
0.0
 11
4.2032049717
 21
23.5566832963
 31
0.0
 11
4.1388430172
 21
23.4854234411
 31
0.0
 11
4.0704876386
 21
23.4107282053
 31
0.0
 11
3.9997764772
 21
23.3340120658
 31
0.0
 11
3.9279699877
 21
23.2563578147
 31
0.0
  0
SPLINE
  5
7D5
100
AcDbEntity
  8
ASSI
100
AcDbSpline
 62
7
  6
CONTINUOUS
 70
0
 71
3
 72
13
 73
9
 74
7
 42
0.0000001
 43
0.0000001
 44
0.0000000001
 12
-0.4065900563
 22
0.4394759345
 32
0.0
 13
-0.3625926126
 23
0.4764254067
 33
0.0
 40
0.0
 40
0.0
 40
0.0
 40
0.0
 40
0.2843663356
 40
0.5580179274
 40
0.6863974404
 40
0.8056548056
 40
0.9119350632
 40
1.0
 40
1.0
 40
1.0
 40
1.0
 10
3.9279699877
 20
23.2563578147
 30
0.0
 10
3.8894298129
 20
23.2980152017
 30
0.0
 10
3.8138027664
 20
23.3797610263
 30
0.0
 10
3.7211725719
 20
23.4806813757
 30
0.0
 10
3.6514787596
 20
23.5579202536
 30
0.0
 10
3.6046364195
 20
23.6107878759
 30
0.0
 10
3.5638509524
 20
23.6582586099
 30
0.0
 10
3.5393357497
 20
23.6883343928
 30
0.0
 10
3.5286918512
 20
23.7023198506
 30
0.0
 11
3.9279699877
 21
23.2563578147
 31
0.0
 11
3.8124341952
 21
23.381408314
 31
0.0
 11
3.7018018678
 21
23.5022529585
 31
0.0
 11
3.6503484415
 21
23.5593523631
 31
0.0
 11
3.6030638432
 21
23.6128521021
 31
0.0
 11
3.5617093377
 21
23.6612124787
 31
0.0
 11
3.5286918512
 21
23.7023198506
 31
0.0
  0
SPLINE
  5
7D6
100
AcDbEntity
  8
ASSI
100
AcDbSpline
 62
7
  6
CONTINUOUS
 70
0
 71
3
 72
12
 73
8
 74
6
 42
0.0000001
 43
0.0000001
 44
0.0000000001
 12
0.0
 22
-0.0571823249
 32
0.0
 13
-0.0346351343
 23
-0.0454997336
 33
0.0
 40
0.0
 40
0.0
 40
0.0
 40
0.0
 40
0.0601778792
 40
0.1385217601
 40
0.3528494712
 40
0.6421656643
 40
1.0
 40
1.0
 40
1.0
 40
1.0
 10
-3.5
 20
23.7511422903
 30
0.0
 10
-3.5
 20
23.7499952533
 30
0.0
 10
-3.5004686462
 20
23.7473633948
 30
0.0
 10
-3.5027594216
 20
23.7410303297
 30
0.0
 10
-3.5081627861
 20
23.731282241
 30
0.0
 10
-3.5172564463
 20
23.7176161829
 30
0.0
 10
-3.5245999952
 20
23.7076952657
 30
0.0
 10
-3.5287312086
 20
23.7022681433
 30
0.0
 11
-3.5
 21
23.7511422903
 31
0.0
 11
-3.5004884663
 21
23.7477360247
 31
0.0
 11
-3.5019351397
 21
23.7434961535
 31
0.0
 11
-3.5075825444
 21
23.7326190952
 31
0.0
 11
-3.5166355687
 21
23.7187721042
 31
0.0
 11
-3.5287312086
 21
23.7022681433
 31
0.0
  0
SPLINE
  5
7D7
100
AcDbEntity
  8
RACCORDO
100
AcDbSpline
 62
7
  6
CONTINUOUS
 70
0
 71
3
 72
12
 73
8
 74
6
 42
0.0000001
 43
0.0000001
 44
0.0000000001
 12
0.0508129315
 22
-0.0022111423
 32
0.0
 13
0.0394181098
 23
-0.0321411852
 33
0.0
 40
0.0
 40
0.0
 40
0.0
 40
0.0
 40
0.0536827653
 40
0.1282155084
 40
0.3414788598
 40
0.6353505422
 40
1.0
 40
1.0
 40
1.0
 40
1.0
 10
-7.240783943
 20
-19.7564431031
 30
0.0
 10
-7.2398746835
 20
-19.7564826699
 30
0.0
 10
-7.2377393303
 20
-19.7570462151
 30
0.0
 10
-7.2324632895
 20
-19.7594284491
 30
0.0
 10
-7.2241205481
 20
-19.7647654068
 30
0.0
 10
-7.2122168336
 20
-19.7735104398
 30
0.0
 10
-7.2034881882
 20
-19.780481471
 30
0.0
 10
-7.1986969241
 20
-19.7843882263
 30
0.0
 11
-7.240783943
 21
-19.7564431031
 31
0.0
 11
-7.2381136325
 21
-19.7570125836
 31
0.0
 11
-7.234628138
 21
-19.7585030795
 31
0.0
 11
-7.2253384318
 21
-19.7641025649
 31
0.0
 11
-7.2132356554
 21
-19.7728732001
 31
0.0
 11
-7.1986969241
 21
-19.7843882263
 31
0.0
  0
SPLINE
  5
7D8
100
AcDbEntity
  8
RACCORDO
100
AcDbSpline
 62
7
  6
CONTINUOUS
 70
0
 71
3
 72
12
 73
8
 74
6
 42
0.0000001
 43
0.0000001
 44
0.0000000001
 12
0.3131560696
 22
-0.2553447458
 32
0.0
 13
0.2952788159
 23
-0.2758225589
 33
0.0
 40
0.0
 40
0.0
 40
0.0
 40
0.0
 40
0.0930282645
 40
0.2016347298
 40
0.4492352228
 40
0.7198010271
 40
1.0
 40
1.0
 40
1.0
 40
1.0
 10
-7.1986969241
 20
-19.7843882263
 30
0.0
 10
-7.1889861355
 20
-19.7923063191
 30
0.0
 10
-7.1682973128
 20
-19.8099067253
 30
0.0
 10
-7.1229497044
 20
-19.8499656032
 30
0.0
 10
-7.0606118659
 20
-19.9068977386
 30
0.0
 10
-6.981786257
 20
-19.9800355506
 30
0.0
 10
-6.9275789403
 20
-20.0306762936
 30
0.0
 10
-6.9
 20
-20.0564380262
 30
0.0
 11
-7.1986969241
 21
-19.7843882263
 31
0.0
 11
-7.1699670307
 21
-19.8086277334
 31
0.0
 11
-7.1370295133
 21
-19.8376263801
 31
0.0
 11
-7.0629816981
 21
-19.9049034868
 31
0.0
 11
-6.9827788278
 21
-19.979197823
 31
0.0
 11
-6.9
 21
-20.0564380262
 31
0.0
  0
SPLINE
  5
7D9
100
AcDbEntity
  8
RACCORDO
100
AcDbSpline
 62
7
  6
CONTINUOUS
 70
0
 71
3
 72
20
 73
16
 74
14
 42
0.0000001
 43
0.0000001
 44
0.0000000001
 12
0.3324459616
 22
0.3105407191
 32
0.0
 13
0.4544939028
 23
0.0197774594
 33
0.0
 40
0.0
 40
0.0
 40
0.0
 40
0.0
 40
0.1621109778
 40
0.3220138461
 40
0.4771328859
 40
0.6241367773
 40
0.6931940107
 40
0.7582820948
 40
0.8184459252
 40
0.8725230646
 40
0.9191392063
 40
0.9567815318
 40
0.9839921408
 40
0.9933787545
 40
1.0
 40
1.0
 40
1.0
 40
1.0
 10
-6.9
 20
-20.0564380262
 30
0.0
 10
-6.88203562
 20
-20.0396573397
 30
0.0
 10
-6.8463516148
 20
-20.0063244719
 30
0.0
 10
-6.7934109426
 20
-19.9570065136
 30
0.0
 10
-6.7420015823
 20
-19.9094059984
 30
0.0
 10
-6.7004942559
 20
-19.8713882278
 30
0.0
 10
-6.6688396738
 20
-19.8428284792
 30
0.0
 10
-6.6468269622
 20
-19.8232415193
 30
0.0
 10
-6.6263386511
 20
-19.8053585724
 30
0.0
 10
-6.6077375418
 20
-19.7895808711
 30
0.0
 10
-6.5914504771
 20
-19.7763453555
 30
0.0
 10
-6.577949263
 20
-19.7661948289
 30
0.0
 10
-6.5685176612
 20
-19.7599586876
 30
0.0
 10
-6.5625969919
 20
-19.7571585623
 30
0.0
 10
-6.5602191622
 20
-19.7564867536
 30
0.0
 10
-6.559216057
 20
-19.7564431031
 30
0.0
 11
-6.9
 21
-20.0564380262
 31
0.0
 11
-6.8460954404
 21
-20.0061081946
 31
0.0
 11
-6.7928546927
 21
-19.9565394342
 31
0.0
 11
-6.7410543468
 21
-19.9086178452
 31
0.0
 11
-6.6917013654
 21
-19.8634888181
 31
0.0
 11
-6.6683680059
 21
-19.8424529816
 31
0.0
 11
-6.6462365442
 21
-19.822781725
 31
0.0
 11
-6.6255992804
 21
-19.804803442
 31
0.0
 11
-6.6068138287
 21
-19.7889190008
 31
0.0
 11
-6.5903066406
 21
-19.7756058045
 31
0.0
 11
-6.5765563763
 21
-19.7653991777
 31
0.0
 11
-6.5660519238
 21
-19.7588501197
 31
0.0
 11
-6.5621545952
 21
-19.7571050114
 31
0.0
 11
-6.559216057
 21
-19.7564431031
 31
0.0
  0
SPLINE
  5
7DA
100
AcDbEntity
  8
RACCORDO
100
AcDbSpline
 62
7
  6
CONTINUOUS
 70
0
 71
3
 72
12
 73
8
 74
6
 42
0.0000001
 43
0.0000001
 44
0.0000000001
 12
0.056890632
 22
-0.0024756155
 32
0.0
 13
0.0438874442
 23
-0.0362844997
 33
0.0
 40
0.0
 40
0.0
 40
0.0
 40
0.0
 40
0.0521743296
 40
0.125922574
 40
0.3393367568
 40
0.6344300338
 40
1.0
 40
1.0
 40
1.0
 40
1.0
 10
6.559216057
 20
-19.7564431031
 30
0.0
 10
6.5602054672
 20
-19.7564861577
 30
0.0
 10
6.562547796
 20
-19.7571416659
 30
0.0
 10
6.568373991
 20
-19.7598796658
 30
0.0
 10
6.5776457339
 20
-19.7659828382
 30
0.0
 10
6.5909128915
 20
-19.7759254533
 30
0.0
 10
6.6006582963
 20
-19.7838291145
 30
0.0
 10
6.6060062735
 20
-19.7882506223
 30
0.0
 11
6.559216057
 21
-19.7564431031
 31
0.0
 11
6.5621155361
 21
-19.7570912521
 31
0.0
 11
6.5659524262
 21
-19.7587984528
 31
0.0
 11
6.5762783294
 21
-19.7652066693
 31
0.0
 11
6.589786812
 21
-19.7752013164
 31
0.0
 11
6.6060062735
 21
-19.7882506223
 31
0.0
  0
SPLINE
  5
7DB
100
AcDbEntity
  8
RACCORDO
100
AcDbSpline
 62
7
  6
CONTINUOUS
 70
0
 71
3
 72
12
 73
8
 74
6
 42
0.0000001
 43
0.0000001
 44
0.0000000001
 12
0.3067244668
 22
-0.2535883337
 32
0.0
 13
0.2908317982
 23
-0.2716685603
 33
0.0
 40
0.0
 40
0.0
 40
0.0
 40
0.0
 40
0.0953029885
 40
0.2049898085
 40
0.4526151817
 40
0.7217628694
 40
1.0
 40
1.0
 40
1.0
 40
1.0
 10
6.6060062735
 20
-19.7882506223
 30
0.0
 10
6.6157501929
 20
-19.796306531
 30
0.0
 10
6.6363995992
 20
-19.8140068829
 30
0.0
 10
6.6813246102
 20
-19.8538449434
 30
0.0
 10
6.7426622657
 20
-19.9099241629
 30
0.0
 10
6.8199630252
 20
-19.9816703448
 30
0.0
 10
6.8730265983
 20
-20.0312419326
 30
0.0
 10
6.9
 20
-20.0564380262
 30
0.0
 11
6.6060062735
 21
-19.7882506223
 31
0.0
 11
6.6348852053
 21
-19.8128388711
 31
0.0
 11
6.6675880211
 21
-19.8417544477
 31
0.0
 11
6.7404743993
 21
-19.9080839125
 31
0.0
 11
6.8190405605
 21
-19.9808917694
 31
0.0
 11
6.9
 21
-20.0564380262
 31
0.0
  0
SPLINE
  5
7DC
100
AcDbEntity
  8
RACCORDO
100
AcDbSpline
 62
7
  6
CONTINUOUS
 70
0
 71
3
 72
20
 73
16
 74
14
 42
0.0000001
 43
0.0000001
 44
0.0000000001
 12
0.3324459501
 22
0.3105407084
 32
0.0
 13
0.4544938871
 23
0.0197774588
 33
0.0
 40
0.0
 40
0.0
 40
0.0
 40
0.0
 40
0.1621333372
 40
0.3220479615
 40
0.4771709504
 40
0.6241698556
 40
0.6932170267
 40
0.7583001048
 40
0.818456634
 40
0.8725245407
 40
0.9191357547
 40
0.9567768028
 40
0.9839887096
 40
0.9933772466
 40
1.0
 40
1.0
 40
1.0
 40
1.0
 10
6.9
 20
-20.0564380262
 30
0.0
 10
6.9179668571
 20
-20.0396550257
 30
0.0
 10
6.9536546439
 20
-20.0063186303
 30
0.0
 10
7.0065995375
 20
-19.9569967382
 30
0.0
 10
7.0580102304
 20
-19.9093952754
 30
0.0
 10
7.0995161448
 20
-19.8713784546
 30
0.0
 10
7.1311688555
 20
-19.8428211743
 30
0.0
 10
7.1531789031
 20
-19.8232363267
 30
0.0
 10
7.1736647533
 20
-19.8053555257
 30
0.0
 10
7.1922635586
 20
-19.7895801435
 30
0.0
 10
7.208548733
 20
-19.7763460141
 30
0.0
 10
7.2220492741
 20
-19.7661958487
 30
0.0
 10
7.2314810527
 20
-19.7599594017
 30
0.0
 10
7.2374023092
 20
-19.7571589114
 30
0.0
 10
7.2397806094
 20
-19.7564867635
 30
0.0
 10
7.240783943
 20
-19.7564431031
 30
0.0
 11
6.9
 21
-20.0564380262
 31
0.0
 11
6.9539119946
 21
-20.0061012567
 31
0.0
 11
7.007156681
 21
-19.9565288819
 31
0.0
 11
7.0589584042
 21
-19.9086061399
 31
0.0
 11
7.1083097507
 21
-19.8634786897
 31
0.0
 11
7.1316398825
 21
-19.8424461108
 31
0.0
 11
7.1537695986
 21
-19.8227763199
 31
0.0
 11
7.1744043754
 21
-19.8048002401
 31
0.0
 11
7.1931867225
 21
-19.7889186337
 31
0.0
 11
7.2096921184
 21
-19.7756067872
 31
0.0
 11
7.2234418274
 21
-19.7654003884
 31
0.0
 11
7.2339466859
 21
-19.7588508664
 31
0.0
 11
7.2378447656
 21
-19.7571052947
 31
0.0
 11
7.240783943
 21
-19.7564431031
 31
0.0
  0
SPLINE
  5
7DD
100
AcDbEntity
  8
RACCORDO
100
AcDbSpline
 62
7
  6
CONTINUOUS
 70
0
 71
3
 72
12
 73
8
 74
6
 42
0.0000001
 43
0.0000001
 44
0.0000000001
 12
-0.0508129315
 22
0.0022111423
 32
0.0
 13
-0.0394181098
 23
0.0321411852
 33
0.0
 40
0.0
 40
0.0
 40
0.0
 40
0.0
 40
0.0536827653
 40
0.1282155084
 40
0.3414788598
 40
0.6353505422
 40
1.0
 40
1.0
 40
1.0
 40
1.0
 10
7.240783943
 20
19.7564431031
 30
0.0
 10
7.2398746835
 20
19.7564826699
 30
0.0
 10
7.2377393303
 20
19.7570462151
 30
0.0
 10
7.2324632895
 20
19.7594284491
 30
0.0
 10
7.2241205481
 20
19.7647654068
 30
0.0
 10
7.2122168336
 20
19.7735104398
 30
0.0
 10
7.2034881882
 20
19.780481471
 30
0.0
 10
7.1986969241
 20
19.7843882263
 30
0.0
 11
7.240783943
 21
19.7564431031
 31
0.0
 11
7.2381136325
 21
19.7570125836
 31
0.0
 11
7.234628138
 21
19.7585030795
 31
0.0
 11
7.2253384318
 21
19.7641025649
 31
0.0
 11
7.2132356554
 21
19.7728732001
 31
0.0
 11
7.1986969241
 21
19.7843882263
 31
0.0
  0
SPLINE
  5
7DE
100
AcDbEntity
  8
RACCORDO
100
AcDbSpline
 62
7
  6
CONTINUOUS
 70
0
 71
3
 72
12
 73
8
 74
6
 42
0.0000001
 43
0.0000001
 44
0.0000000001
 12
-0.3131560696
 22
0.2553447458
 32
0.0
 13
-0.2952788159
 23
0.2758225589
 33
0.0
 40
0.0
 40
0.0
 40
0.0
 40
0.0
 40
0.0930282645
 40
0.2016347298
 40
0.4492352228
 40
0.7198010271
 40
1.0
 40
1.0
 40
1.0
 40
1.0
 10
7.1986969241
 20
19.7843882263
 30
0.0
 10
7.1889861355
 20
19.7923063191
 30
0.0
 10
7.1682973128
 20
19.8099067253
 30
0.0
 10
7.1229497044
 20
19.8499656032
 30
0.0
 10
7.0606118659
 20
19.9068977386
 30
0.0
 10
6.981786257
 20
19.9800355506
 30
0.0
 10
6.9275789403
 20
20.0306762936
 30
0.0
 10
6.9
 20
20.0564380262
 30
0.0
 11
7.1986969241
 21
19.7843882263
 31
0.0
 11
7.1699670307
 21
19.8086277334
 31
0.0
 11
7.1370295133
 21
19.8376263801
 31
0.0
 11
7.0629816981
 21
19.9049034868
 31
0.0
 11
6.9827788278
 21
19.979197823
 31
0.0
 11
6.9
 21
20.0564380262
 31
0.0
  0
SPLINE
  5
7DF
100
AcDbEntity
  8
RACCORDO
100
AcDbSpline
 62
7
  6
CONTINUOUS
 70
0
 71
3
 72
20
 73
16
 74
14
 42
0.0000001
 43
0.0000001
 44
0.0000000001
 12
-0.3324459616
 22
-0.3105407191
 32
0.0
 13
-0.4544939028
 23
-0.0197774594
 33
0.0
 40
0.0
 40
0.0
 40
0.0
 40
0.0
 40
0.1621109778
 40
0.3220138461
 40
0.4771328859
 40
0.6241367773
 40
0.6931940107
 40
0.7582820948
 40
0.8184459252
 40
0.8725230646
 40
0.9191392063
 40
0.9567815318
 40
0.9839921408
 40
0.9933787545
 40
1.0
 40
1.0
 40
1.0
 40
1.0
 10
6.9
 20
20.0564380262
 30
0.0
 10
6.88203562
 20
20.0396573397
 30
0.0
 10
6.8463516148
 20
20.0063244719
 30
0.0
 10
6.7934109426
 20
19.9570065136
 30
0.0
 10
6.7420015823
 20
19.9094059984
 30
0.0
 10
6.7004942559
 20
19.8713882278
 30
0.0
 10
6.6688396738
 20
19.8428284792
 30
0.0
 10
6.6468269622
 20
19.8232415193
 30
0.0
 10
6.6263386511
 20
19.8053585724
 30
0.0
 10
6.6077375418
 20
19.7895808711
 30
0.0
 10
6.5914504771
 20
19.7763453555
 30
0.0
 10
6.577949263
 20
19.7661948289
 30
0.0
 10
6.5685176612
 20
19.7599586876
 30
0.0
 10
6.5625969919
 20
19.7571585623
 30
0.0
 10
6.5602191622
 20
19.7564867536
 30
0.0
 10
6.559216057
 20
19.7564431031
 30
0.0
 11
6.9
 21
20.0564380262
 31
0.0
 11
6.8460954404
 21
20.0061081946
 31
0.0
 11
6.7928546927
 21
19.9565394342
 31
0.0
 11
6.7410543468
 21
19.9086178452
 31
0.0
 11
6.6917013654
 21
19.8634888181
 31
0.0
 11
6.6683680059
 21
19.8424529816
 31
0.0
 11
6.6462365442
 21
19.822781725
 31
0.0
 11
6.6255992804
 21
19.804803442
 31
0.0
 11
6.6068138287
 21
19.7889190008
 31
0.0
 11
6.5903066406
 21
19.7756058045
 31
0.0
 11
6.5765563763
 21
19.7653991777
 31
0.0
 11
6.5660519238
 21
19.7588501197
 31
0.0
 11
6.5621545952
 21
19.7571050114
 31
0.0
 11
6.559216057
 21
19.7564431031
 31
0.0
  0
SPLINE
  5
7E0
100
AcDbEntity
  8
RACCORDO
100
AcDbSpline
 62
7
  6
CONTINUOUS
 70
0
 71
3
 72
10
 73
6
 74
4
 42
0.0000001
 43
0.0000001
 44
0.0000000001
 12
-0.3127578542
 22
0.4423063991
 32
0.0
 13
-0.292680328
 23
0.455840599
 33
0.0
 40
0.0
 40
0.0
 40
0.0
 40
0.0
 40
0.5096488713
 40
0.7586453896
 40
1.0
 40
1.0
 40
1.0
 40
1.0
 10
-7.5841007192
 20
21.3126932437
 30
0.0
 10
-7.6372329483
 20
21.3878335627
 30
0.0
 10
-7.716355377
 20
21.4996676405
 30
0.0
 10
-7.8184797954
 20
21.6485895888
 30
0.0
 10
-7.8673368915
 20
21.7224434496
 30
0.0
 10
-7.8908834737
 20
21.7591165263
 30
0.0
 11
-7.5841007192
 21
21.3126932437
 31
0.0
 11
-7.7427970122
 21
21.5386078259
 31
0.0
 11
-7.8189457104
 21
21.649941607
 31
0.0
 11
-7.8908834737
 21
21.7591165263
 31
0.0
  0
SPLINE
  5
7E1
100
AcDbEntity
  8
RACCORDO
100
AcDbSpline
 62
7
  6
CONTINUOUS
 70
0
 71
3
 72
10
 73
6
 74
4
 42
0.0000001
 43
0.0000001
 44
0.0000000001
 12
-0.292680328
 22
-0.455840599
 32
0.0
 13
-0.3127578542
 23
-0.4423063991
 33
0.0
 40
0.0
 40
0.0
 40
0.0
 40
0.0
 40
0.2413546104
 40
0.4903511287
 40
1.0
 40
1.0
 40
1.0
 40
1.0
 10
7.8908834737
 20
21.7591165263
 30
0.0
 10
7.8673368915
 20
21.7224434496
 30
0.0
 10
7.8184797954
 20
21.6485895888
 30
0.0
 10
7.716355377
 20
21.4996676405
 30
0.0
 10
7.6372329483
 20
21.3878335627
 30
0.0
 10
7.5841007192
 20
21.3126932437
 30
0.0
 11
7.8908834737
 21
21.7591165263
 31
0.0
 11
7.8189457104
 21
21.649941607
 31
0.0
 11
7.7427970122
 21
21.5386078259
 31
0.0
 11
7.5841007192
 21
21.3126932437
 31
0.0
  0
SPLINE
  5
7E2
100
AcDbEntity
  8
RACCORDO
100
AcDbSpline
 62
7
  6
CONTINUOUS
 70
0
 71
3
 72
10
 73
6
 74
4
 42
0.0000001
 43
0.0000001
 44
0.0000000001
 12
0.292680328
 22
0.455840599
 32
0.0
 13
0.3127578542
 23
0.4423063992
 33
0.0
 40
0.0
 40
0.0
 40
0.0
 40
0.0
 40
0.2413546104
 40
0.4903511287
 40
1.0
 40
1.0
 40
1.0
 40
1.0
 10
-7.8908834737
 20
-21.7591165263
 30
0.0
 10
-7.8673368915
 20
-21.7224434496
 30
0.0
 10
-7.8184797954
 20
-21.6485895888
 30
0.0
 10
-7.716355377
 20
-21.4996676405
 30
0.0
 10
-7.6372329483
 20
-21.3878335627
 30
0.0
 10
-7.5841007192
 20
-21.3126932437
 30
0.0
 11
-7.8908834737
 21
-21.7591165263
 31
0.0
 11
-7.8189457104
 21
-21.649941607
 31
0.0
 11
-7.7427970122
 21
-21.5386078259
 31
0.0
 11
-7.5841007192
 21
-21.3126932437
 31
0.0
  0
SPLINE
  5
7E3
100
AcDbEntity
  8
RACCORDO
100
AcDbSpline
 62
7
  6
CONTINUOUS
 70
0
 71
3
 72
10
 73
6
 74
4
 42
0.0000001
 43
0.0000001
 44
0.0000000001
 12
0.3127578542
 22
-0.4423063992
 32
0.0
 13
0.292680328
 23
-0.455840599
 33
0.0
 40
0.0
 40
0.0
 40
0.0
 40
0.0
 40
0.5096488713
 40
0.7586453896
 40
1.0
 40
1.0
 40
1.0
 40
1.0
 10
7.5841007192
 20
-21.3126932437
 30
0.0
 10
7.6372329483
 20
-21.3878335627
 30
0.0
 10
7.716355377
 20
-21.4996676405
 30
0.0
 10
7.8184797954
 20
-21.6485895888
 30
0.0
 10
7.8673368915
 20
-21.7224434496
 30
0.0
 10
7.8908834737
 20
-21.7591165263
 30
0.0
 11
7.5841007192
 21
-21.3126932437
 31
0.0
 11
7.7427970122
 21
-21.5386078259
 31
0.0
 11
7.8189457104
 21
-21.649941607
 31
0.0
 11
7.8908834737
 21
-21.7591165263
 31
0.0
  0
SPLINE
  5
7E4
100
AcDbEntity
  8
RACCORDO
100
AcDbSpline
 62
7
  6
CONTINUOUS
 70
0
 71
3
 72
12
 73
8
 74
6
 42
0.0000001
 43
0.0000001
 44
0.0000000001
 12
-0.056890632
 22
0.0024756155
 32
0.0
 13
-0.0438874442
 23
0.0362844997
 33
0.0
 40
0.0
 40
0.0
 40
0.0
 40
0.0
 40
0.0521743296
 40
0.125922574
 40
0.3393367568
 40
0.6344300338
 40
1.0
 40
1.0
 40
1.0
 40
1.0
 10
-6.559216057
 20
19.7564431031
 30
0.0
 10
-6.5602054672
 20
19.7564861577
 30
0.0
 10
-6.562547796
 20
19.7571416659
 30
0.0
 10
-6.568373991
 20
19.7598796658
 30
0.0
 10
-6.5776457339
 20
19.7659828382
 30
0.0
 10
-6.5909128915
 20
19.7759254533
 30
0.0
 10
-6.6006582963
 20
19.7838291145
 30
0.0
 10
-6.6060062735
 20
19.7882506223
 30
0.0
 11
-6.559216057
 21
19.7564431031
 31
0.0
 11
-6.5621155361
 21
19.7570912521
 31
0.0
 11
-6.5659524262
 21
19.7587984528
 31
0.0
 11
-6.5762783294
 21
19.7652066693
 31
0.0
 11
-6.589786812
 21
19.7752013164
 31
0.0
 11
-6.6060062735
 21
19.7882506223
 31
0.0
  0
SPLINE
  5
7E5
100
AcDbEntity
  8
RACCORDO
100
AcDbSpline
 62
7
  6
CONTINUOUS
 70
0
 71
3
 72
12
 73
8
 74
6
 42
0.0000001
 43
0.0000001
 44
0.0000000001
 12
-0.3067244668
 22
0.2535883337
 32
0.0
 13
-0.2908317982
 23
0.2716685603
 33
0.0
 40
0.0
 40
0.0
 40
0.0
 40
0.0
 40
0.0953029885
 40
0.2049898085
 40
0.4526151817
 40
0.7217628694
 40
1.0
 40
1.0
 40
1.0
 40
1.0
 10
-6.6060062735
 20
19.7882506223
 30
0.0
 10
-6.6157501929
 20
19.796306531
 30
0.0
 10
-6.6363995992
 20
19.8140068829
 30
0.0
 10
-6.6813246102
 20
19.8538449434
 30
0.0
 10
-6.7426622657
 20
19.9099241629
 30
0.0
 10
-6.8199630252
 20
19.9816703448
 30
0.0
 10
-6.8730265983
 20
20.0312419326
 30
0.0
 10
-6.9
 20
20.0564380262
 30
0.0
 11
-6.6060062735
 21
19.7882506223
 31
0.0
 11
-6.6348852053
 21
19.8128388711
 31
0.0
 11
-6.6675880211
 21
19.8417544477
 31
0.0
 11
-6.7404743993
 21
19.9080839125
 31
0.0
 11
-6.8190405605
 21
19.9808917694
 31
0.0
 11
-6.9
 21
20.0564380262
 31
0.0
  0
SPLINE
  5
7E6
100
AcDbEntity
  8
RACCORDO
100
AcDbSpline
 62
7
  6
CONTINUOUS
 70
0
 71
3
 72
20
 73
16
 74
14
 42
0.0000001
 43
0.0000001
 44
0.0000000001
 12
-0.3324459501
 22
-0.3105407084
 32
0.0
 13
-0.4544938871
 23
-0.0197774588
 33
0.0
 40
0.0
 40
0.0
 40
0.0
 40
0.0
 40
0.1621333372
 40
0.3220479615
 40
0.4771709504
 40
0.6241698556
 40
0.6932170267
 40
0.7583001048
 40
0.818456634
 40
0.8725245407
 40
0.9191357547
 40
0.9567768028
 40
0.9839887096
 40
0.9933772466
 40
1.0
 40
1.0
 40
1.0
 40
1.0
 10
-6.9
 20
20.0564380262
 30
0.0
 10
-6.9179668571
 20
20.0396550257
 30
0.0
 10
-6.9536546439
 20
20.0063186303
 30
0.0
 10
-7.0065995375
 20
19.9569967382
 30
0.0
 10
-7.0580102304
 20
19.9093952754
 30
0.0
 10
-7.0995161448
 20
19.8713784546
 30
0.0
 10
-7.1311688555
 20
19.8428211743
 30
0.0
 10
-7.1531789031
 20
19.8232363267
 30
0.0
 10
-7.1736647533
 20
19.8053555257
 30
0.0
 10
-7.1922635586
 20
19.7895801435
 30
0.0
 10
-7.208548733
 20
19.7763460141
 30
0.0
 10
-7.2220492741
 20
19.7661958487
 30
0.0
 10
-7.2314810527
 20
19.7599594017
 30
0.0
 10
-7.2374023092
 20
19.7571589114
 30
0.0
 10
-7.2397806094
 20
19.7564867635
 30
0.0
 10
-7.240783943
 20
19.7564431031
 30
0.0
 11
-6.9
 21
20.0564380262
 31
0.0
 11
-6.9539119946
 21
20.0061012567
 31
0.0
 11
-7.007156681
 21
19.9565288819
 31
0.0
 11
-7.0589584042
 21
19.9086061399
 31
0.0
 11
-7.1083097507
 21
19.8634786897
 31
0.0
 11
-7.1316398825
 21
19.8424461108
 31
0.0
 11
-7.1537695986
 21
19.8227763199
 31
0.0
 11
-7.1744043754
 21
19.8048002401
 31
0.0
 11
-7.1931867225
 21
19.7889186337
 31
0.0
 11
-7.2096921184
 21
19.7756067872
 31
0.0
 11
-7.2234418274
 21
19.7654003884
 31
0.0
 11
-7.2339466859
 21
19.7588508664
 31
0.0
 11
-7.2378447656
 21
19.7571052947
 31
0.0
 11
-7.240783943
 21
19.7564431031
 31
0.0
  0
SPLINE
  5
7E7
100
AcDbEntity
  8
RACCORDO
100
AcDbSpline
 62
253
  6
CONTINUOUS
 70
0
 71
3
 72
13
 73
9
 74
7
 42
0.0000001
 43
0.0000001
 44
0.0000000001
 12
-0.0012265939
 22
0.3651868486
 32
0.0
 13
-0.3651877498
 23
0.0009199789
 33
0.0
 40
0.0
 40
0.0
 40
0.0
 40
0.0
 40
0.1162401412
 40
0.2339779602
 40
0.3543714643
 40
0.4780981267
 40
0.7345386771
 40
1.0
 40
1.0
 40
1.0
 40
1.0
 10
-8.254371834
 20
-23.8443375673
 30
0.0
 10
-8.2544193605
 20
-23.830187777
 30
0.0
 10
-8.2577776477
 20
-23.8016147644
 30
0.0
 10
-8.2723349985
 20
-23.7606546878
 30
0.0
 10
-8.2958054152
 20
-23.722982847
 30
0.0
 10
-8.3381078067
 20
-23.6786204663
 30
0.0
 10
-8.408034724
 20
-23.6387874704
 30
0.0
 10
-8.4720531955
 20
-23.6279126226
 30
0.0
 10
-8.5043676032
 20
-23.6278312164
 30
0.0
 11
-8.254371834
 21
-23.8443375673
 31
0.0
 11
-8.2592995459
 21
-23.8021749409
 31
0.0
 11
-8.2736102825
 21
-23.7616298332
 31
0.0
 11
-8.2967558894
 21
-23.7242490524
 31
0.0
 11
-8.3278504455
 21
-23.6914666374
 31
0.0
 11
-8.4088665543
 21
-23.6444924834
 31
0.0
 11
-8.5043676032
 21
-23.6278312164
 31
0.0
  0
SPLINE
  5
7E8
100
AcDbEntity
  8
RACCORDO
100
AcDbSpline
 62
253
  6
CONTINUOUS
 70
0
 71
3
 72
13
 73
9
 74
7
 42
0.0000001
 43
0.0000001
 44
0.0000000001
 12
-0.0012265939
 22
-0.3651868479
 32
0.0
 13
-0.3651877491
 23
-0.0009199789
 33
0.0
 40
0.0
 40
0.0
 40
0.0
 40
0.0
 40
0.1162399782
 40
0.2339778175
 40
0.3543713311
 40
0.4780980184
 40
0.7345386243
 40
1.0
 40
1.0
 40
1.0
 40
1.0
 10
10.645628166
 20
23.8443375673
 30
0.0
 10
10.6455806396
 20
23.8301877969
 30
0.0
 10
10.6422223551
 20
23.8016148029
 30
0.0
 10
10.6276650278
 20
23.7606547352
 30
0.0
 10
10.6041946141
 20
23.7229828841
 30
0.0
 10
10.561892224
 20
23.6786204872
 30
0.0
 10
10.4919652956
 20
23.6387874753
 30
0.0
 10
10.4279468109
 20
23.6279126226
 30
0.0
 10
10.3956323968
 20
23.6278312164
 30
0.0
 11
10.645628166
 21
23.8443375673
 31
0.0
 11
10.6407004657
 21
23.8021749995
 31
0.0
 11
10.626389741
 21
23.7616298799
 31
0.0
 11
10.6032441408
 21
23.7242490909
 31
0.0
 11
10.5721495847
 21
23.6914666636
 31
0.0
 11
10.4911334639
 21
23.6444924903
 31
0.0
 11
10.3956323968
 21
23.6278312164
 31
0.0
  0
SPLINE
  5
7E9
100
AcDbEntity
  8
RACCORDO
100
AcDbSpline
 62
253
  6
CONTINUOUS
 70
0
 71
3
 72
13
 73
9
 74
7
 42
0.0000001
 43
0.0000001
 44
0.0000000001
 12
0.0012265939
 22
-0.3651868488
 32
0.0
 13
0.36518775
 23
-0.0009199789
 33
0.0
 40
0.0
 40
0.0
 40
0.0
 40
0.0
 40
0.1162401487
 40
0.2339779758
 40
0.3543714899
 40
0.478098162
 40
0.7345387303
 40
1.0
 40
1.0
 40
1.0
 40
1.0
 10
8.254371834
 20
23.8443375673
 30
0.0
 10
8.2544193605
 20
23.8301877761
 30
0.0
 10
8.2577776481
 20
23.8016147615
 30
0.0
 10
8.2723350011
 20
23.7606546823
 30
0.0
 10
8.295805421
 20
23.7229828394
 30
0.0
 10
8.3381078178
 20
23.6786204573
 30
0.0
 10
8.408034735
 20
23.6387874669
 30
0.0
 10
8.472053202
 20
23.6279126226
 30
0.0
 10
8.5043676032
 20
23.6278312164
 30
0.0
 11
8.254371834
 21
23.8443375673
 31
0.0
 11
8.2592995465
 21
23.8021749381
 31
0.0
 11
8.2736102851
 21
23.761629828
 31
0.0
 11
8.2967558954
 21
23.7242490449
 31
0.0
 11
8.3278504554
 21
23.6914666288
 31
0.0
 11
8.4088665728
 21
23.6444924765
 31
0.0
 11
8.5043676032
 21
23.6278312164
 31
0.0
  0
SPLINE
  5
7EA
100
AcDbEntity
  8
RACCORDO
100
AcDbSpline
 62
253
  6
CONTINUOUS
 70
0
 71
3
 72
13
 73
9
 74
7
 42
0.0000001
 43
0.0000001
 44
0.0000000001
 12
0.0012265939
 22
0.3651868479
 32
0.0
 13
0.3651877491
 23
0.0009199789
 33
0.0
 40
0.0
 40
0.0
 40
0.0
 40
0.0
 40
0.1162399782
 40
0.2339778175
 40
0.3543713311
 40
0.4780980184
 40
0.7345386243
 40
1.0
 40
1.0
 40
1.0
 40
1.0
 10
-10.645628166
 20
-23.8443375673
 30
0.0
 10
-10.6455806396
 20
-23.8301877969
 30
0.0
 10
-10.6422223551
 20
-23.8016148029
 30
0.0
 10
-10.6276650278
 20
-23.7606547352
 30
0.0
 10
-10.6041946141
 20
-23.7229828841
 30
0.0
 10
-10.561892224
 20
-23.6786204872
 30
0.0
 10
-10.4919652956
 20
-23.6387874753
 30
0.0
 10
-10.4279468109
 20
-23.6279126226
 30
0.0
 10
-10.3956323968
 20
-23.6278312164
 30
0.0
 11
-10.645628166
 21
-23.8443375673
 31
0.0
 11
-10.6407004657
 21
-23.8021749995
 31
0.0
 11
-10.626389741
 21
-23.7616298799
 31
0.0
 11
-10.6032441408
 21
-23.7242490909
 31
0.0
 11
-10.5721495847
 21
-23.6914666636
 31
0.0
 11
-10.4911334639
 21
-23.6444924903
 31
0.0
 11
-10.3956323968
 21
-23.6278312164
 31
0.0
  0
SPLINE
  5
7EB
100
AcDbEntity
  8
RACCORDO
100
AcDbSpline
 62
7
  6
CONTINUOUS
 70
0
 71
3
 72
15
 73
11
 74
9
 42
0.0000001
 43
0.0000001
 44
0.0000000001
 12
0.3142904289
 22
0.0
 32
0.0
 13
0.0031667933
 23
-0.3142744742
 33
0.0
 40
0.0
 40
0.0
 40
0.0
 40
0.0
 40
0.1666545511
 40
0.3262779792
 40
0.4735916211
 40
0.6057108254
 40
0.7221085607
 40
0.8242207343
 40
0.9152394685
 40
1.0
 40
1.0
 40
1.0
 40
1.0
 10
10.3956323968
 20
-23.7
 30
0.0
 10
10.4130917069
 20
-23.7
 30
0.0
 10
10.4473034732
 20
-23.7022700651
 30
0.0
 10
10.4961878482
 20
-23.7114284588
 30
0.0
 10
10.540028913
 20
-23.7258344539
 30
0.0
 10
10.5772691987
 20
-23.744460098
 30
0.0
 10
10.6070169748
 20
-23.7663702269
 30
0.0
 10
10.6288084606
 20
-23.7907682484
 30
0.0
 10
10.6423087823
 20
-23.8169652651
 30
0.0
 10
10.645538693
 20
-23.8354582101
 30
0.0
 10
10.645628166
 20
-23.8443375673
 30
0.0
 11
10.3956323968
 21
-23.7
 31
0.0
 11
10.4479016168
 21
-23.7033728661
 31
0.0
 11
10.49717892
 21
-23.7127849448
 31
0.0
 11
10.5410978905
 21
-23.7274391667
 31
0.0
 11
10.5780992753
 21
-23.7462838901
 31
0.0
 11
10.6073337071
 21
-23.7682757411
 31
0.0
 11
10.6284113806
 21
-23.7924766616
 31
0.0
 11
10.6411891944
 21
-23.8180705836
 31
0.0
 11
10.645628166
 21
-23.8443375673
 31
0.0
  0
SPLINE
  5
7EC
100
AcDbEntity
  8
RACCORDO
100
AcDbSpline
 62
253
  6
CONTINUOUS
 70
0
 71
3
 72
13
 73
9
 74
7
 42
0.0000001
 43
0.0000001
 44
0.0000000001
 12
-0.0012265939
 22
-0.3651868479
 32
0.0
 13
-0.3651877491
 23
-0.0009199789
 33
0.0
 40
0.0
 40
0.0
 40
0.0
 40
0.0
 40
0.1162399782
 40
0.2339778175
 40
0.3543713311
 40
0.4780980184
 40
0.7345386243
 40
1.0
 40
1.0
 40
1.0
 40
1.0
 10
-8.254371834
 20
23.8443375673
 30
0.0
 10
-8.2544193604
 20
23.8301877969
 30
0.0
 10
-8.2577776449
 20
23.8016148029
 30
0.0
 10
-8.2723349722
 20
23.7606547352
 30
0.0
 10
-8.2958053859
 20
23.7229828841
 30
0.0
 10
-8.338107776
 20
23.6786204872
 30
0.0
 10
-8.4080347044
 20
23.6387874753
 30
0.0
 10
-8.4720531891
 20
23.6279126226
 30
0.0
 10
-8.5043676032
 20
23.6278312164
 30
0.0
 11
-8.254371834
 21
23.8443375673
 31
0.0
 11
-8.2592995343
 21
23.8021749995
 31
0.0
 11
-8.273610259
 21
23.7616298799
 31
0.0
 11
-8.2967558592
 21
23.7242490909
 31
0.0
 11
-8.3278504153
 21
23.6914666636
 31
0.0
 11
-8.4088665361
 21
23.6444924903
 31
0.0
 11
-8.5043676032
 21
23.6278312164
 31
0.0
  0
SPLINE
  5
7ED
100
AcDbEntity
  8
RACCORDO
100
AcDbSpline
 62
253
  6
CONTINUOUS
 70
0
 71
3
 72
13
 73
9
 74
7
 42
0.0000001
 43
0.0000001
 44
0.0000000001
 12
0.0012265939
 22
-0.3651868479
 32
0.0
 13
0.3651877491
 23
-0.0009199789
 33
0.0
 40
0.0
 40
0.0
 40
0.0
 40
0.0
 40
0.1162399782
 40
0.2339778175
 40
0.3543713311
 40
0.4780980184
 40
0.7345386243
 40
1.0
 40
1.0
 40
1.0
 40
1.0
 10
-10.645628166
 20
23.8443375673
 30
0.0
 10
-10.6455806396
 20
23.8301877969
 30
0.0
 10
-10.6422223551
 20
23.8016148029
 30
0.0
 10
-10.6276650278
 20
23.7606547352
 30
0.0
 10
-10.6041946141
 20
23.7229828841
 30
0.0
 10
-10.561892224
 20
23.6786204872
 30
0.0
 10
-10.4919652956
 20
23.6387874753
 30
0.0
 10
-10.4279468109
 20
23.6279126226
 30
0.0
 10
-10.3956323968
 20
23.6278312164
 30
0.0
 11
-10.645628166
 21
23.8443375673
 31
0.0
 11
-10.6407004657
 21
23.8021749995
 31
0.0
 11
-10.626389741
 21
23.7616298799
 31
0.0
 11
-10.6032441408
 21
23.7242490909
 31
0.0
 11
-10.5721495847
 21
23.6914666636
 31
0.0
 11
-10.4911334639
 21
23.6444924903
 31
0.0
 11
-10.3956323968
 21
23.6278312164
 31
0.0
  0
SPLINE
  5
7EE
100
AcDbEntity
  8
RACCORDO
100
AcDbSpline
 62
7
  6
CONTINUOUS
 70
0
 71
3
 72
15
 73
11
 74
9
 42
0.0000001
 43
0.0000001
 44
0.0000000001
 12
0.0031741022
 22
0.3149998123
 32
0.0
 13
0.3150158039
 23
0.0
 33
0.0
 40
0.0
 40
0.0
 40
0.0
 40
0.0
 40
0.0847129374
 40
0.1757006909
 40
0.2778081862
 40
0.3942292046
 40
0.5263924491
 40
0.6737522819
 40
0.8333934372
 40
1.0
 40
1.0
 40
1.0
 40
1.0
 10
8.254371834
 20
-23.8443375673
 30
0.0
 10
8.2544614632
 20
-23.8354427142
 30
0.0
 10
8.2577030547
 20
-23.8169151481
 30
0.0
 10
8.2712510165
 20
-23.7906750928
 30
0.0
 10
8.2931173207
 20
-23.7662437729
 30
0.0
 10
8.3229647126
 20
-23.7443139213
 30
0.0
 10
8.3603248417
 20
-23.7256847024
 30
0.0
 10
8.404297613
 20
-23.7113065128
 30
0.0
 10
8.4533081754
 20
-23.7021703171
 30
0.0
 10
8.4876002652
 20
-23.7
 30
0.0
 10
8.5050948319
 20
-23.7
 30
0.0
 11
8.254371834
 21
-23.8443375673
 31
0.0
 11
8.2588255818
 21
-23.8180259322
 31
0.0
 11
8.2716467936
 21
-23.7923907994
 31
0.0
 11
8.2927961599
 21
-23.7681560707
 31
0.0
 11
8.322129078
 21
-23.7461425298
 31
0.0
 11
8.3592515743
 21
-23.7272939361
 31
0.0
 11
8.4033052251
 21
-23.7126598996
 31
0.0
 11
8.4527144738
 21
-23.7032919418
 31
0.0
 11
8.5050948319
 21
-23.7
 31
0.0
  0
SPLINE
  5
7EF
100
AcDbEntity
  8
ASSI
100
AcDbSpline
 62
7
  6
CONTINUOUS
 70
0
 71
3
 72
8
 73
4
 74
2
 42
0.0000001
 43
0.0000001
 44
0.0000000001
 12
0.0878470164
 22
0.0351655621
 32
0.0
 13
0.0946240723
 23
0.0
 33
0.0
 40
0.0
 40
0.0
 40
0.0
 40
0.0
 40
1.0
 40
1.0
 40
1.0
 40
1.0
 10
8.4070816648
 20
24.4820923408
 30
0.0
 10
8.4363640036
 20
24.4938141948
 30
0.0
 10
8.4684544118
 20
24.5
 30
0.0
 10
8.4999957692
 20
24.5
 30
0.0
 11
8.4070816648
 21
24.4820923408
 31
0.0
 11
8.4999957692
 21
24.5
 31
0.0
  0
SPLINE
  5
7F0
100
AcDbEntity
  8
ASSI
100
AcDbSpline
 62
7
  6
CONTINUOUS
 70
0
 71
3
 72
8
 73
4
 74
2
 42
0.0000001
 43
0.0000001
 44
0.0000000001
 12
0.0351655621
 22
-0.0878470164
 32
0.0
 13
0.0
 23
-0.0946240723
 33
0.0
 40
0.0
 40
0.0
 40
0.0
 40
0.0
 40
1.0
 40
1.0
 40
1.0
 40
1.0
 10
10.6320923408
 20
24.3429183352
 30
0.0
 10
10.6438141948
 20
24.3136359964
 30
0.0
 10
10.65
 20
24.2815455882
 30
0.0
 10
10.65
 20
24.2500042308
 30
0.0
 11
10.6320923408
 21
24.3429183352
 31
0.0
 11
10.65
 21
24.2500042308
 31
0.0
  0
SPLINE
  5
7F1
100
AcDbEntity
  8
ASSI
100
AcDbSpline
 62
7
  6
CONTINUOUS
 70
0
 71
3
 72
8
 73
4
 74
2
 42
0.0000001
 43
0.0000001
 44
0.0000000001
 12
-0.0878470164
 22
-0.0351655621
 32
0.0
 13
-0.0946240723
 23
0.0
 33
0.0
 40
0.0
 40
0.0
 40
0.0
 40
0.0
 40
1.0
 40
1.0
 40
1.0
 40
1.0
 10
-8.4070816648
 20
-24.4820923408
 30
0.0
 10
-8.4363640036
 20
-24.4938141948
 30
0.0
 10
-8.4684544118
 20
-24.5
 30
0.0
 10
-8.4999957692
 20
-24.5
 30
0.0
 11
-8.4070816648
 21
-24.4820923408
 31
0.0
 11
-8.4999957692
 21
-24.5
 31
0.0
  0
SPLINE
  5
7F2
100
AcDbEntity
  8
ASSI
100
AcDbSpline
 62
7
  6
CONTINUOUS
 70
0
 71
3
 72
8
 73
4
 74
2
 42
0.0000001
 43
0.0000001
 44
0.0000000001
 12
0.0351655621
 22
-0.0878470164
 32
0.0
 13
0.0
 23
-0.0946240723
 33
0.0
 40
0.0
 40
0.0
 40
0.0
 40
0.0
 40
1.0
 40
1.0
 40
1.0
 40
1.0
 10
-8.2679076592
 20
24.3429183352
 30
0.0
 10
-8.2561858052
 20
24.3136359964
 30
0.0
 10
-8.25
 20
24.2815455882
 30
0.0
 10
-8.25
 20
24.2500042308
 30
0.0
 11
-8.2679076592
 21
24.3429183352
 31
0.0
 11
-8.25
 21
24.2500042308
 31
0.0
  0
SPLINE
  5
7F3
100
AcDbEntity
  8
ASSI
100
AcDbSpline
 62
7
  6
CONTINUOUS
 70
0
 71
3
 72
8
 73
4
 74
2
 42
0.0000001
 43
0.0000001
 44
0.0000000001
 12
0.0878470164
 22
0.0351655621
 32
0.0
 13
0.0946240723
 23
0.0
 33
0.0
 40
0.0
 40
0.0
 40
0.0
 40
0.0
 40
1.0
 40
1.0
 40
1.0
 40
1.0
 10
-10.4929183352
 20
24.4820923408
 30
0.0
 10
-10.4636359964
 20
24.4938141948
 30
0.0
 10
-10.4315455882
 20
24.5
 30
0.0
 10
-10.4000042308
 20
24.5
 30
0.0
 11
-10.4929183352
 21
24.4820923408
 31
0.0
 11
-10.4000042308
 21
24.5
 31
0.0
  0
SPLINE
  5
7F4
100
AcDbEntity
  8
ASSI
100
AcDbSpline
 62
7
  6
CONTINUOUS
 70
0
 71
3
 72
8
 73
4
 74
2
 42
0.0000001
 43
0.0000001
 44
0.0000000001
 12
-0.0351655621
 22
0.0878470164
 32
0.0
 13
0.0
 23
0.0946240723
 33
0.0
 40
0.0
 40
0.0
 40
0.0
 40
0.0
 40
1.0
 40
1.0
 40
1.0
 40
1.0
 10
-10.6320923408
 20
-24.3429183352
 30
0.0
 10
-10.6438141948
 20
-24.3136359964
 30
0.0
 10
-10.65
 20
-24.2815455882
 30
0.0
 10
-10.65
 20
-24.2500042308
 30
0.0
 11
-10.6320923408
 21
-24.3429183352
 31
0.0
 11
-10.65
 21
-24.2500042308
 31
0.0
  0
SPLINE
  5
7F5
100
AcDbEntity
  8
ASSI
100
AcDbSpline
 62
7
  6
CONTINUOUS
 70
0
 71
3
 72
8
 73
4
 74
2
 42
0.0000001
 43
0.0000001
 44
0.0000000001
 12
-0.0878470164
 22
-0.0351655621
 32
0.0
 13
-0.0946240723
 23
0.0
 33
0.0
 40
0.0
 40
0.0
 40
0.0
 40
0.0
 40
1.0
 40
1.0
 40
1.0
 40
1.0
 10
10.4929183352
 20
-24.4820923408
 30
0.0
 10
10.4636359964
 20
-24.4938141948
 30
0.0
 10
10.4315455882
 20
-24.5
 30
0.0
 10
10.4000042308
 20
-24.5
 30
0.0
 11
10.4929183352
 21
-24.4820923408
 31
0.0
 11
10.4000042308
 21
-24.5
 31
0.0
  0
SPLINE
  5
7F6
100
AcDbEntity
  8
ASSI
100
AcDbSpline
 62
7
  6
CONTINUOUS
 70
0
 71
3
 72
8
 73
4
 74
2
 42
0.0000001
 43
0.0000001
 44
0.0000000001
 12
-0.0351655621
 22
0.0878470164
 32
0.0
 13
0.0
 23
0.0946240723
 33
0.0
 40
0.0
 40
0.0
 40
0.0
 40
0.0
 40
1.0
 40
1.0
 40
1.0
 40
1.0
 10
8.2679076592
 20
-24.3429183352
 30
0.0
 10
8.2561858052
 20
-24.3136359964
 30
0.0
 10
8.25
 20
-24.2815455882
 30
0.0
 10
8.25
 20
-24.2500042308
 30
0.0
 11
8.2679076592
 21
-24.3429183352
 31
0.0
 11
8.25
 21
-24.2500042308
 31
0.0
  0
SPLINE
  5
7F7
100
AcDbEntity
  8
ASSI
100
AcDbSpline
 62
7
  6
CONTINUOUS
 70
0
 71
3
 72
18
 73
14
 74
12
 42
0.0000001
 43
0.0000001
 44
0.0000000001
 12
0.4450900098
 22
-0.481089847
 32
0.0
 13
0.0252793681
 23
-0.6549148886
 33
0.0
 40
0.0
 40
0.0
 40
0.0
 40
0.0
 40
0.1613752213
 40
0.3205648321
 40
0.4750521132
 40
0.6215624232
 40
0.7554519706
 40
0.8156302568
 40
0.8698497547
 40
0.9167800736
 40
0.9549510543
 40
0.9829508618
 40
1.0
 40
1.0
 40
1.0
 40
1.0
 10
3.9279699877
 20
-23.2563578147
 30
0.0
 10
3.951912154
 20
-23.2822364749
 30
0.0
 10
3.9994724887
 20
-23.3336430992
 30
0.0
 10
4.0698353108
 20
-23.4099325036
 30
0.0
 10
4.1377455041
 20
-23.484066414
 30
0.0
 10
4.2014859462
 20
-23.5545201311
 30
0.0
 10
4.2508230034
 20
-23.6102239554
 30
0.0
 10
4.2861252251
 20
-23.6514027244
 30
0.0
 10
4.30865538
 20
-23.6785235868
 30
0.0
 10
4.3275107923
 20
-23.7023794268
 30
0.0
 10
4.3421580858
 20
-23.7224037967
 30
0.0
 10
4.3515989824
 20
-23.737733022
 30
0.0
 10
4.3557890689
 20
-23.7470515132
 30
0.0
 10
4.3559327327
 20
-23.7507734247
 30
0.0
 11
3.9279699877
 21
-23.2563578147
 31
0.0
 11
3.9997765949
 21
-23.3340121936
 31
0.0
 11
4.0704877548
 21
-23.4107283322
 31
0.0
 11
4.1388431419
 21
-23.4854235788
 31
0.0
 11
4.2032052128
 21
-23.5566835667
 31
0.0
 11
4.2612534815
 21
-23.6224918804
 31
0.0
 11
4.2868924139
 21
-23.6524624993
 31
0.0
 11
4.3095479031
 21
-23.6798396365
 31
0.0
 11
4.3285453323
 21
-23.7040298781
 31
0.0
 11
4.3431216653
 21
-23.7243620891
 31
0.0
 11
4.3524856812
 21
-23.7401443506
 31
0.0
 11
4.3559327327
 21
-23.7507734247
 31
0.0
  0
SPLINE
  5
7F8
100
AcDbEntity
  8
ASSI
100
AcDbSpline
 62
7
  6
CONTINUOUS
 70
0
 71
3
 72
9
 73
5
 74
3
 42
0.0000001
 43
0.0000001
 44
0.0000000001
 12
0.0
 22
0.0062891298
 32
0.0
 13
0.0021618268
 23
0.0059059003
 33
0.0
 40
0.0
 40
0.0
 40
0.0
 40
0.0
 40
0.2092419995
 40
1.0
 40
1.0
 40
1.0
 40
1.0
 10
3.5
 20
-23.7511422903
 30
0.0
 10
3.5
 20
-23.7507036403
 30
0.0
 10
3.5001543494
 20
-23.7486071787
 30
0.0
 10
3.5007721879
 20
-23.7465741263
 30
0.0
 10
3.5013420152
 20
-23.7450174137
 30
0.0
 11
3.5
 21
-23.7511422903
 31
0.0
 11
3.5000848853
 21
-23.7498290808
 31
0.0
 11
3.5013420152
 21
-23.7450174137
 31
0.0
  0
SPLINE
  5
7F9
100
AcDbEntity
  8
ASSI
100
AcDbSpline
 62
7
  6
CONTINUOUS
 70
0
 71
3
 72
9
 73
5
 74
3
 42
0.0000001
 43
0.0000001
 44
0.0000000001
 12
0.0138937071
 22
0.0379562548
 32
0.0
 13
0.0239154875
 23
0.0325846871
 33
0.0
 40
0.0
 40
0.0
 40
0.0
 40
0.0
 40
0.4060934757
 40
1.0
 40
1.0
 40
1.0
 40
1.0
 10
3.5013420152
 20
-23.7450174137
 30
0.0
 10
3.5032227298
 20
-23.7398794845
 30
0.0
 10
3.5100367085
 20
-23.7281175467
 30
0.0
 10
3.5177312507
 20
-23.7170928733
 30
0.0
 10
3.522465772
 20
-23.7106421206
 30
0.0
 11
3.5013420152
 21
-23.7450174137
 31
0.0
 11
3.5089021698
 21
-23.7304481758
 31
0.0
 11
3.522465772
 21
-23.7106421206
 31
0.0
  0
SPLINE
  5
7FA
100
AcDbEntity
  8
ASSI
100
AcDbSpline
 62
7
  6
CONTINUOUS
 70
0
 71
3
 72
12
 73
8
 74
6
 42
0.0000001
 43
0.0000001
 44
0.0000000001
 12
0.3603957564
 22
0.4910367371
 32
0.0
 13
0.4136451358
 23
0.447101644
 33
0.0
 40
0.0
 40
0.0
 40
0.0
 40
0.0
 40
0.0841735916
 40
0.1886316942
 40
0.436310239
 40
0.7123784467
 40
1.0
 40
1.0
 40
1.0
 40
1.0
 10
3.522465772
 20
-23.7106421206
 30
0.0
 10
3.5325777071
 20
-23.6968646786
 30
0.0
 10
3.5565551605
 20
-23.6669694836
 30
0.0
 10
3.614034592
 20
-23.5995672742
 30
0.0
 10
3.6992582942
 20
-23.5046483544
 30
0.0
 10
3.8105803984
 20
-23.3832251693
 30
0.0
 10
3.8883122355
 20
-23.2992231711
 30
0.0
 10
3.9279699877
 20
-23.2563578147
 30
0.0
 11
3.522465772
 21
-23.7106421206
 31
0.0
 11
3.55415055
 21
-23.6703345893
 31
0.0
 11
3.5952883004
 21
-23.6217972431
 31
0.0
 11
3.6955873384
 21
-23.5091069327
 31
0.0
 11
3.8090892584
 21
-23.3850394257
 31
0.0
 11
3.9279699877
 21
-23.2563578147
 31
0.0
  0
SPLINE
  5
7FB
100
AcDbEntity
  8
ASSI
100
AcDbSpline
 62
7
  6
CONTINUOUS
 70
0
 71
3
 72
18
 73
14
 74
12
 42
0.0000001
 43
0.0000001
 44
0.0000000001
 12
0.4453343141
 22
-0.4813539111
 32
0.0
 13
0.0
 23
-0.6557623343
 33
0.0
 40
0.0
 40
0.0
 40
0.0
 40
0.0
 40
0.1617626362
 40
0.3213210916
 40
0.4761348144
 40
0.6228935805
 40
0.7568955454
 40
0.8170511739
 40
0.8711751963
 40
0.917919862
 40
0.9558002483
 40
0.983403045
 40
1.0
 40
1.0
 40
1.0
 40
1.0
 10
-3.9279699877
 20
-23.2563578147
 30
0.0
 10
-3.9039571701
 20
-23.2823128406
 30
0.0
 10
-3.8562584608
 20
-23.3338690226
 30
0.0
 10
-3.7856972839
 20
-23.4103749159
 30
0.0
 10
-3.7176127694
 20
-23.4847038112
 30
0.0
 10
-3.65374232
 20
-23.5553126307
 30
0.0
 10
-3.6043387242
 20
-23.611111514
 30
0.0
 10
-3.5690345371
 20
-23.6523252473
 30
0.0
 10
-3.5465506371
 20
-23.679425806
 30
0.0
 10
-3.5277917146
 20
-23.7032132799
 30
0.0
 10
-3.5132806161
 20
-23.7231353787
 30
0.0
 10
-3.5040485276
 20
-23.7382783969
 30
0.0
 10
-3.5
 20
-23.7475144044
 30
0.0
 10
-3.5
 20
-23.7511422903
 30
0.0
 11
-3.9279699877
 21
-23.2563578147
 31
0.0
 11
-3.8559516049
 21
-23.3342414555
 31
0.0
 11
-3.7850385928
 21
-23.411178372
 31
0.0
 11
-3.7165038959
 21
-23.4860750371
 31
0.0
 11
-3.6520037393
 21
-23.5575008734
 31
0.0
 11
-3.5938889042
 21
-23.6234129939
 31
0.0
 11
-3.5682580572
 21
-23.6533994616
 31
0.0
 11
-3.5456489129
 21
-23.6807589903
 31
0.0
 11
-3.5267456023
 21
-23.7048897846
 31
0.0
 11
-3.5123203782
 21
-23.7251126644
 31
0.0
 11
-3.503170564
 21
-23.7407306846
 31
0.0
 11
-3.5
 21
-23.7511422903
 31
0.0
  0
SPLINE
  5
7FC
100
AcDbEntity
  8
ASSI
100
AcDbSpline
 62
7
  6
CONTINUOUS
 70
0
 71
3
 72
10
 73
6
 74
4
 42
0.0000001
 43
0.0000001
 44
0.0000000001
 12
0.0018254953
 22
0.0472932717
 32
0.0
 13
0.0280771115
 23
0.0381006797
 33
0.0
 40
0.0
 40
0.0
 40
0.0
 40
0.0
 40
0.1456809477
 40
0.3619050252
 40
1.0
 40
1.0
 40
1.0
 40
1.0
 10
-4.3559327327
 20
-23.7507734247
 30
0.0
 10
-4.3558440861
 20
-23.7484768485
 30
0.0
 10
-4.354020573
 20
-23.7429241477
 30
0.0
 10
-4.3467310809
 20
-23.7289807843
 30
0.0
 10
-4.3388532473
 20
-23.7179398669
 30
0.0
 10
-4.3328812927
 20
-23.7098359161
 30
0.0
 11
-4.3559327327
 21
-23.7507734247
 31
0.0
 11
-4.3542440207
 21
-23.744088566
 31
0.0
 11
-4.3497005931
 21
-23.7349188878
 31
0.0
 11
-4.3328812927
 21
-23.7098359161
 31
0.0
  0
SPLINE
  5
7FD
100
AcDbEntity
  8
ASSI
100
AcDbSpline
 62
7
  6
CONTINUOUS
 70
0
 71
3
 72
12
 73
8
 74
6
 42
0.0000001
 43
0.0000001
 44
0.0000000001
 12
0.3607481696
 22
0.4895357727
 32
0.0
 13
0.4129657669
 23
0.4463673263
 33
0.0
 40
0.0
 40
0.0
 40
0.0
 40
0.0
 40
0.0845788223
 40
0.1892265324
 40
0.4368995548
 40
0.7127161813
 40
1.0
 40
1.0
 40
1.0
 40
1.0
 10
-4.3328812927
 20
-23.7098359161
 30
0.0
 10
-4.322710741
 20
-23.6960344631
 30
0.0
 10
-4.2986731456
 20
-23.6661149395
 30
0.0
 10
-4.2411828969
 20
-23.5987557263
 30
0.0
 10
-4.1561006325
 20
-23.5040105778
 30
0.0
 10
-4.045038908
 20
-23.3828790321
 30
0.0
 10
-3.9675161152
 20
-23.299102518
 30
0.0
 10
-3.9279699877
 20
-23.2563578147
 30
0.0
 11
-4.3328812927
 21
-23.7098359161
 31
0.0
 11
-4.3010502723
 21
-23.6694370522
 31
0.0
 11
-4.259883022
 21
-23.6209105576
 31
0.0
 11
-4.1597333596
 21
-23.508423494
 31
0.0
 11
-4.046516641
 21
-23.3846767289
 31
0.0
 11
-3.9279699877
 21
-23.2563578147
 31
0.0
  0
SPLINE
  5
7FE
100
AcDbEntity
  8
ASSI
100
AcDbSpline
 62
7
  6
CONTINUOUS
 70
0
 71
3
 72
10
 73
6
 74
4
 42
0.0000001
 43
0.0000001
 44
0.0000000001
 12
-0.0018318679
 22
-0.0474583681
 32
0.0
 13
-0.028187081
 23
-0.0382248729
 33
0.0
 40
0.0
 40
0.0
 40
0.0
 40
0.0
 40
0.1455807527
 40
0.361787674
 40
1.0
 40
1.0
 40
1.0
 40
1.0
 10
4.3559327327
 20
23.7507734247
 30
0.0
 10
4.3558438378
 20
23.7484704164
 30
0.0
 10
4.3540112776
 20
23.7429007921
 30
0.0
 10
4.3466899436
 20
23.7289125855
 30
0.0
 10
4.3387795818
 20
23.71783462
 30
0.0
 10
4.3327831343
 20
23.7097027583
 30
0.0
 11
4.3559327327
 21
23.7507734247
 31
0.0
 11
4.3542368594
 21
23.7440704582
 31
0.0
 11
4.3496736213
 21
23.7348716372
 31
0.0
 11
4.3327831343
 21
23.7097027583
 31
0.0
  0
SPLINE
  5
7FF
100
AcDbEntity
  8
ASSI
100
AcDbSpline
 62
7
  6
CONTINUOUS
 70
0
 71
3
 72
12
 73
8
 74
6
 42
0.0000001
 43
0.0000001
 44
0.0000000001
 12
-0.3608030946
 22
-0.489289842
 32
0.0
 13
-0.4128534644
 23
-0.4462459405
 33
0.0
 40
0.0
 40
0.0
 40
0.0
 40
0.0
 40
0.0846456713
 40
0.1893243912
 40
0.4369961344
 40
0.7127717656
 40
1.0
 40
1.0
 40
1.0
 40
1.0
 10
4.3327831343
 20
23.7097027583
 30
0.0
 10
4.3226029943
 20
23.6958973359
 30
0.0
 10
4.298555572
 20
23.6659738652
 30
0.0
 10
4.2410637222
 20
23.5986218787
 30
0.0
 10
4.156004855
 20
23.503905459
 30
0.0
 10
4.04498609
 20
23.3828220186
 30
0.0
 10
3.9674977116
 20
23.2990826259
 30
0.0
 10
3.9279699877
 20
23.2563578147
 30
0.0
 11
4.3327831343
 21
23.7097027583
 31
0.0
 11
4.3009281286
 21
23.6692888614
 31
0.0
 11
4.2597561952
 21
23.6207643118
 31
0.0
 11
4.1596314031
 21
23.5083109846
 31
0.0
 11
4.046461561
 21
23.3846169316
 31
0.0
 11
3.9279699877
 21
23.2563578147
 31
0.0
  0
SPLINE
  5
800
100
AcDbEntity
  8
ASSI
100
AcDbSpline
 62
7
  6
CONTINUOUS
 70
0
 71
3
 72
18
 73
14
 74
12
 42
0.0000001
 43
0.0000001
 44
0.0000000001
 12
-0.4453343146
 22
0.4813539116
 32
0.0
 13
0.0
 23
0.655762335
 33
0.0
 40
0.0
 40
0.0
 40
0.0
 40
0.0
 40
0.1617624672
 40
0.321320975
 40
0.476134663
 40
0.622893171
 40
0.7568948923
 40
0.817050538
 40
0.8711746843
 40
0.9179196041
 40
0.9558002605
 40
0.9834031153
 40
1.0
 40
1.0
 40
1.0
 40
1.0
 10
3.9279699877
 20
23.2563578147
 30
0.0
 10
3.9039571952
 20
23.2823128135
 30
0.0
 10
3.856258503
 20
23.3338689767
 30
0.0
 10
3.7856973482
 20
23.4103748456
 30
0.0
 10
3.7176128695
 20
23.4847037025
 30
0.0
 10
3.6537424953
 20
23.555312432
 30
0.0
 10
3.6043389735
 20
23.6111112393
 30
0.0
 10
3.5690347898
 20
23.6523249461
 30
0.0
 10
3.5465508265
 20
23.6794255646
 30
0.0
 10
3.5277918146
 20
23.7032131486
 30
0.0
 10
3.5132806364
 20
23.7231353468
 30
0.0
 10
3.5040485134
 20
23.7382784116
 30
0.0
 10
3.5
 20
23.7475144197
 30
0.0
 10
3.5
 20
23.7511422903
 30
0.0
 11
3.9279699877
 21
23.2563578147
 31
0.0
 11
3.8559516799
 21
23.334241374
 31
0.0
 11
3.7850386443
 21
23.4111783158
 31
0.0
 11
3.7165039624
 21
23.4860749638
 31
0.0
 11
3.6520039178
 21
23.5575006733
 31
0.0
 11
3.5938891863
 21
23.6234126723
 31
0.0
 11
3.5682583246
 21
23.6533991423
 31
0.0
 11
3.5456491212
 21
23.6807587277
 31
0.0
 11
3.5267457044
 21
23.7048896505
 31
0.0
 11
3.5123203734
 21
23.7251126717
 31
0.0
 11
3.5031705425
 21
23.7407307262
 31
0.0
 11
3.5
 21
23.7511422903
 31
0.0
  0
SPLINE
  5
801
100
AcDbEntity
  8
ASSI
100
AcDbSpline
 62
7
  6
CONTINUOUS
 70
0
 71
3
 72
9
 73
5
 74
3
 42
0.0000001
 43
0.0000001
 44
0.0000000001
 12
0.0
 22
-0.0062844343
 32
0.0
 13
-0.0021594435
 23
-0.0059017725
 33
0.0
 40
0.0
 40
0.0
 40
0.0
 40
0.0
 40
0.2092634154
 40
1.0
 40
1.0
 40
1.0
 40
1.0
 10
-3.5
 20
23.7511422903
 30
0.0
 10
-3.5
 20
23.7507039229
 30
0.0
 10
-3.500154133
 20
23.7486090257
 30
0.0
 10
-3.5007712102
 20
23.7465774194
 30
0.0
 10
-3.5013403939
 20
23.7450218369
 30
0.0
 11
-3.5
 21
23.7511422903
 31
0.0
 11
-3.5000847817
 21
23.7498299238
 31
0.0
 11
-3.5013403939
 21
23.7450218369
 31
0.0
  0
SPLINE
  5
802
100
AcDbEntity
  8
ASSI
100
AcDbSpline
 62
7
  6
CONTINUOUS
 70
0
 71
3
 72
9
 73
5
 74
3
 42
0.0000001
 43
0.0000001
 44
0.0000000001
 12
-0.0139477403
 22
-0.0381192616
 32
0.0
 13
-0.024027729
 23
-0.0327152228
 33
0.0
 40
0.0
 40
0.0
 40
0.0
 40
0.0
 40
0.4059154245
 40
1.0
 40
1.0
 40
1.0
 40
1.0
 10
-3.5013403939
 20
23.7450218369
 30
0.0
 10
-3.5032275948
 20
23.7398641048
 30
0.0
 10
-3.5100759589
 20
23.7280546654
 30
0.0
 10
-3.5178065355
 20
23.7169859098
 30
0.0
 10
-3.5225647032
 20
23.7105073734
 30
0.0
 11
-3.5013403939
 21
23.7450218369
 31
0.0
 11
-3.5089326679
 21
23.7303988781
 31
0.0
 11
-3.5225647032
 21
23.7105073734
 31
0.0
  0
SPLINE
  5
803
100
AcDbEntity
  8
ASSI
100
AcDbSpline
 62
7
  6
CONTINUOUS
 70
0
 71
3
 72
12
 73
8
 74
6
 42
0.0000001
 43
0.0000001
 44
0.0000000001
 12
-0.3604571019
 22
-0.4907843932
 32
0.0
 13
-0.4135316553
 23
-0.4469789849
 33
0.0
 40
0.0
 40
0.0
 40
0.0
 40
0.0
 40
0.0842423689
 40
0.1887323742
 40
0.4364095735
 40
0.7124356034
 40
1.0
 40
1.0
 40
1.0
 40
1.0
 10
-3.5225647032
 20
23.7105073734
 30
0.0
 10
-3.5326866233
 20
23.6967257601
 30
0.0
 10
-3.5566743436
 20
23.6668263027
 30
0.0
 10
-3.6141557683
 20
23.5994311551
 30
0.0
 10
-3.6993557993
 20
23.5045413227
 30
0.0
 10
-3.8106342188
 20
23.3831670765
 30
0.0
 10
-3.888330994
 20
23.2992028954
 30
0.0
 10
-3.9279699877
 20
23.2563578147
 30
0.0
 11
-3.5225647032
 21
23.7105073734
 31
0.0
 11
-3.5542744316
 21
23.6701840761
 31
0.0
 11
-3.5954172579
 21
23.621648448
 31
0.0
 11
-3.6956911999
 21
23.5089923045
 31
0.0
 11
-3.8091453998
 21
23.3849784745
 31
0.0
 11
-3.9279699877
 21
23.2563578147
 31
0.0
  0
SPLINE
  5
804
100
AcDbEntity
  8
ASSI
100
AcDbSpline
 62
7
  6
CONTINUOUS
 70
0
 71
3
 72
18
 73
14
 74
12
 42
0.0000001
 43
0.0000001
 44
0.0000000001
 12
-0.4450900102
 22
0.4810898474
 32
0.0
 13
-0.0252793681
 23
0.6549148892
 33
0.0
 40
0.0
 40
0.0
 40
0.0
 40
0.0
 40
0.1613750589
 40
0.3205647237
 40
0.4750519744
 40
0.6215620364
 40
0.7554513475
 40
0.8156296485
 40
0.8698492604
 40
0.9167798175
 40
0.9549510616
 40
0.9829509295
 40
1.0
 40
1.0
 40
1.0
 40
1.0
 10
-3.9279699877
 20
23.2563578147
 30
0.0
 10
-3.9519121299
 20
23.2822364489
 30
0.0
 10
-3.9994724488
 20
23.3336430557
 30
0.0
 10
-4.0698352505
 20
23.4099324377
 30
0.0
 10
-4.1377454105
 20
23.4840663123
 30
0.0
 10
-4.2014857804
 20
23.5545199433
 30
0.0
 10
-4.250822766
 20
23.6102236938
 30
0.0
 10
-4.2861249829
 20
23.6514024361
 30
0.0
 10
-4.3086551968
 20
23.6785233537
 30
0.0
 10
-4.327510694
 20
23.7023792982
 30
0.0
 10
-4.3421580647
 20
23.7224037637
 30
0.0
 10
-4.3515989954
 20
23.7377330352
 30
0.0
 10
-4.3557890695
 20
23.747051528
 30
0.0
 10
-4.3559327327
 20
23.7507734247
 30
0.0
 11
-3.9279699877
 21
23.2563578147
 31
0.0
 11
-3.9997765229
 21
23.3340121154
 31
0.0
 11
-4.070487707
 21
23.4107282799
 31
0.0
 11
-4.1388430809
 21
23.4854235117
 31
0.0
 11
-4.2032050442
 21
23.5566833778
 31
0.0
 11
-4.2612532124
 21
23.6224915738
 31
0.0
 11
-4.286892158
 21
23.6524621942
 31
0.0
 11
-4.3095477018
 21
23.6798393833
 31
0.0
 11
-4.3285452308
 21
23.7040297451
 31
0.0
 11
-4.3431216682
 21
23.7243620936
 31
0.0
 11
-4.3524857022
 21
23.7401443905
 31
0.0
 11
-4.3559327327
 21
23.7507734247
 31
0.0
  0
SPLINE
  5
805
100
AcDbEntity
  8
ASSI
100
AcDbSpline
 62
7
  6
CONTINUOUS
 70
0
 71
3
 72
15
 73
11
 74
9
 42
0.0000001
 43
0.0000001
 44
0.0000000001
 12
0.376047712
 22
0.4534869753
 32
0.0
 13
0.0102755652
 23
0.5890303313
 33
0.0
 40
0.0
 40
0.0
 40
0.0
 40
0.0
 40
0.3056919473
 40
0.4536967285
 40
0.5951470986
 40
0.7264362331
 40
0.8424211159
 40
0.935996767
 40
0.9719669498
 40
1.0
 40
1.0
 40
1.0
 40
1.0
 10
-6.9
 20
-20.5829242832
 30
0.0
 10
-6.8616817476
 20
-20.5367151777
 30
0.0
 10
-6.8047944742
 20
-20.4681466352
 30
0.0
 10
-6.7311382389
 20
-20.3774023621
 30
0.0
 10
-6.6799011827
 20
-20.3125880211
 30
0.0
 10
-6.6338308838
 20
-20.2516860945
 30
0.0
 10
-6.5956093158
 20
-20.1967757155
 30
0.0
 10
-6.5707443911
 20
-20.1552282517
 30
0.0
 10
-6.5589853804
 20
-20.1265764532
 30
0.0
 10
-6.5562856898
 20
-20.1141101455
 30
0.0
 10
-6.5561896713
 20
-20.1086060399
 30
0.0
 11
-6.9
 21
-20.5829242832
 31
0.0
 11
-6.7853573357
 21
-20.4440387597
 31
0.0
 11
-6.7304772168
 21
-20.3762839313
 31
0.0
 11
-6.6789029721
 21
-20.3108301915
 31
0.0
 11
-6.6324618419
 21
-20.248979743
 31
0.0
 11
-6.5937939628
 21
-20.1926445981
 31
0.0
 11
-6.5667118387
 21
-20.1446281852
 31
0.0
 11
-6.5590489268
 21
-20.1248714707
 31
0.0
 11
-6.5561896713
 21
-20.1086060399
 31
0.0
  0
SPLINE
  5
806
100
AcDbEntity
  8
ASSI
100
AcDbSpline
 62
7
  6
CONTINUOUS
 70
0
 71
3
 72
15
 73
11
 74
9
 42
0.0000001
 43
0.0000001
 44
0.0000000001
 12
0.0102755652
 22
-0.5890303313
 32
0.0
 13
0.376047712
 23
-0.4534869753
 33
0.0
 40
0.0
 40
0.0
 40
0.0
 40
0.0
 40
0.0280330502
 40
0.064003233
 40
0.1575788841
 40
0.2735637669
 40
0.4048529014
 40
0.5463032715
 40
0.6943080527
 40
1.0
 40
1.0
 40
1.0
 40
1.0
 10
6.5561896713
 20
-20.1086060399
 30
0.0
 10
6.5562856898
 20
-20.1141101455
 30
0.0
 10
6.5589853804
 20
-20.1265764532
 30
0.0
 10
6.5707443911
 20
-20.1552282517
 30
0.0
 10
6.5956093158
 20
-20.1967757155
 30
0.0
 10
6.6338308838
 20
-20.2516860945
 30
0.0
 10
6.6799011827
 20
-20.3125880211
 30
0.0
 10
6.7311382389
 20
-20.3774023621
 30
0.0
 10
6.8047944742
 20
-20.4681466352
 30
0.0
 10
6.8616817476
 20
-20.5367151777
 30
0.0
 10
6.9
 20
-20.5829242832
 30
0.0
 11
6.5561896713
 21
-20.1086060399
 31
0.0
 11
6.5590489268
 21
-20.1248714707
 31
0.0
 11
6.5667118387
 21
-20.1446281852
 31
0.0
 11
6.5937939628
 21
-20.1926445981
 31
0.0
 11
6.6324618419
 21
-20.248979743
 31
0.0
 11
6.6789029721
 21
-20.3108301915
 31
0.0
 11
6.7304772168
 21
-20.3762839313
 31
0.0
 11
6.7853573357
 21
-20.4440387597
 31
0.0
 11
6.9
 21
-20.5829242832
 31
0.0
  0
SPLINE
  5
807
100
AcDbEntity
  8
ASSI
100
AcDbSpline
 62
7
  6
CONTINUOUS
 70
0
 71
3
 72
15
 73
11
 74
9
 42
0.0000001
 43
0.0000001
 44
0.0000000001
 12
-0.376047712
 22
-0.4534869753
 32
0.0
 13
-0.0102755652
 23
-0.5890303313
 33
0.0
 40
0.0
 40
0.0
 40
0.0
 40
0.0
 40
0.3056919473
 40
0.4536967285
 40
0.5951470986
 40
0.7264362331
 40
0.8424211159
 40
0.935996767
 40
0.9719669498
 40
1.0
 40
1.0
 40
1.0
 40
1.0
 10
6.9
 20
20.5829242832
 30
0.0
 10
6.8616817476
 20
20.5367151777
 30
0.0
 10
6.8047944742
 20
20.4681466352
 30
0.0
 10
6.7311382389
 20
20.3774023621
 30
0.0
 10
6.6799011827
 20
20.3125880211
 30
0.0
 10
6.6338308838
 20
20.2516860945
 30
0.0
 10
6.5956093158
 20
20.1967757155
 30
0.0
 10
6.5707443911
 20
20.1552282517
 30
0.0
 10
6.5589853804
 20
20.1265764532
 30
0.0
 10
6.5562856898
 20
20.1141101455
 30
0.0
 10
6.5561896713
 20
20.1086060399
 30
0.0
 11
6.9
 21
20.5829242832
 31
0.0
 11
6.7853573357
 21
20.4440387597
 31
0.0
 11
6.7304772168
 21
20.3762839313
 31
0.0
 11
6.6789029721
 21
20.3108301915
 31
0.0
 11
6.6324618419
 21
20.248979743
 31
0.0
 11
6.5937939628
 21
20.1926445981
 31
0.0
 11
6.5667118387
 21
20.1446281852
 31
0.0
 11
6.5590489268
 21
20.1248714707
 31
0.0
 11
6.5561896713
 21
20.1086060399
 31
0.0
  0
SPLINE
  5
808
100
AcDbEntity
  8
ASSI
100
AcDbSpline
 62
7
  6
CONTINUOUS
 70
0
 71
3
 72
15
 73
11
 74
9
 42
0.0000001
 43
0.0000001
 44
0.0000000001
 12
-0.0102755652
 22
0.5890303313
 32
0.0
 13
-0.376047712
 23
0.4534869753
 33
0.0
 40
0.0
 40
0.0
 40
0.0
 40
0.0
 40
0.0280330502
 40
0.064003233
 40
0.1575788841
 40
0.2735637669
 40
0.4048529014
 40
0.5463032715
 40
0.6943080527
 40
1.0
 40
1.0
 40
1.0
 40
1.0
 10
-6.5561896713
 20
20.1086060399
 30
0.0
 10
-6.5562856898
 20
20.1141101455
 30
0.0
 10
-6.5589853804
 20
20.1265764532
 30
0.0
 10
-6.5707443911
 20
20.1552282517
 30
0.0
 10
-6.5956093158
 20
20.1967757155
 30
0.0
 10
-6.6338308838
 20
20.2516860945
 30
0.0
 10
-6.6799011827
 20
20.3125880211
 30
0.0
 10
-6.7311382389
 20
20.3774023621
 30
0.0
 10
-6.8047944742
 20
20.4681466352
 30
0.0
 10
-6.8616817476
 20
20.5367151777
 30
0.0
 10
-6.9
 20
20.5829242832
 30
0.0
 11
-6.5561896713
 21
20.1086060399
 31
0.0
 11
-6.5590489268
 21
20.1248714707
 31
0.0
 11
-6.5667118387
 21
20.1446281852
 31
0.0
 11
-6.5937939628
 21
20.1926445981
 31
0.0
 11
-6.6324618419
 21
20.248979743
 31
0.0
 11
-6.6789029721
 21
20.3108301915
 31
0.0
 11
-6.7304772168
 21
20.3762839313
 31
0.0
 11
-6.7853573357
 21
20.4440387597
 31
0.0
 11
-6.9
 21
20.5829242832
 31
0.0
  0
SPLINE
  5
809
100
AcDbEntity
  8
ASSI
100
AcDbSpline
 62
7
  6
CONTINUOUS
 70
0
 71
3
 72
17
 73
13
 74
11
 42
0.0000001
 43
0.0000001
 44
0.0000000001
 12
0.4544570383
 22
-0.0197758553
 32
0.0
 13
0.3324189965
 23
-0.3105155308
 33
0.0
 40
0.0
 40
0.0
 40
0.0
 40
0.0
 40
0.0159354652
 40
0.0431496221
 40
0.0807937394
 40
0.127408726
 40
0.2416392681
 40
0.3757795072
 40
0.5227902854
 40
0.6779258159
 40
0.8378534505
 40
1.0
 40
1.0
 40
1.0
 40
1.0
 10
-7.240783943
 20
-19.7564431031
 30
0.0
 10
-7.2383699483
 20
-19.756548149
 30
0.0
 10
-7.2322565519
 20
-19.7595813238
 30
0.0
 10
-7.2220750764
 20
-19.7661170569
 30
0.0
 10
-7.2085385389
 20
-19.7763751008
 30
0.0
 10
-7.185192848
 20
-19.7953161054
 30
0.0
 10
-7.1513956039
 20
-19.824662183
 30
0.0
 10
-7.1067947801
 20
-19.8647095518
 30
0.0
 10
-7.058010013
 20
-19.9093961026
 30
0.0
 10
-7.0065996336
 20
-19.9569964707
 30
0.0
 10
-6.9536546433
 20
-20.0063186832
 30
0.0
 10
-6.9179668644
 20
-20.0396550189
 30
0.0
 10
-6.9
 20
-20.0564380262
 30
0.0
 11
-7.240783943
 21
-19.7564431031
 31
0.0
 11
-7.2339466716
 21
-19.7588508755
 31
0.0
 11
-7.223441797
 21
-19.7654004093
 31
0.0
 11
-7.2096920832
 21
-19.7756068146
 31
0.0
 11
-7.1931866904
 21
-19.7889186601
 31
0.0
 11
-7.153769589
 21
-19.8227763284
 31
0.0
 11
-7.1083097601
 21
-19.8634786814
 31
0.0
 11
-7.0589584289
 21
-19.9086061172
 31
0.0
 11
-7.0071567176
 21
-19.9565288479
 31
0.0
 11
-6.9539120166
 21
-20.0061012362
 31
0.0
 11
-6.9
 21
-20.0564380262
 31
0.0
  0
SPLINE
  5
80A
100
AcDbEntity
  8
ASSI
100
AcDbSpline
 62
7
  6
CONTINUOUS
 70
0
 71
3
 72
17
 73
13
 74
11
 42
0.0000001
 43
0.0000001
 44
0.0000000001
 12
0.3324190091
 22
0.3105155426
 32
0.0
 13
0.4544570555
 23
0.019775856
 33
0.0
 40
0.0
 40
0.0
 40
0.0
 40
0.0
 40
0.1621241217
 40
0.3220399549
 40
0.4771715718
 40
0.6241873822
 40
0.7583427437
 40
0.8725898857
 40
0.919209807
 40
0.9568551845
 40
0.9840679998
 40
1.0
 40
1.0
 40
1.0
 40
1.0
 10
-6.9
 20
-20.0564380262
 30
0.0
 10
-6.88203562
 20
-20.0396573397
 30
0.0
 10
-6.8463516312
 20
-20.006324547
 30
0.0
 10
-6.7934108868
 20
-19.9570062579
 30
0.0
 10
-6.7420017785
 20
-19.9094068968
 30
0.0
 10
-6.6932151911
 20
-19.8647186846
 30
0.0
 10
-6.648610351
 20
-19.8246674441
 30
0.0
 10
-6.6148090756
 20
-19.7953175293
 30
0.0
 10
-6.591460651
 20
-19.7763743909
 30
0.0
 10
-6.5779234167
 20
-19.7661160809
 30
0.0
 10
-6.5677423587
 20
-19.7595805819
 30
0.0
 10
-6.5616295269
 20
-19.7565481261
 30
0.0
 10
-6.559216057
 20
-19.7564431031
 30
0.0
 11
-6.9
 21
-20.0564380262
 31
0.0
 11
-6.8460954404
 21
-20.0061081946
 31
0.0
 11
-6.7928546927
 21
-19.9565394342
 31
0.0
 11
-6.7410543468
 21
-19.9086178452
 31
0.0
 11
-6.6917013654
 21
-19.8634888181
 31
0.0
 11
-6.6462365442
 21
-19.822781725
 31
0.0
 11
-6.6068138287
 21
-19.7889190008
 31
0.0
 11
-6.5903066406
 21
-19.7756058045
 31
0.0
 11
-6.5765563763
 21
-19.7653991777
 31
0.0
 11
-6.5660519238
 21
-19.7588501197
 31
0.0
 11
-6.559216057
 21
-19.7564431031
 31
0.0
  0
SPLINE
  5
80B
100
AcDbEntity
  8
ASSI
100
AcDbSpline
 62
7
  6
CONTINUOUS
 70
0
 71
3
 72
9
 73
5
 74
3
 42
0.0000001
 43
0.0000001
 44
0.0000000001
 12
-0.3127521427
 22
0.4422983219
 32
0.0
 13
-0.2926749832
 23
0.4558322746
 33
0.0
 40
0.0
 40
0.0
 40
0.0
 40
0.0
 40
0.5096581785
 40
1.0
 40
1.0
 40
1.0
 40
1.0
 10
-7.5841007192
 20
21.3126932437
 30
0.0
 10
-7.6372329483
 20
21.3878335627
 30
0.0
 10
-7.7414792083
 20
21.5352598413
 30
0.0
 10
-7.8430465455
 20
21.6846119837
 30
0.0
 10
-7.8908834737
 20
21.7591165263
 30
0.0
 11
-7.5841007192
 21
21.3126932437
 31
0.0
 11
-7.7427970122
 21
21.5386078259
 31
0.0
 11
-7.8908834737
 21
21.7591165263
 31
0.0
  0
SPLINE
  5
80C
100
AcDbEntity
  8
ASSI
100
AcDbSpline
 62
7
  6
CONTINUOUS
 70
0
 71
3
 72
9
 73
5
 74
3
 42
0.0000001
 43
0.0000001
 44
0.0000000001
 12
-0.2926749832
 22
-0.4558322746
 32
0.0
 13
-0.3127521427
 23
-0.4422983219
 33
0.0
 40
0.0
 40
0.0
 40
0.0
 40
0.0
 40
0.4903418215
 40
1.0
 40
1.0
 40
1.0
 40
1.0
 10
7.8908834737
 20
21.7591165263
 30
0.0
 10
7.8430465455
 20
21.6846119837
 30
0.0
 10
7.7414792083
 20
21.5352598413
 30
0.0
 10
7.6372329483
 20
21.3878335627
 30
0.0
 10
7.5841007192
 20
21.3126932437
 30
0.0
 11
7.8908834737
 21
21.7591165263
 31
0.0
 11
7.7427970122
 21
21.5386078259
 31
0.0
 11
7.5841007192
 21
21.3126932437
 31
0.0
  0
SPLINE
  5
80D
100
AcDbEntity
  8
ASSI
100
AcDbSpline
 62
7
  6
CONTINUOUS
 70
0
 71
3
 72
9
 73
5
 74
3
 42
0.0000001
 43
0.0000001
 44
0.0000000001
 12
0.2926749832
 22
0.4558322746
 32
0.0
 13
0.3127521427
 23
0.4422983219
 33
0.0
 40
0.0
 40
0.0
 40
0.0
 40
0.0
 40
0.4903418215
 40
1.0
 40
1.0
 40
1.0
 40
1.0
 10
-7.8908834737
 20
-21.7591165263
 30
0.0
 10
-7.8430465455
 20
-21.6846119837
 30
0.0
 10
-7.7414792083
 20
-21.5352598413
 30
0.0
 10
-7.6372329483
 20
-21.3878335627
 30
0.0
 10
-7.5841007192
 20
-21.3126932437
 30
0.0
 11
-7.8908834737
 21
-21.7591165263
 31
0.0
 11
-7.7427970122
 21
-21.5386078259
 31
0.0
 11
-7.5841007192
 21
-21.3126932437
 31
0.0
  0
SPLINE
  5
80E
100
AcDbEntity
  8
ASSI
100
AcDbSpline
 62
7
  6
CONTINUOUS
 70
0
 71
3
 72
9
 73
5
 74
3
 42
0.0000001
 43
0.0000001
 44
0.0000000001
 12
0.3127521427
 22
-0.4422983219
 32
0.0
 13
0.2926749832
 23
-0.4558322746
 33
0.0
 40
0.0
 40
0.0
 40
0.0
 40
0.0
 40
0.5096581785
 40
1.0
 40
1.0
 40
1.0
 40
1.0
 10
7.5841007192
 20
-21.3126932437
 30
0.0
 10
7.6372329483
 20
-21.3878335627
 30
0.0
 10
7.7414792083
 20
-21.5352598413
 30
0.0
 10
7.8430465455
 20
-21.6846119837
 30
0.0
 10
7.8908834737
 20
-21.7591165263
 30
0.0
 11
7.5841007192
 21
-21.3126932437
 31
0.0
 11
7.7427970122
 21
-21.5386078259
 31
0.0
 11
7.8908834737
 21
-21.7591165263
 31
0.0
  0
SPLINE
  5
80F
100
AcDbEntity
  8
ASSI
100
AcDbSpline
 62
7
  6
CONTINUOUS
 70
0
 71
3
 72
17
 73
13
 74
11
 42
0.0000001
 43
0.0000001
 44
0.0000000001
 12
0.4544570555
 22
-0.019775856
 32
0.0
 13
0.3324190091
 23
-0.3105155426
 33
0.0
 40
0.0
 40
0.0
 40
0.0
 40
0.0
 40
0.0159320002
 40
0.0431448155
 40
0.080790193
 40
0.1274101143
 40
0.2416572563
 40
0.3758126178
 40
0.5228284282
 40
0.6779600451
 40
0.8378758783
 40
1.0
 40
1.0
 40
1.0
 40
1.0
 10
6.559216057
 20
-19.7564431031
 30
0.0
 10
6.5616295269
 20
-19.7565481261
 30
0.0
 10
6.5677423587
 20
-19.7595805819
 30
0.0
 10
6.5779234167
 20
-19.7661160809
 30
0.0
 10
6.591460651
 20
-19.7763743909
 30
0.0
 10
6.6148090756
 20
-19.7953175293
 30
0.0
 10
6.648610351
 20
-19.8246674441
 30
0.0
 10
6.6932151911
 20
-19.8647186846
 30
0.0
 10
6.7420017785
 20
-19.9094068968
 30
0.0
 10
6.7934108868
 20
-19.9570062579
 30
0.0
 10
6.8463516312
 20
-20.006324547
 30
0.0
 10
6.88203562
 20
-20.0396573397
 30
0.0
 10
6.9
 20
-20.0564380262
 30
0.0
 11
6.559216057
 21
-19.7564431031
 31
0.0
 11
6.5660519238
 21
-19.7588501197
 31
0.0
 11
6.5765563763
 21
-19.7653991777
 31
0.0
 11
6.5903066406
 21
-19.7756058045
 31
0.0
 11
6.6068138287
 21
-19.7889190008
 31
0.0
 11
6.6462365442
 21
-19.822781725
 31
0.0
 11
6.6917013654
 21
-19.8634888181
 31
0.0
 11
6.7410543468
 21
-19.9086178452
 31
0.0
 11
6.7928546927
 21
-19.9565394342
 31
0.0
 11
6.8460954404
 21
-20.0061081946
 31
0.0
 11
6.9
 21
-20.0564380262
 31
0.0
  0
SPLINE
  5
810
100
AcDbEntity
  8
ASSI
100
AcDbSpline
 62
7
  6
CONTINUOUS
 70
0
 71
3
 72
17
 73
13
 74
11
 42
0.0000001
 43
0.0000001
 44
0.0000000001
 12
0.3324189968
 22
0.3105155311
 32
0.0
 13
0.4544570388
 23
0.0197758553
 33
0.0
 40
0.0
 40
0.0
 40
0.0
 40
0.0
 40
0.1621464833
 40
0.3220740739
 40
0.4772096405
 40
0.6242204646
 40
0.7583607594
 40
0.8725913646
 40
0.9192063579
 40
0.956850458
 40
0.9840645712
 40
1.0
 40
1.0
 40
1.0
 40
1.0
 10
6.9
 20
-20.0564380262
 30
0.0
 10
6.9179668571
 20
-20.0396550257
 30
0.0
 10
6.9536546238
 20
-20.0063187013
 30
0.0
 10
7.006599606
 20
-19.9569964965
 30
0.0
 10
7.0580099895
 20
-19.9093961243
 30
0.0
 10
7.1067947718
 20
-19.8647095591
 30
0.0
 10
7.1513956141
 20
-19.8246621733
 30
0.0
 10
7.1851928733
 20
-19.7953160844
 30
0.0
 10
7.2085385708
 20
-19.7763750747
 30
0.0
 10
7.222075104
 20
-19.7661170396
 30
0.0
 10
7.2322565666
 20
-19.7595813115
 30
0.0
 10
7.2383699538
 20
-19.7565481487
 30
0.0
 10
7.240783943
 20
-19.7564431031
 30
0.0
 11
6.9
 21
-20.0564380262
 31
0.0
 11
6.9539119946
 21
-20.0061012567
 31
0.0
 11
7.007156681
 21
-19.9565288819
 31
0.0
 11
7.0589584042
 21
-19.9086061399
 31
0.0
 11
7.1083097507
 21
-19.8634786897
 31
0.0
 11
7.1537695986
 21
-19.8227763199
 31
0.0
 11
7.1931867225
 21
-19.7889186337
 31
0.0
 11
7.2096921184
 21
-19.7756067872
 31
0.0
 11
7.2234418274
 21
-19.7654003884
 31
0.0
 11
7.2339466859
 21
-19.7588508664
 31
0.0
 11
7.240783943
 21
-19.7564431031
 31
0.0
  0
SPLINE
  5
811
100
AcDbEntity
  8
ASSI
100
AcDbSpline
 62
7
  6
CONTINUOUS
 70
0
 71
3
 72
17
 73
13
 74
11
 42
0.0000001
 43
0.0000001
 44
0.0000000001
 12
-0.4544570383
 22
0.0197758553
 32
0.0
 13
-0.3324189965
 23
0.3105155308
 33
0.0
 40
0.0
 40
0.0
 40
0.0
 40
0.0
 40
0.0159354652
 40
0.0431496221
 40
0.0807937394
 40
0.127408726
 40
0.2416392681
 40
0.3757795072
 40
0.5227902854
 40
0.6779258159
 40
0.8378534505
 40
1.0
 40
1.0
 40
1.0
 40
1.0
 10
7.240783943
 20
19.7564431031
 30
0.0
 10
7.2383699483
 20
19.756548149
 30
0.0
 10
7.2322565519
 20
19.7595813238
 30
0.0
 10
7.2220750764
 20
19.7661170569
 30
0.0
 10
7.2085385389
 20
19.7763751008
 30
0.0
 10
7.185192848
 20
19.7953161054
 30
0.0
 10
7.1513956039
 20
19.824662183
 30
0.0
 10
7.1067947801
 20
19.8647095518
 30
0.0
 10
7.058010013
 20
19.9093961026
 30
0.0
 10
7.0065996336
 20
19.9569964707
 30
0.0
 10
6.9536546433
 20
20.0063186832
 30
0.0
 10
6.9179668644
 20
20.0396550189
 30
0.0
 10
6.9
 20
20.0564380262
 30
0.0
 11
7.240783943
 21
19.7564431031
 31
0.0
 11
7.2339466716
 21
19.7588508755
 31
0.0
 11
7.223441797
 21
19.7654004093
 31
0.0
 11
7.2096920832
 21
19.7756068146
 31
0.0
 11
7.1931866904
 21
19.7889186601
 31
0.0
 11
7.153769589
 21
19.8227763284
 31
0.0
 11
7.1083097601
 21
19.8634786814
 31
0.0
 11
7.0589584289
 21
19.9086061172
 31
0.0
 11
7.0071567176
 21
19.9565288479
 31
0.0
 11
6.9539120166
 21
20.0061012362
 31
0.0
 11
6.9
 21
20.0564380262
 31
0.0
  0
SPLINE
  5
812
100
AcDbEntity
  8
ASSI
100
AcDbSpline
 62
7
  6
CONTINUOUS
 70
0
 71
3
 72
17
 73
13
 74
11
 42
0.0000001
 43
0.0000001
 44
0.0000000001
 12
-0.3324190091
 22
-0.3105155426
 32
0.0
 13
-0.4544570555
 23
-0.019775856
 33
0.0
 40
0.0
 40
0.0
 40
0.0
 40
0.0
 40
0.1621241217
 40
0.3220399549
 40
0.4771715718
 40
0.6241873822
 40
0.7583427437
 40
0.8725898857
 40
0.919209807
 40
0.9568551845
 40
0.9840679998
 40
1.0
 40
1.0
 40
1.0
 40
1.0
 10
6.9
 20
20.0564380262
 30
0.0
 10
6.88203562
 20
20.0396573397
 30
0.0
 10
6.8463516312
 20
20.006324547
 30
0.0
 10
6.7934108868
 20
19.9570062579
 30
0.0
 10
6.7420017785
 20
19.9094068968
 30
0.0
 10
6.6932151911
 20
19.8647186846
 30
0.0
 10
6.648610351
 20
19.8246674441
 30
0.0
 10
6.6148090756
 20
19.7953175293
 30
0.0
 10
6.591460651
 20
19.7763743909
 30
0.0
 10
6.5779234167
 20
19.7661160809
 30
0.0
 10
6.5677423587
 20
19.7595805819
 30
0.0
 10
6.5616295269
 20
19.7565481261
 30
0.0
 10
6.559216057
 20
19.7564431031
 30
0.0
 11
6.9
 21
20.0564380262
 31
0.0
 11
6.8460954404
 21
20.0061081946
 31
0.0
 11
6.7928546927
 21
19.9565394342
 31
0.0
 11
6.7410543468
 21
19.9086178452
 31
0.0
 11
6.6917013654
 21
19.8634888181
 31
0.0
 11
6.6462365442
 21
19.822781725
 31
0.0
 11
6.6068138287
 21
19.7889190008
 31
0.0
 11
6.5903066406
 21
19.7756058045
 31
0.0
 11
6.5765563763
 21
19.7653991777
 31
0.0
 11
6.5660519238
 21
19.7588501197
 31
0.0
 11
6.559216057
 21
19.7564431031
 31
0.0
  0
SPLINE
  5
813
100
AcDbEntity
  8
ASSI
100
AcDbSpline
 62
253
  6
CONTINUOUS
 70
0
 71
3
 72
11
 73
7
 74
5
 42
0.0000001
 43
0.0000001
 44
0.0000000001
 12
-0.0012232477
 22
-0.3641905854
 32
0.0
 13
-0.3641914841
 23
-0.0009174691
 33
0.0
 40
0.0
 40
0.0
 40
0.0
 40
0.0
 40
0.2331615336
 40
0.476670328
 40
0.7338124407
 40
1.0
 40
1.0
 40
1.0
 40
1.0
 10
10.645628166
 20
23.8443375673
 30
0.0
 10
10.6455330946
 20
23.8160324888
 30
0.0
 10
10.631602622
 20
23.7574897042
 30
0.0
 10
10.5746713294
 20
23.6858275835
 30
0.0
 10
10.4920024088
 20
23.638830569
 30
0.0
 10
10.4279468109
 20
23.6279126226
 30
0.0
 10
10.3956323968
 20
23.6278312164
 30
0.0
 11
10.645628166
 21
23.8443375673
 31
0.0
 11
10.626389741
 21
23.7616298799
 31
0.0
 11
10.5721495847
 21
23.6914666636
 31
0.0
 11
10.4911334639
 21
23.6444924903
 31
0.0
 11
10.3956323968
 21
23.6278312164
 31
0.0
  0
SPLINE
  5
814
100
AcDbEntity
  8
ASSI
100
AcDbSpline
 62
253
  6
CONTINUOUS
 70
0
 71
3
 72
11
 73
7
 74
5
 42
0.0000001
 43
0.0000001
 44
0.0000000001
 12
0.0012232477
 22
-0.3641905849
 32
0.0
 13
0.3641914835
 23
-0.0009174691
 33
0.0
 40
0.0
 40
0.0
 40
0.0
 40
0.0
 40
0.2331616889
 40
0.47667047
 40
0.7338125459
 40
1.0
 40
1.0
 40
1.0
 40
1.0
 10
8.254371834
 20
23.8443375673
 30
0.0
 10
8.2544669055
 20
23.81603247
 30
0.0
 10
8.2683973942
 20
23.7574896677
 30
0.0
 10
8.3253287106
 20
23.6858275516
 30
0.0
 10
8.407997622
 20
23.6388305607
 30
0.0
 10
8.472053202
 20
23.6279126226
 30
0.0
 10
8.5043676032
 20
23.6278312164
 30
0.0
 11
8.254371834
 21
23.8443375673
 31
0.0
 11
8.2736102851
 21
23.761629828
 31
0.0
 11
8.3278504554
 21
23.6914666288
 31
0.0
 11
8.4088665728
 21
23.6444924765
 31
0.0
 11
8.5043676032
 21
23.6278312164
 31
0.0
  0
SPLINE
  5
815
100
AcDbEntity
  8
ASSI
100
AcDbSpline
 62
7
  6
CONTINUOUS
 70
0
 71
3
 72
17
 73
13
 74
11
 42
0.0000001
 43
0.0000001
 44
0.0000000001
 12
-0.4544570555
 22
0.019775856
 32
0.0
 13
-0.3324190091
 23
0.3105155426
 33
0.0
 40
0.0
 40
0.0
 40
0.0
 40
0.0
 40
0.0159320002
 40
0.0431448155
 40
0.080790193
 40
0.1274101143
 40
0.2416572563
 40
0.3758126178
 40
0.5228284282
 40
0.6779600451
 40
0.8378758783
 40
1.0
 40
1.0
 40
1.0
 40
1.0
 10
-6.559216057
 20
19.7564431031
 30
0.0
 10
-6.5616295269
 20
19.7565481261
 30
0.0
 10
-6.5677423587
 20
19.7595805819
 30
0.0
 10
-6.5779234167
 20
19.7661160809
 30
0.0
 10
-6.591460651
 20
19.7763743909
 30
0.0
 10
-6.6148090756
 20
19.7953175293
 30
0.0
 10
-6.648610351
 20
19.8246674441
 30
0.0
 10
-6.6932151911
 20
19.8647186846
 30
0.0
 10
-6.7420017785
 20
19.9094068968
 30
0.0
 10
-6.7934108868
 20
19.9570062579
 30
0.0
 10
-6.8463516312
 20
20.006324547
 30
0.0
 10
-6.88203562
 20
20.0396573397
 30
0.0
 10
-6.9
 20
20.0564380262
 30
0.0
 11
-6.559216057
 21
19.7564431031
 31
0.0
 11
-6.5660519238
 21
19.7588501197
 31
0.0
 11
-6.5765563763
 21
19.7653991777
 31
0.0
 11
-6.5903066406
 21
19.7756058045
 31
0.0
 11
-6.6068138287
 21
19.7889190008
 31
0.0
 11
-6.6462365442
 21
19.822781725
 31
0.0
 11
-6.6917013654
 21
19.8634888181
 31
0.0
 11
-6.7410543468
 21
19.9086178452
 31
0.0
 11
-6.7928546927
 21
19.9565394342
 31
0.0
 11
-6.8460954404
 21
20.0061081946
 31
0.0
 11
-6.9
 21
20.0564380262
 31
0.0
  0
SPLINE
  5
816
100
AcDbEntity
  8
ASSI
100
AcDbSpline
 62
7
  6
CONTINUOUS
 70
0
 71
3
 72
17
 73
13
 74
11
 42
0.0000001
 43
0.0000001
 44
0.0000000001
 12
-0.3324189968
 22
-0.3105155311
 32
0.0
 13
-0.4544570388
 23
-0.0197758553
 33
0.0
 40
0.0
 40
0.0
 40
0.0
 40
0.0
 40
0.1621464833
 40
0.3220740739
 40
0.4772096405
 40
0.6242204646
 40
0.7583607594
 40
0.8725913646
 40
0.9192063579
 40
0.956850458
 40
0.9840645712
 40
1.0
 40
1.0
 40
1.0
 40
1.0
 10
-6.9
 20
20.0564380262
 30
0.0
 10
-6.9179668571
 20
20.0396550257
 30
0.0
 10
-6.9536546238
 20
20.0063187013
 30
0.0
 10
-7.006599606
 20
19.9569964965
 30
0.0
 10
-7.0580099895
 20
19.9093961243
 30
0.0
 10
-7.1067947718
 20
19.8647095591
 30
0.0
 10
-7.1513956141
 20
19.8246621733
 30
0.0
 10
-7.1851928733
 20
19.7953160844
 30
0.0
 10
-7.2085385708
 20
19.7763750747
 30
0.0
 10
-7.222075104
 20
19.7661170396
 30
0.0
 10
-7.2322565666
 20
19.7595813115
 30
0.0
 10
-7.2383699538
 20
19.7565481487
 30
0.0
 10
-7.240783943
 20
19.7564431031
 30
0.0
 11
-6.9
 21
20.0564380262
 31
0.0
 11
-6.9539119946
 21
20.0061012567
 31
0.0
 11
-7.007156681
 21
19.9565288819
 31
0.0
 11
-7.0589584042
 21
19.9086061399
 31
0.0
 11
-7.1083097507
 21
19.8634786897
 31
0.0
 11
-7.1537695986
 21
19.8227763199
 31
0.0
 11
-7.1931867225
 21
19.7889186337
 31
0.0
 11
-7.2096921184
 21
19.7756067872
 31
0.0
 11
-7.2234418274
 21
19.7654003884
 31
0.0
 11
-7.2339466859
 21
19.7588508664
 31
0.0
 11
-7.240783943
 21
19.7564431031
 31
0.0
  0
SPLINE
  5
817
100
AcDbEntity
  8
ASSI
100
AcDbSpline
 62
253
  6
CONTINUOUS
 70
0
 71
3
 72
11
 73
7
 74
5
 42
0.0000001
 43
0.0000001
 44
0.0000000001
 12
-0.0012232477
 22
0.3641905849
 32
0.0
 13
-0.3641914835
 23
0.0009174691
 33
0.0
 40
0.0
 40
0.0
 40
0.0
 40
0.0
 40
0.2331616734
 40
0.4766704348
 40
0.7338124928
 40
1.0
 40
1.0
 40
1.0
 40
1.0
 10
-8.254371834
 20
-23.8443375673
 30
0.0
 10
-8.2544669055
 20
-23.8160324719
 30
0.0
 10
-8.268397392
 20
-23.757489674
 30
0.0
 10
-8.325328701
 20
-23.6858275607
 30
0.0
 10
-8.407997611
 20
-23.6388305642
 30
0.0
 10
-8.4720531955
 20
-23.6279126226
 30
0.0
 10
-8.5043676032
 20
-23.6278312164
 30
0.0
 11
-8.254371834
 21
-23.8443375673
 31
0.0
 11
-8.2736102825
 21
-23.7616298332
 31
0.0
 11
-8.3278504455
 21
-23.6914666374
 31
0.0
 11
-8.4088665543
 21
-23.6444924834
 31
0.0
 11
-8.5043676032
 21
-23.6278312164
 31
0.0
  0
SPLINE
  5
818
100
AcDbEntity
  8
ASSI
100
AcDbSpline
 62
253
  6
CONTINUOUS
 70
0
 71
3
 72
11
 73
7
 74
5
 42
0.0000001
 43
0.0000001
 44
0.0000000001
 12
-0.0012232477
 22
-0.3641905854
 32
0.0
 13
-0.3641914841
 23
-0.0009174691
 33
0.0
 40
0.0
 40
0.0
 40
0.0
 40
0.0
 40
0.2331615336
 40
0.476670328
 40
0.7338124407
 40
1.0
 40
1.0
 40
1.0
 40
1.0
 10
-8.254371834
 20
23.8443375673
 30
0.0
 10
-8.2544669054
 20
23.8160324888
 30
0.0
 10
-8.268397378
 20
23.7574897042
 30
0.0
 10
-8.3253286706
 20
23.6858275835
 30
0.0
 10
-8.4079975912
 20
23.638830569
 30
0.0
 10
-8.4720531891
 20
23.6279126226
 30
0.0
 10
-8.5043676032
 20
23.6278312164
 30
0.0
 11
-8.254371834
 21
23.8443375673
 31
0.0
 11
-8.273610259
 21
23.7616298799
 31
0.0
 11
-8.3278504153
 21
23.6914666636
 31
0.0
 11
-8.4088665361
 21
23.6444924903
 31
0.0
 11
-8.5043676032
 21
23.6278312164
 31
0.0
  0
SPLINE
  5
819
100
AcDbEntity
  8
ASSI
100
AcDbSpline
 62
253
  6
CONTINUOUS
 70
0
 71
3
 72
11
 73
7
 74
5
 42
0.0000001
 43
0.0000001
 44
0.0000000001
 12
0.0012232477
 22
-0.3641905854
 32
0.0
 13
0.3641914841
 23
-0.0009174691
 33
0.0
 40
0.0
 40
0.0
 40
0.0
 40
0.0
 40
0.2331615336
 40
0.476670328
 40
0.7338124407
 40
1.0
 40
1.0
 40
1.0
 40
1.0
 10
-10.645628166
 20
23.8443375673
 30
0.0
 10
-10.6455330946
 20
23.8160324888
 30
0.0
 10
-10.631602622
 20
23.7574897042
 30
0.0
 10
-10.5746713294
 20
23.6858275835
 30
0.0
 10
-10.4920024088
 20
23.638830569
 30
0.0
 10
-10.4279468109
 20
23.6279126226
 30
0.0
 10
-10.3956323968
 20
23.6278312164
 30
0.0
 11
-10.645628166
 21
23.8443375673
 31
0.0
 11
-10.626389741
 21
23.7616298799
 31
0.0
 11
-10.5721495847
 21
23.6914666636
 31
0.0
 11
-10.4911334639
 21
23.6444924903
 31
0.0
 11
-10.3956323968
 21
23.6278312164
 31
0.0
  0
SPLINE
  5
81A
100
AcDbEntity
  8
ASSI
100
AcDbSpline
 62
253
  6
CONTINUOUS
 70
0
 71
3
 72
11
 73
7
 74
5
 42
0.0000001
 43
0.0000001
 44
0.0000000001
 12
0.0012232477
 22
0.3641905854
 32
0.0
 13
0.3641914841
 23
0.0009174691
 33
0.0
 40
0.0
 40
0.0
 40
0.0
 40
0.0
 40
0.2331615336
 40
0.476670328
 40
0.7338124407
 40
1.0
 40
1.0
 40
1.0
 40
1.0
 10
-10.645628166
 20
-23.8443375673
 30
0.0
 10
-10.6455330946
 20
-23.8160324888
 30
0.0
 10
-10.631602622
 20
-23.7574897042
 30
0.0
 10
-10.5746713294
 20
-23.6858275835
 30
0.0
 10
-10.4920024088
 20
-23.638830569
 30
0.0
 10
-10.4279468109
 20
-23.6279126226
 30
0.0
 10
-10.3956323968
 20
-23.6278312164
 30
0.0
 11
-10.645628166
 21
-23.8443375673
 31
0.0
 11
-10.626389741
 21
-23.7616298799
 31
0.0
 11
-10.5721495847
 21
-23.6914666636
 31
0.0
 11
-10.4911334639
 21
-23.6444924903
 31
0.0
 11
-10.3956323968
 21
-23.6278312164
 31
0.0
  0
SPLINE
  5
81B
100
AcDbEntity
  8
ASSI
100
AcDbSpline
 62
7
  6
CONTINUOUS
 70
0
 71
3
 72
13
 73
9
 74
7
 42
0.0000001
 43
0.0000001
 44
0.0000000001
 12
0.3138496531
 22
0.0
 32
0.0
 13
0.0031623521
 23
-0.3138337207
 33
0.0
 40
0.0
 40
0.0
 40
0.0
 40
0.0
 40
0.3261057803
 40
0.6051570789
 40
0.7217182853
 40
0.8239738669
 40
0.9151204293
 40
1.0
 40
1.0
 40
1.0
 40
1.0
 10
10.3956323968
 20
-23.7
 30
0.0
 10
10.4297484588
 20
-23.7
 30
0.0
 10
10.4932581628
 20
-23.7076911111
 30
0.0
 10
10.5648218889
 20
-23.7353276531
 30
0.0
 10
10.6070191055
 20
-23.766366643
 30
0.0
 10
10.628807983
 20
-23.7907690517
 30
0.0
 10
10.6423089024
 20
-23.816965063
 30
0.0
 10
10.645538693
 20
-23.8354582101
 30
0.0
 10
10.645628166
 20
-23.8443375673
 30
0.0
 11
10.3956323968
 21
-23.7
 31
0.0
 11
10.49717892
 21
-23.7127849448
 31
0.0
 11
10.5780992753
 21
-23.7462838901
 31
0.0
 11
10.6073337071
 21
-23.7682757411
 31
0.0
 11
10.6284113806
 21
-23.7924766616
 31
0.0
 11
10.6411891944
 21
-23.8180705836
 31
0.0
 11
10.645628166
 21
-23.8443375673
 31
0.0
  0
SPLINE
  5
81C
100
AcDbEntity
  8
ASSI
100
AcDbSpline
 62
7
  6
CONTINUOUS
 70
0
 71
3
 72
13
 73
9
 74
7
 42
0.0000001
 43
0.0000001
 44
0.0000000001
 12
0.0031696367
 22
0.3145566487
 32
0.0
 13
0.3145726178
 23
-0.0
 33
0.0
 40
0.0
 40
0.0
 40
0.0
 40
0.0
 40
0.0848322853
 40
0.1759482271
 40
0.2781995767
 40
0.3947846151
 40
0.6739262862
 40
1.0
 40
1.0
 40
1.0
 40
1.0
 10
8.254371834
 20
-23.8443375673
 30
0.0
 10
8.2544614632
 20
-23.8354427142
 30
0.0
 10
8.2577029347
 20
-23.8169149301
 30
0.0
 10
8.2712514936
 20
-23.7906759599
 30
0.0
 10
8.2931151912
 20
-23.7662399029
 30
0.0
 10
8.3354552514
 20
-23.735174032
 30
0.0
 10
8.4072286343
 20
-23.7075363449
 30
0.0
 10
8.4709035447
 20
-23.7
 30
0.0
 10
8.5050948319
 20
-23.7
 30
0.0
 11
8.254371834
 21
-23.8443375673
 31
0.0
 11
8.2588255818
 21
-23.8180259322
 31
0.0
 11
8.2716467936
 21
-23.7923907994
 31
0.0
 11
8.2927961599
 21
-23.7681560707
 31
0.0
 11
8.322129078
 21
-23.7461425298
 31
0.0
 11
8.4033052251
 21
-23.7126598996
 31
0.0
 11
8.5050948319
 21
-23.7
 31
0.0
  0
SPLINE
  5
81D
100
AcDbEntity
  8
CURVE
100
AcDbSpline
 62
253
  6
CONTINUOUS
 70
0
 71
3
 72
15
 73
11
 74
9
 42
0.0000001
 43
0.0000001
 44
0.0000000001
 12
0.0095092835
 22
0.0085207271
 32
0.0
 13
0.001169342
 23
0.5772030334
 33
0.0
 40
0.0
 40
0.0
 40
0.0
 40
0.0
 40
0.125
 40
0.25
 40
0.375
 40
0.5
 40
0.625
 40
0.75
 40
0.875
 40
1.0
 40
1.0
 40
1.0
 40
1.0
 10
11.0900988563
 20
5.4627200261
 30
0.0
 10
11.0904950765
 20
5.4630750564
 30
0.0
 10
11.0912718596
 20
5.4681903829
 30
0.0
 10
11.0924060315
 20
5.487699595
 30
0.0
 10
11.0934628764
 20
5.5183155907
 30
0.0
 10
11.0944013802
 20
5.5593434451
 30
0.0
 10
11.0951770356
 20
5.6105284399
 30
0.0
 10
11.0957806465
 20
5.6694268011
 30
0.0
 10
11.0962110355
 20
5.734252503
 30
0.0
 10
11.0963772013
 20
5.7805909333
 30
0.0
 10
11.0964259238
 20
5.8046410597
 30
0.0
 11
11.0900988563
 21
5.4627200261
 31
0.0
 11
11.0912666925
 21
5.4701630867
 31
0.0
 11
11.0923931437
 21
5.4895507256
 31
0.0
 11
11.0934431529
 21
5.5200509005
 31
0.0
 11
11.0943742388
 21
5.5610363018
 31
0.0
 11
11.0951483615
 21
5.611814001
 31
0.0
 11
11.0957517762
 21
5.6704146912
 31
0.0
 11
11.0961808455
 21
5.7350328269
 31
0.0
 11
11.0964259238
 21
5.8046410597
 31
0.0
  0
SPLINE
  5
81E
100
AcDbEntity
  8
CURVE
100
AcDbSpline
 62
253
  6
CONTINUOUS
 70
0
 71
3
 72
19
 73
15
 74
13
 42
0.0000001
 43
0.0000001
 44
0.0000000001
 12
0.0003019562
 22
-0.7745016342
 32
0.0
 13
0.0129728157
 23
0.0114679899
 33
0.0
 40
0.0
 40
0.0
 40
0.0
 40
0.0
 40
0.125
 40
0.25
 40
0.375
 40
0.4375
 40
0.5
 40
0.5625
 40
0.625
 40
0.6875
 40
0.75
 40
0.8125
 40
0.875
 40
1.0
 40
1.0
 40
1.0
 40
1.0
 10
11.082233519
 20
5.9328946758
 30
0.0
 10
11.0822461005
 20
5.9006237743
 30
0.0
 10
11.0823313184
 20
5.8372576832
 30
0.0
 10
11.082665297
 20
5.7454899438
 30
0.0
 10
11.0831704693
 20
5.6724948725
 30
0.0
 10
11.0837351003
 20
5.6198097817
 30
0.0
 10
11.0842444578
 20
5.5839631266
 30
0.0
 10
11.0848328829
 20
5.5524018662
 30
0.0
 10
11.0854860772
 20
5.5253280659
 30
0.0
 10
11.0861922043
 20
5.5030623431
 30
0.0
 10
11.0869405922
 20
5.4860918575
 30
0.0
 10
11.0877087592
 20
5.4742613315
 30
0.0
 10
11.0887623813
 20
5.4641840105
 30
0.0
 10
11.0895583224
 20
5.4622421932
 30
0.0
 10
11.0900988563
 20
5.4627200261
 30
0.0
 11
11.082233519
 21
5.9328946758
 31
0.0
 11
11.082365677
 21
5.8378045828
 31
0.0
 11
11.0827106684
 21
5.7461855528
 31
0.0
 11
11.0833250015
 21
5.6597995136
 31
0.0
 11
11.0837494144
 21
5.6204209755
 31
0.0
 11
11.0842576358
 21
5.584677359
 31
0.0
 11
11.0848436777
 21
5.5531497762
 31
0.0
 11
11.0854948993
 21
5.5261294121
 31
0.0
 11
11.0861992478
 21
5.5039448826
 31
0.0
 11
11.0869438887
 21
5.4869485174
 31
0.0
 11
11.0877124341
 21
5.4749734207
 31
0.0
 11
11.0884996118
 21
5.46732736
 31
0.0
 11
11.0900988563
 21
5.4627200261
 31
0.0
  0
SPLINE
  5
81F
100
AcDbEntity
  8
CURVE
100
AcDbSpline
 62
253
  6
CONTINUOUS
 70
0
 71
3
 72
14
 73
10
 74
8
 42
0.0000001
 43
0.0000001
 44
0.0000000001
 12
0.0090878848
 22
0.1957275353
 32
0.0
 13
0.0
 23
0.4570328237
 33
0.0
 40
0.0
 40
0.0
 40
0.0
 40
0.0
 40
0.25
 40
0.375
 40
0.5
 40
0.625
 40
0.75
 40
0.875
 40
1.0
 40
1.0
 40
1.0
 40
1.0
 10
11.069488807
 20
5.5966034314
 30
0.0
 10
11.0702461307
 20
5.6129140594
 30
0.0
 10
11.0712184341
 20
5.644509838
 30
0.0
 10
11.0722295807
 20
5.6939834747
 30
0.0
 10
11.0728508168
 20
5.7344921366
 30
0.0
 10
11.0733385186
 20
5.7786648152
 30
0.0
 10
11.0736818351
 20
5.8265262479
 30
0.0
 10
11.0738949639
 20
5.8790113732
 30
0.0
 10
11.0739442284
 20
5.9151562929
 30
0.0
 10
11.0739442284
 20
5.9341993273
 30
0.0
 11
11.069488807
 21
5.5966034314
 31
0.0
 11
11.0714474493
 21
5.6574904082
 31
0.0
 11
11.0722067267
 21
5.6945507138
 31
0.0
 11
11.0728285611
 21
5.7351028061
 31
0.0
 11
11.0733144544
 21
5.7792796076
 31
0.0
 11
11.0736601372
 21
5.8272968634
 31
0.0
 11
11.0738717585
 21
5.8793000823
 31
0.0
 11
11.0739442284
 21
5.9341993273
 31
0.0
  0
SPLINE
  5
820
100
AcDbEntity
  8
CURVE
100
AcDbSpline
 62
253
  6
CONTINUOUS
 70
0
 71
3
 72
12
 73
8
 74
6
 42
0.0000001
 43
0.0000001
 44
0.0000000001
 12
0.0165717509
 22
0.2729548678
 32
0.0
 13
0.0138749234
 23
0.2986759687
 33
0.0
 40
0.0
 40
0.0
 40
0.0
 40
0.0
 40
0.1666666667
 40
0.3333333333
 40
0.5
 40
0.6666666667
 40
1.0
 40
1.0
 40
1.0
 40
1.0
 10
11.0541368471
 20
5.3318417383
 30
0.0
 10
11.0550574999
 20
5.3470058977
 30
0.0
 10
11.0568751127
 20
5.3774894898
 30
0.0
 10
11.0595346735
 20
5.4224032436
 30
0.0
 10
11.0621373705
 20
5.4649339653
 30
0.0
 10
11.0655239926
 20
5.5196255509
 30
0.0
 10
11.0679450251
 20
5.5633715256
 30
0.0
 10
11.0694866832
 20
5.5965577443
 30
0.0
 11
11.0541368471
 21
5.3318417383
 31
0.0
 11
11.0568639696
 21
5.3773542174
 31
0.0
 11
11.0595251962
 21
5.4220060716
 31
0.0
 11
11.0621269154
 21
5.4646819599
 31
0.0
 11
11.0646641222
 21
5.5062556862
 31
0.0
 11
11.0694866832
 21
5.5965577443
 31
0.0
  0
LINE
  5
821
100
AcDbEntity
  8
CURVE
100
AcDbLine
 62
253
  6
CONTINUOUS
 10
11.0678347277
 20
4.9565418369
 11
11.0541368471
 21
4.7496410148
  0
SPLINE
  5
822
100
AcDbEntity
  8
CURVE
100
AcDbSpline
 62
253
  6
CONTINUOUS
 70
0
 71
3
 72
16
 73
12
 74
10
 42
0.0000001
 43
0.0000001
 44
0.0000000001
 12
-0.0043273597
 22
-0.6217285849
 32
0.0
 13
-0.0141985893
 23
-0.2216138674
 33
0.0
 40
0.0
 40
0.0
 40
0.0
 40
0.0
 40
0.1111111111
 40
0.2222222222
 40
0.3333333333
 40
0.4444444444
 40
0.5555555556
 40
0.6666666667
 40
0.7777777778
 40
0.8888888889
 40
1.0
 40
1.0
 40
1.0
 40
1.0
 10
11.0777628434
 20
5.30544429
 30
0.0
 10
11.0776025708
 20
5.2824173054
 30
0.0
 10
11.077197399
 20
5.2393482959
 30
0.0
 10
11.0763523172
 20
5.1816522403
 30
0.0
 10
11.0753704697
 20
5.1335210226
 30
0.0
 10
11.0742914138
 20
5.0927768273
 30
0.0
 10
11.0731753478
 20
5.0589912272
 30
0.0
 10
11.0719983422
 20
5.0296357284
 30
0.0
 10
11.0707410672
 20
5.0035593846
 30
0.0
 10
11.0693731885
 20
4.9801088876
 30
0.0
 10
11.0683606014
 20
4.9647497583
 30
0.0
 10
11.0678347277
 20
4.9565418373
 30
0.0
 11
11.0777628434
 21
5.30544429
 31
0.0
 11
11.077157845
 21
5.240499539
 31
0.0
 11
11.0763295229
 21
5.1832463799
 31
0.0
 11
11.0753542683
 21
5.134752193
 31
0.0
 11
11.0742852455
 21
5.0939365932
 31
0.0
 11
11.0731651912
 21
5.0597295774
 31
0.0
 11
11.0719849639
 21
5.0301822542
 31
0.0
 11
11.0707226332
 21
5.0039970257
 31
0.0
 11
11.0693480215
 21
4.9801775214
 31
0.0
 11
11.0678347277
 21
4.9565418373
 31
0.0
  0
SPLINE
  5
823
100
AcDbEntity
  8
CURVE
100
AcDbSpline
 62
253
  6
CONTINUOUS
 70
0
 71
3
 72
34
 73
30
 74
28
 42
0.0000001
 43
0.0000001
 44
0.0000000001
 12
-0.0149450571
 22
-2.3733703801
 32
0.0
 13
-0.0017040253
 23
0.7565824497
 33
0.0
 40
0.0
 40
0.0
 40
0.0
 40
0.0
 40
0.0294117647
 40
0.0588235294
 40
0.0882352941
 40
0.1176470588
 40
0.1470588235
 40
0.1764705882
 40
0.2058823529
 40
0.2352941176
 40
0.2647058824
 40
0.2941176471
 40
0.3529411765
 40
0.4117647059
 40
0.4705882353
 40
0.5294117647
 40
0.5882352941
 40
0.6470588235
 40
0.7058823529
 40
0.7647058824
 40
0.7941176471
 40
0.8235294118
 40
0.8529411765
 40
0.8676470588
 40
0.8823529412
 40
0.8970588235
 40
0.9117647059
 40
0.9411764706
 40
1.0
 40
1.0
 40
1.0
 40
1.0
 10
11.103626265
 20
5.3678501192
 30
0.0
 10
11.1034797449
 20
5.3445817822
 30
0.0
 10
11.1031190645
 20
5.299132296
 30
0.0
 10
11.1023903182
 20
5.2317492981
 30
0.0
 10
11.1014643516
 20
5.16325043
 30
0.0
 10
11.1003795383
 20
5.0996747177
 30
0.0
 10
11.0991646802
 20
5.0434623532
 30
0.0
 10
11.0978471572
 20
4.9957695654
 30
0.0
 10
11.0964726542
 20
4.9577389269
 30
0.0
 10
11.0950758692
 20
4.9297192883
 30
0.0
 10
11.093761854
 20
4.91154486
 30
0.0
 10
11.0920659201
 20
4.896876869
 30
0.0
 10
11.0901382514
 20
4.8926308407
 30
0.0
 10
11.0880404467
 20
4.9034036932
 30
0.0
 10
11.0861866952
 20
4.9271604282
 30
0.0
 10
11.0845714843
 20
4.9602159611
 30
0.0
 10
11.0831810893
 20
4.9993305314
 30
0.0
 10
11.0819925524
 20
5.0424268704
 30
0.0
 10
11.080995851
 20
5.0880466717
 30
0.0
 10
11.0803048737
 20
5.1266090112
 30
0.0
 10
11.0798133062
 20
5.1567140822
 30
0.0
 10
11.0794704624
 20
5.1788415882
 30
0.0
 10
11.0792047484
 20
5.1966848844
 30
0.0
 10
11.0790017693
 20
5.2106269766
 30
0.0
 10
11.078852655
 20
5.2209785182
 30
0.0
 10
11.0787073037
 20
5.2312838076
 30
0.0
 10
11.0785240211
 20
5.2450165288
 30
0.0
 10
11.0782421698
 20
5.2690450063
 30
0.0
 10
11.0780953381
 20
5.29060934
 30
0.0
 10
11.0780619259
 20
5.30544429
 30
0.0
 11
11.103626265
 21
5.3678501192
 31
0.0
 11
11.1030877769
 21
5.2992641679
 31
0.0
 11
11.1023574482
 21
5.2315633197
 31
0.0
 11
11.1014378772
 21
5.164070956
 31
0.0
 11
11.1003578642
 21
5.1009019423
 31
0.0
 11
11.0991475694
 21
5.0448822826
 31
0.0
 11
11.0978376605
 21
4.9973799236
 31
0.0
 11
11.0964689405
 21
4.9594074269
 31
0.0
 11
11.0950896641
 21
4.9313601567
 31
0.0
 11
11.0937688648
 21
4.9127404325
 31
0.0
 11
11.0925027202
 21
4.9014831308
 31
0.0
 11
11.090174151
 21
4.8952755218
 31
0.0
 11
11.0880811222
 21
4.9055676736
 31
0.0
 11
11.086226452
 21
4.9287102278
 31
0.0
 11
11.0846089536
 21
4.9612258007
 31
0.0
 11
11.0832147323
 21
4.9999941595
 31
0.0
 11
11.082024525
 21
5.0428474474
 31
0.0
 11
11.0810237724
 21
5.0881558394
 31
0.0
 11
11.080187083
 21
5.1340732122
 31
0.0
 11
11.0798176115
 21
5.156638866
 31
0.0
 11
11.0794744603
 21
5.1787223298
 31
0.0
 11
11.079154803
 21
5.2001426954
 31
0.0
 11
11.0790022893
 21
5.210609472
 31
0.0
 11
11.0788532822
 21
5.2209708095
 31
0.0
 11
11.0787086186
 21
5.2312828495
 31
0.0
 11
11.0785716938
 21
5.2415831683
 31
0.0
 11
11.0783332271
 21
5.2622873377
 31
0.0
 11
11.0780619259
 21
5.30544429
 31
0.0
  0
SPLINE
  5
824
100
AcDbEntity
  8
CURVE
100
AcDbSpline
 62
253
  6
CONTINUOUS
 70
0
 71
3
 72
15
 73
11
 74
9
 42
0.0000001
 43
0.0000001
 44
0.0000000001
 12
0.0045437073
 22
-1.7693996452
 32
0.0
 13
-0.008582614
 23
-1.3609984754
 33
0.0
 40
0.0
 40
0.0
 40
0.0
 40
0.0
 40
0.125
 40
0.25
 40
0.375
 40
0.5
 40
0.625
 40
0.75
 40
0.875
 40
1.0
 40
1.0
 40
1.0
 40
1.0
 10
11.104159148
 20
6.8615673444
 30
0.0
 10
11.1043484691
 20
6.7878423591
 30
0.0
 10
11.1046888987
 20
6.6449573895
 30
0.0
 10
11.1050596396
 20
6.4459362111
 30
0.0
 10
11.1052894517
 20
6.2567360832
 30
0.0
 10
11.1053714396
 20
6.0743022441
 30
0.0
 10
11.1052907702
 20
5.8946811593
 30
0.0
 10
11.1050349861
 20
5.7167329802
 30
0.0
 10
11.1045437012
 20
5.5399680174
 30
0.0
 10
11.1039838739
 20
5.424558389
 30
0.0
 10
11.103626265
 20
5.3678501192
 30
0.0
 11
11.104159148
 21
6.8615673444
 31
0.0
 11
11.1046655815
 21
6.6475084355
 31
0.0
 11
11.1050361515
 21
6.4475730528
 31
0.0
 11
11.1052648143
 21
6.257863798
 31
0.0
 11
11.1053443301
 21
6.0747710365
 31
0.0
 11
11.1052615844
 21
5.8949599769
 31
0.0
 11
11.104995736
 21
5.7169301829
 31
0.0
 11
11.1044856252
 21
5.5405764374
 31
0.0
 11
11.103626265
 21
5.3678501192
 31
0.0
  0
SPLINE
  5
825
100
AcDbEntity
  8
CURVE
100
AcDbSpline
 62
7
  6
CONTINUOUS
 70
0
 71
3
 72
15
 73
11
 74
9
 42
0.0000001
 43
0.0000001
 44
0.0000000001
 12
0.0011033351
 22
-1.7060017172
 32
0.0
 13
0.0297942716
 23
0.0
 33
0.0
 40
0.0
 40
0.0
 40
0.0
 40
0.0
 40
0.124964749
 40
0.2498801807
 40
0.3749449568
 40
0.4999700798
 40
0.625114218
 40
0.7501336145
 40
0.8751598981
 40
1.0
 40
1.0
 40
1.0
 40
1.0
 10
11.0735135948
 20
-3.5882200575
 30
0.0
 10
11.0735595541
 20
-3.6592834163
 30
0.0
 10
11.0736129372
 20
-3.801448305
 30
0.0
 10
11.0739607164
 20
-4.0142899176
 30
0.0
 10
11.0747960823
 20
-4.22298974
 30
0.0
 10
11.0762297682
 20
-4.4217447249
 30
0.0
 10
11.0785459837
 20
-4.5935070156
 30
0.0
 10
11.0817279667
 20
-4.7119708447
 30
0.0
 10
11.0853432205
 20
-4.7716793234
 30
0.0
 10
11.0878322921
 20
-4.7815268003
 30
0.0
 10
11.089072132
 20
-4.7815268003
 30
0.0
 11
11.0735135948
 21
-3.5882200575
 31
0.0
 11
11.0736575635
 21
-3.8013969153
 31
0.0
 11
11.0740417284
 21
-4.0135100265
 31
0.0
 11
11.074895811
 21
-4.2213330331
 31
0.0
 11
11.0763763162
 21
-4.4171904032
 31
0.0
 11
11.0786912124
 21
-4.584670781
 31
0.0
 11
11.0818005812
 21
-4.7021878845
 31
0.0
 11
11.0853649097
 21
-4.7642105591
 31
0.0
 11
11.089072132
 21
-4.7815268003
 31
0.0
  0
SPLINE
  5
826
100
AcDbEntity
  8
CURVE
100
AcDbSpline
 62
7
  6
CONTINUOUS
 70
0
 71
3
 72
15
 73
11
 74
9
 42
0.0000001
 43
0.0000001
 44
0.0000000001
 12
0.0297942716
 22
0.0
 32
0.0
 13
0.0011033351
 23
1.7060017172
 33
0.0
 40
0.0
 40
0.0
 40
0.0
 40
0.0
 40
0.1248401019
 40
0.2498663855
 40
0.374885782
 40
0.5000299202
 40
0.6250550432
 40
0.7501198193
 40
0.875035251
 40
1.0
 40
1.0
 40
1.0
 40
1.0
 10
11.089072132
 20
-4.7815268003
 30
0.0
 10
11.090311972
 20
-4.7815268003
 30
0.0
 10
11.0928010436
 20
-4.7716793234
 30
0.0
 10
11.0964162974
 20
-4.7119708447
 30
0.0
 10
11.0995982804
 20
-4.5935070156
 30
0.0
 10
11.1019144959
 20
-4.4217447249
 30
0.0
 10
11.1033481818
 20
-4.22298974
 30
0.0
 10
11.1041835477
 20
-4.0142899176
 30
0.0
 10
11.1045313269
 20
-3.801448305
 30
0.0
 10
11.1045847099
 20
-3.6592834163
 30
0.0
 10
11.1046306693
 20
-3.5882200575
 30
0.0
 11
11.089072132
 21
-4.7815268003
 31
0.0
 11
11.0927793544
 21
-4.7642105591
 31
0.0
 11
11.0963436828
 21
-4.7021878845
 31
0.0
 11
11.0994530516
 21
-4.584670781
 31
0.0
 11
11.1017679479
 21
-4.4171904032
 31
0.0
 11
11.1032484531
 21
-4.2213330331
 31
0.0
 11
11.1041025357
 21
-4.0135100265
 31
0.0
 11
11.1044867006
 21
-3.8013969153
 31
0.0
 11
11.1046306693
 21
-3.5882200575
 31
0.0
  0
SPLINE
  5
827
100
AcDbEntity
  8
CURVE
100
AcDbSpline
 62
7
  6
CONTINUOUS
 70
0
 71
3
 72
13
 73
9
 74
7
 42
0.0000001
 43
0.0000001
 44
0.0000000001
 12
-0.0014887831
 22
-0.6778031497
 32
0.0
 13
-0.0119226138
 23
-0.0
 33
0.0
 40
0.0
 40
0.0
 40
0.0
 40
0.0
 40
0.2498991807
 40
0.3754160027
 40
0.4999534413
 40
0.6254709956
 40
0.7509198094
 40
1.0
 40
1.0
 40
1.0
 40
1.0
 10
11.0962210609
 20
-3.6866121309
 30
0.0
 10
11.0960970457
 20
-3.7430729482
 30
0.0
 10
11.0960147286
 20
-3.8288650197
 30
0.0
 10
11.0954494571
 20
-3.9389346122
 30
0.0
 10
11.0946244655
 20
-4.0123287258
 30
0.0
 10
11.0934062022
 20
-4.0639042122
 30
0.0
 10
11.0915818624
 20
-4.110949299
 30
0.0
 10
11.0900620277
 20
-4.1187598859
 30
0.0
 10
11.089072132
 20
-4.1187598859
 30
0.0
 11
11.0962210609
 21
-3.6866121309
 31
0.0
 11
11.0958358495
 21
-3.8558979327
 31
0.0
 11
11.0953811885
 21
-3.9375915065
 31
0.0
 11
11.0945616343
 21
-4.0085354483
 31
0.0
 11
11.0933806179
 21
-4.0611974199
 31
0.0
 11
11.0920156985
 21
-4.0962409458
 31
0.0
 11
11.089072132
 21
-4.1187598859
 31
0.0
  0
SPLINE
  5
828
100
AcDbEntity
  8
CURVE
100
AcDbSpline
 62
7
  6
CONTINUOUS
 70
0
 71
3
 72
13
 73
9
 74
7
 42
0.0000001
 43
0.0000001
 44
0.0000000001
 12
-0.0119226138
 22
0.0
 32
0.0
 13
-0.0014887831
 23
0.6778031497
 33
0.0
 40
0.0
 40
0.0
 40
0.0
 40
0.0
 40
0.2490801906
 40
0.3745290044
 40
0.5000465587
 40
0.6245839973
 40
0.7501008193
 40
1.0
 40
1.0
 40
1.0
 40
1.0
 10
11.089072132
 20
-4.1187598859
 30
0.0
 10
11.0880822364
 20
-4.1187598859
 30
0.0
 10
11.0865624017
 20
-4.110949299
 30
0.0
 10
11.0847380619
 20
-4.0639042122
 30
0.0
 10
11.0835197986
 20
-4.0123287258
 30
0.0
 10
11.082694807
 20
-3.9389346122
 30
0.0
 10
11.0821295355
 20
-3.8288650197
 30
0.0
 10
11.0820472184
 20
-3.7430729482
 30
0.0
 10
11.0819232032
 20
-3.6866121309
 30
0.0
 11
11.089072132
 21
-4.1187598859
 31
0.0
 11
11.0861285655
 21
-4.0962409458
 31
0.0
 11
11.0847636461
 21
-4.0611974199
 31
0.0
 11
11.0835826298
 21
-4.0085354483
 31
0.0
 11
11.0827630755
 21
-3.9375915065
 31
0.0
 11
11.0823084145
 21
-3.8558979327
 31
0.0
 11
11.0819232032
 21
-3.6866121309
 31
0.0
  0
ELLIPSE
  5
829
100
AcDbEntity
  8
0
100
AcDbEllipse
 62
7
  6
CONTINUOUS
 10
9.2578722081
 20
-18.321072763
 30
0.0
 11
-0.3827517265
 21
0.924044409
 31
0.0
 40
0.9998215708
 41
-3.5342286494
 42
-2.7489566578
  0
ELLIPSE
  5
82A
100
AcDbEntity
  8
0
100
AcDbEllipse
 62
7
  6
CONTINUOUS
 10
8.6853906168
 20
-17.4791253675
 30
0.0
 11
-1.8480888181
 21
0.7655034529
 31
0.0
 40
0.9998215708
 41
9.032141965
 42
9.8174139566
  0
ELLIPSE
  5
82B
100
AcDbEntity
  8
DRAFT
100
AcDbEllipse
 62
7
  6
CONTINUOUS
 10
2.5
 20
-20.0445070257
 30
0.0
 11
1.0
 21
-0.0
 31
0.0
 40
0.0087268678
 41
-1.5707963268
 42
0.0
  0
ELLIPSE
  5
82C
100
AcDbEntity
  8
DRAFT
100
AcDbEllipse
 62
7
  6
CONTINUOUS
 10
2.5
 20
20.0445070257
 30
0.0
 11
1.0
 21
0.0
 31
0.0
 40
0.0087268678
 41
-0.0
 42
1.5707963268
  0
ELLIPSE
  5
82D
100
AcDbEntity
  8
DRAFT
100
AcDbEllipse
 62
7
  6
CONTINUOUS
 10
-2.5
 20
-20.0445070257
 30
0.0
 11
1.0
 21
-0.0
 31
0.0
 40
0.0087268678
 41
3.1415926536
 42
4.7123889804
  0
ELLIPSE
  5
82E
100
AcDbEntity
  8
DRAFT
100
AcDbEllipse
 62
7
  6
CONTINUOUS
 10
0.0
 20
-20.1823915368
 30
0.0
 11
15.0
 21
-0.0
 31
0.0
 40
0.0087268678
 41
1.4073150204
 42
1.7342776332
  0
ELLIPSE
  5
82F
100
AcDbEntity
  8
DRAFT
100
AcDbEllipse
 62
7
  6
CONTINUOUS
 10
-2.5
 20
20.0445070257
 30
0.0
 11
1.0
 21
0.0
 31
0.0
 40
0.0087268678
 41
1.5707963268
 42
3.1415926536
  0
ELLIPSE
  5
830
100
AcDbEntity
  8
DRAFT
100
AcDbEllipse
 62
7
  6
CONTINUOUS
 10
0.0
 20
20.1823915368
 30
0.0
 11
15.0
 21
-0.0
 31
0.0
 40
0.0087268678
 41
-1.7342776332
 42
-1.4073150204
  0
ELLIPSE
  5
831
100
AcDbEntity
  8
DRAFT
100
AcDbEllipse
 62
7
  6
CONTINUOUS
 10
3.9279699877
 20
22.3339198952
 30
0.0
 11
0.4279699877
 21
-0.0
 31
0.0
 40
0.0087268678
 41
-3.1415926536
 42
-0.0058177642
  0
ELLIPSE
  5
832
100
AcDbEntity
  8
RACCORDO
100
AcDbEllipse
 62
7
  6
CONTINUOUS
 10
-10.649923836
 20
-21.891254093
 30
0.0
 11
-0.4473055582
 21
0.2236357461
 31
0.0
 40
0.9998096356
 41
6.7467263073
 42
8.3176749331
  0
ELLIPSE
  5
833
100
AcDbEntity
  8
DRAFT
100
AcDbEllipse
 62
7
  6
CONTINUOUS
 10
-3.9279699877
 20
-22.3339198952
 30
0.0
 11
0.4279699877
 21
-0.0
 31
0.0
 40
0.0087268678
 41
0.0
 42
3.1357748894
  0
ELLIPSE
  5
834
100
AcDbEntity
  8
DRAFT
100
AcDbEllipse
 62
7
  6
CONTINUOUS
 10
3.9279699877
 20
-22.3339198952
 30
0.0
 11
0.4279699877
 21
0.0
 31
0.0
 40
0.0087268678
 41
0.0058177642
 42
3.1415926536
  0
ELLIPSE
  5
835
100
AcDbEntity
  8
RACCORDO
100
AcDbEllipse
 62
7
  6
CONTINUOUS
 10
10.649923836
 20
21.891254093
 30
0.0
 11
0.4473055582
 21
-0.2236357461
 31
0.0
 40
0.9998096356
 41
6.7467263073
 42
8.3176749331
  0
ELLIPSE
  5
836
100
AcDbEntity
  8
RACCORDO
100
AcDbEllipse
 62
7
  6
CONTINUOUS
 10
7.3500333364
 20
20.1488813944
 30
0.0
 11
0.0
 21
0.3
 31
0.0
 40
0.0058178298
 41
-1.5707963268
 42
-0.0523598776
  0
ELLIPSE
  5
837
100
AcDbEntity
  8
RACCORDO
100
AcDbEllipse
 62
7
  6
CONTINUOUS
 10
18.1942542824
 20
-0.0
 30
0.0
 11
0.0
 21
499.0
 31
0.0
 40
0.0174550649
 41
1.5489508684
 42
1.5573690623
  0
ELLIPSE
  5
838
100
AcDbEntity
  8
RACCORDO
100
AcDbEllipse
 62
7
  6
CONTINUOUS
 10
18.1942542824
 20
0.0
 30
0.0
 11
0.0
 21
499.0
 31
0.0
 40
0.0174550649
 41
1.5389272034
 42
1.5473472524
  0
ELLIPSE
  5
839
100
AcDbEntity
  8
RACCORDO
100
AcDbEllipse
 62
7
  6
CONTINUOUS
 10
-7.3500333364
 20
-20.1488813944
 30
0.0
 11
0.0
 21
0.3
 31
0.0
 40
0.0058178298
 41
-4.7123889804
 42
-3.1939525311
  0
ELLIPSE
  5
83A
100
AcDbEntity
  8
RACCORDO
100
AcDbEllipse
 62
7
  6
CONTINUOUS
 10
7.3500333364
 20
-20.1488813944
 30
0.0
 11
-0.0
 21
0.3
 31
0.0
 40
0.0058178298
 41
-3.089232776
 42
-1.5707963268
  0
ELLIPSE
  5
83B
100
AcDbEntity
  8
RACCORDO
100
AcDbEllipse
 62
7
  6
CONTINUOUS
 10
10.649923836
 20
-21.891254093
 30
0.0
 11
-0.4473055582
 21
-0.2236357461
 31
0.0
 40
0.9998096356
 41
7.3902883349
 42
8.9612369607
  0
ELLIPSE
  5
83C
100
AcDbEntity
  8
RACCORDO
100
AcDbEllipse
 62
7
  6
CONTINUOUS
 10
-10.649923836
 20
21.891254093
 30
0.0
 11
0.4473055582
 21
0.2236357461
 31
0.0
 40
0.9998096356
 41
7.3902883349
 42
8.9612369607
  0
ELLIPSE
  5
83D
100
AcDbEntity
  8
RACCORDO
100
AcDbEllipse
 62
7
  6
CONTINUOUS
 10
-7.3500333364
 20
20.1488813944
 30
0.0
 11
-0.0
 21
0.3
 31
0.0
 40
0.0058178298
 41
0.0523598776
 42
1.5707963268
  0
ELLIPSE
  5
83E
100
AcDbEntity
  8
RACCORDO
100
AcDbEllipse
 62
7
  6
CONTINUOUS
 10
-8.5000042309
 20
-23.4113248654
 30
0.0
 11
0.0029088041
 21
0.2886641433
 31
0.0
 40
0.8660144118
 41
-1.5591610446
 42
0.0087264124
  0
ELLIPSE
  5
83F
100
AcDbEntity
  8
RACCORDO
100
AcDbEllipse
 62
7
  6
CONTINUOUS
 10
10.3999957691
 20
23.4113248654
 30
0.0
 11
-0.0029088041
 21
0.2886641433
 31
0.0
 40
0.8660144118
 41
-3.150319066
 42
-1.582431609
  0
ELLIPSE
  5
840
100
AcDbEntity
  8
RACCORDO
100
AcDbEllipse
 62
7
  6
CONTINUOUS
 10
8.5000042309
 20
23.4113248654
 30
0.0
 11
0.0029088041
 21
0.2886641433
 31
0.0
 40
0.8660144118
 41
-4.7007536982
 42
-3.1328662411
  0
ELLIPSE
  5
841
100
AcDbEntity
  8
RACCORDO
100
AcDbEllipse
 62
7
  6
CONTINUOUS
 10
-10.3999957691
 20
-23.4113248654
 30
0.0
 11
-0.0029088041
 21
0.2886641433
 31
0.0
 40
0.8660144118
 41
-0.0087264124
 42
1.5591610446
  0
ELLIPSE
  5
842
100
AcDbEntity
  8
DRAFT
100
AcDbEllipse
 62
7
  6
CONTINUOUS
 10
-3.9279699877
 20
22.3339198952
 30
0.0
 11
0.4279699877
 21
0.0
 31
0.0
 40
0.0087268678
 41
-3.1357748894
 42
-0.0
  0
ELLIPSE
  5
843
100
AcDbEntity
  8
RACCORDO
100
AcDbEllipse
 62
7
  6
CONTINUOUS
 10
10.3999957691
 20
-23.4113248654
 30
0.0
 11
0.0029088041
 21
0.2886641433
 31
0.0
 40
0.8660144118
 41
-1.5591610446
 42
0.0087264124
  0
ELLIPSE
  5
844
100
AcDbEntity
  8
RACCORDO
100
AcDbEllipse
 62
7
  6
CONTINUOUS
 10
-8.5000042309
 20
23.4113248654
 30
0.0
 11
-0.0029088041
 21
0.2886641433
 31
0.0
 40
0.8660144118
 41
-3.150319066
 42
-1.582431609
  0
ELLIPSE
  5
845
100
AcDbEntity
  8
RACCORDO
100
AcDbEllipse
 62
7
  6
CONTINUOUS
 10
-10.3999957691
 20
23.4113248654
 30
0.0
 11
0.0029088041
 21
0.2886641433
 31
0.0
 40
0.8660144118
 41
-4.7007536982
 42
-3.1328662411
  0
ELLIPSE
  5
846
100
AcDbEntity
  8
RACCORDO
100
AcDbEllipse
 62
7
  6
CONTINUOUS
 10
8.5000042309
 20
-23.4113248654
 30
0.0
 11
-0.0029088041
 21
0.2886641433
 31
0.0
 40
0.8660144118
 41
-0.0087264124
 42
1.5591610446
  0
ELLIPSE
  5
847
100
AcDbEntity
  8
ASSI
100
AcDbEllipse
 62
7
  6
CONTINUOUS
 10
2.5
 20
-20.0445070257
 30
0.0
 11
1.0
 21
-0.0
 31
0.0
 40
0.0087268678
 41
-1.5707963268
 42
0.0
  0
ELLIPSE
  5
848
100
AcDbEntity
  8
ASSI
100
AcDbEllipse
 62
7
  6
CONTINUOUS
 10
2.5
 20
20.0445070257
 30
0.0
 11
1.0
 21
0.0
 31
0.0
 40
0.0087268678
 41
6.2831853072
 42
7.853981634
  0
ELLIPSE
  5
849
100
AcDbEntity
  8
ASSI
100
AcDbEllipse
 62
7
  6
CONTINUOUS
 10
-2.5
 20
-20.0445070257
 30
0.0
 11
1.0
 21
-0.0
 31
0.0
 40
0.0087268678
 41
3.1415926536
 42
4.7123889804
  0
ELLIPSE
  5
84A
100
AcDbEntity
  8
ASSI
100
AcDbEllipse
 62
7
  6
CONTINUOUS
 10
0.0
 20
-20.1823915368
 30
0.0
 11
15.0
 21
-0.0
 31
0.0
 40
0.0087268678
 41
1.4073150204
 42
1.7342776332
  0
ELLIPSE
  5
84B
100
AcDbEntity
  8
ASSI
100
AcDbEllipse
 62
7
  6
CONTINUOUS
 10
-2.5
 20
20.0445070257
 30
0.0
 11
1.0
 21
0.0
 31
0.0
 40
0.0087268678
 41
1.5707963268
 42
3.1415926536
  0
ELLIPSE
  5
84C
100
AcDbEntity
  8
ASSI
100
AcDbEllipse
 62
7
  6
CONTINUOUS
 10
0.0
 20
20.1823915368
 30
0.0
 11
15.0
 21
-0.0
 31
0.0
 40
0.0087268678
 41
-1.7342776332
 42
-1.4073150204
  0
ELLIPSE
  5
84D
100
AcDbEntity
  8
ASSI
100
AcDbEllipse
 62
7
  6
CONTINUOUS
 10
7.3500333364
 20
20.1488813944
 30
0.0
 11
0.0
 21
0.3
 31
0.0
 40
0.0058178298
 41
-1.5707963268
 42
-0.0523598776
  0
ELLIPSE
  5
84E
100
AcDbEntity
  8
ASSI
100
AcDbEllipse
 62
7
  6
CONTINUOUS
 10
-7.3500333364
 20
-20.1488813944
 30
0.0
 11
0.0
 21
0.3
 31
0.0
 40
0.0058178298
 41
-4.7123889804
 42
-3.1939525311
  0
ELLIPSE
  5
84F
100
AcDbEntity
  8
ASSI
100
AcDbEllipse
 62
7
  6
CONTINUOUS
 10
7.3500333364
 20
-20.1488813944
 30
0.0
 11
-0.0
 21
0.3
 31
0.0
 40
0.0058178298
 41
-3.089232776
 42
-1.5707963268
  0
ELLIPSE
  5
850
100
AcDbEntity
  8
ASSI
100
AcDbEllipse
 62
7
  6
CONTINUOUS
 10
10.649923836
 20
-21.891254093
 30
0.0
 11
-0.4473055582
 21
-0.2236357461
 31
0.0
 40
0.9998096356
 41
7.3902883349
 42
8.9612369607
  0
ELLIPSE
  5
851
100
AcDbEntity
  8
ASSI
100
AcDbEllipse
 62
7
  6
CONTINUOUS
 10
-10.649923836
 20
21.891254093
 30
0.0
 11
0.4473055582
 21
0.2236357461
 31
0.0
 40
0.9998096356
 41
7.3902883349
 42
8.9612369607
  0
ELLIPSE
  5
852
100
AcDbEntity
  8
ASSI
100
AcDbEllipse
 62
7
  6
CONTINUOUS
 10
-3.9279699877
 20
22.3339198952
 30
0.0
 11
0.4279699877
 21
0.0
 31
0.0
 40
0.0087268678
 41
-3.1357748894
 42
-0.0
  0
ELLIPSE
  5
853
100
AcDbEntity
  8
ASSI
100
AcDbEllipse
 62
7
  6
CONTINUOUS
 10
-3.9279699877
 20
-22.3339198952
 30
0.0
 11
0.4279699877
 21
-0.0
 31
0.0
 40
0.0087268678
 41
0.0
 42
3.1357748894
  0
ELLIPSE
  5
854
100
AcDbEntity
  8
ASSI
100
AcDbEllipse
 62
7
  6
CONTINUOUS
 10
10.3999957691
 20
23.4113248654
 30
0.0
 11
-0.0029088041
 21
0.2886641433
 31
0.0
 40
0.8660144118
 41
-3.150319066
 42
-1.582431609
  0
ELLIPSE
  5
855
100
AcDbEntity
  8
ASSI
100
AcDbEllipse
 62
7
  6
CONTINUOUS
 10
8.5000042309
 20
23.4113248654
 30
0.0
 11
0.0029088041
 21
0.2886641433
 31
0.0
 40
0.8660144118
 41
-4.7007536982
 42
-3.1328662411
  0
ELLIPSE
  5
856
100
AcDbEntity
  8
ASSI
100
AcDbEllipse
 62
7
  6
CONTINUOUS
 10
-8.5000042309
 20
-23.4113248654
 30
0.0
 11
0.0029088041
 21
0.2886641433
 31
0.0
 40
0.8660144118
 41
-1.5591610446
 42
0.0087264124
  0
ELLIPSE
  5
857
100
AcDbEntity
  8
ASSI
100
AcDbEllipse
 62
7
  6
CONTINUOUS
 10
3.9279699877
 20
-22.3339198952
 30
0.0
 11
0.4279699877
 21
0.0
 31
0.0
 40
0.0087268678
 41
0.0058177642
 42
3.1415926536
  0
ELLIPSE
  5
858
100
AcDbEntity
  8
ASSI
100
AcDbEllipse
 62
7
  6
CONTINUOUS
 10
-4.3563662764
 20
23.2563578147
 30
0.0
 11
-0.0
 21
0.5
 31
0.0
 40
0.0058178298
 41
-0.149597008
 42
-0.0058177642
  0
ELLIPSE
  5
859
100
AcDbEntity
  8
ASSI
100
AcDbEllipse
 62
7
  6
CONTINUOUS
 10
-10.649923836
 20
-21.891254093
 30
0.0
 11
-0.4473055582
 21
0.2236357461
 31
0.0
 40
0.9998096356
 41
6.7467263073
 42
8.3176749331
  0
ELLIPSE
  5
85A
100
AcDbEntity
  8
ASSI
100
AcDbEllipse
 62
7
  6
CONTINUOUS
 10
-8.5000042309
 20
23.4113248654
 30
0.0
 11
-0.0029088041
 21
0.2886641433
 31
0.0
 40
0.8660144118
 41
-3.150319066
 42
-1.582431609
  0
ELLIPSE
  5
85B
100
AcDbEntity
  8
ASSI
100
AcDbEllipse
 62
7
  6
CONTINUOUS
 10
-10.3999957691
 20
23.4113248654
 30
0.0
 11
0.0029088041
 21
0.2886641433
 31
0.0
 40
0.8660144118
 41
-4.7007536982
 42
-3.1328662411
  0
ELLIPSE
  5
85C
100
AcDbEntity
  8
ASSI
100
AcDbEllipse
 62
7
  6
CONTINUOUS
 10
4.3563662764
 20
23.2563578147
 30
0.0
 11
-0.0
 21
0.5
 31
0.0
 40
0.0058178298
 41
0.0058177642
 42
0.149597008
  0
ELLIPSE
  5
85D
100
AcDbEntity
  8
ASSI
100
AcDbEllipse
 62
7
  6
CONTINUOUS
 10
-10.3999957691
 20
-23.4113248654
 30
0.0
 11
-0.0029088041
 21
0.2886641433
 31
0.0
 40
0.8660144118
 41
-0.0087264124
 42
1.5591610446
  0
ELLIPSE
  5
85E
100
AcDbEntity
  8
ASSI
100
AcDbEllipse
 62
7
  6
CONTINUOUS
 10
3.9279699877
 20
22.3339198952
 30
0.0
 11
0.4279699877
 21
-0.0
 31
0.0
 40
0.0087268678
 41
-3.1415926536
 42
-0.0058177642
  0
ELLIPSE
  5
85F
100
AcDbEntity
  8
ASSI
100
AcDbEllipse
 62
7
  6
CONTINUOUS
 10
10.649923836
 20
21.891254093
 30
0.0
 11
0.4473055582
 21
-0.2236357461
 31
0.0
 40
0.9998096356
 41
6.7467263073
 42
8.3176749331
  0
ELLIPSE
  5
860
100
AcDbEntity
  8
ASSI
100
AcDbEllipse
 62
7
  6
CONTINUOUS
 10
10.3999957691
 20
-23.4113248654
 30
0.0
 11
0.0029088041
 21
0.2886641433
 31
0.0
 40
0.8660144118
 41
-1.5591610446
 42
0.0087264124
  0
ELLIPSE
  5
861
100
AcDbEntity
  8
ASSI
100
AcDbEllipse
 62
7
  6
CONTINUOUS
 10
-7.3500333364
 20
20.1488813944
 30
0.0
 11
-0.0
 21
0.3
 31
0.0
 40
0.0058178298
 41
0.0523598776
 42
1.5707963268
  0
ELLIPSE
  5
862
100
AcDbEntity
  8
ASSI
100
AcDbEllipse
 62
7
  6
CONTINUOUS
 10
18.1942542824
 20
-0.0
 30
0.0
 11
0.0
 21
499.0
 31
0.0
 40
0.0174550649
 41
1.5489508684
 42
1.5573690623
  0
ELLIPSE
  5
863
100
AcDbEntity
  8
ASSI
100
AcDbEllipse
 62
7
  6
CONTINUOUS
 10
18.1942542824
 20
0.0
 30
0.0
 11
0.0
 21
499.0
 31
0.0
 40
0.0174550649
 41
1.5389272034
 42
1.5473472524
  0
ELLIPSE
  5
864
100
AcDbEntity
  8
ASSI
100
AcDbEllipse
 62
7
  6
CONTINUOUS
 10
8.5000042309
 20
-23.4113248654
 30
0.0
 11
-0.0029088041
 21
0.2886641433
 31
0.0
 40
0.8660144118
 41
-0.0087264124
 42
1.5591610446
  0
ELLIPSE
  5
865
100
AcDbEntity
  8
DRAFT
100
AcDbEllipse
 62
7
  6
CONTINUOUS
 10
9.5435585137
 20
8.8
 30
0.0
 11
0.0
 21
2.1
 31
0.0
 40
0.0087268678
 41
-3.1415926536
 42
-0.0
  0
ELLIPSE
  5
866
100
AcDbEntity
  8
DRAFT
100
AcDbEllipse
 62
7
  6
CONTINUOUS
 10
9.5435585137
 20
13.8
 30
0.0
 11
0.0
 21
2.1
 31
0.0
 40
0.0087268678
 41
-3.1415926536
 42
-0.0
  0
ELLIPSE
  5
867
100
AcDbEntity
  8
RACCORDO
100
AcDbEllipse
 62
7
  6
CONTINUOUS
 10
9.1496953439
 20
17.6714466826
 30
0.0
 11
1.8480888181
 21
0.7655034529
 31
0.0
 40
0.9998215708
 41
-0.3926359958
 42
0.3926359958
  0
ELLIPSE
  5
868
100
AcDbEntity
  8
RACCORDO
100
AcDbEllipse
 62
7
  6
CONTINUOUS
 10
9.1496953439
 20
-17.6714466826
 30
0.0
 11
1.8480888181
 21
-0.7655034529
 31
0.0
 40
0.9998215708
 41
-0.3926359958
 42
0.3926359958
  0
ELLIPSE
  5
869
100
AcDbEntity
  8
RACCORDO
100
AcDbEllipse
 62
7
  6
CONTINUOUS
 10
-9.1496953439
 20
-17.6714466826
 30
0.0
 11
1.8480888181
 21
0.7655034529
 31
0.0
 40
0.9998215708
 41
2.7489566578
 42
3.5342286494
  0
ELLIPSE
  5
86A
100
AcDbEntity
  8
RACCORDO
100
AcDbEllipse
 62
7
  6
CONTINUOUS
 10
-9.1496953439
 20
17.6714466826
 30
0.0
 11
1.8480888181
 21
-0.7655034529
 31
0.0
 40
0.9998215708
 41
2.7489566578
 42
3.5342286494
  0
ELLIPSE
  5
86B
100
AcDbEntity
  8
RACCORDO
100
AcDbEllipse
 62
7
  6
CONTINUOUS
 10
8.6871361233
 20
-17.47984838
 30
0.0
 11
-1.8480888181
 21
0.7655034529
 31
0.0
 40
0.9998215708
 41
9.032141965
 42
9.8174139566
  0
ELLIPSE
  5
86C
100
AcDbEntity
  8
DRAFT
100
AcDbEllipse
 62
7
  6
CONTINUOUS
 10
10.5870741561
 20
13.8
 30
0.0
 11
0.0
 21
2.1
 31
0.0
 40
0.0174550649
 41
-3.1415926536
 42
0.0
  0
ELLIPSE
  5
86D
100
AcDbEntity
  8
DRAFT
100
AcDbEllipse
 62
7
  6
CONTINUOUS
 10
10.5870741561
 20
8.8
 30
0.0
 11
0.0
 21
2.1
 31
0.0
 40
0.0174550649
 41
-3.1415926536
 42
0.0
  0
ELLIPSE
  5
86E
100
AcDbEntity
  8
RACCORDO
100
AcDbEllipse
 62
7
  6
CONTINUOUS
 10
9.3778922769
 20
-18.6108268408
 30
0.0
 11
-0.3827517265
 21
0.924044409
 31
0.0
 40
0.9998215708
 41
-3.5342286494
 42
-2.7489566578
  0
ELLIPSE
  5
86F
100
AcDbEntity
  8
RACCORDO
100
AcDbEllipse
 62
7
  6
CONTINUOUS
 10
-9.3778922769
 20
-18.6108268408
 30
0.0
 11
0.3827517265
 21
0.924044409
 31
0.0
 40
0.9998215708
 41
-3.5342286494
 42
-2.7489566578
  0
ELLIPSE
  5
870
100
AcDbEntity
  8
RACCORDO
100
AcDbEllipse
 62
7
  6
CONTINUOUS
 10
1.5981173983
 20
-19.8982544935
 30
0.0
 11
0.9
 21
-0.0
 31
0.0
 40
0.0174550649
 41
0.0174532925
 42
1.5707963268
  0
ELLIPSE
  5
871
100
AcDbEntity
  8
RACCORDO
100
AcDbEllipse
 62
7
  6
CONTINUOUS
 10
9.4865552047
 20
-2.8996790988
 30
0.0
 11
0.0
 21
1.0087649462
 31
0.0
 40
0.9913112106
 41
-1.5533430343
 42
0.0
  0
ELLIPSE
  5
872
100
AcDbEntity
  8
RACCORDO
100
AcDbEllipse
 62
7
  6
CONTINUOUS
 10
-9.3778922769
 20
18.6108268408
 30
0.0
 11
-0.3827517265
 21
0.924044409
 31
0.0
 40
0.9998215708
 41
-0.3926359958
 42
0.3926359958
  0
ELLIPSE
  5
873
100
AcDbEntity
  8
RACCORDO
100
AcDbEllipse
 62
7
  6
CONTINUOUS
 10
-1.5981173983
 20
19.8982544935
 30
0.0
 11
0.9
 21
-0.0
 31
0.0
 40
0.0174550649
 41
-3.1241393611
 42
-1.5707963268
  0
ELLIPSE
  5
874
100
AcDbEntity
  8
RACCORDO
100
AcDbEllipse
 62
7
  6
CONTINUOUS
 10
9.3778922769
 20
18.6108268408
 30
0.0
 11
0.3827517265
 21
0.924044409
 31
0.0
 40
0.9998215708
 41
-0.3926359958
 42
0.3926359958
  0
ELLIPSE
  5
875
100
AcDbEntity
  8
RACCORDO
100
AcDbEllipse
 62
7
  6
CONTINUOUS
 10
1.5981173983
 20
19.8982544935
 30
0.0
 11
0.9
 21
0.0
 31
0.0
 40
0.0174550649
 41
-1.5707963268
 42
-0.0174532925
  0
ELLIPSE
  5
876
100
AcDbEntity
  8
RACCORDO
100
AcDbEllipse
 62
7
  6
CONTINUOUS
 10
9.2585952206
 20
-18.3228182695
 30
0.0
 11
0.3827517265
 21
-0.924044409
 31
0.0
 40
0.9998215708
 41
5.8905493114
 42
6.675821303
  0
ELLIPSE
  5
877
100
AcDbEntity
  8
RACCORDO
100
AcDbEllipse
 62
7
  6
CONTINUOUS
 10
-1.5981173983
 20
-19.8982544935
 30
0.0
 11
0.9
 21
-0.0
 31
0.0
 40
0.0174550649
 41
1.5707963268
 42
3.1241393611
  0
ELLIPSE
  5
878
100
AcDbEntity
  8
ASSI
100
AcDbEllipse
 62
7
  6
CONTINUOUS
 10
-9.1496953439
 20
17.6714466826
 30
0.0
 11
1.8480888181
 21
-0.7655034529
 31
0.0
 40
0.9998215708
 41
2.7489566578
 42
3.5342286494
  0
ELLIPSE
  5
879
100
AcDbEntity
  8
ASSI
100
AcDbEllipse
 62
7
  6
CONTINUOUS
 10
-9.1496953439
 20
-17.6714466826
 30
0.0
 11
1.8480888181
 21
0.7655034529
 31
0.0
 40
0.9998215708
 41
2.7489566578
 42
3.5342286494
  0
ELLIPSE
  5
87A
100
AcDbEntity
  8
ASSI
100
AcDbEllipse
 62
7
  6
CONTINUOUS
 10
9.1496953439
 20
-17.6714466826
 30
0.0
 11
1.8480888181
 21
-0.7655034529
 31
0.0
 40
0.9998215708
 41
-0.3926359958
 42
0.3926359958
  0
ELLIPSE
  5
87B
100
AcDbEntity
  8
ASSI
100
AcDbEllipse
 62
7
  6
CONTINUOUS
 10
9.1496953439
 20
17.6714466826
 30
0.0
 11
1.8480888181
 21
0.7655034529
 31
0.0
 40
0.9998215708
 41
-0.3926359958
 42
0.3926359958
  0
ELLIPSE
  5
87C
100
AcDbEntity
  8
ASSI
100
AcDbEllipse
 62
7
  6
CONTINUOUS
 10
9.5435585137
 20
13.8
 30
0.0
 11
0.0
 21
2.1
 31
0.0
 40
0.0087268678
 41
-3.1415926536
 42
-0.0
  0
ELLIPSE
  5
87D
100
AcDbEntity
  8
ASSI
100
AcDbEllipse
 62
7
  6
CONTINUOUS
 10
9.5435585137
 20
8.8
 30
0.0
 11
0.0
 21
2.1
 31
0.0
 40
0.0087268678
 41
-3.1415926536
 42
-0.0
  0
ELLIPSE
  5
87E
100
AcDbEntity
  8
ASSI
100
AcDbEllipse
 62
7
  6
CONTINUOUS
 10
1.5981173983
 20
19.8982544935
 30
0.0
 11
0.9
 21
0.0
 31
0.0
 40
0.0174550649
 41
-1.5707963268
 42
-0.0174532925
  0
ELLIPSE
  5
87F
100
AcDbEntity
  8
ASSI
100
AcDbEllipse
 62
7
  6
CONTINUOUS
 10
-1.5981173983
 20
19.8982544935
 30
0.0
 11
0.9
 21
-0.0
 31
0.0
 40
0.0174550649
 41
-3.1241393611
 42
-1.5707963268
  0
ELLIPSE
  5
880
100
AcDbEntity
  8
ASSI
100
AcDbEllipse
 62
7
  6
CONTINUOUS
 10
8.6871361233
 20
-17.47984838
 30
0.0
 11
-1.8480888181
 21
0.7655034529
 31
0.0
 40
0.9998215708
 41
2.7489566578
 42
3.5342286494
  0
ELLIPSE
  5
881
100
AcDbEntity
  8
ASSI
100
AcDbEllipse
 62
7
  6
CONTINUOUS
 10
9.3778922769
 20
18.6108268408
 30
0.0
 11
0.3827517265
 21
0.924044409
 31
0.0
 40
0.9998215708
 41
-0.3926359958
 42
0.3926359958
  0
ELLIPSE
  5
882
100
AcDbEntity
  8
ASSI
100
AcDbEllipse
 62
7
  6
CONTINUOUS
 10
-9.3778922769
 20
18.6108268408
 30
0.0
 11
-0.3827517265
 21
0.924044409
 31
0.0
 40
0.9998215708
 41
-0.3926359958
 42
0.3926359958
  0
ELLIPSE
  5
883
100
AcDbEntity
  8
ASSI
100
AcDbEllipse
 62
7
  6
CONTINUOUS
 10
-9.3778922769
 20
-18.6108268408
 30
0.0
 11
0.3827517265
 21
0.924044409
 31
0.0
 40
0.9998215708
 41
-3.5342286494
 42
-2.7489566578
  0
ELLIPSE
  5
884
100
AcDbEntity
  8
ASSI
100
AcDbEllipse
 62
7
  6
CONTINUOUS
 10
9.3778922769
 20
-18.6108268408
 30
0.0
 11
-0.3827517265
 21
0.924044409
 31
0.0
 40
0.9998215708
 41
-3.5342286494
 42
-2.7489566578
  0
ELLIPSE
  5
885
100
AcDbEntity
  8
ASSI
100
AcDbEllipse
 62
7
  6
CONTINUOUS
 10
9.2585952206
 20
-18.3228182695
 30
0.0
 11
0.3827517265
 21
-0.924044409
 31
0.0
 40
0.9998215708
 41
-0.3926359958
 42
0.3926359958
  0
ELLIPSE
  5
886
100
AcDbEntity
  8
ASSI
100
AcDbEllipse
 62
7
  6
CONTINUOUS
 10
10.5870741561
 20
13.8
 30
0.0
 11
0.0
 21
2.1
 31
0.0
 40
0.0174550649
 41
-3.1415926536
 42
0.0
  0
ELLIPSE
  5
887
100
AcDbEntity
  8
ASSI
100
AcDbEllipse
 62
7
  6
CONTINUOUS
 10
10.5870741561
 20
8.8
 30
0.0
 11
0.0
 21
2.1
 31
0.0
 40
0.0174550649
 41
-3.1415926536
 42
0.0
  0
ELLIPSE
  5
888
100
AcDbEntity
  8
ASSI
100
AcDbEllipse
 62
7
  6
CONTINUOUS
 10
9.4865552047
 20
-2.8996790988
 30
0.0
 11
0.0
 21
1.0087649462
 31
0.0
 40
0.9913112106
 41
-1.5533430343
 42
0.0
  0
ELLIPSE
  5
889
100
AcDbEntity
  8
ASSI
100
AcDbEllipse
 62
7
  6
CONTINUOUS
 10
1.5981173983
 20
-19.8982544935
 30
0.0
 11
0.9
 21
-0.0
 31
0.0
 40
0.0174550649
 41
0.0174532925
 42
1.5707963268
  0
ELLIPSE
  5
88A
100
AcDbEntity
  8
ASSI
100
AcDbEllipse
 62
7
  6
CONTINUOUS
 10
-1.5981173983
 20
-19.8982544935
 30
0.0
 11
0.9
 21
-0.0
 31
0.0
 40
0.0174550649
 41
1.5707963268
 42
3.1241393611
  0
ELLIPSE
  5
88B
100
AcDbEntity
  8
CURVE
100
AcDbEllipse
 62
253
  6
CONTINUOUS
 10
10.8977400999
 20
-15.9
 30
0.0
 11
0.0
 21
2.5499986575
 31
0.0
 40
0.0174550649
 41
-1.6100220921
 42
1.6100220921
  0
ELLIPSE
  5
88C
100
AcDbEntity
  8
CURVE
100
AcDbEllipse
 62
253
  6
CONTINUOUS
 10
10.8977400999
 20
-15.9
 30
0.0
 11
0.0
 21
1.7999999246
 31
0.0
 40
0.0174550649
 41
-1.6263805024
 42
-0.2098706012
  0
ELLIPSE
  5
88D
100
AcDbEntity
  8
CURVE
100
AcDbEllipse
 62
253
  6
CONTINUOUS
 10
10.8977400999
 20
-15.9
 30
0.0
 11
0.0
 21
1.7999968808
 31
0.0
 40
0.0174550649
 41
0.2098709614
 42
1.6263805965
  0
ELLIPSE
  5
88E
100
AcDbEntity
  8
CURVE
100
AcDbEllipse
 62
253
  6
CONTINUOUS
 10
10.8977400999
 20
-11.51489
 30
0.0
 11
0.0
 21
2.5499985399
 31
0.0
 40
0.0174550649
 41
-1.6100220939
 42
1.6100220939
  0
ELLIPSE
  5
88F
100
AcDbEntity
  8
CURVE
100
AcDbEllipse
 62
253
  6
CONTINUOUS
 10
10.8977400999
 20
-11.51489
 30
0.0
 11
0.0
 21
1.7999999246
 31
0.0
 40
0.0174550649
 41
-1.6263805024
 42
1.6263805024
  0
ENDSEC
  0
SECTION
  2
OBJECTS
  0
DICTIONARY
  5
C
100
AcDbDictionary
280
0
281
1
  3
ACAD_GROUP
350
D
  3
ACAD_MLINESTYLE
350
17
  3
ACAD_LAYOUT
350
1A
  3
ACAD_PLOTSETTINGS
350
19
  3
ACAD_PLOTSTYLENAME
350
E
  0
DICTIONARY
  5
D
102
{ACAD_REACTORS
330
C
102
}
100
AcDbDictionary
280
0
281
1
  0
ACDBDICTIONARYWDFLT
  5
E
102
{ACAD_REACTORS
330
C
102
}
100
AcDbDictionary
281
1
  3
Normal
350
F
100
AcDbDictionaryWithDefault
340
F
  0
DICTIONARY
  5
17
102
{ACAD_REACTORS
330
C
102
}
100
AcDbDictionary
280
0
281
1
  3
Standard
350
18
  0
DICTIONARY
  5
19
102
{ACAD_REACTORS
330
C
102
}
100
AcDbDictionary
281
1
  0
DICTIONARY
  5
1A
102
{ACAD_REACTORS
330
C
102
}
100
AcDbDictionary
281
1
  3
Model
350
890
  3
Layout1
350
891
  0
ACDBPLACEHOLDER
  5
F
102
{ACAD_REACTORS
330
E
102
}
  0
MLINESTYLE
  5
18
102
{ACAD_REACTORS
330
17
102
}
100
AcDbMlineStyle
  2
STANDARD
 70
0
  3

 62
256
 51
90.0
 52
90.0
 71
2
 49
0.5
 62
256
  6
BYLAYER
 49
-0.5
 62
256
  6
BYLAYER
  0
LAYOUT
  5
890
102
{ACAD_REACTORS
330
1A
102
}
100
AcDbPlotSettings
  1

  2
none_device
  4
ISO_A4_(297.00_x_210.00_MM)
  6

 40
0.0
 41
0.0
 42
0.0
 43
0.0
 44
297.0
 45
210.0
 46
0.0
 47
0.0
 48
0.0
 49
0.0
140
0.0
141
0.0
142
1.0
143
1.0
 70
1024
 72
1
 73
0
 74
0
  7

 75
0
147
1.0
148
0.0
149
0.0
100
AcDbLayout
  1
Model
 70
0
 71
0
 10
0.0
 20
0.0
 11
297.0
 21
210.0
 12
0.0
 22
0.0
 32
0.0
 14
0.0
 24
0.0
 34
0.0
 15
0.0
 25
0.0
 35
0.0
146
0.0
 13
0.0
 23
0.0
 33
0.0
 16
1.0
 26
0.0
 36
0.0
 17
0.0
 27
1.0
 37
0.0
 76
0
330
23A
345
0
346
0
  0
LAYOUT
  5
891
102
{ACAD_REACTORS
330
1A
102
}
100
AcDbPlotSettings
  1

  2
none_device
  4
ISO_A4_(297.00_x_210.00_MM)
  6

 40
0.0
 41
0.0
 42
0.0
 43
0.0
 44
297.0
 45
210.0
 46
0.0
 47
0.0
 48
0.0
 49
0.0
140
0.0
141
0.0
142
1.0
143
1.0
 70
0
 72
1
 73
0
 74
0
  7

 75
0
147
1.0
148
0.0
149
0.0
100
AcDbLayout
  1
Layout1
 70
0
 71
1
 10
0.0
 20
0.0
 11
297.0
 21
210.0
 12
0.0
 22
0.0
 32
0.0
 14
0.0
 24
0.0
 34
0.0
 15
0.0
 25
0.0
 35
0.0
146
0.0
 13
0.0
 23
0.0
 33
0.0
 16
1.0
 26
0.0
 36
0.0
 17
0.0
 27
1.0
 37
0.0
 76
0
330
23B
345
0
346
0
  0
ENDSEC
  0
EOF
