  0
SECTION
  2
HEADER
  9
$ACADVER
  1
AC1015
  9
$DWGCODEPAGE
  3
ANSI_1252
  9
$EXTMAX
 10
297.0
 20
210.0
 30
0.0
  9
$EXTMIN
 10
0.0
 20
0.0
 30
0.0
  9
$LIMMIN
 10
0.0
 20
0.0
  9
$LIMMAX
 10
297.0
 20
210.0
  9
$VIEWCTR
 10
148.5
 20
105.0
  9
$VIEWSIZE
 40
210.0
  9
$CLAYER
  8
0
  9
$LTSCALE
 40
16.335
  9
$CELTYPE
  6
BYLAYER
  9
$DIMSCALE
 40
1.0
  9
$DIMASZ
 40
3.0
  9
$DIMEXO
 40
1.85625
  9
$DIMDLI
 40
11.286
  9
$DIMEXE
 40
5.346
  9
$DIMCEN
 40
2.673
  9
$DIMLFAC
 40
1.0
  9
$DIMBLK
  1
_FILLED
  9
$DIMTXT
 40
3.0
  9
$DIMTOL
 70
1
  9
$DIMLIM
 70
0
  9
$DIMTFAC
 40
1.0
  9
$DIMTP
 40
0.01
  9
$DIMTM
 40
0.01
  9
$PDMODE
 70
3
  9
$PDSIZE
 40
3.0
  9
$HANDSEED
  5
77E
  9
$TILEMODE
 70
1
  9
$MEASUREMENT
 70
1
  9
$INSUNITS
 70
4
  0
ENDSEC
  0
SECTION
  2
CLASSES
  0
CLASS
  1
ACDBDICTIONARYWDFLT
  2
AcDbDictionaryWithDefault
  3
AutoCAD 2000
 90
0
280
0
281
0
  0
CLASS
  1
ACDBPLACEHOLDER
  2
AcDbPlaceHolder
  3
AutoCAD 2000
 90
0
280
0
281
0
  0
CLASS
  1
LAYOUT
  2
AcDbLayout
  3
AutoCAD 2000
 90
0
280
0
281
0
  0
ENDSEC
  0
SECTION
  2
TABLES
  0
TABLE
  2
VPORT
  5
8
100
AcDbSymbolTable
 70
2
  0
VPORT
  5
1F4
100
AcDbSymbolTableRecord
100
AcDbViewportTableRecord
  2
*ACTIVE
 70
0
 10
0.0
 20
0.0
 11
1.0
 21
1.0
 12
148.5
 22
105.0
 13
0.0
 23
0.0
 14
1.0
 24
1.0
 15
0.0
 25
0.0
 16
0.0
 26
0.0
 36
1.0
 17
0.0
 27
0.0
 37
0.0
 40
210.0
 41
1.4142857143
 42
50.0
 43
0.0
 44
0.0
 50
0.0
 51
0.0
 71
0
 72
100
 73
1
 74
1
 75
0
 76
0
 77
0
 78
0
  0
ENDTAB
  0
TABLE
  2
LTYPE
  5
5
100
AcDbSymbolTable
 70
6
  0
LTYPE
  5
14
100
AcDbSymbolTableRecord
100
AcDbLinetypeTableRecord
  2
BYBLOCK
 70
0
  3

 72
65
 73
0
 40
0.0
  0
LTYPE
  5
15
100
AcDbSymbolTableRecord
100
AcDbLinetypeTableRecord
  2
BYLAYER
 70
0
  3

 72
65
 73
0
 40
0.0
  0
LTYPE
  5
16
100
AcDbSymbolTableRecord
100
AcDbLinetypeTableRecord
  2
CONTINUOUS
 70
64
  3
Solid line
 72
65
 73
0
 40
0.0
  0
LTYPE
  5
1F5
100
AcDbSymbolTableRecord
100
AcDbLinetypeTableRecord
  2
CENTER
 70
64
  3
____ _ ____ _ ____ _ ____ _ ____ _ ____ _ ____
 72
65
 73
4
 40
0.6
 49
0.375
 74
0
 49
-0.075
 74
0
 49
0.075
 74
0
 49
-0.075
 74
0
  0
LTYPE
  5
1F6
100
AcDbSymbolTableRecord
100
AcDbLinetypeTableRecord
  2
HIDDEN
 70
64
  3
- - - - - - - - - - - - - - - - - - - -
 72
65
 73
2
 40
0.2
 49
0.1
 74
0
 49
-0.1
 74
0
  0
LTYPE
  5
1F7
100
AcDbSymbolTableRecord
100
AcDbLinetypeTableRecord
  2
PHANTOM
 70
64
  3
_____ _ _ _____ _ _ _____ _ _ _____
 72
65
 73
6
 40
0.8
 49
0.45
 74
0
 49
-0.05
 74
0
 49
0.1
 74
0
 49
-0.05
 74
0
 49
0.1
 74
0
 49
-0.05
 74
0
  0
LTYPE
  5
1F8
100
AcDbSymbolTableRecord
100
AcDbLinetypeTableRecord
  2
DOT
 70
64
  3
. . . . . . . . . . . . . . . . . . . .
 72
65
 73
2
 40
0.2
 49
0.1
 74
0
 49
-0.1
 74
0
  0
LTYPE
  5
1F9
100
AcDbSymbolTableRecord
100
AcDbLinetypeTableRecord
  2
DASHED
 70
64
  3
- - - - - - - - - - - - - - - - - - - -
 72
65
 73
2
 40
0.2
 49
0.1
 74
0
 49
-0.1
 74
0
  0
ENDTAB
  0
TABLE
  2
LAYER
  5
2
100
AcDbSymbolTable
 70
36
  0
LAYER
  5
10
100
AcDbSymbolTableRecord
100
AcDbLayerTableRecord
  2
0
 70
0
 62
7
  6
CONTINUOUS
370
-3
390
F
  0
LAYER
  5
1FA
100
AcDbSymbolTableRecord
100
AcDbLayerTableRecord
  2
DEFAULT_1
 70
0
 62
7
  6
CENTER
370
-3
390
F
  0
LAYER
  5
1FB
100
AcDbSymbolTableRecord
100
AcDbLayerTableRecord
  2
DEFAULT_2
 70
0
 62
7
  6
HIDDEN
370
-3
390
F
  0
LAYER
  5
1FC
100
AcDbSymbolTableRecord
100
AcDbLayerTableRecord
  2
DEFAULT_3
 70
0
 62
7
  6
PHANTOM
370
-3
390
F
  0
LAYER
  5
1FD
100
AcDbSymbolTableRecord
100
AcDbLayerTableRecord
  2
ASSI
 70
0
 62
7
  6
CONTINUOUS
370
-3
390
F
  0
LAYER
  5
1FE
100
AcDbSymbolTableRecord
100
AcDbLayerTableRecord
  2
COLOR19
 70
0
 62
7
  6
CONTINUOUS
370
-3
390
F
  0
LAYER
  5
1FF
100
AcDbSymbolTableRecord
100
AcDbLayerTableRecord
  2
COLOR23
 70
0
 62
7
  6
CONTINUOUS
370
-3
390
F
  0
LAYER
  5
200
100
AcDbSymbolTableRecord
100
AcDbLayerTableRecord
  2
COLOR7
 70
0
 62
7
  6
CONTINUOUS
370
-3
390
F
  0
LAYER
  5
201
100
AcDbSymbolTableRecord
100
AcDbLayerTableRecord
  2
COORDINATE
 70
0
 62
7
  6
CONTINUOUS
370
-3
390
F
  0
LAYER
  5
202
100
AcDbSymbolTableRecord
100
AcDbLayerTableRecord
  2
COORD_ORIGINE
 70
0
 62
7
  6
CONTINUOUS
370
-3
390
F
  0
LAYER
  5
203
100
AcDbSymbolTableRecord
100
AcDbLayerTableRecord
  2
COPY_PUBLISH
 70
0
 62
7
  6
CONTINUOUS
370
-3
390
F
  0
LAYER
  5
204
100
AcDbSymbolTableRecord
100
AcDbLayerTableRecord
  2
COSMETIC
 70
0
 62
7
  6
CONTINUOUS
370
-3
390
F
  0
LAYER
  5
205
100
AcDbSymbolTableRecord
100
AcDbLayerTableRecord
  2
CURVE
 70
0
 62
7
  6
CONTINUOUS
370
-3
390
F
  0
LAYER
  5
206
100
AcDbSymbolTableRecord
100
AcDbLayerTableRecord
  2
DRAFT
 70
0
 62
7
  6
CONTINUOUS
370
-3
390
F
  0
LAYER
  5
207
100
AcDbSymbolTableRecord
100
AcDbLayerTableRecord
  2
IMPORT
 70
0
 62
7
  6
CONTINUOUS
370
-3
390
F
  0
LAYER
  5
208
100
AcDbSymbolTableRecord
100
AcDbLayerTableRecord
  2
IMPORT_IGES
 70
0
 62
7
  6
CONTINUOUS
370
-3
390
F
  0
LAYER
  5
209
100
AcDbSymbolTableRecord
100
AcDbLayerTableRecord
  2
INTFCLR_1
 70
0
 62
7
  6
CONTINUOUS
370
-3
390
F
  0
LAYER
  5
20A
100
AcDbSymbolTableRecord
100
AcDbLayerTableRecord
  2
INTFCLR_1_1
 70
0
 62
7
  6
CONTINUOUS
370
-3
390
F
  0
LAYER
  5
20B
100
AcDbSymbolTableRecord
100
AcDbLayerTableRecord
  2
INTFCLR_1_2
 70
0
 62
7
  6
CONTINUOUS
370
-3
390
F
  0
LAYER
  5
20C
100
AcDbSymbolTableRecord
100
AcDbLayerTableRecord
  2
INTFCLR_2169
 70
0
 62
7
  6
CONTINUOUS
370
-3
390
F
  0
LAYER
  5
20D
100
AcDbSymbolTableRecord
100
AcDbLayerTableRecord
  2
INTFCLR_3737
 70
0
 62
7
  6
CONTINUOUS
370
-3
390
F
  0
LAYER
  5
20E
100
AcDbSymbolTableRecord
100
AcDbLayerTableRecord
  2
INTFCLR_4685
 70
0
 62
7
  6
CONTINUOUS
370
-3
390
F
  0
LAYER
  5
20F
100
AcDbSymbolTableRecord
100
AcDbLayerTableRecord
  2
INTFCLR_7651
 70
0
 62
7
  6
CONTINUOUS
370
-3
390
F
  0
LAYER
  5
210
100
AcDbSymbolTableRecord
100
AcDbLayerTableRecord
  2
INTFCLR_9403
 70
0
 62
7
  6
CONTINUOUS
370
-3
390
F
  0
LAYER
  5
211
100
AcDbSymbolTableRecord
100
AcDbLayerTableRecord
  2
INTF_1
 70
0
 62
7
  6
CONTINUOUS
370
-3
390
F
  0
LAYER
  5
212
100
AcDbSymbolTableRecord
100
AcDbLayerTableRecord
  2
INTF_10
 70
0
 62
7
  6
CONTINUOUS
370
-3
390
F
  0
LAYER
  5
213
100
AcDbSymbolTableRecord
100
AcDbLayerTableRecord
  2
INTF_3
 70
0
 62
7
  6
CONTINUOUS
370
-3
390
F
  0
LAYER
  5
214
100
AcDbSymbolTableRecord
100
AcDbLayerTableRecord
  2
INTF_5
 70
0
 62
7
  6
CONTINUOUS
370
-3
390
F
  0
LAYER
  5
215
100
AcDbSymbolTableRecord
100
AcDbLayerTableRecord
  2
INTF_7
 70
0
 62
7
  6
CONTINUOUS
370
-3
390
F
  0
LAYER
  5
216
100
AcDbSymbolTableRecord
100
AcDbLayerTableRecord
  2
INTF_8
 70
0
 62
7
  6
CONTINUOUS
370
-3
390
F
  0
LAYER
  5
217
100
AcDbSymbolTableRecord
100
AcDbLayerTableRecord
  2
INTF_9
 70
0
 62
7
  6
CONTINUOUS
370
-3
390
F
  0
LAYER
  5
218
100
AcDbSymbolTableRecord
100
AcDbLayerTableRecord
  2
INTF_GREEN
 70
0
 62
7
  6
CONTINUOUS
370
-3
390
F
  0
LAYER
  5
219
100
AcDbSymbolTableRecord
100
AcDbLayerTableRecord
  2
INTF_RED
 70
0
 62
7
  6
CONTINUOUS
370
-3
390
F
  0
LAYER
  5
21A
100
AcDbSymbolTableRecord
100
AcDbLayerTableRecord
  2
LAY0001
 70
0
 62
7
  6
CONTINUOUS
370
-3
390
F
  0
LAYER
  5
21B
100
AcDbSymbolTableRecord
100
AcDbLayerTableRecord
  2
NOTE
 70
0
 62
7
  6
CONTINUOUS
370
-3
390
F
  0
LAYER
  5
21C
100
AcDbSymbolTableRecord
100
AcDbLayerTableRecord
  2
PCB
 70
0
 62
7
  6
CONTINUOUS
370
-3
390
F
  0
LAYER
  5
21D
100
AcDbSymbolTableRecord
100
AcDbLayerTableRecord
  2
PIANI
 70
0
 62
7
  6
CONTINUOUS
370
-3
390
F
  0
LAYER
  5
21E
100
AcDbSymbolTableRecord
100
AcDbLayerTableRecord
  2
PIANI_ORIGINE
 70
0
 62
7
  6
CONTINUOUS
370
-3
390
F
  0
LAYER
  5
21F
100
AcDbSymbolTableRecord
100
AcDbLayerTableRecord
  2
PIANI_RIFERIMENTO
 70
0
 62
7
  6
CONTINUOUS
370
-3
390
F
  0
LAYER
  5
220
100
AcDbSymbolTableRecord
100
AcDbLayerTableRecord
  2
PUNTI
 70
0
 62
7
  6
CONTINUOUS
370
-3
390
F
  0
LAYER
  5
221
100
AcDbSymbolTableRecord
100
AcDbLayerTableRecord
  2
RACCORDO
 70
0
 62
7
  6
CONTINUOUS
370
-3
390
F
  0
LAYER
  5
222
100
AcDbSymbolTableRecord
100
AcDbLayerTableRecord
  2
SMUSSO
 70
0
 62
7
  6
CONTINUOUS
370
-3
390
F
  0
LAYER
  5
223
100
AcDbSymbolTableRecord
100
AcDbLayerTableRecord
  2
SPEAKER_TERMINAL-BLOCK_JACK
 70
0
 62
7
  6
CONTINUOUS
370
-3
390
F
  0
LAYER
  5
224
100
AcDbSymbolTableRecord
100
AcDbLayerTableRecord
  2
SUPERFICI
 70
0
 62
7
  6
CONTINUOUS
370
-3
390
F
  0
LAYER
  5
225
100
AcDbSymbolTableRecord
100
AcDbLayerTableRecord
  2
TRASH
 70
0
 62
7
  6
CONTINUOUS
370
-3
390
F
  0
LAYER
  5
226
100
AcDbSymbolTableRecord
100
AcDbLayerTableRecord
  2
XSEC_DATUMS
 70
0
 62
7
  6
CONTINUOUS
370
-3
390
F
  0
LAYER
  5
227
100
AcDbSymbolTableRecord
100
AcDbLayerTableRecord
  2
___SHELL
 70
0
 62
7
  6
CONTINUOUS
370
-3
390
F
  0
LAYER
  5
228
100
AcDbSymbolTableRecord
100
AcDbLayerTableRecord
  2
____-4671
 70
0
 62
7
  6
CONTINUOUS
370
-3
390
F
  0
LAYER
  5
229
100
AcDbSymbolTableRecord
100
AcDbLayerTableRecord
  2
____-4671_1
 70
0
 62
7
  6
CONTINUOUS
370
-3
390
F
  0
LAYER
  5
22A
100
AcDbSymbolTableRecord
100
AcDbLayerTableRecord
  2
____-7645
 70
0
 62
7
  6
CONTINUOUS
370
-3
390
F
  0
LAYER
  5
22B
100
AcDbSymbolTableRecord
100
AcDbLayerTableRecord
  2
____-9019
 70
0
 62
7
  6
CONTINUOUS
370
-3
390
F
  0
LAYER
  5
22C
100
AcDbSymbolTableRecord
100
AcDbLayerTableRecord
  2
____-9019_1
 70
0
 62
7
  6
CONTINUOUS
370
-3
390
F
  0
LAYER
  5
22D
100
AcDbSymbolTableRecord
100
AcDbLayerTableRecord
  2
____-9397
 70
0
 62
7
  6
CONTINUOUS
370
-3
390
F
  0
LAYER
  5
22E
100
AcDbSymbolTableRecord
100
AcDbLayerTableRecord
  2
____IDC
 70
0
 62
7
  6
CONTINUOUS
370
-3
390
F
  0
LAYER
  5
22F
100
AcDbSymbolTableRecord
100
AcDbLayerTableRecord
  2
______IDC-2P
 70
0
 62
7
  6
CONTINUOUS
370
-3
390
F
  0
ENDTAB
  0
TABLE
  2
STYLE
  5
3
100
AcDbSymbolTable
 70
1
  0
STYLE
  5
11
100
AcDbSymbolTableRecord
100
AcDbTextStyleTableRecord
  2
STANDARD
 70
0
 40
0.0
 41
0.8
 50
0.0
 71
0
 42
0.2
  3
txt
  4

  0
STYLE
  5
230
100
AcDbSymbolTableRecord
100
AcDbTextStyleTableRecord
  2
TEXTSTYLE_1
 70
0
 40
0.0
 41
0.8
 50
0.0
 71
0
 42
0.2
  3
gdt
  4

  0
ENDTAB
  0
TABLE
  2
VIEW
  5
6
100
AcDbSymbolTable
 70
0
  0
ENDTAB
  0
TABLE
  2
UCS
  5
7
100
AcDbSymbolTable
 70
0
  0
ENDTAB
  0
TABLE
  2
APPID
  5
9
100
AcDbSymbolTable
 70
1
  0
APPID
  5
231
100
AcDbSymbolTableRecord
100
AcDbRegAppTableRecord
  2
ACAD
 70
0
  0
ENDTAB
  0
TABLE
  2
BLOCK_RECORD
  5
1
100
AcDbSymbolTable
 70
0
  0
BLOCK_RECORD
  5
232
100
AcDbSymbolTableRecord
100
AcDbBlockTableRecord
  2
*Model_Space
  0
BLOCK_RECORD
  5
233
100
AcDbSymbolTableRecord
100
AcDbBlockTableRecord
  2
*Paper_Space
  0
ENDTAB
  0
TABLE
  2
DIMSTYLE
  5
A
100
AcDbSymbolTable
 70
1
100
AcDbDimStyleTable
 71
0
  0
DIMSTYLE
105
234
100
AcDbSymbolTableRecord
100
AcDbDimStyleTableRecord
  2
STANDARD
 70
0
  3

  4

 40
1.0
 41
3.0
 42
0.0625
 43
0.38
 44
0.18
 45
0.0
 46
0.0
 47
0.01
 48
0.01
140
3.0
141
0.09
142
0.0
143
25.4
144
1.0
145
0.0
146
1.0
147
0.09
 71
1.0
 72
0.0
 73
0
 74
0
 75
0
 76
0
 77
1
 78
8
170
0
171
2
172
0
173
0
174
0
175
0
176
0
177
0
178
0
270
2
271
2
272
2
273
2
274
2
275
0
280
0
281
0
282
0
283
1
284
8
285
0
286
0
287
3
288
0
340
11
  0
ENDTAB
  0
ENDSEC
  0
SECTION
  2
BLOCKS
  0
BLOCK
  5
20
100
AcDbEntity
  8
0
100
AcDbBlockBegin
  2
*Model_Space
 70
0
 10
0.0
 20
0.0
 30
0.0
  3
*Model_Space
  1

  0
ENDBLK
  5
21
100
AcDbEntity
  8
0
100
AcDbBlockEnd
  0
BLOCK
  5
1C
100
AcDbEntity
  8
0
100
AcDbBlockBegin
  2
*Paper_Space
 70
0
 10
0.0
 20
0.0
 30
0.0
  3
*Paper_Space
  1

  0
ENDBLK
  5
1D
100
AcDbEntity
  8
0
100
AcDbBlockEnd
  0
ENDSEC
  0
SECTION
  2
ENTITIES
  0
LINE
  5
235
100
AcDbEntity
  8
RACCORDO
100
AcDbLine
 62
253
  6
CONTINUOUS
 10
-10.6466029582
 20
22.392895367
 11
-10.6323926099
 21
22.4
  0
LINE
  5
236
100
AcDbEntity
  8
ASSI
100
AcDbLine
 62
253
  6
CONTINUOUS
 10
-10.6466029582
 20
22.392895367
 11
-10.6323926099
 21
22.4
  0
LINE
  5
237
100
AcDbEntity
  8
RACCORDO
100
AcDbLine
 62
253
  6
CONTINUOUS
 10
-10.3956323968
 20
-24.495628166
 11
-8.5043676032
 21
-24.495628166
  0
LINE
  5
238
100
AcDbEntity
  8
ASSI
100
AcDbLine
 62
7
  6
CONTINUOUS
 10
-10.3956323968
 20
-24.495628166
 11
-8.5043676032
 21
-24.495628166
  0
LINE
  5
239
100
AcDbEntity
  8
RACCORDO
100
AcDbLine
 62
253
  6
CONTINUOUS
 10
8.5043676032
 20
-24.495628166
 11
10.3956323968
 21
-24.495628166
  0
LINE
  5
23A
100
AcDbEntity
  8
ASSI
100
AcDbLine
 62
7
  6
CONTINUOUS
 10
8.5043676032
 20
-24.495628166
 11
10.3956323968
 21
-24.495628166
  0
LINE
  5
23B
100
AcDbEntity
  8
RACCORDO
100
AcDbLine
 62
253
  6
CONTINUOUS
 10
-8.254371834
 20
-24.2456323968
 11
-10.645628166
 21
-24.2456323968
  0
LINE
  5
23C
100
AcDbEntity
  8
RACCORDO
100
AcDbLine
 62
253
  6
CONTINUOUS
 10
8.254371834
 20
-24.2456323968
 11
10.645628166
 21
-24.2456323968
  0
LINE
  5
23D
100
AcDbEntity
  8
ASSI
100
AcDbLine
 62
253
  6
CONTINUOUS
 10
-8.254371834
 20
-24.2456323968
 11
-10.645628166
 21
-24.2456323968
  0
LINE
  5
23E
100
AcDbEntity
  8
ASSI
100
AcDbLine
 62
253
  6
CONTINUOUS
 10
8.254371834
 20
-24.2456323968
 11
10.645628166
 21
-24.2456323968
  0
LINE
  5
23F
100
AcDbEntity
  8
RACCORDO
100
AcDbLine
 62
253
  6
CONTINUOUS
 10
-8.254371834
 20
-23.8443375673
 11
-10.645628166
 21
-23.8443375673
  0
LINE
  5
240
100
AcDbEntity
  8
RACCORDO
100
AcDbLine
 62
253
  6
CONTINUOUS
 10
8.254371834
 20
-23.8443375673
 11
10.645628166
 21
-23.8443375673
  0
LINE
  5
241
100
AcDbEntity
  8
ASSI
100
AcDbLine
 62
253
  6
CONTINUOUS
 10
-8.254371834
 20
-23.8443375673
 11
-10.645628166
 21
-23.8443375673
  0
LINE
  5
242
100
AcDbEntity
  8
ASSI
100
AcDbLine
 62
253
  6
CONTINUOUS
 10
8.254371834
 20
-23.8443375673
 11
10.645628166
 21
-23.8443375673
  0
LINE
  5
243
100
AcDbEntity
  8
DRAFT
100
AcDbLine
 62
7
  6
CONTINUOUS
 10
-4.4
 20
-23.8
 11
4.4
 21
-23.8
  0
LINE
  5
244
100
AcDbEntity
  8
ASSI
100
AcDbLine
 62
7
  6
CONTINUOUS
 10
-4.4
 20
-23.8
 11
4.4
 21
-23.8
  0
LINE
  5
245
100
AcDbEntity
  8
DRAFT
100
AcDbLine
 62
7
  6
CONTINUOUS
 10
3.5
 20
-23.7941821702
 11
-3.5
 21
-23.7941821702
  0
LINE
  5
246
100
AcDbEntity
  8
ASSI
100
AcDbLine
 62
7
  6
CONTINUOUS
 10
3.5
 20
-23.7941821702
 11
-3.5
 21
-23.7941821702
  0
LINE
  5
247
100
AcDbEntity
  8
ASSI
100
AcDbLine
 62
7
  6
CONTINUOUS
 10
4.3563493531
 20
-23.7563493531
 11
3.5
 21
-23.7563493531
  0
LINE
  5
248
100
AcDbEntity
  8
ASSI
100
AcDbLine
 62
7
  6
CONTINUOUS
 10
-3.5
 20
-23.7563493531
 11
-4.3563493531
 21
-23.7563493531
  0
LINE
  5
249
100
AcDbEntity
  8
RACCORDO
100
AcDbLine
 62
253
  6
CONTINUOUS
 10
10.3956323968
 20
-23.6278312164
 11
8.5043676032
 21
-23.6278312164
  0
LINE
  5
24A
100
AcDbEntity
  8
ASSI
100
AcDbLine
 62
253
  6
CONTINUOUS
 10
10.3956323968
 20
-23.6278312164
 11
8.5043676032
 21
-23.6278312164
  0
LINE
  5
24B
100
AcDbEntity
  8
RACCORDO
100
AcDbLine
 62
253
  6
CONTINUOUS
 10
-8.5043676032
 20
-23.6278312164
 11
-10.3956323968
 21
-23.6278312164
  0
LINE
  5
24C
100
AcDbEntity
  8
ASSI
100
AcDbLine
 62
253
  6
CONTINUOUS
 10
-8.5043676032
 20
-23.6278312164
 11
-10.3956323968
 21
-23.6278312164
  0
LINE
  5
24D
100
AcDbEntity
  8
RACCORDO
100
AcDbLine
 62
253
  6
CONTINUOUS
 10
-10.6323926099
 20
-22.4
 11
-10.6466017773
 21
-22.3928959574
  0
LINE
  5
24E
100
AcDbEntity
  8
ASSI
100
AcDbLine
 62
253
  6
CONTINUOUS
 10
-10.6323926099
 20
-22.4
 11
-10.6466017773
 21
-22.3928959574
  0
LINE
  5
24F
100
AcDbEntity
  8
RACCORDO
100
AcDbLine
 62
7
  6
CONTINUOUS
 10
-8.0840245667
 20
20.9917082642
 11
-8.2465127091
 21
20.9104703804
  0
LINE
  5
250
100
AcDbEntity
  8
ASSI
100
AcDbLine
 62
7
  6
CONTINUOUS
 10
-8.0840245667
 20
20.9917082642
 11
-8.2465127091
 21
20.9104703804
  0
LINE
  5
251
100
AcDbEntity
  8
RACCORDO
100
AcDbLine
 62
7
  6
CONTINUOUS
 10
-10.4007229979
 20
-23.1226497308
 11
-8.4992770021
 21
-23.1226497308
  0
LINE
  5
252
100
AcDbEntity
  8
ASSI
100
AcDbLine
 62
7
  6
CONTINUOUS
 10
-10.4007229979
 20
-23.1226497308
 11
-8.4992770021
 21
-23.1226497308
  0
LINE
  5
253
100
AcDbEntity
  8
RACCORDO
100
AcDbLine
 62
7
  6
CONTINUOUS
 10
8.4992770021
 20
-23.1226497308
 11
10.4007229979
 21
-23.1226497308
  0
LINE
  5
254
100
AcDbEntity
  8
ASSI
100
AcDbLine
 62
7
  6
CONTINUOUS
 10
8.4992770021
 20
-23.1226497308
 11
10.4007229979
 21
-23.1226497308
  0
LINE
  5
255
100
AcDbEntity
  8
RACCORDO
100
AcDbLine
 62
7
  6
CONTINUOUS
 10
-10.6323926099
 20
-22.4
 11
-8.25
 21
-22.4
  0
LINE
  5
256
100
AcDbEntity
  8
DRAFT
100
AcDbLine
 62
7
  6
CONTINUOUS
 10
8.25
 20
-22.4
 11
4.4
 21
-22.4
  0
LINE
  5
257
100
AcDbEntity
  8
DRAFT
100
AcDbLine
 62
7
  6
CONTINUOUS
 10
-4.4
 20
-22.4
 11
-8.25
 21
-22.4
  0
LINE
  5
258
100
AcDbEntity
  8
RACCORDO
100
AcDbLine
 62
7
  6
CONTINUOUS
 10
8.25
 20
-22.4
 11
10.6323926099
 21
-22.4
  0
LINE
  5
259
100
AcDbEntity
  8
ASSI
100
AcDbLine
 62
7
  6
CONTINUOUS
 10
-4.4
 20
-22.4
 11
-10.6323926099
 21
-22.4
  0
LINE
  5
25A
100
AcDbEntity
  8
ASSI
100
AcDbLine
 62
7
  6
CONTINUOUS
 10
4.4
 20
-22.4
 11
10.6323926099
 21
-22.4
  0
LINE
  5
25B
100
AcDbEntity
  8
RACCORDO
100
AcDbLine
 62
7
  6
CONTINUOUS
 10
-10.6498476749
 20
-22.3912731322
 11
-7.2587268678
 21
-22.3912731322
  0
LINE
  5
25C
100
AcDbEntity
  8
ASSI
100
AcDbLine
 62
7
  6
CONTINUOUS
 10
-10.6498476749
 20
-22.3912731322
 11
-7.2587268678
 21
-22.3912731322
  0
LINE
  5
25D
100
AcDbEntity
  8
DRAFT
100
AcDbLine
 62
7
  6
CONTINUOUS
 10
-3.5
 20
-22.3912731322
 11
-3.0
 21
-22.3912731322
  0
LINE
  5
25E
100
AcDbEntity
  8
ASSI
100
AcDbLine
 62
7
  6
CONTINUOUS
 10
-3.5
 20
-22.3912731322
 11
-3.0
 21
-22.3912731322
  0
LINE
  5
25F
100
AcDbEntity
  8
DRAFT
100
AcDbLine
 62
7
  6
CONTINUOUS
 10
3.0
 20
-22.3912731322
 11
3.5
 21
-22.3912731322
  0
LINE
  5
260
100
AcDbEntity
  8
ASSI
100
AcDbLine
 62
7
  6
CONTINUOUS
 10
3.0
 20
-22.3912731322
 11
3.5
 21
-22.3912731322
  0
LINE
  5
261
100
AcDbEntity
  8
RACCORDO
100
AcDbLine
 62
7
  6
CONTINUOUS
 10
7.2587268678
 20
-22.3912731322
 11
10.6498476749
 21
-22.3912731322
  0
LINE
  5
262
100
AcDbEntity
  8
ASSI
100
AcDbLine
 62
7
  6
CONTINUOUS
 10
7.2587268678
 20
-22.3912731322
 11
10.6498476749
 21
-22.3912731322
  0
LINE
  5
263
100
AcDbEntity
  8
RACCORDO
100
AcDbLine
 62
253
  6
CONTINUOUS
 10
-7.3373448332
 20
-22.3126551668
 11
-3.0
 21
-22.3126551668
  0
LINE
  5
264
100
AcDbEntity
  8
ASSI
100
AcDbLine
 62
253
  6
CONTINUOUS
 10
-7.3373448332
 20
-22.3126551668
 11
-3.0
 21
-22.3126551668
  0
LINE
  5
265
100
AcDbEntity
  8
RACCORDO
100
AcDbLine
 62
253
  6
CONTINUOUS
 10
3.0
 20
-22.3126551668
 11
7.3373448332
 21
-22.3126551668
  0
LINE
  5
266
100
AcDbEntity
  8
ASSI
100
AcDbLine
 62
253
  6
CONTINUOUS
 10
3.0
 20
-22.3126551668
 11
7.3373448332
 21
-22.3126551668
  0
LINE
  5
267
100
AcDbEntity
  8
RACCORDO
100
AcDbLine
 62
7
  6
CONTINUOUS
 10
-8.0840245667
 20
-20.9917082642
 11
-8.2465127091
 21
-20.9104703804
  0
LINE
  5
268
100
AcDbEntity
  8
ASSI
100
AcDbLine
 62
7
  6
CONTINUOUS
 10
-8.0840245667
 20
-20.9917082642
 11
-8.2465127091
 21
-20.9104703804
  0
LINE
  5
269
100
AcDbEntity
  8
RACCORDO
100
AcDbLine
 62
7
  6
CONTINUOUS
 10
-8.25
 20
21.4
 11
-7.2587268678
 21
22.3912731322
  0
LINE
  5
26A
100
AcDbEntity
  8
ASSI
100
AcDbLine
 62
7
  6
CONTINUOUS
 10
-8.25
 20
21.4
 11
-7.2587268678
 21
22.3912731322
  0
LINE
  5
26B
100
AcDbEntity
  8
0
100
AcDbLine
 62
7
  6
CONTINUOUS
 10
3.0
 20
-21.7
 11
-3.0
 21
-21.7
  0
LINE
  5
26C
100
AcDbEntity
  8
ASSI
100
AcDbLine
 62
7
  6
CONTINUOUS
 10
3.0
 20
-21.7
 11
-3.0
 21
-21.7
  0
LINE
  5
26D
100
AcDbEntity
  8
RACCORDO
100
AcDbLine
 62
253
  6
CONTINUOUS
 10
-7.5841007192
 20
-21.3126932437
 11
-3.0
 21
-21.3126932437
  0
LINE
  5
26E
100
AcDbEntity
  8
ASSI
100
AcDbLine
 62
253
  6
CONTINUOUS
 10
-7.5841007192
 20
-21.3126932437
 11
-3.0
 21
-21.3126932437
  0
LINE
  5
26F
100
AcDbEntity
  8
RACCORDO
100
AcDbLine
 62
253
  6
CONTINUOUS
 10
3.0
 20
-21.3126932437
 11
7.5841007192
 21
-21.3126932437
  0
LINE
  5
270
100
AcDbEntity
  8
ASSI
100
AcDbLine
 62
253
  6
CONTINUOUS
 10
3.0
 20
-21.3126932437
 11
7.5841007192
 21
-21.3126932437
  0
LINE
  5
271
100
AcDbEntity
  8
0
100
AcDbLine
 62
7
  6
CONTINUOUS
 10
3.0
 20
-21.0
 11
-3.0
 21
-21.0
  0
LINE
  5
272
100
AcDbEntity
  8
ASSI
100
AcDbLine
 62
7
  6
CONTINUOUS
 10
3.0
 20
-21.0
 11
-3.0
 21
-21.0
  0
LINE
  5
273
100
AcDbEntity
  8
RACCORDO
100
AcDbLine
 62
7
  6
CONTINUOUS
 10
-7.5841007192
 20
-20.9959955457
 11
-7.2418217019
 21
-20.9959955457
  0
LINE
  5
274
100
AcDbEntity
  8
ASSI
100
AcDbLine
 62
7
  6
CONTINUOUS
 10
-7.5841007192
 20
-20.9959955457
 11
-7.2418217019
 21
-20.9959955457
  0
LINE
  5
275
100
AcDbEntity
  8
RACCORDO
100
AcDbLine
 62
7
  6
CONTINUOUS
 10
7.2418217019
 20
-20.9959955457
 11
7.5841007192
 21
-20.9959955457
  0
LINE
  5
276
100
AcDbEntity
  8
ASSI
100
AcDbLine
 62
7
  6
CONTINUOUS
 10
7.2418217019
 20
-20.9959955457
 11
7.5841007192
 21
-20.9959955457
  0
LINE
  5
277
100
AcDbEntity
  8
DRAFT
100
AcDbLine
 62
7
  6
CONTINUOUS
 10
-8.2465127091
 20
-20.9104703804
 11
-7.2988376746
 21
-20.9104703804
  0
LINE
  5
278
100
AcDbEntity
  8
ASSI
100
AcDbLine
 62
7
  6
CONTINUOUS
 10
-8.2465127091
 20
-20.9104703804
 11
-7.2988376746
 21
-20.9104703804
  0
LINE
  5
279
100
AcDbEntity
  8
DRAFT
100
AcDbLine
 62
7
  6
CONTINUOUS
 10
7.2988376746
 20
-20.9104703804
 11
8.2465127091
 21
-20.9104703804
  0
LINE
  5
27A
100
AcDbEntity
  8
ASSI
100
AcDbLine
 62
7
  6
CONTINUOUS
 10
7.2988376746
 20
-20.9104703804
 11
8.2465127091
 21
-20.9104703804
  0
LINE
  5
27B
100
AcDbEntity
  8
RACCORDO
100
AcDbLine
 62
7
  6
CONTINUOUS
 10
9.1503805997
 20
-20.9
 11
8.25
 21
-20.9
  0
LINE
  5
27C
100
AcDbEntity
  8
ASSI
100
AcDbLine
 62
7
  6
CONTINUOUS
 10
9.1503805997
 20
-20.9
 11
8.25
 21
-20.9
  0
LINE
  5
27D
100
AcDbEntity
  8
RACCORDO
100
AcDbLine
 62
7
  6
CONTINUOUS
 10
-8.25
 20
-20.9
 11
-9.1503805997
 21
-20.9
  0
LINE
  5
27E
100
AcDbEntity
  8
ASSI
100
AcDbLine
 62
7
  6
CONTINUOUS
 10
-8.25
 20
-20.9
 11
-9.1503805997
 21
-20.9
  0
LINE
  5
27F
100
AcDbEntity
  8
RACCORDO
100
AcDbLine
 62
7
  6
CONTINUOUS
 10
9.087542366
 20
-20.7113319946
 11
7.3209441873
 21
-20.7113319946
  0
LINE
  5
280
100
AcDbEntity
  8
ASSI
100
AcDbLine
 62
7
  6
CONTINUOUS
 10
9.087542366
 20
-20.7113319946
 11
7.3209441873
 21
-20.7113319946
  0
LINE
  5
281
100
AcDbEntity
  8
RACCORDO
100
AcDbLine
 62
7
  6
CONTINUOUS
 10
-7.3209441873
 20
-20.7113319946
 11
-9.087542366
 21
-20.7113319946
  0
LINE
  5
282
100
AcDbEntity
  8
ASSI
100
AcDbLine
 62
7
  6
CONTINUOUS
 10
-7.3209441873
 20
-20.7113319946
 11
-9.087542366
 21
-20.7113319946
  0
LINE
  5
283
100
AcDbEntity
  8
RACCORDO
100
AcDbLine
 62
253
  6
CONTINUOUS
 10
6.5581782981
 20
-20.5829242832
 11
-6.5581782981
 21
-20.5829242832
  0
LINE
  5
284
100
AcDbEntity
  8
ASSI
100
AcDbLine
 62
253
  6
CONTINUOUS
 10
6.5581782981
 20
-20.5829242832
 11
-6.5581782981
 21
-20.5829242832
  0
LINE
  5
285
100
AcDbEntity
  8
RACCORDO
100
AcDbLine
 62
253
  6
CONTINUOUS
 10
6.555294768
 20
-20.0829433217
 11
-6.555294768
 21
-20.0829433217
  0
LINE
  5
286
100
AcDbEntity
  8
ASSI
100
AcDbLine
 62
7
  6
CONTINUOUS
 10
6.555294768
 20
-20.0829433217
 11
-6.555294768
 21
-20.0829433217
  0
LINE
  5
287
100
AcDbEntity
  8
RACCORDO
100
AcDbLine
 62
7
  6
CONTINUOUS
 10
4.2
 20
-20.0
 11
-4.2
 21
-20.0
  0
LINE
  5
288
100
AcDbEntity
  8
ASSI
100
AcDbLine
 62
7
  6
CONTINUOUS
 10
4.2
 20
-20.0
 11
-4.2
 21
-20.0
  0
LINE
  5
289
100
AcDbEntity
  8
0
100
AcDbLine
 62
7
  6
CONTINUOUS
 10
-6.4790558127
 20
-19.968583276
 11
-4.5
 21
-19.968583276
  0
LINE
  5
28A
100
AcDbEntity
  8
ASSI
100
AcDbLine
 62
7
  6
CONTINUOUS
 10
-6.4790558127
 20
-19.968583276
 11
-4.5
 21
-19.968583276
  0
LINE
  5
28B
100
AcDbEntity
  8
0
100
AcDbLine
 62
7
  6
CONTINUOUS
 10
4.5
 20
-19.968583276
 11
6.4790558127
 21
-19.968583276
  0
LINE
  5
28C
100
AcDbEntity
  8
ASSI
100
AcDbLine
 62
7
  6
CONTINUOUS
 10
4.5
 20
-19.968583276
 11
6.4790558127
 21
-19.968583276
  0
LINE
  5
28D
100
AcDbEntity
  8
RACCORDO
100
AcDbLine
 62
7
  6
CONTINUOUS
 10
-7.2587268678
 20
-22.3912731322
 11
-8.25
 21
-21.4
  0
LINE
  5
28E
100
AcDbEntity
  8
ASSI
100
AcDbLine
 62
7
  6
CONTINUOUS
 10
-7.2587268678
 20
-22.3912731322
 11
-8.25
 21
-21.4
  0
LINE
  5
28F
100
AcDbEntity
  8
RACCORDO
100
AcDbLine
 62
253
  6
CONTINUOUS
 10
-9.5871617663
 20
-19.8
 11
-7.3209441873
 21
-19.8
  0
LINE
  5
290
100
AcDbEntity
  8
ASSI
100
AcDbLine
 62
253
  6
CONTINUOUS
 10
-9.5871617663
 20
-19.8
 11
-7.3209441873
 21
-19.8
  0
LINE
  5
291
100
AcDbEntity
  8
RACCORDO
100
AcDbLine
 62
253
  6
CONTINUOUS
 10
-6.4790558127
 20
-19.8
 11
-4.5
 21
-19.8
  0
LINE
  5
292
100
AcDbEntity
  8
ASSI
100
AcDbLine
 62
253
  6
CONTINUOUS
 10
-6.4790558127
 20
-19.8
 11
-4.5
 21
-19.8
  0
LINE
  5
293
100
AcDbEntity
  8
RACCORDO
100
AcDbLine
 62
253
  6
CONTINUOUS
 10
4.5
 20
-19.8
 11
6.4790558127
 21
-19.8
  0
LINE
  5
294
100
AcDbEntity
  8
ASSI
100
AcDbLine
 62
253
  6
CONTINUOUS
 10
4.5
 20
-19.8
 11
6.4790558127
 21
-19.8
  0
LINE
  5
295
100
AcDbEntity
  8
RACCORDO
100
AcDbLine
 62
253
  6
CONTINUOUS
 10
7.3209441873
 20
-19.8
 11
9.5871617663
 21
-19.8
  0
LINE
  5
296
100
AcDbEntity
  8
ASSI
100
AcDbLine
 62
253
  6
CONTINUOUS
 10
7.3209441873
 20
-19.8
 11
9.5871617663
 21
-19.8
  0
LINE
  5
297
100
AcDbEntity
  8
RACCORDO
100
AcDbLine
 62
7
  6
CONTINUOUS
 10
-9.5784342338
 20
-19.3
 11
-7.3238531022
 21
-19.3
  0
LINE
  5
298
100
AcDbEntity
  8
ASSI
100
AcDbLine
 62
7
  6
CONTINUOUS
 10
-9.5784342338
 20
-19.3
 11
-7.3238531022
 21
-19.3
  0
LINE
  5
299
100
AcDbEntity
  8
RACCORDO
100
AcDbLine
 62
7
  6
CONTINUOUS
 10
-6.4761468978
 20
-19.3
 11
-4.5
 21
-19.3
  0
LINE
  5
29A
100
AcDbEntity
  8
ASSI
100
AcDbLine
 62
7
  6
CONTINUOUS
 10
-6.4761468978
 20
-19.3
 11
-4.5
 21
-19.3
  0
LINE
  5
29B
100
AcDbEntity
  8
RACCORDO
100
AcDbLine
 62
7
  6
CONTINUOUS
 10
4.5
 20
-19.3
 11
6.4761468978
 21
-19.3
  0
LINE
  5
29C
100
AcDbEntity
  8
ASSI
100
AcDbLine
 62
7
  6
CONTINUOUS
 10
4.5
 20
-19.3
 11
6.4761468978
 21
-19.3
  0
LINE
  5
29D
100
AcDbEntity
  8
RACCORDO
100
AcDbLine
 62
7
  6
CONTINUOUS
 10
7.3238531022
 20
-19.3
 11
9.5784342338
 21
-19.3
  0
LINE
  5
29E
100
AcDbEntity
  8
ASSI
100
AcDbLine
 62
7
  6
CONTINUOUS
 10
7.3238531022
 20
-19.3
 11
9.5784342338
 21
-19.3
  0
LINE
  5
29F
100
AcDbEntity
  8
DRAFT
100
AcDbLine
 62
7
  6
CONTINUOUS
 10
-7.2418217019
 20
20.9959955457
 11
-7.2988376746
 21
20.9104703804
  0
LINE
  5
2A0
100
AcDbEntity
  8
ASSI
100
AcDbLine
 62
7
  6
CONTINUOUS
 10
-7.2418217019
 20
20.9959955457
 11
-7.2988376746
 21
20.9104703804
  0
LINE
  5
2A1
100
AcDbEntity
  8
RACCORDO
100
AcDbLine
 62
253
  6
CONTINUOUS
 10
-4.5
 20
-17.8
 11
4.5
 21
-17.8
  0
LINE
  5
2A2
100
AcDbEntity
  8
ASSI
100
AcDbLine
 62
253
  6
CONTINUOUS
 10
-4.5
 20
-17.8
 11
4.5
 21
-17.8
  0
LINE
  5
2A3
100
AcDbEntity
  8
RACCORDO
100
AcDbLine
 62
7
  6
CONTINUOUS
 10
-4.2
 20
-17.3
 11
4.2
 21
-17.3
  0
LINE
  5
2A4
100
AcDbEntity
  8
ASSI
100
AcDbLine
 62
7
  6
CONTINUOUS
 10
-4.2
 20
-17.3
 11
4.2
 21
-17.3
  0
LINE
  5
2A5
100
AcDbEntity
  8
DRAFT
100
AcDbLine
 62
7
  6
CONTINUOUS
 10
-7.2418217019
 20
-20.9959955457
 11
-7.2988376746
 21
-20.9104703804
  0
LINE
  5
2A6
100
AcDbEntity
  8
ASSI
100
AcDbLine
 62
7
  6
CONTINUOUS
 10
-7.2418217019
 20
-20.9959955457
 11
-7.2988376746
 21
-20.9104703804
  0
LINE
  5
2A7
100
AcDbEntity
  8
DRAFT
100
AcDbLine
 62
7
  6
CONTINUOUS
 10
-8.25
 20
20.9
 11
-8.2465127091
 21
20.9104703804
  0
LINE
  5
2A8
100
AcDbEntity
  8
ASSI
100
AcDbLine
 62
7
  6
CONTINUOUS
 10
-8.25
 20
20.9
 11
-8.2465127091
 21
20.9104703804
  0
LINE
  5
2A9
100
AcDbEntity
  8
0
100
AcDbLine
 62
7
  6
CONTINUOUS
 10
3.5
 20
-16.2
 11
-3.5
 21
-16.2
  0
LINE
  5
2AA
100
AcDbEntity
  8
ASSI
100
AcDbLine
 62
7
  6
CONTINUOUS
 10
3.5
 20
-16.2
 11
-3.5
 21
-16.2
  0
LINE
  5
2AB
100
AcDbEntity
  8
RACCORDO
100
AcDbLine
 62
7
  6
CONTINUOUS
 10
-3.5
 20
-15.6
 11
-3.4
 21
-15.6
  0
LINE
  5
2AC
100
AcDbEntity
  8
RACCORDO
100
AcDbLine
 62
7
  6
CONTINUOUS
 10
3.4
 20
-15.6
 11
3.5
 21
-15.6
  0
LINE
  5
2AD
100
AcDbEntity
  8
RACCORDO
100
AcDbLine
 62
253
  6
CONTINUOUS
 10
-9.529560052
 20
-15.2792978419
 11
-3.5
 21
-15.2792978419
  0
LINE
  5
2AE
100
AcDbEntity
  8
ASSI
100
AcDbLine
 62
253
  6
CONTINUOUS
 10
-9.529560052
 20
-15.2792978419
 11
-3.5
 21
-15.2792978419
  0
LINE
  5
2AF
100
AcDbEntity
  8
RACCORDO
100
AcDbLine
 62
253
  6
CONTINUOUS
 10
3.5
 20
-15.2792978419
 11
9.529560052
 21
-15.2792978419
  0
LINE
  5
2B0
100
AcDbEntity
  8
ASSI
100
AcDbLine
 62
253
  6
CONTINUOUS
 10
3.5
 20
-15.2792978419
 11
9.529560052
 21
-15.2792978419
  0
LINE
  5
2B1
100
AcDbEntity
  8
0
100
AcDbLine
 62
7
  6
CONTINUOUS
 10
-3.5
 20
-15.2
 11
-3.4
 21
-15.2
  0
LINE
  5
2B2
100
AcDbEntity
  8
ASSI
100
AcDbLine
 62
7
  6
CONTINUOUS
 10
-3.5
 20
-15.2
 11
-3.4
 21
-15.2
  0
LINE
  5
2B3
100
AcDbEntity
  8
0
100
AcDbLine
 62
7
  6
CONTINUOUS
 10
3.4
 20
-15.2
 11
3.5
 21
-15.2
  0
LINE
  5
2B4
100
AcDbEntity
  8
ASSI
100
AcDbLine
 62
7
  6
CONTINUOUS
 10
3.4
 20
-15.2
 11
3.5
 21
-15.2
  0
LINE
  5
2B5
100
AcDbEntity
  8
0
100
AcDbLine
 62
7
  6
CONTINUOUS
 10
-3.5
 20
-15.0
 11
-3.4
 21
-15.0
  0
LINE
  5
2B6
100
AcDbEntity
  8
ASSI
100
AcDbLine
 62
7
  6
CONTINUOUS
 10
-3.5
 20
-15.0
 11
-3.4
 21
-15.0
  0
LINE
  5
2B7
100
AcDbEntity
  8
0
100
AcDbLine
 62
7
  6
CONTINUOUS
 10
3.4
 20
-15.0
 11
3.5
 21
-15.0
  0
LINE
  5
2B8
100
AcDbEntity
  8
ASSI
100
AcDbLine
 62
7
  6
CONTINUOUS
 10
3.4
 20
-15.0
 11
3.5
 21
-15.0
  0
LINE
  5
2B9
100
AcDbEntity
  8
RACCORDO
100
AcDbLine
 62
253
  6
CONTINUOUS
 10
-9.5212892833
 20
-14.7799830745
 11
-3.5
 21
-14.7799830745
  0
LINE
  5
2BA
100
AcDbEntity
  8
ASSI
100
AcDbLine
 62
253
  6
CONTINUOUS
 10
-9.5212892833
 20
-14.7799830745
 11
-3.5
 21
-14.7799830745
  0
LINE
  5
2BB
100
AcDbEntity
  8
RACCORDO
100
AcDbLine
 62
253
  6
CONTINUOUS
 10
3.5
 20
-14.7799830745
 11
9.5212892833
 21
-14.7799830745
  0
LINE
  5
2BC
100
AcDbEntity
  8
ASSI
100
AcDbLine
 62
253
  6
CONTINUOUS
 10
3.5
 20
-14.7799830745
 11
9.5212892833
 21
-14.7799830745
  0
LINE
  5
2BD
100
AcDbEntity
  8
DRAFT
100
AcDbLine
 62
7
  6
CONTINUOUS
 10
9.4946499221
 20
-14.7
 11
3.5
 21
-14.7
  0
LINE
  5
2BE
100
AcDbEntity
  8
ASSI
100
AcDbLine
 62
7
  6
CONTINUOUS
 10
9.4946499221
 20
-14.7
 11
3.5
 21
-14.7
  0
LINE
  5
2BF
100
AcDbEntity
  8
DRAFT
100
AcDbLine
 62
7
  6
CONTINUOUS
 10
-3.5
 20
-14.7
 11
-9.4946499221
 21
-14.7
  0
LINE
  5
2C0
100
AcDbEntity
  8
ASSI
100
AcDbLine
 62
7
  6
CONTINUOUS
 10
-3.5
 20
-14.7
 11
-9.4946499221
 21
-14.7
  0
LINE
  5
2C1
100
AcDbEntity
  8
DRAFT
100
AcDbLine
 62
7
  6
CONTINUOUS
 10
-9.4946499221
 20
-12.5
 11
-9.65
 21
-12.4223308767
  0
LINE
  5
2C2
100
AcDbEntity
  8
ASSI
100
AcDbLine
 62
7
  6
CONTINUOUS
 10
-9.4946499221
 20
-12.5
 11
-9.65
 21
-12.4223308767
  0
LINE
  5
2C3
100
AcDbEntity
  8
RACCORDO
100
AcDbLine
 62
7
  6
CONTINUOUS
 10
-6.5123099353
 20
-13.8126856306
 11
-6.5
 21
-13.8188401295
  0
LINE
  5
2C4
100
AcDbEntity
  8
ASSI
100
AcDbLine
 62
7
  6
CONTINUOUS
 10
-6.5123099353
 20
-13.8126856306
 11
-6.5
 21
-13.8188401295
  0
LINE
  5
2C5
100
AcDbEntity
  8
DRAFT
100
AcDbLine
 62
7
  6
CONTINUOUS
 10
-8.2465127091
 20
-20.9104703804
 11
-8.25
 21
-20.9
  0
LINE
  5
2C6
100
AcDbEntity
  8
ASSI
100
AcDbLine
 62
7
  6
CONTINUOUS
 10
-8.2465127091
 20
-20.9104703804
 11
-8.25
 21
-20.9
  0
LINE
  5
2C7
100
AcDbEntity
  8
ASSI
100
AcDbLine
 62
7
  6
CONTINUOUS
 10
4.4
 20
23.8
 11
4.3563493531
 21
23.7563493531
  0
LINE
  5
2C8
100
AcDbEntity
  8
DRAFT
100
AcDbLine
 62
7
  6
CONTINUOUS
 10
3.5
 20
-13.9052361207
 11
3.155325392
 21
-13.9052361207
  0
LINE
  5
2C9
100
AcDbEntity
  8
ASSI
100
AcDbLine
 62
7
  6
CONTINUOUS
 10
3.5
 20
-13.9052361207
 11
3.155325392
 21
-13.9052361207
  0
LINE
  5
2CA
100
AcDbEntity
  8
DRAFT
100
AcDbLine
 62
7
  6
CONTINUOUS
 10
-3.155325392
 20
-13.9052361207
 11
-3.5
 21
-13.9052361207
  0
LINE
  5
2CB
100
AcDbEntity
  8
ASSI
100
AcDbLine
 62
7
  6
CONTINUOUS
 10
-3.155325392
 20
-13.9052361207
 11
-3.5
 21
-13.9052361207
  0
LINE
  5
2CC
100
AcDbEntity
  8
RACCORDO
100
AcDbLine
 62
7
  6
CONTINUOUS
 10
7.0000190385
 20
-13.9
 11
3.5
 21
-13.9
  0
LINE
  5
2CD
100
AcDbEntity
  8
ASSI
100
AcDbLine
 62
7
  6
CONTINUOUS
 10
7.0000190385
 20
-13.9
 11
3.5
 21
-13.9
  0
LINE
  5
2CE
100
AcDbEntity
  8
RACCORDO
100
AcDbLine
 62
7
  6
CONTINUOUS
 10
-3.1
 20
-13.9
 11
3.1
 21
-13.9
  0
LINE
  5
2CF
100
AcDbEntity
  8
RACCORDO
100
AcDbLine
 62
7
  6
CONTINUOUS
 10
-3.5
 20
-13.9
 11
-7.0000190385
 21
-13.9
  0
LINE
  5
2D0
100
AcDbEntity
  8
ASSI
100
AcDbLine
 62
7
  6
CONTINUOUS
 10
-3.5
 20
-13.9
 11
-7.0000190385
 21
-13.9
  0
LINE
  5
2D1
100
AcDbEntity
  8
DRAFT
100
AcDbLine
 62
7
  6
CONTINUOUS
 10
6.5
 20
-13.8188401295
 11
-6.5
 21
-13.8188401295
  0
LINE
  5
2D2
100
AcDbEntity
  8
ASSI
100
AcDbLine
 62
7
  6
CONTINUOUS
 10
6.5
 20
-13.8188401295
 11
-6.5
 21
-13.8188401295
  0
LINE
  5
2D3
100
AcDbEntity
  8
RACCORDO
100
AcDbLine
 62
7
  6
CONTINUOUS
 10
6.9101323002
 20
-13.8101132618
 11
6.8122642439
 21
-13.8101132618
  0
LINE
  5
2D4
100
AcDbEntity
  8
ASSI
100
AcDbLine
 62
7
  6
CONTINUOUS
 10
6.9101323002
 20
-13.8101132618
 11
6.8122642439
 21
-13.8101132618
  0
LINE
  5
2D5
100
AcDbEntity
  8
RACCORDO
100
AcDbLine
 62
7
  6
CONTINUOUS
 10
-6.8122642439
 20
-13.8101132618
 11
-6.9101323002
 21
-13.8101132618
  0
LINE
  5
2D6
100
AcDbEntity
  8
ASSI
100
AcDbLine
 62
7
  6
CONTINUOUS
 10
-6.8122642439
 20
-13.8101132618
 11
-6.9101323002
 21
-13.8101132618
  0
LINE
  5
2D7
100
AcDbEntity
  8
RACCORDO
100
AcDbLine
 62
253
  6
CONTINUOUS
 10
-6.8122642439
 20
-13.4876443732
 11
-6.5123099353
 21
-13.4876443732
  0
LINE
  5
2D8
100
AcDbEntity
  8
ASSI
100
AcDbLine
 62
253
  6
CONTINUOUS
 10
-6.8122642439
 20
-13.4876443732
 11
-6.5123099353
 21
-13.4876443732
  0
LINE
  5
2D9
100
AcDbEntity
  8
RACCORDO
100
AcDbLine
 62
253
  6
CONTINUOUS
 10
6.8122642439
 20
-13.4876443732
 11
6.5123099353
 21
-13.4876443732
  0
LINE
  5
2DA
100
AcDbEntity
  8
ASSI
100
AcDbLine
 62
253
  6
CONTINUOUS
 10
6.8122642439
 20
-13.4876443732
 11
6.5123099353
 21
-13.4876443732
  0
LINE
  5
2DB
100
AcDbEntity
  8
RACCORDO
100
AcDbLine
 62
7
  6
CONTINUOUS
 10
6.2000456915
 20
-13.2
 11
-6.2000456915
 21
-13.2
  0
LINE
  5
2DC
100
AcDbEntity
  8
ASSI
100
AcDbLine
 62
7
  6
CONTINUOUS
 10
6.2000456915
 20
-13.2
 11
-6.2000456915
 21
-13.2
  0
LINE
  5
2DD
100
AcDbEntity
  8
RACCORDO
100
AcDbLine
 62
253
  6
CONTINUOUS
 10
-6.2123556268
 20
-13.1876900647
 11
6.2123556268
 21
-13.1876900647
  0
LINE
  5
2DE
100
AcDbEntity
  8
ASSI
100
AcDbLine
 62
253
  6
CONTINUOUS
 10
-6.2123556268
 20
-13.1876900647
 11
6.2123556268
 21
-13.1876900647
  0
LINE
  5
2DF
100
AcDbEntity
  8
RACCORDO
100
AcDbLine
 62
253
  6
CONTINUOUS
 10
-6.2123556268
 20
-12.8877357561
 11
6.2123556268
 21
-12.8877357561
  0
LINE
  5
2E0
100
AcDbEntity
  8
ASSI
100
AcDbLine
 62
253
  6
CONTINUOUS
 10
-6.2123556268
 20
-12.8877357561
 11
6.2123556268
 21
-12.8877357561
  0
LINE
  5
2E1
100
AcDbEntity
  8
RACCORDO
100
AcDbLine
 62
253
  6
CONTINUOUS
 10
-6.5123099353
 20
-13.4876443732
 11
-6.5
 21
-13.4999543085
  0
LINE
  5
2E2
100
AcDbEntity
  8
ASSI
100
AcDbLine
 62
253
  6
CONTINUOUS
 10
-6.5123099353
 20
-13.4876443732
 11
-6.5
 21
-13.4999543085
  0
LINE
  5
2E3
100
AcDbEntity
  8
RACCORDO
100
AcDbLine
 62
253
  6
CONTINUOUS
 10
-6.2123556268
 20
-13.1876900647
 11
-6.2000456915
 21
-13.2
  0
LINE
  5
2E4
100
AcDbEntity
  8
ASSI
100
AcDbLine
 62
253
  6
CONTINUOUS
 10
-6.2123556268
 20
-13.1876900647
 11
-6.2000456915
 21
-13.2
  0
LINE
  5
2E5
100
AcDbEntity
  8
ASSI
100
AcDbLine
 62
7
  6
CONTINUOUS
 10
4.4
 20
-23.8
 11
4.3563493531
 21
-23.7563493531
  0
LINE
  5
2E6
100
AcDbEntity
  8
DRAFT
100
AcDbLine
 62
7
  6
CONTINUOUS
 10
-7.5
 20
-11.5
 11
-7.4825462644
 21
-11.5174537356
  0
LINE
  5
2E7
100
AcDbEntity
  8
ASSI
100
AcDbLine
 62
7
  6
CONTINUOUS
 10
-7.5
 20
-11.5
 11
-7.4825462644
 21
-11.5174537356
  0
LINE
  5
2E8
100
AcDbEntity
  8
RACCORDO
100
AcDbLine
 62
253
  6
CONTINUOUS
 10
-10.645628166
 20
-23.8443375673
 11
-10.65
 21
-23.4104851482
  0
LINE
  5
2E9
100
AcDbEntity
  8
ASSI
100
AcDbLine
 62
253
  6
CONTINUOUS
 10
-10.645628166
 20
-23.8443375673
 11
-10.65
 21
-23.4104851482
  0
LINE
  5
2EA
100
AcDbEntity
  8
RACCORDO
100
AcDbLine
 62
7
  6
CONTINUOUS
 10
-11.15
 20
-21.8911779406
 11
-11.15
 21
21.8911779406
  0
LINE
  5
2EB
100
AcDbEntity
  8
ASSI
100
AcDbLine
 62
7
  6
CONTINUOUS
 10
-11.15
 20
-21.8911779406
 11
-11.15
 21
21.8911779406
  0
LINE
  5
2EC
100
AcDbEntity
  8
RACCORDO
100
AcDbLine
 62
253
  6
CONTINUOUS
 10
-10.65
 20
23.4104851482
 11
-10.645628166
 21
23.8443375673
  0
LINE
  5
2ED
100
AcDbEntity
  8
ASSI
100
AcDbLine
 62
253
  6
CONTINUOUS
 10
-10.65
 20
23.4104851482
 11
-10.645628166
 21
23.8443375673
  0
LINE
  5
2EE
100
AcDbEntity
  8
RACCORDO
100
AcDbLine
 62
253
  6
CONTINUOUS
 10
-6.5123099353
 20
10.1876443732
 11
-6.5
 21
10.1999543085
  0
LINE
  5
2EF
100
AcDbEntity
  8
ASSI
100
AcDbLine
 62
253
  6
CONTINUOUS
 10
-6.5123099353
 20
10.1876443732
 11
-6.5
 21
10.1999543085
  0
LINE
  5
2F0
100
AcDbEntity
  8
DRAFT
100
AcDbLine
 62
7
  6
CONTINUOUS
 10
-8.5
 20
7.9
 11
-8.4101132618
 21
7.9898867382
  0
LINE
  5
2F1
100
AcDbEntity
  8
ASSI
100
AcDbLine
 62
7
  6
CONTINUOUS
 10
-8.5
 20
7.9
 11
-8.4101132618
 21
7.9898867382
  0
LINE
  5
2F2
100
AcDbEntity
  8
RACCORDO
100
AcDbLine
 62
253
  6
CONTINUOUS
 10
-6.2123556268
 20
9.8876900647
 11
-6.2000456915
 21
9.9
  0
LINE
  5
2F3
100
AcDbEntity
  8
ASSI
100
AcDbLine
 62
253
  6
CONTINUOUS
 10
-6.2123556268
 20
9.8876900647
 11
-6.2000456915
 21
9.9
  0
LINE
  5
2F4
100
AcDbEntity
  8
DRAFT
100
AcDbLine
 62
7
  6
CONTINUOUS
 10
-4.5
 20
10.9
 11
-4.5795771341
 21
10.8204228659
  0
LINE
  5
2F5
100
AcDbEntity
  8
ASSI
100
AcDbLine
 62
7
  6
CONTINUOUS
 10
-4.5
 20
10.9
 11
-4.5795771341
 21
10.8204228659
  0
LINE
  5
2F6
100
AcDbEntity
  8
RACCORDO
100
AcDbLine
 62
7
  6
CONTINUOUS
 10
-6.5123099353
 20
10.8126856306
 11
-6.5
 21
10.8188401295
  0
LINE
  5
2F7
100
AcDbEntity
  8
ASSI
100
AcDbLine
 62
7
  6
CONTINUOUS
 10
-6.5123099353
 20
10.8126856306
 11
-6.5
 21
10.8188401295
  0
LINE
  5
2F8
100
AcDbEntity
  8
DRAFT
100
AcDbLine
 62
7
  6
CONTINUOUS
 10
-9.65
 20
8.8223308767
 11
-9.4946499221
 21
8.9
  0
LINE
  5
2F9
100
AcDbEntity
  8
ASSI
100
AcDbLine
 62
7
  6
CONTINUOUS
 10
-9.65
 20
8.8223308767
 11
-9.4946499221
 21
8.9
  0
LINE
  5
2FA
100
AcDbEntity
  8
RACCORDO
100
AcDbLine
 62
7
  6
CONTINUOUS
 10
-9.2122871968
 20
-12.4118358927
 11
-9.65
 21
-12.4223308767
  0
LINE
  5
2FB
100
AcDbEntity
  8
ASSI
100
AcDbLine
 62
7
  6
CONTINUOUS
 10
-9.2122871968
 20
-12.4118358927
 11
-9.65
 21
-12.4223308767
  0
LINE
  5
2FC
100
AcDbEntity
  8
RACCORDO
100
AcDbLine
 62
7
  6
CONTINUOUS
 10
9.65
 20
-11.5776691233
 11
9.2122871968
 21
-11.5881641073
  0
LINE
  5
2FD
100
AcDbEntity
  8
ASSI
100
AcDbLine
 62
7
  6
CONTINUOUS
 10
9.65
 20
-11.5776691233
 11
9.2122871968
 21
-11.5881641073
  0
LINE
  5
2FE
100
AcDbEntity
  8
DRAFT
100
AcDbLine
 62
7
  6
CONTINUOUS
 10
7.5
 20
-12.5
 11
9.4946499221
 21
-12.5
  0
LINE
  5
2FF
100
AcDbEntity
  8
ASSI
100
AcDbLine
 62
7
  6
CONTINUOUS
 10
7.5
 20
-12.5
 11
9.4946499221
 21
-12.5
  0
LINE
  5
300
100
AcDbEntity
  8
DRAFT
100
AcDbLine
 62
7
  6
CONTINUOUS
 10
-7.5
 20
-12.5
 11
-9.4946499221
 21
-12.5
  0
LINE
  5
301
100
AcDbEntity
  8
ASSI
100
AcDbLine
 62
7
  6
CONTINUOUS
 10
-7.5
 20
-12.5
 11
-9.4946499221
 21
-12.5
  0
LINE
  5
302
100
AcDbEntity
  8
RACCORDO
100
AcDbLine
 62
7
  6
CONTINUOUS
 10
-8.9303794106
 20
-12.4101132618
 11
-7.4101132618
 21
-12.4101132618
  0
LINE
  5
303
100
AcDbEntity
  8
ASSI
100
AcDbLine
 62
7
  6
CONTINUOUS
 10
-8.9303794106
 20
-12.4101132618
 11
-7.4101132618
 21
-12.4101132618
  0
LINE
  5
304
100
AcDbEntity
  8
RACCORDO
100
AcDbLine
 62
7
  6
CONTINUOUS
 10
8.9303794106
 20
-12.4101132618
 11
7.4101132618
 21
-12.4101132618
  0
LINE
  5
305
100
AcDbEntity
  8
ASSI
100
AcDbLine
 62
7
  6
CONTINUOUS
 10
8.9303794106
 20
-12.4101132618
 11
7.4101132618
 21
-12.4101132618
  0
LINE
  5
306
100
AcDbEntity
  8
0
100
AcDbLine
 62
7
  6
CONTINUOUS
 10
6.5
 20
-12.3
 11
-6.5
 21
-12.3
  0
LINE
  5
307
100
AcDbEntity
  8
ASSI
100
AcDbLine
 62
7
  6
CONTINUOUS
 10
6.5
 20
-12.3
 11
-6.5
 21
-12.3
  0
LINE
  5
308
100
AcDbEntity
  8
RACCORDO
100
AcDbLine
 62
7
  6
CONTINUOUS
 10
-8.9303794106
 20
-11.5898867382
 11
-6.5
 21
-11.5898867382
  0
LINE
  5
309
100
AcDbEntity
  8
ASSI
100
AcDbLine
 62
7
  6
CONTINUOUS
 10
-8.9303794106
 20
-11.5898867382
 11
-6.5
 21
-11.5898867382
  0
LINE
  5
30A
100
AcDbEntity
  8
RACCORDO
100
AcDbLine
 62
7
  6
CONTINUOUS
 10
8.9303794106
 20
-11.5898867382
 11
6.5
 21
-11.5898867382
  0
LINE
  5
30B
100
AcDbEntity
  8
ASSI
100
AcDbLine
 62
7
  6
CONTINUOUS
 10
8.9303794106
 20
-11.5898867382
 11
6.5
 21
-11.5898867382
  0
LINE
  5
30C
100
AcDbEntity
  8
DRAFT
100
AcDbLine
 62
7
  6
CONTINUOUS
 10
7.3325462644
 20
-11.5174537356
 11
6.5
 21
-11.5174537356
  0
LINE
  5
30D
100
AcDbEntity
  8
ASSI
100
AcDbLine
 62
7
  6
CONTINUOUS
 10
7.3325462644
 20
-11.5174537356
 11
6.5
 21
-11.5174537356
  0
LINE
  5
30E
100
AcDbEntity
  8
DRAFT
100
AcDbLine
 62
7
  6
CONTINUOUS
 10
-6.5
 20
-11.5174537356
 11
-7.4825462644
 21
-11.5174537356
  0
LINE
  5
30F
100
AcDbEntity
  8
ASSI
100
AcDbLine
 62
7
  6
CONTINUOUS
 10
-6.5
 20
-11.5174537356
 11
-7.4825462644
 21
-11.5174537356
  0
LINE
  5
310
100
AcDbEntity
  8
DRAFT
100
AcDbLine
 62
7
  6
CONTINUOUS
 10
9.4946499221
 20
-11.5
 11
7.35
 21
-11.5
  0
LINE
  5
311
100
AcDbEntity
  8
ASSI
100
AcDbLine
 62
7
  6
CONTINUOUS
 10
9.4946499221
 20
-11.5
 11
7.35
 21
-11.5
  0
LINE
  5
312
100
AcDbEntity
  8
DRAFT
100
AcDbLine
 62
7
  6
CONTINUOUS
 10
-7.5
 20
-11.5
 11
-9.4946499221
 21
-11.5
  0
LINE
  5
313
100
AcDbEntity
  8
ASSI
100
AcDbLine
 62
7
  6
CONTINUOUS
 10
-7.5
 20
-11.5
 11
-9.4946499221
 21
-11.5
  0
LINE
  5
314
100
AcDbEntity
  8
0
100
AcDbLine
 62
7
  6
CONTINUOUS
 10
-6.325
 20
-11.35
 11
6.275
 21
-11.35
  0
LINE
  5
315
100
AcDbEntity
  8
RACCORDO
100
AcDbLine
 62
253
  6
CONTINUOUS
 10
-6.5
 20
-11.2878679656
 11
-6.325
 21
-11.2878679656
  0
LINE
  5
316
100
AcDbEntity
  8
ASSI
100
AcDbLine
 62
253
  6
CONTINUOUS
 10
-6.5
 20
-11.2878679656
 11
-6.325
 21
-11.2878679656
  0
LINE
  5
317
100
AcDbEntity
  8
RACCORDO
100
AcDbLine
 62
253
  6
CONTINUOUS
 10
6.275
 20
-11.2878679656
 11
6.5
 21
-11.2878679656
  0
LINE
  5
318
100
AcDbEntity
  8
ASSI
100
AcDbLine
 62
253
  6
CONTINUOUS
 10
6.275
 20
-11.2878679656
 11
6.5
 21
-11.2878679656
  0
LINE
  5
319
100
AcDbEntity
  8
RACCORDO
100
AcDbLine
 62
7
  6
CONTINUOUS
 10
-6.5
 20
-11.2
 11
-6.325
 21
-11.2
  0
LINE
  5
31A
100
AcDbEntity
  8
ASSI
100
AcDbLine
 62
7
  6
CONTINUOUS
 10
-6.5
 20
-11.2
 11
-6.325
 21
-11.2
  0
LINE
  5
31B
100
AcDbEntity
  8
RACCORDO
100
AcDbLine
 62
7
  6
CONTINUOUS
 10
6.275
 20
-11.2
 11
6.5
 21
-11.2
  0
LINE
  5
31C
100
AcDbEntity
  8
ASSI
100
AcDbLine
 62
7
  6
CONTINUOUS
 10
6.275
 20
-11.2
 11
6.5
 21
-11.2
  0
LINE
  5
31D
100
AcDbEntity
  8
RACCORDO
100
AcDbLine
 62
7
  6
CONTINUOUS
 10
9.65
 20
-12.4223308767
 11
9.2122871968
 21
-12.4118358927
  0
LINE
  5
31E
100
AcDbEntity
  8
ASSI
100
AcDbLine
 62
7
  6
CONTINUOUS
 10
9.65
 20
-12.4223308767
 11
9.2122871968
 21
-12.4118358927
  0
LINE
  5
31F
100
AcDbEntity
  8
RACCORDO
100
AcDbLine
 62
7
  6
CONTINUOUS
 10
-9.2122871968
 20
-11.5881641073
 11
-9.65
 21
-11.5776691233
  0
LINE
  5
320
100
AcDbEntity
  8
ASSI
100
AcDbLine
 62
7
  6
CONTINUOUS
 10
-9.2122871968
 20
-11.5881641073
 11
-9.65
 21
-11.5776691233
  0
LINE
  5
321
100
AcDbEntity
  8
RACCORDO
100
AcDbLine
 62
253
  6
CONTINUOUS
 10
-10.3956323968
 20
-23.6278312164
 11
-10.4007229979
 21
-23.1226497308
  0
LINE
  5
322
100
AcDbEntity
  8
ASSI
100
AcDbLine
 62
253
  6
CONTINUOUS
 10
-10.3956323968
 20
-23.6278312164
 11
-10.4007229979
 21
-23.1226497308
  0
LINE
  5
323
100
AcDbEntity
  8
RACCORDO
100
AcDbLine
 62
7
  6
CONTINUOUS
 10
-10.65
 20
-22.399689968
 11
-10.65
 21
-23.8443375673
  0
LINE
  5
324
100
AcDbEntity
  8
ASSI
100
AcDbLine
 62
7
  6
CONTINUOUS
 10
-10.65
 20
-22.399689968
 11
-10.65
 21
-23.8443375673
  0
LINE
  5
325
100
AcDbEntity
  8
RACCORDO
100
AcDbLine
 62
7
  6
CONTINUOUS
 10
-10.65
 20
22.399689968
 11
-10.65
 21
23.8443375673
  0
LINE
  5
326
100
AcDbEntity
  8
ASSI
100
AcDbLine
 62
7
  6
CONTINUOUS
 10
-10.65
 20
22.399689968
 11
-10.65
 21
23.8443375673
  0
LINE
  5
327
100
AcDbEntity
  8
RACCORDO
100
AcDbLine
 62
253
  6
CONTINUOUS
 10
-10.645628166
 20
24.2456323968
 11
-10.645628166
 21
23.8443375673
  0
LINE
  5
328
100
AcDbEntity
  8
ASSI
100
AcDbLine
 62
7
  6
CONTINUOUS
 10
-10.645628166
 20
24.2456323968
 11
-10.645628166
 21
23.8443375673
  0
LINE
  5
329
100
AcDbEntity
  8
RACCORDO
100
AcDbLine
 62
253
  6
CONTINUOUS
 10
-10.645628166
 20
-23.8443375673
 11
-10.645628166
 21
-24.2456323968
  0
LINE
  5
32A
100
AcDbEntity
  8
ASSI
100
AcDbLine
 62
7
  6
CONTINUOUS
 10
-10.645628166
 20
-23.8443375673
 11
-10.645628166
 21
-24.2456323968
  0
LINE
  5
32B
100
AcDbEntity
  8
RACCORDO
100
AcDbLine
 62
253
  6
CONTINUOUS
 10
-10.3956323968
 20
-23.6278312164
 11
-10.3956323968
 21
-24.495628166
  0
LINE
  5
32C
100
AcDbEntity
  8
ASSI
100
AcDbLine
 62
253
  6
CONTINUOUS
 10
-10.3956323968
 20
-23.6278312164
 11
-10.3956323968
 21
-24.495628166
  0
LINE
  5
32D
100
AcDbEntity
  8
RACCORDO
100
AcDbLine
 62
253
  6
CONTINUOUS
 10
-10.3956323968
 20
23.7
 11
-10.3956323968
 21
24.495628166
  0
LINE
  5
32E
100
AcDbEntity
  8
ASSI
100
AcDbLine
 62
253
  6
CONTINUOUS
 10
-10.3956323968
 20
23.7
 11
-10.3956323968
 21
24.495628166
  0
LINE
  5
32F
100
AcDbEntity
  8
RACCORDO
100
AcDbLine
 62
7
  6
CONTINUOUS
 10
-9.65
 20
-20.3997711479
 11
-9.65
 21
-12.4223308767
  0
LINE
  5
330
100
AcDbEntity
  8
DRAFT
100
AcDbLine
 62
7
  6
CONTINUOUS
 10
-9.65
 20
-12.4223308767
 11
-9.65
 21
8.8223308767
  0
LINE
  5
331
100
AcDbEntity
  8
RACCORDO
100
AcDbLine
 62
7
  6
CONTINUOUS
 10
-9.65
 20
8.8223308767
 11
-9.65
 21
20.3997711479
  0
LINE
  5
332
100
AcDbEntity
  8
ASSI
100
AcDbLine
 62
7
  6
CONTINUOUS
 10
-9.65
 20
-20.3997711479
 11
-9.65
 21
20.3997711479
  0
LINE
  5
333
100
AcDbEntity
  8
RACCORDO
100
AcDbLine
 62
7
  6
CONTINUOUS
 10
-9.5871617663
 20
-20.2111031425
 11
-9.5871617663
 21
-19.8
  0
LINE
  5
334
100
AcDbEntity
  8
ASSI
100
AcDbLine
 62
7
  6
CONTINUOUS
 10
-9.5871617663
 20
-20.2111031425
 11
-9.5871617663
 21
-19.8
  0
LINE
  5
335
100
AcDbEntity
  8
RACCORDO
100
AcDbLine
 62
7
  6
CONTINUOUS
 10
-9.529560052
 20
-19.3
 11
-9.529560052
 21
-15.2792978419
  0
LINE
  5
336
100
AcDbEntity
  8
ASSI
100
AcDbLine
 62
7
  6
CONTINUOUS
 10
-9.529560052
 20
-19.3
 11
-9.529560052
 21
-15.2792978419
  0
LINE
  5
337
100
AcDbEntity
  8
RACCORDO
100
AcDbLine
 62
7
  6
CONTINUOUS
 10
-9.4946499221
 20
19.9333419123
 11
-9.4946499221
 21
8.9
  0
LINE
  5
338
100
AcDbEntity
  8
ASSI
100
AcDbLine
 62
7
  6
CONTINUOUS
 10
-9.4946499221
 20
19.9333419123
 11
-9.4946499221
 21
8.9
  0
LINE
  5
339
100
AcDbEntity
  8
DRAFT
100
AcDbLine
 62
7
  6
CONTINUOUS
 10
-9.4946499221
 20
7.9
 11
-9.4946499221
 21
0.5
  0
LINE
  5
33A
100
AcDbEntity
  8
ASSI
100
AcDbLine
 62
7
  6
CONTINUOUS
 10
-9.4946499221
 20
7.9
 11
-9.4946499221
 21
0.5
  0
LINE
  5
33B
100
AcDbEntity
  8
DRAFT
100
AcDbLine
 62
7
  6
CONTINUOUS
 10
-9.4946499221
 20
-0.5
 11
-9.4946499221
 21
-7.2
  0
LINE
  5
33C
100
AcDbEntity
  8
ASSI
100
AcDbLine
 62
7
  6
CONTINUOUS
 10
-9.4946499221
 20
-0.5
 11
-9.4946499221
 21
-7.2
  0
LINE
  5
33D
100
AcDbEntity
  8
DRAFT
100
AcDbLine
 62
7
  6
CONTINUOUS
 10
-9.4946499221
 20
-8.35
 11
-9.4946499221
 21
-11.5
  0
LINE
  5
33E
100
AcDbEntity
  8
ASSI
100
AcDbLine
 62
7
  6
CONTINUOUS
 10
-9.4946499221
 20
-8.35
 11
-9.4946499221
 21
-11.5
  0
LINE
  5
33F
100
AcDbEntity
  8
DRAFT
100
AcDbLine
 62
7
  6
CONTINUOUS
 10
-9.4946499221
 20
-12.5
 11
-9.4946499221
 21
-14.7
  0
LINE
  5
340
100
AcDbEntity
  8
ASSI
100
AcDbLine
 62
7
  6
CONTINUOUS
 10
-9.4946499221
 20
-12.5
 11
-9.4946499221
 21
-14.7
  0
LINE
  5
341
100
AcDbEntity
  8
RACCORDO
100
AcDbLine
 62
253
  6
CONTINUOUS
 10
-9.2122871968
 20
8.8118358927
 11
-9.2122871968
 21
7.9881641073
  0
LINE
  5
342
100
AcDbEntity
  8
ASSI
100
AcDbLine
 62
253
  6
CONTINUOUS
 10
-9.2122871968
 20
8.8118358927
 11
-9.2122871968
 21
7.9881641073
  0
LINE
  5
343
100
AcDbEntity
  8
RACCORDO
100
AcDbLine
 62
253
  6
CONTINUOUS
 10
-9.2122871968
 20
0.4118358927
 11
-9.2122871968
 21
-0.4118358927
  0
LINE
  5
344
100
AcDbEntity
  8
ASSI
100
AcDbLine
 62
253
  6
CONTINUOUS
 10
-9.2122871968
 20
0.4118358927
 11
-9.2122871968
 21
-0.4118358927
  0
LINE
  5
345
100
AcDbEntity
  8
RACCORDO
100
AcDbLine
 62
253
  6
CONTINUOUS
 10
-9.2122871968
 20
-7.2881641073
 11
-9.2122871968
 21
-8.35
  0
LINE
  5
346
100
AcDbEntity
  8
ASSI
100
AcDbLine
 62
253
  6
CONTINUOUS
 10
-9.2122871968
 20
-7.2881641073
 11
-9.2122871968
 21
-8.35
  0
LINE
  5
347
100
AcDbEntity
  8
RACCORDO
100
AcDbLine
 62
253
  6
CONTINUOUS
 10
-9.2122871968
 20
-11.5881641073
 11
-9.2122871968
 21
-12.4118358927
  0
LINE
  5
348
100
AcDbEntity
  8
ASSI
100
AcDbLine
 62
253
  6
CONTINUOUS
 10
-9.2122871968
 20
-11.5881641073
 11
-9.2122871968
 21
-12.4118358927
  0
LINE
  5
349
100
AcDbEntity
  8
0
100
AcDbLine
 62
7
  6
CONTINUOUS
 10
-9.025
 20
-8.1500000001
 11
-9.025
 21
7.9
  0
LINE
  5
34A
100
AcDbEntity
  8
RACCORDO
100
AcDbLine
 62
253
  6
CONTINUOUS
 10
-8.9303794106
 20
8.8101132618
 11
-8.9303794106
 21
7.9898867382
  0
LINE
  5
34B
100
AcDbEntity
  8
ASSI
100
AcDbLine
 62
253
  6
CONTINUOUS
 10
-8.9303794106
 20
8.8101132618
 11
-8.9303794106
 21
7.9898867382
  0
LINE
  5
34C
100
AcDbEntity
  8
RACCORDO
100
AcDbLine
 62
253
  6
CONTINUOUS
 10
-8.9303794106
 20
-11.5898867382
 11
-8.9303794106
 21
-12.4101132618
  0
LINE
  5
34D
100
AcDbEntity
  8
ASSI
100
AcDbLine
 62
253
  6
CONTINUOUS
 10
-8.9303794106
 20
-11.5898867382
 11
-8.9303794106
 21
-12.4101132618
  0
LINE
  5
34E
100
AcDbEntity
  8
RACCORDO
100
AcDbLine
 62
253
  6
CONTINUOUS
 10
-10.4007229979
 20
23.1226497308
 11
-10.3949051681
 21
23.7
  0
LINE
  5
34F
100
AcDbEntity
  8
ASSI
100
AcDbLine
 62
253
  6
CONTINUOUS
 10
-10.4007229979
 20
23.1226497308
 11
-10.3949051681
 21
23.7
  0
LINE
  5
350
100
AcDbEntity
  8
DRAFT
100
AcDbLine
 62
7
  6
CONTINUOUS
 10
-7.2988376746
 20
20.9104703804
 11
-7.3517786853
 21
20.4335707644
  0
LINE
  5
351
100
AcDbEntity
  8
ASSI
100
AcDbLine
 62
7
  6
CONTINUOUS
 10
-7.2988376746
 20
20.9104703804
 11
-7.3517786853
 21
20.4335707644
  0
LINE
  5
352
100
AcDbEntity
  8
0
100
AcDbLine
 62
7
  6
CONTINUOUS
 10
-6.325
 20
-9.9499999998
 11
6.275
 21
-9.9499999998
  0
LINE
  5
353
100
AcDbEntity
  8
DRAFT
100
AcDbLine
 62
7
  6
CONTINUOUS
 10
-8.35
 20
-9.6
 11
-7.5
 21
-9.6
  0
LINE
  5
354
100
AcDbEntity
  8
ASSI
100
AcDbLine
 62
7
  6
CONTINUOUS
 10
-8.35
 20
-9.6
 11
-7.5
 21
-9.6
  0
LINE
  5
355
100
AcDbEntity
  8
DRAFT
100
AcDbLine
 62
7
  6
CONTINUOUS
 10
7.35
 20
-9.6
 11
8.35
 21
-9.6
  0
LINE
  5
356
100
AcDbEntity
  8
ASSI
100
AcDbLine
 62
7
  6
CONTINUOUS
 10
7.35
 20
-9.6
 11
8.35
 21
-9.6
  0
LINE
  5
357
100
AcDbEntity
  8
DRAFT
100
AcDbLine
 62
7
  6
CONTINUOUS
 10
8.3325462644
 20
-9.5825462644
 11
7.3325462644
 21
-9.5825462644
  0
LINE
  5
358
100
AcDbEntity
  8
ASSI
100
AcDbLine
 62
7
  6
CONTINUOUS
 10
8.3325462644
 20
-9.5825462644
 11
7.3325462644
 21
-9.5825462644
  0
LINE
  5
359
100
AcDbEntity
  8
DRAFT
100
AcDbLine
 62
7
  6
CONTINUOUS
 10
-7.4825462644
 20
-9.5825462644
 11
-8.3325462644
 21
-9.5825462644
  0
LINE
  5
35A
100
AcDbEntity
  8
ASSI
100
AcDbLine
 62
7
  6
CONTINUOUS
 10
-7.4825462644
 20
-9.5825462644
 11
-8.3325462644
 21
-9.5825462644
  0
LINE
  5
35B
100
AcDbEntity
  8
RACCORDO
100
AcDbLine
 62
253
  6
CONTINUOUS
 10
7.3674537356
 20
-9.2043838508
 11
6.5
 21
-9.2043838508
  0
LINE
  5
35C
100
AcDbEntity
  8
ASSI
100
AcDbLine
 62
253
  6
CONTINUOUS
 10
7.3674537356
 20
-9.2043838508
 11
6.5
 21
-9.2043838508
  0
LINE
  5
35D
100
AcDbEntity
  8
RACCORDO
100
AcDbLine
 62
253
  6
CONTINUOUS
 10
-6.5
 20
-9.2043838508
 11
-7.3674537356
 21
-9.2043838508
  0
LINE
  5
35E
100
AcDbEntity
  8
ASSI
100
AcDbLine
 62
253
  6
CONTINUOUS
 10
-6.5
 20
-9.2043838508
 11
-7.3674537356
 21
-9.2043838508
  0
LINE
  5
35F
100
AcDbEntity
  8
0
100
AcDbLine
 62
7
  6
CONTINUOUS
 10
-7.3209441873
 20
-20.7113319946
 11
-7.2988376746
 21
-20.9104703804
  0
LINE
  5
360
100
AcDbEntity
  8
ASSI
100
AcDbLine
 62
7
  6
CONTINUOUS
 10
-7.3209441873
 20
-20.7113319946
 11
-7.2988376746
 21
-20.9104703804
  0
LINE
  5
361
100
AcDbEntity
  8
0
100
AcDbLine
 62
253
  6
CONTINUOUS
 10
-7.2418217019
 20
-20.0275513222
 11
-7.3401430257
 21
-17.1473642646
  0
LINE
  5
362
100
AcDbEntity
  8
ASSI
100
AcDbLine
 62
253
  6
CONTINUOUS
 10
-7.2418217019
 20
-20.0275513222
 11
-7.3401430257
 21
-17.1473642646
  0
LINE
  5
363
100
AcDbEntity
  8
RACCORDO
100
AcDbLine
 62
253
  6
CONTINUOUS
 10
-8.5050948319
 20
23.7
 11
-8.4992770021
 21
23.1226497308
  0
LINE
  5
364
100
AcDbEntity
  8
ASSI
100
AcDbLine
 62
253
  6
CONTINUOUS
 10
-8.5050948319
 20
23.7
 11
-8.4992770021
 21
23.1226497308
  0
LINE
  5
365
100
AcDbEntity
  8
RACCORDO
100
AcDbLine
 62
253
  6
CONTINUOUS
 10
-8.254371834
 20
23.8443375673
 11
-8.25
 21
23.4104851482
  0
LINE
  5
366
100
AcDbEntity
  8
ASSI
100
AcDbLine
 62
253
  6
CONTINUOUS
 10
-8.254371834
 20
23.8443375673
 11
-8.25
 21
23.4104851482
  0
LINE
  5
367
100
AcDbEntity
  8
RACCORDO
100
AcDbLine
 62
253
  6
CONTINUOUS
 10
-8.5043676032
 20
-23.6278312164
 11
-8.5043676032
 21
-24.495628166
  0
LINE
  5
368
100
AcDbEntity
  8
ASSI
100
AcDbLine
 62
253
  6
CONTINUOUS
 10
-8.5043676032
 20
-23.6278312164
 11
-8.5043676032
 21
-24.495628166
  0
LINE
  5
369
100
AcDbEntity
  8
RACCORDO
100
AcDbLine
 62
253
  6
CONTINUOUS
 10
-8.5043676032
 20
23.7
 11
-8.5043676032
 21
24.495628166
  0
LINE
  5
36A
100
AcDbEntity
  8
ASSI
100
AcDbLine
 62
253
  6
CONTINUOUS
 10
-8.5043676032
 20
23.7
 11
-8.5043676032
 21
24.495628166
  0
LINE
  5
36B
100
AcDbEntity
  8
RACCORDO
100
AcDbLine
 62
7
  6
CONTINUOUS
 10
-8.4101132618
 20
7.9898867382
 11
-8.4101132618
 21
7.9
  0
LINE
  5
36C
100
AcDbEntity
  8
ASSI
100
AcDbLine
 62
7
  6
CONTINUOUS
 10
-8.4101132618
 20
7.9898867382
 11
-8.4101132618
 21
7.9
  0
LINE
  5
36D
100
AcDbEntity
  8
DRAFT
100
AcDbLine
 62
7
  6
CONTINUOUS
 10
-8.35
 20
-8.65
 11
-8.35
 21
-9.6
  0
LINE
  5
36E
100
AcDbEntity
  8
ASSI
100
AcDbLine
 62
7
  6
CONTINUOUS
 10
-8.35
 20
-8.65
 11
-8.35
 21
-9.6
  0
LINE
  5
36F
100
AcDbEntity
  8
DRAFT
100
AcDbLine
 62
7
  6
CONTINUOUS
 10
-8.3325462644
 20
-9.5825462644
 11
-8.3325462644
 21
-8.65
  0
LINE
  5
370
100
AcDbEntity
  8
ASSI
100
AcDbLine
 62
7
  6
CONTINUOUS
 10
-8.3325462644
 20
-9.5825462644
 11
-8.3325462644
 21
-8.65
  0
LINE
  5
371
100
AcDbEntity
  8
RACCORDO
100
AcDbLine
 62
253
  6
CONTINUOUS
 10
-8.254371834
 20
-24.2456323968
 11
-8.254371834
 21
-23.8443375673
  0
LINE
  5
372
100
AcDbEntity
  8
ASSI
100
AcDbLine
 62
7
  6
CONTINUOUS
 10
-8.254371834
 20
-24.2456323968
 11
-8.254371834
 21
-23.8443375673
  0
LINE
  5
373
100
AcDbEntity
  8
RACCORDO
100
AcDbLine
 62
253
  6
CONTINUOUS
 10
-8.254371834
 20
23.8443375673
 11
-8.254371834
 21
24.2456323968
  0
LINE
  5
374
100
AcDbEntity
  8
ASSI
100
AcDbLine
 62
7
  6
CONTINUOUS
 10
-8.254371834
 20
23.8443375673
 11
-8.254371834
 21
24.2456323968
  0
LINE
  5
375
100
AcDbEntity
  8
DRAFT
100
AcDbLine
 62
7
  6
CONTINUOUS
 10
-8.25
 20
-21.4
 11
-8.25
 21
-20.9
  0
LINE
  5
376
100
AcDbEntity
  8
ASSI
100
AcDbLine
 62
7
  6
CONTINUOUS
 10
-8.25
 20
-21.4
 11
-8.25
 21
-20.9
  0
LINE
  5
377
100
AcDbEntity
  8
RACCORDO
100
AcDbLine
 62
7
  6
CONTINUOUS
 10
-8.25
 20
-22.4
 11
-8.25
 21
-23.8443375673
  0
LINE
  5
378
100
AcDbEntity
  8
ASSI
100
AcDbLine
 62
7
  6
CONTINUOUS
 10
-8.25
 20
-22.4
 11
-8.25
 21
-23.8443375673
  0
LINE
  5
379
100
AcDbEntity
  8
DRAFT
100
AcDbLine
 62
7
  6
CONTINUOUS
 10
-8.25
 20
20.9
 11
-8.25
 21
21.4
  0
LINE
  5
37A
100
AcDbEntity
  8
ASSI
100
AcDbLine
 62
7
  6
CONTINUOUS
 10
-8.25
 20
20.9
 11
-8.25
 21
21.4
  0
LINE
  5
37B
100
AcDbEntity
  8
RACCORDO
100
AcDbLine
 62
7
  6
CONTINUOUS
 10
-8.25
 20
22.4
 11
-8.25
 21
23.8443375673
  0
LINE
  5
37C
100
AcDbEntity
  8
ASSI
100
AcDbLine
 62
7
  6
CONTINUOUS
 10
-8.25
 20
22.4
 11
-8.25
 21
23.8443375673
  0
LINE
  5
37D
100
AcDbEntity
  8
RACCORDO
100
AcDbLine
 62
253
  6
CONTINUOUS
 10
-8.0840245667
 20
21.5659754333
 11
-8.0840245667
 21
20.9917082642
  0
LINE
  5
37E
100
AcDbEntity
  8
ASSI
100
AcDbLine
 62
253
  6
CONTINUOUS
 10
-8.0840245667
 20
21.5659754333
 11
-8.0840245667
 21
20.9917082642
  0
LINE
  5
37F
100
AcDbEntity
  8
RACCORDO
100
AcDbLine
 62
253
  6
CONTINUOUS
 10
-8.0840245667
 20
-20.9917082642
 11
-8.0840245667
 21
-21.5659754333
  0
LINE
  5
380
100
AcDbEntity
  8
ASSI
100
AcDbLine
 62
253
  6
CONTINUOUS
 10
-8.0840245667
 20
-20.9917082642
 11
-8.0840245667
 21
-21.5659754333
  0
LINE
  5
381
100
AcDbEntity
  8
0
100
AcDbLine
 62
7
  6
CONTINUOUS
 10
-8.0249999973
 20
6.9000000013
 11
-8.0249999973
 21
-3.649
  0
LINE
  5
382
100
AcDbEntity
  8
0
100
AcDbLine
 62
7
  6
CONTINUOUS
 10
-8.025
 20
-6.7490000003
 11
-8.025
 21
-5.649
  0
LINE
  5
383
100
AcDbEntity
  8
0
100
AcDbLine
 62
7
  6
CONTINUOUS
 10
-7.9250000017
 20
-6.7
 11
-7.9250000017
 21
-5.7
  0
LINE
  5
384
100
AcDbEntity
  8
RACCORDO
100
AcDbLine
 62
253
  6
CONTINUOUS
 10
-7.7372801014
 20
7.9898867382
 11
-7.7372801014
 21
7.9
  0
LINE
  5
385
100
AcDbEntity
  8
ASSI
100
AcDbLine
 62
253
  6
CONTINUOUS
 10
-7.7372801014
 20
7.9898867382
 11
-7.7372801014
 21
7.9
  0
LINE
  5
386
100
AcDbEntity
  8
RACCORDO
100
AcDbLine
 62
253
  6
CONTINUOUS
 10
-7.5841007192
 20
21.3126932437
 11
-7.5841007192
 21
20.9959955457
  0
LINE
  5
387
100
AcDbEntity
  8
ASSI
100
AcDbLine
 62
253
  6
CONTINUOUS
 10
-7.5841007192
 20
21.3126932437
 11
-7.5841007192
 21
20.9959955457
  0
LINE
  5
388
100
AcDbEntity
  8
RACCORDO
100
AcDbLine
 62
253
  6
CONTINUOUS
 10
-7.5841007192
 20
-20.9959955457
 11
-7.5841007192
 21
-21.3126932437
  0
LINE
  5
389
100
AcDbEntity
  8
ASSI
100
AcDbLine
 62
253
  6
CONTINUOUS
 10
-7.5841007192
 20
-20.9959955457
 11
-7.5841007192
 21
-21.3126932437
  0
LINE
  5
38A
100
AcDbEntity
  8
DRAFT
100
AcDbLine
 62
7
  6
CONTINUOUS
 10
-7.5
 20
-9.6
 11
-7.5
 21
-11.5
  0
LINE
  5
38B
100
AcDbEntity
  8
ASSI
100
AcDbLine
 62
7
  6
CONTINUOUS
 10
-7.5
 20
-9.6
 11
-7.5
 21
-11.5
  0
LINE
  5
38C
100
AcDbEntity
  8
RACCORDO
100
AcDbLine
 62
7
  6
CONTINUOUS
 10
-7.5
 20
-13.4000190385
 11
-7.5
 21
-12.5
  0
LINE
  5
38D
100
AcDbEntity
  8
ASSI
100
AcDbLine
 62
7
  6
CONTINUOUS
 10
-7.5
 20
-13.4000190385
 11
-7.5
 21
-12.5
  0
LINE
  5
38E
100
AcDbEntity
  8
RACCORDO
100
AcDbLine
 62
7
  6
CONTINUOUS
 10
-7.5
 20
8.9
 11
-7.5
 21
10.4000190385
  0
LINE
  5
38F
100
AcDbEntity
  8
ASSI
100
AcDbLine
 62
7
  6
CONTINUOUS
 10
-7.5
 20
8.9
 11
-7.5
 21
10.4000190385
  0
LINE
  5
390
100
AcDbEntity
  8
DRAFT
100
AcDbLine
 62
7
  6
CONTINUOUS
 10
-7.4825462644
 20
-9.5825462644
 11
-7.4825462644
 21
-11.5174537356
  0
LINE
  5
391
100
AcDbEntity
  8
ASSI
100
AcDbLine
 62
7
  6
CONTINUOUS
 10
-7.4825462644
 20
-9.5825462644
 11
-7.4825462644
 21
-11.5174537356
  0
LINE
  5
392
100
AcDbEntity
  8
RACCORDO
100
AcDbLine
 62
253
  6
CONTINUOUS
 10
-7.4372915245
 20
7.9872915245
 11
-7.4372915245
 21
7.9
  0
LINE
  5
393
100
AcDbEntity
  8
ASSI
100
AcDbLine
 62
7
  6
CONTINUOUS
 10
-7.4372915245
 20
7.9872915245
 11
-7.4372915245
 21
7.9
  0
LINE
  5
394
100
AcDbEntity
  8
RACCORDO
100
AcDbLine
 62
7
  6
CONTINUOUS
 10
-7.4101132618
 20
10.3101323002
 11
-7.4101132618
 21
8.8101132618
  0
LINE
  5
395
100
AcDbEntity
  8
ASSI
100
AcDbLine
 62
7
  6
CONTINUOUS
 10
-7.4101132618
 20
10.3101323002
 11
-7.4101132618
 21
8.8101132618
  0
LINE
  5
396
100
AcDbEntity
  8
RACCORDO
100
AcDbLine
 62
7
  6
CONTINUOUS
 10
-7.4101132618
 20
-13.3101323002
 11
-7.4101132618
 21
-12.4101132618
  0
LINE
  5
397
100
AcDbEntity
  8
ASSI
100
AcDbLine
 62
7
  6
CONTINUOUS
 10
-7.4101132618
 20
-13.3101323002
 11
-7.4101132618
 21
-12.4101132618
  0
LINE
  5
398
100
AcDbEntity
  8
RACCORDO
100
AcDbLine
 62
7
  6
CONTINUOUS
 10
-7.3674537356
 20
-9.2043838508
 11
-7.3674537356
 21
-8.65
  0
LINE
  5
399
100
AcDbEntity
  8
ASSI
100
AcDbLine
 62
7
  6
CONTINUOUS
 10
-7.3674537356
 20
-9.2043838508
 11
-7.3674537356
 21
-8.65
  0
LINE
  5
39A
100
AcDbEntity
  8
RACCORDO
100
AcDbLine
 62
7
  6
CONTINUOUS
 10
-7.3517786853
 20
20.4335707644
 11
-7.3517786853
 21
16.8065137252
  0
LINE
  5
39B
100
AcDbEntity
  8
ASSI
100
AcDbLine
 62
7
  6
CONTINUOUS
 10
-7.3517786853
 20
20.4335707644
 11
-7.3517786853
 21
16.8065137252
  0
LINE
  5
39C
100
AcDbEntity
  8
0
100
AcDbLine
 62
7
  6
CONTINUOUS
 10
-7.3401430257
 20
-17.1473642646
 11
-7.3401430257
 21
-19.3
  0
LINE
  5
39D
100
AcDbEntity
  8
ASSI
100
AcDbLine
 62
7
  6
CONTINUOUS
 10
-7.3401430257
 20
-17.1473642646
 11
-7.3401430257
 21
-19.3
  0
LINE
  5
39E
100
AcDbEntity
  8
RACCORDO
100
AcDbLine
 62
7
  6
CONTINUOUS
 10
-7.3209441873
 20
-20.7113319946
 11
-7.3209441873
 21
-19.8
  0
LINE
  5
39F
100
AcDbEntity
  8
ASSI
100
AcDbLine
 62
7
  6
CONTINUOUS
 10
-7.3209441873
 20
-20.7113319946
 11
-7.3209441873
 21
-19.8
  0
LINE
  5
3A0
100
AcDbEntity
  8
RACCORDO
100
AcDbLine
 62
7
  6
CONTINUOUS
 10
-7.2418217019
 20
-20.9959955457
 11
-7.2418217019
 21
-20.0275513222
  0
LINE
  5
3A1
100
AcDbEntity
  8
ASSI
100
AcDbLine
 62
7
  6
CONTINUOUS
 10
-7.2418217019
 20
-20.9959955457
 11
-7.2418217019
 21
-20.0275513222
  0
LINE
  5
3A2
100
AcDbEntity
  8
RACCORDO
100
AcDbLine
 62
7
  6
CONTINUOUS
 10
-7.2418217019
 20
20.0275513222
 11
-7.2418217019
 21
20.9959955457
  0
LINE
  5
3A3
100
AcDbEntity
  8
ASSI
100
AcDbLine
 62
7
  6
CONTINUOUS
 10
-7.2418217019
 20
20.0275513222
 11
-7.2418217019
 21
20.9959955457
  0
LINE
  5
3A4
100
AcDbEntity
  8
RACCORDO
100
AcDbLine
 62
253
  6
CONTINUOUS
 10
-8.4992770021
 20
-23.1226497308
 11
-8.5043676032
 21
-23.6278312164
  0
LINE
  5
3A5
100
AcDbEntity
  8
ASSI
100
AcDbLine
 62
253
  6
CONTINUOUS
 10
-8.4992770021
 20
-23.1226497308
 11
-8.5043676032
 21
-23.6278312164
  0
LINE
  5
3A6
100
AcDbEntity
  8
RACCORDO
100
AcDbLine
 62
253
  6
CONTINUOUS
 10
-8.25
 20
-23.4104851482
 11
-8.254371834
 21
-23.8443375673
  0
LINE
  5
3A7
100
AcDbEntity
  8
ASSI
100
AcDbLine
 62
253
  6
CONTINUOUS
 10
-8.25
 20
-23.4104851482
 11
-8.254371834
 21
-23.8443375673
  0
LINE
  5
3A8
100
AcDbEntity
  8
RACCORDO
100
AcDbLine
 62
253
  6
CONTINUOUS
 10
-7.2418217019
 20
20.0275513222
 11
-7.3517786853
 21
16.8065137252
  0
LINE
  5
3A9
100
AcDbEntity
  8
ASSI
100
AcDbLine
 62
253
  6
CONTINUOUS
 10
-7.2418217019
 20
20.0275513222
 11
-7.3517786853
 21
16.8065137252
  0
LINE
  5
3AA
100
AcDbEntity
  8
DRAFT
100
AcDbLine
 62
7
  6
CONTINUOUS
 10
4.4
 20
22.4
 11
4.3559327327
 21
22.3338981669
  0
LINE
  5
3AB
100
AcDbEntity
  8
ASSI
100
AcDbLine
 62
7
  6
CONTINUOUS
 10
4.4
 20
22.4
 11
4.3559327327
 21
22.3338981669
  0
LINE
  5
3AC
100
AcDbEntity
  8
RACCORDO
100
AcDbLine
 62
7
  6
CONTINUOUS
 10
9.65
 20
-7.2776691233
 11
9.2122871968
 21
-7.2881641073
  0
LINE
  5
3AD
100
AcDbEntity
  8
ASSI
100
AcDbLine
 62
7
  6
CONTINUOUS
 10
9.65
 20
-7.2776691233
 11
9.2122871968
 21
-7.2881641073
  0
LINE
  5
3AE
100
AcDbEntity
  8
RACCORDO
100
AcDbLine
 62
253
  6
CONTINUOUS
 10
7.3652902967
 20
-8.9089415249
 11
6.5
 21
-8.9089415249
  0
LINE
  5
3AF
100
AcDbEntity
  8
ASSI
100
AcDbLine
 62
253
  6
CONTINUOUS
 10
7.3652902967
 20
-8.9089415249
 11
6.5
 21
-8.9089415249
  0
LINE
  5
3B0
100
AcDbEntity
  8
RACCORDO
100
AcDbLine
 62
253
  6
CONTINUOUS
 10
-6.5
 20
-8.9089415249
 11
-7.3652902967
 21
-8.9089415249
  0
LINE
  5
3B1
100
AcDbEntity
  8
ASSI
100
AcDbLine
 62
253
  6
CONTINUOUS
 10
-6.5
 20
-8.9089415249
 11
-7.3652902967
 21
-8.9089415249
  0
LINE
  5
3B2
100
AcDbEntity
  8
0
100
AcDbLine
 62
7
  6
CONTINUOUS
 10
8.4749999999
 20
-8.65
 11
-8.5250000001
 21
-8.65
  0
LINE
  5
3B3
100
AcDbEntity
  8
RACCORDO
100
AcDbLine
 62
7
  6
CONTINUOUS
 10
9.65
 20
-8.35
 11
8.9329796517
 21
-8.35
  0
LINE
  5
3B4
100
AcDbEntity
  8
ASSI
100
AcDbLine
 62
7
  6
CONTINUOUS
 10
9.65
 20
-8.35
 11
8.9303794106
 21
-8.35
  0
LINE
  5
3B5
100
AcDbEntity
  8
RACCORDO
100
AcDbLine
 62
7
  6
CONTINUOUS
 10
-8.982980672
 20
-8.35
 11
-9.65
 21
-8.35
  0
LINE
  5
3B6
100
AcDbEntity
  8
ASSI
100
AcDbLine
 62
7
  6
CONTINUOUS
 10
-8.982980672
 20
-8.35
 11
-9.65
 21
-8.35
  0
LINE
  5
3B7
100
AcDbEntity
  8
0
100
AcDbLine
 62
7
  6
CONTINUOUS
 10
-3.025
 20
-7.7
 11
-2.025
 21
-7.7
  0
LINE
  5
3B8
100
AcDbEntity
  8
0
100
AcDbLine
 62
7
  6
CONTINUOUS
 10
1.975
 20
-7.7
 11
2.975
 21
-7.7
  0
LINE
  5
3B9
100
AcDbEntity
  8
0
100
AcDbLine
 62
7
  6
CONTINUOUS
 10
-7.0250000003
 20
-7.6489999999
 11
-3.2749999991
 21
-7.649
  0
LINE
  5
3BA
100
AcDbEntity
  8
0
100
AcDbLine
 62
7
  6
CONTINUOUS
 10
1.7250000016
 20
-7.649
 11
-1.7750000015
 21
-7.649
  0
LINE
  5
3BB
100
AcDbEntity
  8
0
100
AcDbLine
 62
7
  6
CONTINUOUS
 10
3.2249999985
 20
-7.6490000014
 11
6.975
 21
-7.6489999999
  0
LINE
  5
3BC
100
AcDbEntity
  8
DRAFT
100
AcDbLine
 62
7
  6
CONTINUOUS
 10
-9.4946499221
 20
-7.2
 11
-9.025
 21
-7.2
  0
LINE
  5
3BD
100
AcDbEntity
  8
ASSI
100
AcDbLine
 62
7
  6
CONTINUOUS
 10
-9.4946499221
 20
-7.2
 11
-9.025
 21
-7.2
  0
LINE
  5
3BE
100
AcDbEntity
  8
DRAFT
100
AcDbLine
 62
7
  6
CONTINUOUS
 10
9.4946499221
 20
-7.2
 11
8.975
 21
-7.2
  0
LINE
  5
3BF
100
AcDbEntity
  8
ASSI
100
AcDbLine
 62
7
  6
CONTINUOUS
 10
9.4946499221
 20
-7.2
 11
8.975
 21
-7.2
  0
LINE
  5
3C0
100
AcDbEntity
  8
RACCORDO
100
AcDbLine
 62
7
  6
CONTINUOUS
 10
-9.2122871968
 20
-7.2881641073
 11
-9.65
 21
-7.2776691233
  0
LINE
  5
3C1
100
AcDbEntity
  8
ASSI
100
AcDbLine
 62
7
  6
CONTINUOUS
 10
-9.2122871968
 20
-7.2881641073
 11
-9.65
 21
-7.2776691233
  0
LINE
  5
3C2
100
AcDbEntity
  8
DRAFT
100
AcDbLine
 62
7
  6
CONTINUOUS
 10
4.4
 20
-22.4
 11
4.3559327327
 21
-22.3338981669
  0
LINE
  5
3C3
100
AcDbEntity
  8
ASSI
100
AcDbLine
 62
7
  6
CONTINUOUS
 10
4.4
 20
-22.4
 11
4.3559327327
 21
-22.3338981669
  0
LINE
  5
3C4
100
AcDbEntity
  8
RACCORDO
100
AcDbLine
 62
253
  6
CONTINUOUS
 10
-6.5581782981
 20
20.0275513222
 11
-6.4482213147
 21
16.8065137252
  0
LINE
  5
3C5
100
AcDbEntity
  8
ASSI
100
AcDbLine
 62
253
  6
CONTINUOUS
 10
-6.5581782981
 20
20.0275513222
 11
-6.4482213147
 21
16.8065137252
  0
LINE
  5
3C6
100
AcDbEntity
  8
0
100
AcDbLine
 62
7
  6
CONTINUOUS
 10
-7.025
 20
-3.6490000002
 11
-7.025
 21
-5.649
  0
LINE
  5
3C7
100
AcDbEntity
  8
0
100
AcDbLine
 62
7
  6
CONTINUOUS
 10
-7.025
 20
-8.65
 11
-7.025
 21
-6.7490000003
  0
LINE
  5
3C8
100
AcDbEntity
  8
RACCORDO
100
AcDbLine
 62
253
  6
CONTINUOUS
 10
-6.8122642439
 20
-13.8101132618
 11
-6.8122642439
 21
-13.4876443732
  0
LINE
  5
3C9
100
AcDbEntity
  8
ASSI
100
AcDbLine
 62
253
  6
CONTINUOUS
 10
-6.8122642439
 20
-13.8101132618
 11
-6.8122642439
 21
-13.4876443732
  0
LINE
  5
3CA
100
AcDbEntity
  8
RACCORDO
100
AcDbLine
 62
253
  6
CONTINUOUS
 10
-6.8122642439
 20
10.1876443732
 11
-6.8122642439
 21
10.8101132618
  0
LINE
  5
3CB
100
AcDbEntity
  8
ASSI
100
AcDbLine
 62
253
  6
CONTINUOUS
 10
-6.8122642439
 20
10.1876443732
 11
-6.8122642439
 21
10.8101132618
  0
LINE
  5
3CC
100
AcDbEntity
  8
0
100
AcDbLine
 62
7
  6
CONTINUOUS
 10
-6.6249999993
 20
-8.65
 11
-6.6249999995
 21
-7.649
  0
LINE
  5
3CD
100
AcDbEntity
  8
RACCORDO
100
AcDbLine
 62
7
  6
CONTINUOUS
 10
-6.5581782981
 20
-20.5829242832
 11
-6.5581782981
 21
-20.0275513222
  0
LINE
  5
3CE
100
AcDbEntity
  8
ASSI
100
AcDbLine
 62
7
  6
CONTINUOUS
 10
-6.5581782981
 20
-20.5829242832
 11
-6.5581782981
 21
-20.0275513222
  0
LINE
  5
3CF
100
AcDbEntity
  8
RACCORDO
100
AcDbLine
 62
7
  6
CONTINUOUS
 10
-6.5581782981
 20
20.0275513222
 11
-6.5581782981
 21
20.5829242832
  0
LINE
  5
3D0
100
AcDbEntity
  8
ASSI
100
AcDbLine
 62
7
  6
CONTINUOUS
 10
-6.5581782981
 20
20.0275513222
 11
-6.5581782981
 21
20.5829242832
  0
LINE
  5
3D1
100
AcDbEntity
  8
RACCORDO
100
AcDbLine
 62
253
  6
CONTINUOUS
 10
-6.5123099353
 20
-13.8126856306
 11
-6.5123099353
 21
-13.4876443732
  0
LINE
  5
3D2
100
AcDbEntity
  8
ASSI
100
AcDbLine
 62
253
  6
CONTINUOUS
 10
-6.5123099353
 20
-13.8126856306
 11
-6.5123099353
 21
-13.4876443732
  0
LINE
  5
3D3
100
AcDbEntity
  8
RACCORDO
100
AcDbLine
 62
253
  6
CONTINUOUS
 10
-6.5123099353
 20
10.1876443732
 11
-6.5123099353
 21
10.8126856306
  0
LINE
  5
3D4
100
AcDbEntity
  8
ASSI
100
AcDbLine
 62
253
  6
CONTINUOUS
 10
-6.5123099353
 20
10.1876443732
 11
-6.5123099353
 21
10.8126856306
  0
LINE
  5
3D5
100
AcDbEntity
  8
RACCORDO
100
AcDbLine
 62
7
  6
CONTINUOUS
 10
-6.5
 20
10.8188401295
 11
-6.5
 21
10.1999543085
  0
LINE
  5
3D6
100
AcDbEntity
  8
ASSI
100
AcDbLine
 62
7
  6
CONTINUOUS
 10
-6.5
 20
10.8188401295
 11
-6.5
 21
10.1999543085
  0
LINE
  5
3D7
100
AcDbEntity
  8
DRAFT
100
AcDbLine
 62
7
  6
CONTINUOUS
 10
-6.5
 20
-11.5898867382
 11
-6.5
 21
-12.3
  0
LINE
  5
3D8
100
AcDbEntity
  8
ASSI
100
AcDbLine
 62
7
  6
CONTINUOUS
 10
-6.5
 20
-11.5898867382
 11
-6.5
 21
-12.3
  0
LINE
  5
3D9
100
AcDbEntity
  8
RACCORDO
100
AcDbLine
 62
7
  6
CONTINUOUS
 10
-6.5
 20
-13.4999543085
 11
-6.5
 21
-13.8188401295
  0
LINE
  5
3DA
100
AcDbEntity
  8
ASSI
100
AcDbLine
 62
7
  6
CONTINUOUS
 10
-6.5
 20
-13.4999543085
 11
-6.5
 21
-13.8188401295
  0
LINE
  5
3DB
100
AcDbEntity
  8
RACCORDO
100
AcDbLine
 62
7
  6
CONTINUOUS
 10
-6.5
 20
-11.5836351166
 11
-6.5
 21
-8.65
  0
LINE
  5
3DC
100
AcDbEntity
  8
ASSI
100
AcDbLine
 62
7
  6
CONTINUOUS
 10
-6.5
 20
-11.5836351166
 11
-6.5
 21
-8.65
  0
LINE
  5
3DD
100
AcDbEntity
  8
DRAFT
100
AcDbLine
 62
7
  6
CONTINUOUS
 10
-6.5
 20
7.9
 11
-6.5
 21
7.975051063
  0
LINE
  5
3DE
100
AcDbEntity
  8
ASSI
100
AcDbLine
 62
7
  6
CONTINUOUS
 10
-6.5
 20
7.9
 11
-6.5
 21
7.975051063
  0
LINE
  5
3DF
100
AcDbEntity
  8
DRAFT
100
AcDbLine
 62
7
  6
CONTINUOUS
 10
-6.5
 20
7.9898867382
 11
-6.5
 21
8.6
  0
LINE
  5
3E0
100
AcDbEntity
  8
ASSI
100
AcDbLine
 62
7
  6
CONTINUOUS
 10
-6.5
 20
7.9898867382
 11
-6.5
 21
8.6
  0
LINE
  5
3E1
100
AcDbEntity
  8
RACCORDO
100
AcDbLine
 62
7
  6
CONTINUOUS
 10
-6.4790558127
 20
-19.968583276
 11
-6.4790558127
 21
-19.8
  0
LINE
  5
3E2
100
AcDbEntity
  8
ASSI
100
AcDbLine
 62
7
  6
CONTINUOUS
 10
-6.4790558127
 20
-19.968583276
 11
-6.4790558127
 21
-19.8
  0
LINE
  5
3E3
100
AcDbEntity
  8
0
100
AcDbLine
 62
7
  6
CONTINUOUS
 10
-6.4598569743
 20
-17.1473642646
 11
-6.4598569743
 21
-19.3
  0
LINE
  5
3E4
100
AcDbEntity
  8
ASSI
100
AcDbLine
 62
7
  6
CONTINUOUS
 10
-6.4598569743
 20
-17.1473642646
 11
-6.4598569743
 21
-19.3
  0
LINE
  5
3E5
100
AcDbEntity
  8
RACCORDO
100
AcDbLine
 62
7
  6
CONTINUOUS
 10
-6.4482213147
 20
19.9223308767
 11
-6.4482213147
 21
16.8065137252
  0
LINE
  5
3E6
100
AcDbEntity
  8
ASSI
100
AcDbLine
 62
7
  6
CONTINUOUS
 10
-6.4482213147
 20
19.9223308767
 11
-6.4482213147
 21
16.8065137252
  0
LINE
  5
3E7
100
AcDbEntity
  8
0
100
AcDbLine
 62
7
  6
CONTINUOUS
 10
-6.325
 20
-8.65
 11
-6.325
 21
-11.3499999996
  0
LINE
  5
3E8
100
AcDbEntity
  8
RACCORDO
100
AcDbLine
 62
253
  6
CONTINUOUS
 10
-6.2123556268
 20
-12.8877357561
 11
-6.2123556268
 21
-13.1876900647
  0
LINE
  5
3E9
100
AcDbEntity
  8
ASSI
100
AcDbLine
 62
253
  6
CONTINUOUS
 10
-6.2123556268
 20
-12.8877357561
 11
-6.2123556268
 21
-13.1876900647
  0
LINE
  5
3EA
100
AcDbEntity
  8
RACCORDO
100
AcDbLine
 62
253
  6
CONTINUOUS
 10
-6.2123556268
 20
9.5877357561
 11
-6.2123556268
 21
9.8876900647
  0
LINE
  5
3EB
100
AcDbEntity
  8
ASSI
100
AcDbLine
 62
253
  6
CONTINUOUS
 10
-6.2123556268
 20
9.5877357561
 11
-6.2123556268
 21
9.8876900647
  0
LINE
  5
3EC
100
AcDbEntity
  8
0
100
AcDbLine
 62
7
  6
CONTINUOUS
 10
-6.0
 20
6.9
 11
-6.0000000002
 21
-5.7
  0
LINE
  5
3ED
100
AcDbEntity
  8
0
100
AcDbLine
 62
7
  6
CONTINUOUS
 10
-6.0000000002
 20
-6.7
 11
-6.0000000002
 21
-7.649
  0
LINE
  5
3EE
100
AcDbEntity
  8
0
100
AcDbLine
 62
7
  6
CONTINUOUS
 10
-5.525
 20
6.9
 11
-5.525
 21
-5.7
  0
LINE
  5
3EF
100
AcDbEntity
  8
DRAFT
100
AcDbLine
 62
7
  6
CONTINUOUS
 10
-5.5
 20
10.9
 11
-5.5
 21
14.139335085
  0
LINE
  5
3F0
100
AcDbEntity
  8
ASSI
100
AcDbLine
 62
7
  6
CONTINUOUS
 10
-5.5
 20
10.9
 11
-5.5
 21
14.139335085
  0
LINE
  5
3F1
100
AcDbEntity
  8
0
100
AcDbLine
 62
253
  6
CONTINUOUS
 10
-6.5581782981
 20
-20.0275513222
 11
-6.4598569743
 21
-17.1473642646
  0
LINE
  5
3F2
100
AcDbEntity
  8
ASSI
100
AcDbLine
 62
253
  6
CONTINUOUS
 10
-6.5581782981
 20
-20.0275513222
 11
-6.4598569743
 21
-17.1473642646
  0
LINE
  5
3F3
100
AcDbEntity
  8
RACCORDO
100
AcDbLine
 62
7
  6
CONTINUOUS
 10
-7.3524746263
 20
-8.65
 11
-7.3652902967
 21
-8.9089415249
  0
LINE
  5
3F4
100
AcDbEntity
  8
ASSI
100
AcDbLine
 62
7
  6
CONTINUOUS
 10
-7.3524746263
 20
-8.65
 11
-7.3652902967
 21
-8.9089415249
  0
LINE
  5
3F5
100
AcDbEntity
  8
RACCORDO
100
AcDbLine
 62
7
  6
CONTINUOUS
 10
6.555294768
 20
20.0829433217
 11
6.4482213147
 21
19.9223308767
  0
LINE
  5
3F6
100
AcDbEntity
  8
ASSI
100
AcDbLine
 62
7
  6
CONTINUOUS
 10
6.555294768
 20
20.0829433217
 11
6.4482213147
 21
19.9223308767
  0
LINE
  5
3F7
100
AcDbEntity
  8
0
100
AcDbLine
 62
7
  6
CONTINUOUS
 10
6.9750000003
 20
-6.7490000003
 11
7.975
 21
-6.7490000003
  0
LINE
  5
3F8
100
AcDbEntity
  8
0
100
AcDbLine
 62
7
  6
CONTINUOUS
 10
-7.0250000002
 20
-6.749
 11
-8.025
 21
-6.749
  0
LINE
  5
3F9
100
AcDbEntity
  8
0
100
AcDbLine
 62
7
  6
CONTINUOUS
 10
7.975
 20
-6.7
 11
-8.025
 21
-6.7
  0
LINE
  5
3FA
100
AcDbEntity
  8
0
100
AcDbLine
 62
7
  6
CONTINUOUS
 10
-8.025
 20
-5.7
 11
7.975
 21
-5.7
  0
LINE
  5
3FB
100
AcDbEntity
  8
0
100
AcDbLine
 62
7
  6
CONTINUOUS
 10
7.975
 20
-5.649
 11
6.975
 21
-5.649
  0
LINE
  5
3FC
100
AcDbEntity
  8
0
100
AcDbLine
 62
7
  6
CONTINUOUS
 10
-7.025
 20
-5.649
 11
-8.025
 21
-5.649
  0
LINE
  5
3FD
100
AcDbEntity
  8
DRAFT
100
AcDbLine
 62
7
  6
CONTINUOUS
 10
9.4946499221
 20
-11.5
 11
9.65
 21
-11.5776691233
  0
LINE
  5
3FE
100
AcDbEntity
  8
ASSI
100
AcDbLine
 62
7
  6
CONTINUOUS
 10
9.4946499221
 20
-11.5
 11
9.65
 21
-11.5776691233
  0
LINE
  5
3FF
100
AcDbEntity
  8
0
100
AcDbLine
 62
7
  6
CONTINUOUS
 10
6.555294768
 20
-20.0829433217
 11
6.4790558127
 21
-19.968583276
  0
LINE
  5
400
100
AcDbEntity
  8
ASSI
100
AcDbLine
 62
7
  6
CONTINUOUS
 10
6.555294768
 20
-20.0829433217
 11
6.4790558127
 21
-19.968583276
  0
LINE
  5
401
100
AcDbEntity
  8
DRAFT
100
AcDbLine
 62
7
  6
CONTINUOUS
 10
-5.4204228659
 20
10.8204228659
 11
-5.5
 21
14.139335085
  0
LINE
  5
402
100
AcDbEntity
  8
ASSI
100
AcDbLine
 62
7
  6
CONTINUOUS
 10
-5.4204228659
 20
10.8204228659
 11
-5.5
 21
14.139335085
  0
LINE
  5
403
100
AcDbEntity
  8
0
100
AcDbLine
 62
7
  6
CONTINUOUS
 10
-5.025
 20
4.2999999993
 11
-5.025
 21
-5.7
  0
LINE
  5
404
100
AcDbEntity
  8
0
100
AcDbLine
 62
7
  6
CONTINUOUS
 10
-5.0250000013
 20
7.9
 11
-5.0250000013
 21
7.975051063
  0
LINE
  5
405
100
AcDbEntity
  8
0
100
AcDbLine
 62
7
  6
CONTINUOUS
 10
-4.575
 20
-4.6999999998
 11
-4.575
 21
0.2999999997
  0
LINE
  5
406
100
AcDbEntity
  8
RACCORDO
100
AcDbLine
 62
7
  6
CONTINUOUS
 10
-4.5
 20
-19.9973819397
 11
-4.5
 21
-17.6
  0
LINE
  5
407
100
AcDbEntity
  8
ASSI
100
AcDbLine
 62
7
  6
CONTINUOUS
 10
-4.5
 20
-19.9973819397
 11
-4.5
 21
-17.6
  0
LINE
  5
408
100
AcDbEntity
  8
DRAFT
100
AcDbLine
 62
7
  6
CONTINUOUS
 10
-4.5
 20
10.9
 11
-4.5
 21
14.139335085
  0
LINE
  5
409
100
AcDbEntity
  8
ASSI
100
AcDbLine
 62
7
  6
CONTINUOUS
 10
-4.5
 20
10.9
 11
-4.5
 21
14.139335085
  0
LINE
  5
40A
100
AcDbEntity
  8
DRAFT
100
AcDbLine
 62
7
  6
CONTINUOUS
 10
-4.4
 20
23.8
 11
-4.4
 21
22.4
  0
LINE
  5
40B
100
AcDbEntity
  8
ASSI
100
AcDbLine
 62
7
  6
CONTINUOUS
 10
-4.4
 20
23.8
 11
-4.4
 21
22.4
  0
LINE
  5
40C
100
AcDbEntity
  8
DRAFT
100
AcDbLine
 62
7
  6
CONTINUOUS
 10
-4.4
 20
-22.4
 11
-4.4
 21
-23.8
  0
LINE
  5
40D
100
AcDbEntity
  8
ASSI
100
AcDbLine
 62
7
  6
CONTINUOUS
 10
-4.4
 20
-22.4
 11
-4.4
 21
-23.8
  0
LINE
  5
40E
100
AcDbEntity
  8
ASSI
100
AcDbLine
 62
7
  6
CONTINUOUS
 10
-4.3559327327
 20
-22.3338981669
 11
-4.3559327327
 21
-23.7507734247
  0
LINE
  5
40F
100
AcDbEntity
  8
ASSI
100
AcDbLine
 62
7
  6
CONTINUOUS
 10
-4.3559327327
 20
22.3338981669
 11
-4.3559327327
 21
23.7507734247
  0
LINE
  5
410
100
AcDbEntity
  8
RACCORDO
100
AcDbLine
 62
253
  6
CONTINUOUS
 10
-4.2
 20
-20.0
 11
-4.2
 21
-17.3
  0
LINE
  5
411
100
AcDbEntity
  8
ASSI
100
AcDbLine
 62
253
  6
CONTINUOUS
 10
-4.2
 20
-20.0
 11
-4.2
 21
-17.3
  0
LINE
  5
412
100
AcDbEntity
  8
0
100
AcDbLine
 62
253
  6
CONTINUOUS
 10
-3.775
 20
2.5153950104
 11
-3.775
 21
3.0846049899
  0
LINE
  5
413
100
AcDbEntity
  8
RACCORDO
100
AcDbLine
 62
7
  6
CONTINUOUS
 10
-3.5
 20
-22.3339198952
 11
-3.5
 21
-23.7511422903
  0
LINE
  5
414
100
AcDbEntity
  8
ASSI
100
AcDbLine
 62
7
  6
CONTINUOUS
 10
-3.5
 20
-22.3339198952
 11
-3.5
 21
-23.7511422903
  0
LINE
  5
415
100
AcDbEntity
  8
ASSI
100
AcDbLine
 62
7
  6
CONTINUOUS
 10
-3.5
 20
-23.7563493531
 11
-3.5
 21
-23.7941821702
  0
LINE
  5
416
100
AcDbEntity
  8
RACCORDO
100
AcDbLine
 62
7
  6
CONTINUOUS
 10
-3.5
 20
-16.2
 11
-3.5
 21
-14.7
  0
LINE
  5
417
100
AcDbEntity
  8
DRAFT
100
AcDbLine
 62
7
  6
CONTINUOUS
 10
-3.5
 20
-14.7
 11
-3.5
 21
-13.9
  0
LINE
  5
418
100
AcDbEntity
  8
ASSI
100
AcDbLine
 62
7
  6
CONTINUOUS
 10
-3.5
 20
-16.2
 11
-3.5
 21
-13.9
  0
LINE
  5
419
100
AcDbEntity
  8
ASSI
100
AcDbLine
 62
7
  6
CONTINUOUS
 10
-3.5
 20
23.7563493531
 11
-3.5
 21
23.7941821702
  0
LINE
  5
41A
100
AcDbEntity
  8
ASSI
100
AcDbLine
 62
7
  6
CONTINUOUS
 10
-3.5
 20
22.3339198952
 11
-3.5
 21
23.7511422903
  0
LINE
  5
41B
100
AcDbEntity
  8
DRAFT
100
AcDbLine
 62
7
  6
CONTINUOUS
 10
-4.5795771341
 20
10.8204228659
 11
-4.5
 21
14.139335085
  0
LINE
  5
41C
100
AcDbEntity
  8
ASSI
100
AcDbLine
 62
7
  6
CONTINUOUS
 10
-4.5795771341
 20
10.8204228659
 11
-4.5
 21
14.139335085
  0
LINE
  5
41D
100
AcDbEntity
  8
RACCORDO
100
AcDbLine
 62
7
  6
CONTINUOUS
 10
-9.4946499221
 20
-14.7
 11
-9.5212892833
 21
-14.7799830745
  0
LINE
  5
41E
100
AcDbEntity
  8
ASSI
100
AcDbLine
 62
7
  6
CONTINUOUS
 10
-9.4946499221
 20
-14.7
 11
-9.5212892833
 21
-14.7799830745
  0
LINE
  5
41F
100
AcDbEntity
  8
DRAFT
100
AcDbLine
 62
7
  6
CONTINUOUS
 10
5.5
 20
10.9
 11
5.4204228659
 21
10.8204228659
  0
LINE
  5
420
100
AcDbEntity
  8
ASSI
100
AcDbLine
 62
7
  6
CONTINUOUS
 10
5.5
 20
10.9
 11
5.4204228659
 21
10.8204228659
  0
LINE
  5
421
100
AcDbEntity
  8
DRAFT
100
AcDbLine
 62
7
  6
CONTINUOUS
 10
-9.4946499221
 20
0.5
 11
-9.65
 21
0.4223308767
  0
LINE
  5
422
100
AcDbEntity
  8
ASSI
100
AcDbLine
 62
7
  6
CONTINUOUS
 10
-9.4946499221
 20
0.5
 11
-9.65
 21
0.4223308767
  0
LINE
  5
423
100
AcDbEntity
  8
0
100
AcDbLine
 62
7
  6
CONTINUOUS
 10
0.425
 20
-4.6999999997
 11
4.525
 21
-4.7
  0
LINE
  5
424
100
AcDbEntity
  8
0
100
AcDbLine
 62
7
  6
CONTINUOUS
 10
-0.475
 20
-4.7
 11
-4.575
 21
-4.7
  0
LINE
  5
425
100
AcDbEntity
  8
0
100
AcDbLine
 62
7
  6
CONTINUOUS
 10
6.975
 20
-3.649
 11
8.975
 21
-3.6490000002
  0
LINE
  5
426
100
AcDbEntity
  8
0
100
AcDbLine
 62
7
  6
CONTINUOUS
 10
-7.0250000002
 20
-3.649
 11
-9.025
 21
-3.649
  0
LINE
  5
427
100
AcDbEntity
  8
DRAFT
100
AcDbLine
 62
7
  6
CONTINUOUS
 10
-9.4946499221
 20
-0.5
 11
-9.65
 21
-0.4223308767
  0
LINE
  5
428
100
AcDbEntity
  8
ASSI
100
AcDbLine
 62
7
  6
CONTINUOUS
 10
-9.4946499221
 20
-0.5
 11
-9.65
 21
-0.4223308767
  0
LINE
  5
429
100
AcDbEntity
  8
RACCORDO
100
AcDbLine
 62
253
  6
CONTINUOUS
 10
7.0000190385
 20
-13.9
 11
6.9101323002
 21
-13.8101132618
  0
LINE
  5
42A
100
AcDbEntity
  8
ASSI
100
AcDbLine
 62
253
  6
CONTINUOUS
 10
7.0000190385
 20
-13.9
 11
6.9101323002
 21
-13.8101132618
  0
LINE
  5
42B
100
AcDbEntity
  8
RACCORDO
100
AcDbLine
 62
253
  6
CONTINUOUS
 10
7.5
 20
-13.4000190385
 11
7.4101132618
 21
-13.3101323002
  0
LINE
  5
42C
100
AcDbEntity
  8
ASSI
100
AcDbLine
 62
253
  6
CONTINUOUS
 10
7.5
 20
-13.4000190385
 11
7.4101132618
 21
-13.3101323002
  0
LINE
  5
42D
100
AcDbEntity
  8
DRAFT
100
AcDbLine
 62
7
  6
CONTINUOUS
 10
7.5
 20
-12.5
 11
7.4101132618
 21
-12.4101132618
  0
LINE
  5
42E
100
AcDbEntity
  8
ASSI
100
AcDbLine
 62
7
  6
CONTINUOUS
 10
7.5
 20
-12.5
 11
7.4101132618
 21
-12.4101132618
  0
LINE
  5
42F
100
AcDbEntity
  8
RACCORDO
100
AcDbLine
 62
7
  6
CONTINUOUS
 10
-3.4
 20
-15.6
 11
-3.4
 21
-14.2
  0
LINE
  5
430
100
AcDbEntity
  8
0
100
AcDbLine
 62
7
  6
CONTINUOUS
 10
-3.125
 20
-5.7
 11
-3.125
 21
-4.6999999998
  0
LINE
  5
431
100
AcDbEntity
  8
0
100
AcDbLine
 62
7
  6
CONTINUOUS
 10
-3.0249999991
 20
-6.7
 11
-3.0249999991
 21
-7.7
  0
LINE
  5
432
100
AcDbEntity
  8
0
100
AcDbLine
 62
7
  6
CONTINUOUS
 10
-3.025
 20
-5.7
 11
-3.025
 21
-4.7
  0
LINE
  5
433
100
AcDbEntity
  8
RACCORDO
100
AcDbLine
 62
7
  6
CONTINUOUS
 10
-3.0
 20
-21.0
 11
-3.0
 21
-22.3912731322
  0
LINE
  5
434
100
AcDbEntity
  8
ASSI
100
AcDbLine
 62
7
  6
CONTINUOUS
 10
-3.0
 20
-21.0
 11
-3.0
 21
-22.3912731322
  0
LINE
  5
435
100
AcDbEntity
  8
RACCORDO
100
AcDbLine
 62
7
  6
CONTINUOUS
 10
-3.0
 20
21.0
 11
-3.0
 21
22.3912731322
  0
LINE
  5
436
100
AcDbEntity
  8
ASSI
100
AcDbLine
 62
7
  6
CONTINUOUS
 10
-3.0
 20
21.0
 11
-3.0
 21
22.3912731322
  0
LINE
  5
437
100
AcDbEntity
  8
0
100
AcDbLine
 62
253
  6
CONTINUOUS
 10
-2.825
 20
1.6141458767
 11
-2.825
 21
2.5153950104
  0
LINE
  5
438
100
AcDbEntity
  8
0
100
AcDbLine
 62
253
  6
CONTINUOUS
 10
-2.825
 20
3.0846049899
 11
-2.825
 21
3.9858541236
  0
LINE
  5
439
100
AcDbEntity
  8
0
100
AcDbLine
 62
253
  6
CONTINUOUS
 10
-2.225
 20
3.9858541236
 11
-2.225
 21
3.0846049899
  0
LINE
  5
43A
100
AcDbEntity
  8
0
100
AcDbLine
 62
253
  6
CONTINUOUS
 10
-2.225
 20
2.5153950104
 11
-2.225
 21
1.6141458767
  0
LINE
  5
43B
100
AcDbEntity
  8
0
100
AcDbLine
 62
7
  6
CONTINUOUS
 10
-2.0249999999
 20
-4.7
 11
-2.025
 21
-5.6999999999
  0
LINE
  5
43C
100
AcDbEntity
  8
0
100
AcDbLine
 62
7
  6
CONTINUOUS
 10
-2.0250000009
 20
-7.7
 11
-2.0250000009
 21
-6.7
  0
LINE
  5
43D
100
AcDbEntity
  8
0
100
AcDbLine
 62
7
  6
CONTINUOUS
 10
-1.925
 20
-4.6999999998
 11
-1.925
 21
-5.7
  0
LINE
  5
43E
100
AcDbEntity
  8
RACCORDO
100
AcDbLine
 62
253
  6
CONTINUOUS
 10
-9.5871617663
 20
-20.2111031425
 11
-9.65
 21
-20.3997711479
  0
LINE
  5
43F
100
AcDbEntity
  8
ASSI
100
AcDbLine
 62
253
  6
CONTINUOUS
 10
-9.5871617663
 20
-20.2111031425
 11
-9.65
 21
-20.3997711479
  0
LINE
  5
440
100
AcDbEntity
  8
RACCORDO
100
AcDbLine
 62
253
  6
CONTINUOUS
 10
-9.087542366
 20
-20.7113319946
 11
-9.1503805997
 21
-20.9
  0
LINE
  5
441
100
AcDbEntity
  8
ASSI
100
AcDbLine
 62
253
  6
CONTINUOUS
 10
-9.087542366
 20
-20.7113319946
 11
-9.1503805997
 21
-20.9
  0
LINE
  5
442
100
AcDbEntity
  8
RACCORDO
100
AcDbLine
 62
253
  6
CONTINUOUS
 10
6.9101323002
 20
10.8101132618
 11
7.0000190385
 21
10.9
  0
LINE
  5
443
100
AcDbEntity
  8
ASSI
100
AcDbLine
 62
253
  6
CONTINUOUS
 10
6.9101323002
 20
10.8101132618
 11
7.0000190385
 21
10.9
  0
LINE
  5
444
100
AcDbEntity
  8
RACCORDO
100
AcDbLine
 62
253
  6
CONTINUOUS
 10
7.4101132618
 20
10.3101323002
 11
7.5
 21
10.4000190385
  0
LINE
  5
445
100
AcDbEntity
  8
ASSI
100
AcDbLine
 62
253
  6
CONTINUOUS
 10
7.4101132618
 20
10.3101323002
 11
7.5
 21
10.4000190385
  0
LINE
  5
446
100
AcDbEntity
  8
DRAFT
100
AcDbLine
 62
7
  6
CONTINUOUS
 10
9.4946499221
 20
7.9
 11
9.65
 21
7.9776691233
  0
LINE
  5
447
100
AcDbEntity
  8
ASSI
100
AcDbLine
 62
7
  6
CONTINUOUS
 10
9.4946499221
 20
7.9
 11
9.65
 21
7.9776691233
  0
LINE
  5
448
100
AcDbEntity
  8
DRAFT
100
AcDbLine
 62
7
  6
CONTINUOUS
 10
9.4946499221
 20
-7.2
 11
9.65
 21
-7.2776691233
  0
LINE
  5
449
100
AcDbEntity
  8
ASSI
100
AcDbLine
 62
7
  6
CONTINUOUS
 10
9.4946499221
 20
-7.2
 11
9.65
 21
-7.2776691233
  0
LINE
  5
44A
100
AcDbEntity
  8
DRAFT
100
AcDbLine
 62
7
  6
CONTINUOUS
 10
7.35
 20
-9.6
 11
7.3325462644
 21
-9.5825462644
  0
LINE
  5
44B
100
AcDbEntity
  8
ASSI
100
AcDbLine
 62
7
  6
CONTINUOUS
 10
7.35
 20
-9.6
 11
7.3325462644
 21
-9.5825462644
  0
LINE
  5
44C
100
AcDbEntity
  8
RACCORDO
100
AcDbLine
 62
253
  6
CONTINUOUS
 10
-9.65
 20
20.3997711479
 11
-9.4946499221
 21
19.9333419123
  0
LINE
  5
44D
100
AcDbEntity
  8
ASSI
100
AcDbLine
 62
253
  6
CONTINUOUS
 10
-9.65
 20
20.3997711479
 11
-9.4946499221
 21
19.9333419123
  0
LINE
  5
44E
100
AcDbEntity
  8
RACCORDO
100
AcDbLine
 62
253
  6
CONTINUOUS
 10
-9.1503805997
 20
20.9
 11
-8.9950305219
 21
20.4335707644
  0
LINE
  5
44F
100
AcDbEntity
  8
ASSI
100
AcDbLine
 62
253
  6
CONTINUOUS
 10
-9.1503805997
 20
20.9
 11
-8.9950305219
 21
20.4335707644
  0
LINE
  5
450
100
AcDbEntity
  8
0
100
AcDbLine
 62
253
  6
CONTINUOUS
 10
-1.275
 20
3.0846049899
 11
-1.275
 21
2.5153950104
  0
LINE
  5
451
100
AcDbEntity
  8
0
100
AcDbLine
 62
7
  6
CONTINUOUS
 10
-0.475
 20
0.2999999998
 11
-0.475
 21
-4.6999999997
  0
LINE
  5
452
100
AcDbEntity
  8
0
100
AcDbLine
 62
253
  6
CONTINUOUS
 10
-0.0250000008
 20
1.300284605
 11
-0.0250000008
 21
4.2999920938
  0
LINE
  5
453
100
AcDbEntity
  8
DRAFT
100
AcDbLine
 62
7
  6
CONTINUOUS
 10
7.4101132618
 20
8.8101132618
 11
7.5
 21
8.9
  0
LINE
  5
454
100
AcDbEntity
  8
ASSI
100
AcDbLine
 62
7
  6
CONTINUOUS
 10
7.4101132618
 20
8.8101132618
 11
7.5
 21
8.9
  0
LINE
  5
455
100
AcDbEntity
  8
RACCORDO
100
AcDbLine
 62
7
  6
CONTINUOUS
 10
7.35
 20
7.9
 11
7.4372915245
 21
7.9872915245
  0
LINE
  5
456
100
AcDbEntity
  8
ASSI
100
AcDbLine
 62
7
  6
CONTINUOUS
 10
7.35
 20
7.9
 11
7.4372915245
 21
7.9872915245
  0
LINE
  5
457
100
AcDbEntity
  8
RACCORDO
100
AcDbLine
 62
7
  6
CONTINUOUS
 10
-9.2122871968
 20
-0.4118358927
 11
-9.65
 21
-0.4223308767
  0
LINE
  5
458
100
AcDbEntity
  8
ASSI
100
AcDbLine
 62
7
  6
CONTINUOUS
 10
-9.2122871968
 20
-0.4118358927
 11
-9.65
 21
-0.4223308767
  0
LINE
  5
459
100
AcDbEntity
  8
RACCORDO
100
AcDbLine
 62
7
  6
CONTINUOUS
 10
9.65
 20
0.4223308767
 11
9.2122871968
 21
0.4118358927
  0
LINE
  5
45A
100
AcDbEntity
  8
ASSI
100
AcDbLine
 62
7
  6
CONTINUOUS
 10
9.65
 20
0.4223308767
 11
9.2122871968
 21
0.4118358927
  0
LINE
  5
45B
100
AcDbEntity
  8
DRAFT
100
AcDbLine
 62
7
  6
CONTINUOUS
 10
-9.4946499221
 20
-0.5
 11
-9.025
 21
-0.5
  0
LINE
  5
45C
100
AcDbEntity
  8
ASSI
100
AcDbLine
 62
7
  6
CONTINUOUS
 10
-9.4946499221
 20
-0.5
 11
-9.025
 21
-0.5
  0
LINE
  5
45D
100
AcDbEntity
  8
DRAFT
100
AcDbLine
 62
7
  6
CONTINUOUS
 10
9.4946499221
 20
-0.5
 11
8.975
 21
-0.5
  0
LINE
  5
45E
100
AcDbEntity
  8
ASSI
100
AcDbLine
 62
7
  6
CONTINUOUS
 10
9.4946499221
 20
-0.5
 11
8.975
 21
-0.5
  0
LINE
  5
45F
100
AcDbEntity
  8
RACCORDO
100
AcDbLine
 62
7
  6
CONTINUOUS
 10
9.65
 20
-0.4223308767
 11
9.2122871968
 21
-0.4118358927
  0
LINE
  5
460
100
AcDbEntity
  8
ASSI
100
AcDbLine
 62
7
  6
CONTINUOUS
 10
9.65
 20
-0.4223308767
 11
9.2122871968
 21
-0.4118358927
  0
LINE
  5
461
100
AcDbEntity
  8
RACCORDO
100
AcDbLine
 62
7
  6
CONTINUOUS
 10
-9.2122871968
 20
0.4118358927
 11
-9.65
 21
0.4223308767
  0
LINE
  5
462
100
AcDbEntity
  8
ASSI
100
AcDbLine
 62
7
  6
CONTINUOUS
 10
-9.2122871968
 20
0.4118358927
 11
-9.65
 21
0.4223308767
  0
LINE
  5
463
100
AcDbEntity
  8
DRAFT
100
AcDbLine
 62
7
  6
CONTINUOUS
 10
8.35
 20
-9.6
 11
8.3325462644
 21
-9.5825462644
  0
LINE
  5
464
100
AcDbEntity
  8
ASSI
100
AcDbLine
 62
7
  6
CONTINUOUS
 10
8.35
 20
-9.6
 11
8.3325462644
 21
-9.5825462644
  0
LINE
  5
465
100
AcDbEntity
  8
0
100
AcDbLine
 62
7
  6
CONTINUOUS
 10
0.425
 20
-4.6999999998
 11
0.425
 21
0.2999999997
  0
LINE
  5
466
100
AcDbEntity
  8
0
100
AcDbLine
 62
253
  6
CONTINUOUS
 10
1.225
 20
2.5153950105
 11
1.225
 21
3.0846049894
  0
LINE
  5
467
100
AcDbEntity
  8
0
100
AcDbLine
 62
7
  6
CONTINUOUS
 10
1.875
 20
-4.6999999997
 11
1.875
 21
-5.7
  0
LINE
  5
468
100
AcDbEntity
  8
0
100
AcDbLine
 62
7
  6
CONTINUOUS
 10
1.9749999999
 20
-4.7
 11
1.975
 21
-5.6999999999
  0
LINE
  5
469
100
AcDbEntity
  8
0
100
AcDbLine
 62
7
  6
CONTINUOUS
 10
1.9750000009
 20
-6.7
 11
1.9750000009
 21
-7.7
  0
LINE
  5
46A
100
AcDbEntity
  8
RACCORDO
100
AcDbLine
 62
253
  6
CONTINUOUS
 10
8.9950305219
 20
20.4335707644
 11
9.1503805997
 21
20.9
  0
LINE
  5
46B
100
AcDbEntity
  8
ASSI
100
AcDbLine
 62
253
  6
CONTINUOUS
 10
8.9950305219
 20
20.4335707644
 11
9.1503805997
 21
20.9
  0
LINE
  5
46C
100
AcDbEntity
  8
DRAFT
100
AcDbLine
 62
7
  6
CONTINUOUS
 10
-8.35
 20
-9.6
 11
-8.3325462644
 21
-9.5825462644
  0
LINE
  5
46D
100
AcDbEntity
  8
ASSI
100
AcDbLine
 62
7
  6
CONTINUOUS
 10
-8.35
 20
-9.6
 11
-8.3325462644
 21
-9.5825462644
  0
LINE
  5
46E
100
AcDbEntity
  8
DRAFT
100
AcDbLine
 62
7
  6
CONTINUOUS
 10
-7.5
 20
-9.6
 11
-7.4825462644
 21
-9.5825462644
  0
LINE
  5
46F
100
AcDbEntity
  8
ASSI
100
AcDbLine
 62
7
  6
CONTINUOUS
 10
-7.5
 20
-9.6
 11
-7.4825462644
 21
-9.5825462644
  0
LINE
  5
470
100
AcDbEntity
  8
0
100
AcDbLine
 62
7
  6
CONTINUOUS
 10
-4.575
 20
0.3
 11
-0.475
 21
0.3
  0
LINE
  5
471
100
AcDbEntity
  8
0
100
AcDbLine
 62
7
  6
CONTINUOUS
 10
0.425
 20
0.3
 11
4.525
 21
0.3
  0
LINE
  5
472
100
AcDbEntity
  8
DRAFT
100
AcDbLine
 62
7
  6
CONTINUOUS
 10
-9.4946499221
 20
0.5
 11
-9.025
 21
0.5
  0
LINE
  5
473
100
AcDbEntity
  8
ASSI
100
AcDbLine
 62
7
  6
CONTINUOUS
 10
-9.4946499221
 20
0.5
 11
-9.025
 21
0.5
  0
LINE
  5
474
100
AcDbEntity
  8
DRAFT
100
AcDbLine
 62
7
  6
CONTINUOUS
 10
9.4946499221
 20
0.5
 11
8.975
 21
0.5
  0
LINE
  5
475
100
AcDbEntity
  8
ASSI
100
AcDbLine
 62
7
  6
CONTINUOUS
 10
9.4946499221
 20
0.5
 11
8.975
 21
0.5
  0
LINE
  5
476
100
AcDbEntity
  8
0
100
AcDbLine
 62
7
  6
CONTINUOUS
 10
4.975
 20
1.3002846051
 11
-5.025
 21
1.3003162277
  0
LINE
  5
477
100
AcDbEntity
  8
0
100
AcDbLine
 62
253
  6
CONTINUOUS
 10
-2.225
 20
1.6141458767
 11
-2.825
 21
1.6141458767
  0
LINE
  5
478
100
AcDbEntity
  8
RACCORDO
100
AcDbLine
 62
7
  6
CONTINUOUS
 10
-7.4372915245
 20
7.9872915245
 11
-7.35
 21
7.9
  0
LINE
  5
479
100
AcDbEntity
  8
ASSI
100
AcDbLine
 62
7
  6
CONTINUOUS
 10
-7.4372915245
 20
7.9872915245
 11
-7.35
 21
7.9
  0
LINE
  5
47A
100
AcDbEntity
  8
DRAFT
100
AcDbLine
 62
7
  6
CONTINUOUS
 10
-7.4101132618
 20
8.8101132618
 11
-7.5
 21
8.9
  0
LINE
  5
47B
100
AcDbEntity
  8
ASSI
100
AcDbLine
 62
7
  6
CONTINUOUS
 10
-7.4101132618
 20
8.8101132618
 11
-7.5
 21
8.9
  0
LINE
  5
47C
100
AcDbEntity
  8
RACCORDO
100
AcDbLine
 62
253
  6
CONTINUOUS
 10
-7.5
 20
10.4000190385
 11
-7.4101132618
 21
10.3101323002
  0
LINE
  5
47D
100
AcDbEntity
  8
ASSI
100
AcDbLine
 62
253
  6
CONTINUOUS
 10
-7.5
 20
10.4000190385
 11
-7.4101132618
 21
10.3101323002
  0
LINE
  5
47E
100
AcDbEntity
  8
RACCORDO
100
AcDbLine
 62
253
  6
CONTINUOUS
 10
9.1503805997
 20
-20.9
 11
9.087542366
 21
-20.7113319946
  0
LINE
  5
47F
100
AcDbEntity
  8
ASSI
100
AcDbLine
 62
253
  6
CONTINUOUS
 10
9.1503805997
 20
-20.9
 11
9.087542366
 21
-20.7113319946
  0
LINE
  5
480
100
AcDbEntity
  8
0
100
AcDbLine
 62
7
  6
CONTINUOUS
 10
2.9749999991
 20
-7.7
 11
2.9749999991
 21
-6.7
  0
LINE
  5
481
100
AcDbEntity
  8
0
100
AcDbLine
 62
7
  6
CONTINUOUS
 10
2.975
 20
-5.7
 11
2.975
 21
-4.7
  0
LINE
  5
482
100
AcDbEntity
  8
RACCORDO
100
AcDbLine
 62
7
  6
CONTINUOUS
 10
3.0
 20
-21.0
 11
3.0
 21
-22.3912731322
  0
LINE
  5
483
100
AcDbEntity
  8
ASSI
100
AcDbLine
 62
7
  6
CONTINUOUS
 10
3.0
 20
-21.0
 11
3.0
 21
-22.3912731322
  0
LINE
  5
484
100
AcDbEntity
  8
RACCORDO
100
AcDbLine
 62
7
  6
CONTINUOUS
 10
3.0
 20
21.0
 11
3.0
 21
22.3912731322
  0
LINE
  5
485
100
AcDbEntity
  8
ASSI
100
AcDbLine
 62
7
  6
CONTINUOUS
 10
3.0
 20
21.0
 11
3.0
 21
22.3912731322
  0
LINE
  5
486
100
AcDbEntity
  8
0
100
AcDbLine
 62
7
  6
CONTINUOUS
 10
3.075
 20
-4.6999999998
 11
3.075
 21
-5.7
  0
LINE
  5
487
100
AcDbEntity
  8
RACCORDO
100
AcDbLine
 62
7
  6
CONTINUOUS
 10
3.4
 20
-14.2
 11
3.4
 21
-15.6
  0
LINE
  5
488
100
AcDbEntity
  8
ASSI
100
AcDbLine
 62
7
  6
CONTINUOUS
 10
3.5
 20
-22.3339198952
 11
3.5
 21
-23.7511422903
  0
LINE
  5
489
100
AcDbEntity
  8
ASSI
100
AcDbLine
 62
7
  6
CONTINUOUS
 10
3.5
 20
-23.7563493531
 11
3.5
 21
-23.7941821702
  0
LINE
  5
48A
100
AcDbEntity
  8
RACCORDO
100
AcDbLine
 62
7
  6
CONTINUOUS
 10
3.5
 20
-16.2
 11
3.5
 21
-14.7
  0
LINE
  5
48B
100
AcDbEntity
  8
DRAFT
100
AcDbLine
 62
7
  6
CONTINUOUS
 10
3.5
 20
-14.7
 11
3.5
 21
-13.9
  0
LINE
  5
48C
100
AcDbEntity
  8
ASSI
100
AcDbLine
 62
7
  6
CONTINUOUS
 10
3.5
 20
-16.2
 11
3.5
 21
-13.9
  0
LINE
  5
48D
100
AcDbEntity
  8
RACCORDO
100
AcDbLine
 62
7
  6
CONTINUOUS
 10
3.5
 20
22.3339198952
 11
3.5
 21
23.7511422903
  0
LINE
  5
48E
100
AcDbEntity
  8
ASSI
100
AcDbLine
 62
7
  6
CONTINUOUS
 10
3.5
 20
23.7563493531
 11
3.5
 21
23.7941821702
  0
LINE
  5
48F
100
AcDbEntity
  8
ASSI
100
AcDbLine
 62
7
  6
CONTINUOUS
 10
3.5
 20
22.3339198952
 11
3.5
 21
23.7511422903
  0
LINE
  5
490
100
AcDbEntity
  8
0
100
AcDbLine
 62
253
  6
CONTINUOUS
 10
3.725
 20
3.0846049894
 11
3.725
 21
2.5153950105
  0
LINE
  5
491
100
AcDbEntity
  8
RACCORDO
100
AcDbLine
 62
253
  6
CONTINUOUS
 10
9.4946499221
 20
19.9333419123
 11
9.65
 21
20.3997711479
  0
LINE
  5
492
100
AcDbEntity
  8
ASSI
100
AcDbLine
 62
253
  6
CONTINUOUS
 10
9.4946499221
 20
19.9333419123
 11
9.65
 21
20.3997711479
  0
LINE
  5
493
100
AcDbEntity
  8
DRAFT
100
AcDbLine
 62
7
  6
CONTINUOUS
 10
-7.5
 20
-12.5
 11
-7.4101132618
 21
-12.4101132618
  0
LINE
  5
494
100
AcDbEntity
  8
ASSI
100
AcDbLine
 62
7
  6
CONTINUOUS
 10
-7.5
 20
-12.5
 11
-7.4101132618
 21
-12.4101132618
  0
LINE
  5
495
100
AcDbEntity
  8
DRAFT
100
AcDbLine
 62
7
  6
CONTINUOUS
 10
-9.65
 20
-7.2776691233
 11
-9.4946499221
 21
-7.2
  0
LINE
  5
496
100
AcDbEntity
  8
ASSI
100
AcDbLine
 62
7
  6
CONTINUOUS
 10
-9.65
 20
-7.2776691233
 11
-9.4946499221
 21
-7.2
  0
LINE
  5
497
100
AcDbEntity
  8
0
100
AcDbLine
 62
253
  6
CONTINUOUS
 10
3.725
 20
2.5153950105
 11
1.225
 21
2.5153950105
  0
LINE
  5
498
100
AcDbEntity
  8
0
100
AcDbLine
 62
253
  6
CONTINUOUS
 10
-1.275
 20
2.5153950104
 11
-2.225
 21
2.5153950104
  0
LINE
  5
499
100
AcDbEntity
  8
0
100
AcDbLine
 62
253
  6
CONTINUOUS
 10
-2.825
 20
2.5153950104
 11
-3.775
 21
2.5153950104
  0
LINE
  5
49A
100
AcDbEntity
  8
0
100
AcDbLine
 62
253
  6
CONTINUOUS
 10
-3.775
 20
3.0846049899
 11
-2.825
 21
3.0846049899
  0
LINE
  5
49B
100
AcDbEntity
  8
0
100
AcDbLine
 62
253
  6
CONTINUOUS
 10
-2.225
 20
3.0846049899
 11
-1.275
 21
3.0846049899
  0
LINE
  5
49C
100
AcDbEntity
  8
0
100
AcDbLine
 62
253
  6
CONTINUOUS
 10
1.225
 20
3.0846049894
 11
3.725
 21
3.0846049894
  0
LINE
  5
49D
100
AcDbEntity
  8
DRAFT
100
AcDbLine
 62
7
  6
CONTINUOUS
 10
-9.4946499221
 20
7.9
 11
-9.65
 21
7.9776691233
  0
LINE
  5
49E
100
AcDbEntity
  8
ASSI
100
AcDbLine
 62
7
  6
CONTINUOUS
 10
-9.4946499221
 20
7.9
 11
-9.65
 21
7.9776691233
  0
LINE
  5
49F
100
AcDbEntity
  8
RACCORDO
100
AcDbLine
 62
253
  6
CONTINUOUS
 10
-7.0000190385
 20
10.9
 11
-6.9101323002
 21
10.8101132618
  0
LINE
  5
4A0
100
AcDbEntity
  8
ASSI
100
AcDbLine
 62
253
  6
CONTINUOUS
 10
-7.0000190385
 20
10.9
 11
-6.9101323002
 21
10.8101132618
  0
LINE
  5
4A1
100
AcDbEntity
  8
DRAFT
100
AcDbLine
 62
7
  6
CONTINUOUS
 10
-5.5
 20
10.9
 11
-5.4204228659
 21
10.8204228659
  0
LINE
  5
4A2
100
AcDbEntity
  8
ASSI
100
AcDbLine
 62
7
  6
CONTINUOUS
 10
-5.5
 20
10.9
 11
-5.4204228659
 21
10.8204228659
  0
LINE
  5
4A3
100
AcDbEntity
  8
RACCORDO
100
AcDbLine
 62
253
  6
CONTINUOUS
 10
9.65
 20
-20.3997711479
 11
9.5871617663
 21
-20.2111031425
  0
LINE
  5
4A4
100
AcDbEntity
  8
ASSI
100
AcDbLine
 62
253
  6
CONTINUOUS
 10
9.65
 20
-20.3997711479
 11
9.5871617663
 21
-20.2111031425
  0
LINE
  5
4A5
100
AcDbEntity
  8
DRAFT
100
AcDbLine
 62
7
  6
CONTINUOUS
 10
4.5795771341
 20
10.8204228659
 11
4.5
 21
14.139335085
  0
LINE
  5
4A6
100
AcDbEntity
  8
ASSI
100
AcDbLine
 62
7
  6
CONTINUOUS
 10
4.5795771341
 20
10.8204228659
 11
4.5
 21
14.139335085
  0
LINE
  5
4A7
100
AcDbEntity
  8
RACCORDO
100
AcDbLine
 62
253
  6
CONTINUOUS
 10
4.2
 20
-17.3
 11
4.2
 21
-20.0
  0
LINE
  5
4A8
100
AcDbEntity
  8
ASSI
100
AcDbLine
 62
253
  6
CONTINUOUS
 10
4.2
 20
-17.3
 11
4.2
 21
-20.0
  0
LINE
  5
4A9
100
AcDbEntity
  8
ASSI
100
AcDbLine
 62
7
  6
CONTINUOUS
 10
4.3559327327
 20
-22.3338981669
 11
4.3559327327
 21
-23.7507734247
  0
LINE
  5
4AA
100
AcDbEntity
  8
ASSI
100
AcDbLine
 62
7
  6
CONTINUOUS
 10
4.3559327327
 20
22.3338981669
 11
4.3559327327
 21
23.7507734247
  0
LINE
  5
4AB
100
AcDbEntity
  8
DRAFT
100
AcDbLine
 62
7
  6
CONTINUOUS
 10
4.4
 20
-23.8
 11
4.4
 21
-22.4
  0
LINE
  5
4AC
100
AcDbEntity
  8
ASSI
100
AcDbLine
 62
7
  6
CONTINUOUS
 10
4.4
 20
-23.8
 11
4.4
 21
-22.4
  0
LINE
  5
4AD
100
AcDbEntity
  8
DRAFT
100
AcDbLine
 62
7
  6
CONTINUOUS
 10
4.4
 20
22.4
 11
4.4
 21
23.8
  0
LINE
  5
4AE
100
AcDbEntity
  8
ASSI
100
AcDbLine
 62
7
  6
CONTINUOUS
 10
4.4
 20
22.4
 11
4.4
 21
23.8
  0
LINE
  5
4AF
100
AcDbEntity
  8
RACCORDO
100
AcDbLine
 62
7
  6
CONTINUOUS
 10
4.5
 20
-17.6
 11
4.5
 21
-19.9973819397
  0
LINE
  5
4B0
100
AcDbEntity
  8
ASSI
100
AcDbLine
 62
7
  6
CONTINUOUS
 10
4.5
 20
-17.6
 11
4.5
 21
-19.9973819397
  0
LINE
  5
4B1
100
AcDbEntity
  8
DRAFT
100
AcDbLine
 62
7
  6
CONTINUOUS
 10
4.5
 20
10.9
 11
4.5
 21
14.139335085
  0
LINE
  5
4B2
100
AcDbEntity
  8
ASSI
100
AcDbLine
 62
7
  6
CONTINUOUS
 10
4.5
 20
10.9
 11
4.5
 21
14.139335085
  0
LINE
  5
4B3
100
AcDbEntity
  8
0
100
AcDbLine
 62
7
  6
CONTINUOUS
 10
4.525
 20
0.2999999998
 11
4.525
 21
-4.6999999997
  0
LINE
  5
4B4
100
AcDbEntity
  8
0
100
AcDbLine
 62
7
  6
CONTINUOUS
 10
4.975
 20
-5.7
 11
4.975
 21
4.299999999
  0
LINE
  5
4B5
100
AcDbEntity
  8
0
100
AcDbLine
 62
7
  6
CONTINUOUS
 10
4.975
 20
7.9
 11
4.975
 21
7.975051063
  0
LINE
  5
4B6
100
AcDbEntity
  8
0
100
AcDbLine
 62
7
  6
CONTINUOUS
 10
5.475
 20
6.9
 11
5.475
 21
-5.7
  0
LINE
  5
4B7
100
AcDbEntity
  8
DRAFT
100
AcDbLine
 62
7
  6
CONTINUOUS
 10
5.5
 20
10.9
 11
5.5
 21
14.139335085
  0
LINE
  5
4B8
100
AcDbEntity
  8
ASSI
100
AcDbLine
 62
7
  6
CONTINUOUS
 10
5.5
 20
10.9
 11
5.5
 21
14.139335085
  0
LINE
  5
4B9
100
AcDbEntity
  8
DRAFT
100
AcDbLine
 62
7
  6
CONTINUOUS
 10
5.4204228659
 20
10.8204228659
 11
5.5
 21
14.139335085
  0
LINE
  5
4BA
100
AcDbEntity
  8
ASSI
100
AcDbLine
 62
7
  6
CONTINUOUS
 10
5.4204228659
 20
10.8204228659
 11
5.5
 21
14.139335085
  0
LINE
  5
4BB
100
AcDbEntity
  8
0
100
AcDbLine
 62
7
  6
CONTINUOUS
 10
-6.555294768
 20
-20.0829433217
 11
-6.4790558127
 21
-19.968583276
  0
LINE
  5
4BC
100
AcDbEntity
  8
ASSI
100
AcDbLine
 62
7
  6
CONTINUOUS
 10
-6.555294768
 20
-20.0829433217
 11
-6.4790558127
 21
-19.968583276
  0
LINE
  5
4BD
100
AcDbEntity
  8
RACCORDO
100
AcDbLine
 62
253
  6
CONTINUOUS
 10
-7.4101132618
 20
-13.3101323002
 11
-7.5
 21
-13.4000190385
  0
LINE
  5
4BE
100
AcDbEntity
  8
ASSI
100
AcDbLine
 62
253
  6
CONTINUOUS
 10
-7.4101132618
 20
-13.3101323002
 11
-7.5
 21
-13.4000190385
  0
LINE
  5
4BF
100
AcDbEntity
  8
RACCORDO
100
AcDbLine
 62
253
  6
CONTINUOUS
 10
-6.9101323002
 20
-13.8101132618
 11
-7.0000190385
 21
-13.9
  0
LINE
  5
4C0
100
AcDbEntity
  8
ASSI
100
AcDbLine
 62
253
  6
CONTINUOUS
 10
-6.9101323002
 20
-13.8101132618
 11
-7.0000190385
 21
-13.9
  0
LINE
  5
4C1
100
AcDbEntity
  8
DRAFT
100
AcDbLine
 62
7
  6
CONTINUOUS
 10
9.4946499221
 20
-0.5
 11
9.65
 21
-0.4223308767
  0
LINE
  5
4C2
100
AcDbEntity
  8
ASSI
100
AcDbLine
 62
7
  6
CONTINUOUS
 10
9.4946499221
 20
-0.5
 11
9.65
 21
-0.4223308767
  0
LINE
  5
4C3
100
AcDbEntity
  8
0
100
AcDbLine
 62
253
  6
CONTINUOUS
 10
-2.825
 20
3.9858541236
 11
-2.225
 21
3.9858541236
  0
LINE
  5
4C4
100
AcDbEntity
  8
0
100
AcDbLine
 62
7
  6
CONTINUOUS
 10
4.975
 20
4.3
 11
-5.025
 21
4.3
  0
LINE
  5
4C5
100
AcDbEntity
  8
DRAFT
100
AcDbLine
 62
7
  6
CONTINUOUS
 10
9.4946499221
 20
0.5
 11
9.65
 21
0.4223308767
  0
LINE
  5
4C6
100
AcDbEntity
  8
ASSI
100
AcDbLine
 62
7
  6
CONTINUOUS
 10
9.4946499221
 20
0.5
 11
9.65
 21
0.4223308767
  0
LINE
  5
4C7
100
AcDbEntity
  8
RACCORDO
100
AcDbLine
 62
7
  6
CONTINUOUS
 10
-6.555294768
 20
20.0829433217
 11
-6.4482213147
 21
19.9223308767
  0
LINE
  5
4C8
100
AcDbEntity
  8
ASSI
100
AcDbLine
 62
7
  6
CONTINUOUS
 10
-6.555294768
 20
20.0829433217
 11
-6.4482213147
 21
19.9223308767
  0
LINE
  5
4C9
100
AcDbEntity
  8
RACCORDO
100
AcDbLine
 62
7
  6
CONTINUOUS
 10
9.4946499221
 20
-14.7
 11
9.5212892833
 21
-14.7799830745
  0
LINE
  5
4CA
100
AcDbEntity
  8
ASSI
100
AcDbLine
 62
7
  6
CONTINUOUS
 10
9.4946499221
 20
-14.7
 11
9.5212892833
 21
-14.7799830745
  0
LINE
  5
4CB
100
AcDbEntity
  8
RACCORDO
100
AcDbLine
 62
7
  6
CONTINUOUS
 10
7.3524746263
 20
-8.65
 11
7.3652902967
 21
-8.9089415249
  0
LINE
  5
4CC
100
AcDbEntity
  8
ASSI
100
AcDbLine
 62
7
  6
CONTINUOUS
 10
7.3524746263
 20
-8.65
 11
7.3652902967
 21
-8.9089415249
  0
LINE
  5
4CD
100
AcDbEntity
  8
0
100
AcDbLine
 62
253
  6
CONTINUOUS
 10
6.5581782981
 20
-20.0275513222
 11
6.4598569743
 21
-17.1473642646
  0
LINE
  5
4CE
100
AcDbEntity
  8
ASSI
100
AcDbLine
 62
253
  6
CONTINUOUS
 10
6.5581782981
 20
-20.0275513222
 11
6.4598569743
 21
-17.1473642646
  0
LINE
  5
4CF
100
AcDbEntity
  8
0
100
AcDbLine
 62
7
  6
CONTINUOUS
 10
5.95
 20
6.9
 11
5.95
 21
-5.7
  0
LINE
  5
4D0
100
AcDbEntity
  8
0
100
AcDbLine
 62
7
  6
CONTINUOUS
 10
5.95
 20
-6.7
 11
5.95
 21
-7.649
  0
LINE
  5
4D1
100
AcDbEntity
  8
RACCORDO
100
AcDbLine
 62
253
  6
CONTINUOUS
 10
6.2123556268
 20
-12.8877357561
 11
6.2123556268
 21
-13.1876900647
  0
LINE
  5
4D2
100
AcDbEntity
  8
ASSI
100
AcDbLine
 62
253
  6
CONTINUOUS
 10
6.2123556268
 20
-12.8877357561
 11
6.2123556268
 21
-13.1876900647
  0
LINE
  5
4D3
100
AcDbEntity
  8
RACCORDO
100
AcDbLine
 62
253
  6
CONTINUOUS
 10
6.2123556268
 20
9.5877357561
 11
6.2123556268
 21
9.8876900647
  0
LINE
  5
4D4
100
AcDbEntity
  8
ASSI
100
AcDbLine
 62
253
  6
CONTINUOUS
 10
6.2123556268
 20
9.5877357561
 11
6.2123556268
 21
9.8876900647
  0
LINE
  5
4D5
100
AcDbEntity
  8
0
100
AcDbLine
 62
7
  6
CONTINUOUS
 10
6.275
 20
-11.3499999996
 11
6.275
 21
-8.65
  0
LINE
  5
4D6
100
AcDbEntity
  8
RACCORDO
100
AcDbLine
 62
7
  6
CONTINUOUS
 10
6.4482213147
 20
16.8065137252
 11
6.4482213147
 21
19.9223308767
  0
LINE
  5
4D7
100
AcDbEntity
  8
ASSI
100
AcDbLine
 62
7
  6
CONTINUOUS
 10
6.4482213147
 20
16.8065137252
 11
6.4482213147
 21
19.9223308767
  0
LINE
  5
4D8
100
AcDbEntity
  8
0
100
AcDbLine
 62
7
  6
CONTINUOUS
 10
6.4598569743
 20
-17.1473642646
 11
6.4598569743
 21
-19.3
  0
LINE
  5
4D9
100
AcDbEntity
  8
ASSI
100
AcDbLine
 62
7
  6
CONTINUOUS
 10
6.4598569743
 20
-17.1473642646
 11
6.4598569743
 21
-19.3
  0
LINE
  5
4DA
100
AcDbEntity
  8
RACCORDO
100
AcDbLine
 62
7
  6
CONTINUOUS
 10
6.4790558127
 20
-19.968583276
 11
6.4790558127
 21
-19.8
  0
LINE
  5
4DB
100
AcDbEntity
  8
ASSI
100
AcDbLine
 62
7
  6
CONTINUOUS
 10
6.4790558127
 20
-19.968583276
 11
6.4790558127
 21
-19.8
  0
LINE
  5
4DC
100
AcDbEntity
  8
DRAFT
100
AcDbLine
 62
7
  6
CONTINUOUS
 10
6.5
 20
-11.5898867382
 11
6.5
 21
-12.3
  0
LINE
  5
4DD
100
AcDbEntity
  8
ASSI
100
AcDbLine
 62
7
  6
CONTINUOUS
 10
6.5
 20
-11.5898867382
 11
6.5
 21
-12.3
  0
LINE
  5
4DE
100
AcDbEntity
  8
RACCORDO
100
AcDbLine
 62
7
  6
CONTINUOUS
 10
6.5
 20
-13.8188401295
 11
6.5
 21
-13.4999543085
  0
LINE
  5
4DF
100
AcDbEntity
  8
ASSI
100
AcDbLine
 62
7
  6
CONTINUOUS
 10
6.5
 20
-13.8188401295
 11
6.5
 21
-13.4999543085
  0
LINE
  5
4E0
100
AcDbEntity
  8
RACCORDO
100
AcDbLine
 62
7
  6
CONTINUOUS
 10
6.5
 20
-11.5836351166
 11
6.5
 21
-8.65
  0
LINE
  5
4E1
100
AcDbEntity
  8
ASSI
100
AcDbLine
 62
7
  6
CONTINUOUS
 10
6.5
 20
-11.5836351166
 11
6.5
 21
-8.65
  0
LINE
  5
4E2
100
AcDbEntity
  8
DRAFT
100
AcDbLine
 62
7
  6
CONTINUOUS
 10
6.5
 20
7.9
 11
6.5
 21
7.975051063
  0
LINE
  5
4E3
100
AcDbEntity
  8
ASSI
100
AcDbLine
 62
7
  6
CONTINUOUS
 10
6.5
 20
7.9
 11
6.5
 21
7.975051063
  0
LINE
  5
4E4
100
AcDbEntity
  8
DRAFT
100
AcDbLine
 62
7
  6
CONTINUOUS
 10
6.5
 20
7.9898867382
 11
6.5
 21
8.6
  0
LINE
  5
4E5
100
AcDbEntity
  8
ASSI
100
AcDbLine
 62
7
  6
CONTINUOUS
 10
6.5
 20
7.9898867382
 11
6.5
 21
8.6
  0
LINE
  5
4E6
100
AcDbEntity
  8
RACCORDO
100
AcDbLine
 62
7
  6
CONTINUOUS
 10
6.5
 20
10.1999543085
 11
6.5
 21
10.8188401295
  0
LINE
  5
4E7
100
AcDbEntity
  8
ASSI
100
AcDbLine
 62
7
  6
CONTINUOUS
 10
6.5
 20
10.1999543085
 11
6.5
 21
10.8188401295
  0
LINE
  5
4E8
100
AcDbEntity
  8
RACCORDO
100
AcDbLine
 62
253
  6
CONTINUOUS
 10
6.5123099353
 20
10.8126856306
 11
6.5123099353
 21
10.1876443732
  0
LINE
  5
4E9
100
AcDbEntity
  8
ASSI
100
AcDbLine
 62
253
  6
CONTINUOUS
 10
6.5123099353
 20
10.8126856306
 11
6.5123099353
 21
10.1876443732
  0
LINE
  5
4EA
100
AcDbEntity
  8
RACCORDO
100
AcDbLine
 62
253
  6
CONTINUOUS
 10
6.5123099353
 20
-13.4876443732
 11
6.5123099353
 21
-13.8126856306
  0
LINE
  5
4EB
100
AcDbEntity
  8
ASSI
100
AcDbLine
 62
253
  6
CONTINUOUS
 10
6.5123099353
 20
-13.4876443732
 11
6.5123099353
 21
-13.8126856306
  0
LINE
  5
4EC
100
AcDbEntity
  8
RACCORDO
100
AcDbLine
 62
7
  6
CONTINUOUS
 10
6.5581782981
 20
20.5829242832
 11
6.5581782981
 21
20.0275513222
  0
LINE
  5
4ED
100
AcDbEntity
  8
ASSI
100
AcDbLine
 62
7
  6
CONTINUOUS
 10
6.5581782981
 20
20.5829242832
 11
6.5581782981
 21
20.0275513222
  0
LINE
  5
4EE
100
AcDbEntity
  8
RACCORDO
100
AcDbLine
 62
7
  6
CONTINUOUS
 10
6.5581782981
 20
-20.0275513222
 11
6.5581782981
 21
-20.5829242832
  0
LINE
  5
4EF
100
AcDbEntity
  8
ASSI
100
AcDbLine
 62
7
  6
CONTINUOUS
 10
6.5581782981
 20
-20.0275513222
 11
6.5581782981
 21
-20.5829242832
  0
LINE
  5
4F0
100
AcDbEntity
  8
0
100
AcDbLine
 62
7
  6
CONTINUOUS
 10
6.575
 20
-8.65
 11
6.575
 21
-7.649
  0
LINE
  5
4F1
100
AcDbEntity
  8
RACCORDO
100
AcDbLine
 62
253
  6
CONTINUOUS
 10
6.8122642439
 20
10.8101132618
 11
6.8122642439
 21
10.1876443732
  0
LINE
  5
4F2
100
AcDbEntity
  8
ASSI
100
AcDbLine
 62
253
  6
CONTINUOUS
 10
6.8122642439
 20
10.8101132618
 11
6.8122642439
 21
10.1876443732
  0
LINE
  5
4F3
100
AcDbEntity
  8
RACCORDO
100
AcDbLine
 62
253
  6
CONTINUOUS
 10
6.8122642439
 20
-13.4876443732
 11
6.8122642439
 21
-13.8101132618
  0
LINE
  5
4F4
100
AcDbEntity
  8
ASSI
100
AcDbLine
 62
253
  6
CONTINUOUS
 10
6.8122642439
 20
-13.4876443732
 11
6.8122642439
 21
-13.8101132618
  0
LINE
  5
4F5
100
AcDbEntity
  8
0
100
AcDbLine
 62
7
  6
CONTINUOUS
 10
6.9750000007
 20
-8.65
 11
6.9750000003
 21
-6.7490000003
  0
LINE
  5
4F6
100
AcDbEntity
  8
0
100
AcDbLine
 62
7
  6
CONTINUOUS
 10
6.975
 20
-5.649
 11
6.975
 21
-3.649
  0
LINE
  5
4F7
100
AcDbEntity
  8
RACCORDO
100
AcDbLine
 62
7
  6
CONTINUOUS
 10
7.2418217019
 20
20.9959955457
 11
7.2418217019
 21
20.0275513222
  0
LINE
  5
4F8
100
AcDbEntity
  8
ASSI
100
AcDbLine
 62
7
  6
CONTINUOUS
 10
7.2418217019
 20
20.9959955457
 11
7.2418217019
 21
20.0275513222
  0
LINE
  5
4F9
100
AcDbEntity
  8
RACCORDO
100
AcDbLine
 62
7
  6
CONTINUOUS
 10
7.2418217019
 20
-20.0275513222
 11
7.2418217019
 21
-20.9959955457
  0
LINE
  5
4FA
100
AcDbEntity
  8
ASSI
100
AcDbLine
 62
7
  6
CONTINUOUS
 10
7.2418217019
 20
-20.0275513222
 11
7.2418217019
 21
-20.9959955457
  0
LINE
  5
4FB
100
AcDbEntity
  8
RACCORDO
100
AcDbLine
 62
7
  6
CONTINUOUS
 10
7.3209441873
 20
-20.7113319946
 11
7.3209441873
 21
-19.8
  0
LINE
  5
4FC
100
AcDbEntity
  8
ASSI
100
AcDbLine
 62
7
  6
CONTINUOUS
 10
7.3209441873
 20
-20.7113319946
 11
7.3209441873
 21
-19.8
  0
LINE
  5
4FD
100
AcDbEntity
  8
DRAFT
100
AcDbLine
 62
7
  6
CONTINUOUS
 10
7.3325462644
 20
-11.5174537356
 11
7.3325462644
 21
-9.5825462644
  0
LINE
  5
4FE
100
AcDbEntity
  8
ASSI
100
AcDbLine
 62
7
  6
CONTINUOUS
 10
7.3325462644
 20
-11.5174537356
 11
7.3325462644
 21
-9.5825462644
  0
LINE
  5
4FF
100
AcDbEntity
  8
0
100
AcDbLine
 62
7
  6
CONTINUOUS
 10
7.3401430257
 20
-17.1473642646
 11
7.3401430257
 21
-19.3
  0
LINE
  5
500
100
AcDbEntity
  8
ASSI
100
AcDbLine
 62
7
  6
CONTINUOUS
 10
7.3401430257
 20
-17.1473642646
 11
7.3401430257
 21
-19.3
  0
LINE
  5
501
100
AcDbEntity
  8
DRAFT
100
AcDbLine
 62
7
  6
CONTINUOUS
 10
7.35
 20
-11.5
 11
7.35
 21
-9.6
  0
LINE
  5
502
100
AcDbEntity
  8
ASSI
100
AcDbLine
 62
7
  6
CONTINUOUS
 10
7.35
 20
-11.5
 11
7.35
 21
-9.6
  0
LINE
  5
503
100
AcDbEntity
  8
RACCORDO
100
AcDbLine
 62
7
  6
CONTINUOUS
 10
7.3517786853
 20
20.4335707644
 11
7.3517786853
 21
16.8065137252
  0
LINE
  5
504
100
AcDbEntity
  8
ASSI
100
AcDbLine
 62
7
  6
CONTINUOUS
 10
7.3517786853
 20
20.4335707644
 11
7.3517786853
 21
16.8065137252
  0
LINE
  5
505
100
AcDbEntity
  8
RACCORDO
100
AcDbLine
 62
7
  6
CONTINUOUS
 10
7.3674537356
 20
-8.65
 11
7.3674537356
 21
-9.2043838508
  0
LINE
  5
506
100
AcDbEntity
  8
ASSI
100
AcDbLine
 62
7
  6
CONTINUOUS
 10
7.3674537356
 20
-8.65
 11
7.3674537356
 21
-9.2043838508
  0
LINE
  5
507
100
AcDbEntity
  8
RACCORDO
100
AcDbLine
 62
7
  6
CONTINUOUS
 10
7.4101132618
 20
10.3101323002
 11
7.4101132618
 21
8.8101132618
  0
LINE
  5
508
100
AcDbEntity
  8
ASSI
100
AcDbLine
 62
7
  6
CONTINUOUS
 10
7.4101132618
 20
10.3101323002
 11
7.4101132618
 21
8.8101132618
  0
LINE
  5
509
100
AcDbEntity
  8
RACCORDO
100
AcDbLine
 62
7
  6
CONTINUOUS
 10
7.4101132618
 20
-13.3101323002
 11
7.4101132618
 21
-12.4101132618
  0
LINE
  5
50A
100
AcDbEntity
  8
ASSI
100
AcDbLine
 62
7
  6
CONTINUOUS
 10
7.4101132618
 20
-13.3101323002
 11
7.4101132618
 21
-12.4101132618
  0
LINE
  5
50B
100
AcDbEntity
  8
RACCORDO
100
AcDbLine
 62
253
  6
CONTINUOUS
 10
7.4372915245
 20
7.9872915245
 11
7.4372915245
 21
7.9
  0
LINE
  5
50C
100
AcDbEntity
  8
ASSI
100
AcDbLine
 62
7
  6
CONTINUOUS
 10
7.4372915245
 20
7.9872915245
 11
7.4372915245
 21
7.9
  0
LINE
  5
50D
100
AcDbEntity
  8
RACCORDO
100
AcDbLine
 62
7
  6
CONTINUOUS
 10
7.5
 20
-13.4000190385
 11
7.5
 21
-12.5
  0
LINE
  5
50E
100
AcDbEntity
  8
ASSI
100
AcDbLine
 62
7
  6
CONTINUOUS
 10
7.5
 20
-13.4000190385
 11
7.5
 21
-12.5
  0
LINE
  5
50F
100
AcDbEntity
  8
RACCORDO
100
AcDbLine
 62
7
  6
CONTINUOUS
 10
7.5
 20
8.9
 11
7.5
 21
10.4000190385
  0
LINE
  5
510
100
AcDbEntity
  8
ASSI
100
AcDbLine
 62
7
  6
CONTINUOUS
 10
7.5
 20
8.9
 11
7.5
 21
10.4000190385
  0
LINE
  5
511
100
AcDbEntity
  8
RACCORDO
100
AcDbLine
 62
253
  6
CONTINUOUS
 10
7.5841007192
 20
-21.3126932437
 11
7.5841007192
 21
-20.9959955457
  0
LINE
  5
512
100
AcDbEntity
  8
ASSI
100
AcDbLine
 62
253
  6
CONTINUOUS
 10
7.5841007192
 20
-21.3126932437
 11
7.5841007192
 21
-20.9959955457
  0
LINE
  5
513
100
AcDbEntity
  8
RACCORDO
100
AcDbLine
 62
253
  6
CONTINUOUS
 10
7.5841007192
 20
20.9959955457
 11
7.5841007192
 21
21.3126932437
  0
LINE
  5
514
100
AcDbEntity
  8
ASSI
100
AcDbLine
 62
253
  6
CONTINUOUS
 10
7.5841007192
 20
20.9959955457
 11
7.5841007192
 21
21.3126932437
  0
LINE
  5
515
100
AcDbEntity
  8
RACCORDO
100
AcDbLine
 62
253
  6
CONTINUOUS
 10
6.5581782981
 20
20.0275513222
 11
6.4482213147
 21
16.8065137252
  0
LINE
  5
516
100
AcDbEntity
  8
ASSI
100
AcDbLine
 62
253
  6
CONTINUOUS
 10
6.5581782981
 20
20.0275513222
 11
6.4482213147
 21
16.8065137252
  0
LINE
  5
517
100
AcDbEntity
  8
DRAFT
100
AcDbLine
 62
7
  6
CONTINUOUS
 10
-9.4946499221
 20
-11.5
 11
-9.65
 21
-11.5776691233
  0
LINE
  5
518
100
AcDbEntity
  8
ASSI
100
AcDbLine
 62
7
  6
CONTINUOUS
 10
-9.4946499221
 20
-11.5
 11
-9.65
 21
-11.5776691233
  0
LINE
  5
519
100
AcDbEntity
  8
0
100
AcDbLine
 62
7
  6
CONTINUOUS
 10
7.9749999973
 20
6.9000000013
 11
-8.0249999973
 21
6.9000000013
  0
LINE
  5
51A
100
AcDbEntity
  8
RACCORDO
100
AcDbLine
 62
253
  6
CONTINUOUS
 10
7.2418217019
 20
20.0275513222
 11
7.3517786853
 21
16.8065137252
  0
LINE
  5
51B
100
AcDbEntity
  8
ASSI
100
AcDbLine
 62
253
  6
CONTINUOUS
 10
7.2418217019
 20
20.0275513222
 11
7.3517786853
 21
16.8065137252
  0
LINE
  5
51C
100
AcDbEntity
  8
RACCORDO
100
AcDbLine
 62
253
  6
CONTINUOUS
 10
8.254371834
 20
-23.8443375673
 11
8.25
 21
-23.4104851482
  0
LINE
  5
51D
100
AcDbEntity
  8
ASSI
100
AcDbLine
 62
253
  6
CONTINUOUS
 10
8.254371834
 20
-23.8443375673
 11
8.25
 21
-23.4104851482
  0
LINE
  5
51E
100
AcDbEntity
  8
RACCORDO
100
AcDbLine
 62
253
  6
CONTINUOUS
 10
8.5043676032
 20
-23.6278312164
 11
8.4992770021
 21
-23.1226497308
  0
LINE
  5
51F
100
AcDbEntity
  8
ASSI
100
AcDbLine
 62
253
  6
CONTINUOUS
 10
8.5043676032
 20
-23.6278312164
 11
8.4992770021
 21
-23.1226497308
  0
LINE
  5
520
100
AcDbEntity
  8
RACCORDO
100
AcDbLine
 62
253
  6
CONTINUOUS
 10
7.7372801014
 20
7.9898867382
 11
7.7372801014
 21
7.9
  0
LINE
  5
521
100
AcDbEntity
  8
ASSI
100
AcDbLine
 62
253
  6
CONTINUOUS
 10
7.7372801014
 20
7.9898867382
 11
7.7372801014
 21
7.9
  0
LINE
  5
522
100
AcDbEntity
  8
0
100
AcDbLine
 62
7
  6
CONTINUOUS
 10
7.875
 20
-6.7
 11
7.875
 21
-5.7
  0
LINE
  5
523
100
AcDbEntity
  8
0
100
AcDbLine
 62
7
  6
CONTINUOUS
 10
7.975
 20
6.9000000013
 11
7.975
 21
-3.649
  0
LINE
  5
524
100
AcDbEntity
  8
0
100
AcDbLine
 62
7
  6
CONTINUOUS
 10
7.975
 20
-5.649
 11
7.975
 21
-6.7490000003
  0
LINE
  5
525
100
AcDbEntity
  8
RACCORDO
100
AcDbLine
 62
253
  6
CONTINUOUS
 10
8.0840245667
 20
-21.5659754333
 11
8.0840245667
 21
-20.9917082642
  0
LINE
  5
526
100
AcDbEntity
  8
ASSI
100
AcDbLine
 62
253
  6
CONTINUOUS
 10
8.0840245667
 20
-21.5659754333
 11
8.0840245667
 21
-20.9917082642
  0
LINE
  5
527
100
AcDbEntity
  8
RACCORDO
100
AcDbLine
 62
253
  6
CONTINUOUS
 10
8.0840245667
 20
20.9917082642
 11
8.0840245667
 21
21.5659754333
  0
LINE
  5
528
100
AcDbEntity
  8
ASSI
100
AcDbLine
 62
253
  6
CONTINUOUS
 10
8.0840245667
 20
20.9917082642
 11
8.0840245667
 21
21.5659754333
  0
LINE
  5
529
100
AcDbEntity
  8
DRAFT
100
AcDbLine
 62
7
  6
CONTINUOUS
 10
8.25
 20
21.4
 11
8.25
 21
20.9
  0
LINE
  5
52A
100
AcDbEntity
  8
ASSI
100
AcDbLine
 62
7
  6
CONTINUOUS
 10
8.25
 20
21.4
 11
8.25
 21
20.9
  0
LINE
  5
52B
100
AcDbEntity
  8
DRAFT
100
AcDbLine
 62
7
  6
CONTINUOUS
 10
8.25
 20
-20.9
 11
8.25
 21
-21.4
  0
LINE
  5
52C
100
AcDbEntity
  8
ASSI
100
AcDbLine
 62
7
  6
CONTINUOUS
 10
8.25
 20
-20.9
 11
8.25
 21
-21.4
  0
LINE
  5
52D
100
AcDbEntity
  8
RACCORDO
100
AcDbLine
 62
7
  6
CONTINUOUS
 10
8.25
 20
-22.4
 11
8.25
 21
-23.8443375673
  0
LINE
  5
52E
100
AcDbEntity
  8
ASSI
100
AcDbLine
 62
7
  6
CONTINUOUS
 10
8.25
 20
-22.4
 11
8.25
 21
-23.8443375673
  0
LINE
  5
52F
100
AcDbEntity
  8
RACCORDO
100
AcDbLine
 62
7
  6
CONTINUOUS
 10
8.25
 20
22.4
 11
8.25
 21
23.8443375673
  0
LINE
  5
530
100
AcDbEntity
  8
ASSI
100
AcDbLine
 62
7
  6
CONTINUOUS
 10
8.25
 20
22.4
 11
8.25
 21
23.8443375673
  0
LINE
  5
531
100
AcDbEntity
  8
RACCORDO
100
AcDbLine
 62
253
  6
CONTINUOUS
 10
8.254371834
 20
24.2456323968
 11
8.254371834
 21
23.8443375673
  0
LINE
  5
532
100
AcDbEntity
  8
ASSI
100
AcDbLine
 62
7
  6
CONTINUOUS
 10
8.254371834
 20
24.2456323968
 11
8.254371834
 21
23.8443375673
  0
LINE
  5
533
100
AcDbEntity
  8
RACCORDO
100
AcDbLine
 62
253
  6
CONTINUOUS
 10
8.254371834
 20
-23.8443375673
 11
8.254371834
 21
-24.2456323968
  0
LINE
  5
534
100
AcDbEntity
  8
ASSI
100
AcDbLine
 62
7
  6
CONTINUOUS
 10
8.254371834
 20
-23.8443375673
 11
8.254371834
 21
-24.2456323968
  0
LINE
  5
535
100
AcDbEntity
  8
DRAFT
100
AcDbLine
 62
7
  6
CONTINUOUS
 10
8.3325462644
 20
-8.65
 11
8.3325462644
 21
-9.5825462644
  0
LINE
  5
536
100
AcDbEntity
  8
ASSI
100
AcDbLine
 62
7
  6
CONTINUOUS
 10
8.3325462644
 20
-8.65
 11
8.3325462644
 21
-9.5825462644
  0
LINE
  5
537
100
AcDbEntity
  8
DRAFT
100
AcDbLine
 62
7
  6
CONTINUOUS
 10
8.35
 20
-9.6
 11
8.35
 21
-8.65
  0
LINE
  5
538
100
AcDbEntity
  8
ASSI
100
AcDbLine
 62
7
  6
CONTINUOUS
 10
8.35
 20
-9.6
 11
8.35
 21
-8.65
  0
LINE
  5
539
100
AcDbEntity
  8
RACCORDO
100
AcDbLine
 62
7
  6
CONTINUOUS
 10
8.4101132618
 20
7.9
 11
8.4101132618
 21
7.9898867382
  0
LINE
  5
53A
100
AcDbEntity
  8
ASSI
100
AcDbLine
 62
7
  6
CONTINUOUS
 10
8.4101132618
 20
7.9
 11
8.4101132618
 21
7.9898867382
  0
LINE
  5
53B
100
AcDbEntity
  8
RACCORDO
100
AcDbLine
 62
253
  6
CONTINUOUS
 10
8.5043676032
 20
-23.6278312164
 11
8.5043676032
 21
-24.495628166
  0
LINE
  5
53C
100
AcDbEntity
  8
ASSI
100
AcDbLine
 62
253
  6
CONTINUOUS
 10
8.5043676032
 20
-23.6278312164
 11
8.5043676032
 21
-24.495628166
  0
LINE
  5
53D
100
AcDbEntity
  8
RACCORDO
100
AcDbLine
 62
253
  6
CONTINUOUS
 10
8.5043676032
 20
23.6278312164
 11
8.5043676032
 21
24.495628166
  0
LINE
  5
53E
100
AcDbEntity
  8
ASSI
100
AcDbLine
 62
253
  6
CONTINUOUS
 10
8.5043676032
 20
23.6278312164
 11
8.5043676032
 21
24.495628166
  0
LINE
  5
53F
100
AcDbEntity
  8
RACCORDO
100
AcDbLine
 62
253
  6
CONTINUOUS
 10
8.9303794106
 20
-12.4101132618
 11
8.9303794106
 21
-11.5898867382
  0
LINE
  5
540
100
AcDbEntity
  8
ASSI
100
AcDbLine
 62
253
  6
CONTINUOUS
 10
8.9303794106
 20
-12.4101132618
 11
8.9303794106
 21
-11.5898867382
  0
LINE
  5
541
100
AcDbEntity
  8
RACCORDO
100
AcDbLine
 62
253
  6
CONTINUOUS
 10
8.9303794106
 20
7.9898867382
 11
8.9303794106
 21
8.8101132618
  0
LINE
  5
542
100
AcDbEntity
  8
ASSI
100
AcDbLine
 62
253
  6
CONTINUOUS
 10
8.9303794106
 20
7.9898867382
 11
8.9303794106
 21
8.8101132618
  0
LINE
  5
543
100
AcDbEntity
  8
0
100
AcDbLine
 62
7
  6
CONTINUOUS
 10
8.975
 20
-8.15
 11
8.975
 21
7.9
  0
LINE
  5
544
100
AcDbEntity
  8
RACCORDO
100
AcDbLine
 62
253
  6
CONTINUOUS
 10
9.2122871968
 20
-12.4118358927
 11
9.2122871968
 21
-11.5881641073
  0
LINE
  5
545
100
AcDbEntity
  8
ASSI
100
AcDbLine
 62
253
  6
CONTINUOUS
 10
9.2122871968
 20
-12.4118358927
 11
9.2122871968
 21
-11.5881641073
  0
LINE
  5
546
100
AcDbEntity
  8
RACCORDO
100
AcDbLine
 62
253
  6
CONTINUOUS
 10
9.2122871968
 20
-8.35
 11
9.2122871968
 21
-7.2881641073
  0
LINE
  5
547
100
AcDbEntity
  8
ASSI
100
AcDbLine
 62
253
  6
CONTINUOUS
 10
9.2122871968
 20
-8.35
 11
9.2122871968
 21
-7.2881641073
  0
LINE
  5
548
100
AcDbEntity
  8
RACCORDO
100
AcDbLine
 62
253
  6
CONTINUOUS
 10
9.2122871968
 20
-0.4118358927
 11
9.2122871968
 21
0.4118358927
  0
LINE
  5
549
100
AcDbEntity
  8
ASSI
100
AcDbLine
 62
253
  6
CONTINUOUS
 10
9.2122871968
 20
-0.4118358927
 11
9.2122871968
 21
0.4118358927
  0
LINE
  5
54A
100
AcDbEntity
  8
RACCORDO
100
AcDbLine
 62
253
  6
CONTINUOUS
 10
9.2122871968
 20
7.9881641073
 11
9.2122871968
 21
8.8118358927
  0
LINE
  5
54B
100
AcDbEntity
  8
ASSI
100
AcDbLine
 62
253
  6
CONTINUOUS
 10
9.2122871968
 20
7.9881641073
 11
9.2122871968
 21
8.8118358927
  0
LINE
  5
54C
100
AcDbEntity
  8
RACCORDO
100
AcDbLine
 62
253
  6
CONTINUOUS
 10
8.25
 20
23.4104851482
 11
8.254371834
 21
23.8443375673
  0
LINE
  5
54D
100
AcDbEntity
  8
ASSI
100
AcDbLine
 62
253
  6
CONTINUOUS
 10
8.25
 20
23.4104851482
 11
8.254371834
 21
23.8443375673
  0
LINE
  5
54E
100
AcDbEntity
  8
RACCORDO
100
AcDbLine
 62
253
  6
CONTINUOUS
 10
8.4992770021
 20
23.1226497308
 11
8.5043676032
 21
23.6278312164
  0
LINE
  5
54F
100
AcDbEntity
  8
ASSI
100
AcDbLine
 62
253
  6
CONTINUOUS
 10
8.4992770021
 20
23.1226497308
 11
8.5043676032
 21
23.6278312164
  0
LINE
  5
550
100
AcDbEntity
  8
0
100
AcDbLine
 62
253
  6
CONTINUOUS
 10
7.2418217019
 20
-20.0275513222
 11
7.3401430257
 21
-17.1473642646
  0
LINE
  5
551
100
AcDbEntity
  8
ASSI
100
AcDbLine
 62
253
  6
CONTINUOUS
 10
7.2418217019
 20
-20.0275513222
 11
7.3401430257
 21
-17.1473642646
  0
LINE
  5
552
100
AcDbEntity
  8
DRAFT
100
AcDbLine
 62
7
  6
CONTINUOUS
 10
-4.4
 20
-22.4
 11
-4.3559327327
 21
-22.3338981669
  0
LINE
  5
553
100
AcDbEntity
  8
ASSI
100
AcDbLine
 62
7
  6
CONTINUOUS
 10
-4.4
 20
-22.4
 11
-4.3559327327
 21
-22.3338981669
  0
LINE
  5
554
100
AcDbEntity
  8
RACCORDO
100
AcDbLine
 62
7
  6
CONTINUOUS
 10
-9.2122871968
 20
7.9881641073
 11
-9.65
 21
7.9776691233
  0
LINE
  5
555
100
AcDbEntity
  8
ASSI
100
AcDbLine
 62
7
  6
CONTINUOUS
 10
-9.2122871968
 20
7.9881641073
 11
-9.65
 21
7.9776691233
  0
LINE
  5
556
100
AcDbEntity
  8
RACCORDO
100
AcDbLine
 62
7
  6
CONTINUOUS
 10
9.65
 20
8.8223308767
 11
9.2122871968
 21
8.8118358927
  0
LINE
  5
557
100
AcDbEntity
  8
ASSI
100
AcDbLine
 62
7
  6
CONTINUOUS
 10
9.65
 20
8.8223308767
 11
9.2122871968
 21
8.8118358927
  0
LINE
  5
558
100
AcDbEntity
  8
DRAFT
100
AcDbLine
 62
7
  6
CONTINUOUS
 10
9.4946499221
 20
7.9
 11
8.975
 21
7.9
  0
LINE
  5
559
100
AcDbEntity
  8
ASSI
100
AcDbLine
 62
7
  6
CONTINUOUS
 10
9.4946499221
 20
7.9
 11
8.975
 21
7.9
  0
LINE
  5
55A
100
AcDbEntity
  8
0
100
AcDbLine
 62
7
  6
CONTINUOUS
 10
8.975
 20
7.9
 11
-9.025
 21
7.9
  0
LINE
  5
55B
100
AcDbEntity
  8
DRAFT
100
AcDbLine
 62
7
  6
CONTINUOUS
 10
-9.025
 20
7.9
 11
-9.4946499221
 21
7.9
  0
LINE
  5
55C
100
AcDbEntity
  8
ASSI
100
AcDbLine
 62
7
  6
CONTINUOUS
 10
-9.025
 20
7.9
 11
-9.4946499221
 21
7.9
  0
LINE
  5
55D
100
AcDbEntity
  8
DRAFT
100
AcDbLine
 62
7
  6
CONTINUOUS
 10
6.5
 20
7.975051063
 11
-6.5
 21
7.975051063
  0
LINE
  5
55E
100
AcDbEntity
  8
ASSI
100
AcDbLine
 62
7
  6
CONTINUOUS
 10
6.5
 20
7.975051063
 11
-6.5
 21
7.975051063
  0
LINE
  5
55F
100
AcDbEntity
  8
RACCORDO
100
AcDbLine
 62
253
  6
CONTINUOUS
 10
6.5
 20
7.9834444503
 11
-6.5
 21
7.9834444503
  0
LINE
  5
560
100
AcDbEntity
  8
ASSI
100
AcDbLine
 62
7
  6
CONTINUOUS
 10
6.5
 20
7.9834444503
 11
-6.5
 21
7.9834444503
  0
LINE
  5
561
100
AcDbEntity
  8
RACCORDO
100
AcDbLine
 62
7
  6
CONTINUOUS
 10
8.9303794106
 20
7.9898867382
 11
8.4101132618
 21
7.9898867382
  0
LINE
  5
562
100
AcDbEntity
  8
ASSI
100
AcDbLine
 62
7
  6
CONTINUOUS
 10
8.9303794106
 20
7.9898867382
 11
8.4101132618
 21
7.9898867382
  0
LINE
  5
563
100
AcDbEntity
  8
RACCORDO
100
AcDbLine
 62
7
  6
CONTINUOUS
 10
-7.7372801014
 20
7.9898867382
 11
-6.5
 21
7.9898867382
  0
LINE
  5
564
100
AcDbEntity
  8
ASSI
100
AcDbLine
 62
7
  6
CONTINUOUS
 10
-7.7372801014
 20
7.9898867382
 11
-6.5
 21
7.9898867382
  0
LINE
  5
565
100
AcDbEntity
  8
RACCORDO
100
AcDbLine
 62
7
  6
CONTINUOUS
 10
6.5
 20
7.9898867382
 11
7.7372801014
 21
7.9898867382
  0
LINE
  5
566
100
AcDbEntity
  8
ASSI
100
AcDbLine
 62
7
  6
CONTINUOUS
 10
6.5
 20
7.9898867382
 11
7.7372801014
 21
7.9898867382
  0
LINE
  5
567
100
AcDbEntity
  8
RACCORDO
100
AcDbLine
 62
7
  6
CONTINUOUS
 10
-8.4101132618
 20
7.9898867382
 11
-8.9303794106
 21
7.9898867382
  0
LINE
  5
568
100
AcDbEntity
  8
ASSI
100
AcDbLine
 62
7
  6
CONTINUOUS
 10
-8.4101132618
 20
7.9898867382
 11
-8.9303794106
 21
7.9898867382
  0
LINE
  5
569
100
AcDbEntity
  8
RACCORDO
100
AcDbLine
 62
253
  6
CONTINUOUS
 10
6.5
 20
8.0713009929
 11
-6.5
 21
8.0713009929
  0
LINE
  5
56A
100
AcDbEntity
  8
ASSI
100
AcDbLine
 62
253
  6
CONTINUOUS
 10
6.5
 20
8.0713009929
 11
-6.5
 21
8.0713009929
  0
LINE
  5
56B
100
AcDbEntity
  8
0
100
AcDbLine
 62
7
  6
CONTINUOUS
 10
6.5
 20
8.6
 11
-6.5
 21
8.6
  0
LINE
  5
56C
100
AcDbEntity
  8
ASSI
100
AcDbLine
 62
7
  6
CONTINUOUS
 10
6.5
 20
8.6
 11
-6.5
 21
8.6
  0
LINE
  5
56D
100
AcDbEntity
  8
RACCORDO
100
AcDbLine
 62
7
  6
CONTINUOUS
 10
-8.9303794106
 20
8.8101132618
 11
-7.4101132618
 21
8.8101132618
  0
LINE
  5
56E
100
AcDbEntity
  8
ASSI
100
AcDbLine
 62
7
  6
CONTINUOUS
 10
-8.9303794106
 20
8.8101132618
 11
-7.4101132618
 21
8.8101132618
  0
LINE
  5
56F
100
AcDbEntity
  8
RACCORDO
100
AcDbLine
 62
7
  6
CONTINUOUS
 10
8.9303794106
 20
8.8101132618
 11
7.4101132618
 21
8.8101132618
  0
LINE
  5
570
100
AcDbEntity
  8
ASSI
100
AcDbLine
 62
7
  6
CONTINUOUS
 10
8.9303794106
 20
8.8101132618
 11
7.4101132618
 21
8.8101132618
  0
LINE
  5
571
100
AcDbEntity
  8
DRAFT
100
AcDbLine
 62
7
  6
CONTINUOUS
 10
7.5
 20
8.9
 11
9.4946499221
 21
8.9
  0
LINE
  5
572
100
AcDbEntity
  8
ASSI
100
AcDbLine
 62
7
  6
CONTINUOUS
 10
7.5
 20
8.9
 11
9.4946499221
 21
8.9
  0
LINE
  5
573
100
AcDbEntity
  8
DRAFT
100
AcDbLine
 62
7
  6
CONTINUOUS
 10
-7.5
 20
8.9
 11
-9.4946499221
 21
8.9
  0
LINE
  5
574
100
AcDbEntity
  8
ASSI
100
AcDbLine
 62
7
  6
CONTINUOUS
 10
-7.5
 20
8.9
 11
-9.4946499221
 21
8.9
  0
LINE
  5
575
100
AcDbEntity
  8
RACCORDO
100
AcDbLine
 62
7
  6
CONTINUOUS
 10
9.65
 20
7.9776691233
 11
9.2122871968
 21
7.9881641073
  0
LINE
  5
576
100
AcDbEntity
  8
ASSI
100
AcDbLine
 62
7
  6
CONTINUOUS
 10
9.65
 20
7.9776691233
 11
9.2122871968
 21
7.9881641073
  0
LINE
  5
577
100
AcDbEntity
  8
RACCORDO
100
AcDbLine
 62
7
  6
CONTINUOUS
 10
-9.2122871968
 20
8.8118358927
 11
-9.65
 21
8.8223308767
  0
LINE
  5
578
100
AcDbEntity
  8
ASSI
100
AcDbLine
 62
7
  6
CONTINUOUS
 10
-9.2122871968
 20
8.8118358927
 11
-9.65
 21
8.8223308767
  0
LINE
  5
579
100
AcDbEntity
  8
DRAFT
100
AcDbLine
 62
7
  6
CONTINUOUS
 10
-4.4
 20
22.4
 11
-4.3559327327
 21
22.3338981669
  0
LINE
  5
57A
100
AcDbEntity
  8
ASSI
100
AcDbLine
 62
7
  6
CONTINUOUS
 10
-4.4
 20
22.4
 11
-4.3559327327
 21
22.3338981669
  0
LINE
  5
57B
100
AcDbEntity
  8
RACCORDO
100
AcDbLine
 62
253
  6
CONTINUOUS
 10
10.3956323968
 20
23.6278312164
 11
10.4007229979
 21
23.1226497308
  0
LINE
  5
57C
100
AcDbEntity
  8
ASSI
100
AcDbLine
 62
253
  6
CONTINUOUS
 10
10.3956323968
 20
23.6278312164
 11
10.4007229979
 21
23.1226497308
  0
LINE
  5
57D
100
AcDbEntity
  8
RACCORDO
100
AcDbLine
 62
253
  6
CONTINUOUS
 10
10.645628166
 20
23.8443375673
 11
10.65
 21
23.4104851482
  0
LINE
  5
57E
100
AcDbEntity
  8
ASSI
100
AcDbLine
 62
253
  6
CONTINUOUS
 10
10.645628166
 20
23.8443375673
 11
10.65
 21
23.4104851482
  0
LINE
  5
57F
100
AcDbEntity
  8
DRAFT
100
AcDbLine
 62
7
  6
CONTINUOUS
 10
9.4946499221
 20
7.9
 11
9.4946499221
 21
0.5
  0
LINE
  5
580
100
AcDbEntity
  8
ASSI
100
AcDbLine
 62
7
  6
CONTINUOUS
 10
9.4946499221
 20
7.9
 11
9.4946499221
 21
0.5
  0
LINE
  5
581
100
AcDbEntity
  8
DRAFT
100
AcDbLine
 62
7
  6
CONTINUOUS
 10
9.4946499221
 20
-0.5
 11
9.4946499221
 21
-7.2
  0
LINE
  5
582
100
AcDbEntity
  8
ASSI
100
AcDbLine
 62
7
  6
CONTINUOUS
 10
9.4946499221
 20
-0.5
 11
9.4946499221
 21
-7.2
  0
LINE
  5
583
100
AcDbEntity
  8
DRAFT
100
AcDbLine
 62
7
  6
CONTINUOUS
 10
9.4946499221
 20
-8.35
 11
9.4946499221
 21
-11.5
  0
LINE
  5
584
100
AcDbEntity
  8
ASSI
100
AcDbLine
 62
7
  6
CONTINUOUS
 10
9.4946499221
 20
-8.35
 11
9.4946499221
 21
-11.5
  0
LINE
  5
585
100
AcDbEntity
  8
DRAFT
100
AcDbLine
 62
7
  6
CONTINUOUS
 10
9.4946499221
 20
-14.7
 11
9.4946499221
 21
-12.5
  0
LINE
  5
586
100
AcDbEntity
  8
ASSI
100
AcDbLine
 62
7
  6
CONTINUOUS
 10
9.4946499221
 20
-14.7
 11
9.4946499221
 21
-12.5
  0
LINE
  5
587
100
AcDbEntity
  8
RACCORDO
100
AcDbLine
 62
7
  6
CONTINUOUS
 10
9.4946499221
 20
8.9
 11
9.4946499221
 21
19.9333419123
  0
LINE
  5
588
100
AcDbEntity
  8
ASSI
100
AcDbLine
 62
7
  6
CONTINUOUS
 10
9.4946499221
 20
8.9
 11
9.4946499221
 21
19.9333419123
  0
LINE
  5
589
100
AcDbEntity
  8
RACCORDO
100
AcDbLine
 62
7
  6
CONTINUOUS
 10
9.529560052
 20
-19.3
 11
9.529560052
 21
-15.2792978419
  0
LINE
  5
58A
100
AcDbEntity
  8
ASSI
100
AcDbLine
 62
7
  6
CONTINUOUS
 10
9.529560052
 20
-19.3
 11
9.529560052
 21
-15.2792978419
  0
LINE
  5
58B
100
AcDbEntity
  8
RACCORDO
100
AcDbLine
 62
7
  6
CONTINUOUS
 10
9.5871617663
 20
-20.2111031425
 11
9.5871617663
 21
-19.8
  0
LINE
  5
58C
100
AcDbEntity
  8
ASSI
100
AcDbLine
 62
7
  6
CONTINUOUS
 10
9.5871617663
 20
-20.2111031425
 11
9.5871617663
 21
-19.8
  0
LINE
  5
58D
100
AcDbEntity
  8
RACCORDO
100
AcDbLine
 62
7
  6
CONTINUOUS
 10
9.65
 20
20.3997711479
 11
9.65
 21
8.8223308767
  0
LINE
  5
58E
100
AcDbEntity
  8
RACCORDO
100
AcDbLine
 62
7
  6
CONTINUOUS
 10
9.65
 20
-12.4223308767
 11
9.65
 21
-20.3997711479
  0
LINE
  5
58F
100
AcDbEntity
  8
DRAFT
100
AcDbLine
 62
7
  6
CONTINUOUS
 10
9.65
 20
-12.4223308767
 11
9.65
 21
8.8223308767
  0
LINE
  5
590
100
AcDbEntity
  8
ASSI
100
AcDbLine
 62
7
  6
CONTINUOUS
 10
9.65
 20
-20.3997711479
 11
9.65
 21
20.3997711479
  0
LINE
  5
591
100
AcDbEntity
  8
RACCORDO
100
AcDbLine
 62
253
  6
CONTINUOUS
 10
10.3956323968
 20
-23.6278312164
 11
10.3956323968
 21
-24.495628166
  0
LINE
  5
592
100
AcDbEntity
  8
ASSI
100
AcDbLine
 62
253
  6
CONTINUOUS
 10
10.3956323968
 20
-23.6278312164
 11
10.3956323968
 21
-24.495628166
  0
LINE
  5
593
100
AcDbEntity
  8
RACCORDO
100
AcDbLine
 62
253
  6
CONTINUOUS
 10
10.3956323968
 20
23.6278312164
 11
10.3956323968
 21
24.495628166
  0
LINE
  5
594
100
AcDbEntity
  8
ASSI
100
AcDbLine
 62
253
  6
CONTINUOUS
 10
10.3956323968
 20
23.6278312164
 11
10.3956323968
 21
24.495628166
  0
LINE
  5
595
100
AcDbEntity
  8
RACCORDO
100
AcDbLine
 62
253
  6
CONTINUOUS
 10
10.645628166
 20
-24.2456323968
 11
10.645628166
 21
-23.8443375673
  0
LINE
  5
596
100
AcDbEntity
  8
ASSI
100
AcDbLine
 62
7
  6
CONTINUOUS
 10
10.645628166
 20
-24.2456323968
 11
10.645628166
 21
-23.8443375673
  0
LINE
  5
597
100
AcDbEntity
  8
RACCORDO
100
AcDbLine
 62
253
  6
CONTINUOUS
 10
10.645628166
 20
23.8443375673
 11
10.645628166
 21
24.2456323968
  0
LINE
  5
598
100
AcDbEntity
  8
ASSI
100
AcDbLine
 62
7
  6
CONTINUOUS
 10
10.645628166
 20
23.8443375673
 11
10.645628166
 21
24.2456323968
  0
LINE
  5
599
100
AcDbEntity
  8
RACCORDO
100
AcDbLine
 62
7
  6
CONTINUOUS
 10
10.65
 20
-22.399689968
 11
10.65
 21
-23.8443375673
  0
LINE
  5
59A
100
AcDbEntity
  8
ASSI
100
AcDbLine
 62
7
  6
CONTINUOUS
 10
10.65
 20
-22.399689968
 11
10.65
 21
-23.8443375673
  0
LINE
  5
59B
100
AcDbEntity
  8
RACCORDO
100
AcDbLine
 62
7
  6
CONTINUOUS
 10
10.65
 20
22.399689968
 11
10.65
 21
23.8443375673
  0
LINE
  5
59C
100
AcDbEntity
  8
ASSI
100
AcDbLine
 62
7
  6
CONTINUOUS
 10
10.65
 20
22.399689968
 11
10.65
 21
23.8443375673
  0
LINE
  5
59D
100
AcDbEntity
  8
RACCORDO
100
AcDbLine
 62
7
  6
CONTINUOUS
 10
11.15
 20
-21.8911779406
 11
11.15
 21
21.8911779406
  0
LINE
  5
59E
100
AcDbEntity
  8
ASSI
100
AcDbLine
 62
7
  6
CONTINUOUS
 10
11.15
 20
-21.8911779406
 11
11.15
 21
21.8911779406
  0
LINE
  5
59F
100
AcDbEntity
  8
RACCORDO
100
AcDbLine
 62
253
  6
CONTINUOUS
 10
10.4007229979
 20
-23.1226497308
 11
10.3956323968
 21
-23.6278312164
  0
LINE
  5
5A0
100
AcDbEntity
  8
ASSI
100
AcDbLine
 62
253
  6
CONTINUOUS
 10
10.4007229979
 20
-23.1226497308
 11
10.3956323968
 21
-23.6278312164
  0
LINE
  5
5A1
100
AcDbEntity
  8
RACCORDO
100
AcDbLine
 62
253
  6
CONTINUOUS
 10
10.65
 20
-23.4104851482
 11
10.645628166
 21
-23.8443375673
  0
LINE
  5
5A2
100
AcDbEntity
  8
ASSI
100
AcDbLine
 62
253
  6
CONTINUOUS
 10
10.65
 20
-23.4104851482
 11
10.645628166
 21
-23.8443375673
  0
LINE
  5
5A3
100
AcDbEntity
  8
0
100
AcDbLine
 62
7
  6
CONTINUOUS
 10
7.3209441873
 20
-20.7113319946
 11
7.2988376746
 21
-20.9104703804
  0
LINE
  5
5A4
100
AcDbEntity
  8
ASSI
100
AcDbLine
 62
7
  6
CONTINUOUS
 10
7.3209441873
 20
-20.7113319946
 11
7.2988376746
 21
-20.9104703804
  0
LINE
  5
5A5
100
AcDbEntity
  8
RACCORDO
100
AcDbLine
 62
253
  6
CONTINUOUS
 10
6.2123556268
 20
9.5877357561
 11
-6.2123556268
 21
9.5877357561
  0
LINE
  5
5A6
100
AcDbEntity
  8
ASSI
100
AcDbLine
 62
253
  6
CONTINUOUS
 10
6.2123556268
 20
9.5877357561
 11
-6.2123556268
 21
9.5877357561
  0
LINE
  5
5A7
100
AcDbEntity
  8
RACCORDO
100
AcDbLine
 62
253
  6
CONTINUOUS
 10
6.2123556268
 20
9.8876900647
 11
-6.2123556268
 21
9.8876900647
  0
LINE
  5
5A8
100
AcDbEntity
  8
ASSI
100
AcDbLine
 62
253
  6
CONTINUOUS
 10
6.2123556268
 20
9.8876900647
 11
-6.2123556268
 21
9.8876900647
  0
LINE
  5
5A9
100
AcDbEntity
  8
RACCORDO
100
AcDbLine
 62
7
  6
CONTINUOUS
 10
-6.2000456915
 20
9.9
 11
6.2000456915
 21
9.9
  0
LINE
  5
5AA
100
AcDbEntity
  8
ASSI
100
AcDbLine
 62
7
  6
CONTINUOUS
 10
-6.2000456915
 20
9.9
 11
6.2000456915
 21
9.9
  0
LINE
  5
5AB
100
AcDbEntity
  8
RACCORDO
100
AcDbLine
 62
253
  6
CONTINUOUS
 10
-6.8122642439
 20
10.1876443732
 11
-6.5123099353
 21
10.1876443732
  0
LINE
  5
5AC
100
AcDbEntity
  8
ASSI
100
AcDbLine
 62
253
  6
CONTINUOUS
 10
-6.8122642439
 20
10.1876443732
 11
-6.5123099353
 21
10.1876443732
  0
LINE
  5
5AD
100
AcDbEntity
  8
RACCORDO
100
AcDbLine
 62
253
  6
CONTINUOUS
 10
6.8122642439
 20
10.1876443732
 11
6.5123099353
 21
10.1876443732
  0
LINE
  5
5AE
100
AcDbEntity
  8
ASSI
100
AcDbLine
 62
253
  6
CONTINUOUS
 10
6.8122642439
 20
10.1876443732
 11
6.5123099353
 21
10.1876443732
  0
LINE
  5
5AF
100
AcDbEntity
  8
RACCORDO
100
AcDbLine
 62
7
  6
CONTINUOUS
 10
-6.9101323002
 20
10.8101132618
 11
-6.8122642439
 21
10.8101132618
  0
LINE
  5
5B0
100
AcDbEntity
  8
ASSI
100
AcDbLine
 62
7
  6
CONTINUOUS
 10
-6.9101323002
 20
10.8101132618
 11
-6.8122642439
 21
10.8101132618
  0
LINE
  5
5B1
100
AcDbEntity
  8
RACCORDO
100
AcDbLine
 62
7
  6
CONTINUOUS
 10
6.8122642439
 20
10.8101132618
 11
6.9101323002
 21
10.8101132618
  0
LINE
  5
5B2
100
AcDbEntity
  8
ASSI
100
AcDbLine
 62
7
  6
CONTINUOUS
 10
6.8122642439
 20
10.8101132618
 11
6.9101323002
 21
10.8101132618
  0
LINE
  5
5B3
100
AcDbEntity
  8
DRAFT
100
AcDbLine
 62
7
  6
CONTINUOUS
 10
-6.5
 20
10.8188401295
 11
6.5
 21
10.8188401295
  0
LINE
  5
5B4
100
AcDbEntity
  8
ASSI
100
AcDbLine
 62
7
  6
CONTINUOUS
 10
-6.5
 20
10.8188401295
 11
6.5
 21
10.8188401295
  0
LINE
  5
5B5
100
AcDbEntity
  8
DRAFT
100
AcDbLine
 62
7
  6
CONTINUOUS
 10
4.5795771341
 20
10.8204228659
 11
5.4204228659
 21
10.8204228659
  0
LINE
  5
5B6
100
AcDbEntity
  8
ASSI
100
AcDbLine
 62
7
  6
CONTINUOUS
 10
4.5795771341
 20
10.8204228659
 11
5.4204228659
 21
10.8204228659
  0
LINE
  5
5B7
100
AcDbEntity
  8
DRAFT
100
AcDbLine
 62
7
  6
CONTINUOUS
 10
-4.5795771341
 20
10.8204228659
 11
-5.4204228659
 21
10.8204228659
  0
LINE
  5
5B8
100
AcDbEntity
  8
ASSI
100
AcDbLine
 62
7
  6
CONTINUOUS
 10
-4.5795771341
 20
10.8204228659
 11
-5.4204228659
 21
10.8204228659
  0
LINE
  5
5B9
100
AcDbEntity
  8
RACCORDO
100
AcDbLine
 62
7
  6
CONTINUOUS
 10
-7.0000190385
 20
10.9
 11
-5.5
 21
10.9
  0
LINE
  5
5BA
100
AcDbEntity
  8
ASSI
100
AcDbLine
 62
7
  6
CONTINUOUS
 10
-7.0000190385
 20
10.9
 11
-5.5
 21
10.9
  0
LINE
  5
5BB
100
AcDbEntity
  8
DRAFT
100
AcDbLine
 62
7
  6
CONTINUOUS
 10
-4.5
 20
10.9
 11
4.5
 21
10.9
  0
LINE
  5
5BC
100
AcDbEntity
  8
ASSI
100
AcDbLine
 62
7
  6
CONTINUOUS
 10
-4.5
 20
10.9
 11
4.5
 21
10.9
  0
LINE
  5
5BD
100
AcDbEntity
  8
RACCORDO
100
AcDbLine
 62
7
  6
CONTINUOUS
 10
5.5
 20
10.9
 11
7.0000190385
 21
10.9
  0
LINE
  5
5BE
100
AcDbEntity
  8
ASSI
100
AcDbLine
 62
7
  6
CONTINUOUS
 10
5.5
 20
10.9
 11
7.0000190385
 21
10.9
  0
LINE
  5
5BF
100
AcDbEntity
  8
DRAFT
100
AcDbLine
 62
7
  6
CONTINUOUS
 10
4.5
 20
10.9
 11
4.5795771341
 21
10.8204228659
  0
LINE
  5
5C0
100
AcDbEntity
  8
ASSI
100
AcDbLine
 62
7
  6
CONTINUOUS
 10
4.5
 20
10.9
 11
4.5795771341
 21
10.8204228659
  0
LINE
  5
5C1
100
AcDbEntity
  8
DRAFT
100
AcDbLine
 62
7
  6
CONTINUOUS
 10
7.2988376746
 20
20.9104703804
 11
7.3517786853
 21
20.4335707644
  0
LINE
  5
5C2
100
AcDbEntity
  8
ASSI
100
AcDbLine
 62
7
  6
CONTINUOUS
 10
7.2988376746
 20
20.9104703804
 11
7.3517786853
 21
20.4335707644
  0
LINE
  5
5C3
100
AcDbEntity
  8
DRAFT
100
AcDbLine
 62
7
  6
CONTINUOUS
 10
9.65
 20
8.8223308767
 11
9.4946499221
 21
8.9
  0
LINE
  5
5C4
100
AcDbEntity
  8
ASSI
100
AcDbLine
 62
7
  6
CONTINUOUS
 10
9.65
 20
8.8223308767
 11
9.4946499221
 21
8.9
  0
LINE
  5
5C5
100
AcDbEntity
  8
RACCORDO
100
AcDbLine
 62
7
  6
CONTINUOUS
 10
6.5123099353
 20
10.8126856306
 11
6.5
 21
10.8188401295
  0
LINE
  5
5C6
100
AcDbEntity
  8
ASSI
100
AcDbLine
 62
7
  6
CONTINUOUS
 10
6.5123099353
 20
10.8126856306
 11
6.5
 21
10.8188401295
  0
LINE
  5
5C7
100
AcDbEntity
  8
RACCORDO
100
AcDbLine
 62
253
  6
CONTINUOUS
 10
6.2123556268
 20
9.8876900647
 11
6.2000456915
 21
9.9
  0
LINE
  5
5C8
100
AcDbEntity
  8
ASSI
100
AcDbLine
 62
253
  6
CONTINUOUS
 10
6.2123556268
 20
9.8876900647
 11
6.2000456915
 21
9.9
  0
LINE
  5
5C9
100
AcDbEntity
  8
DRAFT
100
AcDbLine
 62
7
  6
CONTINUOUS
 10
8.4101132618
 20
7.9898867382
 11
8.5
 21
7.9
  0
LINE
  5
5CA
100
AcDbEntity
  8
ASSI
100
AcDbLine
 62
7
  6
CONTINUOUS
 10
8.4101132618
 20
7.9898867382
 11
8.5
 21
7.9
  0
LINE
  5
5CB
100
AcDbEntity
  8
RACCORDO
100
AcDbLine
 62
253
  6
CONTINUOUS
 10
6.5123099353
 20
10.1876443732
 11
6.5
 21
10.1999543085
  0
LINE
  5
5CC
100
AcDbEntity
  8
ASSI
100
AcDbLine
 62
253
  6
CONTINUOUS
 10
6.5123099353
 20
10.1876443732
 11
6.5
 21
10.1999543085
  0
LINE
  5
5CD
100
AcDbEntity
  8
DRAFT
100
AcDbLine
 62
7
  6
CONTINUOUS
 10
8.25
 20
-20.9
 11
8.2465127091
 21
-20.9104703804
  0
LINE
  5
5CE
100
AcDbEntity
  8
ASSI
100
AcDbLine
 62
7
  6
CONTINUOUS
 10
8.25
 20
-20.9
 11
8.2465127091
 21
-20.9104703804
  0
LINE
  5
5CF
100
AcDbEntity
  8
DRAFT
100
AcDbLine
 62
7
  6
CONTINUOUS
 10
7.35
 20
-11.5
 11
7.3325462644
 21
-11.5174537356
  0
LINE
  5
5D0
100
AcDbEntity
  8
ASSI
100
AcDbLine
 62
7
  6
CONTINUOUS
 10
7.35
 20
-11.5
 11
7.3325462644
 21
-11.5174537356
  0
LINE
  5
5D1
100
AcDbEntity
  8
ASSI
100
AcDbLine
 62
7
  6
CONTINUOUS
 10
-4.4
 20
-23.8
 11
-4.3563493531
 21
-23.7563493531
  0
LINE
  5
5D2
100
AcDbEntity
  8
RACCORDO
100
AcDbLine
 62
253
  6
CONTINUOUS
 10
6.2123556268
 20
-13.1876900647
 11
6.2000456915
 21
-13.2
  0
LINE
  5
5D3
100
AcDbEntity
  8
ASSI
100
AcDbLine
 62
253
  6
CONTINUOUS
 10
6.2123556268
 20
-13.1876900647
 11
6.2000456915
 21
-13.2
  0
LINE
  5
5D4
100
AcDbEntity
  8
RACCORDO
100
AcDbLine
 62
253
  6
CONTINUOUS
 10
6.5123099353
 20
-13.4876443732
 11
6.5
 21
-13.4999543085
  0
LINE
  5
5D5
100
AcDbEntity
  8
ASSI
100
AcDbLine
 62
253
  6
CONTINUOUS
 10
6.5123099353
 20
-13.4876443732
 11
6.5
 21
-13.4999543085
  0
LINE
  5
5D6
100
AcDbEntity
  8
DRAFT
100
AcDbLine
 62
7
  6
CONTINUOUS
 10
4.5
 20
14.139335085
 11
5.5
 21
14.139335085
  0
LINE
  5
5D7
100
AcDbEntity
  8
ASSI
100
AcDbLine
 62
7
  6
CONTINUOUS
 10
4.5
 20
14.139335085
 11
5.5
 21
14.139335085
  0
LINE
  5
5D8
100
AcDbEntity
  8
DRAFT
100
AcDbLine
 62
7
  6
CONTINUOUS
 10
-4.5
 20
14.139335085
 11
-5.5
 21
14.139335085
  0
LINE
  5
5D9
100
AcDbEntity
  8
ASSI
100
AcDbLine
 62
7
  6
CONTINUOUS
 10
-4.5
 20
14.139335085
 11
-5.5
 21
14.139335085
  0
LINE
  5
5DA
100
AcDbEntity
  8
ASSI
100
AcDbLine
 62
7
  6
CONTINUOUS
 10
-4.4
 20
23.8
 11
-4.3563493531
 21
23.7563493531
  0
LINE
  5
5DB
100
AcDbEntity
  8
DRAFT
100
AcDbLine
 62
7
  6
CONTINUOUS
 10
8.2465127091
 20
20.9104703804
 11
8.25
 21
20.9
  0
LINE
  5
5DC
100
AcDbEntity
  8
ASSI
100
AcDbLine
 62
7
  6
CONTINUOUS
 10
8.2465127091
 20
20.9104703804
 11
8.25
 21
20.9
  0
LINE
  5
5DD
100
AcDbEntity
  8
RACCORDO
100
AcDbLine
 62
7
  6
CONTINUOUS
 10
6.5123099353
 20
-13.8126856306
 11
6.5
 21
-13.8188401295
  0
LINE
  5
5DE
100
AcDbEntity
  8
ASSI
100
AcDbLine
 62
7
  6
CONTINUOUS
 10
6.5123099353
 20
-13.8126856306
 11
6.5
 21
-13.8188401295
  0
LINE
  5
5DF
100
AcDbEntity
  8
DRAFT
100
AcDbLine
 62
7
  6
CONTINUOUS
 10
9.4946499221
 20
-12.5
 11
9.65
 21
-12.4223308767
  0
LINE
  5
5E0
100
AcDbEntity
  8
ASSI
100
AcDbLine
 62
7
  6
CONTINUOUS
 10
9.4946499221
 20
-12.5
 11
9.65
 21
-12.4223308767
  0
LINE
  5
5E1
100
AcDbEntity
  8
DRAFT
100
AcDbLine
 62
7
  6
CONTINUOUS
 10
7.2418217019
 20
-20.9959955457
 11
7.2988376746
 21
-20.9104703804
  0
LINE
  5
5E2
100
AcDbEntity
  8
ASSI
100
AcDbLine
 62
7
  6
CONTINUOUS
 10
7.2418217019
 20
-20.9959955457
 11
7.2988376746
 21
-20.9104703804
  0
LINE
  5
5E3
100
AcDbEntity
  8
DRAFT
100
AcDbLine
 62
7
  6
CONTINUOUS
 10
7.2418217019
 20
20.9959955457
 11
7.2988376746
 21
20.9104703804
  0
LINE
  5
5E4
100
AcDbEntity
  8
ASSI
100
AcDbLine
 62
7
  6
CONTINUOUS
 10
7.2418217019
 20
20.9959955457
 11
7.2988376746
 21
20.9104703804
  0
LINE
  5
5E5
100
AcDbEntity
  8
DRAFT
100
AcDbLine
 62
7
  6
CONTINUOUS
 10
6.4482213147
 20
19.9223308767
 11
-6.4482213147
 21
19.9223308767
  0
LINE
  5
5E6
100
AcDbEntity
  8
ASSI
100
AcDbLine
 62
7
  6
CONTINUOUS
 10
6.4482213147
 20
19.9223308767
 11
-6.4482213147
 21
19.9223308767
  0
LINE
  5
5E7
100
AcDbEntity
  8
RACCORDO
100
AcDbLine
 62
253
  6
CONTINUOUS
 10
-6.555294768
 20
20.0829433217
 11
6.555294768
 21
20.0829433217
  0
LINE
  5
5E8
100
AcDbEntity
  8
ASSI
100
AcDbLine
 62
7
  6
CONTINUOUS
 10
-6.555294768
 20
20.0829433217
 11
6.555294768
 21
20.0829433217
  0
LINE
  5
5E9
100
AcDbEntity
  8
RACCORDO
100
AcDbLine
 62
7
  6
CONTINUOUS
 10
7.2587268678
 20
-22.3912731322
 11
8.25
 21
-21.4
  0
LINE
  5
5EA
100
AcDbEntity
  8
ASSI
100
AcDbLine
 62
7
  6
CONTINUOUS
 10
7.2587268678
 20
-22.3912731322
 11
8.25
 21
-21.4
  0
LINE
  5
5EB
100
AcDbEntity
  8
RACCORDO
100
AcDbLine
 62
7
  6
CONTINUOUS
 10
-8.9950305219
 20
20.4335707644
 11
-7.3517786853
 21
20.4335707644
  0
LINE
  5
5EC
100
AcDbEntity
  8
ASSI
100
AcDbLine
 62
7
  6
CONTINUOUS
 10
-8.9950305219
 20
20.4335707644
 11
-7.3517786853
 21
20.4335707644
  0
LINE
  5
5ED
100
AcDbEntity
  8
RACCORDO
100
AcDbLine
 62
7
  6
CONTINUOUS
 10
7.3517786853
 20
20.4335707644
 11
8.9950305219
 21
20.4335707644
  0
LINE
  5
5EE
100
AcDbEntity
  8
ASSI
100
AcDbLine
 62
7
  6
CONTINUOUS
 10
7.3517786853
 20
20.4335707644
 11
8.9950305219
 21
20.4335707644
  0
LINE
  5
5EF
100
AcDbEntity
  8
RACCORDO
100
AcDbLine
 62
253
  6
CONTINUOUS
 10
-6.5581782981
 20
20.5829242832
 11
6.5581782981
 21
20.5829242832
  0
LINE
  5
5F0
100
AcDbEntity
  8
ASSI
100
AcDbLine
 62
253
  6
CONTINUOUS
 10
-6.5581782981
 20
20.5829242832
 11
6.5581782981
 21
20.5829242832
  0
LINE
  5
5F1
100
AcDbEntity
  8
RACCORDO
100
AcDbLine
 62
7
  6
CONTINUOUS
 10
9.1503805997
 20
20.9
 11
8.25
 21
20.9
  0
LINE
  5
5F2
100
AcDbEntity
  8
ASSI
100
AcDbLine
 62
7
  6
CONTINUOUS
 10
9.1503805997
 20
20.9
 11
8.25
 21
20.9
  0
LINE
  5
5F3
100
AcDbEntity
  8
RACCORDO
100
AcDbLine
 62
7
  6
CONTINUOUS
 10
-8.25
 20
20.9
 11
-9.1503805997
 21
20.9
  0
LINE
  5
5F4
100
AcDbEntity
  8
ASSI
100
AcDbLine
 62
7
  6
CONTINUOUS
 10
-8.25
 20
20.9
 11
-9.1503805997
 21
20.9
  0
LINE
  5
5F5
100
AcDbEntity
  8
DRAFT
100
AcDbLine
 62
7
  6
CONTINUOUS
 10
8.2465127091
 20
20.9104703804
 11
7.2988376746
 21
20.9104703804
  0
LINE
  5
5F6
100
AcDbEntity
  8
ASSI
100
AcDbLine
 62
7
  6
CONTINUOUS
 10
8.2465127091
 20
20.9104703804
 11
7.2988376746
 21
20.9104703804
  0
LINE
  5
5F7
100
AcDbEntity
  8
DRAFT
100
AcDbLine
 62
7
  6
CONTINUOUS
 10
-7.2988376746
 20
20.9104703804
 11
-8.2465127091
 21
20.9104703804
  0
LINE
  5
5F8
100
AcDbEntity
  8
ASSI
100
AcDbLine
 62
7
  6
CONTINUOUS
 10
-7.2988376746
 20
20.9104703804
 11
-8.2465127091
 21
20.9104703804
  0
LINE
  5
5F9
100
AcDbEntity
  8
RACCORDO
100
AcDbLine
 62
7
  6
CONTINUOUS
 10
7.5841007192
 20
20.9959955457
 11
7.2418217019
 21
20.9959955457
  0
LINE
  5
5FA
100
AcDbEntity
  8
ASSI
100
AcDbLine
 62
7
  6
CONTINUOUS
 10
7.5841007192
 20
20.9959955457
 11
7.2418217019
 21
20.9959955457
  0
LINE
  5
5FB
100
AcDbEntity
  8
RACCORDO
100
AcDbLine
 62
7
  6
CONTINUOUS
 10
-7.2418217019
 20
20.9959955457
 11
-7.5841007192
 21
20.9959955457
  0
LINE
  5
5FC
100
AcDbEntity
  8
ASSI
100
AcDbLine
 62
7
  6
CONTINUOUS
 10
-7.2418217019
 20
20.9959955457
 11
-7.5841007192
 21
20.9959955457
  0
LINE
  5
5FD
100
AcDbEntity
  8
0
100
AcDbLine
 62
7
  6
CONTINUOUS
 10
3.0
 20
21.0
 11
-3.0
 21
21.0
  0
LINE
  5
5FE
100
AcDbEntity
  8
ASSI
100
AcDbLine
 62
7
  6
CONTINUOUS
 10
3.0
 20
21.0
 11
-3.0
 21
21.0
  0
LINE
  5
5FF
100
AcDbEntity
  8
RACCORDO
100
AcDbLine
 62
253
  6
CONTINUOUS
 10
7.5841007192
 20
21.3126932437
 11
3.0
 21
21.3126932437
  0
LINE
  5
600
100
AcDbEntity
  8
ASSI
100
AcDbLine
 62
253
  6
CONTINUOUS
 10
7.5841007192
 20
21.3126932437
 11
3.0
 21
21.3126932437
  0
LINE
  5
601
100
AcDbEntity
  8
RACCORDO
100
AcDbLine
 62
253
  6
CONTINUOUS
 10
-3.0
 20
21.3126932437
 11
-7.5841007192
 21
21.3126932437
  0
LINE
  5
602
100
AcDbEntity
  8
ASSI
100
AcDbLine
 62
253
  6
CONTINUOUS
 10
-3.0
 20
21.3126932437
 11
-7.5841007192
 21
21.3126932437
  0
LINE
  5
603
100
AcDbEntity
  8
0
100
AcDbLine
 62
7
  6
CONTINUOUS
 10
-3.0
 20
21.7
 11
3.0
 21
21.7
  0
LINE
  5
604
100
AcDbEntity
  8
ASSI
100
AcDbLine
 62
7
  6
CONTINUOUS
 10
-3.0
 20
21.7
 11
3.0
 21
21.7
  0
LINE
  5
605
100
AcDbEntity
  8
RACCORDO
100
AcDbLine
 62
7
  6
CONTINUOUS
 10
8.25
 20
21.4
 11
7.2587268678
 21
22.3912731322
  0
LINE
  5
606
100
AcDbEntity
  8
ASSI
100
AcDbLine
 62
7
  6
CONTINUOUS
 10
8.25
 20
21.4
 11
7.2587268678
 21
22.3912731322
  0
LINE
  5
607
100
AcDbEntity
  8
RACCORDO
100
AcDbLine
 62
7
  6
CONTINUOUS
 10
8.0840245667
 20
-20.9917082642
 11
8.2465127091
 21
-20.9104703804
  0
LINE
  5
608
100
AcDbEntity
  8
ASSI
100
AcDbLine
 62
7
  6
CONTINUOUS
 10
8.0840245667
 20
-20.9917082642
 11
8.2465127091
 21
-20.9104703804
  0
LINE
  5
609
100
AcDbEntity
  8
RACCORDO
100
AcDbLine
 62
253
  6
CONTINUOUS
 10
7.3373448332
 20
22.3126551668
 11
3.0
 21
22.3126551668
  0
LINE
  5
60A
100
AcDbEntity
  8
ASSI
100
AcDbLine
 62
253
  6
CONTINUOUS
 10
7.3373448332
 20
22.3126551668
 11
3.0
 21
22.3126551668
  0
LINE
  5
60B
100
AcDbEntity
  8
RACCORDO
100
AcDbLine
 62
253
  6
CONTINUOUS
 10
-3.0
 20
22.3126551668
 11
-7.3373448332
 21
22.3126551668
  0
LINE
  5
60C
100
AcDbEntity
  8
ASSI
100
AcDbLine
 62
253
  6
CONTINUOUS
 10
-3.0
 20
22.3126551668
 11
-7.3373448332
 21
22.3126551668
  0
LINE
  5
60D
100
AcDbEntity
  8
RACCORDO
100
AcDbLine
 62
7
  6
CONTINUOUS
 10
10.6498476749
 20
22.3912731322
 11
7.2587268678
 21
22.3912731322
  0
LINE
  5
60E
100
AcDbEntity
  8
ASSI
100
AcDbLine
 62
7
  6
CONTINUOUS
 10
10.6498476749
 20
22.3912731322
 11
7.2587268678
 21
22.3912731322
  0
LINE
  5
60F
100
AcDbEntity
  8
DRAFT
100
AcDbLine
 62
7
  6
CONTINUOUS
 10
3.5
 20
22.3912731322
 11
3.0
 21
22.3912731322
  0
LINE
  5
610
100
AcDbEntity
  8
ASSI
100
AcDbLine
 62
7
  6
CONTINUOUS
 10
3.5
 20
22.3912731322
 11
3.0
 21
22.3912731322
  0
LINE
  5
611
100
AcDbEntity
  8
DRAFT
100
AcDbLine
 62
7
  6
CONTINUOUS
 10
-3.0
 20
22.3912731322
 11
-3.5
 21
22.3912731322
  0
LINE
  5
612
100
AcDbEntity
  8
ASSI
100
AcDbLine
 62
7
  6
CONTINUOUS
 10
-3.0
 20
22.3912731322
 11
-3.5
 21
22.3912731322
  0
LINE
  5
613
100
AcDbEntity
  8
RACCORDO
100
AcDbLine
 62
7
  6
CONTINUOUS
 10
-7.2587268678
 20
22.3912731322
 11
-10.6498476749
 21
22.3912731322
  0
LINE
  5
614
100
AcDbEntity
  8
ASSI
100
AcDbLine
 62
7
  6
CONTINUOUS
 10
-7.2587268678
 20
22.3912731322
 11
-10.6498476749
 21
22.3912731322
  0
LINE
  5
615
100
AcDbEntity
  8
RACCORDO
100
AcDbLine
 62
7
  6
CONTINUOUS
 10
-10.6323926099
 20
22.4
 11
-8.25
 21
22.4
  0
LINE
  5
616
100
AcDbEntity
  8
DRAFT
100
AcDbLine
 62
7
  6
CONTINUOUS
 10
8.25
 20
22.4
 11
4.4
 21
22.4
  0
LINE
  5
617
100
AcDbEntity
  8
DRAFT
100
AcDbLine
 62
7
  6
CONTINUOUS
 10
-4.4
 20
22.4
 11
-8.25
 21
22.4
  0
LINE
  5
618
100
AcDbEntity
  8
RACCORDO
100
AcDbLine
 62
7
  6
CONTINUOUS
 10
8.25
 20
22.4
 11
10.6323926099
 21
22.4
  0
LINE
  5
619
100
AcDbEntity
  8
ASSI
100
AcDbLine
 62
7
  6
CONTINUOUS
 10
-4.4
 20
22.4
 11
-10.6323926099
 21
22.4
  0
LINE
  5
61A
100
AcDbEntity
  8
ASSI
100
AcDbLine
 62
7
  6
CONTINUOUS
 10
4.4
 20
22.4
 11
10.6323926099
 21
22.4
  0
LINE
  5
61B
100
AcDbEntity
  8
RACCORDO
100
AcDbLine
 62
7
  6
CONTINUOUS
 10
-10.4007229979
 20
23.1226497308
 11
-8.4992770021
 21
23.1226497308
  0
LINE
  5
61C
100
AcDbEntity
  8
ASSI
100
AcDbLine
 62
7
  6
CONTINUOUS
 10
-10.4007229979
 20
23.1226497308
 11
-8.4992770021
 21
23.1226497308
  0
LINE
  5
61D
100
AcDbEntity
  8
RACCORDO
100
AcDbLine
 62
7
  6
CONTINUOUS
 10
8.4992770021
 20
23.1226497308
 11
10.4007229979
 21
23.1226497308
  0
LINE
  5
61E
100
AcDbEntity
  8
ASSI
100
AcDbLine
 62
7
  6
CONTINUOUS
 10
8.4992770021
 20
23.1226497308
 11
10.4007229979
 21
23.1226497308
  0
LINE
  5
61F
100
AcDbEntity
  8
RACCORDO
100
AcDbLine
 62
253
  6
CONTINUOUS
 10
8.5043676032
 20
23.6278312164
 11
10.3956323968
 21
23.6278312164
  0
LINE
  5
620
100
AcDbEntity
  8
ASSI
100
AcDbLine
 62
253
  6
CONTINUOUS
 10
8.5043676032
 20
23.6278312164
 11
10.3956323968
 21
23.6278312164
  0
LINE
  5
621
100
AcDbEntity
  8
RACCORDO
100
AcDbLine
 62
7
  6
CONTINUOUS
 10
-8.5043676032
 20
23.7
 11
-10.3956323968
 21
23.7
  0
LINE
  5
622
100
AcDbEntity
  8
ASSI
100
AcDbLine
 62
7
  6
CONTINUOUS
 10
-8.5043676032
 20
23.7
 11
-10.3956323968
 21
23.7
  0
LINE
  5
623
100
AcDbEntity
  8
ASSI
100
AcDbLine
 62
7
  6
CONTINUOUS
 10
4.3563493531
 20
23.7563493531
 11
3.5
 21
23.7563493531
  0
LINE
  5
624
100
AcDbEntity
  8
ASSI
100
AcDbLine
 62
7
  6
CONTINUOUS
 10
-3.5
 20
23.7563493531
 11
-4.3563493531
 21
23.7563493531
  0
LINE
  5
625
100
AcDbEntity
  8
DRAFT
100
AcDbLine
 62
7
  6
CONTINUOUS
 10
3.5
 20
23.7941821702
 11
-3.5
 21
23.7941821702
  0
LINE
  5
626
100
AcDbEntity
  8
ASSI
100
AcDbLine
 62
7
  6
CONTINUOUS
 10
3.5
 20
23.7941821702
 11
-3.5
 21
23.7941821702
  0
LINE
  5
627
100
AcDbEntity
  8
DRAFT
100
AcDbLine
 62
7
  6
CONTINUOUS
 10
4.4
 20
23.8
 11
-4.4
 21
23.8
  0
LINE
  5
628
100
AcDbEntity
  8
ASSI
100
AcDbLine
 62
7
  6
CONTINUOUS
 10
4.4
 20
23.8
 11
-4.4
 21
23.8
  0
LINE
  5
629
100
AcDbEntity
  8
RACCORDO
100
AcDbLine
 62
253
  6
CONTINUOUS
 10
8.254371834
 20
23.8443375673
 11
10.645628166
 21
23.8443375673
  0
LINE
  5
62A
100
AcDbEntity
  8
ASSI
100
AcDbLine
 62
253
  6
CONTINUOUS
 10
8.254371834
 20
23.8443375673
 11
10.645628166
 21
23.8443375673
  0
LINE
  5
62B
100
AcDbEntity
  8
RACCORDO
100
AcDbLine
 62
7
  6
CONTINUOUS
 10
8.0840245667
 20
20.9917082642
 11
8.2465127091
 21
20.9104703804
  0
LINE
  5
62C
100
AcDbEntity
  8
ASSI
100
AcDbLine
 62
7
  6
CONTINUOUS
 10
8.0840245667
 20
20.9917082642
 11
8.2465127091
 21
20.9104703804
  0
LINE
  5
62D
100
AcDbEntity
  8
RACCORDO
100
AcDbLine
 62
253
  6
CONTINUOUS
 10
10.6466029582
 20
-22.392895367
 11
10.6323926099
 21
-22.4
  0
LINE
  5
62E
100
AcDbEntity
  8
ASSI
100
AcDbLine
 62
253
  6
CONTINUOUS
 10
10.6466029582
 20
-22.392895367
 11
10.6323926099
 21
-22.4
  0
LINE
  5
62F
100
AcDbEntity
  8
RACCORDO
100
AcDbLine
 62
253
  6
CONTINUOUS
 10
-8.254371834
 20
24.2456323968
 11
-10.645628166
 21
24.2456323968
  0
LINE
  5
630
100
AcDbEntity
  8
RACCORDO
100
AcDbLine
 62
253
  6
CONTINUOUS
 10
8.254371834
 20
24.2456323968
 11
10.645628166
 21
24.2456323968
  0
LINE
  5
631
100
AcDbEntity
  8
ASSI
100
AcDbLine
 62
253
  6
CONTINUOUS
 10
-8.254371834
 20
24.2456323968
 11
-10.645628166
 21
24.2456323968
  0
LINE
  5
632
100
AcDbEntity
  8
ASSI
100
AcDbLine
 62
253
  6
CONTINUOUS
 10
8.254371834
 20
24.2456323968
 11
10.645628166
 21
24.2456323968
  0
LINE
  5
633
100
AcDbEntity
  8
RACCORDO
100
AcDbLine
 62
253
  6
CONTINUOUS
 10
10.3956323968
 20
24.495628166
 11
8.5043676032
 21
24.495628166
  0
LINE
  5
634
100
AcDbEntity
  8
ASSI
100
AcDbLine
 62
7
  6
CONTINUOUS
 10
10.3956323968
 20
24.495628166
 11
8.5043676032
 21
24.495628166
  0
LINE
  5
635
100
AcDbEntity
  8
RACCORDO
100
AcDbLine
 62
253
  6
CONTINUOUS
 10
-8.5043676032
 20
24.495628166
 11
-10.3956323968
 21
24.495628166
  0
LINE
  5
636
100
AcDbEntity
  8
ASSI
100
AcDbLine
 62
7
  6
CONTINUOUS
 10
-8.5043676032
 20
24.495628166
 11
-10.3956323968
 21
24.495628166
  0
LINE
  5
637
100
AcDbEntity
  8
RACCORDO
100
AcDbLine
 62
253
  6
CONTINUOUS
 10
10.6323926099
 20
22.4
 11
10.6466017773
 21
22.3928959574
  0
LINE
  5
638
100
AcDbEntity
  8
ASSI
100
AcDbLine
 62
253
  6
CONTINUOUS
 10
10.6323926099
 20
22.4
 11
10.6466017773
 21
22.3928959574
  0
CIRCLE
  5
639
100
AcDbEntity
  8
0
100
AcDbCircle
 62
7
  6
CONTINUOUS
 10
-2.525
 20
-2.2
 40
1.15
  0
ARC
  5
63A
100
AcDbEntity
  8
0
100
AcDbCircle
 62
7
  6
CONTINUOUS
 10
-2.525
 20
-6.8615
 40
1.0875
100
AcDbArc
 50
226.3971810605
 51
313.602818759
  0
ARC
  5
63B
100
AcDbEntity
  8
RACCORDO
100
AcDbCircle
 62
253
  6
CONTINUOUS
 10
-6.2123912437
 20
-13.4876087563
 40
0.5998716125
100
AcDbArc
 50
89.996598109
 51
180.003401891
  0
ARC
  5
63C
100
AcDbEntity
  8
ASSI
100
AcDbCircle
 62
253
  6
CONTINUOUS
 10
-6.21239139
 20
-13.48760861
 40
0.5998716125
100
AcDbArc
 50
89.9965841406
 51
180.0034158594
  0
ARC
  5
63D
100
AcDbEntity
  8
ASSI
100
AcDbCircle
 62
7
  6
CONTINUOUS
 10
-10.6323927659
 20
-21.8998729306
 40
0.5001270694
100
AcDbArc
 50
267.982455317
 51
270.0000178742
  0
ARC
  5
63E
100
AcDbEntity
  8
0
100
AcDbCircle
 62
7
  6
CONTINUOUS
 10
-8.525
 20
-8.15
 40
0.5
100
AcDbArc
 50
180.0000000077
 51
269.9999999928
  0
ARC
  5
63F
100
AcDbEntity
  8
RACCORDO
100
AcDbCircle
 62
7
  6
CONTINUOUS
 10
-10.6324618824
 20
-21.9001237906
 40
0.499875135
100
AcDbArc
 50
243.4318543999
 51
270.0000178742
  0
ARC
  5
640
100
AcDbEntity
  8
RACCORDO
100
AcDbCircle
 62
7
  6
CONTINUOUS
 10
-3.1
 20
-14.2
 40
0.3
100
AcDbArc
 50
90.0
 51
180.0
  0
ARC
  5
641
100
AcDbEntity
  8
RACCORDO
100
AcDbCircle
 62
7
  6
CONTINUOUS
 10
-4.2
 20
-17.6
 40
0.3
100
AcDbArc
 50
90.0
 51
180.0
  0
ARC
  5
642
100
AcDbEntity
  8
ASSI
100
AcDbCircle
 62
7
  6
CONTINUOUS
 10
-4.2
 20
-17.6
 40
0.3
100
AcDbArc
 50
90.0
 51
180.0
  0
ARC
  5
643
100
AcDbEntity
  8
RACCORDO
100
AcDbCircle
 62
253
  6
CONTINUOUS
 10
-6.2125013856
 20
-13.4874986144
 40
0.2998063372
100
AcDbArc
 50
89.9721443351
 51
180.0278556649
  0
ARC
  5
644
100
AcDbEntity
  8
ASSI
100
AcDbCircle
 62
253
  6
CONTINUOUS
 10
-6.212501795
 20
-13.487498205
 40
0.2998063372
100
AcDbArc
 50
89.9720660589
 51
180.0279339411
  0
ARC
  5
645
100
AcDbEntity
  8
ASSI
100
AcDbCircle
 62
7
  6
CONTINUOUS
 10
-8.5008468614
 20
-24.2497761815
 40
0.250870749
100
AcDbArc
 50
338.2057000398
 51
351.7942873162
  0
ARC
  5
646
100
AcDbEntity
  8
ASSI
100
AcDbCircle
 62
7
  6
CONTINUOUS
 10
-10.3997761815
 20
-24.2491531386
 40
0.250870749
100
AcDbArc
 50
248.2057000397
 51
261.7942873162
  0
ARC
  5
647
100
AcDbEntity
  8
RACCORDO
100
AcDbCircle
 62
7
  6
CONTINUOUS
 10
-8.5000482821
 20
-24.2494450489
 40
0.2505549566
100
AcDbArc
 50
270.0120084182
 51
280.8966878703
  0
ARC
  5
648
100
AcDbEntity
  8
RACCORDO
100
AcDbCircle
 62
7
  6
CONTINUOUS
 10
-10.3994450489
 20
-24.2499517179
 40
0.2505549566
100
AcDbArc
 50
180.0120084182
 51
190.8966878703
  0
ARC
  5
649
100
AcDbEntity
  8
RACCORDO
100
AcDbCircle
 62
7
  6
CONTINUOUS
 10
-8.5003768759
 20
-24.2499774933
 40
0.2503768773
100
AcDbArc
 50
351.8245330495
 51
359.9938814446
  0
ARC
  5
64A
100
AcDbEntity
  8
RACCORDO
100
AcDbCircle
 62
7
  6
CONTINUOUS
 10
-10.3999774933
 20
-24.2496231241
 40
0.2503768773
100
AcDbArc
 50
261.8245330495
 51
269.9938814446
  0
ARC
  5
64B
100
AcDbEntity
  8
ASSI
100
AcDbCircle
 62
7
  6
CONTINUOUS
 10
-8.5003768759
 20
-24.2499774933
 40
0.2503768773
100
AcDbArc
 50
351.8245330495
 51
359.9938814446
  0
ARC
  5
64C
100
AcDbEntity
  8
ASSI
100
AcDbCircle
 62
7
  6
CONTINUOUS
 10
-10.3999774933
 20
-24.2496231241
 40
0.2503768773
100
AcDbArc
 50
261.8245330495
 51
269.9938814446
  0
ARC
  5
64D
100
AcDbEntity
  8
RACCORDO
100
AcDbCircle
 62
253
  6
CONTINUOUS
 10
-8.5043778172
 20
-24.2456221828
 40
0.2500059834
100
AcDbArc
 50
270.0023408263
 51
359.9976591737
  0
ARC
  5
64E
100
AcDbEntity
  8
RACCORDO
100
AcDbCircle
 62
253
  6
CONTINUOUS
 10
-10.3956221828
 20
-24.2456221828
 40
0.2500059834
100
AcDbArc
 50
180.0023408263
 51
269.9976591737
  0
ARC
  5
64F
100
AcDbEntity
  8
ASSI
100
AcDbCircle
 62
7
  6
CONTINUOUS
 10
-8.5043778172
 20
-24.2456221828
 40
0.2500059834
100
AcDbArc
 50
270.0023408263
 51
359.9976591737
  0
ARC
  5
650
100
AcDbEntity
  8
ASSI
100
AcDbCircle
 62
7
  6
CONTINUOUS
 10
-10.3956221828
 20
-24.2456221828
 40
0.2500059834
100
AcDbArc
 50
180.0023408263
 51
269.9976591737
  0
ARC
  5
651
100
AcDbEntity
  8
ASSI
100
AcDbCircle
 62
7
  6
CONTINUOUS
 10
-8.4999923615
 20
-24.2500076385
 40
0.249991413
100
AcDbArc
 50
291.8177557666
 51
338.1822442334
  0
ARC
  5
652
100
AcDbEntity
  8
ASSI
100
AcDbCircle
 62
7
  6
CONTINUOUS
 10
-10.4000076385
 20
-24.2500076385
 40
0.249991413
100
AcDbArc
 50
201.8177557666
 51
248.1822442334
  0
ARC
  5
653
100
AcDbEntity
  8
RACCORDO
100
AcDbCircle
 62
7
  6
CONTINUOUS
 10
-8.499822046
 20
-24.250035419
 40
0.2498194496
100
AcDbArc
 50
280.9088746851
 51
351.8195876917
  0
ARC
  5
654
100
AcDbEntity
  8
RACCORDO
100
AcDbCircle
 62
7
  6
CONTINUOUS
 10
-10.400035419
 20
-24.250177954
 40
0.2498194496
100
AcDbArc
 50
190.9088746851
 51
261.8195876917
  0
ARC
  5
655
100
AcDbEntity
  8
RACCORDO
100
AcDbCircle
 62
253
  6
CONTINUOUS
 10
-6.2123912437
 20
10.1876087563
 40
0.5998716125
100
AcDbArc
 50
179.996598109
 51
270.003401891
  0
ARC
  5
656
100
AcDbEntity
  8
ASSI
100
AcDbCircle
 62
253
  6
CONTINUOUS
 10
-6.21239139
 20
10.18760861
 40
0.5998716125
100
AcDbArc
 50
179.9965841406
 51
270.0034158594
  0
ARC
  5
657
100
AcDbEntity
  8
ASSI
100
AcDbCircle
 62
7
  6
CONTINUOUS
 10
-10.6324141787
 20
21.8996247637
 40
0.5003763446
100
AcDbArc
 50
94.4787600334
 51
96.947928
  0
ARC
  5
658
100
AcDbEntity
  8
ASSI
100
AcDbCircle
 62
7
  6
CONTINUOUS
 10
-10.6323927659
 20
21.8998729305
 40
0.5001270695
100
AcDbArc
 50
89.9999821258
 51
92.0175446829
  0
ARC
  5
659
100
AcDbEntity
  8
RACCORDO
100
AcDbCircle
 62
7
  6
CONTINUOUS
 10
-10.6324618824
 20
21.9001237906
 40
0.499875135
100
AcDbArc
 50
89.9999821258
 51
116.5681456001
  0
ARC
  5
65A
100
AcDbEntity
  8
ASSI
100
AcDbCircle
 62
7
  6
CONTINUOUS
 10
-10.6324914973
 20
21.9006538455
 40
0.4993443675
100
AcDbArc
 50
92.0092739346
 51
94.4791361631
  0
ARC
  5
65B
100
AcDbEntity
  8
RACCORDO
100
AcDbCircle
 62
253
  6
CONTINUOUS
 10
-6.2125013856
 20
10.1874986144
 40
0.2998063372
100
AcDbArc
 50
179.9721443351
 51
270.0278556649
  0
ARC
  5
65C
100
AcDbEntity
  8
ASSI
100
AcDbCircle
 62
253
  6
CONTINUOUS
 10
-6.212501795
 20
10.187498205
 40
0.2998063372
100
AcDbArc
 50
179.9720660589
 51
270.0279339411
  0
ARC
  5
65D
100
AcDbEntity
  8
ASSI
100
AcDbCircle
 62
7
  6
CONTINUOUS
 10
-10.3991531386
 20
24.2497761815
 40
0.250870749
100
AcDbArc
 50
158.2057000397
 51
171.7942873163
  0
ARC
  5
65E
100
AcDbEntity
  8
ASSI
100
AcDbCircle
 62
7
  6
CONTINUOUS
 10
-8.5002238185
 20
24.2491531386
 40
0.250870749
100
AcDbArc
 50
68.2057000398
 51
81.7942873162
  0
ARC
  5
65F
100
AcDbEntity
  8
RACCORDO
100
AcDbCircle
 62
7
  6
CONTINUOUS
 10
-10.3999517179
 20
24.2494450489
 40
0.2505549566
100
AcDbArc
 50
90.0120084182
 51
100.8966878703
  0
ARC
  5
660
100
AcDbEntity
  8
RACCORDO
100
AcDbCircle
 62
7
  6
CONTINUOUS
 10
-8.5005549511
 20
24.2499517179
 40
0.2505549566
100
AcDbArc
 50
0.0120084182
 51
10.8966878703
  0
ARC
  5
661
100
AcDbEntity
  8
RACCORDO
100
AcDbCircle
 62
7
  6
CONTINUOUS
 10
-10.3996231241
 20
24.2499774933
 40
0.2503768773
100
AcDbArc
 50
171.8245330495
 51
179.9938814446
  0
ARC
  5
662
100
AcDbEntity
  8
RACCORDO
100
AcDbCircle
 62
7
  6
CONTINUOUS
 10
-8.5000225067
 20
24.2496231241
 40
0.2503768773
100
AcDbArc
 50
81.8245330494
 51
89.9938814447
  0
ARC
  5
663
100
AcDbEntity
  8
ASSI
100
AcDbCircle
 62
7
  6
CONTINUOUS
 10
-10.3996231241
 20
24.2499774933
 40
0.2503768773
100
AcDbArc
 50
171.8245330495
 51
179.9938814446
  0
ARC
  5
664
100
AcDbEntity
  8
ASSI
100
AcDbCircle
 62
7
  6
CONTINUOUS
 10
-8.5000225067
 20
24.2496231241
 40
0.2503768773
100
AcDbArc
 50
81.8245330494
 51
89.9938814447
  0
ARC
  5
665
100
AcDbEntity
  8
RACCORDO
100
AcDbCircle
 62
253
  6
CONTINUOUS
 10
-10.3956221828
 20
24.2456221828
 40
0.2500059834
100
AcDbArc
 50
90.0023408263
 51
179.9976591737
  0
ARC
  5
666
100
AcDbEntity
  8
RACCORDO
100
AcDbCircle
 62
253
  6
CONTINUOUS
 10
-8.5043778172
 20
24.2456221828
 40
0.2500059834
100
AcDbArc
 50
0.0023408215
 51
89.9976591785
  0
ARC
  5
667
100
AcDbEntity
  8
ASSI
100
AcDbCircle
 62
7
  6
CONTINUOUS
 10
-10.3956221828
 20
24.2456221828
 40
0.2500059834
100
AcDbArc
 50
90.0023408263
 51
179.9976591737
  0
ARC
  5
668
100
AcDbEntity
  8
ASSI
100
AcDbCircle
 62
7
  6
CONTINUOUS
 10
-8.5043778172
 20
24.2456221828
 40
0.2500059834
100
AcDbArc
 50
0.0023408215
 51
89.9976591785
  0
ARC
  5
669
100
AcDbEntity
  8
ASSI
100
AcDbCircle
 62
7
  6
CONTINUOUS
 10
-10.4000076385
 20
24.2500076385
 40
0.249991413
100
AcDbArc
 50
111.8177557666
 51
158.1822442334
  0
ARC
  5
66A
100
AcDbEntity
  8
ASSI
100
AcDbCircle
 62
7
  6
CONTINUOUS
 10
-8.4999923615
 20
24.2500076385
 40
0.249991413
100
AcDbArc
 50
21.8177557666
 51
68.1822442334
  0
ARC
  5
66B
100
AcDbEntity
  8
RACCORDO
100
AcDbCircle
 62
7
  6
CONTINUOUS
 10
-10.400177954
 20
24.250035419
 40
0.2498194496
100
AcDbArc
 50
100.9088746851
 51
171.8195876917
  0
ARC
  5
66C
100
AcDbEntity
  8
RACCORDO
100
AcDbCircle
 62
7
  6
CONTINUOUS
 10
-8.499964581
 20
24.250177954
 40
0.2498194496
100
AcDbArc
 50
10.9088746851
 51
81.8195876917
  0
ARC
  5
66D
100
AcDbEntity
  8
RACCORDO
100
AcDbCircle
 62
253
  6
CONTINUOUS
 10
6.2123911866
 20
-13.4876088134
 40
0.5998716125
100
AcDbArc
 50
359.9966035705
 51
90.0033964295
  0
ARC
  5
66E
100
AcDbEntity
  8
ASSI
100
AcDbCircle
 62
253
  6
CONTINUOUS
 10
6.2123915097
 20
-13.4876084903
 40
0.5998716125
100
AcDbArc
 50
359.9965727028
 51
90.0034272972
  0
ARC
  5
66F
100
AcDbEntity
  8
RACCORDO
100
AcDbCircle
 62
7
  6
CONTINUOUS
 10
3.1
 20
-14.2
 40
0.3
100
AcDbArc
 50
0.0
 51
90.0
  0
ARC
  5
670
100
AcDbEntity
  8
RACCORDO
100
AcDbCircle
 62
7
  6
CONTINUOUS
 10
4.2
 20
-17.6
 40
0.3
100
AcDbArc
 50
0.0
 51
90.0
  0
ARC
  5
671
100
AcDbEntity
  8
ASSI
100
AcDbCircle
 62
7
  6
CONTINUOUS
 10
4.2
 20
-17.6
 40
0.3
100
AcDbArc
 50
0.0
 51
90.0
  0
ARC
  5
672
100
AcDbEntity
  8
ASSI
100
AcDbCircle
 62
253
  6
CONTINUOUS
 10
6.2124965366
 20
-13.4875034634
 40
0.2998128046
100
AcDbArc
 50
359.9730714545
 51
90.0269285455
  0
ARC
  5
673
100
AcDbEntity
  8
RACCORDO
100
AcDbCircle
 62
253
  6
CONTINUOUS
 10
6.2125013514
 20
-13.4874986486
 40
0.2998063372
100
AcDbArc
 50
359.9721508813
 51
90.0278491187
  0
CIRCLE
  5
674
100
AcDbEntity
  8
0
100
AcDbCircle
 62
7
  6
CONTINUOUS
 10
2.475
 20
-2.2
 40
1.15
  0
ARC
  5
675
100
AcDbEntity
  8
0
100
AcDbCircle
 62
7
  6
CONTINUOUS
 10
2.475
 20
-6.8615
 40
1.0875
100
AcDbArc
 50
226.397181241
 51
313.6028188659
  0
ARC
  5
676
100
AcDbEntity
  8
ASSI
100
AcDbCircle
 62
7
  6
CONTINUOUS
 10
10.6324141787
 20
-21.8996247637
 40
0.5003763446
100
AcDbArc
 50
274.4787600334
 51
276.947928
  0
ARC
  5
677
100
AcDbEntity
  8
ASSI
100
AcDbCircle
 62
7
  6
CONTINUOUS
 10
10.6323927659
 20
-21.8998729306
 40
0.5001270694
100
AcDbArc
 50
269.9999821258
 51
272.017544683
  0
ARC
  5
678
100
AcDbEntity
  8
RACCORDO
100
AcDbCircle
 62
7
  6
CONTINUOUS
 10
10.6324618824
 20
-21.9001237906
 40
0.499875135
100
AcDbArc
 50
269.9999821258
 51
296.5681456001
  0
ARC
  5
679
100
AcDbEntity
  8
ASSI
100
AcDbCircle
 62
7
  6
CONTINUOUS
 10
10.6324914973
 20
-21.9006538455
 40
0.4993443675
100
AcDbArc
 50
272.0092739346
 51
274.4791361631
  0
ARC
  5
67A
100
AcDbEntity
  8
ASSI
100
AcDbCircle
 62
7
  6
CONTINUOUS
 10
8.5002238185
 20
-24.2491531386
 40
0.250870749
100
AcDbArc
 50
248.2057000397
 51
261.7942873162
  0
ARC
  5
67B
100
AcDbEntity
  8
ASSI
100
AcDbCircle
 62
7
  6
CONTINUOUS
 10
10.3991531386
 20
-24.2497761815
 40
0.250870749
100
AcDbArc
 50
338.2057000397
 51
351.7942873163
  0
ARC
  5
67C
100
AcDbEntity
  8
RACCORDO
100
AcDbCircle
 62
7
  6
CONTINUOUS
 10
8.5005549511
 20
-24.2499517179
 40
0.2505549566
100
AcDbArc
 50
180.0120084182
 51
190.8966878703
  0
ARC
  5
67D
100
AcDbEntity
  8
RACCORDO
100
AcDbCircle
 62
7
  6
CONTINUOUS
 10
10.3999517179
 20
-24.2494450489
 40
0.2505549566
100
AcDbArc
 50
270.0120084182
 51
280.8966878703
  0
ARC
  5
67E
100
AcDbEntity
  8
RACCORDO
100
AcDbCircle
 62
7
  6
CONTINUOUS
 10
8.5000225067
 20
-24.2496231241
 40
0.2503768773
100
AcDbArc
 50
261.8245330495
 51
269.9938814446
  0
ARC
  5
67F
100
AcDbEntity
  8
RACCORDO
100
AcDbCircle
 62
7
  6
CONTINUOUS
 10
10.3996231241
 20
-24.2499774933
 40
0.2503768773
100
AcDbArc
 50
351.8245330495
 51
359.9938814446
  0
ARC
  5
680
100
AcDbEntity
  8
ASSI
100
AcDbCircle
 62
7
  6
CONTINUOUS
 10
8.5000225067
 20
-24.2496231241
 40
0.2503768773
100
AcDbArc
 50
261.8245330495
 51
269.9938814446
  0
ARC
  5
681
100
AcDbEntity
  8
ASSI
100
AcDbCircle
 62
7
  6
CONTINUOUS
 10
10.3996231241
 20
-24.2499774933
 40
0.2503768773
100
AcDbArc
 50
351.8245330495
 51
359.9938814446
  0
ARC
  5
682
100
AcDbEntity
  8
RACCORDO
100
AcDbCircle
 62
253
  6
CONTINUOUS
 10
8.5043778172
 20
-24.2456221828
 40
0.2500059834
100
AcDbArc
 50
180.0023408215
 51
269.9976591785
  0
ARC
  5
683
100
AcDbEntity
  8
RACCORDO
100
AcDbCircle
 62
253
  6
CONTINUOUS
 10
10.3956221828
 20
-24.2456221828
 40
0.2500059834
100
AcDbArc
 50
270.0023408215
 51
359.9976591785
  0
ARC
  5
684
100
AcDbEntity
  8
ASSI
100
AcDbCircle
 62
7
  6
CONTINUOUS
 10
8.5043778172
 20
-24.2456221828
 40
0.2500059834
100
AcDbArc
 50
180.0023408215
 51
269.9976591785
  0
ARC
  5
685
100
AcDbEntity
  8
ASSI
100
AcDbCircle
 62
7
  6
CONTINUOUS
 10
10.3956221828
 20
-24.2456221828
 40
0.2500059834
100
AcDbArc
 50
270.0023408215
 51
359.9976591785
  0
ARC
  5
686
100
AcDbEntity
  8
ASSI
100
AcDbCircle
 62
7
  6
CONTINUOUS
 10
8.4999923615
 20
-24.2500076385
 40
0.249991413
100
AcDbArc
 50
201.8177557666
 51
248.1822442334
  0
ARC
  5
687
100
AcDbEntity
  8
ASSI
100
AcDbCircle
 62
7
  6
CONTINUOUS
 10
10.4000076385
 20
-24.2500076385
 40
0.249991413
100
AcDbArc
 50
291.8177557666
 51
338.1822442334
  0
ARC
  5
688
100
AcDbEntity
  8
RACCORDO
100
AcDbCircle
 62
7
  6
CONTINUOUS
 10
8.499964581
 20
-24.250177954
 40
0.2498194496
100
AcDbArc
 50
190.9088746851
 51
261.8195876917
  0
ARC
  5
689
100
AcDbEntity
  8
RACCORDO
100
AcDbCircle
 62
7
  6
CONTINUOUS
 10
10.400177954
 20
-24.250035419
 40
0.2498194496
100
AcDbArc
 50
280.9088746851
 51
351.8195876917
  0
ARC
  5
68A
100
AcDbEntity
  8
0
100
AcDbCircle
 62
7
  6
CONTINUOUS
 10
8.475
 20
-8.15
 40
0.5
100
AcDbArc
 50
269.9999999923
 51
360.0
  0
ARC
  5
68B
100
AcDbEntity
  8
RACCORDO
100
AcDbCircle
 62
253
  6
CONTINUOUS
 10
6.2123911866
 20
10.1876088134
 40
0.5998716125
100
AcDbArc
 50
269.9966035705
 51
0.0033964295
  0
ARC
  5
68C
100
AcDbEntity
  8
ASSI
100
AcDbCircle
 62
253
  6
CONTINUOUS
 10
6.2123915097
 20
10.1876084903
 40
0.5998716125
100
AcDbArc
 50
269.9965727028
 51
0.0034272972
  0
ARC
  5
68D
100
AcDbEntity
  8
ASSI
100
AcDbCircle
 62
7
  6
CONTINUOUS
 10
10.6323927659
 20
21.8998729305
 40
0.5001270695
100
AcDbArc
 50
87.9824553171
 51
90.0000178742
  0
ARC
  5
68E
100
AcDbEntity
  8
RACCORDO
100
AcDbCircle
 62
7
  6
CONTINUOUS
 10
10.6324618824
 20
21.9001237906
 40
0.499875135
100
AcDbArc
 50
63.4318543999
 51
90.0000178742
  0
ARC
  5
68F
100
AcDbEntity
  8
ASSI
100
AcDbCircle
 62
253
  6
CONTINUOUS
 10
6.2124965366
 20
10.1875034634
 40
0.2998128046
100
AcDbArc
 50
269.9730714515
 51
0.0269285485
  0
ARC
  5
690
100
AcDbEntity
  8
RACCORDO
100
AcDbCircle
 62
253
  6
CONTINUOUS
 10
6.2125013514
 20
10.1874986486
 40
0.2998063372
100
AcDbArc
 50
269.9721508813
 51
0.0278491187
  0
ARC
  5
691
100
AcDbEntity
  8
ASSI
100
AcDbCircle
 62
7
  6
CONTINUOUS
 10
8.5008468614
 20
24.2497761815
 40
0.250870749
100
AcDbArc
 50
158.2057000398
 51
171.7942873162
  0
ARC
  5
692
100
AcDbEntity
  8
ASSI
100
AcDbCircle
 62
7
  6
CONTINUOUS
 10
10.3997761815
 20
24.2491531386
 40
0.250870749
100
AcDbArc
 50
68.2057000397
 51
81.7942873163
  0
ARC
  5
693
100
AcDbEntity
  8
RACCORDO
100
AcDbCircle
 62
7
  6
CONTINUOUS
 10
8.5000482821
 20
24.2494450489
 40
0.2505549566
100
AcDbArc
 50
90.0120084183
 51
100.8966878703
  0
ARC
  5
694
100
AcDbEntity
  8
RACCORDO
100
AcDbCircle
 62
7
  6
CONTINUOUS
 10
10.3994450489
 20
24.2499517179
 40
0.2505549566
100
AcDbArc
 50
0.0120084182
 51
10.8966878703
  0
ARC
  5
695
100
AcDbEntity
  8
RACCORDO
100
AcDbCircle
 62
7
  6
CONTINUOUS
 10
8.5003768759
 20
24.2499774933
 40
0.2503768773
100
AcDbArc
 50
171.8245330495
 51
179.9938814446
  0
ARC
  5
696
100
AcDbEntity
  8
RACCORDO
100
AcDbCircle
 62
7
  6
CONTINUOUS
 10
10.3999774933
 20
24.2496231241
 40
0.2503768773
100
AcDbArc
 50
81.8245330495
 51
89.9938814446
  0
ARC
  5
697
100
AcDbEntity
  8
ASSI
100
AcDbCircle
 62
7
  6
CONTINUOUS
 10
8.5003768759
 20
24.2499774933
 40
0.2503768773
100
AcDbArc
 50
171.8245330495
 51
179.9938814446
  0
ARC
  5
698
100
AcDbEntity
  8
ASSI
100
AcDbCircle
 62
7
  6
CONTINUOUS
 10
10.3999774933
 20
24.2496231241
 40
0.2503768773
100
AcDbArc
 50
81.8245330495
 51
89.9938814446
  0
ARC
  5
699
100
AcDbEntity
  8
RACCORDO
100
AcDbCircle
 62
253
  6
CONTINUOUS
 10
8.5043778172
 20
24.2456221828
 40
0.2500059834
100
AcDbArc
 50
90.0023408263
 51
179.9976591737
  0
ARC
  5
69A
100
AcDbEntity
  8
RACCORDO
100
AcDbCircle
 62
253
  6
CONTINUOUS
 10
10.3956221828
 20
24.2456221828
 40
0.2500059834
100
AcDbArc
 50
0.0023408263
 51
89.9976591737
  0
ARC
  5
69B
100
AcDbEntity
  8
ASSI
100
AcDbCircle
 62
7
  6
CONTINUOUS
 10
8.5043778172
 20
24.2456221828
 40
0.2500059834
100
AcDbArc
 50
90.0023408263
 51
179.9976591737
  0
ARC
  5
69C
100
AcDbEntity
  8
ASSI
100
AcDbCircle
 62
7
  6
CONTINUOUS
 10
10.3956221828
 20
24.2456221828
 40
0.2500059834
100
AcDbArc
 50
0.0023408263
 51
89.9976591737
  0
ARC
  5
69D
100
AcDbEntity
  8
ASSI
100
AcDbCircle
 62
7
  6
CONTINUOUS
 10
8.4999923615
 20
24.2500076385
 40
0.249991413
100
AcDbArc
 50
111.8177557666
 51
158.1822442334
  0
ARC
  5
69E
100
AcDbEntity
  8
ASSI
100
AcDbCircle
 62
7
  6
CONTINUOUS
 10
10.4000076385
 20
24.2500076385
 40
0.249991413
100
AcDbArc
 50
21.8177557666
 51
68.1822442334
  0
ARC
  5
69F
100
AcDbEntity
  8
RACCORDO
100
AcDbCircle
 62
7
  6
CONTINUOUS
 10
8.499822046
 20
24.250035419
 40
0.2498194496
100
AcDbArc
 50
100.9088746851
 51
171.8195876917
  0
ARC
  5
6A0
100
AcDbEntity
  8
RACCORDO
100
AcDbCircle
 62
7
  6
CONTINUOUS
 10
10.400035419
 20
24.250177954
 40
0.2498194496
100
AcDbArc
 50
10.9088746851
 51
81.8195876917
  0
SPLINE
  5
6A1
100
AcDbEntity
  8
RACCORDO
100
AcDbSpline
 62
253
  6
CONTINUOUS
 70
0
 71
3
 72
13
 73
9
 74
7
 42
0.0000001
 43
0.0000001
 44
0.0000000001
 12
0.0012265939
 22
0.3651868479
 32
0.0
 13
0.3651877491
 23
0.0009199789
 33
0.0
 40
0.0
 40
0.0
 40
0.0
 40
0.0
 40
0.1162399782
 40
0.2339778175
 40
0.3543713311
 40
0.4780980184
 40
0.7345386243
 40
1.0
 40
1.0
 40
1.0
 40
1.0
 10
-10.645628166
 20
-23.8443375673
 30
0.0
 10
-10.6455806396
 20
-23.8301877969
 30
0.0
 10
-10.6422223551
 20
-23.8016148029
 30
0.0
 10
-10.6276650278
 20
-23.7606547352
 30
0.0
 10
-10.6041946141
 20
-23.7229828841
 30
0.0
 10
-10.561892224
 20
-23.6786204872
 30
0.0
 10
-10.4919652956
 20
-23.6387874753
 30
0.0
 10
-10.4279468109
 20
-23.6279126226
 30
0.0
 10
-10.3956323968
 20
-23.6278312164
 30
0.0
 11
-10.645628166
 21
-23.8443375673
 31
0.0
 11
-10.6407004657
 21
-23.8021749995
 31
0.0
 11
-10.626389741
 21
-23.7616298799
 31
0.0
 11
-10.6032441408
 21
-23.7242490909
 31
0.0
 11
-10.5721495847
 21
-23.6914666636
 31
0.0
 11
-10.4911334639
 21
-23.6444924903
 31
0.0
 11
-10.3956323968
 21
-23.6278312164
 31
0.0
  0
SPLINE
  5
6A2
100
AcDbEntity
  8
RACCORDO
100
AcDbSpline
 62
253
  6
CONTINUOUS
 70
0
 71
3
 72
13
 73
9
 74
7
 42
0.0000001
 43
0.0000001
 44
0.0000000001
 12
-0.0012265939
 22
0.3651868488
 32
0.0
 13
-0.36518775
 23
0.0009199789
 33
0.0
 40
0.0
 40
0.0
 40
0.0
 40
0.0
 40
0.1162401487
 40
0.2339779758
 40
0.3543714899
 40
0.478098162
 40
0.7345387303
 40
1.0
 40
1.0
 40
1.0
 40
1.0
 10
-8.254371834
 20
-23.8443375673
 30
0.0
 10
-8.2544193605
 20
-23.8301877761
 30
0.0
 10
-8.2577776481
 20
-23.8016147615
 30
0.0
 10
-8.2723350011
 20
-23.7606546823
 30
0.0
 10
-8.295805421
 20
-23.7229828394
 30
0.0
 10
-8.3381078178
 20
-23.6786204573
 30
0.0
 10
-8.408034735
 20
-23.6387874669
 30
0.0
 10
-8.472053202
 20
-23.6279126226
 30
0.0
 10
-8.5043676032
 20
-23.6278312164
 30
0.0
 11
-8.254371834
 21
-23.8443375673
 31
0.0
 11
-8.2592995465
 21
-23.8021749381
 31
0.0
 11
-8.2736102851
 21
-23.761629828
 31
0.0
 11
-8.2967558954
 21
-23.7242490449
 31
0.0
 11
-8.3278504554
 21
-23.6914666288
 31
0.0
 11
-8.4088665728
 21
-23.6444924765
 31
0.0
 11
-8.5043676032
 21
-23.6278312164
 31
0.0
  0
SPLINE
  5
6A3
100
AcDbEntity
  8
RACCORDO
100
AcDbSpline
 62
253
  6
CONTINUOUS
 70
0
 71
3
 72
13
 73
9
 74
7
 42
0.0000001
 43
0.0000001
 44
0.0000000001
 12
0.0012265939
 22
0.3651868479
 32
0.0
 13
0.3651877491
 23
0.0009199789
 33
0.0
 40
0.0
 40
0.0
 40
0.0
 40
0.0
 40
0.1162399782
 40
0.2339778175
 40
0.3543713311
 40
0.4780980184
 40
0.7345386243
 40
1.0
 40
1.0
 40
1.0
 40
1.0
 10
8.254371834
 20
-23.8443375673
 30
0.0
 10
8.2544193604
 20
-23.8301877969
 30
0.0
 10
8.2577776449
 20
-23.8016148029
 30
0.0
 10
8.2723349722
 20
-23.7606547352
 30
0.0
 10
8.2958053859
 20
-23.7229828841
 30
0.0
 10
8.338107776
 20
-23.6786204872
 30
0.0
 10
8.4080347044
 20
-23.6387874753
 30
0.0
 10
8.4720531891
 20
-23.6279126226
 30
0.0
 10
8.5043676032
 20
-23.6278312164
 30
0.0
 11
8.254371834
 21
-23.8443375673
 31
0.0
 11
8.2592995343
 21
-23.8021749995
 31
0.0
 11
8.273610259
 21
-23.7616298799
 31
0.0
 11
8.2967558592
 21
-23.7242490909
 31
0.0
 11
8.3278504153
 21
-23.6914666636
 31
0.0
 11
8.4088665361
 21
-23.6444924903
 31
0.0
 11
8.5043676032
 21
-23.6278312164
 31
0.0
  0
SPLINE
  5
6A4
100
AcDbEntity
  8
RACCORDO
100
AcDbSpline
 62
253
  6
CONTINUOUS
 70
0
 71
3
 72
13
 73
9
 74
7
 42
0.0000001
 43
0.0000001
 44
0.0000000001
 12
-0.0012265939
 22
0.3651868479
 32
0.0
 13
-0.3651877491
 23
0.0009199789
 33
0.0
 40
0.0
 40
0.0
 40
0.0
 40
0.0
 40
0.1162399782
 40
0.2339778175
 40
0.3543713311
 40
0.4780980184
 40
0.7345386243
 40
1.0
 40
1.0
 40
1.0
 40
1.0
 10
10.645628166
 20
-23.8443375673
 30
0.0
 10
10.6455806396
 20
-23.8301877969
 30
0.0
 10
10.6422223551
 20
-23.8016148029
 30
0.0
 10
10.6276650278
 20
-23.7606547352
 30
0.0
 10
10.6041946141
 20
-23.7229828841
 30
0.0
 10
10.561892224
 20
-23.6786204872
 30
0.0
 10
10.4919652956
 20
-23.6387874753
 30
0.0
 10
10.4279468109
 20
-23.6279126226
 30
0.0
 10
10.3956323968
 20
-23.6278312164
 30
0.0
 11
10.645628166
 21
-23.8443375673
 31
0.0
 11
10.6407004657
 21
-23.8021749995
 31
0.0
 11
10.626389741
 21
-23.7616298799
 31
0.0
 11
10.6032441408
 21
-23.7242490909
 31
0.0
 11
10.5721495847
 21
-23.6914666636
 31
0.0
 11
10.4911334639
 21
-23.6444924903
 31
0.0
 11
10.3956323968
 21
-23.6278312164
 31
0.0
  0
SPLINE
  5
6A5
100
AcDbEntity
  8
RACCORDO
100
AcDbSpline
 62
7
  6
CONTINUOUS
 70
0
 71
3
 72
15
 73
11
 74
9
 42
0.0000001
 43
0.0000001
 44
0.0000000001
 12
-0.3142904289
 22
0.0
 32
0.0
 13
-0.0031667933
 23
0.3142744742
 33
0.0
 40
0.0
 40
0.0
 40
0.0
 40
0.0
 40
0.1666545511
 40
0.3262779792
 40
0.4735916211
 40
0.6057108254
 40
0.7221085607
 40
0.8242207343
 40
0.9152394685
 40
1.0
 40
1.0
 40
1.0
 40
1.0
 10
-10.3956323968
 20
23.7
 30
0.0
 10
-10.4130917069
 20
23.7
 30
0.0
 10
-10.4473034732
 20
23.7022700651
 30
0.0
 10
-10.4961878482
 20
23.7114284588
 30
0.0
 10
-10.540028913
 20
23.7258344539
 30
0.0
 10
-10.5772691987
 20
23.744460098
 30
0.0
 10
-10.6070169748
 20
23.7663702269
 30
0.0
 10
-10.6288084606
 20
23.7907682484
 30
0.0
 10
-10.6423087823
 20
23.8169652651
 30
0.0
 10
-10.645538693
 20
23.8354582101
 30
0.0
 10
-10.645628166
 20
23.8443375673
 30
0.0
 11
-10.3956323968
 21
23.7
 31
0.0
 11
-10.4479016168
 21
23.7033728661
 31
0.0
 11
-10.49717892
 21
23.7127849448
 31
0.0
 11
-10.5410978905
 21
23.7274391667
 31
0.0
 11
-10.5780992753
 21
23.7462838901
 31
0.0
 11
-10.6073337071
 21
23.7682757411
 31
0.0
 11
-10.6284113806
 21
23.7924766616
 31
0.0
 11
-10.6411891944
 21
23.8180705836
 31
0.0
 11
-10.645628166
 21
23.8443375673
 31
0.0
  0
SPLINE
  5
6A6
100
AcDbEntity
  8
RACCORDO
100
AcDbSpline
 62
7
  6
CONTINUOUS
 70
0
 71
3
 72
15
 73
11
 74
9
 42
0.0000001
 43
0.0000001
 44
0.0000000001
 12
-0.0031741022
 22
-0.3149998123
 32
0.0
 13
-0.3150158039
 23
0.0
 33
0.0
 40
0.0
 40
0.0
 40
0.0
 40
0.0
 40
0.0847129374
 40
0.1757006909
 40
0.2778081862
 40
0.3942292046
 40
0.5263924491
 40
0.6737522819
 40
0.8333934372
 40
1.0
 40
1.0
 40
1.0
 40
1.0
 10
-8.254371834
 20
23.8443375673
 30
0.0
 10
-8.2544614632
 20
23.8354427142
 30
0.0
 10
-8.2577030547
 20
23.8169151481
 30
0.0
 10
-8.2712510165
 20
23.7906750928
 30
0.0
 10
-8.2931173207
 20
23.7662437729
 30
0.0
 10
-8.3229647126
 20
23.7443139213
 30
0.0
 10
-8.3603248417
 20
23.7256847024
 30
0.0
 10
-8.404297613
 20
23.7113065128
 30
0.0
 10
-8.4533081754
 20
23.7021703171
 30
0.0
 10
-8.4876002652
 20
23.7
 30
0.0
 10
-8.5050948319
 20
23.7
 30
0.0
 11
-8.254371834
 21
23.8443375673
 31
0.0
 11
-8.2588255818
 21
23.8180259322
 31
0.0
 11
-8.2716467936
 21
23.7923907994
 31
0.0
 11
-8.2927961599
 21
23.7681560707
 31
0.0
 11
-8.322129078
 21
23.7461425298
 31
0.0
 11
-8.3592515743
 21
23.7272939361
 31
0.0
 11
-8.4033052251
 21
23.7126598996
 31
0.0
 11
-8.4527144738
 21
23.7032919418
 31
0.0
 11
-8.5050948319
 21
23.7
 31
0.0
  0
SPLINE
  5
6A7
100
AcDbEntity
  8
RACCORDO
100
AcDbSpline
 62
253
  6
CONTINUOUS
 70
0
 71
3
 72
13
 73
9
 74
7
 42
0.0000001
 43
0.0000001
 44
0.0000000001
 12
0.0012265939
 22
-0.3651868486
 32
0.0
 13
0.3651877498
 23
-0.0009199789
 33
0.0
 40
0.0
 40
0.0
 40
0.0
 40
0.0
 40
0.1162401412
 40
0.2339779602
 40
0.3543714643
 40
0.4780981267
 40
0.7345386771
 40
1.0
 40
1.0
 40
1.0
 40
1.0
 10
8.254371834
 20
23.8443375673
 30
0.0
 10
8.2544193605
 20
23.830187777
 30
0.0
 10
8.2577776477
 20
23.8016147644
 30
0.0
 10
8.2723349985
 20
23.7606546878
 30
0.0
 10
8.2958054152
 20
23.722982847
 30
0.0
 10
8.3381078067
 20
23.6786204663
 30
0.0
 10
8.408034724
 20
23.6387874704
 30
0.0
 10
8.4720531955
 20
23.6279126226
 30
0.0
 10
8.5043676032
 20
23.6278312164
 30
0.0
 11
8.254371834
 21
23.8443375673
 31
0.0
 11
8.2592995459
 21
23.8021749409
 31
0.0
 11
8.2736102825
 21
23.7616298332
 31
0.0
 11
8.2967558894
 21
23.7242490524
 31
0.0
 11
8.3278504455
 21
23.6914666374
 31
0.0
 11
8.4088665543
 21
23.6444924834
 31
0.0
 11
8.5043676032
 21
23.6278312164
 31
0.0
  0
SPLINE
  5
6A8
100
AcDbEntity
  8
RACCORDO
100
AcDbSpline
 62
253
  6
CONTINUOUS
 70
0
 71
3
 72
13
 73
9
 74
7
 42
0.0000001
 43
0.0000001
 44
0.0000000001
 12
-0.0012265939
 22
-0.3651868479
 32
0.0
 13
-0.3651877491
 23
-0.0009199789
 33
0.0
 40
0.0
 40
0.0
 40
0.0
 40
0.0
 40
0.1162399782
 40
0.2339778175
 40
0.3543713311
 40
0.4780980184
 40
0.7345386243
 40
1.0
 40
1.0
 40
1.0
 40
1.0
 10
10.645628166
 20
23.8443375673
 30
0.0
 10
10.6455806396
 20
23.8301877969
 30
0.0
 10
10.6422223551
 20
23.8016148029
 30
0.0
 10
10.6276650278
 20
23.7606547352
 30
0.0
 10
10.6041946141
 20
23.7229828841
 30
0.0
 10
10.561892224
 20
23.6786204872
 30
0.0
 10
10.4919652956
 20
23.6387874753
 30
0.0
 10
10.4279468109
 20
23.6279126226
 30
0.0
 10
10.3956323968
 20
23.6278312164
 30
0.0
 11
10.645628166
 21
23.8443375673
 31
0.0
 11
10.6407004657
 21
23.8021749995
 31
0.0
 11
10.626389741
 21
23.7616298799
 31
0.0
 11
10.6032441408
 21
23.7242490909
 31
0.0
 11
10.5721495847
 21
23.6914666636
 31
0.0
 11
10.4911334639
 21
23.6444924903
 31
0.0
 11
10.3956323968
 21
23.6278312164
 31
0.0
  0
SPLINE
  5
6A9
100
AcDbEntity
  8
ASSI
100
AcDbSpline
 62
7
  6
CONTINUOUS
 70
0
 71
3
 72
12
 73
8
 74
6
 42
0.0000001
 43
0.0000001
 44
0.0000000001
 12
0.0
 22
-0.0569563512
 32
0.0
 13
-0.0344835377
 23
-0.0453311325
 33
0.0
 40
0.0
 40
0.0
 40
0.0
 40
0.0
 40
0.0602420179
 40
0.1386254
 40
0.3529642682
 40
0.6422328995
 40
1.0
 40
1.0
 40
1.0
 40
1.0
 10
-3.5
 20
23.7511422903
 30
0.0
 10
-3.5
 20
23.7499985685
 30
0.0
 10
-3.5004659593
 20
23.7473750638
 30
0.0
 10
-3.5027448284
 20
23.7410636191
 30
0.0
 10
-3.508121448
 20
23.7313510022
 30
0.0
 10
-3.5171722201
 20
23.7177366147
 30
0.0
 10
-3.5244819399
 20
23.7078540534
 30
0.0
 10
-3.5285942983
 20
23.7024480575
 30
0.0
 11
-3.5
 21
23.7511422903
 31
0.0
 11
-3.500486008
 21
23.7477457195
 31
0.0
 11
-3.5019254394
 21
23.7435197066
 31
0.0
 11
-3.5075449893
 21
23.7326820435
 31
0.0
 11
-3.5165546319
 21
23.7188880389
 31
0.0
 11
-3.5285942983
 21
23.7024480575
 31
0.0
  0
SPLINE
  5
6AA
100
AcDbEntity
  8
ASSI
100
AcDbSpline
 62
7
  6
CONTINUOUS
 70
0
 71
3
 72
13
 73
9
 74
7
 42
0.0000001
 43
0.0000001
 44
0.0000000001
 12
-0.4066591045
 22
0.4395505674
 32
0.0
 13
-0.3625845692
 23
0.4765592919
 33
0.0
 40
0.0
 40
0.0
 40
0.0
 40
0.0
 40
0.2843957208
 40
0.5580689415
 40
0.6864528182
 40
0.8057064711
 40
0.9119703924
 40
1.0
 40
1.0
 40
1.0
 40
1.0
 10
3.9279699877
 20
23.2563578147
 30
0.0
 10
3.8894192846
 20
23.2980265815
 30
0.0
 10
3.8137724842
 20
23.3797937657
 30
0.0
 10
3.7211192919
 20
23.4807395927
 30
0.0
 10
3.6514113302
 20
23.5579954878
 30
0.0
 10
3.6045639832
 20
23.6108705307
 30
0.0
 10
3.5637804547
 20
23.6583423538
 30
0.0
 10
3.5392696597
 20
23.6884170031
 30
0.0
 10
3.5286302672
 20
23.7024007789
 30
0.0
 11
3.9279699877
 21
23.2563578147
 31
0.0
 11
3.8124026816
 21
23.3814425191
 31
0.0
 11
3.7017432151
 21
23.5023175998
 31
0.0
 11
3.6502798367
 21
23.5594291245
 31
0.0
 11
3.6029896834
 21
23.6129371696
 31
0.0
 11
3.5616363989
 21
23.6612999372
 31
0.0
 11
3.5286302672
 21
23.7024007789
 31
0.0
  0
SPLINE
  5
6AB
100
AcDbEntity
  8
ASSI
100
AcDbSpline
 62
7
  6
CONTINUOUS
 70
0
 71
3
 72
20
 73
16
 74
14
 42
0.0000001
 43
0.0000001
 44
0.0000000001
 12
-0.0252813737
 22
-0.6549668479
 32
0.0
 13
-0.4451253222
 23
-0.4811280155
 33
0.0
 40
0.0
 40
0.0
 40
0.0
 40
0.0
 40
0.0072248217
 40
0.0171260471
 40
0.0451235654
 40
0.0832914673
 40
0.1302180295
 40
0.1844332165
 40
0.2446067311
 40
0.3096052295
 40
0.3784867363
 40
0.5249854411
 40
0.6794604545
 40
0.8386374838
 40
1.0
 40
1.0
 40
1.0
 40
1.0
 10
4.3559327327
 20
23.7507734247
 30
0.0
 10
4.3558718483
 20
23.7491960852
 30
0.0
 10
4.3549427991
 20
23.7455117468
 30
0.0
 10
4.3509649436
 20
23.7364888107
 30
0.0
 10
4.3420677788
 20
23.7223669077
 30
0.0
 10
4.3275449184
 20
23.702393452
 30
0.0
 10
4.3086439567
 20
23.6785188763
 30
0.0
 10
4.286128562
 20
23.6514046138
 30
0.0
 10
4.2606182196
 20
23.6216471704
 30
0.0
 10
4.2326813703
 20
23.5897547946
 30
0.0
 10
4.191963661
 20
23.543986486
 30
0.0
 10
4.137743763
 20
23.4840675791
 30
0.0
 10
4.0698358789
 20
23.409932252
 30
0.0
 10
3.9994723738
 20
23.3336432295
 30
0.0
 10
3.9519121683
 20
23.2822364904
 30
0.0
 10
3.9279699877
 20
23.2563578147
 30
0.0
 11
4.3559327327
 21
23.7507734247
 31
0.0
 11
4.3549846436
 21
23.7461337599
 31
0.0
 11
4.3524856915
 21
23.74014437
 31
0.0
 11
4.3431217022
 21
23.7243621445
 31
0.0
 11
4.3285453928
 21
23.7040299575
 31
0.0
 11
4.3095479791
 21
23.6798397317
 31
0.0
 11
4.2868924963
 21
23.6524625974
 31
0.0
 11
4.2612535649
 21
23.6224919755
 31
0.0
 11
4.2332006468
 21
23.5904280166
 31
0.0
 11
4.203205278
 21
23.55668364
 31
0.0
 11
4.1388431999
 21
23.4854236431
 31
0.0
 11
4.0704878187
 21
23.4107284019
 31
0.0
 11
3.999776638
 21
23.3340122404
 31
0.0
 11
3.9279699877
 21
23.2563578147
 31
0.0
  0
SPLINE
  5
6AC
100
AcDbEntity
  8
ASSI
100
AcDbSpline
 62
7
  6
CONTINUOUS
 70
0
 71
3
 72
13
 73
9
 74
7
 42
0.0000001
 43
0.0000001
 44
0.0000000001
 12
0.4065459355
 22
-0.4394282451
 32
0.0
 13
0.3625976613
 23
-0.4763399168
 33
0.0
 40
0.0
 40
0.0
 40
0.0
 40
0.0
 40
0.28434751
 40
0.5579853374
 40
0.6863621921
 40
0.8056220177
 40
0.9119127061
 40
1.0
 40
1.0
 40
1.0
 40
1.0
 10
-3.9279699877
 20
-23.2563578147
 30
0.0
 10
-3.8894365462
 20
-23.2980079238
 30
0.0
 10
-3.8138221206
 20
-23.3797401029
 30
0.0
 10
-3.7212066002
 20
-23.4806441928
 30
0.0
 10
-3.6515217931
 20
-23.5578722393
 30
0.0
 10
-3.6046826266
 20
-23.6107351525
 30
0.0
 10
-3.563895942
 20
-23.6582051701
 30
0.0
 10
-3.5393779575
 20
-23.6882816453
 30
0.0
 10
-3.5287312086
 20
-23.7022681433
 30
0.0
 11
-3.9279699877
 21
-23.2563578147
 31
0.0
 11
-3.8124543498
 21
-23.3813864383
 31
0.0
 11
-3.7018393392
 21
-23.5022116606
 31
0.0
 11
-3.6503922207
 21
-23.5593033797
 31
0.0
 11
-3.603111139
 21
-23.612797852
 31
0.0
 11
-3.561755861
 21
-23.6611566991
 31
0.0
 11
-3.5287312086
 21
-23.7022681433
 31
0.0
  0
SPLINE
  5
6AD
100
AcDbEntity
  8
ASSI
100
AcDbSpline
 62
7
  6
CONTINUOUS
 70
0
 71
3
 72
20
 73
16
 74
14
 42
0.0000001
 43
0.0000001
 44
0.0000000001
 12
0.0252813737
 22
0.6549668489
 32
0.0
 13
0.4451253229
 23
0.4811280162
 33
0.0
 40
0.0
 40
0.0
 40
0.0
 40
0.0
 40
0.0072247963
 40
0.0171260137
 40
0.0451236603
 40
0.0832918761
 40
0.1302187102
 40
0.1844340207
 40
0.2446075476
 40
0.3096059203
 40
0.3784872733
 40
0.5249857124
 40
0.6794607073
 40
0.8386377433
 40
1.0
 40
1.0
 40
1.0
 40
1.0
 10
-4.3559327327
 20
-23.7507734247
 30
0.0
 10
-4.3558718485
 20
-23.7491960907
 30
0.0
 10
-4.3549428125
 20
-23.7455117571
 30
0.0
 10
-4.3509649358
 20
-23.7364888057
 30
0.0
 10
-4.342067727
 20
-23.7223668207
 30
0.0
 10
-4.3275447595
 20
-23.7023932482
 30
0.0
 10
-4.3086437016
 20
-23.6785185518
 30
0.0
 10
-4.2861282387
 20
-23.6514042296
 30
0.0
 10
-4.2606178848
 20
-23.6216467934
 30
0.0
 10
-4.232681075
 20
-23.5897544604
 30
0.0
 10
-4.1919634425
 20
-23.5439862428
 30
0.0
 10
-4.1377436075
 20
-23.4840674079
 30
0.0
 10
-4.0698357633
 20
-23.4099321261
 30
0.0
 10
-3.9994722982
 20
-23.3336431472
 30
0.0
 10
-3.9519121299
 20
-23.2822364489
 30
0.0
 10
-3.9279699877
 20
-23.2563578147
 30
0.0
 11
-4.3559327327
 21
-23.7507734247
 31
0.0
 11
-4.3549846538
 21
-23.7461337747
 31
0.0
 11
-4.3524857022
 21
-23.7401443905
 31
0.0
 11
-4.3431216682
 21
-23.7243620936
 31
0.0
 11
-4.3285452308
 21
-23.7040297451
 31
0.0
 11
-4.3095477018
 21
-23.6798393833
 31
0.0
 11
-4.286892158
 21
-23.6524621942
 31
0.0
 11
-4.2612532124
 21
-23.6224915738
 31
0.0
 11
-4.233200347
 21
-23.5904276781
 31
0.0
 11
-4.2032050442
 21
-23.5566833778
 31
0.0
 11
-4.1388430809
 21
-23.4854235117
 31
0.0
 11
-4.070487707
 21
-23.4107282799
 31
0.0
 11
-3.9997765229
 21
-23.3340121154
 31
0.0
 11
-3.9279699877
 21
-23.2563578147
 31
0.0
  0
SPLINE
  5
6AE
100
AcDbEntity
  8
ASSI
100
AcDbSpline
 62
7
  6
CONTINUOUS
 70
0
 71
3
 72
12
 73
8
 74
6
 42
0.0000001
 43
0.0000001
 44
0.0000000001
 12
0.0
 22
0.0571173754
 32
0.0
 13
0.0345915588
 23
0.0454512776
 33
0.0
 40
0.0
 40
0.0
 40
0.0
 40
0.0
 40
0.0601961421
 40
0.1385511191
 40
0.3528817917
 40
0.6421844401
 40
1.0
 40
1.0
 40
1.0
 40
1.0
 10
3.5
 20
-23.7511422903
 30
0.0
 10
3.5
 20
-23.7499962085
 30
0.0
 10
3.5004678666
 20
-23.7473667568
 30
0.0
 10
3.5027552135
 20
-23.7410399142
 30
0.0
 10
3.5081508892
 20
-23.731302028
 30
0.0
 10
3.5172322191
 20
-23.7176508106
 30
0.0
 10
3.5245660519
 20
-23.7077409087
 30
0.0
 10
3.5286918512
 20
-23.7023198506
 30
0.0
 11
3.5
 21
-23.7511422903
 31
0.0
 11
3.5004877545
 21
-23.7477388173
 31
0.0
 11
3.5019323392
 21
-23.7435029402
 31
0.0
 11
3.5075717305
 21
-23.732637216
 31
0.0
 11
3.5166122843
 21
-23.7188054469
 31
0.0
 11
3.5286918512
 21
-23.7023198506
 31
0.0
  0
SPLINE
  5
6AF
100
AcDbEntity
  8
RACCORDO
100
AcDbSpline
 62
7
  6
CONTINUOUS
 70
0
 71
3
 72
10
 73
6
 74
4
 42
0.0000001
 43
0.0000001
 44
0.0000000001
 12
0.3127578542
 22
-0.4423063992
 32
0.0
 13
0.292680328
 23
-0.455840599
 33
0.0
 40
0.0
 40
0.0
 40
0.0
 40
0.0
 40
0.5096488713
 40
0.7586453896
 40
1.0
 40
1.0
 40
1.0
 40
1.0
 10
7.5841007192
 20
-21.3126932437
 30
0.0
 10
7.6372329483
 20
-21.3878335627
 30
0.0
 10
7.716355377
 20
-21.4996676405
 30
0.0
 10
7.8184797954
 20
-21.6485895888
 30
0.0
 10
7.8673368915
 20
-21.7224434496
 30
0.0
 10
7.8908834737
 20
-21.7591165263
 30
0.0
 11
7.5841007192
 21
-21.3126932437
 31
0.0
 11
7.7427970122
 21
-21.5386078259
 31
0.0
 11
7.8189457104
 21
-21.649941607
 31
0.0
 11
7.8908834737
 21
-21.7591165263
 31
0.0
  0
SPLINE
  5
6B0
100
AcDbEntity
  8
RACCORDO
100
AcDbSpline
 62
7
  6
CONTINUOUS
 70
0
 71
3
 72
10
 73
6
 74
4
 42
0.0000001
 43
0.0000001
 44
0.0000000001
 12
0.292680328
 22
0.455840599
 32
0.0
 13
0.3127578542
 23
0.4423063992
 33
0.0
 40
0.0
 40
0.0
 40
0.0
 40
0.0
 40
0.2413546104
 40
0.4903511287
 40
1.0
 40
1.0
 40
1.0
 40
1.0
 10
-7.8908834737
 20
-21.7591165263
 30
0.0
 10
-7.8673368915
 20
-21.7224434496
 30
0.0
 10
-7.8184797954
 20
-21.6485895888
 30
0.0
 10
-7.716355377
 20
-21.4996676405
 30
0.0
 10
-7.6372329483
 20
-21.3878335627
 30
0.0
 10
-7.5841007192
 20
-21.3126932437
 30
0.0
 11
-7.8908834737
 21
-21.7591165263
 31
0.0
 11
-7.8189457104
 21
-21.649941607
 31
0.0
 11
-7.7427970122
 21
-21.5386078259
 31
0.0
 11
-7.5841007192
 21
-21.3126932437
 31
0.0
  0
SPLINE
  5
6B1
100
AcDbEntity
  8
RACCORDO
100
AcDbSpline
 62
7
  6
CONTINUOUS
 70
0
 71
3
 72
10
 73
6
 74
4
 42
0.0000001
 43
0.0000001
 44
0.0000000001
 12
-0.292680328
 22
-0.455840599
 32
0.0
 13
-0.3127578542
 23
-0.4423063992
 33
0.0
 40
0.0
 40
0.0
 40
0.0
 40
0.0
 40
0.2413546104
 40
0.4903511287
 40
1.0
 40
1.0
 40
1.0
 40
1.0
 10
7.8908834737
 20
21.7591165263
 30
0.0
 10
7.8673368915
 20
21.7224434496
 30
0.0
 10
7.8184797954
 20
21.6485895888
 30
0.0
 10
7.716355377
 20
21.4996676405
 30
0.0
 10
7.6372329483
 20
21.3878335627
 30
0.0
 10
7.5841007192
 20
21.3126932437
 30
0.0
 11
7.8908834737
 21
21.7591165263
 31
0.0
 11
7.8189457104
 21
21.649941607
 31
0.0
 11
7.7427970122
 21
21.5386078259
 31
0.0
 11
7.5841007192
 21
21.3126932437
 31
0.0
  0
SPLINE
  5
6B2
100
AcDbEntity
  8
RACCORDO
100
AcDbSpline
 62
7
  6
CONTINUOUS
 70
0
 71
3
 72
10
 73
6
 74
4
 42
0.0000001
 43
0.0000001
 44
0.0000000001
 12
-0.3127578542
 22
0.4423063992
 32
0.0
 13
-0.292680328
 23
0.455840599
 33
0.0
 40
0.0
 40
0.0
 40
0.0
 40
0.0
 40
0.5096488713
 40
0.7586453896
 40
1.0
 40
1.0
 40
1.0
 40
1.0
 10
-7.5841007192
 20
21.3126932437
 30
0.0
 10
-7.6372329483
 20
21.3878335627
 30
0.0
 10
-7.716355377
 20
21.4996676405
 30
0.0
 10
-7.8184797954
 20
21.6485895888
 30
0.0
 10
-7.8673368915
 20
21.7224434496
 30
0.0
 10
-7.8908834737
 20
21.7591165263
 30
0.0
 11
-7.5841007192
 21
21.3126932437
 31
0.0
 11
-7.7427970122
 21
21.5386078259
 31
0.0
 11
-7.8189457104
 21
21.649941607
 31
0.0
 11
-7.8908834737
 21
21.7591165263
 31
0.0
  0
SPLINE
  5
6B3
100
AcDbEntity
  8
RACCORDO
100
AcDbSpline
 62
7
  6
CONTINUOUS
 70
0
 71
3
 72
23
 73
19
 74
17
 42
0.0000001
 43
0.0000001
 44
0.0000000001
 12
0.0
 22
-1.0798819844
 32
0.0
 13
0.0
 23
1.0798819844
 33
0.0
 40
0.0
 40
0.0
 40
0.0
 40
0.0
 40
0.0625054592
 40
0.1250058507
 40
0.1875083556
 40
0.2500090082
 40
0.3125082959
 40
0.375006435
 40
0.437503486
 40
0.5
 40
0.562496514
 40
0.624993565
 40
0.6874917041
 40
0.7499909918
 40
0.8124916444
 40
0.8749941493
 40
0.9374945408
 40
1.0
 40
1.0
 40
1.0
 40
1.0
 10
6.5581782981
 20
20.0275513222
 30
0.0
 10
6.5581782981
 20
20.0050518158
 30
0.0
 10
6.5625204838
 20
19.9599347912
 30
0.0
 10
6.5818455457
 20
19.8948475858
 30
0.0
 10
6.6133180646
 20
19.8346560499
 30
0.0
 10
6.6558437415
 20
19.7816921083
 30
0.0
 10
6.7078876587
 20
19.7380341378
 30
0.0
 10
6.7675058966
 20
19.705461229
 30
0.0
 10
6.8323984691
 20
19.6853390387
 30
0.0
 10
6.9
 20
19.6785323655
 30
0.0
 10
6.9676015309
 20
19.6853390387
 30
0.0
 10
7.0324941034
 20
19.705461229
 30
0.0
 10
7.0921123413
 20
19.7380341378
 30
0.0
 10
7.1441562585
 20
19.7816921083
 30
0.0
 10
7.1866819354
 20
19.8346560499
 30
0.0
 10
7.2181544543
 20
19.8948475858
 30
0.0
 10
7.2374795162
 20
19.9599347912
 30
0.0
 10
7.2418217019
 20
20.0050518158
 30
0.0
 10
7.2418217019
 20
20.0275513222
 30
0.0
 11
6.5581782981
 21
20.0275513222
 31
0.0
 11
6.5646561374
 21
19.9603643614
 31
0.0
 11
6.5838699268
 21
19.8956639621
 31
0.0
 11
6.6151606765
 21
19.8358600457
 31
0.0
 11
6.6574306396
 21
19.7832425615
 31
0.0
 11
6.7091505653
 21
19.7398812912
 31
0.0
 11
6.7683854657
 21
19.7075361275
 31
0.0
 11
6.8328502463
 21
19.6875582271
 31
0.0
 11
6.9
 21
19.6808012501
 31
0.0
 11
6.9671497537
 21
19.6875582271
 31
0.0
 11
7.0316145343
 21
19.7075361275
 31
0.0
 11
7.0908494347
 21
19.7398812912
 31
0.0
 11
7.1425693604
 21
19.7832425615
 31
0.0
 11
7.1848393235
 21
19.8358600457
 31
0.0
 11
7.2161300732
 21
19.8956639621
 31
0.0
 11
7.2353438626
 21
19.9603643614
 31
0.0
 11
7.2418217019
 21
20.0275513222
 31
0.0
  0
SPLINE
  5
6B4
100
AcDbEntity
  8
RACCORDO
100
AcDbSpline
 62
7
  6
CONTINUOUS
 70
0
 71
3
 72
23
 73
19
 74
17
 42
0.0000001
 43
0.0000001
 44
0.0000000001
 12
0.0
 22
-1.4272581151
 32
0.0
 13
-0.0
 23
1.4272581151
 33
0.0
 40
0.0
 40
0.0
 40
0.0
 40
0.0
 40
0.0625053095
 40
0.1250063932
 40
0.1875086057
 40
0.250009416
 40
0.3125087474
 40
0.3750066528
 40
0.4375036509
 40
0.5
 40
0.5624963491
 40
0.6249933472
 40
0.6874912526
 40
0.749990584
 40
0.8124913943
 40
0.8749936068
 40
0.9374946905
 40
1.0
 40
1.0
 40
1.0
 40
1.0
 10
7.3517786853
 20
16.8065137252
 30
0.0
 10
7.3517786853
 20
16.7767766552
 30
0.0
 10
7.3460392737
 20
16.7171462263
 30
0.0
 10
7.3204988178
 20
16.6311213651
 30
0.0
 10
7.2789016945
 20
16.5515672445
 30
0.0
 10
7.2226953022
 20
16.4815668925
 30
0.0
 10
7.1539106654
 20
16.4238643181
 30
0.0
 10
7.0751145968
 20
16.3808130739
 30
0.0
 10
6.9893473391
 20
16.3542189813
 30
0.0
 10
6.9
 20
16.3452224969
 30
0.0
 10
6.8106526609
 20
16.3542189813
 30
0.0
 10
6.7248854032
 20
16.3808130739
 30
0.0
 10
6.6460893346
 20
16.4238643181
 30
0.0
 10
6.5773046978
 20
16.4815668925
 30
0.0
 10
6.5210983055
 20
16.5515672445
 30
0.0
 10
6.4795011822
 20
16.6311213651
 30
0.0
 10
6.4539607263
 20
16.7171462263
 30
0.0
 10
6.4482213147
 20
16.7767766552
 30
0.0
 10
6.4482213147
 20
16.8065137252
 30
0.0
 11
7.3517786853
 21
16.8065137252
 31
0.0
 11
7.3432169768
 21
16.7177143042
 31
0.0
 11
7.3178227946
 21
16.6321999811
 31
0.0
 11
7.2764663576
 21
16.5531588747
 31
0.0
 11
7.2205981958
 21
16.4836157742
 31
0.0
 11
7.1522412847
 21
16.4263056489
 31
0.0
 11
7.073952118
 21
16.383555666
 31
0.0
 11
6.9887502361
 21
16.3571518227
 31
0.0
 11
6.9
 21
16.3482213147
 31
0.0
 11
6.8112497639
 21
16.3571518227
 31
0.0
 11
6.726047882
 21
16.383555666
 31
0.0
 11
6.6477587153
 21
16.4263056489
 31
0.0
 11
6.5794018042
 21
16.4836157742
 31
0.0
 11
6.5235336424
 21
16.5531588747
 31
0.0
 11
6.4821772054
 21
16.6321999811
 31
0.0
 11
6.4567830232
 21
16.7177143042
 31
0.0
 11
6.4482213147
 21
16.8065137252
 31
0.0
  0
SPLINE
  5
6B5
100
AcDbEntity
  8
RACCORDO
100
AcDbSpline
 62
7
  6
CONTINUOUS
 70
0
 71
3
 72
23
 73
19
 74
17
 42
0.0000001
 43
0.0000001
 44
0.0000000001
 12
0.0
 22
-1.0798819844
 32
0.0
 13
0.0
 23
1.0798819844
 33
0.0
 40
0.0
 40
0.0
 40
0.0
 40
0.0
 40
0.0625054592
 40
0.1250058507
 40
0.1875083556
 40
0.2500090082
 40
0.3125082959
 40
0.375006435
 40
0.437503486
 40
0.5
 40
0.562496514
 40
0.624993565
 40
0.6874917041
 40
0.7499909918
 40
0.8124916444
 40
0.8749941493
 40
0.9374945408
 40
1.0
 40
1.0
 40
1.0
 40
1.0
 10
-7.2418217019
 20
20.0275513222
 30
0.0
 10
-7.2418217019
 20
20.0050518158
 30
0.0
 10
-7.2374795162
 20
19.9599347912
 30
0.0
 10
-7.2181544543
 20
19.8948475858
 30
0.0
 10
-7.1866819354
 20
19.8346560499
 30
0.0
 10
-7.1441562585
 20
19.7816921083
 30
0.0
 10
-7.0921123413
 20
19.7380341378
 30
0.0
 10
-7.0324941034
 20
19.705461229
 30
0.0
 10
-6.9676015309
 20
19.6853390387
 30
0.0
 10
-6.9
 20
19.6785323655
 30
0.0
 10
-6.8323984691
 20
19.6853390387
 30
0.0
 10
-6.7675058966
 20
19.705461229
 30
0.0
 10
-6.7078876587
 20
19.7380341378
 30
0.0
 10
-6.6558437415
 20
19.7816921083
 30
0.0
 10
-6.6133180646
 20
19.8346560499
 30
0.0
 10
-6.5818455457
 20
19.8948475858
 30
0.0
 10
-6.5625204838
 20
19.9599347912
 30
0.0
 10
-6.5581782981
 20
20.0050518158
 30
0.0
 10
-6.5581782981
 20
20.0275513222
 30
0.0
 11
-7.2418217019
 21
20.0275513222
 31
0.0
 11
-7.2353438626
 21
19.9603643614
 31
0.0
 11
-7.2161300732
 21
19.8956639621
 31
0.0
 11
-7.1848393235
 21
19.8358600457
 31
0.0
 11
-7.1425693604
 21
19.7832425615
 31
0.0
 11
-7.0908494347
 21
19.7398812912
 31
0.0
 11
-7.0316145343
 21
19.7075361275
 31
0.0
 11
-6.9671497537
 21
19.6875582271
 31
0.0
 11
-6.9
 21
19.6808012501
 31
0.0
 11
-6.8328502463
 21
19.6875582271
 31
0.0
 11
-6.7683854657
 21
19.7075361275
 31
0.0
 11
-6.7091505653
 21
19.7398812912
 31
0.0
 11
-6.6574306396
 21
19.7832425615
 31
0.0
 11
-6.6151606765
 21
19.8358600457
 31
0.0
 11
-6.5838699268
 21
19.8956639621
 31
0.0
 11
-6.5646561374
 21
19.9603643614
 31
0.0
 11
-6.5581782981
 21
20.0275513222
 31
0.0
  0
SPLINE
  5
6B6
100
AcDbEntity
  8
RACCORDO
100
AcDbSpline
 62
7
  6
CONTINUOUS
 70
0
 71
3
 72
23
 73
19
 74
17
 42
0.0000001
 43
0.0000001
 44
0.0000000001
 12
0.0
 22
-1.4272581151
 32
0.0
 13
0.0
 23
1.4272581151
 33
0.0
 40
0.0
 40
0.0
 40
0.0
 40
0.0
 40
0.0625053095
 40
0.1250063932
 40
0.1875086057
 40
0.250009416
 40
0.3125087474
 40
0.3750066528
 40
0.4375036509
 40
0.5
 40
0.5624963491
 40
0.6249933472
 40
0.6874912526
 40
0.749990584
 40
0.8124913943
 40
0.8749936068
 40
0.9374946905
 40
1.0
 40
1.0
 40
1.0
 40
1.0
 10
-6.4482213147
 20
16.8065137252
 30
0.0
 10
-6.4482213147
 20
16.7767766552
 30
0.0
 10
-6.4539607263
 20
16.7171462263
 30
0.0
 10
-6.4795011822
 20
16.6311213651
 30
0.0
 10
-6.5210983055
 20
16.5515672445
 30
0.0
 10
-6.5773046978
 20
16.4815668925
 30
0.0
 10
-6.6460893346
 20
16.4238643181
 30
0.0
 10
-6.7248854032
 20
16.3808130739
 30
0.0
 10
-6.8106526609
 20
16.3542189813
 30
0.0
 10
-6.9
 20
16.3452224969
 30
0.0
 10
-6.9893473391
 20
16.3542189813
 30
0.0
 10
-7.0751145968
 20
16.3808130739
 30
0.0
 10
-7.1539106654
 20
16.4238643181
 30
0.0
 10
-7.2226953022
 20
16.4815668925
 30
0.0
 10
-7.2789016945
 20
16.5515672445
 30
0.0
 10
-7.3204988178
 20
16.6311213651
 30
0.0
 10
-7.3460392737
 20
16.7171462263
 30
0.0
 10
-7.3517786853
 20
16.7767766552
 30
0.0
 10
-7.3517786853
 20
16.8065137252
 30
0.0
 11
-6.4482213147
 21
16.8065137252
 31
0.0
 11
-6.4567830232
 21
16.7177143042
 31
0.0
 11
-6.4821772054
 21
16.6321999811
 31
0.0
 11
-6.5235336424
 21
16.5531588747
 31
0.0
 11
-6.5794018042
 21
16.4836157742
 31
0.0
 11
-6.6477587153
 21
16.4263056489
 31
0.0
 11
-6.726047882
 21
16.383555666
 31
0.0
 11
-6.8112497639
 21
16.3571518227
 31
0.0
 11
-6.9
 21
16.3482213147
 31
0.0
 11
-6.9887502361
 21
16.3571518227
 31
0.0
 11
-7.073952118
 21
16.383555666
 31
0.0
 11
-7.1522412847
 21
16.4263056489
 31
0.0
 11
-7.2205981958
 21
16.4836157742
 31
0.0
 11
-7.2764663576
 21
16.5531588747
 31
0.0
 11
-7.3178227946
 21
16.6321999811
 31
0.0
 11
-7.3432169768
 21
16.7177143042
 31
0.0
 11
-7.3517786853
 21
16.8065137252
 31
0.0
  0
SPLINE
  5
6B7
100
AcDbEntity
  8
0
100
AcDbSpline
 62
7
  6
CONTINUOUS
 70
0
 71
3
 72
23
 73
19
 74
17
 42
0.0000001
 43
0.0000001
 44
0.0000000001
 12
0.0
 22
1.3904987674
 32
0.0
 13
0.0
 23
-1.3904987674
 33
0.0
 40
0.0
 40
0.0
 40
0.0
 40
0.0
 40
0.0625051819
 40
0.1250062408
 40
0.1875085893
 40
0.2500093793
 40
0.3125086541
 40
0.375006741
 40
0.4375036419
 40
0.4999999948
 40
0.5624963499
 40
0.6249932503
 40
0.6874913399
 40
0.7499906154
 40
0.812491403
 40
0.8749937569
 40
0.9374948141
 40
1.0
 40
1.0
 40
1.0
 40
1.0
 10
6.4598569743
 20
-17.1473642646
 30
0.0
 10
6.4598569743
 20
-17.1183931385
 30
0.0
 10
6.4654485718
 20
-17.0602985798
 30
0.0
 10
6.4903311415
 20
-16.9764892938
 30
0.0
 10
6.5308569322
 20
-16.8989840523
 30
0.0
 10
6.5856157857
 20
-16.8307866034
 30
0.0
 10
6.6526288172
 20
-16.7745700555
 30
0.0
 10
6.7293955025
 20
-16.7326275963
 30
0.0
 10
6.8129538606
 20
-16.7067185082
 30
0.0
 10
6.8999999937
 20
-16.6979536734
 30
0.0
 10
6.9870461268
 20
-16.7067185058
 30
0.0
 10
7.0706044877
 20
-16.7326275917
 30
0.0
 10
7.1473711755
 20
-16.7745700496
 30
0.0
 10
7.214384207
 20
-16.8307865981
 30
0.0
 10
7.2691430644
 20
-16.8989840458
 30
0.0
 10
7.3096688571
 20
-16.9764892875
 30
0.0
 10
7.3345514269
 20
-17.060298577
 30
0.0
 10
7.3401430257
 20
-17.1183931366
 30
0.0
 10
7.3401430257
 20
-17.1473642646
 30
0.0
 11
6.4598569743
 21
-17.1473642646
 31
0.0
 11
6.4681981502
 21
-17.0608520682
 31
0.0
 11
6.4929382299
 21
-16.9775402006
 31
0.0
 11
6.5332295986
 21
-16.9005346416
 31
0.0
 11
6.5876588694
 21
-16.8327826799
 31
0.0
 11
6.6542551287
 21
-16.7769485876
 31
0.0
 11
6.7305281613
 21
-16.7352995176
 31
0.0
 11
6.8135355353
 21
-16.7095757973
 31
0.0
 11
6.8999999927
 21
-16.7008752761
 31
0.0
 11
6.9864644535
 21
-16.7095757951
 31
0.0
 11
7.0694718276
 21
-16.7352995125
 31
0.0
 11
7.1457448644
 21
-16.7769485827
 31
0.0
 11
7.2123411249
 21
-16.8327826751
 31
0.0
 11
7.2667703958
 21
-16.9005346325
 31
0.0
 11
7.3070617694
 21
-16.9775401973
 31
0.0
 11
7.3318018484
 21
-17.0608520628
 31
0.0
 11
7.3401430257
 21
-17.1473642646
 31
0.0
  0
SPLINE
  5
6B8
100
AcDbEntity
  8
RACCORDO
100
AcDbSpline
 62
7
  6
CONTINUOUS
 70
0
 71
3
 72
23
 73
19
 74
17
 42
0.0000001
 43
0.0000001
 44
0.0000000001
 12
0.0
 22
1.0798819844
 32
0.0
 13
0.0
 23
-1.0798819844
 33
0.0
 40
0.0
 40
0.0
 40
0.0
 40
0.0
 40
0.0625054592
 40
0.1250058507
 40
0.1875083556
 40
0.2500090082
 40
0.3125082959
 40
0.375006435
 40
0.437503486
 40
0.5
 40
0.562496514
 40
0.624993565
 40
0.6874917041
 40
0.7499909918
 40
0.8124916444
 40
0.8749941493
 40
0.9374945408
 40
1.0
 40
1.0
 40
1.0
 40
1.0
 10
7.2418217019
 20
-20.0275513222
 30
0.0
 10
7.2418217019
 20
-20.0050518158
 30
0.0
 10
7.2374795162
 20
-19.9599347912
 30
0.0
 10
7.2181544543
 20
-19.8948475858
 30
0.0
 10
7.1866819354
 20
-19.8346560499
 30
0.0
 10
7.1441562585
 20
-19.7816921083
 30
0.0
 10
7.0921123413
 20
-19.7380341378
 30
0.0
 10
7.0324941034
 20
-19.705461229
 30
0.0
 10
6.9676015309
 20
-19.6853390387
 30
0.0
 10
6.9
 20
-19.6785323655
 30
0.0
 10
6.8323984691
 20
-19.6853390387
 30
0.0
 10
6.7675058966
 20
-19.705461229
 30
0.0
 10
6.7078876587
 20
-19.7380341378
 30
0.0
 10
6.6558437415
 20
-19.7816921083
 30
0.0
 10
6.6133180646
 20
-19.8346560499
 30
0.0
 10
6.5818455457
 20
-19.8948475858
 30
0.0
 10
6.5625204838
 20
-19.9599347912
 30
0.0
 10
6.5581782981
 20
-20.0050518158
 30
0.0
 10
6.5581782981
 20
-20.0275513222
 30
0.0
 11
7.2418217019
 21
-20.0275513222
 31
0.0
 11
7.2353438626
 21
-19.9603643614
 31
0.0
 11
7.2161300732
 21
-19.8956639621
 31
0.0
 11
7.1848393235
 21
-19.8358600457
 31
0.0
 11
7.1425693604
 21
-19.7832425615
 31
0.0
 11
7.0908494347
 21
-19.7398812912
 31
0.0
 11
7.0316145343
 21
-19.7075361275
 31
0.0
 11
6.9671497537
 21
-19.6875582271
 31
0.0
 11
6.9
 21
-19.6808012501
 31
0.0
 11
6.8328502463
 21
-19.6875582271
 31
0.0
 11
6.7683854657
 21
-19.7075361275
 31
0.0
 11
6.7091505653
 21
-19.7398812912
 31
0.0
 11
6.6574306396
 21
-19.7832425615
 31
0.0
 11
6.6151606765
 21
-19.8358600457
 31
0.0
 11
6.5838699268
 21
-19.8956639621
 31
0.0
 11
6.5646561374
 21
-19.9603643614
 31
0.0
 11
6.5581782981
 21
-20.0275513222
 31
0.0
  0
SPLINE
  5
6B9
100
AcDbEntity
  8
0
100
AcDbSpline
 62
7
  6
CONTINUOUS
 70
0
 71
3
 72
23
 73
19
 74
17
 42
0.0000001
 43
0.0000001
 44
0.0000000001
 12
0.0
 22
1.3904987674
 32
0.0
 13
0.0
 23
-1.3904987674
 33
0.0
 40
0.0
 40
0.0
 40
0.0
 40
0.0
 40
0.0625051819
 40
0.1250062408
 40
0.1875085893
 40
0.2500093793
 40
0.3125086541
 40
0.375006741
 40
0.4375036419
 40
0.4999999948
 40
0.5624963499
 40
0.6249932503
 40
0.6874913399
 40
0.7499906154
 40
0.812491403
 40
0.8749937569
 40
0.9374948141
 40
1.0
 40
1.0
 40
1.0
 40
1.0
 10
-7.3401430257
 20
-17.1473642646
 30
0.0
 10
-7.3401430257
 20
-17.1183931385
 30
0.0
 10
-7.3345514282
 20
-17.0602985798
 30
0.0
 10
-7.3096688585
 20
-16.9764892938
 30
0.0
 10
-7.2691430678
 20
-16.8989840523
 30
0.0
 10
-7.2143842143
 20
-16.8307866034
 30
0.0
 10
-7.1473711828
 20
-16.7745700555
 30
0.0
 10
-7.0706044975
 20
-16.7326275963
 30
0.0
 10
-6.9870461394
 20
-16.7067185082
 30
0.0
 10
-6.9000000063
 20
-16.6979536734
 30
0.0
 10
-6.8129538732
 20
-16.7067185058
 30
0.0
 10
-6.7293955123
 20
-16.7326275917
 30
0.0
 10
-6.6526288245
 20
-16.7745700496
 30
0.0
 10
-6.585615793
 20
-16.8307865981
 30
0.0
 10
-6.5308569356
 20
-16.8989840458
 30
0.0
 10
-6.4903311429
 20
-16.9764892875
 30
0.0
 10
-6.4654485731
 20
-17.060298577
 30
0.0
 10
-6.4598569743
 20
-17.1183931366
 30
0.0
 10
-6.4598569743
 20
-17.1473642646
 30
0.0
 11
-7.3401430257
 21
-17.1473642646
 31
0.0
 11
-7.3318018498
 21
-17.0608520682
 31
0.0
 11
-7.3070617701
 21
-16.9775402006
 31
0.0
 11
-7.2667704014
 21
-16.9005346416
 31
0.0
 11
-7.2123411306
 21
-16.8327826799
 31
0.0
 11
-7.1457448713
 21
-16.7769485876
 31
0.0
 11
-7.0694718387
 21
-16.7352995176
 31
0.0
 11
-6.9864644647
 21
-16.7095757973
 31
0.0
 11
-6.9000000073
 21
-16.7008752761
 31
0.0
 11
-6.8135355465
 21
-16.7095757951
 31
0.0
 11
-6.7305281724
 21
-16.7352995125
 31
0.0
 11
-6.6542551356
 21
-16.7769485827
 31
0.0
 11
-6.5876588751
 21
-16.8327826751
 31
0.0
 11
-6.5332296042
 21
-16.9005346325
 31
0.0
 11
-6.4929382306
 21
-16.9775401973
 31
0.0
 11
-6.4681981516
 21
-17.0608520628
 31
0.0
 11
-6.4598569743
 21
-17.1473642646
 31
0.0
  0
SPLINE
  5
6BA
100
AcDbEntity
  8
RACCORDO
100
AcDbSpline
 62
7
  6
CONTINUOUS
 70
0
 71
3
 72
23
 73
19
 74
17
 42
0.0000001
 43
0.0000001
 44
0.0000000001
 12
-0.0
 22
1.0798819844
 32
0.0
 13
0.0
 23
-1.0798819844
 33
0.0
 40
0.0
 40
0.0
 40
0.0
 40
0.0
 40
0.0625054592
 40
0.1250058507
 40
0.1875083556
 40
0.2500090082
 40
0.3125082959
 40
0.375006435
 40
0.437503486
 40
0.5
 40
0.562496514
 40
0.624993565
 40
0.6874917041
 40
0.7499909918
 40
0.8124916444
 40
0.8749941493
 40
0.9374945408
 40
1.0
 40
1.0
 40
1.0
 40
1.0
 10
-6.5581782981
 20
-20.0275513222
 30
0.0
 10
-6.5581782981
 20
-20.0050518158
 30
0.0
 10
-6.5625204838
 20
-19.9599347912
 30
0.0
 10
-6.5818455457
 20
-19.8948475858
 30
0.0
 10
-6.6133180646
 20
-19.8346560499
 30
0.0
 10
-6.6558437415
 20
-19.7816921083
 30
0.0
 10
-6.7078876587
 20
-19.7380341378
 30
0.0
 10
-6.7675058966
 20
-19.705461229
 30
0.0
 10
-6.8323984691
 20
-19.6853390387
 30
0.0
 10
-6.9
 20
-19.6785323655
 30
0.0
 10
-6.9676015309
 20
-19.6853390387
 30
0.0
 10
-7.0324941034
 20
-19.705461229
 30
0.0
 10
-7.0921123413
 20
-19.7380341378
 30
0.0
 10
-7.1441562585
 20
-19.7816921083
 30
0.0
 10
-7.1866819354
 20
-19.8346560499
 30
0.0
 10
-7.2181544543
 20
-19.8948475858
 30
0.0
 10
-7.2374795162
 20
-19.9599347912
 30
0.0
 10
-7.2418217019
 20
-20.0050518158
 30
0.0
 10
-7.2418217019
 20
-20.0275513222
 30
0.0
 11
-6.5581782981
 21
-20.0275513222
 31
0.0
 11
-6.5646561374
 21
-19.9603643614
 31
0.0
 11
-6.5838699268
 21
-19.8956639621
 31
0.0
 11
-6.6151606765
 21
-19.8358600457
 31
0.0
 11
-6.6574306396
 21
-19.7832425615
 31
0.0
 11
-6.7091505653
 21
-19.7398812912
 31
0.0
 11
-6.7683854657
 21
-19.7075361275
 31
0.0
 11
-6.8328502463
 21
-19.6875582271
 31
0.0
 11
-6.9
 21
-19.6808012501
 31
0.0
 11
-6.9671497537
 21
-19.6875582271
 31
0.0
 11
-7.0316145343
 21
-19.7075361275
 31
0.0
 11
-7.0908494347
 21
-19.7398812912
 31
0.0
 11
-7.1425693604
 21
-19.7832425615
 31
0.0
 11
-7.1848393235
 21
-19.8358600457
 31
0.0
 11
-7.2161300732
 21
-19.8956639621
 31
0.0
 11
-7.2353438626
 21
-19.9603643614
 31
0.0
 11
-7.2418217019
 21
-20.0275513222
 31
0.0
  0
SPLINE
  5
6BB
100
AcDbEntity
  8
ASSI
100
AcDbSpline
 62
7
  6
CONTINUOUS
 70
0
 71
3
 72
8
 73
4
 74
2
 42
0.0000001
 43
0.0000001
 44
0.0000000001
 12
-0.0878470164
 22
-0.0351655621
 32
0.0
 13
-0.0946240723
 23
0.0
 33
0.0
 40
0.0
 40
0.0
 40
0.0
 40
0.0
 40
1.0
 40
1.0
 40
1.0
 40
1.0
 10
-8.4070816648
 20
-24.4820923408
 30
0.0
 10
-8.4363640036
 20
-24.4938141948
 30
0.0
 10
-8.4684544118
 20
-24.5
 30
0.0
 10
-8.4999957692
 20
-24.5
 30
0.0
 11
-8.4070816648
 21
-24.4820923408
 31
0.0
 11
-8.4999957692
 21
-24.5
 31
0.0
  0
SPLINE
  5
6BC
100
AcDbEntity
  8
ASSI
100
AcDbSpline
 62
7
  6
CONTINUOUS
 70
0
 71
3
 72
8
 73
4
 74
2
 42
0.0000001
 43
0.0000001
 44
0.0000000001
 12
-0.0351655621
 22
0.0878470164
 32
0.0
 13
0.0
 23
0.0946240723
 33
0.0
 40
0.0
 40
0.0
 40
0.0
 40
0.0
 40
1.0
 40
1.0
 40
1.0
 40
1.0
 10
-10.6320923408
 20
-24.3429183352
 30
0.0
 10
-10.6438141948
 20
-24.3136359964
 30
0.0
 10
-10.65
 20
-24.2815455882
 30
0.0
 10
-10.65
 20
-24.2500042308
 30
0.0
 11
-10.6320923408
 21
-24.3429183352
 31
0.0
 11
-10.65
 21
-24.2500042308
 31
0.0
  0
SPLINE
  5
6BD
100
AcDbEntity
  8
ASSI
100
AcDbSpline
 62
7
  6
CONTINUOUS
 70
0
 71
3
 72
8
 73
4
 74
2
 42
0.0000001
 43
0.0000001
 44
0.0000000001
 12
-0.0351655621
 22
0.0878470164
 32
0.0
 13
0.0
 23
0.0946240723
 33
0.0
 40
0.0
 40
0.0
 40
0.0
 40
0.0
 40
1.0
 40
1.0
 40
1.0
 40
1.0
 10
8.2679076592
 20
-24.3429183352
 30
0.0
 10
8.2561858052
 20
-24.3136359964
 30
0.0
 10
8.25
 20
-24.2815455882
 30
0.0
 10
8.25
 20
-24.2500042308
 30
0.0
 11
8.2679076592
 21
-24.3429183352
 31
0.0
 11
8.25
 21
-24.2500042308
 31
0.0
  0
SPLINE
  5
6BE
100
AcDbEntity
  8
ASSI
100
AcDbSpline
 62
7
  6
CONTINUOUS
 70
0
 71
3
 72
8
 73
4
 74
2
 42
0.0000001
 43
0.0000001
 44
0.0000000001
 12
-0.0878470164
 22
-0.0351655621
 32
0.0
 13
-0.0946240723
 23
0.0
 33
0.0
 40
0.0
 40
0.0
 40
0.0
 40
0.0
 40
1.0
 40
1.0
 40
1.0
 40
1.0
 10
10.4929183352
 20
-24.4820923408
 30
0.0
 10
10.4636359964
 20
-24.4938141948
 30
0.0
 10
10.4315455882
 20
-24.5
 30
0.0
 10
10.4000042308
 20
-24.5
 30
0.0
 11
10.4929183352
 21
-24.4820923408
 31
0.0
 11
10.4000042308
 21
-24.5
 31
0.0
  0
SPLINE
  5
6BF
100
AcDbEntity
  8
ASSI
100
AcDbSpline
 62
7
  6
CONTINUOUS
 70
0
 71
3
 72
8
 73
4
 74
2
 42
0.0000001
 43
0.0000001
 44
0.0000000001
 12
0.0878470164
 22
0.0351655621
 32
0.0
 13
0.0946240723
 23
0.0
 33
0.0
 40
0.0
 40
0.0
 40
0.0
 40
0.0
 40
1.0
 40
1.0
 40
1.0
 40
1.0
 10
-10.4929183352
 20
24.4820923408
 30
0.0
 10
-10.4636359964
 20
24.4938141948
 30
0.0
 10
-10.4315455882
 20
24.5
 30
0.0
 10
-10.4000042308
 20
24.5
 30
0.0
 11
-10.4929183352
 21
24.4820923408
 31
0.0
 11
-10.4000042308
 21
24.5
 31
0.0
  0
SPLINE
  5
6C0
100
AcDbEntity
  8
ASSI
100
AcDbSpline
 62
7
  6
CONTINUOUS
 70
0
 71
3
 72
8
 73
4
 74
2
 42
0.0000001
 43
0.0000001
 44
0.0000000001
 12
0.0351655621
 22
-0.0878470164
 32
0.0
 13
0.0
 23
-0.0946240723
 33
0.0
 40
0.0
 40
0.0
 40
0.0
 40
0.0
 40
1.0
 40
1.0
 40
1.0
 40
1.0
 10
-8.2679076592
 20
24.3429183352
 30
0.0
 10
-8.2561858052
 20
24.3136359964
 30
0.0
 10
-8.25
 20
24.2815455882
 30
0.0
 10
-8.25
 20
24.2500042308
 30
0.0
 11
-8.2679076592
 21
24.3429183352
 31
0.0
 11
-8.25
 21
24.2500042308
 31
0.0
  0
SPLINE
  5
6C1
100
AcDbEntity
  8
ASSI
100
AcDbSpline
 62
7
  6
CONTINUOUS
 70
0
 71
3
 72
8
 73
4
 74
2
 42
0.0000001
 43
0.0000001
 44
0.0000000001
 12
0.0878470164
 22
0.0351655621
 32
0.0
 13
0.0946240723
 23
0.0
 33
0.0
 40
0.0
 40
0.0
 40
0.0
 40
0.0
 40
1.0
 40
1.0
 40
1.0
 40
1.0
 10
8.4070816648
 20
24.4820923408
 30
0.0
 10
8.4363640036
 20
24.4938141948
 30
0.0
 10
8.4684544118
 20
24.5
 30
0.0
 10
8.4999957692
 20
24.5
 30
0.0
 11
8.4070816648
 21
24.4820923408
 31
0.0
 11
8.4999957692
 21
24.5
 31
0.0
  0
SPLINE
  5
6C2
100
AcDbEntity
  8
ASSI
100
AcDbSpline
 62
7
  6
CONTINUOUS
 70
0
 71
3
 72
8
 73
4
 74
2
 42
0.0000001
 43
0.0000001
 44
0.0000000001
 12
0.0351655621
 22
-0.0878470164
 32
0.0
 13
0.0
 23
-0.0946240723
 33
0.0
 40
0.0
 40
0.0
 40
0.0
 40
0.0
 40
1.0
 40
1.0
 40
1.0
 40
1.0
 10
10.6320923408
 20
24.3429183352
 30
0.0
 10
10.6438141948
 20
24.3136359964
 30
0.0
 10
10.65
 20
24.2815455882
 30
0.0
 10
10.65
 20
24.2500042308
 30
0.0
 11
10.6320923408
 21
24.3429183352
 31
0.0
 11
10.65
 21
24.2500042308
 31
0.0
  0
SPLINE
  5
6C3
100
AcDbEntity
  8
ASSI
100
AcDbSpline
 62
253
  6
CONTINUOUS
 70
0
 71
3
 72
11
 73
7
 74
5
 42
0.0000001
 43
0.0000001
 44
0.0000000001
 12
0.0012232477
 22
0.3641905854
 32
0.0
 13
0.3641914841
 23
0.0009174691
 33
0.0
 40
0.0
 40
0.0
 40
0.0
 40
0.0
 40
0.2331615336
 40
0.476670328
 40
0.7338124407
 40
1.0
 40
1.0
 40
1.0
 40
1.0
 10
-10.645628166
 20
-23.8443375673
 30
0.0
 10
-10.6455330946
 20
-23.8160324888
 30
0.0
 10
-10.631602622
 20
-23.7574897042
 30
0.0
 10
-10.5746713294
 20
-23.6858275835
 30
0.0
 10
-10.4920024088
 20
-23.638830569
 30
0.0
 10
-10.4279468109
 20
-23.6279126226
 30
0.0
 10
-10.3956323968
 20
-23.6278312164
 30
0.0
 11
-10.645628166
 21
-23.8443375673
 31
0.0
 11
-10.626389741
 21
-23.7616298799
 31
0.0
 11
-10.5721495847
 21
-23.6914666636
 31
0.0
 11
-10.4911334639
 21
-23.6444924903
 31
0.0
 11
-10.3956323968
 21
-23.6278312164
 31
0.0
  0
SPLINE
  5
6C4
100
AcDbEntity
  8
ASSI
100
AcDbSpline
 62
253
  6
CONTINUOUS
 70
0
 71
3
 72
11
 73
7
 74
5
 42
0.0000001
 43
0.0000001
 44
0.0000000001
 12
-0.0012232477
 22
0.3641905849
 32
0.0
 13
-0.3641914835
 23
0.0009174691
 33
0.0
 40
0.0
 40
0.0
 40
0.0
 40
0.0
 40
0.2331616889
 40
0.47667047
 40
0.7338125459
 40
1.0
 40
1.0
 40
1.0
 40
1.0
 10
-8.254371834
 20
-23.8443375673
 30
0.0
 10
-8.2544669055
 20
-23.81603247
 30
0.0
 10
-8.2683973942
 20
-23.7574896677
 30
0.0
 10
-8.3253287106
 20
-23.6858275516
 30
0.0
 10
-8.407997622
 20
-23.6388305607
 30
0.0
 10
-8.472053202
 20
-23.6279126226
 30
0.0
 10
-8.5043676032
 20
-23.6278312164
 30
0.0
 11
-8.254371834
 21
-23.8443375673
 31
0.0
 11
-8.2736102851
 21
-23.761629828
 31
0.0
 11
-8.3278504554
 21
-23.6914666288
 31
0.0
 11
-8.4088665728
 21
-23.6444924765
 31
0.0
 11
-8.5043676032
 21
-23.6278312164
 31
0.0
  0
SPLINE
  5
6C5
100
AcDbEntity
  8
ASSI
100
AcDbSpline
 62
253
  6
CONTINUOUS
 70
0
 71
3
 72
11
 73
7
 74
5
 42
0.0000001
 43
0.0000001
 44
0.0000000001
 12
0.0012232477
 22
0.3641905854
 32
0.0
 13
0.3641914841
 23
0.0009174691
 33
0.0
 40
0.0
 40
0.0
 40
0.0
 40
0.0
 40
0.2331615336
 40
0.476670328
 40
0.7338124407
 40
1.0
 40
1.0
 40
1.0
 40
1.0
 10
8.254371834
 20
-23.8443375673
 30
0.0
 10
8.2544669054
 20
-23.8160324888
 30
0.0
 10
8.268397378
 20
-23.7574897042
 30
0.0
 10
8.3253286706
 20
-23.6858275835
 30
0.0
 10
8.4079975912
 20
-23.638830569
 30
0.0
 10
8.4720531891
 20
-23.6279126226
 30
0.0
 10
8.5043676032
 20
-23.6278312164
 30
0.0
 11
8.254371834
 21
-23.8443375673
 31
0.0
 11
8.273610259
 21
-23.7616298799
 31
0.0
 11
8.3278504153
 21
-23.6914666636
 31
0.0
 11
8.4088665361
 21
-23.6444924903
 31
0.0
 11
8.5043676032
 21
-23.6278312164
 31
0.0
  0
SPLINE
  5
6C6
100
AcDbEntity
  8
ASSI
100
AcDbSpline
 62
253
  6
CONTINUOUS
 70
0
 71
3
 72
11
 73
7
 74
5
 42
0.0000001
 43
0.0000001
 44
0.0000000001
 12
-0.0012232477
 22
0.3641905854
 32
0.0
 13
-0.3641914841
 23
0.0009174691
 33
0.0
 40
0.0
 40
0.0
 40
0.0
 40
0.0
 40
0.2331615336
 40
0.476670328
 40
0.7338124407
 40
1.0
 40
1.0
 40
1.0
 40
1.0
 10
10.645628166
 20
-23.8443375673
 30
0.0
 10
10.6455330946
 20
-23.8160324888
 30
0.0
 10
10.631602622
 20
-23.7574897042
 30
0.0
 10
10.5746713294
 20
-23.6858275835
 30
0.0
 10
10.4920024088
 20
-23.638830569
 30
0.0
 10
10.4279468109
 20
-23.6279126226
 30
0.0
 10
10.3956323968
 20
-23.6278312164
 30
0.0
 11
10.645628166
 21
-23.8443375673
 31
0.0
 11
10.626389741
 21
-23.7616298799
 31
0.0
 11
10.5721495847
 21
-23.6914666636
 31
0.0
 11
10.4911334639
 21
-23.6444924903
 31
0.0
 11
10.3956323968
 21
-23.6278312164
 31
0.0
  0
SPLINE
  5
6C7
100
AcDbEntity
  8
ASSI
100
AcDbSpline
 62
7
  6
CONTINUOUS
 70
0
 71
3
 72
13
 73
9
 74
7
 42
0.0000001
 43
0.0000001
 44
0.0000000001
 12
-0.3138496531
 22
0.0
 32
0.0
 13
-0.0031623521
 23
0.3138337207
 33
0.0
 40
0.0
 40
0.0
 40
0.0
 40
0.0
 40
0.3261057803
 40
0.6051570789
 40
0.7217182853
 40
0.8239738669
 40
0.9151204293
 40
1.0
 40
1.0
 40
1.0
 40
1.0
 10
-10.3956323968
 20
23.7
 30
0.0
 10
-10.4297484588
 20
23.7
 30
0.0
 10
-10.4932581628
 20
23.7076911111
 30
0.0
 10
-10.5648218889
 20
23.7353276531
 30
0.0
 10
-10.6070191055
 20
23.766366643
 30
0.0
 10
-10.628807983
 20
23.7907690517
 30
0.0
 10
-10.6423089024
 20
23.816965063
 30
0.0
 10
-10.645538693
 20
23.8354582101
 30
0.0
 10
-10.645628166
 20
23.8443375673
 30
0.0
 11
-10.3956323968
 21
23.7
 31
0.0
 11
-10.49717892
 21
23.7127849448
 31
0.0
 11
-10.5780992753
 21
23.7462838901
 31
0.0
 11
-10.6073337071
 21
23.7682757411
 31
0.0
 11
-10.6284113806
 21
23.7924766616
 31
0.0
 11
-10.6411891944
 21
23.8180705836
 31
0.0
 11
-10.645628166
 21
23.8443375673
 31
0.0
  0
SPLINE
  5
6C8
100
AcDbEntity
  8
ASSI
100
AcDbSpline
 62
7
  6
CONTINUOUS
 70
0
 71
3
 72
13
 73
9
 74
7
 42
0.0000001
 43
0.0000001
 44
0.0000000001
 12
-0.0031696367
 22
-0.3145566487
 32
0.0
 13
-0.3145726178
 23
0.0
 33
0.0
 40
0.0
 40
0.0
 40
0.0
 40
0.0
 40
0.0848322853
 40
0.1759482271
 40
0.2781995767
 40
0.3947846151
 40
0.6739262862
 40
1.0
 40
1.0
 40
1.0
 40
1.0
 10
-8.254371834
 20
23.8443375673
 30
0.0
 10
-8.2544614632
 20
23.8354427142
 30
0.0
 10
-8.2577029347
 20
23.8169149301
 30
0.0
 10
-8.2712514936
 20
23.7906759599
 30
0.0
 10
-8.2931151912
 20
23.7662399029
 30
0.0
 10
-8.3354552514
 20
23.735174032
 30
0.0
 10
-8.4072286343
 20
23.7075363449
 30
0.0
 10
-8.4709035447
 20
23.7
 30
0.0
 10
-8.5050948319
 20
23.7
 30
0.0
 11
-8.254371834
 21
23.8443375673
 31
0.0
 11
-8.2588255818
 21
23.8180259322
 31
0.0
 11
-8.2716467936
 21
23.7923907994
 31
0.0
 11
-8.2927961599
 21
23.7681560707
 31
0.0
 11
-8.322129078
 21
23.7461425298
 31
0.0
 11
-8.4033052251
 21
23.7126598996
 31
0.0
 11
-8.5050948319
 21
23.7
 31
0.0
  0
SPLINE
  5
6C9
100
AcDbEntity
  8
ASSI
100
AcDbSpline
 62
253
  6
CONTINUOUS
 70
0
 71
3
 72
11
 73
7
 74
5
 42
0.0000001
 43
0.0000001
 44
0.0000000001
 12
0.0012232477
 22
-0.3641905849
 32
0.0
 13
0.3641914835
 23
-0.0009174691
 33
0.0
 40
0.0
 40
0.0
 40
0.0
 40
0.0
 40
0.2331616734
 40
0.4766704348
 40
0.7338124928
 40
1.0
 40
1.0
 40
1.0
 40
1.0
 10
8.254371834
 20
23.8443375673
 30
0.0
 10
8.2544669055
 20
23.8160324719
 30
0.0
 10
8.268397392
 20
23.757489674
 30
0.0
 10
8.325328701
 20
23.6858275607
 30
0.0
 10
8.407997611
 20
23.6388305642
 30
0.0
 10
8.4720531955
 20
23.6279126226
 30
0.0
 10
8.5043676032
 20
23.6278312164
 30
0.0
 11
8.254371834
 21
23.8443375673
 31
0.0
 11
8.2736102825
 21
23.7616298332
 31
0.0
 11
8.3278504455
 21
23.6914666374
 31
0.0
 11
8.4088665543
 21
23.6444924834
 31
0.0
 11
8.5043676032
 21
23.6278312164
 31
0.0
  0
SPLINE
  5
6CA
100
AcDbEntity
  8
ASSI
100
AcDbSpline
 62
253
  6
CONTINUOUS
 70
0
 71
3
 72
11
 73
7
 74
5
 42
0.0000001
 43
0.0000001
 44
0.0000000001
 12
-0.0012232477
 22
-0.3641905854
 32
0.0
 13
-0.3641914841
 23
-0.0009174691
 33
0.0
 40
0.0
 40
0.0
 40
0.0
 40
0.0
 40
0.2331615336
 40
0.476670328
 40
0.7338124407
 40
1.0
 40
1.0
 40
1.0
 40
1.0
 10
10.645628166
 20
23.8443375673
 30
0.0
 10
10.6455330946
 20
23.8160324888
 30
0.0
 10
10.631602622
 20
23.7574897042
 30
0.0
 10
10.5746713294
 20
23.6858275835
 30
0.0
 10
10.4920024088
 20
23.638830569
 30
0.0
 10
10.4279468109
 20
23.6279126226
 30
0.0
 10
10.3956323968
 20
23.6278312164
 30
0.0
 11
10.645628166
 21
23.8443375673
 31
0.0
 11
10.626389741
 21
23.7616298799
 31
0.0
 11
10.5721495847
 21
23.6914666636
 31
0.0
 11
10.4911334639
 21
23.6444924903
 31
0.0
 11
10.3956323968
 21
23.6278312164
 31
0.0
  0
SPLINE
  5
6CB
100
AcDbEntity
  8
ASSI
100
AcDbSpline
 62
7
  6
CONTINUOUS
 70
0
 71
3
 72
18
 73
14
 74
12
 42
0.0000001
 43
0.0000001
 44
0.0000000001
 12
-0.4450900098
 22
0.481089847
 32
0.0
 13
-0.0252793681
 23
0.6549148886
 33
0.0
 40
0.0
 40
0.0
 40
0.0
 40
0.0
 40
0.1613752213
 40
0.3205648321
 40
0.4750521132
 40
0.6215624232
 40
0.7554519706
 40
0.8156302568
 40
0.8698497547
 40
0.9167800736
 40
0.9549510543
 40
0.9829508618
 40
1.0
 40
1.0
 40
1.0
 40
1.0
 10
-3.9279699877
 20
23.2563578147
 30
0.0
 10
-3.951912154
 20
23.2822364749
 30
0.0
 10
-3.9994724887
 20
23.3336430992
 30
0.0
 10
-4.0698353108
 20
23.4099325036
 30
0.0
 10
-4.1377455041
 20
23.484066414
 30
0.0
 10
-4.2014859462
 20
23.5545201311
 30
0.0
 10
-4.2508230034
 20
23.6102239554
 30
0.0
 10
-4.2861252251
 20
23.6514027244
 30
0.0
 10
-4.30865538
 20
23.6785235868
 30
0.0
 10
-4.3275107923
 20
23.7023794268
 30
0.0
 10
-4.3421580858
 20
23.7224037967
 30
0.0
 10
-4.3515989824
 20
23.737733022
 30
0.0
 10
-4.3557890689
 20
23.7470515132
 30
0.0
 10
-4.3559327327
 20
23.7507734247
 30
0.0
 11
-3.9279699877
 21
23.2563578147
 31
0.0
 11
-3.9997765949
 21
23.3340121936
 31
0.0
 11
-4.0704877548
 21
23.4107283322
 31
0.0
 11
-4.1388431419
 21
23.4854235788
 31
0.0
 11
-4.2032052128
 21
23.5566835667
 31
0.0
 11
-4.2612534815
 21
23.6224918804
 31
0.0
 11
-4.2868924139
 21
23.6524624993
 31
0.0
 11
-4.3095479031
 21
23.6798396365
 31
0.0
 11
-4.3285453323
 21
23.7040298781
 31
0.0
 11
-4.3431216653
 21
23.7243620891
 31
0.0
 11
-4.3524856812
 21
23.7401443506
 31
0.0
 11
-4.3559327327
 21
23.7507734247
 31
0.0
  0
SPLINE
  5
6CC
100
AcDbEntity
  8
ASSI
100
AcDbSpline
 62
7
  6
CONTINUOUS
 70
0
 71
3
 72
9
 73
5
 74
3
 42
0.0000001
 43
0.0000001
 44
0.0000000001
 12
0.0
 22
-0.0062891298
 32
0.0
 13
-0.0021618268
 23
-0.0059059003
 33
0.0
 40
0.0
 40
0.0
 40
0.0
 40
0.0
 40
0.2092419995
 40
1.0
 40
1.0
 40
1.0
 40
1.0
 10
-3.5
 20
23.7511422903
 30
0.0
 10
-3.5
 20
23.7507036403
 30
0.0
 10
-3.5001543494
 20
23.7486071787
 30
0.0
 10
-3.5007721879
 20
23.7465741263
 30
0.0
 10
-3.5013420152
 20
23.7450174137
 30
0.0
 11
-3.5
 21
23.7511422903
 31
0.0
 11
-3.5000848853
 21
23.7498290808
 31
0.0
 11
-3.5013420152
 21
23.7450174137
 31
0.0
  0
SPLINE
  5
6CD
100
AcDbEntity
  8
ASSI
100
AcDbSpline
 62
7
  6
CONTINUOUS
 70
0
 71
3
 72
12
 73
8
 74
6
 42
0.0000001
 43
0.0000001
 44
0.0000000001
 12
-0.3603957564
 22
-0.4910367371
 32
0.0
 13
-0.4136451358
 23
-0.447101644
 33
0.0
 40
0.0
 40
0.0
 40
0.0
 40
0.0
 40
0.0841735916
 40
0.1886316942
 40
0.436310239
 40
0.7123784467
 40
1.0
 40
1.0
 40
1.0
 40
1.0
 10
-3.522465772
 20
23.7106421206
 30
0.0
 10
-3.5325777071
 20
23.6968646786
 30
0.0
 10
-3.5565551605
 20
23.6669694836
 30
0.0
 10
-3.614034592
 20
23.5995672742
 30
0.0
 10
-3.6992582942
 20
23.5046483544
 30
0.0
 10
-3.8105803984
 20
23.3832251693
 30
0.0
 10
-3.8883122355
 20
23.2992231711
 30
0.0
 10
-3.9279699877
 20
23.2563578147
 30
0.0
 11
-3.522465772
 21
23.7106421206
 31
0.0
 11
-3.55415055
 21
23.6703345893
 31
0.0
 11
-3.5952883004
 21
23.6217972431
 31
0.0
 11
-3.6955873384
 21
23.5091069327
 31
0.0
 11
-3.8090892584
 21
23.3850394257
 31
0.0
 11
-3.9279699877
 21
23.2563578147
 31
0.0
  0
SPLINE
  5
6CE
100
AcDbEntity
  8
ASSI
100
AcDbSpline
 62
7
  6
CONTINUOUS
 70
0
 71
3
 72
18
 73
14
 74
12
 42
0.0000001
 43
0.0000001
 44
0.0000000001
 12
-0.4453343141
 22
0.4813539111
 32
0.0
 13
0.0
 23
0.6557623343
 33
0.0
 40
0.0
 40
0.0
 40
0.0
 40
0.0
 40
0.1617626362
 40
0.3213210916
 40
0.4761348144
 40
0.6228935805
 40
0.7568955454
 40
0.8170511739
 40
0.8711751963
 40
0.917919862
 40
0.9558002483
 40
0.983403045
 40
1.0
 40
1.0
 40
1.0
 40
1.0
 10
3.9279699877
 20
23.2563578147
 30
0.0
 10
3.9039571701
 20
23.2823128406
 30
0.0
 10
3.8562584608
 20
23.3338690226
 30
0.0
 10
3.7856972839
 20
23.4103749159
 30
0.0
 10
3.7176127694
 20
23.4847038112
 30
0.0
 10
3.65374232
 20
23.5553126307
 30
0.0
 10
3.6043387242
 20
23.611111514
 30
0.0
 10
3.5690345371
 20
23.6523252473
 30
0.0
 10
3.5465506371
 20
23.679425806
 30
0.0
 10
3.5277917146
 20
23.7032132799
 30
0.0
 10
3.5132806161
 20
23.7231353787
 30
0.0
 10
3.5040485276
 20
23.7382783969
 30
0.0
 10
3.5
 20
23.7475144044
 30
0.0
 10
3.5
 20
23.7511422903
 30
0.0
 11
3.9279699877
 21
23.2563578147
 31
0.0
 11
3.8559516049
 21
23.3342414555
 31
0.0
 11
3.7850385928
 21
23.411178372
 31
0.0
 11
3.7165038959
 21
23.4860750371
 31
0.0
 11
3.6520037393
 21
23.5575008734
 31
0.0
 11
3.5938889042
 21
23.6234129939
 31
0.0
 11
3.5682580572
 21
23.6533994616
 31
0.0
 11
3.5456489129
 21
23.6807589903
 31
0.0
 11
3.5267456023
 21
23.7048897846
 31
0.0
 11
3.5123203782
 21
23.7251126644
 31
0.0
 11
3.503170564
 21
23.7407306846
 31
0.0
 11
3.5
 21
23.7511422903
 31
0.0
  0
SPLINE
  5
6CF
100
AcDbEntity
  8
ASSI
100
AcDbSpline
 62
7
  6
CONTINUOUS
 70
0
 71
3
 72
10
 73
6
 74
4
 42
0.0000001
 43
0.0000001
 44
0.0000000001
 12
-0.0018254953
 22
-0.0472932717
 32
0.0
 13
-0.0280771115
 23
-0.0381006797
 33
0.0
 40
0.0
 40
0.0
 40
0.0
 40
0.0
 40
0.1456809477
 40
0.3619050252
 40
1.0
 40
1.0
 40
1.0
 40
1.0
 10
4.3559327327
 20
23.7507734247
 30
0.0
 10
4.3558440861
 20
23.7484768485
 30
0.0
 10
4.354020573
 20
23.7429241477
 30
0.0
 10
4.3467310809
 20
23.7289807843
 30
0.0
 10
4.3388532473
 20
23.7179398669
 30
0.0
 10
4.3328812927
 20
23.7098359161
 30
0.0
 11
4.3559327327
 21
23.7507734247
 31
0.0
 11
4.3542440207
 21
23.744088566
 31
0.0
 11
4.3497005931
 21
23.7349188878
 31
0.0
 11
4.3328812927
 21
23.7098359161
 31
0.0
  0
SPLINE
  5
6D0
100
AcDbEntity
  8
ASSI
100
AcDbSpline
 62
7
  6
CONTINUOUS
 70
0
 71
3
 72
12
 73
8
 74
6
 42
0.0000001
 43
0.0000001
 44
0.0000000001
 12
-0.3607481696
 22
-0.4895357727
 32
0.0
 13
-0.4129657669
 23
-0.4463673263
 33
0.0
 40
0.0
 40
0.0
 40
0.0
 40
0.0
 40
0.0845788223
 40
0.1892265324
 40
0.4368995548
 40
0.7127161813
 40
1.0
 40
1.0
 40
1.0
 40
1.0
 10
4.3328812927
 20
23.7098359161
 30
0.0
 10
4.322710741
 20
23.6960344631
 30
0.0
 10
4.2986731456
 20
23.6661149395
 30
0.0
 10
4.2411828969
 20
23.5987557263
 30
0.0
 10
4.1561006325
 20
23.5040105778
 30
0.0
 10
4.045038908
 20
23.3828790321
 30
0.0
 10
3.9675161152
 20
23.299102518
 30
0.0
 10
3.9279699877
 20
23.2563578147
 30
0.0
 11
4.3328812927
 21
23.7098359161
 31
0.0
 11
4.3010502723
 21
23.6694370522
 31
0.0
 11
4.259883022
 21
23.6209105576
 31
0.0
 11
4.1597333596
 21
23.508423494
 31
0.0
 11
4.046516641
 21
23.3846767289
 31
0.0
 11
3.9279699877
 21
23.2563578147
 31
0.0
  0
SPLINE
  5
6D1
100
AcDbEntity
  8
ASSI
100
AcDbSpline
 62
7
  6
CONTINUOUS
 70
0
 71
3
 72
18
 73
14
 74
12
 42
0.0000001
 43
0.0000001
 44
0.0000000001
 12
0.4453343143
 22
-0.4813539113
 32
0.0
 13
0.0
 23
-0.6557623345
 33
0.0
 40
0.0
 40
0.0
 40
0.0
 40
0.0
 40
0.1617623588
 40
0.3213208107
 40
0.4761345081
 40
0.6228929951
 40
0.7568946684
 40
0.8170503122
 40
0.8711744721
 40
0.9179194321
 40
0.9558001469
 40
0.9834030789
 40
1.0
 40
1.0
 40
1.0
 40
1.0
 10
-3.9279699877
 20
-23.2563578147
 30
0.0
 10
-3.9039572113
 20
-23.2823127961
 30
0.0
 10
-3.8562585434
 20
-23.3338689328
 30
0.0
 10
-3.7856974115
 20
-23.4103747766
 30
0.0
 10
-3.7176129423
 20
-23.4847036222
 30
0.0
 10
-3.6537425757
 20
-23.5553123409
 30
0.0
 10
-3.6043390651
 20
-23.6111111374
 30
0.0
 10
-3.5690348834
 20
-23.6523248353
 30
0.0
 10
-3.5465509094
 20
-23.6794254596
 30
0.0
 10
-3.5277918819
 20
-23.7032130622
 30
0.0
 10
-3.5132806748
 20
-23.7231352877
 30
0.0
 10
-3.5040485306
 20
-23.7382783819
 30
0.0
 10
-3.5
 20
-23.7475144118
 30
0.0
 10
-3.5
 20
-23.7511422903
 30
0.0
 11
-3.9279699877
 21
-23.2563578147
 31
0.0
 11
-3.855951728
 21
-23.3342413217
 31
0.0
 11
-3.7850387171
 21
-23.4111782362
 31
0.0
 11
-3.7165040306
 21
-23.4860748882
 31
0.0
 11
-3.6520039946
 21
-23.5575005869
 31
0.0
 11
-3.5938892833
 21
-23.6234125616
 31
0.0
 11
-3.5682584201
 21
-23.6533990286
 31
0.0
 11
-3.5456492082
 21
-23.6807586185
 31
0.0
 11
-3.5267457729
 21
-23.7048895603
 31
0.0
 11
-3.5123204148
 21
-23.7251126091
 31
0.0
 11
-3.5031705537
 21
-23.7407307047
 31
0.0
 11
-3.5
 21
-23.7511422903
 31
0.0
  0
SPLINE
  5
6D2
100
AcDbEntity
  8
ASSI
100
AcDbSpline
 62
7
  6
CONTINUOUS
 70
0
 71
3
 72
10
 73
6
 74
4
 42
0.0000001
 43
0.0000001
 44
0.0000000001
 12
0.0018297664
 22
0.047403924
 32
0.0
 13
0.0281508146
 23
0.0381839193
 33
0.0
 40
0.0
 40
0.0
 40
0.0
 40
0.0
 40
0.1456133596
 40
0.361825733
 40
1.0
 40
1.0
 40
1.0
 40
1.0
 10
-4.3559327327
 20
-23.7507734247
 30
0.0
 10
-4.3558439199
 20
-23.7484725432
 30
0.0
 10
-4.3540143578
 20
-23.7429085051
 30
0.0
 10
-4.3467035117
 20
-23.72893509
 30
0.0
 10
-4.3388038842
 20
-23.7178693321
 30
0.0
 10
-4.3328155091
 20
-23.7097466672
 30
0.0
 11
-4.3559327327
 21
-23.7507734247
 31
0.0
 11
-4.3542392319
 21
-23.7440764442
 31
0.0
 11
-4.3496825302
 21
-23.7348872419
 31
0.0
 11
-4.3328155091
 21
-23.7097466672
 31
0.0
  0
SPLINE
  5
6D3
100
AcDbEntity
  8
ASSI
100
AcDbSpline
 62
7
  6
CONTINUOUS
 70
0
 71
3
 72
12
 73
8
 74
6
 42
0.0000001
 43
0.0000001
 44
0.0000000001
 12
0.3607850885
 22
0.4893708733
 32
0.0
 13
0.4128904991
 23
0.4462859705
 33
0.0
 40
0.0
 40
0.0
 40
0.0
 40
0.0
 40
0.0846237665
 40
0.1892922816
 40
0.4369643299
 40
0.7127534432
 40
1.0
 40
1.0
 40
1.0
 40
1.0
 10
-4.3328155091
 20
-23.7097466672
 30
0.0
 10
-4.3226385114
 20
-23.6959425317
 30
0.0
 10
-4.2985943057
 20
-23.6660203384
 30
0.0
 10
-4.2411029737
 20
-23.5986659637
 30
0.0
 10
-4.1560364086
 20
-23.5039400903
 30
0.0
 10
-4.0450034997
 20
-23.3828408109
 30
0.0
 10
-3.9675037791
 20
-23.2990891842
 30
0.0
 10
-3.9279699877
 20
-23.2563578147
 30
0.0
 11
-4.3328155091
 21
-23.7097466672
 31
0.0
 11
-4.3009683544
 21
-23.6693376621
 31
0.0
 11
-4.2597979531
 21
-23.6208124627
 31
0.0
 11
-4.159665005
 21
-23.5083480646
 31
0.0
 11
-4.0464797205
 21
-23.3846366462
 31
0.0
 11
-3.9279699877
 21
-23.2563578147
 31
0.0
  0
SPLINE
  5
6D4
100
AcDbEntity
  8
ASSI
100
AcDbSpline
 62
7
  6
CONTINUOUS
 70
0
 71
3
 72
18
 73
14
 74
12
 42
0.0000001
 43
0.0000001
 44
0.0000000001
 12
0.44509001
 22
-0.4810898471
 32
0.0
 13
0.0252793681
 23
-0.6549148888
 33
0.0
 40
0.0
 40
0.0
 40
0.0
 40
0.0
 40
0.1613749561
 40
0.3205645695
 40
0.4750518296
 40
0.6215618704
 40
0.7554511341
 40
0.8156294324
 40
0.8698490569
 40
0.9167796524
 40
0.9549509519
 40
0.982950894
 40
1.0
 40
1.0
 40
1.0
 40
1.0
 10
3.9279699877
 20
-23.2563578147
 30
0.0
 10
3.9519121146
 20
-23.2822364324
 30
0.0
 10
3.9994724107
 20
-23.3336430143
 30
0.0
 10
4.0698351911
 20
-23.4099323729
 30
0.0
 10
4.1377453421
 20
-23.4840662369
 30
0.0
 10
4.2014857044
 20
-23.5545198572
 30
0.0
 10
4.2508226787
 20
-23.6102235969
 30
0.0
 10
4.2861248933
 20
-23.6514023302
 30
0.0
 10
4.3086551174
 20
-23.6785232533
 30
0.0
 10
4.3275106294
 20
-23.7023792153
 30
0.0
 10
4.3421580275
 20
-23.7224037069
 30
0.0
 10
4.3515989787
 20
-23.7377330066
 30
0.0
 10
4.3557890692
 20
-23.7470515203
 30
0.0
 10
4.3559327327
 20
-23.7507734247
 30
0.0
 11
3.9279699877
 21
-23.2563578147
 31
0.0
 11
3.9997764772
 21
-23.3340120658
 31
0.0
 11
4.0704876386
 21
-23.4107282053
 31
0.0
 11
4.1388430172
 21
-23.4854234411
 31
0.0
 11
4.2032049717
 21
-23.5566832963
 31
0.0
 11
4.26125312
 21
-23.6224914684
 31
0.0
 11
4.2868920667
 21
-23.6524620856
 31
0.0
 11
4.3095476183
 21
-23.6798392787
 31
0.0
 11
4.3285451651
 21
-23.7040296586
 31
0.0
 11
4.3431216281
 21
-23.7243620334
 31
0.0
 11
4.3524856912
 21
-23.7401443696
 31
0.0
 11
4.3559327327
 21
-23.7507734247
 31
0.0
  0
SPLINE
  5
6D5
100
AcDbEntity
  8
ASSI
100
AcDbSpline
 62
7
  6
CONTINUOUS
 70
0
 71
3
 72
9
 73
5
 74
3
 42
0.0000001
 43
0.0000001
 44
0.0000000001
 12
0.0
 22
0.0062775492
 32
0.0
 13
0.0021559478
 23
0.0058957199
 33
0.0
 40
0.0
 40
0.0
 40
0.0
 40
0.0
 40
0.2092949596
 40
1.0
 40
1.0
 40
1.0
 40
1.0
 10
3.5
 20
-23.7511422903
 30
0.0
 10
3.5
 20
-23.7507043372
 30
0.0
 10
3.5001538169
 20
-23.748611734
 30
0.0
 10
3.500769778
 20
-23.7465822483
 30
0.0
 10
3.5013380176
 20
-23.7450283231
 30
0.0
 11
3.5
 21
-23.7511422903
 31
0.0
 11
3.5000846302
 21
-23.7498311594
 31
0.0
 11
3.5013380176
 21
-23.7450283231
 31
0.0
  0
SPLINE
  5
6D6
100
AcDbEntity
  8
ASSI
100
AcDbSpline
 62
7
  6
CONTINUOUS
 70
0
 71
3
 72
12
 73
8
 74
6
 42
0.0000001
 43
0.0000001
 44
0.0000000001
 12
0.3604366288
 22
0.4908690079
 32
0.0
 13
0.4135697411
 23
0.4470201512
 33
0.0
 40
0.0
 40
0.0
 40
0.0
 40
0.0
 40
0.0842194392
 40
0.1886987609
 40
0.4363762872
 40
0.7124164319
 40
1.0
 40
1.0
 40
1.0
 40
1.0
 10
3.5225314956
 20
-23.7105525931
 30
0.0
 10
3.5326500859
 20
-23.6967723556
 30
0.0
 10
3.5566343866
 20
-23.6668743023
 30
0.0
 10
3.6141151539
 20
-23.5994767788
 30
0.0
 10
3.6993231102
 20
-23.504577206
 30
0.0
 10
3.8106161657
 20
-23.3831865624
 30
0.0
 10
3.8883247004
 20
-23.2992096981
 30
0.0
 10
3.9279699877
 20
-23.2563578147
 30
0.0
 11
3.5225314956
 21
-23.7105525931
 31
0.0
 11
3.5542329142
 21
-23.6702345154
 31
0.0
 11
3.5953740502
 21
-23.6216983015
 31
0.0
 11
3.6956563662
 21
-23.5090307494
 31
0.0
 11
3.8091265639
 21
-23.384998924
 31
0.0
 11
3.9279699877
 21
-23.2563578147
 31
0.0
  0
SPLINE
  5
6D7
100
AcDbEntity
  8
ASSI
100
AcDbSpline
 62
7
  6
CONTINUOUS
 70
0
 71
3
 72
9
 73
5
 74
3
 42
0.0000001
 43
0.0000001
 44
0.0000000001
 12
0.3127521427
 22
-0.4422983219
 32
0.0
 13
0.2926749832
 23
-0.4558322746
 33
0.0
 40
0.0
 40
0.0
 40
0.0
 40
0.0
 40
0.5096581785
 40
1.0
 40
1.0
 40
1.0
 40
1.0
 10
7.5841007192
 20
-21.3126932437
 30
0.0
 10
7.6372329483
 20
-21.3878335627
 30
0.0
 10
7.7414792083
 20
-21.5352598413
 30
0.0
 10
7.8430465455
 20
-21.6846119837
 30
0.0
 10
7.8908834737
 20
-21.7591165263
 30
0.0
 11
7.5841007192
 21
-21.3126932437
 31
0.0
 11
7.7427970122
 21
-21.5386078259
 31
0.0
 11
7.8908834737
 21
-21.7591165263
 31
0.0
  0
SPLINE
  5
6D8
100
AcDbEntity
  8
ASSI
100
AcDbSpline
 62
7
  6
CONTINUOUS
 70
0
 71
3
 72
9
 73
5
 74
3
 42
0.0000001
 43
0.0000001
 44
0.0000000001
 12
0.2926749832
 22
0.4558322746
 32
0.0
 13
0.3127521427
 23
0.4422983219
 33
0.0
 40
0.0
 40
0.0
 40
0.0
 40
0.0
 40
0.4903418215
 40
1.0
 40
1.0
 40
1.0
 40
1.0
 10
-7.8908834737
 20
-21.7591165263
 30
0.0
 10
-7.8430465455
 20
-21.6846119837
 30
0.0
 10
-7.7414792083
 20
-21.5352598413
 30
0.0
 10
-7.6372329483
 20
-21.3878335627
 30
0.0
 10
-7.5841007192
 20
-21.3126932437
 30
0.0
 11
-7.8908834737
 21
-21.7591165263
 31
0.0
 11
-7.7427970122
 21
-21.5386078259
 31
0.0
 11
-7.5841007192
 21
-21.3126932437
 31
0.0
  0
SPLINE
  5
6D9
100
AcDbEntity
  8
ASSI
100
AcDbSpline
 62
7
  6
CONTINUOUS
 70
0
 71
3
 72
9
 73
5
 74
3
 42
0.0000001
 43
0.0000001
 44
0.0000000001
 12
-0.2926749832
 22
-0.4558322746
 32
0.0
 13
-0.3127521427
 23
-0.4422983219
 33
0.0
 40
0.0
 40
0.0
 40
0.0
 40
0.0
 40
0.4903418215
 40
1.0
 40
1.0
 40
1.0
 40
1.0
 10
7.8908834737
 20
21.7591165263
 30
0.0
 10
7.8430465455
 20
21.6846119837
 30
0.0
 10
7.7414792083
 20
21.5352598413
 30
0.0
 10
7.6372329483
 20
21.3878335627
 30
0.0
 10
7.5841007192
 20
21.3126932437
 30
0.0
 11
7.8908834737
 21
21.7591165263
 31
0.0
 11
7.7427970122
 21
21.5386078259
 31
0.0
 11
7.5841007192
 21
21.3126932437
 31
0.0
  0
SPLINE
  5
6DA
100
AcDbEntity
  8
ASSI
100
AcDbSpline
 62
7
  6
CONTINUOUS
 70
0
 71
3
 72
9
 73
5
 74
3
 42
0.0000001
 43
0.0000001
 44
0.0000000001
 12
-0.3127521427
 22
0.4422983219
 32
0.0
 13
-0.2926749832
 23
0.4558322746
 33
0.0
 40
0.0
 40
0.0
 40
0.0
 40
0.0
 40
0.5096581785
 40
1.0
 40
1.0
 40
1.0
 40
1.0
 10
-7.5841007192
 20
21.3126932437
 30
0.0
 10
-7.6372329483
 20
21.3878335627
 30
0.0
 10
-7.7414792083
 20
21.5352598413
 30
0.0
 10
-7.8430465455
 20
21.6846119837
 30
0.0
 10
-7.8908834737
 20
21.7591165263
 30
0.0
 11
-7.5841007192
 21
21.3126932437
 31
0.0
 11
-7.7427970122
 21
21.5386078259
 31
0.0
 11
-7.8908834737
 21
21.7591165263
 31
0.0
  0
SPLINE
  5
6DB
100
AcDbEntity
  8
ASSI
100
AcDbSpline
 62
7
  6
CONTINUOUS
 70
0
 71
3
 72
15
 73
11
 74
9
 42
0.0000001
 43
0.0000001
 44
0.0000000001
 12
0.0
 22
-1.0746806767
 32
0.0
 13
-0.0
 23
1.0746806767
 33
0.0
 40
0.0
 40
0.0
 40
0.0
 40
0.0
 40
0.1250291604
 40
0.2500424412
 40
0.3750303971
 40
0.5
 40
0.6249696029
 40
0.7499575588
 40
0.8749708396
 40
1.0
 40
1.0
 40
1.0
 40
1.0
 10
6.5581782981
 20
20.0275513222
 30
0.0
 10
6.5581782981
 20
19.9827625147
 30
0.0
 10
6.5756933792
 20
19.8922433546
 30
0.0
 10
6.6510057024
 20
19.7770303597
 30
0.0
 10
6.7648141869
 20
19.6991449067
 30
0.0
 10
6.9
 20
19.6716300952
 30
0.0
 10
7.0351858131
 20
19.6991449067
 30
0.0
 10
7.1489942976
 20
19.7770303597
 30
0.0
 10
7.2243066208
 20
19.8922433546
 30
0.0
 10
7.2418217019
 20
19.9827625147
 30
0.0
 10
7.2418217019
 20
20.0275513222
 30
0.0
 11
6.5581782981
 21
20.0275513222
 31
0.0
 11
6.5838699268
 21
19.8956639621
 31
0.0
 11
6.6574306396
 21
19.7832425615
 31
0.0
 11
6.7683854657
 21
19.7075361275
 31
0.0
 11
6.9
 21
19.6808012501
 31
0.0
 11
7.0316145343
 21
19.7075361275
 31
0.0
 11
7.1425693604
 21
19.7832425615
 31
0.0
 11
7.2161300732
 21
19.8956639621
 31
0.0
 11
7.2418217019
 21
20.0275513222
 31
0.0
  0
SPLINE
  5
6DC
100
AcDbEntity
  8
ASSI
100
AcDbSpline
 62
7
  6
CONTINUOUS
 70
0
 71
3
 72
15
 73
11
 74
9
 42
0.0000001
 43
0.0000001
 44
0.0000000001
 12
0.0
 22
-1.4203837333
 32
0.0
 13
0.0
 23
1.4203837333
 33
0.0
 40
0.0
 40
0.0
 40
0.0
 40
0.0
 40
0.1250297432
 40
0.2500428453
 40
0.3750305857
 40
0.5
 40
0.6249694143
 40
0.7499571547
 40
0.8749702568
 40
1.0
 40
1.0
 40
1.0
 40
1.0
 10
7.3517786853
 20
16.8065137252
 30
0.0
 10
7.3517786853
 20
16.7473169874
 30
0.0
 10
7.3286303508
 20
16.627678978
 30
0.0
 10
7.2290893243
 20
16.4754058154
 30
0.0
 10
7.0786724636
 20
16.3724646034
 30
0.0
 10
6.9
 20
16.336100559
 30
0.0
 10
6.7213275364
 20
16.3724646034
 30
0.0
 10
6.5709106757
 20
16.4754058154
 30
0.0
 10
6.4713696492
 20
16.627678978
 30
0.0
 10
6.4482213147
 20
16.7473169874
 30
0.0
 10
6.4482213147
 20
16.8065137252
 30
0.0
 11
7.3517786853
 21
16.8065137252
 31
0.0
 11
7.3178227946
 21
16.6321999811
 31
0.0
 11
7.2205981958
 21
16.4836157742
 31
0.0
 11
7.073952118
 21
16.383555666
 31
0.0
 11
6.9
 21
16.3482213147
 31
0.0
 11
6.726047882
 21
16.383555666
 31
0.0
 11
6.5794018042
 21
16.4836157742
 31
0.0
 11
6.4821772054
 21
16.6321999811
 31
0.0
 11
6.4482213147
 21
16.8065137252
 31
0.0
  0
SPLINE
  5
6DD
100
AcDbEntity
  8
ASSI
100
AcDbSpline
 62
7
  6
CONTINUOUS
 70
0
 71
3
 72
15
 73
11
 74
9
 42
0.0000001
 43
0.0000001
 44
0.0000000001
 12
0.0
 22
-1.0746806767
 32
0.0
 13
0.0
 23
1.0746806767
 33
0.0
 40
0.0
 40
0.0
 40
0.0
 40
0.0
 40
0.1250291604
 40
0.2500424412
 40
0.3750303971
 40
0.5
 40
0.6249696029
 40
0.7499575588
 40
0.8749708396
 40
1.0
 40
1.0
 40
1.0
 40
1.0
 10
-7.2418217019
 20
20.0275513222
 30
0.0
 10
-7.2418217019
 20
19.9827625147
 30
0.0
 10
-7.2243066208
 20
19.8922433546
 30
0.0
 10
-7.1489942976
 20
19.7770303597
 30
0.0
 10
-7.0351858131
 20
19.6991449067
 30
0.0
 10
-6.9
 20
19.6716300952
 30
0.0
 10
-6.7648141869
 20
19.6991449067
 30
0.0
 10
-6.6510057024
 20
19.7770303597
 30
0.0
 10
-6.5756933792
 20
19.8922433546
 30
0.0
 10
-6.5581782981
 20
19.9827625147
 30
0.0
 10
-6.5581782981
 20
20.0275513222
 30
0.0
 11
-7.2418217019
 21
20.0275513222
 31
0.0
 11
-7.2161300732
 21
19.8956639621
 31
0.0
 11
-7.1425693604
 21
19.7832425615
 31
0.0
 11
-7.0316145343
 21
19.7075361275
 31
0.0
 11
-6.9
 21
19.6808012501
 31
0.0
 11
-6.7683854657
 21
19.7075361275
 31
0.0
 11
-6.6574306396
 21
19.7832425615
 31
0.0
 11
-6.5838699268
 21
19.8956639621
 31
0.0
 11
-6.5581782981
 21
20.0275513222
 31
0.0
  0
SPLINE
  5
6DE
100
AcDbEntity
  8
ASSI
100
AcDbSpline
 62
7
  6
CONTINUOUS
 70
0
 71
3
 72
15
 73
11
 74
9
 42
0.0000001
 43
0.0000001
 44
0.0000000001
 12
0.0
 22
-1.4203837333
 32
0.0
 13
0.0
 23
1.4203837333
 33
0.0
 40
0.0
 40
0.0
 40
0.0
 40
0.0
 40
0.1250297432
 40
0.2500428453
 40
0.3750305857
 40
0.5
 40
0.6249694143
 40
0.7499571547
 40
0.8749702568
 40
1.0
 40
1.0
 40
1.0
 40
1.0
 10
-6.4482213147
 20
16.8065137252
 30
0.0
 10
-6.4482213147
 20
16.7473169874
 30
0.0
 10
-6.4713696492
 20
16.627678978
 30
0.0
 10
-6.5709106757
 20
16.4754058154
 30
0.0
 10
-6.7213275364
 20
16.3724646034
 30
0.0
 10
-6.9
 20
16.336100559
 30
0.0
 10
-7.0786724636
 20
16.3724646034
 30
0.0
 10
-7.2290893243
 20
16.4754058154
 30
0.0
 10
-7.3286303508
 20
16.627678978
 30
0.0
 10
-7.3517786853
 20
16.7473169874
 30
0.0
 10
-7.3517786853
 20
16.8065137252
 30
0.0
 11
-6.4482213147
 21
16.8065137252
 31
0.0
 11
-6.4821772054
 21
16.6321999811
 31
0.0
 11
-6.5794018042
 21
16.4836157742
 31
0.0
 11
-6.726047882
 21
16.383555666
 31
0.0
 11
-6.9
 21
16.3482213147
 31
0.0
 11
-7.073952118
 21
16.383555666
 31
0.0
 11
-7.2205981958
 21
16.4836157742
 31
0.0
 11
-7.3178227946
 21
16.6321999811
 31
0.0
 11
-7.3517786853
 21
16.8065137252
 31
0.0
  0
SPLINE
  5
6DF
100
AcDbEntity
  8
ASSI
100
AcDbSpline
 62
7
  6
CONTINUOUS
 70
0
 71
3
 72
15
 73
11
 74
9
 42
0.0000001
 43
0.0000001
 44
0.0000000001
 12
0.0
 22
1.3838014393
 32
0.0
 13
0.0
 23
-1.3838014393
 33
0.0
 40
0.0
 40
0.0
 40
0.0
 40
0.0
 40
0.1250295944
 40
0.250042809
 40
0.3750306692
 40
0.4999999948
 40
0.6249693222
 40
0.7499571857
 40
0.8749704032
 40
1.0
 40
1.0
 40
1.0
 40
1.0
 10
6.4598569743
 20
-17.1473642646
 30
0.0
 10
6.4598569743
 20
-17.0896922203
 30
0.0
 10
6.482409046
 20
-16.9731355158
 30
0.0
 10
6.5793864438
 20
-16.8247841812
 30
0.0
 10
6.725929288
 20
-16.7244941125
 30
0.0
 10
6.8999999932
 20
-16.689066735
 30
0.0
 10
7.0740707018
 20
-16.7244941068
 30
0.0
 10
7.22061355
 20
-16.8247841763
 30
0.0
 10
7.3175909544
 20
-16.9731355117
 30
0.0
 10
7.3401430257
 20
-17.0896922192
 30
0.0
 10
7.3401430257
 20
-17.1473642646
 30
0.0
 11
6.4598569743
 21
-17.1473642646
 31
0.0
 11
6.4929382299
 21
-16.9775402006
 31
0.0
 11
6.5876588694
 21
-16.8327826799
 31
0.0
 11
6.7305281613
 21
-16.7352995176
 31
0.0
 11
6.8999999927
 21
-16.7008752761
 31
0.0
 11
7.0694718276
 21
-16.7352995125
 31
0.0
 11
7.2123411249
 21
-16.8327826751
 31
0.0
 11
7.3070617694
 21
-16.9775401973
 31
0.0
 11
7.3401430257
 21
-17.1473642646
 31
0.0
  0
SPLINE
  5
6E0
100
AcDbEntity
  8
ASSI
100
AcDbSpline
 62
7
  6
CONTINUOUS
 70
0
 71
3
 72
15
 73
11
 74
9
 42
0.0000001
 43
0.0000001
 44
0.0000000001
 12
0.0
 22
1.0746806767
 32
0.0
 13
0.0
 23
-1.0746806767
 33
0.0
 40
0.0
 40
0.0
 40
0.0
 40
0.0
 40
0.1250291604
 40
0.2500424412
 40
0.3750303971
 40
0.5
 40
0.6249696029
 40
0.7499575588
 40
0.8749708396
 40
1.0
 40
1.0
 40
1.0
 40
1.0
 10
7.2418217019
 20
-20.0275513222
 30
0.0
 10
7.2418217019
 20
-19.9827625147
 30
0.0
 10
7.2243066208
 20
-19.8922433546
 30
0.0
 10
7.1489942976
 20
-19.7770303597
 30
0.0
 10
7.0351858131
 20
-19.6991449067
 30
0.0
 10
6.9
 20
-19.6716300952
 30
0.0
 10
6.7648141869
 20
-19.6991449067
 30
0.0
 10
6.6510057024
 20
-19.7770303597
 30
0.0
 10
6.5756933792
 20
-19.8922433546
 30
0.0
 10
6.5581782981
 20
-19.9827625147
 30
0.0
 10
6.5581782981
 20
-20.0275513222
 30
0.0
 11
7.2418217019
 21
-20.0275513222
 31
0.0
 11
7.2161300732
 21
-19.8956639621
 31
0.0
 11
7.1425693604
 21
-19.7832425615
 31
0.0
 11
7.0316145343
 21
-19.7075361275
 31
0.0
 11
6.9
 21
-19.6808012501
 31
0.0
 11
6.7683854657
 21
-19.7075361275
 31
0.0
 11
6.6574306396
 21
-19.7832425615
 31
0.0
 11
6.5838699268
 21
-19.8956639621
 31
0.0
 11
6.5581782981
 21
-20.0275513222
 31
0.0
  0
SPLINE
  5
6E1
100
AcDbEntity
  8
ASSI
100
AcDbSpline
 62
7
  6
CONTINUOUS
 70
0
 71
3
 72
15
 73
11
 74
9
 42
0.0000001
 43
0.0000001
 44
0.0000000001
 12
0.0
 22
1.3838014393
 32
0.0
 13
0.0
 23
-1.3838014393
 33
0.0
 40
0.0
 40
0.0
 40
0.0
 40
0.0
 40
0.1250295944
 40
0.250042809
 40
0.3750306692
 40
0.4999999948
 40
0.6249693222
 40
0.7499571857
 40
0.8749704032
 40
1.0
 40
1.0
 40
1.0
 40
1.0
 10
-7.3401430257
 20
-17.1473642646
 30
0.0
 10
-7.3401430257
 20
-17.0896922203
 30
0.0
 10
-7.317590954
 20
-16.9731355158
 30
0.0
 10
-7.2206135562
 20
-16.8247841812
 30
0.0
 10
-7.074070712
 20
-16.7244941125
 30
0.0
 10
-6.9000000068
 20
-16.689066735
 30
0.0
 10
-6.7259292982
 20
-16.7244941068
 30
0.0
 10
-6.57938645
 20
-16.8247841763
 30
0.0
 10
-6.4824090456
 20
-16.9731355117
 30
0.0
 10
-6.4598569743
 20
-17.0896922192
 30
0.0
 10
-6.4598569743
 20
-17.1473642646
 30
0.0
 11
-7.3401430257
 21
-17.1473642646
 31
0.0
 11
-7.3070617701
 21
-16.9775402006
 31
0.0
 11
-7.2123411306
 21
-16.8327826799
 31
0.0
 11
-7.0694718387
 21
-16.7352995176
 31
0.0
 11
-6.9000000073
 21
-16.7008752761
 31
0.0
 11
-6.7305281724
 21
-16.7352995125
 31
0.0
 11
-6.5876588751
 21
-16.8327826751
 31
0.0
 11
-6.4929382306
 21
-16.9775401973
 31
0.0
 11
-6.4598569743
 21
-17.1473642646
 31
0.0
  0
SPLINE
  5
6E2
100
AcDbEntity
  8
ASSI
100
AcDbSpline
 62
7
  6
CONTINUOUS
 70
0
 71
3
 72
15
 73
11
 74
9
 42
0.0000001
 43
0.0000001
 44
0.0000000001
 12
-0.0
 22
1.0746806767
 32
0.0
 13
-0.0
 23
-1.0746806767
 33
0.0
 40
0.0
 40
0.0
 40
0.0
 40
0.0
 40
0.1250291604
 40
0.2500424412
 40
0.3750303971
 40
0.5
 40
0.6249696029
 40
0.7499575588
 40
0.8749708396
 40
1.0
 40
1.0
 40
1.0
 40
1.0
 10
-6.5581782981
 20
-20.0275513222
 30
0.0
 10
-6.5581782981
 20
-19.9827625147
 30
0.0
 10
-6.5756933792
 20
-19.8922433546
 30
0.0
 10
-6.6510057024
 20
-19.7770303597
 30
0.0
 10
-6.7648141869
 20
-19.6991449067
 30
0.0
 10
-6.9
 20
-19.6716300952
 30
0.0
 10
-7.0351858131
 20
-19.6991449067
 30
0.0
 10
-7.1489942976
 20
-19.7770303597
 30
0.0
 10
-7.2243066208
 20
-19.8922433546
 30
0.0
 10
-7.2418217019
 20
-19.9827625147
 30
0.0
 10
-7.2418217019
 20
-20.0275513222
 30
0.0
 11
-6.5581782981
 21
-20.0275513222
 31
0.0
 11
-6.5838699268
 21
-19.8956639621
 31
0.0
 11
-6.6574306396
 21
-19.7832425615
 31
0.0
 11
-6.7683854657
 21
-19.7075361275
 31
0.0
 11
-6.9
 21
-19.6808012501
 31
0.0
 11
-7.0316145343
 21
-19.7075361275
 31
0.0
 11
-7.1425693604
 21
-19.7832425615
 31
0.0
 11
-7.2161300732
 21
-19.8956639621
 31
0.0
 11
-7.2418217019
 21
-20.0275513222
 31
0.0
  0
ELLIPSE
  5
6E3
100
AcDbEntity
  8
RACCORDO
100
AcDbEllipse
 62
7
  6
CONTINUOUS
 10
4.2
 20
-19.9973819397
 30
0.0
 11
0.3
 21
-0.0
 31
0.0
 40
0.0087268678
 41
-1.5707963268
 42
-0.0
  0
ELLIPSE
  5
6E4
100
AcDbEntity
  8
RACCORDO
100
AcDbEllipse
 62
7
  6
CONTINUOUS
 10
-7.3238531022
 20
-19.8
 30
0.0
 11
-0.0
 21
0.5
 31
0.0
 40
0.0058178298
 41
-1.5707963268
 42
0.0
  0
ELLIPSE
  5
6E5
100
AcDbEntity
  8
RACCORDO
100
AcDbEllipse
 62
7
  6
CONTINUOUS
 10
-6.4761468978
 20
-19.8
 30
0.0
 11
0.0
 21
0.5
 31
0.0
 40
0.0058178298
 41
0.0
 42
1.5707963268
  0
ELLIPSE
  5
6E6
100
AcDbEntity
  8
RACCORDO
100
AcDbEllipse
 62
7
  6
CONTINUOUS
 10
7.3648356752
 20
-9.2043838508
 30
0.0
 11
-0.0
 21
0.3
 31
0.0
 40
0.0087268678
 41
-1.5707963268
 42
-0.1745329252
  0
ELLIPSE
  5
6E7
100
AcDbEntity
  8
RACCORDO
100
AcDbEllipse
 62
7
  6
CONTINUOUS
 10
-9.5784342338
 20
-19.8
 30
0.0
 11
-0.0
 21
0.5
 31
0.0
 40
0.0174550649
 41
-0.0
 42
1.5707963268
  0
ELLIPSE
  5
6E8
100
AcDbEntity
  8
RACCORDO
100
AcDbEllipse
 62
7
  6
CONTINUOUS
 10
-7.3648356752
 20
-9.2043838508
 30
0.0
 11
0.0
 21
0.3
 31
0.0
 40
0.0087268678
 41
0.1745329252
 42
1.5707963268
  0
ELLIPSE
  5
6E9
100
AcDbEntity
  8
RACCORDO
100
AcDbEllipse
 62
7
  6
CONTINUOUS
 10
8.9303794106
 20
-11.5872686779
 30
0.0
 11
0.3
 21
0.0
 31
0.0
 40
0.0087268678
 41
-1.5707963268
 42
-0.3490658504
  0
ELLIPSE
  5
6EA
100
AcDbEntity
  8
RACCORDO
100
AcDbEllipse
 62
7
  6
CONTINUOUS
 10
-6.9999809608
 20
10.3999809608
 30
0.0
 11
0.3535803156
 21
-0.3535803156
 31
0.0
 40
0.9999238505
 41
2.3562325664
 42
3.9269527408
  0
ELLIPSE
  5
6EB
100
AcDbEntity
  8
RACCORDO
100
AcDbEllipse
 62
7
  6
CONTINUOUS
 10
6.9999809608
 20
10.3999809608
 30
0.0
 11
0.3535803156
 21
0.3535803156
 31
0.0
 40
0.9999238505
 41
-0.7853600872
 42
0.7853600871
  0
ELLIPSE
  5
6EC
100
AcDbEntity
  8
RACCORDO
100
AcDbEllipse
 62
7
  6
CONTINUOUS
 10
6.9999809608
 20
-13.3999809608
 30
0.0
 11
0.3535803156
 21
-0.3535803156
 31
0.0
 40
0.9999238505
 41
-0.7853600872
 42
0.7853600872
  0
ELLIPSE
  5
6ED
100
AcDbEntity
  8
RACCORDO
100
AcDbEllipse
 62
7
  6
CONTINUOUS
 10
-6.9999809608
 20
-13.3999809608
 30
0.0
 11
0.3535803156
 21
0.3535803156
 31
0.0
 40
0.9999238505
 41
-3.9269527408
 42
-2.3562325664
  0
ELLIPSE
  5
6EE
100
AcDbEntity
  8
RACCORDO
100
AcDbEllipse
 62
7
  6
CONTINUOUS
 10
8.9303794106
 20
-12.4127313221
 30
0.0
 11
0.3
 21
0.0
 31
0.0
 40
0.0087268678
 41
0.3490658504
 42
1.5707963268
  0
ELLIPSE
  5
6EF
100
AcDbEntity
  8
RACCORDO
100
AcDbEllipse
 62
7
  6
CONTINUOUS
 10
-10.3999957691
 20
-23.4113248654
 30
0.0
 11
-0.0029088041
 21
0.2886641433
 31
0.0
 40
0.8660144118
 41
-0.0087264124
 42
1.5591610446
  0
ELLIPSE
  5
6F0
100
AcDbEntity
  8
RACCORDO
100
AcDbEllipse
 62
7
  6
CONTINUOUS
 10
-8.9303794106
 20
-12.4127313221
 30
0.0
 11
0.3
 21
0.0
 31
0.0
 40
0.0087268678
 41
1.5707963268
 42
2.7925268032
  0
ELLIPSE
  5
6F1
100
AcDbEntity
  8
RACCORDO
100
AcDbEllipse
 62
7
  6
CONTINUOUS
 10
8.9303794106
 20
8.8127313221
 30
0.0
 11
0.3
 21
0.0
 31
0.0
 40
0.0087268678
 41
-1.5707963268
 42
-0.3490658504
  0
ELLIPSE
  5
6F2
100
AcDbEntity
  8
RACCORDO
100
AcDbEllipse
 62
7
  6
CONTINUOUS
 10
-8.5000042309
 20
-23.4113248654
 30
0.0
 11
0.0029088041
 21
0.2886641433
 31
0.0
 40
0.8660144118
 41
-1.5591610446
 42
0.0087264124
  0
ELLIPSE
  5
6F3
100
AcDbEntity
  8
RACCORDO
100
AcDbEllipse
 62
7
  6
CONTINUOUS
 10
8.5000042309
 20
-23.4113248654
 30
0.0
 11
-0.0029088041
 21
0.2886641433
 31
0.0
 40
0.8660144118
 41
-0.0087264124
 42
1.5591610446
  0
ELLIPSE
  5
6F4
100
AcDbEntity
  8
RACCORDO
100
AcDbEllipse
 62
7
  6
CONTINUOUS
 10
-8.9303794106
 20
8.8127313221
 30
0.0
 11
0.3
 21
-0.0
 31
0.0
 40
0.0087268678
 41
-2.7925268032
 42
-1.5707963268
  0
ELLIPSE
  5
6F5
100
AcDbEntity
  8
RACCORDO
100
AcDbEllipse
 62
7
  6
CONTINUOUS
 10
6.8122642439
 20
10.8127313221
 30
0.0
 11
0.3
 21
0.0
 31
0.0
 40
0.0087268678
 41
-3.1241393611
 42
-1.5707963268
  0
ELLIPSE
  5
6F6
100
AcDbEntity
  8
RACCORDO
100
AcDbEllipse
 62
7
  6
CONTINUOUS
 10
9.5784342338
 20
-19.8
 30
0.0
 11
0.0
 21
0.5
 31
0.0
 40
0.0174550649
 41
-1.5707963268
 42
0.0
  0
ELLIPSE
  5
6F7
100
AcDbEntity
  8
RACCORDO
100
AcDbEllipse
 62
7
  6
CONTINUOUS
 10
10.3999957691
 20
-23.4113248654
 30
0.0
 11
0.0029088041
 21
0.2886641433
 31
0.0
 40
0.8660144118
 41
-1.5591610446
 42
0.0087264124
  0
ELLIPSE
  5
6F8
100
AcDbEntity
  8
RACCORDO
100
AcDbEllipse
 62
7
  6
CONTINUOUS
 10
-6.8122642439
 20
10.8127313221
 30
0.0
 11
0.3
 21
0.0
 31
0.0
 40
0.0087268678
 41
-1.5707963268
 42
-0.0174532925
  0
ELLIPSE
  5
6F9
100
AcDbEntity
  8
RACCORDO
100
AcDbEllipse
 62
7
  6
CONTINUOUS
 10
-6.8122642439
 20
-13.8127313221
 30
0.0
 11
0.3
 21
0.0
 31
0.0
 40
0.0087268678
 41
0.0174532925
 42
1.5707963268
  0
ELLIPSE
  5
6FA
100
AcDbEntity
  8
RACCORDO
100
AcDbEllipse
 62
7
  6
CONTINUOUS
 10
6.8122642439
 20
-13.8127313221
 30
0.0
 11
0.3
 21
-0.0
 31
0.0
 40
0.0087268678
 41
1.5707963268
 42
3.1241393611
  0
ELLIPSE
  5
6FB
100
AcDbEntity
  8
RACCORDO
100
AcDbEllipse
 62
7
  6
CONTINUOUS
 10
7.7372801014
 20
7.9872686779
 30
0.0
 11
0.3
 21
-0.0
 31
0.0
 40
0.0087268678
 41
1.5707963268
 42
3.1328660073
  0
ELLIPSE
  5
6FC
100
AcDbEntity
  8
RACCORDO
100
AcDbEllipse
 62
7
  6
CONTINUOUS
 10
-7.7372801014
 20
7.9872686779
 30
0.0
 11
0.3
 21
0.0
 31
0.0
 40
0.0087268678
 41
0.0087266463
 42
1.5707963268
  0
ELLIPSE
  5
6FD
100
AcDbEntity
  8
RACCORDO
100
AcDbEllipse
 62
7
  6
CONTINUOUS
 10
-10.3999957691
 20
23.4113248654
 30
0.0
 11
0.0029088041
 21
0.2886641433
 31
0.0
 40
0.8660144118
 41
-4.7007536982
 42
-3.1328662411
  0
ELLIPSE
  5
6FE
100
AcDbEntity
  8
RACCORDO
100
AcDbEllipse
 62
7
  6
CONTINUOUS
 10
9.5208325195
 20
-15.2792978419
 30
0.0
 11
0.0
 21
0.5
 31
0.0
 40
0.0174550649
 41
-1.5707963268
 42
-0.0523598776
  0
ELLIPSE
  5
6FF
100
AcDbEntity
  8
RACCORDO
100
AcDbEllipse
 62
7
  6
CONTINUOUS
 10
-9.5208325195
 20
-15.2792978419
 30
0.0
 11
-0.0
 21
0.5
 31
0.0
 40
0.0174550649
 41
0.0523598776
 42
1.5707963268
  0
ELLIPSE
  5
700
100
AcDbEntity
  8
RACCORDO
100
AcDbEllipse
 62
7
  6
CONTINUOUS
 10
-8.5000042309
 20
23.4113248654
 30
0.0
 11
-0.0029088041
 21
0.2886641433
 31
0.0
 40
0.8660144118
 41
-3.150319066
 42
-1.582431609
  0
ELLIPSE
  5
701
100
AcDbEntity
  8
RACCORDO
100
AcDbEllipse
 62
7
  6
CONTINUOUS
 10
8.9303794106
 20
-0.4127313221
 30
0.0
 11
0.3
 21
-0.0
 31
0.0
 40
0.0087268678
 41
0.3490658504
 42
1.4214970348
  0
ELLIPSE
  5
702
100
AcDbEntity
  8
RACCORDO
100
AcDbEllipse
 62
7
  6
CONTINUOUS
 10
8.9303794106
 20
0.4127313221
 30
0.0
 11
0.3
 21
0.0
 31
0.0
 40
0.0087268678
 41
-1.4214970348
 42
-0.3490658504
  0
ELLIPSE
  5
703
100
AcDbEntity
  8
RACCORDO
100
AcDbEllipse
 62
7
  6
CONTINUOUS
 10
-8.9303794106
 20
0.4127313221
 30
0.0
 11
0.3
 21
-0.0
 31
0.0
 40
0.0087268678
 41
-2.7925268032
 42
-1.8917674159
  0
ELLIPSE
  5
704
100
AcDbEntity
  8
RACCORDO
100
AcDbEllipse
 62
7
  6
CONTINUOUS
 10
-8.9303794106
 20
-0.4127313221
 30
0.0
 11
0.3
 21
0.0
 31
0.0
 40
0.0087268678
 41
1.8917674159
 42
2.7925268032
  0
ELLIPSE
  5
705
100
AcDbEntity
  8
RACCORDO
100
AcDbEllipse
 62
7
  6
CONTINUOUS
 10
8.9303794106
 20
-7.2872686779
 30
0.0
 11
0.3
 21
0.0
 31
0.0
 40
0.0087268678
 41
-1.4214970348
 42
-0.3490658504
  0
ELLIPSE
  5
706
100
AcDbEntity
  8
RACCORDO
100
AcDbEllipse
 62
7
  6
CONTINUOUS
 10
8.5000042309
 20
23.4113248654
 30
0.0
 11
0.0029088041
 21
0.2886641433
 31
0.0
 40
0.8660144118
 41
-4.7007536982
 42
-3.1328662411
  0
ELLIPSE
  5
707
100
AcDbEntity
  8
RACCORDO
100
AcDbEllipse
 62
7
  6
CONTINUOUS
 10
10.3999957691
 20
23.4113248654
 30
0.0
 11
-0.0029088041
 21
0.2886641433
 31
0.0
 40
0.8660144118
 41
-3.150319066
 42
-1.582431609
  0
ELLIPSE
  5
708
100
AcDbEntity
  8
RACCORDO
100
AcDbEllipse
 62
7
  6
CONTINUOUS
 10
-8.9303794106
 20
-7.2872686779
 30
0.0
 11
0.3
 21
-0.0
 31
0.0
 40
0.0087268678
 41
-2.7925268032
 42
-1.8917674159
  0
ELLIPSE
  5
709
100
AcDbEntity
  8
RACCORDO
100
AcDbEllipse
 62
7
  6
CONTINUOUS
 10
-8.9303794106
 20
-11.5872686779
 30
0.0
 11
0.3
 21
0.0
 31
0.0
 40
0.0087268678
 41
-2.7925268032
 42
-1.5707963268
  0
ELLIPSE
  5
70A
100
AcDbEntity
  8
RACCORDO
100
AcDbEllipse
 62
7
  6
CONTINUOUS
 10
8.9303794106
 20
7.9872686779
 30
0.0
 11
0.3
 21
0.0
 31
0.0
 40
0.0087268678
 41
0.3490658504
 42
1.5707963268
  0
ELLIPSE
  5
70B
100
AcDbEntity
  8
RACCORDO
100
AcDbEllipse
 62
7
  6
CONTINUOUS
 10
-8.9303794106
 20
7.9872686779
 30
0.0
 11
0.3
 21
0.0
 31
0.0
 40
0.0087268678
 41
1.5707963268
 42
2.7925268032
  0
ELLIPSE
  5
70C
100
AcDbEntity
  8
RACCORDO
100
AcDbEllipse
 62
7
  6
CONTINUOUS
 10
-7.5841007192
 20
-20.9916321118
 30
0.0
 11
0.5
 21
-0.0
 31
0.0
 40
0.0087268678
 41
-3.1241393611
 42
-1.5707963268
  0
ELLIPSE
  5
70D
100
AcDbEntity
  8
RACCORDO
100
AcDbEllipse
 62
7
  6
CONTINUOUS
 10
7.5841007192
 20
-20.9916321118
 30
0.0
 11
0.5
 21
-0.0
 31
0.0
 40
0.0087268678
 41
-1.5707963268
 42
-0.0174532925
  0
ELLIPSE
  5
70E
100
AcDbEntity
  8
RACCORDO
100
AcDbEllipse
 62
7
  6
CONTINUOUS
 10
-7.5841007192
 20
20.9916321118
 30
0.0
 11
0.5
 21
0.0
 31
0.0
 40
0.0087268678
 41
1.5707963268
 42
3.1241393611
  0
ELLIPSE
  5
70F
100
AcDbEntity
  8
RACCORDO
100
AcDbEllipse
 62
7
  6
CONTINUOUS
 10
7.5841007192
 20
20.9916321118
 30
0.0
 11
0.5
 21
-0.0
 31
0.0
 40
0.0087268678
 41
0.0174532925
 42
1.5707963268
  0
ELLIPSE
  5
710
100
AcDbEntity
  8
RACCORDO
100
AcDbEllipse
 62
7
  6
CONTINUOUS
 10
-6.5552693832
 20
-20.5829242832
 30
0.0
 11
0.0
 21
0.5
 31
0.0
 40
0.0058178298
 41
0.0087266463
 42
1.5707963268
  0
ELLIPSE
  5
711
100
AcDbEntity
  8
RACCORDO
100
AcDbEllipse
 62
7
  6
CONTINUOUS
 10
6.5552693832
 20
-20.5829242832
 30
0.0
 11
0.0
 21
0.5
 31
0.0
 40
0.0058178298
 41
-1.5707963268
 42
-0.0087266463
  0
ELLIPSE
  5
712
100
AcDbEntity
  8
RACCORDO
100
AcDbEllipse
 62
7
  6
CONTINUOUS
 10
6.5552693832
 20
20.5829242832
 30
0.0
 11
0.0
 21
0.5
 31
0.0
 40
0.0058178298
 41
-3.1328660073
 42
-1.5707963268
  0
ELLIPSE
  5
713
100
AcDbEntity
  8
RACCORDO
100
AcDbEllipse
 62
7
  6
CONTINUOUS
 10
-6.5552693832
 20
20.5829242832
 30
0.0
 11
-0.0
 21
0.5
 31
0.0
 40
0.0058178298
 41
-4.7123889804
 42
-3.1503192998
  0
ELLIPSE
  5
714
100
AcDbEntity
  8
DRAFT
100
AcDbEllipse
 62
7
  6
CONTINUOUS
 10
-3.9279699877
 20
22.3339198952
 30
0.0
 11
0.4279699877
 21
-0.0
 31
0.0
 40
0.0087268678
 41
-3.1357748894
 42
-0.0
  0
ELLIPSE
  5
715
100
AcDbEntity
  8
DRAFT
100
AcDbEllipse
 62
7
  6
CONTINUOUS
 10
3.9279699877
 20
22.3339198952
 30
0.0
 11
0.4279699877
 21
-0.0
 31
0.0
 40
0.0087268678
 41
-3.1415926536
 42
-0.0058177642
  0
ELLIPSE
  5
716
100
AcDbEntity
  8
DRAFT
100
AcDbEllipse
 62
7
  6
CONTINUOUS
 10
-3.9279699877
 20
-22.3339198952
 30
0.0
 11
0.4279699877
 21
0.0
 31
0.0
 40
0.0087268678
 41
-0.0
 42
3.1357748894
  0
ELLIPSE
  5
717
100
AcDbEntity
  8
DRAFT
100
AcDbEllipse
 62
7
  6
CONTINUOUS
 10
3.9279699877
 20
-22.3339198952
 30
0.0
 11
0.4279699877
 21
0.0
 31
0.0
 40
0.0087268678
 41
0.0058177642
 42
3.1415926536
  0
ELLIPSE
  5
718
100
AcDbEntity
  8
RACCORDO
100
AcDbEllipse
 62
7
  6
CONTINUOUS
 10
-6.1999543016
 20
-13.5000456984
 30
0.0
 11
0.2121966568
 21
-0.2121966568
 31
0.0
 40
0.9996954599
 41
2.3563467834
 42
3.9268385237
  0
ELLIPSE
  5
719
100
AcDbEntity
  8
RACCORDO
100
AcDbEllipse
 62
7
  6
CONTINUOUS
 10
6.1999543016
 20
-13.5000456984
 30
0.0
 11
-0.2121966568
 21
-0.2121966568
 31
0.0
 40
0.9996954599
 41
2.3563467834
 42
3.9268385237
  0
ELLIPSE
  5
71A
100
AcDbEntity
  8
RACCORDO
100
AcDbEllipse
 62
7
  6
CONTINUOUS
 10
6.1999543016
 20
10.2000456984
 30
0.0
 11
-0.2121966568
 21
0.2121966568
 31
0.0
 40
0.9996954599
 41
2.3563467834
 42
3.9268385237
  0
ELLIPSE
  5
71B
100
AcDbEntity
  8
RACCORDO
100
AcDbEllipse
 62
7
  6
CONTINUOUS
 10
-6.1999543016
 20
10.2000456984
 30
0.0
 11
0.2121966568
 21
0.2121966568
 31
0.0
 40
0.9996954599
 41
2.3563467834
 42
3.9268385237
  0
ELLIPSE
  5
71C
100
AcDbEntity
  8
RACCORDO
100
AcDbEllipse
 62
7
  6
CONTINUOUS
 10
10.649923836
 20
21.891254093
 30
0.0
 11
0.4473055582
 21
-0.2236357461
 31
0.0
 40
0.9998096356
 41
6.7467263073
 42
8.3176749331
  0
ELLIPSE
  5
71D
100
AcDbEntity
  8
RACCORDO
100
AcDbEllipse
 62
7
  6
CONTINUOUS
 10
6.9100942226
 20
-13.3100942226
 30
0.0
 11
-0.3535803156
 21
0.3535803156
 31
0.0
 40
0.9999238505
 41
2.3562325664
 42
3.9269527408
  0
ELLIPSE
  5
71E
100
AcDbEntity
  8
RACCORDO
100
AcDbEllipse
 62
7
  6
CONTINUOUS
 10
-6.9100942226
 20
-13.3100942226
 30
0.0
 11
-0.3535803156
 21
-0.3535803156
 31
0.0
 40
0.9999238505
 41
-0.7853600872
 42
0.7853600872
  0
ELLIPSE
  5
71F
100
AcDbEntity
  8
RACCORDO
100
AcDbEllipse
 62
7
  6
CONTINUOUS
 10
-10.649923836
 20
21.891254093
 30
0.0
 11
0.4473055582
 21
0.2236357461
 31
0.0
 40
0.9998096356
 41
7.3902883349
 42
8.9612369607
  0
ELLIPSE
  5
720
100
AcDbEntity
  8
RACCORDO
100
AcDbEllipse
 62
7
  6
CONTINUOUS
 10
9.0870856022
 20
-20.2106458216
 30
0.0
 11
-0.1582391023
 21
0.4751033573
 31
0.0
 40
0.9984778551
 41
2.8205423031
 42
4.3904252414
  0
ELLIPSE
  5
721
100
AcDbEntity
  8
RACCORDO
100
AcDbEllipse
 62
7
  6
CONTINUOUS
 10
10.649923836
 20
-21.891254093
 30
0.0
 11
-0.4473055582
 21
-0.2236357461
 31
0.0
 40
0.9998096356
 41
7.3902883349
 42
8.9612369607
  0
ELLIPSE
  5
722
100
AcDbEntity
  8
RACCORDO
100
AcDbEllipse
 62
7
  6
CONTINUOUS
 10
9.149923836
 20
-20.399313827
 30
0.0
 11
-0.1582391023
 21
0.4751033573
 31
0.0
 40
0.9984778551
 41
-3.4626430041
 42
-1.8927600658
  0
ELLIPSE
  5
723
100
AcDbEntity
  8
RACCORDO
100
AcDbEllipse
 62
7
  6
CONTINUOUS
 10
9.149923836
 20
20.399313827
 30
0.0
 11
0.1582391023
 21
0.4751033573
 31
0.0
 40
0.9984778551
 41
-1.2488325878
 42
0.3210503505
  0
ELLIPSE
  5
724
100
AcDbEntity
  8
RACCORDO
100
AcDbEllipse
 62
7
  6
CONTINUOUS
 10
8.9945737581
 20
19.9328845914
 30
0.0
 11
-0.1582391023
 21
-0.4751033573
 31
0.0
 40
0.9984778551
 41
1.8927600658
 42
3.4626430041
  0
ELLIPSE
  5
725
100
AcDbEntity
  8
RACCORDO
100
AcDbEllipse
 62
7
  6
CONTINUOUS
 10
-8.9945737581
 20
19.9328845914
 30
0.0
 11
-0.1582391023
 21
0.4751033573
 31
0.0
 40
0.9984778551
 41
-0.3210503505
 42
1.2488325878
  0
ELLIPSE
  5
726
100
AcDbEntity
  8
RACCORDO
100
AcDbEllipse
 62
7
  6
CONTINUOUS
 10
-9.149923836
 20
20.399313827
 30
0.0
 11
-0.1582391023
 21
0.4751033573
 31
0.0
 40
0.9984778551
 41
-0.3210503505
 42
1.2488325878
  0
ELLIPSE
  5
727
100
AcDbEntity
  8
RACCORDO
100
AcDbEllipse
 62
7
  6
CONTINUOUS
 10
-9.149923836
 20
-20.399313827
 30
0.0
 11
0.1582391023
 21
0.4751033573
 31
0.0
 40
0.9984778551
 41
-4.3904252414
 42
-2.8205423031
  0
ELLIPSE
  5
728
100
AcDbEntity
  8
RACCORDO
100
AcDbEllipse
 62
7
  6
CONTINUOUS
 10
-9.0870856022
 20
-20.2106458216
 30
0.0
 11
-0.1582391023
 21
-0.4751033573
 31
0.0
 40
0.9984778551
 41
-1.2488325878
 42
0.3210503505
  0
ELLIPSE
  5
729
100
AcDbEntity
  8
RACCORDO
100
AcDbEllipse
 62
7
  6
CONTINUOUS
 10
-4.2
 20
-19.9973819397
 30
0.0
 11
0.3
 21
-0.0
 31
0.0
 40
0.0087268678
 41
-3.1415926536
 42
-1.5707963268
  0
ELLIPSE
  5
72A
100
AcDbEntity
  8
RACCORDO
100
AcDbEllipse
 62
7
  6
CONTINUOUS
 10
7.3238531022
 20
-19.8
 30
0.0
 11
0.0
 21
0.5
 31
0.0
 40
0.0058178298
 41
0.0
 42
1.5707963268
  0
ELLIPSE
  5
72B
100
AcDbEntity
  8
RACCORDO
100
AcDbEllipse
 62
7
  6
CONTINUOUS
 10
-6.9100942226
 20
10.3100942226
 30
0.0
 11
-0.3535803156
 21
0.3535803156
 31
0.0
 40
0.9999238505
 41
-0.7853600872
 42
0.7853600872
  0
ELLIPSE
  5
72C
100
AcDbEntity
  8
RACCORDO
100
AcDbEllipse
 62
7
  6
CONTINUOUS
 10
6.4761468978
 20
-19.8
 30
0.0
 11
-0.0
 21
0.5
 31
0.0
 40
0.0058178298
 41
-1.5707963268
 42
0.0
  0
ELLIPSE
  5
72D
100
AcDbEntity
  8
RACCORDO
100
AcDbEllipse
 62
7
  6
CONTINUOUS
 10
6.9100942226
 20
10.3100942226
 30
0.0
 11
-0.3535803156
 21
-0.3535803156
 31
0.0
 40
0.9999238505
 41
2.3562325664
 42
3.9269527408
  0
ELLIPSE
  5
72E
100
AcDbEntity
  8
RACCORDO
100
AcDbEllipse
 62
7
  6
CONTINUOUS
 10
-10.649923836
 20
-21.891254093
 30
0.0
 11
-0.4473055582
 21
0.2236357461
 31
0.0
 40
0.9998096356
 41
6.7467263073
 42
8.3176749331
  0
ELLIPSE
  5
72F
100
AcDbEntity
  8
ASSI
100
AcDbEllipse
 62
7
  6
CONTINUOUS
 10
-6.9999809608
 20
10.3999809608
 30
0.0
 11
0.3535803156
 21
-0.3535803156
 31
0.0
 40
0.9999238505
 41
2.3562325664
 42
3.9269527408
  0
ELLIPSE
  5
730
100
AcDbEntity
  8
ASSI
100
AcDbEllipse
 62
7
  6
CONTINUOUS
 10
6.9999809608
 20
10.3999809608
 30
0.0
 11
0.3535803156
 21
0.3535803156
 31
0.0
 40
0.9999238505
 41
-0.7853600872
 42
0.7853600871
  0
ELLIPSE
  5
731
100
AcDbEntity
  8
ASSI
100
AcDbEllipse
 62
7
  6
CONTINUOUS
 10
6.9999809608
 20
-13.3999809608
 30
0.0
 11
0.3535803156
 21
-0.3535803156
 31
0.0
 40
0.9999238505
 41
-0.7853600872
 42
0.7853600872
  0
ELLIPSE
  5
732
100
AcDbEntity
  8
ASSI
100
AcDbEllipse
 62
7
  6
CONTINUOUS
 10
-6.9999809608
 20
-13.3999809608
 30
0.0
 11
0.3535803156
 21
0.3535803156
 31
0.0
 40
0.9999238505
 41
-3.9269527408
 42
-2.3562325664
  0
ELLIPSE
  5
733
100
AcDbEntity
  8
ASSI
100
AcDbEllipse
 62
7
  6
CONTINUOUS
 10
-10.3999957691
 20
-23.4113248654
 30
0.0
 11
-0.0029088041
 21
0.2886641433
 31
0.0
 40
0.8660144118
 41
-0.0087264124
 42
1.5591610446
  0
ELLIPSE
  5
734
100
AcDbEntity
  8
ASSI
100
AcDbEllipse
 62
7
  6
CONTINUOUS
 10
8.9303794106
 20
-12.4127313221
 30
0.0
 11
0.3
 21
0.0
 31
0.0
 40
0.0087268678
 41
0.3490658504
 42
1.5707963268
  0
ELLIPSE
  5
735
100
AcDbEntity
  8
ASSI
100
AcDbEllipse
 62
7
  6
CONTINUOUS
 10
-8.5000042309
 20
-23.4113248654
 30
0.0
 11
0.0029088041
 21
0.2886641433
 31
0.0
 40
0.8660144118
 41
-1.5591610446
 42
0.0087264124
  0
ELLIPSE
  5
736
100
AcDbEntity
  8
ASSI
100
AcDbEllipse
 62
7
  6
CONTINUOUS
 10
8.5000042309
 20
-23.4113248654
 30
0.0
 11
-0.0029088041
 21
0.2886641433
 31
0.0
 40
0.8660144118
 41
-0.0087264124
 42
1.5591610446
  0
ELLIPSE
  5
737
100
AcDbEntity
  8
ASSI
100
AcDbEllipse
 62
7
  6
CONTINUOUS
 10
-8.9303794106
 20
-12.4127313221
 30
0.0
 11
0.3
 21
0.0
 31
0.0
 40
0.0087268678
 41
1.5707963268
 42
2.7925268032
  0
ELLIPSE
  5
738
100
AcDbEntity
  8
ASSI
100
AcDbEllipse
 62
7
  6
CONTINUOUS
 10
8.9303794106
 20
8.8127313221
 30
0.0
 11
0.3
 21
0.0
 31
0.0
 40
0.0087268678
 41
-1.5707963268
 42
-0.3490658504
  0
ELLIPSE
  5
739
100
AcDbEntity
  8
ASSI
100
AcDbEllipse
 62
7
  6
CONTINUOUS
 10
-8.9303794106
 20
8.8127313221
 30
0.0
 11
0.3
 21
-0.0
 31
0.0
 40
0.0087268678
 41
-2.7925268032
 42
-1.5707963268
  0
ELLIPSE
  5
73A
100
AcDbEntity
  8
ASSI
100
AcDbEllipse
 62
7
  6
CONTINUOUS
 10
10.3999957691
 20
-23.4113248654
 30
0.0
 11
0.0029088041
 21
0.2886641433
 31
0.0
 40
0.8660144118
 41
-1.5591610446
 42
0.0087264124
  0
ELLIPSE
  5
73B
100
AcDbEntity
  8
ASSI
100
AcDbEllipse
 62
7
  6
CONTINUOUS
 10
6.8122642439
 20
10.8127313221
 30
0.0
 11
0.3
 21
0.0
 31
0.0
 40
0.0087268678
 41
-3.1241393611
 42
-1.5707963268
  0
ELLIPSE
  5
73C
100
AcDbEntity
  8
ASSI
100
AcDbEllipse
 62
7
  6
CONTINUOUS
 10
-6.8122642439
 20
10.8127313221
 30
0.0
 11
0.3
 21
0.0
 31
0.0
 40
0.0087268678
 41
-1.5707963268
 42
-0.0174532925
  0
ELLIPSE
  5
73D
100
AcDbEntity
  8
ASSI
100
AcDbEllipse
 62
7
  6
CONTINUOUS
 10
-10.3999957691
 20
23.4113248654
 30
0.0
 11
0.0029088041
 21
0.2886641433
 31
0.0
 40
0.8660144118
 41
-4.7007536982
 42
-3.1328662411
  0
ELLIPSE
  5
73E
100
AcDbEntity
  8
ASSI
100
AcDbEllipse
 62
7
  6
CONTINUOUS
 10
-6.8122642439
 20
-13.8127313221
 30
0.0
 11
0.3
 21
0.0
 31
0.0
 40
0.0087268678
 41
0.0174532925
 42
1.5707963268
  0
ELLIPSE
  5
73F
100
AcDbEntity
  8
ASSI
100
AcDbEllipse
 62
7
  6
CONTINUOUS
 10
6.8122642439
 20
-13.8127313221
 30
0.0
 11
0.3
 21
-0.0
 31
0.0
 40
0.0087268678
 41
1.5707963268
 42
3.1241393611
  0
ELLIPSE
  5
740
100
AcDbEntity
  8
ASSI
100
AcDbEllipse
 62
7
  6
CONTINUOUS
 10
-8.5000042309
 20
23.4113248654
 30
0.0
 11
-0.0029088041
 21
0.2886641433
 31
0.0
 40
0.8660144118
 41
-3.150319066
 42
-1.582431609
  0
ELLIPSE
  5
741
100
AcDbEntity
  8
ASSI
100
AcDbEllipse
 62
7
  6
CONTINUOUS
 10
7.7372801014
 20
7.9872686779
 30
0.0
 11
0.3
 21
-0.0
 31
0.0
 40
0.0087268678
 41
1.5707963268
 42
3.1328660073
  0
ELLIPSE
  5
742
100
AcDbEntity
  8
ASSI
100
AcDbEllipse
 62
7
  6
CONTINUOUS
 10
9.5208325195
 20
-15.2792978419
 30
0.0
 11
0.0
 21
0.5
 31
0.0
 40
0.0174550649
 41
-1.5707963268
 42
-0.0523598776
  0
ELLIPSE
  5
743
100
AcDbEntity
  8
ASSI
100
AcDbEllipse
 62
7
  6
CONTINUOUS
 10
-9.5208325195
 20
-15.2792978419
 30
0.0
 11
-0.0
 21
0.5
 31
0.0
 40
0.0174550649
 41
0.0523598776
 42
1.5707963268
  0
ELLIPSE
  5
744
100
AcDbEntity
  8
ASSI
100
AcDbEllipse
 62
7
  6
CONTINUOUS
 10
10.649923836
 20
21.891254093
 30
0.0
 11
0.4473055582
 21
-0.2236357461
 31
0.0
 40
0.9998096356
 41
6.7467263073
 42
8.3176749331
  0
ELLIPSE
  5
745
100
AcDbEntity
  8
ASSI
100
AcDbEllipse
 62
7
  6
CONTINUOUS
 10
8.9303794106
 20
-0.4127313221
 30
0.0
 11
0.3
 21
-0.0
 31
0.0
 40
0.0087268678
 41
0.3490658504
 42
1.4214970348
  0
ELLIPSE
  5
746
100
AcDbEntity
  8
ASSI
100
AcDbEllipse
 62
7
  6
CONTINUOUS
 10
8.9303794106
 20
0.4127313221
 30
0.0
 11
0.3
 21
0.0
 31
0.0
 40
0.0087268678
 41
-1.4214970348
 42
-0.3490658504
  0
ELLIPSE
  5
747
100
AcDbEntity
  8
ASSI
100
AcDbEllipse
 62
7
  6
CONTINUOUS
 10
-8.9303794106
 20
0.4127313221
 30
0.0
 11
0.3
 21
-0.0
 31
0.0
 40
0.0087268678
 41
-2.7925268032
 42
-1.8917674159
  0
ELLIPSE
  5
748
100
AcDbEntity
  8
ASSI
100
AcDbEllipse
 62
7
  6
CONTINUOUS
 10
8.5000042309
 20
23.4113248654
 30
0.0
 11
0.0029088041
 21
0.2886641433
 31
0.0
 40
0.8660144118
 41
-4.7007536982
 42
-3.1328662411
  0
ELLIPSE
  5
749
100
AcDbEntity
  8
ASSI
100
AcDbEllipse
 62
7
  6
CONTINUOUS
 10
10.3999957691
 20
23.4113248654
 30
0.0
 11
-0.0029088041
 21
0.2886641433
 31
0.0
 40
0.8660144118
 41
-3.150319066
 42
-1.582431609
  0
ELLIPSE
  5
74A
100
AcDbEntity
  8
ASSI
100
AcDbEllipse
 62
7
  6
CONTINUOUS
 10
-8.9303794106
 20
-0.4127313221
 30
0.0
 11
0.3
 21
0.0
 31
0.0
 40
0.0087268678
 41
1.8917674159
 42
2.7925268032
  0
ELLIPSE
  5
74B
100
AcDbEntity
  8
ASSI
100
AcDbEllipse
 62
7
  6
CONTINUOUS
 10
8.9303794106
 20
-7.2872686779
 30
0.0
 11
0.3
 21
0.0
 31
0.0
 40
0.0087268678
 41
-1.4214970348
 42
-0.3490658504
  0
ELLIPSE
  5
74C
100
AcDbEntity
  8
ASSI
100
AcDbEllipse
 62
7
  6
CONTINUOUS
 10
-8.9303794106
 20
-7.2872686779
 30
0.0
 11
0.3
 21
-0.0
 31
0.0
 40
0.0087268678
 41
-2.7925268032
 42
-1.8917674159
  0
ELLIPSE
  5
74D
100
AcDbEntity
  8
ASSI
100
AcDbEllipse
 62
7
  6
CONTINUOUS
 10
6.4761468978
 20
-19.8
 30
0.0
 11
-0.0
 21
0.5
 31
0.0
 40
0.0058178298
 41
-1.5707963268
 42
0.0
  0
ELLIPSE
  5
74E
100
AcDbEntity
  8
ASSI
100
AcDbEllipse
 62
7
  6
CONTINUOUS
 10
-4.2
 20
-19.9973819397
 30
0.0
 11
0.3
 21
-0.0
 31
0.0
 40
0.0087268678
 41
-3.1415926536
 42
-1.5707963268
  0
ELLIPSE
  5
74F
100
AcDbEntity
  8
ASSI
100
AcDbEllipse
 62
7
  6
CONTINUOUS
 10
-7.5841007192
 20
-20.9916321118
 30
0.0
 11
0.5
 21
-0.0
 31
0.0
 40
0.0087268678
 41
-3.1241393611
 42
-1.5707963268
  0
ELLIPSE
  5
750
100
AcDbEntity
  8
ASSI
100
AcDbEllipse
 62
7
  6
CONTINUOUS
 10
7.5841007192
 20
-20.9916321118
 30
0.0
 11
0.5
 21
-0.0
 31
0.0
 40
0.0087268678
 41
-1.5707963268
 42
-0.0174532925
  0
ELLIPSE
  5
751
100
AcDbEntity
  8
ASSI
100
AcDbEllipse
 62
7
  6
CONTINUOUS
 10
-10.649923836
 20
-21.891254093
 30
0.0
 11
-0.4473055582
 21
0.2236357461
 31
0.0
 40
0.9998096356
 41
6.7467263073
 42
8.3176749331
  0
ELLIPSE
  5
752
100
AcDbEntity
  8
ASSI
100
AcDbEllipse
 62
7
  6
CONTINUOUS
 10
-7.5841007192
 20
20.9916321118
 30
0.0
 11
0.5
 21
0.0
 31
0.0
 40
0.0087268678
 41
1.5707963268
 42
3.1241393611
  0
ELLIPSE
  5
753
100
AcDbEntity
  8
ASSI
100
AcDbEllipse
 62
7
  6
CONTINUOUS
 10
4.2
 20
-19.9973819397
 30
0.0
 11
0.3
 21
-0.0
 31
0.0
 40
0.0087268678
 41
-1.5707963268
 42
-0.0
  0
ELLIPSE
  5
754
100
AcDbEntity
  8
ASSI
100
AcDbEllipse
 62
7
  6
CONTINUOUS
 10
7.5841007192
 20
20.9916321118
 30
0.0
 11
0.5
 21
-0.0
 31
0.0
 40
0.0087268678
 41
0.0174532925
 42
1.5707963268
  0
ELLIPSE
  5
755
100
AcDbEntity
  8
ASSI
100
AcDbEllipse
 62
7
  6
CONTINUOUS
 10
-6.5552693832
 20
-20.5829242832
 30
0.0
 11
0.0
 21
0.5
 31
0.0
 40
0.0058178298
 41
0.0087266463
 42
1.5707963268
  0
ELLIPSE
  5
756
100
AcDbEntity
  8
ASSI
100
AcDbEllipse
 62
7
  6
CONTINUOUS
 10
-7.3238531022
 20
-19.8
 30
0.0
 11
-0.0
 21
0.5
 31
0.0
 40
0.0058178298
 41
-1.5707963268
 42
0.0
  0
ELLIPSE
  5
757
100
AcDbEntity
  8
ASSI
100
AcDbEllipse
 62
7
  6
CONTINUOUS
 10
6.5552693832
 20
-20.5829242832
 30
0.0
 11
0.0
 21
0.5
 31
0.0
 40
0.0058178298
 41
-1.5707963268
 42
-0.0087266463
  0
ELLIPSE
  5
758
100
AcDbEntity
  8
ASSI
100
AcDbEllipse
 62
7
  6
CONTINUOUS
 10
6.5552693832
 20
20.5829242832
 30
0.0
 11
0.0
 21
0.5
 31
0.0
 40
0.0058178298
 41
-3.1328660073
 42
-1.5707963268
  0
ELLIPSE
  5
759
100
AcDbEntity
  8
ASSI
100
AcDbEllipse
 62
7
  6
CONTINUOUS
 10
7.3238531022
 20
-19.8
 30
0.0
 11
0.0
 21
0.5
 31
0.0
 40
0.0058178298
 41
0.0
 42
1.5707963268
  0
ELLIPSE
  5
75A
100
AcDbEntity
  8
ASSI
100
AcDbEllipse
 62
7
  6
CONTINUOUS
 10
-6.5552693832
 20
20.5829242832
 30
0.0
 11
-0.0
 21
0.5
 31
0.0
 40
0.0058178298
 41
-4.7123889804
 42
-3.1503192998
  0
ELLIPSE
  5
75B
100
AcDbEntity
  8
ASSI
100
AcDbEllipse
 62
7
  6
CONTINUOUS
 10
-3.9279699877
 20
22.3339198952
 30
0.0
 11
0.4279699877
 21
-0.0
 31
0.0
 40
0.0087268678
 41
-3.1357748894
 42
-0.0
  0
ELLIPSE
  5
75C
100
AcDbEntity
  8
ASSI
100
AcDbEllipse
 62
7
  6
CONTINUOUS
 10
3.9279699877
 20
22.3339198952
 30
0.0
 11
0.4279699877
 21
-0.0
 31
0.0
 40
0.0087268678
 41
-3.1415926536
 42
-0.0058177642
  0
ELLIPSE
  5
75D
100
AcDbEntity
  8
ASSI
100
AcDbEllipse
 62
7
  6
CONTINUOUS
 10
-3.9279699877
 20
-22.3339198952
 30
0.0
 11
0.4279699877
 21
0.0
 31
0.0
 40
0.0087268678
 41
-0.0
 42
3.1357748894
  0
ELLIPSE
  5
75E
100
AcDbEntity
  8
ASSI
100
AcDbEllipse
 62
7
  6
CONTINUOUS
 10
3.9279699877
 20
-22.3339198952
 30
0.0
 11
0.4279699877
 21
0.0
 31
0.0
 40
0.0087268678
 41
0.0058177642
 42
3.1415926536
  0
ELLIPSE
  5
75F
100
AcDbEntity
  8
ASSI
100
AcDbEllipse
 62
7
  6
CONTINUOUS
 10
-6.4761468978
 20
-19.8
 30
0.0
 11
0.0
 21
0.5
 31
0.0
 40
0.0058178298
 41
0.0
 42
1.5707963268
  0
ELLIPSE
  5
760
100
AcDbEntity
  8
ASSI
100
AcDbEllipse
 62
7
  6
CONTINUOUS
 10
7.3648356752
 20
-9.2043838508
 30
0.0
 11
-0.0
 21
0.3
 31
0.0
 40
0.0087268678
 41
-1.5707963268
 42
-0.1745329252
  0
ELLIPSE
  5
761
100
AcDbEntity
  8
ASSI
100
AcDbEllipse
 62
7
  6
CONTINUOUS
 10
-9.5784342338
 20
-19.8
 30
0.0
 11
-0.0
 21
0.5
 31
0.0
 40
0.0174550649
 41
-0.0
 42
1.5707963268
  0
ELLIPSE
  5
762
100
AcDbEntity
  8
ASSI
100
AcDbEllipse
 62
7
  6
CONTINUOUS
 10
-8.9303794106
 20
-11.5872686779
 30
0.0
 11
0.3
 21
0.0
 31
0.0
 40
0.0087268678
 41
-2.7925268032
 42
-1.5707963268
  0
ELLIPSE
  5
763
100
AcDbEntity
  8
ASSI
100
AcDbEllipse
 62
7
  6
CONTINUOUS
 10
-7.3648356752
 20
-9.2043838508
 30
0.0
 11
0.0
 21
0.3
 31
0.0
 40
0.0087268678
 41
0.1745329252
 42
1.5707963268
  0
ELLIPSE
  5
764
100
AcDbEntity
  8
ASSI
100
AcDbEllipse
 62
7
  6
CONTINUOUS
 10
8.9303794106
 20
7.9872686779
 30
0.0
 11
0.3
 21
0.0
 31
0.0
 40
0.0087268678
 41
0.3490658504
 42
1.5707963268
  0
ELLIPSE
  5
765
100
AcDbEntity
  8
ASSI
100
AcDbEllipse
 62
7
  6
CONTINUOUS
 10
-8.9303794106
 20
7.9872686779
 30
0.0
 11
0.3
 21
0.0
 31
0.0
 40
0.0087268678
 41
1.5707963268
 42
2.7925268032
  0
ELLIPSE
  5
766
100
AcDbEntity
  8
ASSI
100
AcDbEllipse
 62
7
  6
CONTINUOUS
 10
-6.1999543016
 20
-13.5000456984
 30
0.0
 11
0.2121966568
 21
-0.2121966568
 31
0.0
 40
0.9996954599
 41
2.3563467834
 42
3.9268385237
  0
ELLIPSE
  5
767
100
AcDbEntity
  8
ASSI
100
AcDbEllipse
 62
7
  6
CONTINUOUS
 10
6.1999543016
 20
-13.5000456984
 30
0.0
 11
-0.2121966568
 21
-0.2121966568
 31
0.0
 40
0.9996954599
 41
2.3563467834
 42
3.9268385237
  0
ELLIPSE
  5
768
100
AcDbEntity
  8
ASSI
100
AcDbEllipse
 62
7
  6
CONTINUOUS
 10
8.9303794106
 20
-11.5872686779
 30
0.0
 11
0.3
 21
0.0
 31
0.0
 40
0.0087268678
 41
-1.5707963268
 42
-0.3490658504
  0
ELLIPSE
  5
769
100
AcDbEntity
  8
ASSI
100
AcDbEllipse
 62
7
  6
CONTINUOUS
 10
6.1999543016
 20
10.2000456984
 30
0.0
 11
-0.2121966568
 21
0.2121966568
 31
0.0
 40
0.9996954599
 41
2.3563467834
 42
3.9268385237
  0
ELLIPSE
  5
76A
100
AcDbEntity
  8
ASSI
100
AcDbEllipse
 62
7
  6
CONTINUOUS
 10
4.3563662764
 20
-23.2563578147
 30
0.0
 11
0.0
 21
0.5
 31
0.0
 40
0.0058178298
 41
-3.2911896616
 42
-3.1474104178
  0
ELLIPSE
  5
76B
100
AcDbEntity
  8
ASSI
100
AcDbEllipse
 62
7
  6
CONTINUOUS
 10
-4.3563662764
 20
-23.2563578147
 30
0.0
 11
0.0
 21
0.5
 31
0.0
 40
0.0058178298
 41
-3.1357748894
 42
-2.9919956456
  0
ELLIPSE
  5
76C
100
AcDbEntity
  8
ASSI
100
AcDbEllipse
 62
7
  6
CONTINUOUS
 10
-6.1999543016
 20
10.2000456984
 30
0.0
 11
0.2121966568
 21
0.2121966568
 31
0.0
 40
0.9996954599
 41
2.3563467834
 42
3.9268385237
  0
ELLIPSE
  5
76D
100
AcDbEntity
  8
ASSI
100
AcDbEllipse
 62
7
  6
CONTINUOUS
 10
-10.649923836
 20
21.891254093
 30
0.0
 11
0.4473055582
 21
0.2236357461
 31
0.0
 40
0.9998096356
 41
7.3902883349
 42
8.9612369607
  0
ELLIPSE
  5
76E
100
AcDbEntity
  8
ASSI
100
AcDbEllipse
 62
7
  6
CONTINUOUS
 10
10.649923836
 20
-21.891254093
 30
0.0
 11
-0.4473055582
 21
-0.2236357461
 31
0.0
 40
0.9998096356
 41
7.3902883349
 42
8.9612369607
  0
ELLIPSE
  5
76F
100
AcDbEntity
  8
ASSI
100
AcDbEllipse
 62
7
  6
CONTINUOUS
 10
9.5784342338
 20
-19.8
 30
0.0
 11
-0.0
 21
0.5
 31
0.0
 40
0.0174550649
 41
-1.5707963268
 42
0.0
  0
ELLIPSE
  5
770
100
AcDbEntity
  8
ASSI
100
AcDbEllipse
 62
7
  6
CONTINUOUS
 10
6.9100942226
 20
-13.3100942226
 30
0.0
 11
-0.3535803156
 21
0.3535803156
 31
0.0
 40
0.9999238505
 41
2.3562325664
 42
3.9269527408
  0
ELLIPSE
  5
771
100
AcDbEntity
  8
ASSI
100
AcDbEllipse
 62
7
  6
CONTINUOUS
 10
-6.9100942226
 20
-13.3100942226
 30
0.0
 11
-0.3535803156
 21
-0.3535803156
 31
0.0
 40
0.9999238505
 41
-0.7853600872
 42
0.7853600872
  0
ELLIPSE
  5
772
100
AcDbEntity
  8
ASSI
100
AcDbEllipse
 62
7
  6
CONTINUOUS
 10
9.0870856022
 20
-20.2106458216
 30
0.0
 11
-0.1582391023
 21
0.4751033573
 31
0.0
 40
0.9984778551
 41
2.8205423031
 42
4.3904252414
  0
ELLIPSE
  5
773
100
AcDbEntity
  8
ASSI
100
AcDbEllipse
 62
7
  6
CONTINUOUS
 10
9.149923836
 20
-20.399313827
 30
0.0
 11
-0.1582391023
 21
0.4751033573
 31
0.0
 40
0.9984778551
 41
-3.4626430041
 42
-1.8927600658
  0
ELLIPSE
  5
774
100
AcDbEntity
  8
ASSI
100
AcDbEllipse
 62
7
  6
CONTINUOUS
 10
9.149923836
 20
20.399313827
 30
0.0
 11
0.1582391023
 21
0.4751033573
 31
0.0
 40
0.9984778551
 41
-1.2488325878
 42
0.3210503505
  0
ELLIPSE
  5
775
100
AcDbEntity
  8
ASSI
100
AcDbEllipse
 62
7
  6
CONTINUOUS
 10
8.9945737581
 20
19.9328845914
 30
0.0
 11
-0.1582391023
 21
-0.4751033573
 31
0.0
 40
0.9984778551
 41
1.8927600658
 42
3.4626430041
  0
ELLIPSE
  5
776
100
AcDbEntity
  8
ASSI
100
AcDbEllipse
 62
7
  6
CONTINUOUS
 10
-8.9945737581
 20
19.9328845914
 30
0.0
 11
-0.1582391023
 21
0.4751033573
 31
0.0
 40
0.9984778551
 41
-0.3210503505
 42
1.2488325878
  0
ELLIPSE
  5
777
100
AcDbEntity
  8
ASSI
100
AcDbEllipse
 62
7
  6
CONTINUOUS
 10
-9.149923836
 20
20.399313827
 30
0.0
 11
-0.1582391023
 21
0.4751033573
 31
0.0
 40
0.9984778551
 41
-0.3210503505
 42
1.2488325878
  0
ELLIPSE
  5
778
100
AcDbEntity
  8
ASSI
100
AcDbEllipse
 62
7
  6
CONTINUOUS
 10
-9.149923836
 20
-20.399313827
 30
0.0
 11
0.1582391023
 21
0.4751033573
 31
0.0
 40
0.9984778551
 41
-4.3904252414
 42
-2.8205423031
  0
ELLIPSE
  5
779
100
AcDbEntity
  8
ASSI
100
AcDbEllipse
 62
7
  6
CONTINUOUS
 10
-9.0870856022
 20
-20.2106458216
 30
0.0
 11
-0.1582391023
 21
-0.4751033573
 31
0.0
 40
0.9984778551
 41
-1.2488325878
 42
0.3210503505
  0
ELLIPSE
  5
77A
100
AcDbEntity
  8
ASSI
100
AcDbEllipse
 62
7
  6
CONTINUOUS
 10
-6.9100942226
 20
10.3100942226
 30
0.0
 11
-0.3535803156
 21
0.3535803156
 31
0.0
 40
0.9999238505
 41
-0.7853600872
 42
0.7853600872
  0
ELLIPSE
  5
77B
100
AcDbEntity
  8
ASSI
100
AcDbEllipse
 62
7
  6
CONTINUOUS
 10
6.9100942226
 20
10.3100942226
 30
0.0
 11
-0.3535803156
 21
-0.3535803156
 31
0.0
 40
0.9999238505
 41
2.3562325664
 42
3.9269527408
  0
ENDSEC
  0
SECTION
  2
OBJECTS
  0
DICTIONARY
  5
C
100
AcDbDictionary
280
0
281
1
  3
ACAD_GROUP
350
D
  3
ACAD_MLINESTYLE
350
17
  3
ACAD_LAYOUT
350
1A
  3
ACAD_PLOTSETTINGS
350
19
  3
ACAD_PLOTSTYLENAME
350
E
  0
DICTIONARY
  5
D
102
{ACAD_REACTORS
330
C
102
}
100
AcDbDictionary
280
0
281
1
  0
ACDBDICTIONARYWDFLT
  5
E
102
{ACAD_REACTORS
330
C
102
}
100
AcDbDictionary
281
1
  3
Normal
350
F
100
AcDbDictionaryWithDefault
340
F
  0
DICTIONARY
  5
17
102
{ACAD_REACTORS
330
C
102
}
100
AcDbDictionary
280
0
281
1
  3
Standard
350
18
  0
DICTIONARY
  5
19
102
{ACAD_REACTORS
330
C
102
}
100
AcDbDictionary
281
1
  0
DICTIONARY
  5
1A
102
{ACAD_REACTORS
330
C
102
}
100
AcDbDictionary
281
1
  3
Model
350
77C
  3
Layout1
350
77D
  0
ACDBPLACEHOLDER
  5
F
102
{ACAD_REACTORS
330
E
102
}
  0
MLINESTYLE
  5
18
102
{ACAD_REACTORS
330
17
102
}
100
AcDbMlineStyle
  2
STANDARD
 70
0
  3

 62
256
 51
90.0
 52
90.0
 71
2
 49
0.5
 62
256
  6
BYLAYER
 49
-0.5
 62
256
  6
BYLAYER
  0
LAYOUT
  5
77C
102
{ACAD_REACTORS
330
1A
102
}
100
AcDbPlotSettings
  1

  2
none_device
  4
ISO_A4_(297.00_x_210.00_MM)
  6

 40
0.0
 41
0.0
 42
0.0
 43
0.0
 44
297.0
 45
210.0
 46
0.0
 47
0.0
 48
0.0
 49
0.0
140
0.0
141
0.0
142
1.0
143
1.0
 70
1024
 72
1
 73
0
 74
0
  7

 75
0
147
1.0
148
0.0
149
0.0
100
AcDbLayout
  1
Model
 70
0
 71
0
 10
0.0
 20
0.0
 11
297.0
 21
210.0
 12
0.0
 22
0.0
 32
0.0
 14
0.0
 24
0.0
 34
0.0
 15
0.0
 25
0.0
 35
0.0
146
0.0
 13
0.0
 23
0.0
 33
0.0
 16
1.0
 26
0.0
 36
0.0
 17
0.0
 27
1.0
 37
0.0
 76
0
330
232
345
0
346
0
  0
LAYOUT
  5
77D
102
{ACAD_REACTORS
330
1A
102
}
100
AcDbPlotSettings
  1

  2
none_device
  4
ISO_A4_(297.00_x_210.00_MM)
  6

 40
0.0
 41
0.0
 42
0.0
 43
0.0
 44
297.0
 45
210.0
 46
0.0
 47
0.0
 48
0.0
 49
0.0
140
0.0
141
0.0
142
1.0
143
1.0
 70
0
 72
1
 73
0
 74
0
  7

 75
0
147
1.0
148
0.0
149
0.0
100
AcDbLayout
  1
Layout1
 70
0
 71
1
 10
0.0
 20
0.0
 11
297.0
 21
210.0
 12
0.0
 22
0.0
 32
0.0
 14
0.0
 24
0.0
 34
0.0
 15
0.0
 25
0.0
 35
0.0
146
0.0
 13
0.0
 23
0.0
 33
0.0
 16
1.0
 26
0.0
 36
0.0
 17
0.0
 27
1.0
 37
0.0
 76
0
330
233
345
0
346
0
  0
ENDSEC
  0
EOF
