  0
SECTION
  2
HEADER
  9
$ACADVER
  1
AC1024
  9
$DWGCODEPAGE
  3
ANSI_1252
  9
$EXTMAX
 10
297.0
 20
210.0
 30
0.0
  9
$EXTMIN
 10
0.0
 20
0.0
 30
0.0
  9
$LIMMIN
 10
0.0
 20
0.0
  9
$LIMMAX
 10
297.0
 20
210.0
  9
$VIEWCTR
 10
148.5
 20
105.0
  9
$VIEWSIZE
 40
210.0
  9
$CLAYER
  8
0
  9
$LTSCALE
 40
16.335
  9
$CELTYPE
  6
BYLAYER
  9
$DIMSCALE
 40
1.0
  9
$DIMASZ
 40
3.0
  9
$DIMEXO
 40
0.5
  9
$DIMDLI
 40
11.286
  9
$DIMEXE
 40
1.5
  9
$DIMCEN
 40
2.673
  9
$DIMLFAC
 40
1.0
  9
$DIMBLK
  1
_FILLED
  9
$DIMALT
 70
0
  9
$DIMALTF
 40
0.0393700787
  9
$DIMTXT
 40
3.0
  9
$DIMTOL
 70
1
  9
$DIMLIM
 70
0
  9
$DIMTFAC
 40
1.0
  9
$DIMTP
 40
0.01
  9
$DIMTM
 40
0.01
  9
$DIMGAP
 40
0.625
  9
$DIMDSEP
 70
44
  9
$AUNITS
 70
0
  9
$PDMODE
 70
3
  9
$PDSIZE
 40
3.0
  9
$HANDSEED
  5
5CF
  9
$TILEMODE
 70
1
  9
$MEASUREMENT
 70
1
  9
$INSUNITS
 70
4
  0
ENDSEC
  0
SECTION
  2
CLASSES
  0
CLASS
  1
ACDBDICTIONARYWDFLT
  2
AcDbDictionaryWithDefault
  3
AutoCAD 2000
 90
0
 91
1
280
0
281
0
  0
CLASS
  1
ACDBPLACEHOLDER
  2
AcDbPlaceHolder
  3
AutoCAD 2000
 90
0
 91
1
280
0
281
0
  0
CLASS
  1
LAYOUT
  2
AcDbLayout
  3
AutoCAD 2000
 90
0
 91
0
280
0
281
0
  0
ENDSEC
  0
SECTION
  2
TABLES
  0
TABLE
  2
VPORT
  5
8
100
AcDbSymbolTable
 70
2
  0
VPORT
  5
1F4
100
AcDbSymbolTableRecord
100
AcDbViewportTableRecord
  2
*ACTIVE
 70
0
 10
0.0
 20
0.0
 11
1.0
 21
1.0
 12
148.5
 22
105.0
 13
0.0
 23
0.0
 14
1.0
 24
1.0
 15
0.0
 25
0.0
 16
0.0
 26
0.0
 36
1.0
 17
0.0
 27
0.0
 37
0.0
 40
210.0
 41
1.4142857143
 42
50.0
 43
0.0
 44
0.0
 50
0.0
 51
0.0
 71
0
 72
100
 73
1
 74
1
 75
0
 76
0
 77
0
 78
0
  0
ENDTAB
  0
TABLE
  2
LTYPE
  5
5
100
AcDbSymbolTable
 70
6
  0
LTYPE
  5
14
100
AcDbSymbolTableRecord
100
AcDbLinetypeTableRecord
  2
BYBLOCK
 70
0
  3

 72
65
 73
0
 40
0.0
  0
LTYPE
  5
15
100
AcDbSymbolTableRecord
100
AcDbLinetypeTableRecord
  2
BYLAYER
 70
0
  3

 72
65
 73
0
 40
0.0
  0
LTYPE
  5
16
100
AcDbSymbolTableRecord
100
AcDbLinetypeTableRecord
  2
CONTINUOUS
 70
64
  3
Solid line
 72
65
 73
0
 40
0.0
  0
LTYPE
  5
1F5
100
AcDbSymbolTableRecord
100
AcDbLinetypeTableRecord
  2
CENTER
 70
64
  3
____ _ ____ _ ____ _ ____ _ ____ _ ____ _ ____
 72
65
 73
4
 40
0.6
 49
0.375
 74
0
 49
-0.075
 74
0
 49
0.075
 74
0
 49
-0.075
 74
0
  0
LTYPE
  5
1F6
100
AcDbSymbolTableRecord
100
AcDbLinetypeTableRecord
  2
HIDDEN
 70
64
  3
- - - - - - - - - - - - - - - - - - - -
 72
65
 73
2
 40
0.2
 49
0.1
 74
0
 49
-0.1
 74
0
  0
LTYPE
  5
1F7
100
AcDbSymbolTableRecord
100
AcDbLinetypeTableRecord
  2
PHANTOM
 70
64
  3
_____ _ _ _____ _ _ _____ _ _ _____
 72
65
 73
6
 40
0.8
 49
0.45
 74
0
 49
-0.05
 74
0
 49
0.1
 74
0
 49
-0.05
 74
0
 49
0.1
 74
0
 49
-0.05
 74
0
  0
LTYPE
  5
1F8
100
AcDbSymbolTableRecord
100
AcDbLinetypeTableRecord
  2
DOT
 70
64
  3
. . . . . . . . . . . . . . . . . . . .
 72
65
 73
2
 40
0.2
 49
0.1
 74
0
 49
-0.1
 74
0
  0
LTYPE
  5
1F9
100
AcDbSymbolTableRecord
100
AcDbLinetypeTableRecord
  2
DASHED
 70
64
  3
- - - - - - - - - - - - - - - - - - - -
 72
65
 73
2
 40
0.2
 49
0.1
 74
0
 49
-0.1
 74
0
  0
ENDTAB
  0
TABLE
  2
LAYER
  5
2
100
AcDbSymbolTable
 70
36
  0
LAYER
  5
10
100
AcDbSymbolTableRecord
100
AcDbLayerTableRecord
  2
0
 70
0
 62
7
  6
CONTINUOUS
370
-3
390
F
  0
LAYER
  5
1FA
100
AcDbSymbolTableRecord
100
AcDbLayerTableRecord
  2
DEFAULT_1
 70
0
 62
7
  6
CENTER
370
-3
390
F
  0
LAYER
  5
1FB
100
AcDbSymbolTableRecord
100
AcDbLayerTableRecord
  2
DEFAULT_2
 70
0
 62
7
  6
HIDDEN
370
-3
390
F
  0
LAYER
  5
1FC
100
AcDbSymbolTableRecord
100
AcDbLayerTableRecord
  2
DEFAULT_3
 70
0
 62
7
  6
PHANTOM
370
-3
390
F
  0
LAYER
  5
1FD
100
AcDbSymbolTableRecord
100
AcDbLayerTableRecord
  2
0402_C_REF_70000
 70
0
 62
7
  6
CONTINUOUS
370
-3
390
F
  0
LAYER
  5
1FE
100
AcDbSymbolTableRecord
100
AcDbLayerTableRecord
  2
0402_C_REF_70000_1
 70
0
 62
7
  6
CONTINUOUS
370
-3
390
F
  0
LAYER
  5
1FF
100
AcDbSymbolTableRecord
100
AcDbLayerTableRecord
  2
0402_C_REF_70000_10
 70
0
 62
7
  6
CONTINUOUS
370
-3
390
F
  0
LAYER
  5
200
100
AcDbSymbolTableRecord
100
AcDbLayerTableRecord
  2
0402_C_REF_70000_11
 70
0
 62
7
  6
CONTINUOUS
370
-3
390
F
  0
LAYER
  5
201
100
AcDbSymbolTableRecord
100
AcDbLayerTableRecord
  2
0402_C_REF_70000_12
 70
0
 62
7
  6
CONTINUOUS
370
-3
390
F
  0
LAYER
  5
202
100
AcDbSymbolTableRecord
100
AcDbLayerTableRecord
  2
0402_C_REF_70000_13
 70
0
 62
7
  6
CONTINUOUS
370
-3
390
F
  0
LAYER
  5
203
100
AcDbSymbolTableRecord
100
AcDbLayerTableRecord
  2
0402_C_REF_70000_14
 70
0
 62
7
  6
CONTINUOUS
370
-3
390
F
  0
LAYER
  5
204
100
AcDbSymbolTableRecord
100
AcDbLayerTableRecord
  2
0402_C_REF_70000_15
 70
0
 62
7
  6
CONTINUOUS
370
-3
390
F
  0
LAYER
  5
205
100
AcDbSymbolTableRecord
100
AcDbLayerTableRecord
  2
0402_C_REF_70000_16
 70
0
 62
7
  6
CONTINUOUS
370
-3
390
F
  0
LAYER
  5
206
100
AcDbSymbolTableRecord
100
AcDbLayerTableRecord
  2
0402_C_REF_70000_17
 70
0
 62
7
  6
CONTINUOUS
370
-3
390
F
  0
LAYER
  5
207
100
AcDbSymbolTableRecord
100
AcDbLayerTableRecord
  2
0402_C_REF_70000_18
 70
0
 62
7
  6
CONTINUOUS
370
-3
390
F
  0
LAYER
  5
208
100
AcDbSymbolTableRecord
100
AcDbLayerTableRecord
  2
0402_C_REF_70000_19
 70
0
 62
7
  6
CONTINUOUS
370
-3
390
F
  0
LAYER
  5
209
100
AcDbSymbolTableRecord
100
AcDbLayerTableRecord
  2
0402_C_REF_70000_2
 70
0
 62
7
  6
CONTINUOUS
370
-3
390
F
  0
LAYER
  5
20A
100
AcDbSymbolTableRecord
100
AcDbLayerTableRecord
  2
0402_C_REF_70000_20
 70
0
 62
7
  6
CONTINUOUS
370
-3
390
F
  0
LAYER
  5
20B
100
AcDbSymbolTableRecord
100
AcDbLayerTableRecord
  2
0402_C_REF_70000_3
 70
0
 62
7
  6
CONTINUOUS
370
-3
390
F
  0
LAYER
  5
20C
100
AcDbSymbolTableRecord
100
AcDbLayerTableRecord
  2
0402_C_REF_70000_4
 70
0
 62
7
  6
CONTINUOUS
370
-3
390
F
  0
LAYER
  5
20D
100
AcDbSymbolTableRecord
100
AcDbLayerTableRecord
  2
0402_C_REF_70000_5
 70
0
 62
7
  6
CONTINUOUS
370
-3
390
F
  0
LAYER
  5
20E
100
AcDbSymbolTableRecord
100
AcDbLayerTableRecord
  2
0402_C_REF_70000_6
 70
0
 62
7
  6
CONTINUOUS
370
-3
390
F
  0
LAYER
  5
20F
100
AcDbSymbolTableRecord
100
AcDbLayerTableRecord
  2
0402_C_REF_70000_7
 70
0
 62
7
  6
CONTINUOUS
370
-3
390
F
  0
LAYER
  5
210
100
AcDbSymbolTableRecord
100
AcDbLayerTableRecord
  2
0402_C_REF_70000_8
 70
0
 62
7
  6
CONTINUOUS
370
-3
390
F
  0
LAYER
  5
211
100
AcDbSymbolTableRecord
100
AcDbLayerTableRecord
  2
0402_C_REF_70000_9
 70
0
 62
7
  6
CONTINUOUS
370
-3
390
F
  0
LAYER
  5
212
100
AcDbSymbolTableRecord
100
AcDbLayerTableRecord
  2
0402_L_REF_55000
 70
0
 62
7
  6
CONTINUOUS
370
-3
390
F
  0
LAYER
  5
213
100
AcDbSymbolTableRecord
100
AcDbLayerTableRecord
  2
0402_R_REF_30000
 70
0
 62
7
  6
CONTINUOUS
370
-3
390
F
  0
LAYER
  5
214
100
AcDbSymbolTableRecord
100
AcDbLayerTableRecord
  2
0402_R_REF_30000_1
 70
0
 62
7
  6
CONTINUOUS
370
-3
390
F
  0
LAYER
  5
215
100
AcDbSymbolTableRecord
100
AcDbLayerTableRecord
  2
0402_R_REF_30000_10
 70
0
 62
7
  6
CONTINUOUS
370
-3
390
F
  0
LAYER
  5
216
100
AcDbSymbolTableRecord
100
AcDbLayerTableRecord
  2
0402_R_REF_30000_11
 70
0
 62
7
  6
CONTINUOUS
370
-3
390
F
  0
LAYER
  5
217
100
AcDbSymbolTableRecord
100
AcDbLayerTableRecord
  2
0402_R_REF_30000_12
 70
0
 62
7
  6
CONTINUOUS
370
-3
390
F
  0
LAYER
  5
218
100
AcDbSymbolTableRecord
100
AcDbLayerTableRecord
  2
0402_R_REF_30000_13
 70
0
 62
7
  6
CONTINUOUS
370
-3
390
F
  0
LAYER
  5
219
100
AcDbSymbolTableRecord
100
AcDbLayerTableRecord
  2
0402_R_REF_30000_14
 70
0
 62
7
  6
CONTINUOUS
370
-3
390
F
  0
LAYER
  5
21A
100
AcDbSymbolTableRecord
100
AcDbLayerTableRecord
  2
0402_R_REF_30000_15
 70
0
 62
7
  6
CONTINUOUS
370
-3
390
F
  0
LAYER
  5
21B
100
AcDbSymbolTableRecord
100
AcDbLayerTableRecord
  2
0402_R_REF_30000_16
 70
0
 62
7
  6
CONTINUOUS
370
-3
390
F
  0
LAYER
  5
21C
100
AcDbSymbolTableRecord
100
AcDbLayerTableRecord
  2
0402_R_REF_30000_17
 70
0
 62
7
  6
CONTINUOUS
370
-3
390
F
  0
LAYER
  5
21D
100
AcDbSymbolTableRecord
100
AcDbLayerTableRecord
  2
0402_R_REF_30000_18
 70
0
 62
7
  6
CONTINUOUS
370
-3
390
F
  0
LAYER
  5
21E
100
AcDbSymbolTableRecord
100
AcDbLayerTableRecord
  2
0402_R_REF_30000_2
 70
0
 62
7
  6
CONTINUOUS
370
-3
390
F
  0
LAYER
  5
21F
100
AcDbSymbolTableRecord
100
AcDbLayerTableRecord
  2
0402_R_REF_30000_3
 70
0
 62
7
  6
CONTINUOUS
370
-3
390
F
  0
LAYER
  5
220
100
AcDbSymbolTableRecord
100
AcDbLayerTableRecord
  2
0402_R_REF_30000_4
 70
0
 62
7
  6
CONTINUOUS
370
-3
390
F
  0
LAYER
  5
221
100
AcDbSymbolTableRecord
100
AcDbLayerTableRecord
  2
0402_R_REF_30000_5
 70
0
 62
7
  6
CONTINUOUS
370
-3
390
F
  0
LAYER
  5
222
100
AcDbSymbolTableRecord
100
AcDbLayerTableRecord
  2
0402_R_REF_30000_6
 70
0
 62
7
  6
CONTINUOUS
370
-3
390
F
  0
LAYER
  5
223
100
AcDbSymbolTableRecord
100
AcDbLayerTableRecord
  2
0402_R_REF_30000_7
 70
0
 62
7
  6
CONTINUOUS
370
-3
390
F
  0
LAYER
  5
224
100
AcDbSymbolTableRecord
100
AcDbLayerTableRecord
  2
0402_R_REF_30000_8
 70
0
 62
7
  6
CONTINUOUS
370
-3
390
F
  0
LAYER
  5
225
100
AcDbSymbolTableRecord
100
AcDbLayerTableRecord
  2
0402_R_REF_30000_9
 70
0
 62
7
  6
CONTINUOUS
370
-3
390
F
  0
LAYER
  5
226
100
AcDbSymbolTableRecord
100
AcDbLayerTableRecord
  2
0603_C_REF_90000
 70
0
 62
7
  6
CONTINUOUS
370
-3
390
F
  0
LAYER
  5
227
100
AcDbSymbolTableRecord
100
AcDbLayerTableRecord
  2
0603_C_REF_90000_1
 70
0
 62
7
  6
CONTINUOUS
370
-3
390
F
  0
LAYER
  5
228
100
AcDbSymbolTableRecord
100
AcDbLayerTableRecord
  2
0603_C_REF_90000_2
 70
0
 62
7
  6
CONTINUOUS
370
-3
390
F
  0
LAYER
  5
229
100
AcDbSymbolTableRecord
100
AcDbLayerTableRecord
  2
0603_C_REF_90000_3
 70
0
 62
7
  6
CONTINUOUS
370
-3
390
F
  0
LAYER
  5
22A
100
AcDbSymbolTableRecord
100
AcDbLayerTableRecord
  2
0603_C_REF_90000_4
 70
0
 62
7
  6
CONTINUOUS
370
-3
390
F
  0
LAYER
  5
22B
100
AcDbSymbolTableRecord
100
AcDbLayerTableRecord
  2
0603_R_REF_55000
 70
0
 62
7
  6
CONTINUOUS
370
-3
390
F
  0
LAYER
  5
22C
100
AcDbSymbolTableRecord
100
AcDbLayerTableRecord
  2
0603_R_REF_55000_1
 70
0
 62
7
  6
CONTINUOUS
370
-3
390
F
  0
LAYER
  5
22D
100
AcDbSymbolTableRecord
100
AcDbLayerTableRecord
  2
0603_R_REF_55000_2
 70
0
 62
7
  6
CONTINUOUS
370
-3
390
F
  0
LAYER
  5
22E
100
AcDbSymbolTableRecord
100
AcDbLayerTableRecord
  2
0603_R_REF_55000_3
 70
0
 62
7
  6
CONTINUOUS
370
-3
390
F
  0
LAYER
  5
22F
100
AcDbSymbolTableRecord
100
AcDbLayerTableRecord
  2
0603_R_REF_55000_4
 70
0
 62
7
  6
CONTINUOUS
370
-3
390
F
  0
LAYER
  5
230
100
AcDbSymbolTableRecord
100
AcDbLayerTableRecord
  2
06___PRT_ALL_SURFS_1
 70
0
 62
7
  6
CONTINUOUS
370
-3
390
F
  0
LAYER
  5
231
100
AcDbSymbolTableRecord
100
AcDbLayerTableRecord
  2
06___PRT_ALL_SURFS_10
 70
0
 62
7
  6
CONTINUOUS
370
-3
390
F
  0
LAYER
  5
232
100
AcDbSymbolTableRecord
100
AcDbLayerTableRecord
  2
06___PRT_ALL_SURFS_12
 70
0
 62
7
  6
CONTINUOUS
370
-3
390
F
  0
LAYER
  5
233
100
AcDbSymbolTableRecord
100
AcDbLayerTableRecord
  2
06___PRT_ALL_SURFS_15
 70
0
 62
7
  6
CONTINUOUS
370
-3
390
F
  0
LAYER
  5
234
100
AcDbSymbolTableRecord
100
AcDbLayerTableRecord
  2
06___PRT_ALL_SURFS_18
 70
0
 62
7
  6
CONTINUOUS
370
-3
390
F
  0
LAYER
  5
235
100
AcDbSymbolTableRecord
100
AcDbLayerTableRecord
  2
06___PRT_ALL_SURFS_2
 70
0
 62
7
  6
CONTINUOUS
370
-3
390
F
  0
LAYER
  5
236
100
AcDbSymbolTableRecord
100
AcDbLayerTableRecord
  2
06___PRT_ALL_SURFS_24
 70
0
 62
7
  6
CONTINUOUS
370
-3
390
F
  0
LAYER
  5
237
100
AcDbSymbolTableRecord
100
AcDbLayerTableRecord
  2
06___PRT_ALL_SURFS_3
 70
0
 62
7
  6
CONTINUOUS
370
-3
390
F
  0
LAYER
  5
238
100
AcDbSymbolTableRecord
100
AcDbLayerTableRecord
  2
06___PRT_ALL_SURFS_4
 70
0
 62
7
  6
CONTINUOUS
370
-3
390
F
  0
LAYER
  5
239
100
AcDbSymbolTableRecord
100
AcDbLayerTableRecord
  2
06___PRT_ALL_SURFS_7
 70
0
 62
7
  6
CONTINUOUS
370
-3
390
F
  0
LAYER
  5
23A
100
AcDbSymbolTableRecord
100
AcDbLayerTableRecord
  2
0805_C_REF_145000
 70
0
 62
7
  6
CONTINUOUS
370
-3
390
F
  0
LAYER
  5
23B
100
AcDbSymbolTableRecord
100
AcDbLayerTableRecord
  2
0805_R_REF_60000
 70
0
 62
7
  6
CONTINUOUS
370
-3
390
F
  0
LAYER
  5
23C
100
AcDbSymbolTableRecord
100
AcDbLayerTableRecord
  2
0805_R_REF_60000_1
 70
0
 62
7
  6
CONTINUOUS
370
-3
390
F
  0
LAYER
  5
23D
100
AcDbSymbolTableRecord
100
AcDbLayerTableRecord
  2
0805_R_REF_60000_2
 70
0
 62
7
  6
CONTINUOUS
370
-3
390
F
  0
LAYER
  5
23E
100
AcDbSymbolTableRecord
100
AcDbLayerTableRecord
  2
0805_R_REF_60000_3
 70
0
 62
7
  6
CONTINUOUS
370
-3
390
F
  0
LAYER
  5
23F
100
AcDbSymbolTableRecord
100
AcDbLayerTableRecord
  2
0805_R_REF_60000_4
 70
0
 62
7
  6
CONTINUOUS
370
-3
390
F
  0
LAYER
  5
240
100
AcDbSymbolTableRecord
100
AcDbLayerTableRecord
  2
0805_R_REF_60000_5
 70
0
 62
7
  6
CONTINUOUS
370
-3
390
F
  0
LAYER
  5
241
100
AcDbSymbolTableRecord
100
AcDbLayerTableRecord
  2
0805_R_REF_60000_6
 70
0
 62
7
  6
CONTINUOUS
370
-3
390
F
  0
LAYER
  5
242
100
AcDbSymbolTableRecord
100
AcDbLayerTableRecord
  2
0805_R_REF_60000_7
 70
0
 62
7
  6
CONTINUOUS
370
-3
390
F
  0
LAYER
  5
243
100
AcDbSymbolTableRecord
100
AcDbLayerTableRecord
  2
0805_R_REF_60000_8
 70
0
 62
7
  6
CONTINUOUS
370
-3
390
F
  0
LAYER
  5
244
100
AcDbSymbolTableRecord
100
AcDbLayerTableRecord
  2
0805_R_REF_60000_9
 70
0
 62
7
  6
CONTINUOUS
370
-3
390
F
  0
LAYER
  5
245
100
AcDbSymbolTableRecord
100
AcDbLayerTableRecord
  2
1206_C_REF_180000
 70
0
 62
7
  6
CONTINUOUS
370
-3
390
F
  0
LAYER
  5
246
100
AcDbSymbolTableRecord
100
AcDbLayerTableRecord
  2
1206_C_REF_180000_1
 70
0
 62
7
  6
CONTINUOUS
370
-3
390
F
  0
LAYER
  5
247
100
AcDbSymbolTableRecord
100
AcDbLayerTableRecord
  2
1206_C_REF_180000_2
 70
0
 62
7
  6
CONTINUOUS
370
-3
390
F
  0
LAYER
  5
248
100
AcDbSymbolTableRecord
100
AcDbLayerTableRecord
  2
2512_R_H1_REF_100000
 70
0
 62
7
  6
CONTINUOUS
370
-3
390
F
  0
LAYER
  5
249
100
AcDbSymbolTableRecord
100
AcDbLayerTableRecord
  2
43000895A0
 70
0
 62
7
  6
CONTINUOUS
370
-3
390
F
  0
LAYER
  5
24A
100
AcDbSymbolTableRecord
100
AcDbLayerTableRecord
  2
43000908A0
 70
0
 62
7
  6
CONTINUOUS
370
-3
390
F
  0
LAYER
  5
24B
100
AcDbSymbolTableRecord
100
AcDbLayerTableRecord
  2
ASSI
 70
0
 62
7
  6
CONTINUOUS
370
-3
390
F
  0
LAYER
  5
24C
100
AcDbSymbolTableRecord
100
AcDbLayerTableRecord
  2
CAP-E-SMD-8_3-8_3-10_5_1050000
 70
0
 62
7
  6
CONTINUOUS
370
-3
390
F
  0
LAYER
  5
24D
100
AcDbSymbolTableRecord
100
AcDbLayerTableRecord
  2
CAP-E-SMD-8_3-8_3-10_5_105000_1
 70
0
 62
7
  6
CONTINUOUS
370
-3
390
F
  0
LAYER
  5
24E
100
AcDbSymbolTableRecord
100
AcDbLayerTableRecord
  2
CN_M_THT_P5_R1_P3_SET_1750000
 70
0
 62
7
  6
CONTINUOUS
370
-3
390
F
  0
LAYER
  5
24F
100
AcDbSymbolTableRecord
100
AcDbLayerTableRecord
  2
COLOR15
 70
0
 62
7
  6
CONTINUOUS
370
-3
390
F
  0
LAYER
  5
250
100
AcDbSymbolTableRecord
100
AcDbLayerTableRecord
  2
COLOR16
 70
0
 62
7
  6
CONTINUOUS
370
-3
390
F
  0
LAYER
  5
251
100
AcDbSymbolTableRecord
100
AcDbLayerTableRecord
  2
COLORE_MATERIALE
 70
0
 62
7
  6
CONTINUOUS
370
-3
390
F
  0
LAYER
  5
252
100
AcDbSymbolTableRecord
100
AcDbLayerTableRecord
  2
COORDINATE
 70
0
 62
7
  6
CONTINUOUS
370
-3
390
F
  0
LAYER
  5
253
100
AcDbSymbolTableRecord
100
AcDbLayerTableRecord
  2
COORD_ORIGINE
 70
0
 62
7
  6
CONTINUOUS
370
-3
390
F
  0
LAYER
  5
254
100
AcDbSymbolTableRecord
100
AcDbLayerTableRecord
  2
COPY_PUBLISH
 70
0
 62
7
  6
CONTINUOUS
370
-3
390
F
  0
LAYER
  5
255
100
AcDbSymbolTableRecord
100
AcDbLayerTableRecord
  2
COSMETICI
 70
0
 62
7
  6
CONTINUOUS
370
-3
390
F
  0
LAYER
  5
256
100
AcDbSymbolTableRecord
100
AcDbLayerTableRecord
  2
CURVE
 70
0
 62
7
  6
CONTINUOUS
370
-3
390
F
  0
LAYER
  5
257
100
AcDbSymbolTableRecord
100
AcDbLayerTableRecord
  2
DL_RGB_1_6-1_6-0_5MM_50000
 70
0
 62
7
  6
CONTINUOUS
370
-3
390
F
  0
LAYER
  5
258
100
AcDbSymbolTableRecord
100
AcDbLayerTableRecord
  2
DL_RGB_1_6-1_6-0_5MM_50000_1
 70
0
 62
7
  6
CONTINUOUS
370
-3
390
F
  0
LAYER
  5
259
100
AcDbSymbolTableRecord
100
AcDbLayerTableRecord
  2
DRAFT
 70
0
 62
7
  6
CONTINUOUS
370
-3
390
F
  0
LAYER
  5
25A
100
AcDbSymbolTableRecord
100
AcDbLayerTableRecord
  2
E4_MARK_10000
 70
0
 62
7
  6
CONTINUOUS
370
-3
390
F
  0
LAYER
  5
25B
100
AcDbSymbolTableRecord
100
AcDbLayerTableRecord
  2
FIDUCIAL_1MM_0
 70
0
 62
7
  6
CONTINUOUS
370
-3
390
F
  0
LAYER
  5
25C
100
AcDbSymbolTableRecord
100
AcDbLayerTableRecord
  2
FIDUCIAL_1MM_0_1
 70
0
 62
7
  6
CONTINUOUS
370
-3
390
F
  0
LAYER
  5
25D
100
AcDbSymbolTableRecord
100
AcDbLayerTableRecord
  2
FIDUCIAL_1MM_0_2
 70
0
 62
7
  6
CONTINUOUS
370
-3
390
F
  0
LAYER
  5
25E
100
AcDbSymbolTableRecord
100
AcDbLayerTableRecord
  2
FIDUCIAL_1MM_0_3
 70
0
 62
7
  6
CONTINUOUS
370
-3
390
F
  0
LAYER
  5
25F
100
AcDbSymbolTableRecord
100
AcDbLayerTableRecord
  2
FIDUCIAL_1_2_MM_RUOTATO_45_1000
 70
0
 62
7
  6
CONTINUOUS
370
-3
390
F
  0
LAYER
  5
260
100
AcDbSymbolTableRecord
100
AcDbLayerTableRecord
  2
FIDUCIAL_1_2_MM_RUOTATO_45_10_1
 70
0
 62
7
  6
CONTINUOUS
370
-3
390
F
  0
LAYER
  5
261
100
AcDbSymbolTableRecord
100
AcDbLayerTableRecord
  2
FIDUCIAL_1_2_MM_RUOTATO_45_10_2
 70
0
 62
7
  6
CONTINUOUS
370
-3
390
F
  0
LAYER
  5
262
100
AcDbSymbolTableRecord
100
AcDbLayerTableRecord
  2
FIDUCIAL_1_2_MM_RUOTATO_45_10_3
 70
0
 62
7
  6
CONTINUOUS
370
-3
390
F
  0
LAYER
  5
263
100
AcDbSymbolTableRecord
100
AcDbLayerTableRecord
  2
GEOMETRIA_SOLIDA
 70
0
 62
7
  6
CONTINUOUS
370
-3
390
F
  0
LAYER
  5
264
100
AcDbSymbolTableRecord
100
AcDbLayerTableRecord
  2
GEOMETRIA_SOLIDA_1
 70
0
 62
7
  6
CONTINUOUS
370
-3
390
F
  0
LAYER
  5
265
100
AcDbSymbolTableRecord
100
AcDbLayerTableRecord
  2
GEOMETRIA_SOLIDA_2
 70
0
 62
7
  6
CONTINUOUS
370
-3
390
F
  0
LAYER
  5
266
100
AcDbSymbolTableRecord
100
AcDbLayerTableRecord
  2
GEOMETRIA_SOLIDA_3
 70
0
 62
7
  6
CONTINUOUS
370
-3
390
F
  0
LAYER
  5
267
100
AcDbSymbolTableRecord
100
AcDbLayerTableRecord
  2
IMPORT_IGES
 70
0
 62
7
  6
CONTINUOUS
370
-3
390
F
  0
LAYER
  5
268
100
AcDbSymbolTableRecord
100
AcDbLayerTableRecord
  2
IND-CHIP-0805_H1_2_REF_140000
 70
0
 62
7
  6
CONTINUOUS
370
-3
390
F
  0
LAYER
  5
269
100
AcDbSymbolTableRecord
100
AcDbLayerTableRecord
  2
INTF_1
 70
0
 62
7
  6
CONTINUOUS
370
-3
390
F
  0
LAYER
  5
26A
100
AcDbSymbolTableRecord
100
AcDbLayerTableRecord
  2
INTF_11
 70
0
 62
7
  6
CONTINUOUS
370
-3
390
F
  0
LAYER
  5
26B
100
AcDbSymbolTableRecord
100
AcDbLayerTableRecord
  2
INTF_2
 70
0
 62
7
  6
CONTINUOUS
370
-3
390
F
  0
LAYER
  5
26C
100
AcDbSymbolTableRecord
100
AcDbLayerTableRecord
  2
INTF_BLANK
 70
0
 62
7
  6
CONTINUOUS
370
-3
390
F
  0
LAYER
  5
26D
100
AcDbSymbolTableRecord
100
AcDbLayerTableRecord
  2
INTF_CYAN
 70
0
 62
7
  6
CONTINUOUS
370
-3
390
F
  0
LAYER
  5
26E
100
AcDbSymbolTableRecord
100
AcDbLayerTableRecord
  2
LOGO_RESIST-RESTYLING_10000
 70
0
 62
7
  6
CONTINUOUS
370
-3
390
F
  0
LAYER
  5
26F
100
AcDbSymbolTableRecord
100
AcDbLayerTableRecord
  2
MM2-SWITCH-1-VIMAR_150000
 70
0
 62
7
  6
CONTINUOUS
370
-3
390
F
  0
LAYER
  5
270
100
AcDbSymbolTableRecord
100
AcDbLayerTableRecord
  2
NO-PB_MARK_10000
 70
0
 62
7
  6
CONTINUOUS
370
-3
390
F
  0
LAYER
  5
271
100
AcDbSymbolTableRecord
100
AcDbLayerTableRecord
  2
NOTE
 70
0
 62
7
  6
CONTINUOUS
370
-3
390
F
  0
LAYER
  5
272
100
AcDbSymbolTableRecord
100
AcDbLayerTableRecord
  2
PIANI
 70
0
 62
7
  6
CONTINUOUS
370
-3
390
F
  0
LAYER
  5
273
100
AcDbSymbolTableRecord
100
AcDbLayerTableRecord
  2
PIANI_ORIGINE
 70
0
 62
7
  6
CONTINUOUS
370
-3
390
F
  0
LAYER
  5
274
100
AcDbSymbolTableRecord
100
AcDbLayerTableRecord
  2
PIANI_RIFERIMENTO
 70
0
 62
7
  6
CONTINUOUS
370
-3
390
F
  0
LAYER
  5
275
100
AcDbSymbolTableRecord
100
AcDbLayerTableRecord
  2
PUNTI
 70
0
 62
7
  6
CONTINUOUS
370
-3
390
F
  0
LAYER
  5
276
100
AcDbSymbolTableRecord
100
AcDbLayerTableRecord
  2
RACCORDO
 70
0
 62
7
  6
CONTINUOUS
370
-3
390
F
  0
LAYER
  5
277
100
AcDbSymbolTableRecord
100
AcDbLayerTableRecord
  2
SC88-6_REF_H1_1_110000
 70
0
 62
7
  6
CONTINUOUS
370
-3
390
F
  0
LAYER
  5
278
100
AcDbSymbolTableRecord
100
AcDbLayerTableRecord
  2
SC88-6_REF_H1_1_110000_1
 70
0
 62
7
  6
CONTINUOUS
370
-3
390
F
  0
LAYER
  5
279
100
AcDbSymbolTableRecord
100
AcDbLayerTableRecord
  2
SC88-6_REF_H1_1_110000_2
 70
0
 62
7
  6
CONTINUOUS
370
-3
390
F
  0
LAYER
  5
27A
100
AcDbSymbolTableRecord
100
AcDbLayerTableRecord
  2
SIMBOLI
 70
0
 62
7
  6
CONTINUOUS
370
-3
390
F
  0
LAYER
  5
27B
100
AcDbSymbolTableRecord
100
AcDbLayerTableRecord
  2
SMUSSO
 70
0
 62
7
  6
CONTINUOUS
370
-3
390
F
  0
LAYER
  5
27C
100
AcDbSymbolTableRecord
100
AcDbLayerTableRecord
  2
SNAPLINE
 70
0
 62
7
  6
CONTINUOUS
370
-3
390
F
  0
LAYER
  5
27D
100
AcDbSymbolTableRecord
100
AcDbLayerTableRecord
  2
SOD123_REF_140000
 70
0
 62
7
  6
CONTINUOUS
370
-3
390
F
  0
LAYER
  5
27E
100
AcDbSymbolTableRecord
100
AcDbLayerTableRecord
  2
SOT23-5_REF_H1_5_150000
 70
0
 62
7
  6
CONTINUOUS
370
-3
390
F
  0
LAYER
  5
27F
100
AcDbSymbolTableRecord
100
AcDbLayerTableRecord
  2
SOT323_H1_1_REF_110000
 70
0
 62
7
  6
CONTINUOUS
370
-3
390
F
  0
LAYER
  5
280
100
AcDbSymbolTableRecord
100
AcDbLayerTableRecord
  2
SOT89_REF_H1_6_160000
 70
0
 62
7
  6
CONTINUOUS
370
-3
390
F
  0
LAYER
  5
281
100
AcDbSymbolTableRecord
100
AcDbLayerTableRecord
  2
SUB_SMA_143000
 70
0
 62
7
  6
CONTINUOUS
370
-3
390
F
  0
LAYER
  5
282
100
AcDbSymbolTableRecord
100
AcDbLayerTableRecord
  2
SUB_SMA_143000_1
 70
0
 62
7
  6
CONTINUOUS
370
-3
390
F
  0
LAYER
  5
283
100
AcDbSymbolTableRecord
100
AcDbLayerTableRecord
  2
SUB_SMA_143000_2
 70
0
 62
7
  6
CONTINUOUS
370
-3
390
F
  0
LAYER
  5
284
100
AcDbSymbolTableRecord
100
AcDbLayerTableRecord
  2
SUPERFICI
 70
0
 62
7
  6
CONTINUOUS
370
-3
390
F
  0
LAYER
  5
285
100
AcDbSymbolTableRecord
100
AcDbLayerTableRecord
  2
SWITCH_SKRP_250000
 70
0
 62
7
  6
CONTINUOUS
370
-3
390
F
  0
LAYER
  5
286
100
AcDbSymbolTableRecord
100
AcDbLayerTableRecord
  2
SWITCH_SKRP_250000_1
 70
0
 62
7
  6
CONTINUOUS
370
-3
390
F
  0
LAYER
  5
287
100
AcDbSymbolTableRecord
100
AcDbLayerTableRecord
  2
SWITCH_SKRP_250000_2
 70
0
 62
7
  6
CONTINUOUS
370
-3
390
F
  0
LAYER
  5
288
100
AcDbSymbolTableRecord
100
AcDbLayerTableRecord
  2
TP-RND-0_8_3500
 70
0
 62
7
  6
CONTINUOUS
370
-3
390
F
  0
LAYER
  5
289
100
AcDbSymbolTableRecord
100
AcDbLayerTableRecord
  2
TP-RND-0_8_3500_1
 70
0
 62
7
  6
CONTINUOUS
370
-3
390
F
  0
LAYER
  5
28A
100
AcDbSymbolTableRecord
100
AcDbLayerTableRecord
  2
TP-RND-0_8_3500_10
 70
0
 62
7
  6
CONTINUOUS
370
-3
390
F
  0
LAYER
  5
28B
100
AcDbSymbolTableRecord
100
AcDbLayerTableRecord
  2
TP-RND-0_8_3500_11
 70
0
 62
7
  6
CONTINUOUS
370
-3
390
F
  0
LAYER
  5
28C
100
AcDbSymbolTableRecord
100
AcDbLayerTableRecord
  2
TP-RND-0_8_3500_2
 70
0
 62
7
  6
CONTINUOUS
370
-3
390
F
  0
LAYER
  5
28D
100
AcDbSymbolTableRecord
100
AcDbLayerTableRecord
  2
TP-RND-0_8_3500_3
 70
0
 62
7
  6
CONTINUOUS
370
-3
390
F
  0
LAYER
  5
28E
100
AcDbSymbolTableRecord
100
AcDbLayerTableRecord
  2
TP-RND-0_8_3500_4
 70
0
 62
7
  6
CONTINUOUS
370
-3
390
F
  0
LAYER
  5
28F
100
AcDbSymbolTableRecord
100
AcDbLayerTableRecord
  2
TP-RND-0_8_3500_5
 70
0
 62
7
  6
CONTINUOUS
370
-3
390
F
  0
LAYER
  5
290
100
AcDbSymbolTableRecord
100
AcDbLayerTableRecord
  2
TP-RND-0_8_3500_6
 70
0
 62
7
  6
CONTINUOUS
370
-3
390
F
  0
LAYER
  5
291
100
AcDbSymbolTableRecord
100
AcDbLayerTableRecord
  2
TP-RND-0_8_3500_7
 70
0
 62
7
  6
CONTINUOUS
370
-3
390
F
  0
LAYER
  5
292
100
AcDbSymbolTableRecord
100
AcDbLayerTableRecord
  2
TP-RND-0_8_3500_8
 70
0
 62
7
  6
CONTINUOUS
370
-3
390
F
  0
LAYER
  5
293
100
AcDbSymbolTableRecord
100
AcDbLayerTableRecord
  2
TP-RND-0_8_3500_9
 70
0
 62
7
  6
CONTINUOUS
370
-3
390
F
  0
LAYER
  5
294
100
AcDbSymbolTableRecord
100
AcDbLayerTableRecord
  2
TP-RND-1_0_3500
 70
0
 62
7
  6
CONTINUOUS
370
-3
390
F
  0
LAYER
  5
295
100
AcDbSymbolTableRecord
100
AcDbLayerTableRecord
  2
TP-RND-1_5_1000
 70
0
 62
7
  6
CONTINUOUS
370
-3
390
F
  0
LAYER
  5
296
100
AcDbSymbolTableRecord
100
AcDbLayerTableRecord
  2
TP_PROGRAMMAZIONE_SWD_D1_5_1000
 70
0
 62
7
  6
CONTINUOUS
370
-3
390
F
  0
LAYER
  5
297
100
AcDbSymbolTableRecord
100
AcDbLayerTableRecord
  2
TRASH
 70
0
 62
7
  6
CONTINUOUS
370
-3
390
F
  0
LAYER
  5
298
100
AcDbSymbolTableRecord
100
AcDbLayerTableRecord
  2
VG_CN-MEZZANINE-F-SMT-P0_8-R2-P
 70
0
 62
7
  6
CONTINUOUS
370
-3
390
F
  0
LAYER
  5
299
100
AcDbSymbolTableRecord
100
AcDbLayerTableRecord
  2
VG_CN-MEZZANINE-M-SMT-P0_8-R2-P
 70
0
 62
7
  6
CONTINUOUS
370
-3
390
F
  0
LAYER
  5
29A
100
AcDbSymbolTableRecord
100
AcDbLayerTableRecord
  2
VG_IND-RAD-8_8-7_5-5_0-0_6_7500
 70
0
 62
7
  6
CONTINUOUS
370
-3
390
F
  0
LAYER
  5
29B
100
AcDbSymbolTableRecord
100
AcDbLayerTableRecord
  2
VG_IND-SMT-4_0-4_0-2_5-1_55-3_6
 70
0
 62
7
  6
CONTINUOUS
370
-3
390
F
  0
LAYER
  5
29C
100
AcDbSymbolTableRecord
100
AcDbLayerTableRecord
  2
VG_IND-SMT-7_8-7_8-5_3-2_4-8_0-
 70
0
 62
7
  6
CONTINUOUS
370
-3
390
F
  0
LAYER
  5
29D
100
AcDbSymbolTableRecord
100
AcDbLayerTableRecord
  2
VG_K_THT_HONGFA_HF115FK-H3T_160
 70
0
 62
7
  6
CONTINUOUS
370
-3
390
F
  0
LAYER
  5
29E
100
AcDbSymbolTableRecord
100
AcDbLayerTableRecord
  2
VG_PTC-6_5-10_0-5_0-5_0-0-0_6_1
 70
0
 62
7
  6
CONTINUOUS
370
-3
390
F
  0
LAYER
  5
29F
100
AcDbSymbolTableRecord
100
AcDbLayerTableRecord
  2
VG_QFN24-4_0-4_0-4_0-4_0-1_0-0_
 70
0
 62
7
  6
CONTINUOUS
370
-3
390
F
  0
LAYER
  5
2A0
100
AcDbSymbolTableRecord
100
AcDbLayerTableRecord
  2
VG_QFN48-6_0-6_0-6_0-6_0-1_0-0_
 70
0
 62
7
  6
CONTINUOUS
370
-3
390
F
  0
LAYER
  5
2A1
100
AcDbSymbolTableRecord
100
AcDbLayerTableRecord
  2
VG_VAR_S05_D7_S4_3_H8_5_850000
 70
0
 62
7
  6
CONTINUOUS
370
-3
390
F
  0
LAYER
  5
2A2
100
AcDbSymbolTableRecord
100
AcDbLayerTableRecord
  2
VG_X-SMT-2-3_2-1_5-1_0_100000
 70
0
 62
7
  6
CONTINUOUS
370
-3
390
F
  0
LAYER
  5
2A3
100
AcDbSymbolTableRecord
100
AcDbLayerTableRecord
  2
VG_X-SMT-2-5_0-3_2-1_5_150000
 70
0
 62
7
  6
CONTINUOUS
370
-3
390
F
  0
LAYER
  5
2A4
100
AcDbSymbolTableRecord
100
AcDbLayerTableRecord
  2
X-SMD-3PIN-3_2-2_5_70000
 70
0
 62
7
  6
CONTINUOUS
370
-3
390
F
  0
LAYER
  5
2A5
100
AcDbSymbolTableRecord
100
AcDbLayerTableRecord
  2
XSEC_DATUMS
 70
0
 62
7
  6
CONTINUOUS
370
-3
390
F
  0
LAYER
  5
2A6
100
AcDbSymbolTableRecord
100
AcDbLayerTableRecord
  2
___SHELL
 70
0
 62
7
  6
CONTINUOUS
370
-3
390
F
  0
ENDTAB
  0
TABLE
  2
STYLE
  5
3
100
AcDbSymbolTable
 70
1
  0
STYLE
  5
11
100
AcDbSymbolTableRecord
100
AcDbTextStyleTableRecord
  2
STANDARD
 70
0
 40
0.0
 41
0.8
 50
0.0
 71
0
 42
0.2
  3
txt
  4

  0
STYLE
  5
2A7
100
AcDbSymbolTableRecord
100
AcDbTextStyleTableRecord
  2
TEXTSTYLE_1
 70
0
 40
0.0
 41
0.8
 50
0.0
 71
0
 42
0.2
  3
gdt
  4

  0
ENDTAB
  0
TABLE
  2
VIEW
  5
6
100
AcDbSymbolTable
 70
0
  0
ENDTAB
  0
TABLE
  2
UCS
  5
7
100
AcDbSymbolTable
 70
0
  0
ENDTAB
  0
TABLE
  2
APPID
  5
9
100
AcDbSymbolTable
 70
1
  0
APPID
  5
2A8
100
AcDbSymbolTableRecord
100
AcDbRegAppTableRecord
  2
ACAD
 70
0
  0
ENDTAB
  0
TABLE
  2
BLOCK_RECORD
  5
1
100
AcDbSymbolTable
 70
0
  0
BLOCK_RECORD
  5
2A9
100
AcDbSymbolTableRecord
100
AcDbBlockTableRecord
  2
*Model_Space
  0
BLOCK_RECORD
  5
2AA
100
AcDbSymbolTableRecord
100
AcDbBlockTableRecord
  2
*Paper_Space
  0
BLOCK_RECORD
  5
2AB
100
AcDbSymbolTableRecord
100
AcDbBlockTableRecord
  2
_FILLED
  0
ENDTAB
  0
TABLE
  2
DIMSTYLE
  5
A
100
AcDbSymbolTable
 70
1
100
AcDbDimStyleTable
 71
0
  0
DIMSTYLE
105
2AC
100
AcDbSymbolTableRecord
100
AcDbDimStyleTableRecord
  2
STANDARD
 70
0
  3

  4

 40
1.0
 41
3.0
 42
0.5
 43
0.38
 44
1.5
 45
0.0
 46
0.0
 47
0.01
 48
0.01
140
3.0
141
0.09
142
0.0
143
25.4
144
1.0
145
0.0
146
1.0
147
0.625
 71
1
 72
0
 73
0
 74
0
 75
0
 76
0
 77
1
 78
8
 79
2
170
0
171
1
172
0
173
0
174
0
175
0
176
0
177
0
178
0
270
2
179
2
271
2
272
2
273
2
274
2
275
0
280
0
281
0
282
0
283
1
284
8
285
0
286
0
287
3
288
0
340
11
278
44
341
2AB
342
2AB
343
2AB
344
2AB
  0
ENDTAB
  0
ENDSEC
  0
SECTION
  2
BLOCKS
  0
BLOCK
  5
20
100
AcDbEntity
  8
0
100
AcDbBlockBegin
  2
*Model_Space
 70
0
 10
0.0
 20
0.0
 30
0.0
  3
*Model_Space
  1

  0
ENDBLK
  5
21
100
AcDbEntity
  8
0
100
AcDbBlockEnd
  0
BLOCK
  5
1C
100
AcDbEntity
  8
0
100
AcDbBlockBegin
  2
*Paper_Space
 70
0
 10
0.0
 20
0.0
 30
0.0
  3
*Paper_Space
  1

  0
ENDBLK
  5
1D
100
AcDbEntity
  8
0
100
AcDbBlockEnd
  0
BLOCK
  5
2AD
100
AcDbEntity
  8
0
100
AcDbBlockBegin
  2
_FILLED
 70
64
 10
0.0
 20
0.0
  3
_FILLED
  1

  0
SOLID
  5
2AE
100
AcDbEntity
  8
0
  6
BYBLOCK
 62
0
100
AcDbTrace
 10
0.0
 20
0.0
 11
-1.0
 21
0.3166666667
 12
-1.0
 22
-0.3166666667
 13
-1.0
 23
-0.3166666667
  0
ENDBLK
  5
2AF
100
AcDbEntity
  8
0
  6
BYBLOCK
 62
0
100
AcDbBlockEnd
  0
ENDSEC
  0
SECTION
  2
ENTITIES
  0
LINE
  5
2B0
100
AcDbEntity
  8
RACCORDO
100
AcDbLine
 62
250
  6
CONTINUOUS
 10
-8.5263676032
 20
24.495628166
 11
-8.5219957692
 21
24.5
  0
LINE
  5
2B1
100
AcDbEntity
  8
RACCORDO
100
AcDbLine
 62
250
  6
CONTINUOUS
 10
-10.6818507214
 20
22.3912731322
 11
-10.6643956564
 21
22.4
  0
LINE
  5
2B2
100
AcDbEntity
  8
RACCORDO
100
AcDbLine
 62
7
  6
CONTINUOUS
 10
-10.4220042308
 20
-24.5
 11
-8.5219957692
 21
-24.5
  0
LINE
  5
2B3
100
AcDbEntity
  8
RACCORDO
100
AcDbLine
 62
7
  6
CONTINUOUS
 10
8.4779957692
 20
-24.5
 11
10.3780042308
 21
-24.5
  0
LINE
  5
2B4
100
AcDbEntity
  8
RACCORDO
100
AcDbLine
 62
250
  6
CONTINUOUS
 10
-10.4176323968
 20
-24.495628166
 11
-8.5263676032
 21
-24.495628166
  0
LINE
  5
2B5
100
AcDbEntity
  8
RACCORDO
100
AcDbLine
 62
250
  6
CONTINUOUS
 10
8.4823676032
 20
-24.495628166
 11
10.3736323968
 21
-24.495628166
  0
LINE
  5
2B6
100
AcDbEntity
  8
RACCORDO
100
AcDbLine
 62
250
  6
CONTINUOUS
 10
8.232371834
 20
-24.2456323968
 11
10.623628166
 21
-24.2456323968
  0
LINE
  5
2B7
100
AcDbEntity
  8
RACCORDO
100
AcDbLine
 62
250
  6
CONTINUOUS
 10
-8.276371834
 20
-24.2456323968
 11
-10.667628166
 21
-24.2456323968
  0
LINE
  5
2B8
100
AcDbEntity
  8
RACCORDO
100
AcDbLine
 62
250
  6
CONTINUOUS
 10
8.232371834
 20
-23.8443375673
 11
10.623628166
 21
-23.8443375673
  0
LINE
  5
2B9
100
AcDbEntity
  8
RACCORDO
100
AcDbLine
 62
250
  6
CONTINUOUS
 10
-8.276371834
 20
-23.8443375673
 11
-10.667628166
 21
-23.8443375673
  0
LINE
  5
2BA
100
AcDbEntity
  8
DRAFT
100
AcDbLine
 62
7
  6
CONTINUOUS
 10
-4.422
 20
-23.8
 11
4.378
 21
-23.8
  0
LINE
  5
2BB
100
AcDbEntity
  8
DRAFT
100
AcDbLine
 62
7
  6
CONTINUOUS
 10
3.478
 20
-23.7941821702
 11
-3.522
 21
-23.7941821702
  0
LINE
  5
2BC
100
AcDbEntity
  8
ASSI
100
AcDbLine
 62
250
  6
CONTINUOUS
 10
4.3343493531
 20
-23.7563493531
 11
3.478
 21
-23.7563493531
  0
LINE
  5
2BD
100
AcDbEntity
  8
ASSI
100
AcDbLine
 62
250
  6
CONTINUOUS
 10
-3.522
 20
-23.7563493531
 11
-4.3783493531
 21
-23.7563493531
  0
LINE
  5
2BE
100
AcDbEntity
  8
RACCORDO
100
AcDbLine
 62
250
  6
CONTINUOUS
 10
10.3736323968
 20
-23.6278312164
 11
8.4823676032
 21
-23.6278312164
  0
LINE
  5
2BF
100
AcDbEntity
  8
RACCORDO
100
AcDbLine
 62
250
  6
CONTINUOUS
 10
-8.5263676032
 20
-23.6278312164
 11
-10.4176323968
 21
-23.6278312164
  0
LINE
  5
2C0
100
AcDbEntity
  8
RACCORDO
100
AcDbLine
 62
7
  6
CONTINUOUS
 10
-10.4227229979
 20
-23.1226497308
 11
-8.5212770021
 21
-23.1226497308
  0
LINE
  5
2C1
100
AcDbEntity
  8
RACCORDO
100
AcDbLine
 62
7
  6
CONTINUOUS
 10
8.4772770021
 20
-23.1226497308
 11
10.3787229979
 21
-23.1226497308
  0
LINE
  5
2C2
100
AcDbEntity
  8
RACCORDO
100
AcDbLine
 62
250
  6
CONTINUOUS
 10
-10.6643956564
 20
-22.4
 11
-10.6818507214
 21
-22.3912731322
  0
LINE
  5
2C3
100
AcDbEntity
  8
RACCORDO
100
AcDbLine
 62
250
  6
CONTINUOUS
 10
-8.5263676032
 20
-24.495628166
 11
-8.5219957692
 21
-24.5
  0
LINE
  5
2C4
100
AcDbEntity
  8
RACCORDO
100
AcDbLine
 62
250
  6
CONTINUOUS
 10
-8.276371834
 20
24.2456323968
 11
-8.272
 21
24.2500042308
  0
LINE
  5
2C5
100
AcDbEntity
  8
RACCORDO
100
AcDbLine
 62
7
  6
CONTINUOUS
 10
-10.6643956564
 20
-22.4
 11
-8.272
 21
-22.4
  0
LINE
  5
2C6
100
AcDbEntity
  8
DRAFT
100
AcDbLine
 62
7
  6
CONTINUOUS
 10
8.228
 20
-22.4
 11
4.378
 21
-22.4
  0
LINE
  5
2C7
100
AcDbEntity
  8
DRAFT
100
AcDbLine
 62
7
  6
CONTINUOUS
 10
-4.422
 20
-22.4
 11
-8.272
 21
-22.4
  0
LINE
  5
2C8
100
AcDbEntity
  8
RACCORDO
100
AcDbLine
 62
7
  6
CONTINUOUS
 10
8.228
 20
-22.4
 11
10.6203956564
 21
-22.4
  0
LINE
  5
2C9
100
AcDbEntity
  8
RACCORDO
100
AcDbLine
 62
7
  6
CONTINUOUS
 10
-10.6818507214
 20
-22.3912731322
 11
-7.2807268678
 21
-22.3912731322
  0
LINE
  5
2CA
100
AcDbEntity
  8
RACCORDO
100
AcDbLine
 62
7
  6
CONTINUOUS
 10
7.2367268678
 20
-22.3912731322
 11
10.6378507214
 21
-22.3912731322
  0
LINE
  5
2CB
100
AcDbEntity
  8
DRAFT
100
AcDbLine
 62
7
  6
CONTINUOUS
 10
-3.522
 20
-22.3380392387
 11
-3.022
 21
-22.3380392387
  0
LINE
  5
2CC
100
AcDbEntity
  8
DRAFT
100
AcDbLine
 62
7
  6
CONTINUOUS
 10
2.978
 20
-22.3380392387
 11
3.478
 21
-22.3380392387
  0
LINE
  5
2CD
100
AcDbEntity
  8
RACCORDO
100
AcDbLine
 62
250
  6
CONTINUOUS
 10
-7.3593448332
 20
-22.3126551668
 11
-3.022
 21
-22.3126551668
  0
LINE
  5
2CE
100
AcDbEntity
  8
RACCORDO
100
AcDbLine
 62
250
  6
CONTINUOUS
 10
2.978
 20
-22.3126551668
 11
7.3153448332
 21
-22.3126551668
  0
LINE
  5
2CF
100
AcDbEntity
  8
0
100
AcDbLine
 62
7
  6
CONTINUOUS
 10
2.978
 20
-21.7
 11
-3.022
 21
-21.7
  0
LINE
  5
2D0
100
AcDbEntity
  8
RACCORDO
100
AcDbLine
 62
250
  6
CONTINUOUS
 10
-7.6061007192
 20
-21.3126932437
 11
-3.022
 21
-21.3126932437
  0
LINE
  5
2D1
100
AcDbEntity
  8
RACCORDO
100
AcDbLine
 62
250
  6
CONTINUOUS
 10
2.978
 20
-21.3126932437
 11
7.5621007192
 21
-21.3126932437
  0
LINE
  5
2D2
100
AcDbEntity
  8
RACCORDO
100
AcDbLine
 62
250
  6
CONTINUOUS
 10
-8.276371834
 20
-24.2456323968
 11
-8.272
 21
-24.2500042308
  0
LINE
  5
2D3
100
AcDbEntity
  8
RACCORDO
100
AcDbLine
 62
7
  6
CONTINUOUS
 10
-8.272
 20
21.4
 11
-7.2807268678
 21
22.3912731322
  0
LINE
  5
2D4
100
AcDbEntity
  8
0
100
AcDbLine
 62
7
  6
CONTINUOUS
 10
-9.2640230647
 20
19.2579769353
 11
-10.8791067812
 21
17.6428932188
  0
LINE
  5
2D5
100
AcDbEntity
  8
0
100
AcDbLine
 62
7
  6
CONTINUOUS
 10
-0.022
 20
-21.2
 11
5.6601314735
 21
-21.1008180262
  0
LINE
  5
2D6
100
AcDbEntity
  8
ASSI
100
AcDbLine
 62
7
  6
CONTINUOUS
 10
-0.022
 20
-21.2
 11
5.6601314735
 21
-21.1008180262
  0
LINE
  5
2D7
100
AcDbEntity
  8
0
100
AcDbLine
 62
250
  6
CONTINUOUS
 10
-0.022
 20
-20.7000761524
 11
5.6601314735
 21
-20.6008941786
  0
LINE
  5
2D8
100
AcDbEntity
  8
ASSI
100
AcDbLine
 62
250
  6
CONTINUOUS
 10
-0.022
 20
-20.7000761524
 11
5.6601314735
 21
-20.6008941786
  0
LINE
  5
2D9
100
AcDbEntity
  8
0
100
AcDbLine
 62
250
  6
CONTINUOUS
 10
-5.0569048129
 20
-20.287808438
 11
-0.022
 21
-20.1999238476
  0
LINE
  5
2DA
100
AcDbEntity
  8
ASSI
100
AcDbLine
 62
250
  6
CONTINUOUS
 10
-5.0569048129
 20
-20.287808438
 11
-0.022
 21
-20.1999238476
  0
LINE
  5
2DB
100
AcDbEntity
  8
0
100
AcDbLine
 62
7
  6
CONTINUOUS
 10
-6.5307262032
 20
-19.8136102385
 11
8.53036869
 21
-19.5507178492
  0
LINE
  5
2DC
100
AcDbEntity
  8
ASSI
100
AcDbLine
 62
7
  6
CONTINUOUS
 10
-6.5307262032
 20
-19.8136102385
 11
8.53036869
 21
-19.5507178492
  0
LINE
  5
2DD
100
AcDbEntity
  8
0
100
AcDbLine
 62
250
  6
CONTINUOUS
 10
-7.022
 20
-20.3135340861
 11
-5.0569048129
 21
-20.287808438
  0
LINE
  5
2DE
100
AcDbEntity
  8
ASSI
100
AcDbLine
 62
250
  6
CONTINUOUS
 10
-7.022
 20
-20.3135340861
 11
-5.0569048129
 21
-20.287808438
  0
LINE
  5
2DF
100
AcDbEntity
  8
DRAFT
100
AcDbLine
 62
7
  6
CONTINUOUS
 10
9.628
 20
-20.9
 11
8.228
 21
-20.9
  0
LINE
  5
2E0
100
AcDbEntity
  8
RACCORDO
100
AcDbLine
 62
7
  6
CONTINUOUS
 10
-7.2638217019
 20
-20.9
 11
-8.272
 21
-20.9
  0
LINE
  5
2E1
100
AcDbEntity
  8
RACCORDO
100
AcDbLine
 62
7
  6
CONTINUOUS
 10
7.2198217019
 20
-20.9
 11
8.228
 21
-20.9
  0
LINE
  5
2E2
100
AcDbEntity
  8
DRAFT
100
AcDbLine
 62
7
  6
CONTINUOUS
 10
-8.272
 20
-20.9
 11
-9.672
 21
-20.9
  0
LINE
  5
2E3
100
AcDbEntity
  8
DRAFT
100
AcDbLine
 62
7
  6
CONTINUOUS
 10
-9.5166499221
 20
-20.4335707644
 11
-7.3737786853
 21
-20.4335707644
  0
LINE
  5
2E4
100
AcDbEntity
  8
DRAFT
100
AcDbLine
 62
7
  6
CONTINUOUS
 10
7.3297786853
 20
-20.4335707644
 11
9.4726499221
 21
-20.4335707644
  0
LINE
  5
2E5
100
AcDbEntity
  8
RACCORDO
100
AcDbLine
 62
250
  6
CONTINUOUS
 10
-6.8725643565
 20
-19.9570181168
 11
-7.2638217019
 21
-19.9570181168
  0
LINE
  5
2E6
100
AcDbEntity
  8
RACCORDO
100
AcDbLine
 62
250
  6
CONTINUOUS
 10
-6.3790215015
 20
-19.7570215015
 11
-7.2649784985
 21
-19.7570215015
  0
LINE
  5
2E7
100
AcDbEntity
  8
DRAFT
100
AcDbLine
 62
7
  6
CONTINUOUS
 10
-7.3737786853
 20
-19.6482213147
 11
-6.2702213147
 21
-19.6482213147
  0
LINE
  5
2E8
100
AcDbEntity
  8
0
100
AcDbLine
 62
250
  6
CONTINUOUS
 10
-7.022
 20
-20.5864659139
 11
-5.0569048129
 21
-20.612191562
  0
LINE
  5
2E9
100
AcDbEntity
  8
ASSI
100
AcDbLine
 62
250
  6
CONTINUOUS
 10
-7.022
 20
-20.5864659139
 11
-5.0569048129
 21
-20.612191562
  0
LINE
  5
2EA
100
AcDbEntity
  8
0
100
AcDbLine
 62
7
  6
CONTINUOUS
 10
-6.5307262032
 20
-21.0863897615
 11
-0.022
 21
-21.2
  0
LINE
  5
2EB
100
AcDbEntity
  8
ASSI
100
AcDbLine
 62
7
  6
CONTINUOUS
 10
-6.5307262032
 20
-21.0863897615
 11
-0.022
 21
-21.2
  0
LINE
  5
2EC
100
AcDbEntity
  8
0
100
AcDbLine
 62
250
  6
CONTINUOUS
 10
-5.0569048129
 20
-20.612191562
 11
-0.022
 21
-20.7000761524
  0
LINE
  5
2ED
100
AcDbEntity
  8
ASSI
100
AcDbLine
 62
250
  6
CONTINUOUS
 10
-5.0569048129
 20
-20.612191562
 11
-0.022
 21
-20.7000761524
  0
LINE
  5
2EE
100
AcDbEntity
  8
0
100
AcDbLine
 62
7
  6
CONTINUOUS
 10
-6.022
 20
-19.7952696104
 11
-5.7509961631
 21
-19.8
  0
LINE
  5
2EF
100
AcDbEntity
  8
0
100
AcDbLine
 62
7
  6
CONTINUOUS
 10
-8.57436869
 20
-19.5507178492
 11
-0.022
 21
-19.7
  0
LINE
  5
2F0
100
AcDbEntity
  8
RACCORDO
100
AcDbLine
 62
7
  6
CONTINUOUS
 10
-7.2807268678
 20
-22.3912731322
 11
-8.272
 21
-21.4
  0
LINE
  5
2F1
100
AcDbEntity
  8
0
100
AcDbLine
 62
7
  6
CONTINUOUS
 10
-10.8791067812
 20
-17.6428932188
 11
-9.2640230647
 21
-19.2579769353
  0
LINE
  5
2F2
100
AcDbEntity
  8
0
100
AcDbLine
 62
250
  6
CONTINUOUS
 10
-8.57436869
 20
18.5508701541
 11
-10.1894524064
 21
16.9357864376
  0
LINE
  5
2F3
100
AcDbEntity
  8
RACCORDO
100
AcDbLine
 62
7
  6
CONTINUOUS
 10
-7.2649784985
 20
19.7570215015
 11
-7.3737786853
 21
19.6482213147
  0
LINE
  5
2F4
100
AcDbEntity
  8
0
100
AcDbLine
 62
250
  6
CONTINUOUS
 10
-0.022
 20
-18.7001523048
 11
8.53036869
 21
-18.5508701541
  0
LINE
  5
2F5
100
AcDbEntity
  8
ASSI
100
AcDbLine
 62
250
  6
CONTINUOUS
 10
-0.022
 20
-18.7001523048
 11
8.53036869
 21
-18.5508701541
  0
LINE
  5
2F6
100
AcDbEntity
  8
0
100
AcDbLine
 62
250
  6
CONTINUOUS
 10
-8.57436869
 20
-18.5508701541
 11
-0.022
 21
-18.7001523048
  0
LINE
  5
2F7
100
AcDbEntity
  8
0
100
AcDbLine
 62
250
  6
CONTINUOUS
 10
-10.1894524064
 20
-16.9357864376
 11
-8.57436869
 21
-18.5508701541
  0
LINE
  5
2F8
100
AcDbEntity
  8
RACCORDO
100
AcDbLine
 62
7
  6
CONTINUOUS
 10
-7.2649784985
 20
-19.7570215015
 11
-7.3737786853
 21
-19.6482213147
  0
LINE
  5
2F9
100
AcDbEntity
  8
0
100
AcDbLine
 62
250
  6
CONTINUOUS
 10
10.1454524064
 20
-16.9357864376
 11
11.128
 21
-16.9357864376
  0
LINE
  5
2FA
100
AcDbEntity
  8
ASSI
100
AcDbLine
 62
250
  6
CONTINUOUS
 10
10.1454524064
 20
-16.9357864376
 11
11.128
 21
-16.9357864376
  0
LINE
  5
2FB
100
AcDbEntity
  8
0
100
AcDbLine
 62
250
  6
CONTINUOUS
 10
-10.1894524064
 20
-16.9357864376
 11
-11.172
 21
-16.9357864376
  0
LINE
  5
2FC
100
AcDbEntity
  8
CURVE
100
AcDbLine
 62
250
  6
CONTINUOUS
 10
3.9793081364
 20
-16.0714285523
 11
5.4790796791
 21
-16.0714285523
  0
LINE
  5
2FD
100
AcDbEntity
  8
CURVE
100
AcDbLine
 62
250
  6
CONTINUOUS
 10
5.0505735049
 20
-15.6428571045
 11
4.4078142659
 21
-15.6428571045
  0
LINE
  5
2FE
100
AcDbEntity
  8
CURVE
100
AcDbLine
 62
250
  6
CONTINUOUS
 10
7.1216865686
 20
-15.0
 11
6.4789273743
 21
-15.0
  0
LINE
  5
2FF
100
AcDbEntity
  8
CURVE
100
AcDbLine
 62
250
  6
CONTINUOUS
 10
4.4078142659
 20
-14.8928571939
 11
5.0505735049
 21
-14.8928571939
  0
LINE
  5
300
100
AcDbEntity
  8
CURVE
100
AcDbLine
 62
250
  6
CONTINUOUS
 10
1.1778172342
 20
-14.5357144028
 11
2.6775887769
 21
-14.5357144028
  0
LINE
  5
301
100
AcDbEntity
  8
CURVE
100
AcDbLine
 62
250
  6
CONTINUOUS
 10
5.0505735049
 20
-14.4642857909
 11
4.4078142659
 21
-14.4642857909
  0
LINE
  5
302
100
AcDbEntity
  8
CURVE
100
AcDbLine
 62
250
  6
CONTINUOUS
 10
7.7644458299
 20
-14.3571428508
 11
7.335939678
 21
-14.3571428508
  0
LINE
  5
303
100
AcDbEntity
  8
ASSI
100
AcDbLine
 62
7
  6
CONTINUOUS
 10
4.378
 20
23.8
 11
4.334315704
 21
23.756315704
  0
LINE
  5
304
100
AcDbEntity
  8
CURVE
100
AcDbLine
 62
250
  6
CONTINUOUS
 10
1.9277030056
 20
-14.1071429551
 11
2.4633356898
 21
-14.1071429551
  0
LINE
  5
305
100
AcDbEntity
  8
CURVE
100
AcDbLine
 62
250
  6
CONTINUOUS
 10
7.5501927428
 20
-13.928571403
 11
6.9074335038
 21
-13.928571403
  0
LINE
  5
306
100
AcDbEntity
  8
CURVE
100
AcDbLine
 62
250
  6
CONTINUOUS
 10
4.4078142659
 20
-13.7142857909
 11
5.0505735049
 21
-13.7142857909
  0
LINE
  5
307
100
AcDbEntity
  8
CURVE
100
AcDbLine
 62
250
  6
CONTINUOUS
 10
2.4633356898
 20
-13.3571430445
 11
2.0348295379
 21
-13.3571430445
  0
LINE
  5
308
100
AcDbEntity
  8
CURVE
100
AcDbLine
 62
250
  6
CONTINUOUS
 10
6.9074335038
 20
-13.178571403
 11
7.5501927428
 21
-13.178571403
  0
LINE
  5
309
100
AcDbEntity
  8
ASSI
100
AcDbLine
 62
7
  6
CONTINUOUS
 10
4.378
 20
-23.8
 11
4.3343493531
 21
-23.7563493531
  0
LINE
  5
30A
100
AcDbEntity
  8
RACCORDO
100
AcDbLine
 62
250
  6
CONTINUOUS
 10
-10.667628166
 20
-23.8443375673
 11
-10.672
 21
-23.4104851482
  0
LINE
  5
30B
100
AcDbEntity
  8
RACCORDO
100
AcDbLine
 62
250
  6
CONTINUOUS
 10
-10.4176323968
 20
-23.6278312164
 11
-10.4227229979
 21
-23.1226497308
  0
LINE
  5
30C
100
AcDbEntity
  8
0
100
AcDbLine
 62
7
  6
CONTINUOUS
 10
-11.172
 20
16.9357864376
 11
-11.172
 21
-16.9357864376
  0
LINE
  5
30D
100
AcDbEntity
  8
RACCORDO
100
AcDbLine
 62
7
  6
CONTINUOUS
 10
-11.172
 20
-21.9011798444
 11
-11.172
 21
-16.9357864376
  0
LINE
  5
30E
100
AcDbEntity
  8
RACCORDO
100
AcDbLine
 62
7
  6
CONTINUOUS
 10
-11.172
 20
16.9357864376
 11
-11.172
 21
21.9011798444
  0
LINE
  5
30F
100
AcDbEntity
  8
RACCORDO
100
AcDbLine
 62
7
  6
CONTINUOUS
 10
-10.672
 20
-22.3999410061
 11
-10.672
 21
-24.2500042308
  0
LINE
  5
310
100
AcDbEntity
  8
RACCORDO
100
AcDbLine
 62
7
  6
CONTINUOUS
 10
-10.672
 20
22.3999410061
 11
-10.672
 21
24.2500042308
  0
LINE
  5
311
100
AcDbEntity
  8
RACCORDO
100
AcDbLine
 62
250
  6
CONTINUOUS
 10
-10.667628166
 20
24.2456323968
 11
-10.667628166
 21
23.8443375673
  0
LINE
  5
312
100
AcDbEntity
  8
RACCORDO
100
AcDbLine
 62
250
  6
CONTINUOUS
 10
-10.667628166
 20
-23.8443375673
 11
-10.667628166
 21
-24.2456323968
  0
LINE
  5
313
100
AcDbEntity
  8
RACCORDO
100
AcDbLine
 62
250
  6
CONTINUOUS
 10
-10.672
 20
23.4104851482
 11
-10.667628166
 21
23.8443375673
  0
LINE
  5
314
100
AcDbEntity
  8
RACCORDO
100
AcDbLine
 62
250
  6
CONTINUOUS
 10
-10.4227229979
 20
23.1226497308
 11
-10.4169051681
 21
23.7
  0
LINE
  5
315
100
AcDbEntity
  8
CURVE
100
AcDbLine
 62
250
  6
CONTINUOUS
 10
2.3562091574
 20
-11.6428574324
 11
1.6063233637
 21
-11.6428574324
  0
LINE
  5
316
100
AcDbEntity
  8
CURVE
100
AcDbLine
 62
250
  6
CONTINUOUS
 10
7.2288131457
 20
-11.6071429253
 11
7.7644458299
 21
-11.6071429253
  0
LINE
  5
317
100
AcDbEntity
  8
CURVE
100
AcDbLine
 62
250
  6
CONTINUOUS
 10
4.4078142659
 20
-11.4642856121
 11
4.1935612012
 21
-11.4642856121
  0
LINE
  5
318
100
AcDbEntity
  8
CURVE
100
AcDbLine
 62
250
  6
CONTINUOUS
 10
7.7644458299
 20
-10.8571429253
 11
7.335939678
 21
-10.8571429253
  0
LINE
  5
319
100
AcDbEntity
  8
CURVE
100
AcDbLine
 62
250
  6
CONTINUOUS
 10
5.4790796791
 20
-10.5357141495
 11
4.7291939078
 21
-10.5357141495
  0
LINE
  5
31A
100
AcDbEntity
  8
CURVE
100
AcDbLine
 62
250
  6
CONTINUOUS
 10
2.6775887769
 20
-12.9285716414
 11
1.1778172342
 21
-12.5000000596
  0
LINE
  5
31B
100
AcDbEntity
  8
CURVE
100
AcDbLine
 62
250
  6
CONTINUOUS
 10
4.4078142659
 20
-15.6428571045
 11
4.1935612012
 21
-15.5357142985
  0
LINE
  5
31C
100
AcDbEntity
  8
CURVE
100
AcDbLine
 62
250
  6
CONTINUOUS
 10
1.499196876
 20
-13.8928572536
 11
1.9277030056
 21
-14.1071429551
  0
LINE
  5
31D
100
AcDbEntity
  8
CURVE
100
AcDbLine
 62
250
  6
CONTINUOUS
 10
5.0505735049
 20
-14.8928571939
 11
5.264826592
 21
-15.0
  0
LINE
  5
31E
100
AcDbEntity
  8
CURVE
100
AcDbLine
 62
250
  6
CONTINUOUS
 10
4.4078142659
 20
-14.4642857909
 11
4.1935612012
 21
-14.3571428061
  0
LINE
  5
31F
100
AcDbEntity
  8
RACCORDO
100
AcDbLine
 62
250
  6
CONTINUOUS
 10
-10.4176323968
 20
-23.6278312164
 11
-10.4176323968
 21
-24.495628166
  0
LINE
  5
320
100
AcDbEntity
  8
RACCORDO
100
AcDbLine
 62
250
  6
CONTINUOUS
 10
-10.4176323968
 20
23.7
 11
-10.4176323968
 21
24.495628166
  0
LINE
  5
321
100
AcDbEntity
  8
0
100
AcDbLine
 62
250
  6
CONTINUOUS
 10
-10.1894524064
 20
16.9357864376
 11
-10.1894524064
 21
-16.9357864376
  0
LINE
  5
322
100
AcDbEntity
  8
DRAFT
100
AcDbLine
 62
7
  6
CONTINUOUS
 10
-9.672
 20
-20.9
 11
-9.672
 21
-18.85
  0
LINE
  5
323
100
AcDbEntity
  8
DRAFT
100
AcDbLine
 62
7
  6
CONTINUOUS
 10
-9.672
 20
18.85
 11
-9.672
 21
20.9
  0
LINE
  5
324
100
AcDbEntity
  8
DRAFT
100
AcDbLine
 62
7
  6
CONTINUOUS
 10
-9.5166499221
 20
20.4335707644
 11
-9.5166499221
 21
19.0053500779
  0
LINE
  5
325
100
AcDbEntity
  8
DRAFT
100
AcDbLine
 62
7
  6
CONTINUOUS
 10
-9.5166499221
 20
-19.0053500779
 11
-9.5166499221
 21
-20.4335707644
  0
LINE
  5
326
100
AcDbEntity
  8
DRAFT
100
AcDbLine
 62
7
  6
CONTINUOUS
 10
-7.322
 20
20.9
 11
-7.3737786853
 21
20.4335707644
  0
LINE
  5
327
100
AcDbEntity
  8
DRAFT
100
AcDbLine
 62
7
  6
CONTINUOUS
 10
4.378
 20
22.4
 11
4.3339327327
 21
22.3338981669
  0
LINE
  5
328
100
AcDbEntity
  8
RACCORDO
100
AcDbLine
 62
250
  6
CONTINUOUS
 10
10.3736323968
 20
24.495628166
 11
10.3780042308
 21
24.5
  0
LINE
  5
329
100
AcDbEntity
  8
RACCORDO
100
AcDbLine
 62
250
  6
CONTINUOUS
 10
10.623628166
 20
24.2456323968
 11
10.628
 21
24.2500042308
  0
LINE
  5
32A
100
AcDbEntity
  8
CURVE
100
AcDbLine
 62
250
  6
CONTINUOUS
 10
3.2327551783
 20
15.3125
 11
3.649358397
 21
15.625
  0
LINE
  5
32B
100
AcDbEntity
  8
CURVE
100
AcDbLine
 62
250
  6
CONTINUOUS
 10
7.5501927428
 20
-10.4285713434
 11
6.9074335038
 21
-10.4285713434
  0
LINE
  5
32C
100
AcDbEntity
  8
CURVE
100
AcDbLine
 62
250
  6
CONTINUOUS
 10
1.7134499408
 20
-10.3928571939
 11
1.392070299
 21
-10.3928571939
  0
LINE
  5
32D
100
AcDbEntity
  8
CURVE
100
AcDbLine
 62
250
  6
CONTINUOUS
 10
2.5704622334
 20
-10.3571430445
 11
2.0348295379
 21
-10.3571430445
  0
LINE
  5
32E
100
AcDbEntity
  8
CURVE
100
AcDbLine
 62
250
  6
CONTINUOUS
 10
5.0505735049
 20
-9.8571431637
 11
4.4078142659
 21
-9.8571431637
  0
LINE
  5
32F
100
AcDbEntity
  8
CURVE
100
AcDbLine
 62
250
  6
CONTINUOUS
 10
2.5347533892
 20
-9.7142858505
 11
2.4990445451
 21
-9.7142858505
  0
LINE
  5
330
100
AcDbEntity
  8
CURVE
100
AcDbLine
 62
250
  6
CONTINUOUS
 10
6.9074335038
 20
-9.6785713434
 11
7.5501927428
 21
-9.6785713434
  0
LINE
  5
331
100
AcDbEntity
  8
CURVE
100
AcDbLine
 62
250
  6
CONTINUOUS
 10
2.4990445451
 20
-9.5714285374
 11
2.5347533892
 21
-9.5714285374
  0
LINE
  5
332
100
AcDbEntity
  8
CURVE
100
AcDbLine
 62
250
  6
CONTINUOUS
 10
7.978698917
 20
-9.2500001192
 11
6.4789273743
 21
-9.2500001192
  0
LINE
  5
333
100
AcDbEntity
  8
CURVE
100
AcDbLine
 62
250
  6
CONTINUOUS
 10
4.4078142659
 20
-9.1071431637
 11
5.0505735049
 21
-9.1071431637
  0
LINE
  5
334
100
AcDbEntity
  8
CURVE
100
AcDbLine
 62
250
  6
CONTINUOUS
 10
1.8205764285
 20
-9.0714286566
 11
1.1778172342
 21
-9.0714286566
  0
LINE
  5
335
100
AcDbEntity
  8
CURVE
100
AcDbLine
 62
250
  6
CONTINUOUS
 10
5.1577000596
 20
-11.0357143879
 11
3.9793081364
 21
-10.7142856121
  0
LINE
  5
336
100
AcDbEntity
  8
CURVE
100
AcDbLine
 62
250
  6
CONTINUOUS
 10
5.0505735049
 20
-13.7142857909
 11
5.264826592
 21
-13.821428597
  0
LINE
  5
337
100
AcDbEntity
  8
CURVE
100
AcDbLine
 62
250
  6
CONTINUOUS
 10
1.6063233637
 20
-11.6428574324
 11
1.1778172342
 21
-11.4285714626
  0
LINE
  5
338
100
AcDbEntity
  8
CURVE
100
AcDbLine
 62
250
  6
CONTINUOUS
 10
6.9074335038
 20
-13.928571403
 11
6.693180439
 21
-13.821428597
  0
LINE
  5
339
100
AcDbEntity
  8
RACCORDO
100
AcDbLine
 62
250
  6
CONTINUOUS
 10
10.3736323968
 20
-24.495628166
 11
10.3780042308
 21
-24.5
  0
LINE
  5
33A
100
AcDbEntity
  8
RACCORDO
100
AcDbLine
 62
250
  6
CONTINUOUS
 10
10.623628166
 20
-24.2456323968
 11
10.628
 21
-24.2500042308
  0
LINE
  5
33B
100
AcDbEntity
  8
CURVE
100
AcDbLine
 62
250
  6
CONTINUOUS
 10
1.6063233637
 20
-14.9642858505
 11
1.1778172342
 21
-14.5357144028
  0
LINE
  5
33C
100
AcDbEntity
  8
CURVE
100
AcDbLine
 62
250
  6
CONTINUOUS
 10
1.1778172342
 20
-13.571428746
 11
1.499196876
 21
-13.8928572536
  0
LINE
  5
33D
100
AcDbEntity
  8
DRAFT
100
AcDbLine
 62
7
  6
CONTINUOUS
 10
4.378
 20
-22.4
 11
4.3339327327
 21
-22.3338981669
  0
LINE
  5
33E
100
AcDbEntity
  8
DRAFT
100
AcDbLine
 62
7
  6
CONTINUOUS
 10
-7.3737786853
 20
-20.4335707644
 11
-7.322
 21
-20.9
  0
LINE
  5
33F
100
AcDbEntity
  8
RACCORDO
100
AcDbLine
 62
250
  6
CONTINUOUS
 10
-8.5270948319
 20
23.7
 11
-8.5212770021
 21
23.1226497308
  0
LINE
  5
340
100
AcDbEntity
  8
RACCORDO
100
AcDbLine
 62
250
  6
CONTINUOUS
 10
-8.276371834
 20
23.8443375673
 11
-8.272
 21
23.4104851482
  0
LINE
  5
341
100
AcDbEntity
  8
RACCORDO
100
AcDbLine
 62
250
  6
CONTINUOUS
 10
-8.5263676032
 20
-23.6278312164
 11
-8.5263676032
 21
-24.495628166
  0
LINE
  5
342
100
AcDbEntity
  8
RACCORDO
100
AcDbLine
 62
250
  6
CONTINUOUS
 10
-8.5263676032
 20
23.7
 11
-8.5263676032
 21
24.495628166
  0
LINE
  5
343
100
AcDbEntity
  8
RACCORDO
100
AcDbLine
 62
250
  6
CONTINUOUS
 10
-8.276371834
 20
-24.2456323968
 11
-8.276371834
 21
-23.8443375673
  0
LINE
  5
344
100
AcDbEntity
  8
RACCORDO
100
AcDbLine
 62
250
  6
CONTINUOUS
 10
-8.276371834
 20
23.8443375673
 11
-8.276371834
 21
24.2456323968
  0
LINE
  5
345
100
AcDbEntity
  8
DRAFT
100
AcDbLine
 62
7
  6
CONTINUOUS
 10
-8.272
 20
-21.4
 11
-8.272
 21
-20.9
  0
LINE
  5
346
100
AcDbEntity
  8
RACCORDO
100
AcDbLine
 62
7
  6
CONTINUOUS
 10
-8.272
 20
-22.4
 11
-8.272
 21
-24.2500042308
  0
LINE
  5
347
100
AcDbEntity
  8
DRAFT
100
AcDbLine
 62
7
  6
CONTINUOUS
 10
-8.272
 20
20.9
 11
-8.272
 21
21.4
  0
LINE
  5
348
100
AcDbEntity
  8
RACCORDO
100
AcDbLine
 62
7
  6
CONTINUOUS
 10
-8.272
 20
22.4
 11
-8.272
 21
24.2500042308
  0
LINE
  5
349
100
AcDbEntity
  8
RACCORDO
100
AcDbLine
 62
250
  6
CONTINUOUS
 10
-8.1060245667
 20
21.5659754333
 11
-8.1060245667
 21
20.9
  0
LINE
  5
34A
100
AcDbEntity
  8
RACCORDO
100
AcDbLine
 62
250
  6
CONTINUOUS
 10
-8.1060245667
 20
-20.9
 11
-8.1060245667
 21
-21.5659754333
  0
LINE
  5
34B
100
AcDbEntity
  8
RACCORDO
100
AcDbLine
 62
250
  6
CONTINUOUS
 10
-7.6061007192
 20
21.3126932437
 11
-7.6061007192
 21
20.9
  0
LINE
  5
34C
100
AcDbEntity
  8
RACCORDO
100
AcDbLine
 62
250
  6
CONTINUOUS
 10
-7.6061007192
 20
-20.9
 11
-7.6061007192
 21
-21.3126932437
  0
LINE
  5
34D
100
AcDbEntity
  8
DRAFT
100
AcDbLine
 62
7
  6
CONTINUOUS
 10
-7.3737786853
 20
20.4335707644
 11
-7.3737786853
 21
19.6482213147
  0
LINE
  5
34E
100
AcDbEntity
  8
DRAFT
100
AcDbLine
 62
7
  6
CONTINUOUS
 10
-7.3737786853
 20
-20.4335707644
 11
-7.3737786853
 21
-19.6482213147
  0
LINE
  5
34F
100
AcDbEntity
  8
RACCORDO
100
AcDbLine
 62
7
  6
CONTINUOUS
 10
-7.2638217019
 20
-20.9
 11
-7.2638217019
 21
-19.9570181168
  0
LINE
  5
350
100
AcDbEntity
  8
RACCORDO
100
AcDbLine
 62
7
  6
CONTINUOUS
 10
-7.2638217019
 20
19.9570181168
 11
-7.2638217019
 21
20.9
  0
LINE
  5
351
100
AcDbEntity
  8
0
100
AcDbLine
 62
7
  6
CONTINUOUS
 10
-7.022
 20
-20.5864659139
 11
-7.022
 21
-20.3135340861
  0
LINE
  5
352
100
AcDbEntity
  8
ASSI
100
AcDbLine
 62
7
  6
CONTINUOUS
 10
-7.022
 20
-20.5864659139
 11
-7.022
 21
-20.3135340861
  0
LINE
  5
353
100
AcDbEntity
  8
0
100
AcDbLine
 62
7
  6
CONTINUOUS
 10
-7.022
 20
20.3135340861
 11
-7.022
 21
20.5864659139
  0
LINE
  5
354
100
AcDbEntity
  8
ASSI
100
AcDbLine
 62
7
  6
CONTINUOUS
 10
-7.022
 20
20.3135340861
 11
-7.022
 21
20.5864659139
  0
LINE
  5
355
100
AcDbEntity
  8
RACCORDO
100
AcDbLine
 62
250
  6
CONTINUOUS
 10
-8.5212770021
 20
-23.1226497308
 11
-8.5263676032
 21
-23.6278312164
  0
LINE
  5
356
100
AcDbEntity
  8
RACCORDO
100
AcDbLine
 62
250
  6
CONTINUOUS
 10
-8.272
 20
-23.4104851482
 11
-8.276371834
 21
-23.8443375673
  0
LINE
  5
357
100
AcDbEntity
  8
CURVE
100
AcDbLine
 62
250
  6
CONTINUOUS
 10
6.4789273743
 20
-8.4999997616
 11
7.978698917
 21
-8.4999997616
  0
LINE
  5
358
100
AcDbEntity
  8
CURVE
100
AcDbLine
 62
250
  6
CONTINUOUS
 10
2.4633356898
 20
-8.4285714626
 11
2.0348295379
 21
-8.4285714626
  0
LINE
  5
359
100
AcDbEntity
  8
CURVE
100
AcDbLine
 62
250
  6
CONTINUOUS
 10
2.3562091574
 20
-7.7857146263
 11
1.6063233637
 21
-7.7857146263
  0
LINE
  5
35A
100
AcDbEntity
  8
CURVE
100
AcDbLine
 62
250
  6
CONTINUOUS
 10
7.5501927428
 20
-13.178571403
 11
7.7644458299
 21
-13.2857142091
  0
LINE
  5
35B
100
AcDbEntity
  8
CURVE
100
AcDbLine
 62
250
  6
CONTINUOUS
 10
2.4990445451
 20
-9.7142858505
 11
2.4276268457
 21
-9.678571701
  0
LINE
  5
35C
100
AcDbEntity
  8
CURVE
100
AcDbLine
 62
250
  6
CONTINUOUS
 10
2.5347533892
 20
-9.5714285374
 11
2.6061710831
 21
-9.6071430445
  0
LINE
  5
35D
100
AcDbEntity
  8
CURVE
100
AcDbLine
 62
250
  6
CONTINUOUS
 10
6.8003070161
 20
-11.3928573132
 11
7.2288131457
 21
-11.6071429253
  0
LINE
  5
35E
100
AcDbEntity
  8
CURVE
100
AcDbLine
 62
250
  6
CONTINUOUS
 10
3.9793081364
 20
-12.0
 11
4.3006877782
 21
-12.2142856121
  0
LINE
  5
35F
100
AcDbEntity
  8
CURVE
100
AcDbLine
 62
250
  6
CONTINUOUS
 10
4.4078142659
 20
-16.5
 11
3.9793081364
 21
-16.0714285523
  0
LINE
  5
360
100
AcDbEntity
  8
CURVE
100
AcDbLine
 62
250
  6
CONTINUOUS
 10
4.1935612012
 20
-15.5357142985
 11
3.9793081364
 21
-15.321428597
  0
LINE
  5
361
100
AcDbEntity
  8
CURVE
100
AcDbLine
 62
250
  6
CONTINUOUS
 10
2.6775887769
 20
-13.571428746
 11
2.4633356898
 21
-13.3571430445
  0
LINE
  5
362
100
AcDbEntity
  8
CURVE
100
AcDbLine
 62
250
  6
CONTINUOUS
 10
4.1935612012
 20
-14.3571428061
 11
3.9793081364
 21
-14.1428571939
  0
LINE
  5
363
100
AcDbEntity
  8
0
100
AcDbLine
 62
7
  6
CONTINUOUS
 10
-6.522
 20
-3.5
 11
-6.522
 21
12.75
  0
LINE
  5
364
100
AcDbEntity
  8
0
100
AcDbLine
 62
7
  6
CONTINUOUS
 10
-6.328
 20
12.7533862826
 11
-6.328
 21
-3.5033862826
  0
LINE
  5
365
100
AcDbEntity
  8
DRAFT
100
AcDbLine
 62
7
  6
CONTINUOUS
 10
-6.2702213147
 20
19.8090631087
 11
-6.2702213147
 21
19.6482213147
  0
LINE
  5
366
100
AcDbEntity
  8
DRAFT
100
AcDbLine
 62
7
  6
CONTINUOUS
 10
-6.2702213147
 20
-19.6482213147
 11
-6.2702213147
 21
-19.8090631087
  0
LINE
  5
367
100
AcDbEntity
  8
IMPORT_IGES
100
AcDbLine
 62
7
  6
CONTINUOUS
 10
-6.028
 20
12.0356057326
 11
-6.028
 21
11.8
  0
LINE
  5
368
100
AcDbEntity
  8
0
100
AcDbLine
 62
7
  6
CONTINUOUS
 10
-6.022
 20
19.7952696104
 11
-6.022
 21
19.5952696104
  0
LINE
  5
369
100
AcDbEntity
  8
0
100
AcDbLine
 62
7
  6
CONTINUOUS
 10
-6.022
 20
-19.5952696104
 11
-6.022
 21
-19.7952696104
  0
LINE
  5
36A
100
AcDbEntity
  8
IMPORT_IGES
100
AcDbLine
 62
7
  6
CONTINUOUS
 10
-5.998
 20
11.449528
 11
-5.998
 21
12.0356057326
  0
LINE
  5
36B
100
AcDbEntity
  8
IMPORT_IGES
100
AcDbLine
 62
7
  6
CONTINUOUS
 10
2.978
 20
10.75
 11
2.903
 21
10.675
  0
LINE
  5
36C
100
AcDbEntity
  8
CURVE
100
AcDbLine
 62
250
  6
CONTINUOUS
 10
7.0788359914
 20
9.5
 11
8.9785466122
 21
10.45
  0
LINE
  5
36D
100
AcDbEntity
  8
CURVE
100
AcDbLine
 62
250
  6
CONTINUOUS
 10
5.4790796791
 20
-8.25
 11
3.9793081364
 21
-7.8214287758
  0
LINE
  5
36E
100
AcDbEntity
  8
CURVE
100
AcDbLine
 62
250
  6
CONTINUOUS
 10
2.6775887769
 20
-7.3571426868
 11
1.1778172342
 21
-6.9285714626
  0
LINE
  5
36F
100
AcDbEntity
  8
CURVE
100
AcDbLine
 62
250
  6
CONTINUOUS
 10
4.4078142659
 20
-9.8571431637
 11
4.1935612012
 21
-9.75
  0
LINE
  5
370
100
AcDbEntity
  8
CURVE
100
AcDbLine
 62
250
  6
CONTINUOUS
 10
6.9074335038
 20
-10.4285713434
 11
6.693180439
 21
-10.3214285374
  0
LINE
  5
371
100
AcDbEntity
  8
CURVE
100
AcDbLine
 62
250
  6
CONTINUOUS
 10
2.7847153205
 20
-8.0000002384
 11
2.3562091574
 21
-7.7857146263
  0
LINE
  5
372
100
AcDbEntity
  8
CURVE
100
AcDbLine
 62
250
  6
CONTINUOUS
 10
5.0505735049
 20
-9.1071431637
 11
5.264826592
 21
-9.2142856121
  0
LINE
  5
373
100
AcDbEntity
  8
CURVE
100
AcDbLine
 62
250
  6
CONTINUOUS
 10
7.5501927428
 20
-9.6785713434
 11
7.7644458299
 21
-9.7857141495
  0
LINE
  5
374
100
AcDbEntity
  8
CURVE
100
AcDbLine
 62
250
  6
CONTINUOUS
 10
6.6217627508
 20
-11.8928571939
 11
7.9429900701
 21
-12.75
  0
LINE
  5
375
100
AcDbEntity
  8
CURVE
100
AcDbLine
 62
250
  6
CONTINUOUS
 10
5.4790796791
 20
-12.2142856121
 11
4.4078142659
 21
-11.4642856121
  0
LINE
  5
376
100
AcDbEntity
  8
CURVE
100
AcDbLine
 62
250
  6
CONTINUOUS
 10
5.264826592
 20
-15.0
 11
5.4790796791
 21
-15.2142857015
  0
LINE
  5
377
100
AcDbEntity
  8
CURVE
100
AcDbLine
 62
250
  6
CONTINUOUS
 10
5.264826592
 20
-13.821428597
 11
5.4790796791
 21
-14.0357142091
  0
LINE
  5
378
100
AcDbEntity
  8
CURVE
100
AcDbLine
 62
250
  6
CONTINUOUS
 10
2.6775887769
 20
-10.4642858505
 11
2.5704622334
 21
-10.3571430445
  0
LINE
  5
379
100
AcDbEntity
  8
0
100
AcDbLine
 62
250
  6
CONTINUOUS
 10
-5.0569048129
 20
-20.612191562
 11
-5.0569048129
 21
-20.287808438
  0
LINE
  5
37A
100
AcDbEntity
  8
ASSI
100
AcDbLine
 62
250
  6
CONTINUOUS
 10
-5.0569048129
 20
-20.612191562
 11
-5.0569048129
 21
-20.287808438
  0
LINE
  5
37B
100
AcDbEntity
  8
0
100
AcDbLine
 62
250
  6
CONTINUOUS
 10
-5.0569048129
 20
20.287808438
 11
-5.0569048129
 21
20.612191562
  0
LINE
  5
37C
100
AcDbEntity
  8
ASSI
100
AcDbLine
 62
250
  6
CONTINUOUS
 10
-5.0569048129
 20
20.287808438
 11
-5.0569048129
 21
20.612191562
  0
LINE
  5
37D
100
AcDbEntity
  8
IMPORT_IGES
100
AcDbLine
 62
7
  6
CONTINUOUS
 10
-4.898
 20
12.0356057326
 11
-4.898
 21
11.449528
  0
LINE
  5
37E
100
AcDbEntity
  8
IMPORT_IGES
100
AcDbLine
 62
7
  6
CONTINUOUS
 10
-4.528
 20
5.6
 11
-4.528
 21
6.35
  0
LINE
  5
37F
100
AcDbEntity
  8
0
100
AcDbLine
 62
7
  6
CONTINUOUS
 10
-4.522
 20
19.7785477922
 11
-4.522
 21
19.6214522078
  0
LINE
  5
380
100
AcDbEntity
  8
0
100
AcDbLine
 62
7
  6
CONTINUOUS
 10
-4.522
 20
-19.6214522078
 11
-4.522
 21
-19.7785477922
  0
LINE
  5
381
100
AcDbEntity
  8
DRAFT
100
AcDbLine
 62
7
  6
CONTINUOUS
 10
-4.422
 20
23.8
 11
-4.422
 21
22.4
  0
LINE
  5
382
100
AcDbEntity
  8
DRAFT
100
AcDbLine
 62
7
  6
CONTINUOUS
 10
-4.422
 20
-22.4
 11
-4.422
 21
-23.8
  0
LINE
  5
383
100
AcDbEntity
  8
ASSI
100
AcDbLine
 62
250
  6
CONTINUOUS
 10
-4.3779327327
 20
-23.7507734247
 11
-4.3779327327
 21
-22.3338981669
  0
LINE
  5
384
100
AcDbEntity
  8
ASSI
100
AcDbLine
 62
250
  6
CONTINUOUS
 10
-4.3779327327
 20
22.3338981669
 11
-4.3779327327
 21
23.7511641713
  0
LINE
  5
385
100
AcDbEntity
  8
IMPORT_IGES
100
AcDbLine
 62
7
  6
CONTINUOUS
 10
-3.828
 20
6.35
 11
-3.828
 21
10.55
  0
LINE
  5
386
100
AcDbEntity
  8
ASSI
100
AcDbLine
 62
7
  6
CONTINUOUS
 10
-3.522
 20
-22.3339198952
 11
-3.522
 21
-23.7941821702
  0
LINE
  5
387
100
AcDbEntity
  8
ASSI
100
AcDbLine
 62
7
  6
CONTINUOUS
 10
-3.522
 20
22.3339198952
 11
-3.522
 21
23.7941821702
  0
LINE
  5
388
100
AcDbEntity
  8
IMPORT_IGES
100
AcDbLine
 62
7
  6
CONTINUOUS
 10
5.978
 20
12.1
 11
5.928
 21
12.05
  0
LINE
  5
389
100
AcDbEntity
  8
IMPORT_IGES
100
AcDbLine
 62
7
  6
CONTINUOUS
 10
5.528
 20
10.75
 11
5.378
 21
10.6
  0
LINE
  5
38A
100
AcDbEntity
  8
0
100
AcDbLine
 62
7
  6
CONTINUOUS
 10
-0.022
 20
-3.6047303896
 11
5.978
 21
-3.5
  0
LINE
  5
38B
100
AcDbEntity
  8
ASSI
100
AcDbLine
 62
7
  6
CONTINUOUS
 10
-0.022
 20
-3.6047303896
 11
5.978
 21
-3.5
  0
LINE
  5
38C
100
AcDbEntity
  8
0
100
AcDbLine
 62
7
  6
CONTINUOUS
 10
-0.022
 20
-3.613457922
 11
-6.522
 21
-3.5
  0
LINE
  5
38D
100
AcDbEntity
  8
CURVE
100
AcDbLine
 62
250
  6
CONTINUOUS
 10
6.693180439
 20
-13.821428597
 11
6.4789273743
 21
-13.6071428955
  0
LINE
  5
38E
100
AcDbEntity
  8
CURVE
100
AcDbLine
 62
250
  6
CONTINUOUS
 10
7.978698917
 20
-14.5714285523
 11
7.7644458299
 21
-14.3571428508
  0
LINE
  5
38F
100
AcDbEntity
  8
CURVE
100
AcDbLine
 62
250
  6
CONTINUOUS
 10
2.6775887769
 20
-8.6428570747
 11
2.4633356898
 21
-8.4285714626
  0
LINE
  5
390
100
AcDbEntity
  8
CURVE
100
AcDbLine
 62
250
  6
CONTINUOUS
 10
4.1935612012
 20
-9.75
 11
3.9793081364
 21
-9.5357143879
  0
LINE
  5
391
100
AcDbEntity
  8
CURVE
100
AcDbLine
 62
250
  6
CONTINUOUS
 10
7.7644458299
 20
-13.2857142091
 11
7.978698917
 21
-13.5
  0
LINE
  5
392
100
AcDbEntity
  8
CURVE
100
AcDbLine
 62
250
  6
CONTINUOUS
 10
1.8205764285
 20
-10.5714286566
 11
1.7134499408
 21
-10.3928571939
  0
LINE
  5
393
100
AcDbEntity
  8
RACCORDO
100
AcDbLine
 62
7
  6
CONTINUOUS
 10
-3.022
 20
-21.1476348052
 11
-3.022
 21
-22.3380392387
  0
LINE
  5
394
100
AcDbEntity
  8
RACCORDO
100
AcDbLine
 62
7
  6
CONTINUOUS
 10
-3.022
 20
21.1476348052
 11
-3.022
 21
22.3380392387
  0
LINE
  5
395
100
AcDbEntity
  8
IMPORT_IGES
100
AcDbLine
 62
7
  6
CONTINUOUS
 10
-1.628
 20
10.05
 11
-1.628
 21
12.0356057326
  0
LINE
  5
396
100
AcDbEntity
  8
IMPORT_IGES
100
AcDbLine
 62
7
  6
CONTINUOUS
 10
-1.622
 20
5.1
 11
-1.622
 21
5.275
  0
LINE
  5
397
100
AcDbEntity
  8
IMPORT_IGES
100
AcDbLine
 62
7
  6
CONTINUOUS
 10
-1.622
 20
7.425
 11
-1.622
 21
7.975
  0
LINE
  5
398
100
AcDbEntity
  8
DRAFT
100
AcDbLine
 62
7
  6
CONTINUOUS
 10
-9.5166499221
 20
-20.4335707644
 11
-9.672
 21
-20.9
  0
LINE
  5
399
100
AcDbEntity
  8
IMPORT_IGES
100
AcDbLine
 62
7
  6
CONTINUOUS
 10
-6.328
 20
-3.15
 11
5.978
 21
-3.15
  0
LINE
  5
39A
100
AcDbEntity
  8
IMPORT_IGES
100
AcDbLine
 62
7
  6
CONTINUOUS
 10
0.828
 20
-3.025
 11
0.228
 21
-3.025
  0
LINE
  5
39B
100
AcDbEntity
  8
IMPORT_IGES
100
AcDbLine
 62
7
  6
CONTINUOUS
 10
-0.772
 20
-3.025
 11
-1.372
 21
-3.025
  0
LINE
  5
39C
100
AcDbEntity
  8
IMPORT_IGES
100
AcDbLine
 62
7
  6
CONTINUOUS
 10
-0.772
 20
-2.975
 11
0.228
 21
-2.975
  0
LINE
  5
39D
100
AcDbEntity
  8
IMPORT_IGES
100
AcDbLine
 62
7
  6
CONTINUOUS
 10
-1.028
 20
-2.7
 11
-6.328
 21
-2.7
  0
LINE
  5
39E
100
AcDbEntity
  8
IMPORT_IGES
100
AcDbLine
 62
7
  6
CONTINUOUS
 10
0.228
 20
-1.625
 11
-0.772
 21
-1.625
  0
LINE
  5
39F
100
AcDbEntity
  8
IMPORT_IGES
100
AcDbLine
 62
7
  6
CONTINUOUS
 10
0.828
 20
-1.575
 11
0.228
 21
-1.575
  0
LINE
  5
3A0
100
AcDbEntity
  8
IMPORT_IGES
100
AcDbLine
 62
7
  6
CONTINUOUS
 10
-0.772
 20
-1.575
 11
-1.028
 21
-1.575
  0
LINE
  5
3A1
100
AcDbEntity
  8
CURVE
100
AcDbLine
 62
250
  6
CONTINUOUS
 10
6.9074335038
 20
-7.428571701
 11
7.978698917
 21
-8.0714285374
  0
LINE
  5
3A2
100
AcDbEntity
  8
CURVE
100
AcDbLine
 62
250
  6
CONTINUOUS
 10
6.4789273743
 20
-11.0714285374
 11
6.8003070161
 21
-11.3928573132
  0
LINE
  5
3A3
100
AcDbEntity
  8
CURVE
100
AcDbLine
 62
250
  6
CONTINUOUS
 10
5.264826592
 20
-9.2142856121
 11
5.4790796791
 21
-9.4285712242
  0
LINE
  5
3A4
100
AcDbEntity
  8
CURVE
100
AcDbLine
 62
250
  6
CONTINUOUS
 10
6.693180439
 20
-10.3214285374
 11
6.4789273743
 21
-10.1071429253
  0
LINE
  5
3A5
100
AcDbEntity
  8
CURVE
100
AcDbLine
 62
250
  6
CONTINUOUS
 10
7.978698917
 20
-11.0714285374
 11
7.7644458299
 21
-10.8571429253
  0
LINE
  5
3A6
100
AcDbEntity
  8
DRAFT
100
AcDbLine
 62
7
  6
CONTINUOUS
 10
-9.672
 20
20.9
 11
-9.5166499221
 21
20.4335707644
  0
LINE
  5
3A7
100
AcDbEntity
  8
IMPORT_IGES
100
AcDbLine
 62
7
  6
CONTINUOUS
 10
-1.372
 20
-2.7
 11
-1.372
 21
-3.025
  0
LINE
  5
3A8
100
AcDbEntity
  8
IMPORT_IGES
100
AcDbLine
 62
7
  6
CONTINUOUS
 10
-1.028
 20
-2.7
 11
-1.028
 21
5.1
  0
LINE
  5
3A9
100
AcDbEntity
  8
IMPORT_IGES
100
AcDbLine
 62
7
  6
CONTINUOUS
 10
-0.772
 20
-1.575
 11
-0.772
 21
-3.025
  0
LINE
  5
3AA
100
AcDbEntity
  8
IMPORT_IGES
100
AcDbLine
 62
7
  6
CONTINUOUS
 10
-0.622
 20
7.975
 11
-0.622
 21
7.425
  0
LINE
  5
3AB
100
AcDbEntity
  8
IMPORT_IGES
100
AcDbLine
 62
7
  6
CONTINUOUS
 10
-0.622
 20
5.275
 11
-0.622
 21
4.725
  0
LINE
  5
3AC
100
AcDbEntity
  8
IMPORT_IGES
100
AcDbLine
 62
7
  6
CONTINUOUS
 10
-0.547
 20
11.7
 11
-0.547
 21
12.0356057326
  0
LINE
  5
3AD
100
AcDbEntity
  8
IMPORT_IGES
100
AcDbLine
 62
7
  6
CONTINUOUS
 10
-0.322
 20
0.575
 11
-0.322
 21
0.025
  0
LINE
  5
3AE
100
AcDbEntity
  8
IMPORT_IGES
100
AcDbLine
 62
7
  6
CONTINUOUS
 10
-0.322
 20
-0.525
 11
-0.322
 21
-1.075
  0
LINE
  5
3AF
100
AcDbEntity
  8
0
100
AcDbLine
 62
7
  6
CONTINUOUS
 10
-0.022
 20
-21.2
 11
-0.022
 21
-3.6047303896
  0
LINE
  5
3B0
100
AcDbEntity
  8
ASSI
100
AcDbLine
 62
7
  6
CONTINUOUS
 10
-0.022
 20
-21.2
 11
-0.022
 21
-3.6047303896
  0
LINE
  5
3B1
100
AcDbEntity
  8
0
100
AcDbLine
 62
7
  6
CONTINUOUS
 10
-0.022
 20
12.8547303896
 11
-0.022
 21
21.2
  0
LINE
  5
3B2
100
AcDbEntity
  8
ASSI
100
AcDbLine
 62
7
  6
CONTINUOUS
 10
-0.022
 20
12.8547303896
 11
-0.022
 21
21.2
  0
LINE
  5
3B3
100
AcDbEntity
  8
IMPORT_IGES
100
AcDbLine
 62
7
  6
CONTINUOUS
 10
0.003
 20
12.0356057326
 11
0.003
 21
11.7
  0
LINE
  5
3B4
100
AcDbEntity
  8
IMPORT_IGES
100
AcDbLine
 62
7
  6
CONTINUOUS
 10
0.178
 20
5.175
 11
0.178
 21
6.425
  0
LINE
  5
3B5
100
AcDbEntity
  8
IMPORT_IGES
100
AcDbLine
 62
7
  6
CONTINUOUS
 10
0.178
 20
8.125
 11
0.178
 21
9.375
  0
LINE
  5
3B6
100
AcDbEntity
  8
IMPORT_IGES
100
AcDbLine
 62
7
  6
CONTINUOUS
 10
0.228
 20
-3.025
 11
0.228
 21
-1.575
  0
LINE
  5
3B7
100
AcDbEntity
  8
IMPORT_IGES
100
AcDbLine
 62
7
  6
CONTINUOUS
 10
-0.322
 20
-1.075
 11
-1.028
 21
-1.075
  0
LINE
  5
3B8
100
AcDbEntity
  8
IMPORT_IGES
100
AcDbLine
 62
7
  6
CONTINUOUS
 10
-1.028
 20
-0.525
 11
-0.322
 21
-0.525
  0
LINE
  5
3B9
100
AcDbEntity
  8
IMPORT_IGES
100
AcDbLine
 62
7
  6
CONTINUOUS
 10
5.978
 20
-0.25
 11
3.128
 21
-0.25
  0
LINE
  5
3BA
100
AcDbEntity
  8
IMPORT_IGES
100
AcDbLine
 62
7
  6
CONTINUOUS
 10
-0.322
 20
0.025
 11
-1.028
 21
0.025
  0
LINE
  5
3BB
100
AcDbEntity
  8
CURVE
100
AcDbLine
 62
250
  6
CONTINUOUS
 10
7.0788359914
 20
0.0428571671
 11
8.9785466122
 21
0.0428571671
  0
LINE
  5
3BC
100
AcDbEntity
  8
IMPORT_IGES
100
AcDbLine
 62
7
  6
CONTINUOUS
 10
1.978
 20
0.075
 11
0.978
 21
0.075
  0
LINE
  5
3BD
100
AcDbEntity
  8
CURVE
100
AcDbLine
 62
250
  6
CONTINUOUS
 10
7.7644458299
 20
-9.7857141495
 11
7.978698917
 21
-10.0000001192
  0
LINE
  5
3BE
100
AcDbEntity
  8
IMPORT_IGES
100
AcDbLine
 62
7
  6
CONTINUOUS
 10
0.428
 20
4.7
 11
0.428
 21
5.175
  0
LINE
  5
3BF
100
AcDbEntity
  8
IMPORT_IGES
100
AcDbLine
 62
7
  6
CONTINUOUS
 10
0.428
 20
6.425
 11
0.428
 21
6.9
  0
LINE
  5
3C0
100
AcDbEntity
  8
IMPORT_IGES
100
AcDbLine
 62
7
  6
CONTINUOUS
 10
0.428
 20
7.65
 11
0.428
 21
8.125
  0
LINE
  5
3C1
100
AcDbEntity
  8
IMPORT_IGES
100
AcDbLine
 62
7
  6
CONTINUOUS
 10
0.428
 20
9.375
 11
0.428
 21
9.85
  0
LINE
  5
3C2
100
AcDbEntity
  8
IMPORT_IGES
100
AcDbLine
 62
7
  6
CONTINUOUS
 10
0.528
 20
11.4
 11
0.528
 21
12.0356057326
  0
LINE
  5
3C3
100
AcDbEntity
  8
IMPORT_IGES
100
AcDbLine
 62
7
  6
CONTINUOUS
 10
0.628
 20
4.7
 11
0.628
 21
5.175
  0
LINE
  5
3C4
100
AcDbEntity
  8
IMPORT_IGES
100
AcDbLine
 62
7
  6
CONTINUOUS
 10
0.628
 20
6.425
 11
0.628
 21
6.9
  0
LINE
  5
3C5
100
AcDbEntity
  8
IMPORT_IGES
100
AcDbLine
 62
7
  6
CONTINUOUS
 10
0.628
 20
7.65
 11
0.628
 21
8.125
  0
LINE
  5
3C6
100
AcDbEntity
  8
IMPORT_IGES
100
AcDbLine
 62
7
  6
CONTINUOUS
 10
0.628
 20
9.375
 11
0.628
 21
9.85
  0
LINE
  5
3C7
100
AcDbEntity
  8
IMPORT_IGES
100
AcDbLine
 62
7
  6
CONTINUOUS
 10
0.828
 20
-3.025
 11
0.828
 21
-1.575
  0
LINE
  5
3C8
100
AcDbEntity
  8
IMPORT_IGES
100
AcDbLine
 62
7
  6
CONTINUOUS
 10
0.978
 20
0.075
 11
0.978
 21
0.625
  0
LINE
  5
3C9
100
AcDbEntity
  8
IMPORT_IGES
100
AcDbLine
 62
7
  6
CONTINUOUS
 10
1.078
 20
9.85
 11
1.078
 21
9.375
  0
LINE
  5
3CA
100
AcDbEntity
  8
IMPORT_IGES
100
AcDbLine
 62
7
  6
CONTINUOUS
 10
1.078
 20
6.9
 11
1.078
 21
6.425
  0
LINE
  5
3CB
100
AcDbEntity
  8
IMPORT_IGES
100
AcDbLine
 62
7
  6
CONTINUOUS
 10
1.078
 20
4.7
 11
1.078
 21
5.175
  0
LINE
  5
3CC
100
AcDbEntity
  8
IMPORT_IGES
100
AcDbLine
 62
7
  6
CONTINUOUS
 10
1.078
 20
7.65
 11
1.078
 21
8.125
  0
LINE
  5
3CD
100
AcDbEntity
  8
CURVE
100
AcDbLine
 62
250
  6
CONTINUOUS
 10
1.1778172342
 20
-10.5714286566
 11
1.1778172342
 21
-11.0000002384
  0
LINE
  5
3CE
100
AcDbEntity
  8
CURVE
100
AcDbLine
 62
250
  6
CONTINUOUS
 10
1.1778172342
 20
-9.0714286566
 11
1.1778172342
 21
-8.4285714626
  0
LINE
  5
3CF
100
AcDbEntity
  8
IMPORT_IGES
100
AcDbLine
 62
7
  6
CONTINUOUS
 10
1.278
 20
4.7
 11
1.278
 21
5.175
  0
LINE
  5
3D0
100
AcDbEntity
  8
IMPORT_IGES
100
AcDbLine
 62
7
  6
CONTINUOUS
 10
1.278
 20
6.425
 11
1.278
 21
6.9
  0
LINE
  5
3D1
100
AcDbEntity
  8
IMPORT_IGES
100
AcDbLine
 62
7
  6
CONTINUOUS
 10
1.278
 20
7.65
 11
1.278
 21
8.125
  0
LINE
  5
3D2
100
AcDbEntity
  8
IMPORT_IGES
100
AcDbLine
 62
7
  6
CONTINUOUS
 10
1.278
 20
9.375
 11
1.278
 21
9.85
  0
LINE
  5
3D3
100
AcDbEntity
  8
IMPORT_IGES
100
AcDbLine
 62
7
  6
CONTINUOUS
 10
1.428
 20
12.0356057326
 11
1.428
 21
11.4
  0
LINE
  5
3D4
100
AcDbEntity
  8
IMPORT_IGES
100
AcDbLine
 62
7
  6
CONTINUOUS
 10
1.728
 20
9.85
 11
1.728
 21
9.375
  0
LINE
  5
3D5
100
AcDbEntity
  8
IMPORT_IGES
100
AcDbLine
 62
7
  6
CONTINUOUS
 10
1.728
 20
6.9
 11
1.728
 21
6.425
  0
LINE
  5
3D6
100
AcDbEntity
  8
IMPORT_IGES
100
AcDbLine
 62
7
  6
CONTINUOUS
 10
1.728
 20
4.7
 11
1.728
 21
5.175
  0
LINE
  5
3D7
100
AcDbEntity
  8
IMPORT_IGES
100
AcDbLine
 62
7
  6
CONTINUOUS
 10
1.728
 20
7.65
 11
1.728
 21
8.125
  0
LINE
  5
3D8
100
AcDbEntity
  8
IMPORT_IGES
100
AcDbLine
 62
7
  6
CONTINUOUS
 10
1.728
 20
11.2
 11
1.728
 21
11.7
  0
LINE
  5
3D9
100
AcDbEntity
  8
CURVE
100
AcDbLine
 62
250
  6
CONTINUOUS
 10
1.8205764285
 20
-8.6428570747
 11
1.8205764285
 21
-9.0714286566
  0
LINE
  5
3DA
100
AcDbEntity
  8
CURVE
100
AcDbLine
 62
250
  6
CONTINUOUS
 10
1.8205764285
 20
-10.5714286566
 11
1.8205764285
 21
-10.7857142687
  0
LINE
  5
3DB
100
AcDbEntity
  8
CURVE
100
AcDbLine
 62
250
  6
CONTINUOUS
 10
1.8205764285
 20
-13.571428746
 11
1.8205764285
 21
-14.0357143879
  0
LINE
  5
3DC
100
AcDbEntity
  8
IMPORT_IGES
100
AcDbLine
 62
7
  6
CONTINUOUS
 10
1.928
 20
4.7
 11
1.928
 21
5.175
  0
LINE
  5
3DD
100
AcDbEntity
  8
IMPORT_IGES
100
AcDbLine
 62
7
  6
CONTINUOUS
 10
1.928
 20
6.425
 11
1.928
 21
6.9
  0
LINE
  5
3DE
100
AcDbEntity
  8
IMPORT_IGES
100
AcDbLine
 62
7
  6
CONTINUOUS
 10
1.928
 20
7.65
 11
1.928
 21
8.125
  0
LINE
  5
3DF
100
AcDbEntity
  8
IMPORT_IGES
100
AcDbLine
 62
7
  6
CONTINUOUS
 10
1.928
 20
9.375
 11
1.928
 21
9.85
  0
LINE
  5
3E0
100
AcDbEntity
  8
IMPORT_IGES
100
AcDbLine
 62
7
  6
CONTINUOUS
 10
1.978
 20
0.625
 11
1.978
 21
0.075
  0
LINE
  5
3E1
100
AcDbEntity
  8
IMPORT_IGES
100
AcDbLine
 62
7
  6
CONTINUOUS
 10
-1.028
 20
0.575
 11
-0.322
 21
0.575
  0
LINE
  5
3E2
100
AcDbEntity
  8
IMPORT_IGES
100
AcDbLine
 62
7
  6
CONTINUOUS
 10
0.978
 20
0.625
 11
1.978
 21
0.625
  0
LINE
  5
3E3
100
AcDbEntity
  8
IMPORT_IGES
100
AcDbLine
 62
7
  6
CONTINUOUS
 10
3.128
 20
1.35
 11
5.978
 21
1.35
  0
LINE
  5
3E4
100
AcDbEntity
  8
IMPORT_IGES
100
AcDbLine
 62
7
  6
CONTINUOUS
 10
5.978
 20
1.925
 11
5.578
 21
1.925
  0
LINE
  5
3E5
100
AcDbEntity
  8
IMPORT_IGES
100
AcDbLine
 62
7
  6
CONTINUOUS
 10
4.228
 20
1.925
 11
3.228
 21
1.925
  0
LINE
  5
3E6
100
AcDbEntity
  8
CURVE
100
AcDbLine
 62
250
  6
CONTINUOUS
 10
5.0148646608
 20
-7.3928568363
 11
4.9077381284
 21
-7.1428570747
  0
LINE
  5
3E7
100
AcDbEntity
  8
IMPORT_IGES
100
AcDbLine
 62
7
  6
CONTINUOUS
 10
2.172
 20
12.0356057326
 11
2.172
 21
12.8
  0
LINE
  5
3E8
100
AcDbEntity
  8
IMPORT_IGES
100
AcDbLine
 62
7
  6
CONTINUOUS
 10
2.178
 20
9.375
 11
2.178
 21
8.125
  0
LINE
  5
3E9
100
AcDbEntity
  8
IMPORT_IGES
100
AcDbLine
 62
7
  6
CONTINUOUS
 10
2.178
 20
6.425
 11
2.178
 21
5.175
  0
LINE
  5
3EA
100
AcDbEntity
  8
CURVE
100
AcDbLine
 62
250
  6
CONTINUOUS
 10
2.2490826027
 20
-12.7857145071
 11
2.2490826027
 21
-12.2142857909
  0
LINE
  5
3EB
100
AcDbEntity
  8
CURVE
100
AcDbLine
 62
250
  6
CONTINUOUS
 10
2.2490826027
 20
-7.2142860889
 11
2.2490826027
 21
-6.6428575516
  0
LINE
  5
3EC
100
AcDbEntity
  8
CURVE
100
AcDbLine
 62
250
  6
CONTINUOUS
 10
2.4276268457
 20
-9.678571701
 11
2.4276268457
 21
-9.6071430445
  0
LINE
  5
3ED
100
AcDbEntity
  8
CURVE
100
AcDbLine
 62
250
  6
CONTINUOUS
 10
2.6061710831
 20
-9.6071430445
 11
2.6061710831
 21
-9.678571701
  0
LINE
  5
3EE
100
AcDbEntity
  8
CURVE
100
AcDbLine
 62
250
  6
CONTINUOUS
 10
2.6775887769
 20
-13.8928572536
 11
2.6775887769
 21
-13.571428746
  0
LINE
  5
3EF
100
AcDbEntity
  8
CURVE
100
AcDbLine
 62
250
  6
CONTINUOUS
 10
2.6775887769
 20
-11.0000002384
 11
2.6775887769
 21
-10.4642858505
  0
LINE
  5
3F0
100
AcDbEntity
  8
CURVE
100
AcDbLine
 62
250
  6
CONTINUOUS
 10
2.6775887769
 20
-9.0714286566
 11
2.6775887769
 21
-8.6428570747
  0
LINE
  5
3F1
100
AcDbEntity
  8
IMPORT_IGES
100
AcDbLine
 62
7
  6
CONTINUOUS
 10
2.828
 20
10.75
 11
2.828
 21
12.8049834545
  0
LINE
  5
3F2
100
AcDbEntity
  8
RACCORDO
100
AcDbLine
 62
7
  6
CONTINUOUS
 10
2.978
 20
-21.1476348052
 11
2.978
 21
-22.3380392387
  0
LINE
  5
3F3
100
AcDbEntity
  8
IMPORT_IGES
100
AcDbLine
 62
7
  6
CONTINUOUS
 10
2.978
 20
5.825
 11
2.978
 21
6.375
  0
LINE
  5
3F4
100
AcDbEntity
  8
IMPORT_IGES
100
AcDbLine
 62
7
  6
CONTINUOUS
 10
2.978
 20
7.425
 11
2.978
 21
7.975
  0
LINE
  5
3F5
100
AcDbEntity
  8
IMPORT_IGES
100
AcDbLine
 62
7
  6
CONTINUOUS
 10
2.978
 20
9.025
 11
2.978
 21
9.575
  0
LINE
  5
3F6
100
AcDbEntity
  8
IMPORT_IGES
100
AcDbLine
 62
7
  6
CONTINUOUS
 10
2.978
 20
10.75
 11
2.978
 21
12.8023651948
  0
LINE
  5
3F7
100
AcDbEntity
  8
RACCORDO
100
AcDbLine
 62
7
  6
CONTINUOUS
 10
2.978
 20
21.1476348052
 11
2.978
 21
22.3380392387
  0
LINE
  5
3F8
100
AcDbEntity
  8
IMPORT_IGES
100
AcDbLine
 62
7
  6
CONTINUOUS
 10
3.128
 20
-0.25
 11
3.128
 21
1.35
  0
LINE
  5
3F9
100
AcDbEntity
  8
IMPORT_IGES
100
AcDbLine
 62
7
  6
CONTINUOUS
 10
3.128
 20
4.775
 11
3.128
 21
5.325
  0
LINE
  5
3FA
100
AcDbEntity
  8
IMPORT_IGES
100
AcDbLine
 62
7
  6
CONTINUOUS
 10
3.228
 20
1.925
 11
3.228
 21
2.475
  0
LINE
  5
3FB
100
AcDbEntity
  8
ASSI
100
AcDbLine
 62
7
  6
CONTINUOUS
 10
3.478
 20
-22.3339198952
 11
3.478
 21
-23.7941821702
  0
LINE
  5
3FC
100
AcDbEntity
  8
ASSI
100
AcDbLine
 62
7
  6
CONTINUOUS
 10
3.478
 20
22.3339198952
 11
3.478
 21
23.7941821702
  0
LINE
  5
3FD
100
AcDbEntity
  8
CURVE
100
AcDbLine
 62
250
  6
CONTINUOUS
 10
3.649358397
 20
15.625
 11
3.649358397
 21
15.9375
  0
LINE
  5
3FE
100
AcDbEntity
  8
DRAFT
100
AcDbLine
 62
7
  6
CONTINUOUS
 10
9.628
 20
20.9
 11
9.4726499221
 21
20.4335707644
  0
LINE
  5
3FF
100
AcDbEntity
  8
IMPORT_IGES
100
AcDbLine
 62
7
  6
CONTINUOUS
 10
3.228
 20
2.475
 11
4.228
 21
2.475
  0
LINE
  5
400
100
AcDbEntity
  8
IMPORT_IGES
100
AcDbLine
 62
7
  6
CONTINUOUS
 10
5.578
 20
2.475
 11
5.978
 21
2.475
  0
LINE
  5
401
100
AcDbEntity
  8
CURVE
100
AcDbLine
 62
250
  6
CONTINUOUS
 10
5.1219912155
 20
-6.8571431637
 11
5.0148646608
 21
-6.5714285374
  0
LINE
  5
402
100
AcDbEntity
  8
DRAFT
100
AcDbLine
 62
7
  6
CONTINUOUS
 10
9.4726499221
 20
-20.4335707644
 11
9.628
 21
-20.9
  0
LINE
  5
403
100
AcDbEntity
  8
IMPORT_IGES
100
AcDbLine
 62
7
  6
CONTINUOUS
 10
3.978
 20
9.575
 11
3.978
 21
9.025
  0
LINE
  5
404
100
AcDbEntity
  8
IMPORT_IGES
100
AcDbLine
 62
7
  6
CONTINUOUS
 10
3.978
 20
7.975
 11
3.978
 21
7.425
  0
LINE
  5
405
100
AcDbEntity
  8
IMPORT_IGES
100
AcDbLine
 62
7
  6
CONTINUOUS
 10
3.978
 20
6.375
 11
3.978
 21
5.825
  0
LINE
  5
406
100
AcDbEntity
  8
CURVE
100
AcDbLine
 62
250
  6
CONTINUOUS
 10
3.9793081364
 20
-11.6785715818
 11
3.9793081364
 21
-12.0
  0
LINE
  5
407
100
AcDbEntity
  8
CURVE
100
AcDbLine
 62
250
  6
CONTINUOUS
 10
3.9793081364
 20
-15.321428597
 11
3.9793081364
 21
-15.2142857015
  0
LINE
  5
408
100
AcDbEntity
  8
CURVE
100
AcDbLine
 62
250
  6
CONTINUOUS
 10
3.9793081364
 20
-14.1428571939
 11
3.9793081364
 21
-14.0357142091
  0
LINE
  5
409
100
AcDbEntity
  8
CURVE
100
AcDbLine
 62
250
  6
CONTINUOUS
 10
3.9793081364
 20
-9.5357143879
 11
3.9793081364
 21
-9.4285712242
  0
LINE
  5
40A
100
AcDbEntity
  8
IMPORT_IGES
100
AcDbLine
 62
7
  6
CONTINUOUS
 10
4.128
 20
5.325
 11
4.128
 21
4.775
  0
LINE
  5
40B
100
AcDbEntity
  8
IMPORT_IGES
100
AcDbLine
 62
7
  6
CONTINUOUS
 10
4.228
 20
2.475
 11
4.228
 21
1.925
  0
LINE
  5
40C
100
AcDbEntity
  8
ASSI
100
AcDbLine
 62
250
  6
CONTINUOUS
 10
4.3339327327
 20
-23.7507734247
 11
4.3339327327
 21
-22.3338981669
  0
LINE
  5
40D
100
AcDbEntity
  8
ASSI
100
AcDbLine
 62
250
  6
CONTINUOUS
 10
4.3339327327
 20
22.3338981669
 11
4.3339327327
 21
23.7511641713
  0
LINE
  5
40E
100
AcDbEntity
  8
DRAFT
100
AcDbLine
 62
7
  6
CONTINUOUS
 10
4.378
 20
-23.8
 11
4.378
 21
-22.4
  0
LINE
  5
40F
100
AcDbEntity
  8
DRAFT
100
AcDbLine
 62
7
  6
CONTINUOUS
 10
4.378
 20
22.4
 11
4.378
 21
23.8
  0
LINE
  5
410
100
AcDbEntity
  8
CURVE
100
AcDbLine
 62
250
  6
CONTINUOUS
 10
4.9434469725
 20
-13.2857143879
 11
4.9434469725
 21
-12.6428571939
  0
LINE
  5
411
100
AcDbEntity
  8
CURVE
100
AcDbLine
 62
250
  6
CONTINUOUS
 10
5.1577000596
 20
-10.2857143879
 11
5.1577000596
 21
-11.0357143879
  0
LINE
  5
412
100
AcDbEntity
  8
IMPORT_IGES
100
AcDbLine
 62
7
  6
CONTINUOUS
 10
5.178
 20
4.1
 11
5.178
 21
5.8
  0
LINE
  5
413
100
AcDbEntity
  8
IMPORT_IGES
100
AcDbLine
 62
7
  6
CONTINUOUS
 10
5.378
 20
12.760473039
 11
5.378
 21
10.75
  0
LINE
  5
414
100
AcDbEntity
  8
CURVE
100
AcDbLine
 62
250
  6
CONTINUOUS
 10
5.4790796791
 20
-9.4285712242
 11
5.4790796791
 21
-9.5357143879
  0
LINE
  5
415
100
AcDbEntity
  8
CURVE
100
AcDbLine
 62
250
  6
CONTINUOUS
 10
5.4790796791
 20
-11.4642856121
 11
5.4790796791
 21
-12.2142856121
  0
LINE
  5
416
100
AcDbEntity
  8
CURVE
100
AcDbLine
 62
250
  6
CONTINUOUS
 10
5.4790796791
 20
-14.0357142091
 11
5.4790796791
 21
-14.1428571939
  0
LINE
  5
417
100
AcDbEntity
  8
CURVE
100
AcDbLine
 62
250
  6
CONTINUOUS
 10
5.4790796791
 20
-15.2142857015
 11
5.4790796791
 21
-15.321428597
  0
LINE
  5
418
100
AcDbEntity
  8
IMPORT_IGES
100
AcDbLine
 62
7
  6
CONTINUOUS
 10
5.528
 20
12.7578547792
 11
5.528
 21
10.75
  0
LINE
  5
419
100
AcDbEntity
  8
IMPORT_IGES
100
AcDbLine
 62
7
  6
CONTINUOUS
 10
5.578
 20
1.925
 11
5.578
 21
2.475
  0
LINE
  5
41A
100
AcDbEntity
  8
IMPORT_IGES
100
AcDbLine
 62
7
  6
CONTINUOUS
 10
5.978
 20
4.1
 11
5.178
 21
4.1
  0
LINE
  5
41B
100
AcDbEntity
  8
CURVE
100
AcDbLine
 62
250
  6
CONTINUOUS
 10
7.0788359914
 20
4.5
 11
8.9785466122
 21
4.5
  0
LINE
  5
41C
100
AcDbEntity
  8
IMPORT_IGES
100
AcDbLine
 62
7
  6
CONTINUOUS
 10
1.928
 20
4.7
 11
1.728
 21
4.7
  0
LINE
  5
41D
100
AcDbEntity
  8
IMPORT_IGES
100
AcDbLine
 62
7
  6
CONTINUOUS
 10
1.278
 20
4.7
 11
1.078
 21
4.7
  0
LINE
  5
41E
100
AcDbEntity
  8
IMPORT_IGES
100
AcDbLine
 62
7
  6
CONTINUOUS
 10
0.428
 20
4.7
 11
0.628
 21
4.7
  0
LINE
  5
41F
100
AcDbEntity
  8
IMPORT_IGES
100
AcDbLine
 62
7
  6
CONTINUOUS
 10
-0.622
 20
4.725
 11
-1.028
 21
4.725
  0
LINE
  5
420
100
AcDbEntity
  8
IMPORT_IGES
100
AcDbLine
 62
7
  6
CONTINUOUS
 10
4.128
 20
4.775
 11
3.128
 21
4.775
  0
LINE
  5
421
100
AcDbEntity
  8
IMPORT_IGES
100
AcDbLine
 62
250
  6
CONTINUOUS
 10
1.928
 20
4.8260001262
 11
1.728
 21
4.8260001262
  0
LINE
  5
422
100
AcDbEntity
  8
IMPORT_IGES
100
AcDbLine
 62
250
  6
CONTINUOUS
 10
1.278
 20
4.8260001262
 11
1.078
 21
4.8260001262
  0
LINE
  5
423
100
AcDbEntity
  8
IMPORT_IGES
100
AcDbLine
 62
250
  6
CONTINUOUS
 10
0.428
 20
4.8260001262
 11
0.628
 21
4.8260001262
  0
LINE
  5
424
100
AcDbEntity
  8
IMPORT_IGES
100
AcDbLine
 62
250
  6
CONTINUOUS
 10
1.928
 20
4.893461743
 11
1.728
 21
4.893461743
  0
LINE
  5
425
100
AcDbEntity
  8
IMPORT_IGES
100
AcDbLine
 62
250
  6
CONTINUOUS
 10
1.278
 20
4.893461743
 11
1.078
 21
4.893461743
  0
LINE
  5
426
100
AcDbEntity
  8
IMPORT_IGES
100
AcDbLine
 62
250
  6
CONTINUOUS
 10
0.428
 20
4.893461743
 11
0.628
 21
4.893461743
  0
LINE
  5
427
100
AcDbEntity
  8
IMPORT_IGES
100
AcDbLine
 62
250
  6
CONTINUOUS
 10
1.928
 20
5.0343332112
 11
1.728
 21
5.0343332112
  0
LINE
  5
428
100
AcDbEntity
  8
IMPORT_IGES
100
AcDbLine
 62
250
  6
CONTINUOUS
 10
1.278
 20
5.0343332112
 11
1.078
 21
5.0343332112
  0
LINE
  5
429
100
AcDbEntity
  8
IMPORT_IGES
100
AcDbLine
 62
250
  6
CONTINUOUS
 10
0.428
 20
5.0343332112
 11
0.628
 21
5.0343332112
  0
LINE
  5
42A
100
AcDbEntity
  8
IMPORT_IGES
100
AcDbLine
 62
7
  6
CONTINUOUS
 10
-6.328
 20
5.1
 11
-1.028
 21
5.1
  0
LINE
  5
42B
100
AcDbEntity
  8
IMPORT_IGES
100
AcDbLine
 62
250
  6
CONTINUOUS
 10
1.928
 20
5.1511941564
 11
1.728
 21
5.1511941564
  0
LINE
  5
42C
100
AcDbEntity
  8
IMPORT_IGES
100
AcDbLine
 62
250
  6
CONTINUOUS
 10
1.278
 20
5.1511941564
 11
1.078
 21
5.1511941564
  0
LINE
  5
42D
100
AcDbEntity
  8
IMPORT_IGES
100
AcDbLine
 62
250
  6
CONTINUOUS
 10
0.628
 20
5.1511941564
 11
0.428
 21
5.1511941564
  0
LINE
  5
42E
100
AcDbEntity
  8
IMPORT_IGES
100
AcDbLine
 62
7
  6
CONTINUOUS
 10
2.178
 20
5.175
 11
0.178
 21
5.175
  0
LINE
  5
42F
100
AcDbEntity
  8
IMPORT_IGES
100
AcDbLine
 62
7
  6
CONTINUOUS
 10
-1.622
 20
5.275
 11
-0.622
 21
5.275
  0
LINE
  5
430
100
AcDbEntity
  8
IMPORT_IGES
100
AcDbLine
 62
7
  6
CONTINUOUS
 10
3.128
 20
5.325
 11
4.128
 21
5.325
  0
LINE
  5
431
100
AcDbEntity
  8
IMPORT_IGES
100
AcDbLine
 62
7
  6
CONTINUOUS
 10
-6.328
 20
5.6
 11
-4.528
 21
5.6
  0
LINE
  5
432
100
AcDbEntity
  8
CURVE
100
AcDbLine
 62
250
  6
CONTINUOUS
 10
7.6216104221
 20
-0.5
 11
7.0788359914
 21
0.0428571671
  0
LINE
  5
433
100
AcDbEntity
  8
0
100
AcDbLine
 62
7
  6
CONTINUOUS
 10
5.978
 20
12.75
 11
5.978
 21
-3.5
  0
LINE
  5
434
100
AcDbEntity
  8
ASSI
100
AcDbLine
 62
7
  6
CONTINUOUS
 10
5.978
 20
12.75
 11
5.978
 21
-3.5
  0
LINE
  5
435
100
AcDbEntity
  8
CURVE
100
AcDbLine
 62
250
  6
CONTINUOUS
 10
6.4789273743
 20
-15.0
 11
6.4789273743
 21
-14.3571428508
  0
LINE
  5
436
100
AcDbEntity
  8
CURVE
100
AcDbLine
 62
250
  6
CONTINUOUS
 10
6.4789273743
 20
-13.6071428955
 11
6.4789273743
 21
-13.5
  0
LINE
  5
437
100
AcDbEntity
  8
CURVE
100
AcDbLine
 62
250
  6
CONTINUOUS
 10
6.4789273743
 20
-10.1071429253
 11
6.4789273743
 21
-10.0000001192
  0
LINE
  5
438
100
AcDbEntity
  8
CURVE
100
AcDbLine
 62
250
  6
CONTINUOUS
 10
6.9074335038
 20
-8.0714285374
 11
6.9074335038
 21
-7.428571701
  0
LINE
  5
439
100
AcDbEntity
  8
CURVE
100
AcDbLine
 62
250
  6
CONTINUOUS
 10
7.1216865686
 20
-11.0714285374
 11
7.1216865686
 21
-11.5357142687
  0
LINE
  5
43A
100
AcDbEntity
  8
CURVE
100
AcDbLine
 62
250
  6
CONTINUOUS
 10
7.1216865686
 20
-14.5714285523
 11
7.1216865686
 21
-15.0
  0
LINE
  5
43B
100
AcDbEntity
  8
CURVE
100
AcDbLine
 62
250
  6
CONTINUOUS
 10
7.1216865686
 20
-9.2500001192
 11
7.1216865686
 21
-8.4999997616
  0
LINE
  5
43C
100
AcDbEntity
  8
RACCORDO
100
AcDbLine
 62
7
  6
CONTINUOUS
 10
7.2198217019
 20
20.9
 11
7.2198217019
 21
20.3318873219
  0
LINE
  5
43D
100
AcDbEntity
  8
RACCORDO
100
AcDbLine
 62
7
  6
CONTINUOUS
 10
7.2198217019
 20
-20.3318873219
 11
7.2198217019
 21
-20.9
  0
LINE
  5
43E
100
AcDbEntity
  8
DRAFT
100
AcDbLine
 62
7
  6
CONTINUOUS
 10
7.3297786853
 20
20.4335707644
 11
7.3297786853
 21
20.2199942827
  0
LINE
  5
43F
100
AcDbEntity
  8
DRAFT
100
AcDbLine
 62
7
  6
CONTINUOUS
 10
7.3297786853
 20
-20.4335707644
 11
7.3297786853
 21
-20.2199942827
  0
LINE
  5
440
100
AcDbEntity
  8
CURVE
100
AcDbLine
 62
250
  6
CONTINUOUS
 10
2.0348295379
 20
-8.4285714626
 11
1.8205764285
 21
-8.6428570747
  0
LINE
  5
441
100
AcDbEntity
  8
CURVE
100
AcDbLine
 62
250
  6
CONTINUOUS
 10
1.1778172342
 20
-6.9285714626
 11
2.6775887769
 21
-6.5000002384
  0
LINE
  5
442
100
AcDbEntity
  8
IMPORT_IGES
100
AcDbLine
 62
7
  6
CONTINUOUS
 10
5.178
 20
5.8
 11
5.978
 21
5.8
  0
LINE
  5
443
100
AcDbEntity
  8
IMPORT_IGES
100
AcDbLine
 62
7
  6
CONTINUOUS
 10
3.978
 20
5.825
 11
2.978
 21
5.825
  0
LINE
  5
444
100
AcDbEntity
  8
IMPORT_IGES
100
AcDbLine
 62
7
  6
CONTINUOUS
 10
-6.328
 20
6.35
 11
-3.828
 21
6.35
  0
LINE
  5
445
100
AcDbEntity
  8
IMPORT_IGES
100
AcDbLine
 62
7
  6
CONTINUOUS
 10
2.978
 20
6.375
 11
3.978
 21
6.375
  0
LINE
  5
446
100
AcDbEntity
  8
IMPORT_IGES
100
AcDbLine
 62
7
  6
CONTINUOUS
 10
0.178
 20
6.425
 11
2.178
 21
6.425
  0
LINE
  5
447
100
AcDbEntity
  8
IMPORT_IGES
100
AcDbLine
 62
250
  6
CONTINUOUS
 10
0.628
 20
6.4488058436
 11
0.428
 21
6.4488058436
  0
LINE
  5
448
100
AcDbEntity
  8
IMPORT_IGES
100
AcDbLine
 62
250
  6
CONTINUOUS
 10
1.078
 20
6.4488058436
 11
1.278
 21
6.4488058436
  0
LINE
  5
449
100
AcDbEntity
  8
IMPORT_IGES
100
AcDbLine
 62
250
  6
CONTINUOUS
 10
1.728
 20
6.4488058436
 11
1.928
 21
6.4488058436
  0
LINE
  5
44A
100
AcDbEntity
  8
IMPORT_IGES
100
AcDbLine
 62
250
  6
CONTINUOUS
 10
0.628
 20
6.5656667888
 11
0.428
 21
6.5656667888
  0
LINE
  5
44B
100
AcDbEntity
  8
IMPORT_IGES
100
AcDbLine
 62
250
  6
CONTINUOUS
 10
1.078
 20
6.5656667888
 11
1.278
 21
6.5656667888
  0
LINE
  5
44C
100
AcDbEntity
  8
IMPORT_IGES
100
AcDbLine
 62
250
  6
CONTINUOUS
 10
1.728
 20
6.5656667888
 11
1.928
 21
6.5656667888
  0
LINE
  5
44D
100
AcDbEntity
  8
IMPORT_IGES
100
AcDbLine
 62
250
  6
CONTINUOUS
 10
0.628
 20
6.706538257
 11
0.428
 21
6.706538257
  0
LINE
  5
44E
100
AcDbEntity
  8
IMPORT_IGES
100
AcDbLine
 62
250
  6
CONTINUOUS
 10
1.078
 20
6.706538257
 11
1.278
 21
6.706538257
  0
LINE
  5
44F
100
AcDbEntity
  8
IMPORT_IGES
100
AcDbLine
 62
250
  6
CONTINUOUS
 10
1.728
 20
6.706538257
 11
1.928
 21
6.706538257
  0
LINE
  5
450
100
AcDbEntity
  8
IMPORT_IGES
100
AcDbLine
 62
250
  6
CONTINUOUS
 10
0.628
 20
6.7739998738
 11
0.428
 21
6.7739998738
  0
LINE
  5
451
100
AcDbEntity
  8
IMPORT_IGES
100
AcDbLine
 62
250
  6
CONTINUOUS
 10
1.078
 20
6.7739998738
 11
1.278
 21
6.7739998738
  0
LINE
  5
452
100
AcDbEntity
  8
IMPORT_IGES
100
AcDbLine
 62
250
  6
CONTINUOUS
 10
1.728
 20
6.7739998738
 11
1.928
 21
6.7739998738
  0
LINE
  5
453
100
AcDbEntity
  8
IMPORT_IGES
100
AcDbLine
 62
7
  6
CONTINUOUS
 10
0.628
 20
6.9
 11
0.428
 21
6.9
  0
LINE
  5
454
100
AcDbEntity
  8
IMPORT_IGES
100
AcDbLine
 62
7
  6
CONTINUOUS
 10
1.078
 20
6.9
 11
1.278
 21
6.9
  0
LINE
  5
455
100
AcDbEntity
  8
IMPORT_IGES
100
AcDbLine
 62
7
  6
CONTINUOUS
 10
1.728
 20
6.9
 11
1.928
 21
6.9
  0
LINE
  5
456
100
AcDbEntity
  8
RACCORDO
100
AcDbLine
 62
250
  6
CONTINUOUS
 10
8.232371834
 20
-23.8443375673
 11
8.228
 21
-23.4104851482
  0
LINE
  5
457
100
AcDbEntity
  8
RACCORDO
100
AcDbLine
 62
250
  6
CONTINUOUS
 10
8.4823676032
 20
-23.6278312164
 11
8.4772770021
 21
-23.1226497308
  0
LINE
  5
458
100
AcDbEntity
  8
RACCORDO
100
AcDbLine
 62
250
  6
CONTINUOUS
 10
7.5621007192
 20
-21.3126932437
 11
7.5621007192
 21
-20.9
  0
LINE
  5
459
100
AcDbEntity
  8
RACCORDO
100
AcDbLine
 62
250
  6
CONTINUOUS
 10
7.5621007192
 20
20.9
 11
7.5621007192
 21
21.3126932437
  0
LINE
  5
45A
100
AcDbEntity
  8
CURVE
100
AcDbLine
 62
250
  6
CONTINUOUS
 10
7.978698917
 20
-10.0000001192
 11
7.978698917
 21
-10.1071429253
  0
LINE
  5
45B
100
AcDbEntity
  8
CURVE
100
AcDbLine
 62
250
  6
CONTINUOUS
 10
7.978698917
 20
-13.5
 11
7.978698917
 21
-13.6071428955
  0
LINE
  5
45C
100
AcDbEntity
  8
CURVE
100
AcDbLine
 62
250
  6
CONTINUOUS
 10
7.978698917
 20
-15.0
 11
7.978698917
 21
-14.5714285523
  0
LINE
  5
45D
100
AcDbEntity
  8
CURVE
100
AcDbLine
 62
250
  6
CONTINUOUS
 10
7.978698917
 20
-11.3928573132
 11
7.978698917
 21
-11.0714285374
  0
LINE
  5
45E
100
AcDbEntity
  8
CURVE
100
AcDbLine
 62
250
  6
CONTINUOUS
 10
7.978698917
 20
-8.0714285374
 11
7.978698917
 21
-7.428571701
  0
LINE
  5
45F
100
AcDbEntity
  8
RACCORDO
100
AcDbLine
 62
250
  6
CONTINUOUS
 10
8.0620245667
 20
-21.5659754333
 11
8.0620245667
 21
-20.9
  0
LINE
  5
460
100
AcDbEntity
  8
RACCORDO
100
AcDbLine
 62
250
  6
CONTINUOUS
 10
8.0620245667
 20
20.9
 11
8.0620245667
 21
21.5659754333
  0
LINE
  5
461
100
AcDbEntity
  8
DRAFT
100
AcDbLine
 62
7
  6
CONTINUOUS
 10
8.228
 20
21.4
 11
8.228
 21
20.9
  0
LINE
  5
462
100
AcDbEntity
  8
DRAFT
100
AcDbLine
 62
7
  6
CONTINUOUS
 10
8.228
 20
-20.9
 11
8.228
 21
-21.4
  0
LINE
  5
463
100
AcDbEntity
  8
RACCORDO
100
AcDbLine
 62
7
  6
CONTINUOUS
 10
8.228
 20
-22.4
 11
8.228
 21
-24.2500042308
  0
LINE
  5
464
100
AcDbEntity
  8
RACCORDO
100
AcDbLine
 62
7
  6
CONTINUOUS
 10
8.228
 20
22.4
 11
8.228
 21
24.2500042308
  0
LINE
  5
465
100
AcDbEntity
  8
RACCORDO
100
AcDbLine
 62
250
  6
CONTINUOUS
 10
8.232371834
 20
24.2456323968
 11
8.232371834
 21
23.8443375673
  0
LINE
  5
466
100
AcDbEntity
  8
RACCORDO
100
AcDbLine
 62
250
  6
CONTINUOUS
 10
8.232371834
 20
-23.8443375673
 11
8.232371834
 21
-24.2456323968
  0
LINE
  5
467
100
AcDbEntity
  8
RACCORDO
100
AcDbLine
 62
250
  6
CONTINUOUS
 10
8.4823676032
 20
-23.6278312164
 11
8.4823676032
 21
-24.495628166
  0
LINE
  5
468
100
AcDbEntity
  8
RACCORDO
100
AcDbLine
 62
250
  6
CONTINUOUS
 10
8.4823676032
 20
23.6278312164
 11
8.4823676032
 21
24.495628166
  0
LINE
  5
469
100
AcDbEntity
  8
CURVE
100
AcDbLine
 62
250
  6
CONTINUOUS
 10
8.9785466122
 20
4.5
 11
8.9785466122
 21
5.1785714447
  0
LINE
  5
46A
100
AcDbEntity
  8
RACCORDO
100
AcDbLine
 62
250
  6
CONTINUOUS
 10
8.228
 20
23.4104851482
 11
8.232371834
 21
23.8443375673
  0
LINE
  5
46B
100
AcDbEntity
  8
RACCORDO
100
AcDbLine
 62
250
  6
CONTINUOUS
 10
8.4772770021
 20
23.1226497308
 11
8.4823676032
 21
23.6278312164
  0
LINE
  5
46C
100
AcDbEntity
  8
DRAFT
100
AcDbLine
 62
7
  6
CONTINUOUS
 10
-4.422
 20
-22.4
 11
-4.3779327327
 21
-22.3338981669
  0
LINE
  5
46D
100
AcDbEntity
  8
CURVE
100
AcDbLine
 62
250
  6
CONTINUOUS
 10
4.9077381284
 20
-7.1428570747
 11
5.1219912155
 21
-6.8571431637
  0
LINE
  5
46E
100
AcDbEntity
  8
CURVE
100
AcDbLine
 62
250
  6
CONTINUOUS
 10
2.0348295379
 20
-10.3571430445
 11
1.8205764285
 21
-10.5714286566
  0
LINE
  5
46F
100
AcDbEntity
  8
CURVE
100
AcDbLine
 62
250
  6
CONTINUOUS
 10
1.392070299
 20
-10.3928571939
 11
1.1778172342
 21
-10.5714286566
  0
LINE
  5
470
100
AcDbEntity
  8
CURVE
100
AcDbLine
 62
250
  6
CONTINUOUS
 10
1.6063233637
 20
-7.7857146263
 11
1.1778172342
 21
-8.0000002384
  0
LINE
  5
471
100
AcDbEntity
  8
IMPORT_IGES
100
AcDbLine
 62
7
  6
CONTINUOUS
 10
3.978
 20
7.425
 11
2.978
 21
7.425
  0
LINE
  5
472
100
AcDbEntity
  8
IMPORT_IGES
100
AcDbLine
 62
7
  6
CONTINUOUS
 10
-0.622
 20
7.425
 11
-1.622
 21
7.425
  0
LINE
  5
473
100
AcDbEntity
  8
IMPORT_IGES
100
AcDbLine
 62
7
  6
CONTINUOUS
 10
1.928
 20
7.65
 11
1.728
 21
7.65
  0
LINE
  5
474
100
AcDbEntity
  8
IMPORT_IGES
100
AcDbLine
 62
7
  6
CONTINUOUS
 10
1.278
 20
7.65
 11
1.078
 21
7.65
  0
LINE
  5
475
100
AcDbEntity
  8
IMPORT_IGES
100
AcDbLine
 62
7
  6
CONTINUOUS
 10
0.428
 20
7.65
 11
0.628
 21
7.65
  0
LINE
  5
476
100
AcDbEntity
  8
IMPORT_IGES
100
AcDbLine
 62
250
  6
CONTINUOUS
 10
1.928
 20
7.7760001262
 11
1.728
 21
7.7760001262
  0
LINE
  5
477
100
AcDbEntity
  8
IMPORT_IGES
100
AcDbLine
 62
250
  6
CONTINUOUS
 10
1.278
 20
7.7760001262
 11
1.078
 21
7.7760001262
  0
LINE
  5
478
100
AcDbEntity
  8
IMPORT_IGES
100
AcDbLine
 62
250
  6
CONTINUOUS
 10
0.428
 20
7.7760001262
 11
0.628
 21
7.7760001262
  0
LINE
  5
479
100
AcDbEntity
  8
IMPORT_IGES
100
AcDbLine
 62
250
  6
CONTINUOUS
 10
1.928
 20
7.843461743
 11
1.728
 21
7.843461743
  0
LINE
  5
47A
100
AcDbEntity
  8
IMPORT_IGES
100
AcDbLine
 62
250
  6
CONTINUOUS
 10
1.278
 20
7.843461743
 11
1.078
 21
7.843461743
  0
LINE
  5
47B
100
AcDbEntity
  8
IMPORT_IGES
100
AcDbLine
 62
250
  6
CONTINUOUS
 10
0.428
 20
7.843461743
 11
0.628
 21
7.843461743
  0
LINE
  5
47C
100
AcDbEntity
  8
IMPORT_IGES
100
AcDbLine
 62
7
  6
CONTINUOUS
 10
-1.622
 20
7.975
 11
-0.622
 21
7.975
  0
LINE
  5
47D
100
AcDbEntity
  8
IMPORT_IGES
100
AcDbLine
 62
7
  6
CONTINUOUS
 10
2.978
 20
7.975
 11
3.978
 21
7.975
  0
LINE
  5
47E
100
AcDbEntity
  8
IMPORT_IGES
100
AcDbLine
 62
250
  6
CONTINUOUS
 10
1.928
 20
7.9843332112
 11
1.728
 21
7.9843332112
  0
LINE
  5
47F
100
AcDbEntity
  8
IMPORT_IGES
100
AcDbLine
 62
250
  6
CONTINUOUS
 10
1.278
 20
7.9843332112
 11
1.078
 21
7.9843332112
  0
LINE
  5
480
100
AcDbEntity
  8
IMPORT_IGES
100
AcDbLine
 62
250
  6
CONTINUOUS
 10
0.428
 20
7.9843332112
 11
0.628
 21
7.9843332112
  0
LINE
  5
481
100
AcDbEntity
  8
IMPORT_IGES
100
AcDbLine
 62
250
  6
CONTINUOUS
 10
1.928
 20
8.1011941564
 11
1.728
 21
8.1011941564
  0
LINE
  5
482
100
AcDbEntity
  8
IMPORT_IGES
100
AcDbLine
 62
250
  6
CONTINUOUS
 10
1.278
 20
8.1011941564
 11
1.078
 21
8.1011941564
  0
LINE
  5
483
100
AcDbEntity
  8
IMPORT_IGES
100
AcDbLine
 62
250
  6
CONTINUOUS
 10
0.628
 20
8.1011941564
 11
0.428
 21
8.1011941564
  0
LINE
  5
484
100
AcDbEntity
  8
IMPORT_IGES
100
AcDbLine
 62
7
  6
CONTINUOUS
 10
2.178
 20
8.125
 11
0.178
 21
8.125
  0
LINE
  5
485
100
AcDbEntity
  8
IMPORT_IGES
100
AcDbLine
 62
7
  6
CONTINUOUS
 10
3.978
 20
9.025
 11
2.978
 21
9.025
  0
LINE
  5
486
100
AcDbEntity
  8
DRAFT
100
AcDbLine
 62
7
  6
CONTINUOUS
 10
-4.422
 20
22.4
 11
-4.3779327327
 21
22.3338981669
  0
LINE
  5
487
100
AcDbEntity
  8
RACCORDO
100
AcDbLine
 62
250
  6
CONTINUOUS
 10
10.3736323968
 20
23.6278312164
 11
10.3787229979
 21
23.1226497308
  0
LINE
  5
488
100
AcDbEntity
  8
RACCORDO
100
AcDbLine
 62
250
  6
CONTINUOUS
 10
10.623628166
 20
23.8443375673
 11
10.628
 21
23.4104851482
  0
LINE
  5
489
100
AcDbEntity
  8
DRAFT
100
AcDbLine
 62
7
  6
CONTINUOUS
 10
9.4726499221
 20
20.4335707644
 11
9.4726499221
 21
19.0053500779
  0
LINE
  5
48A
100
AcDbEntity
  8
DRAFT
100
AcDbLine
 62
7
  6
CONTINUOUS
 10
9.4726499221
 20
-19.0053500779
 11
9.4726499221
 21
-20.4335707644
  0
LINE
  5
48B
100
AcDbEntity
  8
DRAFT
100
AcDbLine
 62
7
  6
CONTINUOUS
 10
9.628
 20
20.9
 11
9.628
 21
18.85
  0
LINE
  5
48C
100
AcDbEntity
  8
DRAFT
100
AcDbLine
 62
7
  6
CONTINUOUS
 10
9.628
 20
-18.85
 11
9.628
 21
-20.9
  0
LINE
  5
48D
100
AcDbEntity
  8
0
100
AcDbLine
 62
250
  6
CONTINUOUS
 10
10.1454524064
 20
-16.9357864376
 11
10.1454524064
 21
16.9357864376
  0
LINE
  5
48E
100
AcDbEntity
  8
ASSI
100
AcDbLine
 62
250
  6
CONTINUOUS
 10
10.1454524064
 20
-16.9357864376
 11
10.1454524064
 21
16.9357864376
  0
LINE
  5
48F
100
AcDbEntity
  8
RACCORDO
100
AcDbLine
 62
250
  6
CONTINUOUS
 10
10.3736323968
 20
-23.6278312164
 11
10.3736323968
 21
-24.495628166
  0
LINE
  5
490
100
AcDbEntity
  8
RACCORDO
100
AcDbLine
 62
250
  6
CONTINUOUS
 10
10.3736323968
 20
23.6278312164
 11
10.3736323968
 21
24.495628166
  0
LINE
  5
491
100
AcDbEntity
  8
RACCORDO
100
AcDbLine
 62
250
  6
CONTINUOUS
 10
10.623628166
 20
-24.2456323968
 11
10.623628166
 21
-23.8443375673
  0
LINE
  5
492
100
AcDbEntity
  8
RACCORDO
100
AcDbLine
 62
250
  6
CONTINUOUS
 10
10.623628166
 20
23.8443375673
 11
10.623628166
 21
24.2456323968
  0
LINE
  5
493
100
AcDbEntity
  8
RACCORDO
100
AcDbLine
 62
7
  6
CONTINUOUS
 10
10.628
 20
-22.3999410061
 11
10.628
 21
-24.2500042308
  0
LINE
  5
494
100
AcDbEntity
  8
RACCORDO
100
AcDbLine
 62
7
  6
CONTINUOUS
 10
10.628
 20
22.3999410061
 11
10.628
 21
24.2500042308
  0
LINE
  5
495
100
AcDbEntity
  8
RACCORDO
100
AcDbLine
 62
250
  6
CONTINUOUS
 10
10.3787229979
 20
-23.1226497308
 11
10.3736323968
 21
-23.6278312164
  0
LINE
  5
496
100
AcDbEntity
  8
RACCORDO
100
AcDbLine
 62
250
  6
CONTINUOUS
 10
10.628
 20
-23.4104851482
 11
10.623628166
 21
-23.8443375673
  0
LINE
  5
497
100
AcDbEntity
  8
DRAFT
100
AcDbLine
 62
7
  6
CONTINUOUS
 10
7.3297786853
 20
-20.4335707644
 11
7.278
 21
-20.9
  0
LINE
  5
498
100
AcDbEntity
  8
RACCORDO
100
AcDbLine
 62
7
  6
CONTINUOUS
 10
-6.3790215015
 20
-19.7570215015
 11
-6.2702213147
 21
-19.6482213147
  0
LINE
  5
499
100
AcDbEntity
  8
CURVE
100
AcDbLine
 62
250
  6
CONTINUOUS
 10
3.9793081364
 20
-9.4285712242
 11
4.1935612012
 21
-9.2142856121
  0
LINE
  5
49A
100
AcDbEntity
  8
RACCORDO
100
AcDbLine
 62
250
  6
CONTINUOUS
 10
-10.667628166
 20
-24.2456323968
 11
-10.672
 21
-24.2500042308
  0
LINE
  5
49B
100
AcDbEntity
  8
RACCORDO
100
AcDbLine
 62
250
  6
CONTINUOUS
 10
-10.4176323968
 20
-24.495628166
 11
-10.4220042308
 21
-24.5
  0
LINE
  5
49C
100
AcDbEntity
  8
CURVE
100
AcDbLine
 62
250
  6
CONTINUOUS
 10
5.4790796791
 20
-9.5357143879
 11
5.264826592
 21
-9.75
  0
LINE
  5
49D
100
AcDbEntity
  8
CURVE
100
AcDbLine
 62
250
  6
CONTINUOUS
 10
2.0348295379
 20
-13.3571430445
 11
1.8205764285
 21
-13.571428746
  0
LINE
  5
49E
100
AcDbEntity
  8
CURVE
100
AcDbLine
 62
250
  6
CONTINUOUS
 10
2.4276268457
 20
-9.6071430445
 11
2.4990445451
 21
-9.5714285374
  0
LINE
  5
49F
100
AcDbEntity
  8
CURVE
100
AcDbLine
 62
250
  6
CONTINUOUS
 10
2.6061710831
 20
-9.678571701
 11
2.5347533892
 21
-9.7142858505
  0
LINE
  5
4A0
100
AcDbEntity
  8
CURVE
100
AcDbLine
 62
250
  6
CONTINUOUS
 10
4.1935612012
 20
-9.2142856121
 11
4.4078142659
 21
-9.1071431637
  0
LINE
  5
4A1
100
AcDbEntity
  8
CURVE
100
AcDbLine
 62
250
  6
CONTINUOUS
 10
3.9793081364
 20
-8.6785712242
 11
5.4790796791
 21
-8.25
  0
LINE
  5
4A2
100
AcDbEntity
  8
IMPORT_IGES
100
AcDbLine
 62
7
  6
CONTINUOUS
 10
0.178
 20
9.375
 11
2.178
 21
9.375
  0
LINE
  5
4A3
100
AcDbEntity
  8
IMPORT_IGES
100
AcDbLine
 62
250
  6
CONTINUOUS
 10
0.628
 20
9.3988058436
 11
0.428
 21
9.3988058436
  0
LINE
  5
4A4
100
AcDbEntity
  8
IMPORT_IGES
100
AcDbLine
 62
250
  6
CONTINUOUS
 10
1.078
 20
9.3988058436
 11
1.278
 21
9.3988058436
  0
LINE
  5
4A5
100
AcDbEntity
  8
IMPORT_IGES
100
AcDbLine
 62
250
  6
CONTINUOUS
 10
1.728
 20
9.3988058436
 11
1.928
 21
9.3988058436
  0
LINE
  5
4A6
100
AcDbEntity
  8
CURVE
100
AcDbLine
 62
250
  6
CONTINUOUS
 10
8.9785466122
 20
9.5
 11
7.0788359914
 21
9.5
  0
LINE
  5
4A7
100
AcDbEntity
  8
IMPORT_IGES
100
AcDbLine
 62
250
  6
CONTINUOUS
 10
0.628
 20
9.5156667888
 11
0.428
 21
9.5156667888
  0
LINE
  5
4A8
100
AcDbEntity
  8
IMPORT_IGES
100
AcDbLine
 62
250
  6
CONTINUOUS
 10
1.078
 20
9.5156667888
 11
1.278
 21
9.5156667888
  0
LINE
  5
4A9
100
AcDbEntity
  8
IMPORT_IGES
100
AcDbLine
 62
250
  6
CONTINUOUS
 10
1.728
 20
9.5156667888
 11
1.928
 21
9.5156667888
  0
LINE
  5
4AA
100
AcDbEntity
  8
IMPORT_IGES
100
AcDbLine
 62
7
  6
CONTINUOUS
 10
2.978
 20
9.575
 11
3.978
 21
9.575
  0
LINE
  5
4AB
100
AcDbEntity
  8
IMPORT_IGES
100
AcDbLine
 62
250
  6
CONTINUOUS
 10
0.628
 20
9.656538257
 11
0.428
 21
9.656538257
  0
LINE
  5
4AC
100
AcDbEntity
  8
IMPORT_IGES
100
AcDbLine
 62
250
  6
CONTINUOUS
 10
1.078
 20
9.656538257
 11
1.278
 21
9.656538257
  0
LINE
  5
4AD
100
AcDbEntity
  8
IMPORT_IGES
100
AcDbLine
 62
250
  6
CONTINUOUS
 10
1.728
 20
9.656538257
 11
1.928
 21
9.656538257
  0
LINE
  5
4AE
100
AcDbEntity
  8
IMPORT_IGES
100
AcDbLine
 62
250
  6
CONTINUOUS
 10
0.628
 20
9.7239998738
 11
0.428
 21
9.7239998738
  0
LINE
  5
4AF
100
AcDbEntity
  8
IMPORT_IGES
100
AcDbLine
 62
250
  6
CONTINUOUS
 10
1.078
 20
9.7239998738
 11
1.278
 21
9.7239998738
  0
LINE
  5
4B0
100
AcDbEntity
  8
IMPORT_IGES
100
AcDbLine
 62
250
  6
CONTINUOUS
 10
1.728
 20
9.7239998738
 11
1.928
 21
9.7239998738
  0
LINE
  5
4B1
100
AcDbEntity
  8
IMPORT_IGES
100
AcDbLine
 62
7
  6
CONTINUOUS
 10
0.628
 20
9.85
 11
0.428
 21
9.85
  0
LINE
  5
4B2
100
AcDbEntity
  8
IMPORT_IGES
100
AcDbLine
 62
7
  6
CONTINUOUS
 10
1.078
 20
9.85
 11
1.278
 21
9.85
  0
LINE
  5
4B3
100
AcDbEntity
  8
IMPORT_IGES
100
AcDbLine
 62
7
  6
CONTINUOUS
 10
1.728
 20
9.85
 11
1.928
 21
9.85
  0
LINE
  5
4B4
100
AcDbEntity
  8
IMPORT_IGES
100
AcDbLine
 62
7
  6
CONTINUOUS
 10
-1.628
 20
10.05
 11
-3.828
 21
10.05
  0
LINE
  5
4B5
100
AcDbEntity
  8
CURVE
100
AcDbLine
 62
250
  6
CONTINUOUS
 10
8.9785466122
 20
10.45
 11
7.0788359914
 21
10.45
  0
LINE
  5
4B6
100
AcDbEntity
  8
IMPORT_IGES
100
AcDbLine
 62
7
  6
CONTINUOUS
 10
-3.828
 20
10.55
 11
-6.328
 21
10.55
  0
LINE
  5
4B7
100
AcDbEntity
  8
IMPORT_IGES
100
AcDbLine
 62
7
  6
CONTINUOUS
 10
5.378
 20
10.6
 11
2.978
 21
10.6
  0
LINE
  5
4B8
100
AcDbEntity
  8
IMPORT_IGES
100
AcDbLine
 62
7
  6
CONTINUOUS
 10
5.378
 20
10.75
 11
2.978
 21
10.75
  0
LINE
  5
4B9
100
AcDbEntity
  8
RACCORDO
100
AcDbLine
 62
7
  6
CONTINUOUS
 10
-6.3790215015
 20
19.7570215015
 11
-6.2702213147
 21
19.6482213147
  0
LINE
  5
4BA
100
AcDbEntity
  8
IMPORT_IGES
100
AcDbLine
 62
7
  6
CONTINUOUS
 10
2.978
 20
10.6
 11
2.828
 21
10.75
  0
LINE
  5
4BB
100
AcDbEntity
  8
RACCORDO
100
AcDbLine
 62
250
  6
CONTINUOUS
 10
-10.667628166
 20
24.2456323968
 11
-10.672
 21
24.2500042308
  0
LINE
  5
4BC
100
AcDbEntity
  8
RACCORDO
100
AcDbLine
 62
250
  6
CONTINUOUS
 10
-10.4176323968
 20
24.495628166
 11
-10.4220042308
 21
24.5
  0
LINE
  5
4BD
100
AcDbEntity
  8
DRAFT
100
AcDbLine
 62
7
  6
CONTINUOUS
 10
7.278
 20
20.9
 11
7.3297786853
 21
20.4335707644
  0
LINE
  5
4BE
100
AcDbEntity
  8
RACCORDO
100
AcDbLine
 62
7
  6
CONTINUOUS
 10
11.128
 20
-21.9011798444
 11
11.128
 21
-16.9357864376
  0
LINE
  5
4BF
100
AcDbEntity
  8
0
100
AcDbLine
 62
7
  6
CONTINUOUS
 10
11.128
 20
-16.9357864376
 11
11.128
 21
16.9357864376
  0
LINE
  5
4C0
100
AcDbEntity
  8
ASSI
100
AcDbLine
 62
7
  6
CONTINUOUS
 10
11.128
 20
-16.9357864376
 11
11.128
 21
16.9357864376
  0
LINE
  5
4C1
100
AcDbEntity
  8
RACCORDO
100
AcDbLine
 62
7
  6
CONTINUOUS
 10
11.128
 20
16.9357864376
 11
11.128
 21
21.9011798444
  0
LINE
  5
4C2
100
AcDbEntity
  8
CURVE
100
AcDbLine
 62
250
  6
CONTINUOUS
 10
4.1935612012
 20
-11.4642856121
 11
3.9793081364
 21
-11.6785715818
  0
LINE
  5
4C3
100
AcDbEntity
  8
CURVE
100
AcDbLine
 62
250
  6
CONTINUOUS
 10
6.4789273743
 20
-10.0000001192
 11
6.693180439
 21
-9.7857141495
  0
LINE
  5
4C4
100
AcDbEntity
  8
CURVE
100
AcDbLine
 62
250
  6
CONTINUOUS
 10
2.4633356898
 20
-14.1071429551
 11
2.6775887769
 21
-13.8928572536
  0
LINE
  5
4C5
100
AcDbEntity
  8
0
100
AcDbLine
 62
250
  6
CONTINUOUS
 10
-3.003542814
 20
-19.7520430234
 11
-2.9012424271
 21
-19.6497426365
  0
LINE
  5
4C6
100
AcDbEntity
  8
0
100
AcDbLine
 62
7
  6
CONTINUOUS
 10
-2.5664128922
 20
-19.7444128922
 11
-2.4791109685
 21
-19.6571109685
  0
LINE
  5
4C7
100
AcDbEntity
  8
CURVE
100
AcDbLine
 62
250
  6
CONTINUOUS
 10
3.9793081364
 20
-14.0357142091
 11
4.1935612012
 21
-13.821428597
  0
LINE
  5
4C8
100
AcDbEntity
  8
CURVE
100
AcDbLine
 62
250
  6
CONTINUOUS
 10
7.978698917
 20
-10.1071429253
 11
7.7644458299
 21
-10.3214285374
  0
LINE
  5
4C9
100
AcDbEntity
  8
CURVE
100
AcDbLine
 62
250
  6
CONTINUOUS
 10
5.264826592
 20
-9.75
 11
5.0505735049
 21
-9.8571431637
  0
LINE
  5
4CA
100
AcDbEntity
  8
CURVE
100
AcDbLine
 62
250
  6
CONTINUOUS
 10
2.7847153205
 20
-11.4285714626
 11
2.3562091574
 21
-11.6428574324
  0
LINE
  5
4CB
100
AcDbEntity
  8
CURVE
100
AcDbLine
 62
250
  6
CONTINUOUS
 10
6.693180439
 20
-9.7857141495
 11
6.9074335038
 21
-9.6785713434
  0
LINE
  5
4CC
100
AcDbEntity
  8
CURVE
100
AcDbLine
 62
250
  6
CONTINUOUS
 10
7.7644458299
 20
-10.3214285374
 11
7.5501927428
 21
-10.4285713434
  0
LINE
  5
4CD
100
AcDbEntity
  8
CURVE
100
AcDbLine
 62
250
  6
CONTINUOUS
 10
1.1778172342
 20
-12.5000000596
 11
2.6775887769
 21
-12.0714286566
  0
LINE
  5
4CE
100
AcDbEntity
  8
IMPORT_IGES
100
AcDbLine
 62
7
  6
CONTINUOUS
 10
2.828
 20
11.2
 11
1.728
 21
11.2
  0
LINE
  5
4CF
100
AcDbEntity
  8
IMPORT_IGES
100
AcDbLine
 62
7
  6
CONTINUOUS
 10
1.428
 20
11.4
 11
0.528
 21
11.4
  0
LINE
  5
4D0
100
AcDbEntity
  8
IMPORT_IGES
100
AcDbLine
 62
7
  6
CONTINUOUS
 10
-4.898
 20
11.449528
 11
-6.328
 21
11.449528
  0
LINE
  5
4D1
100
AcDbEntity
  8
IMPORT_IGES
100
AcDbLine
 62
7
  6
CONTINUOUS
 10
0.003
 20
11.7
 11
-0.547
 21
11.7
  0
LINE
  5
4D2
100
AcDbEntity
  8
IMPORT_IGES
100
AcDbLine
 62
7
  6
CONTINUOUS
 10
1.728
 20
11.7
 11
2.828
 21
11.7
  0
LINE
  5
4D3
100
AcDbEntity
  8
IMPORT_IGES
100
AcDbLine
 62
7
  6
CONTINUOUS
 10
-6.028
 20
11.8
 11
-6.328
 21
11.8
  0
LINE
  5
4D4
100
AcDbEntity
  8
IMPORT_IGES
100
AcDbLine
 62
7
  6
CONTINUOUS
 10
2.172
 20
12.0356057326
 11
-6.328
 21
12.0356057326
  0
LINE
  5
4D5
100
AcDbEntity
  8
IMPORT_IGES
100
AcDbLine
 62
7
  6
CONTINUOUS
 10
5.528
 20
12.05
 11
5.928
 21
12.05
  0
LINE
  5
4D6
100
AcDbEntity
  8
IMPORT_IGES
100
AcDbLine
 62
7
  6
CONTINUOUS
 10
2.828
 20
12.7
 11
2.172
 21
12.7
  0
LINE
  5
4D7
100
AcDbEntity
  8
0
100
AcDbLine
 62
7
  6
CONTINUOUS
 10
-3.6575019184
 20
12.8
 11
3.1135019184
 21
12.8
  0
LINE
  5
4D8
100
AcDbEntity
  8
IMPORT_IGES
100
AcDbLine
 62
7
  6
CONTINUOUS
 10
5.378
 20
10.75
 11
5.453
 21
10.675
  0
LINE
  5
4D9
100
AcDbEntity
  8
0
100
AcDbLine
 62
250
  6
CONTINUOUS
 10
-2.9012424271
 20
19.6497426365
 11
-3.003542814
 21
19.7520430234
  0
LINE
  5
4DA
100
AcDbEntity
  8
0
100
AcDbLine
 62
7
  6
CONTINUOUS
 10
-2.4791109685
 20
19.6571109685
 11
-2.5664128922
 21
19.7444128922
  0
LINE
  5
4DB
100
AcDbEntity
  8
CURVE
100
AcDbLine
 62
250
  6
CONTINUOUS
 10
7.335939678
 20
-10.8571429253
 11
7.1216865686
 21
-11.0714285374
  0
LINE
  5
4DC
100
AcDbEntity
  8
CURVE
100
AcDbLine
 62
250
  6
CONTINUOUS
 10
3.9793081364
 20
-15.2142857015
 11
4.1935612012
 21
-15.0
  0
LINE
  5
4DD
100
AcDbEntity
  8
CURVE
100
AcDbLine
 62
250
  6
CONTINUOUS
 10
7.7644458299
 20
-11.6071429253
 11
7.978698917
 21
-11.3928573132
  0
LINE
  5
4DE
100
AcDbEntity
  8
ASSI
100
AcDbLine
 62
7
  6
CONTINUOUS
 10
-4.422
 20
-23.8
 11
-4.3783493531
 21
-23.7563493531
  0
LINE
  5
4DF
100
AcDbEntity
  8
CURVE
100
AcDbLine
 62
250
  6
CONTINUOUS
 10
5.4790796791
 20
-14.1428571939
 11
5.264826592
 21
-14.3571428061
  0
LINE
  5
4E0
100
AcDbEntity
  8
CURVE
100
AcDbLine
 62
250
  6
CONTINUOUS
 10
6.4789273743
 20
-13.5
 11
6.693180439
 21
-13.2857142091
  0
LINE
  5
4E1
100
AcDbEntity
  8
CURVE
100
AcDbLine
 62
250
  6
CONTINUOUS
 10
4.1935612012
 20
-13.821428597
 11
4.4078142659
 21
-13.7142857909
  0
LINE
  5
4E2
100
AcDbEntity
  8
0
100
AcDbLine
 62
7
  6
CONTINUOUS
 10
-0.022
 20
12.863457922
 11
-6.522
 21
12.75
  0
LINE
  5
4E3
100
AcDbEntity
  8
0
100
AcDbLine
 62
7
  6
CONTINUOUS
 10
-0.022
 20
12.8547303896
 11
5.978
 21
12.75
  0
LINE
  5
4E4
100
AcDbEntity
  8
ASSI
100
AcDbLine
 62
7
  6
CONTINUOUS
 10
-0.022
 20
12.8547303896
 11
5.978
 21
12.75
  0
LINE
  5
4E5
100
AcDbEntity
  8
ASSI
100
AcDbLine
 62
7
  6
CONTINUOUS
 10
-4.422
 20
23.8
 11
-4.378315704
 21
23.756315704
  0
LINE
  5
4E6
100
AcDbEntity
  8
CURVE
100
AcDbLine
 62
250
  6
CONTINUOUS
 10
5.4790796791
 20
-15.321428597
 11
5.264826592
 21
-15.5357142985
  0
LINE
  5
4E7
100
AcDbEntity
  8
CURVE
100
AcDbLine
 62
250
  6
CONTINUOUS
 10
7.978698917
 20
-13.6071428955
 11
7.7644458299
 21
-13.821428597
  0
LINE
  5
4E8
100
AcDbEntity
  8
CURVE
100
AcDbLine
 62
250
  6
CONTINUOUS
 10
7.335939678
 20
-14.3571428508
 11
7.1216865686
 21
-14.5714285523
  0
LINE
  5
4E9
100
AcDbEntity
  8
CURVE
100
AcDbLine
 62
250
  6
CONTINUOUS
 10
6.693180439
 20
-13.2857142091
 11
6.9074335038
 21
-13.178571403
  0
LINE
  5
4EA
100
AcDbEntity
  8
CURVE
100
AcDbLine
 62
250
  6
CONTINUOUS
 10
5.264826592
 20
-14.3571428061
 11
5.0505735049
 21
-14.4642857909
  0
LINE
  5
4EB
100
AcDbEntity
  8
CURVE
100
AcDbLine
 62
250
  6
CONTINUOUS
 10
4.1935612012
 20
-15.0
 11
4.4078142659
 21
-14.8928571939
  0
LINE
  5
4EC
100
AcDbEntity
  8
CURVE
100
AcDbLine
 62
250
  6
CONTINUOUS
 10
7.7644458299
 20
-13.821428597
 11
7.5501927428
 21
-13.928571403
  0
LINE
  5
4ED
100
AcDbEntity
  8
CURVE
100
AcDbLine
 62
250
  6
CONTINUOUS
 10
5.264826592
 20
-15.5357142985
 11
5.0505735049
 21
-15.6428571045
  0
LINE
  5
4EE
100
AcDbEntity
  8
CURVE
100
AcDbLine
 62
250
  6
CONTINUOUS
 10
1.9829455221
 20
15.3125
 11
3.2327551783
 21
15.3125
  0
LINE
  5
4EF
100
AcDbEntity
  8
CURVE
100
AcDbLine
 62
250
  6
CONTINUOUS
 10
1.9829455221
 20
16.25
 11
3.649358397
 21
16.25
  0
LINE
  5
4F0
100
AcDbEntity
  8
CURVE
100
AcDbLine
 62
250
  6
CONTINUOUS
 10
3.2327551783
 20
15.3125
 11
4.2742632065
 21
15.0
  0
LINE
  5
4F1
100
AcDbEntity
  8
CURVE
100
AcDbLine
 62
250
  6
CONTINUOUS
 10
3.649358397
 20
15.9375
 11
3.2327551783
 21
16.25
  0
LINE
  5
4F2
100
AcDbEntity
  8
0
100
AcDbLine
 62
250
  6
CONTINUOUS
 10
10.1454524064
 20
16.9357864376
 11
11.128
 21
16.9357864376
  0
LINE
  5
4F3
100
AcDbEntity
  8
ASSI
100
AcDbLine
 62
250
  6
CONTINUOUS
 10
10.1454524064
 20
16.9357864376
 11
11.128
 21
16.9357864376
  0
LINE
  5
4F4
100
AcDbEntity
  8
0
100
AcDbLine
 62
250
  6
CONTINUOUS
 10
-10.1894524064
 20
16.9357864376
 11
-11.172
 21
16.9357864376
  0
LINE
  5
4F5
100
AcDbEntity
  8
0
100
AcDbLine
 62
250
  6
CONTINUOUS
 10
6.7038285376
 20
-20.1524865323
 11
7.2736280473
 21
-19.5726543387
  0
LINE
  5
4F6
100
AcDbEntity
  8
ASSI
100
AcDbLine
 62
250
  6
CONTINUOUS
 10
6.7038285376
 20
-20.1524865323
 11
7.2736280473
 21
-19.5726543387
  0
LINE
  5
4F7
100
AcDbEntity
  8
0
100
AcDbLine
 62
7
  6
CONTINUOUS
 10
7.051727559
 20
-20.5029411645
 11
7.978
 21
-19.5603594806
  0
LINE
  5
4F8
100
AcDbEntity
  8
ASSI
100
AcDbLine
 62
7
  6
CONTINUOUS
 10
7.051727559
 20
-20.5029411645
 11
7.978
 21
-19.5603594806
  0
LINE
  5
4F9
100
AcDbEntity
  8
0
100
AcDbLine
 62
250
  6
CONTINUOUS
 10
8.53036869
 20
-18.5508701541
 11
10.1454524064
 21
-16.9357864376
  0
LINE
  5
4FA
100
AcDbEntity
  8
ASSI
100
AcDbLine
 62
250
  6
CONTINUOUS
 10
8.53036869
 20
-18.5508701541
 11
10.1454524064
 21
-16.9357864376
  0
LINE
  5
4FB
100
AcDbEntity
  8
0
100
AcDbLine
 62
250
  6
CONTINUOUS
 10
-0.022
 20
18.7001523048
 11
-8.57436869
 21
18.5508701541
  0
LINE
  5
4FC
100
AcDbEntity
  8
0
100
AcDbLine
 62
7
  6
CONTINUOUS
 10
-0.022
 20
19.7
 11
-8.57436869
 21
19.5507178492
  0
LINE
  5
4FD
100
AcDbEntity
  8
0
100
AcDbLine
 62
7
  6
CONTINUOUS
 10
-6.022
 20
19.7952696104
 11
-5.7509961631
 21
19.8
  0
LINE
  5
4FE
100
AcDbEntity
  8
DRAFT
100
AcDbLine
 62
7
  6
CONTINUOUS
 10
-6.2702213147
 20
19.6482213147
 11
-7.3737786853
 21
19.6482213147
  0
LINE
  5
4FF
100
AcDbEntity
  8
RACCORDO
100
AcDbLine
 62
250
  6
CONTINUOUS
 10
-7.2649784985
 20
19.7570215015
 11
-6.3790215015
 21
19.7570215015
  0
LINE
  5
500
100
AcDbEntity
  8
RACCORDO
100
AcDbLine
 62
250
  6
CONTINUOUS
 10
-7.2638217019
 20
19.9570181168
 11
-6.8725643565
 21
19.9570181168
  0
LINE
  5
501
100
AcDbEntity
  8
0
100
AcDbLine
 62
250
  6
CONTINUOUS
 10
8.53036869
 20
18.5508701541
 11
-0.022
 21
18.7001523048
  0
LINE
  5
502
100
AcDbEntity
  8
ASSI
100
AcDbLine
 62
250
  6
CONTINUOUS
 10
8.53036869
 20
18.5508701541
 11
-0.022
 21
18.7001523048
  0
LINE
  5
503
100
AcDbEntity
  8
0
100
AcDbLine
 62
7
  6
CONTINUOUS
 10
8.53036869
 20
19.5507178492
 11
-6.5307262032
 21
19.8136102385
  0
LINE
  5
504
100
AcDbEntity
  8
ASSI
100
AcDbLine
 62
7
  6
CONTINUOUS
 10
8.53036869
 20
19.5507178492
 11
-6.5307262032
 21
19.8136102385
  0
LINE
  5
505
100
AcDbEntity
  8
0
100
AcDbLine
 62
250
  6
CONTINUOUS
 10
10.1454524064
 20
16.9357864376
 11
8.53036869
 21
18.5508701541
  0
LINE
  5
506
100
AcDbEntity
  8
ASSI
100
AcDbLine
 62
250
  6
CONTINUOUS
 10
10.1454524064
 20
16.9357864376
 11
8.53036869
 21
18.5508701541
  0
LINE
  5
507
100
AcDbEntity
  8
0
100
AcDbLine
 62
250
  6
CONTINUOUS
 10
7.2736280473
 20
19.5726543387
 11
6.7038285376
 21
20.1524865323
  0
LINE
  5
508
100
AcDbEntity
  8
ASSI
100
AcDbLine
 62
250
  6
CONTINUOUS
 10
7.2736280473
 20
19.5726543387
 11
6.7038285376
 21
20.1524865323
  0
LINE
  5
509
100
AcDbEntity
  8
0
100
AcDbLine
 62
7
  6
CONTINUOUS
 10
7.978
 20
19.5603594806
 11
7.051727559
 21
20.5029411645
  0
LINE
  5
50A
100
AcDbEntity
  8
ASSI
100
AcDbLine
 62
7
  6
CONTINUOUS
 10
7.978
 20
19.5603594806
 11
7.051727559
 21
20.5029411645
  0
LINE
  5
50B
100
AcDbEntity
  8
0
100
AcDbLine
 62
7
  6
CONTINUOUS
 10
9.2200230647
 20
-19.2579769353
 11
10.8351067812
 21
-17.6428932188
  0
LINE
  5
50C
100
AcDbEntity
  8
ASSI
100
AcDbLine
 62
7
  6
CONTINUOUS
 10
9.2200230647
 20
-19.2579769353
 11
10.8351067812
 21
-17.6428932188
  0
LINE
  5
50D
100
AcDbEntity
  8
RACCORDO
100
AcDbLine
 62
7
  6
CONTINUOUS
 10
7.2367268678
 20
-22.3912731322
 11
8.228
 21
-21.4
  0
LINE
  5
50E
100
AcDbEntity
  8
0
100
AcDbLine
 62
250
  6
CONTINUOUS
 10
-5.0569048129
 20
20.612191562
 11
-0.022
 21
20.7000761524
  0
LINE
  5
50F
100
AcDbEntity
  8
ASSI
100
AcDbLine
 62
250
  6
CONTINUOUS
 10
-5.0569048129
 20
20.612191562
 11
-0.022
 21
20.7000761524
  0
LINE
  5
510
100
AcDbEntity
  8
0
100
AcDbLine
 62
7
  6
CONTINUOUS
 10
-6.5307262032
 20
21.0863897615
 11
-0.022
 21
21.2
  0
LINE
  5
511
100
AcDbEntity
  8
ASSI
100
AcDbLine
 62
7
  6
CONTINUOUS
 10
-6.5307262032
 20
21.0863897615
 11
-0.022
 21
21.2
  0
LINE
  5
512
100
AcDbEntity
  8
0
100
AcDbLine
 62
250
  6
CONTINUOUS
 10
-7.022
 20
20.5864659139
 11
-5.0569048129
 21
20.612191562
  0
LINE
  5
513
100
AcDbEntity
  8
ASSI
100
AcDbLine
 62
250
  6
CONTINUOUS
 10
-7.022
 20
20.5864659139
 11
-5.0569048129
 21
20.612191562
  0
LINE
  5
514
100
AcDbEntity
  8
DRAFT
100
AcDbLine
 62
7
  6
CONTINUOUS
 10
-9.5166499221
 20
20.4335707644
 11
-7.3737786853
 21
20.4335707644
  0
LINE
  5
515
100
AcDbEntity
  8
DRAFT
100
AcDbLine
 62
7
  6
CONTINUOUS
 10
7.3297786853
 20
20.4335707644
 11
9.4726499221
 21
20.4335707644
  0
LINE
  5
516
100
AcDbEntity
  8
DRAFT
100
AcDbLine
 62
7
  6
CONTINUOUS
 10
9.628
 20
20.9
 11
8.228
 21
20.9
  0
LINE
  5
517
100
AcDbEntity
  8
RACCORDO
100
AcDbLine
 62
7
  6
CONTINUOUS
 10
7.2198217019
 20
20.9
 11
8.228
 21
20.9
  0
LINE
  5
518
100
AcDbEntity
  8
RACCORDO
100
AcDbLine
 62
7
  6
CONTINUOUS
 10
-7.2638217019
 20
20.9
 11
-8.272
 21
20.9
  0
LINE
  5
519
100
AcDbEntity
  8
DRAFT
100
AcDbLine
 62
7
  6
CONTINUOUS
 10
-8.272
 20
20.9
 11
-9.672
 21
20.9
  0
LINE
  5
51A
100
AcDbEntity
  8
RACCORDO
100
AcDbLine
 62
250
  6
CONTINUOUS
 10
7.5621007192
 20
21.3126932437
 11
2.978
 21
21.3126932437
  0
LINE
  5
51B
100
AcDbEntity
  8
RACCORDO
100
AcDbLine
 62
250
  6
CONTINUOUS
 10
-3.022
 20
21.3126932437
 11
-7.6061007192
 21
21.3126932437
  0
LINE
  5
51C
100
AcDbEntity
  8
0
100
AcDbLine
 62
7
  6
CONTINUOUS
 10
-3.022
 20
21.7
 11
2.978
 21
21.7
  0
LINE
  5
51D
100
AcDbEntity
  8
0
100
AcDbLine
 62
250
  6
CONTINUOUS
 10
-7.022
 20
20.3135340861
 11
-5.0569048129
 21
20.287808438
  0
LINE
  5
51E
100
AcDbEntity
  8
ASSI
100
AcDbLine
 62
250
  6
CONTINUOUS
 10
-7.022
 20
20.3135340861
 11
-5.0569048129
 21
20.287808438
  0
LINE
  5
51F
100
AcDbEntity
  8
0
100
AcDbLine
 62
250
  6
CONTINUOUS
 10
-5.0569048129
 20
20.287808438
 11
-0.022
 21
20.1999238476
  0
LINE
  5
520
100
AcDbEntity
  8
ASSI
100
AcDbLine
 62
250
  6
CONTINUOUS
 10
-5.0569048129
 20
20.287808438
 11
-0.022
 21
20.1999238476
  0
LINE
  5
521
100
AcDbEntity
  8
0
100
AcDbLine
 62
250
  6
CONTINUOUS
 10
5.6601314735
 20
20.6008941786
 11
-0.022
 21
20.7000761524
  0
LINE
  5
522
100
AcDbEntity
  8
ASSI
100
AcDbLine
 62
250
  6
CONTINUOUS
 10
5.6601314735
 20
20.6008941786
 11
-0.022
 21
20.7000761524
  0
LINE
  5
523
100
AcDbEntity
  8
0
100
AcDbLine
 62
7
  6
CONTINUOUS
 10
5.6601314735
 20
21.1008180262
 11
-0.022
 21
21.2
  0
LINE
  5
524
100
AcDbEntity
  8
ASSI
100
AcDbLine
 62
7
  6
CONTINUOUS
 10
5.6601314735
 20
21.1008180262
 11
-0.022
 21
21.2
  0
LINE
  5
525
100
AcDbEntity
  8
0
100
AcDbLine
 62
7
  6
CONTINUOUS
 10
10.8351067812
 20
17.6428932188
 11
9.2200230647
 21
19.2579769353
  0
LINE
  5
526
100
AcDbEntity
  8
ASSI
100
AcDbLine
 62
7
  6
CONTINUOUS
 10
10.8351067812
 20
17.6428932188
 11
9.2200230647
 21
19.2579769353
  0
LINE
  5
527
100
AcDbEntity
  8
RACCORDO
100
AcDbLine
 62
7
  6
CONTINUOUS
 10
8.228
 20
21.4
 11
7.2367268678
 21
22.3912731322
  0
LINE
  5
528
100
AcDbEntity
  8
RACCORDO
100
AcDbLine
 62
250
  6
CONTINUOUS
 10
8.232371834
 20
-24.2456323968
 11
8.228
 21
-24.2500042308
  0
LINE
  5
529
100
AcDbEntity
  8
RACCORDO
100
AcDbLine
 62
250
  6
CONTINUOUS
 10
8.4823676032
 20
-24.495628166
 11
8.4779957692
 21
-24.5
  0
LINE
  5
52A
100
AcDbEntity
  8
RACCORDO
100
AcDbLine
 62
250
  6
CONTINUOUS
 10
7.3153448332
 20
22.3126551668
 11
2.978
 21
22.3126551668
  0
LINE
  5
52B
100
AcDbEntity
  8
RACCORDO
100
AcDbLine
 62
250
  6
CONTINUOUS
 10
-3.022
 20
22.3126551668
 11
-7.3593448332
 21
22.3126551668
  0
LINE
  5
52C
100
AcDbEntity
  8
DRAFT
100
AcDbLine
 62
7
  6
CONTINUOUS
 10
-3.522
 20
22.3380392387
 11
-3.022
 21
22.3380392387
  0
LINE
  5
52D
100
AcDbEntity
  8
DRAFT
100
AcDbLine
 62
7
  6
CONTINUOUS
 10
2.978
 20
22.3380392387
 11
3.478
 21
22.3380392387
  0
LINE
  5
52E
100
AcDbEntity
  8
RACCORDO
100
AcDbLine
 62
7
  6
CONTINUOUS
 10
10.6378507214
 20
22.3912731322
 11
7.2367268678
 21
22.3912731322
  0
LINE
  5
52F
100
AcDbEntity
  8
RACCORDO
100
AcDbLine
 62
7
  6
CONTINUOUS
 10
-7.2807268678
 20
22.3912731322
 11
-10.6818507214
 21
22.3912731322
  0
LINE
  5
530
100
AcDbEntity
  8
RACCORDO
100
AcDbLine
 62
7
  6
CONTINUOUS
 10
-10.6643956564
 20
22.4
 11
-8.272
 21
22.4
  0
LINE
  5
531
100
AcDbEntity
  8
DRAFT
100
AcDbLine
 62
7
  6
CONTINUOUS
 10
8.228
 20
22.4
 11
4.378
 21
22.4
  0
LINE
  5
532
100
AcDbEntity
  8
DRAFT
100
AcDbLine
 62
7
  6
CONTINUOUS
 10
-4.422
 20
22.4
 11
-8.272
 21
22.4
  0
LINE
  5
533
100
AcDbEntity
  8
RACCORDO
100
AcDbLine
 62
7
  6
CONTINUOUS
 10
8.228
 20
22.4
 11
10.6203956564
 21
22.4
  0
LINE
  5
534
100
AcDbEntity
  8
RACCORDO
100
AcDbLine
 62
7
  6
CONTINUOUS
 10
-10.4227229979
 20
23.1226497308
 11
-8.5212770021
 21
23.1226497308
  0
LINE
  5
535
100
AcDbEntity
  8
RACCORDO
100
AcDbLine
 62
7
  6
CONTINUOUS
 10
8.4772770021
 20
23.1226497308
 11
10.3787229979
 21
23.1226497308
  0
LINE
  5
536
100
AcDbEntity
  8
RACCORDO
100
AcDbLine
 62
250
  6
CONTINUOUS
 10
8.232371834
 20
24.2456323968
 11
8.228
 21
24.2500042308
  0
LINE
  5
537
100
AcDbEntity
  8
RACCORDO
100
AcDbLine
 62
250
  6
CONTINUOUS
 10
8.4823676032
 20
24.495628166
 11
8.4779957692
 21
24.5
  0
LINE
  5
538
100
AcDbEntity
  8
RACCORDO
100
AcDbLine
 62
250
  6
CONTINUOUS
 10
10.6378507214
 20
-22.3912731322
 11
10.6203956564
 21
-22.4
  0
LINE
  5
539
100
AcDbEntity
  8
RACCORDO
100
AcDbLine
 62
250
  6
CONTINUOUS
 10
8.4823676032
 20
23.6278312164
 11
10.3736323968
 21
23.6278312164
  0
LINE
  5
53A
100
AcDbEntity
  8
RACCORDO
100
AcDbLine
 62
7
  6
CONTINUOUS
 10
-8.5263676032
 20
23.7
 11
-10.4176323968
 21
23.7
  0
LINE
  5
53B
100
AcDbEntity
  8
ASSI
100
AcDbLine
 62
7
  6
CONTINUOUS
 10
4.334315704
 20
23.756315704
 11
3.478
 21
23.756315704
  0
LINE
  5
53C
100
AcDbEntity
  8
ASSI
100
AcDbLine
 62
7
  6
CONTINUOUS
 10
-3.522
 20
23.756315704
 11
-4.378315704
 21
23.756315704
  0
LINE
  5
53D
100
AcDbEntity
  8
DRAFT
100
AcDbLine
 62
7
  6
CONTINUOUS
 10
3.478
 20
23.7941821702
 11
-3.522
 21
23.7941821702
  0
LINE
  5
53E
100
AcDbEntity
  8
DRAFT
100
AcDbLine
 62
7
  6
CONTINUOUS
 10
4.378
 20
23.8
 11
-4.422
 21
23.8
  0
LINE
  5
53F
100
AcDbEntity
  8
RACCORDO
100
AcDbLine
 62
250
  6
CONTINUOUS
 10
8.232371834
 20
23.8443375673
 11
10.623628166
 21
23.8443375673
  0
LINE
  5
540
100
AcDbEntity
  8
RACCORDO
100
AcDbLine
 62
250
  6
CONTINUOUS
 10
8.232371834
 20
24.2456323968
 11
10.623628166
 21
24.2456323968
  0
LINE
  5
541
100
AcDbEntity
  8
RACCORDO
100
AcDbLine
 62
250
  6
CONTINUOUS
 10
-8.276371834
 20
24.2456323968
 11
-10.667628166
 21
24.2456323968
  0
LINE
  5
542
100
AcDbEntity
  8
RACCORDO
100
AcDbLine
 62
250
  6
CONTINUOUS
 10
10.3736323968
 20
24.495628166
 11
8.4823676032
 21
24.495628166
  0
LINE
  5
543
100
AcDbEntity
  8
RACCORDO
100
AcDbLine
 62
250
  6
CONTINUOUS
 10
-8.5263676032
 20
24.495628166
 11
-10.4176323968
 21
24.495628166
  0
LINE
  5
544
100
AcDbEntity
  8
RACCORDO
100
AcDbLine
 62
7
  6
CONTINUOUS
 10
10.3780042308
 20
24.5
 11
8.4779957692
 21
24.5
  0
LINE
  5
545
100
AcDbEntity
  8
RACCORDO
100
AcDbLine
 62
7
  6
CONTINUOUS
 10
-8.5219957692
 20
24.5
 11
-10.4220042308
 21
24.5
  0
LINE
  5
546
100
AcDbEntity
  8
RACCORDO
100
AcDbLine
 62
250
  6
CONTINUOUS
 10
10.6203956564
 20
22.4
 11
10.6378507214
 21
22.3912731322
  0
ARC
  5
547
100
AcDbEntity
  8
0
100
AcDbCircle
 62
7
  6
CONTINUOUS
 10
-8.5569162836
 20
-18.5508701541
 40
1.0
100
AcDbArc
 50
225.0
 51
269.0
  0
ARC
  5
548
100
AcDbEntity
  8
0
100
AcDbCircle
 62
7
  6
CONTINUOUS
 10
-10.172
 20
-16.9357864376
 40
1.0
100
AcDbArc
 50
180.0
 51
225.0
  0
ARC
  5
549
100
AcDbEntity
  8
0
100
AcDbCircle
 62
7
  6
CONTINUOUS
 10
-6.522
 20
-20.3135340861
 40
0.5
100
AcDbArc
 50
91.0
 51
180.0
  0
ARC
  5
54A
100
AcDbEntity
  8
0
100
AcDbCircle
 62
7
  6
CONTINUOUS
 10
-6.522
 20
-20.5864659139
 40
0.5
100
AcDbArc
 50
180.0
 51
269.0
  0
ARC
  5
54B
100
AcDbEntity
  8
ASSI
100
AcDbCircle
 62
7
  6
CONTINUOUS
 10
-6.522
 20
-20.3135340861
 40
0.5
100
AcDbArc
 50
91.0
 51
180.0
  0
ARC
  5
54C
100
AcDbEntity
  8
ASSI
100
AcDbCircle
 62
7
  6
CONTINUOUS
 10
-6.522
 20
-20.5864659139
 40
0.5
100
AcDbArc
 50
180.0
 51
269.0
  0
ARC
  5
54D
100
AcDbEntity
  8
RACCORDO
100
AcDbCircle
 62
7
  6
CONTINUOUS
 10
-10.664395964
 20
-21.909907873
 40
0.490092127
100
AcDbArc
 50
269.1109903023
 51
270.0000359544
  0
ARC
  5
54E
100
AcDbEntity
  8
RACCORDO
100
AcDbCircle
 62
7
  6
CONTINUOUS
 10
-10.6644596649
 20
-21.9101095044
 40
0.4898900718
100
AcDbArc
 50
243.4350246597
 51
269.1181178945
  0
ARC
  5
54F
100
AcDbEntity
  8
RACCORDO
100
AcDbCircle
 62
250
  6
CONTINUOUS
 10
-10.4176221828
 20
-24.2456221828
 40
0.2500059834
100
AcDbArc
 50
180.0023408263
 51
269.9976591737
  0
ARC
  5
550
100
AcDbEntity
  8
RACCORDO
100
AcDbCircle
 62
250
  6
CONTINUOUS
 10
-8.5263778172
 20
-24.2456221828
 40
0.2500059834
100
AcDbArc
 50
270.0023408263
 51
359.9976591737
  0
ARC
  5
551
100
AcDbEntity
  8
RACCORDO
100
AcDbCircle
 62
7
  6
CONTINUOUS
 10
-8.5219946513
 20
-24.2500053487
 40
0.2499946513
100
AcDbArc
 50
269.9997437926
 51
0.0002562074
  0
ARC
  5
552
100
AcDbEntity
  8
RACCORDO
100
AcDbCircle
 62
7
  6
CONTINUOUS
 10
-10.4220053487
 20
-24.2500053487
 40
0.2499946513
100
AcDbArc
 50
179.9997437926
 51
270.0002562074
  0
ARC
  5
553
100
AcDbEntity
  8
0
100
AcDbCircle
 62
7
  6
CONTINUOUS
 10
-10.172
 20
16.9357864376
 40
1.0
100
AcDbArc
 50
135.0
 51
180.0
  0
ARC
  5
554
100
AcDbEntity
  8
0
100
AcDbCircle
 62
7
  6
CONTINUOUS
 10
-8.5569162836
 20
18.5508701541
 40
1.0
100
AcDbArc
 50
91.0
 51
135.0
  0
ARC
  5
555
100
AcDbEntity
  8
0
100
AcDbCircle
 62
7
  6
CONTINUOUS
 10
-6.522
 20
20.3135340861
 40
0.5
100
AcDbArc
 50
180.0
 51
269.0
  0
ARC
  5
556
100
AcDbEntity
  8
0
100
AcDbCircle
 62
7
  6
CONTINUOUS
 10
-6.522
 20
20.5864659139
 40
0.5
100
AcDbArc
 50
91.0
 51
180.0
  0
ARC
  5
557
100
AcDbEntity
  8
ASSI
100
AcDbCircle
 62
7
  6
CONTINUOUS
 10
-6.522
 20
20.3135340861
 40
0.5
100
AcDbArc
 50
180.0
 51
269.0
  0
ARC
  5
558
100
AcDbEntity
  8
ASSI
100
AcDbCircle
 62
7
  6
CONTINUOUS
 10
-6.522
 20
20.5864659139
 40
0.5
100
AcDbArc
 50
91.0
 51
180.0
  0
ARC
  5
559
100
AcDbEntity
  8
RACCORDO
100
AcDbCircle
 62
7
  6
CONTINUOUS
 10
-10.664395964
 20
21.9099078731
 40
0.4900921269
100
AcDbArc
 50
89.9999640455
 51
90.8890096977
  0
ARC
  5
55A
100
AcDbEntity
  8
RACCORDO
100
AcDbCircle
 62
7
  6
CONTINUOUS
 10
-10.6644596649
 20
21.9101095044
 40
0.4898900718
100
AcDbArc
 50
90.8818821055
 51
116.5649753403
  0
ARC
  5
55B
100
AcDbEntity
  8
IMPORT_IGES
100
AcDbCircle
 62
7
  6
CONTINUOUS
 10
-1.2719999884
 20
2.499999996
 40
0.4000000001
100
AcDbArc
 50
307.687267238
 51
52.302970539
  0
ARC
  5
55C
100
AcDbEntity
  8
RACCORDO
100
AcDbCircle
 62
250
  6
CONTINUOUS
 10
-10.4176221828
 20
24.2456221828
 40
0.2500059834
100
AcDbArc
 50
90.0023408263
 51
179.9976591737
  0
ARC
  5
55D
100
AcDbEntity
  8
RACCORDO
100
AcDbCircle
 62
250
  6
CONTINUOUS
 10
-8.5263778172
 20
24.2456221828
 40
0.2500059834
100
AcDbArc
 50
0.0023408215
 51
89.9976591785
  0
ARC
  5
55E
100
AcDbEntity
  8
RACCORDO
100
AcDbCircle
 62
7
  6
CONTINUOUS
 10
-10.4220053487
 20
24.2500053487
 40
0.2499946513
100
AcDbArc
 50
89.9997437926
 51
180.0002562074
  0
ARC
  5
55F
100
AcDbEntity
  8
RACCORDO
100
AcDbCircle
 62
7
  6
CONTINUOUS
 10
-8.5219946513
 20
24.2500053487
 40
0.2499946513
100
AcDbArc
 50
359.9997437926
 51
90.0002562074
  0
ARC
  5
560
100
AcDbEntity
  8
0
100
AcDbCircle
 62
7
  6
CONTINUOUS
 10
5.6252266606
 20
-19.1011226359
 40
2.0
100
AcDbArc
 50
271.0
 51
315.5
  0
ARC
  5
561
100
AcDbEntity
  8
ASSI
100
AcDbCircle
 62
7
  6
CONTINUOUS
 10
5.6252266606
 20
-19.1011226359
 40
2.0
100
AcDbArc
 50
271.0
 51
315.5
  0
ARC
  5
562
100
AcDbEntity
  8
0
100
AcDbCircle
 62
250
  6
CONTINUOUS
 10
5.6339523751
 20
-19.1011214983
 40
1.500001146
100
AcDbArc
 50
271.000017908
 51
315.499982092
  0
ARC
  5
563
100
AcDbEntity
  8
0
100
AcDbCircle
 62
7
  6
CONTINUOUS
 10
10.128
 20
-16.9357864376
 40
1.0
100
AcDbArc
 50
315.0
 51
360.0
  0
ARC
  5
564
100
AcDbEntity
  8
0
100
AcDbCircle
 62
7
  6
CONTINUOUS
 10
8.5129162836
 20
-18.5508701541
 40
1.0
100
AcDbArc
 50
271.0
 51
315.0
  0
ARC
  5
565
100
AcDbEntity
  8
ASSI
100
AcDbCircle
 62
7
  6
CONTINUOUS
 10
10.128
 20
-16.9357864376
 40
1.0
100
AcDbArc
 50
315.0
 51
360.0
  0
ARC
  5
566
100
AcDbEntity
  8
ASSI
100
AcDbCircle
 62
7
  6
CONTINUOUS
 10
8.5129162836
 20
-18.5508701541
 40
1.0
100
AcDbArc
 50
271.0
 51
315.0
  0
ARC
  5
567
100
AcDbEntity
  8
RACCORDO
100
AcDbCircle
 62
7
  6
CONTINUOUS
 10
10.620395964
 20
-21.909907873
 40
0.490092127
100
AcDbArc
 50
269.9999640456
 51
270.8890096977
  0
ARC
  5
568
100
AcDbEntity
  8
RACCORDO
100
AcDbCircle
 62
7
  6
CONTINUOUS
 10
10.6204596649
 20
-21.9101095044
 40
0.4898900718
100
AcDbArc
 50
270.8818821055
 51
296.5649753403
  0
ARC
  5
569
100
AcDbEntity
  8
RACCORDO
100
AcDbCircle
 62
250
  6
CONTINUOUS
 10
10.3736221828
 20
-24.2456221828
 40
0.2500059834
100
AcDbArc
 50
270.0023408215
 51
359.9976591785
  0
ARC
  5
56A
100
AcDbEntity
  8
RACCORDO
100
AcDbCircle
 62
250
  6
CONTINUOUS
 10
8.4823778172
 20
-24.2456221828
 40
0.2500059834
100
AcDbArc
 50
180.0023408215
 51
269.9976591785
  0
ARC
  5
56B
100
AcDbEntity
  8
RACCORDO
100
AcDbCircle
 62
7
  6
CONTINUOUS
 10
10.3780053487
 20
-24.2500053487
 40
0.2499946513
100
AcDbArc
 50
269.9997437926
 51
0.0002562074
  0
ARC
  5
56C
100
AcDbEntity
  8
RACCORDO
100
AcDbCircle
 62
7
  6
CONTINUOUS
 10
8.4779946513
 20
-24.2500053487
 40
0.2499946513
100
AcDbArc
 50
179.9997437926
 51
270.0002562074
  0
ARC
  5
56D
100
AcDbEntity
  8
0
100
AcDbCircle
 62
7
  6
CONTINUOUS
 10
5.6252266606
 20
19.1011226359
 40
2.0
100
AcDbArc
 50
44.5
 51
89.0
  0
ARC
  5
56E
100
AcDbEntity
  8
ASSI
100
AcDbCircle
 62
7
  6
CONTINUOUS
 10
5.6252266606
 20
19.1011226359
 40
2.0
100
AcDbArc
 50
44.5
 51
89.0
  0
ARC
  5
56F
100
AcDbEntity
  8
0
100
AcDbCircle
 62
250
  6
CONTINUOUS
 10
5.6339523751
 20
19.1011214982
 40
1.500001146
100
AcDbArc
 50
44.5000179089
 51
88.9999820911
  0
ARC
  5
570
100
AcDbEntity
  8
0
100
AcDbCircle
 62
7
  6
CONTINUOUS
 10
8.5129162836
 20
18.5508701541
 40
1.0
100
AcDbArc
 50
45.0
 51
89.0
  0
ARC
  5
571
100
AcDbEntity
  8
0
100
AcDbCircle
 62
7
  6
CONTINUOUS
 10
10.128
 20
16.9357864376
 40
1.0
100
AcDbArc
 50
0.0
 51
45.0
  0
ARC
  5
572
100
AcDbEntity
  8
ASSI
100
AcDbCircle
 62
7
  6
CONTINUOUS
 10
8.5129162836
 20
18.5508701541
 40
1.0
100
AcDbArc
 50
45.0
 51
89.0
  0
ARC
  5
573
100
AcDbEntity
  8
ASSI
100
AcDbCircle
 62
7
  6
CONTINUOUS
 10
10.128
 20
16.9357864376
 40
1.0
100
AcDbArc
 50
0.0
 51
45.0
  0
ARC
  5
574
100
AcDbEntity
  8
RACCORDO
100
AcDbCircle
 62
7
  6
CONTINUOUS
 10
10.620395964
 20
21.9099078731
 40
0.4900921269
100
AcDbArc
 50
89.1109903023
 51
90.0000359545
  0
ARC
  5
575
100
AcDbEntity
  8
RACCORDO
100
AcDbCircle
 62
7
  6
CONTINUOUS
 10
10.6204596649
 20
21.9101095044
 40
0.4898900718
100
AcDbArc
 50
63.4350246597
 51
89.1181178945
  0
CIRCLE
  5
576
100
AcDbEntity
  8
IMPORT_IGES
100
AcDbCircle
 62
7
  6
CONTINUOUS
 10
1.22799999
 20
2.499999996
 40
0.4000000001
  0
ARC
  5
577
100
AcDbEntity
  8
RACCORDO
100
AcDbCircle
 62
250
  6
CONTINUOUS
 10
8.4823778172
 20
24.2456221828
 40
0.2500059834
100
AcDbArc
 50
90.0023408263
 51
179.9976591737
  0
ARC
  5
578
100
AcDbEntity
  8
RACCORDO
100
AcDbCircle
 62
250
  6
CONTINUOUS
 10
10.3736221828
 20
24.2456221828
 40
0.2500059834
100
AcDbArc
 50
0.0023408263
 51
89.9976591737
  0
ARC
  5
579
100
AcDbEntity
  8
RACCORDO
100
AcDbCircle
 62
7
  6
CONTINUOUS
 10
8.4779946513
 20
24.2500053487
 40
0.2499946513
100
AcDbArc
 50
89.9997437926
 51
180.0002562074
  0
ARC
  5
57A
100
AcDbEntity
  8
RACCORDO
100
AcDbCircle
 62
7
  6
CONTINUOUS
 10
10.3780053487
 20
24.2500053487
 40
0.2499946513
100
AcDbArc
 50
359.9997437926
 51
90.0002562074
  0
CIRCLE
  5
57B
100
AcDbEntity
  8
IMPORT_IGES
100
AcDbCircle
 62
7
  6
CONTINUOUS
 10
0.53284
 20
5.419
 40
0.127
  0
CIRCLE
  5
57C
100
AcDbEntity
  8
IMPORT_IGES
100
AcDbCircle
 62
7
  6
CONTINUOUS
 10
0.53284
 20
8.369
 40
0.127
  0
SPLINE
  5
57D
100
AcDbEntity
  8
0
100
AcDbSpline
 62
250
  6
CONTINUOUS
 70
0
 71
3
 72
30
 73
26
 74
0
 42
0.0000001
 43
0.0000001
 44
0.0000000001
 40
0.0
 40
0.0
 40
0.0
 40
0.0
 40
0.1956691433
 40
0.2910058502
 40
0.3834654992
 40
0.4721722514
 40
0.5562852266
 40
0.6350072836
 40
0.7075924722
 40
0.7733530757
 40
0.8316661602
 40
0.8819795543
 40
0.9039844962
 40
0.9238174193
 40
0.9414314737
 40
0.9567851635
 40
0.9698429852
 40
0.980574563
 40
0.9889566158
 40
0.9922611739
 40
0.9949733268
 40
0.9970930367
 40
0.998622772
 40
0.9995727352
 40
1.0
 40
1.0
 40
1.0
 40
1.0
 10
-8.57436869
 20
18.5508701541
 30
0.0
 10
-8.619929787
 20
18.5964451326
 30
0.0
 10
-8.6876098904
 20
18.6643057818
 30
0.0
 10
-8.7766253462
 20
18.7538947148
 30
0.0
 10
-8.8407261321
 20
18.8185784583
 30
0.0
 10
-8.9021373783
 20
18.8807232503
 30
0.0
 10
-8.9602771166
 20
18.9397399472
 30
0.0
 10
-9.0145944185
 20
18.9950688285
 30
0.0
 10
-9.0645746898
 20
19.0461851232
 30
0.0
 10
-9.1097447948
 20
19.0926036837
 30
0.0
 10
-9.149677013
 20
19.1338840174
 30
0.0
 10
-9.1794718949
 20
19.1649204138
 30
0.0
 10
-9.2003983757
 20
19.1869019748
 30
0.0
 10
-9.2138523533
 20
19.2011279713
 30
0.0
 10
-9.2257495207
 20
19.2138111513
 30
0.0
 10
-9.2360618531
 20
19.2249210782
 30
0.0
 10
-9.2447662993
 20
19.2344310763
 30
0.0
 10
-9.2518419607
 20
19.2423167769
 30
0.0
 10
-9.2566933815
 20
19.2478861661
 30
0.0
 10
-9.2597316792
 20
19.2515231894
 30
0.0
 10
-9.2614107773
 20
19.2536208089
 30
0.0
 10
-9.2626693802
 20
19.2552734322
 30
0.0
 10
-9.263534265
 20
19.2565703195
 30
0.0
 10
-9.2639764899
 20
19.2573278588
 30
0.0
 10
-9.2641225675
 20
19.2578774325
 30
0.0
 10
-9.2640230647
 20
19.2579769353
 30
0.0
  0
SPLINE
  5
57E
100
AcDbEntity
  8
0
100
AcDbSpline
 62
250
  6
CONTINUOUS
 70
0
 71
3
 72
30
 73
26
 74
0
 42
0.0000001
 43
0.0000001
 44
0.0000000001
 40
0.0
 40
0.0
 40
0.0
 40
0.0
 40
0.1956691434
 40
0.2910058503
 40
0.3834654993
 40
0.4721722515
 40
0.5562852267
 40
0.6350072837
 40
0.7075924723
 40
0.7733530759
 40
0.8316661603
 40
0.8819795544
 40
0.9039844963
 40
0.9238174194
 40
0.9414314738
 40
0.9567851636
 40
0.9698429853
 40
0.980574563
 40
0.9889566158
 40
0.992261174
 40
0.9949733268
 40
0.9970930367
 40
0.998622772
 40
0.9995727352
 40
1.0
 40
1.0
 40
1.0
 40
1.0
 10
-10.1894524064
 20
-16.9357864376
 30
0.0
 10
-10.2350135035
 20
-16.9813614162
 30
0.0
 10
-10.3026936069
 20
-17.0492220654
 30
0.0
 10
-10.3917090627
 20
-17.1388109984
 30
0.0
 10
-10.4558098487
 20
-17.2034947419
 30
0.0
 10
-10.5172210948
 20
-17.2656395339
 30
0.0
 10
-10.5753608332
 20
-17.3246562308
 30
0.0
 10
-10.629678135
 20
-17.3799851122
 30
0.0
 10
-10.6796584063
 20
-17.4311014069
 30
0.0
 10
-10.7248285113
 20
-17.4775199673
 30
0.0
 10
-10.7647607295
 20
-17.518800301
 30
0.0
 10
-10.7945556114
 20
-17.5498366974
 30
0.0
 10
-10.8154820922
 20
-17.5718182584
 30
0.0
 10
-10.8289360698
 20
-17.586044255
 30
0.0
 10
-10.8408332372
 20
-17.5987274349
 30
0.0
 10
-10.8511455696
 20
-17.6098373618
 30
0.0
 10
-10.8598500158
 20
-17.6193473599
 30
0.0
 10
-10.8669256771
 20
-17.6272330605
 30
0.0
 10
-10.871777098
 20
-17.6328024497
 30
0.0
 10
-10.8748153957
 20
-17.636439473
 30
0.0
 10
-10.8764944938
 20
-17.6385370925
 30
0.0
 10
-10.8777530966
 20
-17.6401897157
 30
0.0
 10
-10.8786179815
 20
-17.6414866031
 30
0.0
 10
-10.8790602064
 20
-17.6422441423
 30
0.0
 10
-10.8792062839
 20
-17.6427937161
 30
0.0
 10
-10.8791067812
 20
-17.6428932188
 30
0.0
  0
SPLINE
  5
57F
100
AcDbEntity
  8
0
100
AcDbSpline
 62
250
  6
CONTINUOUS
 70
0
 71
3
 72
30
 73
26
 74
0
 42
0.0000001
 43
0.0000001
 44
0.0000000001
 40
0.0
 40
0.0
 40
0.0
 40
0.0
 40
0.1956691433
 40
0.2910058502
 40
0.3834654992
 40
0.4721722514
 40
0.5562852266
 40
0.6350072836
 40
0.7075924722
 40
0.7733530758
 40
0.8316661603
 40
0.8819795543
 40
0.9039844962
 40
0.9238174193
 40
0.9414314737
 40
0.9567851636
 40
0.9698429852
 40
0.980574563
 40
0.9889566158
 40
0.992261174
 40
0.9949733268
 40
0.9970930367
 40
0.998622772
 40
0.9995727352
 40
1.0
 40
1.0
 40
1.0
 40
1.0
 10
-8.57436869
 20
-18.5508701541
 30
0.0
 10
-8.619929787
 20
-18.5964451326
 30
0.0
 10
-8.6876098904
 20
-18.6643057818
 30
0.0
 10
-8.7766253462
 20
-18.7538947148
 30
0.0
 10
-8.8407261321
 20
-18.8185784583
 30
0.0
 10
-8.9021373783
 20
-18.8807232503
 30
0.0
 10
-8.9602771167
 20
-18.9397399472
 30
0.0
 10
-9.0145944185
 20
-18.9950688285
 30
0.0
 10
-9.0645746898
 20
-19.0461851233
 30
0.0
 10
-9.1097447948
 20
-19.0926036837
 30
0.0
 10
-9.149677013
 20
-19.1338840174
 30
0.0
 10
-9.1794718949
 20
-19.1649204138
 30
0.0
 10
-9.2003983757
 20
-19.1869019748
 30
0.0
 10
-9.2138523533
 20
-19.2011279714
 30
0.0
 10
-9.2257495207
 20
-19.2138111513
 30
0.0
 10
-9.2360618531
 20
-19.2249210782
 30
0.0
 10
-9.2447662994
 20
-19.2344310763
 30
0.0
 10
-9.2518419607
 20
-19.2423167769
 30
0.0
 10
-9.2566933816
 20
-19.2478861661
 30
0.0
 10
-9.2597316792
 20
-19.2515231894
 30
0.0
 10
-9.2614107773
 20
-19.2536208089
 30
0.0
 10
-9.2626693802
 20
-19.2552734322
 30
0.0
 10
-9.263534265
 20
-19.2565703195
 30
0.0
 10
-9.2639764899
 20
-19.2573278588
 30
0.0
 10
-9.2641225675
 20
-19.2578774325
 30
0.0
 10
-9.2640230647
 20
-19.2579769353
 30
0.0
  0
SPLINE
  5
580
100
AcDbEntity
  8
0
100
AcDbSpline
 62
250
  6
CONTINUOUS
 70
0
 71
3
 72
30
 73
26
 74
0
 42
0.0000001
 43
0.0000001
 44
0.0000000001
 40
0.0
 40
0.0
 40
0.0
 40
0.0
 40
0.1956691434
 40
0.2910058503
 40
0.3834654994
 40
0.4721722515
 40
0.5562852268
 40
0.6350072837
 40
0.7075924724
 40
0.7733530759
 40
0.8316661604
 40
0.8819795544
 40
0.9039844963
 40
0.9238174195
 40
0.9414314738
 40
0.9567851637
 40
0.9698429853
 40
0.9805745631
 40
0.9889566158
 40
0.992261174
 40
0.9949733268
 40
0.9970930367
 40
0.998622772
 40
0.9995727352
 40
1.0
 40
1.0
 40
1.0
 40
1.0
 10
-10.1894524064
 20
16.9357864376
 30
0.0
 10
-10.2350135035
 20
16.9813614162
 30
0.0
 10
-10.3026936069
 20
17.0492220654
 30
0.0
 10
-10.3917090627
 20
17.1388109984
 30
0.0
 10
-10.4558098487
 20
17.203494742
 30
0.0
 10
-10.5172210948
 20
17.2656395339
 30
0.0
 10
-10.5753608332
 20
17.3246562308
 30
0.0
 10
-10.6296781351
 20
17.3799851122
 30
0.0
 10
-10.6796584064
 20
17.4311014069
 30
0.0
 10
-10.7248285113
 20
17.4775199674
 30
0.0
 10
-10.7647607296
 20
17.5188003011
 30
0.0
 10
-10.7945556114
 20
17.5498366975
 30
0.0
 10
-10.8154820922
 20
17.5718182584
 30
0.0
 10
-10.8289360698
 20
17.586044255
 30
0.0
 10
-10.8408332372
 20
17.5987274349
 30
0.0
 10
-10.8511455696
 20
17.6098373619
 30
0.0
 10
-10.8598500159
 20
17.6193473599
 30
0.0
 10
-10.8669256772
 20
17.6272330605
 30
0.0
 10
-10.871777098
 20
17.6328024497
 30
0.0
 10
-10.8748153957
 20
17.636439473
 30
0.0
 10
-10.8764944938
 20
17.6385370925
 30
0.0
 10
-10.8777530966
 20
17.6401897157
 30
0.0
 10
-10.8786179815
 20
17.6414866031
 30
0.0
 10
-10.8790602064
 20
17.6422441423
 30
0.0
 10
-10.8792062839
 20
17.6427937161
 30
0.0
 10
-10.8791067812
 20
17.6428932188
 30
0.0
  0
SPLINE
  5
581
100
AcDbEntity
  8
0
100
AcDbSpline
 62
250
  6
CONTINUOUS
 70
0
 71
3
 72
29
 73
25
 74
0
 42
0.0000001
 43
0.0000001
 44
0.0000000001
 40
0.0
 40
0.0
 40
0.0
 40
0.0
 40
0.1949649921
 40
0.2900959629
 40
0.3824317982
 40
0.4710844489
 40
0.5552007203
 40
0.6339713129
 40
0.7066385249
 40
0.7725035435
 40
0.8309332474
 40
0.8813664632
 40
0.9034301335
 40
0.9233199414
 40
0.9409884391
 40
0.956393736
 40
0.9695002304
 40
0.9802779012
 40
0.9887047161
 40
0.9947678998
 40
0.9969147374
 40
0.9984779444
 40
0.9994768177
 40
1.0
 40
1.0
 40
1.0
 40
1.0
 10
-8.57436869
 20
-18.5508701541
 30
0.0
 10
-8.5755030249
 20
-18.6158759581
 30
0.0
 10
-8.5770281205
 20
-18.7126035721
 30
0.0
 10
-8.5786989357
 20
-18.8401236284
 30
0.0
 10
-8.5797337194
 20
-18.9321964554
 30
0.0
 10
-8.5805509348
 20
-19.0205982093
 30
0.0
 10
-8.5811429382
 20
-19.1044780109
 30
0.0
 10
-8.5815045111
 20
-19.1830283626
 30
0.0
 10
-8.581632765
 20
-19.2554931388
 30
0.0
 10
-8.5815277161
 20
-19.3211748443
 30
0.0
 10
-8.5811913212
 20
-19.3794412267
 30
0.0
 10
-8.5807056208
 20
-19.4230994569
 30
0.0
 10
-8.5801821823
 20
-19.4539036222
 30
0.0
 10
-8.5797523272
 20
-19.4737814434
 30
0.0
 10
-8.5792693302
 20
-19.4914368655
 30
0.0
 10
-8.5787349111
 20
-19.5068278722
 30
0.0
 10
-8.578152057
 20
-19.5199166261
 30
0.0
 10
-8.5775237907
 20
-19.5306752048
 30
0.0
 10
-8.5768590962
 20
-19.5390718954
 30
0.0
 10
-8.576226188
 20
-19.544594061
 30
0.0
 10
-8.5756738447
 20
-19.5477972042
 30
0.0
 10
-8.5752704412
 20
-19.5493362307
 30
0.0
 10
-8.5749461088
 20
-19.5502741723
 30
0.0
 10
-8.574543131
 20
-19.5507148043
 30
0.0
 10
-8.57436869
 20
-19.5507178492
 30
0.0
  0
SPLINE
  5
582
100
AcDbEntity
  8
0
100
AcDbSpline
 62
250
  6
CONTINUOUS
 70
0
 71
3
 72
29
 73
25
 74
0
 42
0.0000001
 43
0.0000001
 44
0.0000000001
 40
0.0
 40
0.0
 40
0.0
 40
0.0
 40
0.1949649921
 40
0.290095963
 40
0.3824317982
 40
0.4710844489
 40
0.5552007204
 40
0.633971313
 40
0.706638525
 40
0.7725035436
 40
0.8309332475
 40
0.8813664632
 40
0.9034301336
 40
0.9233199415
 40
0.9409884392
 40
0.956393736
 40
0.9695002304
 40
0.9802779013
 40
0.9887047161
 40
0.9947678998
 40
0.9969147374
 40
0.9984779444
 40
0.9994768177
 40
1.0
 40
1.0
 40
1.0
 40
1.0
 10
-8.57436869
 20
18.5508701541
 30
0.0
 10
-8.5755030249
 20
18.6158759581
 30
0.0
 10
-8.5770281205
 20
18.7126035721
 30
0.0
 10
-8.5786989357
 20
18.8401236284
 30
0.0
 10
-8.5797337194
 20
18.9321964554
 30
0.0
 10
-8.5805509348
 20
19.0205982094
 30
0.0
 10
-8.5811429382
 20
19.104478011
 30
0.0
 10
-8.5815045111
 20
19.1830283627
 30
0.0
 10
-8.581632765
 20
19.2554931389
 30
0.0
 10
-8.5815277161
 20
19.3211748444
 30
0.0
 10
-8.5811913212
 20
19.3794412268
 30
0.0
 10
-8.5807056208
 20
19.4230994569
 30
0.0
 10
-8.5801821823
 20
19.4539036223
 30
0.0
 10
-8.5797523272
 20
19.4737814434
 30
0.0
 10
-8.5792693302
 20
19.4914368656
 30
0.0
 10
-8.5787349111
 20
19.5068278723
 30
0.0
 10
-8.578152057
 20
19.5199166261
 30
0.0
 10
-8.5775237907
 20
19.5306752048
 30
0.0
 10
-8.5768590962
 20
19.5390718955
 30
0.0
 10
-8.576226188
 20
19.5445940611
 30
0.0
 10
-8.5756738447
 20
19.5477972043
 30
0.0
 10
-8.5752704412
 20
19.5493362308
 30
0.0
 10
-8.5749461088
 20
19.5502741723
 30
0.0
 10
-8.574543131
 20
19.5507148043
 30
0.0
 10
-8.57436869
 20
19.5507178492
 30
0.0
  0
SPLINE
  5
583
100
AcDbEntity
  8
ASSI
100
AcDbSpline
 62
7
  6
CONTINUOUS
 70
0
 71
3
 72
20
 73
16
 74
0
 42
0.0000001
 43
0.0000001
 44
0.0000000001
 40
0.0
 40
0.0
 40
0.0
 40
0.0
 40
0.1619812564
 40
0.3217482411
 40
0.4767475837
 40
0.6236499156
 40
0.6926617707
 40
0.7577227107
 40
0.8178699823
 40
0.8719449633
 40
0.9185885491
 40
0.9563028849
 40
0.9836600938
 40
0.9931773449
 40
1.0
 40
1.0
 40
1.0
 40
1.0
 10
3.9059699877
 20
23.2592582188
 30
0.0
 10
3.8819576899
 20
23.2851370747
 30
0.0
 10
3.8342612279
 20
23.3365409147
 30
0.0
 10
3.7637010306
 20
23.4128135141
 30
0.0
 10
3.6956192193
 20
23.4869012757
 30
0.0
 10
3.6412734063
 20
23.5467479225
 30
0.0
 10
3.6004807717
 20
23.5924209154
 30
0.0
 10
3.5725220273
 20
23.624202953
 30
0.0
 10
3.5470210859
 20
23.653811133
 30
0.0
 10
3.5245565554
 20
23.6807263207
 30
0.0
 10
3.5057542475
 20
23.7043408952
 30
0.0
 10
3.4913929686
 20
23.7239809202
 30
0.0
 10
3.4826497296
 20
23.7377778546
 30
0.0
 10
3.4788365988
 20
23.7465030957
 30
0.0
 10
3.478
 20
23.7500332392
 30
0.0
 10
3.478
 20
23.7515202049
 30
0.0
  0
SPLINE
  5
584
100
AcDbEntity
  8
ASSI
100
AcDbSpline
 62
7
  6
CONTINUOUS
 70
0
 71
3
 72
20
 73
16
 74
0
 42
0.0000001
 43
0.0000001
 44
0.0000000001
 40
0.0
 40
0.0
 40
0.0
 40
0.0
 40
0.0070432098
 40
0.016789168
 40
0.0445477224
 40
0.0825557274
 40
0.1293870161
 40
0.1835586878
 40
0.2437291688
 40
0.3087558279
 40
0.3776892652
 40
0.5243417351
 40
0.6790126124
 40
0.8384084924
 40
1.0
 40
1.0
 40
1.0
 40
1.0
 10
4.3339327327
 20
23.7511641713
 30
0.0
 10
4.3338714694
 20
23.7496311882
 30
0.0
 10
4.3329342732
 20
23.7460351066
 30
0.0
 10
4.3289511329
 20
23.737186715
 30
0.0
 10
4.3200545563
 20
23.7232673458
 30
0.0
 10
4.3055448234
 20
23.7035108447
 30
0.0
 10
4.2866503622
 20
23.6798312363
 30
0.0
 10
4.2641378065
 20
23.6528930236
 30
0.0
 10
4.2386272995
 20
23.6232964966
 30
0.0
 10
4.2106887531
 20
23.591553017
 30
0.0
 10
4.1699635738
 20
23.5459699742
 30
0.0
 10
4.1157387366
 20
23.4862656112
 30
0.0
 10
4.0478312879
 20
23.4123721862
 30
0.0
 10
3.9774696046
 20
23.3363155167
 30
0.0
 10
3.9299115917
 20
23.2850608857
 30
0.0
 10
3.9059699877
 20
23.2592582188
 30
0.0
  0
SPLINE
  5
585
100
AcDbEntity
  8
ASSI
100
AcDbSpline
 62
7
  6
CONTINUOUS
 70
0
 71
3
 72
20
 73
16
 74
0
 42
0.0000001
 43
0.0000001
 44
0.0000000001
 40
0.0
 40
0.0
 40
0.0
 40
0.0
 40
0.1615914101
 40
0.3209872424
 40
0.475658132
 40
0.6223105847
 40
0.6912439979
 40
0.7562706379
 40
0.8164411166
 40
0.870612798
 40
0.9174441205
 40
0.9554521768
 40
0.9832107995
 40
0.9929567772
 40
1.0
 40
1.0
 40
1.0
 40
1.0
 10
-3.9499699877
 20
23.2592582188
 30
0.0
 10
-3.9739115773
 20
23.2850608701
 30
0.0
 10
-4.0214695686
 20
23.3363154777
 30
0.0
 10
-4.0918312323
 20
23.4123721259
 30
0.0
 10
-4.1597386737
 20
23.4862655419
 30
0.0
 10
-4.2139635071
 20
23.5459698996
 30
0.0
 10
-4.2546886779
 20
23.5915529324
 30
0.0
 10
-4.2826272177
 20
23.6232964045
 30
0.0
 10
-4.3081377251
 20
23.6528929277
 30
0.0
 10
-4.3306502891
 20
23.6798311451
 30
0.0
 10
-4.3495447647
 20
23.7035107687
 30
0.0
 10
-4.3640545193
 20
23.7232672943
 30
0.0
 10
-4.3729511207
 20
23.7371866854
 30
0.0
 10
-4.3769342654
 20
23.7460350981
 30
0.0
 10
-4.3778714693
 20
23.7496311853
 30
0.0
 10
-4.3779327327
 20
23.7511641713
 30
0.0
  0
SPLINE
  5
586
100
AcDbEntity
  8
ASSI
100
AcDbSpline
 62
7
  6
CONTINUOUS
 70
0
 71
3
 72
20
 73
16
 74
0
 42
0.0000001
 43
0.0000001
 44
0.0000000001
 40
0.0
 40
0.0
 40
0.0
 40
0.0
 40
0.0068226417
 40
0.0163398729
 40
0.0436970105
 40
0.0814112925
 40
0.1280548426
 40
0.1821298132
 40
0.2422770865
 40
0.3073380453
 40
0.376349925
 40
0.5232522738
 40
0.678251604
 40
0.8380186408
 40
1.0
 40
1.0
 40
1.0
 40
1.0
 10
-3.522
 20
23.7515202049
 30
0.0
 10
-3.522
 20
23.7500332422
 30
0.0
 10
-3.5228365905
 20
23.7465031046
 30
0.0
 10
-3.5266497174
 20
23.7377778854
 30
0.0
 10
-3.5353929301
 20
23.7239809738
 30
0.0
 10
-3.5497541864
 20
23.7043409745
 30
0.0
 10
-3.568556479
 20
23.6807264161
 30
0.0
 10
-3.5910210007
 20
23.6538112335
 30
0.0
 10
-3.6165219413
 20
23.6242030498
 30
0.0
 10
-3.6444806922
 20
23.5924210048
 30
0.0
 10
-3.6852733354
 20
23.5467480018
 30
0.0
 10
-3.7396191521
 20
23.4869013498
 30
0.0
 10
-3.8077009714
 20
23.4128135785
 30
0.0
 10
-3.8782611897
 20
23.3365409561
 30
0.0
 10
-3.9259576746
 20
23.2851370911
 30
0.0
 10
-3.9499699877
 20
23.2592582188
 30
0.0
  0
SPLINE
  5
587
100
AcDbEntity
  8
ASSI
100
AcDbSpline
 62
7
  6
CONTINUOUS
 70
0
 71
3
 72
20
 73
16
 74
0
 42
0.0000001
 43
0.0000001
 44
0.0000000001
 40
0.0
 40
0.0
 40
0.0
 40
0.0
 40
0.0070071055
 40
0.0166823709
 40
0.0442828746
 40
0.082160257
 40
0.1289011048
 40
0.1830205033
 40
0.243170855
 40
0.3082029787
 40
0.3771618017
 40
0.5239073782
 40
0.6787074564
 40
0.8382518717
 40
1.0
 40
1.0
 40
1.0
 40
1.0
 10
3.478
 20
-23.7511422903
 30
0.0
 10
3.478
 20
-23.7496104903
 30
0.0
 10
3.4788279684
 20
-23.7459920018
 30
0.0
 10
3.4826355916
 20
-23.7370905407
 30
0.0
 10
3.4913793499
 20
-23.7230894019
 30
0.0
 10
3.5057544382
 20
-23.7032304945
 30
0.0
 10
3.5245635981
 20
-23.6794194517
 30
0.0
 10
3.5470312528
 20
-23.6523270162
 30
0.0
 10
3.5725321274
 20
-23.622557037
 30
0.0
 10
3.6004891546
 20
-23.5906254371
 30
0.0
 10
3.6412741319
 20
-23.5447665336
 30
0.0
 10
3.6956148114
 20
-23.4847047253
 30
0.0
 10
3.7636968797
 20
-23.4103744627
 30
0.0
 10
3.8342586996
 20
-23.3338690249
 30
0.0
 10
3.8819572113
 20
-23.2823127961
 30
0.0
 10
3.9059699877
 20
-23.2563578147
 30
0.0
  0
SPLINE
  5
588
100
AcDbEntity
  8
ASSI
100
AcDbSpline
 62
7
  6
CONTINUOUS
 70
0
 71
3
 72
20
 73
16
 74
0
 42
0.0000001
 43
0.0000001
 44
0.0000000001
 40
0.0
 40
0.0
 40
0.0
 40
0.0
 40
0.1613622567
 40
0.3205392927
 40
0.4750142876
 40
0.6215127267
 40
0.6903940797
 40
0.7553924524
 40
0.8155659793
 40
0.8697812898
 40
0.9167081239
 40
0.9548763397
 40
0.9828739863
 40
0.9927752037
 40
1.0
 40
1.0
 40
1.0
 40
1.0
 10
3.9059699877
 20
-23.2563578147
 30
0.0
 10
3.9299121299
 20
-23.2822364489
 30
0.0
 10
3.9774722982
 20
-23.3336431472
 30
0.0
 10
4.0478357633
 20
-23.4099321261
 30
0.0
 10
4.1157436075
 20
-23.4840674079
 30
0.0
 10
4.1699634425
 20
-23.5439862428
 30
0.0
 10
4.210681075
 20
-23.5897544604
 30
0.0
 10
4.2386178848
 20
-23.6216467934
 30
0.0
 10
4.2641282387
 20
-23.6514042296
 30
0.0
 10
4.2866437016
 20
-23.6785185518
 30
0.0
 10
4.3055447595
 20
-23.7023932482
 30
0.0
 10
4.320067727
 20
-23.7223668207
 30
0.0
 10
4.3289649358
 20
-23.7364888057
 30
0.0
 10
4.3329428125
 20
-23.7455117571
 30
0.0
 10
4.3338718485
 20
-23.7491960907
 30
0.0
 10
4.3339327327
 20
-23.7507734247
 30
0.0
  0
SPLINE
  5
589
100
AcDbEntity
  8
ASSI
100
AcDbSpline
 62
7
  6
CONTINUOUS
 70
0
 71
3
 72
20
 73
16
 74
0
 42
0.0000001
 43
0.0000001
 44
0.0000000001
 40
0.0
 40
0.0
 40
0.0
 40
0.0
 40
0.0072248101
 40
0.0171260486
 40
0.0451237695
 40
0.0832920408
 40
0.1302189132
 40
0.1844342364
 40
0.2446077607
 40
0.3096061118
 40
0.378487439
 40
0.5249858569
 40
0.6794608614
 40
0.838637846
 40
1.0
 40
1.0
 40
1.0
 40
1.0
 10
-4.3779327327
 20
-23.7507734247
 30
0.0
 10
-4.3778718484
 20
-23.7491960877
 30
0.0
 10
-4.3769428042
 20
-23.7455117479
 30
0.0
 10
-4.3729649227
 20
-23.7364887736
 30
0.0
 10
-4.3640676872
 20
-23.7223667645
 30
0.0
 10
-4.3495446959
 20
-23.7023931651
 30
0.0
 10
-4.3306436218
 20
-23.6785184514
 30
0.0
 10
-4.3081281493
 20
-23.6514041237
 30
0.0
 10
-4.2826177946
 20
-23.6216466915
 30
0.0
 10
-4.2546809922
 20
-23.5897543667
 30
0.0
 10
-4.2139633693
 20
-23.5439861607
 30
0.0
 10
-4.1597435392
 20
-23.4840673324
 30
0.0
 10
-4.0918357039
 20
-23.4099320613
 30
0.0
 10
-4.0214722601
 20
-23.3336431058
 30
0.0
 10
-3.9739121146
 20
-23.2822364324
 30
0.0
 10
-3.9499699877
 20
-23.2563578147
 30
0.0
  0
SPLINE
  5
58A
100
AcDbEntity
  8
ASSI
100
AcDbSpline
 62
7
  6
CONTINUOUS
 70
0
 71
3
 72
20
 73
16
 74
0
 42
0.0000001
 43
0.0000001
 44
0.0000000001
 40
0.0
 40
0.0
 40
0.0
 40
0.0
 40
0.1617482366
 40
0.3212927077
 40
0.4760927764
 40
0.6228383737
 40
0.691797223
 40
0.7568293683
 40
0.816979722
 40
0.871099107
 40
0.9178399145
 40
0.9557172384
 40
0.9833176649
 40
0.9929929087
 40
1.0
 40
1.0
 40
1.0
 40
1.0
 10
-3.9499699877
 20
-23.2563578147
 30
0.0
 10
-3.9259571952
 20
-23.2823128135
 30
0.0
 10
-3.8782586592
 20
-23.3338690689
 30
0.0
 10
-3.8076968164
 20
-23.4103745317
 30
0.0
 10
-3.7396147387
 20
-23.4847048057
 30
0.0
 10
-3.6852740542
 20
-23.5447666207
 30
0.0
 10
-3.6444890673
 20
-23.5906255359
 30
0.0
 10
-3.6165320327
 20
-23.622557144
 30
0.0
 10
-3.5910311594
 20
-23.6523271271
 30
0.0
 10
-3.5685635148
 20
-23.6794195565
 30
0.0
 10
-3.549754372
 20
-23.7032305811
 30
0.0
 10
-3.5353793084
 20
-23.7230894604
 30
0.0
 10
-3.5266355787
 20
-23.7370905742
 30
0.0
 10
-3.5228279597
 20
-23.7459920114
 30
0.0
 10
-3.522
 20
-23.7496104934
 30
0.0
 10
-3.522
 20
-23.7511422903
 30
0.0
  0
SPLINE
  5
58B
100
AcDbEntity
  8
RACCORDO
100
AcDbSpline
 62
250
  6
CONTINUOUS
 70
0
 71
3
 72
13
 73
9
 74
0
 42
0.0000001
 43
0.0000001
 44
0.0000000001
 40
0.0
 40
0.0
 40
0.0
 40
0.0
 40
0.1162401412
 40
0.2339779602
 40
0.3543714643
 40
0.4780981267
 40
0.7345386771
 40
1.0
 40
1.0
 40
1.0
 40
1.0
 10
8.232371834
 20
23.8443375673
 30
0.0
 10
8.2324193605
 20
23.830187777
 30
0.0
 10
8.2357776477
 20
23.8016147644
 30
0.0
 10
8.2503349985
 20
23.7606546878
 30
0.0
 10
8.2738054152
 20
23.722982847
 30
0.0
 10
8.3161078067
 20
23.6786204663
 30
0.0
 10
8.386034724
 20
23.6387874704
 30
0.0
 10
8.4500531955
 20
23.6279126226
 30
0.0
 10
8.4823676032
 20
23.6278312164
 30
0.0
  0
SPLINE
  5
58C
100
AcDbEntity
  8
RACCORDO
100
AcDbSpline
 62
250
  6
CONTINUOUS
 70
0
 71
3
 72
13
 73
9
 74
0
 42
0.0000001
 43
0.0000001
 44
0.0000000001
 40
0.0
 40
0.0
 40
0.0
 40
0.0
 40
0.1162399782
 40
0.2339778175
 40
0.3543713311
 40
0.4780980184
 40
0.7345386243
 40
1.0
 40
1.0
 40
1.0
 40
1.0
 10
10.623628166
 20
23.8443375673
 30
0.0
 10
10.6235806396
 20
23.8301877969
 30
0.0
 10
10.6202223551
 20
23.8016148029
 30
0.0
 10
10.6056650278
 20
23.7606547352
 30
0.0
 10
10.5821946141
 20
23.7229828841
 30
0.0
 10
10.539892224
 20
23.6786204872
 30
0.0
 10
10.4699652956
 20
23.6387874753
 30
0.0
 10
10.4059468109
 20
23.6279126226
 30
0.0
 10
10.3736323968
 20
23.6278312164
 30
0.0
  0
SPLINE
  5
58D
100
AcDbEntity
  8
RACCORDO
100
AcDbSpline
 62
7
  6
CONTINUOUS
 70
0
 71
3
 72
10
 73
6
 74
0
 42
0.0000001
 43
0.0000001
 44
0.0000000001
 40
0.0
 40
0.0
 40
0.0
 40
0.0
 40
0.5096488713
 40
0.7586453896
 40
1.0
 40
1.0
 40
1.0
 40
1.0
 10
7.5621007192
 20
-21.3126932437
 30
0.0
 10
7.6152329483
 20
-21.3878335627
 30
0.0
 10
7.694355377
 20
-21.4996676405
 30
0.0
 10
7.7964797954
 20
-21.6485895888
 30
0.0
 10
7.8453368915
 20
-21.7224434496
 30
0.0
 10
7.8688834737
 20
-21.7591165263
 30
0.0
  0
SPLINE
  5
58E
100
AcDbEntity
  8
RACCORDO
100
AcDbSpline
 62
7
  6
CONTINUOUS
 70
0
 71
3
 72
10
 73
6
 74
0
 42
0.0000001
 43
0.0000001
 44
0.0000000001
 40
0.0
 40
0.0
 40
0.0
 40
0.0
 40
0.2413546104
 40
0.4903511287
 40
1.0
 40
1.0
 40
1.0
 40
1.0
 10
-7.9128834737
 20
-21.7591165263
 30
0.0
 10
-7.8893368915
 20
-21.7224434496
 30
0.0
 10
-7.8404797954
 20
-21.6485895888
 30
0.0
 10
-7.738355377
 20
-21.4996676405
 30
0.0
 10
-7.6592329483
 20
-21.3878335627
 30
0.0
 10
-7.6061007192
 20
-21.3126932437
 30
0.0
  0
SPLINE
  5
58F
100
AcDbEntity
  8
RACCORDO
100
AcDbSpline
 62
7
  6
CONTINUOUS
 70
0
 71
3
 72
10
 73
6
 74
0
 42
0.0000001
 43
0.0000001
 44
0.0000000001
 40
0.0
 40
0.0
 40
0.0
 40
0.0
 40
0.2413546104
 40
0.4903511287
 40
1.0
 40
1.0
 40
1.0
 40
1.0
 10
7.8688834737
 20
21.7591165263
 30
0.0
 10
7.8453368915
 20
21.7224434496
 30
0.0
 10
7.7964797954
 20
21.6485895888
 30
0.0
 10
7.694355377
 20
21.4996676405
 30
0.0
 10
7.6152329483
 20
21.3878335627
 30
0.0
 10
7.5621007192
 20
21.3126932437
 30
0.0
  0
SPLINE
  5
590
100
AcDbEntity
  8
RACCORDO
100
AcDbSpline
 62
7
  6
CONTINUOUS
 70
0
 71
3
 72
10
 73
6
 74
0
 42
0.0000001
 43
0.0000001
 44
0.0000000001
 40
0.0
 40
0.0
 40
0.0
 40
0.0
 40
0.5096488713
 40
0.7586453896
 40
1.0
 40
1.0
 40
1.0
 40
1.0
 10
-7.6061007192
 20
21.3126932437
 30
0.0
 10
-7.6592329483
 20
21.3878335627
 30
0.0
 10
-7.738355377
 20
21.4996676405
 30
0.0
 10
-7.8404797954
 20
21.6485895888
 30
0.0
 10
-7.8893368915
 20
21.7224434496
 30
0.0
 10
-7.9128834737
 20
21.7591165263
 30
0.0
  0
SPLINE
  5
591
100
AcDbEntity
  8
RACCORDO
100
AcDbSpline
 62
7
  6
CONTINUOUS
 70
0
 71
3
 72
15
 73
11
 74
0
 42
0.0000001
 43
0.0000001
 44
0.0000000001
 40
0.0
 40
0.0
 40
0.0
 40
0.0
 40
0.1666545511
 40
0.3262779792
 40
0.4735916211
 40
0.6057108254
 40
0.7221085607
 40
0.8242207343
 40
0.9152394685
 40
1.0
 40
1.0
 40
1.0
 40
1.0
 10
-10.4176323968
 20
23.7
 30
0.0
 10
-10.4350917069
 20
23.7
 30
0.0
 10
-10.4693034732
 20
23.7022700651
 30
0.0
 10
-10.5181878482
 20
23.7114284588
 30
0.0
 10
-10.562028913
 20
23.7258344539
 30
0.0
 10
-10.5992691987
 20
23.744460098
 30
0.0
 10
-10.6290169748
 20
23.7663702269
 30
0.0
 10
-10.6508084606
 20
23.7907682484
 30
0.0
 10
-10.6643087823
 20
23.8169652651
 30
0.0
 10
-10.667538693
 20
23.8354582101
 30
0.0
 10
-10.667628166
 20
23.8443375673
 30
0.0
  0
SPLINE
  5
592
100
AcDbEntity
  8
RACCORDO
100
AcDbSpline
 62
7
  6
CONTINUOUS
 70
0
 71
3
 72
15
 73
11
 74
0
 42
0.0000001
 43
0.0000001
 44
0.0000000001
 40
0.0
 40
0.0
 40
0.0
 40
0.0
 40
0.0847129374
 40
0.1757006909
 40
0.2778081862
 40
0.3942292046
 40
0.5263924491
 40
0.6737522819
 40
0.8333934372
 40
1.0
 40
1.0
 40
1.0
 40
1.0
 10
-8.276371834
 20
23.8443375673
 30
0.0
 10
-8.2764614632
 20
23.8354427142
 30
0.0
 10
-8.2797030547
 20
23.8169151481
 30
0.0
 10
-8.2932510165
 20
23.7906750928
 30
0.0
 10
-8.3151173207
 20
23.7662437729
 30
0.0
 10
-8.3449647126
 20
23.7443139213
 30
0.0
 10
-8.3823248417
 20
23.7256847024
 30
0.0
 10
-8.426297613
 20
23.7113065128
 30
0.0
 10
-8.4753081754
 20
23.7021703171
 30
0.0
 10
-8.5096002652
 20
23.7
 30
0.0
 10
-8.5270948319
 20
23.7
 30
0.0
  0
SPLINE
  5
593
100
AcDbEntity
  8
RACCORDO
100
AcDbSpline
 62
250
  6
CONTINUOUS
 70
0
 71
3
 72
13
 73
9
 74
0
 42
0.0000001
 43
0.0000001
 44
0.0000000001
 40
0.0
 40
0.0
 40
0.0
 40
0.0
 40
0.1162399782
 40
0.2339778175
 40
0.3543713311
 40
0.4780980184
 40
0.7345386243
 40
1.0
 40
1.0
 40
1.0
 40
1.0
 10
-10.667628166
 20
-23.8443375673
 30
0.0
 10
-10.6675806396
 20
-23.8301877969
 30
0.0
 10
-10.6642223551
 20
-23.8016148029
 30
0.0
 10
-10.6496650278
 20
-23.7606547352
 30
0.0
 10
-10.6261946141
 20
-23.7229828841
 30
0.0
 10
-10.583892224
 20
-23.6786204872
 30
0.0
 10
-10.5139652956
 20
-23.6387874753
 30
0.0
 10
-10.4499468109
 20
-23.6279126226
 30
0.0
 10
-10.4176323968
 20
-23.6278312164
 30
0.0
  0
SPLINE
  5
594
100
AcDbEntity
  8
RACCORDO
100
AcDbSpline
 62
250
  6
CONTINUOUS
 70
0
 71
3
 72
13
 73
9
 74
0
 42
0.0000001
 43
0.0000001
 44
0.0000000001
 40
0.0
 40
0.0
 40
0.0
 40
0.0
 40
0.1162401487
 40
0.2339779758
 40
0.3543714899
 40
0.478098162
 40
0.7345387303
 40
1.0
 40
1.0
 40
1.0
 40
1.0
 10
-8.276371834
 20
-23.8443375673
 30
0.0
 10
-8.2764193605
 20
-23.8301877761
 30
0.0
 10
-8.2797776481
 20
-23.8016147615
 30
0.0
 10
-8.2943350011
 20
-23.7606546823
 30
0.0
 10
-8.317805421
 20
-23.7229828394
 30
0.0
 10
-8.3601078178
 20
-23.6786204573
 30
0.0
 10
-8.430034735
 20
-23.6387874669
 30
0.0
 10
-8.494053202
 20
-23.6279126226
 30
0.0
 10
-8.5263676032
 20
-23.6278312164
 30
0.0
  0
SPLINE
  5
595
100
AcDbEntity
  8
RACCORDO
100
AcDbSpline
 62
250
  6
CONTINUOUS
 70
0
 71
3
 72
13
 73
9
 74
0
 42
0.0000001
 43
0.0000001
 44
0.0000000001
 40
0.0
 40
0.0
 40
0.0
 40
0.0
 40
0.1162399782
 40
0.2339778175
 40
0.3543713311
 40
0.4780980184
 40
0.7345386243
 40
1.0
 40
1.0
 40
1.0
 40
1.0
 10
10.623628166
 20
-23.8443375673
 30
0.0
 10
10.6235806396
 20
-23.8301877969
 30
0.0
 10
10.6202223551
 20
-23.8016148029
 30
0.0
 10
10.6056650278
 20
-23.7606547352
 30
0.0
 10
10.5821946141
 20
-23.7229828841
 30
0.0
 10
10.539892224
 20
-23.6786204872
 30
0.0
 10
10.4699652956
 20
-23.6387874753
 30
0.0
 10
10.4059468109
 20
-23.6279126226
 30
0.0
 10
10.3736323968
 20
-23.6278312164
 30
0.0
  0
SPLINE
  5
596
100
AcDbEntity
  8
RACCORDO
100
AcDbSpline
 62
250
  6
CONTINUOUS
 70
0
 71
3
 72
13
 73
9
 74
0
 42
0.0000001
 43
0.0000001
 44
0.0000000001
 40
0.0
 40
0.0
 40
0.0
 40
0.0
 40
0.1162399782
 40
0.2339778175
 40
0.3543713311
 40
0.4780980184
 40
0.7345386243
 40
1.0
 40
1.0
 40
1.0
 40
1.0
 10
8.232371834
 20
-23.8443375673
 30
0.0
 10
8.2324193604
 20
-23.8301877969
 30
0.0
 10
8.2357776449
 20
-23.8016148029
 30
0.0
 10
8.2503349722
 20
-23.7606547352
 30
0.0
 10
8.2738053859
 20
-23.7229828841
 30
0.0
 10
8.316107776
 20
-23.6786204872
 30
0.0
 10
8.3860347044
 20
-23.6387874753
 30
0.0
 10
8.4500531891
 20
-23.6279126226
 30
0.0
 10
8.4823676032
 20
-23.6278312164
 30
0.0
  0
SPLINE
  5
597
100
AcDbEntity
  8
0
100
AcDbSpline
 62
250
  6
CONTINUOUS
 70
0
 71
3
 72
29
 73
25
 74
0
 42
0.0000001
 43
0.0000001
 44
0.0000000001
 40
0.0
 40
0.0
 40
0.0
 40
0.0
 40
0.1949649921
 40
0.290095963
 40
0.3824317982
 40
0.4710844489
 40
0.5552007204
 40
0.633971313
 40
0.706638525
 40
0.7725035436
 40
0.8309332475
 40
0.8813664632
 40
0.9034301336
 40
0.9233199415
 40
0.9409884392
 40
0.956393736
 40
0.9695002304
 40
0.9802779013
 40
0.9887047161
 40
0.9947678998
 40
0.9969147374
 40
0.9984779444
 40
0.9994768177
 40
1.0
 40
1.0
 40
1.0
 40
1.0
 10
8.53036869
 20
-18.5508701541
 30
0.0
 10
8.5315030249
 20
-18.6158759581
 30
0.0
 10
8.5330281205
 20
-18.7126035721
 30
0.0
 10
8.5346989357
 20
-18.8401236284
 30
0.0
 10
8.5357337194
 20
-18.9321964554
 30
0.0
 10
8.5365509348
 20
-19.0205982094
 30
0.0
 10
8.5371429382
 20
-19.104478011
 30
0.0
 10
8.5375045111
 20
-19.1830283627
 30
0.0
 10
8.537632765
 20
-19.2554931389
 30
0.0
 10
8.5375277161
 20
-19.3211748444
 30
0.0
 10
8.5371913212
 20
-19.3794412268
 30
0.0
 10
8.5367056208
 20
-19.4230994569
 30
0.0
 10
8.5361821823
 20
-19.4539036223
 30
0.0
 10
8.5357523272
 20
-19.4737814434
 30
0.0
 10
8.5352693302
 20
-19.4914368656
 30
0.0
 10
8.5347349111
 20
-19.5068278723
 30
0.0
 10
8.534152057
 20
-19.5199166261
 30
0.0
 10
8.5335237907
 20
-19.5306752048
 30
0.0
 10
8.5328590962
 20
-19.5390718955
 30
0.0
 10
8.532226188
 20
-19.5445940611
 30
0.0
 10
8.5316738447
 20
-19.5477972043
 30
0.0
 10
8.5312704412
 20
-19.5493362308
 30
0.0
 10
8.5309461088
 20
-19.5502741723
 30
0.0
 10
8.530543131
 20
-19.5507148043
 30
0.0
 10
8.53036869
 20
-19.5507178492
 30
0.0
  0
SPLINE
  5
598
100
AcDbEntity
  8
0
100
AcDbSpline
 62
250
  6
CONTINUOUS
 70
0
 71
3
 72
30
 73
26
 74
0
 42
0.0000001
 43
0.0000001
 44
0.0000000001
 40
0.0
 40
0.0
 40
0.0
 40
0.0
 40
0.1956691433
 40
0.2910058502
 40
0.3834654992
 40
0.4721722514
 40
0.5562852266
 40
0.6350072836
 40
0.7075924722
 40
0.7733530757
 40
0.8316661602
 40
0.8819795543
 40
0.9039844962
 40
0.9238174193
 40
0.9414314737
 40
0.9567851636
 40
0.9698429852
 40
0.980574563
 40
0.9889566158
 40
0.9922611739
 40
0.9949733268
 40
0.9970930367
 40
0.998622772
 40
0.9995727352
 40
1.0
 40
1.0
 40
1.0
 40
1.0
 10
8.53036869
 20
-18.5508701541
 30
0.0
 10
8.575929787
 20
-18.5964451326
 30
0.0
 10
8.6436098904
 20
-18.6643057818
 30
0.0
 10
8.7326253462
 20
-18.7538947148
 30
0.0
 10
8.7967261321
 20
-18.8185784583
 30
0.0
 10
8.8581373783
 20
-18.8807232503
 30
0.0
 10
8.9162771166
 20
-18.9397399472
 30
0.0
 10
8.9705944185
 20
-18.9950688285
 30
0.0
 10
9.0205746898
 20
-19.0461851232
 30
0.0
 10
9.0657447948
 20
-19.0926036837
 30
0.0
 10
9.105677013
 20
-19.1338840174
 30
0.0
 10
9.1354718949
 20
-19.1649204138
 30
0.0
 10
9.1563983757
 20
-19.1869019748
 30
0.0
 10
9.1698523533
 20
-19.2011279713
 30
0.0
 10
9.1817495207
 20
-19.2138111513
 30
0.0
 10
9.1920618531
 20
-19.2249210782
 30
0.0
 10
9.2007662993
 20
-19.2344310763
 30
0.0
 10
9.2078419607
 20
-19.2423167769
 30
0.0
 10
9.2126933815
 20
-19.2478861661
 30
0.0
 10
9.2157316792
 20
-19.2515231894
 30
0.0
 10
9.2174107773
 20
-19.2536208089
 30
0.0
 10
9.2186693802
 20
-19.2552734322
 30
0.0
 10
9.219534265
 20
-19.2565703195
 30
0.0
 10
9.2199764899
 20
-19.2573278588
 30
0.0
 10
9.2201225675
 20
-19.2578774325
 30
0.0
 10
9.2200230647
 20
-19.2579769353
 30
0.0
  0
SPLINE
  5
599
100
AcDbEntity
  8
0
100
AcDbSpline
 62
250
  6
CONTINUOUS
 70
0
 71
3
 72
30
 73
26
 74
0
 42
0.0000001
 43
0.0000001
 44
0.0000000001
 40
0.0
 40
0.0
 40
0.0
 40
0.0
 40
0.1956691434
 40
0.2910058503
 40
0.3834654994
 40
0.4721722515
 40
0.5562852268
 40
0.6350072837
 40
0.7075924724
 40
0.7733530759
 40
0.8316661604
 40
0.8819795544
 40
0.9039844963
 40
0.9238174195
 40
0.9414314738
 40
0.9567851637
 40
0.9698429853
 40
0.9805745631
 40
0.9889566158
 40
0.992261174
 40
0.9949733268
 40
0.9970930367
 40
0.998622772
 40
0.9995727352
 40
1.0
 40
1.0
 40
1.0
 40
1.0
 10
10.1454524064
 20
-16.9357864376
 30
0.0
 10
10.1910135035
 20
-16.9813614162
 30
0.0
 10
10.2586936069
 20
-17.0492220654
 30
0.0
 10
10.3477090627
 20
-17.1388109984
 30
0.0
 10
10.4118098487
 20
-17.203494742
 30
0.0
 10
10.4732210948
 20
-17.2656395339
 30
0.0
 10
10.5313608332
 20
-17.3246562308
 30
0.0
 10
10.5856781351
 20
-17.3799851122
 30
0.0
 10
10.6356584064
 20
-17.4311014069
 30
0.0
 10
10.6808285113
 20
-17.4775199674
 30
0.0
 10
10.7207607296
 20
-17.5188003011
 30
0.0
 10
10.7505556114
 20
-17.5498366975
 30
0.0
 10
10.7714820922
 20
-17.5718182584
 30
0.0
 10
10.7849360698
 20
-17.586044255
 30
0.0
 10
10.7968332372
 20
-17.5987274349
 30
0.0
 10
10.8071455696
 20
-17.6098373619
 30
0.0
 10
10.8158500159
 20
-17.6193473599
 30
0.0
 10
10.8229256772
 20
-17.6272330605
 30
0.0
 10
10.827777098
 20
-17.6328024497
 30
0.0
 10
10.8308153957
 20
-17.636439473
 30
0.0
 10
10.8324944938
 20
-17.6385370925
 30
0.0
 10
10.8337530966
 20
-17.6401897157
 30
0.0
 10
10.8346179815
 20
-17.6414866031
 30
0.0
 10
10.8350602064
 20
-17.6422441423
 30
0.0
 10
10.8352062839
 20
-17.6427937161
 30
0.0
 10
10.8351067812
 20
-17.6428932188
 30
0.0
  0
SPLINE
  5
59A
100
AcDbEntity
  8
0
100
AcDbSpline
 62
250
  6
CONTINUOUS
 70
0
 71
3
 72
30
 73
26
 74
0
 42
0.0000001
 43
0.0000001
 44
0.0000000001
 40
0.0
 40
0.0
 40
0.0
 40
0.0
 40
0.1956691434
 40
0.2910058503
 40
0.3834654993
 40
0.4721722515
 40
0.5562852267
 40
0.6350072837
 40
0.7075924723
 40
0.7733530759
 40
0.8316661603
 40
0.8819795544
 40
0.9039844963
 40
0.9238174194
 40
0.9414314738
 40
0.9567851636
 40
0.9698429853
 40
0.980574563
 40
0.9889566158
 40
0.992261174
 40
0.9949733268
 40
0.9970930367
 40
0.998622772
 40
0.9995727352
 40
1.0
 40
1.0
 40
1.0
 40
1.0
 10
10.1454524064
 20
16.9357864376
 30
0.0
 10
10.1910135035
 20
16.9813614162
 30
0.0
 10
10.2586936069
 20
17.0492220654
 30
0.0
 10
10.3477090627
 20
17.1388109984
 30
0.0
 10
10.4118098487
 20
17.2034947419
 30
0.0
 10
10.4732210948
 20
17.2656395339
 30
0.0
 10
10.5313608332
 20
17.3246562308
 30
0.0
 10
10.585678135
 20
17.3799851122
 30
0.0
 10
10.6356584063
 20
17.4311014069
 30
0.0
 10
10.6808285113
 20
17.4775199673
 30
0.0
 10
10.7207607295
 20
17.518800301
 30
0.0
 10
10.7505556114
 20
17.5498366974
 30
0.0
 10
10.7714820922
 20
17.5718182584
 30
0.0
 10
10.7849360698
 20
17.586044255
 30
0.0
 10
10.7968332372
 20
17.5987274349
 30
0.0
 10
10.8071455696
 20
17.6098373618
 30
0.0
 10
10.8158500158
 20
17.6193473599
 30
0.0
 10
10.8229256771
 20
17.6272330605
 30
0.0
 10
10.827777098
 20
17.6328024497
 30
0.0
 10
10.8308153957
 20
17.636439473
 30
0.0
 10
10.8324944938
 20
17.6385370925
 30
0.0
 10
10.8337530966
 20
17.6401897157
 30
0.0
 10
10.8346179815
 20
17.6414866031
 30
0.0
 10
10.8350602064
 20
17.6422441423
 30
0.0
 10
10.8352062839
 20
17.6427937161
 30
0.0
 10
10.8351067812
 20
17.6428932188
 30
0.0
  0
SPLINE
  5
59B
100
AcDbEntity
  8
0
100
AcDbSpline
 62
250
  6
CONTINUOUS
 70
0
 71
3
 72
30
 73
26
 74
0
 42
0.0000001
 43
0.0000001
 44
0.0000000001
 40
0.0
 40
0.0
 40
0.0
 40
0.0
 40
0.1956691433
 40
0.2910058502
 40
0.3834654992
 40
0.4721722514
 40
0.5562852266
 40
0.6350072836
 40
0.7075924722
 40
0.7733530758
 40
0.8316661603
 40
0.8819795543
 40
0.9039844962
 40
0.9238174193
 40
0.9414314737
 40
0.9567851636
 40
0.9698429852
 40
0.980574563
 40
0.9889566158
 40
0.992261174
 40
0.9949733268
 40
0.9970930367
 40
0.998622772
 40
0.9995727352
 40
1.0
 40
1.0
 40
1.0
 40
1.0
 10
8.53036869
 20
18.5508701541
 30
0.0
 10
8.575929787
 20
18.5964451326
 30
0.0
 10
8.6436098904
 20
18.6643057818
 30
0.0
 10
8.7326253462
 20
18.7538947148
 30
0.0
 10
8.7967261321
 20
18.8185784583
 30
0.0
 10
8.8581373783
 20
18.8807232503
 30
0.0
 10
8.9162771167
 20
18.9397399472
 30
0.0
 10
8.9705944185
 20
18.9950688285
 30
0.0
 10
9.0205746898
 20
19.0461851233
 30
0.0
 10
9.0657447948
 20
19.0926036837
 30
0.0
 10
9.105677013
 20
19.1338840174
 30
0.0
 10
9.1354718949
 20
19.1649204138
 30
0.0
 10
9.1563983757
 20
19.1869019748
 30
0.0
 10
9.1698523533
 20
19.2011279714
 30
0.0
 10
9.1817495207
 20
19.2138111513
 30
0.0
 10
9.1920618531
 20
19.2249210782
 30
0.0
 10
9.2007662994
 20
19.2344310763
 30
0.0
 10
9.2078419607
 20
19.2423167769
 30
0.0
 10
9.2126933816
 20
19.2478861661
 30
0.0
 10
9.2157316792
 20
19.2515231894
 30
0.0
 10
9.2174107773
 20
19.2536208089
 30
0.0
 10
9.2186693802
 20
19.2552734322
 30
0.0
 10
9.219534265
 20
19.2565703195
 30
0.0
 10
9.2199764899
 20
19.2573278588
 30
0.0
 10
9.2201225675
 20
19.2578774325
 30
0.0
 10
9.2200230647
 20
19.2579769353
 30
0.0
  0
SPLINE
  5
59C
100
AcDbEntity
  8
0
100
AcDbSpline
 62
250
  6
CONTINUOUS
 70
0
 71
3
 72
29
 73
25
 74
0
 42
0.0000001
 43
0.0000001
 44
0.0000000001
 40
0.0
 40
0.0
 40
0.0
 40
0.0
 40
0.1949649921
 40
0.2900959629
 40
0.3824317982
 40
0.4710844489
 40
0.5552007203
 40
0.6339713129
 40
0.7066385249
 40
0.7725035435
 40
0.8309332474
 40
0.8813664632
 40
0.9034301335
 40
0.9233199414
 40
0.9409884391
 40
0.956393736
 40
0.9695002304
 40
0.9802779012
 40
0.9887047161
 40
0.9947678998
 40
0.9969147374
 40
0.9984779444
 40
0.9994768177
 40
1.0
 40
1.0
 40
1.0
 40
1.0
 10
8.53036869
 20
18.5508701541
 30
0.0
 10
8.5315030249
 20
18.6158759581
 30
0.0
 10
8.5330281205
 20
18.7126035721
 30
0.0
 10
8.5346989357
 20
18.8401236284
 30
0.0
 10
8.5357337194
 20
18.9321964554
 30
0.0
 10
8.5365509348
 20
19.0205982093
 30
0.0
 10
8.5371429382
 20
19.1044780109
 30
0.0
 10
8.5375045111
 20
19.1830283626
 30
0.0
 10
8.537632765
 20
19.2554931388
 30
0.0
 10
8.5375277161
 20
19.3211748443
 30
0.0
 10
8.5371913212
 20
19.3794412267
 30
0.0
 10
8.5367056208
 20
19.4230994569
 30
0.0
 10
8.5361821823
 20
19.4539036222
 30
0.0
 10
8.5357523272
 20
19.4737814434
 30
0.0
 10
8.5352693302
 20
19.4914368655
 30
0.0
 10
8.5347349111
 20
19.5068278722
 30
0.0
 10
8.534152057
 20
19.5199166261
 30
0.0
 10
8.5335237907
 20
19.5306752048
 30
0.0
 10
8.5328590962
 20
19.5390718954
 30
0.0
 10
8.532226188
 20
19.544594061
 30
0.0
 10
8.5316738447
 20
19.5477972042
 30
0.0
 10
8.5312704412
 20
19.5493362307
 30
0.0
 10
8.5309461088
 20
19.5502741723
 30
0.0
 10
8.530543131
 20
19.5507148043
 30
0.0
 10
8.53036869
 20
19.5507178492
 30
0.0
  0
SPLINE
  5
59D
100
AcDbEntity
  8
0
100
AcDbSpline
 62
250
  6
CONTINUOUS
 70
0
 71
3
 72
27
 73
23
 74
0
 42
0.0000001
 43
0.0000001
 44
0.0000000001
 40
0.0
 40
0.0
 40
0.0
 40
0.0
 40
0.1949663528
 40
0.3824328525
 40
0.4710855753
 40
0.5552020866
 40
0.6339728935
 40
0.7066403095
 40
0.7725054799
 40
0.8309353042
 40
0.8813686757
 40
0.9034325709
 40
0.9233223723
 40
0.9409908638
 40
0.9563963622
 40
0.9695026518
 40
0.9802806384
 40
0.9887072016
 40
0.9947706666
 40
0.9984778434
 40
0.9994768187
 40
1.0
 40
1.0
 40
1.0
 40
1.0
 10
-5.0569048129
 20
20.287808438
 30
0.0
 10
-5.0574719827
 20
20.2553054012
 30
0.0
 10
-5.0584769228
 20
20.1915477095
 30
0.0
 10
-5.0594405579
 20
20.1130063199
 30
0.0
 10
-5.0599959572
 20
20.0529444439
 30
0.0
 10
-5.0602919279
 20
20.0110045733
 30
0.0
 10
-5.0604727222
 20
19.9717293994
 30
0.0
 10
-5.0605368478
 20
19.9354970184
 30
0.0
 10
-5.0604843236
 20
19.9026561806
 30
0.0
 10
-5.0603161249
 20
19.8735229965
 30
0.0
 10
-5.060073276
 20
19.8516938704
 30
0.0
 10
-5.0598115542
 20
19.8362917505
 30
0.0
 10
-5.0595966491
 20
19.8263528788
 30
0.0
 10
-5.0593550752
 20
19.8175250165
 30
0.0
 10
-5.0590880912
 20
19.8098299767
 30
0.0
 10
-5.0587960103
 20
19.8032842767
 30
0.0
 10
-5.0584836454
 20
19.7979086191
 30
0.0
 10
-5.058146841
 20
19.7937009381
 30
0.0
 10
-5.0578108501
 20
19.7907021526
 30
0.0
 10
-5.0574698996
 20
19.7889045117
 30
0.0
 10
-5.0571933836
 20
19.7881063097
 30
0.0
 10
-5.0569920329
 20
19.7878861128
 30
0.0
 10
-5.0569048129
 20
19.7878845904
 30
0.0
  0
SPLINE
  5
59E
100
AcDbEntity
  8
0
100
AcDbSpline
 62
250
  6
CONTINUOUS
 70
0
 71
3
 72
27
 73
23
 74
0
 42
0.0000001
 43
0.0000001
 44
0.0000000001
 40
0.0
 40
0.0
 40
0.0
 40
0.0
 40
0.0005231813
 40
0.0015221566
 40
0.0052293334
 40
0.0112927984
 40
0.0197193616
 40
0.0304973482
 40
0.0436036378
 40
0.0590091362
 40
0.0766776277
 40
0.0965674291
 40
0.1186313243
 40
0.1690646958
 40
0.2274945201
 40
0.2933596905
 40
0.3660271065
 40
0.4447979134
 40
0.5289144247
 40
0.6175671475
 40
0.8050336472
 40
1.0
 40
1.0
 40
1.0
 40
1.0
 10
-5.0569048129
 20
-19.7878845904
 30
0.0
 10
-5.0569920329
 20
-19.7878861128
 30
0.0
 10
-5.0571933836
 20
-19.7881063097
 30
0.0
 10
-5.0574698996
 20
-19.7889045117
 30
0.0
 10
-5.0578108501
 20
-19.7907021526
 30
0.0
 10
-5.058146841
 20
-19.7937009381
 30
0.0
 10
-5.0584836454
 20
-19.7979086191
 30
0.0
 10
-5.0587960103
 20
-19.8032842767
 30
0.0
 10
-5.0590880912
 20
-19.8098299767
 30
0.0
 10
-5.0593550752
 20
-19.8175250165
 30
0.0
 10
-5.0595966491
 20
-19.8263528788
 30
0.0
 10
-5.0598115542
 20
-19.8362917505
 30
0.0
 10
-5.060073276
 20
-19.8516938704
 30
0.0
 10
-5.0603161249
 20
-19.8735229965
 30
0.0
 10
-5.0604843236
 20
-19.9026561806
 30
0.0
 10
-5.0605368478
 20
-19.9354970184
 30
0.0
 10
-5.0604727222
 20
-19.9717293994
 30
0.0
 10
-5.0602919279
 20
-20.0110045733
 30
0.0
 10
-5.0599959572
 20
-20.0529444439
 30
0.0
 10
-5.0594405579
 20
-20.1130063199
 30
0.0
 10
-5.0584769228
 20
-20.1915477095
 30
0.0
 10
-5.0574719827
 20
-20.2553054012
 30
0.0
 10
-5.0569048129
 20
-20.287808438
 30
0.0
  0
SPLINE
  5
59F
100
AcDbEntity
  8
0
100
AcDbSpline
 62
250
  6
CONTINUOUS
 70
0
 71
3
 72
27
 73
23
 74
0
 42
0.0000001
 43
0.0000001
 44
0.0000000001
 40
0.0
 40
0.0
 40
0.0
 40
0.0
 40
0.1949663528
 40
0.3824328525
 40
0.4710855753
 40
0.5552020866
 40
0.6339728935
 40
0.7066403095
 40
0.7725054798
 40
0.8309353042
 40
0.8813686756
 40
0.9034325709
 40
0.9233223723
 40
0.9409908638
 40
0.9563963622
 40
0.9695026518
 40
0.9802806384
 40
0.9887072016
 40
0.9947706666
 40
0.9984778434
 40
0.9994768187
 40
1.0
 40
1.0
 40
1.0
 40
1.0
 10
5.6601314735
 20
-20.6008941786
 30
0.0
 10
5.6606986433
 20
-20.6333972154
 30
0.0
 10
5.6617035834
 20
-20.6971549071
 30
0.0
 10
5.6626672186
 20
-20.7756962968
 30
0.0
 10
5.6632226179
 20
-20.8357581727
 30
0.0
 10
5.6635185886
 20
-20.8776980433
 30
0.0
 10
5.6636993829
 20
-20.9169732172
 30
0.0
 10
5.6637635085
 20
-20.9532055982
 30
0.0
 10
5.6637109843
 20
-20.986046436
 30
0.0
 10
5.6635427855
 20
-21.0151796201
 30
0.0
 10
5.6632999367
 20
-21.0370087462
 30
0.0
 10
5.6630382149
 20
-21.0524108661
 30
0.0
 10
5.6628233098
 20
-21.0623497378
 30
0.0
 10
5.6625817359
 20
-21.0711776001
 30
0.0
 10
5.6623147519
 20
-21.0788726399
 30
0.0
 10
5.662022671
 20
-21.0854183399
 30
0.0
 10
5.6617103061
 20
-21.0907939976
 30
0.0
 10
5.6613735017
 20
-21.0950016785
 30
0.0
 10
5.6610375107
 20
-21.098000464
 30
0.0
 10
5.6606965602
 20
-21.0997981049
 30
0.0
 10
5.6604200442
 20
-21.1005963069
 30
0.0
 10
5.6602186936
 20
-21.1008165038
 30
0.0
 10
5.6601314735
 20
-21.1008180262
 30
0.0
  0
SPLINE
  5
5A0
100
AcDbEntity
  8
0
100
AcDbSpline
 62
250
  6
CONTINUOUS
 70
0
 71
3
 72
28
 73
24
 74
0
 42
0.0000001
 43
0.0000001
 44
0.0000000001
 40
0.0
 40
0.0
 40
0.0
 40
0.0
 40
0.1956769069
 40
0.3834760733
 40
0.4721834394
 40
0.5562966751
 40
0.6350185529
 40
0.707603239
 40
0.7733630704
 40
0.8316752197
 40
0.881987655
 40
0.9039922585
 40
0.9238246208
 40
0.9414381224
 40
0.9567914718
 40
0.9698485574
 40
0.9805799046
 40
0.9889611342
 40
0.9949771361
 40
0.997096207
 40
0.9986253904
 40
0.9995745975
 40
1.0
 40
1.0
 40
1.0
 40
1.0
 10
6.7038285376
 20
-20.1524865323
 30
0.0
 10
6.726805338
 20
-20.1750726506
 30
0.0
 10
6.7717820199
 20
-20.2193884238
 30
0.0
 10
6.8270296075
 20
-20.2740904887
 30
0.0
 10
6.8691350878
 20
-20.3159572686
 30
0.0
 10
6.8984599254
 20
-20.3452056494
 30
0.0
 10
6.9258579368
 20
-20.3726266396
 30
0.0
 10
6.951069541
 20
-20.397960196
 30
0.0
 10
6.9738561037
 20
-20.4209659025
 30
0.0
 10
6.9940018825
 20
-20.4414254745
 30
0.0
 10
7.0090349126
 20
-20.4568083861
 30
0.0
 10
7.0195945568
 20
-20.4677036986
 30
0.0
 10
7.0263841396
 20
-20.4747551157
 30
0.0
 10
7.0323886607
 20
-20.4810419214
 30
0.0
 10
7.0375942932
 20
-20.4865493719
 30
0.0
 10
7.0419884415
 20
-20.491263215
 30
0.0
 10
7.0455632978
 20
-20.4951744083
 30
0.0
 10
7.0483070528
 20
-20.4982654634
 30
0.0
 10
7.0500670594
 20
-20.5003518509
 30
0.0
 10
7.0510360206
 20
-20.5015984657
 30
0.0
 10
7.0514751324
 20
-20.5022421499
 30
0.0
 10
7.0516995519
 20
-20.5026175896
 30
0.0
 10
7.0517766537
 20
-20.5028912053
 30
0.0
 10
7.051727559
 20
-20.5029411645
 30
0.0
  0
SPLINE
  5
5A1
100
AcDbEntity
  8
0
100
AcDbSpline
 62
250
  6
CONTINUOUS
 70
0
 71
3
 72
27
 73
23
 74
0
 42
0.0000001
 43
0.0000001
 44
0.0000000001
 40
0.0
 40
0.0
 40
0.0
 40
0.0
 40
0.1949663528
 40
0.3824328525
 40
0.4710855753
 40
0.5552020866
 40
0.6339728935
 40
0.7066403095
 40
0.7725054799
 40
0.8309353042
 40
0.8813686757
 40
0.9034325709
 40
0.9233223723
 40
0.9409908638
 40
0.9563963622
 40
0.9695026518
 40
0.9802806384
 40
0.9887072016
 40
0.9947706666
 40
0.9984778434
 40
0.9994768187
 40
1.0
 40
1.0
 40
1.0
 40
1.0
 10
-5.0569048129
 20
-20.612191562
 30
0.0
 10
-5.0574719827
 20
-20.6446945988
 30
0.0
 10
-5.0584769228
 20
-20.7084522905
 30
0.0
 10
-5.0594405579
 20
-20.7869936801
 30
0.0
 10
-5.0599959572
 20
-20.8470555561
 30
0.0
 10
-5.0602919279
 20
-20.8889954267
 30
0.0
 10
-5.0604727222
 20
-20.9282706006
 30
0.0
 10
-5.0605368478
 20
-20.9645029816
 30
0.0
 10
-5.0604843236
 20
-20.9973438194
 30
0.0
 10
-5.0603161249
 20
-21.0264770035
 30
0.0
 10
-5.060073276
 20
-21.0483061296
 30
0.0
 10
-5.0598115542
 20
-21.0637082495
 30
0.0
 10
-5.0595966491
 20
-21.0736471212
 30
0.0
 10
-5.0593550752
 20
-21.0824749835
 30
0.0
 10
-5.0590880912
 20
-21.0901700233
 30
0.0
 10
-5.0587960103
 20
-21.0967157233
 30
0.0
 10
-5.0584836454
 20
-21.1020913809
 30
0.0
 10
-5.058146841
 20
-21.1062990619
 30
0.0
 10
-5.0578108501
 20
-21.1092978474
 30
0.0
 10
-5.0574698996
 20
-21.1110954883
 30
0.0
 10
-5.0571933836
 20
-21.1118936903
 30
0.0
 10
-5.0569920329
 20
-21.1121138872
 30
0.0
 10
-5.0569048129
 20
-21.1121154096
 30
0.0
  0
SPLINE
  5
5A2
100
AcDbEntity
  8
0
100
AcDbSpline
 62
250
  6
CONTINUOUS
 70
0
 71
3
 72
27
 73
23
 74
0
 42
0.0000001
 43
0.0000001
 44
0.0000000001
 40
0.0
 40
0.0
 40
0.0
 40
0.0
 40
0.1949663528
 40
0.3824328525
 40
0.4710855753
 40
0.5552020866
 40
0.6339728935
 40
0.7066403095
 40
0.7725054799
 40
0.8309353042
 40
0.8813686757
 40
0.9034325709
 40
0.9233223723
 40
0.9409908638
 40
0.9563963622
 40
0.9695026518
 40
0.9802806384
 40
0.9887072016
 40
0.9947706666
 40
0.9984778434
 40
0.9994768187
 40
1.0
 40
1.0
 40
1.0
 40
1.0
 10
5.6601314735
 20
20.6008941786
 30
0.0
 10
5.6606986433
 20
20.6333972154
 30
0.0
 10
5.6617035834
 20
20.6971549071
 30
0.0
 10
5.6626672186
 20
20.7756962968
 30
0.0
 10
5.6632226179
 20
20.8357581727
 30
0.0
 10
5.6635185885
 20
20.8776980433
 30
0.0
 10
5.6636993829
 20
20.9169732172
 30
0.0
 10
5.6637635084
 20
20.9532055982
 30
0.0
 10
5.6637109842
 20
20.986046436
 30
0.0
 10
5.6635427855
 20
21.0151796201
 30
0.0
 10
5.6632999367
 20
21.0370087462
 30
0.0
 10
5.6630382149
 20
21.0524108661
 30
0.0
 10
5.6628233098
 20
21.0623497378
 30
0.0
 10
5.6625817359
 20
21.0711776001
 30
0.0
 10
5.6623147519
 20
21.0788726399
 30
0.0
 10
5.662022671
 20
21.0854183399
 30
0.0
 10
5.6617103061
 20
21.0907939976
 30
0.0
 10
5.6613735017
 20
21.0950016785
 30
0.0
 10
5.6610375107
 20
21.098000464
 30
0.0
 10
5.6606965602
 20
21.0997981049
 30
0.0
 10
5.6604200442
 20
21.1005963069
 30
0.0
 10
5.6602186936
 20
21.1008165038
 30
0.0
 10
5.6601314735
 20
21.1008180262
 30
0.0
  0
SPLINE
  5
5A3
100
AcDbEntity
  8
0
100
AcDbSpline
 62
250
  6
CONTINUOUS
 70
0
 71
3
 72
28
 73
24
 74
0
 42
0.0000001
 43
0.0000001
 44
0.0000000001
 40
0.0
 40
0.0
 40
0.0
 40
0.0
 40
0.1956769069
 40
0.3834760733
 40
0.4721834394
 40
0.5562966751
 40
0.6350185529
 40
0.707603239
 40
0.7733630704
 40
0.8316752197
 40
0.881987655
 40
0.9039922585
 40
0.9238246208
 40
0.9414381224
 40
0.9567914718
 40
0.9698485574
 40
0.9805799046
 40
0.9889611342
 40
0.9949771361
 40
0.997096207
 40
0.9986253904
 40
0.9995745975
 40
1.0
 40
1.0
 40
1.0
 40
1.0
 10
6.7038285376
 20
20.1524865323
 30
0.0
 10
6.726805338
 20
20.1750726506
 30
0.0
 10
6.7717820199
 20
20.2193884238
 30
0.0
 10
6.8270296074
 20
20.2740904887
 30
0.0
 10
6.8691350878
 20
20.3159572687
 30
0.0
 10
6.8984599253
 20
20.3452056494
 30
0.0
 10
6.9258579368
 20
20.3726266396
 30
0.0
 10
6.951069541
 20
20.397960196
 30
0.0
 10
6.9738561036
 20
20.4209659025
 30
0.0
 10
6.9940018825
 20
20.4414254746
 30
0.0
 10
7.0090349126
 20
20.4568083862
 30
0.0
 10
7.0195945568
 20
20.4677036987
 30
0.0
 10
7.0263841396
 20
20.4747551157
 30
0.0
 10
7.0323886606
 20
20.4810419214
 30
0.0
 10
7.0375942931
 20
20.4865493719
 30
0.0
 10
7.0419884415
 20
20.491263215
 30
0.0
 10
7.0455632978
 20
20.4951744083
 30
0.0
 10
7.0483070528
 20
20.4982654634
 30
0.0
 10
7.0500670594
 20
20.5003518509
 30
0.0
 10
7.0510360206
 20
20.5015984657
 30
0.0
 10
7.0514751324
 20
20.5022421499
 30
0.0
 10
7.0516995519
 20
20.5026175896
 30
0.0
 10
7.0517766537
 20
20.5028912053
 30
0.0
 10
7.051727559
 20
20.5029411645
 30
0.0
  0
SPLINE
  5
5A4
100
AcDbEntity
  8
0
100
AcDbSpline
 62
250
  6
CONTINUOUS
 70
0
 71
3
 72
27
 73
23
 74
0
 42
0.0000001
 43
0.0000001
 44
0.0000000001
 40
0.0
 40
0.0
 40
0.0
 40
0.0
 40
0.0005231813
 40
0.0015221566
 40
0.0052293334
 40
0.0112927984
 40
0.0197193616
 40
0.0304973482
 40
0.0436036378
 40
0.0590091362
 40
0.0766776277
 40
0.0965674291
 40
0.1186313243
 40
0.1690646958
 40
0.2274945201
 40
0.2933596905
 40
0.3660271065
 40
0.4447979134
 40
0.5289144247
 40
0.6175671475
 40
0.8050336472
 40
1.0
 40
1.0
 40
1.0
 40
1.0
 10
-5.0569048129
 20
21.1121154096
 30
0.0
 10
-5.0569920329
 20
21.1121138872
 30
0.0
 10
-5.0571933836
 20
21.1118936903
 30
0.0
 10
-5.0574698996
 20
21.1110954883
 30
0.0
 10
-5.0578108501
 20
21.1092978474
 30
0.0
 10
-5.058146841
 20
21.1062990619
 30
0.0
 10
-5.0584836454
 20
21.1020913809
 30
0.0
 10
-5.0587960103
 20
21.0967157233
 30
0.0
 10
-5.0590880912
 20
21.0901700233
 30
0.0
 10
-5.0593550752
 20
21.0824749835
 30
0.0
 10
-5.0595966491
 20
21.0736471212
 30
0.0
 10
-5.0598115542
 20
21.0637082495
 30
0.0
 10
-5.060073276
 20
21.0483061296
 30
0.0
 10
-5.0603161249
 20
21.0264770035
 30
0.0
 10
-5.0604843236
 20
20.9973438194
 30
0.0
 10
-5.0605368478
 20
20.9645029816
 30
0.0
 10
-5.0604727222
 20
20.9282706006
 30
0.0
 10
-5.0602919279
 20
20.8889954267
 30
0.0
 10
-5.0599959572
 20
20.8470555561
 30
0.0
 10
-5.0594405579
 20
20.7869936801
 30
0.0
 10
-5.0584769228
 20
20.7084522905
 30
0.0
 10
-5.0574719827
 20
20.6446945988
 30
0.0
 10
-5.0569048129
 20
20.612191562
 30
0.0
  0
SPLINE
  5
5A5
100
AcDbEntity
  8
ASSI
100
AcDbSpline
 62
250
  6
CONTINUOUS
 70
0
 71
3
 72
9
 73
5
 74
0
 42
0.0000001
 43
0.0000001
 44
0.0000000001
 40
0.0
 40
0.0
 40
0.0
 40
0.0
 40
0.5000097575
 40
1.0
 40
1.0
 40
1.0
 40
1.0
 10
6.7038285376
 20
20.1524865323
 30
0.0
 10
6.5685850658
 20
20.2901106659
 30
0.0
 10
6.2413132867
 20
20.5148033125
 30
0.0
 10
5.8530484256
 20
20.5975263543
 30
0.0
 10
5.6601314735
 20
20.6008941786
 30
0.0
  0
SPLINE
  5
5A6
100
AcDbEntity
  8
ASSI
100
AcDbSpline
 62
250
  6
CONTINUOUS
 70
0
 71
3
 72
21
 73
17
 74
0
 42
0.0000001
 43
0.0000001
 44
0.0000000001
 40
0.0
 40
0.0
 40
0.0
 40
0.0
 40
0.1949754131
 40
0.3824506245
 40
0.5552277824
 40
0.7066728867
 40
0.7725411179
 40
0.8309736575
 40
0.8814093727
 40
0.9233649037
 40
0.9564401949
 40
0.9803249526
 40
0.9887519074
 40
0.9948156542
 40
0.9985230032
 40
1.0
 40
1.0
 40
1.0
 40
1.0
 10
-5.0569048129
 20
20.287808438
 30
0.0
 10
-5.0574719827
 20
20.2553054012
 30
0.0
 10
-5.0584769811
 20
20.1915477147
 30
0.0
 10
-5.0596124342
 20
20.0989820583
 30
0.0
 10
-5.0603235842
 20
20.0136703
 30
0.0
 10
-5.0605573552
 20
19.9486307304
 30
0.0
 10
-5.0604843336
 20
19.9026565141
 30
0.0
 10
-5.0603163384
 20
19.8735219447
 30
0.0
 10
-5.0600357013
 20
19.8483808314
 30
0.0
 10
-5.0596492156
 20
19.8274536048
 30
0.0
 10
-5.0591619743
 20
19.8109987266
 30
0.0
 10
-5.0586503897
 20
19.8000439689
 30
0.0
 10
-5.0581530325
 20
19.7937500496
 30
0.0
 10
-5.0577975211
 20
19.7905924993
 30
0.0
 10
-5.0574767707
 20
19.789006162
 30
0.0
 10
-5.057151033
 20
19.7878888882
 30
0.0
 10
-5.0569048129
 20
19.7878845904
 30
0.0
  0
SPLINE
  5
5A7
100
AcDbEntity
  8
ASSI
100
AcDbSpline
 62
250
  6
CONTINUOUS
 70
0
 71
3
 72
21
 73
17
 74
0
 42
0.0000001
 43
0.0000001
 44
0.0000000001
 40
0.0
 40
0.0
 40
0.0
 40
0.0
 40
0.0014769968
 40
0.0051843458
 40
0.0112480926
 40
0.0196750474
 40
0.0435598051
 40
0.0766350963
 40
0.1185906273
 40
0.1690263425
 40
0.2274588821
 40
0.2933271133
 40
0.4447722176
 40
0.6175493755
 40
0.8050245869
 40
1.0
 40
1.0
 40
1.0
 40
1.0
 10
-5.0569048129
 20
-19.7878845904
 30
0.0
 10
-5.057151033
 20
-19.7878888882
 30
0.0
 10
-5.0574767707
 20
-19.789006162
 30
0.0
 10
-5.0577975211
 20
-19.7905924993
 30
0.0
 10
-5.0581530325
 20
-19.7937500496
 30
0.0
 10
-5.0586503897
 20
-19.8000439689
 30
0.0
 10
-5.0591619743
 20
-19.8109987266
 30
0.0
 10
-5.0596492156
 20
-19.8274536048
 30
0.0
 10
-5.0600357013
 20
-19.8483808314
 30
0.0
 10
-5.0603163384
 20
-19.8735219447
 30
0.0
 10
-5.0604843336
 20
-19.9026565141
 30
0.0
 10
-5.0605573552
 20
-19.9486307304
 30
0.0
 10
-5.0603235842
 20
-20.0136703
 30
0.0
 10
-5.0596124342
 20
-20.0989820583
 30
0.0
 10
-5.0584769811
 20
-20.1915477147
 30
0.0
 10
-5.0574719827
 20
-20.2553054012
 30
0.0
 10
-5.0569048129
 20
-20.287808438
 30
0.0
  0
SPLINE
  5
5A8
100
AcDbEntity
  8
ASSI
100
AcDbSpline
 62
250
  6
CONTINUOUS
 70
0
 71
3
 72
21
 73
17
 74
0
 42
0.0000001
 43
0.0000001
 44
0.0000000001
 40
0.0
 40
0.0
 40
0.0
 40
0.0
 40
0.1949754131
 40
0.3824506245
 40
0.5552277824
 40
0.7066728867
 40
0.7725411179
 40
0.8309736575
 40
0.8814093727
 40
0.9233649037
 40
0.9564401949
 40
0.9803249526
 40
0.9887519073
 40
0.9948156542
 40
0.9985230032
 40
1.0
 40
1.0
 40
1.0
 40
1.0
 10
5.6601314735
 20
-20.6008941786
 30
0.0
 10
5.6606986433
 20
-20.6333972154
 30
0.0
 10
5.6617036417
 20
-20.6971549019
 30
0.0
 10
5.6628390949
 20
-20.7897205583
 30
0.0
 10
5.6635502448
 20
-20.8750323166
 30
0.0
 10
5.6637840158
 20
-20.9400718862
 30
0.0
 10
5.6637109943
 20
-20.9860461025
 30
0.0
 10
5.6635429991
 20
-21.0151806719
 30
0.0
 10
5.663262362
 20
-21.0403217852
 30
0.0
 10
5.6628758763
 20
-21.0612490118
 30
0.0
 10
5.6623886349
 20
-21.07770389
 30
0.0
 10
5.6618770504
 20
-21.0886586477
 30
0.0
 10
5.6613796931
 20
-21.094952567
 30
0.0
 10
5.6610241818
 20
-21.0981101173
 30
0.0
 10
5.6607034314
 20
-21.0996964546
 30
0.0
 10
5.6603776937
 20
-21.1008137284
 30
0.0
 10
5.6601314735
 20
-21.1008180262
 30
0.0
  0
SPLINE
  5
5A9
100
AcDbEntity
  8
ASSI
100
AcDbSpline
 62
250
  6
CONTINUOUS
 70
0
 71
3
 72
21
 73
17
 74
0
 42
0.0000001
 43
0.0000001
 44
0.0000000001
 40
0.0
 40
0.0
 40
0.0
 40
0.0
 40
0.1956834565
 40
0.3834889088
 40
0.5563152434
 40
0.7076267945
 40
0.773388827
 40
0.831702928
 40
0.8820170474
 40
0.9238553562
 40
0.9568231932
 40
0.9806121085
 40
0.9889936186
 40
0.9950098219
 40
0.9986568129
 40
1.0
 40
1.0
 40
1.0
 40
1.0
 10
6.7038285376
 20
-20.1524865323
 30
0.0
 10
6.726805338
 20
-20.1750726506
 30
0.0
 10
6.7717820397
 20
-20.21938839
 30
0.0
 10
6.8368711646
 20
-20.2838350417
 30
0.0
 10
6.8966049663
 20
-20.3433060962
 30
0.0
 10
6.9419480896
 20
-20.3887514067
 30
0.0
 10
6.973855722
 20
-20.4209656631
 30
0.0
 10
6.9940032078
 20
-20.4414261088
 30
0.0
 10
7.0113132997
 20
-20.4591419877
 30
0.0
 10
7.0256488536
 20
-20.4739584403
 30
0.0
 10
7.0368075315
 20
-20.4856939515
 30
0.0
 10
7.044181835
 20
-20.4935968794
 30
0.0
 10
7.0482589478
 20
-20.4982354439
 30
0.0
 10
7.0503371945
 20
-20.5006115808
 30
0.0
 10
7.0511471159
 20
-20.5018623804
 30
0.0
 10
7.0518825679
 20
-20.5027834263
 30
0.0
 10
7.051727559
 20
-20.5029411645
 30
0.0
  0
SPLINE
  5
5AA
100
AcDbEntity
  8
ASSI
100
AcDbSpline
 62
250
  6
CONTINUOUS
 70
0
 71
3
 72
21
 73
17
 74
0
 42
0.0000001
 43
0.0000001
 44
0.0000000001
 40
0.0
 40
0.0
 40
0.0
 40
0.0
 40
0.1949754131
 40
0.3824506245
 40
0.5552277824
 40
0.7066728867
 40
0.7725411179
 40
0.8309736575
 40
0.8814093727
 40
0.9233649037
 40
0.9564401949
 40
0.9803249526
 40
0.9887519074
 40
0.9948156542
 40
0.9985230032
 40
1.0
 40
1.0
 40
1.0
 40
1.0
 10
-5.0569048129
 20
-20.612191562
 30
0.0
 10
-5.0574719827
 20
-20.6446945988
 30
0.0
 10
-5.0584769811
 20
-20.7084522853
 30
0.0
 10
-5.0596124342
 20
-20.8010179417
 30
0.0
 10
-5.0603235842
 20
-20.8863297
 30
0.0
 10
-5.0605573552
 20
-20.9513692696
 30
0.0
 10
-5.0604843336
 20
-20.9973434859
 30
0.0
 10
-5.0603163384
 20
-21.0264780553
 30
0.0
 10
-5.0600357013
 20
-21.0516191686
 30
0.0
 10
-5.0596492156
 20
-21.0725463952
 30
0.0
 10
-5.0591619743
 20
-21.0890012734
 30
0.0
 10
-5.0586503897
 20
-21.0999560311
 30
0.0
 10
-5.0581530325
 20
-21.1062499504
 30
0.0
 10
-5.0577975211
 20
-21.1094075007
 30
0.0
 10
-5.0574767707
 20
-21.110993838
 30
0.0
 10
-5.057151033
 20
-21.1121111118
 30
0.0
 10
-5.0569048129
 20
-21.1121154096
 30
0.0
  0
SPLINE
  5
5AB
100
AcDbEntity
  8
ASSI
100
AcDbSpline
 62
250
  6
CONTINUOUS
 70
0
 71
3
 72
21
 73
17
 74
0
 42
0.0000001
 43
0.0000001
 44
0.0000000001
 40
0.0
 40
0.0
 40
0.0
 40
0.0
 40
0.1949754131
 40
0.3824506245
 40
0.5552277824
 40
0.7066728867
 40
0.7725411179
 40
0.8309736575
 40
0.8814093727
 40
0.9233649037
 40
0.9564401949
 40
0.9803249526
 40
0.9887519074
 40
0.9948156542
 40
0.9985230032
 40
1.0
 40
1.0
 40
1.0
 40
1.0
 10
5.6601314735
 20
20.6008941786
 30
0.0
 10
5.6606986433
 20
20.6333972154
 30
0.0
 10
5.6617036417
 20
20.6971549019
 30
0.0
 10
5.6628390949
 20
20.7897205583
 30
0.0
 10
5.6635502448
 20
20.8750323166
 30
0.0
 10
5.6637840158
 20
20.9400718863
 30
0.0
 10
5.6637109942
 20
20.9860461025
 30
0.0
 10
5.663542999
 20
21.0151806719
 30
0.0
 10
5.663262362
 20
21.0403217852
 30
0.0
 10
5.6628758762
 20
21.0612490118
 30
0.0
 10
5.6623886349
 20
21.07770389
 30
0.0
 10
5.6618770504
 20
21.0886586477
 30
0.0
 10
5.6613796931
 20
21.094952567
 30
0.0
 10
5.6610241818
 20
21.0981101173
 30
0.0
 10
5.6607034314
 20
21.0996964546
 30
0.0
 10
5.6603776937
 20
21.1008137284
 30
0.0
 10
5.6601314735
 20
21.1008180262
 30
0.0
  0
SPLINE
  5
5AC
100
AcDbEntity
  8
ASSI
100
AcDbSpline
 62
250
  6
CONTINUOUS
 70
0
 71
3
 72
21
 73
17
 74
0
 42
0.0000001
 43
0.0000001
 44
0.0000000001
 40
0.0
 40
0.0
 40
0.0
 40
0.0
 40
0.1956834565
 40
0.3834889088
 40
0.5563152434
 40
0.7076267945
 40
0.773388827
 40
0.831702928
 40
0.8820170474
 40
0.9238553562
 40
0.9568231933
 40
0.9806121085
 40
0.9889936186
 40
0.9950098219
 40
0.9986568129
 40
1.0
 40
1.0
 40
1.0
 40
1.0
 10
6.7038285376
 20
20.1524865323
 30
0.0
 10
6.726805338
 20
20.1750726506
 30
0.0
 10
6.7717820396
 20
20.21938839
 30
0.0
 10
6.8368711646
 20
20.2838350417
 30
0.0
 10
6.8966049663
 20
20.3433060962
 30
0.0
 10
6.9419480895
 20
20.3887514067
 30
0.0
 10
6.973855722
 20
20.4209656632
 30
0.0
 10
6.9940032078
 20
20.4414261089
 30
0.0
 10
7.0113132997
 20
20.4591419878
 30
0.0
 10
7.0256488536
 20
20.4739584403
 30
0.0
 10
7.0368075315
 20
20.4856939516
 30
0.0
 10
7.0441818349
 20
20.4935968794
 30
0.0
 10
7.0482589477
 20
20.498235444
 30
0.0
 10
7.0503371945
 20
20.5006115808
 30
0.0
 10
7.0511471159
 20
20.5018623804
 30
0.0
 10
7.0518825679
 20
20.5027834263
 30
0.0
 10
7.051727559
 20
20.5029411645
 30
0.0
  0
SPLINE
  5
5AD
100
AcDbEntity
  8
ASSI
100
AcDbSpline
 62
250
  6
CONTINUOUS
 70
0
 71
3
 72
21
 73
17
 74
0
 42
0.0000001
 43
0.0000001
 44
0.0000000001
 40
0.0
 40
0.0
 40
0.0
 40
0.0
 40
0.0014769968
 40
0.0051843458
 40
0.0112480926
 40
0.0196750474
 40
0.0435598051
 40
0.0766350963
 40
0.1185906273
 40
0.1690263425
 40
0.2274588821
 40
0.2933271133
 40
0.4447722176
 40
0.6175493755
 40
0.8050245869
 40
1.0
 40
1.0
 40
1.0
 40
1.0
 10
-5.0569048129
 20
21.1121154096
 30
0.0
 10
-5.057151033
 20
21.1121111118
 30
0.0
 10
-5.0574767707
 20
21.110993838
 30
0.0
 10
-5.0577975211
 20
21.1094075007
 30
0.0
 10
-5.0581530325
 20
21.1062499504
 30
0.0
 10
-5.0586503897
 20
21.0999560311
 30
0.0
 10
-5.0591619743
 20
21.0890012734
 30
0.0
 10
-5.0596492156
 20
21.0725463952
 30
0.0
 10
-5.0600357013
 20
21.0516191686
 30
0.0
 10
-5.0603163384
 20
21.0264780553
 30
0.0
 10
-5.0604843336
 20
20.9973434859
 30
0.0
 10
-5.0605573552
 20
20.9513692696
 30
0.0
 10
-5.0603235842
 20
20.8863297
 30
0.0
 10
-5.0596124342
 20
20.8010179417
 30
0.0
 10
-5.0584769811
 20
20.7084522853
 30
0.0
 10
-5.0574719827
 20
20.6446945988
 30
0.0
 10
-5.0569048129
 20
20.612191562
 30
0.0
  0
SPLINE
  5
5AE
100
AcDbEntity
  8
ASSI
100
AcDbSpline
 62
250
  6
CONTINUOUS
 70
0
 71
3
 72
9
 73
5
 74
0
 42
0.0000001
 43
0.0000001
 44
0.0000000001
 40
0.0
 40
0.0
 40
0.0
 40
0.0
 40
0.4999896146
 40
1.0
 40
1.0
 40
1.0
 40
1.0
 10
5.6601314735
 20
-20.6008941786
 30
0.0
 10
5.8530481835
 20
-20.5975263679
 30
0.0
 10
6.2413130333
 20
-20.5148034215
 30
0.0
 10
6.5685848892
 20
-20.290110832
 30
0.0
 10
6.7038285376
 20
-20.1524865323
 30
0.0
  0
SPLINE
  5
5AF
100
AcDbEntity
  8
ASSI
100
AcDbSpline
 62
250
  6
CONTINUOUS
 70
0
 71
3
 72
23
 73
19
 74
0
 42
0.0000001
 43
0.0000001
 44
0.0000000001
 40
0.0
 40
0.0
 40
0.0
 40
0.0
 40
0.1949744397
 40
0.3824502479
 40
0.5552274371
 40
0.6340018467
 40
0.70667258
 40
0.7725407902
 40
0.8309733255
 40
0.8814089852
 40
0.9233643812
 40
0.9564395427
 40
0.9695466722
 40
0.9803248653
 40
0.9887520886
 40
0.9948155661
 40
0.9985231188
 40
1.0
 40
1.0
 40
1.0
 40
1.0
 10
8.53036869
 20
-18.5508701541
 30
0.0
 10
8.5315030249
 20
-18.6158759581
 30
0.0
 10
8.5335132583
 20
-18.7433913414
 30
0.0
 10
8.535783145
 20
-18.9285225778
 30
0.0
 10
8.5370063101
 20
-19.0749149954
 30
0.0
 10
8.5375045966
 20
-19.1830283779
 30
0.0
 10
8.537632758
 20
-19.2554930825
 30
0.0
 10
8.5375276765
 20
-19.321175026
 30
0.0
 10
8.5371914571
 20
-19.3794406652
 30
0.0
 10
8.5366314309
 20
-19.4297334514
 30
0.0
 10
8.5358548138
 20
-19.4715578754
 30
0.0
 10
8.5349949955
 20
-19.5009515408
 30
0.0
 10
8.5341530626
 20
-19.5199044045
 30
0.0
 10
8.5335214398
 20
-19.5307095138
 30
0.0
 10
8.5328649616
 20
-19.5389851231
 30
0.0
 10
8.5321539705
 20
-19.5453023288
 30
0.0
 10
8.5315129108
 20
-19.5484748817
 30
0.0
 10
8.5308610922
 20
-19.5507092543
 30
0.0
 10
8.53036869
 20
-19.5507178492
 30
0.0
  0
SPLINE
  5
5B0
100
AcDbEntity
  8
ASSI
100
AcDbSpline
 62
250
  6
CONTINUOUS
 70
0
 71
3
 72
23
 73
19
 74
0
 42
0.0000001
 43
0.0000001
 44
0.0000000001
 40
0.0
 40
0.0
 40
0.0
 40
0.0
 40
0.1956757598
 40
0.3834784249
 40
0.5563039434
 40
0.6350286623
 40
0.7076163053
 40
0.7733791325
 40
0.8316941888
 40
0.8820092842
 40
0.9238485056
 40
0.9568172452
 40
0.9698755084
 40
0.980607449
 40
0.9889897852
 40
0.9950063908
 40
0.9986545494
 40
1.0
 40
1.0
 40
1.0
 40
1.0
 10
8.53036869
 20
-18.5508701541
 30
0.0
 10
8.575929787
 20
-18.5964451326
 30
0.0
 10
8.6651133398
 20
-18.6858668849
 30
0.0
 10
8.7941692595
 20
-18.815908176
 30
0.0
 10
8.8958099882
 20
-18.9188922051
 30
0.0
 10
8.9705944809
 20
-18.9950687982
 30
0.0
 10
9.0205746198
 20
-19.0461850855
 30
0.0
 10
9.065744988
 20
-19.0926038354
 30
0.0
 10
9.1056764231
 20
-19.1338835422
 30
0.0
 10
9.1399971883
 20
-19.1696338615
 30
0.0
 10
9.1683694766
 20
-19.1995067182
 30
0.0
 10
9.188155816
 20
-19.2206501181
 30
0.0
 10
9.200751905
 20
-19.2344212629
 30
0.0
 10
9.2078825072
 20
-19.2423440281
 30
0.0
 10
9.2131778601
 20
-19.2484911314
 30
0.0
 10
9.2172890339
 20
-19.2532856881
 30
0.0
 10
9.2188902999
 20
-19.2558040418
 30
0.0
 10
9.2203363869
 20
-19.2576636131
 30
0.0
 10
9.2200230647
 20
-19.2579769353
 30
0.0
  0
SPLINE
  5
5B1
100
AcDbEntity
  8
ASSI
100
AcDbSpline
 62
250
  6
CONTINUOUS
 70
0
 71
3
 72
23
 73
19
 74
0
 42
0.0000001
 43
0.0000001
 44
0.0000000001
 40
0.0
 40
0.0
 40
0.0
 40
0.0
 40
0.1956757599
 40
0.383478425
 40
0.5563039435
 40
0.6350286624
 40
0.7076163055
 40
0.7733791327
 40
0.831694189
 40
0.8820092844
 40
0.9238485058
 40
0.9568172453
 40
0.9698755085
 40
0.9806074491
 40
0.9889897853
 40
0.9950063908
 40
0.9986545494
 40
1.0
 40
1.0
 40
1.0
 40
1.0
 10
10.1454524064
 20
-16.9357864376
 30
0.0
 10
10.1910135035
 20
-16.9813614162
 30
0.0
 10
10.2801970563
 20
-17.0707831685
 30
0.0
 10
10.409252976
 20
-17.2008244596
 30
0.0
 10
10.5108937048
 20
-17.3038084888
 30
0.0
 10
10.5856781975
 20
-17.3799850819
 30
0.0
 10
10.6356583363
 20
-17.4311013692
 30
0.0
 10
10.6808287045
 20
-17.4775201191
 30
0.0
 10
10.7207601396
 20
-17.5187998258
 30
0.0
 10
10.7550809048
 20
-17.5545501452
 30
0.0
 10
10.7834531932
 20
-17.5844230018
 30
0.0
 10
10.8032395325
 20
-17.6055664018
 30
0.0
 10
10.8158356215
 20
-17.6193375465
 30
0.0
 10
10.8229662237
 20
-17.6272603117
 30
0.0
 10
10.8282615766
 20
-17.633407415
 30
0.0
 10
10.8323727504
 20
-17.6382019717
 30
0.0
 10
10.8339740164
 20
-17.6407203254
 30
0.0
 10
10.8354201033
 20
-17.6425798967
 30
0.0
 10
10.8351067812
 20
-17.6428932188
 30
0.0
  0
SPLINE
  5
5B2
100
AcDbEntity
  8
ASSI
100
AcDbSpline
 62
250
  6
CONTINUOUS
 70
0
 71
3
 72
23
 73
19
 74
0
 42
0.0000001
 43
0.0000001
 44
0.0000000001
 40
0.0
 40
0.0
 40
0.0
 40
0.0
 40
0.1956757599
 40
0.383478425
 40
0.5563039435
 40
0.6350286624
 40
0.7076163054
 40
0.7733791326
 40
0.8316941889
 40
0.8820092843
 40
0.9238485057
 40
0.9568172452
 40
0.9698755084
 40
0.9806074491
 40
0.9889897853
 40
0.9950063908
 40
0.9986545494
 40
1.0
 40
1.0
 40
1.0
 40
1.0
 10
10.1454524064
 20
16.9357864376
 30
0.0
 10
10.1910135035
 20
16.9813614162
 30
0.0
 10
10.2801970563
 20
17.0707831685
 30
0.0
 10
10.409252976
 20
17.2008244596
 30
0.0
 10
10.5108937047
 20
17.3038084887
 30
0.0
 10
10.5856781975
 20
17.3799850818
 30
0.0
 10
10.6356583363
 20
17.4311013691
 30
0.0
 10
10.6808287045
 20
17.477520119
 30
0.0
 10
10.7207601396
 20
17.5187998258
 30
0.0
 10
10.7550809048
 20
17.5545501451
 30
0.0
 10
10.7834531931
 20
17.5844230018
 30
0.0
 10
10.8032395325
 20
17.6055664017
 30
0.0
 10
10.8158356215
 20
17.6193375465
 30
0.0
 10
10.8229662236
 20
17.6272603117
 30
0.0
 10
10.8282615766
 20
17.633407415
 30
0.0
 10
10.8323727504
 20
17.6382019717
 30
0.0
 10
10.8339740164
 20
17.6407203254
 30
0.0
 10
10.8354201033
 20
17.6425798967
 30
0.0
 10
10.8351067812
 20
17.6428932188
 30
0.0
  0
SPLINE
  5
5B3
100
AcDbEntity
  8
ASSI
100
AcDbSpline
 62
250
  6
CONTINUOUS
 70
0
 71
3
 72
23
 73
19
 74
0
 42
0.0000001
 43
0.0000001
 44
0.0000000001
 40
0.0
 40
0.0
 40
0.0
 40
0.0
 40
0.1956757598
 40
0.3834784249
 40
0.5563039434
 40
0.6350286623
 40
0.7076163053
 40
0.7733791326
 40
0.8316941888
 40
0.8820092842
 40
0.9238485056
 40
0.9568172452
 40
0.9698755084
 40
0.980607449
 40
0.9889897852
 40
0.9950063908
 40
0.9986545494
 40
1.0
 40
1.0
 40
1.0
 40
1.0
 10
8.53036869
 20
18.5508701541
 30
0.0
 10
8.575929787
 20
18.5964451326
 30
0.0
 10
8.6651133398
 20
18.6858668849
 30
0.0
 10
8.7941692595
 20
18.815908176
 30
0.0
 10
8.8958099882
 20
18.9188922051
 30
0.0
 10
8.970594481
 20
18.9950687982
 30
0.0
 10
9.0205746198
 20
19.0461850855
 30
0.0
 10
9.065744988
 20
19.0926038354
 30
0.0
 10
9.1056764231
 20
19.1338835422
 30
0.0
 10
9.1399971883
 20
19.1696338615
 30
0.0
 10
9.1683694766
 20
19.1995067182
 30
0.0
 10
9.188155816
 20
19.2206501181
 30
0.0
 10
9.200751905
 20
19.2344212629
 30
0.0
 10
9.2078825072
 20
19.2423440281
 30
0.0
 10
9.2131778601
 20
19.2484911314
 30
0.0
 10
9.2172890339
 20
19.2532856881
 30
0.0
 10
9.2188902999
 20
19.2558040418
 30
0.0
 10
9.2203363869
 20
19.2576636131
 30
0.0
 10
9.2200230647
 20
19.2579769353
 30
0.0
  0
SPLINE
  5
5B4
100
AcDbEntity
  8
ASSI
100
AcDbSpline
 62
250
  6
CONTINUOUS
 70
0
 71
3
 72
23
 73
19
 74
0
 42
0.0000001
 43
0.0000001
 44
0.0000000001
 40
0.0
 40
0.0
 40
0.0
 40
0.0
 40
0.1949744397
 40
0.3824502479
 40
0.555227437
 40
0.6340018467
 40
0.7066725799
 40
0.7725407902
 40
0.8309733255
 40
0.8814089851
 40
0.9233643811
 40
0.9564395427
 40
0.9695466722
 40
0.9803248653
 40
0.9887520885
 40
0.9948155661
 40
0.9985231188
 40
1.0
 40
1.0
 40
1.0
 40
1.0
 10
8.53036869
 20
18.5508701541
 30
0.0
 10
8.5315030249
 20
18.6158759581
 30
0.0
 10
8.5335132583
 20
18.7433913413
 30
0.0
 10
8.535783145
 20
18.9285225777
 30
0.0
 10
8.5370063101
 20
19.0749149953
 30
0.0
 10
8.5375045966
 20
19.1830283778
 30
0.0
 10
8.537632758
 20
19.2554930824
 30
0.0
 10
8.5375276765
 20
19.321175026
 30
0.0
 10
8.5371914571
 20
19.3794406651
 30
0.0
 10
8.5366314309
 20
19.4297334514
 30
0.0
 10
8.5358548138
 20
19.4715578753
 30
0.0
 10
8.5349949955
 20
19.5009515407
 30
0.0
 10
8.5341530626
 20
19.5199044044
 30
0.0
 10
8.5335214398
 20
19.5307095138
 30
0.0
 10
8.5328649616
 20
19.5389851231
 30
0.0
 10
8.5321539705
 20
19.5453023288
 30
0.0
 10
8.5315129108
 20
19.5484748817
 30
0.0
 10
8.5308610922
 20
19.5507092543
 30
0.0
 10
8.53036869
 20
19.5507178492
 30
0.0
  0
ELLIPSE
  5
5B5
100
AcDbEntity
  8
DRAFT
100
AcDbEllipse
 62
7
  6
CONTINUOUS
 10
3.9059699877
 20
-22.3339198952
 30
0.0
 11
0.4279699877
 21
0.0
 31
0.0
 40
0.0087268678
 41
0.0058177642
 42
3.1415926536
  0
ELLIPSE
  5
5B6
100
AcDbEntity
  8
DRAFT
100
AcDbEllipse
 62
7
  6
CONTINUOUS
 10
-3.9499699877
 20
-22.3339198952
 30
0.0
 11
0.4279699877
 21
0.0
 31
0.0
 40
0.0087268678
 41
-0.0
 42
3.1357748894
  0
ELLIPSE
  5
5B7
100
AcDbEntity
  8
DRAFT
100
AcDbEllipse
 62
7
  6
CONTINUOUS
 10
3.9059699877
 20
22.3339198952
 30
0.0
 11
0.4279699877
 21
0.0
 31
0.0
 40
0.0087268678
 41
3.1415926536
 42
6.277367543
  0
ELLIPSE
  5
5B8
100
AcDbEntity
  8
DRAFT
100
AcDbEllipse
 62
7
  6
CONTINUOUS
 10
-3.9499699877
 20
22.3339198952
 30
0.0
 11
0.4279699877
 21
-0.0
 31
0.0
 40
0.0087268678
 41
-3.1357748894
 42
0.0
  0
ELLIPSE
  5
5B9
100
AcDbEntity
  8
RACCORDO
100
AcDbEllipse
 62
7
  6
CONTINUOUS
 10
-10.6819253593
 20
-21.9012544738
 30
0.0
 11
-0.4383594471
 21
0.2191630312
 31
0.0
 40
0.9998096356
 41
6.7467263073
 42
8.3176749331
  0
ELLIPSE
  5
5BA
100
AcDbEntity
  8
RACCORDO
100
AcDbEllipse
 62
7
  6
CONTINUOUS
 10
10.6379253593
 20
21.9012544738
 30
0.0
 11
0.4383594471
 21
-0.2191630312
 31
0.0
 40
0.9998096356
 41
6.7467263073
 42
8.3176749331
  0
ELLIPSE
  5
5BB
100
AcDbEntity
  8
ASSI
100
AcDbEllipse
 62
7
  6
CONTINUOUS
 10
4.3343662764
 20
-23.2563578147
 30
0.0
 11
-0.0
 21
0.5
 31
0.0
 40
0.0058178298
 41
-3.2911896616
 42
-3.1474104178
  0
ELLIPSE
  5
5BC
100
AcDbEntity
  8
ASSI
100
AcDbEllipse
 62
7
  6
CONTINUOUS
 10
-4.3783662764
 20
-23.2563578147
 30
0.0
 11
-0.0
 21
0.5
 31
0.0
 40
0.0058178298
 41
-3.1357748894
 42
-2.9919956456
  0
ELLIPSE
  5
5BD
100
AcDbEntity
  8
ASSI
100
AcDbEllipse
 62
7
  6
CONTINUOUS
 10
-4.3783493531
 20
23.2592582188
 30
0.0
 11
0.0
 21
0.4970911343
 31
0.0
 40
0.0058178298
 41
-0.144563023
 42
-0.0116355283
  0
ELLIPSE
  5
5BE
100
AcDbEntity
  8
ASSI
100
AcDbEllipse
 62
7
  6
CONTINUOUS
 10
4.3343493531
 20
23.2592582188
 30
0.0
 11
0.0
 21
0.4970911343
 31
0.0
 40
0.0058178298
 41
0.0116355283
 42
0.144563023
  0
ELLIPSE
  5
5BF
100
AcDbEntity
  8
RACCORDO
100
AcDbEllipse
 62
7
  6
CONTINUOUS
 10
-7.2649852679
 20
19.9570181168
 30
0.0
 11
0.0
 21
0.2
 31
0.0
 40
0.0058178298
 41
-3.1357748894
 42
-1.5707963268
  0
ELLIPSE
  5
5C0
100
AcDbEntity
  8
RACCORDO
100
AcDbEllipse
 62
7
  6
CONTINUOUS
 10
-6.3790147321
 20
19.9570181168
 30
0.0
 11
0.0
 21
0.2
 31
0.0
 40
0.0058178298
 41
-3.8935672579
 42
-3.1474104178
  0
ELLIPSE
  5
5C1
100
AcDbEntity
  8
RACCORDO
100
AcDbEllipse
 62
7
  6
CONTINUOUS
 10
-6.3790147321
 20
-19.9570181168
 30
0.0
 11
-0.0
 21
0.2
 31
0.0
 40
0.0058178298
 41
0.0058177642
 42
0.7519746043
  0
ELLIPSE
  5
5C2
100
AcDbEntity
  8
RACCORDO
100
AcDbEllipse
 62
7
  6
CONTINUOUS
 10
10.6379253593
 20
-21.9012544738
 30
0.0
 11
-0.4383594471
 21
-0.2191630312
 31
0.0
 40
0.9998096356
 41
1.1071030277
 42
2.6780516535
  0
ELLIPSE
  5
5C3
100
AcDbEntity
  8
RACCORDO
100
AcDbEllipse
 62
7
  6
CONTINUOUS
 10
-7.2649852679
 20
-19.9570181168
 30
0.0
 11
0.0
 21
0.2
 31
0.0
 40
0.0058178298
 41
-1.5707963268
 42
-0.0058177642
  0
ELLIPSE
  5
5C4
100
AcDbEntity
  8
RACCORDO
100
AcDbEllipse
 62
7
  6
CONTINUOUS
 10
8.4780042309
 20
23.4113248654
 30
0.0
 11
0.0029088041
 21
0.2886641433
 31
0.0
 40
0.8660144118
 41
-4.7007536982
 42
-3.1328662412
  0
ELLIPSE
  5
5C5
100
AcDbEntity
  8
RACCORDO
100
AcDbEllipse
 62
7
  6
CONTINUOUS
 10
-10.6819253593
 20
21.9012544738
 30
0.0
 11
0.4383594471
 21
0.2191630312
 31
0.0
 40
0.9998096356
 41
1.1071030277
 42
2.6780516535
  0
ELLIPSE
  5
5C6
100
AcDbEntity
  8
RACCORDO
100
AcDbEllipse
 62
7
  6
CONTINUOUS
 10
10.3779957691
 20
23.4113248654
 30
0.0
 11
-0.0029088041
 21
0.2886641433
 31
0.0
 40
0.8660144118
 41
-3.150319066
 42
-1.582431609
  0
ELLIPSE
  5
5C7
100
AcDbEntity
  8
RACCORDO
100
AcDbEllipse
 62
7
  6
CONTINUOUS
 10
-10.4219957691
 20
23.4113248654
 30
0.0
 11
0.0029088041
 21
0.2886641433
 31
0.0
 40
0.8660144118
 41
-4.7007536982
 42
-3.1328662412
  0
ELLIPSE
  5
5C8
100
AcDbEntity
  8
RACCORDO
100
AcDbEllipse
 62
7
  6
CONTINUOUS
 10
-8.5220042309
 20
23.4113248654
 30
0.0
 11
-0.0029088041
 21
0.2886641433
 31
0.0
 40
0.8660144118
 41
-3.150319066
 42
-1.582431609
  0
ELLIPSE
  5
5C9
100
AcDbEntity
  8
RACCORDO
100
AcDbEllipse
 62
7
  6
CONTINUOUS
 10
-10.4219957691
 20
-23.4113248654
 30
0.0
 11
-0.0029088041
 21
0.2886641433
 31
0.0
 40
0.8660144118
 41
-0.0087264124
 42
1.5591610446
  0
ELLIPSE
  5
5CA
100
AcDbEntity
  8
RACCORDO
100
AcDbEllipse
 62
7
  6
CONTINUOUS
 10
-8.5220042309
 20
-23.4113248654
 30
0.0
 11
0.0029088041
 21
0.2886641433
 31
0.0
 40
0.8660144118
 41
-1.5591610446
 42
0.0087264124
  0
ELLIPSE
  5
5CB
100
AcDbEntity
  8
RACCORDO
100
AcDbEllipse
 62
7
  6
CONTINUOUS
 10
10.3779957691
 20
-23.4113248654
 30
0.0
 11
0.0029088041
 21
0.2886641433
 31
0.0
 40
0.8660144118
 41
-1.5591610446
 42
0.0087264124
  0
ELLIPSE
  5
5CC
100
AcDbEntity
  8
RACCORDO
100
AcDbEllipse
 62
7
  6
CONTINUOUS
 10
8.4780042309
 20
-23.4113248654
 30
0.0
 11
-0.0029088041
 21
0.2886641433
 31
0.0
 40
0.8660144118
 41
-0.0087264124
 42
1.5591610446
  0
ENDSEC
  0
SECTION
  2
OBJECTS
  0
DICTIONARY
  5
C
100
AcDbDictionary
280
0
281
1
  3
ACAD_GROUP
350
D
  3
ACAD_MLINESTYLE
350
17
  3
ACAD_LAYOUT
350
1A
  3
ACAD_PLOTSETTINGS
350
19
  3
ACAD_PLOTSTYLENAME
350
E
  0
DICTIONARY
  5
D
102
{ACAD_REACTORS
330
C
102
}
100
AcDbDictionary
280
0
281
1
  0
ACDBDICTIONARYWDFLT
  5
E
102
{ACAD_REACTORS
330
C
102
}
100
AcDbDictionary
281
1
  3
Normal
350
F
100
AcDbDictionaryWithDefault
340
F
  0
DICTIONARY
  5
17
102
{ACAD_REACTORS
330
C
102
}
100
AcDbDictionary
280
0
281
1
  3
Standard
350
18
  0
DICTIONARY
  5
19
102
{ACAD_REACTORS
330
C
102
}
100
AcDbDictionary
281
1
  0
DICTIONARY
  5
1A
102
{ACAD_REACTORS
330
C
102
}
100
AcDbDictionary
281
1
  3
Model
350
5CD
  3
Layout1
350
5CE
  0
ACDBPLACEHOLDER
  5
F
102
{ACAD_REACTORS
330
E
102
}
  0
MLINESTYLE
  5
18
102
{ACAD_REACTORS
330
17
102
}
100
AcDbMlineStyle
  2
STANDARD
 70
0
  3

 62
256
 51
90.0
 52
90.0
 71
2
 49
0.5
 62
256
  6
BYLAYER
 49
-0.5
 62
256
  6
BYLAYER
  0
LAYOUT
  5
5CD
102
{ACAD_REACTORS
330
1A
102
}
100
AcDbPlotSettings
  1

  2
none_device
  4
ISO_A4_(297.00_x_210.00_MM)
  6

 40
0.0
 41
0.0
 42
0.0
 43
0.0
 44
297.0
 45
210.0
 46
0.0
 47
0.0
 48
0.0
 49
0.0
140
0.0
141
0.0
142
1.0
143
1.0
 70
1024
 72
1
 73
0
 74
0
  7

 75
0
147
1.0
148
0.0
149
0.0
100
AcDbLayout
  1
Model
 70
0
 71
0
 10
0.0
 20
0.0
 11
297.0
 21
210.0
 12
0.0
 22
0.0
 32
0.0
 14
0.0
 24
0.0
 34
0.0
 15
0.0
 25
0.0
 35
0.0
146
0.0
 13
0.0
 23
0.0
 33
0.0
 16
1.0
 26
0.0
 36
0.0
 17
0.0
 27
1.0
 37
0.0
 76
0
330
2A9
345
0
346
0
  0
LAYOUT
  5
5CE
102
{ACAD_REACTORS
330
1A
102
}
100
AcDbPlotSettings
  1

  2
none_device
  4
ISO_A4_(297.00_x_210.00_MM)
  6

 40
0.0
 41
0.0
 42
0.0
 43
0.0
 44
297.0
 45
210.0
 46
0.0
 47
0.0
 48
0.0
 49
0.0
140
0.0
141
0.0
142
1.0
143
1.0
 70
0
 72
1
 73
0
 74
0
  7

 75
0
147
1.0
148
0.0
149
0.0
100
AcDbLayout
  1
Layout1
 70
0
 71
1
 10
0.0
 20
0.0
 11
297.0
 21
210.0
 12
0.0
 22
0.0
 32
0.0
 14
0.0
 24
0.0
 34
0.0
 15
0.0
 25
0.0
 35
0.0
146
0.0
 13
0.0
 23
0.0
 33
0.0
 16
1.0
 26
0.0
 36
0.0
 17
0.0
 27
1.0
 37
0.0
 76
0
330
2AA
345
0
346
0
  0
ENDSEC
  0
EOF
