  0
SECTION
  2
HEADER
  9
$ACADVER
  1
AC1024
  9
$DWGCODEPAGE
  3
ANSI_1252
  9
$EXTMAX
 10
297.0
 20
210.0
 30
0.0
  9
$EXTMIN
 10
0.0
 20
0.0
 30
0.0
  9
$LIMMIN
 10
0.0
 20
0.0
  9
$LIMMAX
 10
297.0
 20
210.0
  9
$VIEWCTR
 10
148.5
 20
105.0
  9
$VIEWSIZE
 40
210.0
  9
$CLAYER
  8
0
  9
$LTSCALE
 40
16.335
  9
$CELTYPE
  6
BYLAYER
  9
$DIMSCALE
 40
1.0
  9
$DIMASZ
 40
3.0
  9
$DIMEXO
 40
0.5
  9
$DIMDLI
 40
11.286
  9
$DIMEXE
 40
1.5
  9
$DIMCEN
 40
2.673
  9
$DIMLFAC
 40
1.0
  9
$DIMBLK
  1
_FILLED
  9
$DIMALT
 70
0
  9
$DIMALTF
 40
0.0393700787
  9
$DIMTXT
 40
3.0
  9
$DIMTOL
 70
1
  9
$DIMLIM
 70
0
  9
$DIMTFAC
 40
1.0
  9
$DIMTP
 40
0.01
  9
$DIMTM
 40
0.01
  9
$DIMGAP
 40
0.625
  9
$DIMDSEP
 70
44
  9
$AUNITS
 70
0
  9
$PDMODE
 70
3
  9
$PDSIZE
 40
3.0
  9
$HANDSEED
  5
7EC
  9
$TILEMODE
 70
1
  9
$MEASUREMENT
 70
1
  9
$INSUNITS
 70
4
  0
ENDSEC
  0
SECTION
  2
CLASSES
  0
CLASS
  1
ACDBDICTIONARYWDFLT
  2
AcDbDictionaryWithDefault
  3
AutoCAD 2000
 90
0
 91
1
280
0
281
0
  0
CLASS
  1
ACDBPLACEHOLDER
  2
AcDbPlaceHolder
  3
AutoCAD 2000
 90
0
 91
1
280
0
281
0
  0
CLASS
  1
LAYOUT
  2
AcDbLayout
  3
AutoCAD 2000
 90
0
 91
0
280
0
281
0
  0
ENDSEC
  0
SECTION
  2
TABLES
  0
TABLE
  2
VPORT
  5
8
100
AcDbSymbolTable
 70
2
  0
VPORT
  5
1F4
100
AcDbSymbolTableRecord
100
AcDbViewportTableRecord
  2
*ACTIVE
 70
0
 10
0.0
 20
0.0
 11
1.0
 21
1.0
 12
148.5
 22
105.0
 13
0.0
 23
0.0
 14
1.0
 24
1.0
 15
0.0
 25
0.0
 16
0.0
 26
0.0
 36
1.0
 17
0.0
 27
0.0
 37
0.0
 40
210.0
 41
1.4142857143
 42
50.0
 43
0.0
 44
0.0
 50
0.0
 51
0.0
 71
0
 72
100
 73
1
 74
1
 75
0
 76
0
 77
0
 78
0
  0
ENDTAB
  0
TABLE
  2
LTYPE
  5
5
100
AcDbSymbolTable
 70
6
  0
LTYPE
  5
14
100
AcDbSymbolTableRecord
100
AcDbLinetypeTableRecord
  2
BYBLOCK
 70
0
  3

 72
65
 73
0
 40
0.0
  0
LTYPE
  5
15
100
AcDbSymbolTableRecord
100
AcDbLinetypeTableRecord
  2
BYLAYER
 70
0
  3

 72
65
 73
0
 40
0.0
  0
LTYPE
  5
16
100
AcDbSymbolTableRecord
100
AcDbLinetypeTableRecord
  2
CONTINUOUS
 70
64
  3
Solid line
 72
65
 73
0
 40
0.0
  0
LTYPE
  5
1F5
100
AcDbSymbolTableRecord
100
AcDbLinetypeTableRecord
  2
CENTER
 70
64
  3
____ _ ____ _ ____ _ ____ _ ____ _ ____ _ ____
 72
65
 73
4
 40
0.6
 49
0.375
 74
0
 49
-0.075
 74
0
 49
0.075
 74
0
 49
-0.075
 74
0
  0
LTYPE
  5
1F6
100
AcDbSymbolTableRecord
100
AcDbLinetypeTableRecord
  2
HIDDEN
 70
64
  3
- - - - - - - - - - - - - - - - - - - -
 72
65
 73
2
 40
0.2
 49
0.1
 74
0
 49
-0.1
 74
0
  0
LTYPE
  5
1F7
100
AcDbSymbolTableRecord
100
AcDbLinetypeTableRecord
  2
PHANTOM
 70
64
  3
_____ _ _ _____ _ _ _____ _ _ _____
 72
65
 73
6
 40
0.8
 49
0.45
 74
0
 49
-0.05
 74
0
 49
0.1
 74
0
 49
-0.05
 74
0
 49
0.1
 74
0
 49
-0.05
 74
0
  0
LTYPE
  5
1F8
100
AcDbSymbolTableRecord
100
AcDbLinetypeTableRecord
  2
DOT
 70
64
  3
. . . . . . . . . . . . . . . . . . . .
 72
65
 73
2
 40
0.2
 49
0.1
 74
0
 49
-0.1
 74
0
  0
LTYPE
  5
1F9
100
AcDbSymbolTableRecord
100
AcDbLinetypeTableRecord
  2
DASHED
 70
64
  3
- - - - - - - - - - - - - - - - - - - -
 72
65
 73
2
 40
0.2
 49
0.1
 74
0
 49
-0.1
 74
0
  0
ENDTAB
  0
TABLE
  2
LAYER
  5
2
100
AcDbSymbolTable
 70
36
  0
LAYER
  5
10
100
AcDbSymbolTableRecord
100
AcDbLayerTableRecord
  2
0
 70
0
 62
7
  6
CONTINUOUS
370
-3
390
F
  0
LAYER
  5
1FA
100
AcDbSymbolTableRecord
100
AcDbLayerTableRecord
  2
DEFAULT_1
 70
0
 62
7
  6
CENTER
370
-3
390
F
  0
LAYER
  5
1FB
100
AcDbSymbolTableRecord
100
AcDbLayerTableRecord
  2
DEFAULT_2
 70
0
 62
7
  6
HIDDEN
370
-3
390
F
  0
LAYER
  5
1FC
100
AcDbSymbolTableRecord
100
AcDbLayerTableRecord
  2
DEFAULT_3
 70
0
 62
7
  6
PHANTOM
370
-3
390
F
  0
LAYER
  5
1FD
100
AcDbSymbolTableRecord
100
AcDbLayerTableRecord
  2
0402_C_REF_70000
 70
0
 62
7
  6
CONTINUOUS
370
-3
390
F
  0
LAYER
  5
1FE
100
AcDbSymbolTableRecord
100
AcDbLayerTableRecord
  2
0402_C_REF_70000_1
 70
0
 62
7
  6
CONTINUOUS
370
-3
390
F
  0
LAYER
  5
1FF
100
AcDbSymbolTableRecord
100
AcDbLayerTableRecord
  2
0402_C_REF_70000_10
 70
0
 62
7
  6
CONTINUOUS
370
-3
390
F
  0
LAYER
  5
200
100
AcDbSymbolTableRecord
100
AcDbLayerTableRecord
  2
0402_C_REF_70000_11
 70
0
 62
7
  6
CONTINUOUS
370
-3
390
F
  0
LAYER
  5
201
100
AcDbSymbolTableRecord
100
AcDbLayerTableRecord
  2
0402_C_REF_70000_12
 70
0
 62
7
  6
CONTINUOUS
370
-3
390
F
  0
LAYER
  5
202
100
AcDbSymbolTableRecord
100
AcDbLayerTableRecord
  2
0402_C_REF_70000_13
 70
0
 62
7
  6
CONTINUOUS
370
-3
390
F
  0
LAYER
  5
203
100
AcDbSymbolTableRecord
100
AcDbLayerTableRecord
  2
0402_C_REF_70000_14
 70
0
 62
7
  6
CONTINUOUS
370
-3
390
F
  0
LAYER
  5
204
100
AcDbSymbolTableRecord
100
AcDbLayerTableRecord
  2
0402_C_REF_70000_15
 70
0
 62
7
  6
CONTINUOUS
370
-3
390
F
  0
LAYER
  5
205
100
AcDbSymbolTableRecord
100
AcDbLayerTableRecord
  2
0402_C_REF_70000_16
 70
0
 62
7
  6
CONTINUOUS
370
-3
390
F
  0
LAYER
  5
206
100
AcDbSymbolTableRecord
100
AcDbLayerTableRecord
  2
0402_C_REF_70000_17
 70
0
 62
7
  6
CONTINUOUS
370
-3
390
F
  0
LAYER
  5
207
100
AcDbSymbolTableRecord
100
AcDbLayerTableRecord
  2
0402_C_REF_70000_18
 70
0
 62
7
  6
CONTINUOUS
370
-3
390
F
  0
LAYER
  5
208
100
AcDbSymbolTableRecord
100
AcDbLayerTableRecord
  2
0402_C_REF_70000_19
 70
0
 62
7
  6
CONTINUOUS
370
-3
390
F
  0
LAYER
  5
209
100
AcDbSymbolTableRecord
100
AcDbLayerTableRecord
  2
0402_C_REF_70000_2
 70
0
 62
7
  6
CONTINUOUS
370
-3
390
F
  0
LAYER
  5
20A
100
AcDbSymbolTableRecord
100
AcDbLayerTableRecord
  2
0402_C_REF_70000_20
 70
0
 62
7
  6
CONTINUOUS
370
-3
390
F
  0
LAYER
  5
20B
100
AcDbSymbolTableRecord
100
AcDbLayerTableRecord
  2
0402_C_REF_70000_21
 70
0
 62
7
  6
CONTINUOUS
370
-3
390
F
  0
LAYER
  5
20C
100
AcDbSymbolTableRecord
100
AcDbLayerTableRecord
  2
0402_C_REF_70000_22
 70
0
 62
7
  6
CONTINUOUS
370
-3
390
F
  0
LAYER
  5
20D
100
AcDbSymbolTableRecord
100
AcDbLayerTableRecord
  2
0402_C_REF_70000_23
 70
0
 62
7
  6
CONTINUOUS
370
-3
390
F
  0
LAYER
  5
20E
100
AcDbSymbolTableRecord
100
AcDbLayerTableRecord
  2
0402_C_REF_70000_24
 70
0
 62
7
  6
CONTINUOUS
370
-3
390
F
  0
LAYER
  5
20F
100
AcDbSymbolTableRecord
100
AcDbLayerTableRecord
  2
0402_C_REF_70000_25
 70
0
 62
7
  6
CONTINUOUS
370
-3
390
F
  0
LAYER
  5
210
100
AcDbSymbolTableRecord
100
AcDbLayerTableRecord
  2
0402_C_REF_70000_26
 70
0
 62
7
  6
CONTINUOUS
370
-3
390
F
  0
LAYER
  5
211
100
AcDbSymbolTableRecord
100
AcDbLayerTableRecord
  2
0402_C_REF_70000_27
 70
0
 62
7
  6
CONTINUOUS
370
-3
390
F
  0
LAYER
  5
212
100
AcDbSymbolTableRecord
100
AcDbLayerTableRecord
  2
0402_C_REF_70000_28
 70
0
 62
7
  6
CONTINUOUS
370
-3
390
F
  0
LAYER
  5
213
100
AcDbSymbolTableRecord
100
AcDbLayerTableRecord
  2
0402_C_REF_70000_29
 70
0
 62
7
  6
CONTINUOUS
370
-3
390
F
  0
LAYER
  5
214
100
AcDbSymbolTableRecord
100
AcDbLayerTableRecord
  2
0402_C_REF_70000_3
 70
0
 62
7
  6
CONTINUOUS
370
-3
390
F
  0
LAYER
  5
215
100
AcDbSymbolTableRecord
100
AcDbLayerTableRecord
  2
0402_C_REF_70000_4
 70
0
 62
7
  6
CONTINUOUS
370
-3
390
F
  0
LAYER
  5
216
100
AcDbSymbolTableRecord
100
AcDbLayerTableRecord
  2
0402_C_REF_70000_5
 70
0
 62
7
  6
CONTINUOUS
370
-3
390
F
  0
LAYER
  5
217
100
AcDbSymbolTableRecord
100
AcDbLayerTableRecord
  2
0402_C_REF_70000_6
 70
0
 62
7
  6
CONTINUOUS
370
-3
390
F
  0
LAYER
  5
218
100
AcDbSymbolTableRecord
100
AcDbLayerTableRecord
  2
0402_C_REF_70000_7
 70
0
 62
7
  6
CONTINUOUS
370
-3
390
F
  0
LAYER
  5
219
100
AcDbSymbolTableRecord
100
AcDbLayerTableRecord
  2
0402_C_REF_70000_8
 70
0
 62
7
  6
CONTINUOUS
370
-3
390
F
  0
LAYER
  5
21A
100
AcDbSymbolTableRecord
100
AcDbLayerTableRecord
  2
0402_C_REF_70000_9
 70
0
 62
7
  6
CONTINUOUS
370
-3
390
F
  0
LAYER
  5
21B
100
AcDbSymbolTableRecord
100
AcDbLayerTableRecord
  2
0402_L_REF_55000
 70
0
 62
7
  6
CONTINUOUS
370
-3
390
F
  0
LAYER
  5
21C
100
AcDbSymbolTableRecord
100
AcDbLayerTableRecord
  2
0402_R_REF_30000
 70
0
 62
7
  6
CONTINUOUS
370
-3
390
F
  0
LAYER
  5
21D
100
AcDbSymbolTableRecord
100
AcDbLayerTableRecord
  2
0402_R_REF_30000_1
 70
0
 62
7
  6
CONTINUOUS
370
-3
390
F
  0
LAYER
  5
21E
100
AcDbSymbolTableRecord
100
AcDbLayerTableRecord
  2
0402_R_REF_30000_10
 70
0
 62
7
  6
CONTINUOUS
370
-3
390
F
  0
LAYER
  5
21F
100
AcDbSymbolTableRecord
100
AcDbLayerTableRecord
  2
0402_R_REF_30000_11
 70
0
 62
7
  6
CONTINUOUS
370
-3
390
F
  0
LAYER
  5
220
100
AcDbSymbolTableRecord
100
AcDbLayerTableRecord
  2
0402_R_REF_30000_12
 70
0
 62
7
  6
CONTINUOUS
370
-3
390
F
  0
LAYER
  5
221
100
AcDbSymbolTableRecord
100
AcDbLayerTableRecord
  2
0402_R_REF_30000_13
 70
0
 62
7
  6
CONTINUOUS
370
-3
390
F
  0
LAYER
  5
222
100
AcDbSymbolTableRecord
100
AcDbLayerTableRecord
  2
0402_R_REF_30000_14
 70
0
 62
7
  6
CONTINUOUS
370
-3
390
F
  0
LAYER
  5
223
100
AcDbSymbolTableRecord
100
AcDbLayerTableRecord
  2
0402_R_REF_30000_15
 70
0
 62
7
  6
CONTINUOUS
370
-3
390
F
  0
LAYER
  5
224
100
AcDbSymbolTableRecord
100
AcDbLayerTableRecord
  2
0402_R_REF_30000_16
 70
0
 62
7
  6
CONTINUOUS
370
-3
390
F
  0
LAYER
  5
225
100
AcDbSymbolTableRecord
100
AcDbLayerTableRecord
  2
0402_R_REF_30000_17
 70
0
 62
7
  6
CONTINUOUS
370
-3
390
F
  0
LAYER
  5
226
100
AcDbSymbolTableRecord
100
AcDbLayerTableRecord
  2
0402_R_REF_30000_18
 70
0
 62
7
  6
CONTINUOUS
370
-3
390
F
  0
LAYER
  5
227
100
AcDbSymbolTableRecord
100
AcDbLayerTableRecord
  2
0402_R_REF_30000_2
 70
0
 62
7
  6
CONTINUOUS
370
-3
390
F
  0
LAYER
  5
228
100
AcDbSymbolTableRecord
100
AcDbLayerTableRecord
  2
0402_R_REF_30000_3
 70
0
 62
7
  6
CONTINUOUS
370
-3
390
F
  0
LAYER
  5
229
100
AcDbSymbolTableRecord
100
AcDbLayerTableRecord
  2
0402_R_REF_30000_4
 70
0
 62
7
  6
CONTINUOUS
370
-3
390
F
  0
LAYER
  5
22A
100
AcDbSymbolTableRecord
100
AcDbLayerTableRecord
  2
0402_R_REF_30000_5
 70
0
 62
7
  6
CONTINUOUS
370
-3
390
F
  0
LAYER
  5
22B
100
AcDbSymbolTableRecord
100
AcDbLayerTableRecord
  2
0402_R_REF_30000_6
 70
0
 62
7
  6
CONTINUOUS
370
-3
390
F
  0
LAYER
  5
22C
100
AcDbSymbolTableRecord
100
AcDbLayerTableRecord
  2
0402_R_REF_30000_7
 70
0
 62
7
  6
CONTINUOUS
370
-3
390
F
  0
LAYER
  5
22D
100
AcDbSymbolTableRecord
100
AcDbLayerTableRecord
  2
0402_R_REF_30000_8
 70
0
 62
7
  6
CONTINUOUS
370
-3
390
F
  0
LAYER
  5
22E
100
AcDbSymbolTableRecord
100
AcDbLayerTableRecord
  2
0402_R_REF_30000_9
 70
0
 62
7
  6
CONTINUOUS
370
-3
390
F
  0
LAYER
  5
22F
100
AcDbSymbolTableRecord
100
AcDbLayerTableRecord
  2
0603_C_REF_90000
 70
0
 62
7
  6
CONTINUOUS
370
-3
390
F
  0
LAYER
  5
230
100
AcDbSymbolTableRecord
100
AcDbLayerTableRecord
  2
0603_C_REF_90000_1
 70
0
 62
7
  6
CONTINUOUS
370
-3
390
F
  0
LAYER
  5
231
100
AcDbSymbolTableRecord
100
AcDbLayerTableRecord
  2
0603_C_REF_90000_2
 70
0
 62
7
  6
CONTINUOUS
370
-3
390
F
  0
LAYER
  5
232
100
AcDbSymbolTableRecord
100
AcDbLayerTableRecord
  2
0603_C_REF_90000_3
 70
0
 62
7
  6
CONTINUOUS
370
-3
390
F
  0
LAYER
  5
233
100
AcDbSymbolTableRecord
100
AcDbLayerTableRecord
  2
0603_C_REF_90000_4
 70
0
 62
7
  6
CONTINUOUS
370
-3
390
F
  0
LAYER
  5
234
100
AcDbSymbolTableRecord
100
AcDbLayerTableRecord
  2
0603_R_REF_55000
 70
0
 62
7
  6
CONTINUOUS
370
-3
390
F
  0
LAYER
  5
235
100
AcDbSymbolTableRecord
100
AcDbLayerTableRecord
  2
0603_R_REF_55000_1
 70
0
 62
7
  6
CONTINUOUS
370
-3
390
F
  0
LAYER
  5
236
100
AcDbSymbolTableRecord
100
AcDbLayerTableRecord
  2
0603_R_REF_55000_2
 70
0
 62
7
  6
CONTINUOUS
370
-3
390
F
  0
LAYER
  5
237
100
AcDbSymbolTableRecord
100
AcDbLayerTableRecord
  2
0603_R_REF_55000_3
 70
0
 62
7
  6
CONTINUOUS
370
-3
390
F
  0
LAYER
  5
238
100
AcDbSymbolTableRecord
100
AcDbLayerTableRecord
  2
0603_R_REF_55000_4
 70
0
 62
7
  6
CONTINUOUS
370
-3
390
F
  0
LAYER
  5
239
100
AcDbSymbolTableRecord
100
AcDbLayerTableRecord
  2
06___PRT_ALL_SURFS
 70
0
 62
7
  6
CONTINUOUS
370
-3
390
F
  0
LAYER
  5
23A
100
AcDbSymbolTableRecord
100
AcDbLayerTableRecord
  2
06___PRT_ALL_SURFS_1
 70
0
 62
7
  6
CONTINUOUS
370
-3
390
F
  0
LAYER
  5
23B
100
AcDbSymbolTableRecord
100
AcDbLayerTableRecord
  2
06___PRT_ALL_SURFS_10
 70
0
 62
7
  6
CONTINUOUS
370
-3
390
F
  0
LAYER
  5
23C
100
AcDbSymbolTableRecord
100
AcDbLayerTableRecord
  2
06___PRT_ALL_SURFS_11
 70
0
 62
7
  6
CONTINUOUS
370
-3
390
F
  0
LAYER
  5
23D
100
AcDbSymbolTableRecord
100
AcDbLayerTableRecord
  2
06___PRT_ALL_SURFS_12
 70
0
 62
7
  6
CONTINUOUS
370
-3
390
F
  0
LAYER
  5
23E
100
AcDbSymbolTableRecord
100
AcDbLayerTableRecord
  2
06___PRT_ALL_SURFS_14
 70
0
 62
7
  6
CONTINUOUS
370
-3
390
F
  0
LAYER
  5
23F
100
AcDbSymbolTableRecord
100
AcDbLayerTableRecord
  2
06___PRT_ALL_SURFS_15
 70
0
 62
7
  6
CONTINUOUS
370
-3
390
F
  0
LAYER
  5
240
100
AcDbSymbolTableRecord
100
AcDbLayerTableRecord
  2
06___PRT_ALL_SURFS_17
 70
0
 62
7
  6
CONTINUOUS
370
-3
390
F
  0
LAYER
  5
241
100
AcDbSymbolTableRecord
100
AcDbLayerTableRecord
  2
06___PRT_ALL_SURFS_18
 70
0
 62
7
  6
CONTINUOUS
370
-3
390
F
  0
LAYER
  5
242
100
AcDbSymbolTableRecord
100
AcDbLayerTableRecord
  2
06___PRT_ALL_SURFS_2
 70
0
 62
7
  6
CONTINUOUS
370
-3
390
F
  0
LAYER
  5
243
100
AcDbSymbolTableRecord
100
AcDbLayerTableRecord
  2
06___PRT_ALL_SURFS_20
 70
0
 62
7
  6
CONTINUOUS
370
-3
390
F
  0
LAYER
  5
244
100
AcDbSymbolTableRecord
100
AcDbLayerTableRecord
  2
06___PRT_ALL_SURFS_21
 70
0
 62
7
  6
CONTINUOUS
370
-3
390
F
  0
LAYER
  5
245
100
AcDbSymbolTableRecord
100
AcDbLayerTableRecord
  2
06___PRT_ALL_SURFS_23
 70
0
 62
7
  6
CONTINUOUS
370
-3
390
F
  0
LAYER
  5
246
100
AcDbSymbolTableRecord
100
AcDbLayerTableRecord
  2
06___PRT_ALL_SURFS_24
 70
0
 62
7
  6
CONTINUOUS
370
-3
390
F
  0
LAYER
  5
247
100
AcDbSymbolTableRecord
100
AcDbLayerTableRecord
  2
06___PRT_ALL_SURFS_25
 70
0
 62
7
  6
CONTINUOUS
370
-3
390
F
  0
LAYER
  5
248
100
AcDbSymbolTableRecord
100
AcDbLayerTableRecord
  2
06___PRT_ALL_SURFS_29
 70
0
 62
7
  6
CONTINUOUS
370
-3
390
F
  0
LAYER
  5
249
100
AcDbSymbolTableRecord
100
AcDbLayerTableRecord
  2
06___PRT_ALL_SURFS_3
 70
0
 62
7
  6
CONTINUOUS
370
-3
390
F
  0
LAYER
  5
24A
100
AcDbSymbolTableRecord
100
AcDbLayerTableRecord
  2
06___PRT_ALL_SURFS_4
 70
0
 62
7
  6
CONTINUOUS
370
-3
390
F
  0
LAYER
  5
24B
100
AcDbSymbolTableRecord
100
AcDbLayerTableRecord
  2
06___PRT_ALL_SURFS_6
 70
0
 62
7
  6
CONTINUOUS
370
-3
390
F
  0
LAYER
  5
24C
100
AcDbSymbolTableRecord
100
AcDbLayerTableRecord
  2
06___PRT_ALL_SURFS_7
 70
0
 62
7
  6
CONTINUOUS
370
-3
390
F
  0
LAYER
  5
24D
100
AcDbSymbolTableRecord
100
AcDbLayerTableRecord
  2
06___PRT_ALL_SURFS_8
 70
0
 62
7
  6
CONTINUOUS
370
-3
390
F
  0
LAYER
  5
24E
100
AcDbSymbolTableRecord
100
AcDbLayerTableRecord
  2
06___PRT_ALL_SURFS_9
 70
0
 62
7
  6
CONTINUOUS
370
-3
390
F
  0
LAYER
  5
24F
100
AcDbSymbolTableRecord
100
AcDbLayerTableRecord
  2
0805_C_REF_145000
 70
0
 62
7
  6
CONTINUOUS
370
-3
390
F
  0
LAYER
  5
250
100
AcDbSymbolTableRecord
100
AcDbLayerTableRecord
  2
0805_L_REF_145000
 70
0
 62
7
  6
CONTINUOUS
370
-3
390
F
  0
LAYER
  5
251
100
AcDbSymbolTableRecord
100
AcDbLayerTableRecord
  2
0805_R_REF_60000
 70
0
 62
7
  6
CONTINUOUS
370
-3
390
F
  0
LAYER
  5
252
100
AcDbSymbolTableRecord
100
AcDbLayerTableRecord
  2
0805_R_REF_60000_1
 70
0
 62
7
  6
CONTINUOUS
370
-3
390
F
  0
LAYER
  5
253
100
AcDbSymbolTableRecord
100
AcDbLayerTableRecord
  2
0805_R_REF_60000_2
 70
0
 62
7
  6
CONTINUOUS
370
-3
390
F
  0
LAYER
  5
254
100
AcDbSymbolTableRecord
100
AcDbLayerTableRecord
  2
0805_R_REF_60000_3
 70
0
 62
7
  6
CONTINUOUS
370
-3
390
F
  0
LAYER
  5
255
100
AcDbSymbolTableRecord
100
AcDbLayerTableRecord
  2
0805_R_REF_60000_4
 70
0
 62
7
  6
CONTINUOUS
370
-3
390
F
  0
LAYER
  5
256
100
AcDbSymbolTableRecord
100
AcDbLayerTableRecord
  2
0805_R_REF_60000_5
 70
0
 62
7
  6
CONTINUOUS
370
-3
390
F
  0
LAYER
  5
257
100
AcDbSymbolTableRecord
100
AcDbLayerTableRecord
  2
0805_R_REF_60000_6
 70
0
 62
7
  6
CONTINUOUS
370
-3
390
F
  0
LAYER
  5
258
100
AcDbSymbolTableRecord
100
AcDbLayerTableRecord
  2
0805_R_REF_60000_7
 70
0
 62
7
  6
CONTINUOUS
370
-3
390
F
  0
LAYER
  5
259
100
AcDbSymbolTableRecord
100
AcDbLayerTableRecord
  2
0805_R_REF_60000_8
 70
0
 62
7
  6
CONTINUOUS
370
-3
390
F
  0
LAYER
  5
25A
100
AcDbSymbolTableRecord
100
AcDbLayerTableRecord
  2
0805_R_REF_60000_9
 70
0
 62
7
  6
CONTINUOUS
370
-3
390
F
  0
LAYER
  5
25B
100
AcDbSymbolTableRecord
100
AcDbLayerTableRecord
  2
1206_C_REF_180000
 70
0
 62
7
  6
CONTINUOUS
370
-3
390
F
  0
LAYER
  5
25C
100
AcDbSymbolTableRecord
100
AcDbLayerTableRecord
  2
1206_C_REF_180000_1
 70
0
 62
7
  6
CONTINUOUS
370
-3
390
F
  0
LAYER
  5
25D
100
AcDbSymbolTableRecord
100
AcDbLayerTableRecord
  2
1206_C_REF_180000_2
 70
0
 62
7
  6
CONTINUOUS
370
-3
390
F
  0
LAYER
  5
25E
100
AcDbSymbolTableRecord
100
AcDbLayerTableRecord
  2
2512_R_H1_REF_100000
 70
0
 62
7
  6
CONTINUOUS
370
-3
390
F
  0
LAYER
  5
25F
100
AcDbSymbolTableRecord
100
AcDbLayerTableRecord
  2
43000895A0
 70
0
 62
7
  6
CONTINUOUS
370
-3
390
F
  0
LAYER
  5
260
100
AcDbSymbolTableRecord
100
AcDbLayerTableRecord
  2
43000895E0
 70
0
 62
7
  6
CONTINUOUS
370
-3
390
F
  0
LAYER
  5
261
100
AcDbSymbolTableRecord
100
AcDbLayerTableRecord
  2
43000908A0
 70
0
 62
7
  6
CONTINUOUS
370
-3
390
F
  0
LAYER
  5
262
100
AcDbSymbolTableRecord
100
AcDbLayerTableRecord
  2
43000908B0
 70
0
 62
7
  6
CONTINUOUS
370
-3
390
F
  0
LAYER
  5
263
100
AcDbSymbolTableRecord
100
AcDbLayerTableRecord
  2
ASSI
 70
0
 62
7
  6
CONTINUOUS
370
-3
390
F
  0
LAYER
  5
264
100
AcDbSymbolTableRecord
100
AcDbLayerTableRecord
  2
BOARD_PRODUCER_TESTIMONI_14_F0_
 70
0
 62
7
  6
CONTINUOUS
370
-3
390
F
  0
LAYER
  5
265
100
AcDbSymbolTableRecord
100
AcDbLayerTableRecord
  2
BOARD_PRODUCER_TESTIMONI_14_F_1
 70
0
 62
7
  6
CONTINUOUS
370
-3
390
F
  0
LAYER
  5
266
100
AcDbSymbolTableRecord
100
AcDbLayerTableRecord
  2
BOARD_PRODUCER_TESTIMONI_14_F_2
 70
0
 62
7
  6
CONTINUOUS
370
-3
390
F
  0
LAYER
  5
267
100
AcDbSymbolTableRecord
100
AcDbLayerTableRecord
  2
BOARD_PRODUCER_TESTIMONI_14_F_3
 70
0
 62
7
  6
CONTINUOUS
370
-3
390
F
  0
LAYER
  5
268
100
AcDbSymbolTableRecord
100
AcDbLayerTableRecord
  2
CAP-E-SMD-8_3-8_3-10_5_1050000
 70
0
 62
7
  6
CONTINUOUS
370
-3
390
F
  0
LAYER
  5
269
100
AcDbSymbolTableRecord
100
AcDbLayerTableRecord
  2
CAP-E-SMD-8_3-8_3-10_5_105000_1
 70
0
 62
7
  6
CONTINUOUS
370
-3
390
F
  0
LAYER
  5
26A
100
AcDbSymbolTableRecord
100
AcDbLayerTableRecord
  2
CN_M_THT_P5_R1_P3_SET_1750000
 70
0
 62
7
  6
CONTINUOUS
370
-3
390
F
  0
LAYER
  5
26B
100
AcDbSymbolTableRecord
100
AcDbLayerTableRecord
  2
COLOR15
 70
0
 62
7
  6
CONTINUOUS
370
-3
390
F
  0
LAYER
  5
26C
100
AcDbSymbolTableRecord
100
AcDbLayerTableRecord
  2
COLOR16
 70
0
 62
7
  6
CONTINUOUS
370
-3
390
F
  0
LAYER
  5
26D
100
AcDbSymbolTableRecord
100
AcDbLayerTableRecord
  2
COLORE_MATERIALE
 70
0
 62
7
  6
CONTINUOUS
370
-3
390
F
  0
LAYER
  5
26E
100
AcDbSymbolTableRecord
100
AcDbLayerTableRecord
  2
COORDINATE
 70
0
 62
7
  6
CONTINUOUS
370
-3
390
F
  0
LAYER
  5
26F
100
AcDbSymbolTableRecord
100
AcDbLayerTableRecord
  2
COORD_ORIGINE
 70
0
 62
7
  6
CONTINUOUS
370
-3
390
F
  0
LAYER
  5
270
100
AcDbSymbolTableRecord
100
AcDbLayerTableRecord
  2
COPY_PUBLISH
 70
0
 62
7
  6
CONTINUOUS
370
-3
390
F
  0
LAYER
  5
271
100
AcDbSymbolTableRecord
100
AcDbLayerTableRecord
  2
COSMETICI
 70
0
 62
7
  6
CONTINUOUS
370
-3
390
F
  0
LAYER
  5
272
100
AcDbSymbolTableRecord
100
AcDbLayerTableRecord
  2
CURVE
 70
0
 62
7
  6
CONTINUOUS
370
-3
390
F
  0
LAYER
  5
273
100
AcDbSymbolTableRecord
100
AcDbLayerTableRecord
  2
DL_RGB_1_6-1_6-0_5MM_50000
 70
0
 62
7
  6
CONTINUOUS
370
-3
390
F
  0
LAYER
  5
274
100
AcDbSymbolTableRecord
100
AcDbLayerTableRecord
  2
DL_RGB_1_6-1_6-0_5MM_50000_1
 70
0
 62
7
  6
CONTINUOUS
370
-3
390
F
  0
LAYER
  5
275
100
AcDbSymbolTableRecord
100
AcDbLayerTableRecord
  2
DRAFT
 70
0
 62
7
  6
CONTINUOUS
370
-3
390
F
  0
LAYER
  5
276
100
AcDbSymbolTableRecord
100
AcDbLayerTableRecord
  2
E4_MARK_10000
 70
0
 62
7
  6
CONTINUOUS
370
-3
390
F
  0
LAYER
  5
277
100
AcDbSymbolTableRecord
100
AcDbLayerTableRecord
  2
FIDUCIAL_1MM_0
 70
0
 62
7
  6
CONTINUOUS
370
-3
390
F
  0
LAYER
  5
278
100
AcDbSymbolTableRecord
100
AcDbLayerTableRecord
  2
FIDUCIAL_1MM_0_1
 70
0
 62
7
  6
CONTINUOUS
370
-3
390
F
  0
LAYER
  5
279
100
AcDbSymbolTableRecord
100
AcDbLayerTableRecord
  2
FIDUCIAL_1MM_0_2
 70
0
 62
7
  6
CONTINUOUS
370
-3
390
F
  0
LAYER
  5
27A
100
AcDbSymbolTableRecord
100
AcDbLayerTableRecord
  2
FIDUCIAL_1MM_0_3
 70
0
 62
7
  6
CONTINUOUS
370
-3
390
F
  0
LAYER
  5
27B
100
AcDbSymbolTableRecord
100
AcDbLayerTableRecord
  2
FIDUCIAL_1_2_MM_RUOTATO_45_1000
 70
0
 62
7
  6
CONTINUOUS
370
-3
390
F
  0
LAYER
  5
27C
100
AcDbSymbolTableRecord
100
AcDbLayerTableRecord
  2
FIDUCIAL_1_2_MM_RUOTATO_45_10_1
 70
0
 62
7
  6
CONTINUOUS
370
-3
390
F
  0
LAYER
  5
27D
100
AcDbSymbolTableRecord
100
AcDbLayerTableRecord
  2
FIDUCIAL_1_2_MM_RUOTATO_45_10_2
 70
0
 62
7
  6
CONTINUOUS
370
-3
390
F
  0
LAYER
  5
27E
100
AcDbSymbolTableRecord
100
AcDbLayerTableRecord
  2
FIDUCIAL_1_2_MM_RUOTATO_45_10_3
 70
0
 62
7
  6
CONTINUOUS
370
-3
390
F
  0
LAYER
  5
27F
100
AcDbSymbolTableRecord
100
AcDbLayerTableRecord
  2
GEOMETRIA_SOLIDA
 70
0
 62
7
  6
CONTINUOUS
370
-3
390
F
  0
LAYER
  5
280
100
AcDbSymbolTableRecord
100
AcDbLayerTableRecord
  2
GEOMETRIA_SOLIDA_1
 70
0
 62
7
  6
CONTINUOUS
370
-3
390
F
  0
LAYER
  5
281
100
AcDbSymbolTableRecord
100
AcDbLayerTableRecord
  2
GEOMETRIA_SOLIDA_2
 70
0
 62
7
  6
CONTINUOUS
370
-3
390
F
  0
LAYER
  5
282
100
AcDbSymbolTableRecord
100
AcDbLayerTableRecord
  2
GEOMETRIA_SOLIDA_3
 70
0
 62
7
  6
CONTINUOUS
370
-3
390
F
  0
LAYER
  5
283
100
AcDbSymbolTableRecord
100
AcDbLayerTableRecord
  2
GEOMETRIA_SOLIDA_4
 70
0
 62
7
  6
CONTINUOUS
370
-3
390
F
  0
LAYER
  5
284
100
AcDbSymbolTableRecord
100
AcDbLayerTableRecord
  2
GEOMETRIA_SOLIDA_5
 70
0
 62
7
  6
CONTINUOUS
370
-3
390
F
  0
LAYER
  5
285
100
AcDbSymbolTableRecord
100
AcDbLayerTableRecord
  2
IMPORT_IGES
 70
0
 62
7
  6
CONTINUOUS
370
-3
390
F
  0
LAYER
  5
286
100
AcDbSymbolTableRecord
100
AcDbLayerTableRecord
  2
IMPORT_IGES_2
 70
0
 62
7
  6
CONTINUOUS
370
-3
390
F
  0
LAYER
  5
287
100
AcDbSymbolTableRecord
100
AcDbLayerTableRecord
  2
IMPORT_IGES_3
 70
0
 62
7
  6
CONTINUOUS
370
-3
390
F
  0
LAYER
  5
288
100
AcDbSymbolTableRecord
100
AcDbLayerTableRecord
  2
IND-CHIP-0805_H1_2_REF_140000
 70
0
 62
7
  6
CONTINUOUS
370
-3
390
F
  0
LAYER
  5
289
100
AcDbSymbolTableRecord
100
AcDbLayerTableRecord
  2
INTF_1
 70
0
 62
7
  6
CONTINUOUS
370
-3
390
F
  0
LAYER
  5
28A
100
AcDbSymbolTableRecord
100
AcDbLayerTableRecord
  2
INTF_11
 70
0
 62
7
  6
CONTINUOUS
370
-3
390
F
  0
LAYER
  5
28B
100
AcDbSymbolTableRecord
100
AcDbLayerTableRecord
  2
INTF_2
 70
0
 62
7
  6
CONTINUOUS
370
-3
390
F
  0
LAYER
  5
28C
100
AcDbSymbolTableRecord
100
AcDbLayerTableRecord
  2
INTF_24
 70
0
 62
7
  6
CONTINUOUS
370
-3
390
F
  0
LAYER
  5
28D
100
AcDbSymbolTableRecord
100
AcDbLayerTableRecord
  2
INTF_BLANK
 70
0
 62
7
  6
CONTINUOUS
370
-3
390
F
  0
LAYER
  5
28E
100
AcDbSymbolTableRecord
100
AcDbLayerTableRecord
  2
INTF_BLUE
 70
0
 62
7
  6
CONTINUOUS
370
-3
390
F
  0
LAYER
  5
28F
100
AcDbSymbolTableRecord
100
AcDbLayerTableRecord
  2
INTF_CYAN
 70
0
 62
7
  6
CONTINUOUS
370
-3
390
F
  0
LAYER
  5
290
100
AcDbSymbolTableRecord
100
AcDbLayerTableRecord
  2
INTF_GREEN
 70
0
 62
7
  6
CONTINUOUS
370
-3
390
F
  0
LAYER
  5
291
100
AcDbSymbolTableRecord
100
AcDbLayerTableRecord
  2
LOGO_RESIST-RESTYLING_10000
 70
0
 62
7
  6
CONTINUOUS
370
-3
390
F
  0
LAYER
  5
292
100
AcDbSymbolTableRecord
100
AcDbLayerTableRecord
  2
MM2-SWITCH-1-VIMAR_150000
 70
0
 62
7
  6
CONTINUOUS
370
-3
390
F
  0
LAYER
  5
293
100
AcDbSymbolTableRecord
100
AcDbLayerTableRecord
  2
NO-PB_MARK_10000
 70
0
 62
7
  6
CONTINUOUS
370
-3
390
F
  0
LAYER
  5
294
100
AcDbSymbolTableRecord
100
AcDbLayerTableRecord
  2
NOTE
 70
0
 62
7
  6
CONTINUOUS
370
-3
390
F
  0
LAYER
  5
295
100
AcDbSymbolTableRecord
100
AcDbLayerTableRecord
  2
PIANI
 70
0
 62
7
  6
CONTINUOUS
370
-3
390
F
  0
LAYER
  5
296
100
AcDbSymbolTableRecord
100
AcDbLayerTableRecord
  2
PIANI_ORIGINE
 70
0
 62
7
  6
CONTINUOUS
370
-3
390
F
  0
LAYER
  5
297
100
AcDbSymbolTableRecord
100
AcDbLayerTableRecord
  2
PIANI_RIFERIMENTO
 70
0
 62
7
  6
CONTINUOUS
370
-3
390
F
  0
LAYER
  5
298
100
AcDbSymbolTableRecord
100
AcDbLayerTableRecord
  2
PROVA_QFN
 70
0
 62
7
  6
CONTINUOUS
370
-3
390
F
  0
LAYER
  5
299
100
AcDbSymbolTableRecord
100
AcDbLayerTableRecord
  2
PUNTI
 70
0
 62
7
  6
CONTINUOUS
370
-3
390
F
  0
LAYER
  5
29A
100
AcDbSymbolTableRecord
100
AcDbLayerTableRecord
  2
RACCORDO
 70
0
 62
7
  6
CONTINUOUS
370
-3
390
F
  0
LAYER
  5
29B
100
AcDbSymbolTableRecord
100
AcDbLayerTableRecord
  2
SC88-6_REF_H1_1_110000
 70
0
 62
7
  6
CONTINUOUS
370
-3
390
F
  0
LAYER
  5
29C
100
AcDbSymbolTableRecord
100
AcDbLayerTableRecord
  2
SC88-6_REF_H1_1_110000_1
 70
0
 62
7
  6
CONTINUOUS
370
-3
390
F
  0
LAYER
  5
29D
100
AcDbSymbolTableRecord
100
AcDbLayerTableRecord
  2
SC88-6_REF_H1_1_110000_2
 70
0
 62
7
  6
CONTINUOUS
370
-3
390
F
  0
LAYER
  5
29E
100
AcDbSymbolTableRecord
100
AcDbLayerTableRecord
  2
SIMBOLI
 70
0
 62
7
  6
CONTINUOUS
370
-3
390
F
  0
LAYER
  5
29F
100
AcDbSymbolTableRecord
100
AcDbLayerTableRecord
  2
SMUSSO
 70
0
 62
7
  6
CONTINUOUS
370
-3
390
F
  0
LAYER
  5
2A0
100
AcDbSymbolTableRecord
100
AcDbLayerTableRecord
  2
SNAPLINE
 70
0
 62
7
  6
CONTINUOUS
370
-3
390
F
  0
LAYER
  5
2A1
100
AcDbSymbolTableRecord
100
AcDbLayerTableRecord
  2
SOD123_REF_140000
 70
0
 62
7
  6
CONTINUOUS
370
-3
390
F
  0
LAYER
  5
2A2
100
AcDbSymbolTableRecord
100
AcDbLayerTableRecord
  2
SOT23-5_REF_H1_5_150000
 70
0
 62
7
  6
CONTINUOUS
370
-3
390
F
  0
LAYER
  5
2A3
100
AcDbSymbolTableRecord
100
AcDbLayerTableRecord
  2
SOT323_H1_1_REF_110000
 70
0
 62
7
  6
CONTINUOUS
370
-3
390
F
  0
LAYER
  5
2A4
100
AcDbSymbolTableRecord
100
AcDbLayerTableRecord
  2
SOT89_REF_H1_6_160000
 70
0
 62
7
  6
CONTINUOUS
370
-3
390
F
  0
LAYER
  5
2A5
100
AcDbSymbolTableRecord
100
AcDbLayerTableRecord
  2
SUB_SMA_143000
 70
0
 62
7
  6
CONTINUOUS
370
-3
390
F
  0
LAYER
  5
2A6
100
AcDbSymbolTableRecord
100
AcDbLayerTableRecord
  2
SUB_SMA_143000_1
 70
0
 62
7
  6
CONTINUOUS
370
-3
390
F
  0
LAYER
  5
2A7
100
AcDbSymbolTableRecord
100
AcDbLayerTableRecord
  2
SUB_SMA_143000_2
 70
0
 62
7
  6
CONTINUOUS
370
-3
390
F
  0
LAYER
  5
2A8
100
AcDbSymbolTableRecord
100
AcDbLayerTableRecord
  2
SUPERFICI
 70
0
 62
7
  6
CONTINUOUS
370
-3
390
F
  0
LAYER
  5
2A9
100
AcDbSymbolTableRecord
100
AcDbLayerTableRecord
  2
SWITCH_SKRP_250000
 70
0
 62
7
  6
CONTINUOUS
370
-3
390
F
  0
LAYER
  5
2AA
100
AcDbSymbolTableRecord
100
AcDbLayerTableRecord
  2
SWITCH_SKRP_250000_1
 70
0
 62
7
  6
CONTINUOUS
370
-3
390
F
  0
LAYER
  5
2AB
100
AcDbSymbolTableRecord
100
AcDbLayerTableRecord
  2
SWITCH_SKRP_250000_2
 70
0
 62
7
  6
CONTINUOUS
370
-3
390
F
  0
LAYER
  5
2AC
100
AcDbSymbolTableRecord
100
AcDbLayerTableRecord
  2
TP-RND-0_8_3500
 70
0
 62
7
  6
CONTINUOUS
370
-3
390
F
  0
LAYER
  5
2AD
100
AcDbSymbolTableRecord
100
AcDbLayerTableRecord
  2
TP-RND-0_8_3500_1
 70
0
 62
7
  6
CONTINUOUS
370
-3
390
F
  0
LAYER
  5
2AE
100
AcDbSymbolTableRecord
100
AcDbLayerTableRecord
  2
TP-RND-0_8_3500_10
 70
0
 62
7
  6
CONTINUOUS
370
-3
390
F
  0
LAYER
  5
2AF
100
AcDbSymbolTableRecord
100
AcDbLayerTableRecord
  2
TP-RND-0_8_3500_11
 70
0
 62
7
  6
CONTINUOUS
370
-3
390
F
  0
LAYER
  5
2B0
100
AcDbSymbolTableRecord
100
AcDbLayerTableRecord
  2
TP-RND-0_8_3500_2
 70
0
 62
7
  6
CONTINUOUS
370
-3
390
F
  0
LAYER
  5
2B1
100
AcDbSymbolTableRecord
100
AcDbLayerTableRecord
  2
TP-RND-0_8_3500_3
 70
0
 62
7
  6
CONTINUOUS
370
-3
390
F
  0
LAYER
  5
2B2
100
AcDbSymbolTableRecord
100
AcDbLayerTableRecord
  2
TP-RND-0_8_3500_4
 70
0
 62
7
  6
CONTINUOUS
370
-3
390
F
  0
LAYER
  5
2B3
100
AcDbSymbolTableRecord
100
AcDbLayerTableRecord
  2
TP-RND-0_8_3500_5
 70
0
 62
7
  6
CONTINUOUS
370
-3
390
F
  0
LAYER
  5
2B4
100
AcDbSymbolTableRecord
100
AcDbLayerTableRecord
  2
TP-RND-0_8_3500_6
 70
0
 62
7
  6
CONTINUOUS
370
-3
390
F
  0
LAYER
  5
2B5
100
AcDbSymbolTableRecord
100
AcDbLayerTableRecord
  2
TP-RND-0_8_3500_7
 70
0
 62
7
  6
CONTINUOUS
370
-3
390
F
  0
LAYER
  5
2B6
100
AcDbSymbolTableRecord
100
AcDbLayerTableRecord
  2
TP-RND-0_8_3500_8
 70
0
 62
7
  6
CONTINUOUS
370
-3
390
F
  0
LAYER
  5
2B7
100
AcDbSymbolTableRecord
100
AcDbLayerTableRecord
  2
TP-RND-0_8_3500_9
 70
0
 62
7
  6
CONTINUOUS
370
-3
390
F
  0
LAYER
  5
2B8
100
AcDbSymbolTableRecord
100
AcDbLayerTableRecord
  2
TP-RND-1_0_3500
 70
0
 62
7
  6
CONTINUOUS
370
-3
390
F
  0
LAYER
  5
2B9
100
AcDbSymbolTableRecord
100
AcDbLayerTableRecord
  2
TP-RND-1_5_1000
 70
0
 62
7
  6
CONTINUOUS
370
-3
390
F
  0
LAYER
  5
2BA
100
AcDbSymbolTableRecord
100
AcDbLayerTableRecord
  2
TP-RND-1_5_1000_1
 70
0
 62
7
  6
CONTINUOUS
370
-3
390
F
  0
LAYER
  5
2BB
100
AcDbSymbolTableRecord
100
AcDbLayerTableRecord
  2
TP-RND-1_5_1000_2
 70
0
 62
7
  6
CONTINUOUS
370
-3
390
F
  0
LAYER
  5
2BC
100
AcDbSymbolTableRecord
100
AcDbLayerTableRecord
  2
TP-RND-1_5_1000_3
 70
0
 62
7
  6
CONTINUOUS
370
-3
390
F
  0
LAYER
  5
2BD
100
AcDbSymbolTableRecord
100
AcDbLayerTableRecord
  2
TP-RND-1_5_1000_4
 70
0
 62
7
  6
CONTINUOUS
370
-3
390
F
  0
LAYER
  5
2BE
100
AcDbSymbolTableRecord
100
AcDbLayerTableRecord
  2
TP-RND-1_5_1000_5
 70
0
 62
7
  6
CONTINUOUS
370
-3
390
F
  0
LAYER
  5
2BF
100
AcDbSymbolTableRecord
100
AcDbLayerTableRecord
  2
TP_PROGRAMMAZIONE_SWD_D1_5_1000
 70
0
 62
7
  6
CONTINUOUS
370
-3
390
F
  0
LAYER
  5
2C0
100
AcDbSymbolTableRecord
100
AcDbLayerTableRecord
  2
TRASH
 70
0
 62
7
  6
CONTINUOUS
370
-3
390
F
  0
LAYER
  5
2C1
100
AcDbSymbolTableRecord
100
AcDbLayerTableRecord
  2
VG_CN-MEZZANINE-F-SMT-P0_8-R2-P
 70
0
 62
7
  6
CONTINUOUS
370
-3
390
F
  0
LAYER
  5
2C2
100
AcDbSymbolTableRecord
100
AcDbLayerTableRecord
  2
VG_CN-MEZZANINE-M-SMT-P0_8-R2-P
 70
0
 62
7
  6
CONTINUOUS
370
-3
390
F
  0
LAYER
  5
2C3
100
AcDbSymbolTableRecord
100
AcDbLayerTableRecord
  2
VG_IND-CHIP-0402-POL-1_0-REF_10
 70
0
 62
7
  6
CONTINUOUS
370
-3
390
F
  0
LAYER
  5
2C4
100
AcDbSymbolTableRecord
100
AcDbLayerTableRecord
  2
VG_IND-CHIP-0402-POL-1_0-REF__1
 70
0
 62
7
  6
CONTINUOUS
370
-3
390
F
  0
LAYER
  5
2C5
100
AcDbSymbolTableRecord
100
AcDbLayerTableRecord
  2
VG_IND-RAD-8_8-7_5-5_0-0_6_7500
 70
0
 62
7
  6
CONTINUOUS
370
-3
390
F
  0
LAYER
  5
2C6
100
AcDbSymbolTableRecord
100
AcDbLayerTableRecord
  2
VG_IND-SMT-4_0-4_0-2_5-1_55-3_6
 70
0
 62
7
  6
CONTINUOUS
370
-3
390
F
  0
LAYER
  5
2C7
100
AcDbSymbolTableRecord
100
AcDbLayerTableRecord
  2
VG_IND-SMT-7_8-7_8-5_3-2_4-8_0-
 70
0
 62
7
  6
CONTINUOUS
370
-3
390
F
  0
LAYER
  5
2C8
100
AcDbSymbolTableRecord
100
AcDbLayerTableRecord
  2
VG_IND-SMT-8_0-8_0-6_5-4_0-6_3-
 70
0
 62
7
  6
CONTINUOUS
370
-3
390
F
  0
LAYER
  5
2C9
100
AcDbSymbolTableRecord
100
AcDbLayerTableRecord
  2
VG_K_THT_HONGFA_HF115FK-H3T_160
 70
0
 62
7
  6
CONTINUOUS
370
-3
390
F
  0
LAYER
  5
2CA
100
AcDbSymbolTableRecord
100
AcDbLayerTableRecord
  2
VG_PB-2-3_9-2_9-2_0-SMT_200000
 70
0
 62
7
  6
CONTINUOUS
370
-3
390
F
  0
LAYER
  5
2CB
100
AcDbSymbolTableRecord
100
AcDbLayerTableRecord
  2
VG_PTC-6_5-10_0-5_0-5_0-0-0_6_1
 70
0
 62
7
  6
CONTINUOUS
370
-3
390
F
  0
LAYER
  5
2CC
100
AcDbSymbolTableRecord
100
AcDbLayerTableRecord
  2
VG_QCS5F_40000
 70
0
 62
7
  6
CONTINUOUS
370
-3
390
F
  0
LAYER
  5
2CD
100
AcDbSymbolTableRecord
100
AcDbLayerTableRecord
  2
VG_QFN24-4_0-4_0-4_0-4_0-1_0-0_
 70
0
 62
7
  6
CONTINUOUS
370
-3
390
F
  0
LAYER
  5
2CE
100
AcDbSymbolTableRecord
100
AcDbLayerTableRecord
  2
VG_QFN48-6_0-6_0-6_0-6_0-1_0-0_
 70
0
 62
7
  6
CONTINUOUS
370
-3
390
F
  0
LAYER
  5
2CF
100
AcDbSymbolTableRecord
100
AcDbLayerTableRecord
  2
VG_QFN73-7_0-7_0-7_0-7_0-0_85-0
 70
0
 62
7
  6
CONTINUOUS
370
-3
390
F
  0
LAYER
  5
2D0
100
AcDbSymbolTableRecord
100
AcDbLayerTableRecord
  2
VG_VAR_S05_D7_S4_3_H8_5_850000
 70
0
 62
7
  6
CONTINUOUS
370
-3
390
F
  0
LAYER
  5
2D1
100
AcDbSymbolTableRecord
100
AcDbLayerTableRecord
  2
VG_X-SMT-2-3_2-1_5-1_0_100000
 70
0
 62
7
  6
CONTINUOUS
370
-3
390
F
  0
LAYER
  5
2D2
100
AcDbSymbolTableRecord
100
AcDbLayerTableRecord
  2
VG_X-SMT-2-5_0-3_2-1_5_150000
 70
0
 62
7
  6
CONTINUOUS
370
-3
390
F
  0
LAYER
  5
2D3
100
AcDbSymbolTableRecord
100
AcDbLayerTableRecord
  2
X-SMD-3PIN-3_2-2_5_70000
 70
0
 62
7
  6
CONTINUOUS
370
-3
390
F
  0
LAYER
  5
2D4
100
AcDbSymbolTableRecord
100
AcDbLayerTableRecord
  2
XSEC_DATUMS
 70
0
 62
7
  6
CONTINUOUS
370
-3
390
F
  0
LAYER
  5
2D5
100
AcDbSymbolTableRecord
100
AcDbLayerTableRecord
  2
___SHELL
 70
0
 62
7
  6
CONTINUOUS
370
-3
390
F
  0
ENDTAB
  0
TABLE
  2
STYLE
  5
3
100
AcDbSymbolTable
 70
1
  0
STYLE
  5
11
100
AcDbSymbolTableRecord
100
AcDbTextStyleTableRecord
  2
STANDARD
 70
0
 40
0.0
 41
0.8
 50
0.0
 71
0
 42
0.2
  3
txt
  4

  0
STYLE
  5
2D6
100
AcDbSymbolTableRecord
100
AcDbTextStyleTableRecord
  2
TEXTSTYLE_1
 70
0
 40
0.0
 41
0.8
 50
0.0
 71
0
 42
0.2
  3
gdt
  4

  0
ENDTAB
  0
TABLE
  2
VIEW
  5
6
100
AcDbSymbolTable
 70
0
  0
ENDTAB
  0
TABLE
  2
UCS
  5
7
100
AcDbSymbolTable
 70
0
  0
ENDTAB
  0
TABLE
  2
APPID
  5
9
100
AcDbSymbolTable
 70
1
  0
APPID
  5
2D7
100
AcDbSymbolTableRecord
100
AcDbRegAppTableRecord
  2
ACAD
 70
0
  0
ENDTAB
  0
TABLE
  2
BLOCK_RECORD
  5
1
100
AcDbSymbolTable
 70
0
  0
BLOCK_RECORD
  5
2D8
100
AcDbSymbolTableRecord
100
AcDbBlockTableRecord
  2
*Model_Space
  0
BLOCK_RECORD
  5
2D9
100
AcDbSymbolTableRecord
100
AcDbBlockTableRecord
  2
*Paper_Space
  0
BLOCK_RECORD
  5
2DA
100
AcDbSymbolTableRecord
100
AcDbBlockTableRecord
  2
_FILLED
  0
ENDTAB
  0
TABLE
  2
DIMSTYLE
  5
A
100
AcDbSymbolTable
 70
1
100
AcDbDimStyleTable
 71
0
  0
DIMSTYLE
105
2DB
100
AcDbSymbolTableRecord
100
AcDbDimStyleTableRecord
  2
STANDARD
 70
0
  3

  4

 40
1.0
 41
3.0
 42
0.5
 43
0.38
 44
1.5
 45
0.0
 46
0.0
 47
0.01
 48
0.01
140
3.0
141
0.09
142
0.0
143
25.4
144
1.0
145
0.0
146
1.0
147
0.625
 71
1.0
 72
0.0
 73
0
 74
0
 75
0
 76
0
 77
1
 78
8
 79
2
170
0
171
1
172
0
173
0
174
0
175
0
176
0
177
0
178
0
270
2
179
2
271
2
272
2
273
2
274
2
275
0
280
0
281
0
282
0
283
1
284
8
285
0
286
0
287
3
288
0
340
11
278
44
341
2DA
342
2DA
343
2DA
344
2DA
  0
ENDTAB
  0
ENDSEC
  0
SECTION
  2
BLOCKS
  0
BLOCK
  5
20
100
AcDbEntity
  8
0
100
AcDbBlockBegin
  2
*Model_Space
 70
0
 10
0.0
 20
0.0
 30
0.0
  3
*Model_Space
  1

  0
ENDBLK
  5
21
100
AcDbEntity
  8
0
100
AcDbBlockEnd
  0
BLOCK
  5
1C
100
AcDbEntity
  8
0
100
AcDbBlockBegin
  2
*Paper_Space
 70
0
 10
0.0
 20
0.0
 30
0.0
  3
*Paper_Space
  1

  0
ENDBLK
  5
1D
100
AcDbEntity
  8
0
100
AcDbBlockEnd
  0
BLOCK
  5
2DC
100
AcDbEntity
  8
0
100
AcDbBlockBegin
  2
_FILLED
 70
64
 10
0.0
 20
0.0
  3
_FILLED
  1

  0
SOLID
  5
2DD
100
AcDbEntity
  8
0
  6
BYBLOCK
 62
0
100
AcDbTrace
 10
0.0
 20
0.0
 11
-1.0
 21
0.3166666667
 12
-1.0
 22
-0.3166666667
 13
-1.0
 23
-0.3166666667
  0
ENDBLK
  5
2DE
100
AcDbEntity
  8
0
  6
BYBLOCK
 62
0
100
AcDbBlockEnd
  0
ENDSEC
  0
SECTION
  2
ENTITIES
  0
LWPOLYLINE
  5
2DF
100
AcDbEntity
  8
ASSI
100
AcDbPolyline
 62
7
  6
CONTINUOUS
 90
9
 70
0
 10
-10.5233692717
 20
24.8156778231
 10
-10.5122207961
 20
24.8198359187
 10
-10.5008871014
 20
24.8234588391
 10
-10.4893938612
 20
24.8265383791
 10
-10.4777671099
 20
24.8290675651
 10
-10.4660331885
 20
24.8310406715
 10
-10.4542186779
 20
24.8324532316
 10
-10.4423503384
 20
24.8333020471
 10
-10.4304550532
 20
24.8335851974
  0
LWPOLYLINE
  5
2E0
100
AcDbEntity
  8
RACCORDO
100
AcDbPolyline
 62
7
  6
CONTINUOUS
 90
5
 70
0
 10
10.4168654651
 20
-24.1618971704
 10
10.4051315438
 20
-24.1638702768
 10
10.3933170332
 20
-24.1652828369
 10
10.3814486936
 20
-24.1661316524
 10
10.3695534084
 20
-24.1664148026
  0
LINE
  5
2E1
100
AcDbEntity
  8
ASSI
100
AcDbLine
 62
7
  6
CONTINUOUS
 10
-10.452963297
 20
-24.1605927562
 11
-10.4651222281
 21
-24.1589746946
  0
LWPOLYLINE
  5
2E2
100
AcDbEntity
  8
RACCORDO
100
AcDbPolyline
 62
7
  6
CONTINUOUS
 90
5
 70
0
 10
-10.4660331885
 20
-24.1638702768
 10
-10.4777671099
 20
-24.1618971704
 10
-10.4893938612
 20
-24.1593679843
 10
-10.5008871014
 20
-24.1562884443
 10
-10.5122207961
 20
-24.152665524
  0
LWPOLYLINE
  5
2E3
100
AcDbEntity
  8
ASSI
100
AcDbPolyline
 62
7
  6
CONTINUOUS
 90
8
 70
0
 10
-10.4660331885
 20
-24.1638702768
 10
-10.4777671099
 20
-24.1618971704
 10
-10.4893938612
 20
-24.1593679843
 10
-10.5008871014
 20
-24.1562884443
 10
-10.5122207961
 20
-24.152665524
 10
-10.5233692717
 20
-24.1485074284
 10
-10.5343072687
 20
-24.1438235748
 10
-10.54501001
 20
-24.1386245715
  0
LWPOLYLINE
  5
2E4
100
AcDbEntity
  8
ASSI
100
AcDbPolyline
 62
7
  6
CONTINUOUS
 90
28
 70
0
 10
-10.4651222281
 20
-24.1589746946
 10
-10.4779879468
 20
-24.1565935644
 10
-10.490719412
 20
-24.153540451
 10
-10.5032735966
 20
-24.1498250113
 10
-10.5156134005
 20
-24.1454584602
 10
-10.5277077566
 20
-24.1404520303
 10
-10.5395238349
 20
-24.1348192817
 10
-10.5510294353
 20
-24.1285754801
 10
-10.5621927537
 20
-24.1217377982
 10
-10.5729828329
 20
-24.1143251682
 10
-10.5833699588
 20
-24.106358026
 10
-10.5933257959
 20
-24.097858129
 10
-10.6028231304
 20
-24.0888487072
 10
-10.6118359495
 20
-24.0793544141
 10
-10.620339491
 20
-24.0694013106
 10
-10.6283103992
 20
-24.0590167214
 10
-10.6357268061
 20
-24.0482291311
 10
-10.6425683819
 20
-24.0370681051
 10
-10.648816361
 20
-24.0255642493
 10
-10.6544536093
 20
-24.0137491037
 10
-10.6594646648
 20
-24.0016550664
 10
-10.6638357798
 20
-23.9893153103
 10
-10.6675549694
 20
-23.9767636629
 10
-10.6706120305
 20
-23.9640345489
 10
-10.6729985732
 20
-23.9511629093
 10
-10.6747080564
 20
-23.9381840519
 10
-10.6757357994
 20
-23.9251335535
 10
-10.6760747083
 20
-23.9135016325
  0
LWPOLYLINE
  5
2E5
100
AcDbEntity
  8
RACCORDO
100
AcDbPolyline
 62
250
  6
CONTINUOUS
 90
21
 70
0
 10
-10.5032735966
 20
-24.1498250113
 10
-10.5156134005
 20
-24.1454584602
 10
-10.5277077566
 20
-24.1404520303
 10
-10.5395238349
 20
-24.1348192817
 10
-10.5510294353
 20
-24.1285754801
 10
-10.5621927537
 20
-24.1217377982
 10
-10.5729828329
 20
-24.1143251682
 10
-10.5833699588
 20
-24.106358026
 10
-10.5933257959
 20
-24.097858129
 10
-10.6028231304
 20
-24.0888487072
 10
-10.6118359495
 20
-24.0793544141
 10
-10.620339491
 20
-24.0694013106
 10
-10.6283103992
 20
-24.0590167214
 10
-10.6357268061
 20
-24.0482291311
 10
-10.6425683819
 20
-24.0370681051
 10
-10.648816361
 20
-24.0255642493
 10
-10.6544536093
 20
-24.0137491037
 10
-10.6594646648
 20
-24.0016550664
 10
-10.6638357798
 20
-23.9893153103
 10
-10.6675549694
 20
-23.9767636629
 10
-10.6706120305
 20
-23.9640345489
  0
LWPOLYLINE
  5
2E6
100
AcDbEntity
  8
RACCORDO
100
AcDbPolyline
 62
7
  6
CONTINUOUS
 90
23
 70
0
 10
-10.5122207961
 20
-24.152665524
 10
-10.5233692717
 20
-24.1485074284
 10
-10.5343072687
 20
-24.1438235748
 10
-10.54501001
 20
-24.1386245715
 10
-10.5554532506
 20
-24.1329221943
 10
-10.5656133283
 20
-24.1267293608
 10
-10.5754672275
 20
-24.1200600981
 10
-10.5849926262
 20
-24.1129295133
 10
-10.5941679414
 20
-24.1053537615
 10
-10.6029723885
 20
-24.0973500031
 10
-10.6113860229
 20
-24.0889363687
 10
-10.6193897812
 20
-24.0801319217
 10
-10.6269655331
 20
-24.0709566065
 10
-10.6340961178
 20
-24.0614312078
 10
-10.6407653805
 20
-24.0515773085
 10
-10.646958214
 20
-24.0414172309
 10
-10.6526605912
 20
-24.0309739902
 10
-10.6578595945
 20
-24.0202712489
 10
-10.6625434481
 20
-24.0093332519
 10
-10.6667015437
 20
-23.9981847764
 10
-10.6703244641
 20
-23.9868510816
 10
-10.6734040041
 20
-23.9753578414
 10
-10.6759331901
 20
-23.9637310901
  0
LWPOLYLINE
  5
2E7
100
AcDbEntity
  8
ASSI
100
AcDbPolyline
 62
7
  6
CONTINUOUS
 90
16
 70
0
 10
-10.54501001
 20
-24.1386245715
 10
-10.5554532506
 20
-24.1329221943
 10
-10.5656133283
 20
-24.1267293608
 10
-10.5754672275
 20
-24.1200600981
 10
-10.5849926262
 20
-24.1129295133
 10
-10.5941679414
 20
-24.1053537615
 10
-10.6029723885
 20
-24.0973500031
 10
-10.6113860229
 20
-24.0889363687
 10
-10.6193897812
 20
-24.0801319217
 10
-10.6269655331
 20
-24.0709566065
 10
-10.6340961178
 20
-24.0614312078
 10
-10.6407653805
 20
-24.0515773085
 10
-10.646958214
 20
-24.0414172309
 10
-10.6526605912
 20
-24.0309739902
 10
-10.6578595945
 20
-24.0202712489
 10
-10.6625434481
 20
-24.0093332519
  0
LINE
  5
2E8
100
AcDbEntity
  8
RACCORDO
100
AcDbLine
 62
250
  6
CONTINUOUS
 10
-10.6789537354
 20
22.7305318016
 11
-10.6728464788
 21
22.7335851974
  0
LINE
  5
2E9
100
AcDbEntity
  8
ASSI
100
AcDbLine
 62
250
  6
CONTINUOUS
 10
-10.6789537354
 20
22.7305318016
 11
-10.6728464788
 21
22.7335851974
  0
LWPOLYLINE
  5
2EA
100
AcDbEntity
  8
ASSI
100
AcDbPolyline
 62
250
  6
CONTINUOUS
 90
3
 70
0
 10
-8.5079383477
 20
-24.1605927562
 10
-8.5217660856
 20
-24.1617015614
 10
-8.5348184256
 20
-24.1620429686
  0
LINE
  5
2EB
100
AcDbEntity
  8
RACCORDO
100
AcDbLine
 62
250
  6
CONTINUOUS
 10
-10.4260832192
 20
-24.1620429686
 11
-8.5348184256
 21
-24.1620429686
  0
LINE
  5
2EC
100
AcDbEntity
  8
ASSI
100
AcDbLine
 62
7
  6
CONTINUOUS
 10
-10.4260832192
 20
-24.1620429686
 11
-8.5348184256
 21
-24.1620429686
  0
LINE
  5
2ED
100
AcDbEntity
  8
RACCORDO
100
AcDbLine
 62
250
  6
CONTINUOUS
 10
8.4739167808
 20
-24.1620429686
 11
10.3651815744
 21
-24.1620429686
  0
LINE
  5
2EE
100
AcDbEntity
  8
ASSI
100
AcDbLine
 62
7
  6
CONTINUOUS
 10
8.4739167808
 20
-24.1620429686
 11
10.3651815744
 21
-24.1620429686
  0
LINE
  5
2EF
100
AcDbEntity
  8
RACCORDO
100
AcDbLine
 62
250
  6
CONTINUOUS
 10
8.2239210116
 20
-23.9120471994
 11
10.6151773436
 21
-23.9120471994
  0
LINE
  5
2F0
100
AcDbEntity
  8
ASSI
100
AcDbLine
 62
250
  6
CONTINUOUS
 10
8.2239210116
 20
-23.9120471994
 11
10.6151773436
 21
-23.9120471994
  0
LINE
  5
2F1
100
AcDbEntity
  8
RACCORDO
100
AcDbLine
 62
250
  6
CONTINUOUS
 10
-8.2848226564
 20
-23.9120471994
 11
-10.6760789884
 21
-23.9120471994
  0
LINE
  5
2F2
100
AcDbEntity
  8
ASSI
100
AcDbLine
 62
250
  6
CONTINUOUS
 10
-8.2848226564
 20
-23.9120471994
 11
-10.6760789884
 21
-23.9120471994
  0
LINE
  5
2F3
100
AcDbEntity
  8
RACCORDO
100
AcDbLine
 62
250
  6
CONTINUOUS
 10
8.2239210116
 20
-23.5107523699
 11
10.6151773436
 21
-23.5107523699
  0
LINE
  5
2F4
100
AcDbEntity
  8
ASSI
100
AcDbLine
 62
250
  6
CONTINUOUS
 10
8.2239210116
 20
-23.5107523699
 11
10.6151773436
 21
-23.5107523699
  0
LINE
  5
2F5
100
AcDbEntity
  8
RACCORDO
100
AcDbLine
 62
250
  6
CONTINUOUS
 10
-8.2848226564
 20
-23.5107523699
 11
-10.6760789884
 21
-23.5107523699
  0
LINE
  5
2F6
100
AcDbEntity
  8
ASSI
100
AcDbLine
 62
250
  6
CONTINUOUS
 10
-8.2848226564
 20
-23.5107523699
 11
-10.6760789884
 21
-23.5107523699
  0
LINE
  5
2F7
100
AcDbEntity
  8
DRAFT
100
AcDbLine
 62
7
  6
CONTINUOUS
 10
-4.4304508224
 20
-23.4664148026
 11
4.3695491776
 21
-23.4664148026
  0
LINE
  5
2F8
100
AcDbEntity
  8
ASSI
100
AcDbLine
 62
7
  6
CONTINUOUS
 10
-4.4304508224
 20
-23.4664148026
 11
4.3695491776
 21
-23.4664148026
  0
LINE
  5
2F9
100
AcDbEntity
  8
DRAFT
100
AcDbLine
 62
7
  6
CONTINUOUS
 10
3.4695491776
 20
-23.4605969728
 11
-3.5304508224
 21
-23.4605969728
  0
LINE
  5
2FA
100
AcDbEntity
  8
ASSI
100
AcDbLine
 62
7
  6
CONTINUOUS
 10
3.4695491776
 20
-23.4605969728
 11
-3.5304508224
 21
-23.4605969728
  0
LINE
  5
2FB
100
AcDbEntity
  8
ASSI
100
AcDbLine
 62
7
  6
CONTINUOUS
 10
4.3258985308
 20
-23.4227641558
 11
3.4695491776
 21
-23.4227641558
  0
LINE
  5
2FC
100
AcDbEntity
  8
ASSI
100
AcDbLine
 62
7
  6
CONTINUOUS
 10
-3.5304508224
 20
-23.4227641558
 11
-4.3868001755
 21
-23.4227641558
  0
LINE
  5
2FD
100
AcDbEntity
  8
RACCORDO
100
AcDbLine
 62
250
  6
CONTINUOUS
 10
10.3651815744
 20
-23.294246019
 11
8.4739167808
 21
-23.294246019
  0
LINE
  5
2FE
100
AcDbEntity
  8
ASSI
100
AcDbLine
 62
250
  6
CONTINUOUS
 10
10.3651815744
 20
-23.294246019
 11
8.4739167808
 21
-23.294246019
  0
LINE
  5
2FF
100
AcDbEntity
  8
RACCORDO
100
AcDbLine
 62
250
  6
CONTINUOUS
 10
-8.5348184256
 20
-23.294246019
 11
-10.4260832192
 21
-23.294246019
  0
LINE
  5
300
100
AcDbEntity
  8
ASSI
100
AcDbLine
 62
250
  6
CONTINUOUS
 10
-8.5348184256
 20
-23.294246019
 11
-10.4260832192
 21
-23.294246019
  0
LINE
  5
301
100
AcDbEntity
  8
RACCORDO
100
AcDbLine
 62
7
  6
CONTINUOUS
 10
-10.4311738202
 20
-22.7890645334
 11
-8.5297278245
 21
-22.7890645334
  0
LINE
  5
302
100
AcDbEntity
  8
ASSI
100
AcDbLine
 62
7
  6
CONTINUOUS
 10
-10.4311738202
 20
-22.7890645334
 11
-8.5297278245
 21
-22.7890645334
  0
LINE
  5
303
100
AcDbEntity
  8
RACCORDO
100
AcDbLine
 62
7
  6
CONTINUOUS
 10
8.4688261798
 20
-22.7890645334
 11
10.3702721755
 21
-22.7890645334
  0
LINE
  5
304
100
AcDbEntity
  8
ASSI
100
AcDbLine
 62
7
  6
CONTINUOUS
 10
8.4688261798
 20
-22.7890645334
 11
10.3702721755
 21
-22.7890645334
  0
LWPOLYLINE
  5
305
100
AcDbEntity
  8
RACCORDO
100
AcDbPolyline
 62
7
  6
CONTINUOUS
 90
4
 70
0
 10
-10.4304550532
 20
-24.1664148026
 10
-10.4423503384
 20
-24.1661316524
 10
-10.4542186779
 20
-24.1652828369
 10
-10.4660331885
 20
-24.1638702768
  0
LWPOLYLINE
  5
306
100
AcDbEntity
  8
ASSI
100
AcDbPolyline
 62
7
  6
CONTINUOUS
 90
4
 70
0
 10
-10.4304550532
 20
-24.1664148026
 10
-10.4423503384
 20
-24.1661316524
 10
-10.4542186779
 20
-24.1652828369
 10
-10.4660331885
 20
-24.1638702768
  0
LWPOLYLINE
  5
307
100
AcDbEntity
  8
RACCORDO
100
AcDbPolyline
 62
7
  6
CONTINUOUS
 90
4
 70
0
 10
8.4695449468
 20
-24.1664148026
 10
8.4576496616
 20
-24.1661316524
 10
8.4457813221
 20
-24.1652828369
 10
8.4339668115
 20
-24.1638702768
  0
LWPOLYLINE
  5
308
100
AcDbEntity
  8
ASSI
100
AcDbPolyline
 62
7
  6
CONTINUOUS
 90
4
 70
0
 10
8.4695449468
 20
-24.1664148026
 10
8.4576496616
 20
-24.1661316524
 10
8.4457813221
 20
-24.1652828369
 10
8.4339668115
 20
-24.1638702768
  0
LWPOLYLINE
  5
309
100
AcDbEntity
  8
RACCORDO
100
AcDbPolyline
 62
250
  6
CONTINUOUS
 90
7
 70
0
 10
-10.4260832192
 20
-24.1620429686
 10
-10.4391355591
 20
-24.1617015614
 10
-10.4521604535
 20
-24.1606782988
 10
-10.4651222281
 20
-24.1589746946
 10
-10.4779879468
 20
-24.1565935644
 10
-10.490719412
 20
-24.153540451
 10
-10.5032735966
 20
-24.1498250113
  0
LWPOLYLINE
  5
30A
100
AcDbEntity
  8
ASSI
100
AcDbPolyline
 62
250
  6
CONTINUOUS
 90
3
 70
0
 10
-10.4260832192
 20
-24.1620429686
 10
-10.4391355591
 20
-24.1617015614
 10
-10.452963297
 20
-24.1605927562
  0
LWPOLYLINE
  5
30B
100
AcDbEntity
  8
RACCORDO
100
AcDbPolyline
 62
250
  6
CONTINUOUS
 90
31
 70
0
 10
8.4739167808
 20
-24.1620429686
 10
8.4608332949
 20
-24.1616999301
 10
8.4477856683
 20
-24.1606726402
 10
8.4348096621
 20
-24.1589639146
 10
8.4219408413
 20
-24.1565784366
 10
8.4092144767
 20
-24.1535227444
 10
8.396665449
 20
-24.1498052131
 10
8.3843281528
 20
-24.1454360316
 10
8.3722364021
 20
-24.1404271751
 10
8.3604233383
 20
-24.1347923719
 10
8.3489213388
 20
-24.128547066
 10
8.3377619282
 20
-24.1217083746
 10
8.3269756926
 20
-24.1142950412
 10
8.316592195
 20
-24.1063273845
 10
8.3066398945
 20
-24.0978272422
 10
8.2971460686
 20
-24.0888179116
 10
8.2881367381
 20
-24.0793240857
 10
8.2796365958
 20
-24.0693717853
 10
8.271668939
 20
-24.0589882876
 10
8.2642556057
 20
-24.048202052
 10
8.2574169143
 20
-24.0370426415
 10
8.2511716084
 20
-24.0255406419
 10
8.2455368052
 20
-24.0137275781
 10
8.2405279487
 20
-24.0016358275
 10
8.2361587672
 20
-23.9892985312
 10
8.2324412358
 20
-23.9767495035
 10
8.2293855436
 20
-23.964023139
 10
8.2270000657
 20
-23.9511543181
 10
8.2252913401
 20
-23.938178312
 10
8.2242640502
 20
-23.9251306854
 10
8.2239210116
 20
-23.9120471994
  0
LWPOLYLINE
  5
30C
100
AcDbEntity
  8
ASSI
100
AcDbPolyline
 62
7
  6
CONTINUOUS
 90
31
 70
0
 10
8.4739167808
 20
-24.1620429686
 10
8.4608332949
 20
-24.1616999301
 10
8.4477856683
 20
-24.1606726402
 10
8.4348096621
 20
-24.1589639146
 10
8.4219408413
 20
-24.1565784366
 10
8.4092144767
 20
-24.1535227444
 10
8.396665449
 20
-24.1498052131
 10
8.3843281528
 20
-24.1454360316
 10
8.3722364021
 20
-24.1404271751
 10
8.3604233383
 20
-24.1347923719
 10
8.3489213388
 20
-24.128547066
 10
8.3377619282
 20
-24.1217083746
 10
8.3269756926
 20
-24.1142950412
 10
8.316592195
 20
-24.1063273845
 10
8.3066398945
 20
-24.0978272422
 10
8.2971460686
 20
-24.0888179116
 10
8.2881367381
 20
-24.0793240857
 10
8.2796365958
 20
-24.0693717853
 10
8.271668939
 20
-24.0589882876
 10
8.2642556057
 20
-24.048202052
 10
8.2574169143
 20
-24.0370426415
 10
8.2511716084
 20
-24.0255406419
 10
8.2455368052
 20
-24.0137275781
 10
8.2405279487
 20
-24.0016358275
 10
8.2361587672
 20
-23.9892985312
 10
8.2324412358
 20
-23.9767495035
 10
8.2293855436
 20
-23.964023139
 10
8.2270000657
 20
-23.9511543181
 10
8.2252913401
 20
-23.938178312
 10
8.2242640502
 20
-23.9251306854
 10
8.2239210116
 20
-23.9120471994
  0
LWPOLYLINE
  5
30D
100
AcDbEntity
  8
RACCORDO
100
AcDbPolyline
 62
7
  6
CONTINUOUS
 90
11
 70
0
 10
-10.8919954279
 20
-22.0146956411
 10
-10.8837893719
 20
-22.0187032243
 10
-10.8625192713
 20
-22.0282324766
 10
-10.8407634767
 20
-22.0367602182
 10
-10.8185912535
 20
-22.0442517967
 10
-10.7960315995
 20
-22.0506903004
 10
-10.773154074
 20
-22.0560488439
 10
-10.7500946989
 20
-22.0602964065
 10
-10.7269359355
 20
-22.0634269668
 10
-10.7037034413
 20
-22.0654461649
 10
-10.6804504532
 20
-22.066356351
  0
LINE
  5
30E
100
AcDbEntity
  8
RACCORDO
100
AcDbLine
 62
250
  6
CONTINUOUS
 10
-10.6728464788
 20
-22.0664148026
 11
-10.6789537354
 21
-22.0633614069
  0
LINE
  5
30F
100
AcDbEntity
  8
ASSI
100
AcDbLine
 62
250
  6
CONTINUOUS
 10
-10.6728464788
 20
-22.0664148026
 11
-10.6789537354
 21
-22.0633614069
  0
LWPOLYLINE
  5
310
100
AcDbEntity
  8
RACCORDO
100
AcDbPolyline
 62
7
  6
CONTINUOUS
 90
11
 70
0
 10
10.6195488085
 20
-22.066356351
 10
10.6428017966
 20
-22.0654461649
 10
10.6660342907
 20
-22.0634269668
 10
10.6891930541
 20
-22.0602964065
 10
10.7122524293
 20
-22.0560488439
 10
10.7351299547
 20
-22.0506903004
 10
10.7576896087
 20
-22.0442517967
 10
10.7798618319
 20
-22.0367602182
 10
10.8016176266
 20
-22.0282324766
 10
10.8228877272
 20
-22.0187032243
 10
10.8310937832
 20
-22.0146956411
  0
LWPOLYLINE
  5
311
100
AcDbEntity
  8
ASSI
100
AcDbPolyline
 62
7
  6
CONTINUOUS
 90
11
 70
0
 10
10.6195488085
 20
-22.066356351
 10
10.6428017966
 20
-22.0654461649
 10
10.6660342907
 20
-22.0634269668
 10
10.6891930541
 20
-22.0602964065
 10
10.7122524293
 20
-22.0560488439
 10
10.7351299547
 20
-22.0506903004
 10
10.7576896087
 20
-22.0442517967
 10
10.7798618319
 20
-22.0367602182
 10
10.8016176266
 20
-22.0282324766
 10
10.8228877272
 20
-22.0187032243
 10
10.8310937832
 20
-22.0146956411
  0
LINE
  5
312
100
AcDbEntity
  8
RACCORDO
100
AcDbLine
 62
7
  6
CONTINUOUS
 10
10.6195491776
 20
-22.0663558088
 11
10.6119448341
 21
-22.0664148026
  0
LINE
  5
313
100
AcDbEntity
  8
ASSI
100
AcDbLine
 62
7
  6
CONTINUOUS
 10
10.6195491776
 20
-22.0663558088
 11
10.6119448341
 21
-22.0664148026
  0
LINE
  5
314
100
AcDbEntity
  8
RACCORDO
100
AcDbLine
 62
7
  6
CONTINUOUS
 10
-10.6728464788
 20
-22.0664148026
 11
-8.2804508224
 21
-22.0664148026
  0
LINE
  5
315
100
AcDbEntity
  8
DRAFT
100
AcDbLine
 62
7
  6
CONTINUOUS
 10
8.2195491776
 20
-22.0664148026
 11
4.3695491776
 21
-22.0664148026
  0
LINE
  5
316
100
AcDbEntity
  8
DRAFT
100
AcDbLine
 62
7
  6
CONTINUOUS
 10
-4.4304508224
 20
-22.0664148026
 11
-8.2804508224
 21
-22.0664148026
  0
LINE
  5
317
100
AcDbEntity
  8
RACCORDO
100
AcDbLine
 62
7
  6
CONTINUOUS
 10
8.2195491776
 20
-22.0664148026
 11
10.6119448341
 21
-22.0664148026
  0
LINE
  5
318
100
AcDbEntity
  8
ASSI
100
AcDbLine
 62
7
  6
CONTINUOUS
 10
-4.4304508224
 20
-22.0664148026
 11
-10.6728464788
 21
-22.0664148026
  0
LINE
  5
319
100
AcDbEntity
  8
ASSI
100
AcDbLine
 62
7
  6
CONTINUOUS
 10
4.3695491776
 20
-22.0664148026
 11
10.6119448341
 21
-22.0664148026
  0
LINE
  5
31A
100
AcDbEntity
  8
RACCORDO
100
AcDbLine
 62
7
  6
CONTINUOUS
 10
-10.6903015437
 20
-22.0576879348
 11
-7.2891776902
 21
-22.0576879348
  0
LINE
  5
31B
100
AcDbEntity
  8
ASSI
100
AcDbLine
 62
7
  6
CONTINUOUS
 10
-10.6903015437
 20
-22.0576879348
 11
-7.2891776902
 21
-22.0576879348
  0
LINE
  5
31C
100
AcDbEntity
  8
RACCORDO
100
AcDbLine
 62
7
  6
CONTINUOUS
 10
7.2282760454
 20
-22.0576879348
 11
10.629399899
 21
-22.0576879348
  0
LINE
  5
31D
100
AcDbEntity
  8
ASSI
100
AcDbLine
 62
7
  6
CONTINUOUS
 10
7.2282760454
 20
-22.0576879348
 11
10.629399899
 21
-22.0576879348
  0
LINE
  5
31E
100
AcDbEntity
  8
DRAFT
100
AcDbLine
 62
7
  6
CONTINUOUS
 10
-3.5304508224
 20
-22.0044540413
 11
-3.0304508224
 21
-22.0044540413
  0
LINE
  5
31F
100
AcDbEntity
  8
ASSI
100
AcDbLine
 62
7
  6
CONTINUOUS
 10
-3.5304508224
 20
-22.0044540413
 11
-3.0304508224
 21
-22.0044540413
  0
LINE
  5
320
100
AcDbEntity
  8
DRAFT
100
AcDbLine
 62
7
  6
CONTINUOUS
 10
2.9695491776
 20
-22.0044540413
 11
3.4695491776
 21
-22.0044540413
  0
LINE
  5
321
100
AcDbEntity
  8
ASSI
100
AcDbLine
 62
7
  6
CONTINUOUS
 10
2.9695491776
 20
-22.0044540413
 11
3.4695491776
 21
-22.0044540413
  0
LINE
  5
322
100
AcDbEntity
  8
RACCORDO
100
AcDbLine
 62
250
  6
CONTINUOUS
 10
-7.3677956556
 20
-21.9790699694
 11
-3.0304508224
 21
-21.9790699694
  0
LINE
  5
323
100
AcDbEntity
  8
ASSI
100
AcDbLine
 62
250
  6
CONTINUOUS
 10
-7.3677956556
 20
-21.9790699694
 11
-3.0304508224
 21
-21.9790699694
  0
LINE
  5
324
100
AcDbEntity
  8
RACCORDO
100
AcDbLine
 62
250
  6
CONTINUOUS
 10
2.9695491776
 20
-21.9790699694
 11
7.3068940109
 21
-21.9790699694
  0
LINE
  5
325
100
AcDbEntity
  8
ASSI
100
AcDbLine
 62
250
  6
CONTINUOUS
 10
2.9695491776
 20
-21.9790699694
 11
7.3068940109
 21
-21.9790699694
  0
LINE
  5
326
100
AcDbEntity
  8
0
100
AcDbLine
 62
7
  6
CONTINUOUS
 10
2.9695491776
 20
-21.3664148026
 11
-3.0304508224
 21
-21.3664148026
  0
LINE
  5
327
100
AcDbEntity
  8
ASSI
100
AcDbLine
 62
7
  6
CONTINUOUS
 10
2.9695491776
 20
-21.3664148026
 11
-3.0304508224
 21
-21.3664148026
  0
LINE
  5
328
100
AcDbEntity
  8
RACCORDO
100
AcDbLine
 62
250
  6
CONTINUOUS
 10
-7.6145515415
 20
-20.9791080463
 11
-3.0304508224
 21
-20.9791080463
  0
LINE
  5
329
100
AcDbEntity
  8
ASSI
100
AcDbLine
 62
250
  6
CONTINUOUS
 10
-7.6145515415
 20
-20.9791080463
 11
-3.0304508224
 21
-20.9791080463
  0
LINE
  5
32A
100
AcDbEntity
  8
RACCORDO
100
AcDbLine
 62
250
  6
CONTINUOUS
 10
2.9695491776
 20
-20.9791080463
 11
7.5536498968
 21
-20.9791080463
  0
LINE
  5
32B
100
AcDbEntity
  8
ASSI
100
AcDbLine
 62
250
  6
CONTINUOUS
 10
2.9695491776
 20
-20.9791080463
 11
7.5536498968
 21
-20.9791080463
  0
LINE
  5
32C
100
AcDbEntity
  8
RACCORDO
100
AcDbLine
 62
7
  6
CONTINUOUS
 10
-10.6728464788
 20
-22.0664148026
 11
-10.6804508224
 21
-22.0663558088
  0
LINE
  5
32D
100
AcDbEntity
  8
ASSI
100
AcDbLine
 62
7
  6
CONTINUOUS
 10
-10.6728464788
 20
-22.0664148026
 11
-10.6804508224
 21
-22.0663558088
  0
LINE
  5
32E
100
AcDbEntity
  8
RACCORDO
100
AcDbLine
 62
7
  6
CONTINUOUS
 10
8.4339668115
 20
-24.1638702768
 11
8.4222328901
 21
-24.1618971704
  0
LWPOLYLINE
  5
32F
100
AcDbEntity
  8
ASSI
100
AcDbPolyline
 62
7
  6
CONTINUOUS
 90
6
 70
0
 10
8.4339668115
 20
-24.1638702768
 10
8.4222328901
 20
-24.1618971704
 10
8.4106061388
 20
-24.1593679843
 10
8.3991128986
 20
-24.1562884443
 10
8.3877792039
 20
-24.152665524
 10
8.3766307283
 20
-24.1485074284
  0
LWPOLYLINE
  5
330
100
AcDbEntity
  8
RACCORDO
100
AcDbPolyline
 62
7
  6
CONTINUOUS
 90
26
 70
0
 10
8.4222328901
 20
-24.1618971704
 10
8.4106061388
 20
-24.1593679843
 10
8.3991128986
 20
-24.1562884443
 10
8.3877792039
 20
-24.152665524
 10
8.3766307283
 20
-24.1485074284
 10
8.3656927313
 20
-24.1438235748
 10
8.35498999
 20
-24.1386245715
 10
8.3445467494
 20
-24.1329221943
 10
8.3343866717
 20
-24.1267293608
 10
8.3245327725
 20
-24.1200600981
 10
8.3150073738
 20
-24.1129295133
 10
8.3058320586
 20
-24.1053537615
 10
8.2970276115
 20
-24.0973500031
 10
8.2886139771
 20
-24.0889363687
 10
8.2806102188
 20
-24.0801319217
 10
8.2730344669
 20
-24.0709566065
 10
8.2659038822
 20
-24.0614312078
 10
8.2592346195
 20
-24.0515773085
 10
8.253041786
 20
-24.0414172309
 10
8.2473394088
 20
-24.0309739902
 10
8.2421404055
 20
-24.0202712489
 10
8.2374565519
 20
-24.0093332519
 10
8.2332984563
 20
-23.9981847764
 10
8.2296755359
 20
-23.9868510816
 10
8.2265959959
 20
-23.9753578414
 10
8.2240668099
 20
-23.9637310901
  0
LWPOLYLINE
  5
331
100
AcDbEntity
  8
ASSI
100
AcDbPolyline
 62
7
  6
CONTINUOUS
 90
16
 70
0
 10
-10.6526605912
 20
24.698144385
 10
-10.646958214
 20
24.7085876256
 10
-10.6407653805
 20
24.7187477033
 10
-10.6340961178
 20
24.7286016025
 10
-10.6269655331
 20
24.7381270012
 10
-10.6193897812
 20
24.7473023164
 10
-10.6113860229
 20
24.7561067635
 10
-10.6029723885
 20
24.7645203979
 10
-10.5941679414
 20
24.7725241562
 10
-10.5849926262
 20
24.7800999081
 10
-10.5754672275
 20
24.7872304928
 10
-10.5656133283
 20
24.7938997555
 10
-10.5554532506
 20
24.800092589
 10
-10.54501001
 20
24.8057949662
 10
-10.5343072687
 20
24.8109939695
 10
-10.5233692717
 20
24.8156778231
  0
LINE
  5
332
100
AcDbEntity
  8
RACCORDO
100
AcDbLine
 62
7
  6
CONTINUOUS
 10
-8.2804508224
 20
21.7335851974
 11
-7.2891776902
 21
22.7248583296
  0
LINE
  5
333
100
AcDbEntity
  8
ASSI
100
AcDbLine
 62
7
  6
CONTINUOUS
 10
-8.2804508224
 20
21.7335851974
 11
-7.2891776902
 21
22.7248583296
  0
LINE
  5
334
100
AcDbEntity
  8
0
100
AcDbLine
 62
7
  6
CONTINUOUS
 10
-9.2724738871
 20
19.5915621326
 11
-10.8875576036
 21
17.9764784162
  0
LWPOLYLINE
  5
335
100
AcDbEntity
  8
RACCORDO
100
AcDbPolyline
 62
7
  6
CONTINUOUS
 90
8
 70
0
 10
8.3877792039
 20
24.8198359187
 10
8.3991128986
 20
24.8234588391
 10
8.4106061388
 20
24.8265383791
 10
8.4222328901
 20
24.8290675651
 10
8.4339668115
 20
24.8310406715
 10
8.4457813221
 20
24.8324532316
 10
8.4576496616
 20
24.8333020471
 10
8.4695449468
 20
24.8335851974
  0
LWPOLYLINE
  5
336
100
AcDbEntity
  8
RACCORDO
100
AcDbPolyline
 62
250
  6
CONTINUOUS
 90
7
 70
0
 10
8.3967264034
 20
24.816995406
 10
8.409280588
 20
24.8207108458
 10
8.4220120532
 20
24.8237639592
 10
8.4348777719
 20
24.8261450893
 10
8.4478395465
 20
24.8278486935
 10
8.4608644409
 20
24.8288719562
 10
8.4739167808
 20
24.8292133634
  0
LWPOLYLINE
  5
337
100
AcDbEntity
  8
0
100
AcDbPolyline
 62
250
  6
CONTINUOUS
 90
34
 70
0
 10
5.6516806512
 20
-20.2673089813
 10
5.6871163399
 20
-20.2662645126
 10
5.7224299437
 20
-20.264397384
 10
5.7576214626
 20
-20.2617075957
 10
5.7926934526
 20
-20.2581931133
 10
5.8276433577
 20
-20.2538559711
 10
5.8624635094
 20
-20.2487022716
 10
5.8971707593
 20
-20.2427302622
 10
5.9317482557
 20
-20.2359416956
 10
5.9661377758
 20
-20.2283479315
 10
6.0003385849
 20
-20.2199476946
 10
6.0343514176
 20
-20.2107422604
 10
6.0681202542
 20
-20.2007468153
 10
6.101644785
 20
-20.189960029
 10
6.1349253197
 20
-20.1783832319
 10
6.1679067677
 20
-20.1660356019
 10
6.2005885148
 20
-20.1529159211
 10
6.2329711751
 20
-20.1390254073
 10
6.2650015013
 20
-20.1243868925
 10
6.2966794924
 20
-20.1089987912
 10
6.3280051493
 20
-20.0928626887
 10
6.3589252274
 20
-20.0760061735
 10
6.3894255209
 20
-20.0584381793
 10
6.4195202357
 20
-20.0401497722
 10
6.4491987442
 20
-20.0211417389
 10
6.4784764845
 20
-20.0014048147
 10
6.5073380186
 20
-19.9809482643
 10
6.5357264053
 20
-19.9598006677
 10
6.5636459615
 20
-19.9379552163
 10
6.5910923703
 20
-19.9154187189
 10
6.6179957393
 20
-19.8922401814
 10
6.644332771
 20
-19.8684359393
 10
6.670126763
 20
-19.8439896571
 10
6.6953777152
 20
-19.818901335
  0
LWPOLYLINE
  5
338
100
AcDbEntity
  8
ASSI
100
AcDbPolyline
 62
250
  6
CONTINUOUS
 90
34
 70
0
 10
5.6516806512
 20
-20.2673089813
 10
5.6871163399
 20
-20.2662645126
 10
5.7224299437
 20
-20.264397384
 10
5.7576214626
 20
-20.2617075957
 10
5.7926934526
 20
-20.2581931133
 10
5.8276433577
 20
-20.2538559711
 10
5.8624635094
 20
-20.2487022716
 10
5.8971707593
 20
-20.2427302622
 10
5.9317482557
 20
-20.2359416956
 10
5.9661377758
 20
-20.2283479315
 10
6.0003385849
 20
-20.2199476946
 10
6.0343514176
 20
-20.2107422604
 10
6.0681202542
 20
-20.2007468153
 10
6.101644785
 20
-20.189960029
 10
6.1349253197
 20
-20.1783832319
 10
6.1679067677
 20
-20.1660356019
 10
6.2005885148
 20
-20.1529159211
 10
6.2329711751
 20
-20.1390254073
 10
6.2650015013
 20
-20.1243868925
 10
6.2966794924
 20
-20.1089987912
 10
6.3280051493
 20
-20.0928626887
 10
6.3589252274
 20
-20.0760061735
 10
6.3894255209
 20
-20.0584381793
 10
6.4195202357
 20
-20.0401497722
 10
6.4491987442
 20
-20.0211417389
 10
6.4784764845
 20
-20.0014048147
 10
6.5073380186
 20
-19.9809482643
 10
6.5357264053
 20
-19.9598006677
 10
6.5636459615
 20
-19.9379552163
 10
6.5910923703
 20
-19.9154187189
 10
6.6179957393
 20
-19.8922401814
 10
6.644332771
 20
-19.8684359393
 10
6.670126763
 20
-19.8439896571
 10
6.6953777152
 20
-19.818901335
  0
LINE
  5
339
100
AcDbEntity
  8
0
100
AcDbLine
 62
7
  6
CONTINUOUS
 10
-0.0304508224
 20
-20.8664148026
 11
5.6516806512
 21
-20.7672328288
  0
LINE
  5
33A
100
AcDbEntity
  8
ASSI
100
AcDbLine
 62
7
  6
CONTINUOUS
 10
-0.0304508224
 20
-20.8664148026
 11
5.6516806512
 21
-20.7672328288
  0
LINE
  5
33B
100
AcDbEntity
  8
0
100
AcDbLine
 62
250
  6
CONTINUOUS
 10
-0.0304508224
 20
-20.3664909551
 11
5.6516806512
 21
-20.2673089813
  0
LINE
  5
33C
100
AcDbEntity
  8
ASSI
100
AcDbLine
 62
250
  6
CONTINUOUS
 10
-0.0304508224
 20
-20.3664909551
 11
5.6516806512
 21
-20.2673089813
  0
LINE
  5
33D
100
AcDbEntity
  8
0
100
AcDbLine
 62
250
  6
CONTINUOUS
 10
-5.0653556352
 20
-19.9542232406
 11
-0.0304508224
 21
-19.8663386502
  0
LINE
  5
33E
100
AcDbEntity
  8
ASSI
100
AcDbLine
 62
250
  6
CONTINUOUS
 10
-5.0653556352
 20
-19.9542232406
 11
-0.0304508224
 21
-19.8663386502
  0
LINE
  5
33F
100
AcDbEntity
  8
0
100
AcDbLine
 62
7
  6
CONTINUOUS
 10
-6.5391770256
 20
-19.4800250411
 11
8.5219178676
 21
-19.2171326519
  0
LINE
  5
340
100
AcDbEntity
  8
ASSI
100
AcDbLine
 62
7
  6
CONTINUOUS
 10
-6.5391770256
 20
-19.4800250411
 11
8.5219178676
 21
-19.2171326519
  0
LINE
  5
341
100
AcDbEntity
  8
0
100
AcDbLine
 62
250
  6
CONTINUOUS
 10
-7.0304508224
 20
-19.9799488887
 11
-5.0653556352
 21
-19.9542232406
  0
LINE
  5
342
100
AcDbEntity
  8
ASSI
100
AcDbLine
 62
250
  6
CONTINUOUS
 10
-7.0304508224
 20
-19.9799488887
 11
-5.0653556352
 21
-19.9542232406
  0
LINE
  5
343
100
AcDbEntity
  8
DRAFT
100
AcDbLine
 62
7
  6
CONTINUOUS
 10
9.6195491776
 20
-20.5664148026
 11
8.2195491776
 21
-20.5664148026
  0
LINE
  5
344
100
AcDbEntity
  8
RACCORDO
100
AcDbLine
 62
7
  6
CONTINUOUS
 10
-7.2722725243
 20
-20.5664148026
 11
-8.2804508224
 21
-20.5664148026
  0
LINE
  5
345
100
AcDbEntity
  8
RACCORDO
100
AcDbLine
 62
7
  6
CONTINUOUS
 10
7.2113708795
 20
-20.5664148026
 11
8.2195491776
 21
-20.5664148026
  0
LINE
  5
346
100
AcDbEntity
  8
ASSI
100
AcDbLine
 62
7
  6
CONTINUOUS
 10
7.2113708795
 20
-20.5664148026
 11
9.6195491776
 21
-20.5664148026
  0
LINE
  5
347
100
AcDbEntity
  8
DRAFT
100
AcDbLine
 62
7
  6
CONTINUOUS
 10
-8.2804508224
 20
-20.5664148026
 11
-9.6804508224
 21
-20.5664148026
  0
LINE
  5
348
100
AcDbEntity
  8
ASSI
100
AcDbLine
 62
7
  6
CONTINUOUS
 10
-7.2722725243
 20
-20.5664148026
 11
-9.6804508224
 21
-20.5664148026
  0
LINE
  5
349
100
AcDbEntity
  8
DRAFT
100
AcDbLine
 62
7
  6
CONTINUOUS
 10
-9.5251007445
 20
-20.099985567
 11
-7.3822295077
 21
-20.099985567
  0
LINE
  5
34A
100
AcDbEntity
  8
ASSI
100
AcDbLine
 62
7
  6
CONTINUOUS
 10
-9.5251007445
 20
-20.099985567
 11
-7.3822295077
 21
-20.099985567
  0
LINE
  5
34B
100
AcDbEntity
  8
DRAFT
100
AcDbLine
 62
7
  6
CONTINUOUS
 10
7.3213278629
 20
-20.099985567
 11
9.4641990998
 21
-20.099985567
  0
LINE
  5
34C
100
AcDbEntity
  8
ASSI
100
AcDbLine
 62
7
  6
CONTINUOUS
 10
7.3213278629
 20
-20.099985567
 11
9.4641990998
 21
-20.099985567
  0
LINE
  5
34D
100
AcDbEntity
  8
RACCORDO
100
AcDbLine
 62
250
  6
CONTINUOUS
 10
-6.8810151788
 20
-19.6234329195
 11
-7.2722725243
 21
-19.6234329195
  0
LINE
  5
34E
100
AcDbEntity
  8
ASSI
100
AcDbLine
 62
250
  6
CONTINUOUS
 10
-6.8810151788
 20
-19.6234329195
 11
-7.2722725243
 21
-19.6234329195
  0
LINE
  5
34F
100
AcDbEntity
  8
RACCORDO
100
AcDbLine
 62
250
  6
CONTINUOUS
 10
-6.3874723238
 20
-19.4234363041
 11
-7.2734293209
 21
-19.4234363041
  0
LINE
  5
350
100
AcDbEntity
  8
ASSI
100
AcDbLine
 62
7
  6
CONTINUOUS
 10
-6.3874723238
 20
-19.4234363041
 11
-7.2734293209
 21
-19.4234363041
  0
LINE
  5
351
100
AcDbEntity
  8
DRAFT
100
AcDbLine
 62
7
  6
CONTINUOUS
 10
-7.3822295077
 20
-19.3146361173
 11
-6.2786721371
 21
-19.3146361173
  0
LINE
  5
352
100
AcDbEntity
  8
ASSI
100
AcDbLine
 62
7
  6
CONTINUOUS
 10
-7.3822295077
 20
-19.3146361173
 11
-6.2786721371
 21
-19.3146361173
  0
LINE
  5
353
100
AcDbEntity
  8
0
100
AcDbLine
 62
250
  6
CONTINUOUS
 10
-7.0304508224
 20
-20.2528807166
 11
-5.0653556352
 21
-20.2786063646
  0
LINE
  5
354
100
AcDbEntity
  8
ASSI
100
AcDbLine
 62
250
  6
CONTINUOUS
 10
-7.0304508224
 20
-20.2528807166
 11
-5.0653556352
 21
-20.2786063646
  0
LINE
  5
355
100
AcDbEntity
  8
0
100
AcDbLine
 62
7
  6
CONTINUOUS
 10
-6.5391770256
 20
-20.7528045642
 11
-0.0304508224
 21
-20.8664148026
  0
LINE
  5
356
100
AcDbEntity
  8
ASSI
100
AcDbLine
 62
7
  6
CONTINUOUS
 10
-6.5391770256
 20
-20.7528045642
 11
-0.0304508224
 21
-20.8664148026
  0
LINE
  5
357
100
AcDbEntity
  8
0
100
AcDbLine
 62
250
  6
CONTINUOUS
 10
-5.0653556352
 20
-20.2786063646
 11
-0.0304508224
 21
-20.3664909551
  0
LINE
  5
358
100
AcDbEntity
  8
ASSI
100
AcDbLine
 62
250
  6
CONTINUOUS
 10
-5.0653556352
 20
-20.2786063646
 11
-0.0304508224
 21
-20.3664909551
  0
LINE
  5
359
100
AcDbEntity
  8
0
100
AcDbLine
 62
7
  6
CONTINUOUS
 10
-6.0304508224
 20
-19.4616844131
 11
-5.7594469854
 21
-19.4664148026
  0
LINE
  5
35A
100
AcDbEntity
  8
0
100
AcDbLine
 62
7
  6
CONTINUOUS
 10
-8.5828195124
 20
-19.2171326519
 11
-0.0304508224
 21
-19.3664148026
  0
LINE
  5
35B
100
AcDbEntity
  8
RACCORDO
100
AcDbLine
 62
7
  6
CONTINUOUS
 10
-7.2891776902
 20
-22.0576879348
 11
-8.2804508224
 21
-21.0664148026
  0
LINE
  5
35C
100
AcDbEntity
  8
ASSI
100
AcDbLine
 62
7
  6
CONTINUOUS
 10
-7.2891776902
 20
-22.0576879348
 11
-8.2804508224
 21
-21.0664148026
  0
LINE
  5
35D
100
AcDbEntity
  8
0
100
AcDbLine
 62
7
  6
CONTINUOUS
 10
-10.8875576036
 20
-17.3093080214
 11
-9.2724738871
 21
-18.9243917379
  0
LWPOLYLINE
  5
35E
100
AcDbEntity
  8
RACCORDO
100
AcDbPolyline
 62
250
  6
CONTINUOUS
 90
21
 70
0
 10
-10.663861031
 20
24.6564079716
 10
-10.6594944799
 20
24.6687477755
 10
-10.65448805
 20
24.6808421316
 10
-10.6488553015
 20
24.6926582099
 10
-10.6426114998
 20
24.7041638103
 10
-10.635773818
 20
24.7153271287
 10
-10.628361188
 20
24.7261172079
 10
-10.6203940457
 20
24.7365043338
 10
-10.6118941488
 20
24.7464601709
 10
-10.602884727
 20
24.7559575054
 10
-10.5933904338
 20
24.7649703245
 10
-10.5834373304
 20
24.773473866
 10
-10.5730527411
 20
24.7814447742
 10
-10.5622651508
 20
24.7888611811
 10
-10.5511041248
 20
24.7957027569
 10
-10.539600269
 20
24.801950736
 10
-10.5277851234
 20
24.8075879843
 10
-10.5156910862
 20
24.8125990398
 10
-10.50335133
 20
24.8169701548
 10
-10.4907996826
 20
24.8206893444
 10
-10.4780705687
 20
24.8237464055
  0
LWPOLYLINE
  5
35F
100
AcDbEntity
  8
RACCORDO
100
AcDbPolyline
 62
7
  6
CONTINUOUS
 90
23
 70
0
 10
-10.6667015437
 20
24.6653551711
 10
-10.6625434481
 20
24.6765036467
 10
-10.6578595945
 20
24.6874416437
 10
-10.6526605912
 20
24.698144385
 10
-10.646958214
 20
24.7085876256
 10
-10.6407653805
 20
24.7187477033
 10
-10.6340961178
 20
24.7286016025
 10
-10.6269655331
 20
24.7381270012
 10
-10.6193897812
 20
24.7473023164
 10
-10.6113860229
 20
24.7561067635
 10
-10.6029723885
 20
24.7645203979
 10
-10.5941679414
 20
24.7725241562
 10
-10.5849926262
 20
24.7800999081
 10
-10.5754672275
 20
24.7872304928
 10
-10.5656133283
 20
24.7938997555
 10
-10.5554532506
 20
24.800092589
 10
-10.54501001
 20
24.8057949662
 10
-10.5343072687
 20
24.8109939695
 10
-10.5233692717
 20
24.8156778231
 10
-10.5122207961
 20
24.8198359187
 10
-10.5008871014
 20
24.8234588391
 10
-10.4893938612
 20
24.8265383791
 10
-10.4777671099
 20
24.8290675651
  0
LINE
  5
360
100
AcDbEntity
  8
ASSI
100
AcDbLine
 62
7
  6
CONTINUOUS
 10
-3.6242435947
 20
23.958731
 11
-3.6507773954
 21
23.9285206086
  0
LINE
  5
361
100
AcDbEntity
  8
ASSI
100
AcDbLine
 62
7
  6
CONTINUOUS
 10
-3.6507773954
 20
23.9285206086
 11
-3.681174719
 21
23.8944284843
  0
LINE
  5
362
100
AcDbEntity
  8
ASSI
100
AcDbLine
 62
7
  6
CONTINUOUS
 10
-3.681174719
 20
23.8944284843
 11
-3.7154406804
 21
23.8564659546
  0
LINE
  5
363
100
AcDbEntity
  8
ASSI
100
AcDbLine
 62
7
  6
CONTINUOUS
 10
-3.7154406804
 20
23.8564659546
 11
-3.7739398617
 21
23.7923694105
  0
LINE
  5
364
100
AcDbEntity
  8
ASSI
100
AcDbLine
 62
7
  6
CONTINUOUS
 10
-3.7739398617
 20
23.7923694105
 11
-3.95842081
 21
23.5928434162
  0
LWPOLYLINE
  5
365
100
AcDbEntity
  8
0
100
AcDbPolyline
 62
250
  6
CONTINUOUS
 90
13
 70
0
 10
-5.0653556352
 20
21.445700607
 10
-5.0656547099
 20
21.4453908718
 10
-5.0659427929
 20
21.4444726699
 10
-5.0662195334
 20
21.4429471193
 10
-5.0664845943
 20
21.4408160782
 10
-5.066737653
 20
21.4380821417
 10
-5.066978401
 20
21.4347486395
 10
-5.0672065454
 20
21.4308196314
 10
-5.0674218082
 20
21.4262999024
 10
-5.0676239272
 20
21.421194957
 10
-5.0678126563
 20
21.4155110123
 10
-5.0679877657
 20
21.4092549907
 10
-5.0682962889
 20
21.3950578802
  0
LWPOLYLINE
  5
366
100
AcDbEntity
  8
ASSI
100
AcDbPolyline
 62
250
  6
CONTINUOUS
 90
13
 70
0
 10
-5.0653556352
 20
21.445700607
 10
-5.0656547099
 20
21.4453908718
 10
-5.0659427929
 20
21.4444726699
 10
-5.0662195334
 20
21.4429471193
 10
-5.0664845943
 20
21.4408160782
 10
-5.066737653
 20
21.4380821417
 10
-5.066978401
 20
21.4347486395
 10
-5.0672065454
 20
21.4308196314
 10
-5.0674218082
 20
21.4262999024
 10
-5.0676239272
 20
21.421194957
 10
-5.0678126563
 20
21.4155110123
 10
-5.0679877657
 20
21.4092549907
 10
-5.0682962889
 20
21.3950578802
  0
LINE
  5
367
100
AcDbEntity
  8
0
100
AcDbLine
 62
250
  6
CONTINUOUS
 10
-8.5828195124
 20
18.8844553514
 11
-10.1979032288
 21
17.269371635
  0
LINE
  5
368
100
AcDbEntity
  8
RACCORDO
100
AcDbLine
 62
7
  6
CONTINUOUS
 10
-7.2734293209
 20
20.0906066988
 11
-7.3822295077
 21
19.9818065121
  0
LINE
  5
369
100
AcDbEntity
  8
ASSI
100
AcDbLine
 62
7
  6
CONTINUOUS
 10
-7.2734293209
 20
20.0906066988
 11
-7.3822295077
 21
19.9818065121
  0
LWPOLYLINE
  5
36A
100
AcDbEntity
  8
ASSI
100
AcDbPolyline
 62
7
  6
CONTINUOUS
 90
11
 70
0
 10
8.35498999
 20
24.8057949662
 10
8.3656927313
 20
24.8109939695
 10
8.3766307283
 20
24.8156778231
 10
8.3877792039
 20
24.8198359187
 10
8.3991128986
 20
24.8234588391
 10
8.4106061388
 20
24.8265383791
 10
8.4222328901
 20
24.8290675651
 10
8.4339668115
 20
24.8310406715
 10
8.4457813221
 20
24.8324532316
 10
8.4576496616
 20
24.8333020471
 10
8.4695449468
 20
24.8335851974
  0
LINE
  5
36B
100
AcDbEntity
  8
0
100
AcDbLine
 62
250
  6
CONTINUOUS
 10
-0.0304508224
 20
-18.3665671075
 11
8.5219178676
 21
-18.2172849567
  0
LINE
  5
36C
100
AcDbEntity
  8
ASSI
100
AcDbLine
 62
250
  6
CONTINUOUS
 10
-0.0304508224
 20
-18.3665671075
 11
8.5219178676
 21
-18.2172849567
  0
LINE
  5
36D
100
AcDbEntity
  8
0
100
AcDbLine
 62
250
  6
CONTINUOUS
 10
-8.5828195124
 20
-18.2172849567
 11
-0.0304508224
 21
-18.3665671075
  0
LWPOLYLINE
  5
36E
100
AcDbEntity
  8
ASSI
100
AcDbPolyline
 62
7
  6
CONTINUOUS
 90
18
 70
0
 10
8.3766307283
 20
-24.1485074284
 10
8.3656927313
 20
-24.1438235748
 10
8.35498999
 20
-24.1386245715
 10
8.3445467494
 20
-24.1329221943
 10
8.3343866717
 20
-24.1267293608
 10
8.3245327725
 20
-24.1200600981
 10
8.3150073738
 20
-24.1129295133
 10
8.3058320586
 20
-24.1053537615
 10
8.2970276115
 20
-24.0973500031
 10
8.2886139771
 20
-24.0889363687
 10
8.2806102188
 20
-24.0801319217
 10
8.2730344669
 20
-24.0709566065
 10
8.2659038822
 20
-24.0614312078
 10
8.2592346195
 20
-24.0515773085
 10
8.253041786
 20
-24.0414172309
 10
8.2473394088
 20
-24.0309739902
 10
8.2421404055
 20
-24.0202712489
 10
8.2374565519
 20
-24.0093332519
  0
LINE
  5
36F
100
AcDbEntity
  8
0
100
AcDbLine
 62
250
  6
CONTINUOUS
 10
-10.1979032288
 20
-16.6022012403
 11
-8.5828195124
 21
-18.2172849567
  0
LINE
  5
370
100
AcDbEntity
  8
RACCORDO
100
AcDbLine
 62
7
  6
CONTINUOUS
 10
-7.2734293209
 20
-19.4234363041
 11
-7.3822295077
 21
-19.3146361173
  0
LINE
  5
371
100
AcDbEntity
  8
ASSI
100
AcDbLine
 62
7
  6
CONTINUOUS
 10
-7.2734293209
 20
-19.4234363041
 11
-7.3822295077
 21
-19.3146361173
  0
LINE
  5
372
100
AcDbEntity
  8
ASSI
100
AcDbLine
 62
7
  6
CONTINUOUS
 10
-3.95842081
 20
-22.9227726173
 11
-3.8631070743
 21
-23.0258601643
  0
LINE
  5
373
100
AcDbEntity
  8
ASSI
100
AcDbLine
 62
7
  6
CONTINUOUS
 10
-3.8631070743
 20
-23.0258601643
 11
-3.7741212284
 21
-23.1227082349
  0
LINE
  5
374
100
AcDbEntity
  8
ASSI
100
AcDbLine
 62
7
  6
CONTINUOUS
 10
-3.7741212284
 20
-23.1227082349
 11
-3.7156736801
 21
-23.1869711716
  0
LINE
  5
375
100
AcDbEntity
  8
ASSI
100
AcDbLine
 62
7
  6
CONTINUOUS
 10
-3.7156736801
 20
-23.1869711716
 11
-3.6814470317
 21
-23.2250350813
  0
LINE
  5
376
100
AcDbEntity
  8
ASSI
100
AcDbLine
 62
7
  6
CONTINUOUS
 10
-3.6814470317
 20
-23.2250350813
 11
-3.6510743227
 21
-23.2592415573
  0
LWPOLYLINE
  5
377
100
AcDbEntity
  8
ASSI
100
AcDbPolyline
 62
7
  6
CONTINUOUS
 90
9
 70
0
 10
-3.6510743227
 20
-23.2592415573
 10
-3.6245403151
 20
-23.2895924631
 10
-3.6126425125
 20
-23.3034124422
 10
-3.6016349336
 20
-23.3163516812
 10
-3.5915047708
 20
-23.3284119318
 10
-3.5822016605
 20
-23.3396724306
 10
-3.5737214717
 20
-23.3501347275
 10
-3.5660509041
 20
-23.3597972726
 10
-3.5591426735
 20
-23.3687346532
  0
LWPOLYLINE
  5
378
100
AcDbEntity
  8
ASSI
100
AcDbPolyline
 62
7
  6
CONTINUOUS
 90
9
 70
0
 10
-10.6625434481
 20
-24.0093332519
 10
-10.6667015437
 20
-23.9981847764
 10
-10.6703244641
 20
-23.9868510816
 10
-10.6734040041
 20
-23.9753578414
 10
-10.6759331901
 20
-23.9637310901
 10
-10.6779062965
 20
-23.9519971688
 10
-10.6793188566
 20
-23.9401826582
 10
-10.6801676721
 20
-23.9283143186
 10
-10.6804508224
 20
-23.9164190334
  0
LWPOLYLINE
  5
379
100
AcDbEntity
  8
ASSI
100
AcDbPolyline
 62
7
  6
CONTINUOUS
 90
8
 70
0
 10
-3.5590304059
 20
24.0371614882
 10
-3.5658993679
 20
24.02834593
 10
-3.5735284538
 20
24.0188059057
 10
-3.5819713881
 20
24.0084569173
 10
-3.5912476216
 20
23.9972961744
 10
-3.6013601347
 20
23.9853264674
 10
-3.6123548348
 20
23.97247167
 10
-3.6242435947
 20
23.958731
  0
LINE
  5
37A
100
AcDbEntity
  8
0
100
AcDbLine
 62
250
  6
CONTINUOUS
 10
10.1370015841
 20
-16.6022012403
 11
11.1195491776
 21
-16.6022012403
  0
LINE
  5
37B
100
AcDbEntity
  8
ASSI
100
AcDbLine
 62
250
  6
CONTINUOUS
 10
10.1370015841
 20
-16.6022012403
 11
11.1195491776
 21
-16.6022012403
  0
LINE
  5
37C
100
AcDbEntity
  8
0
100
AcDbLine
 62
250
  6
CONTINUOUS
 10
-10.1979032288
 20
-16.6022012403
 11
-11.1804508224
 21
-16.6022012403
  0
LINE
  5
37D
100
AcDbEntity
  8
CURVE
100
AcDbLine
 62
250
  6
CONTINUOUS
 10
3.970857314
 20
-15.7378433549
 11
5.4706288568
 21
-15.7378433549
  0
LWPOLYLINE
  5
37E
100
AcDbEntity
  8
ASSI
100
AcDbPolyline
 62
7
  6
CONTINUOUS
 90
10
 70
0
 10
-3.5591426735
 20
-23.3687346532
 10
-3.552981618
 20
-23.3769664003
 10
-3.5475808181
 20
-23.3844729828
 10
-3.5429413132
 20
-23.3912703955
 10
-3.5390530898
 20
-23.3973505332
 10
-3.5359053901
 20
-23.4027215012
 10
-3.5334892549
 20
-23.4074236101
 10
-3.5317880809
 20
-23.4114702968
 10
-3.530781772
 20
-23.4148481244
 10
-3.5304508224
 20
-23.417557093
  0
LWPOLYLINE
  5
37F
100
AcDbEntity
  8
RACCORDO
100
AcDbPolyline
 62
7
  6
CONTINUOUS
 90
5
 70
0
 10
-10.6779062965
 20
24.6191675635
 10
-10.6759331901
 20
24.6309014849
 10
-10.6734040041
 20
24.6425282362
 10
-10.6703244641
 20
24.6540214764
 10
-10.6667015437
 20
24.6653551711
  0
LWPOLYLINE
  5
380
100
AcDbEntity
  8
ASSI
100
AcDbPolyline
 62
7
  6
CONTINUOUS
 90
8
 70
0
 10
-10.6779062965
 20
24.6191675635
 10
-10.6759331901
 20
24.6309014849
 10
-10.6734040041
 20
24.6425282362
 10
-10.6703244641
 20
24.6540214764
 10
-10.6667015437
 20
24.6653551711
 10
-10.6625434481
 20
24.6765036467
 10
-10.6578595945
 20
24.6874416437
 10
-10.6526605912
 20
24.698144385
  0
LWPOLYLINE
  5
381
100
AcDbEntity
  8
ASSI
100
AcDbPolyline
 62
7
  6
CONTINUOUS
 90
28
 70
0
 10
-10.6730107143
 20
24.6182566031
 10
-10.6706295842
 20
24.6311223218
 10
-10.6675764708
 20
24.643853787
 10
-10.663861031
 20
24.6564079716
 10
-10.6594944799
 20
24.6687477755
 10
-10.65448805
 20
24.6808421316
 10
-10.6488553015
 20
24.6926582099
 10
-10.6426114998
 20
24.7041638103
 10
-10.635773818
 20
24.7153271287
 10
-10.628361188
 20
24.7261172079
 10
-10.6203940457
 20
24.7365043338
 10
-10.6118941488
 20
24.7464601709
 10
-10.602884727
 20
24.7559575054
 10
-10.5933904338
 20
24.7649703245
 10
-10.5834373304
 20
24.773473866
 10
-10.5730527411
 20
24.7814447742
 10
-10.5622651508
 20
24.7888611811
 10
-10.5511041248
 20
24.7957027569
 10
-10.539600269
 20
24.801950736
 10
-10.5277851234
 20
24.8075879843
 10
-10.5156910862
 20
24.8125990398
 10
-10.50335133
 20
24.8169701548
 10
-10.4907996826
 20
24.8206893444
 10
-10.4780705687
 20
24.8237464055
 10
-10.465198929
 20
24.8261329482
 10
-10.4522200716
 20
24.8278424314
 10
-10.4391695733
 20
24.8288701744
 10
-10.4275376523
 20
24.8292090833
  0
LINE
  5
382
100
AcDbEntity
  8
CURVE
100
AcDbLine
 62
250
  6
CONTINUOUS
 10
5.0421226825
 20
-15.3092719072
 11
4.3993634436
 21
-15.3092719072
  0
LINE
  5
383
100
AcDbEntity
  8
CURVE
100
AcDbLine
 62
250
  6
CONTINUOUS
 10
7.1132357462
 20
-14.6664148026
 11
6.4704765519
 21
-14.6664148026
  0
LINE
  5
384
100
AcDbEntity
  8
CURVE
100
AcDbLine
 62
250
  6
CONTINUOUS
 10
4.3993634436
 20
-14.5592719966
 11
5.0421226825
 21
-14.5592719966
  0
LINE
  5
385
100
AcDbEntity
  8
CURVE
100
AcDbLine
 62
250
  6
CONTINUOUS
 10
5.0421226825
 20
-14.1307005936
 11
4.3993634436
 21
-14.1307005936
  0
LINE
  5
386
100
AcDbEntity
  8
CURVE
100
AcDbLine
 62
250
  6
CONTINUOUS
 10
7.7559950075
 20
-14.0235576534
 11
7.3274888557
 21
-14.0235576534
  0
LWPOLYLINE
  5
387
100
AcDbEntity
  8
RACCORDO
100
AcDbPolyline
 62
250
  6
CONTINUOUS
 90
5
 70
0
 10
-10.6706120305
 20
-23.9640345489
 10
-10.6729985732
 20
-23.9511629093
 10
-10.6747080564
 20
-23.9381840519
 10
-10.6757357994
 20
-23.9251335535
 10
-10.6760789884
 20
-23.9120471994
  0
LWPOLYLINE
  5
388
100
AcDbEntity
  8
RACCORDO
100
AcDbPolyline
 62
7
  6
CONTINUOUS
 90
5
 70
0
 10
-10.6759331901
 20
-23.9637310901
 10
-10.6779062965
 20
-23.9519971688
 10
-10.6793188566
 20
-23.9401826582
 10
-10.6801676721
 20
-23.9283143186
 10
-10.6804508224
 20
-23.9164190334
  0
LINE
  5
389
100
AcDbEntity
  8
ASSI
100
AcDbLine
 62
7
  6
CONTINUOUS
 10
-10.6746287759
 20
24.606097672
 11
-10.6730107143
 21
24.6182566031
  0
LINE
  5
38A
100
AcDbEntity
  8
ASSI
100
AcDbLine
 62
7
  6
CONTINUOUS
 10
4.2308505671
 20
23.9577591048
 11
4.2043001869
 21
23.9275468369
  0
LINE
  5
38B
100
AcDbEntity
  8
ASSI
100
AcDbLine
 62
7
  6
CONTINUOUS
 10
4.2043001869
 20
23.9275468369
 11
4.1739141167
 21
23.8934801447
  0
LINE
  5
38C
100
AcDbEntity
  8
ASSI
100
AcDbLine
 62
7
  6
CONTINUOUS
 10
4.1739141167
 20
23.8934801447
 11
4.1211690638
 21
23.835191879
  0
LINE
  5
38D
100
AcDbEntity
  8
ASSI
100
AcDbLine
 62
7
  6
CONTINUOUS
 10
4.1211690638
 20
23.835191879
 11
4.0601171031
 21
23.7685244524
  0
LWPOLYLINE
  5
38E
100
AcDbEntity
  8
ASSI
100
AcDbPolyline
 62
7
  6
CONTINUOUS
 90
3
 70
0
 10
4.0601171031
 20
23.7685244524
 10
3.9692781868
 20
23.6702188353
 10
3.8975191653
 20
23.5928434162
  0
LINE
  5
38F
100
AcDbEntity
  8
ASSI
100
AcDbLine
 62
7
  6
CONTINUOUS
 10
4.3695491776
 20
24.1335851974
 11
4.3258648817
 21
24.0899009014
  0
LINE
  5
390
100
AcDbEntity
  8
CURVE
100
AcDbLine
 62
250
  6
CONTINUOUS
 10
7.5417419204
 20
-13.5949862057
 11
6.8989826814
 21
-13.5949862057
  0
LINE
  5
391
100
AcDbEntity
  8
CURVE
100
AcDbLine
 62
250
  6
CONTINUOUS
 10
4.3993634436
 20
-13.3807005936
 11
5.0421226825
 21
-13.3807005936
  0
LINE
  5
392
100
AcDbEntity
  8
CURVE
100
AcDbLine
 62
250
  6
CONTINUOUS
 10
6.8989826814
 20
-12.8449862057
 11
7.5417419204
 21
-12.8449862057
  0
LINE
  5
393
100
AcDbEntity
  8
CURVE
100
AcDbLine
 62
250
  6
CONTINUOUS
 10
1.9711619237
 20
-15.4164148026
 11
1.2212761523
 21
-15.1057546309
  0
LINE
  5
394
100
AcDbEntity
  8
CURVE
100
AcDbLine
 62
250
  6
CONTINUOUS
 10
2.7210476951
 20
-14.4844342873
 11
1.2212761523
 21
-13.8631139437
  0
LINE
  5
395
100
AcDbEntity
  8
ASSI
100
AcDbLine
 62
7
  6
CONTINUOUS
 10
4.3695491776
 20
-23.4664148026
 11
4.3258985308
 21
-23.4227641558
  0
LINE
  5
396
100
AcDbEntity
  8
ASSI
100
AcDbLine
 62
7
  6
CONTINUOUS
 10
3.8975191653
 20
-22.9227726173
 11
3.9925203801
 21
-23.0255218671
  0
LINE
  5
397
100
AcDbEntity
  8
ASSI
100
AcDbLine
 62
7
  6
CONTINUOUS
 10
3.9925203801
 20
-23.0255218671
 11
4.0811771075
 21
-23.122006909
  0
LINE
  5
398
100
AcDbEntity
  8
ASSI
100
AcDbLine
 62
7
  6
CONTINUOUS
 10
4.0811771075
 20
-23.122006909
 11
4.1394713274
 21
-23.1860918107
  0
LINE
  5
399
100
AcDbEntity
  8
ASSI
100
AcDbLine
 62
7
  6
CONTINUOUS
 10
4.1394713274
 20
-23.1860918107
 11
4.1736499548
 21
-23.2240920713
  0
LWPOLYLINE
  5
39A
100
AcDbEntity
  8
ASSI
100
AcDbPolyline
 62
7
  6
CONTINUOUS
 90
20
 70
0
 10
4.1736499548
 20
-23.2240920713
 10
4.204011365
 20
-23.2582727077
 10
4.2177563138
 20
-23.2739215824
 10
4.2305612491
 20
-23.2886243495
 10
4.242475667
 20
-23.3024530871
 10
4.2535058858
 20
-23.3154065016
 10
4.2636636441
 20
-23.3274858865
 10
4.2729963914
 20
-23.3387672015
 10
4.2815076838
 20
-23.3492501483
 10
4.2892126862
 20
-23.3589350252
 10
4.2961600727
 20
-23.3678986862
 10
4.3023653227
 20
-23.3761607956
 10
4.3078160119
 20
-23.3837016892
 10
4.3125123934
 20
-23.3905392288
 10
4.3164645124
 20
-23.3966660915
 10
4.3196828152
 20
-23.4020896001
 10
4.3221762266
 20
-23.406849585
 10
4.3239609164
 20
-23.4109593229
 10
4.3250564622
 20
-23.414405537
 10
4.3254819104
 20
-23.4171882273
  0
LINE
  5
39B
100
AcDbEntity
  8
RACCORDO
100
AcDbLine
 62
250
  6
CONTINUOUS
 10
-10.6760789884
 20
-23.5107523699
 11
-10.6804508224
 21
-23.0768999508
  0
LINE
  5
39C
100
AcDbEntity
  8
ASSI
100
AcDbLine
 62
250
  6
CONTINUOUS
 10
-10.6760789884
 20
-23.5107523699
 11
-10.6804508224
 21
-23.0768999508
  0
LINE
  5
39D
100
AcDbEntity
  8
RACCORDO
100
AcDbLine
 62
250
  6
CONTINUOUS
 10
-10.4260832192
 20
-23.294246019
 11
-10.4311738202
 21
-22.7890645334
  0
LINE
  5
39E
100
AcDbEntity
  8
ASSI
100
AcDbLine
 62
250
  6
CONTINUOUS
 10
-10.4260832192
 20
-23.294246019
 11
-10.4311738202
 21
-22.7890645334
  0
LINE
  5
39F
100
AcDbEntity
  8
ASSI
100
AcDbLine
 62
250
  6
CONTINUOUS
 10
-10.6760747083
 20
-23.9135016325
 11
-10.6760789884
 21
-23.9120471994
  0
LINE
  5
3A0
100
AcDbEntity
  8
0
100
AcDbLine
 62
7
  6
CONTINUOUS
 10
-11.1804508224
 20
17.269371635
 11
-11.1804508224
 21
-16.6022012403
  0
LINE
  5
3A1
100
AcDbEntity
  8
RACCORDO
100
AcDbLine
 62
7
  6
CONTINUOUS
 10
-11.1804508224
 20
-21.5675946471
 11
-11.1804508224
 21
-16.6022012403
  0
LINE
  5
3A2
100
AcDbEntity
  8
ASSI
100
AcDbLine
 62
7
  6
CONTINUOUS
 10
-11.1804508224
 20
-21.5675946471
 11
-11.1804508224
 21
-16.6022012403
  0
LINE
  5
3A3
100
AcDbEntity
  8
RACCORDO
100
AcDbLine
 62
7
  6
CONTINUOUS
 10
-11.1804508224
 20
17.269371635
 11
-11.1804508224
 21
22.2347650418
  0
LINE
  5
3A4
100
AcDbEntity
  8
ASSI
100
AcDbLine
 62
7
  6
CONTINUOUS
 10
-11.1804508224
 20
17.269371635
 11
-11.1804508224
 21
22.2347650418
  0
LINE
  5
3A5
100
AcDbEntity
  8
RACCORDO
100
AcDbLine
 62
7
  6
CONTINUOUS
 10
-10.6804508224
 20
-22.0663558088
 11
-10.6804508224
 21
-23.5107523699
  0
LINE
  5
3A6
100
AcDbEntity
  8
ASSI
100
AcDbLine
 62
7
  6
CONTINUOUS
 10
-10.6804508224
 20
-22.0663558088
 11
-10.6804508224
 21
-23.5107523699
  0
LINE
  5
3A7
100
AcDbEntity
  8
RACCORDO
100
AcDbLine
 62
7
  6
CONTINUOUS
 10
-10.6804508224
 20
22.7335262035
 11
-10.6804508224
 21
24.1779227647
  0
LINE
  5
3A8
100
AcDbEntity
  8
ASSI
100
AcDbLine
 62
7
  6
CONTINUOUS
 10
-10.6804508224
 20
22.7335262035
 11
-10.6804508224
 21
24.1779227647
  0
LINE
  5
3A9
100
AcDbEntity
  8
RACCORDO
100
AcDbLine
 62
250
  6
CONTINUOUS
 10
-10.6760789884
 20
24.5792175942
 11
-10.6760789884
 21
24.1779227647
  0
LINE
  5
3AA
100
AcDbEntity
  8
ASSI
100
AcDbLine
 62
7
  6
CONTINUOUS
 10
-10.6760789884
 20
24.5792175942
 11
-10.6760789884
 21
24.1779227647
  0
LINE
  5
3AB
100
AcDbEntity
  8
RACCORDO
100
AcDbLine
 62
250
  6
CONTINUOUS
 10
-10.6760789884
 20
-23.5107523699
 11
-10.6760789884
 21
-23.9120471994
  0
LINE
  5
3AC
100
AcDbEntity
  8
ASSI
100
AcDbLine
 62
7
  6
CONTINUOUS
 10
-10.6760789884
 20
-23.5107523699
 11
-10.6760789884
 21
-23.9120471994
  0
LINE
  5
3AD
100
AcDbEntity
  8
RACCORDO
100
AcDbLine
 62
250
  6
CONTINUOUS
 10
-10.6804508224
 20
23.7440703456
 11
-10.6760789884
 21
24.1779227647
  0
LINE
  5
3AE
100
AcDbEntity
  8
ASSI
100
AcDbLine
 62
250
  6
CONTINUOUS
 10
-10.6804508224
 20
23.7440703456
 11
-10.6760789884
 21
24.1779227647
  0
LINE
  5
3AF
100
AcDbEntity
  8
RACCORDO
100
AcDbLine
 62
250
  6
CONTINUOUS
 10
-10.4311738202
 20
23.4562349282
 11
-10.4253559904
 21
24.0335851974
  0
LINE
  5
3B0
100
AcDbEntity
  8
ASSI
100
AcDbLine
 62
250
  6
CONTINUOUS
 10
-10.4311738202
 20
23.4562349282
 11
-10.4253559904
 21
24.0335851974
  0
LWPOLYLINE
  5
3B1
100
AcDbEntity
  8
RACCORDO
100
AcDbPolyline
 62
7
  6
CONTINUOUS
 90
4
 70
0
 10
-10.6804508224
 20
24.5835894282
 10
-10.6801676721
 20
24.5954847134
 10
-10.6793188566
 20
24.6073530529
 10
-10.6779062965
 20
24.6191675635
  0
LWPOLYLINE
  5
3B2
100
AcDbEntity
  8
ASSI
100
AcDbPolyline
 62
7
  6
CONTINUOUS
 90
4
 70
0
 10
-10.6804508224
 20
24.5835894282
 10
-10.6801676721
 20
24.5954847134
 10
-10.6793188566
 20
24.6073530529
 10
-10.6779062965
 20
24.6191675635
  0
LWPOLYLINE
  5
3B3
100
AcDbEntity
  8
RACCORDO
100
AcDbPolyline
 62
250
  6
CONTINUOUS
 90
7
 70
0
 10
-10.6760789884
 20
24.5792175942
 10
-10.6757375812
 20
24.5922699341
 10
-10.6747143185
 20
24.6052948285
 10
-10.6730107143
 20
24.6182566031
 10
-10.6706295842
 20
24.6311223218
 10
-10.6675764708
 20
24.643853787
 10
-10.663861031
 20
24.6564079716
  0
LWPOLYLINE
  5
3B4
100
AcDbEntity
  8
ASSI
100
AcDbPolyline
 62
250
  6
CONTINUOUS
 90
3
 70
0
 10
-10.6760789884
 20
24.5792175942
 10
-10.6757375812
 20
24.5922699341
 10
-10.6746287759
 20
24.606097672
  0
LINE
  5
3B5
100
AcDbEntity
  8
IMPORT_IGES
100
AcDbLine
 62
250
  6
CONTINUOUS
 10
-3.5122304979
 20
12.733585356
 11
-3.2536586167
 21
12.9921638407
  0
LINE
  5
3B6
100
AcDbEntity
  8
CURVE
100
AcDbLine
 62
250
  6
CONTINUOUS
 10
7.2203623233
 20
-11.2735577279
 11
7.7559950075
 21
-11.2735577279
  0
LINE
  5
3B7
100
AcDbEntity
  8
CURVE
100
AcDbLine
 62
250
  6
CONTINUOUS
 10
4.3993634436
 20
-11.1307004147
 11
4.1851103788
 21
-11.1307004147
  0
LINE
  5
3B8
100
AcDbEntity
  8
CURVE
100
AcDbLine
 62
250
  6
CONTINUOUS
 10
7.7559950075
 20
-10.5235577279
 11
7.3274888557
 21
-10.5235577279
  0
LINE
  5
3B9
100
AcDbEntity
  8
CURVE
100
AcDbLine
 62
250
  6
CONTINUOUS
 10
5.4706288568
 20
-10.2021289521
 11
4.7207430854
 21
-10.2021289521
  0
LINE
  5
3BA
100
AcDbEntity
  8
CURVE
100
AcDbLine
 62
250
  6
CONTINUOUS
 10
2.7210476951
 20
-13.2417936002
 11
1.2212761523
 21
-12.6204732566
  0
LINE
  5
3BB
100
AcDbEntity
  8
CURVE
100
AcDbLine
 62
250
  6
CONTINUOUS
 10
4.3993634436
 20
-15.3092719072
 11
4.1851103788
 21
-15.2021291011
  0
LINE
  5
3BC
100
AcDbEntity
  8
CURVE
100
AcDbLine
 62
250
  6
CONTINUOUS
 10
5.0421226825
 20
-14.5592719966
 11
5.2563757696
 21
-14.6664148026
  0
LINE
  5
3BD
100
AcDbEntity
  8
CURVE
100
AcDbLine
 62
250
  6
CONTINUOUS
 10
4.3993634436
 20
-14.1307005936
 11
4.1851103788
 21
-14.0235576087
  0
LWPOLYLINE
  5
3BE
100
AcDbEntity
  8
0
100
AcDbPolyline
 62
250
  6
CONTINUOUS
 90
13
 70
0
 10
-8.58753825
 20
-19.162880377
 10
-8.5872313024
 20
-19.1714715136
 10
-8.5869077578
 20
-19.179338334
 10
-8.5865678619
 20
-19.1864748652
 10
-8.5862118728
 20
-19.1928756898
 10
-8.5858400607
 20
-19.1985359502
 10
-8.5854527077
 20
-19.2034513509
 10
-8.5850501073
 20
-19.207618166
 10
-8.5846325657
 20
-19.2110332252
 10
-8.5842004016
 20
-19.2136939266
 10
-8.5837539438
 20
-19.2155982577
 10
-8.5832935308
 20
-19.2167447864
 10
-8.5828195124
 20
-19.2171326519
  0
LWPOLYLINE
  5
3BF
100
AcDbEntity
  8
RACCORDO
100
AcDbPolyline
 62
250
  6
CONTINUOUS
 90
31
 70
0
 10
-8.2848226564
 20
-23.5107523699
 10
-8.2852020109
 20
-23.4994418622
 10
-8.2862630586
 20
-23.4881622431
 10
-8.288002902
 20
-23.4769443167
 10
-8.2904167872
 20
-23.4658187279
 10
-8.2934981232
 20
-23.454815851
 10
-8.297238505
 20
-23.4439657083
 10
-8.3016277313
 20
-23.4332979122
 10
-8.3066538135
 20
-23.4228416187
 10
-8.3123030099
 20
-23.4126254194
 10
-8.3185598817
 20
-23.4026772279
 10
-8.3254073472
 20
-23.3930241972
 10
-8.3328267113
 20
-23.3836926811
 10
-8.3407977149
 20
-23.3747081601
 10
-8.3492985864
 20
-23.3660951747
 10
-8.3583061068
 20
-23.3578772495
 10
-8.3677956705
 20
-23.3500768312
 10
-8.3777413662
 20
-23.3427152176
 10
-8.3881160457
 20
-23.3358125037
 10
-8.3988913982
 20
-23.3293875301
 10
-8.4100379777
 20
-23.3234578586
 10
-8.421525292
 20
-23.3180397073
 10
-8.433321934
 20
-23.3131478801
 10
-8.4453957148
 20
-23.3087957155
 10
-8.4577137035
 20
-23.3049950806
 10
-8.4702427357
 20
-23.3017562434
 10
-8.4829481336
 20
-23.2990882033
 10
-8.4957937849
 20
-23.296998444
 10
-8.5087440996
 20
-23.2954925255
 10
-8.5217641636
 20
-23.2945742795
 10
-8.5348184256
 20
-23.294246019
  0
LWPOLYLINE
  5
3C0
100
AcDbEntity
  8
ASSI
100
AcDbPolyline
 62
250
  6
CONTINUOUS
 90
31
 70
0
 10
-8.2848226564
 20
-23.5107523699
 10
-8.2852020109
 20
-23.4994418622
 10
-8.2862630586
 20
-23.4881622431
 10
-8.288002902
 20
-23.4769443167
 10
-8.2904167872
 20
-23.4658187279
 10
-8.2934981232
 20
-23.454815851
 10
-8.297238505
 20
-23.4439657083
 10
-8.3016277313
 20
-23.4332979122
 10
-8.3066538135
 20
-23.4228416187
 10
-8.3123030099
 20
-23.4126254194
 10
-8.3185598817
 20
-23.4026772279
 10
-8.3254073472
 20
-23.3930241972
 10
-8.3328267113
 20
-23.3836926811
 10
-8.3407977149
 20
-23.3747081601
 10
-8.3492985864
 20
-23.3660951747
 10
-8.3583061068
 20
-23.3578772495
 10
-8.3677956705
 20
-23.3500768312
 10
-8.3777413662
 20
-23.3427152176
 10
-8.3881160457
 20
-23.3358125037
 10
-8.3988913982
 20
-23.3293875301
 10
-8.4100379777
 20
-23.3234578586
 10
-8.421525292
 20
-23.3180397073
 10
-8.433321934
 20
-23.3131478801
 10
-8.4453957148
 20
-23.3087957155
 10
-8.4577137035
 20
-23.3049950806
 10
-8.4702427357
 20
-23.3017562434
 10
-8.4829481336
 20
-23.2990882033
 10
-8.4957937849
 20
-23.296998444
 10
-8.5087440996
 20
-23.2954925255
 10
-8.5217641636
 20
-23.2945742795
 10
-8.5348184256
 20
-23.294246019
  0
LINE
  5
3C1
100
AcDbEntity
  8
0
100
AcDbLine
 62
250
  6
CONTINUOUS
 10
-8.5881014351
 20
-19.1435517872
 11
-8.58753825
 21
-19.162880377
  0
LINE
  5
3C2
100
AcDbEntity
  8
0
100
AcDbLine
 62
250
  6
CONTINUOUS
 10
-8.5885956035
 20
-19.1214112411
 11
-8.5881014351
 21
-19.1435517872
  0
LINE
  5
3C3
100
AcDbEntity
  8
0
100
AcDbLine
 62
250
  6
CONTINUOUS
 10
-8.5890192548
 20
-19.0965259531
 11
-8.5885956035
 21
-19.1214112411
  0
LWPOLYLINE
  5
3C4
100
AcDbEntity
  8
0
100
AcDbPolyline
 62
250
  6
CONTINUOUS
 90
3
 70
0
 10
-8.5896500803
 20
-19.0388314425
 10
-8.5895197588
 20
-19.0542191115
 10
-8.5890192548
 20
-19.0965259531
  0
LINE
  5
3C5
100
AcDbEntity
  8
RACCORDO
100
AcDbLine
 62
250
  6
CONTINUOUS
 10
-10.4260832192
 20
-23.294246019
 11
-10.4260832192
 21
-24.1620429686
  0
LINE
  5
3C6
100
AcDbEntity
  8
ASSI
100
AcDbLine
 62
250
  6
CONTINUOUS
 10
-10.4260832192
 20
-23.294246019
 11
-10.4260832192
 21
-24.1620429686
  0
LINE
  5
3C7
100
AcDbEntity
  8
RACCORDO
100
AcDbLine
 62
250
  6
CONTINUOUS
 10
-10.4260832192
 20
24.0335851974
 11
-10.4260832192
 21
24.8292133634
  0
LINE
  5
3C8
100
AcDbEntity
  8
ASSI
100
AcDbLine
 62
250
  6
CONTINUOUS
 10
-10.4260832192
 20
24.0335851974
 11
-10.4260832192
 21
24.8292133634
  0
LINE
  5
3C9
100
AcDbEntity
  8
0
100
AcDbLine
 62
250
  6
CONTINUOUS
 10
-10.1979032288
 20
17.269371635
 11
-10.1979032288
 21
-16.6022012403
  0
LINE
  5
3CA
100
AcDbEntity
  8
DRAFT
100
AcDbLine
 62
7
  6
CONTINUOUS
 10
-9.6804508224
 20
-20.5664148026
 11
-9.6804508224
 21
-18.5164148026
  0
LINE
  5
3CB
100
AcDbEntity
  8
ASSI
100
AcDbLine
 62
7
  6
CONTINUOUS
 10
-9.6804508224
 20
-20.5664148026
 11
-9.6804508224
 21
-18.5164148026
  0
LINE
  5
3CC
100
AcDbEntity
  8
DRAFT
100
AcDbLine
 62
7
  6
CONTINUOUS
 10
-9.6804508224
 20
19.1835851974
 11
-9.6804508224
 21
21.2335851974
  0
LINE
  5
3CD
100
AcDbEntity
  8
ASSI
100
AcDbLine
 62
7
  6
CONTINUOUS
 10
-9.6804508224
 20
19.1835851974
 11
-9.6804508224
 21
21.2335851974
  0
LINE
  5
3CE
100
AcDbEntity
  8
DRAFT
100
AcDbLine
 62
7
  6
CONTINUOUS
 10
-9.5251007445
 20
20.7671559617
 11
-9.5251007445
 21
19.3389352752
  0
LINE
  5
3CF
100
AcDbEntity
  8
ASSI
100
AcDbLine
 62
7
  6
CONTINUOUS
 10
-9.5251007445
 20
20.7671559617
 11
-9.5251007445
 21
19.3389352752
  0
LINE
  5
3D0
100
AcDbEntity
  8
DRAFT
100
AcDbLine
 62
7
  6
CONTINUOUS
 10
-9.5251007445
 20
-18.6717648805
 11
-9.5251007445
 21
-20.099985567
  0
LINE
  5
3D1
100
AcDbEntity
  8
ASSI
100
AcDbLine
 62
7
  6
CONTINUOUS
 10
-9.5251007445
 20
-18.6717648805
 11
-9.5251007445
 21
-20.099985567
  0
LINE
  5
3D2
100
AcDbEntity
  8
0
100
AcDbLine
 62
250
  6
CONTINUOUS
 10
-8.5896500793
 20
19.7060019633
 11
-8.5892042248
 21
19.7502478332
  0
LINE
  5
3D3
100
AcDbEntity
  8
0
100
AcDbLine
 62
250
  6
CONTINUOUS
 10
-8.5892042248
 20
19.7502478332
 11
-8.5888163273
 21
19.7764776663
  0
LINE
  5
3D4
100
AcDbEntity
  8
0
100
AcDbLine
 62
250
  6
CONTINUOUS
 10
-8.5888163273
 20
19.7764776663
 11
-8.5883572428
 21
19.7999995015
  0
LWPOLYLINE
  5
3D5
100
AcDbEntity
  8
0
100
AcDbPolyline
 62
250
  6
CONTINUOUS
 90
15
 70
0
 10
-8.5883572428
 20
19.7999995015
 10
-8.5878283649
 20
19.820741934
 10
-8.5875382471
 20
19.8300508593
 10
-8.5872312993
 20
19.8386419882
 10
-8.5869077546
 20
19.8465088002
 10
-8.5865678586
 20
19.8536453244
 10
-8.5862118692
 20
19.8600461442
 10
-8.5858400567
 20
19.8657064001
 10
-8.5854527035
 20
19.8706217939
 10
-8.585050103
 20
19.8747886005
 10
-8.5846325614
 20
19.8782036503
 10
-8.5842003977
 20
19.8808643413
 10
-8.5837539408
 20
19.8827686625
 10
-8.5832935291
 20
19.883915184
 10
-8.5828195124
 20
19.8843030466
  0
LWPOLYLINE
  5
3D6
100
AcDbEntity
  8
RACCORDO
100
AcDbPolyline
 62
250
  6
CONTINUOUS
 90
31
 70
0
 10
-10.6760789884
 20
-23.5107523699
 10
-10.6757004327
 20
-23.4994543977
 10
-10.6746413052
 20
-23.4881840936
 10
-10.6729039286
 20
-23.4769722238
 10
-10.6704922272
 20
-23.4658484147
 10
-10.667412357
 20
-23.4548441626
 10
-10.663673306
 20
-23.4439926228
 10
-10.6592857616
 20
-23.4333244998
 10
-10.6542613626
 20
-23.4228678265
 10
-10.648613682
 20
-23.4126509077
 10
-10.6423579894
 20
-23.4027015025
 10
-10.6355114148
 20
-23.393046978
 10
-10.6280928066
 20
-23.3837139546
 10
-10.6201225025
 20
-23.3747280044
 10
-10.6116222077
 20
-23.3661135852
 10
-10.6026151172
 20
-23.3578942068
 10
-10.5931258136
 20
-23.3500923102
 10
-10.5831802265
 20
-23.3427292219
 10
-10.5728055436
 20
-23.3358250731
 10
-10.5620301112
 20
-23.3293987265
 10
-10.5508833532
 20
-23.3234677295
 10
-10.5393957161
 20
-23.3180482822
 10
-10.5275985594
 20
-23.3131551802
 10
-10.515524123
 20
-23.3088017971
 10
-10.5032054434
 20
-23.3050000397
 10
-10.490676208
 20
-23.3017602933
 10
-10.4779706051
 20
-23.2990913868
 10
-10.4651232843
 20
-23.2970005944
 10
-10.4521693171
 20
-23.2954936245
 10
-10.4391441033
 20
-23.2945745961
 10
-10.4260832192
 20
-23.294246019
  0
LWPOLYLINE
  5
3D7
100
AcDbEntity
  8
ASSI
100
AcDbPolyline
 62
250
  6
CONTINUOUS
 90
31
 70
0
 10
-10.6760789884
 20
-23.5107523699
 10
-10.6757004327
 20
-23.4994543977
 10
-10.6746413052
 20
-23.4881840936
 10
-10.6729039286
 20
-23.4769722238
 10
-10.6704922272
 20
-23.4658484147
 10
-10.667412357
 20
-23.4548441626
 10
-10.663673306
 20
-23.4439926228
 10
-10.6592857616
 20
-23.4333244998
 10
-10.6542613626
 20
-23.4228678265
 10
-10.648613682
 20
-23.4126509077
 10
-10.6423579894
 20
-23.4027015025
 10
-10.6355114148
 20
-23.393046978
 10
-10.6280928066
 20
-23.3837139546
 10
-10.6201225025
 20
-23.3747280044
 10
-10.6116222077
 20
-23.3661135852
 10
-10.6026151172
 20
-23.3578942068
 10
-10.5931258136
 20
-23.3500923102
 10
-10.5831802265
 20
-23.3427292219
 10
-10.5728055436
 20
-23.3358250731
 10
-10.5620301112
 20
-23.3293987265
 10
-10.5508833532
 20
-23.3234677295
 10
-10.5393957161
 20
-23.3180482822
 10
-10.5275985594
 20
-23.3131551802
 10
-10.515524123
 20
-23.3088017971
 10
-10.5032054434
 20
-23.3050000397
 10
-10.490676208
 20
-23.3017602933
 10
-10.4779706051
 20
-23.2990913868
 10
-10.4651232843
 20
-23.2970005944
 10
-10.4521693171
 20
-23.2954936245
 10
-10.4391441033
 20
-23.2945745961
 10
-10.4260832192
 20
-23.294246019
  0
LWPOLYLINE
  5
3D8
100
AcDbEntity
  8
RACCORDO
100
AcDbPolyline
 62
7
  6
CONTINUOUS
 90
34
 70
0
 10
-8.2848226564
 20
24.1779227647
 10
-8.2851203827
 20
24.1716811856
 10
-8.2858916341
 20
24.1654080745
 10
-8.2871419969
 20
24.1591216585
 10
-8.2888760442
 20
24.1528476264
 10
-8.2910974869
 20
24.1465980881
 10
-8.2938095069
 20
24.1403716041
 10
-8.2970140037
 20
24.1341886667
 10
-8.3007119283
 20
24.1280690365
 10
-8.3049041793
 20
24.1220108799
 10
-8.3095896635
 20
24.1160357032
 10
-8.3147663054
 20
24.1101642955
 10
-8.3204326762
 20
24.1043944737
 10
-8.32658446
 20
24.0987484927
 10
-8.3332162424
 20
24.0932479996
 10
-8.3403240452
 20
24.0878906639
 10
-8.3479000408
 20
24.0826992115
 10
-8.3559351228
 20
24.0776959028
 10
-8.3644223483
 20
24.0728784887
 10
-8.3733500578
 20
24.0682697953
 10
-8.3827050366
 20
24.0638923865
 10
-8.3924767112
 20
24.0597443386
 10
-8.4026492224
 20
24.0558480796
 10
-8.4132048095
 20
24.0522260368
 10
-8.4241284103
 20
24.0488768006
 10
-8.4353994678
 20
24.0458217675
 10
-8.4469953923
 20
24.0430825612
 10
-8.45889609
 20
24.0406582798
 10
-8.4710629178
 20
24.0385714791
 10
-8.4834809727
 20
24.0368380201
 10
-8.4961649668
 20
24.0354518991
 10
-8.5090996773
 20
24.0344288171
 10
-8.5222381789
 20
24.0337996273
 10
-8.5355456543
 20
24.0335851974
  0
LWPOLYLINE
  5
3D9
100
AcDbEntity
  8
ASSI
100
AcDbPolyline
 62
7
  6
CONTINUOUS
 90
34
 70
0
 10
-8.2848226564
 20
24.1779227647
 10
-8.2851203827
 20
24.1716811856
 10
-8.2858916341
 20
24.1654080745
 10
-8.2871419969
 20
24.1591216585
 10
-8.2888760442
 20
24.1528476264
 10
-8.2910974869
 20
24.1465980881
 10
-8.2938095069
 20
24.1403716041
 10
-8.2970140037
 20
24.1341886667
 10
-8.3007119283
 20
24.1280690365
 10
-8.3049041793
 20
24.1220108799
 10
-8.3095896635
 20
24.1160357032
 10
-8.3147663054
 20
24.1101642955
 10
-8.3204326762
 20
24.1043944737
 10
-8.32658446
 20
24.0987484927
 10
-8.3332162424
 20
24.0932479996
 10
-8.3403240452
 20
24.0878906639
 10
-8.3479000408
 20
24.0826992115
 10
-8.3559351228
 20
24.0776959028
 10
-8.3644223483
 20
24.0728784887
 10
-8.3733500578
 20
24.0682697953
 10
-8.3827050366
 20
24.0638923865
 10
-8.3924767112
 20
24.0597443386
 10
-8.4026492224
 20
24.0558480796
 10
-8.4132048095
 20
24.0522260368
 10
-8.4241284103
 20
24.0488768006
 10
-8.4353994678
 20
24.0458217675
 10
-8.4469953923
 20
24.0430825612
 10
-8.45889609
 20
24.0406582798
 10
-8.4710629178
 20
24.0385714791
 10
-8.4834809727
 20
24.0368380201
 10
-8.4961649668
 20
24.0354518991
 10
-8.5090996773
 20
24.0344288171
 10
-8.5222381789
 20
24.0337996273
 10
-8.5355456543
 20
24.0335851974
  0
LINE
  5
3DA
100
AcDbEntity
  8
DRAFT
100
AcDbLine
 62
7
  6
CONTINUOUS
 10
-7.3304508224
 20
21.2335851974
 11
-7.3822295077
 21
20.7671559617
  0
LINE
  5
3DB
100
AcDbEntity
  8
ASSI
100
AcDbLine
 62
7
  6
CONTINUOUS
 10
-7.3304508224
 20
21.2335851974
 11
-7.3822295077
 21
20.7671559617
  0
LINE
  5
3DC
100
AcDbEntity
  8
DRAFT
100
AcDbLine
 62
7
  6
CONTINUOUS
 10
4.3695491776
 20
22.7335851974
 11
4.3254819104
 21
22.6674833643
  0
LINE
  5
3DD
100
AcDbEntity
  8
ASSI
100
AcDbLine
 62
7
  6
CONTINUOUS
 10
4.3695491776
 20
22.7335851974
 11
4.3254819104
 21
22.6674833643
  0
LWPOLYLINE
  5
3DE
100
AcDbEntity
  8
0
100
AcDbPolyline
 62
250
  6
CONTINUOUS
 90
10
 70
0
 10
7.0274102602
 20
20.8183046403
 10
7.0308509917
 20
20.8219700325
 10
7.0338789888
 20
20.8252326444
 10
7.0364906204
 20
20.8280885636
 10
7.0386827551
 20
20.8305343656
 10
7.0404527641
 20
20.8325671176
 10
7.041798525
 20
20.834184382
 10
7.0427184241
 20
20.8353842197
 10
7.0432113583
 20
20.8361651918
 10
7.0432767366
 20
20.8365263619
  0
LWPOLYLINE
  5
3DF
100
AcDbEntity
  8
ASSI
100
AcDbPolyline
 62
250
  6
CONTINUOUS
 90
10
 70
0
 10
7.0274102602
 20
20.8183046403
 10
7.0308509917
 20
20.8219700325
 10
7.0338789888
 20
20.8252326444
 10
7.0364906204
 20
20.8280885636
 10
7.0386827551
 20
20.8305343656
 10
7.0404527641
 20
20.8325671176
 10
7.041798525
 20
20.834184382
 10
7.0427184241
 20
20.8353842197
 10
7.0432113583
 20
20.8361651918
 10
7.0432767366
 20
20.8365263619
  0
LINE
  5
3E0
100
AcDbEntity
  8
0
100
AcDbLine
 62
250
  6
CONTINUOUS
 10
7.0193075871
 20
20.8097835731
 11
7.0274102602
 21
20.8183046403
  0
LINE
  5
3E1
100
AcDbEntity
  8
ASSI
100
AcDbLine
 62
250
  6
CONTINUOUS
 10
7.0193075871
 20
20.8097835731
 11
7.0274102602
 21
20.8183046403
  0
LINE
  5
3E2
100
AcDbEntity
  8
0
100
AcDbLine
 62
250
  6
CONTINUOUS
 10
7.009609822
 20
20.7997103017
 11
7.0193075871
 21
20.8097835731
  0
LINE
  5
3E3
100
AcDbEntity
  8
ASSI
100
AcDbLine
 62
250
  6
CONTINUOUS
 10
7.009609822
 20
20.7997103017
 11
7.0193075871
 21
20.8097835731
  0
LINE
  5
3E4
100
AcDbEntity
  8
0
100
AcDbLine
 62
250
  6
CONTINUOUS
 10
6.9921761348
 20
20.78179765
 11
7.009609822
 21
20.7997103017
  0
LINE
  5
3E5
100
AcDbEntity
  8
ASSI
100
AcDbLine
 62
250
  6
CONTINUOUS
 10
6.9921761348
 20
20.78179765
 11
7.009609822
 21
20.7997103017
  0
LINE
  5
3E6
100
AcDbEntity
  8
0
100
AcDbLine
 62
250
  6
CONTINUOUS
 10
6.9638439477
 20
20.7529919383
 11
6.9921761348
 21
20.78179765
  0
LINE
  5
3E7
100
AcDbEntity
  8
ASSI
100
AcDbLine
 62
250
  6
CONTINUOUS
 10
6.9638439477
 20
20.7529919383
 11
6.9921761348
 21
20.78179765
  0
LINE
  5
3E8
100
AcDbEntity
  8
0
100
AcDbLine
 62
250
  6
CONTINUOUS
 10
6.9115868006
 20
20.7003952849
 11
6.9638439477
 21
20.7529919383
  0
LINE
  5
3E9
100
AcDbEntity
  8
ASSI
100
AcDbLine
 62
250
  6
CONTINUOUS
 10
6.9115868006
 20
20.7003952849
 11
6.9638439477
 21
20.7529919383
  0
LINE
  5
3EA
100
AcDbEntity
  8
0
100
AcDbLine
 62
250
  6
CONTINUOUS
 10
6.8273094827
 20
20.6163750814
 11
6.9115868006
 21
20.7003952849
  0
LINE
  5
3EB
100
AcDbEntity
  8
ASSI
100
AcDbLine
 62
250
  6
CONTINUOUS
 10
6.8273094827
 20
20.6163750814
 11
6.9115868006
 21
20.7003952849
  0
LWPOLYLINE
  5
3EC
100
AcDbEntity
  8
0
100
AcDbPolyline
 62
250
  6
CONTINUOUS
 90
3
 70
0
 10
6.6953777152
 20
20.4860717297
 10
6.7077171264
 20
20.4982064727
 10
6.8273094827
 20
20.6163750814
  0
LWPOLYLINE
  5
3ED
100
AcDbEntity
  8
ASSI
100
AcDbPolyline
 62
250
  6
CONTINUOUS
 90
3
 70
0
 10
6.6953777152
 20
20.4860717297
 10
6.7077171264
 20
20.4982064727
 10
6.8273094827
 20
20.6163750814
  0
LINE
  5
3EE
100
AcDbEntity
  8
CURVE
100
AcDbLine
 62
250
  6
CONTINUOUS
 10
3.2243043559
 20
15.6460851974
 11
3.6409075746
 21
15.9585851974
  0
LINE
  5
3EF
100
AcDbEntity
  8
CURVE
100
AcDbLine
 62
250
  6
CONTINUOUS
 10
7.5417419204
 20
-10.0949861461
 11
6.8989826814
 21
-10.0949861461
  0
LINE
  5
3F0
100
AcDbEntity
  8
CURVE
100
AcDbLine
 62
250
  6
CONTINUOUS
 10
5.0421226825
 20
-9.5235579663
 11
4.3993634436
 21
-9.5235579663
  0
LINE
  5
3F1
100
AcDbEntity
  8
CURVE
100
AcDbLine
 62
250
  6
CONTINUOUS
 10
6.8989826814
 20
-9.3449861461
 11
7.5417419204
 21
-9.3449861461
  0
LINE
  5
3F2
100
AcDbEntity
  8
CURVE
100
AcDbLine
 62
250
  6
CONTINUOUS
 10
1.2212761523
 20
-9.1919018089
 11
2.7210476951
 21
-9.1919018089
  0
LINE
  5
3F3
100
AcDbEntity
  8
CURVE
100
AcDbLine
 62
250
  6
CONTINUOUS
 10
7.9702480947
 20
-8.9164149218
 11
6.4704765519
 21
-8.9164149218
  0
LINE
  5
3F4
100
AcDbEntity
  8
CURVE
100
AcDbLine
 62
250
  6
CONTINUOUS
 10
4.3993634436
 20
-8.7735579663
 11
5.0421226825
 21
-8.7735579663
  0
LINE
  5
3F5
100
AcDbEntity
  8
CURVE
100
AcDbLine
 62
250
  6
CONTINUOUS
 10
1.9711619237
 20
-8.7633303612
 11
2.506794608
 21
-8.7633303612
  0
LINE
  5
3F6
100
AcDbEntity
  8
CURVE
100
AcDbLine
 62
250
  6
CONTINUOUS
 10
5.1492492373
 20
-10.7021291905
 11
3.970857314
 21
-10.3807004147
  0
LINE
  5
3F7
100
AcDbEntity
  8
CURVE
100
AcDbLine
 62
250
  6
CONTINUOUS
 10
5.0421226825
 20
-13.3807005936
 11
5.2563757696
 21
-13.4878433996
  0
LINE
  5
3F8
100
AcDbEntity
  8
CURVE
100
AcDbLine
 62
250
  6
CONTINUOUS
 10
6.8989826814
 20
-13.5949862057
 11
6.6847296167
 21
-13.4878433996
  0
LINE
  5
3F9
100
AcDbEntity
  8
0
100
AcDbLine
 62
250
  6
CONTINUOUS
 10
6.6953777152
 20
-19.818901335
 11
6.7807083728
 21
-19.9030318827
  0
LINE
  5
3FA
100
AcDbEntity
  8
ASSI
100
AcDbLine
 62
250
  6
CONTINUOUS
 10
6.6953777152
 20
-19.818901335
 11
6.7807083728
 21
-19.9030318827
  0
LINE
  5
3FB
100
AcDbEntity
  8
0
100
AcDbLine
 62
250
  6
CONTINUOUS
 10
6.7807083728
 20
-19.9030318827
 11
6.8605390297
 21
-19.9822428737
  0
LINE
  5
3FC
100
AcDbEntity
  8
ASSI
100
AcDbLine
 62
250
  6
CONTINUOUS
 10
6.7807083728
 20
-19.9030318827
 11
6.8605390297
 21
-19.9822428737
  0
LINE
  5
3FD
100
AcDbEntity
  8
0
100
AcDbLine
 62
250
  6
CONTINUOUS
 10
6.8605390297
 20
-19.9822428737
 11
6.9210347117
 21
-20.0426978377
  0
LINE
  5
3FE
100
AcDbEntity
  8
ASSI
100
AcDbLine
 62
250
  6
CONTINUOUS
 10
6.8605390297
 20
-19.9822428737
 11
6.9210347117
 21
-20.0426978377
  0
LINE
  5
3FF
100
AcDbEntity
  8
0
100
AcDbLine
 62
250
  6
CONTINUOUS
 10
6.9210347117
 20
-20.0426978377
 11
6.9638439509
 21
-20.0858215467
  0
LINE
  5
400
100
AcDbEntity
  8
ASSI
100
AcDbLine
 62
250
  6
CONTINUOUS
 10
6.9210347117
 20
-20.0426978377
 11
6.9638439509
 21
-20.0858215467
  0
LINE
  5
401
100
AcDbEntity
  8
0
100
AcDbLine
 62
250
  6
CONTINUOUS
 10
6.9638439509
 20
-20.0858215467
 11
6.992176137
 21
-20.1146272575
  0
LINE
  5
402
100
AcDbEntity
  8
ASSI
100
AcDbLine
 62
250
  6
CONTINUOUS
 10
6.9638439509
 20
-20.0858215467
 11
6.992176137
 21
-20.1146272575
  0
LINE
  5
403
100
AcDbEntity
  8
0
100
AcDbLine
 62
250
  6
CONTINUOUS
 10
6.992176137
 20
-20.1146272575
 11
7.0096098236
 21
-20.1325399086
  0
LINE
  5
404
100
AcDbEntity
  8
ASSI
100
AcDbLine
 62
250
  6
CONTINUOUS
 10
6.992176137
 20
-20.1146272575
 11
7.0096098236
 21
-20.1325399086
  0
LINE
  5
405
100
AcDbEntity
  8
0
100
AcDbLine
 62
250
  6
CONTINUOUS
 10
7.0096098236
 20
-20.1325399086
 11
7.0193075884
 21
-20.1426131796
  0
LINE
  5
406
100
AcDbEntity
  8
ASSI
100
AcDbLine
 62
250
  6
CONTINUOUS
 10
7.0096098236
 20
-20.1325399086
 11
7.0193075884
 21
-20.1426131796
  0
LWPOLYLINE
  5
407
100
AcDbEntity
  8
0
100
AcDbPolyline
 62
250
  6
CONTINUOUS
 90
11
 70
0
 10
7.0193075884
 20
-20.1426131796
 10
7.0274102611
 20
-20.1511342464
 10
7.0308509924
 20
-20.1547996385
 10
7.0338789893
 20
-20.1580622502
 10
7.0364906208
 20
-20.1609181693
 10
7.0386827553
 20
-20.1633639711
 10
7.0404527642
 20
-20.165396723
 10
7.0417985251
 20
-20.1670139874
 10
7.0427184241
 20
-20.168213825
 10
7.0432113583
 20
-20.1689947971
 10
7.0432767366
 20
-20.1693559671
  0
LWPOLYLINE
  5
408
100
AcDbEntity
  8
ASSI
100
AcDbPolyline
 62
250
  6
CONTINUOUS
 90
11
 70
0
 10
7.0193075884
 20
-20.1426131796
 10
7.0274102611
 20
-20.1511342464
 10
7.0308509924
 20
-20.1547996385
 10
7.0338789893
 20
-20.1580622502
 10
7.0364906208
 20
-20.1609181693
 10
7.0386827553
 20
-20.1633639711
 10
7.0404527642
 20
-20.165396723
 10
7.0417985251
 20
-20.1670139874
 10
7.0427184241
 20
-20.168213825
 10
7.0432113583
 20
-20.1689947971
 10
7.0432767366
 20
-20.1693559671
  0
LINE
  5
409
100
AcDbEntity
  8
DRAFT
100
AcDbLine
 62
7
  6
CONTINUOUS
 10
4.3695491776
 20
-22.0664148026
 11
4.3254819104
 21
-22.0003129695
  0
LINE
  5
40A
100
AcDbEntity
  8
ASSI
100
AcDbLine
 62
7
  6
CONTINUOUS
 10
4.3695491776
 20
-22.0664148026
 11
4.3254819104
 21
-22.0003129695
  0
LINE
  5
40B
100
AcDbEntity
  8
DRAFT
100
AcDbLine
 62
7
  6
CONTINUOUS
 10
-7.3822295077
 20
-20.099985567
 11
-7.3304508224
 21
-20.5664148026
  0
LINE
  5
40C
100
AcDbEntity
  8
ASSI
100
AcDbLine
 62
7
  6
CONTINUOUS
 10
-7.3822295077
 20
-20.099985567
 11
-7.3304508224
 21
-20.5664148026
  0
LINE
  5
40D
100
AcDbEntity
  8
0
100
AcDbLine
 62
250
  6
CONTINUOUS
 10
-8.5828195124
 20
18.8844553514
 11
-8.5850501235
 21
19.0217616114
  0
LINE
  5
40E
100
AcDbEntity
  8
0
100
AcDbLine
 62
250
  6
CONTINUOUS
 10
-8.5850501235
 20
19.0217616114
 11
-8.5869077712
 21
19.1564661655
  0
LINE
  5
40F
100
AcDbEntity
  8
0
100
AcDbLine
 62
250
  6
CONTINUOUS
 10
-8.5869077712
 20
19.1564661655
 11
-8.5883572552
 21
19.2860165212
  0
LINE
  5
410
100
AcDbEntity
  8
RACCORDO
100
AcDbLine
 62
250
  6
CONTINUOUS
 10
-8.5355456543
 20
24.0335851974
 11
-8.5297278245
 21
23.4562349282
  0
LINE
  5
411
100
AcDbEntity
  8
ASSI
100
AcDbLine
 62
250
  6
CONTINUOUS
 10
-8.5355456543
 20
24.0335851974
 11
-8.5297278245
 21
23.4562349282
  0
LINE
  5
412
100
AcDbEntity
  8
RACCORDO
100
AcDbLine
 62
250
  6
CONTINUOUS
 10
-8.2848226564
 20
24.1779227647
 11
-8.2804508224
 21
23.7440703456
  0
LINE
  5
413
100
AcDbEntity
  8
ASSI
100
AcDbLine
 62
250
  6
CONTINUOUS
 10
-8.2848226564
 20
24.1779227647
 11
-8.2804508224
 21
23.7440703456
  0
LINE
  5
414
100
AcDbEntity
  8
0
100
AcDbLine
 62
250
  6
CONTINUOUS
 10
-8.5883572552
 20
19.2860165212
 11
-8.5893711097
 21
19.4079578864
  0
LINE
  5
415
100
AcDbEntity
  8
0
100
AcDbLine
 62
250
  6
CONTINUOUS
 10
-8.5893711097
 20
19.4079578864
 11
-8.5899301236
 21
19.5199796496
  0
LINE
  5
416
100
AcDbEntity
  8
0
100
AcDbLine
 62
250
  6
CONTINUOUS
 10
-8.5899862569
 20
-18.9711683222
 11
-8.5896500803
 21
-19.0388314425
  0
LINE
  5
417
100
AcDbEntity
  8
0
100
AcDbLine
 62
250
  6
CONTINUOUS
 10
-8.5899301236
 20
19.5199796496
 11
-8.5900424359
 21
19.6010211639
  0
LINE
  5
418
100
AcDbEntity
  8
RACCORDO
100
AcDbLine
 62
250
  6
CONTINUOUS
 10
-8.5348184256
 20
-23.294246019
 11
-8.5348184256
 21
-24.1620429686
  0
LINE
  5
419
100
AcDbEntity
  8
ASSI
100
AcDbLine
 62
250
  6
CONTINUOUS
 10
-8.5348184256
 20
-23.294246019
 11
-8.5348184256
 21
-24.1620429686
  0
LINE
  5
41A
100
AcDbEntity
  8
RACCORDO
100
AcDbLine
 62
250
  6
CONTINUOUS
 10
-8.5348184256
 20
24.0335851974
 11
-8.5348184256
 21
24.8292133634
  0
LINE
  5
41B
100
AcDbEntity
  8
ASSI
100
AcDbLine
 62
250
  6
CONTINUOUS
 10
-8.5348184256
 20
24.0335851974
 11
-8.5348184256
 21
24.8292133634
  0
LINE
  5
41C
100
AcDbEntity
  8
RACCORDO
100
AcDbLine
 62
250
  6
CONTINUOUS
 10
-8.2848226564
 20
-23.9120471994
 11
-8.2848226564
 21
-23.5107523699
  0
LINE
  5
41D
100
AcDbEntity
  8
ASSI
100
AcDbLine
 62
7
  6
CONTINUOUS
 10
-8.2848226564
 20
-23.9120471994
 11
-8.2848226564
 21
-23.5107523699
  0
LINE
  5
41E
100
AcDbEntity
  8
RACCORDO
100
AcDbLine
 62
250
  6
CONTINUOUS
 10
-8.2848226564
 20
24.1779227647
 11
-8.2848226564
 21
24.5792175942
  0
LINE
  5
41F
100
AcDbEntity
  8
ASSI
100
AcDbLine
 62
7
  6
CONTINUOUS
 10
-8.2848226564
 20
24.1779227647
 11
-8.2848226564
 21
24.5792175942
  0
LINE
  5
420
100
AcDbEntity
  8
DRAFT
100
AcDbLine
 62
7
  6
CONTINUOUS
 10
-8.2804508224
 20
-21.0664148026
 11
-8.2804508224
 21
-20.5664148026
  0
LINE
  5
421
100
AcDbEntity
  8
ASSI
100
AcDbLine
 62
7
  6
CONTINUOUS
 10
-8.2804508224
 20
-21.0664148026
 11
-8.2804508224
 21
-20.5664148026
  0
LINE
  5
422
100
AcDbEntity
  8
RACCORDO
100
AcDbLine
 62
7
  6
CONTINUOUS
 10
-8.2804508224
 20
-22.0664148026
 11
-8.2804508224
 21
-23.5107523699
  0
LINE
  5
423
100
AcDbEntity
  8
ASSI
100
AcDbLine
 62
7
  6
CONTINUOUS
 10
-8.2804508224
 20
-22.0664148026
 11
-8.2804508224
 21
-23.5107523699
  0
LINE
  5
424
100
AcDbEntity
  8
DRAFT
100
AcDbLine
 62
7
  6
CONTINUOUS
 10
-8.2804508224
 20
21.2335851974
 11
-8.2804508224
 21
21.7335851974
  0
LINE
  5
425
100
AcDbEntity
  8
ASSI
100
AcDbLine
 62
7
  6
CONTINUOUS
 10
-8.2804508224
 20
21.2335851974
 11
-8.2804508224
 21
21.7335851974
  0
LINE
  5
426
100
AcDbEntity
  8
RACCORDO
100
AcDbLine
 62
7
  6
CONTINUOUS
 10
-8.2804508224
 20
22.7335851974
 11
-8.2804508224
 21
24.1779227647
  0
LINE
  5
427
100
AcDbEntity
  8
ASSI
100
AcDbLine
 62
7
  6
CONTINUOUS
 10
-8.2804508224
 20
22.7335851974
 11
-8.2804508224
 21
24.1779227647
  0
LINE
  5
428
100
AcDbEntity
  8
RACCORDO
100
AcDbLine
 62
250
  6
CONTINUOUS
 10
-8.1144753891
 20
21.8995606306
 11
-8.1144753891
 21
21.2335851974
  0
LINE
  5
429
100
AcDbEntity
  8
ASSI
100
AcDbLine
 62
250
  6
CONTINUOUS
 10
-8.1144753891
 20
21.8995606306
 11
-8.1144753891
 21
21.2335851974
  0
LINE
  5
42A
100
AcDbEntity
  8
RACCORDO
100
AcDbLine
 62
250
  6
CONTINUOUS
 10
-8.1144753891
 20
-20.5664148026
 11
-8.1144753891
 21
-21.2323902359
  0
LINE
  5
42B
100
AcDbEntity
  8
ASSI
100
AcDbLine
 62
250
  6
CONTINUOUS
 10
-8.1144753891
 20
-20.5664148026
 11
-8.1144753891
 21
-21.2323902359
  0
LINE
  5
42C
100
AcDbEntity
  8
RACCORDO
100
AcDbLine
 62
250
  6
CONTINUOUS
 10
-7.6145515415
 20
21.6462784411
 11
-7.6145515415
 21
21.2335851974
  0
LINE
  5
42D
100
AcDbEntity
  8
ASSI
100
AcDbLine
 62
250
  6
CONTINUOUS
 10
-7.6145515415
 20
21.6462784411
 11
-7.6145515415
 21
21.2335851974
  0
LINE
  5
42E
100
AcDbEntity
  8
RACCORDO
100
AcDbLine
 62
250
  6
CONTINUOUS
 10
-7.6145515415
 20
-20.5664148026
 11
-7.6145515415
 21
-20.9791080463
  0
LINE
  5
42F
100
AcDbEntity
  8
ASSI
100
AcDbLine
 62
250
  6
CONTINUOUS
 10
-7.6145515415
 20
-20.5664148026
 11
-7.6145515415
 21
-20.9791080463
  0
LINE
  5
430
100
AcDbEntity
  8
DRAFT
100
AcDbLine
 62
7
  6
CONTINUOUS
 10
-7.3822295077
 20
20.7671559617
 11
-7.3822295077
 21
19.9818065121
  0
LINE
  5
431
100
AcDbEntity
  8
ASSI
100
AcDbLine
 62
7
  6
CONTINUOUS
 10
-7.3822295077
 20
20.7671559617
 11
-7.3822295077
 21
19.9818065121
  0
LINE
  5
432
100
AcDbEntity
  8
DRAFT
100
AcDbLine
 62
7
  6
CONTINUOUS
 10
-7.3822295077
 20
-20.099985567
 11
-7.3822295077
 21
-19.3146361173
  0
LINE
  5
433
100
AcDbEntity
  8
ASSI
100
AcDbLine
 62
7
  6
CONTINUOUS
 10
-7.3822295077
 20
-20.099985567
 11
-7.3822295077
 21
-19.3146361173
  0
LINE
  5
434
100
AcDbEntity
  8
RACCORDO
100
AcDbLine
 62
7
  6
CONTINUOUS
 10
-7.2722725243
 20
-20.5664148026
 11
-7.2722725243
 21
-19.6234329195
  0
LINE
  5
435
100
AcDbEntity
  8
ASSI
100
AcDbLine
 62
7
  6
CONTINUOUS
 10
-7.2722725243
 20
-20.5664148026
 11
-7.2722725243
 21
-19.6234329195
  0
LINE
  5
436
100
AcDbEntity
  8
RACCORDO
100
AcDbLine
 62
7
  6
CONTINUOUS
 10
-7.2722725243
 20
20.2906033142
 11
-7.2722725243
 21
21.2335851974
  0
LINE
  5
437
100
AcDbEntity
  8
ASSI
100
AcDbLine
 62
7
  6
CONTINUOUS
 10
-7.2722725243
 20
20.2906033142
 11
-7.2722725243
 21
21.2335851974
  0
LINE
  5
438
100
AcDbEntity
  8
0
100
AcDbLine
 62
7
  6
CONTINUOUS
 10
-7.0304508224
 20
-20.2528807166
 11
-7.0304508224
 21
-19.9799488887
  0
LINE
  5
439
100
AcDbEntity
  8
ASSI
100
AcDbLine
 62
7
  6
CONTINUOUS
 10
-7.0304508224
 20
-20.2528807166
 11
-7.0304508224
 21
-19.9799488887
  0
LINE
  5
43A
100
AcDbEntity
  8
0
100
AcDbLine
 62
7
  6
CONTINUOUS
 10
-7.0304508224
 20
20.6471192834
 11
-7.0304508224
 21
20.9200511113
  0
LINE
  5
43B
100
AcDbEntity
  8
ASSI
100
AcDbLine
 62
7
  6
CONTINUOUS
 10
-7.0304508224
 20
20.6471192834
 11
-7.0304508224
 21
20.9200511113
  0
LINE
  5
43C
100
AcDbEntity
  8
0
100
AcDbLine
 62
250
  6
CONTINUOUS
 10
-8.5899862586
 20
-18.8738325651
 11
-8.5899862569
 21
-18.9711683222
  0
LINE
  5
43D
100
AcDbEntity
  8
0
100
AcDbLine
 62
250
  6
CONTINUOUS
 10
-8.5900424359
 20
19.6010211639
 11
-8.5898553386
 21
19.6733678934
  0
LINE
  5
43E
100
AcDbEntity
  8
0
100
AcDbLine
 62
250
  6
CONTINUOUS
 10
-8.589371109
 20
-18.7407873928
 11
-8.5899862586
 21
-18.8738325651
  0
LINE
  5
43F
100
AcDbEntity
  8
0
100
AcDbLine
 62
250
  6
CONTINUOUS
 10
-8.5898553386
 20
19.6733678934
 11
-8.5896500793
 21
19.7060019633
  0
LINE
  5
440
100
AcDbEntity
  8
RACCORDO
100
AcDbLine
 62
250
  6
CONTINUOUS
 10
-8.5297278245
 20
-22.7890645334
 11
-8.5348184256
 21
-23.294246019
  0
LINE
  5
441
100
AcDbEntity
  8
ASSI
100
AcDbLine
 62
250
  6
CONTINUOUS
 10
-8.5297278245
 20
-22.7890645334
 11
-8.5348184256
 21
-23.294246019
  0
LINE
  5
442
100
AcDbEntity
  8
RACCORDO
100
AcDbLine
 62
250
  6
CONTINUOUS
 10
-8.2804508224
 20
-23.0768999508
 11
-8.2848226564
 21
-23.5107523699
  0
LINE
  5
443
100
AcDbEntity
  8
ASSI
100
AcDbLine
 62
250
  6
CONTINUOUS
 10
-8.2804508224
 20
-23.0768999508
 11
-8.2848226564
 21
-23.5107523699
  0
LINE
  5
444
100
AcDbEntity
  8
0
100
AcDbLine
 62
250
  6
CONTINUOUS
 10
-8.5875382615
 20
-18.5418745298
 11
-8.589371109
 21
-18.7407873928
  0
LINE
  5
445
100
AcDbEntity
  8
0
100
AcDbLine
 62
250
  6
CONTINUOUS
 10
-8.5842004179
 20
-18.2998357927
 11
-8.5875382615
 21
-18.5418745298
  0
LINE
  5
446
100
AcDbEntity
  8
0
100
AcDbLine
 62
250
  6
CONTINUOUS
 10
-8.5828195124
 20
-18.2172849567
 11
-8.5842004179
 21
-18.2998357927
  0
LWPOLYLINE
  5
447
100
AcDbEntity
  8
RACCORDO
100
AcDbPolyline
 62
7
  6
CONTINUOUS
 90
4
 70
0
 10
-8.2804508224
 20
-23.9164190334
 10
-8.2807339726
 20
-23.9283143186
 10
-8.2815827881
 20
-23.9401826582
 10
-8.2829953482
 20
-23.9519971688
  0
LWPOLYLINE
  5
448
100
AcDbEntity
  8
ASSI
100
AcDbPolyline
 62
7
  6
CONTINUOUS
 90
4
 70
0
 10
-8.2804508224
 20
-23.9164190334
 10
-8.2807339726
 20
-23.9283143186
 10
-8.2815827881
 20
-23.9401826582
 10
-8.2829953482
 20
-23.9519971688
  0
LWPOLYLINE
  5
449
100
AcDbEntity
  8
RACCORDO
100
AcDbPolyline
 62
250
  6
CONTINUOUS
 90
25
 70
0
 10
-8.2848226564
 20
-23.9120471994
 10
-8.2851658454
 20
-23.9251335535
 10
-8.2861935884
 20
-23.9381840519
 10
-8.2879030715
 20
-23.9511629093
 10
-8.2902896142
 20
-23.9640345489
 10
-8.2933466754
 20
-23.9767636629
 10
-8.2970658649
 20
-23.9893153103
 10
-8.30143698
 20
-24.0016550664
 10
-8.3064480354
 20
-24.0137491037
 10
-8.3120852837
 20
-24.0255642493
 10
-8.3183332629
 20
-24.0370681051
 10
-8.3251748387
 20
-24.0482291311
 10
-8.3325912455
 20
-24.0590167214
 10
-8.3405621537
 20
-24.0694013106
 10
-8.3490656952
 20
-24.0793544141
 10
-8.3580785143
 20
-24.0888487072
 10
-8.3675758488
 20
-24.097858129
 10
-8.3775316859
 20
-24.106358026
 10
-8.3879188118
 20
-24.1143251682
 10
-8.398708891
 20
-24.1217377982
 10
-8.4098722094
 20
-24.1285754801
 10
-8.4213778098
 20
-24.1348192817
 10
-8.4331938881
 20
-24.1404520303
 10
-8.4452882442
 20
-24.1454584602
 10
-8.4576280481
 20
-24.1498250113
  0
LWPOLYLINE
  5
44A
100
AcDbEntity
  8
ASSI
100
AcDbPolyline
 62
7
  6
CONTINUOUS
 90
29
 70
0
 10
-8.2848226564
 20
-23.9120471994
 10
-8.2851658454
 20
-23.9251335535
 10
-8.2861935884
 20
-23.9381840519
 10
-8.2879030715
 20
-23.9511629093
 10
-8.2902896142
 20
-23.9640345489
 10
-8.2933466754
 20
-23.9767636629
 10
-8.2970658649
 20
-23.9893153103
 10
-8.30143698
 20
-24.0016550664
 10
-8.3064480354
 20
-24.0137491037
 10
-8.3120852837
 20
-24.0255642493
 10
-8.3183332629
 20
-24.0370681051
 10
-8.3251748387
 20
-24.0482291311
 10
-8.3325912455
 20
-24.0590167214
 10
-8.3405621537
 20
-24.0694013106
 10
-8.3490656952
 20
-24.0793544141
 10
-8.3580785143
 20
-24.0888487072
 10
-8.3675758488
 20
-24.097858129
 10
-8.3775316859
 20
-24.106358026
 10
-8.3879188118
 20
-24.1143251682
 10
-8.398708891
 20
-24.1217377982
 10
-8.4098722094
 20
-24.1285754801
 10
-8.4213778098
 20
-24.1348192817
 10
-8.4331938881
 20
-24.1404520303
 10
-8.4452882442
 20
-24.1454584602
 10
-8.4576280481
 20
-24.1498250113
 10
-8.4701822327
 20
-24.153540451
 10
-8.4829136979
 20
-24.1565935644
 10
-8.4957794167
 20
-24.1589746946
 10
-8.5079383477
 20
-24.1605927562
  0
LINE
  5
44B
100
AcDbEntity
  8
0
100
AcDbLine
 62
250
  6
CONTINUOUS
 10
8.6936011793
 20
19.0567168541
 11
8.8869697132
 21
19.2521641241
  0
LINE
  5
44C
100
AcDbEntity
  8
ASSI
100
AcDbLine
 62
250
  6
CONTINUOUS
 10
8.6936011793
 20
19.0567168541
 11
8.8869697132
 21
19.2521641241
  0
LINE
  5
44D
100
AcDbEntity
  8
0
100
AcDbLine
 62
250
  6
CONTINUOUS
 10
8.5219178676
 20
18.8844553514
 11
8.6936011793
 21
19.0567168541
  0
LINE
  5
44E
100
AcDbEntity
  8
ASSI
100
AcDbLine
 62
250
  6
CONTINUOUS
 10
8.5219178676
 20
18.8844553514
 11
8.6936011793
 21
19.0567168541
  0
LINE
  5
44F
100
AcDbEntity
  8
CURVE
100
AcDbLine
 62
250
  6
CONTINUOUS
 10
6.4704765519
 20
-8.1664145642
 11
7.9702480947
 21
-8.1664145642
  0
LINE
  5
450
100
AcDbEntity
  8
CURVE
100
AcDbLine
 62
250
  6
CONTINUOUS
 10
2.506794608
 20
-8.0133304506
 11
2.0782884561
 21
-8.0133304506
  0
LINE
  5
451
100
AcDbEntity
  8
CURVE
100
AcDbLine
 62
250
  6
CONTINUOUS
 10
7.5417419204
 20
-12.8449862057
 11
7.7559950075
 21
-12.9521290117
  0
LINE
  5
452
100
AcDbEntity
  8
CURVE
100
AcDbLine
 62
250
  6
CONTINUOUS
 10
1.5426557942
 20
-8.5490446596
 11
1.9711619237
 21
-8.7633303612
  0
LINE
  5
453
100
AcDbEntity
  8
CURVE
100
AcDbLine
 62
250
  6
CONTINUOUS
 10
6.7918561938
 20
-11.0592721158
 11
7.2203623233
 21
-11.2735577279
  0
LINE
  5
454
100
AcDbEntity
  8
CURVE
100
AcDbLine
 62
250
  6
CONTINUOUS
 10
3.970857314
 20
-11.6664148026
 11
4.2922369559
 21
-11.8807004147
  0
LINE
  5
455
100
AcDbEntity
  8
CURVE
100
AcDbLine
 62
250
  6
CONTINUOUS
 10
4.3993634436
 20
-16.1664148026
 11
3.970857314
 21
-15.7378433549
  0
LINE
  5
456
100
AcDbEntity
  8
CURVE
100
AcDbLine
 62
250
  6
CONTINUOUS
 10
4.1851103788
 20
-15.2021291011
 11
3.970857314
 21
-14.9878433996
  0
LINE
  5
457
100
AcDbEntity
  8
CURVE
100
AcDbLine
 62
250
  6
CONTINUOUS
 10
4.1851103788
 20
-14.0235576087
 11
3.970857314
 21
-13.8092719966
  0
LINE
  5
458
100
AcDbEntity
  8
0
100
AcDbLine
 62
250
  6
CONTINUOUS
 10
8.5219178676
 20
-18.2172849567
 11
8.6371369253
 21
-18.3327735013
  0
LINE
  5
459
100
AcDbEntity
  8
ASSI
100
AcDbLine
 62
250
  6
CONTINUOUS
 10
8.5219178676
 20
-18.2172849567
 11
8.6371369253
 21
-18.3327735013
  0
LINE
  5
45A
100
AcDbEntity
  8
0
100
AcDbLine
 62
250
  6
CONTINUOUS
 10
8.6371369253
 20
-18.3327735013
 11
8.7487936645
 21
-18.4451611137
  0
LINE
  5
45B
100
AcDbEntity
  8
ASSI
100
AcDbLine
 62
250
  6
CONTINUOUS
 10
8.6371369253
 20
-18.3327735013
 11
8.7487936645
 21
-18.4451611137
  0
LINE
  5
45C
100
AcDbEntity
  8
0
100
AcDbLine
 62
250
  6
CONTINUOUS
 10
8.7487936645
 20
-18.4451611137
 11
8.8538898407
 21
-18.5514299242
  0
LINE
  5
45D
100
AcDbEntity
  8
ASSI
100
AcDbLine
 62
250
  6
CONTINUOUS
 10
8.7487936645
 20
-18.4451611137
 11
8.8538898407
 21
-18.5514299242
  0
LINE
  5
45E
100
AcDbEntity
  8
0
100
AcDbLine
 62
250
  6
CONTINUOUS
 10
8.8538898407
 20
-18.5514299242
 11
8.8869696837
 21
-18.5849936994
  0
LINE
  5
45F
100
AcDbEntity
  8
ASSI
100
AcDbLine
 62
250
  6
CONTINUOUS
 10
8.8538898407
 20
-18.5514299242
 11
8.8869696837
 21
-18.5849936994
  0
LWPOLYLINE
  5
460
100
AcDbEntity
  8
0
100
AcDbPolyline
 62
250
  6
CONTINUOUS
 90
11
 70
0
 10
-5.0678126563
 20
-20.7483406175
 10
-5.0676239272
 20
-20.7540245622
 10
-5.0674218082
 20
-20.7591295077
 10
-5.0672065454
 20
-20.7636492367
 10
-5.066978401
 20
-20.7675782448
 10
-5.066737653
 20
-20.770911747
 10
-5.0664845943
 20
-20.7736456834
 10
-5.0662195334
 20
-20.7757767246
 10
-5.0659427929
 20
-20.7773022751
 10
-5.0656547099
 20
-20.7782204771
 10
-5.0653556352
 20
-20.7785302122
  0
LWPOLYLINE
  5
461
100
AcDbEntity
  8
ASSI
100
AcDbPolyline
 62
250
  6
CONTINUOUS
 90
11
 70
0
 10
-5.0678126563
 20
-20.7483406175
 10
-5.0676239272
 20
-20.7540245622
 10
-5.0674218082
 20
-20.7591295077
 10
-5.0672065454
 20
-20.7636492367
 10
-5.066978401
 20
-20.7675782448
 10
-5.066737653
 20
-20.770911747
 10
-5.0664845943
 20
-20.7736456834
 10
-5.0662195334
 20
-20.7757767246
 10
-5.0659427929
 20
-20.7773022751
 10
-5.0656547099
 20
-20.7782204771
 10
-5.0653556352
 20
-20.7785302122
  0
LINE
  5
462
100
AcDbEntity
  8
0
100
AcDbLine
 62
250
  6
CONTINUOUS
 10
-5.068149042
 20
-20.7352641164
 11
-5.0678126563
 21
-20.7483406175
  0
LINE
  5
463
100
AcDbEntity
  8
ASSI
100
AcDbLine
 62
250
  6
CONTINUOUS
 10
-5.068149042
 20
-20.7352641164
 11
-5.0678126563
 21
-20.7483406175
  0
LINE
  5
464
100
AcDbEntity
  8
0
100
AcDbLine
 62
250
  6
CONTINUOUS
 10
-5.0684293271
 20
-20.719963687
 11
-5.068149042
 21
-20.7352641164
  0
LINE
  5
465
100
AcDbEntity
  8
ASSI
100
AcDbLine
 62
250
  6
CONTINUOUS
 10
-5.0684293271
 20
-20.719963687
 11
-5.068149042
 21
-20.7352641164
  0
LINE
  5
466
100
AcDbEntity
  8
0
100
AcDbLine
 62
250
  6
CONTINUOUS
 10
-5.0672065454
 20
-19.8333036932
 11
-5.0653556352
 21
-19.9542232406
  0
LINE
  5
467
100
AcDbEntity
  8
ASSI
100
AcDbLine
 62
250
  6
CONTINUOUS
 10
-5.0672065454
 20
-19.8333036932
 11
-5.0653556352
 21
-19.9542232406
  0
LINE
  5
468
100
AcDbEntity
  8
0
100
AcDbLine
 62
250
  6
CONTINUOUS
 10
-5.0686521465
 20
-20.7025138425
 11
-5.0684293271
 21
-20.719963687
  0
LINE
  5
469
100
AcDbEntity
  8
ASSI
100
AcDbLine
 62
250
  6
CONTINUOUS
 10
-5.0686521465
 20
-20.7025138425
 11
-5.0684293271
 21
-20.719963687
  0
LINE
  5
46A
100
AcDbEntity
  8
0
100
AcDbLine
 62
250
  6
CONTINUOUS
 10
-5.0684293271
 20
-19.7195650286
 11
-5.0672065454
 21
-19.8333036932
  0
LINE
  5
46B
100
AcDbEntity
  8
ASSI
100
AcDbLine
 62
250
  6
CONTINUOUS
 10
-5.0684293271
 20
-19.7195650286
 11
-5.0672065454
 21
-19.8333036932
  0
LINE
  5
46C
100
AcDbEntity
  8
0
100
AcDbLine
 62
250
  6
CONTINUOUS
 10
-5.0688763318
 20
-19.646490038
 11
-5.0684293271
 21
-19.7195650286
  0
LINE
  5
46D
100
AcDbEntity
  8
ASSI
100
AcDbLine
 62
250
  6
CONTINUOUS
 10
-5.0688763318
 20
-19.646490038
 11
-5.0684293271
 21
-19.7195650286
  0
LWPOLYLINE
  5
46E
100
AcDbEntity
  8
0
100
AcDbPolyline
 62
250
  6
CONTINUOUS
 90
3
 70
0
 10
-5.0689213332
 20
-20.6615158861
 10
-5.0688763318
 20
-20.6724975799
 10
-5.0686521465
 20
-20.7025138425
  0
LWPOLYLINE
  5
46F
100
AcDbEntity
  8
ASSI
100
AcDbPolyline
 62
250
  6
CONTINUOUS
 90
3
 70
0
 10
-5.0689213332
 20
-20.6615158861
 10
-5.0688763318
 20
-20.6724975799
 10
-5.0686521465
 20
-20.7025138425
  0
LINE
  5
470
100
AcDbEntity
  8
0
100
AcDbLine
 62
7
  6
CONTINUOUS
 10
-6.5304508224
 20
-3.1664148026
 11
-6.5304508224
 21
13.0835851974
  0
LINE
  5
471
100
AcDbEntity
  8
IMPORT_IGES
100
AcDbLine
 62
7
  6
CONTINUOUS
 10
-6.3364508224
 20
-3.1698010852
 11
-6.3364508224
 21
13.08697148
  0
LINE
  5
472
100
AcDbEntity
  8
DRAFT
100
AcDbLine
 62
7
  6
CONTINUOUS
 10
-6.2786721371
 20
20.1426483061
 11
-6.2786721371
 21
19.9818065121
  0
LINE
  5
473
100
AcDbEntity
  8
ASSI
100
AcDbLine
 62
7
  6
CONTINUOUS
 10
-6.2786721371
 20
20.1426483061
 11
-6.2786721371
 21
19.9818065121
  0
LINE
  5
474
100
AcDbEntity
  8
DRAFT
100
AcDbLine
 62
7
  6
CONTINUOUS
 10
-6.2786721371
 20
-19.3146361173
 11
-6.2786721371
 21
-19.4754779114
  0
LINE
  5
475
100
AcDbEntity
  8
ASSI
100
AcDbLine
 62
7
  6
CONTINUOUS
 10
-6.2786721371
 20
-19.3146361173
 11
-6.2786721371
 21
-19.4754779114
  0
LINE
  5
476
100
AcDbEntity
  8
IMPORT_IGES
100
AcDbLine
 62
7
  6
CONTINUOUS
 10
-6.0364508224
 20
13.0922079994
 11
-6.0364508224
 21
12.7335851974
  0
LINE
  5
477
100
AcDbEntity
  8
0
100
AcDbLine
 62
7
  6
CONTINUOUS
 10
-6.0304508224
 20
20.1288548078
 11
-6.0304508224
 21
19.9288548078
  0
LINE
  5
478
100
AcDbEntity
  8
0
100
AcDbLine
 62
7
  6
CONTINUOUS
 10
-6.0304508224
 20
-19.2616844131
 11
-6.0304508224
 21
-19.4616844131
  0
LINE
  5
479
100
AcDbEntity
  8
IMPORT_IGES
100
AcDbLine
 62
7
  6
CONTINUOUS
 10
-6.0064508224
 20
12.7335851974
 11
-6.0064508224
 21
13.0927316514
  0
LINE
  5
47A
100
AcDbEntity
  8
IMPORT_IGES
100
AcDbLine
 62
7
  6
CONTINUOUS
 10
-5.6364508224
 20
-2.9664148026
 11
-5.6364508224
 21
-2.9414148026
  0
LINE
  5
47B
100
AcDbEntity
  8
IMPORT_IGES
100
AcDbLine
 62
7
  6
CONTINUOUS
 10
-5.4220914684
 20
-1.5647487528
 11
-5.4220914684
 21
2.0319191475
  0
LINE
  5
47C
100
AcDbEntity
  8
IMPORT_IGES
100
AcDbLine
 62
7
  6
CONTINUOUS
 10
-5.4220914684
 20
3.4352512472
 11
-5.4220914684
 21
7.0319191475
  0
LINE
  5
47D
100
AcDbEntity
  8
IMPORT_IGES
100
AcDbLine
 62
7
  6
CONTINUOUS
 10
-5.4220914684
 20
8.4352512472
 11
-5.4220914684
 21
12.0319191475
  0
LINE
  5
47E
100
AcDbEntity
  8
0
100
AcDbLine
 62
250
  6
CONTINUOUS
 10
-5.0687416565
 20
21.360179443
 11
-5.0689213332
 21
21.3286862808
  0
LINE
  5
47F
100
AcDbEntity
  8
ASSI
100
AcDbLine
 62
250
  6
CONTINUOUS
 10
-5.0687416565
 20
21.360179443
 11
-5.0689213332
 21
21.3286862808
  0
LINE
  5
480
100
AcDbEntity
  8
0
100
AcDbLine
 62
250
  6
CONTINUOUS
 10
-5.0682962889
 20
20.4022809728
 11
-5.0688763318
 21
20.3136604327
  0
LINE
  5
481
100
AcDbEntity
  8
ASSI
100
AcDbLine
 62
250
  6
CONTINUOUS
 10
-5.0682962889
 20
20.4022809728
 11
-5.0688763318
 21
20.3136604327
  0
LINE
  5
482
100
AcDbEntity
  8
0
100
AcDbLine
 62
250
  6
CONTINUOUS
 10
-5.0685479944
 20
21.3786727658
 11
-5.0687416565
 21
21.360179443
  0
LINE
  5
483
100
AcDbEntity
  8
ASSI
100
AcDbLine
 62
250
  6
CONTINUOUS
 10
-5.0685479944
 20
21.3786727658
 11
-5.0687416565
 21
21.360179443
  0
LINE
  5
484
100
AcDbEntity
  8
0
100
AcDbLine
 62
250
  6
CONTINUOUS
 10
-5.066978401
 20
20.5174734772
 11
-5.0682962889
 21
20.4022809728
  0
LINE
  5
485
100
AcDbEntity
  8
ASSI
100
AcDbLine
 62
250
  6
CONTINUOUS
 10
-5.066978401
 20
20.5174734772
 11
-5.0682962889
 21
20.4022809728
  0
LINE
  5
486
100
AcDbEntity
  8
0
100
AcDbLine
 62
250
  6
CONTINUOUS
 10
-5.0682962889
 20
21.3950578802
 11
-5.0685479944
 21
21.3786727658
  0
LINE
  5
487
100
AcDbEntity
  8
ASSI
100
AcDbLine
 62
250
  6
CONTINUOUS
 10
-5.0682962889
 20
21.3950578802
 11
-5.0685479944
 21
21.3786727658
  0
LINE
  5
488
100
AcDbEntity
  8
0
100
AcDbLine
 62
250
  6
CONTINUOUS
 10
-5.0653556352
 20
20.6213936354
 11
-5.066978401
 21
20.5174734772
  0
LINE
  5
489
100
AcDbEntity
  8
ASSI
100
AcDbLine
 62
250
  6
CONTINUOUS
 10
-5.0653556352
 20
20.6213936354
 11
-5.066978401
 21
20.5174734772
  0
LWPOLYLINE
  5
48A
100
AcDbEntity
  8
ASSI
100
AcDbPolyline
 62
7
  6
CONTINUOUS
 90
10
 70
0
 10
-3.5304508224
 20
24.0851054022
 10
-3.5307832185
 20
24.0824721475
 10
-3.5317923016
 20
24.0791748922
 10
-3.5334951965
 20
24.0752136361
 10
-3.5359091078
 20
24.0706009942
 10
-3.5390484382
 20
24.0653243515
 10
-3.5429218679
 20
24.059345864
 10
-3.5475380109
 20
24.0526604574
 10
-3.5529061607
 20
24.0452732058
 10
-3.5590304059
 20
24.0371614882
  0
LWPOLYLINE
  5
48B
100
AcDbEntity
  8
RACCORDO
100
AcDbPolyline
 62
7
  6
CONTINUOUS
 90
5
 70
0
 10
7.8604326513
 20
22.0927017237
 10
7.8369137952
 20
22.0566541577
 10
7.8129292386
 20
22.0202309612
 10
7.7884789816
 20
21.9835031816
 10
7.7635037345
 20
21.9465740818
  0
LWPOLYLINE
  5
48C
100
AcDbEntity
  8
ASSI
100
AcDbPolyline
 62
7
  6
CONTINUOUS
 90
5
 70
0
 10
7.8604326513
 20
22.0927017237
 10
7.8369137952
 20
22.0566541577
 10
7.8129292386
 20
22.0202309612
 10
7.7884789816
 20
21.9835031816
 10
7.7635037345
 20
21.9465740818
  0
LWPOLYLINE
  5
48D
100
AcDbEntity
  8
RACCORDO
100
AcDbPolyline
 62
7
  6
CONTINUOUS
 90
3
 70
0
 10
7.7635037345
 20
21.9465740818
 10
7.7123340078
 20
21.872175442
 10
7.6863256761
 20
21.8347234618
  0
LWPOLYLINE
  5
48E
100
AcDbEntity
  8
ASSI
100
AcDbPolyline
 62
7
  6
CONTINUOUS
 90
3
 70
0
 10
7.7635037345
 20
21.9465740818
 10
7.7123340078
 20
21.872175442
 10
7.6863256761
 20
21.8347234618
  0
LINE
  5
48F
100
AcDbEntity
  8
RACCORDO
100
AcDbLine
 62
7
  6
CONTINUOUS
 10
7.6863256761
 20
21.8347234618
 11
7.6070837985
 21
21.7217690846
  0
LINE
  5
490
100
AcDbEntity
  8
ASSI
100
AcDbLine
 62
7
  6
CONTINUOUS
 10
7.6863256761
 20
21.8347234618
 11
7.6070837985
 21
21.7217690846
  0
LINE
  5
491
100
AcDbEntity
  8
RACCORDO
100
AcDbLine
 62
7
  6
CONTINUOUS
 10
7.6070837985
 20
21.7217690846
 11
7.5536498968
 21
21.6462784411
  0
LINE
  5
492
100
AcDbEntity
  8
ASSI
100
AcDbLine
 62
7
  6
CONTINUOUS
 10
7.6070837985
 20
21.7217690846
 11
7.5536498968
 21
21.6462784411
  0
LWPOLYLINE
  5
493
100
AcDbEntity
  8
0
100
AcDbPolyline
 62
250
  6
CONTINUOUS
 90
11
 70
0
 10
9.1876631951
 20
19.5629402468
 10
9.1923978277
 20
19.5681360662
 10
9.19661823
 20
19.5728208334
 10
9.2003212467
 20
19.5769910461
 10
9.2035041091
 20
19.5806435861
 10
9.2061644399
 20
19.5837757256
 10
9.2083002483
 20
19.5863851206
 10
9.2099099345
 20
19.5884698161
 10
9.2109922989
 20
19.590028257
 10
9.2115465382
 20
19.5910592847
 10
9.2115722424
 20
19.5915621326
  0
LWPOLYLINE
  5
494
100
AcDbEntity
  8
ASSI
100
AcDbPolyline
 62
250
  6
CONTINUOUS
 90
11
 70
0
 10
9.1876631951
 20
19.5629402468
 10
9.1923978277
 20
19.5681360662
 10
9.19661823
 20
19.5728208334
 10
9.2003212467
 20
19.5769910461
 10
9.2035041091
 20
19.5806435861
 10
9.2061644399
 20
19.5837757256
 10
9.2083002483
 20
19.5863851206
 10
9.2099099345
 20
19.5884698161
 10
9.2109922989
 20
19.590028257
 10
9.2115465382
 20
19.5910592847
 10
9.2115722424
 20
19.5915621326
  0
LINE
  5
495
100
AcDbEntity
  8
0
100
AcDbLine
 62
250
  6
CONTINUOUS
 10
9.1766657761
 20
19.5510313651
 11
9.1876631951
 21
19.5629402468
  0
LINE
  5
496
100
AcDbEntity
  8
ASSI
100
AcDbLine
 62
250
  6
CONTINUOUS
 10
9.1766657761
 20
19.5510313651
 11
9.1876631951
 21
19.5629402468
  0
LINE
  5
497
100
AcDbEntity
  8
0
100
AcDbLine
 62
250
  6
CONTINUOUS
 10
9.1636588469
 20
19.5371297866
 11
9.1766657761
 21
19.5510313651
  0
LINE
  5
498
100
AcDbEntity
  8
ASSI
100
AcDbLine
 62
250
  6
CONTINUOUS
 10
9.1636588469
 20
19.5371297866
 11
9.1766657761
 21
19.5510313651
  0
LINE
  5
499
100
AcDbEntity
  8
0
100
AcDbLine
 62
250
  6
CONTINUOUS
 10
9.140467296
 20
19.5126336219
 11
9.1636588469
 21
19.5371297866
  0
LINE
  5
49A
100
AcDbEntity
  8
ASSI
100
AcDbLine
 62
250
  6
CONTINUOUS
 10
9.140467296
 20
19.5126336219
 11
9.1636588469
 21
19.5371297866
  0
LINE
  5
49B
100
AcDbEntity
  8
0
100
AcDbLine
 62
250
  6
CONTINUOUS
 10
9.1029238831
 20
19.4734340235
 11
9.140467296
 21
19.5126336219
  0
LINE
  5
49C
100
AcDbEntity
  8
ASSI
100
AcDbLine
 62
250
  6
CONTINUOUS
 10
9.1029238831
 20
19.4734340235
 11
9.140467296
 21
19.5126336219
  0
LINE
  5
49D
100
AcDbEntity
  8
0
100
AcDbLine
 62
250
  6
CONTINUOUS
 10
9.0459994594
 20
19.4146008504
 11
9.1029238831
 21
19.4734340235
  0
LINE
  5
49E
100
AcDbEntity
  8
ASSI
100
AcDbLine
 62
250
  6
CONTINUOUS
 10
9.0459994594
 20
19.4146008504
 11
9.1029238831
 21
19.4734340235
  0
LINE
  5
49F
100
AcDbEntity
  8
0
100
AcDbLine
 62
250
  6
CONTINUOUS
 10
8.9496035079
 20
19.3158968956
 11
9.0459994594
 21
19.4146008504
  0
LINE
  5
4A0
100
AcDbEntity
  8
ASSI
100
AcDbLine
 62
250
  6
CONTINUOUS
 10
8.9496035079
 20
19.3158968956
 11
9.0459994594
 21
19.4146008504
  0
LINE
  5
4A1
100
AcDbEntity
  8
0
100
AcDbLine
 62
250
  6
CONTINUOUS
 10
8.8869697132
 20
19.2521641241
 11
8.9496035079
 21
19.3158968956
  0
LINE
  5
4A2
100
AcDbEntity
  8
ASSI
100
AcDbLine
 62
250
  6
CONTINUOUS
 10
8.8869697132
 20
19.2521641241
 11
8.9496035079
 21
19.3158968956
  0
LINE
  5
4A3
100
AcDbEntity
  8
CURVE
100
AcDbLine
 62
250
  6
CONTINUOUS
 10
7.070385169
 20
9.8335851974
 11
8.9700957898
 21
10.7835851974
  0
LINE
  5
4A4
100
AcDbEntity
  8
CURVE
100
AcDbLine
 62
250
  6
CONTINUOUS
 10
2.7210476951
 20
-7.5847590475
 11
1.2212761523
 21
-7.1561874657
  0
LINE
  5
4A5
100
AcDbEntity
  8
CURVE
100
AcDbLine
 62
250
  6
CONTINUOUS
 10
5.4706288568
 20
-7.9164148026
 11
3.970857314
 21
-7.4878435784
  0
LINE
  5
4A6
100
AcDbEntity
  8
CURVE
100
AcDbLine
 62
250
  6
CONTINUOUS
 10
4.3993634436
 20
-9.5235579663
 11
4.1851103788
 21
-9.4164148026
  0
LINE
  5
4A7
100
AcDbEntity
  8
CURVE
100
AcDbLine
 62
250
  6
CONTINUOUS
 10
6.8989826814
 20
-10.0949861461
 11
6.6847296167
 21
-9.98784334
  0
LINE
  5
4A8
100
AcDbEntity
  8
CURVE
100
AcDbLine
 62
250
  6
CONTINUOUS
 10
5.0421226825
 20
-8.7735579663
 11
5.2563757696
 21
-8.8807004147
  0
LINE
  5
4A9
100
AcDbEntity
  8
CURVE
100
AcDbLine
 62
250
  6
CONTINUOUS
 10
7.5417419204
 20
-9.3449861461
 11
7.7559950075
 21
-9.4521289521
  0
LINE
  5
4AA
100
AcDbEntity
  8
CURVE
100
AcDbLine
 62
250
  6
CONTINUOUS
 10
6.6133119284
 20
-11.5592719966
 11
7.9345392477
 21
-12.4164148026
  0
LINE
  5
4AB
100
AcDbEntity
  8
CURVE
100
AcDbLine
 62
250
  6
CONTINUOUS
 10
5.4706288568
 20
-11.8807004147
 11
4.3993634436
 21
-11.1307004147
  0
LINE
  5
4AC
100
AcDbEntity
  8
CURVE
100
AcDbLine
 62
250
  6
CONTINUOUS
 10
5.2563757696
 20
-14.6664148026
 11
5.4706288568
 21
-14.8807005041
  0
LINE
  5
4AD
100
AcDbEntity
  8
CURVE
100
AcDbLine
 62
250
  6
CONTINUOUS
 10
5.2563757696
 20
-13.4878433996
 11
5.4706288568
 21
-13.7021290117
  0
LINE
  5
4AE
100
AcDbEntity
  8
CURVE
100
AcDbLine
 62
250
  6
CONTINUOUS
 10
1.6497822819
 20
-9.6204732566
 11
1.2212761523
 21
-9.1919018089
  0
LINE
  5
4AF
100
AcDbEntity
  8
CURVE
100
AcDbLine
 62
250
  6
CONTINUOUS
 10
1.2212761523
 20
-8.2276161521
 11
1.5426557942
 21
-8.5490446596
  0
LINE
  5
4B0
100
AcDbEntity
  8
0
100
AcDbLine
 62
250
  6
CONTINUOUS
 10
8.8869696837
 20
-18.5849936994
 11
8.9789701691
 21
-18.6787049202
  0
LINE
  5
4B1
100
AcDbEntity
  8
ASSI
100
AcDbLine
 62
250
  6
CONTINUOUS
 10
8.8869696837
 20
-18.5849936994
 11
8.9789701691
 21
-18.6787049202
  0
LINE
  5
4B2
100
AcDbEntity
  8
0
100
AcDbLine
 62
250
  6
CONTINUOUS
 10
8.9789701691
 20
-18.6787049202
 11
9.0459994103
 21
-18.7474304051
  0
LINE
  5
4B3
100
AcDbEntity
  8
ASSI
100
AcDbLine
 62
250
  6
CONTINUOUS
 10
8.9789701691
 20
-18.6787049202
 11
9.0459994103
 21
-18.7474304051
  0
LINE
  5
4B4
100
AcDbEntity
  8
0
100
AcDbLine
 62
250
  6
CONTINUOUS
 10
9.0459994103
 20
-18.7474304051
 11
9.1029238356
 21
-18.8062635794
  0
LINE
  5
4B5
100
AcDbEntity
  8
ASSI
100
AcDbLine
 62
250
  6
CONTINUOUS
 10
9.0459994103
 20
-18.7474304051
 11
9.1029238356
 21
-18.8062635794
  0
LINE
  5
4B6
100
AcDbEntity
  8
0
100
AcDbLine
 62
250
  6
CONTINUOUS
 10
9.1029238356
 20
-18.8062635794
 11
9.1404672542
 21
-18.8454631833
  0
LINE
  5
4B7
100
AcDbEntity
  8
ASSI
100
AcDbLine
 62
250
  6
CONTINUOUS
 10
9.1029238356
 20
-18.8062635794
 11
9.1404672542
 21
-18.8454631833
  0
LINE
  5
4B8
100
AcDbEntity
  8
0
100
AcDbLine
 62
250
  6
CONTINUOUS
 10
9.1404672542
 20
-18.8454631833
 11
9.163658811
 21
-18.8699593537
  0
LINE
  5
4B9
100
AcDbEntity
  8
ASSI
100
AcDbLine
 62
250
  6
CONTINUOUS
 10
9.1404672542
 20
-18.8454631833
 11
9.163658811
 21
-18.8699593537
  0
LINE
  5
4BA
100
AcDbEntity
  8
0
100
AcDbLine
 62
250
  6
CONTINUOUS
 10
9.163658811
 20
-18.8699593537
 11
9.1766657443
 21
-18.8838609362
  0
LINE
  5
4BB
100
AcDbEntity
  8
ASSI
100
AcDbLine
 62
250
  6
CONTINUOUS
 10
9.163658811
 20
-18.8699593537
 11
9.1766657443
 21
-18.8838609362
  0
LWPOLYLINE
  5
4BC
100
AcDbEntity
  8
0
100
AcDbPolyline
 62
250
  6
CONTINUOUS
 90
12
 70
0
 10
9.1766657443
 20
-18.8838609362
 10
9.1876631689
 20
-18.8957698235
 10
9.192397804
 20
-18.9009656452
 10
9.1966182081
 20
-18.9056504141
 10
9.2003212265
 20
-18.9098206284
 10
9.2035040914
 20
-18.9134731709
 10
9.2061644253
 20
-18.9166053134
 10
9.2083002371
 20
-18.9192147118
 10
9.2099099273
 20
-18.9212994116
 10
9.2109922955
 20
-18.922857857
 10
9.2115465375
 20
-18.9238888882
 10
9.2115722424
 20
-18.9243917379
  0
LWPOLYLINE
  5
4BD
100
AcDbEntity
  8
ASSI
100
AcDbPolyline
 62
250
  6
CONTINUOUS
 90
12
 70
0
 10
9.1766657443
 20
-18.8838609362
 10
9.1876631689
 20
-18.8957698235
 10
9.192397804
 20
-18.9009656452
 10
9.1966182081
 20
-18.9056504141
 10
9.2003212265
 20
-18.9098206284
 10
9.2035040914
 20
-18.9134731709
 10
9.2061644253
 20
-18.9166053134
 10
9.2083002371
 20
-18.9192147118
 10
9.2099099273
 20
-18.9212994116
 10
9.2109922955
 20
-18.922857857
 10
9.2115465375
 20
-18.9238888882
 10
9.2115722424
 20
-18.9243917379
  0
LINE
  5
4BE
100
AcDbEntity
  8
RACCORDO
100
AcDbLine
 62
7
  6
CONTINUOUS
 10
7.5536498968
 20
-20.9791080463
 11
7.6070837985
 21
-21.0545986898
  0
LINE
  5
4BF
100
AcDbEntity
  8
ASSI
100
AcDbLine
 62
7
  6
CONTINUOUS
 10
7.5536498968
 20
-20.9791080463
 11
7.6070837985
 21
-21.0545986898
  0
LINE
  5
4C0
100
AcDbEntity
  8
RACCORDO
100
AcDbLine
 62
7
  6
CONTINUOUS
 10
7.6070837985
 20
-21.0545986898
 11
7.6863256761
 21
-21.1675530671
  0
LINE
  5
4C1
100
AcDbEntity
  8
ASSI
100
AcDbLine
 62
7
  6
CONTINUOUS
 10
7.6070837985
 20
-21.0545986898
 11
7.6863256761
 21
-21.1675530671
  0
LWPOLYLINE
  5
4C2
100
AcDbEntity
  8
RACCORDO
100
AcDbPolyline
 62
7
  6
CONTINUOUS
 90
7
 70
0
 10
7.6863256761
 20
-21.1675530671
 10
7.7380627869
 20
-21.2423074194
 10
7.7635037345
 20
-21.2794036871
 10
7.7884789816
 20
-21.3163327868
 10
7.8129292386
 20
-21.3530605665
 10
7.8369137952
 20
-21.3894837629
 10
7.8604326513
 20
-21.425531329
  0
LWPOLYLINE
  5
4C3
100
AcDbEntity
  8
ASSI
100
AcDbPolyline
 62
7
  6
CONTINUOUS
 90
7
 70
0
 10
7.6863256761
 20
-21.1675530671
 10
7.7380627869
 20
-21.2423074194
 10
7.7635037345
 20
-21.2794036871
 10
7.7884789816
 20
-21.3163327868
 10
7.8129292386
 20
-21.3530605665
 10
7.8369137952
 20
-21.3894837629
 10
7.8604326513
 20
-21.425531329
  0
LWPOLYLINE
  5
4C4
100
AcDbEntity
  8
0
100
AcDbPolyline
 62
250
  6
CONTINUOUS
 90
11
 70
0
 10
-5.0678126563
 20
20.1516593825
 10
-5.0676239272
 20
20.1459754378
 10
-5.0674218082
 20
20.1408704923
 10
-5.0672065454
 20
20.1363507633
 10
-5.066978401
 20
20.1324217552
 10
-5.066737653
 20
20.129088253
 10
-5.0664845943
 20
20.1263543166
 10
-5.0662195334
 20
20.1242232754
 10
-5.0659427929
 20
20.1226977249
 10
-5.0656547099
 20
20.1217795229
 10
-5.0653556352
 20
20.1214697878
  0
LWPOLYLINE
  5
4C5
100
AcDbEntity
  8
ASSI
100
AcDbPolyline
 62
250
  6
CONTINUOUS
 90
11
 70
0
 10
-5.0678126563
 20
20.1516593825
 10
-5.0676239272
 20
20.1459754378
 10
-5.0674218082
 20
20.1408704923
 10
-5.0672065454
 20
20.1363507633
 10
-5.066978401
 20
20.1324217552
 10
-5.066737653
 20
20.129088253
 10
-5.0664845943
 20
20.1263543166
 10
-5.0662195334
 20
20.1242232754
 10
-5.0659427929
 20
20.1226977249
 10
-5.0656547099
 20
20.1217795229
 10
-5.0653556352
 20
20.1214697878
  0
LINE
  5
4C6
100
AcDbEntity
  8
0
100
AcDbLine
 62
250
  6
CONTINUOUS
 10
-5.068149042
 20
20.1647358836
 11
-5.0678126563
 21
20.1516593825
  0
LINE
  5
4C7
100
AcDbEntity
  8
ASSI
100
AcDbLine
 62
250
  6
CONTINUOUS
 10
-5.068149042
 20
20.1647358836
 11
-5.0678126563
 21
20.1516593825
  0
LINE
  5
4C8
100
AcDbEntity
  8
0
100
AcDbLine
 62
250
  6
CONTINUOUS
 10
-5.0684293271
 20
20.180036313
 11
-5.068149042
 21
20.1647358836
  0
LINE
  5
4C9
100
AcDbEntity
  8
ASSI
100
AcDbLine
 62
250
  6
CONTINUOUS
 10
-5.0684293271
 20
20.180036313
 11
-5.068149042
 21
20.1647358836
  0
LINE
  5
4CA
100
AcDbEntity
  8
0
100
AcDbLine
 62
250
  6
CONTINUOUS
 10
-5.0672065454
 20
21.0666963068
 11
-5.0653556352
 21
20.9457767594
  0
LINE
  5
4CB
100
AcDbEntity
  8
ASSI
100
AcDbLine
 62
250
  6
CONTINUOUS
 10
-5.0672065454
 20
21.0666963068
 11
-5.0653556352
 21
20.9457767594
  0
LINE
  5
4CC
100
AcDbEntity
  8
0
100
AcDbLine
 62
250
  6
CONTINUOUS
 10
-5.0686521465
 20
20.1974861575
 11
-5.0684293271
 21
20.180036313
  0
LINE
  5
4CD
100
AcDbEntity
  8
ASSI
100
AcDbLine
 62
250
  6
CONTINUOUS
 10
-5.0686521465
 20
20.1974861575
 11
-5.0684293271
 21
20.180036313
  0
LINE
  5
4CE
100
AcDbEntity
  8
0
100
AcDbLine
 62
250
  6
CONTINUOUS
 10
-5.0684293271
 20
21.1804349714
 11
-5.0672065454
 21
21.0666963068
  0
LINE
  5
4CF
100
AcDbEntity
  8
ASSI
100
AcDbLine
 62
250
  6
CONTINUOUS
 10
-5.0684293271
 20
21.1804349714
 11
-5.0672065454
 21
21.0666963068
  0
LINE
  5
4D0
100
AcDbEntity
  8
0
100
AcDbLine
 62
250
  6
CONTINUOUS
 10
-5.0688763318
 20
20.2275024201
 11
-5.0686521465
 21
20.1974861575
  0
LINE
  5
4D1
100
AcDbEntity
  8
ASSI
100
AcDbLine
 62
250
  6
CONTINUOUS
 10
-5.0688763318
 20
20.2275024201
 11
-5.0686521465
 21
20.1974861575
  0
LINE
  5
4D2
100
AcDbEntity
  8
0
100
AcDbLine
 62
250
  6
CONTINUOUS
 10
-5.0688763318
 20
21.253509962
 11
-5.0684293271
 21
21.1804349714
  0
LINE
  5
4D3
100
AcDbEntity
  8
ASSI
100
AcDbLine
 62
250
  6
CONTINUOUS
 10
-5.0688763318
 20
21.253509962
 11
-5.0684293271
 21
21.1804349714
  0
LINE
  5
4D4
100
AcDbEntity
  8
0
100
AcDbLine
 62
250
  6
CONTINUOUS
 10
-5.0689663895
 20
21.3053378293
 11
-5.0688763318
 21
21.253509962
  0
LINE
  5
4D5
100
AcDbEntity
  8
ASSI
100
AcDbLine
 62
250
  6
CONTINUOUS
 10
-5.0689663895
 20
21.3053378293
 11
-5.0688763318
 21
21.253509962
  0
LINE
  5
4D6
100
AcDbEntity
  8
0
100
AcDbLine
 62
250
  6
CONTINUOUS
 10
-5.0689663895
 20
20.2741708877
 11
-5.0688763318
 21
20.2275024201
  0
LINE
  5
4D7
100
AcDbEntity
  8
ASSI
100
AcDbLine
 62
250
  6
CONTINUOUS
 10
-5.0689663895
 20
20.2741708877
 11
-5.0688763318
 21
20.2275024201
  0
LINE
  5
4D8
100
AcDbEntity
  8
0
100
AcDbLine
 62
250
  6
CONTINUOUS
 10
-5.0689663895
 20
-19.5946621707
 11
-5.0688763318
 21
-19.646490038
  0
LINE
  5
4D9
100
AcDbEntity
  8
ASSI
100
AcDbLine
 62
250
  6
CONTINUOUS
 10
-5.0689663895
 20
-19.5946621707
 11
-5.0688763318
 21
-19.646490038
  0
LINE
  5
4DA
100
AcDbEntity
  8
0
100
AcDbLine
 62
250
  6
CONTINUOUS
 10
-5.0653556352
 20
-20.2786063646
 11
-5.0653556352
 21
-19.9542232406
  0
LINE
  5
4DB
100
AcDbEntity
  8
ASSI
100
AcDbLine
 62
250
  6
CONTINUOUS
 10
-5.0653556352
 20
-20.2786063646
 11
-5.0653556352
 21
-19.9542232406
  0
LINE
  5
4DC
100
AcDbEntity
  8
0
100
AcDbLine
 62
250
  6
CONTINUOUS
 10
-5.0653556352
 20
20.6213936354
 11
-5.0653556352
 21
20.9457767594
  0
LINE
  5
4DD
100
AcDbEntity
  8
ASSI
100
AcDbLine
 62
250
  6
CONTINUOUS
 10
-5.0653556352
 20
20.6213936354
 11
-5.0653556352
 21
20.9457767594
  0
LINE
  5
4DE
100
AcDbEntity
  8
IMPORT_IGES
100
AcDbLine
 62
7
  6
CONTINUOUS
 10
-4.9064508224
 20
13.1119322228
 11
-4.9064508224
 21
12.7335851974
  0
LINE
  5
4DF
100
AcDbEntity
  8
IMPORT_IGES
100
AcDbLine
 62
7
  6
CONTINUOUS
 10
-4.8304508224
 20
12.7335851974
 11
-4.8304508224
 21
13.1132588077
  0
LINE
  5
4E0
100
AcDbEntity
  8
IMPORT_IGES
100
AcDbLine
 62
250
  6
CONTINUOUS
 10
-4.7304508224
 20
13.1150043142
 11
-4.7304508224
 21
12.7335851974
  0
LINE
  5
4E1
100
AcDbEntity
  8
0
100
AcDbLine
 62
7
  6
CONTINUOUS
 10
-4.5304508224
 20
20.1121329895
 11
-4.5304508224
 21
19.9550374052
  0
LINE
  5
4E2
100
AcDbEntity
  8
0
100
AcDbLine
 62
7
  6
CONTINUOUS
 10
-4.5304508224
 20
-19.2878670105
 11
-4.5304508224
 21
-19.4449625948
  0
LINE
  5
4E3
100
AcDbEntity
  8
DRAFT
100
AcDbLine
 62
7
  6
CONTINUOUS
 10
-4.4304508224
 20
24.1335851974
 11
-4.4304508224
 21
22.7335851974
  0
LINE
  5
4E4
100
AcDbEntity
  8
ASSI
100
AcDbLine
 62
7
  6
CONTINUOUS
 10
-4.4304508224
 20
24.1335851974
 11
-4.4304508224
 21
22.7335851974
  0
LINE
  5
4E5
100
AcDbEntity
  8
DRAFT
100
AcDbLine
 62
7
  6
CONTINUOUS
 10
-4.4304508224
 20
-22.0664148026
 11
-4.4304508224
 21
-23.4664148026
  0
LINE
  5
4E6
100
AcDbEntity
  8
ASSI
100
AcDbLine
 62
7
  6
CONTINUOUS
 10
-4.4304508224
 20
-22.0664148026
 11
-4.4304508224
 21
-23.4664148026
  0
LINE
  5
4E7
100
AcDbEntity
  8
ASSI
100
AcDbLine
 62
7
  6
CONTINUOUS
 10
-4.3863835551
 20
-23.4171882273
 11
-4.3863835551
 21
-22.0003129695
  0
LINE
  5
4E8
100
AcDbEntity
  8
ASSI
100
AcDbLine
 62
7
  6
CONTINUOUS
 10
-4.3863835551
 20
22.6674833643
 11
-4.3863835551
 21
24.0847493687
  0
LINE
  5
4E9
100
AcDbEntity
  8
IMPORT_IGES
100
AcDbLine
 62
7
  6
CONTINUOUS
 10
-4.0464508224
 20
6.819106799
 11
-4.0464508224
 21
3.6480635958
  0
LINE
  5
4EA
100
AcDbEntity
  8
IMPORT_IGES
100
AcDbLine
 62
7
  6
CONTINUOUS
 10
-4.0464508224
 20
-1.3519364042
 11
-4.0464508224
 21
1.819106799
  0
LINE
  5
4EB
100
AcDbEntity
  8
IMPORT_IGES
100
AcDbLine
 62
7
  6
CONTINUOUS
 10
-4.0464508224
 20
8.6480635958
 11
-4.0464508224
 21
11.819106799
  0
LINE
  5
4EC
100
AcDbEntity
  8
IMPORT_IGES
100
AcDbLine
 62
7
  6
CONTINUOUS
 10
-4.0364508224
 20
-1.0664148026
 11
-4.0364508224
 21
1.5335851974
  0
LINE
  5
4ED
100
AcDbEntity
  8
IMPORT_IGES
100
AcDbLine
 62
7
  6
CONTINUOUS
 10
-4.0364508224
 20
3.9335851974
 11
-4.0364508224
 21
6.5335851974
  0
LINE
  5
4EE
100
AcDbEntity
  8
IMPORT_IGES
100
AcDbLine
 62
7
  6
CONTINUOUS
 10
-4.0364508224
 20
8.9335851974
 11
-4.0364508224
 21
11.5335851974
  0
LINE
  5
4EF
100
AcDbEntity
  8
ASSI
100
AcDbLine
 62
7
  6
CONTINUOUS
 10
-3.5304508224
 20
-23.417557093
 11
-3.5304508224
 21
-22.0003346978
  0
LINE
  5
4F0
100
AcDbEntity
  8
ASSI
100
AcDbLine
 62
7
  6
CONTINUOUS
 10
-3.5304508224
 20
-23.4227641558
 11
-3.5304508224
 21
-23.4605969728
  0
LINE
  5
4F1
100
AcDbEntity
  8
ASSI
100
AcDbLine
 62
7
  6
CONTINUOUS
 10
-3.5304508224
 20
22.6675050925
 11
-3.5304508224
 21
24.0851054022
  0
LINE
  5
4F2
100
AcDbEntity
  8
ASSI
100
AcDbLine
 62
7
  6
CONTINUOUS
 10
-3.5304508224
 20
24.0899009014
 11
-3.5304508224
 21
24.1277673676
  0
LINE
  5
4F3
100
AcDbEntity
  8
0
100
AcDbLine
 62
250
  6
CONTINUOUS
 10
-5.0689513646
 20
-20.6130679166
 11
-5.0689213332
 21
-20.6615158861
  0
LINE
  5
4F4
100
AcDbEntity
  8
ASSI
100
AcDbLine
 62
250
  6
CONTINUOUS
 10
-5.0689513646
 20
-20.6130679166
 11
-5.0689213332
 21
-20.6615158861
  0
LINE
  5
4F5
100
AcDbEntity
  8
0
100
AcDbLine
 62
250
  6
CONTINUOUS
 10
-5.0689213332
 20
21.3286862808
 11
-5.0689663895
 21
21.3053378293
  0
LINE
  5
4F6
100
AcDbEntity
  8
ASSI
100
AcDbLine
 62
250
  6
CONTINUOUS
 10
-5.0689213332
 20
21.3286862808
 11
-5.0689663895
 21
21.3053378293
  0
LINE
  5
4F7
100
AcDbEntity
  8
0
100
AcDbLine
 62
250
  6
CONTINUOUS
 10
-5.0688763318
 20
20.3136604327
 11
-5.0689663895
 21
20.2741708877
  0
LINE
  5
4F8
100
AcDbEntity
  8
ASSI
100
AcDbLine
 62
250
  6
CONTINUOUS
 10
-5.0688763318
 20
20.3136604327
 11
-5.0689663895
 21
20.2741708877
  0
LINE
  5
4F9
100
AcDbEntity
  8
0
100
AcDbLine
 62
250
  6
CONTINUOUS
 10
-5.0688763318
 20
-19.5603320254
 11
-5.0689663895
 21
-19.5946621707
  0
LINE
  5
4FA
100
AcDbEntity
  8
ASSI
100
AcDbLine
 62
250
  6
CONTINUOUS
 10
-5.0688763318
 20
-19.5603320254
 11
-5.0689663895
 21
-19.5946621707
  0
LINE
  5
4FB
100
AcDbEntity
  8
0
100
AcDbLine
 62
250
  6
CONTINUOUS
 10
-5.0686521465
 20
-20.5434797391
 11
-5.0689513646
 21
-20.6130679166
  0
LINE
  5
4FC
100
AcDbEntity
  8
ASSI
100
AcDbLine
 62
250
  6
CONTINUOUS
 10
-5.0686521465
 20
-20.5434797391
 11
-5.0689513646
 21
-20.6130679166
  0
LINE
  5
4FD
100
AcDbEntity
  8
0
100
AcDbLine
 62
250
  6
CONTINUOUS
 10
-5.0686521465
 20
-19.5303157627
 11
-5.0688763318
 21
-19.5603320254
  0
LINE
  5
4FE
100
AcDbEntity
  8
ASSI
100
AcDbLine
 62
250
  6
CONTINUOUS
 10
-5.0686521465
 20
-19.5303157627
 11
-5.0688763318
 21
-19.5603320254
  0
LINE
  5
4FF
100
AcDbEntity
  8
0
100
AcDbLine
 62
250
  6
CONTINUOUS
 10
-5.0678126563
 20
-20.4495586011
 11
-5.0686521465
 21
-20.5434797391
  0
LINE
  5
500
100
AcDbEntity
  8
ASSI
100
AcDbLine
 62
250
  6
CONTINUOUS
 10
-5.0678126563
 20
-20.4495586011
 11
-5.0686521465
 21
-20.5434797391
  0
LINE
  5
501
100
AcDbEntity
  8
0
100
AcDbLine
 62
250
  6
CONTINUOUS
 10
-5.0684293271
 20
-19.5128659183
 11
-5.0686521465
 21
-19.5303157627
  0
LINE
  5
502
100
AcDbEntity
  8
ASSI
100
AcDbLine
 62
250
  6
CONTINUOUS
 10
-5.0684293271
 20
-19.5128659183
 11
-5.0686521465
 21
-19.5303157627
  0
LINE
  5
503
100
AcDbEntity
  8
0
100
AcDbLine
 62
250
  6
CONTINUOUS
 10
-5.0662195334
 20
-20.3308525429
 11
-5.0678126563
 21
-20.4495586011
  0
LINE
  5
504
100
AcDbEntity
  8
ASSI
100
AcDbLine
 62
250
  6
CONTINUOUS
 10
-5.0662195334
 20
-20.3308525429
 11
-5.0678126563
 21
-20.4495586011
  0
LINE
  5
505
100
AcDbEntity
  8
0
100
AcDbLine
 62
250
  6
CONTINUOUS
 10
-5.0653556352
 20
-20.2786063646
 11
-5.0662195334
 21
-20.3308525429
  0
LINE
  5
506
100
AcDbEntity
  8
ASSI
100
AcDbLine
 62
250
  6
CONTINUOUS
 10
-5.0653556352
 20
-20.2786063646
 11
-5.0662195334
 21
-20.3308525429
  0
LINE
  5
507
100
AcDbEntity
  8
0
100
AcDbLine
 62
250
  6
CONTINUOUS
 10
-5.068149042
 20
-19.4975654888
 11
-5.0684293271
 21
-19.5128659183
  0
LINE
  5
508
100
AcDbEntity
  8
ASSI
100
AcDbLine
 62
250
  6
CONTINUOUS
 10
-5.068149042
 20
-19.4975654888
 11
-5.0684293271
 21
-19.5128659183
  0
LINE
  5
509
100
AcDbEntity
  8
RACCORDO
100
AcDbLine
 62
7
  6
CONTINUOUS
 10
-8.2829953482
 20
-23.9519971688
 11
-8.2849684546
 21
-23.9637310901
  0
LWPOLYLINE
  5
50A
100
AcDbEntity
  8
ASSI
100
AcDbPolyline
 62
7
  6
CONTINUOUS
 90
6
 70
0
 10
-8.2829953482
 20
-23.9519971688
 10
-8.2849684546
 20
-23.9637310901
 10
-8.2874976407
 20
-23.9753578414
 10
-8.2905771807
 20
-23.9868510816
 10
-8.294200101
 20
-23.9981847764
 10
-8.2983581966
 20
-24.0093332519
  0
LWPOLYLINE
  5
50B
100
AcDbEntity
  8
0
100
AcDbPolyline
 62
250
  6
CONTINUOUS
 90
11
 70
0
 10
10.8027469675
 20
17.9478565914
 10
10.807481595
 20
17.9530524059
 10
10.8117019905
 20
17.9577371661
 10
10.8154049997
 20
17.9619073712
 10
10.8185878556
 20
17.9655599046
 10
10.8212481821
 20
17.9686920399
 10
10.8233839859
 20
17.9713014307
 10
10.8249936653
 20
17.9733861191
 10
10.8260760221
 20
17.9749445514
 10
10.826630256
 20
17.9759755719
 10
10.8266559588
 20
17.9764784162
  0
LWPOLYLINE
  5
50C
100
AcDbEntity
  8
ASSI
100
AcDbPolyline
 62
250
  6
CONTINUOUS
 90
11
 70
0
 10
10.8027469675
 20
17.9478565914
 10
10.807481595
 20
17.9530524059
 10
10.8117019905
 20
17.9577371661
 10
10.8154049997
 20
17.9619073712
 10
10.8185878556
 20
17.9655599046
 10
10.8212481821
 20
17.9686920399
 10
10.8233839859
 20
17.9713014307
 10
10.8249936653
 20
17.9733861191
 10
10.8260760221
 20
17.9749445514
 10
10.826630256
 20
17.9759755719
 10
10.8266559588
 20
17.9764784162
  0
LINE
  5
50D
100
AcDbEntity
  8
0
100
AcDbLine
 62
250
  6
CONTINUOUS
 10
10.7917495555
 20
17.9359477163
 11
10.8027469675
 21
17.9478565914
  0
LINE
  5
50E
100
AcDbEntity
  8
ASSI
100
AcDbLine
 62
250
  6
CONTINUOUS
 10
10.7917495555
 20
17.9359477163
 11
10.8027469675
 21
17.9478565914
  0
LINE
  5
50F
100
AcDbEntity
  8
0
100
AcDbLine
 62
250
  6
CONTINUOUS
 10
10.7787426337
 20
17.9220461449
 11
10.7917495555
 21
17.9359477163
  0
LINE
  5
510
100
AcDbEntity
  8
ASSI
100
AcDbLine
 62
250
  6
CONTINUOUS
 10
10.7787426337
 20
17.9220461449
 11
10.7917495555
 21
17.9359477163
  0
LINE
  5
511
100
AcDbEntity
  8
0
100
AcDbLine
 62
250
  6
CONTINUOUS
 10
10.7555510913
 20
17.8975499883
 11
10.7787426337
 21
17.9220461449
  0
LINE
  5
512
100
AcDbEntity
  8
ASSI
100
AcDbLine
 62
250
  6
CONTINUOUS
 10
10.7555510913
 20
17.8975499883
 11
10.7787426337
 21
17.9220461449
  0
LINE
  5
513
100
AcDbEntity
  8
0
100
AcDbLine
 62
250
  6
CONTINUOUS
 10
10.7180076874
 20
17.8583503983
 11
10.7555510913
 21
17.8975499883
  0
LINE
  5
514
100
AcDbEntity
  8
ASSI
100
AcDbLine
 62
250
  6
CONTINUOUS
 10
10.7180076874
 20
17.8583503983
 11
10.7555510913
 21
17.8975499883
  0
LINE
  5
515
100
AcDbEntity
  8
0
100
AcDbLine
 62
250
  6
CONTINUOUS
 10
10.6610832745
 20
17.7995172355
 11
10.7180076874
 21
17.8583503983
  0
LINE
  5
516
100
AcDbEntity
  8
ASSI
100
AcDbLine
 62
250
  6
CONTINUOUS
 10
10.6610832745
 20
17.7995172355
 11
10.7180076874
 21
17.8583503983
  0
LINE
  5
517
100
AcDbEntity
  8
0
100
AcDbLine
 62
250
  6
CONTINUOUS
 10
10.5646873353
 20
17.7008132923
 11
10.6610832745
 21
17.7995172355
  0
LINE
  5
518
100
AcDbEntity
  8
ASSI
100
AcDbLine
 62
250
  6
CONTINUOUS
 10
10.5646873353
 20
17.7008132923
 11
10.6610832745
 21
17.7995172355
  0
LINE
  5
519
100
AcDbEntity
  8
0
100
AcDbLine
 62
250
  6
CONTINUOUS
 10
10.3997822528
 20
17.5334957763
 11
10.5646873353
 21
17.7008132923
  0
LINE
  5
51A
100
AcDbEntity
  8
ASSI
100
AcDbLine
 62
250
  6
CONTINUOUS
 10
10.3997822528
 20
17.5334957763
 11
10.5646873353
 21
17.7008132923
  0
LWPOLYLINE
  5
51B
100
AcDbEntity
  8
0
100
AcDbPolyline
 62
250
  6
CONTINUOUS
 90
3
 70
0
 10
10.1370015841
 20
17.269371635
 10
10.1563214746
 20
17.2887039367
 10
10.3997822528
 20
17.5334957763
  0
LWPOLYLINE
  5
51C
100
AcDbEntity
  8
ASSI
100
AcDbPolyline
 62
250
  6
CONTINUOUS
 90
3
 70
0
 10
10.1370015841
 20
17.269371635
 10
10.1563214746
 20
17.2887039367
 10
10.3997822528
 20
17.5334957763
  0
LINE
  5
51D
100
AcDbEntity
  8
0
100
AcDbLine
 62
7
  6
CONTINUOUS
 10
-0.0304508224
 20
-3.2711451922
 11
5.9695491776
 21
-3.1664148026
  0
LINE
  5
51E
100
AcDbEntity
  8
ASSI
100
AcDbLine
 62
7
  6
CONTINUOUS
 10
-0.0304508224
 20
-3.2711451922
 11
5.9695491776
 21
-3.1664148026
  0
LINE
  5
51F
100
AcDbEntity
  8
0
100
AcDbLine
 62
7
  6
CONTINUOUS
 10
-0.0304508224
 20
-3.2798727247
 11
-6.5304508224
 21
-3.1664148026
  0
LINE
  5
520
100
AcDbEntity
  8
CURVE
100
AcDbLine
 62
250
  6
CONTINUOUS
 10
6.6847296167
 20
-13.4878433996
 11
6.4704765519
 21
-13.2735576981
  0
LINE
  5
521
100
AcDbEntity
  8
CURVE
100
AcDbLine
 62
250
  6
CONTINUOUS
 10
7.9702480947
 20
-14.2378433549
 11
7.7559950075
 21
-14.0235576534
  0
LINE
  5
522
100
AcDbEntity
  8
CURVE
100
AcDbLine
 62
250
  6
CONTINUOUS
 10
2.7210476951
 20
-8.2276161521
 11
2.506794608
 21
-8.0133304506
  0
LINE
  5
523
100
AcDbEntity
  8
CURVE
100
AcDbLine
 62
250
  6
CONTINUOUS
 10
4.1851103788
 20
-9.4164148026
 11
3.970857314
 21
-9.2021291905
  0
LINE
  5
524
100
AcDbEntity
  8
CURVE
100
AcDbLine
 62
250
  6
CONTINUOUS
 10
7.7559950075
 20
-12.9521290117
 11
7.9702480947
 21
-13.1664148026
  0
LINE
  5
525
100
AcDbEntity
  8
0
100
AcDbLine
 62
250
  6
CONTINUOUS
 10
10.1370015841
 20
-16.6022012403
 11
10.252220739
 21
-16.7176898826
  0
LINE
  5
526
100
AcDbEntity
  8
ASSI
100
AcDbLine
 62
250
  6
CONTINUOUS
 10
10.1370015841
 20
-16.6022012403
 11
10.252220739
 21
-16.7176898826
  0
LINE
  5
527
100
AcDbEntity
  8
0
100
AcDbLine
 62
250
  6
CONTINUOUS
 10
10.252220739
 20
-16.7176898826
 11
10.363877533
 21
-16.8300775507
  0
LINE
  5
528
100
AcDbEntity
  8
ASSI
100
AcDbLine
 62
250
  6
CONTINUOUS
 10
10.252220739
 20
-16.7176898826
 11
10.363877533
 21
-16.8300775507
  0
LINE
  5
529
100
AcDbEntity
  8
0
100
AcDbLine
 62
250
  6
CONTINUOUS
 10
10.363877533
 20
-16.8300775507
 11
10.4689737535
 21
-16.9363464069
  0
LINE
  5
52A
100
AcDbEntity
  8
ASSI
100
AcDbLine
 62
250
  6
CONTINUOUS
 10
10.363877533
 20
-16.8300775507
 11
10.4689737535
 21
-16.9363464069
  0
LINE
  5
52B
100
AcDbEntity
  8
0
100
AcDbLine
 62
250
  6
CONTINUOUS
 10
10.4689737535
 20
-16.9363464069
 11
10.5646874107
 21
-17.0336429745
  0
LINE
  5
52C
100
AcDbEntity
  8
ASSI
100
AcDbLine
 62
250
  6
CONTINUOUS
 10
10.4689737535
 20
-16.9363464069
 11
10.5646874107
 21
-17.0336429745
  0
LINE
  5
52D
100
AcDbEntity
  8
0
100
AcDbLine
 62
250
  6
CONTINUOUS
 10
10.5646874107
 20
-17.0336429745
 11
10.6354181892
 21
-17.1059758911
  0
LINE
  5
52E
100
AcDbEntity
  8
ASSI
100
AcDbLine
 62
250
  6
CONTINUOUS
 10
10.5646874107
 20
-17.0336429745
 11
10.6354181892
 21
-17.1059758911
  0
LINE
  5
52F
100
AcDbEntity
  8
0
100
AcDbLine
 62
250
  6
CONTINUOUS
 10
10.6354181892
 20
-17.1059758911
 11
10.6965230367
 21
-17.1689085533
  0
LINE
  5
530
100
AcDbEntity
  8
ASSI
100
AcDbLine
 62
250
  6
CONTINUOUS
 10
10.6354181892
 20
-17.1059758911
 11
10.6965230367
 21
-17.1689085533
  0
LINE
  5
531
100
AcDbEntity
  8
0
100
AcDbLine
 62
250
  6
CONTINUOUS
 10
10.6965230367
 20
-17.1689085533
 11
10.7377034375
 21
-17.2116908989
  0
LINE
  5
532
100
AcDbEntity
  8
ASSI
100
AcDbLine
 62
250
  6
CONTINUOUS
 10
10.6965230367
 20
-17.1689085533
 11
10.7377034375
 21
-17.2116908989
  0
LINE
  5
533
100
AcDbEntity
  8
0
100
AcDbLine
 62
250
  6
CONTINUOUS
 10
10.7377034375
 20
-17.2116908989
 11
10.7637651539
 21
-17.2390231126
  0
LINE
  5
534
100
AcDbEntity
  8
ASSI
100
AcDbLine
 62
250
  6
CONTINUOUS
 10
10.7377034375
 20
-17.2116908989
 11
10.7637651539
 21
-17.2390231126
  0
LINE
  5
535
100
AcDbEntity
  8
0
100
AcDbLine
 62
250
  6
CONTINUOUS
 10
10.7637651539
 20
-17.2390231126
 11
10.7787426965
 21
-17.2548758169
  0
LINE
  5
536
100
AcDbEntity
  8
ASSI
100
AcDbLine
 62
250
  6
CONTINUOUS
 10
10.7637651539
 20
-17.2390231126
 11
10.7787426965
 21
-17.2548758169
  0
LINE
  5
537
100
AcDbEntity
  8
0
100
AcDbLine
 62
250
  6
CONTINUOUS
 10
10.7787426965
 20
-17.2548758169
 11
10.7917496117
 21
-17.2687773819
  0
LINE
  5
538
100
AcDbEntity
  8
ASSI
100
AcDbLine
 62
250
  6
CONTINUOUS
 10
10.7787426965
 20
-17.2548758169
 11
10.7917496117
 21
-17.2687773819
  0
LWPOLYLINE
  5
539
100
AcDbEntity
  8
0
100
AcDbPolyline
 62
250
  6
CONTINUOUS
 90
12
 70
0
 10
10.7917496117
 20
-17.2687773819
 10
10.8027470131
 20
-17.2806862466
 10
10.807481636
 20
-17.2858820563
 10
10.8117020281
 20
-17.2905668135
 10
10.8154050343
 20
-17.2947370157
 10
10.8185878855
 20
-17.2983895446
 10
10.8212482064
 20
-17.3015216743
 10
10.8233840041
 20
-17.3041310587
 10
10.8249936768
 20
-17.3062157399
 10
10.8260760274
 20
-17.307774165
 10
10.8266302571
 20
-17.3088051799
 10
10.8266559588
 20
-17.3093080214
  0
LWPOLYLINE
  5
53A
100
AcDbEntity
  8
ASSI
100
AcDbPolyline
 62
250
  6
CONTINUOUS
 90
12
 70
0
 10
10.7917496117
 20
-17.2687773819
 10
10.8027470131
 20
-17.2806862466
 10
10.807481636
 20
-17.2858820563
 10
10.8117020281
 20
-17.2905668135
 10
10.8154050343
 20
-17.2947370157
 10
10.8185878855
 20
-17.2983895446
 10
10.8212482064
 20
-17.3015216743
 10
10.8233840041
 20
-17.3041310587
 10
10.8249936768
 20
-17.3062157399
 10
10.8260760274
 20
-17.307774165
 10
10.8266302571
 20
-17.3088051799
 10
10.8266559588
 20
-17.3093080214
  0
LWPOLYLINE
  5
53B
100
AcDbEntity
  8
RACCORDO
100
AcDbPolyline
 62
7
  6
CONTINUOUS
 90
5
 70
0
 10
-8.2849684546
 20
24.6309014849
 10
-8.2829953482
 20
24.6191675635
 10
-8.2815827881
 20
24.6073530529
 10
-8.2807339726
 20
24.5954847134
 10
-8.2804508224
 20
24.5835894282
  0
LINE
  5
53C
100
AcDbEntity
  8
IMPORT_IGES
100
AcDbLine
 62
250
  6
CONTINUOUS
 10
-3.11223726
 20
12.9335851974
 11
-3.1122405618
 21
12.7335851974
  0
LINE
  5
53D
100
AcDbEntity
  8
RACCORDO
100
AcDbLine
 62
7
  6
CONTINUOUS
 10
-3.0304508224
 20
-20.8140496078
 11
-3.0304508224
 21
-22.0044540413
  0
LINE
  5
53E
100
AcDbEntity
  8
ASSI
100
AcDbLine
 62
7
  6
CONTINUOUS
 10
-3.0304508224
 20
-20.8140496078
 11
-3.0304508224
 21
-22.0044540413
  0
LINE
  5
53F
100
AcDbEntity
  8
RACCORDO
100
AcDbLine
 62
7
  6
CONTINUOUS
 10
-3.0304508224
 20
21.4812200026
 11
-3.0304508224
 21
22.6716244361
  0
LINE
  5
540
100
AcDbEntity
  8
ASSI
100
AcDbLine
 62
7
  6
CONTINUOUS
 10
-3.0304508224
 20
21.4812200026
 11
-3.0304508224
 21
22.6716244361
  0
LINE
  5
541
100
AcDbEntity
  8
IMPORT_IGES
100
AcDbLine
 62
7
  6
CONTINUOUS
 10
-2.8364508224
 20
13.0335851974
 11
-2.8364508224
 21
13.1480642072
  0
LWPOLYLINE
  5
542
100
AcDbEntity
  8
RACCORDO
100
AcDbPolyline
 62
7
  6
CONTINUOUS
 90
23
 70
0
 10
-8.2849684546
 20
-23.9637310901
 10
-8.2874976407
 20
-23.9753578414
 10
-8.2905771807
 20
-23.9868510816
 10
-8.294200101
 20
-23.9981847764
 10
-8.2983581966
 20
-24.0093332519
 10
-8.3030420502
 20
-24.0202712489
 10
-8.3082410535
 20
-24.0309739902
 10
-8.3139434307
 20
-24.0414172309
 10
-8.3201362642
 20
-24.0515773085
 10
-8.3268055269
 20
-24.0614312078
 10
-8.3339361117
 20
-24.0709566065
 10
-8.3415118635
 20
-24.0801319217
 10
-8.3495156219
 20
-24.0889363687
 10
-8.3579292563
 20
-24.0973500031
 10
-8.3667337033
 20
-24.1053537615
 10
-8.3759090185
 20
-24.1129295133
 10
-8.3854344173
 20
-24.1200600981
 10
-8.3952883165
 20
-24.1267293608
 10
-8.4054483941
 20
-24.1329221943
 10
-8.4158916348
 20
-24.1386245715
 10
-8.4265943761
 20
-24.1438235748
 10
-8.4375323731
 20
-24.1485074284
 10
-8.4486808486
 20
-24.152665524
  0
LINE
  5
543
100
AcDbEntity
  8
DRAFT
100
AcDbLine
 62
7
  6
CONTINUOUS
 10
-9.5251007445
 20
-20.099985567
 11
-9.6804508224
 21
-20.5664148026
  0
LINE
  5
544
100
AcDbEntity
  8
ASSI
100
AcDbLine
 62
7
  6
CONTINUOUS
 10
-9.5251007445
 20
-20.099985567
 11
-9.6804508224
 21
-20.5664148026
  0
LWPOLYLINE
  5
545
100
AcDbEntity
  8
ASSI
100
AcDbPolyline
 62
7
  6
CONTINUOUS
 90
16
 70
0
 10
8.2374565519
 20
24.6765036467
 10
8.2421404055
 20
24.6874416437
 10
8.2473394088
 20
24.698144385
 10
8.253041786
 20
24.7085876256
 10
8.2592346195
 20
24.7187477033
 10
8.2659038822
 20
24.7286016025
 10
8.2730344669
 20
24.7381270012
 10
8.2806102188
 20
24.7473023164
 10
8.2886139771
 20
24.7561067635
 10
8.2970276115
 20
24.7645203979
 10
8.3058320586
 20
24.7725241562
 10
8.3150073738
 20
24.7800999081
 10
8.3245327725
 20
24.7872304928
 10
8.3343866717
 20
24.7938997555
 10
8.3445467494
 20
24.800092589
 10
8.35498999
 20
24.8057949662
  0
LINE
  5
546
100
AcDbEntity
  8
IMPORT_IGES
100
AcDbLine
 62
7
  6
CONTINUOUS
 10
5.9695491776
 20
-2.9664148026
 11
-6.3364508224
 21
-2.9664148026
  0
LINE
  5
547
100
AcDbEntity
  8
IMPORT_IGES
100
AcDbLine
 62
7
  6
CONTINUOUS
 10
-5.6364508224
 20
-2.9414148026
 11
-6.3364508224
 21
-2.9414148026
  0
LINE
  5
548
100
AcDbEntity
  8
IMPORT_IGES
100
AcDbLine
 62
7
  6
CONTINUOUS
 10
3.6635491776
 20
-2.8664148026
 11
-6.3364508224
 21
-2.8664148026
  0
LINE
  5
549
100
AcDbEntity
  8
IMPORT_IGES
100
AcDbLine
 62
250
  6
CONTINUOUS
 10
3.6635491776
 20
-2.7164148026
 11
-6.3364508224
 21
-2.7164148026
  0
LINE
  5
54A
100
AcDbEntity
  8
IMPORT_IGES
100
AcDbLine
 62
250
  6
CONTINUOUS
 10
3.6635491776
 20
-2.4164148026
 11
-6.3364508224
 21
-2.4164148026
  0
LINE
  5
54B
100
AcDbEntity
  8
IMPORT_IGES
100
AcDbLine
 62
7
  6
CONTINUOUS
 10
-6.3364508224
 20
-2.2664148026
 11
5.9695491776
 21
-2.2664148026
  0
LINE
  5
54C
100
AcDbEntity
  8
IMPORT_IGES
100
AcDbLine
 62
7
  6
CONTINUOUS
 10
11.1195491776
 20
-2.2664148026
 11
11.1635491776
 21
-2.2664148026
  0
LINE
  5
54D
100
AcDbEntity
  8
IMPORT_IGES
100
AcDbLine
 62
7
  6
CONTINUOUS
 10
3.6635491776
 20
-1.5647487528
 11
-5.4220914684
 21
-1.5647487528
  0
LINE
  5
54E
100
AcDbEntity
  8
CURVE
100
AcDbLine
 62
250
  6
CONTINUOUS
 10
6.8989826814
 20
-7.0949865037
 11
7.9702480947
 21
-7.73784334
  0
LINE
  5
54F
100
AcDbEntity
  8
CURVE
100
AcDbLine
 62
250
  6
CONTINUOUS
 10
6.4704765519
 20
-10.73784334
 11
6.7918561938
 21
-11.0592721158
  0
LINE
  5
550
100
AcDbEntity
  8
CURVE
100
AcDbLine
 62
250
  6
CONTINUOUS
 10
5.2563757696
 20
-8.8807004147
 11
5.4706288568
 21
-9.0949860268
  0
LINE
  5
551
100
AcDbEntity
  8
CURVE
100
AcDbLine
 62
250
  6
CONTINUOUS
 10
6.6847296167
 20
-9.98784334
 11
6.4704765519
 21
-9.7735577279
  0
LINE
  5
552
100
AcDbEntity
  8
CURVE
100
AcDbLine
 62
250
  6
CONTINUOUS
 10
7.9702480947
 20
-10.73784334
 11
7.7559950075
 21
-10.5235577279
  0
LINE
  5
553
100
AcDbEntity
  8
DRAFT
100
AcDbLine
 62
7
  6
CONTINUOUS
 10
-9.6804508224
 20
21.2335851974
 11
-9.5251007445
 21
20.7671559617
  0
LINE
  5
554
100
AcDbEntity
  8
ASSI
100
AcDbLine
 62
7
  6
CONTINUOUS
 10
-9.6804508224
 20
21.2335851974
 11
-9.5251007445
 21
20.7671559617
  0
LINE
  5
555
100
AcDbEntity
  8
0
100
AcDbLine
 62
7
  6
CONTINUOUS
 10
-0.0304508224
 20
-20.8664148026
 11
-0.0304508224
 21
-3.2711451922
  0
LINE
  5
556
100
AcDbEntity
  8
ASSI
100
AcDbLine
 62
7
  6
CONTINUOUS
 10
-0.0304508224
 20
-20.8664148026
 11
-0.0304508224
 21
-3.2711451922
  0
LINE
  5
557
100
AcDbEntity
  8
0
100
AcDbLine
 62
7
  6
CONTINUOUS
 10
-0.0304508224
 20
13.1883155869
 11
-0.0304508224
 21
21.5335851974
  0
LINE
  5
558
100
AcDbEntity
  8
ASSI
100
AcDbLine
 62
7
  6
CONTINUOUS
 10
-0.0304508224
 20
13.1883155869
 11
-0.0304508224
 21
21.5335851974
  0
LWPOLYLINE
  5
559
100
AcDbEntity
  8
ASSI
100
AcDbPolyline
 62
7
  6
CONTINUOUS
 90
17
 70
0
 10
-4.3863835551
 20
-23.4171882273
 10
-4.3859574538
 20
-23.4144028323
 10
-4.3848601253
 20
-23.4109529449
 10
-4.3830725367
 20
-23.4068385651
 10
-4.3805750174
 20
-23.4020726346
 10
-4.3773514758
 20
-23.3966422117
 10
-4.3733935052
 20
-23.3905084715
 10
-4.3686911987
 20
-23.3836643348
 10
-4.3632345935
 20
-23.3761168808
 10
-4.3570234172
 20
-23.3678485226
 10
-4.3500699957
 20
-23.3588785616
 10
-4.3423592466
 20
-23.3491876963
 10
-4.3338432707
 20
-23.3387004364
 10
-4.3245079148
 20
-23.3274173728
 10
-4.3143493442
 20
-23.3153379144
 10
-4.3033187874
 20
-23.3023847971
 10
-4.2914039135
 20
-23.2885562683
  0
LINE
  5
55A
100
AcDbEntity
  8
IMPORT_IGES
100
AcDbLine
 62
7
  6
CONTINUOUS
 10
-5.4220914684
 20
-1.5647487528
 11
-4.0464508224
 21
-1.3519364042
  0
LINE
  5
55B
100
AcDbEntity
  8
IMPORT_IGES
100
AcDbLine
 62
7
  6
CONTINUOUS
 10
-4.0464508224
 20
-1.2164148026
 11
0.8635491776
 21
-1.2164148026
  0
LINE
  5
55C
100
AcDbEntity
  8
IMPORT_IGES
100
AcDbLine
 62
7
  6
CONTINUOUS
 10
0.8635491776
 20
-1.0664148026
 11
-4.0364508224
 21
-1.0664148026
  0
LINE
  5
55D
100
AcDbEntity
  8
CURVE
100
AcDbLine
 62
250
  6
CONTINUOUS
 10
7.070385169
 20
0.3764423645
 11
8.9700957898
 21
0.3764423645
  0
LINE
  5
55E
100
AcDbEntity
  8
IMPORT_IGES
100
AcDbLine
 62
7
  6
CONTINUOUS
 10
0.8635491776
 20
-1.2164148026
 11
3.6635491776
 21
-1.4174457579
  0
LINE
  5
55F
100
AcDbEntity
  8
CURVE
100
AcDbLine
 62
250
  6
CONTINUOUS
 10
7.7559950075
 20
-9.4521289521
 11
7.9702480947
 21
-9.6664149218
  0
LWPOLYLINE
  5
560
100
AcDbEntity
  8
ASSI
100
AcDbPolyline
 62
7
  6
CONTINUOUS
 90
9
 70
0
 10
8.2374565519
 20
-24.0093332519
 10
8.2332984563
 20
-23.9981847764
 10
8.2296755359
 20
-23.9868510816
 10
8.2265959959
 20
-23.9753578414
 10
8.2240668099
 20
-23.9637310901
 10
8.2220937035
 20
-23.9519971688
 10
8.2206811434
 20
-23.9401826582
 10
8.2198323279
 20
-23.9283143186
 10
8.2195491776
 20
-23.9164190334
  0
LINE
  5
561
100
AcDbEntity
  8
IMPORT_IGES
100
AcDbLine
 62
7
  6
CONTINUOUS
 10
0.8635491776
 20
6.6835851974
 11
0.8635491776
 21
3.7835851974
  0
LINE
  5
562
100
AcDbEntity
  8
IMPORT_IGES
100
AcDbLine
 62
7
  6
CONTINUOUS
 10
0.8635491776
 20
1.6835851974
 11
0.8635491776
 21
-1.2164148026
  0
LINE
  5
563
100
AcDbEntity
  8
IMPORT_IGES
100
AcDbLine
 62
7
  6
CONTINUOUS
 10
0.8635491776
 20
8.7835851974
 11
0.8635491776
 21
11.6835851974
  0
LINE
  5
564
100
AcDbEntity
  8
CURVE
100
AcDbLine
 62
250
  6
CONTINUOUS
 10
1.8640353466
 20
-8.2276161521
 11
1.8640353466
 21
-8.691901794
  0
LINE
  5
565
100
AcDbEntity
  8
CURVE
100
AcDbLine
 62
250
  6
CONTINUOUS
 10
1.9711619237
 20
-16.1664148026
 11
1.9711619237
 21
-15.4164148026
  0
LINE
  5
566
100
AcDbEntity
  8
CURVE
100
AcDbLine
 62
250
  6
CONTINUOUS
 10
1.9711619237
 20
-12.3098130848
 11
1.9711619237
 21
-11.5598130848
  0
LWPOLYLINE
  5
567
100
AcDbEntity
  8
ASSI
100
AcDbPolyline
 62
7
  6
CONTINUOUS
 90
17
 70
0
 10
4.3254819104
 20
24.0847493687
 10
4.3250548896
 20
24.082041958
 10
4.3239566628
 20
24.078675884
 10
4.3221704896
 20
24.0746511468
 10
4.3196796159
 20
24.0699802668
 10
4.3164699788
 20
24.0646507235
 10
4.3125328333
 20
24.0586249559
 10
4.3078598386
 20
24.0518986826
 10
4.3024415837
 20
24.044476185
 10
4.2962725478
 20
24.0363327455
 10
4.2893632008
 20
24.0274887749
 10
4.2816979368
 20
24.0179238624
 10
4.2732222425
 20
24.007552058
 10
4.263915275
 20
23.9963690733
 10
4.2537744587
 20
23.9843791967
 10
4.2427565222
 20
23.9715093433
 10
4.2308505671
 20
23.9577591048
  0
LWPOLYLINE
  5
568
100
AcDbEntity
  8
ASSI
100
AcDbPolyline
 62
7
  6
CONTINUOUS
 90
16
 70
0
 10
-8.2983581966
 20
-24.0093332519
 10
-8.3030420502
 20
-24.0202712489
 10
-8.3082410535
 20
-24.0309739902
 10
-8.3139434307
 20
-24.0414172309
 10
-8.3201362642
 20
-24.0515773085
 10
-8.3268055269
 20
-24.0614312078
 10
-8.3339361117
 20
-24.0709566065
 10
-8.3415118635
 20
-24.0801319217
 10
-8.3495156219
 20
-24.0889363687
 10
-8.3579292563
 20
-24.0973500031
 10
-8.3667337033
 20
-24.1053537615
 10
-8.3759090185
 20
-24.1129295133
 10
-8.3854344173
 20
-24.1200600981
 10
-8.3952883165
 20
-24.1267293608
 10
-8.4054483941
 20
-24.1329221943
 10
-8.4158916348
 20
-24.1386245715
  0
LINE
  5
569
100
AcDbEntity
  8
IMPORT_IGES
100
AcDbLine
 62
7
  6
CONTINUOUS
 10
3.6635491776
 20
1.8846161526
 11
0.8635491776
 21
1.6835851974
  0
LINE
  5
56A
100
AcDbEntity
  8
IMPORT_IGES
100
AcDbLine
 62
7
  6
CONTINUOUS
 10
-4.0364508224
 20
1.5335851974
 11
0.8635491776
 21
1.5335851974
  0
LINE
  5
56B
100
AcDbEntity
  8
IMPORT_IGES
100
AcDbLine
 62
7
  6
CONTINUOUS
 10
-4.0464508224
 20
1.6835851974
 11
0.8635491776
 21
1.6835851974
  0
LINE
  5
56C
100
AcDbEntity
  8
IMPORT_IGES
100
AcDbLine
 62
7
  6
CONTINUOUS
 10
-5.4220914684
 20
2.0319191475
 11
3.6635491776
 21
2.0319191475
  0
LINE
  5
56D
100
AcDbEntity
  8
IMPORT_IGES
100
AcDbLine
 62
7
  6
CONTINUOUS
 10
-4.0464508224
 20
1.819106799
 11
-5.4220914684
 21
2.0319191475
  0
LINE
  5
56E
100
AcDbEntity
  8
CURVE
100
AcDbLine
 62
250
  6
CONTINUOUS
 10
5.0064138384
 20
-7.059271639
 11
4.899287306
 21
-6.8092718774
  0
LWPOLYLINE
  5
56F
100
AcDbEntity
  8
ASSI
100
AcDbPolyline
 62
7
  6
CONTINUOUS
 90
9
 70
0
 10
-8.2983581966
 20
24.6765036467
 10
-8.294200101
 20
24.6653551711
 10
-8.2905771807
 20
24.6540214764
 10
-8.2874976407
 20
24.6425282362
 10
-8.2849684546
 20
24.6309014849
 10
-8.2829953482
 20
24.6191675635
 10
-8.2815827881
 20
24.6073530529
 10
-8.2807339726
 20
24.5954847134
 10
-8.2804508224
 20
24.5835894282
  0
LINE
  5
570
100
AcDbEntity
  8
CURVE
100
AcDbLine
 62
250
  6
CONTINUOUS
 10
2.2925415209
 20
-7.4419019132
 11
2.2925415209
 21
-6.870473197
  0
LINE
  5
571
100
AcDbEntity
  8
CURVE
100
AcDbLine
 62
250
  6
CONTINUOUS
 10
2.7210476951
 20
-8.5490446596
 11
2.7210476951
 21
-8.2276161521
  0
LINE
  5
572
100
AcDbEntity
  8
RACCORDO
100
AcDbLine
 62
7
  6
CONTINUOUS
 10
2.9695491776
 20
-20.8140496078
 11
2.9695491776
 21
-22.0044540413
  0
LINE
  5
573
100
AcDbEntity
  8
ASSI
100
AcDbLine
 62
7
  6
CONTINUOUS
 10
2.9695491776
 20
-20.8140496078
 11
2.9695491776
 21
-22.0044540413
  0
LINE
  5
574
100
AcDbEntity
  8
RACCORDO
100
AcDbLine
 62
7
  6
CONTINUOUS
 10
2.9695491776
 20
21.4812200026
 11
2.9695491776
 21
22.6716244361
  0
LINE
  5
575
100
AcDbEntity
  8
ASSI
100
AcDbLine
 62
7
  6
CONTINUOUS
 10
2.9695491776
 20
21.4812200026
 11
2.9695491776
 21
22.6716244361
  0
LINE
  5
576
100
AcDbEntity
  8
ASSI
100
AcDbLine
 62
7
  6
CONTINUOUS
 10
3.4695491776
 20
-23.417557093
 11
3.4695491776
 21
-22.0003346978
  0
LINE
  5
577
100
AcDbEntity
  8
ASSI
100
AcDbLine
 62
7
  6
CONTINUOUS
 10
3.4695491776
 20
-23.4227641558
 11
3.4695491776
 21
-23.4605969728
  0
LINE
  5
578
100
AcDbEntity
  8
ASSI
100
AcDbLine
 62
7
  6
CONTINUOUS
 10
3.4695491776
 20
22.6675050925
 11
3.4695491776
 21
24.0851054022
  0
LINE
  5
579
100
AcDbEntity
  8
ASSI
100
AcDbLine
 62
7
  6
CONTINUOUS
 10
3.4695491776
 20
24.0899009014
 11
3.4695491776
 21
24.1277673676
  0
LINE
  5
57A
100
AcDbEntity
  8
CURVE
100
AcDbLine
 62
250
  6
CONTINUOUS
 10
3.6409075746
 20
15.9585851974
 11
3.6409075746
 21
16.2710851974
  0
LINE
  5
57B
100
AcDbEntity
  8
IMPORT_IGES
100
AcDbLine
 62
7
  6
CONTINUOUS
 10
3.6635491776
 20
12.0319191475
 11
3.6635491776
 21
8.4352512472
  0
LINE
  5
57C
100
AcDbEntity
  8
IMPORT_IGES
100
AcDbLine
 62
7
  6
CONTINUOUS
 10
3.6635491776
 20
7.0319191475
 11
3.6635491776
 21
3.4352512472
  0
LINE
  5
57D
100
AcDbEntity
  8
IMPORT_IGES
100
AcDbLine
 62
7
  6
CONTINUOUS
 10
3.6635491776
 20
2.0319191475
 11
3.6635491776
 21
-1.5647487528
  0
LINE
  5
57E
100
AcDbEntity
  8
IMPORT_IGES
100
AcDbLine
 62
7
  6
CONTINUOUS
 10
3.6635491776
 20
-2.8664148026
 11
3.6635491776
 21
-2.2664148026
  0
LINE
  5
57F
100
AcDbEntity
  8
IMPORT_IGES
100
AcDbLine
 62
7
  6
CONTINUOUS
 10
3.6635491776
 20
13.0335851974
 11
3.6635491776
 21
13.1238365771
  0
LWPOLYLINE
  5
580
100
AcDbEntity
  8
RACCORDO
100
AcDbPolyline
 62
7
  6
CONTINUOUS
 90
23
 70
0
 10
8.2240668099
 20
24.6309014849
 10
8.2265959959
 20
24.6425282362
 10
8.2296755359
 20
24.6540214764
 10
8.2332984563
 20
24.6653551711
 10
8.2374565519
 20
24.6765036467
 10
8.2421404055
 20
24.6874416437
 10
8.2473394088
 20
24.698144385
 10
8.253041786
 20
24.7085876256
 10
8.2592346195
 20
24.7187477033
 10
8.2659038822
 20
24.7286016025
 10
8.2730344669
 20
24.7381270012
 10
8.2806102188
 20
24.7473023164
 10
8.2886139771
 20
24.7561067635
 10
8.2970276115
 20
24.7645203979
 10
8.3058320586
 20
24.7725241562
 10
8.3150073738
 20
24.7800999081
 10
8.3245327725
 20
24.7872304928
 10
8.3343866717
 20
24.7938997555
 10
8.3445467494
 20
24.800092589
 10
8.35498999
 20
24.8057949662
 10
8.3656927313
 20
24.8109939695
 10
8.3766307283
 20
24.8156778231
 10
8.3877792039
 20
24.8198359187
  0
LINE
  5
581
100
AcDbEntity
  8
DRAFT
100
AcDbLine
 62
7
  6
CONTINUOUS
 10
9.6195491776
 20
21.2335851974
 11
9.4641990998
 21
20.7671559617
  0
LINE
  5
582
100
AcDbEntity
  8
ASSI
100
AcDbLine
 62
7
  6
CONTINUOUS
 10
9.6195491776
 20
21.2335851974
 11
9.4641990998
 21
20.7671559617
  0
LINE
  5
583
100
AcDbEntity
  8
IMPORT_IGES
100
AcDbLine
 62
7
  6
CONTINUOUS
 10
3.6635491776
 20
3.4352512472
 11
-5.4220914684
 21
3.4352512472
  0
LINE
  5
584
100
AcDbEntity
  8
IMPORT_IGES
100
AcDbLine
 62
7
  6
CONTINUOUS
 10
0.8635491776
 20
3.7835851974
 11
-4.0464508224
 21
3.7835851974
  0
LINE
  5
585
100
AcDbEntity
  8
IMPORT_IGES
100
AcDbLine
 62
7
  6
CONTINUOUS
 10
0.8635491776
 20
3.9335851974
 11
-4.0364508224
 21
3.9335851974
  0
LINE
  5
586
100
AcDbEntity
  8
IMPORT_IGES
100
AcDbLine
 62
7
  6
CONTINUOUS
 10
0.8635491776
 20
3.7835851974
 11
3.6635491776
 21
3.5825542421
  0
LINE
  5
587
100
AcDbEntity
  8
CURVE
100
AcDbLine
 62
250
  6
CONTINUOUS
 10
5.1135403931
 20
-6.5235579663
 11
5.0064138384
 21
-6.23784334
  0
LINE
  5
588
100
AcDbEntity
  8
DRAFT
100
AcDbLine
 62
7
  6
CONTINUOUS
 10
9.4641990998
 20
-20.099985567
 11
9.6195491776
 21
-20.5664148026
  0
LINE
  5
589
100
AcDbEntity
  8
ASSI
100
AcDbLine
 62
7
  6
CONTINUOUS
 10
9.4641990998
 20
-20.099985567
 11
9.6195491776
 21
-20.5664148026
  0
LINE
  5
58A
100
AcDbEntity
  8
0
100
AcDbLine
 62
250
  6
CONTINUOUS
 10
5.6516806512
 20
-20.2673089813
 11
5.6533034169
 21
-20.3712291371
  0
LINE
  5
58B
100
AcDbEntity
  8
ASSI
100
AcDbLine
 62
250
  6
CONTINUOUS
 10
5.6516806512
 20
-20.2673089813
 11
5.6533034169
 21
-20.3712291371
  0
LINE
  5
58C
100
AcDbEntity
  8
0
100
AcDbLine
 62
250
  6
CONTINUOUS
 10
5.6533034169
 20
-20.3712291371
 11
5.6544740579
 21
-20.4706092392
  0
LINE
  5
58D
100
AcDbEntity
  8
ASSI
100
AcDbLine
 62
250
  6
CONTINUOUS
 10
5.6533034169
 20
-20.3712291371
 11
5.6544740579
 21
-20.4706092392
  0
LINE
  5
58E
100
AcDbEntity
  8
0
100
AcDbLine
 62
250
  6
CONTINUOUS
 10
5.6544740579
 20
-20.4706092392
 11
5.6550666724
 21
-20.5468151667
  0
LINE
  5
58F
100
AcDbEntity
  8
ASSI
100
AcDbLine
 62
250
  6
CONTINUOUS
 10
5.6544740579
 20
-20.4706092392
 11
5.6550666724
 21
-20.5468151667
  0
LINE
  5
590
100
AcDbEntity
  8
0
100
AcDbLine
 62
250
  6
CONTINUOUS
 10
5.6550666724
 20
-20.5468151667
 11
5.6552763805
 21
-20.6017705299
  0
LINE
  5
591
100
AcDbEntity
  8
ASSI
100
AcDbLine
 62
250
  6
CONTINUOUS
 10
5.6550666724
 20
-20.5468151667
 11
5.6552763805
 21
-20.6017705299
  0
LINE
  5
592
100
AcDbEntity
  8
CURVE
100
AcDbLine
 62
250
  6
CONTINUOUS
 10
3.970857314
 20
-11.3449863845
 11
3.970857314
 21
-11.6664148026
  0
LINE
  5
593
100
AcDbEntity
  8
CURVE
100
AcDbLine
 62
250
  6
CONTINUOUS
 10
3.970857314
 20
-14.9878433996
 11
3.970857314
 21
-14.8807005041
  0
LINE
  5
594
100
AcDbEntity
  8
CURVE
100
AcDbLine
 62
250
  6
CONTINUOUS
 10
3.970857314
 20
-13.8092719966
 11
3.970857314
 21
-13.7021290117
  0
LINE
  5
595
100
AcDbEntity
  8
CURVE
100
AcDbLine
 62
250
  6
CONTINUOUS
 10
3.970857314
 20
-9.2021291905
 11
3.970857314
 21
-9.0949860268
  0
LINE
  5
596
100
AcDbEntity
  8
ASSI
100
AcDbLine
 62
7
  6
CONTINUOUS
 10
4.3254819104
 20
-23.4171882273
 11
4.3254819104
 21
-22.0003129695
  0
LINE
  5
597
100
AcDbEntity
  8
ASSI
100
AcDbLine
 62
7
  6
CONTINUOUS
 10
4.3254819104
 20
22.6674833643
 11
4.3254819104
 21
24.0847493687
  0
LINE
  5
598
100
AcDbEntity
  8
DRAFT
100
AcDbLine
 62
7
  6
CONTINUOUS
 10
4.3695491776
 20
-23.4664148026
 11
4.3695491776
 21
-22.0664148026
  0
LINE
  5
599
100
AcDbEntity
  8
ASSI
100
AcDbLine
 62
7
  6
CONTINUOUS
 10
4.3695491776
 20
-23.4664148026
 11
4.3695491776
 21
-22.0664148026
  0
LINE
  5
59A
100
AcDbEntity
  8
DRAFT
100
AcDbLine
 62
7
  6
CONTINUOUS
 10
4.3695491776
 20
22.7335851974
 11
4.3695491776
 21
24.1335851974
  0
LINE
  5
59B
100
AcDbEntity
  8
ASSI
100
AcDbLine
 62
7
  6
CONTINUOUS
 10
4.3695491776
 20
22.7335851974
 11
4.3695491776
 21
24.1335851974
  0
LINE
  5
59C
100
AcDbEntity
  8
CURVE
100
AcDbLine
 62
250
  6
CONTINUOUS
 10
4.9349961502
 20
-12.9521291905
 11
4.9349961502
 21
-12.3092719966
  0
LINE
  5
59D
100
AcDbEntity
  8
CURVE
100
AcDbLine
 62
250
  6
CONTINUOUS
 10
5.1492492373
 20
-9.9521291905
 11
5.1492492373
 21
-10.7021291905
  0
LINE
  5
59E
100
AcDbEntity
  8
IMPORT_IGES
100
AcDbLine
 62
7
  6
CONTINUOUS
 10
5.3695491776
 20
13.0940582363
 11
5.3695491776
 21
12.7335851974
  0
LINE
  5
59F
100
AcDbEntity
  8
CURVE
100
AcDbLine
 62
250
  6
CONTINUOUS
 10
5.4706288568
 20
-9.0949860268
 11
5.4706288568
 21
-9.2021291905
  0
LINE
  5
5A0
100
AcDbEntity
  8
CURVE
100
AcDbLine
 62
250
  6
CONTINUOUS
 10
5.4706288568
 20
-11.1307004147
 11
5.4706288568
 21
-11.8807004147
  0
LINE
  5
5A1
100
AcDbEntity
  8
CURVE
100
AcDbLine
 62
250
  6
CONTINUOUS
 10
5.4706288568
 20
-13.7021290117
 11
5.4706288568
 21
-13.8092719966
  0
LINE
  5
5A2
100
AcDbEntity
  8
CURVE
100
AcDbLine
 62
250
  6
CONTINUOUS
 10
5.4706288568
 20
-14.8807005041
 11
5.4706288568
 21
-14.9878433996
  0
LINE
  5
5A3
100
AcDbEntity
  8
IMPORT_IGES
100
AcDbLine
 62
7
  6
CONTINUOUS
 10
5.5195491776
 20
13.0914399766
 11
5.5195491776
 21
12.7335851974
  0
LINE
  5
5A4
100
AcDbEntity
  8
0
100
AcDbLine
 62
250
  6
CONTINUOUS
 10
5.6549771624
 20
21.1993527505
 11
5.6552763805
 21
21.268940928
  0
LINE
  5
5A5
100
AcDbEntity
  8
ASSI
100
AcDbLine
 62
250
  6
CONTINUOUS
 10
5.6549771624
 20
21.1993527505
 11
5.6552763805
 21
21.268940928
  0
LINE
  5
5A6
100
AcDbEntity
  8
0
100
AcDbLine
 62
250
  6
CONTINUOUS
 10
5.6541376722
 20
21.1054316124
 11
5.6549771624
 21
21.1993527505
  0
LINE
  5
5A7
100
AcDbEntity
  8
ASSI
100
AcDbLine
 62
250
  6
CONTINUOUS
 10
5.6541376722
 20
21.1054316124
 11
5.6549771624
 21
21.1993527505
  0
LINE
  5
5A8
100
AcDbEntity
  8
0
100
AcDbLine
 62
250
  6
CONTINUOUS
 10
5.6525445493
 20
20.9867255542
 11
5.6541376722
 21
21.1054316124
  0
LINE
  5
5A9
100
AcDbEntity
  8
ASSI
100
AcDbLine
 62
250
  6
CONTINUOUS
 10
5.6525445493
 20
20.9867255542
 11
5.6541376722
 21
21.1054316124
  0
LINE
  5
5AA
100
AcDbEntity
  8
0
100
AcDbLine
 62
250
  6
CONTINUOUS
 10
5.6516806512
 20
20.934479376
 11
5.6525445493
 21
20.9867255542
  0
LINE
  5
5AB
100
AcDbEntity
  8
ASSI
100
AcDbLine
 62
250
  6
CONTINUOUS
 10
5.6516806512
 20
20.934479376
 11
5.6525445493
 21
20.9867255542
  0
LINE
  5
5AC
100
AcDbEntity
  8
RACCORDO
100
AcDbLine
 62
7
  6
CONTINUOUS
 10
8.2220937035
 20
24.6191675635
 11
8.2240668099
 21
24.6309014849
  0
LWPOLYLINE
  5
5AD
100
AcDbEntity
  8
ASSI
100
AcDbPolyline
 62
7
  6
CONTINUOUS
 90
6
 70
0
 10
8.2220937035
 20
24.6191675635
 10
8.2240668099
 20
24.6309014849
 10
8.2265959959
 20
24.6425282362
 10
8.2296755359
 20
24.6540214764
 10
8.2332984563
 20
24.6653551711
 10
8.2374565519
 20
24.6765036467
  0
LWPOLYLINE
  5
5AE
100
AcDbEntity
  8
RACCORDO
100
AcDbPolyline
 62
7
  6
CONTINUOUS
 90
5
 70
0
 10
-7.921334296
 20
-21.425531329
 10
-7.8978154399
 20
-21.3894837629
 10
-7.8738308834
 20
-21.3530605665
 10
-7.8493806263
 20
-21.3163327868
 10
-7.8244053792
 20
-21.2794036871
  0
LWPOLYLINE
  5
5AF
100
AcDbEntity
  8
ASSI
100
AcDbPolyline
 62
7
  6
CONTINUOUS
 90
5
 70
0
 10
-7.921334296
 20
-21.425531329
 10
-7.8978154399
 20
-21.3894837629
 10
-7.8738308834
 20
-21.3530605665
 10
-7.8493806263
 20
-21.3163327868
 10
-7.8244053792
 20
-21.2794036871
  0
LWPOLYLINE
  5
5B0
100
AcDbEntity
  8
0
100
AcDbPolyline
 62
250
  6
CONTINUOUS
 90
11
 70
0
 10
-10.8636486122
 20
-17.2806861967
 10
-10.8683832398
 20
-17.2858820111
 10
-10.8726036352
 20
-17.2905667714
 10
-10.8763066445
 20
-17.2947369765
 10
-10.8794895003
 20
-17.2983895099
 10
-10.8821498268
 20
-17.3015216452
 10
-10.8842856306
 20
-17.3041310359
 10
-10.88589531
 20
-17.3062157244
 10
-10.8869776669
 20
-17.3077741567
 10
-10.8875319007
 20
-17.3088051772
 10
-10.8875576036
 20
-17.3093080214
  0
LINE
  5
5B1
100
AcDbEntity
  8
0
100
AcDbLine
 62
250
  6
CONTINUOUS
 10
-10.8526512002
 20
-17.2687773215
 11
-10.8636486122
 21
-17.2806861967
  0
LINE
  5
5B2
100
AcDbEntity
  8
0
100
AcDbLine
 62
250
  6
CONTINUOUS
 10
-10.8396442784
 20
-17.2548757501
 11
-10.8526512002
 21
-17.2687773215
  0
LINE
  5
5B3
100
AcDbEntity
  8
0
100
AcDbLine
 62
250
  6
CONTINUOUS
 10
-10.816452736
 20
-17.2303795936
 11
-10.8396442784
 21
-17.2548757501
  0
LINE
  5
5B4
100
AcDbEntity
  8
0
100
AcDbLine
 62
250
  6
CONTINUOUS
 10
-10.7789093321
 20
-17.1911800036
 11
-10.816452736
 21
-17.2303795936
  0
LINE
  5
5B5
100
AcDbEntity
  8
0
100
AcDbLine
 62
250
  6
CONTINUOUS
 10
-10.7219849193
 20
-17.1323468408
 11
-10.7789093321
 21
-17.1911800036
  0
LINE
  5
5B6
100
AcDbEntity
  8
0
100
AcDbLine
 62
250
  6
CONTINUOUS
 10
-10.62558898
 20
-17.0336428975
 11
-10.7219849193
 21
-17.1323468408
  0
LINE
  5
5B7
100
AcDbEntity
  8
0
100
AcDbLine
 62
250
  6
CONTINUOUS
 10
-10.4606838975
 20
-16.8663253816
 11
-10.62558898
 21
-17.0336428975
  0
LWPOLYLINE
  5
5B8
100
AcDbEntity
  8
0
100
AcDbPolyline
 62
250
  6
CONTINUOUS
 90
3
 70
0
 10
-10.1979032288
 20
-16.6022012403
 10
-10.2172231193
 20
-16.621533542
 10
-10.4606838975
 20
-16.8663253816
  0
LINE
  5
5B9
100
AcDbEntity
  8
IMPORT_IGES
100
AcDbLine
 62
7
  6
CONTINUOUS
 10
-5.4220914684
 20
3.4352512472
 11
-4.0464508224
 21
3.6480635958
  0
LINE
  5
5BA
100
AcDbEntity
  8
CURVE
100
AcDbLine
 62
250
  6
CONTINUOUS
 10
7.070385169
 20
4.8335851974
 11
8.9700957898
 21
4.8335851974
  0
LINE
  5
5BB
100
AcDbEntity
  8
CURVE
100
AcDbLine
 62
250
  6
CONTINUOUS
 10
7.6131595997
 20
-0.1664148026
 11
7.070385169
 21
0.3764423645
  0
LINE
  5
5BC
100
AcDbEntity
  8
0
100
AcDbLine
 62
250
  6
CONTINUOUS
 10
-10.1979032288
 20
17.269371635
 11
-10.3131223837
 21
17.3848602773
  0
LINE
  5
5BD
100
AcDbEntity
  8
0
100
AcDbLine
 62
250
  6
CONTINUOUS
 10
-10.3131223837
 20
17.3848602773
 11
-10.4247791777
 21
17.4972479454
  0
LINE
  5
5BE
100
AcDbEntity
  8
0
100
AcDbLine
 62
250
  6
CONTINUOUS
 10
-10.4247791777
 20
17.4972479454
 11
-10.5298753982
 21
17.6035168016
  0
LINE
  5
5BF
100
AcDbEntity
  8
0
100
AcDbLine
 62
250
  6
CONTINUOUS
 10
-10.5298753982
 20
17.6035168016
 11
-10.6255890554
 21
17.7008133692
  0
LINE
  5
5C0
100
AcDbEntity
  8
0
100
AcDbLine
 62
250
  6
CONTINUOUS
 10
-10.6255890554
 20
17.7008133692
 11
-10.696319834
 21
17.7731462858
  0
LINE
  5
5C1
100
AcDbEntity
  8
0
100
AcDbLine
 62
250
  6
CONTINUOUS
 10
-10.696319834
 20
17.7731462858
 11
-10.7574246815
 21
17.836078948
  0
LINE
  5
5C2
100
AcDbEntity
  8
0
100
AcDbLine
 62
250
  6
CONTINUOUS
 10
-10.7574246815
 20
17.836078948
 11
-10.7986050822
 21
17.8788612937
  0
LINE
  5
5C3
100
AcDbEntity
  8
0
100
AcDbLine
 62
250
  6
CONTINUOUS
 10
-10.7986050822
 20
17.8788612937
 11
-10.8246667987
 21
17.9061935073
  0
LINE
  5
5C4
100
AcDbEntity
  8
0
100
AcDbLine
 62
250
  6
CONTINUOUS
 10
-10.8246667987
 20
17.9061935073
 11
-10.8396443412
 21
17.9220462116
  0
LINE
  5
5C5
100
AcDbEntity
  8
0
100
AcDbLine
 62
250
  6
CONTINUOUS
 10
-10.8396443412
 20
17.9220462116
 11
-10.8526512564
 21
17.9359477767
  0
LWPOLYLINE
  5
5C6
100
AcDbEntity
  8
0
100
AcDbPolyline
 62
250
  6
CONTINUOUS
 90
12
 70
0
 10
-10.8526512564
 20
17.9359477767
 10
-10.8636486579
 20
17.9478566413
 10
-10.8683832807
 20
17.953052451
 10
-10.8726036729
 20
17.9577372082
 10
-10.876306679
 20
17.9619074104
 10
-10.8794895302
 20
17.9655599393
 10
-10.8821498511
 20
17.968692069
 10
-10.8842856488
 20
17.9713014534
 10
-10.8858953215
 20
17.9733861346
 10
-10.8869776721
 20
17.9749445597
 10
-10.8875319018
 20
17.9759755747
 10
-10.8875576036
 20
17.9764784162
  0
LWPOLYLINE
  5
5C7
100
AcDbEntity
  8
RACCORDO
100
AcDbPolyline
 62
7
  6
CONTINUOUS
 90
5
 70
0
 10
8.2240668099
 20
-23.9637310901
 10
8.2220937035
 20
-23.9519971688
 10
8.2206811434
 20
-23.9401826582
 10
8.2198323279
 20
-23.9283143186
 10
8.2195491776
 20
-23.9164190334
  0
LWPOLYLINE
  5
5C8
100
AcDbEntity
  8
0
100
AcDbPolyline
 62
250
  6
CONTINUOUS
 90
11
 70
0
 10
5.6541376722
 20
21.4042136289
 10
5.6539489431
 20
21.4098975736
 10
5.6537468241
 20
21.415002519
 10
5.6535315613
 20
21.419522248
 10
5.653303417
 20
21.4234512561
 10
5.6530626689
 20
21.4267847583
 10
5.6528096102
 20
21.4295186948
 10
5.6525445493
 20
21.4316497359
 10
5.6522678088
 20
21.4331752865
 10
5.6519797258
 20
21.4340934884
 10
5.6516806512
 20
21.4344032236
  0
LWPOLYLINE
  5
5C9
100
AcDbEntity
  8
ASSI
100
AcDbPolyline
 62
250
  6
CONTINUOUS
 90
11
 70
0
 10
5.6541376722
 20
21.4042136289
 10
5.6539489431
 20
21.4098975736
 10
5.6537468241
 20
21.415002519
 10
5.6535315613
 20
21.419522248
 10
5.653303417
 20
21.4234512561
 10
5.6530626689
 20
21.4267847583
 10
5.6528096102
 20
21.4295186948
 10
5.6525445493
 20
21.4316497359
 10
5.6522678088
 20
21.4331752865
 10
5.6519797258
 20
21.4340934884
 10
5.6516806512
 20
21.4344032236
  0
LINE
  5
5CA
100
AcDbEntity
  8
0
100
AcDbLine
 62
250
  6
CONTINUOUS
 10
5.6544740579
 20
21.3911371278
 11
5.6541376722
 21
21.4042136289
  0
LINE
  5
5CB
100
AcDbEntity
  8
ASSI
100
AcDbLine
 62
250
  6
CONTINUOUS
 10
5.6544740579
 20
21.3911371278
 11
5.6541376722
 21
21.4042136289
  0
LINE
  5
5CC
100
AcDbEntity
  8
0
100
AcDbLine
 62
250
  6
CONTINUOUS
 10
5.654754343
 20
21.3758366983
 11
5.6544740579
 21
21.3911371278
  0
LINE
  5
5CD
100
AcDbEntity
  8
ASSI
100
AcDbLine
 62
250
  6
CONTINUOUS
 10
5.654754343
 20
21.3758366983
 11
5.6544740579
 21
21.3911371278
  0
LINE
  5
5CE
100
AcDbEntity
  8
0
100
AcDbLine
 62
250
  6
CONTINUOUS
 10
5.6549771624
 20
21.3583868539
 11
5.654754343
 21
21.3758366983
  0
LINE
  5
5CF
100
AcDbEntity
  8
ASSI
100
AcDbLine
 62
250
  6
CONTINUOUS
 10
5.6549771624
 20
21.3583868539
 11
5.654754343
 21
21.3758366983
  0
LINE
  5
5D0
100
AcDbEntity
  8
0
100
AcDbLine
 62
250
  6
CONTINUOUS
 10
5.6552013477
 20
21.3283705912
 11
5.6549771624
 21
21.3583868539
  0
LINE
  5
5D1
100
AcDbEntity
  8
ASSI
100
AcDbLine
 62
250
  6
CONTINUOUS
 10
5.6552013477
 20
21.3283705912
 11
5.6549771624
 21
21.3583868539
  0
LINE
  5
5D2
100
AcDbEntity
  8
IMPORT_IGES
100
AcDbLine
 62
7
  6
CONTINUOUS
 10
5.6635491776
 20
-2.2664148026
 11
5.6635491776
 21
12.7335851974
  0
LINE
  5
5D3
100
AcDbEntity
  8
0
100
AcDbLine
 62
7
  6
CONTINUOUS
 10
5.9695491776
 20
13.0835851974
 11
5.9695491776
 21
-3.1664148026
  0
LINE
  5
5D4
100
AcDbEntity
  8
ASSI
100
AcDbLine
 62
7
  6
CONTINUOUS
 10
5.9695491776
 20
13.0835851974
 11
5.9695491776
 21
-3.1664148026
  0
LINE
  5
5D5
100
AcDbEntity
  8
CURVE
100
AcDbLine
 62
250
  6
CONTINUOUS
 10
6.4704765519
 20
-14.6664148026
 11
6.4704765519
 21
-14.0235576534
  0
LINE
  5
5D6
100
AcDbEntity
  8
CURVE
100
AcDbLine
 62
250
  6
CONTINUOUS
 10
6.4704765519
 20
-13.2735576981
 11
6.4704765519
 21
-13.1664148026
  0
LINE
  5
5D7
100
AcDbEntity
  8
CURVE
100
AcDbLine
 62
250
  6
CONTINUOUS
 10
6.4704765519
 20
-9.7735577279
 11
6.4704765519
 21
-9.6664149218
  0
LINE
  5
5D8
100
AcDbEntity
  8
CURVE
100
AcDbLine
 62
250
  6
CONTINUOUS
 10
6.8989826814
 20
-7.73784334
 11
6.8989826814
 21
-7.0949865037
  0
LINE
  5
5D9
100
AcDbEntity
  8
CURVE
100
AcDbLine
 62
250
  6
CONTINUOUS
 10
7.1132357462
 20
-10.73784334
 11
7.1132357462
 21
-11.2021290713
  0
LINE
  5
5DA
100
AcDbEntity
  8
CURVE
100
AcDbLine
 62
250
  6
CONTINUOUS
 10
7.1132357462
 20
-14.2378433549
 11
7.1132357462
 21
-14.6664148026
  0
LINE
  5
5DB
100
AcDbEntity
  8
CURVE
100
AcDbLine
 62
250
  6
CONTINUOUS
 10
7.1132357462
 20
-8.9164149218
 11
7.1132357462
 21
-8.1664145642
  0
LINE
  5
5DC
100
AcDbEntity
  8
RACCORDO
100
AcDbLine
 62
7
  6
CONTINUOUS
 10
7.2113708795
 20
21.2335851974
 11
7.2113708795
 21
20.6654725193
  0
LINE
  5
5DD
100
AcDbEntity
  8
ASSI
100
AcDbLine
 62
7
  6
CONTINUOUS
 10
7.2113708795
 20
21.2335851974
 11
7.2113708795
 21
20.6654725193
  0
LINE
  5
5DE
100
AcDbEntity
  8
RACCORDO
100
AcDbLine
 62
7
  6
CONTINUOUS
 10
7.2113708795
 20
-19.9983021246
 11
7.2113708795
 21
-20.5664148026
  0
LINE
  5
5DF
100
AcDbEntity
  8
ASSI
100
AcDbLine
 62
7
  6
CONTINUOUS
 10
7.2113708795
 20
-19.9983021246
 11
7.2113708795
 21
-20.5664148026
  0
LINE
  5
5E0
100
AcDbEntity
  8
DRAFT
100
AcDbLine
 62
7
  6
CONTINUOUS
 10
7.3213278629
 20
20.7671559617
 11
7.3213278629
 21
20.55357948
  0
LINE
  5
5E1
100
AcDbEntity
  8
ASSI
100
AcDbLine
 62
7
  6
CONTINUOUS
 10
7.3213278629
 20
20.7671559617
 11
7.3213278629
 21
20.55357948
  0
LINE
  5
5E2
100
AcDbEntity
  8
DRAFT
100
AcDbLine
 62
7
  6
CONTINUOUS
 10
7.3213278629
 20
-20.099985567
 11
7.3213278629
 21
-19.8864090853
  0
LINE
  5
5E3
100
AcDbEntity
  8
ASSI
100
AcDbLine
 62
7
  6
CONTINUOUS
 10
7.3213278629
 20
-20.099985567
 11
7.3213278629
 21
-19.8864090853
  0
LWPOLYLINE
  5
5E4
100
AcDbEntity
  8
0
100
AcDbPolyline
 62
250
  6
CONTINUOUS
 90
3
 70
0
 10
5.6552763805
 20
21.268940928
 10
5.6552914054
 20
21.2817021236
 10
5.6552013477
 20
21.3283705912
  0
LWPOLYLINE
  5
5E5
100
AcDbEntity
  8
ASSI
100
AcDbPolyline
 62
250
  6
CONTINUOUS
 90
3
 70
0
 10
5.6552763805
 20
21.268940928
 10
5.6552914054
 20
21.2817021236
 10
5.6552013477
 20
21.3283705912
  0
LINE
  5
5E6
100
AcDbEntity
  8
0
100
AcDbLine
 62
250
  6
CONTINUOUS
 10
5.6552763805
 20
-20.6017705299
 11
5.6552463491
 21
-20.6502184999
  0
LINE
  5
5E7
100
AcDbEntity
  8
ASSI
100
AcDbLine
 62
250
  6
CONTINUOUS
 10
5.6552763805
 20
-20.6017705299
 11
5.6552463491
 21
-20.6502184999
  0
LINE
  5
5E8
100
AcDbEntity
  8
0
100
AcDbLine
 62
250
  6
CONTINUOUS
 10
5.6552463491
 20
-20.6502184999
 11
5.6550666724
 21
-20.6817116627
  0
LINE
  5
5E9
100
AcDbEntity
  8
ASSI
100
AcDbLine
 62
250
  6
CONTINUOUS
 10
5.6552463491
 20
-20.6502184999
 11
5.6550666724
 21
-20.6817116627
  0
LINE
  5
5EA
100
AcDbEntity
  8
0
100
AcDbLine
 62
250
  6
CONTINUOUS
 10
5.6550666724
 20
-20.6817116627
 11
5.6548730104
 21
-20.7002049859
  0
LINE
  5
5EB
100
AcDbEntity
  8
ASSI
100
AcDbLine
 62
250
  6
CONTINUOUS
 10
5.6550666724
 20
-20.6817116627
 11
5.6548730104
 21
-20.7002049859
  0
LINE
  5
5EC
100
AcDbEntity
  8
0
100
AcDbLine
 62
250
  6
CONTINUOUS
 10
5.6548730104
 20
-20.7002049859
 11
5.6546213049
 21
-20.7165901007
  0
LINE
  5
5ED
100
AcDbEntity
  8
ASSI
100
AcDbLine
 62
250
  6
CONTINUOUS
 10
5.6548730104
 20
-20.7002049859
 11
5.6546213049
 21
-20.7165901007
  0
LWPOLYLINE
  5
5EE
100
AcDbEntity
  8
0
100
AcDbPolyline
 62
250
  6
CONTINUOUS
 90
13
 70
0
 10
5.6546213049
 20
-20.7165901007
 10
5.6543127816
 20
-20.7307872115
 10
5.6541376723
 20
-20.7370432333
 10
5.6539489431
 20
-20.7427271781
 10
5.6537468241
 20
-20.7478321237
 10
5.6535315614
 20
-20.7523518528
 10
5.653303417
 20
-20.7562808611
 10
5.6530626689
 20
-20.7596143633
 10
5.6528096103
 20
-20.7623482999
 10
5.6525445493
 20
-20.7644793411
 10
5.6522678088
 20
-20.7660048917
 10
5.6519797258
 20
-20.7669230937
 10
5.6516806512
 20
-20.7672328288
  0
LWPOLYLINE
  5
5EF
100
AcDbEntity
  8
ASSI
100
AcDbPolyline
 62
250
  6
CONTINUOUS
 90
13
 70
0
 10
5.6546213049
 20
-20.7165901007
 10
5.6543127816
 20
-20.7307872115
 10
5.6541376723
 20
-20.7370432333
 10
5.6539489431
 20
-20.7427271781
 10
5.6537468241
 20
-20.7478321237
 10
5.6535315614
 20
-20.7523518528
 10
5.653303417
 20
-20.7562808611
 10
5.6530626689
 20
-20.7596143633
 10
5.6528096103
 20
-20.7623482999
 10
5.6525445493
 20
-20.7644793411
 10
5.6522678088
 20
-20.7660048917
 10
5.6519797258
 20
-20.7669230937
 10
5.6516806512
 20
-20.7672328288
  0
LWPOLYLINE
  5
5F0
100
AcDbEntity
  8
ASSI
100
AcDbPolyline
 62
7
  6
CONTINUOUS
 90
10
 70
0
 10
3.4695491776
 20
-23.417557093
 10
3.4698807223
 20
-23.4148453814
 10
3.4708888085
 20
-23.4114638022
 10
3.4725929269
 20
-23.4074123555
 10
3.4750132638
 20
-23.4027041341
 10
3.4781663439
 20
-23.3973260452
 10
3.4820606008
 20
-23.3912388099
 10
3.4867062398
 20
-23.3844345642
 10
3.4921131797
 20
-23.3769211722
 10
3.4982803862
 20
-23.368682946
  0
LWPOLYLINE
  5
5F1
100
AcDbEntity
  8
RACCORDO
100
AcDbPolyline
 62
7
  6
CONTINUOUS
 90
3
 70
0
 10
-7.8244053792
 20
-21.2794036871
 10
-7.7732356525
 20
-21.2050050473
 10
-7.7472273208
 20
-21.1675530671
  0
LWPOLYLINE
  5
5F2
100
AcDbEntity
  8
ASSI
100
AcDbPolyline
 62
7
  6
CONTINUOUS
 90
3
 70
0
 10
-7.8244053792
 20
-21.2794036871
 10
-7.7732356525
 20
-21.2050050473
 10
-7.7472273208
 20
-21.1675530671
  0
LINE
  5
5F3
100
AcDbEntity
  8
RACCORDO
100
AcDbLine
 62
7
  6
CONTINUOUS
 10
-7.7472273208
 20
-21.1675530671
 11
-7.6679854432
 21
-21.0545986898
  0
LINE
  5
5F4
100
AcDbEntity
  8
ASSI
100
AcDbLine
 62
7
  6
CONTINUOUS
 10
-7.7472273208
 20
-21.1675530671
 11
-7.6679854432
 21
-21.0545986898
  0
LINE
  5
5F5
100
AcDbEntity
  8
RACCORDO
100
AcDbLine
 62
7
  6
CONTINUOUS
 10
-7.6679854432
 20
-21.0545986898
 11
-7.6145515415
 21
-20.9791080463
  0
LINE
  5
5F6
100
AcDbEntity
  8
ASSI
100
AcDbLine
 62
7
  6
CONTINUOUS
 10
-7.6679854432
 20
-21.0545986898
 11
-7.6145515415
 21
-20.9791080463
  0
LWPOLYLINE
  5
5F7
100
AcDbEntity
  8
0
100
AcDbPolyline
 62
250
  6
CONTINUOUS
 90
11
 70
0
 10
-9.2485648399
 20
-18.8957698521
 10
-9.2532994724
 20
-18.9009656714
 10
-9.2575198748
 20
-18.9056504387
 10
-9.2612228915
 20
-18.9098206514
 10
-9.2644057538
 20
-18.9134731914
 10
-9.2670660846
 20
-18.9166053309
 10
-9.269201893
 20
-18.9192147258
 10
-9.2708115792
 20
-18.9212994214
 10
-9.2718939436
 20
-18.9228578623
 10
-9.2724481829
 20
-18.92388889
 10
-9.2724738871
 20
-18.9243917379
  0
LINE
  5
5F8
100
AcDbEntity
  8
0
100
AcDbLine
 62
250
  6
CONTINUOUS
 10
-9.2375674209
 20
-18.8838609703
 11
-9.2485648399
 21
-18.8957698521
  0
LINE
  5
5F9
100
AcDbEntity
  8
0
100
AcDbLine
 62
250
  6
CONTINUOUS
 10
-9.2245604917
 20
-18.8699593919
 11
-9.2375674209
 21
-18.8838609703
  0
LINE
  5
5FA
100
AcDbEntity
  8
0
100
AcDbLine
 62
250
  6
CONTINUOUS
 10
-9.2013689407
 20
-18.8454632272
 11
-9.2245604917
 21
-18.8699593919
  0
LINE
  5
5FB
100
AcDbEntity
  8
0
100
AcDbLine
 62
250
  6
CONTINUOUS
 10
-9.1638255278
 20
-18.8062636288
 11
-9.2013689407
 21
-18.8454632272
  0
LINE
  5
5FC
100
AcDbEntity
  8
0
100
AcDbLine
 62
250
  6
CONTINUOUS
 10
-9.1069011041
 20
-18.7474304556
 11
-9.1638255278
 21
-18.8062636288
  0
LINE
  5
5FD
100
AcDbEntity
  8
0
100
AcDbLine
 62
250
  6
CONTINUOUS
 10
-9.0105051527
 20
-18.6487265009
 11
-9.1069011041
 21
-18.7474304556
  0
LINE
  5
5FE
100
AcDbEntity
  8
0
100
AcDbLine
 62
250
  6
CONTINUOUS
 10
-8.8456000643
 20
-18.4814089801
 11
-9.0105051527
 21
-18.6487265009
  0
LWPOLYLINE
  5
5FF
100
AcDbEntity
  8
0
100
AcDbPolyline
 62
250
  6
CONTINUOUS
 90
3
 70
0
 10
-8.5828195124
 20
-18.2172849567
 10
-8.602139385
 20
-18.2366172405
 10
-8.8456000643
 20
-18.4814089801
  0
LINE
  5
600
100
AcDbEntity
  8
CURVE
100
AcDbLine
 62
250
  6
CONTINUOUS
 10
2.0782884561
 20
-8.0133304506
 11
1.8640353466
 21
-8.2276161521
  0
LINE
  5
601
100
AcDbEntity
  8
IMPORT_IGES
100
AcDbLine
 62
7
  6
CONTINUOUS
 10
3.6635491776
 20
6.8846161526
 11
0.8635491776
 21
6.6835851974
  0
LINE
  5
602
100
AcDbEntity
  8
IMPORT_IGES
100
AcDbLine
 62
7
  6
CONTINUOUS
 10
-4.0364508224
 20
6.5335851974
 11
0.8635491776
 21
6.5335851974
  0
LINE
  5
603
100
AcDbEntity
  8
IMPORT_IGES
100
AcDbLine
 62
7
  6
CONTINUOUS
 10
-4.0464508224
 20
6.6835851974
 11
0.8635491776
 21
6.6835851974
  0
LINE
  5
604
100
AcDbEntity
  8
IMPORT_IGES
100
AcDbLine
 62
7
  6
CONTINUOUS
 10
-5.4220914684
 20
7.0319191475
 11
3.6635491776
 21
7.0319191475
  0
LINE
  5
605
100
AcDbEntity
  8
IMPORT_IGES
100
AcDbLine
 62
7
  6
CONTINUOUS
 10
-4.0464508224
 20
6.819106799
 11
-5.4220914684
 21
7.0319191475
  0
LWPOLYLINE
  5
606
100
AcDbEntity
  8
IMPORT_IGES
100
AcDbPolyline
 62
7
  6
CONTINUOUS
 90
10
 70
0
 10
-3.2536543084
 20
12.9921634796
 10
-3.2409625594
 20
12.9805182387
 10
-3.2271914778
 20
12.9699228366
 10
-3.2124692424
 20
12.960520756
 10
-3.1970379452
 20
12.9524544411
 10
-3.1810071423
 20
12.9457812612
 10
-3.164340576
 20
12.9404971632
 10
-3.1471535991
 20
12.936657246
 10
-3.129720501
 20
12.9343515099
 10
-3.1122405618
 20
12.9335879878
  0
LINE
  5
607
100
AcDbEntity
  8
IMPORT_IGES
100
AcDbLine
 62
7
  6
CONTINUOUS
 10
-3.8436099128
 20
12.7335870003
 11
-4.233698078
 21
13.1236751656
  0
LINE
  5
608
100
AcDbEntity
  8
IMPORT_IGES
100
AcDbLine
 62
7
  6
CONTINUOUS
 10
-3.3997269617
 20
13.1382321856
 11
-3.2536586167
 21
12.9921638407
  0
LINE
  5
609
100
AcDbEntity
  8
0
100
AcDbLine
 62
250
  6
CONTINUOUS
 10
-8.5828195124
 20
18.8844553514
 11
-8.69803857
 21
18.9999438961
  0
LINE
  5
60A
100
AcDbEntity
  8
0
100
AcDbLine
 62
250
  6
CONTINUOUS
 10
-8.69803857
 20
18.9999438961
 11
-8.8096953092
 21
19.1123315084
  0
LINE
  5
60B
100
AcDbEntity
  8
0
100
AcDbLine
 62
250
  6
CONTINUOUS
 10
-8.8096953092
 20
19.1123315084
 11
-8.9147914854
 21
19.218600319
  0
LINE
  5
60C
100
AcDbEntity
  8
0
100
AcDbLine
 62
250
  6
CONTINUOUS
 10
-8.9147914854
 20
19.218600319
 11
-9.0105051127
 21
19.3158968549
  0
LINE
  5
60D
100
AcDbEntity
  8
0
100
AcDbLine
 62
250
  6
CONTINUOUS
 10
-9.0105051127
 20
19.3158968549
 11
-9.081235883
 21
19.3882297617
  0
LINE
  5
60E
100
AcDbEntity
  8
0
100
AcDbLine
 62
250
  6
CONTINUOUS
 10
-9.081235883
 20
19.3882297617
 11
-9.1423407401
 21
19.4511624317
  0
LINE
  5
60F
100
AcDbEntity
  8
0
100
AcDbLine
 62
250
  6
CONTINUOUS
 10
-9.1423407401
 20
19.4511624317
 11
-9.1835211598
 21
19.493944795
  0
LINE
  5
610
100
AcDbEntity
  8
0
100
AcDbLine
 62
250
  6
CONTINUOUS
 10
-9.1835211598
 20
19.493944795
 11
-9.2095828972
 21
19.5212770287
  0
LINE
  5
611
100
AcDbEntity
  8
0
100
AcDbLine
 62
250
  6
CONTINUOUS
 10
-9.2095828972
 20
19.5212770287
 11
-9.2245604558
 21
19.5371297484
  0
LINE
  5
612
100
AcDbEntity
  8
0
100
AcDbLine
 62
250
  6
CONTINUOUS
 10
-9.2245604558
 20
19.5371297484
 11
-9.2375673891
 21
19.5510313309
  0
LWPOLYLINE
  5
613
100
AcDbEntity
  8
0
100
AcDbPolyline
 62
250
  6
CONTINUOUS
 90
12
 70
0
 10
-9.2375673891
 20
19.5510313309
 10
-9.2485648136
 20
19.5629402182
 10
-9.2532994487
 20
19.56813604
 10
-9.2575198528
 20
19.5728208089
 10
-9.2612228713
 20
19.5769910231
 10
-9.2644057362
 20
19.5806435656
 10
-9.2670660701
 20
19.5837757081
 10
-9.2692018818
 20
19.5863851065
 10
-9.270811572
 20
19.5884698064
 10
-9.2718939403
 20
19.5900282518
 10
-9.2724481822
 20
19.5910592829
 10
-9.2724738871
 20
19.5915621326
  0
LINE
  5
614
100
AcDbEntity
  8
RACCORDO
100
AcDbLine
 62
7
  6
CONTINUOUS
 10
-7.6145515415
 20
21.6462784411
 11
-7.6679854432
 21
21.7217690846
  0
LINE
  5
615
100
AcDbEntity
  8
ASSI
100
AcDbLine
 62
7
  6
CONTINUOUS
 10
-7.6145515415
 20
21.6462784411
 11
-7.6679854432
 21
21.7217690846
  0
LINE
  5
616
100
AcDbEntity
  8
RACCORDO
100
AcDbLine
 62
7
  6
CONTINUOUS
 10
-7.6679854432
 20
21.7217690846
 11
-7.7472273208
 21
21.8347234618
  0
LINE
  5
617
100
AcDbEntity
  8
ASSI
100
AcDbLine
 62
7
  6
CONTINUOUS
 10
-7.6679854432
 20
21.7217690846
 11
-7.7472273208
 21
21.8347234618
  0
LWPOLYLINE
  5
618
100
AcDbEntity
  8
RACCORDO
100
AcDbPolyline
 62
7
  6
CONTINUOUS
 90
7
 70
0
 10
-7.7472273208
 20
21.8347234618
 10
-7.7989644316
 20
21.9094778141
 10
-7.8244053792
 20
21.9465740818
 10
-7.8493806263
 20
21.9835031816
 10
-7.8738308834
 20
22.0202309612
 10
-7.8978154399
 20
22.0566541577
 10
-7.921334296
 20
22.0927017237
  0
LWPOLYLINE
  5
619
100
AcDbEntity
  8
ASSI
100
AcDbPolyline
 62
7
  6
CONTINUOUS
 90
7
 70
0
 10
-7.7472273208
 20
21.8347234618
 10
-7.7989644316
 20
21.9094778141
 10
-7.8244053792
 20
21.9465740818
 10
-7.8493806263
 20
21.9835031816
 10
-7.8738308834
 20
22.0202309612
 10
-7.8978154399
 20
22.0566541577
 10
-7.921334296
 20
22.0927017237
  0
LWPOLYLINE
  5
61A
100
AcDbEntity
  8
RACCORDO
100
AcDbPolyline
 62
250
  6
CONTINUOUS
 90
31
 70
0
 10
8.2239210116
 20
24.1779227647
 10
8.2243003434
 20
24.1666126141
 10
8.2253613253
 20
24.1553333493
 10
8.2271010602
 20
24.1441157714
 10
8.2295147971
 20
24.1329905133
 10
8.2325959447
 20
24.1219879558
 10
8.236336089
 20
24.1111381445
 10
8.2407250164
 20
24.1004707081
 10
8.2457507416
 20
24.090014777
 10
8.2513995406
 20
24.0797989042
 10
8.2576559876
 20
24.0698509872
 10
8.2645029975
 20
24.0601981915
 10
8.2719218726
 20
24.050866877
 10
8.2798923536
 20
24.0418825256
 10
8.2883926746
 20
24.0332696715
 10
8.2973996231
 20
24.0250518348
 10
8.306888603
 20
24.0172514566
 10
8.3168337019
 20
24.009889838
 10
8.3272077618
 20
24.0029870822
 10
8.3379824533
 20
23.9965620392
 10
8.3491283531
 20
23.9906322543
 10
8.3606150238
 20
23.9852139206
 10
8.372411098
 20
23.9803218344
 10
8.3844843629
 20
23.975969355
 10
8.3968018491
 20
23.972168368
 10
8.40932992
 20
23.9689292533
 10
8.422034364
 20
23.966260856
 10
8.4348804881
 20
23.9641704632
 10
8.4478332122
 20
23.9626637831
 10
8.460857165
 20
23.9617449302
 10
8.4739167808
 20
23.9614164137
  0
LWPOLYLINE
  5
61B
100
AcDbEntity
  8
ASSI
100
AcDbPolyline
 62
250
  6
CONTINUOUS
 90
31
 70
0
 10
8.2239210116
 20
24.1779227647
 10
8.2243003434
 20
24.1666126141
 10
8.2253613253
 20
24.1553333493
 10
8.2271010602
 20
24.1441157714
 10
8.2295147971
 20
24.1329905133
 10
8.2325959447
 20
24.1219879558
 10
8.236336089
 20
24.1111381445
 10
8.2407250164
 20
24.1004707081
 10
8.2457507416
 20
24.090014777
 10
8.2513995406
 20
24.0797989042
 10
8.2576559876
 20
24.0698509872
 10
8.2645029975
 20
24.0601981915
 10
8.2719218726
 20
24.050866877
 10
8.2798923536
 20
24.0418825256
 10
8.2883926746
 20
24.0332696715
 10
8.2973996231
 20
24.0250518348
 10
8.306888603
 20
24.0172514566
 10
8.3168337019
 20
24.009889838
 10
8.3272077618
 20
24.0029870822
 10
8.3379824533
 20
23.9965620392
 10
8.3491283531
 20
23.9906322543
 10
8.3606150238
 20
23.9852139206
 10
8.372411098
 20
23.9803218344
 10
8.3844843629
 20
23.975969355
 10
8.3968018491
 20
23.972168368
 10
8.40932992
 20
23.9689292533
 10
8.422034364
 20
23.966260856
 10
8.4348804881
 20
23.9641704632
 10
8.4478332122
 20
23.9626637831
 10
8.460857165
 20
23.9617449302
 10
8.4739167808
 20
23.9614164137
  0
LINE
  5
61C
100
AcDbEntity
  8
0
100
AcDbLine
 62
250
  6
CONTINUOUS
 10
8.5271997904
 20
19.8107221819
 11
8.5266366053
 21
19.8300507718
  0
LINE
  5
61D
100
AcDbEntity
  8
ASSI
100
AcDbLine
 62
250
  6
CONTINUOUS
 10
8.5271997904
 20
19.8107221819
 11
8.5266366053
 21
19.8300507718
  0
LINE
  5
61E
100
AcDbEntity
  8
0
100
AcDbLine
 62
250
  6
CONTINUOUS
 10
8.5276939587
 20
19.7885816358
 11
8.5271997904
 21
19.8107221819
  0
LINE
  5
61F
100
AcDbEntity
  8
ASSI
100
AcDbLine
 62
250
  6
CONTINUOUS
 10
8.5276939587
 20
19.7885816358
 11
8.5271997904
 21
19.8107221819
  0
LINE
  5
620
100
AcDbEntity
  8
0
100
AcDbLine
 62
250
  6
CONTINUOUS
 10
8.5281176101
 20
19.7636963478
 11
8.5276939587
 21
19.7885816358
  0
LINE
  5
621
100
AcDbEntity
  8
ASSI
100
AcDbLine
 62
250
  6
CONTINUOUS
 10
8.5281176101
 20
19.7636963478
 11
8.5276939587
 21
19.7885816358
  0
LINE
  5
622
100
AcDbEntity
  8
0
100
AcDbLine
 62
250
  6
CONTINUOUS
 10
8.5219178676
 20
-18.2172849567
 11
8.5241484787
 21
-18.3545912167
  0
LINE
  5
623
100
AcDbEntity
  8
ASSI
100
AcDbLine
 62
250
  6
CONTINUOUS
 10
8.5219178676
 20
-18.2172849567
 11
8.5241484787
 21
-18.3545912167
  0
LINE
  5
624
100
AcDbEntity
  8
0
100
AcDbLine
 62
250
  6
CONTINUOUS
 10
8.5241484787
 20
-18.3545912167
 11
8.5260061265
 21
-18.4892957707
  0
LINE
  5
625
100
AcDbEntity
  8
ASSI
100
AcDbLine
 62
250
  6
CONTINUOUS
 10
8.5241484787
 20
-18.3545912167
 11
8.5260061265
 21
-18.4892957707
  0
LINE
  5
626
100
AcDbEntity
  8
RACCORDO
100
AcDbLine
 62
250
  6
CONTINUOUS
 10
8.2239210116
 20
-23.5107523699
 11
8.2195491776
 21
-23.0768999508
  0
LINE
  5
627
100
AcDbEntity
  8
ASSI
100
AcDbLine
 62
250
  6
CONTINUOUS
 10
8.2239210116
 20
-23.5107523699
 11
8.2195491776
 21
-23.0768999508
  0
LINE
  5
628
100
AcDbEntity
  8
RACCORDO
100
AcDbLine
 62
250
  6
CONTINUOUS
 10
8.4739167808
 20
-23.294246019
 11
8.4688261798
 21
-22.7890645334
  0
LINE
  5
629
100
AcDbEntity
  8
ASSI
100
AcDbLine
 62
250
  6
CONTINUOUS
 10
8.4739167808
 20
-23.294246019
 11
8.4688261798
 21
-22.7890645334
  0
LINE
  5
62A
100
AcDbEntity
  8
0
100
AcDbLine
 62
250
  6
CONTINUOUS
 10
8.5260061265
 20
-18.4892957707
 11
8.5274556104
 21
-18.6188461265
  0
LINE
  5
62B
100
AcDbEntity
  8
ASSI
100
AcDbLine
 62
250
  6
CONTINUOUS
 10
8.5260061265
 20
-18.4892957707
 11
8.5274556104
 21
-18.6188461265
  0
LINE
  5
62C
100
AcDbEntity
  8
0
100
AcDbLine
 62
250
  6
CONTINUOUS
 10
8.528618114
 20
19.7213895062
 11
8.5281176101
 21
19.7636963478
  0
LINE
  5
62D
100
AcDbEntity
  8
ASSI
100
AcDbLine
 62
250
  6
CONTINUOUS
 10
8.528618114
 20
19.7213895062
 11
8.5281176101
 21
19.7636963478
  0
LINE
  5
62E
100
AcDbEntity
  8
0
100
AcDbLine
 62
250
  6
CONTINUOUS
 10
8.5274556104
 20
-18.6188461265
 11
8.5284694649
 21
-18.7407874917
  0
LINE
  5
62F
100
AcDbEntity
  8
ASSI
100
AcDbLine
 62
250
  6
CONTINUOUS
 10
8.5274556104
 20
-18.6188461265
 11
8.5284694649
 21
-18.7407874917
  0
LINE
  5
630
100
AcDbEntity
  8
0
100
AcDbLine
 62
250
  6
CONTINUOUS
 10
8.5290284762
 20
19.656146133
 11
8.528618114
 21
19.7213895062
  0
LINE
  5
631
100
AcDbEntity
  8
ASSI
100
AcDbLine
 62
250
  6
CONTINUOUS
 10
8.5290284762
 20
19.656146133
 11
8.528618114
 21
19.7213895062
  0
LINE
  5
632
100
AcDbEntity
  8
0
100
AcDbLine
 62
250
  6
CONTINUOUS
 10
8.5284694649
 20
-18.7407874917
 11
8.5290284789
 21
-18.8528092549
  0
LINE
  5
633
100
AcDbEntity
  8
ASSI
100
AcDbLine
 62
250
  6
CONTINUOUS
 10
8.5284694649
 20
-18.7407874917
 11
8.5290284789
 21
-18.8528092549
  0
LINE
  5
634
100
AcDbEntity
  8
RACCORDO
100
AcDbLine
 62
250
  6
CONTINUOUS
 10
7.5536498968
 20
-20.9791080463
 11
7.5536498968
 21
-20.5664148026
  0
LINE
  5
635
100
AcDbEntity
  8
ASSI
100
AcDbLine
 62
250
  6
CONTINUOUS
 10
7.5536498968
 20
-20.9791080463
 11
7.5536498968
 21
-20.5664148026
  0
LINE
  5
636
100
AcDbEntity
  8
RACCORDO
100
AcDbLine
 62
250
  6
CONTINUOUS
 10
7.5536498968
 20
21.2335851974
 11
7.5536498968
 21
21.6462784411
  0
LINE
  5
637
100
AcDbEntity
  8
ASSI
100
AcDbLine
 62
250
  6
CONTINUOUS
 10
7.5536498968
 20
21.2335851974
 11
7.5536498968
 21
21.6462784411
  0
LINE
  5
638
100
AcDbEntity
  8
CURVE
100
AcDbLine
 62
250
  6
CONTINUOUS
 10
7.9702480947
 20
-9.6664149218
 11
7.9702480947
 21
-9.7735577279
  0
LINE
  5
639
100
AcDbEntity
  8
CURVE
100
AcDbLine
 62
250
  6
CONTINUOUS
 10
7.9702480947
 20
-13.1664148026
 11
7.9702480947
 21
-13.2735576981
  0
LINE
  5
63A
100
AcDbEntity
  8
CURVE
100
AcDbLine
 62
250
  6
CONTINUOUS
 10
7.9702480947
 20
-14.6664148026
 11
7.9702480947
 21
-14.2378433549
  0
LINE
  5
63B
100
AcDbEntity
  8
CURVE
100
AcDbLine
 62
250
  6
CONTINUOUS
 10
7.9702480947
 20
-11.0592721158
 11
7.9702480947
 21
-10.73784334
  0
LINE
  5
63C
100
AcDbEntity
  8
CURVE
100
AcDbLine
 62
250
  6
CONTINUOUS
 10
7.9702480947
 20
-7.73784334
 11
7.9702480947
 21
-7.0949865037
  0
LINE
  5
63D
100
AcDbEntity
  8
RACCORDO
100
AcDbLine
 62
250
  6
CONTINUOUS
 10
8.0535737444
 20
-21.2323902359
 11
8.0535737444
 21
-20.5664148026
  0
LINE
  5
63E
100
AcDbEntity
  8
ASSI
100
AcDbLine
 62
250
  6
CONTINUOUS
 10
8.0535737444
 20
-21.2323902359
 11
8.0535737444
 21
-20.5664148026
  0
LINE
  5
63F
100
AcDbEntity
  8
RACCORDO
100
AcDbLine
 62
250
  6
CONTINUOUS
 10
8.0535737444
 20
21.2335851974
 11
8.0535737444
 21
21.8995606306
  0
LINE
  5
640
100
AcDbEntity
  8
ASSI
100
AcDbLine
 62
250
  6
CONTINUOUS
 10
8.0535737444
 20
21.2335851974
 11
8.0535737444
 21
21.8995606306
  0
LINE
  5
641
100
AcDbEntity
  8
DRAFT
100
AcDbLine
 62
7
  6
CONTINUOUS
 10
8.2195491776
 20
21.7335851974
 11
8.2195491776
 21
21.2335851974
  0
LINE
  5
642
100
AcDbEntity
  8
ASSI
100
AcDbLine
 62
7
  6
CONTINUOUS
 10
8.2195491776
 20
21.7335851974
 11
8.2195491776
 21
21.2335851974
  0
LINE
  5
643
100
AcDbEntity
  8
DRAFT
100
AcDbLine
 62
7
  6
CONTINUOUS
 10
8.2195491776
 20
-20.5664148026
 11
8.2195491776
 21
-21.0664148026
  0
LINE
  5
644
100
AcDbEntity
  8
ASSI
100
AcDbLine
 62
7
  6
CONTINUOUS
 10
8.2195491776
 20
-20.5664148026
 11
8.2195491776
 21
-21.0664148026
  0
LINE
  5
645
100
AcDbEntity
  8
RACCORDO
100
AcDbLine
 62
7
  6
CONTINUOUS
 10
8.2195491776
 20
-22.0664148026
 11
8.2195491776
 21
-23.5107523699
  0
LINE
  5
646
100
AcDbEntity
  8
ASSI
100
AcDbLine
 62
7
  6
CONTINUOUS
 10
8.2195491776
 20
-22.0664148026
 11
8.2195491776
 21
-23.5107523699
  0
LINE
  5
647
100
AcDbEntity
  8
RACCORDO
100
AcDbLine
 62
7
  6
CONTINUOUS
 10
8.2195491776
 20
22.7335851974
 11
8.2195491776
 21
24.1779227647
  0
LINE
  5
648
100
AcDbEntity
  8
ASSI
100
AcDbLine
 62
7
  6
CONTINUOUS
 10
8.2195491776
 20
22.7335851974
 11
8.2195491776
 21
24.1779227647
  0
LINE
  5
649
100
AcDbEntity
  8
RACCORDO
100
AcDbLine
 62
250
  6
CONTINUOUS
 10
8.2239210116
 20
24.5792175942
 11
8.2239210116
 21
24.1779227647
  0
LINE
  5
64A
100
AcDbEntity
  8
ASSI
100
AcDbLine
 62
7
  6
CONTINUOUS
 10
8.2239210116
 20
24.5792175942
 11
8.2239210116
 21
24.1779227647
  0
LINE
  5
64B
100
AcDbEntity
  8
RACCORDO
100
AcDbLine
 62
250
  6
CONTINUOUS
 10
8.2239210116
 20
-23.5107523699
 11
8.2239210116
 21
-23.9120471994
  0
LINE
  5
64C
100
AcDbEntity
  8
ASSI
100
AcDbLine
 62
7
  6
CONTINUOUS
 10
8.2239210116
 20
-23.5107523699
 11
8.2239210116
 21
-23.9120471994
  0
LINE
  5
64D
100
AcDbEntity
  8
RACCORDO
100
AcDbLine
 62
250
  6
CONTINUOUS
 10
8.4739167808
 20
-23.294246019
 11
8.4739167808
 21
-24.1620429686
  0
LINE
  5
64E
100
AcDbEntity
  8
ASSI
100
AcDbLine
 62
250
  6
CONTINUOUS
 10
8.4739167808
 20
-23.294246019
 11
8.4739167808
 21
-24.1620429686
  0
LINE
  5
64F
100
AcDbEntity
  8
RACCORDO
100
AcDbLine
 62
250
  6
CONTINUOUS
 10
8.4739167808
 20
23.9614164137
 11
8.4739167808
 21
24.8292133634
  0
LINE
  5
650
100
AcDbEntity
  8
ASSI
100
AcDbLine
 62
250
  6
CONTINUOUS
 10
8.4739167808
 20
23.9614164137
 11
8.4739167808
 21
24.8292133634
  0
LINE
  5
651
100
AcDbEntity
  8
0
100
AcDbLine
 62
250
  6
CONTINUOUS
 10
8.5290284789
 20
-18.8528092549
 11
8.5291407912
 21
-18.9338507692
  0
LINE
  5
652
100
AcDbEntity
  8
ASSI
100
AcDbLine
 62
250
  6
CONTINUOUS
 10
8.5290284789
 20
-18.8528092549
 11
8.5291407912
 21
-18.9338507692
  0
LINE
  5
653
100
AcDbEntity
  8
CURVE
100
AcDbLine
 62
250
  6
CONTINUOUS
 10
8.9700957898
 20
4.8335851974
 11
8.9700957898
 21
5.5121566421
  0
LINE
  5
654
100
AcDbEntity
  8
0
100
AcDbLine
 62
250
  6
CONTINUOUS
 10
8.5291220611
 20
19.5615280092
 11
8.5290284762
 21
19.656146133
  0
LINE
  5
655
100
AcDbEntity
  8
ASSI
100
AcDbLine
 62
250
  6
CONTINUOUS
 10
8.5291220611
 20
19.5615280092
 11
8.5290284762
 21
19.656146133
  0
LINE
  5
656
100
AcDbEntity
  8
0
100
AcDbLine
 62
250
  6
CONTINUOUS
 10
8.5291407912
 20
-18.9338507692
 11
8.5289536938
 21
-19.0061974987
  0
LINE
  5
657
100
AcDbEntity
  8
ASSI
100
AcDbLine
 62
250
  6
CONTINUOUS
 10
8.5291407912
 20
-18.9338507692
 11
8.5289536938
 21
-19.0061974987
  0
LINE
  5
658
100
AcDbEntity
  8
0
100
AcDbLine
 62
250
  6
CONTINUOUS
 10
8.5286181192
 20
19.4312266014
 11
8.5291220611
 21
19.5615280092
  0
LINE
  5
659
100
AcDbEntity
  8
ASSI
100
AcDbLine
 62
250
  6
CONTINUOUS
 10
8.5286181192
 20
19.4312266014
 11
8.5291220611
 21
19.5615280092
  0
LINE
  5
65A
100
AcDbEntity
  8
0
100
AcDbLine
 62
250
  6
CONTINUOUS
 10
8.5289536938
 20
-19.0061974987
 11
8.5286181129
 21
-19.0542192354
  0
LINE
  5
65B
100
AcDbEntity
  8
ASSI
100
AcDbLine
 62
250
  6
CONTINUOUS
 10
8.5289536938
 20
-19.0061974987
 11
8.5286181129
 21
-19.0542192354
  0
LINE
  5
65C
100
AcDbEntity
  8
RACCORDO
100
AcDbLine
 62
250
  6
CONTINUOUS
 10
8.2195491776
 20
23.7440703456
 11
8.2239210116
 21
24.1779227647
  0
LINE
  5
65D
100
AcDbEntity
  8
ASSI
100
AcDbLine
 62
250
  6
CONTINUOUS
 10
8.2195491776
 20
23.7440703456
 11
8.2239210116
 21
24.1779227647
  0
LINE
  5
65E
100
AcDbEntity
  8
RACCORDO
100
AcDbLine
 62
250
  6
CONTINUOUS
 10
8.4688261798
 20
23.4562349282
 11
8.4739167808
 21
23.9614164137
  0
LINE
  5
65F
100
AcDbEntity
  8
ASSI
100
AcDbLine
 62
250
  6
CONTINUOUS
 10
8.4688261798
 20
23.4562349282
 11
8.4739167808
 21
23.9614164137
  0
LINE
  5
660
100
AcDbEntity
  8
0
100
AcDbLine
 62
250
  6
CONTINUOUS
 10
8.5269267337
 20
19.2349746699
 11
8.5286181192
 21
19.4312266014
  0
LINE
  5
661
100
AcDbEntity
  8
ASSI
100
AcDbLine
 62
250
  6
CONTINUOUS
 10
8.5269267337
 20
19.2349746699
 11
8.5286181192
 21
19.4312266014
  0
LINE
  5
662
100
AcDbEntity
  8
0
100
AcDbLine
 62
250
  6
CONTINUOUS
 10
8.5286181129
 20
-19.0542192354
 11
8.5281176084
 21
-19.0965260681
  0
LINE
  5
663
100
AcDbEntity
  8
ASSI
100
AcDbLine
 62
250
  6
CONTINUOUS
 10
8.5286181129
 20
-19.0542192354
 11
8.5281176084
 21
-19.0965260681
  0
LINE
  5
664
100
AcDbEntity
  8
0
100
AcDbLine
 62
250
  6
CONTINUOUS
 10
8.523730938
 20
18.9944256304
 11
8.5269267337
 21
19.2349746699
  0
LINE
  5
665
100
AcDbEntity
  8
ASSI
100
AcDbLine
 62
250
  6
CONTINUOUS
 10
8.523730938
 20
18.9944256304
 11
8.5269267337
 21
19.2349746699
  0
LINE
  5
666
100
AcDbEntity
  8
0
100
AcDbLine
 62
250
  6
CONTINUOUS
 10
8.5219178676
 20
18.8844553514
 11
8.523730938
 21
18.9944256304
  0
LINE
  5
667
100
AcDbEntity
  8
ASSI
100
AcDbLine
 62
250
  6
CONTINUOUS
 10
8.5219178676
 20
18.8844553514
 11
8.523730938
 21
18.9944256304
  0
LINE
  5
668
100
AcDbEntity
  8
0
100
AcDbLine
 62
250
  6
CONTINUOUS
 10
8.5281176084
 20
-19.0965260681
 11
8.5276939567
 21
-19.1214113469
  0
LINE
  5
669
100
AcDbEntity
  8
ASSI
100
AcDbLine
 62
250
  6
CONTINUOUS
 10
8.5281176084
 20
-19.0965260681
 11
8.5276939567
 21
-19.1214113469
  0
LWPOLYLINE
  5
66A
100
AcDbEntity
  8
RACCORDO
100
AcDbPolyline
 62
7
  6
CONTINUOUS
 90
4
 70
0
 10
8.2195491776
 20
24.5835894282
 10
8.2198323279
 20
24.5954847134
 10
8.2206811434
 20
24.6073530529
 10
8.2220937035
 20
24.6191675635
  0
LWPOLYLINE
  5
66B
100
AcDbEntity
  8
ASSI
100
AcDbPolyline
 62
7
  6
CONTINUOUS
 90
4
 70
0
 10
8.2195491776
 20
24.5835894282
 10
8.2198323279
 20
24.5954847134
 10
8.2206811434
 20
24.6073530529
 10
8.2220937035
 20
24.6191675635
  0
LINE
  5
66C
100
AcDbEntity
  8
0
100
AcDbLine
 62
250
  6
CONTINUOUS
 10
8.5276939567
 20
-19.1214113469
 11
8.5271997879
 21
-19.1435518843
  0
LINE
  5
66D
100
AcDbEntity
  8
ASSI
100
AcDbLine
 62
250
  6
CONTINUOUS
 10
8.5276939567
 20
-19.1214113469
 11
8.5271997879
 21
-19.1435518843
  0
LWPOLYLINE
  5
66E
100
AcDbEntity
  8
RACCORDO
100
AcDbPolyline
 62
250
  6
CONTINUOUS
 90
25
 70
0
 10
8.2239210116
 20
24.5792175942
 10
8.2242642006
 20
24.5923039483
 10
8.2252919436
 20
24.6053544466
 10
8.2270014268
 20
24.618333304
 10
8.2293879695
 20
24.6312049437
 10
8.2324450306
 20
24.6439340576
 10
8.2361642202
 20
24.656485705
 10
8.2405353352
 20
24.6688254612
 10
8.2455463907
 20
24.6809194984
 10
8.251183639
 20
24.692734644
 10
8.2574316181
 20
24.7042384998
 10
8.2642731939
 20
24.7153995258
 10
8.2716896008
 20
24.7261871161
 10
8.279660509
 20
24.7365717054
 10
8.2881640505
 20
24.7465248088
 10
8.2971768696
 20
24.756019102
 10
8.3066742041
 20
24.7650285238
 10
8.3166300412
 20
24.7735284207
 10
8.3270171671
 20
24.781495563
 10
8.3378072463
 20
24.788908193
 10
8.3489705647
 20
24.7957458748
 10
8.3604761651
 20
24.8019896765
 10
8.3722922434
 20
24.807622425
 10
8.3843865995
 20
24.8126288549
 10
8.3967264034
 20
24.816995406
  0
LWPOLYLINE
  5
66F
100
AcDbEntity
  8
ASSI
100
AcDbPolyline
 62
7
  6
CONTINUOUS
 90
29
 70
0
 10
8.2239210116
 20
24.5792175942
 10
8.2242642006
 20
24.5923039483
 10
8.2252919436
 20
24.6053544466
 10
8.2270014268
 20
24.618333304
 10
8.2293879695
 20
24.6312049437
 10
8.2324450306
 20
24.6439340576
 10
8.2361642202
 20
24.656485705
 10
8.2405353352
 20
24.6688254612
 10
8.2455463907
 20
24.6809194984
 10
8.251183639
 20
24.692734644
 10
8.2574316181
 20
24.7042384998
 10
8.2642731939
 20
24.7153995258
 10
8.2716896008
 20
24.7261871161
 10
8.279660509
 20
24.7365717054
 10
8.2881640505
 20
24.7465248088
 10
8.2971768696
 20
24.756019102
 10
8.3066742041
 20
24.7650285238
 10
8.3166300412
 20
24.7735284207
 10
8.3270171671
 20
24.781495563
 10
8.3378072463
 20
24.788908193
 10
8.3489705647
 20
24.7957458748
 10
8.3604761651
 20
24.8019896765
 10
8.3722922434
 20
24.807622425
 10
8.3843865995
 20
24.8126288549
 10
8.3967264034
 20
24.816995406
 10
8.409280588
 20
24.8207108458
 10
8.4220120532
 20
24.8237639592
 10
8.4348777719
 20
24.8261450893
 10
8.447036703
 20
24.8277631509
  0
LWPOLYLINE
  5
670
100
AcDbEntity
  8
0
100
AcDbPolyline
 62
250
  6
CONTINUOUS
 90
14
 70
0
 10
8.5271997879
 20
-19.1435518843
 10
8.5266366023
 20
-19.1628804645
 10
8.5263296546
 20
-19.1714715935
 10
8.5260061099
 20
-19.1793384055
 10
8.5256662139
 20
-19.1864749297
 10
8.5253102245
 20
-19.1928757495
 10
8.524938412
 20
-19.1985360053
 10
8.5245510588
 20
-19.2034513991
 10
8.5241484583
 20
-19.2076182058
 10
8.5237309167
 20
-19.2110332556
 10
8.523298753
 20
-19.2136939466
 10
8.522852296
 20
-19.2155982678
 10
8.5223918844
 20
-19.2167447893
 10
8.5219178676
 20
-19.2171326519
  0
LWPOLYLINE
  5
671
100
AcDbEntity
  8
ASSI
100
AcDbPolyline
 62
250
  6
CONTINUOUS
 90
14
 70
0
 10
8.5271997879
 20
-19.1435518843
 10
8.5266366023
 20
-19.1628804645
 10
8.5263296546
 20
-19.1714715935
 10
8.5260061099
 20
-19.1793384055
 10
8.5256662139
 20
-19.1864749297
 10
8.5253102245
 20
-19.1928757495
 10
8.524938412
 20
-19.1985360053
 10
8.5245510588
 20
-19.2034513991
 10
8.5241484583
 20
-19.2076182058
 10
8.5237309167
 20
-19.2110332556
 10
8.523298753
 20
-19.2136939466
 10
8.522852296
 20
-19.2155982678
 10
8.5223918844
 20
-19.2167447893
 10
8.5219178676
 20
-19.2171326519
  0
LWPOLYLINE
  5
672
100
AcDbEntity
  8
RACCORDO
100
AcDbPolyline
 62
250
  6
CONTINUOUS
 90
31
 70
0
 10
8.2239210116
 20
-23.5107523699
 10
8.2242995673
 20
-23.4994543977
 10
8.2253586948
 20
-23.4881840936
 10
8.2270960714
 20
-23.4769722238
 10
8.2295077728
 20
-23.4658484147
 10
8.232587643
 20
-23.4548441626
 10
8.236326694
 20
-23.4439926228
 10
8.2407142384
 20
-23.4333244998
 10
8.2457386374
 20
-23.4228678265
 10
8.251386318
 20
-23.4126509077
 10
8.2576420106
 20
-23.4027015025
 10
8.2644885852
 20
-23.393046978
 10
8.2719071934
 20
-23.3837139546
 10
8.2798774975
 20
-23.3747280044
 10
8.2883777923
 20
-23.3661135852
 10
8.2973848828
 20
-23.3578942068
 10
8.3068741864
 20
-23.3500923102
 10
8.3168197735
 20
-23.3427292219
 10
8.3271944564
 20
-23.3358250731
 10
8.3379698888
 20
-23.3293987265
 10
8.3491166468
 20
-23.3234677295
 10
8.3606042839
 20
-23.3180482822
 10
8.3724014406
 20
-23.3131551802
 10
8.384475877
 20
-23.3088017971
 10
8.3967945566
 20
-23.3050000397
 10
8.409323792
 20
-23.3017602933
 10
8.4220293949
 20
-23.2990913868
 10
8.4348767157
 20
-23.2970005944
 10
8.4478306829
 20
-23.2954936245
 10
8.4608558967
 20
-23.2945745961
 10
8.4739167808
 20
-23.294246019
  0
LWPOLYLINE
  5
673
100
AcDbEntity
  8
ASSI
100
AcDbPolyline
 62
250
  6
CONTINUOUS
 90
31
 70
0
 10
8.2239210116
 20
-23.5107523699
 10
8.2242995673
 20
-23.4994543977
 10
8.2253586948
 20
-23.4881840936
 10
8.2270960714
 20
-23.4769722238
 10
8.2295077728
 20
-23.4658484147
 10
8.232587643
 20
-23.4548441626
 10
8.236326694
 20
-23.4439926228
 10
8.2407142384
 20
-23.4333244998
 10
8.2457386374
 20
-23.4228678265
 10
8.251386318
 20
-23.4126509077
 10
8.2576420106
 20
-23.4027015025
 10
8.2644885852
 20
-23.393046978
 10
8.2719071934
 20
-23.3837139546
 10
8.2798774975
 20
-23.3747280044
 10
8.2883777923
 20
-23.3661135852
 10
8.2973848828
 20
-23.3578942068
 10
8.3068741864
 20
-23.3500923102
 10
8.3168197735
 20
-23.3427292219
 10
8.3271944564
 20
-23.3358250731
 10
8.3379698888
 20
-23.3293987265
 10
8.3491166468
 20
-23.3234677295
 10
8.3606042839
 20
-23.3180482822
 10
8.3724014406
 20
-23.3131551802
 10
8.384475877
 20
-23.3088017971
 10
8.3967945566
 20
-23.3050000397
 10
8.409323792
 20
-23.3017602933
 10
8.4220293949
 20
-23.2990913868
 10
8.4348767157
 20
-23.2970005944
 10
8.4478306829
 20
-23.2954936245
 10
8.4608558967
 20
-23.2945745961
 10
8.4739167808
 20
-23.294246019
  0
LINE
  5
674
100
AcDbEntity
  8
DRAFT
100
AcDbLine
 62
7
  6
CONTINUOUS
 10
-4.4304508224
 20
-22.0664148026
 11
-4.3863835551
 21
-22.0003129695
  0
LINE
  5
675
100
AcDbEntity
  8
ASSI
100
AcDbLine
 62
7
  6
CONTINUOUS
 10
-4.4304508224
 20
-22.0664148026
 11
-4.3863835551
 21
-22.0003129695
  0
LINE
  5
676
100
AcDbEntity
  8
CURVE
100
AcDbLine
 62
250
  6
CONTINUOUS
 10
4.899287306
 20
-6.8092718774
 11
5.1135403931
 21
-6.5235579663
  0
LINE
  5
677
100
AcDbEntity
  8
CURVE
100
AcDbLine
 62
250
  6
CONTINUOUS
 10
2.506794608
 20
-8.7633303612
 11
2.7210476951
 21
-8.5490446596
  0
LINE
  5
678
100
AcDbEntity
  8
CURVE
100
AcDbLine
 62
250
  6
CONTINUOUS
 10
1.2212761523
 20
-7.1561874657
 11
2.7210476951
 21
-6.7276160627
  0
LINE
  5
679
100
AcDbEntity
  8
IMPORT_IGES
100
AcDbLine
 62
7
  6
CONTINUOUS
 10
-5.4220914684
 20
8.4352512472
 11
-4.0464508224
 21
8.6480635958
  0
LINE
  5
67A
100
AcDbEntity
  8
IMPORT_IGES
100
AcDbLine
 62
7
  6
CONTINUOUS
 10
3.6635491776
 20
8.4352512472
 11
-5.4220914684
 21
8.4352512472
  0
LINE
  5
67B
100
AcDbEntity
  8
IMPORT_IGES
100
AcDbLine
 62
7
  6
CONTINUOUS
 10
0.8635491776
 20
8.7835851974
 11
-4.0464508224
 21
8.7835851974
  0
LINE
  5
67C
100
AcDbEntity
  8
IMPORT_IGES
100
AcDbLine
 62
7
  6
CONTINUOUS
 10
0.8635491776
 20
8.9335851974
 11
-4.0364508224
 21
8.9335851974
  0
LINE
  5
67D
100
AcDbEntity
  8
IMPORT_IGES
100
AcDbLine
 62
7
  6
CONTINUOUS
 10
0.8635491776
 20
8.7835851974
 11
3.6635491776
 21
8.5825542421
  0
LINE
  5
67E
100
AcDbEntity
  8
DRAFT
100
AcDbLine
 62
7
  6
CONTINUOUS
 10
-4.4304508224
 20
22.7335851974
 11
-4.3863835551
 21
22.6674833643
  0
LINE
  5
67F
100
AcDbEntity
  8
ASSI
100
AcDbLine
 62
7
  6
CONTINUOUS
 10
-4.4304508224
 20
22.7335851974
 11
-4.3863835551
 21
22.6674833643
  0
LWPOLYLINE
  5
680
100
AcDbEntity
  8
0
100
AcDbPolyline
 62
250
  6
CONTINUOUS
 90
13
 70
0
 10
8.5266366053
 20
19.8300507718
 10
8.5263296576
 20
19.8386419083
 10
8.5260061131
 20
19.8465087287
 10
8.5256662172
 20
19.85364526
 10
8.5253102281
 20
19.8600460846
 10
8.524938416
 20
19.8657063449
 10
8.524551063
 20
19.8706217456
 10
8.5241484626
 20
19.8747885608
 10
8.5237309209
 20
19.8782036199
 10
8.5232987568
 20
19.8808643213
 10
8.522852299
 20
19.8827686524
 10
8.5223918861
 20
19.8839151812
 10
8.5219178676
 20
19.8843030466
  0
LWPOLYLINE
  5
681
100
AcDbEntity
  8
ASSI
100
AcDbPolyline
 62
250
  6
CONTINUOUS
 90
13
 70
0
 10
8.5266366053
 20
19.8300507718
 10
8.5263296576
 20
19.8386419083
 10
8.5260061131
 20
19.8465087287
 10
8.5256662172
 20
19.85364526
 10
8.5253102281
 20
19.8600460846
 10
8.524938416
 20
19.8657063449
 10
8.524551063
 20
19.8706217456
 10
8.5241484626
 20
19.8747885608
 10
8.5237309209
 20
19.8782036199
 10
8.5232987568
 20
19.8808643213
 10
8.522852299
 20
19.8827686524
 10
8.5223918861
 20
19.8839151812
 10
8.5219178676
 20
19.8843030466
  0
LWPOLYLINE
  5
682
100
AcDbEntity
  8
RACCORDO
100
AcDbPolyline
 62
250
  6
CONTINUOUS
 90
31
 70
0
 10
10.6151773436
 20
-23.5107523699
 10
10.614798788
 20
-23.4994543977
 10
10.6137396604
 20
-23.4881840936
 10
10.6120022839
 20
-23.4769722238
 10
10.6095905825
 20
-23.4658484147
 10
10.6065107122
 20
-23.4548441626
 10
10.6027716613
 20
-23.4439926228
 10
10.5983841169
 20
-23.4333244998
 10
10.5933597179
 20
-23.4228678265
 10
10.5877120372
 20
-23.4126509077
 10
10.5814563447
 20
-23.4027015025
 10
10.5746097701
 20
-23.393046978
 10
10.5671911618
 20
-23.3837139546
 10
10.5592208578
 20
-23.3747280044
 10
10.550720563
 20
-23.3661135852
 10
10.5417134725
 20
-23.3578942068
 10
10.5322241689
 20
-23.3500923102
 10
10.5222785817
 20
-23.3427292219
 10
10.5119038988
 20
-23.3358250731
 10
10.5011284664
 20
-23.3293987265
 10
10.4899817084
 20
-23.3234677295
 10
10.4784940714
 20
-23.3180482822
 10
10.4666969147
 20
-23.3131551802
 10
10.4546224782
 20
-23.3088017971
 10
10.4423037986
 20
-23.3050000397
 10
10.4297745633
 20
-23.3017602933
 10
10.4170689604
 20
-23.2990913868
 10
10.4042216396
 20
-23.2970005944
 10
10.3912676724
 20
-23.2954936245
 10
10.3782424586
 20
-23.2945745961
 10
10.3651815744
 20
-23.294246019
  0
LWPOLYLINE
  5
683
100
AcDbEntity
  8
ASSI
100
AcDbPolyline
 62
250
  6
CONTINUOUS
 90
31
 70
0
 10
10.6151773436
 20
-23.5107523699
 10
10.614798788
 20
-23.4994543977
 10
10.6137396604
 20
-23.4881840936
 10
10.6120022839
 20
-23.4769722238
 10
10.6095905825
 20
-23.4658484147
 10
10.6065107122
 20
-23.4548441626
 10
10.6027716613
 20
-23.4439926228
 10
10.5983841169
 20
-23.4333244998
 10
10.5933597179
 20
-23.4228678265
 10
10.5877120372
 20
-23.4126509077
 10
10.5814563447
 20
-23.4027015025
 10
10.5746097701
 20
-23.393046978
 10
10.5671911618
 20
-23.3837139546
 10
10.5592208578
 20
-23.3747280044
 10
10.550720563
 20
-23.3661135852
 10
10.5417134725
 20
-23.3578942068
 10
10.5322241689
 20
-23.3500923102
 10
10.5222785817
 20
-23.3427292219
 10
10.5119038988
 20
-23.3358250731
 10
10.5011284664
 20
-23.3293987265
 10
10.4899817084
 20
-23.3234677295
 10
10.4784940714
 20
-23.3180482822
 10
10.4666969147
 20
-23.3131551802
 10
10.4546224782
 20
-23.3088017971
 10
10.4423037986
 20
-23.3050000397
 10
10.4297745633
 20
-23.3017602933
 10
10.4170689604
 20
-23.2990913868
 10
10.4042216396
 20
-23.2970005944
 10
10.3912676724
 20
-23.2954936245
 10
10.3782424586
 20
-23.2945745961
 10
10.3651815744
 20
-23.294246019
  0
LINE
  5
684
100
AcDbEntity
  8
RACCORDO
100
AcDbLine
 62
250
  6
CONTINUOUS
 10
10.3651815744
 20
23.9614164137
 11
10.3702721755
 21
23.4562349282
  0
LINE
  5
685
100
AcDbEntity
  8
ASSI
100
AcDbLine
 62
250
  6
CONTINUOUS
 10
10.3651815744
 20
23.9614164137
 11
10.3702721755
 21
23.4562349282
  0
LINE
  5
686
100
AcDbEntity
  8
RACCORDO
100
AcDbLine
 62
250
  6
CONTINUOUS
 10
10.6151773436
 20
24.1779227647
 11
10.6195491776
 21
23.7440703456
  0
LINE
  5
687
100
AcDbEntity
  8
ASSI
100
AcDbLine
 62
250
  6
CONTINUOUS
 10
10.6151773436
 20
24.1779227647
 11
10.6195491776
 21
23.7440703456
  0
LINE
  5
688
100
AcDbEntity
  8
ASSI
100
AcDbLine
 62
250
  6
CONTINUOUS
 10
10.6151730635
 20
24.5806720273
 11
10.6151773436
 21
24.5792175942
  0
LINE
  5
689
100
AcDbEntity
  8
DRAFT
100
AcDbLine
 62
7
  6
CONTINUOUS
 10
9.4641990998
 20
20.7671559617
 11
9.4641990998
 21
19.3389352752
  0
LINE
  5
68A
100
AcDbEntity
  8
ASSI
100
AcDbLine
 62
7
  6
CONTINUOUS
 10
9.4641990998
 20
20.7671559617
 11
9.4641990998
 21
19.3389352752
  0
LINE
  5
68B
100
AcDbEntity
  8
DRAFT
100
AcDbLine
 62
7
  6
CONTINUOUS
 10
9.4641990998
 20
-18.6717648805
 11
9.4641990998
 21
-20.099985567
  0
LINE
  5
68C
100
AcDbEntity
  8
ASSI
100
AcDbLine
 62
7
  6
CONTINUOUS
 10
9.4641990998
 20
-18.6717648805
 11
9.4641990998
 21
-20.099985567
  0
LINE
  5
68D
100
AcDbEntity
  8
DRAFT
100
AcDbLine
 62
7
  6
CONTINUOUS
 10
9.6195491776
 20
-20.5664148026
 11
9.6195491776
 21
-18.5164148026
  0
LINE
  5
68E
100
AcDbEntity
  8
ASSI
100
AcDbLine
 62
7
  6
CONTINUOUS
 10
9.6195491776
 20
-20.5664148026
 11
9.6195491776
 21
-18.5164148026
  0
LINE
  5
68F
100
AcDbEntity
  8
DRAFT
100
AcDbLine
 62
7
  6
CONTINUOUS
 10
9.6195491776
 20
19.1835851974
 11
9.6195491776
 21
21.2335851974
  0
LINE
  5
690
100
AcDbEntity
  8
ASSI
100
AcDbLine
 62
7
  6
CONTINUOUS
 10
9.6195491776
 20
19.1835851974
 11
9.6195491776
 21
21.2335851974
  0
LINE
  5
691
100
AcDbEntity
  8
0
100
AcDbLine
 62
250
  6
CONTINUOUS
 10
10.1370015841
 20
-16.6022012403
 11
10.1370015841
 21
17.269371635
  0
LINE
  5
692
100
AcDbEntity
  8
ASSI
100
AcDbLine
 62
250
  6
CONTINUOUS
 10
10.1370015841
 20
-16.6022012403
 11
10.1370015841
 21
17.269371635
  0
LINE
  5
693
100
AcDbEntity
  8
RACCORDO
100
AcDbLine
 62
250
  6
CONTINUOUS
 10
10.3651815744
 20
-23.294246019
 11
10.3651815744
 21
-24.1620429686
  0
LINE
  5
694
100
AcDbEntity
  8
ASSI
100
AcDbLine
 62
250
  6
CONTINUOUS
 10
10.3651815744
 20
-23.294246019
 11
10.3651815744
 21
-24.1620429686
  0
LINE
  5
695
100
AcDbEntity
  8
RACCORDO
100
AcDbLine
 62
250
  6
CONTINUOUS
 10
10.3651815744
 20
23.9614164137
 11
10.3651815744
 21
24.8292133634
  0
LINE
  5
696
100
AcDbEntity
  8
ASSI
100
AcDbLine
 62
250
  6
CONTINUOUS
 10
10.3651815744
 20
23.9614164137
 11
10.3651815744
 21
24.8292133634
  0
LINE
  5
697
100
AcDbEntity
  8
RACCORDO
100
AcDbLine
 62
250
  6
CONTINUOUS
 10
10.6151773436
 20
-23.9120471994
 11
10.6151773436
 21
-23.5107523699
  0
LINE
  5
698
100
AcDbEntity
  8
ASSI
100
AcDbLine
 62
7
  6
CONTINUOUS
 10
10.6151773436
 20
-23.9120471994
 11
10.6151773436
 21
-23.5107523699
  0
LINE
  5
699
100
AcDbEntity
  8
RACCORDO
100
AcDbLine
 62
250
  6
CONTINUOUS
 10
10.6151773436
 20
24.1779227647
 11
10.6151773436
 21
24.5792175942
  0
LINE
  5
69A
100
AcDbEntity
  8
ASSI
100
AcDbLine
 62
7
  6
CONTINUOUS
 10
10.6151773436
 20
24.1779227647
 11
10.6151773436
 21
24.5792175942
  0
LINE
  5
69B
100
AcDbEntity
  8
RACCORDO
100
AcDbLine
 62
7
  6
CONTINUOUS
 10
10.6195491776
 20
-22.0663558088
 11
10.6195491776
 21
-23.5107523699
  0
LINE
  5
69C
100
AcDbEntity
  8
ASSI
100
AcDbLine
 62
7
  6
CONTINUOUS
 10
10.6195491776
 20
-22.0663558088
 11
10.6195491776
 21
-23.5107523699
  0
LINE
  5
69D
100
AcDbEntity
  8
RACCORDO
100
AcDbLine
 62
7
  6
CONTINUOUS
 10
10.6195491776
 20
22.7335262035
 11
10.6195491776
 21
24.1779227647
  0
LINE
  5
69E
100
AcDbEntity
  8
ASSI
100
AcDbLine
 62
7
  6
CONTINUOUS
 10
10.6195491776
 20
22.7335262035
 11
10.6195491776
 21
24.1779227647
  0
LINE
  5
69F
100
AcDbEntity
  8
RACCORDO
100
AcDbLine
 62
250
  6
CONTINUOUS
 10
10.3702721755
 20
-22.7890645334
 11
10.3651815744
 21
-23.294246019
  0
LINE
  5
6A0
100
AcDbEntity
  8
ASSI
100
AcDbLine
 62
250
  6
CONTINUOUS
 10
10.3702721755
 20
-22.7890645334
 11
10.3651815744
 21
-23.294246019
  0
LINE
  5
6A1
100
AcDbEntity
  8
RACCORDO
100
AcDbLine
 62
250
  6
CONTINUOUS
 10
10.6195491776
 20
-23.0768999508
 11
10.6151773436
 21
-23.5107523699
  0
LINE
  5
6A2
100
AcDbEntity
  8
ASSI
100
AcDbLine
 62
250
  6
CONTINUOUS
 10
10.6195491776
 20
-23.0768999508
 11
10.6151773436
 21
-23.5107523699
  0
LWPOLYLINE
  5
6A3
100
AcDbEntity
  8
RACCORDO
100
AcDbPolyline
 62
250
  6
CONTINUOUS
 90
31
 70
0
 10
10.6151773436
 20
24.1779227647
 10
10.614798788
 20
24.1666247924
 10
10.6137396604
 20
24.1553544884
 10
10.6120022839
 20
24.1441426186
 10
10.6095905825
 20
24.1330188095
 10
10.6065107122
 20
24.1220145574
 10
10.6027716613
 20
24.1111630176
 10
10.5983841169
 20
24.1004948946
 10
10.5933597179
 20
24.0900382212
 10
10.5877120372
 20
24.0798213024
 10
10.5814563447
 20
24.0698718973
 10
10.5746097701
 20
24.0602173727
 10
10.5671911618
 20
24.0508843493
 10
10.5592208578
 20
24.0418983991
 10
10.550720563
 20
24.0332839799
 10
10.5417134725
 20
24.0250646016
 10
10.5322241689
 20
24.0172627049
 10
10.5222785817
 20
24.0098996167
 10
10.5119038988
 20
24.0029954678
 10
10.5011284664
 20
23.9965691212
 10
10.4899817084
 20
23.9906381243
 10
10.4784940714
 20
23.9852186769
 10
10.4666969147
 20
23.9803255749
 10
10.4546224782
 20
23.9759721918
 10
10.4423037986
 20
23.9721704345
 10
10.4297745633
 20
23.968930688
 10
10.4170689604
 20
23.9662617816
 10
10.4042216396
 20
23.9641709892
 10
10.3912676724
 20
23.9626640192
 10
10.3782424586
 20
23.9617449908
 10
10.3651815744
 20
23.9614164137
  0
LWPOLYLINE
  5
6A4
100
AcDbEntity
  8
ASSI
100
AcDbPolyline
 62
250
  6
CONTINUOUS
 90
31
 70
0
 10
10.6151773436
 20
24.1779227647
 10
10.614798788
 20
24.1666247924
 10
10.6137396604
 20
24.1553544884
 10
10.6120022839
 20
24.1441426186
 10
10.6095905825
 20
24.1330188095
 10
10.6065107122
 20
24.1220145574
 10
10.6027716613
 20
24.1111630176
 10
10.5983841169
 20
24.1004948946
 10
10.5933597179
 20
24.0900382212
 10
10.5877120372
 20
24.0798213024
 10
10.5814563447
 20
24.0698718973
 10
10.5746097701
 20
24.0602173727
 10
10.5671911618
 20
24.0508843493
 10
10.5592208578
 20
24.0418983991
 10
10.550720563
 20
24.0332839799
 10
10.5417134725
 20
24.0250646016
 10
10.5322241689
 20
24.0172627049
 10
10.5222785817
 20
24.0098996167
 10
10.5119038988
 20
24.0029954678
 10
10.5011284664
 20
23.9965691212
 10
10.4899817084
 20
23.9906381243
 10
10.4784940714
 20
23.9852186769
 10
10.4666969147
 20
23.9803255749
 10
10.4546224782
 20
23.9759721918
 10
10.4423037986
 20
23.9721704345
 10
10.4297745633
 20
23.968930688
 10
10.4170689604
 20
23.9662617816
 10
10.4042216396
 20
23.9641709892
 10
10.3912676724
 20
23.9626640192
 10
10.3782424586
 20
23.9617449908
 10
10.3651815744
 20
23.9614164137
  0
LINE
  5
6A5
100
AcDbEntity
  8
DRAFT
100
AcDbLine
 62
7
  6
CONTINUOUS
 10
7.3213278629
 20
-20.099985567
 11
7.2695491776
 21
-20.5664148026
  0
LINE
  5
6A6
100
AcDbEntity
  8
ASSI
100
AcDbLine
 62
7
  6
CONTINUOUS
 10
7.3213278629
 20
-20.099985567
 11
7.2695491776
 21
-20.5664148026
  0
LWPOLYLINE
  5
6A7
100
AcDbEntity
  8
0
100
AcDbPolyline
 62
250
  6
CONTINUOUS
 90
12
 70
0
 10
-5.0653556352
 20
-19.454299393
 10
-5.0656547099
 20
-19.4546091282
 10
-5.0659427929
 20
-19.4555273301
 10
-5.0662195334
 20
-19.4570528807
 10
-5.0664845943
 20
-19.4591839218
 10
-5.066737653
 20
-19.4619178583
 10
-5.066978401
 20
-19.4652513605
 10
-5.0672065454
 20
-19.4691803686
 10
-5.0674218082
 20
-19.4737000976
 10
-5.0676239272
 20
-19.478805043
 10
-5.0678126563
 20
-19.4844889877
 10
-5.068149042
 20
-19.4975654888
  0
LWPOLYLINE
  5
6A8
100
AcDbEntity
  8
ASSI
100
AcDbPolyline
 62
250
  6
CONTINUOUS
 90
12
 70
0
 10
-5.0653556352
 20
-19.454299393
 10
-5.0656547099
 20
-19.4546091282
 10
-5.0659427929
 20
-19.4555273301
 10
-5.0662195334
 20
-19.4570528807
 10
-5.0664845943
 20
-19.4591839218
 10
-5.066737653
 20
-19.4619178583
 10
-5.066978401
 20
-19.4652513605
 10
-5.0672065454
 20
-19.4691803686
 10
-5.0674218082
 20
-19.4737000976
 10
-5.0676239272
 20
-19.478805043
 10
-5.0678126563
 20
-19.4844889877
 10
-5.068149042
 20
-19.4975654888
  0
LINE
  5
6A9
100
AcDbEntity
  8
RACCORDO
100
AcDbLine
 62
7
  6
CONTINUOUS
 10
-6.3874723238
 20
-19.4234363041
 11
-6.2786721371
 21
-19.3146361173
  0
LINE
  5
6AA
100
AcDbEntity
  8
ASSI
100
AcDbLine
 62
7
  6
CONTINUOUS
 10
-6.3874723238
 20
-19.4234363041
 11
-6.2786721371
 21
-19.3146361173
  0
LINE
  5
6AB
100
AcDbEntity
  8
CURVE
100
AcDbLine
 62
250
  6
CONTINUOUS
 10
3.970857314
 20
-9.0949860268
 11
4.1851103788
 21
-8.8807004147
  0
LINE
  5
6AC
100
AcDbEntity
  8
CURVE
100
AcDbLine
 62
250
  6
CONTINUOUS
 10
5.4706288568
 20
-9.2021291905
 11
5.2563757696
 21
-9.4164148026
  0
LINE
  5
6AD
100
AcDbEntity
  8
CURVE
100
AcDbLine
 62
250
  6
CONTINUOUS
 10
4.1851103788
 20
-8.8807004147
 11
4.3993634436
 21
-8.7735579663
  0
LINE
  5
6AE
100
AcDbEntity
  8
CURVE
100
AcDbLine
 62
250
  6
CONTINUOUS
 10
3.970857314
 20
-8.3449860268
 11
5.4706288568
 21
-7.9164148026
  0
LINE
  5
6AF
100
AcDbEntity
  8
CURVE
100
AcDbLine
 62
250
  6
CONTINUOUS
 10
8.9700957898
 20
9.8335851974
 11
7.070385169
 21
9.8335851974
  0
LINE
  5
6B0
100
AcDbEntity
  8
CURVE
100
AcDbLine
 62
250
  6
CONTINUOUS
 10
8.9700957898
 20
10.7835851974
 11
7.070385169
 21
10.7835851974
  0
LINE
  5
6B1
100
AcDbEntity
  8
IMPORT_IGES
100
AcDbLine
 62
7
  6
CONTINUOUS
 10
-4.0464508224
 20
11.819106799
 11
-5.4220914684
 21
12.0319191475
  0
LINE
  5
6B2
100
AcDbEntity
  8
RACCORDO
100
AcDbLine
 62
7
  6
CONTINUOUS
 10
-6.3874723238
 20
20.0906066988
 11
-6.2786721371
 21
19.9818065121
  0
LINE
  5
6B3
100
AcDbEntity
  8
ASSI
100
AcDbLine
 62
7
  6
CONTINUOUS
 10
-6.3874723238
 20
20.0906066988
 11
-6.2786721371
 21
19.9818065121
  0
LINE
  5
6B4
100
AcDbEntity
  8
DRAFT
100
AcDbLine
 62
7
  6
CONTINUOUS
 10
7.2695491776
 20
21.2335851974
 11
7.3213278629
 21
20.7671559617
  0
LINE
  5
6B5
100
AcDbEntity
  8
ASSI
100
AcDbLine
 62
7
  6
CONTINUOUS
 10
7.2695491776
 20
21.2335851974
 11
7.3213278629
 21
20.7671559617
  0
LINE
  5
6B6
100
AcDbEntity
  8
RACCORDO
100
AcDbLine
 62
7
  6
CONTINUOUS
 10
11.1195491776
 20
-21.5675946471
 11
11.1195491776
 21
-16.6022012403
  0
LINE
  5
6B7
100
AcDbEntity
  8
0
100
AcDbLine
 62
7
  6
CONTINUOUS
 10
11.1195491776
 20
-16.6022012403
 11
11.1195491776
 21
17.269371635
  0
LINE
  5
6B8
100
AcDbEntity
  8
RACCORDO
100
AcDbLine
 62
7
  6
CONTINUOUS
 10
11.1195491776
 20
17.269371635
 11
11.1195491776
 21
22.2347650418
  0
LINE
  5
6B9
100
AcDbEntity
  8
ASSI
100
AcDbLine
 62
7
  6
CONTINUOUS
 10
11.1195491776
 20
-21.5675946471
 11
11.1195491776
 21
22.2347650418
  0
LINE
  5
6BA
100
AcDbEntity
  8
IMPORT_IGES
100
AcDbLine
 62
7
  6
CONTINUOUS
 10
11.1635491776
 20
-2.2664148026
 11
11.1635491776
 21
12.7335851974
  0
LWPOLYLINE
  5
6BB
100
AcDbEntity
  8
RACCORDO
100
AcDbPolyline
 62
7
  6
CONTINUOUS
 90
4
 70
0
 10
10.6195491776
 20
-23.9164190334
 10
10.6192660274
 20
-23.9283143186
 10
10.6184172119
 20
-23.9401826582
 10
10.6170046518
 20
-23.9519971688
  0
LWPOLYLINE
  5
6BC
100
AcDbEntity
  8
ASSI
100
AcDbPolyline
 62
7
  6
CONTINUOUS
 90
4
 70
0
 10
10.6195491776
 20
-23.9164190334
 10
10.6192660274
 20
-23.9283143186
 10
10.6184172119
 20
-23.9401826582
 10
10.6170046518
 20
-23.9519971688
  0
LWPOLYLINE
  5
6BD
100
AcDbEntity
  8
RACCORDO
100
AcDbPolyline
 62
250
  6
CONTINUOUS
 90
31
 70
0
 10
10.6151773436
 20
-23.9120471994
 10
10.6148343051
 20
-23.9251306854
 10
10.6138070152
 20
-23.938178312
 10
10.6120982896
 20
-23.9511543181
 10
10.6097128116
 20
-23.964023139
 10
10.6066571194
 20
-23.9767495035
 10
10.6029395881
 20
-23.9892985312
 10
10.5985704066
 20
-24.0016358275
 10
10.5935615501
 20
-24.0137275781
 10
10.5879267469
 20
-24.0255406419
 10
10.581681441
 20
-24.0370426415
 10
10.5748427496
 20
-24.048202052
 10
10.5674294162
 20
-24.0589882876
 10
10.5594617595
 20
-24.0693717853
 10
10.5509616172
 20
-24.0793240857
 10
10.5419522866
 20
-24.0888179116
 10
10.5324584607
 20
-24.0978272422
 10
10.5225061603
 20
-24.1063273845
 10
10.5121226626
 20
-24.1142950412
 10
10.501336427
 20
-24.1217083746
 10
10.4901770165
 20
-24.128547066
 10
10.4786750169
 20
-24.1347923719
 10
10.4668619531
 20
-24.1404271751
 10
10.4547702025
 20
-24.1454360316
 10
10.4424329062
 20
-24.1498052131
 10
10.4298838785
 20
-24.1535227444
 10
10.417157514
 20
-24.1565784366
 10
10.4042886931
 20
-24.1589639146
 10
10.391312687
 20
-24.1606726402
 10
10.3782650604
 20
-24.1616999301
 10
10.3651815744
 20
-24.1620429686
  0
LWPOLYLINE
  5
6BE
100
AcDbEntity
  8
ASSI
100
AcDbPolyline
 62
7
  6
CONTINUOUS
 90
31
 70
0
 10
10.6151773436
 20
-23.9120471994
 10
10.6148343051
 20
-23.9251306854
 10
10.6138070152
 20
-23.938178312
 10
10.6120982896
 20
-23.9511543181
 10
10.6097128116
 20
-23.964023139
 10
10.6066571194
 20
-23.9767495035
 10
10.6029395881
 20
-23.9892985312
 10
10.5985704066
 20
-24.0016358275
 10
10.5935615501
 20
-24.0137275781
 10
10.5879267469
 20
-24.0255406419
 10
10.581681441
 20
-24.0370426415
 10
10.5748427496
 20
-24.048202052
 10
10.5674294162
 20
-24.0589882876
 10
10.5594617595
 20
-24.0693717853
 10
10.5509616172
 20
-24.0793240857
 10
10.5419522866
 20
-24.0888179116
 10
10.5324584607
 20
-24.0978272422
 10
10.5225061603
 20
-24.1063273845
 10
10.5121226626
 20
-24.1142950412
 10
10.501336427
 20
-24.1217083746
 10
10.4901770165
 20
-24.128547066
 10
10.4786750169
 20
-24.1347923719
 10
10.4668619531
 20
-24.1404271751
 10
10.4547702025
 20
-24.1454360316
 10
10.4424329062
 20
-24.1498052131
 10
10.4298838785
 20
-24.1535227444
 10
10.417157514
 20
-24.1565784366
 10
10.4042886931
 20
-24.1589639146
 10
10.391312687
 20
-24.1606726402
 10
10.3782650604
 20
-24.1616999301
 10
10.3651815744
 20
-24.1620429686
  0
LINE
  5
6BF
100
AcDbEntity
  8
ASSI
100
AcDbLine
 62
7
  6
CONTINUOUS
 10
-4.2914039135
 20
-23.2885562683
 11
-4.2648543761
 21
-23.2582062278
  0
LINE
  5
6C0
100
AcDbEntity
  8
ASSI
100
AcDbLine
 62
7
  6
CONTINUOUS
 10
-4.2648543761
 20
-23.2582062278
 11
-4.2344958149
 21
-23.224029784
  0
LINE
  5
6C1
100
AcDbEntity
  8
ASSI
100
AcDbLine
 62
7
  6
CONTINUOUS
 10
-4.2344958149
 20
-23.224029784
 11
-4.200318538
 21
-23.1860315229
  0
LWPOLYLINE
  5
6C2
100
AcDbEntity
  8
ASSI
100
AcDbPolyline
 62
7
  6
CONTINUOUS
 90
3
 70
0
 10
-4.200318538
 20
-23.1860315229
 10
-4.1420210651
 20
-23.1219437461
 10
-4.1207863269
 20
-23.0987303827
  0
LINE
  5
6C3
100
AcDbEntity
  8
CURVE
100
AcDbLine
 62
250
  6
CONTINUOUS
 10
4.1851103788
 20
-11.1307004147
 11
3.970857314
 21
-11.3449863845
  0
LINE
  5
6C4
100
AcDbEntity
  8
CURVE
100
AcDbLine
 62
250
  6
CONTINUOUS
 10
6.4704765519
 20
-9.6664149218
 11
6.6847296167
 21
-9.4521289521
  0
LINE
  5
6C5
100
AcDbEntity
  8
0
100
AcDbLine
 62
250
  6
CONTINUOUS
 10
-3.0119936364
 20
-19.418457826
 11
-2.9096932495
 21
-19.3161574391
  0
LINE
  5
6C6
100
AcDbEntity
  8
0
100
AcDbLine
 62
7
  6
CONTINUOUS
 10
-2.5748637146
 20
-19.4108276949
 11
-2.4875617909
 21
-19.3235257711
  0
LINE
  5
6C7
100
AcDbEntity
  8
CURVE
100
AcDbLine
 62
250
  6
CONTINUOUS
 10
3.970857314
 20
-13.7021290117
 11
4.1851103788
 21
-13.4878433996
  0
LINE
  5
6C8
100
AcDbEntity
  8
CURVE
100
AcDbLine
 62
250
  6
CONTINUOUS
 10
7.9702480947
 20
-9.7735577279
 11
7.7559950075
 21
-9.98784334
  0
LINE
  5
6C9
100
AcDbEntity
  8
CURVE
100
AcDbLine
 62
250
  6
CONTINUOUS
 10
5.2563757696
 20
-9.4164148026
 11
5.0421226825
 21
-9.5235579663
  0
LINE
  5
6CA
100
AcDbEntity
  8
CURVE
100
AcDbLine
 62
250
  6
CONTINUOUS
 10
6.6847296167
 20
-9.4521289521
 11
6.8989826814
 21
-9.3449861461
  0
LINE
  5
6CB
100
AcDbEntity
  8
CURVE
100
AcDbLine
 62
250
  6
CONTINUOUS
 10
7.7559950075
 20
-9.98784334
 11
7.5417419204
 21
-10.0949861461
  0
LINE
  5
6CC
100
AcDbEntity
  8
CURVE
100
AcDbLine
 62
250
  6
CONTINUOUS
 10
1.2212761523
 20
-12.6204732566
 11
1.9711619237
 21
-12.3098130848
  0
LINE
  5
6CD
100
AcDbEntity
  8
IMPORT_IGES
100
AcDbLine
 62
7
  6
CONTINUOUS
 10
3.6635491776
 20
11.8846161526
 11
0.8635491776
 21
11.6835851974
  0
LINE
  5
6CE
100
AcDbEntity
  8
IMPORT_IGES
100
AcDbLine
 62
7
  6
CONTINUOUS
 10
-4.0364508224
 20
11.5335851974
 11
0.8635491776
 21
11.5335851974
  0
LINE
  5
6CF
100
AcDbEntity
  8
IMPORT_IGES
100
AcDbLine
 62
7
  6
CONTINUOUS
 10
-4.0464508224
 20
11.6835851974
 11
0.8635491776
 21
11.6835851974
  0
LINE
  5
6D0
100
AcDbEntity
  8
IMPORT_IGES
100
AcDbLine
 62
7
  6
CONTINUOUS
 10
-5.4220914684
 20
12.0319191475
 11
3.6635491776
 21
12.0319191475
  0
LINE
  5
6D1
100
AcDbEntity
  8
IMPORT_IGES
100
AcDbLine
 62
7
  6
CONTINUOUS
 10
11.1635491776
 20
12.7335851974
 11
11.1195491776
 21
12.7335851974
  0
LINE
  5
6D2
100
AcDbEntity
  8
IMPORT_IGES
100
AcDbLine
 62
7
  6
CONTINUOUS
 10
5.9695491776
 20
12.7335851974
 11
-6.3364508224
 21
12.7335851974
  0
LINE
  5
6D3
100
AcDbEntity
  8
IMPORT_IGES
100
AcDbLine
 62
250
  6
CONTINUOUS
 10
3.6635491776
 20
13.0335851974
 11
-2.8364508218
 21
13.0335851974
  0
LINE
  5
6D4
100
AcDbEntity
  8
IMPORT_IGES
100
AcDbLine
 62
7
  6
CONTINUOUS
 10
-3.11223726
 20
12.9335851974
 11
-1.6429508409
 21
12.9335851424
  0
LINE
  5
6D5
100
AcDbEntity
  8
IMPORT_IGES
100
AcDbLine
 62
250
  6
CONTINUOUS
 10
-2.8349812184
 20
13.0024161437
 11
-2.8605936622
 21
13.0054852677
  0
LINE
  5
6D6
100
AcDbEntity
  8
IMPORT_IGES
100
AcDbLine
 62
250
  6
CONTINUOUS
 10
-2.8605936622
 20
13.0054852677
 11
-3.3797983596
 21
13.1183035836
  0
LWPOLYLINE
  5
6D7
100
AcDbEntity
  8
IMPORT_IGES
100
AcDbPolyline
 62
7
  6
CONTINUOUS
 90
10
 70
0
 10
-0.9826152558
 20
12.7335851974
 10
-1.0695507009
 20
12.7628528726
 10
-1.153067037
 20
12.7929469031
 10
-1.2331642641
 20
12.8230295675
 10
-1.3098051786
 20
12.8523771116
 10
-1.383026984
 20
12.8793513603
 10
-1.4529412919
 20
12.9019152814
 10
-1.5195853058
 20
12.9189483764
 10
-1.5829218222
 20
12.9297859273
 10
-1.6429508409
 20
12.9335851424
  0
LINE
  5
6D8
100
AcDbEntity
  8
0
100
AcDbLine
 62
250
  6
CONTINUOUS
 10
-2.9096932495
 20
19.9833278339
 11
-3.0119936364
 21
20.0856282208
  0
LINE
  5
6D9
100
AcDbEntity
  8
0
100
AcDbLine
 62
7
  6
CONTINUOUS
 10
-2.4875617909
 20
19.9906961659
 11
-2.5748637146
 21
20.0779980896
  0
LINE
  5
6DA
100
AcDbEntity
  8
ASSI
100
AcDbLine
 62
7
  6
CONTINUOUS
 10
-4.1422004516
 20
23.7916052724
 11
-4.2005488245
 21
23.8555267589
  0
LINE
  5
6DB
100
AcDbEntity
  8
ASSI
100
AcDbLine
 62
7
  6
CONTINUOUS
 10
-4.2005488245
 20
23.8555267589
 11
-4.2347652603
 21
23.8934239852
  0
LINE
  5
6DC
100
AcDbEntity
  8
ASSI
100
AcDbLine
 62
7
  6
CONTINUOUS
 10
-4.2347652603
 20
23.8934239852
 11
-4.2651487758
 21
23.9274869437
  0
LWPOLYLINE
  5
6DD
100
AcDbEntity
  8
ASSI
100
AcDbPolyline
 62
7
  6
CONTINUOUS
 90
18
 70
0
 10
-4.2651487758
 20
23.9274869437
 10
-4.291698858
 20
23.9576978151
 10
-4.3036052104
 20
23.9714478685
 10
-4.3146234238
 20
23.9843174422
 10
-4.3247649344
 20
23.9963073574
 10
-4.3340742009
 20
24.0074918671
 10
-4.3425540327
 20
24.0178674606
 10
-4.3502243902
 20
24.0274376487
 10
-4.3571391408
 20
24.0362872164
 10
-4.3633135405
 20
24.044436281
 10
-4.3687371786
 20
24.0518647252
 10
-4.3734155785
 20
24.0585969825
 10
-4.3773580658
 20
24.0646289788
 10
-4.3805724992
 20
24.0699647882
 10
-4.3830671593
 20
24.0746410663
 10
-4.3848560264
 20
24.0786700317
 10
-4.3859559201
 20
24.0820394658
 10
-4.3863835551
 20
24.0847493687
  0
LINE
  5
6DE
100
AcDbEntity
  8
RACCORDO
100
AcDbLine
 62
7
  6
CONTINUOUS
 10
10.6170046518
 20
-23.9519971688
 11
10.6150315454
 21
-23.9637310901
  0
LWPOLYLINE
  5
6DF
100
AcDbEntity
  8
ASSI
100
AcDbPolyline
 62
7
  6
CONTINUOUS
 90
6
 70
0
 10
10.6170046518
 20
-23.9519971688
 10
10.6150315454
 20
-23.9637310901
 10
10.6125023593
 20
-23.9753578414
 10
10.6094228193
 20
-23.9868510816
 10
10.605799899
 20
-23.9981847764
 10
10.6016418034
 20
-24.0093332519
  0
LWPOLYLINE
  5
6E0
100
AcDbEntity
  8
ASSI
100
AcDbPolyline
 62
7
  6
CONTINUOUS
 90
3
 70
0
 10
-4.1207863269
 20
-23.0987303827
 10
-4.0299659099
 20
-23.0001438996
 10
-3.95842081
 20
-22.9227726173
  0
LINE
  5
6E1
100
AcDbEntity
  8
CURVE
100
AcDbLine
 62
250
  6
CONTINUOUS
 10
7.3274888557
 20
-10.5235577279
 11
7.1132357462
 21
-10.73784334
  0
LINE
  5
6E2
100
AcDbEntity
  8
CURVE
100
AcDbLine
 62
250
  6
CONTINUOUS
 10
3.970857314
 20
-14.8807005041
 11
4.1851103788
 21
-14.6664148026
  0
LINE
  5
6E3
100
AcDbEntity
  8
CURVE
100
AcDbLine
 62
250
  6
CONTINUOUS
 10
7.7559950075
 20
-11.2735577279
 11
7.9702480947
 21
-11.0592721158
  0
LINE
  5
6E4
100
AcDbEntity
  8
ASSI
100
AcDbLine
 62
7
  6
CONTINUOUS
 10
-4.4304508224
 20
-23.4664148026
 11
-4.3868001755
 21
-23.4227641558
  0
LINE
  5
6E5
100
AcDbEntity
  8
CURVE
100
AcDbLine
 62
250
  6
CONTINUOUS
 10
5.4706288568
 20
-13.8092719966
 11
5.2563757696
 21
-14.0235576087
  0
LINE
  5
6E6
100
AcDbEntity
  8
CURVE
100
AcDbLine
 62
250
  6
CONTINUOUS
 10
6.4704765519
 20
-13.1664148026
 11
6.6847296167
 21
-12.9521290117
  0
LINE
  5
6E7
100
AcDbEntity
  8
CURVE
100
AcDbLine
 62
250
  6
CONTINUOUS
 10
4.1851103788
 20
-13.4878433996
 11
4.3993634436
 21
-13.3807005936
  0
LINE
  5
6E8
100
AcDbEntity
  8
CURVE
100
AcDbLine
 62
250
  6
CONTINUOUS
 10
1.2212761523
 20
-13.8631139437
 11
2.7210476951
 21
-13.2417936002
  0
LINE
  5
6E9
100
AcDbEntity
  8
0
100
AcDbLine
 62
7
  6
CONTINUOUS
 10
-0.0304508224
 20
13.1970431194
 11
-6.5304508224
 21
13.0835851974
  0
LINE
  5
6EA
100
AcDbEntity
  8
0
100
AcDbLine
 62
7
  6
CONTINUOUS
 10
-0.0304508224
 20
13.1883155869
 11
5.9695491776
 21
13.0835851974
  0
LINE
  5
6EB
100
AcDbEntity
  8
ASSI
100
AcDbLine
 62
7
  6
CONTINUOUS
 10
-0.0304508224
 20
13.1883155869
 11
5.9695491776
 21
13.0835851974
  0
LINE
  5
6EC
100
AcDbEntity
  8
ASSI
100
AcDbLine
 62
7
  6
CONTINUOUS
 10
-4.4304508224
 20
24.1335851974
 11
-4.3867665264
 21
24.0899009014
  0
LINE
  5
6ED
100
AcDbEntity
  8
ASSI
100
AcDbLine
 62
7
  6
CONTINUOUS
 10
-3.95842081
 20
23.5928434162
 11
-4.0535471286
 21
23.6954254892
  0
LINE
  5
6EE
100
AcDbEntity
  8
ASSI
100
AcDbLine
 62
7
  6
CONTINUOUS
 10
-4.0535471286
 20
23.6954254892
 11
-4.1422004516
 21
23.7916052724
  0
LWPOLYLINE
  5
6EF
100
AcDbEntity
  8
RACCORDO
100
AcDbPolyline
 62
7
  6
CONTINUOUS
 90
5
 70
0
 10
10.6150315454
 20
24.6309014849
 10
10.6170046518
 20
24.6191675635
 10
10.6184172119
 20
24.6073530529
 10
10.6192660274
 20
24.5954847134
 10
10.6195491776
 20
24.5835894282
  0
LWPOLYLINE
  5
6F0
100
AcDbEntity
  8
RACCORDO
100
AcDbPolyline
 62
7
  6
CONTINUOUS
 90
26
 70
0
 10
10.6150315454
 20
-23.9637310901
 10
10.6125023593
 20
-23.9753578414
 10
10.6094228193
 20
-23.9868510816
 10
10.605799899
 20
-23.9981847764
 10
10.6016418034
 20
-24.0093332519
 10
10.5969579498
 20
-24.0202712489
 10
10.5917589465
 20
-24.0309739902
 10
10.5860565693
 20
-24.0414172309
 10
10.5798637358
 20
-24.0515773085
 10
10.5731944731
 20
-24.0614312078
 10
10.5660638883
 20
-24.0709566065
 10
10.5584881365
 20
-24.0801319217
 10
10.5504843781
 20
-24.0889363687
 10
10.5420707437
 20
-24.0973500031
 10
10.5332662967
 20
-24.1053537615
 10
10.5240909815
 20
-24.1129295133
 10
10.5145655827
 20
-24.1200600981
 10
10.5047116835
 20
-24.1267293608
 10
10.4945516059
 20
-24.1329221943
 10
10.4841083652
 20
-24.1386245715
 10
10.4734056239
 20
-24.1438235748
 10
10.4624676269
 20
-24.1485074284
 10
10.4513191514
 20
-24.152665524
 10
10.4399854566
 20
-24.1562884443
 10
10.4284922164
 20
-24.1593679843
 10
10.4168654651
 20
-24.1618971704
  0
LINE
  5
6F1
100
AcDbEntity
  8
CURVE
100
AcDbLine
 62
250
  6
CONTINUOUS
 10
5.4706288568
 20
-14.9878433996
 11
5.2563757696
 21
-15.2021291011
  0
LINE
  5
6F2
100
AcDbEntity
  8
CURVE
100
AcDbLine
 62
250
  6
CONTINUOUS
 10
7.9702480947
 20
-13.2735576981
 11
7.7559950075
 21
-13.4878433996
  0
LINE
  5
6F3
100
AcDbEntity
  8
CURVE
100
AcDbLine
 62
250
  6
CONTINUOUS
 10
7.3274888557
 20
-14.0235576534
 11
7.1132357462
 21
-14.2378433549
  0
LINE
  5
6F4
100
AcDbEntity
  8
CURVE
100
AcDbLine
 62
250
  6
CONTINUOUS
 10
6.6847296167
 20
-12.9521290117
 11
6.8989826814
 21
-12.8449862057
  0
LINE
  5
6F5
100
AcDbEntity
  8
CURVE
100
AcDbLine
 62
250
  6
CONTINUOUS
 10
5.2563757696
 20
-14.0235576087
 11
5.0421226825
 21
-14.1307005936
  0
LINE
  5
6F6
100
AcDbEntity
  8
CURVE
100
AcDbLine
 62
250
  6
CONTINUOUS
 10
4.1851103788
 20
-14.6664148026
 11
4.3993634436
 21
-14.5592719966
  0
LINE
  5
6F7
100
AcDbEntity
  8
CURVE
100
AcDbLine
 62
250
  6
CONTINUOUS
 10
7.7559950075
 20
-13.4878433996
 11
7.5417419204
 21
-13.5949862057
  0
LINE
  5
6F8
100
AcDbEntity
  8
CURVE
100
AcDbLine
 62
250
  6
CONTINUOUS
 10
5.2563757696
 20
-15.2021291011
 11
5.0421226825
 21
-15.3092719072
  0
LINE
  5
6F9
100
AcDbEntity
  8
CURVE
100
AcDbLine
 62
250
  6
CONTINUOUS
 10
1.2212761523
 20
-15.1057546309
 11
2.7210476951
 21
-14.4844342873
  0
LINE
  5
6FA
100
AcDbEntity
  8
CURVE
100
AcDbLine
 62
250
  6
CONTINUOUS
 10
1.9744946997
 20
15.6460851974
 11
3.2243043559
 21
15.6460851974
  0
LINE
  5
6FB
100
AcDbEntity
  8
CURVE
100
AcDbLine
 62
250
  6
CONTINUOUS
 10
1.9744946997
 20
16.5835851974
 11
3.6409075746
 21
16.5835851974
  0
LINE
  5
6FC
100
AcDbEntity
  8
CURVE
100
AcDbLine
 62
250
  6
CONTINUOUS
 10
3.2243043559
 20
15.6460851974
 11
4.2658123841
 21
15.3335851974
  0
LINE
  5
6FD
100
AcDbEntity
  8
CURVE
100
AcDbLine
 62
250
  6
CONTINUOUS
 10
3.6409075746
 20
16.2710851974
 11
3.2243043559
 21
16.5835851974
  0
LWPOLYLINE
  5
6FE
100
AcDbEntity
  8
RACCORDO
100
AcDbPolyline
 62
250
  6
CONTINUOUS
 90
5
 70
0
 10
10.6097103858
 20
24.6312049437
 10
10.6120969285
 20
24.618333304
 10
10.6138064116
 20
24.6053544466
 10
10.6148341546
 20
24.5923039483
 10
10.6151773436
 20
24.5792175942
  0
LWPOLYLINE
  5
6FF
100
AcDbEntity
  8
ASSI
100
AcDbPolyline
 62
7
  6
CONTINUOUS
 90
8
 70
0
 10
3.4982803862
 20
-23.368682946
 10
3.5051948613
 20
-23.3597390609
 10
3.5128713644
 20
-23.3500703417
 10
3.5213564095
 20
-23.3396035751
 10
3.5306622713
 20
-23.3283412142
 10
3.5407933551
 20
-23.3162808059
 10
3.5518013766
 20
-23.3033417773
 10
3.5636997469
 20
-23.2895219136
  0
LINE
  5
700
100
AcDbEntity
  8
0
100
AcDbLine
 62
250
  6
CONTINUOUS
 10
10.1370015841
 20
17.269371635
 11
11.1195491776
 21
17.269371635
  0
LINE
  5
701
100
AcDbEntity
  8
ASSI
100
AcDbLine
 62
250
  6
CONTINUOUS
 10
10.1370015841
 20
17.269371635
 11
11.1195491776
 21
17.269371635
  0
LINE
  5
702
100
AcDbEntity
  8
0
100
AcDbLine
 62
250
  6
CONTINUOUS
 10
-10.1979032288
 20
17.269371635
 11
-11.1804508224
 21
17.269371635
  0
LWPOLYLINE
  5
703
100
AcDbEntity
  8
ASSI
100
AcDbPolyline
 62
7
  6
CONTINUOUS
 90
10
 70
0
 10
3.4981647716
 20
24.0371145728
 10
3.4920349715
 20
24.0452321107
 10
3.4866612518
 20
24.05262551
 10
3.4820395195
 20
24.0593170987
 10
3.4781605756
 20
24.0653020183
 10
3.4750163095
 20
24.0705851274
 10
3.4725985177
 20
24.0752033299
 10
3.4708928821
 20
24.0791689273
 10
3.4698821343
 20
24.082469618
 10
3.4695491776
 20
24.0851054022
  0
LWPOLYLINE
  5
704
100
AcDbEntity
  8
ASSI
100
AcDbPolyline
 62
7
  6
CONTINUOUS
 90
18
 70
0
 10
10.6016418034
 20
-24.0093332519
 10
10.5969579498
 20
-24.0202712489
 10
10.5917589465
 20
-24.0309739902
 10
10.5860565693
 20
-24.0414172309
 10
10.5798637358
 20
-24.0515773085
 10
10.5731944731
 20
-24.0614312078
 10
10.5660638883
 20
-24.0709566065
 10
10.5584881365
 20
-24.0801319217
 10
10.5504843781
 20
-24.0889363687
 10
10.5420707437
 20
-24.0973500031
 10
10.5332662967
 20
-24.1053537615
 10
10.5240909815
 20
-24.1129295133
 10
10.5145655827
 20
-24.1200600981
 10
10.5047116835
 20
-24.1267293608
 10
10.4945516059
 20
-24.1329221943
 10
10.4841083652
 20
-24.1386245715
 10
10.4734056239
 20
-24.1438235748
 10
10.4624676269
 20
-24.1485074284
  0
LINE
  5
705
100
AcDbEntity
  8
ASSI
100
AcDbLine
 62
7
  6
CONTINUOUS
 10
3.5636997469
 20
-23.2895219136
 11
3.5902336476
 21
-23.2591723963
  0
LINE
  5
706
100
AcDbEntity
  8
ASSI
100
AcDbLine
 62
7
  6
CONTINUOUS
 10
3.5902336476
 20
-23.2591723963
 11
3.6206038425
 21
-23.2249697851
  0
LINE
  5
707
100
AcDbEntity
  8
ASSI
100
AcDbLine
 62
7
  6
CONTINUOUS
 10
3.6206038425
 20
-23.2249697851
 11
3.6548294917
 21
-23.186907525
  0
LINE
  5
708
100
AcDbEntity
  8
ASSI
100
AcDbLine
 62
7
  6
CONTINUOUS
 10
3.6548294917
 20
-23.186907525
 11
3.713280687
 21
-23.1226413296
  0
LINE
  5
709
100
AcDbEntity
  8
ASSI
100
AcDbLine
 62
7
  6
CONTINUOUS
 10
3.713280687
 20
-23.1226413296
 11
3.8975191653
 21
-22.9227726173
  0
LINE
  5
70A
100
AcDbEntity
  8
0
100
AcDbLine
 62
250
  6
CONTINUOUS
 10
6.6953777152
 20
-19.818901335
 11
7.2651772249
 21
-19.2390691414
  0
LINE
  5
70B
100
AcDbEntity
  8
ASSI
100
AcDbLine
 62
250
  6
CONTINUOUS
 10
6.6953777152
 20
-19.818901335
 11
7.2651772249
 21
-19.2390691414
  0
LINE
  5
70C
100
AcDbEntity
  8
0
100
AcDbLine
 62
7
  6
CONTINUOUS
 10
7.0432767366
 20
-20.1693559671
 11
7.9695491776
 21
-19.2267742832
  0
LINE
  5
70D
100
AcDbEntity
  8
ASSI
100
AcDbLine
 62
7
  6
CONTINUOUS
 10
7.0432767366
 20
-20.1693559671
 11
7.9695491776
 21
-19.2267742832
  0
LINE
  5
70E
100
AcDbEntity
  8
0
100
AcDbLine
 62
250
  6
CONTINUOUS
 10
8.5219178676
 20
-18.2172849567
 11
10.1370015841
 21
-16.6022012403
  0
LINE
  5
70F
100
AcDbEntity
  8
ASSI
100
AcDbLine
 62
250
  6
CONTINUOUS
 10
8.5219178676
 20
-18.2172849567
 11
10.1370015841
 21
-16.6022012403
  0
LWPOLYLINE
  5
710
100
AcDbEntity
  8
ASSI
100
AcDbPolyline
 62
7
  6
CONTINUOUS
 90
11
 70
0
 10
-8.4158916348
 20
-24.1386245715
 10
-8.4265943761
 20
-24.1438235748
 10
-8.4375323731
 20
-24.1485074284
 10
-8.4486808486
 20
-24.152665524
 10
-8.4600145434
 20
-24.1562884443
 10
-8.4715077836
 20
-24.1593679843
 10
-8.4831345349
 20
-24.1618971704
 10
-8.4948684562
 20
-24.1638702768
 10
-8.5066829668
 20
-24.1652828369
 10
-8.5185513064
 20
-24.1661316524
 10
-8.5304465916
 20
-24.1664148026
  0
LINE
  5
711
100
AcDbEntity
  8
0
100
AcDbLine
 62
250
  6
CONTINUOUS
 10
-0.0304508224
 20
19.0337375022
 11
-8.5828195124
 21
18.8844553514
  0
LINE
  5
712
100
AcDbEntity
  8
0
100
AcDbLine
 62
7
  6
CONTINUOUS
 10
-0.0304508224
 20
20.0335851974
 11
-8.5828195124
 21
19.8843030466
  0
LINE
  5
713
100
AcDbEntity
  8
0
100
AcDbLine
 62
7
  6
CONTINUOUS
 10
-6.0304508224
 20
20.1288548078
 11
-5.7594469854
 21
20.1335851974
  0
LINE
  5
714
100
AcDbEntity
  8
DRAFT
100
AcDbLine
 62
7
  6
CONTINUOUS
 10
-6.2786721371
 20
19.9818065121
 11
-7.3822295077
 21
19.9818065121
  0
LINE
  5
715
100
AcDbEntity
  8
ASSI
100
AcDbLine
 62
7
  6
CONTINUOUS
 10
-6.2786721371
 20
19.9818065121
 11
-7.3822295077
 21
19.9818065121
  0
LINE
  5
716
100
AcDbEntity
  8
RACCORDO
100
AcDbLine
 62
250
  6
CONTINUOUS
 10
-7.2734293209
 20
20.0906066988
 11
-6.3874723238
 21
20.0906066988
  0
LINE
  5
717
100
AcDbEntity
  8
ASSI
100
AcDbLine
 62
7
  6
CONTINUOUS
 10
-7.2734293209
 20
20.0906066988
 11
-6.3874723238
 21
20.0906066988
  0
LINE
  5
718
100
AcDbEntity
  8
RACCORDO
100
AcDbLine
 62
250
  6
CONTINUOUS
 10
-7.2722725243
 20
20.2906033142
 11
-6.8810151788
 21
20.2906033142
  0
LINE
  5
719
100
AcDbEntity
  8
ASSI
100
AcDbLine
 62
250
  6
CONTINUOUS
 10
-7.2722725243
 20
20.2906033142
 11
-6.8810151788
 21
20.2906033142
  0
LINE
  5
71A
100
AcDbEntity
  8
0
100
AcDbLine
 62
250
  6
CONTINUOUS
 10
8.5219178676
 20
18.8844553514
 11
-0.0304508224
 21
19.0337375022
  0
LINE
  5
71B
100
AcDbEntity
  8
ASSI
100
AcDbLine
 62
250
  6
CONTINUOUS
 10
8.5219178676
 20
18.8844553514
 11
-0.0304508224
 21
19.0337375022
  0
LINE
  5
71C
100
AcDbEntity
  8
0
100
AcDbLine
 62
7
  6
CONTINUOUS
 10
8.5219178676
 20
19.8843030466
 11
-6.5391770256
 21
20.1471954358
  0
LINE
  5
71D
100
AcDbEntity
  8
ASSI
100
AcDbLine
 62
7
  6
CONTINUOUS
 10
8.5219178676
 20
19.8843030466
 11
-6.5391770256
 21
20.1471954358
  0
LWPOLYLINE
  5
71E
100
AcDbEntity
  8
ASSI
100
AcDbPolyline
 62
7
  6
CONTINUOUS
 90
18
 70
0
 10
-8.4375323731
 20
24.8156778231
 10
-8.4265943761
 20
24.8109939695
 10
-8.4158916348
 20
24.8057949662
 10
-8.4054483941
 20
24.800092589
 10
-8.3952883165
 20
24.7938997555
 10
-8.3854344173
 20
24.7872304928
 10
-8.3759090185
 20
24.7800999081
 10
-8.3667337033
 20
24.7725241562
 10
-8.3579292563
 20
24.7645203979
 10
-8.3495156219
 20
24.7561067635
 10
-8.3415118635
 20
24.7473023164
 10
-8.3339361117
 20
24.7381270012
 10
-8.3268055269
 20
24.7286016025
 10
-8.3201362642
 20
24.7187477033
 10
-8.3139434307
 20
24.7085876256
 10
-8.3082410535
 20
24.698144385
 10
-8.3030420502
 20
24.6874416437
 10
-8.2983581966
 20
24.6765036467
  0
LWPOLYLINE
  5
71F
100
AcDbEntity
  8
0
100
AcDbPolyline
 62
250
  6
CONTINUOUS
 90
34
 70
0
 10
6.6953777152
 20
20.4860717297
 10
6.6702317388
 20
20.5110531574
 10
6.6445726905
 20
20.5353803153
 10
6.6184005704
 20
20.5590532034
 10
6.5917121709
 20
20.5820723116
 10
6.5645106996
 20
20.60443715
 10
6.5368057785
 20
20.6261462492
 10
6.5085843482
 20
20.6472107318
 10
6.4798594681
 20
20.6676194753
 10
6.4506799386
 20
20.6873376422
 10
6.4210455521
 20
20.7063636554
 10
6.3909565162
 20
20.7246990921
 10
6.3604622544
 20
20.7423138464
 10
6.329561974
 20
20.7592068105
 10
6.2982564677
 20
20.7753790923
 10
6.2665975364
 20
20.7908039089
 10
6.2345846415
 20
20.8054800024
 10
6.2022183215
 20
20.8194086308
 10
6.169551993
 20
20.8325667855
 10
6.1365848438
 20
20.8449532738
 10
6.103317686
 20
20.8565692884
 10
6.0698063729
 20
20.867395399
 10
6.0360669319
 20
20.8774275673
 10
6.0020833356
 20
20.8866698315
 10
5.9678633554
 20
20.8951148761
 10
5.9333891194
 20
20.902767578
 10
5.8986784994
 20
20.9096230603
 10
5.8637928823
 20
20.9156593771
 10
5.8287248174
 20
20.9208748256
 10
5.7934817553
 20
20.9252711087
 10
5.7581474338
 20
20.928831389
 10
5.7227497656
 20
20.9315500541
 10
5.687260838
 20
20.9334327164
 10
5.6516806512
 20
20.934479376
  0
LWPOLYLINE
  5
720
100
AcDbEntity
  8
ASSI
100
AcDbPolyline
 62
250
  6
CONTINUOUS
 90
34
 70
0
 10
6.6953777152
 20
20.4860717297
 10
6.6702317388
 20
20.5110531574
 10
6.6445726905
 20
20.5353803153
 10
6.6184005704
 20
20.5590532034
 10
6.5917121709
 20
20.5820723116
 10
6.5645106996
 20
20.60443715
 10
6.5368057785
 20
20.6261462492
 10
6.5085843482
 20
20.6472107318
 10
6.4798594681
 20
20.6676194753
 10
6.4506799386
 20
20.6873376422
 10
6.4210455521
 20
20.7063636554
 10
6.3909565162
 20
20.7246990921
 10
6.3604622544
 20
20.7423138464
 10
6.329561974
 20
20.7592068105
 10
6.2982564677
 20
20.7753790923
 10
6.2665975364
 20
20.7908039089
 10
6.2345846415
 20
20.8054800024
 10
6.2022183215
 20
20.8194086308
 10
6.169551993
 20
20.8325667855
 10
6.1365848438
 20
20.8449532738
 10
6.103317686
 20
20.8565692884
 10
6.0698063729
 20
20.867395399
 10
6.0360669319
 20
20.8774275673
 10
6.0020833356
 20
20.8866698315
 10
5.9678633554
 20
20.8951148761
 10
5.9333891194
 20
20.902767578
 10
5.8986784994
 20
20.9096230603
 10
5.8637928823
 20
20.9156593771
 10
5.8287248174
 20
20.9208748256
 10
5.7934817553
 20
20.9252711087
 10
5.7581474338
 20
20.928831389
 10
5.7227497656
 20
20.9315500541
 10
5.687260838
 20
20.9334327164
 10
5.6516806512
 20
20.934479376
  0
LINE
  5
721
100
AcDbEntity
  8
0
100
AcDbLine
 62
250
  6
CONTINUOUS
 10
10.1370015841
 20
17.269371635
 11
8.5219178676
 21
18.8844553514
  0
LINE
  5
722
100
AcDbEntity
  8
ASSI
100
AcDbLine
 62
250
  6
CONTINUOUS
 10
10.1370015841
 20
17.269371635
 11
8.5219178676
 21
18.8844553514
  0
LINE
  5
723
100
AcDbEntity
  8
0
100
AcDbLine
 62
250
  6
CONTINUOUS
 10
7.2651772249
 20
19.9062395361
 11
6.6953777152
 21
20.4860717297
  0
LINE
  5
724
100
AcDbEntity
  8
ASSI
100
AcDbLine
 62
250
  6
CONTINUOUS
 10
7.2651772249
 20
19.9062395361
 11
6.6953777152
 21
20.4860717297
  0
LINE
  5
725
100
AcDbEntity
  8
0
100
AcDbLine
 62
7
  6
CONTINUOUS
 10
7.9695491776
 20
19.8939446779
 11
7.0432767366
 21
20.8365263619
  0
LINE
  5
726
100
AcDbEntity
  8
ASSI
100
AcDbLine
 62
7
  6
CONTINUOUS
 10
7.9695491776
 20
19.8939446779
 11
7.0432767366
 21
20.8365263619
  0
LINE
  5
727
100
AcDbEntity
  8
ASSI
100
AcDbLine
 62
7
  6
CONTINUOUS
 10
3.8975191653
 20
23.5928434162
 11
3.8020778032
 21
23.6957655053
  0
LINE
  5
728
100
AcDbEntity
  8
ASSI
100
AcDbLine
 62
7
  6
CONTINUOUS
 10
3.8020778032
 20
23.6957655053
 11
3.7130947804
 21
23.7923076752
  0
LINE
  5
729
100
AcDbEntity
  8
ASSI
100
AcDbLine
 62
7
  6
CONTINUOUS
 10
3.7130947804
 20
23.7923076752
 11
3.654591459
 21
23.8564080923
  0
LINE
  5
72A
100
AcDbEntity
  8
ASSI
100
AcDbLine
 62
7
  6
CONTINUOUS
 10
3.654591459
 20
23.8564080923
 11
3.6203261629
 21
23.8943694232
  0
LINE
  5
72B
100
AcDbEntity
  8
ASSI
100
AcDbLine
 62
7
  6
CONTINUOUS
 10
3.6203261629
 20
23.8943694232
 11
3.5899310498
 21
23.928458154
  0
LWPOLYLINE
  5
72C
100
AcDbEntity
  8
ASSI
100
AcDbPolyline
 62
7
  6
CONTINUOUS
 90
9
 70
0
 10
3.5899310498
 20
23.928458154
 10
3.5633972629
 20
23.9586674151
 10
3.5515079819
 20
23.9724080121
 10
3.5405129076
 20
23.9852626135
 10
3.5303996067
 20
23.9972324293
 10
3.5211209437
 20
24.0083947991
 10
3.5126737002
 20
24.0187477338
 10
3.5050393323
 20
24.0282932227
 10
3.4981647716
 20
24.0371145728
  0
LWPOLYLINE
  5
72D
100
AcDbEntity
  8
ASSI
100
AcDbPolyline
 62
7
  6
CONTINUOUS
 90
9
 70
0
 10
10.6016418034
 20
24.6765036467
 10
10.605799899
 20
24.6653551711
 10
10.6094228193
 20
24.6540214764
 10
10.6125023593
 20
24.6425282362
 10
10.6150315454
 20
24.6309014849
 10
10.6170046518
 20
24.6191675635
 10
10.6184172119
 20
24.6073530529
 10
10.6192660274
 20
24.5954847134
 10
10.6195491776
 20
24.5835894282
  0
LINE
  5
72E
100
AcDbEntity
  8
0
100
AcDbLine
 62
7
  6
CONTINUOUS
 10
9.2115722424
 20
-18.9243917379
 11
10.8266559588
 21
-17.3093080214
  0
LINE
  5
72F
100
AcDbEntity
  8
ASSI
100
AcDbLine
 62
7
  6
CONTINUOUS
 10
9.2115722424
 20
-18.9243917379
 11
10.8266559588
 21
-17.3093080214
  0
LINE
  5
730
100
AcDbEntity
  8
RACCORDO
100
AcDbLine
 62
7
  6
CONTINUOUS
 10
7.2282760454
 20
-22.0576879348
 11
8.2195491776
 21
-21.0664148026
  0
LINE
  5
731
100
AcDbEntity
  8
ASSI
100
AcDbLine
 62
7
  6
CONTINUOUS
 10
7.2282760454
 20
-22.0576879348
 11
8.2195491776
 21
-21.0664148026
  0
LWPOLYLINE
  5
732
100
AcDbEntity
  8
RACCORDO
100
AcDbPolyline
 62
7
  6
CONTINUOUS
 90
8
 70
0
 10
-8.4486808486
 20
-24.152665524
 10
-8.4600145434
 20
-24.1562884443
 10
-8.4715077836
 20
-24.1593679843
 10
-8.4831345349
 20
-24.1618971704
 10
-8.4948684562
 20
-24.1638702768
 10
-8.5066829668
 20
-24.1652828369
 10
-8.5185513064
 20
-24.1661316524
 10
-8.5304465916
 20
-24.1664148026
  0
LWPOLYLINE
  5
733
100
AcDbEntity
  8
RACCORDO
100
AcDbPolyline
 62
250
  6
CONTINUOUS
 90
7
 70
0
 10
-8.4576280481
 20
-24.1498250113
 10
-8.4701822327
 20
-24.153540451
 10
-8.4829136979
 20
-24.1565935644
 10
-8.4957794167
 20
-24.1589746946
 10
-8.5087411912
 20
-24.1606782988
 10
-8.5217660856
 20
-24.1617015614
 10
-8.5348184256
 20
-24.1620429686
  0
LINE
  5
734
100
AcDbEntity
  8
0
100
AcDbLine
 62
250
  6
CONTINUOUS
 10
-5.0653556352
 20
20.9457767594
 11
-0.0304508224
 21
21.0336613498
  0
LINE
  5
735
100
AcDbEntity
  8
ASSI
100
AcDbLine
 62
250
  6
CONTINUOUS
 10
-5.0653556352
 20
20.9457767594
 11
-0.0304508224
 21
21.0336613498
  0
LINE
  5
736
100
AcDbEntity
  8
0
100
AcDbLine
 62
7
  6
CONTINUOUS
 10
-6.5391770256
 20
21.4199749589
 11
-0.0304508224
 21
21.5335851974
  0
LINE
  5
737
100
AcDbEntity
  8
ASSI
100
AcDbLine
 62
7
  6
CONTINUOUS
 10
-6.5391770256
 20
21.4199749589
 11
-0.0304508224
 21
21.5335851974
  0
LINE
  5
738
100
AcDbEntity
  8
0
100
AcDbLine
 62
250
  6
CONTINUOUS
 10
-7.0304508224
 20
20.9200511113
 11
-5.0653556352
 21
20.9457767594
  0
LINE
  5
739
100
AcDbEntity
  8
ASSI
100
AcDbLine
 62
250
  6
CONTINUOUS
 10
-7.0304508224
 20
20.9200511113
 11
-5.0653556352
 21
20.9457767594
  0
LINE
  5
73A
100
AcDbEntity
  8
DRAFT
100
AcDbLine
 62
7
  6
CONTINUOUS
 10
-9.5251007445
 20
20.7671559617
 11
-7.3822295077
 21
20.7671559617
  0
LINE
  5
73B
100
AcDbEntity
  8
ASSI
100
AcDbLine
 62
7
  6
CONTINUOUS
 10
-9.5251007445
 20
20.7671559617
 11
-7.3822295077
 21
20.7671559617
  0
LINE
  5
73C
100
AcDbEntity
  8
DRAFT
100
AcDbLine
 62
7
  6
CONTINUOUS
 10
7.3213278629
 20
20.7671559617
 11
9.4641990998
 21
20.7671559617
  0
LINE
  5
73D
100
AcDbEntity
  8
ASSI
100
AcDbLine
 62
7
  6
CONTINUOUS
 10
7.3213278629
 20
20.7671559617
 11
9.4641990998
 21
20.7671559617
  0
LINE
  5
73E
100
AcDbEntity
  8
DRAFT
100
AcDbLine
 62
7
  6
CONTINUOUS
 10
9.6195491776
 20
21.2335851974
 11
8.2195491776
 21
21.2335851974
  0
LINE
  5
73F
100
AcDbEntity
  8
RACCORDO
100
AcDbLine
 62
7
  6
CONTINUOUS
 10
7.2113708795
 20
21.2335851974
 11
8.2195491776
 21
21.2335851974
  0
LINE
  5
740
100
AcDbEntity
  8
RACCORDO
100
AcDbLine
 62
7
  6
CONTINUOUS
 10
-7.2722725243
 20
21.2335851974
 11
-8.2804508224
 21
21.2335851974
  0
LINE
  5
741
100
AcDbEntity
  8
ASSI
100
AcDbLine
 62
7
  6
CONTINUOUS
 10
7.2113708795
 20
21.2335851974
 11
9.6195491776
 21
21.2335851974
  0
LINE
  5
742
100
AcDbEntity
  8
DRAFT
100
AcDbLine
 62
7
  6
CONTINUOUS
 10
-8.2804508224
 20
21.2335851974
 11
-9.6804508224
 21
21.2335851974
  0
LINE
  5
743
100
AcDbEntity
  8
ASSI
100
AcDbLine
 62
7
  6
CONTINUOUS
 10
-7.2722725243
 20
21.2335851974
 11
-9.6804508224
 21
21.2335851974
  0
LINE
  5
744
100
AcDbEntity
  8
RACCORDO
100
AcDbLine
 62
250
  6
CONTINUOUS
 10
7.5536498968
 20
21.6462784411
 11
2.9695491776
 21
21.6462784411
  0
LINE
  5
745
100
AcDbEntity
  8
ASSI
100
AcDbLine
 62
250
  6
CONTINUOUS
 10
7.5536498968
 20
21.6462784411
 11
2.9695491776
 21
21.6462784411
  0
LINE
  5
746
100
AcDbEntity
  8
RACCORDO
100
AcDbLine
 62
250
  6
CONTINUOUS
 10
-3.0304508224
 20
21.6462784411
 11
-7.6145515415
 21
21.6462784411
  0
LINE
  5
747
100
AcDbEntity
  8
ASSI
100
AcDbLine
 62
250
  6
CONTINUOUS
 10
-3.0304508224
 20
21.6462784411
 11
-7.6145515415
 21
21.6462784411
  0
LINE
  5
748
100
AcDbEntity
  8
0
100
AcDbLine
 62
7
  6
CONTINUOUS
 10
-3.0304508224
 20
22.0335851974
 11
2.9695491776
 21
22.0335851974
  0
LINE
  5
749
100
AcDbEntity
  8
ASSI
100
AcDbLine
 62
7
  6
CONTINUOUS
 10
-3.0304508224
 20
22.0335851974
 11
2.9695491776
 21
22.0335851974
  0
LINE
  5
74A
100
AcDbEntity
  8
0
100
AcDbLine
 62
250
  6
CONTINUOUS
 10
-7.0304508224
 20
20.6471192834
 11
-5.0653556352
 21
20.6213936354
  0
LINE
  5
74B
100
AcDbEntity
  8
ASSI
100
AcDbLine
 62
250
  6
CONTINUOUS
 10
-7.0304508224
 20
20.6471192834
 11
-5.0653556352
 21
20.6213936354
  0
LINE
  5
74C
100
AcDbEntity
  8
0
100
AcDbLine
 62
250
  6
CONTINUOUS
 10
-5.0653556352
 20
20.6213936354
 11
-0.0304508224
 21
20.5335090449
  0
LINE
  5
74D
100
AcDbEntity
  8
ASSI
100
AcDbLine
 62
250
  6
CONTINUOUS
 10
-5.0653556352
 20
20.6213936354
 11
-0.0304508224
 21
20.5335090449
  0
LINE
  5
74E
100
AcDbEntity
  8
0
100
AcDbLine
 62
250
  6
CONTINUOUS
 10
5.6516806512
 20
20.934479376
 11
-0.0304508224
 21
21.0336613498
  0
LINE
  5
74F
100
AcDbEntity
  8
ASSI
100
AcDbLine
 62
250
  6
CONTINUOUS
 10
5.6516806512
 20
20.934479376
 11
-0.0304508224
 21
21.0336613498
  0
LINE
  5
750
100
AcDbEntity
  8
0
100
AcDbLine
 62
7
  6
CONTINUOUS
 10
5.6516806512
 20
21.4344032236
 11
-0.0304508224
 21
21.5335851974
  0
LINE
  5
751
100
AcDbEntity
  8
ASSI
100
AcDbLine
 62
7
  6
CONTINUOUS
 10
5.6516806512
 20
21.4344032236
 11
-0.0304508224
 21
21.5335851974
  0
LINE
  5
752
100
AcDbEntity
  8
CURVE
100
AcDbLine
 62
250
  6
CONTINUOUS
 10
8.9782288341
 20
19.8249055409
 11
9.2115722424
 21
19.5915621326
  0
LINE
  5
753
100
AcDbEntity
  8
CURVE
100
AcDbLine
 62
250
  6
CONTINUOUS
 10
10.8266559588
 20
17.9764784162
 11
11.0995491776
 21
17.7035851974
  0
LINE
  5
754
100
AcDbEntity
  8
0
100
AcDbLine
 62
7
  6
CONTINUOUS
 10
10.8266559588
 20
17.9764784162
 11
9.2115722424
 21
19.5915621326
  0
LINE
  5
755
100
AcDbEntity
  8
ASSI
100
AcDbLine
 62
7
  6
CONTINUOUS
 10
10.8266559588
 20
17.9764784162
 11
9.2115722424
 21
19.5915621326
  0
LINE
  5
756
100
AcDbEntity
  8
RACCORDO
100
AcDbLine
 62
7
  6
CONTINUOUS
 10
8.2195491776
 20
21.7335851974
 11
7.2282760454
 21
22.7248583296
  0
LINE
  5
757
100
AcDbEntity
  8
ASSI
100
AcDbLine
 62
7
  6
CONTINUOUS
 10
8.2195491776
 20
21.7335851974
 11
7.2282760454
 21
22.7248583296
  0
LWPOLYLINE
  5
758
100
AcDbEntity
  8
RACCORDO
100
AcDbPolyline
 62
7
  6
CONTINUOUS
 90
11
 70
0
 10
-10.6804504532
 20
22.7335267458
 10
-10.7037034413
 20
22.7326165597
 10
-10.7269359355
 20
22.7305973616
 10
-10.7500946989
 20
22.7274668012
 10
-10.773154074
 20
22.7232192387
 10
-10.7960315995
 20
22.7178606952
 10
-10.8185912535
 20
22.7114221914
 10
-10.8407634767
 20
22.703930613
 10
-10.8625192713
 20
22.6954028713
 10
-10.8837893719
 20
22.6858736191
 10
-10.8919954279
 20
22.6818660358
  0
LWPOLYLINE
  5
759
100
AcDbEntity
  8
ASSI
100
AcDbPolyline
 62
7
  6
CONTINUOUS
 90
11
 70
0
 10
-10.6804504532
 20
22.7335267458
 10
-10.7037034413
 20
22.7326165597
 10
-10.7269359355
 20
22.7305973616
 10
-10.7500946989
 20
22.7274668012
 10
-10.773154074
 20
22.7232192387
 10
-10.7960315995
 20
22.7178606952
 10
-10.8185912535
 20
22.7114221914
 10
-10.8407634767
 20
22.703930613
 10
-10.8625192713
 20
22.6954028713
 10
-10.8837893719
 20
22.6858736191
 10
-10.8919954279
 20
22.6818660358
  0
LINE
  5
75A
100
AcDbEntity
  8
RACCORDO
100
AcDbLine
 62
7
  6
CONTINUOUS
 10
-10.6804508224
 20
22.7335262035
 11
-10.6728464788
 21
22.7335851974
  0
LINE
  5
75B
100
AcDbEntity
  8
ASSI
100
AcDbLine
 62
7
  6
CONTINUOUS
 10
-10.6804508224
 20
22.7335262035
 11
-10.6728464788
 21
22.7335851974
  0
LINE
  5
75C
100
AcDbEntity
  8
RACCORDO
100
AcDbLine
 62
250
  6
CONTINUOUS
 10
7.3068940109
 20
22.6462403641
 11
2.9695491776
 21
22.6462403641
  0
LINE
  5
75D
100
AcDbEntity
  8
ASSI
100
AcDbLine
 62
250
  6
CONTINUOUS
 10
7.3068940109
 20
22.6462403641
 11
2.9695491776
 21
22.6462403641
  0
LINE
  5
75E
100
AcDbEntity
  8
RACCORDO
100
AcDbLine
 62
250
  6
CONTINUOUS
 10
-3.0304508224
 20
22.6462403641
 11
-7.3677956556
 21
22.6462403641
  0
LINE
  5
75F
100
AcDbEntity
  8
ASSI
100
AcDbLine
 62
250
  6
CONTINUOUS
 10
-3.0304508224
 20
22.6462403641
 11
-7.3677956556
 21
22.6462403641
  0
LINE
  5
760
100
AcDbEntity
  8
DRAFT
100
AcDbLine
 62
7
  6
CONTINUOUS
 10
-3.5304508224
 20
22.6716244361
 11
-3.0304508224
 21
22.6716244361
  0
LINE
  5
761
100
AcDbEntity
  8
ASSI
100
AcDbLine
 62
7
  6
CONTINUOUS
 10
-3.5304508224
 20
22.6716244361
 11
-3.0304508224
 21
22.6716244361
  0
LINE
  5
762
100
AcDbEntity
  8
DRAFT
100
AcDbLine
 62
7
  6
CONTINUOUS
 10
2.9695491776
 20
22.6716244361
 11
3.4695491776
 21
22.6716244361
  0
LINE
  5
763
100
AcDbEntity
  8
ASSI
100
AcDbLine
 62
7
  6
CONTINUOUS
 10
2.9695491776
 20
22.6716244361
 11
3.4695491776
 21
22.6716244361
  0
LINE
  5
764
100
AcDbEntity
  8
RACCORDO
100
AcDbLine
 62
7
  6
CONTINUOUS
 10
10.629399899
 20
22.7248583296
 11
7.2282760454
 21
22.7248583296
  0
LINE
  5
765
100
AcDbEntity
  8
ASSI
100
AcDbLine
 62
7
  6
CONTINUOUS
 10
10.629399899
 20
22.7248583296
 11
7.2282760454
 21
22.7248583296
  0
LINE
  5
766
100
AcDbEntity
  8
RACCORDO
100
AcDbLine
 62
7
  6
CONTINUOUS
 10
-7.2891776902
 20
22.7248583296
 11
-10.6903015437
 21
22.7248583296
  0
LINE
  5
767
100
AcDbEntity
  8
ASSI
100
AcDbLine
 62
7
  6
CONTINUOUS
 10
-7.2891776902
 20
22.7248583296
 11
-10.6903015437
 21
22.7248583296
  0
LINE
  5
768
100
AcDbEntity
  8
RACCORDO
100
AcDbLine
 62
7
  6
CONTINUOUS
 10
-10.6728464788
 20
22.7335851974
 11
-8.2804508224
 21
22.7335851974
  0
LINE
  5
769
100
AcDbEntity
  8
DRAFT
100
AcDbLine
 62
7
  6
CONTINUOUS
 10
8.2195491776
 20
22.7335851974
 11
4.3695491776
 21
22.7335851974
  0
LINE
  5
76A
100
AcDbEntity
  8
DRAFT
100
AcDbLine
 62
7
  6
CONTINUOUS
 10
-4.4304508224
 20
22.7335851974
 11
-8.2804508224
 21
22.7335851974
  0
LINE
  5
76B
100
AcDbEntity
  8
RACCORDO
100
AcDbLine
 62
7
  6
CONTINUOUS
 10
8.2195491776
 20
22.7335851974
 11
10.6119448341
 21
22.7335851974
  0
LINE
  5
76C
100
AcDbEntity
  8
ASSI
100
AcDbLine
 62
7
  6
CONTINUOUS
 10
-4.4304508224
 20
22.7335851974
 11
-10.6728464788
 21
22.7335851974
  0
LINE
  5
76D
100
AcDbEntity
  8
ASSI
100
AcDbLine
 62
7
  6
CONTINUOUS
 10
4.3695491776
 20
22.7335851974
 11
10.6119448341
 21
22.7335851974
  0
LINE
  5
76E
100
AcDbEntity
  8
RACCORDO
100
AcDbLine
 62
7
  6
CONTINUOUS
 10
-10.4311738202
 20
23.4562349282
 11
-8.5297278245
 21
23.4562349282
  0
LINE
  5
76F
100
AcDbEntity
  8
ASSI
100
AcDbLine
 62
7
  6
CONTINUOUS
 10
-10.4311738202
 20
23.4562349282
 11
-8.5297278245
 21
23.4562349282
  0
LINE
  5
770
100
AcDbEntity
  8
RACCORDO
100
AcDbLine
 62
7
  6
CONTINUOUS
 10
8.4688261798
 20
23.4562349282
 11
10.3702721755
 21
23.4562349282
  0
LINE
  5
771
100
AcDbEntity
  8
ASSI
100
AcDbLine
 62
7
  6
CONTINUOUS
 10
8.4688261798
 20
23.4562349282
 11
10.3702721755
 21
23.4562349282
  0
LINE
  5
772
100
AcDbEntity
  8
RACCORDO
100
AcDbLine
 62
7
  6
CONTINUOUS
 10
10.6119448341
 20
22.7335851974
 11
10.6195491776
 21
22.7335262035
  0
LINE
  5
773
100
AcDbEntity
  8
ASSI
100
AcDbLine
 62
7
  6
CONTINUOUS
 10
10.6119448341
 20
22.7335851974
 11
10.6195491776
 21
22.7335262035
  0
LWPOLYLINE
  5
774
100
AcDbEntity
  8
RACCORDO
100
AcDbPolyline
 62
7
  6
CONTINUOUS
 90
34
 70
0
 10
-10.4260832192
 20
24.0335851974
 10
-10.4391076943
 20
24.0338387748
 10
-10.4520372665
 20
24.0344641735
 10
-10.4648378649
 20
24.0354613937
 10
-10.477487922
 20
24.036843059
 10
-10.4899440723
 20
24.0385965458
 10
-10.5021425858
 20
24.0406839823
 10
-10.5140432081
 20
24.043106451
 10
-10.5256336071
 20
24.0458628694
 10
-10.5368955921
 20
24.0489121188
 10
-10.5478067647
 20
24.0522546778
 10
-10.5583468694
 20
24.0558900676
 10
-10.5685027627
 20
24.0597757336
 10
-10.5782569042
 20
24.0639117218
 10
-10.5875936193
 20
24.068297986
 10
-10.5965039537
 20
24.0728918334
 10
-10.6049747966
 20
24.0776930588
 10
-10.6129945289
 20
24.0827018672
 10
-10.6205574323
 20
24.0878761806
 10
-10.6276543247
 20
24.0932156633
 10
-10.6342772338
 20
24.0987206509
 10
-10.6404229777
 20
24.104350073
 10
-10.6460858587
 20
24.1101035236
 10
-10.6512612159
 20
24.1159814086
 10
-10.6559479939
 20
24.121943875
 10
-10.6601436189
 20
24.1279904594
 10
-10.6638464691
 20
24.1341216252
 10
-10.6670574462
 20
24.1402989103
 10
-10.6697768132
 20
24.1465217692
 10
-10.6720057596
 20
24.1527907473
 10
-10.6737471224
 20
24.1590690185
 10
-10.6750038611
 20
24.1653443074
 10
-10.6757795659
 20
24.1716288895
 10
-10.6760789884
 20
24.1779227647
  0
LWPOLYLINE
  5
775
100
AcDbEntity
  8
ASSI
100
AcDbPolyline
 62
7
  6
CONTINUOUS
 90
34
 70
0
 10
-10.4260832192
 20
24.0335851974
 10
-10.4391076943
 20
24.0338387748
 10
-10.4520372665
 20
24.0344641735
 10
-10.4648378649
 20
24.0354613937
 10
-10.477487922
 20
24.036843059
 10
-10.4899440723
 20
24.0385965458
 10
-10.5021425858
 20
24.0406839823
 10
-10.5140432081
 20
24.043106451
 10
-10.5256336071
 20
24.0458628694
 10
-10.5368955921
 20
24.0489121188
 10
-10.5478067647
 20
24.0522546778
 10
-10.5583468694
 20
24.0558900676
 10
-10.5685027627
 20
24.0597757336
 10
-10.5782569042
 20
24.0639117218
 10
-10.5875936193
 20
24.068297986
 10
-10.5965039537
 20
24.0728918334
 10
-10.6049747966
 20
24.0776930588
 10
-10.6129945289
 20
24.0827018672
 10
-10.6205574323
 20
24.0878761806
 10
-10.6276543247
 20
24.0932156633
 10
-10.6342772338
 20
24.0987206509
 10
-10.6404229777
 20
24.104350073
 10
-10.6460858587
 20
24.1101035236
 10
-10.6512612159
 20
24.1159814086
 10
-10.6559479939
 20
24.121943875
 10
-10.6601436189
 20
24.1279904594
 10
-10.6638464691
 20
24.1341216252
 10
-10.6670574462
 20
24.1402989103
 10
-10.6697768132
 20
24.1465217692
 10
-10.6720057596
 20
24.1527907473
 10
-10.6737471224
 20
24.1590690185
 10
-10.6750038611
 20
24.1653443074
 10
-10.6757795659
 20
24.1716288895
 10
-10.6760789884
 20
24.1779227647
  0
LINE
  5
776
100
AcDbEntity
  8
RACCORDO
100
AcDbLine
 62
7
  6
CONTINUOUS
 10
-8.4948684562
 20
24.8310406715
 11
-8.4831345349
 21
24.8290675651
  0
LWPOLYLINE
  5
777
100
AcDbEntity
  8
ASSI
100
AcDbPolyline
 62
7
  6
CONTINUOUS
 90
6
 70
0
 10
-8.4948684562
 20
24.8310406715
 10
-8.4831345349
 20
24.8290675651
 10
-8.4715077836
 20
24.8265383791
 10
-8.4600145434
 20
24.8234588391
 10
-8.4486808486
 20
24.8198359187
 10
-8.4375323731
 20
24.8156778231
  0
LWPOLYLINE
  5
778
100
AcDbEntity
  8
RACCORDO
100
AcDbPolyline
 62
7
  6
CONTINUOUS
 90
26
 70
0
 10
-8.4831345349
 20
24.8290675651
 10
-8.4715077836
 20
24.8265383791
 10
-8.4600145434
 20
24.8234588391
 10
-8.4486808486
 20
24.8198359187
 10
-8.4375323731
 20
24.8156778231
 10
-8.4265943761
 20
24.8109939695
 10
-8.4158916348
 20
24.8057949662
 10
-8.4054483941
 20
24.800092589
 10
-8.3952883165
 20
24.7938997555
 10
-8.3854344173
 20
24.7872304928
 10
-8.3759090185
 20
24.7800999081
 10
-8.3667337033
 20
24.7725241562
 10
-8.3579292563
 20
24.7645203979
 10
-8.3495156219
 20
24.7561067635
 10
-8.3415118635
 20
24.7473023164
 10
-8.3339361117
 20
24.7381270012
 10
-8.3268055269
 20
24.7286016025
 10
-8.3201362642
 20
24.7187477033
 10
-8.3139434307
 20
24.7085876256
 10
-8.3082410535
 20
24.698144385
 10
-8.3030420502
 20
24.6874416437
 10
-8.2983581966
 20
24.6765036467
 10
-8.294200101
 20
24.6653551711
 10
-8.2905771807
 20
24.6540214764
 10
-8.2874976407
 20
24.6425282362
 10
-8.2849684546
 20
24.6309014849
  0
LINE
  5
779
100
AcDbEntity
  8
RACCORDO
100
AcDbLine
 62
250
  6
CONTINUOUS
 10
10.6180520907
 20
-22.0633614069
 11
10.6119448341
 21
-22.0664148026
  0
LINE
  5
77A
100
AcDbEntity
  8
ASSI
100
AcDbLine
 62
250
  6
CONTINUOUS
 10
10.6180520907
 20
-22.0633614069
 11
10.6119448341
 21
-22.0664148026
  0
LWPOLYLINE
  5
77B
100
AcDbEntity
  8
ASSI
100
AcDbPolyline
 62
7
  6
CONTINUOUS
 90
9
 70
0
 10
10.4624676269
 20
-24.1485074284
 10
10.4513191514
 20
-24.152665524
 10
10.4399854566
 20
-24.1562884443
 10
10.4284922164
 20
-24.1593679843
 10
10.4168654651
 20
-24.1618971704
 10
10.4051315438
 20
-24.1638702768
 10
10.3933170332
 20
-24.1652828369
 10
10.3814486936
 20
-24.1661316524
 10
10.3695534084
 20
-24.1664148026
  0
LWPOLYLINE
  5
77C
100
AcDbEntity
  8
RACCORDO
100
AcDbPolyline
 62
250
  6
CONTINUOUS
 90
5
 70
0
 10
-10.4780705687
 20
24.8237464055
 10
-10.465198929
 20
24.8261329482
 10
-10.4522200716
 20
24.8278424314
 10
-10.4391695733
 20
24.8288701744
 10
-10.4260832192
 20
24.8292133634
  0
LWPOLYLINE
  5
77D
100
AcDbEntity
  8
RACCORDO
100
AcDbPolyline
 62
7
  6
CONTINUOUS
 90
5
 70
0
 10
-10.4777671099
 20
24.8290675651
 10
-10.4660331885
 20
24.8310406715
 10
-10.4542186779
 20
24.8324532316
 10
-10.4423503384
 20
24.8333020471
 10
-10.4304550532
 20
24.8335851974
  0
LWPOLYLINE
  5
77E
100
AcDbEntity
  8
ASSI
100
AcDbPolyline
 62
250
  6
CONTINUOUS
 90
3
 70
0
 10
8.447036703
 20
24.8277631509
 10
8.4608644409
 20
24.8288719562
 10
8.4739167808
 20
24.8292133634
  0
LINE
  5
77F
100
AcDbEntity
  8
ASSI
100
AcDbLine
 62
250
  6
CONTINUOUS
 10
-10.4275376523
 20
24.8292090833
 11
-10.4260832192
 21
24.8292133634
  0
LINE
  5
780
100
AcDbEntity
  8
RACCORDO
100
AcDbLine
 62
250
  6
CONTINUOUS
 10
8.4739167808
 20
23.9614164137
 11
10.3651815744
 21
23.9614164137
  0
LINE
  5
781
100
AcDbEntity
  8
ASSI
100
AcDbLine
 62
250
  6
CONTINUOUS
 10
8.4739167808
 20
23.9614164137
 11
10.3651815744
 21
23.9614164137
  0
LINE
  5
782
100
AcDbEntity
  8
RACCORDO
100
AcDbLine
 62
7
  6
CONTINUOUS
 10
-8.5348184256
 20
24.0335851974
 11
-10.4260832192
 21
24.0335851974
  0
LINE
  5
783
100
AcDbEntity
  8
ASSI
100
AcDbLine
 62
7
  6
CONTINUOUS
 10
-8.5348184256
 20
24.0335851974
 11
-10.4260832192
 21
24.0335851974
  0
LINE
  5
784
100
AcDbEntity
  8
ASSI
100
AcDbLine
 62
7
  6
CONTINUOUS
 10
4.3258648817
 20
24.0899009014
 11
3.4695491776
 21
24.0899009014
  0
LINE
  5
785
100
AcDbEntity
  8
ASSI
100
AcDbLine
 62
7
  6
CONTINUOUS
 10
-3.5304508224
 20
24.0899009014
 11
-4.3867665264
 21
24.0899009014
  0
LINE
  5
786
100
AcDbEntity
  8
DRAFT
100
AcDbLine
 62
7
  6
CONTINUOUS
 10
3.4695491776
 20
24.1277673676
 11
-3.5304508224
 21
24.1277673676
  0
LINE
  5
787
100
AcDbEntity
  8
ASSI
100
AcDbLine
 62
7
  6
CONTINUOUS
 10
3.4695491776
 20
24.1277673676
 11
-3.5304508224
 21
24.1277673676
  0
LINE
  5
788
100
AcDbEntity
  8
DRAFT
100
AcDbLine
 62
7
  6
CONTINUOUS
 10
4.3695491776
 20
24.1335851974
 11
-4.4304508224
 21
24.1335851974
  0
LINE
  5
789
100
AcDbEntity
  8
ASSI
100
AcDbLine
 62
7
  6
CONTINUOUS
 10
4.3695491776
 20
24.1335851974
 11
-4.4304508224
 21
24.1335851974
  0
LINE
  5
78A
100
AcDbEntity
  8
RACCORDO
100
AcDbLine
 62
250
  6
CONTINUOUS
 10
8.2239210116
 20
24.1779227647
 11
10.6151773436
 21
24.1779227647
  0
LINE
  5
78B
100
AcDbEntity
  8
ASSI
100
AcDbLine
 62
250
  6
CONTINUOUS
 10
8.2239210116
 20
24.1779227647
 11
10.6151773436
 21
24.1779227647
  0
LINE
  5
78C
100
AcDbEntity
  8
ASSI
100
AcDbLine
 62
250
  6
CONTINUOUS
 10
8.2239210116
 20
24.5792175942
 11
10.6151773436
 21
24.5792175942
  0
LINE
  5
78D
100
AcDbEntity
  8
RACCORDO
100
AcDbLine
 62
250
  6
CONTINUOUS
 10
8.2239210116
 20
24.5792175942
 11
10.6151773436
 21
24.5792175942
  0
LINE
  5
78E
100
AcDbEntity
  8
RACCORDO
100
AcDbLine
 62
250
  6
CONTINUOUS
 10
-8.2848226564
 20
24.5792175942
 11
-10.6760789884
 21
24.5792175942
  0
LINE
  5
78F
100
AcDbEntity
  8
ASSI
100
AcDbLine
 62
250
  6
CONTINUOUS
 10
-8.2848226564
 20
24.5792175942
 11
-10.6760789884
 21
24.5792175942
  0
LINE
  5
790
100
AcDbEntity
  8
RACCORDO
100
AcDbLine
 62
250
  6
CONTINUOUS
 10
10.3651815744
 20
24.8292133634
 11
8.4739167808
 21
24.8292133634
  0
LINE
  5
791
100
AcDbEntity
  8
ASSI
100
AcDbLine
 62
7
  6
CONTINUOUS
 10
10.3651815744
 20
24.8292133634
 11
8.4739167808
 21
24.8292133634
  0
LINE
  5
792
100
AcDbEntity
  8
RACCORDO
100
AcDbLine
 62
250
  6
CONTINUOUS
 10
-8.5348184256
 20
24.8292133634
 11
-10.4260832192
 21
24.8292133634
  0
LINE
  5
793
100
AcDbEntity
  8
ASSI
100
AcDbLine
 62
7
  6
CONTINUOUS
 10
-8.5348184256
 20
24.8292133634
 11
-10.4260832192
 21
24.8292133634
  0
LWPOLYLINE
  5
794
100
AcDbEntity
  8
RACCORDO
100
AcDbPolyline
 62
7
  6
CONTINUOUS
 90
4
 70
0
 10
-8.5304465916
 20
24.8335851974
 10
-8.5185513064
 20
24.8333020471
 10
-8.5066829668
 20
24.8324532316
 10
-8.4948684562
 20
24.8310406715
  0
LWPOLYLINE
  5
795
100
AcDbEntity
  8
ASSI
100
AcDbPolyline
 62
7
  6
CONTINUOUS
 90
4
 70
0
 10
-8.5304465916
 20
24.8335851974
 10
-8.5185513064
 20
24.8333020471
 10
-8.5066829668
 20
24.8324532316
 10
-8.4948684562
 20
24.8310406715
  0
LWPOLYLINE
  5
796
100
AcDbEntity
  8
RACCORDO
100
AcDbPolyline
 62
7
  6
CONTINUOUS
 90
4
 70
0
 10
10.3695534084
 20
24.8335851974
 10
10.3814486936
 20
24.8333020471
 10
10.3933170332
 20
24.8324532316
 10
10.4051315438
 20
24.8310406715
  0
LWPOLYLINE
  5
797
100
AcDbEntity
  8
ASSI
100
AcDbPolyline
 62
7
  6
CONTINUOUS
 90
4
 70
0
 10
10.3695534084
 20
24.8335851974
 10
10.3814486936
 20
24.8333020471
 10
10.3933170332
 20
24.8324532316
 10
10.4051315438
 20
24.8310406715
  0
LWPOLYLINE
  5
798
100
AcDbEntity
  8
RACCORDO
100
AcDbPolyline
 62
250
  6
CONTINUOUS
 90
31
 70
0
 10
-8.5348184256
 20
24.8292133634
 10
-8.5217349396
 20
24.8288703248
 10
-8.508687313
 20
24.8278430349
 10
-8.4957113069
 20
24.8261343093
 10
-8.482842486
 20
24.8237488314
 10
-8.4701161215
 20
24.8206931392
 10
-8.4575670938
 20
24.8169756078
 10
-8.4452297975
 20
24.8126064263
 10
-8.4331380469
 20
24.8075975698
 10
-8.4213249831
 20
24.8019627666
 10
-8.4098229835
 20
24.7957174607
 10
-8.398663573
 20
24.7888787693
 10
-8.3878773374
 20
24.781465436
 10
-8.3774938397
 20
24.7734977792
 10
-8.3675415393
 20
24.7649976369
 10
-8.3580477134
 20
24.7559883064
 10
-8.3490383828
 20
24.7464944805
 10
-8.3405382405
 20
24.73654218
 10
-8.3325705838
 20
24.7261586824
 10
-8.3251572504
 20
24.7153724468
 10
-8.318318559
 20
24.7042130362
 10
-8.3120732531
 20
24.6927110367
 10
-8.3064384499
 20
24.6808979729
 10
-8.3014295934
 20
24.6688062222
 10
-8.2970604119
 20
24.656468926
 10
-8.2933428806
 20
24.6439198983
 10
-8.2902871884
 20
24.6311935337
 10
-8.2879017104
 20
24.6183247129
 10
-8.2861929848
 20
24.6053487067
 10
-8.2851656949
 20
24.5923010801
 10
-8.2848226564
 20
24.5792175942
  0
LWPOLYLINE
  5
799
100
AcDbEntity
  8
ASSI
100
AcDbPolyline
 62
7
  6
CONTINUOUS
 90
31
 70
0
 10
-8.5348184256
 20
24.8292133634
 10
-8.5217349396
 20
24.8288703248
 10
-8.508687313
 20
24.8278430349
 10
-8.4957113069
 20
24.8261343093
 10
-8.482842486
 20
24.8237488314
 10
-8.4701161215
 20
24.8206931392
 10
-8.4575670938
 20
24.8169756078
 10
-8.4452297975
 20
24.8126064263
 10
-8.4331380469
 20
24.8075975698
 10
-8.4213249831
 20
24.8019627666
 10
-8.4098229835
 20
24.7957174607
 10
-8.398663573
 20
24.7888787693
 10
-8.3878773374
 20
24.781465436
 10
-8.3774938397
 20
24.7734977792
 10
-8.3675415393
 20
24.7649976369
 10
-8.3580477134
 20
24.7559883064
 10
-8.3490383828
 20
24.7464944805
 10
-8.3405382405
 20
24.73654218
 10
-8.3325705838
 20
24.7261586824
 10
-8.3251572504
 20
24.7153724468
 10
-8.318318559
 20
24.7042130362
 10
-8.3120732531
 20
24.6927110367
 10
-8.3064384499
 20
24.6808979729
 10
-8.3014295934
 20
24.6688062222
 10
-8.2970604119
 20
24.656468926
 10
-8.2933428806
 20
24.6439198983
 10
-8.2902871884
 20
24.6311935337
 10
-8.2879017104
 20
24.6183247129
 10
-8.2861929848
 20
24.6053487067
 10
-8.2851656949
 20
24.5923010801
 10
-8.2848226564
 20
24.5792175942
  0
LWPOLYLINE
  5
79A
100
AcDbEntity
  8
RACCORDO
100
AcDbPolyline
 62
250
  6
CONTINUOUS
 90
7
 70
0
 10
10.3651815744
 20
24.8292133634
 10
10.3782339144
 20
24.8288719562
 10
10.3912588088
 20
24.8278486935
 10
10.4042205833
 20
24.8261450893
 10
10.4170863021
 20
24.8237639592
 10
10.4298177673
 20
24.8207108458
 10
10.4423719519
 20
24.816995406
  0
LWPOLYLINE
  5
79B
100
AcDbEntity
  8
ASSI
100
AcDbPolyline
 62
250
  6
CONTINUOUS
 90
3
 70
0
 10
10.3651815744
 20
24.8292133634
 10
10.3782339144
 20
24.8288719562
 10
10.3920616523
 20
24.8277631509
  0
LINE
  5
79C
100
AcDbEntity
  8
ASSI
100
AcDbLine
 62
7
  6
CONTINUOUS
 10
10.3920616523
 20
24.8277631509
 11
10.4042205833
 21
24.8261450893
  0
LWPOLYLINE
  5
79D
100
AcDbEntity
  8
RACCORDO
100
AcDbPolyline
 62
7
  6
CONTINUOUS
 90
5
 70
0
 10
10.4051315438
 20
24.8310406715
 10
10.4168654651
 20
24.8290675651
 10
10.4284922164
 20
24.8265383791
 10
10.4399854566
 20
24.8234588391
 10
10.4513191514
 20
24.8198359187
  0
LWPOLYLINE
  5
79E
100
AcDbEntity
  8
ASSI
100
AcDbPolyline
 62
7
  6
CONTINUOUS
 90
8
 70
0
 10
10.4051315438
 20
24.8310406715
 10
10.4168654651
 20
24.8290675651
 10
10.4284922164
 20
24.8265383791
 10
10.4399854566
 20
24.8234588391
 10
10.4513191514
 20
24.8198359187
 10
10.4624676269
 20
24.8156778231
 10
10.4734056239
 20
24.8109939695
 10
10.4841083652
 20
24.8057949662
  0
LWPOLYLINE
  5
79F
100
AcDbEntity
  8
ASSI
100
AcDbPolyline
 62
7
  6
CONTINUOUS
 90
28
 70
0
 10
10.4042205833
 20
24.8261450893
 10
10.4170863021
 20
24.8237639592
 10
10.4298177673
 20
24.8207108458
 10
10.4423719519
 20
24.816995406
 10
10.4547117558
 20
24.8126288549
 10
10.4668061119
 20
24.807622425
 10
10.4786221902
 20
24.8019896765
 10
10.4901277906
 20
24.7957458748
 10
10.501291109
 20
24.788908193
 10
10.5120811882
 20
24.781495563
 10
10.5224683141
 20
24.7735284207
 10
10.5324241512
 20
24.7650285238
 10
10.5419214857
 20
24.756019102
 10
10.5509343048
 20
24.7465248088
 10
10.5594378463
 20
24.7365717054
 10
10.5674087545
 20
24.7261871161
 10
10.5748251613
 20
24.7153995258
 10
10.5816667371
 20
24.7042384998
 10
10.5879147163
 20
24.692734644
 10
10.5935519646
 20
24.6809194984
 10
10.59856302
 20
24.6688254612
 10
10.6029341351
 20
24.656485705
 10
10.6066533246
 20
24.6439340576
 10
10.6097103858
 20
24.6312049437
 10
10.6120969285
 20
24.618333304
 10
10.6138064116
 20
24.6053544466
 10
10.6148341546
 20
24.5923039483
 10
10.6151730635
 20
24.5806720273
  0
LWPOLYLINE
  5
7A0
100
AcDbEntity
  8
RACCORDO
100
AcDbPolyline
 62
250
  6
CONTINUOUS
 90
21
 70
0
 10
10.4423719519
 20
24.816995406
 10
10.4547117558
 20
24.8126288549
 10
10.4668061119
 20
24.807622425
 10
10.4786221902
 20
24.8019896765
 10
10.4901277906
 20
24.7957458748
 10
10.501291109
 20
24.788908193
 10
10.5120811882
 20
24.781495563
 10
10.5224683141
 20
24.7735284207
 10
10.5324241512
 20
24.7650285238
 10
10.5419214857
 20
24.756019102
 10
10.5509343048
 20
24.7465248088
 10
10.5594378463
 20
24.7365717054
 10
10.5674087545
 20
24.7261871161
 10
10.5748251613
 20
24.7153995258
 10
10.5816667371
 20
24.7042384998
 10
10.5879147163
 20
24.692734644
 10
10.5935519646
 20
24.6809194984
 10
10.59856302
 20
24.6688254612
 10
10.6029341351
 20
24.656485705
 10
10.6066533246
 20
24.6439340576
 10
10.6097103858
 20
24.6312049437
  0
LWPOLYLINE
  5
7A1
100
AcDbEntity
  8
RACCORDO
100
AcDbPolyline
 62
7
  6
CONTINUOUS
 90
23
 70
0
 10
10.4513191514
 20
24.8198359187
 10
10.4624676269
 20
24.8156778231
 10
10.4734056239
 20
24.8109939695
 10
10.4841083652
 20
24.8057949662
 10
10.4945516059
 20
24.800092589
 10
10.5047116835
 20
24.7938997555
 10
10.5145655827
 20
24.7872304928
 10
10.5240909815
 20
24.7800999081
 10
10.5332662967
 20
24.7725241562
 10
10.5420707437
 20
24.7645203979
 10
10.5504843781
 20
24.7561067635
 10
10.5584881365
 20
24.7473023164
 10
10.5660638883
 20
24.7381270012
 10
10.5731944731
 20
24.7286016025
 10
10.5798637358
 20
24.7187477033
 10
10.5860565693
 20
24.7085876256
 10
10.5917589465
 20
24.698144385
 10
10.5969579498
 20
24.6874416437
 10
10.6016418034
 20
24.6765036467
 10
10.605799899
 20
24.6653551711
 10
10.6094228193
 20
24.6540214764
 10
10.6125023593
 20
24.6425282362
 10
10.6150315454
 20
24.6309014849
  0
LWPOLYLINE
  5
7A2
100
AcDbEntity
  8
RACCORDO
100
AcDbPolyline
 62
7
  6
CONTINUOUS
 90
11
 70
0
 10
10.8310937832
 20
22.6818660358
 10
10.8228877272
 20
22.6858736191
 10
10.8016176266
 20
22.6954028713
 10
10.7798618319
 20
22.703930613
 10
10.7576896087
 20
22.7114221914
 10
10.7351299547
 20
22.7178606952
 10
10.7122524293
 20
22.7232192387
 10
10.6891930541
 20
22.7274668012
 10
10.6660342907
 20
22.7305973616
 10
10.6428017966
 20
22.7326165597
 10
10.6195488085
 20
22.7335267458
  0
LINE
  5
7A3
100
AcDbEntity
  8
RACCORDO
100
AcDbLine
 62
250
  6
CONTINUOUS
 10
10.6119448341
 20
22.7335851974
 11
10.6180520907
 21
22.7305318016
  0
LINE
  5
7A4
100
AcDbEntity
  8
ASSI
100
AcDbLine
 62
250
  6
CONTINUOUS
 10
10.6119448341
 20
22.7335851974
 11
10.6180520907
 21
22.7305318016
  0
LWPOLYLINE
  5
7A5
100
AcDbEntity
  8
ASSI
100
AcDbPolyline
 62
7
  6
CONTINUOUS
 90
16
 70
0
 10
10.4841083652
 20
24.8057949662
 10
10.4945516059
 20
24.800092589
 10
10.5047116835
 20
24.7938997555
 10
10.5145655827
 20
24.7872304928
 10
10.5240909815
 20
24.7800999081
 10
10.5332662967
 20
24.7725241562
 10
10.5420707437
 20
24.7645203979
 10
10.5504843781
 20
24.7561067635
 10
10.5584881365
 20
24.7473023164
 10
10.5660638883
 20
24.7381270012
 10
10.5731944731
 20
24.7286016025
 10
10.5798637358
 20
24.7187477033
 10
10.5860565693
 20
24.7085876256
 10
10.5917589465
 20
24.698144385
 10
10.5969579498
 20
24.6874416437
 10
10.6016418034
 20
24.6765036467
  0
ARC
  5
7A6
100
AcDbEntity
  8
0
100
AcDbCircle
 62
7
  6
CONTINUOUS
 10
-8.5653671059
 20
-18.2172849567
 40
1.0
100
AcDbArc
 50
225.0
 51
269.0
  0
ARC
  5
7A7
100
AcDbEntity
  8
0
100
AcDbCircle
 62
7
  6
CONTINUOUS
 10
-10.1804508224
 20
-16.6022012403
 40
1.0
100
AcDbArc
 50
180.0
 51
225.0
  0
ARC
  5
7A8
100
AcDbEntity
  8
0
100
AcDbCircle
 62
7
  6
CONTINUOUS
 10
-6.5304508224
 20
-19.9799488887
 40
0.5
100
AcDbArc
 50
91.0
 51
180.0
  0
ARC
  5
7A9
100
AcDbEntity
  8
0
100
AcDbCircle
 62
7
  6
CONTINUOUS
 10
-6.5304508224
 20
-20.2528807166
 40
0.5
100
AcDbArc
 50
180.0
 51
269.0
  0
ARC
  5
7AA
100
AcDbEntity
  8
ASSI
100
AcDbCircle
 62
7
  6
CONTINUOUS
 10
-6.5304508224
 20
-19.9799488887
 40
0.5
100
AcDbArc
 50
91.0
 51
180.0
  0
ARC
  5
7AB
100
AcDbEntity
  8
ASSI
100
AcDbCircle
 62
7
  6
CONTINUOUS
 10
-6.5304508224
 20
-20.2528807166
 40
0.5
100
AcDbArc
 50
180.0
 51
269.0
  0
ARC
  5
7AC
100
AcDbEntity
  8
0
100
AcDbCircle
 62
7
  6
CONTINUOUS
 10
-10.1804508224
 20
17.269371635
 40
1.0
100
AcDbArc
 50
135.0
 51
180.0
  0
ARC
  5
7AD
100
AcDbEntity
  8
0
100
AcDbCircle
 62
7
  6
CONTINUOUS
 10
-8.5653671059
 20
18.8844553514
 40
1.0
100
AcDbArc
 50
91.0
 51
135.0
  0
ARC
  5
7AE
100
AcDbEntity
  8
0
100
AcDbCircle
 62
7
  6
CONTINUOUS
 10
-6.5304508224
 20
20.6471192834
 40
0.5
100
AcDbArc
 50
180.0
 51
269.0
  0
ARC
  5
7AF
100
AcDbEntity
  8
0
100
AcDbCircle
 62
7
  6
CONTINUOUS
 10
-6.5304508224
 20
20.9200511113
 40
0.5
100
AcDbArc
 50
91.0
 51
180.0
  0
ARC
  5
7B0
100
AcDbEntity
  8
ASSI
100
AcDbCircle
 62
7
  6
CONTINUOUS
 10
-6.5304508224
 20
20.6471192834
 40
0.5
100
AcDbArc
 50
180.0
 51
269.0
  0
ARC
  5
7B1
100
AcDbEntity
  8
ASSI
100
AcDbCircle
 62
7
  6
CONTINUOUS
 10
-6.5304508224
 20
20.9200511113
 40
0.5
100
AcDbArc
 50
91.0
 51
180.0
  0
ARC
  5
7B2
100
AcDbEntity
  8
IMPORT_IGES
100
AcDbCircle
 62
7
  6
CONTINUOUS
 10
-2.4364508222
 20
13.0335851974
 40
0.4
100
AcDbArc
 50
179.9999999998
 51
194.4910807174
  0
ARC
  5
7B3
100
AcDbEntity
  8
0
100
AcDbCircle
 62
7
  6
CONTINUOUS
 10
5.6167758383
 20
-18.7675374385
 40
2.0
100
AcDbArc
 50
271.0
 51
315.5
  0
ARC
  5
7B4
100
AcDbEntity
  8
ASSI
100
AcDbCircle
 62
7
  6
CONTINUOUS
 10
5.6167758383
 20
-18.7675374385
 40
2.0
100
AcDbArc
 50
271.0
 51
315.5
  0
ARC
  5
7B5
100
AcDbEntity
  8
0
100
AcDbCircle
 62
7
  6
CONTINUOUS
 10
10.1195491776
 20
-16.6022012403
 40
1.0
100
AcDbArc
 50
315.0
 51
360.0
  0
ARC
  5
7B6
100
AcDbEntity
  8
0
100
AcDbCircle
 62
7
  6
CONTINUOUS
 10
8.5044654612
 20
-18.2172849567
 40
1.0
100
AcDbArc
 50
271.0
 51
315.0
  0
ARC
  5
7B7
100
AcDbEntity
  8
ASSI
100
AcDbCircle
 62
7
  6
CONTINUOUS
 10
10.1195491776
 20
-16.6022012403
 40
1.0
100
AcDbArc
 50
315.0
 51
360.0
  0
ARC
  5
7B8
100
AcDbEntity
  8
ASSI
100
AcDbCircle
 62
7
  6
CONTINUOUS
 10
8.5044654612
 20
-18.2172849567
 40
1.0
100
AcDbArc
 50
271.0
 51
315.0
  0
ARC
  5
7B9
100
AcDbEntity
  8
0
100
AcDbCircle
 62
7
  6
CONTINUOUS
 10
5.6167758383
 20
19.4347078333
 40
2.0
100
AcDbArc
 50
44.5
 51
89.0
  0
ARC
  5
7BA
100
AcDbEntity
  8
ASSI
100
AcDbCircle
 62
7
  6
CONTINUOUS
 10
5.6167758383
 20
19.4347078333
 40
2.0
100
AcDbArc
 50
44.5
 51
89.0
  0
ARC
  5
7BB
100
AcDbEntity
  8
0
100
AcDbCircle
 62
7
  6
CONTINUOUS
 10
8.5044654612
 20
18.8844553514
 40
1.0
100
AcDbArc
 50
45.0
 51
89.0
  0
ARC
  5
7BC
100
AcDbEntity
  8
0
100
AcDbCircle
 62
7
  6
CONTINUOUS
 10
10.1195491776
 20
17.269371635
 40
1.0
100
AcDbArc
 50
0.0
 51
45.0
  0
ARC
  5
7BD
100
AcDbEntity
  8
ASSI
100
AcDbCircle
 62
7
  6
CONTINUOUS
 10
8.5044654612
 20
18.8844553514
 40
1.0
100
AcDbArc
 50
45.0
 51
89.0
  0
ARC
  5
7BE
100
AcDbEntity
  8
ASSI
100
AcDbCircle
 62
7
  6
CONTINUOUS
 10
10.1195491776
 20
17.269371635
 40
1.0
100
AcDbArc
 50
0.0
 51
45.0
  0
ARC
  5
7BF
100
AcDbEntity
  8
IMPORT_IGES
100
AcDbCircle
 62
7
  6
CONTINUOUS
 10
3.2635491776
 20
13.0335851974
 40
0.4
100
AcDbArc
 50
311.4096221095
 51
360.0
  0
ELLIPSE
  5
7C0
100
AcDbEntity
  8
DRAFT
100
AcDbEllipse
 62
7
  6
CONTINUOUS
 10
3.8975191653
 20
-22.0003346978
 30
0.0
 11
0.4279699877
 21
-0.0
 31
0.0
 40
0.0087268678
 41
0.0058177642
 42
3.1415926536
  0
ELLIPSE
  5
7C1
100
AcDbEntity
  8
DRAFT
100
AcDbEllipse
 62
7
  6
CONTINUOUS
 10
-3.95842081
 20
-22.0003346978
 30
0.0
 11
0.4279699877
 21
-0.0
 31
0.0
 40
0.0087268678
 41
0.0
 42
3.1357748894
  0
ELLIPSE
  5
7C2
100
AcDbEntity
  8
DRAFT
100
AcDbEllipse
 62
7
  6
CONTINUOUS
 10
3.8975191653
 20
22.6675050925
 30
0.0
 11
0.4279699877
 21
0.0
 31
0.0
 40
0.0087268678
 41
3.1415926536
 42
6.277367543
  0
ELLIPSE
  5
7C3
100
AcDbEntity
  8
DRAFT
100
AcDbEllipse
 62
7
  6
CONTINUOUS
 10
-3.95842081
 20
22.6675050925
 30
0.0
 11
0.4279699877
 21
-0.0
 31
0.0
 40
0.0087268678
 41
-3.1357748894
 42
0.0
  0
ELLIPSE
  5
7C4
100
AcDbEntity
  8
RACCORDO
100
AcDbEllipse
 62
7
  6
CONTINUOUS
 10
-10.6903761816
 20
-21.5676692764
 30
0.0
 11
-0.4383594471
 21
0.2191630312
 31
0.0
 40
0.9998096356
 41
6.7467263073
 42
8.3176749331
  0
ELLIPSE
  5
7C5
100
AcDbEntity
  8
RACCORDO
100
AcDbEllipse
 62
7
  6
CONTINUOUS
 10
10.6294745369
 20
22.2348396712
 30
0.0
 11
0.4383594471
 21
-0.2191630312
 31
0.0
 40
0.9998096356
 41
6.7467263073
 42
8.3176749331
  0
ELLIPSE
  5
7C6
100
AcDbEntity
  8
RACCORDO
100
AcDbEllipse
 62
7
  6
CONTINUOUS
 10
-7.2734360902
 20
20.2906033142
 30
0.0
 11
0.0
 21
0.2
 31
0.0
 40
0.0058178298
 41
-3.1357748894
 42
-1.5707963268
  0
ELLIPSE
  5
7C7
100
AcDbEntity
  8
RACCORDO
100
AcDbEllipse
 62
7
  6
CONTINUOUS
 10
-6.3874655545
 20
20.2906033142
 30
0.0
 11
0.0
 21
0.2
 31
0.0
 40
0.0058178298
 41
-3.8935672579
 42
-3.1474104178
  0
ELLIPSE
  5
7C8
100
AcDbEntity
  8
RACCORDO
100
AcDbEllipse
 62
7
  6
CONTINUOUS
 10
-6.3874655545
 20
-19.6234329195
 30
0.0
 11
-0.0
 21
0.2
 31
0.0
 40
0.0058178298
 41
0.0058177642
 42
0.7519746043
  0
ELLIPSE
  5
7C9
100
AcDbEntity
  8
RACCORDO
100
AcDbEllipse
 62
7
  6
CONTINUOUS
 10
10.6294745369
 20
-21.5676692764
 30
0.0
 11
-0.4383594471
 21
-0.2191630312
 31
0.0
 40
0.9998096356
 41
7.3902883349
 42
8.9612369607
  0
ELLIPSE
  5
7CA
100
AcDbEntity
  8
RACCORDO
100
AcDbEllipse
 62
7
  6
CONTINUOUS
 10
-7.2734360902
 20
-19.6234329195
 30
0.0
 11
0.0
 21
0.2
 31
0.0
 40
0.0058178298
 41
-1.5707963268
 42
-0.0058177642
  0
ELLIPSE
  5
7CB
100
AcDbEntity
  8
RACCORDO
100
AcDbEllipse
 62
7
  6
CONTINUOUS
 10
8.4695534085
 20
23.7449100628
 30
0.0
 11
0.0029088041
 21
0.2886641433
 31
0.0
 40
0.8660144118
 41
-4.7007536982
 42
-3.1328662412
  0
ELLIPSE
  5
7CC
100
AcDbEntity
  8
RACCORDO
100
AcDbEllipse
 62
7
  6
CONTINUOUS
 10
-10.6903761816
 20
22.2348396712
 30
0.0
 11
0.4383594471
 21
0.2191630312
 31
0.0
 40
0.9998096356
 41
7.3902883349
 42
8.9612369607
  0
ELLIPSE
  5
7CD
100
AcDbEntity
  8
RACCORDO
100
AcDbEllipse
 62
7
  6
CONTINUOUS
 10
10.3695449468
 20
23.7449100628
 30
0.0
 11
-0.0029088041
 21
0.2886641433
 31
0.0
 40
0.8660144118
 41
-3.150319066
 42
-1.582431609
  0
ELLIPSE
  5
7CE
100
AcDbEntity
  8
RACCORDO
100
AcDbEllipse
 62
7
  6
CONTINUOUS
 10
-10.4304465915
 20
23.7449100628
 30
0.0
 11
0.0029088041
 21
0.2886641433
 31
0.0
 40
0.8660144118
 41
-4.7007536982
 42
-3.1328662412
  0
ELLIPSE
  5
7CF
100
AcDbEntity
  8
RACCORDO
100
AcDbEllipse
 62
7
  6
CONTINUOUS
 10
-8.5304550532
 20
23.7449100628
 30
0.0
 11
-0.0029088041
 21
0.2886641433
 31
0.0
 40
0.8660144118
 41
-3.150319066
 42
-1.582431609
  0
ELLIPSE
  5
7D0
100
AcDbEntity
  8
RACCORDO
100
AcDbEllipse
 62
7
  6
CONTINUOUS
 10
-10.4304465915
 20
-23.077739668
 30
0.0
 11
-0.0029088041
 21
0.2886641433
 31
0.0
 40
0.8660144118
 41
-0.0087264124
 42
1.5591610446
  0
ELLIPSE
  5
7D1
100
AcDbEntity
  8
RACCORDO
100
AcDbEllipse
 62
7
  6
CONTINUOUS
 10
-8.5304550532
 20
-23.077739668
 30
0.0
 11
0.0029088041
 21
0.2886641433
 31
0.0
 40
0.8660144118
 41
-1.5591610446
 42
0.0087264124
  0
ELLIPSE
  5
7D2
100
AcDbEntity
  8
RACCORDO
100
AcDbEllipse
 62
7
  6
CONTINUOUS
 10
10.3695449468
 20
-23.077739668
 30
0.0
 11
0.0029088041
 21
0.2886641433
 31
0.0
 40
0.8660144118
 41
-1.5591610446
 42
0.0087264124
  0
ELLIPSE
  5
7D3
100
AcDbEntity
  8
RACCORDO
100
AcDbEllipse
 62
7
  6
CONTINUOUS
 10
8.4695534085
 20
-23.077739668
 30
0.0
 11
-0.0029088041
 21
0.2886641433
 31
0.0
 40
0.8660144118
 41
-0.0087264124
 42
1.5591610446
  0
ELLIPSE
  5
7D4
100
AcDbEntity
  8
ASSI
100
AcDbEllipse
 62
7
  6
CONTINUOUS
 10
4.325915454
 20
-22.9227726173
 30
0.0
 11
0.0
 21
0.5
 31
0.0
 40
0.0058178298
 41
-3.2911896616
 42
-3.1474104178
  0
ELLIPSE
  5
7D5
100
AcDbEntity
  8
ASSI
100
AcDbEllipse
 62
7
  6
CONTINUOUS
 10
-4.3868170988
 20
-22.9227726173
 30
0.0
 11
0.0
 21
0.5
 31
0.0
 40
0.0058178298
 41
-3.1357748894
 42
-2.9919956456
  0
ELLIPSE
  5
7D6
100
AcDbEntity
  8
ASSI
100
AcDbEllipse
 62
7
  6
CONTINUOUS
 10
10.6294745369
 20
-21.5676692764
 30
0.0
 11
-0.4383594471
 21
-0.2191630312
 31
0.0
 40
0.9998096356
 41
7.3902883349
 42
8.9612369607
  0
ELLIPSE
  5
7D7
100
AcDbEntity
  8
ASSI
100
AcDbEllipse
 62
7
  6
CONTINUOUS
 10
-10.4304465915
 20
-23.077739668
 30
0.0
 11
-0.0029088041
 21
0.2886641433
 31
0.0
 40
0.8660144118
 41
-0.0087264124
 42
1.5591610446
  0
ELLIPSE
  5
7D8
100
AcDbEntity
  8
ASSI
100
AcDbEllipse
 62
7
  6
CONTINUOUS
 10
-8.5304550532
 20
-23.077739668
 30
0.0
 11
0.0029088041
 21
0.2886641433
 31
0.0
 40
0.8660144118
 41
-1.5591610446
 42
0.0087264124
  0
ELLIPSE
  5
7D9
100
AcDbEntity
  8
ASSI
100
AcDbEllipse
 62
7
  6
CONTINUOUS
 10
-10.6903761816
 20
-21.5676692764
 30
0.0
 11
-0.4383594471
 21
0.2191630312
 31
0.0
 40
0.9998096356
 41
6.7467263073
 42
8.3176749331
  0
ELLIPSE
  5
7DA
100
AcDbEntity
  8
ASSI
100
AcDbEllipse
 62
7
  6
CONTINUOUS
 10
10.6294745369
 20
22.2348396712
 30
0.0
 11
0.4383594471
 21
-0.2191630312
 31
0.0
 40
0.9998096356
 41
6.7467263073
 42
8.3176749331
  0
ELLIPSE
  5
7DB
100
AcDbEntity
  8
ASSI
100
AcDbEllipse
 62
7
  6
CONTINUOUS
 10
8.4695534085
 20
-23.077739668
 30
0.0
 11
-0.0029088041
 21
0.2886641433
 31
0.0
 40
0.8660144118
 41
-0.0087264124
 42
1.5591610446
  0
ELLIPSE
  5
7DC
100
AcDbEntity
  8
ASSI
100
AcDbEllipse
 62
7
  6
CONTINUOUS
 10
10.3695449468
 20
-23.077739668
 30
0.0
 11
0.0029088041
 21
0.2886641433
 31
0.0
 40
0.8660144118
 41
-1.5591610446
 42
0.0087264124
  0
ELLIPSE
  5
7DD
100
AcDbEntity
  8
ASSI
100
AcDbEllipse
 62
7
  6
CONTINUOUS
 10
-10.6903761816
 20
22.2348396712
 30
0.0
 11
0.4383594471
 21
0.2191630312
 31
0.0
 40
0.9998096356
 41
7.3902883349
 42
8.9612369607
  0
ELLIPSE
  5
7DE
100
AcDbEntity
  8
ASSI
100
AcDbEllipse
 62
7
  6
CONTINUOUS
 10
-8.5304550532
 20
23.7449100628
 30
0.0
 11
-0.0029088041
 21
0.2886641433
 31
0.0
 40
0.8660144118
 41
-3.150319066
 42
-1.582431609
  0
ELLIPSE
  5
7DF
100
AcDbEntity
  8
ASSI
100
AcDbEllipse
 62
7
  6
CONTINUOUS
 10
3.8975191653
 20
-22.0003346978
 30
0.0
 11
0.4279699877
 21
-0.0
 31
0.0
 40
0.0087268678
 41
0.0058177642
 42
3.1415926536
  0
ELLIPSE
  5
7E0
100
AcDbEntity
  8
ASSI
100
AcDbEllipse
 62
7
  6
CONTINUOUS
 10
-10.4304465915
 20
23.7449100628
 30
0.0
 11
0.0029088041
 21
0.2886641433
 31
0.0
 40
0.8660144118
 41
-4.7007536982
 42
-3.1328662412
  0
ELLIPSE
  5
7E1
100
AcDbEntity
  8
ASSI
100
AcDbEllipse
 62
7
  6
CONTINUOUS
 10
-3.95842081
 20
-22.0003346978
 30
0.0
 11
0.4279699877
 21
-0.0
 31
0.0
 40
0.0087268678
 41
0.0
 42
3.1357748894
  0
ELLIPSE
  5
7E2
100
AcDbEntity
  8
ASSI
100
AcDbEllipse
 62
7
  6
CONTINUOUS
 10
3.8975191653
 20
22.6675050925
 30
0.0
 11
0.4279699877
 21
0.0
 31
0.0
 40
0.0087268678
 41
3.1415926536
 42
6.277367543
  0
ELLIPSE
  5
7E3
100
AcDbEntity
  8
ASSI
100
AcDbEllipse
 62
7
  6
CONTINUOUS
 10
10.3695449468
 20
23.7449100628
 30
0.0
 11
-0.0029088041
 21
0.2886641433
 31
0.0
 40
0.8660144118
 41
-3.150319066
 42
-1.582431609
  0
ELLIPSE
  5
7E4
100
AcDbEntity
  8
ASSI
100
AcDbEllipse
 62
7
  6
CONTINUOUS
 10
8.4695534085
 20
23.7449100628
 30
0.0
 11
0.0029088041
 21
0.2886641433
 31
0.0
 40
0.8660144118
 41
-4.7007536982
 42
-3.1328662412
  0
ELLIPSE
  5
7E5
100
AcDbEntity
  8
ASSI
100
AcDbEllipse
 62
7
  6
CONTINUOUS
 10
-3.95842081
 20
22.6675050925
 30
0.0
 11
0.4279699877
 21
-0.0
 31
0.0
 40
0.0087268678
 41
-3.1357748894
 42
0.0
  0
ELLIPSE
  5
7E6
100
AcDbEntity
  8
ASSI
100
AcDbEllipse
 62
7
  6
CONTINUOUS
 10
-7.2734360902
 20
-19.6234329195
 30
0.0
 11
0.0
 21
0.2
 31
0.0
 40
0.0058178298
 41
-1.5707963268
 42
-0.0058177642
  0
ELLIPSE
  5
7E7
100
AcDbEntity
  8
ASSI
100
AcDbEllipse
 62
7
  6
CONTINUOUS
 10
-6.3874655545
 20
-19.6234329195
 30
0.0
 11
-0.0
 21
0.2
 31
0.0
 40
0.0058178298
 41
0.0058177642
 42
0.7519746043
  0
ELLIPSE
  5
7E8
100
AcDbEntity
  8
ASSI
100
AcDbEllipse
 62
7
  6
CONTINUOUS
 10
-6.3874655545
 20
20.2906033142
 30
0.0
 11
0.0
 21
0.2
 31
0.0
 40
0.0058178298
 41
-3.8935672579
 42
-3.1474104178
  0
ELLIPSE
  5
7E9
100
AcDbEntity
  8
ASSI
100
AcDbEllipse
 62
7
  6
CONTINUOUS
 10
-7.2734360902
 20
20.2906033142
 30
0.0
 11
0.0
 21
0.2
 31
0.0
 40
0.0058178298
 41
-3.1357748894
 42
-1.5707963268
  0
ENDSEC
  0
SECTION
  2
OBJECTS
  0
DICTIONARY
  5
C
100
AcDbDictionary
280
0
281
1
  3
ACAD_GROUP
350
D
  3
ACAD_MLINESTYLE
350
17
  3
ACAD_LAYOUT
350
1A
  3
ACAD_PLOTSETTINGS
350
19
  3
ACAD_PLOTSTYLENAME
350
E
  0
DICTIONARY
  5
D
102
{ACAD_REACTORS
330
C
102
}
100
AcDbDictionary
280
0
281
1
  0
ACDBDICTIONARYWDFLT
  5
E
102
{ACAD_REACTORS
330
C
102
}
100
AcDbDictionary
281
1
  3
Normal
350
F
100
AcDbDictionaryWithDefault
340
F
  0
DICTIONARY
  5
17
102
{ACAD_REACTORS
330
C
102
}
100
AcDbDictionary
280
0
281
1
  3
Standard
350
18
  0
DICTIONARY
  5
19
102
{ACAD_REACTORS
330
C
102
}
100
AcDbDictionary
281
1
  0
DICTIONARY
  5
1A
102
{ACAD_REACTORS
330
C
102
}
100
AcDbDictionary
281
1
  3
Model
350
7EA
  3
Layout1
350
7EB
  0
ACDBPLACEHOLDER
  5
F
102
{ACAD_REACTORS
330
E
102
}
  0
MLINESTYLE
  5
18
102
{ACAD_REACTORS
330
17
102
}
100
AcDbMlineStyle
  2
STANDARD
 70
0
  3

 62
256
 51
90.0
 52
90.0
 71
2
 49
0.5
 62
256
  6
BYLAYER
 49
-0.5
 62
256
  6
BYLAYER
  0
LAYOUT
  5
7EA
102
{ACAD_REACTORS
330
1A
102
}
100
AcDbPlotSettings
  1

  2
none_device
  4
ISO_A4_(297.00_x_210.00_MM)
  6

 40
0.0
 41
0.0
 42
0.0
 43
0.0
 44
297.0
 45
210.0
 46
0.0
 47
0.0
 48
0.0
 49
0.0
140
0.0
141
0.0
142
1.0
143
1.0
 70
1024
 72
1
 73
0
 74
0
  7

 75
0
147
1.0
148
0.0
149
0.0
100
AcDbLayout
  1
Model
 70
0
 71
0
 10
0.0
 20
0.0
 11
297.0
 21
210.0
 12
0.0
 22
0.0
 32
0.0
 14
0.0
 24
0.0
 34
0.0
 15
0.0
 25
0.0
 35
0.0
146
0.0
 13
0.0
 23
0.0
 33
0.0
 16
1.0
 26
0.0
 36
0.0
 17
0.0
 27
1.0
 37
0.0
 76
0
330
2D8
345
0
346
0
  0
LAYOUT
  5
7EB
102
{ACAD_REACTORS
330
1A
102
}
100
AcDbPlotSettings
  1

  2
none_device
  4
ISO_A4_(297.00_x_210.00_MM)
  6

 40
0.0
 41
0.0
 42
0.0
 43
0.0
 44
297.0
 45
210.0
 46
0.0
 47
0.0
 48
0.0
 49
0.0
140
0.0
141
0.0
142
1.0
143
1.0
 70
0
 72
1
 73
0
 74
0
  7

 75
0
147
1.0
148
0.0
149
0.0
100
AcDbLayout
  1
Layout1
 70
0
 71
1
 10
0.0
 20
0.0
 11
297.0
 21
210.0
 12
0.0
 22
0.0
 32
0.0
 14
0.0
 24
0.0
 34
0.0
 15
0.0
 25
0.0
 35
0.0
146
0.0
 13
0.0
 23
0.0
 33
0.0
 16
1.0
 26
0.0
 36
0.0
 17
0.0
 27
1.0
 37
0.0
 76
0
330
2D9
345
0
346
0
  0
ENDSEC
  0
EOF
