  0
SECTION
  2
HEADER
  9
$ACADVER
  1
AC1021
  9
$DWGCODEPAGE
  3
ANSI_1252
  9
$EXTMAX
 10
558.8
 20
431.8
 30
0.0
  9
$EXTMIN
 10
0.0
 20
0.0
 30
0.0
  9
$LIMMIN
 10
0.0
 20
0.0
  9
$LIMMAX
 10
558.8
 20
431.8
  9
$VIEWCTR
 10
279.4
 20
215.9
  9
$VIEWSIZE
 40
431.8
  9
$CLAYER
  8
0
  9
$LTSCALE
 40
30.734
  9
$CELTYPE
  6
BYLAYER
  9
$DIMSCALE
 40
1.0
  9
$DIMASZ
 40
3.0
  9
$DIMEXO
 40
0.5
  9
$DIMDLI
 40
21.2344
  9
$DIMEXE
 40
1.5
  9
$DIMCEN
 40
5.0292
  9
$DIMLFAC
 40
1.0
  9
$DIMBLK
  1
_FILLED
  9
$DIMALT
 70
0
  9
$DIMALTF
 40
25.4
  9
$DIMTXT
 40
3.0
  9
$DIMTOL
 70
1
  9
$DIMLIM
 70
0
  9
$DIMTFAC
 40
1.0
  9
$DIMTP
 40
0.01
  9
$DIMTM
 40
0.01
  9
$DIMGAP
 40
0.625
  9
$DIMDSEP
 70
44
  9
$AUNITS
 70
0
  9
$PDMODE
 70
3
  9
$PDSIZE
 40
3.0
  9
$HANDSEED
  5
583
  9
$TILEMODE
 70
1
  9
$MEASUREMENT
 70
1
  9
$INSUNITS
 70
4
  0
ENDSEC
  0
SECTION
  2
CLASSES
  0
CLASS
  1
ACDBDICTIONARYWDFLT
  2
AcDbDictionaryWithDefault
  3
AutoCAD 2000
 90
0
 91
1
280
0
281
0
  0
CLASS
  1
ACDBPLACEHOLDER
  2
AcDbPlaceHolder
  3
AutoCAD 2000
 90
0
 91
1
280
0
281
0
  0
CLASS
  1
LAYOUT
  2
AcDbLayout
  3
AutoCAD 2000
 90
0
 91
0
280
0
281
0
  0
ENDSEC
  0
SECTION
  2
TABLES
  0
TABLE
  2
VPORT
  5
8
100
AcDbSymbolTable
 70
2
  0
VPORT
  5
1F4
100
AcDbSymbolTableRecord
100
AcDbViewportTableRecord
  2
*ACTIVE
 70
0
 10
0.0
 20
0.0
 11
1.0
 21
1.0
 12
279.4
 22
215.9
 13
0.0
 23
0.0
 14
1.0
 24
1.0
 15
0.0
 25
0.0
 16
0.0
 26
0.0
 36
1.0
 17
0.0
 27
0.0
 37
0.0
 40
431.8
 41
1.2941176471
 42
50.0
 43
0.0
 44
0.0
 50
0.0
 51
0.0
 71
0
 72
100
 73
1
 74
1
 75
0
 76
0
 77
0
 78
0
  0
ENDTAB
  0
TABLE
  2
LTYPE
  5
5
100
AcDbSymbolTable
 70
6
  0
LTYPE
  5
14
100
AcDbSymbolTableRecord
100
AcDbLinetypeTableRecord
  2
BYBLOCK
 70
0
  3

 72
65
 73
0
 40
0.0
  0
LTYPE
  5
15
100
AcDbSymbolTableRecord
100
AcDbLinetypeTableRecord
  2
BYLAYER
 70
0
  3

 72
65
 73
0
 40
0.0
  0
LTYPE
  5
16
100
AcDbSymbolTableRecord
100
AcDbLinetypeTableRecord
  2
CONTINUOUS
 70
64
  3
Solid line
 72
65
 73
0
 40
0.0
  0
LTYPE
  5
1F5
100
AcDbSymbolTableRecord
100
AcDbLinetypeTableRecord
  2
CENTER
 70
64
  3
____ _ ____ _ ____ _ ____ _ ____ _ ____ _ ____
 72
65
 73
4
 40
0.6
 49
0.375
 74
0
 49
-0.075
 74
0
 49
0.075
 74
0
 49
-0.075
 74
0
  0
LTYPE
  5
1F6
100
AcDbSymbolTableRecord
100
AcDbLinetypeTableRecord
  2
HIDDEN
 70
64
  3
- - - - - - - - - - - - - - - - - - - -
 72
65
 73
2
 40
0.2
 49
0.1
 74
0
 49
-0.1
 74
0
  0
LTYPE
  5
1F7
100
AcDbSymbolTableRecord
100
AcDbLinetypeTableRecord
  2
PHANTOM
 70
64
  3
_____ _ _ _____ _ _ _____ _ _ _____
 72
65
 73
6
 40
0.8
 49
0.45
 74
0
 49
-0.05
 74
0
 49
0.1
 74
0
 49
-0.05
 74
0
 49
0.1
 74
0
 49
-0.05
 74
0
  0
LTYPE
  5
1F8
100
AcDbSymbolTableRecord
100
AcDbLinetypeTableRecord
  2
DOT
 70
64
  3
. . . . . . . . . . . . . . . . . . . .
 72
65
 73
2
 40
0.2
 49
0.1
 74
0
 49
-0.1
 74
0
  0
LTYPE
  5
1F9
100
AcDbSymbolTableRecord
100
AcDbLinetypeTableRecord
  2
DASHED
 70
64
  3
- - - - - - - - - - - - - - - - - - - -
 72
65
 73
2
 40
0.2
 49
0.1
 74
0
 49
-0.1
 74
0
  0
ENDTAB
  0
TABLE
  2
LAYER
  5
2
100
AcDbSymbolTable
 70
36
  0
LAYER
  5
10
100
AcDbSymbolTableRecord
100
AcDbLayerTableRecord
  2
0
 70
0
 62
7
  6
CONTINUOUS
370
-3
390
F
  0
LAYER
  5
1FA
100
AcDbSymbolTableRecord
100
AcDbLayerTableRecord
  2
DEFAULT_1
 70
0
 62
7
  6
CENTER
370
-3
390
F
  0
LAYER
  5
1FB
100
AcDbSymbolTableRecord
100
AcDbLayerTableRecord
  2
DEFAULT_2
 70
0
 62
7
  6
HIDDEN
370
-3
390
F
  0
LAYER
  5
1FC
100
AcDbSymbolTableRecord
100
AcDbLayerTableRecord
  2
DEFAULT_3
 70
0
 62
7
  6
PHANTOM
370
-3
390
F
  0
LAYER
  5
1FD
100
AcDbSymbolTableRecord
100
AcDbLayerTableRecord
  2
ASSI
 70
0
 62
7
  6
CONTINUOUS
370
-3
390
F
  0
LAYER
  5
1FE
100
AcDbSymbolTableRecord
100
AcDbLayerTableRecord
  2
COLOR5
 70
0
 62
7
  6
CONTINUOUS
370
-3
390
F
  0
LAYER
  5
1FF
100
AcDbSymbolTableRecord
100
AcDbLayerTableRecord
  2
COORDINATE
 70
0
 62
7
  6
CONTINUOUS
370
-3
390
F
  0
LAYER
  5
200
100
AcDbSymbolTableRecord
100
AcDbLayerTableRecord
  2
COORD_ORIGINE
 70
0
 62
7
  6
CONTINUOUS
370
-3
390
F
  0
LAYER
  5
201
100
AcDbSymbolTableRecord
100
AcDbLayerTableRecord
  2
COPY_PUBLISH
 70
0
 62
7
  6
CONTINUOUS
370
-3
390
F
  0
LAYER
  5
202
100
AcDbSymbolTableRecord
100
AcDbLayerTableRecord
  2
COSMETIC
 70
0
 62
7
  6
CONTINUOUS
370
-3
390
F
  0
LAYER
  5
203
100
AcDbSymbolTableRecord
100
AcDbLayerTableRecord
  2
CURVE
 70
0
 62
7
  6
CONTINUOUS
370
-3
390
F
  0
LAYER
  5
204
100
AcDbSymbolTableRecord
100
AcDbLayerTableRecord
  2
DRAFT
 70
0
 62
7
  6
CONTINUOUS
370
-3
390
F
  0
LAYER
  5
205
100
AcDbSymbolTableRecord
100
AcDbLayerTableRecord
  2
IMPORT_IGES
 70
0
 62
7
  6
CONTINUOUS
370
-3
390
F
  0
LAYER
  5
206
100
AcDbSymbolTableRecord
100
AcDbLayerTableRecord
  2
NOTE
 70
0
 62
7
  6
CONTINUOUS
370
-3
390
F
  0
LAYER
  5
207
100
AcDbSymbolTableRecord
100
AcDbLayerTableRecord
  2
PIANI
 70
0
 62
7
  6
CONTINUOUS
370
-3
390
F
  0
LAYER
  5
208
100
AcDbSymbolTableRecord
100
AcDbLayerTableRecord
  2
PIANI_ORIGINE
 70
0
 62
7
  6
CONTINUOUS
370
-3
390
F
  0
LAYER
  5
209
100
AcDbSymbolTableRecord
100
AcDbLayerTableRecord
  2
PUNTI
 70
0
 62
7
  6
CONTINUOUS
370
-3
390
F
  0
LAYER
  5
20A
100
AcDbSymbolTableRecord
100
AcDbLayerTableRecord
  2
RACCORDO
 70
0
 62
7
  6
CONTINUOUS
370
-3
390
F
  0
LAYER
  5
20B
100
AcDbSymbolTableRecord
100
AcDbLayerTableRecord
  2
SMUSSO
 70
0
 62
7
  6
CONTINUOUS
370
-3
390
F
  0
LAYER
  5
20C
100
AcDbSymbolTableRecord
100
AcDbLayerTableRecord
  2
SUPERFICI
 70
0
 62
7
  6
CONTINUOUS
370
-3
390
F
  0
LAYER
  5
20D
100
AcDbSymbolTableRecord
100
AcDbLayerTableRecord
  2
TRASH
 70
0
 62
7
  6
CONTINUOUS
370
-3
390
F
  0
LAYER
  5
20E
100
AcDbSymbolTableRecord
100
AcDbLayerTableRecord
  2
XSEC_DATUMS
 70
0
 62
7
  6
CONTINUOUS
370
-3
390
F
  0
ENDTAB
  0
TABLE
  2
STYLE
  5
3
100
AcDbSymbolTable
 70
1
  0
STYLE
  5
11
100
AcDbSymbolTableRecord
100
AcDbTextStyleTableRecord
  2
STANDARD
 70
0
 40
0.0
 41
0.8
 50
0.0
 71
0
 42
0.2
  3
txt
  4

  0
STYLE
  5
20F
100
AcDbSymbolTableRecord
100
AcDbTextStyleTableRecord
  2
TEXTSTYLE_1
 70
0
 40
0.0
 41
0.8
 50
0.0
 71
0
 42
0.2
  3
gdt
  4

  0
ENDTAB
  0
TABLE
  2
VIEW
  5
6
100
AcDbSymbolTable
 70
0
  0
ENDTAB
  0
TABLE
  2
UCS
  5
7
100
AcDbSymbolTable
 70
0
  0
ENDTAB
  0
TABLE
  2
APPID
  5
9
100
AcDbSymbolTable
 70
1
  0
APPID
  5
210
100
AcDbSymbolTableRecord
100
AcDbRegAppTableRecord
  2
ACAD
 70
0
  0
ENDTAB
  0
TABLE
  2
BLOCK_RECORD
  5
1
100
AcDbSymbolTable
 70
0
  0
BLOCK_RECORD
  5
211
100
AcDbSymbolTableRecord
100
AcDbBlockTableRecord
  2
*Model_Space
  0
BLOCK_RECORD
  5
212
100
AcDbSymbolTableRecord
100
AcDbBlockTableRecord
  2
*Paper_Space
  0
ENDTAB
  0
TABLE
  2
DIMSTYLE
  5
A
100
AcDbSymbolTable
 70
1
100
AcDbDimStyleTable
 71
0
  0
DIMSTYLE
105
213
100
AcDbSymbolTableRecord
100
AcDbDimStyleTableRecord
  2
STANDARD
 70
0
  3

  4

 40
1.0
 41
3.0
 42
0.5
 43
0.38
 44
1.5
 45
0.0
 46
0.0
 47
0.01
 48
0.01
140
3.0
141
0.09
142
0.0
143
25.4
144
1.0
145
0.0
146
1.0
147
0.625
 71
1.0
 72
0.0
 73
0
 74
0
 75
0
 76
0
 77
1
 78
8
170
0
171
1
172
0
173
0
174
0
175
0
176
0
177
0
178
0
270
2
271
2
272
2
273
2
274
2
275
0
280
0
281
0
282
0
283
1
284
8
285
0
286
0
287
3
288
0
340
11
278
44
  0
ENDTAB
  0
ENDSEC
  0
SECTION
  2
BLOCKS
  0
BLOCK
  5
20
100
AcDbEntity
  8
0
100
AcDbBlockBegin
  2
*Model_Space
 70
0
 10
0.0
 20
0.0
 30
0.0
  3
*Model_Space
  1

  0
ENDBLK
  5
21
100
AcDbEntity
  8
0
100
AcDbBlockEnd
  0
BLOCK
  5
1C
100
AcDbEntity
  8
0
100
AcDbBlockBegin
  2
*Paper_Space
 70
0
 10
0.0
 20
0.0
 30
0.0
  3
*Paper_Space
  1

  0
ENDBLK
  5
1D
100
AcDbEntity
  8
0
100
AcDbBlockEnd
  0
ENDSEC
  0
SECTION
  2
ENTITIES
  0
LWPOLYLINE
  5
214
100
AcDbEntity
  8
SUPERFICI
100
AcDbPolyline
 62
7
  6
CONTINUOUS
 90
16
 70
0
 10
-13.8232498265
 20
34.9151668
 10
-14.0226993513
 20
34.8120736891
 10
-14.2106162037
 20
34.6957207411
 10
-14.3863143087
 20
34.5674750354
 10
-14.5478080506
 20
34.4300519355
 10
-14.6963497877
 20
34.283667146
 10
-14.8354063713
 20
34.1250114591
 10
-14.9651611012
 20
33.9526768437
 10
-15.0828392453
 20
33.7690156897
 10
-15.1867834351
 20
33.5757592468
 10
-15.2762700928
 20
33.3735031457
 10
-15.3502713703
 20
33.1637138981
 10
-15.4074986372
 20
32.9498838105
 10
-15.4477215617
 20
32.7341524064
 10
-15.4711893896
 20
32.5170897781
 10
-15.4780112546
 20
32.3
  0
LWPOLYLINE
  5
215
100
AcDbEntity
  8
SUPERFICI
100
AcDbPolyline
 62
7
  6
CONTINUOUS
 90
7
 70
0
 10
12.9669196979
 20
-35.1661191244
 10
13.1122408775
 20
-35.1433155891
 10
13.2570734076
 20
-35.1129532424
 10
13.4010105723
 20
-35.0749779088
 10
13.5436363464
 20
-35.0293573333
 10
13.6845265065
 20
-34.9760821494
 10
13.8232498265
 20
-34.9151668
  0
LINE
  5
216
100
AcDbEntity
  8
0
100
AcDbLine
 62
7
  6
CONTINUOUS
 10
3.25
 20
-39.0
 11
-3.25
 21
-39.0
  0
LINE
  5
217
100
AcDbEntity
  8
0
100
AcDbLine
 62
7
  6
CONTINUOUS
 10
-12.3
 20
-37.3
 11
-3.25
 21
-37.3
  0
LINE
  5
218
100
AcDbEntity
  8
0
100
AcDbLine
 62
7
  6
CONTINUOUS
 10
3.25
 20
-37.3
 11
12.3
 21
-37.3
  0
LWPOLYLINE
  5
219
100
AcDbEntity
  8
SUPERFICI
100
AcDbPolyline
 62
7
  6
CONTINUOUS
 90
7
 70
0
 10
-12.9669196979
 20
-35.1661191244
 10
-13.1122408775
 20
-35.1433155891
 10
-13.2570734076
 20
-35.1129532424
 10
-13.4010105723
 20
-35.0749779088
 10
-13.5436363464
 20
-35.0293573333
 10
-13.6845265065
 20
-34.9760821494
 10
-13.8232498265
 20
-34.9151668
  0
LWPOLYLINE
  5
21A
100
AcDbEntity
  8
SUPERFICI
100
AcDbPolyline
 62
7
  6
CONTINUOUS
 90
16
 70
0
 10
-13.8232498265
 20
-34.9151668
 10
-14.0226993513
 20
-34.8120736891
 10
-14.2106162037
 20
-34.6957207411
 10
-14.3863143087
 20
-34.5674750354
 10
-14.5478080506
 20
-34.4300519355
 10
-14.6963497877
 20
-34.283667146
 10
-14.8354063713
 20
-34.1250114591
 10
-14.9651611012
 20
-33.9526768437
 10
-15.0828392453
 20
-33.7690156897
 10
-15.1867834351
 20
-33.5757592468
 10
-15.2762700928
 20
-33.3735031457
 10
-15.3502713703
 20
-33.1637138981
 10
-15.4074986372
 20
-32.9498838105
 10
-15.4477215617
 20
-32.7341524064
 10
-15.4711893896
 20
-32.5170897781
 10
-15.4780112546
 20
-32.3
  0
LWPOLYLINE
  5
21B
100
AcDbEntity
  8
SUPERFICI
100
AcDbPolyline
 62
7
  6
CONTINUOUS
 90
7
 70
0
 10
12.6
 20
-35.1903964381
 10
12.6619547022
 20
-35.1896110871
 10
12.7236257721
 20
-35.1874980858
 10
12.784984971
 20
-35.184074524
 10
12.8460047744
 20
-35.1793580182
 10
12.9066583771
 20
-35.1733666866
 10
12.9669196979
 20
-35.1661191244
  0
LINE
  5
21C
100
AcDbEntity
  8
SUPERFICI
100
AcDbLine
 62
7
  6
CONTINUOUS
 10
12.3013830031
 20
-35.1910295133
 11
12.6
 21
-35.1903964381
  0
LINE
  5
21D
100
AcDbEntity
  8
DRAFT
100
AcDbLine
 62
7
  6
CONTINUOUS
 10
12.6
 20
-35.3
 11
11.75
 21
-35.3
  0
LINE
  5
21E
100
AcDbEntity
  8
DRAFT
100
AcDbLine
 62
7
  6
CONTINUOUS
 10
10.75
 20
-35.3
 11
6.3987177379
 21
-35.3
  0
LINE
  5
21F
100
AcDbEntity
  8
DRAFT
100
AcDbLine
 62
7
  6
CONTINUOUS
 10
-6.3987177379
 20
-35.3
 11
-10.75
 21
-35.3
  0
LINE
  5
220
100
AcDbEntity
  8
DRAFT
100
AcDbLine
 62
7
  6
CONTINUOUS
 10
-11.75
 20
-35.3
 11
-12.6
 21
-35.3
  0
LINE
  5
221
100
AcDbEntity
  8
DRAFT
100
AcDbLine
 62
7
  6
CONTINUOUS
 10
-12.3013830031
 20
-35.1910295133
 11
-11.7862939805
 21
-35.1910295133
  0
LINE
  5
222
100
AcDbEntity
  8
DRAFT
100
AcDbLine
 62
7
  6
CONTINUOUS
 10
-10.7137060195
 20
-35.1910295133
 11
-6.5184698113
 21
-35.1910295133
  0
LINE
  5
223
100
AcDbEntity
  8
DRAFT
100
AcDbLine
 62
7
  6
CONTINUOUS
 10
6.5184698113
 20
-35.1910295133
 11
10.7137060195
 21
-35.1910295133
  0
LINE
  5
224
100
AcDbEntity
  8
DRAFT
100
AcDbLine
 62
7
  6
CONTINUOUS
 10
11.7862939805
 20
-35.1910295133
 11
12.3013830031
 21
-35.1910295133
  0
LINE
  5
225
100
AcDbEntity
  8
DRAFT
100
AcDbLine
 62
7
  6
CONTINUOUS
 10
2.5
 20
-34.3139640519
 11
-2.5
 21
-34.3139640519
  0
LINE
  5
226
100
AcDbEntity
  8
DRAFT
100
AcDbLine
 62
7
  6
CONTINUOUS
 10
3.4949874371
 20
-34.0
 11
0.9010976594
 21
-34.0
  0
LINE
  5
227
100
AcDbEntity
  8
DRAFT
100
AcDbLine
 62
7
  6
CONTINUOUS
 10
-0.9008780286
 20
-34.0
 11
-3.4949874371
 21
-34.0
  0
LINE
  5
228
100
AcDbEntity
  8
SUPERFICI
100
AcDbLine
 62
7
  6
CONTINUOUS
 10
-12.3013830031
 20
-35.1910295133
 11
-12.6
 21
-35.1903964381
  0
LWPOLYLINE
  5
229
100
AcDbEntity
  8
SUPERFICI
100
AcDbPolyline
 62
7
  6
CONTINUOUS
 90
7
 70
0
 10
-12.6
 20
-35.1903964381
 10
-12.6619547022
 20
-35.1896110871
 10
-12.7236257721
 20
-35.1874980858
 10
-12.784984971
 20
-35.184074524
 10
-12.8460047744
 20
-35.1793580182
 10
-12.9066583771
 20
-35.1733666866
 10
-12.9669196979
 20
-35.1661191244
  0
LINE
  5
22A
100
AcDbEntity
  8
DRAFT
100
AcDbLine
 62
7
  6
CONTINUOUS
 10
-10.75
 20
33.0
 11
-10.7041864161
 21
33.0458135839
  0
LWPOLYLINE
  5
22B
100
AcDbEntity
  8
RACCORDO
100
AcDbPolyline
 62
7
  6
CONTINUOUS
 90
7
 70
0
 10
-14.1477300259
 20
28.2607234205
 10
-14.1030399004
 20
28.2897096824
 10
-14.0560051115
 20
28.3135586578
 10
-14.0072240342
 20
28.3321495777
 10
-13.9572880864
 20
28.3454296406
 10
-13.9067745779
 20
28.3534105033
 10
-13.8562402867
 20
28.3561641343
  0
LINE
  5
22C
100
AcDbEntity
  8
DRAFT
100
AcDbLine
 62
7
  6
CONTINUOUS
 10
-10.7041864161
 20
-33.0458135839
 11
-7.3149763054
 21
-33.0458135839
  0
LINE
  5
22D
100
AcDbEntity
  8
DRAFT
100
AcDbLine
 62
7
  6
CONTINUOUS
 10
7.3149763054
 20
-33.0458135839
 11
10.7041864161
 21
-33.0458135839
  0
LINE
  5
22E
100
AcDbEntity
  8
DRAFT
100
AcDbLine
 62
7
  6
CONTINUOUS
 10
10.75
 20
-33.0
 11
7.2738873049
 21
-33.0
  0
LINE
  5
22F
100
AcDbEntity
  8
DRAFT
100
AcDbLine
 62
7
  6
CONTINUOUS
 10
-7.2738873049
 20
-33.0
 11
-10.75
 21
-33.0
  0
LINE
  5
230
100
AcDbEntity
  8
SUPERFICI
100
AcDbLine
 62
253
  6
CONTINUOUS
 10
15.6
 20
-32.3
 11
15.4780112546
 21
-32.3
  0
LINE
  5
231
100
AcDbEntity
  8
SUPERFICI
100
AcDbLine
 62
253
  6
CONTINUOUS
 10
-15.6
 20
-32.3
 11
-15.4780112546
 21
-32.3
  0
LINE
  5
232
100
AcDbEntity
  8
DRAFT
100
AcDbLine
 62
7
  6
CONTINUOUS
 10
-10.75
 20
-32.0
 11
-7.2738873049
 21
-32.0
  0
LINE
  5
233
100
AcDbEntity
  8
DRAFT
100
AcDbLine
 62
7
  6
CONTINUOUS
 10
7.2738873049
 20
-32.0
 11
10.75
 21
-32.0
  0
LINE
  5
234
100
AcDbEntity
  8
DRAFT
100
AcDbLine
 62
7
  6
CONTINUOUS
 10
-10.7001643326
 20
-31.9501643326
 11
-7.3185668761
 21
-31.9501643326
  0
LINE
  5
235
100
AcDbEntity
  8
DRAFT
100
AcDbLine
 62
7
  6
CONTINUOUS
 10
7.3185668761
 20
-31.9501643326
 11
10.7001643326
 21
-31.9501643326
  0
LINE
  5
236
100
AcDbEntity
  8
DRAFT
100
AcDbLine
 62
7
  6
CONTINUOUS
 10
3.4949874371
 20
-31.0
 11
0.8994928529
 21
-31.0
  0
LINE
  5
237
100
AcDbEntity
  8
DRAFT
100
AcDbLine
 62
7
  6
CONTINUOUS
 10
-0.8994819949
 20
-31.0
 11
-3.4949874371
 21
-31.0
  0
LWPOLYLINE
  5
238
100
AcDbEntity
  8
0
100
AcDbPolyline
 62
7
  6
CONTINUOUS
 90
31
 70
0
 10
-0.0
 20
-33.6167031803
 10
-0.0748747968
 20
-33.6161569376
 10
-0.1498904285
 20
-33.6105639544
 10
-0.2247046319
 20
-33.5998884339
 10
-0.2989974797
 20
-33.5841110099
 10
-0.372389464
 20
-33.5632460889
 10
-0.4444479054
 20
-33.5373609877
 10
-0.5149478438
 20
-33.5064738792
 10
-0.5834156051
 20
-33.4707276148
 10
-0.6490995782
 20
-33.430519955
 10
-0.7115152764
 20
-33.3862431147
 10
-0.7706362656
 20
-33.3380157372
 10
-0.826436185
 20
-33.2858926192
 10
-0.8787301659
 20
-33.2300275673
 10
-0.9272023167
 20
-33.1707379045
 10
-0.971621473
 20
-33.1083042671
 10
-1.011743085
 20
-33.0430875734
 10
-1.0474448197
 20
-32.9753058486
 10
-1.0786658573
 20
-32.9050208124
 10
-1.1052861157
 20
-32.8323250288
 10
-1.1270459714
 20
-32.75771641
 10
-1.143729684
 20
-32.6818837054
 10
-1.1552563824
 20
-32.6054155966
 10
-1.1616574661
 20
-32.528422873
 10
-1.1629218125
 20
-32.4508935354
 10
-1.1589794955
 20
-32.3729725847
 10
-1.1497903141
 20
-32.2952095372
 10
-1.1353998849
 20
-32.2181950981
 10
-1.1158958004
 20
-32.1423531632
 10
-1.0913536523
 20
-32.067944254
 10
-1.0618835114
 20
-31.995301003
  0
LWPOLYLINE
  5
239
100
AcDbEntity
  8
0
100
AcDbPolyline
 62
7
  6
CONTINUOUS
 90
43
 70
0
 10
-0.0
 20
-31.475334136
 10
0.0769251575
 20
-31.4760227964
 10
0.1537039273
 20
-31.482485522
 10
0.2299030692
 20
-31.4947009668
 10
0.3051372607
 20
-31.5126279046
 10
0.3789336985
 20
-31.536174492
 10
0.4507442632
 20
-31.5651648643
 10
0.5200676491
 20
-31.5993639809
 10
0.5866386848
 20
-31.6386070749
 10
0.6502731442
 20
-31.6827937396
 10
0.7105772719
 20
-31.7316842034
 10
0.7672264254
 20
-31.7850508855
 10
0.8200932909
 20
-31.8428659341
 10
0.8689742868
 20
-31.9051065271
 10
0.9133145206
 20
-31.9712864675
 10
0.952532064
 20
-32.0406192746
 10
0.9863824023
 20
-32.1126254489
 10
1.0147302502
 20
-32.1869621828
 10
1.0373595391
 20
-32.2629358034
 10
1.0541518039
 20
-32.3397380576
 10
1.0652067099
 20
-32.4172772065
 10
1.0705659319
 20
-32.4959464842
 10
1.0700845932
 20
-32.5755782566
 10
1.0636324512
 20
-32.6554852933
 10
1.0511240252
 20
-32.7352875623
 10
1.0324379379
 20
-32.8147650219
 10
1.0075872871
 20
-32.8931822042
 10
0.9768783654
 20
-32.969412154
 10
0.9405739044
 20
-33.0429207675
 10
0.8988696172
 20
-33.1134117743
 10
0.8522364773
 20
-33.1802257137
 10
0.8013548421
 20
-33.2426732758
 10
0.7463190137
 20
-33.3008962456
 10
0.6866242581
 20
-33.3554002995
 10
0.6220991367
 20
-33.4060693508
 10
0.553355794
 20
-33.4521634954
 10
0.4809707814
 20
-33.4931558882
 10
0.4051837031
 20
-33.5287974787
 10
0.3265142283
 20
-33.5587341183
 10
0.2461025371
 20
-33.5825322277
 10
0.1646783926
 20
-33.6000925011
 10
0.0824871744
 20
-33.6114763046
 10
-0.0
 20
-33.6167031803
  0
LWPOLYLINE
  5
23A
100
AcDbEntity
  8
0
100
AcDbPolyline
 62
7
  6
CONTINUOUS
 90
10
 70
0
 10
-0.125323614
 20
-31.4286225125
 10
-0.1932516001
 20
-31.4471950413
 10
-0.2593005734
 20
-31.4700321436
 10
-0.3232056864
 20
-31.4969685225
 10
-0.384715601
 20
-31.5278226333
 10
-0.4435934703
 20
-31.5623977379
 10
-0.4996178424
 20
-31.6004830182
 10
-0.5525834796
 20
-31.6418547415
 10
-0.602302092
 20
-31.6862774726
 10
-0.6486029823
 20
-31.7335053259
  0
LINE
  5
23B
100
AcDbEntity
  8
RACCORDO
100
AcDbLine
 62
7
  6
CONTINUOUS
 10
13.3125542169
 20
-28.3575596147
 11
13.8562402867
 21
-28.3561641343
  0
LINE
  5
23C
100
AcDbEntity
  8
DRAFT
100
AcDbLine
 62
7
  6
CONTINUOUS
 10
-2.5
 20
-30.6860359481
 11
2.5
 21
-30.6860359481
  0
LINE
  5
23D
100
AcDbEntity
  8
DRAFT
100
AcDbLine
 62
7
  6
CONTINUOUS
 10
-4.9959967949
 20
-28.4
 11
-0.5
 21
-28.4
  0
LINE
  5
23E
100
AcDbEntity
  8
DRAFT
100
AcDbLine
 62
7
  6
CONTINUOUS
 10
0.5
 20
-28.4
 11
4.9959967949
 21
-28.4
  0
LINE
  5
23F
100
AcDbEntity
  8
RACCORDO
100
AcDbLine
 62
7
  6
CONTINUOUS
 10
-10.6908259993
 20
-28.3591740007
 11
-7.3907498469
 21
-28.3591740007
  0
LINE
  5
240
100
AcDbEntity
  8
RACCORDO
100
AcDbLine
 62
7
  6
CONTINUOUS
 10
7.3907498469
 20
-28.3591740007
 11
10.6908259993
 21
-28.3591740007
  0
LINE
  5
241
100
AcDbEntity
  8
DRAFT
100
AcDbLine
 62
7
  6
CONTINUOUS
 10
11.8091740007
 20
-28.3591740007
 11
13.3125542169
 21
-28.3575596147
  0
LINE
  5
242
100
AcDbEntity
  8
DRAFT
100
AcDbLine
 62
7
  6
CONTINUOUS
 10
-5.0125464566
 20
-28.3407930738
 11
-0.5592069262
 21
-28.3407930738
  0
LINE
  5
243
100
AcDbEntity
  8
DRAFT
100
AcDbLine
 62
7
  6
CONTINUOUS
 10
0.5592069262
 20
-28.3407930738
 11
5.0125464566
 21
-28.3407930738
  0
LINE
  5
244
100
AcDbEntity
  8
RACCORDO
100
AcDbLine
 62
7
  6
CONTINUOUS
 10
13.8000761524
 20
-28.3
 11
11.75
 21
-28.3
  0
LINE
  5
245
100
AcDbEntity
  8
RACCORDO
100
AcDbLine
 62
7
  6
CONTINUOUS
 10
10.75
 20
-28.3
 11
7.4499238476
 21
-28.3
  0
LINE
  5
246
100
AcDbEntity
  8
RACCORDO
100
AcDbLine
 62
7
  6
CONTINUOUS
 10
-7.4499238476
 20
-28.3
 11
-10.75
 21
-28.3
  0
LINE
  5
247
100
AcDbEntity
  8
RACCORDO
100
AcDbLine
 62
7
  6
CONTINUOUS
 10
-11.75
 20
-28.3
 11
-13.8000761524
 21
-28.3
  0
LINE
  5
248
100
AcDbEntity
  8
DRAFT
100
AcDbLine
 62
7
  6
CONTINUOUS
 10
-13.3125542169
 20
-28.3575596147
 11
-11.8091740007
 21
-28.3591740007
  0
LINE
  5
249
100
AcDbEntity
  8
RACCORDO
100
AcDbLine
 62
7
  6
CONTINUOUS
 10
-13.8562402867
 20
-28.3561641343
 11
-13.3125542169
 21
-28.3575596147
  0
LWPOLYLINE
  5
24A
100
AcDbEntity
  8
RACCORDO
100
AcDbPolyline
 62
7
  6
CONTINUOUS
 90
7
 70
0
 10
-13.8562402867
 20
-28.3561641343
 10
-13.9064910054
 20
-28.3534403583
 10
-13.9568414854
 20
-28.3455236963
 10
-14.006735071
 20
-28.3323069266
 10
-14.0555873237
 20
-28.3137433245
 10
-14.1027923408
 20
-28.2898521266
 10
-14.1477300259
 20
-28.2607234205
  0
LINE
  5
24B
100
AcDbEntity
  8
0
100
AcDbLine
 62
7
  6
CONTINUOUS
 10
-1.0618835114
 20
-31.995301003
 11
-1.5805600342
 21
-31.7487810052
  0
LWPOLYLINE
  5
24C
100
AcDbEntity
  8
RACCORDO
100
AcDbPolyline
 62
7
  6
CONTINUOUS
 90
7
 70
0
 10
-14.1477300259
 20
-28.2607234205
 10
-14.208024431
 20
-28.2091316851
 10
-14.2593231487
 20
-28.1488787214
 10
-14.3004310016
 20
-28.0815490507
 10
-14.330426983
 20
-28.0088788513
 10
-14.3486809755
 20
-27.9327093403
 10
-14.3548627317
 20
-27.8549388842
  0
LINE
  5
24D
100
AcDbEntity
  8
DRAFT
100
AcDbLine
 62
7
  6
CONTINUOUS
 10
-7.2738873049
 20
32.0
 11
-7.3185668761
 21
31.9501643326
  0
LINE
  5
24E
100
AcDbEntity
  8
DRAFT
100
AcDbLine
 62
7
  6
CONTINUOUS
 10
-10.75
 20
28.3
 11
-10.6908259993
 21
28.3591740007
  0
LINE
  5
24F
100
AcDbEntity
  8
DRAFT
100
AcDbLine
 62
7
  6
CONTINUOUS
 10
-14.3
 20
22.6
 11
-14.3592204604
 21
22.5407795396
  0
LINE
  5
250
100
AcDbEntity
  8
RACCORDO
100
AcDbLine
 62
253
  6
CONTINUOUS
 10
-7.3907498469
 20
28.3591740007
 11
-7.4499238476
 21
28.3
  0
LWPOLYLINE
  5
251
100
AcDbEntity
  8
0
100
AcDbPolyline
 62
7
  6
CONTINUOUS
 90
13
 70
0
 10
-0.6486029823
 20
33.2664946741
 10
-0.6040711193
 20
33.3041861849
 10
-0.5572662519
 20
33.3393453893
 10
-0.508329102
 20
33.3718305626
 10
-0.4574383946
 20
33.4014918168
 10
-0.4047254949
 20
33.4282223382
 10
-0.3502647635
 20
33.4519420169
 10
-0.2940739581
 20
33.4725769494
 10
-0.2364738829
 20
33.4899442377
 10
-0.1780199134
 20
33.5038616325
 10
-0.1190451491
 20
33.514280823
 10
-0.0596362708
 20
33.521217161
 10
0.0
 20
33.524665864
  0
LINE
  5
252
100
AcDbEntity
  8
DRAFT
100
AcDbLine
 62
7
  6
CONTINUOUS
 10
-15.6
 20
23.6
 11
-15.4465301414
 21
23.6511150517
  0
LINE
  5
253
100
AcDbEntity
  8
SUPERFICI
100
AcDbLine
 62
253
  6
CONTINUOUS
 10
14.3210936674
 20
31.5950381673
 11
13.6951845444
 21
31.3869816303
  0
LINE
  5
254
100
AcDbEntity
  8
SUPERFICI
100
AcDbLine
 62
253
  6
CONTINUOUS
 10
13.6951845444
 20
31.3869816303
 11
13.3801402477
 21
31.2827819573
  0
LINE
  5
255
100
AcDbEntity
  8
SUPERFICI
100
AcDbLine
 62
253
  6
CONTINUOUS
 10
13.3801402477
 20
31.2827819573
 11
12.3
 21
30.947987293
  0
LINE
  5
256
100
AcDbEntity
  8
SUPERFICI
100
AcDbLine
 62
253
  6
CONTINUOUS
 10
-15.475314425
 20
-31.8511850689
 11
-15.0957149703
 21
-31.7654627191
  0
LINE
  5
257
100
AcDbEntity
  8
SUPERFICI
100
AcDbLine
 62
253
  6
CONTINUOUS
 10
-15.0957149703
 20
-31.7654627191
 11
-14.7105574386
 21
-31.6800804186
  0
LINE
  5
258
100
AcDbEntity
  8
SUPERFICI
100
AcDbLine
 62
253
  6
CONTINUOUS
 10
-14.7105574386
 20
-31.6800804186
 11
-14.3210936674
 21
-31.5950381673
  0
LINE
  5
259
100
AcDbEntity
  8
DRAFT
100
AcDbLine
 62
7
  6
CONTINUOUS
 10
3.4038178008
 20
-25.1436376623
 11
2.8257892676
 21
-25.1610927272
  0
LINE
  5
25A
100
AcDbEntity
  8
DRAFT
100
AcDbLine
 62
7
  6
CONTINUOUS
 10
-3.1730376046
 20
-27.8600150119
 11
-0.5600150119
 21
-27.8600150119
  0
LINE
  5
25B
100
AcDbEntity
  8
DRAFT
100
AcDbLine
 62
7
  6
CONTINUOUS
 10
0.5600150119
 20
-27.8600150119
 11
3.1730376046
 21
-27.8600150119
  0
LINE
  5
25C
100
AcDbEntity
  8
DRAFT
100
AcDbLine
 62
7
  6
CONTINUOUS
 10
3.15
 20
-27.8
 11
0.5
 21
-27.8
  0
LINE
  5
25D
100
AcDbEntity
  8
DRAFT
100
AcDbLine
 62
7
  6
CONTINUOUS
 10
-0.5
 20
-27.8
 11
-3.15
 21
-27.8
  0
LINE
  5
25E
100
AcDbEntity
  8
RACCORDO
100
AcDbLine
 62
7
  6
CONTINUOUS
 10
-13.8000761524
 20
-27.1
 11
-13.275
 21
-27.1
  0
LINE
  5
25F
100
AcDbEntity
  8
DRAFT
100
AcDbLine
 62
7
  6
CONTINUOUS
 10
13.275
 20
-27.1
 11
8.1674550649
 21
-27.1
  0
LINE
  5
260
100
AcDbEntity
  8
RACCORDO
100
AcDbLine
 62
7
  6
CONTINUOUS
 10
-8.1674550649
 20
-27.1
 11
-7.4499238476
 21
-27.1
  0
LINE
  5
261
100
AcDbEntity
  8
RACCORDO
100
AcDbLine
 62
7
  6
CONTINUOUS
 10
7.4499238476
 20
-27.1
 11
8.1674550649
 21
-27.1
  0
LINE
  5
262
100
AcDbEntity
  8
DRAFT
100
AcDbLine
 62
7
  6
CONTINUOUS
 10
-8.1674550649
 20
-27.1
 11
-13.275
 21
-27.1
  0
LINE
  5
263
100
AcDbEntity
  8
RACCORDO
100
AcDbLine
 62
7
  6
CONTINUOUS
 10
13.275
 20
-27.1
 11
13.8000761524
 21
-27.1
  0
LINE
  5
264
100
AcDbEntity
  8
0
100
AcDbLine
 62
7
  6
CONTINUOUS
 10
2.5
 20
-27.0
 11
-2.5
 21
-27.0
  0
LINE
  5
265
100
AcDbEntity
  8
DRAFT
100
AcDbLine
 62
7
  6
CONTINUOUS
 10
-13.1528145455
 20
-26.9778145455
 11
-8.2896405194
 21
-26.9778145455
  0
LINE
  5
266
100
AcDbEntity
  8
DRAFT
100
AcDbLine
 62
7
  6
CONTINUOUS
 10
8.2896405194
 20
-26.9778145455
 11
13.1528145455
 21
-26.9778145455
  0
LINE
  5
267
100
AcDbEntity
  8
RACCORDO
100
AcDbLine
 62
7
  6
CONTINUOUS
 10
13.6255255031
 20
-26.9254493507
 11
7.6244744969
 21
-26.9254493507
  0
LINE
  5
268
100
AcDbEntity
  8
RACCORDO
100
AcDbLine
 62
7
  6
CONTINUOUS
 10
-7.6244744969
 20
-26.9254493507
 11
-13.6255255031
 21
-26.9254493507
  0
LINE
  5
269
100
AcDbEntity
  8
DRAFT
100
AcDbLine
 62
7
  6
CONTINUOUS
 10
13.1004493507
 20
-26.0
 11
8.3420057142
 21
-26.0
  0
LINE
  5
26A
100
AcDbEntity
  8
DRAFT
100
AcDbLine
 62
7
  6
CONTINUOUS
 10
-8.3420057142
 20
-26.0
 11
-13.1004493507
 21
-26.0
  0
LINE
  5
26B
100
AcDbEntity
  8
SUPERFICI
100
AcDbLine
 62
7
  6
CONTINUOUS
 10
-2.8466909456
 20
-25.4
 11
2.8466909456
 21
-25.4
  0
LINE
  5
26C
100
AcDbEntity
  8
DRAFT
100
AcDbLine
 62
7
  6
CONTINUOUS
 10
-3.4038178008
 20
-25.1436376623
 11
-2.8257892676
 21
-25.1610927272
  0
LWPOLYLINE
  5
26D
100
AcDbEntity
  8
RACCORDO
100
AcDbPolyline
 62
7
  6
CONTINUOUS
 90
10
 70
0
 10
7.3907498469
 20
-28.3591740007
 10
7.304023878
 20
-28.3516176
 10
7.2198272985
 20
-28.3291326335
 10
7.1407256068
 20
-28.2923603438
 10
7.0690779925
 20
-28.2423351852
 10
7.0071711647
 20
-28.1805730625
 10
6.95705473
 20
-28.109124134
 10
6.9202214576
 20
-28.0302821524
 10
6.897663044
 20
-27.9464183979
 10
6.8899851078
 20
-27.8600910446
  0
LINE
  5
26E
100
AcDbEntity
  8
SUPERFICI
100
AcDbLine
 62
253
  6
CONTINUOUS
 10
14.9037520592
 20
-31.7227290627
 11
14.3210936674
 21
-31.5950381673
  0
LINE
  5
26F
100
AcDbEntity
  8
SUPERFICI
100
AcDbLine
 62
253
  6
CONTINUOUS
 10
15.475314425
 20
-31.8511850689
 11
14.9037520592
 21
-31.7227290627
  0
LINE
  5
270
100
AcDbEntity
  8
SUPERFICI
100
AcDbLine
 62
253
  6
CONTINUOUS
 10
13.3801402477
 20
-31.2827819573
 11
12.3
 21
-30.947987293
  0
LINE
  5
271
100
AcDbEntity
  8
DRAFT
100
AcDbLine
 62
7
  6
CONTINUOUS
 10
-15.6
 20
-23.6
 11
-15.4465301414
 21
-23.6511150517
  0
LINE
  5
272
100
AcDbEntity
  8
SUPERFICI
100
AcDbLine
 62
253
  6
CONTINUOUS
 10
14.3210936674
 20
-31.5950381673
 11
13.3801402477
 21
-31.2827819573
  0
LINE
  5
273
100
AcDbEntity
  8
DRAFT
100
AcDbLine
 62
7
  6
CONTINUOUS
 10
-10.75
 20
-28.3
 11
-10.6908259993
 21
-28.3591740007
  0
LINE
  5
274
100
AcDbEntity
  8
DRAFT
100
AcDbLine
 62
7
  6
CONTINUOUS
 10
-14.3
 20
-22.6
 11
-14.3592204604
 21
-22.5407795396
  0
LINE
  5
275
100
AcDbEntity
  8
RACCORDO
100
AcDbLine
 62
253
  6
CONTINUOUS
 10
-7.3907498469
 20
-28.3591740007
 11
-7.4499238476
 21
-28.3
  0
LINE
  5
276
100
AcDbEntity
  8
DRAFT
100
AcDbLine
 62
7
  6
CONTINUOUS
 10
-7.2738873049
 20
-32.0
 11
-7.3185668761
 21
-31.9501643326
  0
LWPOLYLINE
  5
277
100
AcDbEntity
  8
DRAFT
100
AcDbPolyline
 62
7
  6
CONTINUOUS
 90
10
 70
0
 10
-6.5184698113
 20
35.1910295133
 10
-6.6571373089
 20
34.9733032751
 10
-6.783459785
 20
34.7498773923
 10
-6.8974372397
 20
34.5207338147
 10
-6.999331903
 20
34.2850850708
 10
-7.0888815448
 20
34.0436816875
 10
-7.165299475
 20
33.7988245
 10
-7.2283234635
 20
33.5512823586
 10
-7.2782157403
 20
33.3002799151
 10
-7.3149763054
 20
33.0458135839
  0
LINE
  5
278
100
AcDbEntity
  8
DRAFT
100
AcDbLine
 62
7
  6
CONTINUOUS
 10
-8.1674550649
 20
27.1
 11
-8.2896405194
 21
26.9778145455
  0
LINE
  5
279
100
AcDbEntity
  8
RACCORDO
100
AcDbLine
 62
253
  6
CONTINUOUS
 10
-6.8899851078
 20
27.8600910446
 11
-6.95
 21
27.8000761524
  0
LINE
  5
27A
100
AcDbEntity
  8
RACCORDO
100
AcDbLine
 62
253
  6
CONTINUOUS
 10
-7.4499238476
 20
27.1
 11
-7.6244744969
 21
26.9254493507
  0
LINE
  5
27B
100
AcDbEntity
  8
RACCORDO
100
AcDbLine
 62
253
  6
CONTINUOUS
 10
-6.95
 20
26.6000761524
 11
-7.1245506493
 21
26.4255255031
  0
LINE
  5
27C
100
AcDbEntity
  8
RACCORDO
100
AcDbLine
 62
7
  6
CONTINUOUS
 10
-7.1159754333
 20
24.9340245667
 11
-6.88733701
 21
25.16266299
  0
LINE
  5
27D
100
AcDbEntity
  8
DRAFT
100
AcDbLine
 62
7
  6
CONTINUOUS
 10
-6.14865379
 20
25.1
 11
-3.15
 21
27.8
  0
LINE
  5
27E
100
AcDbEntity
  8
DRAFT
100
AcDbLine
 62
7
  6
CONTINUOUS
 10
-10.7761825974
 20
22.5
 11
-10.75
 21
22.5130903017
  0
LINE
  5
27F
100
AcDbEntity
  8
DRAFT
100
AcDbLine
 62
7
  6
CONTINUOUS
 10
-15.4465301414
 20
-24.2664285672
 11
-14.3592204604
 21
-24.2588624917
  0
LINE
  5
280
100
AcDbEntity
  8
DRAFT
100
AcDbLine
 62
7
  6
CONTINUOUS
 10
-6.88733701
 20
-25.16266299
 11
-6.1727078582
 21
-25.16266299
  0
LINE
  5
281
100
AcDbEntity
  8
DRAFT
100
AcDbLine
 62
7
  6
CONTINUOUS
 10
6.1727078582
 20
-25.16266299
 11
6.88733701
 21
-25.16266299
  0
LINE
  5
282
100
AcDbEntity
  8
DRAFT
100
AcDbLine
 62
7
  6
CONTINUOUS
 10
-2.8257892676
 20
-25.1610927272
 11
2.8257892676
 21
-25.1610927272
  0
LINE
  5
283
100
AcDbEntity
  8
DRAFT
100
AcDbLine
 62
7
  6
CONTINUOUS
 10
6.14865379
 20
-25.1
 11
4.5
 21
-25.1
  0
LINE
  5
284
100
AcDbEntity
  8
DRAFT
100
AcDbLine
 62
7
  6
CONTINUOUS
 10
-4.5
 20
-25.1
 11
-6.14865379
 21
-25.1
  0
LINE
  5
285
100
AcDbEntity
  8
DRAFT
100
AcDbLine
 62
7
  6
CONTINUOUS
 10
4.5
 20
-25.0301797403
 11
3.3938915188
 21
-25.0301797403
  0
LINE
  5
286
100
AcDbEntity
  8
DRAFT
100
AcDbLine
 62
7
  6
CONTINUOUS
 10
-3.3938915188
 20
-25.0301797403
 11
-4.5
 21
-25.0301797403
  0
LINE
  5
287
100
AcDbEntity
  8
RACCORDO
100
AcDbLine
 62
253
  6
CONTINUOUS
 10
-7.1159754333
 20
-24.9340245667
 11
7.1159754333
 21
-24.9340245667
  0
LINE
  5
288
100
AcDbEntity
  8
RACCORDO
100
AcDbLine
 62
253
  6
CONTINUOUS
 10
-7.1245506493
 20
-24.4341007192
 11
7.1245506493
 21
-24.4341007192
  0
LINE
  5
289
100
AcDbEntity
  8
DRAFT
100
AcDbLine
 62
7
  6
CONTINUOUS
 10
-13.1004493507
 20
-23.8
 11
-8.3420057142
 21
-23.8
  0
LINE
  5
28A
100
AcDbEntity
  8
DRAFT
100
AcDbLine
 62
7
  6
CONTINUOUS
 10
8.3420057142
 20
-23.8
 11
13.1004493507
 21
-23.8
  0
LINE
  5
28B
100
AcDbEntity
  8
0
100
AcDbLine
 62
7
  6
CONTINUOUS
 10
3.0
 20
-23.6090858474
 11
-3.0
 21
-23.6090858474
  0
LINE
  5
28C
100
AcDbEntity
  8
DRAFT
100
AcDbLine
 62
7
  6
CONTINUOUS
 10
15.6
 20
-23.6
 11
14.3
 21
-23.6
  0
LINE
  5
28D
100
AcDbEntity
  8
DRAFT
100
AcDbLine
 62
7
  6
CONTINUOUS
 10
-14.3
 20
-23.6
 11
-15.6
 21
-23.6
  0
LINE
  5
28E
100
AcDbEntity
  8
0
100
AcDbLine
 62
7
  6
CONTINUOUS
 10
12.8872686779
 20
-22.6090858474
 11
3.0
 21
-22.6090858474
  0
LINE
  5
28F
100
AcDbEntity
  8
0
100
AcDbLine
 62
7
  6
CONTINUOUS
 10
-3.0
 20
-22.6090858474
 11
-12.8872686779
 21
-22.6090858474
  0
LINE
  5
290
100
AcDbEntity
  8
DRAFT
100
AcDbLine
 62
7
  6
CONTINUOUS
 10
-15.6
 20
-22.6
 11
-14.3
 21
-22.6
  0
LINE
  5
291
100
AcDbEntity
  8
DRAFT
100
AcDbLine
 62
7
  6
CONTINUOUS
 10
14.3
 20
-22.6
 11
15.6
 21
-22.6
  0
LINE
  5
292
100
AcDbEntity
  8
0
100
AcDbLine
 62
7
  6
CONTINUOUS
 10
3.0
 20
-22.5851869535
 11
-3.0
 21
-22.5851869535
  0
LINE
  5
293
100
AcDbEntity
  8
DRAFT
100
AcDbLine
 62
7
  6
CONTINUOUS
 10
-3.1745998364
 20
-22.5236643411
 11
3.1745998364
 21
-22.5236643411
  0
LINE
  5
294
100
AcDbEntity
  8
DRAFT
100
AcDbLine
 62
7
  6
CONTINUOUS
 10
-10.75
 20
-22.5130903017
 11
-8.15
 21
-22.5130903017
  0
LINE
  5
295
100
AcDbEntity
  8
DRAFT
100
AcDbLine
 62
7
  6
CONTINUOUS
 10
8.15
 20
-22.5130903017
 11
10.75
 21
-22.5130903017
  0
LINE
  5
296
100
AcDbEntity
  8
DRAFT
100
AcDbLine
 62
7
  6
CONTINUOUS
 10
11.1923514428
 20
-22.5
 11
10.7761825974
 21
-22.5
  0
LINE
  5
297
100
AcDbEntity
  8
DRAFT
100
AcDbLine
 62
7
  6
CONTINUOUS
 10
8.1238174026
 20
-22.5
 11
4.5
 21
-22.5
  0
LINE
  5
298
100
AcDbEntity
  8
SUPERFICI
100
AcDbLine
 62
7
  6
CONTINUOUS
 10
-3.1725294748
 20
-22.5
 11
3.1725294748
 21
-22.5
  0
LINE
  5
299
100
AcDbEntity
  8
DRAFT
100
AcDbLine
 62
7
  6
CONTINUOUS
 10
-4.5
 20
-22.5
 11
-8.1238174026
 21
-22.5
  0
LINE
  5
29A
100
AcDbEntity
  8
DRAFT
100
AcDbLine
 62
7
  6
CONTINUOUS
 10
-10.7761825974
 20
-22.5
 11
-11.1923514428
 21
-22.5
  0
LINE
  5
29B
100
AcDbEntity
  8
DRAFT
100
AcDbLine
 62
7
  6
CONTINUOUS
 10
12.768583276
 20
-22.4904004454
 11
11.25
 21
-22.4904004454
  0
LINE
  5
29C
100
AcDbEntity
  8
DRAFT
100
AcDbLine
 62
7
  6
CONTINUOUS
 10
-11.25
 20
-22.4904004454
 11
-12.768583276
 21
-22.4904004454
  0
LINE
  5
29D
100
AcDbEntity
  8
DRAFT
100
AcDbLine
 62
7
  6
CONTINUOUS
 10
15.4465301414
 20
-24.2664285672
 11
14.3592204604
 21
-24.2588624917
  0
LINE
  5
29E
100
AcDbEntity
  8
DRAFT
100
AcDbLine
 62
7
  6
CONTINUOUS
 10
-10.7761825974
 20
-22.5
 11
-10.75
 21
-22.5130903017
  0
LINE
  5
29F
100
AcDbEntity
  8
DRAFT
100
AcDbLine
 62
7
  6
CONTINUOUS
 10
-3.15
 20
-27.8
 11
-6.14865379
 21
-25.1
  0
LINE
  5
2A0
100
AcDbEntity
  8
DRAFT
100
AcDbLine
 62
7
  6
CONTINUOUS
 10
-8.1674550649
 20
-27.1
 11
-8.2896405194
 21
-26.9778145455
  0
LINE
  5
2A1
100
AcDbEntity
  8
RACCORDO
100
AcDbLine
 62
253
  6
CONTINUOUS
 10
-6.8899851078
 20
-27.8600910446
 11
-6.95
 21
-27.8000761524
  0
LINE
  5
2A2
100
AcDbEntity
  8
RACCORDO
100
AcDbLine
 62
253
  6
CONTINUOUS
 10
-7.6244744969
 20
-26.9254493507
 11
-7.4499238476
 21
-27.1
  0
LINE
  5
2A3
100
AcDbEntity
  8
RACCORDO
100
AcDbLine
 62
253
  6
CONTINUOUS
 10
-7.1245506493
 20
-26.4255255031
 11
-6.95
 21
-26.6000761524
  0
LINE
  5
2A4
100
AcDbEntity
  8
RACCORDO
100
AcDbLine
 62
7
  6
CONTINUOUS
 10
-7.1159754333
 20
-24.9340245667
 11
-6.88733701
 21
-25.16266299
  0
LINE
  5
2A5
100
AcDbEntity
  8
DRAFT
100
AcDbLine
 62
7
  6
CONTINUOUS
 10
-11.75
 20
35.3
 11
-11.7862939805
 21
35.1910295133
  0
LINE
  5
2A6
100
AcDbEntity
  8
DRAFT
100
AcDbLine
 62
7
  6
CONTINUOUS
 10
-0.5
 20
28.4
 11
-0.5592069262
 21
28.3407930738
  0
LINE
  5
2A7
100
AcDbEntity
  8
0
100
AcDbLine
 62
7
  6
CONTINUOUS
 10
-4.5
 20
25.1991919114
 11
-2.5
 21
27.0
  0
LWPOLYLINE
  5
2A8
100
AcDbEntity
  8
DRAFT
100
AcDbPolyline
 62
7
  6
CONTINUOUS
 90
10
 70
0
 10
5.0125464566
 20
28.3407930738
 10
5.4263575698
 20
28.6228637183
 10
5.8027674937
 20
28.9379058731
 10
6.1417762282
 20
29.2858097385
 10
6.446044395
 20
29.6703149801
 10
6.7129113725
 20
30.0873761886
 10
6.9343952958
 20
30.5252163968
 10
7.1078355434
 20
30.9798194568
 10
7.2358927368
 20
31.4548706565
 10
7.3185668761
 20
31.9501643326
  0
LINE
  5
2A9
100
AcDbEntity
  8
DRAFT
100
AcDbLine
 62
7
  6
CONTINUOUS
 10
-11.2499912439
 20
-22.5095980965
 11
-11.1923514428
 21
-22.5
  0
LWPOLYLINE
  5
2AA
100
AcDbEntity
  8
0
100
AcDbPolyline
 62
7
  6
CONTINUOUS
 90
10
 70
0
 10
12.025
 20
-21.5832670354
 10
12.1409153642
 20
-21.5783034275
 10
12.2466401397
 20
-21.5594584316
 10
12.3421743267
 20
-21.5267320476
 10
12.4294207801
 20
-21.4794106436
 10
12.506476645
 20
-21.4182078516
 10
12.5676333559
 20
-21.3452645666
 10
12.6109880578
 20
-21.2612944204
 10
12.6384436059
 20
-21.1655837812
 10
12.65
 20
-21.058132649
  0
LINE
  5
2AB
100
AcDbEntity
  8
0
100
AcDbLine
 62
7
  6
CONTINUOUS
 10
11.4
 20
-22.0
 11
11.584564
 21
-22.0
  0
LINE
  5
2AC
100
AcDbEntity
  8
0
100
AcDbLine
 62
7
  6
CONTINUOUS
 10
11.584564
 20
-21.818891
 11
11.4
 21
-21.818891
  0
LINE
  5
2AD
100
AcDbEntity
  8
0
100
AcDbLine
 62
7
  6
CONTINUOUS
 10
11.544493
 20
-20.720391
 11
12.505507
 21
-20.720391
  0
LINE
  5
2AE
100
AcDbEntity
  8
0
100
AcDbLine
 62
7
  6
CONTINUOUS
 10
12.65
 20
-20.55152
 11
11.4
 21
-20.55152
  0
LINE
  5
2AF
100
AcDbEntity
  8
0
100
AcDbLine
 62
7
  6
CONTINUOUS
 10
11.4
 20
-20.278227
 11
12.65
 21
-20.278227
  0
LINE
  5
2B0
100
AcDbEntity
  8
0
100
AcDbLine
 62
7
  6
CONTINUOUS
 10
12.65
 20
-20.114587
 11
11.634647
 21
-20.114587
  0
LWPOLYLINE
  5
2B1
100
AcDbEntity
  8
0
100
AcDbPolyline
 62
7
  6
CONTINUOUS
 90
10
 70
0
 10
12.025
 20
-21.4095276767
 10
11.9357352333
 20
-21.408380997
 10
11.8540078443
 20
-21.3964370457
 10
11.7798178329
 20
-21.3736958229
 10
11.7112566694
 20
-21.3392304292
 10
11.6502328835
 20
-21.2939677639
 10
11.6024720646
 20
-21.2406885251
 10
11.5698827427
 20
-21.180319612
 10
11.5505563878
 20
-21.1119341254
 10
11.544493
 20
-21.0355320652
  0
LINE
  5
2B2
100
AcDbEntity
  8
DRAFT
100
AcDbLine
 62
7
  6
CONTINUOUS
 10
11.2499912439
 20
-22.5095980965
 11
11.1923514428
 21
-22.5
  0
LINE
  5
2B3
100
AcDbEntity
  8
0
100
AcDbLine
 62
7
  6
CONTINUOUS
 10
-2.5
 20
-27.0
 11
-4.5
 21
-25.1991919114
  0
LINE
  5
2B4
100
AcDbEntity
  8
DRAFT
100
AcDbLine
 62
7
  6
CONTINUOUS
 10
-0.5
 20
-28.4
 11
-0.5592069262
 21
-28.3407930738
  0
LINE
  5
2B5
100
AcDbEntity
  8
DRAFT
100
AcDbLine
 62
7
  6
CONTINUOUS
 10
-11.75
 20
-35.3
 11
-11.7862939805
 21
-35.1910295133
  0
LINE
  5
2B6
100
AcDbEntity
  8
0
100
AcDbLine
 62
7
  6
CONTINUOUS
 10
-17.3
 20
-32.3
 11
-17.3
 21
32.3
  0
LINE
  5
2B7
100
AcDbEntity
  8
DRAFT
100
AcDbLine
 62
7
  6
CONTINUOUS
 10
0.5
 20
27.8
 11
0.5600150119
 21
27.8600150119
  0
LINE
  5
2B8
100
AcDbEntity
  8
DRAFT
100
AcDbLine
 62
7
  6
CONTINUOUS
 10
-14.3
 20
11.0
 11
-14.3592204604
 21
10.9407795396
  0
LINE
  5
2B9
100
AcDbEntity
  8
DRAFT
100
AcDbLine
 62
7
  6
CONTINUOUS
 10
-12.8872686779
 20
11.9127313221
 11
-12.768583276
 21
12.031416724
  0
LWPOLYLINE
  5
2BA
100
AcDbEntity
  8
0
100
AcDbPolyline
 62
7
  6
CONTINUOUS
 90
10
 70
0
 10
12.288768259
 20
-17.9135829522
 10
12.3588243614
 20
-17.908578045
 10
12.4219784557
 20
-17.8938337762
 10
12.478230542
 20
-17.8693501459
 10
12.5283510237
 20
-17.8341898356
 10
12.5715694973
 20
-17.7892901637
 10
12.6055747528
 20
-17.7374630859
 10
12.6295963867
 20
-17.6796459207
 10
12.6444048024
 20
-17.6149013495
 10
12.65
 20
-17.5432293723
  0
LINE
  5
2BB
100
AcDbEntity
  8
0
100
AcDbLine
 62
7
  6
CONTINUOUS
 10
11.4
 20
-19.449566
 11
12.41526
 21
-19.449566
  0
LINE
  5
2BC
100
AcDbEntity
  8
0
100
AcDbLine
 62
7
  6
CONTINUOUS
 10
12.65
 20
-19.285926
 11
11.4
 21
-19.285926
  0
LINE
  5
2BD
100
AcDbEntity
  8
0
100
AcDbLine
 62
7
  6
CONTINUOUS
 10
11.4
 20
-19.064844
 11
11.549724
 21
-19.064844
  0
LINE
  5
2BE
100
AcDbEntity
  8
0
100
AcDbLine
 62
7
  6
CONTINUOUS
 10
12.500276
 20
-19.052704
 11
12.65
 21
-19.052704
  0
LINE
  5
2BF
100
AcDbEntity
  8
0
100
AcDbLine
 62
7
  6
CONTINUOUS
 10
11.967509
 20
-18.995263
 11
12.117233
 21
-18.995263
  0
LINE
  5
2C0
100
AcDbEntity
  8
0
100
AcDbLine
 62
7
  6
CONTINUOUS
 10
11.549724
 20
-18.310995
 11
11.967509
 21
-18.310995
  0
LINE
  5
2C1
100
AcDbEntity
  8
0
100
AcDbLine
 62
7
  6
CONTINUOUS
 10
12.117233
 20
-18.310995
 11
12.500276
 21
-18.310995
  0
LINE
  5
2C2
100
AcDbEntity
  8
0
100
AcDbLine
 62
7
  6
CONTINUOUS
 10
12.65
 20
-18.142124
 11
11.4
 21
-18.142124
  0
LINE
  5
2C3
100
AcDbEntity
  8
0
100
AcDbLine
 62
7
  6
CONTINUOUS
 10
11.4
 20
-17.149822
 11
11.927537
 21
-17.149822
  0
LINE
  5
2C4
100
AcDbEntity
  8
0
100
AcDbLine
 62
7
  6
CONTINUOUS
 10
12.072029
 20
-17.149822
 11
12.505507
 21
-17.149822
  0
LINE
  5
2C5
100
AcDbEntity
  8
0
100
AcDbLine
 62
7
  6
CONTINUOUS
 10
12.65
 20
-16.980951
 11
11.4
 21
-16.980951
  0
LWPOLYLINE
  5
2C6
100
AcDbEntity
  8
0
100
AcDbPolyline
 62
7
  6
CONTINUOUS
 90
10
 70
0
 10
12.288768259
 20
-17.7396069897
 10
12.2434326113
 20
-17.7380881021
 10
12.2031162635
 20
-17.7293076759
 10
12.1678192155
 20
-17.7132657109
 10
12.1371493647
 20
-17.6889150918
 10
12.1114988137
 20
-17.657302934
 10
12.0920438709
 20
-17.6215705839
 10
12.0791766391
 20
-17.5827651568
 10
12.0725050155
 20
-17.5398395372
 10
12.072029
 20
-17.4927937253
  0
LINE
  5
2C7
100
AcDbEntity
  8
DRAFT
100
AcDbLine
 62
7
  6
CONTINUOUS
 10
0.5
 20
-27.8
 11
0.5600150119
 21
-27.8600150119
  0
LINE
  5
2C8
100
AcDbEntity
  8
DRAFT
100
AcDbLine
 62
7
  6
CONTINUOUS
 10
-14.3
 20
-11.0
 11
-14.3592204604
 21
-10.9407795396
  0
LINE
  5
2C9
100
AcDbEntity
  8
DRAFT
100
AcDbLine
 62
7
  6
CONTINUOUS
 10
-12.8872686779
 20
-11.9127313221
 11
-12.768583276
 21
-12.031416724
  0
LINE
  5
2CA
100
AcDbEntity
  8
SUPERFICI
100
AcDbLine
 62
7
  6
CONTINUOUS
 10
-15.4780112546
 20
32.3
 11
-15.4711825947
 21
31.0400504463
  0
LINE
  5
2CB
100
AcDbEntity
  8
SUPERFICI
100
AcDbLine
 62
7
  6
CONTINUOUS
 10
-15.4711825947
 20
31.0400504463
 11
-15.4602066536
 21
28.559069362
  0
LINE
  5
2CC
100
AcDbEntity
  8
SUPERFICI
100
AcDbLine
 62
7
  6
CONTINUOUS
 10
-15.4602066536
 20
28.559069362
 11
-15.4513480333
 21
26.0070046223
  0
LINE
  5
2CD
100
AcDbEntity
  8
SUPERFICI
100
AcDbLine
 62
7
  6
CONTINUOUS
 10
-15.4513480333
 20
26.0070046223
 11
-15.4466035533
 21
24.2664903341
  0
LINE
  5
2CE
100
AcDbEntity
  8
RACCORDO
100
AcDbLine
 62
7
  6
CONTINUOUS
 10
-14.3592204604
 20
-24.2588624917
 11
-14.3548627317
 21
-27.8549388842
  0
LINE
  5
2CF
100
AcDbEntity
  8
DRAFT
100
AcDbLine
 62
7
  6
CONTINUOUS
 10
-15.6
 20
32.3
 11
-15.6
 21
23.6
  0
LINE
  5
2D0
100
AcDbEntity
  8
DRAFT
100
AcDbLine
 62
7
  6
CONTINUOUS
 10
-15.6
 20
22.6
 11
-15.6
 21
12.0
  0
LINE
  5
2D1
100
AcDbEntity
  8
DRAFT
100
AcDbLine
 62
7
  6
CONTINUOUS
 10
-15.6
 20
11.0
 11
-15.6
 21
0.5
  0
LINE
  5
2D2
100
AcDbEntity
  8
DRAFT
100
AcDbLine
 62
7
  6
CONTINUOUS
 10
-15.6
 20
-0.5
 11
-15.6
 21
-11.0
  0
LINE
  5
2D3
100
AcDbEntity
  8
DRAFT
100
AcDbLine
 62
7
  6
CONTINUOUS
 10
-15.6
 20
-12.0
 11
-15.6
 21
-22.6
  0
LINE
  5
2D4
100
AcDbEntity
  8
DRAFT
100
AcDbLine
 62
7
  6
CONTINUOUS
 10
-15.6
 20
-23.6
 11
-15.6
 21
-32.3
  0
LINE
  5
2D5
100
AcDbEntity
  8
DRAFT
100
AcDbLine
 62
7
  6
CONTINUOUS
 10
-15.4465301414
 20
-22.5488849483
 11
-15.4465301414
 21
-12.0511150517
  0
LINE
  5
2D6
100
AcDbEntity
  8
DRAFT
100
AcDbLine
 62
7
  6
CONTINUOUS
 10
-15.4465301414
 20
-10.9488849483
 11
-15.4465301414
 21
-0.5511150517
  0
LINE
  5
2D7
100
AcDbEntity
  8
DRAFT
100
AcDbLine
 62
7
  6
CONTINUOUS
 10
-15.4465301414
 20
0.5511150517
 11
-15.4465301414
 21
10.9488849483
  0
LINE
  5
2D8
100
AcDbEntity
  8
DRAFT
100
AcDbLine
 62
7
  6
CONTINUOUS
 10
-15.4465301414
 20
12.0511150517
 11
-15.4465301414
 21
22.5488849483
  0
LINE
  5
2D9
100
AcDbEntity
  8
DRAFT
100
AcDbLine
 62
7
  6
CONTINUOUS
 10
-15.4465301414
 20
23.6511150517
 11
-15.4466035533
 21
24.2664903341
  0
LINE
  5
2DA
100
AcDbEntity
  8
DRAFT
100
AcDbLine
 62
7
  6
CONTINUOUS
 10
-14.3592204604
 20
24.2588624917
 11
-14.3592204604
 21
23.6592204604
  0
LINE
  5
2DB
100
AcDbEntity
  8
DRAFT
100
AcDbLine
 62
7
  6
CONTINUOUS
 10
-14.3592204604
 20
22.5407795396
 11
-14.3592204604
 21
12.0592204604
  0
LINE
  5
2DC
100
AcDbEntity
  8
DRAFT
100
AcDbLine
 62
7
  6
CONTINUOUS
 10
-14.3592204604
 20
10.9407795396
 11
-14.3592204604
 21
0.5592204604
  0
LINE
  5
2DD
100
AcDbEntity
  8
DRAFT
100
AcDbLine
 62
7
  6
CONTINUOUS
 10
-14.3592204604
 20
-0.5592204604
 11
-14.3592204604
 21
-10.9407795396
  0
LINE
  5
2DE
100
AcDbEntity
  8
DRAFT
100
AcDbLine
 62
7
  6
CONTINUOUS
 10
-14.3592204604
 20
-12.0592204604
 11
-14.3592204604
 21
-22.5407795396
  0
LINE
  5
2DF
100
AcDbEntity
  8
DRAFT
100
AcDbLine
 62
7
  6
CONTINUOUS
 10
-14.3592204604
 20
-23.6592204604
 11
-14.3592204604
 21
-24.2588624917
  0
LINE
  5
2E0
100
AcDbEntity
  8
RACCORDO
100
AcDbLine
 62
7
  6
CONTINUOUS
 10
-14.3
 20
-27.8000761524
 11
-14.3
 21
-26.6000761524
  0
LINE
  5
2E1
100
AcDbEntity
  8
DRAFT
100
AcDbLine
 62
7
  6
CONTINUOUS
 10
-14.3
 20
-23.6
 11
-14.3
 21
-22.6
  0
LINE
  5
2E2
100
AcDbEntity
  8
DRAFT
100
AcDbLine
 62
7
  6
CONTINUOUS
 10
-14.3
 20
-12.0
 11
-14.3
 21
-11.0
  0
LINE
  5
2E3
100
AcDbEntity
  8
DRAFT
100
AcDbLine
 62
7
  6
CONTINUOUS
 10
-14.3
 20
-0.5
 11
-14.3
 21
0.5
  0
LINE
  5
2E4
100
AcDbEntity
  8
DRAFT
100
AcDbLine
 62
7
  6
CONTINUOUS
 10
-14.3
 20
11.0
 11
-14.3
 21
12.0
  0
LINE
  5
2E5
100
AcDbEntity
  8
DRAFT
100
AcDbLine
 62
7
  6
CONTINUOUS
 10
-14.3
 20
22.6
 11
-14.3
 21
23.6
  0
LINE
  5
2E6
100
AcDbEntity
  8
RACCORDO
100
AcDbLine
 62
7
  6
CONTINUOUS
 10
-14.3
 20
26.6000761524
 11
-14.3
 21
27.8000761524
  0
LINE
  5
2E7
100
AcDbEntity
  8
RACCORDO
100
AcDbLine
 62
7
  6
CONTINUOUS
 10
-14.1254493507
 20
-26.4255255031
 11
-14.1254493507
 21
26.4255255031
  0
LINE
  5
2E8
100
AcDbEntity
  8
DRAFT
100
AcDbLine
 62
7
  6
CONTINUOUS
 10
-15.4466035533
 20
-24.2664903341
 11
-15.4465301414
 21
-23.6511150517
  0
LINE
  5
2E9
100
AcDbEntity
  8
RACCORDO
100
AcDbLine
 62
7
  6
CONTINUOUS
 10
-14.3548627317
 20
27.8549388842
 11
-14.3592204604
 21
24.2588624917
  0
LINE
  5
2EA
100
AcDbEntity
  8
SUPERFICI
100
AcDbLine
 62
7
  6
CONTINUOUS
 10
-15.4570216111
 20
-27.7162066943
 11
-15.4466035533
 21
-24.2664903341
  0
LINE
  5
2EB
100
AcDbEntity
  8
SUPERFICI
100
AcDbLine
 62
7
  6
CONTINUOUS
 10
-15.4711825947
 20
-31.0400504463
 11
-15.4570216111
 21
-27.7162066943
  0
LINE
  5
2EC
100
AcDbEntity
  8
SUPERFICI
100
AcDbLine
 62
7
  6
CONTINUOUS
 10
-15.4780112546
 20
-32.3
 11
-15.4711825947
 21
-31.0400504463
  0
LWPOLYLINE
  5
2ED
100
AcDbEntity
  8
RACCORDO
100
AcDbPolyline
 62
7
  6
CONTINUOUS
 90
7
 70
0
 10
-14.3548627317
 20
27.8549388842
 10
-14.348721636
 20
27.9324496879
 10
-14.3305560046
 20
28.0084786831
 10
-14.3006448074
 20
28.0811271994
 10
-14.2595697359
 20
28.1485383365
 10
-14.2082101577
 20
28.2089459713
 10
-14.1477300259
 20
28.2607234205
  0
LWPOLYLINE
  5
2EE
100
AcDbEntity
  8
0
100
AcDbPolyline
 62
7
  6
CONTINUOUS
 90
19
 70
0
 10
-1.0618835114
 20
33.004698997
 10
-1.033658968
 20
33.068827457
 10
-1.0015750674
 20
33.1313386282
 10
-0.9657272044
 20
33.1920008631
 10
-0.9262382478
 20
33.2505693847
 10
-0.8832196721
 20
33.3068454773
 10
-0.8367596339
 20
33.360669499
 10
-0.787052824
 20
33.4117757347
 10
-0.7342019248
 20
33.4600209752
 10
-0.6781273963
 20
33.5053959924
 10
-0.618786629
 20
33.547796159
 10
-0.5565063913
 20
33.5868536283
 10
-0.4917846734
 20
33.6221879186
 10
-0.4248460743
 20
33.6536474859
 10
-0.3559233649
 20
33.6810949319
 10
-0.2856057612
 20
33.7043035123
 10
-0.2142809158
 20
33.7231990197
 10
-0.1421032131
 20
33.7377936584
 10
-0.069338263
 20
33.7480754005
  0
LWPOLYLINE
  5
2EF
100
AcDbEntity
  8
0
100
AcDbPolyline
 62
7
  6
CONTINUOUS
 90
5
 70
0
 10
-1.5837560244
 20
33.2421367375
 10
-1.6083309421
 20
33.1897619376
 10
-1.6509870055
 20
33.08029463
 10
-1.6862021012
 20
32.9682119437
 10
-1.7138175149
 20
32.8540190332
  0
LINE
  5
2F0
100
AcDbEntity
  8
0
100
AcDbLine
 62
7
  6
CONTINUOUS
 10
-1.5265941873
 20
33.3555759383
 11
-1.5805600342
 21
33.2512189948
  0
LINE
  5
2F1
100
AcDbEntity
  8
DRAFT
100
AcDbLine
 62
7
  6
CONTINUOUS
 10
7.2738873049
 20
33.0
 11
7.3149763054
 21
33.0458135839
  0
LINE
  5
2F2
100
AcDbEntity
  8
DRAFT
100
AcDbLine
 62
7
  6
CONTINUOUS
 10
10.75
 20
32.0
 11
10.7001643326
 21
31.9501643326
  0
LINE
  5
2F3
100
AcDbEntity
  8
DRAFT
100
AcDbLine
 62
7
  6
CONTINUOUS
 10
8.1238174026
 20
22.5
 11
8.15
 21
22.5130903017
  0
LINE
  5
2F4
100
AcDbEntity
  8
DRAFT
100
AcDbLine
 62
7
  6
CONTINUOUS
 10
-11.487388883
 20
11.9127313221
 11
-11.25
 21
12.031416724
  0
LINE
  5
2F5
100
AcDbEntity
  8
DRAFT
100
AcDbLine
 62
7
  6
CONTINUOUS
 10
15.6
 20
22.6
 11
15.4465301414
 21
22.5488849483
  0
LINE
  5
2F6
100
AcDbEntity
  8
DRAFT
100
AcDbLine
 62
7
  6
CONTINUOUS
 10
-15.6
 20
12.0
 11
-15.4465301414
 21
12.0511150517
  0
LWPOLYLINE
  5
2F7
100
AcDbEntity
  8
0
100
AcDbPolyline
 62
7
  6
CONTINUOUS
 90
10
 70
0
 10
12.288768259
 20
-13.5596548038
 10
12.3588243614
 20
-13.5546498965
 10
12.4219784557
 20
-13.5399056277
 10
12.478230542
 20
-13.5154219974
 10
12.5283510237
 20
-13.4802616871
 10
12.5715694973
 20
-13.4353620153
 10
12.6055747528
 20
-13.3835349375
 10
12.6295963867
 20
-13.3257177722
 10
12.6444048024
 20
-13.260973201
 10
12.65
 20
-13.1893012238
  0
LINE
  5
2F8
100
AcDbEntity
  8
0
100
AcDbLine
 62
7
  6
CONTINUOUS
 10
11.4
 20
-16.195815
 11
11.584564
 21
-16.195815
  0
LINE
  5
2F9
100
AcDbEntity
  8
0
100
AcDbLine
 62
7
  6
CONTINUOUS
 10
11.584564
 20
-16.014805
 11
11.4
 21
-16.014805
  0
LINE
  5
2FA
100
AcDbEntity
  8
0
100
AcDbLine
 62
7
  6
CONTINUOUS
 10
12.500276
 20
-15.838926
 11
12.65
 21
-15.838926
  0
LINE
  5
2FB
100
AcDbEntity
  8
0
100
AcDbLine
 62
7
  6
CONTINUOUS
 10
11.4
 20
-15.41591
 11
12.500276
 21
-15.41591
  0
LINE
  5
2FC
100
AcDbEntity
  8
0
100
AcDbLine
 62
7
  6
CONTINUOUS
 10
12.500276
 20
-15.247039
 11
11.4
 21
-15.247039
  0
LINE
  5
2FD
100
AcDbEntity
  8
0
100
AcDbLine
 62
7
  6
CONTINUOUS
 10
12.65
 20
-14.824023
 11
12.500276
 21
-14.824023
  0
LINE
  5
2FE
100
AcDbEntity
  8
DRAFT
100
AcDbLine
 62
7
  6
CONTINUOUS
 10
15.6
 20
-22.6
 11
15.4465301414
 21
-22.5488849483
  0
LINE
  5
2FF
100
AcDbEntity
  8
DRAFT
100
AcDbLine
 62
7
  6
CONTINUOUS
 10
-15.6
 20
-12.0
 11
-15.4465301414
 21
-12.0511150517
  0
LINE
  5
300
100
AcDbEntity
  8
DRAFT
100
AcDbLine
 62
7
  6
CONTINUOUS
 10
8.1238174026
 20
-22.5
 11
8.15
 21
-22.5130903017
  0
LINE
  5
301
100
AcDbEntity
  8
DRAFT
100
AcDbLine
 62
7
  6
CONTINUOUS
 10
-11.487388883
 20
-11.9127313221
 11
-11.25
 21
-12.031416724
  0
LINE
  5
302
100
AcDbEntity
  8
DRAFT
100
AcDbLine
 62
7
  6
CONTINUOUS
 10
10.75
 20
-32.0
 11
10.7001643326
 21
-31.9501643326
  0
LINE
  5
303
100
AcDbEntity
  8
DRAFT
100
AcDbLine
 62
7
  6
CONTINUOUS
 10
7.2738873049
 20
-33.0
 11
7.3149763054
 21
-33.0458135839
  0
LINE
  5
304
100
AcDbEntity
  8
RACCORDO
100
AcDbLine
 62
253
  6
CONTINUOUS
 10
-14.1477300259
 20
28.2607234205
 11
-14.3210936674
 21
31.5950381673
  0
LINE
  5
305
100
AcDbEntity
  8
DRAFT
100
AcDbLine
 62
253
  6
CONTINUOUS
 10
-13.3125542169
 20
28.3575596147
 11
-13.3801402477
 21
31.2827819573
  0
LWPOLYLINE
  5
306
100
AcDbEntity
  8
SUPERFICI
100
AcDbPolyline
 62
7
  6
CONTINUOUS
 90
7
 70
0
 10
-14.3210936674
 20
31.5950381673
 10
-14.3309948893
 20
32.1790895565
 10
-14.3010278922
 20
32.757292265
 10
-14.2332311294
 20
33.3248241782
 10
-14.1296432573
 20
33.8768627016
 10
-13.9923031355
 20
34.4085847604
 10
-13.8232498265
 20
34.9151668
  0
LINE
  5
307
100
AcDbEntity
  8
SUPERFICI
100
AcDbLine
 62
7
  6
CONTINUOUS
 10
-12.3002563419
 20
33.8941170496
 11
-12.298340114
 21
33.2435256597
  0
LWPOLYLINE
  5
308
100
AcDbEntity
  8
SUPERFICI
100
AcDbPolyline
 62
253
  6
CONTINUOUS
 90
7
 70
0
 10
-13.3801402477
 20
31.2827819573
 10
-13.3811836197
 20
31.9142451154
 10
-13.3548592856
 20
32.5589561216
 10
-13.3005189942
 20
33.212252907
 10
-13.2177455929
 20
33.8687389463
 10
-13.1063741954
 20
34.5222323215
 10
-12.9669196979
 20
35.1661191244
  0
LINE
  5
309
100
AcDbEntity
  8
SUPERFICI
100
AcDbLine
 62
7
  6
CONTINUOUS
 10
-12.3002563419
 20
33.8941170496
 11
-12.3013830031
 21
35.1910295133
  0
LINE
  5
30A
100
AcDbEntity
  8
SUPERFICI
100
AcDbLine
 62
7
  6
CONTINUOUS
 10
-12.2980187907
 20
-32.9172853818
 11
-12.299866342
 21
-31.6065441326
  0
LINE
  5
30B
100
AcDbEntity
  8
DRAFT
100
AcDbLine
 62
7
  6
CONTINUOUS
 10
-12.3
 20
30.9479872933
 11
-12.2991894314
 21
28.3591740007
  0
LINE
  5
30C
100
AcDbEntity
  8
DRAFT
100
AcDbLine
 62
7
  6
CONTINUOUS
 10
-13.1004493507
 20
-26.0
 11
-13.1004493507
 21
-23.8
  0
LINE
  5
30D
100
AcDbEntity
  8
DRAFT
100
AcDbLine
 62
7
  6
CONTINUOUS
 10
-13.1004493507
 20
23.8
 11
-13.1004493507
 21
26.0
  0
LINE
  5
30E
100
AcDbEntity
  8
DRAFT
100
AcDbLine
 62
7
  6
CONTINUOUS
 10
-12.8872686779
 20
-22.6090858474
 11
-12.8872686779
 21
-11.9127313221
  0
LINE
  5
30F
100
AcDbEntity
  8
DRAFT
100
AcDbLine
 62
7
  6
CONTINUOUS
 10
-12.8872686779
 20
-11.0872686779
 11
-12.8872686779
 21
-0.4127313221
  0
LINE
  5
310
100
AcDbEntity
  8
DRAFT
100
AcDbLine
 62
7
  6
CONTINUOUS
 10
-12.8872686779
 20
0.4127313221
 11
-12.8872686779
 21
11.0872686779
  0
LINE
  5
311
100
AcDbEntity
  8
DRAFT
100
AcDbLine
 62
7
  6
CONTINUOUS
 10
-12.8872686779
 20
11.9127313221
 11
-12.8872686779
 21
22.6090858474
  0
LINE
  5
312
100
AcDbEntity
  8
DRAFT
100
AcDbLine
 62
7
  6
CONTINUOUS
 10
-12.768583276
 20
-22.4904004454
 11
-12.768583276
 21
-12.031416724
  0
LINE
  5
313
100
AcDbEntity
  8
DRAFT
100
AcDbLine
 62
7
  6
CONTINUOUS
 10
-12.768583276
 20
-10.968583276
 11
-12.768583276
 21
-0.531416724
  0
LINE
  5
314
100
AcDbEntity
  8
DRAFT
100
AcDbLine
 62
7
  6
CONTINUOUS
 10
-12.768583276
 20
0.531416724
 11
-12.768583276
 21
10.968583276
  0
LINE
  5
315
100
AcDbEntity
  8
DRAFT
100
AcDbLine
 62
7
  6
CONTINUOUS
 10
-12.768583276
 20
12.031416724
 11
-12.768583276
 21
22.4904004454
  0
LINE
  5
316
100
AcDbEntity
  8
SUPERFICI
100
AcDbLine
 62
253
  6
CONTINUOUS
 10
-12.6
 20
35.3
 11
-12.6
 21
35.1903964381
  0
LINE
  5
317
100
AcDbEntity
  8
SUPERFICI
100
AcDbLine
 62
253
  6
CONTINUOUS
 10
-12.6
 20
-35.3
 11
-12.6
 21
-35.1903964381
  0
LINE
  5
318
100
AcDbEntity
  8
SUPERFICI
100
AcDbLine
 62
7
  6
CONTINUOUS
 10
-12.299866342
 20
-31.6065441326
 11
-12.3
 21
-30.9479872933
  0
LINE
  5
319
100
AcDbEntity
  8
DRAFT
100
AcDbLine
 62
7
  6
CONTINUOUS
 10
-11.75
 20
-35.3
 11
-11.75
 21
-28.3
  0
LINE
  5
31A
100
AcDbEntity
  8
DRAFT
100
AcDbLine
 62
7
  6
CONTINUOUS
 10
-11.75
 20
28.3
 11
-11.75
 21
35.3
  0
LINE
  5
31B
100
AcDbEntity
  8
DRAFT
100
AcDbLine
 62
7
  6
CONTINUOUS
 10
-11.487388883
 20
-11.9127313221
 11
-11.487388883
 21
-11.0872686779
  0
LINE
  5
31C
100
AcDbEntity
  8
DRAFT
100
AcDbLine
 62
7
  6
CONTINUOUS
 10
-11.487388883
 20
-0.4127313221
 11
-11.487388883
 21
0.4127313221
  0
LINE
  5
31D
100
AcDbEntity
  8
DRAFT
100
AcDbLine
 62
7
  6
CONTINUOUS
 10
-11.487388883
 20
11.0872686779
 11
-11.487388883
 21
11.9127313221
  0
LINE
  5
31E
100
AcDbEntity
  8
DRAFT
100
AcDbLine
 62
7
  6
CONTINUOUS
 10
-11.25
 20
-22.5095995546
 11
-11.25
 21
22.5095995546
  0
LINE
  5
31F
100
AcDbEntity
  8
DRAFT
100
AcDbLine
 62
7
  6
CONTINUOUS
 10
-12.3
 20
-30.9479872933
 11
-12.2991894314
 21
-28.3591740007
  0
LWPOLYLINE
  5
320
100
AcDbEntity
  8
SUPERFICI
100
AcDbPolyline
 62
7
  6
CONTINUOUS
 90
3
 70
0
 10
-12.298340114
 20
33.2435256597
 10
-12.298307399
 20
32.5904485269
 10
-12.3
 20
30.9479872933
  0
LINE
  5
321
100
AcDbEntity
  8
SUPERFICI
100
AcDbLine
 62
7
  6
CONTINUOUS
 10
-12.3002563419
 20
-33.8941170496
 11
-12.3013830031
 21
-35.1910295133
  0
LWPOLYLINE
  5
322
100
AcDbEntity
  8
SUPERFICI
100
AcDbPolyline
 62
253
  6
CONTINUOUS
 90
7
 70
0
 10
-13.3801402477
 20
-31.2827819573
 10
-13.3811836197
 20
-31.9142451154
 10
-13.3548592856
 20
-32.5589561216
 10
-13.3005189942
 20
-33.212252907
 10
-13.2177455929
 20
-33.8687389463
 10
-13.1063741954
 20
-34.5222323215
 10
-12.9669196979
 20
-35.1661191244
  0
LWPOLYLINE
  5
323
100
AcDbEntity
  8
SUPERFICI
100
AcDbPolyline
 62
7
  6
CONTINUOUS
 90
3
 70
0
 10
-12.3002563419
 20
-33.8941170496
 10
-12.2990859644
 20
-33.5691438153
 10
-12.2980187907
 20
-32.9172853818
  0
LWPOLYLINE
  5
324
100
AcDbEntity
  8
SUPERFICI
100
AcDbPolyline
 62
7
  6
CONTINUOUS
 90
7
 70
0
 10
-14.3210936674
 20
-31.5950381673
 10
-14.3309948893
 20
-32.1790895565
 10
-14.3010278922
 20
-32.757292265
 10
-14.2332311294
 20
-33.3248241782
 10
-14.1296432573
 20
-33.8768627016
 10
-13.9923031355
 20
-34.4085847604
 10
-13.8232498265
 20
-34.9151668
  0
LINE
  5
325
100
AcDbEntity
  8
DRAFT
100
AcDbLine
 62
253
  6
CONTINUOUS
 10
-13.3125542169
 20
-28.3575596147
 11
-13.3801402477
 21
-31.2827819573
  0
LINE
  5
326
100
AcDbEntity
  8
RACCORDO
100
AcDbLine
 62
253
  6
CONTINUOUS
 10
-14.1477300259
 20
-28.2607234205
 11
-14.3210936674
 21
-31.5950381673
  0
LINE
  5
327
100
AcDbEntity
  8
DRAFT
100
AcDbLine
 62
7
  6
CONTINUOUS
 10
-4.9959967949
 20
28.4
 11
-5.0125464566
 21
28.3407930738
  0
LWPOLYLINE
  5
328
100
AcDbEntity
  8
0
100
AcDbPolyline
 62
7
  6
CONTINUOUS
 90
48
 70
0
 10
-1.5805600342
 20
33.2512189948
 10
-1.6183761853
 20
33.1437543278
 10
-1.6489390631
 20
33.0345648405
 10
-1.6721852276
 20
32.924136814
 10
-1.6880836376
 20
32.8129574308
 10
-1.6966354966
 20
32.7015126294
 10
-1.6978739578
 20
32.5902849821
 10
-1.691863689
 20
32.4797516066
 10
-1.6787003033
 20
32.3703821193
 10
-1.6585096567
 20
32.2626366406
 10
-1.6314470181
 20
32.156963859
 10
-1.5976961162
 20
32.053799163
 10
-1.5574680687
 20
31.953562849
 10
-1.5110001994
 20
31.8566584114
 10
-1.4585547492
 20
31.7634709229
 10
-1.4004174887
 20
31.6743655109
 10
-1.3368962379
 20
31.5896859366
 10
-1.2683193018
 20
31.5097532808
 10
-1.1950338288
 20
31.4348647438
 10
-1.1174041003
 20
31.3652925615
 10
-1.0358097594
 20
31.3012830428
 10
-0.9506439876
 20
31.2430557312
 10
-0.8623116382
 20
31.1908026932
 10
-0.7712273342
 20
31.1446879361
 10
-0.6778135409
 20
31.1048469563
 10
-0.5824986212
 20
31.0713864181
 10
-0.4857148827
 20
31.0443839656
 10
-0.3878966252
 20
31.0238881647
 10
-0.2894781986
 20
31.0099185768
 10
-0.190892078
 20
31.0024659598
 10
-0.0925669654
 20
31.0014925981
 10
0.0050740724
 20
31.0069327549
 10
0.1016154244
 20
31.0186932471
 10
0.1966507042
 20
31.0366541367
 10
0.2897844606
 20
31.0606695363
 10
0.3806338224
 20
31.090568522
 10
0.4688300714
 20
31.1261561513
 10
0.5540201353
 20
31.1672145774
 10
0.6358679972
 20
31.2135042566
 10
0.7140560131
 20
31.2647652407
 10
0.7882861347
 20
31.3207185489
 10
0.8582810312
 20
31.3810676109
 10
0.9237851072
 20
31.4454997762
 10
0.9845654122
 20
31.513687879
 10
1.0404124385
 20
31.5852918546
 10
1.0911408058
 20
31.6599603963
 10
1.1365898297
 20
31.7373326471
 10
1.1766239726
 20
31.8170399167
  0
LINE
  5
329
100
AcDbEntity
  8
0
100
AcDbLine
 62
7
  6
CONTINUOUS
 10
1.1766239726
 20
31.8170399167
 11
1.2111331768
 21
31.898707417
  0
LINE
  5
32A
100
AcDbEntity
  8
DRAFT
100
AcDbLine
 62
7
  6
CONTINUOUS
 10
11.75
 20
28.3
 11
11.8091740007
 21
28.3591740007
  0
LINE
  5
32B
100
AcDbEntity
  8
0
100
AcDbLine
 62
7
  6
CONTINUOUS
 10
11.4
 20
-12.795894
 11
11.927537
 21
-12.795894
  0
LINE
  5
32C
100
AcDbEntity
  8
0
100
AcDbLine
 62
7
  6
CONTINUOUS
 10
12.072029
 20
-12.795894
 11
12.505507
 21
-12.795894
  0
LINE
  5
32D
100
AcDbEntity
  8
0
100
AcDbLine
 62
7
  6
CONTINUOUS
 10
12.65
 20
-12.627023
 11
11.4
 21
-12.627023
  0
LINE
  5
32E
100
AcDbEntity
  8
DRAFT
100
AcDbLine
 62
7
  6
CONTINUOUS
 10
-12.768583276
 20
-12.031416724
 11
-11.25
 21
-12.031416724
  0
LINE
  5
32F
100
AcDbEntity
  8
DRAFT
100
AcDbLine
 62
7
  6
CONTINUOUS
 10
11.25
 20
-12.031416724
 11
12.768583276
 21
-12.031416724
  0
LINE
  5
330
100
AcDbEntity
  8
DRAFT
100
AcDbLine
 62
7
  6
CONTINUOUS
 10
15.6
 20
-12.0
 11
14.3
 21
-12.0
  0
LINE
  5
331
100
AcDbEntity
  8
DRAFT
100
AcDbLine
 62
7
  6
CONTINUOUS
 10
-14.3
 20
-12.0
 11
-15.6
 21
-12.0
  0
LINE
  5
332
100
AcDbEntity
  8
DRAFT
100
AcDbLine
 62
7
  6
CONTINUOUS
 10
-12.8872686779
 20
-11.9127313221
 11
-11.487388883
 21
-11.9127313221
  0
LINE
  5
333
100
AcDbEntity
  8
DRAFT
100
AcDbLine
 62
7
  6
CONTINUOUS
 10
11.487388883
 20
-11.9127313221
 11
12.8872686779
 21
-11.9127313221
  0
LINE
  5
334
100
AcDbEntity
  8
DRAFT
100
AcDbLine
 62
7
  6
CONTINUOUS
 10
12.8872686779
 20
-11.0872686779
 11
11.487388883
 21
-11.0872686779
  0
LINE
  5
335
100
AcDbEntity
  8
DRAFT
100
AcDbLine
 62
7
  6
CONTINUOUS
 10
-11.487388883
 20
-11.0872686779
 11
-12.8872686779
 21
-11.0872686779
  0
LINE
  5
336
100
AcDbEntity
  8
DRAFT
100
AcDbLine
 62
7
  6
CONTINUOUS
 10
-15.6
 20
-11.0
 11
-14.3
 21
-11.0
  0
LINE
  5
337
100
AcDbEntity
  8
DRAFT
100
AcDbLine
 62
7
  6
CONTINUOUS
 10
14.3
 20
-11.0
 11
15.6
 21
-11.0
  0
LWPOLYLINE
  5
338
100
AcDbEntity
  8
0
100
AcDbPolyline
 62
7
  6
CONTINUOUS
 90
10
 70
0
 10
12.288768259
 20
-13.3856788413
 10
12.2434326113
 20
-13.3841599537
 10
12.2031162635
 20
-13.3753795274
 10
12.1678192155
 20
-13.3593375625
 10
12.1371493647
 20
-13.3349869434
 10
12.1114988137
 20
-13.3033747856
 10
12.0920438709
 20
-13.2676424354
 10
12.0791766391
 20
-13.2288370083
 10
12.0725050155
 20
-13.1859113888
 10
12.072029
 20
-13.1388655769
  0
LINE
  5
339
100
AcDbEntity
  8
DRAFT
100
AcDbLine
 62
7
  6
CONTINUOUS
 10
11.75
 20
-28.3
 11
11.8091740007
 21
-28.3591740007
  0
LWPOLYLINE
  5
33A
100
AcDbEntity
  8
0
100
AcDbPolyline
 62
7
  6
CONTINUOUS
 90
22
 70
0
 10
1.18901795
 20
-32.1055854309
 10
1.1531644639
 20
-32.0321944188
 10
1.1128319765
 20
-31.9617839494
 10
1.06825545
 20
-31.8946237711
 10
1.0196858345
 20
-31.8309657545
 10
0.9673887412
 20
-31.7710429632
 10
0.9116430641
 20
-31.7150688218
 10
0.8527395559
 20
-31.6632363827
 10
0.7909793644
 20
-31.6157176953
 10
0.7266725389
 20
-31.5726632779
 10
0.6601365112
 20
-31.5342016956
 10
0.5916945604
 20
-31.5004392434
 10
0.5216742682
 20
-31.4714597358
 10
0.4504059714
 20
-31.4473244024
 10
0.3782212201
 20
-31.4280718891
 10
0.3054512476
 20
-31.4137183642
 10
0.232425459
 20
-31.4042577259
 10
0.1594699471
 20
-31.3996619124
 10
0.0869060393
 20
-31.3998813088
 10
0.0150488848
 20
-31.4048452501
 10
-0.0557939131
 20
-31.4144626158
 10
-0.125323614
 20
-31.4286225125
  0
LINE
  5
33B
100
AcDbEntity
  8
DRAFT
100
AcDbLine
 62
7
  6
CONTINUOUS
 10
-4.9959967949
 20
-28.4
 11
-5.0125464566
 21
-28.3407930738
  0
LWPOLYLINE
  5
33C
100
AcDbEntity
  8
DRAFT
100
AcDbPolyline
 62
7
  6
CONTINUOUS
 90
10
 70
0
 10
-7.3149763054
 20
-33.0458135839
 10
-7.2782157412
 20
-33.3002799116
 10
-7.2283234651
 20
-33.5512823528
 10
-7.1652994769
 20
-33.7988244934
 10
-7.0888815466
 20
-34.0436816818
 10
-6.9993319042
 20
-34.2850850672
 10
-6.8974372405
 20
-34.520733813
 10
-6.7834597855
 20
-34.7498773915
 10
-6.6571373091
 20
-34.9733032749
 10
-6.5184698113
 20
-35.1910295133
  0
LINE
  5
33D
100
AcDbEntity
  8
DRAFT
100
AcDbLine
 62
7
  6
CONTINUOUS
 10
-10.75
 20
35.3
 11
-10.75
 21
33.0
  0
LINE
  5
33E
100
AcDbEntity
  8
DRAFT
100
AcDbLine
 62
7
  6
CONTINUOUS
 10
-10.75
 20
32.0
 11
-10.75
 21
28.3
  0
LINE
  5
33F
100
AcDbEntity
  8
DRAFT
100
AcDbLine
 62
7
  6
CONTINUOUS
 10
-10.75
 20
-28.3
 11
-10.75
 21
-32.0
  0
LINE
  5
340
100
AcDbEntity
  8
DRAFT
100
AcDbLine
 62
7
  6
CONTINUOUS
 10
-10.75
 20
-33.0
 11
-10.75
 21
-35.3
  0
LINE
  5
341
100
AcDbEntity
  8
DRAFT
100
AcDbLine
 62
7
  6
CONTINUOUS
 10
-8.3420057142
 20
26.0
 11
-8.3420057142
 21
23.8
  0
LINE
  5
342
100
AcDbEntity
  8
DRAFT
100
AcDbLine
 62
7
  6
CONTINUOUS
 10
-8.3420057142
 20
-23.8
 11
-8.3420057142
 21
-26.0
  0
LWPOLYLINE
  5
343
100
AcDbEntity
  8
0
100
AcDbPolyline
 62
7
  6
CONTINUOUS
 90
13
 70
0
 10
1.2111331768
 20
31.898707417
 10
1.2400330783
 20
31.9819560067
 10
1.2632651025
 20
32.0664039382
 10
1.280796442
 20
32.151668598
 10
1.2926199176
 20
32.2373682325
 10
1.2987537247
 20
32.3231236526
 10
1.299241067
 20
32.4085599082
 10
1.2941496804
 20
32.4933079262
 10
1.2835712506
 20
32.5770061039
 10
1.2676207277
 20
32.6593018522
 10
1.2464355422
 20
32.7398530807
 10
1.220174727
 20
32.8183296191
 10
1.18901795
 20
32.8944145691
  0
LINE
  5
344
100
AcDbEntity
  8
RACCORDO
100
AcDbLine
 62
253
  6
CONTINUOUS
 10
13.8562402867
 20
28.3561641343
 11
13.8000761524
 21
28.3
  0
LINE
  5
345
100
AcDbEntity
  8
DRAFT
100
AcDbLine
 62
7
  6
CONTINUOUS
 10
13.275
 20
27.1
 11
13.1528145455
 21
26.9778145455
  0
LINE
  5
346
100
AcDbEntity
  8
DRAFT
100
AcDbLine
 62
7
  6
CONTINUOUS
 10
-14.3
 20
-0.5
 11
-14.3592204604
 21
-0.5592204604
  0
LINE
  5
347
100
AcDbEntity
  8
RACCORDO
100
AcDbLine
 62
253
  6
CONTINUOUS
 10
14.3548627317
 20
27.8549388842
 11
14.3
 21
27.8000761524
  0
LINE
  5
348
100
AcDbEntity
  8
DRAFT
100
AcDbLine
 62
7
  6
CONTINUOUS
 10
-12.8872686779
 20
0.4127313221
 11
-12.768583276
 21
0.531416724
  0
LINE
  5
349
100
AcDbEntity
  8
RACCORDO
100
AcDbLine
 62
253
  6
CONTINUOUS
 10
13.8000761524
 20
27.1
 11
13.6255255031
 21
26.9254493507
  0
LINE
  5
34A
100
AcDbEntity
  8
RACCORDO
100
AcDbLine
 62
253
  6
CONTINUOUS
 10
14.3
 20
26.6000761524
 11
14.1254493507
 21
26.4255255031
  0
LINE
  5
34B
100
AcDbEntity
  8
DRAFT
100
AcDbLine
 62
7
  6
CONTINUOUS
 10
12.768583276
 20
-10.968583276
 11
11.25
 21
-10.968583276
  0
LINE
  5
34C
100
AcDbEntity
  8
DRAFT
100
AcDbLine
 62
7
  6
CONTINUOUS
 10
-11.25
 20
-10.968583276
 11
-12.768583276
 21
-10.968583276
  0
LINE
  5
34D
100
AcDbEntity
  8
0
100
AcDbLine
 62
7
  6
CONTINUOUS
 10
11.4
 20
-13.836952
 11
11.763897
 21
-13.967529
  0
LINE
  5
34E
100
AcDbEntity
  8
0
100
AcDbLine
 62
7
  6
CONTINUOUS
 10
11.91362
 20
-14.019739
 11
12.468698
 21
-14.221695
  0
LINE
  5
34F
100
AcDbEntity
  8
0
100
AcDbLine
 62
7
  6
CONTINUOUS
 10
12.65
 20
-14.132945
 11
11.4
 21
-13.66285
  0
LINE
  5
350
100
AcDbEntity
  8
RACCORDO
100
AcDbLine
 62
253
  6
CONTINUOUS
 10
13.8562402867
 20
-28.3561641343
 11
13.8000761524
 21
-28.3
  0
LINE
  5
351
100
AcDbEntity
  8
DRAFT
100
AcDbLine
 62
7
  6
CONTINUOUS
 10
13.275
 20
-27.1
 11
13.1528145455
 21
-26.9778145455
  0
LINE
  5
352
100
AcDbEntity
  8
DRAFT
100
AcDbLine
 62
7
  6
CONTINUOUS
 10
-14.3
 20
0.5
 11
-14.3592204604
 21
0.5592204604
  0
LINE
  5
353
100
AcDbEntity
  8
RACCORDO
100
AcDbLine
 62
253
  6
CONTINUOUS
 10
14.3548627317
 20
-27.8549388842
 11
14.3
 21
-27.8000761524
  0
LINE
  5
354
100
AcDbEntity
  8
DRAFT
100
AcDbLine
 62
7
  6
CONTINUOUS
 10
-12.8872686779
 20
-0.4127313221
 11
-12.768583276
 21
-0.531416724
  0
LINE
  5
355
100
AcDbEntity
  8
RACCORDO
100
AcDbLine
 62
253
  6
CONTINUOUS
 10
13.6255255031
 20
-26.9254493507
 11
13.8000761524
 21
-27.1
  0
LINE
  5
356
100
AcDbEntity
  8
RACCORDO
100
AcDbLine
 62
253
  6
CONTINUOUS
 10
14.1254493507
 20
-26.4255255031
 11
14.3
 21
-26.6000761524
  0
LINE
  5
357
100
AcDbEntity
  8
RACCORDO
100
AcDbLine
 62
7
  6
CONTINUOUS
 10
-7.1245506493
 20
-26.4255255031
 11
-7.1245506493
 21
-24.4341007192
  0
LINE
  5
358
100
AcDbEntity
  8
RACCORDO
100
AcDbLine
 62
7
  6
CONTINUOUS
 10
-7.1245506493
 20
24.4341007192
 11
-7.1245506493
 21
26.4255255031
  0
LINE
  5
359
100
AcDbEntity
  8
RACCORDO
100
AcDbLine
 62
7
  6
CONTINUOUS
 10
-6.95
 20
27.8000761524
 11
-6.95
 21
26.6000761524
  0
LINE
  5
35A
100
AcDbEntity
  8
RACCORDO
100
AcDbLine
 62
7
  6
CONTINUOUS
 10
-6.95
 20
-26.6000761524
 11
-6.95
 21
-27.8000761524
  0
LINE
  5
35B
100
AcDbEntity
  8
0
100
AcDbLine
 62
7
  6
CONTINUOUS
 10
-1.7138175149
 20
32.8540190332
 11
-1.7337087843
 21
32.7382305638
  0
LINE
  5
35C
100
AcDbEntity
  8
DRAFT
100
AcDbLine
 62
7
  6
CONTINUOUS
 10
3.15
 20
27.8
 11
3.1730376046
 21
27.8600150119
  0
LINE
  5
35D
100
AcDbEntity
  8
DRAFT
100
AcDbLine
 62
7
  6
CONTINUOUS
 10
12.8872686779
 20
22.6090858474
 11
12.768583276
 21
22.4904004454
  0
LINE
  5
35E
100
AcDbEntity
  8
DRAFT
100
AcDbLine
 62
7
  6
CONTINUOUS
 10
14.3
 20
23.6
 11
14.3592204604
 21
23.6592204604
  0
LINE
  5
35F
100
AcDbEntity
  8
DRAFT
100
AcDbLine
 62
7
  6
CONTINUOUS
 10
-11.487388883
 20
0.4127313221
 11
-11.25
 21
0.531416724
  0
LINE
  5
360
100
AcDbEntity
  8
DRAFT
100
AcDbLine
 62
7
  6
CONTINUOUS
 10
15.6
 20
11.0
 11
15.4465301414
 21
10.9488849483
  0
LINE
  5
361
100
AcDbEntity
  8
DRAFT
100
AcDbLine
 62
7
  6
CONTINUOUS
 10
-15.6
 20
0.5
 11
-15.4465301414
 21
0.5511150517
  0
LINE
  5
362
100
AcDbEntity
  8
DRAFT
100
AcDbLine
 62
7
  6
CONTINUOUS
 10
15.6
 20
-11.0
 11
15.4465301414
 21
-10.9488849483
  0
LINE
  5
363
100
AcDbEntity
  8
DRAFT
100
AcDbLine
 62
7
  6
CONTINUOUS
 10
-15.6
 20
-0.5
 11
-15.4465301414
 21
-0.5511150517
  0
LINE
  5
364
100
AcDbEntity
  8
DRAFT
100
AcDbLine
 62
7
  6
CONTINUOUS
 10
-11.487388883
 20
-0.4127313221
 11
-11.25
 21
-0.531416724
  0
LINE
  5
365
100
AcDbEntity
  8
DRAFT
100
AcDbLine
 62
7
  6
CONTINUOUS
 10
12.8872686779
 20
-22.6090858474
 11
12.768583276
 21
-22.4904004454
  0
LINE
  5
366
100
AcDbEntity
  8
DRAFT
100
AcDbLine
 62
7
  6
CONTINUOUS
 10
14.3
 20
-23.6
 11
14.3592204604
 21
-23.6592204604
  0
LINE
  5
367
100
AcDbEntity
  8
DRAFT
100
AcDbLine
 62
7
  6
CONTINUOUS
 10
3.15
 20
-27.8
 11
3.1730376046
 21
-27.8600150119
  0
LINE
  5
368
100
AcDbEntity
  8
DRAFT
100
AcDbLine
 62
7
  6
CONTINUOUS
 10
-4.5
 20
-25.1991919114
 11
-4.5
 21
-25.0301797403
  0
LINE
  5
369
100
AcDbEntity
  8
DRAFT
100
AcDbLine
 62
7
  6
CONTINUOUS
 10
-4.5
 20
-22.5
 11
-4.5
 21
-22.582905244
  0
LINE
  5
36A
100
AcDbEntity
  8
DRAFT
100
AcDbLine
 62
7
  6
CONTINUOUS
 10
-4.5
 20
22.5
 11
-4.5
 21
22.582905244
  0
LINE
  5
36B
100
AcDbEntity
  8
DRAFT
100
AcDbLine
 62
7
  6
CONTINUOUS
 10
-4.5
 20
25.0301797403
 11
-4.5
 21
25.1991919114
  0
LINE
  5
36C
100
AcDbEntity
  8
0
100
AcDbLine
 62
7
  6
CONTINUOUS
 10
-3.25
 20
-39.0
 11
-3.25
 21
-37.3
  0
LINE
  5
36D
100
AcDbEntity
  8
0
100
AcDbLine
 62
7
  6
CONTINUOUS
 10
-3.25
 20
37.3
 11
-3.25
 21
39.0
  0
LINE
  5
36E
100
AcDbEntity
  8
0
100
AcDbLine
 62
7
  6
CONTINUOUS
 10
-3.0
 20
-23.6090858474
 11
-3.0
 21
-22.6090858474
  0
LINE
  5
36F
100
AcDbEntity
  8
0
100
AcDbLine
 62
7
  6
CONTINUOUS
 10
-3.0
 20
22.6090858474
 11
-3.0
 21
23.6090858474
  0
LWPOLYLINE
  5
370
100
AcDbEntity
  8
RACCORDO
100
AcDbPolyline
 62
7
  6
CONTINUOUS
 90
10
 70
0
 10
-6.8899851078
 20
-27.8600910446
 10
-6.8977296179
 20
-27.9467924493
 10
-6.9204502412
 20
-28.030907722
 10
-6.9574851033
 20
-28.109866833
 10
-7.0077882834
 20
-28.1813057758
 10
-7.0698173474
 20
-28.242952841
 10
-7.1414806574
 20
-28.2927940051
 10
-7.2204654589
 20
-28.3293634889
 10
-7.3044064629
 20
-28.3516845085
 10
-7.3907498469
 20
-28.3591740007
  0
LWPOLYLINE
  5
371
100
AcDbEntity
  8
0
100
AcDbPolyline
 62
7
  6
CONTINUOUS
 90
47
 70
0
 10
-1.7337087843
 20
32.7382305638
 10
-1.7457862595
 20
32.621368392
 10
-1.7499955072
 20
32.5039592135
 10
-1.7463175561
 20
32.3865321892
 10
-1.7347689823
 20
32.2696165608
 10
-1.7154018347
 20
32.1537392649
 10
-1.6883034004
 20
32.0394225585
 10
-1.6535958112
 20
31.9271816651
 10
-1.6114354933
 20
31.8175224526
 10
-1.5620124622
 20
31.7109391533
 10
-1.5055494664
 20
31.6079121364
 10
-1.4423009833
 20
31.5089057432
 10
-1.3725520725
 20
31.4143661939
 10
-1.2966170908
 20
31.324719577
 10
-1.2148382757
 20
31.2403699285
 10
-1.1275842027
 20
31.1616974112
 10
-1.0352481243
 20
31.0890566012
 10
-0.9382461975
 20
31.0227748896
 10
-0.837015608
 20
30.9631510074
 10
-0.7320126006
 20
30.9104536789
 10
-0.6237104218
 20
30.8649204103
 10
-0.5125971878
 20
30.82675642
 10
-0.399173684
 20
30.7961337126
 10
-0.2839511085
 20
30.7731903047
 10
-0.1674487675
 20
30.7580296023
 10
-0.0501917353
 20
30.7507199349
 10
0.0672915125
 20
30.7512942474
 10
0.1844714804
 20
30.7597499519
 10
0.3008200401
 20
30.7760489389
 10
0.4158128102
 20
30.8001177498
 10
0.5289315198
 20
30.831847907
 10
0.6396663444
 20
30.8710964036
 10
0.7475182034
 20
30.9176863476
 10
0.8520010098
 20
30.9714077592
 10
0.9526438608
 20
31.032018517
 10
1.0489931602
 20
31.0992454497
 10
1.1406146626
 20
31.1727855666
 10
1.2270954308
 20
31.2523074238
 10
1.3080456969
 20
31.3374526175
 10
1.3831006186
 20
31.4278373999
 10
1.4519219239
 20
31.5230544081
 10
1.5141994356
 20
31.6226745004
 10
1.5696524695
 20
31.7262486907
 10
1.6180310987
 20
31.8333101713
 10
1.6591172811
 20
31.9433764178
 10
1.6927258411
 20
32.055951363
 10
1.7187053049
 20
32.1705276329
  0
LINE
  5
372
100
AcDbEntity
  8
0
100
AcDbLine
 62
7
  6
CONTINUOUS
 10
1.7187053049
 20
32.1705276329
 11
1.7369385828
 21
32.2865888338
  0
LINE
  5
373
100
AcDbEntity
  8
DRAFT
100
AcDbLine
 62
7
  6
CONTINUOUS
 10
6.14865379
 20
25.1
 11
6.1727078582
 21
25.16266299
  0
LINE
  5
374
100
AcDbEntity
  8
DRAFT
100
AcDbLine
 62
7
  6
CONTINUOUS
 10
11.487388883
 20
11.0872686779
 11
11.25
 21
10.968583276
  0
LINE
  5
375
100
AcDbEntity
  8
DRAFT
100
AcDbLine
 62
7
  6
CONTINUOUS
 10
11.487388883
 20
-11.0872686779
 11
11.25
 21
-10.968583276
  0
LINE
  5
376
100
AcDbEntity
  8
DRAFT
100
AcDbLine
 62
7
  6
CONTINUOUS
 10
6.14865379
 20
-25.1
 11
6.1727078582
 21
-25.16266299
  0
LINE
  5
377
100
AcDbEntity
  8
DRAFT
100
AcDbLine
 62
7
  6
CONTINUOUS
 10
-3.1745998364
 20
22.5236643411
 11
-3.1797827438
 21
22.582905244
  0
LINE
  5
378
100
AcDbEntity
  8
DRAFT
100
AcDbLine
 62
7
  6
CONTINUOUS
 10
-3.3938915188
 20
25.0301797403
 11
-3.4038178008
 21
25.1436376623
  0
LINE
  5
379
100
AcDbEntity
  8
DRAFT
100
AcDbLine
 62
7
  6
CONTINUOUS
 10
-2.8257892676
 20
25.1610927272
 11
-2.8466909456
 21
25.4
  0
LINE
  5
37A
100
AcDbEntity
  8
DRAFT
100
AcDbLine
 62
7
  6
CONTINUOUS
 10
-0.5
 20
-28.4
 11
-0.5
 21
-27.8
  0
LINE
  5
37B
100
AcDbEntity
  8
DRAFT
100
AcDbLine
 62
7
  6
CONTINUOUS
 10
-0.5
 20
27.8
 11
-0.5
 21
28.4
  0
LINE
  5
37C
100
AcDbEntity
  8
SUPERFICI
100
AcDbLine
 62
7
  6
CONTINUOUS
 10
-3.1745998364
 20
-22.5236643411
 11
-3.1725294748
 21
-22.5
  0
LINE
  5
37D
100
AcDbEntity
  8
DRAFT
100
AcDbLine
 62
7
  6
CONTINUOUS
 10
-3.1745998364
 20
-22.5236643411
 11
-3.1797827438
 21
-22.582905244
  0
LINE
  5
37E
100
AcDbEntity
  8
DRAFT
100
AcDbLine
 62
7
  6
CONTINUOUS
 10
-3.3938915188
 20
-25.0301797403
 11
-3.4038178008
 21
-25.1436376623
  0
LINE
  5
37F
100
AcDbEntity
  8
DRAFT
100
AcDbLine
 62
7
  6
CONTINUOUS
 10
-2.8257892676
 20
-25.1610927272
 11
-2.8466909456
 21
-25.4
  0
LWPOLYLINE
  5
380
100
AcDbEntity
  8
0
100
AcDbPolyline
 62
7
  6
CONTINUOUS
 90
42
 70
0
 10
1.7369385828
 20
32.2865888338
 10
1.7473434971
 20
32.403611879
 10
1.7498731526
 20
32.5210693472
 10
1.7445161474
 20
32.6384318585
 10
1.7312966251
 20
32.7551704615
 10
1.7102741655
 20
32.8707590163
 10
1.6815435159
 20
32.9846765664
 10
1.6452341647
 20
33.0964096863
 10
1.6015097572
 20
33.2054547958
 10
1.5505673584
 20
33.3113204292
 10
1.4926365648
 20
33.4135294511
 10
1.4279784694
 20
33.5116212058
 10
1.3568844854
 20
33.6051535944
 10
1.2796750321
 20
33.6937050669
 10
1.1966980916
 20
33.7768765222
 10
1.1083276399
 20
33.8542931066
 10
1.0149619615
 20
33.925605904
 10
0.9170218545
 20
33.9904935075
 10
0.8149487339
 20
34.0486634687
 10
0.7092026423
 20
34.0998536155
 10
0.6002601763
 20
34.1438332338
 10
0.4886123387
 20
34.1804041071
 10
0.3747623254
 20
34.2094014101
 10
0.2592232575
 20
34.2306944516
 10
0.1425158688
 20
34.2441872635
 10
0.0251661588
 20
34.249819033
 10
-0.0922969781
 20
34.2475643772
 10
-0.209344136
 20
34.2374334572
 10
-0.3254477841
 20
34.2194719324
 10
-0.4400846435
 20
34.1937607546
 10
-0.5527380463
 20
34.1604158035
 10
-0.6629002641
 20
34.1195873638
 10
-0.7700747957
 20
34.0714594487
 10
-0.8737786059
 20
34.0162489699
 10
-0.9735443015
 20
33.9542047603
 10
-1.0689222387
 20
33.8856064523
 10
-1.1594825488
 20
33.8107632177
 10
-1.2448170764
 20
33.7300123744
 10
-1.3245412186
 20
33.6437178656
 10
-1.3982956583
 20
33.5522686201
 10
-1.4657479839
 20
33.456076799
 10
-1.5265941873
 20
33.3555759383
  0
LINE
  5
381
100
AcDbEntity
  8
DRAFT
100
AcDbLine
 62
7
  6
CONTINUOUS
 10
10.75
 20
35.3
 11
10.7137060195
 21
35.1910295133
  0
LINE
  5
382
100
AcDbEntity
  8
DRAFT
100
AcDbLine
 62
7
  6
CONTINUOUS
 10
-14.3
 20
-12.0
 11
-14.3592204604
 21
-12.0592204604
  0
LINE
  5
383
100
AcDbEntity
  8
DRAFT
100
AcDbLine
 62
7
  6
CONTINUOUS
 10
-12.8872686779
 20
-11.0872686779
 11
-12.768583276
 21
-10.968583276
  0
LINE
  5
384
100
AcDbEntity
  8
DRAFT
100
AcDbLine
 62
7
  6
CONTINUOUS
 10
-12.768583276
 20
-0.531416724
 11
-11.25
 21
-0.531416724
  0
LINE
  5
385
100
AcDbEntity
  8
DRAFT
100
AcDbLine
 62
7
  6
CONTINUOUS
 10
11.25
 20
-0.531416724
 11
12.768583276
 21
-0.531416724
  0
LINE
  5
386
100
AcDbEntity
  8
DRAFT
100
AcDbLine
 62
7
  6
CONTINUOUS
 10
15.6
 20
-0.5
 11
14.3
 21
-0.5
  0
LINE
  5
387
100
AcDbEntity
  8
DRAFT
100
AcDbLine
 62
7
  6
CONTINUOUS
 10
-14.3
 20
-0.5
 11
-15.6
 21
-0.5
  0
LINE
  5
388
100
AcDbEntity
  8
DRAFT
100
AcDbLine
 62
7
  6
CONTINUOUS
 10
-12.8872686779
 20
-0.4127313221
 11
-11.487388883
 21
-0.4127313221
  0
LINE
  5
389
100
AcDbEntity
  8
DRAFT
100
AcDbLine
 62
7
  6
CONTINUOUS
 10
11.487388883
 20
-0.4127313221
 11
12.8872686779
 21
-0.4127313221
  0
LINE
  5
38A
100
AcDbEntity
  8
DRAFT
100
AcDbLine
 62
7
  6
CONTINUOUS
 10
-14.3
 20
12.0
 11
-14.3592204604
 21
12.0592204604
  0
LINE
  5
38B
100
AcDbEntity
  8
DRAFT
100
AcDbLine
 62
7
  6
CONTINUOUS
 10
-12.8872686779
 20
11.0872686779
 11
-12.768583276
 21
10.968583276
  0
LINE
  5
38C
100
AcDbEntity
  8
DRAFT
100
AcDbLine
 62
7
  6
CONTINUOUS
 10
10.75
 20
-35.3
 11
10.7137060195
 21
-35.1910295133
  0
LWPOLYLINE
  5
38D
100
AcDbEntity
  8
DRAFT
100
AcDbPolyline
 62
7
  6
CONTINUOUS
 90
10
 70
0
 10
-7.3185668761
 20
31.9501643326
 10
-7.2358930425
 20
31.454871629
 10
-7.1078361841
 20
30.9798211872
 10
-6.9343963007
 20
30.5252186688
 10
-6.7129129117
 20
30.0873788176
 10
-6.4460464978
 20
29.670317747
 10
-6.1417785011
 20
29.2858123224
 10
-5.8027694024
 20
28.9379079186
 10
-5.4263587209
 20
28.6228649026
 10
-5.0125464566
 20
28.3407930738
  0
LINE
  5
38E
100
AcDbEntity
  8
DRAFT
100
AcDbLine
 62
7
  6
CONTINUOUS
 10
2.8257892676
 20
-25.1610927272
 11
2.8466909456
 21
-25.4
  0
LINE
  5
38F
100
AcDbEntity
  8
SUPERFICI
100
AcDbLine
 62
7
  6
CONTINUOUS
 10
3.1725294748
 20
-22.5
 11
3.1745998364
 21
-22.5236643411
  0
LINE
  5
390
100
AcDbEntity
  8
DRAFT
100
AcDbLine
 62
7
  6
CONTINUOUS
 10
3.1745998364
 20
-22.5236643411
 11
3.1797827438
 21
-22.582905244
  0
LINE
  5
391
100
AcDbEntity
  8
DRAFT
100
AcDbLine
 62
7
  6
CONTINUOUS
 10
3.3938915188
 20
-25.0301797403
 11
3.4038178008
 21
-25.1436376623
  0
LINE
  5
392
100
AcDbEntity
  8
DRAFT
100
AcDbLine
 62
7
  6
CONTINUOUS
 10
0.5
 20
28.4
 11
0.5
 21
27.8
  0
LINE
  5
393
100
AcDbEntity
  8
DRAFT
100
AcDbLine
 62
7
  6
CONTINUOUS
 10
0.5
 20
-27.8
 11
0.5
 21
-28.4
  0
LINE
  5
394
100
AcDbEntity
  8
0
100
AcDbLine
 62
7
  6
CONTINUOUS
 10
3.0
 20
-23.6090858474
 11
3.0
 21
-22.6090858474
  0
LINE
  5
395
100
AcDbEntity
  8
0
100
AcDbLine
 62
7
  6
CONTINUOUS
 10
3.0
 20
22.6090858474
 11
3.0
 21
23.6090858474
  0
LINE
  5
396
100
AcDbEntity
  8
DRAFT
100
AcDbLine
 62
7
  6
CONTINUOUS
 10
2.8257892676
 20
25.1610927272
 11
2.8466909456
 21
25.4
  0
LINE
  5
397
100
AcDbEntity
  8
DRAFT
100
AcDbLine
 62
7
  6
CONTINUOUS
 10
3.1745998364
 20
22.5236643411
 11
3.1797827438
 21
22.582905244
  0
LINE
  5
398
100
AcDbEntity
  8
DRAFT
100
AcDbLine
 62
7
  6
CONTINUOUS
 10
3.3938915188
 20
25.0301797403
 11
3.4038178008
 21
25.1436376623
  0
LWPOLYLINE
  5
399
100
AcDbEntity
  8
0
100
AcDbPolyline
 62
7
  6
CONTINUOUS
 90
47
 70
0
 10
-1.7337087843
 20
-32.2617694362
 10
-1.7457862595
 20
-32.378631608
 10
-1.7499955072
 20
-32.4960407865
 10
-1.7463175561
 20
-32.6134678108
 10
-1.7347689823
 20
-32.7303834392
 10
-1.7154018347
 20
-32.8462607351
 10
-1.6883034004
 20
-32.9605774415
 10
-1.6535958112
 20
-33.0728183349
 10
-1.6114354933
 20
-33.1824775474
 10
-1.5620124622
 20
-33.2890608467
 10
-1.5055494664
 20
-33.3920878636
 10
-1.4423009833
 20
-33.4910942568
 10
-1.3725520725
 20
-33.5856338061
 10
-1.2966170908
 20
-33.675280423
 10
-1.2148382757
 20
-33.7596300715
 10
-1.1275842027
 20
-33.8383025888
 10
-1.0352481243
 20
-33.9109433988
 10
-0.9382461975
 20
-33.9772251104
 10
-0.837015608
 20
-34.0368489926
 10
-0.7320126006
 20
-34.0895463211
 10
-0.6237104218
 20
-34.1350795897
 10
-0.5125971878
 20
-34.17324358
 10
-0.399173684
 20
-34.2038662874
 10
-0.2839511085
 20
-34.2268096953
 10
-0.1674487675
 20
-34.2419703977
 10
-0.0501917353
 20
-34.2492800651
 10
0.0672915125
 20
-34.2487057526
 10
0.1844714804
 20
-34.2402500481
 10
0.3008200401
 20
-34.2239510611
 10
0.4158128102
 20
-34.1998822502
 10
0.5289315198
 20
-34.168152093
 10
0.6396663444
 20
-34.1289035964
 10
0.7475182034
 20
-34.0823136524
 10
0.8520010098
 20
-34.0285922408
 10
0.9526438608
 20
-33.967981483
 10
1.0489931602
 20
-33.9007545503
 10
1.1406146626
 20
-33.8272144334
 10
1.2270954308
 20
-33.7476925762
 10
1.3080456969
 20
-33.6625473825
 10
1.3831006186
 20
-33.5721626001
 10
1.4519219239
 20
-33.4769455919
 10
1.5141994356
 20
-33.3773254996
 10
1.5696524695
 20
-33.2737513093
 10
1.6180310987
 20
-33.1666898287
 10
1.6591172811
 20
-33.0566235822
 10
1.6927258411
 20
-32.944048637
 10
1.7187053049
 20
-32.8294723671
  0
LINE
  5
39A
100
AcDbEntity
  8
DRAFT
100
AcDbLine
 62
7
  6
CONTINUOUS
 10
-10.75
 20
-35.3
 11
-10.7137060195
 21
-35.1910295133
  0
LINE
  5
39B
100
AcDbEntity
  8
DRAFT
100
AcDbLine
 62
7
  6
CONTINUOUS
 10
12.8872686779
 20
11.0872686779
 11
12.768583276
 21
10.968583276
  0
LINE
  5
39C
100
AcDbEntity
  8
DRAFT
100
AcDbLine
 62
7
  6
CONTINUOUS
 10
14.3
 20
12.0
 11
14.3592204604
 21
12.0592204604
  0
LINE
  5
39D
100
AcDbEntity
  8
DRAFT
100
AcDbLine
 62
7
  6
CONTINUOUS
 10
12.8872686779
 20
0.4127313221
 11
11.487388883
 21
0.4127313221
  0
LINE
  5
39E
100
AcDbEntity
  8
DRAFT
100
AcDbLine
 62
7
  6
CONTINUOUS
 10
-11.487388883
 20
0.4127313221
 11
-12.8872686779
 21
0.4127313221
  0
LINE
  5
39F
100
AcDbEntity
  8
DRAFT
100
AcDbLine
 62
7
  6
CONTINUOUS
 10
-15.6
 20
0.5
 11
-14.3
 21
0.5
  0
LINE
  5
3A0
100
AcDbEntity
  8
DRAFT
100
AcDbLine
 62
7
  6
CONTINUOUS
 10
14.3
 20
0.5
 11
15.6
 21
0.5
  0
LINE
  5
3A1
100
AcDbEntity
  8
DRAFT
100
AcDbLine
 62
7
  6
CONTINUOUS
 10
12.768583276
 20
0.531416724
 11
11.25
 21
0.531416724
  0
LINE
  5
3A2
100
AcDbEntity
  8
DRAFT
100
AcDbLine
 62
7
  6
CONTINUOUS
 10
-11.25
 20
0.531416724
 11
-12.768583276
 21
0.531416724
  0
LINE
  5
3A3
100
AcDbEntity
  8
DRAFT
100
AcDbLine
 62
7
  6
CONTINUOUS
 10
12.8872686779
 20
-11.0872686779
 11
12.768583276
 21
-10.968583276
  0
LINE
  5
3A4
100
AcDbEntity
  8
DRAFT
100
AcDbLine
 62
7
  6
CONTINUOUS
 10
14.3
 20
-12.0
 11
14.3592204604
 21
-12.0592204604
  0
LINE
  5
3A5
100
AcDbEntity
  8
DRAFT
100
AcDbLine
 62
7
  6
CONTINUOUS
 10
-10.75
 20
35.3
 11
-10.7137060195
 21
35.1910295133
  0
LWPOLYLINE
  5
3A6
100
AcDbEntity
  8
DRAFT
100
AcDbPolyline
 62
7
  6
CONTINUOUS
 90
10
 70
0
 10
7.3185668761
 20
-31.9501643326
 10
7.2358930425
 20
-31.454871629
 10
7.1078361841
 20
-30.9798211872
 10
6.9343963007
 20
-30.5252186688
 10
6.7129129117
 20
-30.0873788176
 10
6.4460464978
 20
-29.670317747
 10
6.1417785011
 20
-29.2858123224
 10
5.8027694024
 20
-28.9379079186
 10
5.4263587209
 20
-28.6228649026
 10
5.0125464566
 20
-28.3407930738
  0
LINE
  5
3A7
100
AcDbEntity
  8
0
100
AcDbLine
 62
7
  6
CONTINUOUS
 10
3.25
 20
-39.0
 11
3.25
 21
-37.3
  0
LINE
  5
3A8
100
AcDbEntity
  8
0
100
AcDbLine
 62
7
  6
CONTINUOUS
 10
3.25
 20
37.3
 11
3.25
 21
39.0
  0
LINE
  5
3A9
100
AcDbEntity
  8
DRAFT
100
AcDbLine
 62
7
  6
CONTINUOUS
 10
4.5
 20
25.1991919114
 11
4.5
 21
25.0301797403
  0
LINE
  5
3AA
100
AcDbEntity
  8
DRAFT
100
AcDbLine
 62
7
  6
CONTINUOUS
 10
4.5
 20
-22.5
 11
4.5
 21
-22.582905244
  0
LINE
  5
3AB
100
AcDbEntity
  8
DRAFT
100
AcDbLine
 62
7
  6
CONTINUOUS
 10
4.5
 20
-25.0301797403
 11
4.5
 21
-25.1991919114
  0
LINE
  5
3AC
100
AcDbEntity
  8
DRAFT
100
AcDbLine
 62
7
  6
CONTINUOUS
 10
4.5
 20
22.5
 11
4.5
 21
22.582905244
  0
LWPOLYLINE
  5
3AD
100
AcDbEntity
  8
0
100
AcDbPolyline
 62
7
  6
CONTINUOUS
 90
42
 70
0
 10
1.7369385828
 20
-32.7134111662
 10
1.7473434971
 20
-32.596388121
 10
1.7498731526
 20
-32.4789306528
 10
1.7445161474
 20
-32.3615681415
 10
1.7312966251
 20
-32.2448295385
 10
1.7102741655
 20
-32.1292409837
 10
1.6815435159
 20
-32.0153234336
 10
1.6452341647
 20
-31.9035903137
 10
1.6015097572
 20
-31.7945452042
 10
1.5505673584
 20
-31.6886795708
 10
1.4926365648
 20
-31.5864705489
 10
1.4279784694
 20
-31.4883787942
 10
1.3568844854
 20
-31.3948464056
 10
1.2796750321
 20
-31.3062949331
 10
1.1966980916
 20
-31.2231234778
 10
1.1083276399
 20
-31.1457068934
 10
1.0149619615
 20
-31.074394096
 10
0.9170218545
 20
-31.0095064925
 10
0.8149487339
 20
-30.9513365313
 10
0.7092026423
 20
-30.9001463845
 10
0.6002601763
 20
-30.8561667662
 10
0.4886123387
 20
-30.8195958929
 10
0.3747623254
 20
-30.7905985899
 10
0.2592232575
 20
-30.7693055484
 10
0.1425158688
 20
-30.7558127365
 10
0.0251661588
 20
-30.750180967
 10
-0.0922969781
 20
-30.7524356228
 10
-0.209344136
 20
-30.7625665428
 10
-0.3254477841
 20
-30.7805280676
 10
-0.4400846435
 20
-30.8062392454
 10
-0.5527380463
 20
-30.8395841965
 10
-0.6629002641
 20
-30.8804126362
 10
-0.7700747957
 20
-30.9285405513
 10
-0.8737786059
 20
-30.9837510301
 10
-0.9735443015
 20
-31.0457952397
 10
-1.0689222387
 20
-31.1143935477
 10
-1.1594825488
 20
-31.1892367823
 10
-1.2448170764
 20
-31.2699876256
 10
-1.3245412186
 20
-31.3562821344
 10
-1.3982956583
 20
-31.4477313799
 10
-1.4657479839
 20
-31.543923201
 10
-1.5265941873
 20
-31.6444240617
  0
LWPOLYLINE
  5
3AE
100
AcDbEntity
  8
RACCORDO
100
AcDbPolyline
 62
7
  6
CONTINUOUS
 90
10
 70
0
 10
6.8899851078
 20
27.8600910446
 10
6.8977296179
 20
27.9467924493
 10
6.9204502412
 20
28.030907722
 10
6.9574851033
 20
28.109866833
 10
7.0077882834
 20
28.1813057758
 10
7.0698173474
 20
28.242952841
 10
7.1414806574
 20
28.2927940051
 10
7.2204654589
 20
28.3293634889
 10
7.3044064629
 20
28.3516845085
 10
7.3907498469
 20
28.3591740007
  0
LINE
  5
3AF
100
AcDbEntity
  8
0
100
AcDbLine
 62
7
  6
CONTINUOUS
 10
-1.7138175149
 20
-32.1459809668
 11
-1.7337087843
 21
-32.2617694362
  0
LINE
  5
3B0
100
AcDbEntity
  8
DRAFT
100
AcDbLine
 62
7
  6
CONTINUOUS
 10
-6.14865379
 20
-25.1
 11
-6.1727078582
 21
-25.16266299
  0
LINE
  5
3B1
100
AcDbEntity
  8
DRAFT
100
AcDbLine
 62
7
  6
CONTINUOUS
 10
-11.487388883
 20
-11.0872686779
 11
-11.25
 21
-10.968583276
  0
LINE
  5
3B2
100
AcDbEntity
  8
DRAFT
100
AcDbLine
 62
7
  6
CONTINUOUS
 10
11.487388883
 20
-0.4127313221
 11
11.25
 21
-0.531416724
  0
LINE
  5
3B3
100
AcDbEntity
  8
DRAFT
100
AcDbLine
 62
7
  6
CONTINUOUS
 10
15.6
 20
-0.5
 11
15.4465301414
 21
-0.5511150517
  0
LINE
  5
3B4
100
AcDbEntity
  8
DRAFT
100
AcDbLine
 62
7
  6
CONTINUOUS
 10
-15.6
 20
-11.0
 11
-15.4465301414
 21
-10.9488849483
  0
LINE
  5
3B5
100
AcDbEntity
  8
DRAFT
100
AcDbLine
 62
7
  6
CONTINUOUS
 10
15.6
 20
0.5
 11
15.4465301414
 21
0.5511150517
  0
LINE
  5
3B6
100
AcDbEntity
  8
DRAFT
100
AcDbLine
 62
7
  6
CONTINUOUS
 10
-15.6
 20
11.0
 11
-15.4465301414
 21
10.9488849483
  0
LINE
  5
3B7
100
AcDbEntity
  8
DRAFT
100
AcDbLine
 62
7
  6
CONTINUOUS
 10
-11.487388883
 20
11.0872686779
 11
-11.25
 21
10.968583276
  0
LINE
  5
3B8
100
AcDbEntity
  8
DRAFT
100
AcDbLine
 62
7
  6
CONTINUOUS
 10
11.487388883
 20
0.4127313221
 11
11.25
 21
0.531416724
  0
LINE
  5
3B9
100
AcDbEntity
  8
DRAFT
100
AcDbLine
 62
7
  6
CONTINUOUS
 10
-6.14865379
 20
25.1
 11
-6.1727078582
 21
25.16266299
  0
LINE
  5
3BA
100
AcDbEntity
  8
RACCORDO
100
AcDbLine
 62
7
  6
CONTINUOUS
 10
6.95
 20
-27.8000761524
 11
6.95
 21
-26.6000761524
  0
LINE
  5
3BB
100
AcDbEntity
  8
RACCORDO
100
AcDbLine
 62
7
  6
CONTINUOUS
 10
6.95
 20
26.6000761524
 11
6.95
 21
27.8000761524
  0
LINE
  5
3BC
100
AcDbEntity
  8
RACCORDO
100
AcDbLine
 62
7
  6
CONTINUOUS
 10
7.1245506493
 20
26.4255255031
 11
7.1245506493
 21
24.4341007192
  0
LINE
  5
3BD
100
AcDbEntity
  8
RACCORDO
100
AcDbLine
 62
7
  6
CONTINUOUS
 10
7.1245506493
 20
-24.4341007192
 11
7.1245506493
 21
-26.4255255031
  0
LINE
  5
3BE
100
AcDbEntity
  8
DRAFT
100
AcDbLine
 62
7
  6
CONTINUOUS
 10
8.3420057142
 20
-26.0
 11
8.3420057142
 21
-23.8
  0
LINE
  5
3BF
100
AcDbEntity
  8
DRAFT
100
AcDbLine
 62
7
  6
CONTINUOUS
 10
8.3420057142
 20
23.8
 11
8.3420057142
 21
26.0
  0
LINE
  5
3C0
100
AcDbEntity
  8
0
100
AcDbLine
 62
7
  6
CONTINUOUS
 10
1.7187053049
 20
-32.8294723671
 11
1.7369385828
 21
-32.7134111662
  0
LINE
  5
3C1
100
AcDbEntity
  8
DRAFT
100
AcDbLine
 62
7
  6
CONTINUOUS
 10
-3.15
 20
-27.8
 11
-3.1730376046
 21
-27.8600150119
  0
LINE
  5
3C2
100
AcDbEntity
  8
DRAFT
100
AcDbLine
 62
7
  6
CONTINUOUS
 10
-14.3
 20
-23.6
 11
-14.3592204604
 21
-23.6592204604
  0
LINE
  5
3C3
100
AcDbEntity
  8
DRAFT
100
AcDbLine
 62
7
  6
CONTINUOUS
 10
-12.8872686779
 20
-22.6090858474
 11
-12.768583276
 21
-22.4904004454
  0
LINE
  5
3C4
100
AcDbEntity
  8
RACCORDO
100
AcDbLine
 62
253
  6
CONTINUOUS
 10
-14.3
 20
-26.6000761524
 11
-14.1254493507
 21
-26.4255255031
  0
LINE
  5
3C5
100
AcDbEntity
  8
DRAFT
100
AcDbLine
 62
7
  6
CONTINUOUS
 10
-14.3
 20
23.6
 11
-14.3592204604
 21
23.6592204604
  0
LINE
  5
3C6
100
AcDbEntity
  8
DRAFT
100
AcDbLine
 62
7
  6
CONTINUOUS
 10
-12.8872686779
 20
22.6090858474
 11
-12.768583276
 21
22.4904004454
  0
LINE
  5
3C7
100
AcDbEntity
  8
RACCORDO
100
AcDbLine
 62
253
  6
CONTINUOUS
 10
-14.1254493507
 20
26.4255255031
 11
-14.3
 21
26.6000761524
  0
LINE
  5
3C8
100
AcDbEntity
  8
DRAFT
100
AcDbLine
 62
7
  6
CONTINUOUS
 10
-3.15
 20
27.8
 11
-3.1730376046
 21
27.8600150119
  0
LWPOLYLINE
  5
3C9
100
AcDbEntity
  8
0
100
AcDbPolyline
 62
7
  6
CONTINUOUS
 90
10
 70
0
 10
11.4
 20
-21.058132649
 10
11.4115652563
 20
-21.1655996236
 10
11.4390272459
 20
-21.2613202374
 10
11.4823859688
 20
-21.3452944904
 10
11.5435440065
 20
-21.4182334713
 10
11.6205987774
 20
-21.4794260914
 10
11.7078425367
 20
-21.5267390845
 10
11.8033727028
 20
-21.5594613618
 10
11.9090918572
 20
-21.5783040121
 10
12.025
 20
-21.5832670354
  0
LWPOLYLINE
  5
3CA
100
AcDbEntity
  8
0
100
AcDbPolyline
 62
7
  6
CONTINUOUS
 90
10
 70
0
 10
11.927537
 20
-17.5432314798
 10
11.9331319833
 20
-17.6149025203
 10
11.9479402384
 20
-17.679646389
 10
11.9719617652
 20
-17.7374630859
 10
12.0059669849
 20
-17.7892900076
 10
12.0491854764
 20
-17.8341897575
 10
12.0993059759
 20
-17.8693501459
 10
12.1555580622
 20
-17.8938337762
 10
12.2187121566
 20
-17.908578045
 10
12.288768259
 20
-17.9135829522
  0
LWPOLYLINE
  5
3CB
100
AcDbEntity
  8
0
100
AcDbPolyline
 62
7
  6
CONTINUOUS
 90
10
 70
0
 10
11.927537
 20
-13.1893033314
 10
11.9331319833
 20
-13.2609743719
 10
11.9479402384
 20
-13.3257182406
 10
11.9719617652
 20
-13.3835349375
 10
12.0059669849
 20
-13.4353618592
 10
12.0491854764
 20
-13.4802616091
 10
12.0993059759
 20
-13.5154219974
 10
12.1555580622
 20
-13.5399056277
 10
12.2187121566
 20
-13.5546498965
 10
12.288768259
 20
-13.5596548038
  0
LINE
  5
3CC
100
AcDbEntity
  8
DRAFT
100
AcDbLine
 62
7
  6
CONTINUOUS
 10
10.75
 20
-35.3
 11
10.75
 21
-33.0
  0
LINE
  5
3CD
100
AcDbEntity
  8
DRAFT
100
AcDbLine
 62
7
  6
CONTINUOUS
 10
10.75
 20
-32.0
 11
10.75
 21
-28.3
  0
LINE
  5
3CE
100
AcDbEntity
  8
DRAFT
100
AcDbLine
 62
7
  6
CONTINUOUS
 10
10.75
 20
28.3
 11
10.75
 21
32.0
  0
LINE
  5
3CF
100
AcDbEntity
  8
DRAFT
100
AcDbLine
 62
7
  6
CONTINUOUS
 10
10.75
 20
33.0
 11
10.75
 21
35.3
  0
LINE
  5
3D0
100
AcDbEntity
  8
DRAFT
100
AcDbLine
 62
7
  6
CONTINUOUS
 10
11.25
 20
22.5095995546
 11
11.25
 21
-22.5095995546
  0
LINE
  5
3D1
100
AcDbEntity
  8
0
100
AcDbLine
 62
7
  6
CONTINUOUS
 10
11.4
 20
-12.627023
 11
11.4
 21
-12.795894
  0
LINE
  5
3D2
100
AcDbEntity
  8
0
100
AcDbLine
 62
7
  6
CONTINUOUS
 10
11.4
 20
-13.66285
 11
11.4
 21
-13.836952
  0
LINE
  5
3D3
100
AcDbEntity
  8
0
100
AcDbLine
 62
7
  6
CONTINUOUS
 10
11.4
 20
-14.592578
 11
11.4
 21
-14.777043
  0
LINE
  5
3D4
100
AcDbEntity
  8
0
100
AcDbLine
 62
7
  6
CONTINUOUS
 10
11.4
 20
-15.247039
 11
11.4
 21
-15.41591
  0
LINE
  5
3D5
100
AcDbEntity
  8
0
100
AcDbLine
 62
7
  6
CONTINUOUS
 10
11.4
 20
-16.014805
 11
11.4
 21
-16.195815
  0
LINE
  5
3D6
100
AcDbEntity
  8
0
100
AcDbLine
 62
7
  6
CONTINUOUS
 10
11.4
 20
-16.980951
 11
11.4
 21
-17.149822
  0
LINE
  5
3D7
100
AcDbEntity
  8
0
100
AcDbLine
 62
7
  6
CONTINUOUS
 10
11.4
 20
-18.142124
 11
11.4
 21
-19.064844
  0
LINE
  5
3D8
100
AcDbEntity
  8
0
100
AcDbLine
 62
7
  6
CONTINUOUS
 10
11.4
 20
-19.285926
 11
11.4
 21
-19.449566
  0
LINE
  5
3D9
100
AcDbEntity
  8
0
100
AcDbLine
 62
7
  6
CONTINUOUS
 10
11.4
 20
-20.088531
 11
11.4
 21
-20.278227
  0
LINE
  5
3DA
100
AcDbEntity
  8
0
100
AcDbLine
 62
7
  6
CONTINUOUS
 10
11.4
 20
-20.55152
 11
11.4
 21
-21.058132649
  0
LINE
  5
3DB
100
AcDbEntity
  8
0
100
AcDbLine
 62
7
  6
CONTINUOUS
 10
11.4
 20
-21.818891
 11
11.4
 21
-22.0
  0
LINE
  5
3DC
100
AcDbEntity
  8
DRAFT
100
AcDbLine
 62
7
  6
CONTINUOUS
 10
11.487388883
 20
11.9127313221
 11
11.487388883
 21
11.0872686779
  0
LINE
  5
3DD
100
AcDbEntity
  8
DRAFT
100
AcDbLine
 62
7
  6
CONTINUOUS
 10
11.487388883
 20
0.4127313221
 11
11.487388883
 21
-0.4127313221
  0
LINE
  5
3DE
100
AcDbEntity
  8
DRAFT
100
AcDbLine
 62
7
  6
CONTINUOUS
 10
11.487388883
 20
-11.0872686779
 11
11.487388883
 21
-11.9127313221
  0
LINE
  5
3DF
100
AcDbEntity
  8
0
100
AcDbLine
 62
7
  6
CONTINUOUS
 10
11.544493
 20
-21.0355320652
 11
11.544493
 21
-20.720391
  0
LINE
  5
3E0
100
AcDbEntity
  8
0
100
AcDbLine
 62
7
  6
CONTINUOUS
 10
11.549724
 20
-19.064844
 11
11.549724
 21
-18.310995
  0
LINE
  5
3E1
100
AcDbEntity
  8
0
100
AcDbLine
 62
7
  6
CONTINUOUS
 10
11.584564
 20
-22.0
 11
11.584564
 21
-21.818891
  0
LINE
  5
3E2
100
AcDbEntity
  8
0
100
AcDbLine
 62
7
  6
CONTINUOUS
 10
11.584564
 20
-16.195815
 11
11.584564
 21
-16.014805
  0
LINE
  5
3E3
100
AcDbEntity
  8
DRAFT
100
AcDbLine
 62
7
  6
CONTINUOUS
 10
11.75
 20
35.3
 11
11.75
 21
28.3
  0
LINE
  5
3E4
100
AcDbEntity
  8
DRAFT
100
AcDbLine
 62
7
  6
CONTINUOUS
 10
11.75
 20
-28.3
 11
11.75
 21
-35.3
  0
LWPOLYLINE
  5
3E5
100
AcDbEntity
  8
0
100
AcDbPolyline
 62
7
  6
CONTINUOUS
 90
48
 70
0
 10
-1.5805600342
 20
-31.7487810052
 10
-1.6183761853
 20
-31.8562456722
 10
-1.6489390631
 20
-31.9654351595
 10
-1.6721852276
 20
-32.075863186
 10
-1.6880836376
 20
-32.1870425692
 10
-1.6966354966
 20
-32.2984873706
 10
-1.6978739578
 20
-32.4097150179
 10
-1.691863689
 20
-32.5202483934
 10
-1.6787003033
 20
-32.6296178807
 10
-1.6585096567
 20
-32.7373633594
 10
-1.6314470181
 20
-32.843036141
 10
-1.5976961162
 20
-32.946200837
 10
-1.5574680687
 20
-33.046437151
 10
-1.5110001994
 20
-33.1433415886
 10
-1.4585547492
 20
-33.2365290771
 10
-1.4004174887
 20
-33.3256344891
 10
-1.3368962379
 20
-33.4103140634
 10
-1.2683193018
 20
-33.4902467192
 10
-1.1950338288
 20
-33.5651352562
 10
-1.1174041003
 20
-33.6347074385
 10
-1.0358097594
 20
-33.6987169572
 10
-0.9506439876
 20
-33.7569442688
 10
-0.8623116382
 20
-33.8091973068
 10
-0.7712273342
 20
-33.8553120639
 10
-0.6778135409
 20
-33.8951530437
 10
-0.5824986212
 20
-33.9286135819
 10
-0.4857148827
 20
-33.9556160344
 10
-0.3878966252
 20
-33.9761118353
 10
-0.2894781986
 20
-33.9900814232
 10
-0.190892078
 20
-33.9975340402
 10
-0.0925669654
 20
-33.9985074019
 10
0.0050740724
 20
-33.9930672451
 10
0.1016154244
 20
-33.9813067529
 10
0.1966507042
 20
-33.9633458633
 10
0.2897844606
 20
-33.9393304637
 10
0.3806338224
 20
-33.909431478
 10
0.4688300714
 20
-33.8738438487
 10
0.5540201353
 20
-33.8327854226
 10
0.6358679972
 20
-33.7864957434
 10
0.7140560131
 20
-33.7352347593
 10
0.7882861347
 20
-33.6792814511
 10
0.8582810312
 20
-33.6189323891
 10
0.9237851072
 20
-33.5545002238
 10
0.9845654122
 20
-33.486312121
 10
1.0404124385
 20
-33.4147081454
 10
1.0911408058
 20
-33.3400396037
 10
1.1365898297
 20
-33.2626673529
 10
1.1766239726
 20
-33.1829600833
  0
LINE
  5
3E6
100
AcDbEntity
  8
RACCORDO
100
AcDbLine
 62
253
  6
CONTINUOUS
 10
-13.8000761524
 20
-27.1
 11
-13.6255255031
 21
-26.9254493507
  0
LINE
  5
3E7
100
AcDbEntity
  8
DRAFT
100
AcDbLine
 62
7
  6
CONTINUOUS
 10
12.8872686779
 20
-0.4127313221
 11
12.768583276
 21
-0.531416724
  0
LINE
  5
3E8
100
AcDbEntity
  8
RACCORDO
100
AcDbLine
 62
253
  6
CONTINUOUS
 10
-14.3548627317
 20
-27.8549388842
 11
-14.3
 21
-27.8000761524
  0
LINE
  5
3E9
100
AcDbEntity
  8
DRAFT
100
AcDbLine
 62
7
  6
CONTINUOUS
 10
14.3
 20
0.5
 11
14.3592204604
 21
0.5592204604
  0
LINE
  5
3EA
100
AcDbEntity
  8
DRAFT
100
AcDbLine
 62
7
  6
CONTINUOUS
 10
-13.275
 20
-27.1
 11
-13.1528145455
 21
-26.9778145455
  0
LINE
  5
3EB
100
AcDbEntity
  8
RACCORDO
100
AcDbLine
 62
253
  6
CONTINUOUS
 10
-13.8562402867
 20
-28.3561641343
 11
-13.8000761524
 21
-28.3
  0
LINE
  5
3EC
100
AcDbEntity
  8
DRAFT
100
AcDbLine
 62
7
  6
CONTINUOUS
 10
-11.75
 20
-28.3
 11
-11.8091740007
 21
-28.3591740007
  0
LINE
  5
3ED
100
AcDbEntity
  8
DRAFT
100
AcDbLine
 62
7
  6
CONTINUOUS
 10
-12.768583276
 20
10.968583276
 11
-11.25
 21
10.968583276
  0
LINE
  5
3EE
100
AcDbEntity
  8
DRAFT
100
AcDbLine
 62
7
  6
CONTINUOUS
 10
11.25
 20
10.968583276
 11
12.768583276
 21
10.968583276
  0
LINE
  5
3EF
100
AcDbEntity
  8
DRAFT
100
AcDbLine
 62
7
  6
CONTINUOUS
 10
15.6
 20
11.0
 11
14.3
 21
11.0
  0
LINE
  5
3F0
100
AcDbEntity
  8
DRAFT
100
AcDbLine
 62
7
  6
CONTINUOUS
 10
-14.3
 20
11.0
 11
-15.6
 21
11.0
  0
LINE
  5
3F1
100
AcDbEntity
  8
DRAFT
100
AcDbLine
 62
7
  6
CONTINUOUS
 10
-12.8872686779
 20
11.0872686779
 11
-11.487388883
 21
11.0872686779
  0
LINE
  5
3F2
100
AcDbEntity
  8
DRAFT
100
AcDbLine
 62
7
  6
CONTINUOUS
 10
11.487388883
 20
11.0872686779
 11
12.8872686779
 21
11.0872686779
  0
LINE
  5
3F3
100
AcDbEntity
  8
RACCORDO
100
AcDbLine
 62
253
  6
CONTINUOUS
 10
-13.6255255031
 20
26.9254493507
 11
-13.8000761524
 21
27.1
  0
LINE
  5
3F4
100
AcDbEntity
  8
DRAFT
100
AcDbLine
 62
7
  6
CONTINUOUS
 10
12.8872686779
 20
0.4127313221
 11
12.768583276
 21
0.531416724
  0
LINE
  5
3F5
100
AcDbEntity
  8
RACCORDO
100
AcDbLine
 62
253
  6
CONTINUOUS
 10
-14.3548627317
 20
27.8549388842
 11
-14.3
 21
27.8000761524
  0
LINE
  5
3F6
100
AcDbEntity
  8
DRAFT
100
AcDbLine
 62
7
  6
CONTINUOUS
 10
14.3
 20
-0.5
 11
14.3592204604
 21
-0.5592204604
  0
LINE
  5
3F7
100
AcDbEntity
  8
DRAFT
100
AcDbLine
 62
7
  6
CONTINUOUS
 10
-13.275
 20
27.1
 11
-13.1528145455
 21
26.9778145455
  0
LINE
  5
3F8
100
AcDbEntity
  8
RACCORDO
100
AcDbLine
 62
253
  6
CONTINUOUS
 10
-13.8562402867
 20
28.3561641343
 11
-13.8000761524
 21
28.3
  0
LINE
  5
3F9
100
AcDbEntity
  8
DRAFT
100
AcDbLine
 62
7
  6
CONTINUOUS
 10
-11.75
 20
28.3
 11
-11.8091740007
 21
28.3591740007
  0
LINE
  5
3FA
100
AcDbEntity
  8
RACCORDO
100
AcDbLine
 62
253
  6
CONTINUOUS
 10
14.1477300259
 20
-28.2607234205
 11
14.3210936674
 21
-31.5950381673
  0
LINE
  5
3FB
100
AcDbEntity
  8
DRAFT
100
AcDbLine
 62
253
  6
CONTINUOUS
 10
13.3125542169
 20
-28.3575596147
 11
13.3801402477
 21
-31.2827819573
  0
LWPOLYLINE
  5
3FC
100
AcDbEntity
  8
SUPERFICI
100
AcDbPolyline
 62
7
  6
CONTINUOUS
 90
7
 70
0
 10
14.3210936674
 20
-31.5950381673
 10
14.3309948893
 20
-32.1790895565
 10
14.3010278922
 20
-32.757292265
 10
14.2332311294
 20
-33.3248241782
 10
14.1296432573
 20
-33.8768627016
 10
13.9923031355
 20
-34.4085847604
 10
13.8232498265
 20
-34.9151668
  0
LINE
  5
3FD
100
AcDbEntity
  8
SUPERFICI
100
AcDbLine
 62
7
  6
CONTINUOUS
 10
12.3002563419
 20
-33.8941170496
 11
12.298340114
 21
-33.2435256597
  0
LWPOLYLINE
  5
3FE
100
AcDbEntity
  8
SUPERFICI
100
AcDbPolyline
 62
253
  6
CONTINUOUS
 90
7
 70
0
 10
13.3801402477
 20
-31.2827819573
 10
13.3811836197
 20
-31.9142451154
 10
13.3548592856
 20
-32.5589561216
 10
13.3005189942
 20
-33.212252907
 10
13.2177455929
 20
-33.8687389463
 10
13.1063741954
 20
-34.5222323215
 10
12.9669196979
 20
-35.1661191244
  0
LINE
  5
3FF
100
AcDbEntity
  8
SUPERFICI
100
AcDbLine
 62
7
  6
CONTINUOUS
 10
12.3002563419
 20
-33.8941170496
 11
12.3013830031
 21
-35.1910295133
  0
LINE
  5
400
100
AcDbEntity
  8
RACCORDO
100
AcDbLine
 62
7
  6
CONTINUOUS
 10
14.3592204604
 20
24.2588624917
 11
14.3548627317
 21
27.8549388842
  0
LINE
  5
401
100
AcDbEntity
  8
SUPERFICI
100
AcDbLine
 62
7
  6
CONTINUOUS
 10
12.2980187907
 20
32.9172853818
 11
12.299866342
 21
31.6065441326
  0
LINE
  5
402
100
AcDbEntity
  8
DRAFT
100
AcDbLine
 62
7
  6
CONTINUOUS
 10
12.3
 20
-30.9479872933
 11
12.2991894314
 21
-28.3591740007
  0
LINE
  5
403
100
AcDbEntity
  8
0
100
AcDbLine
 62
7
  6
CONTINUOUS
 10
11.763897
 20
-13.967529
 11
11.763897
 21
-14.46891
  0
LINE
  5
404
100
AcDbEntity
  8
0
100
AcDbLine
 62
7
  6
CONTINUOUS
 10
11.91362
 20
-14.407916
 11
11.91362
 21
-14.019739
  0
LINE
  5
405
100
AcDbEntity
  8
0
100
AcDbLine
 62
7
  6
CONTINUOUS
 10
11.927537
 20
-12.795894
 11
11.927537
 21
-13.1893033314
  0
LINE
  5
406
100
AcDbEntity
  8
0
100
AcDbLine
 62
7
  6
CONTINUOUS
 10
11.927537
 20
-17.149822
 11
11.927537
 21
-17.5432314798
  0
LINE
  5
407
100
AcDbEntity
  8
0
100
AcDbLine
 62
7
  6
CONTINUOUS
 10
11.967509
 20
-18.310995
 11
11.967509
 21
-18.995263
  0
LINE
  5
408
100
AcDbEntity
  8
0
100
AcDbLine
 62
7
  6
CONTINUOUS
 10
12.072029
 20
-17.4927937253
 11
12.072029
 21
-17.149822
  0
LINE
  5
409
100
AcDbEntity
  8
0
100
AcDbLine
 62
7
  6
CONTINUOUS
 10
12.072029
 20
-13.1388655769
 11
12.072029
 21
-12.795894
  0
LINE
  5
40A
100
AcDbEntity
  8
0
100
AcDbLine
 62
7
  6
CONTINUOUS
 10
12.117233
 20
-18.995263
 11
12.117233
 21
-18.310995
  0
LINE
  5
40B
100
AcDbEntity
  8
SUPERFICI
100
AcDbLine
 62
7
  6
CONTINUOUS
 10
12.299866342
 20
31.6065441326
 11
12.3
 21
30.9479872933
  0
LINE
  5
40C
100
AcDbEntity
  8
0
100
AcDbLine
 62
7
  6
CONTINUOUS
 10
12.500276
 20
-14.824023
 11
12.500276
 21
-15.247039
  0
LINE
  5
40D
100
AcDbEntity
  8
0
100
AcDbLine
 62
7
  6
CONTINUOUS
 10
12.500276
 20
-15.41591
 11
12.500276
 21
-15.838926
  0
LINE
  5
40E
100
AcDbEntity
  8
0
100
AcDbLine
 62
7
  6
CONTINUOUS
 10
12.500276
 20
-18.310995
 11
12.500276
 21
-19.052704
  0
LINE
  5
40F
100
AcDbEntity
  8
0
100
AcDbLine
 62
7
  6
CONTINUOUS
 10
12.505507
 20
-12.795894
 11
12.505507
 21
-13.1388689114
  0
LINE
  5
410
100
AcDbEntity
  8
0
100
AcDbLine
 62
7
  6
CONTINUOUS
 10
12.505507
 20
-17.149822
 11
12.505507
 21
-17.4927970598
  0
LINE
  5
411
100
AcDbEntity
  8
0
100
AcDbLine
 62
7
  6
CONTINUOUS
 10
12.505507
 20
-20.720391
 11
12.505507
 21
-21.0355320662
  0
LINE
  5
412
100
AcDbEntity
  8
0
100
AcDbLine
 62
253
  6
CONTINUOUS
 10
12.6
 20
35.3
 11
12.6
 21
35.1903964381
  0
LINE
  5
413
100
AcDbEntity
  8
SUPERFICI
100
AcDbLine
 62
253
  6
CONTINUOUS
 10
12.6
 20
-35.3
 11
12.6
 21
-35.1903964381
  0
LINE
  5
414
100
AcDbEntity
  8
0
100
AcDbLine
 62
7
  6
CONTINUOUS
 10
12.65
 20
-21.058132649
 11
12.65
 21
-20.55152
  0
LINE
  5
415
100
AcDbEntity
  8
0
100
AcDbLine
 62
7
  6
CONTINUOUS
 10
12.65
 20
-19.486182
 11
12.65
 21
-19.285926
  0
LINE
  5
416
100
AcDbEntity
  8
0
100
AcDbLine
 62
7
  6
CONTINUOUS
 10
12.65
 20
-20.278227
 11
12.65
 21
-20.114587
  0
LINE
  5
417
100
AcDbEntity
  8
0
100
AcDbLine
 62
7
  6
CONTINUOUS
 10
12.65
 20
-19.052704
 11
12.65
 21
-18.142124
  0
LINE
  5
418
100
AcDbEntity
  8
0
100
AcDbLine
 62
7
  6
CONTINUOUS
 10
12.65
 20
-17.5432293723
 11
12.65
 21
-16.980951
  0
LINE
  5
419
100
AcDbEntity
  8
0
100
AcDbLine
 62
7
  6
CONTINUOUS
 10
12.65
 20
-15.838926
 11
12.65
 21
-14.824023
  0
LINE
  5
41A
100
AcDbEntity
  8
0
100
AcDbLine
 62
7
  6
CONTINUOUS
 10
12.65
 20
-14.324418
 11
12.65
 21
-14.132945
  0
LINE
  5
41B
100
AcDbEntity
  8
0
100
AcDbLine
 62
7
  6
CONTINUOUS
 10
12.65
 20
-13.1893012238
 11
12.65
 21
-12.627023
  0
LINE
  5
41C
100
AcDbEntity
  8
DRAFT
100
AcDbLine
 62
7
  6
CONTINUOUS
 10
12.768583276
 20
22.4904004454
 11
12.768583276
 21
12.031416724
  0
LINE
  5
41D
100
AcDbEntity
  8
DRAFT
100
AcDbLine
 62
7
  6
CONTINUOUS
 10
12.768583276
 20
10.968583276
 11
12.768583276
 21
0.531416724
  0
LINE
  5
41E
100
AcDbEntity
  8
DRAFT
100
AcDbLine
 62
7
  6
CONTINUOUS
 10
12.768583276
 20
-0.531416724
 11
12.768583276
 21
-10.968583276
  0
LINE
  5
41F
100
AcDbEntity
  8
DRAFT
100
AcDbLine
 62
7
  6
CONTINUOUS
 10
12.768583276
 20
-12.031416724
 11
12.768583276
 21
-22.4904004454
  0
LINE
  5
420
100
AcDbEntity
  8
DRAFT
100
AcDbLine
 62
7
  6
CONTINUOUS
 10
12.8872686779
 20
22.6090858474
 11
12.8872686779
 21
11.9127313221
  0
LINE
  5
421
100
AcDbEntity
  8
DRAFT
100
AcDbLine
 62
7
  6
CONTINUOUS
 10
12.8872686779
 20
11.0872686779
 11
12.8872686779
 21
0.4127313221
  0
LINE
  5
422
100
AcDbEntity
  8
DRAFT
100
AcDbLine
 62
7
  6
CONTINUOUS
 10
12.8872686779
 20
-0.4127313221
 11
12.8872686779
 21
-11.0872686779
  0
LINE
  5
423
100
AcDbEntity
  8
DRAFT
100
AcDbLine
 62
7
  6
CONTINUOUS
 10
12.8872686779
 20
-11.9127313221
 11
12.8872686779
 21
-22.6090858474
  0
LINE
  5
424
100
AcDbEntity
  8
DRAFT
100
AcDbLine
 62
7
  6
CONTINUOUS
 10
13.1004493507
 20
26.0
 11
13.1004493507
 21
23.8
  0
LINE
  5
425
100
AcDbEntity
  8
DRAFT
100
AcDbLine
 62
7
  6
CONTINUOUS
 10
13.1004493507
 20
-23.8
 11
13.1004493507
 21
-26.0
  0
LINE
  5
426
100
AcDbEntity
  8
RACCORDO
100
AcDbLine
 62
7
  6
CONTINUOUS
 10
14.1254493507
 20
26.4255255031
 11
14.1254493507
 21
-26.4255255031
  0
LINE
  5
427
100
AcDbEntity
  8
RACCORDO
100
AcDbLine
 62
7
  6
CONTINUOUS
 10
14.3
 20
27.8000761524
 11
14.3
 21
26.6000761524
  0
LINE
  5
428
100
AcDbEntity
  8
DRAFT
100
AcDbLine
 62
7
  6
CONTINUOUS
 10
14.3
 20
23.6
 11
14.3
 21
22.6
  0
LINE
  5
429
100
AcDbEntity
  8
DRAFT
100
AcDbLine
 62
7
  6
CONTINUOUS
 10
14.3
 20
12.0
 11
14.3
 21
11.0
  0
LINE
  5
42A
100
AcDbEntity
  8
DRAFT
100
AcDbLine
 62
7
  6
CONTINUOUS
 10
14.3
 20
0.5
 11
14.3
 21
-0.5
  0
LINE
  5
42B
100
AcDbEntity
  8
DRAFT
100
AcDbLine
 62
7
  6
CONTINUOUS
 10
14.3
 20
-11.0
 11
14.3
 21
-12.0
  0
LINE
  5
42C
100
AcDbEntity
  8
DRAFT
100
AcDbLine
 62
7
  6
CONTINUOUS
 10
14.3
 20
-22.6
 11
14.3
 21
-23.6
  0
LINE
  5
42D
100
AcDbEntity
  8
RACCORDO
100
AcDbLine
 62
7
  6
CONTINUOUS
 10
14.3
 20
-26.6000761524
 11
14.3
 21
-27.8000761524
  0
LINE
  5
42E
100
AcDbEntity
  8
DRAFT
100
AcDbLine
 62
7
  6
CONTINUOUS
 10
14.3592204604
 20
-24.2588624917
 11
14.3592204604
 21
-23.6592204604
  0
LINE
  5
42F
100
AcDbEntity
  8
DRAFT
100
AcDbLine
 62
7
  6
CONTINUOUS
 10
14.3592204604
 20
-22.5407795396
 11
14.3592204604
 21
-12.0592204604
  0
LINE
  5
430
100
AcDbEntity
  8
DRAFT
100
AcDbLine
 62
7
  6
CONTINUOUS
 10
14.3592204604
 20
-10.9407795396
 11
14.3592204604
 21
-0.5592204604
  0
LINE
  5
431
100
AcDbEntity
  8
DRAFT
100
AcDbLine
 62
7
  6
CONTINUOUS
 10
14.3592204604
 20
0.5592204604
 11
14.3592204604
 21
10.9407795396
  0
LINE
  5
432
100
AcDbEntity
  8
DRAFT
100
AcDbLine
 62
7
  6
CONTINUOUS
 10
14.3592204604
 20
12.0592204604
 11
14.3592204604
 21
22.5407795396
  0
LINE
  5
433
100
AcDbEntity
  8
DRAFT
100
AcDbLine
 62
7
  6
CONTINUOUS
 10
14.3592204604
 20
23.6592204604
 11
14.3592204604
 21
24.2588624917
  0
LINE
  5
434
100
AcDbEntity
  8
DRAFT
100
AcDbLine
 62
7
  6
CONTINUOUS
 10
12.3
 20
30.9479872933
 11
12.2991894314
 21
28.3591740007
  0
LINE
  5
435
100
AcDbEntity
  8
0
100
AcDbLine
 62
7
  6
CONTINUOUS
 10
12.3002563419
 20
33.8941170496
 11
12.3013830031
 21
35.1910295133
  0
LWPOLYLINE
  5
436
100
AcDbEntity
  8
SUPERFICI
100
AcDbPolyline
 62
7
  6
CONTINUOUS
 90
3
 70
0
 10
12.298340114
 20
-33.2435256597
 10
12.298307399
 20
-32.5904485269
 10
12.3
 20
-30.9479872933
  0
LINE
  5
437
100
AcDbEntity
  8
RACCORDO
100
AcDbLine
 62
7
  6
CONTINUOUS
 10
14.3548627317
 20
-27.8549388842
 11
14.3592204604
 21
-24.2588624917
  0
LWPOLYLINE
  5
438
100
AcDbEntity
  8
0
100
AcDbPolyline
 62
253
  6
CONTINUOUS
 90
7
 70
0
 10
13.3801402477
 20
31.2827819573
 10
13.3811836197
 20
31.9142451154
 10
13.3548592856
 20
32.5589561216
 10
13.3005189942
 20
33.212252907
 10
13.2177455929
 20
33.8687389463
 10
13.1063741954
 20
34.5222323215
 10
12.9669196979
 20
35.1661191244
  0
LWPOLYLINE
  5
439
100
AcDbEntity
  8
SUPERFICI
100
AcDbPolyline
 62
7
  6
CONTINUOUS
 90
3
 70
0
 10
12.3002563419
 20
33.8941170496
 10
12.2990859644
 20
33.5691438153
 10
12.2980187907
 20
32.9172853818
  0
LWPOLYLINE
  5
43A
100
AcDbEntity
  8
0
100
AcDbPolyline
 62
7
  6
CONTINUOUS
 90
10
 70
0
 10
12.505507
 20
-13.1388689114
 10
12.5050452924
 20
-13.1858683364
 10
12.4983847056
 20
-13.2287644769
 10
12.4855252396
 20
-13.267557333
 10
12.4660751804
 20
-13.303301225
 10
12.4404262421
 20
-13.3349418325
 10
12.4097535665
 20
-13.359316194
 10
12.3744488679
 20
-13.3753699891
 10
12.334120432
 20
-13.3841575382
 10
12.288768259
 20
-13.3856788413
  0
LWPOLYLINE
  5
43B
100
AcDbEntity
  8
0
100
AcDbPolyline
 62
7
  6
CONTINUOUS
 90
10
 70
0
 10
12.505507
 20
-17.4927970598
 10
12.5050452924
 20
-17.5397964849
 10
12.4983847056
 20
-17.5826926254
 10
12.4855252396
 20
-17.6214854814
 10
12.4660751804
 20
-17.6572293734
 10
12.4404262421
 20
-17.6888699809
 10
12.4097535665
 20
-17.7132443425
 10
12.3744488678
 20
-17.7292981375
 10
12.334120432
 20
-17.7380856866
 10
12.288768259
 20
-17.7396069897
  0
LWPOLYLINE
  5
43C
100
AcDbEntity
  8
0
100
AcDbPolyline
 62
7
  6
CONTINUOUS
 90
7
 70
0
 10
14.3210936674
 20
31.5950381673
 10
14.3309948893
 20
32.1790895565
 10
14.3010278922
 20
32.757292265
 10
14.2332311294
 20
33.3248241782
 10
14.1296432573
 20
33.8768627016
 10
13.9923031355
 20
34.4085847604
 10
13.8232498265
 20
34.9151668
  0
LINE
  5
43D
100
AcDbEntity
  8
DRAFT
100
AcDbLine
 62
253
  6
CONTINUOUS
 10
13.3125542169
 20
28.3575596147
 11
13.3801402477
 21
31.2827819573
  0
LINE
  5
43E
100
AcDbEntity
  8
RACCORDO
100
AcDbLine
 62
253
  6
CONTINUOUS
 10
14.1477300259
 20
28.2607234205
 11
14.3210936674
 21
31.5950381673
  0
LWPOLYLINE
  5
43F
100
AcDbEntity
  8
0
100
AcDbPolyline
 62
7
  6
CONTINUOUS
 90
10
 70
0
 10
12.505507
 20
-21.0355320662
 10
12.4994685932
 20
-21.1118663004
 10
12.4801737057
 20
-21.1802052185
 10
12.4476223377
 20
-21.2405488207
 10
12.399922935
 20
-21.2938297409
 10
12.3389670516
 20
-21.3391153451
 10
12.2704293502
 20
-21.373607731
 10
12.1962013848
 20
-21.3963742645
 10
12.1143916015
 20
-21.4083475797
 10
12.025
 20
-21.4095276767
  0
LINE
  5
440
100
AcDbEntity
  8
DRAFT
100
AcDbLine
 62
7
  6
CONTINUOUS
 10
4.9959967949
 20
-28.4
 11
5.0125464566
 21
-28.3407930738
  0
LWPOLYLINE
  5
441
100
AcDbEntity
  8
0
100
AcDbPolyline
 62
7
  6
CONTINUOUS
 90
13
 70
0
 10
1.2111331768
 20
-33.101292583
 10
1.2400330783
 20
-33.0180439933
 10
1.2632651025
 20
-32.9335960618
 10
1.280796442
 20
-32.848331402
 10
1.2926199176
 20
-32.7626317675
 10
1.2987537247
 20
-32.6768763474
 10
1.299241067
 20
-32.5914400918
 10
1.2941496804
 20
-32.5066920738
 10
1.2835712506
 20
-32.4229938961
 10
1.2676207277
 20
-32.3406981478
 10
1.2464355422
 20
-32.2601469193
 10
1.220174727
 20
-32.1816703809
 10
1.18901795
 20
-32.1055854309
  0
LINE
  5
442
100
AcDbEntity
  8
0
100
AcDbLine
 62
7
  6
CONTINUOUS
 10
1.1766239726
 20
-33.1829600833
 11
1.2111331768
 21
-33.101292583
  0
LWPOLYLINE
  5
443
100
AcDbEntity
  8
0
100
AcDbPolyline
 62
7
  6
CONTINUOUS
 90
19
 70
0
 10
-1.0618835114
 20
-31.995301003
 10
-1.033658968
 20
-31.931172543
 10
-1.0015750674
 20
-31.8686613718
 10
-0.9657272044
 20
-31.8079991369
 10
-0.9262382478
 20
-31.7494306153
 10
-0.8832196721
 20
-31.6931545227
 10
-0.8367596339
 20
-31.639330501
 10
-0.787052824
 20
-31.5882242653
 10
-0.7342019248
 20
-31.5399790248
 10
-0.6781273963
 20
-31.4946040076
 10
-0.618786629
 20
-31.452203841
 10
-0.5565063913
 20
-31.4131463717
 10
-0.4917846734
 20
-31.3778120814
 10
-0.4248460743
 20
-31.3463525141
 10
-0.3559233649
 20
-31.3189050681
 10
-0.2856057612
 20
-31.2956964877
 10
-0.2142809158
 20
-31.2768009803
 10
-0.1421032131
 20
-31.2622063416
 10
-0.069338263
 20
-31.2519245995
  0
LWPOLYLINE
  5
444
100
AcDbEntity
  8
0
100
AcDbPolyline
 62
7
  6
CONTINUOUS
 90
5
 70
0
 10
-1.5837560244
 20
-31.7578632625
 10
-1.6083309421
 20
-31.8102380624
 10
-1.6509870055
 20
-31.91970537
 10
-1.6862021012
 20
-32.0317880563
 10
-1.7138175149
 20
-32.1459809668
  0
LINE
  5
445
100
AcDbEntity
  8
0
100
AcDbLine
 62
7
  6
CONTINUOUS
 10
-1.5265941873
 20
-31.6444240617
 11
-1.5805600342
 21
-31.7487810052
  0
LINE
  5
446
100
AcDbEntity
  8
DRAFT
100
AcDbLine
 62
7
  6
CONTINUOUS
 10
12.8872686779
 20
11.9127313221
 11
11.487388883
 21
11.9127313221
  0
LINE
  5
447
100
AcDbEntity
  8
DRAFT
100
AcDbLine
 62
7
  6
CONTINUOUS
 10
-11.487388883
 20
11.9127313221
 11
-12.8872686779
 21
11.9127313221
  0
LINE
  5
448
100
AcDbEntity
  8
DRAFT
100
AcDbLine
 62
7
  6
CONTINUOUS
 10
-15.6
 20
12.0
 11
-14.3
 21
12.0
  0
LINE
  5
449
100
AcDbEntity
  8
DRAFT
100
AcDbLine
 62
7
  6
CONTINUOUS
 10
14.3
 20
12.0
 11
15.6
 21
12.0
  0
LINE
  5
44A
100
AcDbEntity
  8
DRAFT
100
AcDbLine
 62
7
  6
CONTINUOUS
 10
12.768583276
 20
12.031416724
 11
11.25
 21
12.031416724
  0
LINE
  5
44B
100
AcDbEntity
  8
DRAFT
100
AcDbLine
 62
7
  6
CONTINUOUS
 10
-11.25
 20
12.031416724
 11
-12.768583276
 21
12.031416724
  0
LINE
  5
44C
100
AcDbEntity
  8
DRAFT
100
AcDbLine
 62
7
  6
CONTINUOUS
 10
4.9959967949
 20
28.4
 11
5.0125464566
 21
28.3407930738
  0
LWPOLYLINE
  5
44D
100
AcDbEntity
  8
DRAFT
100
AcDbPolyline
 62
7
  6
CONTINUOUS
 90
10
 70
0
 10
7.3149763054
 20
33.0458135839
 10
7.2782157412
 20
33.3002799116
 10
7.2283234651
 20
33.5512823528
 10
7.1652994769
 20
33.7988244934
 10
7.0888815466
 20
34.0436816818
 10
6.9993319042
 20
34.2850850672
 10
6.8974372405
 20
34.520733813
 10
6.7834597855
 20
34.7498773915
 10
6.6571373091
 20
34.9733032749
 10
6.5184698113
 20
35.1910295133
  0
LINE
  5
44E
100
AcDbEntity
  8
SUPERFICI
100
AcDbLine
 62
7
  6
CONTINUOUS
 10
15.4780112546
 20
-32.3
 11
15.4711825947
 21
-31.0400504463
  0
LINE
  5
44F
100
AcDbEntity
  8
SUPERFICI
100
AcDbLine
 62
7
  6
CONTINUOUS
 10
15.4711825947
 20
-31.0400504463
 11
15.4602066536
 21
-28.559069362
  0
LINE
  5
450
100
AcDbEntity
  8
SUPERFICI
100
AcDbLine
 62
7
  6
CONTINUOUS
 10
15.4602066536
 20
-28.559069362
 11
15.4513480333
 21
-26.0070046223
  0
LINE
  5
451
100
AcDbEntity
  8
SUPERFICI
100
AcDbLine
 62
7
  6
CONTINUOUS
 10
15.4513480333
 20
-26.0070046223
 11
15.4466035533
 21
-24.2664903341
  0
LINE
  5
452
100
AcDbEntity
  8
DRAFT
100
AcDbLine
 62
7
  6
CONTINUOUS
 10
15.4465301414
 20
-23.6511150517
 11
15.4466035533
 21
-24.2664903341
  0
LINE
  5
453
100
AcDbEntity
  8
DRAFT
100
AcDbLine
 62
7
  6
CONTINUOUS
 10
15.4465301414
 20
22.5488849483
 11
15.4465301414
 21
12.0511150517
  0
LINE
  5
454
100
AcDbEntity
  8
DRAFT
100
AcDbLine
 62
7
  6
CONTINUOUS
 10
15.4465301414
 20
10.9488849483
 11
15.4465301414
 21
0.5511150517
  0
LINE
  5
455
100
AcDbEntity
  8
DRAFT
100
AcDbLine
 62
7
  6
CONTINUOUS
 10
15.4465301414
 20
-0.5511150517
 11
15.4465301414
 21
-10.9488849483
  0
LINE
  5
456
100
AcDbEntity
  8
DRAFT
100
AcDbLine
 62
7
  6
CONTINUOUS
 10
15.4465301414
 20
-12.0511150517
 11
15.4465301414
 21
-22.5488849483
  0
LINE
  5
457
100
AcDbEntity
  8
DRAFT
100
AcDbLine
 62
7
  6
CONTINUOUS
 10
15.6
 20
-32.3
 11
15.6
 21
-23.6
  0
LINE
  5
458
100
AcDbEntity
  8
DRAFT
100
AcDbLine
 62
7
  6
CONTINUOUS
 10
15.6
 20
-22.6
 11
15.6
 21
-12.0
  0
LINE
  5
459
100
AcDbEntity
  8
DRAFT
100
AcDbLine
 62
7
  6
CONTINUOUS
 10
15.6
 20
-11.0
 11
15.6
 21
-0.5
  0
LINE
  5
45A
100
AcDbEntity
  8
DRAFT
100
AcDbLine
 62
7
  6
CONTINUOUS
 10
15.6
 20
0.5
 11
15.6
 21
11.0
  0
LINE
  5
45B
100
AcDbEntity
  8
DRAFT
100
AcDbLine
 62
7
  6
CONTINUOUS
 10
15.6
 20
12.0
 11
15.6
 21
22.6
  0
LINE
  5
45C
100
AcDbEntity
  8
DRAFT
100
AcDbLine
 62
7
  6
CONTINUOUS
 10
15.6
 20
23.6
 11
15.6
 21
32.3
  0
LINE
  5
45D
100
AcDbEntity
  8
0
100
AcDbLine
 62
7
  6
CONTINUOUS
 10
17.3
 20
32.3
 11
17.3
 21
-32.3
  0
LINE
  5
45E
100
AcDbEntity
  8
DRAFT
100
AcDbLine
 62
7
  6
CONTINUOUS
 10
15.4466035533
 20
24.2664903341
 11
15.4465301414
 21
23.6511150517
  0
LINE
  5
45F
100
AcDbEntity
  8
0
100
AcDbLine
 62
7
  6
CONTINUOUS
 10
15.4570216111
 20
27.7162066943
 11
15.4466035533
 21
24.2664903341
  0
LINE
  5
460
100
AcDbEntity
  8
0
100
AcDbLine
 62
7
  6
CONTINUOUS
 10
15.4711825947
 20
31.0400504463
 11
15.4570216111
 21
27.7162066943
  0
LINE
  5
461
100
AcDbEntity
  8
0
100
AcDbLine
 62
7
  6
CONTINUOUS
 10
15.4780112546
 20
32.3
 11
15.4711825947
 21
31.0400504463
  0
LWPOLYLINE
  5
462
100
AcDbEntity
  8
RACCORDO
100
AcDbPolyline
 62
7
  6
CONTINUOUS
 90
7
 70
0
 10
14.3548627317
 20
-27.8549388842
 10
14.348721636
 20
-27.9324496879
 10
14.3305560046
 20
-28.0084786831
 10
14.3006448074
 20
-28.0811271994
 10
14.2595697359
 20
-28.1485383365
 10
14.2082101577
 20
-28.2089459713
 10
14.1477300259
 20
-28.2607234205
  0
LINE
  5
463
100
AcDbEntity
  8
DRAFT
100
AcDbLine
 62
7
  6
CONTINUOUS
 10
-10.75
 20
-32.0
 11
-10.7001643326
 21
-31.9501643326
  0
LINE
  5
464
100
AcDbEntity
  8
DRAFT
100
AcDbLine
 62
7
  6
CONTINUOUS
 10
11.487388883
 20
-11.9127313221
 11
11.25
 21
-12.031416724
  0
LINE
  5
465
100
AcDbEntity
  8
DRAFT
100
AcDbLine
 62
7
  6
CONTINUOUS
 10
-8.1238174026
 20
-22.5
 11
-8.15
 21
-22.5130903017
  0
LINE
  5
466
100
AcDbEntity
  8
DRAFT
100
AcDbLine
 62
7
  6
CONTINUOUS
 10
15.6
 20
-12.0
 11
15.4465301414
 21
-12.0511150517
  0
LINE
  5
467
100
AcDbEntity
  8
DRAFT
100
AcDbLine
 62
7
  6
CONTINUOUS
 10
-15.6
 20
-22.6
 11
-15.4465301414
 21
-22.5488849483
  0
LINE
  5
468
100
AcDbEntity
  8
DRAFT
100
AcDbLine
 62
7
  6
CONTINUOUS
 10
15.6
 20
12.0
 11
15.4465301414
 21
12.0511150517
  0
LINE
  5
469
100
AcDbEntity
  8
DRAFT
100
AcDbLine
 62
7
  6
CONTINUOUS
 10
-15.6
 20
22.6
 11
-15.4465301414
 21
22.5488849483
  0
LINE
  5
46A
100
AcDbEntity
  8
DRAFT
100
AcDbLine
 62
7
  6
CONTINUOUS
 10
11.487388883
 20
11.9127313221
 11
11.25
 21
12.031416724
  0
LINE
  5
46B
100
AcDbEntity
  8
DRAFT
100
AcDbLine
 62
7
  6
CONTINUOUS
 10
-8.1238174026
 20
22.5
 11
-8.15
 21
22.5130903017
  0
LINE
  5
46C
100
AcDbEntity
  8
DRAFT
100
AcDbLine
 62
7
  6
CONTINUOUS
 10
-10.75
 20
32.0
 11
-10.7001643326
 21
31.9501643326
  0
LINE
  5
46D
100
AcDbEntity
  8
DRAFT
100
AcDbLine
 62
7
  6
CONTINUOUS
 10
-7.2738873049
 20
33.0
 11
-7.3149763054
 21
33.0458135839
  0
LWPOLYLINE
  5
46E
100
AcDbEntity
  8
0
100
AcDbPolyline
 62
7
  6
CONTINUOUS
 90
22
 70
0
 10
1.18901795
 20
32.8944145691
 10
1.1531644639
 20
32.9678055812
 10
1.1128319765
 20
33.0382160506
 10
1.06825545
 20
33.1053762289
 10
1.0196858345
 20
33.1690342455
 10
0.9673887412
 20
33.2289570368
 10
0.9116430641
 20
33.2849311782
 10
0.8527395559
 20
33.3367636173
 10
0.7909793644
 20
33.3842823047
 10
0.7266725389
 20
33.4273367221
 10
0.6601365112
 20
33.4657983044
 10
0.5916945604
 20
33.4995607566
 10
0.5216742682
 20
33.5285402642
 10
0.4504059714
 20
33.5526755976
 10
0.3782212201
 20
33.5719281109
 10
0.3054512476
 20
33.5862816358
 10
0.232425459
 20
33.5957422741
 10
0.1594699471
 20
33.6003380876
 10
0.0869060393
 20
33.6001186912
 10
0.0150488848
 20
33.5951547499
 10
-0.0557939131
 20
33.5855373842
 10
-0.125323614
 20
33.5713774875
  0
LINE
  5
46F
100
AcDbEntity
  8
DRAFT
100
AcDbLine
 62
7
  6
CONTINUOUS
 10
12.8872686779
 20
-11.9127313221
 11
12.768583276
 21
-12.031416724
  0
LINE
  5
470
100
AcDbEntity
  8
DRAFT
100
AcDbLine
 62
7
  6
CONTINUOUS
 10
14.3
 20
-11.0
 11
14.3592204604
 21
-10.9407795396
  0
LINE
  5
471
100
AcDbEntity
  8
DRAFT
100
AcDbLine
 62
7
  6
CONTINUOUS
 10
-0.5
 20
-27.8
 11
-0.5600150119
 21
-27.8600150119
  0
LINE
  5
472
100
AcDbEntity
  8
0
100
AcDbLine
 62
7
  6
CONTINUOUS
 10
11.4
 20
-14.777043
 11
12.65
 21
-14.324418
  0
LINE
  5
473
100
AcDbEntity
  8
0
100
AcDbLine
 62
7
  6
CONTINUOUS
 10
11.763897
 20
-14.46891
 11
11.4
 21
-14.592578
  0
LINE
  5
474
100
AcDbEntity
  8
0
100
AcDbLine
 62
7
  6
CONTINUOUS
 10
12.468698
 20
-14.221695
 11
11.91362
 21
-14.407916
  0
LINE
  5
475
100
AcDbEntity
  8
DRAFT
100
AcDbLine
 62
7
  6
CONTINUOUS
 10
12.8872686779
 20
11.9127313221
 11
12.768583276
 21
12.031416724
  0
LINE
  5
476
100
AcDbEntity
  8
DRAFT
100
AcDbLine
 62
7
  6
CONTINUOUS
 10
14.3
 20
11.0
 11
14.3592204604
 21
10.9407795396
  0
LINE
  5
477
100
AcDbEntity
  8
DRAFT
100
AcDbLine
 62
7
  6
CONTINUOUS
 10
-0.5
 20
27.8
 11
-0.5600150119
 21
27.8600150119
  0
LINE
  5
478
100
AcDbEntity
  8
DRAFT
100
AcDbLine
 62
7
  6
CONTINUOUS
 10
11.75
 20
-35.3
 11
11.7862939805
 21
-35.1910295133
  0
LINE
  5
479
100
AcDbEntity
  8
DRAFT
100
AcDbLine
 62
7
  6
CONTINUOUS
 10
0.5
 20
-28.4
 11
0.5592069262
 21
-28.3407930738
  0
LINE
  5
47A
100
AcDbEntity
  8
RACCORDO
100
AcDbLine
 62
7
  6
CONTINUOUS
 10
7.1159754333
 20
-24.9340245667
 11
6.88733701
 21
-25.16266299
  0
LINE
  5
47B
100
AcDbEntity
  8
0
100
AcDbLine
 62
7
  6
CONTINUOUS
 10
4.5
 20
-25.1991919114
 11
2.5
 21
-27.0
  0
LINE
  5
47C
100
AcDbEntity
  8
DRAFT
100
AcDbLine
 62
7
  6
CONTINUOUS
 10
6.14865379
 20
-25.1
 11
3.15
 21
-27.8
  0
LWPOLYLINE
  5
47D
100
AcDbEntity
  8
DRAFT
100
AcDbPolyline
 62
7
  6
CONTINUOUS
 90
10
 70
0
 10
-5.0125464566
 20
-28.3407930738
 10
-5.4263575698
 20
-28.6228637183
 10
-5.8027674937
 20
-28.9379058731
 10
-6.1417762282
 20
-29.2858097385
 10
-6.446044395
 20
-29.6703149801
 10
-6.7129113725
 20
-30.0873761886
 10
-6.9343952958
 20
-30.5252163968
 10
-7.1078355434
 20
-30.9798194568
 10
-7.2358927368
 20
-31.4548706565
 10
-7.3185668761
 20
-31.9501643326
  0
LINE
  5
47E
100
AcDbEntity
  8
0
100
AcDbLine
 62
7
  6
CONTINUOUS
 10
12.41526
 20
-19.449566
 11
11.4
 21
-20.088531
  0
LINE
  5
47F
100
AcDbEntity
  8
DRAFT
100
AcDbLine
 62
7
  6
CONTINUOUS
 10
11.2499912439
 20
22.5095980965
 11
11.1923514428
 21
22.5
  0
LINE
  5
480
100
AcDbEntity
  8
DRAFT
100
AcDbLine
 62
7
  6
CONTINUOUS
 10
-12.768583276
 20
22.4904004454
 11
-11.25
 21
22.4904004454
  0
LINE
  5
481
100
AcDbEntity
  8
DRAFT
100
AcDbLine
 62
7
  6
CONTINUOUS
 10
11.25
 20
22.4904004454
 11
12.768583276
 21
22.4904004454
  0
LINE
  5
482
100
AcDbEntity
  8
DRAFT
100
AcDbLine
 62
7
  6
CONTINUOUS
 10
11.1923514428
 20
22.5
 11
10.7761825974
 21
22.5
  0
LINE
  5
483
100
AcDbEntity
  8
DRAFT
100
AcDbLine
 62
7
  6
CONTINUOUS
 10
8.1238174026
 20
22.5
 11
4.5
 21
22.5
  0
LINE
  5
484
100
AcDbEntity
  8
SUPERFICI
100
AcDbLine
 62
7
  6
CONTINUOUS
 10
-3.1725294748
 20
22.5
 11
3.1725294748
 21
22.5
  0
LINE
  5
485
100
AcDbEntity
  8
DRAFT
100
AcDbLine
 62
7
  6
CONTINUOUS
 10
-4.5
 20
22.5
 11
-8.1238174026
 21
22.5
  0
LINE
  5
486
100
AcDbEntity
  8
DRAFT
100
AcDbLine
 62
7
  6
CONTINUOUS
 10
-10.7761825974
 20
22.5
 11
-11.1923514428
 21
22.5
  0
LINE
  5
487
100
AcDbEntity
  8
DRAFT
100
AcDbLine
 62
7
  6
CONTINUOUS
 10
-10.75
 20
22.5130903017
 11
-8.15
 21
22.5130903017
  0
LINE
  5
488
100
AcDbEntity
  8
DRAFT
100
AcDbLine
 62
7
  6
CONTINUOUS
 10
8.15
 20
22.5130903017
 11
10.75
 21
22.5130903017
  0
LINE
  5
489
100
AcDbEntity
  8
DRAFT
100
AcDbLine
 62
7
  6
CONTINUOUS
 10
-3.1745998364
 20
22.5236643411
 11
3.1745998364
 21
22.5236643411
  0
LINE
  5
48A
100
AcDbEntity
  8
0
100
AcDbLine
 62
7
  6
CONTINUOUS
 10
3.0
 20
22.5851869535
 11
-3.0
 21
22.5851869535
  0
LINE
  5
48B
100
AcDbEntity
  8
DRAFT
100
AcDbLine
 62
7
  6
CONTINUOUS
 10
15.6
 20
22.6
 11
14.3
 21
22.6
  0
LINE
  5
48C
100
AcDbEntity
  8
DRAFT
100
AcDbLine
 62
7
  6
CONTINUOUS
 10
-14.3
 20
22.6
 11
-15.6
 21
22.6
  0
LINE
  5
48D
100
AcDbEntity
  8
0
100
AcDbLine
 62
7
  6
CONTINUOUS
 10
-12.8872686779
 20
22.6090858474
 11
-3.0
 21
22.6090858474
  0
LINE
  5
48E
100
AcDbEntity
  8
0
100
AcDbLine
 62
7
  6
CONTINUOUS
 10
3.0
 20
22.6090858474
 11
12.8872686779
 21
22.6090858474
  0
LINE
  5
48F
100
AcDbEntity
  8
0
100
AcDbLine
 62
7
  6
CONTINUOUS
 10
2.5
 20
27.0
 11
4.5
 21
25.1991919114
  0
LINE
  5
490
100
AcDbEntity
  8
DRAFT
100
AcDbLine
 62
7
  6
CONTINUOUS
 10
3.15
 20
27.8
 11
6.14865379
 21
25.1
  0
LINE
  5
491
100
AcDbEntity
  8
DRAFT
100
AcDbLine
 62
7
  6
CONTINUOUS
 10
0.5
 20
28.4
 11
0.5592069262
 21
28.3407930738
  0
LINE
  5
492
100
AcDbEntity
  8
RACCORDO
100
AcDbLine
 62
7
  6
CONTINUOUS
 10
7.1159754333
 20
24.9340245667
 11
6.88733701
 21
25.16266299
  0
LINE
  5
493
100
AcDbEntity
  8
DRAFT
100
AcDbLine
 62
7
  6
CONTINUOUS
 10
11.75
 20
35.3
 11
11.7862939805
 21
35.1910295133
  0
LWPOLYLINE
  5
494
100
AcDbEntity
  8
DRAFT
100
AcDbPolyline
 62
7
  6
CONTINUOUS
 90
10
 70
0
 10
6.5184698113
 20
-35.1910295133
 10
6.6571373089
 20
-34.9733032751
 10
6.783459785
 20
-34.7498773923
 10
6.8974372397
 20
-34.5207338147
 10
6.999331903
 20
-34.2850850708
 10
7.0888815448
 20
-34.0436816875
 10
7.165299475
 20
-33.7988245
 10
7.2283234635
 20
-33.5512823586
 10
7.2782157403
 20
-33.3002799151
 10
7.3149763054
 20
-33.0458135839
  0
LINE
  5
495
100
AcDbEntity
  8
RACCORDO
100
AcDbLine
 62
253
  6
CONTINUOUS
 10
6.95
 20
-26.6000761524
 11
7.1245506493
 21
-26.4255255031
  0
LINE
  5
496
100
AcDbEntity
  8
RACCORDO
100
AcDbLine
 62
253
  6
CONTINUOUS
 10
7.4499238476
 20
-27.1
 11
7.6244744969
 21
-26.9254493507
  0
LINE
  5
497
100
AcDbEntity
  8
RACCORDO
100
AcDbLine
 62
253
  6
CONTINUOUS
 10
6.8899851078
 20
-27.8600910446
 11
6.95
 21
-27.8000761524
  0
LINE
  5
498
100
AcDbEntity
  8
DRAFT
100
AcDbLine
 62
7
  6
CONTINUOUS
 10
8.1674550649
 20
-27.1
 11
8.2896405194
 21
-26.9778145455
  0
LINE
  5
499
100
AcDbEntity
  8
RACCORDO
100
AcDbLine
 62
253
  6
CONTINUOUS
 10
7.3907498469
 20
-28.3591740007
 11
7.4499238476
 21
-28.3
  0
LWPOLYLINE
  5
49A
100
AcDbEntity
  8
0
100
AcDbPolyline
 62
7
  6
CONTINUOUS
 90
13
 70
0
 10
-0.6486029823
 20
-31.7335053259
 10
-0.6040711193
 20
-31.6958138151
 10
-0.5572662519
 20
-31.6606546107
 10
-0.508329102
 20
-31.6281694374
 10
-0.4574383946
 20
-31.5985081832
 10
-0.4047254949
 20
-31.5717776618
 10
-0.3502647635
 20
-31.5480579831
 10
-0.2940739581
 20
-31.5274230506
 10
-0.2364738829
 20
-31.5100557623
 10
-0.1780199134
 20
-31.4961383675
 10
-0.1190451491
 20
-31.485719177
 10
-0.0596362708
 20
-31.478782839
 10
-0.0
 20
-31.475334136
  0
LINE
  5
49B
100
AcDbEntity
  8
0
100
AcDbLine
 62
7
  6
CONTINUOUS
 10
11.634647
 20
-20.114587
 11
12.65
 21
-19.486182
  0
LINE
  5
49C
100
AcDbEntity
  8
DRAFT
100
AcDbLine
 62
7
  6
CONTINUOUS
 10
10.7761825974
 20
-22.5
 11
10.75
 21
-22.5130903017
  0
LINE
  5
49D
100
AcDbEntity
  8
SUPERFICI
100
AcDbLine
 62
253
  6
CONTINUOUS
 10
-14.3210936674
 20
-31.5950381673
 11
-13.6951845444
 21
-31.3869816303
  0
LINE
  5
49E
100
AcDbEntity
  8
SUPERFICI
100
AcDbLine
 62
253
  6
CONTINUOUS
 10
-13.6951845444
 20
-31.3869816303
 11
-13.3801402477
 21
-31.2827819573
  0
LINE
  5
49F
100
AcDbEntity
  8
SUPERFICI
100
AcDbLine
 62
253
  6
CONTINUOUS
 10
-13.3801402477
 20
-31.2827819573
 11
-12.3
 21
-30.947987293
  0
LINE
  5
4A0
100
AcDbEntity
  8
DRAFT
100
AcDbLine
 62
7
  6
CONTINUOUS
 10
-11.1923514428
 20
22.5
 11
-11.2500087815
 21
22.4904004454
  0
LINE
  5
4A1
100
AcDbEntity
  8
DRAFT
100
AcDbLine
 62
7
  6
CONTINUOUS
 10
-3.4038178008
 20
25.1436376623
 11
-2.8257892676
 21
25.1610927272
  0
LINE
  5
4A2
100
AcDbEntity
  8
DRAFT
100
AcDbLine
 62
7
  6
CONTINUOUS
 10
15.4465301414
 20
24.2664285672
 11
14.3592204604
 21
24.2588624917
  0
LINE
  5
4A3
100
AcDbEntity
  8
DRAFT
100
AcDbLine
 62
7
  6
CONTINUOUS
 10
-15.6
 20
23.6
 11
-14.3
 21
23.6
  0
LINE
  5
4A4
100
AcDbEntity
  8
DRAFT
100
AcDbLine
 62
7
  6
CONTINUOUS
 10
14.3
 20
23.6
 11
15.6
 21
23.6
  0
LINE
  5
4A5
100
AcDbEntity
  8
0
100
AcDbLine
 62
7
  6
CONTINUOUS
 10
3.0
 20
23.6090858474
 11
-3.0
 21
23.6090858474
  0
LINE
  5
4A6
100
AcDbEntity
  8
DRAFT
100
AcDbLine
 62
7
  6
CONTINUOUS
 10
13.1004493507
 20
23.8
 11
8.3420057142
 21
23.8
  0
LINE
  5
4A7
100
AcDbEntity
  8
DRAFT
100
AcDbLine
 62
7
  6
CONTINUOUS
 10
-8.3420057142
 20
23.8
 11
-13.1004493507
 21
23.8
  0
LINE
  5
4A8
100
AcDbEntity
  8
RACCORDO
100
AcDbLine
 62
253
  6
CONTINUOUS
 10
7.1245506493
 20
24.4341007192
 11
-7.1245506493
 21
24.4341007192
  0
LINE
  5
4A9
100
AcDbEntity
  8
RACCORDO
100
AcDbLine
 62
253
  6
CONTINUOUS
 10
7.1159754333
 20
24.9340245667
 11
-7.1159754333
 21
24.9340245667
  0
LINE
  5
4AA
100
AcDbEntity
  8
DRAFT
100
AcDbLine
 62
7
  6
CONTINUOUS
 10
4.5
 20
25.0301797403
 11
3.3938915188
 21
25.0301797403
  0
LINE
  5
4AB
100
AcDbEntity
  8
DRAFT
100
AcDbLine
 62
7
  6
CONTINUOUS
 10
-3.3938915188
 20
25.0301797403
 11
-4.5
 21
25.0301797403
  0
LINE
  5
4AC
100
AcDbEntity
  8
DRAFT
100
AcDbLine
 62
7
  6
CONTINUOUS
 10
-6.14865379
 20
25.1
 11
-4.5
 21
25.1
  0
LINE
  5
4AD
100
AcDbEntity
  8
DRAFT
100
AcDbLine
 62
7
  6
CONTINUOUS
 10
4.5
 20
25.1
 11
6.14865379
 21
25.1
  0
LINE
  5
4AE
100
AcDbEntity
  8
DRAFT
100
AcDbLine
 62
7
  6
CONTINUOUS
 10
-2.8257892676
 20
25.1610927272
 11
2.8257892676
 21
25.1610927272
  0
LINE
  5
4AF
100
AcDbEntity
  8
DRAFT
100
AcDbLine
 62
7
  6
CONTINUOUS
 10
6.88733701
 20
25.16266299
 11
6.1727078582
 21
25.16266299
  0
LINE
  5
4B0
100
AcDbEntity
  8
DRAFT
100
AcDbLine
 62
7
  6
CONTINUOUS
 10
-6.1727078582
 20
25.16266299
 11
-6.88733701
 21
25.16266299
  0
LINE
  5
4B1
100
AcDbEntity
  8
SUPERFICI
100
AcDbLine
 62
7
  6
CONTINUOUS
 10
-2.8466909456
 20
25.4
 11
2.8466909456
 21
25.4
  0
LINE
  5
4B2
100
AcDbEntity
  8
DRAFT
100
AcDbLine
 62
7
  6
CONTINUOUS
 10
-15.4465301414
 20
24.2664285672
 11
-14.3592204604
 21
24.2588624917
  0
LINE
  5
4B3
100
AcDbEntity
  8
DRAFT
100
AcDbLine
 62
7
  6
CONTINUOUS
 10
3.4038178008
 20
25.1436376623
 11
2.8257892676
 21
25.1610927272
  0
LINE
  5
4B4
100
AcDbEntity
  8
SUPERFICI
100
AcDbLine
 62
253
  6
CONTINUOUS
 10
-13.3801402477
 20
31.2827819573
 11
-12.3
 21
30.947987293
  0
LINE
  5
4B5
100
AcDbEntity
  8
SUPERFICI
100
AcDbLine
 62
253
  6
CONTINUOUS
 10
-14.3210936674
 20
31.5950381673
 11
-13.3801402477
 21
31.2827819573
  0
LINE
  5
4B6
100
AcDbEntity
  8
DRAFT
100
AcDbLine
 62
7
  6
CONTINUOUS
 10
10.7761825974
 20
22.5
 11
10.75
 21
22.5130903017
  0
LINE
  5
4B7
100
AcDbEntity
  8
RACCORDO
100
AcDbLine
 62
253
  6
CONTINUOUS
 10
7.1245506493
 20
26.4255255031
 11
6.95
 21
26.6000761524
  0
LINE
  5
4B8
100
AcDbEntity
  8
RACCORDO
100
AcDbLine
 62
253
  6
CONTINUOUS
 10
7.6244744969
 20
26.9254493507
 11
7.4499238476
 21
27.1
  0
LINE
  5
4B9
100
AcDbEntity
  8
RACCORDO
100
AcDbLine
 62
253
  6
CONTINUOUS
 10
6.8899851078
 20
27.8600910446
 11
6.95
 21
27.8000761524
  0
LINE
  5
4BA
100
AcDbEntity
  8
DRAFT
100
AcDbLine
 62
7
  6
CONTINUOUS
 10
8.1674550649
 20
27.1
 11
8.2896405194
 21
26.9778145455
  0
LINE
  5
4BB
100
AcDbEntity
  8
RACCORDO
100
AcDbLine
 62
253
  6
CONTINUOUS
 10
7.3907498469
 20
28.3591740007
 11
7.4499238476
 21
28.3
  0
LINE
  5
4BC
100
AcDbEntity
  8
DRAFT
100
AcDbLine
 62
7
  6
CONTINUOUS
 10
7.2738873049
 20
-32.0
 11
7.3185668761
 21
-31.9501643326
  0
LINE
  5
4BD
100
AcDbEntity
  8
DRAFT
100
AcDbLine
 62
7
  6
CONTINUOUS
 10
14.3
 20
-22.6
 11
14.3592204604
 21
-22.5407795396
  0
LINE
  5
4BE
100
AcDbEntity
  8
DRAFT
100
AcDbLine
 62
7
  6
CONTINUOUS
 10
10.75
 20
-28.3
 11
10.6908259993
 21
-28.3591740007
  0
LINE
  5
4BF
100
AcDbEntity
  8
DRAFT
100
AcDbLine
 62
7
  6
CONTINUOUS
 10
15.6
 20
-23.6
 11
15.4465301414
 21
-23.6511150517
  0
LINE
  5
4C0
100
AcDbEntity
  8
0
100
AcDbLine
 62
253
  6
CONTINUOUS
 10
15.475314425
 20
31.8511850689
 11
15.0957149703
 21
31.7654627191
  0
LINE
  5
4C1
100
AcDbEntity
  8
0
100
AcDbLine
 62
253
  6
CONTINUOUS
 10
15.0957149703
 20
31.7654627191
 11
14.7105574386
 21
31.6800804186
  0
LINE
  5
4C2
100
AcDbEntity
  8
0
100
AcDbLine
 62
253
  6
CONTINUOUS
 10
14.7105574386
 20
31.6800804186
 11
14.3210936674
 21
31.5950381673
  0
LINE
  5
4C3
100
AcDbEntity
  8
RACCORDO
100
AcDbLine
 62
7
  6
CONTINUOUS
 10
-13.3125542169
 20
28.3575596147
 11
-13.8562402867
 21
28.3561641343
  0
LINE
  5
4C4
100
AcDbEntity
  8
DRAFT
100
AcDbLine
 62
7
  6
CONTINUOUS
 10
-13.1004493507
 20
26.0
 11
-8.3420057142
 21
26.0
  0
LINE
  5
4C5
100
AcDbEntity
  8
DRAFT
100
AcDbLine
 62
7
  6
CONTINUOUS
 10
8.3420057142
 20
26.0
 11
13.1004493507
 21
26.0
  0
LINE
  5
4C6
100
AcDbEntity
  8
RACCORDO
100
AcDbLine
 62
7
  6
CONTINUOUS
 10
13.6255255031
 20
26.9254493507
 11
7.6244744969
 21
26.9254493507
  0
LINE
  5
4C7
100
AcDbEntity
  8
RACCORDO
100
AcDbLine
 62
7
  6
CONTINUOUS
 10
-7.6244744969
 20
26.9254493507
 11
-13.6255255031
 21
26.9254493507
  0
LINE
  5
4C8
100
AcDbEntity
  8
DRAFT
100
AcDbLine
 62
7
  6
CONTINUOUS
 10
-13.1528145455
 20
26.9778145455
 11
-8.2896405194
 21
26.9778145455
  0
LINE
  5
4C9
100
AcDbEntity
  8
DRAFT
100
AcDbLine
 62
7
  6
CONTINUOUS
 10
8.2896405194
 20
26.9778145455
 11
13.1528145455
 21
26.9778145455
  0
LINE
  5
4CA
100
AcDbEntity
  8
0
100
AcDbLine
 62
7
  6
CONTINUOUS
 10
-2.5
 20
27.0
 11
2.5
 21
27.0
  0
LINE
  5
4CB
100
AcDbEntity
  8
RACCORDO
100
AcDbLine
 62
7
  6
CONTINUOUS
 10
13.8000761524
 20
27.1
 11
13.275
 21
27.1
  0
LINE
  5
4CC
100
AcDbEntity
  8
DRAFT
100
AcDbLine
 62
7
  6
CONTINUOUS
 10
-13.275
 20
27.1
 11
-8.1674550649
 21
27.1
  0
LINE
  5
4CD
100
AcDbEntity
  8
RACCORDO
100
AcDbLine
 62
7
  6
CONTINUOUS
 10
8.1674550649
 20
27.1
 11
7.4499238476
 21
27.1
  0
LINE
  5
4CE
100
AcDbEntity
  8
RACCORDO
100
AcDbLine
 62
7
  6
CONTINUOUS
 10
-7.4499238476
 20
27.1
 11
-8.1674550649
 21
27.1
  0
LINE
  5
4CF
100
AcDbEntity
  8
DRAFT
100
AcDbLine
 62
7
  6
CONTINUOUS
 10
8.1674550649
 20
27.1
 11
13.275
 21
27.1
  0
LINE
  5
4D0
100
AcDbEntity
  8
RACCORDO
100
AcDbLine
 62
7
  6
CONTINUOUS
 10
-13.275
 20
27.1
 11
-13.8000761524
 21
27.1
  0
LINE
  5
4D1
100
AcDbEntity
  8
DRAFT
100
AcDbLine
 62
7
  6
CONTINUOUS
 10
-3.15
 20
27.8
 11
-0.5
 21
27.8
  0
LINE
  5
4D2
100
AcDbEntity
  8
DRAFT
100
AcDbLine
 62
7
  6
CONTINUOUS
 10
0.5
 20
27.8
 11
3.15
 21
27.8
  0
LINE
  5
4D3
100
AcDbEntity
  8
DRAFT
100
AcDbLine
 62
7
  6
CONTINUOUS
 10
3.1730376046
 20
27.8600150119
 11
0.5600150119
 21
27.8600150119
  0
LINE
  5
4D4
100
AcDbEntity
  8
DRAFT
100
AcDbLine
 62
7
  6
CONTINUOUS
 10
-0.5600150119
 20
27.8600150119
 11
-3.1730376046
 21
27.8600150119
  0
LINE
  5
4D5
100
AcDbEntity
  8
RACCORDO
100
AcDbLine
 62
7
  6
CONTINUOUS
 10
-13.8000761524
 20
28.3
 11
-11.75
 21
28.3
  0
LINE
  5
4D6
100
AcDbEntity
  8
RACCORDO
100
AcDbLine
 62
7
  6
CONTINUOUS
 10
-10.75
 20
28.3
 11
-7.4499238476
 21
28.3
  0
LINE
  5
4D7
100
AcDbEntity
  8
RACCORDO
100
AcDbLine
 62
7
  6
CONTINUOUS
 10
7.4499238476
 20
28.3
 11
10.75
 21
28.3
  0
LINE
  5
4D8
100
AcDbEntity
  8
RACCORDO
100
AcDbLine
 62
7
  6
CONTINUOUS
 10
11.75
 20
28.3
 11
13.8000761524
 21
28.3
  0
LINE
  5
4D9
100
AcDbEntity
  8
DRAFT
100
AcDbLine
 62
7
  6
CONTINUOUS
 10
5.0125464566
 20
28.3407930738
 11
0.5592069262
 21
28.3407930738
  0
LINE
  5
4DA
100
AcDbEntity
  8
DRAFT
100
AcDbLine
 62
7
  6
CONTINUOUS
 10
-0.5592069262
 20
28.3407930738
 11
-5.0125464566
 21
28.3407930738
  0
LINE
  5
4DB
100
AcDbEntity
  8
RACCORDO
100
AcDbLine
 62
7
  6
CONTINUOUS
 10
10.6908259993
 20
28.3591740007
 11
7.3907498469
 21
28.3591740007
  0
LINE
  5
4DC
100
AcDbEntity
  8
RACCORDO
100
AcDbLine
 62
7
  6
CONTINUOUS
 10
-7.3907498469
 20
28.3591740007
 11
-10.6908259993
 21
28.3591740007
  0
LINE
  5
4DD
100
AcDbEntity
  8
DRAFT
100
AcDbLine
 62
7
  6
CONTINUOUS
 10
-11.8091740007
 20
28.3591740007
 11
-13.3125542169
 21
28.3575596147
  0
LINE
  5
4DE
100
AcDbEntity
  8
DRAFT
100
AcDbLine
 62
7
  6
CONTINUOUS
 10
4.9959967949
 20
28.4
 11
0.5
 21
28.4
  0
LINE
  5
4DF
100
AcDbEntity
  8
DRAFT
100
AcDbLine
 62
7
  6
CONTINUOUS
 10
-0.5
 20
28.4
 11
-4.9959967949
 21
28.4
  0
LINE
  5
4E0
100
AcDbEntity
  8
DRAFT
100
AcDbLine
 62
7
  6
CONTINUOUS
 10
13.3125542169
 20
28.3575596147
 11
11.8091740007
 21
28.3591740007
  0
LINE
  5
4E1
100
AcDbEntity
  8
RACCORDO
100
AcDbLine
 62
7
  6
CONTINUOUS
 10
13.8562402867
 20
28.3561641343
 11
13.3125542169
 21
28.3575596147
  0
LWPOLYLINE
  5
4E2
100
AcDbEntity
  8
RACCORDO
100
AcDbPolyline
 62
7
  6
CONTINUOUS
 90
10
 70
0
 10
-7.3907498469
 20
28.3591740007
 10
-7.304023878
 20
28.3516176
 10
-7.2198272985
 20
28.3291326335
 10
-7.1407256068
 20
28.2923603438
 10
-7.0690779925
 20
28.2423351852
 10
-7.0071711647
 20
28.1805730625
 10
-6.95705473
 20
28.109124134
 10
-6.9202214576
 20
28.0302821524
 10
-6.897663044
 20
27.9464183979
 10
-6.8899851078
 20
27.8600910446
  0
LINE
  5
4E3
100
AcDbEntity
  8
SUPERFICI
100
AcDbLine
 62
253
  6
CONTINUOUS
 10
-14.9037520592
 20
31.7227290627
 11
-14.3210936674
 21
31.5950381673
  0
LINE
  5
4E4
100
AcDbEntity
  8
SUPERFICI
100
AcDbLine
 62
253
  6
CONTINUOUS
 10
-15.475314425
 20
31.8511850689
 11
-14.9037520592
 21
31.7227290627
  0
LINE
  5
4E5
100
AcDbEntity
  8
DRAFT
100
AcDbLine
 62
7
  6
CONTINUOUS
 10
15.6
 20
23.6
 11
15.4465301414
 21
23.6511150517
  0
LINE
  5
4E6
100
AcDbEntity
  8
DRAFT
100
AcDbLine
 62
7
  6
CONTINUOUS
 10
14.3
 20
22.6
 11
14.3592204604
 21
22.5407795396
  0
LINE
  5
4E7
100
AcDbEntity
  8
DRAFT
100
AcDbLine
 62
7
  6
CONTINUOUS
 10
10.75
 20
28.3
 11
10.6908259993
 21
28.3591740007
  0
LINE
  5
4E8
100
AcDbEntity
  8
DRAFT
100
AcDbLine
 62
7
  6
CONTINUOUS
 10
7.2738873049
 20
32.0
 11
7.3185668761
 21
31.9501643326
  0
LINE
  5
4E9
100
AcDbEntity
  8
DRAFT
100
AcDbLine
 62
7
  6
CONTINUOUS
 10
10.75
 20
-33.0
 11
10.7041864161
 21
-33.0458135839
  0
LWPOLYLINE
  5
4EA
100
AcDbEntity
  8
RACCORDO
100
AcDbPolyline
 62
7
  6
CONTINUOUS
 90
7
 70
0
 10
14.1477300259
 20
-28.2607234205
 10
14.103048021
 20
-28.2897050066
 10
14.0560188156
 20
-28.3135525927
 10
14.0072400736
 20
-28.3321444068
 10
13.9573027372
 20
-28.3454265479
 10
13.9067838811
 20
-28.353409521
 10
13.8562402867
 20
-28.3561641343
  0
LINE
  5
4EB
100
AcDbEntity
  8
DRAFT
100
AcDbLine
 62
7
  6
CONTINUOUS
 10
2.5
 20
30.6860359481
 11
-2.5
 21
30.6860359481
  0
LINE
  5
4EC
100
AcDbEntity
  8
DRAFT
100
AcDbLine
 62
7
  6
CONTINUOUS
 10
3.4949874371
 20
31.0
 11
0.9010976594
 21
31.0
  0
LINE
  5
4ED
100
AcDbEntity
  8
DRAFT
100
AcDbLine
 62
7
  6
CONTINUOUS
 10
-0.9008780286
 20
31.0
 11
-3.4949874371
 21
31.0
  0
LWPOLYLINE
  5
4EE
100
AcDbEntity
  8
0
100
AcDbPolyline
 62
7
  6
CONTINUOUS
 90
31
 70
0
 10
0.0
 20
31.3832968197
 10
-0.0748747968
 20
31.3838430624
 10
-0.1498904285
 20
31.3894360456
 10
-0.2247046319
 20
31.4001115661
 10
-0.2989974797
 20
31.4158889901
 10
-0.372389464
 20
31.4367539111
 10
-0.4444479054
 20
31.4626390123
 10
-0.5149478438
 20
31.4935261208
 10
-0.5834156051
 20
31.5292723852
 10
-0.6490995782
 20
31.569480045
 10
-0.7115152764
 20
31.6137568853
 10
-0.7706362656
 20
31.6619842628
 10
-0.826436185
 20
31.7141073808
 10
-0.8787301659
 20
31.7699724327
 10
-0.9272023167
 20
31.8292620955
 10
-0.971621473
 20
31.8916957329
 10
-1.011743085
 20
31.9569124266
 10
-1.0474448197
 20
32.0246941514
 10
-1.0786658573
 20
32.0949791876
 10
-1.1052861157
 20
32.1676749712
 10
-1.1270459714
 20
32.24228359
 10
-1.143729684
 20
32.3181162946
 10
-1.1552563824
 20
32.3945844034
 10
-1.1616574661
 20
32.471577127
 10
-1.1629218125
 20
32.5491064646
 10
-1.1589794955
 20
32.6270274153
 10
-1.1497903141
 20
32.7047904628
 10
-1.1353998849
 20
32.7818049019
 10
-1.1158958004
 20
32.8576468368
 10
-1.0913536523
 20
32.932055746
 10
-1.0618835114
 20
33.004698997
  0
LWPOLYLINE
  5
4EF
100
AcDbEntity
  8
RACCORDO
100
AcDbPolyline
 62
7
  6
CONTINUOUS
 90
7
 70
0
 10
13.8562402867
 20
28.3561641343
 10
13.9064910054
 20
28.3534403583
 10
13.9568414854
 20
28.3455236963
 10
14.006735071
 20
28.3323069266
 10
14.0555873237
 20
28.3137433245
 10
14.1027923408
 20
28.2898521266
 10
14.1477300259
 20
28.2607234205
  0
LINE
  5
4F0
100
AcDbEntity
  8
0
100
AcDbLine
 62
7
  6
CONTINUOUS
 10
-1.0618835114
 20
33.004698997
 11
-1.5805600342
 21
33.2512189948
  0
LWPOLYLINE
  5
4F1
100
AcDbEntity
  8
RACCORDO
100
AcDbPolyline
 62
7
  6
CONTINUOUS
 90
7
 70
0
 10
14.1477300259
 20
28.2607234205
 10
14.208024431
 20
28.2091316851
 10
14.2593231487
 20
28.1488787214
 10
14.3004310016
 20
28.0815490507
 10
14.330426983
 20
28.0088788513
 10
14.3486809755
 20
27.9327093403
 10
14.3548627317
 20
27.8549388842
  0
LINE
  5
4F2
100
AcDbEntity
  8
DRAFT
100
AcDbLine
 62
7
  6
CONTINUOUS
 10
10.75
 20
33.0
 11
10.7041864161
 21
33.0458135839
  0
LWPOLYLINE
  5
4F3
100
AcDbEntity
  8
0
100
AcDbPolyline
 62
7
  6
CONTINUOUS
 90
10
 70
0
 10
-0.125323614
 20
33.5713774875
 10
-0.1932516001
 20
33.5528049587
 10
-0.2593005734
 20
33.5299678564
 10
-0.3232056864
 20
33.5030314775
 10
-0.384715601
 20
33.4721773667
 10
-0.4435934703
 20
33.4376022621
 10
-0.4996178424
 20
33.3995169818
 10
-0.5525834796
 20
33.3581452585
 10
-0.602302092
 20
33.3137225274
 10
-0.6486029823
 20
33.2664946741
  0
LINE
  5
4F4
100
AcDbEntity
  8
DRAFT
100
AcDbLine
 62
7
  6
CONTINUOUS
 10
10.7001643326
 20
31.9501643326
 11
7.3185668761
 21
31.9501643326
  0
LINE
  5
4F5
100
AcDbEntity
  8
DRAFT
100
AcDbLine
 62
7
  6
CONTINUOUS
 10
-7.3185668761
 20
31.9501643326
 11
-10.7001643326
 21
31.9501643326
  0
LINE
  5
4F6
100
AcDbEntity
  8
DRAFT
100
AcDbLine
 62
7
  6
CONTINUOUS
 10
10.75
 20
32.0
 11
7.2738873049
 21
32.0
  0
LINE
  5
4F7
100
AcDbEntity
  8
DRAFT
100
AcDbLine
 62
7
  6
CONTINUOUS
 10
-7.2738873049
 20
32.0
 11
-10.75
 21
32.0
  0
LINE
  5
4F8
100
AcDbEntity
  8
0
100
AcDbLine
 62
253
  6
CONTINUOUS
 10
15.6
 20
32.3
 11
15.4780112546
 21
32.3
  0
LINE
  5
4F9
100
AcDbEntity
  8
SUPERFICI
100
AcDbLine
 62
253
  6
CONTINUOUS
 10
-15.6
 20
32.3
 11
-15.4780112546
 21
32.3
  0
LINE
  5
4FA
100
AcDbEntity
  8
DRAFT
100
AcDbLine
 62
7
  6
CONTINUOUS
 10
-10.75
 20
33.0
 11
-7.2738873049
 21
33.0
  0
LINE
  5
4FB
100
AcDbEntity
  8
DRAFT
100
AcDbLine
 62
7
  6
CONTINUOUS
 10
7.2738873049
 20
33.0
 11
10.75
 21
33.0
  0
LINE
  5
4FC
100
AcDbEntity
  8
DRAFT
100
AcDbLine
 62
7
  6
CONTINUOUS
 10
10.7041864161
 20
33.0458135839
 11
7.3149763054
 21
33.0458135839
  0
LINE
  5
4FD
100
AcDbEntity
  8
DRAFT
100
AcDbLine
 62
7
  6
CONTINUOUS
 10
-7.3149763054
 20
33.0458135839
 11
-10.7041864161
 21
33.0458135839
  0
LINE
  5
4FE
100
AcDbEntity
  8
DRAFT
100
AcDbLine
 62
7
  6
CONTINUOUS
 10
3.4949874371
 20
34.0
 11
0.8994928529
 21
34.0
  0
LINE
  5
4FF
100
AcDbEntity
  8
DRAFT
100
AcDbLine
 62
7
  6
CONTINUOUS
 10
-0.8994819949
 20
34.0
 11
-3.4949874371
 21
34.0
  0
LINE
  5
500
100
AcDbEntity
  8
DRAFT
100
AcDbLine
 62
7
  6
CONTINUOUS
 10
-2.5
 20
34.3139640519
 11
2.5
 21
34.3139640519
  0
LWPOLYLINE
  5
501
100
AcDbEntity
  8
0
100
AcDbPolyline
 62
7
  6
CONTINUOUS
 90
43
 70
0
 10
0.0
 20
33.524665864
 10
0.0769251575
 20
33.5239772036
 10
0.1537039273
 20
33.517514478
 10
0.2299030692
 20
33.5052990332
 10
0.3051372607
 20
33.4873720954
 10
0.3789336985
 20
33.463825508
 10
0.4507442632
 20
33.4348351357
 10
0.5200676491
 20
33.4006360191
 10
0.5866386848
 20
33.3613929251
 10
0.6502731442
 20
33.3172062604
 10
0.7105772719
 20
33.2683157966
 10
0.7672264254
 20
33.2149491145
 10
0.8200932909
 20
33.1571340659
 10
0.8689742868
 20
33.0948934729
 10
0.9133145206
 20
33.0287135325
 10
0.952532064
 20
32.9593807254
 10
0.9863824023
 20
32.8873745511
 10
1.0147302502
 20
32.8130378172
 10
1.0373595391
 20
32.7370641966
 10
1.0541518039
 20
32.6602619424
 10
1.0652067099
 20
32.5827227935
 10
1.0705659319
 20
32.5040535158
 10
1.0700845932
 20
32.4244217434
 10
1.0636324512
 20
32.3445147067
 10
1.0511240252
 20
32.2647124377
 10
1.0324379379
 20
32.1852349781
 10
1.0075872871
 20
32.1068177958
 10
0.9768783654
 20
32.030587846
 10
0.9405739044
 20
31.9570792325
 10
0.8988696172
 20
31.8865882257
 10
0.8522364773
 20
31.8197742863
 10
0.8013548421
 20
31.7573267242
 10
0.7463190137
 20
31.6991037544
 10
0.6866242581
 20
31.6445997005
 10
0.6220991367
 20
31.5939306492
 10
0.553355794
 20
31.5478365046
 10
0.4809707814
 20
31.5068441118
 10
0.4051837031
 20
31.4712025213
 10
0.3265142283
 20
31.4412658817
 10
0.2461025371
 20
31.4174677723
 10
0.1646783926
 20
31.3999074989
 10
0.0824871744
 20
31.3885236954
 10
0.0
 20
31.3832968197
  0
LWPOLYLINE
  5
502
100
AcDbEntity
  8
SUPERFICI
100
AcDbPolyline
 62
7
  6
CONTINUOUS
 90
7
 70
0
 10
-12.9669196979
 20
35.1661191244
 10
-13.1122408775
 20
35.1433155891
 10
-13.2570734076
 20
35.1129532424
 10
-13.4010105723
 20
35.0749779088
 10
-13.5436363464
 20
35.0293573333
 10
-13.6845265065
 20
34.9760821494
 10
-13.8232498265
 20
34.9151668
  0
LWPOLYLINE
  5
503
100
AcDbEntity
  8
SUPERFICI
100
AcDbPolyline
 62
7
  6
CONTINUOUS
 90
7
 70
0
 10
-12.6
 20
35.1903964381
 10
-12.6619547022
 20
35.1896110871
 10
-12.7236257721
 20
35.1874980858
 10
-12.784984971
 20
35.184074524
 10
-12.8460047744
 20
35.1793580182
 10
-12.9066583771
 20
35.1733666866
 10
-12.9669196979
 20
35.1661191244
  0
LINE
  5
504
100
AcDbEntity
  8
SUPERFICI
100
AcDbLine
 62
7
  6
CONTINUOUS
 10
-12.3013830031
 20
35.1910295133
 11
-12.6
 21
35.1903964381
  0
LINE
  5
505
100
AcDbEntity
  8
DRAFT
100
AcDbLine
 62
7
  6
CONTINUOUS
 10
-12.3013830031
 20
35.1910295133
 11
-11.7862939805
 21
35.1910295133
  0
LINE
  5
506
100
AcDbEntity
  8
DRAFT
100
AcDbLine
 62
7
  6
CONTINUOUS
 10
-10.7137060195
 20
35.1910295133
 11
-6.5184698113
 21
35.1910295133
  0
LINE
  5
507
100
AcDbEntity
  8
DRAFT
100
AcDbLine
 62
7
  6
CONTINUOUS
 10
6.5184698113
 20
35.1910295133
 11
10.7137060195
 21
35.1910295133
  0
LINE
  5
508
100
AcDbEntity
  8
DRAFT
100
AcDbLine
 62
7
  6
CONTINUOUS
 10
11.7862939805
 20
35.1910295133
 11
12.3013830031
 21
35.1910295133
  0
LINE
  5
509
100
AcDbEntity
  8
DRAFT
100
AcDbLine
 62
7
  6
CONTINUOUS
 10
12.6
 20
35.3
 11
11.75
 21
35.3
  0
LINE
  5
50A
100
AcDbEntity
  8
DRAFT
100
AcDbLine
 62
7
  6
CONTINUOUS
 10
10.75
 20
35.3
 11
6.3987177379
 21
35.3
  0
LINE
  5
50B
100
AcDbEntity
  8
DRAFT
100
AcDbLine
 62
7
  6
CONTINUOUS
 10
-6.3987177379
 20
35.3
 11
-10.75
 21
35.3
  0
LINE
  5
50C
100
AcDbEntity
  8
DRAFT
100
AcDbLine
 62
7
  6
CONTINUOUS
 10
-11.75
 20
35.3
 11
-12.6
 21
35.3
  0
LINE
  5
50D
100
AcDbEntity
  8
0
100
AcDbLine
 62
7
  6
CONTINUOUS
 10
-12.3
 20
37.3
 11
-3.25
 21
37.3
  0
LINE
  5
50E
100
AcDbEntity
  8
0
100
AcDbLine
 62
7
  6
CONTINUOUS
 10
3.25
 20
37.3
 11
12.3
 21
37.3
  0
LINE
  5
50F
100
AcDbEntity
  8
0
100
AcDbLine
 62
7
  6
CONTINUOUS
 10
12.3013830031
 20
35.1910295133
 11
12.6
 21
35.1903964381
  0
LWPOLYLINE
  5
510
100
AcDbEntity
  8
0
100
AcDbPolyline
 62
7
  6
CONTINUOUS
 90
7
 70
0
 10
12.6
 20
35.1903964381
 10
12.6619547022
 20
35.1896110871
 10
12.7236257721
 20
35.1874980858
 10
12.784984971
 20
35.184074524
 10
12.8460047744
 20
35.1793580182
 10
12.9066583771
 20
35.1733666866
 10
12.9669196979
 20
35.1661191244
  0
LWPOLYLINE
  5
511
100
AcDbEntity
  8
0
100
AcDbPolyline
 62
7
  6
CONTINUOUS
 90
7
 70
0
 10
12.9669196979
 20
35.1661191244
 10
13.1122408775
 20
35.1433155891
 10
13.2570734076
 20
35.1129532424
 10
13.4010105723
 20
35.0749779088
 10
13.5436363464
 20
35.0293573333
 10
13.6845265065
 20
34.9760821494
 10
13.8232498265
 20
34.9151668
  0
LWPOLYLINE
  5
512
100
AcDbEntity
  8
SUPERFICI
100
AcDbPolyline
 62
7
  6
CONTINUOUS
 90
16
 70
0
 10
13.8232498265
 20
-34.9151668
 10
14.0226993513
 20
-34.8120736891
 10
14.2106162037
 20
-34.6957207411
 10
14.3863143087
 20
-34.5674750354
 10
14.5478080506
 20
-34.4300519355
 10
14.6963497877
 20
-34.283667146
 10
14.8354063713
 20
-34.1250114591
 10
14.9651611012
 20
-33.9526768437
 10
15.0828392453
 20
-33.7690156897
 10
15.1867834351
 20
-33.5757592468
 10
15.2762700928
 20
-33.3735031457
 10
15.3502713703
 20
-33.1637138981
 10
15.4074986372
 20
-32.9498838105
 10
15.4477215617
 20
-32.7341524064
 10
15.4711893896
 20
-32.5170897781
 10
15.4780112546
 20
-32.3
  0
LINE
  5
513
100
AcDbEntity
  8
0
100
AcDbLine
 62
7
  6
CONTINUOUS
 10
3.25
 20
39.0
 11
-3.25
 21
39.0
  0
LWPOLYLINE
  5
514
100
AcDbEntity
  8
0
100
AcDbPolyline
 62
7
  6
CONTINUOUS
 90
16
 70
0
 10
13.8232498265
 20
34.9151668
 10
14.0226993513
 20
34.8120736891
 10
14.2106162037
 20
34.6957207411
 10
14.3863143087
 20
34.5674750354
 10
14.5478080506
 20
34.4300519355
 10
14.6963497877
 20
34.283667146
 10
14.8354063713
 20
34.1250114591
 10
14.9651611012
 20
33.9526768437
 10
15.0828392453
 20
33.7690156897
 10
15.1867834351
 20
33.5757592468
 10
15.2762700928
 20
33.3735031457
 10
15.3502713703
 20
33.1637138981
 10
15.4074986372
 20
32.9498838105
 10
15.4477215617
 20
32.7341524064
 10
15.4711893896
 20
32.5170897781
 10
15.4780112546
 20
32.3
  0
ARC
  5
515
100
AcDbEntity
  8
SUPERFICI
100
AcDbCircle
 62
7
  6
CONTINUOUS
 10
-12.3
 20
-32.3
 40
5.0
100
AcDbArc
 50
180.0
 51
270.0
  0
ARC
  5
516
100
AcDbEntity
  8
DRAFT
100
AcDbCircle
 62
7
  6
CONTINUOUS
 10
-2.5
 20
-32.5
 40
4.8
100
AcDbArc
 50
121.3322067072
 51
174.0208432037
  0
ARC
  5
517
100
AcDbEntity
  8
DRAFT
100
AcDbCircle
 62
7
  6
CONTINUOUS
 10
-2.5
 20
-32.5
 40
4.8
100
AcDbArc
 50
185.9791567963
 51
215.6853347127
  0
ARC
  5
518
100
AcDbEntity
  8
SUPERFICI
100
AcDbCircle
 62
7
  6
CONTINUOUS
 10
-12.6
 20
-32.3
 40
3.0
100
AcDbArc
 50
180.0
 51
270.0
  0
ARC
  5
519
100
AcDbEntity
  8
DRAFT
100
AcDbCircle
 62
7
  6
CONTINUOUS
 10
-2.5
 20
-32.5
 40
1.8139640519
100
AcDbArc
 50
90.0
 51
270.0
  0
ARC
  5
51A
100
AcDbEntity
  8
SUPERFICI
100
AcDbCircle
 62
7
  6
CONTINUOUS
 10
-12.3
 20
32.3
 40
5.0
100
AcDbArc
 50
90.0
 51
180.0
  0
ARC
  5
51B
100
AcDbEntity
  8
DRAFT
100
AcDbCircle
 62
7
  6
CONTINUOUS
 10
-2.5
 20
32.5
 40
4.8
100
AcDbArc
 50
144.3146652873
 51
174.0208432037
  0
ARC
  5
51C
100
AcDbEntity
  8
DRAFT
100
AcDbCircle
 62
7
  6
CONTINUOUS
 10
-2.5
 20
32.5
 40
4.8
100
AcDbArc
 50
185.9791567963
 51
238.6677932928
  0
ARC
  5
51D
100
AcDbEntity
  8
SUPERFICI
100
AcDbCircle
 62
7
  6
CONTINUOUS
 10
-12.6
 20
32.3
 40
3.0
100
AcDbArc
 50
90.0
 51
180.0
  0
ARC
  5
51E
100
AcDbEntity
  8
DRAFT
100
AcDbCircle
 62
7
  6
CONTINUOUS
 10
-2.5
 20
32.5
 40
1.8139640519
100
AcDbArc
 50
90.0
 51
270.0
  0
ARC
  5
51F
100
AcDbEntity
  8
DRAFT
100
AcDbCircle
 62
7
  6
CONTINUOUS
 10
2.5
 20
-32.5
 40
4.8
100
AcDbArc
 50
324.3146652873
 51
354.0208432037
  0
ARC
  5
520
100
AcDbEntity
  8
DRAFT
100
AcDbCircle
 62
7
  6
CONTINUOUS
 10
2.5
 20
-32.5
 40
4.8
100
AcDbArc
 50
5.9791567963
 51
58.6677932928
  0
ARC
  5
521
100
AcDbEntity
  8
RACCORDO
100
AcDbCircle
 62
7
  6
CONTINUOUS
 10
-0.0
 20
-32.5
 40
3.2043457495
100
AcDbArc
 50
152.0758600599
 51
207.9241399403
  0
ARC
  5
522
100
AcDbEntity
  8
RACCORDO
100
AcDbCircle
 62
7
  6
CONTINUOUS
 10
-0.0
 20
-32.5
 40
3.2043457495
100
AcDbArc
 50
332.0758600599
 51
27.9241399403
  0
ARC
  5
523
100
AcDbEntity
  8
RACCORDO
100
AcDbCircle
 62
253
  6
CONTINUOUS
 10
-0.0
 20
-32.5
 40
2.7043457236
100
AcDbArc
 50
326.3064823339
 51
33.6935163101
  0
ARC
  5
524
100
AcDbEntity
  8
RACCORDO
100
AcDbCircle
 62
253
  6
CONTINUOUS
 10
-0.0
 20
-32.5
 40
2.7043457236
100
AcDbArc
 50
146.3064823339
 51
213.6935163101
  0
ARC
  5
525
100
AcDbEntity
  8
DRAFT
100
AcDbCircle
 62
7
  6
CONTINUOUS
 10
2.5
 20
-32.5
 40
1.8139640519
100
AcDbArc
 50
270.0
 51
90.0
  0
ARC
  5
526
100
AcDbEntity
  8
0
100
AcDbCircle
 62
7
  6
CONTINUOUS
 10
-0.0
 20
-32.5
 40
1.8
100
AcDbArc
 50
303.5485652698
 51
56.4514347302
  0
ARC
  5
527
100
AcDbEntity
  8
0
100
AcDbCircle
 62
7
  6
CONTINUOUS
 10
-0.0
 20
-32.5
 40
1.8
100
AcDbArc
 50
123.5485652698
 51
236.4514347302
  0
ARC
  5
528
100
AcDbEntity
  8
0
100
AcDbCircle
 62
7
  6
CONTINUOUS
 10
-0.0
 20
-32.5
 40
1.25
100
AcDbArc
 50
19.8163015759
 51
93.17986402
  0
ARC
  5
529
100
AcDbEntity
  8
SUPERFICI
100
AcDbCircle
 62
7
  6
CONTINUOUS
 10
12.3
 20
-32.3
 40
5.0
100
AcDbArc
 50
270.0
 51
360.0
  0
ARC
  5
52A
100
AcDbEntity
  8
SUPERFICI
100
AcDbCircle
 62
7
  6
CONTINUOUS
 10
12.6
 20
-32.3
 40
3.0
100
AcDbArc
 50
270.0
 51
360.0
  0
ARC
  5
52B
100
AcDbEntity
  8
DRAFT
100
AcDbCircle
 62
7
  6
CONTINUOUS
 10
2.5
 20
32.5
 40
4.8
100
AcDbArc
 50
5.9791567963
 51
35.6853347127
  0
ARC
  5
52C
100
AcDbEntity
  8
DRAFT
100
AcDbCircle
 62
7
  6
CONTINUOUS
 10
2.5
 20
32.5
 40
4.8
100
AcDbArc
 50
301.3322067072
 51
354.0208432037
  0
ARC
  5
52D
100
AcDbEntity
  8
RACCORDO
100
AcDbCircle
 62
7
  6
CONTINUOUS
 10
0.0
 20
32.5
 40
3.2043457495
100
AcDbArc
 50
152.0758600599
 51
207.9241399403
  0
ARC
  5
52E
100
AcDbEntity
  8
RACCORDO
100
AcDbCircle
 62
7
  6
CONTINUOUS
 10
0.0
 20
32.5
 40
3.2043457495
100
AcDbArc
 50
332.0758600599
 51
27.9241399403
  0
ARC
  5
52F
100
AcDbEntity
  8
RACCORDO
100
AcDbCircle
 62
253
  6
CONTINUOUS
 10
0.0
 20
32.5
 40
2.7043457236
100
AcDbArc
 50
326.3064823339
 51
33.6935163101
  0
ARC
  5
530
100
AcDbEntity
  8
RACCORDO
100
AcDbCircle
 62
253
  6
CONTINUOUS
 10
0.0
 20
32.5
 40
2.7043457236
100
AcDbArc
 50
146.3064823339
 51
213.6935163101
  0
ARC
  5
531
100
AcDbEntity
  8
DRAFT
100
AcDbCircle
 62
7
  6
CONTINUOUS
 10
2.5
 20
32.5
 40
1.8139640519
100
AcDbArc
 50
270.0
 51
90.0
  0
ARC
  5
532
100
AcDbEntity
  8
0
100
AcDbCircle
 62
7
  6
CONTINUOUS
 10
0.0
 20
32.5
 40
1.8
100
AcDbArc
 50
303.5485652698
 51
56.4514347302
  0
ARC
  5
533
100
AcDbEntity
  8
0
100
AcDbCircle
 62
7
  6
CONTINUOUS
 10
0.0
 20
32.5
 40
1.8
100
AcDbArc
 50
123.5485652698
 51
236.4514347302
  0
ARC
  5
534
100
AcDbEntity
  8
0
100
AcDbCircle
 62
7
  6
CONTINUOUS
 10
0.0
 20
32.5
 40
1.25
100
AcDbArc
 50
19.8163015759
 51
93.17986402
  0
ARC
  5
535
100
AcDbEntity
  8
0
100
AcDbCircle
 62
7
  6
CONTINUOUS
 10
12.3
 20
32.3
 40
5.0
100
AcDbArc
 50
0.0
 51
90.0
  0
ARC
  5
536
100
AcDbEntity
  8
0
100
AcDbCircle
 62
7
  6
CONTINUOUS
 10
12.6
 20
32.3
 40
3.0
100
AcDbArc
 50
0.0
 51
90.0
  0
ELLIPSE
  5
537
100
AcDbEntity
  8
DRAFT
100
AcDbEllipse
 62
7
  6
CONTINUOUS
 10
-11.1146356366
 20
24.2665179519
 30
0.0
 11
0.0
 21
40.0
 31
0.0
 40
0.0174550649
 41
1.2941689667
 42
1.4683005603
  0
ELLIPSE
  5
538
100
AcDbEntity
  8
DRAFT
100
AcDbEllipse
 62
7
  6
CONTINUOUS
 10
11.1146356366
 20
24.2665179519
 30
0.0
 11
0.0
 21
40.0
 31
0.0
 40
0.0174550649
 41
-1.4683005603
 42
-1.2941689667
  0
ELLIPSE
  5
539
100
AcDbEntity
  8
RACCORDO
100
AcDbEllipse
 62
7
  6
CONTINUOUS
 10
-7.5853643634
 20
24.2665179519
 30
0.0
 11
0.0
 21
40.0
 31
0.0
 40
0.0174550649
 41
-1.5483908263
 42
-1.480835708
  0
ELLIPSE
  5
53A
100
AcDbEntity
  8
DRAFT
100
AcDbEllipse
 62
7
  6
CONTINUOUS
 10
-11.3853643634
 20
24.2665179519
 30
0.0
 11
0.0
 21
40.0
 31
0.0
 40
0.0174550649
 41
-1.4683005603
 42
-1.3775037808
  0
ELLIPSE
  5
53B
100
AcDbEntity
  8
DRAFT
100
AcDbEllipse
 62
7
  6
CONTINUOUS
 10
0.1353643634
 20
24.2665179519
 30
0.0
 11
0.0
 21
40.0
 31
0.0
 40
0.0174550649
 41
1.4687624968
 42
1.4808376165
  0
ELLIPSE
  5
53C
100
AcDbEntity
  8
DRAFT
100
AcDbEllipse
 62
7
  6
CONTINUOUS
 10
-6.1247922419
 20
24.2665179519
 30
0.0
 11
44.4342984675
 21
39.9966342372
 31
0.0
 40
0.011677753
 41
7.7769956066
 42
7.8445488163
  0
ELLIPSE
  5
53D
100
AcDbEntity
  8
RACCORDO
100
AcDbEllipse
 62
7
  6
CONTINUOUS
 10
7.5853643634
 20
24.2665179519
 30
0.0
 11
0.0
 21
40.0
 31
0.0
 40
0.0174550649
 41
1.480835708
 42
1.5483908263
  0
ELLIPSE
  5
53E
100
AcDbEntity
  8
DRAFT
100
AcDbEllipse
 62
7
  6
CONTINUOUS
 10
6.1247922419
 20
24.2665179519
 30
0.0
 11
44.4342984675
 21
-39.9966342372
 31
0.0
 40
0.011677753
 41
1.5802291444
 42
1.6477823542
  0
ELLIPSE
  5
53F
100
AcDbEntity
  8
DRAFT
100
AcDbEllipse
 62
7
  6
CONTINUOUS
 10
-0.1353643634
 20
24.2665179519
 30
0.0
 11
0.0
 21
40.0
 31
0.0
 40
0.0174550649
 41
-1.4808376165
 42
-1.4687624968
  0
ELLIPSE
  5
540
100
AcDbEntity
  8
DRAFT
100
AcDbEllipse
 62
7
  6
CONTINUOUS
 10
11.3853643634
 20
24.2665179519
 30
0.0
 11
0.0
 21
40.0
 31
0.0
 40
0.0174550649
 41
1.3775037808
 42
1.4683005603
  0
ELLIPSE
  5
541
100
AcDbEntity
  8
DRAFT
100
AcDbEllipse
 62
7
  6
CONTINUOUS
 10
12.4
 20
-23.5528713247
 30
0.0
 11
6.4
 21
-0.0
 31
0.0
 40
0.0174550649
 41
-1.2596730301
 42
-1.0746724419
  0
ELLIPSE
  5
542
100
AcDbEntity
  8
DRAFT
100
AcDbEllipse
 62
7
  6
CONTINUOUS
 10
12.4
 20
-11.9528713247
 30
0.0
 11
6.4
 21
-0.0
 31
0.0
 40
0.0174550649
 41
-1.2596730301
 42
-1.0746724419
  0
ELLIPSE
  5
543
100
AcDbEntity
  8
DRAFT
100
AcDbEllipse
 62
7
  6
CONTINUOUS
 10
12.4
 20
-22.6471286753
 30
0.0
 11
6.4
 21
-0.0
 31
0.0
 40
0.0174550649
 41
1.0746724419
 42
1.2596730301
  0
ELLIPSE
  5
544
100
AcDbEntity
  8
DRAFT
100
AcDbEllipse
 62
7
  6
CONTINUOUS
 10
12.4
 20
-0.4528713247
 30
0.0
 11
6.4
 21
-0.0
 31
0.0
 40
0.0174550649
 41
-1.2596730301
 42
-1.0746724419
  0
ELLIPSE
  5
545
100
AcDbEntity
  8
DRAFT
100
AcDbEllipse
 62
7
  6
CONTINUOUS
 10
12.4
 20
-11.0471286753
 30
0.0
 11
6.4
 21
-0.0
 31
0.0
 40
0.0174550649
 41
1.0746724419
 42
1.2596730301
  0
ELLIPSE
  5
546
100
AcDbEntity
  8
DRAFT
100
AcDbEllipse
 62
7
  6
CONTINUOUS
 10
12.4
 20
11.0471286753
 30
0.0
 11
6.4
 21
-0.0
 31
0.0
 40
0.0174550649
 41
-1.2596730301
 42
-1.0746724419
  0
ELLIPSE
  5
547
100
AcDbEntity
  8
DRAFT
100
AcDbEllipse
 62
7
  6
CONTINUOUS
 10
12.4
 20
0.4528713247
 30
0.0
 11
6.4
 21
-0.0
 31
0.0
 40
0.0174550649
 41
1.0746724419
 42
1.2596730301
  0
ELLIPSE
  5
548
100
AcDbEntity
  8
DRAFT
100
AcDbEllipse
 62
7
  6
CONTINUOUS
 10
12.4
 20
22.6471286753
 30
0.0
 11
6.4
 21
-0.0
 31
0.0
 40
0.0174550649
 41
-1.2596730301
 42
-1.0746724419
  0
ELLIPSE
  5
549
100
AcDbEntity
  8
DRAFT
100
AcDbEllipse
 62
7
  6
CONTINUOUS
 10
12.4
 20
11.9528713247
 30
0.0
 11
6.4
 21
-0.0
 31
0.0
 40
0.0174550649
 41
1.0746724419
 42
1.2596730301
  0
ELLIPSE
  5
54A
100
AcDbEntity
  8
DRAFT
100
AcDbEllipse
 62
7
  6
CONTINUOUS
 10
12.4
 20
23.5528713247
 30
0.0
 11
6.4
 21
-0.0
 31
0.0
 40
0.0174550649
 41
1.0746724419
 42
1.2596730301
  0
ELLIPSE
  5
54B
100
AcDbEntity
  8
RACCORDO
100
AcDbEllipse
 62
7
  6
CONTINUOUS
 10
-7.450076164
 20
27.799923836
 30
0.0
 11
0.3536610946
 21
0.3536610946
 31
0.0
 40
0.9996954599
 41
-0.7852458701
 42
0.7852458701
  0
ELLIPSE
  5
54C
100
AcDbEntity
  8
RACCORDO
100
AcDbEllipse
 62
7
  6
CONTINUOUS
 10
-13.799923836
 20
27.799923836
 30
0.0
 11
-0.3536610946
 21
0.3536610946
 31
0.0
 40
0.9996954599
 41
-0.7852458701
 42
0.7852458701
  0
ELLIPSE
  5
54D
100
AcDbEntity
  8
RACCORDO
100
AcDbEllipse
 62
7
  6
CONTINUOUS
 10
7.1158231168
 20
-24.4341007192
 30
0.0
 11
0.0
 21
0.5
 31
0.0
 40
0.0174550649
 41
-3.1241393611
 42
-1.5707963268
  0
ELLIPSE
  5
54E
100
AcDbEntity
  8
RACCORDO
100
AcDbEllipse
 62
7
  6
CONTINUOUS
 10
-7.1158231168
 20
-24.4341007192
 30
0.0
 11
0.0
 21
0.5
 31
0.0
 40
0.0174550649
 41
-4.7123889804
 42
-3.1590459461
  0
ELLIPSE
  5
54F
100
AcDbEntity
  8
RACCORDO
100
AcDbEllipse
 62
7
  6
CONTINUOUS
 10
-7.1158231168
 20
24.4341007192
 30
0.0
 11
0.0
 21
0.5
 31
0.0
 40
0.0174550649
 41
0.0174532925
 42
1.5707963268
  0
ELLIPSE
  5
550
100
AcDbEntity
  8
RACCORDO
100
AcDbEllipse
 62
7
  6
CONTINUOUS
 10
7.1158231168
 20
24.4341007192
 30
0.0
 11
0.0
 21
0.5
 31
0.0
 40
0.0174550649
 41
-1.5707963268
 42
-0.0174532925
  0
ELLIPSE
  5
551
100
AcDbEntity
  8
RACCORDO
100
AcDbEllipse
 62
7
  6
CONTINUOUS
 10
13.799923836
 20
26.599923836
 30
0.0
 11
0.3536610946
 21
0.3536610946
 31
0.0
 40
0.9996954599
 41
-0.7852458701
 42
0.7852458701
  0
ELLIPSE
  5
552
100
AcDbEntity
  8
RACCORDO
100
AcDbEllipse
 62
7
  6
CONTINUOUS
 10
7.450076164
 20
26.599923836
 30
0.0
 11
0.3536610946
 21
-0.3536610946
 31
0.0
 40
0.9996954599
 41
2.3563467834
 42
3.9268385237
  0
ELLIPSE
  5
553
100
AcDbEntity
  8
RACCORDO
100
AcDbEllipse
 62
7
  6
CONTINUOUS
 10
-7.450076164
 20
26.599923836
 30
0.0
 11
0.3536610946
 21
0.3536610946
 31
0.0
 40
0.9996954599
 41
-0.7852458701
 42
0.7852458701
  0
ELLIPSE
  5
554
100
AcDbEntity
  8
RACCORDO
100
AcDbEllipse
 62
7
  6
CONTINUOUS
 10
-13.799923836
 20
26.599923836
 30
0.0
 11
0.3536610946
 21
-0.3536610946
 31
0.0
 40
0.9996954599
 41
2.3563467834
 42
3.9268385237
  0
ELLIPSE
  5
555
100
AcDbEntity
  8
RACCORDO
100
AcDbEllipse
 62
7
  6
CONTINUOUS
 10
-13.799923836
 20
-26.599923836
 30
0.0
 11
0.3536610946
 21
0.3536610946
 31
0.0
 40
0.9996954599
 41
-3.9268385237
 42
-2.3563467834
  0
ELLIPSE
  5
556
100
AcDbEntity
  8
RACCORDO
100
AcDbEllipse
 62
7
  6
CONTINUOUS
 10
-7.450076164
 20
-26.599923836
 30
0.0
 11
0.3536610946
 21
-0.3536610946
 31
0.0
 40
0.9996954599
 41
-0.7852458701
 42
0.7852458701
  0
ELLIPSE
  5
557
100
AcDbEntity
  8
RACCORDO
100
AcDbEllipse
 62
7
  6
CONTINUOUS
 10
7.450076164
 20
-26.599923836
 30
0.0
 11
0.3536610946
 21
0.3536610946
 31
0.0
 40
0.9996954599
 41
-3.9268385237
 42
-2.3563467834
  0
ELLIPSE
  5
558
100
AcDbEntity
  8
RACCORDO
100
AcDbEllipse
 62
7
  6
CONTINUOUS
 10
13.799923836
 20
-26.599923836
 30
0.0
 11
0.3536610946
 21
-0.3536610946
 31
0.0
 40
0.9996954599
 41
-0.7852458701
 42
0.7852458701
  0
ELLIPSE
  5
559
100
AcDbEntity
  8
RACCORDO
100
AcDbEllipse
 62
7
  6
CONTINUOUS
 10
-13.799923836
 20
-27.799923836
 30
0.0
 11
-0.3536610946
 21
-0.3536610946
 31
0.0
 40
0.9996954599
 41
-0.7852458701
 42
0.7852458701
  0
ELLIPSE
  5
55A
100
AcDbEntity
  8
RACCORDO
100
AcDbEllipse
 62
7
  6
CONTINUOUS
 10
-7.450076164
 20
-27.799923836
 30
0.0
 11
0.3536610946
 21
-0.3536610946
 31
0.0
 40
0.9996954599
 41
-0.7852458701
 42
0.7852458701
  0
ELLIPSE
  5
55B
100
AcDbEntity
  8
RACCORDO
100
AcDbEllipse
 62
7
  6
CONTINUOUS
 10
7.450076164
 20
-27.799923836
 30
0.0
 11
-0.3536610946
 21
-0.3536610946
 31
0.0
 40
0.9996954599
 41
-0.7852458701
 42
0.7852458701
  0
ELLIPSE
  5
55C
100
AcDbEntity
  8
RACCORDO
100
AcDbEllipse
 62
7
  6
CONTINUOUS
 10
13.799923836
 20
-27.799923836
 30
0.0
 11
0.3536610946
 21
-0.3536610946
 31
0.0
 40
0.9996954599
 41
-0.7852458701
 42
0.7852458701
  0
ELLIPSE
  5
55D
100
AcDbEntity
  8
RACCORDO
100
AcDbEllipse
 62
7
  6
CONTINUOUS
 10
13.799923836
 20
27.799923836
 30
0.0
 11
0.3536610946
 21
0.3536610946
 31
0.0
 40
0.9996954599
 41
-0.7852458701
 42
0.7852458701
  0
ELLIPSE
  5
55E
100
AcDbEntity
  8
RACCORDO
100
AcDbEllipse
 62
7
  6
CONTINUOUS
 10
-7.6246268133
 20
26.4253731867
 30
0.0
 11
0.3536610946
 21
0.3536610946
 31
0.0
 40
0.9996954599
 41
-0.7852458701
 42
0.7852458701
  0
ELLIPSE
  5
55F
100
AcDbEntity
  8
RACCORDO
100
AcDbEllipse
 62
7
  6
CONTINUOUS
 10
-13.6253731867
 20
26.4253731867
 30
0.0
 11
0.3536610946
 21
-0.3536610946
 31
0.0
 40
0.9996954599
 41
2.3563467834
 42
3.9268385237
  0
ELLIPSE
  5
560
100
AcDbEntity
  8
RACCORDO
100
AcDbEllipse
 62
7
  6
CONTINUOUS
 10
-13.6253731867
 20
-26.4253731867
 30
0.0
 11
-0.3536610946
 21
-0.3536610946
 31
0.0
 40
0.9996954599
 41
-0.7852458701
 42
0.7852458701
  0
ELLIPSE
  5
561
100
AcDbEntity
  8
RACCORDO
100
AcDbEllipse
 62
7
  6
CONTINUOUS
 10
-7.6246268133
 20
-26.4253731867
 30
0.0
 11
-0.3536610946
 21
0.3536610946
 31
0.0
 40
0.9996954599
 41
2.3563467834
 42
3.9268385237
  0
ELLIPSE
  5
562
100
AcDbEntity
  8
RACCORDO
100
AcDbEllipse
 62
7
  6
CONTINUOUS
 10
7.6246268133
 20
-26.4253731867
 30
0.0
 11
-0.3536610946
 21
-0.3536610946
 31
0.0
 40
0.9996954599
 41
-0.7852458701
 42
0.7852458701
  0
ELLIPSE
  5
563
100
AcDbEntity
  8
RACCORDO
100
AcDbEllipse
 62
7
  6
CONTINUOUS
 10
13.6253731867
 20
-26.4253731867
 30
0.0
 11
-0.3536610946
 21
0.3536610946
 31
0.0
 40
0.9996954599
 41
2.3563467834
 42
3.9268385237
  0
ELLIPSE
  5
564
100
AcDbEntity
  8
RACCORDO
100
AcDbEllipse
 62
7
  6
CONTINUOUS
 10
13.6253731867
 20
26.4253731867
 30
0.0
 11
0.3536610946
 21
0.3536610946
 31
0.0
 40
0.9996954599
 41
-0.7852458701
 42
0.7852458701
  0
ELLIPSE
  5
565
100
AcDbEntity
  8
RACCORDO
100
AcDbEllipse
 62
7
  6
CONTINUOUS
 10
7.6246268133
 20
26.4253731867
 30
0.0
 11
0.3536610946
 21
-0.3536610946
 31
0.0
 40
0.9996954599
 41
2.3563467834
 42
3.9268385237
  0
ELLIPSE
  5
566
100
AcDbEntity
  8
RACCORDO
100
AcDbEllipse
 62
7
  6
CONTINUOUS
 10
7.450076164
 20
27.799923836
 30
0.0
 11
-0.3536610946
 21
0.3536610946
 31
0.0
 40
0.9996954599
 41
-0.7852458701
 42
0.7852458701
  0
ELLIPSE
  5
567
100
AcDbEntity
  8
DRAFT
100
AcDbEllipse
 62
7
  6
CONTINUOUS
 10
-12.4
 20
23.5528713247
 30
0.0
 11
6.4
 21
-0.0
 31
0.0
 40
0.0174550649
 41
1.8819196235
 42
2.0669202117
  0
ELLIPSE
  5
568
100
AcDbEntity
  8
DRAFT
100
AcDbEllipse
 62
7
  6
CONTINUOUS
 10
-12.4
 20
11.9528713247
 30
0.0
 11
6.4
 21
-0.0
 31
0.0
 40
0.0174550649
 41
1.8819196235
 42
2.0669202117
  0
ELLIPSE
  5
569
100
AcDbEntity
  8
DRAFT
100
AcDbEllipse
 62
7
  6
CONTINUOUS
 10
-12.4
 20
22.6471286753
 30
0.0
 11
6.4
 21
-0.0
 31
0.0
 40
0.0174550649
 41
-2.0669202117
 42
-1.8819196235
  0
ELLIPSE
  5
56A
100
AcDbEntity
  8
DRAFT
100
AcDbEllipse
 62
7
  6
CONTINUOUS
 10
-12.4
 20
0.4528713247
 30
0.0
 11
6.4
 21
-0.0
 31
0.0
 40
0.0174550649
 41
1.8819196235
 42
2.0669202117
  0
ELLIPSE
  5
56B
100
AcDbEntity
  8
DRAFT
100
AcDbEllipse
 62
7
  6
CONTINUOUS
 10
-12.4
 20
11.0471286753
 30
0.0
 11
6.4
 21
-0.0
 31
0.0
 40
0.0174550649
 41
-2.0669202117
 42
-1.8819196235
  0
ELLIPSE
  5
56C
100
AcDbEntity
  8
DRAFT
100
AcDbEllipse
 62
7
  6
CONTINUOUS
 10
-12.4
 20
-11.0471286753
 30
0.0
 11
6.4
 21
-0.0
 31
0.0
 40
0.0174550649
 41
1.8819196235
 42
2.0669202117
  0
ELLIPSE
  5
56D
100
AcDbEntity
  8
DRAFT
100
AcDbEllipse
 62
7
  6
CONTINUOUS
 10
-12.4
 20
-0.4528713247
 30
0.0
 11
6.4
 21
-0.0
 31
0.0
 40
0.0174550649
 41
-2.0669202117
 42
-1.8819196235
  0
ELLIPSE
  5
56E
100
AcDbEntity
  8
DRAFT
100
AcDbEllipse
 62
7
  6
CONTINUOUS
 10
-12.4
 20
-22.6471286753
 30
0.0
 11
6.4
 21
-0.0
 31
0.0
 40
0.0174550649
 41
1.8819196235
 42
2.0669202117
  0
ELLIPSE
  5
56F
100
AcDbEntity
  8
DRAFT
100
AcDbEllipse
 62
7
  6
CONTINUOUS
 10
-12.4
 20
-11.9528713247
 30
0.0
 11
6.4
 21
-0.0
 31
0.0
 40
0.0174550649
 41
-2.0669202117
 42
-1.8819196235
  0
ELLIPSE
  5
570
100
AcDbEntity
  8
DRAFT
100
AcDbEllipse
 62
7
  6
CONTINUOUS
 10
-12.4
 20
-23.5528713247
 30
0.0
 11
6.4
 21
-0.0
 31
0.0
 40
0.0174550649
 41
-2.0669202117
 42
-1.8819196235
  0
ELLIPSE
  5
571
100
AcDbEntity
  8
DRAFT
100
AcDbEllipse
 62
7
  6
CONTINUOUS
 10
-11.3853643634
 20
24.2665179519
 30
0.0
 11
0.0
 21
40.0
 31
0.0
 40
0.0174550649
 41
-1.3495124338
 42
-1.2941689667
  0
ELLIPSE
  5
572
100
AcDbEntity
  8
DRAFT
100
AcDbEllipse
 62
7
  6
CONTINUOUS
 10
11.3853643634
 20
24.2665179519
 30
0.0
 11
0.0
 21
40.0
 31
0.0
 40
0.0174550649
 41
1.2941689667
 42
1.3495124338
  0
ELLIPSE
  5
573
100
AcDbEntity
  8
DRAFT
100
AcDbEllipse
 62
7
  6
CONTINUOUS
 10
-2.5
 20
-30.3524672434
 30
0.0
 11
0.0
 21
6.4478375287
 31
0.0
 40
0.942904759
 41
-3.8636973163
 42
-3.837742892
  0
ELLIPSE
  5
574
100
AcDbEntity
  8
DRAFT
100
AcDbEllipse
 62
7
  6
CONTINUOUS
 10
2.5
 20
-30.3524672434
 30
0.0
 11
0.0
 21
6.4478375287
 31
0.0
 40
0.942904759
 41
-2.4454424152
 42
-2.4194879909
  0
ELLIPSE
  5
575
100
AcDbEntity
  8
DRAFT
100
AcDbEllipse
 62
7
  6
CONTINUOUS
 10
-11.3853643634
 20
-24.2665179519
 30
0.0
 11
0.0
 21
40.0
 31
0.0
 40
0.0174550649
 41
-1.7640888728
 42
-1.6732920933
  0
ELLIPSE
  5
576
100
AcDbEntity
  8
DRAFT
100
AcDbEllipse
 62
7
  6
CONTINUOUS
 10
0.1353643634
 20
-24.2665179519
 30
0.0
 11
0.0
 21
40.0
 31
0.0
 40
0.0174550649
 41
-4.6224302701
 42
-4.6103551504
  0
ELLIPSE
  5
577
100
AcDbEntity
  8
DRAFT
100
AcDbEllipse
 62
7
  6
CONTINUOUS
 10
-6.1247922419
 20
-24.2665179519
 30
0.0
 11
44.4342984675
 21
-39.9966342372
 31
0.0
 40
0.011677753
 41
-1.5613635092
 42
-1.4938102994
  0
ELLIPSE
  5
578
100
AcDbEntity
  8
RACCORDO
100
AcDbEllipse
 62
7
  6
CONTINUOUS
 10
-7.5853643634
 20
-24.2665179519
 30
0.0
 11
0.0
 21
40.0
 31
0.0
 40
0.0174550649
 41
-1.6607569456
 42
-1.5932018273
  0
ELLIPSE
  5
579
100
AcDbEntity
  8
DRAFT
100
AcDbEllipse
 62
7
  6
CONTINUOUS
 10
6.1247922419
 20
-24.2665179519
 30
0.0
 11
44.4342984675
 21
39.9966342372
 31
0.0
 40
0.011677753
 41
4.635402953
 42
4.7029561627
  0
ELLIPSE
  5
57A
100
AcDbEntity
  8
DRAFT
100
AcDbEllipse
 62
7
  6
CONTINUOUS
 10
-0.1353643634
 20
-24.2665179519
 30
0.0
 11
0.0
 21
40.0
 31
0.0
 40
0.0174550649
 41
-1.6728301567
 42
-1.6607550371
  0
ELLIPSE
  5
57B
100
AcDbEntity
  8
DRAFT
100
AcDbEllipse
 62
7
  6
CONTINUOUS
 10
11.3853643634
 20
-24.2665179519
 30
0.0
 11
0.0
 21
40.0
 31
0.0
 40
0.0174550649
 41
-4.6098932139
 42
-4.5190964344
  0
ELLIPSE
  5
57C
100
AcDbEntity
  8
RACCORDO
100
AcDbEllipse
 62
7
  6
CONTINUOUS
 10
7.5853643634
 20
-24.2665179519
 30
0.0
 11
0.0
 21
40.0
 31
0.0
 40
0.0174550649
 41
-4.6899834799
 42
-4.6224283616
  0
ELLIPSE
  5
57D
100
AcDbEntity
  8
DRAFT
100
AcDbEllipse
 62
7
  6
CONTINUOUS
 10
-11.1146356366
 20
-24.2665179519
 30
0.0
 11
0.0
 21
40.0
 31
0.0
 40
0.0174550649
 41
-4.6098932139
 42
-4.4357616203
  0
ELLIPSE
  5
57E
100
AcDbEntity
  8
DRAFT
100
AcDbEllipse
 62
7
  6
CONTINUOUS
 10
11.1146356366
 20
-24.2665179519
 30
0.0
 11
0.0
 21
40.0
 31
0.0
 40
0.0174550649
 41
-1.8474236869
 42
-1.6732920933
  0
ELLIPSE
  5
57F
100
AcDbEntity
  8
DRAFT
100
AcDbEllipse
 62
7
  6
CONTINUOUS
 10
-11.3853643634
 20
-24.2665179519
 30
0.0
 11
0.0
 21
40.0
 31
0.0
 40
0.0174550649
 41
-1.8474236869
 42
-1.7920802198
  0
ELLIPSE
  5
580
100
AcDbEntity
  8
DRAFT
100
AcDbEllipse
 62
7
  6
CONTINUOUS
 10
11.3853643634
 20
-24.2665179519
 30
0.0
 11
0.0
 21
40.0
 31
0.0
 40
0.0174550649
 41
-4.4911050874
 42
-4.4357616203
  0
ENDSEC
  0
SECTION
  2
OBJECTS
  0
DICTIONARY
  5
C
100
AcDbDictionary
280
0
281
1
  3
ACAD_GROUP
350
D
  3
ACAD_MLINESTYLE
350
17
  3
ACAD_LAYOUT
350
1A
  3
ACAD_PLOTSETTINGS
350
19
  3
ACAD_PLOTSTYLENAME
350
E
  0
DICTIONARY
  5
D
102
{ACAD_REACTORS
330
C
102
}
100
AcDbDictionary
280
0
281
1
  0
ACDBDICTIONARYWDFLT
  5
E
102
{ACAD_REACTORS
330
C
102
}
100
AcDbDictionary
281
1
  3
Normal
350
F
100
AcDbDictionaryWithDefault
340
F
  0
DICTIONARY
  5
17
102
{ACAD_REACTORS
330
C
102
}
100
AcDbDictionary
280
0
281
1
  3
Standard
350
18
  0
DICTIONARY
  5
19
102
{ACAD_REACTORS
330
C
102
}
100
AcDbDictionary
281
1
  0
DICTIONARY
  5
1A
102
{ACAD_REACTORS
330
C
102
}
100
AcDbDictionary
281
1
  3
Model
350
581
  3
Layout1
350
582
  0
ACDBPLACEHOLDER
  5
F
102
{ACAD_REACTORS
330
E
102
}
  0
MLINESTYLE
  5
18
102
{ACAD_REACTORS
330
17
102
}
100
AcDbMlineStyle
  2
STANDARD
 70
0
  3

 62
256
 51
90.0
 52
90.0
 71
2
 49
0.5
 62
256
  6
BYLAYER
 49
-0.5
 62
256
  6
BYLAYER
  0
LAYOUT
  5
581
102
{ACAD_REACTORS
330
1A
102
}
100
AcDbPlotSettings
  1

  2
none_device
  4
ANSI_C_(22.00_x_17.00_Inches)
  6

 40
0.0
 41
0.0
 42
0.0
 43
0.0
 44
558.8
 45
431.8
 46
0.0
 47
0.0
 48
0.0
 49
0.0
140
0.0
141
0.0
142
1.0
143
1.0
 70
1024
 72
1
 73
0
 74
0
  7

 75
0
147
1.0
148
0.0
149
0.0
100
AcDbLayout
  1
Model
 70
0
 71
0
 10
0.0
 20
0.0
 11
558.8
 21
431.8
 12
0.0
 22
0.0
 32
0.0
 14
0.0
 24
0.0
 34
0.0
 15
0.0
 25
0.0
 35
0.0
146
0.0
 13
0.0
 23
0.0
 33
0.0
 16
1.0
 26
0.0
 36
0.0
 17
0.0
 27
1.0
 37
0.0
 76
0
330
211
345
0
346
0
  0
LAYOUT
  5
582
102
{ACAD_REACTORS
330
1A
102
}
100
AcDbPlotSettings
  1

  2
none_device
  4
ANSI_C_(22.00_x_17.00_Inches)
  6

 40
0.0
 41
0.0
 42
0.0
 43
0.0
 44
558.8
 45
431.8
 46
0.0
 47
0.0
 48
0.0
 49
0.0
140
0.0
141
0.0
142
1.0
143
1.0
 70
0
 72
1
 73
0
 74
0
  7

 75
0
147
1.0
148
0.0
149
0.0
100
AcDbLayout
  1
Layout1
 70
0
 71
1
 10
0.0
 20
0.0
 11
558.8
 21
431.8
 12
0.0
 22
0.0
 32
0.0
 14
0.0
 24
0.0
 34
0.0
 15
0.0
 25
0.0
 35
0.0
146
0.0
 13
0.0
 23
0.0
 33
0.0
 16
1.0
 26
0.0
 36
0.0
 17
0.0
 27
1.0
 37
0.0
 76
0
330
212
345
0
346
0
  0
ENDSEC
  0
EOF
