  0
SECTION
  2
HEADER
  9
$ACADVER
  1
AC1024
  9
$DWGCODEPAGE
  3
ANSI_1252
  9
$EXTMAX
 10
297.0
 20
210.0
 30
0.0
  9
$EXTMIN
 10
0.0
 20
0.0
 30
0.0
  9
$LIMMIN
 10
0.0
 20
0.0
  9
$LIMMAX
 10
297.0
 20
210.0
  9
$VIEWCTR
 10
148.5
 20
105.0
  9
$VIEWSIZE
 40
210.0
  9
$CLAYER
  8
0
  9
$LTSCALE
 40
16.335
  9
$CELTYPE
  6
BYLAYER
  9
$DIMSCALE
 40
1.0
  9
$DIMASZ
 40
3.0
  9
$DIMEXO
 40
0.5
  9
$DIMDLI
 40
11.286
  9
$DIMEXE
 40
1.5
  9
$DIMCEN
 40
2.673
  9
$DIMLFAC
 40
1.0
  9
$DIMBLK
  1
_FILLED
  9
$DIMALT
 70
0
  9
$DIMALTF
 40
0.0393700787
  9
$DIMTXT
 40
3.0
  9
$DIMTOL
 70
1
  9
$DIMLIM
 70
0
  9
$DIMTFAC
 40
1.0
  9
$DIMTP
 40
0.01
  9
$DIMTM
 40
0.01
  9
$DIMGAP
 40
0.625
  9
$DIMDSEP
 70
44
  9
$AUNITS
 70
0
  9
$PDMODE
 70
3
  9
$PDSIZE
 40
3.0
  9
$HANDSEED
  5
73A
  9
$TILEMODE
 70
1
  9
$MEASUREMENT
 70
1
  9
$INSUNITS
 70
4
  0
ENDSEC
  0
SECTION
  2
CLASSES
  0
CLASS
  1
ACDBDICTIONARYWDFLT
  2
AcDbDictionaryWithDefault
  3
AutoCAD 2000
 90
0
 91
1
280
0
281
0
  0
CLASS
  1
ACDBPLACEHOLDER
  2
AcDbPlaceHolder
  3
AutoCAD 2000
 90
0
 91
1
280
0
281
0
  0
CLASS
  1
LAYOUT
  2
AcDbLayout
  3
AutoCAD 2000
 90
0
 91
0
280
0
281
0
  0
ENDSEC
  0
SECTION
  2
TABLES
  0
TABLE
  2
VPORT
  5
8
100
AcDbSymbolTable
 70
2
  0
VPORT
  5
1F4
100
AcDbSymbolTableRecord
100
AcDbViewportTableRecord
  2
*ACTIVE
 70
0
 10
0.0
 20
0.0
 11
1.0
 21
1.0
 12
148.5
 22
105.0
 13
0.0
 23
0.0
 14
1.0
 24
1.0
 15
0.0
 25
0.0
 16
0.0
 26
0.0
 36
1.0
 17
0.0
 27
0.0
 37
0.0
 40
210.0
 41
1.4142857143
 42
50.0
 43
0.0
 44
0.0
 50
0.0
 51
0.0
 71
0
 72
100
 73
1
 74
1
 75
0
 76
0
 77
0
 78
0
  0
ENDTAB
  0
TABLE
  2
LTYPE
  5
5
100
AcDbSymbolTable
 70
6
  0
LTYPE
  5
14
100
AcDbSymbolTableRecord
100
AcDbLinetypeTableRecord
  2
BYBLOCK
 70
0
  3

 72
65
 73
0
 40
0.0
  0
LTYPE
  5
15
100
AcDbSymbolTableRecord
100
AcDbLinetypeTableRecord
  2
BYLAYER
 70
0
  3

 72
65
 73
0
 40
0.0
  0
LTYPE
  5
16
100
AcDbSymbolTableRecord
100
AcDbLinetypeTableRecord
  2
CONTINUOUS
 70
64
  3
Solid line
 72
65
 73
0
 40
0.0
  0
LTYPE
  5
1F5
100
AcDbSymbolTableRecord
100
AcDbLinetypeTableRecord
  2
CENTER
 70
64
  3
____ _ ____ _ ____ _ ____ _ ____ _ ____ _ ____
 72
65
 73
4
 40
0.6
 49
0.375
 74
0
 49
-0.075
 74
0
 49
0.075
 74
0
 49
-0.075
 74
0
  0
LTYPE
  5
1F6
100
AcDbSymbolTableRecord
100
AcDbLinetypeTableRecord
  2
HIDDEN
 70
64
  3
- - - - - - - - - - - - - - - - - - - -
 72
65
 73
2
 40
0.2
 49
0.1
 74
0
 49
-0.1
 74
0
  0
LTYPE
  5
1F7
100
AcDbSymbolTableRecord
100
AcDbLinetypeTableRecord
  2
PHANTOM
 70
64
  3
_____ _ _ _____ _ _ _____ _ _ _____
 72
65
 73
6
 40
0.8
 49
0.45
 74
0
 49
-0.05
 74
0
 49
0.1
 74
0
 49
-0.05
 74
0
 49
0.1
 74
0
 49
-0.05
 74
0
  0
LTYPE
  5
1F8
100
AcDbSymbolTableRecord
100
AcDbLinetypeTableRecord
  2
DOT
 70
64
  3
. . . . . . . . . . . . . . . . . . . .
 72
65
 73
2
 40
0.2
 49
0.1
 74
0
 49
-0.1
 74
0
  0
LTYPE
  5
1F9
100
AcDbSymbolTableRecord
100
AcDbLinetypeTableRecord
  2
DASHED
 70
64
  3
- - - - - - - - - - - - - - - - - - - -
 72
65
 73
2
 40
0.2
 49
0.1
 74
0
 49
-0.1
 74
0
  0
ENDTAB
  0
TABLE
  2
LAYER
  5
2
100
AcDbSymbolTable
 70
36
  0
LAYER
  5
10
100
AcDbSymbolTableRecord
100
AcDbLayerTableRecord
  2
0
 70
0
 62
7
  6
CONTINUOUS
370
-3
390
F
  0
LAYER
  5
1FA
100
AcDbSymbolTableRecord
100
AcDbLayerTableRecord
  2
DEFAULT_1
 70
0
 62
7
  6
CENTER
370
-3
390
F
  0
LAYER
  5
1FB
100
AcDbSymbolTableRecord
100
AcDbLayerTableRecord
  2
DEFAULT_2
 70
0
 62
7
  6
HIDDEN
370
-3
390
F
  0
LAYER
  5
1FC
100
AcDbSymbolTableRecord
100
AcDbLayerTableRecord
  2
DEFAULT_3
 70
0
 62
7
  6
PHANTOM
370
-3
390
F
  0
LAYER
  5
1FD
100
AcDbSymbolTableRecord
100
AcDbLayerTableRecord
  2
ASSI
 70
0
 62
7
  6
CONTINUOUS
370
-3
390
F
  0
LAYER
  5
1FE
100
AcDbSymbolTableRecord
100
AcDbLayerTableRecord
  2
COLOR5
 70
0
 62
7
  6
CONTINUOUS
370
-3
390
F
  0
LAYER
  5
1FF
100
AcDbSymbolTableRecord
100
AcDbLayerTableRecord
  2
COORDINATE
 70
0
 62
7
  6
CONTINUOUS
370
-3
390
F
  0
LAYER
  5
200
100
AcDbSymbolTableRecord
100
AcDbLayerTableRecord
  2
COORD_ORIGINE
 70
0
 62
7
  6
CONTINUOUS
370
-3
390
F
  0
LAYER
  5
201
100
AcDbSymbolTableRecord
100
AcDbLayerTableRecord
  2
COPY_PUBLISH
 70
0
 62
7
  6
CONTINUOUS
370
-3
390
F
  0
LAYER
  5
202
100
AcDbSymbolTableRecord
100
AcDbLayerTableRecord
  2
COSMETIC
 70
0
 62
7
  6
CONTINUOUS
370
-3
390
F
  0
LAYER
  5
203
100
AcDbSymbolTableRecord
100
AcDbLayerTableRecord
  2
CURVE
 70
0
 62
7
  6
CONTINUOUS
370
-3
390
F
  0
LAYER
  5
204
100
AcDbSymbolTableRecord
100
AcDbLayerTableRecord
  2
DRAFT
 70
0
 62
7
  6
CONTINUOUS
370
-3
390
F
  0
LAYER
  5
205
100
AcDbSymbolTableRecord
100
AcDbLayerTableRecord
  2
IMPORT_IGES
 70
0
 62
7
  6
CONTINUOUS
370
-3
390
F
  0
LAYER
  5
206
100
AcDbSymbolTableRecord
100
AcDbLayerTableRecord
  2
NOTE
 70
0
 62
7
  6
CONTINUOUS
370
-3
390
F
  0
LAYER
  5
207
100
AcDbSymbolTableRecord
100
AcDbLayerTableRecord
  2
PIANI
 70
0
 62
7
  6
CONTINUOUS
370
-3
390
F
  0
LAYER
  5
208
100
AcDbSymbolTableRecord
100
AcDbLayerTableRecord
  2
PIANI_ORIGINE
 70
0
 62
7
  6
CONTINUOUS
370
-3
390
F
  0
LAYER
  5
209
100
AcDbSymbolTableRecord
100
AcDbLayerTableRecord
  2
PUNTI
 70
0
 62
7
  6
CONTINUOUS
370
-3
390
F
  0
LAYER
  5
20A
100
AcDbSymbolTableRecord
100
AcDbLayerTableRecord
  2
RACCORDO
 70
0
 62
7
  6
CONTINUOUS
370
-3
390
F
  0
LAYER
  5
20B
100
AcDbSymbolTableRecord
100
AcDbLayerTableRecord
  2
SMUSSO
 70
0
 62
7
  6
CONTINUOUS
370
-3
390
F
  0
LAYER
  5
20C
100
AcDbSymbolTableRecord
100
AcDbLayerTableRecord
  2
SNAPLINE
 70
0
 62
7
  6
CONTINUOUS
370
-3
390
F
  0
LAYER
  5
20D
100
AcDbSymbolTableRecord
100
AcDbLayerTableRecord
  2
SUPERFICI
 70
0
 62
7
  6
CONTINUOUS
370
-3
390
F
  0
LAYER
  5
20E
100
AcDbSymbolTableRecord
100
AcDbLayerTableRecord
  2
TRASH
 70
0
 62
7
  6
CONTINUOUS
370
-3
390
F
  0
LAYER
  5
20F
100
AcDbSymbolTableRecord
100
AcDbLayerTableRecord
  2
XSEC_DATUMS
 70
0
 62
7
  6
CONTINUOUS
370
-3
390
F
  0
ENDTAB
  0
TABLE
  2
STYLE
  5
3
100
AcDbSymbolTable
 70
1
  0
STYLE
  5
11
100
AcDbSymbolTableRecord
100
AcDbTextStyleTableRecord
  2
STANDARD
 70
0
 40
0.0
 41
0.8
 50
0.0
 71
0
 42
0.2
  3
txt
  4

  0
STYLE
  5
210
100
AcDbSymbolTableRecord
100
AcDbTextStyleTableRecord
  2
TEXTSTYLE_1
 70
0
 40
0.0
 41
0.8
 50
0.0
 71
0
 42
0.2
  3
gdt
  4

  0
ENDTAB
  0
TABLE
  2
VIEW
  5
6
100
AcDbSymbolTable
 70
0
  0
ENDTAB
  0
TABLE
  2
UCS
  5
7
100
AcDbSymbolTable
 70
0
  0
ENDTAB
  0
TABLE
  2
APPID
  5
9
100
AcDbSymbolTable
 70
1
  0
APPID
  5
211
100
AcDbSymbolTableRecord
100
AcDbRegAppTableRecord
  2
ACAD
 70
0
  0
ENDTAB
  0
TABLE
  2
BLOCK_RECORD
  5
1
100
AcDbSymbolTable
 70
0
  0
BLOCK_RECORD
  5
212
100
AcDbSymbolTableRecord
100
AcDbBlockTableRecord
  2
*Model_Space
  0
BLOCK_RECORD
  5
213
100
AcDbSymbolTableRecord
100
AcDbBlockTableRecord
  2
*Paper_Space
  0
BLOCK_RECORD
  5
214
100
AcDbSymbolTableRecord
100
AcDbBlockTableRecord
  2
_FILLED
  0
ENDTAB
  0
TABLE
  2
DIMSTYLE
  5
A
100
AcDbSymbolTable
 70
1
100
AcDbDimStyleTable
 71
0
  0
DIMSTYLE
105
215
100
AcDbSymbolTableRecord
100
AcDbDimStyleTableRecord
  2
STANDARD
 70
0
  3

  4

 40
1.0
 41
3.0
 42
0.5
 43
0.38
 44
1.5
 45
0.0
 46
0.0
 47
0.01
 48
0.01
140
3.0
141
0.09
142
0.0
143
25.4
144
1.0
145
0.0
146
1.0
147
0.625
 71
1.0
 72
0.0
 73
0
 74
0
 75
0
 76
0
 77
1
 78
8
 79
2
170
0
171
1
172
0
173
0
174
0
175
0
176
0
177
0
178
0
270
2
179
2
271
2
272
2
273
2
274
2
275
0
280
0
281
0
282
0
283
1
284
8
285
0
286
0
287
3
288
0
340
11
278
44
341
214
342
214
343
214
344
214
  0
ENDTAB
  0
ENDSEC
  0
SECTION
  2
BLOCKS
  0
BLOCK
  5
20
100
AcDbEntity
  8
0
100
AcDbBlockBegin
  2
*Model_Space
 70
0
 10
0.0
 20
0.0
 30
0.0
  3
*Model_Space
  1

  0
ENDBLK
  5
21
100
AcDbEntity
  8
0
100
AcDbBlockEnd
  0
BLOCK
  5
1C
100
AcDbEntity
  8
0
100
AcDbBlockBegin
  2
*Paper_Space
 70
0
 10
0.0
 20
0.0
 30
0.0
  3
*Paper_Space
  1

  0
ENDBLK
  5
1D
100
AcDbEntity
  8
0
100
AcDbBlockEnd
  0
BLOCK
  5
216
100
AcDbEntity
  8
0
100
AcDbBlockBegin
  2
_FILLED
 70
64
 10
0.0
 20
0.0
  3
_FILLED
  1

  0
SOLID
  5
217
100
AcDbEntity
  8
0
  6
BYBLOCK
 62
0
100
AcDbTrace
 10
0.0
 20
0.0
 11
-1.0
 21
0.3166666667
 12
-1.0
 22
-0.3166666667
 13
-1.0
 23
-0.3166666667
  0
ENDBLK
  5
218
100
AcDbEntity
  8
0
  6
BYBLOCK
 62
0
100
AcDbBlockEnd
  0
ENDSEC
  0
SECTION
  2
ENTITIES
  0
LWPOLYLINE
  5
219
100
AcDbEntity
  8
SUPERFICI
100
AcDbPolyline
 62
7
  6
CONTINUOUS
 90
7
 70
0
 10
22.3278321976
 20
-105.118912948
 10
22.4743654636
 20
-105.0958874801
 10
22.6199041852
 20
-105.0652929502
 10
22.7640516241
 20
-105.0271503438
 10
22.9064094937
 20
-104.9815016536
 10
23.0465790693
 20
-104.9284101551
 10
23.1841623262
 20
-104.8679606236
  0
LINE
  5
21A
100
AcDbEntity
  8
0
100
AcDbLine
 62
7
  6
CONTINUOUS
 10
6.1109124997
 20
-108.9527938236
 11
12.6109124997
 21
-108.9527938236
  0
LINE
  5
21B
100
AcDbEntity
  8
0
100
AcDbLine
 62
7
  6
CONTINUOUS
 10
21.6609124997
 20
-107.2527938236
 11
12.6109124997
 21
-107.2527938236
  0
LINE
  5
21C
100
AcDbEntity
  8
0
100
AcDbLine
 62
7
  6
CONTINUOUS
 10
6.1109124997
 20
-107.2527938236
 11
-2.9390875003
 21
-107.2527938236
  0
LWPOLYLINE
  5
21D
100
AcDbEntity
  8
0
100
AcDbPolyline
 62
7
  6
CONTINUOUS
 90
7
 70
0
 10
-3.6060071982
 20
-105.118912948
 10
-3.7525404643
 20
-105.0958874801
 10
-3.8980791859
 20
-105.0652929502
 10
-4.0422266248
 20
-105.0271503438
 10
-4.1845844944
 20
-104.9815016536
 10
-4.32475407
 20
-104.9284101551
 10
-4.4623373268
 20
-104.8679606236
  0
LWPOLYLINE
  5
21E
100
AcDbEntity
  8
SUPERFICI
100
AcDbPolyline
 62
7
  6
CONTINUOUS
 90
16
 70
0
 10
-4.4623373268
 20
21.9623729764
 10
-4.660166802
 20
21.8601982373
 10
-4.8469789492
 20
21.7447597219
 10
-5.0220522745
 20
21.6173210375
 10
-5.1835168404
 20
21.4803494854
 10
-5.3323777802
 20
21.3341100968
 10
-5.4716104471
 20
21.175756021
 10
-5.6011833613
 20
21.0042814796
 10
-5.7186792779
 20
20.8217294422
 10
-5.8227909462
 20
20.6292384229
 10
-5.9127952996
 20
20.4271397684
 10
-5.9874542974
 20
20.2170496806
 10
-6.0453715001
 20
20.0024280299
 10
-6.0862102318
 20
19.7854033314
 10
-6.1101172526
 20
19.5665540506
 10
-6.1170987549
 20
19.3472061764
  0
LWPOLYLINE
  5
21F
100
AcDbEntity
  8
0
100
AcDbPolyline
 62
7
  6
CONTINUOUS
 90
10
 70
0
 10
9.4862361137
 20
-103.5241713111
 10
9.5541640998
 20
-103.5055987823
 10
9.620213073
 20
-103.48276168
 10
9.6841181861
 20
-103.455825301
 10
9.7456281006
 20
-103.4249711903
 10
9.80450597
 20
-103.3903960857
 10
9.8605303421
 20
-103.3523108054
 10
9.9134959793
 20
-103.3109390821
 10
9.9632145917
 20
-103.266516351
 10
10.009515482
 20
-103.2192884977
  0
LWPOLYLINE
  5
220
100
AcDbEntity
  8
SUPERFICI
100
AcDbPolyline
 62
7
  6
CONTINUOUS
 90
7
 70
0
 10
21.9609124997
 20
-105.1431902617
 10
22.0225746649
 20
-105.142411876
 10
22.0840705779
 20
-105.1403130289
 10
22.1453719647
 20
-105.1369032822
 10
22.2064509451
 20
-105.1321927822
 10
22.2672800432
 20
-105.1261922462
 10
22.3278321976
 20
-105.118912948
  0
LINE
  5
221
100
AcDbEntity
  8
SUPERFICI
100
AcDbLine
 62
7
  6
CONTINUOUS
 10
21.6622955027
 20
-105.1438233369
 11
21.9609124997
 21
-105.1431902617
  0
LINE
  5
222
100
AcDbEntity
  8
DRAFT
100
AcDbLine
 62
7
  6
CONTINUOUS
 10
-3.2390875003
 20
-105.2527938236
 11
-2.3890875003
 21
-105.2527938236
  0
LINE
  5
223
100
AcDbEntity
  8
DRAFT
100
AcDbLine
 62
7
  6
CONTINUOUS
 10
-1.3890875003
 20
-105.2527938236
 11
2.9621947618
 21
-105.2527938236
  0
LINE
  5
224
100
AcDbEntity
  8
DRAFT
100
AcDbLine
 62
7
  6
CONTINUOUS
 10
15.7596302376
 20
-105.2527938236
 11
20.1109124997
 21
-105.2527938236
  0
LINE
  5
225
100
AcDbEntity
  8
DRAFT
100
AcDbLine
 62
7
  6
CONTINUOUS
 10
21.1109124997
 20
-105.2527938236
 11
21.9609124997
 21
-105.2527938236
  0
LINE
  5
226
100
AcDbEntity
  8
DRAFT
100
AcDbLine
 62
7
  6
CONTINUOUS
 10
21.6622955027
 20
-105.1438233369
 11
21.1472064802
 21
-105.1438233369
  0
LINE
  5
227
100
AcDbEntity
  8
DRAFT
100
AcDbLine
 62
7
  6
CONTINUOUS
 10
20.0746185192
 20
-105.1438233369
 11
15.879382311
 21
-105.1438233369
  0
LINE
  5
228
100
AcDbEntity
  8
DRAFT
100
AcDbLine
 62
7
  6
CONTINUOUS
 10
2.8424426884
 20
-105.1438233369
 11
-1.3527935198
 21
-105.1438233369
  0
LINE
  5
229
100
AcDbEntity
  8
DRAFT
100
AcDbLine
 62
7
  6
CONTINUOUS
 10
-2.4253814808
 20
-105.1438233369
 11
-2.9404705034
 21
-105.1438233369
  0
LINE
  5
22A
100
AcDbEntity
  8
DRAFT
100
AcDbLine
 62
7
  6
CONTINUOUS
 10
11.8609124997
 20
-104.2667578755
 11
6.8609124997
 21
-104.2667578755
  0
LINE
  5
22B
100
AcDbEntity
  8
DRAFT
100
AcDbLine
 62
7
  6
CONTINUOUS
 10
5.8659250626
 20
-103.9527938236
 11
8.4614196467
 21
-103.9527938236
  0
LINE
  5
22C
100
AcDbEntity
  8
DRAFT
100
AcDbLine
 62
7
  6
CONTINUOUS
 10
10.2603944946
 20
-103.9527938236
 11
12.8558999368
 21
-103.9527938236
  0
LINE
  5
22D
100
AcDbEntity
  8
DRAFT
100
AcDbLine
 62
7
  6
CONTINUOUS
 10
-1.3432739164
 20
-102.9986074075
 11
2.0459361943
 21
-102.9986074075
  0
LINE
  5
22E
100
AcDbEntity
  8
DRAFT
100
AcDbLine
 62
7
  6
CONTINUOUS
 10
16.6758888051
 20
-102.9986074075
 11
20.0650989158
 21
-102.9986074075
  0
LINE
  5
22F
100
AcDbEntity
  8
DRAFT
100
AcDbLine
 62
7
  6
CONTINUOUS
 10
20.1109124997
 20
-102.9527938236
 11
16.6347998046
 21
-102.9527938236
  0
LINE
  5
230
100
AcDbEntity
  8
DRAFT
100
AcDbLine
 62
7
  6
CONTINUOUS
 10
2.0870251948
 20
-102.9527938236
 11
-1.3890875003
 21
-102.9527938236
  0
LINE
  5
231
100
AcDbEntity
  8
SUPERFICI
100
AcDbLine
 62
250
  6
CONTINUOUS
 10
24.9609124997
 20
-102.2527938236
 11
24.8389237542
 21
-102.2527938236
  0
LINE
  5
232
100
AcDbEntity
  8
0
100
AcDbLine
 62
250
  6
CONTINUOUS
 10
-6.2390875003
 20
-102.2527938236
 11
-6.1170987549
 21
-102.2527938236
  0
LINE
  5
233
100
AcDbEntity
  8
DRAFT
100
AcDbLine
 62
7
  6
CONTINUOUS
 10
-1.3890875003
 20
-101.9527938236
 11
2.0870251948
 21
-101.9527938236
  0
LINE
  5
234
100
AcDbEntity
  8
DRAFT
100
AcDbLine
 62
7
  6
CONTINUOUS
 10
16.6347998046
 20
-101.9527938236
 11
20.1109124997
 21
-101.9527938236
  0
LINE
  5
235
100
AcDbEntity
  8
DRAFT
100
AcDbLine
 62
7
  6
CONTINUOUS
 10
-1.339251833
 20
-101.9029581562
 11
2.0423456236
 21
-101.9029581562
  0
LINE
  5
236
100
AcDbEntity
  8
DRAFT
100
AcDbLine
 62
7
  6
CONTINUOUS
 10
16.6794793758
 20
-101.9029581562
 11
20.0610768323
 21
-101.9029581562
  0
LINE
  5
237
100
AcDbEntity
  8
0
100
AcDbLine
 62
7
  6
CONTINUOUS
 10
-2.9404705034
 20
-105.1438233369
 11
-3.2390875003
 21
-105.1431902617
  0
LWPOLYLINE
  5
238
100
AcDbEntity
  8
0
100
AcDbPolyline
 62
7
  6
CONTINUOUS
 90
31
 70
0
 10
9.3609124997
 20
-101.3360906432
 10
9.4357872965
 20
-101.336636886
 10
9.5108029281
 20
-101.3422298691
 10
9.5856171316
 20
-101.3529053897
 10
9.6599099794
 20
-101.3686828137
 10
9.7333019637
 20
-101.3895477347
 10
9.8053604051
 20
-101.4154328359
 10
9.8758603435
 20
-101.4463199444
 10
9.9443281048
 20
-101.4820662088
 10
10.0100120779
 20
-101.5222738686
 10
10.0724277761
 20
-101.5665507089
 10
10.1315487652
 20
-101.6147780864
 10
10.1873486847
 20
-101.6669012044
 10
10.2396426656
 20
-101.7227662562
 10
10.2881148164
 20
-101.7820559191
 10
10.3325339727
 20
-101.8444895565
 10
10.3726555847
 20
-101.9097062502
 10
10.4083573193
 20
-101.977487975
 10
10.4395783569
 20
-102.0477730112
 10
10.4661986154
 20
-102.1204687947
 10
10.4879584711
 20
-102.1950774136
 10
10.5046421837
 20
-102.2709101182
 10
10.5161688821
 20
-102.347378227
 10
10.5225699658
 20
-102.4243709506
 10
10.5238343121
 20
-102.5019002882
 10
10.5198919952
 20
-102.5798212389
 10
10.5107028137
 20
-102.6575842864
 10
10.4963123846
 20
-102.7345987255
 10
10.4768083001
 20
-102.8104406604
 10
10.4522661519
 20
-102.8848495696
 10
10.422796011
 20
-102.9574928206
  0
LWPOLYLINE
  5
239
100
AcDbEntity
  8
0
100
AcDbPolyline
 62
7
  6
CONTINUOUS
 90
43
 70
0
 10
9.3609124997
 20
-103.4774596876
 10
9.2839873422
 20
-103.4767710272
 10
9.2072085724
 20
-103.4703083016
 10
9.1310094304
 20
-103.4580928568
 10
9.055775239
 20
-103.4401659189
 10
8.9819788011
 20
-103.4166193316
 10
8.9101682365
 20
-103.3876289592
 10
8.8408448506
 20
-103.3534298427
 10
8.7742738149
 20
-103.3141867487
 10
8.7106393555
 20
-103.270000084
 10
8.6503352277
 20
-103.2211096202
 10
8.5936860743
 20
-103.1677429381
 10
8.5408192088
 20
-103.1099278894
 10
8.4919382129
 20
-103.0476872965
 10
8.4475979791
 20
-102.9815073561
 10
8.4083804356
 20
-102.912174549
 10
8.3745300973
 20
-102.8401683746
 10
8.3461822495
 20
-102.7658316408
 10
8.3235529606
 20
-102.6898580202
 10
8.3067606957
 20
-102.6130557659
 10
8.2957057897
 20
-102.5355166171
 10
8.2903465678
 20
-102.4568473394
 10
8.2908279065
 20
-102.377215567
 10
8.2972800485
 20
-102.2973085303
 10
8.3097884745
 20
-102.2175062612
 10
8.3284745618
 20
-102.1380288017
 10
8.3533252125
 20
-102.0596116194
 10
8.3840341343
 20
-101.9833816695
 10
8.4203385952
 20
-101.909873056
 10
8.4620428825
 20
-101.8393820493
 10
8.5086760223
 20
-101.7725681099
 10
8.5595576576
 20
-101.7101205478
 10
8.614593486
 20
-101.651897578
 10
8.6742882416
 20
-101.5973935241
 10
8.738813363
 20
-101.5467244728
 10
8.8075567057
 20
-101.5006303282
 10
8.8799417182
 20
-101.4596379354
 10
8.9557287966
 20
-101.4239963449
 10
9.0343982714
 20
-101.3940597053
 10
9.1148099626
 20
-101.3702615959
 10
9.196234107
 20
-101.3527013225
 10
9.2784253253
 20
-101.3413175189
 10
9.3609124997
 20
-101.3360906432
  0
LWPOLYLINE
  5
23A
100
AcDbEntity
  8
0
100
AcDbPolyline
 62
7
  6
CONTINUOUS
 90
7
 70
0
 10
-3.2390875003
 20
-105.1431902617
 10
-3.3007496656
 20
-105.142411876
 10
-3.3622455785
 20
-105.1403130289
 10
-3.4235469654
 20
-105.1369032822
 10
-3.4846259458
 20
-105.1321927822
 10
-3.5454550438
 20
-105.1261922462
 10
-3.6060071982
 20
-105.118912948
  0
LWPOLYLINE
  5
23B
100
AcDbEntity
  8
0
100
AcDbPolyline
 62
7
  6
CONTINUOUS
 90
16
 70
0
 10
-4.4623373268
 20
-104.8679606236
 10
-4.660166802
 20
-104.7657858844
 10
-4.8469789492
 20
-104.6503473691
 10
-5.0220522745
 20
-104.5229086846
 10
-5.1835168404
 20
-104.3859371326
 10
-5.3323777802
 20
-104.239697744
 10
-5.4716104471
 20
-104.0813436681
 10
-5.6011833613
 20
-103.9098691268
 10
-5.7186792779
 20
-103.7273170894
 10
-5.8227909462
 20
-103.5348260701
 10
-5.9127952996
 20
-103.3327274156
 10
-5.9874542974
 20
-103.1226373277
 10
-6.0453715001
 20
-102.908015677
 10
-6.0862102318
 20
-102.6909909786
 10
-6.1101172526
 20
-102.4721416978
 10
-6.1170987549
 20
-102.2527938236
  0
LWPOLYLINE
  5
23C
100
AcDbEntity
  8
RACCORDO
100
AcDbPolyline
 62
7
  6
CONTINUOUS
 90
7
 70
0
 10
-4.7868175263
 20
15.3079295969
 10
-4.7420300448
 20
15.3369718993
 10
-4.6949283152
 20
15.3608375096
 10
-4.6461192436
 20
15.3794176999
 10
-4.5961999479
 20
15.3926728581
 10
-4.5457505506
 20
15.4006284411
 10
-4.495327787
 20
15.4033703107
  0
LINE
  5
23D
100
AcDbEntity
  8
0
100
AcDbLine
 62
250
  6
CONTINUOUS
 10
-6.1144019253
 20
-101.8039788925
 11
-5.7348024706
 21
-101.7182565427
  0
LINE
  5
23E
100
AcDbEntity
  8
0
100
AcDbLine
 62
250
  6
CONTINUOUS
 10
-5.7348024706
 20
-101.7182565427
 11
-5.349644939
 21
-101.6328742421
  0
LINE
  5
23F
100
AcDbEntity
  8
0
100
AcDbLine
 62
250
  6
CONTINUOUS
 10
-5.349644939
 20
-101.6328742421
 11
-4.9601811677
 21
-101.5478319909
  0
LINE
  5
240
100
AcDbEntity
  8
RACCORDO
100
AcDbLine
 62
7
  6
CONTINUOUS
 10
22.6734667166
 20
-98.3103534383
 11
23.2171527864
 21
-98.3089579578
  0
LINE
  5
241
100
AcDbEntity
  8
DRAFT
100
AcDbLine
 62
7
  6
CONTINUOUS
 10
5.8659250626
 20
-100.9527938236
 11
8.4598148403
 21
-100.9527938236
  0
LINE
  5
242
100
AcDbEntity
  8
DRAFT
100
AcDbLine
 62
7
  6
CONTINUOUS
 10
10.2617905283
 20
-100.9527938236
 11
12.8558999368
 21
-100.9527938236
  0
LINE
  5
243
100
AcDbEntity
  8
DRAFT
100
AcDbLine
 62
7
  6
CONTINUOUS
 10
6.8609124997
 20
-100.6388297716
 11
11.8609124997
 21
-100.6388297716
  0
LINE
  5
244
100
AcDbEntity
  8
DRAFT
100
AcDbLine
 62
7
  6
CONTINUOUS
 10
4.3649157048
 20
-98.3527938236
 11
8.8609124997
 21
-98.3527938236
  0
LINE
  5
245
100
AcDbEntity
  8
DRAFT
100
AcDbLine
 62
7
  6
CONTINUOUS
 10
9.8609124997
 20
-98.3527938236
 11
14.3569092945
 21
-98.3527938236
  0
LINE
  5
246
100
AcDbEntity
  8
RACCORDO
100
AcDbLine
 62
7
  6
CONTINUOUS
 10
-1.3299134996
 20
-98.3119678243
 11
1.9701626528
 21
-98.3119678243
  0
LINE
  5
247
100
AcDbEntity
  8
RACCORDO
100
AcDbLine
 62
7
  6
CONTINUOUS
 10
16.7516623465
 20
-98.3119678243
 11
20.051738499
 21
-98.3119678243
  0
LINE
  5
248
100
AcDbEntity
  8
DRAFT
100
AcDbLine
 62
7
  6
CONTINUOUS
 10
21.1700865004
 20
-98.3119678243
 11
22.6734667166
 21
-98.3103534383
  0
LINE
  5
249
100
AcDbEntity
  8
DRAFT
100
AcDbLine
 62
7
  6
CONTINUOUS
 10
4.348366043
 20
-98.2935868973
 11
8.8017055734
 21
-98.2935868973
  0
LINE
  5
24A
100
AcDbEntity
  8
DRAFT
100
AcDbLine
 62
7
  6
CONTINUOUS
 10
9.9201194259
 20
-98.2935868973
 11
14.3734589563
 21
-98.2935868973
  0
LINE
  5
24B
100
AcDbEntity
  8
RACCORDO
100
AcDbLine
 62
7
  6
CONTINUOUS
 10
23.1609886521
 20
-98.2527938236
 11
21.1109124997
 21
-98.2527938236
  0
LINE
  5
24C
100
AcDbEntity
  8
RACCORDO
100
AcDbLine
 62
7
  6
CONTINUOUS
 10
20.1109124997
 20
-98.2527938236
 11
16.8108363473
 21
-98.2527938236
  0
LINE
  5
24D
100
AcDbEntity
  8
RACCORDO
100
AcDbLine
 62
7
  6
CONTINUOUS
 10
1.9109886521
 20
-98.2527938236
 11
-1.3890875003
 21
-98.2527938236
  0
LINE
  5
24E
100
AcDbEntity
  8
RACCORDO
100
AcDbLine
 62
7
  6
CONTINUOUS
 10
-2.3890875003
 20
-98.2527938236
 11
-4.4391636527
 21
-98.2527938236
  0
LINE
  5
24F
100
AcDbEntity
  8
DRAFT
100
AcDbLine
 62
7
  6
CONTINUOUS
 10
6.187874895
 20
-97.8128088355
 11
8.8008974878
 21
-97.8128088355
  0
LINE
  5
250
100
AcDbEntity
  8
DRAFT
100
AcDbLine
 62
7
  6
CONTINUOUS
 10
9.9209275116
 20
-97.8128088355
 11
12.5339501043
 21
-97.8128088355
  0
LINE
  5
251
100
AcDbEntity
  8
DRAFT
100
AcDbLine
 62
7
  6
CONTINUOUS
 10
12.5109124997
 20
-97.7527938236
 11
9.8609124997
 21
-97.7527938236
  0
LINE
  5
252
100
AcDbEntity
  8
DRAFT
100
AcDbLine
 62
7
  6
CONTINUOUS
 10
8.8609124997
 20
-97.7527938236
 11
6.2109124997
 21
-97.7527938236
  0
LINE
  5
253
100
AcDbEntity
  8
RACCORDO
100
AcDbLine
 62
7
  6
CONTINUOUS
 10
-4.4391636527
 20
-97.0527938236
 11
-3.9140875003
 21
-97.0527938236
  0
LINE
  5
254
100
AcDbEntity
  8
DRAFT
100
AcDbLine
 62
7
  6
CONTINUOUS
 10
2.4109124997
 20
-97.0527938236
 11
-3.9140875003
 21
-97.0527938236
  0
LINE
  5
255
100
AcDbEntity
  8
DRAFT
100
AcDbLine
 62
7
  6
CONTINUOUS
 10
16.3109124997
 20
-97.0527938236
 11
22.6359124997
 21
-97.0527938236
  0
LINE
  5
256
100
AcDbEntity
  8
RACCORDO
100
AcDbLine
 62
7
  6
CONTINUOUS
 10
22.6359124997
 20
-97.0527938236
 11
23.1609886521
 21
-97.0527938236
  0
LINE
  5
257
100
AcDbEntity
  8
0
100
AcDbLine
 62
7
  6
CONTINUOUS
 10
11.8609124997
 20
-96.9527938236
 11
6.8609124997
 21
-96.9527938236
  0
LINE
  5
258
100
AcDbEntity
  8
DRAFT
100
AcDbLine
 62
7
  6
CONTINUOUS
 10
22.6359124997
 20
-96.9306083691
 11
17.6505530191
 21
-96.9306083691
  0
LINE
  5
259
100
AcDbEntity
  8
RACCORDO
100
AcDbLine
 62
7
  6
CONTINUOUS
 10
-4.2646130035
 20
-96.8782431743
 11
2.2363618504
 21
-96.8782431743
  0
LINE
  5
25A
100
AcDbEntity
  8
RACCORDO
100
AcDbLine
 62
7
  6
CONTINUOUS
 10
16.485463149
 20
-96.8782431743
 11
22.9864380028
 21
-96.8782431743
  0
LINE
  5
25B
100
AcDbEntity
  8
DRAFT
100
AcDbLine
 62
7
  6
CONTINUOUS
 10
-3.9516417173
 20
-98.3103534383
 11
-2.448261501
 21
-98.3119678243
  0
LINE
  5
25C
100
AcDbEntity
  8
RACCORDO
100
AcDbLine
 62
7
  6
CONTINUOUS
 10
-4.495327787
 20
-98.3089579578
 11
-3.9516417173
 21
-98.3103534383
  0
LWPOLYLINE
  5
25D
100
AcDbEntity
  8
RACCORDO
100
AcDbPolyline
 62
7
  6
CONTINUOUS
 90
7
 70
0
 10
-4.495327787
 20
-98.3089579578
 10
-4.5454955379
 20
-98.3062428859
 10
-4.5957983077
 20
-98.2983449604
 10
-4.6456794851
 20
-98.2851466904
 10
-4.6945525602
 20
-98.2665911035
 10
-4.7418073974
 20
-98.2426875983
 10
-4.7868175263
 20
-98.213517244
  0
LWPOLYLINE
  5
25E
100
AcDbEntity
  8
RACCORDO
100
AcDbPolyline
 62
7
  6
CONTINUOUS
 90
10
 70
0
 10
16.7516623465
 20
-98.3119678243
 10
16.6649363777
 20
-98.3044114236
 10
16.5807397982
 20
-98.2819264571
 10
16.5016381064
 20
-98.2451541674
 10
16.4299904922
 20
-98.1951290087
 10
16.3680836643
 20
-98.1333668861
 10
16.3179672296
 20
-98.0619179576
 10
16.2811339573
 20
-97.983075976
 10
16.2585755437
 20
-97.8992122215
 10
16.2508976075
 20
-97.8128848682
  0
LINE
  5
25F
100
AcDbEntity
  8
SUPERFICI
100
AcDbLine
 62
250
  6
CONTINUOUS
 10
24.2646645589
 20
-101.6755228862
 11
23.6820061671
 21
-101.5478319909
  0
LINE
  5
260
100
AcDbEntity
  8
SUPERFICI
100
AcDbLine
 62
250
  6
CONTINUOUS
 10
24.8362269247
 20
-101.8039788925
 11
24.2646645589
 21
-101.6755228862
  0
LINE
  5
261
100
AcDbEntity
  8
DRAFT
100
AcDbLine
 62
7
  6
CONTINUOUS
 10
-6.2390875003
 20
10.6472061764
 11
-6.0856176417
 21
10.6983212281
  0
LINE
  5
262
100
AcDbEntity
  8
SUPERFICI
100
AcDbLine
 62
250
  6
CONTINUOUS
 10
23.6820061671
 20
18.6422443437
 11
23.056097044
 21
18.4341878067
  0
LINE
  5
263
100
AcDbEntity
  8
SUPERFICI
100
AcDbLine
 62
250
  6
CONTINUOUS
 10
23.056097044
 20
18.4341878067
 11
22.7410527474
 21
18.3299881337
  0
LINE
  5
264
100
AcDbEntity
  8
SUPERFICI
100
AcDbLine
 62
250
  6
CONTINUOUS
 10
22.7410527474
 20
18.3299881337
 11
21.6609124997
 21
17.9951934695
  0
LINE
  5
265
100
AcDbEntity
  8
DRAFT
100
AcDbLine
 62
7
  6
CONTINUOUS
 10
20.5532639425
 20
-92.4527938236
 11
20.6109212812
 21
-92.443194269
  0
LINE
  5
266
100
AcDbEntity
  8
DRAFT
100
AcDbLine
 62
7
  6
CONTINUOUS
 10
-6.0856176417
 20
-94.2192223908
 11
-4.9983079608
 21
-94.2116563153
  0
LINE
  5
267
100
AcDbEntity
  8
DRAFT
100
AcDbLine
 62
7
  6
CONTINUOUS
 10
22.6359124997
 20
-95.9527938236
 11
17.7029182139
 21
-95.9527938236
  0
LINE
  5
268
100
AcDbEntity
  8
DRAFT
100
AcDbLine
 62
7
  6
CONTINUOUS
 10
1.0189067855
 20
-95.9527938236
 11
-3.9140875003
 21
-95.9527938236
  0
LINE
  5
269
100
AcDbEntity
  8
SUPERFICI
100
AcDbLine
 62
7
  6
CONTINUOUS
 10
12.2076034453
 20
-95.3527938236
 11
6.514221554
 21
-95.3527938236
  0
LINE
  5
26A
100
AcDbEntity
  8
RACCORDO
100
AcDbLine
 62
7
  6
CONTINUOUS
 10
2.2450893829
 20
-95.0527938236
 11
16.4767356165
 21
-95.0527938236
  0
LINE
  5
26B
100
AcDbEntity
  8
RACCORDO
100
AcDbLine
 62
250
  6
CONTINUOUS
 10
2.2363618504
 20
-94.5527938236
 11
16.485463149
 21
-94.5527938236
  0
LINE
  5
26C
100
AcDbEntity
  8
DRAFT
100
AcDbLine
 62
7
  6
CONTINUOUS
 10
-3.9140875003
 20
-93.7527938236
 11
1.0189067855
 21
-93.7527938236
  0
LINE
  5
26D
100
AcDbEntity
  8
DRAFT
100
AcDbLine
 62
7
  6
CONTINUOUS
 10
17.7029182139
 20
-93.7527938236
 11
22.6359124997
 21
-93.7527938236
  0
LINE
  5
26E
100
AcDbEntity
  8
0
100
AcDbLine
 62
7
  6
CONTINUOUS
 10
6.3609124997
 20
-93.561879671
 11
12.3609124997
 21
-93.561879671
  0
LINE
  5
26F
100
AcDbEntity
  8
DRAFT
100
AcDbLine
 62
7
  6
CONTINUOUS
 10
24.9609124997
 20
-93.5527938236
 11
23.6609124997
 21
-93.5527938236
  0
LINE
  5
270
100
AcDbEntity
  8
DRAFT
100
AcDbLine
 62
7
  6
CONTINUOUS
 10
-4.9390875003
 20
-93.5527938236
 11
-6.2390875003
 21
-93.5527938236
  0
LINE
  5
271
100
AcDbEntity
  8
0
100
AcDbLine
 62
7
  6
CONTINUOUS
 10
22.2481811776
 20
-92.561879671
 11
12.3609124997
 21
-92.561879671
  0
LINE
  5
272
100
AcDbEntity
  8
0
100
AcDbLine
 62
7
  6
CONTINUOUS
 10
6.3609124997
 20
-92.561879671
 11
-3.5263561782
 21
-92.561879671
  0
LINE
  5
273
100
AcDbEntity
  8
DRAFT
100
AcDbLine
 62
7
  6
CONTINUOUS
 10
-6.2390875003
 20
-92.5527938236
 11
-4.9390875003
 21
-92.5527938236
  0
LINE
  5
274
100
AcDbEntity
  8
DRAFT
100
AcDbLine
 62
7
  6
CONTINUOUS
 10
23.6609124997
 20
-92.5527938236
 11
24.9609124997
 21
-92.5527938236
  0
LINE
  5
275
100
AcDbEntity
  8
0
100
AcDbLine
 62
7
  6
CONTINUOUS
 10
6.3609124997
 20
-92.5379807771
 11
12.3609124997
 21
-92.5379807771
  0
LINE
  5
276
100
AcDbEntity
  8
DRAFT
100
AcDbLine
 62
7
  6
CONTINUOUS
 10
12.5355123361
 20
-92.4764581647
 11
6.1863126633
 21
-92.4764581647
  0
LINE
  5
277
100
AcDbEntity
  8
DRAFT
100
AcDbLine
 62
7
  6
CONTINUOUS
 10
20.1109124997
 20
-92.4658841253
 11
17.5109124997
 21
-92.4658841253
  0
LINE
  5
278
100
AcDbEntity
  8
DRAFT
100
AcDbLine
 62
7
  6
CONTINUOUS
 10
1.2109124997
 20
-92.4658841253
 11
-1.3890875003
 21
-92.4658841253
  0
LINE
  5
279
100
AcDbEntity
  8
SUPERFICI
100
AcDbLine
 62
7
  6
CONTINUOUS
 10
12.5334419745
 20
-92.4527938236
 11
6.1883830248
 21
-92.4527938236
  0
LINE
  5
27A
100
AcDbEntity
  8
DRAFT
100
AcDbLine
 62
7
  6
CONTINUOUS
 10
-1.8314389431
 20
-92.4527938236
 11
-1.4152700977
 21
-92.4527938236
  0
LINE
  5
27B
100
AcDbEntity
  8
DRAFT
100
AcDbLine
 62
7
  6
CONTINUOUS
 10
1.2370950971
 20
-92.4527938236
 11
4.8609124997
 21
-92.4527938236
  0
LINE
  5
27C
100
AcDbEntity
  8
DRAFT
100
AcDbLine
 62
7
  6
CONTINUOUS
 10
13.8609124997
 20
-92.4527938236
 11
17.4847299023
 21
-92.4527938236
  0
LINE
  5
27D
100
AcDbEntity
  8
DRAFT
100
AcDbLine
 62
7
  6
CONTINUOUS
 10
20.1370950971
 20
-92.4527938236
 11
20.5532639425
 21
-92.4527938236
  0
LINE
  5
27E
100
AcDbEntity
  8
DRAFT
100
AcDbLine
 62
7
  6
CONTINUOUS
 10
22.1294957756
 20
-92.443194269
 11
20.6109124997
 21
-92.443194269
  0
LINE
  5
27F
100
AcDbEntity
  8
DRAFT
100
AcDbLine
 62
7
  6
CONTINUOUS
 10
-1.8890875003
 20
-92.443194269
 11
-3.4076707763
 21
-92.443194269
  0
LINE
  5
280
100
AcDbEntity
  8
DRAFT
100
AcDbLine
 62
7
  6
CONTINUOUS
 10
24.8074426411
 20
-94.2192223908
 11
23.7201329601
 21
-94.2116563153
  0
LINE
  5
281
100
AcDbEntity
  8
SUPERFICI
100
AcDbLine
 62
250
  6
CONTINUOUS
 10
22.7410527474
 20
-101.2355757809
 11
21.6609124997
 21
-100.9007811166
  0
LINE
  5
282
100
AcDbEntity
  8
SUPERFICI
100
AcDbLine
 62
250
  6
CONTINUOUS
 10
22.8461031282
 20
-101.2703077913
 11
22.7410527474
 21
-101.2355757809
  0
LINE
  5
283
100
AcDbEntity
  8
DRAFT
100
AcDbLine
 62
7
  6
CONTINUOUS
 10
-6.2390875003
 20
-93.5527938236
 11
-6.0856176417
 21
-93.6039088752
  0
LINE
  5
284
100
AcDbEntity
  8
SUPERFICI
100
AcDbLine
 62
250
  6
CONTINUOUS
 10
23.6820061671
 20
-101.5478319909
 11
22.8461031282
 21
-101.2703077913
  0
LINE
  5
285
100
AcDbEntity
  8
0
100
AcDbLine
 62
7
  6
CONTINUOUS
 10
10.422796011
 20
-102.9574928206
 11
10.9414725339
 21
-103.2040128184
  0
LWPOLYLINE
  5
286
100
AcDbEntity
  8
RACCORDO
100
AcDbPolyline
 62
7
  6
CONTINUOUS
 90
7
 70
0
 10
-4.7868175263
 20
-98.213517244
 10
-4.8470295115
 20
-98.1620078609
 10
-4.8983011713
 20
-98.1018234748
 10
-4.93942353
 20
-98.0345299446
 10
-4.969457142
 20
-97.9618501564
 10
-4.9877503954
 20
-97.8856183399
 10
-4.9939502321
 20
-97.8077327077
  0
LINE
  5
287
100
AcDbEntity
  8
DRAFT
100
AcDbLine
 62
7
  6
CONTINUOUS
 10
2.0870251948
 20
19.0472061764
 11
2.0720959452
 21
19.0306057122
  0
LINE
  5
288
100
AcDbEntity
  8
DRAFT
100
AcDbLine
 62
7
  6
CONTINUOUS
 10
-1.3890875003
 20
15.3472061764
 11
-1.3299134996
 21
15.4063801771
  0
LINE
  5
289
100
AcDbEntity
  8
DRAFT
100
AcDbLine
 62
7
  6
CONTINUOUS
 10
-4.9390875003
 20
9.6472061764
 11
-4.9983079608
 21
9.587985716
  0
LINE
  5
28A
100
AcDbEntity
  8
DRAFT
100
AcDbLine
 62
7
  6
CONTINUOUS
 10
-1.4152700977
 20
9.5472061764
 11
-1.3890875003
 21
9.5602964781
  0
LINE
  5
28B
100
AcDbEntity
  8
0
100
AcDbLine
 62
7
  6
CONTINUOUS
 10
-3.2390875003
 20
6.7701631764
 11
-1.9890875003
 21
7.2227881764
  0
LINE
  5
28C
100
AcDbEntity
  8
0
100
AcDbLine
 62
7
  6
CONTINUOUS
 10
-2.8751905003
 20
7.0782961764
 11
-3.2390875003
 21
6.9546281764
  0
LINE
  5
28D
100
AcDbEntity
  8
0
100
AcDbLine
 62
7
  6
CONTINUOUS
 10
-2.1703895003
 20
7.3255111764
 11
-2.7254675003
 21
7.1392901764
  0
LINE
  5
28E
100
AcDbEntity
  8
DRAFT
100
AcDbLine
 62
7
  6
CONTINUOUS
 10
-1.8890787442
 20
-92.4623919201
 11
-1.8314389431
 21
-92.4527938236
  0
LINE
  5
28F
100
AcDbEntity
  8
DRAFT
100
AcDbLine
 62
7
  6
CONTINUOUS
 10
-1.4152700977
 20
-92.4527938236
 11
-1.3890875003
 21
-92.4658841253
  0
LINE
  5
290
100
AcDbEntity
  8
DRAFT
100
AcDbLine
 62
7
  6
CONTINUOUS
 10
-1.3890875003
 20
-98.2527938236
 11
-1.3299134996
 21
-98.3119678243
  0
LINE
  5
291
100
AcDbEntity
  8
DRAFT
100
AcDbLine
 62
7
  6
CONTINUOUS
 10
-4.9390875003
 20
-92.5527938236
 11
-4.9983079608
 21
-92.4935733631
  0
LINE
  5
292
100
AcDbEntity
  8
DRAFT
100
AcDbLine
 62
7
  6
CONTINUOUS
 10
2.0870251948
 20
-101.9527938236
 11
2.0720959452
 21
-101.9361933593
  0
LINE
  5
293
100
AcDbEntity
  8
DRAFT
100
AcDbLine
 62
7
  6
CONTINUOUS
 10
2.0720959452
 20
19.0306057122
 11
2.0423456236
 21
18.9973705091
  0
LINE
  5
294
100
AcDbEntity
  8
RACCORDO
100
AcDbLine
 62
250
  6
CONTINUOUS
 10
1.9701626528
 20
15.4063801771
 11
1.9109886521
 21
15.3472061764
  0
LINE
  5
295
100
AcDbEntity
  8
DRAFT
100
AcDbLine
 62
7
  6
CONTINUOUS
 10
1.1934574347
 20
14.1472061764
 11
1.0712719802
 21
14.0250207219
  0
LINE
  5
296
100
AcDbEntity
  8
RACCORDO
100
AcDbLine
 62
250
  6
CONTINUOUS
 10
2.4709273919
 20
14.907297221
 11
2.4109124997
 21
14.8472823288
  0
LINE
  5
297
100
AcDbEntity
  8
DRAFT
100
AcDbLine
 62
7
  6
CONTINUOUS
 10
2.2363618504
 20
13.9726555271
 11
2.4109124997
 21
14.1472061764
  0
LINE
  5
298
100
AcDbEntity
  8
RACCORDO
100
AcDbLine
 62
7
  6
CONTINUOUS
 10
2.2449370664
 20
11.9812307432
 11
2.4735754896
 21
12.2098691664
  0
LINE
  5
299
100
AcDbEntity
  8
DRAFT
100
AcDbLine
 62
7
  6
CONTINUOUS
 10
3.2122587096
 20
12.1472061764
 11
6.2109124997
 21
14.8472061764
  0
LINE
  5
29A
100
AcDbEntity
  8
0
100
AcDbLine
 62
7
  6
CONTINUOUS
 10
4.8609124997
 20
12.2463980878
 11
6.8609124997
 21
14.0472061764
  0
LWPOLYLINE
  5
29B
100
AcDbEntity
  8
0
100
AcDbPolyline
 62
7
  6
CONTINUOUS
 90
13
 70
0
 10
10.009515482
 20
18.7807115023
 10
9.964983619
 20
18.7430199915
 10
9.9181787516
 20
18.7078607872
 10
9.8692416017
 20
18.6753756138
 10
9.8183508943
 20
18.6457143596
 10
9.7656379946
 20
18.6189838382
 10
9.7111772632
 20
18.5952641595
 10
9.6549864578
 20
18.574629227
 10
9.5973863826
 20
18.5572619387
 10
9.5389324131
 20
18.5433445439
 10
9.4799576487
 20
18.5329253534
 10
9.4205487705
 20
18.5259890154
 10
9.3609124997
 20
18.5225403124
  0
LWPOLYLINE
  5
29C
100
AcDbEntity
  8
DRAFT
100
AcDbPolyline
 62
7
  6
CONTINUOUS
 90
10
 70
0
 10
14.3734589563
 20
15.3879992502
 10
14.7872766273
 20
15.6700767673
 10
15.1636908011
 20
15.9851237526
 10
15.5027014777
 20
16.3330304093
 10
15.8069683877
 20
16.7175359912
 10
16.0738318006
 20
17.1345955138
 10
16.2953125249
 20
17.572433266
 10
16.4687508304
 20
18.0270335196
 10
16.5968064473
 20
18.5020811526
 10
16.6794793758
 20
18.9973705091
  0
LINE
  5
29D
100
AcDbEntity
  8
0
100
AcDbLine
 62
7
  6
CONTINUOUS
 10
-2.2238275003
 20
2.0976401764
 11
-3.2390875003
 21
1.4586751764
  0
LINE
  5
29E
100
AcDbEntity
  8
0
100
AcDbLine
 62
7
  6
CONTINUOUS
 10
-3.0044405003
 20
1.4326191764
 11
-1.9890875003
 21
2.0610241764
  0
LINE
  5
29F
100
AcDbEntity
  8
DRAFT
100
AcDbLine
 62
7
  6
CONTINUOUS
 10
17.4847299023
 20
9.5472061764
 11
17.5109124997
 21
9.5602964781
  0
LINE
  5
2A0
100
AcDbEntity
  8
DRAFT
100
AcDbLine
 62
7
  6
CONTINUOUS
 10
24.9609124997
 20
9.6472061764
 11
24.8074426411
 21
9.5960911248
  0
LINE
  5
2A1
100
AcDbEntity
  8
DRAFT
100
AcDbLine
 62
7
  6
CONTINUOUS
 10
-6.2390875003
 20
-0.9527938236
 11
-6.0856176417
 21
-0.9016787719
  0
LINE
  5
2A2
100
AcDbEntity
  8
DRAFT
100
AcDbLine
 62
7
  6
CONTINUOUS
 10
24.9609124997
 20
-92.5527938236
 11
24.8074426411
 21
-92.5016787719
  0
LINE
  5
2A3
100
AcDbEntity
  8
DRAFT
100
AcDbLine
 62
7
  6
CONTINUOUS
 10
-6.2390875003
 20
-81.9527938236
 11
-6.0856176417
 21
-82.0039088752
  0
LINE
  5
2A4
100
AcDbEntity
  8
DRAFT
100
AcDbLine
 62
7
  6
CONTINUOUS
 10
17.4847299023
 20
-92.4527938236
 11
17.5109124997
 21
-92.4658841253
  0
LINE
  5
2A5
100
AcDbEntity
  8
DRAFT
100
AcDbLine
 62
7
  6
CONTINUOUS
 10
6.2109124997
 20
-97.7527938236
 11
3.2122587096
 21
-95.0527938236
  0
LINE
  5
2A6
100
AcDbEntity
  8
0
100
AcDbLine
 62
7
  6
CONTINUOUS
 10
6.8609124997
 20
-96.9527938236
 11
4.8609124997
 21
-95.151985735
  0
LINE
  5
2A7
100
AcDbEntity
  8
RACCORDO
100
AcDbLine
 62
250
  6
CONTINUOUS
 10
1.9701626528
 20
-98.3119678243
 11
1.9109886521
 21
-98.2527938236
  0
LINE
  5
2A8
100
AcDbEntity
  8
DRAFT
100
AcDbLine
 62
7
  6
CONTINUOUS
 10
1.1934574347
 20
-97.0527938236
 11
1.0712719802
 21
-96.9306083691
  0
LINE
  5
2A9
100
AcDbEntity
  8
RACCORDO
100
AcDbLine
 62
250
  6
CONTINUOUS
 10
2.4709273919
 20
-97.8128848682
 11
2.4109124997
 21
-97.752869976
  0
LINE
  5
2AA
100
AcDbEntity
  8
DRAFT
100
AcDbLine
 62
7
  6
CONTINUOUS
 10
2.2363618504
 20
-96.8782431743
 11
2.4109124997
 21
-97.0527938236
  0
LINE
  5
2AB
100
AcDbEntity
  8
DRAFT
100
AcDbLine
 62
7
  6
CONTINUOUS
 10
2.0720959452
 20
-101.9361933593
 11
2.0423456236
 21
-101.9029581562
  0
LWPOLYLINE
  5
2AC
100
AcDbEntity
  8
DRAFT
100
AcDbPolyline
 62
7
  6
CONTINUOUS
 90
10
 70
0
 10
2.8424426884
 20
22.2382356897
 10
2.7037751863
 20
22.0205094425
 10
2.5774527071
 20
21.7970835532
 10
2.463475251
 20
21.5679399718
 10
2.3615805882
 20
21.332291227
 10
2.2720309485
 20
21.0908878455
 10
2.1956130203
 20
20.8460306611
 10
2.1325890333
 20
20.5984885235
 10
2.082696758
 20
20.3474860851
 10
2.0459361943
 20
20.0930197603
  0
LINE
  5
2AD
100
AcDbEntity
  8
DRAFT
100
AcDbLine
 62
7
  6
CONTINUOUS
 10
8.8609124997
 20
15.4472061764
 11
8.8017055734
 21
15.3879992502
  0
LINE
  5
2AE
100
AcDbEntity
  8
DRAFT
100
AcDbLine
 62
7
  6
CONTINUOUS
 10
9.8609124997
 20
14.8472061764
 11
9.9209275116
 21
14.9072211883
  0
LINE
  5
2AF
100
AcDbEntity
  8
DRAFT
100
AcDbLine
 62
7
  6
CONTINUOUS
 10
-4.9390875003
 20
-1.9527938236
 11
-4.9983079608
 21
-2.012014284
  0
LINE
  5
2B0
100
AcDbEntity
  8
DRAFT
100
AcDbLine
 62
7
  6
CONTINUOUS
 10
-2.1264763833
 20
-1.1273444729
 11
-1.8890875003
 21
-0.8899555898
  0
LINE
  5
2B1
100
AcDbEntity
  8
DRAFT
100
AcDbLine
 62
7
  6
CONTINUOUS
 10
22.1294957756
 20
-82.0156320573
 11
20.6109124997
 21
-82.0156320573
  0
LINE
  5
2B2
100
AcDbEntity
  8
DRAFT
100
AcDbLine
 62
7
  6
CONTINUOUS
 10
-3.4076707763
 20
-82.0156320573
 11
-1.8890875003
 21
-82.0156320573
  0
LINE
  5
2B3
100
AcDbEntity
  8
DRAFT
100
AcDbLine
 62
7
  6
CONTINUOUS
 10
24.9609124997
 20
-81.9527938236
 11
23.6609124997
 21
-81.9527938236
  0
LINE
  5
2B4
100
AcDbEntity
  8
DRAFT
100
AcDbLine
 62
7
  6
CONTINUOUS
 10
-4.9390875003
 20
-81.9527938236
 11
-6.2390875003
 21
-81.9527938236
  0
LINE
  5
2B5
100
AcDbEntity
  8
DRAFT
100
AcDbLine
 62
7
  6
CONTINUOUS
 10
22.2481811776
 20
-81.7782431743
 11
20.8483013827
 21
-81.7782431743
  0
LINE
  5
2B6
100
AcDbEntity
  8
DRAFT
100
AcDbLine
 62
7
  6
CONTINUOUS
 10
-2.1264763833
 20
-81.7782431743
 11
-3.5263561782
 21
-81.7782431743
  0
LINE
  5
2B7
100
AcDbEntity
  8
DRAFT
100
AcDbLine
 62
7
  6
CONTINUOUS
 10
-3.5263561782
 20
-81.1273444729
 11
-2.1264763833
 21
-81.1273444729
  0
LINE
  5
2B8
100
AcDbEntity
  8
DRAFT
100
AcDbLine
 62
7
  6
CONTINUOUS
 10
20.8483013827
 20
-81.1273444729
 11
22.2481811776
 21
-81.1273444729
  0
LINE
  5
2B9
100
AcDbEntity
  8
DRAFT
100
AcDbLine
 62
7
  6
CONTINUOUS
 10
-6.2390875003
 20
-80.9527938236
 11
-4.9390875003
 21
-80.9527938236
  0
LINE
  5
2BA
100
AcDbEntity
  8
DRAFT
100
AcDbLine
 62
7
  6
CONTINUOUS
 10
23.6609124997
 20
-80.9527938236
 11
24.9609124997
 21
-80.9527938236
  0
LINE
  5
2BB
100
AcDbEntity
  8
DRAFT
100
AcDbLine
 62
7
  6
CONTINUOUS
 10
22.1294957756
 20
-80.8899555898
 11
20.6109124997
 21
-80.8899555898
  0
LINE
  5
2BC
100
AcDbEntity
  8
DRAFT
100
AcDbLine
 62
7
  6
CONTINUOUS
 10
-1.8890875003
 20
-80.8899555898
 11
-3.4076707763
 21
-80.8899555898
  0
LINE
  5
2BD
100
AcDbEntity
  8
DRAFT
100
AcDbLine
 62
7
  6
CONTINUOUS
 10
8.8609124997
 20
-98.3527938236
 11
8.8017055734
 21
-98.2935868973
  0
LINE
  5
2BE
100
AcDbEntity
  8
DRAFT
100
AcDbLine
 62
7
  6
CONTINUOUS
 10
9.8609124997
 20
-97.7527938236
 11
9.9209275116
 21
-97.8128088355
  0
LINE
  5
2BF
100
AcDbEntity
  8
DRAFT
100
AcDbLine
 62
7
  6
CONTINUOUS
 10
-4.9390875003
 20
-80.9527938236
 11
-4.9983079608
 21
-80.8935733631
  0
LINE
  5
2C0
100
AcDbEntity
  8
DRAFT
100
AcDbLine
 62
7
  6
CONTINUOUS
 10
-2.1264763833
 20
-81.7782431743
 11
-1.8890875003
 21
-82.0156320573
  0
LINE
  5
2C1
100
AcDbEntity
  8
DRAFT
100
AcDbLine
 62
7
  6
CONTINUOUS
 10
20.1109124997
 20
19.0472061764
 11
20.0610768323
 21
18.9973705091
  0
LINE
  5
2C2
100
AcDbEntity
  8
DRAFT
100
AcDbLine
 62
7
  6
CONTINUOUS
 10
24.9609124997
 20
-1.9527938236
 11
24.8074426411
 21
-2.0039088752
  0
LINE
  5
2C3
100
AcDbEntity
  8
DRAFT
100
AcDbLine
 62
7
  6
CONTINUOUS
 10
-6.2390875003
 20
-12.4527938236
 11
-6.0856176417
 21
-12.4016787719
  0
LINE
  5
2C4
100
AcDbEntity
  8
DRAFT
100
AcDbLine
 62
7
  6
CONTINUOUS
 10
24.9609124997
 20
-80.9527938236
 11
24.8074426411
 21
-80.9016787719
  0
LINE
  5
2C5
100
AcDbEntity
  8
DRAFT
100
AcDbLine
 62
7
  6
CONTINUOUS
 10
-6.2390875003
 20
-70.4527938236
 11
-6.0856176417
 21
-70.5039088752
  0
LINE
  5
2C6
100
AcDbEntity
  8
DRAFT
100
AcDbLine
 62
7
  6
CONTINUOUS
 10
20.1109124997
 20
-101.9527938236
 11
20.0610768323
 21
-101.9029581562
  0
LINE
  5
2C7
100
AcDbEntity
  8
DRAFT
100
AcDbLine
 62
7
  6
CONTINUOUS
 10
-2.3890875003
 20
22.3472061764
 11
-2.4253814808
 21
22.2382356897
  0
LINE
  5
2C8
100
AcDbEntity
  8
DRAFT
100
AcDbLine
 62
7
  6
CONTINUOUS
 10
-3.5263561782
 20
-1.1273444729
 11
-3.4076707763
 21
-0.8899555898
  0
LINE
  5
2C9
100
AcDbEntity
  8
DRAFT
100
AcDbLine
 62
7
  6
CONTINUOUS
 10
21.1109124997
 20
15.3472061764
 11
21.1700865004
 21
15.4063801771
  0
LINE
  5
2CA
100
AcDbEntity
  8
RACCORDO
100
AcDbLine
 62
250
  6
CONTINUOUS
 10
23.2171527864
 20
15.4033703107
 11
23.1609886521
 21
15.3472061764
  0
LINE
  5
2CB
100
AcDbEntity
  8
DRAFT
100
AcDbLine
 62
7
  6
CONTINUOUS
 10
-4.9390875003
 20
-13.4527938236
 11
-4.9983079608
 21
-13.512014284
  0
LINE
  5
2CC
100
AcDbEntity
  8
RACCORDO
100
AcDbLine
 62
250
  6
CONTINUOUS
 10
23.7157752314
 20
14.9021450606
 11
23.6609124997
 21
14.8472823288
  0
LINE
  5
2CD
100
AcDbEntity
  8
RACCORDO
100
AcDbLine
 62
250
  6
CONTINUOUS
 10
23.1609886521
 20
14.1472061764
 11
22.9864380028
 21
13.9726555271
  0
LINE
  5
2CE
100
AcDbEntity
  8
RACCORDO
100
AcDbLine
 62
250
  6
CONTINUOUS
 10
23.6609124997
 20
13.6472823288
 11
23.4863618504
 21
13.4727316796
  0
LINE
  5
2CF
100
AcDbEntity
  8
DRAFT
100
AcDbLine
 62
7
  6
CONTINUOUS
 10
-2.1264763833
 20
-12.6273444729
 11
-1.8890875003
 21
-12.3899555898
  0
LINE
  5
2D0
100
AcDbEntity
  8
DRAFT
100
AcDbLine
 62
7
  6
CONTINUOUS
 10
22.1294957756
 20
-70.5156320573
 11
20.6109124997
 21
-70.5156320573
  0
LINE
  5
2D1
100
AcDbEntity
  8
DRAFT
100
AcDbLine
 62
7
  6
CONTINUOUS
 10
-3.4076707763
 20
-70.5156320573
 11
-1.8890875003
 21
-70.5156320573
  0
LINE
  5
2D2
100
AcDbEntity
  8
DRAFT
100
AcDbLine
 62
7
  6
CONTINUOUS
 10
24.9609124997
 20
-70.4527938236
 11
23.6609124997
 21
-70.4527938236
  0
LINE
  5
2D3
100
AcDbEntity
  8
DRAFT
100
AcDbLine
 62
7
  6
CONTINUOUS
 10
-4.9390875003
 20
-70.4527938236
 11
-6.2390875003
 21
-70.4527938236
  0
LINE
  5
2D4
100
AcDbEntity
  8
DRAFT
100
AcDbLine
 62
7
  6
CONTINUOUS
 10
22.2481811776
 20
-70.2782431743
 11
20.8483013827
 21
-70.2782431743
  0
LINE
  5
2D5
100
AcDbEntity
  8
DRAFT
100
AcDbLine
 62
7
  6
CONTINUOUS
 10
-2.1264763833
 20
-70.2782431743
 11
-3.5263561782
 21
-70.2782431743
  0
LINE
  5
2D6
100
AcDbEntity
  8
DRAFT
100
AcDbLine
 62
7
  6
CONTINUOUS
 10
-3.5263561782
 20
-69.6273444729
 11
-2.1264763833
 21
-69.6273444729
  0
LINE
  5
2D7
100
AcDbEntity
  8
DRAFT
100
AcDbLine
 62
7
  6
CONTINUOUS
 10
20.8483013827
 20
-69.6273444729
 11
22.2481811776
 21
-69.6273444729
  0
LINE
  5
2D8
100
AcDbEntity
  8
DRAFT
100
AcDbLine
 62
7
  6
CONTINUOUS
 10
-6.2390875003
 20
-69.4527938236
 11
-4.9390875003
 21
-69.4527938236
  0
LINE
  5
2D9
100
AcDbEntity
  8
DRAFT
100
AcDbLine
 62
7
  6
CONTINUOUS
 10
23.6609124997
 20
-69.4527938236
 11
24.9609124997
 21
-69.4527938236
  0
LINE
  5
2DA
100
AcDbEntity
  8
DRAFT
100
AcDbLine
 62
7
  6
CONTINUOUS
 10
22.1294957756
 20
-69.3899555898
 11
20.6109124997
 21
-69.3899555898
  0
LINE
  5
2DB
100
AcDbEntity
  8
DRAFT
100
AcDbLine
 62
7
  6
CONTINUOUS
 10
-1.8890875003
 20
-69.3899555898
 11
-3.4076707763
 21
-69.3899555898
  0
LINE
  5
2DC
100
AcDbEntity
  8
DRAFT
100
AcDbLine
 62
7
  6
CONTINUOUS
 10
21.1109124997
 20
-98.2527938236
 11
21.1700865004
 21
-98.3119678243
  0
LINE
  5
2DD
100
AcDbEntity
  8
RACCORDO
100
AcDbLine
 62
250
  6
CONTINUOUS
 10
23.2171527864
 20
-98.3089579578
 11
23.1609886521
 21
-98.2527938236
  0
LINE
  5
2DE
100
AcDbEntity
  8
DRAFT
100
AcDbLine
 62
7
  6
CONTINUOUS
 10
-4.9390875003
 20
-69.4527938236
 11
-4.9983079608
 21
-69.3935733631
  0
LINE
  5
2DF
100
AcDbEntity
  8
RACCORDO
100
AcDbLine
 62
250
  6
CONTINUOUS
 10
23.7157752314
 20
-97.8077327077
 11
23.6609124997
 21
-97.752869976
  0
LINE
  5
2E0
100
AcDbEntity
  8
RACCORDO
100
AcDbLine
 62
250
  6
CONTINUOUS
 10
22.9864380028
 20
-96.8782431743
 11
23.1609886521
 21
-97.0527938236
  0
LINE
  5
2E1
100
AcDbEntity
  8
RACCORDO
100
AcDbLine
 62
250
  6
CONTINUOUS
 10
23.4863618504
 20
-96.3783193267
 11
23.6609124997
 21
-96.552869976
  0
LINE
  5
2E2
100
AcDbEntity
  8
DRAFT
100
AcDbLine
 62
7
  6
CONTINUOUS
 10
-2.1264763833
 20
-70.2782431743
 11
-1.8890875003
 21
-70.5156320573
  0
LINE
  5
2E3
100
AcDbEntity
  8
DRAFT
100
AcDbLine
 62
7
  6
CONTINUOUS
 10
-3.5263561782
 20
-81.7782431743
 11
-3.4076707763
 21
-82.0156320573
  0
LWPOLYLINE
  5
2E4
100
AcDbEntity
  8
0
100
AcDbPolyline
 62
7
  6
CONTINUOUS
 90
22
 70
0
 10
8.1718945497
 20
-102.8472083927
 10
8.2077480358
 20
-102.9205994048
 10
8.2480805232
 20
-102.9910098742
 10
8.2926570496
 20
-103.0581700524
 10
8.3412266652
 20
-103.121828069
 10
8.3935237585
 20
-103.1817508603
 10
8.4492694355
 20
-103.2377250018
 10
8.5081729438
 20
-103.2895574408
 10
8.5699331352
 20
-103.3370761283
 10
8.6342399608
 20
-103.3801305457
 10
8.7007759885
 20
-103.418592128
 10
8.7692179393
 20
-103.4523545802
 10
8.8392382315
 20
-103.4813340878
 10
8.9105065283
 20
-103.5054694212
 10
8.9826912795
 20
-103.5247219344
 10
9.0554612521
 20
-103.5390754594
 10
9.1284870406
 20
-103.5485360977
 10
9.2014425526
 20
-103.5531319112
 10
9.2740064604
 20
-103.5529125148
 10
9.3458636149
 20
-103.5479485734
 10
9.4167064128
 20
-103.5383312078
 10
9.4862361137
 20
-103.5241713111
  0
LINE
  5
2E5
100
AcDbEntity
  8
DRAFT
100
AcDbLine
 62
7
  6
CONTINUOUS
 10
-2.3890875003
 20
-105.2527938236
 11
-2.4253814808
 21
-105.1438233369
  0
LINE
  5
2E6
100
AcDbEntity
  8
0
100
AcDbLine
 62
7
  6
CONTINUOUS
 10
8.1842885271
 20
20.2301662597
 11
8.1497793229
 21
20.1484987595
  0
LWPOLYLINE
  5
2E7
100
AcDbEntity
  8
0
100
AcDbPolyline
 62
7
  6
CONTINUOUS
 90
19
 70
0
 10
10.422796011
 20
19.0425071794
 10
10.3945714677
 20
18.9783787195
 10
10.3624875671
 20
18.9158675482
 10
10.3266397041
 20
18.8552053134
 10
10.2871507474
 20
18.7966367917
 10
10.2441321718
 20
18.7403606991
 10
10.1976721335
 20
18.6865366774
 10
10.1479653237
 20
18.6354304417
 10
10.0951144245
 20
18.5871852012
 10
10.0390398959
 20
18.5418101841
 10
9.9796991286
 20
18.4994100175
 10
9.9174188909
 20
18.4603525481
 10
9.8526971731
 20
18.4250182578
 10
9.785758574
 20
18.3935586905
 10
9.7168358646
 20
18.3661112445
 10
9.6465182609
 20
18.3429026641
 10
9.5751934154
 20
18.3240071567
 10
9.5030157128
 20
18.309412518
 10
9.4302507627
 20
18.2991307759
  0
LWPOLYLINE
  5
2E8
100
AcDbEntity
  8
0
100
AcDbPolyline
 62
7
  6
CONTINUOUS
 90
5
 70
0
 10
10.944668524
 20
18.8050694389
 10
10.9692434418
 20
18.8574442388
 10
11.0118995052
 20
18.9669115464
 10
11.0471146008
 20
19.0789942327
 10
11.0747300146
 20
19.1931871432
  0
LINE
  5
2E9
100
AcDbEntity
  8
DRAFT
100
AcDbLine
 62
7
  6
CONTINUOUS
 10
-3.5263561782
 20
-12.6273444729
 11
-3.4076707763
 21
-12.3899555898
  0
LINE
  5
2EA
100
AcDbEntity
  8
0
100
AcDbLine
 62
7
  6
CONTINUOUS
 10
10.887506687
 20
18.6916302381
 11
10.9414725339
 21
18.7959871816
  0
LINE
  5
2EB
100
AcDbEntity
  8
DRAFT
100
AcDbLine
 62
7
  6
CONTINUOUS
 10
22.2481811776
 20
9.6562920238
 11
22.1294957756
 21
9.5376066219
  0
LINE
  5
2EC
100
AcDbEntity
  8
DRAFT
100
AcDbLine
 62
7
  6
CONTINUOUS
 10
23.6609124997
 20
10.6472061764
 11
23.7201329601
 21
10.7064266369
  0
LINE
  5
2ED
100
AcDbEntity
  8
DRAFT
100
AcDbLine
 62
7
  6
CONTINUOUS
 10
22.2481811776
 20
-92.561879671
 11
22.1294957756
 21
-92.443194269
  0
LINE
  5
2EE
100
AcDbEntity
  8
DRAFT
100
AcDbLine
 62
7
  6
CONTINUOUS
 10
23.6609124997
 20
-93.5527938236
 11
23.7201329601
 21
-93.612014284
  0
LINE
  5
2EF
100
AcDbEntity
  8
DRAFT
100
AcDbLine
 62
7
  6
CONTINUOUS
 10
-3.5263561782
 20
-70.2782431743
 11
-3.4076707763
 21
-70.5156320573
  0
LWPOLYLINE
  5
2F0
100
AcDbEntity
  8
RACCORDO
100
AcDbPolyline
 62
7
  6
CONTINUOUS
 90
7
 70
0
 10
-4.9939502321
 20
14.9021450606
 10
-4.9877851542
 20
14.9798091179
 10
-4.9695673947
 20
15.0559210583
 10
-4.939606164
 20
15.1285823836
 10
-4.8985117308
 20
15.1959454385
 10
-4.8471880507
 20
15.2562617707
 10
-4.7868175263
 20
15.3079295969
  0
LINE
  5
2F1
100
AcDbEntity
  8
DRAFT
100
AcDbLine
 62
7
  6
CONTINUOUS
 10
4.3649157048
 20
15.4472061764
 11
4.348366043
 21
15.3879992502
  0
LWPOLYLINE
  5
2F2
100
AcDbEntity
  8
0
100
AcDbPolyline
 62
7
  6
CONTINUOUS
 90
13
 70
0
 10
8.1497793229
 20
20.1484987595
 10
8.1208794214
 20
20.0652501698
 10
8.0976473972
 20
19.9808022382
 10
8.0801160577
 20
19.8955375784
 10
8.0682925821
 20
19.8098379439
 10
8.0621587749
 20
19.7240825238
 10
8.0616714327
 20
19.6386462682
 10
8.0667628192
 20
19.5538982503
 10
8.077341249
 20
19.4702000725
 10
8.0932917719
 20
19.3879043242
 10
8.1144769574
 20
19.3073530957
 10
8.1407377727
 20
19.2288765573
 10
8.1718945497
 20
19.1527916073
  0
LWPOLYLINE
  5
2F3
100
AcDbEntity
  8
0
100
AcDbPolyline
 62
7
  6
CONTINUOUS
 90
48
 70
0
 10
10.9414725339
 20
18.7959871816
 10
10.979288685
 20
18.9034518486
 10
11.0098515628
 20
19.0126413359
 10
11.0330977273
 20
19.1230693624
 10
11.0489961372
 20
19.2342487456
 10
11.0575479963
 20
19.345693547
 10
11.0587864574
 20
19.4569211943
 10
11.0527761886
 20
19.5674545698
 10
11.0396128029
 20
19.6768240571
 10
11.0194221563
 20
19.7845695358
 10
10.9923595178
 20
19.8902423174
 10
10.9586086159
 20
19.9934070134
 10
10.9183805684
 20
20.0936433274
 10
10.8719126991
 20
20.190547765
 10
10.8194672489
 20
20.2837352536
 10
10.7613299884
 20
20.3728406655
 10
10.6978087375
 20
20.4575202399
 10
10.6292318015
 20
20.5374528957
 10
10.5559463285
 20
20.6123414326
 10
10.4783166
 20
20.6819136149
 10
10.396722259
 20
20.7459231336
 10
10.3115564873
 20
20.8041504453
 10
10.2232241378
 20
20.8564034833
 10
10.1321398339
 20
20.9025182403
 10
10.0387260406
 20
20.9423592201
 10
9.9434111209
 20
20.9758197583
 10
9.8466273823
 20
21.0028222109
 10
9.7488091249
 20
21.0233180117
 10
9.6503906983
 20
21.0372875997
 10
9.5518045776
 20
21.0447402166
 10
9.4534794651
 20
21.0457135784
 10
9.3558384273
 20
21.0402734215
 10
9.2592970753
 20
21.0285129294
 10
9.1642617955
 20
21.0105520397
 10
9.0711280391
 20
20.9865366402
 10
8.9802786773
 20
20.9566376544
 10
8.8920824283
 20
20.9210500251
 10
8.8068923644
 20
20.879991599
 10
8.7250445024
 20
20.8337019198
 10
8.6468564865
 20
20.7824409357
 10
8.572626365
 20
20.7264876275
 10
8.5026314685
 20
20.6661385655
 10
8.4371273925
 20
20.6017064003
 10
8.3763470875
 20
20.5335182974
 10
8.3205000612
 20
20.4619143218
 10
8.2697716939
 20
20.3872457801
 10
8.22432267
 20
20.3098735293
 10
8.1842885271
 20
20.2301662597
  0
LINE
  5
2F4
100
AcDbEntity
  8
DRAFT
100
AcDbLine
 62
7
  6
CONTINUOUS
 10
-3.5263561782
 20
-24.1273444729
 11
-3.4076707763
 21
-23.8899555898
  0
LINE
  5
2F5
100
AcDbEntity
  8
DRAFT
100
AcDbLine
 62
7
  6
CONTINUOUS
 10
-4.9390875003
 20
-24.9527938236
 11
-4.9983079608
 21
-25.012014284
  0
LINE
  5
2F6
100
AcDbEntity
  8
DRAFT
100
AcDbLine
 62
7
  6
CONTINUOUS
 10
-2.1264763833
 20
-24.1273444729
 11
-1.8890875003
 21
-23.8899555898
  0
LINE
  5
2F7
100
AcDbEntity
  8
DRAFT
100
AcDbLine
 62
7
  6
CONTINUOUS
 10
20.8483013827
 20
-1.7782431743
 11
20.6109124997
 21
-2.0156320573
  0
LINE
  5
2F8
100
AcDbEntity
  8
DRAFT
100
AcDbLine
 62
7
  6
CONTINUOUS
 10
23.6609124997
 20
-0.9527938236
 11
23.7201329601
 21
-0.8935733631
  0
LINE
  5
2F9
100
AcDbEntity
  8
DRAFT
100
AcDbLine
 62
7
  6
CONTINUOUS
 10
24.9609124997
 20
-13.4527938236
 11
24.8074426411
 21
-13.5039088752
  0
LINE
  5
2FA
100
AcDbEntity
  8
DRAFT
100
AcDbLine
 62
7
  6
CONTINUOUS
 10
-6.2390875003
 20
-23.9527938236
 11
-6.0856176417
 21
-23.9016787719
  0
LINE
  5
2FB
100
AcDbEntity
  8
DRAFT
100
AcDbLine
 62
7
  6
CONTINUOUS
 10
24.9609124997
 20
-69.4527938236
 11
24.8074426411
 21
-69.4016787719
  0
LINE
  5
2FC
100
AcDbEntity
  8
DRAFT
100
AcDbLine
 62
7
  6
CONTINUOUS
 10
-6.2390875003
 20
-58.9527938236
 11
-6.0856176417
 21
-59.0039088752
  0
LINE
  5
2FD
100
AcDbEntity
  8
DRAFT
100
AcDbLine
 62
7
  6
CONTINUOUS
 10
-2.1264763833
 20
-58.7782431743
 11
-1.8890875003
 21
-59.0156320573
  0
LINE
  5
2FE
100
AcDbEntity
  8
DRAFT
100
AcDbLine
 62
7
  6
CONTINUOUS
 10
20.8483013827
 20
-81.1273444729
 11
20.6109124997
 21
-80.8899555898
  0
LINE
  5
2FF
100
AcDbEntity
  8
DRAFT
100
AcDbLine
 62
7
  6
CONTINUOUS
 10
23.6609124997
 20
-81.9527938236
 11
23.7201329601
 21
-82.012014284
  0
LINE
  5
300
100
AcDbEntity
  8
DRAFT
100
AcDbLine
 62
7
  6
CONTINUOUS
 10
-3.5263561782
 20
-58.7782431743
 11
-3.4076707763
 21
-59.0156320573
  0
LINE
  5
301
100
AcDbEntity
  8
DRAFT
100
AcDbLine
 62
7
  6
CONTINUOUS
 10
4.3649157048
 20
-98.3527938236
 11
4.348366043
 21
-98.2935868973
  0
LINE
  5
302
100
AcDbEntity
  8
RACCORDO
100
AcDbLine
 62
7
  6
CONTINUOUS
 10
-4.9909705279
 20
-40.5978270054
 11
-4.9983079608
 21
-40.5120904364
  0
LINE
  5
303
100
AcDbEntity
  8
SUPERFICI
100
AcDbLine
 62
7
  6
CONTINUOUS
 10
-6.1170987549
 20
19.3472061764
 11
-6.1102411058
 21
18.0808145807
  0
LINE
  5
304
100
AcDbEntity
  8
SUPERFICI
100
AcDbLine
 62
7
  6
CONTINUOUS
 10
-6.1102411058
 20
18.0808145807
 11
-6.0992301025
 21
15.5901574936
  0
LINE
  5
305
100
AcDbEntity
  8
SUPERFICI
100
AcDbLine
 62
7
  6
CONTINUOUS
 10
-6.0992301025
 20
15.5901574936
 11
-6.0903997492
 21
13.0429216147
  0
LINE
  5
306
100
AcDbEntity
  8
SUPERFICI
100
AcDbLine
 62
7
  6
CONTINUOUS
 10
-6.0903997492
 20
13.0429216147
 11
-6.0856911145
 21
11.3137219655
  0
LWPOLYLINE
  5
307
100
AcDbEntity
  8
RACCORDO
100
AcDbPolyline
 62
7
  6
CONTINUOUS
 90
3
 70
0
 10
-4.9951084778
 20
-97.0173331283
 10
-4.9945430132
 20
-97.413159747
 10
-4.9939502321
 20
-97.8077327077
  0
LINE
  5
308
100
AcDbEntity
  8
RACCORDO
100
AcDbLine
 62
7
  6
CONTINUOUS
 10
-4.9961572317
 20
-96.2219110676
 11
-4.9951084778
 21
-97.0173331283
  0
LWPOLYLINE
  5
309
100
AcDbEntity
  8
RACCORDO
100
AcDbPolyline
 62
7
  6
CONTINUOUS
 90
3
 70
0
 10
-4.9975274069
 20
-95.0194422639
 10
-4.9970971708
 20
-95.4214900745
 10
-4.9961572317
 20
-96.2219110676
  0
LINE
  5
30A
100
AcDbEntity
  8
RACCORDO
100
AcDbLine
 62
7
  6
CONTINUOUS
 10
-4.9983079608
 20
-94.2116563153
 11
-4.9975274069
 21
-95.0194422639
  0
LINE
  5
30B
100
AcDbEntity
  8
0
100
AcDbLine
 62
7
  6
CONTINUOUS
 10
-7.9390875003
 20
-102.2527938236
 11
-7.9390875003
 21
19.3472061764
  0
LINE
  5
30C
100
AcDbEntity
  8
DRAFT
100
AcDbLine
 62
7
  6
CONTINUOUS
 10
-6.2390875003
 20
19.3472061764
 11
-6.2390875003
 21
10.6472061764
  0
LINE
  5
30D
100
AcDbEntity
  8
DRAFT
100
AcDbLine
 62
7
  6
CONTINUOUS
 10
-6.2390875003
 20
9.6472061764
 11
-6.2390875003
 21
-0.9527938236
  0
LINE
  5
30E
100
AcDbEntity
  8
DRAFT
100
AcDbLine
 62
7
  6
CONTINUOUS
 10
-6.2390875003
 20
-1.9527938236
 11
-6.2390875003
 21
-12.4527938236
  0
LINE
  5
30F
100
AcDbEntity
  8
DRAFT
100
AcDbLine
 62
7
  6
CONTINUOUS
 10
-6.2390875003
 20
-13.4527938236
 11
-6.2390875003
 21
-23.9527938236
  0
LINE
  5
310
100
AcDbEntity
  8
DRAFT
100
AcDbLine
 62
7
  6
CONTINUOUS
 10
-6.2390875003
 20
-24.9527938236
 11
-6.2390875003
 21
-35.5527938236
  0
LINE
  5
311
100
AcDbEntity
  8
DRAFT
100
AcDbLine
 62
7
  6
CONTINUOUS
 10
-6.2390875003
 20
-36.5527938236
 11
-6.2390875003
 21
-46.3527938236
  0
LINE
  5
312
100
AcDbEntity
  8
DRAFT
100
AcDbLine
 62
7
  6
CONTINUOUS
 10
-6.2390875003
 20
-47.3527938236
 11
-6.2390875003
 21
-57.9527938236
  0
LINE
  5
313
100
AcDbEntity
  8
DRAFT
100
AcDbLine
 62
7
  6
CONTINUOUS
 10
-6.2390875003
 20
-58.9527938236
 11
-6.2390875003
 21
-69.4527938236
  0
LINE
  5
314
100
AcDbEntity
  8
DRAFT
100
AcDbLine
 62
7
  6
CONTINUOUS
 10
-6.2390875003
 20
-70.4527938236
 11
-6.2390875003
 21
-80.9527938236
  0
LINE
  5
315
100
AcDbEntity
  8
DRAFT
100
AcDbLine
 62
7
  6
CONTINUOUS
 10
-6.2390875003
 20
-81.9527938236
 11
-6.2390875003
 21
-92.5527938236
  0
LINE
  5
316
100
AcDbEntity
  8
DRAFT
100
AcDbLine
 62
7
  6
CONTINUOUS
 10
-6.2390875003
 20
-93.5527938236
 11
-6.2390875003
 21
-102.2527938236
  0
LINE
  5
317
100
AcDbEntity
  8
DRAFT
100
AcDbLine
 62
7
  6
CONTINUOUS
 10
-6.0856176417
 20
-92.5016787719
 11
-6.0856176417
 21
-82.0039088752
  0
LINE
  5
318
100
AcDbEntity
  8
DRAFT
100
AcDbLine
 62
7
  6
CONTINUOUS
 10
-6.0856176417
 20
-80.9016787719
 11
-6.0856176417
 21
-70.5039088752
  0
LINE
  5
319
100
AcDbEntity
  8
DRAFT
100
AcDbLine
 62
7
  6
CONTINUOUS
 10
-6.0856176417
 20
-69.4016787719
 11
-6.0856176417
 21
-59.0039088752
  0
LINE
  5
31A
100
AcDbEntity
  8
DRAFT
100
AcDbLine
 62
7
  6
CONTINUOUS
 10
-6.0856176417
 20
-57.9016787719
 11
-6.0856176417
 21
-47.4039088752
  0
LINE
  5
31B
100
AcDbEntity
  8
DRAFT
100
AcDbLine
 62
7
  6
CONTINUOUS
 10
-6.0856176417
 20
-46.3016787719
 11
-6.0856176417
 21
-36.6039088752
  0
LINE
  5
31C
100
AcDbEntity
  8
DRAFT
100
AcDbLine
 62
7
  6
CONTINUOUS
 10
-6.0856176417
 20
-35.5016787719
 11
-6.0856176417
 21
-25.0039088752
  0
LINE
  5
31D
100
AcDbEntity
  8
DRAFT
100
AcDbLine
 62
7
  6
CONTINUOUS
 10
-6.0856176417
 20
-23.9016787719
 11
-6.0856176417
 21
-13.5039088752
  0
LINE
  5
31E
100
AcDbEntity
  8
DRAFT
100
AcDbLine
 62
7
  6
CONTINUOUS
 10
-6.0856176417
 20
-12.4016787719
 11
-6.0856176417
 21
-2.0039088752
  0
LINE
  5
31F
100
AcDbEntity
  8
DRAFT
100
AcDbLine
 62
7
  6
CONTINUOUS
 10
-6.0856176417
 20
-0.9016787719
 11
-6.0856176417
 21
9.5960911248
  0
LINE
  5
320
100
AcDbEntity
  8
DRAFT
100
AcDbLine
 62
7
  6
CONTINUOUS
 10
-6.0856176417
 20
10.6983212281
 11
-6.0856911145
 21
11.3137219655
  0
LINE
  5
321
100
AcDbEntity
  8
DRAFT
100
AcDbLine
 62
7
  6
CONTINUOUS
 10
-5.0567284705
 20
-41.0116809605
 11
-5.0567284705
 21
-41.8939066866
  0
LINE
  5
322
100
AcDbEntity
  8
DRAFT
100
AcDbLine
 62
7
  6
CONTINUOUS
 10
-4.9983079608
 20
11.3060686681
 11
-4.9983079608
 21
10.7064266369
  0
LINE
  5
323
100
AcDbEntity
  8
DRAFT
100
AcDbLine
 62
7
  6
CONTINUOUS
 10
-4.9983079608
 20
9.587985716
 11
-4.9983079608
 21
-0.8935733631
  0
LINE
  5
324
100
AcDbEntity
  8
DRAFT
100
AcDbLine
 62
7
  6
CONTINUOUS
 10
-4.9983079608
 20
-2.012014284
 11
-4.9983079608
 21
-12.3935733631
  0
LINE
  5
325
100
AcDbEntity
  8
DRAFT
100
AcDbLine
 62
7
  6
CONTINUOUS
 10
-4.9983079608
 20
-13.512014284
 11
-4.9983079608
 21
-23.8935733631
  0
LINE
  5
326
100
AcDbEntity
  8
DRAFT
100
AcDbLine
 62
7
  6
CONTINUOUS
 10
-4.9983079608
 20
-25.012014284
 11
-4.9983079608
 21
-35.4935733631
  0
LINE
  5
327
100
AcDbEntity
  8
RACCORDO
100
AcDbLine
 62
7
  6
CONTINUOUS
 10
-4.9983079608
 20
-36.612014284
 11
-4.9983079608
 21
-40.5120904364
  0
LINE
  5
328
100
AcDbEntity
  8
RACCORDO
100
AcDbLine
 62
7
  6
CONTINUOUS
 10
-4.9983079608
 20
-42.3934972107
 11
-4.9983079608
 21
-46.2935733631
  0
LINE
  5
329
100
AcDbEntity
  8
DRAFT
100
AcDbLine
 62
7
  6
CONTINUOUS
 10
-4.9983079608
 20
-47.412014284
 11
-4.9983079608
 21
-57.8935733631
  0
LINE
  5
32A
100
AcDbEntity
  8
DRAFT
100
AcDbLine
 62
7
  6
CONTINUOUS
 10
-4.9983079608
 20
-59.012014284
 11
-4.9983079608
 21
-69.3935733631
  0
LINE
  5
32B
100
AcDbEntity
  8
DRAFT
100
AcDbLine
 62
7
  6
CONTINUOUS
 10
-4.9983079608
 20
-70.512014284
 11
-4.9983079608
 21
-80.8935733631
  0
LINE
  5
32C
100
AcDbEntity
  8
DRAFT
100
AcDbLine
 62
7
  6
CONTINUOUS
 10
-4.9983079608
 20
-82.012014284
 11
-4.9983079608
 21
-92.4935733631
  0
LINE
  5
32D
100
AcDbEntity
  8
DRAFT
100
AcDbLine
 62
7
  6
CONTINUOUS
 10
-4.9983079608
 20
-93.612014284
 11
-4.9983079608
 21
-94.2116563153
  0
LINE
  5
32E
100
AcDbEntity
  8
RACCORDO
100
AcDbLine
 62
7
  6
CONTINUOUS
 10
-4.9390875003
 20
-97.752869976
 11
-4.9390875003
 21
-96.552869976
  0
LINE
  5
32F
100
AcDbEntity
  8
DRAFT
100
AcDbLine
 62
7
  6
CONTINUOUS
 10
-4.9390875003
 20
-93.5527938236
 11
-4.9390875003
 21
-92.5527938236
  0
LINE
  5
330
100
AcDbEntity
  8
DRAFT
100
AcDbLine
 62
7
  6
CONTINUOUS
 10
-4.9390875003
 20
-81.9527938236
 11
-4.9390875003
 21
-80.9527938236
  0
LINE
  5
331
100
AcDbEntity
  8
DRAFT
100
AcDbLine
 62
7
  6
CONTINUOUS
 10
-4.9390875003
 20
-70.4527938236
 11
-4.9390875003
 21
-69.4527938236
  0
LINE
  5
332
100
AcDbEntity
  8
DRAFT
100
AcDbLine
 62
7
  6
CONTINUOUS
 10
-4.9390875003
 20
-58.9527938236
 11
-4.9390875003
 21
-57.9527938236
  0
LINE
  5
333
100
AcDbEntity
  8
DRAFT
100
AcDbLine
 62
7
  6
CONTINUOUS
 10
-4.9390875003
 20
-47.3527938236
 11
-4.9390875003
 21
-46.3527938236
  0
LINE
  5
334
100
AcDbEntity
  8
RACCORDO
100
AcDbLine
 62
7
  6
CONTINUOUS
 10
-4.9390875003
 20
-43.3527176712
 11
-4.9390875003
 21
-42.4527176712
  0
LINE
  5
335
100
AcDbEntity
  8
RACCORDO
100
AcDbLine
 62
7
  6
CONTINUOUS
 10
-4.9390875003
 20
-40.452869976
 11
-4.9390875003
 21
-39.552869976
  0
LINE
  5
336
100
AcDbEntity
  8
DRAFT
100
AcDbLine
 62
7
  6
CONTINUOUS
 10
-4.9390875003
 20
-36.5527938236
 11
-4.9390875003
 21
-35.5527938236
  0
LINE
  5
337
100
AcDbEntity
  8
DRAFT
100
AcDbLine
 62
7
  6
CONTINUOUS
 10
-4.9390875003
 20
-24.9527938236
 11
-4.9390875003
 21
-23.9527938236
  0
LINE
  5
338
100
AcDbEntity
  8
DRAFT
100
AcDbLine
 62
7
  6
CONTINUOUS
 10
-4.9390875003
 20
-13.4527938236
 11
-4.9390875003
 21
-12.4527938236
  0
LINE
  5
339
100
AcDbEntity
  8
DRAFT
100
AcDbLine
 62
7
  6
CONTINUOUS
 10
-4.9390875003
 20
-1.9527938236
 11
-4.9390875003
 21
-0.9527938236
  0
LINE
  5
33A
100
AcDbEntity
  8
DRAFT
100
AcDbLine
 62
7
  6
CONTINUOUS
 10
-4.9390875003
 20
9.6472061764
 11
-4.9390875003
 21
10.6472061764
  0
LINE
  5
33B
100
AcDbEntity
  8
RACCORDO
100
AcDbLine
 62
7
  6
CONTINUOUS
 10
-4.9390875003
 20
13.6472823288
 11
-4.9390875003
 21
14.8472823288
  0
LINE
  5
33C
100
AcDbEntity
  8
RACCORDO
100
AcDbLine
 62
7
  6
CONTINUOUS
 10
-4.764536851
 20
-96.3783193267
 11
-4.764536851
 21
-43.5272683204
  0
LINE
  5
33D
100
AcDbEntity
  8
RACCORDO
100
AcDbLine
 62
7
  6
CONTINUOUS
 10
-4.764536851
 20
-39.3783193267
 11
-4.764536851
 21
13.4727316796
  0
LINE
  5
33E
100
AcDbEntity
  8
DRAFT
100
AcDbLine
 62
7
  6
CONTINUOUS
 10
-6.0856911145
 20
-94.2193096127
 11
-6.0856176417
 21
-93.6039088752
  0
LINE
  5
33F
100
AcDbEntity
  8
RACCORDO
100
AcDbLine
 62
7
  6
CONTINUOUS
 10
-4.9939502321
 20
14.9021450606
 11
-4.9983079608
 21
11.3060686681
  0
LINE
  5
340
100
AcDbEntity
  8
0
100
AcDbLine
 62
7
  6
CONTINUOUS
 10
-6.0960511841
 20
-97.6528728053
 11
-6.0856911145
 21
-94.2193096127
  0
LINE
  5
341
100
AcDbEntity
  8
0
100
AcDbLine
 62
7
  6
CONTINUOUS
 10
-6.1102411058
 20
-100.9864022278
 11
-6.0960511841
 21
-97.6528728053
  0
LINE
  5
342
100
AcDbEntity
  8
0
100
AcDbLine
 62
7
  6
CONTINUOUS
 10
-6.1170987549
 20
-102.2527938236
 11
-6.1102411058
 21
-100.9864022278
  0
LWPOLYLINE
  5
343
100
AcDbEntity
  8
0
100
AcDbPolyline
 62
7
  6
CONTINUOUS
 90
10
 70
0
 10
-2.1335805003
 20
0.5116741188
 10
-2.139846668
 20
0.4347614117
 10
-2.1594084132
 20
0.3660292948
 10
-2.192265736
 20
0.305477768
 10
-2.2404382401
 20
0.2522284054
 10
-2.3019063218
 20
0.207159633
 10
-2.3706111697
 20
0.1729067284
 10
-2.4445331803
 20
0.1503481177
 10
-2.5256919572
 20
0.1386053748
 10
-2.6140875003
 20
0.1376784998
  0
LWPOLYLINE
  5
344
100
AcDbEntity
  8
RACCORDO
100
AcDbPolyline
 62
7
  6
CONTINUOUS
 90
9
 70
0
 10
-4.9983079608
 20
-42.3934972107
 10
-4.9909705279
 20
-42.3077606418
 10
-4.969009948
 20
-42.2241809304
 10
-4.9329169098
 20
-42.1452897881
 10
-4.8835948057
 20
-42.0734589484
 10
-4.8224115703
 20
-42.0110351705
 10
-4.7512518325
 20
-41.9601831937
 10
-4.6723139802
 20
-41.9225477828
 10
-4.587964882
 20
-41.8992823767
  0
LINE
  5
345
100
AcDbEntity
  8
DRAFT
100
AcDbLine
 62
7
  6
CONTINUOUS
 10
12.5109124997
 20
14.8472061764
 11
12.5339501043
 21
14.9072211883
  0
LINE
  5
346
100
AcDbEntity
  8
DRAFT
100
AcDbLine
 62
7
  6
CONTINUOUS
 10
15.5095662897
 20
12.1472061764
 11
15.5336203579
 21
12.2098691664
  0
LINE
  5
347
100
AcDbEntity
  8
DRAFT
100
AcDbLine
 62
7
  6
CONTINUOUS
 10
-4.9390875003
 20
-36.5527938236
 11
-4.9983079608
 21
-36.612014284
  0
LINE
  5
348
100
AcDbEntity
  8
DRAFT
100
AcDbLine
 62
7
  6
CONTINUOUS
 10
22.1294957756
 20
-59.0156320573
 11
20.6109124997
 21
-59.0156320573
  0
LINE
  5
349
100
AcDbEntity
  8
DRAFT
100
AcDbLine
 62
7
  6
CONTINUOUS
 10
-3.4076707763
 20
-59.0156320573
 11
-1.8890875003
 21
-59.0156320573
  0
LINE
  5
34A
100
AcDbEntity
  8
DRAFT
100
AcDbLine
 62
7
  6
CONTINUOUS
 10
24.9609124997
 20
-58.9527938236
 11
23.6609124997
 21
-58.9527938236
  0
LINE
  5
34B
100
AcDbEntity
  8
DRAFT
100
AcDbLine
 62
7
  6
CONTINUOUS
 10
-4.9390875003
 20
-58.9527938236
 11
-6.2390875003
 21
-58.9527938236
  0
LINE
  5
34C
100
AcDbEntity
  8
DRAFT
100
AcDbLine
 62
7
  6
CONTINUOUS
 10
22.2481811776
 20
-58.7782431743
 11
20.8483013827
 21
-58.7782431743
  0
LINE
  5
34D
100
AcDbEntity
  8
DRAFT
100
AcDbLine
 62
7
  6
CONTINUOUS
 10
-2.1264763833
 20
-58.7782431743
 11
-3.5263561782
 21
-58.7782431743
  0
LINE
  5
34E
100
AcDbEntity
  8
DRAFT
100
AcDbLine
 62
7
  6
CONTINUOUS
 10
-3.5263561782
 20
-58.1273444729
 11
-2.1264763833
 21
-58.1273444729
  0
LINE
  5
34F
100
AcDbEntity
  8
DRAFT
100
AcDbLine
 62
7
  6
CONTINUOUS
 10
20.8483013827
 20
-58.1273444729
 11
22.2481811776
 21
-58.1273444729
  0
LINE
  5
350
100
AcDbEntity
  8
DRAFT
100
AcDbLine
 62
7
  6
CONTINUOUS
 10
-6.2390875003
 20
-57.9527938236
 11
-4.9390875003
 21
-57.9527938236
  0
LINE
  5
351
100
AcDbEntity
  8
DRAFT
100
AcDbLine
 62
7
  6
CONTINUOUS
 10
23.6609124997
 20
-57.9527938236
 11
24.9609124997
 21
-57.9527938236
  0
LINE
  5
352
100
AcDbEntity
  8
DRAFT
100
AcDbLine
 62
7
  6
CONTINUOUS
 10
22.1294957756
 20
-57.8899555898
 11
20.6109124997
 21
-57.8899555898
  0
LINE
  5
353
100
AcDbEntity
  8
DRAFT
100
AcDbLine
 62
7
  6
CONTINUOUS
 10
-1.8890875003
 20
-57.8899555898
 11
-3.4076707763
 21
-57.8899555898
  0
LINE
  5
354
100
AcDbEntity
  8
DRAFT
100
AcDbLine
 62
7
  6
CONTINUOUS
 10
12.5109124997
 20
-97.7527938236
 11
12.5339501043
 21
-97.8128088355
  0
LWPOLYLINE
  5
355
100
AcDbEntity
  8
DRAFT
100
AcDbPolyline
 62
7
  6
CONTINUOUS
 90
10
 70
0
 10
2.0459361943
 20
-102.9986074075
 10
2.08269676
 20
-103.2530737394
 10
2.1325890365
 20
-103.504076182
 10
2.1956130239
 20
-103.751618321
 10
2.2720309512
 20
-103.9964755025
 10
2.3615805894
 20
-104.2378788783
 10
2.4634752509
 20
-104.4735276188
 10
2.5774527067
 20
-104.7026711988
 10
2.7037751858
 20
-104.9260970882
 10
2.8424426884
 20
-105.1438233369
  0
LINE
  5
356
100
AcDbEntity
  8
RACCORDO
100
AcDbLine
 62
250
  6
CONTINUOUS
 10
-4.7868175263
 20
15.3079295969
 11
-4.9601811677
 21
18.6422443437
  0
LINE
  5
357
100
AcDbEntity
  8
DRAFT
100
AcDbLine
 62
250
  6
CONTINUOUS
 10
-3.9516417173
 20
15.4047657911
 11
-4.019227748
 21
18.3299881337
  0
LWPOLYLINE
  5
358
100
AcDbEntity
  8
SUPERFICI
100
AcDbPolyline
 62
7
  6
CONTINUOUS
 90
7
 70
0
 10
-4.9601811677
 20
18.6422443437
 10
-4.9700323071
 20
19.2290798313
 10
-4.9397375002
 20
19.8088894926
 10
-4.8715764321
 20
20.3768573258
 10
-4.7678050648
 20
20.9282223091
 10
-4.6306557476
 20
21.4582781402
 10
-4.4623373268
 20
21.9623729764
  0
LINE
  5
359
100
AcDbEntity
  8
SUPERFICI
100
AcDbLine
 62
7
  6
CONTINUOUS
 10
-2.9393438422
 20
20.941323226
 11
-2.937427681
 21
20.2907117704
  0
LWPOLYLINE
  5
35A
100
AcDbEntity
  8
SUPERFICI
100
AcDbPolyline
 62
250
  6
CONTINUOUS
 90
7
 70
0
 10
-4.019227748
 20
18.3299881337
 10
-4.0202281755
 20
18.9636353601
 10
-3.9937324804
 20
19.6096166259
 10
-3.9392076052
 20
20.2632732795
 10
-3.8563443718
 20
20.919245966
 10
-3.745076717
 20
21.5714283387
 10
-3.6060071982
 20
22.2133253008
  0
LINE
  5
35B
100
AcDbEntity
  8
SUPERFICI
100
AcDbLine
 62
7
  6
CONTINUOUS
 10
-2.9393438422
 20
20.941323226
 11
-2.9404705034
 21
22.2382356897
  0
LINE
  5
35C
100
AcDbEntity
  8
SUPERFICI
100
AcDbLine
 62
7
  6
CONTINUOUS
 10
-2.9371063688
 20
-102.8700533194
 11
-2.9389538531
 21
-101.5593174442
  0
LINE
  5
35D
100
AcDbEntity
  8
DRAFT
100
AcDbLine
 62
7
  6
CONTINUOUS
 10
-2.9390875003
 20
17.9951934697
 11
-2.9382769317
 21
15.4063801771
  0
LINE
  5
35E
100
AcDbEntity
  8
DRAFT
100
AcDbLine
 62
7
  6
CONTINUOUS
 10
-3.9140875003
 20
-97.0527938236
 11
-3.9140875003
 21
-96.9306083691
  0
LINE
  5
35F
100
AcDbEntity
  8
DRAFT
100
AcDbLine
 62
7
  6
CONTINUOUS
 10
-3.9140875003
 20
-95.9527938236
 11
-3.9140875003
 21
-93.7527938236
  0
LINE
  5
360
100
AcDbEntity
  8
DRAFT
100
AcDbLine
 62
7
  6
CONTINUOUS
 10
-3.9140875003
 20
14.1472061764
 11
-3.9140875003
 21
14.0250207219
  0
LINE
  5
361
100
AcDbEntity
  8
DRAFT
100
AcDbLine
 62
7
  6
CONTINUOUS
 10
-3.9140875003
 20
-46.1527938236
 11
-3.9140875003
 21
-43.9527938236
  0
LINE
  5
362
100
AcDbEntity
  8
DRAFT
100
AcDbLine
 62
7
  6
CONTINUOUS
 10
-3.9140875003
 20
-40.0527938236
 11
-3.9140875003
 21
-39.9306083691
  0
LINE
  5
363
100
AcDbEntity
  8
DRAFT
100
AcDbLine
 62
7
  6
CONTINUOUS
 10
-3.9140875003
 20
-38.9527938236
 11
-3.9140875003
 21
-36.7527938236
  0
LINE
  5
364
100
AcDbEntity
  8
DRAFT
100
AcDbLine
 62
7
  6
CONTINUOUS
 10
-3.9140875003
 20
-42.8527938236
 11
-3.9140875003
 21
-42.9749792781
  0
LINE
  5
365
100
AcDbEntity
  8
DRAFT
100
AcDbLine
 62
7
  6
CONTINUOUS
 10
-3.9140875003
 20
10.8472061764
 11
-3.9140875003
 21
13.0472061764
  0
LINE
  5
366
100
AcDbEntity
  8
DRAFT
100
AcDbLine
 62
7
  6
CONTINUOUS
 10
-3.5263561782
 20
-92.561879671
 11
-3.5263561782
 21
-81.7782431743
  0
LINE
  5
367
100
AcDbEntity
  8
DRAFT
100
AcDbLine
 62
7
  6
CONTINUOUS
 10
-3.5263561782
 20
-81.1273444729
 11
-3.5263561782
 21
-70.2782431743
  0
LINE
  5
368
100
AcDbEntity
  8
DRAFT
100
AcDbLine
 62
7
  6
CONTINUOUS
 10
-3.5263561782
 20
-69.6273444729
 11
-3.5263561782
 21
-58.7782431743
  0
LINE
  5
369
100
AcDbEntity
  8
DRAFT
100
AcDbLine
 62
7
  6
CONTINUOUS
 10
-3.5263561782
 20
-58.1273444729
 11
-3.5263561782
 21
-47.3437079762
  0
LINE
  5
36A
100
AcDbEntity
  8
DRAFT
100
AcDbLine
 62
7
  6
CONTINUOUS
 10
-3.5263561782
 20
-35.561879671
 11
-3.5263561782
 21
-24.7782431743
  0
LINE
  5
36B
100
AcDbEntity
  8
DRAFT
100
AcDbLine
 62
7
  6
CONTINUOUS
 10
-3.5263561782
 20
-24.1273444729
 11
-3.5263561782
 21
-13.2782431743
  0
LINE
  5
36C
100
AcDbEntity
  8
DRAFT
100
AcDbLine
 62
7
  6
CONTINUOUS
 10
-3.5263561782
 20
-12.6273444729
 11
-3.5263561782
 21
-1.7782431743
  0
LINE
  5
36D
100
AcDbEntity
  8
DRAFT
100
AcDbLine
 62
7
  6
CONTINUOUS
 10
-3.5263561782
 20
-1.1273444729
 11
-3.5263561782
 21
9.6562920238
  0
LINE
  5
36E
100
AcDbEntity
  8
DRAFT
100
AcDbLine
 62
7
  6
CONTINUOUS
 10
-3.4076707763
 20
-92.443194269
 11
-3.4076707763
 21
-82.0156320573
  0
LINE
  5
36F
100
AcDbEntity
  8
DRAFT
100
AcDbLine
 62
7
  6
CONTINUOUS
 10
-3.4076707763
 20
-80.8899555898
 11
-3.4076707763
 21
-70.5156320573
  0
LINE
  5
370
100
AcDbEntity
  8
DRAFT
100
AcDbLine
 62
7
  6
CONTINUOUS
 10
-3.4076707763
 20
-69.3899555898
 11
-3.4076707763
 21
-59.0156320573
  0
LINE
  5
371
100
AcDbEntity
  8
DRAFT
100
AcDbLine
 62
7
  6
CONTINUOUS
 10
-3.4076707763
 20
-57.8899555898
 11
-3.4076707763
 21
-47.4623933781
  0
LINE
  5
372
100
AcDbEntity
  8
DRAFT
100
AcDbLine
 62
7
  6
CONTINUOUS
 10
-3.4076707763
 20
-35.443194269
 11
-3.4076707763
 21
-25.0156320573
  0
LINE
  5
373
100
AcDbEntity
  8
DRAFT
100
AcDbLine
 62
7
  6
CONTINUOUS
 10
-3.4076707763
 20
-23.8899555898
 11
-3.4076707763
 21
-13.5156320573
  0
LINE
  5
374
100
AcDbEntity
  8
DRAFT
100
AcDbLine
 62
7
  6
CONTINUOUS
 10
-3.4076707763
 20
-12.3899555898
 11
-3.4076707763
 21
-2.0156320573
  0
LINE
  5
375
100
AcDbEntity
  8
DRAFT
100
AcDbLine
 62
7
  6
CONTINUOUS
 10
-3.4076707763
 20
-0.8899555898
 11
-3.4076707763
 21
9.5376066219
  0
LINE
  5
376
100
AcDbEntity
  8
0
100
AcDbLine
 62
250
  6
CONTINUOUS
 10
-3.2390875003
 20
-105.2527938236
 11
-3.2390875003
 21
-105.1431902617
  0
LINE
  5
377
100
AcDbEntity
  8
SUPERFICI
100
AcDbLine
 62
250
  6
CONTINUOUS
 10
-3.2390875003
 20
22.3472061764
 11
-3.2390875003
 21
22.2376026145
  0
LINE
  5
378
100
AcDbEntity
  8
0
100
AcDbLine
 62
7
  6
CONTINUOUS
 10
-3.2390875003
 20
8.9201831764
 11
-3.2390875003
 21
8.7513121764
  0
LINE
  5
379
100
AcDbEntity
  8
0
100
AcDbLine
 62
7
  6
CONTINUOUS
 10
-3.2390875003
 20
7.8843561764
 11
-3.2390875003
 21
7.7102541764
  0
LINE
  5
37A
100
AcDbEntity
  8
0
100
AcDbLine
 62
7
  6
CONTINUOUS
 10
-3.2390875003
 20
6.9546281764
 11
-3.2390875003
 21
6.7701631764
  0
LINE
  5
37B
100
AcDbEntity
  8
0
100
AcDbLine
 62
7
  6
CONTINUOUS
 10
-3.2390875003
 20
6.3001671764
 11
-3.2390875003
 21
6.1312961764
  0
LINE
  5
37C
100
AcDbEntity
  8
0
100
AcDbLine
 62
7
  6
CONTINUOUS
 10
-3.2390875003
 20
5.5324011764
 11
-3.2390875003
 21
5.3513911764
  0
LINE
  5
37D
100
AcDbEntity
  8
0
100
AcDbLine
 62
7
  6
CONTINUOUS
 10
-3.2390875003
 20
4.5662551764
 11
-3.2390875003
 21
4.3973841764
  0
LINE
  5
37E
100
AcDbEntity
  8
0
100
AcDbLine
 62
7
  6
CONTINUOUS
 10
-3.2390875003
 20
3.4050821764
 11
-3.2390875003
 21
2.4823621764
  0
LINE
  5
37F
100
AcDbEntity
  8
0
100
AcDbLine
 62
7
  6
CONTINUOUS
 10
-3.2390875003
 20
2.2612801764
 11
-3.2390875003
 21
2.0976401764
  0
LINE
  5
380
100
AcDbEntity
  8
0
100
AcDbLine
 62
7
  6
CONTINUOUS
 10
-3.2390875003
 20
1.4586751764
 11
-3.2390875003
 21
1.2689791764
  0
LINE
  5
381
100
AcDbEntity
  8
0
100
AcDbLine
 62
7
  6
CONTINUOUS
 10
-3.2390875003
 20
0.9956861764
 11
-3.2390875003
 21
0.4890735274
  0
LINE
  5
382
100
AcDbEntity
  8
0
100
AcDbLine
 62
7
  6
CONTINUOUS
 10
-3.2390875003
 20
-0.2716848236
 11
-3.2390875003
 21
-0.4527938236
  0
LINE
  5
383
100
AcDbEntity
  8
0
100
AcDbLine
 62
7
  6
CONTINUOUS
 10
-3.0945945003
 20
0.5116741197
 11
-3.0945945003
 21
0.8268151764
  0
LINE
  5
384
100
AcDbEntity
  8
0
100
AcDbLine
 62
7
  6
CONTINUOUS
 10
-3.0893635003
 20
2.4823621764
 11
-3.0893635003
 21
3.2362111764
  0
LINE
  5
385
100
AcDbEntity
  8
0
100
AcDbLine
 62
7
  6
CONTINUOUS
 10
-3.0545235003
 20
-0.4527938236
 11
-3.0545235003
 21
-0.2716848236
  0
LINE
  5
386
100
AcDbEntity
  8
0
100
AcDbLine
 62
7
  6
CONTINUOUS
 10
-3.0545235003
 20
5.3513911764
 11
-3.0545235003
 21
5.5324011764
  0
LINE
  5
387
100
AcDbEntity
  8
SUPERFICI
100
AcDbLine
 62
7
  6
CONTINUOUS
 10
-2.9389538531
 20
-101.5593174442
 11
-2.9390875003
 21
-100.9007811169
  0
LINE
  5
388
100
AcDbEntity
  8
0
100
AcDbLine
 62
250
  6
CONTINUOUS
 10
-2.9390875003
 20
-41.2527938236
 11
-2.9390875003
 21
-41.6527938236
  0
LINE
  5
389
100
AcDbEntity
  8
0
100
AcDbLine
 62
7
  6
CONTINUOUS
 10
-2.8751905003
 20
7.5796771764
 11
-2.8751905003
 21
7.0782961764
  0
LINE
  5
38A
100
AcDbEntity
  8
0
100
AcDbLine
 62
7
  6
CONTINUOUS
 10
-2.7254675003
 20
7.1392901764
 11
-2.7254675003
 21
7.5274671764
  0
LINE
  5
38B
100
AcDbEntity
  8
0
100
AcDbLine
 62
7
  6
CONTINUOUS
 10
-2.7115505003
 20
8.7513121764
 11
-2.7115505003
 21
8.3579028403
  0
LINE
  5
38C
100
AcDbEntity
  8
0
100
AcDbLine
 62
7
  6
CONTINUOUS
 10
-2.7115505003
 20
4.3973841764
 11
-2.7115505003
 21
4.0039746918
  0
LINE
  5
38D
100
AcDbEntity
  8
0
100
AcDbLine
 62
7
  6
CONTINUOUS
 10
-2.6715785003
 20
3.2362111764
 11
-2.6715785003
 21
2.5519431764
  0
LINE
  5
38E
100
AcDbEntity
  8
0
100
AcDbLine
 62
7
  6
CONTINUOUS
 10
-2.5670585003
 20
4.054412462
 11
-2.5670585003
 21
4.3973841764
  0
LINE
  5
38F
100
AcDbEntity
  8
0
100
AcDbLine
 62
7
  6
CONTINUOUS
 10
-2.5670585003
 20
8.4083406105
 11
-2.5670585003
 21
8.7513121764
  0
LINE
  5
390
100
AcDbEntity
  8
0
100
AcDbLine
 62
7
  6
CONTINUOUS
 10
-2.5218545003
 20
2.5519431764
 11
-2.5218545003
 21
3.2362111764
  0
LINE
  5
391
100
AcDbEntity
  8
DRAFT
100
AcDbLine
 62
7
  6
CONTINUOUS
 10
-2.4519257341
 20
-41.0156320573
 11
-2.4519257341
 21
-41.8899555898
  0
LINE
  5
392
100
AcDbEntity
  8
DRAFT
100
AcDbLine
 62
7
  6
CONTINUOUS
 10
-2.3890875003
 20
-105.2527938236
 11
-2.3890875003
 21
-98.2527938236
  0
LINE
  5
393
100
AcDbEntity
  8
DRAFT
100
AcDbLine
 62
7
  6
CONTINUOUS
 10
-2.3890875003
 20
-40.9527938236
 11
-2.3890875003
 21
-41.9527938236
  0
LINE
  5
394
100
AcDbEntity
  8
DRAFT
100
AcDbLine
 62
7
  6
CONTINUOUS
 10
-2.3890875003
 20
15.3472061764
 11
-2.3890875003
 21
22.3472061764
  0
LINE
  5
395
100
AcDbEntity
  8
0
100
AcDbLine
 62
7
  6
CONTINUOUS
 10
-2.1388115003
 20
6.7231831764
 11
-2.1388115003
 21
6.3001671764
  0
LINE
  5
396
100
AcDbEntity
  8
0
100
AcDbLine
 62
7
  6
CONTINUOUS
 10
-2.1388115003
 20
6.1312961764
 11
-2.1388115003
 21
5.7082801764
  0
LINE
  5
397
100
AcDbEntity
  8
0
100
AcDbLine
 62
7
  6
CONTINUOUS
 10
-2.1388115003
 20
3.2362111764
 11
-2.1388115003
 21
2.4945021764
  0
LINE
  5
398
100
AcDbEntity
  8
0
100
AcDbLine
 62
7
  6
CONTINUOUS
 10
-2.1335805003
 20
8.7513121764
 11
-2.1335805003
 21
8.4083372497
  0
LINE
  5
399
100
AcDbEntity
  8
0
100
AcDbLine
 62
7
  6
CONTINUOUS
 10
-2.1335805003
 20
4.3973841764
 11
-2.1335805003
 21
4.0544091012
  0
LINE
  5
39A
100
AcDbEntity
  8
0
100
AcDbLine
 62
7
  6
CONTINUOUS
 10
-2.1335805003
 20
0.8268151764
 11
-2.1335805003
 21
0.5116741188
  0
LINE
  5
39B
100
AcDbEntity
  8
DRAFT
100
AcDbLine
 62
7
  6
CONTINUOUS
 10
-2.1264763833
 20
-1.1273444729
 11
-2.1264763833
 21
-1.7782431743
  0
LINE
  5
39C
100
AcDbEntity
  8
DRAFT
100
AcDbLine
 62
7
  6
CONTINUOUS
 10
-2.1264763833
 20
-12.6273444729
 11
-2.1264763833
 21
-13.2782431743
  0
LINE
  5
39D
100
AcDbEntity
  8
DRAFT
100
AcDbLine
 62
7
  6
CONTINUOUS
 10
-2.1264763833
 20
-24.1273444729
 11
-2.1264763833
 21
-24.7782431743
  0
LINE
  5
39E
100
AcDbEntity
  8
DRAFT
100
AcDbLine
 62
7
  6
CONTINUOUS
 10
-2.1264763833
 20
-58.1273444729
 11
-2.1264763833
 21
-58.7782431743
  0
LINE
  5
39F
100
AcDbEntity
  8
DRAFT
100
AcDbLine
 62
7
  6
CONTINUOUS
 10
-2.1264763833
 20
-69.6273444729
 11
-2.1264763833
 21
-70.2782431743
  0
LINE
  5
3A0
100
AcDbEntity
  8
DRAFT
100
AcDbLine
 62
7
  6
CONTINUOUS
 10
-2.1264763833
 20
-81.1273444729
 11
-2.1264763833
 21
-81.7782431743
  0
LINE
  5
3A1
100
AcDbEntity
  8
0
100
AcDbLine
 62
7
  6
CONTINUOUS
 10
-1.9890875003
 20
0.4890735274
 11
-1.9890875003
 21
0.9956861764
  0
LINE
  5
3A2
100
AcDbEntity
  8
0
100
AcDbLine
 62
7
  6
CONTINUOUS
 10
-1.9890875003
 20
1.2689791764
 11
-1.9890875003
 21
1.4326191764
  0
LINE
  5
3A3
100
AcDbEntity
  8
0
100
AcDbLine
 62
7
  6
CONTINUOUS
 10
-1.9890875003
 20
2.0610241764
 11
-1.9890875003
 21
2.2612801764
  0
LINE
  5
3A4
100
AcDbEntity
  8
0
100
AcDbLine
 62
7
  6
CONTINUOUS
 10
-1.9890875003
 20
2.4945021764
 11
-1.9890875003
 21
3.4050821764
  0
LINE
  5
3A5
100
AcDbEntity
  8
0
100
AcDbLine
 62
7
  6
CONTINUOUS
 10
-1.9890875003
 20
4.0039768041
 11
-1.9890875003
 21
4.5662551764
  0
LINE
  5
3A6
100
AcDbEntity
  8
0
100
AcDbLine
 62
7
  6
CONTINUOUS
 10
-1.9890875003
 20
5.7082801764
 11
-1.9890875003
 21
6.7231831764
  0
LINE
  5
3A7
100
AcDbEntity
  8
0
100
AcDbLine
 62
7
  6
CONTINUOUS
 10
-1.9890875003
 20
7.2227881764
 11
-1.9890875003
 21
7.4142611764
  0
LINE
  5
3A8
100
AcDbEntity
  8
0
100
AcDbLine
 62
7
  6
CONTINUOUS
 10
-1.9890875003
 20
8.3579049526
 11
-1.9890875003
 21
8.9201831764
  0
LINE
  5
3A9
100
AcDbEntity
  8
DRAFT
100
AcDbLine
 62
7
  6
CONTINUOUS
 10
-1.8890875003
 20
-92.4623933781
 11
-1.8890875003
 21
-47.443194269
  0
LINE
  5
3AA
100
AcDbEntity
  8
DRAFT
100
AcDbLine
 62
7
  6
CONTINUOUS
 10
-1.8890875003
 20
-35.4623933781
 11
-1.8890875003
 21
9.556805731
  0
LINE
  5
3AB
100
AcDbEntity
  8
DRAFT
100
AcDbLine
 62
7
  6
CONTINUOUS
 10
-1.3890875003
 20
22.3472061764
 11
-1.3890875003
 21
20.0472061764
  0
LINE
  5
3AC
100
AcDbEntity
  8
DRAFT
100
AcDbLine
 62
7
  6
CONTINUOUS
 10
-1.3890875003
 20
19.0472061764
 11
-1.3890875003
 21
15.3472061764
  0
LINE
  5
3AD
100
AcDbEntity
  8
DRAFT
100
AcDbLine
 62
7
  6
CONTINUOUS
 10
-1.3890875003
 20
-41.9527938236
 11
-1.3890875003
 21
-40.9527938236
  0
LINE
  5
3AE
100
AcDbEntity
  8
DRAFT
100
AcDbLine
 62
7
  6
CONTINUOUS
 10
-1.3890875003
 20
-98.2527938236
 11
-1.3890875003
 21
-101.9527938236
  0
LINE
  5
3AF
100
AcDbEntity
  8
DRAFT
100
AcDbLine
 62
7
  6
CONTINUOUS
 10
-1.3890875003
 20
-102.9527938236
 11
-1.3890875003
 21
-105.2527938236
  0
LINE
  5
3B0
100
AcDbEntity
  8
DRAFT
100
AcDbLine
 62
7
  6
CONTINUOUS
 10
-1.3262492666
 20
-41.8899555898
 11
-1.3262492666
 21
-41.0156320573
  0
LINE
  5
3B1
100
AcDbEntity
  8
DRAFT
100
AcDbLine
 62
7
  6
CONTINUOUS
 10
-2.9390875003
 20
-100.9007811169
 11
-2.9382769317
 21
-98.3119678243
  0
LWPOLYLINE
  5
3B2
100
AcDbEntity
  8
SUPERFICI
100
AcDbPolyline
 62
7
  6
CONTINUOUS
 90
3
 70
0
 10
-2.937427681
 20
20.2907117704
 10
-2.9373949671
 20
19.6376257991
 10
-2.9390875003
 20
17.9951934697
  0
LINE
  5
3B3
100
AcDbEntity
  8
0
100
AcDbLine
 62
7
  6
CONTINUOUS
 10
-2.9393438422
 20
-103.8469108732
 11
-2.9404705034
 21
-105.1438233369
  0
LWPOLYLINE
  5
3B4
100
AcDbEntity
  8
0
100
AcDbPolyline
 62
250
  6
CONTINUOUS
 90
7
 70
0
 10
-4.019227748
 20
-101.2355757809
 10
-4.0202281755
 20
-101.8692230073
 10
-3.9937324804
 20
-102.515204273
 10
-3.9392076052
 20
-103.1688609266
 10
-3.8563443718
 20
-103.8248336131
 10
-3.745076717
 20
-104.4770159859
 10
-3.6060071982
 20
-105.118912948
  0
LWPOLYLINE
  5
3B5
100
AcDbEntity
  8
SUPERFICI
100
AcDbPolyline
 62
7
  6
CONTINUOUS
 90
3
 70
0
 10
-2.9393438422
 20
-103.8469108732
 10
-2.9381735055
 20
-103.5219262079
 10
-2.9371063688
 20
-102.8700533194
  0
LWPOLYLINE
  5
3B6
100
AcDbEntity
  8
0
100
AcDbPolyline
 62
7
  6
CONTINUOUS
 90
10
 70
0
 10
-2.1335805003
 20
8.4083372497
 10
-2.133976719
 20
8.3616720932
 10
-2.140550132
 20
8.3190048871
 10
-2.1533007393
 20
8.2803356314
 10
-2.1725695123
 20
8.2445809824
 10
-2.1980154797
 20
8.2128242837
 10
-2.2286157276
 20
8.1883155666
 10
-2.2640292849
 20
8.1721381746
 10
-2.3045971228
 20
8.1632087641
 10
-2.3503192413
 20
8.1615273351
  0
LWPOLYLINE
  5
3B7
100
AcDbEntity
  8
0
100
AcDbPolyline
 62
7
  6
CONTINUOUS
 90
10
 70
0
 10
-2.1335805003
 20
4.0544091012
 10
-2.133976719
 20
4.0077439447
 10
-2.140550132
 20
3.9650767387
 10
-2.1533007393
 20
3.9264074829
 10
-2.1725695123
 20
3.8906528339
 10
-2.1980154797
 20
3.8588961353
 10
-2.2286157276
 20
3.8343874181
 10
-2.2640292849
 20
3.8182100262
 10
-2.3045971228
 20
3.8092806157
 10
-2.3503192413
 20
3.8075991867
  0
LWPOLYLINE
  5
3B8
100
AcDbEntity
  8
0
100
AcDbPolyline
 62
7
  6
CONTINUOUS
 90
7
 70
0
 10
-4.9601811677
 20
-101.5478319909
 10
-4.9700323071
 20
-102.1346674784
 10
-4.9397375002
 20
-102.7144771397
 10
-4.8715764321
 20
-103.2824449729
 10
-4.7678050648
 20
-103.8338099562
 10
-4.6306557476
 20
-104.3638657874
 10
-4.4623373268
 20
-104.8679606236
  0
LINE
  5
3B9
100
AcDbEntity
  8
DRAFT
100
AcDbLine
 62
250
  6
CONTINUOUS
 10
-3.9516417173
 20
-98.3103534383
 11
-4.019227748
 21
-101.2355757809
  0
LINE
  5
3BA
100
AcDbEntity
  8
RACCORDO
100
AcDbLine
 62
250
  6
CONTINUOUS
 10
-4.7868175263
 20
-98.213517244
 11
-4.9601811677
 21
-101.5478319909
  0
LINE
  5
3BB
100
AcDbEntity
  8
0
100
AcDbLine
 62
7
  6
CONTINUOUS
 10
7.6422071948
 20
19.8766785435
 11
7.6239739169
 21
19.7606173426
  0
LINE
  5
3BC
100
AcDbEntity
  8
DRAFT
100
AcDbLine
 62
7
  6
CONTINUOUS
 10
20.1109124997
 20
22.3472061764
 11
20.0746185192
 21
22.2382356897
  0
LINE
  5
3BD
100
AcDbEntity
  8
DRAFT
100
AcDbLine
 62
7
  6
CONTINUOUS
 10
-3.5263561782
 20
-35.561879671
 11
-3.4076707763
 21
-35.443194269
  0
LINE
  5
3BE
100
AcDbEntity
  8
DRAFT
100
AcDbLine
 62
7
  6
CONTINUOUS
 10
20.8483013827
 20
-13.2782431743
 11
20.6109124997
 21
-13.5156320573
  0
LINE
  5
3BF
100
AcDbEntity
  8
RACCORDO
100
AcDbLine
 62
250
  6
CONTINUOUS
 10
-4.9390875003
 20
-39.552869976
 11
-4.764536851
 21
-39.3783193267
  0
LINE
  5
3C0
100
AcDbEntity
  8
RACCORDO
100
AcDbLine
 62
250
  6
CONTINUOUS
 10
-4.4391636527
 20
-40.0527938236
 11
-4.2646130035
 21
-39.8782431743
  0
LINE
  5
3C1
100
AcDbEntity
  8
DRAFT
100
AcDbLine
 62
7
  6
CONTINUOUS
 10
23.6609124997
 20
-12.4527938236
 11
23.7201329601
 21
-12.3935733631
  0
LINE
  5
3C2
100
AcDbEntity
  8
DRAFT
100
AcDbLine
 62
7
  6
CONTINUOUS
 10
1.2370950971
 20
-35.4527938236
 11
1.2109124997
 21
-35.4658841253
  0
LINE
  5
3C3
100
AcDbEntity
  8
DRAFT
100
AcDbLine
 62
7
  6
CONTINUOUS
 10
24.9609124997
 20
-24.9527938236
 11
24.8074426411
 21
-25.0039088752
  0
LINE
  5
3C4
100
AcDbEntity
  8
DRAFT
100
AcDbLine
 62
7
  6
CONTINUOUS
 10
-6.2390875003
 20
-35.5527938236
 11
-6.0856176417
 21
-35.5016787719
  0
LINE
  5
3C5
100
AcDbEntity
  8
DRAFT
100
AcDbLine
 62
7
  6
CONTINUOUS
 10
24.9609124997
 20
-57.9527938236
 11
24.8074426411
 21
-57.9016787719
  0
LINE
  5
3C6
100
AcDbEntity
  8
DRAFT
100
AcDbLine
 62
7
  6
CONTINUOUS
 10
-6.2390875003
 20
-47.3527938236
 11
-6.0856176417
 21
-47.4039088752
  0
LINE
  5
3C7
100
AcDbEntity
  8
DRAFT
100
AcDbLine
 62
7
  6
CONTINUOUS
 10
1.2370950971
 20
-47.4527938236
 11
1.2109124997
 21
-47.4397035219
  0
LINE
  5
3C8
100
AcDbEntity
  8
DRAFT
100
AcDbLine
 62
7
  6
CONTINUOUS
 10
-3.5263561782
 20
-47.3437079762
 11
-3.4076707763
 21
-47.4623933781
  0
LINE
  5
3C9
100
AcDbEntity
  8
DRAFT
100
AcDbLine
 62
7
  6
CONTINUOUS
 10
20.8483013827
 20
-69.6273444729
 11
20.6109124997
 21
-69.3899555898
  0
LINE
  5
3CA
100
AcDbEntity
  8
RACCORDO
100
AcDbLine
 62
250
  6
CONTINUOUS
 10
-4.764536851
 20
-43.5272683204
 11
-4.9390875003
 21
-43.3527176712
  0
LINE
  5
3CB
100
AcDbEntity
  8
RACCORDO
100
AcDbLine
 62
250
  6
CONTINUOUS
 10
-4.2646130035
 20
-43.0273444729
 11
-4.4391636527
 21
-42.8527938236
  0
LINE
  5
3CC
100
AcDbEntity
  8
DRAFT
100
AcDbLine
 62
7
  6
CONTINUOUS
 10
23.6609124997
 20
-70.4527938236
 11
23.7201329601
 21
-70.512014284
  0
LINE
  5
3CD
100
AcDbEntity
  8
DRAFT
100
AcDbLine
 62
7
  6
CONTINUOUS
 10
20.1109124997
 20
-105.2527938236
 11
20.0746185192
 21
-105.1438233369
  0
LWPOLYLINE
  5
3CE
100
AcDbEntity
  8
0
100
AcDbPolyline
 62
7
  6
CONTINUOUS
 90
10
 70
0
 10
-3.2390875003
 20
0.4890735274
 10
-3.2275759051
 20
0.3814652586
 10
-3.200027113
 20
0.2856103964
 10
-3.1564411238
 20
0.2015089407
 10
-3.094745958
 20
0.1284120991
 10
-3.0170135953
 20
0.067068664
 10
-2.9294599742
 20
0.0197250129
 10
-2.8341570745
 20
-0.0128700617
 10
-2.7290329166
 20
-0.0314653523
 10
-2.6140875003
 20
-0.0360608589
  0
LWPOLYLINE
  5
3CF
100
AcDbEntity
  8
0
100
AcDbPolyline
 62
7
  6
CONTINUOUS
 90
10
 70
0
 10
-2.7115505003
 20
4.0039746918
 10
-2.7061063389
 20
3.9325315368
 10
-2.6913592113
 20
3.8679085267
 10
-2.6673091176
 20
3.8101056615
 10
-2.633116318
 20
3.7581188036
 10
-2.5896205522
 20
3.7129520905
 10
-2.5393410397
 20
3.6776179349
 10
-2.4831175203
 20
3.653120474
 10
-2.4201102542
 20
3.6384555704
 10
-2.3503192413
 20
3.6336232242
  0
LWPOLYLINE
  5
3D0
100
AcDbEntity
  8
0
100
AcDbPolyline
 62
7
  6
CONTINUOUS
 90
10
 70
0
 10
-2.7115505003
 20
8.3579028403
 10
-2.7061063389
 20
8.2864596853
 10
-2.6913592113
 20
8.2218366751
 10
-2.6673091176
 20
8.1640338099
 10
-2.633116318
 20
8.112046952
 10
-2.5896205522
 20
8.066880239
 10
-2.5393410397
 20
8.0315460833
 10
-2.4831175203
 20
8.0070486224
 10
-2.4201102542
 20
7.9923837189
 10
-2.3503192413
 20
7.9875513726
  0
LINE
  5
3D1
100
AcDbEntity
  8
DRAFT
100
AcDbLine
 62
7
  6
CONTINUOUS
 10
1.0189067855
 20
13.0472061764
 11
1.0189067855
 21
10.8472061764
  0
LINE
  5
3D2
100
AcDbEntity
  8
DRAFT
100
AcDbLine
 62
7
  6
CONTINUOUS
 10
1.0189067855
 20
-36.7527938236
 11
1.0189067855
 21
-38.9527938236
  0
LINE
  5
3D3
100
AcDbEntity
  8
DRAFT
100
AcDbLine
 62
7
  6
CONTINUOUS
 10
1.0189067855
 20
-43.9527938236
 11
1.0189067855
 21
-46.1527938236
  0
LINE
  5
3D4
100
AcDbEntity
  8
DRAFT
100
AcDbLine
 62
7
  6
CONTINUOUS
 10
1.0189067855
 20
-93.7527938236
 11
1.0189067855
 21
-95.9527938236
  0
LINE
  5
3D5
100
AcDbEntity
  8
DRAFT
100
AcDbLine
 62
7
  6
CONTINUOUS
 10
1.2480742659
 20
-41.0156320573
 11
1.2480742659
 21
-41.8899555898
  0
LINE
  5
3D6
100
AcDbEntity
  8
DRAFT
100
AcDbLine
 62
7
  6
CONTINUOUS
 10
1.3109124997
 20
-42.8527938236
 11
1.3109124997
 21
-41.9527938236
  0
LINE
  5
3D7
100
AcDbEntity
  8
DRAFT
100
AcDbLine
 62
7
  6
CONTINUOUS
 10
1.3109124997
 20
-40.9527938236
 11
1.3109124997
 21
-40.0527938236
  0
LINE
  5
3D8
100
AcDbEntity
  8
DRAFT
100
AcDbLine
 62
7
  6
CONTINUOUS
 10
1.4330979542
 20
-42.9749792781
 11
1.4330979542
 21
-39.9306083691
  0
LINE
  5
3D9
100
AcDbEntity
  8
RACCORDO
100
AcDbLine
 62
7
  6
CONTINUOUS
 10
2.2363618504
 20
-96.8782431743
 11
2.2363618504
 21
-94.5527938236
  0
LINE
  5
3DA
100
AcDbEntity
  8
RACCORDO
100
AcDbLine
 62
7
  6
CONTINUOUS
 10
2.2363618504
 20
-45.3527938236
 11
2.2363618504
 21
-43.0273444729
  0
LINE
  5
3DB
100
AcDbEntity
  8
RACCORDO
100
AcDbLine
 62
7
  6
CONTINUOUS
 10
2.2363618504
 20
-39.8782431743
 11
2.2363618504
 21
-37.3868945427
  0
LINE
  5
3DC
100
AcDbEntity
  8
RACCORDO
100
AcDbLine
 62
7
  6
CONTINUOUS
 10
2.2363618504
 20
11.4813068956
 11
2.2363618504
 21
13.9726555271
  0
LINE
  5
3DD
100
AcDbEntity
  8
DRAFT
100
AcDbLine
 62
7
  6
CONTINUOUS
 10
2.2887270452
 20
-39.9306083691
 11
2.2887270452
 21
-42.9749792781
  0
LINE
  5
3DE
100
AcDbEntity
  8
RACCORDO
100
AcDbLine
 62
7
  6
CONTINUOUS
 10
2.4109124997
 20
14.8472823288
 11
2.4109124997
 21
14.1472061764
  0
LINE
  5
3DF
100
AcDbEntity
  8
RACCORDO
100
AcDbLine
 62
7
  6
CONTINUOUS
 10
2.4109124997
 20
-97.0527938236
 11
2.4109124997
 21
-97.752869976
  0
LINE
  5
3E0
100
AcDbEntity
  8
DRAFT
100
AcDbLine
 62
7
  6
CONTINUOUS
 10
2.4737507334
 20
-38.1156320573
 11
2.4737507334
 21
-44.8527938236
  0
LINE
  5
3E1
100
AcDbEntity
  8
0
100
AcDbLine
 62
7
  6
CONTINUOUS
 10
4.8609124997
 20
-95.151985735
 11
4.8609124997
 21
-95.0527938236
  0
LINE
  5
3E2
100
AcDbEntity
  8
DRAFT
100
AcDbLine
 62
7
  6
CONTINUOUS
 10
4.8609124997
 20
-47.4527938236
 11
4.8609124997
 21
-47.3698885796
  0
LINE
  5
3E3
100
AcDbEntity
  8
0
100
AcDbLine
 62
7
  6
CONTINUOUS
 10
4.8609124997
 20
-44.8527938236
 11
4.8609124997
 21
-44.7536019122
  0
LINE
  5
3E4
100
AcDbEntity
  8
DRAFT
100
AcDbLine
 62
7
  6
CONTINUOUS
 10
4.8609124997
 20
-38.151985735
 11
4.8609124997
 21
-37.9925738496
  0
LINE
  5
3E5
100
AcDbEntity
  8
DRAFT
100
AcDbLine
 62
7
  6
CONTINUOUS
 10
4.8609124997
 20
-35.4527938236
 11
4.8609124997
 21
-35.5356990676
  0
LINE
  5
3E6
100
AcDbEntity
  8
DRAFT
100
AcDbLine
 62
7
  6
CONTINUOUS
 10
4.8609124997
 20
9.5472061764
 11
4.8609124997
 21
9.6301114204
  0
LINE
  5
3E7
100
AcDbEntity
  8
DRAFT
100
AcDbLine
 62
7
  6
CONTINUOUS
 10
4.8609124997
 20
12.0869862024
 11
4.8609124997
 21
12.2463980878
  0
LINE
  5
3E8
100
AcDbEntity
  8
DRAFT
100
AcDbLine
 62
7
  6
CONTINUOUS
 10
4.8609124997
 20
-92.4527938236
 11
4.8609124997
 21
-92.5356990676
  0
LWPOLYLINE
  5
3E9
100
AcDbEntity
  8
0
100
AcDbPolyline
 62
7
  6
CONTINUOUS
 90
42
 70
0
 10
7.6239739169
 20
19.7606173426
 10
7.6135690025
 20
19.6435942974
 10
7.6110393471
 20
19.5261368293
 10
7.6163963523
 20
19.4087743179
 10
7.6296158745
 20
19.2920357149
 10
7.6506383342
 20
19.1764471601
 10
7.6793689838
 20
19.06252961
 10
7.715678335
 20
18.9507964901
 10
7.7594027425
 20
18.8417513807
 10
7.8103451413
 20
18.7358857472
 10
7.8682759349
 20
18.6336767254
 10
7.9329340302
 20
18.5355849706
 10
8.0040280143
 20
18.442052582
 10
8.0812374676
 20
18.3535011095
 10
8.1642144081
 20
18.2703296543
 10
8.2525848598
 20
18.1929130698
 10
8.3459505382
 20
18.1216002725
 10
8.4438906452
 20
18.0567126689
 10
8.5459637657
 20
17.9985427077
 10
8.6517098573
 20
17.9473525609
 10
8.7606523233
 20
17.9033729427
 10
8.8723001609
 20
17.8668020694
 10
8.9861501743
 20
17.8378047663
 10
9.1016892422
 20
17.8165117248
 10
9.2183966309
 20
17.8030189129
 10
9.3357463409
 20
17.7973871434
 10
9.4532094778
 20
17.7996417992
 10
9.5702566357
 20
17.8097727192
 10
9.6863602837
 20
17.827734244
 10
9.8009971431
 20
17.8534454218
 10
9.913650546
 20
17.886790373
 10
10.0238127637
 20
17.9276188126
 10
10.1309872954
 20
17.9757467277
 10
10.2346911056
 20
18.0309572065
 10
10.3344568012
 20
18.0930014161
 10
10.4298347383
 20
18.1615997241
 10
10.5203950484
 20
18.2364429587
 10
10.6057295761
 20
18.317193802
 10
10.6854537182
 20
18.4034883108
 10
10.759208158
 20
18.4949375563
 10
10.8266604836
 20
18.5911293774
 10
10.887506687
 20
18.6916302381
  0
LWPOLYLINE
  5
3EA
100
AcDbEntity
  8
0
100
AcDbPolyline
 62
7
  6
CONTINUOUS
 90
47
 70
0
 10
11.094621284
 20
19.3089756126
 10
11.1066987592
 20
19.4258377844
 10
11.1109080069
 20
19.543246963
 10
11.1072300558
 20
19.6606739872
 10
11.095681482
 20
19.7775896156
 10
11.0763143344
 20
19.8934669115
 10
11.0492159001
 20
20.0077836179
 10
11.0145083109
 20
20.1200245113
 10
10.972347993
 20
20.2296837238
 10
10.9229249619
 20
20.3362670231
 10
10.8664619661
 20
20.43929404
 10
10.803213483
 20
20.5383004333
 10
10.7334645722
 20
20.6328399825
 10
10.6575295905
 20
20.7224865994
 10
10.5757507754
 20
20.8068362479
 10
10.4884967024
 20
20.8855087652
 10
10.396160624
 20
20.9581495752
 10
10.2991586971
 20
21.0244312868
 10
10.1979281077
 20
21.084055169
 10
10.0929251003
 20
21.1367524976
 10
9.9846229215
 20
21.1822857661
 10
9.8735096874
 20
21.2204497565
 10
9.7600861837
 20
21.2510724638
 10
9.6448636082
 20
21.2740158717
 10
9.5283612672
 20
21.2891765741
 10
9.4111042349
 20
21.2964862415
 10
9.2936209872
 20
21.295911929
 10
9.1764410193
 20
21.2874562245
 10
9.0600924595
 20
21.2711572375
 10
8.9450996894
 20
21.2470884267
 10
8.8319809798
 20
21.2153582695
 10
8.7212461553
 20
21.1761097729
 10
8.6133942963
 20
21.1295198288
 10
8.5089114899
 20
21.0757984173
 10
8.4082686389
 20
21.0151876594
 10
8.3119193395
 20
20.9479607267
 10
8.2202978371
 20
20.8744206098
 10
8.1338170688
 20
20.7948987527
 10
8.0528668028
 20
20.7097535589
 10
7.9778118811
 20
20.6193687765
 10
7.9089905758
 20
20.5241517684
 10
7.846713064
 20
20.424531676
 10
7.7912600302
 20
20.3209574858
 10
7.7428814009
 20
20.2138960051
 10
7.7017952186
 20
20.1038297586
 10
7.6681866586
 20
19.9912548134
 10
7.6422071948
 20
19.8766785435
  0
LINE
  5
3EB
100
AcDbEntity
  8
0
100
AcDbLine
 62
7
  6
CONTINUOUS
 10
11.0747300146
 20
19.1931871432
 11
11.094621284
 21
19.3089756126
  0
LINE
  5
3EC
100
AcDbEntity
  8
DRAFT
100
AcDbLine
 62
7
  6
CONTINUOUS
 10
3.2122587096
 20
-38.0527938236
 11
3.1881373717
 21
-38.1156320573
  0
LINE
  5
3ED
100
AcDbEntity
  8
DRAFT
100
AcDbLine
 62
7
  6
CONTINUOUS
 10
22.2481811776
 20
-1.7782431743
 11
22.1294957756
 21
-2.0156320573
  0
LINE
  5
3EE
100
AcDbEntity
  8
DRAFT
100
AcDbLine
 62
7
  6
CONTINUOUS
 10
-3.5263561782
 20
-58.1273444729
 11
-3.4076707763
 21
-57.8899555898
  0
LINE
  5
3EF
100
AcDbEntity
  8
DRAFT
100
AcDbLine
 62
7
  6
CONTINUOUS
 10
-2.3890875003
 20
-40.9527938236
 11
-2.4519257341
 21
-41.0156320573
  0
LINE
  5
3F0
100
AcDbEntity
  8
DRAFT
100
AcDbLine
 62
7
  6
CONTINUOUS
 10
1.3109124997
 20
-40.0527938236
 11
1.4330979542
 21
-39.9306083691
  0
LINE
  5
3F1
100
AcDbEntity
  8
DRAFT
100
AcDbLine
 62
7
  6
CONTINUOUS
 10
1.3109124997
 20
-40.9527938236
 11
1.2480742659
 21
-41.0156320573
  0
LINE
  5
3F2
100
AcDbEntity
  8
DRAFT
100
AcDbLine
 62
7
  6
CONTINUOUS
 10
-4.9390875003
 20
-47.3527938236
 11
-4.9983079608
 21
-47.412014284
  0
LINE
  5
3F3
100
AcDbEntity
  8
DRAFT
100
AcDbLine
 62
7
  6
CONTINUOUS
 10
1.1934574347
 20
-42.8527938236
 11
1.0712719802
 21
-42.9749792781
  0
LINE
  5
3F4
100
AcDbEntity
  8
DRAFT
100
AcDbLine
 62
7
  6
CONTINUOUS
 10
20.6109037436
 20
-47.4431957271
 11
20.5532639425
 21
-47.4527938236
  0
LINE
  5
3F5
100
AcDbEntity
  8
DRAFT
100
AcDbLine
 62
7
  6
CONTINUOUS
 10
-3.4076707763
 20
-47.4623933781
 11
-1.8890875003
 21
-47.4623933781
  0
LINE
  5
3F6
100
AcDbEntity
  8
DRAFT
100
AcDbLine
 62
7
  6
CONTINUOUS
 10
20.6109124997
 20
-47.4623933781
 11
22.1294957756
 21
-47.4623933781
  0
LINE
  5
3F7
100
AcDbEntity
  8
SUPERFICI
100
AcDbLine
 62
7
  6
CONTINUOUS
 10
12.5334419745
 20
-47.4527938236
 11
6.1883830248
 21
-47.4527938236
  0
LINE
  5
3F8
100
AcDbEntity
  8
DRAFT
100
AcDbLine
 62
7
  6
CONTINUOUS
 10
-1.8314389431
 20
-47.4527938236
 11
-1.4152700977
 21
-47.4527938236
  0
LINE
  5
3F9
100
AcDbEntity
  8
DRAFT
100
AcDbLine
 62
7
  6
CONTINUOUS
 10
1.2370950971
 20
-47.4527938236
 11
4.8609124997
 21
-47.4527938236
  0
LINE
  5
3FA
100
AcDbEntity
  8
DRAFT
100
AcDbLine
 62
7
  6
CONTINUOUS
 10
13.8609124997
 20
-47.4527938236
 11
17.4847299023
 21
-47.4527938236
  0
LINE
  5
3FB
100
AcDbEntity
  8
DRAFT
100
AcDbLine
 62
7
  6
CONTINUOUS
 10
20.1370950971
 20
-47.4527938236
 11
20.5532639425
 21
-47.4527938236
  0
LINE
  5
3FC
100
AcDbEntity
  8
DRAFT
100
AcDbLine
 62
7
  6
CONTINUOUS
 10
20.1109124997
 20
-47.4397035219
 11
17.5109124997
 21
-47.4397035219
  0
LINE
  5
3FD
100
AcDbEntity
  8
DRAFT
100
AcDbLine
 62
7
  6
CONTINUOUS
 10
1.2109124997
 20
-47.4397035219
 11
-1.3890875003
 21
-47.4397035219
  0
LINE
  5
3FE
100
AcDbEntity
  8
DRAFT
100
AcDbLine
 62
7
  6
CONTINUOUS
 10
12.5355123361
 20
-47.4291294825
 11
6.1863126633
 21
-47.4291294825
  0
LINE
  5
3FF
100
AcDbEntity
  8
0
100
AcDbLine
 62
7
  6
CONTINUOUS
 10
6.3609124997
 20
-47.3676068701
 11
12.3609124997
 21
-47.3676068701
  0
LINE
  5
400
100
AcDbEntity
  8
DRAFT
100
AcDbLine
 62
7
  6
CONTINUOUS
 10
24.9609124997
 20
-47.3527938236
 11
23.6609124997
 21
-47.3527938236
  0
LINE
  5
401
100
AcDbEntity
  8
DRAFT
100
AcDbLine
 62
7
  6
CONTINUOUS
 10
-4.9390875003
 20
-47.3527938236
 11
-6.2390875003
 21
-47.3527938236
  0
LINE
  5
402
100
AcDbEntity
  8
0
100
AcDbLine
 62
7
  6
CONTINUOUS
 10
-3.5263561782
 20
-47.3437079762
 11
6.3609124997
 21
-47.3437079762
  0
LINE
  5
403
100
AcDbEntity
  8
0
100
AcDbLine
 62
7
  6
CONTINUOUS
 10
12.3609124997
 20
-47.3437079762
 11
22.2481811776
 21
-47.3437079762
  0
LINE
  5
404
100
AcDbEntity
  8
DRAFT
100
AcDbLine
 62
7
  6
CONTINUOUS
 10
-6.2390875003
 20
-46.3527938236
 11
-4.9390875003
 21
-46.3527938236
  0
LINE
  5
405
100
AcDbEntity
  8
DRAFT
100
AcDbLine
 62
7
  6
CONTINUOUS
 10
23.6609124997
 20
-46.3527938236
 11
24.9609124997
 21
-46.3527938236
  0
LINE
  5
406
100
AcDbEntity
  8
0
100
AcDbLine
 62
7
  6
CONTINUOUS
 10
6.3609124997
 20
-46.3437079762
 11
12.3609124997
 21
-46.3437079762
  0
LINE
  5
407
100
AcDbEntity
  8
DRAFT
100
AcDbLine
 62
7
  6
CONTINUOUS
 10
22.6359124997
 20
-46.1527938236
 11
17.7029182139
 21
-46.1527938236
  0
LINE
  5
408
100
AcDbEntity
  8
DRAFT
100
AcDbLine
 62
7
  6
CONTINUOUS
 10
1.0189067855
 20
-46.1527938236
 11
-3.9140875003
 21
-46.1527938236
  0
LINE
  5
409
100
AcDbEntity
  8
DRAFT
100
AcDbLine
 62
7
  6
CONTINUOUS
 10
-1.8890787442
 20
-47.4431957271
 11
-1.8314389431
 21
-47.4527938236
  0
LINE
  5
40A
100
AcDbEntity
  8
DRAFT
100
AcDbLine
 62
7
  6
CONTINUOUS
 10
-2.3890875003
 20
-41.9527938236
 11
-2.4519257341
 21
-41.8899555898
  0
LINE
  5
40B
100
AcDbEntity
  8
DRAFT
100
AcDbLine
 62
7
  6
CONTINUOUS
 10
-1.3890875003
 20
-40.9527938236
 11
-1.3262492666
 21
-41.0156320573
  0
LINE
  5
40C
100
AcDbEntity
  8
DRAFT
100
AcDbLine
 62
7
  6
CONTINUOUS
 10
1.3109124997
 20
-42.8527938236
 11
1.4330979542
 21
-42.9749792781
  0
LINE
  5
40D
100
AcDbEntity
  8
DRAFT
100
AcDbLine
 62
7
  6
CONTINUOUS
 10
1.3109124997
 20
-41.9527938236
 11
1.2480742659
 21
-41.8899555898
  0
LINE
  5
40E
100
AcDbEntity
  8
DRAFT
100
AcDbLine
 62
7
  6
CONTINUOUS
 10
-4.9390875003
 20
-35.5527938236
 11
-4.9983079608
 21
-35.4935733631
  0
LINE
  5
40F
100
AcDbEntity
  8
DRAFT
100
AcDbLine
 62
7
  6
CONTINUOUS
 10
1.1934574347
 20
-40.0527938236
 11
1.0712719802
 21
-39.9306083691
  0
LINE
  5
410
100
AcDbEntity
  8
DRAFT
100
AcDbLine
 62
7
  6
CONTINUOUS
 10
22.2481811776
 20
-81.1273444729
 11
22.1294957756
 21
-80.8899555898
  0
LINE
  5
411
100
AcDbEntity
  8
DRAFT
100
AcDbLine
 62
7
  6
CONTINUOUS
 10
-3.5263561782
 20
-24.7782431743
 11
-3.4076707763
 21
-25.0156320573
  0
LINE
  5
412
100
AcDbEntity
  8
SUPERFICI
100
AcDbLine
 62
7
  6
CONTINUOUS
 10
6.1883830248
 20
-47.4527938236
 11
6.1863126633
 21
-47.4291294825
  0
LINE
  5
413
100
AcDbEntity
  8
DRAFT
100
AcDbLine
 62
7
  6
CONTINUOUS
 10
6.1863126633
 20
-47.4291294825
 11
6.1811297558
 21
-47.3698885796
  0
LINE
  5
414
100
AcDbEntity
  8
SUPERFICI
100
AcDbLine
 62
7
  6
CONTINUOUS
 10
6.5404681531
 20
-44.8527938236
 11
6.514221554
 21
-44.5527938236
  0
LINE
  5
415
100
AcDbEntity
  8
SUPERFICI
100
AcDbLine
 62
7
  6
CONTINUOUS
 10
12.1813568463
 20
-95.0527938236
 11
12.2076034453
 21
-95.3527938236
  0
LINE
  5
416
100
AcDbEntity
  8
DRAFT
100
AcDbLine
 62
7
  6
CONTINUOUS
 10
12.5355123361
 20
-92.4764581647
 11
12.5406952435
 21
-92.5356990676
  0
LINE
  5
417
100
AcDbEntity
  8
0
100
AcDbLine
 62
7
  6
CONTINUOUS
 10
6.1109124997
 20
26.0472061764
 11
6.1109124997
 21
24.3472061764
  0
LINE
  5
418
100
AcDbEntity
  8
0
100
AcDbLine
 62
7
  6
CONTINUOUS
 10
6.1109124997
 20
-107.2527938236
 11
6.1109124997
 21
-108.9527938236
  0
LINE
  5
419
100
AcDbEntity
  8
0
100
AcDbLine
 62
7
  6
CONTINUOUS
 10
6.3609124997
 20
10.6562920238
 11
6.3609124997
 21
9.6562920238
  0
LINE
  5
41A
100
AcDbEntity
  8
0
100
AcDbLine
 62
7
  6
CONTINUOUS
 10
6.3609124997
 20
-35.561879671
 11
6.3609124997
 21
-36.561879671
  0
LINE
  5
41B
100
AcDbEntity
  8
0
100
AcDbLine
 62
7
  6
CONTINUOUS
 10
6.3609124997
 20
-46.3437079762
 11
6.3609124997
 21
-47.3437079762
  0
LINE
  5
41C
100
AcDbEntity
  8
0
100
AcDbLine
 62
7
  6
CONTINUOUS
 10
6.3609124997
 20
-92.561879671
 11
6.3609124997
 21
-93.561879671
  0
LINE
  5
41D
100
AcDbEntity
  8
DRAFT
100
AcDbLine
 62
7
  6
CONTINUOUS
 10
8.7980742659
 20
-40.8156320573
 11
8.7980742659
 21
-42.0899555898
  0
LINE
  5
41E
100
AcDbEntity
  8
DRAFT
100
AcDbLine
 62
7
  6
CONTINUOUS
 10
8.8609124997
 20
-98.3527938236
 11
8.8609124997
 21
-97.7527938236
  0
LINE
  5
41F
100
AcDbEntity
  8
DRAFT
100
AcDbLine
 62
7
  6
CONTINUOUS
 10
8.8609124997
 20
-42.1527938236
 11
8.8609124997
 21
-40.7527938236
  0
LINE
  5
420
100
AcDbEntity
  8
DRAFT
100
AcDbLine
 62
7
  6
CONTINUOUS
 10
8.8609124997
 20
14.8472061764
 11
8.8609124997
 21
15.4472061764
  0
LINE
  5
421
100
AcDbEntity
  8
DRAFT
100
AcDbLine
 62
7
  6
CONTINUOUS
 10
9.8609124997
 20
15.4472061764
 11
9.8609124997
 21
14.8472061764
  0
LINE
  5
422
100
AcDbEntity
  8
DRAFT
100
AcDbLine
 62
7
  6
CONTINUOUS
 10
9.8609124997
 20
-40.7527938236
 11
9.8609124997
 21
-42.1527938236
  0
LINE
  5
423
100
AcDbEntity
  8
DRAFT
100
AcDbLine
 62
7
  6
CONTINUOUS
 10
9.8609124997
 20
-97.7527938236
 11
9.8609124997
 21
-98.3527938236
  0
LINE
  5
424
100
AcDbEntity
  8
DRAFT
100
AcDbLine
 62
7
  6
CONTINUOUS
 10
9.9237507334
 20
-42.0899555898
 11
9.9237507334
 21
-40.8156320573
  0
LINE
  5
425
100
AcDbEntity
  8
DRAFT
100
AcDbLine
 62
7
  6
CONTINUOUS
 10
6.1863126633
 20
-35.4764581647
 11
6.1811297558
 21
-35.5356990676
  0
LINE
  5
426
100
AcDbEntity
  8
DRAFT
100
AcDbLine
 62
7
  6
CONTINUOUS
 10
5.9661810647
 20
-37.9925738496
 11
5.9570946989
 21
-38.0964314859
  0
LINE
  5
427
100
AcDbEntity
  8
DRAFT
100
AcDbLine
 62
7
  6
CONTINUOUS
 10
6.535123232
 20
-38.1138865508
 11
6.514221554
 21
-38.3527938236
  0
LINE
  5
428
100
AcDbEntity
  8
DRAFT
100
AcDbLine
 62
7
  6
CONTINUOUS
 10
12.1867017673
 20
12.2082989037
 11
12.2076034453
 21
12.4472061764
  0
LINE
  5
429
100
AcDbEntity
  8
SUPERFICI
100
AcDbLine
 62
7
  6
CONTINUOUS
 10
12.5355123361
 20
9.5708705175
 11
12.5334419745
 21
9.5472061764
  0
LINE
  5
42A
100
AcDbEntity
  8
DRAFT
100
AcDbLine
 62
7
  6
CONTINUOUS
 10
12.5355123361
 20
9.5708705175
 11
12.5406952435
 21
9.6301114204
  0
LINE
  5
42B
100
AcDbEntity
  8
DRAFT
100
AcDbLine
 62
7
  6
CONTINUOUS
 10
12.7556439346
 20
12.0869862024
 11
12.7647303004
 21
12.1908438387
  0
LWPOLYLINE
  5
42C
100
AcDbEntity
  8
RACCORDO
100
AcDbPolyline
 62
7
  6
CONTINUOUS
 90
10
 70
0
 10
2.4709273919
 20
-97.8128848682
 10
2.4631828818
 20
-97.8995862729
 10
2.4404622585
 20
-97.9837015456
 10
2.4034273964
 20
-98.0626606566
 10
2.3531242162
 20
-98.1340995994
 10
2.2910951523
 20
-98.1957466646
 10
2.2194318423
 20
-98.2455878287
 10
2.1404470407
 20
-98.2821573125
 10
2.0565060367
 20
-98.304478332
 10
1.9701626528
 20
-98.3119678243
  0
LINE
  5
42D
100
AcDbEntity
  8
DRAFT
100
AcDbLine
 62
7
  6
CONTINUOUS
 10
6.2109124997
 20
-40.7527938236
 11
6.1867911617
 21
-40.8156320573
  0
LINE
  5
42E
100
AcDbEntity
  8
DRAFT
100
AcDbLine
 62
7
  6
CONTINUOUS
 10
22.2481811776
 20
-13.2782431743
 11
22.1294957756
 21
-13.5156320573
  0
LINE
  5
42F
100
AcDbEntity
  8
DRAFT
100
AcDbLine
 62
7
  6
CONTINUOUS
 10
2.2363618504
 20
-43.0273444729
 11
2.2887270452
 21
-42.9749792781
  0
LINE
  5
430
100
AcDbEntity
  8
DRAFT
100
AcDbLine
 62
7
  6
CONTINUOUS
 10
20.8483013827
 20
-24.7782431743
 11
20.6109124997
 21
-25.0156320573
  0
LINE
  5
431
100
AcDbEntity
  8
DRAFT
100
AcDbLine
 62
7
  6
CONTINUOUS
 10
23.6609124997
 20
-23.9527938236
 11
23.7201329601
 21
-23.8935733631
  0
LINE
  5
432
100
AcDbEntity
  8
DRAFT
100
AcDbLine
 62
7
  6
CONTINUOUS
 10
8.8609124997
 20
-40.7527938236
 11
8.7980742659
 21
-40.8156320573
  0
LINE
  5
433
100
AcDbEntity
  8
DRAFT
100
AcDbLine
 62
7
  6
CONTINUOUS
 10
6.1867911617
 20
-42.0899555898
 11
3.1183484429
 21
-44.8527938236
  0
LINE
  5
434
100
AcDbEntity
  8
DRAFT
100
AcDbLine
 62
7
  6
CONTINUOUS
 10
3.2122587096
 20
-44.8527938236
 11
6.2109124997
 21
-42.1527938236
  0
LINE
  5
435
100
AcDbEntity
  8
0
100
AcDbLine
 62
7
  6
CONTINUOUS
 10
4.8609124997
 20
-44.7536019122
 11
6.8609124997
 21
-42.9527938236
  0
LINE
  5
436
100
AcDbEntity
  8
0
100
AcDbLine
 62
7
  6
CONTINUOUS
 10
13.8609124997
 20
-38.151985735
 11
11.8609124997
 21
-39.9527938236
  0
LINE
  5
437
100
AcDbEntity
  8
DRAFT
100
AcDbLine
 62
7
  6
CONTINUOUS
 10
20.1370950971
 20
-35.4527938236
 11
20.1109124997
 21
-35.4658841253
  0
LINE
  5
438
100
AcDbEntity
  8
DRAFT
100
AcDbLine
 62
7
  6
CONTINUOUS
 10
-1.4152700977
 20
-47.4527938236
 11
-1.3890875003
 21
-47.4397035219
  0
LINE
  5
439
100
AcDbEntity
  8
DRAFT
100
AcDbLine
 62
7
  6
CONTINUOUS
 10
-6.2390875003
 20
-46.3527938236
 11
-6.0856176417
 21
-46.3016787719
  0
LINE
  5
43A
100
AcDbEntity
  8
DRAFT
100
AcDbLine
 62
7
  6
CONTINUOUS
 10
24.9609124997
 20
-36.5527938236
 11
24.8074426411
 21
-36.6039088752
  0
LINE
  5
43B
100
AcDbEntity
  8
RACCORDO
100
AcDbLine
 62
7
  6
CONTINUOUS
 10
23.3097898814
 20
-41.0063052704
 11
23.2226197563
 21
-41.0144249278
  0
LINE
  5
43C
100
AcDbEntity
  8
RACCORDO
100
AcDbLine
 62
250
  6
CONTINUOUS
 10
16.485463149
 20
-45.3527938236
 11
2.2363618504
 21
-45.3527938236
  0
LINE
  5
43D
100
AcDbEntity
  8
RACCORDO
100
AcDbLine
 62
7
  6
CONTINUOUS
 10
16.4767356165
 20
-44.8527938236
 11
2.2450893829
 21
-44.8527938236
  0
LINE
  5
43E
100
AcDbEntity
  8
SUPERFICI
100
AcDbLine
 62
7
  6
CONTINUOUS
 10
12.2076034453
 20
-44.5527938236
 11
6.514221554
 21
-44.5527938236
  0
LINE
  5
43F
100
AcDbEntity
  8
DRAFT
100
AcDbLine
 62
7
  6
CONTINUOUS
 10
-3.9140875003
 20
-43.9527938236
 11
1.0189067855
 21
-43.9527938236
  0
LINE
  5
440
100
AcDbEntity
  8
DRAFT
100
AcDbLine
 62
7
  6
CONTINUOUS
 10
17.7029182139
 20
-43.9527938236
 11
22.6359124997
 21
-43.9527938236
  0
LINE
  5
441
100
AcDbEntity
  8
RACCORDO
100
AcDbLine
 62
7
  6
CONTINUOUS
 10
-4.2646130035
 20
-43.0273444729
 11
2.2363618504
 21
-43.0273444729
  0
LINE
  5
442
100
AcDbEntity
  8
RACCORDO
100
AcDbLine
 62
7
  6
CONTINUOUS
 10
16.485463149
 20
-43.0273444729
 11
22.9864380028
 21
-43.0273444729
  0
LINE
  5
443
100
AcDbEntity
  8
DRAFT
100
AcDbLine
 62
7
  6
CONTINUOUS
 10
17.2887270452
 20
-42.9749792781
 11
16.4330979542
 21
-42.9749792781
  0
LINE
  5
444
100
AcDbEntity
  8
DRAFT
100
AcDbLine
 62
7
  6
CONTINUOUS
 10
2.2887270452
 20
-42.9749792781
 11
1.4330979542
 21
-42.9749792781
  0
LINE
  5
445
100
AcDbEntity
  8
0
100
AcDbLine
 62
7
  6
CONTINUOUS
 10
6.8609124997
 20
-42.9527938236
 11
11.8609124997
 21
-42.9527938236
  0
LINE
  5
446
100
AcDbEntity
  8
RACCORDO
100
AcDbLine
 62
7
  6
CONTINUOUS
 10
23.1609886521
 20
-42.8527938236
 11
22.6359124997
 21
-42.8527938236
  0
LINE
  5
447
100
AcDbEntity
  8
DRAFT
100
AcDbLine
 62
7
  6
CONTINUOUS
 10
-3.9140875003
 20
-42.8527938236
 11
1.3109124997
 21
-42.8527938236
  0
LINE
  5
448
100
AcDbEntity
  8
RACCORDO
100
AcDbLine
 62
7
  6
CONTINUOUS
 10
-3.9140875003
 20
-42.8527938236
 11
-4.4391636527
 21
-42.8527938236
  0
LINE
  5
449
100
AcDbEntity
  8
DRAFT
100
AcDbLine
 62
7
  6
CONTINUOUS
 10
17.4109124997
 20
-42.8527938236
 11
22.6359124997
 21
-42.8527938236
  0
LINE
  5
44A
100
AcDbEntity
  8
DRAFT
100
AcDbLine
 62
7
  6
CONTINUOUS
 10
6.2109124997
 20
-42.1527938236
 11
8.8609124997
 21
-42.1527938236
  0
LINE
  5
44B
100
AcDbEntity
  8
DRAFT
100
AcDbLine
 62
7
  6
CONTINUOUS
 10
9.8609124997
 20
-42.1527938236
 11
12.5109124997
 21
-42.1527938236
  0
LINE
  5
44C
100
AcDbEntity
  8
DRAFT
100
AcDbLine
 62
7
  6
CONTINUOUS
 10
12.5350338376
 20
-42.0899555898
 11
9.9237507334
 21
-42.0899555898
  0
LINE
  5
44D
100
AcDbEntity
  8
DRAFT
100
AcDbLine
 62
7
  6
CONTINUOUS
 10
8.7980742659
 20
-42.0899555898
 11
6.1867911617
 21
-42.0899555898
  0
LINE
  5
44E
100
AcDbEntity
  8
RACCORDO
100
AcDbLine
 62
7
  6
CONTINUOUS
 10
23.1609886521
 20
-41.9527938236
 11
21.1109124997
 21
-41.9527938236
  0
LINE
  5
44F
100
AcDbEntity
  8
DRAFT
100
AcDbLine
 62
7
  6
CONTINUOUS
 10
20.1109124997
 20
-41.9527938236
 11
17.4109124997
 21
-41.9527938236
  0
LINE
  5
450
100
AcDbEntity
  8
DRAFT
100
AcDbLine
 62
7
  6
CONTINUOUS
 10
1.3109124997
 20
-41.9527938236
 11
-1.3890875003
 21
-41.9527938236
  0
LINE
  5
451
100
AcDbEntity
  8
RACCORDO
100
AcDbLine
 62
7
  6
CONTINUOUS
 10
-2.3890875003
 20
-41.9527938236
 11
-4.4391636527
 21
-41.9527938236
  0
LINE
  5
452
100
AcDbEntity
  8
DRAFT
100
AcDbLine
 62
7
  6
CONTINUOUS
 10
23.7785534699
 20
-41.8899555898
 11
21.1737507334
 21
-41.8899555898
  0
LINE
  5
453
100
AcDbEntity
  8
DRAFT
100
AcDbLine
 62
7
  6
CONTINUOUS
 10
20.0480742659
 20
-41.8899555898
 11
17.4737507334
 21
-41.8899555898
  0
LINE
  5
454
100
AcDbEntity
  8
DRAFT
100
AcDbLine
 62
7
  6
CONTINUOUS
 10
1.2480742659
 20
-41.8899555898
 11
-1.3262492666
 21
-41.8899555898
  0
LINE
  5
455
100
AcDbEntity
  8
DRAFT
100
AcDbLine
 62
7
  6
CONTINUOUS
 10
-2.4519257341
 20
-41.8899555898
 11
-5.0567284705
 21
-41.8899555898
  0
LINE
  5
456
100
AcDbEntity
  8
DRAFT
100
AcDbLine
 62
250
  6
CONTINUOUS
 10
-2.9390875003
 20
-41.6527938236
 11
-2.4519257341
 21
-41.6527938236
  0
LINE
  5
457
100
AcDbEntity
  8
DRAFT
100
AcDbLine
 62
250
  6
CONTINUOUS
 10
-1.3262492666
 20
-41.6527938236
 11
1.2480742659
 21
-41.6527938236
  0
LINE
  5
458
100
AcDbEntity
  8
DRAFT
100
AcDbLine
 62
250
  6
CONTINUOUS
 10
17.4737507334
 20
-41.6527938236
 11
20.0480742659
 21
-41.6527938236
  0
LINE
  5
459
100
AcDbEntity
  8
DRAFT
100
AcDbLine
 62
250
  6
CONTINUOUS
 10
21.1737507334
 20
-41.6527938236
 11
21.6609124997
 21
-41.6527938236
  0
LINE
  5
45A
100
AcDbEntity
  8
DRAFT
100
AcDbLine
 62
250
  6
CONTINUOUS
 10
8.7980742659
 20
-41.4527938236
 11
2.4737507334
 21
-41.4527938236
  0
LINE
  5
45B
100
AcDbEntity
  8
DRAFT
100
AcDbLine
 62
250
  6
CONTINUOUS
 10
1.2480742659
 20
-41.4527938236
 11
-1.3262492666
 21
-41.4527938236
  0
LINE
  5
45C
100
AcDbEntity
  8
DRAFT
100
AcDbLine
 62
250
  6
CONTINUOUS
 10
-2.4519257341
 20
-41.4527938236
 11
-2.9390875003
 21
-41.4527938236
  0
LINE
  5
45D
100
AcDbEntity
  8
DRAFT
100
AcDbLine
 62
250
  6
CONTINUOUS
 10
9.9237507334
 20
-41.4527938236
 11
16.2480742659
 21
-41.4527938236
  0
LINE
  5
45E
100
AcDbEntity
  8
DRAFT
100
AcDbLine
 62
250
  6
CONTINUOUS
 10
17.4737507334
 20
-41.4527938236
 11
20.0480742659
 21
-41.4527938236
  0
LINE
  5
45F
100
AcDbEntity
  8
DRAFT
100
AcDbLine
 62
250
  6
CONTINUOUS
 10
21.1737507334
 20
-41.4527938236
 11
21.6609124997
 21
-41.4527938236
  0
LINE
  5
460
100
AcDbEntity
  8
DRAFT
100
AcDbLine
 62
250
  6
CONTINUOUS
 10
21.6609124997
 20
-41.2527938236
 11
21.1737507334
 21
-41.2527938236
  0
LINE
  5
461
100
AcDbEntity
  8
DRAFT
100
AcDbLine
 62
250
  6
CONTINUOUS
 10
20.0480742659
 20
-41.2527938236
 11
17.4737507334
 21
-41.2527938236
  0
LINE
  5
462
100
AcDbEntity
  8
DRAFT
100
AcDbLine
 62
250
  6
CONTINUOUS
 10
1.2480742659
 20
-41.2527938236
 11
-1.3262492666
 21
-41.2527938236
  0
LINE
  5
463
100
AcDbEntity
  8
DRAFT
100
AcDbLine
 62
250
  6
CONTINUOUS
 10
-2.4519257341
 20
-41.2527938236
 11
-2.9390875003
 21
-41.2527938236
  0
LINE
  5
464
100
AcDbEntity
  8
DRAFT
100
AcDbLine
 62
7
  6
CONTINUOUS
 10
-5.0567284705
 20
-41.0156320573
 11
-2.4519257341
 21
-41.0156320573
  0
LINE
  5
465
100
AcDbEntity
  8
DRAFT
100
AcDbLine
 62
7
  6
CONTINUOUS
 10
-1.3262492666
 20
-41.0156320573
 11
1.2480742659
 21
-41.0156320573
  0
LINE
  5
466
100
AcDbEntity
  8
DRAFT
100
AcDbLine
 62
7
  6
CONTINUOUS
 10
17.4737507334
 20
-41.0156320573
 11
20.0480742659
 21
-41.0156320573
  0
LINE
  5
467
100
AcDbEntity
  8
DRAFT
100
AcDbLine
 62
7
  6
CONTINUOUS
 10
21.1737507334
 20
-41.0156320573
 11
23.7785534699
 21
-41.0156320573
  0
LINE
  5
468
100
AcDbEntity
  8
RACCORDO
100
AcDbLine
 62
7
  6
CONTINUOUS
 10
-4.4391636527
 20
-40.9527938236
 11
-2.3890875003
 21
-40.9527938236
  0
LINE
  5
469
100
AcDbEntity
  8
DRAFT
100
AcDbLine
 62
7
  6
CONTINUOUS
 10
-1.3890875003
 20
-40.9527938236
 11
1.3109124997
 21
-40.9527938236
  0
LINE
  5
46A
100
AcDbEntity
  8
DRAFT
100
AcDbLine
 62
7
  6
CONTINUOUS
 10
17.4109124997
 20
-40.9527938236
 11
20.1109124997
 21
-40.9527938236
  0
LINE
  5
46B
100
AcDbEntity
  8
RACCORDO
100
AcDbLine
 62
7
  6
CONTINUOUS
 10
21.1109124997
 20
-40.9527938236
 11
23.1609886521
 21
-40.9527938236
  0
LWPOLYLINE
  5
46C
100
AcDbEntity
  8
RACCORDO
100
AcDbPolyline
 62
7
  6
CONTINUOUS
 90
9
 70
0
 10
-4.5007947569
 20
-41.0144249278
 10
-4.587964882
 20
-41.0063052704
 10
-4.6723139802
 20
-40.9830398643
 10
-4.7512518325
 20
-40.9454044535
 10
-4.8224115703
 20
-40.8945524766
 10
-4.8835948057
 20
-40.8321286987
 10
-4.9329169098
 20
-40.7602978591
 10
-4.969009948
 20
-40.6814067167
 10
-4.9909705279
 20
-40.5978270054
  0
LINE
  5
46D
100
AcDbEntity
  8
DRAFT
100
AcDbLine
 62
7
  6
CONTINUOUS
 10
-6.2390875003
 20
-36.5527938236
 11
-6.0856176417
 21
-36.6039088752
  0
LINE
  5
46E
100
AcDbEntity
  8
DRAFT
100
AcDbLine
 62
7
  6
CONTINUOUS
 10
24.9609124997
 20
-46.3527938236
 11
24.8074426411
 21
-46.3016787719
  0
LINE
  5
46F
100
AcDbEntity
  8
DRAFT
100
AcDbLine
 62
7
  6
CONTINUOUS
 10
20.1370950971
 20
-47.4527938236
 11
20.1109124997
 21
-47.4397035219
  0
LINE
  5
470
100
AcDbEntity
  8
DRAFT
100
AcDbLine
 62
7
  6
CONTINUOUS
 10
-1.4152700977
 20
-35.4527938236
 11
-1.3890875003
 21
-35.4658841253
  0
LINE
  5
471
100
AcDbEntity
  8
DRAFT
100
AcDbLine
 62
7
  6
CONTINUOUS
 10
3.1881373717
 20
-38.1156320573
 11
6.1867911617
 21
-40.8156320573
  0
LINE
  5
472
100
AcDbEntity
  8
DRAFT
100
AcDbLine
 62
7
  6
CONTINUOUS
 10
6.2109124997
 20
-40.7527938236
 11
3.2122587096
 21
-38.0527938236
  0
LINE
  5
473
100
AcDbEntity
  8
0
100
AcDbLine
 62
7
  6
CONTINUOUS
 10
6.8609124997
 20
-39.9527938236
 11
4.8609124997
 21
-38.151985735
  0
LINE
  5
474
100
AcDbEntity
  8
0
100
AcDbLine
 62
7
  6
CONTINUOUS
 10
11.8609124997
 20
-42.9527938236
 11
13.8609124997
 21
-44.7536019122
  0
LINE
  5
475
100
AcDbEntity
  8
DRAFT
100
AcDbLine
 62
7
  6
CONTINUOUS
 10
2.2363618504
 20
-39.8782431743
 11
2.2887270452
 21
-39.9306083691
  0
LINE
  5
476
100
AcDbEntity
  8
DRAFT
100
AcDbLine
 62
7
  6
CONTINUOUS
 10
20.8483013827
 20
-58.1273444729
 11
20.6109124997
 21
-57.8899555898
  0
LINE
  5
477
100
AcDbEntity
  8
RACCORDO
100
AcDbLine
 62
7
  6
CONTINUOUS
 10
2.2449370664
 20
-37.8868183903
 11
2.4737507334
 21
-38.1156320573
  0
LINE
  5
478
100
AcDbEntity
  8
DRAFT
100
AcDbLine
 62
7
  6
CONTINUOUS
 10
8.8609124997
 20
-42.1527938236
 11
8.7980742659
 21
-42.0899555898
  0
LINE
  5
479
100
AcDbEntity
  8
DRAFT
100
AcDbLine
 62
7
  6
CONTINUOUS
 10
22.2481811776
 20
-69.6273444729
 11
22.1294957756
 21
-69.3899555898
  0
LINE
  5
47A
100
AcDbEntity
  8
DRAFT
100
AcDbLine
 62
7
  6
CONTINUOUS
 10
6.2109124997
 20
-42.1527938236
 11
6.1867911617
 21
-42.0899555898
  0
LWPOLYLINE
  5
47B
100
AcDbEntity
  8
DRAFT
100
AcDbPolyline
 62
7
  6
CONTINUOUS
 90
10
 70
0
 10
16.6794793758
 20
-101.9029581562
 10
16.5968071233
 20
-101.4076707427
 10
16.4687521365
 20
-100.9326245356
 10
16.2953144151
 20
-100.4780251866
 10
16.073834393
 20
-100.0401877627
 10
15.8069716364
 20
-99.6231280405
 10
15.5027048445
 20
-99.2386218838
 10
15.1636935837
 20
-98.890714328
 10
14.7872782876
 20
-98.5756660671
 10
14.3734589563
 20
-98.2935868973
  0
LINE
  5
47C
100
AcDbEntity
  8
SUPERFICI
100
AcDbLine
 62
7
  6
CONTINUOUS
 10
6.1883830248
 20
9.5472061764
 11
6.1863126633
 21
9.5708705175
  0
LINE
  5
47D
100
AcDbEntity
  8
DRAFT
100
AcDbLine
 62
7
  6
CONTINUOUS
 10
6.1863126633
 20
9.5708705175
 11
6.1811297558
 21
9.6301114204
  0
LINE
  5
47E
100
AcDbEntity
  8
DRAFT
100
AcDbLine
 62
7
  6
CONTINUOUS
 10
5.9661810647
 20
12.0869862024
 11
5.9570946989
 21
12.1908438387
  0
LINE
  5
47F
100
AcDbEntity
  8
DRAFT
100
AcDbLine
 62
7
  6
CONTINUOUS
 10
6.535123232
 20
12.2082989037
 11
6.514221554
 21
12.4472061764
  0
LINE
  5
480
100
AcDbEntity
  8
DRAFT
100
AcDbLine
 62
7
  6
CONTINUOUS
 10
12.1867017673
 20
-38.1138865508
 11
12.2076034453
 21
-38.3527938236
  0
LINE
  5
481
100
AcDbEntity
  8
DRAFT
100
AcDbLine
 62
7
  6
CONTINUOUS
 10
12.5355123361
 20
-35.4764581647
 11
12.5406952435
 21
-35.5356990676
  0
LINE
  5
482
100
AcDbEntity
  8
DRAFT
100
AcDbLine
 62
7
  6
CONTINUOUS
 10
12.7556439346
 20
-37.9925738496
 11
12.7647303004
 21
-38.0964314859
  0
LINE
  5
483
100
AcDbEntity
  8
0
100
AcDbLine
 62
7
  6
CONTINUOUS
 10
12.3609124997
 20
10.6562920238
 11
12.3609124997
 21
9.6562920238
  0
LINE
  5
484
100
AcDbEntity
  8
0
100
AcDbLine
 62
7
  6
CONTINUOUS
 10
12.3609124997
 20
-35.561879671
 11
12.3609124997
 21
-36.561879671
  0
LINE
  5
485
100
AcDbEntity
  8
0
100
AcDbLine
 62
7
  6
CONTINUOUS
 10
12.3609124997
 20
-46.3437079762
 11
12.3609124997
 21
-47.3437079762
  0
LINE
  5
486
100
AcDbEntity
  8
0
100
AcDbLine
 62
7
  6
CONTINUOUS
 10
12.3609124997
 20
-92.561879671
 11
12.3609124997
 21
-93.561879671
  0
LINE
  5
487
100
AcDbEntity
  8
0
100
AcDbLine
 62
7
  6
CONTINUOUS
 10
12.6109124997
 20
26.0472061764
 11
12.6109124997
 21
24.3472061764
  0
LINE
  5
488
100
AcDbEntity
  8
0
100
AcDbLine
 62
7
  6
CONTINUOUS
 10
12.6109124997
 20
-107.2527938236
 11
12.6109124997
 21
-108.9527938236
  0
LINE
  5
489
100
AcDbEntity
  8
DRAFT
100
AcDbLine
 62
7
  6
CONTINUOUS
 10
13.8609124997
 20
12.2463980878
 11
13.8609124997
 21
12.0869862024
  0
LINE
  5
48A
100
AcDbEntity
  8
DRAFT
100
AcDbLine
 62
7
  6
CONTINUOUS
 10
13.8609124997
 20
-47.4527938236
 11
13.8609124997
 21
-47.3698885796
  0
LINE
  5
48B
100
AcDbEntity
  8
DRAFT
100
AcDbLine
 62
7
  6
CONTINUOUS
 10
13.8609124997
 20
-35.4527938236
 11
13.8609124997
 21
-35.5356990676
  0
LINE
  5
48C
100
AcDbEntity
  8
DRAFT
100
AcDbLine
 62
7
  6
CONTINUOUS
 10
13.8609124997
 20
-37.9925738496
 11
13.8609124997
 21
-38.151985735
  0
LINE
  5
48D
100
AcDbEntity
  8
0
100
AcDbLine
 62
7
  6
CONTINUOUS
 10
13.8609124997
 20
-44.7536019122
 11
13.8609124997
 21
-44.8527938236
  0
LINE
  5
48E
100
AcDbEntity
  8
DRAFT
100
AcDbLine
 62
7
  6
CONTINUOUS
 10
13.8609124997
 20
9.5472061764
 11
13.8609124997
 21
9.6301114204
  0
LINE
  5
48F
100
AcDbEntity
  8
DRAFT
100
AcDbLine
 62
7
  6
CONTINUOUS
 10
13.8609124997
 20
-92.4527938236
 11
13.8609124997
 21
-92.5356990676
  0
LINE
  5
490
100
AcDbEntity
  8
0
100
AcDbLine
 62
7
  6
CONTINUOUS
 10
13.8609124997
 20
-95.0527938236
 11
13.8609124997
 21
-95.151985735
  0
LINE
  5
491
100
AcDbEntity
  8
DRAFT
100
AcDbLine
 62
7
  6
CONTINUOUS
 10
6.1863126633
 20
-92.4764581647
 11
6.1811297558
 21
-92.5356990676
  0
LINE
  5
492
100
AcDbEntity
  8
SUPERFICI
100
AcDbLine
 62
7
  6
CONTINUOUS
 10
6.5404681531
 20
-95.0527938236
 11
6.514221554
 21
-95.3527938236
  0
LINE
  5
493
100
AcDbEntity
  8
SUPERFICI
100
AcDbLine
 62
7
  6
CONTINUOUS
 10
12.1813568463
 20
-44.8527938236
 11
12.2076034453
 21
-44.5527938236
  0
LINE
  5
494
100
AcDbEntity
  8
DRAFT
100
AcDbLine
 62
7
  6
CONTINUOUS
 10
12.5355123361
 20
-47.4291294825
 11
12.5406952435
 21
-47.3698885796
  0
LINE
  5
495
100
AcDbEntity
  8
SUPERFICI
100
AcDbLine
 62
7
  6
CONTINUOUS
 10
12.5355123361
 20
-47.4291294825
 11
12.5334419745
 21
-47.4527938236
  0
LWPOLYLINE
  5
496
100
AcDbEntity
  8
0
100
AcDbPolyline
 62
7
  6
CONTINUOUS
 90
42
 70
0
 10
7.6239739169
 20
-102.2393826574
 10
7.6135690025
 20
-102.3564057026
 10
7.6110393471
 20
-102.4738631707
 10
7.6163963523
 20
-102.5912256821
 10
7.6296158745
 20
-102.7079642851
 10
7.6506383342
 20
-102.8235528399
 10
7.6793689838
 20
-102.93747039
 10
7.715678335
 20
-103.0492035099
 10
7.7594027425
 20
-103.1582486193
 10
7.8103451413
 20
-103.2641142528
 10
7.8682759349
 20
-103.3663232746
 10
7.9329340302
 20
-103.4644150294
 10
8.0040280143
 20
-103.557947418
 10
8.0812374676
 20
-103.6464988905
 10
8.1642144081
 20
-103.7296703457
 10
8.2525848598
 20
-103.8070869302
 10
8.3459505382
 20
-103.8783997275
 10
8.4438906452
 20
-103.9432873311
 10
8.5459637657
 20
-104.0014572923
 10
8.6517098573
 20
-104.0526474391
 10
8.7606523233
 20
-104.0966270573
 10
8.8723001609
 20
-104.1331979306
 10
8.9861501743
 20
-104.1621952337
 10
9.1016892422
 20
-104.1834882752
 10
9.2183966309
 20
-104.1969810871
 10
9.3357463409
 20
-104.2026128566
 10
9.4532094778
 20
-104.2003582008
 10
9.5702566357
 20
-104.1902272808
 10
9.6863602837
 20
-104.172265756
 10
9.8009971431
 20
-104.1465545782
 10
9.913650546
 20
-104.113209627
 10
10.0238127637
 20
-104.0723811874
 10
10.1309872954
 20
-104.0242532723
 10
10.2346911056
 20
-103.9690427935
 10
10.3344568012
 20
-103.9069985839
 10
10.4298347383
 20
-103.8384002759
 10
10.5203950484
 20
-103.7635570413
 10
10.6057295761
 20
-103.682806198
 10
10.6854537182
 20
-103.5965116892
 10
10.759208158
 20
-103.5050624437
 10
10.8266604836
 20
-103.4088706226
 10
10.887506687
 20
-103.3083697619
  0
LWPOLYLINE
  5
497
100
AcDbEntity
  8
RACCORDO
100
AcDbPolyline
 62
7
  6
CONTINUOUS
 90
10
 70
0
 10
16.2508976075
 20
14.907297221
 10
16.2586421175
 20
14.9939986257
 10
16.2813627409
 20
15.0781138985
 10
16.3183976029
 20
15.1570730095
 10
16.3687007831
 20
15.2285119523
 10
16.430729847
 20
15.2901590174
 10
16.5023931571
 20
15.3400001815
 10
16.5813779586
 20
15.3765696654
 10
16.6653189626
 20
15.3988906849
 10
16.7516623465
 20
15.4063801771
  0
LINE
  5
498
100
AcDbEntity
  8
DRAFT
100
AcDbLine
 62
7
  6
CONTINUOUS
 10
12.5109124997
 20
-42.1527938236
 11
12.5350338376
 21
-42.0899555898
  0
LINE
  5
499
100
AcDbEntity
  8
DRAFT
100
AcDbLine
 62
7
  6
CONTINUOUS
 10
-3.5263561782
 20
-69.6273444729
 11
-3.4076707763
 21
-69.3899555898
  0
LINE
  5
49A
100
AcDbEntity
  8
DRAFT
100
AcDbLine
 62
7
  6
CONTINUOUS
 10
22.2481811776
 20
-24.7782431743
 11
22.1294957756
 21
-25.0156320573
  0
LINE
  5
49B
100
AcDbEntity
  8
DRAFT
100
AcDbLine
 62
7
  6
CONTINUOUS
 10
9.8609124997
 20
-42.1527938236
 11
9.9237507334
 21
-42.0899555898
  0
LINE
  5
49C
100
AcDbEntity
  8
RACCORDO
100
AcDbLine
 62
7
  6
CONTINUOUS
 10
16.4768879329
 20
-37.8868183903
 11
16.2480742659
 21
-38.1156320573
  0
LINE
  5
49D
100
AcDbEntity
  8
DRAFT
100
AcDbLine
 62
7
  6
CONTINUOUS
 10
-2.1264763833
 20
-58.1273444729
 11
-1.8890875003
 21
-57.8899555898
  0
LINE
  5
49E
100
AcDbEntity
  8
DRAFT
100
AcDbLine
 62
7
  6
CONTINUOUS
 10
16.485463149
 20
-39.8782431743
 11
16.4330979542
 21
-39.9306083691
  0
LINE
  5
49F
100
AcDbEntity
  8
DRAFT
100
AcDbLine
 62
7
  6
CONTINUOUS
 10
17.5283675646
 20
-40.0527938236
 11
17.6505530191
 21
-39.9306083691
  0
LINE
  5
4A0
100
AcDbEntity
  8
DRAFT
100
AcDbLine
 62
7
  6
CONTINUOUS
 10
15.5095662897
 20
-38.0527938236
 11
12.5109124997
 21
-40.7527938236
  0
LINE
  5
4A1
100
AcDbEntity
  8
DRAFT
100
AcDbLine
 62
7
  6
CONTINUOUS
 10
12.5350338376
 20
-40.8156320573
 11
15.5336876277
 21
-38.1156320573
  0
LINE
  5
4A2
100
AcDbEntity
  8
DRAFT
100
AcDbLine
 62
7
  6
CONTINUOUS
 10
20.5532639425
 20
-35.4527938236
 11
20.6109212812
 21
-35.443194269
  0
LINE
  5
4A3
100
AcDbEntity
  8
RACCORDO
100
AcDbLine
 62
7
  6
CONTINUOUS
 10
-4.587964882
 20
-41.8992823767
 11
-4.5007947569
 21
-41.8911627194
  0
LINE
  5
4A4
100
AcDbEntity
  8
DRAFT
100
AcDbLine
 62
7
  6
CONTINUOUS
 10
12.7647303004
 20
-38.0964314859
 11
12.1867017673
 21
-38.1138865508
  0
LINE
  5
4A5
100
AcDbEntity
  8
DRAFT
100
AcDbLine
 62
7
  6
CONTINUOUS
 10
6.1867911617
 20
-40.8156320573
 11
8.7980742659
 21
-40.8156320573
  0
LINE
  5
4A6
100
AcDbEntity
  8
DRAFT
100
AcDbLine
 62
7
  6
CONTINUOUS
 10
9.9237507334
 20
-40.8156320573
 11
12.5350338376
 21
-40.8156320573
  0
LINE
  5
4A7
100
AcDbEntity
  8
DRAFT
100
AcDbLine
 62
7
  6
CONTINUOUS
 10
12.5109124997
 20
-40.7527938236
 11
9.8609124997
 21
-40.7527938236
  0
LINE
  5
4A8
100
AcDbEntity
  8
DRAFT
100
AcDbLine
 62
7
  6
CONTINUOUS
 10
8.8609124997
 20
-40.7527938236
 11
6.2109124997
 21
-40.7527938236
  0
LINE
  5
4A9
100
AcDbEntity
  8
RACCORDO
100
AcDbLine
 62
7
  6
CONTINUOUS
 10
-4.4391636527
 20
-40.0527938236
 11
-3.9140875003
 21
-40.0527938236
  0
LINE
  5
4AA
100
AcDbEntity
  8
DRAFT
100
AcDbLine
 62
7
  6
CONTINUOUS
 10
1.3109124997
 20
-40.0527938236
 11
-3.9140875003
 21
-40.0527938236
  0
LINE
  5
4AB
100
AcDbEntity
  8
DRAFT
100
AcDbLine
 62
7
  6
CONTINUOUS
 10
17.4109124997
 20
-40.0527938236
 11
22.6359124997
 21
-40.0527938236
  0
LINE
  5
4AC
100
AcDbEntity
  8
RACCORDO
100
AcDbLine
 62
7
  6
CONTINUOUS
 10
22.6359124997
 20
-40.0527938236
 11
23.1609886521
 21
-40.0527938236
  0
LINE
  5
4AD
100
AcDbEntity
  8
0
100
AcDbLine
 62
7
  6
CONTINUOUS
 10
11.8609124997
 20
-39.9527938236
 11
6.8609124997
 21
-39.9527938236
  0
LINE
  5
4AE
100
AcDbEntity
  8
DRAFT
100
AcDbLine
 62
7
  6
CONTINUOUS
 10
17.2887270452
 20
-39.9306083691
 11
16.4330979542
 21
-39.9306083691
  0
LINE
  5
4AF
100
AcDbEntity
  8
DRAFT
100
AcDbLine
 62
7
  6
CONTINUOUS
 10
2.2887270452
 20
-39.9306083691
 11
1.4330979542
 21
-39.9306083691
  0
LINE
  5
4B0
100
AcDbEntity
  8
RACCORDO
100
AcDbLine
 62
7
  6
CONTINUOUS
 10
-4.2646130035
 20
-39.8782431743
 11
2.2363618504
 21
-39.8782431743
  0
LINE
  5
4B1
100
AcDbEntity
  8
RACCORDO
100
AcDbLine
 62
7
  6
CONTINUOUS
 10
16.485463149
 20
-39.8782431743
 11
22.9864380028
 21
-39.8782431743
  0
LINE
  5
4B2
100
AcDbEntity
  8
DRAFT
100
AcDbLine
 62
7
  6
CONTINUOUS
 10
22.6359124997
 20
-38.9527938236
 11
17.7029182139
 21
-38.9527938236
  0
LINE
  5
4B3
100
AcDbEntity
  8
DRAFT
100
AcDbLine
 62
7
  6
CONTINUOUS
 10
1.0189067855
 20
-38.9527938236
 11
-3.9140875003
 21
-38.9527938236
  0
LINE
  5
4B4
100
AcDbEntity
  8
SUPERFICI
100
AcDbLine
 62
7
  6
CONTINUOUS
 10
12.2076034453
 20
-38.3527938236
 11
6.514221554
 21
-38.3527938236
  0
LINE
  5
4B5
100
AcDbEntity
  8
DRAFT
100
AcDbLine
 62
7
  6
CONTINUOUS
 10
2.4737507334
 20
-38.1156320573
 11
3.1881373717
 21
-38.1156320573
  0
LINE
  5
4B6
100
AcDbEntity
  8
DRAFT
100
AcDbLine
 62
7
  6
CONTINUOUS
 10
15.5336876277
 20
-38.1156320573
 11
16.2480742659
 21
-38.1156320573
  0
LINE
  5
4B7
100
AcDbEntity
  8
DRAFT
100
AcDbLine
 62
7
  6
CONTINUOUS
 10
12.1867017673
 20
-38.1138865508
 11
6.535123232
 21
-38.1138865508
  0
LINE
  5
4B8
100
AcDbEntity
  8
DRAFT
100
AcDbLine
 62
7
  6
CONTINUOUS
 10
15.5095662897
 20
-38.0527938236
 11
13.8609124997
 21
-38.0527938236
  0
LINE
  5
4B9
100
AcDbEntity
  8
DRAFT
100
AcDbLine
 62
7
  6
CONTINUOUS
 10
4.8609124997
 20
-38.0527938236
 11
3.2122587096
 21
-38.0527938236
  0
LINE
  5
4BA
100
AcDbEntity
  8
DRAFT
100
AcDbLine
 62
7
  6
CONTINUOUS
 10
4.8609124997
 20
-37.9925738496
 11
5.9661810647
 21
-37.9925738496
  0
LINE
  5
4BB
100
AcDbEntity
  8
DRAFT
100
AcDbLine
 62
7
  6
CONTINUOUS
 10
12.7556439346
 20
-37.9925738496
 11
13.8609124997
 21
-37.9925738496
  0
LINE
  5
4BC
100
AcDbEntity
  8
RACCORDO
100
AcDbLine
 62
250
  6
CONTINUOUS
 10
2.2449370664
 20
-37.8868183903
 11
16.4768879329
 21
-37.8868183903
  0
LINE
  5
4BD
100
AcDbEntity
  8
RACCORDO
100
AcDbLine
 62
250
  6
CONTINUOUS
 10
2.2363618504
 20
-37.3868945427
 11
16.485463149
 21
-37.3868945427
  0
LINE
  5
4BE
100
AcDbEntity
  8
DRAFT
100
AcDbLine
 62
7
  6
CONTINUOUS
 10
-3.9140875003
 20
-36.7527938236
 11
1.0189067855
 21
-36.7527938236
  0
LINE
  5
4BF
100
AcDbEntity
  8
DRAFT
100
AcDbLine
 62
7
  6
CONTINUOUS
 10
17.7029182139
 20
-36.7527938236
 11
22.6359124997
 21
-36.7527938236
  0
LINE
  5
4C0
100
AcDbEntity
  8
0
100
AcDbLine
 62
7
  6
CONTINUOUS
 10
6.3609124997
 20
-36.561879671
 11
12.3609124997
 21
-36.561879671
  0
LINE
  5
4C1
100
AcDbEntity
  8
DRAFT
100
AcDbLine
 62
7
  6
CONTINUOUS
 10
24.9609124997
 20
-36.5527938236
 11
23.6609124997
 21
-36.5527938236
  0
LINE
  5
4C2
100
AcDbEntity
  8
DRAFT
100
AcDbLine
 62
7
  6
CONTINUOUS
 10
-4.9390875003
 20
-36.5527938236
 11
-6.2390875003
 21
-36.5527938236
  0
LINE
  5
4C3
100
AcDbEntity
  8
DRAFT
100
AcDbLine
 62
7
  6
CONTINUOUS
 10
5.9570946989
 20
-38.0964314859
 11
6.535123232
 21
-38.1138865508
  0
LWPOLYLINE
  5
4C4
100
AcDbEntity
  8
RACCORDO
100
AcDbPolyline
 62
7
  6
CONTINUOUS
 90
9
 70
0
 10
23.2226197563
 20
-41.8911627194
 10
23.3097898814
 20
-41.8992823767
 10
23.3941389796
 20
-41.9225477828
 10
23.4730768318
 20
-41.9601831937
 10
23.5442365696
 20
-42.0110351705
 10
23.6054198051
 20
-42.0734589484
 10
23.6547419091
 20
-42.1452897881
 10
23.6908349474
 20
-42.2241809304
 10
23.7127955272
 20
-42.3077606418
  0
LINE
  5
4C5
100
AcDbEntity
  8
DRAFT
100
AcDbLine
 62
7
  6
CONTINUOUS
 10
12.5109124997
 20
-42.1527938236
 11
15.5095662897
 21
-44.8527938236
  0
LINE
  5
4C6
100
AcDbEntity
  8
DRAFT
100
AcDbLine
 62
7
  6
CONTINUOUS
 10
15.6034765565
 20
-44.8527938236
 11
12.5350338376
 21
-42.0899555898
  0
LINE
  5
4C7
100
AcDbEntity
  8
DRAFT
100
AcDbLine
 62
7
  6
CONTINUOUS
 10
9.8609124997
 20
-40.7527938236
 11
9.9237507334
 21
-40.8156320573
  0
LINE
  5
4C8
100
AcDbEntity
  8
DRAFT
100
AcDbLine
 62
7
  6
CONTINUOUS
 10
-4.9390875003
 20
-23.9527938236
 11
-4.9983079608
 21
-23.8935733631
  0
LINE
  5
4C9
100
AcDbEntity
  8
DRAFT
100
AcDbLine
 62
7
  6
CONTINUOUS
 10
-2.1264763833
 20
-24.7782431743
 11
-1.8890875003
 21
-25.0156320573
  0
LINE
  5
4CA
100
AcDbEntity
  8
DRAFT
100
AcDbLine
 62
7
  6
CONTINUOUS
 10
16.485463149
 20
-43.0273444729
 11
16.4330979542
 21
-42.9749792781
  0
LINE
  5
4CB
100
AcDbEntity
  8
DRAFT
100
AcDbLine
 62
7
  6
CONTINUOUS
 10
17.5283675646
 20
-42.8527938236
 11
17.6505530191
 21
-42.9749792781
  0
LINE
  5
4CC
100
AcDbEntity
  8
DRAFT
100
AcDbLine
 62
7
  6
CONTINUOUS
 10
-3.5263561782
 20
-13.2782431743
 11
-3.4076707763
 21
-13.5156320573
  0
LINE
  5
4CD
100
AcDbEntity
  8
DRAFT
100
AcDbLine
 62
7
  6
CONTINUOUS
 10
22.2481811776
 20
-58.1273444729
 11
22.1294957756
 21
-57.8899555898
  0
LINE
  5
4CE
100
AcDbEntity
  8
DRAFT
100
AcDbLine
 62
7
  6
CONTINUOUS
 10
12.5109124997
 20
-40.7527938236
 11
12.5350338376
 21
-40.8156320573
  0
LWPOLYLINE
  5
4CF
100
AcDbEntity
  8
DRAFT
100
AcDbPolyline
 62
7
  6
CONTINUOUS
 90
10
 70
0
 10
2.0423456236
 20
18.9973705091
 10
2.125017876
 20
18.5020830956
 10
2.2530728629
 20
18.0270368885
 10
2.4265105842
 20
17.5724375395
 10
2.6479906064
 20
17.1346001155
 10
2.914853363
 20
16.7175403933
 10
3.2191201549
 20
16.3330342367
 10
3.5581314157
 20
15.9851266809
 10
3.9345467117
 20
15.67007842
 10
4.348366043
 20
15.3879992502
  0
LINE
  5
4D0
100
AcDbEntity
  8
DRAFT
100
AcDbLine
 62
7
  6
CONTINUOUS
 10
16.2480742659
 20
-44.8527938236
 11
16.2480742659
 21
-38.1156320573
  0
LINE
  5
4D1
100
AcDbEntity
  8
RACCORDO
100
AcDbLine
 62
7
  6
CONTINUOUS
 10
16.3109124997
 20
-97.752869976
 11
16.3109124997
 21
-97.0527938236
  0
LINE
  5
4D2
100
AcDbEntity
  8
RACCORDO
100
AcDbLine
 62
7
  6
CONTINUOUS
 10
16.3109124997
 20
14.1472061764
 11
16.3109124997
 21
14.8472823288
  0
LINE
  5
4D3
100
AcDbEntity
  8
DRAFT
100
AcDbLine
 62
7
  6
CONTINUOUS
 10
16.4330979542
 20
-42.9749792781
 11
16.4330979542
 21
-39.9306083691
  0
LINE
  5
4D4
100
AcDbEntity
  8
RACCORDO
100
AcDbLine
 62
7
  6
CONTINUOUS
 10
16.485463149
 20
13.9726555271
 11
16.485463149
 21
11.4813068956
  0
LINE
  5
4D5
100
AcDbEntity
  8
RACCORDO
100
AcDbLine
 62
7
  6
CONTINUOUS
 10
16.485463149
 20
-37.3868945427
 11
16.485463149
 21
-39.8782431743
  0
LINE
  5
4D6
100
AcDbEntity
  8
RACCORDO
100
AcDbLine
 62
7
  6
CONTINUOUS
 10
16.485463149
 20
-43.0273444729
 11
16.485463149
 21
-45.3527938236
  0
LINE
  5
4D7
100
AcDbEntity
  8
RACCORDO
100
AcDbLine
 62
7
  6
CONTINUOUS
 10
16.485463149
 20
-94.5527938236
 11
16.485463149
 21
-96.8782431743
  0
LINE
  5
4D8
100
AcDbEntity
  8
DRAFT
100
AcDbLine
 62
7
  6
CONTINUOUS
 10
17.2887270452
 20
-39.9306083691
 11
17.2887270452
 21
-42.9749792781
  0
LINE
  5
4D9
100
AcDbEntity
  8
DRAFT
100
AcDbLine
 62
7
  6
CONTINUOUS
 10
17.4109124997
 20
-40.0527938236
 11
17.4109124997
 21
-40.9527938236
  0
LINE
  5
4DA
100
AcDbEntity
  8
DRAFT
100
AcDbLine
 62
7
  6
CONTINUOUS
 10
17.4109124997
 20
-41.9527938236
 11
17.4109124997
 21
-42.8527938236
  0
LINE
  5
4DB
100
AcDbEntity
  8
DRAFT
100
AcDbLine
 62
7
  6
CONTINUOUS
 10
17.4737507334
 20
-41.0156320573
 11
17.4737507334
 21
-41.8899555898
  0
LINE
  5
4DC
100
AcDbEntity
  8
DRAFT
100
AcDbLine
 62
7
  6
CONTINUOUS
 10
17.7029182139
 20
-95.9527938236
 11
17.7029182139
 21
-93.7527938236
  0
LINE
  5
4DD
100
AcDbEntity
  8
DRAFT
100
AcDbLine
 62
7
  6
CONTINUOUS
 10
17.7029182139
 20
-46.1527938236
 11
17.7029182139
 21
-43.9527938236
  0
LINE
  5
4DE
100
AcDbEntity
  8
DRAFT
100
AcDbLine
 62
7
  6
CONTINUOUS
 10
17.7029182139
 20
-38.9527938236
 11
17.7029182139
 21
-36.7527938236
  0
LINE
  5
4DF
100
AcDbEntity
  8
DRAFT
100
AcDbLine
 62
7
  6
CONTINUOUS
 10
17.7029182139
 20
10.8472061764
 11
17.7029182139
 21
13.0472061764
  0
LWPOLYLINE
  5
4E0
100
AcDbEntity
  8
0
100
AcDbPolyline
 62
7
  6
CONTINUOUS
 90
47
 70
0
 10
11.094621284
 20
-102.6910243874
 10
11.1066987592
 20
-102.5741622156
 10
11.1109080069
 20
-102.456753037
 10
11.1072300558
 20
-102.3393260128
 10
11.095681482
 20
-102.2224103844
 10
11.0763143344
 20
-102.1065330885
 10
11.0492159001
 20
-101.9922163821
 10
11.0145083109
 20
-101.8799754887
 10
10.972347993
 20
-101.7703162762
 10
10.9229249619
 20
-101.6637329769
 10
10.8664619661
 20
-101.56070596
 10
10.803213483
 20
-101.4616995667
 10
10.7334645722
 20
-101.3671600175
 10
10.6575295905
 20
-101.2775134006
 10
10.5757507754
 20
-101.1931637521
 10
10.4884967024
 20
-101.1144912348
 10
10.396160624
 20
-101.0418504248
 10
10.2991586971
 20
-100.9755687132
 10
10.1979281077
 20
-100.915944831
 10
10.0929251003
 20
-100.8632475024
 10
9.9846229215
 20
-100.8177142339
 10
9.8735096874
 20
-100.7795502435
 10
9.7600861837
 20
-100.7489275362
 10
9.6448636082
 20
-100.7259841283
 10
9.5283612672
 20
-100.7108234259
 10
9.4111042349
 20
-100.7035137585
 10
9.2936209872
 20
-100.704088071
 10
9.1764410193
 20
-100.7125437755
 10
9.0600924595
 20
-100.7288427625
 10
8.9450996894
 20
-100.7529115733
 10
8.8319809798
 20
-100.7846417305
 10
8.7212461553
 20
-100.8238902271
 10
8.6133942963
 20
-100.8704801712
 10
8.5089114899
 20
-100.9242015827
 10
8.4082686389
 20
-100.9848123406
 10
8.3119193395
 20
-101.0520392733
 10
8.2202978371
 20
-101.1255793902
 10
8.1338170688
 20
-101.2051012473
 10
8.0528668028
 20
-101.2902464411
 10
7.9778118811
 20
-101.3806312235
 10
7.9089905758
 20
-101.4758482316
 10
7.846713064
 20
-101.575468324
 10
7.7912600302
 20
-101.6790425142
 10
7.7428814009
 20
-101.7861039949
 10
7.7017952186
 20
-101.8961702414
 10
7.6681866586
 20
-102.0087451866
 10
7.6422071948
 20
-102.1233214565
  0
LINE
  5
4E1
100
AcDbEntity
  8
0
100
AcDbLine
 62
7
  6
CONTINUOUS
 10
7.6422071948
 20
-102.1233214565
 11
7.6239739169
 21
-102.2393826574
  0
LINE
  5
4E2
100
AcDbEntity
  8
DRAFT
100
AcDbLine
 62
7
  6
CONTINUOUS
 10
-3.5263561782
 20
-81.1273444729
 11
-3.4076707763
 21
-80.8899555898
  0
LINE
  5
4E3
100
AcDbEntity
  8
DRAFT
100
AcDbLine
 62
7
  6
CONTINUOUS
 10
23.6609124997
 20
-35.5527938236
 11
23.7201329601
 21
-35.4935733631
  0
LINE
  5
4E4
100
AcDbEntity
  8
DRAFT
100
AcDbLine
 62
7
  6
CONTINUOUS
 10
17.4109124997
 20
-41.9527938236
 11
17.4737507334
 21
-41.8899555898
  0
LINE
  5
4E5
100
AcDbEntity
  8
DRAFT
100
AcDbLine
 62
7
  6
CONTINUOUS
 10
17.4109124997
 20
-42.8527938236
 11
17.2887270452
 21
-42.9749792781
  0
LINE
  5
4E6
100
AcDbEntity
  8
DRAFT
100
AcDbLine
 62
7
  6
CONTINUOUS
 10
17.4847299023
 20
-47.4527938236
 11
17.5109124997
 21
-47.4397035219
  0
LINE
  5
4E7
100
AcDbEntity
  8
DRAFT
100
AcDbLine
 62
7
  6
CONTINUOUS
 10
-1.8890787442
 20
-35.4623919201
 11
-1.8314389431
 21
-35.4527938236
  0
LINE
  5
4E8
100
AcDbEntity
  8
0
100
AcDbLine
 62
7
  6
CONTINUOUS
 10
22.2481811776
 20
-35.561879671
 11
12.3609124997
 21
-35.561879671
  0
LINE
  5
4E9
100
AcDbEntity
  8
0
100
AcDbLine
 62
7
  6
CONTINUOUS
 10
6.3609124997
 20
-35.561879671
 11
-3.5263561782
 21
-35.561879671
  0
LINE
  5
4EA
100
AcDbEntity
  8
DRAFT
100
AcDbLine
 62
7
  6
CONTINUOUS
 10
-6.2390875003
 20
-35.5527938236
 11
-4.9390875003
 21
-35.5527938236
  0
LINE
  5
4EB
100
AcDbEntity
  8
DRAFT
100
AcDbLine
 62
7
  6
CONTINUOUS
 10
23.6609124997
 20
-35.5527938236
 11
24.9609124997
 21
-35.5527938236
  0
LINE
  5
4EC
100
AcDbEntity
  8
0
100
AcDbLine
 62
7
  6
CONTINUOUS
 10
6.3609124997
 20
-35.5379807771
 11
12.3609124997
 21
-35.5379807771
  0
LINE
  5
4ED
100
AcDbEntity
  8
DRAFT
100
AcDbLine
 62
7
  6
CONTINUOUS
 10
12.5355123361
 20
-35.4764581647
 11
6.1863126633
 21
-35.4764581647
  0
LINE
  5
4EE
100
AcDbEntity
  8
DRAFT
100
AcDbLine
 62
7
  6
CONTINUOUS
 10
20.1109124997
 20
-35.4658841253
 11
17.5109124997
 21
-35.4658841253
  0
LINE
  5
4EF
100
AcDbEntity
  8
DRAFT
100
AcDbLine
 62
7
  6
CONTINUOUS
 10
1.2109124997
 20
-35.4658841253
 11
-1.3890875003
 21
-35.4658841253
  0
LINE
  5
4F0
100
AcDbEntity
  8
SUPERFICI
100
AcDbLine
 62
7
  6
CONTINUOUS
 10
12.5334419745
 20
-35.4527938236
 11
6.1883830248
 21
-35.4527938236
  0
LINE
  5
4F1
100
AcDbEntity
  8
DRAFT
100
AcDbLine
 62
7
  6
CONTINUOUS
 10
-1.8314389431
 20
-35.4527938236
 11
-1.4152700977
 21
-35.4527938236
  0
LINE
  5
4F2
100
AcDbEntity
  8
DRAFT
100
AcDbLine
 62
7
  6
CONTINUOUS
 10
1.2370950971
 20
-35.4527938236
 11
4.8609124997
 21
-35.4527938236
  0
LINE
  5
4F3
100
AcDbEntity
  8
DRAFT
100
AcDbLine
 62
7
  6
CONTINUOUS
 10
13.8609124997
 20
-35.4527938236
 11
17.4847299023
 21
-35.4527938236
  0
LINE
  5
4F4
100
AcDbEntity
  8
DRAFT
100
AcDbLine
 62
7
  6
CONTINUOUS
 10
20.1370950971
 20
-35.4527938236
 11
20.5532639425
 21
-35.4527938236
  0
LINE
  5
4F5
100
AcDbEntity
  8
DRAFT
100
AcDbLine
 62
7
  6
CONTINUOUS
 10
22.1294957756
 20
-35.443194269
 11
20.6109124997
 21
-35.443194269
  0
LINE
  5
4F6
100
AcDbEntity
  8
DRAFT
100
AcDbLine
 62
7
  6
CONTINUOUS
 10
-1.8890875003
 20
-35.443194269
 11
-3.4076707763
 21
-35.443194269
  0
LINE
  5
4F7
100
AcDbEntity
  8
DRAFT
100
AcDbLine
 62
7
  6
CONTINUOUS
 10
17.4847299023
 20
-35.4527938236
 11
17.5109124997
 21
-35.4658841253
  0
LINE
  5
4F8
100
AcDbEntity
  8
DRAFT
100
AcDbLine
 62
7
  6
CONTINUOUS
 10
23.6609124997
 20
-47.3527938236
 11
23.7201329601
 21
-47.412014284
  0
LINE
  5
4F9
100
AcDbEntity
  8
DRAFT
100
AcDbLine
 62
7
  6
CONTINUOUS
 10
17.4109124997
 20
-40.9527938236
 11
17.4737507334
 21
-41.0156320573
  0
LINE
  5
4FA
100
AcDbEntity
  8
DRAFT
100
AcDbLine
 62
7
  6
CONTINUOUS
 10
17.4109124997
 20
-40.0527938236
 11
17.2887270452
 21
-39.9306083691
  0
LINE
  5
4FB
100
AcDbEntity
  8
DRAFT
100
AcDbLine
 62
7
  6
CONTINUOUS
 10
20.1109124997
 20
-41.9527938236
 11
20.0480742659
 21
-41.8899555898
  0
LINE
  5
4FC
100
AcDbEntity
  8
DRAFT
100
AcDbLine
 62
7
  6
CONTINUOUS
 10
21.1109124997
 20
-40.9527938236
 11
21.1737507334
 21
-41.0156320573
  0
LINE
  5
4FD
100
AcDbEntity
  8
DRAFT
100
AcDbLine
 62
7
  6
CONTINUOUS
 10
-3.5263561782
 20
-1.7782431743
 11
-3.4076707763
 21
-2.0156320573
  0
LINE
  5
4FE
100
AcDbEntity
  8
DRAFT
100
AcDbLine
 62
7
  6
CONTINUOUS
 10
15.5095662897
 20
-38.0527938236
 11
15.5336876277
 21
-38.1156320573
  0
LINE
  5
4FF
100
AcDbEntity
  8
RACCORDO
100
AcDbLine
 62
7
  6
CONTINUOUS
 10
23.7127955272
 20
-42.3077606418
 11
23.7201329601
 21
-42.3934972107
  0
LINE
  5
500
100
AcDbEntity
  8
RACCORDO
100
AcDbLine
 62
250
  6
CONTINUOUS
 10
23.5086425256
 20
-98.213517244
 11
23.6820061671
 21
-101.5478319909
  0
LINE
  5
501
100
AcDbEntity
  8
DRAFT
100
AcDbLine
 62
250
  6
CONTINUOUS
 10
22.6734667166
 20
-98.3103534383
 11
22.7410527474
 21
-101.2355757809
  0
LWPOLYLINE
  5
502
100
AcDbEntity
  8
SUPERFICI
100
AcDbPolyline
 62
7
  6
CONTINUOUS
 90
7
 70
0
 10
23.6820061671
 20
-101.5478319909
 10
23.6918573064
 20
-102.1346674784
 10
23.6615624996
 20
-102.7144771397
 10
23.5934014315
 20
-103.2824449729
 10
23.4896300642
 20
-103.8338099562
 10
23.3524807469
 20
-104.3638657874
 10
23.1841623262
 20
-104.8679606236
  0
LINE
  5
503
100
AcDbEntity
  8
SUPERFICI
100
AcDbLine
 62
7
  6
CONTINUOUS
 10
21.6611688416
 20
-103.8469108732
 11
21.6592526804
 21
-103.1962994176
  0
LWPOLYLINE
  5
504
100
AcDbEntity
  8
SUPERFICI
100
AcDbPolyline
 62
250
  6
CONTINUOUS
 90
7
 70
0
 10
22.7410527474
 20
-101.2355757809
 10
22.7420531748
 20
-101.8692230073
 10
22.7155574797
 20
-102.515204273
 10
22.6610326046
 20
-103.1688609266
 10
22.5781693712
 20
-103.8248336131
 10
22.4669017164
 20
-104.4770159859
 10
22.3278321976
 20
-105.118912948
  0
LINE
  5
505
100
AcDbEntity
  8
SUPERFICI
100
AcDbLine
 62
7
  6
CONTINUOUS
 10
21.6611688416
 20
-103.8469108732
 11
21.6622955027
 21
-105.1438233369
  0
LINE
  5
506
100
AcDbEntity
  8
RACCORDO
100
AcDbLine
 62
7
  6
CONTINUOUS
 10
23.7201329601
 20
11.3060686681
 11
23.7157752314
 21
14.9021450606
  0
LINE
  5
507
100
AcDbEntity
  8
SUPERFICI
100
AcDbLine
 62
7
  6
CONTINUOUS
 10
21.6589313682
 20
19.9644656722
 11
21.6607788525
 21
18.6537297971
  0
LINE
  5
508
100
AcDbEntity
  8
DRAFT
100
AcDbLine
 62
7
  6
CONTINUOUS
 10
21.6609124997
 20
-100.9007811169
 11
21.6601019311
 21
-98.3119678243
  0
LINE
  5
509
100
AcDbEntity
  8
DRAFT
100
AcDbLine
 62
7
  6
CONTINUOUS
 10
20.0480742659
 20
-41.0156320573
 11
20.0480742659
 21
-41.8899555898
  0
LINE
  5
50A
100
AcDbEntity
  8
DRAFT
100
AcDbLine
 62
7
  6
CONTINUOUS
 10
20.1109124997
 20
-105.2527938236
 11
20.1109124997
 21
-102.9527938236
  0
LINE
  5
50B
100
AcDbEntity
  8
DRAFT
100
AcDbLine
 62
7
  6
CONTINUOUS
 10
20.1109124997
 20
-101.9527938236
 11
20.1109124997
 21
-98.2527938236
  0
LINE
  5
50C
100
AcDbEntity
  8
DRAFT
100
AcDbLine
 62
7
  6
CONTINUOUS
 10
20.1109124997
 20
-40.9527938236
 11
20.1109124997
 21
-41.9527938236
  0
LINE
  5
50D
100
AcDbEntity
  8
DRAFT
100
AcDbLine
 62
7
  6
CONTINUOUS
 10
20.1109124997
 20
15.3472061764
 11
20.1109124997
 21
19.0472061764
  0
LINE
  5
50E
100
AcDbEntity
  8
DRAFT
100
AcDbLine
 62
7
  6
CONTINUOUS
 10
20.1109124997
 20
20.0472061764
 11
20.1109124997
 21
22.3472061764
  0
LINE
  5
50F
100
AcDbEntity
  8
DRAFT
100
AcDbLine
 62
7
  6
CONTINUOUS
 10
20.6109124997
 20
9.556805731
 11
20.6109124997
 21
-35.4623933781
  0
LINE
  5
510
100
AcDbEntity
  8
DRAFT
100
AcDbLine
 62
7
  6
CONTINUOUS
 10
20.6109124997
 20
-47.443194269
 11
20.6109124997
 21
-92.4623933781
  0
LINE
  5
511
100
AcDbEntity
  8
DRAFT
100
AcDbLine
 62
7
  6
CONTINUOUS
 10
20.8483013827
 20
-81.7782431743
 11
20.8483013827
 21
-81.1273444729
  0
LINE
  5
512
100
AcDbEntity
  8
DRAFT
100
AcDbLine
 62
7
  6
CONTINUOUS
 10
20.8483013827
 20
-70.2782431743
 11
20.8483013827
 21
-69.6273444729
  0
LINE
  5
513
100
AcDbEntity
  8
DRAFT
100
AcDbLine
 62
7
  6
CONTINUOUS
 10
20.8483013827
 20
-58.7782431743
 11
20.8483013827
 21
-58.1273444729
  0
LINE
  5
514
100
AcDbEntity
  8
DRAFT
100
AcDbLine
 62
7
  6
CONTINUOUS
 10
20.8483013827
 20
-24.7782431743
 11
20.8483013827
 21
-24.1273444729
  0
LINE
  5
515
100
AcDbEntity
  8
DRAFT
100
AcDbLine
 62
7
  6
CONTINUOUS
 10
20.8483013827
 20
-13.2782431743
 11
20.8483013827
 21
-12.6273444729
  0
LINE
  5
516
100
AcDbEntity
  8
DRAFT
100
AcDbLine
 62
7
  6
CONTINUOUS
 10
20.8483013827
 20
-1.7782431743
 11
20.8483013827
 21
-1.1273444729
  0
LINE
  5
517
100
AcDbEntity
  8
DRAFT
100
AcDbLine
 62
7
  6
CONTINUOUS
 10
21.1109124997
 20
22.3472061764
 11
21.1109124997
 21
15.3472061764
  0
LINE
  5
518
100
AcDbEntity
  8
DRAFT
100
AcDbLine
 62
7
  6
CONTINUOUS
 10
21.1109124997
 20
-41.9527938236
 11
21.1109124997
 21
-40.9527938236
  0
LINE
  5
519
100
AcDbEntity
  8
DRAFT
100
AcDbLine
 62
7
  6
CONTINUOUS
 10
21.1109124997
 20
-98.2527938236
 11
21.1109124997
 21
-105.2527938236
  0
LINE
  5
51A
100
AcDbEntity
  8
DRAFT
100
AcDbLine
 62
7
  6
CONTINUOUS
 10
21.1737507334
 20
-41.8899555898
 11
21.1737507334
 21
-41.0156320573
  0
LINE
  5
51B
100
AcDbEntity
  8
0
100
AcDbLine
 62
250
  6
CONTINUOUS
 10
21.6609124997
 20
-41.2527938236
 11
21.6609124997
 21
-41.6527938236
  0
LINE
  5
51C
100
AcDbEntity
  8
SUPERFICI
100
AcDbLine
 62
7
  6
CONTINUOUS
 10
21.6607788525
 20
18.6537297971
 11
21.6609124997
 21
17.9951934697
  0
LINE
  5
51D
100
AcDbEntity
  8
SUPERFICI
100
AcDbLine
 62
250
  6
CONTINUOUS
 10
21.9609124997
 20
-105.2527938236
 11
21.9609124997
 21
-105.1431902617
  0
LINE
  5
51E
100
AcDbEntity
  8
SUPERFICI
100
AcDbLine
 62
250
  6
CONTINUOUS
 10
21.9609124997
 20
22.3472061764
 11
21.9609124997
 21
22.2376026145
  0
LINE
  5
51F
100
AcDbEntity
  8
DRAFT
100
AcDbLine
 62
7
  6
CONTINUOUS
 10
22.1294957756
 20
9.5376066219
 11
22.1294957756
 21
-0.8899555898
  0
LINE
  5
520
100
AcDbEntity
  8
DRAFT
100
AcDbLine
 62
7
  6
CONTINUOUS
 10
22.1294957756
 20
-2.0156320573
 11
22.1294957756
 21
-12.3899555898
  0
LINE
  5
521
100
AcDbEntity
  8
DRAFT
100
AcDbLine
 62
7
  6
CONTINUOUS
 10
22.1294957756
 20
-13.5156320573
 11
22.1294957756
 21
-23.8899555898
  0
LINE
  5
522
100
AcDbEntity
  8
DRAFT
100
AcDbLine
 62
7
  6
CONTINUOUS
 10
22.1294957756
 20
-25.0156320573
 11
22.1294957756
 21
-35.443194269
  0
LINE
  5
523
100
AcDbEntity
  8
DRAFT
100
AcDbLine
 62
7
  6
CONTINUOUS
 10
22.1294957756
 20
-47.4623933781
 11
22.1294957756
 21
-57.8899555898
  0
LINE
  5
524
100
AcDbEntity
  8
DRAFT
100
AcDbLine
 62
7
  6
CONTINUOUS
 10
22.1294957756
 20
-59.0156320573
 11
22.1294957756
 21
-69.3899555898
  0
LINE
  5
525
100
AcDbEntity
  8
DRAFT
100
AcDbLine
 62
7
  6
CONTINUOUS
 10
22.1294957756
 20
-70.5156320573
 11
22.1294957756
 21
-80.8899555898
  0
LINE
  5
526
100
AcDbEntity
  8
DRAFT
100
AcDbLine
 62
7
  6
CONTINUOUS
 10
22.1294957756
 20
-82.0156320573
 11
22.1294957756
 21
-92.443194269
  0
LINE
  5
527
100
AcDbEntity
  8
DRAFT
100
AcDbLine
 62
7
  6
CONTINUOUS
 10
22.2481811776
 20
9.6562920238
 11
22.2481811776
 21
-1.1273444729
  0
LINE
  5
528
100
AcDbEntity
  8
DRAFT
100
AcDbLine
 62
7
  6
CONTINUOUS
 10
22.2481811776
 20
-1.7782431743
 11
22.2481811776
 21
-12.6273444729
  0
LINE
  5
529
100
AcDbEntity
  8
DRAFT
100
AcDbLine
 62
7
  6
CONTINUOUS
 10
22.2481811776
 20
-13.2782431743
 11
22.2481811776
 21
-24.1273444729
  0
LINE
  5
52A
100
AcDbEntity
  8
DRAFT
100
AcDbLine
 62
7
  6
CONTINUOUS
 10
22.2481811776
 20
-24.7782431743
 11
22.2481811776
 21
-35.561879671
  0
LINE
  5
52B
100
AcDbEntity
  8
DRAFT
100
AcDbLine
 62
7
  6
CONTINUOUS
 10
22.2481811776
 20
-47.3437079762
 11
22.2481811776
 21
-58.1273444729
  0
LINE
  5
52C
100
AcDbEntity
  8
DRAFT
100
AcDbLine
 62
7
  6
CONTINUOUS
 10
22.2481811776
 20
-58.7782431743
 11
22.2481811776
 21
-69.6273444729
  0
LINE
  5
52D
100
AcDbEntity
  8
DRAFT
100
AcDbLine
 62
7
  6
CONTINUOUS
 10
22.2481811776
 20
-70.2782431743
 11
22.2481811776
 21
-81.1273444729
  0
LINE
  5
52E
100
AcDbEntity
  8
DRAFT
100
AcDbLine
 62
7
  6
CONTINUOUS
 10
22.2481811776
 20
-81.7782431743
 11
22.2481811776
 21
-92.561879671
  0
LINE
  5
52F
100
AcDbEntity
  8
DRAFT
100
AcDbLine
 62
7
  6
CONTINUOUS
 10
22.6359124997
 20
-97.0527938236
 11
22.6359124997
 21
-96.9306083691
  0
LINE
  5
530
100
AcDbEntity
  8
DRAFT
100
AcDbLine
 62
7
  6
CONTINUOUS
 10
22.6359124997
 20
14.1472061764
 11
22.6359124997
 21
14.0250207219
  0
LINE
  5
531
100
AcDbEntity
  8
DRAFT
100
AcDbLine
 62
7
  6
CONTINUOUS
 10
22.6359124997
 20
13.0472061764
 11
22.6359124997
 21
10.8472061764
  0
LINE
  5
532
100
AcDbEntity
  8
DRAFT
100
AcDbLine
 62
7
  6
CONTINUOUS
 10
22.6359124997
 20
-40.0527938236
 11
22.6359124997
 21
-39.9306083691
  0
LINE
  5
533
100
AcDbEntity
  8
DRAFT
100
AcDbLine
 62
7
  6
CONTINUOUS
 10
22.6359124997
 20
-36.7527938236
 11
22.6359124997
 21
-38.9527938236
  0
LINE
  5
534
100
AcDbEntity
  8
DRAFT
100
AcDbLine
 62
7
  6
CONTINUOUS
 10
22.6359124997
 20
-42.8527938236
 11
22.6359124997
 21
-42.9749792781
  0
LINE
  5
535
100
AcDbEntity
  8
DRAFT
100
AcDbLine
 62
7
  6
CONTINUOUS
 10
22.6359124997
 20
-43.9527938236
 11
22.6359124997
 21
-46.1527938236
  0
LINE
  5
536
100
AcDbEntity
  8
DRAFT
100
AcDbLine
 62
7
  6
CONTINUOUS
 10
22.6359124997
 20
-93.7527938236
 11
22.6359124997
 21
-95.9527938236
  0
LINE
  5
537
100
AcDbEntity
  8
RACCORDO
100
AcDbLine
 62
7
  6
CONTINUOUS
 10
23.4863618504
 20
13.4727316796
 11
23.4863618504
 21
-39.3783193267
  0
LINE
  5
538
100
AcDbEntity
  8
RACCORDO
100
AcDbLine
 62
7
  6
CONTINUOUS
 10
23.4863618504
 20
-43.5272683204
 11
23.4863618504
 21
-96.3783193267
  0
LINE
  5
539
100
AcDbEntity
  8
RACCORDO
100
AcDbLine
 62
7
  6
CONTINUOUS
 10
23.6609124997
 20
14.8472823288
 11
23.6609124997
 21
13.6472823288
  0
LINE
  5
53A
100
AcDbEntity
  8
DRAFT
100
AcDbLine
 62
7
  6
CONTINUOUS
 10
23.6609124997
 20
10.6472061764
 11
23.6609124997
 21
9.6472061764
  0
LINE
  5
53B
100
AcDbEntity
  8
DRAFT
100
AcDbLine
 62
7
  6
CONTINUOUS
 10
23.6609124997
 20
-0.9527938236
 11
23.6609124997
 21
-1.9527938236
  0
LINE
  5
53C
100
AcDbEntity
  8
DRAFT
100
AcDbLine
 62
7
  6
CONTINUOUS
 10
23.6609124997
 20
-12.4527938236
 11
23.6609124997
 21
-13.4527938236
  0
LINE
  5
53D
100
AcDbEntity
  8
DRAFT
100
AcDbLine
 62
7
  6
CONTINUOUS
 10
23.6609124997
 20
-23.9527938236
 11
23.6609124997
 21
-24.9527938236
  0
LINE
  5
53E
100
AcDbEntity
  8
DRAFT
100
AcDbLine
 62
7
  6
CONTINUOUS
 10
23.6609124997
 20
-35.5527938236
 11
23.6609124997
 21
-36.5527938236
  0
LINE
  5
53F
100
AcDbEntity
  8
RACCORDO
100
AcDbLine
 62
7
  6
CONTINUOUS
 10
23.6609124997
 20
-39.552869976
 11
23.6609124997
 21
-40.452869976
  0
LINE
  5
540
100
AcDbEntity
  8
RACCORDO
100
AcDbLine
 62
7
  6
CONTINUOUS
 10
23.6609124997
 20
-42.4527176712
 11
23.6609124997
 21
-43.3527176712
  0
LINE
  5
541
100
AcDbEntity
  8
DRAFT
100
AcDbLine
 62
7
  6
CONTINUOUS
 10
23.6609124997
 20
-46.3527938236
 11
23.6609124997
 21
-47.3527938236
  0
LINE
  5
542
100
AcDbEntity
  8
DRAFT
100
AcDbLine
 62
7
  6
CONTINUOUS
 10
23.6609124997
 20
-57.9527938236
 11
23.6609124997
 21
-58.9527938236
  0
LINE
  5
543
100
AcDbEntity
  8
DRAFT
100
AcDbLine
 62
7
  6
CONTINUOUS
 10
23.6609124997
 20
-69.4527938236
 11
23.6609124997
 21
-70.4527938236
  0
LINE
  5
544
100
AcDbEntity
  8
DRAFT
100
AcDbLine
 62
7
  6
CONTINUOUS
 10
23.6609124997
 20
-80.9527938236
 11
23.6609124997
 21
-81.9527938236
  0
LINE
  5
545
100
AcDbEntity
  8
DRAFT
100
AcDbLine
 62
7
  6
CONTINUOUS
 10
23.6609124997
 20
-92.5527938236
 11
23.6609124997
 21
-93.5527938236
  0
LINE
  5
546
100
AcDbEntity
  8
RACCORDO
100
AcDbLine
 62
7
  6
CONTINUOUS
 10
23.6609124997
 20
-96.552869976
 11
23.6609124997
 21
-97.752869976
  0
LINE
  5
547
100
AcDbEntity
  8
DRAFT
100
AcDbLine
 62
7
  6
CONTINUOUS
 10
23.7201329601
 20
-94.2116563153
 11
23.7201329601
 21
-93.612014284
  0
LINE
  5
548
100
AcDbEntity
  8
DRAFT
100
AcDbLine
 62
7
  6
CONTINUOUS
 10
23.7201329601
 20
-92.4935733631
 11
23.7201329601
 21
-82.012014284
  0
LINE
  5
549
100
AcDbEntity
  8
DRAFT
100
AcDbLine
 62
7
  6
CONTINUOUS
 10
23.7201329601
 20
-80.8935733631
 11
23.7201329601
 21
-70.512014284
  0
LINE
  5
54A
100
AcDbEntity
  8
DRAFT
100
AcDbLine
 62
7
  6
CONTINUOUS
 10
23.7201329601
 20
-69.3935733631
 11
23.7201329601
 21
-59.012014284
  0
LINE
  5
54B
100
AcDbEntity
  8
DRAFT
100
AcDbLine
 62
7
  6
CONTINUOUS
 10
23.7201329601
 20
-57.8935733631
 11
23.7201329601
 21
-47.412014284
  0
LINE
  5
54C
100
AcDbEntity
  8
RACCORDO
100
AcDbLine
 62
7
  6
CONTINUOUS
 10
23.7201329601
 20
-46.2935733631
 11
23.7201329601
 21
-42.3934972107
  0
LINE
  5
54D
100
AcDbEntity
  8
RACCORDO
100
AcDbLine
 62
7
  6
CONTINUOUS
 10
23.7201329601
 20
-40.5120904364
 11
23.7201329601
 21
-36.612014284
  0
LINE
  5
54E
100
AcDbEntity
  8
DRAFT
100
AcDbLine
 62
7
  6
CONTINUOUS
 10
23.7201329601
 20
-35.4935733631
 11
23.7201329601
 21
-25.012014284
  0
LINE
  5
54F
100
AcDbEntity
  8
DRAFT
100
AcDbLine
 62
7
  6
CONTINUOUS
 10
23.7201329601
 20
-23.8935733631
 11
23.7201329601
 21
-13.512014284
  0
LINE
  5
550
100
AcDbEntity
  8
DRAFT
100
AcDbLine
 62
7
  6
CONTINUOUS
 10
23.7201329601
 20
-12.3935733631
 11
23.7201329601
 21
-2.012014284
  0
LINE
  5
551
100
AcDbEntity
  8
DRAFT
100
AcDbLine
 62
7
  6
CONTINUOUS
 10
23.7201329601
 20
-0.8935733631
 11
23.7201329601
 21
9.587985716
  0
LINE
  5
552
100
AcDbEntity
  8
DRAFT
100
AcDbLine
 62
7
  6
CONTINUOUS
 10
23.7201329601
 20
10.7064266369
 11
23.7201329601
 21
11.3060686681
  0
LINE
  5
553
100
AcDbEntity
  8
DRAFT
100
AcDbLine
 62
7
  6
CONTINUOUS
 10
23.7785534699
 20
-41.8939066866
 11
23.7785534699
 21
-41.0116809605
  0
LINE
  5
554
100
AcDbEntity
  8
DRAFT
100
AcDbLine
 62
7
  6
CONTINUOUS
 10
21.6609124997
 20
17.9951934697
 11
21.6601019311
 21
15.4063801771
  0
LINE
  5
555
100
AcDbEntity
  8
SUPERFICI
100
AcDbLine
 62
7
  6
CONTINUOUS
 10
21.6611688416
 20
20.941323226
 11
21.6622955027
 21
22.2382356897
  0
LWPOLYLINE
  5
556
100
AcDbEntity
  8
SUPERFICI
100
AcDbPolyline
 62
7
  6
CONTINUOUS
 90
3
 70
0
 10
21.6592526804
 20
-103.1962994176
 10
21.6592199665
 20
-102.5432134463
 10
21.6609124997
 20
-100.9007811169
  0
LWPOLYLINE
  5
557
100
AcDbEntity
  8
RACCORDO
100
AcDbPolyline
 62
7
  6
CONTINUOUS
 90
3
 70
0
 10
23.7193524063
 20
-95.019442263
 10
23.7197560029
 20
-94.6161643436
 10
23.7201329601
 20
-94.2116563153
  0
LINE
  5
558
100
AcDbEntity
  8
RACCORDO
100
AcDbLine
 62
7
  6
CONTINUOUS
 10
23.7184655203
 20
-95.8223156244
 11
23.7193524063
 21
-95.019442263
  0
LWPOLYLINE
  5
559
100
AcDbEntity
  8
RACCORDO
100
AcDbPolyline
 62
7
  6
CONTINUOUS
 90
3
 70
0
 10
23.7169334771
 20
-97.0173331274
 10
23.7174716252
 20
-96.6202528506
 10
23.7184655203
 20
-95.8223156244
  0
LWPOLYLINE
  5
55A
100
AcDbEntity
  8
SUPERFICI
100
AcDbPolyline
 62
250
  6
CONTINUOUS
 90
7
 70
0
 10
22.7410527474
 20
18.3299881337
 10
22.7420531748
 20
18.9636353601
 10
22.7155574797
 20
19.6096166259
 10
22.6610326046
 20
20.2632732795
 10
22.5781693712
 20
20.919245966
 10
22.4669017164
 20
21.5714283387
 10
22.3278321976
 20
22.2133253008
  0
LINE
  5
55B
100
AcDbEntity
  8
RACCORDO
100
AcDbLine
 62
7
  6
CONTINUOUS
 10
23.7157752314
 20
-97.8077327077
 11
23.7169334771
 21
-97.0173331274
  0
LWPOLYLINE
  5
55C
100
AcDbEntity
  8
SUPERFICI
100
AcDbPolyline
 62
7
  6
CONTINUOUS
 90
3
 70
0
 10
21.6611688416
 20
20.941323226
 10
21.6599985048
 20
20.6163385608
 10
21.6589313682
 20
19.9644656722
  0
LWPOLYLINE
  5
55D
100
AcDbEntity
  8
SUPERFICI
100
AcDbPolyline
 62
7
  6
CONTINUOUS
 90
7
 70
0
 10
23.6820061671
 20
18.6422443437
 10
23.6918573064
 20
19.2290798313
 10
23.6615624996
 20
19.8088894926
 10
23.5934014315
 20
20.3768573258
 10
23.4896300642
 20
20.9282223091
 10
23.3524807469
 20
21.4582781402
 10
23.1841623262
 20
21.9623729764
  0
LINE
  5
55E
100
AcDbEntity
  8
DRAFT
100
AcDbLine
 62
250
  6
CONTINUOUS
 10
22.6734667166
 20
15.4047657911
 11
22.7410527474
 21
18.3299881337
  0
LINE
  5
55F
100
AcDbEntity
  8
RACCORDO
100
AcDbLine
 62
250
  6
CONTINUOUS
 10
23.5086425256
 20
15.3079295969
 11
23.6820061671
 21
18.6422443437
  0
LWPOLYLINE
  5
560
100
AcDbEntity
  8
RACCORDO
100
AcDbPolyline
 62
7
  6
CONTINUOUS
 90
9
 70
0
 10
23.7201329601
 20
-40.5120904364
 10
23.7127955272
 20
-40.5978270054
 10
23.6908349474
 20
-40.6814067167
 10
23.6547419091
 20
-40.7602978591
 10
23.6054198051
 20
-40.8321286987
 10
23.5442365696
 20
-40.8945524766
 10
23.4730768318
 20
-40.9454044535
 10
23.3941389796
 20
-40.9830398643
 10
23.3097898814
 20
-41.0063052704
  0
LINE
  5
561
100
AcDbEntity
  8
0
100
AcDbLine
 62
7
  6
CONTINUOUS
 10
11.0747300146
 20
-102.8068128568
 11
11.094621284
 21
-102.6910243874
  0
LINE
  5
562
100
AcDbEntity
  8
DRAFT
100
AcDbLine
 62
7
  6
CONTINUOUS
 10
-1.3890875003
 20
-105.2527938236
 11
-1.3527935198
 21
-105.1438233369
  0
LINE
  5
563
100
AcDbEntity
  8
DRAFT
100
AcDbLine
 62
7
  6
CONTINUOUS
 10
-4.9390875003
 20
-70.4527938236
 11
-4.9983079608
 21
-70.512014284
  0
LINE
  5
564
100
AcDbEntity
  8
RACCORDO
100
AcDbLine
 62
250
  6
CONTINUOUS
 10
23.1609886521
 20
-42.8527938236
 11
22.9864380028
 21
-43.0273444729
  0
LINE
  5
565
100
AcDbEntity
  8
RACCORDO
100
AcDbLine
 62
250
  6
CONTINUOUS
 10
23.6609124997
 20
-43.3527176712
 11
23.4863618504
 21
-43.5272683204
  0
LINE
  5
566
100
AcDbEntity
  8
DRAFT
100
AcDbLine
 62
7
  6
CONTINUOUS
 10
-2.1264763833
 20
-69.6273444729
 11
-1.8890875003
 21
-69.3899555898
  0
LINE
  5
567
100
AcDbEntity
  8
DRAFT
100
AcDbLine
 62
7
  6
CONTINUOUS
 10
22.2481811776
 20
-47.3437079762
 11
22.1294957756
 21
-47.4623933781
  0
LINE
  5
568
100
AcDbEntity
  8
DRAFT
100
AcDbLine
 62
7
  6
CONTINUOUS
 10
24.9609124997
 20
-47.3527938236
 11
24.8074426411
 21
-47.4039088752
  0
LINE
  5
569
100
AcDbEntity
  8
DRAFT
100
AcDbLine
 62
7
  6
CONTINUOUS
 10
-6.2390875003
 20
-57.9527938236
 11
-6.0856176417
 21
-57.9016787719
  0
LINE
  5
56A
100
AcDbEntity
  8
DRAFT
100
AcDbLine
 62
7
  6
CONTINUOUS
 10
24.9609124997
 20
-35.5527938236
 11
24.8074426411
 21
-35.5016787719
  0
LINE
  5
56B
100
AcDbEntity
  8
DRAFT
100
AcDbLine
 62
7
  6
CONTINUOUS
 10
-6.2390875003
 20
-24.9527938236
 11
-6.0856176417
 21
-25.0039088752
  0
LINE
  5
56C
100
AcDbEntity
  8
DRAFT
100
AcDbLine
 62
7
  6
CONTINUOUS
 10
-4.9390875003
 20
-12.4527938236
 11
-4.9983079608
 21
-12.3935733631
  0
LINE
  5
56D
100
AcDbEntity
  8
RACCORDO
100
AcDbLine
 62
250
  6
CONTINUOUS
 10
22.9864380028
 20
-39.8782431743
 11
23.1609886521
 21
-40.0527938236
  0
LINE
  5
56E
100
AcDbEntity
  8
RACCORDO
100
AcDbLine
 62
250
  6
CONTINUOUS
 10
23.4863618504
 20
-39.3783193267
 11
23.6609124997
 21
-39.552869976
  0
LINE
  5
56F
100
AcDbEntity
  8
DRAFT
100
AcDbLine
 62
7
  6
CONTINUOUS
 10
-2.1264763833
 20
-13.2782431743
 11
-1.8890875003
 21
-13.5156320573
  0
LINE
  5
570
100
AcDbEntity
  8
DRAFT
100
AcDbLine
 62
7
  6
CONTINUOUS
 10
22.2481811776
 20
-35.561879671
 11
22.1294957756
 21
-35.443194269
  0
LINE
  5
571
100
AcDbEntity
  8
DRAFT
100
AcDbLine
 62
7
  6
CONTINUOUS
 10
23.6609124997
 20
-36.5527938236
 11
23.7201329601
 21
-36.612014284
  0
LINE
  5
572
100
AcDbEntity
  8
DRAFT
100
AcDbLine
 62
7
  6
CONTINUOUS
 10
3.2122587096
 20
12.1472061764
 11
3.1882046415
 21
12.2098691664
  0
LINE
  5
573
100
AcDbEntity
  8
DRAFT
100
AcDbLine
 62
7
  6
CONTINUOUS
 10
-1.3890875003
 20
22.3472061764
 11
-1.3527935198
 21
22.2382356897
  0
LINE
  5
574
100
AcDbEntity
  8
SUPERFICI
100
AcDbLine
 62
7
  6
CONTINUOUS
 10
24.8389237542
 20
-102.2527938236
 11
24.8320661052
 21
-100.9864022278
  0
LINE
  5
575
100
AcDbEntity
  8
SUPERFICI
100
AcDbLine
 62
7
  6
CONTINUOUS
 10
24.8320661052
 20
-100.9864022278
 11
24.8210551018
 21
-98.4957451407
  0
LINE
  5
576
100
AcDbEntity
  8
SUPERFICI
100
AcDbLine
 62
7
  6
CONTINUOUS
 10
24.8210551018
 20
-98.4957451407
 11
24.8122247485
 21
-95.9485092618
  0
LINE
  5
577
100
AcDbEntity
  8
SUPERFICI
100
AcDbLine
 62
7
  6
CONTINUOUS
 10
24.8122247485
 20
-95.9485092618
 11
24.8075161138
 21
-94.2193096127
  0
LINE
  5
578
100
AcDbEntity
  8
DRAFT
100
AcDbLine
 62
7
  6
CONTINUOUS
 10
24.8074426411
 20
-93.6039088752
 11
24.8075161138
 21
-94.2193096127
  0
LINE
  5
579
100
AcDbEntity
  8
DRAFT
100
AcDbLine
 62
7
  6
CONTINUOUS
 10
24.8074426411
 20
9.5960911248
 11
24.8074426411
 21
-0.9016787719
  0
LINE
  5
57A
100
AcDbEntity
  8
DRAFT
100
AcDbLine
 62
7
  6
CONTINUOUS
 10
24.8074426411
 20
-2.0039088752
 11
24.8074426411
 21
-12.4016787719
  0
LINE
  5
57B
100
AcDbEntity
  8
DRAFT
100
AcDbLine
 62
7
  6
CONTINUOUS
 10
24.8074426411
 20
-13.5039088752
 11
24.8074426411
 21
-23.9016787719
  0
LINE
  5
57C
100
AcDbEntity
  8
DRAFT
100
AcDbLine
 62
7
  6
CONTINUOUS
 10
24.8074426411
 20
-25.0039088752
 11
24.8074426411
 21
-35.5016787719
  0
LINE
  5
57D
100
AcDbEntity
  8
DRAFT
100
AcDbLine
 62
7
  6
CONTINUOUS
 10
24.8074426411
 20
-36.6039088752
 11
24.8074426411
 21
-46.3016787719
  0
LINE
  5
57E
100
AcDbEntity
  8
DRAFT
100
AcDbLine
 62
7
  6
CONTINUOUS
 10
24.8074426411
 20
-47.4039088752
 11
24.8074426411
 21
-57.9016787719
  0
LINE
  5
57F
100
AcDbEntity
  8
DRAFT
100
AcDbLine
 62
7
  6
CONTINUOUS
 10
24.8074426411
 20
-59.0039088752
 11
24.8074426411
 21
-69.4016787719
  0
LINE
  5
580
100
AcDbEntity
  8
DRAFT
100
AcDbLine
 62
7
  6
CONTINUOUS
 10
24.8074426411
 20
-70.5039088752
 11
24.8074426411
 21
-80.9016787719
  0
LINE
  5
581
100
AcDbEntity
  8
DRAFT
100
AcDbLine
 62
7
  6
CONTINUOUS
 10
24.8074426411
 20
-82.0039088752
 11
24.8074426411
 21
-92.5016787719
  0
LINE
  5
582
100
AcDbEntity
  8
DRAFT
100
AcDbLine
 62
7
  6
CONTINUOUS
 10
24.9609124997
 20
-102.2527938236
 11
24.9609124997
 21
-93.5527938236
  0
LINE
  5
583
100
AcDbEntity
  8
DRAFT
100
AcDbLine
 62
7
  6
CONTINUOUS
 10
24.9609124997
 20
-92.5527938236
 11
24.9609124997
 21
-81.9527938236
  0
LINE
  5
584
100
AcDbEntity
  8
DRAFT
100
AcDbLine
 62
7
  6
CONTINUOUS
 10
24.9609124997
 20
-80.9527938236
 11
24.9609124997
 21
-70.4527938236
  0
LINE
  5
585
100
AcDbEntity
  8
DRAFT
100
AcDbLine
 62
7
  6
CONTINUOUS
 10
24.9609124997
 20
-69.4527938236
 11
24.9609124997
 21
-58.9527938236
  0
LINE
  5
586
100
AcDbEntity
  8
DRAFT
100
AcDbLine
 62
7
  6
CONTINUOUS
 10
24.9609124997
 20
-57.9527938236
 11
24.9609124997
 21
-47.3527938236
  0
LINE
  5
587
100
AcDbEntity
  8
DRAFT
100
AcDbLine
 62
7
  6
CONTINUOUS
 10
24.9609124997
 20
-46.3527938236
 11
24.9609124997
 21
-36.5527938236
  0
LINE
  5
588
100
AcDbEntity
  8
DRAFT
100
AcDbLine
 62
7
  6
CONTINUOUS
 10
24.9609124997
 20
-35.5527938236
 11
24.9609124997
 21
-24.9527938236
  0
LINE
  5
589
100
AcDbEntity
  8
DRAFT
100
AcDbLine
 62
7
  6
CONTINUOUS
 10
24.9609124997
 20
-23.9527938236
 11
24.9609124997
 21
-13.4527938236
  0
LINE
  5
58A
100
AcDbEntity
  8
DRAFT
100
AcDbLine
 62
7
  6
CONTINUOUS
 10
24.9609124997
 20
-12.4527938236
 11
24.9609124997
 21
-1.9527938236
  0
LINE
  5
58B
100
AcDbEntity
  8
DRAFT
100
AcDbLine
 62
7
  6
CONTINUOUS
 10
24.9609124997
 20
-0.9527938236
 11
24.9609124997
 21
9.6472061764
  0
LINE
  5
58C
100
AcDbEntity
  8
DRAFT
100
AcDbLine
 62
7
  6
CONTINUOUS
 10
24.9609124997
 20
10.6472061764
 11
24.9609124997
 21
19.3472061764
  0
LINE
  5
58D
100
AcDbEntity
  8
0
100
AcDbLine
 62
7
  6
CONTINUOUS
 10
26.6609124997
 20
19.3472061764
 11
26.6609124997
 21
-102.2527938236
  0
LINE
  5
58E
100
AcDbEntity
  8
DRAFT
100
AcDbLine
 62
7
  6
CONTINUOUS
 10
24.8075161138
 20
11.3137219655
 11
24.8074426411
 21
10.6983212281
  0
LINE
  5
58F
100
AcDbEntity
  8
SUPERFICI
100
AcDbLine
 62
7
  6
CONTINUOUS
 10
24.8178761834
 20
14.7472851582
 11
24.8075161138
 21
11.3137219655
  0
LINE
  5
590
100
AcDbEntity
  8
SUPERFICI
100
AcDbLine
 62
7
  6
CONTINUOUS
 10
24.8320661052
 20
18.0808145807
 11
24.8178761834
 21
14.7472851582
  0
LINE
  5
591
100
AcDbEntity
  8
SUPERFICI
100
AcDbLine
 62
7
  6
CONTINUOUS
 10
24.8389237542
 20
19.3472061764
 11
24.8320661052
 21
18.0808145807
  0
LWPOLYLINE
  5
592
100
AcDbEntity
  8
RACCORDO
100
AcDbPolyline
 62
7
  6
CONTINUOUS
 90
7
 70
0
 10
23.7157752314
 20
-97.8077327077
 10
23.7096101535
 20
-97.8853967651
 10
23.6913923941
 20
-97.9615087054
 10
23.6614311633
 20
-98.0341700308
 10
23.6203367301
 20
-98.1015330857
 10
23.56901305
 20
-98.1618494179
 10
23.5086425256
 20
-98.213517244
  0
LWPOLYLINE
  5
593
100
AcDbEntity
  8
0
100
AcDbPolyline
 62
7
  6
CONTINUOUS
 90
13
 70
0
 10
8.1497793229
 20
-101.8515012405
 10
8.1208794214
 20
-101.9347498302
 10
8.0976473972
 20
-102.0191977618
 10
8.0801160577
 20
-102.1044624216
 10
8.0682925821
 20
-102.1901620561
 10
8.0621587749
 20
-102.2759174762
 10
8.0616714327
 20
-102.3613537318
 10
8.0667628192
 20
-102.4461017497
 10
8.077341249
 20
-102.5297999275
 10
8.0932917719
 20
-102.6120956758
 10
8.1144769574
 20
-102.6926469043
 10
8.1407377727
 20
-102.7711234427
 10
8.1718945497
 20
-102.8472083927
  0
LINE
  5
594
100
AcDbEntity
  8
DRAFT
100
AcDbLine
 62
7
  6
CONTINUOUS
 10
6.2109124997
 20
-97.7527938236
 11
6.187874895
 21
-97.8128088355
  0
LINE
  5
595
100
AcDbEntity
  8
DRAFT
100
AcDbLine
 62
7
  6
CONTINUOUS
 10
-4.9390875003
 20
-81.9527938236
 11
-4.9983079608
 21
-82.012014284
  0
LINE
  5
596
100
AcDbEntity
  8
DRAFT
100
AcDbLine
 62
7
  6
CONTINUOUS
 10
22.1294957756
 20
-25.0156320573
 11
20.6109124997
 21
-25.0156320573
  0
LINE
  5
597
100
AcDbEntity
  8
DRAFT
100
AcDbLine
 62
7
  6
CONTINUOUS
 10
-1.8890875003
 20
-25.0156320573
 11
-3.4076707763
 21
-25.0156320573
  0
LINE
  5
598
100
AcDbEntity
  8
DRAFT
100
AcDbLine
 62
7
  6
CONTINUOUS
 10
24.9609124997
 20
-24.9527938236
 11
23.6609124997
 21
-24.9527938236
  0
LINE
  5
599
100
AcDbEntity
  8
DRAFT
100
AcDbLine
 62
7
  6
CONTINUOUS
 10
-4.9390875003
 20
-24.9527938236
 11
-6.2390875003
 21
-24.9527938236
  0
LINE
  5
59A
100
AcDbEntity
  8
DRAFT
100
AcDbLine
 62
7
  6
CONTINUOUS
 10
22.2481811776
 20
-24.7782431743
 11
20.8483013827
 21
-24.7782431743
  0
LINE
  5
59B
100
AcDbEntity
  8
DRAFT
100
AcDbLine
 62
7
  6
CONTINUOUS
 10
-2.1264763833
 20
-24.7782431743
 11
-3.5263561782
 21
-24.7782431743
  0
LINE
  5
59C
100
AcDbEntity
  8
DRAFT
100
AcDbLine
 62
7
  6
CONTINUOUS
 10
-3.5263561782
 20
-24.1273444729
 11
-2.1264763833
 21
-24.1273444729
  0
LINE
  5
59D
100
AcDbEntity
  8
DRAFT
100
AcDbLine
 62
7
  6
CONTINUOUS
 10
20.8483013827
 20
-24.1273444729
 11
22.2481811776
 21
-24.1273444729
  0
LINE
  5
59E
100
AcDbEntity
  8
DRAFT
100
AcDbLine
 62
7
  6
CONTINUOUS
 10
-6.2390875003
 20
-23.9527938236
 11
-4.9390875003
 21
-23.9527938236
  0
LINE
  5
59F
100
AcDbEntity
  8
DRAFT
100
AcDbLine
 62
7
  6
CONTINUOUS
 10
23.6609124997
 20
-23.9527938236
 11
24.9609124997
 21
-23.9527938236
  0
LINE
  5
5A0
100
AcDbEntity
  8
DRAFT
100
AcDbLine
 62
7
  6
CONTINUOUS
 10
22.1294957756
 20
-23.8899555898
 11
20.6109124997
 21
-23.8899555898
  0
LINE
  5
5A1
100
AcDbEntity
  8
DRAFT
100
AcDbLine
 62
7
  6
CONTINUOUS
 10
-3.4076707763
 20
-23.8899555898
 11
-1.8890875003
 21
-23.8899555898
  0
LINE
  5
5A2
100
AcDbEntity
  8
DRAFT
100
AcDbLine
 62
7
  6
CONTINUOUS
 10
-4.9390875003
 20
-0.9527938236
 11
-4.9983079608
 21
-0.8935733631
  0
LINE
  5
5A3
100
AcDbEntity
  8
DRAFT
100
AcDbLine
 62
7
  6
CONTINUOUS
 10
6.2109124997
 20
14.8472061764
 11
6.187874895
 21
14.9072211883
  0
LWPOLYLINE
  5
5A4
100
AcDbEntity
  8
DRAFT
100
AcDbPolyline
 62
7
  6
CONTINUOUS
 90
10
 70
0
 10
16.6758888051
 20
20.0930197603
 10
16.6391282393
 20
20.3474860922
 10
16.5892359628
 20
20.5984885348
 10
16.5262119754
 20
20.8460306738
 10
16.4497940481
 20
21.0908878553
 10
16.36024441
 20
21.3322912311
 10
16.2583497484
 20
21.5679399716
 10
16.1443722927
 20
21.7970835517
 10
16.0180498135
 20
22.020509441
 10
15.879382311
 20
22.2382356897
  0
LINE
  5
5A5
100
AcDbEntity
  8
DRAFT
100
AcDbLine
 62
7
  6
CONTINUOUS
 10
14.3569092945
 20
-98.3527938236
 11
14.3734589563
 21
-98.2935868973
  0
LWPOLYLINE
  5
5A6
100
AcDbEntity
  8
0
100
AcDbPolyline
 62
7
  6
CONTINUOUS
 90
48
 70
0
 10
10.9414725339
 20
-103.2040128184
 10
10.979288685
 20
-103.0965481514
 10
11.0098515628
 20
-102.9873586641
 10
11.0330977273
 20
-102.8769306376
 10
11.0489961372
 20
-102.7657512544
 10
11.0575479963
 20
-102.654306453
 10
11.0587864574
 20
-102.5430788057
 10
11.0527761886
 20
-102.4325454302
 10
11.0396128029
 20
-102.3231759429
 10
11.0194221563
 20
-102.2154304642
 10
10.9923595178
 20
-102.1097576826
 10
10.9586086159
 20
-102.0065929866
 10
10.9183805684
 20
-101.9063566726
 10
10.8719126991
 20
-101.809452235
 10
10.8194672489
 20
-101.7162647464
 10
10.7613299884
 20
-101.6271593345
 10
10.6978087375
 20
-101.5424797601
 10
10.6292318015
 20
-101.4625471043
 10
10.5559463285
 20
-101.3876585674
 10
10.4783166
 20
-101.3180863851
 10
10.396722259
 20
-101.2540768664
 10
10.3115564873
 20
-101.1958495547
 10
10.2232241378
 20
-101.1435965167
 10
10.1321398339
 20
-101.0974817597
 10
10.0387260406
 20
-101.0576407799
 10
9.9434111209
 20
-101.0241802417
 10
9.8466273823
 20
-100.9971777891
 10
9.7488091249
 20
-100.9766819883
 10
9.6503906983
 20
-100.9627124003
 10
9.5518045776
 20
-100.9552597834
 10
9.4534794651
 20
-100.9542864216
 10
9.3558384273
 20
-100.9597265785
 10
9.2592970753
 20
-100.9714870706
 10
9.1642617955
 20
-100.9894479603
 10
9.0711280391
 20
-101.0134633598
 10
8.9802786773
 20
-101.0433623456
 10
8.8920824283
 20
-101.0789499749
 10
8.8068923644
 20
-101.120008401
 10
8.7250445024
 20
-101.1662980802
 10
8.6468564865
 20
-101.2175590643
 10
8.572626365
 20
-101.2735123725
 10
8.5026314685
 20
-101.3338614345
 10
8.4371273925
 20
-101.3982935997
 10
8.3763470875
 20
-101.4664817026
 10
8.3205000612
 20
-101.5380856782
 10
8.2697716939
 20
-101.6127542199
 10
8.22432267
 20
-101.6901264707
 10
8.1842885271
 20
-101.7698337403
  0
LINE
  5
5A7
100
AcDbEntity
  8
0
100
AcDbLine
 62
7
  6
CONTINUOUS
 10
8.1842885271
 20
-101.7698337403
 11
8.1497793229
 21
-101.8515012405
  0
LINE
  5
5A8
100
AcDbEntity
  8
DRAFT
100
AcDbLine
 62
7
  6
CONTINUOUS
 10
22.2481811776
 20
-58.7782431743
 11
22.1294957756
 21
-59.0156320573
  0
LINE
  5
5A9
100
AcDbEntity
  8
DRAFT
100
AcDbLine
 62
7
  6
CONTINUOUS
 10
-2.1264763833
 20
-81.1273444729
 11
-1.8890875003
 21
-80.8899555898
  0
LINE
  5
5AA
100
AcDbEntity
  8
DRAFT
100
AcDbLine
 62
7
  6
CONTINUOUS
 10
20.8483013827
 20
-58.7782431743
 11
20.6109124997
 21
-59.0156320573
  0
LINE
  5
5AB
100
AcDbEntity
  8
DRAFT
100
AcDbLine
 62
7
  6
CONTINUOUS
 10
24.9609124997
 20
-58.9527938236
 11
24.8074426411
 21
-59.0039088752
  0
LINE
  5
5AC
100
AcDbEntity
  8
DRAFT
100
AcDbLine
 62
7
  6
CONTINUOUS
 10
-6.2390875003
 20
-69.4527938236
 11
-6.0856176417
 21
-69.4016787719
  0
LINE
  5
5AD
100
AcDbEntity
  8
DRAFT
100
AcDbLine
 62
7
  6
CONTINUOUS
 10
24.9609124997
 20
-23.9527938236
 11
24.8074426411
 21
-23.9016787719
  0
LINE
  5
5AE
100
AcDbEntity
  8
DRAFT
100
AcDbLine
 62
7
  6
CONTINUOUS
 10
-6.2390875003
 20
-13.4527938236
 11
-6.0856176417
 21
-13.5039088752
  0
LINE
  5
5AF
100
AcDbEntity
  8
DRAFT
100
AcDbLine
 62
7
  6
CONTINUOUS
 10
-2.1264763833
 20
-1.7782431743
 11
-1.8890875003
 21
-2.0156320573
  0
LINE
  5
5B0
100
AcDbEntity
  8
DRAFT
100
AcDbLine
 62
7
  6
CONTINUOUS
 10
20.8483013827
 20
-24.1273444729
 11
20.6109124997
 21
-23.8899555898
  0
LINE
  5
5B1
100
AcDbEntity
  8
DRAFT
100
AcDbLine
 62
7
  6
CONTINUOUS
 10
23.6609124997
 20
-24.9527938236
 11
23.7201329601
 21
-25.012014284
  0
LINE
  5
5B2
100
AcDbEntity
  8
DRAFT
100
AcDbLine
 62
7
  6
CONTINUOUS
 10
22.2481811776
 20
-24.1273444729
 11
22.1294957756
 21
-23.8899555898
  0
LINE
  5
5B3
100
AcDbEntity
  8
DRAFT
100
AcDbLine
 62
7
  6
CONTINUOUS
 10
14.3569092945
 20
15.4472061764
 11
14.3734589563
 21
15.3879992502
  0
LWPOLYLINE
  5
5B4
100
AcDbEntity
  8
0
100
AcDbPolyline
 62
7
  6
CONTINUOUS
 90
19
 70
0
 10
10.422796011
 20
-102.9574928206
 10
10.3945714677
 20
-103.0216212805
 10
10.3624875671
 20
-103.0841324518
 10
10.3266397041
 20
-103.1447946866
 10
10.2871507474
 20
-103.2033632083
 10
10.2441321718
 20
-103.2596393009
 10
10.1976721335
 20
-103.3134633226
 10
10.1479653237
 20
-103.3645695583
 10
10.0951144245
 20
-103.4128147988
 10
10.0390398959
 20
-103.4581898159
 10
9.9796991286
 20
-103.5005899825
 10
9.9174188909
 20
-103.5396474519
 10
9.8526971731
 20
-103.5749817422
 10
9.785758574
 20
-103.6064413095
 10
9.7168358646
 20
-103.6338887555
 10
9.6465182609
 20
-103.6570973359
 10
9.5751934154
 20
-103.6759928433
 10
9.5030157128
 20
-103.690587482
 10
9.4302507627
 20
-103.7008692241
  0
LWPOLYLINE
  5
5B5
100
AcDbEntity
  8
0
100
AcDbPolyline
 62
7
  6
CONTINUOUS
 90
5
 70
0
 10
10.944668524
 20
-103.1949305611
 10
10.9692434418
 20
-103.1425557612
 10
11.0118995052
 20
-103.0330884536
 10
11.0471146008
 20
-102.9210057673
 10
11.0747300146
 20
-102.8068128568
  0
LINE
  5
5B6
100
AcDbEntity
  8
DRAFT
100
AcDbLine
 62
7
  6
CONTINUOUS
 10
22.2481811776
 20
-70.2782431743
 11
22.1294957756
 21
-70.5156320573
  0
LINE
  5
5B7
100
AcDbEntity
  8
DRAFT
100
AcDbLine
 62
7
  6
CONTINUOUS
 10
-4.9390875003
 20
-93.5527938236
 11
-4.9983079608
 21
-93.612014284
  0
LINE
  5
5B8
100
AcDbEntity
  8
DRAFT
100
AcDbLine
 62
7
  6
CONTINUOUS
 10
-3.5263561782
 20
-92.561879671
 11
-3.4076707763
 21
-92.443194269
  0
LINE
  5
5B9
100
AcDbEntity
  8
DRAFT
100
AcDbLine
 62
7
  6
CONTINUOUS
 10
22.1294957756
 20
-13.5156320573
 11
20.6109124997
 21
-13.5156320573
  0
LINE
  5
5BA
100
AcDbEntity
  8
DRAFT
100
AcDbLine
 62
7
  6
CONTINUOUS
 10
-1.8890875003
 20
-13.5156320573
 11
-3.4076707763
 21
-13.5156320573
  0
LINE
  5
5BB
100
AcDbEntity
  8
DRAFT
100
AcDbLine
 62
7
  6
CONTINUOUS
 10
24.9609124997
 20
-13.4527938236
 11
23.6609124997
 21
-13.4527938236
  0
LINE
  5
5BC
100
AcDbEntity
  8
DRAFT
100
AcDbLine
 62
7
  6
CONTINUOUS
 10
-4.9390875003
 20
-13.4527938236
 11
-6.2390875003
 21
-13.4527938236
  0
LINE
  5
5BD
100
AcDbEntity
  8
DRAFT
100
AcDbLine
 62
7
  6
CONTINUOUS
 10
22.2481811776
 20
-13.2782431743
 11
20.8483013827
 21
-13.2782431743
  0
LINE
  5
5BE
100
AcDbEntity
  8
DRAFT
100
AcDbLine
 62
7
  6
CONTINUOUS
 10
-2.1264763833
 20
-13.2782431743
 11
-3.5263561782
 21
-13.2782431743
  0
LINE
  5
5BF
100
AcDbEntity
  8
DRAFT
100
AcDbLine
 62
7
  6
CONTINUOUS
 10
-4.9390875003
 20
10.6472061764
 11
-4.9983079608
 21
10.7064266369
  0
LINE
  5
5C0
100
AcDbEntity
  8
DRAFT
100
AcDbLine
 62
7
  6
CONTINUOUS
 10
-3.5263561782
 20
9.6562920238
 11
-3.4076707763
 21
9.5376066219
  0
LINE
  5
5C1
100
AcDbEntity
  8
DRAFT
100
AcDbLine
 62
7
  6
CONTINUOUS
 10
22.2481811776
 20
-12.6273444729
 11
22.1294957756
 21
-12.3899555898
  0
LWPOLYLINE
  5
5C2
100
AcDbEntity
  8
0
100
AcDbPolyline
 62
7
  6
CONTINUOUS
 90
22
 70
0
 10
8.1718945497
 20
19.1527916073
 10
8.2077480358
 20
19.0794005952
 10
8.2480805232
 20
19.0089901258
 10
8.2926570496
 20
18.9418299476
 10
8.3412266652
 20
18.878171931
 10
8.3935237585
 20
18.8182491397
 10
8.4492694355
 20
18.7622749982
 10
8.5081729438
 20
18.7104425592
 10
8.5699331352
 20
18.6629238717
 10
8.6342399608
 20
18.6198694543
 10
8.7007759885
 20
18.581407872
 10
8.7692179393
 20
18.5476454198
 10
8.8392382315
 20
18.5186659122
 10
8.9105065283
 20
18.4945305788
 10
8.9826912795
 20
18.4752780656
 10
9.0554612521
 20
18.4609245406
 10
9.1284870406
 20
18.4514639023
 10
9.2014425526
 20
18.4468680888
 10
9.2740064604
 20
18.4470874852
 10
9.3458636149
 20
18.4520514266
 10
9.4167064128
 20
18.4616687922
 10
9.4862361137
 20
18.4758286889
  0
LINE
  5
5C3
100
AcDbEntity
  8
DRAFT
100
AcDbLine
 62
7
  6
CONTINUOUS
 10
21.1109124997
 20
-105.2527938236
 11
21.1472064802
 21
-105.1438233369
  0
LINE
  5
5C4
100
AcDbEntity
  8
DRAFT
100
AcDbLine
 62
7
  6
CONTINUOUS
 10
22.2481811776
 20
-81.7782431743
 11
22.1294957756
 21
-82.0156320573
  0
LINE
  5
5C5
100
AcDbEntity
  8
0
100
AcDbLine
 62
7
  6
CONTINUOUS
 10
10.887506687
 20
-103.3083697619
 11
10.9414725339
 21
-103.2040128184
  0
LINE
  5
5C6
100
AcDbEntity
  8
DRAFT
100
AcDbLine
 62
7
  6
CONTINUOUS
 10
20.8483013827
 20
-70.2782431743
 11
20.6109124997
 21
-70.5156320573
  0
LINE
  5
5C7
100
AcDbEntity
  8
RACCORDO
100
AcDbLine
 62
250
  6
CONTINUOUS
 10
-4.9390875003
 20
-96.552869976
 11
-4.764536851
 21
-96.3783193267
  0
LINE
  5
5C8
100
AcDbEntity
  8
RACCORDO
100
AcDbLine
 62
250
  6
CONTINUOUS
 10
-4.4391636527
 20
-97.0527938236
 11
-4.2646130035
 21
-96.8782431743
  0
LINE
  5
5C9
100
AcDbEntity
  8
RACCORDO
100
AcDbLine
 62
250
  6
CONTINUOUS
 10
-4.9939502321
 20
-97.8077327077
 11
-4.9390875003
 21
-97.752869976
  0
LINE
  5
5CA
100
AcDbEntity
  8
DRAFT
100
AcDbLine
 62
7
  6
CONTINUOUS
 10
23.6609124997
 20
-69.4527938236
 11
23.7201329601
 21
-69.3935733631
  0
LINE
  5
5CB
100
AcDbEntity
  8
RACCORDO
100
AcDbLine
 62
250
  6
CONTINUOUS
 10
-4.495327787
 20
-98.3089579578
 11
-4.4391636527
 21
-98.2527938236
  0
LINE
  5
5CC
100
AcDbEntity
  8
DRAFT
100
AcDbLine
 62
7
  6
CONTINUOUS
 10
-2.3890875003
 20
-98.2527938236
 11
-2.448261501
 21
-98.3119678243
  0
LINE
  5
5CD
100
AcDbEntity
  8
DRAFT
100
AcDbLine
 62
7
  6
CONTINUOUS
 10
24.9609124997
 20
-70.4527938236
 11
24.8074426411
 21
-70.5039088752
  0
LINE
  5
5CE
100
AcDbEntity
  8
DRAFT
100
AcDbLine
 62
7
  6
CONTINUOUS
 10
-6.2390875003
 20
-80.9527938236
 11
-6.0856176417
 21
-80.9016787719
  0
LINE
  5
5CF
100
AcDbEntity
  8
DRAFT
100
AcDbLine
 62
7
  6
CONTINUOUS
 10
-3.5263561782
 20
-12.6273444729
 11
-2.1264763833
 21
-12.6273444729
  0
LINE
  5
5D0
100
AcDbEntity
  8
DRAFT
100
AcDbLine
 62
7
  6
CONTINUOUS
 10
20.8483013827
 20
-12.6273444729
 11
22.2481811776
 21
-12.6273444729
  0
LINE
  5
5D1
100
AcDbEntity
  8
DRAFT
100
AcDbLine
 62
7
  6
CONTINUOUS
 10
-6.2390875003
 20
-12.4527938236
 11
-4.9390875003
 21
-12.4527938236
  0
LINE
  5
5D2
100
AcDbEntity
  8
DRAFT
100
AcDbLine
 62
7
  6
CONTINUOUS
 10
23.6609124997
 20
-12.4527938236
 11
24.9609124997
 21
-12.4527938236
  0
LINE
  5
5D3
100
AcDbEntity
  8
DRAFT
100
AcDbLine
 62
7
  6
CONTINUOUS
 10
22.1294957756
 20
-12.3899555898
 11
20.6109124997
 21
-12.3899555898
  0
LINE
  5
5D4
100
AcDbEntity
  8
DRAFT
100
AcDbLine
 62
7
  6
CONTINUOUS
 10
-3.4076707763
 20
-12.3899555898
 11
-1.8890875003
 21
-12.3899555898
  0
LINE
  5
5D5
100
AcDbEntity
  8
DRAFT
100
AcDbLine
 62
7
  6
CONTINUOUS
 10
24.9609124997
 20
-12.4527938236
 11
24.8074426411
 21
-12.4016787719
  0
LINE
  5
5D6
100
AcDbEntity
  8
DRAFT
100
AcDbLine
 62
7
  6
CONTINUOUS
 10
-6.2390875003
 20
-1.9527938236
 11
-6.0856176417
 21
-2.0039088752
  0
LINE
  5
5D7
100
AcDbEntity
  8
DRAFT
100
AcDbLine
 62
7
  6
CONTINUOUS
 10
20.8483013827
 20
-12.6273444729
 11
20.6109124997
 21
-12.3899555898
  0
LINE
  5
5D8
100
AcDbEntity
  8
RACCORDO
100
AcDbLine
 62
250
  6
CONTINUOUS
 10
-4.764536851
 20
13.4727316796
 11
-4.9390875003
 21
13.6472823288
  0
LINE
  5
5D9
100
AcDbEntity
  8
RACCORDO
100
AcDbLine
 62
250
  6
CONTINUOUS
 10
-4.2646130035
 20
13.9726555271
 11
-4.4391636527
 21
14.1472061764
  0
LINE
  5
5DA
100
AcDbEntity
  8
RACCORDO
100
AcDbLine
 62
250
  6
CONTINUOUS
 10
-4.9939502321
 20
14.9021450606
 11
-4.9390875003
 21
14.8472823288
  0
LINE
  5
5DB
100
AcDbEntity
  8
DRAFT
100
AcDbLine
 62
7
  6
CONTINUOUS
 10
23.6609124997
 20
-13.4527938236
 11
23.7201329601
 21
-13.512014284
  0
LINE
  5
5DC
100
AcDbEntity
  8
RACCORDO
100
AcDbLine
 62
250
  6
CONTINUOUS
 10
-4.495327787
 20
15.4033703107
 11
-4.4391636527
 21
15.3472061764
  0
LINE
  5
5DD
100
AcDbEntity
  8
DRAFT
100
AcDbLine
 62
7
  6
CONTINUOUS
 10
-2.3890875003
 20
15.3472061764
 11
-2.448261501
 21
15.4063801771
  0
LINE
  5
5DE
100
AcDbEntity
  8
DRAFT
100
AcDbLine
 62
7
  6
CONTINUOUS
 10
22.2481811776
 20
-1.1273444729
 11
22.1294957756
 21
-0.8899555898
  0
LINE
  5
5DF
100
AcDbEntity
  8
DRAFT
100
AcDbLine
 62
7
  6
CONTINUOUS
 10
21.1109124997
 20
22.3472061764
 11
21.1472064802
 21
22.2382356897
  0
LINE
  5
5E0
100
AcDbEntity
  8
DRAFT
100
AcDbLine
 62
7
  6
CONTINUOUS
 10
-1.3890875003
 20
-101.9527938236
 11
-1.339251833
 21
-101.9029581562
  0
LINE
  5
5E1
100
AcDbEntity
  8
DRAFT
100
AcDbLine
 62
7
  6
CONTINUOUS
 10
20.8483013827
 20
-81.7782431743
 11
20.6109124997
 21
-82.0156320573
  0
LINE
  5
5E2
100
AcDbEntity
  8
DRAFT
100
AcDbLine
 62
7
  6
CONTINUOUS
 10
-1.3890875003
 20
19.0472061764
 11
-1.339251833
 21
18.9973705091
  0
LINE
  5
5E3
100
AcDbEntity
  8
DRAFT
100
AcDbLine
 62
7
  6
CONTINUOUS
 10
20.8483013827
 20
-1.1273444729
 11
20.6109124997
 21
-0.8899555898
  0
LWPOLYLINE
  5
5E4
100
AcDbEntity
  8
DRAFT
100
AcDbPolyline
 62
7
  6
CONTINUOUS
 90
10
 70
0
 10
15.879382311
 20
-105.1438233369
 10
16.0180498131
 20
-104.9260970897
 10
16.1443722922
 20
-104.7026712004
 10
16.2583497484
 20
-104.4735276189
 10
16.3602444111
 20
-104.2378788742
 10
16.4497940509
 20
-103.9964754927
 10
16.526211979
 20
-103.7516183083
 10
16.589235966
 20
-103.5040761706
 10
16.6391282414
 20
-103.2530737322
 10
16.6758888051
 20
-102.9986074075
  0
LINE
  5
5E5
100
AcDbEntity
  8
DRAFT
100
AcDbLine
 62
7
  6
CONTINUOUS
 10
23.6609124997
 20
-80.9527938236
 11
23.7201329601
 21
-80.8935733631
  0
LINE
  5
5E6
100
AcDbEntity
  8
DRAFT
100
AcDbLine
 62
7
  6
CONTINUOUS
 10
8.8609124997
 20
-97.7527938236
 11
8.8008974878
 21
-97.8128088355
  0
LINE
  5
5E7
100
AcDbEntity
  8
DRAFT
100
AcDbLine
 62
7
  6
CONTINUOUS
 10
9.8609124997
 20
-98.3527938236
 11
9.9201194259
 21
-98.2935868973
  0
LINE
  5
5E8
100
AcDbEntity
  8
DRAFT
100
AcDbLine
 62
7
  6
CONTINUOUS
 10
1.2370950971
 20
-92.4527938236
 11
1.2109124997
 21
-92.4658841253
  0
LWPOLYLINE
  5
5E9
100
AcDbEntity
  8
0
100
AcDbPolyline
 62
7
  6
CONTINUOUS
 90
10
 70
0
 10
-2.6140875003
 20
-0.0360608589
 10
-2.4991307948
 20
-0.031464402
 10
-2.3939978863
 20
-0.0128654867
 10
-2.2986887748
 20
0.0197358869
 10
-2.2111311028
 20
0.0670923939
 10
-2.1333972277
 20
0.1284513592
 10
-2.0717042227
 20
0.2015547577
 10
-2.0281244453
 20
0.2856499144
 10
-2.0005855378
 20
0.3814895043
 10
-1.9890875003
 20
0.4890735274
  0
LINE
  5
5EA
100
AcDbEntity
  8
DRAFT
100
AcDbLine
 62
7
  6
CONTINUOUS
 10
22.1294957756
 20
-2.0156320573
 11
20.6109124997
 21
-2.0156320573
  0
LINE
  5
5EB
100
AcDbEntity
  8
DRAFT
100
AcDbLine
 62
7
  6
CONTINUOUS
 10
-1.8890875003
 20
-2.0156320573
 11
-3.4076707763
 21
-2.0156320573
  0
LINE
  5
5EC
100
AcDbEntity
  8
DRAFT
100
AcDbLine
 62
7
  6
CONTINUOUS
 10
24.9609124997
 20
-1.9527938236
 11
23.6609124997
 21
-1.9527938236
  0
LINE
  5
5ED
100
AcDbEntity
  8
DRAFT
100
AcDbLine
 62
7
  6
CONTINUOUS
 10
-4.9390875003
 20
-1.9527938236
 11
-6.2390875003
 21
-1.9527938236
  0
LINE
  5
5EE
100
AcDbEntity
  8
DRAFT
100
AcDbLine
 62
7
  6
CONTINUOUS
 10
22.2481811776
 20
-1.7782431743
 11
20.8483013827
 21
-1.7782431743
  0
LINE
  5
5EF
100
AcDbEntity
  8
DRAFT
100
AcDbLine
 62
7
  6
CONTINUOUS
 10
-2.1264763833
 20
-1.7782431743
 11
-3.5263561782
 21
-1.7782431743
  0
LINE
  5
5F0
100
AcDbEntity
  8
DRAFT
100
AcDbLine
 62
7
  6
CONTINUOUS
 10
-3.5263561782
 20
-1.1273444729
 11
-2.1264763833
 21
-1.1273444729
  0
LINE
  5
5F1
100
AcDbEntity
  8
DRAFT
100
AcDbLine
 62
7
  6
CONTINUOUS
 10
20.8483013827
 20
-1.1273444729
 11
22.2481811776
 21
-1.1273444729
  0
LINE
  5
5F2
100
AcDbEntity
  8
DRAFT
100
AcDbLine
 62
7
  6
CONTINUOUS
 10
-6.2390875003
 20
-0.9527938236
 11
-4.9390875003
 21
-0.9527938236
  0
LINE
  5
5F3
100
AcDbEntity
  8
DRAFT
100
AcDbLine
 62
7
  6
CONTINUOUS
 10
23.6609124997
 20
-0.9527938236
 11
24.9609124997
 21
-0.9527938236
  0
LINE
  5
5F4
100
AcDbEntity
  8
DRAFT
100
AcDbLine
 62
7
  6
CONTINUOUS
 10
22.1294957756
 20
-0.8899555898
 11
20.6109124997
 21
-0.8899555898
  0
LINE
  5
5F5
100
AcDbEntity
  8
DRAFT
100
AcDbLine
 62
7
  6
CONTINUOUS
 10
-3.4076707763
 20
-0.8899555898
 11
-1.8890875003
 21
-0.8899555898
  0
LINE
  5
5F6
100
AcDbEntity
  8
0
100
AcDbLine
 62
7
  6
CONTINUOUS
 10
-3.2390875003
 20
-0.4527938236
 11
-3.0545235003
 21
-0.4527938236
  0
LINE
  5
5F7
100
AcDbEntity
  8
0
100
AcDbLine
 62
7
  6
CONTINUOUS
 10
-3.0545235003
 20
-0.2716848236
 11
-3.2390875003
 21
-0.2716848236
  0
LINE
  5
5F8
100
AcDbEntity
  8
0
100
AcDbLine
 62
7
  6
CONTINUOUS
 10
-3.0945945003
 20
0.8268151764
 11
-2.1335805003
 21
0.8268151764
  0
LWPOLYLINE
  5
5F9
100
AcDbEntity
  8
0
100
AcDbPolyline
 62
7
  6
CONTINUOUS
 90
10
 70
0
 10
-2.6140875003
 20
0.1376784998
 10
-2.702366831
 20
0.1385756379
 10
-2.7834499035
 20
0.1502917804
 10
-2.8573367178
 20
0.1728269273
 10
-2.9260621511
 20
0.2070537743
 10
-2.9875913262
 20
0.2520996257
 10
-3.0358196118
 20
0.3053463947
 10
-3.0687121308
 20
0.3659213855
 10
-3.0883037603
 20
0.4346972939
 10
-3.0945945003
 20
0.5116741197
  0
LINE
  5
5FA
100
AcDbEntity
  8
0
100
AcDbLine
 62
7
  6
CONTINUOUS
 10
-3.2390875003
 20
7.7102541764
 11
-2.8751905003
 21
7.5796771764
  0
LINE
  5
5FB
100
AcDbEntity
  8
0
100
AcDbLine
 62
7
  6
CONTINUOUS
 10
-2.7254675003
 20
7.5274671764
 11
-2.1703895003
 21
7.3255111764
  0
LINE
  5
5FC
100
AcDbEntity
  8
0
100
AcDbLine
 62
7
  6
CONTINUOUS
 10
-1.9890875003
 20
7.4142611764
 11
-3.2390875003
 21
7.8843561764
  0
LINE
  5
5FD
100
AcDbEntity
  8
DRAFT
100
AcDbLine
 62
7
  6
CONTINUOUS
 10
1.2370950971
 20
9.5472061764
 11
1.2109124997
 21
9.5602964781
  0
LINE
  5
5FE
100
AcDbEntity
  8
DRAFT
100
AcDbLine
 62
7
  6
CONTINUOUS
 10
23.6609124997
 20
-1.9527938236
 11
23.7201329601
 21
-2.012014284
  0
LINE
  5
5FF
100
AcDbEntity
  8
DRAFT
100
AcDbLine
 62
7
  6
CONTINUOUS
 10
8.8609124997
 20
14.8472061764
 11
8.8008974878
 21
14.9072211883
  0
LINE
  5
600
100
AcDbEntity
  8
DRAFT
100
AcDbLine
 62
7
  6
CONTINUOUS
 10
9.8609124997
 20
15.4472061764
 11
9.9201194259
 21
15.3879992502
  0
LINE
  5
601
100
AcDbEntity
  8
DRAFT
100
AcDbLine
 62
7
  6
CONTINUOUS
 10
16.6347998046
 20
-101.9527938236
 11
16.6794793758
 21
-101.9029581562
  0
LINE
  5
602
100
AcDbEntity
  8
DRAFT
100
AcDbLine
 62
7
  6
CONTINUOUS
 10
16.485463149
 20
-96.8782431743
 11
16.3109124997
 21
-97.0527938236
  0
LINE
  5
603
100
AcDbEntity
  8
RACCORDO
100
AcDbLine
 62
250
  6
CONTINUOUS
 10
16.2508976075
 20
-97.8128848682
 11
16.3109124997
 21
-97.752869976
  0
LINE
  5
604
100
AcDbEntity
  8
DRAFT
100
AcDbLine
 62
7
  6
CONTINUOUS
 10
17.5283675646
 20
-97.0527938236
 11
17.6505530191
 21
-96.9306083691
  0
LINE
  5
605
100
AcDbEntity
  8
RACCORDO
100
AcDbLine
 62
250
  6
CONTINUOUS
 10
16.7516623465
 20
-98.3119678243
 11
16.8108363473
 21
-98.2527938236
  0
LINE
  5
606
100
AcDbEntity
  8
DRAFT
100
AcDbLine
 62
7
  6
CONTINUOUS
 10
23.6609124997
 20
-92.5527938236
 11
23.7201329601
 21
-92.4935733631
  0
LINE
  5
607
100
AcDbEntity
  8
0
100
AcDbLine
 62
7
  6
CONTINUOUS
 10
13.8609124997
 20
-95.151985735
 11
11.8609124997
 21
-96.9527938236
  0
LINE
  5
608
100
AcDbEntity
  8
DRAFT
100
AcDbLine
 62
7
  6
CONTINUOUS
 10
15.5095662897
 20
-95.0527938236
 11
12.5109124997
 21
-97.7527938236
  0
LWPOLYLINE
  5
609
100
AcDbEntity
  8
DRAFT
100
AcDbPolyline
 62
7
  6
CONTINUOUS
 90
10
 70
0
 10
4.348366043
 20
-98.2935868973
 10
3.9345483721
 20
-98.5756644145
 10
3.5581341983
 20
-98.8907113997
 10
3.2191235216
 20
-99.2386180564
 10
2.9148566116
 20
-99.6231236383
 10
2.6479931988
 20
-100.0401831609
 10
2.4265124744
 20
-100.4780209131
 10
2.253074169
 20
-100.9326211667
 10
2.125018552
 20
-101.4076687998
 10
2.0423456236
 20
-101.9029581562
  0
LINE
  5
60A
100
AcDbEntity
  8
DRAFT
100
AcDbLine
 62
7
  6
CONTINUOUS
 10
24.9609124997
 20
-81.9527938236
 11
24.8074426411
 21
-82.0039088752
  0
LINE
  5
60B
100
AcDbEntity
  8
DRAFT
100
AcDbLine
 62
7
  6
CONTINUOUS
 10
-6.2390875003
 20
-92.5527938236
 11
-6.0856176417
 21
-92.5016787719
  0
LWPOLYLINE
  5
60C
100
AcDbEntity
  8
0
100
AcDbPolyline
 62
7
  6
CONTINUOUS
 90
10
 70
0
 10
-2.3503192413
 20
3.6336232242
 10
-2.2805282285
 20
3.6384555704
 10
-2.2175209624
 20
3.653120474
 10
-2.161297443
 20
3.6776179349
 10
-2.1110179483
 20
3.7129520123
 10
-2.0675222004
 20
3.7581186471
 10
-2.0333293651
 20
3.8101056615
 10
-2.0092791643
 20
3.8679089961
 10
-1.994531876
 20
3.9325327103
 10
-1.9890875003
 20
4.0039768041
  0
LINE
  5
60D
100
AcDbEntity
  8
0
100
AcDbLine
 62
7
  6
CONTINUOUS
 10
-1.9890875003
 20
0.9956861764
 11
-3.2390875003
 21
0.9956861764
  0
LINE
  5
60E
100
AcDbEntity
  8
0
100
AcDbLine
 62
7
  6
CONTINUOUS
 10
-3.2390875003
 20
1.2689791764
 11
-1.9890875003
 21
1.2689791764
  0
LINE
  5
60F
100
AcDbEntity
  8
0
100
AcDbLine
 62
7
  6
CONTINUOUS
 10
-1.9890875003
 20
1.4326191764
 11
-3.0044405003
 21
1.4326191764
  0
LINE
  5
610
100
AcDbEntity
  8
0
100
AcDbLine
 62
7
  6
CONTINUOUS
 10
-3.2390875003
 20
2.0976401764
 11
-2.2238275003
 21
2.0976401764
  0
LINE
  5
611
100
AcDbEntity
  8
0
100
AcDbLine
 62
7
  6
CONTINUOUS
 10
-1.9890875003
 20
2.2612801764
 11
-3.2390875003
 21
2.2612801764
  0
LINE
  5
612
100
AcDbEntity
  8
0
100
AcDbLine
 62
7
  6
CONTINUOUS
 10
-3.2390875003
 20
2.4823621764
 11
-3.0893635003
 21
2.4823621764
  0
LINE
  5
613
100
AcDbEntity
  8
0
100
AcDbLine
 62
7
  6
CONTINUOUS
 10
-2.1388115003
 20
2.4945021764
 11
-1.9890875003
 21
2.4945021764
  0
LINE
  5
614
100
AcDbEntity
  8
0
100
AcDbLine
 62
7
  6
CONTINUOUS
 10
-2.6715785003
 20
2.5519431764
 11
-2.5218545003
 21
2.5519431764
  0
LINE
  5
615
100
AcDbEntity
  8
0
100
AcDbLine
 62
7
  6
CONTINUOUS
 10
-3.0893635003
 20
3.2362111764
 11
-2.6715785003
 21
3.2362111764
  0
LINE
  5
616
100
AcDbEntity
  8
0
100
AcDbLine
 62
7
  6
CONTINUOUS
 10
-2.5218545003
 20
3.2362111764
 11
-2.1388115003
 21
3.2362111764
  0
LINE
  5
617
100
AcDbEntity
  8
0
100
AcDbLine
 62
7
  6
CONTINUOUS
 10
-1.9890875003
 20
3.4050821764
 11
-3.2390875003
 21
3.4050821764
  0
LINE
  5
618
100
AcDbEntity
  8
0
100
AcDbLine
 62
7
  6
CONTINUOUS
 10
-3.2390875003
 20
4.3973841764
 11
-2.7115505003
 21
4.3973841764
  0
LINE
  5
619
100
AcDbEntity
  8
0
100
AcDbLine
 62
7
  6
CONTINUOUS
 10
-2.5670585003
 20
4.3973841764
 11
-2.1335805003
 21
4.3973841764
  0
LINE
  5
61A
100
AcDbEntity
  8
0
100
AcDbLine
 62
7
  6
CONTINUOUS
 10
-1.9890875003
 20
4.5662551764
 11
-3.2390875003
 21
4.5662551764
  0
LINE
  5
61B
100
AcDbEntity
  8
0
100
AcDbLine
 62
7
  6
CONTINUOUS
 10
-3.2390875003
 20
5.3513911764
 11
-3.0545235003
 21
5.3513911764
  0
LINE
  5
61C
100
AcDbEntity
  8
0
100
AcDbLine
 62
7
  6
CONTINUOUS
 10
-3.0545235003
 20
5.5324011764
 11
-3.2390875003
 21
5.5324011764
  0
LWPOLYLINE
  5
61D
100
AcDbEntity
  8
0
100
AcDbPolyline
 62
7
  6
CONTINUOUS
 90
10
 70
0
 10
-2.3503192413
 20
3.8075991867
 10
-2.3960262876
 20
3.8092782703
 10
-2.436583134
 20
3.8182011344
 10
-2.4719897808
 20
3.8343677789
 10
-2.5025875969
 20
3.8588550401
 10
-2.5280352132
 20
3.8905860817
 10
-2.5473085225
 20
3.9263303955
 10
-2.5600661555
 20
3.9650111455
 10
-2.5666494815
 20
4.0077051676
 10
-2.5670585003
 20
4.054412462
  0
LINE
  5
61E
100
AcDbEntity
  8
DRAFT
100
AcDbLine
 62
7
  6
CONTINUOUS
 10
24.9609124997
 20
-0.9527938236
 11
24.8074426411
 21
-0.9016787719
  0
LINE
  5
61F
100
AcDbEntity
  8
DRAFT
100
AcDbLine
 62
7
  6
CONTINUOUS
 10
-6.2390875003
 20
9.6472061764
 11
-6.0856176417
 21
9.5960911248
  0
LINE
  5
620
100
AcDbEntity
  8
0
100
AcDbLine
 62
7
  6
CONTINUOUS
 10
11.8609124997
 20
14.0472061764
 11
13.8609124997
 21
12.2463980878
  0
LINE
  5
621
100
AcDbEntity
  8
DRAFT
100
AcDbLine
 62
7
  6
CONTINUOUS
 10
12.5109124997
 20
14.8472061764
 11
15.5095662897
 21
12.1472061764
  0
LINE
  5
622
100
AcDbEntity
  8
RACCORDO
100
AcDbLine
 62
7
  6
CONTINUOUS
 10
16.4768879329
 20
11.9812307432
 11
16.2482495097
 21
12.2098691664
  0
LINE
  5
623
100
AcDbEntity
  8
DRAFT
100
AcDbLine
 62
7
  6
CONTINUOUS
 10
16.485463149
 20
13.9726555271
 11
16.3109124997
 21
14.1472061764
  0
LINE
  5
624
100
AcDbEntity
  8
RACCORDO
100
AcDbLine
 62
250
  6
CONTINUOUS
 10
16.2508976075
 20
14.907297221
 11
16.3109124997
 21
14.8472823288
  0
LINE
  5
625
100
AcDbEntity
  8
DRAFT
100
AcDbLine
 62
7
  6
CONTINUOUS
 10
17.5283675646
 20
14.1472061764
 11
17.6505530191
 21
14.0250207219
  0
LINE
  5
626
100
AcDbEntity
  8
RACCORDO
100
AcDbLine
 62
250
  6
CONTINUOUS
 10
16.7516623465
 20
15.4063801771
 11
16.8108363473
 21
15.3472061764
  0
LINE
  5
627
100
AcDbEntity
  8
DRAFT
100
AcDbLine
 62
7
  6
CONTINUOUS
 10
23.6609124997
 20
9.6472061764
 11
23.7201329601
 21
9.587985716
  0
LINE
  5
628
100
AcDbEntity
  8
DRAFT
100
AcDbLine
 62
7
  6
CONTINUOUS
 10
16.6347998046
 20
19.0472061764
 11
16.6794793758
 21
18.9973705091
  0
LINE
  5
629
100
AcDbEntity
  8
DRAFT
100
AcDbLine
 62
7
  6
CONTINUOUS
 10
20.1109124997
 20
-98.2527938236
 11
20.051738499
 21
-98.3119678243
  0
LWPOLYLINE
  5
62A
100
AcDbEntity
  8
0
100
AcDbPolyline
 62
7
  6
CONTINUOUS
 90
13
 70
0
 10
10.009515482
 20
-103.2192884977
 10
9.964983619
 20
-103.2569800085
 10
9.9181787516
 20
-103.2921392128
 10
9.8692416017
 20
-103.3246243862
 10
9.8183508943
 20
-103.3542856404
 10
9.7656379946
 20
-103.3810161618
 10
9.7111772632
 20
-103.4047358405
 10
9.6549864578
 20
-103.425370773
 10
9.5973863826
 20
-103.4427380613
 10
9.5389324131
 20
-103.4566554561
 10
9.4799576487
 20
-103.4670746466
 10
9.4205487705
 20
-103.4740109846
 10
9.3609124997
 20
-103.4774596876
  0
LINE
  5
62B
100
AcDbEntity
  8
DRAFT
100
AcDbLine
 62
7
  6
CONTINUOUS
 10
20.1370950971
 20
-92.4527938236
 11
20.1109124997
 21
-92.4658841253
  0
LWPOLYLINE
  5
62C
100
AcDbEntity
  8
0
100
AcDbPolyline
 62
7
  6
CONTINUOUS
 90
10
 70
0
 10
-2.3503192413
 20
7.9875513726
 10
-2.2805282285
 20
7.9923837189
 10
-2.2175209624
 20
8.0070486224
 10
-2.161297443
 20
8.0315460833
 10
-2.1110179483
 20
8.0668801608
 10
-2.0675222004
 20
8.1120467955
 10
-2.0333293651
 20
8.1640338099
 10
-2.0092791643
 20
8.2218371446
 10
-1.994531876
 20
8.2864608588
 10
-1.9890875003
 20
8.3579049526
  0
LINE
  5
62D
100
AcDbEntity
  8
0
100
AcDbLine
 62
7
  6
CONTINUOUS
 10
-2.1388115003
 20
5.7082801764
 11
-1.9890875003
 21
5.7082801764
  0
LINE
  5
62E
100
AcDbEntity
  8
0
100
AcDbLine
 62
7
  6
CONTINUOUS
 10
-3.2390875003
 20
6.1312961764
 11
-2.1388115003
 21
6.1312961764
  0
LINE
  5
62F
100
AcDbEntity
  8
0
100
AcDbLine
 62
7
  6
CONTINUOUS
 10
-2.1388115003
 20
6.3001671764
 11
-3.2390875003
 21
6.3001671764
  0
LINE
  5
630
100
AcDbEntity
  8
0
100
AcDbLine
 62
7
  6
CONTINUOUS
 10
-1.9890875003
 20
6.7231831764
 11
-2.1388115003
 21
6.7231831764
  0
LINE
  5
631
100
AcDbEntity
  8
0
100
AcDbLine
 62
7
  6
CONTINUOUS
 10
-3.2390875003
 20
8.7513121764
 11
-2.7115505003
 21
8.7513121764
  0
LINE
  5
632
100
AcDbEntity
  8
0
100
AcDbLine
 62
7
  6
CONTINUOUS
 10
-2.5670585003
 20
8.7513121764
 11
-2.1335805003
 21
8.7513121764
  0
LINE
  5
633
100
AcDbEntity
  8
0
100
AcDbLine
 62
7
  6
CONTINUOUS
 10
-1.9890875003
 20
8.9201831764
 11
-3.2390875003
 21
8.9201831764
  0
LINE
  5
634
100
AcDbEntity
  8
DRAFT
100
AcDbLine
 62
7
  6
CONTINUOUS
 10
-3.4076707763
 20
9.5376066219
 11
-1.8890875003
 21
9.5376066219
  0
LINE
  5
635
100
AcDbEntity
  8
DRAFT
100
AcDbLine
 62
7
  6
CONTINUOUS
 10
20.6109124997
 20
9.5376066219
 11
22.1294957756
 21
9.5376066219
  0
LINE
  5
636
100
AcDbEntity
  8
SUPERFICI
100
AcDbLine
 62
7
  6
CONTINUOUS
 10
12.5334419745
 20
9.5472061764
 11
6.1883830248
 21
9.5472061764
  0
LINE
  5
637
100
AcDbEntity
  8
DRAFT
100
AcDbLine
 62
7
  6
CONTINUOUS
 10
-1.8314389431
 20
9.5472061764
 11
-1.4152700977
 21
9.5472061764
  0
LINE
  5
638
100
AcDbEntity
  8
DRAFT
100
AcDbLine
 62
7
  6
CONTINUOUS
 10
1.2370950971
 20
9.5472061764
 11
4.8609124997
 21
9.5472061764
  0
LINE
  5
639
100
AcDbEntity
  8
DRAFT
100
AcDbLine
 62
7
  6
CONTINUOUS
 10
13.8609124997
 20
9.5472061764
 11
17.4847299023
 21
9.5472061764
  0
LINE
  5
63A
100
AcDbEntity
  8
DRAFT
100
AcDbLine
 62
7
  6
CONTINUOUS
 10
20.1370950971
 20
9.5472061764
 11
20.5532639425
 21
9.5472061764
  0
LINE
  5
63B
100
AcDbEntity
  8
DRAFT
100
AcDbLine
 62
7
  6
CONTINUOUS
 10
20.1109124997
 20
9.5602964781
 11
17.5109124997
 21
9.5602964781
  0
LINE
  5
63C
100
AcDbEntity
  8
DRAFT
100
AcDbLine
 62
7
  6
CONTINUOUS
 10
1.2109124997
 20
9.5602964781
 11
-1.3890875003
 21
9.5602964781
  0
LINE
  5
63D
100
AcDbEntity
  8
DRAFT
100
AcDbLine
 62
7
  6
CONTINUOUS
 10
12.5355123361
 20
9.5708705175
 11
6.1863126633
 21
9.5708705175
  0
LINE
  5
63E
100
AcDbEntity
  8
0
100
AcDbLine
 62
7
  6
CONTINUOUS
 10
6.3609124997
 20
9.6323931299
 11
12.3609124997
 21
9.6323931299
  0
LINE
  5
63F
100
AcDbEntity
  8
DRAFT
100
AcDbLine
 62
7
  6
CONTINUOUS
 10
24.9609124997
 20
9.6472061764
 11
23.6609124997
 21
9.6472061764
  0
LINE
  5
640
100
AcDbEntity
  8
DRAFT
100
AcDbLine
 62
7
  6
CONTINUOUS
 10
-4.9390875003
 20
9.6472061764
 11
-6.2390875003
 21
9.6472061764
  0
LINE
  5
641
100
AcDbEntity
  8
0
100
AcDbLine
 62
7
  6
CONTINUOUS
 10
-3.5263561782
 20
9.6562920238
 11
6.3609124997
 21
9.6562920238
  0
LINE
  5
642
100
AcDbEntity
  8
0
100
AcDbLine
 62
7
  6
CONTINUOUS
 10
12.3609124997
 20
9.6562920238
 11
22.2481811776
 21
9.6562920238
  0
LWPOLYLINE
  5
643
100
AcDbEntity
  8
0
100
AcDbPolyline
 62
7
  6
CONTINUOUS
 90
10
 70
0
 10
-2.3503192413
 20
8.1615273351
 10
-2.3960262876
 20
8.1632064187
 10
-2.436583134
 20
8.1721292828
 10
-2.4719897808
 20
8.1882959274
 10
-2.5025875969
 20
8.2127831885
 10
-2.5280352132
 20
8.2445142301
 10
-2.5473085225
 20
8.280258544
 10
-2.5600661555
 20
8.3189392939
 10
-2.5666494815
 20
8.3616333161
 10
-2.5670585003
 20
8.4083406105
  0
LINE
  5
644
100
AcDbEntity
  8
DRAFT
100
AcDbLine
 62
7
  6
CONTINUOUS
 10
20.1370950971
 20
9.5472061764
 11
20.1109124997
 21
9.5602964781
  0
LINE
  5
645
100
AcDbEntity
  8
DRAFT
100
AcDbLine
 62
7
  6
CONTINUOUS
 10
20.1109124997
 20
15.3472061764
 11
20.051738499
 21
15.4063801771
  0
LWPOLYLINE
  5
646
100
AcDbEntity
  8
RACCORDO
100
AcDbPolyline
 62
7
  6
CONTINUOUS
 90
7
 70
0
 10
23.5086425256
 20
-98.213517244
 10
23.4638548536
 20
-98.2425596561
 10
23.4167529929
 20
-98.2664252989
 10
23.3679438666
 20
-98.2850054682
 10
23.3180246035
 20
-98.2982605777
 10
23.2675753317
 20
-98.3062161113
 10
23.2171527864
 20
-98.3089579578
  0
LINE
  5
647
100
AcDbEntity
  8
DRAFT
100
AcDbLine
 62
7
  6
CONTINUOUS
 10
24.9609124997
 20
-93.5527938236
 11
24.8074426411
 21
-93.6039088752
  0
LINE
  5
648
100
AcDbEntity
  8
SUPERFICI
100
AcDbLine
 62
250
  6
CONTINUOUS
 10
-4.9601811677
 20
-101.5478319909
 11
-4.3342720447
 21
-101.3397754539
  0
LINE
  5
649
100
AcDbEntity
  8
SUPERFICI
100
AcDbLine
 62
250
  6
CONTINUOUS
 10
-4.3342720447
 20
-101.3397754539
 11
-4.019227748
 21
-101.2355757809
  0
LINE
  5
64A
100
AcDbEntity
  8
SUPERFICI
100
AcDbLine
 62
250
  6
CONTINUOUS
 10
-4.019227748
 20
-101.2355757809
 11
-2.9390875003
 21
-100.9007811166
  0
LINE
  5
64B
100
AcDbEntity
  8
SUPERFICI
100
AcDbLine
 62
250
  6
CONTINUOUS
 10
24.8362269247
 20
18.8983912453
 11
24.45662747
 21
18.8126688955
  0
LINE
  5
64C
100
AcDbEntity
  8
SUPERFICI
100
AcDbLine
 62
250
  6
CONTINUOUS
 10
24.45662747
 20
18.8126688955
 11
24.0714699383
 21
18.727286595
  0
LINE
  5
64D
100
AcDbEntity
  8
SUPERFICI
100
AcDbLine
 62
250
  6
CONTINUOUS
 10
24.0714699383
 20
18.727286595
 11
23.6820061671
 21
18.6422443437
  0
LINE
  5
64E
100
AcDbEntity
  8
DRAFT
100
AcDbLine
 62
7
  6
CONTINUOUS
 10
-1.8314389431
 20
9.5472061764
 11
-1.8890875003
 21
9.5376066219
  0
LINE
  5
64F
100
AcDbEntity
  8
DRAFT
100
AcDbLine
 62
7
  6
CONTINUOUS
 10
5.9570946989
 20
12.1908438387
 11
6.535123232
 21
12.2082989037
  0
LINE
  5
650
100
AcDbEntity
  8
DRAFT
100
AcDbLine
 62
7
  6
CONTINUOUS
 10
24.8074426411
 20
11.3136347436
 11
23.7201329601
 21
11.3060686681
  0
LINE
  5
651
100
AcDbEntity
  8
DRAFT
100
AcDbLine
 62
7
  6
CONTINUOUS
 10
-6.2390875003
 20
10.6472061764
 11
-4.9390875003
 21
10.6472061764
  0
LINE
  5
652
100
AcDbEntity
  8
DRAFT
100
AcDbLine
 62
7
  6
CONTINUOUS
 10
23.6609124997
 20
10.6472061764
 11
24.9609124997
 21
10.6472061764
  0
LINE
  5
653
100
AcDbEntity
  8
0
100
AcDbLine
 62
7
  6
CONTINUOUS
 10
6.3609124997
 20
10.6562920238
 11
12.3609124997
 21
10.6562920238
  0
LINE
  5
654
100
AcDbEntity
  8
DRAFT
100
AcDbLine
 62
7
  6
CONTINUOUS
 10
22.6359124997
 20
10.8472061764
 11
17.7029182139
 21
10.8472061764
  0
LINE
  5
655
100
AcDbEntity
  8
DRAFT
100
AcDbLine
 62
7
  6
CONTINUOUS
 10
1.0189067855
 20
10.8472061764
 11
-3.9140875003
 21
10.8472061764
  0
LINE
  5
656
100
AcDbEntity
  8
RACCORDO
100
AcDbLine
 62
250
  6
CONTINUOUS
 10
16.485463149
 20
11.4813068956
 11
2.2363618504
 21
11.4813068956
  0
LINE
  5
657
100
AcDbEntity
  8
RACCORDO
100
AcDbLine
 62
250
  6
CONTINUOUS
 10
16.4768879329
 20
11.9812307432
 11
2.2449370664
 21
11.9812307432
  0
LINE
  5
658
100
AcDbEntity
  8
DRAFT
100
AcDbLine
 62
7
  6
CONTINUOUS
 10
4.8609124997
 20
12.0869862024
 11
5.9661810647
 21
12.0869862024
  0
LINE
  5
659
100
AcDbEntity
  8
DRAFT
100
AcDbLine
 62
7
  6
CONTINUOUS
 10
12.7556439346
 20
12.0869862024
 11
13.8609124997
 21
12.0869862024
  0
LINE
  5
65A
100
AcDbEntity
  8
DRAFT
100
AcDbLine
 62
7
  6
CONTINUOUS
 10
3.2122587096
 20
12.1472061764
 11
4.8609124997
 21
12.1472061764
  0
LINE
  5
65B
100
AcDbEntity
  8
DRAFT
100
AcDbLine
 62
7
  6
CONTINUOUS
 10
13.8609124997
 20
12.1472061764
 11
15.5095662897
 21
12.1472061764
  0
LINE
  5
65C
100
AcDbEntity
  8
DRAFT
100
AcDbLine
 62
7
  6
CONTINUOUS
 10
12.1867017673
 20
12.2082989037
 11
6.535123232
 21
12.2082989037
  0
LINE
  5
65D
100
AcDbEntity
  8
DRAFT
100
AcDbLine
 62
7
  6
CONTINUOUS
 10
16.2482495097
 20
12.2098691664
 11
15.5336203579
 21
12.2098691664
  0
LINE
  5
65E
100
AcDbEntity
  8
DRAFT
100
AcDbLine
 62
7
  6
CONTINUOUS
 10
3.1882046415
 20
12.2098691664
 11
2.4735754896
 21
12.2098691664
  0
LINE
  5
65F
100
AcDbEntity
  8
SUPERFICI
100
AcDbLine
 62
7
  6
CONTINUOUS
 10
12.2076034453
 20
12.4472061764
 11
6.514221554
 21
12.4472061764
  0
LINE
  5
660
100
AcDbEntity
  8
DRAFT
100
AcDbLine
 62
7
  6
CONTINUOUS
 10
-3.9140875003
 20
13.0472061764
 11
1.0189067855
 21
13.0472061764
  0
LINE
  5
661
100
AcDbEntity
  8
DRAFT
100
AcDbLine
 62
7
  6
CONTINUOUS
 10
17.7029182139
 20
13.0472061764
 11
22.6359124997
 21
13.0472061764
  0
LINE
  5
662
100
AcDbEntity
  8
RACCORDO
100
AcDbLine
 62
7
  6
CONTINUOUS
 10
-4.2646130035
 20
13.9726555271
 11
2.2363618504
 21
13.9726555271
  0
LINE
  5
663
100
AcDbEntity
  8
RACCORDO
100
AcDbLine
 62
7
  6
CONTINUOUS
 10
16.485463149
 20
13.9726555271
 11
22.9864380028
 21
13.9726555271
  0
LINE
  5
664
100
AcDbEntity
  8
DRAFT
100
AcDbLine
 62
7
  6
CONTINUOUS
 10
1.0712719802
 20
14.0250207219
 11
-3.9140875003
 21
14.0250207219
  0
LINE
  5
665
100
AcDbEntity
  8
0
100
AcDbLine
 62
7
  6
CONTINUOUS
 10
6.8609124997
 20
14.0472061764
 11
11.8609124997
 21
14.0472061764
  0
LINE
  5
666
100
AcDbEntity
  8
RACCORDO
100
AcDbLine
 62
7
  6
CONTINUOUS
 10
23.1609886521
 20
14.1472061764
 11
22.6359124997
 21
14.1472061764
  0
LINE
  5
667
100
AcDbEntity
  8
DRAFT
100
AcDbLine
 62
7
  6
CONTINUOUS
 10
-3.9140875003
 20
14.1472061764
 11
2.4109124997
 21
14.1472061764
  0
LINE
  5
668
100
AcDbEntity
  8
RACCORDO
100
AcDbLine
 62
7
  6
CONTINUOUS
 10
-3.9140875003
 20
14.1472061764
 11
-4.4391636527
 21
14.1472061764
  0
LINE
  5
669
100
AcDbEntity
  8
DRAFT
100
AcDbLine
 62
7
  6
CONTINUOUS
 10
16.3109124997
 20
14.1472061764
 11
22.6359124997
 21
14.1472061764
  0
LINE
  5
66A
100
AcDbEntity
  8
DRAFT
100
AcDbLine
 62
7
  6
CONTINUOUS
 10
6.2109124997
 20
14.8472061764
 11
8.8609124997
 21
14.8472061764
  0
LINE
  5
66B
100
AcDbEntity
  8
DRAFT
100
AcDbLine
 62
7
  6
CONTINUOUS
 10
9.8609124997
 20
14.8472061764
 11
12.5109124997
 21
14.8472061764
  0
LINE
  5
66C
100
AcDbEntity
  8
DRAFT
100
AcDbLine
 62
7
  6
CONTINUOUS
 10
12.5339501043
 20
14.9072211883
 11
9.9209275116
 21
14.9072211883
  0
LINE
  5
66D
100
AcDbEntity
  8
DRAFT
100
AcDbLine
 62
7
  6
CONTINUOUS
 10
8.8008974878
 20
14.9072211883
 11
6.187874895
 21
14.9072211883
  0
LINE
  5
66E
100
AcDbEntity
  8
DRAFT
100
AcDbLine
 62
7
  6
CONTINUOUS
 10
-6.0856176417
 20
11.3136347436
 11
-4.9983079608
 21
11.3060686681
  0
LINE
  5
66F
100
AcDbEntity
  8
DRAFT
100
AcDbLine
 62
7
  6
CONTINUOUS
 10
12.7647303004
 20
12.1908438387
 11
12.1867017673
 21
12.2082989037
  0
LWPOLYLINE
  5
670
100
AcDbEntity
  8
RACCORDO
100
AcDbPolyline
 62
7
  6
CONTINUOUS
 90
10
 70
0
 10
1.9701626528
 20
15.4063801771
 10
2.0568886216
 20
15.3988237765
 10
2.1410852011
 20
15.37633881
 10
2.2201868929
 20
15.3395665202
 10
2.2918345072
 20
15.2895413616
 10
2.353741335
 20
15.227779239
 10
2.4038577697
 20
15.1563303104
 10
2.440691042
 20
15.0774883288
 10
2.4632494557
 20
14.9936245743
 10
2.4709273919
 20
14.907297221
  0
LINE
  5
671
100
AcDbEntity
  8
DRAFT
100
AcDbLine
 62
7
  6
CONTINUOUS
 10
20.6109124997
 20
9.5376066219
 11
20.5532639425
 21
9.5472061764
  0
LINE
  5
672
100
AcDbEntity
  8
SUPERFICI
100
AcDbLine
 62
250
  6
CONTINUOUS
 10
-5.5428395595
 20
18.7699352391
 11
-4.9601811677
 21
18.6422443437
  0
LINE
  5
673
100
AcDbEntity
  8
SUPERFICI
100
AcDbLine
 62
250
  6
CONTINUOUS
 10
-6.1144019253
 20
18.8983912453
 11
-5.5428395595
 21
18.7699352391
  0
LINE
  5
674
100
AcDbEntity
  8
SUPERFICI
100
AcDbLine
 62
250
  6
CONTINUOUS
 10
-4.019227748
 20
18.3299881337
 11
-2.9390875003
 21
17.9951934695
  0
LINE
  5
675
100
AcDbEntity
  8
DRAFT
100
AcDbLine
 62
7
  6
CONTINUOUS
 10
24.9609124997
 20
10.6472061764
 11
24.8074426411
 21
10.6983212281
  0
LINE
  5
676
100
AcDbEntity
  8
SUPERFICI
100
AcDbLine
 62
250
  6
CONTINUOUS
 10
-4.9601811677
 20
18.6422443437
 11
-4.019227748
 21
18.3299881337
  0
LINE
  5
677
100
AcDbEntity
  8
0
100
AcDbLine
 62
7
  6
CONTINUOUS
 10
10.422796011
 20
19.0425071794
 11
10.9414725339
 21
18.7959871816
  0
LWPOLYLINE
  5
678
100
AcDbEntity
  8
RACCORDO
100
AcDbPolyline
 62
7
  6
CONTINUOUS
 90
7
 70
0
 10
23.5086425256
 20
15.3079295969
 10
23.5688545109
 20
15.2564202137
 10
23.6201261706
 20
15.1962358276
 10
23.6612485294
 20
15.1289422974
 10
23.6912821413
 20
15.0562625092
 10
23.7095753947
 20
14.9800306927
 10
23.7157752314
 20
14.9021450606
  0
LWPOLYLINE
  5
679
100
AcDbEntity
  8
0
100
AcDbPolyline
 62
7
  6
CONTINUOUS
 90
10
 70
0
 10
9.4862361137
 20
18.4758286889
 10
9.5541640998
 20
18.4944012177
 10
9.620213073
 20
18.51723832
 10
9.6841181861
 20
18.544174699
 10
9.7456281006
 20
18.5750288097
 10
9.80450597
 20
18.6096039143
 10
9.8605303421
 20
18.6476891946
 10
9.9134959793
 20
18.6890609179
 10
9.9632145917
 20
18.733483649
 10
10.009515482
 20
18.7807115023
  0
LINE
  5
67A
100
AcDbEntity
  8
RACCORDO
100
AcDbLine
 62
7
  6
CONTINUOUS
 10
-3.9516417173
 20
15.4047657911
 11
-4.495327787
 21
15.4033703107
  0
LINE
  5
67B
100
AcDbEntity
  8
RACCORDO
100
AcDbLine
 62
7
  6
CONTINUOUS
 10
-4.4391636527
 20
15.3472061764
 11
-2.3890875003
 21
15.3472061764
  0
LINE
  5
67C
100
AcDbEntity
  8
RACCORDO
100
AcDbLine
 62
7
  6
CONTINUOUS
 10
-1.3890875003
 20
15.3472061764
 11
1.9109886521
 21
15.3472061764
  0
LINE
  5
67D
100
AcDbEntity
  8
RACCORDO
100
AcDbLine
 62
7
  6
CONTINUOUS
 10
16.8108363473
 20
15.3472061764
 11
20.1109124997
 21
15.3472061764
  0
LINE
  5
67E
100
AcDbEntity
  8
RACCORDO
100
AcDbLine
 62
7
  6
CONTINUOUS
 10
21.1109124997
 20
15.3472061764
 11
23.1609886521
 21
15.3472061764
  0
LINE
  5
67F
100
AcDbEntity
  8
DRAFT
100
AcDbLine
 62
7
  6
CONTINUOUS
 10
14.3734589563
 20
15.3879992502
 11
9.9201194259
 21
15.3879992502
  0
LINE
  5
680
100
AcDbEntity
  8
DRAFT
100
AcDbLine
 62
7
  6
CONTINUOUS
 10
8.8017055734
 20
15.3879992502
 11
4.348366043
 21
15.3879992502
  0
LINE
  5
681
100
AcDbEntity
  8
RACCORDO
100
AcDbLine
 62
7
  6
CONTINUOUS
 10
20.051738499
 20
15.4063801771
 11
16.7516623465
 21
15.4063801771
  0
LINE
  5
682
100
AcDbEntity
  8
RACCORDO
100
AcDbLine
 62
7
  6
CONTINUOUS
 10
1.9701626528
 20
15.4063801771
 11
-1.3299134996
 21
15.4063801771
  0
LINE
  5
683
100
AcDbEntity
  8
DRAFT
100
AcDbLine
 62
7
  6
CONTINUOUS
 10
-2.448261501
 20
15.4063801771
 11
-3.9516417173
 21
15.4047657911
  0
LINE
  5
684
100
AcDbEntity
  8
DRAFT
100
AcDbLine
 62
7
  6
CONTINUOUS
 10
14.3569092945
 20
15.4472061764
 11
9.8609124997
 21
15.4472061764
  0
LINE
  5
685
100
AcDbEntity
  8
DRAFT
100
AcDbLine
 62
7
  6
CONTINUOUS
 10
8.8609124997
 20
15.4472061764
 11
4.3649157048
 21
15.4472061764
  0
LINE
  5
686
100
AcDbEntity
  8
DRAFT
100
AcDbLine
 62
7
  6
CONTINUOUS
 10
11.8609124997
 20
17.7332421245
 11
6.8609124997
 21
17.7332421245
  0
LINE
  5
687
100
AcDbEntity
  8
DRAFT
100
AcDbLine
 62
7
  6
CONTINUOUS
 10
5.8659250626
 20
18.0472061764
 11
8.4614196467
 21
18.0472061764
  0
LINE
  5
688
100
AcDbEntity
  8
DRAFT
100
AcDbLine
 62
7
  6
CONTINUOUS
 10
10.2603944946
 20
18.0472061764
 11
12.8558999368
 21
18.0472061764
  0
LINE
  5
689
100
AcDbEntity
  8
DRAFT
100
AcDbLine
 62
7
  6
CONTINUOUS
 10
20.0610768323
 20
18.9973705091
 11
16.6794793758
 21
18.9973705091
  0
LINE
  5
68A
100
AcDbEntity
  8
DRAFT
100
AcDbLine
 62
7
  6
CONTINUOUS
 10
2.0423456236
 20
18.9973705091
 11
-1.339251833
 21
18.9973705091
  0
LINE
  5
68B
100
AcDbEntity
  8
DRAFT
100
AcDbLine
 62
7
  6
CONTINUOUS
 10
20.1109124997
 20
19.0472061764
 11
16.6347998046
 21
19.0472061764
  0
LINE
  5
68C
100
AcDbEntity
  8
DRAFT
100
AcDbLine
 62
7
  6
CONTINUOUS
 10
2.0870251948
 20
19.0472061764
 11
-1.3890875003
 21
19.0472061764
  0
LINE
  5
68D
100
AcDbEntity
  8
SUPERFICI
100
AcDbLine
 62
250
  6
CONTINUOUS
 10
24.9609124997
 20
19.3472061764
 11
24.8389237542
 21
19.3472061764
  0
LINE
  5
68E
100
AcDbEntity
  8
SUPERFICI
100
AcDbLine
 62
250
  6
CONTINUOUS
 10
-6.2390875003
 20
19.3472061764
 11
-6.1170987549
 21
19.3472061764
  0
LINE
  5
68F
100
AcDbEntity
  8
DRAFT
100
AcDbLine
 62
7
  6
CONTINUOUS
 10
22.6734667166
 20
15.4047657911
 11
21.1700865004
 21
15.4063801771
  0
LINE
  5
690
100
AcDbEntity
  8
RACCORDO
100
AcDbLine
 62
7
  6
CONTINUOUS
 10
23.2171527864
 20
15.4033703107
 11
22.6734667166
 21
15.4047657911
  0
LWPOLYLINE
  5
691
100
AcDbEntity
  8
0
100
AcDbPolyline
 62
7
  6
CONTINUOUS
 90
43
 70
0
 10
9.3609124997
 20
18.5225403124
 10
9.2839873422
 20
18.5232289728
 10
9.2072085724
 20
18.5296916984
 10
9.1310094304
 20
18.5419071432
 10
9.055775239
 20
18.5598340811
 10
8.9819788011
 20
18.5833806684
 10
8.9101682365
 20
18.6123710408
 10
8.8408448506
 20
18.6465701573
 10
8.7742738149
 20
18.6858132513
 10
8.7106393555
 20
18.729999916
 10
8.6503352277
 20
18.7788903798
 10
8.5936860743
 20
18.8322570619
 10
8.5408192088
 20
18.8900721106
 10
8.4919382129
 20
18.9523127035
 10
8.4475979791
 20
19.0184926439
 10
8.4083804356
 20
19.087825451
 10
8.3745300973
 20
19.1598316254
 10
8.3461822495
 20
19.2341683592
 10
8.3235529606
 20
19.3101419798
 10
8.3067606957
 20
19.3869442341
 10
8.2957057897
 20
19.4644833829
 10
8.2903465678
 20
19.5431526606
 10
8.2908279065
 20
19.622784433
 10
8.2972800485
 20
19.7026914697
 10
8.3097884745
 20
19.7824937388
 10
8.3284745618
 20
19.8619711983
 10
8.3533252125
 20
19.9403883806
 10
8.3840341343
 20
20.0166183305
 10
8.4203385952
 20
20.090126944
 10
8.4620428825
 20
20.1606179507
 10
8.5086760223
 20
20.2274318901
 10
8.5595576576
 20
20.2898794522
 10
8.614593486
 20
20.348102422
 10
8.6742882416
 20
20.4026064759
 10
8.738813363
 20
20.4532755272
 10
8.8075567057
 20
20.4993696718
 10
8.8799417182
 20
20.5403620646
 10
8.9557287966
 20
20.5760036551
 10
9.0343982714
 20
20.6059402947
 10
9.1148099626
 20
20.6297384041
 10
9.196234107
 20
20.6472986775
 10
9.2784253253
 20
20.6586824811
 10
9.3609124997
 20
20.6639093568
  0
LWPOLYLINE
  5
692
100
AcDbEntity
  8
RACCORDO
100
AcDbPolyline
 62
7
  6
CONTINUOUS
 90
7
 70
0
 10
23.2171527864
 20
15.4033703107
 10
23.2673205372
 20
15.4006552387
 10
23.317623307
 20
15.3927573132
 10
23.3675044845
 20
15.3795590433
 10
23.4163775596
 20
15.3610034564
 10
23.4636323967
 20
15.3370999511
 10
23.5086425256
 20
15.3079295969
  0
LWPOLYLINE
  5
693
100
AcDbEntity
  8
SUPERFICI
100
AcDbPolyline
 62
7
  6
CONTINUOUS
 90
16
 70
0
 10
23.1841623262
 20
-104.8679606236
 10
23.3819918014
 20
-104.7657858844
 10
23.5688039486
 20
-104.6503473691
 10
23.7438772739
 20
-104.5229086846
 10
23.9053418397
 20
-104.3859371326
 10
24.0542027795
 20
-104.239697744
 10
24.1934354465
 20
-104.0813436681
 10
24.3230083607
 20
-103.9098691268
 10
24.4405042772
 20
-103.7273170894
 10
24.5446159455
 20
-103.5348260701
 10
24.6346202989
 20
-103.3327274156
 10
24.7092792968
 20
-103.1226373277
 10
24.7671964994
 20
-102.908015677
 10
24.8080352312
 20
-102.6909909786
 10
24.831942252
 20
-102.4721416978
 10
24.8389237542
 20
-102.2527938236
  0
LWPOLYLINE
  5
694
100
AcDbEntity
  8
SUPERFICI
100
AcDbPolyline
 62
7
  6
CONTINUOUS
 90
7
 70
0
 10
-3.6060071982
 20
22.2133253008
 10
-3.7525404643
 20
22.1902998329
 10
-3.8980791859
 20
22.1597053031
 10
-4.0422266248
 20
22.1215626967
 10
-4.1845844944
 20
22.0759140065
 10
-4.32475407
 20
22.0228225079
 10
-4.4623373268
 20
21.9623729764
  0
LWPOLYLINE
  5
695
100
AcDbEntity
  8
SUPERFICI
100
AcDbPolyline
 62
7
  6
CONTINUOUS
 90
7
 70
0
 10
-3.2390875003
 20
22.2376026145
 10
-3.3007496656
 20
22.2368242289
 10
-3.3622455785
 20
22.2347253818
 10
-3.4235469654
 20
22.2313156351
 10
-3.4846259458
 20
22.2266051351
 10
-3.5454550438
 20
22.220604599
 10
-3.6060071982
 20
22.2133253008
  0
LINE
  5
696
100
AcDbEntity
  8
SUPERFICI
100
AcDbLine
 62
7
  6
CONTINUOUS
 10
-2.9404705034
 20
22.2382356897
 11
-3.2390875003
 21
22.2376026145
  0
LINE
  5
697
100
AcDbEntity
  8
DRAFT
100
AcDbLine
 62
7
  6
CONTINUOUS
 10
-1.3890875003
 20
20.0472061764
 11
2.0870251948
 21
20.0472061764
  0
LINE
  5
698
100
AcDbEntity
  8
DRAFT
100
AcDbLine
 62
7
  6
CONTINUOUS
 10
16.6347998046
 20
20.0472061764
 11
20.1109124997
 21
20.0472061764
  0
LINE
  5
699
100
AcDbEntity
  8
DRAFT
100
AcDbLine
 62
7
  6
CONTINUOUS
 10
20.0650989158
 20
20.0930197603
 11
16.6758888051
 21
20.0930197603
  0
LINE
  5
69A
100
AcDbEntity
  8
DRAFT
100
AcDbLine
 62
7
  6
CONTINUOUS
 10
2.0459361943
 20
20.0930197603
 11
-1.3432739164
 21
20.0930197603
  0
LINE
  5
69B
100
AcDbEntity
  8
DRAFT
100
AcDbLine
 62
7
  6
CONTINUOUS
 10
5.8659250626
 20
21.0472061764
 11
8.4598148403
 21
21.0472061764
  0
LINE
  5
69C
100
AcDbEntity
  8
DRAFT
100
AcDbLine
 62
7
  6
CONTINUOUS
 10
10.2617905283
 20
21.0472061764
 11
12.8558999368
 21
21.0472061764
  0
LINE
  5
69D
100
AcDbEntity
  8
DRAFT
100
AcDbLine
 62
7
  6
CONTINUOUS
 10
6.8609124997
 20
21.3611702284
 11
11.8609124997
 21
21.3611702284
  0
LINE
  5
69E
100
AcDbEntity
  8
DRAFT
100
AcDbLine
 62
7
  6
CONTINUOUS
 10
21.6622955027
 20
22.2382356897
 11
21.1472064802
 21
22.2382356897
  0
LINE
  5
69F
100
AcDbEntity
  8
DRAFT
100
AcDbLine
 62
7
  6
CONTINUOUS
 10
20.0746185192
 20
22.2382356897
 11
15.879382311
 21
22.2382356897
  0
LINE
  5
6A0
100
AcDbEntity
  8
DRAFT
100
AcDbLine
 62
7
  6
CONTINUOUS
 10
2.8424426884
 20
22.2382356897
 11
-1.3527935198
 21
22.2382356897
  0
LINE
  5
6A1
100
AcDbEntity
  8
DRAFT
100
AcDbLine
 62
7
  6
CONTINUOUS
 10
-2.4253814808
 20
22.2382356897
 11
-2.9404705034
 21
22.2382356897
  0
LINE
  5
6A2
100
AcDbEntity
  8
DRAFT
100
AcDbLine
 62
7
  6
CONTINUOUS
 10
-3.2390875003
 20
22.3472061764
 11
-2.3890875003
 21
22.3472061764
  0
LINE
  5
6A3
100
AcDbEntity
  8
DRAFT
100
AcDbLine
 62
7
  6
CONTINUOUS
 10
-1.3890875003
 20
22.3472061764
 11
2.9621947618
 21
22.3472061764
  0
LINE
  5
6A4
100
AcDbEntity
  8
DRAFT
100
AcDbLine
 62
7
  6
CONTINUOUS
 10
15.7596302376
 20
22.3472061764
 11
20.1109124997
 21
22.3472061764
  0
LINE
  5
6A5
100
AcDbEntity
  8
DRAFT
100
AcDbLine
 62
7
  6
CONTINUOUS
 10
21.1109124997
 20
22.3472061764
 11
21.9609124997
 21
22.3472061764
  0
LINE
  5
6A6
100
AcDbEntity
  8
0
100
AcDbLine
 62
7
  6
CONTINUOUS
 10
21.6609124997
 20
24.3472061764
 11
12.6109124997
 21
24.3472061764
  0
LINE
  5
6A7
100
AcDbEntity
  8
0
100
AcDbLine
 62
7
  6
CONTINUOUS
 10
6.1109124997
 20
24.3472061764
 11
-2.9390875003
 21
24.3472061764
  0
LINE
  5
6A8
100
AcDbEntity
  8
0
100
AcDbLine
 62
7
  6
CONTINUOUS
 10
6.1109124997
 20
26.0472061764
 11
12.6109124997
 21
26.0472061764
  0
LINE
  5
6A9
100
AcDbEntity
  8
SUPERFICI
100
AcDbLine
 62
7
  6
CONTINUOUS
 10
21.6622955027
 20
22.2382356897
 11
21.9609124997
 21
22.2376026145
  0
LWPOLYLINE
  5
6AA
100
AcDbEntity
  8
0
100
AcDbPolyline
 62
7
  6
CONTINUOUS
 90
31
 70
0
 10
9.3609124997
 20
20.6639093568
 10
9.4357872965
 20
20.663363114
 10
9.5108029281
 20
20.6577701309
 10
9.5856171316
 20
20.6470946103
 10
9.6599099794
 20
20.6313171863
 10
9.7333019637
 20
20.6104522653
 10
9.8053604051
 20
20.5845671641
 10
9.8758603435
 20
20.5536800556
 10
9.9443281048
 20
20.5179337912
 10
10.0100120779
 20
20.4777261314
 10
10.0724277761
 20
20.4334492911
 10
10.1315487652
 20
20.3852219136
 10
10.1873486847
 20
20.3330987956
 10
10.2396426656
 20
20.2772337438
 10
10.2881148164
 20
20.2179440809
 10
10.3325339727
 20
20.1555104435
 10
10.3726555847
 20
20.0902937498
 10
10.4083573193
 20
20.022512025
 10
10.4395783569
 20
19.9522269888
 10
10.4661986154
 20
19.8795312053
 10
10.4879584711
 20
19.8049225864
 10
10.5046421837
 20
19.7290898818
 10
10.5161688821
 20
19.652621773
 10
10.5225699658
 20
19.5756290494
 10
10.5238343121
 20
19.4980997118
 10
10.5198919952
 20
19.4201787611
 10
10.5107028137
 20
19.3424157136
 10
10.4963123846
 20
19.2654012745
 10
10.4768083001
 20
19.1895593396
 10
10.4522661519
 20
19.1151504304
 10
10.422796011
 20
19.0425071794
  0
LWPOLYLINE
  5
6AB
100
AcDbEntity
  8
SUPERFICI
100
AcDbPolyline
 62
7
  6
CONTINUOUS
 90
7
 70
0
 10
21.9609124997
 20
22.2376026145
 10
22.0225746649
 20
22.2368242289
 10
22.0840705779
 20
22.2347253818
 10
22.1453719647
 20
22.2313156351
 10
22.2064509451
 20
22.2266051351
 10
22.2672800432
 20
22.220604599
 10
22.3278321976
 20
22.2133253008
  0
LWPOLYLINE
  5
6AC
100
AcDbEntity
  8
SUPERFICI
100
AcDbPolyline
 62
7
  6
CONTINUOUS
 90
7
 70
0
 10
22.3278321976
 20
22.2133253008
 10
22.4743654636
 20
22.1902998329
 10
22.6199041852
 20
22.1597053031
 10
22.7640516241
 20
22.1215626967
 10
22.9064094937
 20
22.0759140065
 10
23.0465790693
 20
22.0228225079
 10
23.1841623262
 20
21.9623729764
  0
LWPOLYLINE
  5
6AD
100
AcDbEntity
  8
SUPERFICI
100
AcDbPolyline
 62
7
  6
CONTINUOUS
 90
16
 70
0
 10
23.1841623262
 20
21.9623729764
 10
23.3819918014
 20
21.8601982373
 10
23.5688039486
 20
21.7447597219
 10
23.7438772739
 20
21.6173210375
 10
23.9053418397
 20
21.4803494854
 10
24.0542027795
 20
21.3341100968
 10
24.1934354465
 20
21.175756021
 10
24.3230083607
 20
21.0042814796
 10
24.4405042772
 20
20.8217294422
 10
24.5446159455
 20
20.6292384229
 10
24.6346202989
 20
20.4271397684
 10
24.7092792968
 20
20.2170496806
 10
24.7671964994
 20
20.0024280299
 10
24.8080352312
 20
19.7854033314
 10
24.831942252
 20
19.5665540506
 10
24.8389237542
 20
19.3472061764
  0
ARC
  5
6AE
100
AcDbEntity
  8
0
100
AcDbCircle
 62
7
  6
CONTINUOUS
 10
-2.9390875003
 20
-102.2527938236
 40
5.0
100
AcDbArc
 50
180.0
 51
270.0
  0
ARC
  5
6AF
100
AcDbEntity
  8
DRAFT
100
AcDbCircle
 62
7
  6
CONTINUOUS
 10
6.8609124997
 20
-102.4527938236
 40
4.8
100
AcDbArc
 50
185.9791567963
 51
215.6853347127
  0
ARC
  5
6B0
100
AcDbEntity
  8
DRAFT
100
AcDbCircle
 62
7
  6
CONTINUOUS
 10
6.8609124997
 20
-102.4527938236
 40
4.8
100
AcDbArc
 50
121.3322067072
 51
174.0208432037
  0
ARC
  5
6B1
100
AcDbEntity
  8
0
100
AcDbCircle
 62
7
  6
CONTINUOUS
 10
-3.2390875003
 20
-102.2527938236
 40
3.0
100
AcDbArc
 50
180.0
 51
270.0
  0
ARC
  5
6B2
100
AcDbEntity
  8
DRAFT
100
AcDbCircle
 62
7
  6
CONTINUOUS
 10
6.8609124997
 20
-102.4527938236
 40
1.8139640519
100
AcDbArc
 50
90.0
 51
270.0
  0
ARC
  5
6B3
100
AcDbEntity
  8
SUPERFICI
100
AcDbCircle
 62
7
  6
CONTINUOUS
 10
-2.9390875003
 20
19.3472061764
 40
5.0
100
AcDbArc
 50
90.0
 51
180.0
  0
ARC
  5
6B4
100
AcDbEntity
  8
DRAFT
100
AcDbCircle
 62
7
  6
CONTINUOUS
 10
6.8609124997
 20
19.5472061764
 40
4.8
100
AcDbArc
 50
144.3146652873
 51
174.0208432037
  0
ARC
  5
6B5
100
AcDbEntity
  8
DRAFT
100
AcDbCircle
 62
7
  6
CONTINUOUS
 10
6.8609124997
 20
19.5472061764
 40
4.8
100
AcDbArc
 50
185.9791567963
 51
238.6677932928
  0
ARC
  5
6B6
100
AcDbEntity
  8
SUPERFICI
100
AcDbCircle
 62
7
  6
CONTINUOUS
 10
-3.2390875003
 20
19.3472061764
 40
3.0
100
AcDbArc
 50
90.0
 51
180.0
  0
ARC
  5
6B7
100
AcDbEntity
  8
DRAFT
100
AcDbCircle
 62
7
  6
CONTINUOUS
 10
6.8609124997
 20
19.5472061764
 40
1.8139640519
100
AcDbArc
 50
90.0
 51
270.0
  0
ARC
  5
6B8
100
AcDbEntity
  8
DRAFT
100
AcDbCircle
 62
7
  6
CONTINUOUS
 10
11.8609124997
 20
-102.4527938236
 40
4.8
100
AcDbArc
 50
324.3146652873
 51
354.0208432037
  0
ARC
  5
6B9
100
AcDbEntity
  8
DRAFT
100
AcDbCircle
 62
7
  6
CONTINUOUS
 10
11.8609124997
 20
-102.4527938236
 40
4.8
100
AcDbArc
 50
5.9791567963
 51
58.6677932928
  0
ARC
  5
6BA
100
AcDbEntity
  8
RACCORDO
100
AcDbCircle
 62
7
  6
CONTINUOUS
 10
9.3609124997
 20
-102.4527938236
 40
3.2043457495
100
AcDbArc
 50
332.0758600599
 51
27.9241399403
  0
ARC
  5
6BB
100
AcDbEntity
  8
RACCORDO
100
AcDbCircle
 62
7
  6
CONTINUOUS
 10
9.3609124997
 20
-102.4527938236
 40
3.2043457495
100
AcDbArc
 50
152.0758600599
 51
207.9241399403
  0
ARC
  5
6BC
100
AcDbEntity
  8
RACCORDO
100
AcDbCircle
 62
250
  6
CONTINUOUS
 10
9.3609124997
 20
-102.4527938236
 40
2.7043457236
100
AcDbArc
 50
146.3064823339
 51
213.6935163101
  0
ARC
  5
6BD
100
AcDbEntity
  8
RACCORDO
100
AcDbCircle
 62
250
  6
CONTINUOUS
 10
9.3609124997
 20
-102.4527938236
 40
2.7043457236
100
AcDbArc
 50
326.3064823339
 51
33.6935163101
  0
ARC
  5
6BE
100
AcDbEntity
  8
DRAFT
100
AcDbCircle
 62
7
  6
CONTINUOUS
 10
11.8609124997
 20
-102.4527938236
 40
1.8139640519
100
AcDbArc
 50
270.0
 51
90.0
  0
ARC
  5
6BF
100
AcDbEntity
  8
0
100
AcDbCircle
 62
7
  6
CONTINUOUS
 10
9.3609124997
 20
-102.4527938236
 40
1.8
100
AcDbArc
 50
123.5485652698
 51
236.4514347302
  0
ARC
  5
6C0
100
AcDbEntity
  8
0
100
AcDbCircle
 62
7
  6
CONTINUOUS
 10
9.3609124997
 20
-102.4527938236
 40
1.8
100
AcDbArc
 50
303.5485652698
 51
56.4514347302
  0
ARC
  5
6C1
100
AcDbEntity
  8
0
100
AcDbCircle
 62
7
  6
CONTINUOUS
 10
9.3609124997
 20
-102.4527938236
 40
1.25
100
AcDbArc
 50
199.8163015759
 51
273.17986402
  0
ARC
  5
6C2
100
AcDbEntity
  8
SUPERFICI
100
AcDbCircle
 62
7
  6
CONTINUOUS
 10
21.6609124997
 20
-102.2527938236
 40
5.0
100
AcDbArc
 50
270.0
 51
360.0
  0
ARC
  5
6C3
100
AcDbEntity
  8
SUPERFICI
100
AcDbCircle
 62
7
  6
CONTINUOUS
 10
21.9609124997
 20
-102.2527938236
 40
3.0
100
AcDbArc
 50
270.0
 51
360.0
  0
ARC
  5
6C4
100
AcDbEntity
  8
DRAFT
100
AcDbCircle
 62
7
  6
CONTINUOUS
 10
11.8609124997
 20
19.5472061764
 40
4.8
100
AcDbArc
 50
5.9791567963
 51
35.6853347127
  0
ARC
  5
6C5
100
AcDbEntity
  8
DRAFT
100
AcDbCircle
 62
7
  6
CONTINUOUS
 10
11.8609124997
 20
19.5472061764
 40
4.8
100
AcDbArc
 50
301.3322067072
 51
354.0208432037
  0
ARC
  5
6C6
100
AcDbEntity
  8
RACCORDO
100
AcDbCircle
 62
7
  6
CONTINUOUS
 10
9.3609124997
 20
19.5472061764
 40
3.2043457495
100
AcDbArc
 50
332.0758600599
 51
27.9241399403
  0
ARC
  5
6C7
100
AcDbEntity
  8
RACCORDO
100
AcDbCircle
 62
7
  6
CONTINUOUS
 10
9.3609124997
 20
19.5472061764
 40
3.2043457495
100
AcDbArc
 50
152.0758600599
 51
207.9241399403
  0
ARC
  5
6C8
100
AcDbEntity
  8
RACCORDO
100
AcDbCircle
 62
250
  6
CONTINUOUS
 10
9.3609124997
 20
19.5472061764
 40
2.7043457236
100
AcDbArc
 50
146.3064823339
 51
213.6935163101
  0
ARC
  5
6C9
100
AcDbEntity
  8
RACCORDO
100
AcDbCircle
 62
250
  6
CONTINUOUS
 10
9.3609124997
 20
19.5472061764
 40
2.7043457236
100
AcDbArc
 50
326.3064823339
 51
33.6935163101
  0
ARC
  5
6CA
100
AcDbEntity
  8
DRAFT
100
AcDbCircle
 62
7
  6
CONTINUOUS
 10
11.8609124997
 20
19.5472061764
 40
1.8139640519
100
AcDbArc
 50
270.0
 51
90.0
  0
ARC
  5
6CB
100
AcDbEntity
  8
0
100
AcDbCircle
 62
7
  6
CONTINUOUS
 10
9.3609124997
 20
19.5472061764
 40
1.8
100
AcDbArc
 50
123.5485652698
 51
236.4514347302
  0
ARC
  5
6CC
100
AcDbEntity
  8
0
100
AcDbCircle
 62
7
  6
CONTINUOUS
 10
9.3609124997
 20
19.5472061764
 40
1.8
100
AcDbArc
 50
303.5485652698
 51
56.4514347302
  0
ARC
  5
6CD
100
AcDbEntity
  8
0
100
AcDbCircle
 62
7
  6
CONTINUOUS
 10
9.3609124997
 20
19.5472061764
 40
1.25
100
AcDbArc
 50
199.8163015759
 51
273.17986402
  0
ARC
  5
6CE
100
AcDbEntity
  8
SUPERFICI
100
AcDbCircle
 62
7
  6
CONTINUOUS
 10
21.6609124997
 20
19.3472061764
 40
5.0
100
AcDbArc
 50
0.0
 51
90.0
  0
ARC
  5
6CF
100
AcDbEntity
  8
SUPERFICI
100
AcDbCircle
 62
7
  6
CONTINUOUS
 10
21.9609124997
 20
19.3472061764
 40
3.0
100
AcDbArc
 50
0.0
 51
90.0
  0
ELLIPSE
  5
6D0
100
AcDbEntity
  8
RACCORDO
100
AcDbEllipse
 62
7
  6
CONTINUOUS
 10
-4.264460687
 20
-39.3781670103
 30
0.0
 11
-0.3536610946
 21
-0.3536610946
 31
0.0
 40
0.9996954599
 41
-0.7852458701
 42
0.7852458701
  0
ELLIPSE
  5
6D1
100
AcDbEntity
  8
RACCORDO
100
AcDbEllipse
 62
7
  6
CONTINUOUS
 10
-4.264460687
 20
13.4725793631
 30
0.0
 11
0.3536610946
 21
-0.3536610946
 31
0.0
 40
0.9996954599
 41
2.3563467834
 42
3.9268385237
  0
ELLIPSE
  5
6D2
100
AcDbEntity
  8
RACCORDO
100
AcDbEllipse
 62
7
  6
CONTINUOUS
 10
22.9862856864
 20
13.4725793631
 30
0.0
 11
0.3536610946
 21
0.3536610946
 31
0.0
 40
0.9996954599
 41
-0.7852458701
 42
0.7852458701
  0
ELLIPSE
  5
6D3
100
AcDbEntity
  8
RACCORDO
100
AcDbEllipse
 62
7
  6
CONTINUOUS
 10
22.9862856864
 20
-39.3781670103
 30
0.0
 11
-0.3536610946
 21
0.3536610946
 31
0.0
 40
0.9996954599
 41
2.3563467834
 42
3.9268385237
  0
ELLIPSE
  5
6D4
100
AcDbEntity
  8
RACCORDO
100
AcDbEllipse
 62
7
  6
CONTINUOUS
 10
22.9862856864
 20
-43.5274206369
 30
0.0
 11
0.3536610946
 21
0.3536610946
 31
0.0
 40
0.9996954599
 41
-0.7852458701
 42
0.7852458701
  0
ELLIPSE
  5
6D5
100
AcDbEntity
  8
RACCORDO
100
AcDbEllipse
 62
7
  6
CONTINUOUS
 10
22.9862856864
 20
-96.3781670103
 30
0.0
 11
-0.3536610946
 21
0.3536610946
 31
0.0
 40
0.9996954599
 41
2.3563467834
 42
3.9268385237
  0
ELLIPSE
  5
6D6
100
AcDbEntity
  8
RACCORDO
100
AcDbEllipse
 62
7
  6
CONTINUOUS
 10
-4.264460687
 20
-96.3781670103
 30
0.0
 11
-0.3536610946
 21
-0.3536610946
 31
0.0
 40
0.9996954599
 41
-0.7852458701
 42
0.7852458701
  0
ELLIPSE
  5
6D7
100
AcDbEntity
  8
RACCORDO
100
AcDbEllipse
 62
7
  6
CONTINUOUS
 10
-4.264460687
 20
-43.5274206369
 30
0.0
 11
0.3536610946
 21
-0.3536610946
 31
0.0
 40
0.9996954599
 41
2.3563467834
 42
3.9268385237
  0
ELLIPSE
  5
6D8
100
AcDbEntity
  8
DRAFT
100
AcDbEllipse
 62
7
  6
CONTINUOUS
 10
20.7462768631
 20
-94.2193117755
 30
0.0
 11
-0.0
 21
40.0
 31
0.0
 40
0.0174550649
 41
-4.4911050874
 42
-4.4357616203
  0
ELLIPSE
  5
6D9
100
AcDbEntity
  8
DRAFT
100
AcDbEllipse
 62
7
  6
CONTINUOUS
 10
-2.0244518637
 20
-94.2193117755
 30
0.0
 11
-0.0
 21
40.0
 31
0.0
 40
0.0174550649
 41
-1.8474236869
 42
-1.7920802198
  0
ELLIPSE
  5
6DA
100
AcDbEntity
  8
DRAFT
100
AcDbEllipse
 62
7
  6
CONTINUOUS
 10
20.4755481363
 20
-94.2193117755
 30
0.0
 11
-0.0
 21
40.0
 31
0.0
 40
0.0174550649
 41
-1.8474236869
 42
-1.6732920933
  0
ELLIPSE
  5
6DB
100
AcDbEntity
  8
DRAFT
100
AcDbEllipse
 62
7
  6
CONTINUOUS
 10
-1.7537231369
 20
-94.2193117755
 30
0.0
 11
-0.0
 21
40.0
 31
0.0
 40
0.0174550649
 41
-4.6098932139
 42
-4.4357616203
  0
ELLIPSE
  5
6DC
100
AcDbEntity
  8
RACCORDO
100
AcDbEllipse
 62
7
  6
CONTINUOUS
 10
1.7755481363
 20
-94.2193117755
 30
0.0
 11
-0.0
 21
40.0
 31
0.0
 40
0.0174550649
 41
-1.6607569456
 42
-1.5916348861
  0
ELLIPSE
  5
6DD
100
AcDbEntity
  8
DRAFT
100
AcDbEllipse
 62
7
  6
CONTINUOUS
 10
3.2361202578
 20
-94.2193117755
 30
0.0
 11
44.4342984675
 21
-39.9966342372
 31
0.0
 40
0.011677753
 41
-1.5629304503
 42
-1.4938102994
  0
ELLIPSE
  5
6DE
100
AcDbEntity
  8
DRAFT
100
AcDbEllipse
 62
7
  6
CONTINUOUS
 10
9.4962768631
 20
-94.2193117755
 30
0.0
 11
-0.0
 21
40.0
 31
0.0
 40
0.0174550649
 41
-4.6224302701
 42
-4.6103551504
  0
ELLIPSE
  5
6DF
100
AcDbEntity
  8
DRAFT
100
AcDbEllipse
 62
7
  6
CONTINUOUS
 10
-2.0244518637
 20
-94.2193117755
 30
0.0
 11
-0.0
 21
40.0
 31
0.0
 40
0.0174550649
 41
-1.7640888728
 42
-1.6732920933
  0
ELLIPSE
  5
6E0
100
AcDbEntity
  8
RACCORDO
100
AcDbEllipse
 62
7
  6
CONTINUOUS
 10
16.9462768631
 20
-94.2193117755
 30
0.0
 11
-0.0
 21
40.0
 31
0.0
 40
0.0174550649
 41
-4.691550421
 42
-4.6224283616
  0
ELLIPSE
  5
6E1
100
AcDbEntity
  8
DRAFT
100
AcDbEllipse
 62
7
  6
CONTINUOUS
 10
20.7462768631
 20
-94.2193117755
 30
0.0
 11
-0.0
 21
40.0
 31
0.0
 40
0.0174550649
 41
-4.6098932139
 42
-4.5190964344
  0
ELLIPSE
  5
6E2
100
AcDbEntity
  8
DRAFT
100
AcDbEllipse
 62
7
  6
CONTINUOUS
 10
9.2255481363
 20
-94.2193117755
 30
0.0
 11
-0.0
 21
40.0
 31
0.0
 40
0.0174550649
 41
-1.6728301567
 42
-1.6607550371
  0
ELLIPSE
  5
6E3
100
AcDbEntity
  8
DRAFT
100
AcDbEllipse
 62
7
  6
CONTINUOUS
 10
15.4857047415
 20
-94.2193117755
 30
0.0
 11
44.4342984675
 21
39.9966342372
 31
0.0
 40
0.011677753
 41
4.635402953
 42
4.7045231039
  0
ELLIPSE
  5
6E4
100
AcDbEntity
  8
DRAFT
100
AcDbEllipse
 62
7
  6
CONTINUOUS
 10
-3.0390875003
 20
10.6000775011
 30
0.0
 11
6.4
 21
-0.0
 31
0.0
 40
0.0174550649
 41
1.8819196235
 42
2.0669202117
  0
ELLIPSE
  5
6E5
100
AcDbEntity
  8
DRAFT
100
AcDbEllipse
 62
7
  6
CONTINUOUS
 10
-3.0390875003
 20
-0.9999224989
 30
0.0
 11
6.4
 21
-0.0
 31
0.0
 40
0.0174550649
 41
1.8819196235
 42
2.0669202117
  0
ELLIPSE
  5
6E6
100
AcDbEntity
  8
DRAFT
100
AcDbEllipse
 62
7
  6
CONTINUOUS
 10
-3.0390875003
 20
9.6943348517
 30
0.0
 11
6.4
 21
0.0
 31
0.0
 40
0.0174550649
 41
-2.0669202117
 42
-1.8819196235
  0
ELLIPSE
  5
6E7
100
AcDbEntity
  8
DRAFT
100
AcDbEllipse
 62
7
  6
CONTINUOUS
 10
-3.0390875003
 20
-12.4999224989
 30
0.0
 11
6.4
 21
0.0
 31
0.0
 40
0.0174550649
 41
1.8819196235
 42
2.0669202117
  0
ELLIPSE
  5
6E8
100
AcDbEntity
  8
DRAFT
100
AcDbEllipse
 62
7
  6
CONTINUOUS
 10
-3.0390875003
 20
-1.9056651483
 30
0.0
 11
6.4
 21
-0.0
 31
0.0
 40
0.0174550649
 41
-2.0669202117
 42
-1.8819196235
  0
ELLIPSE
  5
6E9
100
AcDbEntity
  8
DRAFT
100
AcDbEllipse
 62
7
  6
CONTINUOUS
 10
-3.0390875003
 20
-23.9999224989
 30
0.0
 11
6.4
 21
0.0
 31
0.0
 40
0.0174550649
 41
1.8819196235
 42
2.0669202117
  0
ELLIPSE
  5
6EA
100
AcDbEntity
  8
DRAFT
100
AcDbEllipse
 62
7
  6
CONTINUOUS
 10
-3.0390875003
 20
-13.4056651483
 30
0.0
 11
6.4
 21
0.0
 31
0.0
 40
0.0174550649
 41
-2.0669202117
 42
-1.8819196235
  0
ELLIPSE
  5
6EB
100
AcDbEntity
  8
DRAFT
100
AcDbEllipse
 62
7
  6
CONTINUOUS
 10
-3.0390875003
 20
-35.5999224989
 30
0.0
 11
6.4
 21
0.0
 31
0.0
 40
0.0174550649
 41
1.8819196235
 42
2.0669202117
  0
ELLIPSE
  5
6EC
100
AcDbEntity
  8
DRAFT
100
AcDbEllipse
 62
7
  6
CONTINUOUS
 10
-3.0390875003
 20
-24.9056651483
 30
0.0
 11
6.4
 21
0.0
 31
0.0
 40
0.0174550649
 41
-2.0669202117
 42
-1.8819196235
  0
ELLIPSE
  5
6ED
100
AcDbEntity
  8
DRAFT
100
AcDbEllipse
 62
7
  6
CONTINUOUS
 10
-3.0390875003
 20
-57.9999224989
 30
0.0
 11
6.4
 21
0.0
 31
0.0
 40
0.0174550649
 41
1.8819196235
 42
2.0669202117
  0
ELLIPSE
  5
6EE
100
AcDbEntity
  8
DRAFT
100
AcDbEllipse
 62
7
  6
CONTINUOUS
 10
-3.0390875003
 20
-47.3056651483
 30
0.0
 11
6.4
 21
0.0
 31
0.0
 40
0.0174550649
 41
-2.0669202117
 42
-1.8819196235
  0
ELLIPSE
  5
6EF
100
AcDbEntity
  8
DRAFT
100
AcDbEllipse
 62
7
  6
CONTINUOUS
 10
-3.0390875003
 20
-69.4999224989
 30
0.0
 11
6.4
 21
-0.0
 31
0.0
 40
0.0174550649
 41
1.8819196235
 42
2.0669202117
  0
ELLIPSE
  5
6F0
100
AcDbEntity
  8
DRAFT
100
AcDbEllipse
 62
7
  6
CONTINUOUS
 10
-3.0390875003
 20
-58.9056651483
 30
0.0
 11
6.4
 21
0.0
 31
0.0
 40
0.0174550649
 41
-2.0669202117
 42
-1.8819196235
  0
ELLIPSE
  5
6F1
100
AcDbEntity
  8
DRAFT
100
AcDbEllipse
 62
7
  6
CONTINUOUS
 10
-3.0390875003
 20
-80.9999224989
 30
0.0
 11
6.4
 21
-0.0
 31
0.0
 40
0.0174550649
 41
1.8819196235
 42
2.0669202117
  0
ELLIPSE
  5
6F2
100
AcDbEntity
  8
DRAFT
100
AcDbEllipse
 62
7
  6
CONTINUOUS
 10
-3.0390875003
 20
-70.4056651483
 30
0.0
 11
6.4
 21
0.0
 31
0.0
 40
0.0174550649
 41
-2.0669202117
 42
-1.8819196235
  0
ELLIPSE
  5
6F3
100
AcDbEntity
  8
DRAFT
100
AcDbEllipse
 62
7
  6
CONTINUOUS
 10
-3.0390875003
 20
-92.5999224989
 30
0.0
 11
6.4
 21
-0.0
 31
0.0
 40
0.0174550649
 41
1.8819196235
 42
2.0669202117
  0
ELLIPSE
  5
6F4
100
AcDbEntity
  8
DRAFT
100
AcDbEllipse
 62
7
  6
CONTINUOUS
 10
-3.0390875003
 20
-81.9056651483
 30
0.0
 11
6.4
 21
0.0
 31
0.0
 40
0.0174550649
 41
-2.0669202117
 42
-1.8819196235
  0
ELLIPSE
  5
6F5
100
AcDbEntity
  8
DRAFT
100
AcDbEllipse
 62
7
  6
CONTINUOUS
 10
-3.0390875003
 20
-93.5056651483
 30
0.0
 11
6.4
 21
0.0
 31
0.0
 40
0.0174550649
 41
-2.0669202117
 42
-1.8819196235
  0
ELLIPSE
  5
6F6
100
AcDbEntity
  8
RACCORDO
100
AcDbEllipse
 62
7
  6
CONTINUOUS
 10
-3.0390875003
 20
-40.9056651483
 30
0.0
 11
6.4
 21
0.0
 31
0.0
 40
0.0174550649
 41
-1.8915231477
 42
-1.8012217866
  0
ELLIPSE
  5
6F7
100
AcDbEntity
  8
RACCORDO
100
AcDbEllipse
 62
7
  6
CONTINUOUS
 10
-3.0390875003
 20
-41.9999224989
 30
0.0
 11
6.4
 21
-0.0
 31
0.0
 40
0.0174550649
 41
1.8012217866
 42
1.8915231477
  0
ELLIPSE
  5
6F8
100
AcDbEntity
  8
DRAFT
100
AcDbEllipse
 62
7
  6
CONTINUOUS
 10
-3.0390875003
 20
-46.3999224989
 30
0.0
 11
6.4
 21
-0.0
 31
0.0
 40
0.0174550649
 41
1.8819196235
 42
2.0669202117
  0
ELLIPSE
  5
6F9
100
AcDbEntity
  8
DRAFT
100
AcDbEllipse
 62
7
  6
CONTINUOUS
 10
-3.0390875003
 20
-36.5056651483
 30
0.0
 11
6.4
 21
0.0
 31
0.0
 40
0.0174550649
 41
-2.0669202117
 42
-1.8819196235
  0
ELLIPSE
  5
6FA
100
AcDbEntity
  8
RACCORDO
100
AcDbEllipse
 62
7
  6
CONTINUOUS
 10
1.9108363357
 20
14.8471300124
 30
0.0
 11
0.3536610946
 21
0.3536610946
 31
0.0
 40
0.9996954599
 41
-0.7852458701
 42
0.7852458701
  0
ELLIPSE
  5
6FB
100
AcDbEntity
  8
RACCORDO
100
AcDbEllipse
 62
7
  6
CONTINUOUS
 10
16.4767356165
 20
-94.5527938236
 30
0.0
 11
0.0
 21
0.5
 31
0.0
 40
0.0174550649
 41
-3.1415926536
 42
-1.5707963268
  0
ELLIPSE
  5
6FC
100
AcDbEntity
  8
RACCORDO
100
AcDbEllipse
 62
7
  6
CONTINUOUS
 10
-4.4390113363
 20
14.8471300124
 30
0.0
 11
-0.3536610946
 21
0.3536610946
 31
0.0
 40
0.9996954599
 41
-0.7852458701
 42
0.7852458701
  0
ELLIPSE
  5
6FD
100
AcDbEntity
  8
RACCORDO
100
AcDbEllipse
 62
7
  6
CONTINUOUS
 10
-4.4390113363
 20
-97.7527176596
 30
0.0
 11
-0.3536610946
 21
-0.3536610946
 31
0.0
 40
0.9996954599
 41
-0.7852458701
 42
0.7852458701
  0
ELLIPSE
  5
6FE
100
AcDbEntity
  8
RACCORDO
100
AcDbEllipse
 62
7
  6
CONTINUOUS
 10
1.9108363357
 20
-97.7527176596
 30
0.0
 11
0.3536610946
 21
-0.3536610946
 31
0.0
 40
0.9996954599
 41
-0.7852458701
 42
0.7852458701
  0
ELLIPSE
  5
6FF
100
AcDbEntity
  8
RACCORDO
100
AcDbEllipse
 62
7
  6
CONTINUOUS
 10
2.2450893829
 20
-45.3527938236
 30
0.0
 11
-0.0
 21
0.5
 31
0.0
 40
0.0174550649
 41
-0.0
 42
1.5707963268
  0
ELLIPSE
  5
700
100
AcDbEntity
  8
RACCORDO
100
AcDbEllipse
 62
7
  6
CONTINUOUS
 10
2.2450893829
 20
11.4813068956
 30
0.0
 11
-0.0
 21
0.5
 31
0.0
 40
0.0174550649
 41
0.0174532925
 42
1.5707963268
  0
ELLIPSE
  5
701
100
AcDbEntity
  8
RACCORDO
100
AcDbEllipse
 62
7
  6
CONTINUOUS
 10
16.4767356165
 20
11.4813068956
 30
0.0
 11
0.0
 21
0.5
 31
0.0
 40
0.0174550649
 41
-1.5707963268
 42
-0.0174532925
  0
ELLIPSE
  5
702
100
AcDbEntity
  8
RACCORDO
100
AcDbEllipse
 62
7
  6
CONTINUOUS
 10
16.4767356165
 20
-37.3868945427
 30
0.0
 11
0.0
 21
0.5
 31
0.0
 40
0.0174550649
 41
-3.1241393611
 42
-1.5707963268
  0
ELLIPSE
  5
703
100
AcDbEntity
  8
RACCORDO
100
AcDbEllipse
 62
7
  6
CONTINUOUS
 10
2.2450893829
 20
-37.3868945427
 30
0.0
 11
-0.0
 21
0.5
 31
0.0
 40
0.0174550649
 41
1.5707963268
 42
3.1241393611
  0
ELLIPSE
  5
704
100
AcDbEntity
  8
RACCORDO
100
AcDbEllipse
 62
7
  6
CONTINUOUS
 10
16.8109886637
 20
-97.7527176596
 30
0.0
 11
-0.3536610946
 21
-0.3536610946
 31
0.0
 40
0.9996954599
 41
-0.7852458701
 42
0.7852458701
  0
ELLIPSE
  5
705
100
AcDbEntity
  8
RACCORDO
100
AcDbEllipse
 62
7
  6
CONTINUOUS
 10
-4.4390113363
 20
-96.5527176596
 30
0.0
 11
0.3536610946
 21
0.3536610946
 31
0.0
 40
0.9996954599
 41
-3.9268385237
 42
-2.3563467834
  0
ELLIPSE
  5
706
100
AcDbEntity
  8
RACCORDO
100
AcDbEllipse
 62
7
  6
CONTINUOUS
 10
23.1608363357
 20
-97.7527176596
 30
0.0
 11
0.3536610946
 21
-0.3536610946
 31
0.0
 40
0.9996954599
 41
-0.7852458701
 42
0.7852458701
  0
ELLIPSE
  5
707
100
AcDbEntity
  8
RACCORDO
100
AcDbEllipse
 62
7
  6
CONTINUOUS
 10
23.1608363357
 20
14.8471300124
 30
0.0
 11
0.3536610946
 21
0.3536610946
 31
0.0
 40
0.9996954599
 41
-0.7852458701
 42
0.7852458701
  0
ELLIPSE
  5
708
100
AcDbEntity
  8
RACCORDO
100
AcDbEllipse
 62
7
  6
CONTINUOUS
 10
-4.4390113363
 20
-43.3528699876
 30
0.0
 11
0.3536610946
 21
-0.3536610946
 31
0.0
 40
0.9996954599
 41
2.3563467834
 42
3.9268385237
  0
ELLIPSE
  5
709
100
AcDbEntity
  8
RACCORDO
100
AcDbEllipse
 62
7
  6
CONTINUOUS
 10
16.8109886637
 20
14.8471300124
 30
0.0
 11
-0.3536610946
 21
0.3536610946
 31
0.0
 40
0.9996954599
 41
-0.7852458701
 42
0.7852458701
  0
ELLIPSE
  5
70A
100
AcDbEntity
  8
RACCORDO
100
AcDbEllipse
 62
7
  6
CONTINUOUS
 10
-4.4390113363
 20
-39.5527176596
 30
0.0
 11
0.3536610946
 21
0.3536610946
 31
0.0
 40
0.9996954599
 41
-3.9268385237
 42
-2.3563467834
  0
ELLIPSE
  5
70B
100
AcDbEntity
  8
RACCORDO
100
AcDbEllipse
 62
7
  6
CONTINUOUS
 10
-4.4390113363
 20
13.6471300124
 30
0.0
 11
-0.3536610946
 21
0.3536610946
 31
0.0
 40
0.9996954599
 41
-0.7852458701
 42
0.7852458701
  0
ELLIPSE
  5
70C
100
AcDbEntity
  8
RACCORDO
100
AcDbEllipse
 62
7
  6
CONTINUOUS
 10
23.1608363357
 20
13.6471300124
 30
0.0
 11
0.3536610946
 21
0.3536610946
 31
0.0
 40
0.9996954599
 41
-0.7852458701
 42
0.7852458701
  0
ELLIPSE
  5
70D
100
AcDbEntity
  8
RACCORDO
100
AcDbEllipse
 62
7
  6
CONTINUOUS
 10
23.1608363357
 20
-39.5527176596
 30
0.0
 11
0.3536610946
 21
-0.3536610946
 31
0.0
 40
0.9996954599
 41
-0.7852458701
 42
0.7852458701
  0
ELLIPSE
  5
70E
100
AcDbEntity
  8
RACCORDO
100
AcDbEllipse
 62
7
  6
CONTINUOUS
 10
23.1608363357
 20
-43.3528699876
 30
0.0
 11
0.3536610946
 21
0.3536610946
 31
0.0
 40
0.9996954599
 41
-0.7852458701
 42
0.7852458701
  0
ELLIPSE
  5
70F
100
AcDbEntity
  8
RACCORDO
100
AcDbEllipse
 62
7
  6
CONTINUOUS
 10
-4.4390113363
 20
-42.4528699876
 30
0.0
 11
0.3536610946
 21
-0.3536610946
 31
0.0
 40
0.9996954599
 41
2.3563467834
 42
3.9268385237
  0
ELLIPSE
  5
710
100
AcDbEntity
  8
RACCORDO
100
AcDbEllipse
 62
7
  6
CONTINUOUS
 10
-4.4390113363
 20
-40.4527176596
 30
0.0
 11
-0.3536610946
 21
-0.3536610946
 31
0.0
 40
0.9996954599
 41
-0.7852458701
 42
0.7852458701
  0
ELLIPSE
  5
711
100
AcDbEntity
  8
RACCORDO
100
AcDbEllipse
 62
7
  6
CONTINUOUS
 10
23.1608363357
 20
-96.5527176596
 30
0.0
 11
-0.3536610946
 21
0.3536610946
 31
0.0
 40
0.9996954599
 41
-3.9268385237
 42
-2.3563467834
  0
ELLIPSE
  5
712
100
AcDbEntity
  8
RACCORDO
100
AcDbEllipse
 62
7
  6
CONTINUOUS
 10
23.1608363357
 20
-40.4527176596
 30
0.0
 11
-0.3536610946
 21
0.3536610946
 31
0.0
 40
0.9996954599
 41
2.3563467834
 42
3.9268385237
  0
ELLIPSE
  5
713
100
AcDbEntity
  8
RACCORDO
100
AcDbEllipse
 62
7
  6
CONTINUOUS
 10
23.1608363357
 20
-42.4528699876
 30
0.0
 11
0.3536610946
 21
0.3536610946
 31
0.0
 40
0.9996954599
 41
-0.7852458701
 42
0.7852458701
  0
ELLIPSE
  5
714
100
AcDbEntity
  8
DRAFT
100
AcDbEllipse
 62
7
  6
CONTINUOUS
 10
21.7609124997
 20
-24.9056651483
 30
0.0
 11
6.4
 21
0.0
 31
0.0
 40
0.0174550649
 41
-1.2596730301
 42
-1.0746724419
  0
ELLIPSE
  5
715
100
AcDbEntity
  8
DRAFT
100
AcDbEllipse
 62
7
  6
CONTINUOUS
 10
21.7609124997
 20
-35.5999224989
 30
0.0
 11
6.4
 21
0.0
 31
0.0
 40
0.0174550649
 41
1.0746724419
 42
1.2596730301
  0
ELLIPSE
  5
716
100
AcDbEntity
  8
DRAFT
100
AcDbEllipse
 62
7
  6
CONTINUOUS
 10
21.7609124997
 20
-13.4056651483
 30
0.0
 11
6.4
 21
0.0
 31
0.0
 40
0.0174550649
 41
-1.2596730301
 42
-1.0746724419
  0
ELLIPSE
  5
717
100
AcDbEntity
  8
DRAFT
100
AcDbEllipse
 62
7
  6
CONTINUOUS
 10
21.7609124997
 20
-23.9999224989
 30
0.0
 11
6.4
 21
0.0
 31
0.0
 40
0.0174550649
 41
1.0746724419
 42
1.2596730301
  0
ELLIPSE
  5
718
100
AcDbEntity
  8
DRAFT
100
AcDbEllipse
 62
7
  6
CONTINUOUS
 10
21.7609124997
 20
-1.9056651483
 30
0.0
 11
6.4
 21
-0.0
 31
0.0
 40
0.0174550649
 41
-1.2596730301
 42
-1.0746724419
  0
ELLIPSE
  5
719
100
AcDbEntity
  8
DRAFT
100
AcDbEllipse
 62
7
  6
CONTINUOUS
 10
21.7609124997
 20
-12.4999224989
 30
0.0
 11
6.4
 21
0.0
 31
0.0
 40
0.0174550649
 41
1.0746724419
 42
1.2596730301
  0
ELLIPSE
  5
71A
100
AcDbEntity
  8
DRAFT
100
AcDbEllipse
 62
7
  6
CONTINUOUS
 10
21.7609124997
 20
9.6943348517
 30
0.0
 11
6.4
 21
-0.0
 31
0.0
 40
0.0174550649
 41
-1.2596730301
 42
-1.0746724419
  0
ELLIPSE
  5
71B
100
AcDbEntity
  8
DRAFT
100
AcDbEllipse
 62
7
  6
CONTINUOUS
 10
21.7609124997
 20
-0.9999224989
 30
0.0
 11
6.4
 21
0.0
 31
0.0
 40
0.0174550649
 41
1.0746724419
 42
1.2596730301
  0
ELLIPSE
  5
71C
100
AcDbEntity
  8
DRAFT
100
AcDbEllipse
 62
7
  6
CONTINUOUS
 10
21.7609124997
 20
10.6000775011
 30
0.0
 11
6.4
 21
0.0
 31
0.0
 40
0.0174550649
 41
1.0746724419
 42
1.2596730301
  0
ELLIPSE
  5
71D
100
AcDbEntity
  8
DRAFT
100
AcDbEllipse
 62
7
  6
CONTINUOUS
 10
21.7609124997
 20
-93.5056651483
 30
0.0
 11
6.4
 21
-0.0
 31
0.0
 40
0.0174550649
 41
-1.2596730301
 42
-1.0746724419
  0
ELLIPSE
  5
71E
100
AcDbEntity
  8
DRAFT
100
AcDbEllipse
 62
7
  6
CONTINUOUS
 10
21.7609124997
 20
-81.9056651483
 30
0.0
 11
6.4
 21
0.0
 31
0.0
 40
0.0174550649
 41
-1.2596730301
 42
-1.0746724419
  0
ELLIPSE
  5
71F
100
AcDbEntity
  8
DRAFT
100
AcDbEllipse
 62
7
  6
CONTINUOUS
 10
21.7609124997
 20
-92.5999224989
 30
0.0
 11
6.4
 21
0.0
 31
0.0
 40
0.0174550649
 41
1.0746724419
 42
1.2596730301
  0
ELLIPSE
  5
720
100
AcDbEntity
  8
DRAFT
100
AcDbEllipse
 62
7
  6
CONTINUOUS
 10
21.7609124997
 20
-70.4056651483
 30
0.0
 11
6.4
 21
0.0
 31
0.0
 40
0.0174550649
 41
-1.2596730301
 42
-1.0746724419
  0
ELLIPSE
  5
721
100
AcDbEntity
  8
DRAFT
100
AcDbEllipse
 62
7
  6
CONTINUOUS
 10
21.7609124997
 20
-80.9999224989
 30
0.0
 11
6.4
 21
0.0
 31
0.0
 40
0.0174550649
 41
1.0746724419
 42
1.2596730301
  0
ELLIPSE
  5
722
100
AcDbEntity
  8
DRAFT
100
AcDbEllipse
 62
7
  6
CONTINUOUS
 10
21.7609124997
 20
-58.9056651483
 30
0.0
 11
6.4
 21
0.0
 31
0.0
 40
0.0174550649
 41
-1.2596730301
 42
-1.0746724419
  0
ELLIPSE
  5
723
100
AcDbEntity
  8
DRAFT
100
AcDbEllipse
 62
7
  6
CONTINUOUS
 10
21.7609124997
 20
-69.4999224989
 30
0.0
 11
6.4
 21
0.0
 31
0.0
 40
0.0174550649
 41
1.0746724419
 42
1.2596730301
  0
ELLIPSE
  5
724
100
AcDbEntity
  8
DRAFT
100
AcDbEllipse
 62
7
  6
CONTINUOUS
 10
21.7609124997
 20
-47.3056651483
 30
0.0
 11
6.4
 21
-0.0
 31
0.0
 40
0.0174550649
 41
-1.2596730301
 42
-1.0746724419
  0
ELLIPSE
  5
725
100
AcDbEntity
  8
DRAFT
100
AcDbEllipse
 62
7
  6
CONTINUOUS
 10
21.7609124997
 20
-57.9999224989
 30
0.0
 11
6.4
 21
0.0
 31
0.0
 40
0.0174550649
 41
1.0746724419
 42
1.2596730301
  0
ELLIPSE
  5
726
100
AcDbEntity
  8
RACCORDO
100
AcDbEllipse
 62
7
  6
CONTINUOUS
 10
21.7609124997
 20
-41.9999224989
 30
0.0
 11
6.4
 21
-0.0
 31
0.0
 40
0.0174550649
 41
1.2500695059
 42
1.3403708669
  0
ELLIPSE
  5
727
100
AcDbEntity
  8
RACCORDO
100
AcDbEllipse
 62
7
  6
CONTINUOUS
 10
21.7609124997
 20
-40.9056651483
 30
0.0
 11
6.4
 21
0.0
 31
0.0
 40
0.0174550649
 41
-1.3403708669
 42
-1.2500695059
  0
ELLIPSE
  5
728
100
AcDbEntity
  8
DRAFT
100
AcDbEllipse
 62
7
  6
CONTINUOUS
 10
21.7609124997
 20
-36.5056651483
 30
0.0
 11
6.4
 21
0.0
 31
0.0
 40
0.0174550649
 41
-1.2596730301
 42
-1.0746724419
  0
ELLIPSE
  5
729
100
AcDbEntity
  8
DRAFT
100
AcDbEllipse
 62
7
  6
CONTINUOUS
 10
21.7609124997
 20
-46.3999224989
 30
0.0
 11
6.4
 21
0.0
 31
0.0
 40
0.0174550649
 41
1.0746724419
 42
1.2596730301
  0
ELLIPSE
  5
72A
100
AcDbEntity
  8
DRAFT
100
AcDbEllipse
 62
7
  6
CONTINUOUS
 10
-2.0244518637
 20
11.3137241283
 30
0.0
 11
-0.0
 21
40.0
 31
0.0
 40
0.0174550649
 41
-1.3495124338
 42
-1.2941689667
  0
ELLIPSE
  5
72B
100
AcDbEntity
  8
DRAFT
100
AcDbEllipse
 62
7
  6
CONTINUOUS
 10
20.7462768631
 20
11.3137241283
 30
0.0
 11
-0.0
 21
40.0
 31
0.0
 40
0.0174550649
 41
1.2941689667
 42
1.3495124338
  0
ELLIPSE
  5
72C
100
AcDbEntity
  8
DRAFT
100
AcDbEllipse
 62
7
  6
CONTINUOUS
 10
-1.7537231369
 20
11.3137241283
 30
0.0
 11
-0.0
 21
40.0
 31
0.0
 40
0.0174550649
 41
1.2941689667
 42
1.4683005603
  0
ELLIPSE
  5
72D
100
AcDbEntity
  8
DRAFT
100
AcDbEllipse
 62
7
  6
CONTINUOUS
 10
20.4755481363
 20
11.3137241283
 30
0.0
 11
-0.0
 21
40.0
 31
0.0
 40
0.0174550649
 41
-1.4683005603
 42
-1.2941689667
  0
ELLIPSE
  5
72E
100
AcDbEntity
  8
RACCORDO
100
AcDbEllipse
 62
7
  6
CONTINUOUS
 10
1.7755481363
 20
11.3137241283
 30
0.0
 11
-0.0
 21
40.0
 31
0.0
 40
0.0174550649
 41
-1.5483908263
 42
-1.480835708
  0
ELLIPSE
  5
72F
100
AcDbEntity
  8
DRAFT
100
AcDbEllipse
 62
7
  6
CONTINUOUS
 10
-2.0244518637
 20
11.3137241283
 30
0.0
 11
-0.0
 21
40.0
 31
0.0
 40
0.0174550649
 41
-1.4683005603
 42
-1.3775037808
  0
ELLIPSE
  5
730
100
AcDbEntity
  8
DRAFT
100
AcDbEllipse
 62
7
  6
CONTINUOUS
 10
9.4962768631
 20
11.3137241283
 30
0.0
 11
-0.0
 21
40.0
 31
0.0
 40
0.0174550649
 41
1.4687624968
 42
1.4808376165
  0
ELLIPSE
  5
731
100
AcDbEntity
  8
DRAFT
100
AcDbEllipse
 62
7
  6
CONTINUOUS
 10
3.2361202578
 20
11.3137241283
 30
0.0
 11
44.4342984675
 21
39.9966342372
 31
0.0
 40
0.011677753
 41
7.7769956066
 42
7.8445488163
  0
ELLIPSE
  5
732
100
AcDbEntity
  8
RACCORDO
100
AcDbEllipse
 62
7
  6
CONTINUOUS
 10
16.9462768631
 20
11.3137241283
 30
0.0
 11
-0.0
 21
40.0
 31
0.0
 40
0.0174550649
 41
1.480835708
 42
1.5483908263
  0
ELLIPSE
  5
733
100
AcDbEntity
  8
DRAFT
100
AcDbEllipse
 62
7
  6
CONTINUOUS
 10
15.4857047415
 20
11.3137241283
 30
0.0
 11
44.4342984675
 21
-39.9966342372
 31
0.0
 40
0.011677753
 41
1.5802291444
 42
1.6477823542
  0
ELLIPSE
  5
734
100
AcDbEntity
  8
DRAFT
100
AcDbEllipse
 62
7
  6
CONTINUOUS
 10
9.2255481363
 20
11.3137241283
 30
0.0
 11
-0.0
 21
40.0
 31
0.0
 40
0.0174550649
 41
-1.4808376165
 42
-1.4687624968
  0
ELLIPSE
  5
735
100
AcDbEntity
  8
DRAFT
100
AcDbEllipse
 62
7
  6
CONTINUOUS
 10
20.7462768631
 20
11.3137241283
 30
0.0
 11
-0.0
 21
40.0
 31
0.0
 40
0.0174550649
 41
1.3775037808
 42
1.4683005603
  0
ELLIPSE
  5
736
100
AcDbEntity
  8
DRAFT
100
AcDbEllipse
 62
7
  6
CONTINUOUS
 10
6.8609124997
 20
17.3996734198
 30
0.0
 11
-0.0
 21
6.4478375287
 31
0.0
 40
0.942904759
 41
0.6961502384
 42
0.7221046627
  0
ELLIPSE
  5
737
100
AcDbEntity
  8
DRAFT
100
AcDbEllipse
 62
7
  6
CONTINUOUS
 10
11.8609124997
 20
17.3996734198
 30
0.0
 11
-0.0
 21
6.4478375287
 31
0.0
 40
0.942904759
 41
-0.7221046627
 42
-0.6961502384
  0
ENDSEC
  0
SECTION
  2
OBJECTS
  0
DICTIONARY
  5
C
100
AcDbDictionary
280
0
281
1
  3
ACAD_GROUP
350
D
  3
ACAD_MLINESTYLE
350
17
  3
ACAD_LAYOUT
350
1A
  3
ACAD_PLOTSETTINGS
350
19
  3
ACAD_PLOTSTYLENAME
350
E
  0
DICTIONARY
  5
D
102
{ACAD_REACTORS
330
C
102
}
100
AcDbDictionary
280
0
281
1
  0
ACDBDICTIONARYWDFLT
  5
E
102
{ACAD_REACTORS
330
C
102
}
100
AcDbDictionary
281
1
  3
Normal
350
F
100
AcDbDictionaryWithDefault
340
F
  0
DICTIONARY
  5
17
102
{ACAD_REACTORS
330
C
102
}
100
AcDbDictionary
280
0
281
1
  3
Standard
350
18
  0
DICTIONARY
  5
19
102
{ACAD_REACTORS
330
C
102
}
100
AcDbDictionary
281
1
  0
DICTIONARY
  5
1A
102
{ACAD_REACTORS
330
C
102
}
100
AcDbDictionary
281
1
  3
Model
350
738
  3
Layout1
350
739
  0
ACDBPLACEHOLDER
  5
F
102
{ACAD_REACTORS
330
E
102
}
  0
MLINESTYLE
  5
18
102
{ACAD_REACTORS
330
17
102
}
100
AcDbMlineStyle
  2
STANDARD
 70
0
  3

 62
256
 51
90.0
 52
90.0
 71
2
 49
0.5
 62
256
  6
BYLAYER
 49
-0.5
 62
256
  6
BYLAYER
  0
LAYOUT
  5
738
102
{ACAD_REACTORS
330
1A
102
}
100
AcDbPlotSettings
  1

  2
none_device
  4
ISO_A4_(297.00_x_210.00_MM)
  6

 40
0.0
 41
0.0
 42
0.0
 43
0.0
 44
297.0
 45
210.0
 46
0.0
 47
0.0
 48
0.0
 49
0.0
140
0.0
141
0.0
142
1.0
143
1.0
 70
1024
 72
1
 73
0
 74
0
  7

 75
0
147
1.0
148
0.0
149
0.0
100
AcDbLayout
  1
Model
 70
0
 71
0
 10
0.0
 20
0.0
 11
297.0
 21
210.0
 12
0.0
 22
0.0
 32
0.0
 14
0.0
 24
0.0
 34
0.0
 15
0.0
 25
0.0
 35
0.0
146
0.0
 13
0.0
 23
0.0
 33
0.0
 16
1.0
 26
0.0
 36
0.0
 17
0.0
 27
1.0
 37
0.0
 76
0
330
212
345
0
346
0
  0
LAYOUT
  5
739
102
{ACAD_REACTORS
330
1A
102
}
100
AcDbPlotSettings
  1

  2
none_device
  4
ISO_A4_(297.00_x_210.00_MM)
  6

 40
0.0
 41
0.0
 42
0.0
 43
0.0
 44
297.0
 45
210.0
 46
0.0
 47
0.0
 48
0.0
 49
0.0
140
0.0
141
0.0
142
1.0
143
1.0
 70
0
 72
1
 73
0
 74
0
  7

 75
0
147
1.0
148
0.0
149
0.0
100
AcDbLayout
  1
Layout1
 70
0
 71
1
 10
0.0
 20
0.0
 11
297.0
 21
210.0
 12
0.0
 22
0.0
 32
0.0
 14
0.0
 24
0.0
 34
0.0
 15
0.0
 25
0.0
 35
0.0
146
0.0
 13
0.0
 23
0.0
 33
0.0
 16
1.0
 26
0.0
 36
0.0
 17
0.0
 27
1.0
 37
0.0
 76
0
330
213
345
0
346
0
  0
ENDSEC
  0
EOF
