  0
SECTION
  2
HEADER
  9
$ACADVER
  1
AC1024
  9
$DWGCODEPAGE
  3
ANSI_1252
  9
$EXTMAX
 10
297.0
 20
210.0
 30
0.0
  9
$EXTMIN
 10
0.0
 20
0.0
 30
0.0
  9
$LIMMIN
 10
0.0
 20
0.0
  9
$LIMMAX
 10
297.0
 20
210.0
  9
$VIEWCTR
 10
148.5
 20
105.0
  9
$VIEWSIZE
 40
210.0
  9
$CLAYER
  8
0
  9
$LTSCALE
 40
16.335
  9
$CELTYPE
  6
BYLAYER
  9
$DIMSCALE
 40
1.0
  9
$DIMASZ
 40
3.0
  9
$DIMEXO
 40
0.5
  9
$DIMDLI
 40
11.286
  9
$DIMEXE
 40
1.5
  9
$DIMCEN
 40
2.673
  9
$DIMLFAC
 40
1.0
  9
$DIMBLK
  1
_FILLED
  9
$DIMALT
 70
0
  9
$DIMALTF
 40
0.0393700787
  9
$DIMTXT
 40
3.0
  9
$DIMTOL
 70
1
  9
$DIMLIM
 70
0
  9
$DIMTFAC
 40
1.0
  9
$DIMTP
 40
0.01
  9
$DIMTM
 40
0.01
  9
$DIMGAP
 40
0.625
  9
$DIMDSEP
 70
44
  9
$AUNITS
 70
0
  9
$PDMODE
 70
3
  9
$PDSIZE
 40
3.0
  9
$HANDSEED
  5
6F3
  9
$TILEMODE
 70
1
  9
$MEASUREMENT
 70
1
  9
$INSUNITS
 70
4
  0
ENDSEC
  0
SECTION
  2
CLASSES
  0
CLASS
  1
ACDBDICTIONARYWDFLT
  2
AcDbDictionaryWithDefault
  3
AutoCAD 2000
 90
0
 91
1
280
0
281
0
  0
CLASS
  1
ACDBPLACEHOLDER
  2
AcDbPlaceHolder
  3
AutoCAD 2000
 90
0
 91
1
280
0
281
0
  0
CLASS
  1
LAYOUT
  2
AcDbLayout
  3
AutoCAD 2000
 90
0
 91
0
280
0
281
0
  0
ENDSEC
  0
SECTION
  2
TABLES
  0
TABLE
  2
VPORT
  5
8
100
AcDbSymbolTable
 70
2
  0
VPORT
  5
1F4
100
AcDbSymbolTableRecord
100
AcDbViewportTableRecord
  2
*ACTIVE
 70
0
 10
0.0
 20
0.0
 11
1.0
 21
1.0
 12
148.5
 22
105.0
 13
0.0
 23
0.0
 14
1.0
 24
1.0
 15
0.0
 25
0.0
 16
0.0
 26
0.0
 36
1.0
 17
0.0
 27
0.0
 37
0.0
 40
210.0
 41
1.4142857143
 42
50.0
 43
0.0
 44
0.0
 50
0.0
 51
0.0
 71
0
 72
100
 73
1
 74
1
 75
0
 76
0
 77
0
 78
0
  0
ENDTAB
  0
TABLE
  2
LTYPE
  5
5
100
AcDbSymbolTable
 70
6
  0
LTYPE
  5
14
100
AcDbSymbolTableRecord
100
AcDbLinetypeTableRecord
  2
BYBLOCK
 70
0
  3

 72
65
 73
0
 40
0.0
  0
LTYPE
  5
15
100
AcDbSymbolTableRecord
100
AcDbLinetypeTableRecord
  2
BYLAYER
 70
0
  3

 72
65
 73
0
 40
0.0
  0
LTYPE
  5
16
100
AcDbSymbolTableRecord
100
AcDbLinetypeTableRecord
  2
CONTINUOUS
 70
64
  3
Solid line
 72
65
 73
0
 40
0.0
  0
LTYPE
  5
1F5
100
AcDbSymbolTableRecord
100
AcDbLinetypeTableRecord
  2
CENTER
 70
64
  3
____ _ ____ _ ____ _ ____ _ ____ _ ____ _ ____
 72
65
 73
4
 40
0.6
 49
0.375
 74
0
 49
-0.075
 74
0
 49
0.075
 74
0
 49
-0.075
 74
0
  0
LTYPE
  5
1F6
100
AcDbSymbolTableRecord
100
AcDbLinetypeTableRecord
  2
HIDDEN
 70
64
  3
- - - - - - - - - - - - - - - - - - - -
 72
65
 73
2
 40
0.2
 49
0.1
 74
0
 49
-0.1
 74
0
  0
LTYPE
  5
1F7
100
AcDbSymbolTableRecord
100
AcDbLinetypeTableRecord
  2
PHANTOM
 70
64
  3
_____ _ _ _____ _ _ _____ _ _ _____
 72
65
 73
6
 40
0.8
 49
0.45
 74
0
 49
-0.05
 74
0
 49
0.1
 74
0
 49
-0.05
 74
0
 49
0.1
 74
0
 49
-0.05
 74
0
  0
LTYPE
  5
1F8
100
AcDbSymbolTableRecord
100
AcDbLinetypeTableRecord
  2
DOT
 70
64
  3
. . . . . . . . . . . . . . . . . . . .
 72
65
 73
2
 40
0.2
 49
0.1
 74
0
 49
-0.1
 74
0
  0
LTYPE
  5
1F9
100
AcDbSymbolTableRecord
100
AcDbLinetypeTableRecord
  2
DASHED
 70
64
  3
- - - - - - - - - - - - - - - - - - - -
 72
65
 73
2
 40
0.2
 49
0.1
 74
0
 49
-0.1
 74
0
  0
ENDTAB
  0
TABLE
  2
LAYER
  5
2
100
AcDbSymbolTable
 70
36
  0
LAYER
  5
10
100
AcDbSymbolTableRecord
100
AcDbLayerTableRecord
  2
0
 70
0
 62
7
  6
CONTINUOUS
370
-3
390
F
  0
LAYER
  5
1FA
100
AcDbSymbolTableRecord
100
AcDbLayerTableRecord
  2
DEFAULT_1
 70
0
 62
7
  6
CENTER
370
-3
390
F
  0
LAYER
  5
1FB
100
AcDbSymbolTableRecord
100
AcDbLayerTableRecord
  2
DEFAULT_2
 70
0
 62
7
  6
HIDDEN
370
-3
390
F
  0
LAYER
  5
1FC
100
AcDbSymbolTableRecord
100
AcDbLayerTableRecord
  2
DEFAULT_3
 70
0
 62
7
  6
PHANTOM
370
-3
390
F
  0
LAYER
  5
1FD
100
AcDbSymbolTableRecord
100
AcDbLayerTableRecord
  2
ASSI
 70
0
 62
7
  6
CONTINUOUS
370
-3
390
F
  0
LAYER
  5
1FE
100
AcDbSymbolTableRecord
100
AcDbLayerTableRecord
  2
COORDINATE
 70
0
 62
7
  6
CONTINUOUS
370
-3
390
F
  0
LAYER
  5
1FF
100
AcDbSymbolTableRecord
100
AcDbLayerTableRecord
  2
COORD_ORIGINE
 70
0
 62
7
  6
CONTINUOUS
370
-3
390
F
  0
LAYER
  5
200
100
AcDbSymbolTableRecord
100
AcDbLayerTableRecord
  2
CURVE
 70
0
 62
7
  6
CONTINUOUS
370
-3
390
F
  0
LAYER
  5
201
100
AcDbSymbolTableRecord
100
AcDbLayerTableRecord
  2
DRAFT
 70
0
 62
7
  6
CONTINUOUS
370
-3
390
F
  0
LAYER
  5
202
100
AcDbSymbolTableRecord
100
AcDbLayerTableRecord
  2
INCISIONI_STAMPO
 70
0
 62
7
  6
CONTINUOUS
370
-3
390
F
  0
LAYER
  5
203
100
AcDbSymbolTableRecord
100
AcDbLayerTableRecord
  2
INTF_1
 70
0
 62
7
  6
CONTINUOUS
370
-3
390
F
  0
LAYER
  5
204
100
AcDbSymbolTableRecord
100
AcDbLayerTableRecord
  2
INTF_7
 70
0
 62
7
  6
CONTINUOUS
370
-3
390
F
  0
LAYER
  5
205
100
AcDbSymbolTableRecord
100
AcDbLayerTableRecord
  2
NOTE
 70
0
 62
7
  6
CONTINUOUS
370
-3
390
F
  0
LAYER
  5
206
100
AcDbSymbolTableRecord
100
AcDbLayerTableRecord
  2
PELLE_INFERIORE
 70
0
 62
7
  6
CONTINUOUS
370
-3
390
F
  0
LAYER
  5
207
100
AcDbSymbolTableRecord
100
AcDbLayerTableRecord
  2
PIANI
 70
0
 62
7
  6
CONTINUOUS
370
-3
390
F
  0
LAYER
  5
208
100
AcDbSymbolTableRecord
100
AcDbLayerTableRecord
  2
PIANI_ORIGINE
 70
0
 62
7
  6
CONTINUOUS
370
-3
390
F
  0
LAYER
  5
209
100
AcDbSymbolTableRecord
100
AcDbLayerTableRecord
  2
PPP
 70
0
 62
7
  6
CONTINUOUS
370
-3
390
F
  0
LAYER
  5
20A
100
AcDbSymbolTableRecord
100
AcDbLayerTableRecord
  2
PUNTI
 70
0
 62
7
  6
CONTINUOUS
370
-3
390
F
  0
LAYER
  5
20B
100
AcDbSymbolTableRecord
100
AcDbLayerTableRecord
  2
RACCORDO
 70
0
 62
7
  6
CONTINUOUS
370
-3
390
F
  0
LAYER
  5
20C
100
AcDbSymbolTableRecord
100
AcDbLayerTableRecord
  2
RGB__255__255__255__
 70
0
 62
7
  6
CONTINUOUS
370
-3
390
F
  0
LAYER
  5
20D
100
AcDbSymbolTableRecord
100
AcDbLayerTableRecord
  2
RGB____0____0____0__
 70
0
 62
7
  6
CONTINUOUS
370
-3
390
F
  0
LAYER
  5
20E
100
AcDbSymbolTableRecord
100
AcDbLayerTableRecord
  2
SNAPLINE
 70
0
 62
7
  6
CONTINUOUS
370
-3
390
F
  0
LAYER
  5
20F
100
AcDbSymbolTableRecord
100
AcDbLayerTableRecord
  2
SUPERFICI
 70
0
 62
7
  6
CONTINUOUS
370
-3
390
F
  0
LAYER
  5
210
100
AcDbSymbolTableRecord
100
AcDbLayerTableRecord
  2
TRASH
 70
0
 62
7
  6
CONTINUOUS
370
-3
390
F
  0
ENDTAB
  0
TABLE
  2
STYLE
  5
3
100
AcDbSymbolTable
 70
1
  0
STYLE
  5
11
100
AcDbSymbolTableRecord
100
AcDbTextStyleTableRecord
  2
STANDARD
 70
0
 40
0.0
 41
0.8
 50
0.0
 71
0
 42
0.2
  3
txt
  4

  0
STYLE
  5
211
100
AcDbSymbolTableRecord
100
AcDbTextStyleTableRecord
  2
TEXTSTYLE_1
 70
0
 40
0.0
 41
0.8
 50
0.0
 71
0
 42
0.2
  3
gdt
  4

  0
ENDTAB
  0
TABLE
  2
VIEW
  5
6
100
AcDbSymbolTable
 70
0
  0
ENDTAB
  0
TABLE
  2
UCS
  5
7
100
AcDbSymbolTable
 70
0
  0
ENDTAB
  0
TABLE
  2
APPID
  5
9
100
AcDbSymbolTable
 70
1
  0
APPID
  5
212
100
AcDbSymbolTableRecord
100
AcDbRegAppTableRecord
  2
ACAD
 70
0
  0
ENDTAB
  0
TABLE
  2
BLOCK_RECORD
  5
1
100
AcDbSymbolTable
 70
0
  0
BLOCK_RECORD
  5
213
100
AcDbSymbolTableRecord
100
AcDbBlockTableRecord
  2
*Model_Space
  0
BLOCK_RECORD
  5
214
100
AcDbSymbolTableRecord
100
AcDbBlockTableRecord
  2
*Paper_Space
  0
BLOCK_RECORD
  5
215
100
AcDbSymbolTableRecord
100
AcDbBlockTableRecord
  2
_FILLED
  0
ENDTAB
  0
TABLE
  2
DIMSTYLE
  5
A
100
AcDbSymbolTable
 70
1
100
AcDbDimStyleTable
 71
0
  0
DIMSTYLE
105
216
100
AcDbSymbolTableRecord
100
AcDbDimStyleTableRecord
  2
STANDARD
 70
0
  3

  4

 40
1.0
 41
3.0
 42
0.5
 43
0.38
 44
1.5
 45
0.0
 46
0.0
 47
0.01
 48
0.01
140
3.0
141
0.09
142
0.0
143
25.4
144
1.0
145
0.0
146
1.0
147
0.625
 71
1
 72
0
 73
0
 74
0
 75
0
 76
0
 77
1
 78
8
 79
2
170
0
171
1
172
0
173
0
174
0
175
0
176
0
177
0
178
0
270
2
179
2
271
2
272
2
273
2
274
2
275
0
280
0
281
0
282
0
283
1
284
8
285
0
286
0
287
3
288
0
340
11
278
44
341
215
342
215
343
215
344
215
  0
ENDTAB
  0
ENDSEC
  0
SECTION
  2
BLOCKS
  0
BLOCK
  5
20
100
AcDbEntity
  8
0
100
AcDbBlockBegin
  2
*Model_Space
 70
0
 10
0.0
 20
0.0
 30
0.0
  3
*Model_Space
  1

  0
ENDBLK
  5
21
100
AcDbEntity
  8
0
100
AcDbBlockEnd
  0
BLOCK
  5
1C
100
AcDbEntity
  8
0
100
AcDbBlockBegin
  2
*Paper_Space
 70
0
 10
0.0
 20
0.0
 30
0.0
  3
*Paper_Space
  1

  0
ENDBLK
  5
1D
100
AcDbEntity
  8
0
100
AcDbBlockEnd
  0
BLOCK
  5
217
100
AcDbEntity
  8
0
100
AcDbBlockBegin
  2
_FILLED
 70
64
 10
0.0
 20
0.0
  3
_FILLED
  1

  0
SOLID
  5
218
100
AcDbEntity
  8
0
  6
BYBLOCK
 62
0
100
AcDbTrace
 10
0.0
 20
0.0
 11
-1.0
 21
0.3166666667
 12
-1.0
 22
-0.3166666667
 13
-1.0
 23
-0.3166666667
  0
ENDBLK
  5
219
100
AcDbEntity
  8
0
  6
BYBLOCK
 62
0
100
AcDbBlockEnd
  0
ENDSEC
  0
SECTION
  2
ENTITIES
  0
LINE
  5
21A
100
AcDbEntity
  8
0
100
AcDbLine
 62
7
  6
CONTINUOUS
 10
-33.736753
 20
-33.075
 11
-33.205984
 21
-34.646609
  0
LINE
  5
21B
100
AcDbEntity
  8
0
100
AcDbLine
 62
7
  6
CONTINUOUS
 10
-33.332208
 20
-34.925
 11
-33.852726
 21
-33.373783
  0
LINE
  5
21C
100
AcDbEntity
  8
0
100
AcDbLine
 62
7
  6
CONTINUOUS
 10
-40.0
 20
37.0000000001
 11
-40.0
 21
3.6749773271
  0
LINE
  5
21D
100
AcDbEntity
  8
0
100
AcDbLine
 62
7
  6
CONTINUOUS
 10
-40.0
 20
-3.6749773271
 11
-40.0
 21
-37.0000000001
  0
LINE
  5
21E
100
AcDbEntity
  8
0
100
AcDbLine
 62
7
  6
CONTINUOUS
 10
-39.8951844414
 20
-3.5
 11
-39.8951844414
 21
3.5
  0
LINE
  5
21F
100
AcDbEntity
  8
RACCORDO
100
AcDbLine
 62
7
  6
CONTINUOUS
 10
-37.997255308
 20
-37.0
 11
-37.997255308
 21
-3.6749773271
  0
LINE
  5
220
100
AcDbEntity
  8
RACCORDO
100
AcDbLine
 62
7
  6
CONTINUOUS
 10
-37.997255308
 20
3.6749773271
 11
-37.997255308
 21
37.0
  0
LINE
  5
221
100
AcDbEntity
  8
0
100
AcDbLine
 62
7
  6
CONTINUOUS
 10
-37.8924397494
 20
-3.5
 11
-37.8924397494
 21
3.5
  0
LINE
  5
222
100
AcDbEntity
  8
ASSI
100
AcDbLine
 62
7
  6
CONTINUOUS
 10
-37.7918688527
 20
22.5
 11
-37.8002100102
 21
37.0
  0
LINE
  5
223
100
AcDbEntity
  8
ASSI
100
AcDbLine
 62
7
  6
CONTINUOUS
 10
-37.7918245401
 20
-22.0
 11
-37.7918245401
 21
22.0
  0
LINE
  5
224
100
AcDbEntity
  8
ASSI
100
AcDbLine
 62
7
  6
CONTINUOUS
 10
-37.8002100102
 20
-37.0
 11
-37.7918688527
 21
-22.5
  0
LWPOLYLINE
  5
225
100
AcDbEntity
  8
0
100
AcDbPolyline
 62
7
  6
CONTINUOUS
 90
25
 70
0
 10
-37.8002100102
 20
37.0
 10
-37.7986642821
 20
37.0523659056
 10
-37.793678687
 20
37.1045288744
 10
-37.7852733042
 20
37.1562621005
 10
-37.7734831027
 20
37.2073408934
 10
-37.758358105
 20
37.2575426343
 10
-37.7399633936
 20
37.3066478453
 10
-37.7183777241
 20
37.3544436099
 10
-37.6936945541
 20
37.4007211161
 10
-37.6660227941
 20
37.4452759979
 10
-37.6354833198
 20
37.4879143552
 10
-37.6022088018
 20
37.5284517204
 10
-37.5663455002
 20
37.5667110894
 10
-37.5280504762
 20
37.6025265648
 10
-37.4874903131
 20
37.6357440324
 10
-37.444841605
 20
37.6662204669
 10
-37.4002899969
 20
37.6938248673
 10
-37.3540298645
 20
37.7184385353
 10
-37.3062632172
 20
37.7399558597
 10
-37.2571985322
 20
37.7582850372
 10
-37.2070488721
 20
37.7733487119
 10
-37.1560313909
 20
37.785083825
 10
-37.1043674402
 20
37.793441594
 10
-37.0522816493
 20
37.7983879141
 10
-37.0
 20
37.7999037089
  0
LINE
  5
226
100
AcDbEntity
  8
0
100
AcDbLine
 62
7
  6
CONTINUOUS
 10
-31.18302
 20
32.714675
 11
-30.320818
 21
35.400156
  0
LINE
  5
227
100
AcDbEntity
  8
0
100
AcDbLine
 62
7
  6
CONTINUOUS
 10
-29.540779
 20
35.400156
 11
-30.793001
 21
31.49998
  0
LWPOLYLINE
  5
228
100
AcDbEntity
  8
RACCORDO
100
AcDbPolyline
 62
250
  6
CONTINUOUS
 90
6
 70
0
 10
-35.526158438
 20
22.0584888892
 10
-35.4953444174
 20
22.0893030976
 10
-35.4703493295
 20
22.125
 10
-35.4519326375
 20
22.1644949642
 10
-35.4406539231
 20
22.2065879556
 10
-35.4368558845
 20
22.25
  0
LINE
  5
229
100
AcDbEntity
  8
0
100
AcDbLine
 62
7
  6
CONTINUOUS
 10
37.0000000001
 20
-40.0
 11
-37.0000000001
 21
-40.0
  0
LINE
  5
22A
100
AcDbEntity
  8
RACCORDO
100
AcDbLine
 62
7
  6
CONTINUOUS
 10
37.0
 20
-37.997255308
 11
-37.0
 21
-37.997255308
  0
LINE
  5
22B
100
AcDbEntity
  8
0
100
AcDbLine
 62
7
  6
CONTINUOUS
 10
-0.5
 20
-37.7824895094
 11
0.5013064394
 21
-37.7824895877
  0
LINE
  5
22C
100
AcDbEntity
  8
ASSI
100
AcDbLine
 62
7
  6
CONTINUOUS
 10
-0.5
 20
-37.7824895094
 11
-11.25
 21
-37.7836328763
  0
LINE
  5
22D
100
AcDbEntity
  8
ASSI
100
AcDbLine
 62
7
  6
CONTINUOUS
 10
0.5013064394
 20
-37.7824895877
 11
11.25
 21
-37.7836328763
  0
LINE
  5
22E
100
AcDbEntity
  8
ASSI
100
AcDbLine
 62
7
  6
CONTINUOUS
 10
-11.75
 20
-37.7836483604
 11
-21.722620107
 21
-37.7816146909
  0
LINE
  5
22F
100
AcDbEntity
  8
ASSI
100
AcDbLine
 62
7
  6
CONTINUOUS
 10
-21.722620107
 20
-37.7816146909
 11
-37.0
 21
-37.7999037089
  0
LINE
  5
230
100
AcDbEntity
  8
ASSI
100
AcDbLine
 62
7
  6
CONTINUOUS
 10
11.75
 20
-37.7836483604
 11
25.4380345847
 21
-37.78257589
  0
LINE
  5
231
100
AcDbEntity
  8
ASSI
100
AcDbLine
 62
7
  6
CONTINUOUS
 10
25.4380345847
 20
-37.78257589
 11
35.5757487751
 21
-37.7957653086
  0
LINE
  5
232
100
AcDbEntity
  8
ASSI
100
AcDbLine
 62
7
  6
CONTINUOUS
 10
35.5757487751
 20
-37.7957653086
 11
37.0
 21
-37.7999037089
  0
LWPOLYLINE
  5
233
100
AcDbEntity
  8
0
100
AcDbPolyline
 62
7
  6
CONTINUOUS
 90
25
 70
0
 10
-37.0
 20
-37.7999037089
 10
-37.0522854543
 20
-37.7983876822
 10
-37.1043774202
 20
-37.7934403173
 10
-37.1560497909
 20
-37.7850802244
 10
-37.2070784941
 20
-37.7733408628
 10
-37.2572411617
 20
-37.7582706871
 10
-37.3063181941
 20
-37.7399332345
 10
-37.3540965036
 20
-37.7184058362
 10
-37.4003672704
 20
-37.6937804261
 10
-37.4449259592
 20
-37.6661642746
 10
-37.4875779218
 20
-37.6356769618
 10
-37.5281382109
 20
-37.6024497453
 10
-37.5664296717
 20
-37.5666270008
 10
-37.6022857117
 20
-37.528364056
 10
-37.6355504833
 20
-37.4878268011
 10
-37.6660790775
 20
-37.4451916811
 10
-37.6937390799
 20
-37.4006438611
 10
-37.7184104971
 20
-37.3543769713
 10
-37.7399860796
 20
-37.3065928547
 10
-37.7583725018
 20
-37.257499981
 10
-37.7734909839
 20
-37.2073112416
 10
-37.7852769241
 20
-37.1562436708
 10
-37.7936799733
 20
-37.1045188704
 10
-37.798664517
 20
-37.0523620869
 10
-37.8002100102
 20
-37.0
  0
LWPOLYLINE
  5
234
100
AcDbEntity
  8
RACCORDO
100
AcDbPolyline
 62
250
  6
CONTINUOUS
 90
6
 70
0
 10
-35.5261581796
 20
-22.0584891061
 10
-35.4953442109
 20
-22.0893033436
 10
-35.4703491904
 20
-22.1250002409
 10
-35.4519325648
 20
-22.1644951637
 10
-35.4406539023
 20
-22.2065880734
 10
-35.4368558845
 20
-22.25
  0
LINE
  5
235
100
AcDbEntity
  8
0
100
AcDbLine
 62
7
  6
CONTINUOUS
 10
-24.022618
 20
-34.925
 11
-24.968265
 21
-33.422579
  0
LINE
  5
236
100
AcDbEntity
  8
0
100
AcDbLine
 62
7
  6
CONTINUOUS
 10
-24.914194
 20
-33.075
 11
-23.983957
 21
-34.577726
  0
LINE
  5
237
100
AcDbEntity
  8
0
100
AcDbLine
 62
7
  6
CONTINUOUS
 10
-31.121411
 20
-33.075
 11
-30.451521
 21
-34.925
  0
LINE
  5
238
100
AcDbEntity
  8
0
100
AcDbLine
 62
7
  6
CONTINUOUS
 10
-29.335776
 20
-29.073411
 11
-28.66589
 21
-30.923411
  0
LINE
  5
239
100
AcDbEntity
  8
0
100
AcDbLine
 62
7
  6
CONTINUOUS
 10
-28.938899
 20
-30.923411
 11
-29.121927
 21
-30.384844
  0
LINE
  5
23A
100
AcDbEntity
  8
0
100
AcDbLine
 62
7
  6
CONTINUOUS
 10
-30.724675
 20
-34.925
 11
-30.907595
 21
-34.386533
  0
LINE
  5
23B
100
AcDbEntity
  8
0
100
AcDbLine
 62
7
  6
CONTINUOUS
 10
-30.997709
 20
-34.164951
 11
-31.273331
 21
-33.34334
  0
LINE
  5
23C
100
AcDbEntity
  8
0
100
AcDbLine
 62
7
  6
CONTINUOUS
 10
-29.212199
 20
-30.163253
 11
-29.487806
 21
-29.341738
  0
LINE
  5
23D
100
AcDbEntity
  8
0
100
AcDbLine
 62
250
  6
CONTINUOUS
 10
-37.0
 20
37.997255308
 11
-37.0
 21
37.7999037089
  0
LINE
  5
23E
100
AcDbEntity
  8
0
100
AcDbLine
 62
250
  6
CONTINUOUS
 10
-37.0
 20
-37.7999037089
 11
-37.0
 21
-37.997255308
  0
LINE
  5
23F
100
AcDbEntity
  8
RACCORDO
100
AcDbLine
 62
250
  6
CONTINUOUS
 10
-35.9482577098
 20
-22.0
 11
-35.9482577098
 21
-22.5
  0
LINE
  5
240
100
AcDbEntity
  8
RACCORDO
100
AcDbLine
 62
250
  6
CONTINUOUS
 10
-35.9482577098
 20
22.0
 11
-35.9482577098
 21
22.5
  0
LINE
  5
241
100
AcDbEntity
  8
0
100
AcDbLine
 62
7
  6
CONTINUOUS
 10
-34.094916
 20
-34.925
 11
-34.094916
 21
-33.075
  0
LINE
  5
242
100
AcDbEntity
  8
0
100
AcDbLine
 62
7
  6
CONTINUOUS
 10
-33.852726
 20
-33.373783
 11
-33.852726
 21
-34.925
  0
LINE
  5
243
100
AcDbEntity
  8
0
100
AcDbLine
 62
7
  6
CONTINUOUS
 10
-25.553224
 20
32.860223
 11
-24.824909
 21
35.400156
  0
LWPOLYLINE
  5
244
100
AcDbEntity
  8
RACCORDO
100
AcDbPolyline
 62
250
  6
CONTINUOUS
 90
8
 70
0
 10
-35.6127548851
 20
22.015076784
 10
-35.5732601901
 20
22.0334935361
 10
-35.5375634971
 20
22.0584887318
 10
-35.506749441
 20
22.0893029163
 10
-35.4817543047
 20
22.1249998204
 10
-35.4633375634
 20
22.1644948146
 10
-35.4520588103
 20
22.2065878669
 10
-35.448260756
 20
22.25
  0
LWPOLYLINE
  5
245
100
AcDbEntity
  8
RACCORDO
100
AcDbPolyline
 62
250
  6
CONTINUOUS
 90
3
 70
0
 10
-35.6013498465
 20
22.0150768448
 10
-35.561855123
 20
22.0334936491
 10
-35.526158438
 20
22.0584888892
  0
LWPOLYLINE
  5
246
100
AcDbEntity
  8
0
100
AcDbPolyline
 62
7
  6
CONTINUOUS
 90
28
 70
0
 10
2.965948
 20
-33.3543103718
 10
2.9938864915
 20
-33.3514436121
 10
3.0218461657
 20
-33.3482896622
 10
3.0498199297
 20
-33.3448165364
 10
3.077772273
 20
-33.3409959804
 10
3.1057243465
 20
-33.3367919547
 10
3.1337473277
 20
-33.3321436173
 10
3.1618562587
 20
-33.3269670485
 10
3.1899817016
 20
-33.3211876759
 10
3.2180561562
 20
-33.3147311905
 10
3.2460095863
 20
-33.3074946377
 10
3.2738007397
 20
-33.2993075779
 10
3.3013726478
 20
-33.2899498504
 10
3.3286130684
 20
-33.2791126866
 10
3.3551940079
 20
-33.2664068312
 10
3.3803916337
 20
-33.2511349146
 10
3.4032201774
 20
-33.2324191204
 10
3.4235539883
 20
-33.210962697
 10
3.441444101
 20
-33.1876485405
 10
3.4571487955
 20
-33.1631154672
 10
3.4710061768
 20
-33.1377458661
 10
3.4832876306
 20
-33.1117767521
 10
3.4942178231
 20
-33.0854600945
 10
3.5039946262
 20
-33.0588838731
 10
3.5128156738
 20
-33.0319983606
 10
3.5208166261
 20
-33.0048335758
 10
3.5280680428
 20
-32.9774865125
 10
3.5346511538
 20
-32.95
  0
LWPOLYLINE
  5
247
100
AcDbEntity
  8
0
100
AcDbPolyline
 62
7
  6
CONTINUOUS
 90
8
 70
0
 10
0.1674873403
 20
-33.9426992481
 10
0.1209824914
 20
-33.9453718728
 10
0.0752413239
 20
-33.952600744
 10
0.03077347
 20
-33.9645106478
 10
-0.0119541993
 20
-33.9810439292
 10
-0.0524476254
 20
-34.0019014566
 10
-0.0902696133
 20
-34.0265391934
 10
-0.1251154999
 20
-34.0542283672
  0
LWPOLYLINE
  5
248
100
AcDbEntity
  8
0
100
AcDbPolyline
 62
7
  6
CONTINUOUS
 90
10
 70
0
 10
0.186031819
 20
-34.8719827586
 10
0.2271973324
 20
-34.8705465383
 10
0.2676642783
 20
-34.8660339994
 10
0.3071390903
 20
-34.8581024
 10
0.345080333
 20
-34.846516511
 10
0.3811585483
 20
-34.8310711937
 10
0.415258242
 20
-34.8114890342
 10
0.4469020423
 20
-34.7877496753
 10
0.4754420643
 20
-34.760271116
 10
0.5006110398
 20
-34.7295731588
  0
LINE
  5
249
100
AcDbEntity
  8
0
100
AcDbLine
 62
250
  6
CONTINUOUS
 10
-37.997255308
 20
-37.0
 11
-37.8002100102
 21
-37.0
  0
LINE
  5
24A
100
AcDbEntity
  8
0
100
AcDbLine
 62
250
  6
CONTINUOUS
 10
37.8002100102
 20
-37.0
 11
37.997255308
 21
-37.0
  0
LINE
  5
24B
100
AcDbEntity
  8
RACCORDO
100
AcDbLine
 62
250
  6
CONTINUOUS
 10
11.25
 20
-35.9482577098
 11
11.75
 21
-35.9482577098
  0
LINE
  5
24C
100
AcDbEntity
  8
RACCORDO
100
AcDbLine
 62
250
  6
CONTINUOUS
 10
-11.25
 20
-35.9482577098
 11
-11.75
 21
-35.9482577098
  0
LINE
  5
24D
100
AcDbEntity
  8
0
100
AcDbLine
 62
7
  6
CONTINUOUS
 10
3.744397
 20
-35.05
 11
3.460776
 21
-35.05
  0
LINE
  5
24E
100
AcDbEntity
  8
0
100
AcDbLine
 62
7
  6
CONTINUOUS
 10
2.265948
 20
-35.05
 11
2.000431
 21
-35.05
  0
LINE
  5
24F
100
AcDbEntity
  8
0
100
AcDbLine
 62
7
  6
CONTINUOUS
 10
-1.089224
 20
-35.05
 11
-1.354741
 21
-35.05
  0
LINE
  5
250
100
AcDbEntity
  8
0
100
AcDbLine
 62
7
  6
CONTINUOUS
 10
-2.965948
 20
-35.05
 11
-3.249569
 21
-35.05
  0
LINE
  5
251
100
AcDbEntity
  8
0
100
AcDbLine
 62
7
  6
CONTINUOUS
 10
-16.40349
 20
-34.925
 11
-16.653349
 21
-34.925
  0
LINE
  5
252
100
AcDbEntity
  8
0
100
AcDbLine
 62
7
  6
CONTINUOUS
 10
-17.436588
 20
-34.925
 11
-18.624538
 21
-34.925
  0
LINE
  5
253
100
AcDbEntity
  8
0
100
AcDbLine
 62
7
  6
CONTINUOUS
 10
-18.853749
 20
-34.925
 11
-19.126948
 21
-34.925
  0
LINE
  5
254
100
AcDbEntity
  8
0
100
AcDbLine
 62
7
  6
CONTINUOUS
 10
-20.245281
 20
-34.925
 11
-20.502905
 21
-34.925
  0
LINE
  5
255
100
AcDbEntity
  8
0
100
AcDbLine
 62
7
  6
CONTINUOUS
 10
-21.201192
 20
-34.925
 11
-21.451095
 21
-34.925
  0
LINE
  5
256
100
AcDbEntity
  8
0
100
AcDbLine
 62
7
  6
CONTINUOUS
 10
-22.345215
 20
-34.925
 11
-22.595208
 21
-34.925
  0
LINE
  5
257
100
AcDbEntity
  8
0
100
AcDbLine
 62
7
  6
CONTINUOUS
 10
-23.741774
 20
-34.925
 11
-24.022618
 21
-34.925
  0
LINE
  5
258
100
AcDbEntity
  8
0
100
AcDbLine
 62
7
  6
CONTINUOUS
 10
-24.968265
 20
-34.925
 11
-25.210568
 21
-34.925
  0
LINE
  5
259
100
AcDbEntity
  8
0
100
AcDbLine
 62
7
  6
CONTINUOUS
 10
-25.63823
 20
-34.925
 11
-25.888148
 21
-34.925
  0
LINE
  5
25A
100
AcDbEntity
  8
0
100
AcDbLine
 62
7
  6
CONTINUOUS
 10
-26.970379
 20
-34.925
 11
-28.336073
 21
-34.925
  0
LINE
  5
25B
100
AcDbEntity
  8
0
100
AcDbLine
 62
7
  6
CONTINUOUS
 10
-29.4595081298
 20
-34.925
 11
-30.209338
 21
-34.925
  0
LINE
  5
25C
100
AcDbEntity
  8
0
100
AcDbLine
 62
7
  6
CONTINUOUS
 10
-30.451521
 20
-34.925
 11
-30.724675
 21
-34.925
  0
LINE
  5
25D
100
AcDbEntity
  8
0
100
AcDbLine
 62
7
  6
CONTINUOUS
 10
-31.842904
 20
-34.925
 11
-32.100542
 21
-34.925
  0
LINE
  5
25E
100
AcDbEntity
  8
0
100
AcDbLine
 62
7
  6
CONTINUOUS
 10
-32.322138
 20
-34.925
 11
-32.564426
 21
-34.925
  0
LINE
  5
25F
100
AcDbEntity
  8
0
100
AcDbLine
 62
7
  6
CONTINUOUS
 10
-33.084844
 20
-34.925
 11
-33.332208
 21
-34.925
  0
LINE
  5
260
100
AcDbEntity
  8
0
100
AcDbLine
 62
7
  6
CONTINUOUS
 10
-33.852726
 20
-34.925
 11
-34.094916
 21
-34.925
  0
LINE
  5
261
100
AcDbEntity
  8
0
100
AcDbLine
 62
7
  6
CONTINUOUS
 10
-29.95933
 20
-34.711199
 11
-29.4658705306
 21
-34.711199
  0
LINE
  5
262
100
AcDbEntity
  8
0
100
AcDbLine
 62
7
  6
CONTINUOUS
 10
-28.08608
 20
-34.703419
 11
-26.970379
 21
-34.703419
  0
LINE
  5
263
100
AcDbEntity
  8
0
100
AcDbLine
 62
7
  6
CONTINUOUS
 10
-18.37453
 20
-34.703419
 11
-17.436588
 21
-34.703419
  0
LINE
  5
264
100
AcDbEntity
  8
0
100
AcDbLine
 62
7
  6
CONTINUOUS
 10
2.576724
 20
-34.534052
 11
2.265948
 21
-34.534052
  0
LINE
  5
265
100
AcDbEntity
  8
0
100
AcDbLine
 62
7
  6
CONTINUOUS
 10
2.000431
 20
-34.534052
 11
1.074138
 21
-34.534052
  0
LINE
  5
266
100
AcDbEntity
  8
0
100
AcDbLine
 62
7
  6
CONTINUOUS
 10
-0.778448
 20
-34.534052
 11
-1.089224
 21
-34.534052
  0
LINE
  5
267
100
AcDbEntity
  8
0
100
AcDbLine
 62
7
  6
CONTINUOUS
 10
-1.354741
 20
-34.534052
 11
-2.281034
 21
-34.534052
  0
LINE
  5
268
100
AcDbEntity
  8
0
100
AcDbLine
 62
7
  6
CONTINUOUS
 10
-19.309883
 20
-34.386533
 11
-20.051993
 21
-34.386533
  0
LINE
  5
269
100
AcDbEntity
  8
0
100
AcDbLine
 62
7
  6
CONTINUOUS
 10
-30.907595
 20
-34.386533
 11
-31.64963
 21
-34.386533
  0
LINE
  5
26A
100
AcDbEntity
  8
0
100
AcDbLine
 62
7
  6
CONTINUOUS
 10
-2.036025
 20
-34.298707
 11
-1.357759
 21
-34.298707
  0
LINE
  5
26B
100
AcDbEntity
  8
0
100
AcDbLine
 62
7
  6
CONTINUOUS
 10
-1.089224
 20
-34.298707
 11
-0.778448
 21
-34.298707
  0
LINE
  5
26C
100
AcDbEntity
  8
0
100
AcDbLine
 62
7
  6
CONTINUOUS
 10
1.319147
 20
-34.298707
 11
1.997414
 21
-34.298707
  0
LINE
  5
26D
100
AcDbEntity
  8
0
100
AcDbLine
 62
7
  6
CONTINUOUS
 10
2.265948
 20
-34.298707
 11
2.576724
 21
-34.298707
  0
LINE
  5
26E
100
AcDbEntity
  8
0
100
AcDbLine
 62
7
  6
CONTINUOUS
 10
-31.572308
 20
-34.164951
 11
-30.997709
 21
-34.164951
  0
LINE
  5
26F
100
AcDbEntity
  8
0
100
AcDbLine
 62
7
  6
CONTINUOUS
 10
-19.974686
 20
-34.164951
 11
-19.400086
 21
-34.164951
  0
LINE
  5
270
100
AcDbEntity
  8
0
100
AcDbLine
 62
7
  6
CONTINUOUS
 10
-27.073464
 20
-34.085057
 11
-28.08608
 21
-34.085057
  0
LINE
  5
271
100
AcDbEntity
  8
0
100
AcDbLine
 62
7
  6
CONTINUOUS
 10
-28.08608
 20
-33.863476
 11
-27.073464
 21
-33.863476
  0
LINE
  5
272
100
AcDbEntity
  8
0
100
AcDbLine
 62
7
  6
CONTINUOUS
 10
3.460776
 20
-33.556466
 11
2.965948
 21
-33.556466
  0
LINE
  5
273
100
AcDbEntity
  8
0
100
AcDbLine
 62
7
  6
CONTINUOUS
 10
-3.249569
 20
-33.556466
 11
-3.744397
 21
-33.556466
  0
LINE
  5
274
100
AcDbEntity
  8
0
100
AcDbLine
 62
7
  6
CONTINUOUS
 10
0.8387931034
 20
-33.493103
 11
0.5732757779
 21
-33.493103
  0
LWPOLYLINE
  5
275
100
AcDbEntity
  8
0
100
AcDbPolyline
 62
7
  6
CONTINUOUS
 90
19
 70
0
 10
-29.4516423485
 20
-33.075
 10
-29.381137486
 20
-33.0781962411
 10
-29.3114078695
 20
-33.0872157357
 10
-29.2430050528
 20
-33.1021735214
 10
-29.1767704106
 20
-33.1230822609
 10
-29.1132822438
 20
-33.1500820356
 10
-29.0527712003
 20
-33.183694661
 10
-28.9961221596
 20
-33.2241065947
 10
-28.9434040796
 20
-33.2704112741
 10
-28.893903673
 20
-33.3218564334
 10
-28.8486615354
 20
-33.3781264287
 10
-28.8093075455
 20
-33.4397675249
 10
-28.7757126949
 20
-33.5073984496
 10
-28.7466821321
 20
-33.5799363137
 10
-28.7219080285
 20
-33.6562174725
 10
-28.7025628557
 20
-33.7366365596
 10
-28.6897328564
 20
-33.821218767
 10
-28.6831754279
 20
-33.9091814558
 10
-28.6822290582
 20
-34.0
  0
LWPOLYLINE
  5
276
100
AcDbEntity
  8
RACCORDO
100
AcDbPolyline
 62
250
  6
CONTINUOUS
 90
8
 70
0
 10
-35.612754718
 20
-22.0150768448
 10
-35.5732599945
 20
-22.0334936491
 10
-35.5375633095
 20
-22.0584888892
 10
-35.5067492889
 20
-22.0893030976
 10
-35.481754201
 20
-22.125
 10
-35.463337509
 20
-22.1644949642
 10
-35.4520587946
 20
-22.2065879556
 10
-35.448260756
 20
-22.25
  0
LWPOLYLINE
  5
277
100
AcDbEntity
  8
RACCORDO
100
AcDbPolyline
 62
250
  6
CONTINUOUS
 90
3
 70
0
 10
-35.6013496128
 20
-22.0150769299
 10
-35.5618548505
 20
-22.0334938063
 10
-35.5261581796
 20
-22.0584891061
  0
LINE
  5
278
100
AcDbEntity
  8
0
100
AcDbLine
 62
7
  6
CONTINUOUS
 10
-20.804887
 20
-30.923411
 11
-21.750557
 21
-29.420826
  0
LINE
  5
279
100
AcDbEntity
  8
0
100
AcDbLine
 62
7
  6
CONTINUOUS
 10
-21.696364
 20
-29.073411
 11
-20.766324
 21
-30.576132
  0
LWPOLYLINE
  5
27A
100
AcDbEntity
  8
0
100
AcDbPolyline
 62
7
  6
CONTINUOUS
 90
16
 70
0
 10
-30.7251092311
 20
-29.6080337431
 10
-30.7261377009
 20
-29.5692323501
 10
-30.7295839203
 20
-29.5312306234
 10
-30.7366928365
 20
-29.4945953915
 10
-30.7484752871
 20
-29.460063356
 10
-30.7646414957
 20
-29.4281046213
 10
-30.7847254602
 20
-29.3990026381
 10
-30.8079820815
 20
-29.3735675374
 10
-30.8341573249
 20
-29.351913206
 10
-30.8638238241
 20
-29.3333761963
 10
-30.8967995794
 20
-29.3180501271
 10
-30.9320773649
 20
-29.3063584695
 10
-30.9693938952
 20
-29.2979553356
 10
-31.0084590002
 20
-29.2922395894
 10
-31.0488323417
 20
-29.2886077011
 10
-31.090390821
 20
-29.2872599571
  0
LINE
  5
27B
100
AcDbEntity
  8
0
100
AcDbLine
 62
7
  6
CONTINUOUS
 10
-32.564426
 20
-34.925
 11
-32.564426
 21
-33.371239
  0
LINE
  5
27C
100
AcDbEntity
  8
0
100
AcDbLine
 62
7
  6
CONTINUOUS
 10
-32.322138
 20
-33.075
 11
-32.322138
 21
-34.925
  0
LINE
  5
27D
100
AcDbEntity
  8
0
100
AcDbLine
 62
7
  6
CONTINUOUS
 10
-31.847919
 20
-30.923411
 11
-31.847919
 21
-29.073411
  0
LINE
  5
27E
100
AcDbEntity
  8
0
100
AcDbLine
 62
7
  6
CONTINUOUS
 10
-31.597991
 20
-29.28726
 11
-31.597991
 21
-29.928808
  0
LINE
  5
27F
100
AcDbEntity
  8
0
100
AcDbLine
 62
7
  6
CONTINUOUS
 10
-31.597991
 20
-30.142657
 11
-31.597991
 21
-30.923411
  0
LINE
  5
280
100
AcDbEntity
  8
0
100
AcDbLine
 62
7
  6
CONTINUOUS
 10
-30.209338
 20
-34.925
 11
-30.209338
 21
-33.075
  0
LINE
  5
281
100
AcDbEntity
  8
0
100
AcDbLine
 62
7
  6
CONTINUOUS
 10
-29.95933
 20
-33.288801
 11
-29.95933
 21
-34.711199
  0
LWPOLYLINE
  5
282
100
AcDbEntity
  8
0
100
AcDbPolyline
 62
7
  6
CONTINUOUS
 90
22
 70
0
 10
-30.4676248066
 20
-29.6080337431
 10
-30.468391639
 20
-29.6550571767
 10
-30.472731252
 20
-29.7004709013
 10
-30.4803135774
 20
-29.7439938221
 10
-30.4907512845
 20
-29.7851685193
 10
-30.5037652253
 20
-29.8240394958
 10
-30.5193499076
 20
-29.8611055957
 10
-30.5373519726
 20
-29.8961427429
 10
-30.5577178164
 20
-29.9289452393
 10
-30.5809049771
 20
-29.95992895
 10
-30.6069236307
 20
-29.9888916636
 10
-30.6354510858
 20
-30.0155044134
 10
-30.6666122786
 20
-30.0398143566
 10
-30.7004297908
 20
-30.0616953217
 10
-30.7364253227
 20
-30.0809440618
 10
-30.7739865416
 20
-30.097465017
 10
-30.8128210668
 20
-30.1113266233
 10
-30.8527263379
 20
-30.1225865987
 10
-30.8931996499
 20
-30.1312456609
 10
-30.9339240563
 20
-30.13739696
 10
-30.9748309542
 20
-30.1411665679
 10
-31.0157778427
 20
-30.142657
  0
LINE
  5
283
100
AcDbEntity
  8
0
100
AcDbLine
 62
7
  6
CONTINUOUS
 10
-24.425753
 20
34.071884
 11
-25.163224
 21
31.49999
  0
LINE
  5
284
100
AcDbEntity
  8
0
100
AcDbLine
 62
7
  6
CONTINUOUS
 10
-23.125698
 20
31.49998
 11
-21.873496
 21
35.400166
  0
LINE
  5
285
100
AcDbEntity
  8
0
100
AcDbLine
 62
7
  6
CONTINUOUS
 10
-22.099413
 20
32.266984
 11
-22.345669
 21
31.49999
  0
LINE
  5
286
100
AcDbEntity
  8
0
100
AcDbLine
 62
7
  6
CONTINUOUS
 10
-21.483467
 20
34.185462
 11
-21.861484
 21
33.008013
  0
LINE
  5
287
100
AcDbEntity
  8
0
100
AcDbLine
 62
7
  6
CONTINUOUS
 10
-40.0
 20
-3.6749773271
 11
-39.8951844414
 21
-3.5
  0
LINE
  5
288
100
AcDbEntity
  8
0
100
AcDbLine
 62
7
  6
CONTINUOUS
 10
-37.997255308
 20
-3.6749773271
 11
-37.8924397494
 21
-3.5
  0
LWPOLYLINE
  5
289
100
AcDbEntity
  8
RACCORDO
100
AcDbPolyline
 62
250
  6
CONTINUOUS
 90
6
 70
0
 10
-11.3084889023
 20
35.5261584224
 10
-11.3393031124
 20
35.4953444049
 10
-11.3750000146
 20
35.4703493211
 10
-11.4144949762
 20
35.4519326331
 10
-11.4565879627
 20
35.4406539219
 10
-11.5
 20
35.4368558845
  0
LWPOLYLINE
  5
28A
100
AcDbEntity
  8
RACCORDO
100
AcDbPolyline
 62
250
  6
CONTINUOUS
 90
10
 70
0
 10
-35.2779672797
 20
22.0
 10
-35.2668293619
 20
22.0037980617
 10
-35.2560298641
 20
22.0150768446
 10
-35.2458969236
 20
22.0334936488
 10
-35.2367384245
 20
22.0584888888
 10
-35.2288326434
 20
22.0893030971
 10
-35.2224197933
 20
22.1249999995
 10
-35.2176947255
 20
22.1644949638
 10
-35.2148010087
 20
22.2065879554
 10
-35.2138265672
 20
22.25
  0
LINE
  5
28B
100
AcDbEntity
  8
RACCORDO
100
AcDbLine
 62
250
  6
CONTINUOUS
 10
35.6548475539
 20
-22.003798044
 11
35.6013498465
 21
-22.0150768448
  0
LWPOLYLINE
  5
28C
100
AcDbEntity
  8
0
100
AcDbPolyline
 62
7
  6
CONTINUOUS
 90
28
 70
0
 10
-3.744397
 20
-33.3543103887
 10
-3.7164871458
 20
-33.3514467094
 10
-3.6885524258
 20
-33.3482960211
 10
-3.660599927
 20
-33.3448263058
 10
-3.6326668312
 20
-33.3410094916
 10
-3.6047303109
 20
-33.336809273
 10
-3.576714146
 20
-33.3321639695
 10
-3.5486009895
 20
-33.3269888877
 10
-3.5204627338
 20
-33.3212093056
 10
-3.4923690388
 20
-33.3147507521
 10
-3.4643890344
 20
-33.3075094533
 10
-3.4365652975
 20
-33.299314264
 10
-3.4089602544
 20
-33.2899454865
 10
-3.3816862299
 20
-33.2790929426
 10
-3.3550731063
 20
-33.2663657069
 10
-3.329854886
 20
-33.2510651729
 10
-3.3070183812
 20
-33.2323194122
 10
-3.2866840154
 20
-33.2108366103
 10
-3.2687993624
 20
-33.1875030838
 10
-3.2531044673
 20
-33.1629600357
 10
-3.2392591712
 20
-33.1375889536
 10
-3.226990571
 20
-33.1116259584
 10
-3.2160738942
 20
-33.0853239662
 10
-3.2063106124
 20
-33.0587697016
 10
-3.1975015342
 20
-33.0319094034
 10
-3.1895108636
 20
-33.004771476
 10
-3.1822686247
 20
-32.9774540962
 10
-3.1756936738
 20
-32.95
  0
LWPOLYLINE
  5
28D
100
AcDbEntity
  8
0
100
AcDbPolyline
 62
7
  6
CONTINUOUS
 90
22
 70
0
 10
-29.4658705306
 20
-34.711199
 10
-29.4180627839
 20
-34.7079278923
 10
-29.3716568207
 20
-34.7006637427
 10
-29.3270529953
 20
-34.6896540955
 10
-29.2849039962
 20
-34.6752690789
 10
-29.2451272439
 20
-34.6576859605
 10
-29.20705375
 20
-34.6366179775
 10
-29.1709258858
 20
-34.6121335811
 10
-29.1371277753
 20
-34.5844737827
 10
-29.10544116
 20
-34.5532770114
 10
-29.0761448574
 20
-34.5185276764
 10
-29.0496262968
 20
-34.480613666
 10
-29.0260244588
 20
-34.4396413946
 10
-29.0055801925
 20
-34.3957611026
 10
-28.9885642036
 20
-34.3495212142
 10
-28.9746383427
 20
-34.3016116573
 10
-28.9631013421
 20
-34.2522544475
 10
-28.9536300603
 20
-34.2018395151
 10
-28.946456515
 20
-34.1512354658
 10
-28.941670077
 20
-34.1007837566
 10
-28.939293645
 20
-34.0503245953
 10
-28.939390866
 20
-34.0
  0
LWPOLYLINE
  5
28E
100
AcDbEntity
  8
0
100
AcDbPolyline
 62
7
  6
CONTINUOUS
 90
22
 70
0
 10
-19.4033280496
 20
-30.7095615757
 10
-19.3563449786
 20
-30.7076684434
 10
-19.3101847633
 20
-30.7022128357
 10
-19.2650428884
 20
-30.6935125279
 10
-19.2215085098
 20
-30.6817407111
 10
-19.1797369838
 20
-30.6666636598
 10
-19.1393717229
 20
-30.647687207
 10
-19.1007891696
 20
-30.6244896798
 10
-19.064411232
 20
-30.5973880984
 10
-19.0301434626
 20
-30.5664094076
 10
-18.9983164559
 20
-30.5317726518
 10
-18.9694069856
 20
-30.4937511989
 10
-18.9437066896
 20
-30.4523435395
 10
-18.9213789661
 20
-30.4076526586
 10
-18.9024711273
 20
-30.3602301768
 10
-18.8869694509
 20
-30.3108562443
 10
-18.8746266093
 20
-30.2598131942
 10
-18.8652015836
 20
-30.2075039322
 10
-18.8584362306
 20
-30.1549840409
 10
-18.8538654652
 20
-30.1027114162
 10
-18.850977515
 20
-30.0504961627
 10
-18.8498129547
 20
-29.9984107664
  0
LINE
  5
28F
100
AcDbEntity
  8
0
100
AcDbLine
 62
7
  6
CONTINUOUS
 10
20.2668108389
 20
-32.2999320182
 11
20.382446
 21
-32.29722
  0
LINE
  5
290
100
AcDbEntity
  8
0
100
AcDbLine
 62
7
  6
CONTINUOUS
 10
-20.57505
 20
-33.296581
 11
-21.201192
 21
-33.296581
  0
LINE
  5
291
100
AcDbEntity
  8
0
100
AcDbLine
 62
7
  6
CONTINUOUS
 10
-21.451095
 20
-33.296581
 11
-22.077238
 21
-33.296581
  0
LINE
  5
292
100
AcDbEntity
  8
0
100
AcDbLine
 62
7
  6
CONTINUOUS
 10
-26.988438
 20
-33.296581
 11
-28.08608
 21
-33.296581
  0
LINE
  5
293
100
AcDbEntity
  8
0
100
AcDbLine
 62
7
  6
CONTINUOUS
 10
-29.4658705306
 20
-33.288801
 11
-29.95933
 21
-33.288801
  0
LINE
  5
294
100
AcDbEntity
  8
0
100
AcDbLine
 62
7
  6
CONTINUOUS
 10
-34.094916
 20
-33.075
 11
-33.736753
 21
-33.075
  0
LINE
  5
295
100
AcDbEntity
  8
0
100
AcDbLine
 62
7
  6
CONTINUOUS
 10
-32.67776
 20
-33.075
 11
-32.322138
 21
-33.075
  0
LINE
  5
296
100
AcDbEntity
  8
0
100
AcDbLine
 62
7
  6
CONTINUOUS
 10
-31.404888
 20
-33.075
 11
-31.121411
 21
-33.075
  0
LINE
  5
297
100
AcDbEntity
  8
0
100
AcDbLine
 62
7
  6
CONTINUOUS
 10
-30.209338
 20
-33.075
 11
-29.4516423485
 21
-33.075
  0
LINE
  5
298
100
AcDbEntity
  8
0
100
AcDbLine
 62
7
  6
CONTINUOUS
 10
-28.336073
 20
-33.075
 11
-26.988438
 21
-33.075
  0
LINE
  5
299
100
AcDbEntity
  8
0
100
AcDbLine
 62
7
  6
CONTINUOUS
 10
-25.888148
 20
-33.075
 11
-25.63823
 21
-33.075
  0
LINE
  5
29A
100
AcDbEntity
  8
0
100
AcDbLine
 62
7
  6
CONTINUOUS
 10
-25.210568
 20
-33.075
 11
-24.914194
 21
-33.075
  0
LINE
  5
29B
100
AcDbEntity
  8
0
100
AcDbLine
 62
7
  6
CONTINUOUS
 10
-23.983957
 20
-33.075
 11
-23.741774
 21
-33.075
  0
LINE
  5
29C
100
AcDbEntity
  8
0
100
AcDbLine
 62
7
  6
CONTINUOUS
 10
-22.595208
 20
-33.075
 11
-22.345215
 21
-33.075
  0
LINE
  5
29D
100
AcDbEntity
  8
0
100
AcDbLine
 62
7
  6
CONTINUOUS
 10
-22.077238
 20
-33.075
 11
-20.57505
 21
-33.075
  0
LINE
  5
29E
100
AcDbEntity
  8
0
100
AcDbLine
 62
7
  6
CONTINUOUS
 10
-19.807161
 20
-33.075
 11
-19.523774
 21
-33.075
  0
LINE
  5
29F
100
AcDbEntity
  8
0
100
AcDbLine
 62
7
  6
CONTINUOUS
 10
-18.624538
 20
-33.075
 11
-18.37453
 21
-33.075
  0
LINE
  5
2A0
100
AcDbEntity
  8
0
100
AcDbLine
 62
7
  6
CONTINUOUS
 10
-17.351606
 20
-33.075
 11
-17.060454
 21
-33.075
  0
LINE
  5
2A1
100
AcDbEntity
  8
0
100
AcDbLine
 62
7
  6
CONTINUOUS
 10
-15.998929
 20
-33.075
 11
-15.705084
 21
-33.075
  0
LINE
  5
2A2
100
AcDbEntity
  8
0
100
AcDbLine
 62
7
  6
CONTINUOUS
 10
-3.1756936738
 20
-32.95
 11
-2.965948
 21
-32.95
  0
LINE
  5
2A3
100
AcDbEntity
  8
0
100
AcDbLine
 62
7
  6
CONTINUOUS
 10
3.5346511538
 20
-32.95
 11
3.744397
 21
-32.95
  0
LINE
  5
2A4
100
AcDbEntity
  8
0
100
AcDbLine
 62
7
  6
CONTINUOUS
 10
-1.313443
 20
-32.934914
 11
-1.089224
 21
-32.934914
  0
LINE
  5
2A5
100
AcDbEntity
  8
0
100
AcDbLine
 62
7
  6
CONTINUOUS
 10
2.04173
 20
-32.934914
 11
2.265948
 21
-32.934914
  0
LINE
  5
2A6
100
AcDbEntity
  8
0
100
AcDbLine
 62
7
  6
CONTINUOUS
 10
30.322991
 20
-32.660266
 11
28.983113
 21
-32.660266
  0
LINE
  5
2A7
100
AcDbEntity
  8
0
100
AcDbLine
 62
7
  6
CONTINUOUS
 10
28.983113
 20
-32.188045
 11
29.401602
 21
-32.188045
  0
LINE
  5
2A8
100
AcDbEntity
  8
0
100
AcDbLine
 62
7
  6
CONTINUOUS
 10
29.904665
 20
-32.188045
 11
30.322991
 21
-32.188045
  0
LINE
  5
2A9
100
AcDbEntity
  8
0
100
AcDbLine
 62
7
  6
CONTINUOUS
 10
-17.975914
 20
-30.923411
 11
-18.243956
 21
-30.923411
  0
LINE
  5
2AA
100
AcDbEntity
  8
0
100
AcDbLine
 62
7
  6
CONTINUOUS
 10
-19.3698775956
 20
-30.923411
 11
-20.119664
 21
-30.923411
  0
LINE
  5
2AB
100
AcDbEntity
  8
0
100
AcDbLine
 62
7
  6
CONTINUOUS
 10
-20.524137
 20
-30.923411
 11
-20.804887
 21
-30.923411
  0
LINE
  5
2AC
100
AcDbEntity
  8
0
100
AcDbLine
 62
7
  6
CONTINUOUS
 10
-21.750557
 20
-30.923411
 11
-21.992744
 21
-30.923411
  0
LINE
  5
2AD
100
AcDbEntity
  8
0
100
AcDbLine
 62
7
  6
CONTINUOUS
 10
-22.319945
 20
-30.923411
 11
-23.68557
 21
-30.923411
  0
LINE
  5
2AE
100
AcDbEntity
  8
0
100
AcDbLine
 62
7
  6
CONTINUOUS
 10
-25.154177
 20
-30.923411
 11
-25.404106
 21
-30.923411
  0
LINE
  5
2AF
100
AcDbEntity
  8
0
100
AcDbLine
 62
7
  6
CONTINUOUS
 10
-26.566107
 20
-30.923411
 11
-26.834003
 21
-30.923411
  0
LINE
  5
2B0
100
AcDbEntity
  8
0
100
AcDbLine
 62
7
  6
CONTINUOUS
 10
-27.720367
 20
-30.923411
 11
-27.970296
 21
-30.923411
  0
LINE
  5
2B1
100
AcDbEntity
  8
0
100
AcDbLine
 62
7
  6
CONTINUOUS
 10
-28.66589
 20
-30.923411
 11
-28.938899
 21
-30.923411
  0
LINE
  5
2B2
100
AcDbEntity
  8
0
100
AcDbLine
 62
7
  6
CONTINUOUS
 10
-30.057225
 20
-30.923411
 11
-30.314895
 21
-30.923411
  0
LINE
  5
2B3
100
AcDbEntity
  8
0
100
AcDbLine
 62
7
  6
CONTINUOUS
 10
-31.597991
 20
-30.923411
 11
-31.847919
 21
-30.923411
  0
LINE
  5
2B4
100
AcDbEntity
  8
0
100
AcDbLine
 62
7
  6
CONTINUOUS
 10
24.367556
 20
-30.875
 11
22.907055
 21
-30.875
  0
LINE
  5
2B5
100
AcDbEntity
  8
0
100
AcDbLine
 62
7
  6
CONTINUOUS
 10
-19.869735
 20
-30.709562
 11
-19.4033280496
 21
-30.709562
  0
LINE
  5
2B6
100
AcDbEntity
  8
0
100
AcDbLine
 62
7
  6
CONTINUOUS
 10
-23.435642
 20
-30.70182
 11
-22.319945
 21
-30.70182
  0
LINE
  5
2B7
100
AcDbEntity
  8
0
100
AcDbLine
 62
7
  6
CONTINUOUS
 10
-26.834003
 20
-30.650256
 11
-26.566107
 21
-30.650256
  0
LINE
  5
2B8
100
AcDbEntity
  8
0
100
AcDbLine
 62
7
  6
CONTINUOUS
 10
-18.243956
 20
-30.650256
 11
-17.975914
 21
-30.650256
  0
LINE
  5
2B9
100
AcDbEntity
  8
0
100
AcDbLine
 62
7
  6
CONTINUOUS
 10
-29.121927
 20
-30.384844
 11
-29.863972
 21
-30.384844
  0
LINE
  5
2BA
100
AcDbEntity
  8
0
100
AcDbLine
 62
7
  6
CONTINUOUS
 10
-29.7867
 20
-30.163253
 11
-29.212199
 21
-30.163253
  0
LINE
  5
2BB
100
AcDbEntity
  8
0
100
AcDbLine
 62
7
  6
CONTINUOUS
 10
-24.571964183
 20
-30.142657
 11
-25.154177
 21
-30.142657
  0
LINE
  5
2BC
100
AcDbEntity
  8
0
100
AcDbLine
 62
7
  6
CONTINUOUS
 10
-31.0157778427
 20
-30.142657
 11
-31.597991
 21
-30.142657
  0
LINE
  5
2BD
100
AcDbEntity
  8
0
100
AcDbLine
 62
7
  6
CONTINUOUS
 10
22.907051888
 20
-30.125
 11
24.367556
 21
-30.125
  0
LINE
  5
2BE
100
AcDbEntity
  8
0
100
AcDbLine
 62
7
  6
CONTINUOUS
 10
-22.422925
 20
-30.083498
 11
-23.435642
 21
-30.083498
  0
LINE
  5
2BF
100
AcDbEntity
  8
0
100
AcDbLine
 62
7
  6
CONTINUOUS
 10
-31.597991
 20
-29.928808
 11
-31.090390821
 21
-29.928808
  0
LINE
  5
2C0
100
AcDbEntity
  8
0
100
AcDbLine
 62
7
  6
CONTINUOUS
 10
-25.154177
 20
-29.928808
 11
-24.6465771613
 21
-29.928808
  0
LINE
  5
2C1
100
AcDbEntity
  8
0
100
AcDbLine
 62
7
  6
CONTINUOUS
 10
-23.435642
 20
-29.861907
 11
-22.422925
 21
-29.861907
  0
LWPOLYLINE
  5
2C2
100
AcDbEntity
  8
0
100
AcDbPolyline
 62
7
  6
CONTINUOUS
 90
22
 70
0
 10
-19.3698775956
 20
-29.0734107664
 10
-19.3082739774
 20
-29.0758422568
 10
-19.2464470886
 20
-29.0830977871
 10
-19.1847680106
 20
-29.0951135959
 10
-19.1236425607
 20
-29.1119047101
 10
-19.0635936736
 20
-29.1336434888
 10
-19.0052026697
 20
-29.1605075159
 10
-18.9489684513
 20
-29.1927206365
 10
-18.8956489197
 20
-29.2303487394
 10
-18.8461884455
 20
-29.2732328157
 10
-18.8011467083
 20
-29.3209560314
 10
-18.7607921964
 20
-29.3729258393
 10
-18.7254704719
 20
-29.4284449218
 10
-18.6950606124
 20
-29.4868512928
 10
-18.668844244
 20
-29.5474426952
 10
-18.6462074479
 20
-29.6095037919
 10
-18.6272874516
 20
-29.6728146487
 10
-18.6125323031
 20
-29.7372190494
 10
-18.6021883855
 20
-29.8023140434
 10
-18.5960198647
 20
-29.8676793291
 10
-18.5932894866
 20
-29.9331002995
 10
-18.5926787038
 20
-29.9984107664
  0
LWPOLYLINE
  5
2C3
100
AcDbEntity
  8
0
100
AcDbPolyline
 62
7
  6
CONTINUOUS
 90
16
 70
0
 10
-24.5719097443
 20
-29.073411
 10
-24.5073134395
 20
-29.0767996454
 10
-24.4454251234
 20
-29.0855538857
 10
-24.3867264692
 20
-29.0993889445
 10
-24.3322811135
 20
-29.1177701288
 10
-24.2819642521
 20
-29.140437048
 10
-24.2348274803
 20
-29.1679893437
 10
-24.1915341118
 20
-29.2006513404
 10
-24.1528745834
 20
-29.2379591036
 10
-24.1186957616
 20
-29.2802291118
 10
-24.08951685
 20
-29.327184781
 10
-24.0655438707
 20
-29.3778069506
 10
-24.0466896259
 20
-29.4317448119
 10
-24.0332207747
 20
-29.4885727367
 10
-24.0254919823
 20
-29.547553247
 10
-24.0238111469
 20
-29.6080337431
  0
LWPOLYLINE
  5
2C4
100
AcDbEntity
  8
0
100
AcDbPolyline
 62
7
  6
CONTINUOUS
 90
16
 70
0
 10
-31.015723404
 20
-29.073411
 10
-30.9466745844
 20
-29.0772435731
 10
-30.8806570126
 20
-29.0872240965
 10
-30.8182820865
 20
-29.1030294315
 10
-30.7604194026
 20
-29.1241923397
 10
-30.7074007071
 20
-29.1503484751
 10
-30.6593192514
 20
-29.1815507923
 10
-30.6169709357
 20
-29.2172622449
 10
-30.5805470007
 20
-29.2565752184
 10
-30.5495217028
 20
-29.2995961895
 10
-30.5238771532
 20
-29.3454939986
 10
-30.5032549652
 20
-29.3933870218
 10
-30.4870923516
 20
-29.4439212826
 10
-30.4755368632
 20
-29.4970886764
 10
-30.4689715121
 20
-29.5519681943
 10
-30.4676248066
 20
-29.6080337431
  0
LINE
  5
2C5
100
AcDbEntity
  8
RACCORDO
100
AcDbLine
 62
250
  6
CONTINUOUS
 10
-35.654847453
 20
-22.0037980617
 11
-35.6013496128
 21
-22.0150769299
  0
LWPOLYLINE
  5
2C6
100
AcDbEntity
  8
RACCORDO
100
AcDbPolyline
 62
250
  6
CONTINUOUS
 90
10
 70
0
 10
-35.2779672797
 20
-22.0
 10
-35.2668293393
 20
-22.0037980773
 10
-35.256029827
 20
-22.0150768974
 10
-35.2458968805
 20
-22.0334937456
 10
-35.2367383843
 20
-22.0584890203
 10
-35.228832612
 20
-22.0893032431
 10
-35.2224197725
 20
-22.1250001398
 10
-35.2176947148
 20
-22.1644950789
 10
-35.2148010057
 20
-22.2065880228
 10
-35.2138265672
 20
-22.25
  0
LWPOLYLINE
  5
2C7
100
AcDbEntity
  8
0
100
AcDbPolyline
 62
7
  6
CONTINUOUS
 90
16
 70
0
 10
0.499739172
 20
-32.975349728
 10
0.5386504295
 20
-32.9909632227
 10
0.5763360024
 20
-33.0098439005
 10
0.6122945269
 20
-33.0322609095
 10
0.645943814
 20
-33.0583744299
 10
0.6766769434
 20
-33.0881671737
 10
0.7040064439
 20
-33.1214201753
 10
0.7290257582
 20
-33.1567458575
 10
0.7522468213
 20
-33.1935703184
 10
0.7734137035
 20
-33.2319865013
 10
0.7921799914
 20
-33.2719424247
 10
0.8082139888
 20
-33.3134102696
 10
0.8212227141
 20
-33.3564474477
 10
0.8308551633
 20
-33.4009480428
 10
0.83678428
 20
-33.4466103762
 10
0.8387931034
 20
-33.493103
  0
LWPOLYLINE
  5
2C8
100
AcDbEntity
  8
0
100
AcDbPolyline
 62
7
  6
CONTINUOUS
 90
28
 70
0
 10
0.500105397
 20
-33.7548063245
 10
0.5456204504
 20
-33.7759082198
 10
0.5891933474
 20
-33.8001819822
 10
0.6306755334
 20
-33.8273535788
 10
0.6700177302
 20
-33.8571548665
 10
0.7069740139
 20
-33.8894191878
 10
0.7405175855
 20
-33.924569498
 10
0.7701497135
 20
-33.9621274074
 10
0.7959390259
 20
-34.0018548013
 10
0.8181887874
 20
-34.0438737371
 10
0.836841366
 20
-34.0876513111
 10
0.8520682175
 20
-34.1329267603
 10
0.8642789086
 20
-34.1804160833
 10
0.8735058111
 20
-34.2299646183
 10
0.8797920079
 20
-34.2812412677
 10
0.8832748505
 20
-34.334830278
 10
0.8839341339
 20
-34.3906671776
 10
0.8810115098
 20
-34.4484710825
 10
0.8736013989
 20
-34.5084150917
 10
0.8609474009
 20
-34.5700889816
 10
0.8423616261
 20
-34.6328834817
 10
0.8171324122
 20
-34.6964402911
 10
0.7847840326
 20
-34.7599927481
 10
0.745112147
 20
-34.8227059614
 10
0.697971138
 20
-34.8840598006
 10
0.6422563275
 20
-34.9422922697
 10
0.5765599041
 20
-34.9942625226
 10
0.5012529931
 20
-35.0376866551
  0
LWPOLYLINE
  5
2C9
100
AcDbEntity
  8
RACCORDO
100
AcDbPolyline
 62
250
  6
CONTINUOUS
 90
6
 70
0
 10
-11.3084888892
 20
-35.526158438
 10
-11.3393030976
 20
-35.4953444174
 10
-11.375
 20
-35.4703493295
 10
-11.4144949642
 20
-35.4519326375
 10
-11.4565879556
 20
-35.4406539231
 10
-11.5
 20
-35.4368558845
  0
LINE
  5
2CA
100
AcDbEntity
  8
0
100
AcDbLine
 62
7
  6
CONTINUOUS
 10
-16.653349
 20
-34.180362
 11
-17.351606
 21
-33.075
  0
LINE
  5
2CB
100
AcDbEntity
  8
0
100
AcDbLine
 62
7
  6
CONTINUOUS
 10
-39.8951844414
 20
3.5
 11
-40.0
 21
3.6749773271
  0
LINE
  5
2CC
100
AcDbEntity
  8
0
100
AcDbLine
 62
7
  6
CONTINUOUS
 10
-37.8924397494
 20
3.5
 11
-37.997255308
 21
3.6749773271
  0
LINE
  5
2CD
100
AcDbEntity
  8
0
100
AcDbLine
 62
7
  6
CONTINUOUS
 10
-17.060454
 20
-33.075
 11
-16.529616
 21
-33.964017
  0
LINE
  5
2CE
100
AcDbEntity
  8
0
100
AcDbLine
 62
7
  6
CONTINUOUS
 10
-29.020772
 20
31.499971
 11
-29.020763
 21
35.400156
  0
LINE
  5
2CF
100
AcDbEntity
  8
0
100
AcDbLine
 62
7
  6
CONTINUOUS
 10
-28.59636
 20
-29.295002
 11
-28.59636
 21
-29.073411
  0
LINE
  5
2D0
100
AcDbEntity
  8
0
100
AcDbLine
 62
7
  6
CONTINUOUS
 10
-28.336073
 20
-34.925
 11
-28.336073
 21
-33.075
  0
LINE
  5
2D1
100
AcDbEntity
  8
0
100
AcDbLine
 62
7
  6
CONTINUOUS
 10
-28.240733
 20
35.400156
 11
-28.240743
 21
31.49998
  0
LINE
  5
2D2
100
AcDbEntity
  8
0
100
AcDbLine
 62
7
  6
CONTINUOUS
 10
-28.08608
 20
-33.296581
 11
-28.08608
 21
-33.863476
  0
LINE
  5
2D3
100
AcDbEntity
  8
0
100
AcDbLine
 62
7
  6
CONTINUOUS
 10
-28.08608
 20
-34.085057
 11
-28.08608
 21
-34.703419
  0
LINE
  5
2D4
100
AcDbEntity
  8
0
100
AcDbLine
 62
7
  6
CONTINUOUS
 10
-27.970296
 20
-30.923411
 11
-27.970296
 21
-29.295002
  0
LINE
  5
2D5
100
AcDbEntity
  8
0
100
AcDbLine
 62
7
  6
CONTINUOUS
 10
-27.720367
 20
-29.295002
 11
-27.720367
 21
-30.923411
  0
LINE
  5
2D6
100
AcDbEntity
  8
0
100
AcDbLine
 62
7
  6
CONTINUOUS
 10
-27.460733
 20
31.49998
 11
-27.460733
 21
35.400156
  0
LINE
  5
2D7
100
AcDbEntity
  8
0
100
AcDbLine
 62
7
  6
CONTINUOUS
 10
-27.094303
 20
-29.073411
 11
-27.094303
 21
-29.295002
  0
LINE
  5
2D8
100
AcDbEntity
  8
0
100
AcDbLine
 62
7
  6
CONTINUOUS
 10
-27.073464
 20
-33.863476
 11
-27.073464
 21
-34.085057
  0
LINE
  5
2D9
100
AcDbEntity
  8
0
100
AcDbLine
 62
7
  6
CONTINUOUS
 10
-26.988438
 20
-33.075
 11
-26.988438
 21
-33.296581
  0
LINE
  5
2DA
100
AcDbEntity
  8
0
100
AcDbLine
 62
7
  6
CONTINUOUS
 10
-26.970379
 20
-34.703419
 11
-26.970379
 21
-34.925
  0
LINE
  5
2DB
100
AcDbEntity
  8
0
100
AcDbLine
 62
7
  6
CONTINUOUS
 10
-26.834003
 20
-30.923411
 11
-26.834003
 21
-30.650256
  0
LINE
  5
2DC
100
AcDbEntity
  8
0
100
AcDbLine
 62
7
  6
CONTINUOUS
 10
-26.680704
 20
34.071884
 11
-26.680704
 21
31.49998
  0
LINE
  5
2DD
100
AcDbEntity
  8
0
100
AcDbLine
 62
7
  6
CONTINUOUS
 10
-26.566107
 20
-30.650256
 11
-26.566107
 21
-30.923411
  0
LWPOLYLINE
  5
2DE
100
AcDbEntity
  8
0
100
AcDbPolyline
 62
7
  6
CONTINUOUS
 90
22
 70
0
 10
-28.939390866
 20
-34.0
 10
-28.9392549797
 20
-33.9514364977
 10
-28.9414225818
 20
-33.9027785074
 10
-28.9458317569
 20
-33.8541539421
 10
-28.9524413917
 20
-33.8055158278
 10
-28.9611749161
 20
-33.7570758613
 10
-28.9718705237
 20
-33.7093295052
 10
-28.9847289463
 20
-33.6626051974
 10
-29.0004269381
 20
-33.617102046
 10
-29.0195742328
 20
-33.573168158
 10
-29.0423125823
 20
-33.531225689
 10
-29.0684884635
 20
-33.4917008638
 10
-29.0979717706
 20
-33.454982391
 10
-29.1306013
 20
-33.4214896219
 10
-29.1660962498
 20
-33.3915145163
 10
-29.2041068487
 20
-33.3652054854
 10
-29.244166276
 20
-33.3427919043
 10
-29.2859443263
 20
-33.3243256466
 10
-29.3293499516
 20
-33.3096770047
 10
-29.3741215629
 20
-33.2988458242
 10
-29.419766177
 20
-33.2918831218
 10
-29.4658705306
 20
-33.288801
  0
LWPOLYLINE
  5
2DF
100
AcDbEntity
  8
0
100
AcDbPolyline
 62
7
  6
CONTINUOUS
 90
25
 70
0
 10
-28.6822290582
 20
-34.0
 10
-28.6824961752
 20
-34.0704452899
 10
-28.6859706814
 20
-34.1386698569
 10
-28.6928906817
 20
-34.204489123
 10
-28.7033678961
 20
-34.2674386388
 10
-28.7173983568
 20
-34.3274521724
 10
-28.7345694754
 20
-34.3850513375
 10
-28.7542272394
 20
-34.4402829535
 10
-28.7759328346
 20
-34.4930988398
 10
-28.8002399495
 20
-34.5435299832
 10
-28.8276510858
 20
-34.5909557988
 10
-28.8584318825
 20
-34.63504423
 10
-28.8924333815
 20
-34.6764794478
 10
-28.9290819503
 20
-34.7155293409
 10
-28.9677911715
 20
-34.7520702747
 10
-29.0088182886
 20
-34.785777862
 10
-29.0524289903
 20
-34.8160892861
 10
-29.0985469335
 20
-34.8425169338
 10
-29.1467380234
 20
-34.8650783568
 10
-29.1964406662
 20
-34.8838405095
 10
-29.2473120989
 20
-34.8989589204
 10
-29.2992714598
 20
-34.9105917064
 10
-29.3521699585
 20
-34.9187925885
 10
-29.4056655965
 20
-34.9235799646
 10
-29.4595081298
 20
-34.925
  0
LWPOLYLINE
  5
2E0
100
AcDbEntity
  8
RACCORDO
100
AcDbPolyline
 62
250
  6
CONTINUOUS
 90
4
 70
0
 10
2.6424549217
 20
-26.35
 10
2.6815591149
 20
-26.3474334584
 10
2.7199942245
 20
-26.3397777479
 10
2.7571026151
 20
-26.3271638598
  0
LWPOLYLINE
  5
2E1
100
AcDbEntity
  8
RACCORDO
100
AcDbPolyline
 62
250
  6
CONTINUOUS
 90
13
 70
0
 10
2.9324185643
 20
-26.35
 10
2.9713772833
 20
-26.3474860761
 10
3.0098424998
 20
-26.3399537661
 10
3.047160645
 20
-26.3274817026
 10
3.0827217066
 20
-26.3102197601
 10
3.1158643532
 20
-26.2884264669
 10
3.1459091636
 20
-26.2624994188
 10
3.1723424734
 20
-26.2328663585
 10
3.1946934533
 20
-26.2000370904
 10
3.2124963585
 20
-26.1646866602
 10
3.2254617169
 20
-26.1274798945
 10
3.2334347804
 20
-26.0890300055
 10
3.2363184186
 20
-26.05
  0
LWPOLYLINE
  5
2E2
100
AcDbEntity
  8
0
100
AcDbPolyline
 62
7
  6
CONTINUOUS
 90
16
 70
0
 10
-31.090390821
 20
-29.9288075291
 10
-31.0446040173
 20
-29.9271800793
 10
-31.0005589671
 20
-29.9228709218
 10
-30.958477805
 20
-29.9160015469
 10
-30.9188955563
 20
-29.9058327016
 10
-30.8821639686
 20
-29.8918046677
 10
-30.8487436835
 20
-29.8739259537
 10
-30.8195110892
 20
-29.8527921951
 10
-30.7946594
 20
-29.8287978551
 10
-30.7736424747
 20
-29.8020595362
 10
-30.7565727292
 20
-29.7733595559
 10
-30.7434982204
 20
-29.7433044859
 10
-30.7342559762
 20
-29.7113973229
 10
-30.7286929619
 20
-29.6777252759
 10
-30.7259467135
 20
-29.6431410836
 10
-30.7251092311
 20
-29.6080337431
  0
LWPOLYLINE
  5
2E3
100
AcDbEntity
  8
0
100
AcDbPolyline
 62
7
  6
CONTINUOUS
 90
16
 70
0
 10
-24.6465771613
 20
-29.9288075291
 10
-24.605805477
 20
-29.9275090804
 10
-24.5662764945
 20
-29.924014822
 10
-24.5280940524
 20
-29.9185623823
 10
-24.4918274915
 20
-29.9106672208
 10
-24.4575647051
 20
-29.8997847529
 10
-24.4250325015
 20
-29.8853451626
 10
-24.3950405667
 20
-29.8674540689
 10
-24.3680930452
 20
-29.846153535
 10
-24.3439273888
 20
-29.8207809252
 10
-24.3228851704
 20
-29.7913642682
 10
-24.3058248158
 20
-29.7587135415
 10
-24.2933969624
 20
-29.723411325
 10
-24.2859402797
 20
-29.6860823381
 10
-24.2823561988
 20
-29.6474205385
 10
-24.2812955714
 20
-29.6080337431
  0
LINE
  5
2E4
100
AcDbEntity
  8
0
100
AcDbLine
 62
7
  6
CONTINUOUS
 10
-22.337912
 20
-29.295002
 11
-23.435642
 21
-29.295002
  0
LINE
  5
2E5
100
AcDbEntity
  8
0
100
AcDbLine
 62
7
  6
CONTINUOUS
 10
-27.094303
 20
-29.295002
 11
-27.720367
 21
-29.295002
  0
LINE
  5
2E6
100
AcDbEntity
  8
0
100
AcDbLine
 62
7
  6
CONTINUOUS
 10
-27.970296
 20
-29.295002
 11
-28.59636
 21
-29.295002
  0
LINE
  5
2E7
100
AcDbEntity
  8
0
100
AcDbLine
 62
7
  6
CONTINUOUS
 10
-19.4033280496
 20
-29.28726
 11
-19.869735
 21
-29.28726
  0
LINE
  5
2E8
100
AcDbEntity
  8
0
100
AcDbLine
 62
7
  6
CONTINUOUS
 10
-24.6465771613
 20
-29.28726
 11
-25.154177
 21
-29.28726
  0
LINE
  5
2E9
100
AcDbEntity
  8
0
100
AcDbLine
 62
7
  6
CONTINUOUS
 10
-31.090390821
 20
-29.28726
 11
-31.597991
 21
-29.28726
  0
LINE
  5
2EA
100
AcDbEntity
  8
0
100
AcDbLine
 62
7
  6
CONTINUOUS
 10
-31.847919
 20
-29.073411
 11
-31.015723404
 21
-29.073411
  0
LINE
  5
2EB
100
AcDbEntity
  8
0
100
AcDbLine
 62
7
  6
CONTINUOUS
 10
-29.619155
 20
-29.073411
 11
-29.335776
 21
-29.073411
  0
LINE
  5
2EC
100
AcDbEntity
  8
0
100
AcDbLine
 62
7
  6
CONTINUOUS
 10
-28.59636
 20
-29.073411
 11
-27.094303
 21
-29.073411
  0
LINE
  5
2ED
100
AcDbEntity
  8
0
100
AcDbLine
 62
7
  6
CONTINUOUS
 10
-25.404106
 20
-29.073411
 11
-24.5719097443
 21
-29.073411
  0
LINE
  5
2EE
100
AcDbEntity
  8
0
100
AcDbLine
 62
7
  6
CONTINUOUS
 10
-23.68557
 20
-29.073411
 11
-22.337912
 21
-29.073411
  0
LINE
  5
2EF
100
AcDbEntity
  8
0
100
AcDbLine
 62
7
  6
CONTINUOUS
 10
-21.992744
 20
-29.073411
 11
-21.696364
 21
-29.073411
  0
LINE
  5
2F0
100
AcDbEntity
  8
0
100
AcDbLine
 62
7
  6
CONTINUOUS
 10
-20.766324
 20
-29.073411
 11
-20.524137
 21
-29.073411
  0
LINE
  5
2F1
100
AcDbEntity
  8
0
100
AcDbLine
 62
7
  6
CONTINUOUS
 10
-20.119664
 20
-29.073411
 11
-19.3698775956
 21
-29.073411
  0
LINE
  5
2F2
100
AcDbEntity
  8
0
100
AcDbLine
 62
7
  6
CONTINUOUS
 10
30.30757
 20
-28.833154
 11
29.904665
 21
-28.833154
  0
LINE
  5
2F3
100
AcDbEntity
  8
0
100
AcDbLine
 62
7
  6
CONTINUOUS
 10
29.401602
 20
-28.833154
 11
28.998534
 21
-28.833154
  0
LINE
  5
2F4
100
AcDbEntity
  8
0
100
AcDbLine
 62
7
  6
CONTINUOUS
 10
28.998534
 20
-28.358337
 11
30.30757
 21
-28.358337
  0
LINE
  5
2F5
100
AcDbEntity
  8
RACCORDO
100
AcDbLine
 62
250
  6
CONTINUOUS
 10
-0.4484994052
 20
-26.6766274222
 11
-2.9317262559
 21
-26.6768381834
  0
LINE
  5
2F6
100
AcDbEntity
  8
RACCORDO
100
AcDbLine
 62
7
  6
CONTINUOUS
 10
-2.9324187477
 20
-26.35
 11
-0.4043650715
 21
-26.35
  0
LINE
  5
2F7
100
AcDbEntity
  8
RACCORDO
100
AcDbLine
 62
7
  6
CONTINUOUS
 10
0.4043650715
 20
-26.35
 11
2.9324185643
 21
-26.35
  0
LINE
  5
2F8
100
AcDbEntity
  8
RACCORDO
100
AcDbLine
 62
250
  6
CONTINUOUS
 10
-3.2363163899
 20
-26.05
 11
-0.1741669751
 21
-26.05
  0
LINE
  5
2F9
100
AcDbEntity
  8
RACCORDO
100
AcDbLine
 62
250
  6
CONTINUOUS
 10
0.1741669751
 20
-26.05
 11
3.2363163897
 21
-26.05
  0
LINE
  5
2FA
100
AcDbEntity
  8
RACCORDO
100
AcDbLine
 62
250
  6
CONTINUOUS
 10
2.9317262559
 20
-26.6768383599
 11
0.448493185
 21
-26.6766274222
  0
LWPOLYLINE
  5
2FB
100
AcDbEntity
  8
RACCORDO
100
AcDbPolyline
 62
7
  6
CONTINUOUS
 90
31
 70
0
 10
0.0
 20
-26.7
 10
-0.0090655173
 20
-26.6998806855
 10
-0.0184356777
 20
-26.7005197555
 10
-0.0281000507
 20
-26.7019144151
 10
-0.0380102078
 20
-26.7041708226
 10
-0.0481843852
 20
-26.7071747298
 10
-0.0587068424
 20
-26.7105913095
 10
-0.0695554116
 20
-26.7144166438
 10
-0.0806974214
 20
-26.7186399564
 10
-0.0921939535
 20
-26.7229141447
 10
-0.1040470823
 20
-26.727203862
 10
-0.1161665311
 20
-26.7315208212
 10
-0.1284712528
 20
-26.7355875436
 10
-0.1409269664
 20
-26.739269849
 10
-0.153458707
 20
-26.7426726453
 10
-0.1659267554
 20
-26.745877716
 10
-0.1781703706
 20
-26.748750772
 10
-0.1902324565
 20
-26.7513945281
 10
-0.2022358701
 20
-26.7542347815
 10
-0.2140433444
 20
-26.7574754498
 10
-0.2255295295
 20
-26.7608422475
 10
-0.2367468822
 20
-26.7640200138
 10
-0.2477056488
 20
-26.7669312786
 10
-0.2579459002
 20
-26.76953302
 10
-0.2669226125
 20
-26.7715906297
 10
-0.2746736641
 20
-26.7728435754
 10
-0.2810227644
 20
-26.7735153019
 10
-0.2855235351
 20
-26.7742096784
 10
-0.28827199
 20
-26.7751935904
 10
-0.2896254929
 20
-26.7763216345
 10
-0.2897777479
 20
-26.7776457135
  0
LWPOLYLINE
  5
2FC
100
AcDbEntity
  8
RACCORDO
100
AcDbPolyline
 62
250
  6
CONTINUOUS
 90
22
 70
0
 10
-2.931726258
 20
-26.6768388781
 10
-2.9631953074
 20
-26.6760199279
 10
-2.9955489738
 20
-26.6734340007
 10
-3.0286792621
 20
-26.6689391619
 10
-3.0623699669
 20
-26.6624157685
 10
-3.0965720768
 20
-26.6537083927
 10
-3.1313916513
 20
-26.6425881336
 10
-3.1666152563
 20
-26.6288869301
 10
-3.202034416
 20
-26.6124332818
 10
-3.2376891511
 20
-26.5929141584
 10
-3.2732866381
 20
-26.5701162432
 10
-3.3084440366
 20
-26.5438804749
 10
-3.3429652085
 20
-26.5139199337
 10
-3.3764205432
 20
-26.480026975
 10
-3.4082328463
 20
-26.4421412879
 10
-3.4379057761
 20
-26.4002227126
 10
-3.4648505642
 20
-26.3542164373
 10
-3.4883643907
 20
-26.3042642576
 10
-3.5078055666
 20
-26.2507421416
 10
-3.5225652997
 20
-26.194009377
 10
-3.5319516627
 20
-26.1343917623
 10
-3.5352860649
 20
-26.0723965422
  0
LWPOLYLINE
  5
2FD
100
AcDbEntity
  8
RACCORDO
100
AcDbPolyline
 62
250
  6
CONTINUOUS
 90
43
 70
0
 10
-11.7499998839
 20
-24.2578130364
 10
-11.8066581325
 20
-24.2349203743
 10
-11.8643486497
 20
-24.2096789979
 10
-11.9229606702
 20
-24.1819622895
 10
-11.9823992765
 20
-24.1516372087
 10
-12.0425027743
 20
-24.1185911875
 10
-12.1030459137
 20
-24.0827395582
 10
-12.1640029258
 20
-24.0438782011
 10
-12.2250801954
 20
-24.001994391
 10
-12.2856715441
 20
-23.9573492374
 10
-12.3459138187
 20
-23.9096664895
 10
-12.4053608132
 20
-23.8591159667
 10
-12.462670039
 20
-23.8068109431
 10
-12.5179723987
 20
-23.7526883509
 10
-12.5710533486
 20
-23.6969973443
 10
-12.6203473025
 20
-23.6416163497
 10
-12.6654688861
 20
-23.5874623868
 10
-12.7071614544
 20
-23.5341294681
 10
-12.7457181886
 20
-23.4816368143
 10
-12.7811995422
 20
-23.4302944941
 10
-12.8138532529
 20
-23.3801406217
 10
-12.8441886611
 20
-23.3307194016
 10
-12.8723717542
 20
-23.2820289633
 10
-12.8984395445
 20
-23.2342803561
 10
-12.9226387865
 20
-23.1872817264
 10
-12.945092414
 20
-23.1410274881
 10
-12.9658425748
 20
-23.0956700123
 10
-12.9849906964
 20
-23.0512330802
 10
-13.0026104576
 20
-23.0077947255
 10
-13.018789926
 20
-22.9653921743
 10
-13.0336419265
 20
-22.9239772549
 10
-13.0472282985
 20
-22.883626356
 10
-13.0596315778
 20
-22.8443484027
 10
-13.0709769518
 20
-22.805982767
 10
-13.0813248221
 20
-22.7685501058
 10
-13.0907291959
 20
-22.7320887158
 10
-13.0992846979
 20
-22.6964547954
 10
-13.1070437655
 20
-22.6616405069
 10
-13.1140451918
 20
-22.6276944273
 10
-13.1203495719
 20
-22.5945512614
 10
-13.1260019959
 20
-22.5621983889
 10
-13.131036183
 20
-22.5306770405
 10
-13.1354906286
 20
-22.4999999995
  0
LINE
  5
2FE
100
AcDbEntity
  8
0
100
AcDbLine
 62
7
  6
CONTINUOUS
 10
-19.523774
 20
-33.075
 11
-18.853749
 21
-34.925
  0
LINE
  5
2FF
100
AcDbEntity
  8
0
100
AcDbLine
 62
7
  6
CONTINUOUS
 10
-19.126948
 20
-34.925
 11
-19.309883
 21
-34.386533
  0
LINE
  5
300
100
AcDbEntity
  8
0
100
AcDbLine
 62
7
  6
CONTINUOUS
 10
-19.400086
 20
-34.164951
 11
-19.675723
 21
-33.34334
  0
LWPOLYLINE
  5
301
100
AcDbEntity
  8
0
100
AcDbPolyline
 62
7
  6
CONTINUOUS
 90
16
 70
0
 10
-24.2812955714
 20
-29.6080337431
 10
-24.2823785681
 20
-29.5682452277
 10
-24.2860559601
 20
-29.5291553763
 10
-24.2937414673
 20
-29.4913990324
 10
-24.3065746532
 20
-29.455650909
 10
-24.3241793745
 20
-29.422621348
 10
-24.3457964219
 20
-29.3930531668
 10
-24.3704709739
 20
-29.3677773908
 10
-24.3978260154
 20
-29.3467273768
 10
-24.4280594249
 20
-29.3291822197
 10
-24.4606567801
 20
-29.3151345392
 10
-24.4947942773
 20
-29.3046300458
 10
-24.5306902047
 20
-29.297053471
 10
-24.568230683
 20
-29.2918332949
 10
-24.6068887652
 20
-29.2884919586
 10
-24.6465771613
 20
-29.2872599571
  0
LINE
  5
302
100
AcDbEntity
  8
0
100
AcDbLine
 62
7
  6
CONTINUOUS
 10
-25.888148
 20
-34.925
 11
-25.888148
 21
-33.075
  0
LINE
  5
303
100
AcDbEntity
  8
0
100
AcDbLine
 62
7
  6
CONTINUOUS
 10
-25.63823
 20
-33.075
 11
-25.63823
 21
-34.925
  0
LINE
  5
304
100
AcDbEntity
  8
0
100
AcDbLine
 62
7
  6
CONTINUOUS
 10
-25.404106
 20
-30.923411
 11
-25.404106
 21
-29.073411
  0
LINE
  5
305
100
AcDbEntity
  8
0
100
AcDbLine
 62
7
  6
CONTINUOUS
 10
-25.210568
 20
-34.925
 11
-25.210568
 21
-33.075
  0
LINE
  5
306
100
AcDbEntity
  8
0
100
AcDbLine
 62
7
  6
CONTINUOUS
 10
-25.154177
 20
-29.28726
 11
-25.154177
 21
-29.928808
  0
LINE
  5
307
100
AcDbEntity
  8
0
100
AcDbLine
 62
7
  6
CONTINUOUS
 10
-25.154177
 20
-30.142657
 11
-25.154177
 21
-30.923411
  0
LINE
  5
308
100
AcDbEntity
  8
0
100
AcDbLine
 62
7
  6
CONTINUOUS
 10
-24.968265
 20
-33.422579
 11
-24.968265
 21
-34.925
  0
LINE
  5
309
100
AcDbEntity
  8
RACCORDO
100
AcDbLine
 62
250
  6
CONTINUOUS
 10
-24.9
 20
-22.0
 11
-24.9
 21
-22.5
  0
LINE
  5
30A
100
AcDbEntity
  8
RACCORDO
100
AcDbLine
 62
250
  6
CONTINUOUS
 10
-24.9
 20
22.0
 11
-24.9
 21
22.5
  0
LINE
  5
30B
100
AcDbEntity
  8
0
100
AcDbLine
 62
7
  6
CONTINUOUS
 10
-24.425744
 20
31.49998
 11
-24.425753
 21
34.071884
  0
LINE
  5
30C
100
AcDbEntity
  8
0
100
AcDbLine
 62
7
  6
CONTINUOUS
 10
-23.983957
 20
-34.577726
 11
-23.983957
 21
-33.075
  0
LINE
  5
30D
100
AcDbEntity
  8
0
100
AcDbLine
 62
7
  6
CONTINUOUS
 10
-23.741774
 20
-33.075
 11
-23.741774
 21
-34.925
  0
LINE
  5
30E
100
AcDbEntity
  8
0
100
AcDbLine
 62
7
  6
CONTINUOUS
 10
-23.68557
 20
-30.923411
 11
-23.68557
 21
-29.073411
  0
LINE
  5
30F
100
AcDbEntity
  8
0
100
AcDbLine
 62
7
  6
CONTINUOUS
 10
-23.645714
 20
35.400156
 11
-23.645714
 21
31.49998
  0
LINE
  5
310
100
AcDbEntity
  8
0
100
AcDbLine
 62
7
  6
CONTINUOUS
 10
-23.435642
 20
-29.295002
 11
-23.435642
 21
-29.861907
  0
LINE
  5
311
100
AcDbEntity
  8
0
100
AcDbLine
 62
7
  6
CONTINUOUS
 10
-23.435642
 20
-30.083498
 11
-23.435642
 21
-30.70182
  0
LINE
  5
312
100
AcDbEntity
  8
0
100
AcDbLine
 62
7
  6
CONTINUOUS
 10
-22.595208
 20
-34.925
 11
-22.595208
 21
-33.075
  0
LINE
  5
313
100
AcDbEntity
  8
0
100
AcDbLine
 62
7
  6
CONTINUOUS
 10
-22.422925
 20
-29.861907
 11
-22.422925
 21
-30.083498
  0
LINE
  5
314
100
AcDbEntity
  8
0
100
AcDbLine
 62
7
  6
CONTINUOUS
 10
-22.345215
 20
-33.075
 11
-22.345215
 21
-34.925
  0
LINE
  5
315
100
AcDbEntity
  8
0
100
AcDbLine
 62
7
  6
CONTINUOUS
 10
-22.337912
 20
-29.073411
 11
-22.337912
 21
-29.295002
  0
LINE
  5
316
100
AcDbEntity
  8
0
100
AcDbLine
 62
7
  6
CONTINUOUS
 10
-22.319945
 20
-30.70182
 11
-22.319945
 21
-30.923411
  0
LWPOLYLINE
  5
317
100
AcDbEntity
  8
0
100
AcDbPolyline
 62
7
  6
CONTINUOUS
 90
16
 70
0
 10
-24.0238111469
 20
-29.6080337431
 10
-24.025508709
 20
-29.6687242141
 10
-24.0333053453
 20
-29.7279543555
 10
-24.0469060279
 20
-29.7850610268
 10
-24.06597419
 20
-29.8393075905
 10
-24.0902538188
 20
-29.8902352407
 10
-24.1198266755
 20
-29.9374250584
 10
-24.1545019846
 20
-29.9798721976
 10
-24.193704016
 20
-30.0172586462
 10
-24.2374345617
 20
-30.0497958145
 10
-24.2848353216
 20
-30.0770929451
 10
-24.3352248614
 20
-30.0994436144
 10
-24.3894430463
 20
-30.1174484222
 10
-24.4475627109
 20
-30.1309116991
 10
-24.5085577637
 20
-30.1393869171
 10
-24.571964183
 20
-30.142657
  0
LWPOLYLINE
  5
318
100
AcDbEntity
  8
RACCORDO
100
AcDbPolyline
 62
250
  6
CONTINUOUS
 90
8
 70
0
 10
-11.2650768448
 20
35.612754718
 10
-11.2834936491
 20
35.5732599945
 10
-11.3084888892
 20
35.5375633095
 10
-11.3393030976
 20
35.5067492889
 10
-11.375
 20
35.481754201
 10
-11.4144949642
 20
35.463337509
 10
-11.4565879556
 20
35.4520587946
 10
-11.5
 20
35.448260756
  0
LWPOLYLINE
  5
319
100
AcDbEntity
  8
RACCORDO
100
AcDbPolyline
 62
250
  6
CONTINUOUS
 90
3
 70
0
 10
-11.2650768499
 20
35.6013498324
 10
-11.2834936586
 20
35.5618551065
 10
-11.3084889023
 20
35.5261584224
  0
LINE
  5
31A
100
AcDbEntity
  8
RACCORDO
100
AcDbLine
 62
250
  6
CONTINUOUS
 10
35.6982592329
 20
-22.0
 11
35.6434425815
 21
-22.0037980617
  0
LWPOLYLINE
  5
31B
100
AcDbEntity
  8
RACCORDO
100
AcDbPolyline
 62
250
  6
CONTINUOUS
 90
13
 70
0
 10
10.9500889963
 20
-24.4084885477
 10
10.9722377467
 20
-24.4083416787
 10
10.9948655936
 20
-24.4079625334
 10
11.0179687821
 20
-24.4073363477
 10
11.0415122734
 20
-24.4064492333
 10
11.0655221716
 20
-24.405285578
 10
11.0900865491
 20
-24.4038246777
 10
11.1151970351
 20
-24.4020480657
 10
11.1408540621
 20
-24.3999362356
 10
11.1671587988
 20
-24.3974595532
 10
11.1941405982
 20
-24.3945903661
 10
11.221756998
 20
-24.391307245
 10
11.2499999984
 20
-24.3875853961
  0
LINE
  5
31C
100
AcDbEntity
  8
RACCORDO
100
AcDbLine
 62
7
  6
CONTINUOUS
 10
27.4402103845
 20
-22.5
 11
30.0917878573
 21
-22.4911776657
  0
LINE
  5
31D
100
AcDbEntity
  8
RACCORDO
100
AcDbLine
 62
7
  6
CONTINUOUS
 10
-33.1343554255
 20
-22.5
 11
-30.7237292056
 21
-22.491701473
  0
LINE
  5
31E
100
AcDbEntity
  8
RACCORDO
100
AcDbLine
 62
250
  6
CONTINUOUS
 10
2.6424549217
 20
-25.35
 11
-2.6424549217
 21
-25.35
  0
LINE
  5
31F
100
AcDbEntity
  8
DRAFT
100
AcDbLine
 62
7
  6
CONTINUOUS
 10
-2.9716909041
 20
-25.05
 11
-2.9559685703
 21
-25.05
  0
LINE
  5
320
100
AcDbEntity
  8
DRAFT
100
AcDbLine
 62
7
  6
CONTINUOUS
 10
-2.9978947937
 20
-25.05
 11
-2.98217246
 21
-25.05
  0
LINE
  5
321
100
AcDbEntity
  8
DRAFT
100
AcDbLine
 62
7
  6
CONTINUOUS
 10
-3.0240986834
 20
-25.05
 11
-3.0083763496
 21
-25.05
  0
LINE
  5
322
100
AcDbEntity
  8
DRAFT
100
AcDbLine
 62
7
  6
CONTINUOUS
 10
-3.050302573
 20
-25.05
 11
-3.0345802392
 21
-25.05
  0
LINE
  5
323
100
AcDbEntity
  8
DRAFT
100
AcDbLine
 62
7
  6
CONTINUOUS
 10
-3.0765064627
 20
-25.05
 11
-3.0607841289
 21
-25.05
  0
LINE
  5
324
100
AcDbEntity
  8
DRAFT
100
AcDbLine
 62
7
  6
CONTINUOUS
 10
-3.1027103523
 20
-25.05
 11
-3.0869880185
 21
-25.05
  0
LINE
  5
325
100
AcDbEntity
  8
DRAFT
100
AcDbLine
 62
7
  6
CONTINUOUS
 10
-3.128914242
 20
-25.05
 11
-3.1131919082
 21
-25.05
  0
LINE
  5
326
100
AcDbEntity
  8
DRAFT
100
AcDbLine
 62
7
  6
CONTINUOUS
 10
-3.1551181316
 20
-25.05
 11
-3.1393957978
 21
-25.05
  0
LINE
  5
327
100
AcDbEntity
  8
DRAFT
100
AcDbLine
 62
7
  6
CONTINUOUS
 10
2.9559685703
 20
-25.05
 11
2.9716909041
 21
-25.05
  0
LINE
  5
328
100
AcDbEntity
  8
RACCORDO
100
AcDbLine
 62
7
  6
CONTINUOUS
 10
2.9428666255
 20
-25.05
 11
-2.9428666255
 21
-25.05
  0
LINE
  5
329
100
AcDbEntity
  8
0
100
AcDbLine
 62
7
  6
CONTINUOUS
 10
3.1551181316
 20
-25.05
 11
3.2294668044
 21
-25.05
  0
LINE
  5
32A
100
AcDbEntity
  8
DRAFT
100
AcDbLine
 62
7
  6
CONTINUOUS
 10
2.98217246
 20
-25.05
 11
2.9978947937
 21
-25.05
  0
LINE
  5
32B
100
AcDbEntity
  8
DRAFT
100
AcDbLine
 62
7
  6
CONTINUOUS
 10
3.0083763496
 20
-25.05
 11
3.0240986834
 21
-25.05
  0
LINE
  5
32C
100
AcDbEntity
  8
DRAFT
100
AcDbLine
 62
7
  6
CONTINUOUS
 10
3.0345802392
 20
-25.05
 11
3.050302573
 21
-25.05
  0
LINE
  5
32D
100
AcDbEntity
  8
DRAFT
100
AcDbLine
 62
7
  6
CONTINUOUS
 10
3.0607841289
 20
-25.05
 11
3.0765064627
 21
-25.05
  0
LINE
  5
32E
100
AcDbEntity
  8
DRAFT
100
AcDbLine
 62
7
  6
CONTINUOUS
 10
3.0869880185
 20
-25.05
 11
3.1027103523
 21
-25.05
  0
LINE
  5
32F
100
AcDbEntity
  8
DRAFT
100
AcDbLine
 62
7
  6
CONTINUOUS
 10
3.1131919082
 20
-25.05
 11
3.128914242
 21
-25.05
  0
LINE
  5
330
100
AcDbEntity
  8
DRAFT
100
AcDbLine
 62
7
  6
CONTINUOUS
 10
3.1393957978
 20
-25.05
 11
3.1551181316
 21
-25.05
  0
LINE
  5
331
100
AcDbEntity
  8
0
100
AcDbLine
 62
7
  6
CONTINUOUS
 10
-3.1551181316
 20
-25.05
 11
-3.2294668044
 21
-25.05
  0
LINE
  5
332
100
AcDbEntity
  8
RACCORDO
100
AcDbLine
 62
250
  6
CONTINUOUS
 10
11.25
 20
-24.9
 11
11.75
 21
-24.9
  0
LINE
  5
333
100
AcDbEntity
  8
RACCORDO
100
AcDbLine
 62
250
  6
CONTINUOUS
 10
-11.25
 20
-24.9
 11
-11.75
 21
-24.9
  0
LINE
  5
334
100
AcDbEntity
  8
0
100
AcDbLine
 62
250
  6
CONTINUOUS
 10
-0.4997560235
 20
-24.5724665135
 11
3.5402599363
 21
-24.5699332005
  0
LINE
  5
335
100
AcDbEntity
  8
0
100
AcDbLine
 62
7
  6
CONTINUOUS
 10
-10.95
 20
-24.1
 11
10.95
 21
-24.1
  0
LINE
  5
336
100
AcDbEntity
  8
RACCORDO
100
AcDbLine
 62
7
  6
CONTINUOUS
 10
27.4402109512
 20
-22.5
 11
12.8261663039
 21
-22.5
  0
LINE
  5
337
100
AcDbEntity
  8
SUPERFICI
100
AcDbLine
 62
7
  6
CONTINUOUS
 10
-10.95
 20
-22.5
 11
10.95
 21
-22.5
  0
LINE
  5
338
100
AcDbEntity
  8
RACCORDO
100
AcDbLine
 62
7
  6
CONTINUOUS
 10
-33.1343554255
 20
-22.5
 11
-37.9841533632
 21
-22.5
  0
LINE
  5
339
100
AcDbEntity
  8
0
100
AcDbLine
 62
250
  6
CONTINUOUS
 10
-3.5402599812
 20
-24.5699332003
 11
-0.4997068798
 21
-24.5724668197
  0
LINE
  5
33A
100
AcDbEntity
  8
RACCORDO
100
AcDbLine
 62
250
  6
CONTINUOUS
 10
-10.9500889963
 20
-24.4084885472
 11
10.9500889961
 21
-24.4084885292
  0
LINE
  5
33B
100
AcDbEntity
  8
RACCORDO
100
AcDbLine
 62
7
  6
CONTINUOUS
 10
-30.7237292056
 20
-22.491701473
 11
-29.448120999
 21
-22.4925167927
  0
LWPOLYLINE
  5
33C
100
AcDbEntity
  8
RACCORDO
100
AcDbPolyline
 62
7
  6
CONTINUOUS
 90
3
 70
0
 10
30.0917878573
 20
-22.4911776657
 10
31.9519821453
 20
-22.4961996063
 10
37.9841533632
 20
-22.5
  0
LWPOLYLINE
  5
33D
100
AcDbEntity
  8
RACCORDO
100
AcDbPolyline
 62
7
  6
CONTINUOUS
 90
3
 70
0
 10
-29.448120999
 20
-22.4925167927
 10
-28.1224069431
 20
-22.4984603172
 10
-12.8261663039
 20
-22.5
  0
LINE
  5
33E
100
AcDbEntity
  8
RACCORDO
100
AcDbLine
 62
250
  6
CONTINUOUS
 10
-35.6982592329
 20
-22.0
 11
-35.6434424398
 21
-22.0037980867
  0
LWPOLYLINE
  5
33F
100
AcDbEntity
  8
RACCORDO
100
AcDbPolyline
 62
250
  6
CONTINUOUS
 90
10
 70
0
 10
-11.2499999989
 20
-24.3875852115
 10
-11.2127470501
 20
-24.3924173665
 10
-11.1764552039
 20
-24.3965092355
 10
-11.1411415021
 20
-24.399910983
 10
-11.1068335419
 20
-24.4026714117
 10
-11.073528723
 20
-24.4048396617
 10
-11.0411958429
 20
-24.4064626808
 10
-11.0098305656
 20
-24.4075838782
 10
-10.9794580939
 20
-24.4082453634
 10
-10.9500889962
 20
-24.4084885438
  0
LINE
  5
340
100
AcDbEntity
  8
RACCORDO
100
AcDbLine
 62
250
  6
CONTINUOUS
 10
0.0
 20
-26.7
 11
0.2897777479
 21
-26.7776457135
  0
LWPOLYLINE
  5
341
100
AcDbEntity
  8
0
100
AcDbPolyline
 62
7
  6
CONTINUOUS
 90
6
 70
0
 10
-3.2294668044
 20
-25.05
 10
-3.2312217711
 20
-25.0488722968
 10
-3.2329565591
 20
-25.0455521678
 10
-3.2346711684
 20
-25.0400396129
 10
-3.236365599
 20
-25.0323346322
 10
-3.2380398508
 20
-25.0224372256
  0
LWPOLYLINE
  5
342
100
AcDbEntity
  8
RACCORDO
100
AcDbPolyline
 62
250
  6
CONTINUOUS
 90
8
 70
0
 10
-11.2650766704
 20
-35.6127551973
 10
-11.2834933251
 20
-35.5732605555
 10
-11.3084884385
 20
-35.5375638467
 10
-11.3393025794
 20
-35.5067497237
 10
-11.3749994872
 20
-35.4817544971
 10
-11.4144945372
 20
-35.4633376644
 10
-11.4565877025
 20
-35.4520588392
 10
-11.5
 20
-35.448260756
  0
LWPOLYLINE
  5
343
100
AcDbEntity
  8
RACCORDO
100
AcDbPolyline
 62
250
  6
CONTINUOUS
 90
3
 70
0
 10
-11.2650768448
 20
-35.6013498465
 10
-11.2834936491
 20
-35.561855123
 10
-11.3084888892
 20
-35.526158438
  0
LWPOLYLINE
  5
344
100
AcDbEntity
  8
0
100
AcDbPolyline
 62
7
  6
CONTINUOUS
 90
22
 70
0
 10
-18.8498129547
 20
-29.9984107664
 10
-18.8508720058
 20
-29.9489300194
 10
-18.8535023223
 20
-29.8994266911
 10
-18.8575969445
 20
-29.8499597181
 10
-18.8635488366
 20
-29.8005310245
 10
-18.8717448836
 20
-29.7513431716
 10
-18.882519555
 20
-29.7027932587
 10
-18.8961850043
 20
-29.6551647936
 10
-18.9130590415
 20
-29.6086983083
 10
-18.9334461212
 20
-29.563797443
 10
-18.9576567993
 20
-29.5209172183
 10
-18.9858162116
 20
-29.4805897694
 10
-19.0176709592
 20
-29.4432281551
 10
-19.0529961124
 20
-29.4091151056
 10
-19.0914352362
 20
-29.378786355
 10
-19.1324069488
 20
-29.3529315041
 10
-19.1754093665
 20
-29.3319662978
 10
-19.2199662102
 20
-29.3155667594
 10
-19.2655077193
 20
-29.3032022276
 10
-19.311474642
 20
-29.294408798
 10
-19.3574857193
 20
-29.2890628872
 10
-19.4033280496
 20
-29.2872599571
  0
LINE
  5
345
100
AcDbEntity
  8
0
100
AcDbLine
 62
7
  6
CONTINUOUS
 10
-22.077238
 20
-33.296581
 11
-22.077238
 21
-33.075
  0
LINE
  5
346
100
AcDbEntity
  8
0
100
AcDbLine
 62
7
  6
CONTINUOUS
 10
-21.992744
 20
-30.923411
 11
-21.992744
 21
-29.073411
  0
LINE
  5
347
100
AcDbEntity
  8
0
100
AcDbLine
 62
7
  6
CONTINUOUS
 10
-21.750557
 20
-29.420826
 11
-21.750557
 21
-30.923411
  0
LINE
  5
348
100
AcDbEntity
  8
0
100
AcDbLine
 62
7
  6
CONTINUOUS
 10
-21.451095
 20
-34.925
 11
-21.451095
 21
-33.296581
  0
LINE
  5
349
100
AcDbEntity
  8
0
100
AcDbLine
 62
7
  6
CONTINUOUS
 10
-21.201192
 20
-33.296581
 11
-21.201192
 21
-34.925
  0
LINE
  5
34A
100
AcDbEntity
  8
0
100
AcDbLine
 62
7
  6
CONTINUOUS
 10
-20.766324
 20
-30.576132
 11
-20.766324
 21
-29.073411
  0
LINE
  5
34B
100
AcDbEntity
  8
0
100
AcDbLine
 62
7
  6
CONTINUOUS
 10
-20.57505
 20
-33.075
 11
-20.57505
 21
-33.296581
  0
LINE
  5
34C
100
AcDbEntity
  8
0
100
AcDbLine
 62
7
  6
CONTINUOUS
 10
-20.524137
 20
-29.073411
 11
-20.524137
 21
-30.923411
  0
LINE
  5
34D
100
AcDbEntity
  8
0
100
AcDbLine
 62
7
  6
CONTINUOUS
 10
-20.119664
 20
-30.923411
 11
-20.119664
 21
-29.073411
  0
LINE
  5
34E
100
AcDbEntity
  8
0
100
AcDbLine
 62
7
  6
CONTINUOUS
 10
-19.869735
 20
-29.28726
 11
-19.869735
 21
-30.709562
  0
LINE
  5
34F
100
AcDbEntity
  8
0
100
AcDbLine
 62
7
  6
CONTINUOUS
 10
-19.32119
 20
31.49999
 11
-19.32119
 21
35.400166
  0
LINE
  5
350
100
AcDbEntity
  8
0
100
AcDbLine
 62
7
  6
CONTINUOUS
 10
-18.624538
 20
-34.925
 11
-18.624538
 21
-33.075
  0
LINE
  5
351
100
AcDbEntity
  8
0
100
AcDbLine
 62
7
  6
CONTINUOUS
 10
-18.551915
 20
34.678637
 11
-18.551905
 21
33.729552
  0
LINE
  5
352
100
AcDbEntity
  8
0
100
AcDbLine
 62
7
  6
CONTINUOUS
 10
-18.37453
 20
-33.075
 11
-18.37453
 21
-34.703419
  0
LINE
  5
353
100
AcDbEntity
  8
0
100
AcDbLine
 62
7
  6
CONTINUOUS
 10
-18.541063
 20
33.008023
 11
-18.541151
 21
31.49999
  0
LINE
  5
354
100
AcDbEntity
  8
RACCORDO
100
AcDbLine
 62
250
  6
CONTINUOUS
 10
-11.2537980617
 20
35.654847453
 11
-11.2650768499
 21
35.6013498324
  0
LINE
  5
355
100
AcDbEntity
  8
0
100
AcDbLine
 62
7
  6
CONTINUOUS
 10
-32.564426
 20
-33.371239
 11
-33.084844
 21
-34.925
  0
LINE
  5
356
100
AcDbEntity
  8
0
100
AcDbLine
 62
7
  6
CONTINUOUS
 10
-33.205984
 20
-34.646609
 11
-32.67776
 21
-33.075
  0
LWPOLYLINE
  5
357
100
AcDbEntity
  8
RACCORDO
100
AcDbPolyline
 62
250
  6
CONTINUOUS
 90
10
 70
0
 10
-11.25
 20
35.2779672797
 10
-11.2537980706
 20
35.2668293489
 10
-11.265076875
 20
35.2560298427
 10
-11.2834937045
 20
35.2458968988
 10
-11.3084889645
 20
35.2367384014
 10
-11.3393031811
 20
35.2288326253
 10
-11.3750000802
 20
35.2224197814
 10
-11.41449503
 20
35.2176947193
 10
-11.4565879941
 20
35.214801007
 10
-11.5
 20
35.2138265672
  0
LWPOLYLINE
  5
358
100
AcDbEntity
  8
RACCORDO
100
AcDbPolyline
 62
7
  6
CONTINUOUS
 90
7
 70
0
 10
-2.8183394553
 20
25.1741529259
 10
-2.7698042219
 20
25.22251872
 10
-2.7445931735
 20
25.2479107143
 10
-2.7190302421
 20
25.2734246796
 10
-2.6933193619
 20
25.2988278155
 10
-2.6677255485
 20
25.3243529223
 10
-2.6424549217
 20
25.35
  0
LWPOLYLINE
  5
359
100
AcDbEntity
  8
RACCORDO
100
AcDbPolyline
 62
7
  6
CONTINUOUS
 90
3
 70
0
 10
-2.8626020609
 20
25.1298528608
 10
-2.8410620411
 20
25.1511791261
 10
-2.8183394553
 20
25.1741529259
  0
LWPOLYLINE
  5
35A
100
AcDbEntity
  8
RACCORDO
100
AcDbPolyline
 62
250
  6
CONTINUOUS
 90
13
 70
0
 10
3.2363184167
 20
26.0499999975
 10
3.2406807937
 20
26.0528268015
 10
3.2497517408
 20
26.0556085462
 10
3.2633866618
 20
26.0583008714
 10
3.2813681666
 20
26.0608608439
 10
3.3034095299
 20
26.0632476359
 10
3.3291592581
 20
26.0654231768
 10
3.3582067028
 20
26.067352767
 10
3.390088612
 20
26.0690056363
 10
3.4242965082
 20
26.0703554285
 10
3.4602848012
 20
26.0713806176
 10
3.4974794898
 20
26.0720648514
 10
3.5352873145
 20
26.0723972174
  0
LINE
  5
35B
100
AcDbEntity
  8
RACCORDO
100
AcDbLine
 62
250
  6
CONTINUOUS
 10
-35.6982592329
 20
-22.5
 11
-35.6434425815
 21
-22.4962019383
  0
LINE
  5
35C
100
AcDbEntity
  8
RACCORDO
100
AcDbLine
 62
7
  6
CONTINUOUS
 10
33.0246555577
 20
-22.0
 11
30.5650144074
 21
-22.0067103409
  0
LINE
  5
35D
100
AcDbEntity
  8
RACCORDO
100
AcDbLine
 62
7
  6
CONTINUOUS
 10
-27.6937402748
 20
-22.0
 11
-29.9565510664
 21
-22.0065411315
  0
LINE
  5
35E
100
AcDbEntity
  8
RACCORDO
100
AcDbLine
 62
7
  6
CONTINUOUS
 10
-27.6937409188
 20
-22.0
 11
-12.85
 21
-22.0
  0
LINE
  5
35F
100
AcDbEntity
  8
RACCORDO
100
AcDbLine
 62
7
  6
CONTINUOUS
 10
33.0246555577
 20
-22.0
 11
37.9841533632
 21
-22.0
  0
LINE
  5
360
100
AcDbEntity
  8
RACCORDO
100
AcDbLine
 62
7
  6
CONTINUOUS
 10
-29.9565510664
 20
-22.0065411315
 11
-37.9841533632
 21
-22.0
  0
LINE
  5
361
100
AcDbEntity
  8
RACCORDO
100
AcDbLine
 62
7
  6
CONTINUOUS
 10
30.5650144074
 20
-22.0067103409
 11
12.85
 21
-22.0
  0
LINE
  5
362
100
AcDbEntity
  8
RACCORDO
100
AcDbLine
 62
250
  6
CONTINUOUS
 10
35.6982592329
 20
-22.5
 11
35.6434424398
 21
-22.4962019133
  0
LWPOLYLINE
  5
363
100
AcDbEntity
  8
RACCORDO
100
AcDbPolyline
 62
250
  6
CONTINUOUS
 90
13
 70
0
 10
3.2363183032
 20
-26.0499998347
 10
3.240681023
 20
-26.0528270291
 10
3.2497526437
 20
-26.0556090906
 10
3.2633883714
 20
-26.058301654
 10
3.2813705759
 20
-26.0608617817
 10
3.3034123823
 20
-26.0632486527
 10
3.3291623376
 20
-26.0654242094
 10
3.3582097746
 20
-26.0673537635
 10
3.3900913717
 20
-26.0690065406
 10
3.4242987502
 20
-26.0703561699
 10
3.4602863777
 20
-26.0713811213
 10
3.4974802398
 20
-26.0720650516
 10
3.5352871119
 20
-26.0723970511
  0
LWPOLYLINE
  5
364
100
AcDbEntity
  8
RACCORDO
100
AcDbPolyline
 62
7
  6
CONTINUOUS
 90
7
 70
0
 10
0.3462217868
 20
-26.5669936926
 10
0.3653055753
 20
-26.5848513199
 10
0.3835739417
 20
-26.6029663647
 10
0.4010268858
 20
-26.6212707852
 10
0.4176644077
 20
-26.6396956055
 10
0.4334865075
 20
-26.6581711732
 10
0.448493185
 20
-26.6766274222
  0
LWPOLYLINE
  5
365
100
AcDbEntity
  8
RACCORDO
100
AcDbPolyline
 62
7
  6
CONTINUOUS
 90
4
 70
0
 10
-2.8626020609
 20
-25.1298528608
 10
-2.8410620411
 20
-25.1511791261
 10
-2.8183394553
 20
-25.1741529259
 10
-2.7698042219
 20
-25.22251872
  0
LWPOLYLINE
  5
366
100
AcDbEntity
  8
RACCORDO
100
AcDbPolyline
 62
7
  6
CONTINUOUS
 90
6
 70
0
 10
-2.7698042219
 20
-25.22251872
 10
-2.7445931735
 20
-25.2479107143
 10
-2.7190302421
 20
-25.2734246796
 10
-2.6933193619
 20
-25.2988278155
 10
-2.6677255485
 20
-25.3243529223
 10
-2.6424549217
 20
-25.35
  0
LWPOLYLINE
  5
367
100
AcDbEntity
  8
0
100
AcDbPolyline
 62
7
  6
CONTINUOUS
 90
10
 70
0
 10
0.5001977815
 20
-34.0742146773
 10
0.4752997082
 20
-34.0445559259
 10
0.4460815404
 20
-34.018368661
 10
0.4130634907
 20
-33.9961887154
 10
0.3771731546
 20
-33.9783111013
 10
0.3390075101
 20
-33.9645001693
 10
0.2986219177
 20
-33.9543152562
 10
0.2562781357
 20
-33.9474653902
 10
0.2124883461
 20
-33.9436913268
 10
0.1674873403
 20
-33.9426992481
  0
LWPOLYLINE
  5
368
100
AcDbEntity
  8
0
100
AcDbPolyline
 62
7
  6
CONTINUOUS
 90
34
 70
0
 10
0.4998499893
 20
-33.2991962268
 10
0.4738432311
 20
-33.266981663
 10
0.443641701
 20
-33.2383669606
 10
0.4095568277
 20
-33.2141539778
 10
0.372553305
 20
-33.1949839911
 10
0.3331510304
 20
-33.1807353726
 10
0.2911465846
 20
-33.1709995826
 10
0.2466512143
 20
-33.1655783277
 10
0.200608483
 20
-33.1642883852
 10
0.1538131702
 20
-33.1675051363
 10
0.1064024037
 20
-33.176252635
 10
0.0596668575
 20
-33.1911763993
 10
0.0160929805
 20
-33.2117456902
 10
-0.0233370828
 20
-33.2369495312
 10
-0.0588280695
 20
-33.2660457689
 10
-0.0902406742
 20
-33.2978732709
 10
-0.1177082617
 20
-33.3313145018
 10
-0.1418078249
 20
-33.3658163172
 10
-0.1631553958
 20
-33.4012893916
 10
-0.1820189136
 20
-33.4375030216
 10
-0.1985856798
 20
-33.4740815854
 10
-0.213143012
 20
-33.5109283023
 10
-0.2258788266
 20
-33.5478225938
 10
-0.2370022546
 20
-33.5846727736
 10
-0.2467571317
 20
-33.6216619862
 10
-0.2552727019
 20
-33.6587088828
 10
-0.2626551614
 20
-33.695760501
 10
-0.2690496081
 20
-33.733067935
 10
-0.2745457503
 20
-33.7707086057
 10
-0.2791942009
 20
-33.8085202113
 10
-0.2830447689
 20
-33.8464143846
 10
-0.2861468051
 20
-33.8843523829
 10
-0.2885533637
 20
-33.9223373467
 10
-0.290315158
 20
-33.960351556
  0
LWPOLYLINE
  5
369
100
AcDbEntity
  8
RACCORDO
100
AcDbPolyline
 62
250
  6
CONTINUOUS
 90
10
 70
0
 10
-11.25
 20
-35.2779672796
 10
-11.2537980965
 20
-35.2668293112
 10
-11.2650769636
 20
-35.2560297802
 10
-11.2834938698
 20
-35.2458968253
 10
-11.3084891967
 20
-35.2367383304
 10
-11.3393034516
 20
-35.228832567
 10
-11.3750003508
 20
-35.2224197413
 10
-11.4144952564
 20
-35.2176946981
 10
-11.4565881289
 20
-35.2148010009
 10
-11.5
 20
-35.2138265672
  0
LINE
  5
36A
100
AcDbEntity
  8
0
100
AcDbLine
 62
7
  6
CONTINUOUS
 10
-31.573059
 20
31.499971
 11
-32.825271
 21
35.400156
  0
LINE
  5
36B
100
AcDbEntity
  8
0
100
AcDbLine
 62
7
  6
CONTINUOUS
 10
-32.045232
 20
35.400156
 11
-31.18302
 21
32.714675
  0
LINE
  5
36C
100
AcDbEntity
  8
RACCORDO
100
AcDbLine
 62
250
  6
CONTINUOUS
 10
-11.2537980107
 20
-35.6548477426
 11
-11.2650768448
 21
-35.6013498465
  0
LINE
  5
36D
100
AcDbEntity
  8
0
100
AcDbLine
 62
7
  6
CONTINUOUS
 10
-18.243956
 20
-30.923411
 11
-18.243956
 21
-30.650256
  0
LINE
  5
36E
100
AcDbEntity
  8
0
100
AcDbLine
 62
7
  6
CONTINUOUS
 10
-17.975914
 20
-30.650256
 11
-17.975914
 21
-30.923411
  0
LINE
  5
36F
100
AcDbEntity
  8
0
100
AcDbLine
 62
7
  6
CONTINUOUS
 10
-17.436588
 20
-34.703419
 11
-17.436588
 21
-34.925
  0
LINE
  5
370
100
AcDbEntity
  8
0
100
AcDbLine
 62
7
  6
CONTINUOUS
 10
-16.653349
 20
-34.925
 11
-16.653349
 21
-34.180362
  0
LINE
  5
371
100
AcDbEntity
  8
0
100
AcDbLine
 62
7
  6
CONTINUOUS
 10
-16.40349
 20
-34.180362
 11
-16.40349
 21
-34.925
  0
LWPOLYLINE
  5
372
100
AcDbEntity
  8
0
100
AcDbPolyline
 62
7
  6
CONTINUOUS
 90
22
 70
0
 10
-18.5926787038
 20
-29.9984107664
 10
-18.5933796816
 20
-30.0676292799
 10
-18.5965655112
 20
-30.1371474299
 10
-18.6038019645
 20
-30.2067558963
 10
-18.6159557856
 20
-30.2764976336
 10
-18.6332389114
 20
-30.3455373726
 10
-18.6548990477
 20
-30.4124612824
 10
-18.6802049149
 20
-30.4769466028
 10
-18.7093219093
 20
-30.5387755517
 10
-18.7426289153
 20
-30.5967636975
 10
-18.7801729134
 20
-30.6501255448
 10
-18.8215805745
 20
-30.6986808634
 10
-18.8665009941
 20
-30.7422758335
 10
-18.91426258
 20
-30.7805018963
 10
-18.9643231933
 20
-30.8135866446
 10
-19.016789365
 20
-30.8421392419
 10
-19.0710539742
 20
-30.8661851431
 10
-19.126784372
 20
-30.8859056068
 10
-19.1847524416
 20
-30.9017042951
 10
-19.2450086424
 20
-30.9134979736
 10
-19.3068298455
 20
-30.9208645004
 10
-19.3698775956
 20
-30.9234107664
  0
LWPOLYLINE
  5
373
100
AcDbEntity
  8
RACCORDO
100
AcDbPolyline
 62
250
  6
CONTINUOUS
 90
46
 70
0
 10
-13.1354902087
 20
22.5000000015
 10
-13.1304514343
 20
22.534496078
 10
-13.1249238301
 20
22.5685967885
 10
-13.1189232442
 20
22.6022966585
 10
-13.1124899963
 20
22.635471062
 10
-13.105618992
 20
22.6682358066
 10
-13.0982413936
 20
22.7009432101
 10
-13.0903663129
 20
22.7335445397
 10
-13.0819847432
 20
22.7660730525
 10
-13.0729625348
 20
22.7989948221
 10
-13.0632795959
 20
22.8322871033
 10
-13.0529117839
 20
22.8659428014
 10
-13.0416729909
 20
22.9004372608
 10
-13.0294938014
 20
22.9358084471
 10
-13.0163470355
 20
22.9719643997
 10
-13.0020692799
 20
23.0091694082
 10
-12.9865469082
 20
23.0475008663
 10
-12.9697575242
 20
23.0867984802
 10
-12.9516603575
 20
23.1269605637
 10
-12.9321869713
 20
23.1679458441
 10
-12.9112752127
 20
23.2096951153
 10
-12.888901104
 20
23.2520780454
 10
-12.8650475367
 20
23.2949606677
 10
-12.8396138598
 20
23.3383604976
 10
-12.8124457133
 20
23.3823650301
 10
-12.7835018679
 20
23.4268551088
 10
-12.7526866607
 20
23.4717937774
 10
-12.7197346999
 20
23.5173646305
 10
-12.6845425764
 20
23.56348075
 10
-12.6470393465
 20
23.6100056999
 10
-12.6069748119
 20
23.6570113886
 10
-12.5641525547
 20
23.7044593316
 10
-12.5185715443
 20
23.7520809379
 10
-12.4702760573
 20
23.7995878192
 10
-12.4190015759
 20
23.8469968842
 10
-12.3648604976
 20
23.89394303
 10
-12.3085468361
 20
23.9396344654
 10
-12.2500073839
 20
23.9840099034
 10
-12.1893134165
 20
24.0268958645
 10
-12.1274914197
 20
24.0674983793
 10
-12.0646455063
 20
24.1057799302
 10
-12.0008598528
 20
24.1417474799
 10
-11.9372608353
 20
24.1748780105
 10
-11.8743371047
 20
24.2051074906
 10
-11.8118773241
 20
24.2327167026
 10
-11.7499999814
 20
24.2578061114
  0
LINE
  5
374
100
AcDbEntity
  8
0
100
AcDbLine
 62
7
  6
CONTINUOUS
 10
-29.863972
 20
-30.384844
 11
-30.057225
 21
-30.923411
  0
LINE
  5
375
100
AcDbEntity
  8
0
100
AcDbLine
 62
7
  6
CONTINUOUS
 10
-31.64963
 20
-34.386533
 11
-31.842904
 21
-34.925
  0
LINE
  5
376
100
AcDbEntity
  8
0
100
AcDbLine
 62
7
  6
CONTINUOUS
 10
-31.273331
 20
-33.34334
 11
-31.572308
 21
-34.164951
  0
LINE
  5
377
100
AcDbEntity
  8
0
100
AcDbLine
 62
7
  6
CONTINUOUS
 10
-29.487806
 20
-29.341738
 11
-29.7867
 21
-30.163253
  0
LINE
  5
378
100
AcDbEntity
  8
0
100
AcDbLine
 62
7
  6
CONTINUOUS
 10
-32.100542
 20
-34.925
 11
-31.404888
 21
-33.075
  0
LINE
  5
379
100
AcDbEntity
  8
0
100
AcDbLine
 62
7
  6
CONTINUOUS
 10
-30.314895
 20
-30.923411
 11
-29.619155
 21
-29.073411
  0
LWPOLYLINE
  5
37A
100
AcDbEntity
  8
0
100
AcDbPolyline
 62
7
  6
CONTINUOUS
 90
8
 70
0
 10
-3.3593177717
 20
24.806602752
 10
-3.3311844418
 20
24.8455559766
 10
-3.3062142995
 20
24.8816312783
 10
-3.2844661103
 20
24.9144418028
 10
-3.2668491783
 20
24.9438065174
 10
-3.2536665117
 20
24.9696114968
 10
-3.2446148294
 20
24.991799989
 10
-3.239693998
 20
25.0103467938
  0
LWPOLYLINE
  5
37B
100
AcDbEntity
  8
RACCORDO
100
AcDbPolyline
 62
7
  6
CONTINUOUS
 90
6
 70
0
 10
0.366253822
 20
26.3002319191
 10
0.3789665124
 20
26.3170950932
 10
0.3895680523
 20
26.3307161491
 10
0.3976920004
 20
26.3406757255
 10
0.4027669768
 20
26.3471418952
 10
0.4043650715
 20
26.35
  0
LWPOLYLINE
  5
37C
100
AcDbEntity
  8
RACCORDO
100
AcDbPolyline
 62
7
  6
CONTINUOUS
 90
7
 70
0
 10
0.1741669751
 20
26.05
 10
0.1950738736
 20
26.0777028751
 10
0.2162568352
 20
26.105223998
 10
0.2374694036
 20
26.1324973311
 10
0.2583627623
 20
26.1596556794
 10
0.2787403196
 20
26.1864200962
 10
0.3174301412
 20
26.2366251243
  0
LINE
  5
37D
100
AcDbEntity
  8
0
100
AcDbLine
 62
7
  6
CONTINUOUS
 10
-3.4606089613
 20
24.672278314
 11
-3.3593177717
 21
24.806602752
  0
LWPOLYLINE
  5
37E
100
AcDbEntity
  8
RACCORDO
100
AcDbPolyline
 62
7
  6
CONTINUOUS
 90
3
 70
0
 10
0.3174301412
 20
26.2366251243
 10
0.3350902049
 20
26.259890979
 10
0.366253822
 20
26.3002319191
  0
LWPOLYLINE
  5
37F
100
AcDbEntity
  8
0
100
AcDbPolyline
 62
7
  6
CONTINUOUS
 90
3
 70
0
 10
-3.5402599363
 20
24.5699332004
 10
-3.4991894333
 20
24.6220868408
 10
-3.4606089613
 20
24.672278314
  0
LWPOLYLINE
  5
380
100
AcDbEntity
  8
RACCORDO
100
AcDbPolyline
 62
7
  6
CONTINUOUS
 90
7
 70
0
 10
-2.9420437821
 20
25.0504111396
 10
-2.9375132124
 20
25.0561261126
 10
-2.9285462987
 20
25.0648512112
 10
-2.9158684864
 20
25.0765864353
 10
-2.9003061132
 20
25.0917859819
 10
-2.8824799434
 20
25.1099956541
 10
-2.8626020609
 20
25.1298528608
  0
LWPOLYLINE
  5
381
100
AcDbEntity
  8
RACCORDO
100
AcDbPolyline
 62
7
  6
CONTINUOUS
 90
7
 70
0
 10
0.4484994052
 20
26.6766274222
 10
0.4333631885
 20
26.6580322766
 10
0.4174626396
 20
26.6394746312
 10
0.4007977583
 20
26.621025447
 10
0.3833685447
 20
26.6027539694
 10
0.3651749988
 20
26.5847274872
 10
0.3462171206
 20
26.5670111071
  0
LWPOLYLINE
  5
382
100
AcDbEntity
  8
RACCORDO
100
AcDbPolyline
 62
250
  6
CONTINUOUS
 90
6
 70
0
 10
11.6915110977
 20
35.5261584224
 10
11.6606968876
 20
35.4953444049
 10
11.6249999854
 20
35.4703493211
 10
11.5855050238
 20
35.4519326331
 10
11.5434120373
 20
35.4406539219
 10
11.5
 20
35.4368558845
  0
LINE
  5
383
100
AcDbEntity
  8
RACCORDO
100
AcDbLine
 62
7
  6
CONTINUOUS
 10
-13.1499999525
 20
-15.7
 11
-13.85
 21
-15.7
  0
LINE
  5
384
100
AcDbEntity
  8
RACCORDO
100
AcDbLine
 62
250
  6
CONTINUOUS
 10
-12.85
 20
-16.0000432803
 11
-14.1453332627
 21
-15.9996527264
  0
LWPOLYLINE
  5
385
100
AcDbEntity
  8
RACCORDO
100
AcDbPolyline
 62
250
  6
CONTINUOUS
 90
6
 70
0
 10
11.6915111108
 20
-35.526158438
 10
11.6606969024
 20
-35.4953444174
 10
11.625
 20
-35.4703493295
 10
11.5855050358
 20
-35.4519326375
 10
11.5434120444
 20
-35.4406539231
 10
11.5
 20
-35.4368558845
  0
LWPOLYLINE
  5
386
100
AcDbEntity
  8
RACCORDO
100
AcDbPolyline
 62
7
  6
CONTINUOUS
 90
10
 70
0
 10
-14.0177525603
 20
-7.5104146716
 10
-13.9684630137
 20
-7.5597761752
 10
-13.9455466267
 20
-7.5831249919
 10
-13.9239521226
 20
-7.604654431
 10
-13.9041839403
 20
-7.6245702302
 10
-13.8867030674
 20
-7.6426665821
 10
-13.8718128265
 20
-7.6574111615
 10
-13.8601866309
 20
-7.668293092
 10
-13.8526671509
 20
-7.6758228399
 10
-13.85
 20
-7.679999997
  0
LWPOLYLINE
  5
387
100
AcDbEntity
  8
RACCORDO
100
AcDbPolyline
 62
7
  6
CONTINUOUS
 90
6
 70
0
 10
-14.1478521163
 20
-7.3797551897
 10
-14.1220272224
 20
-7.4060576288
 10
-14.0958633675
 20
-7.4322235034
 10
-14.0695835533
 20
-7.4582529119
 10
-14.0434705596
 20
-7.4844019553
 10
-14.0177525603
 20
-7.5104146716
  0
LWPOLYLINE
  5
388
100
AcDbEntity
  8
RACCORDO
100
AcDbPolyline
 62
7
  6
CONTINUOUS
 90
7
 70
0
 10
-2.9420437821
 20
-25.0504111396
 10
-2.9375132124
 20
-25.0561261126
 10
-2.9285462987
 20
-25.0648512112
 10
-2.9158684864
 20
-25.0765864353
 10
-2.9003061132
 20
-25.0917859819
 10
-2.8824799434
 20
-25.1099956541
 10
-2.8626020609
 20
-25.1298528608
  0
LWPOLYLINE
  5
389
100
AcDbEntity
  8
RACCORDO
100
AcDbPolyline
 62
7
  6
CONTINUOUS
 90
6
 70
0
 10
0.366156714
 20
-26.3003064327
 10
0.379155003
 20
-26.3169504593
 10
0.3895680523
 20
-26.3307161491
 10
0.3970856318
 20
-26.3411410084
 10
0.4020179715
 20
-26.3477166272
 10
0.4043650715
 20
-26.35
  0
LWPOLYLINE
  5
38A
100
AcDbEntity
  8
RACCORDO
100
AcDbPolyline
 62
7
  6
CONTINUOUS
 90
7
 70
0
 10
0.1741669751
 20
-26.05
 10
0.1955147941
 20
-26.0773645449
 10
0.2166156036
 20
-26.1049487053
 10
0.2374694036
 20
-26.1324973311
 10
0.2582947546
 20
-26.1597078635
 10
0.278873096
 20
-26.1863182133
 10
0.3173537666
 20
-26.2366837286
  0
LWPOLYLINE
  5
38B
100
AcDbEntity
  8
RACCORDO
100
AcDbPolyline
 62
7
  6
CONTINUOUS
 90
3
 70
0
 10
0.3173537666
 20
-26.2366837286
 10
0.3352560958
 20
-26.2597636865
 10
0.366156714
 20
-26.3003064327
  0
LWPOLYLINE
  5
38C
100
AcDbEntity
  8
0
100
AcDbPolyline
 62
7
  6
CONTINUOUS
 90
3
 70
0
 10
-3.4606176317
 20
-24.6722665257
 10
-3.4991947778
 20
-24.622079458
 10
-3.5402599812
 20
-24.5699332003
  0
LWPOLYLINE
  5
38D
100
AcDbEntity
  8
RACCORDO
100
AcDbPolyline
 62
250
  6
CONTINUOUS
 90
20
 70
0
 10
-0.3780054166
 20
-26.9582983357
 10
-0.3503535031
 20
-26.9967168403
 10
-0.3185007583
 20
-27.0322984202
 10
-0.2827923871
 20
-27.0645147001
 10
-0.2435242654
 20
-27.0930062939
 10
-0.2014269748
 20
-27.1170801559
 10
-0.1571226283
 20
-27.1363900334
 10
-0.1110276049
 20
-27.1508546299
 10
-0.0636651786
 20
-27.1602883617
 10
-0.0155944841
 20
-27.1645385158
 10
0.0326375772
 20
-27.1636128617
 10
0.0805232375
 20
-27.1575384736
 10
0.1275673151
 20
-27.1463019227
 10
0.1731472905
 20
-27.1300423882
 10
0.2165969297
 20
-27.1090855982
 10
0.2575222652
 20
-27.0836064561
 10
0.2953408886
 20
-27.053967576
 10
0.3293187264
 20
-27.0210304779
 10
0.3592259204
 20
-26.9853101798
 10
0.3848752617
 20
-26.9473018493
  0
LINE
  5
38E
100
AcDbEntity
  8
0
100
AcDbLine
 62
7
  6
CONTINUOUS
 10
-25.943234
 20
31.49998
 11
-26.680704
 21
34.071884
  0
LINE
  5
38F
100
AcDbEntity
  8
0
100
AcDbLine
 62
7
  6
CONTINUOUS
 10
-26.281539
 20
35.400156
 11
-25.553224
 21
32.860223
  0
LINE
  5
390
100
AcDbEntity
  8
RACCORDO
100
AcDbLine
 62
250
  6
CONTINUOUS
 10
-11.25
 20
-35.6982592329
 11
-11.2537980617
 21
-35.6434425815
  0
LWPOLYLINE
  5
391
100
AcDbEntity
  8
RACCORDO
100
AcDbPolyline
 62
250
  6
CONTINUOUS
 90
3
 70
0
 10
-13.1499999995
 20
-7.6799982945
 10
-13.1500443931
 20
-7.6787714642
 10
-13.1500876924
 20
-7.6751719722
  0
LINE
  5
392
100
AcDbEntity
  8
RACCORDO
100
AcDbLine
 62
250
  6
CONTINUOUS
 10
-13.1500876924
 20
-7.6751719722
 11
-13.1502444036
 21
-7.6402213245
  0
LINE
  5
393
100
AcDbEntity
  8
RACCORDO
100
AcDbLine
 62
250
  6
CONTINUOUS
 10
-14.145333395
 20
-15.9996527482
 11
-14.1478521163
 21
-7.3797551897
  0
LINE
  5
394
100
AcDbEntity
  8
RACCORDO
100
AcDbLine
 62
250
  6
CONTINUOUS
 10
-13.1484949652
 20
0.0007348257
 11
-13.1562725346
 21
22.0000000001
  0
LINE
  5
395
100
AcDbEntity
  8
RACCORDO
100
AcDbLine
 62
7
  6
CONTINUOUS
 10
-13.85
 20
-15.7
 11
-13.85
 21
-7.68
  0
LINE
  5
396
100
AcDbEntity
  8
RACCORDO
100
AcDbLine
 62
7
  6
CONTINUOUS
 10
-12.85
 20
22.25
 11
-12.85
 21
-22.25
  0
LINE
  5
397
100
AcDbEntity
  8
RACCORDO
100
AcDbLine
 62
7
  6
CONTINUOUS
 10
-11.75
 20
-37.9841533632
 11
-11.75
 21
-23.923368794
  0
LINE
  5
398
100
AcDbEntity
  8
RACCORDO
100
AcDbLine
 62
7
  6
CONTINUOUS
 10
-11.75
 20
23.923368794
 11
-11.75
 21
37.9841533632
  0
LINE
  5
399
100
AcDbEntity
  8
RACCORDO
100
AcDbLine
 62
7
  6
CONTINUOUS
 10
-11.25
 20
37.9841533632
 11
-11.25
 21
24.0761663039
  0
LINE
  5
39A
100
AcDbEntity
  8
SUPERFICI
100
AcDbLine
 62
7
  6
CONTINUOUS
 10
-11.25
 20
22.2
 11
-11.25
 21
-22.2
  0
LINE
  5
39B
100
AcDbEntity
  8
RACCORDO
100
AcDbLine
 62
7
  6
CONTINUOUS
 10
-11.25
 20
-24.0761663039
 11
-11.25
 21
-37.9841533632
  0
LINE
  5
39C
100
AcDbEntity
  8
RACCORDO
100
AcDbLine
 62
250
  6
CONTINUOUS
 10
-10.9500889963
 20
24.4084885477
 11
-10.9500119386
 21
24.1026597167
  0
LINE
  5
39D
100
AcDbEntity
  8
RACCORDO
100
AcDbLine
 62
250
  6
CONTINUOUS
 10
-13.1502444036
 20
-7.6402213245
 11
-13.1484945677
 21
0.0007348257
  0
LWPOLYLINE
  5
39E
100
AcDbEntity
  8
RACCORDO
100
AcDbPolyline
 62
250
  6
CONTINUOUS
 90
3
 70
0
 10
-10.9500889963
 20
-24.4084885472
 10
-10.9500119404
 20
-24.1026597139
 10
-10.95
 20
-24.1
  0
LINE
  5
39F
100
AcDbEntity
  8
RACCORDO
100
AcDbLine
 62
250
  6
CONTINUOUS
 10
-13.152762015
 20
-15.8657452488
 11
-13.1562776421
 21
-22.0000000003
  0
LINE
  5
3A0
100
AcDbEntity
  8
RACCORDO
100
AcDbLine
 62
250
  6
CONTINUOUS
 10
-13.152210587
 20
-15.7905769019
 11
-13.152762015
 21
-15.8657452488
  0
LINE
  5
3A1
100
AcDbEntity
  8
RACCORDO
100
AcDbLine
 62
250
  6
CONTINUOUS
 10
-13.151778478
 20
-15.7548164433
 11
-13.152210587
 21
-15.7905769019
  0
LINE
  5
3A2
100
AcDbEntity
  8
RACCORDO
100
AcDbLine
 62
250
  6
CONTINUOUS
 10
-13.1514616455
 20
-15.7357937877
 11
-13.151778478
 21
-15.7548164433
  0
LINE
  5
3A3
100
AcDbEntity
  8
RACCORDO
100
AcDbLine
 62
250
  6
CONTINUOUS
 10
-11.25
 20
35.6982592329
 11
-11.2537980633
 21
35.6434425729
  0
LWPOLYLINE
  5
3A4
100
AcDbEntity
  8
RACCORDO
100
AcDbPolyline
 62
250
  6
CONTINUOUS
 90
6
 70
0
 10
-0.3848752617
 20
26.9473018493
 10
-0.4059986505
 20
26.9080678876
 10
-0.4226855648
 20
26.8683069225
 10
-0.4351612851
 20
26.8283857692
 10
-0.4436633186
 20
26.7888881143
 10
-0.448512276
 20
26.7502474741
  0
LINE
  5
3A5
100
AcDbEntity
  8
RACCORDO
100
AcDbLine
 62
250
  6
CONTINUOUS
 10
-35.6548475539
 20
-22.496201956
 11
-35.6013498465
 21
-22.4849231552
  0
LINE
  5
3A6
100
AcDbEntity
  8
RACCORDO
100
AcDbLine
 62
250
  6
CONTINUOUS
 10
35.654847453
 20
-22.4962019383
 11
35.6013496128
 21
-22.4849230701
  0
LWPOLYLINE
  5
3A7
100
AcDbEntity
  8
0
100
AcDbPolyline
 62
7
  6
CONTINUOUS
 90
7
 70
0
 10
-3.253669954
 20
-24.9696065838
 10
-3.2668533499
 20
-24.9437997635
 10
-3.2844697369
 20
-24.9144354914
 10
-3.3062166948
 20
-24.8816273594
 10
-3.3311866843
 20
-24.8455533117
 10
-3.3593225459
 20
-24.8065972124
 10
-3.4606176317
 20
-24.6722665257
  0
LWPOLYLINE
  5
3A8
100
AcDbEntity
  8
RACCORDO
100
AcDbPolyline
 62
250
  6
CONTINUOUS
 90
3
 70
0
 10
-0.4193570145
 20
-26.8771751332
 10
-0.4010078745
 20
-26.9182204198
 10
-0.3780054166
 20
-26.9582983357
  0
LINE
  5
3A9
100
AcDbEntity
  8
RACCORDO
100
AcDbLine
 62
250
  6
CONTINUOUS
 10
-11.75
 20
35.6982592329
 11
-11.7462019383
 21
35.6434425815
  0
LINE
  5
3AA
100
AcDbEntity
  8
RACCORDO
100
AcDbLine
 62
250
  6
CONTINUOUS
 10
-11.75
 20
-35.6982592329
 11
-11.7462019367
 21
-35.6434425729
  0
LINE
  5
3AB
100
AcDbEntity
  8
RACCORDO
100
AcDbLine
 62
7
  6
CONTINUOUS
 10
-0.2897777479
 20
26.7776457135
 11
-0.4043650715
 21
26.35
  0
LINE
  5
3AC
100
AcDbEntity
  8
0
100
AcDbLine
 62
7
  6
CONTINUOUS
 10
-20.051993
 20
-34.386533
 11
-20.245281
 21
-34.925
  0
LINE
  5
3AD
100
AcDbEntity
  8
0
100
AcDbLine
 62
7
  6
CONTINUOUS
 10
-19.675723
 20
-33.34334
 11
-19.974686
 21
-34.164951
  0
LWPOLYLINE
  5
3AE
100
AcDbEntity
  8
RACCORDO
100
AcDbPolyline
 62
250
  6
CONTINUOUS
 90
6
 70
0
 10
-35.526158438
 20
-22.4415111108
 10
-35.4953444174
 20
-22.4106969024
 10
-35.4703493295
 20
-22.375
 10
-35.4519326375
 20
-22.3355050358
 10
-35.4406539231
 20
-22.2934120444
 10
-35.4368558845
 20
-22.25
  0
LINE
  5
3AF
100
AcDbEntity
  8
0
100
AcDbLine
 62
7
  6
CONTINUOUS
 10
22.9625
 20
25.7723404288
 11
22.8406250465
 21
25.6893617153
  0
LINE
  5
3B0
100
AcDbEntity
  8
0
100
AcDbLine
 62
7
  6
CONTINUOUS
 10
24.035000093
 20
25.7723404288
 11
23.913125
 21
25.6893617153
  0
LINE
  5
3B1
100
AcDbEntity
  8
0
100
AcDbLine
 62
7
  6
CONTINUOUS
 10
23.255
 20
24.5276595736
 11
23.3768749535
 21
24.6106382944
  0
LINE
  5
3B2
100
AcDbEntity
  8
0
100
AcDbLine
 62
7
  6
CONTINUOUS
 10
26.131249907
 20
25.7723404288
 11
26.03375
 21
25.7170212865
  0
LINE
  5
3B3
100
AcDbEntity
  8
0
100
AcDbLine
 62
7
  6
CONTINUOUS
 10
28.325000186
 20
25.1638297856
 11
28.276249814
 21
25.1361702144
  0
LINE
  5
3B4
100
AcDbEntity
  8
0
100
AcDbLine
 62
7
  6
CONTINUOUS
 10
28.325000186
 20
25.0255319297
 11
28.422499814
 21
25.0808510721
  0
LINE
  5
3B5
100
AcDbEntity
  8
0
100
AcDbLine
 62
7
  6
CONTINUOUS
 10
28.8125
 20
25.1638297856
 11
28.861249814
 21
25.1914893568
  0
LINE
  5
3B6
100
AcDbEntity
  8
0
100
AcDbLine
 62
7
  6
CONTINUOUS
 10
28.8125
 20
24.7212765887
 11
28.714999814
 21
24.6659574464
  0
LWPOLYLINE
  5
3B7
100
AcDbEntity
  8
RACCORDO
100
AcDbPolyline
 62
250
  6
CONTINUOUS
 90
10
 70
0
 10
35.2779672797
 20
22.5
 10
35.2668293619
 20
22.4962019383
 10
35.2560298641
 20
22.4849231554
 10
35.2458969236
 20
22.4665063512
 10
35.2367384245
 20
22.4415111112
 10
35.2288326434
 20
22.4106969029
 10
35.2224197933
 20
22.3750000005
 10
35.2176947255
 20
22.3355050362
 10
35.2148010087
 20
22.2934120446
 10
35.2138265672
 20
22.25
  0
LINE
  5
3B8
100
AcDbEntity
  8
RACCORDO
100
AcDbLine
 62
7
  6
CONTINUOUS
 10
-13.85
 20
-7.68
 11
-13.1499999998
 21
-7.68
  0
LINE
  5
3B9
100
AcDbEntity
  8
RACCORDO
100
AcDbLine
 62
250
  6
CONTINUOUS
 10
-14.1478519742
 20
-7.3797552168
 11
-12.85
 21
-7.3800452521
  0
LWPOLYLINE
  5
3BA
100
AcDbEntity
  8
RACCORDO
100
AcDbPolyline
 62
250
  6
CONTINUOUS
 90
10
 70
0
 10
35.2779672797
 20
-22.5
 10
35.2668293393
 20
-22.4962019227
 10
35.256029827
 20
-22.4849231026
 10
35.2458968805
 20
-22.4665062544
 10
35.2367383843
 20
-22.4415109797
 10
35.228832612
 20
-22.4106967569
 10
35.2224197725
 20
-22.3749998602
 10
35.2176947148
 20
-22.3355049211
 10
35.2148010057
 20
-22.2934119772
 10
35.2138265672
 20
-22.25
  0
LWPOLYLINE
  5
3BB
100
AcDbEntity
  8
RACCORDO
100
AcDbPolyline
 62
250
  6
CONTINUOUS
 90
6
 70
0
 10
-35.5261581796
 20
22.4415108939
 10
-35.4953442109
 20
22.4106966564
 10
-35.4703491904
 20
22.3749997591
 10
-35.4519325648
 20
22.3355048363
 10
-35.4406539023
 20
22.2934119266
 10
-35.4368558845
 20
22.25
  0
LINE
  5
3BC
100
AcDbEntity
  8
0
100
AcDbLine
 62
7
  6
CONTINUOUS
 10
-20.621245
 20
31.49999
 11
-20.867491
 21
32.266984
  0
LINE
  5
3BD
100
AcDbEntity
  8
0
100
AcDbLine
 62
7
  6
CONTINUOUS
 10
-21.10543
 20
33.008013
 11
-21.483467
 21
34.185462
  0
LINE
  5
3BE
100
AcDbEntity
  8
0
100
AcDbLine
 62
7
  6
CONTINUOUS
 10
-21.093428
 20
35.400166
 11
-19.841206
 21
31.49998
  0
LWPOLYLINE
  5
3BF
100
AcDbEntity
  8
0
100
AcDbPolyline
 62
7
  6
CONTINUOUS
 90
13
 70
0
 10
-0.4994680561
 20
-34.6165320003
 10
-0.522270645
 20
-34.5351715466
 10
-0.5393748153
 20
-34.4513114694
 10
-0.5515297121
 20
-34.3654841088
 10
-0.5593729255
 20
-34.2779707988
 10
-0.5634172851
 20
-34.189101633
 10
-0.5641203309
 20
-34.0992899217
 10
-0.5620187429
 20
-34.0083801251
 10
-0.5569149456
 20
-33.9167363284
 10
-0.5484773616
 20
-33.825531807
 10
-0.5363684473
 20
-33.7352858556
 10
-0.5201215903
 20
-33.6458918173
 10
-0.4992378842
 20
-33.5576655616
  0
LINE
  5
3C0
100
AcDbEntity
  8
RACCORDO
100
AcDbLine
 62
7
  6
CONTINUOUS
 10
-0.4043650715
 20
-26.35
 11
-0.2897777479
 21
-26.7776457135
  0
LWPOLYLINE
  5
3C1
100
AcDbEntity
  8
0
100
AcDbPolyline
 62
7
  6
CONTINUOUS
 90
3
 70
0
 10
-3.2396939238
 20
-25.0103473932
 10
-3.2446168565
 20
-24.991797709
 10
-3.253669954
 20
-24.9696065838
  0
LWPOLYLINE
  5
3C2
100
AcDbEntity
  8
RACCORDO
100
AcDbPolyline
 62
250
  6
CONTINUOUS
 90
13
 70
0
 10
-3.2363184186
 20
-26.05
 10
-3.2334323678
 20
-26.0890463033
 10
-3.2254544581
 20
-26.1275054431
 10
-3.212484413
 20
-26.1647144049
 10
-3.1946808482
 20
-26.2000583363
 10
-3.1723346904
 20
-26.2328763594
 10
-3.145907695
 20
-26.2625009664
 10
-3.1158681171
 20
-26.2884236889
 10
-3.082730358
 20
-26.3102148583
 10
-3.047171985
 20
-26.3274770745
 10
-3.0098532551
 20
-26.3399509263
 10
-2.9713842658
 20
-26.3474851707
 10
-2.9324185643
 20
-26.35
  0
LWPOLYLINE
  5
3C3
100
AcDbEntity
  8
RACCORDO
100
AcDbPolyline
 62
250
  6
CONTINUOUS
 90
13
 70
0
 10
-2.9420437821
 20
-26.05
 10
-2.9395841707
 20
-26.0883630787
 10
-2.9321828037
 20
-26.1263361036
 10
-2.9198692649
 20
-26.1632691894
 10
-2.9027190839
 20
-26.1985816945
 10
-2.8809601798
 20
-26.2315461473
 10
-2.8550637945
 20
-26.2613606279
 10
-2.825543601
 20
-26.2874583464
 10
-2.7928606027
 20
-26.3094532684
 10
-2.757583779
 20
-26.3269637906
 10
-2.7203247889
 20
-26.3396888492
 10
-2.6817262787
 20
-26.3474113727
 10
-2.6424549217
 20
-26.35
  0
LINE
  5
3C4
100
AcDbEntity
  8
DRAFT
100
AcDbLine
 62
7
  6
CONTINUOUS
 10
-3.1472569647
 20
-25.2
 11
-3.1551181316
 21
-25.05
  0
LINE
  5
3C5
100
AcDbEntity
  8
DRAFT
100
AcDbLine
 62
7
  6
CONTINUOUS
 10
-3.1210530751
 20
-25.2
 11
-3.128914242
 21
-25.05
  0
LINE
  5
3C6
100
AcDbEntity
  8
DRAFT
100
AcDbLine
 62
7
  6
CONTINUOUS
 10
-3.0948491854
 20
-25.2
 11
-3.1027103523
 21
-25.05
  0
LINE
  5
3C7
100
AcDbEntity
  8
DRAFT
100
AcDbLine
 62
7
  6
CONTINUOUS
 10
-3.0686452958
 20
-25.2
 11
-3.0765064627
 21
-25.05
  0
LINE
  5
3C8
100
AcDbEntity
  8
DRAFT
100
AcDbLine
 62
7
  6
CONTINUOUS
 10
-3.0424414061
 20
-25.2
 11
-3.050302573
 21
-25.05
  0
LINE
  5
3C9
100
AcDbEntity
  8
DRAFT
100
AcDbLine
 62
7
  6
CONTINUOUS
 10
-3.0162375165
 20
-25.2
 11
-3.0240986834
 21
-25.05
  0
LINE
  5
3CA
100
AcDbEntity
  8
DRAFT
100
AcDbLine
 62
7
  6
CONTINUOUS
 10
-2.9900336269
 20
-25.2
 11
-2.9978947937
 21
-25.05
  0
LINE
  5
3CB
100
AcDbEntity
  8
DRAFT
100
AcDbLine
 62
7
  6
CONTINUOUS
 10
-2.9638297372
 20
-25.2
 11
-2.9716909041
 21
-25.05
  0
LWPOLYLINE
  5
3CC
100
AcDbEntity
  8
RACCORDO
100
AcDbPolyline
 62
250
  6
CONTINUOUS
 90
3
 70
0
 10
-2.9324185643
 20
-26.35
 10
-2.9323226936
 20
-26.3528671329
 10
-2.9322286553
 20
-26.3614137352
  0
LINE
  5
3CD
100
AcDbEntity
  8
0
100
AcDbLine
 62
250
  6
CONTINUOUS
 10
-3.5352873144
 20
-26.0723972174
 11
-3.5402599841
 21
-24.5699328432
  0
LINE
  5
3CE
100
AcDbEntity
  8
0
100
AcDbLine
 62
250
  6
CONTINUOUS
 10
-3.2396939238
 20
-25.0103473932
 11
-3.2363163899
 21
-26.05
  0
LINE
  5
3CF
100
AcDbEntity
  8
0
100
AcDbLine
 62
7
  6
CONTINUOUS
 10
-3.744397
 20
-33.556466
 11
-3.744397
 21
-33.3543103887
  0
LINE
  5
3D0
100
AcDbEntity
  8
0
100
AcDbLine
 62
250
  6
CONTINUOUS
 10
-3.239693998
 20
25.0103467938
 11
-3.2363163897
 21
26.05
  0
LINE
  5
3D1
100
AcDbEntity
  8
0
100
AcDbLine
 62
250
  6
CONTINUOUS
 10
-3.5402599395
 20
24.5699328086
 11
-3.5352871119
 21
26.0723970511
  0
LWPOLYLINE
  5
3D2
100
AcDbEntity
  8
RACCORDO
100
AcDbPolyline
 62
250
  6
CONTINUOUS
 90
25
 70
0
 10
-3.5352860471
 20
26.0723971924
 10
-3.534608307
 20
26.0986924067
 10
-3.5327155931
 20
26.1258482917
 10
-3.5294863575
 20
26.1538015132
 10
-3.5248048241
 20
26.1824400804
 10
-3.5185506072
 20
26.2117150546
 10
-3.51057629
 20
26.2416346688
 10
-3.5007495992
 20
26.2720865176
 10
-3.4889449101
 20
26.3029313658
 10
-3.4749961955
 20
26.3341014901
 10
-3.4587808567
 20
26.3654202912
 10
-3.4401784595
 20
26.3966970386
 10
-3.4190107559
 20
26.4277941778
 10
-3.3952042418
 20
26.4584400772
 10
-3.3686473649
 20
26.4884000369
 10
-3.3390935403
 20
26.5175174196
 10
-3.3064940161
 20
26.5454540126
 10
-3.2707992793
 20
26.5718422821
 10
-3.2317698517
 20
26.596373186
 10
-3.1894030971
 20
26.6186218556
 10
-3.1438045439
 20
26.6380623013
 10
-3.0949824301
 20
26.6541455383
 10
-3.0431270291
 20
26.6663264033
 10
-2.9885851279
 20
26.6740701669
 10
-2.9317262587
 20
26.676838846
  0
LWPOLYLINE
  5
3D3
100
AcDbEntity
  8
RACCORDO
100
AcDbPolyline
 62
250
  6
CONTINUOUS
 90
4
 70
0
 10
-2.9324185643
 20
26.35
 10
-2.9323226942
 20
26.3528671075
 10
-2.9322286567
 20
26.3614136464
 10
-2.9320531997
 20
26.3947862555
  0
LINE
  5
3D4
100
AcDbEntity
  8
DRAFT
100
AcDbLine
 62
7
  6
CONTINUOUS
 10
-3.1551181316
 20
25.05
 11
-3.1472569647
 21
25.2
  0
LINE
  5
3D5
100
AcDbEntity
  8
DRAFT
100
AcDbLine
 62
7
  6
CONTINUOUS
 10
-3.128914242
 20
25.05
 11
-3.1210530751
 21
25.2
  0
LINE
  5
3D6
100
AcDbEntity
  8
DRAFT
100
AcDbLine
 62
7
  6
CONTINUOUS
 10
-3.1027103523
 20
25.05
 11
-3.0948491854
 21
25.2
  0
LINE
  5
3D7
100
AcDbEntity
  8
DRAFT
100
AcDbLine
 62
7
  6
CONTINUOUS
 10
-3.0765064627
 20
25.05
 11
-3.0686452958
 21
25.2
  0
LINE
  5
3D8
100
AcDbEntity
  8
DRAFT
100
AcDbLine
 62
7
  6
CONTINUOUS
 10
-3.050302573
 20
25.05
 11
-3.0424414061
 21
25.2
  0
LINE
  5
3D9
100
AcDbEntity
  8
DRAFT
100
AcDbLine
 62
7
  6
CONTINUOUS
 10
-3.0240986834
 20
25.05
 11
-3.0162375165
 21
25.2
  0
LINE
  5
3DA
100
AcDbEntity
  8
DRAFT
100
AcDbLine
 62
7
  6
CONTINUOUS
 10
-2.9978947937
 20
25.05
 11
-2.9900336269
 21
25.2
  0
LINE
  5
3DB
100
AcDbEntity
  8
DRAFT
100
AcDbLine
 62
7
  6
CONTINUOUS
 10
-2.9716909041
 20
25.05
 11
-2.9638297372
 21
25.2
  0
LWPOLYLINE
  5
3DC
100
AcDbEntity
  8
0
100
AcDbPolyline
 62
7
  6
CONTINUOUS
 90
7
 70
0
 10
-3.239693998
 20
25.0103467938
 10
-3.2380399147
 20
25.0224368051
 10
-3.2363656518
 20
25.0323343589
 10
-3.2346712093
 20
25.0400394553
 10
-3.2329565872
 20
25.0455520943
 10
-3.2312217856
 20
25.0488722758
 10
-3.2294668044
 20
25.05
  0
LINE
  5
3DD
100
AcDbEntity
  8
RACCORDO
100
AcDbLine
 62
250
  6
CONTINUOUS
 10
0.0
 20
26.7
 11
-0.1741669751
 21
26.05
  0
LINE
  5
3DE
100
AcDbEntity
  8
0
100
AcDbLine
 62
7
  6
CONTINUOUS
 10
-20.502905
 20
-34.925
 11
-19.807161
 21
-33.075
  0
LWPOLYLINE
  5
3DF
100
AcDbEntity
  8
RACCORDO
100
AcDbPolyline
 62
250
  6
CONTINUOUS
 90
9
 70
0
 10
-13.149999905
 20
-15.700000485
 10
-13.1501520081
 20
-15.7003654058
 10
-13.1503082584
 20
-15.7015039111
 10
-13.1504682039
 20
-15.7034798869
 10
-13.1506316945
 20
-15.7063623189
 10
-13.1507977458
 20
-15.7102094735
 10
-13.1509645872
 20
-15.71504692
 10
-13.1511315563
 20
-15.7209113799
 10
-13.1514616455
 20
-15.7357937877
  0
LWPOLYLINE
  5
3E0
100
AcDbEntity
  8
RACCORDO
100
AcDbPolyline
 62
250
  6
CONTINUOUS
 90
8
 70
0
 10
11.7349231552
 20
35.612754718
 10
11.7165063509
 20
35.5732599945
 10
11.6915111108
 20
35.5375633095
 10
11.6606969024
 20
35.5067492889
 10
11.625
 20
35.481754201
 10
11.5855050358
 20
35.463337509
 10
11.5434120444
 20
35.4520587946
 10
11.5
 20
35.448260756
  0
LWPOLYLINE
  5
3E1
100
AcDbEntity
  8
RACCORDO
100
AcDbPolyline
 62
250
  6
CONTINUOUS
 90
3
 70
0
 10
11.7349231501
 20
35.6013498324
 10
11.7165063414
 20
35.5618551065
 10
11.6915110977
 20
35.5261584224
  0
LINE
  5
3E2
100
AcDbEntity
  8
0
100
AcDbLine
 62
7
  6
CONTINUOUS
 10
22.9137500465
 20
25.5787234306
 11
22.9868750465
 21
25.634042573
  0
LINE
  5
3E3
100
AcDbEntity
  8
0
100
AcDbLine
 62
7
  6
CONTINUOUS
 10
23.98625
 20
25.5787234306
 11
24.059375
 21
25.634042573
  0
LINE
  5
3E4
100
AcDbEntity
  8
0
100
AcDbLine
 62
7
  6
CONTINUOUS
 10
23.3037499535
 20
24.7212765887
 11
23.2306249535
 21
24.6659574464
  0
LINE
  5
3E5
100
AcDbEntity
  8
0
100
AcDbLine
 62
7
  6
CONTINUOUS
 10
24.376249907
 20
24.7212765887
 11
24.303124907
 21
24.6659574464
  0
LINE
  5
3E6
100
AcDbEntity
  8
0
100
AcDbLine
 62
7
  6
CONTINUOUS
 10
26.082500093
 20
25.5787234306
 11
26.155625093
 21
25.634042573
  0
LINE
  5
3E7
100
AcDbEntity
  8
0
100
AcDbLine
 62
7
  6
CONTINUOUS
 10
25.497500093
 20
24.7212765887
 11
25.424375093
 21
24.6659574464
  0
LINE
  5
3E8
100
AcDbEntity
  8
0
100
AcDbLine
 62
7
  6
CONTINUOUS
 10
25.058750093
 20
25.3021276414
 11
24.936875
 21
25.2191489279
  0
LINE
  5
3E9
100
AcDbEntity
  8
0
100
AcDbLine
 62
7
  6
CONTINUOUS
 10
24.327500093
 20
24.5276595736
 11
24.449374907
 21
24.6106382944
  0
LINE
  5
3EA
100
AcDbEntity
  8
0
100
AcDbLine
 62
7
  6
CONTINUOUS
 10
25.44875
 20
24.5276595736
 11
25.570625093
 21
24.6106382944
  0
LINE
  5
3EB
100
AcDbEntity
  8
0
100
AcDbLine
 62
7
  6
CONTINUOUS
 10
28.398125186
 20
25.7723404288
 11
28.276249814
 21
25.6893617153
  0
LINE
  5
3EC
100
AcDbEntity
  8
0
100
AcDbLine
 62
7
  6
CONTINUOUS
 10
28.763750186
 20
24.5276595736
 11
28.885625
 21
24.6106382944
  0
LWPOLYLINE
  5
3ED
100
AcDbEntity
  8
RACCORDO
100
AcDbPolyline
 62
250
  6
CONTINUOUS
 90
3
 70
0
 10
35.6013498465
 20
22.4849231552
 10
35.561855123
 20
22.4665063509
 10
35.526158438
 20
22.4415111108
  0
LWPOLYLINE
  5
3EE
100
AcDbEntity
  8
RACCORDO
100
AcDbPolyline
 62
250
  6
CONTINUOUS
 90
8
 70
0
 10
35.6127548851
 20
22.484923216
 10
35.5732601901
 20
22.4665064639
 10
35.5375634971
 20
22.4415112682
 10
35.506749441
 20
22.4106970837
 10
35.4817543047
 20
22.3750001796
 10
35.4633375634
 20
22.3355051854
 10
35.4520588103
 20
22.2934121331
 10
35.448260756
 20
22.25
  0
LINE
  5
3EF
100
AcDbEntity
  8
0
100
AcDbLine
 62
7
  6
CONTINUOUS
 10
40.0
 20
-3.6749773271
 11
37.997255308
 21
-3.6749773271
  0
LINE
  5
3F0
100
AcDbEntity
  8
0
100
AcDbLine
 62
7
  6
CONTINUOUS
 10
-37.997255308
 20
-3.6749773271
 11
-40.0
 21
-3.6749773271
  0
LINE
  5
3F1
100
AcDbEntity
  8
0
100
AcDbLine
 62
7
  6
CONTINUOUS
 10
39.8951844414
 20
-3.5
 11
37.8924397494
 21
-3.5
  0
LINE
  5
3F2
100
AcDbEntity
  8
0
100
AcDbLine
 62
7
  6
CONTINUOUS
 10
-37.8924397494
 20
-3.5
 11
-39.8951844414
 21
-3.5
  0
LWPOLYLINE
  5
3F3
100
AcDbEntity
  8
RACCORDO
100
AcDbPolyline
 62
250
  6
CONTINUOUS
 90
3
 70
0
 10
35.6013496128
 20
-22.4849230701
 10
35.5618548505
 20
-22.4665061937
 10
35.5261581796
 20
-22.4415108939
  0
LWPOLYLINE
  5
3F4
100
AcDbEntity
  8
RACCORDO
100
AcDbPolyline
 62
250
  6
CONTINUOUS
 90
8
 70
0
 10
35.612754718
 20
-22.4849231552
 10
35.5732599945
 20
-22.4665063509
 10
35.5375633095
 20
-22.4415111108
 10
35.5067492889
 20
-22.4106969024
 10
35.481754201
 20
-22.375
 10
35.463337509
 20
-22.3355050358
 10
35.4520587946
 20
-22.2934120444
 10
35.448260756
 20
-22.25
  0
LINE
  5
3F5
100
AcDbEntity
  8
0
100
AcDbLine
 62
7
  6
CONTINUOUS
 10
29.401602
 20
-30.622365
 11
28.131859
 21
-29.552345
  0
LINE
  5
3F6
100
AcDbEntity
  8
0
100
AcDbLine
 62
7
  6
CONTINUOUS
 10
28.073252
 20
-28.917753
 11
29.401602
 21
-30.037162
  0
LWPOLYLINE
  5
3F7
100
AcDbEntity
  8
RACCORDO
100
AcDbPolyline
 62
250
  6
CONTINUOUS
 90
8
 70
0
 10
11.7349233296
 20
-35.6127551973
 10
11.7165066749
 20
-35.5732605555
 10
11.6915115615
 20
-35.5375638467
 10
11.6606974206
 20
-35.5067497237
 10
11.6250005128
 20
-35.4817544971
 10
11.5855054628
 20
-35.4633376644
 10
11.5434122975
 20
-35.4520588392
 10
11.5
 20
-35.448260756
  0
LWPOLYLINE
  5
3F8
100
AcDbEntity
  8
RACCORDO
100
AcDbPolyline
 62
250
  6
CONTINUOUS
 90
3
 70
0
 10
11.7349231552
 20
-35.6013498465
 10
11.7165063509
 20
-35.561855123
 10
11.6915111108
 20
-35.526158438
  0
LINE
  5
3F9
100
AcDbEntity
  8
RACCORDO
100
AcDbLine
 62
250
  6
CONTINUOUS
 10
-0.1741669751
 20
-26.05
 11
0.0
 21
-26.7
  0
LWPOLYLINE
  5
3FA
100
AcDbEntity
  8
0
100
AcDbPolyline
 62
7
  6
CONTINUOUS
 90
7
 70
0
 10
0.5732757779
 20
-33.493103
 10
0.5659021251
 20
-33.4580555375
 10
0.5569315602
 20
-33.4237949322
 10
0.5461301029
 20
-33.3904857764
 10
0.5332239506
 20
-33.3583684095
 10
0.5179028615
 20
-33.3277794081
 10
0.4998499893
 20
-33.2991962268
  0
LINE
  5
3FB
100
AcDbEntity
  8
0
100
AcDbLine
 62
7
  6
CONTINUOUS
 10
-3.2380398508
 20
-25.0224372256
 11
-3.2396939238
 21
-25.0103473932
  0
LINE
  5
3FC
100
AcDbEntity
  8
DRAFT
100
AcDbLine
 62
7
  6
CONTINUOUS
 10
-3.1472569647
 20
25.2
 11
-3.1393957978
 21
25.05
  0
LINE
  5
3FD
100
AcDbEntity
  8
DRAFT
100
AcDbLine
 62
7
  6
CONTINUOUS
 10
-3.1210530751
 20
25.2
 11
-3.1131919082
 21
25.05
  0
LINE
  5
3FE
100
AcDbEntity
  8
DRAFT
100
AcDbLine
 62
7
  6
CONTINUOUS
 10
-3.0948491854
 20
25.2
 11
-3.0869880185
 21
25.05
  0
LINE
  5
3FF
100
AcDbEntity
  8
DRAFT
100
AcDbLine
 62
7
  6
CONTINUOUS
 10
-3.0686452958
 20
25.2
 11
-3.0607841289
 21
25.05
  0
LINE
  5
400
100
AcDbEntity
  8
DRAFT
100
AcDbLine
 62
7
  6
CONTINUOUS
 10
-3.0424414061
 20
25.2
 11
-3.0345802392
 21
25.05
  0
LINE
  5
401
100
AcDbEntity
  8
DRAFT
100
AcDbLine
 62
7
  6
CONTINUOUS
 10
-3.0162375165
 20
25.2
 11
-3.0083763496
 21
25.05
  0
LINE
  5
402
100
AcDbEntity
  8
DRAFT
100
AcDbLine
 62
7
  6
CONTINUOUS
 10
-2.9900336269
 20
25.2
 11
-2.98217246
 21
25.05
  0
LINE
  5
403
100
AcDbEntity
  8
DRAFT
100
AcDbLine
 62
7
  6
CONTINUOUS
 10
-2.9638297372
 20
25.2
 11
-2.9559685703
 21
25.05
  0
LINE
  5
404
100
AcDbEntity
  8
RACCORDO
100
AcDbLine
 62
250
  6
CONTINUOUS
 10
0.4500168697
 20
-26.7127399906
 11
0.448501656
 21
-26.6766386268
  0
LINE
  5
405
100
AcDbEntity
  8
RACCORDO
100
AcDbLine
 62
250
  6
CONTINUOUS
 10
-2.9322286553
 20
-26.3614137352
 11
-2.9319055395
 21
-26.4475789774
  0
LINE
  5
406
100
AcDbEntity
  8
0
100
AcDbLine
 62
250
  6
CONTINUOUS
 10
0.5006254755
 20
-24.4121525788
 11
0.5009259846
 21
-24.5724660772
  0
LINE
  5
407
100
AcDbEntity
  8
0
100
AcDbLine
 62
250
  6
CONTINUOUS
 10
-0.5010125141
 20
25.05
 11
-0.5009553617
 21
25.014060588
  0
LINE
  5
408
100
AcDbEntity
  8
0
100
AcDbLine
 62
250
  6
CONTINUOUS
 10
0.5010125141
 20
-25.05
 11
0.5009553617
 21
-25.014060588
  0
LINE
  5
409
100
AcDbEntity
  8
RACCORDO
100
AcDbLine
 62
250
  6
CONTINUOUS
 10
-0.5017297294
 20
-26.3754549094
 11
-0.5013491754
 21
-26.6766274222
  0
LINE
  5
40A
100
AcDbEntity
  8
0
100
AcDbLine
 62
250
  6
CONTINUOUS
 10
0.4997655779
 20
-32.9753146751
 11
0.5011173533
 21
-35.0381115369
  0
LINE
  5
40B
100
AcDbEntity
  8
0
100
AcDbLine
 62
7
  6
CONTINUOUS
 10
-3.249569
 20
-35.05
 11
-3.249569
 21
-33.556466
  0
LINE
  5
40C
100
AcDbEntity
  8
0
100
AcDbLine
 62
7
  6
CONTINUOUS
 10
-2.965948
 20
-32.95
 11
-2.965948
 21
-35.05
  0
LINE
  5
40D
100
AcDbEntity
  8
RACCORDO
100
AcDbLine
 62
250
  6
CONTINUOUS
 10
-2.9420437821
 20
-26.05
 11
-2.9420437821
 21
-25.0504111396
  0
LINE
  5
40E
100
AcDbEntity
  8
RACCORDO
100
AcDbLine
 62
250
  6
CONTINUOUS
 10
-2.9420437821
 20
25.0504111396
 11
-2.9420437821
 21
26.05
  0
LINE
  5
40F
100
AcDbEntity
  8
RACCORDO
100
AcDbLine
 62
250
  6
CONTINUOUS
 10
-2.6424549217
 20
-25.35
 11
-2.6424549217
 21
-26.35
  0
LINE
  5
410
100
AcDbEntity
  8
RACCORDO
100
AcDbLine
 62
250
  6
CONTINUOUS
 10
-2.6424549217
 20
25.35
 11
-2.6424549217
 21
26.35
  0
LINE
  5
411
100
AcDbEntity
  8
0
100
AcDbLine
 62
7
  6
CONTINUOUS
 10
-2.281034
 20
-34.534052
 11
-2.281034
 21
-34.270797
  0
LINE
  5
412
100
AcDbEntity
  8
0
100
AcDbLine
 62
7
  6
CONTINUOUS
 10
-1.357759
 20
-34.298707
 11
-1.357759
 21
-33.346861
  0
LINE
  5
413
100
AcDbEntity
  8
0
100
AcDbLine
 62
7
  6
CONTINUOUS
 10
-1.354741
 20
-35.05
 11
-1.354741
 21
-34.534052
  0
LINE
  5
414
100
AcDbEntity
  8
0
100
AcDbLine
 62
7
  6
CONTINUOUS
 10
-1.089224
 20
-32.934914
 11
-1.089224
 21
-34.298707
  0
LINE
  5
415
100
AcDbEntity
  8
0
100
AcDbLine
 62
7
  6
CONTINUOUS
 10
-1.089224
 20
-34.534052
 11
-1.089224
 21
-35.05
  0
LINE
  5
416
100
AcDbEntity
  8
0
100
AcDbLine
 62
7
  6
CONTINUOUS
 10
-0.778448
 20
-34.298707
 11
-0.778448
 21
-34.534052
  0
LINE
  5
417
100
AcDbEntity
  8
RACCORDO
100
AcDbLine
 62
250
  6
CONTINUOUS
 10
-0.5006128023
 20
24.4121527798
 11
-0.5006128023
 21
24.1
  0
LINE
  5
418
100
AcDbEntity
  8
RACCORDO
100
AcDbLine
 62
250
  6
CONTINUOUS
 10
-0.4995832668
 20
-24.4121527798
 11
-0.4995832668
 21
-24.1
  0
LINE
  5
419
100
AcDbEntity
  8
RACCORDO
100
AcDbLine
 62
250
  6
CONTINUOUS
 10
0.5000630396
 20
24.4121527798
 11
0.5000630396
 21
24.1
  0
LINE
  5
41A
100
AcDbEntity
  8
RACCORDO
100
AcDbLine
 62
250
  6
CONTINUOUS
 10
0.5006128023
 20
-24.4121527798
 11
0.5006128023
 21
-24.1
  0
LINE
  5
41B
100
AcDbEntity
  8
0
100
AcDbLine
 62
250
  6
CONTINUOUS
 10
0.5009553617
 20
-25.014060588
 11
0.5008820525
 21
-24.7568022394
  0
LINE
  5
41C
100
AcDbEntity
  8
RACCORDO
100
AcDbLine
 62
250
  6
CONTINUOUS
 10
0.502335567
 20
-26.35
 11
0.502335567
 21
-26.6766274222
  0
LINE
  5
41D
100
AcDbEntity
  8
RACCORDO
100
AcDbLine
 62
250
  6
CONTINUOUS
 10
0.501660822
 20
26.35
 11
0.5000000019
 21
37.7824887448
  0
LINE
  5
41E
100
AcDbEntity
  8
RACCORDO
100
AcDbLine
 62
250
  6
CONTINUOUS
 10
-2.9319055395
 20
-26.4475789774
 11
-2.9317262559
 21
-26.6768381834
  0
LINE
  5
41F
100
AcDbEntity
  8
RACCORDO
100
AcDbLine
 62
250
  6
CONTINUOUS
 10
-0.502335567
 20
26.35
 11
-0.5013064394
 21
37.7824895877
  0
LINE
  5
420
100
AcDbEntity
  8
0
100
AcDbLine
 62
250
  6
CONTINUOUS
 10
-0.5009553617
 20
25.014060588
 11
-0.5006254755
 21
24.4121525788
  0
LINE
  5
421
100
AcDbEntity
  8
0
100
AcDbLine
 62
250
  6
CONTINUOUS
 10
-0.5017661057
 20
-26.6766274222
 11
-0.5
 21
-37.7824895094
  0
LINE
  5
422
100
AcDbEntity
  8
0
100
AcDbLine
 62
250
  6
CONTINUOUS
 10
-0.4995717593
 20
-24.4121527798
 11
-0.499801383
 21
-25.05
  0
LINE
  5
423
100
AcDbEntity
  8
0
100
AcDbLine
 62
250
  6
CONTINUOUS
 10
0.5000757088
 20
24.4121528308
 11
0.50045369
 21
25.05
  0
LINE
  5
424
100
AcDbEntity
  8
RACCORDO
100
AcDbLine
 62
250
  6
CONTINUOUS
 10
-2.9320531997
 20
26.3947862555
 11
-2.9317262559
 21
26.6768383599
  0
LWPOLYLINE
  5
425
100
AcDbEntity
  8
RACCORDO
100
AcDbPolyline
 62
250
  6
CONTINUOUS
 90
6
 70
0
 10
0.4485050529
 20
26.6766350204
 10
0.4500175952
 20
26.7145200437
 10
0.4482055303
 20
26.753838911
 10
0.4427099997
 20
26.7942806875
 10
0.4331994729
 20
26.8355810746
 10
0.4193570145
 20
26.8771751332
  0
LINE
  5
426
100
AcDbEntity
  8
RACCORDO
100
AcDbLine
 62
250
  6
CONTINUOUS
 10
-0.448512276
 20
26.7502474741
 11
-0.4500168697
 21
26.7127399905
  0
LINE
  5
427
100
AcDbEntity
  8
DRAFT
100
AcDbLine
 62
7
  6
CONTINUOUS
 10
-3.1393957978
 20
-25.05
 11
-3.1472569647
 21
-25.2
  0
LINE
  5
428
100
AcDbEntity
  8
DRAFT
100
AcDbLine
 62
7
  6
CONTINUOUS
 10
-3.1131919082
 20
-25.05
 11
-3.1210530751
 21
-25.2
  0
LINE
  5
429
100
AcDbEntity
  8
DRAFT
100
AcDbLine
 62
7
  6
CONTINUOUS
 10
-3.0869880185
 20
-25.05
 11
-3.0948491854
 21
-25.2
  0
LINE
  5
42A
100
AcDbEntity
  8
DRAFT
100
AcDbLine
 62
7
  6
CONTINUOUS
 10
-3.0607841289
 20
-25.05
 11
-3.0686452958
 21
-25.2
  0
LINE
  5
42B
100
AcDbEntity
  8
DRAFT
100
AcDbLine
 62
7
  6
CONTINUOUS
 10
-3.0345802392
 20
-25.05
 11
-3.0424414061
 21
-25.2
  0
LINE
  5
42C
100
AcDbEntity
  8
DRAFT
100
AcDbLine
 62
7
  6
CONTINUOUS
 10
-3.0083763496
 20
-25.05
 11
-3.0162375165
 21
-25.2
  0
LINE
  5
42D
100
AcDbEntity
  8
DRAFT
100
AcDbLine
 62
7
  6
CONTINUOUS
 10
-2.98217246
 20
-25.05
 11
-2.9900336269
 21
-25.2
  0
LINE
  5
42E
100
AcDbEntity
  8
DRAFT
100
AcDbLine
 62
7
  6
CONTINUOUS
 10
-2.9559685703
 20
-25.05
 11
-2.9638297372
 21
-25.2
  0
LINE
  5
42F
100
AcDbEntity
  8
RACCORDO
100
AcDbLine
 62
250
  6
CONTINUOUS
 10
-11.7462019383
 20
-35.654847453
 11
-11.7349231501
 21
-35.6013498324
  0
LWPOLYLINE
  5
430
100
AcDbEntity
  8
RACCORDO
100
AcDbPolyline
 62
250
  6
CONTINUOUS
 90
10
 70
0
 10
11.75
 20
35.2779672797
 10
11.7462019294
 20
35.2668293489
 10
11.734923125
 20
35.2560298427
 10
11.7165062955
 20
35.2458968988
 10
11.6915110355
 20
35.2367384014
 10
11.6606968189
 20
35.2288326253
 10
11.6249999198
 20
35.2224197814
 10
11.58550497
 20
35.2176947193
 10
11.5434120059
 20
35.214801007
 10
11.5
 20
35.2138265672
  0
LWPOLYLINE
  5
431
100
AcDbEntity
  8
RACCORDO
100
AcDbPolyline
 62
250
  6
CONTINUOUS
 90
10
 70
0
 10
-11.75
 20
-35.2779672797
 10
-11.7462019294
 20
-35.2668293489
 10
-11.734923125
 20
-35.2560298427
 10
-11.7165062955
 20
-35.2458968988
 10
-11.6915110355
 20
-35.2367384014
 10
-11.6606968189
 20
-35.2288326253
 10
-11.6249999198
 20
-35.2224197814
 10
-11.58550497
 20
-35.2176947193
 10
-11.5434120059
 20
-35.214801007
 10
-11.5
 20
-35.2138265672
  0
LINE
  5
432
100
AcDbEntity
  8
0
100
AcDbLine
 62
7
  6
CONTINUOUS
 10
22.8406250465
 20
25.6893617153
 11
22.7675000465
 21
25.6063830018
  0
LWPOLYLINE
  5
433
100
AcDbEntity
  8
RACCORDO
100
AcDbPolyline
 62
7
  6
CONTINUOUS
 90
7
 70
0
 10
13.9438684922
 20
15.7970897644
 10
13.9030570389
 20
15.755382454
 10
13.8853705579
 20
15.7377454432
 10
13.8710716078
 20
15.7225744057
 10
13.8606648423
 20
15.7105958206
 10
13.8536427857
 20
15.7027877235
 10
13.8500007563
 20
15.7000001042
  0
LWPOLYLINE
  5
434
100
AcDbEntity
  8
RACCORDO
100
AcDbPolyline
 62
7
  6
CONTINUOUS
 90
3
 70
0
 10
14.0159606882
 20
15.8698343452
 10
13.9669953204
 20
15.8202220119
 10
13.9438684922
 20
15.7970897644
  0
LINE
  5
435
100
AcDbEntity
  8
RACCORDO
100
AcDbLine
 62
7
  6
CONTINUOUS
 10
14.0677399205
 20
15.9217837537
 11
14.0159606882
 21
15.8698343452
  0
LWPOLYLINE
  5
436
100
AcDbEntity
  8
RACCORDO
100
AcDbPolyline
 62
7
  6
CONTINUOUS
 90
4
 70
0
 10
14.1453332627
 20
15.9996527264
 10
14.119369883
 20
15.9740337991
 10
14.0935052272
 20
15.9480040567
 10
14.0677399205
 20
15.9217837537
  0
LINE
  5
437
100
AcDbEntity
  8
0
100
AcDbLine
 62
7
  6
CONTINUOUS
 10
24.985625093
 20
25.0808510721
 11
25.083125
 21
25.1638297856
  0
LINE
  5
438
100
AcDbEntity
  8
0
100
AcDbLine
 62
7
  6
CONTINUOUS
 10
28.325000186
 20
25.5510638595
 11
28.422499814
 21
25.634042573
  0
LINE
  5
439
100
AcDbEntity
  8
0
100
AcDbLine
 62
7
  6
CONTINUOUS
 10
28.276249814
 20
25.1361702144
 11
28.178750186
 21
25.0531915009
  0
LINE
  5
43A
100
AcDbEntity
  8
0
100
AcDbLine
 62
7
  6
CONTINUOUS
 10
28.8125
 20
25.3297872126
 11
28.714999814
 21
25.2468084991
  0
LINE
  5
43B
100
AcDbEntity
  8
RACCORDO
100
AcDbLine
 62
250
  6
CONTINUOUS
 10
-37.7918014853
 20
0.0010151864
 11
-34.7338916334
 21
0.0039397724
  0
LINE
  5
43C
100
AcDbEntity
  8
RACCORDO
100
AcDbLine
 62
250
  6
CONTINUOUS
 10
18.5859302968
 20
0.001191846
 11
12.85
 21
-0.0004694811
  0
LINE
  5
43D
100
AcDbEntity
  8
RACCORDO
100
AcDbLine
 62
250
  6
CONTINUOUS
 10
-18.5859308415
 20
0.002228439
 11
-12.85
 21
0.0007612836
  0
LWPOLYLINE
  5
43E
100
AcDbEntity
  8
RACCORDO
100
AcDbPolyline
 62
250
  6
CONTINUOUS
 90
3
 70
0
 10
-34.7338916334
 20
0.0039397724
 10
-26.601029483
 20
-0.0016395638
 10
-18.5859308415
 20
0.002228439
  0
LINE
  5
43F
100
AcDbEntity
  8
RACCORDO
100
AcDbLine
 62
250
  6
CONTINUOUS
 10
26.6010320481
 20
-0.002528498
 11
18.5859302968
 21
0.001191846
  0
LWPOLYLINE
  5
440
100
AcDbEntity
  8
RACCORDO
100
AcDbPolyline
 62
250
  6
CONTINUOUS
 90
3
 70
0
 10
37.7918012184
 20
-0.0010151857
 10
34.7338844135
 20
0.0023919816
 10
26.6010320481
 20
-0.002528498
  0
LINE
  5
441
100
AcDbEntity
  8
0
100
AcDbLine
 62
7
  6
CONTINUOUS
 10
-17.078582
 20
31.49999
 11
-17.860269
 21
33.008013
  0
LINE
  5
442
100
AcDbEntity
  8
0
100
AcDbLine
 62
7
  6
CONTINUOUS
 10
-17.0303013886
 20
33.1018206788
 11
-16.2
 21
31.5
  0
LWPOLYLINE
  5
443
100
AcDbEntity
  8
RACCORDO
100
AcDbPolyline
 62
250
  6
CONTINUOUS
 90
10
 70
0
 10
11.75
 20
-35.2779672796
 10
11.7462019035
 20
-35.2668293112
 10
11.7349230364
 20
-35.2560297802
 10
11.7165061302
 20
-35.2458968253
 10
11.6915108033
 20
-35.2367383304
 10
11.6606965484
 20
-35.228832567
 10
11.6249996492
 20
-35.2224197413
 10
11.5855047436
 20
-35.2176946981
 10
11.5434118711
 20
-35.2148010009
 10
11.5
 20
-35.2138265672
  0
LWPOLYLINE
  5
444
100
AcDbEntity
  8
RACCORDO
100
AcDbPolyline
 62
250
  6
CONTINUOUS
 90
10
 70
0
 10
-11.75
 20
35.2779672796
 10
-11.7462019035
 20
35.2668293112
 10
-11.7349230364
 20
35.2560297802
 10
-11.7165061302
 20
35.2458968253
 10
-11.6915108033
 20
35.2367383304
 10
-11.6606965484
 20
35.228832567
 10
-11.6249996492
 20
35.2224197413
 10
-11.5855047436
 20
35.2176946981
 10
-11.5434118711
 20
35.2148010009
 10
-11.5
 20
35.2138265672
  0
LINE
  5
445
100
AcDbEntity
  8
RACCORDO
100
AcDbLine
 62
250
  6
CONTINUOUS
 10
-11.7462019893
 20
35.6548477426
 11
-11.7349231552
 21
35.6013498465
  0
LINE
  5
446
100
AcDbEntity
  8
DRAFT
100
AcDbLine
 62
7
  6
CONTINUOUS
 10
2.9559685703
 20
-25.05
 11
2.9638297372
 21
-25.2
  0
LINE
  5
447
100
AcDbEntity
  8
DRAFT
100
AcDbLine
 62
7
  6
CONTINUOUS
 10
2.98217246
 20
-25.05
 11
2.9900336269
 21
-25.2
  0
LINE
  5
448
100
AcDbEntity
  8
DRAFT
100
AcDbLine
 62
7
  6
CONTINUOUS
 10
3.0083763496
 20
-25.05
 11
3.0162375165
 21
-25.2
  0
LINE
  5
449
100
AcDbEntity
  8
DRAFT
100
AcDbLine
 62
7
  6
CONTINUOUS
 10
3.0345802392
 20
-25.05
 11
3.0424414061
 21
-25.2
  0
LINE
  5
44A
100
AcDbEntity
  8
DRAFT
100
AcDbLine
 62
7
  6
CONTINUOUS
 10
3.0607841289
 20
-25.05
 11
3.0686452958
 21
-25.2
  0
LINE
  5
44B
100
AcDbEntity
  8
DRAFT
100
AcDbLine
 62
7
  6
CONTINUOUS
 10
3.0869880185
 20
-25.05
 11
3.0948491854
 21
-25.2
  0
LINE
  5
44C
100
AcDbEntity
  8
DRAFT
100
AcDbLine
 62
7
  6
CONTINUOUS
 10
3.1131919082
 20
-25.05
 11
3.1210530751
 21
-25.2
  0
LINE
  5
44D
100
AcDbEntity
  8
DRAFT
100
AcDbLine
 62
7
  6
CONTINUOUS
 10
3.1393957978
 20
-25.05
 11
3.1472569647
 21
-25.2
  0
LINE
  5
44E
100
AcDbEntity
  8
RACCORDO
100
AcDbLine
 62
250
  6
CONTINUOUS
 10
-0.4500168697
 20
26.7127399905
 11
-0.448501656
 21
26.6766386267
  0
LWPOLYLINE
  5
44F
100
AcDbEntity
  8
RACCORDO
100
AcDbPolyline
 62
250
  6
CONTINUOUS
 90
3
 70
0
 10
2.9322286554
 20
26.3614137339
 10
2.9323226936
 20
26.3528671325
 10
2.9324185643
 20
26.35
  0
LINE
  5
450
100
AcDbEntity
  8
0
100
AcDbLine
 62
250
  6
CONTINUOUS
 10
3.2396939239
 20
25.0103473927
 11
3.2363163899
 21
26.05
  0
LINE
  5
451
100
AcDbEntity
  8
0
100
AcDbLine
 62
250
  6
CONTINUOUS
 10
3.5352873145
 20
26.0723972174
 11
3.540259984
 21
24.5699328431
  0
LINE
  5
452
100
AcDbEntity
  8
RACCORDO
100
AcDbLine
 62
250
  6
CONTINUOUS
 10
2.9319055395
 20
26.4475789744
 11
2.9322286554
 21
26.3614137339
  0
LINE
  5
453
100
AcDbEntity
  8
0
100
AcDbLine
 62
7
  6
CONTINUOUS
 10
1.074138
 20
-34.534052
 11
1.074138
 21
-34.270797
  0
LINE
  5
454
100
AcDbEntity
  8
0
100
AcDbLine
 62
7
  6
CONTINUOUS
 10
1.997414
 20
-34.298707
 11
1.997414
 21
-33.346861
  0
LINE
  5
455
100
AcDbEntity
  8
0
100
AcDbLine
 62
7
  6
CONTINUOUS
 10
2.000431
 20
-35.05
 11
2.000431
 21
-34.534052
  0
LINE
  5
456
100
AcDbEntity
  8
0
100
AcDbLine
 62
7
  6
CONTINUOUS
 10
2.265948
 20
-32.934914
 11
2.265948
 21
-34.298707
  0
LINE
  5
457
100
AcDbEntity
  8
0
100
AcDbLine
 62
7
  6
CONTINUOUS
 10
2.265948
 20
-34.534052
 11
2.265948
 21
-35.05
  0
LINE
  5
458
100
AcDbEntity
  8
0
100
AcDbLine
 62
7
  6
CONTINUOUS
 10
2.576724
 20
-34.298707
 11
2.576724
 21
-34.534052
  0
LINE
  5
459
100
AcDbEntity
  8
RACCORDO
100
AcDbLine
 62
250
  6
CONTINUOUS
 10
2.6424549217
 20
-25.35
 11
2.6424549217
 21
-26.35
  0
LINE
  5
45A
100
AcDbEntity
  8
RACCORDO
100
AcDbLine
 62
250
  6
CONTINUOUS
 10
2.6424549217
 20
25.35
 11
2.6424549217
 21
26.35
  0
LINE
  5
45B
100
AcDbEntity
  8
RACCORDO
100
AcDbLine
 62
250
  6
CONTINUOUS
 10
2.9420437821
 20
26.05
 11
2.9420437821
 21
25.0504111396
  0
LINE
  5
45C
100
AcDbEntity
  8
RACCORDO
100
AcDbLine
 62
250
  6
CONTINUOUS
 10
2.9420437821
 20
-25.0504111396
 11
2.9420437821
 21
-26.05
  0
LINE
  5
45D
100
AcDbEntity
  8
0
100
AcDbLine
 62
7
  6
CONTINUOUS
 10
2.965948
 20
-33.556466
 11
2.965948
 21
-33.3543103718
  0
LINE
  5
45E
100
AcDbEntity
  8
0
100
AcDbLine
 62
7
  6
CONTINUOUS
 10
3.460776
 20
-35.05
 11
3.460776
 21
-33.556466
  0
LINE
  5
45F
100
AcDbEntity
  8
0
100
AcDbLine
 62
7
  6
CONTINUOUS
 10
3.744397
 20
-32.95
 11
3.744397
 21
-35.05
  0
LINE
  5
460
100
AcDbEntity
  8
0
100
AcDbLine
 62
250
  6
CONTINUOUS
 10
0.5017098967
 20
-35.0375858693
 11
0.5013064394
 21
-37.7824895877
  0
LINE
  5
461
100
AcDbEntity
  8
RACCORDO
100
AcDbLine
 62
250
  6
CONTINUOUS
 10
2.9317262559
 20
26.6768383381
 11
2.9319055395
 21
26.4475789744
  0
LINE
  5
462
100
AcDbEntity
  8
0
100
AcDbLine
 62
250
  6
CONTINUOUS
 10
0.5019306575
 20
-26.6766285587
 11
0.5002256132
 21
-32.9755646946
  0
LINE
  5
463
100
AcDbEntity
  8
0
100
AcDbLine
 62
250
  6
CONTINUOUS
 10
0.5008820525
 20
-24.7568022394
 11
0.5009671543
 21
-24.5724662509
  0
LINE
  5
464
100
AcDbEntity
  8
RACCORDO
100
AcDbLine
 62
250
  6
CONTINUOUS
 10
2.9320531997
 20
-26.3947862555
 11
2.9317262559
 21
-26.6768383599
  0
LINE
  5
465
100
AcDbEntity
  8
0
100
AcDbLine
 62
250
  6
CONTINUOUS
 10
3.239693998
 20
-25.0103467938
 11
3.2363163897
 21
-26.05
  0
LINE
  5
466
100
AcDbEntity
  8
0
100
AcDbLine
 62
250
  6
CONTINUOUS
 10
3.5402599395
 20
-24.5699328086
 11
3.5352871119
 21
-26.0723970511
  0
LWPOLYLINE
  5
467
100
AcDbEntity
  8
RACCORDO
100
AcDbPolyline
 62
250
  6
CONTINUOUS
 90
25
 70
0
 10
3.5352860471
 20
-26.0723971924
 10
3.534608307
 20
-26.0986924067
 10
3.5327155931
 20
-26.1258482917
 10
3.5294863575
 20
-26.1538015132
 10
3.5248048241
 20
-26.1824400804
 10
3.5185506072
 20
-26.2117150546
 10
3.51057629
 20
-26.2416346688
 10
3.5007495992
 20
-26.2720865176
 10
3.4889449101
 20
-26.3029313658
 10
3.4749961955
 20
-26.3341014901
 10
3.4587808567
 20
-26.3654202912
 10
3.4401784595
 20
-26.3966970386
 10
3.4190107559
 20
-26.4277941778
 10
3.3952042418
 20
-26.4584400772
 10
3.3686473649
 20
-26.4884000369
 10
3.3390935403
 20
-26.5175174196
 10
3.3064940161
 20
-26.5454540126
 10
3.2707992793
 20
-26.5718422821
 10
3.2317698517
 20
-26.596373186
 10
3.1894030971
 20
-26.6186218556
 10
3.1438045439
 20
-26.6380623013
 10
3.0949824301
 20
-26.6541455383
 10
3.0431270291
 20
-26.6663264033
 10
2.9885851279
 20
-26.6740701669
 10
2.9317262587
 20
-26.676838846
  0
LWPOLYLINE
  5
468
100
AcDbEntity
  8
RACCORDO
100
AcDbPolyline
 62
250
  6
CONTINUOUS
 90
4
 70
0
 10
2.9324185643
 20
-26.35
 10
2.9323226942
 20
-26.3528671075
 10
2.9322286567
 20
-26.3614136464
 10
2.9320531997
 20
-26.3947862555
  0
LWPOLYLINE
  5
469
100
AcDbEntity
  8
RACCORDO
100
AcDbPolyline
 62
250
  6
CONTINUOUS
 90
6
 70
0
 10
-0.448505053
 20
-26.6766350211
 10
-0.4500175952
 20
-26.7145200441
 10
-0.4482055303
 20
-26.7538389112
 10
-0.4427099997
 20
-26.7942806875
 10
-0.4331994729
 20
-26.8355810745
 10
-0.4193570145
 20
-26.8771751332
  0
LINE
  5
46A
100
AcDbEntity
  8
RACCORDO
100
AcDbLine
 62
250
  6
CONTINUOUS
 10
0.448512276
 20
-26.7502474742
 11
0.4500168697
 21
-26.7127399906
  0
LINE
  5
46B
100
AcDbEntity
  8
DRAFT
100
AcDbLine
 62
7
  6
CONTINUOUS
 10
2.9638297372
 20
25.2
 11
2.9559685703
 21
25.05
  0
LINE
  5
46C
100
AcDbEntity
  8
DRAFT
100
AcDbLine
 62
7
  6
CONTINUOUS
 10
2.9900336269
 20
25.2
 11
2.98217246
 21
25.05
  0
LINE
  5
46D
100
AcDbEntity
  8
DRAFT
100
AcDbLine
 62
7
  6
CONTINUOUS
 10
3.0162375165
 20
25.2
 11
3.0083763496
 21
25.05
  0
LINE
  5
46E
100
AcDbEntity
  8
DRAFT
100
AcDbLine
 62
7
  6
CONTINUOUS
 10
3.0424414061
 20
25.2
 11
3.0345802392
 21
25.05
  0
LINE
  5
46F
100
AcDbEntity
  8
DRAFT
100
AcDbLine
 62
7
  6
CONTINUOUS
 10
3.0686452958
 20
25.2
 11
3.0607841289
 21
25.05
  0
LINE
  5
470
100
AcDbEntity
  8
DRAFT
100
AcDbLine
 62
7
  6
CONTINUOUS
 10
3.0948491854
 20
25.2
 11
3.0869880185
 21
25.05
  0
LINE
  5
471
100
AcDbEntity
  8
DRAFT
100
AcDbLine
 62
7
  6
CONTINUOUS
 10
3.1210530751
 20
25.2
 11
3.1131919082
 21
25.05
  0
LINE
  5
472
100
AcDbEntity
  8
DRAFT
100
AcDbLine
 62
7
  6
CONTINUOUS
 10
3.1472569647
 20
25.2
 11
3.1393957978
 21
25.05
  0
LWPOLYLINE
  5
473
100
AcDbEntity
  8
RACCORDO
100
AcDbPolyline
 62
250
  6
CONTINUOUS
 90
4
 70
0
 10
-0.5013491754
 20
-26.35
 10
-0.5015421789
 20
-26.352864672
 10
-0.5016690303
 20
-26.3614039948
 10
-0.5017297294
 20
-26.3754549094
  0
LINE
  5
474
100
AcDbEntity
  8
RACCORDO
100
AcDbLine
 62
250
  6
CONTINUOUS
 10
11.7462019383
 20
35.654847453
 11
11.7349231501
 21
35.6013498324
  0
LINE
  5
475
100
AcDbEntity
  8
0
100
AcDbLine
 62
7
  6
CONTINUOUS
 10
-16.529616
 20
-33.964017
 11
-15.998929
 21
-33.075
  0
LINE
  5
476
100
AcDbEntity
  8
0
100
AcDbLine
 62
7
  6
CONTINUOUS
 10
23.913125
 20
25.6893617153
 11
23.84
 21
25.6063830018
  0
LINE
  5
477
100
AcDbEntity
  8
0
100
AcDbLine
 62
7
  6
CONTINUOUS
 10
23.3768749535
 20
24.6106382944
 11
23.4499999535
 21
24.6936170176
  0
LINE
  5
478
100
AcDbEntity
  8
0
100
AcDbLine
 62
7
  6
CONTINUOUS
 10
24.449374907
 20
24.6106382944
 11
24.522499907
 21
24.6936170176
  0
LINE
  5
479
100
AcDbEntity
  8
0
100
AcDbLine
 62
7
  6
CONTINUOUS
 10
26.03375
 20
25.7170212865
 11
25.936250093
 21
25.6063830018
  0
LINE
  5
47A
100
AcDbEntity
  8
0
100
AcDbLine
 62
7
  6
CONTINUOUS
 10
28.276249814
 20
25.6893617153
 11
28.203124814
 21
25.6063830018
  0
LWPOLYLINE
  5
47B
100
AcDbEntity
  8
RACCORDO
100
AcDbPolyline
 62
7
  6
CONTINUOUS
 90
7
 70
0
 10
-13.943868492
 20
-15.7970897648
 10
-13.9030570387
 20
-15.7553824543
 10
-13.8853705578
 20
-15.7377454434
 10
-13.8710716077
 20
-15.7225744059
 10
-13.8606648422
 20
-15.7105958207
 10
-13.8536427857
 20
-15.7027877236
 10
-13.8500007562
 20
-15.7000001042
  0
LINE
  5
47C
100
AcDbEntity
  8
0
100
AcDbLine
 62
7
  6
CONTINUOUS
 10
26.570000186
 20
25.3297872126
 11
25.8875
 21
24.6382978752
  0
LWPOLYLINE
  5
47D
100
AcDbEntity
  8
RACCORDO
100
AcDbPolyline
 62
7
  6
CONTINUOUS
 90
3
 70
0
 10
-14.0159606876
 20
-15.8698343459
 10
-13.9669953201
 20
-15.8202220124
 10
-13.943868492
 20
-15.7970897648
  0
LINE
  5
47E
100
AcDbEntity
  8
RACCORDO
100
AcDbLine
 62
7
  6
CONTINUOUS
 10
-14.0677399197
 20
-15.9217837546
 11
-14.0159606876
 21
-15.8698343459
  0
LINE
  5
47F
100
AcDbEntity
  8
0
100
AcDbLine
 62
7
  6
CONTINUOUS
 10
26.082500093
 20
24.6382978752
 11
26.691875
 21
25.2468084991
  0
LWPOLYLINE
  5
480
100
AcDbEntity
  8
RACCORDO
100
AcDbPolyline
 62
7
  6
CONTINUOUS
 90
4
 70
0
 10
-14.1453332627
 20
-15.9996527264
 10
-14.1193698826
 20
-15.9740337996
 10
-14.0935052265
 20
-15.9480040574
 10
-14.0677399197
 20
-15.9217837546
  0
LINE
  5
481
100
AcDbEntity
  8
0
100
AcDbLine
 62
7
  6
CONTINUOUS
 10
39.8951844414
 20
3.5
 11
37.8924397494
 21
3.5
  0
LINE
  5
482
100
AcDbEntity
  8
0
100
AcDbLine
 62
7
  6
CONTINUOUS
 10
-37.8924397494
 20
3.5
 11
-39.8951844414
 21
3.5
  0
LINE
  5
483
100
AcDbEntity
  8
0
100
AcDbLine
 62
7
  6
CONTINUOUS
 10
40.0
 20
3.6749773271
 11
37.997255308
 21
3.6749773271
  0
LINE
  5
484
100
AcDbEntity
  8
0
100
AcDbLine
 62
7
  6
CONTINUOUS
 10
-37.997255308
 20
3.6749773271
 11
-40.0
 21
3.6749773271
  0
LINE
  5
485
100
AcDbEntity
  8
RACCORDO
100
AcDbLine
 62
250
  6
CONTINUOUS
 10
11.7462019893
 20
-35.6548477426
 11
11.7349231552
 21
-35.6013498465
  0
LWPOLYLINE
  5
486
100
AcDbEntity
  8
RACCORDO
100
AcDbPolyline
 62
250
  6
CONTINUOUS
 90
13
 70
0
 10
3.2363184186
 20
26.05
 10
3.2334323679
 20
26.0890463029
 10
3.2254544583
 20
26.1275054425
 10
3.2124844134
 20
26.1647144041
 10
3.1946808487
 20
26.2000583355
 10
3.1723346909
 20
26.2328763587
 10
3.1459076956
 20
26.2625009658
 10
3.1158681176
 20
26.2884236885
 10
3.0827303585
 20
26.310214858
 10
3.0471719854
 20
26.3274770744
 10
3.0098532554
 20
26.3399509262
 10
2.971384266
 20
26.3474851707
 10
2.9324185643
 20
26.35
  0
LWPOLYLINE
  5
487
100
AcDbEntity
  8
RACCORDO
100
AcDbPolyline
 62
250
  6
CONTINUOUS
 90
13
 70
0
 10
2.9420437821
 20
26.05
 10
2.9395841707
 20
26.0883630787
 10
2.9321828037
 20
26.1263361036
 10
2.9198692649
 20
26.1632691894
 10
2.9027190839
 20
26.1985816945
 10
2.8809601798
 20
26.2315461473
 10
2.8550637945
 20
26.2613606279
 10
2.825543601
 20
26.2874583464
 10
2.7928606027
 20
26.3094532684
 10
2.757583779
 20
26.3269637906
 10
2.7203247889
 20
26.3396888492
 10
2.6817262787
 20
26.3474113727
 10
2.6424549217
 20
26.35
  0
LINE
  5
488
100
AcDbEntity
  8
DRAFT
100
AcDbLine
 62
7
  6
CONTINUOUS
 10
2.9716909041
 20
25.05
 11
2.9638297372
 21
25.2
  0
LINE
  5
489
100
AcDbEntity
  8
DRAFT
100
AcDbLine
 62
7
  6
CONTINUOUS
 10
2.9978947937
 20
25.05
 11
2.9900336269
 21
25.2
  0
LINE
  5
48A
100
AcDbEntity
  8
DRAFT
100
AcDbLine
 62
7
  6
CONTINUOUS
 10
3.0240986834
 20
25.05
 11
3.0162375165
 21
25.2
  0
LINE
  5
48B
100
AcDbEntity
  8
DRAFT
100
AcDbLine
 62
7
  6
CONTINUOUS
 10
3.050302573
 20
25.05
 11
3.0424414061
 21
25.2
  0
LINE
  5
48C
100
AcDbEntity
  8
DRAFT
100
AcDbLine
 62
7
  6
CONTINUOUS
 10
3.0765064627
 20
25.05
 11
3.0686452958
 21
25.2
  0
LINE
  5
48D
100
AcDbEntity
  8
DRAFT
100
AcDbLine
 62
7
  6
CONTINUOUS
 10
3.1027103523
 20
25.05
 11
3.0948491854
 21
25.2
  0
LINE
  5
48E
100
AcDbEntity
  8
DRAFT
100
AcDbLine
 62
7
  6
CONTINUOUS
 10
3.128914242
 20
25.05
 11
3.1210530751
 21
25.2
  0
LINE
  5
48F
100
AcDbEntity
  8
DRAFT
100
AcDbLine
 62
7
  6
CONTINUOUS
 10
3.1551181316
 20
25.05
 11
3.1472569647
 21
25.2
  0
LINE
  5
490
100
AcDbEntity
  8
DRAFT
100
AcDbLine
 62
7
  6
CONTINUOUS
 10
2.9638297372
 20
-25.2
 11
2.9716909041
 21
-25.05
  0
LINE
  5
491
100
AcDbEntity
  8
DRAFT
100
AcDbLine
 62
7
  6
CONTINUOUS
 10
2.9900336269
 20
-25.2
 11
2.9978947937
 21
-25.05
  0
LINE
  5
492
100
AcDbEntity
  8
DRAFT
100
AcDbLine
 62
7
  6
CONTINUOUS
 10
3.0162375165
 20
-25.2
 11
3.0240986834
 21
-25.05
  0
LINE
  5
493
100
AcDbEntity
  8
DRAFT
100
AcDbLine
 62
7
  6
CONTINUOUS
 10
3.0424414061
 20
-25.2
 11
3.050302573
 21
-25.05
  0
LINE
  5
494
100
AcDbEntity
  8
DRAFT
100
AcDbLine
 62
7
  6
CONTINUOUS
 10
3.0686452958
 20
-25.2
 11
3.0765064627
 21
-25.05
  0
LINE
  5
495
100
AcDbEntity
  8
DRAFT
100
AcDbLine
 62
7
  6
CONTINUOUS
 10
3.0948491854
 20
-25.2
 11
3.1027103523
 21
-25.05
  0
LINE
  5
496
100
AcDbEntity
  8
DRAFT
100
AcDbLine
 62
7
  6
CONTINUOUS
 10
3.1210530751
 20
-25.2
 11
3.128914242
 21
-25.05
  0
LINE
  5
497
100
AcDbEntity
  8
DRAFT
100
AcDbLine
 62
7
  6
CONTINUOUS
 10
3.1472569647
 20
-25.2
 11
3.1551181316
 21
-25.05
  0
LWPOLYLINE
  5
498
100
AcDbEntity
  8
0
100
AcDbPolyline
 62
7
  6
CONTINUOUS
 90
7
 70
0
 10
3.239693998
 20
-25.0103467938
 10
3.2380399146
 20
-25.0224368051
 10
3.2363656517
 20
-25.032334359
 10
3.2346712092
 20
-25.0400394554
 10
3.2329565872
 20
-25.0455520944
 10
3.2312217855
 20
-25.0488722759
 10
3.2294668044
 20
-25.05
  0
LINE
  5
499
100
AcDbEntity
  8
RACCORDO
100
AcDbLine
 62
250
  6
CONTINUOUS
 10
0.0
 20
-26.7
 11
0.1741669751
 21
-26.05
  0
LINE
  5
49A
100
AcDbEntity
  8
RACCORDO
100
AcDbLine
 62
7
  6
CONTINUOUS
 10
0.2897777479
 20
-26.7776457135
 11
0.4043650715
 21
-26.35
  0
LWPOLYLINE
  5
49B
100
AcDbEntity
  8
RACCORDO
100
AcDbPolyline
 62
250
  6
CONTINUOUS
 90
9
 70
0
 10
13.149999905
 20
15.700000485
 10
13.150152008
 20
15.7003654058
 10
13.1503082582
 20
15.7015039111
 10
13.1504682036
 20
15.7034798869
 10
13.1506316941
 20
15.7063623189
 10
13.1507977453
 20
15.7102094735
 10
13.1509645866
 20
15.71504692
 10
13.1511315557
 20
15.7209113799
 10
13.1514616446
 20
15.7357937877
  0
LWPOLYLINE
  5
49C
100
AcDbEntity
  8
RACCORDO
100
AcDbPolyline
 62
250
  6
CONTINUOUS
 90
3
 70
0
 10
-11.7349231501
 20
-35.6013498324
 10
-11.7165063414
 20
-35.5618551065
 10
-11.6915110977
 20
-35.5261584224
  0
LWPOLYLINE
  5
49D
100
AcDbEntity
  8
RACCORDO
100
AcDbPolyline
 62
250
  6
CONTINUOUS
 90
8
 70
0
 10
-11.7349231552
 20
-35.612754718
 10
-11.7165063509
 20
-35.5732599945
 10
-11.6915111108
 20
-35.5375633095
 10
-11.6606969024
 20
-35.5067492889
 10
-11.625
 20
-35.481754201
 10
-11.5855050358
 20
-35.463337509
 10
-11.5434120444
 20
-35.4520587946
 10
-11.5
 20
-35.448260756
  0
LINE
  5
49E
100
AcDbEntity
  8
0
100
AcDbLine
 62
7
  6
CONTINUOUS
 10
22.81625
 20
25.4127659261
 11
22.9137500465
 21
25.5787234306
  0
LINE
  5
49F
100
AcDbEntity
  8
0
100
AcDbLine
 62
7
  6
CONTINUOUS
 10
23.40125
 20
24.8872340351
 11
23.3037499535
 21
24.7212765887
  0
LINE
  5
4A0
100
AcDbEntity
  8
0
100
AcDbLine
 62
7
  6
CONTINUOUS
 10
23.888750093
 20
25.4127659261
 11
23.98625
 21
25.5787234306
  0
LINE
  5
4A1
100
AcDbEntity
  8
0
100
AcDbLine
 62
7
  6
CONTINUOUS
 10
-15.705084
 20
-33.075
 11
-16.40349
 21
-34.180362
  0
LINE
  5
4A2
100
AcDbEntity
  8
0
100
AcDbLine
 62
7
  6
CONTINUOUS
 10
25.570625093
 20
24.6106382944
 11
25.643750093
 21
24.7212765887
  0
LINE
  5
4A3
100
AcDbEntity
  8
0
100
AcDbLine
 62
7
  6
CONTINUOUS
 10
27.544999814
 20
25.8
 11
26.959999814
 21
25.0531915009
  0
LINE
  5
4A4
100
AcDbEntity
  8
0
100
AcDbLine
 62
7
  6
CONTINUOUS
 10
27.130625
 20
25.0531915009
 11
27.544999814
 21
25.5787234306
  0
LINE
  5
4A5
100
AcDbEntity
  8
0
100
AcDbLine
 62
7
  6
CONTINUOUS
 10
28.861249814
 20
25.1914893568
 11
28.934374814
 21
25.2744680703
  0
LINE
  5
4A6
100
AcDbEntity
  8
0
100
AcDbLine
 62
7
  6
CONTINUOUS
 10
28.885625
 20
24.6106382944
 11
28.95875
 21
24.6936170176
  0
LWPOLYLINE
  5
4A7
100
AcDbEntity
  8
RACCORDO
100
AcDbPolyline
 62
250
  6
CONTINUOUS
 90
8
 70
0
 10
-35.6127548851
 20
-22.484923216
 10
-35.5732601901
 20
-22.4665064639
 10
-35.5375634971
 20
-22.4415112682
 10
-35.506749441
 20
-22.4106970837
 10
-35.4817543047
 20
-22.3750001796
 10
-35.4633375634
 20
-22.3355051854
 10
-35.4520588103
 20
-22.2934121331
 10
-35.448260756
 20
-22.25
  0
LWPOLYLINE
  5
4A8
100
AcDbEntity
  8
RACCORDO
100
AcDbPolyline
 62
250
  6
CONTINUOUS
 90
3
 70
0
 10
-35.6013498465
 20
-22.4849231552
 10
-35.561855123
 20
-22.4665063509
 10
-35.526158438
 20
-22.4415111108
  0
LINE
  5
4A9
100
AcDbEntity
  8
RACCORDO
100
AcDbLine
 62
7
  6
CONTINUOUS
 10
13.85
 20
7.68
 11
13.1499999998
 21
7.68
  0
LINE
  5
4AA
100
AcDbEntity
  8
RACCORDO
100
AcDbLine
 62
250
  6
CONTINUOUS
 10
14.1478519741
 20
7.3797552169
 11
12.85
 21
7.3800452521
  0
LWPOLYLINE
  5
4AB
100
AcDbEntity
  8
RACCORDO
100
AcDbPolyline
 62
250
  6
CONTINUOUS
 90
8
 70
0
 10
-35.612754718
 20
22.4849231552
 10
-35.5732599945
 20
22.4665063509
 10
-35.5375633095
 20
22.4415111108
 10
-35.5067492889
 20
22.4106969024
 10
-35.481754201
 20
22.375
 10
-35.463337509
 20
22.3355050358
 10
-35.4520587946
 20
22.2934120444
 10
-35.448260756
 20
22.25
  0
LWPOLYLINE
  5
4AC
100
AcDbEntity
  8
RACCORDO
100
AcDbPolyline
 62
250
  6
CONTINUOUS
 90
3
 70
0
 10
-35.6013496128
 20
22.4849230701
 10
-35.5618548505
 20
22.4665061937
 10
-35.5261581796
 20
22.4415108939
  0
LWPOLYLINE
  5
4AD
100
AcDbEntity
  8
RACCORDO
100
AcDbPolyline
 62
250
  6
CONTINUOUS
 90
3
 70
0
 10
-11.7349231552
 20
35.6013498465
 10
-11.7165063509
 20
35.561855123
 10
-11.6915111108
 20
35.526158438
  0
LWPOLYLINE
  5
4AE
100
AcDbEntity
  8
RACCORDO
100
AcDbPolyline
 62
250
  6
CONTINUOUS
 90
8
 70
0
 10
-11.7349233296
 20
35.6127551973
 10
-11.7165066749
 20
35.5732605555
 10
-11.6915115615
 20
35.5375638467
 10
-11.6606974206
 20
35.5067497237
 10
-11.6250005128
 20
35.4817544971
 10
-11.5855054628
 20
35.4633376644
 10
-11.5434122975
 20
35.4520588392
 10
-11.5
 20
35.448260756
  0
LINE
  5
4AF
100
AcDbEntity
  8
RACCORDO
100
AcDbLine
 62
250
  6
CONTINUOUS
 10
0.1741669751
 20
26.05
 11
0.0
 21
26.7
  0
LINE
  5
4B0
100
AcDbEntity
  8
RACCORDO
100
AcDbLine
 62
7
  6
CONTINUOUS
 10
0.4043650715
 20
26.35
 11
0.2897777479
 21
26.7776457135
  0
LINE
  5
4B1
100
AcDbEntity
  8
0
100
AcDbLine
 62
7
  6
CONTINUOUS
 10
3.2380398508
 20
25.0224372253
 11
3.2396939239
 21
25.0103473927
  0
LINE
  5
4B2
100
AcDbEntity
  8
RACCORDO
100
AcDbLine
 62
250
  6
CONTINUOUS
 10
11.75
 20
-35.6982592329
 11
11.7462019383
 21
-35.6434425815
  0
LINE
  5
4B3
100
AcDbEntity
  8
RACCORDO
100
AcDbLine
 62
250
  6
CONTINUOUS
 10
10.9500889963
 20
-24.4084885477
 11
10.9500119386
 21
-24.1026597167
  0
LINE
  5
4B4
100
AcDbEntity
  8
SUPERFICI
100
AcDbLine
 62
7
  6
CONTINUOUS
 10
11.25
 20
22.2
 11
11.25
 21
-22.2
  0
LINE
  5
4B5
100
AcDbEntity
  8
RACCORDO
100
AcDbLine
 62
7
  6
CONTINUOUS
 10
11.25
 20
-37.9841533632
 11
11.25
 21
-24.0761663039
  0
LINE
  5
4B6
100
AcDbEntity
  8
RACCORDO
100
AcDbLine
 62
7
  6
CONTINUOUS
 10
11.25
 20
24.0761663039
 11
11.25
 21
37.9841533632
  0
LINE
  5
4B7
100
AcDbEntity
  8
RACCORDO
100
AcDbLine
 62
7
  6
CONTINUOUS
 10
11.75
 20
37.9841533632
 11
11.75
 21
23.923368794
  0
LINE
  5
4B8
100
AcDbEntity
  8
RACCORDO
100
AcDbLine
 62
7
  6
CONTINUOUS
 10
11.75
 20
-23.923368794
 11
11.75
 21
-37.9841533632
  0
LINE
  5
4B9
100
AcDbEntity
  8
RACCORDO
100
AcDbLine
 62
250
  6
CONTINUOUS
 10
10.9500889961
 20
24.4084885308
 11
10.9500116769
 21
24.1026597837
  0
LINE
  5
4BA
100
AcDbEntity
  8
RACCORDO
100
AcDbLine
 62
250
  6
CONTINUOUS
 10
11.75
 20
35.6982592329
 11
11.7462019367
 21
35.6434425729
  0
LWPOLYLINE
  5
4BB
100
AcDbEntity
  8
0
100
AcDbPolyline
 62
7
  6
CONTINUOUS
 90
22
 70
0
 10
-0.4992378842
 20
-33.5576655616
 10
-0.4816415087
 20
-33.4970599553
 10
-0.4612945651
 20
-33.437399958
 10
-0.4379950682
 20
-33.3789085715
 10
-0.4115661406
 20
-33.3219323357
 10
-0.3816741982
 20
-33.2667780756
 10
-0.3478860797
 20
-33.2137195609
 10
-0.3097764969
 20
-33.1632099371
 10
-0.2672423422
 20
-33.1161428152
 10
-0.2205242063
 20
-33.073538381
 10
-0.1699555317
 20
-33.0361308192
 10
-0.1159013927
 20
-33.0043697961
 10
-0.0589653487
 20
-32.9785427791
 10
0.0000169725
 20
-32.9587355777
 10
0.0604839266
 20
-32.9446767712
 10
0.1223272211
 20
-32.9359341429
 10
0.1852961847
 20
-32.932131467
 10
0.2487674085
 20
-32.9325950026
 10
0.3123079254
 20
-32.9364649465
 10
0.3755991718
 20
-32.944309848
 10
0.4382938057
 20
-32.9569463073
 10
0.499739172
 20
-32.975349728
  0
LINE
  5
4BC
100
AcDbEntity
  8
0
100
AcDbLine
 62
7
  6
CONTINUOUS
 10
23.908502
 20
34.654752
 11
23.330206
 21
32.9747
  0
LINE
  5
4BD
100
AcDbEntity
  8
0
100
AcDbLine
 62
7
  6
CONTINUOUS
 10
23.114167
 20
32.326584
 11
22.822544
 21
31.5
  0
LINE
  5
4BE
100
AcDbEntity
  8
0
100
AcDbLine
 62
7
  6
CONTINUOUS
 10
22.023112
 20
31.5
 11
23.432942
 21
35.400001
  0
LINE
  5
4BF
100
AcDbEntity
  8
0
100
AcDbLine
 62
7
  6
CONTINUOUS
 10
22.7675000465
 20
25.6063830018
 11
22.7187499535
 21
25.4957447171
  0
LINE
  5
4C0
100
AcDbEntity
  8
0
100
AcDbLine
 62
7
  6
CONTINUOUS
 10
23.84
 20
25.6063830018
 11
23.7912500465
 21
25.4957447171
  0
LINE
  5
4C1
100
AcDbEntity
  8
0
100
AcDbLine
 62
7
  6
CONTINUOUS
 10
23.4499999535
 20
24.6936170176
 11
23.4987500465
 21
24.8042553216
  0
LINE
  5
4C2
100
AcDbEntity
  8
0
100
AcDbLine
 62
7
  6
CONTINUOUS
 10
24.473750093
 20
24.8872340351
 11
24.376249907
 21
24.7212765887
  0
LINE
  5
4C3
100
AcDbEntity
  8
0
100
AcDbLine
 62
7
  6
CONTINUOUS
 10
25.546249907
 20
24.8042553216
 11
25.497500093
 21
24.7212765887
  0
LINE
  5
4C4
100
AcDbEntity
  8
0
100
AcDbLine
 62
7
  6
CONTINUOUS
 10
26.03375
 20
25.4957447171
 11
26.082500093
 21
25.5787234306
  0
LINE
  5
4C5
100
AcDbEntity
  8
0
100
AcDbLine
 62
7
  6
CONTINUOUS
 10
26.691875
 20
25.2468084991
 11
26.740624814
 21
25.3297872126
  0
LINE
  5
4C6
100
AcDbEntity
  8
0
100
AcDbLine
 62
7
  6
CONTINUOUS
 10
28.276249814
 20
25.4680850685
 11
28.325000186
 21
25.5510638595
  0
LINE
  5
4C7
100
AcDbEntity
  8
0
100
AcDbLine
 62
7
  6
CONTINUOUS
 10
28.251875186
 20
24.9148936063
 11
28.325000186
 21
25.0255319297
  0
LINE
  5
4C8
100
AcDbEntity
  8
0
100
AcDbLine
 62
7
  6
CONTINUOUS
 10
28.885625
 20
24.8319148928
 11
28.8125
 21
24.7212765887
  0
LWPOLYLINE
  5
4C9
100
AcDbEntity
  8
RACCORDO
100
AcDbPolyline
 62
250
  6
CONTINUOUS
 90
6
 70
0
 10
35.526158438
 20
22.4415111108
 10
35.4953444174
 20
22.4106969024
 10
35.4703493295
 20
22.375
 10
35.4519326375
 20
22.3355050358
 10
35.4406539231
 20
22.2934120444
 10
35.4368558845
 20
22.25
  0
LWPOLYLINE
  5
4CA
100
AcDbEntity
  8
RACCORDO
100
AcDbPolyline
 62
250
  6
CONTINUOUS
 90
10
 70
0
 10
-35.2779672797
 20
-22.5
 10
-35.2668293619
 20
-22.4962019383
 10
-35.2560298641
 20
-22.4849231554
 10
-35.2458969236
 20
-22.4665063512
 10
-35.2367384245
 20
-22.4415111112
 10
-35.2288326434
 20
-22.4106969029
 10
-35.2224197933
 20
-22.3750000005
 10
-35.2176947255
 20
-22.3355050362
 10
-35.2148010087
 20
-22.2934120446
 10
-35.2138265672
 20
-22.25
  0
LWPOLYLINE
  5
4CB
100
AcDbEntity
  8
RACCORDO
100
AcDbPolyline
 62
250
  6
CONTINUOUS
 90
10
 70
0
 10
-35.2779672797
 20
22.5
 10
-35.2668293393
 20
22.4962019227
 10
-35.256029827
 20
22.4849231026
 10
-35.2458968805
 20
22.4665062544
 10
-35.2367383843
 20
22.4415109797
 10
-35.228832612
 20
22.4106967569
 10
-35.2224197725
 20
22.3749998602
 10
-35.2176947148
 20
22.3355049211
 10
-35.2148010057
 20
22.2934119772
 10
-35.2138265672
 20
22.25
  0
LWPOLYLINE
  5
4CC
100
AcDbEntity
  8
RACCORDO
100
AcDbPolyline
 62
250
  6
CONTINUOUS
 90
6
 70
0
 10
35.5261581796
 20
-22.4415108939
 10
35.4953442109
 20
-22.4106966564
 10
35.4703491904
 20
-22.3749997591
 10
35.4519325648
 20
-22.3355048363
 10
35.4406539023
 20
-22.2934119266
 10
35.4368558845
 20
-22.25
  0
LINE
  5
4CD
100
AcDbEntity
  8
0
100
AcDbLine
 62
7
  6
CONTINUOUS
 10
30.743299
 20
-32.447906
 11
30.52593
 21
-32.060625
  0
LWPOLYLINE
  5
4CE
100
AcDbEntity
  8
RACCORDO
100
AcDbPolyline
 62
250
  6
CONTINUOUS
 90
3
 70
0
 10
0.4193570145
 20
26.8771751332
 10
0.4010078745
 20
26.9182204198
 10
0.3780054166
 20
26.9582983358
  0
LWPOLYLINE
  5
4CF
100
AcDbEntity
  8
0
100
AcDbPolyline
 62
7
  6
CONTINUOUS
 90
3
 70
0
 10
3.2396939239
 20
25.0103473927
 10
3.2446168533
 20
24.9917977128
 10
3.2536699489
 20
24.9696065912
  0
LINE
  5
4D0
100
AcDbEntity
  8
RACCORDO
100
AcDbLine
 62
250
  6
CONTINUOUS
 10
11.25
 20
35.6982592329
 11
11.2537980617
 21
35.6434425815
  0
LWPOLYLINE
  5
4D1
100
AcDbEntity
  8
RACCORDO
100
AcDbPolyline
 62
250
  6
CONTINUOUS
 90
3
 70
0
 10
13.1499999995
 20
7.6799982945
 10
13.1500443931
 20
7.6787714642
 10
13.1500876924
 20
7.6751719722
  0
LINE
  5
4D2
100
AcDbEntity
  8
RACCORDO
100
AcDbLine
 62
250
  6
CONTINUOUS
 10
13.1500876924
 20
7.6751719722
 11
13.1502444037
 21
7.6402213245
  0
LINE
  5
4D3
100
AcDbEntity
  8
RACCORDO
100
AcDbLine
 62
250
  6
CONTINUOUS
 10
13.1484948863
 20
-0.000443023
 11
13.1562726745
 21
-22.0000000002
  0
LINE
  5
4D4
100
AcDbEntity
  8
RACCORDO
100
AcDbLine
 62
250
  6
CONTINUOUS
 10
14.145333395
 20
15.9996527482
 11
14.1478521163
 21
7.3797551897
  0
LINE
  5
4D5
100
AcDbEntity
  8
RACCORDO
100
AcDbLine
 62
7
  6
CONTINUOUS
 10
12.85
 20
-22.25
 11
12.85
 21
22.25
  0
LINE
  5
4D6
100
AcDbEntity
  8
RACCORDO
100
AcDbLine
 62
7
  6
CONTINUOUS
 10
13.85
 20
15.7
 11
13.85
 21
7.68
  0
LINE
  5
4D7
100
AcDbEntity
  8
RACCORDO
100
AcDbLine
 62
250
  6
CONTINUOUS
 10
13.1502444037
 20
7.6402213245
 11
13.1484946466
 21
-0.000443023
  0
LINE
  5
4D8
100
AcDbEntity
  8
RACCORDO
100
AcDbLine
 62
250
  6
CONTINUOUS
 10
13.1527620133
 20
15.8657452488
 11
13.156268946
 21
22.0000000001
  0
LINE
  5
4D9
100
AcDbEntity
  8
RACCORDO
100
AcDbLine
 62
250
  6
CONTINUOUS
 10
13.1522105856
 20
15.7905769019
 11
13.1527620133
 21
15.8657452488
  0
LINE
  5
4DA
100
AcDbEntity
  8
RACCORDO
100
AcDbLine
 62
250
  6
CONTINUOUS
 10
13.1517784769
 20
15.7548164433
 11
13.1522105856
 21
15.7905769019
  0
LINE
  5
4DB
100
AcDbEntity
  8
RACCORDO
100
AcDbLine
 62
250
  6
CONTINUOUS
 10
13.1514616446
 20
15.7357937877
 11
13.1517784769
 21
15.7548164433
  0
LINE
  5
4DC
100
AcDbEntity
  8
RACCORDO
100
AcDbLine
 62
250
  6
CONTINUOUS
 10
11.25
 20
-35.6982592329
 11
11.2537980633
 21
-35.6434425729
  0
LINE
  5
4DD
100
AcDbEntity
  8
0
100
AcDbLine
 62
7
  6
CONTINUOUS
 10
21.7681250058
 20
24.9425531775
 11
21.9874999884
 21
25.6893617153
  0
LINE
  5
4DE
100
AcDbEntity
  8
0
100
AcDbLine
 62
7
  6
CONTINUOUS
 10
21.64625
 20
24.5
 11
21.7437499942
 21
24.8319148928
  0
LINE
  5
4DF
100
AcDbEntity
  8
0
100
AcDbLine
 62
7
  6
CONTINUOUS
 10
22.7187499535
 20
25.4957447171
 11
22.6943750465
 21
25.4127659261
  0
LINE
  5
4E0
100
AcDbEntity
  8
0
100
AcDbLine
 62
7
  6
CONTINUOUS
 10
23.4987500465
 20
24.8042553216
 11
23.5231249535
 21
24.8872340351
  0
LINE
  5
4E1
100
AcDbEntity
  8
0
100
AcDbLine
 62
7
  6
CONTINUOUS
 10
21.8900000116
 20
25.8
 11
21.5
 21
24.5
  0
LINE
  5
4E2
100
AcDbEntity
  8
0
100
AcDbLine
 62
7
  6
CONTINUOUS
 10
24.522499907
 20
24.6936170176
 11
24.57125
 21
24.8042553216
  0
LINE
  5
4E3
100
AcDbEntity
  8
0
100
AcDbLine
 62
7
  6
CONTINUOUS
 10
26.61875
 20
25.4404254973
 11
26.570000186
 21
25.3297872126
  0
LWPOLYLINE
  5
4E4
100
AcDbEntity
  8
RACCORDO
100
AcDbPolyline
 62
250
  6
CONTINUOUS
 90
6
 70
0
 10
0.3848752617
 20
-26.9473018493
 10
0.4059986505
 20
-26.9080678876
 10
0.4226855648
 20
-26.8683069225
 10
0.4351612851
 20
-26.8283857692
 10
0.4436633186
 20
-26.7888881143
 10
0.448512276
 20
-26.7502474742
  0
LINE
  5
4E5
100
AcDbEntity
  8
0
100
AcDbLine
 62
7
  6
CONTINUOUS
 10
28.861249814
 20
25.4127659261
 11
28.8125
 21
25.3297872126
  0
LWPOLYLINE
  5
4E6
100
AcDbEntity
  8
RACCORDO
100
AcDbPolyline
 62
7
  6
CONTINUOUS
 90
6
 70
0
 10
-0.366253822
 20
-26.3002319191
 10
-0.3789665124
 20
-26.3170950932
 10
-0.3895680523
 20
-26.3307161491
 10
-0.3976920004
 20
-26.3406757255
 10
-0.4027669768
 20
-26.3471418952
 10
-0.4043650715
 20
-26.35
  0
LWPOLYLINE
  5
4E7
100
AcDbEntity
  8
RACCORDO
100
AcDbPolyline
 62
7
  6
CONTINUOUS
 90
7
 70
0
 10
-0.1741669751
 20
-26.05
 10
-0.1950738736
 20
-26.0777028751
 10
-0.2162568352
 20
-26.105223998
 10
-0.2374694036
 20
-26.1324973311
 10
-0.2583627623
 20
-26.1596556794
 10
-0.2787403196
 20
-26.1864200962
 10
-0.3174301412
 20
-26.2366251243
  0
LINE
  5
4E8
100
AcDbEntity
  8
RACCORDO
100
AcDbLine
 62
250
  6
CONTINUOUS
 10
35.6548475539
 20
22.496201956
 11
35.6013498465
 21
22.4849231552
  0
LINE
  5
4E9
100
AcDbEntity
  8
RACCORDO
100
AcDbLine
 62
250
  6
CONTINUOUS
 10
-35.654847453
 20
22.4962019383
 11
-35.6013496128
 21
22.4849230701
  0
LWPOLYLINE
  5
4EA
100
AcDbEntity
  8
RACCORDO
100
AcDbPolyline
 62
7
  6
CONTINUOUS
 90
10
 70
0
 10
14.0177525626
 20
7.5104146737
 10
13.9684630141
 20
7.559776175
 10
13.9455466269
 20
7.5831249914
 10
13.9239521228
 20
7.6046544304
 10
13.9041839404
 20
7.6245702295
 10
13.8867030675
 20
7.6426665814
 10
13.8718128266
 20
7.6574111609
 10
13.860186631
 20
7.6682930915
 10
13.8526671509
 20
7.6758228396
 10
13.85
 20
7.679999997
  0
LWPOLYLINE
  5
4EB
100
AcDbEntity
  8
RACCORDO
100
AcDbPolyline
 62
7
  6
CONTINUOUS
 90
6
 70
0
 10
14.1478521163
 20
7.3797551897
 10
14.1220272252
 20
7.4060576316
 10
14.095863372
 20
7.4322235079
 10
14.0695835585
 20
7.4582529169
 10
14.0434705638
 20
7.4844019595
 10
14.0177525626
 20
7.5104146737
  0
LWPOLYLINE
  5
4EC
100
AcDbEntity
  8
0
100
AcDbPolyline
 62
7
  6
CONTINUOUS
 90
7
 70
0
 10
3.2536699489
 20
24.9696065912
 10
3.2668533443
 20
24.9437997731
 10
3.2844697323
 20
24.9144354999
 10
3.3062166924
 20
24.8816273635
 10
3.3311866844
 20
24.8455533112
 10
3.3593225489
 20
24.8065972081
 10
3.4606176383
 20
24.6722665172
  0
LWPOLYLINE
  5
4ED
100
AcDbEntity
  8
0
100
AcDbPolyline
 62
7
  6
CONTINUOUS
 90
28
 70
0
 10
17.9069248867
 20
34.200926552
 10
17.9064527094
 20
34.237086356
 10
17.9048686578
 20
34.2724883206
 10
17.9019498842
 20
34.3070295484
 10
17.8974812463
 20
34.3407999173
 10
17.8913237532
 20
34.3735384608
 10
17.8836181423
 20
34.404636884
 10
17.8747381471
 20
34.433525816
 10
17.8647637619
 20
34.4607024683
 10
17.8534325621
 20
34.4871371205
 10
17.8407251503
 20
34.5128547717
 10
17.8267047911
 20
34.5377018441
 10
17.8109416605
 20
34.5621968091
 10
17.7930557413
 20
34.5863496763
 10
17.7731316609
 20
34.609435127
 10
17.7513756089
 20
34.6307445024
 10
17.7277765175
 20
34.6499131364
 10
17.7023400468
 20
34.6667852607
 10
17.6756008384
 20
34.6813355427
 10
17.6479945831
 20
34.6937261337
 10
17.6197578383
 20
34.7042027561
 10
17.5911831998
 20
34.7129576493
 10
17.5625753562
 20
34.7201720586
 10
17.5339315273
 20
34.7261062265
 10
17.5050585236
 20
34.7310326958
 10
17.4760196716
 20
34.7351595963
 10
17.4468248826
 20
34.7387056775
 10
17.4171944488
 20
34.7419205047
  0
LINE
  5
4EE
100
AcDbEntity
  8
0
100
AcDbLine
 62
7
  6
CONTINUOUS
 10
16.0
 20
31.5
 11
16.0
 21
35.400001
  0
LINE
  5
4EF
100
AcDbEntity
  8
0
100
AcDbLine
 62
7
  6
CONTINUOUS
 10
16.837298
 20
34.751884
 11
16.837298
 21
33.649969
  0
LINE
  5
4F0
100
AcDbEntity
  8
0
100
AcDbLine
 62
7
  6
CONTINUOUS
 10
16.837298
 20
33.001852
 11
16.837298
 21
31.5
  0
LINE
  5
4F1
100
AcDbEntity
  8
0
100
AcDbLine
 62
7
  6
CONTINUOUS
 10
19.322185
 20
31.5
 11
19.322185
 21
35.400001
  0
LWPOLYLINE
  5
4F2
100
AcDbEntity
  8
0
100
AcDbPolyline
 62
7
  6
CONTINUOUS
 90
33
 70
0
 10
18.7982321166
 20
34.200926552
 10
18.7969416249
 20
34.1300261591
 10
18.7928857812
 20
34.0590381422
 10
18.7857853567
 20
33.9881431249
 10
18.7753122503
 20
33.9173209067
 10
18.7610961902
 20
33.8469861916
 10
18.7428782236
 20
33.7779587279
 10
18.7204050276
 20
33.710545456
 10
18.6936083002
 20
33.6450938638
 10
18.6627004204
 20
33.5824225597
 10
18.6278983908
 20
33.5231264736
 10
18.5892281689
 20
33.4674048977
 10
18.5466739125
 20
33.4154124006
 10
18.5006706823
 20
33.3673261387
 10
18.4516934262
 20
33.3230714981
 10
18.3998623414
 20
33.2823529286
 10
18.3455726416
 20
33.2452055073
 10
18.2892703785
 20
33.2116947395
 10
18.2309651234
 20
33.1815258154
 10
18.1707897031
 20
33.1544377877
 10
18.1091022485
 20
33.130267605
 10
18.0461702752
 20
33.1087914141
 10
17.9823532717
 20
33.0898035844
 10
17.9177523224
 20
33.0730872098
 10
17.8521657322
 20
33.0584894875
 10
17.7858711368
 20
33.0459864271
 10
17.718740834
 20
33.0354662384
 10
17.649940567
 20
33.0267587798
 10
17.5795998016
 20
33.0198607431
 10
17.5077135928
 20
33.0145862152
 10
17.433228735
 20
33.0105525102
 10
17.3558145085
 20
33.0073945971
 10
17.1934416814
 20
33.001852
  0
LINE
  5
4F3
100
AcDbEntity
  8
0
100
AcDbLine
 62
7
  6
CONTINUOUS
 10
22.7918749535
 20
25.2468084991
 11
22.81625
 21
25.4127659261
  0
LINE
  5
4F4
100
AcDbEntity
  8
0
100
AcDbLine
 62
7
  6
CONTINUOUS
 10
22.6943750465
 20
25.4127659261
 11
22.67
 21
25.2744680703
  0
LINE
  5
4F5
100
AcDbEntity
  8
0
100
AcDbLine
 62
7
  6
CONTINUOUS
 10
23.5231249535
 20
24.8872340351
 11
23.5475
 21
25.0255319297
  0
LINE
  5
4F6
100
AcDbEntity
  8
0
100
AcDbLine
 62
7
  6
CONTINUOUS
 10
23.766875
 20
25.4127659261
 11
23.7424999535
 21
25.2744680703
  0
LINE
  5
4F7
100
AcDbEntity
  8
0
100
AcDbLine
 62
7
  6
CONTINUOUS
 10
23.7912500465
 20
25.4957447171
 11
23.766875
 21
25.4127659261
  0
LINE
  5
4F8
100
AcDbEntity
  8
0
100
AcDbLine
 62
7
  6
CONTINUOUS
 10
24.57125
 20
24.8042553216
 11
24.595624907
 21
24.8872340351
  0
LINE
  5
4F9
100
AcDbEntity
  8
0
100
AcDbLine
 62
7
  6
CONTINUOUS
 10
25.570625093
 20
24.8872340351
 11
25.546249907
 21
24.8042553216
  0
LINE
  5
4FA
100
AcDbEntity
  8
0
100
AcDbLine
 62
7
  6
CONTINUOUS
 10
32.011059
 20
34.654532
 11
31.432839
 21
32.9747
  0
LINE
  5
4FB
100
AcDbEntity
  8
0
100
AcDbLine
 62
7
  6
CONTINUOUS
 10
25.643750093
 20
24.7212765887
 11
25.692499907
 21
24.859574464
  0
LINE
  5
4FC
100
AcDbEntity
  8
0
100
AcDbLine
 62
7
  6
CONTINUOUS
 10
28.203124814
 20
25.6063830018
 11
28.154375
 21
25.4680850685
  0
LINE
  5
4FD
100
AcDbEntity
  8
0
100
AcDbLine
 62
7
  6
CONTINUOUS
 10
28.178750186
 20
25.0531915009
 11
28.129999814
 21
24.9148936063
  0
LINE
  5
4FE
100
AcDbEntity
  8
0
100
AcDbLine
 62
7
  6
CONTINUOUS
 10
28.95875
 20
24.6936170176
 11
29.007499814
 21
24.8319148928
  0
LINE
  5
4FF
100
AcDbEntity
  8
0
100
AcDbLine
 62
7
  6
CONTINUOUS
 10
31.2168
 20
32.326584
 11
30.92503
 21
31.5
  0
LINE
  5
500
100
AcDbEntity
  8
0
100
AcDbLine
 62
7
  6
CONTINUOUS
 10
30.125598
 20
31.5
 11
31.535575
 21
35.400001
  0
LINE
  5
501
100
AcDbEntity
  8
0
100
AcDbLine
 62
7
  6
CONTINUOUS
 10
28.934374814
 20
25.2744680703
 11
28.983125186
 21
25.385106355
  0
LINE
  5
502
100
AcDbEntity
  8
0
100
AcDbLine
 62
7
  6
CONTINUOUS
 10
-1.357759
 20
-33.346861
 11
-2.036025
 21
-34.298707
  0
LWPOLYLINE
  5
503
100
AcDbEntity
  8
0
100
AcDbPolyline
 62
7
  6
CONTINUOUS
 90
8
 70
0
 10
3.3593177704
 20
-24.8066027536
 10
3.3311844422
 20
-24.8455559758
 10
3.3062143014
 20
-24.8816312748
 10
3.2844661135
 20
-24.9144417968
 10
3.266849182
 20
-24.9438065109
 10
3.2536665149
 20
-24.9696114918
 10
3.2446148314
 20
-24.9917999863
 10
3.239693998
 20
-25.0103467938
  0
LINE
  5
504
100
AcDbEntity
  8
0
100
AcDbLine
 62
7
  6
CONTINUOUS
 10
-2.281034
 20
-34.270797
 11
-1.313443
 21
-32.934914
  0
LWPOLYLINE
  5
505
100
AcDbEntity
  8
RACCORDO
100
AcDbPolyline
 62
7
  6
CONTINUOUS
 90
3
 70
0
 10
-0.3174301412
 20
-26.2366251243
 10
-0.3350902049
 20
-26.259890979
 10
-0.366253822
 20
-26.3002319191
  0
LWPOLYLINE
  5
506
100
AcDbEntity
  8
0
100
AcDbPolyline
 62
7
  6
CONTINUOUS
 90
4
 70
0
 10
3.5402599363
 20
-24.5699332004
 10
3.4991894309
 20
-24.6220868438
 10
3.4606089575
 20
-24.6722783186
 10
3.3593177704
 20
-24.8066027536
  0
LWPOLYLINE
  5
507
100
AcDbEntity
  8
RACCORDO
100
AcDbPolyline
 62
7
  6
CONTINUOUS
 90
7
 70
0
 10
2.9420437821
 20
-25.0504111396
 10
2.9375132124
 20
-25.0561261126
 10
2.9285462987
 20
-25.0648512112
 10
2.9158684864
 20
-25.0765864353
 10
2.9003061132
 20
-25.0917859819
 10
2.8824799434
 20
-25.1099956541
 10
2.8626020609
 20
-25.1298528608
  0
LWPOLYLINE
  5
508
100
AcDbEntity
  8
RACCORDO
100
AcDbPolyline
 62
7
  6
CONTINUOUS
 90
7
 70
0
 10
-0.4484994052
 20
-26.6766274222
 10
-0.4333339477
 20
-26.6580006523
 10
-0.4174158542
 20
-26.6394240456
 10
-0.4007451248
 20
-26.6209687697
 10
-0.3833217593
 20
-26.6027039848
 10
-0.3651457579
 20
-26.5846966099
 10
-0.3462171206
 20
-26.5670111071
  0
LWPOLYLINE
  5
509
100
AcDbEntity
  8
RACCORDO
100
AcDbPolyline
 62
250
  6
CONTINUOUS
 90
6
 70
0
 10
-11.6915110977
 20
-35.5261584224
 10
-11.6606968876
 20
-35.4953444049
 10
-11.6249999854
 20
-35.4703493211
 10
-11.5855050238
 20
-35.4519326331
 10
-11.5434120373
 20
-35.4406539219
 10
-11.5
 20
-35.4368558845
  0
LINE
  5
50A
100
AcDbEntity
  8
0
100
AcDbLine
 62
7
  6
CONTINUOUS
 10
28.714999814
 20
24.6659574464
 11
28.617500186
 21
24.6382978752
  0
LINE
  5
50B
100
AcDbEntity
  8
0
100
AcDbLine
 62
7
  6
CONTINUOUS
 10
28.422499814
 20
25.0808510721
 11
28.52
 21
25.1085106432
  0
LINE
  5
50C
100
AcDbEntity
  8
0
100
AcDbLine
 62
7
  6
CONTINUOUS
 10
28.714999814
 20
25.2468084991
 11
28.617500186
 21
25.2191489279
  0
LINE
  5
50D
100
AcDbEntity
  8
0
100
AcDbLine
 62
7
  6
CONTINUOUS
 10
25.424375093
 20
24.6659574464
 11
25.326874907
 21
24.6382978752
  0
LINE
  5
50E
100
AcDbEntity
  8
0
100
AcDbLine
 62
7
  6
CONTINUOUS
 10
28.422499814
 20
25.634042573
 11
28.52
 21
25.6617021441
  0
LINE
  5
50F
100
AcDbEntity
  8
0
100
AcDbLine
 62
7
  6
CONTINUOUS
 10
25.083125
 20
25.1638297856
 11
25.180624907
 21
25.1914893568
  0
LINE
  5
510
100
AcDbEntity
  8
0
100
AcDbLine
 62
7
  6
CONTINUOUS
 10
28.641874814
 20
24.5
 11
28.763750186
 21
24.5276595736
  0
LINE
  5
511
100
AcDbEntity
  8
0
100
AcDbLine
 62
7
  6
CONTINUOUS
 10
25.326874907
 20
24.5
 11
25.44875
 21
24.5276595736
  0
LINE
  5
512
100
AcDbEntity
  8
0
100
AcDbLine
 62
7
  6
CONTINUOUS
 10
24.303124907
 20
24.6659574464
 11
24.181250093
 21
24.6382978752
  0
LINE
  5
513
100
AcDbEntity
  8
0
100
AcDbLine
 62
7
  6
CONTINUOUS
 10
28.52
 20
25.8
 11
28.398125186
 21
25.7723404288
  0
LINE
  5
514
100
AcDbEntity
  8
0
100
AcDbLine
 62
7
  6
CONTINUOUS
 10
23.2306249535
 20
24.6659574464
 11
23.10875
 21
24.6382978752
  0
LINE
  5
515
100
AcDbEntity
  8
0
100
AcDbLine
 62
7
  6
CONTINUOUS
 10
25.180624907
 20
25.3297872126
 11
25.058750093
 21
25.3021276414
  0
LINE
  5
516
100
AcDbEntity
  8
0
100
AcDbLine
 62
7
  6
CONTINUOUS
 10
26.155625093
 20
25.634042573
 11
26.277500186
 21
25.6617021441
  0
LINE
  5
517
100
AcDbEntity
  8
RACCORDO
100
AcDbLine
 62
250
  6
CONTINUOUS
 10
35.6982592329
 20
22.5
 11
35.6434425815
 21
22.4962019383
  0
LINE
  5
518
100
AcDbEntity
  8
RACCORDO
100
AcDbLine
 62
7
  6
CONTINUOUS
 10
13.1499999525
 20
15.7
 11
13.85
 21
15.7
  0
LINE
  5
519
100
AcDbEntity
  8
RACCORDO
100
AcDbLine
 62
250
  6
CONTINUOUS
 10
12.85
 20
16.0000432803
 11
14.1453332627
 21
15.9996527264
  0
LINE
  5
51A
100
AcDbEntity
  8
RACCORDO
100
AcDbLine
 62
250
  6
CONTINUOUS
 10
-35.6982592329
 20
22.5
 11
-35.6434424398
 21
22.4962019133
  0
LWPOLYLINE
  5
51B
100
AcDbEntity
  8
RACCORDO
100
AcDbPolyline
 62
7
  6
CONTINUOUS
 90
7
 70
0
 10
-0.3462217868
 20
26.5669936926
 10
-0.3653075004
 20
26.5848533531
 10
-0.3835770218
 20
26.6029696562
 10
-0.401030351
 20
26.6212745173
 10
-0.4176674879
 20
26.6396989362
 10
-0.4334884326
 20
26.6581732554
 10
-0.448493185
 20
26.6766274222
  0
LWPOLYLINE
  5
51C
100
AcDbEntity
  8
RACCORDO
100
AcDbPolyline
 62
250
  6
CONTINUOUS
 90
6
 70
0
 10
-11.6915111108
 20
35.526158438
 10
-11.6606969024
 20
35.4953444174
 10
-11.625
 20
35.4703493295
 10
-11.5855050358
 20
35.4519326375
 10
-11.5434120444
 20
35.4406539231
 10
-11.5
 20
35.4368558845
  0
LWPOLYLINE
  5
51D
100
AcDbEntity
  8
RACCORDO
100
AcDbPolyline
 62
7
  6
CONTINUOUS
 90
7
 70
0
 10
2.9420437821
 20
25.0504111396
 10
2.9375132124
 20
25.0561261126
 10
2.9285462987
 20
25.0648512112
 10
2.9158684864
 20
25.0765864353
 10
2.9003061132
 20
25.0917859819
 10
2.8824799434
 20
25.1099956541
 10
2.8626020609
 20
25.1298528608
  0
LWPOLYLINE
  5
51E
100
AcDbEntity
  8
RACCORDO
100
AcDbPolyline
 62
7
  6
CONTINUOUS
 90
6
 70
0
 10
-0.366156714
 20
26.3003064327
 10
-0.379155003
 20
26.3169504593
 10
-0.3895680523
 20
26.3307161491
 10
-0.3970856318
 20
26.3411410084
 10
-0.4020179715
 20
26.3477166272
 10
-0.4043650715
 20
26.35
  0
LWPOLYLINE
  5
51F
100
AcDbEntity
  8
RACCORDO
100
AcDbPolyline
 62
7
  6
CONTINUOUS
 90
7
 70
0
 10
-0.1741669751
 20
26.05
 10
-0.1955147941
 20
26.0773645449
 10
-0.2166156036
 20
26.1049487053
 10
-0.2374694036
 20
26.1324973311
 10
-0.2582947546
 20
26.1597078635
 10
-0.278873096
 20
26.1863182133
 10
-0.3173537666
 20
26.2366837286
  0
LWPOLYLINE
  5
520
100
AcDbEntity
  8
RACCORDO
100
AcDbPolyline
 62
7
  6
CONTINUOUS
 90
3
 70
0
 10
-0.3173537666
 20
26.2366837286
 10
-0.3352560958
 20
26.2597636865
 10
-0.366156714
 20
26.3003064327
  0
LWPOLYLINE
  5
521
100
AcDbEntity
  8
0
100
AcDbPolyline
 62
7
  6
CONTINUOUS
 90
3
 70
0
 10
3.4606176383
 20
24.6722665172
 10
3.4991947819
 20
24.6220794526
 10
3.5402599811
 20
24.5699332003
  0
LWPOLYLINE
  5
522
100
AcDbEntity
  8
RACCORDO
100
AcDbPolyline
 62
250
  6
CONTINUOUS
 90
20
 70
0
 10
0.3780054166
 20
26.9582983358
 10
0.3503535031
 20
26.9967168403
 10
0.3185007583
 20
27.0322984202
 10
0.2827923871
 20
27.0645147001
 10
0.2435242654
 20
27.0930062939
 10
0.2014269748
 20
27.1170801559
 10
0.1571226283
 20
27.1363900334
 10
0.1110276049
 20
27.1508546299
 10
0.0636651786
 20
27.1602883617
 10
0.0155944841
 20
27.1645385158
 10
-0.0326375772
 20
27.1636128617
 10
-0.0805232375
 20
27.1575384736
 10
-0.1275673151
 20
27.1463019227
 10
-0.1731472905
 20
27.1300423882
 10
-0.2165969297
 20
27.1090855982
 10
-0.2575222652
 20
27.0836064561
 10
-0.2953408886
 20
27.053967576
 10
-0.3293187264
 20
27.0210304779
 10
-0.3592259204
 20
26.9853101798
 10
-0.3848752617
 20
26.9473018493
  0
LWPOLYLINE
  5
523
100
AcDbEntity
  8
RACCORDO
100
AcDbPolyline
 62
250
  6
CONTINUOUS
 90
31
 70
0
 10
13.1355017158
 20
22.4999999437
 10
13.1234081029
 20
22.5774337139
 10
13.1078584336
 20
22.6578236173
 10
13.0884921438
 20
22.7409909692
 10
13.0648003284
 20
22.8271832619
 10
13.036502777
 20
22.9156849232
 10
13.0037557182
 20
23.004872202
 10
12.9661616209
 20
23.0949530682
 10
12.9236991041
 20
23.1851551954
 10
12.8776468447
 20
23.272581644
 10
12.8283898523
 20
23.3568178043
 10
12.7759652002
 20
23.4380683045
 10
12.7217114648
 20
23.5146959548
 10
12.6663641756
 20
23.5863505104
 10
12.6099842711
 20
23.6535722775
 10
12.5531124664
 20
23.7162549111
 10
12.4962779454
 20
23.774372307
 10
12.4396349892
 20
23.8282765539
 10
12.3831211575
 20
23.8784371067
 10
12.3269933416
 20
23.9249973324
 10
12.2714665798
 20
23.9681111228
 10
12.2163274895
 20
24.0081978129
 10
12.1616981188
 20
24.0454005372
 10
12.1077831954
 20
24.0798177889
 10
12.0544311567
 20
24.1117408177
 10
12.0017240907
 20
24.1412859578
 10
11.9498155214
 20
24.1685421705
 10
11.8986225019
 20
24.1937209129
 10
11.8481709161
 20
24.2169474396
 10
11.7986051299
 20
24.2382784694
 10
11.7499999452
 20
24.2578084613
  0
LINE
  5
524
100
AcDbEntity
  8
0
100
AcDbLine
 62
7
  6
CONTINUOUS
 10
20.159483
 20
35.400001
 11
20.159483
 21
32.148117
  0
LINE
  5
525
100
AcDbEntity
  8
0
100
AcDbLine
 62
7
  6
CONTINUOUS
 10
20.382446
 20
-27.951963
 11
20.382446
 21
-28.70278
  0
LINE
  5
526
100
AcDbEntity
  8
0
100
AcDbLine
 62
7
  6
CONTINUOUS
 10
20.382446
 20
-32.29722
 11
20.382446
 21
-33.048037
  0
LINE
  5
527
100
AcDbEntity
  8
0
100
AcDbLine
 62
7
  6
CONTINUOUS
 10
21.602482
 20
32.148117
 11
21.602482
 21
31.5
  0
LINE
  5
528
100
AcDbEntity
  8
0
100
AcDbLine
 62
7
  6
CONTINUOUS
 10
22.67
 20
25.2744680703
 11
22.67
 21
25.0255319297
  0
LINE
  5
529
100
AcDbEntity
  8
0
100
AcDbLine
 62
7
  6
CONTINUOUS
 10
22.7918749535
 20
25.0531915009
 11
22.7918749535
 21
25.2468084991
  0
LWPOLYLINE
  5
52A
100
AcDbEntity
  8
0
100
AcDbPolyline
 62
7
  6
CONTINUOUS
 90
52
 70
0
 10
22.308411215
 20
28.5000051834
 10
22.3148311275
 20
28.6317481345
 10
22.3309134
 20
28.7608632168
 10
22.3569595385
 20
28.8875629153
 10
22.3940981642
 20
29.0129478673
 10
22.4417403439
 20
29.1362880894
 10
22.4975695912
 20
29.2550003095
 10
22.5618062755
 20
29.3686575477
 10
22.634609867
 20
29.4778955948
 10
22.7134951283
 20
29.5816523118
 10
22.7982595121
 20
29.6795764742
 10
22.8892776195
 20
29.7720754724
 10
22.9848528662
 20
29.8591712273
 10
23.0846960815
 20
29.9407149886
 10
23.1891258983
 20
30.0168199628
 10
23.2973161041
 20
30.0878780411
 10
23.4093144414
 20
30.153957156
 10
23.5250195728
 20
30.2149015624
 10
23.6433616851
 20
30.2707596994
 10
23.7645591865
 20
30.3214868381
 10
23.8882743311
 20
30.3670011541
 10
24.0125943202
 20
30.4072989575
 10
24.1364698552
 20
30.4420703256
 10
24.2607960072
 20
30.471489952
 10
24.386580425
 20
30.4962869424
 10
24.5127341817
 20
30.5166395126
 10
24.6401787493
 20
30.5322140229
 10
24.7729022486
 20
30.5429238901
 10
24.9116353034
 20
30.5490959259
 10
25.0553414364
 20
30.5500929043
 10
25.2052486677
 20
30.5442656133
 10
25.3623528229
 20
30.5312638357
 10
25.525094404
 20
30.5108745735
 10
25.6907705901
 20
30.4815698275
 10
25.8592743171
 20
30.4426962369
 10
26.0299724457
 20
30.3941900708
 10
26.1993804742
 20
30.335439495
 10
26.3676613929
 20
30.2655384418
 10
26.5338350662
 20
30.184635857
 10
26.6929050179
 20
30.0939337507
 10
26.8443800292
 20
29.9932542869
 10
26.9882315432
 20
29.8823574242
 10
27.1205665735
 20
29.762684922
 10
27.241824402
 20
29.6338165695
 10
27.351443456
 20
29.4971696632
 10
27.4458463635
 20
29.355871225
 10
27.5247383382
 20
29.2087586012
 10
27.5889747656
 20
29.0574128906
 10
27.6373169954
 20
28.9096092198
 10
27.669897776
 20
28.7683816407
 10
27.6878310074
 20
28.6317065235
 10
27.691588785
 20
28.5000020611
  0
LINE
  5
52B
100
AcDbEntity
  8
0
100
AcDbLine
 62
7
  6
CONTINUOUS
 10
23.4256250465
 20
25.0531915009
 11
23.40125
 21
24.8872340351
  0
LINE
  5
52C
100
AcDbEntity
  8
0
100
AcDbLine
 62
7
  6
CONTINUOUS
 10
23.864374907
 20
25.2468084991
 11
23.888750093
 21
25.4127659261
  0
LINE
  5
52D
100
AcDbEntity
  8
0
100
AcDbLine
 62
7
  6
CONTINUOUS
 10
24.498125
 20
25.0531915009
 11
24.473750093
 21
24.8872340351
  0
LINE
  5
52E
100
AcDbEntity
  8
0
100
AcDbLine
 62
7
  6
CONTINUOUS
 10
24.595624907
 20
24.8872340351
 11
24.620000093
 21
25.0255319297
  0
LINE
  5
52F
100
AcDbEntity
  8
0
100
AcDbLine
 62
7
  6
CONTINUOUS
 10
25.936250093
 20
25.6063830018
 11
25.911874907
 21
25.4957447171
  0
LINE
  5
530
100
AcDbEntity
  8
0
100
AcDbLine
 62
7
  6
CONTINUOUS
 10
26.740624814
 20
25.3297872126
 11
26.765
 21
25.4404254973
  0
LINE
  5
531
100
AcDbEntity
  8
RACCORDO
100
AcDbLine
 62
250
  6
CONTINUOUS
 10
11.2537980617
 20
-35.654847453
 11
11.2650768499
 21
-35.6013498324
  0
LWPOLYLINE
  5
532
100
AcDbEntity
  8
RACCORDO
100
AcDbPolyline
 62
250
  6
CONTINUOUS
 90
10
 70
0
 10
11.25
 20
-35.2779672797
 10
11.2537980706
 20
-35.2668293489
 10
11.265076875
 20
-35.2560298427
 10
11.2834937045
 20
-35.2458968988
 10
11.3084889645
 20
-35.2367384014
 10
11.3393031811
 20
-35.2288326253
 10
11.3750000802
 20
-35.2224197814
 10
11.41449503
 20
-35.2176947193
 10
11.4565879941
 20
-35.214801007
 10
11.5
 20
-35.2138265672
  0
LWPOLYLINE
  5
533
100
AcDbEntity
  8
0
100
AcDbPolyline
 62
7
  6
CONTINUOUS
 90
16
 70
0
 10
0.5006110398
 20
-34.7295731588
 10
0.5262020519
 20
-34.6912455253
 10
0.5485900097
 20
-34.6502088387
 10
0.5673924522
 20
-34.6066789642
 10
0.5823823217
 20
-34.5607962017
 10
0.5933391343
 20
-34.5131136743
 10
0.600207902
 20
-34.4645903375
 10
0.6032418407
 20
-34.4154541846
 10
0.6025180325
 20
-34.3661475362
 10
0.5975954893
 20
-34.3179908147
 10
0.5886655064
 20
-34.2714859804
 10
0.5760386588
 20
-34.2267755697
 10
0.5603289456
 20
-34.184582928
 10
0.5421776565
 20
-34.1451564524
 10
0.5220656208
 20
-34.1083249288
 10
0.5001977815
 20
-34.0742146773
  0
LINE
  5
534
100
AcDbEntity
  8
0
100
AcDbLine
 62
7
  6
CONTINUOUS
 10
1.997414
 20
-33.346861
 11
1.319147
 21
-34.298707
  0
LINE
  5
535
100
AcDbEntity
  8
0
100
AcDbLine
 62
7
  6
CONTINUOUS
 10
1.074138
 20
-34.270797
 11
2.04173
 21
-32.934914
  0
LWPOLYLINE
  5
536
100
AcDbEntity
  8
0
100
AcDbPolyline
 62
7
  6
CONTINUOUS
 90
13
 70
0
 10
-0.290315158
 20
-33.960351556
 10
-0.248219924
 20
-33.9052035304
 10
-0.1998940174
 20
-33.8548608977
 10
-0.145499401
 20
-33.8105095726
 10
-0.0858157003
 20
-33.7732282089
 10
-0.0214320294
 20
-33.7438361086
 10
0.0471419395
 20
-33.7222160038
 10
0.11884559
 20
-33.7082813707
 10
0.1927228048
 20
-33.701858539
 10
0.2685811271
 20
-33.7025645553
 10
0.345886742
 20
-33.7109313859
 10
0.4234732525
 20
-33.7280687124
 10
0.500105397
 20
-33.7548063245
  0
LWPOLYLINE
  5
537
100
AcDbEntity
  8
RACCORDO
100
AcDbPolyline
 62
7
  6
CONTINUOUS
 90
7
 70
0
 10
2.8183394553
 20
-25.1741529259
 10
2.7698042219
 20
-25.22251872
 10
2.7445931735
 20
-25.2479107143
 10
2.7190302421
 20
-25.2734246796
 10
2.6933193619
 20
-25.2988278155
 10
2.6677255485
 20
-25.3243529223
 10
2.6424549217
 20
-25.35
  0
LWPOLYLINE
  5
538
100
AcDbEntity
  8
RACCORDO
100
AcDbPolyline
 62
7
  6
CONTINUOUS
 90
3
 70
0
 10
2.8626020609
 20
-25.1298528608
 10
2.8410620411
 20
-25.1511791261
 10
2.8183394553
 20
-25.1741529259
  0
LWPOLYLINE
  5
539
100
AcDbEntity
  8
RACCORDO
100
AcDbPolyline
 62
250
  6
CONTINUOUS
 90
13
 70
0
 10
-3.2363184167
 20
-26.0499999975
 10
-3.2406807937
 20
-26.0528268015
 10
-3.2497517408
 20
-26.0556085462
 10
-3.2633866619
 20
-26.0583008715
 10
-3.2813681666
 20
-26.0608608439
 10
-3.3034095299
 20
-26.0632476359
 10
-3.3291592581
 20
-26.0654231768
 10
-3.3582067028
 20
-26.0673527671
 10
-3.390088612
 20
-26.0690056364
 10
-3.4242965082
 20
-26.0703554285
 10
-3.4602848012
 20
-26.0713806176
 10
-3.4974794898
 20
-26.0720648514
 10
-3.5352873144
 20
-26.0723972174
  0
LINE
  5
53A
100
AcDbEntity
  8
0
100
AcDbLine
 62
7
  6
CONTINUOUS
 10
24.059375
 20
25.634042573
 11
24.181250093
 21
25.6617021441
  0
LINE
  5
53B
100
AcDbEntity
  8
0
100
AcDbLine
 62
7
  6
CONTINUOUS
 10
22.9868750465
 20
25.634042573
 11
23.10875
 21
25.6617021441
  0
LINE
  5
53C
100
AcDbEntity
  8
0
100
AcDbLine
 62
7
  6
CONTINUOUS
 10
24.181250093
 20
24.5
 11
24.327500093
 21
24.5276595736
  0
LINE
  5
53D
100
AcDbEntity
  8
0
100
AcDbLine
 62
7
  6
CONTINUOUS
 10
23.10875
 20
24.5
 11
23.255
 21
24.5276595736
  0
LINE
  5
53E
100
AcDbEntity
  8
0
100
AcDbLine
 62
7
  6
CONTINUOUS
 10
24.181250093
 20
25.8
 11
24.035000093
 21
25.7723404288
  0
LINE
  5
53F
100
AcDbEntity
  8
0
100
AcDbLine
 62
7
  6
CONTINUOUS
 10
23.10875
 20
25.8
 11
22.9625
 21
25.7723404288
  0
LINE
  5
540
100
AcDbEntity
  8
0
100
AcDbLine
 62
7
  6
CONTINUOUS
 10
26.301874814
 20
25.8
 11
26.131249907
 21
25.7723404288
  0
LINE
  5
541
100
AcDbEntity
  8
RACCORDO
100
AcDbLine
 62
7
  6
CONTINUOUS
 10
33.1343554255
 20
22.5
 11
30.7237330825
 21
22.4917014764
  0
LINE
  5
542
100
AcDbEntity
  8
RACCORDO
100
AcDbLine
 62
7
  6
CONTINUOUS
 10
-27.4402103845
 20
22.5
 11
-30.0917833267
 21
22.4911776739
  0
LINE
  5
543
100
AcDbEntity
  8
RACCORDO
100
AcDbLine
 62
7
  6
CONTINUOUS
 10
27.6937402748
 20
22.0
 11
29.9565424859
 21
22.0065411286
  0
LINE
  5
544
100
AcDbEntity
  8
RACCORDO
100
AcDbLine
 62
7
  6
CONTINUOUS
 10
-33.0246555577
 20
22.0
 11
-30.5650169179
 21
22.0067103372
  0
LINE
  5
545
100
AcDbEntity
  8
RACCORDO
100
AcDbLine
 62
7
  6
CONTINUOUS
 10
27.6937409188
 20
22.0
 11
12.85
 21
22.0
  0
LINE
  5
546
100
AcDbEntity
  8
RACCORDO
100
AcDbLine
 62
7
  6
CONTINUOUS
 10
-33.0246555577
 20
22.0
 11
-37.9841533632
 21
22.0
  0
LINE
  5
547
100
AcDbEntity
  8
RACCORDO
100
AcDbLine
 62
7
  6
CONTINUOUS
 10
-27.4402109512
 20
22.5
 11
-12.8261663039
 21
22.5
  0
LINE
  5
548
100
AcDbEntity
  8
SUPERFICI
100
AcDbLine
 62
7
  6
CONTINUOUS
 10
10.95
 20
22.5
 11
-10.95
 21
22.5
  0
LINE
  5
549
100
AcDbEntity
  8
RACCORDO
100
AcDbLine
 62
7
  6
CONTINUOUS
 10
33.1343554255
 20
22.5
 11
37.9841533632
 21
22.5
  0
LINE
  5
54A
100
AcDbEntity
  8
RACCORDO
100
AcDbLine
 62
7
  6
CONTINUOUS
 10
30.7237330825
 20
22.4917014764
 11
29.4481263534
 21
22.492516775
  0
LINE
  5
54B
100
AcDbEntity
  8
RACCORDO
100
AcDbLine
 62
7
  6
CONTINUOUS
 10
29.9565424859
 20
22.0065411286
 11
37.9841533632
 21
22.0
  0
LINE
  5
54C
100
AcDbEntity
  8
RACCORDO
100
AcDbLine
 62
7
  6
CONTINUOUS
 10
-30.5650169179
 20
22.0067103372
 11
-12.85
 21
22.0
  0
LWPOLYLINE
  5
54D
100
AcDbEntity
  8
RACCORDO
100
AcDbPolyline
 62
7
  6
CONTINUOUS
 90
3
 70
0
 10
-30.0917833267
 20
22.4911776739
 10
-31.951980076
 20
22.496199597
 10
-37.9841533632
 20
22.5
  0
LWPOLYLINE
  5
54E
100
AcDbEntity
  8
RACCORDO
100
AcDbPolyline
 62
7
  6
CONTINUOUS
 90
3
 70
0
 10
29.4481263534
 20
22.492516775
 10
28.1224096288
 20
22.4984603122
 10
12.8261663039
 20
22.5
  0
LWPOLYLINE
  5
54F
100
AcDbEntity
  8
0
100
AcDbPolyline
 62
7
  6
CONTINUOUS
 90
6
 70
0
 10
3.2294668044
 20
25.05
 10
3.2312217711
 20
25.0488722968
 10
3.2329565592
 20
25.0455521678
 10
3.2346711685
 20
25.0400396128
 10
3.236365599
 20
25.032334632
 10
3.2380398508
 20
25.0224372253
  0
LWPOLYLINE
  5
550
100
AcDbEntity
  8
RACCORDO
100
AcDbPolyline
 62
250
  6
CONTINUOUS
 90
13
 70
0
 10
-3.2363183032
 20
26.0499998347
 10
-3.240681023
 20
26.0528270291
 10
-3.2497526437
 20
26.0556090906
 10
-3.2633883714
 20
26.058301654
 10
-3.2813705759
 20
26.0608617817
 10
-3.3034123823
 20
26.0632486526
 10
-3.3291623376
 20
26.0654242094
 10
-3.3582097746
 20
26.0673537635
 10
-3.3900913717
 20
26.0690065406
 10
-3.4242987502
 20
26.0703561699
 10
-3.4602863777
 20
26.0713811213
 10
-3.4974802398
 20
26.0720650516
 10
-3.5352871119
 20
26.0723970511
  0
LWPOLYLINE
  5
551
100
AcDbEntity
  8
RACCORDO
100
AcDbPolyline
 62
7
  6
CONTINUOUS
 90
4
 70
0
 10
2.8626020609
 20
25.1298528608
 10
2.8410620411
 20
25.1511791261
 10
2.8183394553
 20
25.1741529259
 10
2.7698042219
 20
25.22251872
  0
LWPOLYLINE
  5
552
100
AcDbEntity
  8
RACCORDO
100
AcDbPolyline
 62
7
  6
CONTINUOUS
 90
6
 70
0
 10
2.7698042219
 20
25.22251872
 10
2.7445931735
 20
25.2479107143
 10
2.7190302421
 20
25.2734246796
 10
2.6933193619
 20
25.2988278155
 10
2.6677255485
 20
25.3243529223
 10
2.6424549217
 20
25.35
  0
LWPOLYLINE
  5
553
100
AcDbEntity
  8
RACCORDO
100
AcDbPolyline
 62
250
  6
CONTINUOUS
 90
10
 70
0
 10
11.25
 20
35.2779672796
 10
11.2537980965
 20
35.2668293112
 10
11.2650769636
 20
35.2560297802
 10
11.2834938698
 20
35.2458968253
 10
11.3084891967
 20
35.2367383304
 10
11.3393034516
 20
35.228832567
 10
11.3750003508
 20
35.2224197413
 10
11.4144952564
 20
35.2176946981
 10
11.4565881289
 20
35.2148010009
 10
11.5
 20
35.2138265672
  0
LINE
  5
554
100
AcDbEntity
  8
RACCORDO
100
AcDbLine
 62
250
  6
CONTINUOUS
 10
11.2537980107
 20
35.6548477426
 11
11.2650768448
 21
35.6013498465
  0
LWPOLYLINE
  5
555
100
AcDbEntity
  8
0
100
AcDbPolyline
 62
7
  6
CONTINUOUS
 90
25
 70
0
 10
22.1191588785
 20
28.5000049615
 10
22.1253638531
 20
28.3550354319
 10
22.1427182744
 20
28.2135012489
 10
22.1709791748
 20
28.075172309
 10
22.2101574299
 20
27.9392379041
 10
22.2597336538
 20
27.8060279848
 10
22.3187594102
 20
27.677075218
 10
22.3870986559
 20
27.5524571777
 10
22.464614303
 20
27.4317169509
 10
22.5505346383
 20
27.3156855513
 10
22.6442290114
 20
27.2045698193
 10
22.7463001154
 20
27.097902851
 10
22.8578828441
 20
26.9955281706
 10
22.9790120935
 20
26.8967010384
 10
23.1095534528
 20
26.8018261135
 10
23.2504186251
 20
26.7124644264
 10
23.4017648999
 20
26.6285816175
 10
23.5635175272
 20
26.5498961098
 10
23.7370475203
 20
26.4777405888
 10
23.9234524756
 20
26.4132121227
 10
24.1215177163
 20
26.3569165966
 10
24.3280198102
 20
26.3120656905
 10
24.5423164262
 20
26.2797841377
 10
24.7661358582
 20
26.2590693725
 10
24.9999955434
 20
26.25
  0
LINE
  5
556
100
AcDbEntity
  8
0
100
AcDbLine
 62
7
  6
CONTINUOUS
 10
23.4256250465
 20
25.2468084991
 11
23.4256250465
 21
25.0531915009
  0
LINE
  5
557
100
AcDbEntity
  8
0
100
AcDbLine
 62
7
  6
CONTINUOUS
 10
23.5475
 20
25.0255319297
 11
23.5475
 21
25.2744680703
  0
LINE
  5
558
100
AcDbEntity
  8
0
100
AcDbLine
 62
7
  6
CONTINUOUS
 10
23.7424999535
 20
25.2744680703
 11
23.7424999535
 21
25.0255319297
  0
LINE
  5
559
100
AcDbEntity
  8
0
100
AcDbLine
 62
7
  6
CONTINUOUS
 10
23.864374907
 20
25.0531915009
 11
23.864374907
 21
25.2468084991
  0
LINE
  5
55A
100
AcDbEntity
  8
0
100
AcDbLine
 62
7
  6
CONTINUOUS
 10
24.367556
 20
-30.125
 11
24.367556
 21
-30.875
  0
LINE
  5
55B
100
AcDbEntity
  8
0
100
AcDbLine
 62
7
  6
CONTINUOUS
 10
24.4322426596
 20
27.2593461702
 11
24.4322426596
 21
27.6273360638
  0
LINE
  5
55C
100
AcDbEntity
  8
0
100
AcDbLine
 62
7
  6
CONTINUOUS
 10
24.4322426596
 20
29.3726639362
 11
24.4322426596
 21
29.7406538298
  0
LINE
  5
55D
100
AcDbEntity
  8
0
100
AcDbLine
 62
7
  6
CONTINUOUS
 10
24.498125
 20
25.2468084991
 11
24.498125
 21
25.0531915009
  0
LINE
  5
55E
100
AcDbEntity
  8
0
100
AcDbLine
 62
7
  6
CONTINUOUS
 10
24.620000093
 20
25.0255319297
 11
24.620000093
 21
25.2744680703
  0
LINE
  5
55F
100
AcDbEntity
  8
0
100
AcDbLine
 62
7
  6
CONTINUOUS
 10
24.767556
 20
-27.9519628823
 11
24.767556
 21
-28.70278
  0
LINE
  5
560
100
AcDbEntity
  8
0
100
AcDbLine
 62
7
  6
CONTINUOUS
 10
24.767556
 20
-32.2972169516
 11
24.767556
 21
-33.0480371177
  0
LINE
  5
561
100
AcDbEntity
  8
0
100
AcDbLine
 62
7
  6
CONTINUOUS
 10
24.814999907
 20
25.8
 11
24.814999907
 21
25.0808510721
  0
LINE
  5
562
100
AcDbEntity
  8
RACCORDO
100
AcDbLine
 62
250
  6
CONTINUOUS
 10
24.9
 20
-22.0
 11
24.9
 21
-22.5
  0
LINE
  5
563
100
AcDbEntity
  8
RACCORDO
100
AcDbLine
 62
250
  6
CONTINUOUS
 10
24.9
 20
22.0
 11
24.9
 21
22.5
  0
LINE
  5
564
100
AcDbEntity
  8
0
100
AcDbLine
 62
7
  6
CONTINUOUS
 10
24.936875
 20
25.2191489279
 11
24.936875
 21
25.6617021441
  0
LINE
  5
565
100
AcDbEntity
  8
0
100
AcDbLine
 62
7
  6
CONTINUOUS
 10
25.336447766
 20
27.2593461702
 11
25.336447766
 21
27.6273360638
  0
LINE
  5
566
100
AcDbEntity
  8
0
100
AcDbLine
 62
7
  6
CONTINUOUS
 10
25.336447766
 20
29.3726639362
 11
25.336447766
 21
29.7406538298
  0
LINE
  5
567
100
AcDbEntity
  8
0
100
AcDbLine
 62
7
  6
CONTINUOUS
 10
25.570625093
 20
24.9425531775
 11
25.570625093
 21
24.8872340351
  0
LINE
  5
568
100
AcDbEntity
  8
0
100
AcDbLine
 62
7
  6
CONTINUOUS
 10
25.643750093
 20
25.6617021441
 11
25.643750093
 21
25.8
  0
LINE
  5
569
100
AcDbEntity
  8
0
100
AcDbLine
 62
7
  6
CONTINUOUS
 10
25.692499907
 20
24.859574464
 11
25.692499907
 21
24.9702127486
  0
LINE
  5
56A
100
AcDbEntity
  8
0
100
AcDbLine
 62
7
  6
CONTINUOUS
 10
25.8875
 20
24.6382978752
 11
25.8875
 21
24.5
  0
LINE
  5
56B
100
AcDbEntity
  8
0
100
AcDbLine
 62
7
  6
CONTINUOUS
 10
26.209306
 20
31.5
 11
26.209306
 21
35.400001
  0
LINE
  5
56C
100
AcDbEntity
  8
0
100
AcDbLine
 62
7
  6
CONTINUOUS
 10
26.2406538298
 20
27.2593461702
 11
26.2406538298
 21
27.6273360638
  0
LINE
  5
56D
100
AcDbEntity
  8
0
100
AcDbLine
 62
7
  6
CONTINUOUS
 10
26.2406538298
 20
29.3726639362
 11
26.2406538298
 21
29.7406538298
  0
LINE
  5
56E
100
AcDbEntity
  8
0
100
AcDbLine
 62
7
  6
CONTINUOUS
 10
26.61875
 20
25.4957447171
 11
26.61875
 21
25.4404254973
  0
LINE
  5
56F
100
AcDbEntity
  8
0
100
AcDbLine
 62
7
  6
CONTINUOUS
 10
26.765
 20
24.5
 11
26.765
 21
24.6382978752
  0
LINE
  5
570
100
AcDbEntity
  8
0
100
AcDbLine
 62
7
  6
CONTINUOUS
 10
26.765
 20
25.4404254973
 11
26.765
 21
25.4957447171
  0
LWPOLYLINE
  5
571
100
AcDbEntity
  8
0
100
AcDbPolyline
 62
7
  6
CONTINUOUS
 90
52
 70
0
 10
27.691588785
 20
28.5000020611
 10
27.6864518573
 20
28.3750823406
 10
27.6717005604
 20
28.2519313586
 10
27.6475406411
 20
28.1307377288
 10
27.6137956994
 20
28.0111829723
 10
27.5709959699
 20
27.8939040562
 10
27.520379883
 20
27.7804836412
 10
27.4619637001
 20
27.6713140112
 10
27.3959850594
 20
27.5661845169
 10
27.3239773609
 20
27.4657216309
 10
27.2462373821
 20
27.3702043903
 10
27.1626116555
 20
27.2794009157
 10
27.0739227443
 20
27.1931330704
 10
26.9806876721
 20
27.1115009868
 10
26.8824689408
 20
27.0343704628
 10
26.7786450825
 20
26.961200429
 10
26.6692558921
 20
26.8916167526
 10
26.554321291
 20
26.8259230797
 10
26.4331922567
 20
26.7645808971
 10
26.3058728816
 20
26.7072625898
 10
26.1724014727
 20
26.6541657884
 10
26.0321707098
 20
26.6065001361
 10
25.8850369767
 20
26.5638595647
 10
25.7311341647
 20
26.5264427077
 10
25.5702269454
 20
26.4962966728
 10
25.4010043747
 20
26.4730490525
 10
25.224601763
 20
26.4567566101
 10
25.0443292719
 20
26.4500374394
 10
24.8591124154
 20
26.4530996635
 10
24.6694524078
 20
26.4653615749
 10
24.48087161
 20
26.4882537583
 10
24.2917269887
 20
26.522814436
 10
24.102692584
 20
26.5677399875
 10
23.9228942914
 20
26.6210765545
 10
23.7548055417
 20
26.6827664205
 10
23.5959962707
 20
26.7514721841
 10
23.4470431572
 20
26.8254267459
 10
23.3086740496
 20
26.9046113445
 10
23.1799883873
 20
26.9893784522
 10
23.0596738889
 20
27.0790689456
 10
22.9473234337
 20
27.1735010848
 10
22.8432890534
 20
27.2730384939
 10
22.7474027319
 20
27.3778219435
 10
22.6590573062
 20
27.4886717116
 10
22.5787899825
 20
27.6049435672
 10
22.5082947741
 20
27.7246855842
 10
22.4481966054
 20
27.8483478969
 10
22.398199162
 20
27.9759052358
 10
22.3588891804
 20
28.1048601771
 10
22.3306998662
 20
28.234577338
 10
22.3137831222
 20
28.3662123408
 10
22.308411215
 20
28.5000051834
  0
LWPOLYLINE
  5
572
100
AcDbEntity
  8
RACCORDO
100
AcDbPolyline
 62
250
  6
CONTINUOUS
 90
3
 70
0
 10
11.2650768499
 20
-35.6013498324
 10
11.2834936586
 20
-35.5618551065
 10
11.3084889023
 20
-35.5261584224
  0
LWPOLYLINE
  5
573
100
AcDbEntity
  8
RACCORDO
100
AcDbPolyline
 62
250
  6
CONTINUOUS
 90
8
 70
0
 10
11.2650768448
 20
-35.612754718
 10
11.2834936491
 20
-35.5732599945
 10
11.3084888892
 20
-35.5375633095
 10
11.3393030976
 20
-35.5067492889
 10
11.375
 20
-35.481754201
 10
11.4144949642
 20
-35.463337509
 10
11.4565879556
 20
-35.4520587946
 10
11.5
 20
-35.448260756
  0
LWPOLYLINE
  5
574
100
AcDbEntity
  8
0
100
AcDbPolyline
 62
7
  6
CONTINUOUS
 90
24
 70
0
 10
-0.1251154999
 20
-34.0542283672
 10
-0.1565254026
 20
-34.0851589889
 10
-0.1837121664
 20
-34.1199885486
 10
-0.2062603197
 20
-34.1580092031
 10
-0.224173359
 20
-34.1985105041
 10
-0.2378609317
 20
-34.2414260175
 10
-0.247560289
 20
-34.2862804648
 10
-0.2535694727
 20
-34.332543333
 10
-0.2562567207
 20
-34.3802567756
 10
-0.2557476302
 20
-34.4294686818
 10
-0.251330801
 20
-34.4796227373
 10
-0.242380852
 20
-34.5298243777
 10
-0.2283018535
 20
-34.5797007289
 10
-0.2087174448
 20
-34.6283810562
 10
-0.1840001663
 20
-34.6742370268
 10
-0.1547309613
 20
-34.7165254511
 10
-0.1212701164
 20
-34.7550661133
 10
-0.0836027109
 20
-34.7886653374
 10
-0.0421583161
 20
-34.8165902895
 10
0.0021444272
 20
-34.838455712
 10
0.0480133519
 20
-34.8542699687
 10
0.0943473363
 20
-34.8646304553
 10
0.1404873943
 20
-34.8702785383
 10
0.186031819
 20
-34.8719827586
  0
LWPOLYLINE
  5
575
100
AcDbEntity
  8
RACCORDO
100
AcDbPolyline
 62
250
  6
CONTINUOUS
 90
10
 70
0
 10
2.7571026151
 20
-26.3271638598
 10
2.7922493519
 20
-26.3098076211
 10
2.8248330645
 20
-26.2880060021
 10
2.8542962365
 20
-26.2621320344
 10
2.8801347448
 20
-26.2326284287
 10
2.9019064855
 20
-26.2
 10
2.919238938
 20
-26.1648050297
 10
2.9318355393
 20
-26.1276457135
 10
2.9394807579
 20
-26.0891578577
 10
2.9420437821
 20
-26.05
  0
LWPOLYLINE
  5
576
100
AcDbEntity
  8
RACCORDO
100
AcDbPolyline
 62
250
  6
CONTINUOUS
 90
43
 70
0
 10
11.7499999146
 20
-24.2578112593
 10
11.7994409546
 20
-24.2379333191
 10
11.8498998639
 20
-24.2161789326
 10
11.9012963385
 20
-24.1924471947
 10
11.9534721913
 20
-24.1666797017
 10
12.0064028044
 20
-24.1387402285
 10
12.0601859752
 20
-24.1083964241
 10
12.1146106204
 20
-24.0755816434
 10
12.1696358251
 20
-24.0401427985
 10
12.2255650168
 20
-24.001663197
 10
12.2825568068
 20
-23.9597292684
 10
12.3400567203
 20
-23.914440829
 10
12.3972989122
 20
-23.866172745
 10
12.4547003073
 20
-23.8143079389
 10
12.5114445251
 20
-23.7592797992
 10
12.5651839997
 20
-23.7033480096
 10
12.6155318761
 20
-23.64719154
 10
12.6630108207
 20
-23.5905060469
 10
12.7069717553
 20
-23.5343803233
 10
12.7472769123
 20
-23.4794434493
 10
12.7844067025
 20
-23.4254985535
 10
12.8187066344
 20
-23.3724263605
 10
12.8503075268
 20
-23.3203865202
 10
12.8793557538
 20
-23.2695073038
 10
12.9061668566
 20
-23.2195702368
 10
12.9308793429
 20
-23.1706212884
 10
12.9535757236
 20
-23.1228088984
 10
12.9744460054
 20
-23.0760339058
 10
12.9935885471
 20
-23.0303659527
 10
13.011098413
 20
-22.9858755482
 10
13.0271338958
 20
-22.942444645
 10
13.0417741971
 20
-22.9001347586
 10
13.0551039793
 20
-22.8589839013
 10
13.0672636533
 20
-22.8188234887
 10
13.0783211591
 20
-22.7796823237
 10
13.0883396385
 20
-22.7416002428
 10
13.0974278828
 20
-22.704413727
 10
13.1056448885
 20
-22.668116658
 10
13.1130351116
 20
-22.6327618343
 10
13.1196688895
 20
-22.5982667523
 10
13.1255971092
 20
-22.5646142249
 10
13.1308567053
 20
-22.5318538222
 10
13.1354906844
 20
-22.4999999993
  0
LINE
  5
577
100
AcDbEntity
  8
0
100
AcDbLine
 62
7
  6
CONTINUOUS
 10
26.4750792948
 20
28.2480112383
 11
26.2590889276
 21
28.2132541677
  0
LINE
  5
578
100
AcDbEntity
  8
0
100
AcDbLine
 62
7
  6
CONTINUOUS
 10
27.0659494946
 20
28.7519887617
 11
27.2794572138
 21
28.7817805365
  0
LINE
  5
579
100
AcDbEntity
  8
RACCORDO
100
AcDbLine
 62
250
  6
CONTINUOUS
 10
-35.6982592329
 20
22.0
 11
-35.6434425815
 21
22.0037980617
  0
LWPOLYLINE
  5
57A
100
AcDbEntity
  8
RACCORDO
100
AcDbPolyline
 62
250
  6
CONTINUOUS
 90
13
 70
0
 10
-2.9324185643
 20
26.35
 10
-2.9713772833
 20
26.3474860761
 10
-3.0098424998
 20
26.3399537661
 10
-3.047160645
 20
26.3274817026
 10
-3.0827217066
 20
26.3102197601
 10
-3.1158643532
 20
26.2884264669
 10
-3.1459091636
 20
26.2624994188
 10
-3.1723424734
 20
26.2328663585
 10
-3.1946934533
 20
26.2000370904
 10
-3.2124963585
 20
26.1646866602
 10
-3.2254617169
 20
26.1274798945
 10
-3.2334347804
 20
26.0890300055
 10
-3.2363184186
 20
26.05
  0
LWPOLYLINE
  5
57B
100
AcDbEntity
  8
RACCORDO
100
AcDbPolyline
 62
250
  6
CONTINUOUS
 90
13
 70
0
 10
-2.6424549217
 20
26.35
 10
-2.6807583507
 20
26.3475379265
 10
-2.7186762693
 20
26.3401281603
 10
-2.7555595677
 20
26.3277988536
 10
-2.7908290064
 20
26.3106236088
 10
-2.8237559809
 20
26.2888297422
 10
-2.8535357631
 20
26.2628908274
 10
-2.8796026255
 20
26.2333207622
 10
-2.9015699236
 20
26.2005822338
 10
-2.9190536976
 20
26.1652518342
 10
-2.9317551106
 20
26.1279456682
 10
-2.9394612577
 20
26.0893058946
 10
-2.9420437821
 20
26.05
  0
LWPOLYLINE
  5
57C
100
AcDbEntity
  8
0
100
AcDbPolyline
 62
7
  6
CONTINUOUS
 90
31
 70
0
 10
24.9999955434
 20
26.25
 10
25.1984700141
 20
26.2575222073
 10
25.3876133722
 20
26.2721557109
 10
25.5675713263
 20
26.2940972032
 10
25.7382681894
 20
26.324573154
 10
25.8999385697
 20
26.3627631233
 10
26.053104044
 20
26.4057223718
 10
26.1972269967
 20
26.4529786731
 10
26.332808051
 20
26.5052385577
 10
26.4618866776
 20
26.5612190703
 10
26.5848180291
 20
26.6207841666
 10
26.7011933861
 20
26.6842038659
 10
26.811909593
 20
26.7507498372
 10
26.9170040484
 20
26.8202565755
 10
27.0163800963
 20
26.8929609519
 10
27.1107386062
 20
26.9687136886
 10
27.2001054829
 20
27.0472722517
 10
27.284388996
 20
27.1289075745
 10
27.3641187917
 20
27.2142332496
 10
27.4396275649
 20
27.3033697649
 10
27.5105053789
 20
27.396190307
 10
27.5761601818
 20
27.4929268603
 10
27.6367134576
 20
27.5938542734
 10
27.6919131474
 20
27.6986239779
 10
27.7405802173
 20
27.8065022022
 10
27.7824656081
 20
27.9176313063
 10
27.8176022387
 20
28.0316931034
 10
27.8452120061
 20
28.1472284923
 10
27.8649449735
 20
28.2636624758
 10
27.8768736323
 20
28.3813073278
 10
27.8808411214
 20
28.500013151
  0
LWPOLYLINE
  5
57D
100
AcDbEntity
  8
0
100
AcDbPolyline
 62
7
  6
CONTINUOUS
 90
30
 70
0
 10
26.8098876712
 20
27.8011346166
 10
26.870867968
 20
27.8031893037
 10
26.9290377735
 20
27.8097017608
 10
26.9844245411
 20
27.8207162608
 10
27.0375640811
 20
27.8365594183
 10
27.0879581075
 20
27.8569797682
 10
27.1340681058
 20
27.8811454793
 10
27.1756103006
 20
27.909086841
 10
27.2128577638
 20
27.9408091951
 10
27.2450903728
 20
27.9754276907
 10
27.2721066381
 20
28.0131430203
 10
27.294059043
 20
28.053738464
 10
27.3107517682
 20
28.0956882537
 10
27.3219784968
 20
28.1393148188
 10
27.3278770294
 20
28.1842385525
 10
27.3287833304
 20
28.2278821853
 10
27.3245768688
 20
28.2699066088
 10
27.3153376549
 20
28.310597071
 10
27.3017356462
 20
28.3483341483
 10
27.283246609
 20
28.3829310583
 10
27.2603914407
 20
28.4145474861
 10
27.2354455742
 20
28.4421198921
 10
27.2085293197
 20
28.46483239
 10
27.1795692187
 20
28.4835297866
 10
27.1505659127
 20
28.4996638533
 10
27.122162917
 20
28.5131959091
 10
27.0937503969
 20
28.5241950015
 10
27.0654345188
 20
28.5342678419
 10
27.0373242661
 20
28.5436974885
 10
27.0093199137
 20
28.5522107646
  0
LWPOLYLINE
  5
57E
100
AcDbEntity
  8
RACCORDO
100
AcDbPolyline
 62
250
  6
CONTINUOUS
 90
13
 70
0
 10
-10.9500889963
 20
24.4084885477
 10
-10.9722377467
 20
24.4083416787
 10
-10.9948655936
 20
24.4079625334
 10
-11.0179687821
 20
24.4073363477
 10
-11.0415122734
 20
24.4064492333
 10
-11.0655221716
 20
24.405285578
 10
-11.0900865491
 20
24.4038246777
 10
-11.1151970351
 20
24.4020480657
 10
-11.1408540621
 20
24.3999362356
 10
-11.1671587988
 20
24.3974595532
 10
-11.1941405982
 20
24.3945903661
 10
-11.221756998
 20
24.391307245
 10
-11.2499999984
 20
24.3875853961
  0
LINE
  5
57F
100
AcDbEntity
  8
0
100
AcDbLine
 62
7
  6
CONTINUOUS
 10
10.95
 20
24.1
 11
-10.95
 21
24.1
  0
LINE
  5
580
100
AcDbEntity
  8
0
100
AcDbLine
 62
7
  6
CONTINUOUS
 10
21.5
 20
24.5
 11
21.64625
 21
24.5
  0
LINE
  5
581
100
AcDbEntity
  8
0
100
AcDbLine
 62
7
  6
CONTINUOUS
 10
22.3287499768
 20
24.5
 11
22.4749999768
 21
24.5
  0
LINE
  5
582
100
AcDbEntity
  8
0
100
AcDbLine
 62
7
  6
CONTINUOUS
 10
25.180624907
 20
24.5
 11
25.326874907
 21
24.5
  0
LINE
  5
583
100
AcDbEntity
  8
0
100
AcDbLine
 62
7
  6
CONTINUOUS
 10
25.8875
 20
24.5
 11
26.765
 21
24.5
  0
LINE
  5
584
100
AcDbEntity
  8
0
100
AcDbLine
 62
7
  6
CONTINUOUS
 10
27.544999814
 20
24.5
 11
27.691249814
 21
24.5
  0
LINE
  5
585
100
AcDbEntity
  8
0
100
AcDbLine
 62
7
  6
CONTINUOUS
 10
28.495624814
 20
24.5
 11
28.641874814
 21
24.5
  0
LINE
  5
586
100
AcDbEntity
  8
0
100
AcDbLine
 62
250
  6
CONTINUOUS
 10
0.5004083303
 20
24.5724663721
 11
-3.5402599363
 21
24.5699332004
  0
LINE
  5
587
100
AcDbEntity
  8
0
100
AcDbLine
 62
7
  6
CONTINUOUS
 10
28.617500186
 20
24.6382978752
 11
28.52
 21
24.6382978752
  0
LINE
  5
588
100
AcDbEntity
  8
0
100
AcDbLine
 62
7
  6
CONTINUOUS
 10
26.765
 20
24.6382978752
 11
26.082500093
 21
24.6382978752
  0
LINE
  5
589
100
AcDbEntity
  8
0
100
AcDbLine
 62
7
  6
CONTINUOUS
 10
25.326874907
 20
24.6382978752
 11
25.180624907
 21
24.6382978752
  0
LINE
  5
58A
100
AcDbEntity
  8
0
100
AcDbLine
 62
7
  6
CONTINUOUS
 10
24.961249907
 20
24.8319148928
 11
24.814999907
 21
24.8319148928
  0
LINE
  5
58B
100
AcDbEntity
  8
0
100
AcDbLine
 62
7
  6
CONTINUOUS
 10
21.7437499942
 20
24.8319148928
 11
22.23125
 21
24.8319148928
  0
LINE
  5
58C
100
AcDbEntity
  8
0
100
AcDbLine
 62
7
  6
CONTINUOUS
 10
26.959999814
 20
24.8872340351
 11
27.544999814
 21
24.8872340351
  0
LINE
  5
58D
100
AcDbEntity
  8
0
100
AcDbLine
 62
7
  6
CONTINUOUS
 10
27.691249814
 20
24.8872340351
 11
27.935
 21
24.8872340351
  0
LINE
  5
58E
100
AcDbEntity
  8
RACCORDO
100
AcDbLine
 62
250
  6
CONTINUOUS
 10
11.25
 20
24.9
 11
11.75
 21
24.9
  0
LINE
  5
58F
100
AcDbEntity
  8
RACCORDO
100
AcDbLine
 62
250
  6
CONTINUOUS
 10
-11.25
 20
24.9
 11
-11.75
 21
24.9
  0
LINE
  5
590
100
AcDbEntity
  8
0
100
AcDbLine
 62
7
  6
CONTINUOUS
 10
22.2068750232
 20
24.9425531775
 11
21.7681250058
 21
24.9425531775
  0
LINE
  5
591
100
AcDbEntity
  8
DRAFT
100
AcDbLine
 62
7
  6
CONTINUOUS
 10
3.128914242
 20
25.05
 11
3.1131919082
 21
25.05
  0
LINE
  5
592
100
AcDbEntity
  8
DRAFT
100
AcDbLine
 62
7
  6
CONTINUOUS
 10
3.1027103523
 20
25.05
 11
3.0869880185
 21
25.05
  0
LINE
  5
593
100
AcDbEntity
  8
DRAFT
100
AcDbLine
 62
7
  6
CONTINUOUS
 10
3.0765064627
 20
25.05
 11
3.0607841289
 21
25.05
  0
LINE
  5
594
100
AcDbEntity
  8
DRAFT
100
AcDbLine
 62
7
  6
CONTINUOUS
 10
3.050302573
 20
25.05
 11
3.0345802392
 21
25.05
  0
LINE
  5
595
100
AcDbEntity
  8
DRAFT
100
AcDbLine
 62
7
  6
CONTINUOUS
 10
3.0240986834
 20
25.05
 11
3.0083763496
 21
25.05
  0
LINE
  5
596
100
AcDbEntity
  8
DRAFT
100
AcDbLine
 62
7
  6
CONTINUOUS
 10
2.9978947937
 20
25.05
 11
2.98217246
 21
25.05
  0
LINE
  5
597
100
AcDbEntity
  8
DRAFT
100
AcDbLine
 62
7
  6
CONTINUOUS
 10
3.1551181316
 20
25.05
 11
3.1393957978
 21
25.05
  0
LINE
  5
598
100
AcDbEntity
  8
DRAFT
100
AcDbLine
 62
7
  6
CONTINUOUS
 10
2.9716909041
 20
25.05
 11
2.9559685703
 21
25.05
  0
LINE
  5
599
100
AcDbEntity
  8
RACCORDO
100
AcDbLine
 62
7
  6
CONTINUOUS
 10
-2.9428666255
 20
25.05
 11
2.9428666255
 21
25.05
  0
LINE
  5
59A
100
AcDbEntity
  8
0
100
AcDbLine
 62
7
  6
CONTINUOUS
 10
-3.1551181316
 20
25.05
 11
-3.2294668044
 21
25.05
  0
LINE
  5
59B
100
AcDbEntity
  8
DRAFT
100
AcDbLine
 62
7
  6
CONTINUOUS
 10
-3.1131919082
 20
25.05
 11
-3.128914242
 21
25.05
  0
LINE
  5
59C
100
AcDbEntity
  8
DRAFT
100
AcDbLine
 62
7
  6
CONTINUOUS
 10
-3.0869880185
 20
25.05
 11
-3.1027103523
 21
25.05
  0
LINE
  5
59D
100
AcDbEntity
  8
DRAFT
100
AcDbLine
 62
7
  6
CONTINUOUS
 10
-3.0607841289
 20
25.05
 11
-3.0765064627
 21
25.05
  0
LINE
  5
59E
100
AcDbEntity
  8
DRAFT
100
AcDbLine
 62
7
  6
CONTINUOUS
 10
-3.0345802392
 20
25.05
 11
-3.050302573
 21
25.05
  0
LINE
  5
59F
100
AcDbEntity
  8
DRAFT
100
AcDbLine
 62
7
  6
CONTINUOUS
 10
-3.0083763496
 20
25.05
 11
-3.0240986834
 21
25.05
  0
LINE
  5
5A0
100
AcDbEntity
  8
DRAFT
100
AcDbLine
 62
7
  6
CONTINUOUS
 10
-2.98217246
 20
25.05
 11
-2.9978947937
 21
25.05
  0
LINE
  5
5A1
100
AcDbEntity
  8
DRAFT
100
AcDbLine
 62
7
  6
CONTINUOUS
 10
-2.9559685703
 20
25.05
 11
-2.9716909041
 21
25.05
  0
LINE
  5
5A2
100
AcDbEntity
  8
DRAFT
100
AcDbLine
 62
7
  6
CONTINUOUS
 10
-3.1393957978
 20
25.05
 11
-3.1551181316
 21
25.05
  0
LINE
  5
5A3
100
AcDbEntity
  8
0
100
AcDbLine
 62
7
  6
CONTINUOUS
 10
3.1551181316
 20
25.05
 11
3.2294668044
 21
25.05
  0
LINE
  5
5A4
100
AcDbEntity
  8
0
100
AcDbLine
 62
7
  6
CONTINUOUS
 10
27.935
 20
25.0531915009
 11
27.691249814
 21
25.0531915009
  0
LINE
  5
5A5
100
AcDbEntity
  8
0
100
AcDbLine
 62
7
  6
CONTINUOUS
 10
27.544999814
 20
25.0531915009
 11
27.130625
 21
25.0531915009
  0
LINE
  5
5A6
100
AcDbEntity
  8
0
100
AcDbLine
 62
7
  6
CONTINUOUS
 10
24.814999907
 20
25.0808510721
 11
24.985625093
 21
25.0808510721
  0
LINE
  5
5A7
100
AcDbEntity
  8
0
100
AcDbLine
 62
7
  6
CONTINUOUS
 10
28.52
 20
25.1085106432
 11
28.617500186
 21
25.1085106432
  0
LINE
  5
5A8
100
AcDbEntity
  8
0
100
AcDbLine
 62
7
  6
CONTINUOUS
 10
25.180624907
 20
25.1914893568
 11
25.326874907
 21
25.1914893568
  0
LINE
  5
5A9
100
AcDbEntity
  8
0
100
AcDbLine
 62
7
  6
CONTINUOUS
 10
28.617500186
 20
25.2191489279
 11
28.52
 21
25.2191489279
  0
LINE
  5
5AA
100
AcDbEntity
  8
0
100
AcDbLine
 62
7
  6
CONTINUOUS
 10
25.326874907
 20
25.3297872126
 11
25.180624907
 21
25.3297872126
  0
LINE
  5
5AB
100
AcDbEntity
  8
RACCORDO
100
AcDbLine
 62
250
  6
CONTINUOUS
 10
-2.6424549217
 20
25.35
 11
2.6424549217
 21
25.35
  0
LINE
  5
5AC
100
AcDbEntity
  8
0
100
AcDbLine
 62
7
  6
CONTINUOUS
 10
25.911874907
 20
25.4957447171
 11
26.03375
 21
25.4957447171
  0
LINE
  5
5AD
100
AcDbEntity
  8
0
100
AcDbLine
 62
7
  6
CONTINUOUS
 10
24.936875
 20
25.6617021441
 11
25.643750093
 21
25.6617021441
  0
LINE
  5
5AE
100
AcDbEntity
  8
0
100
AcDbLine
 62
7
  6
CONTINUOUS
 10
26.277500186
 20
25.6617021441
 11
26.374999814
 21
25.6617021441
  0
LINE
  5
5AF
100
AcDbEntity
  8
0
100
AcDbLine
 62
7
  6
CONTINUOUS
 10
28.52
 20
25.6617021441
 11
28.617500186
 21
25.6617021441
  0
LINE
  5
5B0
100
AcDbEntity
  8
0
100
AcDbLine
 62
7
  6
CONTINUOUS
 10
28.617500186
 20
25.8
 11
28.52
 21
25.8
  0
LINE
  5
5B1
100
AcDbEntity
  8
0
100
AcDbLine
 62
7
  6
CONTINUOUS
 10
27.691249814
 20
25.8
 11
27.544999814
 21
25.8
  0
LINE
  5
5B2
100
AcDbEntity
  8
0
100
AcDbLine
 62
7
  6
CONTINUOUS
 10
26.399375
 20
25.8
 11
26.301874814
 21
25.8
  0
LINE
  5
5B3
100
AcDbEntity
  8
0
100
AcDbLine
 62
7
  6
CONTINUOUS
 10
25.643750093
 20
25.8
 11
24.814999907
 21
25.8
  0
LINE
  5
5B4
100
AcDbEntity
  8
0
100
AcDbLine
 62
7
  6
CONTINUOUS
 10
22.085
 20
25.8
 11
21.8900000116
 21
25.8
  0
LINE
  5
5B5
100
AcDbEntity
  8
RACCORDO
100
AcDbLine
 62
250
  6
CONTINUOUS
 10
3.2363163899
 20
26.05
 11
0.1741669751
 21
26.05
  0
LINE
  5
5B6
100
AcDbEntity
  8
RACCORDO
100
AcDbLine
 62
250
  6
CONTINUOUS
 10
-0.1741669751
 20
26.05
 11
-3.2363163897
 21
26.05
  0
LINE
  5
5B7
100
AcDbEntity
  8
RACCORDO
100
AcDbLine
 62
7
  6
CONTINUOUS
 10
2.932418711
 20
26.35
 11
0.4043650715
 21
26.35
  0
LINE
  5
5B8
100
AcDbEntity
  8
RACCORDO
100
AcDbLine
 62
7
  6
CONTINUOUS
 10
-0.4043650715
 20
26.35
 11
-2.9324187059
 21
26.35
  0
LINE
  5
5B9
100
AcDbEntity
  8
RACCORDO
100
AcDbLine
 62
250
  6
CONTINUOUS
 10
2.9317262559
 20
26.6768383381
 11
0.4484994052
 21
26.6766274222
  0
LINE
  5
5BA
100
AcDbEntity
  8
RACCORDO
100
AcDbLine
 62
250
  6
CONTINUOUS
 10
-10.7965500786
 20
24.4085708438
 11
-10.9500889963
 21
24.4084885472
  0
LINE
  5
5BB
100
AcDbEntity
  8
RACCORDO
100
AcDbLine
 62
250
  6
CONTINUOUS
 10
-2.9317262559
 20
26.6768383599
 11
-0.448493185
 21
26.6766274222
  0
LINE
  5
5BC
100
AcDbEntity
  8
0
100
AcDbLine
 62
250
  6
CONTINUOUS
 10
3.5402599811
 20
24.5699332003
 11
0.5003671599
 21
24.5724664163
  0
LINE
  5
5BD
100
AcDbEntity
  8
RACCORDO
100
AcDbLine
 62
250
  6
CONTINUOUS
 10
10.9500889961
 20
24.4084885308
 11
-10.7965500786
 21
24.4085708438
  0
LWPOLYLINE
  5
5BE
100
AcDbEntity
  8
RACCORDO
100
AcDbPolyline
 62
7
  6
CONTINUOUS
 90
31
 70
0
 10
0.0
 20
26.7
 10
0.0090655173
 20
26.6998806855
 10
0.0184356777
 20
26.7005197555
 10
0.0281000507
 20
26.7019144151
 10
0.0380102078
 20
26.7041708226
 10
0.0481843852
 20
26.7071747298
 10
0.0587068424
 20
26.7105913095
 10
0.0695554116
 20
26.7144166438
 10
0.0806974214
 20
26.7186399564
 10
0.0921939535
 20
26.7229141447
 10
0.1040470823
 20
26.727203862
 10
0.1161665311
 20
26.7315208212
 10
0.1284712528
 20
26.7355875436
 10
0.1409269664
 20
26.739269849
 10
0.153458707
 20
26.7426726453
 10
0.1659267554
 20
26.745877716
 10
0.1781703706
 20
26.748750772
 10
0.1902324565
 20
26.7513945281
 10
0.2022358701
 20
26.7542347815
 10
0.2140433444
 20
26.7574754498
 10
0.2255295295
 20
26.7608422475
 10
0.2367468822
 20
26.7640200138
 10
0.2477056488
 20
26.7669312786
 10
0.2579459002
 20
26.76953302
 10
0.2669226125
 20
26.7715906297
 10
0.2746736641
 20
26.7728435754
 10
0.2810227644
 20
26.7735153019
 10
0.2855235351
 20
26.7742096784
 10
0.28827199
 20
26.7751935904
 10
0.2896254929
 20
26.7763216345
 10
0.2897777479
 20
26.7776457135
  0
LWPOLYLINE
  5
5BF
100
AcDbEntity
  8
RACCORDO
100
AcDbPolyline
 62
250
  6
CONTINUOUS
 90
22
 70
0
 10
2.931726258
 20
26.6768388781
 10
2.9631951952
 20
26.6760199338
 10
2.9955487529
 20
26.6734340243
 10
3.0286789367
 20
26.6689392154
 10
3.0623695409
 20
26.6624158638
 10
3.0965715566
 20
26.6537085415
 10
3.1313910501
 20
26.642588346
 10
3.166614588
 20
26.6288872146
 10
3.2020336952
 20
26.6124336452
 10
3.2376883976
 20
26.5929146047
 10
3.2732858708
 20
26.5701167736
 10
3.3084432748
 20
26.5438810869
 10
3.3429644763
 20
26.5139206195
 10
3.3764198623
 20
26.4800277217
 10
3.4082322349
 20
26.442142078
 10
3.4379052533
 20
26.4002235219
 10
3.4648501394
 20
26.3542172426
 10
3.4883640691
 20
26.3042650256
 10
3.5078053565
 20
26.2507428148
 10
3.5225651952
 20
26.1940098867
 10
3.5319516337
 20
26.1343920464
 10
3.5352860649
 20
26.0723965422
  0
LINE
  5
5C0
100
AcDbEntity
  8
RACCORDO
100
AcDbLine
 62
250
  6
CONTINUOUS
 10
35.6982592329
 20
22.0
 11
35.6434424398
 21
22.0037980867
  0
LWPOLYLINE
  5
5C1
100
AcDbEntity
  8
RACCORDO
100
AcDbPolyline
 62
250
  6
CONTINUOUS
 90
10
 70
0
 10
11.2499999987
 20
24.3875852354
 10
11.2127594638
 20
24.3924158747
 10
11.1764768602
 20
24.3965069774
 10
11.1411691903
 20
24.3999085347
 10
11.1068637793
 20
24.4026692113
 10
11.0735581938
 20
24.4048379673
 10
11.0412217976
 20
24.4064615708
 10
11.0098505262
 20
24.4075833064
 10
10.9794694205
 20
24.4082451935
 10
10.9500889962
 20
24.4084885442
  0
LINE
  5
5C2
100
AcDbEntity
  8
RACCORDO
100
AcDbLine
 62
250
  6
CONTINUOUS
 10
0.0
 20
26.7
 11
-0.2897777479
 21
26.7776457135
  0
LWPOLYLINE
  5
5C3
100
AcDbEntity
  8
RACCORDO
100
AcDbPolyline
 62
250
  6
CONTINUOUS
 90
3
 70
0
 10
11.2650768448
 20
35.6013498465
 10
11.2834936491
 20
35.561855123
 10
11.3084888892
 20
35.526158438
  0
LWPOLYLINE
  5
5C4
100
AcDbEntity
  8
RACCORDO
100
AcDbPolyline
 62
250
  6
CONTINUOUS
 90
8
 70
0
 10
11.2650766704
 20
35.6127551973
 10
11.2834933251
 20
35.5732605555
 10
11.3084884385
 20
35.5375638467
 10
11.3393025794
 20
35.5067497237
 10
11.3749994872
 20
35.4817544971
 10
11.4144945372
 20
35.4633376644
 10
11.4565877025
 20
35.4520588392
 10
11.5
 20
35.448260756
  0
LINE
  5
5C5
100
AcDbEntity
  8
0
100
AcDbLine
 62
7
  6
CONTINUOUS
 10
22.67
 20
25.0255319297
 11
22.6943750465
 21
24.8872340351
  0
LINE
  5
5C6
100
AcDbEntity
  8
0
100
AcDbLine
 62
7
  6
CONTINUOUS
 10
22.81625
 20
24.8872340351
 11
22.7918749535
 21
25.0531915009
  0
LINE
  5
5C7
100
AcDbEntity
  8
0
100
AcDbLine
 62
7
  6
CONTINUOUS
 10
23.40125
 20
25.4127659261
 11
23.4256250465
 21
25.2468084991
  0
LWPOLYLINE
  5
5C8
100
AcDbEntity
  8
0
100
AcDbPolyline
 62
7
  6
CONTINUOUS
 90
22
 70
0
 10
27.8808411214
 20
28.500013151
 10
27.8751956114
 20
28.6446883816
 10
27.8569263409
 20
28.7908994265
 10
27.825653491
 20
28.9382836518
 10
27.780665943
 20
29.0873790449
 10
27.7217676929
 20
29.2368402003
 10
27.6494268278
 20
29.3835513185
 10
27.5636156492
 20
29.526590851
 10
27.4636985464
 20
29.6664157268
 10
27.3493280116
 20
29.8021992122
 10
27.2201571425
 20
29.9340327427
 10
27.076404601
 20
30.060217505
 10
26.9183269319
 20
30.1786107323
 10
26.7454541427
 20
30.2897540401
 10
26.5581540123
 20
30.3928595766
 10
26.3588047433
 20
30.4839955963
 10
26.1460792478
 20
30.5635273205
 10
25.9217618904
 20
30.6314114613
 10
25.6936100241
 20
30.6838125571
 10
25.4647985084
 20
30.7200086673
 10
25.2334412333
 20
30.7419100571
 10
25.000073153
 20
30.7499999993
  0
LINE
  5
5C9
100
AcDbEntity
  8
0
100
AcDbLine
 62
7
  6
CONTINUOUS
 10
26.959999814
 20
25.0531915009
 11
26.959999814
 21
24.8872340351
  0
LINE
  5
5CA
100
AcDbEntity
  8
0
100
AcDbLine
 62
7
  6
CONTINUOUS
 10
26.992593
 20
34.764037
 11
26.992593
 21
31.5
  0
LINE
  5
5CB
100
AcDbEntity
  8
0
100
AcDbLine
 62
7
  6
CONTINUOUS
 10
27.544999814
 20
25.5787234306
 11
27.544999814
 21
25.0531915009
  0
LINE
  5
5CC
100
AcDbEntity
  8
0
100
AcDbLine
 62
7
  6
CONTINUOUS
 10
27.544999814
 20
24.8872340351
 11
27.544999814
 21
24.5
  0
LINE
  5
5CD
100
AcDbEntity
  8
0
100
AcDbLine
 62
7
  6
CONTINUOUS
 10
27.691249814
 20
24.5
 11
27.691249814
 21
24.8872340351
  0
LINE
  5
5CE
100
AcDbEntity
  8
0
100
AcDbLine
 62
7
  6
CONTINUOUS
 10
27.691249814
 20
25.0531915009
 11
27.691249814
 21
25.8
  0
LINE
  5
5CF
100
AcDbEntity
  8
0
100
AcDbLine
 62
7
  6
CONTINUOUS
 10
27.935
 20
24.8872340351
 11
27.935
 21
25.0531915009
  0
LINE
  5
5D0
100
AcDbEntity
  8
0
100
AcDbLine
 62
7
  6
CONTINUOUS
 10
28.129999814
 20
24.9148936063
 11
28.129999814
 21
24.8319148928
  0
LINE
  5
5D1
100
AcDbEntity
  8
0
100
AcDbLine
 62
7
  6
CONTINUOUS
 10
28.154375
 20
25.4680850685
 11
28.154375
 21
25.385106355
  0
LINE
  5
5D2
100
AcDbEntity
  8
0
100
AcDbLine
 62
7
  6
CONTINUOUS
 10
28.251875186
 20
24.8319148928
 11
28.251875186
 21
24.9148936063
  0
LINE
  5
5D3
100
AcDbEntity
  8
0
100
AcDbLine
 62
7
  6
CONTINUOUS
 10
28.276249814
 20
25.4127659261
 11
28.276249814
 21
25.4680850685
  0
LINE
  5
5D4
100
AcDbEntity
  8
0
100
AcDbLine
 62
7
  6
CONTINUOUS
 10
28.861249814
 20
25.4680850685
 11
28.861249814
 21
25.4127659261
  0
LINE
  5
5D5
100
AcDbEntity
  8
0
100
AcDbLine
 62
7
  6
CONTINUOUS
 10
28.885625
 20
24.9148936063
 11
28.885625
 21
24.8319148928
  0
LINE
  5
5D6
100
AcDbEntity
  8
0
100
AcDbLine
 62
7
  6
CONTINUOUS
 10
28.947951
 20
32.309434
 11
28.947951
 21
35.400001
  0
LINE
  5
5D7
100
AcDbEntity
  8
0
100
AcDbLine
 62
7
  6
CONTINUOUS
 10
28.983113
 20
-32.660266
 11
28.983113
 21
-32.188045
  0
LINE
  5
5D8
100
AcDbEntity
  8
0
100
AcDbLine
 62
7
  6
CONTINUOUS
 10
28.983125186
 20
25.385106355
 11
28.983125186
 21
25.4680850685
  0
LINE
  5
5D9
100
AcDbEntity
  8
0
100
AcDbLine
 62
7
  6
CONTINUOUS
 10
28.998534
 20
-28.833154
 11
28.998534
 21
-28.358337
  0
LINE
  5
5DA
100
AcDbEntity
  8
0
100
AcDbLine
 62
7
  6
CONTINUOUS
 10
29.007499814
 20
24.8319148928
 11
29.007499814
 21
24.9148936063
  0
LINE
  5
5DB
100
AcDbEntity
  8
0
100
AcDbLine
 62
7
  6
CONTINUOUS
 10
29.401602
 20
-32.188045
 11
29.401602
 21
-30.622365
  0
LINE
  5
5DC
100
AcDbEntity
  8
0
100
AcDbLine
 62
7
  6
CONTINUOUS
 10
29.401602
 20
-30.037162
 11
29.401602
 21
-28.833154
  0
LINE
  5
5DD
100
AcDbEntity
  8
0
100
AcDbLine
 62
7
  6
CONTINUOUS
 10
29.731239
 20
35.400001
 11
29.731239
 21
31.5
  0
LINE
  5
5DE
100
AcDbEntity
  8
0
100
AcDbLine
 62
7
  6
CONTINUOUS
 10
29.904665
 20
-28.833154
 11
29.904665
 21
-30.037162
  0
LINE
  5
5DF
100
AcDbEntity
  8
0
100
AcDbLine
 62
7
  6
CONTINUOUS
 10
29.904665
 20
-30.617084
 11
29.904665
 21
-32.188045
  0
LINE
  5
5E0
100
AcDbEntity
  8
0
100
AcDbLine
 62
7
  6
CONTINUOUS
 10
30.30757
 20
-28.358337
 11
30.30757
 21
-28.833154
  0
LINE
  5
5E1
100
AcDbEntity
  8
0
100
AcDbLine
 62
7
  6
CONTINUOUS
 10
30.322991
 20
-32.188045
 11
30.322991
 21
-32.660266
  0
LINE
  5
5E2
100
AcDbEntity
  8
RACCORDO
100
AcDbLine
 62
250
  6
CONTINUOUS
 10
-35.6548475539
 20
22.003798044
 11
-35.6013498465
 21
22.0150768448
  0
LWPOLYLINE
  5
5E3
100
AcDbEntity
  8
0
100
AcDbPolyline
 62
7
  6
CONTINUOUS
 90
34
 70
0
 10
25.000073153
 20
30.7499999993
 10
24.876949995
 20
30.7480676643
 10
24.7541940285
 20
30.7418944865
 10
24.6318873526
 20
30.731555742
 10
24.5100776407
 20
30.7172095406
 10
24.3888665621
 20
30.6988355235
 10
24.2684155259
 20
30.6762402103
 10
24.1487308484
 20
30.6494956553
 10
24.0299409921
 20
30.6186534578
 10
23.9123943695
 20
30.5834935121
 10
23.7961260706
 20
30.5440854492
 10
23.6812195346
 20
30.5004690772
 10
23.5680981255
 20
30.4523833594
 10
23.4566184077
 20
30.3997778924
 10
23.3470208031
 20
30.3427951567
 10
23.2402981812
 20
30.2814653945
 10
23.1365593263
 20
30.2158618667
 10
23.0357463856
 20
30.1459829712
 10
22.9385875319
 20
30.0717419085
 10
22.8449629744
 20
29.9930846466
 10
22.754988647
 20
29.9101027396
 10
22.6697219245
 20
29.8229144878
 10
22.5890393366
 20
29.7314413624
 10
22.5129803046
 20
29.6357478881
 10
22.4428071353
 20
29.5361415487
 10
22.3782998553
 20
29.4323218643
 10
22.3194853825
 20
29.3245017817
 10
22.2679446106
 20
29.2137193103
 10
22.2235745479
 20
29.0996241253
 10
22.1861561832
 20
28.9823789651
 10
22.1570551335
 20
28.8637477607
 10
22.1365897467
 20
28.7442206905
 10
22.1240323614
 20
28.6230256342
 10
22.1191588785
 20
28.5000049615
  0
LINE
  5
5E4
100
AcDbEntity
  8
0
100
AcDbLine
 62
7
  6
CONTINUOUS
 10
22.9625
 20
24.5276595736
 11
23.10875
 21
24.5
  0
LINE
  5
5E5
100
AcDbEntity
  8
0
100
AcDbLine
 62
7
  6
CONTINUOUS
 10
24.035000093
 20
24.5276595736
 11
24.181250093
 21
24.5
  0
LINE
  5
5E6
100
AcDbEntity
  8
0
100
AcDbLine
 62
7
  6
CONTINUOUS
 10
23.255
 20
25.7723404288
 11
23.10875
 21
25.8
  0
LINE
  5
5E7
100
AcDbEntity
  8
0
100
AcDbLine
 62
7
  6
CONTINUOUS
 10
24.327500093
 20
25.7723404288
 11
24.181250093
 21
25.8
  0
LINE
  5
5E8
100
AcDbEntity
  8
0
100
AcDbLine
 62
7
  6
CONTINUOUS
 10
26.545625
 20
25.7723404288
 11
26.399375
 21
25.8
  0
LINE
  5
5E9
100
AcDbEntity
  8
0
100
AcDbLine
 62
7
  6
CONTINUOUS
 10
23.10875
 20
24.6382978752
 11
22.9868750465
 21
24.6659574464
  0
LINE
  5
5EA
100
AcDbEntity
  8
0
100
AcDbLine
 62
7
  6
CONTINUOUS
 10
24.181250093
 20
24.6382978752
 11
24.059375
 21
24.6659574464
  0
LINE
  5
5EB
100
AcDbEntity
  8
0
100
AcDbLine
 62
7
  6
CONTINUOUS
 10
25.058750093
 20
24.5276595736
 11
25.180624907
 21
24.5
  0
LINE
  5
5EC
100
AcDbEntity
  8
0
100
AcDbLine
 62
7
  6
CONTINUOUS
 10
23.10875
 20
25.6617021441
 11
23.2306249535
 21
25.634042573
  0
LINE
  5
5ED
100
AcDbEntity
  8
0
100
AcDbLine
 62
7
  6
CONTINUOUS
 10
28.37375
 20
24.5276595736
 11
28.495624814
 21
24.5
  0
LINE
  5
5EE
100
AcDbEntity
  8
0
100
AcDbLine
 62
7
  6
CONTINUOUS
 10
25.44875
 20
25.3021276414
 11
25.326874907
 21
25.3297872126
  0
LINE
  5
5EF
100
AcDbEntity
  8
0
100
AcDbLine
 62
7
  6
CONTINUOUS
 10
24.181250093
 20
25.6617021441
 11
24.303124907
 21
25.634042573
  0
LINE
  5
5F0
100
AcDbEntity
  8
RACCORDO
100
AcDbLine
 62
250
  6
CONTINUOUS
 10
35.654847453
 20
22.0037980617
 11
35.6013496128
 21
22.0150769299
  0
LINE
  5
5F1
100
AcDbEntity
  8
0
100
AcDbLine
 62
7
  6
CONTINUOUS
 10
25.180624907
 20
24.6382978752
 11
25.083125
 21
24.6659574464
  0
LINE
  5
5F2
100
AcDbEntity
  8
0
100
AcDbLine
 62
7
  6
CONTINUOUS
 10
22.4749999768
 20
24.5
 11
22.085
 21
25.8
  0
LINE
  5
5F3
100
AcDbEntity
  8
0
100
AcDbLine
 62
7
  6
CONTINUOUS
 10
22.23125
 20
24.8319148928
 11
22.3287499768
 21
24.5
  0
LINE
  5
5F4
100
AcDbEntity
  8
0
100
AcDbLine
 62
7
  6
CONTINUOUS
 10
21.9874999884
 20
25.6893617153
 11
22.2068750232
 21
24.9425531775
  0
LINE
  5
5F5
100
AcDbEntity
  8
0
100
AcDbLine
 62
7
  6
CONTINUOUS
 10
22.6943750465
 20
24.8872340351
 11
22.7187499535
 21
24.8042553216
  0
LINE
  5
5F6
100
AcDbEntity
  8
0
100
AcDbLine
 62
7
  6
CONTINUOUS
 10
23.5231249535
 20
25.4127659261
 11
23.4987500465
 21
25.4957447171
  0
LINE
  5
5F7
100
AcDbEntity
  8
0
100
AcDbLine
 62
7
  6
CONTINUOUS
 10
23.766875
 20
24.8872340351
 11
23.7912500465
 21
24.8042553216
  0
LINE
  5
5F8
100
AcDbEntity
  8
0
100
AcDbLine
 62
7
  6
CONTINUOUS
 10
23.5475
 20
25.2744680703
 11
23.5231249535
 21
25.4127659261
  0
LINE
  5
5F9
100
AcDbEntity
  8
0
100
AcDbLine
 62
7
  6
CONTINUOUS
 10
23.7424999535
 20
25.0255319297
 11
23.766875
 21
24.8872340351
  0
LINE
  5
5FA
100
AcDbEntity
  8
0
100
AcDbLine
 62
7
  6
CONTINUOUS
 10
24.620000093
 20
25.2744680703
 11
24.595624907
 21
25.4127659261
  0
LINE
  5
5FB
100
AcDbEntity
  8
0
100
AcDbLine
 62
7
  6
CONTINUOUS
 10
23.888750093
 20
24.8872340351
 11
23.864374907
 21
25.0531915009
  0
LINE
  5
5FC
100
AcDbEntity
  8
0
100
AcDbLine
 62
7
  6
CONTINUOUS
 10
24.473750093
 20
25.4127659261
 11
24.498125
 21
25.2468084991
  0
LINE
  5
5FD
100
AcDbEntity
  8
0
100
AcDbLine
 62
7
  6
CONTINUOUS
 10
37.8924397494
 20
3.5
 11
37.997255308
 21
3.6749773271
  0
LINE
  5
5FE
100
AcDbEntity
  8
0
100
AcDbLine
 62
7
  6
CONTINUOUS
 10
39.8951844414
 20
3.5
 11
40.0
 21
3.6749773271
  0
LWPOLYLINE
  5
5FF
100
AcDbEntity
  8
RACCORDO
100
AcDbPolyline
 62
250
  6
CONTINUOUS
 90
6
 70
0
 10
11.3084889023
 20
-35.5261584224
 10
11.3393031124
 20
-35.4953444049
 10
11.3750000146
 20
-35.4703493211
 10
11.4144949762
 20
-35.4519326331
 10
11.4565879627
 20
-35.4406539219
 10
11.5
 20
-35.4368558845
  0
LWPOLYLINE
  5
600
100
AcDbEntity
  8
0
100
AcDbPolyline
 62
7
  6
CONTINUOUS
 90
22
 70
0
 10
0.5012529931
 20
-35.0376866551
 10
0.4461592151
 20
-35.0610829575
 10
0.3892738085
 20
-35.0792637352
 10
0.3311924121
 20
-35.0925468606
 10
0.2724290457
 20
-35.1013438085
 10
0.2133397337
 20
-35.1061111051
 10
0.1541500315
 20
-35.107278578
 10
0.0951280021
 20
-35.1042944005
 10
0.036629943
 20
-35.0964864791
 10
-0.0209975049
 20
-35.0836341674
 10
-0.0773996182
 20
-35.0656129702
 10
-0.131953835
 20
-35.0425387123
 10
-0.183985827
 20
-35.014817694
 10
-0.2331520931
 20
-34.9829464508
 10
-0.2793805754
 20
-34.9473993198
 10
-0.3225954608
 20
-34.9087414354
 10
-0.3626314345
 20
-34.8674919156
 10
-0.3983149997
 20
-34.8228238271
 10
-0.4295896936
 20
-34.7747892823
 10
-0.456710986
 20
-34.7239503798
 10
-0.4798858855
 20
-34.6710344592
 10
-0.4994680561
 20
-34.6165320003
  0
LWPOLYLINE
  5
601
100
AcDbEntity
  8
RACCORDO
100
AcDbPolyline
 62
250
  6
CONTINUOUS
 90
10
 70
0
 10
35.2779672797
 20
-22.0
 10
35.2668293619
 20
-22.0037980617
 10
35.2560298641
 20
-22.0150768446
 10
35.2458969236
 20
-22.0334936488
 10
35.2367384245
 20
-22.0584888888
 10
35.2288326434
 20
-22.0893030971
 10
35.2224197933
 20
-22.1249999995
 10
35.2176947255
 20
-22.1644949638
 10
35.2148010087
 20
-22.2065879554
 10
35.2138265672
 20
-22.25
  0
LINE
  5
602
100
AcDbEntity
  8
0
100
AcDbLine
 62
7
  6
CONTINUOUS
 10
17.3257634474
 20
33.649969
 11
17.3576580421
 21
33.6537043915
  0
LWPOLYLINE
  5
603
100
AcDbEntity
  8
0
100
AcDbPolyline
 62
7
  6
CONTINUOUS
 90
29
 70
0
 10
17.3576580421
 20
33.6537043915
 10
17.4211033631
 20
33.6603428426
 10
17.452571648
 20
33.6638085463
 10
17.483799212
 20
33.6677309518
 10
17.5147000535
 20
33.6723626122
 10
17.5452103383
 20
33.6779456499
 10
17.5753112595
 20
33.6847186503
 10
17.6049855688
 20
33.6929136868
 10
17.6340997039
 20
33.7027222203
 10
17.662357954
 20
33.714278307
 10
17.6894761543
 20
33.727713535
 10
17.7151488279
 20
33.7431385691
 10
17.739118733
 20
33.7606772098
 10
17.7612846113
 20
33.7803485843
 10
17.7816545254
 20
33.8018419831
 10
17.8003126011
 20
33.824878589
 10
17.8174188209
 20
33.8493242262
 10
17.833011755
 20
33.8749332857
 10
17.8470884288
 20
33.9014363621
 10
17.859682793
 20
33.9288113606
 10
17.8707823261
 20
33.9570103955
 10
17.8803523443
 20
33.9859297714
 10
17.8883730336
 20
34.015496539
 10
17.8948294184
 20
34.0456699372
 10
17.8997196268
 20
34.0763225811
 10
17.9031764232
 20
34.1072585826
 10
17.9053938794
 20
34.1383652065
 10
17.9065761393
 20
34.1696121413
 10
17.9069248867
 20
34.200926552
  0
LINE
  5
604
100
AcDbEntity
  8
0
100
AcDbLine
 62
7
  6
CONTINUOUS
 10
-19.841206
 20
31.49998
 11
-20.621245
 21
31.49999
  0
LINE
  5
605
100
AcDbEntity
  8
0
100
AcDbLine
 62
7
  6
CONTINUOUS
 10
-23.645714
 20
31.49998
 11
-24.425744
 21
31.49998
  0
LINE
  5
606
100
AcDbEntity
  8
0
100
AcDbLine
 62
7
  6
CONTINUOUS
 10
-26.680704
 20
31.49998
 11
-27.460733
 21
31.49998
  0
LINE
  5
607
100
AcDbEntity
  8
0
100
AcDbLine
 62
7
  6
CONTINUOUS
 10
-18.541151
 20
31.49999
 11
-19.32119
 21
31.49999
  0
LINE
  5
608
100
AcDbEntity
  8
0
100
AcDbLine
 62
7
  6
CONTINUOUS
 10
33.885144
 20
31.5
 11
33.04271
 21
31.5
  0
LINE
  5
609
100
AcDbEntity
  8
0
100
AcDbLine
 62
7
  6
CONTINUOUS
 10
30.92503
 20
31.5
 11
30.125598
 21
31.5
  0
LINE
  5
60A
100
AcDbEntity
  8
0
100
AcDbLine
 62
7
  6
CONTINUOUS
 10
29.731239
 20
31.5
 11
28.542878
 21
31.5
  0
LINE
  5
60B
100
AcDbEntity
  8
0
100
AcDbLine
 62
7
  6
CONTINUOUS
 10
26.992593
 20
31.5
 11
26.209306
 21
31.5
  0
LINE
  5
60C
100
AcDbEntity
  8
0
100
AcDbLine
 62
7
  6
CONTINUOUS
 10
25.782658
 20
31.5
 11
24.93993
 21
31.5
  0
LINE
  5
60D
100
AcDbEntity
  8
0
100
AcDbLine
 62
7
  6
CONTINUOUS
 10
22.822544
 20
31.5
 11
22.023112
 21
31.5
  0
LINE
  5
60E
100
AcDbEntity
  8
0
100
AcDbLine
 62
7
  6
CONTINUOUS
 10
21.602482
 20
31.5
 11
19.322185
 21
31.5
  0
LINE
  5
60F
100
AcDbEntity
  8
0
100
AcDbLine
 62
7
  6
CONTINUOUS
 10
16.837298
 20
31.5
 11
16.0
 21
31.5
  0
LINE
  5
610
100
AcDbEntity
  8
0
100
AcDbLine
 62
7
  6
CONTINUOUS
 10
-16.2
 20
31.5
 11
-17.078582
 21
31.49999
  0
LINE
  5
611
100
AcDbEntity
  8
0
100
AcDbLine
 62
7
  6
CONTINUOUS
 10
-22.345669
 20
31.49999
 11
-23.125698
 21
31.49998
  0
LINE
  5
612
100
AcDbEntity
  8
0
100
AcDbLine
 62
7
  6
CONTINUOUS
 10
-28.240743
 20
31.49998
 11
-29.020772
 21
31.499971
  0
LINE
  5
613
100
AcDbEntity
  8
0
100
AcDbLine
 62
7
  6
CONTINUOUS
 10
-25.163224
 20
31.49999
 11
-25.943234
 21
31.49998
  0
LINE
  5
614
100
AcDbEntity
  8
0
100
AcDbLine
 62
7
  6
CONTINUOUS
 10
-30.793001
 20
31.49998
 11
-31.573059
 21
31.499971
  0
LINE
  5
615
100
AcDbEntity
  8
0
100
AcDbLine
 62
7
  6
CONTINUOUS
 10
20.159483
 20
32.148117
 11
21.602482
 21
32.148117
  0
LINE
  5
616
100
AcDbEntity
  8
0
100
AcDbLine
 62
7
  6
CONTINUOUS
 10
-20.867491
 20
32.266984
 11
-22.099413
 21
32.266984
  0
LINE
  5
617
100
AcDbEntity
  8
0
100
AcDbLine
 62
7
  6
CONTINUOUS
 10
32.761654
 20
32.326584
 11
31.2168
 21
32.326584
  0
LINE
  5
618
100
AcDbEntity
  8
0
100
AcDbLine
 62
7
  6
CONTINUOUS
 10
24.659021
 20
32.326584
 11
23.114167
 21
32.326584
  0
LINE
  5
619
100
AcDbEntity
  8
0
100
AcDbLine
 62
7
  6
CONTINUOUS
 10
23.330206
 20
32.9747
 11
24.448413
 21
32.9747
  0
LINE
  5
61A
100
AcDbEntity
  8
0
100
AcDbLine
 62
7
  6
CONTINUOUS
 10
31.432839
 20
32.9747
 11
32.550899
 21
32.9747
  0
LINE
  5
61B
100
AcDbEntity
  8
0
100
AcDbLine
 62
7
  6
CONTINUOUS
 10
17.1934416814
 20
33.001852
 11
16.837298
 21
33.001852
  0
LINE
  5
61C
100
AcDbEntity
  8
0
100
AcDbLine
 62
7
  6
CONTINUOUS
 10
-17.860269
 20
33.008013
 11
-18.541063
 21
33.008023
  0
LINE
  5
61D
100
AcDbEntity
  8
0
100
AcDbLine
 62
7
  6
CONTINUOUS
 10
-21.861484
 20
33.008013
 11
-21.10543
 21
33.008013
  0
LINE
  5
61E
100
AcDbEntity
  8
0
100
AcDbLine
 62
7
  6
CONTINUOUS
 10
16.837298
 20
33.649969
 11
17.3257634474
 21
33.649969
  0
LINE
  5
61F
100
AcDbEntity
  8
0
100
AcDbLine
 62
7
  6
CONTINUOUS
 10
-18.551905
 20
33.729552
 11
-17.602891
 21
33.729552
  0
LINE
  5
620
100
AcDbEntity
  8
0
100
AcDbLine
 62
7
  6
CONTINUOUS
 10
26.374999814
 20
25.6617021441
 11
26.496875186
 21
25.634042573
  0
LINE
  5
621
100
AcDbEntity
  8
0
100
AcDbLine
 62
7
  6
CONTINUOUS
 10
28.739375
 20
25.7723404288
 11
28.617500186
 21
25.8
  0
LWPOLYLINE
  5
622
100
AcDbEntity
  8
0
100
AcDbPolyline
 62
7
  6
CONTINUOUS
 90
13
 70
0
 10
26.8191862883
 20
28.3742749487
 10
26.8409364533
 20
28.3689052619
 10
26.8621053852
 20
28.3634773957
 10
26.8826939082
 20
28.3579922769
 10
26.902719935
 20
28.3524932262
 10
26.9221672292
 20
28.3469388731
 10
26.9409849461
 20
28.3412028495
 10
26.9591675251
 20
28.3353096192
 10
26.9767212882
 20
28.3292362027
 10
26.9936121464
 20
28.3227843252
 10
27.0098282728
 20
28.3158878783
 10
27.0253808367
 20
28.3086134735
 10
27.0402696302
 20
28.3009614755
  0
LWPOLYLINE
  5
623
100
AcDbEntity
  8
0
100
AcDbPolyline
 62
7
  6
CONTINUOUS
 90
3
 70
0
 10
26.739036358
 20
28.3951784679
 10
26.7790263743
 20
28.3845256359
 10
26.8191862883
 20
28.3742749487
  0
LINE
  5
624
100
AcDbEntity
  8
0
100
AcDbLine
 62
7
  6
CONTINUOUS
 10
25.326874907
 20
25.1914893568
 11
25.424375093
 21
25.1638297856
  0
LINE
  5
625
100
AcDbEntity
  8
0
100
AcDbLine
 62
7
  6
CONTINUOUS
 10
28.52
 20
24.6382978752
 11
28.422499814
 21
24.6659574464
  0
LINE
  5
626
100
AcDbEntity
  8
0
100
AcDbLine
 62
7
  6
CONTINUOUS
 10
28.617500186
 20
25.1085106432
 11
28.714999814
 21
25.0808510721
  0
LINE
  5
627
100
AcDbEntity
  8
0
100
AcDbLine
 62
7
  6
CONTINUOUS
 10
28.52
 20
25.2191489279
 11
28.422499814
 21
25.2468084991
  0
LINE
  5
628
100
AcDbEntity
  8
0
100
AcDbLine
 62
7
  6
CONTINUOUS
 10
28.617500186
 20
25.6617021441
 11
28.714999814
 21
25.634042573
  0
LWPOLYLINE
  5
629
100
AcDbEntity
  8
RACCORDO
100
AcDbPolyline
 62
250
  6
CONTINUOUS
 90
10
 70
0
 10
35.2779672797
 20
22.0
 10
35.2668293393
 20
22.0037980773
 10
35.256029827
 20
22.0150768974
 10
35.2458968805
 20
22.0334937456
 10
35.2367383843
 20
22.0584890203
 10
35.228832612
 20
22.0893032431
 10
35.2224197725
 20
22.1250001398
 10
35.2176947148
 20
22.1644950789
 10
35.2148010057
 20
22.2065880228
 10
35.2138265672
 20
22.25
  0
LINE
  5
62A
100
AcDbEntity
  8
0
100
AcDbLine
 62
7
  6
CONTINUOUS
 10
22.8406250465
 20
24.6106382944
 11
22.9625
 21
24.5276595736
  0
LINE
  5
62B
100
AcDbEntity
  8
0
100
AcDbLine
 62
7
  6
CONTINUOUS
 10
23.913125
 20
24.6106382944
 11
24.035000093
 21
24.5276595736
  0
LINE
  5
62C
100
AcDbEntity
  8
0
100
AcDbLine
 62
7
  6
CONTINUOUS
 10
24.936875
 20
24.6106382944
 11
25.058750093
 21
24.5276595736
  0
LINE
  5
62D
100
AcDbEntity
  8
0
100
AcDbLine
 62
7
  6
CONTINUOUS
 10
23.3768749535
 20
25.6893617153
 11
23.255
 21
25.7723404288
  0
LINE
  5
62E
100
AcDbEntity
  8
0
100
AcDbLine
 62
7
  6
CONTINUOUS
 10
22.9868750465
 20
24.6659574464
 11
22.9137500465
 21
24.7212765887
  0
LINE
  5
62F
100
AcDbEntity
  8
0
100
AcDbLine
 62
7
  6
CONTINUOUS
 10
24.059375
 20
24.6659574464
 11
23.98625
 21
24.7212765887
  0
LWPOLYLINE
  5
630
100
AcDbEntity
  8
RACCORDO
100
AcDbPolyline
 62
250
  6
CONTINUOUS
 90
6
 70
0
 10
11.3084888892
 20
35.526158438
 10
11.3393030976
 20
35.4953444174
 10
11.375
 20
35.4703493295
 10
11.4144949642
 20
35.4519326375
 10
11.4565879556
 20
35.4406539231
 10
11.5
 20
35.4368558845
  0
LINE
  5
631
100
AcDbEntity
  8
0
100
AcDbLine
 62
7
  6
CONTINUOUS
 10
22.7675000465
 20
24.6936170176
 11
22.8406250465
 21
24.6106382944
  0
LINE
  5
632
100
AcDbEntity
  8
0
100
AcDbLine
 62
7
  6
CONTINUOUS
 10
23.84
 20
24.6936170176
 11
23.913125
 21
24.6106382944
  0
LINE
  5
633
100
AcDbEntity
  8
0
100
AcDbLine
 62
7
  6
CONTINUOUS
 10
24.86375
 20
24.7212765887
 11
24.936875
 21
24.6106382944
  0
LINE
  5
634
100
AcDbEntity
  8
0
100
AcDbLine
 62
7
  6
CONTINUOUS
 10
37.997255308
 20
-3.6749773271
 11
37.8924397494
 21
-3.5
  0
LINE
  5
635
100
AcDbEntity
  8
0
100
AcDbLine
 62
7
  6
CONTINUOUS
 10
40.0
 20
-3.6749773271
 11
39.8951844414
 21
-3.5
  0
LINE
  5
636
100
AcDbEntity
  8
0
100
AcDbLine
 62
7
  6
CONTINUOUS
 10
22.9137500465
 20
24.7212765887
 11
22.81625
 21
24.8872340351
  0
LINE
  5
637
100
AcDbEntity
  8
0
100
AcDbLine
 62
7
  6
CONTINUOUS
 10
23.3037499535
 20
25.5787234306
 11
23.40125
 21
25.4127659261
  0
LINE
  5
638
100
AcDbEntity
  8
0
100
AcDbLine
 62
7
  6
CONTINUOUS
 10
23.98625
 20
24.7212765887
 11
23.888750093
 21
24.8872340351
  0
LINE
  5
639
100
AcDbEntity
  8
0
100
AcDbLine
 62
7
  6
CONTINUOUS
 10
24.376249907
 20
25.5787234306
 11
24.473750093
 21
25.4127659261
  0
LINE
  5
63A
100
AcDbEntity
  8
0
100
AcDbLine
 62
7
  6
CONTINUOUS
 10
22.7187499535
 20
24.8042553216
 11
22.7675000465
 21
24.6936170176
  0
LINE
  5
63B
100
AcDbEntity
  8
0
100
AcDbLine
 62
7
  6
CONTINUOUS
 10
23.7912500465
 20
24.8042553216
 11
23.84
 21
24.6936170176
  0
LINE
  5
63C
100
AcDbEntity
  8
0
100
AcDbLine
 62
7
  6
CONTINUOUS
 10
23.4987500465
 20
25.4957447171
 11
23.4499999535
 21
25.6063830018
  0
LINE
  5
63D
100
AcDbEntity
  8
0
100
AcDbLine
 62
7
  6
CONTINUOUS
 10
24.814999907
 20
24.8319148928
 11
24.86375
 21
24.7212765887
  0
LINE
  5
63E
100
AcDbEntity
  8
0
100
AcDbLine
 62
7
  6
CONTINUOUS
 10
24.57125
 20
25.4957447171
 11
24.522499907
 21
25.6063830018
  0
LINE
  5
63F
100
AcDbEntity
  8
0
100
AcDbLine
 62
7
  6
CONTINUOUS
 10
25.01
 20
24.7212765887
 11
24.961249907
 21
24.8319148928
  0
LINE
  5
640
100
AcDbEntity
  8
0
100
AcDbLine
 62
7
  6
CONTINUOUS
 10
25.692499907
 20
24.9702127486
 11
25.643750093
 21
25.1085106432
  0
LINE
  5
641
100
AcDbEntity
  8
0
100
AcDbLine
 62
7
  6
CONTINUOUS
 10
24.93993
 20
31.5
 11
24.659021
 21
32.326584
  0
LINE
  5
642
100
AcDbEntity
  8
0
100
AcDbLine
 62
7
  6
CONTINUOUS
 10
24.448413
 20
32.9747
 11
23.908502
 21
34.654752
  0
LINE
  5
643
100
AcDbEntity
  8
0
100
AcDbLine
 62
7
  6
CONTINUOUS
 10
24.595624907
 20
25.4127659261
 11
24.57125
 21
25.4957447171
  0
LINE
  5
644
100
AcDbEntity
  8
0
100
AcDbLine
 62
7
  6
CONTINUOUS
 10
25.546249907
 20
25.0255319297
 11
25.570625093
 21
24.9425531775
  0
LWPOLYLINE
  5
645
100
AcDbEntity
  8
0
100
AcDbPolyline
 62
7
  6
CONTINUOUS
 90
14
 70
0
 10
26.3040412157
 20
28.7040887529
 10
26.315187511
 20
28.6628170516
 10
26.3310786889
 20
28.6251631668
 10
26.3516751245
 20
28.5903664055
 10
26.3759287491
 20
28.5590995848
 10
26.4041132764
 20
28.5317930357
 10
26.4359865446
 20
28.5080208553
 10
26.4697430869
 20
28.4871882284
 10
26.5051623113
 20
28.4697277199
 10
26.5425068818
 20
28.4552248923
 10
26.5806881815
 20
28.4418118181
 10
26.6195762854
 20
28.4290918168
 10
26.6593153155
 20
28.4174610018
 10
26.739036358
 20
28.3951784679
  0
LINE
  5
646
100
AcDbEntity
  8
0
100
AcDbLine
 62
7
  6
CONTINUOUS
 10
26.765
 20
25.4957447171
 11
26.740624814
 21
25.6063830018
  0
LWPOLYLINE
  5
647
100
AcDbEntity
  8
0
100
AcDbPolyline
 62
7
  6
CONTINUOUS
 90
9
 70
0
 10
26.2590889276
 20
28.2132541677
 10
26.2673069816
 20
28.1733995386
 10
26.2784040877
 20
28.1343716373
 10
26.2923707451
 20
28.0961577889
 10
26.3090811372
 20
28.0582831114
 10
26.3286417295
 20
28.0211943018
 10
26.3514037988
 20
27.9862660088
 10
26.377584312
 20
27.9534727032
 10
26.40697637
 20
27.9228233309
  0
LWPOLYLINE
  5
648
100
AcDbEntity
  8
0
100
AcDbPolyline
 62
7
  6
CONTINUOUS
 90
30
 70
0
 10
27.2794572138
 20
28.7817805365
 10
27.271948384
 20
28.8296638534
 10
27.2593361933
 20
28.8749880056
 10
27.2416067227
 20
28.9177317329
 10
27.2184601134
 20
28.9585829633
 10
27.1901666046
 20
28.9968160654
 10
27.157602489
 20
29.0303154703
 10
27.1207027631
 20
29.05803982
 10
27.0795947454
 20
29.0810605029
 10
27.0354729627
 20
29.1004540198
 10
26.9885690466
 20
29.116660501
 10
26.938701045
 20
29.1292655649
 10
26.8864409147
 20
29.1380696932
 10
26.8310275494
 20
29.1431436406
 10
26.7732712848
 20
29.1444648423
 10
26.7161162183
 20
29.1417102593
 10
26.6596985515
 20
29.1349972293
 10
26.6039570648
 20
29.1242601235
 10
26.5515567321
 20
29.1089090503
 10
26.5027760157
 20
29.0886640953
 10
26.4573792598
 20
29.0638409044
 10
26.4172422458
 20
29.0347399746
 10
26.3826898392
 20
29.000637822
 10
26.3533556469
 20
28.9622464568
 10
26.3300595971
 20
28.9220035443
 10
26.3130897602
 20
28.8800539531
 10
26.3020692831
 20
28.8362020293
 10
26.2968257118
 20
28.7923765923
 10
26.2975946359
 20
28.7482406918
 10
26.3040412157
 20
28.7040887529
  0
LINE
  5
649
100
AcDbEntity
  8
RACCORDO
100
AcDbLine
 62
250
  6
CONTINUOUS
 10
35.9482577098
 20
-22.0
 11
35.9482577098
 21
-22.5
  0
LINE
  5
64A
100
AcDbEntity
  8
RACCORDO
100
AcDbLine
 62
250
  6
CONTINUOUS
 10
35.9482577098
 20
22.0
 11
35.9482577098
 21
22.5
  0
LINE
  5
64B
100
AcDbEntity
  8
0
100
AcDbLine
 62
250
  6
CONTINUOUS
 10
37.0
 20
37.997255308
 11
37.0
 21
37.7999037089
  0
LINE
  5
64C
100
AcDbEntity
  8
0
100
AcDbLine
 62
250
  6
CONTINUOUS
 10
37.0
 20
-37.997255308
 11
37.0
 21
-37.7999037089
  0
LINE
  5
64D
100
AcDbEntity
  8
ASSI
100
AcDbLine
 62
7
  6
CONTINUOUS
 10
37.7918688527
 20
-22.5
 11
37.8002100102
 21
-37.0
  0
LINE
  5
64E
100
AcDbEntity
  8
0
100
AcDbLine
 62
7
  6
CONTINUOUS
 10
37.8924397494
 20
-3.5
 11
37.8924397494
 21
3.5
  0
LINE
  5
64F
100
AcDbEntity
  8
RACCORDO
100
AcDbLine
 62
7
  6
CONTINUOUS
 10
37.997255308
 20
37.0
 11
37.997255308
 21
3.6749773271
  0
LINE
  5
650
100
AcDbEntity
  8
RACCORDO
100
AcDbLine
 62
7
  6
CONTINUOUS
 10
37.997255308
 20
-3.6749773271
 11
37.997255308
 21
-37.0
  0
LINE
  5
651
100
AcDbEntity
  8
ASSI
100
AcDbLine
 62
7
  6
CONTINUOUS
 10
37.7918245401
 20
22.0
 11
37.7918245401
 21
-22.0
  0
LINE
  5
652
100
AcDbEntity
  8
ASSI
100
AcDbLine
 62
7
  6
CONTINUOUS
 10
37.8002100102
 20
37.0
 11
37.7918688527
 21
22.5
  0
LWPOLYLINE
  5
653
100
AcDbEntity
  8
RACCORDO
100
AcDbPolyline
 62
250
  6
CONTINUOUS
 90
3
 70
0
 10
35.6013498465
 20
-22.0150768448
 10
35.561855123
 20
-22.0334936491
 10
35.526158438
 20
-22.0584888892
  0
LWPOLYLINE
  5
654
100
AcDbEntity
  8
RACCORDO
100
AcDbPolyline
 62
250
  6
CONTINUOUS
 90
8
 70
0
 10
35.6127548851
 20
-22.015076784
 10
35.5732601901
 20
-22.0334935361
 10
35.5375634971
 20
-22.0584887318
 10
35.506749441
 20
-22.0893029163
 10
35.4817543047
 20
-22.1249998204
 10
35.4633375634
 20
-22.1644948146
 10
35.4520588103
 20
-22.2065878669
 10
35.448260756
 20
-22.25
  0
LINE
  5
655
100
AcDbEntity
  8
0
100
AcDbLine
 62
7
  6
CONTINUOUS
 10
-17.602891
 20
34.678637
 11
-18.551915
 21
34.678637
  0
LINE
  5
656
100
AcDbEntity
  8
0
100
AcDbLine
 62
7
  6
CONTINUOUS
 10
17.3257642742
 20
34.751884
 11
16.837298
 21
34.751884
  0
LINE
  5
657
100
AcDbEntity
  8
0
100
AcDbLine
 62
7
  6
CONTINUOUS
 10
16.0
 20
35.400001
 11
17.1934444892
 21
35.400001
  0
LINE
  5
658
100
AcDbEntity
  8
0
100
AcDbLine
 62
7
  6
CONTINUOUS
 10
19.322185
 20
35.400001
 11
20.159483
 21
35.400001
  0
LINE
  5
659
100
AcDbEntity
  8
0
100
AcDbLine
 62
7
  6
CONTINUOUS
 10
23.432942
 20
35.400001
 11
24.426838
 21
35.400001
  0
LINE
  5
65A
100
AcDbEntity
  8
0
100
AcDbLine
 62
7
  6
CONTINUOUS
 10
26.209306
 20
35.400001
 11
27.451676
 21
35.400001
  0
LINE
  5
65B
100
AcDbEntity
  8
0
100
AcDbLine
 62
7
  6
CONTINUOUS
 10
28.947951
 20
35.400001
 11
29.731239
 21
35.400001
  0
LINE
  5
65C
100
AcDbEntity
  8
0
100
AcDbLine
 62
7
  6
CONTINUOUS
 10
31.535575
 20
35.400001
 11
32.529471
 21
35.400001
  0
LINE
  5
65D
100
AcDbEntity
  8
0
100
AcDbLine
 62
7
  6
CONTINUOUS
 10
-32.825271
 20
35.400156
 11
-32.045232
 21
35.400156
  0
LINE
  5
65E
100
AcDbEntity
  8
0
100
AcDbLine
 62
7
  6
CONTINUOUS
 10
-30.320818
 20
35.400156
 11
-29.540779
 21
35.400156
  0
LINE
  5
65F
100
AcDbEntity
  8
0
100
AcDbLine
 62
7
  6
CONTINUOUS
 10
-29.020763
 20
35.400156
 11
-28.240733
 21
35.400156
  0
LINE
  5
660
100
AcDbEntity
  8
0
100
AcDbLine
 62
7
  6
CONTINUOUS
 10
-27.460733
 20
35.400156
 11
-26.281539
 21
35.400156
  0
LINE
  5
661
100
AcDbEntity
  8
0
100
AcDbLine
 62
7
  6
CONTINUOUS
 10
-24.824909
 20
35.400156
 11
-23.645714
 21
35.400156
  0
LINE
  5
662
100
AcDbEntity
  8
0
100
AcDbLine
 62
7
  6
CONTINUOUS
 10
-21.873496
 20
35.400166
 11
-21.093428
 21
35.400166
  0
LINE
  5
663
100
AcDbEntity
  8
0
100
AcDbLine
 62
7
  6
CONTINUOUS
 10
-19.32119
 20
35.400166
 11
-17.494625
 21
35.400166
  0
LINE
  5
664
100
AcDbEntity
  8
RACCORDO
100
AcDbLine
 62
250
  6
CONTINUOUS
 10
11.25
 20
35.9482577098
 11
11.75
 21
35.9482577098
  0
LINE
  5
665
100
AcDbEntity
  8
RACCORDO
100
AcDbLine
 62
250
  6
CONTINUOUS
 10
-11.25
 20
35.9482577098
 11
-11.75
 21
35.9482577098
  0
LINE
  5
666
100
AcDbEntity
  8
0
100
AcDbLine
 62
250
  6
CONTINUOUS
 10
37.8002100102
 20
37.0
 11
37.997255308
 21
37.0
  0
LINE
  5
667
100
AcDbEntity
  8
0
100
AcDbLine
 62
250
  6
CONTINUOUS
 10
-37.8002100102
 20
37.0
 11
-37.997255308
 21
37.0
  0
LINE
  5
668
100
AcDbEntity
  8
0
100
AcDbLine
 62
7
  6
CONTINUOUS
 10
-0.5013064394
 20
37.7824895877
 11
0.5
 21
37.7824895094
  0
LINE
  5
669
100
AcDbEntity
  8
ASSI
100
AcDbLine
 62
7
  6
CONTINUOUS
 10
0.5
 20
37.7824895094
 11
11.25
 21
37.7836328763
  0
LINE
  5
66A
100
AcDbEntity
  8
RACCORDO
100
AcDbLine
 62
7
  6
CONTINUOUS
 10
-37.0
 20
37.997255308
 11
37.0
 21
37.997255308
  0
LINE
  5
66B
100
AcDbEntity
  8
ASSI
100
AcDbLine
 62
7
  6
CONTINUOUS
 10
-0.5013064394
 20
37.7824895877
 11
-11.25
 21
37.7836328763
  0
LINE
  5
66C
100
AcDbEntity
  8
ASSI
100
AcDbLine
 62
7
  6
CONTINUOUS
 10
-11.75
 20
37.7836483604
 11
-23.5824103677
 21
37.7817447911
  0
LWPOLYLINE
  5
66D
100
AcDbEntity
  8
ASSI
100
AcDbPolyline
 62
7
  6
CONTINUOUS
 90
3
 70
0
 10
11.75
 20
37.7836483604
 10
19.3845201894
 20
37.7822940265
 10
37.0
 20
37.7999037089
  0
LINE
  5
66E
100
AcDbEntity
  8
ASSI
100
AcDbLine
 62
7
  6
CONTINUOUS
 10
-23.5824103677
 20
37.7817447911
 11
-30.0663687448
 21
37.7876626742
  0
LINE
  5
66F
100
AcDbEntity
  8
ASSI
100
AcDbLine
 62
7
  6
CONTINUOUS
 10
-30.0663687448
 20
37.7876626742
 11
-36.101597655
 21
37.7969354205
  0
LINE
  5
670
100
AcDbEntity
  8
ASSI
100
AcDbLine
 62
7
  6
CONTINUOUS
 10
-36.101597655
 20
37.7969354205
 11
-37.0
 21
37.7999037089
  0
LINE
  5
671
100
AcDbEntity
  8
0
100
AcDbLine
 62
7
  6
CONTINUOUS
 10
17.1934444892
 20
35.400001
 11
17.3439713983
 21
35.3948818683
  0
LWPOLYLINE
  5
672
100
AcDbEntity
  8
0
100
AcDbPolyline
 62
7
  6
CONTINUOUS
 90
29
 70
0
 10
17.3439713983
 20
35.3948818683
 10
17.4190290166
 20
35.3919434776
 10
17.4938511765
 20
35.3881139114
 10
17.5684448162
 20
35.3829176979
 10
17.6429078347
 20
35.3758721169
 10
17.7171582895
 20
35.3666101591
 10
17.7911046675
 20
35.3549580719
 10
17.864820069
 20
35.3407248985
 10
17.9382371536
 20
35.3237249803
 10
18.0111821463
 20
35.3037919749
 10
18.0834944347
 20
35.2806831798
 10
18.1548324067
 20
35.2539929197
 10
18.2247348797
 20
35.2233106968
 10
18.2926902688
 20
35.188253613
 10
18.3585038274
 20
35.1482591237
 10
18.4213661648
 20
35.1032869213
 10
18.4799056304
 20
35.0540611788
 10
18.5333768153
 20
35.0010964856
 10
18.5815764878
 20
34.9444424846
 10
18.6242492114
 20
34.8843954538
 10
18.6610987795
 20
34.8223917971
 10
18.6928811987
 20
34.758370733
 10
18.7207596232
 20
34.6903490246
 10
18.7445339397
 20
34.6182762919
 10
18.7637798269
 20
34.5430256922
 10
18.7787888279
 20
34.4635715252
 10
18.789592496
 20
34.3796918655
 10
18.7960802533
 20
34.2920435588
 10
18.7982321166
 20
34.200926552
  0
LWPOLYLINE
  5
673
100
AcDbEntity
  8
0
100
AcDbPolyline
 62
7
  6
CONTINUOUS
 90
3
 70
0
 10
17.4171944488
 20
34.7419205047
 10
17.3565688637
 20
34.7482686349
 10
17.3257642742
 20
34.751884
  0
LINE
  5
674
100
AcDbEntity
  8
0
100
AcDbLine
 62
7
  6
CONTINUOUS
 10
26.8384953473
 20
28.6014572117
 11
26.7661087413
 21
28.6211332869
  0
LWPOLYLINE
  5
675
100
AcDbEntity
  8
0
100
AcDbPolyline
 62
7
  6
CONTINUOUS
 90
6
 70
0
 10
26.7661087413
 20
28.6211332869
 10
26.7016110187
 20
28.6391548869
 10
26.6803452312
 20
28.645351595
 10
26.6592209468
 20
28.6517474215
 10
26.6382280522
 20
28.6583031281
 10
26.6173660643
 20
28.6650185392
  0
LWPOLYLINE
  5
676
100
AcDbEntity
  8
0
100
AcDbPolyline
 62
7
  6
CONTINUOUS
 90
6
 70
0
 10
27.0093199137
 20
28.5522107646
 10
26.9528869109
 20
28.5690108661
 10
26.9244573704
 20
28.5772985195
 10
26.895915237
 20
28.5854645329
 10
26.8672616914
 20
28.5935206717
 10
26.8384953473
 20
28.6014572117
  0
LWPOLYLINE
  5
677
100
AcDbEntity
  8
0
100
AcDbPolyline
 62
7
  6
CONTINUOUS
 90
35
 70
0
 10
26.6173660643
 20
28.6650185392
 10
26.6080303362
 20
28.6687593621
 10
26.5985492715
 20
28.6731877854
 10
26.5889210144
 20
28.6783026678
 10
26.5789991251
 20
28.6840025175
 10
26.5689259984
 20
28.6903863404
 10
26.5591325956
 20
28.6977536712
 10
26.5495586027
 20
28.7061016714
 10
26.540258958
 20
28.7154303889
 10
26.531837224
 20
28.7260440274
 10
26.5242176539
 20
28.7381187432
 10
26.5174699775
 20
28.7514761305
 10
26.5124188399
 20
28.7658911019
 10
26.50906766
 20
28.781520697
 10
26.5074132142
 20
28.7982107008
 10
26.5082783866
 20
28.8152739714
 10
26.5119084199
 20
28.8328579829
 10
26.5180698872
 20
28.8508236821
 10
26.5268761177
 20
28.8680576245
 10
26.5385472707
 20
28.8845036047
 10
26.5528789479
 20
28.9002258829
 10
26.5693491861
 20
28.9142908862
 10
26.5879791575
 20
28.9263872064
 10
26.6087526465
 20
28.936826626
 10
26.6310879295
 20
28.9456075875
 10
26.6549810576
 20
28.9526481603
 10
26.6804289025
 20
28.9580235446
 10
26.7068492585
 20
28.9619669368
 10
26.7339793139
 20
28.9645953155
 10
26.7620705524
 20
28.9657815882
 10
26.7913112186
 20
28.9653918545
 10
26.8222483577
 20
28.9639835568
 10
26.8543168584
 20
28.9609838629
 10
26.8860261813
 20
28.9545570279
 10
26.9178377554
 20
28.9441307802
  0
LWPOLYLINE
  5
678
100
AcDbEntity
  8
0
100
AcDbPolyline
 62
7
  6
CONTINUOUS
 90
9
 70
0
 10
26.9178377554
 20
28.9441307802
 10
26.9492405286
 20
28.9302442442
 10
26.9772837228
 20
28.9127322314
 10
27.0010799217
 20
28.8907700091
 10
27.0214840351
 20
28.8651709257
 10
27.038191157
 20
28.8382505693
 10
27.0511150792
 20
28.81079271
 10
27.0603646377
 20
28.7820352863
 10
27.0659494946
 20
28.7519887617
  0
LWPOLYLINE
  5
679
100
AcDbEntity
  8
RACCORDO
100
AcDbPolyline
 62
250
  6
CONTINUOUS
 90
3
 70
0
 10
35.6013496128
 20
22.0150769299
 10
35.5618548505
 20
22.0334938063
 10
35.5261581796
 20
22.0584891061
  0
LWPOLYLINE
  5
67A
100
AcDbEntity
  8
RACCORDO
100
AcDbPolyline
 62
250
  6
CONTINUOUS
 90
8
 70
0
 10
35.612754718
 20
22.0150768448
 10
35.5732599945
 20
22.0334936491
 10
35.5375633095
 20
22.0584888892
 10
35.5067492889
 20
22.0893030976
 10
35.481754201
 20
22.125
 10
35.463337509
 20
22.1644949642
 10
35.4520587946
 20
22.2065879556
 10
35.448260756
 20
22.25
  0
LINE
  5
67B
100
AcDbEntity
  8
0
100
AcDbLine
 62
7
  6
CONTINUOUS
 10
28.422499814
 20
24.6659574464
 11
28.325000186
 21
24.7212765887
  0
LINE
  5
67C
100
AcDbEntity
  8
0
100
AcDbLine
 62
7
  6
CONTINUOUS
 10
26.643125186
 20
25.7170212865
 11
26.545625
 21
25.7723404288
  0
LINE
  5
67D
100
AcDbEntity
  8
0
100
AcDbLine
 62
7
  6
CONTINUOUS
 10
28.276249814
 20
25.1914893568
 11
28.325000186
 21
25.1638297856
  0
LINE
  5
67E
100
AcDbEntity
  8
0
100
AcDbLine
 62
7
  6
CONTINUOUS
 10
28.714999814
 20
25.0808510721
 11
28.8125
 21
25.0255319297
  0
LINE
  5
67F
100
AcDbEntity
  8
0
100
AcDbLine
 62
7
  6
CONTINUOUS
 10
28.861249814
 20
25.1361702144
 11
28.8125
 21
25.1638297856
  0
LINE
  5
680
100
AcDbEntity
  8
0
100
AcDbLine
 62
7
  6
CONTINUOUS
 10
24.449374907
 20
25.6893617153
 11
24.327500093
 21
25.7723404288
  0
LINE
  5
681
100
AcDbEntity
  8
0
100
AcDbLine
 62
7
  6
CONTINUOUS
 10
25.570625093
 20
25.2191489279
 11
25.44875
 21
25.3021276414
  0
LINE
  5
682
100
AcDbEntity
  8
0
100
AcDbLine
 62
7
  6
CONTINUOUS
 10
28.251875186
 20
24.6106382944
 11
28.37375
 21
24.5276595736
  0
LINE
  5
683
100
AcDbEntity
  8
0
100
AcDbLine
 62
7
  6
CONTINUOUS
 10
28.861249814
 20
25.6893617153
 11
28.739375
 21
25.7723404288
  0
LINE
  5
684
100
AcDbEntity
  8
0
100
AcDbLine
 62
7
  6
CONTINUOUS
 10
23.2306249535
 20
25.634042573
 11
23.3037499535
 21
25.5787234306
  0
LINE
  5
685
100
AcDbEntity
  8
0
100
AcDbLine
 62
7
  6
CONTINUOUS
 10
25.083125
 20
24.6659574464
 11
25.01
 21
24.7212765887
  0
LINE
  5
686
100
AcDbEntity
  8
0
100
AcDbLine
 62
7
  6
CONTINUOUS
 10
24.303124907
 20
25.634042573
 11
24.376249907
 21
25.5787234306
  0
LINE
  5
687
100
AcDbEntity
  8
0
100
AcDbLine
 62
7
  6
CONTINUOUS
 10
25.424375093
 20
25.1638297856
 11
25.497500093
 21
25.1085106432
  0
LINE
  5
688
100
AcDbEntity
  8
0
100
AcDbLine
 62
7
  6
CONTINUOUS
 10
26.496875186
 20
25.634042573
 11
26.570000186
 21
25.5787234306
  0
LINE
  5
689
100
AcDbEntity
  8
0
100
AcDbLine
 62
7
  6
CONTINUOUS
 10
28.422499814
 20
25.2468084991
 11
28.325000186
 21
25.3297872126
  0
LINE
  5
68A
100
AcDbEntity
  8
0
100
AcDbLine
 62
7
  6
CONTINUOUS
 10
28.95875
 20
25.0531915009
 11
28.861249814
 21
25.1361702144
  0
LINE
  5
68B
100
AcDbEntity
  8
0
100
AcDbLine
 62
7
  6
CONTINUOUS
 10
28.714999814
 20
25.634042573
 11
28.8125
 21
25.5510638595
  0
LINE
  5
68C
100
AcDbEntity
  8
0
100
AcDbLine
 62
7
  6
CONTINUOUS
 10
23.4499999535
 20
25.6063830018
 11
23.3768749535
 21
25.6893617153
  0
LINE
  5
68D
100
AcDbEntity
  8
0
100
AcDbLine
 62
7
  6
CONTINUOUS
 10
24.522499907
 20
25.6063830018
 11
24.449374907
 21
25.6893617153
  0
LINE
  5
68E
100
AcDbEntity
  8
0
100
AcDbLine
 62
7
  6
CONTINUOUS
 10
26.740624814
 20
25.6063830018
 11
26.643125186
 21
25.7170212865
  0
LINE
  5
68F
100
AcDbEntity
  8
0
100
AcDbLine
 62
7
  6
CONTINUOUS
 10
28.178750186
 20
24.6936170176
 11
28.251875186
 21
24.6106382944
  0
LINE
  5
690
100
AcDbEntity
  8
0
100
AcDbLine
 62
7
  6
CONTINUOUS
 10
28.203124814
 20
25.2744680703
 11
28.276249814
 21
25.1914893568
  0
LINE
  5
691
100
AcDbEntity
  8
0
100
AcDbLine
 62
7
  6
CONTINUOUS
 10
25.643750093
 20
25.1085106432
 11
25.570625093
 21
25.2191489279
  0
LINE
  5
692
100
AcDbEntity
  8
0
100
AcDbLine
 62
7
  6
CONTINUOUS
 10
28.325000186
 20
24.7212765887
 11
28.251875186
 21
24.8319148928
  0
LINE
  5
693
100
AcDbEntity
  8
0
100
AcDbLine
 62
7
  6
CONTINUOUS
 10
28.8125
 20
25.0255319297
 11
28.885625
 21
24.9148936063
  0
LINE
  5
694
100
AcDbEntity
  8
0
100
AcDbLine
 62
7
  6
CONTINUOUS
 10
25.497500093
 20
25.1085106432
 11
25.546249907
 21
25.0255319297
  0
LINE
  5
695
100
AcDbEntity
  8
0
100
AcDbLine
 62
7
  6
CONTINUOUS
 10
26.570000186
 20
25.5787234306
 11
26.61875
 21
25.4957447171
  0
LINE
  5
696
100
AcDbEntity
  8
0
100
AcDbLine
 62
7
  6
CONTINUOUS
 10
28.325000186
 20
25.3297872126
 11
28.276249814
 21
25.4127659261
  0
LINE
  5
697
100
AcDbEntity
  8
0
100
AcDbLine
 62
7
  6
CONTINUOUS
 10
28.8125
 20
25.5510638595
 11
28.861249814
 21
25.4680850685
  0
LINE
  5
698
100
AcDbEntity
  8
0
100
AcDbLine
 62
7
  6
CONTINUOUS
 10
28.154375
 20
25.385106355
 11
28.203124814
 21
25.2744680703
  0
LINE
  5
699
100
AcDbEntity
  8
0
100
AcDbLine
 62
7
  6
CONTINUOUS
 10
28.129999814
 20
24.8319148928
 11
28.178750186
 21
24.6936170176
  0
LINE
  5
69A
100
AcDbEntity
  8
0
100
AcDbLine
 62
7
  6
CONTINUOUS
 10
29.007499814
 20
24.9148936063
 11
28.95875
 21
25.0531915009
  0
LINE
  5
69B
100
AcDbEntity
  8
0
100
AcDbLine
 62
7
  6
CONTINUOUS
 10
28.983125186
 20
25.4680850685
 11
28.934374814
 21
25.6063830018
  0
LINE
  5
69C
100
AcDbEntity
  8
0
100
AcDbLine
 62
7
  6
CONTINUOUS
 10
24.426838
 20
35.400001
 11
25.782658
 21
31.5
  0
LINE
  5
69D
100
AcDbEntity
  8
0
100
AcDbLine
 62
7
  6
CONTINUOUS
 10
39.8951844414
 20
-3.5
 11
39.8951844414
 21
3.5
  0
LINE
  5
69E
100
AcDbEntity
  8
0
100
AcDbLine
 62
7
  6
CONTINUOUS
 10
40.0
 20
37.0000000001
 11
40.0
 21
3.6749773271
  0
LINE
  5
69F
100
AcDbEntity
  8
0
100
AcDbLine
 62
7
  6
CONTINUOUS
 10
40.0
 20
-3.6749773271
 11
40.0
 21
-37.0000000001
  0
LWPOLYLINE
  5
6A0
100
AcDbEntity
  8
0
100
AcDbPolyline
 62
7
  6
CONTINUOUS
 90
25
 70
0
 10
37.8002100102
 20
-37.0
 10
37.7986642821
 20
-37.0523659056
 10
37.793678687
 20
-37.1045288744
 10
37.7852733042
 20
-37.1562621005
 10
37.7734831027
 20
-37.2073408934
 10
37.758358105
 20
-37.2575426343
 10
37.7399633936
 20
-37.3066478453
 10
37.7183777241
 20
-37.3544436099
 10
37.6936945541
 20
-37.4007211161
 10
37.6660227941
 20
-37.4452759979
 10
37.6354833198
 20
-37.4879143552
 10
37.6022088018
 20
-37.5284517204
 10
37.5663455002
 20
-37.5667110894
 10
37.5280504762
 20
-37.6025265648
 10
37.4874903131
 20
-37.6357440324
 10
37.444841605
 20
-37.6662204669
 10
37.4002899969
 20
-37.6938248673
 10
37.3540298645
 20
-37.7184385353
 10
37.3062632172
 20
-37.7399558597
 10
37.2571985322
 20
-37.7582850372
 10
37.2070488721
 20
-37.7733487119
 10
37.1560313909
 20
-37.785083825
 10
37.1043674402
 20
-37.793441594
 10
37.0522816493
 20
-37.7983879141
 10
37.0
 20
-37.7999037089
  0
LINE
  5
6A1
100
AcDbEntity
  8
0
100
AcDbLine
 62
7
  6
CONTINUOUS
 10
28.7740702271
 20
-32.0606245954
 11
28.5567010727
 21
-32.4479058704
  0
LWPOLYLINE
  5
6A2
100
AcDbEntity
  8
RACCORDO
100
AcDbPolyline
 62
250
  6
CONTINUOUS
 90
6
 70
0
 10
35.526158438
 20
-22.0584888892
 10
35.4953444174
 20
-22.0893030976
 10
35.4703493295
 20
-22.125
 10
35.4519326375
 20
-22.1644949642
 10
35.4406539231
 20
-22.2065879556
 10
35.4368558845
 20
-22.25
  0
LINE
  5
6A3
100
AcDbEntity
  8
0
100
AcDbLine
 62
7
  6
CONTINUOUS
 10
37.0000000001
 20
40.0
 11
-37.0000000001
 21
40.0
  0
LWPOLYLINE
  5
6A4
100
AcDbEntity
  8
0
100
AcDbPolyline
 62
7
  6
CONTINUOUS
 90
25
 70
0
 10
37.0
 20
37.7999037089
 10
37.0522854543
 20
37.7983876822
 10
37.1043774202
 20
37.7934403173
 10
37.1560497909
 20
37.7850802244
 10
37.2070784941
 20
37.7733408628
 10
37.2572411617
 20
37.7582706871
 10
37.3063181941
 20
37.7399332345
 10
37.3540965036
 20
37.7184058362
 10
37.4003672704
 20
37.6937804261
 10
37.4449259592
 20
37.6661642746
 10
37.4875779218
 20
37.6356769618
 10
37.5281382109
 20
37.6024497453
 10
37.5664296717
 20
37.5666270008
 10
37.6022857117
 20
37.528364056
 10
37.6355504833
 20
37.4878268011
 10
37.6660790775
 20
37.4451916811
 10
37.6937390799
 20
37.4006438611
 10
37.7184104971
 20
37.3543769713
 10
37.7399860796
 20
37.3065928547
 10
37.7583725018
 20
37.257499981
 10
37.7734909839
 20
37.2073112416
 10
37.7852769241
 20
37.1562436708
 10
37.7936799733
 20
37.1045188704
 10
37.798664517
 20
37.0523620869
 10
37.8002100102
 20
37.0
  0
LWPOLYLINE
  5
6A5
100
AcDbEntity
  8
0
100
AcDbPolyline
 62
7
  6
CONTINUOUS
 90
28
 70
0
 10
27.0402696302
 20
28.3009614755
 10
27.0558664398
 20
28.2891005
 10
27.0695000387
 20
28.2751512251
 10
27.0811664106
 20
28.2591131686
 10
27.0913429589
 20
28.2406148773
 10
27.099543403
 20
28.2200265008
 10
27.1043277426
 20
28.1984690251
 10
27.1052468966
 20
28.1758203938
 10
27.1027640064
 20
28.1522220269
 10
27.0968221924
 20
28.1292008691
 10
27.0872588459
 20
28.1069371348
 10
27.0742595808
 20
28.0852691393
 10
27.0582941091
 20
28.0652101867
 10
27.0393845256
 20
28.0468606865
 10
27.0175237637
 20
28.0301240136
 10
26.9931345821
 20
28.0157121433
 10
26.9660698096
 20
28.0038221257
 10
26.9364769633
 20
27.9942426748
 10
26.9052153866
 20
27.9870688675
 10
26.87232941
 20
27.9823510848
 10
26.8377598529
 20
27.9800140771
 10
26.8022073852
 20
27.979965077
 10
26.7654017125
 20
27.9815070788
 10
26.7275908577
 20
27.9853115107
 10
26.6902416575
 20
27.9933340819
 10
26.6526797652
 20
28.0059724073
 10
26.6155191299
 20
28.0227835638
 10
26.5821503048
 20
28.0444689773
  0
LWPOLYLINE
  5
6A6
100
AcDbEntity
  8
0
100
AcDbPolyline
 62
7
  6
CONTINUOUS
 90
11
 70
0
 10
26.40697637
 20
27.9228233309
 10
26.4393232335
 20
27.8957598364
 10
26.4750972081
 20
27.8728837264
 10
26.513873057
 20
27.8536015646
 10
26.5540656673
 20
27.8375804013
 10
26.5956478935
 20
27.8250470192
 10
26.6386952176
 20
27.8157995989
 10
26.6817731932
 20
27.8088697857
 10
26.7244122215
 20
27.8039436463
 10
26.767112364
 20
27.8013610224
 10
26.8098876712
 20
27.8011346166
  0
LWPOLYLINE
  5
6A7
100
AcDbEntity
  8
0
100
AcDbPolyline
 62
7
  6
CONTINUOUS
 90
7
 70
0
 10
26.5821503048
 20
28.0444689773
 10
26.5534045169
 20
28.0723909226
 10
26.5283882741
 20
28.1051713601
 10
26.5079464712
 20
28.1394396802
 10
26.4923835744
 20
28.1740948827
 10
26.4814236573
 20
28.2102794524
 10
26.4750792948
 20
28.2480112383
  0
LWPOLYLINE
  5
6A8
100
AcDbEntity
  8
RACCORDO
100
AcDbPolyline
 62
250
  6
CONTINUOUS
 90
6
 70
0
 10
35.5261581796
 20
22.0584891061
 10
35.4953442109
 20
22.0893033436
 10
35.4703491904
 20
22.1250002409
 10
35.4519325648
 20
22.1644951637
 10
35.4406539023
 20
22.2065880734
 10
35.4368558845
 20
22.25
  0
LINE
  5
6A9
100
AcDbEntity
  8
0
100
AcDbLine
 62
7
  6
CONTINUOUS
 10
28.934374814
 20
25.6063830018
 11
28.861249814
 21
25.6893617153
  0
LINE
  5
6AA
100
AcDbEntity
  8
0
100
AcDbLine
 62
7
  6
CONTINUOUS
 10
27.451676
 20
35.400001
 11
28.947951
 21
32.309434
  0
LINE
  5
6AB
100
AcDbEntity
  8
0
100
AcDbLine
 62
7
  6
CONTINUOUS
 10
28.542878
 20
31.5
 11
26.992593
 21
34.764037
  0
LINE
  5
6AC
100
AcDbEntity
  8
0
100
AcDbLine
 62
7
  6
CONTINUOUS
 10
33.04271
 20
31.5
 11
32.761654
 21
32.326584
  0
LINE
  5
6AD
100
AcDbEntity
  8
0
100
AcDbLine
 62
7
  6
CONTINUOUS
 10
32.550899
 20
32.9747
 11
32.011059
 21
34.654532
  0
LINE
  5
6AE
100
AcDbEntity
  8
0
100
AcDbLine
 62
7
  6
CONTINUOUS
 10
31.606541
 20
-33.810217
 11
31.360123
 21
-34.159553
  0
LINE
  5
6AF
100
AcDbEntity
  8
0
100
AcDbLine
 62
7
  6
CONTINUOUS
 10
29.904665
 20
-30.037162
 11
31.2296169933
 21
-28.9206170057
  0
LINE
  5
6B0
100
AcDbEntity
  8
0
100
AcDbLine
 62
7
  6
CONTINUOUS
 10
31.1681413584
 20
-29.552344698
 11
29.904665
 21
-30.617084
  0
LINE
  5
6B1
100
AcDbEntity
  8
0
100
AcDbLine
 62
7
  6
CONTINUOUS
 10
32.529471
 20
35.400001
 11
33.885144
 21
31.5
  0
ARC
  5
6B2
100
AcDbEntity
  8
0
100
AcDbCircle
 62
7
  6
CONTINUOUS
 10
-37.0
 20
-37.0
 40
3.0
100
AcDbArc
 50
180.0000000015
 51
269.9999999987
  0
ARC
  5
6B3
100
AcDbEntity
  8
RACCORDO
100
AcDbCircle
 62
7
  6
CONTINUOUS
 10
-10.95
 20
-22.2
 40
1.9
100
AcDbArc
 50
181.3775243575
 51
269.9999999998
  0
ARC
  5
6B4
100
AcDbEntity
  8
0
100
AcDbCircle
 62
7
  6
CONTINUOUS
 10
-37.0
 20
-37.0
 40
0.997255308
100
AcDbArc
 50
180.0000000001
 51
269.9999999998
  0
ARC
  5
6B5
100
AcDbEntity
  8
SUPERFICI
100
AcDbCircle
 62
7
  6
CONTINUOUS
 10
-10.95
 20
-22.2
 40
0.3
100
AcDbArc
 50
180.0
 51
270.0
  0
ARC
  5
6B6
100
AcDbEntity
  8
RACCORDO
100
AcDbCircle
 62
7
  6
CONTINUOUS
 10
-13.15
 20
-15.4000009846
 40
0.2999995005
100
AcDbArc
 50
270.0000090697
 51
0.000189427
  0
ARC
  5
6B7
100
AcDbEntity
  8
RACCORDO
100
AcDbCircle
 62
7
  6
CONTINUOUS
 10
-13.15
 20
-7.9799965933
 40
0.2999982988
100
AcDbArc
 50
359.9993497848
 51
89.9999999539
  0
ARC
  5
6B8
100
AcDbEntity
  8
RACCORDO
100
AcDbCircle
 62
7
  6
CONTINUOUS
 10
-11.5
 20
-35.6982577098
 40
0.25
100
AcDbArc
 50
0.0
 51
180.0
  0
ARC
  5
6B9
100
AcDbEntity
  8
RACCORDO
100
AcDbCircle
 62
7
  6
CONTINUOUS
 10
-35.6982577098
 20
-22.25
 40
0.25
100
AcDbArc
 50
270.0
 51
90.0
  0
ARC
  5
6BA
100
AcDbEntity
  8
0
100
AcDbCircle
 62
7
  6
CONTINUOUS
 10
-37.0
 20
37.0
 40
3.0
100
AcDbArc
 50
90.0000000013
 51
179.9999999985
  0
ARC
  5
6BB
100
AcDbEntity
  8
RACCORDO
100
AcDbCircle
 62
7
  6
CONTINUOUS
 10
-10.95
 20
22.2
 40
1.9
100
AcDbArc
 50
90.0
 51
178.6224756425
  0
ARC
  5
6BC
100
AcDbEntity
  8
0
100
AcDbCircle
 62
7
  6
CONTINUOUS
 10
-17.494625
 20
34.204092
 40
1.1960762859
100
AcDbArc
 50
292.8428977386
 51
90.0
  0
ARC
  5
6BD
100
AcDbEntity
  8
0
100
AcDbCircle
 62
7
  6
CONTINUOUS
 10
-37.0
 20
37.0
 40
0.997255308
100
AcDbArc
 50
90.0000000001
 51
179.9999999998
  0
ARC
  5
6BE
100
AcDbEntity
  8
0
100
AcDbCircle
 62
7
  6
CONTINUOUS
 10
-17.602891
 20
34.204092
 40
0.474543
100
AcDbArc
 50
270.0
 51
90.0
  0
ARC
  5
6BF
100
AcDbEntity
  8
SUPERFICI
100
AcDbCircle
 62
7
  6
CONTINUOUS
 10
-10.95
 20
22.2
 40
0.3
100
AcDbArc
 50
90.0
 51
180.0
  0
ARC
  5
6C0
100
AcDbEntity
  8
RACCORDO
100
AcDbCircle
 62
7
  6
CONTINUOUS
 10
-35.6982577098
 20
22.25
 40
0.25
100
AcDbArc
 50
270.0
 51
90.0
  0
ARC
  5
6C1
100
AcDbEntity
  8
RACCORDO
100
AcDbCircle
 62
7
  6
CONTINUOUS
 10
-11.5
 20
35.6982577098
 40
0.25
100
AcDbArc
 50
180.0
 51
360.0
  0
ARC
  5
6C2
100
AcDbEntity
  8
0
100
AcDbCircle
 62
7
  6
CONTINUOUS
 10
37.0
 20
-37.0
 40
3.0
100
AcDbArc
 50
270.0000000013
 51
359.9999999985
  0
ARC
  5
6C3
100
AcDbEntity
  8
0
100
AcDbCircle
 62
7
  6
CONTINUOUS
 10
29.65
 20
-30.5
 40
2.9735749324
100
AcDbArc
 50
292.0885434728
 51
273.4298223208
  0
ARC
  5
6C4
100
AcDbEntity
  8
0
100
AcDbCircle
 62
7
  6
CONTINUOUS
 10
29.560062
 20
-36.105572
 40
2.6508884458
100
AcDbArc
 50
47.2312789315
 51
84.2011738916
  0
ARC
  5
6C5
100
AcDbEntity
  8
0
100
AcDbCircle
 62
7
  6
CONTINUOUS
 10
29.768685
 20
-35.676187
 40
2.6190759282
100
AcDbArc
 50
45.4348969444
 51
67.5658550007
  0
ARC
  5
6C6
100
AcDbEntity
  8
0
100
AcDbCircle
 62
7
  6
CONTINUOUS
 10
24.667556
 20
-30.5
 40
2.5499986575
100
AcDbArc
 50
87.752529198
 51
272.247470802
  0
ARC
  5
6C7
100
AcDbEntity
  8
0
100
AcDbCircle
 62
7
  6
CONTINUOUS
 10
20.282446
 20
-30.5
 40
2.5499985399
100
AcDbArc
 50
87.7525290943
 51
272.2474709057
  0
CIRCLE
  5
6C8
100
AcDbEntity
  8
0
100
AcDbCircle
 62
7
  6
CONTINUOUS
 10
29.65
 20
-30.5
 40
2.497595
  0
ARC
  5
6C9
100
AcDbEntity
  8
0
100
AcDbCircle
 62
7
  6
CONTINUOUS
 10
29.65
 20
-30.5
 40
2.2337503191
100
AcDbArc
 50
299.3041411838
 51
44.9957558874
  0
ARC
  5
6CA
100
AcDbEntity
  8
0
100
AcDbCircle
 62
7
  6
CONTINUOUS
 10
29.65
 20
-30.5
 40
2.2337501706
100
AcDbArc
 50
134.9002628452
 51
240.6958588162
  0
ARC
  5
6CB
100
AcDbEntity
  8
RACCORDO
100
AcDbCircle
 62
7
  6
CONTINUOUS
 10
10.95
 20
-22.2
 40
1.9
100
AcDbArc
 50
270.0
 51
358.6224756425
  0
ARC
  5
6CC
100
AcDbEntity
  8
0
100
AcDbCircle
 62
7
  6
CONTINUOUS
 10
20.282446
 20
-30.5
 40
1.7999999246
100
AcDbArc
 50
86.8152613297
 51
269.5023110848
  0
ARC
  5
6CD
100
AcDbEntity
  8
0
100
AcDbCircle
 62
7
  6
CONTINUOUS
 10
24.667556
 20
-30.5
 40
1.7999999246
100
AcDbArc
 50
86.8152613297
 51
167.9753003079
  0
ARC
  5
6CE
100
AcDbEntity
  8
0
100
AcDbCircle
 62
7
  6
CONTINUOUS
 10
24.667556
 20
-30.5
 40
1.7999968808
100
AcDbArc
 50
192.0247203293
 51
273.1847440612
  0
ARC
  5
6CF
100
AcDbEntity
  8
0
100
AcDbCircle
 62
7
  6
CONTINUOUS
 10
29.65
 20
-30.5
 40
1.7896378839
100
AcDbArc
 50
299.3041347443
 51
31.9732647666
  0
ARC
  5
6D0
100
AcDbEntity
  8
0
100
AcDbCircle
 62
7
  6
CONTINUOUS
 10
29.65
 20
-30.5
 40
1.78963742
100
AcDbArc
 50
148.02673736
 51
240.6958652557
  0
ARC
  5
6D1
100
AcDbEntity
  8
0
100
AcDbCircle
 62
7
  6
CONTINUOUS
 10
37.0
 20
-37.0
 40
0.997255308
100
AcDbArc
 50
270.0000000001
 51
359.9999999998
  0
ARC
  5
6D2
100
AcDbEntity
  8
SUPERFICI
100
AcDbCircle
 62
7
  6
CONTINUOUS
 10
10.95
 20
-22.2
 40
0.3
100
AcDbArc
 50
270.0
 51
360.0
  0
ARC
  5
6D3
100
AcDbEntity
  8
RACCORDO
100
AcDbCircle
 62
7
  6
CONTINUOUS
 10
0.0
 20
-26.7
 40
0.3
100
AcDbArc
 50
195.0
 51
345.0
  0
ARC
  5
6D4
100
AcDbEntity
  8
RACCORDO
100
AcDbCircle
 62
7
  6
CONTINUOUS
 10
35.6982577098
 20
-22.25
 40
0.25
100
AcDbArc
 50
90.0
 51
270.0
  0
ARC
  5
6D5
100
AcDbEntity
  8
RACCORDO
100
AcDbCircle
 62
7
  6
CONTINUOUS
 10
11.5
 20
-35.6982577098
 40
0.25
100
AcDbArc
 50
0.0
 51
180.0
  0
ARC
  5
6D6
100
AcDbEntity
  8
0
100
AcDbCircle
 62
7
  6
CONTINUOUS
 10
37.0
 20
37.0
 40
3.0
100
AcDbArc
 50
0.0000000015
 51
89.9999999987
  0
ARC
  5
6D7
100
AcDbEntity
  8
RACCORDO
100
AcDbCircle
 62
7
  6
CONTINUOUS
 10
10.95
 20
22.2
 40
1.9
100
AcDbArc
 50
1.3773688419
 51
89.9999999998
  0
ARC
  5
6D8
100
AcDbEntity
  8
0
100
AcDbCircle
 62
7
  6
CONTINUOUS
 10
24.4322426596
 20
28.5
 40
1.2406538298
100
AcDbArc
 50
90.0
 51
270.0
  0
ARC
  5
6D9
100
AcDbEntity
  8
0
100
AcDbCircle
 62
7
  6
CONTINUOUS
 10
25.336447766
 20
28.5
 40
1.2406538298
100
AcDbArc
 50
90.0
 51
270.0
  0
ARC
  5
6DA
100
AcDbEntity
  8
0
100
AcDbCircle
 62
7
  6
CONTINUOUS
 10
26.2406538298
 20
28.5
 40
1.2406538298
100
AcDbArc
 50
90.0
 51
270.0
  0
ARC
  5
6DB
100
AcDbEntity
  8
0
100
AcDbCircle
 62
7
  6
CONTINUOUS
 10
37.0
 20
37.0
 40
0.997255308
100
AcDbArc
 50
0.0000000001
 51
89.9999999998
  0
ARC
  5
6DC
100
AcDbEntity
  8
0
100
AcDbCircle
 62
7
  6
CONTINUOUS
 10
24.4322426596
 20
28.5
 40
0.8726639362
100
AcDbArc
 50
90.0
 51
270.0
  0
ARC
  5
6DD
100
AcDbEntity
  8
0
100
AcDbCircle
 62
7
  6
CONTINUOUS
 10
25.336447766
 20
28.5
 40
0.8726639362
100
AcDbArc
 50
90.0
 51
270.0
  0
ARC
  5
6DE
100
AcDbEntity
  8
0
100
AcDbCircle
 62
7
  6
CONTINUOUS
 10
26.2406538298
 20
28.5
 40
0.8726639362
100
AcDbArc
 50
90.0
 51
270.0
  0
ARC
  5
6DF
100
AcDbEntity
  8
SUPERFICI
100
AcDbCircle
 62
7
  6
CONTINUOUS
 10
10.95
 20
22.2
 40
0.3
100
AcDbArc
 50
0.0
 51
90.0
  0
ARC
  5
6E0
100
AcDbEntity
  8
RACCORDO
100
AcDbCircle
 62
7
  6
CONTINUOUS
 10
0.0
 20
26.7
 40
0.3
100
AcDbArc
 50
15.0
 51
165.0
  0
ARC
  5
6E1
100
AcDbEntity
  8
RACCORDO
100
AcDbCircle
 62
7
  6
CONTINUOUS
 10
13.15
 20
15.4000009846
 40
0.2999995005
100
AcDbArc
 50
90.00000907
 51
180.0001894273
  0
ARC
  5
6E2
100
AcDbEntity
  8
RACCORDO
100
AcDbCircle
 62
7
  6
CONTINUOUS
 10
13.15
 20
7.9799965933
 40
0.2999982988
100
AcDbArc
 50
179.9993497848
 51
269.999999953
  0
ARC
  5
6E3
100
AcDbEntity
  8
RACCORDO
100
AcDbCircle
 62
7
  6
CONTINUOUS
 10
35.6982577098
 20
22.25
 40
0.25
100
AcDbArc
 50
90.0
 51
270.0
  0
ARC
  5
6E4
100
AcDbEntity
  8
RACCORDO
100
AcDbCircle
 62
7
  6
CONTINUOUS
 10
11.5
 20
35.6982577098
 40
0.25
100
AcDbArc
 50
180.0
 51
360.0
  0
ELLIPSE
  5
6E5
100
AcDbEntity
  8
RACCORDO
100
AcDbEllipse
 62
7
  6
CONTINUOUS
 10
37.9841533632
 20
22.25
 30
0.0
 11
0.0
 21
0.25
 31
0.0
 40
0.0524077793
 41
3.1415926536
 42
6.2831853072
  0
ELLIPSE
  5
6E6
100
AcDbEntity
  8
RACCORDO
100
AcDbEllipse
 62
7
  6
CONTINUOUS
 10
37.9841533632
 20
-22.25
 30
0.0
 11
0.0
 21
0.25
 31
0.0
 40
0.0524077793
 41
3.1415926536
 42
6.2831853072
  0
ELLIPSE
  5
6E7
100
AcDbEntity
  8
RACCORDO
100
AcDbEllipse
 62
7
  6
CONTINUOUS
 10
11.5
 20
-37.9841533632
 30
0.0
 11
0.25
 21
0.0
 31
0.0
 40
0.0524077793
 41
3.1415926536
 42
6.2831853072
  0
ELLIPSE
  5
6E8
100
AcDbEntity
  8
RACCORDO
100
AcDbEllipse
 62
7
  6
CONTINUOUS
 10
-11.5
 20
-37.9841533632
 30
0.0
 11
0.25
 21
-0.0
 31
0.0
 40
0.0524077793
 41
3.1415926536
 42
6.2831853072
  0
ELLIPSE
  5
6E9
100
AcDbEntity
  8
RACCORDO
100
AcDbEllipse
 62
7
  6
CONTINUOUS
 10
2.9428666255
 20
-25.35
 30
0.0
 11
0.0
 21
0.3
 31
0.0
 40
0.0524077793
 41
-0.0
 42
0.0523598776
  0
ELLIPSE
  5
6EA
100
AcDbEntity
  8
RACCORDO
100
AcDbEllipse
 62
7
  6
CONTINUOUS
 10
-2.9428666255
 20
-25.35
 30
0.0
 11
0.0
 21
0.3
 31
0.0
 40
0.0524077793
 41
-0.0523598776
 42
0.0
  0
ELLIPSE
  5
6EB
100
AcDbEntity
  8
RACCORDO
100
AcDbEllipse
 62
7
  6
CONTINUOUS
 10
-2.9428666255
 20
25.35
 30
0.0
 11
0.0
 21
0.3
 31
0.0
 40
0.0524077793
 41
-3.1415926536
 42
-3.089232776
  0
ELLIPSE
  5
6EC
100
AcDbEntity
  8
RACCORDO
100
AcDbEllipse
 62
7
  6
CONTINUOUS
 10
2.9428666255
 20
25.35
 30
0.0
 11
0.0
 21
0.3
 31
0.0
 40
0.0524077793
 41
-3.1939525311
 42
-3.1415926536
  0
ELLIPSE
  5
6ED
100
AcDbEntity
  8
RACCORDO
100
AcDbEllipse
 62
7
  6
CONTINUOUS
 10
-37.9841533632
 20
-22.25
 30
0.0
 11
-0.0
 21
0.25
 31
0.0
 40
0.0524077793
 41
0.0
 42
3.1415926536
  0
ELLIPSE
  5
6EE
100
AcDbEntity
  8
RACCORDO
100
AcDbEllipse
 62
7
  6
CONTINUOUS
 10
11.5
 20
37.9841533632
 30
0.0
 11
0.25
 21
-0.0
 31
0.0
 40
0.0524077793
 41
6.2831853072
 42
9.4247779608
  0
ELLIPSE
  5
6EF
100
AcDbEntity
  8
RACCORDO
100
AcDbEllipse
 62
7
  6
CONTINUOUS
 10
-11.5
 20
37.9841533632
 30
0.0
 11
0.25
 21
-0.0
 31
0.0
 40
0.0524077793
 41
-0.0
 42
3.1415926536
  0
ELLIPSE
  5
6F0
100
AcDbEntity
  8
RACCORDO
100
AcDbEllipse
 62
7
  6
CONTINUOUS
 10
-37.9841533632
 20
22.25
 30
0.0
 11
0.0
 21
0.25
 31
0.0
 40
0.0524077793
 41
-0.0
 42
3.1415926536
  0
ENDSEC
  0
SECTION
  2
OBJECTS
  0
DICTIONARY
  5
C
100
AcDbDictionary
280
0
281
1
  3
ACAD_GROUP
350
D
  3
ACAD_MLINESTYLE
350
17
  3
ACAD_LAYOUT
350
1A
  3
ACAD_PLOTSETTINGS
350
19
  3
ACAD_PLOTSTYLENAME
350
E
  0
DICTIONARY
  5
D
102
{ACAD_REACTORS
330
C
102
}
100
AcDbDictionary
280
0
281
1
  0
ACDBDICTIONARYWDFLT
  5
E
102
{ACAD_REACTORS
330
C
102
}
100
AcDbDictionary
281
1
  3
Normal
350
F
100
AcDbDictionaryWithDefault
340
F
  0
DICTIONARY
  5
17
102
{ACAD_REACTORS
330
C
102
}
100
AcDbDictionary
280
0
281
1
  3
Standard
350
18
  0
DICTIONARY
  5
19
102
{ACAD_REACTORS
330
C
102
}
100
AcDbDictionary
281
1
  0
DICTIONARY
  5
1A
102
{ACAD_REACTORS
330
C
102
}
100
AcDbDictionary
281
1
  3
Model
350
6F1
  3
Layout1
350
6F2
  0
ACDBPLACEHOLDER
  5
F
102
{ACAD_REACTORS
330
E
102
}
  0
MLINESTYLE
  5
18
102
{ACAD_REACTORS
330
17
102
}
100
AcDbMlineStyle
  2
STANDARD
 70
0
  3

 62
256
 51
90.0
 52
90.0
 71
2
 49
0.5
 62
256
  6
BYLAYER
 49
-0.5
 62
256
  6
BYLAYER
  0
LAYOUT
  5
6F1
102
{ACAD_REACTORS
330
1A
102
}
100
AcDbPlotSettings
  1

  2
none_device
  4
ISO_A4_(297.00_x_210.00_MM)
  6

 40
0.0
 41
0.0
 42
0.0
 43
0.0
 44
297.0
 45
210.0
 46
0.0
 47
0.0
 48
0.0
 49
0.0
140
0.0
141
0.0
142
1.0
143
1.0
 70
1024
 72
1
 73
0
 74
0
  7

 75
0
147
1.0
148
0.0
149
0.0
100
AcDbLayout
  1
Model
 70
0
 71
0
 10
0.0
 20
0.0
 11
297.0
 21
210.0
 12
0.0
 22
0.0
 32
0.0
 14
0.0
 24
0.0
 34
0.0
 15
0.0
 25
0.0
 35
0.0
146
0.0
 13
0.0
 23
0.0
 33
0.0
 16
1.0
 26
0.0
 36
0.0
 17
0.0
 27
1.0
 37
0.0
 76
0
330
213
345
0
346
0
  0
LAYOUT
  5
6F2
102
{ACAD_REACTORS
330
1A
102
}
100
AcDbPlotSettings
  1

  2
none_device
  4
ISO_A4_(297.00_x_210.00_MM)
  6

 40
0.0
 41
0.0
 42
0.0
 43
0.0
 44
297.0
 45
210.0
 46
0.0
 47
0.0
 48
0.0
 49
0.0
140
0.0
141
0.0
142
1.0
143
1.0
 70
0
 72
1
 73
0
 74
0
  7

 75
0
147
1.0
148
0.0
149
0.0
100
AcDbLayout
  1
Layout1
 70
0
 71
1
 10
0.0
 20
0.0
 11
297.0
 21
210.0
 12
0.0
 22
0.0
 32
0.0
 14
0.0
 24
0.0
 34
0.0
 15
0.0
 25
0.0
 35
0.0
146
0.0
 13
0.0
 23
0.0
 33
0.0
 16
1.0
 26
0.0
 36
0.0
 17
0.0
 27
1.0
 37
0.0
 76
0
330
214
345
0
346
0
  0
ENDSEC
  0
EOF
