  0
SECTION
  2
HEADER
  9
$ACADVER
  1
AC1024
  9
$DWGCODEPAGE
  3
ANSI_1252
  9
$EXTMAX
 10
297.0
 20
210.0
 30
0.0
  9
$EXTMIN
 10
0.0
 20
0.0
 30
0.0
  9
$LIMMIN
 10
0.0
 20
0.0
  9
$LIMMAX
 10
297.0
 20
210.0
  9
$VIEWCTR
 10
148.5
 20
105.0
  9
$VIEWSIZE
 40
210.0
  9
$CLAYER
  8
0
  9
$LTSCALE
 40
16.335
  9
$CELTYPE
  6
BYLAYER
  9
$DIMSCALE
 40
1.0
  9
$DIMASZ
 40
3.0
  9
$DIMEXO
 40
0.5
  9
$DIMDLI
 40
11.286
  9
$DIMEXE
 40
1.5
  9
$DIMCEN
 40
2.673
  9
$DIMLFAC
 40
1.0
  9
$DIMBLK
  1
_FILLED
  9
$DIMALT
 70
0
  9
$DIMALTF
 40
0.0393700787
  9
$DIMTXT
 40
3.0
  9
$DIMTOL
 70
1
  9
$DIMLIM
 70
0
  9
$DIMTFAC
 40
1.0
  9
$DIMTP
 40
0.01
  9
$DIMTM
 40
0.01
  9
$DIMGAP
 40
0.625
  9
$DIMDSEP
 70
44
  9
$AUNITS
 70
0
  9
$PDMODE
 70
3
  9
$PDSIZE
 40
3.0
  9
$HANDSEED
  5
68E
  9
$TILEMODE
 70
1
  9
$MEASUREMENT
 70
1
  9
$INSUNITS
 70
4
  0
ENDSEC
  0
SECTION
  2
CLASSES
  0
CLASS
  1
ACDBDICTIONARYWDFLT
  2
AcDbDictionaryWithDefault
  3
AutoCAD 2000
 90
0
 91
1
280
0
281
0
  0
CLASS
  1
ACDBPLACEHOLDER
  2
AcDbPlaceHolder
  3
AutoCAD 2000
 90
0
 91
1
280
0
281
0
  0
CLASS
  1
LAYOUT
  2
AcDbLayout
  3
AutoCAD 2000
 90
0
 91
0
280
0
281
0
  0
ENDSEC
  0
SECTION
  2
TABLES
  0
TABLE
  2
VPORT
  5
8
100
AcDbSymbolTable
 70
2
  0
VPORT
  5
1F4
100
AcDbSymbolTableRecord
100
AcDbViewportTableRecord
  2
*ACTIVE
 70
0
 10
0.0
 20
0.0
 11
1.0
 21
1.0
 12
148.5
 22
105.0
 13
0.0
 23
0.0
 14
1.0
 24
1.0
 15
0.0
 25
0.0
 16
0.0
 26
0.0
 36
1.0
 17
0.0
 27
0.0
 37
0.0
 40
210.0
 41
1.4142857143
 42
50.0
 43
0.0
 44
0.0
 50
0.0
 51
0.0
 71
0
 72
100
 73
1
 74
1
 75
0
 76
0
 77
0
 78
0
  0
ENDTAB
  0
TABLE
  2
LTYPE
  5
5
100
AcDbSymbolTable
 70
6
  0
LTYPE
  5
14
100
AcDbSymbolTableRecord
100
AcDbLinetypeTableRecord
  2
BYBLOCK
 70
0
  3

 72
65
 73
0
 40
0.0
  0
LTYPE
  5
15
100
AcDbSymbolTableRecord
100
AcDbLinetypeTableRecord
  2
BYLAYER
 70
0
  3

 72
65
 73
0
 40
0.0
  0
LTYPE
  5
16
100
AcDbSymbolTableRecord
100
AcDbLinetypeTableRecord
  2
CONTINUOUS
 70
64
  3
Solid line
 72
65
 73
0
 40
0.0
  0
LTYPE
  5
1F5
100
AcDbSymbolTableRecord
100
AcDbLinetypeTableRecord
  2
CENTER
 70
64
  3
____ _ ____ _ ____ _ ____ _ ____ _ ____ _ ____
 72
65
 73
4
 40
0.6
 49
0.375
 74
0
 49
-0.075
 74
0
 49
0.075
 74
0
 49
-0.075
 74
0
  0
LTYPE
  5
1F6
100
AcDbSymbolTableRecord
100
AcDbLinetypeTableRecord
  2
HIDDEN
 70
64
  3
- - - - - - - - - - - - - - - - - - - -
 72
65
 73
2
 40
0.2
 49
0.1
 74
0
 49
-0.1
 74
0
  0
LTYPE
  5
1F7
100
AcDbSymbolTableRecord
100
AcDbLinetypeTableRecord
  2
PHANTOM
 70
64
  3
_____ _ _ _____ _ _ _____ _ _ _____
 72
65
 73
6
 40
0.8
 49
0.45
 74
0
 49
-0.05
 74
0
 49
0.1
 74
0
 49
-0.05
 74
0
 49
0.1
 74
0
 49
-0.05
 74
0
  0
LTYPE
  5
1F8
100
AcDbSymbolTableRecord
100
AcDbLinetypeTableRecord
  2
DOT
 70
64
  3
. . . . . . . . . . . . . . . . . . . .
 72
65
 73
2
 40
0.2
 49
0.1
 74
0
 49
-0.1
 74
0
  0
LTYPE
  5
1F9
100
AcDbSymbolTableRecord
100
AcDbLinetypeTableRecord
  2
DASHED
 70
64
  3
- - - - - - - - - - - - - - - - - - - -
 72
65
 73
2
 40
0.2
 49
0.1
 74
0
 49
-0.1
 74
0
  0
ENDTAB
  0
TABLE
  2
LAYER
  5
2
100
AcDbSymbolTable
 70
36
  0
LAYER
  5
10
100
AcDbSymbolTableRecord
100
AcDbLayerTableRecord
  2
0
 70
0
 62
7
  6
CONTINUOUS
370
-3
390
F
  0
LAYER
  5
1FA
100
AcDbSymbolTableRecord
100
AcDbLayerTableRecord
  2
DEFAULT_1
 70
0
 62
7
  6
CENTER
370
-3
390
F
  0
LAYER
  5
1FB
100
AcDbSymbolTableRecord
100
AcDbLayerTableRecord
  2
DEFAULT_2
 70
0
 62
7
  6
HIDDEN
370
-3
390
F
  0
LAYER
  5
1FC
100
AcDbSymbolTableRecord
100
AcDbLayerTableRecord
  2
DEFAULT_3
 70
0
 62
7
  6
PHANTOM
370
-3
390
F
  0
LAYER
  5
1FD
100
AcDbSymbolTableRecord
100
AcDbLayerTableRecord
  2
262146410
 70
0
 62
7
  6
CONTINUOUS
370
-3
390
F
  0
LAYER
  5
1FE
100
AcDbSymbolTableRecord
100
AcDbLayerTableRecord
  2
262146420
 70
0
 62
7
  6
CONTINUOUS
370
-3
390
F
  0
LAYER
  5
1FF
100
AcDbSymbolTableRecord
100
AcDbLayerTableRecord
  2
262146520
 70
0
 62
7
  6
CONTINUOUS
370
-3
390
F
  0
LAYER
  5
200
100
AcDbSymbolTableRecord
100
AcDbLayerTableRecord
  2
262146530
 70
0
 62
7
  6
CONTINUOUS
370
-3
390
F
  0
LAYER
  5
201
100
AcDbSymbolTableRecord
100
AcDbLayerTableRecord
  2
262146540
 70
0
 62
7
  6
CONTINUOUS
370
-3
390
F
  0
LAYER
  5
202
100
AcDbSymbolTableRecord
100
AcDbLayerTableRecord
  2
262146570
 70
0
 62
7
  6
CONTINUOUS
370
-3
390
F
  0
LAYER
  5
203
100
AcDbSymbolTableRecord
100
AcDbLayerTableRecord
  2
ASSI
 70
0
 62
7
  6
CONTINUOUS
370
-3
390
F
  0
LAYER
  5
204
100
AcDbSymbolTableRecord
100
AcDbLayerTableRecord
  2
COORDINATE
 70
0
 62
7
  6
CONTINUOUS
370
-3
390
F
  0
LAYER
  5
205
100
AcDbSymbolTableRecord
100
AcDbLayerTableRecord
  2
COORD_ORIGINE
 70
0
 62
7
  6
CONTINUOUS
370
-3
390
F
  0
LAYER
  5
206
100
AcDbSymbolTableRecord
100
AcDbLayerTableRecord
  2
CURVE
 70
0
 62
7
  6
CONTINUOUS
370
-3
390
F
  0
LAYER
  5
207
100
AcDbSymbolTableRecord
100
AcDbLayerTableRecord
  2
DRAFT
 70
0
 62
7
  6
CONTINUOUS
370
-3
390
F
  0
LAYER
  5
208
100
AcDbSymbolTableRecord
100
AcDbLayerTableRecord
  2
IGES
 70
0
 62
7
  6
CONTINUOUS
370
-3
390
F
  0
LAYER
  5
209
100
AcDbSymbolTableRecord
100
AcDbLayerTableRecord
  2
INCISIONI_STAMPO
 70
0
 62
7
  6
CONTINUOUS
370
-3
390
F
  0
LAYER
  5
20A
100
AcDbSymbolTableRecord
100
AcDbLayerTableRecord
  2
INTF_1
 70
0
 62
7
  6
CONTINUOUS
370
-3
390
F
  0
LAYER
  5
20B
100
AcDbSymbolTableRecord
100
AcDbLayerTableRecord
  2
INTF_7
 70
0
 62
7
  6
CONTINUOUS
370
-3
390
F
  0
LAYER
  5
20C
100
AcDbSymbolTableRecord
100
AcDbLayerTableRecord
  2
INTF_GREEN
 70
0
 62
7
  6
CONTINUOUS
370
-3
390
F
  0
LAYER
  5
20D
100
AcDbSymbolTableRecord
100
AcDbLayerTableRecord
  2
INTF_YELLOW
 70
0
 62
7
  6
CONTINUOUS
370
-3
390
F
  0
LAYER
  5
20E
100
AcDbSymbolTableRecord
100
AcDbLayerTableRecord
  2
NOTE
 70
0
 62
7
  6
CONTINUOUS
370
-3
390
F
  0
LAYER
  5
20F
100
AcDbSymbolTableRecord
100
AcDbLayerTableRecord
  2
PELLE_INFERIORE
 70
0
 62
7
  6
CONTINUOUS
370
-3
390
F
  0
LAYER
  5
210
100
AcDbSymbolTableRecord
100
AcDbLayerTableRecord
  2
PIANI
 70
0
 62
7
  6
CONTINUOUS
370
-3
390
F
  0
LAYER
  5
211
100
AcDbSymbolTableRecord
100
AcDbLayerTableRecord
  2
PIANI_ORIGINE
 70
0
 62
7
  6
CONTINUOUS
370
-3
390
F
  0
LAYER
  5
212
100
AcDbSymbolTableRecord
100
AcDbLayerTableRecord
  2
PPP
 70
0
 62
7
  6
CONTINUOUS
370
-3
390
F
  0
LAYER
  5
213
100
AcDbSymbolTableRecord
100
AcDbLayerTableRecord
  2
PUNTI
 70
0
 62
7
  6
CONTINUOUS
370
-3
390
F
  0
LAYER
  5
214
100
AcDbSymbolTableRecord
100
AcDbLayerTableRecord
  2
RACCORDO
 70
0
 62
7
  6
CONTINUOUS
370
-3
390
F
  0
LAYER
  5
215
100
AcDbSymbolTableRecord
100
AcDbLayerTableRecord
  2
RGB__255__255__255__
 70
0
 62
7
  6
CONTINUOUS
370
-3
390
F
  0
LAYER
  5
216
100
AcDbSymbolTableRecord
100
AcDbLayerTableRecord
  2
RGB____0____0____0__
 70
0
 62
7
  6
CONTINUOUS
370
-3
390
F
  0
LAYER
  5
217
100
AcDbSymbolTableRecord
100
AcDbLayerTableRecord
  2
SNAPLINE
 70
0
 62
7
  6
CONTINUOUS
370
-3
390
F
  0
LAYER
  5
218
100
AcDbSymbolTableRecord
100
AcDbLayerTableRecord
  2
SUPERFICI
 70
0
 62
7
  6
CONTINUOUS
370
-3
390
F
  0
LAYER
  5
219
100
AcDbSymbolTableRecord
100
AcDbLayerTableRecord
  2
TRASH
 70
0
 62
7
  6
CONTINUOUS
370
-3
390
F
  0
LAYER
  5
21A
100
AcDbSymbolTableRecord
100
AcDbLayerTableRecord
  2
XSEC_DATUMS
 70
0
 62
7
  6
CONTINUOUS
370
-3
390
F
  0
ENDTAB
  0
TABLE
  2
STYLE
  5
3
100
AcDbSymbolTable
 70
1
  0
STYLE
  5
11
100
AcDbSymbolTableRecord
100
AcDbTextStyleTableRecord
  2
STANDARD
 70
0
 40
0.0
 41
0.8
 50
0.0
 71
0
 42
0.2
  3
txt
  4

  0
STYLE
  5
21B
100
AcDbSymbolTableRecord
100
AcDbTextStyleTableRecord
  2
TEXTSTYLE_1
 70
0
 40
0.0
 41
0.8
 50
0.0
 71
0
 42
0.2
  3
gdt
  4

  0
ENDTAB
  0
TABLE
  2
VIEW
  5
6
100
AcDbSymbolTable
 70
0
  0
ENDTAB
  0
TABLE
  2
UCS
  5
7
100
AcDbSymbolTable
 70
0
  0
ENDTAB
  0
TABLE
  2
APPID
  5
9
100
AcDbSymbolTable
 70
1
  0
APPID
  5
21C
100
AcDbSymbolTableRecord
100
AcDbRegAppTableRecord
  2
ACAD
 70
0
  0
ENDTAB
  0
TABLE
  2
BLOCK_RECORD
  5
1
100
AcDbSymbolTable
 70
0
  0
BLOCK_RECORD
  5
21D
100
AcDbSymbolTableRecord
100
AcDbBlockTableRecord
  2
*Model_Space
  0
BLOCK_RECORD
  5
21E
100
AcDbSymbolTableRecord
100
AcDbBlockTableRecord
  2
*Paper_Space
  0
BLOCK_RECORD
  5
21F
100
AcDbSymbolTableRecord
100
AcDbBlockTableRecord
  2
_FILLED
  0
ENDTAB
  0
TABLE
  2
DIMSTYLE
  5
A
100
AcDbSymbolTable
 70
1
100
AcDbDimStyleTable
 71
0
  0
DIMSTYLE
105
220
100
AcDbSymbolTableRecord
100
AcDbDimStyleTableRecord
  2
STANDARD
 70
0
  3

  4

 40
1.0
 41
3.0
 42
0.5
 43
0.38
 44
1.5
 45
0.0
 46
0.0
 47
0.01
 48
0.01
140
3.0
141
0.09
142
0.0
143
25.4
144
1.0
145
0.0
146
1.0
147
0.625
 71
1
 72
0
 73
0
 74
0
 75
0
 76
0
 77
1
 78
8
 79
2
170
0
171
1
172
0
173
0
174
0
175
0
176
0
177
0
178
0
270
2
179
2
271
2
272
2
273
2
274
2
275
0
280
0
281
0
282
0
283
1
284
8
285
0
286
0
287
3
288
0
340
11
278
44
341
21F
342
21F
343
21F
344
21F
  0
ENDTAB
  0
ENDSEC
  0
SECTION
  2
BLOCKS
  0
BLOCK
  5
20
100
AcDbEntity
  8
0
100
AcDbBlockBegin
  2
*Model_Space
 70
0
 10
0.0
 20
0.0
 30
0.0
  3
*Model_Space
  1

  0
ENDBLK
  5
21
100
AcDbEntity
  8
0
100
AcDbBlockEnd
  0
BLOCK
  5
1C
100
AcDbEntity
  8
0
100
AcDbBlockBegin
  2
*Paper_Space
 70
0
 10
0.0
 20
0.0
 30
0.0
  3
*Paper_Space
  1

  0
ENDBLK
  5
1D
100
AcDbEntity
  8
0
100
AcDbBlockEnd
  0
BLOCK
  5
221
100
AcDbEntity
  8
0
100
AcDbBlockBegin
  2
_FILLED
 70
64
 10
0.0
 20
0.0
  3
_FILLED
  1

  0
SOLID
  5
222
100
AcDbEntity
  8
0
  6
BYBLOCK
 62
0
100
AcDbTrace
 10
0.0
 20
0.0
 11
-1.0
 21
0.1333333333
 12
-1.0
 22
-0.1333333333
 13
-1.0
 23
-0.1333333333
  0
ENDBLK
  5
223
100
AcDbEntity
  8
0
  6
BYBLOCK
 62
0
100
AcDbBlockEnd
  0
ENDSEC
  0
SECTION
  2
ENTITIES
  0
LWPOLYLINE
  5
224
100
AcDbEntity
  8
0
100
AcDbPolyline
 62
250
  6
CONTINUOUS
 90
14
 70
0
 10
-36.5525463244
 20
36.6421856387
 10
-36.4439574815
 20
36.7514811104
 10
-36.3336801562
 20
36.8606688075
 10
-36.2234792623
 20
36.9674777178
 10
-36.1170788374
 20
37.0665247748
 10
-36.0164998099
 20
37.1565787674
 10
-35.9225843038
 20
37.2384643959
 10
-35.837611616
 20
37.3110996586
 10
-35.7632038668
 20
37.3737181526
 10
-35.6991244302
 20
37.4268688152
 10
-35.644530873
 20
37.4709484102
 10
-35.5991437501
 20
37.5049166012
 10
-35.5631043245
 20
37.5270390688
 10
-35.5358459858
 20
37.5357753091
  0
LWPOLYLINE
  5
225
100
AcDbEntity
  8
0
100
AcDbPolyline
 62
250
  6
CONTINUOUS
 90
14
 70
0
 10
-36.6419454752
 20
-36.5528232176
 10
-36.7512710804
 20
-36.444270761
 10
-36.860537399
 20
-36.333948447
 10
-36.9674371074
 20
-36.2236656672
 10
-37.0665326794
 20
-36.1171995884
 10
-37.1565797791
 20
-36.0165733551
 10
-37.2384346715
 20
-35.9226228502
 10
-37.3110405009
 20
-35.8376590966
 10
-37.3736319661
 20
-35.7632663053
 10
-37.4267651693
 20
-35.6991958204
 10
-37.4708574759
 20
-35.6446545923
 10
-37.5048617681
 20
-35.5993346279
 10
-37.5270205447
 20
-35.5632812447
 10
-37.5357751436
 20
-35.5358498739
  0
LWPOLYLINE
  5
226
100
AcDbEntity
  8
RACCORDO
100
AcDbPolyline
 62
7
  6
CONTINUOUS
 90
14
 70
0
 10
-38.3723456716
 20
36.9134883288
 10
-38.3387454539
 20
37.0651635287
 10
-38.2914892612
 20
37.2146752945
 10
-38.2310510329
 20
37.3608305967
 10
-38.1588525872
 20
37.5000503469
 10
-38.0746601221
 20
37.6320388704
 10
-37.9787074395
 20
37.7570918418
 10
-37.8731177644
 20
37.8725171974
 10
-37.7576845024
 20
37.978116953
 10
-37.6326142478
 20
38.0740890928
 10
-37.5006500081
 20
38.1583355053
 10
-37.361576799
 20
38.2306522825
 10
-37.2156096048
 20
38.2912433324
 10
-37.0661363856
 20
38.3386222679
  0
LWPOLYLINE
  5
227
100
AcDbEntity
  8
0
100
AcDbPolyline
 62
250
  6
CONTINUOUS
 90
13
 70
0
 10
-37.5357750861
 20
35.53585124
 10
-37.5278954073
 20
35.5583176683
 10
-37.5077048692
 20
35.5925904635
 10
-37.4759684753
 20
35.6379052997
 10
-37.4328847085
 20
35.6936523876
 10
-37.3788789002
 20
35.7591128218
 10
-37.3152431025
 20
35.833707658
 10
-37.2415543221
 20
35.9187356481
 10
-37.1578561565
 20
36.0122869731
 10
-37.0675600516
 20
36.1098340425
 10
-36.9716741327
 20
36.2112106206
 10
-36.8698193317
 20
36.3168321482
 10
-36.5525463244
 20
36.6421856387
  0
LWPOLYLINE
  5
228
100
AcDbEntity
  8
RACCORDO
100
AcDbPolyline
 62
7
  6
CONTINUOUS
 90
4
 70
0
 10
37.0661363856
 20
-38.3386222679
 10
36.9142864616
 20
-38.3722936264
 10
36.7589305125
 20
-38.3927528704
 10
36.6000685384
 20
-38.4
  0
LWPOLYLINE
  5
229
100
AcDbEntity
  8
RACCORDO
100
AcDbPolyline
 62
7
  6
CONTINUOUS
 90
4
 70
0
 10
-37.0651635177
 20
-38.3387454135
 10
-36.9134883186
 20
-38.3723456347
 10
-36.7584566588
 20
-38.3927638302
 10
-36.6000685384
 20
-38.4
  0
LWPOLYLINE
  5
22A
100
AcDbEntity
  8
0
100
AcDbPolyline
 62
250
  6
CONTINUOUS
 90
13
 70
0
 10
-35.53585124
 20
-37.5357750861
 10
-35.5583413885
 20
-37.527895131
 10
-35.5926061072
 20
-37.5077091365
 10
-35.6378961999
 20
-37.4759844838
 10
-35.6936403334
 20
-37.4329046102
 10
-35.759113034
 20
-37.3788863377
 10
-35.8336958831
 20
-37.3152435918
 10
-35.9187215558
 20
-37.2415524283
 10
-36.0122921918
 20
-37.1578351962
 10
-36.1098218373
 20
-37.0675292693
 10
-36.2111284448
 20
-36.9716791358
 10
-36.3166747827
 20
-36.8698894838
 10
-36.6419454752
 20
-36.5528232176
  0
LWPOLYLINE
  5
22B
100
AcDbEntity
  8
RACCORDO
100
AcDbPolyline
 62
7
  6
CONTINUOUS
 90
13
 70
0
 10
-38.338622274
 20
-37.0661363873
 10
-38.2912433335
 20
-37.215609604
 10
-38.2306522759
 20
-37.3615767945
 10
-38.1583354942
 20
-37.5006500017
 10
-38.0740890839
 20
-37.6326142428
 10
-37.9781169496
 20
-37.7576845005
 10
-37.8725171984
 20
-37.8731177655
 10
-37.7570918453
 20
-37.978707445
 10
-37.6320388754
 20
-38.0746601319
 10
-37.5000503515
 20
-38.1588525952
 10
-37.3608305965
 20
-38.2310510255
 10
-37.2146752874
 20
-38.2914892324
 10
-37.0651635177
 20
-38.3387454135
  0
LWPOLYLINE
  5
22C
100
AcDbEntity
  8
0
100
AcDbPolyline
 62
250
  6
CONTINUOUS
 90
3
 70
0
 10
-35.6771080329
 20
-35.7019163508
 10
-35.7157828341
 20
-35.235667726
 10
-35.7503813042
 20
-34.7677133942
  0
LWPOLYLINE
  5
22D
100
AcDbEntity
  8
0
100
AcDbPolyline
 62
250
  6
CONTINUOUS
 90
17
 70
0
 10
-35.6365835363
 20
-36.9324203787
 10
-35.6314931899
 20
-37.0011759422
 10
-35.6261282626
 20
-37.0663767785
 10
-35.6207758375
 20
-37.1278674826
 10
-35.6150090591
 20
-37.1857413604
 10
-35.6090126667
 20
-37.2400332539
 10
-35.6029918724
 20
-37.29026649
 10
-35.5965789993
 20
-37.3358237371
 10
-35.5901002763
 20
-37.3762593905
 10
-35.58382272
 20
-37.412023927
 10
-35.5772277787
 20
-37.4437270466
 10
-35.5703433156
 20
-37.4714943011
 10
-35.5634284891
 20
-37.4945774825
 10
-35.5563022324
 20
-37.5123800733
 10
-35.5491090825
 20
-37.5249728261
 10
-35.542219141
 20
-37.5327022259
 10
-35.53585124
 20
-37.5357750861
  0
LWPOLYLINE
  5
22E
100
AcDbEntity
  8
0
100
AcDbPolyline
 62
250
  6
CONTINUOUS
 90
3
 70
0
 10
-35.7503813042
 20
-34.7677133942
 10
-35.7667142075
 20
-34.537538403
 10
-35.7818362892
 20
-34.3000465905
  0
LINE
  5
22F
100
AcDbEntity
  8
0
100
AcDbLine
 62
7
  6
CONTINUOUS
 10
-38.3962061085
 20
3.706070796
 11
-38.3863401559
 21
3.5572341992
  0
LINE
  5
230
100
AcDbEntity
  8
0
100
AcDbLine
 62
7
  6
CONTINUOUS
 10
-37.5462061085
 20
3.706070796
 11
-37.5363401559
 21
3.5572341992
  0
LWPOLYLINE
  5
231
100
AcDbEntity
  8
0
100
AcDbPolyline
 62
7
  6
CONTINUOUS
 90
4
 70
0
 10
-38.3863401559
 20
3.5572341992
 10
-38.3859362891
 20
3.5487357614
 10
-38.3855483976
 20
3.5364492905
 10
-38.3851764815
 20
3.5203747864
  0
LWPOLYLINE
  5
232
100
AcDbEntity
  8
RACCORDO
100
AcDbPolyline
 62
7
  6
CONTINUOUS
 90
4
 70
0
 10
-38.4
 20
-36.6000685384
 10
-38.3927528751
 20
-36.7589305141
 10
-38.3722936331
 20
-36.9142864637
 10
-38.3391918874
 20
-37.0635675648
  0
LWPOLYLINE
  5
233
100
AcDbEntity
  8
0
100
AcDbPolyline
 62
7
  6
CONTINUOUS
 90
19
 70
0
 10
-38.4
 20
-36.6000687404
 10
-38.3933003207
 20
-36.7565023265
 10
-38.3732805376
 20
-36.9102089842
 10
-38.3399406508
 20
-37.0611887135
 10
-38.2928608906
 20
-37.2107629996
 10
-38.2324610267
 20
-37.3576103572
 10
-38.1600003678
 20
-37.4977663314
 10
-38.0751474579
 20
-37.6309597915
 10
-37.978233753
 20
-37.7574618681
 10
-37.8715129303
 20
-37.8741214984
 10
-37.7546648591
 20
-37.9806520144
 10
-37.62800967
 20
-38.077340084
 10
-37.4947614325
 20
-38.1618946476
 10
-37.354627702
 20
-38.2339163256
 10
-37.2079009232
 20
-38.2938044976
 10
-37.0586724991
 20
-38.340466243
 10
-36.9083062309
 20
-38.3735372552
 10
-36.7554383174
 20
-38.3933818408
 10
-36.6000687587
 20
-38.4
  0
LINE
  5
234
100
AcDbEntity
  8
0
100
AcDbLine
 62
250
  6
CONTINUOUS
 10
-35.7818362892
 20
-34.3000465905
 11
-35.9027928473
 21
-31.4185732842
  0
LWPOLYLINE
  5
235
100
AcDbEntity
  8
0
100
AcDbPolyline
 62
250
  6
CONTINUOUS
 90
6
 70
0
 10
-35.6613592556
 20
-36.4512799156
 10
-35.658027389
 20
-36.5372261656
 10
-35.6543620357
 20
-36.6220900379
 10
-35.6504086908
 20
-36.7050203912
 10
-35.6458875953
 20
-36.7846316709
 10
-35.6365835363
 20
-36.9324203787
  0
LINE
  5
236
100
AcDbEntity
  8
0
100
AcDbLine
 62
250
  6
CONTINUOUS
 10
-35.9027928473
 20
-31.4185732842
 11
-35.9544386954
 21
-29.9759635136
  0
LINE
  5
237
100
AcDbEntity
  8
0
100
AcDbLine
 62
250
  6
CONTINUOUS
 10
-35.9544386954
 20
-29.9759635136
 11
-35.989056027
 21
-28.7729158459
  0
LWPOLYLINE
  5
238
100
AcDbEntity
  8
0
100
AcDbPolyline
 62
250
  6
CONTINUOUS
 90
3
 70
0
 10
-35.6722336968
 20
-36.0825456268
 10
-35.6700654601
 20
-36.1793501653
 10
-35.6613592556
 20
-36.4512799156
  0
LINE
  5
239
100
AcDbEntity
  8
0
100
AcDbLine
 62
250
  6
CONTINUOUS
 10
-35.989056027
 20
-28.7729158459
 11
-36.0052319993
 21
-27.9088172462
  0
LINE
  5
23A
100
AcDbEntity
  8
0
100
AcDbLine
 62
7
  6
CONTINUOUS
 10
-38.3851764815
 20
3.5203747864
 11
-38.3844761229
 21
3.4765084663
  0
LINE
  5
23B
100
AcDbEntity
  8
0
100
AcDbLine
 62
250
  6
CONTINUOUS
 10
-35.67505462
 20
-35.8912233725
 11
-35.6722336968
 21
-36.0825456268
  0
LINE
  5
23C
100
AcDbEntity
  8
0
100
AcDbLine
 62
250
  6
CONTINUOUS
 10
-36.0052319993
 20
-27.9088172462
 11
-36.0244906808
 21
-26.5164969257
  0
LINE
  5
23D
100
AcDbEntity
  8
0
100
AcDbLine
 62
250
  6
CONTINUOUS
 10
-35.6771295413
 20
-35.7019147481
 11
-35.67505462
 21
-35.8912233725
  0
LINE
  5
23E
100
AcDbEntity
  8
0
100
AcDbLine
 62
7
  6
CONTINUOUS
 10
-37.5316612379
 20
3.210584311
 11
-37.5333181884
 21
3.3454654016
  0
LINE
  5
23F
100
AcDbEntity
  8
0
100
AcDbLine
 62
7
  6
CONTINUOUS
 10
-38.3833405691
 20
3.3491470213
 11
-38.3819825056
 21
3.2122275842
  0
LWPOLYLINE
  5
240
100
AcDbEntity
  8
0
100
AcDbPolyline
 62
7
  6
CONTINUOUS
 90
3
 70
0
 10
-38.3844761229
 20
3.4765084663
 10
-38.3835899225
 20
3.3858308602
 10
-38.3833405719
 20
3.3491474307
  0
LINE
  5
241
100
AcDbEntity
  8
0
100
AcDbLine
 62
250
  6
CONTINUOUS
 10
-36.0244906808
 20
-26.5164969257
 11
-36.0389291444
 21
-24.9890853153
  0
LINE
  5
242
100
AcDbEntity
  8
0
100
AcDbLine
 62
7
  6
CONTINUOUS
 10
-37.5305790804
 20
3.0615117685
 11
-37.5316612379
 21
3.210584311
  0
LINE
  5
243
100
AcDbEntity
  8
0
100
AcDbLine
 62
250
  6
CONTINUOUS
 10
-36.0389291444
 20
-24.9890853153
 11
-36.0523040002
 21
-22.7173383842
  0
LINE
  5
244
100
AcDbEntity
  8
0
100
AcDbLine
 62
7
  6
CONTINUOUS
 10
-38.3819825056
 20
3.2122275842
 11
-38.3811617735
 21
3.0615117685
  0
LINE
  5
245
100
AcDbEntity
  8
0
100
AcDbLine
 62
250
  6
CONTINUOUS
 10
-36.0523040002
 20
-22.7173383842
 11
-36.0572601781
 21
-20.1402997783
  0
LINE
  5
246
100
AcDbEntity
  8
0
100
AcDbLine
 62
7
  6
CONTINUOUS
 10
-40.0
 20
-37.0114159057
 11
-40.0
 21
-4.2017932267
  0
LINE
  5
247
100
AcDbEntity
  8
0
100
AcDbLine
 62
7
  6
CONTINUOUS
 10
-40.0
 20
4.2017932267
 11
-40.0
 21
37.0114159057
  0
LINE
  5
248
100
AcDbEntity
  8
0
100
AcDbLine
 62
7
  6
CONTINUOUS
 10
-39.8250226729
 20
3.0615117685
 11
-39.8250226729
 21
-3.0615117685
  0
LINE
  5
249
100
AcDbEntity
  8
0
100
AcDbLine
 62
7
  6
CONTINUOUS
 10
-38.4
 20
36.6000685384
 11
-38.4
 21
4.2017932267
  0
LINE
  5
24A
100
AcDbEntity
  8
0
100
AcDbLine
 62
7
  6
CONTINUOUS
 10
-38.4
 20
-4.2017932267
 11
-38.4
 21
-36.6000685384
  0
LINE
  5
24B
100
AcDbEntity
  8
0
100
AcDbLine
 62
7
  6
CONTINUOUS
 10
-37.5499444311
 20
36.4845613659
 11
-37.55
 21
4.2017932267
  0
LINE
  5
24C
100
AcDbEntity
  8
0
100
AcDbLine
 62
7
  6
CONTINUOUS
 10
-37.55
 20
-4.2017932267
 11
-37.5499446984
 21
-36.484561344
  0
LINE
  5
24D
100
AcDbEntity
  8
0
100
AcDbLine
 62
250
  6
CONTINUOUS
 10
-37.5357750707
 20
35.5358316001
 11
-37.5333181884
 21
3.3454654025
  0
LINE
  5
24E
100
AcDbEntity
  8
0
100
AcDbLine
 62
7
  6
CONTINUOUS
 10
-37.5305790807
 20
-3.0615117685
 11
-37.5305790804
 21
3.0615117685
  0
LINE
  5
24F
100
AcDbEntity
  8
0
100
AcDbLine
 62
250
  6
CONTINUOUS
 10
-37.5333181883
 20
-3.3454653804
 11
-37.535775068
 21
-35.5358515185
  0
LINE
  5
250
100
AcDbEntity
  8
0
100
AcDbLine
 62
250
  6
CONTINUOUS
 10
-36.0572601781
 20
-20.1402997783
 11
-36.0568683249
 21
-17.9843439686
  0
LWPOLYLINE
  5
251
100
AcDbEntity
  8
0
100
AcDbPolyline
 62
250
  6
CONTINUOUS
 90
3
 70
0
 10
-36.0623091301
 20
11.9806557581
 10
-36.0764329957
 20
6.7291483221
 10
-36.0568683249
 20
-17.9843439686
  0
LINE
  5
252
100
AcDbEntity
  8
0
100
AcDbLine
 62
250
  6
CONTINUOUS
 10
-36.0511965248
 20
22.9902971412
 11
-36.0623091301
 21
11.9806557581
  0
LINE
  5
253
100
AcDbEntity
  8
0
100
AcDbLine
 62
7
  6
CONTINUOUS
 10
-38.3811617735
 20
3.0615117685
 11
-38.3813742603
 21
-3.1122791376
  0
LINE
  5
254
100
AcDbEntity
  8
0
100
AcDbLine
 62
7
  6
CONTINUOUS
 10
-38.3813742603
 20
-3.1122791376
 11
-38.3823732706
 21
-3.2598576885
  0
LINE
  5
255
100
AcDbEntity
  8
0
100
AcDbLine
 62
7
  6
CONTINUOUS
 10
-37.5316592605
 20
-3.2104325889
 11
-37.5305790807
 21
-3.0615117685
  0
LINE
  5
256
100
AcDbEntity
  8
0
100
AcDbLine
 62
250
  6
CONTINUOUS
 10
-36.0305445887
 20
25.9726136775
 11
-36.0511965248
 21
22.9902971412
  0
LINE
  5
257
100
AcDbEntity
  8
0
100
AcDbLine
 62
7
  6
CONTINUOUS
 10
-38.3833405713
 20
-3.3491473402
 11
-38.3841565844
 21
-3.4494230247
  0
LWPOLYLINE
  5
258
100
AcDbEntity
  8
0
100
AcDbPolyline
 62
250
  6
CONTINUOUS
 90
16
 70
0
 10
-35.6771262366
 20
35.701915091
 10
-35.6751404263
 20
35.8986664656
 10
-35.6718208818
 20
36.0900287607
 10
-35.6672379556
 20
36.2742798802
 10
-35.6615073573
 20
36.4488940221
 10
-35.6546948315
 20
36.6135231734
 10
-35.6467519921
 20
36.7694923394
 10
-35.6376801739
 20
36.9158769334
 10
-35.6275823712
 20
37.0502119563
 10
-35.6165219516
 20
37.1710739409
 10
-35.6045741541
 20
37.2770245445
 10
-35.5918490075
 20
37.3665078038
 10
-35.5784808693
 20
37.4381107054
 10
-35.5646030922
 20
37.4907371484
 10
-35.5503436676
 20
37.523529676
 10
-35.5358459858
 20
37.5357753091
  0
LINE
  5
259
100
AcDbEntity
  8
0
100
AcDbLine
 62
7
  6
CONTINUOUS
 10
-38.3823761153
 20
-3.2601338721
 11
-38.3833405713
 21
-3.3491472604
  0
LINE
  5
25A
100
AcDbEntity
  8
0
100
AcDbLine
 62
250
  6
CONTINUOUS
 10
-36.0107303873
 20
27.5792467274
 11
-36.0305445887
 21
25.9726136775
  0
LWPOLYLINE
  5
25B
100
AcDbEntity
  8
0
100
AcDbPolyline
 62
7
  6
CONTINUOUS
 90
6
 70
0
 10
-38.3841565844
 20
-3.4494230247
 10
-38.3848183141
 20
-3.500335616
 10
-38.3851764811
 20
-3.520374769
 10
-38.3855483974
 20
-3.5364492806
 10
-38.385936289
 20
-3.5487357574
 10
-38.3863401559
 20
-3.5572341992
  0
LINE
  5
25C
100
AcDbEntity
  8
0
100
AcDbLine
 62
7
  6
CONTINUOUS
 10
-37.5333181883
 20
-3.3454653797
 11
-37.5316592605
 21
-3.2104325889
  0
LINE
  5
25D
100
AcDbEntity
  8
0
100
AcDbLine
 62
250
  6
CONTINUOUS
 10
-35.9921673954
 20
28.6277652146
 11
-36.0107303873
 21
27.5792467274
  0
LINE
  5
25E
100
AcDbEntity
  8
0
100
AcDbLine
 62
250
  6
CONTINUOUS
 10
-35.9670722292
 20
29.5700905217
 11
-35.9921673954
 21
28.6277652146
  0
LINE
  5
25F
100
AcDbEntity
  8
0
100
AcDbLine
 62
250
  6
CONTINUOUS
 10
-35.9204551912
 20
30.9375542807
 11
-35.9670722292
 21
29.5700905217
  0
LINE
  5
260
100
AcDbEntity
  8
0
100
AcDbLine
 62
250
  6
CONTINUOUS
 10
-35.7759650886
 20
34.4420411008
 11
-35.9204551912
 21
30.9375542807
  0
LWPOLYLINE
  5
261
100
AcDbEntity
  8
RACCORDO
100
AcDbPolyline
 62
7
  6
CONTINUOUS
 90
3
 70
0
 10
-38.4
 20
36.6000685384
 10
-38.3927638536
 20
36.7584566654
 10
-38.3723456716
 20
36.9134883288
  0
LINE
  5
262
100
AcDbEntity
  8
0
100
AcDbLine
 62
7
  6
CONTINUOUS
 10
-38.3863401559
 20
-3.5572341992
 11
-38.3962061085
 21
-3.706070796
  0
LINE
  5
263
100
AcDbEntity
  8
0
100
AcDbLine
 62
7
  6
CONTINUOUS
 10
-37.5363401559
 20
-3.5572341992
 11
-37.5462061085
 21
-3.706070796
  0
LINE
  5
264
100
AcDbEntity
  8
0
100
AcDbLine
 62
250
  6
CONTINUOUS
 10
-35.6771175884
 20
35.7020307393
 11
-35.6824558236
 21
35.6265597591
  0
LWPOLYLINE
  5
265
100
AcDbEntity
  8
0
100
AcDbPolyline
 62
250
  6
CONTINUOUS
 90
3
 70
0
 10
-35.6824558236
 20
35.6265597591
 10
-35.6954512492
 20
35.4655108631
 10
-35.7088178219
 20
35.29057105
  0
LWPOLYLINE
  5
266
100
AcDbEntity
  8
0
100
AcDbPolyline
 62
250
  6
CONTINUOUS
 90
6
 70
0
 10
-35.7088178219
 20
35.29057105
 10
-35.7426048607
 20
34.8959559555
 10
-35.7529549663
 20
34.7878776698
 10
-35.762783132
 20
34.6761004537
 10
-35.7702967083
 20
34.5607132968
 10
-35.7759650886
 20
34.4420411008
  0
LWPOLYLINE
  5
267
100
AcDbEntity
  8
0
100
AcDbPolyline
 62
250
  6
CONTINUOUS
 90
7
 70
0
 10
35.0331518827
 20
-35.7577503574
 10
35.1520179618
 20
-35.7487732326
 10
35.2665706507
 20
-35.7371951596
 10
35.3763400237
 20
-35.7255279187
 10
35.4812401376
 20
-35.7155470942
 10
35.5814401952
 20
-35.7074611517
 10
35.6771001073
 20
-35.7019330863
  0
LWPOLYLINE
  5
268
100
AcDbEntity
  8
0
100
AcDbPolyline
 62
250
  6
CONTINUOUS
 90
3
 70
0
 10
34.653209403
 20
-35.7797641714
 10
34.7839666193
 20
-35.7728730556
 10
35.0331518827
 20
-35.7577503574
  0
LWPOLYLINE
  5
269
100
AcDbEntity
  8
0
100
AcDbPolyline
 62
7
  6
CONTINUOUS
 90
19
 70
0
 10
36.6000687398
 20
-38.4
 10
36.756499895
 20
-38.3933007788
 10
36.9102047456
 20
-38.3732814724
 10
37.0611832917
 20
-38.3399420808
 10
37.2107571223
 20
-38.2928629292
 10
37.3576046484
 20
-38.2324636923
 10
37.4977611028
 20
-38.1600033947
 10
37.6309553684
 20
-38.075150476
 10
37.7574585622
 20
-37.9782364965
 10
37.8741192679
 20
-37.8715151616
 10
37.9806507725
 20
-37.7546662248
 10
38.0773397889
 20
-37.6280099325
 10
38.1618950394
 20
-37.4947607295
 10
38.2339170204
 20
-37.3546261904
 10
38.2938052356
 20
-37.2078987406
 10
38.3404669179
 20
-37.0586701005
 10
38.3735378115
 20
-36.9083041769
 10
38.3933821722
 20
-36.7554370629
 10
38.4
 20
-36.6000687587
  0
LINE
  5
26A
100
AcDbEntity
  8
0
100
AcDbLine
 62
250
  6
CONTINUOUS
 10
31.0659749435
 20
-35.9182976237
 11
34.653209403
 21
-35.7797641714
  0
LINE
  5
26B
100
AcDbEntity
  8
0
100
AcDbLine
 62
250
  6
CONTINUOUS
 10
29.9336469195
 20
-35.9533100701
 11
31.0659749435
 21
-35.9182976237
  0
LINE
  5
26C
100
AcDbEntity
  8
0
100
AcDbLine
 62
250
  6
CONTINUOUS
 10
28.9679166553
 20
-35.9776420056
 11
29.9336469195
 21
-35.9533100701
  0
LINE
  5
26D
100
AcDbEntity
  8
0
100
AcDbLine
 62
250
  6
CONTINUOUS
 10
27.8865853333
 20
-35.9964957122
 11
28.9679166553
 21
-35.9776420056
  0
LINE
  5
26E
100
AcDbEntity
  8
0
100
AcDbLine
 62
250
  6
CONTINUOUS
 10
26.6680657089
 20
-36.0117096134
 11
27.8865853333
 21
-35.9964957122
  0
LINE
  5
26F
100
AcDbEntity
  8
0
100
AcDbLine
 62
250
  6
CONTINUOUS
 10
22.5524755052
 20
-36.0397101041
 11
26.6680657089
 21
-36.0117096134
  0
LINE
  5
270
100
AcDbEntity
  8
RACCORDO
100
AcDbLine
 62
7
  6
CONTINUOUS
 10
37.0114159057
 20
-40.0
 11
-37.0114159057
 21
-40.0
  0
LINE
  5
271
100
AcDbEntity
  8
0
100
AcDbLine
 62
7
  6
CONTINUOUS
 10
-36.6000687587
 20
-38.4
 11
36.6000687398
 21
-38.4
  0
LINE
  5
272
100
AcDbEntity
  8
RACCORDO
100
AcDbLine
 62
7
  6
CONTINUOUS
 10
36.6000685384
 20
-38.4
 11
-36.6000685384
 21
-38.4
  0
LINE
  5
273
100
AcDbEntity
  8
0
100
AcDbLine
 62
7
  6
CONTINUOUS
 10
-36.484561344
 20
-37.5499446984
 11
36.4845613248
 21
-37.549944923
  0
LINE
  5
274
100
AcDbEntity
  8
0
100
AcDbLine
 62
250
  6
CONTINUOUS
 10
35.5358696978
 20
-37.5357751883
 11
-35.5358102273
 21
-37.5357750529
  0
LINE
  5
275
100
AcDbEntity
  8
0
100
AcDbLine
 62
250
  6
CONTINUOUS
 10
22.5524755052
 20
-36.0397101041
 11
-0.5093727364
 21
-36.0891366891
  0
LINE
  5
276
100
AcDbEntity
  8
0
100
AcDbLine
 62
250
  6
CONTINUOUS
 10
-0.5093727364
 20
-36.0891366891
 11
-10.3675216603
 21
-36.0745800514
  0
LINE
  5
277
100
AcDbEntity
  8
0
100
AcDbLine
 62
250
  6
CONTINUOUS
 10
-10.3675216603
 20
-36.0745800514
 11
-22.264598548
 21
-36.0410137272
  0
LWPOLYLINE
  5
278
100
AcDbEntity
  8
0
100
AcDbPolyline
 62
250
  6
CONTINUOUS
 90
16
 70
0
 10
-35.6771295413
 20
-35.7019147481
 10
-35.8758435906
 20
-35.6997622143
 10
-36.0692904921
 20
-35.6960120865
 10
-36.2556945171
 20
-35.6907476555
 10
-36.4324536371
 20
-35.6841061926
 10
-36.599203238
 20
-35.6761668537
 10
-36.7573039363
 20
-35.6668725779
 10
-36.9058046455
 20
-35.6562241732
 10
-37.0421691334
 20
-35.6443435882
 10
-37.1649326974
 20
-35.6313058132
 10
-37.2726125762
 20
-35.6172001859
 10
-37.3635983402
 20
-35.6021586196
 10
-37.4364261438
 20
-35.5863429843
 10
-37.4899631941
 20
-35.5699138885
 10
-37.5233249193
 20
-35.5530252516
 10
-37.5357751436
 20
-35.5358498739
  0
LINE
  5
279
100
AcDbEntity
  8
0
100
AcDbLine
 62
250
  6
CONTINUOUS
 10
-22.264598548
 20
-36.0410137272
 11
-27.288756731
 21
-36.004469174
  0
LINE
  5
27A
100
AcDbEntity
  8
0
100
AcDbLine
 62
250
  6
CONTINUOUS
 10
-27.288756731
 20
-36.004469174
 11
-28.4392106166
 21
-35.987677096
  0
LINE
  5
27B
100
AcDbEntity
  8
0
100
AcDbLine
 62
250
  6
CONTINUOUS
 10
-28.4392106166
 20
-35.987677096
 11
-29.1355650474
 21
-35.973569525
  0
LINE
  5
27C
100
AcDbEntity
  8
0
100
AcDbLine
 62
250
  6
CONTINUOUS
 10
-29.1355650474
 20
-35.973569525
 11
-29.7833244047
 21
-35.9575776137
  0
LINE
  5
27D
100
AcDbEntity
  8
0
100
AcDbLine
 62
250
  6
CONTINUOUS
 10
-29.7833244047
 20
-35.9575776137
 11
-30.944485596
 21
-35.9223122557
  0
LINE
  5
27E
100
AcDbEntity
  8
0
100
AcDbLine
 62
250
  6
CONTINUOUS
 10
-30.944485596
 20
-35.9223122557
 11
-33.0048145994
 21
-35.8474056058
  0
LINE
  5
27F
100
AcDbEntity
  8
0
100
AcDbLine
 62
250
  6
CONTINUOUS
 10
-33.0048145994
 20
-35.8474056058
 11
-34.4928642052
 21
-35.7865532061
  0
LINE
  5
280
100
AcDbEntity
  8
0
100
AcDbLine
 62
250
  6
CONTINUOUS
 10
-34.4928642052
 20
-35.7865532061
 11
-34.6319823971
 21
-35.7803732892
  0
LINE
  5
281
100
AcDbEntity
  8
0
100
AcDbLine
 62
250
  6
CONTINUOUS
 10
-34.6319823971
 20
-35.7803732892
 11
-35.0225904208
 21
-35.7582312244
  0
LINE
  5
282
100
AcDbEntity
  8
0
100
AcDbLine
 62
250
  6
CONTINUOUS
 10
-35.0225904208
 20
-35.7582312244
 11
-35.1443950615
 21
-35.7489994928
  0
LWPOLYLINE
  5
283
100
AcDbEntity
  8
0
100
AcDbPolyline
 62
250
  6
CONTINUOUS
 90
5
 70
0
 10
-35.1443950615
 20
-35.7489994928
 10
-35.3733299379
 20
-35.7261546817
 10
-35.4797201364
 20
-35.7161967794
 10
-35.5809192707
 20
-35.707872725
 10
-35.6771080329
 20
-35.7019163508
  0
LWPOLYLINE
  5
284
100
AcDbEntity
  8
0
100
AcDbPolyline
 62
7
  6
CONTINUOUS
 90
40
 70
0
 10
-31.691588785
 20
17.999990052
 10
-31.682761286
 20
17.8348070004
 10
-31.6569011682
 20
17.6721827082
 10
-31.6149260702
 20
17.5141283311
 10
-31.5582220661
 20
17.3626602565
 10
-31.4881771008
 20
17.218137066
 10
-31.405373886
 20
17.0799893788
 10
-31.3113669676
 20
16.9494548337
 10
-31.2069511371
 20
16.8263642826
 10
-31.0905291952
 20
16.7085771388
 10
-30.9623147592
 20
16.5966965614
 10
-30.82303934
 20
16.4916476088
 10
-30.6709349426
 20
16.392670242
 10
-30.5053711267
 20
16.3004034099
 10
-30.3275534698
 20
16.2164952945
 10
-30.1381926693
 20
16.1420885672
 10
-29.9376682646
 20
16.0781951753
 10
-29.7267250375
 20
16.0259073487
 10
-29.5066174388
 20
15.9864042365
 10
-29.2772723018
 20
15.9606738604
 10
-29.0404223689
 20
15.949990521
 10
-28.8001513909
 20
15.9554237722
 10
-28.5561878672
 20
15.9778243732
 10
-28.3112359772
 20
16.018024866
 10
-28.073761474
 20
16.0749824998
 10
-27.8456444211
 20
16.1478839027
 10
-27.6274533448
 20
16.2363676526
 10
-27.4249819942
 20
16.3374240331
 10
-27.2409264041
 20
16.4482006335
 10
-27.0737446567
 20
16.5680054854
 10
-26.9227839542
 20
16.6961715112
 10
-26.788591622
 20
16.8312437782
 10
-26.671492979
 20
16.9716491908
 10
-26.5708736922
 20
17.116934279
 10
-26.4867107082
 20
17.2662314015
 10
-26.4194148534
 20
17.4172895372
 10
-26.3688481422
 20
17.5679626962
 10
-26.3343550574
 20
17.7164608668
 10
-26.3146664546
 20
17.8610202919
 10
-26.3084112151
 20
17.9999820615
  0
LINE
  5
285
100
AcDbEntity
  8
0
100
AcDbLine
 62
7
  6
CONTINUOUS
 10
-31.43
 20
14.5255319297
 11
-31.43
 21
14.7744680703
  0
LINE
  5
286
100
AcDbEntity
  8
0
100
AcDbLine
 62
7
  6
CONTINUOUS
 10
-31.407262
 20
-16.827181
 11
-31.407262
 21
-15.577521
  0
LINE
  5
287
100
AcDbEntity
  8
0
100
AcDbLine
 62
7
  6
CONTINUOUS
 10
-31.3081250465
 20
14.7468084991
 11
-31.3081250465
 21
14.5531915009
  0
LINE
  5
288
100
AcDbEntity
  8
0
100
AcDbLine
 62
7
  6
CONTINUOUS
 10
-31.243573
 20
-15.779732
 11
-31.243573
 21
-16.827181
  0
LINE
  5
289
100
AcDbEntity
  8
0
100
AcDbLine
 62
7
  6
CONTINUOUS
 10
-31.149646
 20
-20.422479
 11
-31.149646
 21
-19.171808
  0
LINE
  5
28A
100
AcDbEntity
  8
0
100
AcDbLine
 62
7
  6
CONTINUOUS
 10
-30.9807
 20
-19.171808
 11
-30.9807
 21
-20.422479
  0
LINE
  5
28B
100
AcDbEntity
  8
0
100
AcDbLine
 62
7
  6
CONTINUOUS
 10
-30.799519
 20
-19.321444
 11
-30.799519
 21
-19.171808
  0
LINE
  5
28C
100
AcDbEntity
  8
0
100
AcDbLine
 62
7
  6
CONTINUOUS
 10
-30.6743749535
 20
14.5531915009
 11
-30.6743749535
 21
14.7468084991
  0
LINE
  5
28D
100
AcDbEntity
  8
0
100
AcDbLine
 62
7
  6
CONTINUOUS
 10
-30.5525
 20
14.7744680703
 11
-30.5525
 21
14.5255319297
  0
LINE
  5
28E
100
AcDbEntity
  8
0
100
AcDbLine
 62
7
  6
CONTINUOUS
 10
-30.376395
 20
-20.422479
 11
-30.376395
 21
-19.321444
  0
LINE
  5
28F
100
AcDbEntity
  8
0
100
AcDbLine
 62
7
  6
CONTINUOUS
 10
-30.372957
 20
-16.827181
 11
-30.372957
 21
-15.777709
  0
LINE
  5
290
100
AcDbEntity
  8
0
100
AcDbLine
 62
7
  6
CONTINUOUS
 10
-30.3575000465
 20
14.5255319297
 11
-30.3575000465
 21
14.7744680703
  0
LINE
  5
291
100
AcDbEntity
  8
0
100
AcDbLine
 62
7
  6
CONTINUOUS
 10
-30.235625093
 20
14.7468084991
 11
-30.235625093
 21
14.5531915009
  0
LINE
  5
292
100
AcDbEntity
  8
0
100
AcDbLine
 62
7
  6
CONTINUOUS
 10
-30.209268
 20
-15.577521
 11
-30.209268
 21
-16.827181
  0
LINE
  5
293
100
AcDbEntity
  8
0
100
AcDbLine
 62
7
  6
CONTINUOUS
 10
-30.207549
 20
-19.321444
 11
-30.207549
 21
-20.422479
  0
LINE
  5
294
100
AcDbEntity
  8
0
100
AcDbLine
 62
7
  6
CONTINUOUS
 10
-29.784424
 20
-19.171808
 11
-29.784424
 21
-19.321444
  0
LINE
  5
295
100
AcDbEntity
  8
0
100
AcDbLine
 62
7
  6
CONTINUOUS
 10
-29.731344
 20
-18.62483
 11
-29.731344
 21
-17.37517
  0
LINE
  5
296
100
AcDbEntity
  8
0
100
AcDbLine
 62
7
  6
CONTINUOUS
 10
-29.601875
 20
14.5531915009
 11
-29.601875
 21
14.7468084991
  0
LINE
  5
297
100
AcDbEntity
  8
0
100
AcDbLine
 62
7
  6
CONTINUOUS
 10
-29.5677573404
 20
19.2406538298
 11
-29.5677573404
 21
18.8726639362
  0
LINE
  5
298
100
AcDbEntity
  8
0
100
AcDbLine
 62
7
  6
CONTINUOUS
 10
-29.5677573404
 20
17.1273360638
 11
-29.5677573404
 21
16.7593461702
  0
LINE
  5
299
100
AcDbEntity
  8
0
100
AcDbLine
 62
7
  6
CONTINUOUS
 10
-29.562397
 20
-17.37517
 11
-29.562397
 21
-18.62483
  0
LINE
  5
29A
100
AcDbEntity
  8
0
100
AcDbLine
 62
7
  6
CONTINUOUS
 10
-29.479999907
 20
14.7744680703
 11
-29.479999907
 21
14.5255319297
  0
LINE
  5
29B
100
AcDbEntity
  8
0
100
AcDbLine
 62
7
  6
CONTINUOUS
 10
-29.285000093
 20
14.5808510721
 11
-29.285000093
 21
15.3
  0
LINE
  5
29C
100
AcDbEntity
  8
0
100
AcDbLine
 62
7
  6
CONTINUOUS
 10
-29.273439
 20
-18.62483
 11
-29.273439
 21
-17.37517
  0
LINE
  5
29D
100
AcDbEntity
  8
0
100
AcDbLine
 62
7
  6
CONTINUOUS
 10
-29.163125
 20
15.1617021441
 11
-29.163125
 21
14.7191489279
  0
LINE
  5
29E
100
AcDbEntity
  8
0
100
AcDbLine
 62
7
  6
CONTINUOUS
 10
-29.109649
 20
-17.609326
 11
-29.109649
 21
-18.62483
  0
LINE
  5
29F
100
AcDbEntity
  8
0
100
AcDbLine
 62
7
  6
CONTINUOUS
 10
-28.781461
 20
-16.827181
 11
-28.781461
 21
-15.577521
  0
LINE
  5
2A0
100
AcDbEntity
  8
0
100
AcDbLine
 62
7
  6
CONTINUOUS
 10
-28.663552234
 20
19.2406538298
 11
-28.663552234
 21
18.8726639362
  0
LINE
  5
2A1
100
AcDbEntity
  8
0
100
AcDbLine
 62
7
  6
CONTINUOUS
 10
-28.663552234
 20
17.1273360638
 11
-28.663552234
 21
16.7593461702
  0
LINE
  5
2A2
100
AcDbEntity
  8
0
100
AcDbLine
 62
7
  6
CONTINUOUS
 10
-28.612616
 20
-15.722102
 11
-28.612616
 21
-16.6826
  0
LINE
  5
2A3
100
AcDbEntity
  8
0
100
AcDbLine
 62
7
  6
CONTINUOUS
 10
-28.529374907
 20
14.3872340351
 11
-28.529374907
 21
14.4425531775
  0
LWPOLYLINE
  5
2A4
100
AcDbEntity
  8
0
100
AcDbPolyline
 62
7
  6
CONTINUOUS
 90
3
 70
0
 10
-31.8808411215
 20
18.000002446
 10
-31.8754306639
 20
18.1376722381
 10
-31.8585900168
 20
18.2791009908
  0
LINE
  5
2A5
100
AcDbEntity
  8
0
100
AcDbLine
 62
7
  6
CONTINUOUS
 10
-31.28375
 20
14.9127659261
 11
-31.3081250465
 21
14.7468084991
  0
LINE
  5
2A6
100
AcDbEntity
  8
0
100
AcDbLine
 62
7
  6
CONTINUOUS
 10
-30.69875
 20
14.3872340351
 11
-30.6743749535
 21
14.5531915009
  0
LINE
  5
2A7
100
AcDbEntity
  8
0
100
AcDbLine
 62
7
  6
CONTINUOUS
 10
-30.211249907
 20
14.9127659261
 11
-30.235625093
 21
14.7468084991
  0
LINE
  5
2A8
100
AcDbEntity
  8
0
100
AcDbLine
 62
7
  6
CONTINUOUS
 10
-29.626249907
 20
14.3872340351
 11
-29.601875
 21
14.5531915009
  0
LINE
  5
2A9
100
AcDbEntity
  8
0
100
AcDbLine
 62
7
  6
CONTINUOUS
 10
-31.43
 20
14.7744680703
 11
-31.4056249535
 21
14.9127659261
  0
LINE
  5
2AA
100
AcDbEntity
  8
0
100
AcDbLine
 62
7
  6
CONTINUOUS
 10
-30.5525
 20
14.5255319297
 11
-30.5768750465
 21
14.3872340351
  0
LINE
  5
2AB
100
AcDbEntity
  8
0
100
AcDbLine
 62
7
  6
CONTINUOUS
 10
-30.3575000465
 20
14.7744680703
 11
-30.333125
 21
14.9127659261
  0
LINE
  5
2AC
100
AcDbEntity
  8
0
100
AcDbLine
 62
7
  6
CONTINUOUS
 10
-29.479999907
 20
14.5255319297
 11
-29.504375093
 21
14.3872340351
  0
LWPOLYLINE
  5
2AD
100
AcDbEntity
  8
0
100
AcDbPolyline
 62
7
  6
CONTINUOUS
 90
20
 70
0
 10
-26.1403215399
 20
17.7277902628
 10
-26.1684030213
 20
17.5857725058
 10
-26.209419159
 20
17.441199448
 10
-26.2640638602
 20
17.2954064894
 10
-26.3326469832
 20
17.1499874402
 10
-26.4151465855
 20
17.0066073752
 10
-26.5117256995
 20
16.8661086411
 10
-26.6227953878
 20
16.7290360116
 10
-26.7480829737
 20
16.5967407918
 10
-26.8873907409
 20
16.4702880749
 10
-27.0414408312
 20
16.349972958
 10
-27.2104009668
 20
16.2367955805
 10
-27.393391631
 20
16.1323838049
 10
-27.5895860955
 20
16.0380985403
 10
-27.7983299454
 20
15.955088303
 10
-28.0189427586
 20
15.884486279
 10
-28.2503523879
 20
15.8275129598
 10
-28.49158879
 20
15.7853136457
 10
-28.7418365962
 20
15.7590531906
 10
-28.9999449411
 20
15.7500000004
  0
LWPOLYLINE
  5
2AE
100
AcDbEntity
  8
0
100
AcDbPolyline
 62
7
  6
CONTINUOUS
 90
20
 70
0
 10
-31.8585900168
 20
18.2791009908
 10
-31.829441543
 20
18.4231153186
 10
-31.7872411889
 20
18.5688777005
 10
-31.7315468336
 20
18.7149056403
 10
-31.6625258616
 20
18.8591955119
 10
-31.5809875522
 20
18.9995051093
 10
-31.4866764863
 20
19.1360275329
 10
-31.3780002152
 20
19.270055786
 10
-31.2544961627
 20
19.4007307303
 10
-31.1166800505
 20
19.5262754062
 10
-30.9638872054
 20
19.6461594316
 10
-30.7962700085
 20
19.7590617056
 10
-30.6142730919
 20
19.8635802194
 10
-30.4175854806
 20
19.9587459278
 10
-30.2051794564
 20
20.0436515378
 10
-29.9791184455
 20
20.1160615656
 10
-29.744119865
 20
20.1736460004
 10
-29.5025451471
 20
20.2155028505
 10
-29.2540854623
 20
20.2412311023
 10
-28.9999129405
 20
20.249999999
  0
LINE
  5
2AF
100
AcDbEntity
  8
0
100
AcDbLine
 62
7
  6
CONTINUOUS
 10
-28.188125093
 20
14.9957447171
 11
-28.163749907
 21
15.1063830018
  0
LINE
  5
2B0
100
AcDbEntity
  8
0
100
AcDbLine
 62
7
  6
CONTINUOUS
 10
-27.335
 20
14.9404254973
 11
-27.359375186
 21
14.8297872126
  0
LINE
  5
2B1
100
AcDbEntity
  8
0
100
AcDbLine
 62
7
  6
CONTINUOUS
 10
-32.1125000116
 20
15.1893617153
 11
-32.3318749942
 21
14.4425531775
  0
LINE
  5
2B2
100
AcDbEntity
  8
0
100
AcDbLine
 62
7
  6
CONTINUOUS
 10
-32.3562500058
 20
14.3319148928
 11
-32.45375
 21
14.0
  0
LINE
  5
2B3
100
AcDbEntity
  8
0
100
AcDbLine
 62
7
  6
CONTINUOUS
 10
-31.4056249535
 20
14.9127659261
 11
-31.3812500465
 21
14.9957447171
  0
LINE
  5
2B4
100
AcDbEntity
  8
0
100
AcDbLine
 62
7
  6
CONTINUOUS
 10
-30.5768750465
 20
14.3872340351
 11
-30.6012499535
 21
14.3042553216
  0
LINE
  5
2B5
100
AcDbEntity
  8
0
100
AcDbLine
 62
7
  6
CONTINUOUS
 10
-30.333125
 20
14.9127659261
 11
-30.3087499535
 21
14.9957447171
  0
LINE
  5
2B6
100
AcDbEntity
  8
0
100
AcDbLine
 62
7
  6
CONTINUOUS
 10
-29.504375093
 20
14.3872340351
 11
-29.52875
 21
14.3042553216
  0
LINE
  5
2B7
100
AcDbEntity
  8
0
100
AcDbLine
 62
7
  6
CONTINUOUS
 10
-28.553750093
 20
14.3042553216
 11
-28.529374907
 21
14.3872340351
  0
LINE
  5
2B8
100
AcDbEntity
  8
0
100
AcDbLine
 62
7
  6
CONTINUOUS
 10
-32.6
 20
14.0
 11
-32.2099999884
 21
15.3
  0
LINE
  5
2B9
100
AcDbEntity
  8
0
100
AcDbLine
 62
7
  6
CONTINUOUS
 10
-28.407500093
 20
14.359574464
 11
-28.456249907
 21
14.2212765887
  0
LINE
  5
2BA
100
AcDbEntity
  8
0
100
AcDbLine
 62
7
  6
CONTINUOUS
 10
-25.945625
 20
14.9680850685
 11
-25.896875186
 21
15.1063830018
  0
LINE
  5
2BB
100
AcDbEntity
  8
0
100
AcDbLine
 62
7
  6
CONTINUOUS
 10
-25.970000186
 20
14.4148936063
 11
-25.921249814
 21
14.5531915009
  0
LINE
  5
2BC
100
AcDbEntity
  8
0
100
AcDbLine
 62
7
  6
CONTINUOUS
 10
-31.3812500465
 20
14.9957447171
 11
-31.3324999535
 21
15.1063830018
  0
LINE
  5
2BD
100
AcDbEntity
  8
0
100
AcDbLine
 62
7
  6
CONTINUOUS
 10
-30.3087499535
 20
14.9957447171
 11
-30.26
 21
15.1063830018
  0
LINE
  5
2BE
100
AcDbEntity
  8
0
100
AcDbLine
 62
7
  6
CONTINUOUS
 10
-30.6012499535
 20
14.3042553216
 11
-30.6500000465
 21
14.1936170176
  0
LINE
  5
2BF
100
AcDbEntity
  8
0
100
AcDbLine
 62
7
  6
CONTINUOUS
 10
-29.52875
 20
14.3042553216
 11
-29.577500093
 21
14.1936170176
  0
LINE
  5
2C0
100
AcDbEntity
  8
0
100
AcDbLine
 62
7
  6
CONTINUOUS
 10
-27.529999814
 20
14.8297872126
 11
-27.48125
 21
14.9404254973
  0
LINE
  5
2C1
100
AcDbEntity
  8
0
100
AcDbLine
 62
7
  6
CONTINUOUS
 10
-25.116874814
 20
14.885106355
 11
-25.165625186
 21
14.7744680703
  0
LINE
  5
2C2
100
AcDbEntity
  8
0
100
AcDbLine
 62
7
  6
CONTINUOUS
 10
-31.1862499535
 20
15.0787234306
 11
-31.28375
 21
14.9127659261
  0
LINE
  5
2C3
100
AcDbEntity
  8
0
100
AcDbLine
 62
7
  6
CONTINUOUS
 10
-30.7962500465
 20
14.2212765887
 11
-30.69875
 21
14.3872340351
  0
LINE
  5
2C4
100
AcDbEntity
  8
0
100
AcDbLine
 62
7
  6
CONTINUOUS
 10
-30.11375
 20
15.0787234306
 11
-30.211249907
 21
14.9127659261
  0
LINE
  5
2C5
100
AcDbEntity
  8
0
100
AcDbLine
 62
7
  6
CONTINUOUS
 10
-29.723750093
 20
14.2212765887
 11
-29.626249907
 21
14.3872340351
  0
LINE
  5
2C6
100
AcDbEntity
  8
0
100
AcDbLine
 62
7
  6
CONTINUOUS
 10
-28.602499907
 20
14.2212765887
 11
-28.553750093
 21
14.3042553216
  0
LINE
  5
2C7
100
AcDbEntity
  8
0
100
AcDbLine
 62
7
  6
CONTINUOUS
 10
-28.017499907
 20
15.0787234306
 11
-28.06625
 21
14.9957447171
  0
LINE
  5
2C8
100
AcDbEntity
  8
0
100
AcDbLine
 62
7
  6
CONTINUOUS
 10
-27.359375186
 20
14.8297872126
 11
-27.408125
 21
14.7468084991
  0
LINE
  5
2C9
100
AcDbEntity
  8
0
100
AcDbLine
 62
7
  6
CONTINUOUS
 10
-25.774999814
 20
15.0510638595
 11
-25.823750186
 21
14.9680850685
  0
LINE
  5
2CA
100
AcDbEntity
  8
0
100
AcDbLine
 62
7
  6
CONTINUOUS
 10
-25.2875
 20
14.8297872126
 11
-25.238750186
 21
14.9127659261
  0
LINE
  5
2CB
100
AcDbEntity
  8
0
100
AcDbLine
 62
7
  6
CONTINUOUS
 10
-28.456249907
 20
14.2212765887
 11
-28.529374907
 21
14.1106382944
  0
LINE
  5
2CC
100
AcDbEntity
  8
0
100
AcDbLine
 62
7
  6
CONTINUOUS
 10
-25.774999814
 20
14.5255319297
 11
-25.848124814
 21
14.4148936063
  0
LINE
  5
2CD
100
AcDbEntity
  8
0
100
AcDbLine
 62
7
  6
CONTINUOUS
 10
-25.2875
 20
14.2212765887
 11
-25.214375
 21
14.3319148928
  0
LINE
  5
2CE
100
AcDbEntity
  8
0
100
AcDbLine
 62
7
  6
CONTINUOUS
 10
-39.8630572237
 20
-3.5572341992
 11
-39.9619654493
 21
-3.706070796
  0
LWPOLYLINE
  5
2CF
100
AcDbEntity
  8
0
100
AcDbPolyline
 62
7
  6
CONTINUOUS
 90
5
 70
0
 10
-26.7345852503
 20
17.502558847
 10
-26.7566688276
 20
17.472648809
 10
-26.7824081778
 20
17.4442575547
 10
-26.8116109393
 20
17.4178931009
 10
-26.8439970818
 20
17.39405247
  0
LWPOLYLINE
  5
2D0
100
AcDbEntity
  8
0
100
AcDbPolyline
 62
7
  6
CONTINUOUS
 90
4
 70
0
 10
-27.6491992656
 20
18.4587464361
 10
-27.6228779538
 20
18.4943055989
 10
-27.5920073187
 20
18.5264805078
 10
-27.5571563359
 20
18.5547166753
  0
LINE
  5
2D1
100
AcDbEntity
  8
0
100
AcDbLine
 62
7
  6
CONTINUOUS
 10
-27.140000186
 20
14.5531915009
 11
-26.555000186
 21
15.3
  0
LINE
  5
2D2
100
AcDbEntity
  8
0
100
AcDbLine
 62
7
  6
CONTINUOUS
 10
-26.555000186
 20
15.0787234306
 11
-26.969375
 21
14.5531915009
  0
LINE
  5
2D3
100
AcDbEntity
  8
0
100
AcDbLine
 62
7
  6
CONTINUOUS
 10
-31.3324999535
 20
15.1063830018
 11
-31.2593749535
 21
15.1893617153
  0
LINE
  5
2D4
100
AcDbEntity
  8
0
100
AcDbLine
 62
7
  6
CONTINUOUS
 10
-30.26
 20
15.1063830018
 11
-30.186875
 21
15.1893617153
  0
LINE
  5
2D5
100
AcDbEntity
  8
0
100
AcDbLine
 62
7
  6
CONTINUOUS
 10
-30.6500000465
 20
14.1936170176
 11
-30.7231250465
 21
14.1106382944
  0
LINE
  5
2D6
100
AcDbEntity
  8
0
100
AcDbLine
 62
7
  6
CONTINUOUS
 10
-29.577500093
 20
14.1936170176
 11
-29.650625093
 21
14.1106382944
  0
LINE
  5
2D7
100
AcDbEntity
  8
0
100
AcDbLine
 62
7
  6
CONTINUOUS
 10
-28.163749907
 20
15.1063830018
 11
-28.06625
 21
15.2170212865
  0
LINE
  5
2D8
100
AcDbEntity
  8
0
100
AcDbLine
 62
7
  6
CONTINUOUS
 10
-25.896875186
 20
15.1063830018
 11
-25.823750186
 21
15.1893617153
  0
LINE
  5
2D9
100
AcDbEntity
  8
0
100
AcDbLine
 62
7
  6
CONTINUOUS
 10
-25.165625186
 20
14.7744680703
 11
-25.238750186
 21
14.6914893568
  0
LWPOLYLINE
  5
2DA
100
AcDbEntity
  8
0
100
AcDbPolyline
 62
7
  6
CONTINUOUS
 90
10
 70
0
 10
-27.4450544011
 20
18.4017461144
 10
-27.4600308409
 20
18.3859220466
 10
-27.4728338895
 20
18.3683643533
 10
-27.4828374926
 20
18.3490452816
 10
-27.489473902
 20
18.3283204845
 10
-27.4924435424
 20
18.3069285662
 10
-27.4918994645
 20
18.2855575793
 10
-27.4877796255
 20
18.2647791589
 10
-27.4800968962
 20
18.2453309393
 10
-27.4696295511
 20
18.2279866416
  0
LINE
  5
2DB
100
AcDbEntity
  8
0
100
AcDbLine
 62
7
  6
CONTINUOUS
 10
-28.2125
 20
14.1382978752
 11
-27.529999814
 21
14.8297872126
  0
LINE
  5
2DC
100
AcDbEntity
  8
0
100
AcDbLine
 62
7
  6
CONTINUOUS
 10
-27.408125
 20
14.7468084991
 11
-28.017499907
 21
14.1382978752
  0
LWPOLYLINE
  5
2DD
100
AcDbEntity
  8
0
100
AcDbPolyline
 62
7
  6
CONTINUOUS
 90
19
 70
0
 10
-26.9672365204
 20
17.5410786625
 10
-26.9510338576
 20
17.5558599877
 10
-26.9364989196
 20
17.5716718415
 10
-26.9239100968
 20
17.5883519254
 10
-26.9134663991
 20
17.6057958196
 10
-26.905351688
 20
17.6237982396
 10
-26.8995854114
 20
17.6419321698
 10
-26.8960399779
 20
17.6597993208
 10
-26.8944609372
 20
17.6772527043
 10
-26.8946329715
 20
17.6942501096
 10
-26.8965339894
 20
17.710650004
 10
-26.900219565
 20
17.7261805746
 10
-26.9056037197
 20
17.7406113526
 10
-26.9124502191
 20
17.7537045728
 10
-26.9205126969
 20
17.7654433091
 10
-26.929536675
 20
17.7759917937
 10
-26.9392658968
 20
17.7854213974
 10
-26.9494058865
 20
17.7937297022
 10
-26.9597303698
 20
17.8009614755
  0
LINE
  5
2DE
100
AcDbEntity
  8
0
100
AcDbLine
 62
7
  6
CONTINUOUS
 10
-27.4285629218
 20
18.4158241459
 11
-27.4450544011
 21
18.4017461144
  0
LINE
  5
2DF
100
AcDbEntity
  8
0
100
AcDbLine
 62
7
  6
CONTINUOUS
 10
-29.016875
 20
14.6638297856
 11
-29.114374907
 21
14.5808510721
  0
LINE
  5
2E0
100
AcDbEntity
  8
0
100
AcDbLine
 62
7
  6
CONTINUOUS
 10
-31.1131249535
 20
15.134042573
 11
-31.1862499535
 21
15.0787234306
  0
LINE
  5
2E1
100
AcDbEntity
  8
0
100
AcDbLine
 62
7
  6
CONTINUOUS
 10
-30.040625
 20
15.134042573
 11
-30.11375
 21
15.0787234306
  0
LINE
  5
2E2
100
AcDbEntity
  8
0
100
AcDbLine
 62
7
  6
CONTINUOUS
 10
-30.8693750465
 20
14.1659574464
 11
-30.7962500465
 21
14.2212765887
  0
LINE
  5
2E3
100
AcDbEntity
  8
0
100
AcDbLine
 62
7
  6
CONTINUOUS
 10
-29.796875093
 20
14.1659574464
 11
-29.723750093
 21
14.2212765887
  0
LINE
  5
2E4
100
AcDbEntity
  8
0
100
AcDbLine
 62
7
  6
CONTINUOUS
 10
-27.944374907
 20
15.134042573
 11
-28.017499907
 21
15.0787234306
  0
LINE
  5
2E5
100
AcDbEntity
  8
0
100
AcDbLine
 62
7
  6
CONTINUOUS
 10
-28.675624907
 20
14.1659574464
 11
-28.602499907
 21
14.2212765887
  0
LINE
  5
2E6
100
AcDbEntity
  8
0
100
AcDbLine
 62
7
  6
CONTINUOUS
 10
-31.2593749535
 20
15.1893617153
 11
-31.1375
 21
15.2723404288
  0
LINE
  5
2E7
100
AcDbEntity
  8
0
100
AcDbLine
 62
7
  6
CONTINUOUS
 10
-30.186875
 20
15.1893617153
 11
-30.064999907
 21
15.2723404288
  0
LINE
  5
2E8
100
AcDbEntity
  8
0
100
AcDbLine
 62
7
  6
CONTINUOUS
 10
-30.7231250465
 20
14.1106382944
 11
-30.845
 21
14.0276595736
  0
LINE
  5
2E9
100
AcDbEntity
  8
0
100
AcDbLine
 62
7
  6
CONTINUOUS
 10
-29.163125
 20
14.7191489279
 11
-29.041249907
 21
14.8021276414
  0
LINE
  5
2EA
100
AcDbEntity
  8
0
100
AcDbLine
 62
7
  6
CONTINUOUS
 10
-27.5571563359
 20
18.5547166753
 11
-27.5344516677
 21
18.5698810361
  0
LINE
  5
2EB
100
AcDbEntity
  8
0
100
AcDbLine
 62
7
  6
CONTINUOUS
 10
-27.4036674711
 20
18.431983701
 11
-27.4285629218
 21
18.4158241459
  0
LWPOLYLINE
  5
2EC
100
AcDbEntity
  8
0
100
AcDbPolyline
 62
7
  6
CONTINUOUS
 90
5
 70
0
 10
-26.8439970818
 20
17.39405247
 10
-26.8793286434
 20
17.3728290516
 10
-26.9174019776
 20
17.3541847955
 10
-26.9578977411
 20
17.3381616797
 10
-27.0005767806
 20
17.3248927377
  0
LWPOLYLINE
  5
2ED
100
AcDbEntity
  8
0
100
AcDbPolyline
 62
7
  6
CONTINUOUS
 90
5
 70
0
 10
-27.5344516677
 20
18.5698810361
 10
-27.5111584257
 20
18.5827695848
 10
-27.4876320867
 20
18.5937449514
 10
-27.4641819557
 20
18.6031300342
 10
-27.441074293
 20
18.611210551
  0
LINE
  5
2EE
100
AcDbEntity
  8
0
100
AcDbLine
 62
7
  6
CONTINUOUS
 10
0.5166667461
 20
-32.2574468099
 11
0.3083332539
 21
-32.3
  0
LINE
  5
2EF
100
AcDbEntity
  8
0
100
AcDbLine
 62
7
  6
CONTINUOUS
 10
-0.1083332539
 20
-31.0659574747
 11
0.1
 21
-31.0234042883
  0
LINE
  5
2F0
100
AcDbEntity
  8
0
100
AcDbLine
 62
7
  6
CONTINUOUS
 10
-0.1083332539
 20
-30.3425531864
 11
0.1
 21
-30.3
  0
LINE
  5
2F1
100
AcDbEntity
  8
0
100
AcDbLine
 62
7
  6
CONTINUOUS
 10
3.7666665077
 20
-32.3
 11
3.5166665077
 21
-32.3
  0
LINE
  5
2F2
100
AcDbEntity
  8
0
100
AcDbLine
 62
7
  6
CONTINUOUS
 10
2.5166665077
 20
-32.3
 11
2.2666665077
 21
-32.3
  0
LINE
  5
2F3
100
AcDbEntity
  8
0
100
AcDbLine
 62
7
  6
CONTINUOUS
 10
0.3083332539
 20
-32.3
 11
0.1
 21
-32.3
  0
LINE
  5
2F4
100
AcDbEntity
  8
0
100
AcDbLine
 62
7
  6
CONTINUOUS
 10
-1.3166667461
 20
-32.3
 11
-1.5666666269
 21
-32.3
  0
LINE
  5
2F5
100
AcDbEntity
  8
0
100
AcDbLine
 62
7
  6
CONTINUOUS
 10
-2.9
 20
-32.3
 11
-3.15
 21
-32.3
  0
LINE
  5
2F6
100
AcDbEntity
  8
0
100
AcDbLine
 62
7
  6
CONTINUOUS
 10
0.0583332539
 20
-32.0872340381
 11
0.35
 21
-32.0872340381
  0
LINE
  5
2F7
100
AcDbEntity
  8
0
100
AcDbLine
 62
7
  6
CONTINUOUS
 10
2.9333334923
 20
-31.7042553306
 11
2.5166665077
 21
-31.7042553306
  0
LINE
  5
2F8
100
AcDbEntity
  8
0
100
AcDbLine
 62
7
  6
CONTINUOUS
 10
2.2666665077
 20
-31.7042553306
 11
1.2666665077
 21
-31.7042553306
  0
LINE
  5
2F9
100
AcDbEntity
  8
0
100
AcDbLine
 62
7
  6
CONTINUOUS
 10
-0.9
 20
-31.7042553306
 11
-1.3166667461
 21
-31.7042553306
  0
LINE
  5
2FA
100
AcDbEntity
  8
0
100
AcDbLine
 62
7
  6
CONTINUOUS
 10
-1.5666666269
 20
-31.7042553306
 11
-2.5666666865
 21
-31.7042553306
  0
LINE
  5
2FB
100
AcDbEntity
  8
0
100
AcDbLine
 62
7
  6
CONTINUOUS
 10
-2.275
 20
-31.4489361525
 11
-1.5666666269
 21
-31.4489361525
  0
LINE
  5
2FC
100
AcDbEntity
  8
0
100
AcDbLine
 62
7
  6
CONTINUOUS
 10
-1.3166667461
 20
-31.4489361525
 11
-0.9
 21
-31.4489361525
  0
LINE
  5
2FD
100
AcDbEntity
  8
0
100
AcDbLine
 62
7
  6
CONTINUOUS
 10
1.5583334923
 20
-31.4489361525
 11
2.2666665077
 21
-31.4489361525
  0
LINE
  5
2FE
100
AcDbEntity
  8
0
100
AcDbLine
 62
7
  6
CONTINUOUS
 10
2.5166665077
 20
-31.4489361525
 11
2.9333334923
 21
-31.4489361525
  0
LINE
  5
2FF
100
AcDbEntity
  8
0
100
AcDbLine
 62
7
  6
CONTINUOUS
 10
0.35
 20
-31.2361702204
 11
0.0583332539
 21
-31.2361702204
  0
LINE
  5
300
100
AcDbEntity
  8
0
100
AcDbLine
 62
7
  6
CONTINUOUS
 10
0.1
 20
-31.0234042883
 11
0.3083332539
 21
-31.0234042883
  0
LINE
  5
301
100
AcDbEntity
  8
0
100
AcDbLine
 62
7
  6
CONTINUOUS
 10
0.85
 20
-30.7680850506
 11
0.6416665077
 21
-30.7680850506
  0
LINE
  5
302
100
AcDbEntity
  8
0
100
AcDbLine
 62
7
  6
CONTINUOUS
 10
0.3083332539
 20
-30.5127659321
 11
0.0583332539
 21
-30.5127659321
  0
LINE
  5
303
100
AcDbEntity
  8
0
100
AcDbLine
 62
7
  6
CONTINUOUS
 10
-3.15
 20
-30.3
 11
-2.9
 21
-30.3
  0
LINE
  5
304
100
AcDbEntity
  8
0
100
AcDbLine
 62
7
  6
CONTINUOUS
 10
-1.5666666269
 20
-30.3
 11
-1.3166667461
 21
-30.3
  0
LINE
  5
305
100
AcDbEntity
  8
0
100
AcDbLine
 62
7
  6
CONTINUOUS
 10
0.1
 20
-30.3
 11
0.2666667461
 21
-30.3
  0
LINE
  5
306
100
AcDbEntity
  8
0
100
AcDbLine
 62
7
  6
CONTINUOUS
 10
2.2666665077
 20
-30.3
 11
2.5166665077
 21
-30.3
  0
LINE
  5
307
100
AcDbEntity
  8
0
100
AcDbLine
 62
7
  6
CONTINUOUS
 10
3.5166665077
 20
-30.3
 11
3.7666665077
 21
-30.3
  0
LINE
  5
308
100
AcDbEntity
  8
0
100
AcDbLine
 62
7
  6
CONTINUOUS
 10
0.1
 20
-32.3
 11
-0.1083332539
 21
-32.2574468099
  0
LINE
  5
309
100
AcDbEntity
  8
0
100
AcDbLine
 62
7
  6
CONTINUOUS
 10
0.3083332539
 20
-31.0234042883
 11
0.5166667461
 21
-31.0659574747
  0
LINE
  5
30A
100
AcDbEntity
  8
0
100
AcDbLine
 62
7
  6
CONTINUOUS
 10
0.2666667461
 20
-30.3
 11
0.475
 21
-30.3425531864
  0
LINE
  5
30B
100
AcDbEntity
  8
0
100
AcDbLine
 62
7
  6
CONTINUOUS
 10
-0.0666667461
 20
-32.0446808517
 11
0.0583332539
 21
-32.0872340381
  0
LINE
  5
30C
100
AcDbEntity
  8
0
100
AcDbLine
 62
7
  6
CONTINUOUS
 10
0.475
 20
-31.2787234068
 11
0.35
 21
-31.2361702204
  0
LINE
  5
30D
100
AcDbEntity
  8
0
100
AcDbLine
 62
7
  6
CONTINUOUS
 10
0.4333332539
 20
-30.5553191185
 11
0.3083332539
 21
-30.5127659321
  0
LWPOLYLINE
  5
30E
100
AcDbEntity
  8
0
100
AcDbPolyline
 62
7
  6
CONTINUOUS
 90
6
 70
0
 10
-27.9818994636
 20
-15.6629361733
 10
-27.9328064763
 20
-15.701904568
 10
-27.8894264474
 20
-15.7474834904
 10
-27.8520776595
 20
-15.7984516832
 10
-27.8211130478
 20
-15.8531441201
 10
-27.7962347053
 20
-15.9106264923
  0
LINE
  5
30F
100
AcDbEntity
  8
0
100
AcDbLine
 62
7
  6
CONTINUOUS
 10
-39.9619654493
 20
3.706070796
 11
-39.8630572237
 21
3.5572341992
  0
LINE
  5
310
100
AcDbEntity
  8
0
100
AcDbLine
 62
7
  6
CONTINUOUS
 10
-27.395411
 20
-19.918975
 11
-27.86737
 21
-19.171808
  0
LWPOLYLINE
  5
311
100
AcDbEntity
  8
0
100
AcDbPolyline
 62
7
  6
CONTINUOUS
 90
9
 70
0
 10
-27.9867063307
 20
-15.8972070033
 10
-28.0095501236
 20
-15.8609477427
 10
-28.036823607
 20
-15.8270246396
 10
-28.0684117091
 20
-15.7966223369
 10
-28.1043712674
 20
-15.7708244561
 10
-28.1459021048
 20
-15.7499369746
 10
-28.1927686639
 20
-15.7345044817
 10
-28.243399578
 20
-15.7252102563
 10
-28.2969152317
 20
-15.722102
  0
LINE
  5
312
100
AcDbEntity
  8
0
100
AcDbLine
 62
7
  6
CONTINUOUS
 10
-28.470664
 20
-18.62483
 11
-29.109649
 21
-17.609326
  0
LINE
  5
313
100
AcDbEntity
  8
0
100
AcDbLine
 62
7
  6
CONTINUOUS
 10
-29.07315
 20
-17.37517
 11
-28.444478
 21
-18.389911
  0
LINE
  5
314
100
AcDbEntity
  8
0
100
AcDbLine
 62
7
  6
CONTINUOUS
 10
-27.670619
 20
-19.171808
 11
-27.311898
 21
-19.772373
  0
LINE
  5
315
100
AcDbEntity
  8
0
100
AcDbLine
 62
7
  6
CONTINUOUS
 10
-29.397899
 20
-15.577521
 11
-28.94515
 21
-16.827181
  0
LINE
  5
316
100
AcDbEntity
  8
0
100
AcDbLine
 62
7
  6
CONTINUOUS
 10
-29.07406
 20
-19.171808
 11
-28.621311
 21
-20.422479
  0
LINE
  5
317
100
AcDbEntity
  8
0
100
AcDbLine
 62
7
  6
CONTINUOUS
 10
-28.805828
 20
-20.422479
 11
-28.929479
 21
-20.0585
  0
LINE
  5
318
100
AcDbEntity
  8
0
100
AcDbLine
 62
7
  6
CONTINUOUS
 10
-29.129667
 20
-16.827181
 11
-29.253319
 21
-16.463202
  0
LINE
  5
319
100
AcDbEntity
  8
0
100
AcDbLine
 62
7
  6
CONTINUOUS
 10
-31.165217
 20
-15.577521
 11
-30.806542
 21
-16.63932
  0
LINE
  5
31A
100
AcDbEntity
  8
0
100
AcDbLine
 62
7
  6
CONTINUOUS
 10
-30.891828
 20
-16.827181
 11
-31.243573
 21
-15.779732
  0
LINE
  5
31B
100
AcDbEntity
  8
0
100
AcDbLine
 62
7
  6
CONTINUOUS
 10
-28.990446
 20
-19.908865
 11
-29.176712
 21
-19.353941
  0
LINE
  5
31C
100
AcDbEntity
  8
0
100
AcDbLine
 62
7
  6
CONTINUOUS
 10
-29.314285
 20
-16.313567
 11
-29.500552
 21
-15.758641
  0
LWPOLYLINE
  5
31D
100
AcDbEntity
  8
0
100
AcDbPolyline
 62
7
  6
CONTINUOUS
 90
6
 70
0
 10
-27.7962347053
 20
-15.9106264923
 10
-27.7769015102
 20
-15.9699337472
 10
-27.7627825524
 20
-16.0293281637
 10
-27.7539347689
 20
-16.0879436021
 10
-27.750179874
 20
-16.1457335386
 10
-27.7495041309
 20
-16.2023490195
  0
LINE
  5
31E
100
AcDbEntity
  8
0
100
AcDbLine
 62
7
  6
CONTINUOUS
 10
-31.3081250465
 20
14.5531915009
 11
-31.28375
 21
14.3872340351
  0
LWPOLYLINE
  5
31F
100
AcDbEntity
  8
0
100
AcDbPolyline
 62
7
  6
CONTINUOUS
 90
3
 70
0
 10
-31.8522030107
 20
17.6835289827
 10
-31.873391038
 20
17.8384290121
 10
-31.8808411215
 20
18.000002446
  0
LWPOLYLINE
  5
320
100
AcDbEntity
  8
0
100
AcDbPolyline
 62
7
  6
CONTINUOUS
 90
49
 70
0
 10
-26.3084112151
 20
17.9999820615
 10
-26.3132872681
 20
18.1226560368
 10
-26.3276998169
 20
18.2444435708
 10
-26.3513246435
 20
18.3644969987
 10
-26.3837617694
 20
18.4817556476
 10
-26.424597164
 20
18.5958583654
 10
-26.4735665039
 20
18.707089277
 10
-26.5302754315
 20
18.8151107381
 10
-26.5942171442
 20
18.9193900981
 10
-26.6651492464
 20
19.0199719821
 10
-26.7424095823
 20
19.1163399381
 10
-26.8257378357
 20
19.2085281766
 10
-26.9157384935
 20
19.2972879984
 10
-27.0120010502
 20
19.3821714453
 10
-27.1144511555
 20
19.4630883587
 10
-27.2246061172
 20
19.5409766525
 10
-27.342521528
 20
19.6153940767
 10
-27.4679585699
 20
19.6857136759
 10
-27.6022182136
 20
19.7520954524
 10
-27.7454987376
 20
19.8139312307
 10
-27.8973637021
 20
19.8703115042
 10
-28.0581949363
 20
19.920631004
 10
-28.228176647
 20
19.9641339405
 10
-28.4066074024
 20
19.9997964892
 10
-28.592445166
 20
20.026597773
 10
-28.7856179511
 20
20.0437213211
 10
-28.9852325726
 20
20.0502100982
 10
-29.1888583644
 20
20.0451827118
 10
-29.3970114357
 20
20.0278112892
 10
-29.6076584845
 20
19.997309107
 10
-29.8145404847
 20
19.9540980905
 10
-30.0171430999
 20
19.8982117728
 10
-30.2142580489
 20
19.8297541491
 10
-30.3991956627
 20
19.7514405875
 10
-30.5692476595
 20
19.6657387397
 10
-30.7264509848
 20
19.572915567
 10
-30.8717749406
 20
19.4733135378
 10
-31.0047376945
 20
19.3680729548
 10
-31.1252418044
 20
19.2581153016
 10
-31.2345775972
 20
19.1428945725
 10
-31.3326472659
 20
19.0228927027
 10
-31.4187892582
 20
18.899375808
 10
-31.493158802
 20
18.7725975862
 10
-31.5556928893
 20
18.6431985314
 10
-31.606149643
 20
18.5124972859
 10
-31.6445129871
 20
18.3816751958
 10
-31.6711098127
 20
18.251885556
 10
-31.6865818716
 20
18.1242962751
 10
-31.691588785
 20
17.999990052
  0
LWPOLYLINE
  5
321
100
AcDbEntity
  8
0
100
AcDbPolyline
 62
7
  6
CONTINUOUS
 90
8
 70
0
 10
-27.9228051766
 20
-16.2023474222
 10
-27.9240338015
 20
-16.1561348977
 10
-27.927543765
 20
-16.1104150009
 10
-27.9330986231
 20
-16.0652748831
 10
-27.9410498197
 20
-16.020885346
 10
-27.9523693898
 20
-15.9776544636
 10
-27.9676600252
 20
-15.9361328482
 10
-27.9867063307
 20
-15.8972070033
  0
LWPOLYLINE
  5
322
100
AcDbEntity
  8
0
100
AcDbPolyline
 62
250
  6
CONTINUOUS
 90
18
 70
0
 10
-22.4996419821
 20
21.8802524263
 10
-22.5004189472
 20
21.9446670385
 10
-22.5014751774
 20
22.0073837117
 10
-22.5017554093
 20
22.0685007336
 10
-22.5027393752
 20
22.1286573408
 10
-22.5029473427
 20
22.1872142968
 10
-22.4968848515
 20
22.2423521802
 10
-22.4828700026
 20
22.2942297199
 10
-22.4625846949
 20
22.3426881869
 10
-22.4355801655
 20
22.3854319733
 10
-22.4010661528
 20
22.4222959937
 10
-22.3598329185
 20
22.4534453334
 10
-22.3138024838
 20
22.4770796402
 10
-22.2627202405
 20
22.4910261139
 10
-22.206840797
 20
22.4974575548
 10
-22.1488499998
 20
22.5010920119
 10
-22.0895085311
 20
22.5025245558
 10
-21.9648953337
 20
22.499931529
  0
LINE
  5
323
100
AcDbEntity
  8
0
100
AcDbLine
 62
250
  6
CONTINUOUS
 10
-22.4994969141
 20
-21.8352214844
 11
-22.5000741863
 21
-21.697659024
  0
LINE
  5
324
100
AcDbEntity
  8
0
100
AcDbLine
 62
7
  6
CONTINUOUS
 10
-28.466317
 20
-20.422479
 11
-28.466317
 21
-19.171808
  0
LINE
  5
325
100
AcDbEntity
  8
0
100
AcDbLine
 62
7
  6
CONTINUOUS
 10
-28.456249907
 20
15.3
 11
-28.456249907
 21
15.1617021441
  0
LINE
  5
326
100
AcDbEntity
  8
0
100
AcDbLine
 62
7
  6
CONTINUOUS
 10
-28.444478
 20
-18.389911
 11
-28.444478
 21
-17.37517
  0
LINE
  5
327
100
AcDbEntity
  8
0
100
AcDbLine
 62
7
  6
CONTINUOUS
 10
-28.407500093
 20
14.4702127486
 11
-28.407500093
 21
14.359574464
  0
LINE
  5
328
100
AcDbEntity
  8
0
100
AcDbLine
 62
7
  6
CONTINUOUS
 10
-28.297471
 20
-19.171808
 11
-28.297471
 21
-20.272843
  0
LINE
  5
329
100
AcDbEntity
  8
0
100
AcDbLine
 62
7
  6
CONTINUOUS
 10
-28.28089
 20
-17.37517
 11
-28.28089
 21
-18.62483
  0
LINE
  5
32A
100
AcDbEntity
  8
0
100
AcDbLine
 62
7
  6
CONTINUOUS
 10
-28.2125
 20
14.0
 11
-28.2125
 21
14.1382978752
  0
LINE
  5
32B
100
AcDbEntity
  8
0
100
AcDbLine
 62
7
  6
CONTINUOUS
 10
-27.7593461702
 20
19.2406538298
 11
-27.7593461702
 21
18.8726639362
  0
LINE
  5
32C
100
AcDbEntity
  8
0
100
AcDbLine
 62
7
  6
CONTINUOUS
 10
-27.7593461702
 20
17.1273360638
 11
-27.7593461702
 21
16.7593461702
  0
LINE
  5
32D
100
AcDbEntity
  8
0
100
AcDbLine
 62
7
  6
CONTINUOUS
 10
-27.663643
 20
-20.272843
 11
-27.663643
 21
-20.422479
  0
LINE
  5
32E
100
AcDbEntity
  8
0
100
AcDbLine
 62
7
  6
CONTINUOUS
 10
-27.515625
 20
-16.827181
 11
-27.515625
 21
-15.577521
  0
LINE
  5
32F
100
AcDbEntity
  8
0
100
AcDbLine
 62
7
  6
CONTINUOUS
 10
-27.48125
 20
14.9404254973
 11
-27.48125
 21
14.9957447171
  0
LINE
  5
330
100
AcDbEntity
  8
0
100
AcDbLine
 62
7
  6
CONTINUOUS
 10
-27.395411
 20
-20.422479
 11
-27.395411
 21
-19.918975
  0
LINE
  5
331
100
AcDbEntity
  8
0
100
AcDbLine
 62
7
  6
CONTINUOUS
 10
-27.346679
 20
-15.727157
 11
-27.346679
 21
-16.110345
  0
LINE
  5
332
100
AcDbEntity
  8
0
100
AcDbLine
 62
7
  6
CONTINUOUS
 10
-27.346679
 20
-16.259981
 11
-27.346679
 21
-16.677545
  0
LINE
  5
333
100
AcDbEntity
  8
0
100
AcDbLine
 62
7
  6
CONTINUOUS
 10
-27.335
 20
14.9957447171
 11
-27.335
 21
14.9404254973
  0
LINE
  5
334
100
AcDbEntity
  8
0
100
AcDbLine
 62
7
  6
CONTINUOUS
 10
-27.335
 20
14.1382978752
 11
-27.335
 21
14.0
  0
LINE
  5
335
100
AcDbEntity
  8
0
100
AcDbLine
 62
7
  6
CONTINUOUS
 10
-27.226566
 20
-19.918975
 11
-27.226566
 21
-20.422479
  0
LINE
  5
336
100
AcDbEntity
  8
0
100
AcDbLine
 62
7
  6
CONTINUOUS
 10
-27.140000186
 20
14.3872340351
 11
-27.140000186
 21
14.5531915009
  0
LINE
  5
337
100
AcDbEntity
  8
0
100
AcDbLine
 62
7
  6
CONTINUOUS
 10
-26.662399
 20
-16.110345
 11
-26.662399
 21
-16.259981
  0
LINE
  5
338
100
AcDbEntity
  8
0
100
AcDbLine
 62
7
  6
CONTINUOUS
 10
-26.604971
 20
-15.577521
 11
-26.604971
 21
-15.727157
  0
LINE
  5
339
100
AcDbEntity
  8
0
100
AcDbLine
 62
7
  6
CONTINUOUS
 10
-26.592738
 20
-16.677545
 11
-26.592738
 21
-16.827181
  0
LINE
  5
33A
100
AcDbEntity
  8
0
100
AcDbLine
 62
7
  6
CONTINUOUS
 10
-26.555000186
 20
14.0
 11
-26.555000186
 21
14.3872340351
  0
LINE
  5
33B
100
AcDbEntity
  8
0
100
AcDbLine
 62
7
  6
CONTINUOUS
 10
-26.555000186
 20
14.5531915009
 11
-26.555000186
 21
15.0787234306
  0
LINE
  5
33C
100
AcDbEntity
  8
0
100
AcDbLine
 62
7
  6
CONTINUOUS
 10
-26.408750186
 20
15.3
 11
-26.408750186
 21
14.5531915009
  0
LINE
  5
33D
100
AcDbEntity
  8
0
100
AcDbLine
 62
7
  6
CONTINUOUS
 10
-26.408750186
 20
14.3872340351
 11
-26.408750186
 21
14.0
  0
LINE
  5
33E
100
AcDbEntity
  8
0
100
AcDbLine
 62
7
  6
CONTINUOUS
 10
-26.165
 20
14.5531915009
 11
-26.165
 21
14.3872340351
  0
LINE
  5
33F
100
AcDbEntity
  8
0
100
AcDbLine
 62
7
  6
CONTINUOUS
 10
-25.970000186
 20
14.3319148928
 11
-25.970000186
 21
14.4148936063
  0
LINE
  5
340
100
AcDbEntity
  8
0
100
AcDbLine
 62
7
  6
CONTINUOUS
 10
-25.945625
 20
14.885106355
 11
-25.945625
 21
14.9680850685
  0
LINE
  5
341
100
AcDbEntity
  8
0
100
AcDbLine
 62
7
  6
CONTINUOUS
 10
-25.848124814
 20
14.4148936063
 11
-25.848124814
 21
14.3319148928
  0
LINE
  5
342
100
AcDbEntity
  8
0
100
AcDbLine
 62
7
  6
CONTINUOUS
 10
-25.823750186
 20
14.9680850685
 11
-25.823750186
 21
14.9127659261
  0
LINE
  5
343
100
AcDbEntity
  8
0
100
AcDbLine
 62
7
  6
CONTINUOUS
 10
-25.238750186
 20
14.9127659261
 11
-25.238750186
 21
14.9680850685
  0
LINE
  5
344
100
AcDbEntity
  8
0
100
AcDbLine
 62
7
  6
CONTINUOUS
 10
-25.214375
 20
14.3319148928
 11
-25.214375
 21
14.4148936063
  0
LINE
  5
345
100
AcDbEntity
  8
0
100
AcDbLine
 62
7
  6
CONTINUOUS
 10
-25.116874814
 20
14.9680850685
 11
-25.116874814
 21
14.885106355
  0
LINE
  5
346
100
AcDbEntity
  8
0
100
AcDbLine
 62
7
  6
CONTINUOUS
 10
-25.092500186
 20
14.4148936063
 11
-25.092500186
 21
14.3319148928
  0
LWPOLYLINE
  5
347
100
AcDbEntity
  8
0
100
AcDbPolyline
 62
250
  6
CONTINUOUS
 90
5
 70
0
 10
-22.5023499029
 20
-22.150007477
 10
-22.5021580315
 20
-22.0286641166
 10
-22.5006660785
 20
-21.9658892004
 10
-22.4995403112
 20
-21.9014061727
 10
-22.4994969141
 20
-21.8352214844
  0
LINE
  5
348
100
AcDbEntity
  8
0
100
AcDbLine
 62
250
  6
CONTINUOUS
 10
-22.5000741863
 20
-21.697659024
 11
-22.4996419821
 21
21.8802524263
  0
LWPOLYLINE
  5
349
100
AcDbEntity
  8
0
100
AcDbPolyline
 62
7
  6
CONTINUOUS
 90
7
 70
0
 10
-27.7495041309
 20
-16.2023490195
 10
-27.7499241082
 20
-16.2493902556
 10
-27.7521514799
 20
-16.2971013407
 10
-27.7575916201
 20
-16.3452908051
 10
-27.7666427508
 20
-16.393897846
 10
-27.7791238867
 20
-16.4425495119
 10
-27.7949131803
 20
-16.4905284745
  0
LWPOLYLINE
  5
34A
100
AcDbEntity
  8
0
100
AcDbPolyline
 62
7
  6
CONTINUOUS
 90
3
 70
0
 10
-26.1191588786
 20
17.9999857075
 10
-26.1242666069
 20
17.8662383704
 10
-26.1403215399
 20
17.7277902628
  0
LWPOLYLINE
  5
34B
100
AcDbEntity
  8
0
100
AcDbPolyline
 62
7
  6
CONTINUOUS
 90
7
 70
0
 10
-26.6708898282
 20
17.7076294464
 10
-26.6728265207
 20
17.6720714931
 10
-26.6785062908
 20
17.6364543841
 10
-26.6877296594
 20
17.6012285715
 10
-26.7002917476
 20
17.566854829
 10
-26.7159822239
 20
17.5338043502
 10
-26.7345852503
 20
17.502558847
  0
LINE
  5
34C
100
AcDbEntity
  8
0
100
AcDbLine
 62
7
  6
CONTINUOUS
 10
-30.372957
 20
-15.777709
 11
-30.724702
 21
-16.827181
  0
LINE
  5
34D
100
AcDbEntity
  8
0
100
AcDbLine
 62
7
  6
CONTINUOUS
 10
-30.806542
 20
-16.63932
 11
-30.449595
 21
-15.577521
  0
LINE
  5
34E
100
AcDbEntity
  8
0
100
AcDbLine
 62
7
  6
CONTINUOUS
 10
-25.092500186
 20
14.3319148928
 11
-25.14125
 21
14.1936170176
  0
LINE
  5
34F
100
AcDbEntity
  8
0
100
AcDbLine
 62
7
  6
CONTINUOUS
 10
-29.7548
 20
-16.463202
 11
-29.885428
 21
-16.827181
  0
LINE
  5
350
100
AcDbEntity
  8
0
100
AcDbLine
 62
7
  6
CONTINUOUS
 10
-29.500552
 20
-15.758641
 11
-29.702529
 21
-16.313567
  0
LINE
  5
351
100
AcDbEntity
  8
0
100
AcDbLine
 62
7
  6
CONTINUOUS
 10
-30.059531
 20
-16.827181
 11
-29.589392
 21
-15.577521
  0
LINE
  5
352
100
AcDbEntity
  8
0
100
AcDbLine
 62
7
  6
CONTINUOUS
 10
-25.14125
 20
14.1936170176
 11
-25.214375
 21
14.1106382944
  0
LWPOLYLINE
  5
353
100
AcDbEntity
  8
0
100
AcDbPolyline
 62
250
  6
CONTINUOUS
 90
10
 70
0
 10
-11.2736068294
 20
22.5000000001
 10
-11.2535746769
 20
22.5202312103
 10
-11.2322381654
 20
22.5382395455
 10
-11.2095972948
 20
22.5540250056
 10
-11.1855172701
 20
22.5676637904
 10
-11.1601328864
 20
22.5790797001
 10
-11.133848529
 20
22.5880441358
 10
-11.106798993
 20
22.5944808979
 10
-11.0788494833
 20
22.598466186
 10
-11.05
 20
22.6
  0
LINE
  5
354
100
AcDbEntity
  8
0
100
AcDbLine
 62
7
  6
CONTINUOUS
 10
-25.677500186
 20
15.134042573
 11
-25.774999814
 21
15.0510638595
  0
LINE
  5
355
100
AcDbEntity
  8
0
100
AcDbLine
 62
7
  6
CONTINUOUS
 10
-25.921249814
 20
14.5531915009
 11
-25.823750186
 21
14.6361702144
  0
LINE
  5
356
100
AcDbEntity
  8
0
100
AcDbLine
 62
7
  6
CONTINUOUS
 10
-25.385000186
 20
14.7468084991
 11
-25.2875
 21
14.8297872126
  0
LINE
  5
357
100
AcDbEntity
  8
0
100
AcDbLine
 62
7
  6
CONTINUOUS
 10
-29.650625093
 20
14.1106382944
 11
-29.772499907
 21
14.0276595736
  0
LINE
  5
358
100
AcDbEntity
  8
0
100
AcDbLine
 62
7
  6
CONTINUOUS
 10
-28.529374907
 20
14.1106382944
 11
-28.65125
 21
14.0276595736
  0
LINE
  5
359
100
AcDbEntity
  8
0
100
AcDbLine
 62
7
  6
CONTINUOUS
 10
-25.823750186
 20
15.1893617153
 11
-25.701874814
 21
15.2723404288
  0
LINE
  5
35A
100
AcDbEntity
  8
0
100
AcDbLine
 62
7
  6
CONTINUOUS
 10
-25.214375
 20
14.1106382944
 11
-25.336249814
 21
14.0276595736
  0
LINE
  5
35B
100
AcDbEntity
  8
0
100
AcDbLine
 62
7
  6
CONTINUOUS
 10
-28.06625
 20
15.2170212865
 11
-27.968750093
 21
15.2723404288
  0
LINE
  5
35C
100
AcDbEntity
  8
0
100
AcDbLine
 62
7
  6
CONTINUOUS
 10
-25.823750186
 20
14.6361702144
 11
-25.774999814
 21
14.6638297856
  0
LINE
  5
35D
100
AcDbEntity
  8
0
100
AcDbLine
 62
7
  6
CONTINUOUS
 10
-25.677500186
 20
14.5808510721
 11
-25.774999814
 21
14.5255319297
  0
LINE
  5
35E
100
AcDbEntity
  8
0
100
AcDbLine
 62
7
  6
CONTINUOUS
 10
-25.238750186
 20
14.6914893568
 11
-25.2875
 21
14.6638297856
  0
LINE
  5
35F
100
AcDbEntity
  8
0
100
AcDbLine
 62
7
  6
CONTINUOUS
 10
-25.385000186
 20
14.1659574464
 11
-25.2875
 21
14.2212765887
  0
LWPOLYLINE
  5
360
100
AcDbEntity
  8
0
100
AcDbPolyline
 62
7
  6
CONTINUOUS
 90
8
 70
0
 10
3.216554293
 20
26.6537478159
 10
3.2387778675
 20
26.6642192592
 10
3.2639639207
 20
26.677905323
 10
3.2920058911
 20
26.6948009456
 10
3.3227642045
 20
26.7151762023
 10
3.3560839639
 20
26.7387470475
 10
3.3917988551
 20
26.7646730125
 10
3.4295706318
 20
26.7928729379
  0
LINE
  5
361
100
AcDbEntity
  8
0
100
AcDbLine
 62
7
  6
CONTINUOUS
 10
-27.441074293
 20
18.611210551
 11
-27.4185353503
 21
18.6182375146
  0
LWPOLYLINE
  5
362
100
AcDbEntity
  8
RACCORDO
100
AcDbPolyline
 62
250
  6
CONTINUOUS
 90
19
 70
0
 10
0.0000010496
 20
-27.3179849785
 10
0.0316098876
 20
-27.317150703
 10
0.0638115416
 20
-27.3145608569
 10
0.0965029892
 20
-27.3101122492
 10
0.1293870763
 20
-27.3037561368
 10
0.1625273134
 20
-27.2953785402
 10
0.1963196663
 20
-27.2846956106
 10
0.2308602577
 20
-27.2714184236
 10
0.2656452843
 20
-27.2554750747
 10
0.3001322304
 20
-27.236882007
 10
0.3341151982
 20
-27.2155304889
 10
0.3673185977
 20
-27.191391743
 10
0.399143781
 20
-27.1647450479
 10
0.4293738926
 20
-27.1356247761
 10
0.457793512
 20
-27.1041142884
 10
0.4839256616
 20
-27.0707164096
 10
0.5075574276
 20
-27.0357314775
 10
0.5286692708
 20
-26.9992006873
 10
0.5471651222
 20
-26.9613127725
  0
LWPOLYLINE
  5
363
100
AcDbEntity
  8
RACCORDO
100
AcDbPolyline
 62
7
  6
CONTINUOUS
 90
28
 70
0
 10
-0.0
 20
-26.7
 10
-0.0160153979
 20
-26.7003423912
 10
-0.0322575488
 20
-26.7019427997
 10
-0.048674032
 20
-26.7047871794
 10
-0.0652427014
 20
-26.7091455973
 10
-0.0818460405
 20
-26.7147105639
 10
-0.0982872168
 20
-26.7206013346
 10
-0.1144261728
 20
-26.7266877281
 10
-0.1302533802
 20
-26.7330598443
 10
-0.1457811849
 20
-26.7391709466
 10
-0.1609186826
 20
-26.7449306219
 10
-0.1755985032
 20
-26.7503868738
 10
-0.1898642453
 20
-26.7551995055
 10
-0.2037164113
 20
-26.7593005294
 10
-0.2169640359
 20
-26.7627068986
 10
-0.2293937776
 20
-26.765213936
 10
-0.2410565295
 20
-26.7666032347
 10
-0.2517973286
 20
-26.7670653161
 10
-0.2612228807
 20
-26.7670434156
 10
-0.2696318405
 20
-26.765964
 10
-0.2768125652
 20
-26.7644239172
 10
-0.2818988902
 20
-26.7647003702
 10
-0.2843565416
 20
-26.7688791541
 10
-0.2852974049
 20
-26.7750292443
 10
-0.28624895
 20
-26.7793823554
 10
-0.2875789858
 20
-26.7806445185
 10
-0.2887709806
 20
-26.7800698524
 10
-0.2897777479
 20
-26.7776457135
  0
LINE
  5
364
100
AcDbEntity
  8
0
100
AcDbLine
 62
250
  6
CONTINUOUS
 10
-21.9438570081
 20
-22.4999616728
 11
-22.0683153138
 21
-22.5022226178
  0
LINE
  5
365
100
AcDbEntity
  8
0
100
AcDbLine
 62
250
  6
CONTINUOUS
 10
22.0339361593
 20
-22.4992607818
 11
21.8346422785
 21
-22.5002641467
  0
LINE
  5
366
100
AcDbEntity
  8
RACCORDO
100
AcDbLine
 62
250
  6
CONTINUOUS
 10
-0.5472336185
 20
-26.9614451099
 11
-3.6467733067
 21
-26.9614797352
  0
LINE
  5
367
100
AcDbEntity
  8
RACCORDO
100
AcDbLine
 62
250
  6
CONTINUOUS
 10
3.6468071625
 20
-26.961349601
 11
0.5471674063
 21
-26.9613167252
  0
LINE
  5
368
100
AcDbEntity
  8
0
100
AcDbLine
 62
250
  6
CONTINUOUS
 10
0.3229453227
 20
-26.6538626393
 11
3.2167321562
 21
-26.6538919378
  0
LINE
  5
369
100
AcDbEntity
  8
0
100
AcDbLine
 62
250
  6
CONTINUOUS
 10
-3.2165510289
 20
-26.653744919
 11
-0.3229889832
 21
-26.653699696
  0
LINE
  5
36A
100
AcDbEntity
  8
RACCORDO
100
AcDbLine
 62
7
  6
CONTINUOUS
 10
0.4043650715
 20
-26.35
 11
3.0911475531
 21
-26.35
  0
LINE
  5
36B
100
AcDbEntity
  8
RACCORDO
100
AcDbLine
 62
7
  6
CONTINUOUS
 10
-0.4043650715
 20
-26.35
 11
-3.0911475531
 21
-26.35
  0
LINE
  5
36C
100
AcDbEntity
  8
RACCORDO
100
AcDbLine
 62
250
  6
CONTINUOUS
 10
-2.6230309556
 20
-26.05
 11
-0.1741669751
 21
-26.05
  0
LINE
  5
36D
100
AcDbEntity
  8
RACCORDO
100
AcDbLine
 62
250
  6
CONTINUOUS
 10
0.1741669751
 20
-26.05
 11
2.6230309556
 21
-26.05
  0
LINE
  5
36E
100
AcDbEntity
  8
RACCORDO
100
AcDbLine
 62
250
  6
CONTINUOUS
 10
2.6230309556
 20
-25.35
 11
-2.6230309556
 21
-25.35
  0
LINE
  5
36F
100
AcDbEntity
  8
DRAFT
100
AcDbLine
 62
7
  6
CONTINUOUS
 10
-2.952266938
 20
-25.05
 11
-2.9234426594
 21
-25.05
  0
LINE
  5
370
100
AcDbEntity
  8
RACCORDO
100
AcDbLine
 62
7
  6
CONTINUOUS
 10
2.9234426594
 20
-25.05
 11
-2.9234426594
 21
-25.05
  0
LINE
  5
371
100
AcDbEntity
  8
DRAFT
100
AcDbLine
 62
7
  6
CONTINUOUS
 10
2.9234426594
 20
-25.05
 11
3.1356941655
 21
-25.05
  0
LINE
  5
372
100
AcDbEntity
  8
0
100
AcDbLine
 62
250
  6
CONTINUOUS
 10
3.649524194
 20
-24.5507853809
 11
-3.6495380442
 21
-24.5506756481
  0
LINE
  5
373
100
AcDbEntity
  8
0
100
AcDbLine
 62
250
  6
CONTINUOUS
 10
-11.05
 20
-22.6
 11
11.0500000007
 21
-22.6
  0
LINE
  5
374
100
AcDbEntity
  8
0
100
AcDbLine
 62
7
  6
CONTINUOUS
 10
-11.05
 20
-22.5
 11
11.05
 21
-22.5
  0
LINE
  5
375
100
AcDbEntity
  8
0
100
AcDbLine
 62
250
  6
CONTINUOUS
 10
-11.2736068339
 20
-22.5000000001
 11
-21.9438570081
 21
-22.4999616728
  0
LINE
  5
376
100
AcDbEntity
  8
0
100
AcDbLine
 62
250
  6
CONTINUOUS
 10
21.8346422785
 20
-22.5002641467
 11
11.2736068368
 21
-22.4999999999
  0
LWPOLYLINE
  5
377
100
AcDbEntity
  8
0
100
AcDbPolyline
 62
250
  6
CONTINUOUS
 90
13
 70
0
 10
-22.0683153138
 20
-22.5022226178
 10
-22.127746398
 20
-22.5013189906
 10
-22.1858888586
 20
-22.4992422611
 10
-22.2420749001
 20
-22.4950554747
 10
-22.2940280174
 20
-22.4836857965
 10
-22.3417067564
 20
-22.4631184042
 10
-22.3851525711
 20
-22.4353681202
 10
-22.422213318
 20
-22.4014065763
 10
-22.4523155037
 20
-22.360793346
 10
-22.4760326216
 20
-22.3139688558
 10
-22.4929330074
 20
-22.2632260167
 10
-22.5010498212
 20
-22.2085759213
 10
-22.5023499029
 20
-22.150007477
  0
LWPOLYLINE
  5
378
100
AcDbEntity
  8
0
100
AcDbPolyline
 62
250
  6
CONTINUOUS
 90
10
 70
0
 10
-11.05
 20
-22.6
 10
-11.078849481
 20
-22.5984661862
 10
-11.1067989884
 20
-22.5944808988
 10
-11.1338485223
 20
-22.5880441378
 10
-11.160132877
 20
-22.5790797042
 10
-11.1855172581
 20
-22.567663797
 10
-11.2095972827
 20
-22.5540250132
 10
-11.2322381564
 20
-22.538239552
 10
-11.2535746734
 20
-22.5202312143
 10
-11.2736068339
 20
-22.5000000001
  0
LINE
  5
379
100
AcDbEntity
  8
RACCORDO
100
AcDbLine
 62
250
  6
CONTINUOUS
 10
-0.0
 20
-26.7
 11
0.2897777479
 21
-26.7776457135
  0
LWPOLYLINE
  5
37A
100
AcDbEntity
  8
0
100
AcDbPolyline
 62
7
  6
CONTINUOUS
 90
4
 70
0
 10
-28.1530624748
 20
-15.5903337344
 10
-28.0933334542
 20
-15.6070044743
 10
-28.0358558416
 20
-15.6311536386
 10
-27.9818994636
 20
-15.6629361733
  0
LWPOLYLINE
  5
37B
100
AcDbEntity
  8
0
100
AcDbPolyline
 62
7
  6
CONTINUOUS
 90
7
 70
0
 10
3.2167321562
 20
-26.6538919378
 10
3.1979367691
 20
-26.6459139476
 10
3.1820977154
 20
-26.637653746
 10
3.169214995
 20
-26.6291113331
 10
3.159288608
 20
-26.6202867087
 10
3.1523185543
 20
-26.6111798731
 10
3.148304834
 20
-26.601790826
  0
LINE
  5
37C
100
AcDbEntity
  8
0
100
AcDbLine
 62
7
  6
CONTINUOUS
 10
-0.1083332539
 20
-32.2574468099
 11
-0.3166667461
 21
-32.1297872394
  0
LINE
  5
37D
100
AcDbEntity
  8
0
100
AcDbLine
 62
7
  6
CONTINUOUS
 10
0.5166667461
 20
-31.0659574747
 11
0.725
 21
-31.193617034
  0
LINE
  5
37E
100
AcDbEntity
  8
0
100
AcDbLine
 62
7
  6
CONTINUOUS
 10
0.475
 20
-30.3425531864
 11
0.6833334923
 21
-30.4702127457
  0
LINE
  5
37F
100
AcDbEntity
  8
0
100
AcDbLine
 62
7
  6
CONTINUOUS
 10
-0.1916667461
 20
-31.9595744789
 11
-0.0666667461
 21
-32.0446808517
  0
LINE
  5
380
100
AcDbEntity
  8
0
100
AcDbLine
 62
7
  6
CONTINUOUS
 10
0.6
 20
-31.3638297796
 11
0.475
 21
-31.2787234068
  0
LINE
  5
381
100
AcDbEntity
  8
0
100
AcDbLine
 62
7
  6
CONTINUOUS
 10
0.5583332539
 20
-30.6404254913
 11
0.4333332539
 21
-30.5553191185
  0
LINE
  5
382
100
AcDbEntity
  8
0
100
AcDbLine
 62
7
  6
CONTINUOUS
 10
-3.1501227818
 20
-25.0494116077
 11
-3.159657984
 21
-25.0420995791
  0
LINE
  5
383
100
AcDbEntity
  8
0
100
AcDbLine
 62
7
  6
CONTINUOUS
 10
0.6833334923
 20
-31.4489361525
 11
0.6
 21
-31.3638297796
  0
LINE
  5
384
100
AcDbEntity
  8
0
100
AcDbLine
 62
7
  6
CONTINUOUS
 10
0.725
 20
-31.193617034
 11
0.85
 21
-31.3212765932
  0
LINE
  5
385
100
AcDbEntity
  8
0
100
AcDbLine
 62
7
  6
CONTINUOUS
 10
-31.3324999535
 20
14.1936170176
 11
-31.3812500465
 21
14.3042553216
  0
LINE
  5
386
100
AcDbEntity
  8
0
100
AcDbLine
 62
7
  6
CONTINUOUS
 10
-30.26
 20
14.1936170176
 11
-30.3087499535
 21
14.3042553216
  0
LINE
  5
387
100
AcDbEntity
  8
0
100
AcDbLine
 62
7
  6
CONTINUOUS
 10
-30.6500000465
 20
15.1063830018
 11
-30.6012499535
 21
14.9957447171
  0
LINE
  5
388
100
AcDbEntity
  8
0
100
AcDbLine
 62
7
  6
CONTINUOUS
 10
-28.456249907
 20
14.6085106432
 11
-28.407500093
 21
14.4702127486
  0
LINE
  5
389
100
AcDbEntity
  8
0
100
AcDbLine
 62
7
  6
CONTINUOUS
 10
-32.015
 20
15.3
 11
-31.6250000232
 21
14.0
  0
LINE
  5
38A
100
AcDbEntity
  8
0
100
AcDbLine
 62
7
  6
CONTINUOUS
 10
-31.7712500232
 20
14.0
 11
-31.86875
 21
14.3319148928
  0
LINE
  5
38B
100
AcDbEntity
  8
0
100
AcDbLine
 62
7
  6
CONTINUOUS
 10
-31.8931249768
 20
14.4425531775
 11
-32.1125000116
 21
15.1893617153
  0
LINE
  5
38C
100
AcDbEntity
  8
0
100
AcDbLine
 62
7
  6
CONTINUOUS
 10
-31.3812500465
 20
14.3042553216
 11
-31.4056249535
 21
14.3872340351
  0
LINE
  5
38D
100
AcDbEntity
  8
0
100
AcDbLine
 62
7
  6
CONTINUOUS
 10
-30.6012499535
 20
14.9957447171
 11
-30.5768750465
 21
14.9127659261
  0
LINE
  5
38E
100
AcDbEntity
  8
0
100
AcDbLine
 62
7
  6
CONTINUOUS
 10
-30.3087499535
 20
14.3042553216
 11
-30.333125
 21
14.3872340351
  0
LINE
  5
38F
100
AcDbEntity
  8
0
100
AcDbLine
 62
7
  6
CONTINUOUS
 10
-29.52875
 20
14.9957447171
 11
-29.504375093
 21
14.9127659261
  0
LINE
  5
390
100
AcDbEntity
  8
0
100
AcDbLine
 62
7
  6
CONTINUOUS
 10
-28.529374907
 20
14.4425531775
 11
-28.553750093
 21
14.5255319297
  0
LINE
  5
391
100
AcDbEntity
  8
0
100
AcDbLine
 62
7
  6
CONTINUOUS
 10
-27.359375186
 20
15.1063830018
 11
-27.335
 21
14.9957447171
  0
LWPOLYLINE
  5
392
100
AcDbEntity
  8
0
100
AcDbPolyline
 62
7
  6
CONTINUOUS
 90
13
 70
0
 10
-26.9340505054
 20
18.2519887617
 10
-26.9406715487
 20
18.2852228227
 10
-26.9510070345
 20
18.3171202084
 10
-26.9652990795
 20
18.3469765503
 10
-26.9835013672
 20
18.3740662542
 10
-27.0051715138
 20
18.3978443266
 10
-27.0300004096
 20
18.417896858
 10
-27.057290162
 20
18.4339601114
 10
-27.0863391509
 20
18.4463232486
 10
-27.1169422939
 20
18.4553564014
 10
-27.1487947063
 20
18.4613067367
 10
-27.1814303549
 20
18.4645314829
 10
-27.214550926
 20
18.4654964809
  0
LINE
  5
393
100
AcDbEntity
  8
0
100
AcDbLine
 62
7
  6
CONTINUOUS
 10
-31.4056249535
 20
14.3872340351
 11
-31.43
 21
14.5255319297
  0
LINE
  5
394
100
AcDbEntity
  8
0
100
AcDbLine
 62
7
  6
CONTINUOUS
 10
-30.5768750465
 20
14.9127659261
 11
-30.5525
 21
14.7744680703
  0
LINE
  5
395
100
AcDbEntity
  8
0
100
AcDbLine
 62
7
  6
CONTINUOUS
 10
-30.333125
 20
14.3872340351
 11
-30.3575000465
 21
14.5255319297
  0
LINE
  5
396
100
AcDbEntity
  8
0
100
AcDbLine
 62
7
  6
CONTINUOUS
 10
-29.504375093
 20
14.9127659261
 11
-29.479999907
 21
14.7744680703
  0
LWPOLYLINE
  5
397
100
AcDbEntity
  8
0
100
AcDbPolyline
 62
7
  6
CONTINUOUS
 90
25
 70
0
 10
-27.5249207052
 20
17.7480112383
 10
-27.5202344717
 20
17.720684537
 10
-27.5138089754
 20
17.6939274167
 10
-27.5055059031
 20
17.6679801547
 10
-27.4952237994
 20
17.6431232214
 10
-27.4828412224
 20
17.6195091493
 10
-27.46831028
 20
17.5972183555
 10
-27.4518511043
 20
17.5766163877
 10
-27.4335367942
 20
17.5578578153
 10
-27.4130589855
 20
17.5408625572
 10
-27.3905294452
 20
17.5258981786
 10
-27.3661848918
 20
17.5131195789
 10
-27.339785728
 20
17.5024004034
 10
-27.3113862033
 20
17.4937560584
 10
-27.2814147844
 20
17.4872708814
 10
-27.250145832
 20
17.4828797657
 10
-27.217513569
 20
17.4804636566
 10
-27.1838719421
 20
17.4799128137
 10
-27.1501363141
 20
17.481086432
 10
-27.1163850471
 20
17.4841857168
 10
-27.0827995975
 20
17.4896545868
 10
-27.0505395563
 20
17.4977966961
 10
-27.0202683067
 20
17.5088587209
 10
-26.9922479299
 20
17.5232608607
 10
-26.9672365204
 20
17.5410786625
  0
LINE
  5
398
100
AcDbEntity
  8
0
100
AcDbLine
 62
7
  6
CONTINUOUS
 10
-30.6743749535
 20
14.7468084991
 11
-30.69875
 21
14.9127659261
  0
LINE
  5
399
100
AcDbEntity
  8
0
100
AcDbLine
 62
7
  6
CONTINUOUS
 10
-30.235625093
 20
14.5531915009
 11
-30.211249907
 21
14.3872340351
  0
LINE
  5
39A
100
AcDbEntity
  8
0
100
AcDbLine
 62
7
  6
CONTINUOUS
 10
-29.601875
 20
14.7468084991
 11
-29.626249907
 21
14.9127659261
  0
LWPOLYLINE
  5
39B
100
AcDbEntity
  8
0
100
AcDbPolyline
 62
7
  6
CONTINUOUS
 90
3
 70
0
 10
-26.1387155056
 20
18.2617040884
 10
-26.124061158
 20
18.1310412534
 10
-26.1191588786
 20
17.9999857075
  0
LINE
  5
39C
100
AcDbEntity
  8
0
100
AcDbLine
 62
7
  6
CONTINUOUS
 10
-29.430961
 20
-20.0585
 11
-29.561588
 21
-20.422479
  0
LINE
  5
39D
100
AcDbEntity
  8
0
100
AcDbLine
 62
7
  6
CONTINUOUS
 10
-29.176712
 20
-19.353941
 11
-29.37879
 21
-19.908865
  0
LINE
  5
39E
100
AcDbEntity
  8
0
100
AcDbLine
 62
7
  6
CONTINUOUS
 10
-29.735691
 20
-20.422479
 11
-29.265553
 21
-19.171808
  0
LWPOLYLINE
  5
39F
100
AcDbEntity
  8
0
100
AcDbPolyline
 62
7
  6
CONTINUOUS
 90
7
 70
0
 10
-27.7949131803
 20
-16.4905284745
 10
-27.8143478727
 20
-16.5374257553
 10
-27.8378356091
 20
-16.5828618793
 10
-27.8654302735
 20
-16.6260037087
 10
-27.8968997829
 20
-16.6659782853
 10
-27.932277825
 20
-16.7023123215
 10
-27.971738078
 20
-16.7345931325
  0
LWPOLYLINE
  5
3A0
100
AcDbEntity
  8
0
100
AcDbPolyline
 62
7
  6
CONTINUOUS
 90
8
 70
0
 10
-27.9935342038
 20
-16.519288296
 10
-27.97379963
 20
-16.482277618
 10
-27.9570749105
 20
-16.4412576533
 10
-27.9441737118
 20
-16.3974436357
 10
-27.934938736
 20
-16.3513134884
 10
-27.9284857665
 20
-16.3032629399
 10
-27.9243098949
 20
-16.2535694081
 10
-27.9228051766
 20
-16.2023474222
  0
LWPOLYLINE
  5
3A1
100
AcDbEntity
  8
RACCORDO
100
AcDbPolyline
 62
7
  6
CONTINUOUS
 90
10
 70
0
 10
0.5472308068
 20
26.9614415339
 10
0.5244396845
 20
26.9261952108
 10
0.5014863351
 20
26.8927534949
 10
0.4787763381
 20
26.8612698917
 10
0.4568426954
 20
26.8316800907
 10
0.4357578578
 20
26.8040858884
 10
0.4152859162
 20
26.7787670444
 10
0.395715058
 20
26.7553896997
 10
0.3773121894
 20
26.7339688191
 10
0.3600741307
 20
26.7151372069
  0
LWPOLYLINE
  5
3A2
100
AcDbEntity
  8
RACCORDO
100
AcDbPolyline
 62
7
  6
CONTINUOUS
 90
6
 70
0
 10
-2.9226198161
 20
25.0504111396
 10
-2.9128699126
 20
25.0644206665
 10
-2.8920847483
 20
25.0843110698
 10
-2.8629486062
 20
25.1100823494
 10
-2.8285072095
 20
25.1431496326
 10
-2.7908362814
 20
25.1820977921
  0
LWPOLYLINE
  5
3A3
100
AcDbEntity
  8
RACCORDO
100
AcDbPolyline
 62
7
  6
CONTINUOUS
 90
10
 70
0
 10
0.1741669751
 20
26.05
 10
0.2086462029
 20
26.0973114205
 10
0.2439287273
 20
26.1428632168
 10
0.2787705767
 20
26.1863220678
 10
0.3112487832
 20
26.228403858
 10
0.3404491877
 20
26.2676324969
 10
0.3662060045
 20
26.3002701357
 10
0.3869904461
 20
26.3246759947
 10
0.4003275483
 20
26.3414180515
 10
0.4043650715
 20
26.35
  0
LINE
  5
3A4
100
AcDbEntity
  8
RACCORDO
100
AcDbLine
 62
7
  6
CONTINUOUS
 10
0.3600741307
 20
26.7151372069
 11
0.3302751955
 21
26.6843706257
  0
LWPOLYLINE
  5
3A5
100
AcDbEntity
  8
0
100
AcDbPolyline
 62
7
  6
CONTINUOUS
 90
6
 70
0
 10
-3.2494240636
 20
24.9509933474
 10
-3.219714203
 20
24.9812334237
 10
-3.1937719823
 20
25.0064149917
 10
-3.1726334394
 20
25.0257848209
 10
-3.157679695
 20
25.0401121534
 10
-3.1501227792
 20
25.049411622
  0
LWPOLYLINE
  5
3A6
100
AcDbEntity
  8
0
100
AcDbPolyline
 62
7
  6
CONTINUOUS
 90
5
 70
0
 10
-3.6495380442
 20
24.5506756492
 10
-3.6073974527
 20
24.5935185432
 10
-3.5647222457
 20
24.636155642
 10
-3.5218561267
 20
24.6785819057
 10
-3.4372161561
 20
24.7635490643
  0
LWPOLYLINE
  5
3A7
100
AcDbEntity
  8
0
100
AcDbPolyline
 62
7
  6
CONTINUOUS
 90
3
 70
0
 10
-3.3563202447
 20
24.8442048482
 10
-3.3184505835
 20
24.8824753644
 10
-3.2494240636
 20
24.9509933474
  0
LWPOLYLINE
  5
3A8
100
AcDbEntity
  8
RACCORDO
100
AcDbPolyline
 62
7
  6
CONTINUOUS
 90
5
 70
0
 10
-2.7908362814
 20
25.1820977921
 10
-2.7503495089
 20
25.2226814468
 10
-2.7078423241
 20
25.2634854694
 10
-2.6650467489
 20
25.3059249871
 10
-2.6230309556
 20
25.35
  0
LINE
  5
3A9
100
AcDbEntity
  8
0
100
AcDbLine
 62
7
  6
CONTINUOUS
 10
-3.4372161561
 20
24.7635490643
 11
-3.3563202447
 21
24.8442048482
  0
LWPOLYLINE
  5
3AA
100
AcDbEntity
  8
0
100
AcDbPolyline
 62
7
  6
CONTINUOUS
 90
4
 70
0
 10
3.4295706318
 20
26.7928729379
 10
3.5548913108
 20
26.8892741702
 10
3.6002370118
 20
26.9245709111
 10
3.6467741724
 20
26.9614782987
  0
LWPOLYLINE
  5
3AB
100
AcDbEntity
  8
RACCORDO
100
AcDbPolyline
 62
7
  6
CONTINUOUS
 90
10
 70
0
 10
2.9226198161
 20
26.3495888604
 10
2.9086102892
 20
26.3398389569
 10
2.8887198859
 20
26.3190537926
 10
2.8629486062
 20
26.2899176506
 10
2.8298813231
 20
26.2554762539
 10
2.7909331635
 20
26.2178053258
 10
2.7503495089
 20
26.1773185532
 10
2.7095454862
 20
26.1348113685
 10
2.6671059685
 20
26.0920157932
 10
2.6230309556
 20
26.05
  0
LWPOLYLINE
  5
3AC
100
AcDbEntity
  8
0
100
AcDbPolyline
 62
7
  6
CONTINUOUS
 90
3
 70
0
 10
-28.2969151995
 20
-16.6826
 10
-28.2479192201
 20
-16.6800027942
 10
-28.2004731754
 20
-16.6720635249
  0
LINE
  5
3AD
100
AcDbEntity
  8
0
100
AcDbLine
 62
7
  6
CONTINUOUS
 10
-27.226566
 20
-20.422479
 11
-27.395411
 21
-20.422479
  0
LINE
  5
3AE
100
AcDbEntity
  8
0
100
AcDbLine
 62
7
  6
CONTINUOUS
 10
-27.663643
 20
-20.422479
 11
-28.466317
 21
-20.422479
  0
LINE
  5
3AF
100
AcDbEntity
  8
0
100
AcDbLine
 62
7
  6
CONTINUOUS
 10
-28.621311
 20
-20.422479
 11
-28.805828
 21
-20.422479
  0
LINE
  5
3B0
100
AcDbEntity
  8
0
100
AcDbLine
 62
7
  6
CONTINUOUS
 10
-29.561588
 20
-20.422479
 11
-29.735691
 21
-20.422479
  0
LINE
  5
3B1
100
AcDbEntity
  8
0
100
AcDbLine
 62
7
  6
CONTINUOUS
 10
-30.207549
 20
-20.422479
 11
-30.376395
 21
-20.422479
  0
LINE
  5
3B2
100
AcDbEntity
  8
0
100
AcDbLine
 62
7
  6
CONTINUOUS
 10
-30.9807
 20
-20.422479
 11
-31.149646
 21
-20.422479
  0
LINE
  5
3B3
100
AcDbEntity
  8
0
100
AcDbLine
 62
7
  6
CONTINUOUS
 10
-28.297471
 20
-20.272843
 11
-27.663643
 21
-20.272843
  0
LINE
  5
3B4
100
AcDbEntity
  8
0
100
AcDbLine
 62
7
  6
CONTINUOUS
 10
-28.929479
 20
-20.0585
 11
-29.430961
 21
-20.0585
  0
LINE
  5
3B5
100
AcDbEntity
  8
0
100
AcDbLine
 62
7
  6
CONTINUOUS
 10
-29.37879
 20
-19.908865
 11
-28.990446
 21
-19.908865
  0
LINE
  5
3B6
100
AcDbEntity
  8
0
100
AcDbLine
 62
7
  6
CONTINUOUS
 10
-29.784424
 20
-19.321444
 11
-30.207549
 21
-19.321444
  0
LINE
  5
3B7
100
AcDbEntity
  8
0
100
AcDbLine
 62
7
  6
CONTINUOUS
 10
-30.376395
 20
-19.321444
 11
-30.799519
 21
-19.321444
  0
LINE
  5
3B8
100
AcDbEntity
  8
0
100
AcDbLine
 62
7
  6
CONTINUOUS
 10
-31.149646
 20
-19.171808
 11
-30.9807
 21
-19.171808
  0
LINE
  5
3B9
100
AcDbEntity
  8
0
100
AcDbLine
 62
7
  6
CONTINUOUS
 10
-30.799519
 20
-19.171808
 11
-29.784424
 21
-19.171808
  0
LINE
  5
3BA
100
AcDbEntity
  8
0
100
AcDbLine
 62
7
  6
CONTINUOUS
 10
-29.265553
 20
-19.171808
 11
-29.07406
 21
-19.171808
  0
LINE
  5
3BB
100
AcDbEntity
  8
0
100
AcDbLine
 62
7
  6
CONTINUOUS
 10
-28.466317
 20
-19.171808
 11
-28.297471
 21
-19.171808
  0
LINE
  5
3BC
100
AcDbEntity
  8
0
100
AcDbLine
 62
7
  6
CONTINUOUS
 10
-27.86737
 20
-19.171808
 11
-27.670619
 21
-19.171808
  0
LINE
  5
3BD
100
AcDbEntity
  8
0
100
AcDbLine
 62
7
  6
CONTINUOUS
 10
-26.953177
 20
-19.171808
 11
-26.754708
 21
-19.171808
  0
LINE
  5
3BE
100
AcDbEntity
  8
0
100
AcDbLine
 62
7
  6
CONTINUOUS
 10
-28.28089
 20
-18.62483
 11
-28.470664
 21
-18.62483
  0
LINE
  5
3BF
100
AcDbEntity
  8
0
100
AcDbLine
 62
7
  6
CONTINUOUS
 10
-29.109649
 20
-18.62483
 11
-29.273439
 21
-18.62483
  0
LINE
  5
3C0
100
AcDbEntity
  8
0
100
AcDbLine
 62
7
  6
CONTINUOUS
 10
-29.562397
 20
-18.62483
 11
-29.731344
 21
-18.62483
  0
LINE
  5
3C1
100
AcDbEntity
  8
0
100
AcDbLine
 62
7
  6
CONTINUOUS
 10
32.117556
 20
-18.375
 11
30.657055
 21
-18.375
  0
LINE
  5
3C2
100
AcDbEntity
  8
0
100
AcDbLine
 62
7
  6
CONTINUOUS
 10
30.657051888
 20
-17.625
 11
32.117556
 21
-17.625
  0
LINE
  5
3C3
100
AcDbEntity
  8
0
100
AcDbLine
 62
7
  6
CONTINUOUS
 10
-29.731344
 20
-17.37517
 11
-29.562397
 21
-17.37517
  0
LINE
  5
3C4
100
AcDbEntity
  8
0
100
AcDbLine
 62
7
  6
CONTINUOUS
 10
-29.273439
 20
-17.37517
 11
-29.07315
 21
-17.37517
  0
LINE
  5
3C5
100
AcDbEntity
  8
0
100
AcDbLine
 62
7
  6
CONTINUOUS
 10
-28.444478
 20
-17.37517
 11
-28.28089
 21
-17.37517
  0
LINE
  5
3C6
100
AcDbEntity
  8
0
100
AcDbLine
 62
7
  6
CONTINUOUS
 10
-26.592738
 20
-16.827181
 11
-27.515625
 21
-16.827181
  0
LINE
  5
3C7
100
AcDbEntity
  8
0
100
AcDbLine
 62
7
  6
CONTINUOUS
 10
-28.2748235404
 20
-16.827181
 11
-28.781461
 21
-16.827181
  0
LINE
  5
3C8
100
AcDbEntity
  8
0
100
AcDbLine
 62
7
  6
CONTINUOUS
 10
-28.94515
 20
-16.827181
 11
-29.129667
 21
-16.827181
  0
LINE
  5
3C9
100
AcDbEntity
  8
0
100
AcDbLine
 62
7
  6
CONTINUOUS
 10
-29.885428
 20
-16.827181
 11
-30.059531
 21
-16.827181
  0
LINE
  5
3CA
100
AcDbEntity
  8
0
100
AcDbLine
 62
7
  6
CONTINUOUS
 10
-30.209268
 20
-16.827181
 11
-30.372957
 21
-16.827181
  0
LINE
  5
3CB
100
AcDbEntity
  8
0
100
AcDbLine
 62
7
  6
CONTINUOUS
 10
-30.724702
 20
-16.827181
 11
-30.891828
 21
-16.827181
  0
LINE
  5
3CC
100
AcDbEntity
  8
0
100
AcDbLine
 62
7
  6
CONTINUOUS
 10
-31.243573
 20
-16.827181
 11
-31.407262
 21
-16.827181
  0
LINE
  5
3CD
100
AcDbEntity
  8
0
100
AcDbLine
 62
7
  6
CONTINUOUS
 10
-28.612616
 20
-16.6826
 11
-28.2969151995
 21
-16.6826
  0
LINE
  5
3CE
100
AcDbEntity
  8
0
100
AcDbLine
 62
7
  6
CONTINUOUS
 10
-27.346679
 20
-16.677545
 11
-26.592738
 21
-16.677545
  0
LINE
  5
3CF
100
AcDbEntity
  8
0
100
AcDbLine
 62
7
  6
CONTINUOUS
 10
-29.253319
 20
-16.463202
 11
-29.7548
 21
-16.463202
  0
LINE
  5
3D0
100
AcDbEntity
  8
0
100
AcDbLine
 62
7
  6
CONTINUOUS
 10
-29.702529
 20
-16.313567
 11
-29.314285
 21
-16.313567
  0
LINE
  5
3D1
100
AcDbEntity
  8
0
100
AcDbLine
 62
7
  6
CONTINUOUS
 10
-26.662399
 20
-16.259981
 11
-27.346679
 21
-16.259981
  0
LINE
  5
3D2
100
AcDbEntity
  8
0
100
AcDbLine
 62
7
  6
CONTINUOUS
 10
-27.346679
 20
-16.110345
 11
-26.662399
 21
-16.110345
  0
LINE
  5
3D3
100
AcDbEntity
  8
0
100
AcDbLine
 62
7
  6
CONTINUOUS
 10
-26.604971
 20
-15.727157
 11
-27.346679
 21
-15.727157
  0
LINE
  5
3D4
100
AcDbEntity
  8
0
100
AcDbLine
 62
7
  6
CONTINUOUS
 10
-28.2969152317
 20
-15.722102
 11
-28.612616
 21
-15.722102
  0
LINE
  5
3D5
100
AcDbEntity
  8
0
100
AcDbLine
 62
7
  6
CONTINUOUS
 10
-31.407262
 20
-15.577521
 11
-31.165217
 21
-15.577521
  0
LINE
  5
3D6
100
AcDbEntity
  8
0
100
AcDbLine
 62
7
  6
CONTINUOUS
 10
-30.449595
 20
-15.577521
 11
-30.209268
 21
-15.577521
  0
LINE
  5
3D7
100
AcDbEntity
  8
0
100
AcDbLine
 62
7
  6
CONTINUOUS
 10
-29.589392
 20
-15.577521
 11
-29.397899
 21
-15.577521
  0
LINE
  5
3D8
100
AcDbEntity
  8
0
100
AcDbLine
 62
7
  6
CONTINUOUS
 10
-28.781461
 20
-15.577521
 11
-28.2748235404
 21
-15.577521
  0
LINE
  5
3D9
100
AcDbEntity
  8
0
100
AcDbLine
 62
7
  6
CONTINUOUS
 10
-27.515625
 20
-15.577521
 11
-26.604971
 21
-15.577521
  0
LWPOLYLINE
  5
3DA
100
AcDbEntity
  8
0
100
AcDbPolyline
 62
7
  6
CONTINUOUS
 90
3
 70
0
 10
-28.2748235404
 20
-15.5775213701
 10
-28.2139394469
 20
-15.5806527286
 10
-28.1530624748
 20
-15.5903337344
  0
LWPOLYLINE
  5
3DB
100
AcDbEntity
  8
RACCORDO
100
AcDbPolyline
 62
7
  6
CONTINUOUS
 90
10
 70
0
 10
2.9226198161
 20
-26.3495888604
 10
2.9086102892
 20
-26.3398389569
 10
2.8887198859
 20
-26.3190537926
 10
2.8629486062
 20
-26.2899176506
 10
2.8298813231
 20
-26.2554762539
 10
2.7909331635
 20
-26.2178053258
 10
2.7503495089
 20
-26.1773185532
 10
2.7095454862
 20
-26.1348113685
 10
2.6671059685
 20
-26.0920157932
 10
2.6230309556
 20
-26.05
  0
LWPOLYLINE
  5
3DC
100
AcDbEntity
  8
0
100
AcDbPolyline
 62
7
  6
CONTINUOUS
 90
8
 70
0
 10
3.4297189786
 20
-26.7928830245
 10
3.3919627007
 20
-26.764706548
 10
3.3562606003
 20
-26.7388055365
 10
3.322950116
 20
-26.7152589446
 10
3.2921966754
 20
-26.6949048327
 10
3.2641548927
 20
-26.6780262886
 10
3.2389645178
 20
-26.6643536973
 10
3.2167321562
 20
-26.6538919378
  0
LINE
  5
3DD
100
AcDbEntity
  8
0
100
AcDbLine
 62
7
  6
CONTINUOUS
 10
3.5549767739
 20
-26.8892067309
 11
3.4297189786
 21
-26.7928830245
  0
LWPOLYLINE
  5
3DE
100
AcDbEntity
  8
0
100
AcDbPolyline
 62
7
  6
CONTINUOUS
 90
3
 70
0
 10
3.6468071625
 20
-26.9613497434
 10
3.6002968801
 20
-26.924473402
 10
3.5549767739
 20
-26.8892067309
  0
LINE
  5
3DF
100
AcDbEntity
  8
0
100
AcDbLine
 62
7
  6
CONTINUOUS
 10
-3.2191070358
 20
-24.9806221351
 11
-3.2494566601
 21
-24.9510224919
  0
LINE
  5
3E0
100
AcDbEntity
  8
0
100
AcDbLine
 62
7
  6
CONTINUOUS
 10
-3.2494566601
 20
-24.9510224919
 11
-3.2825516936
 21
-24.9179718664
  0
LWPOLYLINE
  5
3E1
100
AcDbEntity
  8
RACCORDO
100
AcDbPolyline
 62
7
  6
CONTINUOUS
 90
5
 70
0
 10
-2.7908362814
 20
-25.1820977921
 10
-2.7503495089
 20
-25.2226814468
 10
-2.7078423241
 20
-25.2634854694
 10
-2.6650467489
 20
-25.3059249871
 10
-2.6230309556
 20
-25.35
  0
LWPOLYLINE
  5
3E2
100
AcDbEntity
  8
0
100
AcDbPolyline
 62
7
  6
CONTINUOUS
 90
7
 70
0
 10
-3.3563822937
 20
-24.8442649549
 10
-3.4369969011
 20
-24.7633312916
 10
-3.4793235033
 20
-24.7212585024
 10
-3.5218571946
 20
-24.6785828034
 10
-3.5642103898
 20
-24.6356476898
 10
-3.6067706732
 20
-24.5928965816
 10
-3.6495380442
 20
-24.5506756481
  0
LWPOLYLINE
  5
3E3
100
AcDbEntity
  8
0
100
AcDbPolyline
 62
7
  6
CONTINUOUS
 90
3
 70
0
 10
-3.2825516936
 20
-24.9179718664
 10
-3.3180942891
 20
-24.8821191656
 10
-3.3563822937
 20
-24.8442649549
  0
LINE
  5
3E4
100
AcDbEntity
  8
0
100
AcDbLine
 62
7
  6
CONTINUOUS
 10
-3.159657984
 20
-25.0420995791
 11
-3.1742076983
 21
-25.0273654426
  0
LINE
  5
3E5
100
AcDbEntity
  8
0
100
AcDbLine
 62
7
  6
CONTINUOUS
 10
-3.1937719258
 20
-25.0064148388
 11
-3.2191070358
 21
-24.9806221351
  0
LWPOLYLINE
  5
3E6
100
AcDbEntity
  8
RACCORDO
100
AcDbPolyline
 62
7
  6
CONTINUOUS
 90
5
 70
0
 10
0.3313374397
 20
-26.6856181791
 10
0.3639716087
 20
-26.7193564006
 10
0.382953088
 20
-26.7402157549
 10
0.4031279376
 20
-26.76400442
 10
0.4240569432
 20
-26.7895044555
  0
LINE
  5
3E7
100
AcDbEntity
  8
0
100
AcDbLine
 62
7
  6
CONTINUOUS
 10
-3.1742076983
 20
-25.0273654426
 11
-3.1937719258
 21
-25.0064148388
  0
LINE
  5
3E8
100
AcDbEntity
  8
RACCORDO
100
AcDbLine
 62
7
  6
CONTINUOUS
 10
0.3182326665
 20
-26.6714505117
 11
0.3313374397
 21
-26.6856181791
  0
LINE
  5
3E9
100
AcDbEntity
  8
0
100
AcDbLine
 62
7
  6
CONTINUOUS
 10
-31.2593749535
 20
14.1106382944
 11
-31.3324999535
 21
14.1936170176
  0
LWPOLYLINE
  5
3EA
100
AcDbEntity
  8
RACCORDO
100
AcDbPolyline
 62
7
  6
CONTINUOUS
 90
10
 70
0
 10
0.1741669751
 20
-26.05
 10
0.2109424172
 20
-26.0955494733
 10
0.2458102844
 20
-26.1414194472
 10
0.2787705767
 20
-26.1863220678
 10
0.3110124863
 20
-26.2285851749
 10
0.341346821
 20
-26.2669437187
 10
0.3662060045
 20
-26.3002701357
 10
0.3844008447
 20
-26.3266630657
 10
0.3971205337
 20
-26.3438788804
 10
0.4043650715
 20
-26.35
  0
LWPOLYLINE
  5
3EB
100
AcDbEntity
  8
RACCORDO
100
AcDbPolyline
 62
7
  6
CONTINUOUS
 90
6
 70
0
 10
0.4240569432
 20
-26.7895044555
 10
0.4455547106
 20
-26.8164941615
 10
0.4671613264
 20
-26.8451863254
 10
0.4882991086
 20
-26.8744783301
 10
0.5087083044
 20
-26.9036828214
 10
0.5283519678
 20
-26.9327526451
  0
LINE
  5
3EC
100
AcDbEntity
  8
0
100
AcDbLine
 62
7
  6
CONTINUOUS
 10
-0.3166667461
 20
-32.1297872394
 11
-0.4416667461
 21
-31.9595744789
  0
LINE
  5
3ED
100
AcDbEntity
  8
0
100
AcDbLine
 62
7
  6
CONTINUOUS
 10
0.6833334923
 20
-30.4702127457
 11
0.8083334923
 21
-30.6404254913
  0
LWPOLYLINE
  5
3EE
100
AcDbEntity
  8
RACCORDO
100
AcDbPolyline
 62
7
  6
CONTINUOUS
 90
6
 70
0
 10
-2.9226198161
 20
-25.0504111396
 10
-2.9128699126
 20
-25.0644206665
 10
-2.8920847483
 20
-25.0843110698
 10
-2.8629486062
 20
-25.1100823494
 10
-2.8285072095
 20
-25.1431496326
 10
-2.7908362814
 20
-25.1820977921
  0
LINE
  5
3EF
100
AcDbEntity
  8
0
100
AcDbLine
 62
7
  6
CONTINUOUS
 10
-29.163125
 20
14.1106382944
 11
-29.23625
 21
14.2212765887
  0
LINE
  5
3F0
100
AcDbEntity
  8
0
100
AcDbLine
 62
7
  6
CONTINUOUS
 10
-28.529374907
 20
14.7191489279
 11
-28.456249907
 21
14.6085106432
  0
LINE
  5
3F1
100
AcDbEntity
  8
RACCORDO
100
AcDbLine
 62
7
  6
CONTINUOUS
 10
0.5283519678
 20
-26.9327526451
 11
0.5471651222
 21
-26.9613127725
  0
LINE
  5
3F2
100
AcDbEntity
  8
0
100
AcDbLine
 62
7
  6
CONTINUOUS
 10
-0.275
 20
-31.8319148898
 11
-0.1916667461
 21
-31.9595744789
  0
LINE
  5
3F3
100
AcDbEntity
  8
0
100
AcDbLine
 62
7
  6
CONTINUOUS
 10
0.6416665077
 20
-30.7680850506
 11
0.5583332539
 21
-30.6404254913
  0
LINE
  5
3F4
100
AcDbEntity
  8
0
100
AcDbLine
 62
7
  6
CONTINUOUS
 10
-31.28375
 20
14.3872340351
 11
-31.1862499535
 21
14.2212765887
  0
LINE
  5
3F5
100
AcDbEntity
  8
0
100
AcDbLine
 62
7
  6
CONTINUOUS
 10
-30.69875
 20
14.9127659261
 11
-30.7962500465
 21
15.0787234306
  0
LINE
  5
3F6
100
AcDbEntity
  8
0
100
AcDbLine
 62
7
  6
CONTINUOUS
 10
-30.211249907
 20
14.3872340351
 11
-30.11375
 21
14.2212765887
  0
LINE
  5
3F7
100
AcDbEntity
  8
0
100
AcDbLine
 62
7
  6
CONTINUOUS
 10
-29.626249907
 20
14.9127659261
 11
-29.723750093
 21
15.0787234306
  0
LINE
  5
3F8
100
AcDbEntity
  8
0
100
AcDbLine
 62
7
  6
CONTINUOUS
 10
-28.553750093
 20
14.5255319297
 11
-28.602499907
 21
14.6085106432
  0
LINE
  5
3F9
100
AcDbEntity
  8
0
100
AcDbLine
 62
7
  6
CONTINUOUS
 10
-27.48125
 20
14.9957447171
 11
-27.529999814
 21
15.0787234306
  0
LINE
  5
3FA
100
AcDbEntity
  8
0
100
AcDbLine
 62
7
  6
CONTINUOUS
 10
-25.823750186
 20
14.9127659261
 11
-25.774999814
 21
14.8297872126
  0
LINE
  5
3FB
100
AcDbEntity
  8
0
100
AcDbLine
 62
7
  6
CONTINUOUS
 10
-25.238750186
 20
14.9680850685
 11
-25.2875
 21
15.0510638595
  0
LWPOLYLINE
  5
3FC
100
AcDbEntity
  8
0
100
AcDbPolyline
 62
7
  6
CONTINUOUS
 90
10
 70
0
 10
-27.6590108922
 20
18.1070058124
 10
-27.6768383107
 20
18.1419389039
 10
-27.690084429
 20
18.1781741572
 10
-27.6989327017
 20
18.2163102435
 10
-27.7032259256
 20
18.2560540624
 10
-27.7029811943
 20
18.2966000531
 10
-27.6979247724
 20
18.3378360678
 10
-27.6873401166
 20
18.3794557886
 10
-27.6709016869
 20
18.4202126942
 10
-27.6491992656
 20
18.4587464361
  0
LINE
  5
3FD
100
AcDbEntity
  8
0
100
AcDbLine
 62
7
  6
CONTINUOUS
 10
-29.23625
 20
14.2212765887
 11
-29.285000093
 21
14.3319148928
  0
LINE
  5
3FE
100
AcDbEntity
  8
0
100
AcDbLine
 62
7
  6
CONTINUOUS
 10
-29.577500093
 20
15.1063830018
 11
-29.52875
 21
14.9957447171
  0
LINE
  5
3FF
100
AcDbEntity
  8
0
100
AcDbLine
 62
7
  6
CONTINUOUS
 10
-29.138750093
 20
14.3319148928
 11
-29.09
 21
14.2212765887
  0
LINE
  5
400
100
AcDbEntity
  8
0
100
AcDbLine
 62
7
  6
CONTINUOUS
 10
-25.896875186
 20
14.7744680703
 11
-25.945625
 21
14.885106355
  0
LINE
  5
401
100
AcDbEntity
  8
0
100
AcDbLine
 62
7
  6
CONTINUOUS
 10
-25.921249814
 20
14.1936170176
 11
-25.970000186
 21
14.3319148928
  0
LINE
  5
402
100
AcDbEntity
  8
0
100
AcDbLine
 62
7
  6
CONTINUOUS
 10
-25.14125
 20
14.5531915009
 11
-25.092500186
 21
14.4148936063
  0
LINE
  5
403
100
AcDbEntity
  8
0
100
AcDbLine
 62
7
  6
CONTINUOUS
 10
-25.165625186
 20
15.1063830018
 11
-25.116874814
 21
14.9680850685
  0
LINE
  5
404
100
AcDbEntity
  8
0
100
AcDbLine
 62
7
  6
CONTINUOUS
 10
-11.25
 20
22.3
 11
-11.25
 21
-22.3
  0
LINE
  5
405
100
AcDbEntity
  8
RACCORDO
100
AcDbLine
 62
7
  6
CONTINUOUS
 10
-0.2897777479
 20
26.7776457135
 11
-0.4043650715
 21
26.35
  0
LINE
  5
406
100
AcDbEntity
  8
RACCORDO
100
AcDbLine
 62
250
  6
CONTINUOUS
 10
0.0
 20
26.7
 11
-0.1741669751
 21
26.05
  0
LINE
  5
407
100
AcDbEntity
  8
0
100
AcDbLine
 62
7
  6
CONTINUOUS
 10
1.512264
 20
31.507671
 11
1.29402
 21
30.7284
  0
LINE
  5
408
100
AcDbEntity
  8
0
100
AcDbLine
 62
7
  6
CONTINUOUS
 10
-3.236001
 20
30.639276
 11
-2.82351
 21
32.084649
  0
LINE
  5
409
100
AcDbEntity
  8
0
100
AcDbLine
 62
7
  6
CONTINUOUS
 10
1.20436
 20
30.404025
 11
1.083412
 21
29.984826
  0
LINE
  5
40A
100
AcDbEntity
  8
0
100
AcDbLine
 62
7
  6
CONTINUOUS
 10
0.649852
 20
29.984826
 11
1.308491
 21
32.084649
  0
LINE
  5
40B
100
AcDbEntity
  8
0
100
AcDbLine
 62
7
  6
CONTINUOUS
 10
-2.385493
 20
32.084649
 11
-3.060461
 21
29.984826
  0
LINE
  5
40C
100
AcDbEntity
  8
0
100
AcDbLine
 62
7
  6
CONTINUOUS
 10
-0.487318
 20
30.918821
 11
-0.049002
 21
32.084649
  0
LINE
  5
40D
100
AcDbEntity
  8
0
100
AcDbLine
 62
7
  6
CONTINUOUS
 10
0.062183
 20
31.350255
 11
-0.458975
 21
29.984826
  0
LWPOLYLINE
  5
40E
100
AcDbEntity
  8
0
100
AcDbPolyline
 62
7
  6
CONTINUOUS
 90
7
 70
0
 10
3.1482884497
 20
26.6017186496
 10
3.1522950345
 20
26.6110940822
 10
3.1592500416
 20
26.6201879529
 10
3.169153471
 20
26.6290002616
 10
3.1820053227
 20
26.6375310083
 10
3.1978055967
 20
26.645780193
 10
3.216554293
 20
26.6537478159
  0
LINE
  5
40F
100
AcDbEntity
  8
0
100
AcDbLine
 62
7
  6
CONTINUOUS
 10
-27.311898
 20
-19.772373
 11
-26.953177
 21
-19.171808
  0
LINE
  5
410
100
AcDbEntity
  8
0
100
AcDbLine
 62
7
  6
CONTINUOUS
 10
-26.754708
 20
-19.171808
 11
-27.226566
 21
-19.918975
  0
LINE
  5
411
100
AcDbEntity
  8
0
100
AcDbLine
 62
7
  6
CONTINUOUS
 10
-31.1862499535
 20
14.2212765887
 11
-31.1131249535
 21
14.1659574464
  0
LINE
  5
412
100
AcDbEntity
  8
0
100
AcDbLine
 62
7
  6
CONTINUOUS
 10
-30.11375
 20
14.2212765887
 11
-30.040625
 21
14.1659574464
  0
LINE
  5
413
100
AcDbEntity
  8
0
100
AcDbLine
 62
7
  6
CONTINUOUS
 10
-30.7962500465
 20
15.0787234306
 11
-30.8693750465
 21
15.134042573
  0
LWPOLYLINE
  5
414
100
AcDbEntity
  8
0
100
AcDbPolyline
 62
7
  6
CONTINUOUS
 90
7
 70
0
 10
-27.6048721617
 20
17.4331220181
 10
-27.6384794054
 20
17.4703344931
 10
-27.6677091194
 20
17.5117813473
 10
-27.6925783253
 20
17.5573520308
 10
-27.7130180281
 20
17.6066549612
 10
-27.7290628179
 20
17.6588751233
 10
-27.7409110724
 20
17.7132541677
  0
LWPOLYLINE
  5
415
100
AcDbEntity
  8
0
100
AcDbPolyline
 62
7
  6
CONTINUOUS
 90
7
 70
0
 10
-26.7602262279
 20
17.9378231524
 10
-26.7323990569
 20
17.9065442632
 10
-26.7096415506
 20
17.8719275683
 10
-26.6919835713
 20
17.8339600656
 10
-26.6797452074
 20
17.7932370478
 10
-26.6729649483
 20
17.750860017
 10
-26.6708898282
 20
17.7076294464
  0
LINE
  5
416
100
AcDbEntity
  8
0
100
AcDbLine
 62
7
  6
CONTINUOUS
 10
-30.186875
 20
14.1106382944
 11
-30.26
 21
14.1936170176
  0
LINE
  5
417
100
AcDbEntity
  8
0
100
AcDbLine
 62
7
  6
CONTINUOUS
 10
-30.7231250465
 20
15.1893617153
 11
-30.6500000465
 21
15.1063830018
  0
LINE
  5
418
100
AcDbEntity
  8
0
100
AcDbLine
 62
7
  6
CONTINUOUS
 10
-29.650625093
 20
15.1893617153
 11
-29.577500093
 21
15.1063830018
  0
LINE
  5
419
100
AcDbEntity
  8
0
100
AcDbLine
 62
7
  6
CONTINUOUS
 10
-27.456874814
 20
15.2170212865
 11
-27.359375186
 21
15.1063830018
  0
LINE
  5
41A
100
AcDbEntity
  8
0
100
AcDbLine
 62
7
  6
CONTINUOUS
 10
-25.848124814
 20
14.1106382944
 11
-25.921249814
 21
14.1936170176
  0
LINE
  5
41B
100
AcDbEntity
  8
0
100
AcDbLine
 62
7
  6
CONTINUOUS
 10
-25.823750186
 20
14.6914893568
 11
-25.896875186
 21
14.7744680703
  0
LINE
  5
41C
100
AcDbEntity
  8
0
100
AcDbLine
 62
7
  6
CONTINUOUS
 10
-25.238750186
 20
15.1893617153
 11
-25.165625186
 21
15.1063830018
  0
LWPOLYLINE
  5
41D
100
AcDbEntity
  8
0
100
AcDbPolyline
 62
7
  6
CONTINUOUS
 90
6
 70
0
 10
-27.4696295511
 20
18.2279866416
 10
-27.4569435022
 20
18.2126013737
 10
-27.4417303649
 20
18.1985069486
 10
-27.4239232407
 20
18.1857391075
 10
-27.4041021422
 20
18.1746377144
 10
-27.3826339357
 20
18.1650185392
  0
LINE
  5
41E
100
AcDbEntity
  8
0
100
AcDbLine
 62
7
  6
CONTINUOUS
 10
-25.848124814
 20
14.3319148928
 11
-25.774999814
 21
14.2212765887
  0
LINE
  5
41F
100
AcDbEntity
  8
0
100
AcDbLine
 62
7
  6
CONTINUOUS
 10
-25.214375
 20
14.4148936063
 11
-25.2875
 21
14.5255319297
  0
LWPOLYLINE
  5
420
100
AcDbEntity
  8
RACCORDO
100
AcDbPolyline
 62
250
  6
CONTINUOUS
 90
13
 70
0
 10
-0.5472321321
 20
-26.9614427561
 10
-0.5264018587
 20
-27.0037316698
 10
-0.501316715
 20
-27.0457879409
 10
-0.4717792859
 20
-27.0871118062
 10
-0.4376569074
 20
-27.1271398666
 10
-0.3988168962
 20
-27.1652753288
 10
-0.3551538631
 20
-27.2008663436
 10
-0.3067804456
 20
-27.2331730258
 10
-0.253797693
 20
-27.2614566587
 10
-0.1962231897
 20
-27.2849626087
 10
-0.1343370461
 20
-27.3028341125
 10
-0.0686893821
 20
-27.3141684685
 10
0.0000009334
 20
-27.3181930768
  0
LINE
  5
421
100
AcDbEntity
  8
0
100
AcDbLine
 62
7
  6
CONTINUOUS
 10
-0.4416667461
 20
-31.9595744789
 11
-0.525
 21
-31.746808517
  0
LINE
  5
422
100
AcDbEntity
  8
0
100
AcDbLine
 62
7
  6
CONTINUOUS
 10
0.85
 20
-31.3212765932
 11
0.9333334923
 21
-31.5340425253
  0
LINE
  5
423
100
AcDbEntity
  8
0
100
AcDbLine
 62
7
  6
CONTINUOUS
 10
-0.3166667461
 20
-31.7042553306
 11
-0.275
 21
-31.8319148898
  0
LINE
  5
424
100
AcDbEntity
  8
0
100
AcDbLine
 62
7
  6
CONTINUOUS
 10
0.725
 20
-31.5765957713
 11
0.6833334923
 21
-31.4489361525
  0
LINE
  5
425
100
AcDbEntity
  8
0
100
AcDbLine
 62
7
  6
CONTINUOUS
 10
0.8083334923
 20
-30.6404254913
 11
0.85
 21
-30.7680850506
  0
LINE
  5
426
100
AcDbEntity
  8
RACCORDO
100
AcDbLine
 62
7
  6
CONTINUOUS
 10
-0.4043650715
 20
-26.35
 11
-0.2897777479
 21
-26.7776457135
  0
LINE
  5
427
100
AcDbEntity
  8
RACCORDO
100
AcDbLine
 62
250
  6
CONTINUOUS
 10
-0.1741669751
 20
-26.05
 11
-0.0
 21
-26.7
  0
LINE
  5
428
100
AcDbEntity
  8
DRAFT
100
AcDbLine
 62
7
  6
CONTINUOUS
 10
-3.1278329986
 20
-25.2
 11
-3.1356941655
 21
-25.05
  0
LINE
  5
429
100
AcDbEntity
  8
DRAFT
100
AcDbLine
 62
7
  6
CONTINUOUS
 10
-3.101629109
 20
-25.2
 11
-3.1094902759
 21
-25.05
  0
LINE
  5
42A
100
AcDbEntity
  8
DRAFT
100
AcDbLine
 62
7
  6
CONTINUOUS
 10
-3.0754252194
 20
-25.2
 11
-3.0832863863
 21
-25.05
  0
LINE
  5
42B
100
AcDbEntity
  8
DRAFT
100
AcDbLine
 62
7
  6
CONTINUOUS
 10
-3.0492213297
 20
-25.2
 11
-3.0570824966
 21
-25.05
  0
LINE
  5
42C
100
AcDbEntity
  8
DRAFT
100
AcDbLine
 62
7
  6
CONTINUOUS
 10
-3.0230174401
 20
-25.2
 11
-3.030878607
 21
-25.05
  0
LINE
  5
42D
100
AcDbEntity
  8
DRAFT
100
AcDbLine
 62
7
  6
CONTINUOUS
 10
-2.9968135504
 20
-25.2
 11
-3.0046747173
 21
-25.05
  0
LINE
  5
42E
100
AcDbEntity
  8
DRAFT
100
AcDbLine
 62
7
  6
CONTINUOUS
 10
-2.9706096608
 20
-25.2
 11
-2.9784708277
 21
-25.05
  0
LINE
  5
42F
100
AcDbEntity
  8
DRAFT
100
AcDbLine
 62
7
  6
CONTINUOUS
 10
-2.9444057712
 20
-25.2
 11
-2.952266938
 21
-25.05
  0
LINE
  5
430
100
AcDbEntity
  8
DRAFT
100
AcDbLine
 62
7
  6
CONTINUOUS
 10
-3.1278329986
 20
25.2
 11
-3.1199718318
 21
25.05
  0
LINE
  5
431
100
AcDbEntity
  8
DRAFT
100
AcDbLine
 62
7
  6
CONTINUOUS
 10
-3.101629109
 20
25.2
 11
-3.0937679421
 21
25.05
  0
LINE
  5
432
100
AcDbEntity
  8
DRAFT
100
AcDbLine
 62
7
  6
CONTINUOUS
 10
-3.0754252194
 20
25.2
 11
-3.0675640525
 21
25.05
  0
LINE
  5
433
100
AcDbEntity
  8
DRAFT
100
AcDbLine
 62
7
  6
CONTINUOUS
 10
-3.0492213297
 20
25.2
 11
-3.0413601628
 21
25.05
  0
LINE
  5
434
100
AcDbEntity
  8
DRAFT
100
AcDbLine
 62
7
  6
CONTINUOUS
 10
-3.0230174401
 20
25.2
 11
-3.0151562732
 21
25.05
  0
LINE
  5
435
100
AcDbEntity
  8
DRAFT
100
AcDbLine
 62
7
  6
CONTINUOUS
 10
-2.9968135504
 20
25.2
 11
-2.9889523835
 21
25.05
  0
LINE
  5
436
100
AcDbEntity
  8
DRAFT
100
AcDbLine
 62
7
  6
CONTINUOUS
 10
-2.9706096608
 20
25.2
 11
-2.9627484939
 21
25.05
  0
LINE
  5
437
100
AcDbEntity
  8
DRAFT
100
AcDbLine
 62
7
  6
CONTINUOUS
 10
-2.9444057712
 20
25.2
 11
-2.9365446043
 21
25.05
  0
LINE
  5
438
100
AcDbEntity
  8
0
100
AcDbLine
 62
250
  6
CONTINUOUS
 10
0.0000134479
 20
37.5333533223
 11
0.0002160815
 21
37.5203654315
  0
LINE
  5
439
100
AcDbEntity
  8
0
100
AcDbLine
 62
250
  6
CONTINUOUS
 10
0.0000133347
 20
-37.5333555026
 11
-0.0001823096
 21
-37.5203563673
  0
LINE
  5
43A
100
AcDbEntity
  8
0
100
AcDbLine
 62
250
  6
CONTINUOUS
 10
-3.6467733067
 20
-26.9614795994
 11
-3.6478180042
 21
-26.7971735621
  0
LWPOLYLINE
  5
43B
100
AcDbEntity
  8
0
100
AcDbPolyline
 62
250
  6
CONTINUOUS
 90
4
 70
0
 10
-3.6488177734
 20
25.3173874226
 10
-3.6493202754
 20
25.6238516918
 10
-3.6487503153
 20
25.7717858188
 10
-3.6489198184
 20
26.0503050975
  0
LINE
  5
43C
100
AcDbEntity
  8
0
100
AcDbLine
 62
250
  6
CONTINUOUS
 10
0.0002160815
 20
37.5203654315
 11
0.0010792964
 21
36.9885365676
  0
LINE
  5
43D
100
AcDbEntity
  8
0
100
AcDbLine
 62
250
  6
CONTINUOUS
 10
-0.0001823096
 20
-37.5203563673
 11
-0.0011751165
 21
-36.8347374515
  0
LINE
  5
43E
100
AcDbEntity
  8
0
100
AcDbLine
 62
250
  6
CONTINUOUS
 10
-3.14828801
 20
-26.6017167119
 11
-3.1501228671
 21
-25.0494115598
  0
LINE
  5
43F
100
AcDbEntity
  8
0
100
AcDbLine
 62
7
  6
CONTINUOUS
 10
-3.4
 20
-30.9382979155
 11
-3.4
 21
-30.5978723049
  0
LINE
  5
440
100
AcDbEntity
  8
0
100
AcDbLine
 62
7
  6
CONTINUOUS
 10
-3.15
 20
-32.3
 11
-3.15
 21
-30.6404254913
  0
LINE
  5
441
100
AcDbEntity
  8
RACCORDO
100
AcDbLine
 62
250
  6
CONTINUOUS
 10
-2.9226198161
 20
26.3495888604
 11
-2.9226198161
 21
25.0504111396
  0
LINE
  5
442
100
AcDbEntity
  8
RACCORDO
100
AcDbLine
 62
250
  6
CONTINUOUS
 10
-2.9226198161
 20
-25.0504111396
 11
-2.9226198161
 21
-26.3495888604
  0
LINE
  5
443
100
AcDbEntity
  8
0
100
AcDbLine
 62
7
  6
CONTINUOUS
 10
-2.9
 20
-30.3
 11
-2.9
 21
-32.3
  0
LINE
  5
444
100
AcDbEntity
  8
RACCORDO
100
AcDbLine
 62
250
  6
CONTINUOUS
 10
-2.6230309556
 20
26.05
 11
-2.6230309556
 21
25.35
  0
LINE
  5
445
100
AcDbEntity
  8
RACCORDO
100
AcDbLine
 62
250
  6
CONTINUOUS
 10
-2.6230309556
 20
-25.35
 11
-2.6230309556
 21
-26.05
  0
LINE
  5
446
100
AcDbEntity
  8
0
100
AcDbLine
 62
7
  6
CONTINUOUS
 10
-2.5666666865
 20
-31.7042553306
 11
-2.5666666865
 21
-31.4489361525
  0
LINE
  5
447
100
AcDbEntity
  8
0
100
AcDbLine
 62
7
  6
CONTINUOUS
 10
-2.222834
 20
29.984826
 11
-2.222834
 21
32.084775
  0
LINE
  5
448
100
AcDbEntity
  8
0
100
AcDbLine
 62
7
  6
CONTINUOUS
 10
-1.784518
 20
32.084775
 11
-1.784518
 21
29.984826
  0
LINE
  5
449
100
AcDbEntity
  8
0
100
AcDbLine
 62
7
  6
CONTINUOUS
 10
-1.5666666269
 20
-32.3
 11
-1.5666666269
 21
-31.7042553306
  0
LINE
  5
44A
100
AcDbEntity
  8
0
100
AcDbLine
 62
7
  6
CONTINUOUS
 10
-1.5666666269
 20
-31.4489361525
 11
-1.5666666269
 21
-30.6404254913
  0
LINE
  5
44B
100
AcDbEntity
  8
0
100
AcDbLine
 62
7
  6
CONTINUOUS
 10
-1.3166667461
 20
-30.3
 11
-1.3166667461
 21
-31.4489361525
  0
LINE
  5
44C
100
AcDbEntity
  8
0
100
AcDbLine
 62
7
  6
CONTINUOUS
 10
-1.3166667461
 20
-31.7042553306
 11
-1.3166667461
 21
-32.3
  0
LINE
  5
44D
100
AcDbEntity
  8
0
100
AcDbLine
 62
7
  6
CONTINUOUS
 10
-0.9
 20
-31.4489361525
 11
-0.9
 21
-31.7042553306
  0
LINE
  5
44E
100
AcDbEntity
  8
0
100
AcDbLine
 62
7
  6
CONTINUOUS
 10
-0.5666667461
 20
-31.4489361525
 11
-0.5666667461
 21
-31.1510638475
  0
LINE
  5
44F
100
AcDbEntity
  8
0
100
AcDbLine
 62
7
  6
CONTINUOUS
 10
-0.3583332539
 20
-31.1510638475
 11
-0.3583332539
 21
-31.2361702204
  0
LINE
  5
450
100
AcDbEntity
  8
0
100
AcDbLine
 62
7
  6
CONTINUOUS
 10
-0.3166667461
 20
-31.5765957713
 11
-0.3166667461
 21
-31.7042553306
  0
LINE
  5
451
100
AcDbEntity
  8
RACCORDO
100
AcDbLine
 62
250
  6
CONTINUOUS
 10
0.0000010496
 20
-27.3179849785
 11
-0.0000023432
 21
-26.9999994846
  0
LINE
  5
452
100
AcDbEntity
  8
0
100
AcDbLine
 62
250
  6
CONTINUOUS
 10
0.0000018012
 20
-32.30000005
 11
-0.0011751165
 21
-36.8347374515
  0
LINE
  5
453
100
AcDbEntity
  8
0
100
AcDbLine
 62
250
  6
CONTINUOUS
 10
0.0000010487
 20
-27.3181989668
 11
0.0000010151
 21
-30.2999999819
  0
LINE
  5
454
100
AcDbEntity
  8
0
100
AcDbLine
 62
250
  6
CONTINUOUS
 10
0.0000011928
 20
22.5999999997
 11
0.0000009252
 21
25.05
  0
LINE
  5
455
100
AcDbEntity
  8
0
100
AcDbLine
 62
250
  6
CONTINUOUS
 10
0.000001228
 20
-22.5999999997
 11
0.000001325
 21
-25.0499999834
  0
LINE
  5
456
100
AcDbEntity
  8
0
100
AcDbLine
 62
250
  6
CONTINUOUS
 10
-0.0000114237
 20
-32.0673720543
 11
-0.0000118085
 21
-32.2795721738
  0
LINE
  5
457
100
AcDbEntity
  8
0
100
AcDbLine
 62
250
  6
CONTINUOUS
 10
-0.0000098335
 20
-31.0438318319
 11
0.000001486
 21
-32.044680758
  0
LINE
  5
458
100
AcDbEntity
  8
RACCORDO
100
AcDbLine
 62
250
  6
CONTINUOUS
 10
0.0000009588
 20
27.3182002393
 11
0.0000030281
 21
26.9999992495
  0
LINE
  5
459
100
AcDbEntity
  8
0
100
AcDbLine
 62
250
  6
CONTINUOUS
 10
-0.0000085268
 20
-30.3204272791
 11
0.0000008121
 21
-31.0234042658
  0
LINE
  5
45A
100
AcDbEntity
  8
0
100
AcDbLine
 62
250
  6
CONTINUOUS
 10
0.0010792964
 20
36.9885365676
 11
0.0000009585
 21
27.3182010864
  0
LINE
  5
45B
100
AcDbEntity
  8
0
100
AcDbLine
 62
7
  6
CONTINUOUS
 10
0.725
 20
-31.7042553306
 11
0.725
 21
-31.5765957713
  0
LINE
  5
45C
100
AcDbEntity
  8
0
100
AcDbLine
 62
7
  6
CONTINUOUS
 10
0.9333334923
 20
-31.5340425253
 11
0.9333334923
 21
-31.746808517
  0
LINE
  5
45D
100
AcDbEntity
  8
0
100
AcDbLine
 62
250
  6
CONTINUOUS
 10
-3.6478180042
 20
-26.7971735621
 11
-3.6495380442
 21
-24.5506756481
  0
LINE
  5
45E
100
AcDbEntity
  8
0
100
AcDbLine
 62
250
  6
CONTINUOUS
 10
-3.6495380442
 20
24.5506756481
 11
-3.6488177734
 21
25.3173874226
  0
LINE
  5
45F
100
AcDbEntity
  8
0
100
AcDbLine
 62
250
  6
CONTINUOUS
 10
-3.1501228939
 20
25.0494115423
 11
-3.14828801
 21
26.6017167132
  0
LINE
  5
460
100
AcDbEntity
  8
0
100
AcDbLine
 62
250
  6
CONTINUOUS
 10
-3.6489198184
 20
26.0503050975
 11
-3.6473462705
 21
26.8623905671
  0
LINE
  5
461
100
AcDbEntity
  8
0
100
AcDbLine
 62
250
  6
CONTINUOUS
 10
-3.6473462705
 20
26.8623905671
 11
-3.64677302
 21
26.9614794075
  0
LINE
  5
462
100
AcDbEntity
  8
DRAFT
100
AcDbLine
 62
7
  6
CONTINUOUS
 10
-3.1356941655
 20
25.05
 11
-3.1278329986
 21
25.2
  0
LINE
  5
463
100
AcDbEntity
  8
DRAFT
100
AcDbLine
 62
7
  6
CONTINUOUS
 10
-3.1094902759
 20
25.05
 11
-3.101629109
 21
25.2
  0
LINE
  5
464
100
AcDbEntity
  8
DRAFT
100
AcDbLine
 62
7
  6
CONTINUOUS
 10
-3.0832863863
 20
25.05
 11
-3.0754252194
 21
25.2
  0
LINE
  5
465
100
AcDbEntity
  8
DRAFT
100
AcDbLine
 62
7
  6
CONTINUOUS
 10
-3.0570824966
 20
25.05
 11
-3.0492213297
 21
25.2
  0
LINE
  5
466
100
AcDbEntity
  8
DRAFT
100
AcDbLine
 62
7
  6
CONTINUOUS
 10
-3.030878607
 20
25.05
 11
-3.0230174401
 21
25.2
  0
LINE
  5
467
100
AcDbEntity
  8
DRAFT
100
AcDbLine
 62
7
  6
CONTINUOUS
 10
-3.0046747173
 20
25.05
 11
-2.9968135504
 21
25.2
  0
LINE
  5
468
100
AcDbEntity
  8
DRAFT
100
AcDbLine
 62
7
  6
CONTINUOUS
 10
-2.9784708277
 20
25.05
 11
-2.9706096608
 21
25.2
  0
LINE
  5
469
100
AcDbEntity
  8
DRAFT
100
AcDbLine
 62
7
  6
CONTINUOUS
 10
-2.952266938
 20
25.05
 11
-2.9444057712
 21
25.2
  0
LINE
  5
46A
100
AcDbEntity
  8
DRAFT
100
AcDbLine
 62
7
  6
CONTINUOUS
 10
-3.1199718318
 20
-25.05
 11
-3.1278329986
 21
-25.2
  0
LINE
  5
46B
100
AcDbEntity
  8
DRAFT
100
AcDbLine
 62
7
  6
CONTINUOUS
 10
-3.0937679421
 20
-25.05
 11
-3.101629109
 21
-25.2
  0
LINE
  5
46C
100
AcDbEntity
  8
DRAFT
100
AcDbLine
 62
7
  6
CONTINUOUS
 10
-3.0675640525
 20
-25.05
 11
-3.0754252194
 21
-25.2
  0
LINE
  5
46D
100
AcDbEntity
  8
DRAFT
100
AcDbLine
 62
7
  6
CONTINUOUS
 10
-3.0413601628
 20
-25.05
 11
-3.0492213297
 21
-25.2
  0
LINE
  5
46E
100
AcDbEntity
  8
DRAFT
100
AcDbLine
 62
7
  6
CONTINUOUS
 10
-3.0151562732
 20
-25.05
 11
-3.0230174401
 21
-25.2
  0
LINE
  5
46F
100
AcDbEntity
  8
DRAFT
100
AcDbLine
 62
7
  6
CONTINUOUS
 10
-2.9889523835
 20
-25.05
 11
-2.9968135504
 21
-25.2
  0
LINE
  5
470
100
AcDbEntity
  8
DRAFT
100
AcDbLine
 62
7
  6
CONTINUOUS
 10
-2.9627484939
 20
-25.05
 11
-2.9706096608
 21
-25.2
  0
LINE
  5
471
100
AcDbEntity
  8
DRAFT
100
AcDbLine
 62
7
  6
CONTINUOUS
 10
-2.9365446043
 20
-25.05
 11
-2.9444057712
 21
-25.2
  0
LINE
  5
472
100
AcDbEntity
  8
0
100
AcDbLine
 62
7
  6
CONTINUOUS
 10
-1.034645
 20
31.355971
 11
-1.129234
 21
29.984826
  0
LINE
  5
473
100
AcDbEntity
  8
0
100
AcDbLine
 62
7
  6
CONTINUOUS
 10
-1.548559
 20
29.984826
 11
-1.358957
 21
32.084649
  0
LINE
  5
474
100
AcDbEntity
  8
0
100
AcDbLine
 62
7
  6
CONTINUOUS
 10
3.0911475531
 20
26.35
 11
3.1482884497
 21
26.6017186474
  0
LWPOLYLINE
  5
475
100
AcDbEntity
  8
0
100
AcDbPolyline
 62
7
  6
CONTINUOUS
 90
7
 70
0
 10
-27.971738078
 20
-16.7345931325
 10
-28.0147733031
 20
-16.7623001766
 10
-28.0609825292
 20
-16.7852072427
 10
-28.1106238297
 20
-16.8033256496
 10
-28.163410869
 20
-16.8165043864
 10
-28.2184040761
 20
-16.824494879
 10
-28.2748235404
 20
-16.8271806299
  0
LINE
  5
476
100
AcDbEntity
  8
0
100
AcDbLine
 62
250
  6
CONTINUOUS
 10
40.0
 20
-4.2017932267
 11
37.55
 21
-4.2017932267
  0
LINE
  5
477
100
AcDbEntity
  8
0
100
AcDbLine
 62
250
  6
CONTINUOUS
 10
-37.55
 20
-4.2017932267
 11
-40.0
 21
-4.2017932267
  0
LINE
  5
478
100
AcDbEntity
  8
0
100
AcDbLine
 62
250
  6
CONTINUOUS
 10
-39.9619654493
 20
-3.706070796
 11
-37.5462061085
 21
-3.706070796
  0
LINE
  5
479
100
AcDbEntity
  8
0
100
AcDbLine
 62
250
  6
CONTINUOUS
 10
37.5462061085
 20
-3.706070796
 11
39.9619654493
 21
-3.706070796
  0
LINE
  5
47A
100
AcDbEntity
  8
0
100
AcDbLine
 62
250
  6
CONTINUOUS
 10
-39.8630572237
 20
-3.5572341992
 11
-37.5363401559
 21
-3.5572341992
  0
LINE
  5
47B
100
AcDbEntity
  8
0
100
AcDbLine
 62
250
  6
CONTINUOUS
 10
37.5363401559
 20
-3.5572341992
 11
39.8630572237
 21
-3.5572341992
  0
LINE
  5
47C
100
AcDbEntity
  8
0
100
AcDbLine
 62
250
  6
CONTINUOUS
 10
-39.8250226729
 20
-3.0615117685
 11
-37.5305790807
 21
-3.0615117685
  0
LINE
  5
47D
100
AcDbEntity
  8
0
100
AcDbLine
 62
250
  6
CONTINUOUS
 10
37.5305883232
 20
-3.0615117685
 11
39.8250226729
 21
-3.0615117685
  0
LWPOLYLINE
  5
47E
100
AcDbEntity
  8
0
100
AcDbPolyline
 62
250
  6
CONTINUOUS
 90
3
 70
0
 10
37.5304319354
 20
0.0000890715
 10
37.5087763222
 20
0.0002864836
 10
22.5
 20
0.0000000528
  0
LWPOLYLINE
  5
47F
100
AcDbEntity
  8
0
100
AcDbPolyline
 62
250
  6
CONTINUOUS
 90
3
 70
0
 10
-37.530420803
 20
-0.0000952334
 10
-37.5087656885
 20
-0.0003021885
 10
-22.5
 20
0.0
  0
LINE
  5
480
100
AcDbEntity
  8
0
100
AcDbLine
 62
7
  6
CONTINUOUS
 10
-25.774999814
 20
14.2212765887
 11
-25.677500186
 21
14.1659574464
  0
LINE
  5
481
100
AcDbEntity
  8
0
100
AcDbLine
 62
7
  6
CONTINUOUS
 10
-27.554375
 20
15.2723404288
 11
-27.456874814
 21
15.2170212865
  0
LINE
  5
482
100
AcDbEntity
  8
0
100
AcDbLine
 62
7
  6
CONTINUOUS
 10
-25.774999814
 20
14.6638297856
 11
-25.823750186
 21
14.6914893568
  0
LINE
  5
483
100
AcDbEntity
  8
0
100
AcDbLine
 62
7
  6
CONTINUOUS
 10
-25.2875
 20
14.5255319297
 11
-25.385000186
 21
14.5808510721
  0
LINE
  5
484
100
AcDbEntity
  8
0
100
AcDbLine
 62
7
  6
CONTINUOUS
 10
-25.2875
 20
14.6638297856
 11
-25.238750186
 21
14.6361702144
  0
LWPOLYLINE
  5
485
100
AcDbEntity
  8
0
100
AcDbPolyline
 62
7
  6
CONTINUOUS
 90
3
 70
0
 10
-26.8286528144
 20
17.9889879169
 10
-26.7926284744
 20
17.965486676
 10
-26.7602262279
 20
17.9378231524
  0
LINE
  5
486
100
AcDbEntity
  8
0
100
AcDbLine
 62
7
  6
CONTINUOUS
 10
-31.1375
 20
14.0276595736
 11
-31.2593749535
 21
14.1106382944
  0
LINE
  5
487
100
AcDbEntity
  8
0
100
AcDbLine
 62
7
  6
CONTINUOUS
 10
-30.064999907
 20
14.0276595736
 11
-30.186875
 21
14.1106382944
  0
LINE
  5
488
100
AcDbEntity
  8
0
100
AcDbLine
 62
7
  6
CONTINUOUS
 10
-29.041249907
 20
14.0276595736
 11
-29.163125
 21
14.1106382944
  0
LINE
  5
489
100
AcDbEntity
  8
0
100
AcDbLine
 62
7
  6
CONTINUOUS
 10
-30.845
 20
15.2723404288
 11
-30.7231250465
 21
15.1893617153
  0
LINE
  5
48A
100
AcDbEntity
  8
0
100
AcDbLine
 62
7
  6
CONTINUOUS
 10
-29.772499907
 20
15.2723404288
 11
-29.650625093
 21
15.1893617153
  0
LINE
  5
48B
100
AcDbEntity
  8
0
100
AcDbLine
 62
7
  6
CONTINUOUS
 10
-28.65125
 20
14.8021276414
 11
-28.529374907
 21
14.7191489279
  0
LINE
  5
48C
100
AcDbEntity
  8
0
100
AcDbLine
 62
7
  6
CONTINUOUS
 10
-25.72625
 20
14.0276595736
 11
-25.848124814
 21
14.1106382944
  0
LINE
  5
48D
100
AcDbEntity
  8
0
100
AcDbLine
 62
7
  6
CONTINUOUS
 10
-25.360625
 20
15.2723404288
 11
-25.238750186
 21
15.1893617153
  0
LINE
  5
48E
100
AcDbEntity
  8
0
100
AcDbLine
 62
7
  6
CONTINUOUS
 10
-29.09
 20
14.2212765887
 11
-29.016875
 21
14.1659574464
  0
LINE
  5
48F
100
AcDbEntity
  8
0
100
AcDbLine
 62
7
  6
CONTINUOUS
 10
-29.723750093
 20
15.0787234306
 11
-29.796875093
 21
15.134042573
  0
LINE
  5
490
100
AcDbEntity
  8
0
100
AcDbLine
 62
7
  6
CONTINUOUS
 10
-28.602499907
 20
14.6085106432
 11
-28.675624907
 21
14.6638297856
  0
LINE
  5
491
100
AcDbEntity
  8
0
100
AcDbLine
 62
7
  6
CONTINUOUS
 10
-27.529999814
 20
15.0787234306
 11
-27.603124814
 21
15.134042573
  0
LINE
  5
492
100
AcDbEntity
  8
0
100
AcDbLine
 62
7
  6
CONTINUOUS
 10
-25.774999814
 20
14.8297872126
 11
-25.677500186
 21
14.7468084991
  0
LINE
  5
493
100
AcDbEntity
  8
0
100
AcDbLine
 62
7
  6
CONTINUOUS
 10
-25.238750186
 20
14.6361702144
 11
-25.14125
 21
14.5531915009
  0
LINE
  5
494
100
AcDbEntity
  8
0
100
AcDbLine
 62
7
  6
CONTINUOUS
 10
-25.2875
 20
15.0510638595
 11
-25.385000186
 21
15.134042573
  0
LINE
  5
495
100
AcDbEntity
  8
0
100
AcDbLine
 62
7
  6
CONTINUOUS
 10
3.148304834
 20
-26.601790828
 11
3.0911475531
 21
-26.35
  0
LINE
  5
496
100
AcDbEntity
  8
0
100
AcDbLine
 62
7
  6
CONTINUOUS
 10
-0.525
 20
-31.746808517
 11
-0.5666667461
 21
-31.4489361525
  0
LINE
  5
497
100
AcDbEntity
  8
0
100
AcDbLine
 62
7
  6
CONTINUOUS
 10
0.384668
 20
32.084649
 11
0.581025
 21
29.984826
  0
LWPOLYLINE
  5
498
100
AcDbEntity
  8
0
100
AcDbPolyline
 62
7
  6
CONTINUOUS
 90
13
 70
0
 10
3.518492654
 20
31.4767010908
 10
3.5159776175
 20
31.5086657476
 10
3.5094322457
 20
31.5407571845
 10
3.4989097257
 20
31.5723552603
 10
3.4843897006
 20
31.6029534071
 10
3.4659871984
 20
31.6316901889
 10
3.4441341094
 20
31.6574705586
 10
3.4192412251
 20
31.6797508235
 10
3.3918275047
 20
31.6985590583
 10
3.3626702804
 20
31.7138435886
 10
3.3324413245
 20
31.7256605807
 10
3.3016665884
 20
31.7341155776
 10
3.2708849867
 20
31.739285456
  0
LINE
  5
499
100
AcDbEntity
  8
0
100
AcDbLine
 62
7
  6
CONTINUOUS
 10
0.152236
 20
29.984826
 11
0.062183
 21
31.350255
  0
LINE
  5
49A
100
AcDbEntity
  8
DRAFT
100
AcDbLine
 62
7
  6
CONTINUOUS
 10
2.9365446043
 20
-25.05
 11
2.9444057712
 21
-25.2
  0
LINE
  5
49B
100
AcDbEntity
  8
DRAFT
100
AcDbLine
 62
7
  6
CONTINUOUS
 10
2.9627484939
 20
-25.05
 11
2.9706096608
 21
-25.2
  0
LINE
  5
49C
100
AcDbEntity
  8
DRAFT
100
AcDbLine
 62
7
  6
CONTINUOUS
 10
2.9889523835
 20
-25.05
 11
2.9968135504
 21
-25.2
  0
LINE
  5
49D
100
AcDbEntity
  8
DRAFT
100
AcDbLine
 62
7
  6
CONTINUOUS
 10
3.0151562732
 20
-25.05
 11
3.0230174401
 21
-25.2
  0
LINE
  5
49E
100
AcDbEntity
  8
DRAFT
100
AcDbLine
 62
7
  6
CONTINUOUS
 10
3.0413601628
 20
-25.05
 11
3.0492213297
 21
-25.2
  0
LINE
  5
49F
100
AcDbEntity
  8
DRAFT
100
AcDbLine
 62
7
  6
CONTINUOUS
 10
3.0675640525
 20
-25.05
 11
3.0754252194
 21
-25.2
  0
LINE
  5
4A0
100
AcDbEntity
  8
DRAFT
100
AcDbLine
 62
7
  6
CONTINUOUS
 10
3.0937679421
 20
-25.05
 11
3.101629109
 21
-25.2
  0
LINE
  5
4A1
100
AcDbEntity
  8
DRAFT
100
AcDbLine
 62
7
  6
CONTINUOUS
 10
3.1199718318
 20
-25.05
 11
3.1278329986
 21
-25.2
  0
LINE
  5
4A2
100
AcDbEntity
  8
DRAFT
100
AcDbLine
 62
7
  6
CONTINUOUS
 10
2.952266938
 20
25.05
 11
2.9444057712
 21
25.2
  0
LINE
  5
4A3
100
AcDbEntity
  8
DRAFT
100
AcDbLine
 62
7
  6
CONTINUOUS
 10
2.9784708277
 20
25.05
 11
2.9706096608
 21
25.2
  0
LINE
  5
4A4
100
AcDbEntity
  8
DRAFT
100
AcDbLine
 62
7
  6
CONTINUOUS
 10
3.0046747173
 20
25.05
 11
2.9968135504
 21
25.2
  0
LINE
  5
4A5
100
AcDbEntity
  8
DRAFT
100
AcDbLine
 62
7
  6
CONTINUOUS
 10
3.030878607
 20
25.05
 11
3.0230174401
 21
25.2
  0
LINE
  5
4A6
100
AcDbEntity
  8
DRAFT
100
AcDbLine
 62
7
  6
CONTINUOUS
 10
3.0570824966
 20
25.05
 11
3.0492213297
 21
25.2
  0
LINE
  5
4A7
100
AcDbEntity
  8
DRAFT
100
AcDbLine
 62
7
  6
CONTINUOUS
 10
3.0832863863
 20
25.05
 11
3.0754252194
 21
25.2
  0
LINE
  5
4A8
100
AcDbEntity
  8
DRAFT
100
AcDbLine
 62
7
  6
CONTINUOUS
 10
3.1094902759
 20
25.05
 11
3.101629109
 21
25.2
  0
LINE
  5
4A9
100
AcDbEntity
  8
DRAFT
100
AcDbLine
 62
7
  6
CONTINUOUS
 10
3.1356941655
 20
25.05
 11
3.1278329986
 21
25.2
  0
LINE
  5
4AA
100
AcDbEntity
  8
0
100
AcDbLine
 62
250
  6
CONTINUOUS
 10
3.6467741724
 20
26.961478325
 11
3.6478730919
 21
26.8130085739
  0
LINE
  5
4AB
100
AcDbEntity
  8
0
100
AcDbLine
 62
250
  6
CONTINUOUS
 10
3.1482884497
 20
26.6017186474
 11
3.150122388
 21
25.0494116594
  0
LINE
  5
4AC
100
AcDbEntity
  8
0
100
AcDbLine
 62
7
  6
CONTINUOUS
 10
1.2666665077
 20
-31.7042553306
 11
1.2666665077
 21
-31.4489361525
  0
LINE
  5
4AD
100
AcDbEntity
  8
0
100
AcDbLine
 62
7
  6
CONTINUOUS
 10
2.2666665077
 20
-32.3
 11
2.2666665077
 21
-31.7042553306
  0
LINE
  5
4AE
100
AcDbEntity
  8
0
100
AcDbLine
 62
7
  6
CONTINUOUS
 10
2.2666665077
 20
-31.4489361525
 11
2.2666665077
 21
-30.6404254913
  0
LINE
  5
4AF
100
AcDbEntity
  8
0
100
AcDbLine
 62
7
  6
CONTINUOUS
 10
2.505496876
 20
29.9848256023
 11
2.505496876
 21
32.0601161623
  0
LINE
  5
4B0
100
AcDbEntity
  8
0
100
AcDbLine
 62
7
  6
CONTINUOUS
 10
2.5166665077
 20
-30.3
 11
2.5166665077
 21
-31.4489361525
  0
LINE
  5
4B1
100
AcDbEntity
  8
0
100
AcDbLine
 62
7
  6
CONTINUOUS
 10
2.5166665077
 20
-31.7042553306
 11
2.5166665077
 21
-32.3
  0
LINE
  5
4B2
100
AcDbEntity
  8
RACCORDO
100
AcDbLine
 62
250
  6
CONTINUOUS
 10
2.6230309556
 20
-26.05
 11
2.6230309556
 21
-25.35
  0
LINE
  5
4B3
100
AcDbEntity
  8
RACCORDO
100
AcDbLine
 62
250
  6
CONTINUOUS
 10
2.6230309556
 20
25.35
 11
2.6230309556
 21
26.05
  0
LINE
  5
4B4
100
AcDbEntity
  8
RACCORDO
100
AcDbLine
 62
250
  6
CONTINUOUS
 10
2.9226198161
 20
-26.3495888604
 11
2.9226198161
 21
-25.0504111396
  0
LINE
  5
4B5
100
AcDbEntity
  8
RACCORDO
100
AcDbLine
 62
250
  6
CONTINUOUS
 10
2.9226198161
 20
25.0504111396
 11
2.9226198161
 21
26.3495888604
  0
LINE
  5
4B6
100
AcDbEntity
  8
0
100
AcDbLine
 62
7
  6
CONTINUOUS
 10
2.927514876
 20
31.7269233382
 11
2.927514876
 21
31.1504808569
  0
LINE
  5
4B7
100
AcDbEntity
  8
0
100
AcDbLine
 62
7
  6
CONTINUOUS
 10
2.9333334923
 20
-31.4489361525
 11
2.9333334923
 21
-31.7042553306
  0
LINE
  5
4B8
100
AcDbEntity
  8
0
100
AcDbLine
 62
7
  6
CONTINUOUS
 10
2.9420487595
 20
30.806580513
 11
2.9420487595
 21
29.9848256023
  0
LINE
  5
4B9
100
AcDbEntity
  8
0
100
AcDbLine
 62
7
  6
CONTINUOUS
 10
3.2666665077
 20
-30.9382979155
 11
3.2666665077
 21
-30.5978723049
  0
LINE
  5
4BA
100
AcDbEntity
  8
0
100
AcDbLine
 62
7
  6
CONTINUOUS
 10
3.5166665077
 20
-32.3
 11
3.5166665077
 21
-30.6404254913
  0
LINE
  5
4BB
100
AcDbEntity
  8
0
100
AcDbLine
 62
7
  6
CONTINUOUS
 10
3.7666665077
 20
-30.3
 11
3.7666665077
 21
-32.3
  0
LINE
  5
4BC
100
AcDbEntity
  8
0
100
AcDbLine
 62
250
  6
CONTINUOUS
 10
3.6478730919
 20
26.8130085739
 11
3.6495374915
 21
24.5506786654
  0
LINE
  5
4BD
100
AcDbEntity
  8
0
100
AcDbLine
 62
250
  6
CONTINUOUS
 10
3.1501055702
 20
-25.0494153652
 11
3.148304834
 21
-26.601790828
  0
LINE
  5
4BE
100
AcDbEntity
  8
0
100
AcDbLine
 62
250
  6
CONTINUOUS
 10
3.649524194
 20
-24.5507853809
 11
3.6478193882
 21
-26.7947698747
  0
LINE
  5
4BF
100
AcDbEntity
  8
0
100
AcDbLine
 62
250
  6
CONTINUOUS
 10
3.6478193882
 20
-26.7947698747
 11
3.6468071626
 21
-26.9613494696
  0
LINE
  5
4C0
100
AcDbEntity
  8
DRAFT
100
AcDbLine
 62
7
  6
CONTINUOUS
 10
2.9444057712
 20
25.2
 11
2.9365446043
 21
25.05
  0
LINE
  5
4C1
100
AcDbEntity
  8
DRAFT
100
AcDbLine
 62
7
  6
CONTINUOUS
 10
2.9706096608
 20
25.2
 11
2.9627484939
 21
25.05
  0
LINE
  5
4C2
100
AcDbEntity
  8
DRAFT
100
AcDbLine
 62
7
  6
CONTINUOUS
 10
2.9968135504
 20
25.2
 11
2.9889523835
 21
25.05
  0
LINE
  5
4C3
100
AcDbEntity
  8
DRAFT
100
AcDbLine
 62
7
  6
CONTINUOUS
 10
3.0230174401
 20
25.2
 11
3.0151562732
 21
25.05
  0
LINE
  5
4C4
100
AcDbEntity
  8
DRAFT
100
AcDbLine
 62
7
  6
CONTINUOUS
 10
3.0492213297
 20
25.2
 11
3.0413601628
 21
25.05
  0
LINE
  5
4C5
100
AcDbEntity
  8
DRAFT
100
AcDbLine
 62
7
  6
CONTINUOUS
 10
3.0754252194
 20
25.2
 11
3.0675640525
 21
25.05
  0
LINE
  5
4C6
100
AcDbEntity
  8
DRAFT
100
AcDbLine
 62
7
  6
CONTINUOUS
 10
3.101629109
 20
25.2
 11
3.0937679421
 21
25.05
  0
LINE
  5
4C7
100
AcDbEntity
  8
DRAFT
100
AcDbLine
 62
7
  6
CONTINUOUS
 10
3.1278329986
 20
25.2
 11
3.1199718318
 21
25.05
  0
LINE
  5
4C8
100
AcDbEntity
  8
DRAFT
100
AcDbLine
 62
7
  6
CONTINUOUS
 10
2.9444057712
 20
-25.2
 11
2.952266938
 21
-25.05
  0
LINE
  5
4C9
100
AcDbEntity
  8
DRAFT
100
AcDbLine
 62
7
  6
CONTINUOUS
 10
2.9706096608
 20
-25.2
 11
2.9784708277
 21
-25.05
  0
LINE
  5
4CA
100
AcDbEntity
  8
DRAFT
100
AcDbLine
 62
7
  6
CONTINUOUS
 10
2.9968135504
 20
-25.2
 11
3.0046747173
 21
-25.05
  0
LINE
  5
4CB
100
AcDbEntity
  8
DRAFT
100
AcDbLine
 62
7
  6
CONTINUOUS
 10
3.0230174401
 20
-25.2
 11
3.030878607
 21
-25.05
  0
LINE
  5
4CC
100
AcDbEntity
  8
DRAFT
100
AcDbLine
 62
7
  6
CONTINUOUS
 10
3.0492213297
 20
-25.2
 11
3.0570824966
 21
-25.05
  0
LINE
  5
4CD
100
AcDbEntity
  8
DRAFT
100
AcDbLine
 62
7
  6
CONTINUOUS
 10
3.0754252194
 20
-25.2
 11
3.0832863863
 21
-25.05
  0
LINE
  5
4CE
100
AcDbEntity
  8
DRAFT
100
AcDbLine
 62
7
  6
CONTINUOUS
 10
3.101629109
 20
-25.2
 11
3.1094902759
 21
-25.05
  0
LINE
  5
4CF
100
AcDbEntity
  8
DRAFT
100
AcDbLine
 62
7
  6
CONTINUOUS
 10
3.1278329986
 20
-25.2
 11
3.1356941655
 21
-25.05
  0
LINE
  5
4D0
100
AcDbEntity
  8
0
100
AcDbLine
 62
7
  6
CONTINUOUS
 10
-0.5666667461
 20
-31.1510638475
 11
-0.525
 21
-30.8531915426
  0
LINE
  5
4D1
100
AcDbEntity
  8
0
100
AcDbLine
 62
7
  6
CONTINUOUS
 10
-0.3166667461
 20
-30.895744729
 11
-0.3583332539
 21
-31.1510638475
  0
LINE
  5
4D2
100
AcDbEntity
  8
0
100
AcDbLine
 62
7
  6
CONTINUOUS
 10
-3.14828801
 20
-26.6017167119
 11
-3.0911475531
 21
-26.35
  0
LINE
  5
4D3
100
AcDbEntity
  8
RACCORDO
100
AcDbLine
 62
250
  6
CONTINUOUS
 10
-0.0
 20
-26.7
 11
0.1741669751
 21
-26.05
  0
LINE
  5
4D4
100
AcDbEntity
  8
RACCORDO
100
AcDbLine
 62
7
  6
CONTINUOUS
 10
0.2897777479
 20
-26.7776457135
 11
0.4043650715
 21
-26.35
  0
LWPOLYLINE
  5
4D5
100
AcDbEntity
  8
0
100
AcDbPolyline
 62
7
  6
CONTINUOUS
 90
7
 70
0
 10
-3.14828801
 20
-26.6017167124
 10
-3.1522944756
 20
-26.6110919819
 10
-3.159249223
 20
-26.6201856907
 10
-3.169152252
 20
-26.6289978388
 10
-3.1820035626
 20
-26.6375284262
 10
-3.1978031549
 20
-26.645777453
 10
-3.2165510289
 20
-26.653744919
  0
LINE
  5
4D6
100
AcDbEntity
  8
0
100
AcDbLine
 62
7
  6
CONTINUOUS
 10
29.224704
 20
18.408387
 11
30.3937793924
 21
19.3935743307
  0
LINE
  5
4D7
100
AcDbEntity
  8
0
100
AcDbLine
 62
7
  6
CONTINUOUS
 10
30.3395358997
 20
18.8361669155
 11
29.224704
 21
17.896691
  0
LWPOLYLINE
  5
4D8
100
AcDbEntity
  8
0
100
AcDbPolyline
 62
7
  6
CONTINUOUS
 90
7
 70
0
 10
-28.2004731754
 20
-16.6720635249
 10
-28.1553197194
 20
-16.658477164
 10
-28.1134392526
 20
-16.6391446772
 10
-28.0759547938
 20
-16.6141985603
 10
-28.0433999789
 20
-16.5847020338
 10
-28.0162415461
 20
-16.5528759917
 10
-27.9935342038
 20
-16.519288296
  0
LINE
  5
4D9
100
AcDbEntity
  8
0
100
AcDbLine
 62
250
  6
CONTINUOUS
 10
-39.8250226729
 20
3.0615117685
 11
-37.5305790804
 21
3.0615117685
  0
LINE
  5
4DA
100
AcDbEntity
  8
0
100
AcDbLine
 62
250
  6
CONTINUOUS
 10
37.5305882349
 20
3.0615117685
 11
39.8250226729
 21
3.0615117685
  0
LINE
  5
4DB
100
AcDbEntity
  8
0
100
AcDbLine
 62
250
  6
CONTINUOUS
 10
-39.8630572237
 20
3.5572341992
 11
-37.5363401559
 21
3.5572341992
  0
LINE
  5
4DC
100
AcDbEntity
  8
0
100
AcDbLine
 62
250
  6
CONTINUOUS
 10
37.5363401559
 20
3.5572341992
 11
39.8630572237
 21
3.5572341992
  0
LINE
  5
4DD
100
AcDbEntity
  8
0
100
AcDbLine
 62
250
  6
CONTINUOUS
 10
-39.9619654493
 20
3.706070796
 11
-37.5462061085
 21
3.706070796
  0
LINE
  5
4DE
100
AcDbEntity
  8
0
100
AcDbLine
 62
250
  6
CONTINUOUS
 10
37.5462061085
 20
3.706070796
 11
39.9619654493
 21
3.706070796
  0
LINE
  5
4DF
100
AcDbEntity
  8
0
100
AcDbLine
 62
250
  6
CONTINUOUS
 10
40.0
 20
4.2017932267
 11
37.55
 21
4.2017932267
  0
LINE
  5
4E0
100
AcDbEntity
  8
0
100
AcDbLine
 62
250
  6
CONTINUOUS
 10
-37.55
 20
4.2017932267
 11
-40.0
 21
4.2017932267
  0
LINE
  5
4E1
100
AcDbEntity
  8
0
100
AcDbLine
 62
7
  6
CONTINUOUS
 10
-30.99125
 20
14.0
 11
-31.1375
 21
14.0276595736
  0
LINE
  5
4E2
100
AcDbEntity
  8
0
100
AcDbLine
 62
7
  6
CONTINUOUS
 10
-29.918749907
 20
14.0
 11
-30.064999907
 21
14.0276595736
  0
LINE
  5
4E3
100
AcDbEntity
  8
0
100
AcDbLine
 62
7
  6
CONTINUOUS
 10
-31.1131249535
 20
14.1659574464
 11
-30.99125
 21
14.1382978752
  0
LINE
  5
4E4
100
AcDbEntity
  8
0
100
AcDbLine
 62
7
  6
CONTINUOUS
 10
-30.040625
 20
14.1659574464
 11
-29.918749907
 21
14.1382978752
  0
LINE
  5
4E5
100
AcDbEntity
  8
0
100
AcDbLine
 62
7
  6
CONTINUOUS
 10
-28.919375093
 20
14.0
 11
-29.041249907
 21
14.0276595736
  0
LINE
  5
4E6
100
AcDbEntity
  8
0
100
AcDbLine
 62
7
  6
CONTINUOUS
 10
-30.8693750465
 20
15.134042573
 11
-30.99125
 21
15.1617021441
  0
LINE
  5
4E7
100
AcDbEntity
  8
0
100
AcDbLine
 62
7
  6
CONTINUOUS
 10
-25.604375186
 20
14.0
 11
-25.72625
 21
14.0276595736
  0
LINE
  5
4E8
100
AcDbEntity
  8
0
100
AcDbLine
 62
7
  6
CONTINUOUS
 10
-28.773125093
 20
14.8297872126
 11
-28.65125
 21
14.8021276414
  0
LINE
  5
4E9
100
AcDbEntity
  8
0
100
AcDbLine
 62
7
  6
CONTINUOUS
 10
-29.796875093
 20
15.134042573
 11
-29.918749907
 21
15.1617021441
  0
LINE
  5
4EA
100
AcDbEntity
  8
0
100
AcDbLine
 62
7
  6
CONTINUOUS
 10
-29.016875
 20
14.1659574464
 11
-28.919375093
 21
14.1382978752
  0
LINE
  5
4EB
100
AcDbEntity
  8
0
100
AcDbLine
 62
7
  6
CONTINUOUS
 10
-28.675624907
 20
14.6638297856
 11
-28.773125093
 21
14.6914893568
  0
LINE
  5
4EC
100
AcDbEntity
  8
0
100
AcDbLine
 62
7
  6
CONTINUOUS
 10
-25.677500186
 20
14.1659574464
 11
-25.58
 21
14.1382978752
  0
LINE
  5
4ED
100
AcDbEntity
  8
0
100
AcDbLine
 62
7
  6
CONTINUOUS
 10
-25.385000186
 20
14.5808510721
 11
-25.482499814
 21
14.6085106432
  0
LINE
  5
4EE
100
AcDbEntity
  8
0
100
AcDbLine
 62
7
  6
CONTINUOUS
 10
-25.677500186
 20
14.7468084991
 11
-25.58
 21
14.7191489279
  0
LINE
  5
4EF
100
AcDbEntity
  8
0
100
AcDbLine
 62
7
  6
CONTINUOUS
 10
-25.385000186
 20
15.134042573
 11
-25.482499814
 21
15.1617021441
  0
LWPOLYLINE
  5
4F0
100
AcDbEntity
  8
0
100
AcDbPolyline
 62
7
  6
CONTINUOUS
 90
7
 70
0
 10
-27.0016805939
 20
17.8209252652
 10
-27.0244896218
 20
17.8295792789
 10
-27.0482848172
 20
17.8377564746
 10
-27.0730204868
 20
17.8455076662
 10
-27.0985983288
 20
17.8528950081
 10
-27.1249543798
 20
17.8600189798
 10
-27.1520602268
 20
17.8670144474
  0
LINE
  5
4F1
100
AcDbEntity
  8
0
100
AcDbLine
 62
7
  6
CONTINUOUS
 10
-26.9176739961
 20
18.028102913
 11
-26.8675232699
 21
18.0082431979
  0
LINE
  5
4F2
100
AcDbEntity
  8
0
100
AcDbLine
 62
7
  6
CONTINUOUS
 10
-26.8675232699
 20
18.0082431979
 11
-26.8286528144
 21
17.9889879169
  0
LWPOLYLINE
  5
4F3
100
AcDbEntity
  8
0
100
AcDbPolyline
 62
7
  6
CONTINUOUS
 90
6
 70
0
 10
-27.5021548028
 20
17.9735089784
 10
-27.5413532359
 20
17.9931241224
 10
-27.5772598307
 20
18.0164997675
 10
-27.6091333738
 20
18.0435140827
 10
-27.6364173067
 20
18.0738207807
 10
-27.6590108922
 20
18.1070058124
  0
LWPOLYLINE
  5
4F4
100
AcDbEntity
  8
0
100
AcDbPolyline
 62
7
  6
CONTINUOUS
 90
3
 70
0
 10
-26.9597303698
 20
17.8009614755
 10
-26.9798817961
 20
17.8117051742
 10
-27.0016805939
 20
17.8209252652
  0
LWPOLYLINE
  5
4F5
100
AcDbEntity
  8
0
100
AcDbPolyline
 62
7
  6
CONTINUOUS
 90
13
 70
0
 10
-26.9026181317
 20
18.5721228462
 10
-26.8751771475
 20
18.5557368224
 10
-26.8500799916
 20
18.5377622709
 10
-26.8272071846
 20
18.5178998302
 10
-26.8068839085
 20
18.4961802296
 10
-26.7893075349
 20
18.47290891
 10
-26.7741597563
 20
18.4481124836
 10
-26.7611313111
 20
18.4222000183
 10
-26.7500195256
 20
18.3955297724
 10
-26.7405461148
 20
18.3680389854
 10
-26.7325524818
 20
18.3397806055
 10
-26.7259329219
 20
18.3109801701
 10
-26.7205427862
 20
18.2817805365
  0
LINE
  5
4F6
100
AcDbEntity
  8
0
100
AcDbLine
 62
7
  6
CONTINUOUS
 10
-3.446727
 20
29.984826
 11
-4.112412
 21
32.084649
  0
LINE
  5
4F7
100
AcDbEntity
  8
0
100
AcDbLine
 62
7
  6
CONTINUOUS
 10
-3.636266
 20
32.084649
 11
-3.236001
 21
30.639276
  0
LINE
  5
4F8
100
AcDbEntity
  8
RACCORDO
100
AcDbLine
 62
250
  6
CONTINUOUS
 10
0.1741669751
 20
26.05
 11
0.0
 21
26.7
  0
LINE
  5
4F9
100
AcDbEntity
  8
RACCORDO
100
AcDbLine
 62
7
  6
CONTINUOUS
 10
0.4043650715
 20
26.35
 11
0.2897777479
 21
26.7776457135
  0
LINE
  5
4FA
100
AcDbEntity
  8
0
100
AcDbLine
 62
7
  6
CONTINUOUS
 10
-3.0911475531
 20
26.35
 11
-3.14828801
 21
26.6017167132
  0
LINE
  5
4FB
100
AcDbEntity
  8
0
100
AcDbLine
 62
7
  6
CONTINUOUS
 10
11.25
 20
-22.3
 11
11.25
 21
22.3
  0
LINE
  5
4FC
100
AcDbEntity
  8
0
100
AcDbLine
 62
7
  6
CONTINUOUS
 10
-0.275
 20
-30.7680850506
 11
-0.3166667461
 21
-30.895744729
  0
LINE
  5
4FD
100
AcDbEntity
  8
0
100
AcDbLine
 62
7
  6
CONTINUOUS
 10
-0.275
 20
-31.4489361525
 11
-0.3166667461
 21
-31.5765957713
  0
LINE
  5
4FE
100
AcDbEntity
  8
0
100
AcDbLine
 62
7
  6
CONTINUOUS
 10
0.6833334923
 20
-31.8319148898
 11
0.725
 21
-31.7042553306
  0
LINE
  5
4FF
100
AcDbEntity
  8
0
100
AcDbLine
 62
7
  6
CONTINUOUS
 10
-0.525
 20
-30.8531915426
 11
-0.4416667461
 21
-30.6404254913
  0
LINE
  5
500
100
AcDbEntity
  8
0
100
AcDbLine
 62
7
  6
CONTINUOUS
 10
0.9333334923
 20
-31.746808517
 11
0.85
 21
-31.9595744789
  0
LWPOLYLINE
  5
501
100
AcDbEntity
  8
RACCORDO
100
AcDbPolyline
 62
7
  6
CONTINUOUS
 90
10
 70
0
 10
-0.5472321321
 20
-26.9614427561
 10
-0.5244433553
 20
-26.9262004428
 10
-0.5014918822
 20
-26.8927611491
 10
-0.4787830026
 20
-26.8612785552
 10
-0.4568492628
 20
-26.8316883358
 10
-0.4357633213
 20
-26.8040928132
 10
-0.4152901168
 20
-26.7787725577
 10
-0.395718196
 20
-26.755393828
 10
-0.3773142903
 20
-26.7339715353
 10
-0.360075435
 20
-26.7151387758
  0
LWPOLYLINE
  5
502
100
AcDbEntity
  8
RACCORDO
100
AcDbPolyline
 62
7
  6
CONTINUOUS
 90
10
 70
0
 10
-2.9226198161
 20
-26.3495888604
 10
-2.9128699126
 20
-26.3355793335
 10
-2.8920847483
 20
-26.3156889302
 10
-2.8629486062
 20
-26.2899176506
 10
-2.8285072095
 20
-26.2568503674
 10
-2.7908362814
 20
-26.2179022079
 10
-2.7503495089
 20
-26.1773185532
 10
-2.7078423241
 20
-26.1365145306
 10
-2.6650467489
 20
-26.0940750129
 10
-2.6230309556
 20
-26.05
  0
LWPOLYLINE
  5
503
100
AcDbEntity
  8
RACCORDO
100
AcDbPolyline
 62
7
  6
CONTINUOUS
 90
10
 70
0
 10
-0.1741669751
 20
-26.05
 10
-0.2086462029
 20
-26.0973114205
 10
-0.2439287273
 20
-26.1428632168
 10
-0.2787705767
 20
-26.1863220678
 10
-0.3112487832
 20
-26.228403858
 10
-0.3404491877
 20
-26.2676324969
 10
-0.3662060045
 20
-26.3002701357
 10
-0.3869904461
 20
-26.3246759947
 10
-0.4003275483
 20
-26.3414180515
 10
-0.4043650715
 20
-26.35
  0
LINE
  5
504
100
AcDbEntity
  8
0
100
AcDbLine
 62
7
  6
CONTINUOUS
 10
-25.458125186
 20
14.0
 11
-25.604375186
 21
14.0
  0
LINE
  5
505
100
AcDbEntity
  8
0
100
AcDbLine
 62
7
  6
CONTINUOUS
 10
-26.408750186
 20
14.0
 11
-26.555000186
 21
14.0
  0
LINE
  5
506
100
AcDbEntity
  8
0
100
AcDbLine
 62
7
  6
CONTINUOUS
 10
-27.335
 20
14.0
 11
-28.2125
 21
14.0
  0
LINE
  5
507
100
AcDbEntity
  8
0
100
AcDbLine
 62
7
  6
CONTINUOUS
 10
-28.773125093
 20
14.0
 11
-28.919375093
 21
14.0
  0
LINE
  5
508
100
AcDbEntity
  8
0
100
AcDbLine
 62
7
  6
CONTINUOUS
 10
-31.6250000232
 20
14.0
 11
-31.7712500232
 21
14.0
  0
LINE
  5
509
100
AcDbEntity
  8
0
100
AcDbLine
 62
7
  6
CONTINUOUS
 10
-32.45375
 20
14.0
 11
-32.6
 21
14.0
  0
LINE
  5
50A
100
AcDbEntity
  8
0
100
AcDbLine
 62
7
  6
CONTINUOUS
 10
-28.919375093
 20
14.1382978752
 11
-28.773125093
 21
14.1382978752
  0
LINE
  5
50B
100
AcDbEntity
  8
0
100
AcDbLine
 62
7
  6
CONTINUOUS
 10
-28.017499907
 20
14.1382978752
 11
-27.335
 21
14.1382978752
  0
LINE
  5
50C
100
AcDbEntity
  8
0
100
AcDbLine
 62
7
  6
CONTINUOUS
 10
-25.58
 20
14.1382978752
 11
-25.482499814
 21
14.1382978752
  0
LINE
  5
50D
100
AcDbEntity
  8
0
100
AcDbLine
 62
7
  6
CONTINUOUS
 10
-29.285000093
 20
14.3319148928
 11
-29.138750093
 21
14.3319148928
  0
LINE
  5
50E
100
AcDbEntity
  8
0
100
AcDbLine
 62
7
  6
CONTINUOUS
 10
-31.86875
 20
14.3319148928
 11
-32.3562500058
 21
14.3319148928
  0
LINE
  5
50F
100
AcDbEntity
  8
0
100
AcDbLine
 62
7
  6
CONTINUOUS
 10
-26.165
 20
14.3872340351
 11
-26.408750186
 21
14.3872340351
  0
LINE
  5
510
100
AcDbEntity
  8
0
100
AcDbLine
 62
7
  6
CONTINUOUS
 10
-26.555000186
 20
14.3872340351
 11
-27.140000186
 21
14.3872340351
  0
LINE
  5
511
100
AcDbEntity
  8
0
100
AcDbLine
 62
7
  6
CONTINUOUS
 10
-32.3318749942
 20
14.4425531775
 11
-31.8931249768
 21
14.4425531775
  0
LINE
  5
512
100
AcDbEntity
  8
0
100
AcDbLine
 62
7
  6
CONTINUOUS
 10
-26.969375
 20
14.5531915009
 11
-26.555000186
 21
14.5531915009
  0
LINE
  5
513
100
AcDbEntity
  8
0
100
AcDbLine
 62
7
  6
CONTINUOUS
 10
-26.408750186
 20
14.5531915009
 11
-26.165
 21
14.5531915009
  0
LINE
  5
514
100
AcDbEntity
  8
0
100
AcDbLine
 62
7
  6
CONTINUOUS
 10
-29.114374907
 20
14.5808510721
 11
-29.285000093
 21
14.5808510721
  0
LINE
  5
515
100
AcDbEntity
  8
0
100
AcDbLine
 62
7
  6
CONTINUOUS
 10
-25.482499814
 20
14.6085106432
 11
-25.58
 21
14.6085106432
  0
LINE
  5
516
100
AcDbEntity
  8
0
100
AcDbLine
 62
7
  6
CONTINUOUS
 10
-28.773125093
 20
14.6914893568
 11
-28.919375093
 21
14.6914893568
  0
LINE
  5
517
100
AcDbEntity
  8
0
100
AcDbLine
 62
7
  6
CONTINUOUS
 10
-25.58
 20
14.7191489279
 11
-25.482499814
 21
14.7191489279
  0
LINE
  5
518
100
AcDbEntity
  8
0
100
AcDbLine
 62
7
  6
CONTINUOUS
 10
-28.919375093
 20
14.8297872126
 11
-28.773125093
 21
14.8297872126
  0
LINE
  5
519
100
AcDbEntity
  8
0
100
AcDbLine
 62
7
  6
CONTINUOUS
 10
-28.06625
 20
14.9957447171
 11
-28.188125093
 21
14.9957447171
  0
LINE
  5
51A
100
AcDbEntity
  8
0
100
AcDbLine
 62
7
  6
CONTINUOUS
 10
-25.482499814
 20
15.1617021441
 11
-25.58
 21
15.1617021441
  0
LINE
  5
51B
100
AcDbEntity
  8
0
100
AcDbLine
 62
7
  6
CONTINUOUS
 10
-27.725000186
 20
15.1617021441
 11
-27.822499814
 21
15.1617021441
  0
LINE
  5
51C
100
AcDbEntity
  8
0
100
AcDbLine
 62
7
  6
CONTINUOUS
 10
-28.456249907
 20
15.1617021441
 11
-29.163125
 21
15.1617021441
  0
LINE
  5
51D
100
AcDbEntity
  8
0
100
AcDbLine
 62
7
  6
CONTINUOUS
 10
-32.2099999884
 20
15.3
 11
-32.015
 21
15.3
  0
LINE
  5
51E
100
AcDbEntity
  8
0
100
AcDbLine
 62
7
  6
CONTINUOUS
 10
-29.285000093
 20
15.3
 11
-28.456249907
 21
15.3
  0
LINE
  5
51F
100
AcDbEntity
  8
0
100
AcDbLine
 62
7
  6
CONTINUOUS
 10
-27.798125186
 20
15.3
 11
-27.700625
 21
15.3
  0
LINE
  5
520
100
AcDbEntity
  8
0
100
AcDbLine
 62
7
  6
CONTINUOUS
 10
-26.555000186
 20
15.3
 11
-26.408750186
 21
15.3
  0
LINE
  5
521
100
AcDbEntity
  8
0
100
AcDbLine
 62
7
  6
CONTINUOUS
 10
-25.58
 20
15.3
 11
-25.482499814
 21
15.3
  0
LWPOLYLINE
  5
522
100
AcDbEntity
  8
0
100
AcDbPolyline
 62
7
  6
CONTINUOUS
 90
23
 70
0
 10
-28.9999449411
 20
15.7500000004
 10
-29.2298055486
 20
15.7571705887
 10
-29.4519359313
 20
15.7778577744
 10
-29.6655312495
 20
15.8108635194
 10
-29.8700577519
 20
15.8550676022
 10
-30.0649546531
 20
15.9093810837
 10
-30.2496498408
 20
15.9727058559
 10
-30.4234349606
 20
16.0438435125
 10
-30.5864237088
 20
16.1218880923
 10
-30.739282952
 20
16.2063443116
 10
-30.8819183225
 20
16.2964351106
 10
-31.0140571015
 20
16.3912425552
 10
-31.1361116373
 20
16.4903285368
 10
-31.2476582945
 20
16.5925819686
 10
-31.3490492518
 20
16.6974940601
 10
-31.4415944031
 20
16.8058127326
 10
-31.5246387019
 20
16.9162528243
 10
-31.5986733147
 20
17.0288495758
 10
-31.6658000005
 20
17.1470204205
 10
-31.7252612609
 20
17.2706085337
 10
-31.7762258054
 20
17.3991646075
 10
-31.8190339361
 20
17.5364432637
 10
-31.8522030107
 20
17.6835289827
  0
LINE
  5
523
100
AcDbEntity
  8
0
100
AcDbLine
 62
7
  6
CONTINUOUS
 10
-30.99125
 20
15.3
 11
-30.845
 21
15.2723404288
  0
LINE
  5
524
100
AcDbEntity
  8
0
100
AcDbLine
 62
7
  6
CONTINUOUS
 10
-29.918749907
 20
15.3
 11
-29.772499907
 21
15.2723404288
  0
LINE
  5
525
100
AcDbEntity
  8
0
100
AcDbLine
 62
7
  6
CONTINUOUS
 10
-27.700625
 20
15.3
 11
-27.554375
 21
15.2723404288
  0
LINE
  5
526
100
AcDbEntity
  8
0
100
AcDbLine
 62
7
  6
CONTINUOUS
 10
-27.603124814
 20
15.134042573
 11
-27.725000186
 21
15.1617021441
  0
LINE
  5
527
100
AcDbEntity
  8
0
100
AcDbLine
 62
7
  6
CONTINUOUS
 10
-25.482499814
 20
15.3
 11
-25.360625
 21
15.2723404288
  0
LINE
  5
528
100
AcDbEntity
  8
0
100
AcDbLine
 62
7
  6
CONTINUOUS
 10
-27.1520602268
 20
17.8670144474
 11
-27.22970587
 21
17.8868320981
  0
LWPOLYLINE
  5
529
100
AcDbEntity
  8
0
100
AcDbPolyline
 62
7
  6
CONTINUOUS
 90
3
 70
0
 10
-27.22970587
 20
17.8868320981
 10
-27.2783831069
 20
17.899862117
 10
-27.3258605443
 20
17.9132004231
  0
LINE
  5
52A
100
AcDbEntity
  8
0
100
AcDbLine
 62
7
  6
CONTINUOUS
 10
-27.1336295785
 20
18.0938095873
 11
-27.0778920126
 21
18.0782045052
  0
LWPOLYLINE
  5
52B
100
AcDbEntity
  8
0
100
AcDbPolyline
 62
7
  6
CONTINUOUS
 90
4
 70
0
 10
-27.0778920126
 20
18.0782045052
 10
-27.0231367312
 20
18.0624654592
 10
-26.9696325671
 20
18.0459831435
 10
-26.9176739961
 20
18.028102913
  0
LWPOLYLINE
  5
52C
100
AcDbEntity
  8
0
100
AcDbPolyline
 62
7
  6
CONTINUOUS
 90
5
 70
0
 10
-27.3258605443
 20
17.9132004231
 10
-27.3720992954
 20
17.9269772499
 10
-27.4170314914
 20
17.941358063
 10
-27.4604825694
 20
17.9566895968
 10
-27.5021548028
 20
17.9735089784
  0
LWPOLYLINE
  5
52D
100
AcDbEntity
  8
0
100
AcDbPolyline
 62
7
  6
CONTINUOUS
 90
8
 70
0
 10
-27.3826339357
 20
18.1650185392
 10
-27.3630204759
 20
18.1584241927
 10
-27.3428773828
 20
18.1522546592
 10
-27.3223389865
 20
18.1461393364
 10
-27.3014376233
 20
18.1400676185
 10
-27.2801513093
 20
18.1340132657
 10
-27.2584043108
 20
18.1279331544
 10
-27.1336295785
 20
18.0938095873
  0
LINE
  5
52E
100
AcDbEntity
  8
RACCORDO
100
AcDbLine
 62
7
  6
CONTINUOUS
 10
-0.5284055513
 20
26.9328672928
 11
-0.5472321583
 21
26.961442513
  0
LWPOLYLINE
  5
52F
100
AcDbEntity
  8
RACCORDO
100
AcDbPolyline
 62
250
  6
CONTINUOUS
 90
13
 70
0
 10
0.5472308068
 20
26.9614415339
 10
0.5264308779
 20
27.0036737934
 10
0.5013877052
 20
27.0456758107
 10
0.4719037201
 20
27.0869494199
 10
0.4378433297
 20
27.1269359021
 10
0.3990772461
 20
27.1650386366
 10
0.3555092211
 20
27.2006014868
 10
0.307297849
 20
27.2328627458
 10
0.2545038863
 20
27.2611263026
 10
0.1970028893
 20
27.284692964
 10
0.1350070753
 20
27.3026790425
 10
0.0690984965
 20
27.3141175915
 10
0.0000009649
 20
27.3181948923
  0
LWPOLYLINE
  5
530
100
AcDbEntity
  8
0
100
AcDbPolyline
 62
7
  6
CONTINUOUS
 90
10
 70
0
 10
3.4215187159
 20
30.6217877359
 10
3.4059103226
 20
30.6577701911
 10
3.3867619451
 20
30.6913404316
 10
3.3640122167
 20
30.7216474132
 10
3.3376506756
 20
30.7479939761
 10
3.3082175005
 20
30.7697530361
 10
3.2765311064
 20
30.7863888886
 10
3.2434852418
 20
30.7978343938
 10
3.2100310141
 20
30.8044502514
 10
3.1770630743
 20
30.806580513
  0
LINE
  5
531
100
AcDbEntity
  8
0
100
AcDbLine
 62
7
  6
CONTINUOUS
 10
-0.520448
 20
29.984826
 11
-1.034645
 21
31.355971
  0
LINE
  5
532
100
AcDbEntity
  8
0
100
AcDbLine
 62
7
  6
CONTINUOUS
 10
-0.921004
 20
32.084649
 11
-0.487318
 21
30.918821
  0
LWPOLYLINE
  5
533
100
AcDbEntity
  8
0
100
AcDbPolyline
 62
7
  6
CONTINUOUS
 90
3
 70
0
 10
3.4502173953
 20
30.5366016241
 10
3.4365207144
 20
30.5793715593
 10
3.4215186763
 20
30.621787721
  0
LINE
  5
534
100
AcDbEntity
  8
0
100
AcDbLine
 62
7
  6
CONTINUOUS
 10
1.732508
 20
32.084649
 11
2.376786
 21
29.984826
  0
LINE
  5
535
100
AcDbEntity
  8
0
100
AcDbLine
 62
7
  6
CONTINUOUS
 10
3.5396083553
 20
30.2381011373
 11
3.4502173953
 21
30.5366016241
  0
LWPOLYLINE
  5
536
100
AcDbEntity
  8
0
100
AcDbPolyline
 62
7
  6
CONTINUOUS
 90
3
 70
0
 10
3.613268538
 20
29.9848256023
 10
3.6011092407
 20
30.0269805681
 10
3.5396083553
 20
30.2381011373
  0
LINE
  5
537
100
AcDbEntity
  8
0
100
AcDbLine
 62
7
  6
CONTINUOUS
 10
1.91482
 20
29.984826
 11
1.801273
 21
30.404025
  0
LINE
  5
538
100
AcDbEntity
  8
0
100
AcDbLine
 62
7
  6
CONTINUOUS
 10
3.885065974
 20
30.553044434
 11
3.9115098735
 21
30.4548241153
  0
LINE
  5
539
100
AcDbEntity
  8
0
100
AcDbLine
 62
7
  6
CONTINUOUS
 10
4.0106710622
 20
30.0758208314
 11
4.0348771327
 21
29.9848256023
  0
LINE
  5
53A
100
AcDbEntity
  8
0
100
AcDbLine
 62
7
  6
CONTINUOUS
 10
3.9115098735
 20
30.4548241153
 11
4.0106710622
 21
30.0758208314
  0
LINE
  5
53B
100
AcDbEntity
  8
0
100
AcDbLine
 62
7
  6
CONTINUOUS
 10
1.713676
 20
30.7284
 11
1.512264
 21
31.507671
  0
LINE
  5
53C
100
AcDbEntity
  8
0
100
AcDbLine
 62
250
  6
CONTINUOUS
 10
22.4997610635
 20
-21.5518106536
 11
22.5003331812
 21
-21.7713067936
  0
LINE
  5
53D
100
AcDbEntity
  8
0
100
AcDbLine
 62
250
  6
CONTINUOUS
 10
22.4999825102
 20
-20.4882984344
 11
22.4997610635
 21
-21.5518106536
  0
LINE
  5
53E
100
AcDbEntity
  8
0
100
AcDbLine
 62
250
  6
CONTINUOUS
 10
22.5004762234
 20
21.8257306628
 11
22.4999825102
 21
-20.4882984344
  0
LWPOLYLINE
  5
53F
100
AcDbEntity
  8
0
100
AcDbPolyline
 62
250
  6
CONTINUOUS
 90
17
 70
0
 10
22.5003331812
 20
-21.7713067936
 10
22.4989411407
 20
-21.9084403189
 10
22.4988513618
 20
-21.9743360944
 10
22.5014495718
 20
-22.0387058441
 10
22.5047681307
 20
-22.1013194312
 10
22.5038526834
 20
-22.1615599313
 10
22.498101571
 20
-22.220173496
 10
22.4881164522
 20
-22.2764139737
 10
22.4707479483
 20
-22.3274259852
 10
22.4445287266
 20
-22.3729584022
 10
22.4109261197
 20
-22.4132623529
 10
22.371192746
 20
-22.4462358428
 10
22.3247319034
 20
-22.4706845897
 10
22.2721402939
 20
-22.4878028757
 10
22.2164606423
 20
-22.4990715528
 10
22.1582989316
 20
-22.5030042153
 10
22.0339361593
 20
-22.4992607818
  0
LINE
  5
540
100
AcDbEntity
  8
0
100
AcDbLine
 62
7
  6
CONTINUOUS
 10
28.2271209364
 20
16.6229778868
 11
28.0353241763
 21
16.2812593141
  0
LINE
  5
541
100
AcDbEntity
  8
0
100
AcDbLine
 62
7
  6
CONTINUOUS
 10
-0.1916667461
 20
-30.6404254913
 11
-0.275
 21
-30.7680850506
  0
LINE
  5
542
100
AcDbEntity
  8
0
100
AcDbLine
 62
7
  6
CONTINUOUS
 10
0.6
 20
-31.9595744789
 11
0.6833334923
 21
-31.8319148898
  0
LINE
  5
543
100
AcDbEntity
  8
0
100
AcDbLine
 62
7
  6
CONTINUOUS
 10
30.72636
 20
15.07922
 11
30.508932
 21
14.770982
  0
LINE
  5
544
100
AcDbEntity
  8
0
100
AcDbLine
 62
7
  6
CONTINUOUS
 10
-0.4416667461
 20
-30.6404254913
 11
-0.3166667461
 21
-30.4702127457
  0
LINE
  5
545
100
AcDbEntity
  8
0
100
AcDbLine
 62
7
  6
CONTINUOUS
 10
0.85
 20
-31.9595744789
 11
0.725
 21
-32.1297872394
  0
LINE
  5
546
100
AcDbEntity
  8
0
100
AcDbLine
 62
7
  6
CONTINUOUS
 10
-3.4
 20
-30.5978723049
 11
-3.15
 21
-30.3
  0
LINE
  5
547
100
AcDbEntity
  8
0
100
AcDbLine
 62
7
  6
CONTINUOUS
 10
-3.15
 20
-30.6404254913
 11
-3.4
 21
-30.9382979155
  0
LINE
  5
548
100
AcDbEntity
  8
0
100
AcDbLine
 62
7
  6
CONTINUOUS
 10
3.2666665077
 20
-30.5978723049
 11
3.5166665077
 21
-30.3
  0
LINE
  5
549
100
AcDbEntity
  8
0
100
AcDbLine
 62
7
  6
CONTINUOUS
 10
3.5166665077
 20
-30.6404254913
 11
3.2666665077
 21
-30.9382979155
  0
LINE
  5
54A
100
AcDbEntity
  8
0
100
AcDbLine
 62
7
  6
CONTINUOUS
 10
-2.5666666865
 20
-31.4489361525
 11
-1.5666666269
 21
-30.3
  0
LINE
  5
54B
100
AcDbEntity
  8
0
100
AcDbLine
 62
7
  6
CONTINUOUS
 10
1.2666665077
 20
-31.4489361525
 11
2.2666665077
 21
-30.3
  0
LINE
  5
54C
100
AcDbEntity
  8
0
100
AcDbLine
 62
7
  6
CONTINUOUS
 10
-1.5666666269
 20
-30.6404254913
 11
-2.275
 21
-31.4489361525
  0
LINE
  5
54D
100
AcDbEntity
  8
0
100
AcDbLine
 62
7
  6
CONTINUOUS
 10
2.2666665077
 20
-30.6404254913
 11
1.5583334923
 21
-31.4489361525
  0
LINE
  5
54E
100
AcDbEntity
  8
RACCORDO
100
AcDbLine
 62
7
  6
CONTINUOUS
 10
-0.360075435
 20
-26.7151387758
 11
-0.330275593
 21
-26.6843705868
  0
LINE
  5
54F
100
AcDbEntity
  8
0
100
AcDbLine
 62
7
  6
CONTINUOUS
 10
-0.1916667461
 20
-31.3638297796
 11
-0.275
 21
-31.4489361525
  0
LWPOLYLINE
  5
550
100
AcDbEntity
  8
0
100
AcDbPolyline
 62
7
  6
CONTINUOUS
 90
6
 70
0
 10
3.2494077991
 20
-24.9510438721
 10
3.2196974638
 20
-24.981275486
 10
3.1937549275
 20
-25.0064482961
 10
3.1726162219
 20
-25.0258089138
 10
3.1576624066
 20
-25.0401264986
 10
3.1501054761
 20
-25.0494154574
  0
LWPOLYLINE
  5
551
100
AcDbEntity
  8
0
100
AcDbPolyline
 62
7
  6
CONTINUOUS
 90
5
 70
0
 10
3.649524194
 20
-24.5507853811
 10
3.6073845149
 20
-24.5936259194
 10
3.5647098368
 20
-24.636259552
 10
3.5218438513
 20
-24.6786813341
 10
3.4372027679
 20
-24.7636368938
  0
LWPOLYLINE
  5
552
100
AcDbEntity
  8
0
100
AcDbPolyline
 62
7
  6
CONTINUOUS
 90
3
 70
0
 10
3.3563055752
 20
-24.8442787883
 10
3.3184353767
 20
-24.8825420057
 10
3.2494077991
 20
-24.9510438721
  0
LWPOLYLINE
  5
553
100
AcDbEntity
  8
RACCORDO
100
AcDbPolyline
 62
7
  6
CONTINUOUS
 90
5
 70
0
 10
2.7909331635
 20
-25.1821946742
 10
2.7503495089
 20
-25.2226814468
 10
2.7095454862
 20
-25.2651886315
 10
2.6671059685
 20
-25.3079842068
 10
2.6230309556
 20
-25.35
  0
LINE
  5
554
100
AcDbEntity
  8
0
100
AcDbLine
 62
7
  6
CONTINUOUS
 10
3.4372027679
 20
-24.7636368938
 11
3.3563055752
 21
-24.8442787883
  0
LWPOLYLINE
  5
555
100
AcDbEntity
  8
0
100
AcDbPolyline
 62
7
  6
CONTINUOUS
 90
4
 70
0
 10
-3.4295633913
 20
-26.7928783441
 10
-3.5548829381
 20
-26.889283516
 10
-3.600231629
 20
-26.9245773023
 10
-3.6467733067
 20
-26.9614799047
  0
LWPOLYLINE
  5
556
100
AcDbEntity
  8
RACCORDO
100
AcDbPolyline
 62
7
  6
CONTINUOUS
 90
6
 70
0
 10
2.9226198161
 20
-25.0504111396
 10
2.9086102892
 20
-25.0601610431
 10
2.8887198859
 20
-25.0809462074
 10
2.8629486062
 20
-25.1100823494
 10
2.8298813231
 20
-25.1445237461
 10
2.7909331635
 20
-25.1821946742
  0
LWPOLYLINE
  5
557
100
AcDbEntity
  8
0
100
AcDbPolyline
 62
7
  6
CONTINUOUS
 90
8
 70
0
 10
-3.2165510289
 20
-26.653744919
 10
-3.2387744083
 20
-26.6642164225
 10
-3.2639602126
 20
-26.6779030008
 10
-3.2920018585
 20
-26.694799512
 10
-3.3227597922
 20
-26.7151758078
 10
-3.3560790666
 20
-26.7387478462
 10
-3.3917932181
 20
-26.7646754443
 10
-3.4295633913
 20
-26.7928783441
  0
LINE
  5
558
100
AcDbEntity
  8
0
100
AcDbLine
 62
7
  6
CONTINUOUS
 10
-25.482499814
 20
14.1382978752
 11
-25.385000186
 21
14.1659574464
  0
LINE
  5
559
100
AcDbEntity
  8
0
100
AcDbLine
 62
7
  6
CONTINUOUS
 10
-25.58
 20
14.6085106432
 11
-25.677500186
 21
14.5808510721
  0
LINE
  5
55A
100
AcDbEntity
  8
0
100
AcDbLine
 62
7
  6
CONTINUOUS
 10
-25.482499814
 20
14.7191489279
 11
-25.385000186
 21
14.7468084991
  0
LINE
  5
55B
100
AcDbEntity
  8
0
100
AcDbLine
 62
7
  6
CONTINUOUS
 10
-28.773125093
 20
14.1382978752
 11
-28.675624907
 21
14.1659574464
  0
LINE
  5
55C
100
AcDbEntity
  8
0
100
AcDbLine
 62
7
  6
CONTINUOUS
 10
-25.58
 20
15.1617021441
 11
-25.677500186
 21
15.134042573
  0
LINE
  5
55D
100
AcDbEntity
  8
0
100
AcDbLine
 62
7
  6
CONTINUOUS
 10
-28.919375093
 20
14.6914893568
 11
-29.016875
 21
14.6638297856
  0
LWPOLYLINE
  5
55E
100
AcDbEntity
  8
0
100
AcDbPolyline
 62
7
  6
CONTINUOUS
 90
5
 70
0
 10
-27.0005767806
 20
17.3248927377
 10
-27.0453361753
 20
17.3144890442
 10
-27.0920198257
 20
17.3070490428
 10
-27.1403692711
 20
17.3026050757
 10
-27.1901123288
 20
17.3011346166
  0
LINE
  5
55F
100
AcDbEntity
  8
0
100
AcDbLine
 62
7
  6
CONTINUOUS
 10
-25.336249814
 20
14.0276595736
 11
-25.458125186
 21
14.0
  0
LINE
  5
560
100
AcDbEntity
  8
0
100
AcDbLine
 62
7
  6
CONTINUOUS
 10
-28.65125
 20
14.0276595736
 11
-28.773125093
 21
14.0
  0
LINE
  5
561
100
AcDbEntity
  8
0
100
AcDbLine
 62
7
  6
CONTINUOUS
 10
-29.918749907
 20
14.1382978752
 11
-29.796875093
 21
14.1659574464
  0
LINE
  5
562
100
AcDbEntity
  8
0
100
AcDbLine
 62
7
  6
CONTINUOUS
 10
-25.701874814
 20
15.2723404288
 11
-25.58
 21
15.3
  0
LINE
  5
563
100
AcDbEntity
  8
0
100
AcDbLine
 62
7
  6
CONTINUOUS
 10
-30.99125
 20
14.1382978752
 11
-30.8693750465
 21
14.1659574464
  0
LINE
  5
564
100
AcDbEntity
  8
0
100
AcDbLine
 62
7
  6
CONTINUOUS
 10
-29.041249907
 20
14.8021276414
 11
-28.919375093
 21
14.8297872126
  0
LINE
  5
565
100
AcDbEntity
  8
0
100
AcDbLine
 62
7
  6
CONTINUOUS
 10
-27.822499814
 20
15.1617021441
 11
-27.944374907
 21
15.134042573
  0
LINE
  5
566
100
AcDbEntity
  8
0
100
AcDbLine
 62
7
  6
CONTINUOUS
 10
-29.918749907
 20
15.1617021441
 11
-30.040625
 21
15.134042573
  0
LINE
  5
567
100
AcDbEntity
  8
0
100
AcDbLine
 62
7
  6
CONTINUOUS
 10
-30.99125
 20
15.1617021441
 11
-31.1131249535
 21
15.134042573
  0
LINE
  5
568
100
AcDbEntity
  8
0
100
AcDbLine
 62
7
  6
CONTINUOUS
 10
-29.772499907
 20
14.0276595736
 11
-29.918749907
 21
14.0
  0
LINE
  5
569
100
AcDbEntity
  8
0
100
AcDbLine
 62
7
  6
CONTINUOUS
 10
-30.845
 20
14.0276595736
 11
-30.99125
 21
14.0
  0
LINE
  5
56A
100
AcDbEntity
  8
0
100
AcDbLine
 62
7
  6
CONTINUOUS
 10
-30.064999907
 20
15.2723404288
 11
-29.918749907
 21
15.3
  0
LINE
  5
56B
100
AcDbEntity
  8
0
100
AcDbLine
 62
7
  6
CONTINUOUS
 10
-31.1375
 20
15.2723404288
 11
-30.99125
 21
15.3
  0
LINE
  5
56C
100
AcDbEntity
  8
0
100
AcDbLine
 62
7
  6
CONTINUOUS
 10
-27.968750093
 20
15.2723404288
 11
-27.798125186
 21
15.3
  0
LINE
  5
56D
100
AcDbEntity
  8
0
100
AcDbLine
 62
7
  6
CONTINUOUS
 10
-27.7409110724
 20
17.7132541677
 11
-27.5249207052
 21
17.7480112383
  0
LWPOLYLINE
  5
56E
100
AcDbEntity
  8
0
100
AcDbPolyline
 62
7
  6
CONTINUOUS
 90
5
 70
0
 10
-27.3028005264
 20
18.4611860544
 10
-27.3269795827
 20
18.4575459558
 10
-27.3521143361
 20
18.451962367
 10
-27.377939022
 20
18.4437024152
 10
-27.4036674711
 20
18.431983701
  0
LINE
  5
56F
100
AcDbEntity
  8
0
100
AcDbLine
 62
7
  6
CONTINUOUS
 10
-26.7205427862
 20
18.2817805365
 11
-26.9340505054
 21
18.2519887617
  0
LWPOLYLINE
  5
570
100
AcDbEntity
  8
0
100
AcDbPolyline
 62
7
  6
CONTINUOUS
 90
4
 70
0
 10
-27.2349073497
 20
18.4653481444
 10
-27.2565421544
 20
18.4647568407
 10
-27.2793064155
 20
18.4634653194
 10
-27.3028005264
 20
18.4611860544
  0
LINE
  5
571
100
AcDbEntity
  8
0
100
AcDbLine
 62
7
  6
CONTINUOUS
 10
-27.2636343911
 20
18.6434980547
 11
-27.2302614068
 21
18.6442471296
  0
LINE
  5
572
100
AcDbEntity
  8
0
100
AcDbLine
 62
250
  6
CONTINUOUS
 10
21.9846290074
 20
22.4999576806
 11
22.1086739747
 21
22.5025587543
  0
LINE
  5
573
100
AcDbEntity
  8
0
100
AcDbLine
 62
7
  6
CONTINUOUS
 10
-27.214550926
 20
18.4654964809
 11
-27.2349073497
 21
18.4653481444
  0
LINE
  5
574
100
AcDbEntity
  8
0
100
AcDbLine
 62
7
  6
CONTINUOUS
 10
29.593816
 20
16.093883
 11
28.41157
 21
16.093883
  0
LINE
  5
575
100
AcDbEntity
  8
0
100
AcDbLine
 62
7
  6
CONTINUOUS
 10
28.41157
 20
16.510548
 11
28.780825
 21
16.510548
  0
LINE
  5
576
100
AcDbEntity
  8
0
100
AcDbLine
 62
7
  6
CONTINUOUS
 10
29.224704
 20
16.510548
 11
29.593816
 21
16.510548
  0
LINE
  5
577
100
AcDbEntity
  8
0
100
AcDbLine
 62
7
  6
CONTINUOUS
 10
29.580209
 20
19.470746
 11
29.224704
 21
19.470746
  0
LINE
  5
578
100
AcDbEntity
  8
0
100
AcDbLine
 62
7
  6
CONTINUOUS
 10
28.780825
 20
19.470746
 11
28.425177
 21
19.470746
  0
LINE
  5
579
100
AcDbEntity
  8
0
100
AcDbLine
 62
7
  6
CONTINUOUS
 10
28.425177
 20
19.889703
 11
29.580209
 21
19.889703
  0
LINE
  5
57A
100
AcDbEntity
  8
0
100
AcDbLine
 62
7
  6
CONTINUOUS
 10
11.05
 20
22.5
 11
-11.05
 21
22.5
  0
LINE
  5
57B
100
AcDbEntity
  8
0
100
AcDbLine
 62
250
  6
CONTINUOUS
 10
11.05
 20
22.6
 11
-11.05
 21
22.6
  0
LINE
  5
57C
100
AcDbEntity
  8
0
100
AcDbLine
 62
250
  6
CONTINUOUS
 10
-21.9648953337
 20
22.499931529
 11
-11.2736068294
 21
22.5000000001
  0
LINE
  5
57D
100
AcDbEntity
  8
0
100
AcDbLine
 62
250
  6
CONTINUOUS
 10
11.2736068316
 20
22.4999999999
 11
21.9846290074
 21
22.4999576806
  0
LWPOLYLINE
  5
57E
100
AcDbEntity
  8
0
100
AcDbPolyline
 62
7
  6
CONTINUOUS
 90
10
 70
0
 10
-27.2302614068
 20
18.6442471296
 10
-27.1882959208
 20
18.6433773753
 10
-27.1474412906
 20
18.6407309262
 10
-27.1078236399
 20
18.6362708361
 10
-27.0695267361
 20
18.6299786227
 10
-27.0326791277
 20
18.6218461445
 10
-26.9974519814
 20
18.6118975455
 10
-26.9639771215
 20
18.6002439153
 10
-26.9323253115
 20
18.5869863706
 10
-26.9026181317
 20
18.5721228462
  0
LWPOLYLINE
  5
57F
100
AcDbEntity
  8
0
100
AcDbPolyline
 62
7
  6
CONTINUOUS
 90
10
 70
0
 10
-27.1901123288
 20
17.3011346166
 10
-27.2398522863
 20
17.3021703302
 10
-27.289611233
 20
17.305572137
 10
-27.3390977334
 20
17.3117830663
 10
-27.3880996867
 20
17.3212661095
 10
-27.4362297802
 20
17.3344674586
 10
-27.4827363116
 20
17.3518714998
 10
-27.5266066141
 20
17.3738991348
 10
-27.5673875094
 20
17.4008492254
 10
-27.6048721617
 20
17.4331220181
  0
LWPOLYLINE
  5
580
100
AcDbEntity
  8
0
100
AcDbPolyline
 62
7
  6
CONTINUOUS
 90
26
 70
0
 10
-28.9999129405
 20
20.249999999
 10
-28.7929839808
 20
20.2441828117
 10
-28.5914365315
 20
20.2272582164
 10
-28.3959035314
 20
20.1999775635
 10
-28.2058623668
 20
20.1628230321
 10
-28.0227664914
 20
20.1165930164
 10
-27.8499477334
 20
20.0629370572
 10
-27.6888503485
 20
20.0034605418
 10
-27.5382869901
 20
19.9388608015
 10
-27.3974280086
 20
19.8697304003
 10
-27.2667862704
 20
19.7972358792
 10
-27.1457897043
 20
19.7219987497
 10
-27.0322013152
 20
19.6433075919
 10
-26.9261839414
 20
19.5617569374
 10
-26.8276437491
 20
19.4777864849
 10
-26.7344123712
 20
19.3897713794
 10
-26.6465904894
 20
19.2976957376
 10
-26.5646718029
 20
19.2019667245
 10
-26.4876297459
 20
19.1010020058
 10
-26.4156260461
 20
18.9941532584
 10
-26.3498378599
 20
18.8822051125
 10
-26.2910416182
 20
18.7655430828
 10
-26.2397833709
 20
18.6442517326
 10
-26.1968365322
 20
18.5189590551
 10
-26.1630224455
 20
18.391130234
 10
-26.1387155056
 20
18.2617040884
  0
LWPOLYLINE
  5
581
100
AcDbEntity
  8
RACCORDO
100
AcDbPolyline
 62
7
  6
CONTINUOUS
 90
10
 70
0
 10
-2.9226198161
 20
26.3495888604
 10
-2.9086102892
 20
26.3398389569
 10
-2.8887198859
 20
26.3190537926
 10
-2.8629486062
 20
26.2899176506
 10
-2.8298813231
 20
26.2554762539
 10
-2.7909331635
 20
26.2178053258
 10
-2.7503495089
 20
26.1773185532
 10
-2.7095454862
 20
26.1348113685
 10
-2.6671059685
 20
26.0920157932
 10
-2.6230309556
 20
26.05
  0
LWPOLYLINE
  5
582
100
AcDbEntity
  8
RACCORDO
100
AcDbPolyline
 62
7
  6
CONTINUOUS
 90
6
 70
0
 10
2.9226198161
 20
25.0504111396
 10
2.9086102892
 20
25.0601610431
 10
2.8887198859
 20
25.0809462074
 10
2.8629486062
 20
25.1100823494
 10
2.8298813231
 20
25.1445237461
 10
2.7909331635
 20
25.1821946742
  0
LWPOLYLINE
  5
583
100
AcDbEntity
  8
0
100
AcDbPolyline
 62
7
  6
CONTINUOUS
 90
8
 70
0
 10
-3.4295660828
 20
26.7928725575
 10
-3.3917943652
 20
26.7646720131
 10
-3.3560794189
 20
26.7387456155
 10
-3.3227596207
 20
26.7151741833
 10
-3.2920013041
 20
26.694798295
 10
-3.2639593781
 20
26.6779021291
 10
-3.2387734239
 20
26.6642156994
 10
-3.2165500104
 20
26.6537442017
  0
LINE
  5
584
100
AcDbEntity
  8
0
100
AcDbLine
 62
7
  6
CONTINUOUS
 10
3.150122372
 20
25.0494117235
 11
3.159657571
 21
25.0421000122
  0
LINE
  5
585
100
AcDbEntity
  8
0
100
AcDbLine
 62
7
  6
CONTINUOUS
 10
-3.5548876466
 20
26.8892749162
 11
-3.4295660828
 21
26.7928725575
  0
LWPOLYLINE
  5
586
100
AcDbEntity
  8
0
100
AcDbPolyline
 62
7
  6
CONTINUOUS
 90
3
 70
0
 10
-3.64677302
 20
26.9614793999
 10
-3.6002344278
 20
26.9245717136
 10
-3.5548876466
 20
26.8892749162
  0
LINE
  5
587
100
AcDbEntity
  8
0
100
AcDbLine
 62
7
  6
CONTINUOUS
 10
3.2191066081
 20
24.9806234603
 11
3.2494562273
 21
24.9510240795
  0
LWPOLYLINE
  5
588
100
AcDbEntity
  8
RACCORDO
100
AcDbPolyline
 62
7
  6
CONTINUOUS
 90
5
 70
0
 10
2.7909331635
 20
25.1821946742
 10
2.7503495089
 20
25.2226814468
 10
2.7095454862
 20
25.2651886315
 10
2.6671059685
 20
25.3079842068
 10
2.6230309556
 20
25.35
  0
LINE
  5
589
100
AcDbEntity
  8
0
100
AcDbLine
 62
7
  6
CONTINUOUS
 10
3.2494562273
 20
24.9510240795
 11
3.2825512462
 21
24.9179736947
  0
LWPOLYLINE
  5
58A
100
AcDbEntity
  8
0
100
AcDbPolyline
 62
7
  6
CONTINUOUS
 90
7
 70
0
 10
3.3563817697
 20
24.844267178
 10
3.4369963321
 20
24.7633338303
 10
3.4793229322
 20
24.721261174
 10
3.5218566249
 20
24.6785855895
 10
3.5642098224
 20
24.6356505716
 10
3.6067701115
 20
24.5928995404
 10
3.6495374915
 20
24.5506786654
  0
LWPOLYLINE
  5
58B
100
AcDbEntity
  8
0
100
AcDbPolyline
 62
7
  6
CONTINUOUS
 90
3
 70
0
 10
3.2825512462
 20
24.9179736947
 10
3.3180938082
 20
24.8821212057
 10
3.3563817697
 20
24.844267178
  0
LINE
  5
58C
100
AcDbEntity
  8
0
100
AcDbLine
 62
7
  6
CONTINUOUS
 10
3.159657571
 20
25.0421000122
 11
3.1742072807
 21
25.0273661868
  0
LINE
  5
58D
100
AcDbEntity
  8
0
100
AcDbLine
 62
7
  6
CONTINUOUS
 10
3.1937715023
 20
25.0064158821
 11
3.2191066081
 21
24.9806234603
  0
LWPOLYLINE
  5
58E
100
AcDbEntity
  8
RACCORDO
100
AcDbPolyline
 62
7
  6
CONTINUOUS
 90
5
 70
0
 10
-0.3313471781
 20
26.6856278229
 10
-0.3639866242
 20
26.719406702
 10
-0.3829678835
 20
26.7402805948
 10
-0.4031442019
 20
26.7640804775
 10
-0.4240783699
 20
26.7895912795
  0
LINE
  5
58F
100
AcDbEntity
  8
0
100
AcDbLine
 62
7
  6
CONTINUOUS
 10
3.1742072807
 20
25.0273661868
 11
3.1937715023
 21
25.0064158821
  0
LINE
  5
590
100
AcDbEntity
  8
RACCORDO
100
AcDbLine
 62
7
  6
CONTINUOUS
 10
-0.3182367295
 20
26.6714353483
 11
-0.3313471781
 21
26.6856278229
  0
LWPOLYLINE
  5
591
100
AcDbEntity
  8
RACCORDO
100
AcDbPolyline
 62
7
  6
CONTINUOUS
 90
10
 70
0
 10
-0.1741669751
 20
26.05
 10
-0.2109424172
 20
26.0955494733
 10
-0.2458102844
 20
26.1414194472
 10
-0.2787705767
 20
26.1863220678
 10
-0.3110124863
 20
26.2285851749
 10
-0.341346821
 20
26.2669437187
 10
-0.3662060045
 20
26.3002701357
 10
-0.3844008447
 20
26.3266630657
 10
-0.3971205337
 20
26.3438788804
 10
-0.4043650715
 20
26.35
  0
LWPOLYLINE
  5
592
100
AcDbEntity
  8
RACCORDO
100
AcDbPolyline
 62
7
  6
CONTINUOUS
 90
6
 70
0
 10
-0.4240783699
 20
26.7895912795
 10
-0.4455802107
 20
26.8165884389
 10
-0.4671886997
 20
26.8452828289
 10
-0.4883306946
 20
26.8745769839
 10
-0.508748837
 20
26.9037873371
 10
-0.5284055513
 20
26.9328672928
  0
LINE
  5
593
100
AcDbEntity
  8
0
100
AcDbLine
 62
7
  6
CONTINUOUS
 10
28.132446
 20
-15.451963
 11
28.132446
 21
-16.20278
  0
LINE
  5
594
100
AcDbEntity
  8
0
100
AcDbLine
 62
7
  6
CONTINUOUS
 10
28.132446
 20
-19.79722
 11
28.132446
 21
-20.548037
  0
LINE
  5
595
100
AcDbEntity
  8
0
100
AcDbLine
 62
7
  6
CONTINUOUS
 10
28.41157
 20
16.093883
 11
28.41157
 21
16.510548
  0
LINE
  5
596
100
AcDbEntity
  8
0
100
AcDbLine
 62
7
  6
CONTINUOUS
 10
28.425177
 20
19.470746
 11
28.425177
 21
19.889703
  0
LINE
  5
597
100
AcDbEntity
  8
0
100
AcDbLine
 62
7
  6
CONTINUOUS
 10
28.780825
 20
16.510548
 11
28.780825
 21
17.892031
  0
LINE
  5
598
100
AcDbEntity
  8
0
100
AcDbLine
 62
7
  6
CONTINUOUS
 10
28.780825
 20
18.408387
 11
28.780825
 21
19.470746
  0
LINE
  5
599
100
AcDbEntity
  8
0
100
AcDbLine
 62
7
  6
CONTINUOUS
 10
29.224704
 20
19.470746
 11
29.224704
 21
18.408387
  0
LINE
  5
59A
100
AcDbEntity
  8
0
100
AcDbLine
 62
7
  6
CONTINUOUS
 10
29.224704
 20
17.896691
 11
29.224704
 21
16.510548
  0
LINE
  5
59B
100
AcDbEntity
  8
0
100
AcDbLine
 62
7
  6
CONTINUOUS
 10
29.580209
 20
19.889703
 11
29.580209
 21
19.470746
  0
LINE
  5
59C
100
AcDbEntity
  8
0
100
AcDbLine
 62
7
  6
CONTINUOUS
 10
29.593816
 20
16.510548
 11
29.593816
 21
16.093883
  0
LWPOLYLINE
  5
59D
100
AcDbEntity
  8
0
100
AcDbPolyline
 62
250
  6
CONTINUOUS
 90
10
 70
0
 10
11.2736068368
 20
-22.4999999999
 10
11.2535746717
 20
-22.5202312164
 10
11.2322381515
 20
-22.5382395556
 10
11.2095972761
 20
-22.5540250174
 10
11.1855172516
 20
-22.5676638005
 10
11.160132872
 20
-22.5790797063
 10
11.1338485189
 20
-22.5880441388
 10
11.1067989863
 20
-22.5944808992
 10
11.0788494802
 20
-22.5984661863
 10
11.0500000007
 20
-22.6
  0
LINE
  5
59E
100
AcDbEntity
  8
0
100
AcDbLine
 62
7
  6
CONTINUOUS
 10
-0.0666667461
 20
-30.5553191185
 11
-0.1916667461
 21
-30.6404254913
  0
LINE
  5
59F
100
AcDbEntity
  8
0
100
AcDbLine
 62
7
  6
CONTINUOUS
 10
-0.3583332539
 20
-31.2361702204
 11
-0.1083332539
 21
-31.0659574747
  0
LINE
  5
5A0
100
AcDbEntity
  8
0
100
AcDbLine
 62
7
  6
CONTINUOUS
 10
-0.0666667461
 20
-31.2787234068
 11
-0.1916667461
 21
-31.3638297796
  0
LINE
  5
5A1
100
AcDbEntity
  8
0
100
AcDbLine
 62
7
  6
CONTINUOUS
 10
0.475
 20
-32.0446808517
 11
0.6
 21
-31.9595744789
  0
LINE
  5
5A2
100
AcDbEntity
  8
0
100
AcDbLine
 62
7
  6
CONTINUOUS
 10
-0.3166667461
 20
-30.4702127457
 11
-0.1083332539
 21
-30.3425531864
  0
LINE
  5
5A3
100
AcDbEntity
  8
0
100
AcDbLine
 62
7
  6
CONTINUOUS
 10
0.725
 20
-32.1297872394
 11
0.5166667461
 21
-32.2574468099
  0
LINE
  5
5A4
100
AcDbEntity
  8
0
100
AcDbLine
 62
7
  6
CONTINUOUS
 10
0.0583332539
 20
-30.5127659321
 11
-0.0666667461
 21
-30.5553191185
  0
LINE
  5
5A5
100
AcDbEntity
  8
0
100
AcDbLine
 62
7
  6
CONTINUOUS
 10
0.0583332539
 20
-31.2361702204
 11
-0.0666667461
 21
-31.2787234068
  0
LINE
  5
5A6
100
AcDbEntity
  8
0
100
AcDbLine
 62
7
  6
CONTINUOUS
 10
-27.4185353503
 20
18.6182375146
 11
-27.3894987901
 21
18.6260305596
  0
LWPOLYLINE
  5
5A7
100
AcDbEntity
  8
0
100
AcDbPolyline
 62
7
  6
CONTINUOUS
 90
5
 70
0
 10
-27.3894987901
 20
18.6260305596
 10
-27.3594001646
 20
18.6324963132
 10
-27.3283228108
 20
18.637589279
 10
-27.2963637396
 20
18.6412685287
 10
-27.2636343911
 20
18.6434980547
  0
LWPOLYLINE
  5
5A8
100
AcDbEntity
  8
RACCORDO
100
AcDbPolyline
 62
250
  6
CONTINUOUS
 90
16
 70
0
 10
0.0000009588
 20
27.3182002393
 10
-0.0392412377
 20
27.3169128084
 10
-0.0793300094
 20
27.3128992505
 10
-0.1200610602
 20
27.3059706238
 10
-0.1611019884
 20
27.2959921703
 10
-0.2023071838
 20
27.2827926862
 10
-0.24368947
 20
27.2660813179
 10
-0.2852138353
 20
27.2455033795
 10
-0.3261695067
 20
27.2210394672
 10
-0.3655596002
 20
27.1930115848
 10
-0.4029869123
 20
27.1615058809
 10
-0.438165676
 20
27.1265921005
 10
-0.4704312701
 20
27.0888310742
 10
-0.4994504523
 20
27.0486092539
 10
-0.5251220132
 20
27.0060543225
 10
-0.5472321583
 20
26.961442513
  0
LWPOLYLINE
  5
5A9
100
AcDbEntity
  8
RACCORDO
100
AcDbPolyline
 62
7
  6
CONTINUOUS
 90
28
 70
0
 10
0.0
 20
26.7
 10
0.0160153979
 20
26.7003423912
 10
0.0322575488
 20
26.7019427997
 10
0.048674032
 20
26.7047871794
 10
0.0652427014
 20
26.7091455973
 10
0.0818460405
 20
26.7147105639
 10
0.0982872168
 20
26.7206013346
 10
0.1144261728
 20
26.7266877281
 10
0.1302533802
 20
26.7330598443
 10
0.1457811849
 20
26.7391709466
 10
0.1609186826
 20
26.7449306219
 10
0.1755985032
 20
26.7503868738
 10
0.1898642453
 20
26.7551995055
 10
0.2037164113
 20
26.7593005294
 10
0.2169640359
 20
26.7627068986
 10
0.2293937776
 20
26.765213936
 10
0.2410565295
 20
26.7666032347
 10
0.2517973286
 20
26.7670653161
 10
0.2612228807
 20
26.7670434156
 10
0.2696318405
 20
26.765964
 10
0.2768125652
 20
26.7644239172
 10
0.2818988902
 20
26.7647003702
 10
0.2843565416
 20
26.7688791541
 10
0.2852974049
 20
26.7750292443
 10
0.28624895
 20
26.7793823554
 10
0.2875789858
 20
26.7806445185
 10
0.2887709806
 20
26.7800698524
 10
0.2897777479
 20
26.7776457135
  0
LINE
  5
5AA
100
AcDbEntity
  8
0
100
AcDbLine
 62
250
  6
CONTINUOUS
 10
-3.6495380442
 20
24.5506756481
 11
3.6495374915
 21
24.5506786654
  0
LINE
  5
5AB
100
AcDbEntity
  8
RACCORDO
100
AcDbLine
 62
7
  6
CONTINUOUS
 10
-2.9234426594
 20
25.05
 11
2.9234426594
 21
25.05
  0
LINE
  5
5AC
100
AcDbEntity
  8
DRAFT
100
AcDbLine
 62
7
  6
CONTINUOUS
 10
2.952266938
 20
25.05
 11
2.9234426594
 21
25.05
  0
LINE
  5
5AD
100
AcDbEntity
  8
DRAFT
100
AcDbLine
 62
7
  6
CONTINUOUS
 10
-2.9234426594
 20
25.05
 11
-2.952266938
 21
25.05
  0
LINE
  5
5AE
100
AcDbEntity
  8
RACCORDO
100
AcDbLine
 62
250
  6
CONTINUOUS
 10
-2.6230309556
 20
25.35
 11
2.6230309556
 21
25.35
  0
LINE
  5
5AF
100
AcDbEntity
  8
RACCORDO
100
AcDbLine
 62
250
  6
CONTINUOUS
 10
2.6230309556
 20
26.05
 11
0.1741669751
 21
26.05
  0
LINE
  5
5B0
100
AcDbEntity
  8
RACCORDO
100
AcDbLine
 62
250
  6
CONTINUOUS
 10
-0.1741669751
 20
26.05
 11
-2.6230309556
 21
26.05
  0
LINE
  5
5B1
100
AcDbEntity
  8
RACCORDO
100
AcDbLine
 62
7
  6
CONTINUOUS
 10
0.4043650715
 20
26.35
 11
3.0911475531
 21
26.35
  0
LINE
  5
5B2
100
AcDbEntity
  8
RACCORDO
100
AcDbLine
 62
7
  6
CONTINUOUS
 10
-0.4043650715
 20
26.35
 11
-3.0911475531
 21
26.35
  0
LINE
  5
5B3
100
AcDbEntity
  8
0
100
AcDbLine
 62
250
  6
CONTINUOUS
 10
3.216554293
 20
26.6537478159
 11
0.3229880456
 21
26.6537031951
  0
LINE
  5
5B4
100
AcDbEntity
  8
0
100
AcDbLine
 62
250
  6
CONTINUOUS
 10
-3.2165500104
 20
26.6537442017
 11
-0.3229854815
 21
26.6537127643
  0
LINE
  5
5B5
100
AcDbEntity
  8
RACCORDO
100
AcDbLine
 62
250
  6
CONTINUOUS
 10
0.547232267
 20
26.9614438252
 11
3.6467741723
 21
26.9614784159
  0
LINE
  5
5B6
100
AcDbEntity
  8
RACCORDO
100
AcDbLine
 62
250
  6
CONTINUOUS
 10
-3.64677302
 20
26.9614794879
 11
-0.5472338102
 21
26.9614450537
  0
LINE
  5
5B7
100
AcDbEntity
  8
0
100
AcDbLine
 62
7
  6
CONTINUOUS
 10
4.0348771327
 20
29.9848256023
 11
3.613268538
 21
29.9848256023
  0
LINE
  5
5B8
100
AcDbEntity
  8
0
100
AcDbLine
 62
7
  6
CONTINUOUS
 10
2.9420487595
 20
29.9848256023
 11
2.505496876
 21
29.9848256023
  0
LINE
  5
5B9
100
AcDbEntity
  8
0
100
AcDbLine
 62
7
  6
CONTINUOUS
 10
2.376786
 20
29.984826
 11
1.91482
 21
29.984826
  0
LINE
  5
5BA
100
AcDbEntity
  8
0
100
AcDbLine
 62
7
  6
CONTINUOUS
 10
1.083412
 20
29.984826
 11
0.649852
 21
29.984826
  0
LINE
  5
5BB
100
AcDbEntity
  8
0
100
AcDbLine
 62
7
  6
CONTINUOUS
 10
0.581025
 20
29.984826
 11
0.152236
 21
29.984826
  0
LINE
  5
5BC
100
AcDbEntity
  8
0
100
AcDbLine
 62
7
  6
CONTINUOUS
 10
-0.458975
 20
29.984826
 11
-0.520448
 21
29.984826
  0
LINE
  5
5BD
100
AcDbEntity
  8
0
100
AcDbLine
 62
7
  6
CONTINUOUS
 10
-1.129234
 20
29.984826
 11
-1.548559
 21
29.984826
  0
LINE
  5
5BE
100
AcDbEntity
  8
0
100
AcDbLine
 62
7
  6
CONTINUOUS
 10
-1.784518
 20
29.984826
 11
-2.222834
 21
29.984826
  0
LINE
  5
5BF
100
AcDbEntity
  8
0
100
AcDbLine
 62
7
  6
CONTINUOUS
 10
-3.060461
 20
29.984826
 11
-3.446727
 21
29.984826
  0
LINE
  5
5C0
100
AcDbEntity
  8
0
100
AcDbLine
 62
7
  6
CONTINUOUS
 10
1.801273
 20
30.404025
 11
1.20436
 21
30.404025
  0
LWPOLYLINE
  5
5C1
100
AcDbEntity
  8
0
100
AcDbPolyline
 62
250
  6
CONTINUOUS
 90
15
 70
0
 10
22.1086739747
 20
22.5025587543
 10
22.1675168097
 20
22.5004671309
 10
22.2247396725
 20
22.4952464838
 10
22.2796483979
 20
22.4866028193
 10
22.3295773749
 20
22.470169424
 10
22.3743256864
 20
22.4439565203
 10
22.4140942496
 20
22.4099538858
 10
22.4468202051
 20
22.3697641403
 10
22.4715084661
 20
22.3229665221
 10
22.4891541195
 20
22.2699817927
 10
22.5006795669
 20
22.2136748571
 10
22.5042691831
 20
22.1544846116
 10
22.5017385935
 20
22.0919721597
 10
22.4994570749
 20
22.0276857174
 10
22.5004762234
 20
21.8257306628
  0
LWPOLYLINE
  5
5C2
100
AcDbEntity
  8
0
100
AcDbPolyline
 62
250
  6
CONTINUOUS
 90
10
 70
0
 10
11.05
 20
22.6
 10
11.0788494823
 20
22.5984661861
 10
11.106798991
 20
22.5944808983
 10
11.1338485261
 20
22.5880441367
 10
11.1601328823
 20
22.5790797019
 10
11.185517265
 20
22.5676637932
 10
11.2095972896
 20
22.5540250089
 10
11.2322381616
 20
22.5382395482
 10
11.2535746756
 20
22.5202312119
 10
11.2736068316
 20
22.4999999999
  0
LINE
  5
5C3
100
AcDbEntity
  8
RACCORDO
100
AcDbLine
 62
250
  6
CONTINUOUS
 10
0.0
 20
26.7
 11
-0.2897777479
 21
26.7776457135
  0
LWPOLYLINE
  5
5C4
100
AcDbEntity
  8
0
100
AcDbPolyline
 62
7
  6
CONTINUOUS
 90
13
 70
0
 10
3.6161481924
 20
30.970811793
 10
3.6549941117
 20
30.9546602797
 10
3.6904714473
 20
30.9327315797
 10
3.7221319793
 20
30.9063525047
 10
3.7491728182
 20
30.8772652987
 10
3.7723158597
 20
30.8460071599
 10
3.7931434571
 20
30.8115333307
 10
3.8121276309
 20
30.7737489653
 10
3.8291678062
 20
30.7336386208
 10
3.8445673878
 20
30.6913084302
 10
3.8586926464
 20
30.6469221297
 10
3.8719996744
 20
30.6007373949
 10
3.8850659732
 20
30.5530444337
  0
LWPOLYLINE
  5
5C5
100
AcDbEntity
  8
0
100
AcDbPolyline
 62
7
  6
CONTINUOUS
 90
7
 70
0
 10
-3.2165500104
 20
26.6537442017
 10
-3.1978012025
 20
26.6457759944
 10
-3.1820011177
 20
26.6375265707
 10
-3.169149756
 20
26.6289959306
 10
-3.1592471175
 20
26.6201840742
 10
-3.1522932022
 20
26.6110910015
 10
-3.1482880099
 20
26.6017167123
  0
LINE
  5
5C6
100
AcDbEntity
  8
0
100
AcDbLine
 62
7
  6
CONTINUOUS
 10
37.5363401559
 20
-3.5572341992
 11
37.5462061085
 21
-3.706070796
  0
LINE
  5
5C7
100
AcDbEntity
  8
0
100
AcDbLine
 62
250
  6
CONTINUOUS
 10
35.7835784427
 20
34.26686394
 11
35.8928216722
 21
31.6726277423
  0
LWPOLYLINE
  5
5C8
100
AcDbEntity
  8
0
100
AcDbPolyline
 62
250
  6
CONTINUOUS
 90
6
 70
0
 10
35.6613235526
 20
36.4512899056
 10
35.6579938284
 20
36.5372357618
 10
35.6543294645
 20
36.6220989509
 10
35.6503766657
 20
36.7050285037
 10
35.6458563464
 20
36.784639014
 10
35.6365549614
 20
36.9324265076
  0
LINE
  5
5C9
100
AcDbEntity
  8
0
100
AcDbLine
 62
250
  6
CONTINUOUS
 10
35.8928216722
 20
31.6726277423
 11
35.9579738672
 21
29.8732516831
  0
LINE
  5
5CA
100
AcDbEntity
  8
0
100
AcDbLine
 62
250
  6
CONTINUOUS
 10
35.9579738672
 20
29.8732516831
 11
35.9915868264
 21
28.6572153809
  0
LWPOLYLINE
  5
5CB
100
AcDbEntity
  8
0
100
AcDbPolyline
 62
7
  6
CONTINUOUS
 90
4
 70
0
 10
37.5351638623
 20
-3.519746206
 10
37.5355396156
 20
-3.5361189851
 10
37.5359317135
 20
-3.5486149828
 10
37.5363401559
 20
-3.5572341992
  0
LWPOLYLINE
  5
5CC
100
AcDbEntity
  8
0
100
AcDbPolyline
 62
250
  6
CONTINUOUS
 90
3
 70
0
 10
35.6721958739
 20
36.0825605849
 10
35.6700259788
 20
36.1793631723
 10
35.6613235526
 20
36.4512899056
  0
LINE
  5
5CD
100
AcDbEntity
  8
0
100
AcDbLine
 62
250
  6
CONTINUOUS
 10
35.9915868264
 20
28.6572153809
 11
36.007410102
 21
27.7855122897
  0
LINE
  5
5CE
100
AcDbEntity
  8
0
100
AcDbLine
 62
7
  6
CONTINUOUS
 10
37.5344566615
 20
-3.4749946165
 11
37.5351638623
 21
-3.519746206
  0
LINE
  5
5CF
100
AcDbEntity
  8
0
100
AcDbLine
 62
250
  6
CONTINUOUS
 10
35.6750155959
 20
35.8912400398
 11
35.6721958739
 21
36.0825605849
  0
LINE
  5
5D0
100
AcDbEntity
  8
0
100
AcDbLine
 62
250
  6
CONTINUOUS
 10
36.007410102
 20
27.7855122897
 11
36.0260029907
 21
26.3819929728
  0
LINE
  5
5D1
100
AcDbEntity
  8
0
100
AcDbLine
 62
250
  6
CONTINUOUS
 10
35.6770829733
 20
35.701931596
 11
35.6750155959
 21
35.8912400398
  0
LINE
  5
5D2
100
AcDbEntity
  8
0
100
AcDbLine
 62
7
  6
CONTINUOUS
 10
37.5316646292
 20
-3.2103220584
 11
37.5333163944
 21
-3.3451675915
  0
LINE
  5
5D3
100
AcDbEntity
  8
0
100
AcDbLine
 62
250
  6
CONTINUOUS
 10
36.0260029907
 20
26.3819929728
 11
36.0438493945
 21
24.3011796387
  0
LWPOLYLINE
  5
5D4
100
AcDbEntity
  8
0
100
AcDbPolyline
 62
7
  6
CONTINUOUS
 90
3
 70
0
 10
37.5333164033
 20
-3.3451688996
 10
37.5335657224
 20
-3.3825482438
 10
37.5344566615
 20
-3.4749946165
  0
LINE
  5
5D5
100
AcDbEntity
  8
0
100
AcDbLine
 62
7
  6
CONTINUOUS
 10
37.5305883232
 20
-3.0615117685
 11
37.5316646292
 21
-3.2103220584
  0
LINE
  5
5D6
100
AcDbEntity
  8
0
100
AcDbLine
 62
250
  6
CONTINUOUS
 10
36.0438493945
 20
24.3011796387
 11
36.0528826707
 21
22.5639979357
  0
LINE
  5
5D7
100
AcDbEntity
  8
0
100
AcDbLine
 62
250
  6
CONTINUOUS
 10
36.0528826707
 20
22.5639979357
 11
36.0572699785
 21
19.9830941457
  0
LINE
  5
5D8
100
AcDbEntity
  8
0
100
AcDbLine
 62
7
  6
CONTINUOUS
 10
32.117556
 20
-17.625
 11
32.117556
 21
-18.375
  0
LINE
  5
5D9
100
AcDbEntity
  8
0
100
AcDbLine
 62
7
  6
CONTINUOUS
 10
32.517556
 20
-15.4519628823
 11
32.517556
 21
-16.20278
  0
LINE
  5
5DA
100
AcDbEntity
  8
0
100
AcDbLine
 62
7
  6
CONTINUOUS
 10
32.517556
 20
-19.7972169516
 11
32.517556
 21
-20.5480371177
  0
LINE
  5
5DB
100
AcDbEntity
  8
0
100
AcDbLine
 62
250
  6
CONTINUOUS
 10
37.5333164033
 20
-3.3451688996
 11
37.535775211
 21
-35.5358823302
  0
LINE
  5
5DC
100
AcDbEntity
  8
0
100
AcDbLine
 62
7
  6
CONTINUOUS
 10
37.5499446756
 20
36.4845613459
 11
37.55
 21
4.2017932267
  0
LINE
  5
5DD
100
AcDbEntity
  8
0
100
AcDbLine
 62
7
  6
CONTINUOUS
 10
37.55
 20
-4.2017932267
 11
37.5499449288
 21
-36.4845613252
  0
LINE
  5
5DE
100
AcDbEntity
  8
0
100
AcDbLine
 62
7
  6
CONTINUOUS
 10
37.5305882349
 20
3.0615117685
 11
37.5305883232
 21
-3.0615117685
  0
LINE
  5
5DF
100
AcDbEntity
  8
0
100
AcDbLine
 62
250
  6
CONTINUOUS
 10
36.0572699785
 20
19.9830941457
 11
36.0860052272
 21
-1.4744514363
  0
LINE
  5
5E0
100
AcDbEntity
  8
0
100
AcDbLine
 62
250
  6
CONTINUOUS
 10
37.5357751299
 20
35.5358327442
 11
37.5333164206
 21
3.3451717794
  0
LINE
  5
5E1
100
AcDbEntity
  8
0
100
AcDbLine
 62
250
  6
CONTINUOUS
 10
36.0581570484
 20
-14.0709532381
 11
36.0752420154
 21
-6.7633885904
  0
LINE
  5
5E2
100
AcDbEntity
  8
0
100
AcDbLine
 62
250
  6
CONTINUOUS
 10
36.0752420154
 20
-6.7633885904
 11
36.0860052272
 21
-1.4744514363
  0
LINE
  5
5E3
100
AcDbEntity
  8
0
100
AcDbLine
 62
250
  6
CONTINUOUS
 10
36.051007352
 20
-23.0340668117
 11
36.0581570484
 21
-14.0709532381
  0
LINE
  5
5E4
100
AcDbEntity
  8
0
100
AcDbLine
 62
7
  6
CONTINUOUS
 10
37.5316643059
 20
3.2103022114
 11
37.5305882349
 21
3.0615117685
  0
LINE
  5
5E5
100
AcDbEntity
  8
0
100
AcDbLine
 62
250
  6
CONTINUOUS
 10
36.0302366604
 20
-26.0065479375
 11
36.051007352
 21
-23.0340668117
  0
LINE
  5
5E6
100
AcDbEntity
  8
0
100
AcDbLine
 62
7
  6
CONTINUOUS
 10
37.5341346854
 20
3.447368672
 11
37.5333164206
 21
3.3451717794
  0
LINE
  5
5E7
100
AcDbEntity
  8
0
100
AcDbLine
 62
250
  6
CONTINUOUS
 10
36.0103294869
 20
-27.6076100149
 11
36.0302366604
 21
-26.0065479375
  0
LINE
  5
5E8
100
AcDbEntity
  8
0
100
AcDbLine
 62
7
  6
CONTINUOUS
 10
37.5333164118
 20
3.3451704709
 11
37.5316643059
 21
3.2103022114
  0
LINE
  5
5E9
100
AcDbEntity
  8
0
100
AcDbLine
 62
250
  6
CONTINUOUS
 10
35.9916961913
 20
-28.6527295824
 11
36.0103294869
 21
-27.6076100149
  0
LWPOLYLINE
  5
5EA
100
AcDbEntity
  8
0
100
AcDbPolyline
 62
250
  6
CONTINUOUS
 90
4
 70
0
 10
35.6700461578
 20
-36.1780012681
 10
35.6722100522
 20
-36.0814876201
 10
35.6737629352
 20
-35.9854059904
 10
35.6770843188
 20
-35.7019351504
  0
LINE
  5
5EB
100
AcDbEntity
  8
0
100
AcDbLine
 62
250
  6
CONTINUOUS
 10
35.9664670205
 20
-29.5921592285
 11
35.9916961913
 21
-28.6527295824
  0
LINE
  5
5EC
100
AcDbEntity
  8
0
100
AcDbLine
 62
250
  6
CONTINUOUS
 10
35.9199103711
 20
-30.9542616089
 11
35.9664670205
 21
-29.5921592285
  0
LINE
  5
5ED
100
AcDbEntity
  8
0
100
AcDbLine
 62
250
  6
CONTINUOUS
 10
35.8312894981
 20
-33.1788754421
 11
35.9199103711
 21
-30.9542616089
  0
LWPOLYLINE
  5
5EE
100
AcDbEntity
  8
0
100
AcDbPolyline
 62
7
  6
CONTINUOUS
 90
6
 70
0
 10
37.5363401559
 20
3.5572341992
 10
37.5359317168
 20
3.5486150715
 10
37.535539622
 20
3.5361192265
 10
37.5351638714
 20
3.519746664
 10
37.5348021014
 20
3.4993095487
 10
37.5341346854
 20
3.447368672
  0
LWPOLYLINE
  5
5EF
100
AcDbEntity
  8
0
100
AcDbPolyline
 62
250
  6
CONTINUOUS
 90
6
 70
0
 10
35.6459400461
 20
-36.7832304074
 10
35.6504521527
 20
-36.7035620494
 10
35.6543991592
 20
-36.6206054456
 10
35.658057684
 20
-36.5357227559
 10
35.6613873896
 20
-36.4497293349
 10
35.6700461578
 20
-36.1780012681
  0
LINE
  5
5F0
100
AcDbEntity
  8
0
100
AcDbLine
 62
7
  6
CONTINUOUS
 10
37.5462061085
 20
3.706070796
 11
37.5363401559
 21
3.5572341992
  0
LINE
  5
5F1
100
AcDbEntity
  8
0
100
AcDbLine
 62
7
  6
CONTINUOUS
 10
39.9619654493
 20
3.706070796
 11
39.8630572237
 21
3.5572341992
  0
LINE
  5
5F2
100
AcDbEntity
  8
0
100
AcDbLine
 62
7
  6
CONTINUOUS
 10
0.35
 20
-32.0872340381
 11
0.475
 21
-32.0446808517
  0
LWPOLYLINE
  5
5F3
100
AcDbEntity
  8
0
100
AcDbPolyline
 62
7
  6
CONTINUOUS
 90
19
 70
0
 10
2.505496876
 20
32.0601161623
 10
2.5649844728
 20
32.0685552759
 10
2.6245388853
 20
32.0763431889
 10
2.6841485677
 20
32.0834244012
 10
2.7437583319
 20
32.0897393108
 10
2.8034003152
 20
32.095238448
 10
2.8631944752
 20
32.0998763201
 10
2.9231386856
 20
32.1035926712
 10
2.983212992
 20
32.1063237376
 10
3.0435135437
 20
32.1079582796
 10
3.1041206481
 20
32.1083190249
 10
3.1649424425
 20
32.1072190147
 10
3.2258194094
 20
32.1044802256
 10
3.2866135067
 20
32.0999378698
 10
3.3473688743
 20
32.0933448167
 10
3.4080796413
 20
32.0842864788
 10
3.4685530494
 20
32.0723194483
 10
3.5284297568
 20
32.0570155085
 10
3.5874227496
 20
32.0379250911
  0
LWPOLYLINE
  5
5F4
100
AcDbEntity
  8
0
100
AcDbPolyline
 62
7
  6
CONTINUOUS
 90
13
 70
0
 10
3.1780078554
 20
31.1504808569
 10
3.2193187956
 20
31.1527787707
 10
3.2621887711
 20
31.1583744745
 10
3.3056440787
 20
31.1680890815
 10
3.3490320624
 20
31.1830492099
 10
3.3904510468
 20
31.2042178483
 10
3.42716572
 20
31.2316915899
 10
3.4577696467
 20
31.2647198755
 10
3.4822002995
 20
31.3022494906
 10
3.5000608832
 20
31.3432692507
 10
3.5114458881
 20
31.3867630262
 10
3.517247185
 20
31.4315781645
 10
3.5184926444
 20
31.4767010907
  0
LWPOLYLINE
  5
5F5
100
AcDbEntity
  8
0
100
AcDbPolyline
 62
250
  6
CONTINUOUS
 90
4
 70
0
 10
-34.6469493417
 20
35.780168915
 10
-34.7673718931
 20
35.7747093561
 10
-34.8840713581
 20
35.7675673267
 10
-34.99696086
 20
35.7590506708
  0
LWPOLYLINE
  5
5F6
100
AcDbEntity
  8
0
100
AcDbPolyline
 62
250
  6
CONTINUOUS
 90
6
 70
0
 10
-36.4360431112
 20
35.6838893587
 10
-36.5229787882
 20
35.680011659
 10
-36.6088982592
 20
35.675718931
 10
-36.6928933249
 20
35.6710724115
 10
-36.7735619701
 20
35.6658047938
 10
-36.9234151374
 20
35.6548664526
  0
LINE
  5
5F7
100
AcDbEntity
  8
0
100
AcDbLine
 62
250
  6
CONTINUOUS
 10
-30.8667797645
 20
35.9248294763
 11
-34.6469493417
 21
35.780168915
  0
LINE
  5
5F8
100
AcDbEntity
  8
0
100
AcDbLine
 62
250
  6
CONTINUOUS
 10
-29.7574341287
 20
35.958249672
 11
-30.8667797645
 21
35.9248294763
  0
LWPOLYLINE
  5
5F9
100
AcDbEntity
  8
0
100
AcDbPolyline
 62
250
  6
CONTINUOUS
 90
4
 70
0
 10
-36.0625236729
 20
35.6964500053
 10
-36.1607521775
 20
35.6939540902
 10
-36.2561921267
 20
35.6907291793
 10
-36.4360431112
 20
35.6838893587
  0
LINE
  5
5FA
100
AcDbEntity
  8
0
100
AcDbLine
 62
250
  6
CONTINUOUS
 10
-28.8133064623
 20
35.9807470146
 11
-29.7574341287
 21
35.958249672
  0
LINE
  5
5FB
100
AcDbEntity
  8
0
100
AcDbLine
 62
250
  6
CONTINUOUS
 10
-27.7587986934
 20
35.9983432162
 11
-28.8133064623
 21
35.9807470146
  0
LINE
  5
5FC
100
AcDbEntity
  8
0
100
AcDbLine
 62
250
  6
CONTINUOUS
 10
-35.8686309626
 20
35.6996831836
 11
-36.0625236729
 21
35.6964500053
  0
LINE
  5
5FD
100
AcDbEntity
  8
0
100
AcDbLine
 62
250
  6
CONTINUOUS
 10
-35.6771262366
 20
35.701915091
 11
-35.8686309626
 21
35.6996831836
  0
LINE
  5
5FE
100
AcDbEntity
  8
0
100
AcDbLine
 62
250
  6
CONTINUOUS
 10
-26.1411854649
 20
36.0164488257
 11
-27.7587986934
 21
35.9983432162
  0
LINE
  5
5FF
100
AcDbEntity
  8
0
100
AcDbLine
 62
250
  6
CONTINUOUS
 10
-20.1464770327
 20
36.0485775706
 11
-26.1411854649
 21
36.0164488257
  0
LINE
  5
600
100
AcDbEntity
  8
0
100
AcDbLine
 62
7
  6
CONTINUOUS
 10
1.29402
 20
30.7284
 11
1.713676
 21
30.7284
  0
LINE
  5
601
100
AcDbEntity
  8
0
100
AcDbLine
 62
7
  6
CONTINUOUS
 10
3.1770630743
 20
30.806580513
 11
2.9420487595
 21
30.806580513
  0
LINE
  5
602
100
AcDbEntity
  8
0
100
AcDbLine
 62
7
  6
CONTINUOUS
 10
2.927514876
 20
31.1504808569
 11
3.1780078554
 21
31.1504808569
  0
LINE
  5
603
100
AcDbEntity
  8
0
100
AcDbLine
 62
7
  6
CONTINUOUS
 10
-4.112412
 20
32.084649
 11
-3.636266
 21
32.084649
  0
LINE
  5
604
100
AcDbEntity
  8
0
100
AcDbLine
 62
7
  6
CONTINUOUS
 10
-2.82351
 20
32.084649
 11
-2.385493
 21
32.084649
  0
LINE
  5
605
100
AcDbEntity
  8
0
100
AcDbLine
 62
7
  6
CONTINUOUS
 10
-1.358957
 20
32.084649
 11
-0.921004
 21
32.084649
  0
LINE
  5
606
100
AcDbEntity
  8
0
100
AcDbLine
 62
7
  6
CONTINUOUS
 10
-0.049002
 20
32.084649
 11
0.384668
 21
32.084649
  0
LINE
  5
607
100
AcDbEntity
  8
0
100
AcDbLine
 62
7
  6
CONTINUOUS
 10
1.308491
 20
32.084649
 11
1.732508
 21
32.084649
  0
LINE
  5
608
100
AcDbEntity
  8
0
100
AcDbLine
 62
7
  6
CONTINUOUS
 10
-2.222834
 20
32.084775
 11
-1.784518
 21
32.084775
  0
LINE
  5
609
100
AcDbEntity
  8
0
100
AcDbLine
 62
7
  6
CONTINUOUS
 10
36.4845613459
 20
37.5499446756
 11
-36.4845613654
 21
37.5499444253
  0
LINE
  5
60A
100
AcDbEntity
  8
0
100
AcDbLine
 62
250
  6
CONTINUOUS
 10
35.5358660958
 20
37.5357751927
 11
-34.2650216042
 21
37.5352345448
  0
LINE
  5
60B
100
AcDbEntity
  8
0
100
AcDbLine
 62
250
  6
CONTINUOUS
 10
-34.2650216042
 20
37.5352345448
 11
-35.5358734616
 21
37.5357751839
  0
LINE
  5
60C
100
AcDbEntity
  8
0
100
AcDbLine
 62
250
  6
CONTINUOUS
 10
-20.1464770327
 20
36.0485775706
 11
0.5173048672
 21
36.0889777552
  0
LINE
  5
60D
100
AcDbEntity
  8
0
100
AcDbLine
 62
250
  6
CONTINUOUS
 10
0.5173048672
 20
36.0889777552
 11
9.7287086291
 21
36.0758339515
  0
LINE
  5
60E
100
AcDbEntity
  8
0
100
AcDbLine
 62
250
  6
CONTINUOUS
 10
9.7287086291
 20
36.0758339515
 11
22.5568294275
 21
36.0396880784
  0
LINE
  5
60F
100
AcDbEntity
  8
0
100
AcDbLine
 62
250
  6
CONTINUOUS
 10
22.5568294275
 20
36.0396880784
 11
25.7629219214
 21
36.0192622301
  0
LWPOLYLINE
  5
610
100
AcDbEntity
  8
0
100
AcDbPolyline
 62
250
  6
CONTINUOUS
 90
16
 70
0
 10
35.6770829733
 20
35.701931596
 10
35.8758061607
 20
35.6997790919
 10
36.0692606424
 20
35.6960287243
 10
36.2556705848
 20
35.690763836
 10
36.4324334346
 20
35.6841217756
 10
36.5991852483
 20
35.6761817344
 10
36.7572882316
 20
35.6668865945
 10
36.9057916748
 20
35.6562371307
 10
37.0421587896
 20
35.6443553296
 10
37.1649248193
 20
35.6313161898
 10
37.2726069223
 20
35.6172090623
 10
37.363594626
 20
35.6021658742
 10
37.4364240588
 20
35.5863485065
 10
37.4899623498
 20
35.5699175843
 10
37.5233248319
 20
35.5530270505
 10
37.5357752562
 20
35.5358497286
  0
LINE
  5
611
100
AcDbEntity
  8
0
100
AcDbLine
 62
250
  6
CONTINUOUS
 10
25.7629219214
 20
36.0192622301
 11
27.09355529
 21
36.0068273047
  0
LINE
  5
612
100
AcDbEntity
  8
0
100
AcDbLine
 62
250
  6
CONTINUOUS
 10
27.09355529
 20
36.0068273047
 11
28.2629712766
 21
35.9905016993
  0
LINE
  5
613
100
AcDbEntity
  8
0
100
AcDbLine
 62
250
  6
CONTINUOUS
 10
28.2629712766
 20
35.9905016993
 11
28.9708197771
 21
35.9775786777
  0
LINE
  5
614
100
AcDbEntity
  8
0
100
AcDbLine
 62
250
  6
CONTINUOUS
 10
28.9708197771
 20
35.9775786777
 11
29.9362424388
 21
35.9532335503
  0
LINE
  5
615
100
AcDbEntity
  8
0
100
AcDbLine
 62
250
  6
CONTINUOUS
 10
29.9362424388
 20
35.9532335503
 11
31.0681031004
 21
35.9182250049
  0
LINE
  5
616
100
AcDbEntity
  8
0
100
AcDbLine
 62
250
  6
CONTINUOUS
 10
31.0681031004
 20
35.9182250049
 11
33.0722613939
 21
35.8447388183
  0
LWPOLYLINE
  5
617
100
AcDbEntity
  8
0
100
AcDbPolyline
 62
250
  6
CONTINUOUS
 90
11
 70
0
 10
33.0722613939
 20
35.8447388183
 10
34.653651496
 20
35.7797414925
 10
34.7843471436
 20
35.7728509456
 10
34.9108044909
 20
35.765237727
 10
35.0334164788
 20
35.7577258149
 10
35.1522272283
 20
35.7487498099
 10
35.2667268285
 20
35.7371776051
 10
35.3764440457
 20
35.7255176919
 10
35.4812925181
 20
35.7155425456
 10
35.5814421534
 20
35.7074613749
 10
35.6770528592
 20
35.7019364834
  0
LWPOLYLINE
  5
618
100
AcDbEntity
  8
0
100
AcDbPolyline
 62
7
  6
CONTINUOUS
 90
7
 70
0
 10
3.2708849867
 20
31.7392854559
 10
3.213432824
 20
31.7445954308
 10
3.1558495707
 20
31.7470312555
 10
3.0983321552
 20
31.7463125608
 10
3.0410486449
 20
31.7423618299
 10
2.9840857885
 20
31.7356929097
 10
2.927514876
 20
31.7269233382
  0
LINE
  5
619
100
AcDbEntity
  8
0
100
AcDbLine
 62
7
  6
CONTINUOUS
 10
3.5874227496
 20
32.0379250911
 11
3.5875377917
 21
32.0378834837
  0
LWPOLYLINE
  5
61A
100
AcDbEntity
  8
0
100
AcDbPolyline
 62
7
  6
CONTINUOUS
 90
55
 70
0
 10
3.5874227701
 20
32.0379251439
 10
3.633432942
 20
32.0174925796
 10
3.676075838
 20
31.99204988
 10
3.7154800088
 20
31.9632847319
 10
3.7518673598
 20
31.9316163577
 10
3.7847922147
 20
31.8976378117
 10
3.8134568969
 20
31.8626549414
 10
3.8377489245
 20
31.8276981061
 10
3.8583129376
 20
31.792791302
 10
3.8756853991
 20
31.7578223835
 10
3.8901119153
 20
31.7229971334
 10
3.9017932202
 20
31.6887100781
 10
3.911059486
 20
31.6549920177
 10
3.9181436499
 20
31.6220255983
 10
3.9232821982
 20
31.5899684255
 10
3.9267433229
 20
31.5587540593
 10
3.9287654141
 20
31.5284701306
 10
3.9295190106
 20
31.4991934834
 10
3.9291129479
 20
31.4708134088
 10
3.9276309262
 20
31.4433489923
 10
3.9251389322
 20
31.4168577801
 10
3.9216903547
 20
31.3912756755
 10
3.91736148
 20
31.3666430305
 10
3.9122371639
 20
31.342985867
 10
3.9063713788
 20
31.3202191272
 10
3.8998295937
 20
31.2983475875
 10
3.8926859415
 20
31.2774017496
 10
3.8849939351
 20
31.2573283214
 10
3.8768292652
 20
31.2381333545
 10
3.8682610113
 20
31.2198108669
 10
3.8593202628
 20
31.2022874989
 10
3.8500562831
 20
31.1855441762
 10
3.8405337707
 20
31.1695885928
 10
3.830794459
 20
31.1543884865
 10
3.820898274
 20
31.1399453051
 10
3.8108867164
 20
31.1262351278
 10
3.8007623145
 20
31.1131896288
 10
3.79055767
 20
31.1007876222
 10
3.7803144178
 20
31.0890160854
 10
3.7700379808
 20
31.0778234414
 10
3.7597605716
 20
31.0671931616
 10
3.7495083368
 20
31.0571040648
 10
3.7392694146
 20
31.0475063848
 10
3.7290642167
 20
31.0384142912
 10
3.7189080102
 20
31.0298451862
 10
3.7087715238
 20
31.021776896
 10
3.6986321197
 20
31.0141957763
 10
3.6885364491
 20
31.0071315727
 10
3.6785500705
 20
31.0005711761
 10
3.6687283086
 20
30.9944707526
 10
3.6590253752
 20
30.9887309348
 10
3.6493385007
 20
30.9833183757
 10
3.6394907
 20
30.979054461
 10
3.629311919
 20
30.9771611168
 10
3.618633741
 20
30.9786542866
  0
LINE
  5
61B
100
AcDbEntity
  8
0
100
AcDbLine
 62
7
  6
CONTINUOUS
 10
28.780825
 20
17.892031
 11
27.660464
 21
18.836167
  0
LINE
  5
61C
100
AcDbEntity
  8
0
100
AcDbLine
 62
7
  6
CONTINUOUS
 10
27.608751
 20
19.3961
 11
28.780825
 21
18.408387
  0
LINE
  5
61D
100
AcDbEntity
  8
0
100
AcDbLine
 62
7
  6
CONTINUOUS
 10
39.8630572237
 20
-3.5572341992
 11
39.9619654493
 21
-3.706070796
  0
LINE
  5
61E
100
AcDbEntity
  8
0
100
AcDbLine
 62
7
  6
CONTINUOUS
 10
29.964676
 20
16.281259
 11
29.772879
 21
16.622978
  0
LWPOLYLINE
  5
61F
100
AcDbEntity
  8
0
100
AcDbPolyline
 62
250
  6
CONTINUOUS
 90
3
 70
0
 10
35.6770528592
 20
35.7019364834
 10
35.6983591241
 20
35.4643491467
 10
35.7181572785
 20
35.2235754155
  0
LWPOLYLINE
  5
620
100
AcDbEntity
  8
0
100
AcDbPolyline
 62
250
  6
CONTINUOUS
 90
17
 70
0
 10
35.6365549614
 20
36.9324265076
 10
35.6314662317
 20
37.0011814645
 10
35.6261032616
 20
37.0663816183
 10
35.620752987
 20
37.1278716415
 10
35.6149880374
 20
37.1857449239
 10
35.6089926621
 20
37.2400363351
 10
35.6029725288
 20
37.2902691374
 10
35.5965608644
 20
37.3358259502
 10
35.590084593
 20
37.3762611624
 10
35.5838100518
 20
37.4120252962
 10
35.5772175288
 20
37.4437280824
 10
35.5703340637
 20
37.4714950771
 10
35.563419603
 20
37.4945780444
 10
35.5562943365
 20
37.5123804507
 10
35.5491032266
 20
37.524973057
 10
35.5422159523
 20
37.532702363
 10
35.5358513422
 20
37.5357751883
  0
LINE
  5
621
100
AcDbEntity
  8
0
100
AcDbLine
 62
250
  6
CONTINUOUS
 10
35.7181572785
 20
35.2235754155
 11
35.7683259774
 21
34.5091730979
  0
LINE
  5
622
100
AcDbEntity
  8
0
100
AcDbLine
 62
7
  6
CONTINUOUS
 10
38.3863401559
 20
-3.5572341992
 11
38.3962061085
 21
-3.706070796
  0
LINE
  5
623
100
AcDbEntity
  8
0
100
AcDbLine
 62
250
  6
CONTINUOUS
 10
35.7683259774
 20
34.5091730979
 11
35.7835784427
 21
34.26686394
  0
LWPOLYLINE
  5
624
100
AcDbEntity
  8
0
100
AcDbPolyline
 62
7
  6
CONTINUOUS
 90
19
 70
0
 10
38.4
 20
36.6000687469
 10
38.3934597643
 20
36.7547667338
 10
38.3737711741
 20
36.9070406245
 10
38.3409342295
 20
37.056890419
 10
38.2946080977
 20
37.2056664424
 10
38.2351336115
 20
37.3520183697
 10
38.163533269
 20
37.4918952255
 10
38.0794467885
 20
37.6250029344
 10
37.9832344518
 20
37.7516355718
 10
37.8769996026
 20
37.8686243886
 10
37.7603631418
 20
37.9757318112
 10
37.6337041685
 20
38.0731954131
 10
37.5002633237
 20
38.1585591663
 10
37.3597730995
 20
38.231438943
 10
37.2125010038
 20
38.2922188709
 10
37.062490202
 20
38.3395953051
 10
36.9110884158
 20
38.3731336971
 10
36.7569479235
 20
38.3932685955
 10
36.600068725
 20
38.4
  0
LWPOLYLINE
  5
625
100
AcDbEntity
  8
0
100
AcDbPolyline
 62
7
  6
CONTINUOUS
 90
4
 70
0
 10
38.3851764814
 20
-3.5203747827
 10
38.3855483976
 20
-3.5364492878
 10
38.3859362891
 20
-3.54873576
 10
38.3863401559
 20
-3.5572341992
  0
LINE
  5
626
100
AcDbEntity
  8
0
100
AcDbLine
 62
7
  6
CONTINUOUS
 10
38.3844761228
 20
-3.4765084611
 11
38.3851764814
 21
-3.5203747827
  0
LINE
  5
627
100
AcDbEntity
  8
0
100
AcDbLine
 62
7
  6
CONTINUOUS
 10
38.3833405686
 20
-3.3491469542
 11
38.3819832087
 21
-3.2122984716
  0
LWPOLYLINE
  5
628
100
AcDbEntity
  8
0
100
AcDbPolyline
 62
7
  6
CONTINUOUS
 90
3
 70
0
 10
38.3833405718
 20
-3.3491474268
 10
38.3835899225
 20
-3.3858308554
 10
38.3844761228
 20
-3.4765084611
  0
LINE
  5
629
100
AcDbEntity
  8
0
100
AcDbLine
 62
7
  6
CONTINUOUS
 10
38.3819832087
 20
-3.2122984716
 11
38.3811617735
 21
-3.0615117685
  0
LINE
  5
62A
100
AcDbEntity
  8
0
100
AcDbLine
 62
7
  6
CONTINUOUS
 10
38.4
 20
36.6000685384
 11
38.4
 21
4.2017932267
  0
LINE
  5
62B
100
AcDbEntity
  8
0
100
AcDbLine
 62
7
  6
CONTINUOUS
 10
38.4
 20
-4.2017932267
 11
38.4
 21
-36.6000685384
  0
LINE
  5
62C
100
AcDbEntity
  8
0
100
AcDbLine
 62
7
  6
CONTINUOUS
 10
39.8250226729
 20
3.0615117685
 11
39.8250226729
 21
-3.0615117685
  0
LINE
  5
62D
100
AcDbEntity
  8
0
100
AcDbLine
 62
7
  6
CONTINUOUS
 10
40.0
 20
37.0114159057
 11
40.0
 21
4.2017932267
  0
LINE
  5
62E
100
AcDbEntity
  8
0
100
AcDbLine
 62
7
  6
CONTINUOUS
 10
40.0
 20
-4.2017932267
 11
40.0
 21
-37.0114159057
  0
LINE
  5
62F
100
AcDbEntity
  8
0
100
AcDbLine
 62
7
  6
CONTINUOUS
 10
38.3811617735
 20
-3.0615117685
 11
38.3813756484
 21
3.1124252551
  0
LINE
  5
630
100
AcDbEntity
  8
0
100
AcDbLine
 62
7
  6
CONTINUOUS
 10
38.3813756484
 20
3.1124252551
 11
38.3823754905
 21
3.2600732435
  0
LINE
  5
631
100
AcDbEntity
  8
0
100
AcDbLine
 62
7
  6
CONTINUOUS
 10
38.3841565845
 20
3.4494230289
 11
38.3833405713
 21
3.3491473417
  0
LINE
  5
632
100
AcDbEntity
  8
0
100
AcDbLine
 62
7
  6
CONTINUOUS
 10
38.3823754905
 20
3.2600732435
 11
38.3833405686
 21
3.3491469323
  0
LWPOLYLINE
  5
633
100
AcDbEntity
  8
RACCORDO
100
AcDbPolyline
 62
7
  6
CONTINUOUS
 90
3
 70
0
 10
38.4
 20
-36.6000685384
 10
38.3927638536
 20
-36.7584566654
 10
38.3723456716
 20
-36.9134883288
  0
LWPOLYLINE
  5
634
100
AcDbEntity
  8
0
100
AcDbPolyline
 62
7
  6
CONTINUOUS
 90
6
 70
0
 10
38.3863401559
 20
3.5572341992
 10
38.385936289
 20
3.5487357587
 10
38.3855483974
 20
3.5364492831
 10
38.3851764812
 20
3.5203747723
 10
38.3848183142
 20
3.5003356199
 10
38.3841565845
 20
3.4494230289
  0
LWPOLYLINE
  5
635
100
AcDbEntity
  8
0
100
AcDbPolyline
 62
250
  6
CONTINUOUS
 90
4
 70
0
 10
35.7619936529
 20
-34.6771261805
 10
35.7696082116
 20
-34.5622256586
 10
35.7755627288
 20
-34.4438506347
 10
35.8312894981
 20
-33.1788754421
  0
LINE
  5
636
100
AcDbEntity
  8
0
100
AcDbLine
 62
7
  6
CONTINUOUS
 10
38.3962061085
 20
3.706070796
 11
38.3863401559
 21
3.5572341992
  0
LINE
  5
637
100
AcDbEntity
  8
0
100
AcDbLine
 62
250
  6
CONTINUOUS
 10
35.6771001073
 20
-35.7019330863
 11
35.6825651331
 21
-35.6264219131
  0
LWPOLYLINE
  5
638
100
AcDbEntity
  8
0
100
AcDbPolyline
 62
250
  6
CONTINUOUS
 90
3
 70
0
 10
35.6825651331
 20
-35.6264219131
 10
35.695550275
 20
-35.4653506549
 10
35.7085367879
 20
-35.2905071506
  0
LWPOLYLINE
  5
639
100
AcDbEntity
  8
0
100
AcDbPolyline
 62
250
  6
CONTINUOUS
 90
3
 70
0
 10
35.7085367879
 20
-35.2905071506
 10
35.7162994009
 20
-35.1976404098
 10
35.7344066964
 20
-35.0002098827
  0
LINE
  5
63A
100
AcDbEntity
  8
0
100
AcDbLine
 62
250
  6
CONTINUOUS
 10
35.7344066964
 20
-35.0002098827
 11
35.7619936529
 21
-34.6771261805
  0
LWPOLYLINE
  5
63B
100
AcDbEntity
  8
0
100
AcDbPolyline
 62
250
  6
CONTINUOUS
 90
17
 70
0
 10
-36.9234151374
 20
35.6548664526
 10
-36.9931595276
 20
35.648883579
 10
-37.0593064624
 20
35.6425815558
 10
-37.1216997937
 20
35.6362495299
 10
-37.1804333715
 20
35.6294552459
 10
-37.2355426437
 20
35.6223817548
 10
-37.2865383304
 20
35.6152436577
 10
-37.3327862297
 20
35.6076866834
 10
-37.3738272582
 20
35.6000575794
 10
-37.410126346
 20
35.5926166546
 10
-37.4423137467
 20
35.5848174384
 10
-37.4705195273
 20
35.5766710545
 10
-37.4939698033
 20
35.5684625219
 10
-37.512047537
 20
35.5600471874
 10
-37.5248262211
 20
35.551586542
 10
-37.5326642051
 20
35.5434466294
 10
-37.5357750861
 20
35.53585124
  0
LWPOLYLINE
  5
63C
100
AcDbEntity
  8
0
100
AcDbPolyline
 62
250
  6
CONTINUOUS
 90
3
 70
0
 10
-34.99696086
 20
35.7590506708
 10
-35.2117789428
 20
35.7410024303
 10
-35.5037530923
 20
35.7147271612
  0
LWPOLYLINE
  5
63D
100
AcDbEntity
  8
0
100
AcDbPolyline
 62
250
  6
CONTINUOUS
 90
3
 70
0
 10
-35.5037530923
 20
35.7147271612
 10
-35.5924829028
 20
35.7075522433
 10
-35.6771175884
 20
35.7020307393
  0
LWPOLYLINE
  5
63E
100
AcDbEntity
  8
0
100
AcDbPolyline
 62
7
  6
CONTINUOUS
 90
19
 70
0
 10
-36.6000687398
 20
38.4
 10
-36.7564998947
 20
38.3933007789
 10
-36.9102047452
 20
38.3732814725
 10
-37.0611832911
 20
38.339942081
 10
-37.2107571217
 20
38.2928629294
 10
-37.3576046477
 20
38.2324636927
 10
-37.4977611021
 20
38.1600033951
 10
-37.6309553678
 20
38.0751504764
 10
-37.7574585618
 20
37.9782364968
 10
-37.8741192677
 20
37.8715151618
 10
-37.9806507725
 20
37.7546662247
 10
-38.077339789
 20
37.6280099322
 10
-38.1618950397
 20
37.4947607289
 10
-38.2339170208
 20
37.3546261896
 10
-38.293805236
 20
37.2078987396
 10
-38.3404669182
 20
37.0586700994
 10
-38.3735378118
 20
36.908304176
 10
-38.3933821724
 20
36.7554370624
 10
-38.4
 20
36.6000687587
  0
LINE
  5
63F
100
AcDbEntity
  8
0
100
AcDbLine
 62
7
  6
CONTINUOUS
 10
-36.6000687398
 20
38.4
 11
36.600068725
 21
38.4
  0
LINE
  5
640
100
AcDbEntity
  8
RACCORDO
100
AcDbLine
 62
7
  6
CONTINUOUS
 10
36.6000685384
 20
38.4
 11
-36.6000685384
 21
38.4
  0
LINE
  5
641
100
AcDbEntity
  8
RACCORDO
100
AcDbLine
 62
7
  6
CONTINUOUS
 10
-37.0114159057
 20
40.0
 11
37.0114159057
 21
40.0
  0
LWPOLYLINE
  5
642
100
AcDbEntity
  8
RACCORDO
100
AcDbPolyline
 62
7
  6
CONTINUOUS
 90
4
 70
0
 10
36.6000685384
 20
38.4
 10
36.7589305125
 20
38.3927528704
 10
36.9142864616
 20
38.3722936264
 10
37.0642390351
 20
38.3390429883
  0
LWPOLYLINE
  5
643
100
AcDbEntity
  8
RACCORDO
100
AcDbPolyline
 62
7
  6
CONTINUOUS
 90
14
 70
0
 10
38.3723456716
 20
-36.9134883288
 10
38.3387454539
 20
-37.0651635287
 10
38.2914892612
 20
-37.2146752945
 10
38.2310510329
 20
-37.3608305967
 10
38.1588525872
 20
-37.5000503469
 10
38.0746601221
 20
-37.6320388704
 10
37.9787074395
 20
-37.7570918418
 10
37.8731177644
 20
-37.8725171974
 10
37.7576845024
 20
-37.978116953
 10
37.6326142478
 20
-38.0740890928
 10
37.5006500081
 20
-38.1583355053
 10
37.361576799
 20
-38.2306522825
 10
37.2156096048
 20
-38.2912433324
 10
37.0661363856
 20
-38.3386222679
  0
LWPOLYLINE
  5
644
100
AcDbEntity
  8
0
100
AcDbPolyline
 62
250
  6
CONTINUOUS
 90
16
 70
0
 10
37.535775111
 20
-35.5358530185
 10
37.5240191504
 20
-35.5525070862
 10
37.4927472658
 20
-35.5688367033
 10
37.4428317249
 20
-35.5846885187
 10
37.375733138
 20
-35.599836772
 10
37.2923740496
 20
-35.6142455467
 10
37.192167191
 20
-35.628031766
 10
37.0750553333
 20
-35.6411163572
 10
36.9423204732
 20
-35.6532801073
 10
36.7947577856
 20
-35.6643960777
 10
36.6333330294
 20
-35.6743348205
 10
36.4595133037
 20
-35.6829532674
 10
36.2751352458
 20
-35.6901184051
 10
36.082043622
 20
-35.6957248162
 10
35.8820203921
 20
-35.6996881768
 10
35.6770843188
 20
-35.7019351504
  0
LWPOLYLINE
  5
645
100
AcDbEntity
  8
0
100
AcDbPolyline
 62
250
  6
CONTINUOUS
 90
14
 70
0
 10
36.6390304967
 20
-36.5558044667
 10
36.7488136096
 20
-36.4468151285
 10
36.8585571241
 20
-36.3360655855
 10
36.9659132058
 20
-36.2253480996
 10
37.0652253083
 20
-36.1186218451
 10
37.1551557624
 20
-36.0181304105
 10
37.2368058926
 20
-35.9245323517
 10
37.3093728852
 20
-35.8397288009
 10
37.3720662488
 20
-35.7651235489
 10
37.4253983767
 20
-35.7006648994
 10
37.4698564358
 20
-35.6457170931
 10
37.5043131348
 20
-35.6000310924
 10
37.5268502264
 20
-35.5636210901
 10
37.535775111
 20
-35.5358530185
  0
LWPOLYLINE
  5
646
100
AcDbEntity
  8
0
100
AcDbPolyline
 62
250
  6
CONTINUOUS
 90
18
 70
0
 10
35.5358513357
 20
-37.5357751819
 10
35.5422235928
 20
-37.532695406
 10
35.5491203427
 20
-37.5249468153
 10
35.5563218658
 20
-37.5123218391
 10
35.563457589
 20
-37.4944715884
 10
35.5703811258
 20
-37.4713257589
 10
35.5772715651
 20
-37.4434884353
 10
35.5838688971
 20
-37.4117168326
 10
35.5901473036
 20
-37.3758844314
 10
35.5966278591
 20
-37.3353750129
 10
35.6030427096
 20
-37.289735631
 10
35.609064899
 20
-37.2394146984
 10
35.6150631911
 20
-37.1850277334
 10
35.6208312401
 20
-37.1270492964
 10
35.6261833451
 20
-37.0654464752
 10
35.6315479126
 20
-37.0001302311
 10
35.6366409784
 20
-36.9312494431
 10
35.6459400461
 20
-36.7832304074
  0
LWPOLYLINE
  5
647
100
AcDbEntity
  8
0
100
AcDbPolyline
 62
250
  6
CONTINUOUS
 90
12
 70
0
 10
35.5358513357
 20
-37.5357751819
 10
35.5586169207
 20
-37.5278386876
 10
35.5930479937
 20
-37.5075304143
 10
35.6383983219
 20
-37.4756703083
 10
35.6942222776
 20
-37.432465536
 10
35.7596892854
 20
-37.3783931815
 10
35.8338675802
 20
-37.3149406396
 10
35.91780553
 20
-37.2420577614
 10
36.0100393899
 20
-37.1596982815
 10
36.1066467977
 20
-37.0706094936
 10
36.2075570627
 20
-36.9752818113
 10
36.6390304967
 20
-36.5558044667
  0
LWPOLYLINE
  5
648
100
AcDbEntity
  8
RACCORDO
100
AcDbPolyline
 62
7
  6
CONTINUOUS
 90
4
 70
0
 10
-37.0661363856
 20
38.3386222679
 10
-36.9142864616
 20
38.3722936264
 10
-36.7589305125
 20
38.3927528704
 10
-36.6000685384
 20
38.4
  0
LWPOLYLINE
  5
649
100
AcDbEntity
  8
RACCORDO
100
AcDbPolyline
 62
7
  6
CONTINUOUS
 90
13
 70
0
 10
37.0661363856
 20
38.3386222679
 10
37.2156096048
 20
38.2912433324
 10
37.361576799
 20
38.2306522825
 10
37.5006500081
 20
38.1583355053
 10
37.6326142478
 20
38.0740890928
 10
37.7576845024
 20
37.978116953
 10
37.8731177644
 20
37.8725171974
 10
37.9787074396
 20
37.7570918418
 10
38.0746601221
 20
37.6320388704
 10
38.1588525872
 20
37.500050347
 10
38.2310510329
 20
37.3608305967
 10
38.2914892612
 20
37.2146752945
 10
38.3387454539
 20
37.0651635287
  0
LWPOLYLINE
  5
64A
100
AcDbEntity
  8
0
100
AcDbPolyline
 62
250
  6
CONTINUOUS
 90
13
 70
0
 10
35.5358513422
 20
37.5357751883
 10
35.5583418311
 20
37.527895587
 10
35.5926069383
 20
37.5077104634
 10
35.6378975162
 20
37.4759870236
 10
35.6936423665
 20
37.4329084677
 10
35.7591159087
 20
37.3788914866
 10
35.833699432
 20
37.3152501479
 10
35.9187252411
 20
37.2415608149
 10
36.0122959485
 20
37.157845645
 10
36.1098264854
 20
37.0675413047
 10
36.211135192
 20
36.9716917604
 10
36.316684135
 20
36.8699017711
 10
36.6419601312
 20
36.552828996
  0
LWPOLYLINE
  5
64B
100
AcDbEntity
  8
0
100
AcDbPolyline
 62
250
  6
CONTINUOUS
 90
14
 70
0
 10
36.6419601312
 20
36.552828996
 10
36.7512855007
 20
36.444274137
 10
36.8605496384
 20
36.3339510901
 10
36.967446255
 20
36.2236687474
 10
37.0665392132
 20
36.1172033464
 10
37.156584465
 20
36.0165777279
 10
37.2384379077
 20
35.9226278965
 10
37.3110427204
 20
35.8376644037
 10
37.3736335846
 20
35.7632711509
 10
37.4267664057
 20
35.6991997491
 10
37.4708583569
 20
35.6446575466
 10
37.5048623096
 20
35.5993366565
 10
37.5270208242
 20
35.5632822454
 10
37.5357752562
 20
35.5358497286
  0
LWPOLYLINE
  5
64C
100
AcDbEntity
  8
RACCORDO
100
AcDbPolyline
 62
7
  6
CONTINUOUS
 90
4
 70
0
 10
38.3387454539
 20
37.0651635287
 10
38.3723456716
 20
36.9134883288
 10
38.3927638536
 20
36.7584566654
 10
38.4
 20
36.6000685384
  0
ARC
  5
64D
100
AcDbEntity
  8
0
100
AcDbCircle
 62
7
  6
CONTINUOUS
 10
-36.5
 20
-36.5
 40
1.047444154
100
AcDbArc
 50
180.0000000001
 51
269.9999999999
  0
ARC
  5
64E
100
AcDbEntity
  8
0
100
AcDbCircle
 62
7
  6
CONTINUOUS
 10
-11.05
 20
-22.3
 40
0.2
100
AcDbArc
 50
180.0
 51
270.0
  0
ARC
  5
64F
100
AcDbEntity
  8
0
100
AcDbCircle
 62
7
  6
CONTINUOUS
 10
-29.5677573404
 20
18.0
 40
1.2406538298
100
AcDbArc
 50
90.0
 51
270.0
  0
ARC
  5
650
100
AcDbEntity
  8
0
100
AcDbCircle
 62
7
  6
CONTINUOUS
 10
-28.663552234
 20
18.0
 40
1.2406538298
100
AcDbArc
 50
90.0
 51
270.0
  0
ARC
  5
651
100
AcDbEntity
  8
0
100
AcDbCircle
 62
7
  6
CONTINUOUS
 10
-27.7593461702
 20
18.0
 40
1.2406538298
100
AcDbArc
 50
90.0
 51
270.0
  0
ARC
  5
652
100
AcDbEntity
  8
0
100
AcDbCircle
 62
7
  6
CONTINUOUS
 10
-36.5
 20
36.5
 40
1.0474436227
100
AcDbArc
 50
90.0000000001
 51
179.9999999999
  0
ARC
  5
653
100
AcDbEntity
  8
0
100
AcDbCircle
 62
7
  6
CONTINUOUS
 10
-29.5677573404
 20
18.0
 40
0.8726639362
100
AcDbArc
 50
90.0
 51
270.0
  0
ARC
  5
654
100
AcDbEntity
  8
0
100
AcDbCircle
 62
7
  6
CONTINUOUS
 10
-28.663552234
 20
18.0
 40
0.8726639362
100
AcDbArc
 50
90.0
 51
270.0
  0
ARC
  5
655
100
AcDbEntity
  8
0
100
AcDbCircle
 62
7
  6
CONTINUOUS
 10
-27.7593461702
 20
18.0
 40
0.8726639362
100
AcDbArc
 50
90.0
 51
270.0
  0
ARC
  5
656
100
AcDbEntity
  8
0
100
AcDbCircle
 62
7
  6
CONTINUOUS
 10
-11.05
 20
22.3
 40
0.2
100
AcDbArc
 50
90.0
 51
180.0
  0
ARC
  5
657
100
AcDbEntity
  8
0
100
AcDbCircle
 62
7
  6
CONTINUOUS
 10
32.417556
 20
-18.0
 40
2.5499986575
100
AcDbArc
 50
87.752529198
 51
272.247470802
  0
ARC
  5
658
100
AcDbEntity
  8
0
100
AcDbCircle
 62
7
  6
CONTINUOUS
 10
28.032446
 20
-18.0
 40
2.5499985399
100
AcDbArc
 50
87.7525290943
 51
272.2474709057
  0
ARC
  5
659
100
AcDbEntity
  8
0
100
AcDbCircle
 62
7
  6
CONTINUOUS
 10
28.032446
 20
-18.0
 40
1.7999999246
100
AcDbArc
 50
86.8152613297
 51
273.1847386703
  0
ARC
  5
65A
100
AcDbEntity
  8
0
100
AcDbCircle
 62
7
  6
CONTINUOUS
 10
32.417556
 20
-18.0
 40
1.7999999246
100
AcDbArc
 50
86.8152613297
 51
167.9753003079
  0
ARC
  5
65B
100
AcDbEntity
  8
0
100
AcDbCircle
 62
7
  6
CONTINUOUS
 10
32.417556
 20
-18.0
 40
1.7999968808
100
AcDbArc
 50
192.0247203293
 51
273.1847440612
  0
ARC
  5
65C
100
AcDbEntity
  8
0
100
AcDbCircle
 62
7
  6
CONTINUOUS
 10
36.5
 20
-36.5
 40
1.0474446118
100
AcDbArc
 50
270.0000000005
 51
359.9999999995
  0
ARC
  5
65D
100
AcDbEntity
  8
RACCORDO
100
AcDbCircle
 62
7
  6
CONTINUOUS
 10
-0.0
 20
-26.7
 40
0.3
100
AcDbArc
 50
195.0
 51
345.0
  0
ARC
  5
65E
100
AcDbEntity
  8
0
100
AcDbCircle
 62
7
  6
CONTINUOUS
 10
11.05
 20
-22.3
 40
0.2
100
AcDbArc
 50
270.0
 51
360.0
  0
ARC
  5
65F
100
AcDbEntity
  8
0
100
AcDbCircle
 62
7
  6
CONTINUOUS
 10
29.0
 20
18.0
 40
2.6237424326
100
AcDbArc
 50
292.0885393584
 51
273.4297246723
  0
ARC
  5
660
100
AcDbEntity
  8
0
100
AcDbCircle
 62
7
  6
CONTINUOUS
 10
28.920643
 20
13.053907
 40
2.3390187052
100
AcDbArc
 50
47.2312712626
 51
84.2012841963
  0
ARC
  5
661
100
AcDbEntity
  8
0
100
AcDbCircle
 62
7
  6
CONTINUOUS
 10
29.104722
 20
13.432776
 40
2.3109495123
100
AcDbArc
 50
45.4348886633
 51
67.5658613447
  0
CIRCLE
  5
662
100
AcDbEntity
  8
0
100
AcDbCircle
 62
7
  6
CONTINUOUS
 10
29.0
 20
18.0
 40
2.20376
  0
ARC
  5
663
100
AcDbEntity
  8
0
100
AcDbCircle
 62
7
  6
CONTINUOUS
 10
29.0
 20
18.0
 40
1.9709567246
100
AcDbArc
 50
299.3041457634
 51
44.9957848293
  0
ARC
  5
664
100
AcDbEntity
  8
0
100
AcDbCircle
 62
7
  6
CONTINUOUS
 10
29.0
 20
18.0
 40
1.9709563643
100
AcDbArc
 50
134.9002846268
 51
240.6958542366
  0
ARC
  5
665
100
AcDbEntity
  8
0
100
AcDbCircle
 62
7
  6
CONTINUOUS
 10
29.0
 20
18.0
 40
1.5790921275
100
AcDbArc
 50
148.0267086216
 51
240.6958772397
  0
ARC
  5
666
100
AcDbEntity
  8
0
100
AcDbCircle
 62
7
  6
CONTINUOUS
 10
29.0
 20
18.0
 40
1.5790919977
100
AcDbArc
 50
299.3041227603
 51
31.9732907039
  0
ARC
  5
667
100
AcDbEntity
  8
0
100
AcDbCircle
 62
7
  6
CONTINUOUS
 10
36.5
 20
36.5
 40
1.0474441087
100
AcDbArc
 50
0.0000000001
 51
89.9999999999
  0
ARC
  5
668
100
AcDbEntity
  8
RACCORDO
100
AcDbCircle
 62
7
  6
CONTINUOUS
 10
0.0
 20
26.7
 40
0.3
100
AcDbArc
 50
15.0
 51
165.0
  0
ARC
  5
669
100
AcDbEntity
  8
0
100
AcDbCircle
 62
7
  6
CONTINUOUS
 10
11.05
 20
22.3
 40
0.2
100
AcDbArc
 50
0.0
 51
90.0
  0
ELLIPSE
  5
66A
100
AcDbEntity
  8
0
100
AcDbEllipse
 62
7
  6
CONTINUOUS
 10
-37.5369096983
 20
3.0615117685
 30
0.0
 11
-0.0
 21
0.5
 31
0.0
 40
0.0087268678
 41
-0.9668352318
 42
-0.1308996939
  0
ELLIPSE
  5
66B
100
AcDbEntity
  8
0
100
AcDbEllipse
 62
7
  6
CONTINUOUS
 10
-37.5456365661
 20
4.2017932267
 30
0.0
 11
0.0
 21
0.5
 31
0.0
 40
0.0087268678
 41
-4.7123862692
 42
-3.2724923475
  0
ELLIPSE
  5
66C
100
AcDbEntity
  8
0
100
AcDbEllipse
 62
7
  6
CONTINUOUS
 10
-37.5456365661
 20
-4.2017932267
 30
0.0
 11
0.0
 21
0.5
 31
0.0
 40
0.0087268678
 41
0.1308996939
 42
1.5707936156
  0
ELLIPSE
  5
66D
100
AcDbEntity
  8
0
100
AcDbEllipse
 62
7
  6
CONTINUOUS
 10
-37.5369096983
 20
-3.0615117685
 30
0.0
 11
-0.0
 21
0.5
 31
0.0
 40
0.0087268678
 41
-3.0106929597
 42
-2.1747573682
  0
ELLIPSE
  5
66E
100
AcDbEntity
  8
RACCORDO
100
AcDbEllipse
 62
7
  6
CONTINUOUS
 10
-2.9234426594
 20
26.05
 30
0.0
 11
0.0
 21
0.3
 31
0.0
 40
0.0524077793
 41
-0.0523598776
 42
0.0
  0
ELLIPSE
  5
66F
100
AcDbEntity
  8
RACCORDO
100
AcDbEllipse
 62
7
  6
CONTINUOUS
 10
2.9234426594
 20
26.05
 30
0.0
 11
0.0
 21
0.3
 31
0.0
 40
0.0524077793
 41
-0.0
 42
0.0523598776
  0
ELLIPSE
  5
670
100
AcDbEntity
  8
RACCORDO
100
AcDbEllipse
 62
7
  6
CONTINUOUS
 10
2.9234426594
 20
25.35
 30
0.0
 11
0.0
 21
0.3
 31
0.0
 40
0.0524077793
 41
-3.1939525311
 42
-3.1415926536
  0
ELLIPSE
  5
671
100
AcDbEntity
  8
RACCORDO
100
AcDbEllipse
 62
7
  6
CONTINUOUS
 10
2.9234426594
 20
-25.35
 30
0.0
 11
-0.0
 21
0.3
 31
0.0
 40
0.0524077793
 41
-0.0
 42
0.0523598776
  0
ELLIPSE
  5
672
100
AcDbEntity
  8
RACCORDO
100
AcDbEllipse
 62
7
  6
CONTINUOUS
 10
-2.9234426594
 20
-26.05
 30
0.0
 11
-0.0
 21
0.3
 31
0.0
 40
0.0524077793
 41
-3.1415926536
 42
-3.089232776
  0
ELLIPSE
  5
673
100
AcDbEntity
  8
RACCORDO
100
AcDbEllipse
 62
7
  6
CONTINUOUS
 10
-2.9234426594
 20
-25.35
 30
0.0
 11
0.0
 21
0.3
 31
0.0
 40
0.0524077793
 41
-0.0523598776
 42
0.0
  0
ELLIPSE
  5
674
100
AcDbEntity
  8
RACCORDO
100
AcDbEllipse
 62
7
  6
CONTINUOUS
 10
2.9234426594
 20
-26.05
 30
0.0
 11
-0.0
 21
0.3
 31
0.0
 40
0.0524077793
 41
-3.1939525311
 42
-3.1415926536
  0
ELLIPSE
  5
675
100
AcDbEntity
  8
0
100
AcDbEllipse
 62
7
  6
CONTINUOUS
 10
37.5456365661
 20
4.2017932267
 30
0.0
 11
0.0
 21
0.5
 31
0.0
 40
0.0087268678
 41
-3.0106929597
 42
-1.5707990141
  0
ELLIPSE
  5
676
100
AcDbEntity
  8
0
100
AcDbEllipse
 62
7
  6
CONTINUOUS
 10
37.5456365661
 20
-4.2017932267
 30
0.0
 11
-0.0
 21
0.5
 31
0.0
 40
0.0087268678
 41
-1.5707936395
 42
-0.1308996939
  0
ELLIPSE
  5
677
100
AcDbEntity
  8
RACCORDO
100
AcDbEllipse
 62
7
  6
CONTINUOUS
 10
-2.9234426594
 20
25.35
 30
0.0
 11
0.0
 21
0.3
 31
0.0
 40
0.0524077793
 41
-3.1415926536
 42
-3.089232776
  0
ELLIPSE
  5
678
100
AcDbEntity
  8
0
100
AcDbEllipse
 62
7
  6
CONTINUOUS
 10
39.8687670047
 20
3.0615117685
 30
0.0
 11
-0.0
 21
0.5
 31
0.0
 40
0.0874886635
 41
0.1308996939
 42
1.5707963268
  0
ELLIPSE
  5
679
100
AcDbEntity
  8
0
100
AcDbEllipse
 62
7
  6
CONTINUOUS
 10
39.9562556682
 20
4.2017932267
 30
0.0
 11
-0.0
 21
0.5
 31
0.0
 40
0.0874886635
 41
-3.0106929597
 42
-1.5707963268
  0
ELLIPSE
  5
67A
100
AcDbEntity
  8
0
100
AcDbEllipse
 62
7
  6
CONTINUOUS
 10
39.9562556682
 20
-4.2017932267
 30
0.0
 11
0.0
 21
0.5
 31
0.0
 40
0.0874886635
 41
-1.5707963268
 42
-0.1308996939
  0
ELLIPSE
  5
67B
100
AcDbEntity
  8
0
100
AcDbEllipse
 62
7
  6
CONTINUOUS
 10
39.8687670047
 20
-3.0615117685
 30
0.0
 11
-0.0
 21
0.5
 31
0.0
 40
0.0874886635
 41
-4.7123889804
 42
-3.2724923475
  0
ELLIPSE
  5
67C
100
AcDbEntity
  8
0
100
AcDbEllipse
 62
7
  6
CONTINUOUS
 10
-39.8687670047
 20
-3.0615117685
 30
0.0
 11
0.0
 21
0.5
 31
0.0
 40
0.0874886635
 41
-3.0106929597
 42
-1.5707963268
  0
ELLIPSE
  5
67D
100
AcDbEntity
  8
0
100
AcDbEllipse
 62
7
  6
CONTINUOUS
 10
-39.9562556682
 20
-4.2017932267
 30
0.0
 11
-0.0
 21
0.5
 31
0.0
 40
0.0874886635
 41
0.1308996939
 42
1.5707963268
  0
ELLIPSE
  5
67E
100
AcDbEntity
  8
0
100
AcDbEllipse
 62
7
  6
CONTINUOUS
 10
-39.9562556682
 20
4.2017932267
 30
0.0
 11
0.0
 21
0.5
 31
0.0
 40
0.0874886635
 41
-4.7123889804
 42
-3.2724923475
  0
ELLIPSE
  5
67F
100
AcDbEntity
  8
0
100
AcDbEllipse
 62
7
  6
CONTINUOUS
 10
-39.8687670047
 20
3.0615117685
 30
0.0
 11
0.0
 21
0.5
 31
0.0
 40
0.0874886635
 41
-1.5707963268
 42
-0.1308996939
  0
ELLIPSE
  5
680
100
AcDbEntity
  8
RACCORDO
100
AcDbEllipse
 62
7
  6
CONTINUOUS
 10
-36.9885404874
 20
-36.9885404874
 30
0.0
 11
2.1374958237
 21
2.1374958237
 31
0.0
 40
0.9924325091
 41
2.3599925885
 42
3.9231927187
  0
ELLIPSE
  5
681
100
AcDbEntity
  8
RACCORDO
100
AcDbEllipse
 62
7
  6
CONTINUOUS
 10
36.9885404874
 20
-36.9885404874
 30
0.0
 11
-2.1374958237
 21
2.1374958237
 31
0.0
 40
0.9924325091
 41
2.3599925885
 42
3.9231927187
  0
ELLIPSE
  5
682
100
AcDbEntity
  8
RACCORDO
100
AcDbEllipse
 62
7
  6
CONTINUOUS
 10
36.9885404874
 20
36.9885404874
 30
0.0
 11
-2.1374958237
 21
-2.1374958237
 31
0.0
 40
0.9924325091
 41
2.3599925885
 42
3.9231927187
  0
ELLIPSE
  5
683
100
AcDbEntity
  8
RACCORDO
100
AcDbEllipse
 62
7
  6
CONTINUOUS
 10
-36.9885404874
 20
36.9885404874
 30
0.0
 11
2.1374958237
 21
-2.1374958237
 31
0.0
 40
0.9924325091
 41
2.3599925885
 42
3.9231927187
  0
ELLIPSE
  5
684
100
AcDbEntity
  8
0
100
AcDbEllipse
 62
7
  6
CONTINUOUS
 10
-38.3869096983
 20
-3.0615117685
 30
0.0
 11
-0.0
 21
0.5
 31
0.0
 40
0.0087268678
 41
-3.0106929597
 42
-2.1837317273
  0
ELLIPSE
  5
685
100
AcDbEntity
  8
0
100
AcDbEllipse
 62
7
  6
CONTINUOUS
 10
-38.3956365661
 20
-4.2017932267
 30
0.0
 11
-0.0
 21
0.5
 31
0.0
 40
0.0087268678
 41
0.1308996939
 42
1.5707963268
  0
ELLIPSE
  5
686
100
AcDbEntity
  8
0
100
AcDbEllipse
 62
7
  6
CONTINUOUS
 10
-38.3956365661
 20
4.2017932267
 30
0.0
 11
-0.0
 21
0.5
 31
0.0
 40
0.0087268678
 41
-4.7123889804
 42
-3.2724923475
  0
ELLIPSE
  5
687
100
AcDbEntity
  8
0
100
AcDbEllipse
 62
7
  6
CONTINUOUS
 10
-38.3869096983
 20
3.0615117685
 30
0.0
 11
0.0
 21
0.5
 31
0.0
 40
0.0087268678
 41
-0.9578607049
 42
-0.1308996939
  0
ELLIPSE
  5
688
100
AcDbEntity
  8
0
100
AcDbEllipse
 62
7
  6
CONTINUOUS
 10
38.3956365661
 20
-4.2017932267
 30
0.0
 11
0.0
 21
0.5
 31
0.0
 40
0.0087268678
 41
-1.5707963268
 42
-0.1308996939
  0
ELLIPSE
  5
689
100
AcDbEntity
  8
0
100
AcDbEllipse
 62
7
  6
CONTINUOUS
 10
38.3869096983
 20
-3.0615117685
 30
0.0
 11
0.0
 21
0.5
 31
0.0
 40
0.0087268678
 41
2.1837319391
 42
3.0106929597
  0
ELLIPSE
  5
68A
100
AcDbEntity
  8
0
100
AcDbEllipse
 62
7
  6
CONTINUOUS
 10
38.3869096983
 20
3.0615117685
 30
0.0
 11
-0.0
 21
0.5
 31
0.0
 40
0.0087268678
 41
6.4140850011
 42
7.2410462297
  0
ELLIPSE
  5
68B
100
AcDbEntity
  8
0
100
AcDbEllipse
 62
7
  6
CONTINUOUS
 10
38.3956365661
 20
4.2017932267
 30
0.0
 11
-0.0
 21
0.5
 31
0.0
 40
0.0087268678
 41
-3.0106929597
 42
-1.5707963268
  0
ENDSEC
  0
SECTION
  2
OBJECTS
  0
DICTIONARY
  5
C
100
AcDbDictionary
280
0
281
1
  3
ACAD_GROUP
350
D
  3
ACAD_MLINESTYLE
350
17
  3
ACAD_LAYOUT
350
1A
  3
ACAD_PLOTSETTINGS
350
19
  3
ACAD_PLOTSTYLENAME
350
E
  0
DICTIONARY
  5
D
102
{ACAD_REACTORS
330
C
102
}
100
AcDbDictionary
280
0
281
1
  0
ACDBDICTIONARYWDFLT
  5
E
102
{ACAD_REACTORS
330
C
102
}
100
AcDbDictionary
281
1
  3
Normal
350
F
100
AcDbDictionaryWithDefault
340
F
  0
DICTIONARY
  5
17
102
{ACAD_REACTORS
330
C
102
}
100
AcDbDictionary
280
0
281
1
  3
Standard
350
18
  0
DICTIONARY
  5
19
102
{ACAD_REACTORS
330
C
102
}
100
AcDbDictionary
281
1
  0
DICTIONARY
  5
1A
102
{ACAD_REACTORS
330
C
102
}
100
AcDbDictionary
281
1
  3
Model
350
68C
  3
Layout1
350
68D
  0
ACDBPLACEHOLDER
  5
F
102
{ACAD_REACTORS
330
E
102
}
  0
MLINESTYLE
  5
18
102
{ACAD_REACTORS
330
17
102
}
100
AcDbMlineStyle
  2
STANDARD
 70
0
  3

 62
256
 51
90.0
 52
90.0
 71
2
 49
0.5
 62
256
  6
BYLAYER
 49
-0.5
 62
256
  6
BYLAYER
  0
LAYOUT
  5
68C
102
{ACAD_REACTORS
330
1A
102
}
100
AcDbPlotSettings
  1

  2
none_device
  4
ISO_A4_(297.00_x_210.00_MM)
  6

 40
0.0
 41
0.0
 42
0.0
 43
0.0
 44
297.0
 45
210.0
 46
0.0
 47
0.0
 48
0.0
 49
0.0
140
0.0
141
0.0
142
1.0
143
1.0
 70
1024
 72
1
 73
0
 74
0
  7

 75
0
147
1.0
148
0.0
149
0.0
100
AcDbLayout
  1
Model
 70
0
 71
0
 10
0.0
 20
0.0
 11
297.0
 21
210.0
 12
0.0
 22
0.0
 32
0.0
 14
0.0
 24
0.0
 34
0.0
 15
0.0
 25
0.0
 35
0.0
146
0.0
 13
0.0
 23
0.0
 33
0.0
 16
1.0
 26
0.0
 36
0.0
 17
0.0
 27
1.0
 37
0.0
 76
0
330
21D
345
0
346
0
  0
LAYOUT
  5
68D
102
{ACAD_REACTORS
330
1A
102
}
100
AcDbPlotSettings
  1

  2
none_device
  4
ISO_A4_(297.00_x_210.00_MM)
  6

 40
0.0
 41
0.0
 42
0.0
 43
0.0
 44
297.0
 45
210.0
 46
0.0
 47
0.0
 48
0.0
 49
0.0
140
0.0
141
0.0
142
1.0
143
1.0
 70
0
 72
1
 73
0
 74
0
  7

 75
0
147
1.0
148
0.0
149
0.0
100
AcDbLayout
  1
Layout1
 70
0
 71
1
 10
0.0
 20
0.0
 11
297.0
 21
210.0
 12
0.0
 22
0.0
 32
0.0
 14
0.0
 24
0.0
 34
0.0
 15
0.0
 25
0.0
 35
0.0
146
0.0
 13
0.0
 23
0.0
 33
0.0
 16
1.0
 26
0.0
 36
0.0
 17
0.0
 27
1.0
 37
0.0
 76
0
330
21E
345
0
346
0
  0
ENDSEC
  0
EOF
