  0
SECTION
  2
HEADER
  9
$ACADVER
  1
AC1024
  9
$DWGCODEPAGE
  3
ANSI_1252
  9
$EXTMAX
 10
297.0
 20
210.0
 30
0.0
  9
$EXTMIN
 10
0.0
 20
0.0
 30
0.0
  9
$LIMMIN
 10
0.0
 20
0.0
  9
$LIMMAX
 10
297.0
 20
210.0
  9
$VIEWCTR
 10
148.5
 20
105.0
  9
$VIEWSIZE
 40
210.0
  9
$CLAYER
  8
0
  9
$LTSCALE
 40
16.335
  9
$CELTYPE
  6
BYLAYER
  9
$DIMSCALE
 40
1.0
  9
$DIMASZ
 40
3.0
  9
$DIMEXO
 40
0.5
  9
$DIMDLI
 40
11.286
  9
$DIMEXE
 40
1.5
  9
$DIMCEN
 40
2.673
  9
$DIMLFAC
 40
1.0
  9
$DIMBLK
  1
_FILLED
  9
$DIMALT
 70
0
  9
$DIMALTF
 40
0.0393700787
  9
$DIMTXT
 40
3.0
  9
$DIMTOL
 70
1
  9
$DIMLIM
 70
0
  9
$DIMTFAC
 40
1.0
  9
$DIMTP
 40
0.01
  9
$DIMTM
 40
0.01
  9
$DIMGAP
 40
0.625
  9
$DIMDSEP
 70
44
  9
$AUNITS
 70
0
  9
$PDMODE
 70
3
  9
$PDSIZE
 40
3.0
  9
$HANDSEED
  5
58F
  9
$TILEMODE
 70
1
  9
$MEASUREMENT
 70
1
  9
$INSUNITS
 70
4
  0
ENDSEC
  0
SECTION
  2
CLASSES
  0
CLASS
  1
ACDBDICTIONARYWDFLT
  2
AcDbDictionaryWithDefault
  3
AutoCAD 2000
 90
0
 91
1
280
0
281
0
  0
CLASS
  1
ACDBPLACEHOLDER
  2
AcDbPlaceHolder
  3
AutoCAD 2000
 90
0
 91
1
280
0
281
0
  0
CLASS
  1
LAYOUT
  2
AcDbLayout
  3
AutoCAD 2000
 90
0
 91
0
280
0
281
0
  0
ENDSEC
  0
SECTION
  2
TABLES
  0
TABLE
  2
VPORT
  5
8
100
AcDbSymbolTable
 70
2
  0
VPORT
  5
1F4
100
AcDbSymbolTableRecord
100
AcDbViewportTableRecord
  2
*ACTIVE
 70
0
 10
0.0
 20
0.0
 11
1.0
 21
1.0
 12
148.5
 22
105.0
 13
0.0
 23
0.0
 14
1.0
 24
1.0
 15
0.0
 25
0.0
 16
0.0
 26
0.0
 36
1.0
 17
0.0
 27
0.0
 37
0.0
 40
210.0
 41
1.4142857143
 42
50.0
 43
0.0
 44
0.0
 50
0.0
 51
0.0
 71
0
 72
100
 73
1
 74
1
 75
0
 76
0
 77
0
 78
0
  0
ENDTAB
  0
TABLE
  2
LTYPE
  5
5
100
AcDbSymbolTable
 70
6
  0
LTYPE
  5
14
100
AcDbSymbolTableRecord
100
AcDbLinetypeTableRecord
  2
BYBLOCK
 70
0
  3

 72
65
 73
0
 40
0.0
  0
LTYPE
  5
15
100
AcDbSymbolTableRecord
100
AcDbLinetypeTableRecord
  2
BYLAYER
 70
0
  3

 72
65
 73
0
 40
0.0
  0
LTYPE
  5
16
100
AcDbSymbolTableRecord
100
AcDbLinetypeTableRecord
  2
CONTINUOUS
 70
64
  3
Solid line
 72
65
 73
0
 40
0.0
  0
LTYPE
  5
1F5
100
AcDbSymbolTableRecord
100
AcDbLinetypeTableRecord
  2
CENTER
 70
64
  3
____ _ ____ _ ____ _ ____ _ ____ _ ____ _ ____
 72
65
 73
4
 40
0.6
 49
0.375
 74
0
 49
-0.075
 74
0
 49
0.075
 74
0
 49
-0.075
 74
0
  0
LTYPE
  5
1F6
100
AcDbSymbolTableRecord
100
AcDbLinetypeTableRecord
  2
HIDDEN
 70
64
  3
- - - - - - - - - - - - - - - - - - - -
 72
65
 73
2
 40
0.2
 49
0.1
 74
0
 49
-0.1
 74
0
  0
LTYPE
  5
1F7
100
AcDbSymbolTableRecord
100
AcDbLinetypeTableRecord
  2
PHANTOM
 70
64
  3
_____ _ _ _____ _ _ _____ _ _ _____
 72
65
 73
6
 40
0.8
 49
0.45
 74
0
 49
-0.05
 74
0
 49
0.1
 74
0
 49
-0.05
 74
0
 49
0.1
 74
0
 49
-0.05
 74
0
  0
LTYPE
  5
1F8
100
AcDbSymbolTableRecord
100
AcDbLinetypeTableRecord
  2
DOT
 70
64
  3
. . . . . . . . . . . . . . . . . . . .
 72
65
 73
2
 40
0.2
 49
0.1
 74
0
 49
-0.1
 74
0
  0
LTYPE
  5
1F9
100
AcDbSymbolTableRecord
100
AcDbLinetypeTableRecord
  2
DASHED
 70
64
  3
- - - - - - - - - - - - - - - - - - - -
 72
65
 73
2
 40
0.2
 49
0.1
 74
0
 49
-0.1
 74
0
  0
ENDTAB
  0
TABLE
  2
LAYER
  5
2
100
AcDbSymbolTable
 70
36
  0
LAYER
  5
10
100
AcDbSymbolTableRecord
100
AcDbLayerTableRecord
  2
0
 70
0
 62
7
  6
CONTINUOUS
370
-3
390
F
  0
LAYER
  5
1FA
100
AcDbSymbolTableRecord
100
AcDbLayerTableRecord
  2
DEFAULT_1
 70
0
 62
7
  6
CENTER
370
-3
390
F
  0
LAYER
  5
1FB
100
AcDbSymbolTableRecord
100
AcDbLayerTableRecord
  2
DEFAULT_2
 70
0
 62
7
  6
HIDDEN
370
-3
390
F
  0
LAYER
  5
1FC
100
AcDbSymbolTableRecord
100
AcDbLayerTableRecord
  2
DEFAULT_3
 70
0
 62
7
  6
PHANTOM
370
-3
390
F
  0
LAYER
  5
1FD
100
AcDbSymbolTableRecord
100
AcDbLayerTableRecord
  2
ASSI
 70
0
 62
7
  6
CONTINUOUS
370
-3
390
F
  0
LAYER
  5
1FE
100
AcDbSymbolTableRecord
100
AcDbLayerTableRecord
  2
COORDINATE
 70
0
 62
7
  6
CONTINUOUS
370
-3
390
F
  0
LAYER
  5
1FF
100
AcDbSymbolTableRecord
100
AcDbLayerTableRecord
  2
COORD_ORIGINE
 70
0
 62
7
  6
CONTINUOUS
370
-3
390
F
  0
LAYER
  5
200
100
AcDbSymbolTableRecord
100
AcDbLayerTableRecord
  2
CURVE
 70
0
 62
7
  6
CONTINUOUS
370
-3
390
F
  0
LAYER
  5
201
100
AcDbSymbolTableRecord
100
AcDbLayerTableRecord
  2
DRAFT
 70
0
 62
7
  6
CONTINUOUS
370
-3
390
F
  0
LAYER
  5
202
100
AcDbSymbolTableRecord
100
AcDbLayerTableRecord
  2
MARCHI
 70
0
 62
7
  6
CONTINUOUS
370
-3
390
F
  0
LAYER
  5
203
100
AcDbSymbolTableRecord
100
AcDbLayerTableRecord
  2
NOTE
 70
0
 62
7
  6
CONTINUOUS
370
-3
390
F
  0
LAYER
  5
204
100
AcDbSymbolTableRecord
100
AcDbLayerTableRecord
  2
PIANI
 70
0
 62
7
  6
CONTINUOUS
370
-3
390
F
  0
LAYER
  5
205
100
AcDbSymbolTableRecord
100
AcDbLayerTableRecord
  2
PIANI_ORIGINE
 70
0
 62
7
  6
CONTINUOUS
370
-3
390
F
  0
LAYER
  5
206
100
AcDbSymbolTableRecord
100
AcDbLayerTableRecord
  2
PUNTI
 70
0
 62
7
  6
CONTINUOUS
370
-3
390
F
  0
LAYER
  5
207
100
AcDbSymbolTableRecord
100
AcDbLayerTableRecord
  2
RACCORDO
 70
0
 62
7
  6
CONTINUOUS
370
-3
390
F
  0
LAYER
  5
208
100
AcDbSymbolTableRecord
100
AcDbLayerTableRecord
  2
SCRITTA_VIMAR
 70
0
 62
7
  6
CONTINUOUS
370
-3
390
F
  0
LAYER
  5
209
100
AcDbSymbolTableRecord
100
AcDbLayerTableRecord
  2
SNAPLINE
 70
0
 62
7
  6
CONTINUOUS
370
-3
390
F
  0
LAYER
  5
20A
100
AcDbSymbolTableRecord
100
AcDbLayerTableRecord
  2
SUPERFICI
 70
0
 62
7
  6
CONTINUOUS
370
-3
390
F
  0
LAYER
  5
20B
100
AcDbSymbolTableRecord
100
AcDbLayerTableRecord
  2
TRASH
 70
0
 62
7
  6
CONTINUOUS
370
-3
390
F
  0
LAYER
  5
20C
100
AcDbSymbolTableRecord
100
AcDbLayerTableRecord
  2
XSEC_DATUMS
 70
0
 62
7
  6
CONTINUOUS
370
-3
390
F
  0
ENDTAB
  0
TABLE
  2
STYLE
  5
3
100
AcDbSymbolTable
 70
1
  0
STYLE
  5
11
100
AcDbSymbolTableRecord
100
AcDbTextStyleTableRecord
  2
STANDARD
 70
0
 40
0.0
 41
0.8
 50
0.0
 71
0
 42
0.2
  3
txt
  4

  0
STYLE
  5
20D
100
AcDbSymbolTableRecord
100
AcDbTextStyleTableRecord
  2
TEXTSTYLE_1
 70
0
 40
0.0
 41
0.8
 50
0.0
 71
0
 42
0.2
  3
gdt
  4

  0
ENDTAB
  0
TABLE
  2
VIEW
  5
6
100
AcDbSymbolTable
 70
0
  0
ENDTAB
  0
TABLE
  2
UCS
  5
7
100
AcDbSymbolTable
 70
0
  0
ENDTAB
  0
TABLE
  2
APPID
  5
9
100
AcDbSymbolTable
 70
1
  0
APPID
  5
20E
100
AcDbSymbolTableRecord
100
AcDbRegAppTableRecord
  2
ACAD
 70
0
  0
ENDTAB
  0
TABLE
  2
BLOCK_RECORD
  5
1
100
AcDbSymbolTable
 70
0
  0
BLOCK_RECORD
  5
20F
100
AcDbSymbolTableRecord
100
AcDbBlockTableRecord
  2
*Model_Space
  0
BLOCK_RECORD
  5
210
100
AcDbSymbolTableRecord
100
AcDbBlockTableRecord
  2
*Paper_Space
  0
BLOCK_RECORD
  5
211
100
AcDbSymbolTableRecord
100
AcDbBlockTableRecord
  2
_FILLED
  0
ENDTAB
  0
TABLE
  2
DIMSTYLE
  5
A
100
AcDbSymbolTable
 70
1
100
AcDbDimStyleTable
 71
0
  0
DIMSTYLE
105
212
100
AcDbSymbolTableRecord
100
AcDbDimStyleTableRecord
  2
STANDARD
 70
0
  3

  4

 40
1.0
 41
3.0
 42
0.5
 43
0.38
 44
1.5
 45
0.0
 46
0.0
 47
0.01
 48
0.01
140
3.0
141
0.09
142
0.0
143
25.4
144
1.0
145
0.0
146
1.0
147
0.625
 71
1
 72
0
 73
0
 74
0
 75
0
 76
0
 77
1
 78
8
 79
2
170
0
171
1
172
0
173
0
174
0
175
0
176
0
177
0
178
0
270
2
179
2
271
2
272
2
273
2
274
2
275
0
280
0
281
0
282
0
283
1
284
8
285
0
286
0
287
3
288
0
340
11
278
44
341
211
342
211
343
211
344
211
  0
ENDTAB
  0
ENDSEC
  0
SECTION
  2
BLOCKS
  0
BLOCK
  5
20
100
AcDbEntity
  8
0
100
AcDbBlockBegin
  2
*Model_Space
 70
0
 10
0.0
 20
0.0
 30
0.0
  3
*Model_Space
  1

  0
ENDBLK
  5
21
100
AcDbEntity
  8
0
100
AcDbBlockEnd
  0
BLOCK
  5
1C
100
AcDbEntity
  8
0
100
AcDbBlockBegin
  2
*Paper_Space
 70
0
 10
0.0
 20
0.0
 30
0.0
  3
*Paper_Space
  1

  0
ENDBLK
  5
1D
100
AcDbEntity
  8
0
100
AcDbBlockEnd
  0
BLOCK
  5
213
100
AcDbEntity
  8
0
100
AcDbBlockBegin
  2
_FILLED
 70
64
 10
0.0
 20
0.0
  3
_FILLED
  1

  0
SOLID
  5
214
100
AcDbEntity
  8
0
  6
BYBLOCK
 62
0
100
AcDbTrace
 10
0.0
 20
0.0
 11
-1.0
 21
0.3166666667
 12
-1.0
 22
-0.3166666667
 13
-1.0
 23
-0.3166666667
  0
ENDBLK
  5
215
100
AcDbEntity
  8
0
  6
BYBLOCK
 62
0
100
AcDbBlockEnd
  0
ENDSEC
  0
SECTION
  2
ENTITIES
  0
LWPOLYLINE
  5
216
100
AcDbEntity
  8
RACCORDO
100
AcDbPolyline
 62
250
  6
CONTINUOUS
 90
19
 70
0
 10
-31.9709066215
 20
34.1974465021
 10
-32.2798830117
 20
34.1044379991
 10
-32.5815069225
 20
33.9931359146
 10
-32.8756487442
 20
33.8634875045
 10
-33.163348067
 20
33.7146347627
 10
-33.443273742
 20
33.5473560024
 10
-33.7117435954
 20
33.3641240811
 10
-33.9687551883
 20
33.1642807368
 10
-34.2140281732
 20
32.9485927217
 10
-34.4435298554
 20
32.7217981177
 10
-34.656721696
 20
32.4833811868
 10
-34.854000821
 20
32.234126394
 10
-35.0328696122
 20
31.9808231267
 10
-35.1922974018
 20
31.7241505753
 10
-35.3334068143
 20
31.4637370482
 10
-35.4570516461
 20
31.2048214209
 10
-35.5636061336
 20
30.9492215799
 10
-35.6529264526
 20
30.6953276789
 10
-35.7251341459
 20
30.4432145706
  0
LWPOLYLINE
  5
217
100
AcDbEntity
  8
RACCORDO
100
AcDbPolyline
 62
250
  6
CONTINUOUS
 90
19
 70
0
 10
-35.7251340762
 20
-31.9709024675
 10
-35.6523550917
 20
-32.2246638951
 10
-35.5624044899
 20
-32.4799809329
 10
-35.4551616774
 20
-32.7367773785
 10
-35.3307031462
 20
-32.9967030262
 10
-35.1887239875
 20
-33.257897354
 10
-35.0285794774
 20
-33.5149972979
 10
-34.8492020176
 20
-33.7682745051
 10
-34.651576743
 20
-34.0171520371
 10
-34.4382611143
 20
-34.2550215003
 10
-34.2089232681
 20
-34.4810879577
 10
-33.9640414165
 20
-34.6958836002
 10
-33.7075158318
 20
-34.8948897518
 10
-33.4395942872
 20
-35.0774004822
 10
-33.1603097948
 20
-35.2440149357
 10
-32.8733041838
 20
-35.3922964323
 10
-32.5798942133
 20
-35.5214783549
 10
-32.2790522288
 20
-35.6324067713
 10
-31.9709067631
 20
-35.7251341851
  0
LINE
  5
218
100
AcDbEntity
  8
RACCORDO
100
AcDbLine
 62
7
  6
CONTINUOUS
 10
-40.7638438763
 20
-37.7679552721
 11
-40.7638438763
 21
36.2402675194
  0
LWPOLYLINE
  5
219
100
AcDbEntity
  8
RACCORDO
100
AcDbPolyline
 62
250
  6
CONTINUOUS
 90
7
 70
0
 10
-35.7251338552
 20
30.4432140735
 10
-35.7613843503
 20
30.276537403
 10
-35.7910339717
 20
30.109394204
 10
-35.8140866184
 20
29.9417844766
 10
-35.8305453358
 20
29.7737082207
 10
-35.8404123052
 20
29.6051654364
 10
-35.8436888376
 20
29.4361561237
  0
LWPOLYLINE
  5
21A
100
AcDbEntity
  8
RACCORDO
100
AcDbPolyline
 62
250
  6
CONTINUOUS
 90
25
 70
0
 10
-21.3939872872
 20
34.3160010849
 10
-21.053737435
 20
34.5772032601
 10
-20.7032800157
 20
34.8164489158
 10
-20.3426150295
 20
35.033837179
 10
-19.9705523471
 20
35.2299025567
 10
-19.5882820977
 20
35.4042905995
 10
-19.1993746689
 20
35.5557627442
 10
-18.803890161
 20
35.68418805
 10
-18.4017684738
 20
35.789840273
 10
-17.9963996938
 20
35.8720798243
 10
-17.5878316074
 20
35.9307906368
 10
-17.1760164283
 20
35.9661665879
 10
-16.7642008845
 20
35.9780163337
 10
-16.3523877043
 20
35.9662064348
 10
-15.9405741592
 20
35.930870353
 10
-15.5319987927
 20
35.8721976461
 10
-15.1266035593
 20
35.7899912992
 10
-14.7244465044
 20
35.6843705452
 10
-14.3289403076
 20
35.5559826551
 10
-13.9400480376
 20
35.4045780374
 10
-13.5578066257
 20
35.2302636051
 10
-13.1857395452
 20
35.0342130841
 10
-12.8250212875
 20
34.8167590081
 10
-12.4744773612
 20
34.577388165
 10
-12.1341077664
 20
34.3160010849
  0
LINE
  5
21B
100
AcDbEntity
  8
RACCORDO
100
AcDbLine
 62
7
  6
CONTINUOUS
 10
36.2402675194
 20
-40.7638438763
 11
4.2361561237
 21
-40.7638438763
  0
LINE
  5
21C
100
AcDbEntity
  8
RACCORDO
100
AcDbLine
 62
7
  6
CONTINUOUS
 10
-5.7638438763
 20
-40.7638438763
 11
-37.7679552721
 21
-40.7638438763
  0
LINE
  5
21D
100
AcDbEntity
  8
0
100
AcDbLine
 62
7
  6
CONTINUOUS
 10
1.8361561237
 20
-40.6695098736
 11
-3.3638438763
 21
-40.6695098736
  0
LWPOLYLINE
  5
21E
100
AcDbEntity
  8
RACCORDO
100
AcDbPolyline
 62
250
  6
CONTINUOUS
 90
7
 70
0
 10
-31.9709059769
 20
-35.725133674
 10
-31.804228592
 20
-35.7613841169
 10
-31.6370846877
 20
-35.7910337191
 10
-31.469474264
 20
-35.8140863796
 10
-31.3013973208
 20
-35.8305451436
 10
-31.1328538583
 20
-35.8404121926
 10
-30.9638438763
 20
-35.8436888376
  0
LWPOLYLINE
  5
21F
100
AcDbEntity
  8
RACCORDO
100
AcDbPolyline
 62
7
  6
CONTINUOUS
 90
10
 70
0
 10
-11.6442546679
 20
-36.9638438763
 10
-11.6618980682
 20
-36.9542134528
 10
-11.6844972184
 20
-36.9256906562
 10
-11.7120521186
 20
-36.8789986511
 10
-11.7450018438
 20
-36.8150829687
 10
-11.782907319
 20
-36.735061567
 10
-11.8244513188
 20
-36.6401770691
 10
-11.8697113621
 20
-36.5318591313
 10
-11.9186099301
 20
-36.4116310823
 10
-11.9695972406
 20
-36.2810048291
  0
LWPOLYLINE
  5
220
100
AcDbEntity
  8
RACCORDO
100
AcDbPolyline
 62
250
  6
CONTINUOUS
 90
28
 70
0
 10
-35.8436888376
 20
-21.9162602532
 10
-36.141015019
 20
-21.5949055115
 10
-36.4166256467
 20
-21.2613239096
 10
-36.6706299963
 20
-20.9155154475
 10
-36.9036924158
 20
-20.5562433343
 10
-37.1153533068
 20
-20.1847443609
 10
-37.304037078
 20
-19.8047289001
 10
-37.4696040056
 20
-19.4162418001
 10
-37.6123755989
 20
-19.0192382127
 10
-37.7314658658
 20
-18.617293966
 10
-37.8267563064
 20
-18.2104912329
 10
-37.898487892
 20
-17.7987478405
 10
-37.9462992649
 20
-17.3853930985
 10
-37.9700858406
 20
-16.970463602
 10
-37.9699951092
 20
-16.5539227559
 10
-37.9460233975
 20
-16.1389900848
 10
-37.8980158264
 20
-15.7256134739
 10
-37.8260841318
 20
-15.313845038
 10
-37.730604159
 20
-14.9070606461
 10
-37.6113258694
 20
-14.5051851522
 10
-37.4683766721
 20
-14.1082937024
 10
-37.3026842126
 20
-13.7199876031
 10
-37.1139074429
 20
-13.3402018158
 10
-36.9022059303
 20
-12.969001379
 10
-36.6692567063
 20
-12.6101827156
 10
-36.415554015
 20
-12.2650112998
 10
-36.1404008024
 20
-11.9322216573
 10
-35.8436888376
 20
-11.6118137881
  0
LWPOLYLINE
  5
221
100
AcDbEntity
  8
RACCORDO
100
AcDbPolyline
 62
7
  6
CONTINUOUS
 90
11
 70
0
 10
-36.9638438763
 20
-11.0499960465
 10
-36.9540180468
 20
-11.0705864479
 10
-36.9249941304
 20
-11.0968351497
 10
-36.8776250744
 20
-11.1287421519
 10
-36.8129929906
 20
-11.1668386203
 10
-36.7323332657
 20
-11.210593389
 10
-36.6369643888
 20
-11.2584129614
 10
-36.5283988851
 20
-11.3103615563
 10
-36.4082276711
 20
-11.3663749548
 10
-36.2779657874
 20
-11.4246670039
 10
-35.8436888376
 20
-11.6114289016
  0
LWPOLYLINE
  5
222
100
AcDbEntity
  8
RACCORDO
100
AcDbPolyline
 62
250
  6
CONTINUOUS
 90
7
 70
0
 10
-35.8436888376
 20
-30.9638438763
 10
-35.8403985395
 20
-31.1329527401
 10
-35.8305233051
 20
-31.3015552653
 10
-35.8140618237
 20
-31.4696514519
 10
-35.7910119152
 20
-31.6372412999
 10
-35.7613705372
 20
-31.8043248093
 10
-35.7251337951
 20
-31.9709019801
  0
LINE
  5
223
100
AcDbEntity
  8
ASSI
100
AcDbLine
 62
7
  6
CONTINUOUS
 10
-36.9638438763
 20
29.4361561237
 11
-36.9638438763
 21
20.9543289087
  0
LINE
  5
224
100
AcDbEntity
  8
ASSI
100
AcDbLine
 62
7
  6
CONTINUOUS
 10
-36.9638438763
 20
9.5179833386
 11
-36.9638438763
 21
-11.0456710913
  0
LINE
  5
225
100
AcDbEntity
  8
ASSI
100
AcDbLine
 62
7
  6
CONTINUOUS
 10
-36.9638438763
 20
-22.4820166614
 11
-36.9638438763
 21
-30.9638438763
  0
LINE
  5
226
100
AcDbEntity
  8
RACCORDO
100
AcDbLine
 62
250
  6
CONTINUOUS
 10
-35.8436888376
 20
29.4361561237
 11
-35.8436888376
 21
20.3881862119
  0
LINE
  5
227
100
AcDbEntity
  8
RACCORDO
100
AcDbLine
 62
250
  6
CONTINUOUS
 10
-35.8436888376
 20
10.0837397468
 11
-35.8436888376
 21
-11.6118137881
  0
LINE
  5
228
100
AcDbEntity
  8
RACCORDO
100
AcDbLine
 62
250
  6
CONTINUOUS
 10
-35.8436888376
 20
-21.9162602532
 11
-35.8436888376
 21
-30.9638438763
  0
LWPOLYLINE
  5
229
100
AcDbEntity
  8
RACCORDO
100
AcDbPolyline
 62
7
  6
CONTINUOUS
 90
10
 70
0
 10
-36.9638438763
 20
9.5223079422
 10
-36.9540180794
 20
9.5428964694
 10
-36.9249942078
 20
9.5691430924
 10
-36.877625132
 20
9.6010478112
 10
-36.8129928523
 20
9.6391416313
 10
-36.7323327144
 20
9.6828935474
 10
-36.6369633283
 20
9.7307105426
 10
-36.5283972042
 20
9.7826565494
 10
-36.4082253228
 20
9.8386676354
 10
-36.2779631429
 20
9.8969589875
  0
LWPOLYLINE
  5
22A
100
AcDbEntity
  8
RACCORDO
100
AcDbPolyline
 62
7
  6
CONTINUOUS
 90
11
 70
0
 10
-11.644252453
 20
35.4361561237
 10
-11.6618954601
 20
35.4265257061
 10
-11.6844942626
 20
35.398002922
 10
-11.7120488605
 20
35.3513109284
 10
-11.7449982789
 20
35.2873952406
 10
-11.7829034927
 20
35.2073738146
 10
-11.8244474263
 20
35.1124893035
 10
-11.869707742
 20
35.0041714054
 10
-11.9186067775
 20
34.883943432
 10
-11.9695944709
 20
34.7533172298
 10
-12.1335394369
 20
34.3160010849
  0
LWPOLYLINE
  5
22B
100
AcDbEntity
  8
RACCORDO
100
AcDbPolyline
 62
250
  6
CONTINUOUS
 90
7
 70
0
 10
29.4361561237
 20
-35.8436888376
 10
29.6052649798
 20
-35.8403985393
 10
29.7738674971
 20
-35.8305233059
 10
29.9419636754
 20
-35.8140618265
 10
30.1095535149
 20
-35.791011921
 10
30.2766370154
 20
-35.7613705471
 10
30.443214177
 20
-35.7251338102
  0
LINE
  5
22C
100
AcDbEntity
  8
ASSI
100
AcDbLine
 62
7
  6
CONTINUOUS
 10
-30.9638438763
 20
-36.9638438763
 11
-21.8863432663
 21
-36.9638438763
  0
LINE
  5
22D
100
AcDbEntity
  8
ASSI
100
AcDbLine
 62
7
  6
CONTINUOUS
 10
-11.6413444864
 20
-36.9638438763
 11
-5.7638438763
 21
-36.9638438763
  0
LINE
  5
22E
100
AcDbEntity
  8
ASSI
100
AcDbLine
 62
7
  6
CONTINUOUS
 10
4.2361561237
 20
-36.9638438763
 11
10.1136567337
 21
-36.9638438763
  0
LINE
  5
22F
100
AcDbEntity
  8
0
100
AcDbLine
 62
7
  6
CONTINUOUS
 10
4.2361561237
 20
-36.9638438763
 11
-5.7638438763
 21
-36.9638438763
  0
LINE
  5
230
100
AcDbEntity
  8
ASSI
100
AcDbLine
 62
7
  6
CONTINUOUS
 10
20.3586555136
 20
-36.9638438763
 11
29.4361561237
 21
-36.9638438763
  0
LINE
  5
231
100
AcDbEntity
  8
RACCORDO
100
AcDbLine
 62
250
  6
CONTINUOUS
 10
-30.9638438763
 20
-35.8436888376
 11
-21.3940159216
 21
-35.8436888376
  0
LINE
  5
232
100
AcDbEntity
  8
RACCORDO
100
AcDbLine
 62
250
  6
CONTINUOUS
 10
-12.1341109234
 20
-35.8436888376
 11
10.6059840784
 21
-35.8436888376
  0
LINE
  5
233
100
AcDbEntity
  8
RACCORDO
100
AcDbLine
 62
250
  6
CONTINUOUS
 10
19.8658890766
 20
-35.8436888376
 11
29.4361561237
 21
-35.8436888376
  0
LINE
  5
234
100
AcDbEntity
  8
ASSI
100
AcDbLine
 62
7
  6
CONTINUOUS
 10
-33.1638438763
 20
3.7361561237
 11
-33.1638438763
 21
-5.2638438763
  0
LINE
  5
235
100
AcDbEntity
  8
RACCORDO
100
AcDbLine
 62
7
  6
CONTINUOUS
 10
-33.1138438763
 20
-5.2138438763
 11
-33.1138438763
 21
3.6861561237
  0
LINE
  5
236
100
AcDbEntity
  8
RACCORDO
100
AcDbLine
 62
250
  6
CONTINUOUS
 10
-30.9638438763
 20
35.4361561237
 11
-30.9638438763
 21
34.3160010849
  0
LINE
  5
237
100
AcDbEntity
  8
RACCORDO
100
AcDbLine
 62
250
  6
CONTINUOUS
 10
-30.9638438763
 20
-36.9638438763
 11
-30.9638438763
 21
-35.8436888376
  0
LINE
  5
238
100
AcDbEntity
  8
RACCORDO
100
AcDbLine
 62
250
  6
CONTINUOUS
 10
-36.9638438763
 20
-30.9638438763
 11
-35.8436888376
 21
-30.9638438763
  0
LINE
  5
239
100
AcDbEntity
  8
RACCORDO
100
AcDbLine
 62
250
  6
CONTINUOUS
 10
35.4361561237
 20
-30.9638438763
 11
34.3160010849
 21
-30.9638438763
  0
LWPOLYLINE
  5
23A
100
AcDbEntity
  8
RACCORDO
100
AcDbPolyline
 62
250
  6
CONTINUOUS
 90
16
 70
0
 10
-27.02739561
 20
1.929359831
 10
-27.0265666223
 20
1.913633632
 10
-27.0240935866
 20
1.8980807804
 10
-27.0200037625
 20
1.8828727143
 10
-27.0143414085
 20
1.8681752289
 10
-27.0071693767
 20
1.8541523482
 10
-26.9985703112
 20
1.8409635747
 10
-26.9886432669
 20
1.8287561908
 10
-26.9774969058
 20
1.8176598026
 10
-26.9652501386
 20
1.8077914693
 10
-26.9520172283
 20
1.799248028
 10
-26.9379615769
 20
1.7921393928
 10
-26.9232994013
 20
1.7865636527
 10
-26.9082191947
 20
1.782567437
 10
-26.8928696183
 20
1.7801660263
 10
-26.8774184557
 20
1.7793655425
  0
LWPOLYLINE
  5
23B
100
AcDbEntity
  8
RACCORDO
100
AcDbPolyline
 62
250
  6
CONTINUOUS
 90
16
 70
0
 10
-27.02739561
 20
-3.604219517
 10
-27.0265829249
 20
-3.6196569549
 10
-27.0241692698
 20
-3.6349892311
 10
-27.0201620123
 20
-3.6500488914
 10
-27.0145781109
 20
-3.6646867074
 10
-27.0074650695
 20
-3.6787162133
 10
-26.998919855
 20
-3.6919252078
 10
-26.9890513892
 20
-3.7041517572
 10
-26.9779570351
 20
-3.7152807957
 10
-26.9657539939
 20
-3.7251935168
 10
-26.9525719549
 20
-3.733781515
 10
-26.9385578176
 20
-3.7409462535
 10
-26.9238704781
 20
-3.7466054988
 10
-26.9086735083
 20
-3.750696542
 10
-26.893132474
 20
-3.7531751197
 10
-26.8774184557
 20
-3.7540139472
  0
LWPOLYLINE
  5
23C
100
AcDbEntity
  8
RACCORDO
100
AcDbPolyline
 62
250
  6
CONTINUOUS
 90
22
 70
0
 10
-27.1080330283
 20
1.8890441925
 10
-27.1076990603
 20
1.8789849573
 10
-27.1066599264
 20
1.868729057
 10
-27.1048706971
 20
1.8583300114
 10
-27.1022812903
 20
1.8478183093
 10
-27.0988582633
 20
1.8372919414
 10
-27.0946073405
 20
1.8269092665
 10
-27.0895195675
 20
1.8167382585
 10
-27.0835946866
 20
1.8068558716
 10
-27.0769001759
 20
1.7974196524
 10
-27.0694745328
 20
1.7885007212
 10
-27.061347375
 20
1.7801500867
 10
-27.0526121953
 20
1.7724691414
 10
-27.0433311314
 20
1.7655051568
 10
-27.0335568769
 20
1.7592907489
 10
-27.0233898532
 20
1.75387868
 10
-27.0128997933
 20
1.7492889721
 10
-27.0021513401
 20
1.7455334674
 10
-26.9912457411
 20
1.7426280529
 10
-26.9802622917
 20
1.7405692833
 10
-26.9692549907
 20
1.7393432134
 10
-26.9582864476
 20
1.738934626
  0
LWPOLYLINE
  5
23D
100
AcDbEntity
  8
RACCORDO
100
AcDbPolyline
 62
250
  6
CONTINUOUS
 90
22
 70
0
 10
-27.1080330283
 20
-3.8463285
 10
-27.1076975043
 20
-3.8567175124
 10
-27.1066280638
 20
-3.8672503575
 10
-27.1047901666
 20
-3.8778715512
 10
-27.10214772
 20
-3.8885403512
 10
-27.0986770029
 20
-3.8991699813
 10
-27.0943814305
 20
-3.9096325051
 10
-27.0892543964
 20
-3.919865532
 10
-27.0833017158
 20
-3.9297897151
 10
-27.0765833687
 20
-3.9392626612
 10
-27.0691349535
 20
-3.9482174126
 10
-27.0609891552
 20
-3.9565995196
 10
-27.0522362886
 20
-3.9643085675
 10
-27.0429268806
 20
-3.9713046259
 10
-27.033123385
 20
-3.9775456162
 10
-27.0229588519
 20
-3.982960935
 10
-27.0125203965
 20
-3.9875318972
 10
-27.0018614204
 20
-3.9912622857
 10
-26.9910748665
 20
-3.9941453693
 10
-26.9802361518
 20
-3.9961904534
 10
-26.9694006812
 20
-3.9974162327
 10
-26.958628796
 20
-3.9978430939
  0
LWPOLYLINE
  5
23E
100
AcDbEntity
  8
RACCORDO
100
AcDbPolyline
 62
250
  6
CONTINUOUS
 90
11
 70
0
 10
-26.9656282454
 20
-3.1616051271
 10
-26.9650560313
 20
-3.180355469
 10
-26.9644344046
 20
-3.1975458072
 10
-26.9637679027
 20
-3.2130506656
 10
-26.9630613906
 20
-3.2267568709
 10
-26.9623200252
 20
-3.2385643785
 10
-26.9615492178
 20
-3.2483870028
 10
-26.9607545949
 20
-3.2561530464
 10
-26.9599419564
 20
-3.2618058232
 10
-26.959117234
 20
-3.2653040723
 10
-26.9582864476
 20
-3.2666222593
  0
LWPOLYLINE
  5
23F
100
AcDbEntity
  8
RACCORDO
100
AcDbPolyline
 62
250
  6
CONTINUOUS
 90
22
 70
0
 10
-27.4211011974
 20
-3.8463285
 10
-27.4201862918
 20
-3.8775890156
 10
-27.4168644742
 20
-3.9089210396
 10
-27.4111357183
 20
-3.940324572
 10
-27.40302326
 20
-3.9720611988
 10
-27.3925037563
 20
-4.0038693341
 10
-27.3795072832
 20
-4.03496422
 10
-27.3639173875
 20
-4.065352574
 10
-27.345850297
 20
-4.0950276786
 10
-27.3255850975
 20
-4.1231846236
 10
-27.3030353252
 20
-4.1497537881
 10
-27.2782871618
 20
-4.1748047928
 10
-27.2518787004
 20
-4.1977415907
 10
-27.2237299559
 20
-4.2184853453
 10
-27.1939206672
 20
-4.237114893
 10
-27.1632286137
 20
-4.2532706958
 10
-27.1316807501
 20
-4.2668368276
 10
-27.0992500077
 20
-4.2779292145
 10
-27.066633259
 20
-4.2865360967
 10
-27.0340628257
 20
-4.292653554
 10
-27.0013064109
 20
-4.2962855066
 10
-26.9683640209
 20
-4.2974319543
  0
LWPOLYLINE
  5
240
100
AcDbEntity
  8
RACCORDO
100
AcDbPolyline
 62
250
  6
CONTINUOUS
 90
10
 70
0
 10
-26.9663317545
 20
2.5985274959
 10
-26.9656885171
 20
2.5745090734
 10
-26.964972995
 20
2.5524896517
 10
-26.9641925142
 20
2.5326946881
 10
-26.9633550663
 20
2.5153268636
 10
-26.9624692259
 20
2.5005640075
 10
-26.961544063
 20
2.488557277
 10
-26.9605890506
 20
2.4794296092
 10
-26.9596139669
 20
2.4732744626
 10
-26.958628796
 20
2.4701548596
  0
LWPOLYLINE
  5
241
100
AcDbEntity
  8
RACCORDO
100
AcDbPolyline
 62
250
  6
CONTINUOUS
 90
19
 70
0
 10
-27.4211011974
 20
1.8890441925
 10
-27.4204242461
 20
1.8614296696
 10
-27.4177954881
 20
1.8335664585
 10
-27.4132149066
 20
1.8054545592
 10
-27.4067225294
 20
1.7768769868
 10
-27.3982782592
 20
1.7480507262
 10
-27.3877618703
 20
1.7196267322
 10
-27.3750814524
 20
1.6915981642
 10
-27.3603287617
 20
1.6639718627
 10
-27.3436590569
 20
1.6374193047
 10
-27.3250032679
 20
1.6119916364
 10
-27.304430258
 20
1.5876377115
 10
-27.2823022019
 20
1.5648755674
 10
-27.258580819
 20
1.5437664552
 10
-27.2333041888
 20
1.5242491238
 10
-27.2069490787
 20
1.5066578572
 10
-27.1796743795
 20
1.4911040833
 10
-27.1513210667
 20
1.4774763743
 10
-27.1218890691
 20
1.4657747302
  0
LINE
  5
242
100
AcDbEntity
  8
RACCORDO
100
AcDbLine
 62
250
  6
CONTINUOUS
 10
-26.9666081202
 20
-3.1199822714
 11
-26.9656282454
 21
-3.1616051271
  0
LINE
  5
243
100
AcDbEntity
  8
RACCORDO
100
AcDbLine
 62
250
  6
CONTINUOUS
 10
-26.9673758377
 20
2.6515596937
 11
-26.9663317545
 21
2.5985274959
  0
LINE
  5
244
100
AcDbEntity
  8
RACCORDO
100
AcDbLine
 62
250
  6
CONTINUOUS
 10
-26.9680625923
 20
2.7094198146
 11
-26.9673758377
 21
2.6515596937
  0
LINE
  5
245
100
AcDbEntity
  8
RACCORDO
100
AcDbLine
 62
250
  6
CONTINUOUS
 10
-26.9683639635
 20
2.7697442016
 11
-26.9680625923
 21
2.7094198146
  0
LINE
  5
246
100
AcDbEntity
  8
RACCORDO
100
AcDbLine
 62
250
  6
CONTINUOUS
 10
-27.4211011974
 20
2.3186407473
 11
-27.4211011974
 21
1.8890441925
  0
LINE
  5
247
100
AcDbEntity
  8
RACCORDO
100
AcDbLine
 62
250
  6
CONTINUOUS
 10
-27.4211011974
 20
-3.4167319451
 11
-27.4211011974
 21
-3.8463285
  0
LINE
  5
248
100
AcDbEntity
  8
RACCORDO
100
AcDbLine
 62
250
  6
CONTINUOUS
 10
-27.2297948773
 20
-0.6005057672
 11
-27.2297948773
 21
-0.9271819855
  0
LINE
  5
249
100
AcDbEntity
  8
RACCORDO
100
AcDbLine
 62
250
  6
CONTINUOUS
 10
-27.1218890691
 20
1.4657270623
 11
-27.1218890691
 21
-0.0539844643
  0
LINE
  5
24A
100
AcDbEntity
  8
RACCORDO
100
AcDbLine
 62
250
  6
CONTINUOUS
 10
-27.1218890691
 20
-1.4737032884
 11
-27.1218890691
 21
-2.9934148149
  0
LINE
  5
24B
100
AcDbEntity
  8
RACCORDO
100
AcDbLine
 62
250
  6
CONTINUOUS
 10
-27.1080330283
 20
2.3186407473
 11
-27.1080330283
 21
1.8890441925
  0
LINE
  5
24C
100
AcDbEntity
  8
RACCORDO
100
AcDbLine
 62
250
  6
CONTINUOUS
 10
-27.1080330283
 20
-3.4167319451
 11
-27.1080330283
 21
-3.8463285
  0
LINE
  5
24D
100
AcDbEntity
  8
RACCORDO
100
AcDbLine
 62
250
  6
CONTINUOUS
 10
-27.0998910668
 20
-0.6005057672
 11
-27.0998910668
 21
-0.9271819855
  0
LINE
  5
24E
100
AcDbEntity
  8
RACCORDO
100
AcDbLine
 62
250
  6
CONTINUOUS
 10
-27.02739561
 20
2.0765317643
 11
-27.02739561
 21
1.929359831
  0
LINE
  5
24F
100
AcDbEntity
  8
RACCORDO
100
AcDbLine
 62
250
  6
CONTINUOUS
 10
-27.02739561
 20
-3.4570475837
 11
-27.02739561
 21
-3.604219517
  0
LINE
  5
250
100
AcDbEntity
  8
RACCORDO
100
AcDbLine
 62
250
  6
CONTINUOUS
 10
-26.8774184557
 20
-3.7540139472
 11
-26.8774184557
 21
-3.3070532952
  0
LINE
  5
251
100
AcDbEntity
  8
RACCORDO
100
AcDbLine
 62
250
  6
CONTINUOUS
 10
-26.8774184557
 20
1.7793655425
 11
-26.8774184557
 21
2.2263261945
  0
LINE
  5
252
100
AcDbEntity
  8
RACCORDO
100
AcDbLine
 62
250
  6
CONTINUOUS
 10
-26.8110195579
 20
1.7389804421
 11
-26.8110195579
 21
-0.284185618
  0
LINE
  5
253
100
AcDbEntity
  8
RACCORDO
100
AcDbLine
 62
250
  6
CONTINUOUS
 10
-26.8110195579
 20
-1.2435021347
 11
-26.8110195579
 21
-3.2666681948
  0
LINE
  5
254
100
AcDbEntity
  8
RACCORDO
100
AcDbLine
 62
7
  6
CONTINUOUS
 10
-26.7706344575
 20
1.7793655425
 11
-26.7706344575
 21
-0.3569902967
  0
LINE
  5
255
100
AcDbEntity
  8
RACCORDO
100
AcDbLine
 62
7
  6
CONTINUOUS
 10
-26.7706344575
 20
-1.170697456
 11
-26.7706344575
 21
-3.3070532952
  0
LINE
  5
256
100
AcDbEntity
  8
RACCORDO
100
AcDbLine
 62
250
  6
CONTINUOUS
 10
-26.620640169
 20
1.929359831
 11
-26.620640169
 21
-0.4720908762
  0
LINE
  5
257
100
AcDbEntity
  8
RACCORDO
100
AcDbLine
 62
250
  6
CONTINUOUS
 10
-26.620640169
 20
-1.0555968765
 11
-26.620640169
 21
-3.4570475837
  0
LINE
  5
258
100
AcDbEntity
  8
RACCORDO
100
AcDbLine
 62
250
  6
CONTINUOUS
 10
-26.9683640209
 20
-4.2974319543
 11
-26.9680626362
 21
-4.2371075837
  0
LINE
  5
259
100
AcDbEntity
  8
RACCORDO
100
AcDbLine
 62
250
  6
CONTINUOUS
 10
-26.9680626362
 20
-4.2371075837
 11
-26.96737587
 21
-4.1792475228
  0
LWPOLYLINE
  5
25A
100
AcDbEntity
  8
RACCORDO
100
AcDbPolyline
 62
250
  6
CONTINUOUS
 90
11
 70
0
 10
-26.96737587
 20
-4.1792475228
 10
-26.9663317771
 20
-4.1262154119
 10
-26.9656885357
 20
-4.1021970376
 10
-26.9649730099
 20
-4.0801776646
 10
-26.964192526
 20
-4.0603827484
 10
-26.9633550754
 20
-4.0430149682
 10
-26.9624692326
 20
-4.0282521518
 10
-26.9615440677
 20
-4.0162454551
 10
-26.9605890535
 20
-4.0071178142
 10
-26.9596139683
 20
-4.0009626864
 10
-26.958628796
 20
-3.9978430939
  0
LWPOLYLINE
  5
25B
100
AcDbEntity
  8
RACCORDO
100
AcDbPolyline
 62
250
  6
CONTINUOUS
 90
12
 70
0
 10
-26.9666081252
 20
1.5922941803
 10
-26.9656282526
 20
1.6339171541
 10
-26.965056039
 20
1.6526675526
 10
-26.9644344124
 20
1.6698579444
 10
-26.9637679104
 20
1.6853628526
 10
-26.9630613977
 20
1.6990691028
 10
-26.9623200315
 20
1.7108766499
 10
-26.9615492232
 20
1.7206993075
 10
-26.9607545991
 20
1.7284653776
 10
-26.9599419593
 20
1.7341181738
 10
-26.9591172355
 20
1.7376164348
 10
-26.9582864476
 20
1.738934626
  0
LWPOLYLINE
  5
25C
100
AcDbEntity
  8
RACCORDO
100
AcDbPolyline
 62
250
  6
CONTINUOUS
 90
16
 70
0
 10
-27.02739561
 20
-3.4570475837
 10
-27.0265666223
 20
-3.4413213846
 10
-27.0240935866
 20
-3.4257685331
 10
-27.0200037625
 20
-3.4105604669
 10
-27.0143414085
 20
-3.3958629816
 10
-27.0071693767
 20
-3.3818401009
 10
-26.9985703112
 20
-3.3686513273
 10
-26.9886432669
 20
-3.3564439435
 10
-26.9774969058
 20
-3.3453475552
 10
-26.9652501386
 20
-3.335479222
 10
-26.9520172283
 20
-3.3269357807
 10
-26.9379615769
 20
-3.3198271455
 10
-26.9232994013
 20
-3.3142514053
 10
-26.9082191947
 20
-3.3102551897
 10
-26.8928696183
 20
-3.307853779
 10
-26.8774184557
 20
-3.3070532952
  0
LWPOLYLINE
  5
25D
100
AcDbEntity
  8
RACCORDO
100
AcDbPolyline
 62
250
  6
CONTINUOUS
 90
16
 70
0
 10
-27.6322647655
 20
-0.1901092907
 10
-27.6240869484
 20
-0.2203037878
 10
-27.6158381875
 20
-0.2501695771
 10
-27.6076083158
 20
-0.2793814054
 10
-27.5994869606
 20
-0.3076211412
 10
-27.5915625676
 20
-0.3345812399
 10
-27.5839214371
 20
-0.3599680927
 10
-27.5766467848
 20
-0.383505224
 10
-27.5698178352
 20
-0.4049363029
 10
-27.5635089588
 20
-0.4240279342
 10
-27.5577888623
 20
-0.4405722006
 10
-27.5527198404
 20
-0.4543889267
 10
-27.5483570969
 20
-0.4653276416
 10
-27.5447481442
 20
-0.473269217
 10
-27.5419322855
 20
-0.4781271654
 10
-27.5399401868
 20
-0.4798485812
  0
LINE
  5
25E
100
AcDbEntity
  8
RACCORDO
100
AcDbLine
 62
250
  6
CONTINUOUS
 10
-27.5221198785
 20
-0.5463732358
 11
-27.5399417077
 21
-0.4798429034
  0
LWPOLYLINE
  5
25F
100
AcDbEntity
  8
RACCORDO
100
AcDbPolyline
 62
250
  6
CONTINUOUS
 90
4
 70
0
 10
-25.9645193307
 20
2.4896016879
 10
-25.9642980584
 20
2.480473561
 10
-25.9640721359
 20
2.4743178317
 10
-25.9638438763
 20
2.4711975259
  0
LWPOLYLINE
  5
260
100
AcDbEntity
  8
RACCORDO
100
AcDbPolyline
 62
250
  6
CONTINUOUS
 90
19
 70
0
 10
-25.5138438763
 20
2.320227938
 10
-25.5140829722
 20
2.3367177115
 10
-25.5150190638
 20
2.3534714405
 10
-25.5166521513
 20
2.3704891248
 10
-25.5189087317
 20
2.3877025372
 10
-25.5218623079
 20
2.4051799049
 10
-25.5257333888
 20
2.4231259103
 10
-25.5305253005
 20
2.4416763132
 10
-25.5362347169
 20
2.4606953539
 10
-25.5430721688
 20
2.4799804346
 10
-25.5510312744
 20
2.4995341799
 10
-25.5601184154
 20
2.5193539654
 10
-25.5705632685
 20
2.5392293201
 10
-25.5823816451
 20
2.5592059768
 10
-25.5955577337
 20
2.5792382028
 10
-25.610273777
 20
2.5989783284
 10
-25.6265905222
 20
2.6183104638
 10
-25.644447222
 20
2.6373504988
 10
-25.6638438763
 20
2.6560984335
  0
LINE
  5
261
100
AcDbEntity
  8
RACCORDO
100
AcDbLine
 62
250
  6
CONTINUOUS
 10
-25.9649389335
 20
2.516371821
 11
-25.9645193307
 21
2.4896016879
  0
LINE
  5
262
100
AcDbEntity
  8
RACCORDO
100
AcDbLine
 62
250
  6
CONTINUOUS
 10
-25.9654795895
 20
2.5755539796
 11
-25.9649389335
 21
2.516371821
  0
LINE
  5
263
100
AcDbEntity
  8
RACCORDO
100
AcDbLine
 62
250
  6
CONTINUOUS
 10
-25.9660296751
 20
2.7104629569
 11
-25.9654795895
 21
2.5755539796
  0
LINE
  5
264
100
AcDbEntity
  8
RACCORDO
100
AcDbLine
 62
250
  6
CONTINUOUS
 10
-25.9660995154
 20
2.7707863863
 11
-25.9660296751
 21
2.7104629569
  0
LINE
  5
265
100
AcDbEntity
  8
RACCORDO
100
AcDbLine
 62
250
  6
CONTINUOUS
 10
-26.1891215513
 20
-3.604219517
 11
-26.1891215513
 21
2.0765317643
  0
LINE
  5
266
100
AcDbEntity
  8
RACCORDO
100
AcDbLine
 62
250
  6
CONTINUOUS
 10
-26.0592177407
 20
-3.7341233275
 11
-26.0592177407
 21
2.2064355749
  0
LINE
  5
267
100
AcDbEntity
  8
RACCORDO
100
AcDbLine
 62
250
  6
CONTINUOUS
 10
-25.9638438763
 20
2.4711975259
 11
-25.9638438763
 21
2.4389891223
  0
LINE
  5
268
100
AcDbEntity
  8
RACCORDO
100
AcDbLine
 62
250
  6
CONTINUOUS
 10
-25.9638438763
 20
-3.9988852786
 11
-25.9638438763
 21
-3.966676875
  0
LINE
  5
269
100
AcDbEntity
  8
DRAFT
100
AcDbLine
 62
7
  6
CONTINUOUS
 10
-25.8138438763
 20
2.245080339
 11
-25.8138438763
 21
-3.7727680916
  0
LINE
  5
26A
100
AcDbEntity
  8
DRAFT
100
AcDbLine
 62
7
  6
CONTINUOUS
 10
-25.8138438763
 20
-3.7753884806
 11
-25.8138438763
 21
-3.9588157081
  0
LINE
  5
26B
100
AcDbEntity
  8
DRAFT
100
AcDbLine
 62
7
  6
CONTINUOUS
 10
-25.8138438763
 20
2.2477007279
 11
-25.8138438763
 21
2.4311279554
  0
LINE
  5
26C
100
AcDbEntity
  8
RACCORDO
100
AcDbLine
 62
250
  6
CONTINUOUS
 10
-25.6638438763
 20
24.1361561237
 11
-25.6638438637
 21
4.1726481196
  0
LINE
  5
26D
100
AcDbEntity
  8
RACCORDO
100
AcDbLine
 62
250
  6
CONTINUOUS
 10
-25.6638438763
 20
4.0293869828
 11
-25.6638438763
 21
2.6560984335
  0
LINE
  5
26E
100
AcDbEntity
  8
RACCORDO
100
AcDbLine
 62
250
  6
CONTINUOUS
 10
-25.6638438763
 20
-4.1837861861
 11
-25.6638438763
 21
-5.5570747354
  0
LINE
  5
26F
100
AcDbEntity
  8
RACCORDO
100
AcDbLine
 62
250
  6
CONTINUOUS
 10
-25.6638439089
 20
-5.7003352713
 11
-25.6638438763
 21
-25.6638438763
  0
LINE
  5
270
100
AcDbEntity
  8
RACCORDO
100
AcDbLine
 62
250
  6
CONTINUOUS
 10
-25.5138438763
 20
-3.8479156906
 11
-25.5138438763
 21
2.320227938
  0
LINE
  5
271
100
AcDbEntity
  8
RACCORDO
100
AcDbLine
 62
7
  6
CONTINUOUS
 10
-25.2138438763
 20
-3.7138438763
 11
-25.2138438763
 21
2.1861561237
  0
LINE
  5
272
100
AcDbEntity
  8
ASSI
100
AcDbLine
 62
7
  6
CONTINUOUS
 10
-25.1638438763
 20
-3.7638438763
 11
-25.1638438763
 21
2.2361561237
  0
LINE
  5
273
100
AcDbEntity
  8
ASSI
100
AcDbLine
 62
7
  6
CONTINUOUS
 10
-23.3638438763
 20
-11.7138438763
 11
-23.3638438763
 21
10.1861561237
  0
LINE
  5
274
100
AcDbEntity
  8
RACCORDO
100
AcDbLine
 62
250
  6
CONTINUOUS
 10
-25.9660994453
 20
-4.2984741388
 11
-25.965628565
 21
-4.1272591205
  0
LINE
  5
275
100
AcDbEntity
  8
RACCORDO
100
AcDbLine
 62
250
  6
CONTINUOUS
 10
-25.965628565
 20
-4.1272591205
 11
-25.9651329216
 21
-4.0614259442
  0
LWPOLYLINE
  5
276
100
AcDbEntity
  8
RACCORDO
100
AcDbPolyline
 62
250
  6
CONTINUOUS
 90
6
 70
0
 10
-25.9651329216
 20
-4.0614259442
 10
-25.9647336551
 20
-4.0292945311
 10
-25.9645193061
 20
-4.0172872928
 10
-25.9642980417
 20
-4.0081590279
 10
-25.9640721273
 20
-4.0020031999
 10
-25.9638438758
 20
-3.9988828376
  0
LINE
  5
277
100
AcDbEntity
  8
RACCORDO
100
AcDbLine
 62
250
  6
CONTINUOUS
 10
-27.5221173801
 20
-0.9813151081
 11
-27.5399417077
 21
-1.0478448492
  0
LINE
  5
278
100
AcDbEntity
  8
RACCORDO
100
AcDbLine
 62
250
  6
CONTINUOUS
 10
-27.1387080106
 20
-1.0720487921
 11
-27.0998910668
 21
-0.9271819855
  0
LWPOLYLINE
  5
279
100
AcDbEntity
  8
RACCORDO
100
AcDbPolyline
 62
250
  6
CONTINUOUS
 90
16
 70
0
 10
-27.6322653097
 20
-1.3375784629
 10
-27.6240874949
 20
-1.3073841474
 10
-27.6158387658
 20
-1.2775186475
 10
-27.6076089509
 20
-1.2483071975
 10
-27.5994876726
 20
-1.2200679093
 10
-27.5915633715
 20
-1.1931083078
 10
-27.5839223427
 20
-1.1677219824
 10
-27.576647797
 20
-1.1441853894
 10
-27.5698189537
 20
-1.1227548415
 10
-27.563510179
 20
-1.1036637167
 10
-27.557790175
 20
-1.0871199167
 10
-27.5527212325
 20
-1.0733036027
 10
-27.5483585521
 20
-1.0623652338
 10
-27.5447496432
 20
-1.0544239283
 10
-27.5419338068
 20
-1.0495661666
 10
-27.5399417071
 20
-1.0478448494
  0
LINE
  5
27A
100
AcDbEntity
  8
0
100
AcDbLine
 62
250
  6
CONTINUOUS
 10
-20.2037188763
 20
15.9341911237
 11
-19.6144668763
 21
17.9989361237
  0
LINE
  5
27B
100
AcDbEntity
  8
0
100
AcDbLine
 62
250
  6
CONTINUOUS
 10
-18.9887518763
 20
17.9989361237
 11
-19.9529558763
 21
14.9992971237
  0
LINE
  5
27C
100
AcDbEntity
  8
RACCORDO
100
AcDbLine
 62
250
  6
CONTINUOUS
 10
-27.1080330283
 20
-3.8463285
 11
-27.02739561
 21
-3.604219517
  0
LINE
  5
27D
100
AcDbEntity
  8
RACCORDO
100
AcDbLine
 62
250
  6
CONTINUOUS
 10
-26.958628796
 20
-3.9978430939
 11
-26.8774184557
 21
-3.7540139472
  0
LWPOLYLINE
  5
27E
100
AcDbEntity
  8
RACCORDO
100
AcDbPolyline
 62
7
  6
CONTINUOUS
 90
10
 70
0
 10
-36.9638438763
 20
-22.4776920578
 10
-36.9540180794
 20
-22.4571035306
 10
-36.9249942078
 20
-22.4308569076
 10
-36.877625132
 20
-22.3989521888
 10
-36.8129928523
 20
-22.3608583687
 10
-36.7323327144
 20
-22.3171064526
 10
-36.6369633283
 20
-22.2692894574
 10
-36.5283972042
 20
-22.2173434506
 10
-36.4082253228
 20
-22.1613323646
 10
-36.2779631429
 20
-22.1030410125
  0
LINE
  5
27F
100
AcDbEntity
  8
RACCORDO
100
AcDbLine
 62
7
  6
CONTINUOUS
 10
-26.770623035
 20
-1.1706768641
 11
-26.8110195579
 21
-1.2435021347
  0
LINE
  5
280
100
AcDbEntity
  8
RACCORDO
100
AcDbLine
 62
7
  6
CONTINUOUS
 10
-36.2779631429
 20
9.8969589875
 11
-35.8436888376
 21
10.0837298268
  0
LINE
  5
281
100
AcDbEntity
  8
RACCORDO
100
AcDbLine
 62
250
  6
CONTINUOUS
 10
-25.6638438763
 20
-25.6638438763
 11
24.1361561237
 21
-25.6638438763
  0
LINE
  5
282
100
AcDbEntity
  8
0
100
AcDbLine
 62
250
  6
CONTINUOUS
 10
-15.7202238763
 20
-22.8896018763
 11
-14.5710228763
 21
-22.8896018763
  0
LWPOLYLINE
  5
283
100
AcDbEntity
  8
RACCORDO
100
AcDbPolyline
 62
7
  6
CONTINUOUS
 90
10
 70
0
 10
20.3557453321
 20
-36.9638438763
 10
20.3381019318
 20
-36.9542134528
 10
20.3155027816
 20
-36.9256906562
 10
20.2879478814
 20
-36.8789986511
 10
20.2549981562
 20
-36.8150829687
 10
20.217092681
 20
-36.735061567
 10
20.1755486812
 20
-36.6401770691
 10
20.1302886379
 20
-36.5318591313
 10
20.0813900699
 20
-36.4116310823
 10
20.0304027594
 20
-36.2810048291
  0
LINE
  5
284
100
AcDbEntity
  8
0
100
AcDbLine
 62
250
  6
CONTINUOUS
 10
-15.5586168763
 20
-20.0133628763
 11
-17.1466958763
 21
-18.0139078763
  0
LINE
  5
285
100
AcDbEntity
  8
0
100
AcDbLine
 62
250
  6
CONTINUOUS
 10
-14.7395848763
 20
-20.8885288763
 11
-14.0067758763
 21
-22.0085078763
  0
LINE
  5
286
100
AcDbEntity
  8
RACCORDO
100
AcDbLine
 62
7
  6
CONTINUOUS
 10
-26.7706344575
 20
-0.3569902967
 11
-26.8110195579
 21
-0.284185618
  0
LINE
  5
287
100
AcDbEntity
  8
0
100
AcDbLine
 62
250
  6
CONTINUOUS
 10
-19.6024178763
 20
-17.1371248763
 11
-20.5608138763
 21
-15.1376698763
  0
LWPOLYLINE
  5
288
100
AcDbEntity
  8
RACCORDO
100
AcDbPolyline
 62
7
  6
CONTINUOUS
 90
11
 70
0
 10
-36.9638438763
 20
20.9500039535
 10
-36.9540180468
 20
20.9294135521
 10
-36.9249941304
 20
20.9031648503
 10
-36.8776250744
 20
20.8712578481
 10
-36.8129929906
 20
20.8331613797
 10
-36.7323332657
 20
20.789406611
 10
-36.6369643888
 20
20.7415870386
 10
-36.5283988851
 20
20.6896384437
 10
-36.4082276711
 20
20.6336250452
 10
-36.2779657874
 20
20.5753329961
 10
-35.8436888376
 20
20.3885710984
  0
LINE
  5
289
100
AcDbEntity
  8
0
100
AcDbLine
 62
250
  6
CONTINUOUS
 10
-16.1023058763
 20
-22.8896018763
 11
-16.9808838763
 21
-20.8885288763
  0
LINE
  5
28A
100
AcDbEntity
  8
RACCORDO
100
AcDbLine
 62
7
  6
CONTINUOUS
 10
-11.9695972406
 20
-36.2810048291
 11
-12.1335418446
 21
-35.8436888376
  0
LINE
  5
28B
100
AcDbEntity
  8
RACCORDO
100
AcDbLine
 62
250
  6
CONTINUOUS
 10
-27.1080330283
 20
2.3186407473
 11
-27.02739561
 21
2.0765317643
  0
LINE
  5
28C
100
AcDbEntity
  8
RACCORDO
100
AcDbLine
 62
250
  6
CONTINUOUS
 10
-26.958628796
 20
2.4701553412
 11
-26.8774184557
 21
2.2263261945
  0
LINE
  5
28D
100
AcDbEntity
  8
RACCORDO
100
AcDbLine
 62
250
  6
CONTINUOUS
 10
-27.1387080106
 20
-0.4556389605
 11
-27.0998910668
 21
-0.6005057672
  0
LINE
  5
28E
100
AcDbEntity
  8
0
100
AcDbLine
 62
250
  6
CONTINUOUS
 10
-20.5608138763
 20
-15.1376698763
 11
-20.5608138763
 21
-17.1371248763
  0
LINE
  5
28F
100
AcDbEntity
  8
0
100
AcDbLine
 62
250
  6
CONTINUOUS
 10
-20.0134708763
 20
-20.8885288763
 11
-20.0134708763
 21
-22.8896018763
  0
LINE
  5
290
100
AcDbEntity
  8
0
100
AcDbLine
 62
250
  6
CONTINUOUS
 10
-18.7763488763
 20
-20.8885288763
 11
-18.7763488763
 21
-22.8896018763
  0
LINE
  5
291
100
AcDbEntity
  8
0
100
AcDbLine
 62
250
  6
CONTINUOUS
 10
-18.7563888763
 20
17.9991161237
 11
-18.7563888763
 21
14.9992971237
  0
LINE
  5
292
100
AcDbEntity
  8
0
100
AcDbLine
 62
250
  6
CONTINUOUS
 10
-17.7931738763
 20
14.9992971237
 11
-17.5223248763
 21
17.9989361237
  0
LINE
  5
293
100
AcDbEntity
  8
0
100
AcDbLine
 62
250
  6
CONTINUOUS
 10
-16.2771708763
 20
16.3335271237
 11
-15.6510278763
 21
17.9989361237
  0
LINE
  5
294
100
AcDbEntity
  8
0
100
AcDbLine
 62
250
  6
CONTINUOUS
 10
-15.4921978763
 20
16.9498391237
 11
-16.2366808763
 21
14.9992971237
  0
LINE
  5
295
100
AcDbEntity
  8
RACCORDO
100
AcDbLine
 62
250
  6
CONTINUOUS
 10
-25.663843876
 20
2.656098433
 11
-25.8630309338
 21
2.4337057399
  0
LWPOLYLINE
  5
296
100
AcDbEntity
  8
RACCORDO
100
AcDbPolyline
 62
7
  6
CONTINUOUS
 90
6
 70
0
 10
-26.0592177407
 20
2.2064355749
 10
-26.0673569879
 20
2.1980038344
 10
-26.0764220367
 20
2.1890006804
 10
-26.0862272025
 20
2.1794261131
 10
-26.0965469382
 20
2.1691901287
 10
-26.1072592672
 20
2.158382731
  0
LWPOLYLINE
  5
297
100
AcDbEntity
  8
RACCORDO
100
AcDbPolyline
 62
7
  6
CONTINUOUS
 90
6
 70
0
 10
-26.7550351178
 20
1.7949866392
 10
-26.7601427639
 20
1.7897904339
 10
-26.7644054878
 20
1.7855945122
 10
-26.7676815265
 20
1.7825179053
 10
-26.7698075897
 20
1.7804415821
 10
-26.7706344575
 20
1.7793655425
  0
LINE
  5
298
100
AcDbEntity
  8
RACCORDO
100
AcDbLine
 62
7
  6
CONTINUOUS
 10
-26.1771925282
 20
2.088603392
 11
-26.1891215513
 21
2.0765317643
  0
LWPOLYLINE
  5
299
100
AcDbEntity
  8
RACCORDO
100
AcDbPolyline
 62
7
  6
CONTINUOUS
 90
3
 70
0
 10
-26.7356613098
 20
1.8143507561
 10
-26.7426785492
 20
1.8072668003
 10
-26.7550351178
 20
1.7949866392
  0
LINE
  5
29A
100
AcDbEntity
  8
RACCORDO
100
AcDbLine
 62
7
  6
CONTINUOUS
 10
-26.620640169
 20
1.929359831
 11
-26.6298233307
 21
1.9201080407
  0
LINE
  5
29B
100
AcDbEntity
  8
RACCORDO
100
AcDbLine
 62
7
  6
CONTINUOUS
 10
-26.7706344575
 20
1.7793655425
 11
-26.8110195579
 21
1.7389804421
  0
LINE
  5
29C
100
AcDbEntity
  8
RACCORDO
100
AcDbLine
 62
7
  6
CONTINUOUS
 10
-26.70342943
 20
1.84657057
 11
-26.7202323676
 21
1.8297300614
  0
LINE
  5
29D
100
AcDbEntity
  8
RACCORDO
100
AcDbLine
 62
7
  6
CONTINUOUS
 10
-26.7202323676
 20
1.8297300614
 11
-26.7356613098
 21
1.8143507561
  0
LINE
  5
29E
100
AcDbEntity
  8
RACCORDO
100
AcDbLine
 62
7
  6
CONTINUOUS
 10
-26.6298233307
 20
1.9201080407
 11
-26.70342943
 21
1.84657057
  0
LINE
  5
29F
100
AcDbEntity
  8
RACCORDO
100
AcDbLine
 62
7
  6
CONTINUOUS
 10
-26.1072592672
 20
2.158382731
 11
-26.1771925282
 21
2.088603392
  0
LINE
  5
2A0
100
AcDbEntity
  8
RACCORDO
100
AcDbLine
 62
7
  6
CONTINUOUS
 10
-26.9474894129
 20
1.6109715042
 11
-26.9666081252
 21
1.5922941803
  0
LWPOLYLINE
  5
2A1
100
AcDbEntity
  8
RACCORDO
100
AcDbPolyline
 62
7
  6
CONTINUOUS
 90
10
 70
0
 10
-26.9666081252
 20
1.5922941803
 10
-26.9814948521
 20
1.5780225838
 10
-26.9970563313
 20
1.5637883011
 10
-27.0132627
 20
1.5495913321
 10
-27.0300659864
 20
1.5354119007
 10
-27.0474351129
 20
1.5212697831
 10
-27.0653574504
 20
1.5072243076
 10
-27.0837900524
 20
1.4932952504
 10
-27.1026576662
 20
1.4794628353
 10
-27.1218890691
 20
1.4657270623
  0
LWPOLYLINE
  5
2A2
100
AcDbEntity
  8
RACCORDO
100
AcDbPolyline
 62
7
  6
CONTINUOUS
 90
3
 70
0
 10
-26.870470344
 20
1.6852916277
 10
-26.8860269862
 20
1.670403637
 10
-26.9474894129
 20
1.6109715042
  0
LINE
  5
2A3
100
AcDbEntity
  8
RACCORDO
100
AcDbLine
 62
7
  6
CONTINUOUS
 10
-26.8493986743
 20
1.705231294
 11
-26.870470344
 21
1.6852916277
  0
LWPOLYLINE
  5
2A4
100
AcDbEntity
  8
RACCORDO
100
AcDbPolyline
 62
250
  6
CONTINUOUS
 90
25
 70
0
 10
10.6064231707
 20
34.3160010849
 10
10.9468419272
 20
34.577422421
 10
11.2974325315
 20
34.816820207
 10
11.6581949836
 20
35.0342939585
 10
12.0303035818
 20
35.230356212
 10
12.4125840278
 20
35.4046751897
 10
12.8015134271
 20
35.5560793436
 10
13.1970571018
 20
35.6844622573
 10
13.5992497298
 20
35.7900730557
 10
14.0046724498
 20
35.8722651834
 10
14.4132661986
 20
35.9309179244
 10
14.8250900395
 20
35.9662297745
 10
15.2369023007
 20
35.9780163244
 10
15.6487030559
 20
35.9661442649
 10
16.0604922315
 20
35.9307468568
 10
16.4690279336
 20
35.8720200964
 10
16.874356996
 20
35.7897719462
 10
17.2764325851
 20
35.6841166408
 10
17.6718723065
 20
35.5556929244
 10
18.060736268
 20
35.4042281381
 10
18.4429643617
 20
35.2298521632
 10
18.8149938704
 20
35.0337994713
 10
19.1756372216
 20
34.8164231456
 10
19.5260819878
 20
34.5771900567
 10
19.8663281689
 20
34.3160010849
  0
LWPOLYLINE
  5
2A5
100
AcDbEntity
  8
RACCORDO
100
AcDbPolyline
 62
7
  6
CONTINUOUS
 90
11
 70
0
 10
20.355747547
 20
35.4361561237
 10
20.3381045399
 20
35.4265257061
 10
20.3155057374
 20
35.398002922
 10
20.2879511395
 20
35.3513109284
 10
20.2550017211
 20
35.2873952406
 10
20.2170965073
 20
35.2073738146
 10
20.1755525737
 20
35.1124893035
 10
20.130292258
 20
35.0041714054
 10
20.0813932225
 20
34.883943432
 10
20.0304055291
 20
34.7533172298
 10
19.8664605631
 20
34.3160010849
  0
LINE
  5
2A6
100
AcDbEntity
  8
0
100
AcDbLine
 62
250
  6
CONTINUOUS
 10
-16.4094558763
 20
-22.1900288763
 11
-17.5523118763
 21
-22.1900288763
  0
LINE
  5
2A7
100
AcDbEntity
  8
0
100
AcDbLine
 62
250
  6
CONTINUOUS
 10
-6.0495580973
 20
-21.5138438763
 11
-5.5924154582
 21
-21.5138438763
  0
LINE
  5
2A8
100
AcDbEntity
  8
0
100
AcDbLine
 62
250
  6
CONTINUOUS
 10
-1.8209863963
 20
-21.5138438763
 11
-2.1638437571
 21
-21.5138438763
  0
LINE
  5
2A9
100
AcDbEntity
  8
0
100
AcDbLine
 62
250
  6
CONTINUOUS
 10
-4.106701118
 20
-21.5138438763
 11
-4.906701118
 21
-21.5138438763
  0
LINE
  5
2AA
100
AcDbEntity
  8
0
100
AcDbLine
 62
250
  6
CONTINUOUS
 10
-6.8495580973
 20
-21.5138438763
 11
-6.9638439479
 21
-21.5138438763
  0
LINE
  5
2AB
100
AcDbEntity
  8
0
100
AcDbLine
 62
250
  6
CONTINUOUS
 10
-8.1067009272
 20
-21.5138438763
 11
-8.2209867778
 21
-21.5138438763
  0
LINE
  5
2AC
100
AcDbEntity
  8
0
100
AcDbLine
 62
250
  6
CONTINUOUS
 10
5.2361561237
 20
-21.5137398763
 11
5.9497881237
 21
-21.5137398763
  0
LINE
  5
2AD
100
AcDbEntity
  8
0
100
AcDbLine
 62
250
  6
CONTINUOUS
 10
-2.8495584788
 20
-21.1709867301
 11
-3.6495580973
 21
-21.1709867301
  0
LINE
  5
2AE
100
AcDbEntity
  8
0
100
AcDbLine
 62
250
  6
CONTINUOUS
 10
-9.7828914823
 20
-21.0567009988
 11
-9.1733676734
 21
-21.0567009988
  0
LINE
  5
2AF
100
AcDbEntity
  8
0
100
AcDbLine
 62
250
  6
CONTINUOUS
 10
-19.5884248763
 20
-20.8885288763
 11
-17.9642718763
 21
-20.8885288763
  0
LINE
  5
2B0
100
AcDbEntity
  8
0
100
AcDbLine
 62
250
  6
CONTINUOUS
 10
4.9057711237
 20
-20.6943848763
 11
5.5665411237
 21
-20.6943848763
  0
LINE
  5
2B1
100
AcDbEntity
  8
0
100
AcDbLine
 62
250
  6
CONTINUOUS
 10
-2.1638437571
 20
-20.5995581212
 11
-1.8209863963
 21
-20.5995581212
  0
LINE
  5
2B2
100
AcDbEntity
  8
0
100
AcDbLine
 62
250
  6
CONTINUOUS
 10
-5.5924154582
 20
-20.5995581212
 11
-6.0495580973
 21
-20.5995581212
  0
LINE
  5
2B3
100
AcDbEntity
  8
0
100
AcDbLine
 62
250
  6
CONTINUOUS
 10
-8.2209867778
 20
-19.9138438763
 11
-8.1067009272
 21
-19.9138438763
  0
LINE
  5
2B4
100
AcDbEntity
  8
0
100
AcDbLine
 62
250
  6
CONTINUOUS
 10
-6.9638439479
 20
-19.9138438763
 11
-6.8495580973
 21
-19.9138438763
  0
LINE
  5
2B5
100
AcDbEntity
  8
0
100
AcDbLine
 62
250
  6
CONTINUOUS
 10
-6.0495580973
 20
-19.9138438763
 11
-5.3638437571
 21
-19.9138438763
  0
LINE
  5
2B6
100
AcDbEntity
  8
0
100
AcDbLine
 62
250
  6
CONTINUOUS
 10
-2.1638437571
 20
-19.9138438763
 11
-1.8209863963
 21
-19.9138438763
  0
LINE
  5
2B7
100
AcDbEntity
  8
0
100
AcDbLine
 62
250
  6
CONTINUOUS
 10
-4.3352724375
 20
-19.9138438763
 11
-4.6781294169
 21
-19.9138438763
  0
LINE
  5
2B8
100
AcDbEntity
  8
0
100
AcDbLine
 62
250
  6
CONTINUOUS
 10
18.3537121237
 20
-18.8888438763
 11
16.8932111237
 21
-18.8888438763
  0
LWPOLYLINE
  5
2B9
100
AcDbEntity
  8
RACCORDO
100
AcDbPolyline
 62
7
  6
CONTINUOUS
 90
3
 70
0
 10
-26.8319518753
 20
-3.2491192235
 10
-26.8431272005
 20
-3.2387763341
 10
-26.8493986322
 20
-3.2329190862
  0
LINE
  5
2BA
100
AcDbEntity
  8
RACCORDO
100
AcDbLine
 62
7
  6
CONTINUOUS
 10
-26.8493986322
 20
-3.2329190862
 11
-26.8704702802
 21
-3.2129794411
  0
LWPOLYLINE
  5
2BB
100
AcDbEntity
  8
RACCORDO
100
AcDbPolyline
 62
7
  6
CONTINUOUS
 90
10
 70
0
 10
-26.9666081202
 20
-3.1199822714
 10
-26.9814948403
 20
-3.1057106023
 10
-26.9970563134
 20
-3.0914762543
 10
-27.0132626767
 20
-3.0772792273
 10
-27.0300659572
 20
-3.0630997433
 10
-27.0474350787
 20
-3.0489575802
 10
-27.0653574162
 20
-3.0349120724
 10
-27.0837900244
 20
-3.020982998
 10
-27.1026576497
 20
-3.0071505788
 10
-27.1218890691
 20
-2.9934148149
  0
LINE
  5
2BC
100
AcDbEntity
  8
RACCORDO
100
AcDbLine
 62
7
  6
CONTINUOUS
 10
-26.8704702802
 20
-3.2129794411
 11
-26.8941964242
 21
-3.1902577033
  0
LINE
  5
2BD
100
AcDbEntity
  8
RACCORDO
100
AcDbLine
 62
7
  6
CONTINUOUS
 10
-26.8941964242
 20
-3.1902577033
 11
-26.9289796416
 21
-3.1566259771
  0
LWPOLYLINE
  5
2BE
100
AcDbEntity
  8
RACCORDO
100
AcDbPolyline
 62
7
  6
CONTINUOUS
 90
3
 70
0
 10
-26.9289796416
 20
-3.1566259771
 10
-26.956983628
 20
-3.1294109059
 10
-26.9666081202
 20
-3.1199822714
  0
LWPOLYLINE
  5
2BF
100
AcDbEntity
  8
RACCORDO
100
AcDbPolyline
 62
7
  6
CONTINUOUS
 90
7
 70
0
 10
-26.7426785492
 20
-3.3349545529
 10
-26.7550351178
 20
-3.3226743918
 10
-26.7601427639
 20
-3.3174781865
 10
-26.7644054878
 20
-3.3132822649
 10
-26.7676815265
 20
-3.310205658
 10
-26.7698075897
 20
-3.3081293347
 10
-26.7706344575
 20
-3.3070532952
  0
LWPOLYLINE
  5
2C0
100
AcDbEntity
  8
RACCORDO
100
AcDbPolyline
 62
7
  6
CONTINUOUS
 90
3
 70
0
 10
-26.7202323676
 20
-3.3574178141
 10
-26.7356613098
 20
-3.3420385088
 10
-26.7426785492
 20
-3.3349545529
  0
LINE
  5
2C1
100
AcDbEntity
  8
RACCORDO
100
AcDbLine
 62
7
  6
CONTINUOUS
 10
-26.6298233307
 20
-3.4477957934
 11
-26.657825359
 21
-3.4198731919
  0
LINE
  5
2C2
100
AcDbEntity
  8
RACCORDO
100
AcDbLine
 62
7
  6
CONTINUOUS
 10
-26.7706344575
 20
-3.3070532952
 11
-26.8110195579
 21
-3.2666681948
  0
LINE
  5
2C3
100
AcDbEntity
  8
0
100
AcDbLine
 62
250
  6
CONTINUOUS
 10
-8.2209867778
 20
-21.5138438763
 11
-8.4495581927
 21
-21.2852724375
  0
LINE
  5
2C4
100
AcDbEntity
  8
0
100
AcDbLine
 62
250
  6
CONTINUOUS
 10
-6.9638439479
 20
-21.5138438763
 11
-7.1924152674
 21
-21.2852724375
  0
LINE
  5
2C5
100
AcDbEntity
  8
0
100
AcDbLine
 62
250
  6
CONTINUOUS
 10
-8.1067009272
 20
-19.9138438763
 11
-7.8781296076
 21
-20.1424152913
  0
LINE
  5
2C6
100
AcDbEntity
  8
0
100
AcDbLine
 62
250
  6
CONTINUOUS
 10
-6.8495580973
 20
-19.9138438763
 11
-6.6209867778
 21
-20.1424152913
  0
LINE
  5
2C7
100
AcDbEntity
  8
RACCORDO
100
AcDbLine
 62
7
  6
CONTINUOUS
 10
-26.657825359
 20
-3.4198731919
 11
-26.7202323676
 21
-3.3574178141
  0
LWPOLYLINE
  5
2C8
100
AcDbEntity
  8
RACCORDO
100
AcDbPolyline
 62
7
  6
CONTINUOUS
 90
3
 70
0
 10
-26.1298125259
 20
-3.6635785195
 10
-26.1414297663
 20
-3.6518939531
 10
-26.1771925282
 20
-3.6162911446
  0
LINE
  5
2C9
100
AcDbEntity
  8
RACCORDO
100
AcDbLine
 62
7
  6
CONTINUOUS
 10
-26.620640169
 20
-3.4570475837
 11
-26.6298233307
 21
-3.4477957934
  0
LINE
  5
2CA
100
AcDbEntity
  8
RACCORDO
100
AcDbLine
 62
7
  6
CONTINUOUS
 10
-26.1771925282
 20
-3.6162911446
 11
-26.1891215513
 21
-3.604219517
  0
LWPOLYLINE
  5
2CB
100
AcDbEntity
  8
RACCORDO
100
AcDbPolyline
 62
7
  6
CONTINUOUS
 90
7
 70
0
 10
-26.0592177407
 20
-3.7341233275
 10
-26.0673569879
 20
-3.725691587
 10
-26.0764220367
 20
-3.7166884331
 10
-26.0862272025
 20
-3.7071138658
 10
-26.0965469382
 20
-3.6968778814
 10
-26.1072592672
 20
-3.6860704836
 10
-26.1298125259
 20
-3.6635785195
  0
LWPOLYLINE
  5
2CC
100
AcDbEntity
  8
RACCORDO
100
AcDbPolyline
 62
250
  6
CONTINUOUS
 90
28
 70
0
 10
-35.8436888376
 20
10.0837397468
 10
-36.141015019
 20
10.4050944885
 10
-36.4166256467
 20
10.7386760904
 10
-36.6706299963
 20
11.0844845525
 10
-36.9036924158
 20
11.4437566657
 10
-37.1153533068
 20
11.8152556391
 10
-37.304037078
 20
12.1952710999
 10
-37.4696040056
 20
12.5837581999
 10
-37.6123755989
 20
12.9807617873
 10
-37.7314658658
 20
13.382706034
 10
-37.8267563064
 20
13.7895087671
 10
-37.898487892
 20
14.2012521595
 10
-37.9462992649
 20
14.6146069015
 10
-37.9700858406
 20
15.029536398
 10
-37.9699951092
 20
15.4460772441
 10
-37.9460233975
 20
15.8610099152
 10
-37.8980158264
 20
16.2743865261
 10
-37.8260841318
 20
16.686154962
 10
-37.730604159
 20
17.0929393539
 10
-37.6113258694
 20
17.4948148478
 10
-37.4683766721
 20
17.8917062976
 10
-37.3026842126
 20
18.2800123969
 10
-37.1139074429
 20
18.6597981842
 10
-36.9022059303
 20
19.030998621
 10
-36.6692567063
 20
19.3898172844
 10
-36.415554015
 20
19.7349887002
 10
-36.1404008024
 20
20.0677783427
 10
-35.8436888376
 20
20.3881862119
  0
LINE
  5
2CD
100
AcDbEntity
  8
RACCORDO
100
AcDbLine
 62
250
  6
CONTINUOUS
 10
-25.6638438775
 20
-4.183786187
 11
-25.8630309281
 21
-3.9613934922
  0
LINE
  5
2CE
100
AcDbEntity
  8
0
100
AcDbLine
 62
250
  6
CONTINUOUS
 10
-16.6165428763
 20
-17.1371248763
 11
-17.4990278763
 21
-15.1376698763
  0
LINE
  5
2CF
100
AcDbEntity
  8
0
100
AcDbLine
 62
250
  6
CONTINUOUS
 10
-18.6440228763
 20
-17.1371248763
 11
-18.6440228763
 21
-15.1376698763
  0
LINE
  5
2D0
100
AcDbEntity
  8
0
100
AcDbLine
 62
250
  6
CONTINUOUS
 10
-18.1302468763
 20
14.9992971237
 11
-18.1302468763
 21
17.9991161237
  0
LINE
  5
2D1
100
AcDbEntity
  8
0
100
AcDbLine
 62
250
  6
CONTINUOUS
 10
-17.7441868763
 20
-18.0139078763
 11
-17.7441868763
 21
-20.0133628763
  0
LINE
  5
2D2
100
AcDbEntity
  8
0
100
AcDbLine
 62
250
  6
CONTINUOUS
 10
-17.1466958763
 20
-18.0139078763
 11
-17.1466958763
 21
-20.0133628763
  0
LINE
  5
2D3
100
AcDbEntity
  8
0
100
AcDbLine
 62
250
  6
CONTINUOUS
 10
-16.3595318763
 20
-15.1376698763
 11
-16.3595318763
 21
-17.1371248763
  0
LINE
  5
2D4
100
AcDbEntity
  8
0
100
AcDbLine
 62
250
  6
CONTINUOUS
 10
-15.7202238763
 20
-20.8885288763
 11
-15.7202238763
 21
-22.8896018763
  0
LINE
  5
2D5
100
AcDbEntity
  8
0
100
AcDbLine
 62
250
  6
CONTINUOUS
 10
-15.5586168763
 20
-18.0139078763
 11
-15.5586168763
 21
-20.0133628763
  0
LINE
  5
2D6
100
AcDbEntity
  8
0
100
AcDbLine
 62
250
  6
CONTINUOUS
 10
-17.0590388763
 20
16.9580041237
 11
-17.1941598763
 21
14.9992971237
  0
LINE
  5
2D7
100
AcDbEntity
  8
0
100
AcDbLine
 62
250
  6
CONTINUOUS
 10
-13.4207278763
 20
17.1747111237
 11
-13.7324948763
 21
16.0615071237
  0
LINE
  5
2D8
100
AcDbEntity
  8
0
100
AcDbLine
 62
250
  6
CONTINUOUS
 10
-13.8605748763
 20
15.5981311237
 11
-14.0333518763
 21
14.9992971237
  0
LINE
  5
2D9
100
AcDbEntity
  8
0
100
AcDbLine
 62
250
  6
CONTINUOUS
 10
-14.6527008763
 20
14.9992971237
 11
-13.7118228763
 21
17.9989361237
  0
LWPOLYLINE
  5
2DA
100
AcDbEntity
  8
RACCORDO
100
AcDbPolyline
 62
250
  6
CONTINUOUS
 90
13
 70
0
 10
-36.809274125
 20
-32.3025712717
 10
-36.8049083505
 20
-32.2952455987
 10
-36.7804421612
 20
-32.279956901
 10
-36.7385668676
 20
-32.2609076292
 10
-36.6797920074
 20
-32.2383295742
 10
-36.6048327519
 20
-32.2124974652
 10
-36.5146012039
 20
-32.1837256265
 10
-36.410195299
 20
-32.152364153
 10
-36.2928854463
 20
-32.1187946502
 10
-36.1640990696
 20
-32.0834255909
 10
-36.0254032391
 20
-32.0466873446
 10
-35.8784856028
 20
-32.0090269414
 10
-35.7251338516
 20
-31.9709026319
  0
LWPOLYLINE
  5
2DB
100
AcDbEntity
  8
RACCORDO
100
AcDbPolyline
 62
250
  6
CONTINUOUS
 90
16
 70
0
 10
-25.6638438763
 20
-4.1837861861
 10
-25.6413030555
 20
-4.1616912888
 10
-25.620801817
 20
-4.1391854304
 10
-25.6023401608
 20
-4.1162686107
 10
-25.5860031219
 20
-4.0927613365
 10
-25.5717056654
 20
-4.068843101
 10
-25.5591926862
 20
-4.0450523847
 10
-25.5484883103
 20
-4.0214239609
 10
-25.5395684119
 20
-3.9979230563
 10
-25.532105508
 20
-3.9749838317
 10
-25.5261173314
 20
-3.9528286519
 10
-25.5215861495
 20
-3.9312351522
 10
-25.5181312811
 20
-3.9099703995
 10
-25.5156258326
 20
-3.8889567495
 10
-25.5141966977
 20
-3.8682718465
 10
-25.5138438763
 20
-3.8479156906
  0
LINE
  5
2DC
100
AcDbEntity
  8
RACCORDO
100
AcDbLine
 62
7
  6
CONTINUOUS
 10
-27.1023759332
 20
-1.4586691308
 11
-27.1218890691
 21
-1.4737032884
  0
LINE
  5
2DD
100
AcDbEntity
  8
RACCORDO
100
AcDbLine
 62
7
  6
CONTINUOUS
 10
-26.6991093395
 20
-1.1158255621
 11
-26.6321040604
 21
-1.064297481
  0
LINE
  5
2DE
100
AcDbEntity
  8
RACCORDO
100
AcDbLine
 62
7
  6
CONTINUOUS
 10
-26.7094431615
 20
-1.1237054112
 11
-26.6991093395
 21
-1.1158255621
  0
LWPOLYLINE
  5
2DF
100
AcDbEntity
  8
RACCORDO
100
AcDbPolyline
 62
7
  6
CONTINUOUS
 90
3
 70
0
 10
-26.7372153884
 20
-1.1450083275
 10
-26.7285231029
 20
-1.1383972493
 10
-26.7094431615
 20
-1.1237054112
  0
LINE
  5
2E0
100
AcDbEntity
  8
RACCORDO
100
AcDbLine
 62
7
  6
CONTINUOUS
 10
-26.6321040604
 20
-1.064297481
 11
-26.620640169
 21
-1.0555968765
  0
LINE
  5
2E1
100
AcDbEntity
  8
RACCORDO
100
AcDbLine
 62
7
  6
CONTINUOUS
 10
-26.9659538293
 20
-1.3554634631
 11
-27.1023759332
 21
-1.4586691308
  0
LINE
  5
2E2
100
AcDbEntity
  8
RACCORDO
100
AcDbLine
 62
7
  6
CONTINUOUS
 10
-26.9129512817
 20
-1.3159045997
 11
-26.9659538293
 21
-1.3554634631
  0
LINE
  5
2E3
100
AcDbEntity
  8
RACCORDO
100
AcDbLine
 62
7
  6
CONTINUOUS
 10
-26.8674368513
 20
-1.2823837464
 11
-26.9129512817
 21
-1.3159045997
  0
LINE
  5
2E4
100
AcDbEntity
  8
0
100
AcDbLine
 62
250
  6
CONTINUOUS
 10
16.8932080117
 20
-18.1388438763
 11
18.3537121237
 21
-18.1388438763
  0
LINE
  5
2E5
100
AcDbEntity
  8
0
100
AcDbLine
 62
250
  6
CONTINUOUS
 10
-16.3595318763
 20
-17.1371248763
 11
-15.7246108763
 21
-17.1371248763
  0
LINE
  5
2E6
100
AcDbEntity
  8
0
100
AcDbLine
 62
250
  6
CONTINUOUS
 10
-14.3341938763
 20
-17.1371248763
 11
-12.8575738763
 21
-17.1371248763
  0
LINE
  5
2E7
100
AcDbEntity
  8
0
100
AcDbLine
 62
250
  6
CONTINUOUS
 10
-18.0704558763
 20
-16.4323628763
 11
-16.9275988763
 21
-16.4323628763
  0
LINE
  5
2E8
100
AcDbEntity
  8
0
100
AcDbLine
 62
250
  6
CONTINUOUS
 10
4.9057711237
 20
-16.3333028763
 11
5.5665411237
 21
-16.3333028763
  0
LINE
  5
2E9
100
AcDbEntity
  8
0
100
AcDbLine
 62
250
  6
CONTINUOUS
 10
-14.3341938763
 20
-16.1373968763
 11
-12.9691148763
 21
-16.1373968763
  0
LINE
  5
2EA
100
AcDbEntity
  8
0
100
AcDbLine
 62
250
  6
CONTINUOUS
 10
-12.8771478763
 20
-15.1376698763
 11
-14.3341938763
 21
-15.1376698763
  0
LINE
  5
2EB
100
AcDbEntity
  8
0
100
AcDbLine
 62
250
  6
CONTINUOUS
 10
-15.7246108763
 20
-15.1376698763
 11
-16.3595318763
 21
-15.1376698763
  0
LWPOLYLINE
  5
2EC
100
AcDbEntity
  8
0
100
AcDbPolyline
 62
250
  6
CONTINUOUS
 90
74
 70
0
 10
-4.1059363512
 20
-17.0258041162
 10
-4.1466614558
 20
-17.0148817273
 10
-4.1837755641
 20
-17.0042948409
 10
-4.2207835759
 20
-16.9931610894
 10
-4.2578185744
 20
-16.9815540945
 10
-4.2701356084
 20
-16.9775986122
 10
-4.2824330291
 20
-16.9735411511
 10
-4.2946735808
 20
-16.9693237772
 10
-4.3068200078
 20
-16.9648885568
 10
-4.3188350546
 20
-16.960177556
 10
-4.3306814653
 20
-16.9551328411
 10
-4.3423219843
 20
-16.949696478
 10
-4.353719356
 20
-16.9438105331
 10
-4.3648363246
 20
-16.9374170725
 10
-4.3756356345
 20
-16.9304581622
 10
-4.3849823057
 20
-16.9237237959
 10
-4.3939973117
 20
-16.916505492
 10
-4.4026323441
 20
-16.90881701
 10
-4.4108390944
 20
-16.9006721093
 10
-4.4185692544
 20
-16.8920845496
 10
-4.4257745154
 20
-16.8830680904
 10
-4.4324065692
 20
-16.8736364911
 10
-4.4383507897
 20
-16.8639398668
 10
-4.4436931904
 20
-16.8538942834
 10
-4.4484372636
 20
-16.8435416974
 10
-4.4525865014
 20
-16.8329240655
 10
-4.4561443959
 20
-16.8220833444
 10
-4.4591144393
 20
-16.8110614908
 10
-4.4615001238
 20
-16.7999004613
 10
-4.4635020792
 20
-16.7871272147
 10
-4.4647592155
 20
-16.7742713223
 10
-4.4652734656
 20
-16.7613751215
 10
-4.4650467622
 20
-16.7484809496
 10
-4.4640810383
 20
-16.7356311442
 10
-4.4623782266
 20
-16.7228680425
 10
-4.4598348336
 20
-16.7097584944
 10
-4.4565078835
 20
-16.6968258817
 10
-4.4524055361
 20
-16.6841081701
 10
-4.4475359514
 20
-16.6716433256
 10
-4.4419072892
 20
-16.659469314
 10
-4.4358378462
 20
-16.6481542453
 10
-4.4291183566
 20
-16.6371739384
 10
-4.4217830944
 20
-16.6265635162
 10
-4.4138663339
 20
-16.6163581019
 10
-4.4054023492
 20
-16.6065928187
 10
-4.3964254145
 20
-16.5973027897
 10
-4.386969804
 20
-16.5885231381
 10
-4.377069792
 20
-16.580288987
 10
-4.3667596525
 20
-16.5726354596
 10
-4.3560736598
 20
-16.565597679
 10
-4.3454341825
 20
-16.5594023205
 10
-4.3345238756
 20
-16.5537414451
 10
-4.3233903538
 20
-16.5485427492
 10
-4.3120812315
 20
-16.5437339288
 10
-4.2968247391
 20
-16.537840607
 10
-4.2813653986
 20
-16.5324986583
 10
-4.2657270647
 20
-16.5276969369
 10
-4.2499335922
 20
-16.523424297
 10
-4.2327888969
 20
-16.5194066944
 10
-4.2155157738
 20
-16.5159898366
 10
-4.1981378623
 20
-16.5131745397
 10
-4.1806788017
 20
-16.5109616198
 10
-4.1622979468
 20
-16.5092793656
 10
-4.1438686593
 20
-16.5082082488
 10
-4.1254058101
 20
-16.507695448
 10
-4.10692427
 20
-16.5076881415
 10
-4.0884389098
 20
-16.5081335077
 10
-4.0675994846
 20
-16.5091361201
 10
-4.0468076519
 20
-16.5107087228
 10
-4.026096938
 20
-16.5129123469
 10
-4.0055008689
 20
-16.5158080234
 10
-3.9872599332
 20
-16.5190143757
 10
-3.9691213609
 20
-16.5228164486
 10
-3.9510697931
 20
-16.5272116351
  0
LWPOLYLINE
  5
2ED
100
AcDbEntity
  8
0
100
AcDbPolyline
 62
250
  6
CONTINUOUS
 90
49
 70
0
 10
-3.9510697931
 20
-16.5272116351
 10
-3.9420718362
 20
-16.5296308312
 10
-3.9330898707
 20
-16.5321973281
 10
-3.9262815318
 20
-16.5342452112
 10
-3.9194894984
 20
-16.5363846319
 10
-3.9127219646
 20
-16.5386224077
 10
-3.9059871246
 20
-16.5409653562
 10
-3.8992931727
 20
-16.5434202949
 10
-3.8926483031
 20
-16.5459940416
 10
-3.88606071
 20
-16.5486934137
 10
-3.8795385876
 20
-16.5515252289
 10
-3.87309013
 20
-16.5544963048
 10
-3.8667235317
 20
-16.5576134589
 10
-3.8604469866
 20
-16.5608835088
 10
-3.8542686891
 20
-16.5643132721
 10
-3.8481968334
 20
-16.5679095664
 10
-3.8422396137
 20
-16.5716792093
 10
-3.8364052241
 20
-16.5756290184
 10
-3.830701859
 20
-16.5797658112
 10
-3.8251377125
 20
-16.5840964055
 10
-3.8196492003
 20
-16.588686708
 10
-3.8143168408
 20
-16.5934740118
 10
-3.8091454185
 20
-16.5984493163
 10
-3.804139718
 20
-16.6036036211
 10
-3.7993045239
 20
-16.6089279256
 10
-3.7946446207
 20
-16.6144132293
 10
-3.790164793
 20
-16.6200505318
 10
-3.7858698254
 20
-16.6258308325
 10
-3.7817645024
 20
-16.6317451308
 10
-3.7778536086
 20
-16.6377844264
 10
-3.7741419286
 20
-16.6439397187
 10
-3.770634247
 20
-16.6502020071
 10
-3.7673210711
 20
-16.6565866932
 10
-3.7642090974
 20
-16.6630635819
 10
-3.7612891795
 20
-16.6696261455
 10
-3.7585521713
 20
-16.6762678562
 10
-3.7559889264
 20
-16.6829821862
 10
-3.7535902987
 20
-16.6897626076
 10
-3.7513471418
 20
-16.6966025927
 10
-3.7492503096
 20
-16.7034956138
 10
-3.7472906557
 20
-16.7104351429
 10
-3.745459034
 20
-16.7174146524
 10
-3.7437462981
 20
-16.7244276144
 10
-3.7421433018
 20
-16.7314675011
 10
-3.7406408989
 20
-16.7385277848
 10
-3.739229943
 20
-16.7456019376
 10
-3.7379012881
 20
-16.7526834317
 10
-3.7366457877
 20
-16.7597657395
 10
-3.7354542957
 20
-16.766842333
  0
LINE
  5
2EE
100
AcDbEntity
  8
RACCORDO
100
AcDbLine
 62
250
  6
CONTINUOUS
 10
-27.02739561
 20
-3.4570475837
 11
-27.1080330283
 21
-3.4167319451
  0
LINE
  5
2EF
100
AcDbEntity
  8
RACCORDO
100
AcDbLine
 62
250
  6
CONTINUOUS
 10
-26.8774184557
 20
-3.3070532952
 11
-26.9582864476
 21
-3.2666223786
  0
LWPOLYLINE
  5
2F0
100
AcDbEntity
  8
RACCORDO
100
AcDbPolyline
 62
7
  6
CONTINUOUS
 90
8
 70
0
 10
-26.8112632287
 20
-3.2665830991
 10
-26.812220346
 20
-3.2660738791
 10
-26.8138745799
 20
-3.2648954462
 10
-26.8162106146
 20
-3.2630478004
 10
-26.8192192732
 20
-3.2604987979
 10
-26.8228779897
 20
-3.2572805824
 10
-26.8271359462
 20
-3.2534895852
 10
-26.8319518753
 20
-3.2491192235
  0
LWPOLYLINE
  5
2F1
100
AcDbEntity
  8
RACCORDO
100
AcDbPolyline
 62
250
  6
CONTINUOUS
 90
13
 70
0
 10
30.774883452
 20
-36.8092741407
 10
30.7675577787
 20
-36.8049083651
 10
30.7522690818
 20
-36.7804421751
 10
30.733219811
 20
-36.7385668808
 10
30.7106417572
 20
-36.67979202
 10
30.6848096496
 20
-36.6048327641
 10
30.6560378125
 20
-36.5146012159
 10
30.6246763407
 20
-36.4101953109
 10
30.5911068398
 20
-36.2928854582
 10
30.5557377824
 20
-36.1640990816
 10
30.5189995383
 20
-36.0254032513
 10
30.4813391372
 20
-35.8784856152
 10
30.4432148297
 20
-35.7251338644
  0
LWPOLYLINE
  5
2F2
100
AcDbEntity
  8
RACCORDO
100
AcDbPolyline
 62
7
  6
CONTINUOUS
 90
3
 70
0
 10
-26.8545109231
 20
-0.2546404314
 10
-26.8674368513
 20
-0.2453040062
 10
-26.9129512817
 20
-0.2117831529
  0
LINE
  5
2F3
100
AcDbEntity
  8
RACCORDO
100
AcDbLine
 62
7
  6
CONTINUOUS
 10
-26.9129512817
 20
-0.2117831529
 11
-26.9659538293
 21
-0.1722242896
  0
LINE
  5
2F4
100
AcDbEntity
  8
0
100
AcDbLine
 62
250
  6
CONTINUOUS
 10
-2.1638437571
 20
-20.5995581212
 11
-2.3162248912
 21
-20.4852724614
  0
LINE
  5
2F5
100
AcDbEntity
  8
RACCORDO
100
AcDbLine
 62
7
  6
CONTINUOUS
 10
-26.9659538293
 20
-0.1722242896
 11
-27.02344049
 21
-0.1289178242
  0
LINE
  5
2F6
100
AcDbEntity
  8
RACCORDO
100
AcDbLine
 62
7
  6
CONTINUOUS
 10
-26.6321040604
 20
-0.4633902717
 11
-26.620640169
 21
-0.4720908762
  0
LWPOLYLINE
  5
2F7
100
AcDbEntity
  8
RACCORDO
100
AcDbPolyline
 62
7
  6
CONTINUOUS
 90
3
 70
0
 10
-27.02344049
 20
-0.1289178242
 10
-27.1023759332
 20
-0.0690186219
 10
-27.1218890691
 20
-0.0539844643
  0
LWPOLYLINE
  5
2F8
100
AcDbEntity
  8
RACCORDO
100
AcDbPolyline
 62
7
  6
CONTINUOUS
 90
3
 70
0
 10
-26.7521489025
 20
-0.3711475748
 10
-26.7372153884
 20
-0.3826794252
 10
-26.7285231029
 20
-0.3892905034
  0
LINE
  5
2F9
100
AcDbEntity
  8
RACCORDO
100
AcDbLine
 62
7
  6
CONTINUOUS
 10
-26.7285231029
 20
-0.3892905034
 11
-26.6321040604
 21
-0.4633902717
  0
LINE
  5
2FA
100
AcDbEntity
  8
0
100
AcDbLine
 62
250
  6
CONTINUOUS
 10
-5.3638437571
 20
-20.8281295838
 11
-5.5924154582
 21
-20.5995581212
  0
LINE
  5
2FB
100
AcDbEntity
  8
0
100
AcDbLine
 62
250
  6
CONTINUOUS
 10
-4.106701118
 20
-20.1424152913
 11
-4.3352724375
 21
-19.9138438763
  0
LINE
  5
2FC
100
AcDbEntity
  8
0
100
AcDbLine
 62
250
  6
CONTINUOUS
 10
-2.1638437571
 20
-21.5138438763
 11
-2.3924150767
 21
-21.2852724375
  0
LINE
  5
2FD
100
AcDbEntity
  8
0
100
AcDbLine
 62
250
  6
CONTINUOUS
 10
-1.8209863963
 20
-20.5995581212
 11
-1.5924150767
 21
-20.8281295838
  0
LWPOLYLINE
  5
2FE
100
AcDbEntity
  8
RACCORDO
100
AcDbPolyline
 62
250
  6
CONTINUOUS
 90
13
 70
0
 10
-36.8092745061
 20
30.7748818873
 10
-36.8049100232
 20
30.7675579069
 10
-36.7804441697
 20
30.7522691942
 10
-36.7385691047
 20
30.7332198894
 10
-36.6797943666
 20
30.7106417856
 10
-36.6048351298
 20
30.6848096142
 10
-36.5146035028
 20
30.6560377026
 10
-36.4101974296
 20
30.6246761488
 10
-36.2928873293
 20
30.5911065619
 10
-36.1641006383
 20
30.5557374185
 10
-36.0254044408
 20
30.5189990922
 10
-35.8784864004
 20
30.4813386169
 10
-35.7251342245
 20
30.4432142471
  0
LINE
  5
2FF
100
AcDbEntity
  8
0
100
AcDbLine
 62
250
  6
CONTINUOUS
 10
-8.4495581927
 20
-21.2852724375
 11
-8.5638438525
 21
-21.0567009988
  0
LINE
  5
300
100
AcDbEntity
  8
0
100
AcDbLine
 62
250
  6
CONTINUOUS
 10
-7.8781296076
 20
-20.1424152913
 11
-7.7638439479
 21
-20.3709867062
  0
LINE
  5
301
100
AcDbEntity
  8
0
100
AcDbLine
 62
250
  6
CONTINUOUS
 10
-7.1924152674
 20
-21.2852724375
 11
-7.3067009272
 21
-21.0567009988
  0
LINE
  5
302
100
AcDbEntity
  8
0
100
AcDbLine
 62
250
  6
CONTINUOUS
 10
-6.6209867778
 20
-20.1424152913
 11
-6.506701118
 21
-20.3709867062
  0
LINE
  5
303
100
AcDbEntity
  8
0
100
AcDbLine
 62
250
  6
CONTINUOUS
 10
-20.5047438763
 20
14.9992971237
 11
-21.4556878763
 21
17.9989361237
  0
LINE
  5
304
100
AcDbEntity
  8
0
100
AcDbLine
 62
250
  6
CONTINUOUS
 10
-20.7755038763
 20
17.9989361237
 11
-20.2037188763
 21
15.9341911237
  0
LINE
  5
305
100
AcDbEntity
  8
0
100
AcDbLine
 62
250
  6
CONTINUOUS
 10
-15.0315218763
 20
17.9989361237
 11
-14.7510218763
 21
14.9992971237
  0
LINE
  5
306
100
AcDbEntity
  8
0
100
AcDbLine
 62
250
  6
CONTINUOUS
 10
-15.3635548763
 20
14.9992971237
 11
-15.4921978763
 21
16.9498391237
  0
LINE
  5
307
100
AcDbEntity
  8
0
100
AcDbLine
 62
250
  6
CONTINUOUS
 10
-14.3341938763
 20
-15.1376698763
 11
-14.3341938763
 21
-17.1371248763
  0
LINE
  5
308
100
AcDbEntity
  8
0
100
AcDbLine
 62
250
  6
CONTINUOUS
 10
-14.0067758763
 20
-22.8896018763
 11
-14.0067758763
 21
-22.0085078763
  0
LINE
  5
309
100
AcDbEntity
  8
0
100
AcDbLine
 62
250
  6
CONTINUOUS
 10
-12.0018756527
 20
17.9638900477
 11
-12.0018756527
 21
14.9992966704
  0
LINE
  5
30A
100
AcDbEntity
  8
0
100
AcDbLine
 62
250
  6
CONTINUOUS
 10
-11.3990146405
 20
16.6644581252
 11
-11.3990146405
 21
17.4879175459
  0
LINE
  5
30B
100
AcDbEntity
  8
0
100
AcDbLine
 62
250
  6
CONTINUOUS
 10
-11.378252702
 20
14.9992966704
 11
-11.378252702
 21
16.1731897208
  0
LWPOLYLINE
  5
30C
100
AcDbEntity
  8
RACCORDO
100
AcDbPolyline
 62
7
  6
CONTINUOUS
 90
3
 70
0
 10
-26.8329118702
 20
-1.2575735285
 10
-26.8545109231
 20
-1.2730473212
 10
-26.8674368513
 20
-1.2823837464
  0
LWPOLYLINE
  5
30D
100
AcDbEntity
  8
RACCORDO
100
AcDbPolyline
 62
7
  6
CONTINUOUS
 90
7
 70
0
 10
-26.770623035
 20
-1.1706768641
 10
-26.7694519768
 20
-1.1699309507
 10
-26.7670075563
 20
-1.168029029
 10
-26.7633183321
 20
-1.1650776817
 10
-26.7583246315
 20
-1.1612165023
 10
-26.7521489025
 20
-1.1565401778
 10
-26.7372153884
 20
-1.1450083275
  0
LWPOLYLINE
  5
30E
100
AcDbEntity
  8
RACCORDO
100
AcDbPolyline
 62
250
  6
CONTINUOUS
 90
13
 70
0
 10
30.7748818205
 20
35.2815867691
 10
30.7675578405
 20
35.2772222864
 10
30.7522691287
 20
35.2527564333
 10
30.733219825
 20
35.2108813687
 10
30.7106417224
 20
35.1521066307
 10
30.6848095524
 20
35.077147394
 10
30.6560376422
 20
34.9869157671
 10
30.6246760901
 20
34.8825096937
 10
30.5911065049
 20
34.7651995932
 10
30.5557373633
 20
34.6364129019
 10
30.5189990388
 20
34.497716704
 10
30.4813385653
 20
34.3507986631
 10
30.4432141974
 20
34.1974464867
  0
LWPOLYLINE
  5
30F
100
AcDbEntity
  8
RACCORDO
100
AcDbPolyline
 62
7
  6
CONTINUOUS
 90
5
 70
0
 10
-26.8112760734
 20
-1.2436151659
 10
-26.8135576314
 20
-1.244904416
 10
-26.8180382959
 20
-1.2476401097
 10
-26.8245511892
 20
-1.2518222471
 10
-26.8329118702
 20
-1.2575735285
  0
LWPOLYLINE
  5
310
100
AcDbEntity
  8
RACCORDO
100
AcDbPolyline
 62
7
  6
CONTINUOUS
 90
10
 70
0
 10
-26.8112632287
 20
1.7388953464
 10
-26.8122203468
 20
1.7383861259
 10
-26.8138745826
 20
1.7372076915
 10
-26.8162106198
 20
1.7353600434
 10
-26.8192192819
 20
1.7328110378
 10
-26.8228780025
 20
1.7295928184
 10
-26.8271359639
 20
1.7258018166
 10
-26.8319518984
 20
1.7214314497
 10
-26.8372983561
 20
1.7164883005
 10
-26.8493986743
 20
1.705231294
  0
LINE
  5
311
100
AcDbEntity
  8
RACCORDO
100
AcDbLine
 62
250
  6
CONTINUOUS
 10
-27.1080330283
 20
1.8890441925
 11
-27.02739561
 21
1.929359831
  0
LINE
  5
312
100
AcDbEntity
  8
RACCORDO
100
AcDbLine
 62
250
  6
CONTINUOUS
 10
-26.9582864476
 20
1.738934626
 11
-26.8774184557
 21
1.7793655425
  0
LINE
  5
313
100
AcDbEntity
  8
ASSI
100
AcDbLine
 62
7
  6
CONTINUOUS
 10
21.5361561237
 20
-12.0138438763
 11
-23.0638438763
 21
-12.0138438763
  0
LINE
  5
314
100
AcDbEntity
  8
RACCORDO
100
AcDbLine
 62
7
  6
CONTINUOUS
 10
-26.8112761241
 20
-0.2840725753
 11
-26.8110195579
 21
-0.284185618
  0
LWPOLYLINE
  5
315
100
AcDbEntity
  8
RACCORDO
100
AcDbPolyline
 62
7
  6
CONTINUOUS
 90
6
 70
0
 10
-26.8112760734
 20
-0.2840725867
 10
-26.8135576314
 20
-0.2827833367
 10
-26.8180382959
 20
-0.280047643
 10
-26.8245511892
 20
-0.2758655056
 10
-26.8329118702
 20
-0.2701142242
 10
-26.8545109231
 20
-0.2546404314
  0
LWPOLYLINE
  5
316
100
AcDbEntity
  8
RACCORDO
100
AcDbPolyline
 62
7
  6
CONTINUOUS
 90
6
 70
0
 10
-26.770623035
 20
-0.3570108886
 10
-26.7694519768
 20
-0.357756802
 10
-26.7670075563
 20
-0.3596587237
 10
-26.7633183321
 20
-0.362610071
 10
-26.7583246315
 20
-0.3664712503
 10
-26.7521489025
 20
-0.3711475748
  0
LINE
  5
317
100
AcDbEntity
  8
0
100
AcDbLine
 62
250
  6
CONTINUOUS
 10
3.4614601237
 20
-17.1362558763
 11
5.2361561237
 21
-18.5138438763
  0
LWPOLYLINE
  5
318
100
AcDbEntity
  8
RACCORDO
100
AcDbPolyline
 62
250
  6
CONTINUOUS
 90
16
 70
0
 10
-25.6638438763
 20
2.6560984335
 10
-25.6851255253
 20
2.6735662392
 10
-25.7064532006
 20
2.6893989541
 10
-25.7278268961
 20
2.7035965782
 10
-25.7493520134
 20
2.7160689781
 10
-25.7709231384
 20
2.7269062873
 10
-25.7922240421
 20
2.7363789059
 10
-25.8132026363
 20
2.7444835304
 10
-25.8339110006
 20
2.7512234643
 10
-25.8541891611
 20
2.7568790188
 10
-25.8739987669
 20
2.7614626904
 10
-25.8933781653
 20
2.7649619824
 10
-25.9122824316
 20
2.7676197159
 10
-25.9306965912
 20
2.7695168312
 10
-25.9486356188
 20
2.770572388
 10
-25.9660995154
 20
2.7707863863
  0
LWPOLYLINE
  5
319
100
AcDbEntity
  8
RACCORDO
100
AcDbPolyline
 62
250
  6
CONTINUOUS
 90
16
 70
0
 10
-25.8638438763
 20
2.432798081
 10
-25.8708301809
 20
2.4387137812
 10
-25.8779252164
 20
2.4440248939
 10
-25.8850739985
 20
2.4487537709
 10
-25.8922180774
 20
2.452921395
 10
-25.8993196135
 20
2.4565618001
 10
-25.9063635402
 20
2.4597170601
 10
-25.9133140677
 20
2.4624150441
 10
-25.9201409439
 20
2.4646855269
 10
-25.9268465159
 20
2.4665671183
 10
-25.9334051584
 20
2.4680858943
 10
-25.9397992524
 20
2.469269491
 10
-25.9460497563
 20
2.4701502508
 10
-25.9521550914
 20
2.4707515959
 10
-25.9580900149
 20
2.4710933614
 10
-25.9638438763
 20
2.4711975259
  0
LINE
  5
31A
100
AcDbEntity
  8
0
100
AcDbLine
 62
250
  6
CONTINUOUS
 10
-1.8209863963
 20
-19.9138438763
 11
-1.6686060252
 21
-20.1424152913
  0
LINE
  5
31B
100
AcDbEntity
  8
0
100
AcDbLine
 62
250
  6
CONTINUOUS
 10
-9.47812956
 20
-19.9138438763
 11
-9.0209866824
 21
-21.5138438763
  0
LWPOLYLINE
  5
31C
100
AcDbEntity
  8
0
100
AcDbPolyline
 62
250
  6
CONTINUOUS
 90
81
 70
0
 10
-8.3603575619
 20
-17.0138438763
 10
-8.3582675437
 20
-17.0903211791
 10
-8.3520843657
 20
-17.1667835595
 10
-8.3419383431
 20
-17.2430671081
 10
-8.3279597909
 20
-17.3190079156
 10
-8.3102790243
 20
-17.3944420727
 10
-8.2890263583
 20
-17.4692056699
 10
-8.264332108
 20
-17.5431347981
 10
-8.2363265886
 20
-17.6160655477
 10
-8.2051401151
 20
-17.6878340096
 10
-8.1709030026
 20
-17.7582762743
 10
-8.1337455661
 20
-17.8272284325
 10
-8.0937981209
 20
-17.8945265748
 10
-8.051190982
 20
-17.960006792
 10
-8.0060544644
 20
-18.0235051747
 10
-7.9526448563
 20
-18.0921221566
 10
-7.8963757507
 20
-18.1580715305
 10
-7.8373980617
 20
-18.2213782277
 10
-7.7758627035
 20
-18.2820671791
 10
-7.7119205903
 20
-18.340163316
 10
-7.6457226364
 20
-18.3956915696
 10
-7.5774197558
 20
-18.448676871
 10
-7.5071628629
 20
-18.4991441514
 10
-7.4351028717
 20
-18.547118342
 10
-7.3613906965
 20
-18.5926243739
 10
-7.2861772515
 20
-18.6356871782
 10
-7.2096134508
 20
-18.6763316862
 10
-7.1318502087
 20
-18.7145828291
 10
-7.0530384393
 20
-18.7504655379
 10
-6.9507791497
 20
-18.7929974621
 10
-6.8471702277
 20
-18.8317087138
 10
-6.7423343672
 20
-18.8666225937
 10
-6.6363942621
 20
-18.8977624025
 10
-6.5294726062
 20
-18.925151441
 10
-6.4216920934
 20
-18.9488130099
 10
-6.3131754175
 20
-18.9687704098
 10
-6.2040452724
 20
-18.9850469414
 10
-6.0944243518
 20
-18.9976659055
 10
-5.9844353497
 20
-19.0066506028
 10
-5.87420096
 20
-19.012024334
 10
-5.7638438763
 20
-19.0138103998
 10
-5.6534867927
 20
-19.012024334
 10
-5.5432524029
 20
-19.0066506028
 10
-5.4332634008
 20
-18.9976659055
 10
-5.3236424803
 20
-18.9850469414
 10
-5.2145123351
 20
-18.9687704098
 10
-5.1059956592
 20
-18.9488130099
 10
-4.9982151464
 20
-18.925151441
 10
-4.8912934905
 20
-18.8977624025
 10
-4.7853533854
 20
-18.8666225937
 10
-4.680517525
 20
-18.8317087138
 10
-4.576908603
 20
-18.7929974621
 10
-4.4746493134
 20
-18.7504655379
 10
-4.395837544
 20
-18.7145828291
 10
-4.3180743018
 20
-18.6763316862
 10
-4.2415105012
 20
-18.6356871782
 10
-4.1662970561
 20
-18.5926243739
 10
-4.0925848809
 20
-18.547118342
 10
-4.0205248898
 20
-18.4991441514
 10
-3.9502679968
 20
-18.448676871
 10
-3.8819651163
 20
-18.3956915696
 10
-3.8157671623
 20
-18.340163316
 10
-3.7518250492
 20
-18.2820671791
 10
-3.690289691
 20
-18.2213782277
 10
-3.631312002
 20
-18.1580715305
 10
-3.5750428963
 20
-18.0921221566
 10
-3.5216332882
 20
-18.0235051747
 10
-3.4764967707
 20
-17.960006792
 10
-3.4338896317
 20
-17.8945265748
 10
-3.3939421865
 20
-17.8272284325
 10
-3.3567847501
 20
-17.7582762743
 10
-3.3225476376
 20
-17.6878340096
 10
-3.2913611641
 20
-17.6160655477
 10
-3.2633556446
 20
-17.5431347981
 10
-3.2386613944
 20
-17.4692056699
 10
-3.2174087284
 20
-17.3944420727
 10
-3.1997279618
 20
-17.3190079156
 10
-3.1857494096
 20
-17.2430671081
 10
-3.175603387
 20
-17.1667835595
 10
-3.169420209
 20
-17.0903211791
 10
-3.1673301908
 20
-17.0138438763
  0
LWPOLYLINE
  5
31D
100
AcDbEntity
  8
0
100
AcDbPolyline
 62
250
  6
CONTINUOUS
 90
58
 70
0
 10
-10.5547932813
 20
17.13060076
 10
-10.5546989525
 20
17.1166936756
 10
-10.5548547194
 20
17.102746447
 10
-10.5552760989
 20
17.0887739435
 10
-10.5559786079
 20
17.0747910347
 10
-10.5569777632
 20
17.0608125898
 10
-10.5582890818
 20
17.0468534782
 10
-10.5599280805
 20
17.0329285694
 10
-10.5619102762
 20
17.0190527328
 10
-10.5642511858
 20
17.0052408377
 10
-10.5669663262
 20
16.9915077535
 10
-10.5700712141
 20
16.9778683496
 10
-10.5735813666
 20
16.9643374954
 10
-10.5775123005
 20
16.9509300603
 10
-10.5818795327
 20
16.9376609137
 10
-10.58669858
 20
16.9245449249
 10
-10.5919849594
 20
16.9115969634
 10
-10.5972447824
 20
16.8999026256
 10
-10.6029007658
 20
16.8883774889
 10
-10.6089442896
 20
16.8770374289
 10
-10.6153667338
 20
16.8658983214
 10
-10.6221594784
 20
16.8549760422
 10
-10.6293139035
 20
16.844286467
 10
-10.6368213891
 20
16.8338454714
 10
-10.6446733151
 20
16.8236689313
 10
-10.6528610616
 20
16.8137727223
 10
-10.6613760086
 20
16.8041727202
 10
-10.6702095362
 20
16.7948848007
 10
-10.6793530243
 20
16.7859248396
 10
-10.688797853
 20
16.7773087125
 10
-10.6985354022
 20
16.7690522952
 10
-10.7090015192
 20
16.7608307739
 10
-10.7197623379
 20
16.7530104486
 10
-10.7308030274
 20
16.7455833078
 10
-10.7421087569
 20
16.7385413405
 10
-10.7536646955
 20
16.7318765354
 10
-10.7654560122
 20
16.7255808812
 10
-10.7774678762
 20
16.7196463667
 10
-10.7896854565
 20
16.7140649807
 10
-10.8020939223
 20
16.708828712
 10
-10.8146784426
 20
16.7039295493
 10
-10.8274241866
 20
16.6993594814
 10
-10.8403163233
 20
16.6951104971
 10
-10.8533400219
 20
16.6911745851
 10
-10.8664804515
 20
16.6875437342
 10
-10.8797227811
 20
16.6842099332
 10
-10.8930521798
 20
16.6811651709
 10
-10.9064538168
 20
16.678401436
 10
-10.9199128612
 20
16.6759107173
 10
-10.9334144821
 20
16.6736850036
 10
-10.9469438484
 20
16.6717162836
 10
-10.9604861295
 20
16.6699965461
 10
-10.9740264943
 20
16.6685177799
 10
-10.987550112
 20
16.6672719738
 10
-11.0010421516
 20
16.6662511165
 10
-11.0144877823
 20
16.6654471968
 10
-11.0278721731
 20
16.6648522034
 10
-11.0411804932
 20
16.6644581252
  0
LINE
  5
31E
100
AcDbEntity
  8
0
100
AcDbLine
 62
250
  6
CONTINUOUS
 10
-10.3920943633
 20
16.3995015988
 11
-10.3920943633
 21
16.4172268508
  0
LINE
  5
31F
100
AcDbEntity
  8
0
100
AcDbLine
 62
250
  6
CONTINUOUS
 10
-8.5638438525
 20
-21.0567009988
 11
-8.5638438525
 21
-20.3709867062
  0
LINE
  5
320
100
AcDbEntity
  8
0
100
AcDbLine
 62
250
  6
CONTINUOUS
 10
-7.7638439479
 20
-20.3709867062
 11
-7.7638439479
 21
-21.0567009988
  0
LINE
  5
321
100
AcDbEntity
  8
0
100
AcDbLine
 62
250
  6
CONTINUOUS
 10
-7.4134488763
 20
15.0361561237
 11
-7.4134488763
 21
17.9361561237
  0
LINE
  5
322
100
AcDbEntity
  8
0
100
AcDbLine
 62
250
  6
CONTINUOUS
 10
-7.3067009272
 20
-21.0567009988
 11
-7.3067009272
 21
-20.3709867062
  0
LINE
  5
323
100
AcDbEntity
  8
0
100
AcDbLine
 62
250
  6
CONTINUOUS
 10
-2.3402748763
 20
15.0361561237
 11
-2.1234268763
 21
15.6507951237
  0
LINE
  5
324
100
AcDbEntity
  8
0
100
AcDbLine
 62
250
  6
CONTINUOUS
 10
-1.8863898763
 20
17.9361561237
 11
-2.9347248763
 21
15.0361561237
  0
LINE
  5
325
100
AcDbEntity
  8
0
100
AcDbLine
 62
250
  6
CONTINUOUS
 10
-17.4990278763
 20
-15.1376698763
 11
-18.3815108763
 21
-17.1371248763
  0
LINE
  5
326
100
AcDbEntity
  8
0
100
AcDbLine
 62
250
  6
CONTINUOUS
 10
-18.6440228763
 20
-15.1376698763
 11
-19.6024178763
 21
-17.1371248763
  0
LWPOLYLINE
  5
327
100
AcDbEntity
  8
RACCORDO
100
AcDbPolyline
 62
250
  6
CONTINUOUS
 90
4
 70
0
 10
-31.2863762332
 20
-34.6345063221
 10
-29.2028481595
 20
-31.3091440566
 10
-28.4980224334
 20
-30.1853981359
 10
-26.3748219159
 20
-26.7965707939
  0
LINE
  5
328
100
AcDbEntity
  8
RACCORDO
100
AcDbLine
 62
250
  6
CONTINUOUS
 10
-26.3748219159
 20
-26.7965707939
 11
-25.6638438763
 21
-25.6638438763
  0
LINE
  5
329
100
AcDbEntity
  8
RACCORDO
100
AcDbLine
 62
250
  6
CONTINUOUS
 10
-31.9709059769
 20
-35.725133674
 11
-31.2863762332
 21
-34.6345063221
  0
LINE
  5
32A
100
AcDbEntity
  8
RACCORDO
100
AcDbLine
 62
250
  6
CONTINUOUS
 10
24.1361561237
 20
24.1361561237
 11
25.2689614459
 21
24.847182575
  0
LINE
  5
32B
100
AcDbEntity
  8
RACCORDO
100
AcDbLine
 62
250
  6
CONTINUOUS
 10
33.1068363852
 20
29.7586997593
 11
34.1974459779
 21
30.4432180875
  0
LINE
  5
32C
100
AcDbEntity
  8
RACCORDO
100
AcDbLine
 62
250
  6
CONTINUOUS
 10
25.2689614459
 20
24.847182575
 11
33.1068363852
 21
29.7586997593
  0
LINE
  5
32D
100
AcDbEntity
  8
RACCORDO
100
AcDbLine
 62
7
  6
CONTINUOUS
 10
-26.8112761241
 20
-1.2436151773
 11
-26.8110195579
 21
-1.2435021347
  0
LWPOLYLINE
  5
32E
100
AcDbEntity
  8
RACCORDO
100
AcDbPolyline
 62
250
  6
CONTINUOUS
 90
19
 70
0
 10
-27.1218890691
 20
-2.993462487
 10
-27.1513210705
 20
-3.0051641267
 10
-27.1796743856
 20
-3.0187918326
 10
-27.2069490856
 20
-3.0343456048
 10
-27.2333041943
 20
-3.0519368715
 10
-27.2585808214
 20
-3.0714542045
 10
-27.2823022014
 20
-3.0925633189
 10
-27.3044302536
 20
-3.1153254672
 10
-27.3250032598
 20
-3.1396793969
 10
-27.3436590495
 20
-3.1651070664
 10
-27.3603287668
 20
-3.1916596178
 10
-27.3750814746
 20
-3.2192859089
 10
-27.3877618979
 20
-3.2473144716
 10
-27.3982782671
 20
-3.2757384709
 10
-27.406722506
 20
-3.3045647419
 10
-27.4132148643
 20
-3.3331423211
 10
-27.4177954475
 20
-3.3612542209
 10
-27.4204242196
 20
-3.3891174289
 10
-27.4211011974
 20
-3.4167319451
  0
LWPOLYLINE
  5
32F
100
AcDbEntity
  8
RACCORDO
100
AcDbPolyline
 62
250
  6
CONTINUOUS
 90
13
 70
0
 10
-27.5221152522
 20
-0.546372141
 10
-27.5356810953
 20
-0.5511216568
 10
-27.5485985088
 20
-0.5576056393
 10
-27.5607075924
 20
-0.5657438253
 10
-27.5718584514
 20
-0.5754354747
 10
-27.5819130532
 20
-0.5865606178
 10
-27.5907469349
 20
-0.5989815401
 10
-27.5982507449
 20
-0.6125444869
 10
-27.6043315959
 20
-0.627081567
 10
-27.608914215
 20
-0.6424128305
 10
-27.6119418754
 20
-0.6583484967
 10
-27.6133770988
 20
-0.6746913032
 10
-27.6132021189
 20
-0.6912389476
  0
LWPOLYLINE
  5
330
100
AcDbEntity
  8
RACCORDO
100
AcDbPolyline
 62
250
  6
CONTINUOUS
 90
13
 70
0
 10
-27.1387080106
 20
-0.4556389605
 10
-27.1522738538
 20
-0.4603884764
 10
-27.1651912673
 20
-0.4668724589
 10
-27.1773003509
 20
-0.4750106448
 10
-27.1884512099
 20
-0.4847022942
 10
-27.1985058116
 20
-0.4958274373
 10
-27.2073396934
 20
-0.5082483596
 10
-27.2148435033
 20
-0.5218113064
 10
-27.2209243543
 20
-0.5363483865
 10
-27.2255069734
 20
-0.5516796501
 10
-27.2285346338
 20
-0.5676153163
 10
-27.2299698572
 20
-0.5839581228
 10
-27.2297948773
 20
-0.6005057672
  0
LWPOLYLINE
  5
331
100
AcDbEntity
  8
RACCORDO
100
AcDbPolyline
 62
250
  6
CONTINUOUS
 90
37
 70
0
 10
-27.5399417077
 20
-0.4798429034
 10
-27.5607473963
 20
-0.4862911725
 10
-27.5809613717
 20
-0.4942365204
 10
-27.6004784476
 20
-0.503622928
 10
-27.6191962328
 20
-0.5143859919
 10
-27.6370232608
 20
-0.5264568308
 10
-27.6538784088
 20
-0.539764389
 10
-27.6696786113
 20
-0.5542281265
 10
-27.6843485236
 20
-0.5697632875
 10
-27.6978260555
 20
-0.5862879896
 10
-27.7100484598
 20
-0.6037109111
 10
-27.7209583318
 20
-0.6219346276
 10
-27.7305097189
 20
-0.6408648738
 10
-27.7386578063
 20
-0.6603939266
 10
-27.745370692
 20
-0.6804236438
 10
-27.7506268798
 20
-0.7008733117
 10
-27.754402256
 20
-0.7216424985
 10
-27.7566779357
 20
-0.742619084
 10
-27.7574444285
 20
-0.7637048437
 10
-27.7566978647
 20
-0.7847912515
 10
-27.7544419481
 20
-0.8057704166
 10
-27.7506857658
 20
-0.8265450299
 10
-27.7454479099
 20
-0.84700246
 10
-27.7387520431
 20
-0.8670425517
 10
-27.7306183725
 20
-0.8865864453
 10
-27.7210769838
 20
-0.9055374222
 10
-27.7101727235
 20
-0.9237851556
 10
-27.6979534368
 20
-0.9412313519
 10
-27.6844785097
 20
-0.9577763002
 10
-27.6698093358
 20
-0.9733308404
 10
-27.6540050411
 20
-0.9878156138
 10
-27.6371388192
 20
-1.0011463271
 10
-27.6192950316
 20
-1.0132400048
 10
-27.60055682
 20
-1.0240235062
 10
-27.5810166196
 20
-1.0334271225
 10
-27.5607764082
 20
-1.0413863965
 10
-27.5399417077
 20
-1.0478448492
  0
LWPOLYLINE
  5
332
100
AcDbEntity
  8
RACCORDO
100
AcDbPolyline
 62
250
  6
CONTINUOUS
 90
37
 70
0
 10
-27.6322653076
 20
-0.1901092901
 10
-27.6747992754
 20
-0.2032351659
 10
-27.715770006
 20
-0.2191546719
 10
-27.7551776981
 20
-0.237867808
 10
-27.7932132662
 20
-0.2595264613
 10
-27.829686175
 20
-0.2839787447
 10
-27.8640245311
 20
-0.3107689973
 10
-27.8961761409
 20
-0.3399187886
 10
-27.9261937375
 20
-0.371406549
 10
-27.9536629383
 20
-0.4047119099
 10
-27.9785455356
 20
-0.4398577706
 10
-28.0008802857
 20
-0.4768212318
 10
-28.020368301
 20
-0.5150132257
 10
-28.0369668911
 20
-0.5544330788
 10
-28.0507191915
 20
-0.5950814646
 10
-28.0614550451
 20
-0.6363713361
 10
-28.0691398915
 20
-0.6783185389
 10
-28.0738085389
 20
-0.7209072274
 10
-28.0753948359
 20
-0.763502818
 10
-28.0738566761
 20
-0.8061067823
 10
-28.0692361667
 20
-0.8487176487
 10
-28.0615934155
 20
-0.8906964189
 10
-28.0508927916
 20
-0.9320273195
 10
-28.0371696787
 20
-0.9727261239
 10
-28.0205906585
 20
-1.0122011546
 10
-28.0011100076
 20
-1.0504547669
 10
-27.978773003
 20
-1.0874846055
 10
-27.9538827186
 20
-1.1226919268
 10
-27.9264034286
 20
-1.156049625
 10
-27.8963703092
 20
-1.1875848059
 10
-27.8641928358
 20
-1.216780044
 10
-27.829808717
 20
-1.2436183955
 10
-27.7932797008
 20
-1.2681168042
 10
-27.7552014457
 20
-1.2898086748
 10
-27.7157724118
 20
-1.3085384755
 10
-27.6747937647
 20
-1.3244617381
 10
-27.6322653076
 20
-1.3375784626
  0
LINE
  5
333
100
AcDbEntity
  8
RACCORDO
100
AcDbLine
 62
250
  6
CONTINUOUS
 10
25.2835883714
 20
-1.2436151773
 11
26.012253955
 21
-1.0478448492
  0
LINE
  5
334
100
AcDbEntity
  8
RACCORDO
100
AcDbLine
 62
250
  6
CONTINUOUS
 10
25.611020258
 20
-1.0720487921
 11
25.2429352824
 21
-1.1706768641
  0
LINE
  5
335
100
AcDbEntity
  8
RACCORDO
100
AcDbLine
 62
250
  6
CONTINUOUS
 10
25.5722033141
 20
-0.9271819855
 11
25.0929524163
 21
-1.0555968765
  0
LINE
  5
336
100
AcDbEntity
  8
RACCORDO
100
AcDbLine
 62
250
  6
CONTINUOUS
 10
25.5942013164
 20
-1.4737135893
 11
26.1045775549
 21
-1.3375784626
  0
LINE
  5
337
100
AcDbEntity
  8
ASSI
100
AcDbLine
 62
7
  6
CONTINUOUS
 10
-30.6638438763
 20
-7.7638438763
 11
-29.1638438763
 21
-7.7638438763
  0
LINE
  5
338
100
AcDbEntity
  8
ASSI
100
AcDbLine
 62
7
  6
CONTINUOUS
 10
29.1361561237
 20
-7.7638438763
 11
27.6361561237
 21
-7.7638438763
  0
LINE
  5
339
100
AcDbEntity
  8
RACCORDO
100
AcDbLine
 62
7
  6
CONTINUOUS
 10
27.6861561237
 20
-7.7138438763
 11
29.0861561237
 21
-7.7138438763
  0
LINE
  5
33A
100
AcDbEntity
  8
RACCORDO
100
AcDbLine
 62
7
  6
CONTINUOUS
 10
-29.2138438763
 20
-7.7138438763
 11
-30.6138438763
 21
-7.7138438763
  0
LINE
  5
33B
100
AcDbEntity
  8
RACCORDO
100
AcDbLine
 62
250
  6
CONTINUOUS
 10
-27.1387080106
 20
-1.0720487921
 11
-27.5221173801
 21
-0.9813151081
  0
LINE
  5
33C
100
AcDbEntity
  8
RACCORDO
100
AcDbLine
 62
250
  6
CONTINUOUS
 10
-27.2297948773
 20
-0.9271819855
 11
-27.6132021189
 21
-0.836448805
  0
LINE
  5
33D
100
AcDbEntity
  8
RACCORDO
100
AcDbLine
 62
250
  6
CONTINUOUS
 10
-27.6322653076
 20
-1.3375784626
 11
-27.1218890691
 21
-1.4737135893
  0
LINE
  5
33E
100
AcDbEntity
  8
RACCORDO
100
AcDbLine
 62
250
  6
CONTINUOUS
 10
-26.770623035
 20
-1.1706768641
 11
-27.1387080106
 21
-1.0720487921
  0
LINE
  5
33F
100
AcDbEntity
  8
RACCORDO
100
AcDbLine
 62
250
  6
CONTINUOUS
 10
-26.620640169
 20
-1.0555968765
 11
-27.0998910668
 21
-0.9271819855
  0
LINE
  5
340
100
AcDbEntity
  8
RACCORDO
100
AcDbLine
 62
250
  6
CONTINUOUS
 10
-27.5399417077
 20
-1.0478448492
 11
-26.8112761241
 21
-1.2436151773
  0
LWPOLYLINE
  5
341
100
AcDbEntity
  8
RACCORDO
100
AcDbPolyline
 62
250
  6
CONTINUOUS
 90
34
 70
0
 10
-27.6132021189
 20
-0.836448805
 10
-27.6195262881
 20
-0.8345960645
 10
-27.6255085332
 20
-0.8323366581
 10
-27.6311488542
 20
-0.8296705859
 10
-27.6364531487
 20
-0.8265688798
 10
-27.6414155192
 20
-0.8230605079
 10
-27.6460182729
 20
-0.8192323745
 10
-27.6502664007
 20
-0.815087579
 10
-27.6541549118
 20
-0.810623022
 10
-27.6576511419
 20
-0.8059163098
 10
-27.6607525119
 20
-0.8009884153
 10
-27.663461601
 20
-0.7958183655
 10
-27.6657534819
 20
-0.7904208481
 10
-27.6676442255
 20
-0.7847638708
 10
-27.6691177611
 20
-0.7788794257
 10
-27.6701009493
 20
-0.7728781769
 10
-27.6705675217
 20
-0.7667137803
 10
-27.6705437468
 20
-0.7604325799
 10
-27.6700352906
 20
-0.7542842717
 10
-27.6690190936
 20
-0.7483204705
 10
-27.6675182154
 20
-0.7424895615
 10
-27.6656075006
 20
-0.7368863965
 10
-27.6633046236
 20
-0.7315391205
 10
-27.6605919101
 20
-0.7264195884
 10
-27.6574911814
 20
-0.7215382174
 10
-27.6539990425
 20
-0.7168724346
 10
-27.6501188885
 20
-0.7124448129
 10
-27.6458827256
 20
-0.7083334876
 10
-27.6412957213
 20
-0.7045358034
 10
-27.6363527082
 20
-0.7010544156
 10
-27.6310701909
 20
-0.697975426
 10
-27.6254536711
 20
-0.6953275351
 10
-27.6194976471
 20
-0.6930820423
 10
-27.6132021189
 20
-0.6912389476
  0
LWPOLYLINE
  5
342
100
AcDbEntity
  8
RACCORDO
100
AcDbPolyline
 62
250
  6
CONTINUOUS
 90
34
 70
0
 10
-27.5221173688
 20
-0.981315066
 10
-27.5408505089
 20
-0.9756131575
 10
-27.558667097
 20
-0.9684575563
 10
-27.5754721273
 20
-0.9599930392
 10
-27.5911353794
 20
-0.9504036203
 10
-27.605660334
 20
-0.9398076452
 10
-27.6191521392
 20
-0.9282133461
 10
-27.6315705533
 20
-0.9157131216
 10
-27.6428531388
 20
-0.9024297084
 10
-27.6530368743
 20
-0.8883610541
 10
-27.6620540829
 20
-0.8736319004
 10
-27.6698859013
 20
-0.8583101087
 10
-27.6765822027
 20
-0.8422678961
 10
-27.682088862
 20
-0.8255062103
 10
-27.6862977444
 20
-0.8081928069
 10
-27.6891397053
 20
-0.7904391859
 10
-27.6905625173
 20
-0.7722381726
 10
-27.6904960012
 20
-0.753821979
 10
-27.6889467634
 20
-0.7356726145
 10
-27.6859988226
 20
-0.7180335302
 10
-27.6817130227
 20
-0.7008802913
 10
-27.676153778
 20
-0.6842809824
 10
-27.6694249336
 20
-0.668390921
 10
-27.6615821192
 20
-0.6532187257
 10
-27.652568294
 20
-0.6386268362
 10
-27.6423961609
 20
-0.6246776954
 10
-27.6311340139
 20
-0.6115005863
 10
-27.6187479507
 20
-0.5990990123
 10
-27.6053011296
 20
-0.5875957863
 10
-27.5908311531
 20
-0.5770805416
 10
-27.5752326696
 20
-0.5675613353
 10
-27.5585014716
 20
-0.5591553223
 10
-27.5407660724
 20
-0.5520448055
 10
-27.5221198539
 20
-0.5463733274
  0
LWPOLYLINE
  5
343
100
AcDbEntity
  8
RACCORDO
100
AcDbPolyline
 62
250
  6
CONTINUOUS
 90
13
 70
0
 10
-27.1387080106
 20
-1.0720487921
 10
-27.1522118919
 20
-1.0673255369
 10
-27.1650922401
 20
-1.0608730858
 10
-27.1771875073
 20
-1.0527635005
 10
-27.1883498207
 20
-1.0430848751
 10
-27.1984304935
 20
-1.0319541165
 10
-27.2072875024
 20
-1.0195223327
 10
-27.2148076374
 20
-1.0059505809
 10
-27.2209021033
 20
-0.9914016477
 10
-27.225495217
 20
-0.9760563706
 10
-27.2285300894
 20
-0.9601052799
 10
-27.2299692226
 20
-0.9437461711
 10
-27.2297948773
 20
-0.9271819855
  0
LWPOLYLINE
  5
344
100
AcDbEntity
  8
RACCORDO
100
AcDbPolyline
 62
250
  6
CONTINUOUS
 90
13
 70
0
 10
-27.5221152522
 20
-0.9813156117
 10
-27.5356804454
 20
-0.9765663461
 10
-27.5485973809
 20
-0.9700826867
 10
-27.5607061572
 20
-0.9619448516
 10
-27.5718568689
 20
-0.952253539
 10
-27.5819114691
 20
-0.941128677
 10
-27.590745477
 20
-0.9287079374
 10
-27.5982495191
 20
-0.9151450279
 10
-27.6043306605
 20
-0.9006078301
 10
-27.6089135751
 20
-0.8852763239
 10
-27.6119415051
 20
-0.8693403048
 10
-27.6133769505
 20
-0.852997027
 10
-27.6132021189
 20
-0.836448805
  0
LWPOLYLINE
  5
345
100
AcDbEntity
  8
RACCORDO
100
AcDbPolyline
 62
250
  6
CONTINUOUS
 90
4
 70
0
 10
33.1068277557
 20
-31.2863819621
 10
29.781539943
 20
-29.2029006488
 10
28.6578383412
 20
-28.498102697
 10
25.2689588857
 20
-26.3748692971
  0
LINE
  5
346
100
AcDbEntity
  8
RACCORDO
100
AcDbLine
 62
250
  6
CONTINUOUS
 10
25.2689588857
 20
-26.3748692971
 11
24.1361561237
 21
-25.6638438763
  0
LINE
  5
347
100
AcDbEntity
  8
RACCORDO
100
AcDbLine
 62
250
  6
CONTINUOUS
 10
34.1974459182
 20
-31.9709059918
 11
33.1068277557
 21
-31.2863819621
  0
LINE
  5
348
100
AcDbEntity
  8
RACCORDO
100
AcDbLine
 62
250
  6
CONTINUOUS
 10
-25.6638438763
 20
24.1361561237
 11
-26.3748229395
 21
25.2688856069
  0
LINE
  5
349
100
AcDbEntity
  8
RACCORDO
100
AcDbLine
 62
250
  6
CONTINUOUS
 10
-31.2863817875
 20
33.1068272016
 11
-31.9709058246
 21
34.1974459813
  0
LINE
  5
34A
100
AcDbEntity
  8
RACCORDO
100
AcDbLine
 62
250
  6
CONTINUOUS
 10
-26.3748229395
 20
25.2688856069
 11
-31.2863817875
 21
33.1068272016
  0
LINE
  5
34B
100
AcDbEntity
  8
0
100
AcDbLine
 62
250
  6
CONTINUOUS
 10
-16.3244978763
 20
14.9992971237
 11
-17.0590388763
 21
16.9580041237
  0
LINE
  5
34C
100
AcDbEntity
  8
RACCORDO
100
AcDbLine
 62
7
  6
CONTINUOUS
 10
-21.5580905121
 20
34.7533170764
 11
-21.3941459081
 21
34.3160010849
  0
LINE
  5
34D
100
AcDbEntity
  8
0
100
AcDbLine
 62
250
  6
CONTINUOUS
 10
-16.8966998763
 20
17.9989361237
 11
-16.2771708763
 21
16.3335271237
  0
LINE
  5
34E
100
AcDbEntity
  8
0
100
AcDbLine
 62
250
  6
CONTINUOUS
 10
-13.1061048763
 20
17.9989361237
 11
-12.1857418763
 21
14.9992971237
  0
LINE
  5
34F
100
AcDbEntity
  8
0
100
AcDbLine
 62
250
  6
CONTINUOUS
 10
-12.8456698763
 20
14.9992971237
 11
-13.0078738763
 21
15.5981311237
  0
LINE
  5
350
100
AcDbEntity
  8
0
100
AcDbLine
 62
250
  6
CONTINUOUS
 10
-13.1330078763
 20
16.0615071237
 11
-13.4207278763
 21
17.1747111237
  0
LWPOLYLINE
  5
351
100
AcDbEntity
  8
0
100
AcDbPolyline
 62
250
  6
CONTINUOUS
 90
81
 70
0
 10
-3.1673301908
 20
-17.0138438763
 10
-3.169420209
 20
-16.9373665735
 10
-3.175603387
 20
-16.8609041932
 10
-3.1857494096
 20
-16.7846206446
 10
-3.1997279618
 20
-16.7086798371
 10
-3.2174087284
 20
-16.63324568
 10
-3.2386613944
 20
-16.5584820827
 10
-3.2633556446
 20
-16.4845529546
 10
-3.2913611641
 20
-16.4116222049
 10
-3.3225476376
 20
-16.3398537431
 10
-3.3567847501
 20
-16.2694114784
 10
-3.3939421865
 20
-16.2004593202
 10
-3.4338896317
 20
-16.1331611778
 10
-3.4764967707
 20
-16.0676809607
 10
-3.5216332882
 20
-16.004182578
 10
-3.5750428963
 20
-15.935565596
 10
-3.631312002
 20
-15.8696162221
 10
-3.690289691
 20
-15.806309525
 10
-3.7518250492
 20
-15.7456205736
 10
-3.8157671623
 20
-15.6875244366
 10
-3.8819651163
 20
-15.6319961831
 10
-3.9502679968
 20
-15.5790108816
 10
-4.0205248898
 20
-15.5285436012
 10
-4.0925848809
 20
-15.4805694107
 10
-4.1662970561
 20
-15.4350633788
 10
-4.2415105012
 20
-15.3920005744
 10
-4.3180743018
 20
-15.3513560664
 10
-4.395837544
 20
-15.3131049236
 10
-4.4746493134
 20
-15.2772222148
 10
-4.576908603
 20
-15.2346902906
 10
-4.680517525
 20
-15.1959790389
 10
-4.7853533854
 20
-15.161065159
 10
-4.8912934905
 20
-15.1299253501
 10
-4.9982151464
 20
-15.1025363116
 10
-5.1059956592
 20
-15.0788747428
 10
-5.2145123351
 20
-15.0589173429
 10
-5.3236424803
 20
-15.0426408113
 10
-5.4332634008
 20
-15.0300218471
 10
-5.5432524029
 20
-15.0210371498
 10
-5.6534867927
 20
-15.0156634186
 10
-5.7638438763
 20
-15.0138773528
 10
-5.87420096
 20
-15.0156634186
 10
-5.9844353497
 20
-15.0210371498
 10
-6.0944243518
 20
-15.0300218471
 10
-6.2040452724
 20
-15.0426408113
 10
-6.3131754175
 20
-15.0589173429
 10
-6.4216920934
 20
-15.0788747428
 10
-6.5294726062
 20
-15.1025363116
 10
-6.6363942621
 20
-15.1299253501
 10
-6.7423343672
 20
-15.161065159
 10
-6.8471702277
 20
-15.1959790389
 10
-6.9507791497
 20
-15.2346902906
 10
-7.0530384393
 20
-15.2772222148
 10
-7.1318502087
 20
-15.3131049236
 10
-7.2096134508
 20
-15.3513560664
 10
-7.2861772515
 20
-15.3920005744
 10
-7.3613906965
 20
-15.4350633788
 10
-7.4351028717
 20
-15.4805694107
 10
-7.5071628629
 20
-15.5285436012
 10
-7.5774197558
 20
-15.5790108816
 10
-7.6457226364
 20
-15.6319961831
 10
-7.7119205903
 20
-15.6875244366
 10
-7.7758627035
 20
-15.7456205736
 10
-7.8373980617
 20
-15.806309525
 10
-7.8963757507
 20
-15.8696162221
 10
-7.9526448563
 20
-15.935565596
 10
-8.0060544644
 20
-16.004182578
 10
-8.051190982
 20
-16.0676809607
 10
-8.0937981209
 20
-16.1331611778
 10
-8.1337455661
 20
-16.2004593202
 10
-8.1709030026
 20
-16.2694114784
 10
-8.2051401151
 20
-16.3398537431
 10
-8.2363265886
 20
-16.4116222049
 10
-8.264332108
 20
-16.4845529546
 10
-8.2890263583
 20
-16.5584820827
 10
-8.3102790243
 20
-16.63324568
 10
-8.3279597909
 20
-16.7086798371
 10
-8.3419383431
 20
-16.7846206446
 10
-8.3520843657
 20
-16.8609041932
 10
-8.3582675437
 20
-16.9373665735
 10
-8.3603575619
 20
-17.0138438763
  0
LINE
  5
352
100
AcDbEntity
  8
0
100
AcDbLine
 62
250
  6
CONTINUOUS
 10
-6.7908428763
 20
16.1529171237
 11
-6.7908428763
 21
15.0361561237
  0
LINE
  5
353
100
AcDbEntity
  8
0
100
AcDbLine
 62
250
  6
CONTINUOUS
 10
-6.7908428763
 20
16.6348501237
 11
-6.7908428763
 21
17.4542241237
  0
LINE
  5
354
100
AcDbEntity
  8
0
100
AcDbLine
 62
250
  6
CONTINUOUS
 10
-6.506701118
 20
-20.3709867062
 11
-6.506701118
 21
-21.0567009988
  0
LINE
  5
355
100
AcDbEntity
  8
0
100
AcDbLine
 62
250
  6
CONTINUOUS
 10
-6.0495580973
 20
-20.5995581212
 11
-6.0495580973
 21
-19.9138438763
  0
LINE
  5
356
100
AcDbEntity
  8
0
100
AcDbLine
 62
7
  6
CONTINUOUS
 10
-5.7638438763
 20
-40.7638438763
 11
-5.7638438763
 21
-36.9638438763
  0
LINE
  5
357
100
AcDbEntity
  8
0
100
AcDbLine
 62
7
  6
CONTINUOUS
 10
-5.7638438763
 20
35.4361561237
 11
-5.7638438763
 21
39.2361561237
  0
LINE
  5
358
100
AcDbEntity
  8
0
100
AcDbLine
 62
250
  6
CONTINUOUS
 10
-5.3638437571
 20
-21.2852724375
 11
-5.3638437571
 21
-20.8281295838
  0
LINE
  5
359
100
AcDbEntity
  8
0
100
AcDbLine
 62
250
  6
CONTINUOUS
 10
-4.9431058763
 20
15.0361561237
 11
-4.9431058763
 21
17.9361561237
  0
LINE
  5
35A
100
AcDbEntity
  8
0
100
AcDbLine
 62
250
  6
CONTINUOUS
 10
-4.3204998763
 20
17.9361561237
 11
-4.3204998763
 21
15.5180881237
  0
LINE
  5
35B
100
AcDbEntity
  8
0
100
AcDbLine
 62
250
  6
CONTINUOUS
 10
-4.106701118
 20
-20.3709867062
 11
-4.106701118
 21
-20.1424152913
  0
LINE
  5
35C
100
AcDbEntity
  8
0
100
AcDbLine
 62
250
  6
CONTINUOUS
 10
-3.3638438763
 20
39.141822121
 11
-3.3638438763
 21
35.4361561237
  0
LINE
  5
35D
100
AcDbEntity
  8
0
100
AcDbLine
 62
250
  6
CONTINUOUS
 10
-3.3638438763
 20
-36.9638438763
 11
-3.3638438763
 21
-40.6695098736
  0
LWPOLYLINE
  5
35E
100
AcDbEntity
  8
0
100
AcDbPolyline
 62
250
  6
CONTINUOUS
 90
53
 70
0
 10
-5.9954790396
 20
17.0445369763
 10
-5.9955552732
 20
17.0316239727
 10
-5.9958017711
 20
17.0187010232
 10
-5.9962452293
 20
17.0057774683
 10
-5.9969123435
 20
16.9928626481
 10
-5.9978298095
 20
16.9799659029
 10
-5.9990243232
 20
16.967096573
 10
-6.0005225804
 20
16.9542639987
 10
-6.002351277
 20
16.9414775203
 10
-6.0045371088
 20
16.928746478
 10
-6.0069779818
 20
16.9166530126
 10
-6.0097697687
 20
16.9046295976
 10
-6.0129135435
 20
16.8926872432
 10
-6.0164103806
 20
16.88083696
 10
-6.0202613542
 20
16.8690897584
 10
-6.0244675386
 20
16.8574566486
 10
-6.029030008
 20
16.8459486412
 10
-6.0339498367
 20
16.8345767466
 10
-6.039228099
 20
16.8233519751
 10
-6.0448658692
 20
16.8122853371
 10
-6.0508642214
 20
16.8013878432
 10
-6.0557825349
 20
16.7930337492
 10
-6.0609222414
 20
16.7848065395
 10
-6.0662857248
 20
16.7767240018
 10
-6.0718753686
 20
16.7688039235
 10
-6.0776935567
 20
16.7610640923
 10
-6.0837426727
 20
16.7535222958
 10
-6.0900251002
 20
16.7461963217
 10
-6.0965432231
 20
16.7391039575
 10
-6.103299425
 20
16.7322629909
 10
-6.1102960896
 20
16.7256912094
 10
-6.1175356006
 20
16.7194064008
 10
-6.1250203417
 20
16.7134263525
 10
-6.1332873253
 20
16.7073881045
 10
-6.1418150635
 20
16.7017069607
 10
-6.1505816132
 20
16.696371776
 10
-6.1595650316
 20
16.6913714056
 10
-6.1687433756
 20
16.6866947045
 10
-6.1780947021
 20
16.6823305279
 10
-6.1875970683
 20
16.6782677308
 10
-6.1972285312
 20
16.6744951682
 10
-6.2069671476
 20
16.6710016954
 10
-6.2167909747
 20
16.6677761674
 10
-6.2266780695
 20
16.6648074392
 10
-6.2398178602
 20
16.6612553186
 10
-6.2530232299
 20
16.658093778
 10
-6.2662875142
 20
16.6552839461
 10
-6.2796040487
 20
16.6527869516
 10
-6.2929661691
 20
16.6505639235
 10
-6.3063672111
 20
16.6485759904
 10
-6.3198005103
 20
16.6467842812
 10
-6.3332594023
 20
16.6451499247
 10
-6.3467372228
 20
16.6436340497
  0
LWPOLYLINE
  5
35F
100
AcDbEntity
  8
0
100
AcDbPolyline
 62
250
  6
CONTINUOUS
 90
52
 70
0
 10
-5.3327121251
 20
17.0445369763
 10
-5.333117341
 20
17.0100787983
 10
-5.3343686715
 20
16.9756241852
 10
-5.336519641
 20
16.9412101565
 10
-5.339623774
 20
16.9068737314
 10
-5.3437345948
 20
16.8726519293
 10
-5.3482605683
 20
16.8424799348
 10
-5.3536748237
 20
16.8124565615
 10
-5.3600346131
 20
16.7826115679
 10
-5.367397189
 20
16.7529747129
 10
-5.3758198036
 20
16.7235757552
 10
-5.3840502588
 20
16.6982166671
 10
-5.3931319584
 20
16.673111237
 10
-5.4030702074
 20
16.6483104719
 10
-5.413870311
 20
16.6238653782
 10
-5.4255375745
 20
16.5998269626
 10
-5.4380773029
 20
16.5762462319
 10
-5.4514948015
 20
16.5531741927
 10
-5.4657953754
 20
16.5306618517
 10
-5.4809843299
 20
16.5087602154
 10
-5.4970669701
 20
16.4875202907
 10
-5.5129116196
 20
16.4682970398
 10
-5.5295020105
 20
16.4497045835
 10
-5.5467977999
 20
16.4317505105
 10
-5.564758645
 20
16.4144424094
 10
-5.583344203
 20
16.3977878689
 10
-5.6025141311
 20
16.3817944778
 10
-5.6222280865
 20
16.3664698246
 10
-5.6424457262
 20
16.351821498
 10
-5.6631267077
 20
16.3378570868
 10
-5.6842306879
 20
16.3245841795
 10
-5.7094208077
 20
16.3099277847
 10
-5.7350940039
 20
16.2961898872
 10
-5.7612090532
 20
16.2833311159
 10
-5.7877247321
 20
16.2713120995
 10
-5.8145998173
 20
16.2600934669
 10
-5.8417930854
 20
16.2496358469
 10
-5.8692633131
 20
16.2398998685
 10
-5.8969692769
 20
16.2308461604
 10
-5.9248697536
 20
16.2224353516
 10
-5.9595278781
 20
16.2128880124
 10
-5.9943968108
 20
16.2042303709
 10
-6.0294537634
 20
16.1964324135
 10
-6.0646759474
 20
16.1894641262
 10
-6.1000405745
 20
16.1832954954
 10
-6.1355248564
 20
16.1778965072
 10
-6.1711060045
 20
16.1732371479
 10
-6.2067612307
 20
16.1692874037
 10
-6.2522495585
 20
16.1652144489
 10
-6.2978050073
 20
16.1620472999
 10
-6.343411498
 20
16.1595893419
 10
-6.3890529519
 20
16.1576439601
  0
LINE
  5
360
100
AcDbEntity
  8
0
100
AcDbLine
 62
250
  6
CONTINUOUS
 10
-9.9352724375
 20
-21.5138438763
 11
-9.47812956
 21
-19.9138438763
  0
LINE
  5
361
100
AcDbEntity
  8
0
100
AcDbLine
 62
250
  6
CONTINUOUS
 10
-1.9627828763
 20
16.1327281237
 11
-1.5327678763
 21
17.3819971237
  0
LINE
  5
362
100
AcDbEntity
  8
0
100
AcDbLine
 62
250
  6
CONTINUOUS
 10
-16.9808838763
 20
-20.8885288763
 11
-17.8594618763
 21
-22.8896018763
  0
LINE
  5
363
100
AcDbEntity
  8
0
100
AcDbLine
 62
250
  6
CONTINUOUS
 10
11.3432985721
 20
16.87187044
 11
11.8575843094
 21
17.3861561237
  0
LINE
  5
364
100
AcDbEntity
  8
RACCORDO
100
AcDbLine
 62
7
  6
CONTINUOUS
 10
34.7502753903
 20
20.5753532598
 11
34.3160010849
 21
20.3885824205
  0
LINE
  5
365
100
AcDbEntity
  8
RACCORDO
100
AcDbLine
 62
250
  6
CONTINUOUS
 10
25.9944321258
 20
-0.9813145169
 11
25.611020258
 21
-1.0720487921
  0
LINE
  5
366
100
AcDbEntity
  8
RACCORDO
100
AcDbLine
 62
250
  6
CONTINUOUS
 10
26.0855143663
 20
-0.836448805
 11
25.7021071247
 21
-0.9271819855
  0
LINE
  5
367
100
AcDbEntity
  8
RACCORDO
100
AcDbLine
 62
7
  6
CONTINUOUS
 10
24.2861561237
 20
-3.7727680916
 11
24.4927611446
 21
-3.7540139472
  0
LWPOLYLINE
  5
368
100
AcDbEntity
  8
RACCORDO
100
AcDbPolyline
 62
250
  6
CONTINUOUS
 90
16
 70
0
 10
25.3497307031
 20
-3.7540139472
 10
25.3654447213
 20
-3.7531751197
 10
25.3809857557
 20
-3.750696542
 10
25.3961827254
 20
-3.7466054988
 10
25.410870065
 20
-3.7409462535
 10
25.4248842022
 20
-3.733781515
 10
25.4380662413
 20
-3.7251935168
 10
25.4502692824
 20
-3.7152807957
 10
25.4613636366
 20
-3.7041517572
 10
25.4712321023
 20
-3.6919252078
 10
25.4797773168
 20
-3.6787162133
 10
25.4868903582
 20
-3.6646867074
 10
25.4924742597
 20
-3.6500488914
 10
25.4964815172
 20
-3.6349892311
 10
25.4988951723
 20
-3.6196569549
 10
25.4997078573
 20
-3.604219517
  0
LINE
  5
369
100
AcDbEntity
  8
DRAFT
100
AcDbLine
 62
7
  6
CONTINUOUS
 10
24.2861561237
 20
-3.9483341522
 11
24.4361561237
 21
-3.9404729853
  0
LINE
  5
36A
100
AcDbEntity
  8
DRAFT
100
AcDbLine
 62
7
  6
CONTINUOUS
 10
24.2861561237
 20
-3.9221302626
 11
24.4361561237
 21
-3.9142690957
  0
LINE
  5
36B
100
AcDbEntity
  8
DRAFT
100
AcDbLine
 62
7
  6
CONTINUOUS
 10
24.2861561237
 20
-3.8959263729
 11
24.4361561237
 21
-3.8880652061
  0
LINE
  5
36C
100
AcDbEntity
  8
DRAFT
100
AcDbLine
 62
7
  6
CONTINUOUS
 10
24.2861561237
 20
-3.8697224833
 11
24.4361561237
 21
-3.8618613164
  0
LINE
  5
36D
100
AcDbEntity
  8
DRAFT
100
AcDbLine
 62
7
  6
CONTINUOUS
 10
24.2861561237
 20
-3.8435185937
 11
24.4361561237
 21
-3.8356574268
  0
LINE
  5
36E
100
AcDbEntity
  8
DRAFT
100
AcDbLine
 62
7
  6
CONTINUOUS
 10
24.2861561237
 20
-3.817314704
 11
24.4361561237
 21
-3.8094535371
  0
LINE
  5
36F
100
AcDbEntity
  8
DRAFT
100
AcDbLine
 62
7
  6
CONTINUOUS
 10
24.2861561237
 20
-3.7911108144
 11
24.4361561237
 21
-3.7832496475
  0
LWPOLYLINE
  5
370
100
AcDbEntity
  8
RACCORDO
100
AcDbPolyline
 62
250
  6
CONTINUOUS
 90
22
 70
0
 10
25.4309410433
 20
-3.9978430939
 10
25.4413038889
 20
-3.9974470409
 10
25.4518107602
 20
-3.9962997654
 10
25.4624049495
 20
-3.9943651992
 10
25.4730512709
 20
-3.9916028957
 10
25.4836536975
 20
-3.9879895372
 10
25.4940622606
 20
-3.9835396632
 10
25.5042059853
 20
-3.9782551101
 10
25.5140158932
 20
-3.9721428903
 10
25.5233583023
 20
-3.9652676276
 10
25.5321663932
 20
-3.957669044
 10
25.5403894899
 20
-3.9493814353
 10
25.5479399198
 20
-3.9404929891
 10
25.5547886568
 20
-3.931039801
 10
25.560882271
 20
-3.9210979305
 10
25.5661363847
 20
-3.9108435358
 10
25.5705259963
 20
-3.9004124873
 10
25.5740878447
 20
-3.8898180434
 10
25.5768484172
 20
-3.8790586193
 10
25.578811307
 20
-3.8681723792
 10
25.5799739341
 20
-3.8572426568
 10
25.5803452756
 20
-3.8463285
  0
LWPOLYLINE
  5
371
100
AcDbEntity
  8
RACCORDO
100
AcDbPolyline
 62
250
  6
CONTINUOUS
 90
22
 70
0
 10
25.4406762683
 20
-4.2974319543
 10
25.4723239984
 20
-4.2964607824
 10
25.5040448143
 20
-4.2930556982
 10
25.5358386905
 20
-4.2872167017
 10
25.5679929762
 20
-4.2789550964
 10
25.6002202533
 20
-4.2682595787
 10
25.6316584189
 20
-4.2550962381
 10
25.662284039
 20
-4.239350293
 10
25.6921206477
 20
-4.2211365249
 10
25.7203767371
 20
-4.200765368
 10
25.7469763523
 20
-4.1781609786
 10
25.7719956816
 20
-4.1533992004
 10
25.7948715369
 20
-4.1270179981
 10
25.8155399745
 20
-4.0988949532
 10
25.8340652155
 20
-4.0691524842
 10
25.8500763678
 20
-4.0386958114
 10
25.8634201707
 20
-4.0076948022
 10
25.8742501205
 20
-3.9759795892
 10
25.8826554519
 20
-3.9439457907
 10
25.8886659461
 20
-3.9117252793
 10
25.8922519343
 20
-3.8791861824
 10
25.8934134448
 20
-3.8463285
  0
LINE
  5
372
100
AcDbEntity
  8
RACCORDO
100
AcDbLine
 62
250
  6
CONTINUOUS
 10
25.0993991915
 20
-3.9983349501
 11
25.4309410433
 21
-3.9978430939
  0
LINE
  5
373
100
AcDbEntity
  8
RACCORDO
100
AcDbLine
 62
250
  6
CONTINUOUS
 10
24.4384117628
 20
-4.298474139
 11
25.4406762683
 21
-4.2974319543
  0
LINE
  5
374
100
AcDbEntity
  8
RACCORDO
100
AcDbLine
 62
250
  6
CONTINUOUS
 10
24.4361561237
 20
-3.9988852786
 11
25.0993991915
 21
-3.9983349501
  0
LINE
  5
375
100
AcDbEntity
  8
RACCORDO
100
AcDbLine
 62
250
  6
CONTINUOUS
 10
23.9861561237
 20
-3.8479156906
 11
24.2861561237
 21
-3.8479156906
  0
LINE
  5
376
100
AcDbEntity
  8
RACCORDO
100
AcDbLine
 62
250
  6
CONTINUOUS
 10
-25.5138438763
 20
-3.8479156906
 11
-25.8138438763
 21
-3.8479156906
  0
LINE
  5
377
100
AcDbEntity
  8
RACCORDO
100
AcDbLine
 62
250
  6
CONTINUOUS
 10
-27.4211011974
 20
-3.8463285
 11
-27.1080330283
 21
-3.8463285
  0
LINE
  5
378
100
AcDbEntity
  8
RACCORDO
100
AcDbLine
 62
250
  6
CONTINUOUS
 10
25.8934134448
 20
-3.8463285
 11
25.5803452756
 21
-3.8463285
  0
LINE
  5
379
100
AcDbEntity
  8
RACCORDO
100
AcDbLine
 62
250
  6
CONTINUOUS
 10
-26.8774184557
 20
-3.7540139472
 11
-26.0204488973
 21
-3.7540139472
  0
LINE
  5
37A
100
AcDbEntity
  8
RACCORDO
100
AcDbLine
 62
250
  6
CONTINUOUS
 10
24.4927611446
 20
-3.7540139472
 11
25.3497307031
 21
-3.7540139472
  0
LINE
  5
37B
100
AcDbEntity
  8
RACCORDO
100
AcDbLine
 62
250
  6
CONTINUOUS
 10
24.6614337986
 20
-3.604219517
 11
25.4997078573
 21
-3.604219517
  0
LINE
  5
37C
100
AcDbEntity
  8
RACCORDO
100
AcDbLine
 62
250
  6
CONTINUOUS
 10
-26.1891215513
 20
-3.604219517
 11
-27.02739561
 21
-3.604219517
  0
LINE
  5
37D
100
AcDbEntity
  8
RACCORDO
100
AcDbLine
 62
250
  6
CONTINUOUS
 10
25.0929524163
 20
-3.4570475837
 11
25.4997078573
 21
-3.4570475837
  0
LINE
  5
37E
100
AcDbEntity
  8
RACCORDO
100
AcDbLine
 62
250
  6
CONTINUOUS
 10
-26.620640169
 20
-3.4570475837
 11
-27.02739561
 21
-3.4570475837
  0
LINE
  5
37F
100
AcDbEntity
  8
RACCORDO
100
AcDbLine
 62
250
  6
CONTINUOUS
 10
-27.4211011974
 20
-3.4167319451
 11
-27.1080330283
 21
-3.4167319451
  0
LINE
  5
380
100
AcDbEntity
  8
RACCORDO
100
AcDbLine
 62
250
  6
CONTINUOUS
 10
25.8934134448
 20
-3.4167319451
 11
25.5803452756
 21
-3.4167319451
  0
LINE
  5
381
100
AcDbEntity
  8
RACCORDO
100
AcDbLine
 62
250
  6
CONTINUOUS
 10
-26.9683640209
 20
-4.2974319543
 11
-25.9660995154
 21
-4.298474139
  0
LINE
  5
382
100
AcDbEntity
  8
RACCORDO
100
AcDbLine
 62
250
  6
CONTINUOUS
 10
-26.958628796
 20
-3.9978430939
 11
-25.9638438763
 21
-3.9988852786
  0
LINE
  5
383
100
AcDbEntity
  8
DRAFT
100
AcDbLine
 62
7
  6
CONTINUOUS
 10
-25.8138438763
 20
-3.9483341522
 11
-25.9638438763
 21
-3.9404729853
  0
LINE
  5
384
100
AcDbEntity
  8
DRAFT
100
AcDbLine
 62
7
  6
CONTINUOUS
 10
-25.8138438763
 20
-3.9221302626
 11
-25.9638438763
 21
-3.9142690957
  0
LINE
  5
385
100
AcDbEntity
  8
DRAFT
100
AcDbLine
 62
7
  6
CONTINUOUS
 10
-25.8138438763
 20
-3.8959263729
 11
-25.9638438763
 21
-3.8880652061
  0
LINE
  5
386
100
AcDbEntity
  8
DRAFT
100
AcDbLine
 62
7
  6
CONTINUOUS
 10
-25.8138438763
 20
-3.8697224833
 11
-25.9638438763
 21
-3.8618613164
  0
LINE
  5
387
100
AcDbEntity
  8
DRAFT
100
AcDbLine
 62
7
  6
CONTINUOUS
 10
-25.8138438763
 20
-3.8435185937
 11
-25.9638438763
 21
-3.8356574268
  0
LINE
  5
388
100
AcDbEntity
  8
DRAFT
100
AcDbLine
 62
7
  6
CONTINUOUS
 10
-25.8138438763
 20
-3.817314704
 11
-25.9638438763
 21
-3.8094535371
  0
LINE
  5
389
100
AcDbEntity
  8
DRAFT
100
AcDbLine
 62
7
  6
CONTINUOUS
 10
-25.8138438763
 20
-3.7911108144
 11
-25.9638438763
 21
-3.7832496475
  0
LINE
  5
38A
100
AcDbEntity
  8
RACCORDO
100
AcDbLine
 62
7
  6
CONTINUOUS
 10
-25.8138438763
 20
-3.7727680916
 11
-26.0204488973
 21
-3.7540139472
  0
LWPOLYLINE
  5
38B
100
AcDbEntity
  8
0
100
AcDbPolyline
 62
250
  6
CONTINUOUS
 90
6
 70
0
 10
-10.6931987067
 20
15.9088855197
 10
-10.6828702952
 20
15.880555064
 10
-10.6730403707
 20
15.8520493594
 10
-10.6636222909
 20
15.8233995858
 10
-10.6545294136
 20
15.794636923
 10
-10.6456750965
 20
15.7657925508
  0
LINE
  5
38C
100
AcDbEntity
  8
0
100
AcDbLine
 62
250
  6
CONTINUOUS
 10
-10.6456750965
 20
15.7657925508
 11
-10.536671573
 21
15.4018432156
  0
LWPOLYLINE
  5
38D
100
AcDbEntity
  8
0
100
AcDbPolyline
 62
250
  6
CONTINUOUS
 90
3
 70
0
 10
-10.536671573
 20
15.4018432156
 10
-10.4548219745
 20
15.1218269733
 10
-10.4194020484
 20
14.9992966704
  0
LWPOLYLINE
  5
38E
100
AcDbEntity
  8
0
100
AcDbPolyline
 62
250
  6
CONTINUOUS
 90
38
 70
0
 10
-10.054583497
 20
15.8962026381
 10
-10.0606601907
 20
15.917466975
 10
-10.0668858894
 20
15.9386876367
 10
-10.0732922286
 20
15.959849628
 10
-10.0799108435
 20
15.9809379536
 10
-10.0867733695
 20
16.0019376183
 10
-10.0939114418
 20
16.0228336266
 10
-10.1013566959
 20
16.0436109833
 10
-10.1091407669
 20
16.0642546932
 10
-10.1172952903
 20
16.0847497608
 10
-10.1258519014
 20
16.105081191
 10
-10.1348422354
 20
16.1252339884
 10
-10.1442979278
 20
16.1451931577
 10
-10.1510650373
 20
16.1587524775
 10
-10.1580787336
 20
16.1721957686
 10
-10.1653520917
 20
16.185505024
 10
-10.1728981863
 20
16.1986622365
 10
-10.1807300924
 20
16.211649399
 10
-10.1888608847
 20
16.2244485043
 10
-10.1973036383
 20
16.2370415453
 10
-10.2060714278
 20
16.2494105149
 10
-10.2151773283
 20
16.2615374059
 10
-10.2246344146
 20
16.2734042112
 10
-10.2344557614
 20
16.2849929237
 10
-10.2446544438
 20
16.2962855363
 10
-10.2543343619
 20
16.3063525526
 10
-10.2643309593
 20
16.316136552
 10
-10.2746333968
 20
16.3256180246
 10
-10.2852308352
 20
16.3347774605
 10
-10.2961124354
 20
16.3435953499
 10
-10.3072673582
 20
16.3520521828
 10
-10.3186847645
 20
16.3601284492
 10
-10.3303538151
 20
16.3678046394
 10
-10.342263671
 20
16.3750612433
 10
-10.3544034929
 20
16.3818787512
 10
-10.3667624416
 20
16.388237653
 10
-10.3793296782
 20
16.3941184388
 10
-10.3920943633
 20
16.3995015988
  0
LINE
  5
38F
100
AcDbEntity
  8
0
100
AcDbLine
 62
250
  6
CONTINUOUS
 10
-10.0427505838
 20
15.8536029203
 11
-10.054583497
 21
15.8962026381
  0
LINE
  5
390
100
AcDbEntity
  8
0
100
AcDbLine
 62
250
  6
CONTINUOUS
 10
-10.001897864
 20
15.7026865752
 11
-10.0427505838
 21
15.8536029203
  0
LINE
  5
391
100
AcDbEntity
  8
0
100
AcDbLine
 62
250
  6
CONTINUOUS
 10
-9.8171258795
 20
14.9992966704
 11
-9.8456932369
 21
15.1063892255
  0
LINE
  5
392
100
AcDbEntity
  8
0
100
AcDbLine
 62
250
  6
CONTINUOUS
 10
-9.9445958661
 20
15.4857295695
 11
-10.001897864
 21
15.7026865752
  0
LINE
  5
393
100
AcDbEntity
  8
0
100
AcDbLine
 62
250
  6
CONTINUOUS
 10
-9.8456932369
 20
15.1063892255
 11
-9.9445958661
 21
15.4857295695
  0
LWPOLYLINE
  5
394
100
AcDbEntity
  8
0
100
AcDbPolyline
 62
250
  6
CONTINUOUS
 90
29
 70
0
 10
-3.7149773668
 20
-17.2715984464
 10
-3.7170393691
 20
-17.2602475046
 10
-3.7196934013
 20
-17.2490384053
 10
-3.7229373561
 20
-17.2379995589
 10
-3.726769126
 20
-17.2271593757
 10
-3.7311866039
 20
-17.2165462661
 10
-3.7361876822
 20
-17.2061886405
 10
-3.7419174118
 20
-17.1958590582
 10
-3.7482289488
 20
-17.1858600253
 10
-3.7550921974
 20
-17.1762233499
 10
-3.7624770616
 20
-17.1669808404
 10
-3.7703534457
 20
-17.158164305
 10
-3.7786912538
 20
-17.1498055521
 10
-3.7874603901
 20
-17.1419363898
 10
-3.7974917208
 20
-17.133926174
 10
-3.807952341
 20
-17.1264958453
 10
-3.8187930991
 20
-17.1196035597
 10
-3.8299648436
 20
-17.1132074734
 10
-3.8414184231
 20
-17.1072657423
 10
-3.8531046861
 20
-17.1017365224
 10
-3.864974481
 20
-17.0965779698
 10
-3.8769786564
 20
-17.0917482404
 10
-3.8890680608
 20
-17.0872054903
 10
-3.9090921316
 20
-17.0802369441
 10
-3.9292102815
 20
-17.0737821407
 10
-3.9494185166
 20
-17.0676884498
 10
-3.9866963669
 20
-17.0570705369
 10
-4.0241688872
 20
-17.046982107
 10
-4.1059363512
 20
-17.0258041162
  0
LWPOLYLINE
  5
395
100
AcDbEntity
  8
0
100
AcDbPolyline
 62
250
  6
CONTINUOUS
 90
85
 70
0
 10
-4.4839508594
 20
-17.261158021
 10
-4.4818928276
 20
-17.2744434488
 10
-4.4794425975
 20
-17.2877440912
 10
-4.4765963196
 20
-17.3010318784
 10
-4.4733501441
 20
-17.3142787409
 10
-4.4697002214
 20
-17.3274566089
 10
-4.4656427017
 20
-17.3405374128
 10
-4.4611737355
 20
-17.3534930829
 10
-4.456289473
 20
-17.3662955496
 10
-4.4509860646
 20
-17.3789167432
 10
-4.4452596605
 20
-17.391328594
 10
-4.4391064112
 20
-17.4035030323
 10
-4.4325224669
 20
-17.4154119885
 10
-4.425503978
 20
-17.4270273929
 10
-4.4180470948
 20
-17.4383211759
 10
-4.4101479676
 20
-17.4492652677
 10
-4.4018027467
 20
-17.4598315987
 10
-4.3930075826
 20
-17.4699920993
 10
-4.383702065
 20
-17.4797855975
 10
-4.3739611018
 20
-17.4891440379
 10
-4.3638089243
 20
-17.4980718889
 10
-4.3532697638
 20
-17.5065736188
 10
-4.3423678516
 20
-17.514653696
 10
-4.3311274192
 20
-17.522316589
 10
-4.3195726978
 20
-17.529566766
 10
-4.3077279187
 20
-17.5364086956
 10
-4.2956173134
 20
-17.542846846
 10
-4.2832651131
 20
-17.5488856856
 10
-4.2706955492
 20
-17.5545296828
 10
-4.257932853
 20
-17.559783306
 10
-4.2450012558
 20
-17.5646510235
 10
-4.231924989
 20
-17.5691373039
 10
-4.218728284
 20
-17.5732466153
 10
-4.205435372
 20
-17.5769834263
 10
-4.1920704844
 20
-17.5803522051
 10
-4.1757052121
 20
-17.5839667647
 10
-4.1592802067
 20
-17.5870373656
 10
-4.1428067322
 20
-17.5895606766
 10
-4.1262960522
 20
-17.5915333665
 10
-4.1097594306
 20
-17.592952104
 10
-4.0932081311
 20
-17.593813558
 10
-4.0766534176
 20
-17.5941143972
 10
-4.0601065539
 20
-17.5938512904
 10
-4.0435788036
 20
-17.5930209063
 10
-4.0270814307
 20
-17.5916199138
 10
-4.0106256989
 20
-17.5896449817
 10
-3.994222872
 20
-17.5870927786
 10
-3.9778842138
 20
-17.5839599734
 10
-3.9616209881
 20
-17.5802432349
 10
-3.9454444586
 20
-17.5759392318
 10
-3.9332873485
 20
-17.5722943557
 10
-3.9212108233
 20
-17.568306744
 10
-3.9092395232
 20
-17.5639709504
 10
-3.8973980882
 20
-17.5592815282
 10
-3.8857111583
 20
-17.5542330309
 10
-3.8742033736
 20
-17.5488200121
 10
-3.8628993742
 20
-17.5430370252
 10
-3.8518238001
 20
-17.5368786236
 10
-3.8410012913
 20
-17.5303393609
 10
-3.830456488
 20
-17.5234137905
 10
-3.82021403
 20
-17.5160964658
 10
-3.8102985576
 20
-17.5083819405
 10
-3.8007347108
 20
-17.5002647679
 10
-3.7915471295
 20
-17.4917395015
 10
-3.7827604539
 20
-17.4828006948
 10
-3.774399324
 20
-17.4734429013
 10
-3.7664883798
 20
-17.4636606744
 10
-3.7595139251
 20
-17.4541231365
 10
-3.7529677454
 20
-17.444237819
 10
-3.7468623358
 20
-17.4340333653
 10
-3.7412101916
 20
-17.4235384187
 10
-3.7360238079
 20
-17.4127816226
 10
-3.73131568
 20
-17.4017916204
 10
-3.727098303
 20
-17.3905970555
 10
-3.7233841722
 20
-17.3792265713
 10
-3.7201857827
 20
-17.3677088111
 10
-3.7175156298
 20
-17.3560724183
 10
-3.7153862086
 20
-17.3443460364
 10
-3.7138100143
 20
-17.3325583086
 10
-3.7127995422
 20
-17.3207378784
 10
-3.7123672874
 20
-17.3089133891
 10
-3.7125257452
 20
-17.2971134842
 10
-3.7132874107
 20
-17.285366807
 10
-3.7140252164
 20
-17.2784652772
 10
-3.7149773668
 20
-17.2715984464
  0
LINE
  5
396
100
AcDbEntity
  8
0
100
AcDbLine
 62
250
  6
CONTINUOUS
 10
-3.2475008763
 20
15.5180881237
 11
-3.2475008763
 21
15.0361561237
  0
LINE
  5
397
100
AcDbEntity
  8
0
100
AcDbLine
 62
250
  6
CONTINUOUS
 10
-3.1162248912
 20
-21.5138438763
 11
-3.1162248912
 21
-20.7138438763
  0
LINE
  5
398
100
AcDbEntity
  8
0
100
AcDbLine
 62
250
  6
CONTINUOUS
 10
-2.3924150767
 20
-21.2852724375
 11
-2.3924150767
 21
-20.8281295838
  0
LINE
  5
399
100
AcDbEntity
  8
0
100
AcDbLine
 62
250
  6
CONTINUOUS
 10
-2.3162248912
 20
-20.4852724614
 11
-2.3162248912
 21
-20.1424152913
  0
LINE
  5
39A
100
AcDbEntity
  8
0
100
AcDbLine
 62
250
  6
CONTINUOUS
 10
-1.6686060252
 20
-20.1424152913
 11
-1.6686060252
 21
-20.4852724614
  0
LINE
  5
39B
100
AcDbEntity
  8
0
100
AcDbLine
 62
250
  6
CONTINUOUS
 10
-1.5924150767
 20
-20.8281295838
 11
-1.5924150767
 21
-21.2852724375
  0
LINE
  5
39C
100
AcDbEntity
  8
0
100
AcDbLine
 62
250
  6
CONTINUOUS
 10
0.1780861237
 20
15.0361561237
 11
0.1780861237
 21
17.9361561237
  0
LINE
  5
39D
100
AcDbEntity
  8
0
100
AcDbLine
 62
250
  6
CONTINUOUS
 10
4.0622521237
 20
16.1327281237
 11
4.4922101237
 21
17.3818331237
  0
LINE
  5
39E
100
AcDbEntity
  8
0
100
AcDbLine
 62
250
  6
CONTINUOUS
 10
3.6846501237
 20
15.0361561237
 11
3.9016071237
 21
15.6507951237
  0
LINE
  5
39F
100
AcDbEntity
  8
0
100
AcDbLine
 62
250
  6
CONTINUOUS
 10
4.1386451237
 20
17.9361561237
 11
3.0902011237
 21
15.0361561237
  0
LINE
  5
3A0
100
AcDbEntity
  8
0
100
AcDbLine
 62
250
  6
CONTINUOUS
 10
-14.0067758763
 20
-22.0085078763
 11
-13.2755018763
 21
-20.8885288763
  0
LINE
  5
3A1
100
AcDbEntity
  8
0
100
AcDbLine
 62
250
  6
CONTINUOUS
 10
14.4290128885
 20
17.3861561237
 11
14.0432985721
 21
17.0004418073
  0
LINE
  5
3A2
100
AcDbEntity
  8
0
100
AcDbLine
 62
250
  6
CONTINUOUS
 10
14.4290128885
 20
15.5861561237
 11
14.686155623
 21
15.8432989923
  0
LINE
  5
3A3
100
AcDbEntity
  8
0
100
AcDbLine
 62
250
  6
CONTINUOUS
 10
16.6147272048
 20
16.87187044
 11
17.1290126739
 21
17.3861561237
  0
LINE
  5
3A4
100
AcDbEntity
  8
RACCORDO
100
AcDbLine
 62
7
  6
CONTINUOUS
 10
-25.9638438763
 20
-3.966676875
 11
-25.8138438763
 21
-3.9588157081
  0
LINE
  5
3A5
100
AcDbEntity
  8
DRAFT
100
AcDbLine
 62
7
  6
CONTINUOUS
 10
-25.9638438763
 20
-3.9404729853
 11
-25.8138438763
 21
-3.9326118184
  0
LINE
  5
3A6
100
AcDbEntity
  8
DRAFT
100
AcDbLine
 62
7
  6
CONTINUOUS
 10
-25.9638438763
 20
-3.9142690957
 11
-25.8138438763
 21
-3.9064079288
  0
LINE
  5
3A7
100
AcDbEntity
  8
DRAFT
100
AcDbLine
 62
7
  6
CONTINUOUS
 10
-25.9638438763
 20
-3.8880652061
 11
-25.8138438763
 21
-3.8802040392
  0
LINE
  5
3A8
100
AcDbEntity
  8
DRAFT
100
AcDbLine
 62
7
  6
CONTINUOUS
 10
-25.9638438763
 20
-3.8618613164
 11
-25.8138438763
 21
-3.8540001495
  0
LINE
  5
3A9
100
AcDbEntity
  8
DRAFT
100
AcDbLine
 62
7
  6
CONTINUOUS
 10
-25.9638438763
 20
-3.8356574268
 11
-25.8138438763
 21
-3.8277962599
  0
LINE
  5
3AA
100
AcDbEntity
  8
DRAFT
100
AcDbLine
 62
7
  6
CONTINUOUS
 10
-25.9638438763
 20
-3.8094535371
 11
-25.8138438763
 21
-3.8015923702
  0
LINE
  5
3AB
100
AcDbEntity
  8
DRAFT
100
AcDbLine
 62
7
  6
CONTINUOUS
 10
-25.9638438763
 20
-3.7832496475
 11
-25.8138438763
 21
-3.7753884806
  0
LWPOLYLINE
  5
3AC
100
AcDbEntity
  8
RACCORDO
100
AcDbPolyline
 62
250
  6
CONTINUOUS
 90
10
 70
0
 10
-25.9660995154
 20
-4.298474139
 10
-25.9289747454
 20
-4.2969401386
 10
-25.8925319701
 20
-4.2925185516
 10
-25.8567712308
 20
-4.2852093782
 10
-25.8214217368
 20
-4.2748988714
 10
-25.7867543497
 20
-4.2617007781
 10
-25.7535815914
 20
-4.2459563389
 10
-25.722174325
 20
-4.2277793006
 10
-25.6922617465
 20
-4.2070559163
 10
-25.6638438763
 20
-4.1837861861
  0
LWPOLYLINE
  5
3AD
100
AcDbEntity
  8
RACCORDO
100
AcDbPolyline
 62
250
  6
CONTINUOUS
 90
10
 70
0
 10
-25.9638438763
 20
-3.9988852786
 10
-25.9516894671
 20
-3.9984019127
 10
-25.9396093507
 20
-3.9969260586
 10
-25.9276832161
 20
-3.994466052
 10
-25.9159809241
 20
-3.9910332746
 10
-25.9045895341
 20
-3.9866508425
 10
-25.8936100295
 20
-3.9813606869
 10
-25.8831203459
 20
-3.9752078633
 10
-25.8731777106
 20
-3.9682330184
 10
-25.8638438763
 20
-3.9604858337
  0
LWPOLYLINE
  5
3AE
100
AcDbEntity
  8
RACCORDO
100
AcDbPolyline
 62
250
  6
CONTINUOUS
 90
22
 70
0
 10
-26.9582864476
 20
-3.2666223786
 10
-26.9692549912
 20
-3.267030966
 10
-26.9802622924
 20
-3.268257036
 10
-26.9912457418
 20
-3.2703158056
 10
-27.0021513405
 20
-3.2732212201
 10
-27.0128997931
 20
-3.2769767247
 10
-27.0233898528
 20
-3.2815664326
 10
-27.0335568766
 20
-3.2869785014
 10
-27.0433311314
 20
-3.2931929095
 10
-27.0526121954
 20
-3.3001568942
 10
-27.0613473752
 20
-3.3078378394
 10
-27.0694745329
 20
-3.316188474
 10
-27.0769001759
 20
-3.325107405
 10
-27.0835946865
 20
-3.3345436242
 10
-27.0895195673
 20
-3.3444260111
 10
-27.0946073404
 20
-3.354597019
 10
-27.0988582633
 20
-3.364979694
 10
-27.1022812904
 20
-3.3755060621
 10
-27.1048706973
 20
-3.3860177643
 10
-27.1066599266
 20
-3.3964168099
 10
-27.1076990604
 20
-3.4066727102
 10
-27.1080330283
 20
-3.4167319451
  0
LINE
  5
3AF
100
AcDbEntity
  8
RACCORDO
100
AcDbLine
 62
250
  6
CONTINUOUS
 10
-26.8112632287
 20
-3.2665830991
 11
-26.9582864476
 21
-3.2666223786
  0
LINE
  5
3B0
100
AcDbEntity
  8
RACCORDO
100
AcDbLine
 62
7
  6
CONTINUOUS
 10
25.3497307031
 20
-3.3070532952
 11
25.2429467048
 21
-3.3070532952
  0
LINE
  5
3B1
100
AcDbEntity
  8
RACCORDO
100
AcDbLine
 62
7
  6
CONTINUOUS
 10
-26.7706344575
 20
-3.3070532952
 11
-26.8774184557
 21
-3.3070532952
  0
LINE
  5
3B2
100
AcDbEntity
  8
RACCORDO
100
AcDbLine
 62
250
  6
CONTINUOUS
 10
-27.0998910668
 20
-0.9271819855
 11
-27.2297948773
 21
-0.9271819855
  0
LINE
  5
3B3
100
AcDbEntity
  8
RACCORDO
100
AcDbLine
 62
250
  6
CONTINUOUS
 10
25.5722033141
 20
-0.6005057672
 11
25.7021071247
 21
-0.6005057672
  0
LINE
  5
3B4
100
AcDbEntity
  8
RACCORDO
100
AcDbLine
 62
250
  6
CONTINUOUS
 10
25.4305986949
 20
-3.2666223786
 11
25.283575476
 21
-3.2665830991
  0
LWPOLYLINE
  5
3B5
100
AcDbEntity
  8
RACCORDO
100
AcDbPolyline
 62
250
  6
CONTINUOUS
 90
9
 70
0
 10
25.5722033141
 20
-0.9271819855
 10
25.6358554891
 20
-0.9271494265
 10
25.6475179282
 20
-0.9272233991
 10
25.6585251818
 20
-0.9274448689
 10
25.6688379843
 20
-0.927728237
 10
25.6784181791
 20
-0.9278645301
 10
25.6872043199
 20
-0.9277840903
 10
25.6951200606
 20
-0.9275565754
 10
25.7021071247
 20
-0.9271819855
  0
LWPOLYLINE
  5
3B6
100
AcDbEntity
  8
RACCORDO
100
AcDbPolyline
 62
250
  6
CONTINUOUS
 90
9
 70
0
 10
-27.0998910668
 20
-0.6005057672
 10
-27.1635432418
 20
-0.6005383262
 10
-27.1752056809
 20
-0.6004643536
 10
-27.1862129344
 20
-0.6002428838
 10
-27.1965257369
 20
-0.5999595156
 10
-27.2061059317
 20
-0.5998232225
 10
-27.2148920725
 20
-0.5999036623
 10
-27.2228078133
 20
-0.6001311772
 10
-27.2297948773
 20
-0.6005057672
  0
LINE
  5
3B7
100
AcDbEntity
  8
RACCORDO
100
AcDbLine
 62
7
  6
CONTINUOUS
 10
24.4361561237
 20
-3.966676875
 11
24.2861561237
 21
-3.9588157081
  0
LINE
  5
3B8
100
AcDbEntity
  8
DRAFT
100
AcDbLine
 62
7
  6
CONTINUOUS
 10
24.4361561237
 20
-3.9404729853
 11
24.2861561237
 21
-3.9326118184
  0
LINE
  5
3B9
100
AcDbEntity
  8
DRAFT
100
AcDbLine
 62
7
  6
CONTINUOUS
 10
24.4361561237
 20
-3.9142690957
 11
24.2861561237
 21
-3.9064079288
  0
LINE
  5
3BA
100
AcDbEntity
  8
DRAFT
100
AcDbLine
 62
7
  6
CONTINUOUS
 10
24.4361561237
 20
-3.8880652061
 11
24.2861561237
 21
-3.8802040392
  0
LINE
  5
3BB
100
AcDbEntity
  8
DRAFT
100
AcDbLine
 62
7
  6
CONTINUOUS
 10
24.4361561237
 20
-3.8618613164
 11
24.2861561237
 21
-3.8540001495
  0
LINE
  5
3BC
100
AcDbEntity
  8
DRAFT
100
AcDbLine
 62
7
  6
CONTINUOUS
 10
24.4361561237
 20
-3.8356574268
 11
24.2861561237
 21
-3.8277962599
  0
LINE
  5
3BD
100
AcDbEntity
  8
DRAFT
100
AcDbLine
 62
7
  6
CONTINUOUS
 10
24.4361561237
 20
-3.8094535371
 11
24.2861561237
 21
-3.8015923702
  0
LINE
  5
3BE
100
AcDbEntity
  8
DRAFT
100
AcDbLine
 62
7
  6
CONTINUOUS
 10
24.4361561237
 20
-3.7832496475
 11
24.2861561237
 21
-3.7753884806
  0
LINE
  5
3BF
100
AcDbEntity
  8
0
100
AcDbLine
 62
250
  6
CONTINUOUS
 10
0.7605311237
 20
17.4632601237
 11
0.7605311237
 21
15.0361561237
  0
LINE
  5
3C0
100
AcDbEntity
  8
0
100
AcDbLine
 62
250
  6
CONTINUOUS
 10
1.8361561237
 20
39.141822121
 11
1.8361561237
 21
35.4361561237
  0
LINE
  5
3C1
100
AcDbEntity
  8
0
100
AcDbLine
 62
250
  6
CONTINUOUS
 10
1.8361561237
 20
-36.9638438763
 11
1.8361561237
 21
-40.6695098736
  0
LINE
  5
3C2
100
AcDbEntity
  8
0
100
AcDbLine
 62
250
  6
CONTINUOUS
 10
2.2145151237
 20
15.6380431237
 11
2.2145151237
 21
17.9361561237
  0
LINE
  5
3C3
100
AcDbEntity
  8
0
100
AcDbLine
 62
250
  6
CONTINUOUS
 10
2.7969591237
 20
17.9361561237
 11
2.7969591237
 21
15.0361561237
  0
LINE
  5
3C4
100
AcDbEntity
  8
0
100
AcDbLine
 62
7
  6
CONTINUOUS
 10
4.2361561237
 20
-40.7638438763
 11
4.2361561237
 21
-36.9638438763
  0
LINE
  5
3C5
100
AcDbEntity
  8
0
100
AcDbLine
 62
7
  6
CONTINUOUS
 10
4.2361561237
 20
35.4361561237
 11
4.2361561237
 21
39.2361561237
  0
LINE
  5
3C6
100
AcDbEntity
  8
0
100
AcDbLine
 62
250
  6
CONTINUOUS
 10
-3.6495580973
 20
-21.1709867301
 11
-3.306701118
 21
-19.9138438763
  0
LINE
  5
3C7
100
AcDbEntity
  8
0
100
AcDbLine
 62
250
  6
CONTINUOUS
 10
-8.5638438525
 20
-20.3709867062
 11
-8.4495581927
 21
-20.1424152913
  0
LINE
  5
3C8
100
AcDbEntity
  8
0
100
AcDbLine
 62
250
  6
CONTINUOUS
 10
-7.7638439479
 20
-21.0567009988
 11
-7.8781296076
 21
-21.2852724375
  0
LINE
  5
3C9
100
AcDbEntity
  8
0
100
AcDbLine
 62
250
  6
CONTINUOUS
 10
-7.3067009272
 20
-20.3709867062
 11
-7.1924152674
 21
-20.1424152913
  0
LINE
  5
3CA
100
AcDbEntity
  8
0
100
AcDbLine
 62
250
  6
CONTINUOUS
 10
-6.506701118
 20
-21.0567009988
 11
-6.6209867778
 21
-21.2852724375
  0
LWPOLYLINE
  5
3CB
100
AcDbEntity
  8
RACCORDO
100
AcDbPolyline
 62
250
  6
CONTINUOUS
 90
16
 70
0
 10
-26.8774184557
 20
2.2263261945
 10
-26.893132474
 20
2.225487367
 10
-26.9086735083
 20
2.2230087893
 10
-26.9238704781
 20
2.2189177461
 10
-26.9385578176
 20
2.2132585008
 10
-26.9525719549
 20
2.2060937624
 10
-26.9657539939
 20
2.1975057642
 10
-26.9779570351
 20
2.1875930431
 10
-26.9890513892
 20
2.1764640045
 10
-26.998919855
 20
2.1642374551
 10
-27.0074650695
 20
2.1510284607
 10
-27.0145781109
 20
2.1369989547
 10
-27.0201620123
 20
2.1223611387
 10
-27.0241692698
 20
2.1073014784
 10
-27.0265829249
 20
2.0919692023
 10
-27.02739561
 20
2.0765317643
  0
LINE
  5
3CC
100
AcDbEntity
  8
DRAFT
100
AcDbLine
 62
7
  6
CONTINUOUS
 10
24.4361561237
 20
2.2555618948
 11
24.2861561237
 21
2.2477007279
  0
LINE
  5
3CD
100
AcDbEntity
  8
DRAFT
100
AcDbLine
 62
7
  6
CONTINUOUS
 10
24.4361561237
 20
2.2817657845
 11
24.2861561237
 21
2.2739046176
  0
LINE
  5
3CE
100
AcDbEntity
  8
DRAFT
100
AcDbLine
 62
7
  6
CONTINUOUS
 10
24.4361561237
 20
2.3079696741
 11
24.2861561237
 21
2.3001085072
  0
LINE
  5
3CF
100
AcDbEntity
  8
DRAFT
100
AcDbLine
 62
7
  6
CONTINUOUS
 10
24.4361561237
 20
2.3341735637
 11
24.2861561237
 21
2.3263123969
  0
LINE
  5
3D0
100
AcDbEntity
  8
DRAFT
100
AcDbLine
 62
7
  6
CONTINUOUS
 10
24.4361561237
 20
2.3603774534
 11
24.2861561237
 21
2.3525162865
  0
LINE
  5
3D1
100
AcDbEntity
  8
DRAFT
100
AcDbLine
 62
7
  6
CONTINUOUS
 10
24.4361561237
 20
2.386581343
 11
24.2861561237
 21
2.3787201761
  0
LINE
  5
3D2
100
AcDbEntity
  8
DRAFT
100
AcDbLine
 62
7
  6
CONTINUOUS
 10
24.4361561237
 20
2.4127852327
 11
24.2861561237
 21
2.4049240658
  0
LINE
  5
3D3
100
AcDbEntity
  8
RACCORDO
100
AcDbLine
 62
7
  6
CONTINUOUS
 10
24.4361561237
 20
2.4389891223
 11
24.2861561237
 21
2.4311279554
  0
LINE
  5
3D4
100
AcDbEntity
  8
DRAFT
100
AcDbLine
 62
7
  6
CONTINUOUS
 10
-25.8138438763
 20
2.2634230617
 11
-25.9638438763
 21
2.2555618948
  0
LINE
  5
3D5
100
AcDbEntity
  8
DRAFT
100
AcDbLine
 62
7
  6
CONTINUOUS
 10
-25.8138438763
 20
2.2896269514
 11
-25.9638438763
 21
2.2817657845
  0
LINE
  5
3D6
100
AcDbEntity
  8
DRAFT
100
AcDbLine
 62
7
  6
CONTINUOUS
 10
-25.8138438763
 20
2.315830841
 11
-25.9638438763
 21
2.3079696741
  0
LINE
  5
3D7
100
AcDbEntity
  8
DRAFT
100
AcDbLine
 62
7
  6
CONTINUOUS
 10
-25.8138438763
 20
2.3420347306
 11
-25.9638438763
 21
2.3341735637
  0
LINE
  5
3D8
100
AcDbEntity
  8
DRAFT
100
AcDbLine
 62
7
  6
CONTINUOUS
 10
-25.8138438763
 20
2.3682386203
 11
-25.9638438763
 21
2.3603774534
  0
LINE
  5
3D9
100
AcDbEntity
  8
DRAFT
100
AcDbLine
 62
7
  6
CONTINUOUS
 10
-25.8138438763
 20
2.3944425099
 11
-25.9638438763
 21
2.386581343
  0
LINE
  5
3DA
100
AcDbEntity
  8
DRAFT
100
AcDbLine
 62
7
  6
CONTINUOUS
 10
-25.8138438763
 20
2.4206463996
 11
-25.9638438763
 21
2.4127852327
  0
LWPOLYLINE
  5
3DB
100
AcDbEntity
  8
RACCORDO
100
AcDbPolyline
 62
250
  6
CONTINUOUS
 90
10
 70
0
 10
24.4384117628
 20
2.7707863863
 10
24.4012869927
 20
2.7692523859
 10
24.3648442174
 20
2.764830799
 10
24.3290834782
 20
2.7575216255
 10
24.2937339842
 20
2.7472111188
 10
24.259066597
 20
2.7340130255
 10
24.2258938388
 20
2.7182685862
 10
24.1944865723
 20
2.7000915479
 10
24.1645739939
 20
2.6793681637
 10
24.1361561237
 20
2.6560984335
  0
LWPOLYLINE
  5
3DC
100
AcDbEntity
  8
RACCORDO
100
AcDbPolyline
 62
250
  6
CONTINUOUS
 90
10
 70
0
 10
24.4361561237
 20
2.4711975259
 10
24.4240017144
 20
2.4707141601
 10
24.411921598
 20
2.469238306
 10
24.3999954635
 20
2.4667782994
 10
24.3882931715
 20
2.4633455219
 10
24.3769017814
 20
2.4589630899
 10
24.3659222769
 20
2.4536729343
 10
24.3554325932
 20
2.4475201106
 10
24.3454899579
 20
2.4405452657
 10
24.3361561237
 20
2.432798081
  0
LWPOLYLINE
  5
3DD
100
AcDbEntity
  8
RACCORDO
100
AcDbPolyline
 62
250
  6
CONTINUOUS
 90
22
 70
0
 10
-26.958628796
 20
2.4701553412
 10
-26.9689916416
 20
2.4697592882
 10
-26.9794985129
 20
2.4686120127
 10
-26.9900927022
 20
2.4666774466
 10
-27.0007390236
 20
2.4639151431
 10
-27.0113414502
 20
2.4603017846
 10
-27.0217500133
 20
2.4558519105
 10
-27.031893738
 20
2.4505673575
 10
-27.0417036458
 20
2.4444551376
 10
-27.0510460549
 20
2.437579875
 10
-27.0598541459
 20
2.4299812913
 10
-27.0680772426
 20
2.4216936826
 10
-27.0756276725
 20
2.4128052364
 10
-27.0824764095
 20
2.4033520483
 10
-27.0885700236
 20
2.3934101779
 10
-27.0938241374
 20
2.3831557832
 10
-27.098213749
 20
2.3727247346
 10
-27.1017755974
 20
2.3621302907
 10
-27.1045361699
 20
2.3513708667
 10
-27.1064990597
 20
2.3404846265
 10
-27.1076616868
 20
2.3295549041
 10
-27.1080330283
 20
2.3186407473
  0
LWPOLYLINE
  5
3DE
100
AcDbEntity
  8
RACCORDO
100
AcDbPolyline
 62
250
  6
CONTINUOUS
 90
22
 70
0
 10
25.4305986949
 20
1.738934626
 10
25.4415672385
 20
1.7393432133
 10
25.4525745397
 20
1.7405692833
 10
25.4635579891
 20
1.7426280529
 10
25.4744635878
 20
1.7455334674
 10
25.4852120405
 20
1.749288972
 10
25.4957021001
 20
1.7538786799
 10
25.5058691239
 20
1.7592907488
 10
25.5156433787
 20
1.7655051568
 10
25.5249244428
 20
1.7724691415
 10
25.5336596225
 20
1.7801500868
 10
25.5417867802
 20
1.7885007213
 10
25.5492124233
 20
1.7974196524
 10
25.5559069339
 20
1.8068558716
 10
25.5618318147
 20
1.8167382584
 10
25.5669195877
 20
1.8269092663
 10
25.5711705106
 20
1.8372919414
 10
25.5745935377
 20
1.8478183095
 10
25.5771829446
 20
1.8583300116
 10
25.5789721739
 20
1.8687290573
 10
25.5800113077
 20
1.8789849575
 10
25.5803452756
 20
1.8890441925
  0
LWPOLYLINE
  5
3DF
100
AcDbEntity
  8
RACCORDO
100
AcDbPolyline
 62
250
  6
CONTINUOUS
 90
22
 70
0
 10
-26.9683640209
 20
2.7697442016
 10
-27.000011751
 20
2.7687730297
 10
-27.031732567
 20
2.7653679455
 10
-27.0635264431
 20
2.759528949
 10
-27.0956807288
 20
2.7512673437
 10
-27.127908006
 20
2.740571826
 10
-27.1593461715
 20
2.7274084854
 10
-27.1899717916
 20
2.7116625403
 10
-27.2198084004
 20
2.6934487722
 10
-27.2480644898
 20
2.6730776153
 10
-27.274664105
 20
2.6504732259
 10
-27.2996834343
 20
2.6257114477
 10
-27.3225592896
 20
2.5993302454
 10
-27.3432277271
 20
2.5712072005
 10
-27.3617529681
 20
2.5414647315
 10
-27.3777641204
 20
2.5110080587
 10
-27.3911079233
 20
2.4800070495
 10
-27.4019378732
 20
2.4482918365
 10
-27.4103432046
 20
2.416258038
 10
-27.4163536988
 20
2.3840375267
 10
-27.419939687
 20
2.3514984298
 10
-27.4211011974
 20
2.3186407473
  0
LINE
  5
3E0
100
AcDbEntity
  8
RACCORDO
100
AcDbLine
 62
250
  6
CONTINUOUS
 10
-25.9660995154
 20
2.7707863863
 11
-26.9683640209
 21
2.7697442016
  0
LINE
  5
3E1
100
AcDbEntity
  8
RACCORDO
100
AcDbLine
 62
250
  6
CONTINUOUS
 10
-25.9638438763
 20
2.4711975259
 11
-26.958628796
 21
2.4701553412
  0
LINE
  5
3E2
100
AcDbEntity
  8
RACCORDO
100
AcDbLine
 62
250
  6
CONTINUOUS
 10
25.283575476
 20
1.7388953464
 11
25.4305986949
 21
1.738934626
  0
LINE
  5
3E3
100
AcDbEntity
  8
RACCORDO
100
AcDbLine
 62
7
  6
CONTINUOUS
 10
-26.8774184557
 20
1.7793655425
 11
-26.7706344575
 21
1.7793655425
  0
LINE
  5
3E4
100
AcDbEntity
  8
RACCORDO
100
AcDbLine
 62
7
  6
CONTINUOUS
 10
25.2429467048
 20
1.7793655425
 11
25.3497307031
 21
1.7793655425
  0
LINE
  5
3E5
100
AcDbEntity
  8
RACCORDO
100
AcDbLine
 62
250
  6
CONTINUOUS
 10
-27.4211011974
 20
1.8890441925
 11
-27.1080330283
 21
1.8890441925
  0
LINE
  5
3E6
100
AcDbEntity
  8
RACCORDO
100
AcDbLine
 62
250
  6
CONTINUOUS
 10
25.8934134448
 20
1.8890441925
 11
25.5803452756
 21
1.8890441925
  0
LINE
  5
3E7
100
AcDbEntity
  8
RACCORDO
100
AcDbLine
 62
250
  6
CONTINUOUS
 10
25.0929524163
 20
1.929359831
 11
25.4997078573
 21
1.929359831
  0
LINE
  5
3E8
100
AcDbEntity
  8
RACCORDO
100
AcDbLine
 62
250
  6
CONTINUOUS
 10
-26.620640169
 20
1.929359831
 11
-27.02739561
 21
1.929359831
  0
LINE
  5
3E9
100
AcDbEntity
  8
RACCORDO
100
AcDbLine
 62
250
  6
CONTINUOUS
 10
24.6614337986
 20
2.0765317643
 11
25.4997078573
 21
2.0765317643
  0
LINE
  5
3EA
100
AcDbEntity
  8
RACCORDO
100
AcDbLine
 62
250
  6
CONTINUOUS
 10
-26.1891215513
 20
2.0765317643
 11
-27.02739561
 21
2.0765317643
  0
LINE
  5
3EB
100
AcDbEntity
  8
RACCORDO
100
AcDbLine
 62
250
  6
CONTINUOUS
 10
25.3497307031
 20
2.2263261945
 11
24.4927611446
 21
2.2263261945
  0
LINE
  5
3EC
100
AcDbEntity
  8
RACCORDO
100
AcDbLine
 62
250
  6
CONTINUOUS
 10
-26.0204488973
 20
2.2263261945
 11
-26.8774184557
 21
2.2263261945
  0
LINE
  5
3ED
100
AcDbEntity
  8
RACCORDO
100
AcDbLine
 62
250
  6
CONTINUOUS
 10
-27.4211011974
 20
2.3186407473
 11
-27.1080330283
 21
2.3186407473
  0
LINE
  5
3EE
100
AcDbEntity
  8
RACCORDO
100
AcDbLine
 62
250
  6
CONTINUOUS
 10
25.8934134448
 20
2.3186407473
 11
25.5803452756
 21
2.3186407473
  0
LINE
  5
3EF
100
AcDbEntity
  8
RACCORDO
100
AcDbLine
 62
250
  6
CONTINUOUS
 10
23.9861561237
 20
2.320227938
 11
24.2861561237
 21
2.320227938
  0
LINE
  5
3F0
100
AcDbEntity
  8
RACCORDO
100
AcDbLine
 62
250
  6
CONTINUOUS
 10
-25.5138438763
 20
2.320227938
 11
-25.8138438763
 21
2.320227938
  0
LINE
  5
3F1
100
AcDbEntity
  8
RACCORDO
100
AcDbLine
 62
250
  6
CONTINUOUS
 10
-26.9582864476
 20
1.738934626
 11
-26.8112632287
 21
1.7388953464
  0
LINE
  5
3F2
100
AcDbEntity
  8
RACCORDO
100
AcDbLine
 62
250
  6
CONTINUOUS
 10
24.7678006438
 20
2.4709945945
 11
24.4361561237
 21
2.4711975259
  0
LINE
  5
3F3
100
AcDbEntity
  8
RACCORDO
100
AcDbLine
 62
250
  6
CONTINUOUS
 10
25.4406762683
 20
2.7697442016
 11
24.4384117628
 21
2.7707863863
  0
LINE
  5
3F4
100
AcDbEntity
  8
RACCORDO
100
AcDbLine
 62
250
  6
CONTINUOUS
 10
25.4309410433
 20
2.4701553412
 11
24.7678006438
 21
2.4709945945
  0
LINE
  5
3F5
100
AcDbEntity
  8
DRAFT
100
AcDbLine
 62
7
  6
CONTINUOUS
 10
-25.9638438763
 20
2.2555618948
 11
-25.8138438763
 21
2.2477007279
  0
LINE
  5
3F6
100
AcDbEntity
  8
DRAFT
100
AcDbLine
 62
7
  6
CONTINUOUS
 10
-25.9638438763
 20
2.2817657845
 11
-25.8138438763
 21
2.2739046176
  0
LINE
  5
3F7
100
AcDbEntity
  8
DRAFT
100
AcDbLine
 62
7
  6
CONTINUOUS
 10
-25.9638438763
 20
2.3079696741
 11
-25.8138438763
 21
2.3001085072
  0
LINE
  5
3F8
100
AcDbEntity
  8
DRAFT
100
AcDbLine
 62
7
  6
CONTINUOUS
 10
-25.9638438763
 20
2.3341735637
 11
-25.8138438763
 21
2.3263123969
  0
LINE
  5
3F9
100
AcDbEntity
  8
DRAFT
100
AcDbLine
 62
7
  6
CONTINUOUS
 10
-25.9638438763
 20
2.3603774534
 11
-25.8138438763
 21
2.3525162865
  0
LINE
  5
3FA
100
AcDbEntity
  8
DRAFT
100
AcDbLine
 62
7
  6
CONTINUOUS
 10
-25.9638438763
 20
2.386581343
 11
-25.8138438763
 21
2.3787201761
  0
LINE
  5
3FB
100
AcDbEntity
  8
DRAFT
100
AcDbLine
 62
7
  6
CONTINUOUS
 10
-25.9638438763
 20
2.4127852327
 11
-25.8138438763
 21
2.4049240658
  0
LINE
  5
3FC
100
AcDbEntity
  8
RACCORDO
100
AcDbLine
 62
7
  6
CONTINUOUS
 10
-25.9638438763
 20
2.4389891223
 11
-25.8138438763
 21
2.4311279554
  0
LINE
  5
3FD
100
AcDbEntity
  8
DRAFT
100
AcDbLine
 62
7
  6
CONTINUOUS
 10
24.2861561237
 20
2.2634230617
 11
24.4361561237
 21
2.2555618948
  0
LINE
  5
3FE
100
AcDbEntity
  8
DRAFT
100
AcDbLine
 62
7
  6
CONTINUOUS
 10
24.2861561237
 20
2.2896269514
 11
24.4361561237
 21
2.2817657845
  0
LINE
  5
3FF
100
AcDbEntity
  8
DRAFT
100
AcDbLine
 62
7
  6
CONTINUOUS
 10
24.2861561237
 20
2.315830841
 11
24.4361561237
 21
2.3079696741
  0
LINE
  5
400
100
AcDbEntity
  8
DRAFT
100
AcDbLine
 62
7
  6
CONTINUOUS
 10
24.2861561237
 20
2.3420347306
 11
24.4361561237
 21
2.3341735637
  0
LINE
  5
401
100
AcDbEntity
  8
DRAFT
100
AcDbLine
 62
7
  6
CONTINUOUS
 10
24.2861561237
 20
2.3682386203
 11
24.4361561237
 21
2.3603774534
  0
LINE
  5
402
100
AcDbEntity
  8
DRAFT
100
AcDbLine
 62
7
  6
CONTINUOUS
 10
24.2861561237
 20
2.3944425099
 11
24.4361561237
 21
2.386581343
  0
LINE
  5
403
100
AcDbEntity
  8
DRAFT
100
AcDbLine
 62
7
  6
CONTINUOUS
 10
24.2861561237
 20
2.4206463996
 11
24.4361561237
 21
2.4127852327
  0
LINE
  5
404
100
AcDbEntity
  8
0
100
AcDbLine
 62
250
  6
CONTINUOUS
 10
-0.9746898763
 20
15.6507951237
 11
-0.7658078763
 21
15.0361561237
  0
LINE
  5
405
100
AcDbEntity
  8
0
100
AcDbLine
 62
250
  6
CONTINUOUS
 10
-1.5327678763
 20
17.3819971237
 11
-1.1312958763
 21
16.1327281237
  0
LINE
  5
406
100
AcDbEntity
  8
0
100
AcDbLine
 62
250
  6
CONTINUOUS
 10
5.2361561237
 20
-16.3333028763
 11
5.2361561237
 21
-20.6943848763
  0
LINE
  5
407
100
AcDbEntity
  8
0
100
AcDbLine
 62
250
  6
CONTINUOUS
 10
12.3718700466
 20
15.9718704132
 11
12.7575842557
 21
17.3861561237
  0
LINE
  5
408
100
AcDbEntity
  8
0
100
AcDbLine
 62
250
  6
CONTINUOUS
 10
14.0432985721
 20
17.0004418073
 11
13.786155623
 21
16.4861561237
  0
LWPOLYLINE
  5
409
100
AcDbEntity
  8
RACCORDO
100
AcDbPolyline
 62
250
  6
CONTINUOUS
 90
3
 70
0
 10
27.6752105316
 20
29.7815481363
 10
29.7586902845
 20
33.1068322275
 10
30.4432140236
 20
34.1974461174
  0
LINE
  5
40A
100
AcDbEntity
  8
RACCORDO
100
AcDbLine
 62
250
  6
CONTINUOUS
 10
26.9704133548
 20
28.6578444814
 11
27.6752105316
 21
29.7815481363
  0
LWPOLYLINE
  5
40B
100
AcDbEntity
  8
RACCORDO
100
AcDbPolyline
 62
250
  6
CONTINUOUS
 90
3
 70
0
 10
24.1361561237
 20
24.1361561237
 10
24.8471813584
 20
25.268960203
 10
26.9704133548
 20
28.6578444814
  0
LINE
  5
40C
100
AcDbEntity
  8
0
100
AcDbLine
 62
250
  6
CONTINUOUS
 10
-4.6781294169
 20
-19.9138438763
 11
-4.906701118
 21
-20.2567010464
  0
LINE
  5
40D
100
AcDbEntity
  8
RACCORDO
100
AcDbLine
 62
250
  6
CONTINUOUS
 10
-35.7251337951
 20
-31.9709019801
 11
-34.6345195384
 21
-31.2863777965
  0
LINE
  5
40E
100
AcDbEntity
  8
RACCORDO
100
AcDbLine
 62
250
  6
CONTINUOUS
 10
-26.7965741636
 20
-26.3748236012
 11
-25.6638438763
 21
-25.6638438763
  0
LINE
  5
40F
100
AcDbEntity
  8
RACCORDO
100
AcDbLine
 62
250
  6
CONTINUOUS
 10
-34.6345195384
 20
-31.2863777965
 11
-26.7965741636
 21
-26.3748236012
  0
LINE
  5
410
100
AcDbEntity
  8
RACCORDO
100
AcDbLine
 62
7
  6
CONTINUOUS
 10
-36.2779631429
 20
-22.1030410125
 11
-35.8436888376
 21
-21.9162701732
  0
LWPOLYLINE
  5
411
100
AcDbEntity
  8
RACCORDO
100
AcDbPolyline
 62
250
  6
CONTINUOUS
 90
19
 70
0
 10
25.5942013164
 20
1.4657747343
 10
25.6236333179
 20
1.477476374
 10
25.651986633
 20
1.49110408
 10
25.6792613329
 20
1.5066578522
 10
25.7056164416
 20
1.5242491189
 10
25.7308930687
 20
1.5437664518
 10
25.7546144487
 20
1.5648755662
 10
25.776742501
 20
1.5876377145
 10
25.7973155071
 20
1.6119916443
 10
25.8159712969
 20
1.6374193138
 10
25.8326410141
 20
1.6639718651
 10
25.8473937219
 20
1.6915981562
 10
25.8600741452
 20
1.7196267189
 10
25.8705905144
 20
1.7480507183
 10
25.8790347533
 20
1.7768769892
 10
25.8855271117
 20
1.8054545685
 10
25.8901076948
 20
1.8335664682
 10
25.8927364669
 20
1.8614296762
 10
25.8934134448
 20
1.8890441925
  0
LINE
  5
412
100
AcDbEntity
  8
RACCORDO
100
AcDbLine
 62
250
  6
CONTINUOUS
 10
-26.8112761241
 20
-0.2840725753
 11
-27.5399417077
 21
-0.4798429034
  0
LINE
  5
413
100
AcDbEntity
  8
RACCORDO
100
AcDbLine
 62
250
  6
CONTINUOUS
 10
-27.0998910668
 20
-0.6005057672
 11
-26.620640169
 21
-0.4720908762
  0
LINE
  5
414
100
AcDbEntity
  8
RACCORDO
100
AcDbLine
 62
250
  6
CONTINUOUS
 10
-27.1387080106
 20
-0.4556389605
 11
-26.770623035
 21
-0.3570108886
  0
LINE
  5
415
100
AcDbEntity
  8
RACCORDO
100
AcDbLine
 62
250
  6
CONTINUOUS
 10
-27.1218890691
 20
-0.0539741634
 11
-27.6322653076
 21
-0.1901092901
  0
LINE
  5
416
100
AcDbEntity
  8
RACCORDO
100
AcDbLine
 62
250
  6
CONTINUOUS
 10
-27.6132021189
 20
-0.6912389476
 11
-27.2297948773
 21
-0.6005057672
  0
LINE
  5
417
100
AcDbEntity
  8
RACCORDO
100
AcDbLine
 62
250
  6
CONTINUOUS
 10
-27.5221198785
 20
-0.5463732358
 11
-27.1387080106
 21
-0.4556389605
  0
LINE
  5
418
100
AcDbEntity
  8
RACCORDO
100
AcDbLine
 62
7
  6
CONTINUOUS
 10
-25.8138438763
 20
2.245080339
 11
-26.0204488973
 21
2.2263261945
  0
LINE
  5
419
100
AcDbEntity
  8
RACCORDO
100
AcDbLine
 62
7
  6
CONTINUOUS
 10
27.6861561237
 20
6.1861561237
 11
29.0861561237
 21
6.1861561237
  0
LINE
  5
41A
100
AcDbEntity
  8
RACCORDO
100
AcDbLine
 62
7
  6
CONTINUOUS
 10
-29.2138438763
 20
6.1861561237
 11
-30.6138438763
 21
6.1861561237
  0
LINE
  5
41B
100
AcDbEntity
  8
ASSI
100
AcDbLine
 62
7
  6
CONTINUOUS
 10
-30.6638438763
 20
6.2361561237
 11
-29.1638438763
 21
6.2361561237
  0
LINE
  5
41C
100
AcDbEntity
  8
ASSI
100
AcDbLine
 62
7
  6
CONTINUOUS
 10
29.1361561237
 20
6.2361561237
 11
27.6361561237
 21
6.2361561237
  0
LINE
  5
41D
100
AcDbEntity
  8
RACCORDO
100
AcDbLine
 62
7
  6
CONTINUOUS
 10
24.2861561237
 20
2.245080339
 11
24.4927611446
 21
2.2263261945
  0
LINE
  5
41E
100
AcDbEntity
  8
RACCORDO
100
AcDbLine
 62
250
  6
CONTINUOUS
 10
25.7021071247
 20
-0.6005057672
 11
26.0855143663
 21
-0.6912389476
  0
LINE
  5
41F
100
AcDbEntity
  8
RACCORDO
100
AcDbLine
 62
250
  6
CONTINUOUS
 10
25.611020258
 20
-0.4556389605
 11
25.9944296275
 21
-0.5463726445
  0
LINE
  5
420
100
AcDbEntity
  8
RACCORDO
100
AcDbLine
 62
250
  6
CONTINUOUS
 10
26.1045775549
 20
-0.1901092901
 11
25.5942013164
 21
-0.0539741634
  0
LINE
  5
421
100
AcDbEntity
  8
RACCORDO
100
AcDbLine
 62
250
  6
CONTINUOUS
 10
25.0929524163
 20
-0.4720908762
 11
25.5722033141
 21
-0.6005057672
  0
LINE
  5
422
100
AcDbEntity
  8
RACCORDO
100
AcDbLine
 62
250
  6
CONTINUOUS
 10
25.2429352824
 20
-0.3570108886
 11
25.611020258
 21
-0.4556389605
  0
LINE
  5
423
100
AcDbEntity
  8
RACCORDO
100
AcDbLine
 62
250
  6
CONTINUOUS
 10
26.012253955
 20
-0.4798429034
 11
25.2835883714
 21
-0.2840725753
  0
LWPOLYLINE
  5
424
100
AcDbEntity
  8
RACCORDO
100
AcDbPolyline
 62
250
  6
CONTINUOUS
 90
34
 70
0
 10
26.0855143663
 20
-0.6912389476
 10
26.0918385354
 20
-0.6930916882
 10
26.0978207805
 20
-0.6953510946
 10
26.1034611016
 20
-0.6980171668
 10
26.1087653961
 20
-0.7011188729
 10
26.1137277665
 20
-0.7046272448
 10
26.1183305203
 20
-0.7084553781
 10
26.122578648
 20
-0.7126001737
 10
26.1264671591
 20
-0.7170647307
 10
26.1299633893
 20
-0.7217714429
 10
26.1330647593
 20
-0.7266993374
 10
26.1357738483
 20
-0.7318693871
 10
26.1380657293
 20
-0.7372669046
 10
26.1399564729
 20
-0.7429238819
 10
26.1414300084
 20
-0.7488083269
 10
26.1424131966
 20
-0.7548095757
 10
26.1428797691
 20
-0.7609739724
 10
26.1428559942
 20
-0.7672551728
 10
26.142347538
 20
-0.773403481
 10
26.141331341
 20
-0.7793672822
 10
26.1398304627
 20
-0.7851981912
 10
26.1379197479
 20
-0.7908013562
 10
26.135616871
 20
-0.7961486322
 10
26.1329041574
 20
-0.8012681642
 10
26.1298034288
 20
-0.8061495352
 10
26.1263112899
 20
-0.810815318
 10
26.1224311358
 20
-0.8152429398
 10
26.118194973
 20
-0.8193542651
 10
26.1136079686
 20
-0.8231519493
 10
26.1086649555
 20
-0.826633337
 10
26.1033824383
 20
-0.8297123266
 10
26.0977659184
 20
-0.8323602176
 10
26.0918098944
 20
-0.8346057104
 10
26.0855143663
 20
-0.836448805
  0
LWPOLYLINE
  5
425
100
AcDbEntity
  8
RACCORDO
100
AcDbPolyline
 62
250
  6
CONTINUOUS
 90
34
 70
0
 10
25.9944296162
 20
-0.5463726867
 10
26.0131627562
 20
-0.5520745952
 10
26.0309793444
 20
-0.5592301963
 10
26.0477843746
 20
-0.5676947134
 10
26.0634476267
 20
-0.5772841323
 10
26.0779725813
 20
-0.5878801074
 10
26.0914643866
 20
-0.5994744066
 10
26.1038828006
 20
-0.611974631
 10
26.1151653861
 20
-0.6252580443
 10
26.1253491216
 20
-0.6393266986
 10
26.1343663302
 20
-0.6540558523
 10
26.1421981486
 20
-0.6693776439
 10
26.14889445
 20
-0.6854198566
 10
26.1544011093
 20
-0.7021815424
 10
26.1586099917
 20
-0.7194949457
 10
26.1614519527
 20
-0.7372485668
 10
26.1628747646
 20
-0.7554495801
 10
26.1628082485
 20
-0.7738657736
 10
26.1612590108
 20
-0.7920151381
 10
26.15831107
 20
-0.8096542224
 10
26.1540252701
 20
-0.8268074614
 10
26.1484660254
 20
-0.8434067703
 10
26.141737181
 20
-0.8592968316
 10
26.1338943666
 20
-0.874469027
 10
26.1248805413
 20
-0.8890609164
 10
26.1147084082
 20
-0.9030100573
 10
26.1034462612
 20
-0.9161871663
 10
26.0910601981
 20
-0.9285887404
 10
26.0776133769
 20
-0.9400919664
 10
26.0631434005
 20
-0.950607211
 10
26.0475449169
 20
-0.9601264174
 10
26.030813719
 20
-0.9685324303
 10
26.0130783197
 20
-0.9756429471
 10
25.9944321012
 20
-0.9813144253
  0
LWPOLYLINE
  5
426
100
AcDbEntity
  8
RACCORDO
100
AcDbPolyline
 62
250
  6
CONTINUOUS
 90
13
 70
0
 10
25.611020258
 20
-0.4556389605
 10
25.6245241392
 20
-0.4603622157
 10
25.6374044874
 20
-0.4668146668
 10
25.6494997546
 20
-0.4749242522
 10
25.660662068
 20
-0.4846028776
 10
25.6707427408
 20
-0.4957336362
 10
25.6795997497
 20
-0.5081654199
 10
25.6871198847
 20
-0.5217371717
 10
25.6932143507
 20
-0.536286105
 10
25.6978074643
 20
-0.5516313821
 10
25.7008423367
 20
-0.5675824728
 10
25.7022814699
 20
-0.5839415816
 10
25.7021071247
 20
-0.6005057672
  0
LWPOLYLINE
  5
427
100
AcDbEntity
  8
RACCORDO
100
AcDbPolyline
 62
250
  6
CONTINUOUS
 90
13
 70
0
 10
25.9944274995
 20
-0.546372141
 10
26.0079926927
 20
-0.5511214066
 10
26.0209096282
 20
-0.5576050659
 10
26.0330184045
 20
-0.5657429011
 10
26.0441691162
 20
-0.5754342137
 10
26.0542237164
 20
-0.5865590757
 10
26.0630577244
 20
-0.5989798153
 10
26.0705617664
 20
-0.6125427248
 10
26.0766429078
 20
-0.6270799225
 10
26.0812258225
 20
-0.6424114287
 10
26.0842537524
 20
-0.6583474478
 10
26.0856891978
 20
-0.6746907257
 10
26.0855143663
 20
-0.6912389476
  0
LWPOLYLINE
  5
428
100
AcDbEntity
  8
RACCORDO
100
AcDbPolyline
 62
250
  6
CONTINUOUS
 90
3
 70
0
 10
-31.3091522749
 20
27.6751580274
 10
-34.6345107931
 20
29.7586845912
 10
-35.7251338552
 20
30.4432140735
  0
LINE
  5
429
100
AcDbEntity
  8
RACCORDO
100
AcDbLine
 62
250
  6
CONTINUOUS
 10
-30.1854043003
 20
26.9703330723
 11
-31.3091522749
 21
27.6751580274
  0
LWPOLYLINE
  5
42A
100
AcDbEntity
  8
RACCORDO
100
AcDbPolyline
 62
250
  6
CONTINUOUS
 90
3
 70
0
 10
-25.6638438763
 20
24.1361561237
 10
-26.7965721206
 20
24.847133967
 10
-30.1854043003
 20
26.9703330723
  0
LINE
  5
42B
100
AcDbEntity
  8
RACCORDO
100
AcDbLine
 62
250
  6
CONTINUOUS
 10
30.443214177
 20
-35.7251338102
 11
29.758695736
 21
-34.6345287195
  0
LINE
  5
42C
100
AcDbEntity
  8
RACCORDO
100
AcDbLine
 62
250
  6
CONTINUOUS
 10
24.8471832318
 20
-26.7966500023
 11
24.1361561237
 21
-25.6638438763
  0
LINE
  5
42D
100
AcDbEntity
  8
RACCORDO
100
AcDbLine
 62
250
  6
CONTINUOUS
 10
29.758695736
 20
-34.6345287195
 11
24.8471832318
 21
-26.7966500023
  0
LINE
  5
42E
100
AcDbEntity
  8
0
100
AcDbLine
 62
250
  6
CONTINUOUS
 10
1.9133071237
 20
15.0361561237
 11
0.7605311237
 21
17.4632601237
  0
LINE
  5
42F
100
AcDbEntity
  8
RACCORDO
100
AcDbLine
 62
7
  6
CONTINUOUS
 10
20.0304027594
 20
-36.2810048291
 11
19.8664581554
 21
-35.8436888376
  0
LINE
  5
430
100
AcDbEntity
  8
0
100
AcDbLine
 62
250
  6
CONTINUOUS
 10
-0.1391648763
 20
15.0361561237
 11
-1.1473388763
 21
17.9361561237
  0
LINE
  5
431
100
AcDbEntity
  8
0
100
AcDbLine
 62
250
  6
CONTINUOUS
 10
11.8575843094
 20
17.3861561237
 11
11.8575843094
 21
15.5861561237
  0
LINE
  5
432
100
AcDbEntity
  8
0
100
AcDbLine
 62
250
  6
CONTINUOUS
 10
15.2004413066
 20
15.9718704132
 11
15.5861558376
 21
17.3861561237
  0
LINE
  5
433
100
AcDbEntity
  8
0
100
AcDbLine
 62
250
  6
CONTINUOUS
 10
-2.3162248912
 20
-20.1424152913
 11
-2.1638437571
 21
-19.9138438763
  0
LINE
  5
434
100
AcDbEntity
  8
0
100
AcDbLine
 62
250
  6
CONTINUOUS
 10
-4.906701118
 20
-21.5138438763
 11
-4.106701118
 21
-20.3709867062
  0
LINE
  5
435
100
AcDbEntity
  8
0
100
AcDbLine
 62
250
  6
CONTINUOUS
 10
-8.4495581927
 20
-20.1424152913
 11
-8.2209867778
 21
-19.9138438763
  0
LINE
  5
436
100
AcDbEntity
  8
0
100
AcDbLine
 62
250
  6
CONTINUOUS
 10
-7.1924152674
 20
-20.1424152913
 11
-6.9638439479
 21
-19.9138438763
  0
LINE
  5
437
100
AcDbEntity
  8
0
100
AcDbLine
 62
250
  6
CONTINUOUS
 10
-7.8781296076
 20
-21.2852724375
 11
-8.1067009272
 21
-21.5138438763
  0
LINE
  5
438
100
AcDbEntity
  8
0
100
AcDbLine
 62
250
  6
CONTINUOUS
 10
-6.6209867778
 20
-21.2852724375
 11
-6.8495580973
 21
-21.5138438763
  0
LINE
  5
439
100
AcDbEntity
  8
0
100
AcDbLine
 62
250
  6
CONTINUOUS
 10
-5.5924154582
 20
-21.5138438763
 11
-5.3638437571
 21
-21.2852724375
  0
LINE
  5
43A
100
AcDbEntity
  8
RACCORDO
100
AcDbLine
 62
7
  6
CONTINUOUS
 10
25.2835883714
 20
-0.2840725753
 11
25.2833318052
 21
-0.284185618
  0
LWPOLYLINE
  5
43B
100
AcDbEntity
  8
RACCORDO
100
AcDbPolyline
 62
250
  6
CONTINUOUS
 90
13
 70
0
 10
25.611020258
 20
-1.0720487921
 10
25.6245861011
 20
-1.0672992763
 10
25.6375035147
 20
-1.0608152938
 10
25.6496125982
 20
-1.0526771079
 10
25.6607634573
 20
-1.0429854585
 10
25.670818059
 20
-1.0318603154
 10
25.6796519407
 20
-1.0194393931
 10
25.6871557507
 20
-1.0058764463
 10
25.6932366016
 20
-0.9913393662
 10
25.6978192207
 20
-0.9760081026
 10
25.7008468812
 20
-0.9600724364
 10
25.7022821045
 20
-0.9437296299
 10
25.7021071247
 20
-0.9271819855
  0
LWPOLYLINE
  5
43C
100
AcDbEntity
  8
RACCORDO
100
AcDbPolyline
 62
250
  6
CONTINUOUS
 90
13
 70
0
 10
25.9944274995
 20
-0.9813156117
 10
26.0079933426
 20
-0.9765660958
 10
26.0209107562
 20
-0.9700821133
 10
26.0330198397
 20
-0.9619439274
 10
26.0441706988
 20
-0.952252278
 10
26.0542253005
 20
-0.9411271349
 10
26.0630591823
 20
-0.9287062126
 10
26.0705629922
 20
-0.9151432658
 10
26.0766438432
 20
-0.9006061857
 10
26.0812264623
 20
-0.8852749222
 10
26.0842541227
 20
-0.8693392559
 10
26.0856893461
 20
-0.8529964495
 10
26.0855143663
 20
-0.836448805
  0
LWPOLYLINE
  5
43D
100
AcDbEntity
  8
RACCORDO
100
AcDbPolyline
 62
250
  6
CONTINUOUS
 90
37
 70
0
 10
26.012253955
 20
-1.0478448492
 10
26.0330596436
 20
-1.0413965801
 10
26.053273619
 20
-1.0334512323
 10
26.0727906949
 20
-1.0240648247
 10
26.0915084801
 20
-1.0133017608
 10
26.1093355082
 20
-1.0012309218
 10
26.1261906561
 20
-0.9879233636
 10
26.1419908586
 20
-0.9734596262
 10
26.156660771
 20
-0.9579244652
 10
26.1701383028
 20
-0.9413997631
 10
26.1823607071
 20
-0.9239768416
 10
26.1932705791
 20
-0.9057531251
 10
26.2028219662
 20
-0.8868228788
 10
26.2109700536
 20
-0.8672938261
 10
26.2176829393
 20
-0.8472641088
 10
26.2229391271
 20
-0.8268144409
 10
26.2267145033
 20
-0.8060452541
 10
26.228990183
 20
-0.7850686687
 10
26.2297566759
 20
-0.763982909
 10
26.2290101121
 20
-0.7428965011
 10
26.2267541954
 20
-0.7219173361
 10
26.2229980131
 20
-0.7011427228
 10
26.2177601573
 20
-0.6806852927
 10
26.2110642905
 20
-0.6606452009
 10
26.2029306198
 20
-0.6411013073
 10
26.1933892311
 20
-0.6221503305
 10
26.1824849708
 20
-0.603902597
 10
26.1702656841
 20
-0.5864564008
 10
26.1567907571
 20
-0.5699114525
 10
26.1421215831
 20
-0.5543569123
 10
26.1263172884
 20
-0.5398721388
 10
26.1094510665
 20
-0.5265414256
 10
26.091607279
 20
-0.5144477478
 10
26.0728690673
 20
-0.5036642464
 10
26.0533288669
 20
-0.4942606301
 10
26.0330886555
 20
-0.4863013561
 10
26.012253955
 20
-0.4798429034
  0
LWPOLYLINE
  5
43E
100
AcDbEntity
  8
RACCORDO
100
AcDbPolyline
 62
250
  6
CONTINUOUS
 90
37
 70
0
 10
26.1045775549
 20
-1.3375784626
 10
26.1471115228
 20
-1.3244525868
 10
26.1880822533
 20
-1.3085330808
 10
26.2274899455
 20
-1.2898199447
 10
26.2655255136
 20
-1.2681612914
 10
26.3019984223
 20
-1.243709008
 10
26.3363367785
 20
-1.2169187553
 10
26.3684883883
 20
-1.1877689641
 10
26.3985059848
 20
-1.1562812036
 10
26.4259751856
 20
-1.1229758428
 10
26.450857783
 20
-1.087829982
 10
26.473192533
 20
-1.0508665209
 10
26.4926805483
 20
-1.012674527
 10
26.5092791384
 20
-0.9732546739
 10
26.5230314388
 20
-0.9326062881
 10
26.5337672924
 20
-0.8913164165
 10
26.5414521388
 20
-0.8493692138
 10
26.5461207862
 20
-0.8067805253
 10
26.5477070832
 20
-0.7641849347
 10
26.5461689235
 20
-0.7215809704
 10
26.541548414
 20
-0.678970104
 10
26.5339056628
 20
-0.6369913337
 10
26.5232050389
 20
-0.5956604332
 10
26.509481926
 20
-0.5549616287
 10
26.4929029059
 20
-0.515486598
 10
26.473422255
 20
-0.4772329857
 10
26.4510852504
 20
-0.4402031472
 10
26.426194966
 20
-0.4049958259
 10
26.398715676
 20
-0.3716381277
 10
26.3686825565
 20
-0.3401029467
 10
26.3365050832
 20
-0.3109077087
 10
26.3021209643
 20
-0.2840693571
 10
26.2655919481
 20
-0.2595709485
 10
26.227513693
 20
-0.2378790779
 10
26.1880846591
 20
-0.2191492772
 10
26.1471060121
 20
-0.2032260146
 10
26.1045775549
 20
-0.1901092901
  0
LINE
  5
43F
100
AcDbEntity
  8
ASSI
100
AcDbLine
 62
7
  6
CONTINUOUS
 10
-23.0638438763
 20
10.4861561237
 11
21.5361561237
 21
10.4861561237
  0
LINE
  5
440
100
AcDbEntity
  8
RACCORDO
100
AcDbLine
 62
7
  6
CONTINUOUS
 10
25.2835883714
 20
-1.2436151773
 11
25.2833318052
 21
-1.2435021347
  0
LWPOLYLINE
  5
441
100
AcDbEntity
  8
RACCORDO
100
AcDbPolyline
 62
7
  6
CONTINUOUS
 90
6
 70
0
 10
25.2835883207
 20
-1.2436151659
 10
25.2858698787
 20
-1.244904416
 10
25.2903505433
 20
-1.2476401097
 10
25.2968634366
 20
-1.2518222471
 10
25.3052241175
 20
-1.2575735285
 10
25.3268231704
 20
-1.2730473212
  0
LINE
  5
442
100
AcDbEntity
  8
0
100
AcDbLine
 62
250
  6
CONTINUOUS
 10
1.1019001237
 20
17.9361561237
 11
2.2145151237
 21
15.6380431237
  0
LINE
  5
443
100
AcDbEntity
  8
0
100
AcDbLine
 62
250
  6
CONTINUOUS
 10
5.8857611237
 20
15.0361561237
 11
4.8776961237
 21
17.9361561237
  0
LINE
  5
444
100
AcDbEntity
  8
0
100
AcDbLine
 62
250
  6
CONTINUOUS
 10
5.0503451237
 20
15.6507951237
 11
5.2593351237
 21
15.0361561237
  0
LINE
  5
445
100
AcDbEntity
  8
0
100
AcDbLine
 62
250
  6
CONTINUOUS
 10
4.4922101237
 20
17.3818331237
 11
4.8936301237
 21
16.1327281237
  0
LINE
  5
446
100
AcDbEntity
  8
0
100
AcDbLine
 62
250
  6
CONTINUOUS
 10
12.9718700109
 20
15.5861561237
 11
12.9718700109
 21
16.4861561237
  0
LINE
  5
447
100
AcDbEntity
  8
0
100
AcDbLine
 62
250
  6
CONTINUOUS
 10
13.786155623
 20
16.4861561237
 11
13.786155623
 21
15.8432989923
  0
LINE
  5
448
100
AcDbEntity
  8
0
100
AcDbLine
 62
250
  6
CONTINUOUS
 10
14.3686021237
 20
-15.9658068763
 11
14.3686021237
 21
-16.7166238763
  0
LINE
  5
449
100
AcDbEntity
  8
0
100
AcDbLine
 62
250
  6
CONTINUOUS
 10
14.3686021237
 20
-20.3110638763
 11
14.3686021237
 21
-21.0618808763
  0
LINE
  5
44A
100
AcDbEntity
  8
0
100
AcDbLine
 62
250
  6
CONTINUOUS
 10
14.686155623
 20
15.8432989923
 11
14.686155623
 21
16.3575847028
  0
LINE
  5
44B
100
AcDbEntity
  8
0
100
AcDbLine
 62
250
  6
CONTINUOUS
 10
15.8004415927
 20
15.5861561237
 11
15.8004415927
 21
16.4861561237
  0
LWPOLYLINE
  5
44C
100
AcDbEntity
  8
RACCORDO
100
AcDbPolyline
 62
250
  6
CONTINUOUS
 90
13
 70
0
 10
35.2815793588
 20
30.7749135478
 10
35.2771951291
 20
30.7675571979
 10
35.2527292462
 20
30.7522687288
 10
35.2108547383
 20
30.7332197679
 10
35.1520811212
 20
30.7106420969
 10
35.0771235337
 20
30.684810433
 10
34.9868940358
 20
30.6560390874
 10
34.8824905113
 20
30.6246781399
 10
34.765183309
 20
30.5911091804
 10
34.6363997857
 20
30.5557406647
 10
34.4977069382
 20
30.5190029451
 10
34.3507923368
 20
30.4813430339
 10
34.1974435918
 20
30.4432191642
  0
LINE
  5
44D
100
AcDbEntity
  8
0
100
AcDbLine
 62
250
  6
CONTINUOUS
 10
-2.3924150767
 20
-20.8281295838
 11
-2.1638437571
 21
-20.5995581212
  0
LINE
  5
44E
100
AcDbEntity
  8
0
100
AcDbLine
 62
250
  6
CONTINUOUS
 10
-1.5924150767
 20
-21.2852724375
 11
-1.8209863963
 21
-21.5138438763
  0
LWPOLYLINE
  5
44F
100
AcDbEntity
  8
RACCORDO
100
AcDbPolyline
 62
250
  6
CONTINUOUS
 90
16
 70
0
 10
24.1361561237
 20
2.6560984335
 10
24.1136153028
 20
2.6340035362
 10
24.0931140643
 20
2.6114976777
 10
24.0746524081
 20
2.5885808581
 10
24.0583153692
 20
2.5650735838
 10
24.0440179127
 20
2.5411553483
 10
24.0315049335
 20
2.5173646321
 10
24.0208005577
 20
2.4937362082
 10
24.0118806592
 20
2.4702353036
 10
24.0044177553
 20
2.4472960791
 10
23.9984295788
 20
2.4251408992
 10
23.9938983968
 20
2.4035473995
 10
23.9904435284
 20
2.3822826468
 10
23.9879380799
 20
2.3612689968
 10
23.986508945
 20
2.3405840939
 10
23.9861561237
 20
2.320227938
  0
LINE
  5
450
100
AcDbEntity
  8
RACCORDO
100
AcDbLine
 62
7
  6
CONTINUOUS
 10
25.5746881805
 20
-0.0690186219
 11
25.5942013164
 21
-0.0539844643
  0
LINE
  5
451
100
AcDbEntity
  8
RACCORDO
100
AcDbLine
 62
7
  6
CONTINUOUS
 10
25.1714215868
 20
-0.4118621906
 11
25.1044163078
 21
-0.4633902717
  0
LINE
  5
452
100
AcDbEntity
  8
RACCORDO
100
AcDbLine
 62
7
  6
CONTINUOUS
 10
25.1817554088
 20
-0.4039823414
 11
25.1714215868
 21
-0.4118621906
  0
LWPOLYLINE
  5
453
100
AcDbEntity
  8
RACCORDO
100
AcDbPolyline
 62
7
  6
CONTINUOUS
 90
3
 70
0
 10
25.2095276358
 20
-0.3826794252
 10
25.2008353502
 20
-0.3892905034
 10
25.1817554088
 20
-0.4039823414
  0
LINE
  5
454
100
AcDbEntity
  8
RACCORDO
100
AcDbLine
 62
7
  6
CONTINUOUS
 10
25.1044163078
 20
-0.4633902717
 11
25.0929524163
 21
-0.4720908762
  0
LINE
  5
455
100
AcDbEntity
  8
RACCORDO
100
AcDbLine
 62
7
  6
CONTINUOUS
 10
25.4382660766
 20
-0.1722242896
 11
25.5746881805
 21
-0.0690186219
  0
LINE
  5
456
100
AcDbEntity
  8
0
100
AcDbLine
 62
250
  6
CONTINUOUS
 10
-1.6686060252
 20
-20.4852724614
 11
-1.8209863963
 21
-20.5995581212
  0
LINE
  5
457
100
AcDbEntity
  8
RACCORDO
100
AcDbLine
 62
7
  6
CONTINUOUS
 10
25.385263529
 20
-0.2117831529
 11
25.4382660766
 21
-0.1722242896
  0
LINE
  5
458
100
AcDbEntity
  8
RACCORDO
100
AcDbLine
 62
7
  6
CONTINUOUS
 10
25.3397490987
 20
-0.2453040062
 11
25.385263529
 21
-0.2117831529
  0
LWPOLYLINE
  5
459
100
AcDbEntity
  8
RACCORDO
100
AcDbPolyline
 62
7
  6
CONTINUOUS
 90
3
 70
0
 10
25.3052241175
 20
-0.2701142242
 10
25.3268231704
 20
-0.2546404314
 10
25.3397490987
 20
-0.2453040062
  0
LWPOLYLINE
  5
45A
100
AcDbEntity
  8
RACCORDO
100
AcDbPolyline
 62
7
  6
CONTINUOUS
 90
7
 70
0
 10
25.2429352824
 20
-0.3570108886
 10
25.2417642241
 20
-0.357756802
 10
25.2393198036
 20
-0.3596587237
 10
25.2356305795
 20
-0.362610071
 10
25.2306368788
 20
-0.3664712503
 10
25.2244611498
 20
-0.3711475748
 10
25.2095276358
 20
-0.3826794252
  0
LWPOLYLINE
  5
45B
100
AcDbEntity
  8
RACCORDO
100
AcDbPolyline
 62
250
  6
CONTINUOUS
 90
13
 70
0
 10
-32.3025747524
 20
-36.8092733121
 10
-32.29525083
 20
-36.8049089219
 10
-32.2799620962
 20
-36.7804431585
 10
-32.2609127546
 20
-36.7385681855
 10
-32.2383345989
 20
-36.6797935401
 10
-32.2125023612
 20
-36.6048343956
 10
-32.1837303694
 20
-36.5146028594
 10
-32.1523687229
 20
-36.4101968742
 10
-32.1187990318
 20
-36.2928868582
 10
-32.0834297742
 20
-36.1641002467
 10
-32.0466913252
 20
-36.0254041226
 10
-32.0090307203
 20
-35.8784861488
 10
-31.9709062159
 20
-35.7251340317
  0
LWPOLYLINE
  5
45C
100
AcDbEntity
  8
RACCORDO
100
AcDbPolyline
 62
7
  6
CONTINUOUS
 90
5
 70
0
 10
25.2835883207
 20
-0.2840725867
 10
25.2858698787
 20
-0.2827833367
 10
25.2903505433
 20
-0.280047643
 10
25.2968634366
 20
-0.2758655056
 10
25.3052241175
 20
-0.2701142242
  0
LWPOLYLINE
  5
45D
100
AcDbEntity
  8
RACCORDO
100
AcDbPolyline
 62
7
  6
CONTINUOUS
 90
10
 70
0
 10
25.283575476
 20
-3.2665830991
 10
25.2845325942
 20
-3.2660738785
 10
25.2861868299
 20
-3.2648954442
 10
25.2885228671
 20
-3.2630477961
 10
25.2915315292
 20
-3.2604987904
 10
25.2951902499
 20
-3.257280571
 10
25.2994482112
 20
-3.2534895692
 10
25.3042641458
 20
-3.2491192024
 10
25.3096106034
 20
-3.2441760532
 10
25.3217109217
 20
-3.2329190467
  0
LINE
  5
45E
100
AcDbEntity
  8
RACCORDO
100
AcDbLine
 62
250
  6
CONTINUOUS
 10
25.4305986949
 20
-3.2666223786
 11
25.3497307031
 21
-3.3070532952
  0
LINE
  5
45F
100
AcDbEntity
  8
RACCORDO
100
AcDbLine
 62
250
  6
CONTINUOUS
 10
25.5803452756
 20
-3.4167319451
 11
25.4997078573
 21
-3.4570475837
  0
LINE
  5
460
100
AcDbEntity
  8
0
100
AcDbLine
 62
250
  6
CONTINUOUS
 10
-12.0018756527
 20
14.9992966704
 11
-11.378252702
 21
14.9992966704
  0
LINE
  5
461
100
AcDbEntity
  8
0
100
AcDbLine
 62
250
  6
CONTINUOUS
 10
-10.4194020484
 20
14.9992966704
 11
-9.8171258795
 21
14.9992966704
  0
LINE
  5
462
100
AcDbEntity
  8
0
100
AcDbLine
 62
250
  6
CONTINUOUS
 10
-18.7563888763
 20
14.9992971237
 11
-18.1302468763
 21
14.9992971237
  0
LINE
  5
463
100
AcDbEntity
  8
0
100
AcDbLine
 62
250
  6
CONTINUOUS
 10
-12.1857418763
 20
14.9992971237
 11
-12.8456698763
 21
14.9992971237
  0
LINE
  5
464
100
AcDbEntity
  8
0
100
AcDbLine
 62
250
  6
CONTINUOUS
 10
-14.0333518763
 20
14.9992971237
 11
-14.6527008763
 21
14.9992971237
  0
LINE
  5
465
100
AcDbEntity
  8
0
100
AcDbLine
 62
250
  6
CONTINUOUS
 10
-14.7510218763
 20
14.9992971237
 11
-15.3635548763
 21
14.9992971237
  0
LINE
  5
466
100
AcDbEntity
  8
0
100
AcDbLine
 62
250
  6
CONTINUOUS
 10
-16.2366808763
 20
14.9992971237
 11
-16.3244978763
 21
14.9992971237
  0
LINE
  5
467
100
AcDbEntity
  8
0
100
AcDbLine
 62
250
  6
CONTINUOUS
 10
-17.1941598763
 20
14.9992971237
 11
-17.7931738763
 21
14.9992971237
  0
LINE
  5
468
100
AcDbEntity
  8
0
100
AcDbLine
 62
250
  6
CONTINUOUS
 10
-19.9529558763
 20
14.9992971237
 11
-20.5047438763
 21
14.9992971237
  0
LINE
  5
469
100
AcDbEntity
  8
0
100
AcDbLine
 62
250
  6
CONTINUOUS
 10
-2.9347248763
 20
15.0361561237
 11
-2.3402748763
 21
15.0361561237
  0
LINE
  5
46A
100
AcDbEntity
  8
0
100
AcDbLine
 62
250
  6
CONTINUOUS
 10
2.7969591237
 20
15.0361561237
 11
1.9133071237
 21
15.0361561237
  0
LINE
  5
46B
100
AcDbEntity
  8
0
100
AcDbLine
 62
250
  6
CONTINUOUS
 10
-0.7658078763
 20
15.0361561237
 11
-0.1391648763
 21
15.0361561237
  0
LINE
  5
46C
100
AcDbEntity
  8
0
100
AcDbLine
 62
250
  6
CONTINUOUS
 10
0.7605311237
 20
15.0361561237
 11
0.1780861237
 21
15.0361561237
  0
LINE
  5
46D
100
AcDbEntity
  8
0
100
AcDbLine
 62
250
  6
CONTINUOUS
 10
3.0902011237
 20
15.0361561237
 11
3.6846501237
 21
15.0361561237
  0
LINE
  5
46E
100
AcDbEntity
  8
0
100
AcDbLine
 62
250
  6
CONTINUOUS
 10
-3.2475008763
 20
15.0361561237
 11
-4.9431058763
 21
15.0361561237
  0
LINE
  5
46F
100
AcDbEntity
  8
0
100
AcDbLine
 62
250
  6
CONTINUOUS
 10
5.2593351237
 20
15.0361561237
 11
5.8857611237
 21
15.0361561237
  0
LINE
  5
470
100
AcDbEntity
  8
0
100
AcDbLine
 62
250
  6
CONTINUOUS
 10
-6.7908428763
 20
15.0361561237
 11
-7.4134488763
 21
15.0361561237
  0
LINE
  5
471
100
AcDbEntity
  8
0
100
AcDbLine
 62
250
  6
CONTINUOUS
 10
-4.3204998763
 20
15.5180881237
 11
-3.2475008763
 21
15.5180881237
  0
LINE
  5
472
100
AcDbEntity
  8
0
100
AcDbLine
 62
250
  6
CONTINUOUS
 10
14.0432985721
 20
15.5861561237
 11
14.4290128885
 21
15.5861561237
  0
LINE
  5
473
100
AcDbEntity
  8
0
100
AcDbLine
 62
250
  6
CONTINUOUS
 10
-13.0078738763
 20
15.5981311237
 11
-13.8605748763
 21
15.5981311237
  0
LINE
  5
474
100
AcDbEntity
  8
0
100
AcDbLine
 62
250
  6
CONTINUOUS
 10
-2.1234268763
 20
15.6507951237
 11
-0.9746898763
 21
15.6507951237
  0
LINE
  5
475
100
AcDbEntity
  8
0
100
AcDbLine
 62
250
  6
CONTINUOUS
 10
3.9016071237
 20
15.6507951237
 11
5.0503451237
 21
15.6507951237
  0
LWPOLYLINE
  5
476
100
AcDbEntity
  8
0
100
AcDbPolyline
 62
250
  6
CONTINUOUS
 90
30
 70
0
 10
-10.4566520703
 20
17.9323085074
 10
-10.4928994679
 20
17.9447917254
 10
-10.529498842
 20
17.9562169942
 10
-10.5664181268
 20
17.9666314767
 10
-10.6036252568
 20
17.9760823362
 10
-10.6410881663
 20
17.984616736
 10
-10.6787747897
 20
17.9922818391
 10
-10.7166530614
 20
17.9991248088
 10
-10.7546909158
 20
18.0051928084
 10
-10.7928562872
 20
18.0105330008
 10
-10.83111711
 20
18.0151925495
 10
-10.8694413187
 20
18.0192186174
 10
-10.9077968476
 20
18.022658368
 10
-10.9641728578
 20
18.0267348417
 10
-11.0205448864
 20
18.0297139179
 10
-11.0769105617
 20
18.0316627318
 10
-11.1332675122
 20
18.0326484186
 10
-11.1896133662
 20
18.0327381134
 10
-11.2459457521
 20
18.0319989515
 10
-11.3022622983
 20
18.030498068
 10
-11.3585606332
 20
18.0283025982
 10
-11.4303008315
 20
18.0245876156
 10
-11.5019980575
 20
18.0199006691
 10
-11.5736427901
 20
18.0142895326
 10
-11.6452255084
 20
18.0078019797
 10
-11.7167366915
 20
18.0004857841
 10
-11.7881668184
 20
17.9923887194
 10
-11.8595063682
 20
17.9835585593
 10
-11.93074582
 20
17.9740430775
 10
-12.0018756527
 20
17.9638900477
  0
LINE
  5
477
100
AcDbEntity
  8
RACCORDO
100
AcDbLine
 62
250
  6
CONTINUOUS
 10
25.3497307031
 20
1.7793655425
 11
25.4305986949
 21
1.738934626
  0
LINE
  5
478
100
AcDbEntity
  8
RACCORDO
100
AcDbLine
 62
250
  6
CONTINUOUS
 10
25.4997078573
 20
1.929359831
 11
25.5803452756
 21
1.8890441925
  0
LWPOLYLINE
  5
479
100
AcDbEntity
  8
RACCORDO
100
AcDbPolyline
 62
7
  6
CONTINUOUS
 90
8
 70
0
 10
25.283575476
 20
1.7388953464
 10
25.2845325933
 20
1.7383861265
 10
25.2861868273
 20
1.7372076936
 10
25.2885228619
 20
1.7353600477
 10
25.2915315206
 20
1.7328110452
 10
25.295190237
 20
1.7295928298
 10
25.2994481935
 20
1.7258018325
 10
25.3042641227
 20
1.7214314708
  0
LWPOLYLINE
  5
47A
100
AcDbEntity
  8
RACCORDO
100
AcDbPolyline
 62
250
  6
CONTINUOUS
 90
13
 70
0
 10
-32.3026012785
 20
35.281579364
 10
-32.2952449294
 20
35.2771951351
 10
-32.2799564608
 20
35.252729253
 10
-32.2609075006
 20
35.2108547459
 10
-32.2383298302
 20
35.1520811296
 10
-32.212498167
 20
35.0771235427
 10
-32.1837268221
 20
34.9868940452
 10
-32.1523658753
 20
34.8824905211
 10
-32.1187969165
 20
34.7651833191
 10
-32.0834284014
 20
34.6363997959
 10
-32.0466906825
 20
34.4977069484
 10
-32.0090307719
 20
34.350792347
 10
-31.9709069029
 20
34.1974436019
  0
LWPOLYLINE
  5
47B
100
AcDbEntity
  8
RACCORDO
100
AcDbPolyline
 62
7
  6
CONTINUOUS
 90
6
 70
0
 10
25.2429352824
 20
-1.1706768641
 10
25.2417642241
 20
-1.1699309507
 10
25.2393198036
 20
-1.168029029
 10
25.2356305795
 20
-1.1650776817
 10
25.2306368788
 20
-1.1612165023
 10
25.2244611498
 20
-1.1565401778
  0
LINE
  5
47C
100
AcDbEntity
  8
RACCORDO
100
AcDbLine
 62
7
  6
CONTINUOUS
 10
25.3268231704
 20
-1.2730473212
 11
25.3397490987
 21
-1.2823837464
  0
LWPOLYLINE
  5
47D
100
AcDbEntity
  8
RACCORDO
100
AcDbPolyline
 62
7
  6
CONTINUOUS
 90
3
 70
0
 10
25.3397490987
 20
-1.2823837464
 10
25.385263529
 20
-1.3159045997
 10
25.4382660766
 20
-1.3554634631
  0
LINE
  5
47E
100
AcDbEntity
  8
RACCORDO
100
AcDbLine
 62
7
  6
CONTINUOUS
 10
25.4382660766
 20
-1.3554634631
 11
25.4957527373
 21
-1.3987699284
  0
LINE
  5
47F
100
AcDbEntity
  8
RACCORDO
100
AcDbLine
 62
7
  6
CONTINUOUS
 10
25.1044163078
 20
-1.064297481
 11
25.0929524163
 21
-1.0555968765
  0
LWPOLYLINE
  5
480
100
AcDbEntity
  8
RACCORDO
100
AcDbPolyline
 62
7
  6
CONTINUOUS
 90
3
 70
0
 10
25.4957527373
 20
-1.3987699284
 10
25.5746881805
 20
-1.4586691308
 10
25.5942013164
 20
-1.4737032884
  0
LWPOLYLINE
  5
481
100
AcDbEntity
  8
RACCORDO
100
AcDbPolyline
 62
7
  6
CONTINUOUS
 90
3
 70
0
 10
25.2244611498
 20
-1.1565401778
 10
25.2095276358
 20
-1.1450083275
 10
25.2008353502
 20
-1.1383972493
  0
LINE
  5
482
100
AcDbEntity
  8
RACCORDO
100
AcDbLine
 62
7
  6
CONTINUOUS
 10
25.2008353502
 20
-1.1383972493
 11
25.1044163078
 21
-1.064297481
  0
LWPOLYLINE
  5
483
100
AcDbEntity
  8
RACCORDO
100
AcDbPolyline
 62
250
  6
CONTINUOUS
 90
16
 70
0
 10
24.1361561237
 20
-4.1837861861
 10
24.1574377727
 20
-4.2012539918
 10
24.178765448
 20
-4.2170867067
 10
24.2001391434
 20
-4.2312843309
 10
24.2216642608
 20
-4.2437567308
 10
24.2432353857
 20
-4.2545940399
 10
24.2645362895
 20
-4.2640666585
 10
24.2855148837
 20
-4.272171283
 10
24.3062232479
 20
-4.278911217
 10
24.3265014084
 20
-4.2845667714
 10
24.3463110143
 20
-4.289150443
 10
24.3656904127
 20
-4.292649735
 10
24.3845946789
 20
-4.2953074686
 10
24.4030088385
 20
-4.2972045839
 10
24.4209478662
 20
-4.2982601407
 10
24.4384117628
 20
-4.298474139
  0
LWPOLYLINE
  5
484
100
AcDbEntity
  8
RACCORDO
100
AcDbPolyline
 62
250
  6
CONTINUOUS
 90
16
 70
0
 10
24.3361561237
 20
-3.9604858337
 10
24.3431424282
 20
-3.9664015338
 10
24.3502374638
 20
-3.9717126465
 10
24.3573862459
 20
-3.9764415236
 10
24.3645303248
 20
-3.9806091477
 10
24.3716318609
 20
-3.9842495527
 10
24.3786757876
 20
-3.9874048127
 10
24.3856263151
 20
-3.9901027968
 10
24.3924531913
 20
-3.9923732795
 10
24.3991587632
 20
-3.994254871
 10
24.4057174058
 20
-3.995773647
 10
24.4121114997
 20
-3.9969572437
 10
24.4183620036
 20
-3.9978380035
 10
24.4244673387
 20
-3.9984393486
 10
24.4304022623
 20
-3.998781114
 10
24.4361561237
 20
-3.9988852786
  0
LWPOLYLINE
  5
485
100
AcDbEntity
  8
RACCORDO
100
AcDbPolyline
 62
250
  6
CONTINUOUS
 90
13
 70
0
 10
35.2815855546
 20
-32.3025747728
 10
35.2772211655
 20
-32.2952508509
 10
35.2527554031
 20
-32.2799621169
 10
35.2108804308
 20
-32.260912775
 10
35.1521057859
 20
-32.2383346189
 10
35.0771466418
 20
-32.2125023807
 10
34.9869151058
 20
-32.1837303885
 10
34.8825091206
 20
-32.1523687413
 10
34.7651991044
 20
-32.1187990495
 10
34.6364124925
 20
-32.0834297912
 10
34.497716368
 20
-32.0466913414
 10
34.3507983936
 20
-32.0090307357
 10
34.197446276
 20
-31.9709062305
  0
LINE
  5
486
100
AcDbEntity
  8
0
100
AcDbLine
 62
250
  6
CONTINUOUS
 10
17.1290126739
 20
17.3861561237
 11
17.1290126739
 21
15.5861561237
  0
LINE
  5
487
100
AcDbEntity
  8
0
100
AcDbLine
 62
250
  6
CONTINUOUS
 10
18.3537121237
 20
-18.1388438763
 11
18.3537121237
 21
-18.8888438763
  0
LINE
  5
488
100
AcDbEntity
  8
0
100
AcDbLine
 62
250
  6
CONTINUOUS
 10
18.7537121237
 20
-15.9658067586
 11
18.7537121237
 21
-16.7166238763
  0
LINE
  5
489
100
AcDbEntity
  8
0
100
AcDbLine
 62
250
  6
CONTINUOUS
 10
18.7537121237
 20
-20.3110608279
 11
18.7537121237
 21
-21.0618809941
  0
LINE
  5
48A
100
AcDbEntity
  8
0
100
AcDbLine
 62
250
  6
CONTINUOUS
 10
5.2361561237
 20
-18.5138438763
 11
7.0108519787
 21
-17.1362559889
  0
LWPOLYLINE
  5
48B
100
AcDbEntity
  8
0
100
AcDbPolyline
 62
250
  6
CONTINUOUS
 90
73
 70
0
 10
-10.3920943633
 20
16.4172268508
 10
-10.3850128826
 20
16.4186532011
 10
-10.3781447747
 20
16.4209362506
 10
-10.371452967
 20
16.4238692971
 10
-10.364900387
 20
16.4272456383
 10
-10.358449962
 20
16.4308585718
 10
-10.3385413732
 20
16.4425873741
 10
-10.3192209162
 20
16.4547887548
 10
-10.3004293081
 20
16.4676379566
 10
-10.281447555
 20
16.4817842662
 10
-10.2629663406
 20
16.4967102554
 10
-10.2449812304
 20
16.512310477
 10
-10.2274877897
 20
16.528479484
 10
-10.2067449475
 20
16.5489189379
 10
-10.1867504633
 20
16.570043054
 10
-10.1675228721
 20
16.5918424664
 10
-10.1490807091
 20
16.6143078089
 10
-10.1327585472
 20
16.6356410745
 10
-10.1171391036
 20
16.657507235
 10
-10.1022390225
 20
16.679878896
 10
-10.088074948
 20
16.7027286631
 10
-10.074663524
 20
16.726029142
 10
-10.0604633007
 20
16.7528080211
 10
-10.0472535546
 20
16.7800879347
 10
-10.0350467263
 20
16.807831736
 10
-10.0238552563
 20
16.8360022781
 10
-10.013691585
 20
16.8645624141
 10
-10.0050911507
 20
16.8917034627
 10
-9.9974015298
 20
16.9191196812
 10
-9.9906161768
 20
16.9467754255
 10
-9.9847285461
 20
16.974635052
 10
-9.9797320922
 20
17.0026629168
 10
-9.9756202695
 20
17.030823376
 10
-9.9720975072
 20
17.0620143346
 10
-9.9696108766
 20
17.0932952257
 10
-9.9681271509
 20
17.1246379127
 10
-9.9676174562
 20
17.1583455302
 10
-9.9682142625
 20
17.1920546125
 10
-9.9699049547
 20
17.2257277785
 10
-9.9720637145
 20
17.2528402141
 10
-9.9749571183
 20
17.2798807561
 10
-9.9786161198
 20
17.3068252127
 10
-9.982799262
 20
17.3321579572
 10
-9.9877032202
 20
17.3573637141
 10
-9.9933385799
 20
17.3824227383
 10
-10.0004580857
 20
17.4100283055
 10
-10.0084947891
 20
17.4373894252
 10
-10.0174524867
 20
17.4644665873
 10
-10.0273349748
 20
17.4912202817
 10
-10.0381460501
 20
17.5176109982
 10
-10.0488094148
 20
17.5413156377
 10
-10.0602361452
 20
17.5646603115
 10
-10.0724150576
 20
17.5876194084
 10
-10.0853349686
 20
17.6101673173
 10
-10.0989846947
 20
17.6322784269
 10
-10.1155111715
 20
17.6570518379
 10
-10.1329573833
 20
17.6811861538
 10
-10.1512990379
 20
17.7046497228
 10
-10.1705118434
 20
17.7274108931
 10
-10.1902478015
 20
17.7490978264
 10
-10.2107750135
 20
17.7700509555
 10
-10.2320643675
 20
17.7902475625
 10
-10.2540867519
 20
17.8096649296
 10
-10.2768130551
 20
17.828280339
 10
-10.3002141654
 20
17.8460710727
 10
-10.3242609712
 20
17.8630144129
 10
-10.3421810546
 20
17.8748084065
 10
-10.3604299994
 20
17.8860766132
 10
-10.3790090748
 20
17.8967555376
 10
-10.3979195503
 20
17.9067816845
 10
-10.4171626951
 20
17.9160915586
 10
-10.4367397787
 20
17.9246216647
 10
-10.4566520703
 20
17.9323085074
  0
LWPOLYLINE
  5
48C
100
AcDbEntity
  8
0
100
AcDbPolyline
 62
250
  6
CONTINUOUS
 90
23
 70
0
 10
-11.3990146405
 20
17.4879175459
 10
-11.3762407843
 20
17.4917109474
 10
-11.353426571
 20
17.4953133506
 10
-11.3305743243
 20
17.4987053407
 10
-11.3076863678
 20
17.5018675028
 10
-11.2847650253
 20
17.5047804221
 10
-11.2618126203
 20
17.5074246835
 10
-11.2388314765
 20
17.5097808723
 10
-11.2158239176
 20
17.5118295735
 10
-11.1927922673
 20
17.5135513723
 10
-11.1697388492
 20
17.5149268538
 10
-11.1466659869
 20
17.515936603
 10
-11.1249876661
 20
17.5165384133
 10
-11.1032993861
 20
17.5168084016
 10
-11.0816062801
 20
17.5167542695
 10
-11.0599134814
 20
17.5163837185
 10
-11.0382261231
 20
17.5157044505
 10
-11.0165493386
 20
17.5147241669
 10
-10.994888261
 20
17.5134505695
 10
-10.9732480236
 20
17.5118913599
 10
-10.9516337596
 20
17.5100542397
 10
-10.9300506022
 20
17.5079469105
 10
-10.9085036847
 20
17.5055770741
  0
LWPOLYLINE
  5
48D
100
AcDbEntity
  8
0
100
AcDbPolyline
 62
250
  6
CONTINUOUS
 90
3
 70
0
 10
-6.4007045032
 20
16.6379779406
 10
-6.4141770011
 20
16.636471405
 10
-6.4276284415
 20
16.6348501237
  0
LINE
  5
48E
100
AcDbEntity
  8
0
100
AcDbLine
 62
250
  6
CONTINUOUS
 10
-6.3467372228
 20
16.6436340497
 11
-6.4007045032
 21
16.6379779406
  0
LINE
  5
48F
100
AcDbEntity
  8
0
100
AcDbLine
 62
250
  6
CONTINUOUS
 10
-6.3890529519
 20
16.1576439601
 11
-6.5260263035
 21
16.1529171237
  0
LINE
  5
490
100
AcDbEntity
  8
0
100
AcDbLine
 62
250
  6
CONTINUOUS
 10
16.1004413066
 20
15.9718704132
 11
15.2004413066
 21
15.9718704132
  0
LINE
  5
491
100
AcDbEntity
  8
0
100
AcDbLine
 62
250
  6
CONTINUOUS
 10
13.2718699394
 20
15.9718704132
 11
12.3718700466
 21
15.9718704132
  0
LINE
  5
492
100
AcDbEntity
  8
0
100
AcDbLine
 62
250
  6
CONTINUOUS
 10
-13.7324948763
 20
16.0615071237
 11
-13.1330078763
 21
16.0615071237
  0
LINE
  5
493
100
AcDbEntity
  8
0
100
AcDbLine
 62
250
  6
CONTINUOUS
 10
4.8936301237
 20
16.1327281237
 11
4.0622521237
 21
16.1327281237
  0
LINE
  5
494
100
AcDbEntity
  8
0
100
AcDbLine
 62
250
  6
CONTINUOUS
 10
-1.1312958763
 20
16.1327281237
 11
-1.9627828763
 21
16.1327281237
  0
LINE
  5
495
100
AcDbEntity
  8
0
100
AcDbLine
 62
250
  6
CONTINUOUS
 10
-6.5260263035
 20
16.1529171237
 11
-6.7908428763
 21
16.1529171237
  0
LINE
  5
496
100
AcDbEntity
  8
0
100
AcDbLine
 62
250
  6
CONTINUOUS
 10
-11.378252702
 20
16.1731897208
 11
-11.0425301317
 21
16.1731897208
  0
LINE
  5
497
100
AcDbEntity
  8
0
100
AcDbLine
 62
250
  6
CONTINUOUS
 10
14.4290128885
 20
16.6147275982
 11
13.8718700109
 21
16.6147275982
  0
LINE
  5
498
100
AcDbEntity
  8
0
100
AcDbLine
 62
250
  6
CONTINUOUS
 10
-6.4276284415
 20
16.6348501237
 11
-6.7908428763
 21
16.6348501237
  0
LINE
  5
499
100
AcDbEntity
  8
0
100
AcDbLine
 62
250
  6
CONTINUOUS
 10
-11.0411804932
 20
16.6644581252
 11
-11.3990146405
 21
16.6644581252
  0
LINE
  5
49A
100
AcDbEntity
  8
0
100
AcDbLine
 62
250
  6
CONTINUOUS
 10
-6.7908428763
 20
17.4542241237
 11
-6.4276307831
 21
17.4542241237
  0
LINE
  5
49B
100
AcDbEntity
  8
0
100
AcDbLine
 62
250
  6
CONTINUOUS
 10
-7.4134488763
 20
17.9361561237
 11
-6.526007275
 21
17.9361561237
  0
LINE
  5
49C
100
AcDbEntity
  8
0
100
AcDbLine
 62
250
  6
CONTINUOUS
 10
-4.9431058763
 20
17.9361561237
 11
-4.3204998763
 21
17.9361561237
  0
LINE
  5
49D
100
AcDbEntity
  8
0
100
AcDbLine
 62
250
  6
CONTINUOUS
 10
4.8776961237
 20
17.9361561237
 11
4.1386451237
 21
17.9361561237
  0
LINE
  5
49E
100
AcDbEntity
  8
0
100
AcDbLine
 62
250
  6
CONTINUOUS
 10
0.1780861237
 20
17.9361561237
 11
1.1019001237
 21
17.9361561237
  0
LINE
  5
49F
100
AcDbEntity
  8
0
100
AcDbLine
 62
250
  6
CONTINUOUS
 10
-1.1473388763
 20
17.9361561237
 11
-1.8863898763
 21
17.9361561237
  0
LINE
  5
4A0
100
AcDbEntity
  8
0
100
AcDbLine
 62
250
  6
CONTINUOUS
 10
2.2145151237
 20
17.9361561237
 11
2.7969591237
 21
17.9361561237
  0
LINE
  5
4A1
100
AcDbEntity
  8
0
100
AcDbLine
 62
250
  6
CONTINUOUS
 10
-21.4556878763
 20
17.9989361237
 11
-20.7755038763
 21
17.9989361237
  0
LINE
  5
4A2
100
AcDbEntity
  8
0
100
AcDbLine
 62
250
  6
CONTINUOUS
 10
-19.6144668763
 20
17.9989361237
 11
-18.9887518763
 21
17.9989361237
  0
LINE
  5
4A3
100
AcDbEntity
  8
0
100
AcDbLine
 62
250
  6
CONTINUOUS
 10
-17.5223248763
 20
17.9989361237
 11
-16.8966998763
 21
17.9989361237
  0
LINE
  5
4A4
100
AcDbEntity
  8
0
100
AcDbLine
 62
250
  6
CONTINUOUS
 10
-15.6510278763
 20
17.9989361237
 11
-15.0315218763
 21
17.9989361237
  0
LINE
  5
4A5
100
AcDbEntity
  8
0
100
AcDbLine
 62
250
  6
CONTINUOUS
 10
-13.7118228763
 20
17.9989361237
 11
-13.1061048763
 21
17.9989361237
  0
LINE
  5
4A6
100
AcDbEntity
  8
0
100
AcDbLine
 62
250
  6
CONTINUOUS
 10
-18.1302468763
 20
17.9991161237
 11
-18.7563888763
 21
17.9991161237
  0
LWPOLYLINE
  5
4A7
100
AcDbEntity
  8
0
100
AcDbPolyline
 62
250
  6
CONTINUOUS
 90
46
 70
0
 10
-11.0425301317
 20
16.1731897208
 10
-11.0322875231
 20
16.1730454386
 10
-11.0220286843
 20
16.1726126109
 10
-11.0117649644
 20
16.1718912658
 10
-11.0015077124
 20
16.1708814313
 10
-10.9912682777
 20
16.1695831356
 10
-10.9810580093
 20
16.1679964068
 10
-10.9708882563
 20
16.1661212731
 10
-10.9607703681
 20
16.1639577625
 10
-10.9507156936
 20
16.1615059031
 10
-10.940735582
 20
16.1587657232
 10
-10.9308413826
 20
16.1557372507
 10
-10.9210444444
 20
16.1524205139
 10
-10.9113561166
 20
16.1488155408
 10
-10.9017877484
 20
16.1449223595
 10
-10.8923506889
 20
16.1407409982
 10
-10.8830562873
 20
16.136271485
 10
-10.874146713
 20
16.1316403316
 10
-10.8653878894
 20
16.1267427316
 10
-10.8567843388
 20
16.1215858089
 10
-10.8483405836
 20
16.1161766878
 10
-10.8400611462
 20
16.1105224924
 10
-10.831950549
 20
16.1046303469
 10
-10.8240133146
 20
16.0985073752
 10
-10.8162539651
 20
16.0921607016
 10
-10.8086770231
 20
16.0855974503
 10
-10.801287011
 20
16.0788247452
 10
-10.7940884511
 20
16.0718497105
 10
-10.7870858659
 20
16.0646794704
 10
-10.7802837778
 20
16.057321149
 10
-10.773173346
 20
16.0491794419
 10
-10.7662987019
 20
16.0408375352
 10
-10.7596569657
 20
16.0323058854
 10
-10.7532452576
 20
16.0235949491
 10
-10.7470606978
 20
16.0147151826
 10
-10.7411004065
 20
16.0056770425
 10
-10.7353615039
 20
15.9964909853
 10
-10.7298411102
 20
15.9871674674
 10
-10.7245363456
 20
15.9777169454
 10
-10.7194443304
 20
15.9681498757
 10
-10.7145621847
 20
15.9584767148
 10
-10.7098870288
 20
15.9487079192
 10
-10.7054159828
 20
15.9388539455
 10
-10.701146167
 20
15.9289252499
 10
-10.6970747016
 20
15.9189322892
 10
-10.6931987067
 20
15.9088855197
  0
LWPOLYLINE
  5
4A8
100
AcDbEntity
  8
0
100
AcDbPolyline
 62
250
  6
CONTINUOUS
 90
53
 70
0
 10
-6.526007275
 20
17.9361561237
 10
-6.3890420748
 20
17.9314295745
 10
-6.343403345
 20
17.9294842231
 10
-6.297799577
 20
17.9270263215
 10
-6.2522468469
 20
17.92385929
 10
-6.2067612307
 20
17.9197865489
 10
-6.1711060045
 20
17.9158368046
 10
-6.1355248564
 20
17.9111774454
 10
-6.1000405745
 20
17.9057784572
 10
-6.0646759474
 20
17.8996098264
 10
-6.0294537634
 20
17.8926415391
 10
-5.9943968108
 20
17.8848435817
 10
-5.9595278781
 20
17.8761859402
 10
-5.9248697536
 20
17.866638601
 10
-5.8969692769
 20
17.8582277921
 10
-5.8692633131
 20
17.8491740841
 10
-5.8417930854
 20
17.8394381057
 10
-5.8145998173
 20
17.8289804857
 10
-5.7877247321
 20
17.8177618531
 10
-5.7612090532
 20
17.8057428367
 10
-5.7350940039
 20
17.7928840653
 10
-5.7094208077
 20
17.7791461678
 10
-5.6842306879
 20
17.7644897731
 10
-5.6631267077
 20
17.7512168658
 10
-5.6424457262
 20
17.7372524545
 10
-5.6222280865
 20
17.722604128
 10
-5.6025141311
 20
17.7072794748
 10
-5.583344203
 20
17.6912860836
 10
-5.564758645
 20
17.6746315432
 10
-5.5467977999
 20
17.6573234421
 10
-5.5295020105
 20
17.6393693691
 10
-5.5129116196
 20
17.6207769128
 10
-5.4970669701
 20
17.6015536619
 10
-5.4809843299
 20
17.5803137371
 10
-5.4657953754
 20
17.5584121009
 10
-5.4514948015
 20
17.5358997599
 10
-5.4380773029
 20
17.5128277207
 10
-5.4255375745
 20
17.48924699
 10
-5.413870311
 20
17.4652085744
 10
-5.4030702074
 20
17.4407634807
 10
-5.3931319584
 20
17.4159627155
 10
-5.3840502588
 20
17.3908572855
 10
-5.3758198036
 20
17.3654981974
 10
-5.367397189
 20
17.3360992397
 10
-5.3600346131
 20
17.3064623847
 10
-5.3536748237
 20
17.2766173911
 10
-5.3482605683
 20
17.2465940177
 10
-5.3437345948
 20
17.2164220233
 10
-5.339623774
 20
17.1822002212
 10
-5.336519641
 20
17.1478637961
 10
-5.3343686715
 20
17.1134497673
 10
-5.333117341
 20
17.0789951543
 10
-5.3327121251
 20
17.0445369763
  0
LWPOLYLINE
  5
4A9
100
AcDbEntity
  8
0
100
AcDbPolyline
 62
250
  6
CONTINUOUS
 90
54
 70
0
 10
-6.400706539
 20
17.4510962328
 10
-6.3467386327
 20
17.4454400565
 10
-6.333260654
 20
17.4439241736
 10
-6.3198016037
 20
17.4422898101
 10
-6.3063681463
 20
17.4404980934
 10
-6.2929669464
 20
17.438510151
 10
-6.2796046686
 20
17.4362871103
 10
-6.2662879774
 20
17.4337900988
 10
-6.2530235374
 20
17.4309802438
 10
-6.2398180133
 20
17.4278186729
 10
-6.2266780695
 20
17.4242665134
 10
-6.2167909747
 20
17.4212977852
 10
-6.2069671476
 20
17.4180722572
 10
-6.1972285312
 20
17.4145787843
 10
-6.1875970683
 20
17.4108062218
 10
-6.1780947021
 20
17.4067434247
 10
-6.1687433756
 20
17.4023792481
 10
-6.1595650316
 20
17.397702547
 10
-6.1505816132
 20
17.3927021766
 10
-6.1418150635
 20
17.3873669919
 10
-6.1332873253
 20
17.3816858481
 10
-6.1250203417
 20
17.3756476001
 10
-6.1175356006
 20
17.3696675518
 10
-6.1102960896
 20
17.3633827431
 10
-6.103299425
 20
17.3568109617
 10
-6.0965432231
 20
17.3499699951
 10
-6.0900251002
 20
17.3428776309
 10
-6.0837426727
 20
17.3355516567
 10
-6.0776935567
 20
17.3280098603
 10
-6.0718753686
 20
17.3202700291
 10
-6.0662857248
 20
17.3123499508
 10
-6.0609222414
 20
17.304267413
 10
-6.0557825349
 20
17.2960402034
 10
-6.0508642214
 20
17.2876861094
 10
-6.0448658692
 20
17.2767886155
 10
-6.039228099
 20
17.2657219775
 10
-6.0339498367
 20
17.254497206
 10
-6.029030008
 20
17.2431253114
 10
-6.0244675386
 20
17.231617304
 10
-6.0202613542
 20
17.2199841942
 10
-6.0164103806
 20
17.2082369925
 10
-6.0129135435
 20
17.1963867093
 10
-6.0097697687
 20
17.184444355
 10
-6.0069779818
 20
17.17242094
 10
-6.0045371088
 20
17.1603274746
 10
-6.002351277
 20
17.1475964323
 10
-6.0005225804
 20
17.1348099539
 10
-5.9990243232
 20
17.1219773796
 10
-5.9978298095
 20
17.1091080497
 10
-5.9969123435
 20
17.0962113045
 10
-5.9962452293
 20
17.0832964843
 10
-5.9958017711
 20
17.0703729293
 10
-5.9955552732
 20
17.0574499799
 10
-5.9954790396
 20
17.0445369763
  0
LWPOLYLINE
  5
4AA
100
AcDbEntity
  8
0
100
AcDbPolyline
 62
250
  6
CONTINUOUS
 90
3
 70
0
 10
-6.4276307831
 20
17.4542241237
 10
-6.4141791906
 20
17.4526028009
 10
-6.400706539
 20
17.4510962328
  0
LWPOLYLINE
  5
4AB
100
AcDbEntity
  8
0
100
AcDbPolyline
 62
250
  6
CONTINUOUS
 90
49
 70
0
 10
-10.9085036847
 20
17.5055770743
 10
-10.8970274158
 20
17.5040902198
 10
-10.8855503485
 20
17.5022931336
 10
-10.8740851245
 20
17.5001866878
 10
-10.8626443857
 20
17.4977717547
 10
-10.8512407739
 20
17.4950492063
 10
-10.8398869309
 20
17.4920199149
 10
-10.8285954985
 20
17.4886847527
 10
-10.8173791185
 20
17.4850445918
 10
-10.8062504328
 20
17.4811003045
 10
-10.7952220831
 20
17.4768527629
 10
-10.7843067113
 20
17.4723028391
 10
-10.7735169593
 20
17.4674514054
 10
-10.7628654687
 20
17.462299334
 10
-10.7523648815
 20
17.456847497
 10
-10.7420278394
 20
17.4510967666
 10
-10.7318669843
 20
17.445048015
 10
-10.721894958
 20
17.4387021143
 10
-10.7121244023
 20
17.4320599368
 10
-10.7025679591
 20
17.4251223546
 10
-10.69323827
 20
17.4178902399
 10
-10.684147977
 20
17.410364465
 10
-10.6753097219
 20
17.4025459018
 10
-10.6667361465
 20
17.3944354228
 10
-10.6584398926
 20
17.3860338999
 10
-10.6504749154
 20
17.3773924262
 10
-10.6428003841
 20
17.3684774884
 10
-10.6354199301
 20
17.3593026429
 10
-10.6283371846
 20
17.3498814462
 10
-10.621555779
 20
17.3402274549
 10
-10.6150793445
 20
17.3303542254
 10
-10.6089115125
 20
17.3202753142
 10
-10.6030559142
 20
17.3100042778
 10
-10.5975161811
 20
17.2995546726
 10
-10.5922959443
 20
17.2889400552
 10
-10.5873988352
 20
17.2781739821
 10
-10.582828485
 20
17.2672700097
 10
-10.5785885252
 20
17.2562416946
 10
-10.574682587
 20
17.2451025931
 10
-10.5711143018
 20
17.2338662619
 10
-10.5678873007
 20
17.2225462573
 10
-10.5650052152
 20
17.2111561359
 10
-10.5624716765
 20
17.1997094542
 10
-10.560290316
 20
17.1882197686
 10
-10.5584647649
 20
17.1767006357
 10
-10.5569986546
 20
17.1651656119
 10
-10.5558956163
 20
17.1536282537
 10
-10.5551592815
 20
17.1421021176
 10
-10.5547932813
 20
17.13060076
  0
LWPOLYLINE
  5
4AC
100
AcDbEntity
  8
RACCORDO
100
AcDbPolyline
 62
7
  6
CONTINUOUS
 90
3
 70
0
 10
25.3042641227
 20
1.7214314708
 10
25.3154394478
 20
1.7110885814
 10
25.3217108796
 20
1.7052313335
  0
LINE
  5
4AD
100
AcDbEntity
  8
RACCORDO
100
AcDbLine
 62
7
  6
CONTINUOUS
 10
25.3217108796
 20
1.7052313335
 11
25.3427825276
 21
1.6852916884
  0
LWPOLYLINE
  5
4AE
100
AcDbEntity
  8
RACCORDO
100
AcDbPolyline
 62
7
  6
CONTINUOUS
 90
10
 70
0
 10
25.4389203675
 20
1.5922945187
 10
25.4538070877
 20
1.5780228497
 10
25.4693685608
 20
1.5637885017
 10
25.485574924
 20
1.5495914747
 10
25.5023782045
 20
1.5354119906
 10
25.5197473261
 20
1.5212698275
 10
25.5376696635
 20
1.5072243198
 10
25.5561022718
 20
1.4932952453
 10
25.5749698971
 20
1.4794628262
 10
25.5942013164
 20
1.4657270623
  0
LINE
  5
4AF
100
AcDbEntity
  8
RACCORDO
100
AcDbLine
 62
7
  6
CONTINUOUS
 10
25.3427825276
 20
1.6852916884
 11
25.3665086715
 21
1.6625699507
  0
LWPOLYLINE
  5
4B0
100
AcDbEntity
  8
RACCORDO
100
AcDbPolyline
 62
7
  6
CONTINUOUS
 90
3
 70
0
 10
25.3665086715
 20
1.6625699507
 10
25.4292958753
 20
1.6017231532
 10
25.4389203675
 20
1.5922945187
  0
LWPOLYLINE
  5
4B1
100
AcDbEntity
  8
RACCORDO
100
AcDbPolyline
 62
7
  6
CONTINUOUS
 90
7
 70
0
 10
25.2149907966
 20
1.8072668003
 10
25.2273473652
 20
1.7949866392
 10
25.2324550113
 20
1.7897904339
 10
25.2367177351
 20
1.7855945122
 10
25.2399937738
 20
1.7825179053
 10
25.2421198371
 20
1.7804415821
 10
25.2429467048
 20
1.7793655425
  0
LWPOLYLINE
  5
4B2
100
AcDbEntity
  8
RACCORDO
100
AcDbPolyline
 62
7
  6
CONTINUOUS
 90
3
 70
0
 10
25.192544615
 20
1.8297300614
 10
25.2079735572
 20
1.8143507561
 10
25.2149907966
 20
1.8072668003
  0
LINE
  5
4B3
100
AcDbEntity
  8
RACCORDO
100
AcDbLine
 62
7
  6
CONTINUOUS
 10
25.2429467048
 20
1.7793655425
 11
25.2833318052
 21
1.7389804421
  0
LINE
  5
4B4
100
AcDbEntity
  8
RACCORDO
100
AcDbLine
 62
7
  6
CONTINUOUS
 10
25.102135578
 20
1.9201080407
 11
25.1842983909
 21
1.838025411
  0
LWPOLYLINE
  5
4B5
100
AcDbEntity
  8
RACCORDO
100
AcDbPolyline
 62
7
  6
CONTINUOUS
 90
3
 70
0
 10
24.6021247732
 20
2.1358907668
 10
24.6137420137
 20
2.1242062004
 10
24.6495047755
 20
2.088603392
  0
LINE
  5
4B6
100
AcDbEntity
  8
RACCORDO
100
AcDbLine
 62
7
  6
CONTINUOUS
 10
25.1842983909
 20
1.838025411
 11
25.192544615
 21
1.8297300614
  0
LINE
  5
4B7
100
AcDbEntity
  8
RACCORDO
100
AcDbLine
 62
7
  6
CONTINUOUS
 10
25.0929524163
 20
1.929359831
 11
25.102135578
 21
1.9201080407
  0
LINE
  5
4B8
100
AcDbEntity
  8
RACCORDO
100
AcDbLine
 62
7
  6
CONTINUOUS
 10
24.6495047755
 20
2.088603392
 11
24.6614337986
 21
2.0765317643
  0
LWPOLYLINE
  5
4B9
100
AcDbEntity
  8
RACCORDO
100
AcDbPolyline
 62
7
  6
CONTINUOUS
 90
7
 70
0
 10
24.5315299881
 20
2.2064355749
 10
24.5396692352
 20
2.1980038344
 10
24.5487342841
 20
2.1890006804
 10
24.5585394498
 20
2.1794261131
 10
24.5688591856
 20
2.1691901287
 10
24.5795715146
 20
2.158382731
 10
24.6021247732
 20
2.1358907668
  0
LWPOLYLINE
  5
4BA
100
AcDbEntity
  8
RACCORDO
100
AcDbPolyline
 62
250
  6
CONTINUOUS
 90
28
 70
0
 10
34.3160010849
 20
-11.6114274981
 10
34.613327265
 20
-11.9327822385
 10
34.8889378918
 20
-12.2663638395
 10
35.142942241
 20
-12.6121723012
 10
35.3760046607
 20
-12.9714444145
 10
35.5876655524
 20
-13.3429433885
 10
35.7763493244
 20
-13.7229588504
 10
35.9419162528
 20
-14.1114459524
 10
36.0846878469
 20
-14.5084495424
 10
36.2037781143
 20
-14.9103937913
 10
36.2990685549
 20
-15.3171965258
 10
36.3708001402
 20
-15.7289399191
 10
36.4186115128
 20
-16.1422946616
 10
36.4423980881
 20
-16.5572241583
 10
36.4423073563
 20
-16.9737650041
 10
36.4183356441
 20
-17.3886976753
 10
36.3703280725
 20
-17.8020742868
 10
36.2983963774
 20
-18.2138427236
 10
36.2029164038
 20
-18.6206271165
 10
36.0836381129
 20
-19.0225026118
 10
35.9406889143
 20
-19.4193940632
 10
35.7749964537
 20
-19.8077001631
 10
35.5862196834
 20
-20.1874859497
 10
35.3745181706
 20
-20.5586863848
 10
35.1415689471
 20
-20.9175050464
 10
34.8878662572
 20
-21.2626764603
 10
34.6127130468
 20
-21.5954661006
 10
34.3160010849
 20
-21.9158739674
  0
LINE
  5
4BB
100
AcDbEntity
  8
ASSI
100
AcDbLine
 62
7
  6
CONTINUOUS
 10
21.8361561237
 20
10.1861561237
 11
21.8361561237
 21
-11.7138438763
  0
LINE
  5
4BC
100
AcDbEntity
  8
RACCORDO
100
AcDbLine
 62
250
  6
CONTINUOUS
 10
25.4309410433
 20
2.4701553412
 11
25.3497307031
 21
2.2263261945
  0
LINE
  5
4BD
100
AcDbEntity
  8
RACCORDO
100
AcDbLine
 62
250
  6
CONTINUOUS
 10
25.5803452756
 20
2.3186407473
 11
25.4997078573
 21
2.0765317643
  0
LWPOLYLINE
  5
4BE
100
AcDbEntity
  8
RACCORDO
100
AcDbPolyline
 62
7
  6
CONTINUOUS
 90
10
 70
0
 10
35.4361561237
 20
20.950004305
 10
35.4263303267
 20
20.9294157778
 10
35.3973064551
 20
20.9031691549
 10
35.3499373794
 20
20.871264436
 10
35.2853050996
 20
20.8331706159
 10
35.2046449618
 20
20.7894186998
 10
35.1092755756
 20
20.7416017046
 10
35.0007094515
 20
20.6896556978
 10
34.8805375702
 20
20.6336446118
 10
34.7502753903
 20
20.5753532598
  0
LINE
  5
4BF
100
AcDbEntity
  8
RACCORDO
100
AcDbLine
 62
7
  6
CONTINUOUS
 10
25.2429352824
 20
-0.3570108886
 11
25.2833318052
 21
-0.284185618
  0
LINE
  5
4C0
100
AcDbEntity
  8
RACCORDO
100
AcDbLine
 62
250
  6
CONTINUOUS
 10
24.1361561233
 20
-4.1837861857
 11
24.3353431812
 21
-3.9613934925
  0
LWPOLYLINE
  5
4C1
100
AcDbEntity
  8
RACCORDO
100
AcDbPolyline
 62
7
  6
CONTINUOUS
 90
6
 70
0
 10
24.5315299881
 20
-3.7341233275
 10
24.5396692352
 20
-3.725691587
 10
24.5487342841
 20
-3.7166884331
 10
24.5585394498
 20
-3.7071138658
 10
24.5688591856
 20
-3.6968778814
 10
24.5795715146
 20
-3.6860704836
  0
LWPOLYLINE
  5
4C2
100
AcDbEntity
  8
RACCORDO
100
AcDbPolyline
 62
7
  6
CONTINUOUS
 90
6
 70
0
 10
25.2273473652
 20
-3.3226743918
 10
25.2324550113
 20
-3.3174781865
 10
25.2367177351
 20
-3.3132822649
 10
25.2399937738
 20
-3.310205658
 10
25.2421198371
 20
-3.3081293347
 10
25.2429467048
 20
-3.3070532952
  0
LINE
  5
4C3
100
AcDbEntity
  8
RACCORDO
100
AcDbLine
 62
7
  6
CONTINUOUS
 10
24.6495047755
 20
-3.6162911446
 11
24.6614337986
 21
-3.604219517
  0
LWPOLYLINE
  5
4C4
100
AcDbEntity
  8
RACCORDO
100
AcDbPolyline
 62
7
  6
CONTINUOUS
 90
3
 70
0
 10
25.2079735572
 20
-3.3420385088
 10
25.2149907966
 20
-3.3349545529
 10
25.2273473652
 20
-3.3226743918
  0
LINE
  5
4C5
100
AcDbEntity
  8
RACCORDO
100
AcDbLine
 62
7
  6
CONTINUOUS
 10
25.0929524163
 20
-3.4570475837
 11
25.102135578
 21
-3.4477957934
  0
LINE
  5
4C6
100
AcDbEntity
  8
RACCORDO
100
AcDbLine
 62
7
  6
CONTINUOUS
 10
25.2429467048
 20
-3.3070532952
 11
25.2833318052
 21
-3.2666681948
  0
LINE
  5
4C7
100
AcDbEntity
  8
RACCORDO
100
AcDbLine
 62
7
  6
CONTINUOUS
 10
25.1757416773
 20
-3.3742583227
 11
25.192544615
 21
-3.3574178141
  0
LINE
  5
4C8
100
AcDbEntity
  8
RACCORDO
100
AcDbLine
 62
7
  6
CONTINUOUS
 10
25.192544615
 20
-3.3574178141
 11
25.2079735572
 21
-3.3420385088
  0
LINE
  5
4C9
100
AcDbEntity
  8
RACCORDO
100
AcDbLine
 62
7
  6
CONTINUOUS
 10
25.102135578
 20
-3.4477957934
 11
25.1757416773
 21
-3.3742583227
  0
LINE
  5
4CA
100
AcDbEntity
  8
RACCORDO
100
AcDbLine
 62
7
  6
CONTINUOUS
 10
24.5795715146
 20
-3.6860704836
 11
24.6495047755
 21
-3.6162911446
  0
LINE
  5
4CB
100
AcDbEntity
  8
RACCORDO
100
AcDbLine
 62
7
  6
CONTINUOUS
 10
25.4198016602
 20
-3.1386592568
 11
25.4389203725
 21
-3.1199819329
  0
LWPOLYLINE
  5
4CC
100
AcDbEntity
  8
RACCORDO
100
AcDbPolyline
 62
7
  6
CONTINUOUS
 90
10
 70
0
 10
25.4389203725
 20
-3.1199819329
 10
25.4538070994
 20
-3.1057103365
 10
25.4693685787
 20
-3.0914760537
 10
25.4855749473
 20
-3.0772790847
 10
25.5023782337
 20
-3.0630996534
 10
25.5197473602
 20
-3.0489575358
 10
25.5376696978
 20
-3.0349120603
 10
25.5561022997
 20
-3.020983003
 10
25.5749699136
 20
-3.0071505879
 10
25.5942013164
 20
-2.9934148149
  0
LWPOLYLINE
  5
4CD
100
AcDbEntity
  8
RACCORDO
100
AcDbPolyline
 62
7
  6
CONTINUOUS
 90
3
 70
0
 10
25.3427825914
 20
-3.2129793803
 10
25.3583392336
 20
-3.1980913897
 10
25.4198016602
 20
-3.1386592568
  0
LINE
  5
4CE
100
AcDbEntity
  8
RACCORDO
100
AcDbLine
 62
7
  6
CONTINUOUS
 10
25.3217109217
 20
-3.2329190467
 11
25.3427825914
 21
-3.2129793803
  0
LWPOLYLINE
  5
4CF
100
AcDbEntity
  8
RACCORDO
100
AcDbPolyline
 62
250
  6
CONTINUOUS
 90
25
 70
0
 10
-12.1341109234
 20
-35.8436888376
 10
-12.4745296799
 20
-36.1051101737
 10
-12.8251202842
 20
-36.3445079597
 10
-13.1858827363
 20
-36.5619817112
 10
-13.5579913345
 20
-36.7580439647
 10
-13.9402717805
 20
-36.9323629423
 10
-14.3292011798
 20
-37.0837670963
 10
-14.7247448545
 20
-37.21215001
 10
-15.1269374824
 20
-37.3177608083
 10
-15.5323602024
 20
-37.3999529361
 10
-15.9409539513
 20
-37.4586056771
 10
-16.3527777922
 20
-37.4939175272
 10
-16.7645900533
 20
-37.5057040771
 10
-17.1763908086
 20
-37.4938320176
 10
-17.5881799841
 20
-37.4584346095
 10
-17.9967156863
 20
-37.399707849
 10
-18.4020447487
 20
-37.3174596988
 10
-18.8041203378
 20
-37.2118043935
 10
-19.1995600592
 20
-37.0833806771
 10
-19.5884240206
 20
-36.9319158908
 10
-19.9706521144
 20
-36.7575399159
 10
-20.3426816231
 20
-36.561487224
 10
-20.7033249743
 20
-36.3441108983
 10
-21.0537697405
 20
-36.1048778094
 10
-21.3940159216
 20
-35.8436888376
  0
LWPOLYLINE
  5
4D0
100
AcDbEntity
  8
RACCORDO
100
AcDbPolyline
 62
7
  6
CONTINUOUS
 90
11
 70
0
 10
-21.8834352996
 20
-36.9638438763
 10
-21.8657922925
 20
-36.9542134587
 10
-21.84319349
 20
-36.9256906747
 10
-21.8156388922
 20
-36.8789986811
 10
-21.7826894737
 20
-36.8150829933
 10
-21.74478426
 20
-36.7350615672
 10
-21.7032403263
 20
-36.6401770562
 10
-21.6579800107
 20
-36.5318591581
 10
-21.6090809752
 20
-36.4116311846
 10
-21.5580932817
 20
-36.2810049825
 10
-21.3941483157
 20
-35.8436888376
  0
LWPOLYLINE
  5
4D1
100
AcDbEntity
  8
RACCORDO
100
AcDbPolyline
 62
7
  6
CONTINUOUS
 90
10
 70
0
 10
-21.8834330847
 20
35.4361561237
 10
-21.8657896845
 20
35.4265257001
 10
-21.8431905343
 20
35.3980029035
 10
-21.8156356341
 20
35.3513108985
 10
-21.7826859089
 20
35.287395216
 10
-21.7447804337
 20
35.2073738143
 10
-21.7032364339
 20
35.1124893164
 10
-21.6579763905
 20
35.0041713786
 10
-21.6090778225
 20
34.8839433297
 10
-21.5580905121
 20
34.7533170764
  0
LINE
  5
4D2
100
AcDbEntity
  8
0
100
AcDbLine
 62
250
  6
CONTINUOUS
 10
13.786155623
 20
15.8432989923
 11
14.0432985721
 21
15.5861561237
  0
LINE
  5
4D3
100
AcDbEntity
  8
0
100
AcDbLine
 62
250
  6
CONTINUOUS
 10
14.686155623
 20
16.3575847028
 11
14.4290128885
 21
16.6147275982
  0
LINE
  5
4D4
100
AcDbEntity
  8
RACCORDO
100
AcDbLine
 62
250
  6
CONTINUOUS
 10
24.1361561248
 20
2.6560984343
 11
24.3353431754
 21
2.4337057396
  0
LINE
  5
4D5
100
AcDbEntity
  8
RACCORDO
100
AcDbLine
 62
7
  6
CONTINUOUS
 10
25.2429467048
 20
-1.170697456
 11
25.2833318052
 21
-1.2435021347
  0
LWPOLYLINE
  5
4D6
100
AcDbEntity
  8
RACCORDO
100
AcDbPolyline
 62
7
  6
CONTINUOUS
 90
11
 70
0
 10
35.4361561237
 20
-22.4776917062
 10
35.4263302942
 20
-22.4571013048
 10
35.3973063777
 20
-22.430852603
 10
35.3499373217
 20
-22.3989456007
 10
35.2853052379
 20
-22.3608491324
 10
35.2046455131
 20
-22.3170943636
 10
35.1092766362
 20
-22.2692747911
 10
35.0007111325
 20
-22.2173261962
 10
34.8805399185
 20
-22.1613127977
 10
34.7502780348
 20
-22.1030207486
 10
34.3160010849
 20
-21.9162588509
  0
LINE
  5
4D7
100
AcDbEntity
  8
RACCORDO
100
AcDbLine
 62
7
  6
CONTINUOUS
 10
10.4419094879
 20
34.7533170764
 11
10.6058540919
 21
34.3160010849
  0
LINE
  5
4D8
100
AcDbEntity
  8
RACCORDO
100
AcDbLine
 62
250
  6
CONTINUOUS
 10
25.4309410433
 20
-3.9978430939
 11
25.3497307031
 21
-3.7540139472
  0
LINE
  5
4D9
100
AcDbEntity
  8
RACCORDO
100
AcDbLine
 62
250
  6
CONTINUOUS
 10
25.5803452756
 20
-3.8463285
 11
25.4997078573
 21
-3.604219517
  0
LWPOLYLINE
  5
4DA
100
AcDbEntity
  8
RACCORDO
100
AcDbPolyline
 62
250
  6
CONTINUOUS
 90
16
 70
0
 10
25.4997078573
 20
-3.4570475837
 10
25.4988788697
 20
-3.4413213846
 10
25.4964058339
 20
-3.4257685331
 10
25.4923160099
 20
-3.4105604669
 10
25.4866536558
 20
-3.3958629816
 10
25.4794816241
 20
-3.3818401009
 10
25.4708825586
 20
-3.3686513273
 10
25.4609555143
 20
-3.3564439435
 10
25.4498091532
 20
-3.3453475552
 10
25.4375623859
 20
-3.335479222
 10
25.4243294756
 20
-3.3269357807
 10
25.4102738242
 20
-3.3198271455
 10
25.3956116487
 20
-3.3142514053
 10
25.380531442
 20
-3.3102551897
 10
25.3651818656
 20
-3.307853779
 10
25.3497307031
 20
-3.3070532952
  0
LWPOLYLINE
  5
4DB
100
AcDbEntity
  8
RACCORDO
100
AcDbPolyline
 62
250
  6
CONTINUOUS
 90
16
 70
0
 10
25.4997078573
 20
2.0765317643
 10
25.4988951723
 20
2.0919692023
 10
25.4964815172
 20
2.1073014784
 10
25.4924742597
 20
2.1223611387
 10
25.4868903582
 20
2.1369989547
 10
25.4797773168
 20
2.1510284607
 10
25.4712321023
 20
2.1642374551
 10
25.4613636366
 20
2.1764640045
 10
25.4502692824
 20
2.1875930431
 10
25.4380662413
 20
2.1975057642
 10
25.4248842022
 20
2.2060937624
 10
25.410870065
 20
2.2132585008
 10
25.3961827254
 20
2.2189177461
 10
25.3809857557
 20
2.2230087893
 10
25.3654447213
 20
2.225487367
 10
25.3497307031
 20
2.2263261945
  0
LWPOLYLINE
  5
4DC
100
AcDbEntity
  8
RACCORDO
100
AcDbPolyline
 62
250
  6
CONTINUOUS
 90
22
 70
0
 10
25.5803452756
 20
-3.4167319451
 10
25.5800113076
 20
-3.40667271
 10
25.5789721737
 20
-3.3964168097
 10
25.5771829444
 20
-3.386017764
 10
25.5745935376
 20
-3.375506062
 10
25.5711705106
 20
-3.3649796941
 10
25.5669195879
 20
-3.3545970192
 10
25.5618318148
 20
-3.3444260112
 10
25.555906934
 20
-3.3345436243
 10
25.5492124232
 20
-3.325107405
 10
25.5417867801
 20
-3.3161884739
 10
25.5336596223
 20
-3.3078378393
 10
25.5249244426
 20
-3.3001568941
 10
25.5156433787
 20
-3.2931929095
 10
25.5058691242
 20
-3.2869785016
 10
25.4957021006
 20
-3.2815664327
 10
25.4852120406
 20
-3.2769767247
 10
25.4744635874
 20
-3.2732212201
 10
25.4635579884
 20
-3.2703158055
 10
25.452574539
 20
-3.268257036
 10
25.4415672381
 20
-3.267030966
 10
25.4305986949
 20
-3.2666223786
  0
LWPOLYLINE
  5
4DD
100
AcDbEntity
  8
RACCORDO
100
AcDbPolyline
 62
250
  6
CONTINUOUS
 90
22
 70
0
 10
25.5803452756
 20
2.3186407473
 10
25.5800097517
 20
2.3290297597
 10
25.5789403111
 20
2.3395626048
 10
25.5771024139
 20
2.3501837986
 10
25.5744599673
 20
2.3608525985
 10
25.5709892502
 20
2.3714822286
 10
25.5666936779
 20
2.3819447525
 10
25.5615666438
 20
2.3921777793
 10
25.5556139631
 20
2.4021019624
 10
25.548895616
 20
2.4115749086
 10
25.5414472008
 20
2.42052966
 10
25.5333014026
 20
2.428911767
 10
25.524548536
 20
2.4366208149
 10
25.5152391279
 20
2.4436168733
 10
25.5054356323
 20
2.4498578635
 10
25.4952710993
 20
2.4552731824
 10
25.4848326439
 20
2.4598441445
 10
25.4741736677
 20
2.463574533
 10
25.4633871138
 20
2.4664576166
 10
25.4525483991
 20
2.4685027007
 10
25.4417129285
 20
2.46972848
 10
25.4309410433
 20
2.4701553412
  0
LWPOLYLINE
  5
4DE
100
AcDbEntity
  8
RACCORDO
100
AcDbPolyline
 62
250
  6
CONTINUOUS
 90
11
 70
0
 10
25.4379404927
 20
1.6339173745
 10
25.4373682786
 20
1.6526677164
 10
25.4367466519
 20
1.6698580545
 10
25.4360801501
 20
1.6853629129
 10
25.4353736379
 20
1.6990691182
 10
25.4346322725
 20
1.7108766258
 10
25.4338614652
 20
1.7206992502
 10
25.4330668422
 20
1.7284652937
 10
25.4322542037
 20
1.7341180705
 10
25.4314294814
 20
1.7376163196
 10
25.4305986949
 20
1.7389345066
  0
LWPOLYLINE
  5
4DF
100
AcDbEntity
  8
RACCORDO
100
AcDbPolyline
 62
250
  6
CONTINUOUS
 90
22
 70
0
 10
25.8934134448
 20
2.3186407473
 10
25.8924985392
 20
2.3499012629
 10
25.8891767215
 20
2.3812332869
 10
25.8834479657
 20
2.4126368193
 10
25.8753355074
 20
2.4443734462
 10
25.8648160036
 20
2.4761815814
 10
25.8518195306
 20
2.5072764673
 10
25.8362296348
 20
2.5376648213
 10
25.8181625444
 20
2.567339926
 10
25.7978973448
 20
2.595496871
 10
25.7753475725
 20
2.6220660354
 10
25.7505994092
 20
2.6471170402
 10
25.7241909477
 20
2.6700538381
 10
25.6960422033
 20
2.6907975927
 10
25.6662329146
 20
2.7094271403
 10
25.6355408611
 20
2.7255829431
 10
25.6039929974
 20
2.7391490749
 10
25.571562255
 20
2.7502414619
 10
25.5389455064
 20
2.758848344
 10
25.5063750731
 20
2.7649658014
 10
25.4736186582
 20
2.7685977539
 10
25.4406762683
 20
2.7697442016
  0
LWPOLYLINE
  5
4E0
100
AcDbEntity
  8
RACCORDO
100
AcDbPolyline
 62
250
  6
CONTINUOUS
 90
10
 70
0
 10
25.4386440018
 20
-4.1262152486
 10
25.4380007645
 20
-4.1021968261
 10
25.4372852423
 20
-4.0801774044
 10
25.4365047616
 20
-4.0603824408
 10
25.4356673137
 20
-4.0430146162
 10
25.4347814732
 20
-4.0282517601
 10
25.4338563104
 20
-4.0162450297
 10
25.4329012979
 20
-4.0071173619
 10
25.4319262143
 20
-4.0009622152
 10
25.4309410434
 20
-3.9978426122
  0
LWPOLYLINE
  5
4E1
100
AcDbEntity
  8
RACCORDO
100
AcDbPolyline
 62
250
  6
CONTINUOUS
 90
19
 70
0
 10
25.8934134448
 20
-3.4167319451
 10
25.8927364935
 20
-3.3891174222
 10
25.8901077355
 20
-3.3612542111
 10
25.885527154
 20
-3.3331423119
 10
25.8790347768
 20
-3.3045647395
 10
25.8705905065
 20
-3.2757384789
 10
25.8600741176
 20
-3.2473144849
 10
25.8473936998
 20
-3.2192859168
 10
25.832641009
 20
-3.1916596154
 10
25.8159713042
 20
-3.1651070573
 10
25.7973155153
 20
-3.1396793891
 10
25.7767425053
 20
-3.1153254642
 10
25.7546144492
 20
-3.0925633201
 10
25.7308930663
 20
-3.0714542079
 10
25.7056164362
 20
-3.0519368764
 10
25.6792613261
 20
-3.0343456098
 10
25.6519866269
 20
-3.018791836
 10
25.623633314
 20
-3.005164127
 10
25.5942013164
 20
-2.9934624828
  0
LWPOLYLINE
  5
4E2
100
AcDbEntity
  8
RACCORDO
100
AcDbPolyline
 62
250
  6
CONTINUOUS
 90
4
 70
0
 10
24.436831578
 20
-4.0172894406
 10
24.4366103057
 20
-4.0081613137
 10
24.4363843832
 20
-4.0020055843
 10
24.4361561237
 20
-3.9988852786
  0
LINE
  5
4E3
100
AcDbEntity
  8
RACCORDO
100
AcDbLine
 62
250
  6
CONTINUOUS
 10
25.4389203675
 20
1.5922945187
 11
25.4379404927
 21
1.6339173745
  0
LINE
  5
4E4
100
AcDbEntity
  8
RACCORDO
100
AcDbLine
 62
250
  6
CONTINUOUS
 10
25.439688085
 20
-4.1792474464
 11
25.4386440018
 21
-4.1262152486
  0
LWPOLYLINE
  5
4E5
100
AcDbEntity
  8
RACCORDO
100
AcDbPolyline
 62
250
  6
CONTINUOUS
 90
19
 70
0
 10
23.9861561237
 20
-3.8479156906
 10
23.9863952195
 20
-3.8644054642
 10
23.9873313112
 20
-3.8811591931
 10
23.9889643987
 20
-3.8981768775
 10
23.991220979
 20
-3.9153902898
 10
23.9941745552
 20
-3.9328676576
 10
23.9980456361
 20
-3.950813663
 10
24.0028375478
 20
-3.9693640659
 10
24.0085469642
 20
-3.9883831065
 10
24.0153844162
 20
-4.0076681872
 10
24.0233435217
 20
-4.0272219326
 10
24.0324306627
 20
-4.0470417181
 10
24.0428755158
 20
-4.0669170728
 10
24.0546938924
 20
-4.0868937295
 10
24.0678699811
 20
-4.1069259555
 10
24.0825860243
 20
-4.1266660811
 10
24.0989027695
 20
-4.1459982164
 10
24.1167594693
 20
-4.1650382515
 10
24.1361561237
 20
-4.1837861861
  0
LINE
  5
4E6
100
AcDbEntity
  8
RACCORDO
100
AcDbLine
 62
250
  6
CONTINUOUS
 10
24.4372511808
 20
-4.0440595737
 11
24.436831578
 21
-4.0172894406
  0
LINE
  5
4E7
100
AcDbEntity
  8
RACCORDO
100
AcDbLine
 62
250
  6
CONTINUOUS
 10
25.4403748397
 20
-4.2371075673
 11
25.439688085
 21
-4.1792474464
  0
LINE
  5
4E8
100
AcDbEntity
  8
RACCORDO
100
AcDbLine
 62
250
  6
CONTINUOUS
 10
24.4377918368
 20
-4.1032417323
 11
24.4372511808
 21
-4.0440595737
  0
LINE
  5
4E9
100
AcDbEntity
  8
RACCORDO
100
AcDbLine
 62
250
  6
CONTINUOUS
 10
25.4406762109
 20
-4.2974319543
 11
25.4403748397
 21
-4.2371075673
  0
LINE
  5
4EA
100
AcDbEntity
  8
RACCORDO
100
AcDbLine
 62
250
  6
CONTINUOUS
 10
24.4383419224
 20
-4.2381507096
 11
24.4377918368
 21
-4.1032417323
  0
LINE
  5
4EB
100
AcDbEntity
  8
RACCORDO
100
AcDbLine
 62
250
  6
CONTINUOUS
 10
24.4384117627
 20
-4.298474139
 11
24.4383419224
 21
-4.2381507096
  0
LINE
  5
4EC
100
AcDbEntity
  8
ASSI
100
AcDbLine
 62
7
  6
CONTINUOUS
 10
23.6361561237
 20
2.2361561237
 11
23.6361561237
 21
-3.7638438763
  0
LINE
  5
4ED
100
AcDbEntity
  8
RACCORDO
100
AcDbLine
 62
7
  6
CONTINUOUS
 10
23.6861561237
 20
2.1861561237
 11
23.6861561237
 21
-3.7138438763
  0
LINE
  5
4EE
100
AcDbEntity
  8
RACCORDO
100
AcDbLine
 62
250
  6
CONTINUOUS
 10
23.9861561237
 20
2.320227938
 11
23.9861561237
 21
-3.8479156906
  0
LINE
  5
4EF
100
AcDbEntity
  8
RACCORDO
100
AcDbLine
 62
250
  6
CONTINUOUS
 10
24.1361561237
 20
-25.6638438763
 11
24.1361553297
 21
-5.7003341283
  0
LINE
  5
4F0
100
AcDbEntity
  8
RACCORDO
100
AcDbLine
 62
250
  6
CONTINUOUS
 10
24.1361561237
 20
-5.5570747354
 11
24.1361561237
 21
-4.1837861861
  0
LINE
  5
4F1
100
AcDbEntity
  8
RACCORDO
100
AcDbLine
 62
250
  6
CONTINUOUS
 10
24.1361561237
 20
2.6560984335
 11
24.1361561237
 21
4.0293869828
  0
LINE
  5
4F2
100
AcDbEntity
  8
RACCORDO
100
AcDbLine
 62
250
  6
CONTINUOUS
 10
24.1361569406
 20
4.1726492695
 11
24.1361561237
 21
24.1361561237
  0
LINE
  5
4F3
100
AcDbEntity
  8
DRAFT
100
AcDbLine
 62
7
  6
CONTINUOUS
 10
24.2861561237
 20
-3.9588157081
 11
24.2861561237
 21
-3.7753884806
  0
LINE
  5
4F4
100
AcDbEntity
  8
DRAFT
100
AcDbLine
 62
7
  6
CONTINUOUS
 10
24.2861561237
 20
-3.7727680916
 11
24.2861561237
 21
2.245080339
  0
LINE
  5
4F5
100
AcDbEntity
  8
DRAFT
100
AcDbLine
 62
7
  6
CONTINUOUS
 10
24.2861561237
 20
2.2477007279
 11
24.2861561237
 21
2.4311279554
  0
LINE
  5
4F6
100
AcDbEntity
  8
RACCORDO
100
AcDbLine
 62
250
  6
CONTINUOUS
 10
24.4361561237
 20
2.4711975259
 11
24.4361561237
 21
2.4389891223
  0
LINE
  5
4F7
100
AcDbEntity
  8
RACCORDO
100
AcDbLine
 62
250
  6
CONTINUOUS
 10
24.4361561237
 20
-3.9988852786
 11
24.4361561237
 21
-3.966676875
  0
LINE
  5
4F8
100
AcDbEntity
  8
RACCORDO
100
AcDbLine
 62
250
  6
CONTINUOUS
 10
24.5315299881
 20
2.2064355749
 11
24.5315299881
 21
-3.7341233275
  0
LINE
  5
4F9
100
AcDbEntity
  8
RACCORDO
100
AcDbLine
 62
250
  6
CONTINUOUS
 10
24.6614337986
 20
2.0765317643
 11
24.6614337986
 21
-3.604219517
  0
LINE
  5
4FA
100
AcDbEntity
  8
RACCORDO
100
AcDbLine
 62
250
  6
CONTINUOUS
 10
25.0929524163
 20
-3.4570475837
 11
25.0929524163
 21
-1.0555968765
  0
LINE
  5
4FB
100
AcDbEntity
  8
RACCORDO
100
AcDbLine
 62
250
  6
CONTINUOUS
 10
25.0929524163
 20
-0.4720908762
 11
25.0929524163
 21
1.929359831
  0
LINE
  5
4FC
100
AcDbEntity
  8
RACCORDO
100
AcDbLine
 62
7
  6
CONTINUOUS
 10
25.2429467048
 20
-3.3070532952
 11
25.2429467048
 21
-1.170697456
  0
LINE
  5
4FD
100
AcDbEntity
  8
RACCORDO
100
AcDbLine
 62
7
  6
CONTINUOUS
 10
25.2429467048
 20
-0.3569902967
 11
25.2429467048
 21
1.7793655425
  0
LINE
  5
4FE
100
AcDbEntity
  8
RACCORDO
100
AcDbLine
 62
250
  6
CONTINUOUS
 10
25.2833318052
 20
-3.2666681948
 11
25.2833318052
 21
-1.2435021347
  0
LINE
  5
4FF
100
AcDbEntity
  8
RACCORDO
100
AcDbLine
 62
250
  6
CONTINUOUS
 10
25.2833318052
 20
-0.284185618
 11
25.2833318052
 21
1.7389804421
  0
LINE
  5
500
100
AcDbEntity
  8
RACCORDO
100
AcDbLine
 62
250
  6
CONTINUOUS
 10
25.3497307031
 20
-3.7540139472
 11
25.3497307031
 21
-3.3070532952
  0
LINE
  5
501
100
AcDbEntity
  8
RACCORDO
100
AcDbLine
 62
250
  6
CONTINUOUS
 10
25.3497307031
 20
1.7793655425
 11
25.3497307031
 21
2.2263261945
  0
LINE
  5
502
100
AcDbEntity
  8
RACCORDO
100
AcDbLine
 62
250
  6
CONTINUOUS
 10
25.4997078573
 20
-3.604219517
 11
25.4997078573
 21
-3.4570475837
  0
LINE
  5
503
100
AcDbEntity
  8
RACCORDO
100
AcDbLine
 62
250
  6
CONTINUOUS
 10
25.4997078573
 20
1.929359831
 11
25.4997078573
 21
2.0765317643
  0
LINE
  5
504
100
AcDbEntity
  8
RACCORDO
100
AcDbLine
 62
250
  6
CONTINUOUS
 10
25.5722033141
 20
-0.9271819855
 11
25.5722033141
 21
-0.6005057672
  0
LINE
  5
505
100
AcDbEntity
  8
RACCORDO
100
AcDbLine
 62
250
  6
CONTINUOUS
 10
25.5803452756
 20
-3.8463285
 11
25.5803452756
 21
-3.4167319451
  0
LINE
  5
506
100
AcDbEntity
  8
RACCORDO
100
AcDbLine
 62
250
  6
CONTINUOUS
 10
25.5803452756
 20
1.8890441925
 11
25.5803452756
 21
2.3186407473
  0
LINE
  5
507
100
AcDbEntity
  8
RACCORDO
100
AcDbLine
 62
250
  6
CONTINUOUS
 10
25.5942013164
 20
-2.9934148149
 11
25.5942013164
 21
-1.4737032884
  0
LINE
  5
508
100
AcDbEntity
  8
RACCORDO
100
AcDbLine
 62
250
  6
CONTINUOUS
 10
25.5942013164
 20
-0.0539844643
 11
25.5942013164
 21
1.4657270623
  0
LINE
  5
509
100
AcDbEntity
  8
RACCORDO
100
AcDbLine
 62
250
  6
CONTINUOUS
 10
25.7021071247
 20
-0.9271819855
 11
25.7021071247
 21
-0.6005057672
  0
LINE
  5
50A
100
AcDbEntity
  8
RACCORDO
100
AcDbLine
 62
250
  6
CONTINUOUS
 10
25.8934134448
 20
-3.8463285
 11
25.8934134448
 21
-3.4167319451
  0
LINE
  5
50B
100
AcDbEntity
  8
RACCORDO
100
AcDbLine
 62
250
  6
CONTINUOUS
 10
25.8934134448
 20
1.8890441925
 11
25.8934134448
 21
2.3186407473
  0
LINE
  5
50C
100
AcDbEntity
  8
RACCORDO
100
AcDbLine
 62
250
  6
CONTINUOUS
 10
24.4384116927
 20
2.7707863861
 11
24.4379408124
 21
2.5995713679
  0
LINE
  5
50D
100
AcDbEntity
  8
RACCORDO
100
AcDbLine
 62
250
  6
CONTINUOUS
 10
25.4406762683
 20
2.7697442016
 11
25.4403748836
 21
2.709419831
  0
LINE
  5
50E
100
AcDbEntity
  8
RACCORDO
100
AcDbLine
 62
250
  6
CONTINUOUS
 10
24.4379408124
 20
2.5995713679
 11
24.4374451689
 21
2.5337381916
  0
LINE
  5
50F
100
AcDbEntity
  8
RACCORDO
100
AcDbLine
 62
250
  6
CONTINUOUS
 10
25.4403748836
 20
2.709419831
 11
25.4396881173
 21
2.6515597702
  0
LWPOLYLINE
  5
510
100
AcDbEntity
  8
RACCORDO
100
AcDbPolyline
 62
250
  6
CONTINUOUS
 90
6
 70
0
 10
24.4374451689
 20
2.5337381916
 10
24.4370459024
 20
2.5016067784
 10
24.4368315534
 20
2.4895995402
 10
24.436610289
 20
2.4804712753
 10
24.4363843746
 20
2.4743154472
 10
24.4361561231
 20
2.471195085
  0
LWPOLYLINE
  5
511
100
AcDbEntity
  8
RACCORDO
100
AcDbPolyline
 62
250
  6
CONTINUOUS
 90
11
 70
0
 10
25.4396881173
 20
2.6515597702
 10
25.4386440244
 20
2.5985276592
 10
25.438000783
 20
2.5745092849
 10
25.4372852573
 20
2.552489912
 10
25.4365047734
 20
2.5326949958
 10
25.4356673227
 20
2.5153272155
 10
25.4347814799
 20
2.5005643992
 10
25.433856315
 20
2.4885577025
 10
25.4329013008
 20
2.4794300615
 10
25.4319262156
 20
2.4732749337
 10
25.4309410433
 20
2.4701553412
  0
LWPOLYLINE
  5
512
100
AcDbEntity
  8
RACCORDO
100
AcDbPolyline
 62
250
  6
CONTINUOUS
 90
12
 70
0
 10
25.4389203725
 20
-3.1199819329
 10
25.4379404999
 20
-3.1616049068
 10
25.4373682863
 20
-3.1803553053
 10
25.4367466598
 20
-3.1975456971
 10
25.4360801577
 20
-3.2130506052
 10
25.4353736451
 20
-3.2267568555
 10
25.4346322789
 20
-3.2385644026
 10
25.4338614706
 20
-3.2483870602
 10
25.4330668464
 20
-3.2561531303
 10
25.4322542066
 20
-3.2618059265
 10
25.4314294828
 20
-3.2653041875
 10
25.4305986949
 20
-3.2666223786
  0
LWPOLYLINE
  5
513
100
AcDbEntity
  8
RACCORDO
100
AcDbPolyline
 62
250
  6
CONTINUOUS
 90
16
 70
0
 10
25.4997078573
 20
1.929359831
 10
25.4988788697
 20
1.913633632
 10
25.4964058339
 20
1.8980807804
 10
25.4923160099
 20
1.8828727143
 10
25.4866536558
 20
1.8681752289
 10
25.4794816241
 20
1.8541523482
 10
25.4708825586
 20
1.8409635747
 10
25.4609555143
 20
1.8287561908
 10
25.4498091532
 20
1.8176598026
 10
25.4375623859
 20
1.8077914693
 10
25.4243294756
 20
1.799248028
 10
25.4102738242
 20
1.7921393928
 10
25.3956116487
 20
1.7865636527
 10
25.380531442
 20
1.782567437
 10
25.3651818656
 20
1.7801660263
 10
25.3497307031
 20
1.7793655425
  0
LINE
  5
514
100
AcDbEntity
  8
RACCORDO
100
AcDbLine
 62
250
  6
CONTINUOUS
 10
25.611020258
 20
-0.4556389605
 11
25.5722033141
 21
-0.6005057672
  0
LINE
  5
515
100
AcDbEntity
  8
RACCORDO
100
AcDbLine
 62
250
  6
CONTINUOUS
 10
25.9944296275
 20
-0.5463726445
 11
26.012253955
 21
-0.4798429034
  0
LWPOLYLINE
  5
516
100
AcDbEntity
  8
RACCORDO
100
AcDbPolyline
 62
250
  6
CONTINUOUS
 90
16
 70
0
 10
26.104577557
 20
-0.1901092898
 10
26.0963997422
 20
-0.2203036052
 10
26.0881510131
 20
-0.2501691051
 10
26.0799211982
 20
-0.2793805551
 10
26.07179992
 20
-0.3076198434
 10
26.0638756188
 20
-0.3345794449
 10
26.0562345901
 20
-0.3599657702
 10
26.0489600443
 20
-0.3835023632
 10
26.0421312011
 20
-0.4049329111
 10
26.0358224263
 20
-0.4240240359
 10
26.0301024224
 20
-0.440567836
 10
26.0250334798
 20
-0.45438415
 10
26.0206707994
 20
-0.4653225189
 10
26.0170618906
 20
-0.4732638244
 10
26.0142460541
 20
-0.478121586
 10
26.0122539544
 20
-0.4798429033
  0
LINE
  5
517
100
AcDbEntity
  8
RACCORDO
100
AcDbLine
 62
7
  6
CONTINUOUS
 10
34.7502753903
 20
-11.4246467402
 11
34.3160010849
 21
-11.6114175795
  0
LINE
  5
518
100
AcDbEntity
  8
RACCORDO
100
AcDbLine
 62
250
  6
CONTINUOUS
 10
24.1361561237
 20
24.1361561237
 11
-25.6638438763
 21
24.1361561237
  0
LWPOLYLINE
  5
519
100
AcDbEntity
  8
RACCORDO
100
AcDbPolyline
 62
250
  6
CONTINUOUS
 90
16
 70
0
 10
26.1045770128
 20
-1.3375784619
 10
26.0963991957
 20
-1.3073839649
 10
26.0881504348
 20
-1.2775181755
 10
26.0799205631
 20
-1.2483063473
 10
26.071799208
 20
-1.2200666115
 10
26.0638748149
 20
-1.1931065127
 10
26.0562336844
 20
-1.16771966
 10
26.0489590321
 20
-1.1441825286
 10
26.0421300825
 20
-1.1227514497
 10
26.0358212061
 20
-1.1036598184
 10
26.0301011097
 20
-1.0871155521
 10
26.0250320877
 20
-1.0732988259
 10
26.0206693442
 20
-1.0623601111
 10
26.0170603915
 20
-1.0544185356
 10
26.0142445329
 20
-1.0495605873
 10
26.0122524342
 20
-1.0478391715
  0
LINE
  5
51A
100
AcDbEntity
  8
RACCORDO
100
AcDbLine
 62
250
  6
CONTINUOUS
 10
25.611020258
 20
-1.0720487921
 11
25.5722033141
 21
-0.9271819855
  0
LINE
  5
51B
100
AcDbEntity
  8
RACCORDO
100
AcDbLine
 62
250
  6
CONTINUOUS
 10
25.9944321258
 20
-0.9813145169
 11
26.012253955
 21
-1.0478448492
  0
LINE
  5
51C
100
AcDbEntity
  8
RACCORDO
100
AcDbLine
 62
250
  6
CONTINUOUS
 10
29.4361561237
 20
35.4361561237
 11
29.4361561237
 21
34.3160010849
  0
LINE
  5
51D
100
AcDbEntity
  8
RACCORDO
100
AcDbLine
 62
250
  6
CONTINUOUS
 10
29.4361561237
 20
-36.9638438763
 11
29.4361561237
 21
-35.8436888376
  0
LINE
  5
51E
100
AcDbEntity
  8
RACCORDO
100
AcDbLine
 62
250
  6
CONTINUOUS
 10
-36.9638438763
 20
29.4361561237
 11
-35.8436888376
 21
29.4361561237
  0
LINE
  5
51F
100
AcDbEntity
  8
RACCORDO
100
AcDbLine
 62
250
  6
CONTINUOUS
 10
35.4361561237
 20
29.4361561237
 11
34.3160010849
 21
29.4361561237
  0
LWPOLYLINE
  5
520
100
AcDbEntity
  8
RACCORDO
100
AcDbPolyline
 62
250
  6
CONTINUOUS
 90
7
 70
0
 10
34.3160010849
 20
29.4361561237
 10
34.3127106711
 20
29.605265605
 10
34.3028353631
 20
29.7738687581
 10
34.2863738499
 20
29.9419655828
 10
34.2633239516
 20
30.1095560793
 10
34.2336826258
 20
30.2766402476
 10
34.1974459779
 20
30.4432180875
  0
LINE
  5
521
100
AcDbEntity
  8
RACCORDO
100
AcDbLine
 62
7
  6
CONTINUOUS
 10
31.5861561237
 20
3.6861561237
 11
31.5861561237
 21
-5.2138438763
  0
LINE
  5
522
100
AcDbEntity
  8
ASSI
100
AcDbLine
 62
7
  6
CONTINUOUS
 10
31.6361561237
 20
-5.2638438763
 11
31.6361561237
 21
3.7361561237
  0
LINE
  5
523
100
AcDbEntity
  8
RACCORDO
100
AcDbLine
 62
250
  6
CONTINUOUS
 10
34.3160010849
 20
-30.9638438763
 11
34.3160010849
 21
-21.9158739674
  0
LINE
  5
524
100
AcDbEntity
  8
RACCORDO
100
AcDbLine
 62
250
  6
CONTINUOUS
 10
34.3160010849
 20
-11.6114274981
 11
34.3160010849
 21
10.0841260326
  0
LINE
  5
525
100
AcDbEntity
  8
RACCORDO
100
AcDbLine
 62
250
  6
CONTINUOUS
 10
34.3160010849
 20
20.3885725019
 11
34.3160010849
 21
29.4361561237
  0
LWPOLYLINE
  5
526
100
AcDbEntity
  8
RACCORDO
100
AcDbPolyline
 62
250
  6
CONTINUOUS
 90
7
 70
0
 10
-30.9638438763
 20
34.3160010849
 10
-31.1329533541
 20
34.3127106714
 10
-31.3015565039
 20
34.3028353637
 10
-31.4696533259
 20
34.2863738511
 10
-31.63724382
 20
34.2633239534
 10
-31.8043279863
 20
34.2336826283
 10
-31.9709058246
 20
34.1974459813
  0
LINE
  5
527
100
AcDbEntity
  8
RACCORDO
100
AcDbLine
 62
250
  6
CONTINUOUS
 10
29.4361561237
 20
34.3160010849
 11
19.8663281689
 21
34.3160010849
  0
LINE
  5
528
100
AcDbEntity
  8
RACCORDO
100
AcDbLine
 62
250
  6
CONTINUOUS
 10
10.6064231707
 20
34.3160010849
 11
-12.1341077664
 21
34.3160010849
  0
LINE
  5
529
100
AcDbEntity
  8
RACCORDO
100
AcDbLine
 62
250
  6
CONTINUOUS
 10
-21.3939872872
 20
34.3160010849
 11
-30.9638438763
 21
34.3160010849
  0
LINE
  5
52A
100
AcDbEntity
  8
ASSI
100
AcDbLine
 62
7
  6
CONTINUOUS
 10
35.4361561237
 20
-30.9638438763
 11
35.4361561237
 21
-22.4820166614
  0
LINE
  5
52B
100
AcDbEntity
  8
ASSI
100
AcDbLine
 62
7
  6
CONTINUOUS
 10
35.4361561237
 20
-11.0456710913
 11
35.4361561237
 21
9.5179833386
  0
LINE
  5
52C
100
AcDbEntity
  8
ASSI
100
AcDbLine
 62
7
  6
CONTINUOUS
 10
35.4361561237
 20
20.9543289087
 11
35.4361561237
 21
29.4361561237
  0
LWPOLYLINE
  5
52D
100
AcDbEntity
  8
RACCORDO
100
AcDbPolyline
 62
7
  6
CONTINUOUS
 90
10
 70
0
 10
35.4361561237
 20
-11.049995695
 10
35.4263303267
 20
-11.0705842222
 10
35.3973064551
 20
-11.0968308451
 10
35.3499373794
 20
-11.128735564
 10
35.2853050996
 20
-11.1668293841
 10
35.2046449618
 20
-11.2105813002
 10
35.1092755756
 20
-11.2583982954
 10
35.0007094515
 20
-11.3103443022
 10
34.8805375702
 20
-11.3663553882
 10
34.7502753903
 20
-11.4246467402
  0
LWPOLYLINE
  5
52E
100
AcDbEntity
  8
RACCORDO
100
AcDbPolyline
 62
7
  6
CONTINUOUS
 90
11
 70
0
 10
10.1165647004
 20
-36.9638438763
 10
10.1342077075
 20
-36.9542134587
 10
10.15680651
 20
-36.9256906747
 10
10.1843611078
 20
-36.8789986811
 10
10.2173105263
 20
-36.8150829933
 10
10.25521574
 20
-36.7350615672
 10
10.2967596737
 20
-36.6401770562
 10
10.3420199893
 20
-36.5318591581
 10
10.3909190248
 20
-36.4116311846
 10
10.4419067183
 20
-36.2810049825
 10
10.6058516843
 20
-35.8436888376
  0
LINE
  5
52F
100
AcDbEntity
  8
ASSI
100
AcDbLine
 62
7
  6
CONTINUOUS
 10
29.4361561237
 20
35.4361561237
 11
20.3586555136
 21
35.4361561237
  0
LINE
  5
530
100
AcDbEntity
  8
ASSI
100
AcDbLine
 62
7
  6
CONTINUOUS
 10
10.1136567337
 20
35.4361561237
 11
4.2361561237
 21
35.4361561237
  0
LINE
  5
531
100
AcDbEntity
  8
0
100
AcDbLine
 62
7
  6
CONTINUOUS
 10
4.2361561237
 20
35.4361561237
 11
-5.7638438763
 21
35.4361561237
  0
LINE
  5
532
100
AcDbEntity
  8
ASSI
100
AcDbLine
 62
7
  6
CONTINUOUS
 10
-5.7638438763
 20
35.4361561237
 11
-11.6413444864
 21
35.4361561237
  0
LINE
  5
533
100
AcDbEntity
  8
ASSI
100
AcDbLine
 62
7
  6
CONTINUOUS
 10
-21.8863432663
 20
35.4361561237
 11
-30.9638438763
 21
35.4361561237
  0
LWPOLYLINE
  5
534
100
AcDbEntity
  8
RACCORDO
100
AcDbPolyline
 62
7
  6
CONTINUOUS
 90
10
 70
0
 10
10.1165669153
 20
35.4361561237
 10
10.1342103155
 20
35.4265257001
 10
10.1568094657
 20
35.3980029035
 10
10.1843643659
 20
35.3513108985
 10
10.2173140911
 20
35.287395216
 10
10.2552195663
 20
35.2073738143
 10
10.2967635661
 20
35.1124893164
 10
10.3420236095
 20
35.0041713786
 10
10.3909221775
 20
34.8839433297
 10
10.4419094879
 20
34.7533170764
  0
LWPOLYLINE
  5
535
100
AcDbEntity
  8
RACCORDO
100
AcDbPolyline
 62
7
  6
CONTINUOUS
 90
11
 70
0
 10
35.4361561237
 20
9.5223082938
 10
35.4263302942
 20
9.5428986952
 10
35.3973063777
 20
9.569147397
 10
35.3499373217
 20
9.6010543993
 10
35.2853052379
 20
9.6391508676
 10
35.2046455131
 20
9.6829056364
 10
35.1092766362
 20
9.7307252089
 10
35.0007111325
 20
9.7826738038
 10
34.8805399185
 20
9.8386872023
 10
34.7502780348
 20
9.8969792514
 10
34.3160010849
 20
10.0837411491
  0
LINE
  5
536
100
AcDbEntity
  8
RACCORDO
100
AcDbLine
 62
7
  6
CONTINUOUS
 10
39.2361561237
 20
36.2402675194
 11
39.2361561237
 21
-37.7679552721
  0
LWPOLYLINE
  5
537
100
AcDbEntity
  8
RACCORDO
100
AcDbPolyline
 62
250
  6
CONTINUOUS
 90
7
 70
0
 10
34.1974459182
 20
-31.9709059918
 10
34.2336963619
 20
-31.8042286052
 10
34.2633459648
 20
-31.6370846988
 10
34.2863986259
 20
-31.4694742727
 10
34.3028573903
 20
-31.301397327
 10
34.3127244398
 20
-31.1328538615
 10
34.3160010849
 20
-30.9638438763
  0
LWPOLYLINE
  5
538
100
AcDbEntity
  8
RACCORDO
100
AcDbPolyline
 62
250
  6
CONTINUOUS
 90
25
 70
0
 10
19.8658890766
 20
-35.8436888376
 10
19.5254703201
 20
-36.1051101737
 10
19.1748797158
 20
-36.3445079597
 10
18.8141172637
 20
-36.5619817112
 10
18.4420086655
 20
-36.7580439647
 10
18.0597282195
 20
-36.9323629423
 10
17.6707988202
 20
-37.0837670963
 10
17.2752551455
 20
-37.21215001
 10
16.8730625176
 20
-37.3177608083
 10
16.4676397976
 20
-37.3999529361
 10
16.0590460487
 20
-37.4586056771
 10
15.6472222078
 20
-37.4939175272
 10
15.2354099467
 20
-37.5057040771
 10
14.8236091914
 20
-37.4938320176
 10
14.4118200159
 20
-37.4584346095
 10
14.0032843137
 20
-37.399707849
 10
13.5979552513
 20
-37.3174596988
 10
13.1958796622
 20
-37.2118043935
 10
12.8004399408
 20
-37.0833806771
 10
12.4115759794
 20
-36.9319158908
 10
12.0293478856
 20
-36.7575399159
 10
11.6573183769
 20
-36.561487224
 10
11.2966750257
 20
-36.3441108983
 10
10.9462302595
 20
-36.1048778094
 10
10.6059840784
 20
-35.8436888376
  0
LWPOLYLINE
  5
539
100
AcDbEntity
  8
RACCORDO
100
AcDbPolyline
 62
250
  6
CONTINUOUS
 90
19
 70
0
 10
30.4432146651
 20
-35.725134089
 10
30.6969759395
 20
-35.6523551612
 10
30.9522928433
 20
-35.5624046204
 10
31.2090891749
 20
-35.4551618738
 10
31.4690147251
 20
-35.330703421
 10
31.7302089768
 20
-35.1887243464
 10
31.9873088797
 20
-35.0285799042
 10
32.2405860924
 20
-34.8492024899
 10
32.4894636658
 20
-34.6515772442
 10
32.7273331857
 20
-34.4382616242
 10
32.9533997147
 20
-34.2089237605
 10
33.1681954438
 20
-33.9640418708
 10
33.3672016774
 20
-33.7075162398
 10
33.5497124788
 20
-33.4395946434
 10
33.7163269976
 20
-33.1603100904
 10
33.8646085521
 20
-32.8733044151
 10
33.9937905239
 20
-32.5798943775
 10
34.10471898
 20
-32.2790523208
 10
34.1974464226
 20
-31.970906777
  0
LINE
  5
53A
100
AcDbEntity
  8
0
100
AcDbLine
 62
7
  6
CONTINUOUS
 10
1.8361561237
 20
39.141822121
 11
-3.3638438763
 21
39.141822121
  0
LINE
  5
53B
100
AcDbEntity
  8
RACCORDO
100
AcDbLine
 62
7
  6
CONTINUOUS
 10
-37.7679552721
 20
39.2361561237
 11
-5.7638438763
 21
39.2361561237
  0
LINE
  5
53C
100
AcDbEntity
  8
RACCORDO
100
AcDbLine
 62
7
  6
CONTINUOUS
 10
4.2361561237
 20
39.2361561237
 11
36.2402675194
 21
39.2361561237
  0
LWPOLYLINE
  5
53D
100
AcDbEntity
  8
RACCORDO
100
AcDbPolyline
 62
250
  6
CONTINUOUS
 90
7
 70
0
 10
30.4432140236
 20
34.1974461174
 10
30.2765373619
 20
34.2336966074
 10
30.1093941715
 20
34.2633462248
 10
29.9417844525
 20
34.2863988686
 10
29.7737082048
 20
34.3028575839
 10
29.6051654286
 20
34.3127245525
 10
29.4361561237
 20
34.3160010849
  0
LWPOLYLINE
  5
53E
100
AcDbEntity
  8
RACCORDO
100
AcDbPolyline
 62
250
  6
CONTINUOUS
 90
28
 70
0
 10
34.3160010849
 20
20.3885725019
 10
34.613327265
 20
20.0672177615
 10
34.8889378918
 20
19.7336361605
 10
35.142942241
 20
19.3878276988
 10
35.3760046607
 20
19.0285555855
 10
35.5876655524
 20
18.6570566115
 10
35.7763493244
 20
18.2770411496
 10
35.9419162528
 20
17.8885540476
 10
36.0846878469
 20
17.4915504576
 10
36.2037781143
 20
17.0896062087
 10
36.2990685549
 20
16.6828034742
 10
36.3708001402
 20
16.2710600809
 10
36.4186115128
 20
15.8577053384
 10
36.4423980881
 20
15.4427758417
 10
36.4423073563
 20
15.0262349959
 10
36.4183356441
 20
14.6113023247
 10
36.3703280725
 20
14.1979257132
 10
36.2983963774
 20
13.7861572764
 10
36.2029164038
 20
13.3793728835
 10
36.0836381129
 20
12.9774973882
 10
35.9406889143
 20
12.5806059368
 10
35.7749964537
 20
12.1922998369
 10
35.5862196834
 20
11.8125140503
 10
35.3745181706
 20
11.4413136152
 10
35.1415689471
 20
11.0824949536
 10
34.8878662572
 20
10.7373235397
 10
34.6127130468
 20
10.4045338994
 10
34.3160010849
 20
10.0841260326
  0
LWPOLYLINE
  5
53F
100
AcDbEntity
  8
RACCORDO
100
AcDbPolyline
 62
250
  6
CONTINUOUS
 90
19
 70
0
 10
34.1974464919
 20
30.4432188832
 10
34.1044379603
 20
30.7521953509
 10
33.9931358362
 20
31.0538193331
 10
33.8634873772
 20
31.347961221
 10
33.7146345778
 20
31.6356606074
 10
33.5473557527
 20
31.9155863422
 10
33.3641237609
 20
32.1840562469
 10
33.1642803347
 20
32.4410678858
 10
32.9485922331
 20
32.6863409088
 10
32.7217975581
 20
32.9158426081
 10
32.4833805724
 20
33.1290344391
 10
32.2341257406
 20
33.3263135338
 10
31.9808224694
 20
33.505182279
 10
31.7241499595
 20
33.6646100013
 10
31.4637365081
 20
33.8057193311
 10
31.2048209773
 20
33.9293640858
 10
30.9492212487
 20
34.0359185086
 10
30.6953274794
 20
34.1252387679
 10
30.4432145213
 20
34.1974464058
  0
ARC
  5
540
100
AcDbEntity
  8
ASSI
100
AcDbCircle
 62
7
  6
CONTINUOUS
 10
-30.0138438763
 20
-16.7638438763
 40
9.0
100
AcDbArc
 50
140.5538640116
 51
219.4461359884
  0
ARC
  5
541
100
AcDbEntity
  8
ASSI
100
AcDbCircle
 62
7
  6
CONTINUOUS
 10
-16.7638438763
 20
-29.5638438763
 40
9.0
100
AcDbArc
 50
235.3078694147
 51
304.6921305853
  0
ARC
  5
542
100
AcDbEntity
  8
0
100
AcDbCircle
 62
7
  6
CONTINUOUS
 10
-30.9638438763
 20
-30.9638438763
 40
6.0
100
AcDbArc
 50
180.0
 51
270.0
  0
ARC
  5
543
100
AcDbEntity
  8
RACCORDO
100
AcDbCircle
 62
7
  6
CONTINUOUS
 10
-29.2138438763
 20
-3.7138438763
 40
4.0
100
AcDbArc
 50
270.0
 51
360.0
  0
ARC
  5
544
100
AcDbEntity
  8
ASSI
100
AcDbCircle
 62
7
  6
CONTINUOUS
 10
-29.1638438763
 20
-3.7638438763
 40
4.0
100
AcDbArc
 50
270.0
 51
360.0
  0
ARC
  5
545
100
AcDbEntity
  8
RACCORDO
100
AcDbCircle
 62
7
  6
CONTINUOUS
 10
-30.6138438763
 20
-5.2138438763
 40
2.5
100
AcDbArc
 50
180.0
 51
270.0
  0
ARC
  5
546
100
AcDbEntity
  8
ASSI
100
AcDbCircle
 62
7
  6
CONTINUOUS
 10
-30.6638438763
 20
-5.2638438763
 40
2.5
100
AcDbArc
 50
180.0
 51
270.0
  0
ARC
  5
547
100
AcDbEntity
  8
ASSI
100
AcDbCircle
 62
7
  6
CONTINUOUS
 10
-22.3638438763
 20
-11.0138438763
 40
2.5
100
AcDbArc
 50
134.4270040008
 51
315.5729959992
  0
ARC
  5
548
100
AcDbEntity
  8
ASSI
100
AcDbCircle
 62
7
  6
CONTINUOUS
 10
-18.7931296621
 20
-14.5138438763
 40
2.5
100
AcDbArc
 50
90.0000029612
 51
135.5729959992
  0
ARC
  5
549
100
AcDbEntity
  8
ASSI
100
AcDbCircle
 62
7
  6
CONTINUOUS
 10
-25.8638438763
 20
-7.4431296621
 40
2.5
100
AcDbArc
 50
314.4270040008
 51
360.0
  0
ARC
  5
54A
100
AcDbEntity
  8
0
100
AcDbCircle
 62
250
  6
CONTINUOUS
 10
-15.7246108763
 20
-16.1373968763
 40
0.999728
100
AcDbArc
 50
270.0
 51
90.0
  0
ARC
  5
54B
100
AcDbEntity
  8
0
100
AcDbCircle
 62
250
  6
CONTINUOUS
 10
-6.2919268763
 20
-17.0138438763
 40
0.983755
100
AcDbArc
 50
90.0
 51
270.0
  0
ARC
  5
54C
100
AcDbEntity
  8
0
100
AcDbCircle
 62
250
  6
CONTINUOUS
 10
-5.4509058763
 20
-17.0138438763
 40
0.983755
100
AcDbArc
 50
90.0
 51
270.0
  0
ARC
  5
54D
100
AcDbEntity
  8
0
100
AcDbCircle
 62
250
  6
CONTINUOUS
 10
-4.6098858763
 20
-17.0138438763
 40
0.983755
100
AcDbArc
 50
90.0
 51
270.0
  0
ARC
  5
54E
100
AcDbEntity
  8
ASSI
100
AcDbCircle
 62
7
  6
CONTINUOUS
 10
-23.0638438763
 20
-11.7138438763
 40
0.3
100
AcDbArc
 50
180.0
 51
270.0
  0
ARC
  5
54F
100
AcDbEntity
  8
ASSI
100
AcDbCircle
 62
7
  6
CONTINUOUS
 10
-16.7638438763
 20
28.0361561237
 40
9.0
100
AcDbArc
 50
55.3078694147
 51
124.6921305853
  0
ARC
  5
550
100
AcDbEntity
  8
ASSI
100
AcDbCircle
 62
7
  6
CONTINUOUS
 10
-30.0138438763
 20
15.2361561237
 40
9.0
100
AcDbArc
 50
140.5538640116
 51
219.4461359884
  0
ARC
  5
551
100
AcDbEntity
  8
0
100
AcDbCircle
 62
7
  6
CONTINUOUS
 10
-30.9638438763
 20
29.4361561237
 40
6.0
100
AcDbArc
 50
90.0
 51
180.0
  0
ARC
  5
552
100
AcDbEntity
  8
RACCORDO
100
AcDbCircle
 62
7
  6
CONTINUOUS
 10
-29.2138438763
 20
2.1861561237
 40
4.0
100
AcDbArc
 50
0.0
 51
90.0
  0
ARC
  5
553
100
AcDbEntity
  8
ASSI
100
AcDbCircle
 62
7
  6
CONTINUOUS
 10
-29.1638438763
 20
2.2361561237
 40
4.0
100
AcDbArc
 50
0.0
 51
90.0
  0
ARC
  5
554
100
AcDbEntity
  8
RACCORDO
100
AcDbCircle
 62
7
  6
CONTINUOUS
 10
-30.6138438763
 20
3.6861561237
 40
2.5
100
AcDbArc
 50
90.0
 51
180.0
  0
ARC
  5
555
100
AcDbEntity
  8
ASSI
100
AcDbCircle
 62
7
  6
CONTINUOUS
 10
-30.6638438763
 20
3.7361561237
 40
2.5
100
AcDbArc
 50
90.0
 51
180.0
  0
ARC
  5
556
100
AcDbEntity
  8
ASSI
100
AcDbCircle
 62
7
  6
CONTINUOUS
 10
-18.7931296621
 20
12.9861561237
 40
2.5
100
AcDbArc
 50
224.4270040008
 51
270.0
  0
ARC
  5
557
100
AcDbEntity
  8
ASSI
100
AcDbCircle
 62
7
  6
CONTINUOUS
 10
-22.3638438763
 20
9.4861561237
 40
2.5
100
AcDbArc
 50
44.4270040008
 51
225.5729959992
  0
ARC
  5
558
100
AcDbEntity
  8
ASSI
100
AcDbCircle
 62
7
  6
CONTINUOUS
 10
-25.8638438763
 20
5.9154419094
 40
2.5
100
AcDbArc
 50
0.0
 51
45.5729959992
  0
ARC
  5
559
100
AcDbEntity
  8
ASSI
100
AcDbCircle
 62
7
  6
CONTINUOUS
 10
-23.0638438763
 20
10.1861561237
 40
0.3
100
AcDbArc
 50
90.0
 51
180.0
  0
ARC
  5
55A
100
AcDbEntity
  8
ASSI
100
AcDbCircle
 62
7
  6
CONTINUOUS
 10
15.2361561237
 20
-29.5638438763
 40
9.0
100
AcDbArc
 50
235.3078694147
 51
304.6921305853
  0
ARC
  5
55B
100
AcDbEntity
  8
ASSI
100
AcDbCircle
 62
7
  6
CONTINUOUS
 10
28.4861561237
 20
-16.7638438763
 40
9.0
100
AcDbArc
 50
320.5538640116
 51
39.4461359884
  0
ARC
  5
55C
100
AcDbEntity
  8
0
100
AcDbCircle
 62
7
  6
CONTINUOUS
 10
29.4361561237
 20
-30.9638438763
 40
6.0
100
AcDbArc
 50
270.0
 51
360.0
  0
ARC
  5
55D
100
AcDbEntity
  8
RACCORDO
100
AcDbCircle
 62
7
  6
CONTINUOUS
 10
27.6861561237
 20
-3.7138438763
 40
4.0
100
AcDbArc
 50
180.0
 51
270.0
  0
ARC
  5
55E
100
AcDbEntity
  8
ASSI
100
AcDbCircle
 62
7
  6
CONTINUOUS
 10
27.6361561237
 20
-3.7638438763
 40
4.0
100
AcDbArc
 50
180.0
 51
270.0
  0
CIRCLE
  5
55F
100
AcDbEntity
  8
0
100
AcDbCircle
 62
250
  6
CONTINUOUS
 10
5.2361561237
 20
-18.5138438763
 40
2.999896
  0
ARC
  5
560
100
AcDbEntity
  8
0
100
AcDbCircle
 62
250
  6
CONTINUOUS
 10
18.6537121237
 20
-18.5138438763
 40
2.5499986575
100
AcDbArc
 50
87.752529198
 51
272.247470802
  0
ARC
  5
561
100
AcDbEntity
  8
0
100
AcDbCircle
 62
250
  6
CONTINUOUS
 10
14.2686021237
 20
-18.5138438763
 40
2.5499985399
100
AcDbArc
 50
87.7525290943
 51
272.2474709057
  0
ARC
  5
562
100
AcDbEntity
  8
RACCORDO
100
AcDbCircle
 62
7
  6
CONTINUOUS
 10
29.0861561237
 20
-5.2138438763
 40
2.5
100
AcDbArc
 50
270.0
 51
360.0
  0
ARC
  5
563
100
AcDbEntity
  8
ASSI
100
AcDbCircle
 62
7
  6
CONTINUOUS
 10
29.1361561237
 20
-5.2638438763
 40
2.5
100
AcDbArc
 50
270.0
 51
360.0
  0
ARC
  5
564
100
AcDbEntity
  8
ASSI
100
AcDbCircle
 62
7
  6
CONTINUOUS
 10
17.2654419094
 20
-14.5138438763
 40
2.5
100
AcDbArc
 50
44.4270040008
 51
90.0
  0
ARC
  5
565
100
AcDbEntity
  8
ASSI
100
AcDbCircle
 62
7
  6
CONTINUOUS
 10
20.8361561237
 20
-11.0138438763
 40
2.5
100
AcDbArc
 50
224.4270040008
 51
45.5729959992
  0
ARC
  5
566
100
AcDbEntity
  8
ASSI
100
AcDbCircle
 62
7
  6
CONTINUOUS
 10
24.3361561237
 20
-7.4431296621
 40
2.5
100
AcDbArc
 50
180.0
 51
225.5729959992
  0
ARC
  5
567
100
AcDbEntity
  8
0
100
AcDbCircle
 62
250
  6
CONTINUOUS
 10
5.2361561237
 20
-18.5138438763
 40
2.246618479
100
AcDbArc
 50
142.1799962019
 51
229.6797913243
  0
ARC
  5
568
100
AcDbEntity
  8
0
100
AcDbCircle
 62
250
  6
CONTINUOUS
 10
5.2361561237
 20
-18.5138438763
 40
2.2466182954
100
AcDbArc
 50
310.3202086757
 51
37.8200037981
  0
ARC
  5
569
100
AcDbEntity
  8
0
100
AcDbCircle
 62
250
  6
CONTINUOUS
 10
18.6537121237
 20
-18.5138438763
 40
1.7999999246
100
AcDbArc
 50
86.8152613297
 51
167.9753003079
  0
ARC
  5
56A
100
AcDbEntity
  8
0
100
AcDbCircle
 62
250
  6
CONTINUOUS
 10
14.2686021237
 20
-18.5138438763
 40
1.7999999246
100
AcDbArc
 50
86.8152613297
 51
273.1847386703
  0
ARC
  5
56B
100
AcDbEntity
  8
0
100
AcDbCircle
 62
250
  6
CONTINUOUS
 10
18.6537121237
 20
-18.5138438763
 40
1.7999968808
100
AcDbArc
 50
192.0247203293
 51
273.1847440612
  0
ARC
  5
56C
100
AcDbEntity
  8
0
100
AcDbCircle
 62
250
  6
CONTINUOUS
 10
5.9497881237
 20
-22.8352798763
 40
1.3215402535
100
AcDbArc
 50
43.6301223502
 51
90.0
  0
ARC
  5
56D
100
AcDbEntity
  8
ASSI
100
AcDbCircle
 62
7
  6
CONTINUOUS
 10
21.5361561237
 20
-11.7138438763
 40
0.3
100
AcDbArc
 50
270.0
 51
360.0
  0
ARC
  5
56E
100
AcDbEntity
  8
ASSI
100
AcDbCircle
 62
7
  6
CONTINUOUS
 10
28.4861561237
 20
15.2361561237
 40
9.0
100
AcDbArc
 50
320.5538640116
 51
39.4461359884
  0
ARC
  5
56F
100
AcDbEntity
  8
ASSI
100
AcDbCircle
 62
7
  6
CONTINUOUS
 10
15.2361561237
 20
28.0361561237
 40
9.0
100
AcDbArc
 50
55.3078694147
 51
124.6921305853
  0
ARC
  5
570
100
AcDbEntity
  8
0
100
AcDbCircle
 62
7
  6
CONTINUOUS
 10
29.4361561237
 20
29.4361561237
 40
6.0
100
AcDbArc
 50
0.0
 51
90.0
  0
ARC
  5
571
100
AcDbEntity
  8
RACCORDO
100
AcDbCircle
 62
7
  6
CONTINUOUS
 10
27.6861561237
 20
2.1861561237
 40
4.0
100
AcDbArc
 50
90.0
 51
180.0
  0
ARC
  5
572
100
AcDbEntity
  8
ASSI
100
AcDbCircle
 62
7
  6
CONTINUOUS
 10
27.6361561237
 20
2.2361561237
 40
4.0
100
AcDbArc
 50
90.0
 51
180.0
  0
ARC
  5
573
100
AcDbEntity
  8
RACCORDO
100
AcDbCircle
 62
7
  6
CONTINUOUS
 10
29.0861561237
 20
3.6861561237
 40
2.5
100
AcDbArc
 50
0.0
 51
90.0
  0
ARC
  5
574
100
AcDbEntity
  8
ASSI
100
AcDbCircle
 62
7
  6
CONTINUOUS
 10
29.1361561237
 20
3.7361561237
 40
2.5
100
AcDbArc
 50
0.0
 51
90.0
  0
ARC
  5
575
100
AcDbEntity
  8
ASSI
100
AcDbCircle
 62
7
  6
CONTINUOUS
 10
24.3361561237
 20
5.9154419094
 40
2.5
100
AcDbArc
 50
134.4270040008
 51
180.0
  0
ARC
  5
576
100
AcDbEntity
  8
ASSI
100
AcDbCircle
 62
7
  6
CONTINUOUS
 10
20.8361561237
 20
9.4861561237
 40
2.5
100
AcDbArc
 50
314.4270040008
 51
135.5729959992
  0
ARC
  5
577
100
AcDbEntity
  8
ASSI
100
AcDbCircle
 62
7
  6
CONTINUOUS
 10
17.2654419094
 20
12.9861561237
 40
2.5
100
AcDbArc
 50
270.0000027128
 51
315.5729959992
  0
ARC
  5
578
100
AcDbEntity
  8
ASSI
100
AcDbCircle
 62
7
  6
CONTINUOUS
 10
21.5361561237
 20
10.1861561237
 40
0.3
100
AcDbArc
 50
0.0
 51
90.0
  0
ELLIPSE
  5
579
100
AcDbEntity
  8
RACCORDO
100
AcDbEllipse
 62
7
  6
CONTINUOUS
 10
25.5833203821
 20
-3.2666910414
 30
0.0
 11
0.3
 21
0.0
 31
0.0
 40
0.0087268678
 41
3.1003510813
 42
3.1328660073
  0
ELLIPSE
  5
57A
100
AcDbEntity
  8
RACCORDO
100
AcDbEllipse
 62
7
  6
CONTINUOUS
 10
25.5833203821
 20
1.7390032887
 30
0.0
 11
0.3
 21
0.0
 31
0.0
 40
0.0087268678
 41
-3.1328660073
 42
-3.1003510813
  0
ELLIPSE
  5
57B
100
AcDbEntity
  8
RACCORDO
100
AcDbEllipse
 62
7
  6
CONTINUOUS
 10
24.4882287179
 20
-3.604219517
 30
0.0
 11
0.0
 21
0.15
 31
0.0
 40
0.5773502692
 41
-3.089232776
 42
-2.617993878
  0
ELLIPSE
  5
57C
100
AcDbEntity
  8
RACCORDO
100
AcDbEllipse
 62
7
  6
CONTINUOUS
 10
24.4882287179
 20
2.0765317643
 30
0.0
 11
-0.0
 21
0.15
 31
0.0
 40
0.5773502692
 41
-0.5235987756
 42
-0.0523598776
  0
ELLIPSE
  5
57D
100
AcDbEntity
  8
RACCORDO
100
AcDbEllipse
 62
7
  6
CONTINUOUS
 10
24.4361561237
 20
-3.8164710231
 30
0.0
 11
0.1060660172
 21
0.1117702609
 31
0.0
 40
0.9489645667
 41
-2.5553522633
 42
-2.3561944902
  0
ELLIPSE
  5
57E
100
AcDbEntity
  8
RACCORDO
100
AcDbEllipse
 62
7
  6
CONTINUOUS
 10
24.4361561237
 20
2.2887832704
 30
0.0
 11
0.1060660172
 21
-0.1117702609
 31
0.0
 40
0.9489645667
 41
2.3561944902
 42
2.5552844909
  0
ELLIPSE
  5
57F
100
AcDbEntity
  8
RACCORDO
100
AcDbEllipse
 62
7
  6
CONTINUOUS
 10
-27.1110081348
 20
1.7390032887
 30
0.0
 11
0.3
 21
0.0
 31
0.0
 40
0.0087268678
 41
-0.0412415723
 42
-0.0087266463
  0
ELLIPSE
  5
580
100
AcDbEntity
  8
RACCORDO
100
AcDbEllipse
 62
7
  6
CONTINUOUS
 10
-27.1110081348
 20
-3.2666910414
 30
0.0
 11
0.3
 21
-0.0
 31
0.0
 40
0.0087268678
 41
0.0087266463
 42
0.0412415723
  0
ELLIPSE
  5
581
100
AcDbEntity
  8
RACCORDO
100
AcDbEllipse
 62
7
  6
CONTINUOUS
 10
-26.0159164705
 20
2.0765317643
 30
0.0
 11
0.0
 21
0.15
 31
0.0
 40
0.5773502692
 41
0.0523598776
 42
0.5235987756
  0
ELLIPSE
  5
582
100
AcDbEntity
  8
RACCORDO
100
AcDbEllipse
 62
7
  6
CONTINUOUS
 10
-26.0159164705
 20
-3.604219517
 30
0.0
 11
0.0
 21
0.15
 31
0.0
 40
0.5773502692
 41
-3.6651914292
 42
-3.1939525311
  0
ELLIPSE
  5
583
100
AcDbEntity
  8
RACCORDO
100
AcDbEllipse
 62
7
  6
CONTINUOUS
 10
-25.9638438763
 20
2.2887832704
 30
0.0
 11
0.1060660172
 21
0.1117702609
 31
0.0
 40
0.9489645667
 41
0.5862403902
 42
0.7853981634
  0
ELLIPSE
  5
584
100
AcDbEntity
  8
RACCORDO
100
AcDbEllipse
 62
7
  6
CONTINUOUS
 10
-25.9638438763
 20
-3.8164710231
 30
0.0
 11
0.1060660172
 21
-0.1117702609
 31
0.0
 40
0.9489645667
 41
-0.7853981634
 42
-0.5863081627
  0
ELLIPSE
  5
585
100
AcDbEntity
  8
0
100
AcDbEllipse
 62
7
  6
CONTINUOUS
 10
-3.3638438763
 20
-40.8005293218
 30
0.0
 11
2.5
 21
-0.0
 31
0.0
 40
0.0524077793
 41
1.5707963268
 42
2.8577985444
  0
ELLIPSE
  5
586
100
AcDbEntity
  8
0
100
AcDbEllipse
 62
7
  6
CONTINUOUS
 10
1.8361561237
 20
-40.8005293218
 30
0.0
 11
2.5
 21
0.0
 31
0.0
 40
0.0524077793
 41
0.2837941092
 42
1.5707963268
  0
ELLIPSE
  5
587
100
AcDbEntity
  8
0
100
AcDbEllipse
 62
7
  6
CONTINUOUS
 10
1.8361561237
 20
39.2728415692
 30
0.0
 11
2.5
 21
0.0
 31
0.0
 40
0.0524077793
 41
-1.5707963268
 42
-0.2837941092
  0
ELLIPSE
  5
588
100
AcDbEntity
  8
0
100
AcDbEllipse
 62
7
  6
CONTINUOUS
 10
-3.3638438763
 20
39.2728415692
 30
0.0
 11
2.5
 21
0.0
 31
0.0
 40
0.0524077793
 41
-2.8577985444
 42
-1.5707963268
  0
ELLIPSE
  5
589
100
AcDbEntity
  8
RACCORDO
100
AcDbEllipse
 62
7
  6
CONTINUOUS
 10
36.2320390857
 20
36.2320390857
 30
0.0
 11
-2.1271387303
 21
-2.1271387303
 31
0.0
 40
0.9972646886
 41
2.3575640181
 42
3.9256212891
  0
ELLIPSE
  5
58A
100
AcDbEntity
  8
RACCORDO
100
AcDbEllipse
 62
7
  6
CONTINUOUS
 10
-37.7597268383
 20
36.2320390857
 30
0.0
 11
2.1271387303
 21
-2.1271387303
 31
0.0
 40
0.9972646886
 41
2.3575640181
 42
3.9256212891
  0
ELLIPSE
  5
58B
100
AcDbEntity
  8
RACCORDO
100
AcDbEllipse
 62
7
  6
CONTINUOUS
 10
-37.7597268383
 20
-37.7597268383
 30
0.0
 11
2.1271387303
 21
2.1271387303
 31
0.0
 40
0.9972646886
 41
2.3575640181
 42
3.9256212891
  0
ELLIPSE
  5
58C
100
AcDbEntity
  8
RACCORDO
100
AcDbEllipse
 62
7
  6
CONTINUOUS
 10
36.2320390857
 20
-37.7597268383
 30
0.0
 11
-2.1271387303
 21
2.1271387303
 31
0.0
 40
0.9972646886
 41
2.3575640181
 42
3.9256212891
  0
ENDSEC
  0
SECTION
  2
OBJECTS
  0
DICTIONARY
  5
C
100
AcDbDictionary
280
0
281
1
  3
ACAD_GROUP
350
D
  3
ACAD_MLINESTYLE
350
17
  3
ACAD_LAYOUT
350
1A
  3
ACAD_PLOTSETTINGS
350
19
  3
ACAD_PLOTSTYLENAME
350
E
  0
DICTIONARY
  5
D
102
{ACAD_REACTORS
330
C
102
}
100
AcDbDictionary
280
0
281
1
  0
ACDBDICTIONARYWDFLT
  5
E
102
{ACAD_REACTORS
330
C
102
}
100
AcDbDictionary
281
1
  3
Normal
350
F
100
AcDbDictionaryWithDefault
340
F
  0
DICTIONARY
  5
17
102
{ACAD_REACTORS
330
C
102
}
100
AcDbDictionary
280
0
281
1
  3
Standard
350
18
  0
DICTIONARY
  5
19
102
{ACAD_REACTORS
330
C
102
}
100
AcDbDictionary
281
1
  0
DICTIONARY
  5
1A
102
{ACAD_REACTORS
330
C
102
}
100
AcDbDictionary
281
1
  3
Model
350
58D
  3
Layout1
350
58E
  0
ACDBPLACEHOLDER
  5
F
102
{ACAD_REACTORS
330
E
102
}
  0
MLINESTYLE
  5
18
102
{ACAD_REACTORS
330
17
102
}
100
AcDbMlineStyle
  2
STANDARD
 70
0
  3

 62
256
 51
90.0
 52
90.0
 71
2
 49
0.5
 62
256
  6
BYLAYER
 49
-0.5
 62
256
  6
BYLAYER
  0
LAYOUT
  5
58D
102
{ACAD_REACTORS
330
1A
102
}
100
AcDbPlotSettings
  1

  2
none_device
  4
ISO_A4_(297.00_x_210.00_MM)
  6

 40
0.0
 41
0.0
 42
0.0
 43
0.0
 44
297.0
 45
210.0
 46
0.0
 47
0.0
 48
0.0
 49
0.0
140
0.0
141
0.0
142
1.0
143
1.0
 70
1024
 72
1
 73
0
 74
0
  7

 75
0
147
1.0
148
0.0
149
0.0
100
AcDbLayout
  1
Model
 70
0
 71
0
 10
0.0
 20
0.0
 11
297.0
 21
210.0
 12
0.0
 22
0.0
 32
0.0
 14
0.0
 24
0.0
 34
0.0
 15
0.0
 25
0.0
 35
0.0
146
0.0
 13
0.0
 23
0.0
 33
0.0
 16
1.0
 26
0.0
 36
0.0
 17
0.0
 27
1.0
 37
0.0
 76
0
330
20F
345
0
346
0
  0
LAYOUT
  5
58E
102
{ACAD_REACTORS
330
1A
102
}
100
AcDbPlotSettings
  1

  2
none_device
  4
ISO_A4_(297.00_x_210.00_MM)
  6

 40
0.0
 41
0.0
 42
0.0
 43
0.0
 44
297.0
 45
210.0
 46
0.0
 47
0.0
 48
0.0
 49
0.0
140
0.0
141
0.0
142
1.0
143
1.0
 70
0
 72
1
 73
0
 74
0
  7

 75
0
147
1.0
148
0.0
149
0.0
100
AcDbLayout
  1
Layout1
 70
0
 71
1
 10
0.0
 20
0.0
 11
297.0
 21
210.0
 12
0.0
 22
0.0
 32
0.0
 14
0.0
 24
0.0
 34
0.0
 15
0.0
 25
0.0
 35
0.0
146
0.0
 13
0.0
 23
0.0
 33
0.0
 16
1.0
 26
0.0
 36
0.0
 17
0.0
 27
1.0
 37
0.0
 76
0
330
210
345
0
346
0
  0
ENDSEC
  0
EOF
