  0
SECTION
  2
HEADER
  9
$ACADVER
  1
AC1015
  9
$DWGCODEPAGE
  3
ANSI_1252
  9
$EXTMAX
 10
297.0
 20
210.0
 30
0.0
  9
$EXTMIN
 10
0.0
 20
0.0
 30
0.0
  9
$LIMMIN
 10
0.0
 20
0.0
  9
$LIMMAX
 10
297.0
 20
210.0
  9
$VIEWCTR
 10
148.5
 20
105.0
  9
$VIEWSIZE
 40
210.0
  9
$CLAYER
  8
0
  9
$LTSCALE
 40
16.335
  9
$CELTYPE
  6
BYLAYER
  9
$DIMSCALE
 40
1.0
  9
$DIMASZ
 40
3.0
  9
$DIMEXO
 40
1.85625
  9
$DIMDLI
 40
11.286
  9
$DIMEXE
 40
5.346
  9
$DIMCEN
 40
2.673
  9
$DIMLFAC
 40
1.0
  9
$DIMBLK
  1
_FILLED
  9
$DIMTXT
 40
3.0
  9
$DIMTOL
 70
1
  9
$DIMLIM
 70
0
  9
$DIMTFAC
 40
1.0
  9
$DIMTP
 40
0.01
  9
$DIMTM
 40
0.01
  9
$PDMODE
 70
3
  9
$PDSIZE
 40
3.0
  9
$HANDSEED
  5
6FD
  9
$TILEMODE
 70
1
  9
$MEASUREMENT
 70
1
  9
$INSUNITS
 70
4
  0
ENDSEC
  0
SECTION
  2
CLASSES
  0
CLASS
  1
ACDBDICTIONARYWDFLT
  2
AcDbDictionaryWithDefault
  3
AutoCAD 2000
 90
0
280
0
281
0
  0
CLASS
  1
ACDBPLACEHOLDER
  2
AcDbPlaceHolder
  3
AutoCAD 2000
 90
0
280
0
281
0
  0
CLASS
  1
LAYOUT
  2
AcDbLayout
  3
AutoCAD 2000
 90
0
280
0
281
0
  0
ENDSEC
  0
SECTION
  2
TABLES
  0
TABLE
  2
VPORT
  5
8
100
AcDbSymbolTable
 70
2
  0
VPORT
  5
1F4
100
AcDbSymbolTableRecord
100
AcDbViewportTableRecord
  2
*ACTIVE
 70
0
 10
0.0
 20
0.0
 11
1.0
 21
1.0
 12
148.5
 22
105.0
 13
0.0
 23
0.0
 14
1.0
 24
1.0
 15
0.0
 25
0.0
 16
0.0
 26
0.0
 36
1.0
 17
0.0
 27
0.0
 37
0.0
 40
210.0
 41
1.4142857143
 42
50.0
 43
0.0
 44
0.0
 50
0.0
 51
0.0
 71
0
 72
100
 73
1
 74
1
 75
0
 76
0
 77
0
 78
0
  0
ENDTAB
  0
TABLE
  2
LTYPE
  5
5
100
AcDbSymbolTable
 70
6
  0
LTYPE
  5
14
100
AcDbSymbolTableRecord
100
AcDbLinetypeTableRecord
  2
BYBLOCK
 70
0
  3

 72
65
 73
0
 40
0.0
  0
LTYPE
  5
15
100
AcDbSymbolTableRecord
100
AcDbLinetypeTableRecord
  2
BYLAYER
 70
0
  3

 72
65
 73
0
 40
0.0
  0
LTYPE
  5
16
100
AcDbSymbolTableRecord
100
AcDbLinetypeTableRecord
  2
CONTINUOUS
 70
64
  3
Solid line
 72
65
 73
0
 40
0.0
  0
LTYPE
  5
1F5
100
AcDbSymbolTableRecord
100
AcDbLinetypeTableRecord
  2
CENTER
 70
64
  3
____ _ ____ _ ____ _ ____ _ ____ _ ____ _ ____
 72
65
 73
4
 40
0.6
 49
0.375
 74
0
 49
-0.075
 74
0
 49
0.075
 74
0
 49
-0.075
 74
0
  0
LTYPE
  5
1F6
100
AcDbSymbolTableRecord
100
AcDbLinetypeTableRecord
  2
HIDDEN
 70
64
  3
- - - - - - - - - - - - - - - - - - - -
 72
65
 73
2
 40
0.2
 49
0.1
 74
0
 49
-0.1
 74
0
  0
LTYPE
  5
1F7
100
AcDbSymbolTableRecord
100
AcDbLinetypeTableRecord
  2
PHANTOM
 70
64
  3
_____ _ _ _____ _ _ _____ _ _ _____
 72
65
 73
6
 40
0.8
 49
0.45
 74
0
 49
-0.05
 74
0
 49
0.1
 74
0
 49
-0.05
 74
0
 49
0.1
 74
0
 49
-0.05
 74
0
  0
LTYPE
  5
1F8
100
AcDbSymbolTableRecord
100
AcDbLinetypeTableRecord
  2
DOT
 70
64
  3
. . . . . . . . . . . . . . . . . . . .
 72
65
 73
2
 40
0.2
 49
0.1
 74
0
 49
-0.1
 74
0
  0
LTYPE
  5
1F9
100
AcDbSymbolTableRecord
100
AcDbLinetypeTableRecord
  2
DASHED
 70
64
  3
- - - - - - - - - - - - - - - - - - - -
 72
65
 73
2
 40
0.2
 49
0.1
 74
0
 49
-0.1
 74
0
  0
ENDTAB
  0
TABLE
  2
LAYER
  5
2
100
AcDbSymbolTable
 70
36
  0
LAYER
  5
10
100
AcDbSymbolTableRecord
100
AcDbLayerTableRecord
  2
0
 70
0
 62
7
  6
CONTINUOUS
370
-3
390
F
  0
LAYER
  5
1FA
100
AcDbSymbolTableRecord
100
AcDbLayerTableRecord
  2
DEFAULT_1
 70
0
 62
7
  6
CENTER
370
-3
390
F
  0
LAYER
  5
1FB
100
AcDbSymbolTableRecord
100
AcDbLayerTableRecord
  2
DEFAULT_2
 70
0
 62
7
  6
HIDDEN
370
-3
390
F
  0
LAYER
  5
1FC
100
AcDbSymbolTableRecord
100
AcDbLayerTableRecord
  2
DEFAULT_3
 70
0
 62
7
  6
PHANTOM
370
-3
390
F
  0
LAYER
  5
1FD
100
AcDbSymbolTableRecord
100
AcDbLayerTableRecord
  2
ASSI
 70
0
 62
7
  6
CONTINUOUS
370
-3
390
F
  0
LAYER
  5
1FE
100
AcDbSymbolTableRecord
100
AcDbLayerTableRecord
  2
COORDINATE
 70
0
 62
7
  6
CONTINUOUS
370
-3
390
F
  0
LAYER
  5
1FF
100
AcDbSymbolTableRecord
100
AcDbLayerTableRecord
  2
COPY_PUBLISH
 70
0
 62
7
  6
CONTINUOUS
370
-3
390
F
  0
LAYER
  5
200
100
AcDbSymbolTableRecord
100
AcDbLayerTableRecord
  2
COSMETIC
 70
0
 62
7
  6
CONTINUOUS
370
-3
390
F
  0
LAYER
  5
201
100
AcDbSymbolTableRecord
100
AcDbLayerTableRecord
  2
CURVE
 70
0
 62
7
  6
CONTINUOUS
370
-3
390
F
  0
LAYER
  5
202
100
AcDbSymbolTableRecord
100
AcDbLayerTableRecord
  2
DRAFT
 70
0
 62
7
  6
CONTINUOUS
370
-3
390
F
  0
LAYER
  5
203
100
AcDbSymbolTableRecord
100
AcDbLayerTableRecord
  2
IMPORT_IGES
 70
0
 62
7
  6
CONTINUOUS
370
-3
390
F
  0
LAYER
  5
204
100
AcDbSymbolTableRecord
100
AcDbLayerTableRecord
  2
INTF_1
 70
0
 62
7
  6
CONTINUOUS
370
-3
390
F
  0
LAYER
  5
205
100
AcDbSymbolTableRecord
100
AcDbLayerTableRecord
  2
PIANI
 70
0
 62
7
  6
CONTINUOUS
370
-3
390
F
  0
LAYER
  5
206
100
AcDbSymbolTableRecord
100
AcDbLayerTableRecord
  2
PUNTI
 70
0
 62
7
  6
CONTINUOUS
370
-3
390
F
  0
LAYER
  5
207
100
AcDbSymbolTableRecord
100
AcDbLayerTableRecord
  2
RACCORDO
 70
0
 62
7
  6
CONTINUOUS
370
-3
390
F
  0
LAYER
  5
208
100
AcDbSymbolTableRecord
100
AcDbLayerTableRecord
  2
SNAPLINE
 70
0
 62
7
  6
CONTINUOUS
370
-3
390
F
  0
LAYER
  5
209
100
AcDbSymbolTableRecord
100
AcDbLayerTableRecord
  2
SUPERFICI
 70
0
 62
7
  6
CONTINUOUS
370
-3
390
F
  0
LAYER
  5
20A
100
AcDbSymbolTableRecord
100
AcDbLayerTableRecord
  2
TRASH
 70
0
 62
7
  6
CONTINUOUS
370
-3
390
F
  0
ENDTAB
  0
TABLE
  2
STYLE
  5
3
100
AcDbSymbolTable
 70
1
  0
STYLE
  5
11
100
AcDbSymbolTableRecord
100
AcDbTextStyleTableRecord
  2
STANDARD
 70
0
 40
0.0
 41
0.8
 50
0.0
 71
0
 42
0.2
  3
txt
  4

  0
STYLE
  5
20B
100
AcDbSymbolTableRecord
100
AcDbTextStyleTableRecord
  2
TEXTSTYLE_1
 70
0
 40
0.0
 41
0.8
 50
0.0
 71
0
 42
0.2
  3
gdt
  4

  0
ENDTAB
  0
TABLE
  2
VIEW
  5
6
100
AcDbSymbolTable
 70
0
  0
ENDTAB
  0
TABLE
  2
UCS
  5
7
100
AcDbSymbolTable
 70
0
  0
ENDTAB
  0
TABLE
  2
APPID
  5
9
100
AcDbSymbolTable
 70
1
  0
APPID
  5
20C
100
AcDbSymbolTableRecord
100
AcDbRegAppTableRecord
  2
ACAD
 70
0
  0
ENDTAB
  0
TABLE
  2
BLOCK_RECORD
  5
1
100
AcDbSymbolTable
 70
0
  0
BLOCK_RECORD
  5
20D
100
AcDbSymbolTableRecord
100
AcDbBlockTableRecord
  2
*Model_Space
  0
BLOCK_RECORD
  5
20E
100
AcDbSymbolTableRecord
100
AcDbBlockTableRecord
  2
*Paper_Space
  0
ENDTAB
  0
TABLE
  2
DIMSTYLE
  5
A
100
AcDbSymbolTable
 70
1
100
AcDbDimStyleTable
 71
0
  0
DIMSTYLE
105
20F
100
AcDbSymbolTableRecord
100
AcDbDimStyleTableRecord
  2
STANDARD
 70
0
  3

  4

 40
1.0
 41
3.0
 42
0.0625
 43
0.38
 44
0.18
 45
0.0
 46
0.0
 47
0.01
 48
0.01
140
3.0
141
0.09
142
0.0
143
25.4
144
1.0
145
0.0
146
1.0
147
0.09
 71
1.0
 72
0.0
 73
0
 74
0
 75
0
 76
0
 77
1
 78
8
170
0
171
2
172
0
173
0
174
0
175
0
176
0
177
0
178
0
270
2
271
2
272
2
273
2
274
2
275
0
280
0
281
0
282
0
283
1
284
8
285
0
286
0
287
3
288
0
340
11
  0
ENDTAB
  0
ENDSEC
  0
SECTION
  2
BLOCKS
  0
BLOCK
  5
20
100
AcDbEntity
  8
0
100
AcDbBlockBegin
  2
*Model_Space
 70
0
 10
0.0
 20
0.0
 30
0.0
  3
*Model_Space
  1

  0
ENDBLK
  5
21
100
AcDbEntity
  8
0
100
AcDbBlockEnd
  0
BLOCK
  5
1C
100
AcDbEntity
  8
0
100
AcDbBlockBegin
  2
*Paper_Space
 70
0
 10
0.0
 20
0.0
 30
0.0
  3
*Paper_Space
  1

  0
ENDBLK
  5
1D
100
AcDbEntity
  8
0
100
AcDbBlockEnd
  0
ENDSEC
  0
SECTION
  2
ENTITIES
  0
LINE
  5
210
100
AcDbEntity
  8
0
100
AcDbLine
 62
7
  6
CONTINUOUS
 10
-45.7334327492
 20
3.6683730248
 11
-45.7235667966
 21
3.5195364281
  0
LINE
  5
211
100
AcDbEntity
  8
RACCORDO
100
AcDbLine
 62
7
  6
CONTINUOUS
 10
-45.7334327492
 20
3.6683730248
 11
-45.7235667966
 21
3.5195364281
  0
LINE
  5
212
100
AcDbEntity
  8
RACCORDO
100
AcDbLine
 62
7
  6
CONTINUOUS
 10
-47.1372266407
 20
-44.5376977711
 11
-47.1372266407
 21
-4.2394909978
  0
LINE
  5
213
100
AcDbEntity
  8
RACCORDO
100
AcDbLine
 62
7
  6
CONTINUOUS
 10
-47.1372266407
 20
4.1640954555
 11
-47.1372266407
 21
44.4623022289
  0
LINE
  5
214
100
AcDbEntity
  8
RACCORDO
100
AcDbLine
 62
7
  6
CONTINUOUS
 10
-47.0324110822
 20
3.0238139974
 11
-47.0324110822
 21
-3.0992095396
  0
LINE
  5
215
100
AcDbEntity
  8
0
100
AcDbLine
 62
7
  6
CONTINUOUS
 10
-45.7372266407
 20
44.462363152
 11
-45.7372266407
 21
4.1640954555
  0
LINE
  5
216
100
AcDbEntity
  8
RACCORDO
100
AcDbLine
 62
7
  6
CONTINUOUS
 10
-45.7372266407
 20
44.462363152
 11
-45.7372266407
 21
4.1640954555
  0
LINE
  5
217
100
AcDbEntity
  8
RACCORDO
100
AcDbLine
 62
7
  6
CONTINUOUS
 10
-45.7372266407
 20
-4.2394909978
 11
-45.7372266407
 21
-44.5377586942
  0
LINE
  5
218
100
AcDbEntity
  8
0
100
AcDbLine
 62
7
  6
CONTINUOUS
 10
-45.7372266407
 20
-44.5377586942
 11
-45.7372266407
 21
-4.2394909978
  0
LINE
  5
219
100
AcDbEntity
  8
0
100
AcDbLine
 62
7
  6
CONTINUOUS
 10
-45.7197729051
 20
3.0238139974
 11
-45.7197729051
 21
-3.0992095396
  0
LINE
  5
21A
100
AcDbEntity
  8
RACCORDO
100
AcDbLine
 62
7
  6
CONTINUOUS
 10
-45.7197729051
 20
3.0238139974
 11
-45.7197729051
 21
-3.0992095396
  0
LINE
  5
21B
100
AcDbEntity
  8
RACCORDO
100
AcDbLine
 62
7
  6
CONTINUOUS
 10
-44.4372266407
 20
-4.2394909978
 11
-44.4372266407
 21
-44.5376977711
  0
LINE
  5
21C
100
AcDbEntity
  8
0
100
AcDbLine
 62
7
  6
CONTINUOUS
 10
-44.4372266407
 20
-4.2394900838
 11
-44.4372266407
 21
4.1640945415
  0
LINE
  5
21D
100
AcDbEntity
  8
RACCORDO
100
AcDbLine
 62
7
  6
CONTINUOUS
 10
-44.4372266407
 20
4.1640954555
 11
-44.4372266407
 21
44.4623022289
  0
LINE
  5
21E
100
AcDbEntity
  8
0
100
AcDbLine
 62
7
  6
CONTINUOUS
 10
-44.3372266407
 20
-15.0376977711
 11
-44.3372266407
 21
-44.5376977711
  0
LINE
  5
21F
100
AcDbEntity
  8
0
100
AcDbLine
 62
7
  6
CONTINUOUS
 10
-44.3372266407
 20
14.9623022289
 11
-44.3372266407
 21
44.4623022289
  0
LINE
  5
220
100
AcDbEntity
  8
RACCORDO
100
AcDbLine
 62
253
  6
CONTINUOUS
 10
-43.9935588898
 20
-11.780591097
 11
-43.9935588898
 21
11.7051953674
  0
LINE
  5
221
100
AcDbEntity
  8
0
100
AcDbLine
 62
7
  6
CONTINUOUS
 10
-45.7235667966
 20
-3.5949319703
 11
-45.7334327492
 21
-3.7437685671
  0
LINE
  5
222
100
AcDbEntity
  8
RACCORDO
100
AcDbLine
 62
7
  6
CONTINUOUS
 10
-45.7235667966
 20
-3.5949319703
 11
-45.7334327492
 21
-3.7437685671
  0
LINE
  5
223
100
AcDbEntity
  8
SUPERFICI
100
AcDbLine
 62
7
  6
CONTINUOUS
 10
44.8627733593
 20
-47.5376977711
 11
-44.1372266407
 21
-47.5376977711
  0
LINE
  5
224
100
AcDbEntity
  8
RACCORDO
100
AcDbLine
 62
7
  6
CONTINUOUS
 10
-44.1372875638
 20
-46.1376977711
 11
44.8628342824
 21
-46.1376977711
  0
LINE
  5
225
100
AcDbEntity
  8
0
100
AcDbLine
 62
7
  6
CONTINUOUS
 10
44.8628342824
 20
-46.1376977711
 11
-44.1372875638
 21
-46.1376977711
  0
LINE
  5
226
100
AcDbEntity
  8
RACCORDO
100
AcDbLine
 62
7
  6
CONTINUOUS
 10
44.8627733593
 20
-44.8376977711
 11
-44.1372266407
 21
-44.8376977711
  0
LINE
  5
227
100
AcDbEntity
  8
0
100
AcDbLine
 62
7
  6
CONTINUOUS
 10
-44.1372266407
 20
-44.7376977711
 11
44.8627733593
 21
-44.7376977711
  0
LINE
  5
228
100
AcDbEntity
  8
RACCORDO
100
AcDbLine
 62
253
  6
CONTINUOUS
 10
20.8626977206
 20
-44.2894305172
 11
-20.137151026
 21
-44.2894305172
  0
LINE
  5
229
100
AcDbEntity
  8
RACCORDO
100
AcDbLine
 62
7
  6
CONTINUOUS
 10
-47.0551946779
 20
-3.5949319703
 11
-47.114443045
 21
-3.7437685671
  0
LINE
  5
22A
100
AcDbEntity
  8
RACCORDO
100
AcDbLine
 62
7
  6
CONTINUOUS
 10
-47.114443045
 20
3.6683730248
 11
-47.0551946779
 21
3.5195364281
  0
LINE
  5
22B
100
AcDbEntity
  8
0
100
AcDbLine
 62
7
  6
CONTINUOUS
 10
-31.2798236407
 20
-31.0376977711
 11
-30.8207806407
 21
-32.3969267711
  0
LINE
  5
22C
100
AcDbEntity
  8
0
100
AcDbLine
 62
7
  6
CONTINUOUS
 10
-30.9299476407
 20
-32.6376977711
 11
-31.3801246407
 21
-31.2961047711
  0
LINE
  5
22D
100
AcDbEntity
  8
RACCORDO
100
AcDbLine
 62
253
  6
CONTINUOUS
 10
-37.2567581488
 20
-11.7877040267
 11
-37.2567581488
 21
11.7123084842
  0
LINE
  5
22E
100
AcDbEntity
  8
RACCORDO
100
AcDbLine
 62
253
  6
CONTINUOUS
 10
-35.9207869474
 20
-11.7877035805
 11
-35.9207869474
 21
11.712308038
  0
LINE
  5
22F
100
AcDbEntity
  8
0
100
AcDbLine
 62
7
  6
CONTINUOUS
 10
28.6961063747
 20
-32.995144581
 11
28.5294403438
 21
-33.0376977711
  0
LINE
  5
230
100
AcDbEntity
  8
0
100
AcDbLine
 62
7
  6
CONTINUOUS
 10
26.8627733593
 20
-32.995144581
 11
26.6961063747
 21
-33.0376977711
  0
LINE
  5
231
100
AcDbEntity
  8
0
100
AcDbLine
 62
7
  6
CONTINUOUS
 10
22.9877733593
 20
-32.8249318093
 11
23.154439867
 21
-32.7823786228
  0
LINE
  5
232
100
AcDbEntity
  8
0
100
AcDbLine
 62
7
  6
CONTINUOUS
 10
21.1544401054
 20
-32.7823786228
 11
21.3211066131
 21
-32.7398254364
  0
LINE
  5
233
100
AcDbEntity
  8
0
100
AcDbLine
 62
7
  6
CONTINUOUS
 10
22.7377733593
 20
-31.9738679915
 11
22.5711068515
 21
-32.0164211779
  0
LINE
  5
234
100
AcDbEntity
  8
0
100
AcDbLine
 62
7
  6
CONTINUOUS
 10
28.4877733593
 20
-32.8249318093
 11
28.6961063747
 21
-32.7823786228
  0
LINE
  5
235
100
AcDbEntity
  8
0
100
AcDbLine
 62
7
  6
CONTINUOUS
 10
26.6544403438
 20
-32.8249318093
 11
26.8627733593
 21
-32.7823786228
  0
LINE
  5
236
100
AcDbEntity
  8
0
100
AcDbLine
 62
7
  6
CONTINUOUS
 10
23.1961068515
 20
-32.995144581
 11
22.9877733593
 21
-33.0376977711
  0
LINE
  5
237
100
AcDbEntity
  8
0
100
AcDbLine
 62
7
  6
CONTINUOUS
 10
21.3627733593
 20
-32.995144581
 11
21.1544401054
 21
-33.0376977711
  0
LINE
  5
238
100
AcDbEntity
  8
0
100
AcDbLine
 62
7
  6
CONTINUOUS
 10
28.2794403438
 20
-31.2504637032
 11
28.0711063747
 21
-31.2930168896
  0
LINE
  5
239
100
AcDbEntity
  8
0
100
AcDbLine
 62
7
  6
CONTINUOUS
 10
19.3627733593
 20
-33.0376977711
 11
19.5711067323
 21
-32.995144581
  0
LINE
  5
23A
100
AcDbEntity
  8
0
100
AcDbLine
 62
7
  6
CONTINUOUS
 10
26.4461063747
 20
-31.2504637032
 11
26.2377733593
 21
-31.2930168896
  0
LINE
  5
23B
100
AcDbEntity
  8
0
100
AcDbLine
 62
7
  6
CONTINUOUS
 10
22.529439867
 20
-31.8036552458
 11
22.7377733593
 21
-31.7611020594
  0
LINE
  5
23C
100
AcDbEntity
  8
0
100
AcDbLine
 62
7
  6
CONTINUOUS
 10
-22.8784096407
 20
-32.6376977711
 11
-23.6962666407
 21
-31.3383067711
  0
LINE
  5
23D
100
AcDbEntity
  8
0
100
AcDbLine
 62
7
  6
CONTINUOUS
 10
-23.6495016407
 20
-31.0376977711
 11
-22.8449736407
 21
-32.3373527711
  0
LINE
  5
23E
100
AcDbEntity
  8
0
100
AcDbLine
 62
7
  6
CONTINUOUS
 10
-29.0179066407
 20
-31.0376977711
 11
-28.4385426407
 21
-32.6376977711
  0
LINE
  5
23F
100
AcDbEntity
  8
0
100
AcDbLine
 62
7
  6
CONTINUOUS
 10
-28.6747836407
 20
-32.6376977711
 11
-28.8329846407
 21
-32.1719957711
  0
LINE
  5
240
100
AcDbEntity
  8
0
100
AcDbLine
 62
7
  6
CONTINUOUS
 10
-28.9109206407
 20
-31.9803587711
 11
-29.1492966407
 21
-31.2697757711
  0
LINE
  5
241
100
AcDbEntity
  8
0
100
AcDbLine
 62
7
  6
CONTINUOUS
 10
-33.5872266407
 20
22.2123022289
 11
-33.5872266407
 21
-22.2876977711
  0
LINE
  5
242
100
AcDbEntity
  8
0
100
AcDbLine
 62
7
  6
CONTINUOUS
 10
-33.4872266407
 20
22.2123022289
 11
-33.4872266407
 21
-22.2876977711
  0
LINE
  5
243
100
AcDbEntity
  8
0
100
AcDbLine
 62
7
  6
CONTINUOUS
 10
-31.5895866407
 20
-32.6376977711
 11
-31.5895866407
 21
-31.0376977711
  0
LINE
  5
244
100
AcDbEntity
  8
0
100
AcDbLine
 62
7
  6
CONTINUOUS
 10
-31.3801246407
 20
-31.2961047711
 11
-31.3801246407
 21
-32.6376977711
  0
LINE
  5
245
100
AcDbEntity
  8
0
100
AcDbLine
 62
7
  6
CONTINUOUS
 10
-24.8732276407
 20
31.6015782289
 11
-24.4607366407
 21
33.0469512289
  0
LINE
  5
246
100
AcDbEntity
  8
0
100
AcDbLine
 62
7
  6
CONTINUOUS
 10
-24.0227196407
 20
33.0469512289
 11
-24.6976876407
 21
30.9471282289
  0
LINE
  5
247
100
AcDbEntity
  8
0
100
AcDbLine
 62
7
  6
CONTINUOUS
 10
-22.1245446407
 20
31.8811232289
 11
-21.6862286407
 21
33.0469512289
  0
LINE
  5
248
100
AcDbEntity
  8
0
100
AcDbLine
 62
7
  6
CONTINUOUS
 10
-21.5750436407
 20
32.3125572289
 11
-22.0962016407
 21
30.9471282289
  0
LINE
  5
249
100
AcDbEntity
  8
RACCORDO
100
AcDbLine
 62
7
  6
CONTINUOUS
 10
-21.7560443163
 20
26.2820898847
 11
-21.7972216587
 21
26.2284265273
  0
LINE
  5
24A
100
AcDbEntity
  8
RACCORDO
100
AcDbLine
 62
253
  6
CONTINUOUS
 10
-19.2780746925
 20
26.2820898847
 11
-19.4391956851
 21
26.2284265273
  0
LINE
  5
24B
100
AcDbEntity
  8
RACCORDO
100
AcDbLine
 62
253
  6
CONTINUOUS
 10
-18.9768335999
 20
25.9826858727
 11
-19.1396068247
 21
25.9284722188
  0
LINE
  5
24C
100
AcDbEntity
  8
RACCORDO
100
AcDbLine
 62
253
  6
CONTINUOUS
 10
22.4360631872
 20
-26.8520344175
 11
22.6540133173
 21
-26.7936348543
  0
LINE
  5
24D
100
AcDbEntity
  8
0
100
AcDbLine
 62
7
  6
CONTINUOUS
 10
20.7377733593
 20
-31.0802509576
 11
20.9044401054
 21
-31.0376977711
  0
LINE
  5
24E
100
AcDbEntity
  8
0
100
AcDbLine
 62
7
  6
CONTINUOUS
 10
28.0294403438
 20
-31.0802509576
 11
28.3211063747
 21
-31.0376977711
  0
LINE
  5
24F
100
AcDbEntity
  8
0
100
AcDbLine
 62
7
  6
CONTINUOUS
 10
26.1961068515
 20
-31.0802509576
 11
26.4877733593
 21
-31.0376977711
  0
LINE
  5
250
100
AcDbEntity
  8
0
100
AcDbLine
 62
7
  6
CONTINUOUS
 10
28.5294403438
 20
-33.0376977711
 11
28.1961063747
 21
-33.0376977711
  0
LINE
  5
251
100
AcDbEntity
  8
0
100
AcDbLine
 62
7
  6
CONTINUOUS
 10
26.6961063747
 20
-33.0376977711
 11
26.3627733593
 21
-33.0376977711
  0
LINE
  5
252
100
AcDbEntity
  8
0
100
AcDbLine
 62
7
  6
CONTINUOUS
 10
24.6127733593
 20
-33.0376977711
 11
24.3627733593
 21
-33.0376977711
  0
LINE
  5
253
100
AcDbEntity
  8
0
100
AcDbLine
 62
7
  6
CONTINUOUS
 10
22.9877733593
 20
-33.0376977711
 11
22.7377733593
 21
-33.0376977711
  0
LINE
  5
254
100
AcDbEntity
  8
0
100
AcDbLine
 62
7
  6
CONTINUOUS
 10
18.3627733593
 20
-33.0376977711
 11
19.3627733593
 21
-33.0376977711
  0
LINE
  5
255
100
AcDbEntity
  8
0
100
AcDbLine
 62
7
  6
CONTINUOUS
 10
20.8211066131
 20
-33.0376977711
 11
21.1544401054
 21
-33.0376977711
  0
LINE
  5
256
100
AcDbEntity
  8
0
100
AcDbLine
 62
7
  6
CONTINUOUS
 10
22.7377733593
 20
-32.8249318093
 11
22.9877733593
 21
-32.8249318093
  0
LINE
  5
257
100
AcDbEntity
  8
0
100
AcDbLine
 62
7
  6
CONTINUOUS
 10
26.4044403438
 20
-32.8249318093
 11
26.6544403438
 21
-32.8249318093
  0
LINE
  5
258
100
AcDbEntity
  8
0
100
AcDbLine
 62
7
  6
CONTINUOUS
 10
28.2377733593
 20
-32.8249318093
 11
28.4877733593
 21
-32.8249318093
  0
LINE
  5
259
100
AcDbEntity
  8
0
100
AcDbLine
 62
7
  6
CONTINUOUS
 10
18.6127733593
 20
-32.7823786228
 11
19.4044399862
 21
-32.7823786228
  0
LINE
  5
25A
100
AcDbEntity
  8
0
100
AcDbLine
 62
7
  6
CONTINUOUS
 10
20.8211066131
 20
-32.7823786228
 11
21.1544401054
 21
-32.7823786228
  0
LINE
  5
25B
100
AcDbEntity
  8
0
100
AcDbLine
 62
7
  6
CONTINUOUS
 10
-19.8343336407
 20
-32.6376977711
 11
-19.6115236407
 21
-32.6376977711
  0
LINE
  5
25C
100
AcDbEntity
  8
0
100
AcDbLine
 62
7
  6
CONTINUOUS
 10
-18.6443166407
 20
-32.6376977711
 11
-18.4080366407
 21
-32.6376977711
  0
LINE
  5
25D
100
AcDbEntity
  8
0
100
AcDbLine
 62
7
  6
CONTINUOUS
 10
-18.2097996407
 20
-32.6376977711
 11
-17.1823836407
 21
-32.6376977711
  0
LINE
  5
25E
100
AcDbEntity
  8
0
100
AcDbLine
 62
7
  6
CONTINUOUS
 10
-16.5049876407
 20
-32.6376977711
 11
-16.2888936407
 21
-32.6376977711
  0
LINE
  5
25F
100
AcDbEntity
  8
0
100
AcDbLine
 62
7
  6
CONTINUOUS
 10
-20.4382576407
 20
-32.6376977711
 11
-20.6543896407
 21
-32.6376977711
  0
LINE
  5
260
100
AcDbEntity
  8
0
100
AcDbLine
 62
7
  6
CONTINUOUS
 10
-21.4276826407
 20
-32.6376977711
 11
-21.6438926407
 21
-32.6376977711
  0
LINE
  5
261
100
AcDbEntity
  8
0
100
AcDbLine
 62
7
  6
CONTINUOUS
 10
-22.6355176407
 20
-32.6376977711
 11
-22.8784096407
 21
-32.6376977711
  0
LINE
  5
262
100
AcDbEntity
  8
0
100
AcDbLine
 62
7
  6
CONTINUOUS
 10
-23.6962666407
 20
-32.6376977711
 11
-23.9058256407
 21
-32.6376977711
  0
LINE
  5
263
100
AcDbEntity
  8
0
100
AcDbLine
 62
7
  6
CONTINUOUS
 10
-24.2756956407
 20
-32.6376977711
 11
-24.4918406407
 21
-32.6376977711
  0
LINE
  5
264
100
AcDbEntity
  8
0
100
AcDbLine
 62
7
  6
CONTINUOUS
 10
-25.4278246407
 20
-32.6376977711
 11
-26.6089646407
 21
-32.6376977711
  0
LINE
  5
265
100
AcDbEntity
  8
0
100
AcDbLine
 62
7
  6
CONTINUOUS
 10
-27.5805850233
 20
-32.6376977711
 11
-28.2290866407
 21
-32.6376977711
  0
LINE
  5
266
100
AcDbEntity
  8
0
100
AcDbLine
 62
7
  6
CONTINUOUS
 10
-28.4385426407
 20
-32.6376977711
 11
-28.6747836407
 21
-32.6376977711
  0
LINE
  5
267
100
AcDbEntity
  8
0
100
AcDbLine
 62
7
  6
CONTINUOUS
 10
-29.6418996407
 20
-32.6376977711
 11
-29.8647226407
 21
-32.6376977711
  0
LINE
  5
268
100
AcDbEntity
  8
0
100
AcDbLine
 62
7
  6
CONTINUOUS
 10
-30.0563736407
 20
-32.6376977711
 11
-30.2659196407
 21
-32.6376977711
  0
LINE
  5
269
100
AcDbEntity
  8
0
100
AcDbLine
 62
7
  6
CONTINUOUS
 10
-30.7160106407
 20
-32.6376977711
 11
-30.9299476407
 21
-32.6376977711
  0
LINE
  5
26A
100
AcDbEntity
  8
0
100
AcDbLine
 62
7
  6
CONTINUOUS
 10
-31.3801246407
 20
-32.6376977711
 11
-31.5895866407
 21
-32.6376977711
  0
LINE
  5
26B
100
AcDbEntity
  8
0
100
AcDbLine
 62
7
  6
CONTINUOUS
 10
25.779439867
 20
-32.5696126609
 11
25.9877733593
 21
-32.5696126609
  0
LINE
  5
26C
100
AcDbEntity
  8
0
100
AcDbLine
 62
7
  6
CONTINUOUS
 10
27.6127733593
 20
-32.5696126609
 11
27.8211063747
 21
-32.5696126609
  0
LINE
  5
26D
100
AcDbEntity
  8
0
100
AcDbLine
 62
7
  6
CONTINUOUS
 10
22.1127733593
 20
-32.5270594745
 11
22.3627733593
 21
-32.5270594745
  0
LINE
  5
26E
100
AcDbEntity
  8
0
100
AcDbLine
 62
7
  6
CONTINUOUS
 10
20.2377733593
 20
-32.4845062881
 11
20.4877733593
 21
-32.4845062881
  0
LINE
  5
26F
100
AcDbEntity
  8
0
100
AcDbLine
 62
7
  6
CONTINUOUS
 10
-28.0128636407
 20
-32.4527887711
 11
-27.586086543
 21
-32.4527887711
  0
LINE
  5
270
100
AcDbEntity
  8
0
100
AcDbLine
 62
7
  6
CONTINUOUS
 10
-26.3927546407
 20
-32.4460597711
 11
-25.4278246407
 21
-32.4460597711
  0
LINE
  5
271
100
AcDbEntity
  8
0
100
AcDbLine
 62
7
  6
CONTINUOUS
 10
-17.9935766407
 20
-32.4460597711
 11
-17.1823836407
 21
-32.4460597711
  0
LINE
  5
272
100
AcDbEntity
  8
0
100
AcDbLine
 62
7
  6
CONTINUOUS
 10
-19.4443556407
 20
-32.1719957711
 11
-18.8025306407
 21
-32.1719957711
  0
LINE
  5
273
100
AcDbEntity
  8
0
100
AcDbLine
 62
7
  6
CONTINUOUS
 10
-28.8329846407
 20
-32.1719957711
 11
-29.4747446407
 21
-32.1719957711
  0
LINE
  5
274
100
AcDbEntity
  8
0
100
AcDbLine
 62
7
  6
CONTINUOUS
 10
22.404439867
 20
-32.1440807372
 11
22.1127733593
 21
-32.1440807372
  0
LINE
  5
275
100
AcDbEntity
  8
0
100
AcDbLine
 62
7
  6
CONTINUOUS
 10
21.1544401054
 20
-32.1440807372
 11
20.9044401054
 21
-32.1440807372
  0
LINE
  5
276
100
AcDbEntity
  8
0
100
AcDbLine
 62
7
  6
CONTINUOUS
 10
18.6127733593
 20
-32.1440807372
 11
19.4044399862
 21
-32.1440807372
  0
LINE
  5
277
100
AcDbEntity
  8
0
100
AcDbLine
 62
7
  6
CONTINUOUS
 10
28.4461063747
 20
-32.1015275508
 11
28.2794403438
 21
-32.1015275508
  0
LINE
  5
278
100
AcDbEntity
  8
0
100
AcDbLine
 62
7
  6
CONTINUOUS
 10
26.6127733593
 20
-32.1015275508
 11
26.4461063747
 21
-32.1015275508
  0
LINE
  5
279
100
AcDbEntity
  8
0
100
AcDbLine
 62
7
  6
CONTINUOUS
 10
-29.4078716407
 20
-31.9803587711
 11
-28.9109206407
 21
-31.9803587711
  0
LINE
  5
27A
100
AcDbEntity
  8
0
100
AcDbLine
 62
7
  6
CONTINUOUS
 10
-19.3774956407
 20
-31.9803587711
 11
-18.8805446407
 21
-31.9803587711
  0
LINE
  5
27B
100
AcDbEntity
  8
0
100
AcDbLine
 62
7
  6
CONTINUOUS
 10
22.9877733593
 20
-31.9738679915
 11
22.7377733593
 21
-31.9738679915
  0
LINE
  5
27C
100
AcDbEntity
  8
0
100
AcDbLine
 62
7
  6
CONTINUOUS
 10
26.4461063747
 20
-31.9313148051
 11
26.6127733593
 21
-31.9313148051
  0
LINE
  5
27D
100
AcDbEntity
  8
0
100
AcDbLine
 62
7
  6
CONTINUOUS
 10
28.2794403438
 20
-31.9313148051
 11
28.4461063747
 21
-31.9313148051
  0
LINE
  5
27E
100
AcDbEntity
  8
0
100
AcDbLine
 62
7
  6
CONTINUOUS
 10
-25.5169796407
 20
-31.9112597711
 11
-26.3927546407
 21
-31.9112597711
  0
LINE
  5
27F
100
AcDbEntity
  8
0
100
AcDbLine
 62
7
  6
CONTINUOUS
 10
18.6127733593
 20
-31.8887616187
 11
19.4044399862
 21
-31.8887616187
  0
LINE
  5
280
100
AcDbEntity
  8
0
100
AcDbLine
 62
7
  6
CONTINUOUS
 10
20.9044401054
 20
-31.8887616187
 11
21.1544401054
 21
-31.8887616187
  0
LINE
  5
281
100
AcDbEntity
  8
0
100
AcDbLine
 62
7
  6
CONTINUOUS
 10
22.7377733593
 20
-31.7611020594
 11
22.9877733593
 21
-31.7611020594
  0
LINE
  5
282
100
AcDbEntity
  8
0
100
AcDbLine
 62
7
  6
CONTINUOUS
 10
-26.3927546407
 20
-31.7196227711
 11
-25.5169796407
 21
-31.7196227711
  0
LINE
  5
283
100
AcDbEntity
  8
0
100
AcDbLine
 62
7
  6
CONTINUOUS
 10
27.8627733593
 20
-31.5057828217
 11
27.6544403438
 21
-31.5057828217
  0
LINE
  5
284
100
AcDbEntity
  8
0
100
AcDbLine
 62
7
  6
CONTINUOUS
 10
26.029439867
 20
-31.5057828217
 11
25.8211068515
 21
-31.5057828217
  0
LINE
  5
285
100
AcDbEntity
  8
0
100
AcDbLine
 62
7
  6
CONTINUOUS
 10
21.6544401054
 20
-31.5057828217
 11
21.4044401054
 21
-31.5057828217
  0
LINE
  5
286
100
AcDbEntity
  8
0
100
AcDbLine
 62
7
  6
CONTINUOUS
 10
21.1544401054
 20
-31.2930168896
 11
20.9044401054
 21
-31.2930168896
  0
LINE
  5
287
100
AcDbEntity
  8
0
100
AcDbLine
 62
7
  6
CONTINUOUS
 10
18.6127733593
 20
-31.2930168896
 11
19.4044399862
 21
-31.2930168896
  0
LINE
  5
288
100
AcDbEntity
  8
0
100
AcDbLine
 62
7
  6
CONTINUOUS
 10
28.4461063747
 20
-31.2504637032
 11
28.2794403438
 21
-31.2504637032
  0
LINE
  5
289
100
AcDbEntity
  8
0
100
AcDbLine
 62
7
  6
CONTINUOUS
 10
26.6127733593
 20
-31.2504637032
 11
26.4461063747
 21
-31.2504637032
  0
LINE
  5
28A
100
AcDbEntity
  8
0
100
AcDbLine
 62
7
  6
CONTINUOUS
 10
25.1961068515
 20
-31.2504637032
 11
23.9461068515
 21
-31.2504637032
  0
LINE
  5
28B
100
AcDbEntity
  8
0
100
AcDbLine
 62
7
  6
CONTINUOUS
 10
23.529439867
 20
-31.2504637032
 11
22.3211066131
 21
-31.2504637032
  0
LINE
  5
28C
100
AcDbEntity
  8
0
100
AcDbLine
 62
7
  6
CONTINUOUS
 10
-19.8967286407
 20
-31.2293357711
 11
-20.4382576407
 21
-31.2293357711
  0
LINE
  5
28D
100
AcDbEntity
  8
0
100
AcDbLine
 62
7
  6
CONTINUOUS
 10
-20.6543896407
 20
-31.2293357711
 11
-21.1959186407
 21
-31.2293357711
  0
LINE
  5
28E
100
AcDbEntity
  8
0
100
AcDbLine
 62
7
  6
CONTINUOUS
 10
-25.4434426407
 20
-31.2293357711
 11
-26.3927546407
 21
-31.2293357711
  0
LINE
  5
28F
100
AcDbEntity
  8
0
100
AcDbLine
 62
7
  6
CONTINUOUS
 10
-27.586086543
 20
-31.2226067711
 11
-28.0128636407
 21
-31.2226067711
  0
LINE
  5
290
100
AcDbEntity
  8
0
100
AcDbLine
 62
7
  6
CONTINUOUS
 10
-31.5895866407
 20
-31.0376977711
 11
-31.2798236407
 21
-31.0376977711
  0
LINE
  5
291
100
AcDbEntity
  8
0
100
AcDbLine
 62
7
  6
CONTINUOUS
 10
-30.3639376407
 20
-31.0376977711
 11
-30.0563736407
 21
-31.0376977711
  0
LINE
  5
292
100
AcDbEntity
  8
0
100
AcDbLine
 62
7
  6
CONTINUOUS
 10
-29.2630756407
 20
-31.0376977711
 11
-29.0179066407
 21
-31.0376977711
  0
LINE
  5
293
100
AcDbEntity
  8
0
100
AcDbLine
 62
7
  6
CONTINUOUS
 10
-28.2290866407
 20
-31.0376977711
 11
-27.5737821854
 21
-31.0376977711
  0
LINE
  5
294
100
AcDbEntity
  8
0
100
AcDbLine
 62
7
  6
CONTINUOUS
 10
-26.6089646407
 20
-31.0376977711
 11
-25.4434426407
 21
-31.0376977711
  0
LINE
  5
295
100
AcDbEntity
  8
0
100
AcDbLine
 62
7
  6
CONTINUOUS
 10
-24.4918406407
 20
-31.0376977711
 11
-24.2756956407
 21
-31.0376977711
  0
LINE
  5
296
100
AcDbEntity
  8
0
100
AcDbLine
 62
7
  6
CONTINUOUS
 10
-23.9058256407
 20
-31.0376977711
 11
-23.6495016407
 21
-31.0376977711
  0
LINE
  5
297
100
AcDbEntity
  8
0
100
AcDbLine
 62
7
  6
CONTINUOUS
 10
-22.8449736407
 20
-31.0376977711
 11
-22.6355176407
 21
-31.0376977711
  0
LINE
  5
298
100
AcDbEntity
  8
0
100
AcDbLine
 62
7
  6
CONTINUOUS
 10
-21.6438926407
 20
-31.0376977711
 11
-21.4276826407
 21
-31.0376977711
  0
LINE
  5
299
100
AcDbEntity
  8
0
100
AcDbLine
 62
7
  6
CONTINUOUS
 10
-21.1959186407
 20
-31.0376977711
 11
-19.8967286407
 21
-31.0376977711
  0
LINE
  5
29A
100
AcDbEntity
  8
0
100
AcDbLine
 62
7
  6
CONTINUOUS
 10
-19.2326096407
 20
-31.0376977711
 11
-18.9875176407
 21
-31.0376977711
  0
LINE
  5
29B
100
AcDbEntity
  8
0
100
AcDbLine
 62
7
  6
CONTINUOUS
 10
-18.2097996407
 20
-31.0376977711
 11
-17.9935766407
 21
-31.0376977711
  0
LINE
  5
29C
100
AcDbEntity
  8
0
100
AcDbLine
 62
7
  6
CONTINUOUS
 10
-17.1088856407
 20
-31.0376977711
 11
-16.8570786407
 21
-31.0376977711
  0
LINE
  5
29D
100
AcDbEntity
  8
0
100
AcDbLine
 62
7
  6
CONTINUOUS
 10
-15.9390026407
 20
-31.0376977711
 11
-15.6848666407
 21
-31.0376977711
  0
LINE
  5
29E
100
AcDbEntity
  8
0
100
AcDbLine
 62
7
  6
CONTINUOUS
 10
18.3627733593
 20
-31.0376977711
 11
19.3627733593
 21
-31.0376977711
  0
LINE
  5
29F
100
AcDbEntity
  8
0
100
AcDbLine
 62
7
  6
CONTINUOUS
 10
20.9044401054
 20
-31.0376977711
 11
21.1127733593
 21
-31.0376977711
  0
LINE
  5
2A0
100
AcDbEntity
  8
0
100
AcDbLine
 62
7
  6
CONTINUOUS
 10
22.1127733593
 20
-31.0376977711
 11
23.529439867
 21
-31.0376977711
  0
LINE
  5
2A1
100
AcDbEntity
  8
0
100
AcDbLine
 62
7
  6
CONTINUOUS
 10
23.9461068515
 20
-31.0376977711
 11
25.4461068515
 21
-31.0376977711
  0
LINE
  5
2A2
100
AcDbEntity
  8
0
100
AcDbLine
 62
7
  6
CONTINUOUS
 10
26.4877733593
 20
-31.0376977711
 11
26.5711063747
 21
-31.0376977711
  0
LINE
  5
2A3
100
AcDbEntity
  8
0
100
AcDbLine
 62
7
  6
CONTINUOUS
 10
28.3211063747
 20
-31.0376977711
 11
28.4044403438
 21
-31.0376977711
  0
LINE
  5
2A4
100
AcDbEntity
  8
RACCORDO
100
AcDbLine
 62
253
  6
CONTINUOUS
 10
-21.710516469
 20
-26.8520344171
 11
-21.9284665991
 21
-26.7936348557
  0
LINE
  5
2A5
100
AcDbEntity
  8
RACCORDO
100
AcDbLine
 62
253
  6
CONTINUOUS
 10
-19.4391956851
 20
-26.3038220696
 11
-19.2780746925
 21
-26.3574854269
  0
LINE
  5
2A6
100
AcDbEntity
  8
RACCORDO
100
AcDbLine
 62
253
  6
CONTINUOUS
 10
-19.1396068247
 20
-26.0038677611
 11
-18.9768335999
 21
-26.0580814149
  0
LINE
  5
2A7
100
AcDbEntity
  8
RACCORDO
100
AcDbLine
 62
7
  6
CONTINUOUS
 10
-21.7560443163
 20
-26.3574854269
 11
-21.7972216587
 21
-26.3038220696
  0
LINE
  5
2A8
100
AcDbEntity
  8
0
100
AcDbLine
 62
7
  6
CONTINUOUS
 10
-16.5049876407
 20
-31.9936867711
 11
-17.1088856407
 21
-31.0376977711
  0
LINE
  5
2A9
100
AcDbEntity
  8
DRAFT
100
AcDbLine
 62
7
  6
CONTINUOUS
 10
-25.3400596394
 20
-25.2376977711
 11
-25.3478912515
 21
-25.0876977711
  0
LINE
  5
2AA
100
AcDbEntity
  8
DRAFT
100
AcDbLine
 62
7
  6
CONTINUOUS
 10
-25.3138557497
 20
-25.2376977711
 11
-25.3216873619
 21
-25.0876977711
  0
LINE
  5
2AB
100
AcDbEntity
  8
DRAFT
100
AcDbLine
 62
7
  6
CONTINUOUS
 10
-25.2876518601
 20
-25.2376977711
 11
-25.2954834723
 21
-25.0876977711
  0
LINE
  5
2AC
100
AcDbEntity
  8
DRAFT
100
AcDbLine
 62
7
  6
CONTINUOUS
 10
-25.2614479705
 20
-25.2376977711
 11
-25.2692795826
 21
-25.0876977711
  0
LINE
  5
2AD
100
AcDbEntity
  8
DRAFT
100
AcDbLine
 62
7
  6
CONTINUOUS
 10
-25.2352440808
 20
-25.2376977711
 11
-25.243075693
 21
-25.0876977711
  0
LINE
  5
2AE
100
AcDbEntity
  8
DRAFT
100
AcDbLine
 62
7
  6
CONTINUOUS
 10
-25.2090401912
 20
-25.2376977711
 11
-25.2168718033
 21
-25.0876977711
  0
LINE
  5
2AF
100
AcDbEntity
  8
DRAFT
100
AcDbLine
 62
7
  6
CONTINUOUS
 10
-25.1828363015
 20
-25.2376977711
 11
-25.1906679137
 21
-25.0876977711
  0
LINE
  5
2B0
100
AcDbEntity
  8
DRAFT
100
AcDbLine
 62
7
  6
CONTINUOUS
 10
-25.1566324119
 20
-25.2376977711
 11
-25.164464024
 21
-25.0876977711
  0
LINE
  5
2B1
100
AcDbEntity
  8
0
100
AcDbLine
 62
7
  6
CONTINUOUS
 10
-30.2659196407
 20
-32.6376977711
 11
-30.2659196407
 21
-31.2939047711
  0
LINE
  5
2B2
100
AcDbEntity
  8
0
100
AcDbLine
 62
7
  6
CONTINUOUS
 10
-30.0563736407
 20
-31.0376977711
 11
-30.0563736407
 21
-32.6376977711
  0
LINE
  5
2B3
100
AcDbEntity
  8
0
100
AcDbLine
 62
7
  6
CONTINUOUS
 10
-28.2290866407
 20
-32.6376977711
 11
-28.2290866407
 21
-31.0376977711
  0
LINE
  5
2B4
100
AcDbEntity
  8
0
100
AcDbLine
 62
7
  6
CONTINUOUS
 10
-28.0128636407
 20
-31.2226067711
 11
-28.0128636407
 21
-32.4527887711
  0
LINE
  5
2B5
100
AcDbEntity
  8
0
100
AcDbLine
 62
7
  6
CONTINUOUS
 10
-26.6089646407
 20
-32.6376977711
 11
-26.6089646407
 21
-31.0376977711
  0
LINE
  5
2B6
100
AcDbEntity
  8
0
100
AcDbLine
 62
7
  6
CONTINUOUS
 10
-26.3927546407
 20
-31.2293357711
 11
-26.3927546407
 21
-31.7196227711
  0
LINE
  5
2B7
100
AcDbEntity
  8
0
100
AcDbLine
 62
7
  6
CONTINUOUS
 10
-26.3927546407
 20
-31.9112597711
 11
-26.3927546407
 21
-32.4460597711
  0
LINE
  5
2B8
100
AcDbEntity
  8
DRAFT
100
AcDbLine
 62
7
  6
CONTINUOUS
 10
-25.3478912515
 20
25.0123022289
 11
-25.3400596394
 21
25.1623022289
  0
LINE
  5
2B9
100
AcDbEntity
  8
DRAFT
100
AcDbLine
 62
7
  6
CONTINUOUS
 10
-25.3216873619
 20
25.0123022289
 11
-25.3138557497
 21
25.1623022289
  0
LINE
  5
2BA
100
AcDbEntity
  8
DRAFT
100
AcDbLine
 62
7
  6
CONTINUOUS
 10
-25.2954834723
 20
25.0123022289
 11
-25.2876518601
 21
25.1623022289
  0
LINE
  5
2BB
100
AcDbEntity
  8
DRAFT
100
AcDbLine
 62
7
  6
CONTINUOUS
 10
-25.2692795826
 20
25.0123022289
 11
-25.2614479705
 21
25.1623022289
  0
LINE
  5
2BC
100
AcDbEntity
  8
DRAFT
100
AcDbLine
 62
7
  6
CONTINUOUS
 10
-25.243075693
 20
25.0123022289
 11
-25.2352440808
 21
25.1623022289
  0
LINE
  5
2BD
100
AcDbEntity
  8
DRAFT
100
AcDbLine
 62
7
  6
CONTINUOUS
 10
-25.2168718033
 20
25.0123022289
 11
-25.2090401912
 21
25.1623022289
  0
LINE
  5
2BE
100
AcDbEntity
  8
DRAFT
100
AcDbLine
 62
7
  6
CONTINUOUS
 10
-25.1906679137
 20
25.0123022289
 11
-25.1828363015
 21
25.1623022289
  0
LINE
  5
2BF
100
AcDbEntity
  8
DRAFT
100
AcDbLine
 62
7
  6
CONTINUOUS
 10
-25.164464024
 20
25.0123022289
 11
-25.1566324119
 21
25.1623022289
  0
LINE
  5
2C0
100
AcDbEntity
  8
RACCORDO
100
AcDbLine
 62
7
  6
CONTINUOUS
 10
-22.5184089651
 20
26.2820898847
 11
-22.4533706719
 21
26.6249815883
  0
LINE
  5
2C1
100
AcDbEntity
  8
RACCORDO
100
AcDbLine
 62
253
  6
CONTINUOUS
 10
-22.4228628773
 20
26.7388382278
 11
-22.4533706719
 21
26.6249815883
  0
LINE
  5
2C2
100
AcDbEntity
  8
RACCORDO
100
AcDbLine
 62
253
  6
CONTINUOUS
 10
-22.3459866823
 20
26.7182393134
 11
-22.4772316228
 21
26.2284265273
  0
LINE
  5
2C3
100
AcDbEntity
  8
RACCORDO
100
AcDbLine
 62
253
  6
CONTINUOUS
 10
-22.1372266407
 20
26.3384079419
 11
-22.2470685867
 21
25.9284722188
  0
LINE
  5
2C4
100
AcDbEntity
  8
0
100
AcDbLine
 62
7
  6
CONTINUOUS
 10
-20.1249626407
 20
32.4699732289
 11
-20.3432066407
 21
31.6907022289
  0
LINE
  5
2C5
100
AcDbEntity
  8
0
100
AcDbLine
 62
7
  6
CONTINUOUS
 10
-20.4328666407
 20
31.3663272289
 11
-20.5538146407
 21
30.9471282289
  0
LINE
  5
2C6
100
AcDbEntity
  8
0
100
AcDbLine
 62
7
  6
CONTINUOUS
 10
-20.9873746407
 20
30.9471282289
 11
-20.3287356407
 21
33.0469512289
  0
LINE
  5
2C7
100
AcDbEntity
  8
RACCORDO
100
AcDbLine
 62
253
  6
CONTINUOUS
 10
20.8627420331
 20
-28.6906751812
 11
-20.137195332
 21
-28.6906751812
  0
LINE
  5
2C8
100
AcDbEntity
  8
RACCORDO
100
AcDbLine
 62
253
  6
CONTINUOUS
 10
20.8627428343
 20
-28.0775136066
 11
-20.1371961331
 21
-28.0775136066
  0
LINE
  5
2C9
100
AcDbEntity
  8
RACCORDO
100
AcDbLine
 62
253
  6
CONTINUOUS
 10
-25.080197044
 20
-26.9559458561
 11
-22.6373548566
 21
-26.9559458561
  0
LINE
  5
2CA
100
AcDbEntity
  8
RACCORDO
100
AcDbLine
 62
253
  6
CONTINUOUS
 10
-21.6370984249
 20
-26.9559458561
 11
-19.1942562375
 21
-26.9559458561
  0
LINE
  5
2CB
100
AcDbEntity
  8
RACCORDO
100
AcDbLine
 62
253
  6
CONTINUOUS
 10
19.919802956
 20
-26.9559458561
 11
22.3626451434
 21
-26.9559458561
  0
LINE
  5
2CC
100
AcDbEntity
  8
RACCORDO
100
AcDbLine
 62
253
  6
CONTINUOUS
 10
23.3629015751
 20
-26.9559458561
 11
25.8057437625
 21
-26.9559458561
  0
LINE
  5
2CD
100
AcDbEntity
  8
RACCORDO
100
AcDbLine
 62
253
  6
CONTINUOUS
 10
-25.0801993681
 20
-26.7123533399
 11
-22.4567557523
 21
-26.7123533399
  0
LINE
  5
2CE
100
AcDbEntity
  8
RACCORDO
100
AcDbLine
 62
253
  6
CONTINUOUS
 10
-21.8176975292
 20
-26.7123533399
 11
-19.1942546632
 21
-26.7123533399
  0
LINE
  5
2CF
100
AcDbEntity
  8
RACCORDO
100
AcDbLine
 62
253
  6
CONTINUOUS
 10
19.9198006319
 20
-26.7123533399
 11
22.5432442477
 21
-26.7123533399
  0
LINE
  5
2D0
100
AcDbEntity
  8
RACCORDO
100
AcDbLine
 62
253
  6
CONTINUOUS
 10
23.1823024708
 20
-26.7123533399
 11
25.8057453368
 21
-26.7123533399
  0
LINE
  5
2D1
100
AcDbEntity
  8
RACCORDO
100
AcDbLine
 62
253
  6
CONTINUOUS
 10
26.3500145009
 20
-26.398124086
 11
26.1003571173
 21
-26.398124086
  0
LINE
  5
2D2
100
AcDbEntity
  8
RACCORDO
100
AcDbLine
 62
253
  6
CONTINUOUS
 10
-25.6244677824
 20
-26.398124086
 11
-25.3748103987
 21
-26.398124086
  0
LINE
  5
2D3
100
AcDbEntity
  8
RACCORDO
100
AcDbLine
 62
253
  6
CONTINUOUS
 10
-18.6499854991
 20
-26.398124086
 11
-18.8996428827
 21
-26.398124086
  0
LINE
  5
2D4
100
AcDbEntity
  8
RACCORDO
100
AcDbLine
 62
253
  6
CONTINUOUS
 10
19.3755322176
 20
-26.398124086
 11
19.6251896013
 21
-26.398124086
  0
LINE
  5
2D5
100
AcDbEntity
  8
RACCORDO
100
AcDbLine
 62
7
  6
CONTINUOUS
 10
-24.9963785889
 20
-26.3574854269
 11
-22.5184089651
 21
-26.3574854269
  0
LINE
  5
2D6
100
AcDbEntity
  8
RACCORDO
100
AcDbLine
 62
7
  6
CONTINUOUS
 10
-21.7560443163
 20
-26.3574854269
 11
-19.2780746925
 21
-26.3574854269
  0
LINE
  5
2D7
100
AcDbEntity
  8
RACCORDO
100
AcDbLine
 62
7
  6
CONTINUOUS
 10
20.0036214111
 20
-26.3574854269
 11
22.4815910349
 21
-26.3574854269
  0
LINE
  5
2D8
100
AcDbEntity
  8
RACCORDO
100
AcDbLine
 62
7
  6
CONTINUOUS
 10
23.2439556837
 20
-26.3574854269
 11
25.7219253075
 21
-26.3574854269
  0
LINE
  5
2D9
100
AcDbEntity
  8
0
100
AcDbLine
 62
7
  6
CONTINUOUS
 10
26.5711063747
 20
-31.0376977711
 11
26.8627733593
 21
-31.0802509576
  0
LINE
  5
2DA
100
AcDbEntity
  8
0
100
AcDbLine
 62
7
  6
CONTINUOUS
 10
28.4044403438
 20
-31.0376977711
 11
28.6961063747
 21
-31.0802509576
  0
LINE
  5
2DB
100
AcDbEntity
  8
0
100
AcDbLine
 62
7
  6
CONTINUOUS
 10
26.8627733593
 20
-32.1440807372
 11
26.6127733593
 21
-32.1015275508
  0
LINE
  5
2DC
100
AcDbEntity
  8
0
100
AcDbLine
 62
7
  6
CONTINUOUS
 10
28.6961063747
 20
-32.1440807372
 11
28.4461063747
 21
-32.1015275508
  0
LINE
  5
2DD
100
AcDbEntity
  8
0
100
AcDbLine
 62
7
  6
CONTINUOUS
 10
20.8211066131
 20
-33.0376977711
 11
20.6127733593
 21
-32.995144581
  0
LINE
  5
2DE
100
AcDbEntity
  8
0
100
AcDbLine
 62
7
  6
CONTINUOUS
 10
22.7377733593
 20
-33.0376977711
 11
22.529439867
 21
-32.995144581
  0
LINE
  5
2DF
100
AcDbEntity
  8
0
100
AcDbLine
 62
7
  6
CONTINUOUS
 10
21.1544401054
 20
-31.8887616187
 11
21.3627733593
 21
-31.9313148051
  0
LINE
  5
2E0
100
AcDbEntity
  8
0
100
AcDbLine
 62
7
  6
CONTINUOUS
 10
26.1961068515
 20
-32.7823786228
 11
26.4044403438
 21
-32.8249318093
  0
LINE
  5
2E1
100
AcDbEntity
  8
0
100
AcDbLine
 62
7
  6
CONTINUOUS
 10
19.5711067323
 20
-31.0802509576
 11
19.3627733593
 21
-31.0376977711
  0
LINE
  5
2E2
100
AcDbEntity
  8
0
100
AcDbLine
 62
7
  6
CONTINUOUS
 10
22.9877733593
 20
-31.7611020594
 11
23.1961068515
 21
-31.8036552458
  0
LINE
  5
2E3
100
AcDbEntity
  8
0
100
AcDbLine
 62
7
  6
CONTINUOUS
 10
28.0294403438
 20
-32.7823786228
 11
28.2377733593
 21
-32.8249318093
  0
LINE
  5
2E4
100
AcDbEntity
  8
0
100
AcDbLine
 62
7
  6
CONTINUOUS
 10
20.8211066131
 20
-32.7823786228
 11
20.6544401054
 21
-32.7398254364
  0
LINE
  5
2E5
100
AcDbEntity
  8
0
100
AcDbLine
 62
7
  6
CONTINUOUS
 10
-16.3979756407
 20
-31.8065777711
 11
-16.8570786407
 21
-31.0376977711
  0
LINE
  5
2E6
100
AcDbEntity
  8
0
100
AcDbLine
 62
7
  6
CONTINUOUS
 10
-18.4080366407
 20
-32.6376977711
 11
-18.9875176407
 21
-31.0376977711
  0
LINE
  5
2E7
100
AcDbEntity
  8
0
100
AcDbLine
 62
7
  6
CONTINUOUS
 10
-18.6443166407
 20
-32.6376977711
 11
-18.8025306407
 21
-32.1719957711
  0
LINE
  5
2E8
100
AcDbEntity
  8
0
100
AcDbLine
 62
7
  6
CONTINUOUS
 10
-18.8805446407
 20
-31.9803587711
 11
-19.1189336407
 21
-31.2697757711
  0
LINE
  5
2E9
100
AcDbEntity
  8
RACCORDO
100
AcDbLine
 62
253
  6
CONTINUOUS
 10
-22.4533706719
 20
-26.7003771305
 11
-22.4228628773
 21
-26.8142337701
  0
LINE
  5
2EA
100
AcDbEntity
  8
RACCORDO
100
AcDbLine
 62
253
  6
CONTINUOUS
 10
-22.4772316228
 20
-26.3038220696
 11
-22.3459866827
 21
-26.7936348543
  0
LINE
  5
2EB
100
AcDbEntity
  8
RACCORDO
100
AcDbLine
 62
253
  6
CONTINUOUS
 10
-22.2470685867
 20
-26.0038677611
 11
-22.1372266407
 21
-26.4138034842
  0
LINE
  5
2EC
100
AcDbEntity
  8
RACCORDO
100
AcDbLine
 62
7
  6
CONTINUOUS
 10
-22.4533706719
 20
-26.7003771305
 11
-22.5184089651
 21
-26.3574854269
  0
LINE
  5
2ED
100
AcDbEntity
  8
DRAFT
100
AcDbLine
 62
7
  6
CONTINUOUS
 10
-25.3400596394
 20
25.1623022289
 11
-25.3322280272
 21
25.0123022289
  0
LINE
  5
2EE
100
AcDbEntity
  8
DRAFT
100
AcDbLine
 62
7
  6
CONTINUOUS
 10
-25.3138557497
 20
25.1623022289
 11
-25.3060241376
 21
25.0123022289
  0
LINE
  5
2EF
100
AcDbEntity
  8
DRAFT
100
AcDbLine
 62
7
  6
CONTINUOUS
 10
-25.2876518601
 20
25.1623022289
 11
-25.2798202479
 21
25.0123022289
  0
LINE
  5
2F0
100
AcDbEntity
  8
DRAFT
100
AcDbLine
 62
7
  6
CONTINUOUS
 10
-25.2614479705
 20
25.1623022289
 11
-25.2536163583
 21
25.0123022289
  0
LINE
  5
2F1
100
AcDbEntity
  8
DRAFT
100
AcDbLine
 62
7
  6
CONTINUOUS
 10
-25.2352440808
 20
25.1623022289
 11
-25.2274124687
 21
25.0123022289
  0
LINE
  5
2F2
100
AcDbEntity
  8
DRAFT
100
AcDbLine
 62
7
  6
CONTINUOUS
 10
-25.2090401912
 20
25.1623022289
 11
-25.201208579
 21
25.0123022289
  0
LINE
  5
2F3
100
AcDbEntity
  8
DRAFT
100
AcDbLine
 62
7
  6
CONTINUOUS
 10
-25.1828363015
 20
25.1623022289
 11
-25.1750046894
 21
25.0123022289
  0
LINE
  5
2F4
100
AcDbEntity
  8
DRAFT
100
AcDbLine
 62
7
  6
CONTINUOUS
 10
-25.1566324119
 20
25.1623022289
 11
-25.1488007997
 21
25.0123022289
  0
LINE
  5
2F5
100
AcDbEntity
  8
RACCORDO
100
AcDbLine
 62
253
  6
CONTINUOUS
 10
-25.6244677824
 20
26.3227285437
 11
-25.6244677824
 21
24.7623022289
  0
LINE
  5
2F6
100
AcDbEntity
  8
RACCORDO
100
AcDbLine
 62
253
  6
CONTINUOUS
 10
-25.6244677824
 20
-24.8376977711
 11
-25.6244677824
 21
-26.398124086
  0
LINE
  5
2F7
100
AcDbEntity
  8
0
100
AcDbLine
 62
7
  6
CONTINUOUS
 10
-25.5169796407
 20
-31.7196227711
 11
-25.5169796407
 21
-31.9112597711
  0
LINE
  5
2F8
100
AcDbEntity
  8
0
100
AcDbLine
 62
7
  6
CONTINUOUS
 10
-25.4434426407
 20
-31.0376977711
 11
-25.4434426407
 21
-31.2293357711
  0
LINE
  5
2F9
100
AcDbEntity
  8
0
100
AcDbLine
 62
7
  6
CONTINUOUS
 10
-25.4278246407
 20
-32.4460597711
 11
-25.4278246407
 21
-32.6376977711
  0
LINE
  5
2FA
100
AcDbEntity
  8
RACCORDO
100
AcDbLine
 62
253
  6
CONTINUOUS
 10
-25.3748103987
 20
26.322725914
 11
-25.3748103987
 21
25.0119596126
  0
LINE
  5
2FB
100
AcDbEntity
  8
RACCORDO
100
AcDbLine
 62
253
  6
CONTINUOUS
 10
-25.3748103987
 20
-25.0873551548
 11
-25.3748103987
 21
-26.3981214877
  0
LINE
  5
2FC
100
AcDbEntity
  8
RACCORDO
100
AcDbLine
 62
253
  6
CONTINUOUS
 10
-25.1348464568
 20
25.9284722188
 11
-25.1348464568
 21
25.0127133684
  0
LINE
  5
2FD
100
AcDbEntity
  8
RACCORDO
100
AcDbLine
 62
253
  6
CONTINUOUS
 10
-25.1348464568
 20
-25.0881089107
 11
-25.1348464568
 21
-26.0038677611
  0
LINE
  5
2FE
100
AcDbEntity
  8
RACCORDO
100
AcDbLine
 62
253
  6
CONTINUOUS
 10
-25.080197044
 20
26.8805503138
 11
-25.080197044
 21
26.6369577976
  0
LINE
  5
2FF
100
AcDbEntity
  8
RACCORDO
100
AcDbLine
 62
253
  6
CONTINUOUS
 10
-25.080197044
 20
-26.9559458561
 11
-25.080197044
 21
-26.7123533399
  0
LINE
  5
300
100
AcDbEntity
  8
RACCORDO
100
AcDbLine
 62
253
  6
CONTINUOUS
 10
-24.8352575964
 20
-25.3876977711
 11
-24.8352575964
 21
-26.3038220696
  0
LINE
  5
301
100
AcDbEntity
  8
RACCORDO
100
AcDbLine
 62
253
  6
CONTINUOUS
 10
-24.8352575964
 20
25.3123022289
 11
-24.8352575964
 21
26.2284265273
  0
LINE
  5
302
100
AcDbEntity
  8
0
100
AcDbLine
 62
7
  6
CONTINUOUS
 10
-24.4918406407
 20
-32.6376977711
 11
-24.4918406407
 21
-31.0376977711
  0
LINE
  5
303
100
AcDbEntity
  8
0
100
AcDbLine
 62
7
  6
CONTINUOUS
 10
-24.2756956407
 20
-31.0376977711
 11
-24.2756956407
 21
-32.6376977711
  0
LINE
  5
304
100
AcDbEntity
  8
0
100
AcDbLine
 62
7
  6
CONTINUOUS
 10
-23.9058256407
 20
-32.6376977711
 11
-23.9058256407
 21
-31.0376977711
  0
LINE
  5
305
100
AcDbEntity
  8
0
100
AcDbLine
 62
7
  6
CONTINUOUS
 10
-23.8600606407
 20
30.9471282289
 11
-23.8600606407
 21
33.0470772289
  0
LINE
  5
306
100
AcDbEntity
  8
0
100
AcDbLine
 62
7
  6
CONTINUOUS
 10
-23.6962666407
 20
-31.3383067711
 11
-23.6962666407
 21
-32.6376977711
  0
LINE
  5
307
100
AcDbEntity
  8
0
100
AcDbLine
 62
7
  6
CONTINUOUS
 10
-23.4217446407
 20
33.0470772289
 11
-23.4217446407
 21
30.9471282289
  0
LINE
  5
308
100
AcDbEntity
  8
0
100
AcDbLine
 62
7
  6
CONTINUOUS
 10
-22.8449736407
 20
-32.3373527711
 11
-22.8449736407
 21
-31.0376977711
  0
LINE
  5
309
100
AcDbEntity
  8
0
100
AcDbLine
 62
7
  6
CONTINUOUS
 10
-22.6355176407
 20
-31.0376977711
 11
-22.6355176407
 21
-32.6376977711
  0
LINE
  5
30A
100
AcDbEntity
  8
0
100
AcDbLine
 62
7
  6
CONTINUOUS
 10
-21.6438926407
 20
-32.6376977711
 11
-21.6438926407
 21
-31.0376977711
  0
LINE
  5
30B
100
AcDbEntity
  8
DRAFT
100
AcDbLine
 62
7
  6
CONTINUOUS
 10
-25.3322280272
 20
-25.0876977711
 11
-25.3400596394
 21
-25.2376977711
  0
LINE
  5
30C
100
AcDbEntity
  8
DRAFT
100
AcDbLine
 62
7
  6
CONTINUOUS
 10
-25.3060241376
 20
-25.0876977711
 11
-25.3138557497
 21
-25.2376977711
  0
LINE
  5
30D
100
AcDbEntity
  8
DRAFT
100
AcDbLine
 62
7
  6
CONTINUOUS
 10
-25.2798202479
 20
-25.0876977711
 11
-25.2876518601
 21
-25.2376977711
  0
LINE
  5
30E
100
AcDbEntity
  8
DRAFT
100
AcDbLine
 62
7
  6
CONTINUOUS
 10
-25.2536163583
 20
-25.0876977711
 11
-25.2614479705
 21
-25.2376977711
  0
LINE
  5
30F
100
AcDbEntity
  8
DRAFT
100
AcDbLine
 62
7
  6
CONTINUOUS
 10
-25.2274124687
 20
-25.0876977711
 11
-25.2352440808
 21
-25.2376977711
  0
LINE
  5
310
100
AcDbEntity
  8
DRAFT
100
AcDbLine
 62
7
  6
CONTINUOUS
 10
-25.201208579
 20
-25.0876977711
 11
-25.2090401912
 21
-25.2376977711
  0
LINE
  5
311
100
AcDbEntity
  8
DRAFT
100
AcDbLine
 62
7
  6
CONTINUOUS
 10
-25.1750046894
 20
-25.0876977711
 11
-25.1828363015
 21
-25.2376977711
  0
LINE
  5
312
100
AcDbEntity
  8
DRAFT
100
AcDbLine
 62
7
  6
CONTINUOUS
 10
-25.1488007997
 20
-25.0876977711
 11
-25.1566324119
 21
-25.2376977711
  0
LINE
  5
313
100
AcDbEntity
  8
0
100
AcDbLine
 62
7
  6
CONTINUOUS
 10
-22.6718716407
 20
32.3182732289
 11
-22.7664606407
 21
30.9471282289
  0
LINE
  5
314
100
AcDbEntity
  8
0
100
AcDbLine
 62
7
  6
CONTINUOUS
 10
-23.1857856407
 20
30.9471282289
 11
-22.9961836407
 21
33.0469512289
  0
LINE
  5
315
100
AcDbEntity
  8
RACCORDO
100
AcDbLine
 62
253
  6
CONTINUOUS
 10
-19.2748123295
 20
26.2820898847
 11
-19.1942539133
 21
26.6369577976
  0
LINE
  5
316
100
AcDbEntity
  8
RACCORDO
100
AcDbLine
 62
253
  6
CONTINUOUS
 10
-18.9768335999
 20
25.9826858727
 11
-18.8996428827
 21
26.3227259455
  0
LINE
  5
317
100
AcDbEntity
  8
0
100
AcDbLine
 62
7
  6
CONTINUOUS
 10
21.8211066131
 20
32.7495362968
 11
21.6961066131
 21
32.7069831104
  0
LINE
  5
318
100
AcDbEntity
  8
0
100
AcDbLine
 62
7
  6
CONTINUOUS
 10
21.8211066131
 20
32.0261320085
 11
21.6961066131
 21
31.9835788221
  0
LINE
  5
319
100
AcDbEntity
  8
0
100
AcDbLine
 62
7
  6
CONTINUOUS
 10
22.1127733593
 20
31.1750681907
 11
22.2377733593
 21
31.2176213772
  0
LINE
  5
31A
100
AcDbEntity
  8
RACCORDO
100
AcDbLine
 62
253
  6
CONTINUOUS
 10
-24.8352575964
 20
-26.3038220696
 11
-22.4772316228
 21
-26.3038220696
  0
LINE
  5
31B
100
AcDbEntity
  8
RACCORDO
100
AcDbLine
 62
253
  6
CONTINUOUS
 10
-21.7972216587
 20
-26.3038220696
 11
-19.4391956851
 21
-26.3038220696
  0
LINE
  5
31C
100
AcDbEntity
  8
RACCORDO
100
AcDbLine
 62
253
  6
CONTINUOUS
 10
20.1647424036
 20
-26.3038220696
 11
22.5227683772
 21
-26.3038220696
  0
LINE
  5
31D
100
AcDbEntity
  8
RACCORDO
100
AcDbLine
 62
253
  6
CONTINUOUS
 10
23.2027783413
 20
-26.3038220696
 11
25.5608043149
 21
-26.3038220696
  0
LINE
  5
31E
100
AcDbEntity
  8
RACCORDO
100
AcDbLine
 62
253
  6
CONTINUOUS
 10
-19.1396068247
 20
-26.0038677611
 11
-22.0273846948
 21
-26.0038677611
  0
LINE
  5
31F
100
AcDbEntity
  8
RACCORDO
100
AcDbLine
 62
253
  6
CONTINUOUS
 10
19.8651535432
 20
-26.0038677611
 11
22.7529314133
 21
-26.0038677611
  0
LINE
  5
320
100
AcDbEntity
  8
RACCORDO
100
AcDbLine
 62
253
  6
CONTINUOUS
 10
22.9726153052
 20
-26.0038677611
 11
25.8603931753
 21
-26.0038677611
  0
LINE
  5
321
100
AcDbEntity
  8
RACCORDO
100
AcDbLine
 62
253
  6
CONTINUOUS
 10
-22.2470685867
 20
-26.0038677611
 11
-25.1348464568
 21
-26.0038677611
  0
LINE
  5
322
100
AcDbEntity
  8
RACCORDO
100
AcDbLine
 62
253
  6
CONTINUOUS
 10
25.5608043149
 20
-25.3876977711
 11
20.1647424036
 21
-25.3876977711
  0
LINE
  5
323
100
AcDbEntity
  8
RACCORDO
100
AcDbLine
 62
253
  6
CONTINUOUS
 10
-19.4391956851
 20
-25.3876977711
 11
-24.8352575964
 21
-25.3876977711
  0
LINE
  5
324
100
AcDbEntity
  8
RACCORDO
100
AcDbLine
 62
7
  6
CONTINUOUS
 10
26.0996714144
 20
-25.0876977711
 11
26.0734379701
 21
-25.0876977711
  0
LINE
  5
325
100
AcDbEntity
  8
DRAFT
100
AcDbLine
 62
7
  6
CONTINUOUS
 10
26.0734379701
 20
-25.0876977711
 11
25.8743475183
 21
-25.0876977711
  0
LINE
  5
326
100
AcDbEntity
  8
RACCORDO
100
AcDbLine
 62
7
  6
CONTINUOUS
 10
-25.3741246959
 20
-25.0876977711
 11
-25.3478912515
 21
-25.0876977711
  0
LINE
  5
327
100
AcDbEntity
  8
RACCORDO
100
AcDbLine
 62
7
  6
CONTINUOUS
 10
-18.9003285856
 20
-25.0876977711
 11
-18.9265620299
 21
-25.0876977711
  0
LINE
  5
328
100
AcDbEntity
  8
DRAFT
100
AcDbLine
 62
7
  6
CONTINUOUS
 10
-18.9265620299
 20
-25.0876977711
 11
-19.1256524817
 21
-25.0876977711
  0
LINE
  5
329
100
AcDbEntity
  8
DRAFT
100
AcDbLine
 62
7
  6
CONTINUOUS
 10
19.6521087485
 20
-25.0876977711
 11
19.8511992003
 21
-25.0876977711
  0
LINE
  5
32A
100
AcDbEntity
  8
RACCORDO
100
AcDbLine
 62
7
  6
CONTINUOUS
 10
19.8511992003
 20
-25.0876977711
 11
25.8743475183
 21
-25.0876977711
  0
LINE
  5
32B
100
AcDbEntity
  8
RACCORDO
100
AcDbLine
 62
7
  6
CONTINUOUS
 10
19.6258753041
 20
-25.0876977711
 11
19.6521087485
 21
-25.0876977711
  0
LINE
  5
32C
100
AcDbEntity
  8
RACCORDO
100
AcDbLine
 62
7
  6
CONTINUOUS
 10
-19.1256524817
 20
-25.0876977711
 11
-25.1488007997
 21
-25.0876977711
  0
LINE
  5
32D
100
AcDbEntity
  8
DRAFT
100
AcDbLine
 62
7
  6
CONTINUOUS
 10
-25.1488007997
 20
-25.0876977711
 11
-25.3478912515
 21
-25.0876977711
  0
LINE
  5
32E
100
AcDbEntity
  8
RACCORDO
100
AcDbLine
 62
253
  6
CONTINUOUS
 10
26.3500145009
 20
-24.8376977711
 11
19.3755322176
 21
-24.8376977711
  0
LINE
  5
32F
100
AcDbEntity
  8
RACCORDO
100
AcDbLine
 62
253
  6
CONTINUOUS
 10
-18.6499854991
 20
-24.8376977711
 11
-25.6244677824
 21
-24.8376977711
  0
LINE
  5
330
100
AcDbEntity
  8
0
100
AcDbLine
 62
7
  6
CONTINUOUS
 10
-33.1872266407
 20
-22.6876977711
 11
33.9127733593
 21
-22.6876977711
  0
LINE
  5
331
100
AcDbEntity
  8
0
100
AcDbLine
 62
7
  6
CONTINUOUS
 10
-33.1872266407
 20
-22.5876977711
 11
33.9127733593
 21
-22.5876977711
  0
LINE
  5
332
100
AcDbEntity
  8
0
100
AcDbLine
 62
7
  6
CONTINUOUS
 10
21.1127733593
 20
-31.0376977711
 11
21.3211066131
 21
-31.0802509576
  0
LINE
  5
333
100
AcDbEntity
  8
0
100
AcDbLine
 62
7
  6
CONTINUOUS
 10
26.8211063747
 20
-31.2930168896
 11
26.6127733593
 21
-31.2504637032
  0
LINE
  5
334
100
AcDbEntity
  8
0
100
AcDbLine
 62
7
  6
CONTINUOUS
 10
28.6544403438
 20
-31.2930168896
 11
28.4461063747
 21
-31.2504637032
  0
LINE
  5
335
100
AcDbEntity
  8
0
100
AcDbLine
 62
7
  6
CONTINUOUS
 10
22.5711068515
 20
-32.7823786228
 11
22.7377733593
 21
-32.8249318093
  0
LINE
  5
336
100
AcDbEntity
  8
0
100
AcDbLine
 62
7
  6
CONTINUOUS
 10
20.9044401054
 20
-32.1440807372
 11
20.7377733593
 21
-32.1015275508
  0
LINE
  5
337
100
AcDbEntity
  8
0
100
AcDbLine
 62
7
  6
CONTINUOUS
 10
21.3211066131
 20
-32.1866339236
 11
21.1544401054
 21
-32.1440807372
  0
LINE
  5
338
100
AcDbEntity
  8
0
100
AcDbLine
 62
7
  6
CONTINUOUS
 10
26.3627733593
 20
-33.0376977711
 11
26.1961068515
 21
-32.995144581
  0
LINE
  5
339
100
AcDbEntity
  8
0
100
AcDbLine
 62
7
  6
CONTINUOUS
 10
23.154439867
 20
-32.0164211779
 11
22.9877733593
 21
-31.9738679915
  0
LINE
  5
33A
100
AcDbEntity
  8
0
100
AcDbLine
 62
7
  6
CONTINUOUS
 10
28.1961063747
 20
-33.0376977711
 11
28.0294403438
 21
-32.995144581
  0
LINE
  5
33B
100
AcDbEntity
  8
0
100
AcDbLine
 62
7
  6
CONTINUOUS
 10
19.5294399862
 20
-32.1866339236
 11
19.4044399862
 21
-32.1440807372
  0
LINE
  5
33C
100
AcDbEntity
  8
0
100
AcDbLine
 62
7
  6
CONTINUOUS
 10
20.7794401054
 20
-31.8462084323
 11
20.9044401054
 21
-31.8887616187
  0
LINE
  5
33D
100
AcDbEntity
  8
0
100
AcDbLine
 62
7
  6
CONTINUOUS
 10
19.5294399862
 20
-31.3355700761
 11
19.4044399862
 21
-31.2930168896
  0
LINE
  5
33E
100
AcDbEntity
  8
0
100
AcDbLine
 62
7
  6
CONTINUOUS
 10
21.2794401054
 20
-31.3355700761
 11
21.1544401054
 21
-31.2930168896
  0
LINE
  5
33F
100
AcDbEntity
  8
RACCORDO
100
AcDbLine
 62
253
  6
CONTINUOUS
 10
-19.1942546632
 20
-26.7123533399
 11
-19.2748123295
 21
-26.3574854269
  0
LINE
  5
340
100
AcDbEntity
  8
RACCORDO
100
AcDbLine
 62
253
  6
CONTINUOUS
 10
-18.8996428827
 20
-26.3981214563
 11
-18.9768335999
 21
-26.0580814149
  0
LINE
  5
341
100
AcDbEntity
  8
0
100
AcDbLine
 62
7
  6
CONTINUOUS
 10
-21.2525586407
 20
33.0469512289
 11
-21.0562016407
 21
30.9471282289
  0
LINE
  5
342
100
AcDbEntity
  8
0
100
AcDbLine
 62
7
  6
CONTINUOUS
 10
-21.4849906407
 20
30.9471282289
 11
-21.5750436407
 21
32.3125572289
  0
LINE
  5
343
100
AcDbEntity
  8
DRAFT
100
AcDbLine
 62
7
  6
CONTINUOUS
 10
-19.1256524817
 20
-25.0876977711
 11
-19.1178208696
 21
-25.2376977711
  0
LINE
  5
344
100
AcDbEntity
  8
DRAFT
100
AcDbLine
 62
7
  6
CONTINUOUS
 10
-19.0994485921
 20
-25.0876977711
 11
-19.0916169799
 21
-25.2376977711
  0
LINE
  5
345
100
AcDbEntity
  8
DRAFT
100
AcDbLine
 62
7
  6
CONTINUOUS
 10
-19.0732447025
 20
-25.0876977711
 11
-19.0654130903
 21
-25.2376977711
  0
LINE
  5
346
100
AcDbEntity
  8
DRAFT
100
AcDbLine
 62
7
  6
CONTINUOUS
 10
-19.0470408128
 20
-25.0876977711
 11
-19.0392092007
 21
-25.2376977711
  0
LINE
  5
347
100
AcDbEntity
  8
DRAFT
100
AcDbLine
 62
7
  6
CONTINUOUS
 10
-19.0208369232
 20
-25.0876977711
 11
-19.013005311
 21
-25.2376977711
  0
LINE
  5
348
100
AcDbEntity
  8
DRAFT
100
AcDbLine
 62
7
  6
CONTINUOUS
 10
-18.9946330335
 20
-25.0876977711
 11
-18.9868014214
 21
-25.2376977711
  0
LINE
  5
349
100
AcDbEntity
  8
DRAFT
100
AcDbLine
 62
7
  6
CONTINUOUS
 10
-18.9684291439
 20
-25.0876977711
 11
-18.9605975317
 21
-25.2376977711
  0
LINE
  5
34A
100
AcDbEntity
  8
DRAFT
100
AcDbLine
 62
7
  6
CONTINUOUS
 10
-18.9422252542
 20
-25.0876977711
 11
-18.9343936421
 21
-25.2376977711
  0
LINE
  5
34B
100
AcDbEntity
  8
DRAFT
100
AcDbLine
 62
7
  6
CONTINUOUS
 10
-19.1099892574
 20
25.0123022289
 11
-19.1178208696
 21
25.1623022289
  0
LINE
  5
34C
100
AcDbEntity
  8
DRAFT
100
AcDbLine
 62
7
  6
CONTINUOUS
 10
-19.0837853678
 20
25.0123022289
 11
-19.0916169799
 21
25.1623022289
  0
LINE
  5
34D
100
AcDbEntity
  8
DRAFT
100
AcDbLine
 62
7
  6
CONTINUOUS
 10
-19.0575814781
 20
25.0123022289
 11
-19.0654130903
 21
25.1623022289
  0
LINE
  5
34E
100
AcDbEntity
  8
DRAFT
100
AcDbLine
 62
7
  6
CONTINUOUS
 10
-19.0313775885
 20
25.0123022289
 11
-19.0392092007
 21
25.1623022289
  0
LINE
  5
34F
100
AcDbEntity
  8
DRAFT
100
AcDbLine
 62
7
  6
CONTINUOUS
 10
-19.0051736989
 20
25.0123022289
 11
-19.013005311
 21
25.1623022289
  0
LINE
  5
350
100
AcDbEntity
  8
DRAFT
100
AcDbLine
 62
7
  6
CONTINUOUS
 10
-18.9789698092
 20
25.0123022289
 11
-18.9868014214
 21
25.1623022289
  0
LINE
  5
351
100
AcDbEntity
  8
DRAFT
100
AcDbLine
 62
7
  6
CONTINUOUS
 10
-18.9527659196
 20
25.0123022289
 11
-18.9605975317
 21
25.1623022289
  0
LINE
  5
352
100
AcDbEntity
  8
DRAFT
100
AcDbLine
 62
7
  6
CONTINUOUS
 10
-18.9265620299
 20
25.0123022289
 11
-18.9343936421
 21
25.1623022289
  0
LINE
  5
353
100
AcDbEntity
  8
0
100
AcDbLine
 62
7
  6
CONTINUOUS
 10
-21.4276826407
 20
-31.0376977711
 11
-21.4276826407
 21
-32.6376977711
  0
LINE
  5
354
100
AcDbEntity
  8
0
100
AcDbLine
 62
7
  6
CONTINUOUS
 10
-21.1959186407
 20
-31.2293357711
 11
-21.1959186407
 21
-31.0376977711
  0
LINE
  5
355
100
AcDbEntity
  8
0
100
AcDbLine
 62
7
  6
CONTINUOUS
 10
-20.6543896407
 20
-32.6376977711
 11
-20.6543896407
 21
-31.2293357711
  0
LINE
  5
356
100
AcDbEntity
  8
0
100
AcDbLine
 62
7
  6
CONTINUOUS
 10
-20.4382576407
 20
-31.2293357711
 11
-20.4382576407
 21
-32.6376977711
  0
LINE
  5
357
100
AcDbEntity
  8
RACCORDO
100
AcDbLine
 62
253
  6
CONTINUOUS
 10
-20.1371961331
 20
-28.0775136066
 11
-20.1371958559
 21
-28.6906751812
  0
LINE
  5
358
100
AcDbEntity
  8
RACCORDO
100
AcDbLine
 62
253
  6
CONTINUOUS
 10
-20.1371961328
 20
28.0021180643
 11
-20.1371958556
 21
28.6152796389
  0
LINE
  5
359
100
AcDbEntity
  8
RACCORDO
100
AcDbLine
 62
253
  6
CONTINUOUS
 10
-20.1371507462
 20
44.2140349749
 11
-20.1371507437
 21
44.6623022289
  0
LINE
  5
35A
100
AcDbEntity
  8
RACCORDO
100
AcDbLine
 62
253
  6
CONTINUOUS
 10
-20.1371507446
 20
-44.2894305172
 11
-20.1371508018
 21
-44.7376977711
  0
LINE
  5
35B
100
AcDbEntity
  8
0
100
AcDbLine
 62
253
  6
CONTINUOUS
 10
-20.1371953317
 20
28.6152796389
 11
-20.137151026
 21
44.2140349749
  0
LINE
  5
35C
100
AcDbEntity
  8
0
100
AcDbLine
 62
253
  6
CONTINUOUS
 10
-20.137195332
 20
-28.6906751812
 11
-20.137151026
 21
-44.2894305172
  0
LINE
  5
35D
100
AcDbEntity
  8
0
100
AcDbLine
 62
7
  6
CONTINUOUS
 10
-19.8967286407
 20
-31.2293357711
 11
-19.8967286407
 21
-31.0376977711
  0
LINE
  5
35E
100
AcDbEntity
  8
RACCORDO
100
AcDbLine
 62
253
  6
CONTINUOUS
 10
-19.4391956851
 20
-25.3876977711
 11
-19.4391956851
 21
-26.3038220696
  0
LINE
  5
35F
100
AcDbEntity
  8
RACCORDO
100
AcDbLine
 62
253
  6
CONTINUOUS
 10
-19.4391956851
 20
25.3123022289
 11
-19.4391956851
 21
26.2284265273
  0
LINE
  5
360
100
AcDbEntity
  8
RACCORDO
100
AcDbLine
 62
253
  6
CONTINUOUS
 10
-19.1942562375
 20
26.8805503138
 11
-19.1942562375
 21
26.6369577976
  0
LINE
  5
361
100
AcDbEntity
  8
RACCORDO
100
AcDbLine
 62
253
  6
CONTINUOUS
 10
-19.1942562375
 20
-26.9559458561
 11
-19.1942562375
 21
-26.7123533399
  0
LINE
  5
362
100
AcDbEntity
  8
RACCORDO
100
AcDbLine
 62
253
  6
CONTINUOUS
 10
-19.1396068247
 20
-26.0038677611
 11
-19.1396068247
 21
-25.0881089107
  0
LINE
  5
363
100
AcDbEntity
  8
RACCORDO
100
AcDbLine
 62
253
  6
CONTINUOUS
 10
-19.1396068247
 20
25.0127133684
 11
-19.1396068247
 21
25.9284722188
  0
LINE
  5
364
100
AcDbEntity
  8
0
100
AcDbLine
 62
7
  6
CONTINUOUS
 10
-19.1317297647
 20
33.0224183912
 11
-19.1317297647
 21
30.9471278311
  0
LINE
  5
365
100
AcDbEntity
  8
RACCORDO
100
AcDbLine
 62
253
  6
CONTINUOUS
 10
-18.8996428827
 20
-26.3981214563
 11
-18.8996428827
 21
-25.0873551548
  0
LINE
  5
366
100
AcDbEntity
  8
RACCORDO
100
AcDbLine
 62
253
  6
CONTINUOUS
 10
-18.8996428827
 20
25.0119596126
 11
-18.8996428827
 21
26.3227259455
  0
LINE
  5
367
100
AcDbEntity
  8
0
100
AcDbLine
 62
7
  6
CONTINUOUS
 10
-18.7097117648
 20
32.6892255671
 11
-18.7097117648
 21
32.1127830858
  0
LINE
  5
368
100
AcDbEntity
  8
0
100
AcDbLine
 62
7
  6
CONTINUOUS
 10
-18.6951778812
 20
31.7688827419
 11
-18.6951778812
 21
30.9471278311
  0
LINE
  5
369
100
AcDbEntity
  8
RACCORDO
100
AcDbLine
 62
253
  6
CONTINUOUS
 10
-18.6499854991
 20
-26.398124086
 11
-18.6499854991
 21
-24.8376977711
  0
LINE
  5
36A
100
AcDbEntity
  8
RACCORDO
100
AcDbLine
 62
253
  6
CONTINUOUS
 10
-18.6499854991
 20
24.7623022289
 11
-18.6499854991
 21
26.3227285437
  0
LINE
  5
36B
100
AcDbEntity
  8
0
100
AcDbLine
 62
7
  6
CONTINUOUS
 10
-18.2097996407
 20
-32.6376977711
 11
-18.2097996407
 21
-31.0376977711
  0
LINE
  5
36C
100
AcDbEntity
  8
0
100
AcDbLine
 62
7
  6
CONTINUOUS
 10
-18.0048420305
 20
31.9397149228
 11
-18.0048420305
 21
31.9273067968
  0
LINE
  5
36D
100
AcDbEntity
  8
0
100
AcDbLine
 62
7
  6
CONTINUOUS
 10
-17.9935766407
 20
-32.4460597711
 11
-17.9935766407
 21
-31.0376977711
  0
LINE
  5
36E
100
AcDbEntity
  8
0
100
AcDbLine
 62
7
  6
CONTINUOUS
 10
-17.1823836407
 20
-32.6376977711
 11
-17.1823836407
 21
-32.4460597711
  0
LINE
  5
36F
100
AcDbEntity
  8
DRAFT
100
AcDbLine
 62
7
  6
CONTINUOUS
 10
-19.1178208696
 20
25.1623022289
 11
-19.1256524817
 21
25.0123022289
  0
LINE
  5
370
100
AcDbEntity
  8
DRAFT
100
AcDbLine
 62
7
  6
CONTINUOUS
 10
-19.0916169799
 20
25.1623022289
 11
-19.0994485921
 21
25.0123022289
  0
LINE
  5
371
100
AcDbEntity
  8
DRAFT
100
AcDbLine
 62
7
  6
CONTINUOUS
 10
-19.0654130903
 20
25.1623022289
 11
-19.0732447025
 21
25.0123022289
  0
LINE
  5
372
100
AcDbEntity
  8
DRAFT
100
AcDbLine
 62
7
  6
CONTINUOUS
 10
-19.0392092007
 20
25.1623022289
 11
-19.0470408128
 21
25.0123022289
  0
LINE
  5
373
100
AcDbEntity
  8
DRAFT
100
AcDbLine
 62
7
  6
CONTINUOUS
 10
-19.013005311
 20
25.1623022289
 11
-19.0208369232
 21
25.0123022289
  0
LINE
  5
374
100
AcDbEntity
  8
DRAFT
100
AcDbLine
 62
7
  6
CONTINUOUS
 10
-18.9868014214
 20
25.1623022289
 11
-18.9946330335
 21
25.0123022289
  0
LINE
  5
375
100
AcDbEntity
  8
DRAFT
100
AcDbLine
 62
7
  6
CONTINUOUS
 10
-18.9605975317
 20
25.1623022289
 11
-18.9684291439
 21
25.0123022289
  0
LINE
  5
376
100
AcDbEntity
  8
DRAFT
100
AcDbLine
 62
7
  6
CONTINUOUS
 10
-18.9343936421
 20
25.1623022289
 11
-18.9422252542
 21
25.0123022289
  0
LINE
  5
377
100
AcDbEntity
  8
DRAFT
100
AcDbLine
 62
7
  6
CONTINUOUS
 10
-19.1178208696
 20
-25.2376977711
 11
-19.1099892574
 21
-25.0876977711
  0
LINE
  5
378
100
AcDbEntity
  8
DRAFT
100
AcDbLine
 62
7
  6
CONTINUOUS
 10
-19.0916169799
 20
-25.2376977711
 11
-19.0837853678
 21
-25.0876977711
  0
LINE
  5
379
100
AcDbEntity
  8
DRAFT
100
AcDbLine
 62
7
  6
CONTINUOUS
 10
-19.0654130903
 20
-25.2376977711
 11
-19.0575814781
 21
-25.0876977711
  0
LINE
  5
37A
100
AcDbEntity
  8
DRAFT
100
AcDbLine
 62
7
  6
CONTINUOUS
 10
-19.0392092007
 20
-25.2376977711
 11
-19.0313775885
 21
-25.0876977711
  0
LINE
  5
37B
100
AcDbEntity
  8
DRAFT
100
AcDbLine
 62
7
  6
CONTINUOUS
 10
-19.013005311
 20
-25.2376977711
 11
-19.0051736989
 21
-25.0876977711
  0
LINE
  5
37C
100
AcDbEntity
  8
DRAFT
100
AcDbLine
 62
7
  6
CONTINUOUS
 10
-18.9868014214
 20
-25.2376977711
 11
-18.9789698092
 21
-25.0876977711
  0
LINE
  5
37D
100
AcDbEntity
  8
DRAFT
100
AcDbLine
 62
7
  6
CONTINUOUS
 10
-18.9605975317
 20
-25.2376977711
 11
-18.9527659196
 21
-25.0876977711
  0
LINE
  5
37E
100
AcDbEntity
  8
DRAFT
100
AcDbLine
 62
7
  6
CONTINUOUS
 10
-18.9343936421
 20
-25.2376977711
 11
-18.9265620299
 21
-25.0876977711
  0
LINE
  5
37F
100
AcDbEntity
  8
RACCORDO
100
AcDbLine
 62
253
  6
CONTINUOUS
 10
-25.2976196815
 20
-26.0580814149
 11
-25.3748103987
 21
-26.3981214877
  0
LINE
  5
380
100
AcDbEntity
  8
RACCORDO
100
AcDbLine
 62
253
  6
CONTINUOUS
 10
-24.9996409519
 20
-26.3574854269
 11
-25.0801993681
 21
-26.7123533399
  0
LINE
  5
381
100
AcDbEntity
  8
0
100
AcDbLine
 62
7
  6
CONTINUOUS
 10
-30.2659196407
 20
-31.2939047711
 11
-30.7160106407
 21
-32.6376977711
  0
LINE
  5
382
100
AcDbEntity
  8
0
100
AcDbLine
 62
7
  6
CONTINUOUS
 10
-30.8207806407
 20
-32.3969267711
 11
-30.3639376407
 21
-31.0376977711
  0
LINE
  5
383
100
AcDbEntity
  8
RACCORDO
100
AcDbLine
 62
253
  6
CONTINUOUS
 10
-22.3459866827
 20
-26.7936348543
 11
-22.5639368128
 21
-26.8520344175
  0
LINE
  5
384
100
AcDbEntity
  8
RACCORDO
100
AcDbLine
 62
253
  6
CONTINUOUS
 10
23.0715334009
 20
-26.7936348557
 11
23.289483531
 21
-26.8520344171
  0
LINE
  5
385
100
AcDbEntity
  8
0
100
AcDbLine
 62
7
  6
CONTINUOUS
 10
26.9461063747
 20
-32.0164211779
 11
27.1544403438
 21
-32.1015275508
  0
LINE
  5
386
100
AcDbEntity
  8
0
100
AcDbLine
 62
7
  6
CONTINUOUS
 10
28.7794403438
 20
-32.0164211779
 11
28.9877733593
 21
-32.1015275508
  0
LINE
  5
387
100
AcDbEntity
  8
0
100
AcDbLine
 62
7
  6
CONTINUOUS
 10
19.7377733593
 20
-32.0589743643
 11
19.6544399862
 21
-32.0164211779
  0
LINE
  5
388
100
AcDbEntity
  8
0
100
AcDbLine
 62
7
  6
CONTINUOUS
 10
20.7377733593
 20
-32.1015275508
 11
20.5711066131
 21
-32.0164211779
  0
LINE
  5
389
100
AcDbEntity
  8
0
100
AcDbLine
 62
7
  6
CONTINUOUS
 10
21.3627733593
 20
-31.9313148051
 11
21.5294401054
 21
-32.0164211779
  0
LINE
  5
38A
100
AcDbEntity
  8
0
100
AcDbLine
 62
7
  6
CONTINUOUS
 10
26.1961068515
 20
-32.995144581
 11
26.029439867
 21
-32.910038197
  0
LINE
  5
38B
100
AcDbEntity
  8
0
100
AcDbLine
 62
7
  6
CONTINUOUS
 10
26.1127733593
 20
-32.7398254364
 11
26.1961068515
 21
-32.7823786228
  0
LINE
  5
38C
100
AcDbEntity
  8
0
100
AcDbLine
 62
7
  6
CONTINUOUS
 10
20.6127733593
 20
-32.995144581
 11
20.4044401054
 21
-32.8674850106
  0
LINE
  5
38D
100
AcDbEntity
  8
RACCORDO
100
AcDbLine
 62
253
  6
CONTINUOUS
 10
-25.3748103987
 20
26.322725914
 11
-25.2976196815
 21
25.9826858727
  0
LINE
  5
38E
100
AcDbEntity
  8
RACCORDO
100
AcDbLine
 62
253
  6
CONTINUOUS
 10
-25.0801986183
 20
26.6369577976
 11
-24.9996409519
 21
26.2820898847
  0
LINE
  5
38F
100
AcDbEntity
  8
0
100
AcDbLine
 62
7
  6
CONTINUOUS
 10
-16.5049876407
 20
-32.6376977711
 11
-16.5049876407
 21
-31.9936867711
  0
LINE
  5
390
100
AcDbEntity
  8
0
100
AcDbLine
 62
7
  6
CONTINUOUS
 10
-16.2888936407
 20
-32.6376977711
 11
-16.2888936407
 21
-31.9936867711
  0
LINE
  5
391
100
AcDbEntity
  8
RACCORDO
100
AcDbLine
 62
7
  6
CONTINUOUS
 10
-21.8210826095
 20
-26.7003771305
 11
-21.7560443163
 21
-26.3574854269
  0
LINE
  5
392
100
AcDbEntity
  8
RACCORDO
100
AcDbLine
 62
253
  6
CONTINUOUS
 10
-22.1372266407
 20
-26.4138034842
 11
-22.0273846948
 21
-26.0038677611
  0
LINE
  5
393
100
AcDbEntity
  8
RACCORDO
100
AcDbLine
 62
253
  6
CONTINUOUS
 10
-21.9284665991
 20
-26.7936348557
 11
-21.7972216587
 21
-26.3038220696
  0
LINE
  5
394
100
AcDbEntity
  8
RACCORDO
100
AcDbLine
 62
253
  6
CONTINUOUS
 10
-21.8515904042
 20
-26.8142337701
 11
-21.8210826095
 21
-26.7003771305
  0
LINE
  5
395
100
AcDbEntity
  8
0
100
AcDbLine
 62
7
  6
CONTINUOUS
 10
-29.4747446407
 20
-32.1719957711
 11
-29.6418996407
 21
-32.6376977711
  0
LINE
  5
396
100
AcDbEntity
  8
0
100
AcDbLine
 62
7
  6
CONTINUOUS
 10
-29.1492966407
 20
-31.2697757711
 11
-29.4078716407
 21
-31.9803587711
  0
LINE
  5
397
100
AcDbEntity
  8
0
100
AcDbLine
 62
7
  6
CONTINUOUS
 10
-29.8647226407
 20
-32.6376977711
 11
-29.2630756407
 21
-31.0376977711
  0
LINE
  5
398
100
AcDbEntity
  8
0
100
AcDbLine
 62
7
  6
CONTINUOUS
 10
21.6961066131
 20
32.7069831104
 11
21.5711066131
 21
32.6218767375
  0
LINE
  5
399
100
AcDbEntity
  8
0
100
AcDbLine
 62
7
  6
CONTINUOUS
 10
21.4044401054
 20
32.0261320085
 11
21.6544401054
 21
32.1963447542
  0
LINE
  5
39A
100
AcDbEntity
  8
0
100
AcDbLine
 62
7
  6
CONTINUOUS
 10
21.6961066131
 20
31.9835788221
 11
21.5711066131
 21
31.8984724492
  0
LINE
  5
39B
100
AcDbEntity
  8
0
100
AcDbLine
 62
7
  6
CONTINUOUS
 10
22.2377733593
 20
31.2176213772
 11
22.3627733593
 21
31.30272775
  0
LINE
  5
39C
100
AcDbEntity
  8
0
100
AcDbLine
 62
7
  6
CONTINUOUS
 10
21.4461066131
 20
32.7920894832
 11
21.6544401054
 21
32.9197490424
  0
LINE
  5
39D
100
AcDbEntity
  8
0
100
AcDbLine
 62
7
  6
CONTINUOUS
 10
22.4877733593
 20
31.1325149894
 11
22.2794401054
 21
31.004855419
  0
LINE
  5
39E
100
AcDbEntity
  8
0
100
AcDbLine
 62
7
  6
CONTINUOUS
 10
25.279439867
 20
32.7920894832
 11
25.4877733593
 21
32.9197490424
  0
LINE
  5
39F
100
AcDbEntity
  8
0
100
AcDbLine
 62
7
  6
CONTINUOUS
 10
26.3211068515
 20
31.1325149894
 11
26.1127733593
 21
31.004855419
  0
LINE
  5
3A0
100
AcDbEntity
  8
0
100
AcDbLine
 62
7
  6
CONTINUOUS
 10
25.279439867
 20
31.9410256357
 11
25.3627733593
 21
31.9835788221
  0
LINE
  5
3A1
100
AcDbEntity
  8
0
100
AcDbLine
 62
7
  6
CONTINUOUS
 10
25.529439867
 20
31.8559192628
 11
25.3627733593
 21
31.77081289
  0
LINE
  5
3A2
100
AcDbEntity
  8
0
100
AcDbLine
 62
7
  6
CONTINUOUS
 10
26.279439867
 20
32.0261320085
 11
26.1961068515
 21
31.9835788221
  0
LINE
  5
3A3
100
AcDbEntity
  8
0
100
AcDbLine
 62
7
  6
CONTINUOUS
 10
26.029439867
 20
31.2176213772
 11
26.1961068515
 21
31.30272775
  0
LINE
  5
3A4
100
AcDbEntity
  8
RACCORDO
100
AcDbLine
 62
253
  6
CONTINUOUS
 10
25.7219253075
 20
26.2820898847
 11
25.5608043149
 21
26.2284265273
  0
LINE
  5
3A5
100
AcDbEntity
  8
RACCORDO
100
AcDbLine
 62
253
  6
CONTINUOUS
 10
26.0231664001
 20
25.9826858727
 11
25.8603931753
 21
25.9284722188
  0
LINE
  5
3A6
100
AcDbEntity
  8
0
100
AcDbLine
 62
7
  6
CONTINUOUS
 10
-44.3372266407
 20
-15.0376977711
 11
-44.4372266407
 21
-15.0376977711
  0
LINE
  5
3A7
100
AcDbEntity
  8
0
100
AcDbLine
 62
7
  6
CONTINUOUS
 10
45.0627733593
 20
-15.0376977711
 11
45.1627733593
 21
-15.0376977711
  0
LINE
  5
3A8
100
AcDbEntity
  8
RACCORDO
100
AcDbLine
 62
253
  6
CONTINUOUS
 10
25.5608043149
 20
-26.3038220696
 11
25.7219253075
 21
-26.3574854269
  0
LINE
  5
3A9
100
AcDbEntity
  8
RACCORDO
100
AcDbLine
 62
253
  6
CONTINUOUS
 10
25.8603931753
 20
-26.0038677611
 11
26.0231664001
 21
-26.0580814149
  0
LINE
  5
3AA
100
AcDbEntity
  8
0
100
AcDbLine
 62
7
  6
CONTINUOUS
 10
28.0294403438
 20
-32.995144581
 11
27.8627733593
 21
-32.910038197
  0
LINE
  5
3AB
100
AcDbEntity
  8
0
100
AcDbLine
 62
7
  6
CONTINUOUS
 10
27.9461063747
 20
-32.7398254364
 11
28.0294403438
 21
-32.7823786228
  0
LINE
  5
3AC
100
AcDbEntity
  8
0
100
AcDbLine
 62
7
  6
CONTINUOUS
 10
26.8627733593
 20
-31.0802509576
 11
27.0294403438
 21
-31.1653573304
  0
LINE
  5
3AD
100
AcDbEntity
  8
0
100
AcDbLine
 62
7
  6
CONTINUOUS
 10
28.6961063747
 20
-31.0802509576
 11
28.8627733593
 21
-31.1653573304
  0
LINE
  5
3AE
100
AcDbEntity
  8
0
100
AcDbLine
 62
7
  6
CONTINUOUS
 10
22.529439867
 20
-32.995144581
 11
22.3211066131
 21
-32.8674850106
  0
LINE
  5
3AF
100
AcDbEntity
  8
0
100
AcDbLine
 62
7
  6
CONTINUOUS
 10
23.1961068515
 20
-31.8036552458
 11
23.404439867
 21
-31.9313148051
  0
LINE
  5
3B0
100
AcDbEntity
  8
0
100
AcDbLine
 62
7
  6
CONTINUOUS
 10
20.7794401054
 20
-31.8462084323
 11
20.6544401054
 21
-31.7611020594
  0
LINE
  5
3B1
100
AcDbEntity
  8
0
100
AcDbLine
 62
7
  6
CONTINUOUS
 10
21.4461066131
 20
-32.2717402964
 11
21.3211066131
 21
-32.1866339236
  0
LINE
  5
3B2
100
AcDbEntity
  8
0
100
AcDbLine
 62
7
  6
CONTINUOUS
 10
22.4461068515
 20
-32.69727225
 11
22.5711068515
 21
-32.7823786228
  0
LINE
  5
3B3
100
AcDbEntity
  8
0
100
AcDbLine
 62
7
  6
CONTINUOUS
 10
23.279439867
 20
-32.1015275508
 11
23.154439867
 21
-32.0164211779
  0
LINE
  5
3B4
100
AcDbEntity
  8
0
100
AcDbLine
 62
7
  6
CONTINUOUS
 10
19.7377733593
 20
-31.2079105168
 11
19.5711067323
 21
-31.0802509576
  0
LINE
  5
3B5
100
AcDbEntity
  8
0
100
AcDbLine
 62
7
  6
CONTINUOUS
 10
-25.0839536407
 20
30.9471282289
 11
-25.7496386407
 21
33.0469512289
  0
LINE
  5
3B6
100
AcDbEntity
  8
0
100
AcDbLine
 62
7
  6
CONTINUOUS
 10
-25.2734926407
 20
33.0469512289
 11
-24.8732276407
 21
31.6015782289
  0
LINE
  5
3B7
100
AcDbEntity
  8
RACCORDO
100
AcDbLine
 62
253
  6
CONTINUOUS
 10
-22.0273846948
 20
25.9284722188
 11
-22.1372266407
 21
26.3384079419
  0
LINE
  5
3B8
100
AcDbEntity
  8
RACCORDO
100
AcDbLine
 62
253
  6
CONTINUOUS
 10
-21.7972216587
 20
26.2284265273
 11
-21.9284665988
 21
26.718239312
  0
LINE
  5
3B9
100
AcDbEntity
  8
RACCORDO
100
AcDbLine
 62
253
  6
CONTINUOUS
 10
-21.8210826095
 20
26.6249815883
 11
-21.8515904042
 21
26.7388382278
  0
LINE
  5
3BA
100
AcDbEntity
  8
RACCORDO
100
AcDbLine
 62
7
  6
CONTINUOUS
 10
-21.7560443163
 20
26.2820898847
 11
-21.8210826095
 21
26.6249815883
  0
LINE
  5
3BB
100
AcDbEntity
  8
0
100
AcDbLine
 62
7
  6
CONTINUOUS
 10
25.529439867
 20
32.7069831104
 11
25.3627733593
 21
32.5793235511
  0
LINE
  5
3BC
100
AcDbEntity
  8
0
100
AcDbLine
 62
7
  6
CONTINUOUS
 10
25.1127733593
 20
31.8133660764
 11
25.279439867
 21
31.9410256357
  0
LINE
  5
3BD
100
AcDbEntity
  8
0
100
AcDbLine
 62
7
  6
CONTINUOUS
 10
26.029439867
 20
32.1112383813
 11
26.1961068515
 21
32.2388979406
  0
LINE
  5
3BE
100
AcDbEntity
  8
RACCORDO
100
AcDbLine
 62
253
  6
CONTINUOUS
 10
36.646333666
 20
-11.7877035753
 11
37.9823048673
 21
-11.7877038482
  0
LINE
  5
3BF
100
AcDbEntity
  8
RACCORDO
100
AcDbLine
 62
253
  6
CONTINUOUS
 10
-35.9207869474
 20
-11.7877035805
 11
-37.2567581488
 21
-11.7877038534
  0
LINE
  5
3C0
100
AcDbEntity
  8
RACCORDO
100
AcDbLine
 62
253
  6
CONTINUOUS
 10
-43.9935588898
 20
-11.7804970651
 11
-44.4372266407
 21
-11.7804973185
  0
LINE
  5
3C1
100
AcDbEntity
  8
RACCORDO
100
AcDbLine
 62
253
  6
CONTINUOUS
 10
44.7191056084
 20
-11.7804949891
 11
45.1627733593
 21
-11.7804952425
  0
LINE
  5
3C2
100
AcDbEntity
  8
0
100
AcDbLine
 62
7
  6
CONTINUOUS
 10
26.029439867
 20
-32.910038197
 11
25.904439867
 21
-32.8249318093
  0
LINE
  5
3C3
100
AcDbEntity
  8
0
100
AcDbLine
 62
7
  6
CONTINUOUS
 10
27.8627733593
 20
-32.910038197
 11
27.7377733593
 21
-32.8249318093
  0
LINE
  5
3C4
100
AcDbEntity
  8
0
100
AcDbLine
 62
7
  6
CONTINUOUS
 10
26.9877733593
 20
-32.22918711
 11
26.8627733593
 21
-32.1440807372
  0
LINE
  5
3C5
100
AcDbEntity
  8
0
100
AcDbLine
 62
7
  6
CONTINUOUS
 10
26.9461063747
 20
-31.3781232625
 11
26.8211063747
 21
-31.2930168896
  0
LINE
  5
3C6
100
AcDbEntity
  8
0
100
AcDbLine
 62
7
  6
CONTINUOUS
 10
28.8211063747
 20
-32.22918711
 11
28.6961063747
 21
-32.1440807372
  0
LINE
  5
3C7
100
AcDbEntity
  8
0
100
AcDbLine
 62
7
  6
CONTINUOUS
 10
28.7794403438
 20
-31.3781232625
 11
28.6544403438
 21
-31.2930168896
  0
LINE
  5
3C8
100
AcDbEntity
  8
0
100
AcDbLine
 62
7
  6
CONTINUOUS
 10
21.3211066131
 20
-31.0802509576
 11
21.4877733593
 21
-31.2079105168
  0
LINE
  5
3C9
100
AcDbEntity
  8
0
100
AcDbLine
 62
7
  6
CONTINUOUS
 10
19.6127733593
 20
-32.2717402964
 11
19.5294399862
 21
-32.1866339236
  0
LINE
  5
3CA
100
AcDbEntity
  8
0
100
AcDbLine
 62
7
  6
CONTINUOUS
 10
20.6544401054
 20
-32.7398254364
 11
20.5294401054
 21
-32.6121658474
  0
LINE
  5
3CB
100
AcDbEntity
  8
0
100
AcDbLine
 62
7
  6
CONTINUOUS
 10
-22.1576746407
 20
30.9471282289
 11
-22.6718716407
 21
32.3182732289
  0
LINE
  5
3CC
100
AcDbEntity
  8
0
100
AcDbLine
 62
7
  6
CONTINUOUS
 10
-22.5582306407
 20
33.0469512289
 11
-22.1245446407
 21
31.8811232289
  0
LINE
  5
3CD
100
AcDbEntity
  8
0
100
AcDbLine
 62
7
  6
CONTINUOUS
 10
-19.9047186407
 20
33.0469512289
 11
-19.2604406407
 21
30.9471282289
  0
LINE
  5
3CE
100
AcDbEntity
  8
0
100
AcDbLine
 62
7
  6
CONTINUOUS
 10
-19.8359536407
 20
31.3663272289
 11
-19.7224066407
 21
30.9471282289
  0
LINE
  5
3CF
100
AcDbEntity
  8
0
100
AcDbLine
 62
7
  6
CONTINUOUS
 10
-20.1249626407
 20
32.4699732289
 11
-19.9235506407
 21
31.6907022289
  0
LINE
  5
3D0
100
AcDbEntity
  8
0
100
AcDbLine
 62
7
  6
CONTINUOUS
 10
-19.6115236407
 20
-32.6376977711
 11
-19.4443556407
 21
-32.1719957711
  0
LINE
  5
3D1
100
AcDbEntity
  8
0
100
AcDbLine
 62
7
  6
CONTINUOUS
 10
-19.3774956407
 20
-31.9803587711
 11
-19.1189336407
 21
-31.2697757711
  0
LINE
  5
3D2
100
AcDbEntity
  8
0
100
AcDbLine
 62
7
  6
CONTINUOUS
 10
-19.8343336407
 20
-32.6376977711
 11
-19.2326096407
 21
-31.0376977711
  0
LINE
  5
3D3
100
AcDbEntity
  8
0
100
AcDbLine
 62
7
  6
CONTINUOUS
 10
18.6127733593
 20
32.9623022289
 11
18.3627733593
 21
32.6644299239
  0
LINE
  5
3D4
100
AcDbEntity
  8
0
100
AcDbLine
 62
7
  6
CONTINUOUS
 10
18.6127733593
 20
32.6218767375
 11
18.3627733593
 21
32.3240043134
  0
LINE
  5
3D5
100
AcDbEntity
  8
0
100
AcDbLine
 62
7
  6
CONTINUOUS
 10
20.1961067323
 20
32.9623022289
 11
19.1961066727
 21
31.8133660764
  0
LINE
  5
3D6
100
AcDbEntity
  8
0
100
AcDbLine
 62
7
  6
CONTINUOUS
 10
20.1961067323
 20
32.6218767375
 11
19.4877733593
 21
31.8133660764
  0
LINE
  5
3D7
100
AcDbEntity
  8
0
100
AcDbLine
 62
7
  6
CONTINUOUS
 10
21.5711066131
 20
31.8984724492
 11
21.4877733593
 21
31.8133660764
  0
LINE
  5
3D8
100
AcDbEntity
  8
0
100
AcDbLine
 62
7
  6
CONTINUOUS
 10
25.154439867
 20
32.6644299239
 11
25.279439867
 21
32.7920894832
  0
LINE
  5
3D9
100
AcDbEntity
  8
0
100
AcDbLine
 62
7
  6
CONTINUOUS
 10
26.4044403438
 20
32.1537915677
 11
26.279439867
 21
32.0261320085
  0
LINE
  5
3DA
100
AcDbEntity
  8
RACCORDO
100
AcDbLine
 62
253
  6
CONTINUOUS
 10
47.8627733593
 20
-4.2394909978
 11
46.4627733593
 21
-4.2394909978
  0
LINE
  5
3DB
100
AcDbEntity
  8
0
100
AcDbLine
 62
253
  6
CONTINUOUS
 10
-45.7372266407
 20
-4.2394909978
 11
-44.4372266407
 21
-4.2394909978
  0
LINE
  5
3DC
100
AcDbEntity
  8
0
100
AcDbLine
 62
253
  6
CONTINUOUS
 10
45.1627733593
 20
-4.2394909978
 11
46.4627733593
 21
-4.2394909978
  0
LINE
  5
3DD
100
AcDbEntity
  8
RACCORDO
100
AcDbLine
 62
253
  6
CONTINUOUS
 10
-45.7372266407
 20
-4.2394909978
 11
-47.1372266407
 21
-4.2394909978
  0
LINE
  5
3DE
100
AcDbEntity
  8
0
100
AcDbLine
 62
7
  6
CONTINUOUS
 10
19.6127733593
 20
-31.4206764489
 11
19.5294399862
 21
-31.3355700761
  0
LINE
  5
3DF
100
AcDbEntity
  8
0
100
AcDbLine
 62
7
  6
CONTINUOUS
 10
20.5711066131
 20
-32.0164211779
 11
20.4044401054
 21
-31.8462084323
  0
LINE
  5
3E0
100
AcDbEntity
  8
0
100
AcDbLine
 62
7
  6
CONTINUOUS
 10
21.5294401054
 20
-32.0164211779
 11
21.6961066131
 21
-32.1866339236
  0
LINE
  5
3E1
100
AcDbEntity
  8
0
100
AcDbLine
 62
7
  6
CONTINUOUS
 10
21.3627733593
 20
-31.4206764489
 11
21.2794401054
 21
-31.3355700761
  0
LINE
  5
3E2
100
AcDbEntity
  8
0
100
AcDbLine
 62
7
  6
CONTINUOUS
 10
26.029439867
 20
-32.6547190338
 11
26.1127733593
 21
-32.7398254364
  0
LINE
  5
3E3
100
AcDbEntity
  8
0
100
AcDbLine
 62
7
  6
CONTINUOUS
 10
21.5711066131
 20
32.6218767375
 11
21.4877733593
 21
32.4942171783
  0
LINE
  5
3E4
100
AcDbEntity
  8
0
100
AcDbLine
 62
7
  6
CONTINUOUS
 10
21.3211066131
 20
32.6218767375
 11
21.4461066131
 21
32.7920894832
  0
LINE
  5
3E5
100
AcDbEntity
  8
0
100
AcDbLine
 62
7
  6
CONTINUOUS
 10
22.6127733593
 20
31.30272775
 11
22.4877733593
 21
31.1325149894
  0
LINE
  5
3E6
100
AcDbEntity
  8
RACCORDO
100
AcDbLine
 62
7
  6
CONTINUOUS
 10
-22.5184089651
 20
-26.3574854269
 11
-22.4772316228
 21
-26.3038220696
  0
LINE
  5
3E7
100
AcDbEntity
  8
0
100
AcDbLine
 62
7
  6
CONTINUOUS
 10
23.029439867
 20
31.8133660764
 11
24.029439867
 21
32.9623022289
  0
LINE
  5
3E8
100
AcDbEntity
  8
0
100
AcDbLine
 62
7
  6
CONTINUOUS
 10
24.029439867
 20
32.6218767375
 11
23.3211068515
 21
31.8133660764
  0
LINE
  5
3E9
100
AcDbEntity
  8
0
100
AcDbLine
 62
7
  6
CONTINUOUS
 10
26.4461063747
 20
31.2601745636
 11
26.3211068515
 21
31.1325149894
  0
LINE
  5
3EA
100
AcDbEntity
  8
RACCORDO
100
AcDbLine
 62
253
  6
CONTINUOUS
 10
47.8399897636
 20
-3.7437685671
 11
46.4589794678
 21
-3.7437685671
  0
LINE
  5
3EB
100
AcDbEntity
  8
0
100
AcDbLine
 62
253
  6
CONTINUOUS
 10
-45.7334327492
 20
-3.7437685671
 11
-44.4372266407
 21
-3.7437685671
  0
LINE
  5
3EC
100
AcDbEntity
  8
0
100
AcDbLine
 62
253
  6
CONTINUOUS
 10
45.1627733593
 20
-3.7437685671
 11
46.4589794678
 21
-3.7437685671
  0
LINE
  5
3ED
100
AcDbEntity
  8
RACCORDO
100
AcDbLine
 62
253
  6
CONTINUOUS
 10
-45.7334327492
 20
-3.7437685671
 11
-47.114443045
 21
-3.7437685671
  0
LINE
  5
3EE
100
AcDbEntity
  8
RACCORDO
100
AcDbLine
 62
253
  6
CONTINUOUS
 10
-47.0551946779
 20
-3.5949319703
 11
-45.7235667966
 21
-3.5949319703
  0
LINE
  5
3EF
100
AcDbEntity
  8
0
100
AcDbLine
 62
253
  6
CONTINUOUS
 10
-45.7235667966
 20
-3.5949319703
 11
-44.4372266407
 21
-3.5949319703
  0
LINE
  5
3F0
100
AcDbEntity
  8
0
100
AcDbLine
 62
253
  6
CONTINUOUS
 10
45.1627733593
 20
-3.5949319703
 11
46.4491135152
 21
-3.5949319703
  0
LINE
  5
3F1
100
AcDbEntity
  8
RACCORDO
100
AcDbLine
 62
253
  6
CONTINUOUS
 10
46.4491135152
 20
-3.5949319703
 11
47.7807413964
 21
-3.5949319703
  0
LINE
  5
3F2
100
AcDbEntity
  8
RACCORDO
100
AcDbLine
 62
253
  6
CONTINUOUS
 10
-47.0324110822
 20
-3.0992095396
 11
-45.7197729051
 21
-3.0992095396
  0
LINE
  5
3F3
100
AcDbEntity
  8
0
100
AcDbLine
 62
253
  6
CONTINUOUS
 10
-45.7197729051
 20
-3.0992095396
 11
-44.4372266407
 21
-3.0992095396
  0
LINE
  5
3F4
100
AcDbEntity
  8
0
100
AcDbLine
 62
253
  6
CONTINUOUS
 10
45.1627733593
 20
-3.0992095396
 11
46.4453196237
 21
-3.0992095396
  0
LINE
  5
3F5
100
AcDbEntity
  8
RACCORDO
100
AcDbLine
 62
253
  6
CONTINUOUS
 10
46.4453196237
 20
-3.0992095396
 11
47.7579578007
 21
-3.0992095396
  0
LINE
  5
3F6
100
AcDbEntity
  8
0
100
AcDbLine
 62
7
  6
CONTINUOUS
 10
27.8627733593
 20
-32.6547190338
 11
27.9461063747
 21
-32.7398254364
  0
LINE
  5
3F7
100
AcDbEntity
  8
0
100
AcDbLine
 62
7
  6
CONTINUOUS
 10
27.0294403438
 20
-31.1653573304
 11
27.1961063747
 21
-31.3355700761
  0
LINE
  5
3F8
100
AcDbEntity
  8
0
100
AcDbLine
 62
7
  6
CONTINUOUS
 10
28.8627733593
 20
-31.1653573304
 11
29.0294403438
 21
-31.3355700761
  0
LINE
  5
3F9
100
AcDbEntity
  8
RACCORDO
100
AcDbLine
 62
7
  6
CONTINUOUS
 10
-22.5184089651
 20
26.2820898847
 11
-22.4772316228
 21
26.2284265273
  0
LINE
  5
3FA
100
AcDbEntity
  8
0
100
AcDbLine
 62
7
  6
CONTINUOUS
 10
19.8627733593
 20
-32.22918711
 11
19.7377733593
 21
-32.0589743643
  0
LINE
  5
3FB
100
AcDbEntity
  8
0
100
AcDbLine
 62
7
  6
CONTINUOUS
 10
19.8627733593
 20
-31.3781232625
 11
19.7377733593
 21
-31.2079105168
  0
LINE
  5
3FC
100
AcDbEntity
  8
0
100
AcDbLine
 62
7
  6
CONTINUOUS
 10
22.3211066131
 20
-32.8674850106
 11
22.1961066131
 21
-32.69727225
  0
LINE
  5
3FD
100
AcDbEntity
  8
0
100
AcDbLine
 62
7
  6
CONTINUOUS
 10
21.4877733593
 20
-31.2079105168
 11
21.6127733593
 21
-31.3781232625
  0
LINE
  5
3FE
100
AcDbEntity
  8
0
100
AcDbLine
 62
7
  6
CONTINUOUS
 10
23.404439867
 20
-31.9313148051
 11
23.529439867
 21
-32.1015275508
  0
LINE
  5
3FF
100
AcDbEntity
  8
0
100
AcDbLine
 62
7
  6
CONTINUOUS
 10
21.5294401054
 20
-32.3993999153
 11
21.4461066131
 21
-32.2717402964
  0
LINE
  5
400
100
AcDbEntity
  8
0
100
AcDbLine
 62
7
  6
CONTINUOUS
 10
-16.3979756407
 20
-31.8065777711
 11
-15.9390026407
 21
-31.0376977711
  0
LINE
  5
401
100
AcDbEntity
  8
0
100
AcDbLine
 62
7
  6
CONTINUOUS
 10
-16.2888936407
 20
-31.9936867711
 11
-15.6848666407
 21
-31.0376977711
  0
LINE
  5
402
100
AcDbEntity
  8
0
100
AcDbLine
 62
7
  6
CONTINUOUS
 10
22.3627733593
 20
31.30272775
 11
22.4461068515
 21
31.4303873391
  0
LINE
  5
403
100
AcDbEntity
  8
0
100
AcDbLine
 62
7
  6
CONTINUOUS
 10
25.3627733593
 20
32.5793235511
 11
25.279439867
 21
32.4516638727
  0
LINE
  5
404
100
AcDbEntity
  8
0
100
AcDbLine
 62
7
  6
CONTINUOUS
 10
26.1961068515
 20
32.2388979406
 11
26.279439867
 21
32.3665574998
  0
LINE
  5
405
100
AcDbEntity
  8
0
100
AcDbLine
 62
7
  6
CONTINUOUS
 10
25.3627733593
 20
31.77081289
 11
25.2377733593
 21
31.6006000847
  0
LINE
  5
406
100
AcDbEntity
  8
0
100
AcDbLine
 62
7
  6
CONTINUOUS
 10
26.1961068515
 20
31.30272775
 11
26.3211068515
 21
31.4729405255
  0
LINE
  5
407
100
AcDbEntity
  8
RACCORDO
100
AcDbLine
 62
7
  6
CONTINUOUS
 10
23.2439556837
 20
26.2820898847
 11
23.2027783413
 21
26.2284265273
  0
LINE
  5
408
100
AcDbEntity
  8
RACCORDO
100
AcDbLine
 62
253
  6
CONTINUOUS
 10
-47.0324110822
 20
3.0238139974
 11
-45.7197729051
 21
3.0238139974
  0
LINE
  5
409
100
AcDbEntity
  8
0
100
AcDbLine
 62
253
  6
CONTINUOUS
 10
-45.7197729051
 20
3.0238139974
 11
-44.4372266407
 21
3.0238139974
  0
LINE
  5
40A
100
AcDbEntity
  8
0
100
AcDbLine
 62
253
  6
CONTINUOUS
 10
45.1627733593
 20
3.0238139974
 11
46.4453196237
 21
3.0238139974
  0
LINE
  5
40B
100
AcDbEntity
  8
RACCORDO
100
AcDbLine
 62
253
  6
CONTINUOUS
 10
46.4453196237
 20
3.0238139974
 11
47.7579578007
 21
3.0238139974
  0
LINE
  5
40C
100
AcDbEntity
  8
RACCORDO
100
AcDbLine
 62
253
  6
CONTINUOUS
 10
-47.0551946779
 20
3.5195364281
 11
-45.7235667966
 21
3.5195364281
  0
LINE
  5
40D
100
AcDbEntity
  8
0
100
AcDbLine
 62
253
  6
CONTINUOUS
 10
-45.7235667966
 20
3.5195364281
 11
-44.4372266407
 21
3.5195364281
  0
LINE
  5
40E
100
AcDbEntity
  8
0
100
AcDbLine
 62
253
  6
CONTINUOUS
 10
45.1627733593
 20
3.5195364281
 11
46.4491135152
 21
3.5195364281
  0
LINE
  5
40F
100
AcDbEntity
  8
RACCORDO
100
AcDbLine
 62
253
  6
CONTINUOUS
 10
46.4491135152
 20
3.5195364281
 11
47.7807413964
 21
3.5195364281
  0
LINE
  5
410
100
AcDbEntity
  8
RACCORDO
100
AcDbLine
 62
253
  6
CONTINUOUS
 10
-47.114443045
 20
3.6683730248
 11
-45.7334327492
 21
3.6683730248
  0
LINE
  5
411
100
AcDbEntity
  8
0
100
AcDbLine
 62
253
  6
CONTINUOUS
 10
-45.7334327492
 20
3.6683730248
 11
-44.4372266407
 21
3.6683730248
  0
LINE
  5
412
100
AcDbEntity
  8
0
100
AcDbLine
 62
253
  6
CONTINUOUS
 10
45.1627733593
 20
3.6683730248
 11
46.4589794678
 21
3.6683730248
  0
LINE
  5
413
100
AcDbEntity
  8
RACCORDO
100
AcDbLine
 62
253
  6
CONTINUOUS
 10
46.4589794678
 20
3.6683730248
 11
47.8399897636
 21
3.6683730248
  0
LINE
  5
414
100
AcDbEntity
  8
RACCORDO
100
AcDbLine
 62
253
  6
CONTINUOUS
 10
-47.1372266407
 20
4.1640954555
 11
-45.7372266407
 21
4.1640954555
  0
LINE
  5
415
100
AcDbEntity
  8
0
100
AcDbLine
 62
253
  6
CONTINUOUS
 10
-45.7372266407
 20
4.1640954555
 11
-44.4372266407
 21
4.1640954555
  0
LINE
  5
416
100
AcDbEntity
  8
0
100
AcDbLine
 62
253
  6
CONTINUOUS
 10
45.1627733593
 20
4.1640954555
 11
46.4627733593
 21
4.1640954555
  0
LINE
  5
417
100
AcDbEntity
  8
RACCORDO
100
AcDbLine
 62
253
  6
CONTINUOUS
 10
46.4627733593
 20
4.1640954555
 11
47.8627733593
 21
4.1640954555
  0
LINE
  5
418
100
AcDbEntity
  8
RACCORDO
100
AcDbLine
 62
7
  6
CONTINUOUS
 10
23.2439556837
 20
-26.3574854269
 11
23.2027783413
 21
-26.3038220696
  0
LINE
  5
419
100
AcDbEntity
  8
0
100
AcDbLine
 62
7
  6
CONTINUOUS
 10
23.3627733593
 20
-32.22918711
 11
23.279439867
 21
-32.1015275508
  0
LINE
  5
41A
100
AcDbEntity
  8
0
100
AcDbLine
 62
7
  6
CONTINUOUS
 10
25.904439867
 20
-32.8249318093
 11
25.8211068515
 21
-32.69727225
  0
LINE
  5
41B
100
AcDbEntity
  8
0
100
AcDbLine
 62
7
  6
CONTINUOUS
 10
27.1544403438
 20
-32.1015275508
 11
27.2377733593
 21
-32.22918711
  0
LINE
  5
41C
100
AcDbEntity
  8
0
100
AcDbLine
 62
7
  6
CONTINUOUS
 10
27.7377733593
 20
-32.8249318093
 11
27.6544403438
 21
-32.69727225
  0
LINE
  5
41D
100
AcDbEntity
  8
0
100
AcDbLine
 62
7
  6
CONTINUOUS
 10
20.4044401054
 20
-32.8674850106
 11
20.2794399862
 21
-32.6547190338
  0
LINE
  5
41E
100
AcDbEntity
  8
0
100
AcDbLine
 62
7
  6
CONTINUOUS
 10
21.6961066131
 20
-32.1866339236
 11
21.7794401054
 21
-32.3568467289
  0
LINE
  5
41F
100
AcDbEntity
  8
0
100
AcDbLine
 62
7
  6
CONTINUOUS
 10
21.4044401054
 20
-31.5057828217
 11
21.3627733593
 21
-31.4206764489
  0
LINE
  5
420
100
AcDbEntity
  8
0
100
AcDbLine
 62
7
  6
CONTINUOUS
 10
21.2377733593
 20
32.4091106862
 11
21.3211066131
 21
32.6218767375
  0
LINE
  5
421
100
AcDbEntity
  8
0
100
AcDbLine
 62
7
  6
CONTINUOUS
 10
22.6961068515
 20
31.5154937119
 11
22.6127733593
 21
31.30272775
  0
LINE
  5
422
100
AcDbEntity
  8
0
100
AcDbLine
 62
7
  6
CONTINUOUS
 10
26.4877733593
 20
32.3240043134
 11
26.4044403438
 21
32.1537915677
  0
LINE
  5
423
100
AcDbEntity
  8
0
100
AcDbLine
 62
7
  6
CONTINUOUS
 10
27.0294403438
 20
-31.5057828217
 11
26.9461063747
 21
-31.3781232625
  0
LINE
  5
424
100
AcDbEntity
  8
0
100
AcDbLine
 62
7
  6
CONTINUOUS
 10
28.9877733593
 20
-32.1015275508
 11
29.0711063747
 21
-32.22918711
  0
LINE
  5
425
100
AcDbEntity
  8
0
100
AcDbLine
 62
7
  6
CONTINUOUS
 10
28.8627733593
 20
-31.5057828217
 11
28.7794403438
 21
-31.3781232625
  0
LINE
  5
426
100
AcDbEntity
  8
0
100
AcDbLine
 62
7
  6
CONTINUOUS
 10
22.1961066131
 20
-32.69727225
 11
22.1127733593
 21
-32.5270594745
  0
LINE
  5
427
100
AcDbEntity
  8
0
100
AcDbLine
 62
7
  6
CONTINUOUS
 10
22.3627733593
 20
-32.5270594745
 11
22.4461068515
 21
-32.69727225
  0
LINE
  5
428
100
AcDbEntity
  8
0
100
AcDbLine
 62
7
  6
CONTINUOUS
 10
25.9877733593
 20
-32.5696126609
 11
26.029439867
 21
-32.6547190338
  0
LINE
  5
429
100
AcDbEntity
  8
0
100
AcDbLine
 62
7
  6
CONTINUOUS
 10
19.6544399862
 20
-32.3993999153
 11
19.6127733593
 21
-32.2717402964
  0
LINE
  5
42A
100
AcDbEntity
  8
0
100
AcDbLine
 62
7
  6
CONTINUOUS
 10
19.9044399862
 20
-32.3568467289
 11
19.8627733593
 21
-32.22918711
  0
LINE
  5
42B
100
AcDbEntity
  8
0
100
AcDbLine
 62
7
  6
CONTINUOUS
 10
19.6544399862
 20
-31.5483361273
 11
19.6127733593
 21
-31.4206764489
  0
LINE
  5
42C
100
AcDbEntity
  8
0
100
AcDbLine
 62
7
  6
CONTINUOUS
 10
19.9044399862
 20
-31.5057828217
 11
19.8627733593
 21
-31.3781232625
  0
LINE
  5
42D
100
AcDbEntity
  8
0
100
AcDbLine
 62
7
  6
CONTINUOUS
 10
20.5294401054
 20
-32.6121658474
 11
20.4877733593
 21
-32.4845062881
  0
LINE
  5
42E
100
AcDbEntity
  8
0
100
AcDbLine
 62
7
  6
CONTINUOUS
 10
20.6544401054
 20
-31.7611020594
 11
20.6127733593
 21
-31.6334425002
  0
LINE
  5
42F
100
AcDbEntity
  8
0
100
AcDbLine
 62
7
  6
CONTINUOUS
 10
21.4877733593
 20
32.4942171783
 11
21.4461066131
 21
32.3665574998
  0
LINE
  5
430
100
AcDbEntity
  8
0
100
AcDbLine
 62
7
  6
CONTINUOUS
 10
21.4877733593
 20
31.8133660764
 11
21.4461066131
 21
31.6857064576
  0
LINE
  5
431
100
AcDbEntity
  8
0
100
AcDbLine
 62
7
  6
CONTINUOUS
 10
22.4461068515
 20
31.4303873391
 11
22.4877733593
 21
31.5580468983
  0
LINE
  5
432
100
AcDbEntity
  8
0
100
AcDbLine
 62
7
  6
CONTINUOUS
 10
25.0711068515
 20
32.4516638727
 11
25.154439867
 21
32.6644299239
  0
LINE
  5
433
100
AcDbEntity
  8
0
100
AcDbLine
 62
7
  6
CONTINUOUS
 10
25.029439867
 20
31.6006000847
 11
25.1127733593
 21
31.8133660764
  0
LINE
  5
434
100
AcDbEntity
  8
0
100
AcDbLine
 62
7
  6
CONTINUOUS
 10
26.5294403438
 20
31.4729405255
 11
26.4461063747
 21
31.2601745636
  0
LINE
  5
435
100
AcDbEntity
  8
RACCORDO
100
AcDbLine
 62
253
  6
CONTINUOUS
 10
-43.9935588898
 20
11.7051013353
 11
-44.4372266407
 21
11.7051015887
  0
LINE
  5
436
100
AcDbEntity
  8
RACCORDO
100
AcDbLine
 62
253
  6
CONTINUOUS
 10
44.7191056083
 20
11.7055817314
 11
45.1627733593
 21
11.705581963
  0
LINE
  5
437
100
AcDbEntity
  8
RACCORDO
100
AcDbLine
 62
253
  6
CONTINUOUS
 10
36.646333666
 20
11.7123080206
 11
37.9823048673
 21
11.7123082934
  0
LINE
  5
438
100
AcDbEntity
  8
RACCORDO
100
AcDbLine
 62
253
  6
CONTINUOUS
 10
-35.9207869474
 20
11.712308038
 11
-37.2567581488
 21
11.7123083108
  0
LINE
  5
439
100
AcDbEntity
  8
0
100
AcDbLine
 62
7
  6
CONTINUOUS
 10
27.0711063747
 20
-32.3993999153
 11
26.9877733593
 21
-32.22918711
  0
LINE
  5
43A
100
AcDbEntity
  8
0
100
AcDbLine
 62
7
  6
CONTINUOUS
 10
27.8211063747
 20
-32.5696126609
 11
27.8627733593
 21
-32.6547190338
  0
LINE
  5
43B
100
AcDbEntity
  8
0
100
AcDbLine
 62
7
  6
CONTINUOUS
 10
28.9044403438
 20
-32.3993999153
 11
28.8211063747
 21
-32.22918711
  0
LINE
  5
43C
100
AcDbEntity
  8
0
100
AcDbLine
 62
7
  6
CONTINUOUS
 10
23.529439867
 20
-32.1015275508
 11
23.6127733593
 21
-32.3142935424
  0
LINE
  5
43D
100
AcDbEntity
  8
0
100
AcDbLine
 62
7
  6
CONTINUOUS
 10
21.6127733593
 20
-31.3781232625
 11
21.6544401054
 21
-31.5057828217
  0
LINE
  5
43E
100
AcDbEntity
  8
0
100
AcDbLine
 62
7
  6
CONTINUOUS
 10
23.404439867
 20
-32.3568467289
 11
23.3627733593
 21
-32.22918711
  0
LINE
  5
43F
100
AcDbEntity
  8
0
100
AcDbLine
 62
7
  6
CONTINUOUS
 10
20.2794399862
 20
-32.6547190338
 11
20.2377733593
 21
-32.4845062881
  0
LINE
  5
440
100
AcDbEntity
  8
0
100
AcDbLine
 62
7
  6
CONTINUOUS
 10
20.4044401054
 20
-31.8462084323
 11
20.3627733593
 21
-31.6759956866
  0
LINE
  5
441
100
AcDbEntity
  8
DRAFT
100
AcDbLine
 62
7
  6
CONTINUOUS
 10
19.6599403606
 20
-25.2376977711
 11
19.6521087485
 21
-25.0876977711
  0
LINE
  5
442
100
AcDbEntity
  8
DRAFT
100
AcDbLine
 62
7
  6
CONTINUOUS
 10
19.6861442503
 20
-25.2376977711
 11
19.6783126381
 21
-25.0876977711
  0
LINE
  5
443
100
AcDbEntity
  8
DRAFT
100
AcDbLine
 62
7
  6
CONTINUOUS
 10
19.7123481399
 20
-25.2376977711
 11
19.7045165277
 21
-25.0876977711
  0
LINE
  5
444
100
AcDbEntity
  8
DRAFT
100
AcDbLine
 62
7
  6
CONTINUOUS
 10
19.7385520295
 20
-25.2376977711
 11
19.7307204174
 21
-25.0876977711
  0
LINE
  5
445
100
AcDbEntity
  8
DRAFT
100
AcDbLine
 62
7
  6
CONTINUOUS
 10
19.7647559192
 20
-25.2376977711
 11
19.756924307
 21
-25.0876977711
  0
LINE
  5
446
100
AcDbEntity
  8
DRAFT
100
AcDbLine
 62
7
  6
CONTINUOUS
 10
19.7909598088
 20
-25.2376977711
 11
19.7831281967
 21
-25.0876977711
  0
LINE
  5
447
100
AcDbEntity
  8
DRAFT
100
AcDbLine
 62
7
  6
CONTINUOUS
 10
19.8171636985
 20
-25.2376977711
 11
19.8093320863
 21
-25.0876977711
  0
LINE
  5
448
100
AcDbEntity
  8
DRAFT
100
AcDbLine
 62
7
  6
CONTINUOUS
 10
19.8433675881
 20
-25.2376977711
 11
19.835535976
 21
-25.0876977711
  0
LINE
  5
449
100
AcDbEntity
  8
0
100
AcDbLine
 62
7
  6
CONTINUOUS
 10
18.3627733593
 20
32.6644299239
 11
18.3627733593
 21
32.3240043134
  0
LINE
  5
44A
100
AcDbEntity
  8
0
100
AcDbLine
 62
7
  6
CONTINUOUS
 10
18.3627733593
 20
-33.0376977711
 11
18.3627733593
 21
-31.0376977711
  0
LINE
  5
44B
100
AcDbEntity
  8
0
100
AcDbLine
 62
7
  6
CONTINUOUS
 10
18.6127733593
 20
32.6218767375
 11
18.6127733593
 21
30.9623022289
  0
LINE
  5
44C
100
AcDbEntity
  8
0
100
AcDbLine
 62
7
  6
CONTINUOUS
 10
18.6127733593
 20
-32.7823786228
 11
18.6127733593
 21
-32.1440807372
  0
LINE
  5
44D
100
AcDbEntity
  8
0
100
AcDbLine
 62
7
  6
CONTINUOUS
 10
18.6127733593
 20
-31.8887616187
 11
18.6127733593
 21
-31.2930168896
  0
LINE
  5
44E
100
AcDbEntity
  8
0
100
AcDbLine
 62
7
  6
CONTINUOUS
 10
18.8627733593
 20
32.9623022289
 11
18.8627733593
 21
30.9623022289
  0
LINE
  5
44F
100
AcDbEntity
  8
DRAFT
100
AcDbLine
 62
7
  6
CONTINUOUS
 10
19.6521087485
 20
25.0123022289
 11
19.6599403606
 21
25.1623022289
  0
LINE
  5
450
100
AcDbEntity
  8
DRAFT
100
AcDbLine
 62
7
  6
CONTINUOUS
 10
19.6783126381
 20
25.0123022289
 11
19.6861442503
 21
25.1623022289
  0
LINE
  5
451
100
AcDbEntity
  8
DRAFT
100
AcDbLine
 62
7
  6
CONTINUOUS
 10
19.7045165277
 20
25.0123022289
 11
19.7123481399
 21
25.1623022289
  0
LINE
  5
452
100
AcDbEntity
  8
DRAFT
100
AcDbLine
 62
7
  6
CONTINUOUS
 10
19.7307204174
 20
25.0123022289
 11
19.7385520295
 21
25.1623022289
  0
LINE
  5
453
100
AcDbEntity
  8
DRAFT
100
AcDbLine
 62
7
  6
CONTINUOUS
 10
19.756924307
 20
25.0123022289
 11
19.7647559192
 21
25.1623022289
  0
LINE
  5
454
100
AcDbEntity
  8
DRAFT
100
AcDbLine
 62
7
  6
CONTINUOUS
 10
19.7831281967
 20
25.0123022289
 11
19.7909598088
 21
25.1623022289
  0
LINE
  5
455
100
AcDbEntity
  8
DRAFT
100
AcDbLine
 62
7
  6
CONTINUOUS
 10
19.8093320863
 20
25.0123022289
 11
19.8171636985
 21
25.1623022289
  0
LINE
  5
456
100
AcDbEntity
  8
DRAFT
100
AcDbLine
 62
7
  6
CONTINUOUS
 10
19.835535976
 20
25.0123022289
 11
19.8433675881
 21
25.1623022289
  0
LINE
  5
457
100
AcDbEntity
  8
0
100
AcDbLine
 62
7
  6
CONTINUOUS
 10
21.1961066131
 20
32.1112383813
 11
21.2377733593
 21
32.4091106862
  0
LINE
  5
458
100
AcDbEntity
  8
0
100
AcDbLine
 62
7
  6
CONTINUOUS
 10
21.4461066131
 20
32.3665574998
 11
21.4044401054
 21
32.1112383813
  0
LINE
  5
459
100
AcDbEntity
  8
RACCORDO
100
AcDbLine
 62
7
  6
CONTINUOUS
 10
22.4815910349
 20
26.2820898847
 11
22.5466293281
 21
26.6249815883
  0
LINE
  5
45A
100
AcDbEntity
  8
RACCORDO
100
AcDbLine
 62
253
  6
CONTINUOUS
 10
22.5771371227
 20
26.7388382278
 11
22.5466293281
 21
26.6249815883
  0
LINE
  5
45B
100
AcDbEntity
  8
RACCORDO
100
AcDbLine
 62
253
  6
CONTINUOUS
 10
22.6540133177
 20
26.7182393134
 11
22.5227683772
 21
26.2284265273
  0
LINE
  5
45C
100
AcDbEntity
  8
RACCORDO
100
AcDbLine
 62
253
  6
CONTINUOUS
 10
22.8627733593
 20
26.3384079419
 11
22.7529314133
 21
25.9284722188
  0
LINE
  5
45D
100
AcDbEntity
  8
RACCORDO
100
AcDbLine
 62
253
  6
CONTINUOUS
 10
-25.2976196815
 20
-26.0580814149
 11
-25.1348464568
 21
-26.0038677611
  0
LINE
  5
45E
100
AcDbEntity
  8
RACCORDO
100
AcDbLine
 62
253
  6
CONTINUOUS
 10
-24.9963785889
 20
-26.3574854269
 11
-24.8352575964
 21
-26.3038220696
  0
LINE
  5
45F
100
AcDbEntity
  8
0
100
AcDbLine
 62
7
  6
CONTINUOUS
 10
-44.3372266407
 20
14.9623022289
 11
-44.4372266407
 21
14.9623022289
  0
LINE
  5
460
100
AcDbEntity
  8
0
100
AcDbLine
 62
7
  6
CONTINUOUS
 10
45.0627733593
 20
14.9623022289
 11
45.1627733593
 21
14.9623022289
  0
LINE
  5
461
100
AcDbEntity
  8
RACCORDO
100
AcDbLine
 62
253
  6
CONTINUOUS
 10
-25.1348464568
 20
25.9284722188
 11
-25.2976196815
 21
25.9826858727
  0
LINE
  5
462
100
AcDbEntity
  8
RACCORDO
100
AcDbLine
 62
253
  6
CONTINUOUS
 10
-24.8352575964
 20
26.2284265273
 11
-24.9963785889
 21
26.2820898847
  0
LINE
  5
463
100
AcDbEntity
  8
0
100
AcDbLine
 62
7
  6
CONTINUOUS
 10
25.8211068515
 20
-32.69727225
 11
25.779439867
 21
-32.5696126609
  0
LINE
  5
464
100
AcDbEntity
  8
0
100
AcDbLine
 62
7
  6
CONTINUOUS
 10
27.6544403438
 20
-32.69727225
 11
27.6127733593
 21
-32.5696126609
  0
LINE
  5
465
100
AcDbEntity
  8
RACCORDO
100
AcDbLine
 62
253
  6
CONTINUOUS
 10
22.5466293281
 20
-26.7003771305
 11
22.5771371227
 21
-26.8142337701
  0
LINE
  5
466
100
AcDbEntity
  8
RACCORDO
100
AcDbLine
 62
253
  6
CONTINUOUS
 10
22.5227683772
 20
-26.3038220696
 11
22.6540133173
 21
-26.7936348543
  0
LINE
  5
467
100
AcDbEntity
  8
RACCORDO
100
AcDbLine
 62
253
  6
CONTINUOUS
 10
22.7529314133
 20
-26.0038677611
 11
22.8627733593
 21
-26.4138034842
  0
LINE
  5
468
100
AcDbEntity
  8
0
100
AcDbLine
 62
7
  6
CONTINUOUS
 10
27.2377733593
 20
-32.22918711
 11
27.2794403438
 21
-32.3993999153
  0
LINE
  5
469
100
AcDbEntity
  8
RACCORDO
100
AcDbLine
 62
7
  6
CONTINUOUS
 10
22.5466293281
 20
-26.7003771305
 11
22.4815910349
 21
-26.3574854269
  0
LINE
  5
46A
100
AcDbEntity
  8
DRAFT
100
AcDbLine
 62
7
  6
CONTINUOUS
 10
19.6599403606
 20
25.1623022289
 11
19.6677719728
 21
25.0123022289
  0
LINE
  5
46B
100
AcDbEntity
  8
DRAFT
100
AcDbLine
 62
7
  6
CONTINUOUS
 10
19.6861442503
 20
25.1623022289
 11
19.6939758624
 21
25.0123022289
  0
LINE
  5
46C
100
AcDbEntity
  8
DRAFT
100
AcDbLine
 62
7
  6
CONTINUOUS
 10
19.7123481399
 20
25.1623022289
 11
19.7201797521
 21
25.0123022289
  0
LINE
  5
46D
100
AcDbEntity
  8
DRAFT
100
AcDbLine
 62
7
  6
CONTINUOUS
 10
19.7385520295
 20
25.1623022289
 11
19.7463836417
 21
25.0123022289
  0
LINE
  5
46E
100
AcDbEntity
  8
DRAFT
100
AcDbLine
 62
7
  6
CONTINUOUS
 10
19.7647559192
 20
25.1623022289
 11
19.7725875313
 21
25.0123022289
  0
LINE
  5
46F
100
AcDbEntity
  8
DRAFT
100
AcDbLine
 62
7
  6
CONTINUOUS
 10
19.7909598088
 20
25.1623022289
 11
19.798791421
 21
25.0123022289
  0
LINE
  5
470
100
AcDbEntity
  8
DRAFT
100
AcDbLine
 62
7
  6
CONTINUOUS
 10
19.8171636985
 20
25.1623022289
 11
19.8249953106
 21
25.0123022289
  0
LINE
  5
471
100
AcDbEntity
  8
DRAFT
100
AcDbLine
 62
7
  6
CONTINUOUS
 10
19.8433675881
 20
25.1623022289
 11
19.8511992003
 21
25.0123022289
  0
LINE
  5
472
100
AcDbEntity
  8
0
100
AcDbLine
 62
7
  6
CONTINUOUS
 10
19.1961066727
 20
31.8133660764
 11
19.1961066727
 21
31.5580468983
  0
LINE
  5
473
100
AcDbEntity
  8
RACCORDO
100
AcDbLine
 62
253
  6
CONTINUOUS
 10
19.3755322176
 20
26.3227285437
 11
19.3755322176
 21
24.7623022289
  0
LINE
  5
474
100
AcDbEntity
  8
RACCORDO
100
AcDbLine
 62
253
  6
CONTINUOUS
 10
19.3755322176
 20
-24.8376977711
 11
19.3755322176
 21
-26.398124086
  0
LINE
  5
475
100
AcDbEntity
  8
RACCORDO
100
AcDbLine
 62
253
  6
CONTINUOUS
 10
19.6251896013
 20
26.322725914
 11
19.6251896013
 21
25.0119596126
  0
LINE
  5
476
100
AcDbEntity
  8
RACCORDO
100
AcDbLine
 62
253
  6
CONTINUOUS
 10
19.6251896013
 20
-25.0873551548
 11
19.6251896013
 21
-26.3981214877
  0
LINE
  5
477
100
AcDbEntity
  8
0
100
AcDbLine
 62
7
  6
CONTINUOUS
 10
19.6544399862
 20
-32.5270594745
 11
19.6544399862
 21
-32.3993999153
  0
LINE
  5
478
100
AcDbEntity
  8
0
100
AcDbLine
 62
7
  6
CONTINUOUS
 10
19.6544399862
 20
-31.6334425002
 11
19.6544399862
 21
-31.5483361273
  0
LINE
  5
479
100
AcDbEntity
  8
RACCORDO
100
AcDbLine
 62
253
  6
CONTINUOUS
 10
19.8651535432
 20
25.9284722188
 11
19.8651535432
 21
25.0127133684
  0
LINE
  5
47A
100
AcDbEntity
  8
RACCORDO
100
AcDbLine
 62
253
  6
CONTINUOUS
 10
19.8651535432
 20
-25.0881089107
 11
19.8651535432
 21
-26.0038677611
  0
LINE
  5
47B
100
AcDbEntity
  8
0
100
AcDbLine
 62
7
  6
CONTINUOUS
 10
19.9044399862
 20
-32.5696126609
 11
19.9044399862
 21
-32.3568467289
  0
LINE
  5
47C
100
AcDbEntity
  8
0
100
AcDbLine
 62
7
  6
CONTINUOUS
 10
19.9044399862
 20
-31.6759956866
 11
19.9044399862
 21
-31.5057828217
  0
LINE
  5
47D
100
AcDbEntity
  8
RACCORDO
100
AcDbLine
 62
253
  6
CONTINUOUS
 10
19.919802956
 20
26.8805503138
 11
19.919802956
 21
26.6369577976
  0
LINE
  5
47E
100
AcDbEntity
  8
RACCORDO
100
AcDbLine
 62
253
  6
CONTINUOUS
 10
19.919802956
 20
-26.9559458561
 11
19.919802956
 21
-26.7123533399
  0
LINE
  5
47F
100
AcDbEntity
  8
RACCORDO
100
AcDbLine
 62
253
  6
CONTINUOUS
 10
20.1647424036
 20
-25.3876977711
 11
20.1647424036
 21
-26.3038220696
  0
LINE
  5
480
100
AcDbEntity
  8
RACCORDO
100
AcDbLine
 62
253
  6
CONTINUOUS
 10
20.1647424036
 20
25.3123022289
 11
20.1647424036
 21
26.2284265273
  0
LINE
  5
481
100
AcDbEntity
  8
0
100
AcDbLine
 62
7
  6
CONTINUOUS
 10
20.1961067323
 20
32.6218767375
 11
20.1961067323
 21
31.8133660764
  0
LINE
  5
482
100
AcDbEntity
  8
0
100
AcDbLine
 62
7
  6
CONTINUOUS
 10
20.1961067323
 20
31.5580468983
 11
20.1961067323
 21
30.9623022289
  0
LINE
  5
483
100
AcDbEntity
  8
0
100
AcDbLine
 62
7
  6
CONTINUOUS
 10
20.3627733593
 20
-31.6759956866
 11
20.3627733593
 21
-31.5057828217
  0
LINE
  5
484
100
AcDbEntity
  8
0
100
AcDbLine
 62
7
  6
CONTINUOUS
 10
20.4461066131
 20
32.9623022289
 11
20.4461066131
 21
31.8133660764
  0
LINE
  5
485
100
AcDbEntity
  8
0
100
AcDbLine
 62
7
  6
CONTINUOUS
 10
20.4461066131
 20
31.5580468983
 11
20.4461066131
 21
30.9623022289
  0
LINE
  5
486
100
AcDbEntity
  8
0
100
AcDbLine
 62
7
  6
CONTINUOUS
 10
20.6127733593
 20
-31.6334425002
 11
20.6127733593
 21
-31.5483361273
  0
LINE
  5
487
100
AcDbEntity
  8
0
100
AcDbLine
 62
253
  6
CONTINUOUS
 10
20.8627423834
 20
28.6152796389
 11
20.8627746409
 21
31.5580468983
  0
LINE
  5
488
100
AcDbEntity
  8
RACCORDO
100
AcDbLine
 62
253
  6
CONTINUOUS
 10
20.8626977376
 20
44.2140349749
 11
20.8626977875
 21
44.6623022289
  0
LINE
  5
489
100
AcDbEntity
  8
RACCORDO
100
AcDbLine
 62
253
  6
CONTINUOUS
 10
20.8626974415
 20
-44.2894305172
 11
20.8626974389
 21
-44.7376977711
  0
LINE
  5
48A
100
AcDbEntity
  8
RACCORDO
100
AcDbLine
 62
253
  6
CONTINUOUS
 10
20.8627428343
 20
-28.0775136066
 11
20.8627425571
 21
-28.6906751812
  0
LINE
  5
48B
100
AcDbEntity
  8
RACCORDO
100
AcDbLine
 62
253
  6
CONTINUOUS
 10
20.8627431825
 20
28.0021180643
 11
20.8627429065
 21
28.6152796389
  0
LINE
  5
48C
100
AcDbEntity
  8
0
100
AcDbLine
 62
7
  6
CONTINUOUS
 10
20.8627733593
 20
31.8133660764
 11
20.8627733593
 21
31.5580468983
  0
LINE
  5
48D
100
AcDbEntity
  8
0
100
AcDbLine
 62
253
  6
CONTINUOUS
 10
20.8627754512
 20
31.8133660764
 11
20.8626980243
 21
44.2140349749
  0
LINE
  5
48E
100
AcDbEntity
  8
0
100
AcDbLine
 62
253
  6
CONTINUOUS
 10
20.8626977206
 20
-44.2894305172
 11
20.8627420331
 21
-28.6906751812
  0
LINE
  5
48F
100
AcDbEntity
  8
0
100
AcDbLine
 62
7
  6
CONTINUOUS
 10
21.1961066131
 20
31.8133660764
 11
21.1961066131
 21
32.1112383813
  0
LINE
  5
490
100
AcDbEntity
  8
0
100
AcDbLine
 62
7
  6
CONTINUOUS
 10
21.4044401054
 20
32.1112383813
 11
21.4044401054
 21
32.0261320085
  0
LINE
  5
491
100
AcDbEntity
  8
0
100
AcDbLine
 62
7
  6
CONTINUOUS
 10
21.4461066131
 20
31.6857064576
 11
21.4461066131
 21
31.5580468983
  0
LINE
  5
492
100
AcDbEntity
  8
0
100
AcDbLine
 62
7
  6
CONTINUOUS
 10
21.5294401054
 20
-32.5270594745
 11
21.5294401054
 21
-32.3993999153
  0
LINE
  5
493
100
AcDbEntity
  8
0
100
AcDbLine
 62
7
  6
CONTINUOUS
 10
21.7794401054
 20
-32.3568467289
 11
21.7794401054
 21
-32.5696126609
  0
LINE
  5
494
100
AcDbEntity
  8
0
100
AcDbLine
 62
7
  6
CONTINUOUS
 10
22.1127733593
 20
-32.1440807372
 11
22.1127733593
 21
-31.0376977711
  0
LINE
  5
495
100
AcDbEntity
  8
0
100
AcDbLine
 62
7
  6
CONTINUOUS
 10
22.3211066131
 20
-31.2504637032
 11
22.3211066131
 21
-31.9313148051
  0
LINE
  5
496
100
AcDbEntity
  8
0
100
AcDbLine
 62
7
  6
CONTINUOUS
 10
22.4877733593
 20
31.5580468983
 11
22.4877733593
 21
31.6857064576
  0
LINE
  5
497
100
AcDbEntity
  8
0
100
AcDbLine
 62
7
  6
CONTINUOUS
 10
22.6961068515
 20
31.7282597036
 11
22.6961068515
 21
31.5154937119
  0
LINE
  5
498
100
AcDbEntity
  8
0
100
AcDbLine
 62
7
  6
CONTINUOUS
 10
23.029439867
 20
31.5580468983
 11
23.029439867
 21
31.8133660764
  0
LINE
  5
499
100
AcDbEntity
  8
DRAFT
100
AcDbLine
 62
7
  6
CONTINUOUS
 10
19.6677719728
 20
-25.0876977711
 11
19.6599403606
 21
-25.2376977711
  0
LINE
  5
49A
100
AcDbEntity
  8
DRAFT
100
AcDbLine
 62
7
  6
CONTINUOUS
 10
19.6939758624
 20
-25.0876977711
 11
19.6861442503
 21
-25.2376977711
  0
LINE
  5
49B
100
AcDbEntity
  8
DRAFT
100
AcDbLine
 62
7
  6
CONTINUOUS
 10
19.7201797521
 20
-25.0876977711
 11
19.7123481399
 21
-25.2376977711
  0
LINE
  5
49C
100
AcDbEntity
  8
DRAFT
100
AcDbLine
 62
7
  6
CONTINUOUS
 10
19.7463836417
 20
-25.0876977711
 11
19.7385520295
 21
-25.2376977711
  0
LINE
  5
49D
100
AcDbEntity
  8
DRAFT
100
AcDbLine
 62
7
  6
CONTINUOUS
 10
19.7725875313
 20
-25.0876977711
 11
19.7647559192
 21
-25.2376977711
  0
LINE
  5
49E
100
AcDbEntity
  8
DRAFT
100
AcDbLine
 62
7
  6
CONTINUOUS
 10
19.798791421
 20
-25.0876977711
 11
19.7909598088
 21
-25.2376977711
  0
LINE
  5
49F
100
AcDbEntity
  8
DRAFT
100
AcDbLine
 62
7
  6
CONTINUOUS
 10
19.8249953106
 20
-25.0876977711
 11
19.8171636985
 21
-25.2376977711
  0
LINE
  5
4A0
100
AcDbEntity
  8
DRAFT
100
AcDbLine
 62
7
  6
CONTINUOUS
 10
19.8511992003
 20
-25.0876977711
 11
19.8433675881
 21
-25.2376977711
  0
LINE
  5
4A1
100
AcDbEntity
  8
RACCORDO
100
AcDbLine
 62
253
  6
CONTINUOUS
 10
25.7251876705
 20
26.2820898847
 11
25.8057460867
 21
26.6369577976
  0
LINE
  5
4A2
100
AcDbEntity
  8
RACCORDO
100
AcDbLine
 62
253
  6
CONTINUOUS
 10
26.0231664001
 20
25.9826858727
 11
26.1003571173
 21
26.3227259455
  0
LINE
  5
4A3
100
AcDbEntity
  8
RACCORDO
100
AcDbLine
 62
253
  6
CONTINUOUS
 10
23.2894835314
 20
26.7766388753
 11
23.0715334012
 21
26.718239312
  0
LINE
  5
4A4
100
AcDbEntity
  8
0
100
AcDbLine
 62
7
  6
CONTINUOUS
 10
33.9127733593
 20
22.5123022289
 11
-33.1872266407
 21
22.5123022289
  0
LINE
  5
4A5
100
AcDbEntity
  8
0
100
AcDbLine
 62
7
  6
CONTINUOUS
 10
33.9127733593
 20
22.6123022289
 11
-33.1872266407
 21
22.6123022289
  0
LINE
  5
4A6
100
AcDbEntity
  8
RACCORDO
100
AcDbLine
 62
253
  6
CONTINUOUS
 10
-22.3459866823
 20
26.7182393134
 11
-22.5639368125
 21
26.7766388748
  0
LINE
  5
4A7
100
AcDbEntity
  8
0
100
AcDbLine
 62
7
  6
CONTINUOUS
 10
27.1961063747
 20
-31.3355700761
 11
27.2377733593
 21
-31.5057828217
  0
LINE
  5
4A8
100
AcDbEntity
  8
0
100
AcDbLine
 62
7
  6
CONTINUOUS
 10
29.0711063747
 20
-32.22918711
 11
29.1127733593
 21
-32.3993999153
  0
LINE
  5
4A9
100
AcDbEntity
  8
0
100
AcDbLine
 62
7
  6
CONTINUOUS
 10
29.0294403438
 20
-31.3355700761
 11
29.0711063747
 21
-31.5057828217
  0
LINE
  5
4AA
100
AcDbEntity
  8
RACCORDO
100
AcDbLine
 62
253
  6
CONTINUOUS
 10
25.8057453368
 20
-26.7123533399
 11
25.7251876705
 21
-26.3574854269
  0
LINE
  5
4AB
100
AcDbEntity
  8
RACCORDO
100
AcDbLine
 62
253
  6
CONTINUOUS
 10
26.1003571173
 20
-26.3981214563
 11
26.0231664001
 21
-26.0580814149
  0
LINE
  5
4AC
100
AcDbEntity
  8
DRAFT
100
AcDbLine
 62
7
  6
CONTINUOUS
 10
25.8743475183
 20
-25.0876977711
 11
25.8821791304
 21
-25.2376977711
  0
LINE
  5
4AD
100
AcDbEntity
  8
DRAFT
100
AcDbLine
 62
7
  6
CONTINUOUS
 10
25.9005514079
 20
-25.0876977711
 11
25.9083830201
 21
-25.2376977711
  0
LINE
  5
4AE
100
AcDbEntity
  8
DRAFT
100
AcDbLine
 62
7
  6
CONTINUOUS
 10
25.9267552975
 20
-25.0876977711
 11
25.9345869097
 21
-25.2376977711
  0
LINE
  5
4AF
100
AcDbEntity
  8
DRAFT
100
AcDbLine
 62
7
  6
CONTINUOUS
 10
25.9529591872
 20
-25.0876977711
 11
25.9607907993
 21
-25.2376977711
  0
LINE
  5
4B0
100
AcDbEntity
  8
DRAFT
100
AcDbLine
 62
7
  6
CONTINUOUS
 10
25.9791630768
 20
-25.0876977711
 11
25.986994689
 21
-25.2376977711
  0
LINE
  5
4B1
100
AcDbEntity
  8
DRAFT
100
AcDbLine
 62
7
  6
CONTINUOUS
 10
26.0053669665
 20
-25.0876977711
 11
26.0131985786
 21
-25.2376977711
  0
LINE
  5
4B2
100
AcDbEntity
  8
DRAFT
100
AcDbLine
 62
7
  6
CONTINUOUS
 10
26.0315708561
 20
-25.0876977711
 11
26.0394024683
 21
-25.2376977711
  0
LINE
  5
4B3
100
AcDbEntity
  8
DRAFT
100
AcDbLine
 62
7
  6
CONTINUOUS
 10
26.0577747458
 20
-25.0876977711
 11
26.0656063579
 21
-25.2376977711
  0
LINE
  5
4B4
100
AcDbEntity
  8
DRAFT
100
AcDbLine
 62
7
  6
CONTINUOUS
 10
25.8900107426
 20
25.0123022289
 11
25.8821791304
 21
25.1623022289
  0
LINE
  5
4B5
100
AcDbEntity
  8
DRAFT
100
AcDbLine
 62
7
  6
CONTINUOUS
 10
25.9162146322
 20
25.0123022289
 11
25.9083830201
 21
25.1623022289
  0
LINE
  5
4B6
100
AcDbEntity
  8
DRAFT
100
AcDbLine
 62
7
  6
CONTINUOUS
 10
25.9424185219
 20
25.0123022289
 11
25.9345869097
 21
25.1623022289
  0
LINE
  5
4B7
100
AcDbEntity
  8
DRAFT
100
AcDbLine
 62
7
  6
CONTINUOUS
 10
25.9686224115
 20
25.0123022289
 11
25.9607907993
 21
25.1623022289
  0
LINE
  5
4B8
100
AcDbEntity
  8
DRAFT
100
AcDbLine
 62
7
  6
CONTINUOUS
 10
25.9948263011
 20
25.0123022289
 11
25.986994689
 21
25.1623022289
  0
LINE
  5
4B9
100
AcDbEntity
  8
DRAFT
100
AcDbLine
 62
7
  6
CONTINUOUS
 10
26.0210301908
 20
25.0123022289
 11
26.0131985786
 21
25.1623022289
  0
LINE
  5
4BA
100
AcDbEntity
  8
DRAFT
100
AcDbLine
 62
7
  6
CONTINUOUS
 10
26.0472340804
 20
25.0123022289
 11
26.0394024683
 21
25.1623022289
  0
LINE
  5
4BB
100
AcDbEntity
  8
DRAFT
100
AcDbLine
 62
7
  6
CONTINUOUS
 10
26.0734379701
 20
25.0123022289
 11
26.0656063579
 21
25.1623022289
  0
LINE
  5
4BC
100
AcDbEntity
  8
0
100
AcDbLine
 62
7
  6
CONTINUOUS
 10
23.404439867
 20
-32.4419531017
 11
23.404439867
 21
-32.3568467289
  0
LINE
  5
4BD
100
AcDbEntity
  8
0
100
AcDbLine
 62
7
  6
CONTINUOUS
 10
23.529439867
 20
-31.0376977711
 11
23.529439867
 21
-31.2504637032
  0
LINE
  5
4BE
100
AcDbEntity
  8
0
100
AcDbLine
 62
7
  6
CONTINUOUS
 10
23.6127733593
 20
-32.3142935424
 11
23.6127733593
 21
-32.4845062881
  0
LINE
  5
4BF
100
AcDbEntity
  8
0
100
AcDbLine
 62
7
  6
CONTINUOUS
 10
23.9461068515
 20
-31.2504637032
 11
23.9461068515
 21
-31.0376977711
  0
LINE
  5
4C0
100
AcDbEntity
  8
0
100
AcDbLine
 62
7
  6
CONTINUOUS
 10
24.029439867
 20
30.9623022289
 11
24.029439867
 21
31.5580468983
  0
LINE
  5
4C1
100
AcDbEntity
  8
0
100
AcDbLine
 62
7
  6
CONTINUOUS
 10
24.029439867
 20
31.8133660764
 11
24.029439867
 21
32.6218767375
  0
LINE
  5
4C2
100
AcDbEntity
  8
0
100
AcDbLine
 62
7
  6
CONTINUOUS
 10
24.279439867
 20
32.9623022289
 11
24.279439867
 21
31.8133660764
  0
LINE
  5
4C3
100
AcDbEntity
  8
0
100
AcDbLine
 62
7
  6
CONTINUOUS
 10
24.279439867
 20
31.5580468983
 11
24.279439867
 21
30.9623022289
  0
LINE
  5
4C4
100
AcDbEntity
  8
0
100
AcDbLine
 62
7
  6
CONTINUOUS
 10
24.6961068515
 20
31.8133660764
 11
24.6961068515
 21
31.5580468983
  0
LINE
  5
4C5
100
AcDbEntity
  8
0
100
AcDbLine
 62
7
  6
CONTINUOUS
 10
25.029439867
 20
31.4729405255
 11
25.029439867
 21
31.6006000847
  0
LINE
  5
4C6
100
AcDbEntity
  8
0
100
AcDbLine
 62
7
  6
CONTINUOUS
 10
25.0711068515
 20
32.3240043134
 11
25.0711068515
 21
32.4516638727
  0
LINE
  5
4C7
100
AcDbEntity
  8
0
100
AcDbLine
 62
7
  6
CONTINUOUS
 10
25.2377733593
 20
31.6006000847
 11
25.2377733593
 21
31.4729405255
  0
LINE
  5
4C8
100
AcDbEntity
  8
0
100
AcDbLine
 62
7
  6
CONTINUOUS
 10
25.279439867
 20
32.4516638727
 11
25.279439867
 21
32.3665574998
  0
LINE
  5
4C9
100
AcDbEntity
  8
0
100
AcDbLine
 62
7
  6
CONTINUOUS
 10
25.4461068515
 20
-31.0376977711
 11
25.4461068515
 21
-31.2504637032
  0
LINE
  5
4CA
100
AcDbEntity
  8
RACCORDO
100
AcDbLine
 62
253
  6
CONTINUOUS
 10
25.5608043149
 20
-25.3876977711
 11
25.5608043149
 21
-26.3038220696
  0
LINE
  5
4CB
100
AcDbEntity
  8
RACCORDO
100
AcDbLine
 62
253
  6
CONTINUOUS
 10
25.5608043149
 20
25.3123022289
 11
25.5608043149
 21
26.2284265273
  0
LINE
  5
4CC
100
AcDbEntity
  8
RACCORDO
100
AcDbLine
 62
253
  6
CONTINUOUS
 10
25.8057437625
 20
26.8805503138
 11
25.8057437625
 21
26.6369577976
  0
LINE
  5
4CD
100
AcDbEntity
  8
RACCORDO
100
AcDbLine
 62
253
  6
CONTINUOUS
 10
25.8057437625
 20
-26.9559458561
 11
25.8057437625
 21
-26.7123533399
  0
LINE
  5
4CE
100
AcDbEntity
  8
RACCORDO
100
AcDbLine
 62
253
  6
CONTINUOUS
 10
25.8603931753
 20
-26.0038677611
 11
25.8603931753
 21
-25.0881089107
  0
LINE
  5
4CF
100
AcDbEntity
  8
RACCORDO
100
AcDbLine
 62
253
  6
CONTINUOUS
 10
25.8603931753
 20
25.0127133684
 11
25.8603931753
 21
25.9284722188
  0
LINE
  5
4D0
100
AcDbEntity
  8
RACCORDO
100
AcDbLine
 62
253
  6
CONTINUOUS
 10
26.1003571173
 20
-26.3981214563
 11
26.1003571173
 21
-25.0873551548
  0
LINE
  5
4D1
100
AcDbEntity
  8
RACCORDO
100
AcDbLine
 62
253
  6
CONTINUOUS
 10
26.1003571173
 20
25.0119596126
 11
26.1003571173
 21
26.3227259455
  0
LINE
  5
4D2
100
AcDbEntity
  8
0
100
AcDbLine
 62
7
  6
CONTINUOUS
 10
26.279439867
 20
32.3665574998
 11
26.279439867
 21
32.4516638727
  0
LINE
  5
4D3
100
AcDbEntity
  8
0
100
AcDbLine
 62
7
  6
CONTINUOUS
 10
26.3211068515
 20
31.4729405255
 11
26.3211068515
 21
31.6006000847
  0
LINE
  5
4D4
100
AcDbEntity
  8
RACCORDO
100
AcDbLine
 62
253
  6
CONTINUOUS
 10
26.3500145009
 20
-26.398124086
 11
26.3500145009
 21
-24.8376977711
  0
LINE
  5
4D5
100
AcDbEntity
  8
RACCORDO
100
AcDbLine
 62
253
  6
CONTINUOUS
 10
26.3500145009
 20
24.7623022289
 11
26.3500145009
 21
26.3227285437
  0
LINE
  5
4D6
100
AcDbEntity
  8
0
100
AcDbLine
 62
7
  6
CONTINUOUS
 10
26.4461063747
 20
-32.1015275508
 11
26.4461063747
 21
-31.9313148051
  0
LINE
  5
4D7
100
AcDbEntity
  8
0
100
AcDbLine
 62
7
  6
CONTINUOUS
 10
26.4877733593
 20
32.4516638727
 11
26.4877733593
 21
32.3240043134
  0
LINE
  5
4D8
100
AcDbEntity
  8
0
100
AcDbLine
 62
7
  6
CONTINUOUS
 10
26.5294403438
 20
31.6006000847
 11
26.5294403438
 21
31.4729405255
  0
LINE
  5
4D9
100
AcDbEntity
  8
0
100
AcDbLine
 62
7
  6
CONTINUOUS
 10
27.0294403438
 20
-31.5908893138
 11
27.0294403438
 21
-31.5057828217
  0
LINE
  5
4DA
100
AcDbEntity
  8
0
100
AcDbLine
 62
7
  6
CONTINUOUS
 10
27.0711063747
 20
-32.5696126609
 11
27.0711063747
 21
-32.3993999153
  0
LINE
  5
4DB
100
AcDbEntity
  8
0
100
AcDbLine
 62
7
  6
CONTINUOUS
 10
27.2377733593
 20
-31.5057828217
 11
27.2377733593
 21
-31.5908893138
  0
LINE
  5
4DC
100
AcDbEntity
  8
0
100
AcDbLine
 62
7
  6
CONTINUOUS
 10
27.2794403438
 20
-32.3993999153
 11
27.2794403438
 21
-32.5696126609
  0
LINE
  5
4DD
100
AcDbEntity
  8
DRAFT
100
AcDbLine
 62
7
  6
CONTINUOUS
 10
25.8821791304
 20
25.1623022289
 11
25.8743475183
 21
25.0123022289
  0
LINE
  5
4DE
100
AcDbEntity
  8
DRAFT
100
AcDbLine
 62
7
  6
CONTINUOUS
 10
25.9083830201
 20
25.1623022289
 11
25.9005514079
 21
25.0123022289
  0
LINE
  5
4DF
100
AcDbEntity
  8
DRAFT
100
AcDbLine
 62
7
  6
CONTINUOUS
 10
25.9345869097
 20
25.1623022289
 11
25.9267552975
 21
25.0123022289
  0
LINE
  5
4E0
100
AcDbEntity
  8
DRAFT
100
AcDbLine
 62
7
  6
CONTINUOUS
 10
25.9607907993
 20
25.1623022289
 11
25.9529591872
 21
25.0123022289
  0
LINE
  5
4E1
100
AcDbEntity
  8
DRAFT
100
AcDbLine
 62
7
  6
CONTINUOUS
 10
25.986994689
 20
25.1623022289
 11
25.9791630768
 21
25.0123022289
  0
LINE
  5
4E2
100
AcDbEntity
  8
DRAFT
100
AcDbLine
 62
7
  6
CONTINUOUS
 10
26.0131985786
 20
25.1623022289
 11
26.0053669665
 21
25.0123022289
  0
LINE
  5
4E3
100
AcDbEntity
  8
DRAFT
100
AcDbLine
 62
7
  6
CONTINUOUS
 10
26.0394024683
 20
25.1623022289
 11
26.0315708561
 21
25.0123022289
  0
LINE
  5
4E4
100
AcDbEntity
  8
DRAFT
100
AcDbLine
 62
7
  6
CONTINUOUS
 10
26.0656063579
 20
25.1623022289
 11
26.0577747458
 21
25.0123022289
  0
LINE
  5
4E5
100
AcDbEntity
  8
DRAFT
100
AcDbLine
 62
7
  6
CONTINUOUS
 10
25.8821791304
 20
-25.2376977711
 11
25.8900107426
 21
-25.0876977711
  0
LINE
  5
4E6
100
AcDbEntity
  8
DRAFT
100
AcDbLine
 62
7
  6
CONTINUOUS
 10
25.9083830201
 20
-25.2376977711
 11
25.9162146322
 21
-25.0876977711
  0
LINE
  5
4E7
100
AcDbEntity
  8
DRAFT
100
AcDbLine
 62
7
  6
CONTINUOUS
 10
25.9345869097
 20
-25.2376977711
 11
25.9424185219
 21
-25.0876977711
  0
LINE
  5
4E8
100
AcDbEntity
  8
DRAFT
100
AcDbLine
 62
7
  6
CONTINUOUS
 10
25.9607907993
 20
-25.2376977711
 11
25.9686224115
 21
-25.0876977711
  0
LINE
  5
4E9
100
AcDbEntity
  8
DRAFT
100
AcDbLine
 62
7
  6
CONTINUOUS
 10
25.986994689
 20
-25.2376977711
 11
25.9948263011
 21
-25.0876977711
  0
LINE
  5
4EA
100
AcDbEntity
  8
DRAFT
100
AcDbLine
 62
7
  6
CONTINUOUS
 10
26.0131985786
 20
-25.2376977711
 11
26.0210301908
 21
-25.0876977711
  0
LINE
  5
4EB
100
AcDbEntity
  8
DRAFT
100
AcDbLine
 62
7
  6
CONTINUOUS
 10
26.0394024683
 20
-25.2376977711
 11
26.0472340804
 21
-25.0876977711
  0
LINE
  5
4EC
100
AcDbEntity
  8
DRAFT
100
AcDbLine
 62
7
  6
CONTINUOUS
 10
26.0656063579
 20
-25.2376977711
 11
26.0734379701
 21
-25.0876977711
  0
LINE
  5
4ED
100
AcDbEntity
  8
RACCORDO
100
AcDbLine
 62
7
  6
CONTINUOUS
 10
23.1789173905
 20
-26.7003771305
 11
23.2439556837
 21
-26.3574854269
  0
LINE
  5
4EE
100
AcDbEntity
  8
RACCORDO
100
AcDbLine
 62
253
  6
CONTINUOUS
 10
19.7023803185
 20
-26.0580814149
 11
19.6251896013
 21
-26.3981214877
  0
LINE
  5
4EF
100
AcDbEntity
  8
RACCORDO
100
AcDbLine
 62
253
  6
CONTINUOUS
 10
20.0003590481
 20
-26.3574854269
 11
19.9198006319
 21
-26.7123533399
  0
LINE
  5
4F0
100
AcDbEntity
  8
0
100
AcDbLine
 62
7
  6
CONTINUOUS
 10
20.3627733593
 20
-31.5057828217
 11
20.4044401054
 21
-31.3355700761
  0
LINE
  5
4F1
100
AcDbEntity
  8
0
100
AcDbLine
 62
7
  6
CONTINUOUS
 10
25.8627733593
 20
31.1750681907
 11
26.029439867
 21
31.2176213772
  0
LINE
  5
4F2
100
AcDbEntity
  8
0
100
AcDbLine
 62
7
  6
CONTINUOUS
 10
25.6961068515
 20
31.8984724492
 11
25.529439867
 21
31.8559192628
  0
LINE
  5
4F3
100
AcDbEntity
  8
0
100
AcDbLine
 62
7
  6
CONTINUOUS
 10
25.8627733593
 20
32.0686851949
 11
26.029439867
 21
32.1112383813
  0
LINE
  5
4F4
100
AcDbEntity
  8
0
100
AcDbLine
 62
7
  6
CONTINUOUS
 10
25.6961068515
 20
32.7495362968
 11
25.529439867
 21
32.7069831104
  0
LINE
  5
4F5
100
AcDbEntity
  8
0
100
AcDbLine
 62
7
  6
CONTINUOUS
 10
26.1127733593
 20
31.004855419
 11
25.904439867
 21
30.9623022289
  0
LINE
  5
4F6
100
AcDbEntity
  8
0
100
AcDbLine
 62
7
  6
CONTINUOUS
 10
22.2794401054
 20
31.004855419
 11
22.0711066131
 21
30.9623022289
  0
LINE
  5
4F7
100
AcDbEntity
  8
0
100
AcDbLine
 62
7
  6
CONTINUOUS
 10
25.4877733593
 20
32.9197490424
 11
25.6961068515
 21
32.9623022289
  0
LINE
  5
4F8
100
AcDbEntity
  8
0
100
AcDbLine
 62
7
  6
CONTINUOUS
 10
21.6544401054
 20
32.1963447542
 11
21.8627733593
 21
32.2388979406
  0
LINE
  5
4F9
100
AcDbEntity
  8
RACCORDO
100
AcDbLine
 62
253
  6
CONTINUOUS
 10
-25.6244677824
 20
24.7623022289
 11
-18.6499854991
 21
24.7623022289
  0
LINE
  5
4FA
100
AcDbEntity
  8
RACCORDO
100
AcDbLine
 62
253
  6
CONTINUOUS
 10
19.3755322176
 20
24.7623022289
 11
26.3500145009
 21
24.7623022289
  0
LINE
  5
4FB
100
AcDbEntity
  8
RACCORDO
100
AcDbLine
 62
7
  6
CONTINUOUS
 10
26.0996714144
 20
25.0123022289
 11
26.0734379701
 21
25.0123022289
  0
LINE
  5
4FC
100
AcDbEntity
  8
RACCORDO
100
AcDbLine
 62
7
  6
CONTINUOUS
 10
-25.3741246959
 20
25.0123022289
 11
-25.3478912515
 21
25.0123022289
  0
LINE
  5
4FD
100
AcDbEntity
  8
DRAFT
100
AcDbLine
 62
7
  6
CONTINUOUS
 10
-25.3478912515
 20
25.0123022289
 11
-25.1488007997
 21
25.0123022289
  0
LINE
  5
4FE
100
AcDbEntity
  8
RACCORDO
100
AcDbLine
 62
7
  6
CONTINUOUS
 10
-18.9003285856
 20
25.0123022289
 11
-18.9265620299
 21
25.0123022289
  0
LINE
  5
4FF
100
AcDbEntity
  8
DRAFT
100
AcDbLine
 62
7
  6
CONTINUOUS
 10
-18.9265620299
 20
25.0123022289
 11
-19.1256524817
 21
25.0123022289
  0
LINE
  5
500
100
AcDbEntity
  8
RACCORDO
100
AcDbLine
 62
7
  6
CONTINUOUS
 10
-19.1256524817
 20
25.0123022289
 11
-25.1488007997
 21
25.0123022289
  0
LINE
  5
501
100
AcDbEntity
  8
RACCORDO
100
AcDbLine
 62
7
  6
CONTINUOUS
 10
19.8511992003
 20
25.0123022289
 11
25.8743475183
 21
25.0123022289
  0
LINE
  5
502
100
AcDbEntity
  8
RACCORDO
100
AcDbLine
 62
7
  6
CONTINUOUS
 10
19.6258753041
 20
25.0123022289
 11
19.6521087485
 21
25.0123022289
  0
LINE
  5
503
100
AcDbEntity
  8
DRAFT
100
AcDbLine
 62
7
  6
CONTINUOUS
 10
19.6521087485
 20
25.0123022289
 11
19.8511992003
 21
25.0123022289
  0
LINE
  5
504
100
AcDbEntity
  8
DRAFT
100
AcDbLine
 62
7
  6
CONTINUOUS
 10
25.8743475183
 20
25.0123022289
 11
26.0734379701
 21
25.0123022289
  0
LINE
  5
505
100
AcDbEntity
  8
RACCORDO
100
AcDbLine
 62
253
  6
CONTINUOUS
 10
-24.8352575964
 20
25.3123022289
 11
-19.4391956851
 21
25.3123022289
  0
LINE
  5
506
100
AcDbEntity
  8
RACCORDO
100
AcDbLine
 62
253
  6
CONTINUOUS
 10
20.1647424036
 20
25.3123022289
 11
25.5608043149
 21
25.3123022289
  0
LINE
  5
507
100
AcDbEntity
  8
RACCORDO
100
AcDbLine
 62
253
  6
CONTINUOUS
 10
19.8651535432
 20
25.9284722188
 11
22.7529314133
 21
25.9284722188
  0
LINE
  5
508
100
AcDbEntity
  8
RACCORDO
100
AcDbLine
 62
253
  6
CONTINUOUS
 10
-19.1396068247
 20
25.9284722188
 11
-22.0273846948
 21
25.9284722188
  0
LINE
  5
509
100
AcDbEntity
  8
RACCORDO
100
AcDbLine
 62
253
  6
CONTINUOUS
 10
-22.2470685867
 20
25.9284722188
 11
-25.1348464568
 21
25.9284722188
  0
LINE
  5
50A
100
AcDbEntity
  8
RACCORDO
100
AcDbLine
 62
253
  6
CONTINUOUS
 10
22.9726153052
 20
25.9284722188
 11
25.8603931753
 21
25.9284722188
  0
LINE
  5
50B
100
AcDbEntity
  8
RACCORDO
100
AcDbLine
 62
253
  6
CONTINUOUS
 10
25.5608043149
 20
26.2284265273
 11
23.2027783413
 21
26.2284265273
  0
LINE
  5
50C
100
AcDbEntity
  8
RACCORDO
100
AcDbLine
 62
253
  6
CONTINUOUS
 10
22.5227683772
 20
26.2284265273
 11
20.1647424036
 21
26.2284265273
  0
LINE
  5
50D
100
AcDbEntity
  8
RACCORDO
100
AcDbLine
 62
253
  6
CONTINUOUS
 10
-19.4391956851
 20
26.2284265273
 11
-21.7972216587
 21
26.2284265273
  0
LINE
  5
50E
100
AcDbEntity
  8
RACCORDO
100
AcDbLine
 62
253
  6
CONTINUOUS
 10
-22.4772316228
 20
26.2284265273
 11
-24.8352575964
 21
26.2284265273
  0
LINE
  5
50F
100
AcDbEntity
  8
RACCORDO
100
AcDbLine
 62
7
  6
CONTINUOUS
 10
25.7219253075
 20
26.2820898847
 11
23.2439556837
 21
26.2820898847
  0
LINE
  5
510
100
AcDbEntity
  8
RACCORDO
100
AcDbLine
 62
7
  6
CONTINUOUS
 10
22.4815910349
 20
26.2820898847
 11
20.0036214111
 21
26.2820898847
  0
LINE
  5
511
100
AcDbEntity
  8
RACCORDO
100
AcDbLine
 62
7
  6
CONTINUOUS
 10
-19.2780746925
 20
26.2820898847
 11
-21.7560443163
 21
26.2820898847
  0
LINE
  5
512
100
AcDbEntity
  8
RACCORDO
100
AcDbLine
 62
7
  6
CONTINUOUS
 10
-22.5184089651
 20
26.2820898847
 11
-24.9963785889
 21
26.2820898847
  0
LINE
  5
513
100
AcDbEntity
  8
RACCORDO
100
AcDbLine
 62
253
  6
CONTINUOUS
 10
26.3500145009
 20
26.3227285437
 11
26.1003571173
 21
26.3227285437
  0
LINE
  5
514
100
AcDbEntity
  8
RACCORDO
100
AcDbLine
 62
253
  6
CONTINUOUS
 10
-25.6244677824
 20
26.3227285437
 11
-25.3748103987
 21
26.3227285437
  0
LINE
  5
515
100
AcDbEntity
  8
RACCORDO
100
AcDbLine
 62
253
  6
CONTINUOUS
 10
-18.6499854991
 20
26.3227285437
 11
-18.8996428827
 21
26.3227285437
  0
LINE
  5
516
100
AcDbEntity
  8
RACCORDO
100
AcDbLine
 62
253
  6
CONTINUOUS
 10
19.3755322176
 20
26.3227285437
 11
19.6251896013
 21
26.3227285437
  0
LINE
  5
517
100
AcDbEntity
  8
RACCORDO
100
AcDbLine
 62
253
  6
CONTINUOUS
 10
25.8057460867
 20
26.6369577976
 11
23.1823024708
 21
26.6369577976
  0
LINE
  5
518
100
AcDbEntity
  8
RACCORDO
100
AcDbLine
 62
253
  6
CONTINUOUS
 10
22.5432442477
 20
26.6369577976
 11
19.9198013817
 21
26.6369577976
  0
LINE
  5
519
100
AcDbEntity
  8
RACCORDO
100
AcDbLine
 62
253
  6
CONTINUOUS
 10
-19.1942539133
 20
26.6369577976
 11
-21.8176975292
 21
26.6369577976
  0
LINE
  5
51A
100
AcDbEntity
  8
RACCORDO
100
AcDbLine
 62
253
  6
CONTINUOUS
 10
-22.4567557523
 20
26.6369577976
 11
-25.0801986183
 21
26.6369577976
  0
LINE
  5
51B
100
AcDbEntity
  8
RACCORDO
100
AcDbLine
 62
253
  6
CONTINUOUS
 10
25.8057437625
 20
26.8805503138
 11
23.3629015751
 21
26.8805503138
  0
LINE
  5
51C
100
AcDbEntity
  8
RACCORDO
100
AcDbLine
 62
253
  6
CONTINUOUS
 10
22.3626451434
 20
26.8805503138
 11
19.919802956
 21
26.8805503138
  0
LINE
  5
51D
100
AcDbEntity
  8
RACCORDO
100
AcDbLine
 62
253
  6
CONTINUOUS
 10
-19.1942562375
 20
26.8805503138
 11
-21.6370984249
 21
26.8805503138
  0
LINE
  5
51E
100
AcDbEntity
  8
RACCORDO
100
AcDbLine
 62
253
  6
CONTINUOUS
 10
-22.6373548566
 20
26.8805503138
 11
-25.080197044
 21
26.8805503138
  0
LINE
  5
51F
100
AcDbEntity
  8
RACCORDO
100
AcDbLine
 62
253
  6
CONTINUOUS
 10
19.6251896013
 20
26.322725914
 11
19.7023803185
 21
25.9826858727
  0
LINE
  5
520
100
AcDbEntity
  8
RACCORDO
100
AcDbLine
 62
253
  6
CONTINUOUS
 10
19.9198013817
 20
26.6369577976
 11
20.0003590481
 21
26.2820898847
  0
LINE
  5
521
100
AcDbEntity
  8
RACCORDO
100
AcDbLine
 62
7
  6
CONTINUOUS
 10
23.2439556837
 20
26.2820898847
 11
23.1789173905
 21
26.6249815883
  0
LINE
  5
522
100
AcDbEntity
  8
0
100
AcDbLine
 62
7
  6
CONTINUOUS
 10
21.2377733593
 20
31.5154937119
 11
21.1961066131
 21
31.8133660764
  0
LINE
  5
523
100
AcDbEntity
  8
0
100
AcDbLine
 62
7
  6
CONTINUOUS
 10
28.2794403438
 20
-32.1015275508
 11
28.2794403438
 21
-31.9313148051
  0
LINE
  5
524
100
AcDbEntity
  8
0
100
AcDbLine
 62
7
  6
CONTINUOUS
 10
28.8627733593
 20
-31.5908893138
 11
28.8627733593
 21
-31.5057828217
  0
LINE
  5
525
100
AcDbEntity
  8
0
100
AcDbLine
 62
7
  6
CONTINUOUS
 10
28.9044403438
 20
-32.5696126609
 11
28.9044403438
 21
-32.3993999153
  0
LINE
  5
526
100
AcDbEntity
  8
0
100
AcDbLine
 62
7
  6
CONTINUOUS
 10
29.0711063747
 20
-31.5057828217
 11
29.0711063747
 21
-31.5908893138
  0
LINE
  5
527
100
AcDbEntity
  8
0
100
AcDbLine
 62
7
  6
CONTINUOUS
 10
29.1127733593
 20
-32.3993999153
 11
29.1127733593
 21
-32.5696126609
  0
LINE
  5
528
100
AcDbEntity
  8
RACCORDO
100
AcDbLine
 62
253
  6
CONTINUOUS
 10
22.8627733593
 20
-26.4138034842
 11
22.9726153052
 21
-26.0038677611
  0
LINE
  5
529
100
AcDbEntity
  8
RACCORDO
100
AcDbLine
 62
253
  6
CONTINUOUS
 10
23.0715334009
 20
-26.7936348557
 11
23.2027783413
 21
-26.3038220696
  0
LINE
  5
52A
100
AcDbEntity
  8
RACCORDO
100
AcDbLine
 62
253
  6
CONTINUOUS
 10
23.1484095958
 20
-26.8142337701
 11
23.1789173905
 21
-26.7003771305
  0
LINE
  5
52B
100
AcDbEntity
  8
0
100
AcDbLine
 62
7
  6
CONTINUOUS
 10
19.6127733593
 20
-31.7611020594
 11
19.6544399862
 21
-31.6334425002
  0
LINE
  5
52C
100
AcDbEntity
  8
0
100
AcDbLine
 62
7
  6
CONTINUOUS
 10
19.8627733593
 20
-31.8036552458
 11
19.9044399862
 21
-31.6759956866
  0
LINE
  5
52D
100
AcDbEntity
  8
0
100
AcDbLine
 62
7
  6
CONTINUOUS
 10
19.6127733593
 20
-32.6547190338
 11
19.6544399862
 21
-32.5270594745
  0
LINE
  5
52E
100
AcDbEntity
  8
0
100
AcDbLine
 62
7
  6
CONTINUOUS
 10
19.8627733593
 20
-32.69727225
 11
19.9044399862
 21
-32.5696126609
  0
LINE
  5
52F
100
AcDbEntity
  8
0
100
AcDbLine
 62
7
  6
CONTINUOUS
 10
20.6127733593
 20
-31.5483361273
 11
20.6544401054
 21
-31.4206764489
  0
LINE
  5
530
100
AcDbEntity
  8
RACCORDO
100
AcDbLine
 62
253
  6
CONTINUOUS
 10
19.7023803185
 20
-26.0580814149
 11
19.8651535432
 21
-26.0038677611
  0
LINE
  5
531
100
AcDbEntity
  8
RACCORDO
100
AcDbLine
 62
253
  6
CONTINUOUS
 10
20.0036214111
 20
-26.3574854269
 11
20.1647424036
 21
-26.3038220696
  0
LINE
  5
532
100
AcDbEntity
  8
RACCORDO
100
AcDbLine
 62
253
  6
CONTINUOUS
 10
-21.7105164686
 20
26.7766388753
 11
-21.9284665988
 21
26.718239312
  0
LINE
  5
533
100
AcDbEntity
  8
0
100
AcDbLine
 62
7
  6
CONTINUOUS
 10
21.6544401054
 20
32.9197490424
 11
21.8627733593
 21
32.9623022289
  0
LINE
  5
534
100
AcDbEntity
  8
RACCORDO
100
AcDbLine
 62
253
  6
CONTINUOUS
 10
-20.1371961328
 20
28.0021180643
 11
20.8627431825
 21
28.0021180643
  0
LINE
  5
535
100
AcDbEntity
  8
RACCORDO
100
AcDbLine
 62
253
  6
CONTINUOUS
 10
-20.1371953317
 20
28.6152796389
 11
20.8627423834
 21
28.6152796389
  0
LINE
  5
536
100
AcDbEntity
  8
0
100
AcDbLine
 62
7
  6
CONTINUOUS
 10
-17.602349508
 20
30.9471278311
 11
-18.0239581027
 21
30.9471278311
  0
LINE
  5
537
100
AcDbEntity
  8
0
100
AcDbLine
 62
7
  6
CONTINUOUS
 10
-18.6951778812
 20
30.9471278311
 11
-19.1317297647
 21
30.9471278311
  0
LINE
  5
538
100
AcDbEntity
  8
0
100
AcDbLine
 62
7
  6
CONTINUOUS
 10
-19.2604406407
 20
30.9471282289
 11
-19.7224066407
 21
30.9471282289
  0
LINE
  5
539
100
AcDbEntity
  8
0
100
AcDbLine
 62
7
  6
CONTINUOUS
 10
-20.5538146407
 20
30.9471282289
 11
-20.9873746407
 21
30.9471282289
  0
LINE
  5
53A
100
AcDbEntity
  8
0
100
AcDbLine
 62
7
  6
CONTINUOUS
 10
-21.0562016407
 20
30.9471282289
 11
-21.4849906407
 21
30.9471282289
  0
LINE
  5
53B
100
AcDbEntity
  8
0
100
AcDbLine
 62
7
  6
CONTINUOUS
 10
-22.0962016407
 20
30.9471282289
 11
-22.1576746407
 21
30.9471282289
  0
LINE
  5
53C
100
AcDbEntity
  8
0
100
AcDbLine
 62
7
  6
CONTINUOUS
 10
-22.7664606407
 20
30.9471282289
 11
-23.1857856407
 21
30.9471282289
  0
LINE
  5
53D
100
AcDbEntity
  8
0
100
AcDbLine
 62
7
  6
CONTINUOUS
 10
-23.4217446407
 20
30.9471282289
 11
-23.8600606407
 21
30.9471282289
  0
LINE
  5
53E
100
AcDbEntity
  8
0
100
AcDbLine
 62
7
  6
CONTINUOUS
 10
-24.6976876407
 20
30.9471282289
 11
-25.0839536407
 21
30.9471282289
  0
LINE
  5
53F
100
AcDbEntity
  8
0
100
AcDbLine
 62
7
  6
CONTINUOUS
 10
25.904439867
 20
30.9623022289
 11
25.654439867
 21
30.9623022289
  0
LINE
  5
540
100
AcDbEntity
  8
0
100
AcDbLine
 62
7
  6
CONTINUOUS
 10
24.279439867
 20
30.9623022289
 11
24.029439867
 21
30.9623022289
  0
LINE
  5
541
100
AcDbEntity
  8
0
100
AcDbLine
 62
7
  6
CONTINUOUS
 10
22.0711066131
 20
30.9623022289
 11
21.8627733593
 21
30.9623022289
  0
LINE
  5
542
100
AcDbEntity
  8
0
100
AcDbLine
 62
7
  6
CONTINUOUS
 10
20.4461066131
 20
30.9623022289
 11
20.1961067323
 21
30.9623022289
  0
LINE
  5
543
100
AcDbEntity
  8
0
100
AcDbLine
 62
7
  6
CONTINUOUS
 10
18.8627733593
 20
30.9623022289
 11
18.6127733593
 21
30.9623022289
  0
LINE
  5
544
100
AcDbEntity
  8
0
100
AcDbLine
 62
7
  6
CONTINUOUS
 10
21.8211066131
 20
31.1750681907
 11
22.1127733593
 21
31.1750681907
  0
LINE
  5
545
100
AcDbEntity
  8
0
100
AcDbLine
 62
7
  6
CONTINUOUS
 10
25.6961068515
 20
31.1750681907
 11
25.8627733593
 21
31.1750681907
  0
LINE
  5
546
100
AcDbEntity
  8
0
100
AcDbLine
 62
7
  6
CONTINUOUS
 10
-19.8359536407
 20
31.3663272289
 11
-20.4328666407
 21
31.3663272289
  0
LINE
  5
547
100
AcDbEntity
  8
0
100
AcDbLine
 62
7
  6
CONTINUOUS
 10
24.6961068515
 20
31.5580468983
 11
24.279439867
 21
31.5580468983
  0
LINE
  5
548
100
AcDbEntity
  8
0
100
AcDbLine
 62
7
  6
CONTINUOUS
 10
24.029439867
 20
31.5580468983
 11
23.029439867
 21
31.5580468983
  0
LINE
  5
549
100
AcDbEntity
  8
0
100
AcDbLine
 62
7
  6
CONTINUOUS
 10
20.8627733593
 20
31.5580468983
 11
20.4461066131
 21
31.5580468983
  0
LINE
  5
54A
100
AcDbEntity
  8
0
100
AcDbLine
 62
7
  6
CONTINUOUS
 10
20.1961067323
 20
31.5580468983
 11
19.1961066727
 21
31.5580468983
  0
LINE
  5
54B
100
AcDbEntity
  8
0
100
AcDbLine
 62
7
  6
CONTINUOUS
 10
-19.9235506407
 20
31.6907022289
 11
-20.3432066407
 21
31.6907022289
  0
LINE
  5
54C
100
AcDbEntity
  8
0
100
AcDbLine
 62
7
  6
CONTINUOUS
 10
-18.4601635665
 20
31.7688827419
 11
-18.6951778812
 21
31.7688827419
  0
LINE
  5
54D
100
AcDbEntity
  8
0
100
AcDbLine
 62
7
  6
CONTINUOUS
 10
20.8627733593
 20
31.8133660764
 11
20.4461066131
 21
31.8133660764
  0
LINE
  5
54E
100
AcDbEntity
  8
0
100
AcDbLine
 62
7
  6
CONTINUOUS
 10
20.1961067323
 20
31.8133660764
 11
19.4877733593
 21
31.8133660764
  0
LINE
  5
54F
100
AcDbEntity
  8
0
100
AcDbLine
 62
7
  6
CONTINUOUS
 10
23.3211068515
 20
31.8133660764
 11
24.029439867
 21
31.8133660764
  0
LINE
  5
550
100
AcDbEntity
  8
0
100
AcDbLine
 62
7
  6
CONTINUOUS
 10
24.279439867
 20
31.8133660764
 11
24.6961068515
 21
31.8133660764
  0
LINE
  5
551
100
AcDbEntity
  8
0
100
AcDbLine
 62
7
  6
CONTINUOUS
 10
25.8627733593
 20
31.8984724492
 11
25.6961068515
 21
31.8984724492
  0
LINE
  5
552
100
AcDbEntity
  8
RACCORDO
100
AcDbLine
 62
253
  6
CONTINUOUS
 10
22.4360631875
 20
26.7766388748
 11
22.6540133177
 21
26.7182393134
  0
LINE
  5
553
100
AcDbEntity
  8
RACCORDO
100
AcDbLine
 62
253
  6
CONTINUOUS
 10
19.8651535432
 20
25.9284722188
 11
19.7023803185
 21
25.9826858727
  0
LINE
  5
554
100
AcDbEntity
  8
RACCORDO
100
AcDbLine
 62
253
  6
CONTINUOUS
 10
20.1647424036
 20
26.2284265273
 11
20.0036214111
 21
26.2820898847
  0
LINE
  5
555
100
AcDbEntity
  8
0
100
AcDbLine
 62
7
  6
CONTINUOUS
 10
21.3211066131
 20
31.30272775
 11
21.2377733593
 21
31.5154937119
  0
LINE
  5
556
100
AcDbEntity
  8
0
100
AcDbLine
 62
7
  6
CONTINUOUS
 10
21.4461066131
 20
31.5580468983
 11
21.4877733593
 21
31.4303873391
  0
LINE
  5
557
100
AcDbEntity
  8
0
100
AcDbLine
 62
7
  6
CONTINUOUS
 10
22.4877733593
 20
31.6857064576
 11
22.4461068515
 21
31.8133660764
  0
LINE
  5
558
100
AcDbEntity
  8
0
100
AcDbLine
 62
7
  6
CONTINUOUS
 10
22.5711068515
 20
32.6218767375
 11
22.6127733593
 21
32.4942171783
  0
LINE
  5
559
100
AcDbEntity
  8
RACCORDO
100
AcDbLine
 62
253
  6
CONTINUOUS
 10
22.9726153052
 20
25.9284722188
 11
22.8627733593
 21
26.3384079419
  0
LINE
  5
55A
100
AcDbEntity
  8
RACCORDO
100
AcDbLine
 62
253
  6
CONTINUOUS
 10
23.2027783413
 20
26.2284265273
 11
23.0715334012
 21
26.718239312
  0
LINE
  5
55B
100
AcDbEntity
  8
RACCORDO
100
AcDbLine
 62
253
  6
CONTINUOUS
 10
23.1789173905
 20
26.6249815883
 11
23.1484095958
 21
26.7388382278
  0
LINE
  5
55C
100
AcDbEntity
  8
0
100
AcDbLine
 62
7
  6
CONTINUOUS
 10
34.2127733593
 20
-22.2876977711
 11
34.2127733593
 21
22.2123022289
  0
LINE
  5
55D
100
AcDbEntity
  8
0
100
AcDbLine
 62
7
  6
CONTINUOUS
 10
34.3127733593
 20
-22.2876977711
 11
34.3127733593
 21
22.2123022289
  0
LINE
  5
55E
100
AcDbEntity
  8
RACCORDO
100
AcDbLine
 62
253
  6
CONTINUOUS
 10
36.646333666
 20
11.7123080206
 11
36.646333666
 21
-11.7877035753
  0
LINE
  5
55F
100
AcDbEntity
  8
0
100
AcDbLine
 62
7
  6
CONTINUOUS
 10
25.8211068515
 20
-31.5057828217
 11
25.8627733593
 21
-31.3355700761
  0
LINE
  5
560
100
AcDbEntity
  8
0
100
AcDbLine
 62
7
  6
CONTINUOUS
 10
27.2377733593
 20
-31.5908893138
 11
27.1961063747
 21
-31.7611020594
  0
LINE
  5
561
100
AcDbEntity
  8
0
100
AcDbLine
 62
7
  6
CONTINUOUS
 10
27.6544403438
 20
-31.5057828217
 11
27.6961063747
 21
-31.3355700761
  0
LINE
  5
562
100
AcDbEntity
  8
0
100
AcDbLine
 62
7
  6
CONTINUOUS
 10
29.0711063747
 20
-31.5908893138
 11
29.0294403438
 21
-31.7611020594
  0
LINE
  5
563
100
AcDbEntity
  8
0
100
AcDbLine
 62
7
  6
CONTINUOUS
 10
23.3627733593
 20
-32.5696126609
 11
23.404439867
 21
-32.4419531017
  0
LINE
  5
564
100
AcDbEntity
  8
0
100
AcDbLine
 62
7
  6
CONTINUOUS
 10
27.2794403438
 20
-32.5696126609
 11
27.2377733593
 21
-32.69727225
  0
LINE
  5
565
100
AcDbEntity
  8
0
100
AcDbLine
 62
7
  6
CONTINUOUS
 10
23.6127733593
 20
-32.4845062881
 11
23.529439867
 21
-32.69727225
  0
LINE
  5
566
100
AcDbEntity
  8
0
100
AcDbLine
 62
7
  6
CONTINUOUS
 10
24.3627733593
 20
-33.0376977711
 11
25.1961068515
 21
-31.2504637032
  0
LINE
  5
567
100
AcDbEntity
  8
0
100
AcDbLine
 62
7
  6
CONTINUOUS
 10
25.4461068515
 20
-31.2504637032
 11
24.6127733593
 21
-33.0376977711
  0
LINE
  5
568
100
AcDbEntity
  8
0
100
AcDbLine
 62
7
  6
CONTINUOUS
 10
21.7794401054
 20
-32.5696126609
 11
21.6961066131
 21
-32.7398254364
  0
LINE
  5
569
100
AcDbEntity
  8
0
100
AcDbLine
 62
7
  6
CONTINUOUS
 10
21.4461066131
 20
-32.6547190338
 11
21.5294401054
 21
-32.5270594745
  0
LINE
  5
56A
100
AcDbEntity
  8
0
100
AcDbLine
 62
7
  6
CONTINUOUS
 10
19.7377733593
 20
-31.9738679915
 11
19.8627733593
 21
-31.8036552458
  0
LINE
  5
56B
100
AcDbEntity
  8
0
100
AcDbLine
 62
7
  6
CONTINUOUS
 10
19.7377733593
 20
-32.8674850106
 11
19.8627733593
 21
-32.69727225
  0
LINE
  5
56C
100
AcDbEntity
  8
RACCORDO
100
AcDbLine
 62
7
  6
CONTINUOUS
 10
22.4815910349
 20
-26.3574854269
 11
22.5227683772
 21
-26.3038220696
  0
LINE
  5
56D
100
AcDbEntity
  8
0
100
AcDbLine
 62
7
  6
CONTINUOUS
 10
19.5294399862
 20
-31.8462084323
 11
19.6127733593
 21
-31.7611020594
  0
LINE
  5
56E
100
AcDbEntity
  8
0
100
AcDbLine
 62
7
  6
CONTINUOUS
 10
20.4044401054
 20
-31.3355700761
 11
20.5711066131
 21
-31.1653573304
  0
LINE
  5
56F
100
AcDbEntity
  8
0
100
AcDbLine
 62
7
  6
CONTINUOUS
 10
20.7794401054
 20
-31.3355700761
 11
20.9044401054
 21
-31.2930168896
  0
LINE
  5
570
100
AcDbEntity
  8
0
100
AcDbLine
 62
7
  6
CONTINUOUS
 10
19.4044399862
 20
-31.8887616187
 11
19.5294399862
 21
-31.8462084323
  0
LINE
  5
571
100
AcDbEntity
  8
0
100
AcDbLine
 62
7
  6
CONTINUOUS
 10
22.1127733593
 20
32.0261320085
 11
21.8211066131
 21
32.0261320085
  0
LINE
  5
572
100
AcDbEntity
  8
0
100
AcDbLine
 62
7
  6
CONTINUOUS
 10
25.6961068515
 20
32.0686851949
 11
25.8627733593
 21
32.0686851949
  0
LINE
  5
573
100
AcDbEntity
  8
0
100
AcDbLine
 62
7
  6
CONTINUOUS
 10
-18.4592187853
 20
32.1127830858
 11
-18.7097117648
 21
32.1127830858
  0
LINE
  5
574
100
AcDbEntity
  8
0
100
AcDbLine
 62
7
  6
CONTINUOUS
 10
21.8627733593
 20
32.2388979406
 11
22.0711066131
 21
32.2388979406
  0
LINE
  5
575
100
AcDbEntity
  8
0
100
AcDbLine
 62
7
  6
CONTINUOUS
 10
22.6127733593
 20
32.4942171783
 11
22.404439867
 21
32.4942171783
  0
LINE
  5
576
100
AcDbEntity
  8
0
100
AcDbLine
 62
7
  6
CONTINUOUS
 10
25.8627733593
 20
32.7495362968
 11
25.6961068515
 21
32.7495362968
  0
LINE
  5
577
100
AcDbEntity
  8
0
100
AcDbLine
 62
7
  6
CONTINUOUS
 10
22.0711066131
 20
32.7495362968
 11
21.8211066131
 21
32.7495362968
  0
LINE
  5
578
100
AcDbEntity
  8
0
100
AcDbLine
 62
7
  6
CONTINUOUS
 10
20.4461066131
 20
32.9623022289
 11
20.1961067323
 21
32.9623022289
  0
LINE
  5
579
100
AcDbEntity
  8
0
100
AcDbLine
 62
7
  6
CONTINUOUS
 10
18.8627733593
 20
32.9623022289
 11
18.6127733593
 21
32.9623022289
  0
LINE
  5
57A
100
AcDbEntity
  8
0
100
AcDbLine
 62
7
  6
CONTINUOUS
 10
21.8627733593
 20
32.9623022289
 11
22.0294401054
 21
32.9623022289
  0
LINE
  5
57B
100
AcDbEntity
  8
0
100
AcDbLine
 62
7
  6
CONTINUOUS
 10
24.029439867
 20
32.9623022289
 11
24.279439867
 21
32.9623022289
  0
LINE
  5
57C
100
AcDbEntity
  8
0
100
AcDbLine
 62
7
  6
CONTINUOUS
 10
25.6961068515
 20
32.9623022289
 11
25.8627733593
 21
32.9623022289
  0
LINE
  5
57D
100
AcDbEntity
  8
0
100
AcDbLine
 62
7
  6
CONTINUOUS
 10
-25.7496386407
 20
33.0469512289
 11
-25.2734926407
 21
33.0469512289
  0
LINE
  5
57E
100
AcDbEntity
  8
0
100
AcDbLine
 62
7
  6
CONTINUOUS
 10
-24.4607366407
 20
33.0469512289
 11
-24.0227196407
 21
33.0469512289
  0
LINE
  5
57F
100
AcDbEntity
  8
0
100
AcDbLine
 62
7
  6
CONTINUOUS
 10
-22.9961836407
 20
33.0469512289
 11
-22.5582306407
 21
33.0469512289
  0
LINE
  5
580
100
AcDbEntity
  8
0
100
AcDbLine
 62
7
  6
CONTINUOUS
 10
-21.6862286407
 20
33.0469512289
 11
-21.2525586407
 21
33.0469512289
  0
LINE
  5
581
100
AcDbEntity
  8
0
100
AcDbLine
 62
7
  6
CONTINUOUS
 10
-19.9047186407
 20
33.0469512289
 11
-20.3287356407
 21
33.0469512289
  0
LINE
  5
582
100
AcDbEntity
  8
0
100
AcDbLine
 62
7
  6
CONTINUOUS
 10
-23.8600606407
 20
33.0470772289
 11
-23.4217446407
 21
33.0470772289
  0
LINE
  5
583
100
AcDbEntity
  8
0
100
AcDbLine
 62
7
  6
CONTINUOUS
 10
21.8627733593
 20
30.9623022289
 11
21.6544401054
 21
31.004855419
  0
LINE
  5
584
100
AcDbEntity
  8
0
100
AcDbLine
 62
7
  6
CONTINUOUS
 10
25.654439867
 20
30.9623022289
 11
25.4461068515
 21
31.004855419
  0
LINE
  5
585
100
AcDbEntity
  8
0
100
AcDbLine
 62
7
  6
CONTINUOUS
 10
22.0711066131
 20
32.2388979406
 11
22.2794401054
 21
32.1963447542
  0
LINE
  5
586
100
AcDbEntity
  8
RACCORDO
100
AcDbLine
 62
7
  6
CONTINUOUS
 10
22.4815910349
 20
26.2820898847
 11
22.5227683772
 21
26.2284265273
  0
LINE
  5
587
100
AcDbEntity
  8
0
100
AcDbLine
 62
7
  6
CONTINUOUS
 10
21.4461066131
 20
31.1325149894
 11
21.3211066131
 21
31.30272775
  0
LINE
  5
588
100
AcDbEntity
  8
0
100
AcDbLine
 62
7
  6
CONTINUOUS
 10
21.4877733593
 20
31.4303873391
 11
21.5711066131
 21
31.30272775
  0
LINE
  5
589
100
AcDbEntity
  8
0
100
AcDbLine
 62
7
  6
CONTINUOUS
 10
22.404439867
 20
32.4942171783
 11
22.3211066131
 21
32.6218767375
  0
LINE
  5
58A
100
AcDbEntity
  8
0
100
AcDbLine
 62
7
  6
CONTINUOUS
 10
25.154439867
 20
32.1537915677
 11
25.0711068515
 21
32.3240043134
  0
LINE
  5
58B
100
AcDbEntity
  8
0
100
AcDbLine
 62
7
  6
CONTINUOUS
 10
22.6127733593
 20
31.9410256357
 11
22.6961068515
 21
31.7282597036
  0
LINE
  5
58C
100
AcDbEntity
  8
0
100
AcDbLine
 62
7
  6
CONTINUOUS
 10
25.1127733593
 20
31.2601745636
 11
25.029439867
 21
31.4729405255
  0
LINE
  5
58D
100
AcDbEntity
  8
0
100
AcDbLine
 62
7
  6
CONTINUOUS
 10
26.4461063747
 20
31.8133660764
 11
26.5294403438
 21
31.6006000847
  0
LINE
  5
58E
100
AcDbEntity
  8
0
100
AcDbLine
 62
7
  6
CONTINUOUS
 10
26.4044403438
 20
32.6644299239
 11
26.4877733593
 21
32.4516638727
  0
LINE
  5
58F
100
AcDbEntity
  8
RACCORDO
100
AcDbLine
 62
253
  6
CONTINUOUS
 10
37.9823048673
 20
11.7123084647
 11
37.9823048673
 21
-11.7877040217
  0
LINE
  5
590
100
AcDbEntity
  8
0
100
AcDbLine
 62
7
  6
CONTINUOUS
 10
29.1127733593
 20
-32.5696126609
 11
29.0711063747
 21
-32.69727225
  0
LINE
  5
591
100
AcDbEntity
  8
0
100
AcDbLine
 62
7
  6
CONTINUOUS
 10
26.9461063747
 20
-31.7611020594
 11
27.0294403438
 21
-31.5908893138
  0
LINE
  5
592
100
AcDbEntity
  8
0
100
AcDbLine
 62
7
  6
CONTINUOUS
 10
27.0294403438
 20
-32.6547190338
 11
27.0711063747
 21
-32.5696126609
  0
LINE
  5
593
100
AcDbEntity
  8
0
100
AcDbLine
 62
7
  6
CONTINUOUS
 10
28.7794403438
 20
-31.7611020594
 11
28.8627733593
 21
-31.5908893138
  0
LINE
  5
594
100
AcDbEntity
  8
0
100
AcDbLine
 62
7
  6
CONTINUOUS
 10
28.8627733593
 20
-32.6547190338
 11
28.9044403438
 21
-32.5696126609
  0
LINE
  5
595
100
AcDbEntity
  8
0
100
AcDbLine
 62
7
  6
CONTINUOUS
 10
23.279439867
 20
-32.69727225
 11
23.3627733593
 21
-32.5696126609
  0
LINE
  5
596
100
AcDbEntity
  8
0
100
AcDbLine
 62
7
  6
CONTINUOUS
 10
26.1127733593
 20
-31.3781232625
 11
26.029439867
 21
-31.5057828217
  0
LINE
  5
597
100
AcDbEntity
  8
0
100
AcDbLine
 62
7
  6
CONTINUOUS
 10
27.1961063747
 20
-31.7611020594
 11
27.1127733593
 21
-31.8887616187
  0
LINE
  5
598
100
AcDbEntity
  8
0
100
AcDbLine
 62
7
  6
CONTINUOUS
 10
27.9461063747
 20
-31.3781232625
 11
27.8627733593
 21
-31.5057828217
  0
LINE
  5
599
100
AcDbEntity
  8
0
100
AcDbLine
 62
7
  6
CONTINUOUS
 10
27.2377733593
 20
-32.69727225
 11
27.1544403438
 21
-32.8249318093
  0
LINE
  5
59A
100
AcDbEntity
  8
0
100
AcDbLine
 62
7
  6
CONTINUOUS
 10
23.529439867
 20
-32.69727225
 11
23.404439867
 21
-32.8674850106
  0
LINE
  5
59B
100
AcDbEntity
  8
0
100
AcDbLine
 62
7
  6
CONTINUOUS
 10
19.5294399862
 20
-32.7398254364
 11
19.6127733593
 21
-32.6547190338
  0
LINE
  5
59C
100
AcDbEntity
  8
0
100
AcDbLine
 62
7
  6
CONTINUOUS
 10
21.6961066131
 20
-32.7398254364
 11
21.5294401054
 21
-32.910038197
  0
LINE
  5
59D
100
AcDbEntity
  8
0
100
AcDbLine
 62
7
  6
CONTINUOUS
 10
25.8627733593
 20
-31.3355700761
 11
26.029439867
 21
-31.1653573304
  0
LINE
  5
59E
100
AcDbEntity
  8
0
100
AcDbLine
 62
7
  6
CONTINUOUS
 10
19.5711067323
 20
-32.995144581
 11
19.7377733593
 21
-32.8674850106
  0
LINE
  5
59F
100
AcDbEntity
  8
0
100
AcDbLine
 62
7
  6
CONTINUOUS
 10
22.5711068515
 20
-32.0164211779
 11
22.404439867
 21
-32.1440807372
  0
LINE
  5
5A0
100
AcDbEntity
  8
0
100
AcDbLine
 62
7
  6
CONTINUOUS
 10
20.6544401054
 20
-31.4206764489
 11
20.7794401054
 21
-31.3355700761
  0
LINE
  5
5A1
100
AcDbEntity
  8
0
100
AcDbLine
 62
7
  6
CONTINUOUS
 10
21.3211066131
 20
-32.7398254364
 11
21.4461066131
 21
-32.6547190338
  0
LINE
  5
5A2
100
AcDbEntity
  8
0
100
AcDbLine
 62
7
  6
CONTINUOUS
 10
23.154439867
 20
-32.7823786228
 11
23.279439867
 21
-32.69727225
  0
LINE
  5
5A3
100
AcDbEntity
  8
0
100
AcDbLine
 62
7
  6
CONTINUOUS
 10
26.2377733593
 20
-31.2930168896
 11
26.1127733593
 21
-31.3781232625
  0
LINE
  5
5A4
100
AcDbEntity
  8
0
100
AcDbLine
 62
7
  6
CONTINUOUS
 10
22.3211066131
 20
-31.9313148051
 11
22.529439867
 21
-31.8036552458
  0
LINE
  5
5A5
100
AcDbEntity
  8
0
100
AcDbLine
 62
7
  6
CONTINUOUS
 10
23.404439867
 20
-32.8674850106
 11
23.1961068515
 21
-32.995144581
  0
LINE
  5
5A6
100
AcDbEntity
  8
0
100
AcDbLine
 62
7
  6
CONTINUOUS
 10
20.5711066131
 20
-31.1653573304
 11
20.7377733593
 21
-31.0802509576
  0
LINE
  5
5A7
100
AcDbEntity
  8
0
100
AcDbLine
 62
7
  6
CONTINUOUS
 10
19.6544399862
 20
-32.0164211779
 11
19.7377733593
 21
-31.9738679915
  0
LINE
  5
5A8
100
AcDbEntity
  8
0
100
AcDbLine
 62
7
  6
CONTINUOUS
 10
21.5294401054
 20
-32.910038197
 11
21.3627733593
 21
-32.995144581
  0
LINE
  5
5A9
100
AcDbEntity
  8
0
100
AcDbLine
 62
7
  6
CONTINUOUS
 10
26.029439867
 20
-31.1653573304
 11
26.1961068515
 21
-31.0802509576
  0
LINE
  5
5AA
100
AcDbEntity
  8
0
100
AcDbLine
 62
7
  6
CONTINUOUS
 10
27.8627733593
 20
-31.1653573304
 11
28.0294403438
 21
-31.0802509576
  0
LINE
  5
5AB
100
AcDbEntity
  8
0
100
AcDbLine
 62
7
  6
CONTINUOUS
 10
19.4044399862
 20
-32.7823786228
 11
19.5294399862
 21
-32.7398254364
  0
LINE
  5
5AC
100
AcDbEntity
  8
0
100
AcDbLine
 62
7
  6
CONTINUOUS
 10
26.6127733593
 20
-31.9313148051
 11
26.8627733593
 21
-31.8462084323
  0
LINE
  5
5AD
100
AcDbEntity
  8
0
100
AcDbLine
 62
7
  6
CONTINUOUS
 10
28.4461063747
 20
-31.9313148051
 11
28.6961063747
 21
-31.8462084323
  0
LINE
  5
5AE
100
AcDbEntity
  8
0
100
AcDbLine
 62
7
  6
CONTINUOUS
 10
22.0294401054
 20
32.9623022289
 11
22.2377733593
 21
32.9197490424
  0
LINE
  5
5AF
100
AcDbEntity
  8
0
100
AcDbLine
 62
7
  6
CONTINUOUS
 10
25.8627733593
 20
32.9623022289
 11
26.0711068515
 21
32.9197490424
  0
LINE
  5
5B0
100
AcDbEntity
  8
0
100
AcDbLine
 62
7
  6
CONTINUOUS
 10
25.529439867
 20
31.2176213772
 11
25.6961068515
 21
31.1750681907
  0
LINE
  5
5B1
100
AcDbEntity
  8
0
100
AcDbLine
 62
7
  6
CONTINUOUS
 10
26.029439867
 20
31.8559192628
 11
25.8627733593
 21
31.8984724492
  0
LINE
  5
5B2
100
AcDbEntity
  8
0
100
AcDbLine
 62
7
  6
CONTINUOUS
 10
25.529439867
 20
32.1112383813
 11
25.6961068515
 21
32.0686851949
  0
LINE
  5
5B3
100
AcDbEntity
  8
0
100
AcDbLine
 62
7
  6
CONTINUOUS
 10
26.029439867
 20
32.7069831104
 11
25.8627733593
 21
32.7495362968
  0
LINE
  5
5B4
100
AcDbEntity
  8
0
100
AcDbLine
 62
7
  6
CONTINUOUS
 10
21.6961066131
 20
31.2176213772
 11
21.8211066131
 21
31.1750681907
  0
LINE
  5
5B5
100
AcDbEntity
  8
0
100
AcDbLine
 62
7
  6
CONTINUOUS
 10
22.2377733593
 20
31.9835788221
 11
22.1127733593
 21
32.0261320085
  0
LINE
  5
5B6
100
AcDbEntity
  8
0
100
AcDbLine
 62
7
  6
CONTINUOUS
 10
22.1961066131
 20
32.7069831104
 11
22.0711066131
 21
32.7495362968
  0
LINE
  5
5B7
100
AcDbEntity
  8
0
100
AcDbLine
 62
7
  6
CONTINUOUS
 10
25.3627733593
 20
31.30272775
 11
25.529439867
 21
31.2176213772
  0
LINE
  5
5B8
100
AcDbEntity
  8
0
100
AcDbLine
 62
7
  6
CONTINUOUS
 10
25.3627733593
 20
31.9835788221
 11
25.279439867
 21
32.0261320085
  0
LINE
  5
5B9
100
AcDbEntity
  8
0
100
AcDbLine
 62
7
  6
CONTINUOUS
 10
26.1961068515
 20
31.77081289
 11
26.029439867
 21
31.8559192628
  0
LINE
  5
5BA
100
AcDbEntity
  8
0
100
AcDbLine
 62
7
  6
CONTINUOUS
 10
26.1961068515
 20
31.9835788221
 11
26.279439867
 21
31.9410256357
  0
LINE
  5
5BB
100
AcDbEntity
  8
0
100
AcDbLine
 62
7
  6
CONTINUOUS
 10
21.6544401054
 20
31.004855419
 11
21.4461066131
 21
31.1325149894
  0
LINE
  5
5BC
100
AcDbEntity
  8
0
100
AcDbLine
 62
7
  6
CONTINUOUS
 10
22.2794401054
 20
32.1963447542
 11
22.4877733593
 21
32.0686851949
  0
LINE
  5
5BD
100
AcDbEntity
  8
0
100
AcDbLine
 62
7
  6
CONTINUOUS
 10
22.2377733593
 20
32.9197490424
 11
22.4461068515
 21
32.7920894832
  0
LINE
  5
5BE
100
AcDbEntity
  8
0
100
AcDbLine
 62
7
  6
CONTINUOUS
 10
25.4461068515
 20
31.004855419
 11
25.2377733593
 21
31.1325149894
  0
LINE
  5
5BF
100
AcDbEntity
  8
0
100
AcDbLine
 62
7
  6
CONTINUOUS
 10
21.5711066131
 20
31.30272775
 11
21.6961066131
 21
31.2176213772
  0
LINE
  5
5C0
100
AcDbEntity
  8
0
100
AcDbLine
 62
7
  6
CONTINUOUS
 10
22.3627733593
 20
31.8984724492
 11
22.2377733593
 21
31.9835788221
  0
LINE
  5
5C1
100
AcDbEntity
  8
0
100
AcDbLine
 62
7
  6
CONTINUOUS
 10
22.3211066131
 20
32.6218767375
 11
22.1961066131
 21
32.7069831104
  0
LINE
  5
5C2
100
AcDbEntity
  8
0
100
AcDbLine
 62
7
  6
CONTINUOUS
 10
25.3627733593
 20
32.2388979406
 11
25.529439867
 21
32.1112383813
  0
LINE
  5
5C3
100
AcDbEntity
  8
0
100
AcDbLine
 62
7
  6
CONTINUOUS
 10
22.4461068515
 20
31.8133660764
 11
22.3627733593
 21
31.8984724492
  0
LINE
  5
5C4
100
AcDbEntity
  8
0
100
AcDbLine
 62
7
  6
CONTINUOUS
 10
22.4877733593
 20
32.0686851949
 11
22.6127733593
 21
31.9410256357
  0
LINE
  5
5C5
100
AcDbEntity
  8
0
100
AcDbLine
 62
7
  6
CONTINUOUS
 10
25.2377733593
 20
31.1325149894
 11
25.1127733593
 21
31.2601745636
  0
LINE
  5
5C6
100
AcDbEntity
  8
0
100
AcDbLine
 62
7
  6
CONTINUOUS
 10
25.279439867
 20
32.0261320085
 11
25.154439867
 21
32.1537915677
  0
LINE
  5
5C7
100
AcDbEntity
  8
0
100
AcDbLine
 62
7
  6
CONTINUOUS
 10
22.4461068515
 20
32.7920894832
 11
22.5711068515
 21
32.6218767375
  0
LINE
  5
5C8
100
AcDbEntity
  8
0
100
AcDbLine
 62
7
  6
CONTINUOUS
 10
25.2377733593
 20
31.4729405255
 11
25.3627733593
 21
31.30272775
  0
LINE
  5
5C9
100
AcDbEntity
  8
0
100
AcDbLine
 62
7
  6
CONTINUOUS
 10
26.3211068515
 20
31.6006000847
 11
26.1961068515
 21
31.77081289
  0
LINE
  5
5CA
100
AcDbEntity
  8
0
100
AcDbLine
 62
7
  6
CONTINUOUS
 10
25.279439867
 20
32.3665574998
 11
25.3627733593
 21
32.2388979406
  0
LINE
  5
5CB
100
AcDbEntity
  8
0
100
AcDbLine
 62
7
  6
CONTINUOUS
 10
26.279439867
 20
32.4516638727
 11
26.1961068515
 21
32.5793235511
  0
LINE
  5
5CC
100
AcDbEntity
  8
RACCORDO
100
AcDbLine
 62
253
  6
CONTINUOUS
 10
44.7191056083
 20
11.7056784209
 11
44.7191056084
 21
-11.7805894128
  0
LINE
  5
5CD
100
AcDbEntity
  8
0
100
AcDbLine
 62
7
  6
CONTINUOUS
 10
45.0627733593
 20
44.4623022289
 11
45.0627733593
 21
14.9623022289
  0
LINE
  5
5CE
100
AcDbEntity
  8
0
100
AcDbLine
 62
7
  6
CONTINUOUS
 10
45.0627733593
 20
-44.5376977711
 11
45.0627733593
 21
-15.0376977711
  0
LINE
  5
5CF
100
AcDbEntity
  8
RACCORDO
100
AcDbLine
 62
7
  6
CONTINUOUS
 10
45.1627733593
 20
-4.2394909978
 11
45.1627733593
 21
-44.5376977711
  0
LINE
  5
5D0
100
AcDbEntity
  8
0
100
AcDbLine
 62
7
  6
CONTINUOUS
 10
45.1627733593
 20
-4.2394900838
 11
45.1627733593
 21
4.1640945415
  0
LINE
  5
5D1
100
AcDbEntity
  8
RACCORDO
100
AcDbLine
 62
7
  6
CONTINUOUS
 10
45.1627733593
 20
4.1640954555
 11
45.1627733593
 21
44.4623022289
  0
LINE
  5
5D2
100
AcDbEntity
  8
RACCORDO
100
AcDbLine
 62
7
  6
CONTINUOUS
 10
47.8399897636
 20
3.6683730248
 11
47.7807413964
 21
3.5195364281
  0
LINE
  5
5D3
100
AcDbEntity
  8
0
100
AcDbLine
 62
7
  6
CONTINUOUS
 10
29.0294403438
 20
-31.7611020594
 11
28.9461063747
 21
-31.8887616187
  0
LINE
  5
5D4
100
AcDbEntity
  8
0
100
AcDbLine
 62
7
  6
CONTINUOUS
 10
29.0711063747
 20
-32.69727225
 11
28.9877733593
 21
-32.8249318093
  0
LINE
  5
5D5
100
AcDbEntity
  8
0
100
AcDbLine
 62
7
  6
CONTINUOUS
 10
26.8627733593
 20
-31.8462084323
 11
26.9461063747
 21
-31.7611020594
  0
LINE
  5
5D6
100
AcDbEntity
  8
0
100
AcDbLine
 62
7
  6
CONTINUOUS
 10
27.6961063747
 20
-31.3355700761
 11
27.8627733593
 21
-31.1653573304
  0
LINE
  5
5D7
100
AcDbEntity
  8
0
100
AcDbLine
 62
7
  6
CONTINUOUS
 10
26.9461063747
 20
-32.7398254364
 11
27.0294403438
 21
-32.6547190338
  0
LINE
  5
5D8
100
AcDbEntity
  8
0
100
AcDbLine
 62
7
  6
CONTINUOUS
 10
28.6961063747
 20
-31.8462084323
 11
28.7794403438
 21
-31.7611020594
  0
LINE
  5
5D9
100
AcDbEntity
  8
0
100
AcDbLine
 62
7
  6
CONTINUOUS
 10
28.7794403438
 20
-32.7398254364
 11
28.8627733593
 21
-32.6547190338
  0
LINE
  5
5DA
100
AcDbEntity
  8
0
100
AcDbLine
 62
7
  6
CONTINUOUS
 10
27.1127733593
 20
-31.8887616187
 11
26.9461063747
 21
-32.0164211779
  0
LINE
  5
5DB
100
AcDbEntity
  8
0
100
AcDbLine
 62
7
  6
CONTINUOUS
 10
28.9461063747
 20
-31.8887616187
 11
28.7794403438
 21
-32.0164211779
  0
LINE
  5
5DC
100
AcDbEntity
  8
0
100
AcDbLine
 62
7
  6
CONTINUOUS
 10
28.0711063747
 20
-31.2930168896
 11
27.9461063747
 21
-31.3781232625
  0
LINE
  5
5DD
100
AcDbEntity
  8
0
100
AcDbLine
 62
7
  6
CONTINUOUS
 10
27.1544403438
 20
-32.8249318093
 11
27.0294403438
 21
-32.910038197
  0
LINE
  5
5DE
100
AcDbEntity
  8
0
100
AcDbLine
 62
7
  6
CONTINUOUS
 10
28.9877733593
 20
-32.8249318093
 11
28.8627733593
 21
-32.910038197
  0
LINE
  5
5DF
100
AcDbEntity
  8
0
100
AcDbLine
 62
7
  6
CONTINUOUS
 10
26.8627733593
 20
-32.7823786228
 11
26.9461063747
 21
-32.7398254364
  0
LINE
  5
5E0
100
AcDbEntity
  8
0
100
AcDbLine
 62
7
  6
CONTINUOUS
 10
27.0294403438
 20
-32.910038197
 11
26.8627733593
 21
-32.995144581
  0
LINE
  5
5E1
100
AcDbEntity
  8
0
100
AcDbLine
 62
7
  6
CONTINUOUS
 10
28.6961063747
 20
-32.7823786228
 11
28.7794403438
 21
-32.7398254364
  0
LINE
  5
5E2
100
AcDbEntity
  8
0
100
AcDbLine
 62
7
  6
CONTINUOUS
 10
28.8627733593
 20
-32.910038197
 11
28.6961063747
 21
-32.995144581
  0
LINE
  5
5E3
100
AcDbEntity
  8
RACCORDO
100
AcDbLine
 62
253
  6
CONTINUOUS
 10
-20.137151026
 20
44.2140349749
 11
20.8626980243
 21
44.2140349749
  0
LINE
  5
5E4
100
AcDbEntity
  8
0
100
AcDbLine
 62
7
  6
CONTINUOUS
 10
-44.1372266407
 20
44.6623022289
 11
44.8627733593
 21
44.6623022289
  0
LINE
  5
5E5
100
AcDbEntity
  8
RACCORDO
100
AcDbLine
 62
7
  6
CONTINUOUS
 10
-44.1372266407
 20
44.7623022289
 11
44.8627733593
 21
44.7623022289
  0
LINE
  5
5E6
100
AcDbEntity
  8
0
100
AcDbLine
 62
7
  6
CONTINUOUS
 10
26.0711068515
 20
32.9197490424
 11
26.279439867
 21
32.7920894832
  0
LINE
  5
5E7
100
AcDbEntity
  8
0
100
AcDbLine
 62
7
  6
CONTINUOUS
 10
26.279439867
 20
31.9410256357
 11
26.4461063747
 21
31.8133660764
  0
LINE
  5
5E8
100
AcDbEntity
  8
0
100
AcDbLine
 62
7
  6
CONTINUOUS
 10
26.1961068515
 20
32.5793235511
 11
26.029439867
 21
32.7069831104
  0
LINE
  5
5E9
100
AcDbEntity
  8
0
100
AcDbLine
 62
7
  6
CONTINUOUS
 10
26.279439867
 20
32.7920894832
 11
26.4044403438
 21
32.6644299239
  0
LINE
  5
5EA
100
AcDbEntity
  8
RACCORDO
100
AcDbLine
 62
7
  6
CONTINUOUS
 10
47.7807413964
 20
-3.5949319703
 11
47.8399897636
 21
-3.7437685671
  0
LINE
  5
5EB
100
AcDbEntity
  8
0
100
AcDbLine
 62
7
  6
CONTINUOUS
 10
46.4491135152
 20
-3.5949319703
 11
46.4589794678
 21
-3.7437685671
  0
LINE
  5
5EC
100
AcDbEntity
  8
RACCORDO
100
AcDbLine
 62
7
  6
CONTINUOUS
 10
46.4491135152
 20
-3.5949319703
 11
46.4589794678
 21
-3.7437685671
  0
LINE
  5
5ED
100
AcDbEntity
  8
0
100
AcDbLine
 62
7
  6
CONTINUOUS
 10
46.4453196237
 20
3.0238139974
 11
46.4453196237
 21
-3.0992095396
  0
LINE
  5
5EE
100
AcDbEntity
  8
RACCORDO
100
AcDbLine
 62
7
  6
CONTINUOUS
 10
46.4453196237
 20
3.0238139974
 11
46.4453196237
 21
-3.0992095396
  0
LINE
  5
5EF
100
AcDbEntity
  8
0
100
AcDbLine
 62
7
  6
CONTINUOUS
 10
46.4627733593
 20
44.462363152
 11
46.4627733593
 21
4.1640954555
  0
LINE
  5
5F0
100
AcDbEntity
  8
0
100
AcDbLine
 62
7
  6
CONTINUOUS
 10
46.4627733593
 20
-44.5377586942
 11
46.4627733593
 21
-4.2394909978
  0
LINE
  5
5F1
100
AcDbEntity
  8
RACCORDO
100
AcDbLine
 62
7
  6
CONTINUOUS
 10
46.4627733593
 20
-44.5377586942
 11
46.4627733593
 21
-4.2394909978
  0
LINE
  5
5F2
100
AcDbEntity
  8
RACCORDO
100
AcDbLine
 62
7
  6
CONTINUOUS
 10
46.4627733593
 20
4.1640954555
 11
46.4627733593
 21
44.462363152
  0
LINE
  5
5F3
100
AcDbEntity
  8
RACCORDO
100
AcDbLine
 62
7
  6
CONTINUOUS
 10
47.7579578007
 20
3.0238139974
 11
47.7579578007
 21
-3.0992095396
  0
LINE
  5
5F4
100
AcDbEntity
  8
RACCORDO
100
AcDbLine
 62
7
  6
CONTINUOUS
 10
47.8627733593
 20
44.4623022289
 11
47.8627733593
 21
4.1640954555
  0
LINE
  5
5F5
100
AcDbEntity
  8
RACCORDO
100
AcDbLine
 62
7
  6
CONTINUOUS
 10
47.8627733593
 20
-4.2394909978
 11
47.8627733593
 21
-44.5376977711
  0
LINE
  5
5F6
100
AcDbEntity
  8
0
100
AcDbLine
 62
7
  6
CONTINUOUS
 10
46.4589794678
 20
3.6683730248
 11
46.4491135152
 21
3.5195364281
  0
LINE
  5
5F7
100
AcDbEntity
  8
RACCORDO
100
AcDbLine
 62
7
  6
CONTINUOUS
 10
46.4589794678
 20
3.6683730248
 11
46.4491135152
 21
3.5195364281
  0
LINE
  5
5F8
100
AcDbEntity
  8
0
100
AcDbLine
 62
7
  6
CONTINUOUS
 10
-44.1372875638
 20
46.0623022289
 11
44.8628342824
 21
46.0623022289
  0
LINE
  5
5F9
100
AcDbEntity
  8
RACCORDO
100
AcDbLine
 62
7
  6
CONTINUOUS
 10
44.8628342824
 20
46.0623022289
 11
-44.1372875638
 21
46.0623022289
  0
LINE
  5
5FA
100
AcDbEntity
  8
SUPERFICI
100
AcDbLine
 62
7
  6
CONTINUOUS
 10
-44.1372266407
 20
47.4623022289
 11
44.8627733593
 21
47.4623022289
  0
ARC
  5
5FB
100
AcDbEntity
  8
0
100
AcDbCircle
 62
253
  6
CONTINUOUS
 10
-34.4186044309
 20
-50.139447504
 40
11.0719833484
100
AcDbArc
 50
150.6292122291
 51
150.7673921102
  0
ARC
  5
5FC
100
AcDbEntity
  8
SUPERFICI
100
AcDbCircle
 62
7
  6
CONTINUOUS
 10
-44.1372266407
 20
-44.5376977711
 40
3.0
100
AcDbArc
 50
180.0
 51
270.0
  0
ARC
  5
5FD
100
AcDbEntity
  8
RACCORDO
100
AcDbCircle
 62
253
  6
CONTINUOUS
 10
-22.1372266407
 20
-26.7376977711
 40
0.5456743158
100
AcDbArc
 50
203.5756991753
 51
336.4243008247
  0
ARC
  5
5FE
100
AcDbEntity
  8
0
100
AcDbCircle
 62
7
  6
CONTINUOUS
 10
-33.1872266407
 20
-22.2876977711
 40
0.4
100
AcDbArc
 50
180.0
 51
270.0
  0
ARC
  5
5FF
100
AcDbEntity
  8
RACCORDO
100
AcDbCircle
 62
253
  6
CONTINUOUS
 10
-19.439725475
 20
-26.0037397739
 40
0.3001026633
100
AcDbArc
 50
270.1011545673
 51
359.9755659243
  0
ARC
  5
600
100
AcDbEntity
  8
RACCORDO
100
AcDbCircle
 62
253
  6
CONTINUOUS
 10
-24.8347281731
 20
-26.003740273
 40
0.3001021107
100
AcDbArc
 50
180.0243388376
 51
269.8989152723
  0
ARC
  5
601
100
AcDbEntity
  8
RACCORDO
100
AcDbCircle
 62
7
  6
CONTINUOUS
 10
-44.1372266407
 20
-44.5376977711
 40
0.3
100
AcDbArc
 50
180.0
 51
270.0
  0
ARC
  5
602
100
AcDbEntity
  8
0
100
AcDbCircle
 62
7
  6
CONTINUOUS
 10
-33.1872266407
 20
-22.2876977711
 40
0.3
100
AcDbArc
 50
180.0
 51
270.0
  0
ARC
  5
603
100
AcDbEntity
  8
RACCORDO
100
AcDbCircle
 62
253
  6
CONTINUOUS
 10
-22.1372266407
 20
-26.7376977711
 40
0.295712392
100
AcDbArc
 50
195.0
 51
345.0
  0
ARC
  5
604
100
AcDbEntity
  8
RACCORDO
100
AcDbCircle
 62
253
  6
CONTINUOUS
 10
-22.1372321888
 20
-26.7376879591
 40
0.216123257
100
AcDbArc
 50
195.0028929153
 51
344.9978681011
  0
ARC
  5
605
100
AcDbEntity
  8
0
100
AcDbCircle
 62
7
  6
CONTINUOUS
 10
-44.1372266407
 20
-44.5376977711
 40
0.2
100
AcDbArc
 50
180.0
 51
270.0
  0
ARC
  5
606
100
AcDbEntity
  8
SUPERFICI
100
AcDbCircle
 62
7
  6
CONTINUOUS
 10
-44.1372266407
 20
44.4623022289
 40
3.0
100
AcDbArc
 50
90.0
 51
180.0
  0
ARC
  5
607
100
AcDbEntity
  8
0
100
AcDbCircle
 62
253
  6
CONTINUOUS
 10
-45.0768967909
 20
42.7360739559
 40
1.8523062297
100
AcDbArc
 50
65.0500074733
 51
65.8942644712
  0
ARC
  5
608
100
AcDbEntity
  8
0
100
AcDbCircle
 62
253
  6
CONTINUOUS
 10
-44.9105268686
 20
43.1071135401
 40
1.4456747106
100
AcDbArc
 50
65.906973897
 51
66.6354487653
  0
ARC
  5
609
100
AcDbEntity
  8
RACCORDO
100
AcDbCircle
 62
253
  6
CONTINUOUS
 10
-22.1372266407
 20
26.6623022289
 40
0.5456743158
100
AcDbArc
 50
23.5756991753
 51
156.4243008247
  0
ARC
  5
60A
100
AcDbEntity
  8
0
100
AcDbCircle
 62
7
  6
CONTINUOUS
 10
-33.1872266407
 20
22.2123022289
 40
0.4
100
AcDbArc
 50
90.0
 51
180.0
  0
ARC
  5
60B
100
AcDbEntity
  8
RACCORDO
100
AcDbCircle
 62
253
  6
CONTINUOUS
 10
-24.8347277558
 20
25.928344269
 40
0.3001026633
100
AcDbArc
 50
90.1011642574
 51
179.9755730634
  0
ARC
  5
60C
100
AcDbEntity
  8
RACCORDO
100
AcDbCircle
 62
253
  6
CONTINUOUS
 10
-19.4397250963
 20
25.9283447219
 40
0.3001021107
100
AcDbArc
 50
0.0243405187
 51
89.8989175773
  0
ARC
  5
60D
100
AcDbEntity
  8
RACCORDO
100
AcDbCircle
 62
7
  6
CONTINUOUS
 10
-44.1372266407
 20
44.4623022289
 40
0.3
100
AcDbArc
 50
90.0
 51
180.0
  0
ARC
  5
60E
100
AcDbEntity
  8
0
100
AcDbCircle
 62
7
  6
CONTINUOUS
 10
-33.1872266407
 20
22.2123022289
 40
0.3
100
AcDbArc
 50
90.0
 51
180.0
  0
ARC
  5
60F
100
AcDbEntity
  8
RACCORDO
100
AcDbCircle
 62
253
  6
CONTINUOUS
 10
-22.1372266407
 20
26.6623022289
 40
0.295712392
100
AcDbArc
 50
15.0
 51
165.0
  0
ARC
  5
610
100
AcDbEntity
  8
RACCORDO
100
AcDbCircle
 62
253
  6
CONTINUOUS
 10
-22.1372210926
 20
26.662292417
 40
0.216123257
100
AcDbArc
 50
15.0028928844
 51
164.9978681388
  0
ARC
  5
611
100
AcDbEntity
  8
0
100
AcDbCircle
 62
7
  6
CONTINUOUS
 10
-44.1372266407
 20
44.4623022289
 40
0.2
100
AcDbArc
 50
90.0
 51
180.0
  0
ARC
  5
612
100
AcDbEntity
  8
SUPERFICI
100
AcDbCircle
 62
7
  6
CONTINUOUS
 10
44.8627733593
 20
-44.5376977711
 40
3.0
100
AcDbArc
 50
270.0
 51
360.0
  0
ARC
  5
613
100
AcDbEntity
  8
0
100
AcDbCircle
 62
253
  6
CONTINUOUS
 10
45.8068489706
 20
-42.8024056328
 40
1.8623063048
100
AcDbArc
 50
245.0377647415
 51
245.8785006352
  0
ARC
  5
614
100
AcDbEntity
  8
0
100
AcDbCircle
 62
253
  6
CONTINUOUS
 10
45.6392068714
 20
-43.1760228764
 40
1.452802227
100
AcDbArc
 50
245.8909818717
 51
246.6222967872
  0
ARC
  5
615
100
AcDbEntity
  8
RACCORDO
100
AcDbCircle
 62
253
  6
CONTINUOUS
 10
22.8627733593
 20
-26.7376977711
 40
0.5456743158
100
AcDbArc
 50
203.5756991753
 51
336.4243008247
  0
ARC
  5
616
100
AcDbEntity
  8
0
100
AcDbCircle
 62
7
  6
CONTINUOUS
 10
33.9127733593
 20
-22.2876977711
 40
0.4
100
AcDbArc
 50
270.0
 51
360.0
  0
ARC
  5
617
100
AcDbEntity
  8
RACCORDO
100
AcDbCircle
 62
253
  6
CONTINUOUS
 10
25.560274525
 20
-26.0037397739
 40
0.3001026633
100
AcDbArc
 50
270.1011545673
 51
359.9755659243
  0
ARC
  5
618
100
AcDbEntity
  8
RACCORDO
100
AcDbCircle
 62
253
  6
CONTINUOUS
 10
20.1652718269
 20
-26.003740273
 40
0.3001021107
100
AcDbArc
 50
180.0243388376
 51
269.8989152723
  0
ARC
  5
619
100
AcDbEntity
  8
RACCORDO
100
AcDbCircle
 62
7
  6
CONTINUOUS
 10
44.8627733593
 20
-44.5376977711
 40
0.3
100
AcDbArc
 50
270.0
 51
360.0
  0
ARC
  5
61A
100
AcDbEntity
  8
0
100
AcDbCircle
 62
7
  6
CONTINUOUS
 10
33.9127733593
 20
-22.2876977711
 40
0.3
100
AcDbArc
 50
270.0
 51
360.0
  0
ARC
  5
61B
100
AcDbEntity
  8
RACCORDO
100
AcDbCircle
 62
253
  6
CONTINUOUS
 10
22.8627733593
 20
-26.7376977711
 40
0.295712392
100
AcDbArc
 50
195.0
 51
345.0
  0
ARC
  5
61C
100
AcDbEntity
  8
RACCORDO
100
AcDbCircle
 62
253
  6
CONTINUOUS
 10
22.8627678112
 20
-26.7376879591
 40
0.216123257
100
AcDbArc
 50
195.0028929153
 51
344.9978681011
  0
ARC
  5
61D
100
AcDbEntity
  8
0
100
AcDbCircle
 62
7
  6
CONTINUOUS
 10
44.8627733593
 20
-44.5376977711
 40
0.2
100
AcDbArc
 50
270.0
 51
360.0
  0
ARC
  5
61E
100
AcDbEntity
  8
0
100
AcDbCircle
 62
253
  6
CONTINUOUS
 10
35.3957633824
 20
49.9193081441
 40
10.7817630707
100
AcDbArc
 50
330.6435860135
 51
330.7853957016
  0
ARC
  5
61F
100
AcDbEntity
  8
SUPERFICI
100
AcDbCircle
 62
7
  6
CONTINUOUS
 10
44.8627733593
 20
44.4623022289
 40
3.0
100
AcDbArc
 50
0.0
 51
90.0
  0
ARC
  5
620
100
AcDbEntity
  8
RACCORDO
100
AcDbCircle
 62
253
  6
CONTINUOUS
 10
22.8627733593
 20
26.6623022289
 40
0.5456743158
100
AcDbArc
 50
23.5756991753
 51
156.4243008247
  0
ARC
  5
621
100
AcDbEntity
  8
0
100
AcDbCircle
 62
7
  6
CONTINUOUS
 10
33.9127733593
 20
22.2123022289
 40
0.4
100
AcDbArc
 50
0.0
 51
90.0
  0
ARC
  5
622
100
AcDbEntity
  8
RACCORDO
100
AcDbCircle
 62
253
  6
CONTINUOUS
 10
20.1652722442
 20
25.928344269
 40
0.3001026633
100
AcDbArc
 50
90.1011642574
 51
179.9755730634
  0
ARC
  5
623
100
AcDbEntity
  8
RACCORDO
100
AcDbCircle
 62
253
  6
CONTINUOUS
 10
25.5602749037
 20
25.9283447219
 40
0.3001021107
100
AcDbArc
 50
0.0243405187
 51
89.8989175773
  0
ARC
  5
624
100
AcDbEntity
  8
RACCORDO
100
AcDbCircle
 62
7
  6
CONTINUOUS
 10
44.8627733593
 20
44.4623022289
 40
0.3
100
AcDbArc
 50
0.0
 51
90.0
  0
ARC
  5
625
100
AcDbEntity
  8
0
100
AcDbCircle
 62
7
  6
CONTINUOUS
 10
33.9127733593
 20
22.2123022289
 40
0.3
100
AcDbArc
 50
0.0
 51
90.0
  0
ARC
  5
626
100
AcDbEntity
  8
RACCORDO
100
AcDbCircle
 62
253
  6
CONTINUOUS
 10
22.8627733593
 20
26.6623022289
 40
0.295712392
100
AcDbArc
 50
15.0
 51
165.0
  0
ARC
  5
627
100
AcDbEntity
  8
RACCORDO
100
AcDbCircle
 62
253
  6
CONTINUOUS
 10
22.8627789074
 20
26.662292417
 40
0.216123257
100
AcDbArc
 50
15.0028928841
 51
164.9978681391
  0
ARC
  5
628
100
AcDbEntity
  8
0
100
AcDbCircle
 62
7
  6
CONTINUOUS
 10
44.8627733593
 20
44.4623022289
 40
0.2
100
AcDbArc
 50
0.0
 51
90.0
  0
SPLINE
  5
629
100
AcDbEntity
  8
0
100
AcDbSpline
 62
7
  6
CONTINUOUS
 70
0
 71
3
 72
9
 73
5
 74
3
 42
0.0000001
 43
0.0000001
 44
0.0000000001
 12
-0.1132130256
 22
0.3012808111
 32
0.0
 13
-0.3218129842
 23
0.0
 33
0.0
 40
0.0
 40
0.0
 40
0.0
 40
0.0
 40
0.6439295071
 40
1.0
 40
1.0
 40
1.0
 40
1.0
 10
-18.2156724045
 20
31.583995433
 30
0.0
 10
-18.2399728071
 20
31.6486633011
 30
0.0
 10
-18.3121360198
 20
31.7457639849
 30
0.0
 10
-18.4219675305
 20
31.7688827419
 30
0.0
 10
-18.4601635665
 20
31.7688827419
 30
0.0
 11
-18.2156724045
 21
31.583995433
 31
0.0
 11
-18.3485278304
 21
31.7430390404
 31
0.0
 11
-18.4601635665
 21
31.7688827419
 31
0.0
  0
SPLINE
  5
62A
100
AcDbEntity
  8
0
100
AcDbSpline
 62
7
  6
CONTINUOUS
 70
0
 71
3
 72
9
 73
5
 74
3
 42
0.0000001
 43
0.0000001
 44
0.0000000001
 12
1.0774730544
 22
0.1585146335
 32
0.0
 13
1.0242753953
 23
-0.3700472763
 33
0.0
 40
0.0
 40
0.0
 40
0.0
 40
0.0
 40
0.7042582166
 40
1.0
 40
1.0
 40
1.0
 40
1.0
 10
-19.1317297647
 20
33.0224183912
 30
0.0
 10
-18.8787900141
 20
33.0596301355
 30
0.0
 10
-18.5139469845
 20
33.0962537199
 30
0.0
 10
-18.1510077402
 20
33.0367899924
 30
0.0
 10
-18.0500340629
 20
33.0003105119
 30
0.0
 11
-19.1317297647
 21
33.0224183912
 31
0.0
 11
-18.3658468501
 21
33.063557706
 31
0.0
 11
-18.0500340629
 21
33.0003105119
 31
0.0
  0
SPLINE
  5
62B
100
AcDbEntity
  8
0
100
AcDbSpline
 62
7
  6
CONTINUOUS
 70
0
 71
3
 72
17
 73
13
 74
11
 42
0.0000001
 43
0.0000001
 44
0.0000000001
 12
1.2305868136
 22
-0.4439385397
 32
0.0
 13
-1.2974582446
 23
-0.167413967
 33
0.0
 40
0.0
 40
0.0
 40
0.0
 40
0.0
 40
0.0799595168
 40
0.1896577306
 40
0.3223977561
 40
0.3986068941
 40
0.483386777
 40
0.5877249163
 40
0.678993766
 40
0.8312459613
 40
0.9440219048
 40
1.0
 40
1.0
 40
1.0
 40
1.0
 10
-18.0500340629
 20
33.0003105119
 30
0.0
 10
-18.0172350205
 20
32.9884781416
 30
0.0
 10
-17.9439923537
 20
32.9480821838
 30
0.0
 10
-17.8374672068
 20
32.854419268
 30
0.0
 10
-17.7620203106
 20
32.7346497417
 30
0.0
 10
-17.7218506217
 20
32.612438658
 30
0.0
 10
-17.7052766202
 20
32.497424906
 30
0.0
 10
-17.7084215256
 20
32.3742827744
 30
0.0
 10
-17.7418964852
 20
32.225915029
 30
0.0
 10
-17.8170405517
 20
32.0836949388
 30
0.0
 10
-17.9190942369
 20
31.9913049197
 30
0.0
 10
-17.9806322834
 20
31.9428387611
 30
0.0
 10
-18.0048420305
 20
31.9397149228
 30
0.0
 11
-18.0500340629
 21
33.0003105119
 31
0.0
 11
-17.9573569355
 21
32.9518028881
 31
0.0
 11
-17.8497286462
 21
32.8568769848
 31
0.0
 11
-17.7570692335
 21
32.7100117369
 31
0.0
 11
-17.7257028679
 21
32.6153765259
 31
0.0
 11
-17.7092987358
 21
32.5056860795
 31
0.0
 11
-17.7132996011
 21
32.3692480541
 31
0.0
 11
-17.7399504877
 21
32.2528611636
 31
0.0
 11
-17.8347263086
 21
32.0776765924
 31
0.0
 11
-17.9406741668
 21
31.9750039755
 31
0.0
 11
-18.0048420305
 21
31.9397149228
 31
0.0
  0
SPLINE
  5
62C
100
AcDbEntity
  8
0
100
AcDbSpline
 62
7
  6
CONTINUOUS
 70
0
 71
3
 72
8
 73
4
 74
2
 42
0.0000001
 43
0.0000001
 44
0.0000000001
 12
0.049709446
 22
-0.0198216416
 32
0.0
 13
0.043868587
 23
-0.0297144645
 33
0.0
 40
0.0
 40
0.0
 40
0.0
 40
0.0
 40
1.0
 40
1.0
 40
1.0
 40
1.0
 10
-18.0048420305
 20
31.9273067968
 30
0.0
 10
-17.9882722152
 20
31.920699583
 30
0.0
 10
-17.9727067349
 20
31.9122966684
 30
0.0
 10
-17.9580838726
 20
31.9023918469
 30
0.0
 11
-18.0048420305
 21
31.9273067968
 31
0.0
 11
-17.9580838726
 21
31.9023918469
 31
0.0
  0
SPLINE
  5
62D
100
AcDbEntity
  8
0
100
AcDbSpline
 62
7
  6
CONTINUOUS
 70
0
 71
3
 72
9
 73
5
 74
3
 42
0.0000001
 43
0.0000001
 44
0.0000000001
 12
0.3569647348
 22
-0.24179069
 32
0.0
 13
0.1144686198
 23
-0.4201585592
 33
0.0
 40
0.0
 40
0.0
 40
0.0
 40
0.0
 40
0.7274391404
 40
1.0
 40
1.0
 40
1.0
 40
1.0
 10
-17.9580838726
 20
31.9023918469
 30
0.0
 10
-17.8715271659
 20
31.8437625097
 30
0.0
 10
-17.7979409956
 20
31.6908248612
 30
0.0
 10
-17.7625794301
 20
31.5535888686
 30
0.0
 10
-17.7521795416
 20
31.5154159426
 30
0.0
 11
-17.9580838726
 21
31.9023918469
 31
0.0
 11
-17.7846954712
 21
31.6295656558
 31
0.0
 11
-17.7521795416
 21
31.5154159426
 31
0.0
  0
SPLINE
  5
62E
100
AcDbEntity
  8
0
100
AcDbSpline
 62
7
  6
CONTINUOUS
 70
0
 71
3
 72
9
 73
5
 74
3
 42
0.0000001
 43
0.0000001
 44
0.0000000001
 12
0.1544853249
 22
-0.5670404436
 32
0.0
 13
0.1540395169
 23
-0.5671617206
 33
0.0
 40
0.0
 40
0.0
 40
0.0
 40
0.0
 40
0.8019701141
 40
1.0
 40
1.0
 40
1.0
 40
1.0
 10
-17.7521795413
 20
31.5154159427
 30
0.0
 10
-17.7108820034
 20
31.3638327796
 30
0.0
 10
-17.6622822036
 20
31.1740450049
 30
0.0
 10
-17.6125176506
 20
30.9845661548
 30
0.0
 10
-17.602349508
 20
30.9471278311
 30
0.0
 11
-17.7521795413
 21
31.5154159427
 31
0.0
 11
-17.6321817114
 21
31.0596232197
 31
0.0
 11
-17.602349508
 21
30.9471278311
 31
0.0
  0
SPLINE
  5
62F
100
AcDbEntity
  8
0
100
AcDbSpline
 62
7
  6
CONTINUOUS
 70
0
 71
3
 72
9
 73
5
 74
3
 42
0.0000001
 43
0.0000001
 44
0.0000000001
 12
-0.1837796054
 22
0.6392244822
 32
0.0
 13
-0.2339605217
 23
0.6226131668
 33
0.0
 40
0.0
 40
0.0
 40
0.0
 40
0.0
 40
0.4412847755
 40
1.0
 40
1.0
 40
1.0
 40
1.0
 10
-18.0239581027
 20
30.9471278311
 30
0.0
 10
-18.05099115
 20
31.0411545085
 30
0.0
 10
-18.1148209506
 20
31.2533558627
 30
0.0
 10
-18.1720999924
 20
31.4680409393
 30
0.0
 10
-18.2156724275
 20
31.5839954244
 30
0.0
 11
-18.0239581027
 21
30.9471278311
 31
0.0
 11
-18.1060497445
 21
31.2289206233
 31
0.0
 11
-18.2156724275
 21
31.5839954244
 31
0.0
  0
SPLINE
  5
630
100
AcDbEntity
  8
0
100
AcDbSpline
 62
7
  6
CONTINUOUS
 70
0
 71
3
 72
9
 73
5
 74
3
 42
0.0000001
 43
0.0000001
 44
0.0000000001
 12
0.5228454585
 22
0.0116781342
 32
0.0
 13
-0.0078143898
 23
0.5230045962
 33
0.0
 40
0.0
 40
0.0
 40
0.0
 40
0.0
 40
0.4795375523
 40
1.0
 40
1.0
 40
1.0
 40
1.0
 10
-18.4592187853
 20
32.1127830858
 30
0.0
 10
-18.3756441082
 20
32.1146497871
 30
0.0
 10
-18.1815280817
 20
32.1500059736
 30
0.0
 10
-18.1173770766
 20
32.3481871762
 30
0.0
 10
-18.1187327754
 20
32.4389219269
 30
0.0
 11
-18.4592187853
 21
32.1127830858
 31
0.0
 11
-18.2193585305
 21
32.1860016578
 31
0.0
 11
-18.1187327754
 21
32.4389219269
 31
0.0
  0
SPLINE
  5
631
100
AcDbEntity
  8
0
100
AcDbSpline
 62
7
  6
CONTINUOUS
 70
0
 71
3
 72
9
 73
5
 74
3
 42
0.0000001
 43
0.0000001
 44
0.0000000001
 12
-0.0057837333
 22
0.3870931643
 32
0.0
 13
-0.3845845071
 23
0.0446357932
 33
0.0
 40
0.0
 40
0.0
 40
0.0
 40
0.0
 40
0.4988583639
 40
1.0
 40
1.0
 40
1.0
 40
1.0
 10
-18.1187327572
 20
32.4389219272
 30
0.0
 10
-18.1196945118
 20
32.5032901481
 30
0.0
 10
-18.1721011285
 20
32.6375340018
 30
0.0
 10
-18.3020984093
 20
32.694131461
 30
0.0
 10
-18.366342179
 20
32.7015877458
 30
0.0
 11
-18.1187327572
 21
32.4389219272
 31
0.0
 11
-18.1912906568
 21
32.6179044306
 31
0.0
 11
-18.366342179
 21
32.7015877458
 31
0.0
  0
SPLINE
  5
632
100
AcDbEntity
  8
0
100
AcDbSpline
 62
7
  6
CONTINUOUS
 70
0
 71
3
 72
9
 73
5
 74
3
 42
0.0000001
 43
0.0000001
 44
0.0000000001
 12
-0.3420189444
 22
0.0396955319
 32
0.0
 13
-0.339408973
 23
-0.0579148604
 33
0.0
 40
0.0
 40
0.0
 40
0.0
 40
0.0
 40
0.729595832
 40
1.0
 40
1.0
 40
1.0
 40
1.0
 10
-18.366342179
 20
32.7015877457
 30
0.0
 10
-18.4495207111
 20
32.7112416439
 30
0.0
 10
-18.565628936
 20
32.7116137724
 30
0.0
 10
-18.6791192311
 20
32.694445707
 30
0.0
 10
-18.7097117648
 20
32.6892255671
 30
0.0
 11
-18.366342179
 21
32.7015877457
 31
0.0
 11
-18.6175513146
 21
32.7024478287
 31
0.0
 11
-18.7097117648
 21
32.6892255671
 31
0.0
  0
SPLINE
  5
633
100
AcDbEntity
  8
0
100
AcDbSpline
 62
7
  6
CONTINUOUS
 70
0
 71
3
 72
15
 73
11
 74
9
 42
0.0000001
 43
0.0000001
 44
0.0000000001
 12
1.1709909947
 22
-0.0053760285
 32
0.0
 13
-0.0201883206
 23
-1.1708292972
 33
0.0
 40
0.0
 40
0.0
 40
0.0
 40
0.0
 40
0.1618114576
 40
0.3162251443
 40
0.4295257688
 40
0.5447398301
 40
0.6658075644
 40
0.7939188568
 40
0.8850706895
 40
1.0
 40
1.0
 40
1.0
 40
1.0
 10
-27.5737821854
 20
-31.0376977711
 30
0.0
 10
-27.5106222655
 20
-31.0379877388
 30
0.0
 10
-27.3866995632
 20
-31.0539821688
 30
0.0
 10
-27.2299056035
 20
-31.1215280176
 30
0.0
 10
-27.1158120181
 20
-31.2196802372
 30
0.0
 10
-27.0276926282
 20
-31.325315144
 30
0.0
 10
-26.9677486073
 20
-31.4555070782
 30
0.0
 10
-26.9281748675
 20
-31.5827660438
 30
0.0
 10
-26.90966203
 20
-31.7122592155
 30
0.0
 10
-26.9075702541
 20
-31.7928435699
 30
0.0
 10
-26.908343664
 20
-31.8376977711
 30
0.0
 11
-27.5737821854
 21
-31.0376977711
 31
0.0
 11
-27.3860229529
 21
-31.0631890772
 31
0.0
 11
-27.2208729327
 21
-31.1368162507
 31
0.0
 11
-27.1189594673
 21
-31.2217657048
 31
0.0
 11
-27.0340876516
 21
-31.3266423728
 31
0.0
 11
-26.9717439396
 21
-31.4539695059
 31
0.0
 11
-26.9284345987
 21
-31.597600723
 31
0.0
 11
-26.9128033815
 21
-31.7031890772
 31
0.0
 11
-26.908343664
 21
-31.8376977711
 31
0.0
  0
SPLINE
  5
634
100
AcDbEntity
  8
0
100
AcDbSpline
 62
7
  6
CONTINUOUS
 70
0
 71
3
 72
15
 73
11
 74
9
 42
0.0000001
 43
0.0000001
 44
0.0000000001
 12
0.0203045734
 22
-1.1775714245
 32
0.0
 13
-1.1777340437
 23
0.0054090463
 33
0.0
 40
0.0
 40
0.0
 40
0.0
 40
0.0
 40
0.1142712884
 40
0.2049012357
 40
0.3322790332
 40
0.4526536001
 40
0.567208009
 40
0.6798599363
 40
0.8333895351
 40
1.0
 40
1.0
 40
1.0
 40
1.0
 10
-26.908343664
 20
-31.8376977711
 30
0.0
 10
-26.9075702541
 20
-31.8825519724
 30
0.0
 10
-26.9096620264
 20
-31.963136325
 30
0.0
 10
-26.928174879
 20
-32.0926295041
 30
0.0
 10
-26.9677485462
 20
-32.2198884343
 30
0.0
 10
-27.0276928359
 20
-32.3500804994
 30
0.0
 10
-27.1158112887
 20
-32.4557149499
 30
0.0
 10
-27.2299086895
 20
-32.5538690274
 30
0.0
 10
-27.3887847428
 20
-32.6223107081
 30
0.0
 10
-27.5151774177
 20
-32.6379981724
 30
0.0
 10
-27.5805850233
 20
-32.6376977711
 30
0.0
 11
-26.908343664
 21
-31.8376977711
 31
0.0
 11
-26.9128033815
 21
-31.972206465
 31
0.0
 11
-26.9284345987
 21
-32.0777948193
 31
0.0
 11
-26.9717439396
 21
-32.2214260364
 31
0.0
 11
-27.0340876516
 21
-32.3487531694
 31
0.0
 11
-27.1189594673
 21
-32.4536298375
 31
0.0
 11
-27.2208729327
 21
-32.5385792916
 31
0.0
 11
-27.3860229529
 21
-32.612206465
 31
0.0
 11
-27.5805850233
 21
-32.6376977711
 31
0.0
  0
SPLINE
  5
635
100
AcDbEntity
  8
0
100
AcDbSpline
 62
7
  6
CONTINUOUS
 70
0
 71
3
 72
14
 73
10
 74
8
 42
0.0000001
 43
0.0000001
 44
0.0000000001
 12
0.8585231288
 22
0.0211484431
 32
0.0
 13
-0.023164246
 23
0.8584711585
 33
0.0
 40
0.0
 40
0.0
 40
0.0
 40
0.0
 40
0.1344155447
 40
0.2464883149
 40
0.3932283285
 40
0.5898669358
 40
0.7257739058
 40
0.8770581867
 40
1.0
 40
1.0
 40
1.0
 40
1.0
 10
-27.586086543
 20
-32.4527887711
 30
0.0
 10
-27.5476202583
 20
-32.4518412113
 30
0.0
 10
-27.4769296301
 20
-32.4415135515
 30
0.0
 10
-27.3715700267
 20
-32.3996105938
 30
0.0
 10
-27.2657030487
 20
-32.3200112508
 30
0.0
 10
-27.1896641593
 20
-32.2013602048
 30
0.0
 10
-27.1513197161
 20
-32.0677252349
 30
0.0
 10
-27.1325117574
 20
-31.9515539084
 30
0.0
 10
-27.1298045914
 20
-31.8728784381
 30
0.0
 10
-27.1307538762
 20
-31.8376977711
 30
0.0
 11
-27.586086543
 21
-32.4527887711
 31
0.0
 11
-27.471904069
 21
-32.4358376822
 31
0.0
 11
-27.3825809796
 21
-32.3999945766
 31
0.0
 11
-27.2819291397
 21
-32.3241676458
 31
0.0
 11
-27.1892611252
 21
-32.182994981
 31
0.0
 11
-27.1546861151
 21
-32.0715190408
 31
0.0
 11
-27.1342154317
 21
-31.9432214266
 31
0.0
 11
-27.1307538762
 21
-31.8376977711
 31
0.0
  0
SPLINE
  5
636
100
AcDbEntity
  8
0
100
AcDbSpline
 62
7
  6
CONTINUOUS
 70
0
 71
3
 72
14
 73
10
 74
8
 42
0.0000001
 43
0.0000001
 44
0.0000000001
 12
0.023164246
 22
0.8584711585
 32
0.0
 13
-0.8585231288
 23
0.0211484431
 33
0.0
 40
0.0
 40
0.0
 40
0.0
 40
0.0
 40
0.1229418133
 40
0.2742260942
 40
0.4101330642
 40
0.6067716715
 40
0.7535116851
 40
0.8655844553
 40
1.0
 40
1.0
 40
1.0
 40
1.0
 10
-27.1307538762
 20
-31.8376977711
 30
0.0
 10
-27.1298045914
 20
-31.8025171042
 30
0.0
 10
-27.1325117574
 20
-31.7238416339
 30
0.0
 10
-27.1513197161
 20
-31.6076703074
 30
0.0
 10
-27.1896641593
 20
-31.4740353375
 30
0.0
 10
-27.2657030487
 20
-31.3553842915
 30
0.0
 10
-27.3715700267
 20
-31.2757849485
 30
0.0
 10
-27.4769296301
 20
-31.2338819908
 30
0.0
 10
-27.5476202583
 20
-31.223554331
 30
0.0
 10
-27.586086543
 20
-31.2226067711
 30
0.0
 11
-27.1307538762
 21
-31.8376977711
 31
0.0
 11
-27.1342154317
 21
-31.7321741157
 31
0.0
 11
-27.1546861151
 21
-31.6038765014
 31
0.0
 11
-27.1892611252
 21
-31.4924005613
 31
0.0
 11
-27.2819291397
 21
-31.3512278965
 31
0.0
 11
-27.3825809796
 21
-31.2754009656
 31
0.0
 11
-27.471904069
 21
-31.2395578601
 31
0.0
 11
-27.586086543
 21
-31.2226067711
 31
0.0
  0
SPLINE
  5
637
100
AcDbEntity
  8
RACCORDO
100
AcDbSpline
 62
253
  6
CONTINUOUS
 70
0
 71
3
 72
14
 73
10
 74
8
 42
0.0000001
 43
0.0000001
 44
0.0000000001
 12
-0.0000122066
 22
0.8642516404
 32
0.0
 13
-0.8642516404
 23
-0.0000065623
 33
0.0
 40
0.0
 40
0.0
 40
0.0
 40
0.0
 40
0.1476912798
 40
0.2934866987
 40
0.4373731499
 40
0.5793940933
 40
0.7198993081
 40
0.8596879951
 40
1.0
 40
1.0
 40
1.0
 40
1.0
 10
-18.6499854991
 20
26.3227285437
 30
0.0
 10
-18.6499861
 20
26.3652760207
 30
0.0
 10
-18.6593949291
 20
26.4501290804
 30
0.0
 10
-18.7008691621
 20
26.5701604664
 30
0.0
 10
-18.767012992
 20
26.6767196683
 30
0.0
 10
-18.8540993474
 20
26.7648155808
 30
0.0
 10
-18.9576792157
 20
26.8306092039
 30
0.0
 10
-19.072840601
 20
26.8713598291
 30
0.0
 10
-19.1538346107
 20
26.8805506208
 30
0.0
 10
-19.1942562375
 20
26.8805503138
 30
0.0
 11
-18.6499854991
 21
26.3227285437
 31
0.0
 11
-18.6641207151
 21
26.4495858881
 31
0.0
 11
-18.7053347562
 21
26.5686589462
 31
0.0
 11
-18.7709928863
 21
26.6742664862
 31
0.0
 11
-18.8573385728
 21
26.761501686
 31
0.0
 11
-18.9598645169
 21
26.8265718633
 31
0.0
 11
-19.0737689968
 21
26.8668391489
 31
0.0
 11
-19.1942562375
 21
26.8805503138
 31
0.0
  0
SPLINE
  5
638
100
AcDbEntity
  8
RACCORDO
100
AcDbSpline
 62
253
  6
CONTINUOUS
 70
0
 71
3
 72
14
 73
10
 74
8
 42
0.0000001
 43
0.0000001
 44
0.0000000001
 12
-0.8642516605
 22
0.0000020915
 32
0.0
 13
-0.0000123685
 23
-0.8642516604
 33
0.0
 40
0.0
 40
0.0
 40
0.0
 40
0.0
 40
0.1402796625
 40
0.280046936
 40
0.4205793772
 40
0.5625916487
 40
0.7064951784
 40
0.8523005072
 40
1.0
 40
1.0
 40
1.0
 40
1.0
 10
-25.080197044
 20
26.8805503138
 30
0.0
 10
-25.1206093544
 20
26.8805504116
 30
0.0
 10
-25.2015876664
 20
26.8713637809
 30
0.0
 10
-25.3167443814
 20
26.8306239809
 30
0.0
 10
-25.4203281786
 20
26.7648371405
 30
0.0
 10
-25.5074260402
 20
26.676738338
 30
0.0
 10
-25.5735771855
 20
26.5701770386
 30
0.0
 10
-25.6150572675
 20
26.4501367326
 30
0.0
 10
-25.6244671735
 20
26.3652783877
 30
0.0
 10
-25.6244677824
 20
26.3227285437
 30
0.0
 11
-25.080197044
 21
26.8805503138
 31
0.0
 11
-25.2006568725
 21
26.8668454532
 31
0.0
 11
-25.3145467428
 21
26.826592359
 31
0.0
 11
-25.4170967454
 21
26.7615161721
 31
0.0
 11
-25.5034414507
 21
26.6742905425
 31
0.0
 11
-25.5691117318
 21
26.5686731735
 31
0.0
 11
-25.6103310008
 21
26.4495928586
 31
0.0
 11
-25.6244677824
 21
26.3227285437
 31
0.0
  0
SPLINE
  5
639
100
AcDbEntity
  8
RACCORDO
100
AcDbSpline
 62
253
  6
CONTINUOUS
 70
0
 71
3
 72
14
 73
10
 74
8
 42
0.0000001
 43
0.0000001
 44
0.0000000001
 12
-0.0000122066
 22
0.8642516404
 32
0.0
 13
-0.8642516404
 23
-0.0000065623
 33
0.0
 40
0.0
 40
0.0
 40
0.0
 40
0.0
 40
0.1476912798
 40
0.2934866987
 40
0.4373731499
 40
0.5793940933
 40
0.7198993081
 40
0.8596879951
 40
1.0
 40
1.0
 40
1.0
 40
1.0
 10
26.3500145009
 20
26.3227285437
 30
0.0
 10
26.3500139
 20
26.3652760207
 30
0.0
 10
26.3406050709
 20
26.4501290804
 30
0.0
 10
26.2991308379
 20
26.5701604664
 30
0.0
 10
26.232987008
 20
26.6767196683
 30
0.0
 10
26.1459006526
 20
26.7648155808
 30
0.0
 10
26.0423207843
 20
26.8306092039
 30
0.0
 10
25.927159399
 20
26.8713598291
 30
0.0
 10
25.8461653893
 20
26.8805506208
 30
0.0
 10
25.8057437625
 20
26.8805503138
 30
0.0
 11
26.3500145009
 21
26.3227285437
 31
0.0
 11
26.3358792849
 21
26.4495858881
 31
0.0
 11
26.2946652438
 21
26.5686589462
 31
0.0
 11
26.2290071137
 21
26.6742664862
 31
0.0
 11
26.1426614272
 21
26.761501686
 31
0.0
 11
26.0401354831
 21
26.8265718633
 31
0.0
 11
25.9262310032
 21
26.8668391489
 31
0.0
 11
25.8057437625
 21
26.8805503138
 31
0.0
  0
SPLINE
  5
63A
100
AcDbEntity
  8
RACCORDO
100
AcDbSpline
 62
253
  6
CONTINUOUS
 70
0
 71
3
 72
14
 73
10
 74
8
 42
0.0000001
 43
0.0000001
 44
0.0000000001
 12
-0.8642516605
 22
0.0000020915
 32
0.0
 13
-0.0000123685
 23
-0.8642516604
 33
0.0
 40
0.0
 40
0.0
 40
0.0
 40
0.0
 40
0.1402796625
 40
0.280046936
 40
0.4205793772
 40
0.5625916487
 40
0.7064951784
 40
0.8523005072
 40
1.0
 40
1.0
 40
1.0
 40
1.0
 10
19.919802956
 20
26.8805503138
 30
0.0
 10
19.8793906456
 20
26.8805504116
 30
0.0
 10
19.7984123336
 20
26.8713637809
 30
0.0
 10
19.6832556186
 20
26.8306239809
 30
0.0
 10
19.5796718214
 20
26.7648371405
 30
0.0
 10
19.4925739598
 20
26.676738338
 30
0.0
 10
19.4264228145
 20
26.5701770386
 30
0.0
 10
19.3849427325
 20
26.4501367326
 30
0.0
 10
19.3755328265
 20
26.3652783877
 30
0.0
 10
19.3755322176
 20
26.3227285437
 30
0.0
 11
19.919802956
 21
26.8805503138
 31
0.0
 11
19.7993431275
 21
26.8668454532
 31
0.0
 11
19.6854532572
 21
26.826592359
 31
0.0
 11
19.5829032546
 21
26.7615161721
 31
0.0
 11
19.4965585493
 21
26.6742905425
 31
0.0
 11
19.4308882682
 21
26.5686731735
 31
0.0
 11
19.3896689992
 21
26.4495928586
 31
0.0
 11
19.3755322176
 21
26.3227285437
 31
0.0
  0
SPLINE
  5
63B
100
AcDbEntity
  8
RACCORDO
100
AcDbSpline
 62
253
  6
CONTINUOUS
 70
0
 71
3
 72
14
 73
10
 74
8
 42
0.0000001
 43
0.0000001
 44
0.0000000001
 12
0.0000122066
 22
-0.8642516404
 32
0.0
 13
0.8642516404
 23
0.0000065623
 33
0.0
 40
0.0
 40
0.0
 40
0.0
 40
0.0
 40
0.1476912798
 40
0.2934866987
 40
0.4373731499
 40
0.5793940933
 40
0.7198993081
 40
0.8596879951
 40
1.0
 40
1.0
 40
1.0
 40
1.0
 10
19.3755322176
 20
-26.398124086
 30
0.0
 10
19.3755328185
 20
-26.4406715629
 30
0.0
 10
19.3849416476
 20
-26.5255246227
 30
0.0
 10
19.4264158806
 20
-26.6455560086
 30
0.0
 10
19.4925597106
 20
-26.7521152106
 30
0.0
 10
19.5796460659
 20
-26.840211123
 30
0.0
 10
19.6832259343
 20
-26.9060047461
 30
0.0
 10
19.7983873196
 20
-26.9467553714
 30
0.0
 10
19.8793813292
 20
-26.955946163
 30
0.0
 10
19.919802956
 20
-26.9559458561
 30
0.0
 11
19.3755322176
 21
-26.398124086
 31
0.0
 11
19.3896674337
 21
-26.5249814304
 31
0.0
 11
19.4308814747
 21
-26.6440544885
 31
0.0
 11
19.4965396048
 21
-26.7496620285
 31
0.0
 11
19.5828852913
 21
-26.8368972282
 31
0.0
 11
19.6854112354
 21
-26.9019674056
 31
0.0
 11
19.7993157153
 21
-26.9422346912
 31
0.0
 11
19.919802956
 21
-26.9559458561
 31
0.0
  0
SPLINE
  5
63C
100
AcDbEntity
  8
RACCORDO
100
AcDbSpline
 62
253
  6
CONTINUOUS
 70
0
 71
3
 72
14
 73
10
 74
8
 42
0.0000001
 43
0.0000001
 44
0.0000000001
 12
0.8642516605
 22
-0.0000020915
 32
0.0
 13
0.0000123685
 23
0.8642516604
 33
0.0
 40
0.0
 40
0.0
 40
0.0
 40
0.0
 40
0.1402796625
 40
0.280046936
 40
0.4205793772
 40
0.5625916487
 40
0.7064951784
 40
0.8523005072
 40
1.0
 40
1.0
 40
1.0
 40
1.0
 10
25.8057437625
 20
-26.9559458561
 30
0.0
 10
25.8461560729
 20
-26.9559459539
 30
0.0
 10
25.9271343849
 20
-26.9467593232
 30
0.0
 10
26.0422910999
 20
-26.9060195232
 30
0.0
 10
26.1458748972
 20
-26.8402326828
 30
0.0
 10
26.2329727587
 20
-26.7521338803
 30
0.0
 10
26.2991239041
 20
-26.6455725809
 30
0.0
 10
26.340603986
 20
-26.5255322749
 30
0.0
 10
26.350013892
 20
-26.4406739299
 30
0.0
 10
26.3500145009
 20
-26.398124086
 30
0.0
 11
25.8057437625
 21
-26.9559458561
 31
0.0
 11
25.9262035911
 21
-26.9422409955
 31
0.0
 11
26.0400934614
 21
-26.9019879013
 31
0.0
 11
26.142643464
 21
-26.8369117144
 31
0.0
 11
26.2289881692
 21
-26.7496860848
 31
0.0
 11
26.2946584504
 21
-26.6440687158
 31
0.0
 11
26.3358777193
 21
-26.5249884009
 31
0.0
 11
26.3500145009
 21
-26.398124086
 31
0.0
  0
SPLINE
  5
63D
100
AcDbEntity
  8
RACCORDO
100
AcDbSpline
 62
253
  6
CONTINUOUS
 70
0
 71
3
 72
98
 73
94
 74
92
 42
0.0000001
 43
0.0000001
 44
0.0000000001
 12
0.0001975619
 22
31.293735383
 32
0.0
 13
31.2937353829
 23
-0.0002089687
 33
0.0
 40
0.0
 40
0.0
 40
0.0
 40
0.0
 40
0.0363708237
 40
0.0696473863
 40
0.1001196244
 40
0.1280373487
 40
0.1536659441
 40
0.1772442456
 40
0.1989478738
 40
0.218940614
 40
0.2373659021
 40
0.2543414597
 40
0.2699746662
 40
0.2843833692
 40
0.2976748683
 40
0.3099419784
 40
0.3212709368
 40
0.3317492089
 40
0.3414577257
 40
0.3504486029
 40
0.3587607831
 40
0.3664344619
 40
0.3735233429
 40
0.3800848006
 40
0.3861575628
 40
0.3917479252
 40
0.396860361
 40
0.4015319496
 40
0.4058798086
 40
0.4100364337
 40
0.4141367957
 40
0.4182556111
 40
0.4223554635
 40
0.4263124618
 40
0.4299055624
 40
0.4330274212
 40
0.435748758
 40
0.4381539653
 40
0.4403250747
 40
0.4423498533
 40
0.4443165216
 40
0.4462783859
 40
0.4482408884
 40
0.4502040295
 40
0.452165948
 40
0.4541137147
 40
0.4560205597
 40
0.4579166774
 40
0.459840833
 40
0.4618522062
 40
0.4640263753
 40
0.466434007
 40
0.4691556125
 40
0.4722922289
 40
0.4759003557
 40
0.4797151195
 40
0.4834656488
 40
0.4871568386
 40
0.490841995
 40
0.4945429164
 40
0.4982566604
 40
0.5019527541
 40
0.5056627025
 40
0.5095142442
 40
0.513637891
 40
0.5181515935
 40
0.5230995392
 40
0.5284814309
 40
0.5342959952
 40
0.540581096
 40
0.547399567
 40
0.554813021
 40
0.562875139
 40
0.5716380374
 40
0.5811688743
 40
0.5915404086
 40
0.6028507152
 40
0.6151928124
 40
0.6286530473
 40
0.6433242436
 40
0.659307101
 40
0.6766857199
 40
0.6955283697
 40
0.7159800277
 40
0.7381881923
 40
0.7622760033
 40
0.7883670143
 40
0.8165677958
 40
0.8471063143
 40
0.8803113647
 40
0.9165903859
 40
0.9562421408
 40
1.0
 40
1.0
 40
1.0
 40
1.0
 10
-37.2567527825
 20
11.7123084842
 30
0.0
 10
-37.2567503874
 20
12.0917014619
 30
0.0
 10
-37.2531007116
 20
12.8182116875
 30
0.0
 10
-37.2402119076
 20
13.8625147127
 30
0.0
 10
-37.2203895621
 20
14.8185136671
 30
0.0
 10
-37.197556748
 20
15.6946370936
 30
0.0
 10
-37.1728001804
 20
16.4987652164
 30
0.0
 10
-37.1467756368
 20
17.2379933724
 30
0.0
 10
-37.1221333561
 20
17.9184430448
 30
0.0
 10
-37.1002754114
 20
18.5452067564
 30
0.0
 10
-37.0829864102
 20
19.1227756809
 30
0.0
 10
-37.0708792564
 20
19.6549926947
 30
0.0
 10
-37.0637403697
 20
20.1453954369
 30
0.0
 10
-37.059587923
 20
20.5973992889
 30
0.0
 10
-37.0575930022
 20
21.0143044175
 30
0.0
 10
-37.05704667
 20
21.3990878949
 30
0.0
 10
-37.057487544
 20
21.7545255338
 30
0.0
 10
-37.0585294674
 20
22.0832731648
 30
0.0
 10
-37.0571275897
 20
22.3876337102
 30
0.0
 10
-37.0529055242
 20
22.6693729726
 30
0.0
 10
-37.045474458
 20
22.9298151978
 30
0.0
 10
-37.0347148188
 20
23.1702846814
 30
0.0
 10
-37.020808227
 20
23.3922980924
 30
0.0
 10
-37.0040561285
 20
23.5973648261
 30
0.0
 10
-36.9847543306
 20
23.7865004523
 30
0.0
 10
-36.9634537705
 20
23.9602022796
 30
0.0
 10
-36.9402713598
 20
24.1189092016
 30
0.0
 10
-36.9151123653
 20
24.2641764511
 30
0.0
 10
-36.8882539885
 20
24.3989839234
 30
0.0
 10
-36.8593039445
 20
24.5272560312
 30
0.0
 10
-36.8276421941
 20
24.652423197
 30
0.0
 10
-36.792811242
 20
24.7761323592
 30
0.0
 10
-36.7549673364
 20
24.897388296
 30
0.0
 10
-36.7156300247
 20
25.0123827362
 30
0.0
 10
-36.6770709059
 20
25.1168251555
 30
0.0
 10
-36.6406378682
 20
25.2082785515
 30
0.0
 10
-36.6068367709
 20
25.2874094667
 30
0.0
 10
-36.5757242109
 20
25.3568867706
 30
0.0
 10
-36.5470011865
 20
25.4194685037
 30
0.0
 10
-36.5196488397
 20
25.4776431352
 30
0.0
 10
-36.4927190791
 20
25.5336017001
 30
0.0
 10
-36.4655374981
 20
25.5887151676
 30
0.0
 10
-36.4378428876
 20
25.6435310192
 30
0.0
 10
-36.4096621531
 20
25.6981000486
 30
0.0
 10
-36.3809818222
 20
25.7522318035
 30
0.0
 10
-36.3525693959
 20
25.8058465095
 30
0.0
 10
-36.3259365937
 20
25.8596006341
 30
0.0
 10
-36.2991398019
 20
25.912997138
 30
0.0
 10
-36.2704408017
 20
25.9666412194
 30
0.0
 10
-36.2391160633
 20
26.0221494966
 30
0.0
 10
-36.2038975673
 20
26.0812294529
 30
0.0
 10
-36.1635970619
 20
26.1458866169
 30
0.0
 10
-36.1163341235
 20
26.2180139045
 30
0.0
 10
-36.059561677
 20
26.2988373515
 30
0.0
 10
-35.9925042169
 20
26.3862617787
 30
0.0
 10
-35.9182650539
 20
26.4761379121
 30
0.0
 10
-35.8408613147
 20
26.5644514811
 30
0.0
 10
-35.762073257
 20
26.6496989184
 30
0.0
 10
-35.6813854224
 20
26.7324305244
 30
0.0
 10
-35.5982860781
 20
26.8130780687
 30
0.0
 10
-35.512927103
 20
26.8914987507
 30
0.0
 10
-35.4253915274
 20
26.9676249154
 30
0.0
 10
-35.3347485789
 20
27.0423046085
 30
0.0
 10
-35.238580057
 20
27.117223148
 30
0.0
 10
-35.1335117711
 20
27.1942765661
 30
0.0
 10
-35.0166551815
 20
27.2744870941
 30
0.0
 10
-34.8861028087
 20
27.3577939595
 30
0.0
 10
-34.7409786477
 20
27.4433051846
 30
0.0
 10
-34.5805069167
 20
27.5300094217
 30
0.0
 10
-34.4034161354
 20
27.6171911649
 30
0.0
 10
-34.2078849925
 20
27.7043329136
 30
0.0
 10
-33.9919455426
 20
27.7908107469
 30
0.0
 10
-33.7537297085
 20
27.8757309947
 30
0.0
 10
-33.4913786469
 20
27.9581373615
 30
0.0
 10
-33.2029278579
 20
28.0371656801
 30
0.0
 10
-32.8859859741
 20
28.1119705383
 30
0.0
 10
-32.5380348878
 20
28.1822211121
 30
0.0
 10
-32.1562543973
 20
28.2467474485
 30
0.0
 10
-31.7379371381
 20
28.3042594667
 30
0.0
 10
-31.2803899309
 20
28.3538260336
 30
0.0
 10
-30.7809839986
 20
28.3948820788
 30
0.0
 10
-30.2373375297
 20
28.4270034178
 30
0.0
 10
-29.6466394924
 20
28.4510733832
 30
0.0
 10
-29.0053757846
 20
28.4704590014
 30
0.0
 10
-28.3092422605
 20
28.4843743984
 30
0.0
 10
-27.5541975624
 20
28.4929041997
 30
0.0
 10
-26.736611768
 20
28.4974836732
 30
0.0
 10
-25.8517314541
 20
28.5006122375
 30
0.0
 10
-24.8926567924
 20
28.507052739
 30
0.0
 10
-23.8493922652
 20
28.5237083812
 30
0.0
 10
-22.7115320713
 20
28.5602729985
 30
0.0
 10
-21.4637126587
 20
28.6011089113
 30
0.0
 10
-20.5936442871
 20
28.6152854426
 30
0.0
 10
-20.1371953317
 20
28.6152823946
 30
0.0
 11
-37.2567527825
 21
11.7123084842
 31
0.0
 11
-37.2514887684
 21
12.8504752443
 31
0.0
 11
-37.238330828
 21
13.8917400572
 31
0.0
 11
-37.2189543247
 21
14.8451333301
 31
0.0
 11
-37.1962180082
 21
15.7184873055
 31
0.0
 11
-37.171527882
 21
16.5201216554
 31
0.0
 11
-37.1459585711
 21
17.2575316161
 31
0.0
 11
-37.1216451161
 21
17.9362838871
 31
0.0
 11
-37.1002408421
 21
18.5615651677
 31
0.0
 11
-37.083251979
 21
19.1379109227
 31
0.0
 11
-37.0713155143
 21
19.6690054092
 31
0.0
 11
-37.0640100943
 21
20.1581722905
 31
0.0
 11
-37.0598249708
 21
20.6090550061
 31
0.0
 11
-37.0577845073
 21
21.0249906573
 31
0.0
 11
-37.0572097444
 21
21.408873922
 31
0.0
 11
-37.0576169766
 21
21.7633991158
 31
0.0
 11
-37.0581137837
 21
22.0913030132
 31
0.0
 11
-37.0565474218
 21
22.3951147319
 31
0.0
 11
-37.0521397222
 21
22.6764383353
 31
0.0
 11
-37.0445550276
 21
22.9364469025
 31
0.0
 11
-37.0337007619
 21
23.1763395429
 31
0.0
 11
-37.0197382646
 21
23.397737271
 31
0.0
 11
-37.00292632
 21
23.6023803818
 31
0.0
 11
-36.9835774124
 21
23.7914322224
 31
0.0
 11
-36.9621516144
 21
23.9650585497
 31
0.0
 11
-36.9388788267
 21
24.1233440049
 31
0.0
 11
-36.9139114734
 21
24.2673876557
 31
0.0
 11
-36.8872899792
 21
24.4008186251
 31
0.0
 11
-36.8586272895
 21
24.527697704
 31
0.0
 11
-36.8271390398
 21
24.6520898048
 31
0.0
 11
-36.7921781159
 21
24.7761509593
 31
0.0
 11
-36.7539632664
 21
24.8986272319
 31
0.0
 11
-36.7139107809
 21
25.0158001098
 31
0.0
 11
-36.6748917811
 21
25.121254449
 31
0.0
 11
-36.6386962613
 21
25.2119965197
 31
0.0
 11
-36.6053022731
 21
25.2903368183
 31
0.0
 11
-36.5746150669
 21
25.3590649455
 31
0.0
 11
-36.5462664769
 21
25.420810306
 31
0.0
 11
-36.5193035939
 21
25.4781501532
 31
0.0
 11
-36.4926081828
 21
25.533603449
 31
0.0
 11
-36.4654522683
 21
25.588665116
 31
0.0
 11
-36.4377649277
 21
25.6434838587
 31
0.0
 11
-36.409560981
 21
25.6980611078
 31
0.0
 11
-36.3809115227
 21
25.7523625583
 31
0.0
 11
-36.3526190708
 21
25.806351377
 31
0.0
 11
-36.3258412804
 21
25.8596780496
 31
0.0
 11
-36.2990429416
 21
25.9126184075
 31
0.0
 11
-36.2706764134
 21
25.9657321338
 31
0.0
 11
-36.2397432923
 21
26.0205501154
 31
0.0
 11
-36.2049626731
 21
26.0790262702
 31
0.0
 11
-36.1651037708
 21
26.1429633841
 31
0.0
 11
-36.1183537741
 21
26.2141548923
 31
0.0
 11
-36.0618743414
 21
26.2944341617
 31
0.0
 11
-35.9933011197
 21
26.3841380086
 31
0.0
 11
-35.9173917916
 21
26.4762734018
 31
0.0
 11
-35.840066707
 21
26.5645689043
 31
0.0
 11
-35.7616551803
 21
26.6493890089
 31
0.0
 11
-35.6811280115
 21
26.7319396621
 31
0.0
 11
-35.5980200049
 21
26.8126014573
 31
0.0
 11
-35.5124387804
 21
26.891228593
 31
0.0
 11
-35.42516918
 21
26.9671384837
 31
0.0
 11
-35.3355641663
 21
27.0409607077
 31
0.0
 11
-35.2404791745
 21
27.1150290179
 31
0.0
 11
-35.1364216771
 21
27.1913472459
 31
0.0
 11
-35.0199736762
 21
27.2712947193
 31
0.0
 11
-34.8894599115
 21
27.3546103291
 31
0.0
 11
-34.7443755587
 21
27.4401419392
 31
0.0
 11
-34.584319293
 21
27.5266938245
 31
0.0
 11
-34.4078986147
 21
27.6136446769
 31
0.0
 11
-34.2130464014
 21
27.7006026426
 31
0.0
 11
-33.9977240644
 21
27.7869612999
 31
0.0
 11
-33.7601295294
 21
27.8718199569
 31
0.0
 11
-33.4985672456
 21
27.9541842458
 31
0.0
 11
-33.2109697639
 21
28.0332033941
 31
0.0
 11
-32.895159388
 21
28.1080741341
 31
0.0
 11
-32.5482598773
 21
28.1783271563
 31
0.0
 11
-32.1674704266
 21
28.2429279001
 31
0.0
 11
-31.7502194467
 21
28.3006234403
 31
0.0
 11
-31.29381627
 21
28.3504645275
 31
0.0
 11
-30.7953685613
 21
28.3918555604
 31
0.0
 11
-30.2525081035
 21
28.4245134755
 31
0.0
 11
-29.6633766298
 21
28.4494004682
 31
0.0
 11
-29.0236637297
 21
28.4688589547
 31
0.0
 11
-28.3288315276
 21
28.4830169059
 31
0.0
 11
-27.5750872486
 21
28.4919811953
 31
0.0
 11
-26.7586180397
 21
28.4970902428
 31
0.0
 11
-25.8761187981
 21
28.5009750838
 31
0.0
 11
-24.9204823785
 21
28.5082773742
 31
0.0
 11
-23.8815212652
 21
28.5258705703
 31
0.0
 11
-22.7467059661
 21
28.5592495535
 31
0.0
 11
-21.5064131112
 21
28.5964804616
 31
0.0
 11
-20.1371953317
 21
28.6152823946
 31
0.0
  0
SPLINE
  5
63E
100
AcDbEntity
  8
RACCORDO
100
AcDbSpline
 62
253
  6
CONTINUOUS
 70
0
 71
3
 72
66
 73
62
 74
60
 42
0.0000001
 43
0.0000001
 44
0.0000000001
 12
-0.000002151
 22
32.4458852166
 32
0.0
 13
0.5542845193
 23
32.441150352
 33
0.0
 40
0.0
 40
0.0
 40
0.0
 40
0.0
 40
0.0599899308
 40
0.1155523292
 40
0.1671024285
 40
0.2149317708
 40
0.2592899249
 40
0.300404492
 40
0.3385016114
 40
0.3738095749
 40
0.4065453511
 40
0.4369072979
 40
0.4650751055
 40
0.4912159943
 40
0.51548175
 40
0.538005519
 40
0.5588983533
 40
0.5782633511
 40
0.5962055748
 40
0.61282819
 40
0.6282296991
 40
0.6425008103
 40
0.6557253357
 40
0.6679980103
 40
0.6794100056
 40
0.6900008295
 40
0.6997620025
 40
0.7087139454
 40
0.7169977388
 40
0.7248466597
 40
0.7325121246
 40
0.7401658866
 40
0.7478373407
 40
0.7555047946
 40
0.7631623938
 40
0.7708304385
 40
0.7785558703
 40
0.7863223551
 40
0.794067304
 40
0.8019357123
 40
0.810326723
 40
0.8197196297
 40
0.8302640252
 40
0.8414036867
 40
0.85235307
 40
0.8627273077
 40
0.8725512843
 40
0.8819654016
 40
0.8911221602
 40
0.9001916316
 40
0.9092772968
 40
0.9183687477
 40
0.9275077076
 40
0.9368603541
 40
0.9464869785
 40
0.9562320612
 40
0.9658815524
 40
0.9752315204
 40
0.9841135638
 40
0.9924307485
 40
1.0
 40
1.0
 40
1.0
 40
1.0
 10
-43.9935586362
 20
11.7051953702
 30
0.0
 10
-43.9935586792
 20
12.3540041735
 30
0.0
 10
-43.9934251837
 20
13.6037367119
 30
0.0
 10
-43.9929597645
 20
15.410998728
 30
0.0
 10
-43.992333473
 20
17.0867403331
 30
0.0
 10
-43.9915854661
 20
18.641304666
 30
0.0
 10
-43.9907882526
 20
20.0830055951
 30
0.0
 10
-43.9901072026
 20
21.4194497115
 30
0.0
 10
-43.9896397514
 20
22.6580134337
 30
0.0
 10
-43.9893481589
 20
23.8059581087
 30
0.0
 10
-43.9891460063
 20
24.8702446259
 30
0.0
 10
-43.9890180967
 20
25.8573082619
 30
0.0
 10
-43.9889984582
 20
26.7730462541
 30
0.0
 10
-43.9890386432
 20
27.6228521378
 30
0.0
 10
-43.9891144644
 20
28.4116160761
 30
0.0
 10
-43.989236508
 20
29.1436207501
 30
0.0
 10
-43.9893810189
 20
29.8226222734
 30
0.0
 10
-43.9895389906
 20
30.4520730417
 30
0.0
 10
-43.9893631041
 20
31.0353401473
 30
0.0
 10
-43.9889395797
 20
31.575740786
 30
0.0
 10
-43.98830782
 20
32.0764370745
 30
0.0
 10
-43.9872344275
 20
32.5403812096
 30
0.0
 10
-43.9858175545
 20
32.9704849637
 30
0.0
 10
-43.9841079228
 20
33.3696652013
 30
0.0
 10
-43.9821933273
 20
33.7403598801
 30
0.0
 10
-43.9801212968
 20
34.0838906287
 30
0.0
 10
-43.9779111117
 20
34.400813719
 30
0.0
 10
-43.9756420717
 20
34.6927844678
 30
0.0
 10
-43.9733420443
 20
34.9640727085
 30
0.0
 10
-43.9710025369
 20
35.221446416
 30
0.0
 10
-43.9686238245
 20
35.4720054872
 30
0.0
 10
-43.9661356104
 20
35.720644051
 30
0.0
 10
-43.96349145
 20
35.9693025176
 30
0.0
 10
-43.9607201668
 20
36.2180010975
 30
0.0
 10
-43.9578523909
 20
36.466661701
 30
0.0
 10
-43.9549469372
 20
36.7159489562
 30
0.0
 10
-43.9516682879
 20
36.9664095313
 30
0.0
 10
-43.9476806647
 20
37.2176917626
 30
0.0
 10
-43.9430844555
 20
37.4705100495
 30
0.0
 10
-43.9378468739
 20
37.7300717065
 30
0.0
 10
-43.9316904565
 20
38.0074410376
 30
0.0
 10
-43.9243420229
 20
38.3137320898
 30
0.0
 10
-43.9157944771
 20
38.6497300386
 30
0.0
 10
-43.9063281023
 20
39.0025434142
 30
0.0
 10
-43.8967205372
 20
39.3535119137
 30
0.0
 10
-43.8874405628
 20
39.690254531
 30
0.0
 10
-43.8785970506
 20
40.0103985118
 30
0.0
 10
-43.8701119471
 20
40.3173799841
 30
0.0
 10
-43.8621387665
 20
40.6162122372
 30
0.0
 10
-43.8546680982
 20
40.9115040095
 30
0.0
 10
-43.8473482948
 20
41.2060929579
 30
0.0
 10
-43.8401683065
 20
41.5014371742
 30
0.0
 10
-43.8333158613
 20
41.7996774421
 30
0.0
 10
-43.8265818428
 20
42.1037098371
 30
0.0
 10
-43.8199221874
 20
42.4143009183
 30
0.0
 10
-43.8138058157
 20
42.7281143304
 30
0.0
 10
-43.8081996489
 20
43.038944542
 30
0.0
 10
-43.8030373131
 20
43.3404470472
 30
0.0
 10
-43.798218694
 20
43.6275440028
 30
0.0
 10
-43.793760885
 20
43.8953853214
 30
0.0
 10
-43.7908974208
 20
44.0671779607
 30
0.0
 10
-43.7894989145
 20
44.1490297026
 30
0.0
 11
-43.9935586362
 21
11.7051953702
 31
0.0
 11
-43.993369305
 21
13.6516217708
 31
0.0
 11
-43.9929123639
 21
15.4543929136
 31
0.0
 11
-43.9922873649
 21
17.1269814023
 31
0.0
 11
-43.9915481325
 21
18.6788465754
 31
0.0
 11
-43.9907796521
 21
20.1180859469
 31
0.0
 11
-43.9901210806
 21
21.4520843078
 31
0.0
 11
-43.9896547551
 21
22.6881789836
 31
0.0
 11
-43.9893537882
 21
23.8337770757
 31
0.0
 11
-43.9891522161
 21
24.8959182923
 31
0.0
 11
-43.9890334424
 21
25.8810385264
 31
0.0
 11
-43.9890088483
 21
26.7949679776
 31
0.0
 11
-43.989046763
 21
27.6431322568
 31
0.0
 11
-43.9891258843
 21
28.4304561743
 31
0.0
 11
-43.9892452752
 21
29.1612597881
 31
0.0
 11
-43.9893890082
 21
29.839146276
 31
0.0
 11
-43.9894827863
 21
30.4674607679
 31
0.0
 11
-43.9893102317
 21
31.0496120708
 31
0.0
 11
-43.9888846203
 21
31.588947369
 31
0.0
 11
-43.9882014519
 21
32.0886624972
 31
0.0
 11
-43.987129681
 21
32.551700092
 31
0.0
 11
-43.9857103059
 21
32.9807791793
 31
0.0
 11
-43.9840073941
 21
33.3789733283
 31
0.0
 11
-43.9820919789
 21
33.7492406652
 31
0.0
 11
-43.9800110129
 21
34.0928630207
 31
0.0
 11
-43.9778061601
 21
34.4095652429
 31
0.0
 11
-43.9755503814
 21
34.7000101951
 31
0.0
 11
-43.9732740311
 21
34.9687755644
 31
0.0
 11
-43.9709671671
 21
35.2234303047
 31
0.0
 11
-43.9686013143
 21
35.4721318442
 31
0.0
 11
-43.9661116354
 21
35.7204524484
 31
0.0
 11
-43.9634698545
 21
35.9693455479
 31
0.0
 11
-43.9607028118
 21
36.2181074866
 31
0.0
 11
-43.9578486399
 21
36.4665486799
 31
0.0
 11
-43.9548948836
 21
36.7153276423
 31
0.0
 11
-43.9515583626
 21
36.9659639074
 31
0.0
 11
-43.9475798273
 21
37.2179229735
 31
0.0
 11
-43.9430257256
 21
37.4691734271
 31
0.0
 11
-43.9378778867
 21
37.7244189933
 31
0.0
 11
-43.9318540673
 21
37.9966061145
 31
0.0
 11
-43.9245715029
 21
38.3012802628
 31
0.0
 11
-43.9158810969
 21
38.6432921164
 31
0.0
 11
-43.9062399311
 21
39.0045996831
 31
0.0
 11
-43.8965391686
 21
39.3597296487
 31
0.0
 11
-43.8872728511
 21
39.6962034032
 31
0.0
 11
-43.8784737334
 21
40.0148295473
 31
0.0
 11
-43.8700845006
 21
40.3201636894
 31
0.0
 11
-43.86218227
 21
40.617157718
 31
0.0
 11
-43.8546946438
 21
40.9113294682
 31
0.0
 11
-43.8473761974
 21
41.2060310629
 31
0.0
 11
-43.840246168
 21
41.5009250494
 31
0.0
 11
-43.8334093269
 21
41.7973678671
 31
0.0
 11
-43.8266826801
 21
42.1007481971
 31
0.0
 11
-43.8200505517
 21
42.4130221286
 31
0.0
 11
-43.8138626489
 21
42.7291494076
 31
0.0
 11
-43.8081896586
 21
43.0421842925
 31
0.0
 11
-43.8029682011
 21
43.3455073417
 31
0.0
 11
-43.7981231391
 21
43.6336523726
 31
0.0
 11
-43.7936251112
 21
43.9034733024
 31
0.0
 11
-43.7894989145
 21
44.1490297026
 31
0.0
  0
SPLINE
  5
63F
100
AcDbEntity
  8
RACCORDO
100
AcDbSpline
 62
253
  6
CONTINUOUS
 70
0
 71
3
 72
41
 73
37
 74
35
 42
0.0000001
 43
0.0000001
 44
0.0000000001
 12
23.6493303155
 22
0.3977038697
 32
0.0
 13
23.6526741139
 23
0.0000045773
 33
0.0
 40
0.0
 40
0.0
 40
0.0
 40
0.0
 40
0.0102879292
 40
0.0209168237
 40
0.031494065
 40
0.0419673414
 40
0.0524082675
 40
0.0629511934
 40
0.0736351719
 40
0.0844095983
 40
0.0953934156
 40
0.1069158047
 40
0.1193673966
 40
0.1330715673
 40
0.1481600997
 40
0.1646363976
 40
0.1825335054
 40
0.2019620048
 40
0.2230669124
 40
0.2459794375
 40
0.2708212817
 40
0.2977237923
 40
0.3268452814
 40
0.3584402349
 40
0.3928624028
 40
0.4303748668
 40
0.4711095295
 40
0.5153180616
 40
0.5633717232
 40
0.6155465094
 40
0.672312316
 40
0.7340161835
 40
0.8015898782
 40
0.8728482774
 40
0.9407829385
 40
1.0
 40
1.0
 40
1.0
 40
1.0
 10
-43.7894989145
 20
44.1490297026
 30
0.0
 10
-43.7083980358
 20
44.1503935523
 30
0.0
 10
-43.5435080652
 20
44.153146665
 30
0.0
 10
-43.2952401249
 20
44.157510562
 30
0.0
 10
-43.0455100251
 20
44.1618407999
 30
0.0
 10
-42.7972556947
 20
44.1657880567
 30
0.0
 10
-42.5492669372
 20
44.1694057926
 30
0.0
 10
-42.2996124941
 20
44.1727120992
 30
0.0
 10
-42.0473268364
 20
44.1758919559
 30
0.0
 10
-41.7915626422
 20
44.1788942752
 30
0.0
 10
-41.5291855465
 20
44.1816940248
 30
0.0
 10
-41.253583544
 20
44.1843872646
 30
0.0
 10
-40.9565328568
 20
44.1870959781
 30
0.0
 10
-40.6313649774
 20
44.1898234855
 30
0.0
 10
-40.2744645112
 20
44.1925665837
 30
0.0
 10
-39.8845048702
 20
44.195277443
 30
0.0
 10
-39.4603268533
 20
44.1979375998
 30
0.0
 10
-38.9996539033
 20
44.2003729053
 30
0.0
 10
-38.4994365379
 20
44.2025392929
 30
0.0
 10
-37.9565375132
 20
44.204369019
 30
0.0
 10
-37.3679275285
 20
44.2057771576
 30
0.0
 10
-36.7303642438
 20
44.2070222133
 30
0.0
 10
-36.039557367
 20
44.2079899714
 30
0.0
 10
-35.2894634371
 20
44.2086427154
 30
0.0
 10
-34.4732129425
 20
44.2089465683
 30
0.0
 10
-33.584902898
 20
44.208862394
 30
0.0
 10
-32.6194349894
 20
44.2091394345
 30
0.0
 10
-31.5708580157
 20
44.2096628933
 30
0.0
 10
-30.4320846779
 20
44.2104583941
 30
0.0
 10
-29.1943067202
 20
44.2108306549
 30
0.0
 10
-27.8489074541
 20
44.2108540475
 30
0.0
 10
-26.3820997083
 20
44.2109023968
 30
0.0
 10
-24.8010292701
 20
44.2116610225
 30
0.0
 10
-23.1708340631
 20
44.2127228014
 30
0.0
 10
-21.6065243883
 20
44.213703224
 30
0.0
 10
-20.6040316453
 20
44.2140348843
 30
0.0
 10
-20.137151026
 20
44.2140349747
 30
0.0
 11
-43.7894989145
 21
44.1490297026
 31
0.0
 11
-43.5461965422
 21
44.1531369067
 31
0.0
 11
-43.2948327634
 21
44.1575077401
 31
0.0
 11
-43.0446894541
 21
44.1617947122
 31
0.0
 11
-42.7969998459
 21
44.1657378889
 31
0.0
 11
-42.5500702794
 21
44.1693389971
 31
0.0
 11
-42.3007241519
 21
44.1726709837
 31
0.0
 11
-42.0480394445
 21
44.1758466747
 31
0.0
 11
-41.79321291
 21
44.1788299838
 31
0.0
 11
-41.5334311426
 21
44.1816107494
 31
0.0
 11
-41.2609089698
 21
44.1842871464
 31
0.0
 11
-40.9664077601
 21
44.1869717842
 31
0.0
 11
-40.6422789229
 21
44.1896958339
 31
0.0
 11
-40.2854053393
 21
44.1924407411
 31
0.0
 11
-39.8957063019
 21
44.1951572143
 31
0.0
 11
-39.4724000646
 21
44.1977952487
 31
0.0
 11
-39.0128705639
 21
44.2002328816
 31
0.0
 11
-38.5136877713
 21
44.2024009345
 31
0.0
 11
-37.9717483788
 21
44.2042329885
 31
0.0
 11
-37.3841741559
 21
44.2056969669
 31
0.0
 11
-36.7478590386
 21
44.2069318341
 31
0.0
 11
-36.0590586338
 21
44.2079042101
 31
0.0
 11
-35.3117537855
 21
44.2085639525
 31
0.0
 11
-34.4975775263
 21
44.2088768492
 31
0.0
 11
-33.6103074409
 21
44.2089189231
 31
0.0
 11
-32.6468237715
 21
44.2091642661
 31
0.0
 11
-31.6011738961
 21
44.2096810533
 31
0.0
 11
-30.4645765024
 21
44.2103634368
 31
0.0
 11
-29.2305033541
 21
44.2107639433
 31
0.0
 11
-27.8878402317
 21
44.2108567107
 31
0.0
 11
-26.4283787697
 21
44.2110046308
 31
0.0
 11
-24.8300803388
 21
44.211691556
 31
0.0
 11
-23.1446289651
 21
44.212732801
 31
0.0
 11
-21.5377928342
 21
44.2136616217
 31
0.0
 11
-20.137151026
 21
44.2140349747
 31
0.0
  0
SPLINE
  5
640
100
AcDbEntity
  8
RACCORDO
100
AcDbSpline
 62
253
  6
CONTINUOUS
 70
0
 71
3
 72
14
 73
10
 74
8
 42
0.0000001
 43
0.0000001
 44
0.0000000001
 12
0.0000122066
 22
-0.8642516404
 32
0.0
 13
0.8642516404
 23
0.0000065623
 33
0.0
 40
0.0
 40
0.0
 40
0.0
 40
0.0
 40
0.1476912798
 40
0.2934866987
 40
0.4373731499
 40
0.5793940933
 40
0.7198993081
 40
0.8596879951
 40
1.0
 40
1.0
 40
1.0
 40
1.0
 10
-25.6244677824
 20
-26.398124086
 30
0.0
 10
-25.6244671815
 20
-26.4406715629
 30
0.0
 10
-25.6150583524
 20
-26.5255246227
 30
0.0
 10
-25.5735841194
 20
-26.6455560086
 30
0.0
 10
-25.5074402894
 20
-26.7521152106
 30
0.0
 10
-25.4203539341
 20
-26.840211123
 30
0.0
 10
-25.3167740657
 20
-26.9060047461
 30
0.0
 10
-25.2016126804
 20
-26.9467553714
 30
0.0
 10
-25.1206186708
 20
-26.955946163
 30
0.0
 10
-25.080197044
 20
-26.9559458561
 30
0.0
 11
-25.6244677824
 21
-26.398124086
 31
0.0
 11
-25.6103325663
 21
-26.5249814304
 31
0.0
 11
-25.5691185253
 21
-26.6440544885
 31
0.0
 11
-25.5034603952
 21
-26.7496620285
 31
0.0
 11
-25.4171147087
 21
-26.8368972282
 31
0.0
 11
-25.3145887646
 21
-26.9019674056
 31
0.0
 11
-25.2006842847
 21
-26.9422346912
 31
0.0
 11
-25.080197044
 21
-26.9559458561
 31
0.0
  0
SPLINE
  5
641
100
AcDbEntity
  8
RACCORDO
100
AcDbSpline
 62
253
  6
CONTINUOUS
 70
0
 71
3
 72
15
 73
11
 74
9
 42
0.0000001
 43
0.0000001
 44
0.0000000001
 12
6.7368573867
 22
-0.0000205204
 32
0.0
 13
6.7353663139
 23
0.1417323765
 33
0.0
 40
0.0
 40
0.0
 40
0.0
 40
0.0
 40
0.1611897542
 40
0.3101206232
 40
0.4479053886
 40
0.5754998208
 40
0.6937911305
 40
0.8035744888
 40
0.9054913808
 40
1.0
 40
1.0
 40
1.0
 40
1.0
 10
37.9823048673
 20
-11.7877040217
 30
0.0
 10
38.3442756627
 20
-11.7877051242
 30
0.0
 10
39.0406884712
 20
-11.7877071766
 30
0.0
 10
40.0465133599
 20
-11.7876995736
 30
0.0
 10
40.9768960357
 20
-11.7877075819
 30
0.0
 10
41.8384736497
 20
-11.7876176589
 30
0.0
 10
42.6371717038
 20
-11.787770482
 30
0.0
 10
43.3782045812
 20
-11.7881301901
 30
0.0
 10
44.0658389617
 20
-11.7911115415
 30
0.0
 10
44.5069222184
 20
-11.7850543898
 30
0.0
 10
44.7191056084
 20
-11.7805894128
 30
0.0
 11
37.9823048673
 21
-11.7877040217
 31
0.0
 11
39.0682172533
 21
-11.7877052811
 31
0.0
 11
40.0715432783
 21
-11.7877021928
 31
0.0
 11
40.9997795932
 21
-11.7876896293
 31
0.0
 11
41.8593650853
 21
-11.7876594461
 31
0.0
 11
42.6562767541
 21
-11.787814653
 31
0.0
 11
43.3958711315
 21
-11.7886310095
 31
0.0
 11
44.0824705781
 21
-11.7890381441
 31
0.0
 11
44.7191056084
 21
-11.7805894128
 31
0.0
  0
SPLINE
  5
642
100
AcDbEntity
  8
RACCORDO
100
AcDbSpline
 62
253
  6
CONTINUOUS
 70
0
 71
3
 72
45
 73
41
 74
39
 42
0.0000001
 43
0.0000001
 44
0.0000000001
 12
23.6528881512
 22
-0.0000009573
 32
0.0
 13
23.6497704785
 23
-0.384023704
 33
0.0
 40
0.0
 40
0.0
 40
0.0
 40
0.0
 40
0.0548998813
 40
0.1181471633
 40
0.1846161719
 40
0.2485589956
 40
0.3066594862
 40
0.360185812
 40
0.4094153456
 40
0.4547829087
 40
0.4966045127
 40
0.5351777886
 40
0.5707413457
 40
0.6035030447
 40
0.6336987457
 40
0.6615529791
 40
0.687272853
 40
0.7110318358
 40
0.732979561
 40
0.7532705853
 40
0.7720776432
 40
0.7895182143
 40
0.8056188302
 40
0.8203674255
 40
0.8338553237
 40
0.8463464537
 40
0.8582070759
 40
0.869802718
 40
0.8814141096
 40
0.8931350995
 40
0.904728797
 40
0.9158219416
 40
0.9263413959
 40
0.9365352138
 40
0.9467532166
 40
0.9573008891
 40
0.9681928979
 40
0.9792375264
 40
0.9900585796
 40
1.0
 40
1.0
 40
1.0
 40
1.0
 10
20.8626980243
 20
44.2140349746
 30
0.0
 10
21.2955449419
 20
44.2140349571
 30
0.0
 10
22.22705215
 20
44.2137495934
 30
0.0
 10
23.6826204358
 20
44.2128631362
 30
0.0
 10
25.2094858923
 20
44.2118605815
 30
0.0
 10
26.6957726597
 20
44.2110571669
 30
0.0
 10
28.0800156882
 20
44.2108382451
 30
0.0
 10
29.3482547652
 20
44.2108542938
 30
0.0
 10
30.5161036977
 20
44.2107247505
 30
0.0
 10
31.5916689795
 20
44.2101392303
 30
0.0
 10
32.5832171067
 20
44.2095038839
 30
0.0
 10
33.497467659
 20
44.2090767553
 30
0.0
 10
34.3402873199
 20
44.2088636157
 30
0.0
 10
35.1170557168
 20
44.2089371761
 30
0.0
 10
35.8330415129
 20
44.2087421473
 30
0.0
 10
36.4935073454
 20
44.2082851427
 30
0.0
 10
37.1032239356
 20
44.2075796229
 30
0.0
 10
37.6663715401
 20
44.2066692956
 30
0.0
 10
38.1867160774
 20
44.2055838078
 30
0.0
 10
38.6680178608
 20
44.204395237
 30
0.0
 10
39.1137829405
 20
44.2029148706
 30
0.0
 10
39.5265085457
 20
44.2012164421
 30
0.0
 10
39.9072350148
 20
44.1993644494
 30
0.0
 10
40.2567965268
 20
44.1974190533
 30
0.0
 10
40.5778989771
 20
44.1954229142
 30
0.0
 10
40.8762314931
 20
44.1934538338
 30
0.0
 10
41.1596442363
 20
44.1914377967
 30
0.0
 10
41.4361198801
 20
44.1893145638
 30
0.0
 10
41.7114932605
 20
44.187024561
 30
0.0
 10
41.9868495794
 20
44.1845359951
 30
0.0
 10
42.258118483
 20
44.1819149773
 30
0.0
 10
42.5199113499
 20
44.1790656353
 30
0.0
 10
42.7706632021
 20
44.1759437237
 30
0.0
 10
43.0145122511
 20
44.1726450007
 30
0.0
 10
43.2585808828
 20
44.1691374131
 30
0.0
 10
43.508151058
 20
44.1653725819
 30
0.0
 10
43.7642353444
 20
44.1613461059
 30
0.0
 10
44.0224718344
 20
44.1571036877
 30
0.0
 10
44.2732134795
 20
44.1529148269
 30
0.0
 10
44.4368912307
 20
44.150371059
 30
0.0
 10
44.515262001
 20
44.1490984786
 30
0.0
 11
20.8626980243
 21
44.2140349746
 31
0.0
 11
22.1612387362
 21
44.2137088793
 31
0.0
 11
23.6572193865
 21
44.2128670327
 31
0.0
 11
25.2294031007
 21
44.2118785036
 31
0.0
 11
26.7418353735
 21
44.2111332741
 31
0.0
 11
28.1160797543
 21
44.2108732664
 31
0.0
 11
29.3821319523
 21
44.2108275559
 31
0.0
 11
30.5465525869
 21
44.2106338172
 31
0.0
 11
31.6196263534
 21
44.2101060729
 31
0.0
 11
32.6088278991
 21
44.209517246
 31
0.0
 11
33.5211971849
 21
44.209099579
 31
0.0
 11
34.3623780015
 21
44.2089087585
 31
0.0
 11
35.1372868029
 21
44.2088897491
 31
0.0
 11
35.8515023113
 21
44.2086851627
 31
0.0
 11
36.5103352163
 21
44.208220384
 31
0.0
 11
37.1186841042
 21
44.2075133113
 31
0.0
 11
37.6806519268
 21
44.2066004855
 31
0.0
 11
38.1997778957
 21
44.2055220867
 31
0.0
 11
38.6797176565
 21
44.2042956509
 31
0.0
 11
39.1245564391
 21
44.2028179912
 31
0.0
 11
39.5370728199
 21
44.2011194004
 31
0.0
 11
39.9178943771
 21
44.1992661638
 31
0.0
 11
40.2667358483
 21
44.197324183
 31
0.0
 11
40.585757504
 21
44.1953528735
 31
0.0
 11
40.8812023186
 21
44.1933951031
 31
0.0
 11
41.1617331676
 21
44.1913961652
 31
0.0
 11
41.4359954785
 21
44.189286451
 31
0.0
 11
41.7106288989
 21
44.1869988738
 31
0.0
 11
41.987852881
 21
44.1844979184
 31
0.0
 11
42.2620642322
 21
44.181819779
 31
0.0
 11
42.5244334043
 21
44.1789461115
 31
0.0
 11
42.7732298212
 21
44.1758663864
 31
0.0
 11
43.0143211145
 21
44.1726137298
 31
0.0
 11
43.2559815186
 21
44.1691464708
 31
0.0
 11
43.5054361164
 21
44.165387439
 31
0.0
 11
43.7630317085
 21
44.1613349668
 31
0.0
 11
44.0242341311
 21
44.1570625336
 31
0.0
 11
44.2801486361
 21
44.1528507457
 31
0.0
 11
44.515262001
 21
44.1490984786
 31
0.0
  0
SPLINE
  5
643
100
AcDbEntity
  8
RACCORDO
100
AcDbSpline
 62
253
  6
CONTINUOUS
 70
0
 71
3
 72
63
 73
59
 74
57
 42
0.0000001
 43
0.0000001
 44
0.0000000001
 12
0.534911454
 22
-32.4410579699
 32
0.0
 13
-0.000000253
 23
-32.4454676723
 33
0.0
 40
0.0
 40
0.0
 40
0.0
 40
0.0
 40
0.0093533249
 40
0.0191986802
 40
0.029101051
 40
0.0391069609
 40
0.0491441181
 40
0.0590068375
 40
0.0685659368
 40
0.0778837179
 40
0.0870784166
 40
0.0962454651
 40
0.10543081
 40
0.1146706203
 40
0.1241256519
 40
0.1340898463
 40
0.1448035794
 40
0.1560375021
 40
0.1670253053
 40
0.1771010447
 40
0.1861793685
 40
0.1945567535
 40
0.2025854698
 40
0.2105137781
 40
0.2184042161
 40
0.2262380066
 40
0.2340153176
 40
0.2417585681
 40
0.2495000771
 40
0.257240058
 40
0.2649694393
 40
0.2728170383
 40
0.2810536853
 40
0.2899754965
 40
0.2997822873
 40
0.3105080266
 40
0.3221378416
 40
0.3347266278
 40
0.3483894647
 40
0.3632410265
 40
0.3793828117
 40
0.3969271298
 40
0.4159999722
 40
0.4367257963
 40
0.4592266641
 40
0.483626338
 40
0.510057573
 40
0.5386761995
 40
0.5696823651
 40
0.6033157759
 40
0.639832102
 40
0.6795111994
 40
0.7226359103
 40
0.7694755632
 40
0.820315765
 40
0.8754959089
 40
0.9352995377
 40
1.0
 40
1.0
 40
1.0
 40
1.0
 10
44.515262001
 20
44.1490984786
 30
0.0
 10
44.5169297346
 20
44.0479545599
 30
0.0
 10
44.5202543973
 20
43.8403444496
 30
0.0
 10
44.525432084
 20
43.5256546355
 30
0.0
 10
44.5308233065
 20
43.2039095725
 30
0.0
 10
44.5364951561
 20
42.8800946279
 30
0.0
 10
44.542556979
 20
42.5567155145
 30
0.0
 10
44.5491871923
 20
42.2381809289
 30
0.0
 10
44.5559973466
 20
41.92743228
 30
0.0
 10
44.5628542388
 20
41.6239111754
 30
0.0
 10
44.5699593402
 20
41.3246370151
 30
0.0
 10
44.5773476818
 20
41.0268025291
 30
0.0
 10
44.5848128954
 20
40.728481922
 30
0.0
 10
44.5926839352
 20
40.4270560066
 30
0.0
 10
44.6011896375
 20
40.1172207498
 30
0.0
 10
44.6102022208
 20
39.7914527563
 30
0.0
 10
44.6197157844
 20
39.4464522618
 30
0.0
 10
44.629475039
 20
39.0903838597
 30
0.0
 10
44.6389066979
 20
38.741209052
 30
0.0
 10
44.6473168697
 20
38.4153284795
 30
0.0
 10
44.6546110848
 20
38.1176608437
 30
0.0
 10
44.6609484054
 20
37.8421155503
 30
0.0
 10
44.6665102955
 20
37.5789937284
 30
0.0
 10
44.6714445418
 20
37.32112672
 30
0.0
 10
44.6757603053
 20
37.0653569913
 30
0.0
 10
44.6793652881
 20
36.8112094157
 30
0.0
 10
44.6823351556
 20
36.5586458352
 30
0.0
 10
44.6852465388
 20
36.3070797814
 30
0.0
 10
44.6880704308
 20
36.0559164553
 30
0.0
 10
44.6907804645
 20
35.8049018858
 30
0.0
 10
44.6933746233
 20
35.5527386489
 30
0.0
 10
44.6958923162
 20
35.2952028498
 30
0.0
 10
44.6983697584
 20
35.0247697727
 30
0.0
 10
44.7008577832
 20
34.7331469939
 30
0.0
 10
44.7033552943
 20
34.4146034625
 30
0.0
 10
44.7057878264
 20
34.0667711384
 30
0.0
 10
44.7080411098
 20
33.688849298
 30
0.0
 10
44.7100795901
 20
33.2791606475
 30
0.0
 10
44.7118633506
 20
32.8346268036
 30
0.0
 10
44.7132984252
 20
32.3516652409
 30
0.0
 10
44.7142431193
 20
31.8267235716
 30
0.0
 10
44.7147661567
 20
31.2561275591
 30
0.0
 10
44.7150787385
 20
30.6359542892
 30
0.0
 10
44.7149725094
 20
29.9621750953
 30
0.0
 10
44.7147964436
 20
29.2307854359
 30
0.0
 10
44.7146640949
 20
28.437690847
 30
0.0
 10
44.7145806284
 20
27.5784317407
 30
0.0
 10
44.7145418793
 20
26.647722392
 30
0.0
 10
44.7145789343
 20
25.6391203877
 30
0.0
 10
44.7147500507
 20
24.5451035451
 30
0.0
 10
44.7149938909
 20
23.3572876055
 30
0.0
 10
44.715378989
 20
22.066821805
 30
0.0
 10
44.7160201709
 20
20.6647077031
 30
0.0
 10
44.7168594058
 20
19.141884608
 30
0.0
 10
44.7177105691
 20
17.4886801106
 30
0.0
 10
44.7184186131
 20
15.6952681105
 30
0.0
 10
44.7189449207
 20
13.751955165
 30
0.0
 10
44.7191053625
 20
12.4054240096
 30
0.0
 10
44.719105357
 20
11.7056784239
 30
0.0
 11
44.515262001
 21
44.1490984786
 31
0.0
 11
44.5201908344
 21
43.8456655053
 31
0.0
 11
44.5254380123
 21
43.5262714494
 31
0.0
 11
44.530844987
 21
43.2050298973
 31
0.0
 11
44.5365556292
 21
42.8804336993
 31
0.0
 11
44.54270558
 21
42.5548315142
 31
0.0
 11
44.5493151008
 21
42.2348992386
 31
0.0
 11
44.5560898852
 21
41.9248237939
 31
0.0
 11
44.5629425844
 21
41.6225817041
 31
0.0
 11
44.5700194611
 21
41.3243393547
 31
0.0
 11
44.5773535236
 21
41.0270006152
 31
0.0
 11
44.5848520162
 21
40.7290721536
 31
0.0
 11
44.5926892686
 21
40.4293846444
 31
0.0
 11
44.6010491314
 21
40.1227256522
 31
0.0
 11
44.6099733627
 21
39.7995559027
 31
0.0
 11
44.6195512625
 21
39.4520757972
 31
0.0
 11
44.6295236054
 21
39.0877223672
 31
0.0
 11
44.6390985004
 21
38.7313465562
 31
0.0
 11
44.6475205498
 21
38.4045429828
 31
0.0
 11
44.6547199891
 21
38.1100805217
 31
0.0
 11
44.6609490704
 21
37.8383437336
 31
0.0
 11
44.6664457787
 21
37.5779062771
 31
0.0
 11
44.6713552477
 21
37.3207154582
 31
0.0
 11
44.6756555342
 21
37.0647426275
 31
0.0
 11
44.6792708477
 21
36.8105973455
 31
0.0
 11
44.6823316548
 21
36.5582774178
 31
0.0
 11
44.6852329491
 21
36.3070607843
 31
0.0
 11
44.6880519085
 21
36.0558997237
 31
0.0
 11
44.6907603995
 21
35.8047870319
 31
0.0
 11
44.6933402558
 21
35.5540169106
 31
0.0
 11
44.6958257174
 21
35.2994100231
 31
0.0
 11
44.6982749671
 21
35.0321793806
 31
0.0
 11
44.7007443576
 21
34.7427175778
 31
0.0
 11
44.7032344707
 21
34.4245414077
 31
0.0
 11
44.7056620663
 21
34.076548248
 31
0.0
 11
44.7079196853
 21
33.699220214
 31
0.0
 11
44.7099589193
 21
33.2907762483
 31
0.0
 11
44.7117380414
 21
32.8474826848
 31
0.0
 11
44.7131667734
 21
32.3656189368
 31
0.0
 11
44.7141419584
 21
31.8418920733
 31
0.0
 11
44.7147134905
 21
31.2726587555
 31
0.0
 11
44.7150043176
 21
30.6538315319
 31
0.0
 11
44.7149666086
 21
29.9813724783
 31
0.0
 11
44.7148100093
 21
29.2513213143
 31
0.0
 11
44.7146765952
 21
28.4596624968
 31
0.0
 11
44.7145905443
 21
27.6020887205
 31
0.0
 11
44.7145545975
 21
26.6735439989
 31
0.0
 11
44.7145971401
 21
25.6675344561
 31
0.0
 11
44.7147536975
 21
24.5762827242
 31
0.0
 11
44.7150044962
 21
23.3914934746
 31
0.0
 11
44.7154005402
 21
22.1040866614
 31
0.0
 11
44.7160227705
 21
20.7048853887
 31
0.0
 11
44.7168267562
 21
19.1851511556
 31
0.0
 11
44.7176547488
 21
17.5356172402
 31
0.0
 11
44.7183633666
 21
15.7452718055
 31
0.0
 11
44.7188834551
 21
13.8049151692
 31
0.0
 11
44.719105357
 21
11.7056784239
 31
0.0
  0
SPLINE
  5
644
100
AcDbEntity
  8
RACCORDO
100
AcDbSpline
 62
253
  6
CONTINUOUS
 70
0
 71
3
 72
15
 73
11
 74
9
 42
0.0000001
 43
0.0000001
 44
0.0000000001
 12
6.7368664633
 22
-0.0000281458
 32
0.0
 13
6.7351423286
 23
-0.1524059015
 33
0.0
 40
0.0
 40
0.0
 40
0.0
 40
0.0
 40
0.1611905247
 40
0.3101219607
 40
0.4479071207
 40
0.5755018013
 40
0.6937932512
 40
0.8035768076
 40
0.9054934967
 40
1.0
 40
1.0
 40
1.0
 40
1.0
 10
37.9823048673
 20
11.7123084647
 30
0.0
 10
38.3442778807
 20
11.7123069524
 30
0.0
 10
39.0406946332
 20
11.7123034651
 30
0.0
 10
40.0465247576
 20
11.7123276071
 30
0.0
 10
40.9769114338
 20
11.7123015082
 30
0.0
 10
41.8384918599
 20
11.7120623635
 30
0.0
 10
42.6371926433
 20
11.7124352125
 30
0.0
 10
43.3782251571
 20
11.7136193579
 30
0.0
 10
44.0658560988
 20
11.7169202737
 30
0.0
 10
44.5069340246
 20
11.7104795372
 30
0.0
 10
44.7191056083
 20
11.7056784209
 30
0.0
 11
37.9823048673
 21
11.7123084647
 31
0.0
 11
39.0682239073
 21
11.7123087851
 31
0.0
 11
40.0715551038
 21
11.712319165
 31
0.0
 11
40.9997953258
 21
11.7122607826
 31
0.0
 11
41.8593836454
 21
11.7121672438
 31
0.0
 11
42.6562972295
 21
11.7125999722
 31
0.0
 11
43.3958929536
 21
11.7140570173
 31
0.0
 11
44.0824917806
 21
11.7146961335
 31
0.0
 11
44.7191056083
 21
11.7056784209
 31
0.0
  0
SPLINE
  5
645
100
AcDbEntity
  8
RACCORDO
100
AcDbSpline
 62
253
  6
CONTINUOUS
 70
0
 71
3
 72
90
 73
86
 74
84
 42
0.0000001
 43
0.0000001
 44
0.0000000001
 12
31.2936108549
 22
-0.000234661
 32
0.0
 13
0.0001291402
 23
-31.2936108556
 33
0.0
 40
0.0
 40
0.0
 40
0.0
 40
0.0
 40
0.045739277
 40
0.0868715947
 40
0.1239981713
 40
0.15773758
 40
0.1885923411
 40
0.2168500459
 40
0.2427595673
 40
0.266547547
 40
0.2884149319
 40
0.3085317633
 40
0.3270733167
 40
0.3441650576
 40
0.3598750974
 40
0.3742951307
 40
0.3875194248
 40
0.3996364373
 40
0.4107451424
 40
0.4209387983
 40
0.4303060842
 40
0.4389178529
 40
0.4468395959
 40
0.4541229971
 40
0.4608234588
 40
0.4670049515
 40
0.472729864
 40
0.4780225702
 40
0.4828763255
 40
0.4872894332
 40
0.4913306249
 40
0.4951351838
 40
0.498847122
 40
0.5025937175
 40
0.5063684176
 40
0.5101225177
 40
0.5138539088
 40
0.5175800428
 40
0.5213224562
 40
0.5250666343
 40
0.5287026371
 40
0.5322094697
 40
0.5357296861
 40
0.5393398403
 40
0.5430444553
 40
0.5468195781
 40
0.5506210697
 40
0.5544551777
 40
0.558364764
 40
0.5623423895
 40
0.5663343782
 40
0.5702802044
 40
0.574163641
 40
0.5780433276
 40
0.5820017848
 40
0.5860360743
 40
0.5901035135
 40
0.5942699317
 40
0.5986542844
 40
0.6033735437
 40
0.6085295565
 40
0.6141562612
 40
0.6202633853
 40
0.6268633457
 40
0.6339981016
 40
0.6417240063
 40
0.6500926537
 40
0.6591419686
 40
0.6689095681
 40
0.6794464327
 40
0.6908340566
 40
0.7031621671
 40
0.7165166341
 40
0.730987631
 40
0.7466856522
 40
0.7637322201
 40
0.7822266821
 40
0.8022439072
 40
0.8238883125
 40
0.8473508968
 40
0.8728517353
 40
0.9006288265
 40
0.9309032429
 40
0.9639160116
 40
1.0
 40
1.0
 40
1.0
 40
1.0
 10
20.8627423835
 20
28.6152823946
 30
0.0
 10
21.3398580949
 20
28.6152788168
 30
0.0
 10
22.2460328888
 20
28.5998604413
 30
0.0
 10
23.5387386122
 20
28.5565792805
 30
0.0
 10
24.7064892833
 20
28.520435215
 30
0.0
 10
25.7674930442
 20
28.5056278599
 30
0.0
 10
26.7360327449
 20
28.499961422
 30
0.0
 10
27.6229093711
 20
28.4968422368
 30
0.0
 10
28.4360615431
 20
28.4915797116
 30
0.0
 10
29.1825157393
 20
28.4819939791
 30
0.0
 10
29.8684433986
 20
28.466847844
 30
0.0
 10
30.4994819817
 20
28.446507799
 30
0.0
 10
31.08048697
 20
28.4210110827
 30
0.0
 10
31.6150224184
 20
28.3870003994
 30
0.0
 10
32.1057859134
 20
28.3441343285
 30
0.0
 10
32.5551542868
 20
28.292728171
 30
0.0
 10
32.9657160547
 20
28.2334381471
 30
0.0
 10
33.3402696014
 20
28.1677007922
 30
0.0
 10
33.6815854184
 20
28.0964850457
 30
0.0
 10
33.9924526923
 20
28.0206388819
 30
0.0
 10
34.2753228811
 20
27.9407265505
 30
0.0
 10
34.5324738975
 20
27.8576403854
 30
0.0
 10
34.765848577
 20
27.7722668412
 30
0.0
 10
34.9773166215
 20
27.6855488089
 30
0.0
 10
35.1687818583
 20
27.5983170892
 30
0.0
 10
35.3422407566
 20
27.5111279853
 30
0.0
 10
35.499415697
 20
27.4245368488
 30
0.0
 10
35.6414247596
 20
27.3393630457
 30
0.0
 10
35.7688700103
 20
27.2567049609
 30
0.0
 10
35.8827969216
 20
27.1773457531
 30
0.0
 10
35.9854451985
 20
27.1010567644
 30
0.0
 10
36.080112935
 20
27.0263800628
 30
0.0
 10
36.1703444871
 20
26.951114259
 30
0.0
 10
36.2582577125
 20
26.8736222707
 30
0.0
 10
36.3443058897
 20
26.7934176915
 30
0.0
 10
36.4280051631
 20
26.7109912648
 30
0.0
 10
36.5090868357
 20
26.626691742
 30
0.0
 10
36.5878772709
 20
26.5404123899
 30
0.0
 10
36.6644531138
 20
26.4519848791
 30
0.0
 10
36.7378628952
 20
26.3621110158
 30
0.0
 10
36.8058260706
 20
26.271060732
 30
0.0
 10
36.8674449222
 20
26.1784145543
 30
0.0
 10
36.9258819469
 20
26.0840778865
 30
0.0
 10
36.983018319
 20
25.98655103
 30
0.0
 10
37.0396691685
 20
25.8856856421
 30
0.0
 10
37.0954159453
 20
25.7820388402
 30
0.0
 10
37.1490556979
 20
25.6757700305
 30
0.0
 10
37.2013967755
 20
25.5673065662
 30
0.0
 10
37.2537716558
 20
25.4568234384
 30
0.0
 10
37.3059920417
 20
25.3444507203
 30
0.0
 10
37.3569566409
 20
25.2310714074
 30
0.0
 10
37.4033187848
 20
25.1167756584
 30
0.0
 10
37.44535917
 20
25.0020818182
 30
0.0
 10
37.4843176906
 20
24.8861695486
 30
0.0
 10
37.5206560194
 20
24.7677623249
 30
0.0
 10
37.5544990805
 20
24.6465836968
 30
0.0
 10
37.5857890394
 20
24.5224828052
 30
0.0
 10
37.6147948011
 20
24.3940810303
 30
0.0
 10
37.6417815256
 20
24.2582992942
 30
0.0
 10
37.6670258679
 20
24.1116943265
 30
0.0
 10
37.6901712202
 20
23.9516375107
 30
0.0
 10
37.711419707
 20
23.7767293478
 30
0.0
 10
37.7306169974
 20
23.5864386953
 30
0.0
 10
37.7472421326
 20
23.3801198479
 30
0.0
 10
37.7609969263
 20
23.1566701265
 30
0.0
 10
37.7715717304
 20
22.9145795314
 30
0.0
 10
37.7788057238
 20
22.6523889043
 30
0.0
 10
37.7828365338
 20
22.3688329942
 30
0.0
 10
37.7840628043
 20
22.0626360946
 30
0.0
 10
37.7829529368
 20
21.7320506678
 30
0.0
 10
37.7825994941
 20
21.3747547735
 30
0.0
 10
37.7832209176
 20
20.9880678804
 30
0.0
 10
37.7853417255
 20
20.5692220099
 30
0.0
 10
37.7896598311
 20
20.1152386293
 30
0.0
 10
37.7970522661
 20
19.6227745973
 30
0.0
 10
37.8094640974
 20
19.0884278507
 30
0.0
 10
37.8269764727
 20
18.5091497407
 30
0.0
 10
37.8489085727
 20
17.8820317492
 30
0.0
 10
37.873552521
 20
17.203155306
 30
0.0
 10
37.8996077719
 20
16.4670906276
 30
0.0
 10
37.9241296541
 20
15.6669662644
 30
0.0
 10
37.9459380906
 20
14.7956833188
 30
0.0
 10
37.9644748916
 20
13.8459484274
 30
0.0
 10
37.9781448983
 20
12.8094716183
 30
0.0
 10
37.9822979479
 20
12.0887078954
 30
0.0
 10
37.9822995012
 20
11.7123084647
 30
0.0
 11
20.8627423835
 21
28.6152823946
 31
0.0
 11
22.2939445465
 21
28.5949111397
 31
0.0
 11
23.5805274413
 21
28.5557502492
 31
0.0
 11
24.7418843941
 21
28.5227877956
 31
0.0
 11
25.7975897139
 21
28.5066978361
 31
0.0
 11
26.7631247033
 21
28.5001949295
 31
0.0
 11
27.6474017517
 21
28.4963017577
 31
0.0
 11
28.458183752
 21
28.4905390676
 31
0.0
 11
29.2025284083
 21
28.4805426913
 31
0.0
 11
29.8866667205
 21
28.4652399997
 31
0.0
 11
30.5158601252
 21
28.4447087904
 31
0.0
 11
31.0954941448
 21
28.4183694431
 31
0.0
 11
31.629244586
 21
28.3839001487
 31
0.0
 11
32.1189655342
 21
28.3406864467
 31
0.0
 11
32.5672521014
 21
28.2890129719
 31
0.0
 11
32.9768055253
 21
28.2296315082
 31
0.0
 11
33.3502344087
 21
28.1638121524
 31
0.0
 11
33.6904841613
 21
28.0925537288
 31
0.0
 11
34.0003219013
 21
28.0166642391
 31
0.0
 11
34.2823607821
 21
27.9367711766
 31
0.0
 11
34.5387433086
 21
27.8537370888
 31
0.0
 11
34.7715046793
 21
27.7684345307
 31
0.0
 11
34.9823415162
 21
27.6818484945
 31
0.0
 11
35.1731083019
 21
27.5948173276
 31
0.0
 11
35.3459074165
 21
27.507869212
 31
0.0
 11
35.5027971001
 21
27.421373603
 31
0.0
 11
35.6448163105
 21
27.3361495399
 31
0.0
 11
35.7722374717
 21
27.2534761789
 31
0.0
 11
35.8855492111
 21
27.1745291548
 31
0.0
 11
35.9870467207
 21
27.0990886653
 31
0.0
 11
36.080525666
 21
27.0253554533
 31
0.0
 11
36.1697249197
 21
26.9509469395
 31
0.0
 11
36.2576744438
 21
26.8734153037
 31
0.0
 11
36.3440878168
 21
26.7928795532
 31
0.0
 11
36.4277950179
 21
26.7104507857
 31
0.0
 11
36.5087569985
 21
26.6263075316
 31
0.0
 11
36.5873806658
 21
26.5401979787
 31
0.0
 11
36.6640120765
 21
26.4516359729
 31
0.0
 11
36.7378978377
 21
26.3606995423
 31
0.0
 11
36.8057738691
 21
26.269378323
 31
0.0
 11
36.8668686688
 21
26.1782157636
 31
0.0
 11
36.925004959
 21
26.0846451511
 31
0.0
 11
36.9822262227
 21
25.9872335311
 31
0.0
 11
37.0390029743
 21
25.8861575904
 31
0.0
 11
37.0948328286
 21
25.7820450003
 31
0.0
 11
37.14858586
 21
25.6759193016
 31
0.0
 11
37.2009307359
 21
25.5679565567
 31
0.0
 11
37.2533273426
 21
25.4573992755
 31
0.0
 11
37.3056931334
 21
25.344475998
 31
0.0
 11
37.3564408703
 21
25.2303243101
 31
0.0
 11
37.4029042739
 21
25.1159204099
 31
0.0
 11
37.4448543503
 21
25.0018636569
 31
0.0
 11
37.4835509738
 21
24.8867862285
 31
0.0
 11
37.5199248834
 21
24.7683725016
 31
0.0
 11
37.5538924298
 21
24.6467804248
 31
0.0
 11
37.5850306948
 21
24.5233630685
 31
0.0
 11
37.6137557228
 21
24.3961844162
 31
0.0
 11
37.640544426
 21
24.2616228466
 31
0.0
 11
37.6656273279
 21
24.1160858504
 31
0.0
 11
37.6888890767
 21
23.9564212104
 31
0.0
 11
37.7102460927
 21
23.7816413163
 31
0.0
 11
37.7294868722
 21
23.591498368
 31
0.0
 11
37.7461694092
 21
23.3856366285
 31
0.0
 11
37.7599819431
 21
23.1627920132
 31
0.0
 11
37.7706578104
 21
22.9212563778
 31
0.0
 11
37.7780492564
 21
22.6594755114
 31
0.0
 11
37.782266575
 21
22.3763211786
 31
0.0
 11
37.7836698216
 21
22.0706609408
 31
0.0
 11
37.7831078196
 21
21.740924879
 31
0.0
 11
37.7827572842
 21
21.3845651803
 31
0.0
 11
37.7834170698
 21
20.9987746537
 31
0.0
 11
37.7855801181
 21
20.5808707573
 31
0.0
 11
37.7899362038
 21
20.1280419626
 31
0.0
 11
37.7974858299
 21
19.6368522109
 31
0.0
 11
37.8097100049
 21
19.1035436296
 31
0.0
 11
37.8269350513
 21
18.5250415144
 31
0.0
 11
37.8484483184
 21
17.8989997928
 31
0.0
 11
37.8727668582
 21
17.2221048969
 31
0.0
 11
37.8982994312
 21
16.488319992
 31
0.0
 11
37.9226879254
 21
15.6906794381
 31
0.0
 11
37.9445225733
 21
14.8217082308
 31
0.0
 11
37.9629617647
 21
13.8744918845
 31
0.0
 11
37.9765006475
 21
12.8414918672
 31
0.0
 11
37.9822995012
 21
11.7123084647
 31
0.0
  0
SPLINE
  5
646
100
AcDbEntity
  8
RACCORDO
100
AcDbSpline
 62
253
  6
CONTINUOUS
 70
0
 71
3
 72
14
 73
10
 74
8
 42
0.0000001
 43
0.0000001
 44
0.0000000001
 12
0.8642516605
 22
-0.0000020915
 32
0.0
 13
0.0000123685
 23
0.8642516604
 33
0.0
 40
0.0
 40
0.0
 40
0.0
 40
0.0
 40
0.1402796625
 40
0.280046936
 40
0.4205793772
 40
0.5625916487
 40
0.7064951784
 40
0.8523005072
 40
1.0
 40
1.0
 40
1.0
 40
1.0
 10
-19.1942562375
 20
-26.9559458561
 30
0.0
 10
-19.1538439271
 20
-26.9559459539
 30
0.0
 10
-19.0728656151
 20
-26.9467593232
 30
0.0
 10
-18.9577089001
 20
-26.9060195232
 30
0.0
 10
-18.8541251028
 20
-26.8402326828
 30
0.0
 10
-18.7670272413
 20
-26.7521338803
 30
0.0
 10
-18.7008760959
 20
-26.6455725809
 30
0.0
 10
-18.659396014
 20
-26.5255322749
 30
0.0
 10
-18.649986108
 20
-26.4406739299
 30
0.0
 10
-18.6499854991
 20
-26.398124086
 30
0.0
 11
-19.1942562375
 21
-26.9559458561
 31
0.0
 11
-19.0737964089
 21
-26.9422409955
 31
0.0
 11
-18.9599065386
 21
-26.9019879013
 31
0.0
 11
-18.857356536
 21
-26.8369117144
 31
0.0
 11
-18.7710118308
 21
-26.7496860848
 31
0.0
 11
-18.7053415496
 21
-26.6440687158
 31
0.0
 11
-18.6641222807
 21
-26.5249884009
 31
0.0
 11
-18.6499854991
 21
-26.398124086
 31
0.0
  0
SPLINE
  5
647
100
AcDbEntity
  8
RACCORDO
100
AcDbSpline
 62
253
  6
CONTINUOUS
 70
0
 71
3
 72
90
 73
86
 74
84
 42
0.0000001
 43
0.0000001
 44
0.0000000001
 12
30.0716797377
 22
-0.0002443539
 32
0.0
 13
0.000078459
 23
-30.0716797386
 33
0.0
 40
0.0
 40
0.0
 40
0.0
 40
0.0
 40
0.0471053638
 40
0.0898019927
 40
0.1286331524
 40
0.1639780256
 40
0.1961636661
 40
0.2255373505
 40
0.2523955404
 40
0.2769915742
 40
0.2995452047
 40
0.3202540351
 40
0.3392616892
 40
0.3566455111
 40
0.3725044155
 40
0.3869536603
 40
0.4001078769
 40
0.4120835389
 40
0.4229832011
 40
0.4328944797
 40
0.4418984355
 40
0.4500747171
 40
0.4574976871
 40
0.4642320368
 40
0.4703423199
 40
0.47589056
 40
0.4809386897
 40
0.4855236014
 40
0.4896569593
 40
0.4933507363
 40
0.496673099
 40
0.4997436241
 40
0.5026813144
 40
0.5055923033
 40
0.5084836735
 40
0.511319847
 40
0.5141021171
 40
0.5168409213
 40
0.5195607062
 40
0.522290777
 40
0.5250557976
 40
0.5278926615
 40
0.5308223432
 40
0.5338650613
 40
0.5369890086
 40
0.5401788329
 40
0.5434247173
 40
0.546701156
 40
0.5499963389
 40
0.553300306
 40
0.5565992854
 40
0.5599396453
 40
0.5633081787
 40
0.5667346855
 40
0.5702862458
 40
0.573959055
 40
0.5777142109
 40
0.5816129015
 40
0.585772486
 40
0.5903098557
 40
0.5953309912
 40
0.6008609361
 40
0.606904551
 40
0.6134781615
 40
0.6206278505
 40
0.6284151874
 40
0.6368971446
 40
0.6461192272
 40
0.6561307099
 40
0.6669954682
 40
0.67876685
 40
0.6915299382
 40
0.7053780775
 40
0.7204099799
 40
0.7367457524
 40
0.7544968184
 40
0.773761343
 40
0.7946242205
 40
0.8172016904
 40
0.8416946673
 40
0.8683420916
 40
0.8973038763
 40
0.9287362407
 40
0.9628651024
 40
1.0
 40
1.0
 40
1.0
 40
1.0
 10
20.8627431825
 20
28.0021180643
 30
0.0
 10
21.3349223202
 20
28.0021142275
 30
0.0
 10
22.2350748472
 20
27.9869759571
 30
0.0
 10
23.5238447039
 20
27.9472766614
 30
0.0
 10
24.6949318242
 20
27.9143185547
 30
0.0
 10
25.761047201
 20
27.9015912977
 30
0.0
 10
26.7323926072
 20
27.8971724318
 30
0.0
 10
27.6186743447
 20
27.8937215839
 30
0.0
 10
28.4288645548
 20
27.887560231
 30
0.0
 10
29.1706451775
 20
27.8771033908
 30
0.0
 10
29.8506793099
 20
27.8612584445
 30
0.0
 10
30.4745153712
 20
27.8399360649
 30
0.0
 10
31.0463104003
 20
27.8139557897
 30
0.0
 10
31.5690729211
 20
27.7812087619
 30
0.0
 10
32.0454554131
 20
27.7406509088
 30
0.0
 10
32.4784980193
 20
27.6924399633
 30
0.0
 10
32.8714054409
 20
27.6370135536
 30
0.0
 10
33.227346901
 20
27.5755076071
 30
0.0
 10
33.5492832602
 20
27.509129536
 30
0.0
 10
33.8398547567
 20
27.4389718992
 30
0.0
 10
34.1014273495
 20
27.365760031
 30
0.0
 10
34.3362595602
 20
27.2902180144
 30
0.0
 10
34.5464996138
 20
27.2131141311
 30
0.0
 10
34.7342026221
 20
27.1352275618
 30
0.0
 10
34.9013740646
 20
27.0573412233
 30
0.0
 10
35.050009187
 20
26.9800732428
 30
0.0
 10
35.1818223841
 20
26.9039265886
 30
0.0
 10
35.2981024412
 20
26.8295354071
 30
0.0
 10
35.3998203005
 20
26.7578185045
 30
0.0
 10
35.4882789531
 20
26.6894563144
 30
0.0
 10
35.5656090775
 20
26.624274062
 30
0.0
 10
35.6345781515
 20
26.5610615214
 30
0.0
 10
35.6979332191
 20
26.497941341
 30
0.0
 10
35.7572773747
 20
26.4334537629
 30
0.0
 10
35.8130345076
 20
26.367163938
 30
0.0
 10
35.8649619876
 20
26.2994526644
 30
0.0
 10
35.9129147608
 20
26.2307286441
 30
0.0
 10
35.9571251909
 20
26.1609168519
 30
0.0
 10
35.9978901312
 20
26.0896415007
 30
0.0
 10
36.0356110361
 20
26.0164155603
 30
0.0
 10
36.0708112164
 20
25.9406572108
 30
0.0
 10
36.1044427778
 20
25.8620173675
 30
0.0
 10
36.1371350707
 20
25.7799800007
 30
0.0
 10
36.1688957175
 20
25.6945009108
 30
0.0
 10
36.1995512714
 20
25.6058552198
 30
0.0
 10
36.2287713431
 20
25.5145852054
 30
0.0
 10
36.2564077332
 20
25.4212293242
 30
0.0
 10
36.2824284356
 20
25.3263150395
 30
0.0
 10
36.3065807326
 20
25.2303067977
 30
0.0
 10
36.3286445179
 20
25.1335643341
 30
0.0
 10
36.3485365927
 20
25.0358900453
 30
0.0
 10
36.3664425616
 20
24.9371765923
 30
0.0
 10
36.3827771835
 20
24.8368973885
 30
0.0
 10
36.3978146092
 20
24.7342761072
 30
0.0
 10
36.4117670923
 20
24.6284250577
 30
0.0
 10
36.4247014057
 20
24.5191271805
 30
0.0
 10
36.4366873794
 20
24.4062219672
 30
0.0
 10
36.4479022613
 20
24.2883355205
 30
0.0
 10
36.4586034406
 20
24.1625305129
 30
0.0
 10
36.468994729
 20
24.0254132339
 30
0.0
 10
36.4791379884
 20
23.8745070623
 30
0.0
 10
36.4889944122
 20
23.7084542409
 30
0.0
 10
36.4983904822
 20
23.5267900822
 30
0.0
 10
36.5071901903
 20
23.3288425047
 30
0.0
 10
36.5152937014
 20
23.1133729429
 30
0.0
 10
36.5226267806
 20
22.8787366763
 30
0.0
 10
36.529134011
 20
22.6232954443
 30
0.0
 10
36.5347924282
 20
22.3455346011
 30
0.0
 10
36.5396519298
 20
22.0438706953
 30
0.0
 10
36.5439519429
 20
21.7166423825
 30
0.0
 10
36.5479376475
 20
21.3618264966
 30
0.0
 10
36.5515692847
 20
20.9771002824
 30
0.0
 10
36.5549215507
 20
20.5596873591
 30
0.0
 10
36.5581245863
 20
20.1064601532
 30
0.0
 10
36.5614521261
 20
19.6141103855
 30
0.0
 10
36.5652291426
 20
19.0793353412
 30
0.0
 10
36.5695723382
 20
18.4991839905
 30
0.0
 10
36.5747126888
 20
17.8706579748
 30
0.0
 10
36.5811149421
 20
17.1897314533
 30
0.0
 10
36.5892728824
 20
16.4508359836
 30
0.0
 10
36.6000188124
 20
15.6479710393
 30
0.0
 10
36.6140683017
 20
14.7755884167
 30
0.0
 10
36.629223438
 20
13.8282207523
 30
0.0
 10
36.6423338272
 20
12.7988863791
 30
0.0
 10
36.6463326948
 20
12.08454427
 30
0.0
 10
36.646333666
 20
11.7123080206
 30
0.0
 11
20.8627431825
 21
28.0021180643
 31
0.0
 11
22.2791484858
 21
27.9827722611
 31
0.0
 11
23.5626004297
 21
27.9466790102
 31
0.0
 11
24.7299320774
 21
27.9166354868
 31
0.0
 11
25.7927188913
 21
27.9025833104
 31
0.0
 11
26.7605799407
 21
27.8971547877
 31
0.0
 11
27.6438864436
 21
27.8930526304
 31
0.0
 11
28.4515305501
 21
27.886475604
 31
0.0
 11
29.191095106
 21
27.8756317392
 31
0.0
 11
29.8691299029
 21
27.8595470641
 31
0.0
 11
30.4915111044
 21
27.8381379641
 31
0.0
 11
31.0624827054
 21
27.811511947
 31
0.0
 11
31.5841822333
 21
27.7782196564
 31
0.0
 11
32.0593277359
 21
27.7373041565
 31
0.0
 11
32.4911252388
 21
27.6888014031
 31
0.0
 11
32.8827747326
 21
27.6332512907
 31
0.0
 11
33.2376006228
 21
27.571680517
 31
0.0
 11
33.5585699303
 21
27.5052528773
 31
0.0
 11
33.8482263422
 21
27.4350229168
 31
0.0
 11
34.1088978578
 21
27.3617866835
 31
0.0
 11
34.3428876606
 21
27.2862681319
 31
0.0
 11
34.5523889314
 21
27.209216777
 31
0.0
 11
34.7393738661
 21
27.1314463846
 31
0.0
 11
34.9058670457
 21
27.0537110066
 31
0.0
 11
35.0538364359
 21
26.976624825
 31
0.0
 11
35.1852201202
 21
26.9005767445
 31
0.0
 11
35.301309989
 21
26.8261930582
 31
0.0
 11
35.4028525231
 21
26.7545072061
 31
0.0
 11
35.490705901
 21
26.6865357149
 31
0.0
 11
35.5670652556
 21
26.6221069739
 31
0.0
 11
35.6351073052
 21
26.5596875188
 31
0.0
 11
35.6976605812
 21
26.497307478
 31
0.0
 11
35.7569206987
 21
26.4328776929
 31
0.0
 11
35.8128764059
 21
26.3663271437
 31
0.0
 11
35.8647694834
 21
26.298642305
 31
0.0
 11
35.9126410683
 21
26.2300233007
 31
0.0
 11
35.9566960173
 21
26.1604359179
 31
0.0
 11
35.9973144027
 21
26.0894464423
 31
0.0
 11
36.0349526909
 21
26.0164847389
 31
0.0
 11
36.0701218683
 21
25.9411398348
 31
0.0
 11
36.1037546611
 21
25.8627401815
 31
0.0
 11
36.1364000674
 21
25.7809112974
 31
0.0
 11
36.1682890339
 21
25.6951483731
 31
0.0
 11
36.1989957049
 21
25.6063662591
 31
0.0
 11
36.2282663093
 21
25.5150178834
 31
0.0
 11
36.2560056213
 21
25.4214332377
 31
0.0
 11
36.2820442328
 21
25.3264081875
 31
0.0
 11
36.3062029057
 21
25.2303065701
 31
0.0
 11
36.328277811
 21
25.1334340707
 31
0.0
 11
36.3481073441
 21
25.0362302077
 31
0.0
 11
36.3660968625
 21
24.9374039632
 31
0.0
 11
36.3824194536
 21
24.8374302267
 31
0.0
 11
36.3973916091
 21
24.7354829665
 31
0.0
 11
36.4113778851
 21
24.6296013342
 31
0.0
 11
36.4243867812
 21
24.5199225857
 31
0.0
 11
36.4363348997
 21
24.407632615
 31
0.0
 11
36.4474664539
 21
24.290922089
 31
0.0
 11
36.4580992374
 21
24.1662891285
 31
0.0
 11
36.468444698
 21
24.0302355665
 31
0.0
 11
36.4786088347
 21
23.8795840755
 31
0.0
 11
36.4884880315
 21
23.7135830517
 31
0.0
 11
36.497905907
 21
23.5320855832
 31
0.0
 11
36.5067181901
 21
23.3346025919
 31
0.0
 11
36.5148358464
 21
23.1197527339
 31
0.0
 11
36.5221936322
 21
22.8856900487
 31
0.0
 11
36.528737378
 21
22.6307073016
 31
0.0
 11
36.5344424253
 21
22.3534424746
 31
0.0
 11
36.5393713578
 21
22.0524207237
 31
0.0
 11
36.543732841
 21
21.7257283052
 31
0.0
 11
36.5477244624
 21
21.3717655881
 31
0.0
 11
36.5513802065
 21
20.9879754986
 31
0.0
 11
36.5547621063
 21
20.5715524214
 31
0.0
 11
36.5580099338
 21
20.1195295327
 31
0.0
 11
36.5613801275
 21
19.628296975
 31
0.0
 11
36.5651581315
 21
19.0945059723
 31
0.0
 11
36.5695165551
 21
18.5152057538
 31
0.0
 11
36.5746950366
 21
17.8878453541
 31
0.0
 11
36.581112249
 21
17.2089332398
 31
0.0
 11
36.5893099944
 21
16.4724339049
 31
0.0
 11
36.6000564036
 21
15.6711731561
 31
0.0
 11
36.6136545438
 21
14.8003498049
 31
0.0
 11
36.6282987591
 21
13.8552392576
 31
0.0
 11
36.64078064
 21
12.8290029621
 31
0.0
 11
36.646333666
 21
11.7123080206
 31
0.0
  0
SPLINE
  5
648
100
AcDbEntity
  8
RACCORDO
100
AcDbSpline
 62
253
  6
CONTINUOUS
 70
0
 71
3
 72
90
 73
86
 74
84
 42
0.0000001
 43
0.0000001
 44
0.0000000001
 12
-0.0000669823
 22
-30.0716847565
 32
0.0
 13
-30.071684756
 23
0.0001866311
 33
0.0
 40
0.0
 40
0.0
 40
0.0
 40
0.0
 40
0.0374648427
 40
0.0718554851
 40
0.1034681736
 40
0.1325591123
 40
0.1593194784
 40
0.1839083707
 40
0.2065223174
 40
0.2273371885
 40
0.2465120302
 40
0.2641763161
 40
0.2804348903
 40
0.2953952913
 40
0.309174104
 40
0.3218723677
 40
0.3335832467
 40
0.3443871911
 40
0.3543387487
 40
0.3635038556
 40
0.3719321452
 40
0.3796703085
 40
0.3867782572
 40
0.3933201909
 40
0.3993390184
 40
0.4048405899
 40
0.4098188491
 40
0.4143008921
 40
0.4184185069
 40
0.4223164041
 40
0.4261384839
 40
0.4299423277
 40
0.4336386114
 40
0.4371842153
 40
0.4406108954
 40
0.4439406493
 40
0.4472207869
 40
0.4505291599
 40
0.453857409
 40
0.4571830817
 40
0.4604586814
 40
0.4636845659
 40
0.4668871256
 40
0.4700295665
 40
0.4730516488
 40
0.475933214
 40
0.4786813217
 40
0.4813890498
 40
0.4841061914
 40
0.4868409846
 40
0.4895917704
 40
0.4923867966
 40
0.4952346493
 40
0.4981112744
 40
0.5010594715
 40
0.5041849229
 40
0.5075975732
 40
0.5114025418
 40
0.515644305
 40
0.5203358946
 40
0.525495268
 40
0.5311691826
 40
0.5374183551
 40
0.5443044184
 40
0.5518916879
 40
0.5602458754
 40
0.5694433094
 40
0.5795635262
 40
0.5906869096
 40
0.6029047599
 40
0.6163216187
 40
0.631054609
 40
0.6472173766
 40
0.6649220235
 40
0.6842615944
 40
0.7053150682
 40
0.7282194257
 40
0.7531230987
 40
0.7801608742
 40
0.8094645113
 40
0.8413077918
 40
0.8760700333
 40
0.9139351606
 40
0.9550145641
 40
1.0
 40
1.0
 40
1.0
 40
1.0
 10
36.646333666
 20
-11.7877035753
 30
0.0
 10
36.6463328295
 20
-12.1632472215
 30
0.0
 10
36.6422637663
 20
-12.8835208438
 30
0.0
 10
36.6289778359
 20
-13.9205926959
 30
0.0
 10
36.6136915824
 20
-14.8736853582
 30
0.0
 10
36.5996097588
 20
-15.7503024942
 30
0.0
 10
36.5889069473
 20
-16.5565566564
 30
0.0
 10
36.5807803359
 20
-17.2979119317
 30
0.0
 10
36.5744210603
 20
-17.9796848804
 30
0.0
 10
36.569319397
 20
-18.607196733
 30
0.0
 10
36.5650096871
 20
-19.1850983082
 30
0.0
 10
36.5612608714
 20
-19.7173309015
 30
0.0
 10
36.5579519831
 20
-20.2073203989
 30
0.0
 10
36.5547468363
 20
-20.6583621412
 30
0.0
 10
36.5513842392
 20
-21.0737135475
 30
0.0
 10
36.547738209
 20
-21.4564884155
 30
0.0
 10
36.5437387561
 20
-21.8094382263
 30
0.0
 10
36.5394266237
 20
-22.1348495401
 30
0.0
 10
36.534539988
 20
-22.4347314473
 30
0.0
 10
36.5288554801
 20
-22.710781688
 30
0.0
 10
36.5223273514
 20
-22.9646199146
 30
0.0
 10
36.5149805121
 20
-23.1978057987
 30
0.0
 10
36.5068679975
 20
-23.412045338
 30
0.0
 10
36.498060981
 20
-23.6090072469
 30
0.0
 10
36.4886613307
 20
-23.7898196994
 30
0.0
 10
36.4788190017
 20
-23.9549090073
 30
0.0
 10
36.4687242395
 20
-24.1045467846
 30
0.0
 10
36.4584116654
 20
-24.2402608957
 30
0.0
 10
36.4477783788
 20
-24.3650848579
 30
0.0
 10
36.4365307307
 20
-24.4832114884
 30
0.0
 10
36.4243144701
 20
-24.5980798788
 30
0.0
 10
36.4109144343
 20
-24.7107819688
 30
0.0
 10
36.3963174033
 20
-24.8205407311
 30
0.0
 10
36.3806102404
 20
-24.9263260852
 30
0.0
 10
36.3637404663
 20
-25.0282106179
 30
0.0
 10
36.3454632536
 20
-25.1271490241
 30
0.0
 10
36.3252546741
 20
-25.2245020483
 30
0.0
 10
36.3028022371
 20
-25.3213466576
 30
0.0
 10
36.2780913353
 20
-25.4181100273
 30
0.0
 10
36.251428437
 20
-25.5140121131
 30
0.0
 10
36.2230815774
 20
-25.6083596791
 30
0.0
 10
36.1929822345
 20
-25.7008673359
 30
0.0
 10
36.1611470718
 20
-25.7913782991
 30
0.0
 10
36.127909277
 20
-25.8792030692
 30
0.0
 10
36.0937086072
 20
-25.9631933549
 30
0.0
 10
36.0588544433
 20
-26.0426198461
 30
0.0
 10
36.0226039271
 20
-26.1179455969
 30
0.0
 10
35.983963641
 20
-26.1902155258
 30
0.0
 10
35.9422373132
 20
-26.2605945829
 30
0.0
 10
35.8971674635
 20
-26.3293975065
 30
0.0
 10
35.8486453051
 20
-26.3967748713
 30
0.0
 10
35.796488284
 20
-26.4628303456
 30
0.0
 10
35.7406456947
 20
-26.527477475
 30
0.0
 10
35.680981381
 20
-26.5907416997
 30
0.0
 10
35.6166919118
 20
-26.653356147
 30
0.0
 10
35.5458654103
 20
-26.7168444105
 30
0.0
 10
35.4658237344
 20
-26.7827894338
 30
0.0
 10
35.3740987782
 20
-26.8519950184
 30
0.0
 10
35.2688411734
 20
-26.9243540686
 30
0.0
 10
35.1489055524
 20
-26.999084118
 30
0.0
 10
35.0132107338
 20
-27.0753763006
 30
0.0
 10
34.8603516762
 20
-27.1526631581
 30
0.0
 10
34.6885355563
 20
-27.2304354531
 30
0.0
 10
34.4957809168
 20
-27.3080157875
 30
0.0
 10
34.2800952111
 20
-27.3846145994
 30
0.0
 10
34.0394147363
 20
-27.4594709038
 30
0.0
 10
33.7715727521
 20
-27.5318192094
 30
0.0
 10
33.4743137635
 20
-27.6009719426
 30
0.0
 10
33.1452283581
 20
-27.6661227805
 30
0.0
 10
32.7816316792
 20
-27.7261559811
 30
0.0
 10
32.3805040505
 20
-27.7798197345
 30
0.0
 10
31.9386894262
 20
-27.8261618987
 30
0.0
 10
31.4530153297
 20
-27.8648131562
 30
0.0
 10
30.9205422601
 20
-27.8957634333
 30
0.0
 10
30.3386895702
 20
-27.9205392363
 30
0.0
 10
29.704510713
 20
-27.9406644666
 30
0.0
 10
29.0143917388
 20
-27.9551981725
 30
0.0
 10
28.2641973202
 20
-27.9645596834
 30
0.0
 10
27.4498201644
 20
-27.9699145179
 30
0.0
 10
26.5658721121
 20
-27.9731575033
 30
0.0
 10
25.6045007875
 20
-27.9781595621
 30
0.0
 10
24.5573676923
 20
-27.992860771
 30
0.0
 10
23.4180459231
 20
-28.02615881
 30
0.0
 10
22.1763682104
 20
-28.0636343723
 30
0.0
 10
21.3136721163
 20
-28.0775164051
 30
0.0
 10
20.8627428343
 20
-28.0775136066
 30
0.0
 11
36.646333666
 21
-11.7877035753
 31
0.0
 11
36.6406875874
 21
-12.9143203664
 31
0.0
 11
36.6280415843
 21
-13.948427604
 31
0.0
 11
36.6132820506
 21
-14.8989598233
 31
0.0
 11
36.5996580188
 21
-15.7736672645
 31
0.0
 11
36.5889412851
 21
-16.5783251975
 31
0.0
 11
36.5807731411
 21
-17.3177094987
 31
0.0
 11
36.574394196
 21
-17.9977190581
 31
0.0
 11
36.5692587735
 21
-18.6236362328
 31
0.0
 11
36.564938181
 21
-19.200239839
 31
0.0
 11
36.5611884157
 21
-19.7314214405
 31
0.0
 11
36.5578341411
 21
-20.2203326523
 31
0.0
 11
36.5545854209
 21
-20.6702053871
 31
0.0
 11
36.5511938197
 21
-21.0845436159
 31
0.0
 11
36.5475243519
 21
-21.4663841669
 31
0.0
 11
36.5435185522
 21
-21.8185272481
 31
0.0
 11
36.5391418751
 21
-22.1433905763
 31
0.0
 11
36.534188515
 21
-22.4426096822
 31
0.0
 11
36.5284583226
 21
-22.718160312
 31
0.0
 11
36.5218948465
 21
-22.9715281808
 31
0.0
 11
36.5145248984
 21
-23.204111053
 31
0.0
 11
36.506399889
 21
-23.4177045627
 31
0.0
 11
36.4975792771
 21
-23.6142336892
 31
0.0
 11
36.4881526859
 21
-23.7949843284
 31
0.0
 11
36.4782811215
 21
-23.9601310822
 31
0.0
 11
36.4681672625
 21
-24.1094936913
 31
0.0
 11
36.457921559
 21
-24.2438862903
 31
0.0
 11
36.4473813207
 21
-24.3672604807
 31
0.0
 11
36.4362423512
 21
-24.483946353
 31
0.0
 11
36.4240586943
 21
-24.598235151
 31
0.0
 11
36.4105209233
 21
-24.7118192257
 31
0.0
 11
36.3958338266
 21
-24.821998101
 31
0.0
 11
36.3801372274
 21
-24.9274586519
 31
0.0
 11
36.3632627644
 21
-25.029113657
 31
0.0
 11
36.3450098314
 21
-25.1275672459
 31
0.0
 11
36.3249421924
 21
-25.2241436121
 31
0.0
 11
36.3024904224
 21
-25.3210654878
 31
0.0
 11
36.2777440466
 21
-25.4180440199
 31
0.0
 11
36.2509600154
 21
-25.5143992587
 31
0.0
 11
36.2225797401
 21
-25.6087250874
 31
0.0
 11
36.1925464376
 21
-25.7009666742
 31
0.0
 11
36.1605880702
 21
-25.7918158839
 31
0.0
 11
36.1271099968
 21
-25.8801854679
 31
0.0
 11
36.0927939232
 21
-25.9643366367
 31
0.0
 11
36.0578457447
 21
-26.0436301233
 31
0.0
 11
36.0219025333
 21
-26.1180444571
 31
0.0
 11
35.9834865671
 21
-26.189838596
 31
0.0
 11
35.941811953
 21
-26.2601208214
 31
0.0
 11
35.8967573692
 21
-26.3289210798
 31
0.0
 11
35.8484213732
 21
-26.3960504801
 31
0.0
 11
35.7963446982
 21
-26.4620248325
 31
0.0
 11
35.740373982
 21
-26.5268433645
 31
0.0
 11
35.6810427626
 21
-26.5897950519
 31
0.0
 11
35.6175598023
 21
-26.6516822246
 31
0.0
 11
35.547602573
 21
-26.7144488835
 31
0.0
 11
35.4684310667
 21
-26.779745036
 31
0.0
 11
35.3771295581
 21
-26.8487115949
 31
0.0
 11
35.2720598426
 21
-26.9210381766
 31
0.0
 11
35.1523726677
 21
-26.9957354051
 31
0.0
 11
35.0171973994
 21
-27.0718898264
 31
0.0
 11
34.8649959519
 21
-27.1490087375
 31
0.0
 11
34.6938568746
 21
-27.2266394358
 31
0.0
 11
34.501822415
 21
-27.3041187193
 31
0.0
 11
34.2868881115
 21
-27.3806767494
 31
0.0
 11
34.0470696963
 21
-27.4555157334
 31
0.0
 11
33.780128639
 21
-27.5279053804
 31
0.0
 11
33.4837737899
 21
-27.5971278506
 31
0.0
 11
33.1556908395
 21
-27.6623281464
 31
0.0
 11
32.7932283758
 21
-27.7224285427
 31
0.0
 11
32.3933676628
 21
-27.7762567175
 31
0.0
 11
31.9527846391
 21
-27.8229066278
 31
0.0
 11
31.4683128333
 21
-27.8619393937
 31
0.0
 11
30.9368404629
 21
-27.8934987788
 31
0.0
 11
30.3558177629
 21
-27.9188036536
 31
0.0
 11
29.7230264919
 21
-27.9389981568
 31
0.0
 11
29.0344136444
 21
-27.9538327253
 31
0.0
 11
28.2855817576
 21
-27.9635862801
 31
0.0
 11
27.4725309905
 21
-27.9693871469
 31
0.0
 11
26.5913298515
 21
-27.9732800826
 31
0.0
 11
25.6337680341
 21
-27.9793556569
 31
0.0
 11
24.588525266
 21
-27.9949551906
 31
0.0
 11
23.450263929
 21
-28.0253910136
 31
0.0
 11
22.2154132142
 21
-28.0596866798
 31
0.0
 11
20.8627428343
 21
-28.0775136066
 31
0.0
  0
SPLINE
  5
649
100
AcDbEntity
  8
RACCORDO
100
AcDbSpline
 62
253
  6
CONTINUOUS
 70
0
 71
3
 72
98
 73
94
 74
92
 42
0.0000001
 43
0.0000001
 44
0.0000000001
 12
-30.0716795468
 22
0.000263471
 32
0.0
 13
-0.0001077434
 23
30.0716795478
 33
0.0
 40
0.0
 40
0.0
 40
0.0
 40
0.0
 40
0.0471732789
 40
0.0899255618
 40
0.1288022859
 40
0.1641835953
 40
0.1963984682
 40
0.2257953523
 40
0.2526716501
 40
0.2772814781
 40
0.2998453898
 40
0.3205614127
 40
0.3395720672
 40
0.3569547123
 40
0.3728095484
 40
0.3872551435
 40
0.400405345
 40
0.4123699925
 40
0.4232601411
 40
0.4331634379
 40
0.4421584569
 40
0.4503248093
 40
0.45773666
 40
0.4644596991
 40
0.4705590976
 40
0.4760971951
 40
0.4811358871
 40
0.4857103295
 40
0.4898318609
 40
0.4935133949
 40
0.4968273891
 40
0.499894149
 40
0.5028326967
 40
0.5057476073
 40
0.5086439005
 40
0.5114888366
 40
0.5142764154
 40
0.5170174922
 40
0.5197732731
 40
0.5225523785
 40
0.5252178423
 40
0.5276654901
 40
0.5298766586
 40
0.5318618072
 40
0.533680688
 40
0.535412563
 40
0.5371266797
 40
0.5388508201
 40
0.5405441235
 40
0.5421957773
 40
0.543830869
 40
0.5454631254
 40
0.5470990732
 40
0.5487287433
 40
0.5503623392
 40
0.5520587474
 40
0.5538841964
 40
0.5559075161
 40
0.5581991904
 40
0.5608129772
 40
0.5637687627
 40
0.5669877444
 40
0.5703780668
 40
0.5739094586
 40
0.5775883764
 40
0.5814727402
 40
0.5856497942
 40
0.5902087216
 40
0.5952328926
 40
0.6007508268
 40
0.6067776311
 40
0.6133385043
 40
0.6204797653
 40
0.6282593832
 40
0.6367323191
 40
0.6459452666
 40
0.6559486151
 40
0.6668061937
 40
0.678570976
 40
0.6913279192
 40
0.7051707847
 40
0.7201984503
 40
0.7365317318
 40
0.7542826988
 40
0.7735501389
 40
0.7944179252
 40
0.8170044682
 40
0.8415146371
 40
0.8681827593
 40
0.8971577527
 40
0.9286088838
 40
0.9627945378
 40
1.0
 40
1.0
 40
1.0
 40
1.0
 10
-20.1371961331
 20
-28.0775136066
 30
0.0
 10
-20.6100560421
 20
-28.0775094636
 30
0.0
 10
-21.5114470593
 20
-28.062329858
 30
0.0
 10
-22.8019104894
 20
-28.0225523587
 30
0.0
 10
-23.9743785789
 20
-27.9896046736
 30
0.0
 10
-25.0416097958
 20
-27.9769426968
 30
0.0
 10
-26.0138460126
 20
-27.9725439672
 30
0.0
 10
-26.9008348228
 20
-27.9690812577
 30
0.0
 10
-27.7115770837
 20
-27.9628731245
 30
0.0
 10
-28.4537795588
 20
-27.9523363804
 30
0.0
 10
-29.1341248703
 20
-27.9363898655
 30
0.0
 10
-29.7581629971
 20
-27.9149706627
 30
0.0
 10
-30.3300433022
 20
-27.8888707301
 30
0.0
 10
-30.8527723988
 20
-27.8559391401
 30
0.0
 10
-31.3290432308
 20
-27.8151122397
 30
0.0
 10
-31.7619386828
 20
-27.7666529312
 30
0.0
 10
-32.1546446043
 20
-27.7111407576
 30
0.0
 10
-32.5103051446
 20
-27.6494381263
 30
0.0
 10
-32.8318752483
 20
-27.5826971901
 30
0.0
 10
-33.1221115036
 20
-27.5122844425
 30
0.0
 10
-33.3833480019
 20
-27.4388706206
 30
0.0
 10
-33.6178109553
 20
-27.3631618028
 30
0.0
 10
-33.8276482754
 20
-27.28590074
 30
0.0
 10
-34.0149279821
 20
-27.2078649897
 30
0.0
 10
-34.1816810603
 20
-27.1298483954
 30
0.0
 10
-34.3299141869
 20
-27.0524694822
 30
0.0
 10
-34.4613323986
 20
-26.9762417218
 30
0.0
 10
-34.5772111918
 20
-26.9018140824
 30
0.0
 10
-34.6785145132
 20
-26.8301104124
 30
0.0
 10
-34.7665846754
 20
-26.7617774971
 30
0.0
 10
-34.8435939139
 20
-26.6965938081
 30
0.0
 10
-34.9123392054
 20
-26.6333044337
 30
0.0
 10
-34.9755466567
 20
-26.5700215689
 30
0.0
 10
-35.0347806543
 20
-26.5053004694
 30
0.0
 10
-35.0904618037
 20
-26.4387163763
 30
0.0
 10
-35.1423080029
 20
-26.3707032002
 30
0.0
 10
-35.1901622843
 20
-26.3017112968
 30
0.0
 10
-35.2344280965
 20
-26.2314182267
 30
0.0
 10
-35.2754549555
 20
-26.1592844095
 30
0.0
 10
-35.3129479468
 20
-26.0861059126
 30
0.0
 10
-35.3462518091
 20
-26.0143294274
 30
0.0
 10
-35.3751617285
 20
-25.9468345037
 30
0.0
 10
-35.3999695324
 20
-25.8850239511
 30
0.0
 10
-35.4213789856
 20
-25.8286541742
 30
0.0
 10
-35.4402793559
 20
-25.776478953
 30
0.0
 10
-35.4576408593
 20
-25.7266407957
 30
0.0
 10
-35.474190835
 20
-25.6775288229
 30
0.0
 10
-35.4902221703
 20
-25.6286520663
 30
0.0
 10
-35.5056415193
 20
-25.5802350656
 30
0.0
 10
-35.5202189859
 20
-25.5324900942
 30
0.0
 10
-35.5340331421
 20
-25.4851559191
 30
0.0
 10
-35.5472318669
 20
-25.4378099282
 30
0.0
 10
-35.5598525463
 20
-25.3903628523
 30
0.0
 10
-35.5719225355
 20
-25.3427589163
 30
0.0
 10
-35.5835914004
 20
-25.2944314029
 30
0.0
 10
-35.5951438537
 20
-25.2440603237
 30
0.0
 10
-35.6069218334
 20
-25.1897367896
 30
0.0
 10
-35.619185883
 20
-25.1294179742
 30
0.0
 10
-35.6320965414
 20
-25.061172894
 30
0.0
 10
-35.6456604298
 20
-24.9835460942
 30
0.0
 10
-35.6595857213
 20
-24.8965549975
 30
0.0
 10
-35.6733745011
 20
-24.8016689295
 30
0.0
 10
-35.6865952777
 20
-24.700880046
 30
0.0
 10
-35.699064547
 20
-24.5953519208
 30
0.0
 10
-35.7108181213
 20
-24.4847606037
 30
0.0
 10
-35.7219952878
 20
-24.3676066271
 30
0.0
 10
-35.7327551739
 20
-24.2415581138
 30
0.0
 10
-35.7432119556
 20
-24.1040229269
 30
0.0
 10
-35.7533920495
 20
-23.9529928049
 30
0.0
 10
-35.7632588515
 20
-23.7871995277
 30
0.0
 10
-35.772660584
 20
-23.6059528051
 30
0.0
 10
-35.7814721725
 20
-23.4083868008
 30
0.0
 10
-35.7895943681
 20
-23.1932076804
 30
0.0
 10
-35.7969486236
 20
-22.9588244815
 30
0.0
 10
-35.8034764191
 20
-22.7036432263
 30
0.0
 10
-35.8091532967
 20
-22.4261463426
 30
0.0
 10
-35.8140277593
 20
-22.1247277754
 30
0.0
 10
-35.8183348592
 20
-21.7977192275
 30
0.0
 10
-35.8223265982
 20
-21.4431031415
 30
0.0
 10
-35.8259636739
 20
-21.0585576011
 30
0.0
 10
-35.8293208343
 20
-20.6413016556
 30
0.0
 10
-35.832529194
 20
-20.1881947961
 30
0.0
 10
-35.8358638065
 20
-19.6959135118
 30
0.0
 10
-35.8396548129
 20
-19.1611353068
 30
0.0
 10
-35.8440055074
 20
-18.5809065776
 30
0.0
 10
-35.8491280593
 20
-17.9522110532
 30
0.0
 10
-35.8554477964
 20
-17.2709712863
 30
0.0
 10
-35.8635370195
 20
-16.5316042416
 30
0.0
 10
-35.8744015149
 20
-15.7282283248
 30
0.0
 10
-35.8888986463
 20
-14.855324992
 30
0.0
 10
-35.904410206
 20
-13.9070726432
 30
0.0
 10
-35.9169303876
 20
-12.8762652887
 30
0.0
 10
-35.9207856112
 20
-12.1606471593
 30
0.0
 10
-35.9207869474
 20
-11.7877035805
 30
0.0
 11
-20.1371961331
 21
-28.0775136066
 31
0.0
 11
-21.5556432674
 21
-28.0581185166
 31
0.0
 11
-22.8407677932
 21
-28.0219655674
 31
0.0
 11
-24.0094703168
 21
-27.9919310572
 31
0.0
 11
-25.0733535725
 21
-27.977928626
 31
0.0
 11
-26.0420938123
 21
-27.9725209229
 31
0.0
 11
-26.9260979093
 21
-27.96840486
 31
0.0
 11
-27.7342861707
 21
-27.9617796873
 31
0.0
 11
-28.4742644143
 21
-27.9508564599
 31
0.0
 11
-29.1526061384
 21
-27.9346739208
 31
0.0
 11
-29.7752002046
 21
-27.9131618527
 31
0.0
 11
-30.3462560575
 21
-27.8864059871
 31
0.0
 11
-30.8679078767
 21
-27.8529223598
 31
0.0
 11
-31.3429089436
 21
-27.8117564442
 31
0.0
 11
-31.7745708976
 21
-27.7630307689
 31
0.0
 11
-32.1660783456
 21
-27.7073392189
 31
0.0
 11
-32.5205334313
 21
-27.6455694394
 31
0.0
 11
-32.8411448188
 21
-27.5788251336
 31
0.0
 11
-33.1304891513
 21
-27.5083274808
 31
0.0
 11
-33.3908236564
 21
-27.4348858789
 31
0.0
 11
-33.6244441065
 21
-27.3591955654
 31
0.0
 11
-33.8335322556
 21
-27.2819901825
 31
0.0
 11
-34.0200888376
 21
-27.2040761552
 31
0.0
 11
-34.1861611374
 21
-27.1262135983
 31
0.0
 11
-34.3337294806
 21
-27.0490182557
 31
0.0
 11
-34.4647337802
 21
-26.9728817431
 31
0.0
 11
-34.5804248071
 21
-26.8984595613
 31
0.0
 11
-34.6815444315
 21
-26.8267916842
 31
0.0
 11
-34.7689755201
 21
-26.7588763719
 31
0.0
 11
-34.8450099826
 21
-26.6944531474
 31
0.0
 11
-34.912829566
 21
-26.6319590217
 31
0.0
 11
-34.9752478752
 21
-26.5694074975
 31
0.0
 11
-35.034413617
 21
-26.5047311156
 31
0.0
 11
-35.0902754993
 21
-26.4379087174
 31
0.0
 11
-35.1421335596
 21
-26.3698654385
 31
0.0
 11
-35.1899056723
 21
-26.3009827796
 31
0.0
 11
-35.2338220562
 21
-26.2312270939
 31
0.0
 11
-35.2748107583
 21
-26.1592026403
 31
0.0
 11
-35.3129677941
 21
-26.0848495554
 31
0.0
 11
-35.3467920369
 21
-26.0121808511
 31
0.0
 11
-35.3758209176
 21
-25.9445420866
 31
0.0
 11
-35.4006099643
 21
-25.8828420429
 31
0.0
 11
-35.42182047
 21
-25.8270404599
 31
0.0
 11
-35.4404678302
 21
-25.7756204656
 31
0.0
 11
-35.4576153934
 21
-25.7264439638
 31
0.0
 11
-35.4740929406
 21
-25.6776021942
 31
0.0
 11
-35.4902469769
 21
-25.6283351534
 31
0.0
 11
-35.5056699245
 21
-25.5798065282
 31
0.0
 11
-35.5201688236
 21
-25.5323018688
 31
0.0
 11
-35.5339457625
 21
-25.4851014439
 31
0.0
 11
-35.5471281492
 21
-25.4378200336
 31
0.0
 11
-35.559776025
 21
-25.3902779692
 31
0.0
 11
-35.5718225988
 21
-25.3427747283
 31
0.0
 11
-35.5833539222
 21
-25.2950223302
 31
0.0
 11
-35.5947592416
 21
-25.2452997893
 31
0.0
 11
-35.6063918182
 21
-25.1916521516
 31
0.0
 11
-35.6185228535
 21
-25.1320291188
 31
0.0
 11
-35.631348674
 21
-25.0643186622
 31
0.0
 11
-35.6448974685
 21
-24.9868942397
 31
0.0
 11
-35.6589664934
 21
-24.8991293093
 31
0.0
 11
-35.6729114019
 21
-24.8033388315
 31
0.0
 11
-35.6861997011
 21
-24.7022558386
 31
0.0
 11
-35.6986888514
 21
-24.5967979118
 31
0.0
 11
-35.7104083584
 21
-24.4867891668
 31
0.0
 11
-35.7215305029
 21
-24.3705105328
 31
0.0
 11
-35.7322445508
 21
-24.2453572697
 31
0.0
 11
-35.7426723195
 21
-24.1086598208
 31
0.0
 11
-35.7528709109
 21
-23.957919167
 31
0.0
 11
-35.7627547751
 21
-23.792280247
 31
0.0
 11
-35.7721736535
 21
-23.6112890356
 31
0.0
 11
-35.7809976499
 21
-23.4141899827
 31
0.0
 11
-35.7891351864
 21
-23.1995945048
 31
0.0
 11
-35.7965145753
 21
-22.9657647423
 31
0.0
 11
-35.8030784165
 21
-22.7110538891
 31
0.0
 11
-35.8088015898
 21
-22.4340642045
 31
0.0
 11
-35.8137450738
 21
-22.1332873355
 31
0.0
 11
-35.818115101
 21
-21.8068109571
 31
0.0
 11
-35.8221129212
 21
-21.4530467804
 31
0.0
 11
-35.8257741226
 21
-21.0694415451
 31
0.0
 11
-35.8291610842
 21
-20.6531771091
 31
0.0
 11
-35.8324143685
 21
-20.2012816755
 31
0.0
 11
-35.835792271
 21
-19.7101240818
 31
0.0
 11
-35.8395819773
 21
-19.1763361432
 31
0.0
 11
-35.8439454557
 21
-18.5969482906
 31
0.0
 11
-35.8491010747
 21
-17.9694400856
 31
0.0
 11
-35.855449566
 21
-17.2902544724
 31
0.0
 11
-35.8636042104
 21
-16.5532376397
 31
0.0
 11
-35.8744838555
 21
-15.7513562172
 31
0.0
 11
-35.8884516973
 21
-14.8801414646
 31
0.0
 11
-35.9033257909
 21
-13.9344700968
 31
0.0
 11
-35.9154538576
 21
-12.9065216064
 31
0.0
 11
-35.9207869474
 21
-11.7877035805
 31
0.0
  0
SPLINE
  5
64A
100
AcDbEntity
  8
RACCORDO
100
AcDbSpline
 62
253
  6
CONTINUOUS
 70
0
 71
3
 72
98
 73
94
 74
92
 42
0.0000001
 43
0.0000001
 44
0.0000000001
 12
0.0001422938
 22
30.0716849947
 32
0.0
 13
30.0716849945
 23
-0.0001741137
 33
0.0
 40
0.0
 40
0.0
 40
0.0
 40
0.0
 40
0.0374525305
 40
0.0718367327
 40
0.1034558128
 40
0.1325715798
 40
0.1593663098
 40
0.1839843912
 40
0.2066211192
 40
0.2274550361
 40
0.2466461157
 40
0.2643231055
 40
0.2805905697
 40
0.2955564892
 40
0.3093381062
 40
0.3220368907
 40
0.3337464922
 40
0.3445474353
 40
0.3544944271
 40
0.3636536402
 40
0.3720754871
 40
0.3798075638
 40
0.386908944
 40
0.3934419643
 40
0.3994492643
 40
0.4049409697
 40
0.4099163877
 40
0.4144060403
 40
0.4185309993
 40
0.4224218898
 40
0.4262057348
 40
0.4299484485
 40
0.4336126115
 40
0.4370932772
 40
0.4402093321
 40
0.4428719358
 40
0.4451555052
 40
0.447155596
 40
0.4489611529
 40
0.450645708
 40
0.4522819127
 40
0.453912505
 40
0.4555426038
 40
0.4571729041
 40
0.4588060564
 40
0.4604619202
 40
0.4621625021
 40
0.4638653245
 40
0.4655503303
 40
0.4672662472
 40
0.4690762976
 40
0.4710481626
 40
0.4732367175
 40
0.4756834494
 40
0.4783830661
 40
0.4811748815
 40
0.4839155406
 40
0.4866466044
 40
0.4894083319
 40
0.4922156852
 40
0.4950696998
 40
0.4979499532
 40
0.5008969895
 40
0.5040162534
 40
0.507418024
 40
0.5112092929
 40
0.515438505
 40
0.5201189157
 40
0.5252676603
 40
0.5309299448
 40
0.5371668223
 40
0.5440402424
 40
0.5516153285
 40
0.5599584968
 40
0.5691458984
 40
0.579256902
 40
0.5903684912
 40
0.6025755505
 40
0.6159880489
 40
0.630716083
 40
0.6468742128
 40
0.6645780515
 40
0.6839213783
 40
0.7049827078
 40
0.7278986471
 40
0.7528184938
 40
0.7798781455
 40
0.8092094738
 40
0.8410859538
 40
0.8758884928
 40
0.9138041189
 40
0.9549433074
 40
1.0
 40
1.0
 40
1.0
 40
1.0
 10
-35.9207869474
 20
11.712308038
 30
0.0
 10
-35.920785171
 20
12.087728271
 30
0.0
 10
-35.9168831546
 20
12.8078133603
 30
0.0
 10
-35.9042241305
 20
13.8447699982
 30
0.0
 10
-35.8885874747
 20
14.7981059413
 30
0.0
 10
-35.8740490315
 20
15.6753731082
 30
0.0
 10
-35.8632194029
 20
16.482511914
 30
0.0
 10
-35.8551539089
 20
17.224733358
 30
0.0
 10
-35.8488664968
 20
17.9072188479
 30
0.0
 10
-35.8437743269
 20
18.5353128234
 30
0.0
 10
-35.839452065
 20
19.1136953464
 30
0.0
 10
-35.835685945
 20
19.6463070539
 30
0.0
 10
-35.8323678163
 20
20.1365682704
 30
0.0
 10
-35.8291564251
 20
20.5877825149
 30
0.0
 10
-35.8257884924
 20
21.0032225326
 30
0.0
 10
-35.8221367536
 20
21.3860178769
 30
0.0
 10
-35.8181310876
 20
21.7389299479
 30
0.0
 10
-35.8138114082
 20
22.0642525038
 30
0.0
 10
-35.8089100635
 20
22.3639992357
 30
0.0
 10
-35.8032074136
 20
22.63987965
 30
0.0
 10
-35.7966590395
 20
22.8935326314
 30
0.0
 10
-35.7892912711
 20
23.1265263322
 30
0.0
 10
-35.7811593548
 20
23.3405487844
 30
0.0
 10
-35.7723371573
 20
23.5372390069
 30
0.0
 10
-35.7629266596
 20
23.7177466899
 30
0.0
 10
-35.7530728221
 20
23.8825919589
 30
0.0
 10
-35.742953278
 20
24.0321768614
 30
0.0
 10
-35.7326008865
 20
24.1680097286
 30
0.0
 10
-35.7219298302
 20
24.2929104207
 30
0.0
 10
-35.7106939955
 20
24.4106565425
 30
0.0
 10
-35.6985779018
 20
24.5244632496
 30
0.0
 10
-35.6853315266
 20
24.6358562243
 30
0.0
 10
-35.6709414176
 20
24.7440429225
 30
0.0
 10
-35.6558180882
 20
24.8457833983
 30
0.0
 10
-35.6407217804
 20
24.937365853
 30
0.0
 10
-35.6263533259
 20
25.0168962941
 30
0.0
 10
-35.6129621994
 20
25.0852275506
 30
0.0
 10
-35.6003802247
 20
25.1449562317
 30
0.0
 10
-35.5883449635
 20
25.1986587367
 30
0.0
 10
-35.5765089647
 20
25.2486638712
 30
0.0
 10
-35.5645210977
 20
25.2968273186
 30
0.0
 10
-35.5521148651
 20
25.3443207603
 30
0.0
 10
-35.5391657462
 20
25.3916077536
 30
0.0
 10
-35.5256427229
 20
25.4387605464
 30
0.0
 10
-35.5114735575
 20
25.4859930307
 30
0.0
 10
-35.4965091087
 20
25.53371825
 30
0.0
 10
-35.4808543326
 20
25.5819557125
 30
0.0
 10
-35.4647425595
 20
25.6303504165
 30
0.0
 10
-35.4481339004
 20
25.6787397196
 30
0.0
 10
-35.4306365036
 20
25.7279574889
 30
0.0
 10
-35.4114797016
 20
25.7796325376
 30
0.0
 10
-35.389777479
 20
25.8354096434
 30
0.0
 10
-35.3645693869
 20
25.8966594708
 30
0.0
 10
-35.334953499
 20
25.9639652715
 30
0.0
 10
-35.3005617841
 20
26.0357411661
 30
0.0
 10
-35.2618537773
 20
26.1086469649
 30
0.0
 10
-35.2197899303
 20
26.1800363532
 30
0.0
 10
-35.1747535333
 20
26.2492284957
 30
0.0
 10
-35.12633035
 20
26.3169180116
 30
0.0
 10
-35.0741984055
 20
26.3833689467
 30
0.0
 10
-35.0184057953
 20
26.4483520098
 30
0.0
 10
-34.9588610454
 20
26.5118479034
 30
0.0
 10
-34.8947570167
 20
26.5745993457
 30
0.0
 10
-34.8242147034
 20
26.6381307506
 30
0.0
 10
-34.7445549015
 20
26.7040540538
 30
0.0
 10
-34.6532692495
 20
26.7732235908
 30
0.0
 10
-34.5484645321
 20
26.8455786477
 30
0.0
 10
-34.4289667227
 20
26.9203595041
 30
0.0
 10
-34.2937092119
 20
26.9967450762
 30
0.0
 10
-34.1412999151
 20
27.0741535134
 30
0.0
 10
-33.9699508046
 20
27.15206846
 30
0.0
 10
-33.7776627495
 20
27.2298119788
 30
0.0
 10
-33.5624184652
 20
27.3065811038
 30
0.0
 10
-33.3221453813
 20
27.3816257005
 30
0.0
 10
-33.0546795441
 20
27.4542022227
 30
0.0
 10
-32.7578102641
 20
27.5236520187
 30
0.0
 10
-32.4291240466
 20
27.5891838738
 30
0.0
 10
-32.065823575
 20
27.6493679217
 30
0.0
 10
-31.6649200073
 20
27.7031784059
 30
0.0
 10
-31.2232767687
 20
27.7498084498
 30
0.0
 10
-30.7377283362
 20
27.7887344504
 30
0.0
 10
-30.2052824002
 20
27.8198709404
 30
0.0
 10
-29.623326153
 20
27.8447648473
 30
0.0
 10
-28.9889182172
 20
27.8650015102
 30
0.0
 10
-28.298444406
 20
27.8796439898
 30
0.0
 10
-27.5477533349
 20
27.8890852482
 30
0.0
 10
-26.7327174165
 20
27.8944845637
 30
0.0
 10
-25.8479396941
 20
27.8977333851
 30
0.0
 10
-24.8855540369
 20
27.9027078279
 30
0.0
 10
-23.8371767854
 20
27.917334539
 30
0.0
 10
-22.6963447862
 20
27.9506380037
 30
0.0
 10
-21.4528492104
 20
27.9881962881
 30
0.0
 10
-20.5888396883
 20
28.0021206793
 30
0.0
 10
-20.1371961328
 20
28.0021180643
 30
0.0
 11
-35.9207869474
 21
11.712308038
 31
0.0
 11
-35.9153878587
 21
12.838555796
 31
0.0
 11
-35.9031329528
 21
13.8724740668
 31
0.0
 11
-35.8881478529
 21
14.8231949966
 31
0.0
 11
-35.8741428774
 21
15.6986431543
 31
0.0
 11
-35.8632836393
 21
16.5043326576
 31
0.0
 11
-35.8551507248
 21
17.2445951714
 31
0.0
 11
-35.8488305958
 21
17.9252903829
 31
0.0
 11
-35.84370977
 21
18.5517804415
 31
0.0
 11
-35.839378898
 21
19.1288722911
 31
0.0
 11
-35.8356139947
 21
19.6604358296
 31
0.0
 11
-35.8322498684
 21
20.1496143191
 31
0.0
 11
-35.8289946502
 21
20.5996529629
 31
0.0
 11
-35.8255975018
 21
21.0140754863
 31
0.0
 11
-35.8219222764
 21
21.3959316485
 31
0.0
 11
-35.8179100318
 21
21.7480362367
 31
0.0
 11
-35.8135245873
 21
22.0728091882
 31
0.0
 11
-35.8085568695
 21
22.3718907385
 31
0.0
 11
-35.8028087448
 21
22.6472637234
 31
0.0
 11
-35.7962253828
 21
22.9004372693
 31
0.0
 11
-35.7888344284
 21
23.1328363464
 31
0.0
 11
-35.7806894428
 21
23.3462314289
 31
0.0
 11
-35.7718535263
 21
23.542491557
 31
0.0
 11
-35.7624182772
 21
23.7228946215
 31
0.0
 11
-35.7525379594
 21
23.8877436308
 31
0.0
 11
-35.7424018434
 21
24.0370190987
 31
0.0
 11
-35.7321088734
 21
24.1716375876
 31
0.0
 11
-35.7215201509
 21
24.295229292
 31
0.0
 11
-35.7103770996
 21
24.4117031115
 31
0.0
 11
-35.6983012235
 21
24.524847099
 31
0.0
 11
-35.684977539
 21
24.636605395
 31
0.0
 11
-35.6704129263
 21
24.7458261297
 31
0.0
 11
-35.6549932644
 21
24.8493535884
 31
0.0
 11
-35.6397274035
 21
24.9418067374
 31
0.0
 11
-35.6254690885
 21
25.0205959609
 31
0.0
 11
-35.6122471581
 21
25.0879818386
 31
0.0
 11
-35.5998459624
 21
25.1468355872
 31
0.0
 11
-35.5879706709
 21
25.1998171705
 31
0.0
 11
-35.5763013994
 21
25.2491122129
 31
0.0
 11
-35.5644154299
 21
25.296858435
 31
0.0
 11
-35.5520206116
 21
25.3443006752
 31
0.0
 11
-35.5390718273
 21
25.3915793327
 31
0.0
 11
-35.5255554172
 21
25.4387051568
 31
0.0
 11
-35.5114426205
 21
25.4857453763
 31
0.0
 11
-35.4965654975
 21
25.5332656352
 31
0.0
 11
-35.4808000084
 21
25.5819142085
 31
0.0
 11
-35.4646109614
 21
25.6304945024
 31
0.0
 11
-35.4481480117
 21
25.6784164991
 31
0.0
 11
-35.430846842
 21
25.7270301033
 31
0.0
 11
-35.4119131556
 21
25.7780622317
 31
0.0
 11
-35.3903965825
 21
25.8333180646
 31
0.0
 11
-35.3653245985
 21
25.8941688413
 31
0.0
 11
-35.3356316528
 21
25.96148864
 31
0.0
 11
-35.3004706718
 21
26.0346612186
 31
0.0
 11
-35.2610663222
 21
26.1087940131
 31
0.0
 11
-35.2192199494
 21
26.1797962476
 31
0.0
 11
-35.1744268654
 21
26.2486332777
 31
0.0
 11
-35.1261101358
 21
26.3161815037
 31
0.0
 11
-35.0740101446
 21
26.3826092008
 31
0.0
 11
-35.0181125299
 21
26.44773517
 31
0.0
 11
-34.9588831119
 21
26.5109322745
 31
0.0
 11
-34.895582568
 21
26.5729561503
 31
0.0
 11
-34.8259104282
 21
26.6357615545
 31
0.0
 11
-34.7471338384
 21
26.7010219512
 31
0.0
 11
-34.6563035758
 21
26.7699284684
 31
0.0
 11
-34.5516891281
 21
26.8422503283
 31
0.0
 11
-34.4324328032
 21
26.9170024649
 31
0.0
 11
-34.2976806326
 21
26.9932561392
 31
0.0
 11
-34.1459314255
 21
27.0704931881
 31
0.0
 11
-33.9752618251
 21
27.1482631828
 31
0.0
 11
-33.7837009184
 21
27.225899355
 31
0.0
 11
-33.5692162586
 21
27.3026272344
 31
0.0
 11
-33.329805235
 21
27.3776587275
 31
0.0
 11
-33.0632403162
 21
27.4502819973
 31
0.0
 11
-32.7672412557
 21
27.5198085967
 31
0.0
 11
-32.4395844929
 21
27.5853326243
 31
0.0
 11
-32.0774820142
 21
27.645619816
 31
0.0
 11
-31.6777777896
 21
27.6996272701
 31
0.0
 11
-31.2373721968
 21
27.7465366714
 31
0.0
 11
-30.7530615
 21
27.7858315384
 31
0.0
 11
-30.2216250242
 21
27.8175848454
 31
0.0
 11
-29.6404950095
 21
27.84302119
 31
0.0
 11
-29.007470998
 21
27.8633288886
 31
0.0
 11
-28.3185120567
 21
27.8782688669
 31
0.0
 11
-27.5691948032
 21
27.8881027987
 31
0.0
 11
-26.7554864857
 21
27.893949408
 31
0.0
 11
-25.8734526489
 21
27.8978506142
 31
0.0
 11
-24.9148922554
 21
27.9038977034
 31
0.0
 11
-23.8684367086
 21
27.9194419487
 31
0.0
 11
-22.7286562727
 21
27.9498790565
 31
0.0
 11
-21.4920088565
 21
27.9842408401
 31
0.0
 11
-20.1371961328
 21
28.0021180643
 31
0.0
  0
SPLINE
  5
64B
100
AcDbEntity
  8
RACCORDO
100
AcDbSpline
 62
253
  6
CONTINUOUS
 70
0
 71
3
 72
15
 73
11
 74
9
 42
0.0000001
 43
0.0000001
 44
0.0000000001
 12
-6.7368573621
 22
-0.0000205502
 32
0.0
 13
-6.7353669031
 23
0.1417032013
 33
0.0
 40
0.0
 40
0.0
 40
0.0
 40
0.0
 40
0.1611851269
 40
0.3101133842
 40
0.4478971575
 40
0.5754919516
 40
0.6937847457
 40
0.8035705484
 40
0.9054905019
 40
1.0
 40
1.0
 40
1.0
 40
1.0
 10
-37.2567581488
 20
-11.7877040267
 30
0.0
 10
-37.6187185517
 20
-11.7877051308
 30
0.0
 10
-38.3151151016
 20
-11.7877071854
 30
0.0
 10
-39.3209215026
 20
-11.7876995715
 30
0.0
 10
-40.2512968951
 20
-11.7877075831
 30
0.0
 10
-41.1128764242
 20
-11.7876176815
 30
0.0
 10
-41.9115841105
 20
-11.787770433
 30
0.0
 10
-42.6526326839
 20
-11.7881300549
 30
0.0
 10
-43.3402813962
 20
-11.7911110278
 30
0.0
 10
-43.7813735081
 20
-11.7850551965
 30
0.0
 10
-43.9935588898
 20
-11.780591097
 30
0.0
 11
-37.2567581488
 21
-11.7877040267
 31
0.0
 11
-38.3426393574
 21
-11.7877052874
 31
0.0
 11
-39.345947784
 21
-11.787702193
 31
0.0
 11
-40.2741774116
 21
-11.7876896343
 31
0.0
 11
-41.1337653394
 21
-11.787659452
 31
0.0
 11
-41.9306870047
 21
-11.7878145973
 31
0.0
 11
-42.670297848
 21
-11.7886308149
 31
0.0
 11
-43.3569179162
 21
-11.7890380195
 31
0.0
 11
-43.9935588898
 21
-11.780591097
 31
0.0
  0
SPLINE
  5
64C
100
AcDbEntity
  8
RACCORDO
100
AcDbSpline
 62
253
  6
CONTINUOUS
 70
0
 71
3
 72
15
 73
11
 74
9
 42
0.0000001
 43
0.0000001
 44
0.0000000001
 12
-6.7368573636
 22
0.0000205486
 32
0.0
 13
-6.7353668724
 23
-0.14170474
 33
0.0
 40
0.0
 40
0.0
 40
0.0
 40
0.0
 40
0.1611849507
 40
0.3101131036
 40
0.4478968268
 40
0.5754916186
 40
0.6937844508
 40
0.8035703249
 40
0.9054903773
 40
1.0
 40
1.0
 40
1.0
 40
1.0
 10
-37.2567581488
 20
11.7123084842
 30
0.0
 10
-37.6187181561
 20
11.7123095882
 30
0.0
 10
-38.315114076
 20
11.7123116426
 30
0.0
 10
-39.3209197347
 20
11.7123040296
 30
0.0
 10
-40.2512947752
 20
11.7123120401
 30
0.0
 10
-41.1128742724
 20
11.7122221379
 30
0.0
 10
-41.9115821996
 20
11.712374899
 30
0.0
 10
-42.6526312412
 20
11.712734533
 30
0.0
 10
-43.3402806162
 20
11.7157154393
 30
0.0
 10
-43.7813732293
 20
11.7096595213
 30
0.0
 10
-43.9935588898
 20
11.7051953674
 30
0.0
 11
-37.2567581488
 21
11.7123084842
 31
0.0
 11
-38.3426381706
 21
11.7123097448
 31
0.0
 11
-39.3459458942
 21
11.7123066507
 31
0.0
 11
-40.2741751845
 21
11.7122940913
 31
0.0
 11
-41.1337630966
 21
11.7122639103
 31
0.0
 11
-41.9306850193
 21
11.7124190641
 31
0.0
 11
-42.6702963434
 21
11.7132352785
 31
0.0
 11
-43.3569170783
 21
11.7136424178
 31
0.0
 11
-43.9935588898
 21
11.7051953674
 31
0.0
  0
SPLINE
  5
64D
100
AcDbEntity
  8
RACCORDO
100
AcDbSpline
 62
253
  6
CONTINUOUS
 70
0
 71
3
 72
90
 73
86
 74
84
 42
0.0000001
 43
0.0000001
 44
0.0000000001
 12
-0.0001095014
 22
-31.2936150083
 32
0.0
 13
-31.2936150077
 23
0.0002222806
 33
0.0
 40
0.0
 40
0.0
 40
0.0
 40
0.0
 40
0.0364038609
 40
0.0696678931
 40
0.1001130968
 40
0.128010877
 40
0.1536201342
 40
0.1771755413
 40
0.198855694
 40
0.2188277357
 40
0.2372364808
 40
0.2541999546
 40
0.2698250339
 40
0.2842285861
 40
0.2975173881
 40
0.3097838919
 40
0.3211138876
 40
0.3315942801
 40
0.3413062594
 40
0.350301996
 40
0.3586196774
 40
0.3662986196
 40
0.373393359
 40
0.3799630242
 40
0.3860465256
 40
0.3916457048
 40
0.3967595113
 40
0.4014225786
 40
0.4057634362
 40
0.4099294608
 40
0.4140703591
 40
0.4182512513
 40
0.4223762136
 40
0.4263994999
 40
0.4303625673
 40
0.4343136893
 40
0.4382884366
 40
0.442262877
 40
0.4462016847
 40
0.4500871297
 40
0.4539323375
 40
0.4577546123
 40
0.4615516631
 40
0.4652879734
 40
0.4689393628
 40
0.4725709669
 40
0.4762623142
 40
0.479985135
 40
0.4837149658
 40
0.4874165378
 40
0.4910896538
 40
0.4947735853
 40
0.4984761001
 40
0.5021618593
 40
0.505866885
 40
0.5097201116
 40
0.5138510748
 40
0.5183757367
 40
0.5233342598
 40
0.5287257718
 40
0.5345490093
 40
0.5408432926
 40
0.5476711428
 40
0.5550933269
 40
0.5631634379
 40
0.5719350519
 40
0.581475776
 40
0.5918582846
 40
0.6031741612
 40
0.6155165355
 40
0.6289832515
 40
0.6436604516
 40
0.6596445138
 40
0.6770205724
 40
0.695857564
 40
0.7163013133
 40
0.738497817
 40
0.7625692008
 40
0.7886383933
 40
0.8168118474
 40
0.8473178075
 40
0.8804839905
 40
0.9167158867
 40
0.9563108877
 40
1.0
 40
1.0
 40
1.0
 40
1.0
 10
37.9822995012
 20
-11.7877040217
 30
0.0
 10
37.9822981724
 20
-12.1674401573
 30
0.0
 10
37.9780720643
 20
-12.8941615794
 30
0.0
 10
37.964214503
 20
-13.9383760135
 30
0.0
 10
37.9454326599
 20
-14.8937687977
 30
0.0
 10
37.9234048638
 20
-15.7692191928
 30
0.0
 10
37.898590613
 20
-16.5726943919
 30
0.0
 10
37.8723683578
 20
-17.3112267568
 30
0.0
 10
37.847695725
 20
-17.9909726681
 30
0.0
 10
37.8259035732
 20
-18.6171025579
 30
0.0
 10
37.8086496888
 20
-19.1941554821
 30
0.0
 10
37.7965355356
 20
-19.7259866982
 30
0.0
 10
37.7893597312
 20
-20.2161224116
 30
0.0
 10
37.7851788254
 20
-20.6679576269
 30
0.0
 10
37.7831572051
 20
-21.0847728418
 30
0.0
 10
37.7825926674
 20
-21.469531166
 30
0.0
 10
37.7830107614
 20
-21.8249941072
 30
0.0
 10
37.7840665261
 20
-22.1538094526
 30
0.0
 10
37.7827088752
 20
-22.4582778686
 30
0.0
 10
37.7785448356
 20
-22.7401610495
 30
0.0
 10
37.771183619
 20
-23.0007672112
 30
0.0
 10
37.7604986006
 20
-23.2414126228
 30
0.0
 10
37.7466598794
 20
-23.4636314259
 30
0.0
 10
37.7299667068
 20
-23.6689617278
 30
0.0
 10
37.7107159274
 20
-23.8583929467
 30
0.0
 10
37.6894691924
 20
-24.0323204031
 30
0.0
 10
37.666382884
 20
-24.1910583582
 30
0.0
 10
37.6413060728
 20
-24.3361896649
 30
0.0
 10
37.614478444
 20
-24.4709382594
 30
0.0
 10
37.5853789174
 20
-24.5996350965
 30
0.0
 10
37.5534747844
 20
-24.7259450447
 30
0.0
 10
37.5184048455
 20
-24.850969105
 30
0.0
 10
37.4804036795
 20
-24.9738512398
 30
0.0
 10
37.4397376219
 20
-25.0934791044
 30
0.0
 10
37.396356671
 20
-25.2102228695
 30
0.0
 10
37.3489752261
 20
-25.3248635908
 30
0.0
 10
37.2976560835
 20
-25.437905191
 30
0.0
 10
37.2452728135
 20
-25.5503035767
 30
0.0
 10
37.1924195506
 20
-25.6614526393
 30
0.0
 10
37.1393312167
 20
-25.7709966693
 30
0.0
 10
37.0844579653
 20
-25.8783046064
 30
0.0
 10
37.0273431137
 20
-25.9833835087
 30
0.0
 10
36.968952773
 20
-26.0864521458
 30
0.0
 10
36.9093495011
 20
-26.1867601653
 30
0.0
 10
36.8480722773
 20
-26.2840317644
 30
0.0
 10
36.7829935482
 20
-26.3782725826
 30
0.0
 10
36.7123798484
 20
-26.4693763664
 30
0.0
 10
36.637871733
 20
-26.558623346
 30
0.0
 10
36.5608771624
 20
-26.6458748266
 30
0.0
 10
36.4820046621
 20
-26.7307245013
 30
0.0
 10
36.4012919642
 20
-26.8131578237
 30
0.0
 10
36.3183936075
 20
-26.893407853
 30
0.0
 10
36.2332570592
 20
-26.9714752149
 30
0.0
 10
36.145856286
 20
-27.0473347877
 30
0.0
 10
36.0552324846
 20
-27.1218146381
 30
0.0
 10
35.9589216428
 20
-27.1966191539
 30
0.0
 10
35.8535601346
 20
-27.2736240277
 30
0.0
 10
35.7363175684
 20
-27.3538030183
 30
0.0
 10
35.6053454591
 20
-27.4370548337
 30
0.0
 10
35.4598172383
 20
-27.5224715237
 30
0.0
 10
35.298956409
 20
-27.6090562931
 30
0.0
 10
35.1214773831
 20
-27.6960903714
 30
0.0
 10
34.9255549609
 20
-27.7830509188
 30
0.0
 10
34.7092356812
 20
-27.8693092791
 30
0.0
 10
34.4706555786
 20
-27.9539927246
 30
0.0
 10
34.2079454442
 20
-28.0361762025
 30
0.0
 10
33.9191150038
 20
-28.1149791438
 30
0.0
 10
33.6018371957
 20
-28.189557726
 30
0.0
 10
33.253622147
 20
-28.2593847614
 30
0.0
 10
32.8716496009
 20
-28.3235171719
 30
0.0
 10
32.4531886979
 20
-28.3809408863
 30
0.0
 10
31.9954709417
 20
-28.4302584396
 30
0.0
 10
31.4959936001
 20
-28.4710035633
 30
0.0
 10
30.9524098876
 20
-28.5028962171
 30
0.0
 10
30.3618770063
 20
-28.52682187
 30
0.0
 10
29.7208761126
 20
-28.5461086374
 30
0.0
 10
29.0251187795
 20
-28.5599192311
 30
0.0
 10
28.2705968142
 20
-28.5683688408
 30
0.0
 10
27.4536980134
 20
-28.5729084173
 30
0.0
 10
26.5696734115
 20
-28.5760420387
 30
0.0
 10
25.6116326862
 20
-28.5825180001
 30
0.0
 10
24.5696102021
 20
-28.5992460245
 30
0.0
 10
23.433244357
 20
-28.6358060867
 30
0.0
 10
22.1872280966
 20
-28.6765478769
 30
0.0
 10
21.3184721203
 20
-28.6906811739
 30
0.0
 10
20.8627420331
 20
-28.6906779368
 30
0.0
 11
37.9822995012
 21
-11.7877040217
 31
0.0
 11
37.976402461
 21
-12.9268971657
 31
0.0
 11
37.9626674963
 21
-13.9677583653
 31
0.0
 11
37.9439991
 21
-14.9203159339
 31
0.0
 11
37.9219372313
 21
-15.7930595221
 31
0.0
 11
37.897287175
 21
-16.5940865695
 31
0.0
 11
37.8715732602
 21
-17.3307717781
 31
0.0
 11
37.8472247494
 21
-18.0087850746
 31
0.0
 11
37.8258672017
 21
-18.633417433
 31
0.0
 11
37.8089100887
 21
-19.2092439904
 31
0.0
 11
37.7969667739
 21
-19.7399580383
 31
0.0
 11
37.7896300003
 21
-20.2288682089
 31
0.0
 11
37.7854152899
 21
-20.6795877203
 31
0.0
 11
37.7833493269
 21
-21.0954372416
 31
0.0
 11
37.7827541666
 21
-21.4793000272
 31
0.0
 11
37.7831460994
 21
-21.8338563342
 31
0.0
 11
37.7836570586
 21
-22.1618253031
 31
0.0
 11
37.7821332278
 21
-22.4657444248
 31
0.0
 11
37.7777838491
 21
-22.7472199415
 31
0.0
 11
37.7702680836
 21
-23.0074017322
 31
0.0
 11
37.7594872582
 21
-23.2474616374
 31
0.0
 11
37.7455940092
 21
-23.4690465574
 31
0.0
 11
37.7288415141
 21
-23.6739514508
 31
0.0
 11
37.7095390732
 21
-23.8633451182
 31
0.0
 11
37.6881631347
 21
-24.0372549027
 31
0.0
 11
37.6649710454
 21
-24.1955949329
 31
0.0
 11
37.640103992
 21
-24.3393847491
 31
0.0
 11
37.6135381365
 21
-24.4726028671
 31
0.0
 11
37.5847902978
 21
-24.599763753
 31
0.0
 11
37.5530355115
 21
-24.7253964027
 31
0.0
 11
37.5176903461
 21
-24.851366945
 31
0.0
 11
37.4795150548
 21
-24.9746778518
 31
0.0
 11
37.4389753712
 21
-25.0938757665
 31
0.0
 11
37.3956160476
 21
-25.2100678827
 31
0.0
 11
37.3484251377
 21
-25.3243529509
 31
0.0
 11
37.2974679793
 21
-25.4378201297
 31
0.0
 11
37.2449697112
 21
-25.5505719567
 31
0.0
 11
37.192042199
 21
-25.6618894803
 31
0.0
 11
37.1387568398
 21
-25.7711813207
 31
0.0
 11
37.0839013795
 21
-25.8782807895
 31
0.0
 11
37.0269104706
 21
-25.9834437924
 31
0.0
 11
36.9682825485
 21
-26.0867964786
 31
0.0
 11
36.9084587139
 21
-26.1872555066
 31
0.0
 11
36.8472864068
 21
-26.283767054
 31
0.0
 11
36.782514432
 21
-26.3771480437
 31
0.0
 11
36.7120423552
 21
-26.46867695
 31
0.0
 11
36.6375154514
 21
-26.5582208592
 31
0.0
 11
36.5603076769
 21
-26.6457565222
 31
0.0
 11
36.4814386086
 21
-26.7305948916
 31
0.0
 11
36.4010096247
 21
-26.8127140117
 31
0.0
 11
36.3181772197
 21
-26.892895592
 31
0.0
 11
36.2327766378
 21
-26.9711992058
 31
0.0
 11
36.1456753167
 21
-27.0468090148
 31
0.0
 11
36.0561008466
 21
-27.1204252087
 31
0.0
 11
35.9608684511
 21
-27.1943891378
 31
0.0
 11
35.8565038933
 21
-27.2706747104
 31
0.0
 11
35.7396367976
 21
-27.350616357
 31
0.0
 11
35.6086993587
 21
-27.4338819034
 31
0.0
 11
35.4632114378
 21
-27.5193200072
 31
0.0
 11
35.3027785665
 21
-27.6057440939
 31
0.0
 11
35.1259666536
 21
-27.6925489014
 31
0.0
 11
34.9307155006
 21
-27.7793305257
 31
0.0
 11
34.7150135979
 21
-27.865473632
 31
0.0
 11
34.4770697049
 21
-27.9500942225
 31
0.0
 11
34.215151023
 21
-28.0322306368
 31
0.0
 11
33.9271730114
 21
-28.1110276856
 31
0.0
 11
33.6109545859
 21
-28.1856598773
 31
0.0
 11
33.2638006475
 21
-28.2555265609
 31
0.0
 11
32.882940147
 21
-28.3197503425
 31
0.0
 11
32.465464001
 21
-28.3772860586
 31
0.0
 11
32.0088494214
 21
-28.4269050943
 31
0.0
 11
31.5103418295
 21
-28.4680063201
 31
0.0
 11
30.9675497053
 21
-28.5004301785
 31
0.0
 11
30.3785912138
 21
-28.5251626224
 31
0.0
 11
29.7391250978
 21
-28.5445128912
 31
0.0
 11
29.0446585194
 21
-28.5585704868
 31
0.0
 11
28.2914303043
 21
-28.5674554869
 31
0.0
 11
27.4756467702
 21
-28.5725234481
 31
0.0
 11
26.5940061091
 21
-28.5764093965
 31
0.0
 11
25.6393925385
 21
-28.5837471555
 31
0.0
 11
24.6016528341
 21
-28.6013954877
 31
0.0
 11
23.4683171964
 21
-28.6347724259
 31
0.0
 11
22.2298037418
 21
-28.6719297059
 31
0.0
 11
20.8627420331
 21
-28.6906779368
 31
0.0
  0
SPLINE
  5
64E
100
AcDbEntity
  8
RACCORDO
100
AcDbSpline
 62
253
  6
CONTINUOUS
 70
0
 71
3
 72
66
 73
62
 74
60
 42
0.0000001
 43
0.0000001
 44
0.0000000001
 12
0.0000019077
 22
-32.4459447908
 32
0.0
 13
-0.5349292042
 23
-32.4415348606
 33
0.0
 40
0.0
 40
0.0
 40
0.0
 40
0.0
 40
0.0596345596
 40
0.1148955443
 40
0.1661899306
 40
0.213804549
 40
0.2579840574
 40
0.2989522841
 40
0.3369313879
 40
0.372145781
 40
0.4048091934
 40
0.4351174138
 40
0.4632476898
 40
0.4893650736
 40
0.513619762
 40
0.5361439616
 40
0.5570474494
 40
0.5764309829
 40
0.5943990008
 40
0.6110550496
 40
0.6264964691
 40
0.6408105724
 40
0.654078951
 40
0.6663953001
 40
0.6778519145
 40
0.6884942623
 40
0.6983177198
 40
0.7073335079
 40
0.7156614608
 40
0.7235181626
 40
0.7311537705
 40
0.7387566107
 40
0.7463764539
 40
0.7539958885
 40
0.7616068434
 40
0.7692251612
 40
0.7768951939
 40
0.7846131605
 40
0.79231082
 40
0.8000762525
 40
0.8082535977
 40
0.8173267364
 40
0.8275596743
 40
0.8385536258
 40
0.8495350718
 40
0.8600061022
 40
0.8699069442
 40
0.8793618963
 40
0.8885190923
 40
0.8975441245
 40
0.9065648582
 40
0.9156022551
 40
0.9246666053
 40
0.9338665596
 40
0.9433229669
 40
0.9530592927
 40
0.9629917477
 40
0.9729265213
 40
0.9826790386
 40
0.9918411573
 40
1.0
 40
1.0
 40
1.0
 40
1.0
 10
44.7191053544
 20
-11.7805894017
 30
0.0
 10
44.7191053923
 20
-12.4255559448
 30
0.0
 10
44.7189682921
 20
-13.6681874409
 30
0.0
 10
44.7185122105
 20
-15.465583824
 30
0.0
 10
44.7178934681
 20
-17.1329807004
 30
0.0
 10
44.7171518189
 20
-18.6805278573
 30
0.0
 10
44.7163577593
 20
-20.1163943015
 30
0.0
 10
44.7156753863
 20
-21.4480496683
 30
0.0
 10
44.715202299
 20
-22.6827445754
 30
0.0
 10
44.7149065159
 20
-23.8276203513
 30
0.0
 10
44.7147029407
 20
-24.8895331232
 30
0.0
 10
44.7145688953
 20
-25.8748289505
 30
0.0
 10
44.7145445375
 20
-26.7893274251
 30
0.0
 10
44.7145808962
 20
-27.6383550435
 30
0.0
 10
44.7146546077
 20
-28.4267511773
 30
0.0
 10
44.7147721321
 20
-29.1587573783
 30
0.0
 10
44.7149110992
 20
-29.8380804972
 30
0.0
 10
44.7150810821
 20
-30.4681270774
 30
0.0
 10
44.7149404338
 20
-31.0522362982
 30
0.0
 10
44.7145412634
 20
-31.5937101598
 30
0.0
 10
44.7139566123
 20
-32.0956656312
 30
0.0
 10
44.7129353016
 20
-32.5609816438
 30
0.0
 10
44.7115538113
 20
-32.9924979224
 30
0.0
 10
44.7098922723
 20
-33.3931083109
 30
0.0
 10
44.7080245285
 20
-33.7653161022
 30
0.0
 10
44.7059806307
 20
-34.1105611256
 30
0.0
 10
44.7037928664
 20
-34.4294063793
 30
0.0
 10
44.7015437318
 20
-34.723219603
 30
0.0
 10
44.699276015
 20
-34.9957609099
 30
0.0
 10
44.6969845568
 20
-35.2533743756
 30
0.0
 10
44.6946128602
 20
-35.5031444501
 30
0.0
 10
44.6921321075
 20
-35.7503516333
 30
0.0
 10
44.6895318515
 20
-35.9973826589
 30
0.0
 10
44.6868092187
 20
-36.24450013
 30
0.0
 10
44.6839912183
 20
-36.4916000362
 30
0.0
 10
44.6811168547
 20
-36.7392465316
 30
0.0
 10
44.6780144337
 20
-36.9880479259
 30
0.0
 10
44.674194364
 20
-37.2376977188
 30
0.0
 10
44.6697440515
 20
-37.4883688595
 30
0.0
 10
44.6646743891
 20
-37.743997538
 30
0.0
 10
44.6587780515
 20
-38.0144884579
 30
0.0
 10
44.6517599718
 20
-38.3116475848
 30
0.0
 10
44.6435533535
 20
-38.6392492728
 30
0.0
 10
44.6343261186
 20
-38.9874704183
 30
0.0
 10
44.6247529092
 20
-39.3382581542
 30
0.0
 10
44.6154314078
 20
-39.677226022
 30
0.0
 10
44.6065340441
 20
-39.9996898011
 30
0.0
 10
44.5980009028
 20
-40.3079486782
 30
0.0
 10
44.5899075363
 20
-40.606743965
 30
0.0
 10
44.5823695937
 20
-40.9008560615
 30
0.0
 10
44.5750732916
 20
-41.1936780994
 30
0.0
 10
44.5678523574
 20
-41.4869274206
 30
0.0
 10
44.5609604135
 20
-41.7821235577
 30
0.0
 10
44.554250641
 20
-42.0818567092
 30
0.0
 10
44.5475626747
 20
-42.3888597726
 30
0.0
 10
44.5411716561
 20
-42.7037931901
 30
0.0
 10
44.5352676346
 20
-43.0239106489
 30
0.0
 10
44.529725071
 20
-43.3442096056
 30
0.0
 10
44.5245166011
 20
-43.6561815913
 30
0.0
 10
44.5197283883
 20
-43.9489506377
 30
0.0
 10
44.5166938455
 20
-44.136257714
 30
0.0
 10
44.5152390445
 20
-44.2244861744
 30
0.0
 11
44.7191053544
 21
-11.7805894017
 31
0.0
 11
44.7189150638
 21
-13.7154890216
 31
0.0
 11
44.7184649554
 21
-15.5084838214
 31
0.0
 11
44.7178475823
 21
-17.1727785334
 31
0.0
 11
44.7171143072
 21
-18.7176796388
 31
0.0
 11
44.7163486161
 21
-20.1511253248
 31
0.0
 11
44.715688542
 21
-21.4803779828
 31
0.0
 11
44.7152174429
 21
-22.7126457998
 31
0.0
 11
44.7149125565
 21
-23.8552100112
 31
0.0
 11
44.7147082567
 21
-24.9150052693
 31
0.0
 11
44.7145842911
 21
-25.8983841053
 31
0.0
 11
44.7145549158
 21
-26.8110974883
 31
0.0
 11
44.7145891801
 21
-27.6585006808
 31
0.0
 11
44.714665478
 21
-28.4454669568
 31
0.0
 11
44.7147805077
 21
-29.1762858856
 31
0.0
 11
44.7149221134
 21
-29.8545192813
 31
0.0
 11
44.7150296649
 21
-30.4834363293
 31
0.0
 11
44.7148869568
 21
-31.0664256288
 31
0.0
 11
44.714491612
 21
-31.6068467245
 31
0.0
 11
44.7138531352
 21
-32.1078577627
 31
0.0
 11
44.7128296079
 21
-32.5722912399
 31
0.0
 11
44.7114504439
 21
-33.0027941083
 31
0.0
 11
44.7097936357
 21
-33.4024062596
 31
0.0
 11
44.7079223913
 21
-33.7741222251
 31
0.0
 11
44.7058718583
 21
-34.1194171678
 31
0.0
 11
44.7036889776
 21
-34.4381410523
 31
0.0
 11
44.7014530495
 21
-34.7306582697
 31
0.0
 11
44.6992069943
 21
-35.000857233
 31
0.0
 11
44.696937411
 21
-35.2557652425
 31
0.0
 11
44.6945871702
 21
-35.5034986095
 31
0.0
 11
44.6921137953
 21
-35.7501675427
 31
0.0
 11
44.6895115541
 21
-35.9973868586
 31
0.0
 11
44.6867922678
 21
-36.2445916581
 31
0.0
 11
44.6839838008
 21
-36.4915203071
 31
0.0
 11
44.6810879308
 21
-36.7386868622
 31
0.0
 11
44.6779038242
 21
-36.987527949
 31
0.0
 11
44.6740885795
 21
-37.2379156016
 31
0.0
 11
44.6696709653
 21
-37.4876343672
 31
0.0
 11
44.6646823296
 21
-37.7395417679
 31
0.0
 11
44.6589130095
 21
-38.0048007282
 31
0.0
 11
44.6519900913
 21
-38.2991058708
 31
0.0
 11
44.6436823143
 21
-38.6310192558
 31
0.0
 11
44.6342754511
 21
-38.9876043421
 31
0.0
 11
44.6245896172
 21
-39.3437760564
 31
0.0
 11
44.6152565293
 21
-39.6833903105
 31
0.0
 11
44.6063961155
 21
-40.0045102696
 31
0.0
 11
44.5979426701
 21
-40.311168629
 31
0.0
 11
44.5899414394
 21
-40.608174751
 31
0.0
 11
44.5824031412
 21
-40.9009033988
 31
0.0
 11
44.5750920624
 21
-41.1934982994
 31
0.0
 11
44.5679217889
 21
-41.4866374994
 31
0.0
 11
44.5610413727
 21
-41.7806584142
 31
0.0
 11
44.5543421888
 21
-42.0790844408
 31
0.0
 11
44.5477037159
 21
-42.3858346832
 31
0.0
 11
44.5413110686
 21
-42.7016742856
 31
0.0
 11
44.5353292355
 21
-43.0238866519
 31
0.0
 11
44.5297239746
 21
-43.3461810292
 31
0.0
 11
44.5244285154
 21
-43.6625663519
 31
0.0
 11
44.5195590187
 21
-43.9598000643
 31
0.0
 11
44.5152390445
 21
-44.2244861744
 31
0.0
  0
SPLINE
  5
64F
100
AcDbEntity
  8
RACCORDO
100
AcDbSpline
 62
253
  6
CONTINUOUS
 70
0
 71
3
 72
44
 73
40
 74
38
 42
0.0000001
 43
0.0000001
 44
0.0000000001
 12
-23.6497479694
 22
-0.3840220417
 32
0.0
 13
-23.652865618
 23
-0.0000069915
 33
0.0
 40
0.0
 40
0.0
 40
0.0
 40
0.0
 40
0.009469248
 40
0.0199238171
 40
0.0305997341
 40
0.0409426948
 40
0.0509507365
 40
0.0608576214
 40
0.0710025371
 40
0.0816823135
 40
0.0929108797
 40
0.1043309955
 40
0.1156620556
 40
0.126933568
 40
0.138374431
 40
0.1503396669
 40
0.1632412125
 40
0.1774198016
 40
0.1930054244
 40
0.2099783313
 40
0.2283570851
 40
0.2482659823
 40
0.2698652105
 40
0.2932754388
 40
0.3186062785
 40
0.3460394396
 40
0.3758566982
 40
0.4083534324
 40
0.4437059702
 40
0.4820512772
 40
0.5236700118
 40
0.5689012491
 40
0.6179977652
 40
0.6713732687
 40
0.729501991
 40
0.7927104883
 40
0.8613215459
 40
0.9331809099
 40
1.0
 40
1.0
 40
1.0
 40
1.0
 10
44.5152390445
 20
-44.2244861744
 30
0.0
 10
44.4405906015
 20
-44.2256983077
 30
0.0
 10
44.2835245997
 20
-44.2281505621
 30
0.0
 10
44.0423008034
 20
-44.2321620907
 30
0.0
 10
43.7941888686
 20
-44.2362579485
 30
0.0
 10
43.5495942168
 20
-44.2401241716
 30
0.0
 10
43.3110598926
 20
-44.2437531321
 30
0.0
 10
43.0740844639
 20
-44.2471996901
 30
0.0
 10
42.8318107845
 20
-44.250535994
 30
0.0
 10
42.5791140768
 20
-44.2537542592
 30
0.0
 10
42.3163595446
 20
-44.2567224984
 30
0.0
 10
42.0484662519
 20
-44.2593463556
 30
0.0
 10
41.7802329237
 20
-44.2618164631
 30
0.0
 10
41.5118343217
 20
-44.264097245
 30
0.0
 10
41.2384344511
 20
-44.2662453111
 30
0.0
 10
40.9521820496
 20
-44.2683257931
 30
0.0
 10
40.6443440145
 20
-44.2703934072
 30
0.0
 10
40.3079615276
 20
-44.2725117357
 30
0.0
 10
39.9394784662
 20
-44.2745970442
 30
0.0
 10
39.5378790116
 20
-44.2765658847
 30
0.0
 10
39.102192478
 20
-44.2783605912
 30
0.0
 10
38.6300295018
 20
-44.2799047381
 30
0.0
 10
38.1181959173
 20
-44.2811366295
 30
0.0
 10
37.5636138444
 20
-44.2822558375
 30
0.0
 10
36.9630349056
 20
-44.2831669488
 30
0.0
 10
36.3119407545
 20
-44.2838398537
 30
0.0
 10
35.604348381
 20
-44.2842414911
 30
0.0
 10
34.834317265
 20
-44.2843113498
 30
0.0
 10
33.9970485581
 20
-44.2843039164
 30
0.0
 10
33.0878594177
 20
-44.2846444468
 30
0.0
 10
32.1007838634
 20
-44.2851817345
 30
0.0
 10
31.0289427687
 20
-44.2859225487
 30
0.0
 10
29.86440768
 20
-44.2862230573
 30
0.0
 10
28.598185097
 20
-44.2862539864
 30
0.0
 10
27.2206995587
 20
-44.2862814833
 30
0.0
 10
25.7230926449
 20
-44.2869430973
 30
0.0
 10
24.1172296067
 20
-44.2879677885
 30
0.0
 10
22.4828996355
 20
-44.2890232974
 30
0.0
 10
21.389518707
 20
-44.2894303614
 30
0.0
 10
20.8626977206
 20
-44.2894305171
 30
0.0
 11
44.5152390445
 21
-44.2244861744
 31
0.0
 11
44.291292794
 21
-44.2280653599
 31
0.0
 11
44.0440456524
 21
-44.2321281075
 31
0.0
 11
43.7915636152
 21
-44.2362713013
 31
0.0
 11
43.5469535691
 21
-44.2401413345
 31
0.0
 11
43.3102620388
 21
-44.2437387199
 31
0.0
 11
43.075960546
 21
-44.2471425712
 31
0.0
 11
42.8360268418
 21
-44.2504376046
 31
0.0
 11
42.5834398263
 21
-44.2536401031
 31
0.0
 11
42.3178689978
 21
-44.2566395173
 31
0.0
 11
42.0477638989
 21
-44.2593267686
 31
0.0
 11
41.779763169
 21
-44.2617889443
 31
0.0
 11
41.5131692526
 21
-44.2640576377
 31
0.0
 11
41.2425684341
 21
-44.2661868678
 31
0.0
 11
40.9595638177
 21
-44.268247112
 31
0.0
 11
40.6544122344
 21
-44.2703054696
 31
0.0
 11
40.3190545618
 21
-44.2724078934
 31
0.0
 11
39.9504158046
 21
-44.2744906388
 31
0.0
 11
39.548962755
 21
-44.276461225
 31
0.0
 11
39.114256248
 21
-44.2782518519
 31
0.0
 11
38.6433563109
 21
-44.2797961402
 31
0.0
 11
38.1324742578
 21
-44.2810704983
 31
0.0
 11
37.5787563868
 21
-44.2821808597
 31
0.0
 11
36.9796101391
 21
-44.2830954403
 31
0.0
 11
36.3307376175
 21
-44.2837721417
 31
0.0
 11
35.6254741226
 21
-44.2841758548
 31
0.0
 11
34.8568332459
 21
-44.2842970847
 31
0.0
 11
34.0206444218
 21
-44.2843553914
 31
0.0
 11
33.1136680781
 21
-44.2846593941
 31
0.0
 11
32.1292658848
 21
-44.2851893202
 31
0.0
 11
31.0594176981
 21
-44.2858274231
 31
0.0
 11
29.8981444499
 21
-44.2861710228
 31
0.0
 11
28.6356608429
 21
-44.2862521717
 31
0.0
 11
27.2607499894
 21
-44.2863732978
 31
0.0
 11
25.7656880173
 21
-44.2869711913
 31
0.0
 11
24.1428401889
 21
-44.2879534921
 31
0.0
 11
22.4431606124
 21
-44.2889686583
 31
0.0
 11
20.8626977206
 21
-44.2894305171
 31
0.0
  0
SPLINE
  5
650
100
AcDbEntity
  8
RACCORDO
100
AcDbSpline
 62
7
  6
CONTINUOUS
 70
0
 71
3
 72
10
 73
6
 74
4
 42
0.0000001
 43
0.0000001
 44
0.0000000001
 12
0.0774694984
 22
-0.100960216
 32
0.0
 13
0.0697041438
 23
-0.1064698114
 33
0.0
 40
0.0
 40
0.0
 40
0.0
 40
0.0
 40
0.3220093799
 40
0.6567009616
 40
1.0
 40
1.0
 40
1.0
 40
1.0
 10
-21.710516469
 20
-26.8520344171
 30
0.0
 10
-21.7022011673
 20
-26.8628711293
 30
0.0
 10
-21.6855539161
 20
-26.8852114263
 30
0.0
 10
-21.6610919855
 20
-26.9198717331
 30
0.0
 10
-21.64507488
 20
-26.9437621948
 30
0.0
 10
-21.6370984249
 20
-26.9559458561
 30
0.0
 11
-21.710516469
 21
-26.8520344171
 31
0.0
 11
-21.6860156012
 21
-26.8848812532
 31
0.0
 11
-21.6614409223
 21
-26.9196687039
 31
0.0
 11
-21.6370984249
 21
-26.9559458561
 31
0.0
  0
SPLINE
  5
651
100
AcDbEntity
  8
RACCORDO
100
AcDbSpline
 62
7
  6
CONTINUOUS
 70
0
 71
3
 72
10
 73
6
 74
4
 42
0.0000001
 43
0.0000001
 44
0.0000000001
 12
-0.0774694981
 22
-0.1009602156
 32
0.0
 13
-0.0697041434
 23
-0.106469811
 33
0.0
 40
0.0
 40
0.0
 40
0.0
 40
0.0
 40
0.32200938
 40
0.6567009617
 40
1.0
 40
1.0
 40
1.0
 40
1.0
 10
-22.5639368128
 20
-26.8520344175
 30
0.0
 10
-22.5722521145
 20
-26.8628711297
 30
0.0
 10
-22.5888993656
 20
-26.8852114266
 30
0.0
 10
-22.613361296
 20
-26.9198717333
 30
0.0
 10
-22.6293784015
 20
-26.9437621949
 30
0.0
 10
-22.6373548566
 20
-26.9559458561
 30
0.0
 11
-22.5639368128
 21
-26.8520344175
 31
0.0
 11
-22.5884376805
 21
-26.8848812535
 31
0.0
 11
-22.6130123593
 21
-26.919668704
 31
0.0
 11
-22.6373548566
 21
-26.9559458561
 31
0.0
  0
LINE
  5
652
100
AcDbEntity
  8
RACCORDO
100
AcDbLine
 62
7
  6
CONTINUOUS
 10
-22.4567557523
 20
-26.7123533399
 11
-22.5639368128
 21
-26.8520344175
  0
LINE
  5
653
100
AcDbEntity
  8
RACCORDO
100
AcDbLine
 62
7
  6
CONTINUOUS
 10
-25.3748103987
 20
-25.0873551548
 11
-25.3815591311
 21
-25.0806064224
  0
LINE
  5
654
100
AcDbEntity
  8
RACCORDO
100
AcDbLine
 62
7
  6
CONTINUOUS
 10
-25.3815591311
 20
-25.0806064224
 11
-25.3874339942
 21
-25.0747315593
  0
LINE
  5
655
100
AcDbEntity
  8
RACCORDO
100
AcDbLine
 62
7
  6
CONTINUOUS
 10
-25.3874339942
 20
-25.0747315593
 11
-25.3948979429
 21
-25.0672676106
  0
LINE
  5
656
100
AcDbEntity
  8
RACCORDO
100
AcDbLine
 62
7
  6
CONTINUOUS
 10
-25.3948979429
 20
-25.0672676106
 11
-25.4136642446
 21
-25.048501309
  0
LINE
  5
657
100
AcDbEntity
  8
RACCORDO
100
AcDbLine
 62
7
  6
CONTINUOUS
 10
-25.4136642446
 20
-25.048501309
 11
-25.6244677824
 21
-24.8376977711
  0
LINE
  5
658
100
AcDbEntity
  8
RACCORDO
100
AcDbLine
 62
7
  6
CONTINUOUS
 10
-18.8996428827
 20
-25.0873551548
 11
-18.8928941503
 21
-25.0806064224
  0
LINE
  5
659
100
AcDbEntity
  8
RACCORDO
100
AcDbLine
 62
7
  6
CONTINUOUS
 10
-18.8928941503
 20
-25.0806064224
 11
-18.8870192872
 21
-25.0747315593
  0
LINE
  5
65A
100
AcDbEntity
  8
RACCORDO
100
AcDbLine
 62
7
  6
CONTINUOUS
 10
-18.8870192872
 20
-25.0747315593
 11
-18.8795553386
 21
-25.0672676106
  0
LINE
  5
65B
100
AcDbEntity
  8
RACCORDO
100
AcDbLine
 62
7
  6
CONTINUOUS
 10
-18.8795553386
 20
-25.0672676106
 11
-18.8607890369
 21
-25.048501309
  0
LINE
  5
65C
100
AcDbEntity
  8
RACCORDO
100
AcDbLine
 62
7
  6
CONTINUOUS
 10
-18.8607890369
 20
-25.048501309
 11
-18.6499854991
 21
-24.8376977711
  0
LINE
  5
65D
100
AcDbEntity
  8
RACCORDO
100
AcDbLine
 62
7
  6
CONTINUOUS
 10
-21.8176975292
 20
-26.7123533399
 11
-21.710516469
 21
-26.8520344171
  0
SPLINE
  5
65E
100
AcDbEntity
  8
RACCORDO
100
AcDbSpline
 62
7
  6
CONTINUOUS
 70
0
 71
3
 72
10
 73
6
 74
4
 42
0.0000001
 43
0.0000001
 44
0.0000000001
 12
0.0774694984
 22
-0.100960216
 32
0.0
 13
0.0697041438
 23
-0.1064698114
 33
0.0
 40
0.0
 40
0.0
 40
0.0
 40
0.0
 40
0.3220093799
 40
0.6567009616
 40
1.0
 40
1.0
 40
1.0
 40
1.0
 10
23.289483531
 20
-26.8520344171
 30
0.0
 10
23.2977988327
 20
-26.8628711293
 30
0.0
 10
23.3144460839
 20
-26.8852114263
 30
0.0
 10
23.3389080145
 20
-26.9198717331
 30
0.0
 10
23.35492512
 20
-26.9437621948
 30
0.0
 10
23.3629015751
 20
-26.9559458561
 30
0.0
 11
23.289483531
 21
-26.8520344171
 31
0.0
 11
23.3139843988
 21
-26.8848812532
 31
0.0
 11
23.3385590777
 21
-26.9196687039
 31
0.0
 11
23.3629015751
 21
-26.9559458561
 31
0.0
  0
SPLINE
  5
65F
100
AcDbEntity
  8
RACCORDO
100
AcDbSpline
 62
7
  6
CONTINUOUS
 70
0
 71
3
 72
10
 73
6
 74
4
 42
0.0000001
 43
0.0000001
 44
0.0000000001
 12
-0.0774694981
 22
-0.1009602156
 32
0.0
 13
-0.0697041434
 23
-0.106469811
 33
0.0
 40
0.0
 40
0.0
 40
0.0
 40
0.0
 40
0.32200938
 40
0.6567009617
 40
1.0
 40
1.0
 40
1.0
 40
1.0
 10
22.4360631872
 20
-26.8520344175
 30
0.0
 10
22.4277478855
 20
-26.8628711297
 30
0.0
 10
22.4111006344
 20
-26.8852114266
 30
0.0
 10
22.386638704
 20
-26.9198717333
 30
0.0
 10
22.3706215985
 20
-26.9437621949
 30
0.0
 10
22.3626451434
 20
-26.9559458561
 30
0.0
 11
22.4360631872
 21
-26.8520344175
 31
0.0
 11
22.4115623195
 21
-26.8848812535
 31
0.0
 11
22.3869876407
 21
-26.919668704
 31
0.0
 11
22.3626451434
 21
-26.9559458561
 31
0.0
  0
LINE
  5
660
100
AcDbEntity
  8
RACCORDO
100
AcDbLine
 62
7
  6
CONTINUOUS
 10
22.5432442477
 20
-26.7123533399
 11
22.4360631872
 21
-26.8520344175
  0
LINE
  5
661
100
AcDbEntity
  8
RACCORDO
100
AcDbLine
 62
7
  6
CONTINUOUS
 10
19.6251896013
 20
-25.0873551548
 11
19.6184408689
 21
-25.0806064224
  0
LINE
  5
662
100
AcDbEntity
  8
RACCORDO
100
AcDbLine
 62
7
  6
CONTINUOUS
 10
19.6184408689
 20
-25.0806064224
 11
19.6125660058
 21
-25.0747315593
  0
LINE
  5
663
100
AcDbEntity
  8
RACCORDO
100
AcDbLine
 62
7
  6
CONTINUOUS
 10
19.6125660058
 20
-25.0747315593
 11
19.6051020571
 21
-25.0672676106
  0
LINE
  5
664
100
AcDbEntity
  8
RACCORDO
100
AcDbLine
 62
7
  6
CONTINUOUS
 10
19.6051020571
 20
-25.0672676106
 11
19.5863357554
 21
-25.048501309
  0
LINE
  5
665
100
AcDbEntity
  8
RACCORDO
100
AcDbLine
 62
7
  6
CONTINUOUS
 10
19.5863357554
 20
-25.048501309
 11
19.3755322176
 21
-24.8376977711
  0
LINE
  5
666
100
AcDbEntity
  8
RACCORDO
100
AcDbLine
 62
7
  6
CONTINUOUS
 10
26.1003571173
 20
-25.0873551548
 11
26.1071058497
 21
-25.0806064224
  0
LINE
  5
667
100
AcDbEntity
  8
RACCORDO
100
AcDbLine
 62
7
  6
CONTINUOUS
 10
26.1071058497
 20
-25.0806064224
 11
26.1129807128
 21
-25.0747315593
  0
LINE
  5
668
100
AcDbEntity
  8
RACCORDO
100
AcDbLine
 62
7
  6
CONTINUOUS
 10
26.1129807128
 20
-25.0747315593
 11
26.1204446614
 21
-25.0672676106
  0
LINE
  5
669
100
AcDbEntity
  8
RACCORDO
100
AcDbLine
 62
7
  6
CONTINUOUS
 10
26.1204446614
 20
-25.0672676106
 11
26.1392109631
 21
-25.048501309
  0
LINE
  5
66A
100
AcDbEntity
  8
RACCORDO
100
AcDbLine
 62
7
  6
CONTINUOUS
 10
26.1392109631
 20
-25.048501309
 11
26.3500145009
 21
-24.8376977711
  0
LINE
  5
66B
100
AcDbEntity
  8
RACCORDO
100
AcDbLine
 62
7
  6
CONTINUOUS
 10
23.1823024708
 20
-26.7123533399
 11
23.289483531
 21
-26.8520344171
  0
LINE
  5
66C
100
AcDbEntity
  8
RACCORDO
100
AcDbLine
 62
7
  6
CONTINUOUS
 10
19.6251896013
 20
25.0119596126
 11
19.6184408689
 21
25.0052108801
  0
LINE
  5
66D
100
AcDbEntity
  8
RACCORDO
100
AcDbLine
 62
7
  6
CONTINUOUS
 10
19.6184408689
 20
25.0052108801
 11
19.6125660058
 21
24.999336017
  0
LINE
  5
66E
100
AcDbEntity
  8
RACCORDO
100
AcDbLine
 62
7
  6
CONTINUOUS
 10
19.6125660058
 20
24.999336017
 11
19.6051020571
 21
24.9918720684
  0
LINE
  5
66F
100
AcDbEntity
  8
RACCORDO
100
AcDbLine
 62
7
  6
CONTINUOUS
 10
19.6051020571
 20
24.9918720684
 11
19.5863357554
 21
24.9731057667
  0
LINE
  5
670
100
AcDbEntity
  8
RACCORDO
100
AcDbLine
 62
7
  6
CONTINUOUS
 10
19.5863357554
 20
24.9731057667
 11
19.3755322176
 21
24.7623022289
  0
LINE
  5
671
100
AcDbEntity
  8
RACCORDO
100
AcDbLine
 62
7
  6
CONTINUOUS
 10
22.5432442477
 20
26.6369577976
 11
22.4360631875
 21
26.7766388748
  0
LINE
  5
672
100
AcDbEntity
  8
RACCORDO
100
AcDbLine
 62
7
  6
CONTINUOUS
 10
26.1003571173
 20
25.0119596126
 11
26.1071058497
 21
25.0052108801
  0
LINE
  5
673
100
AcDbEntity
  8
RACCORDO
100
AcDbLine
 62
7
  6
CONTINUOUS
 10
26.1071058497
 20
25.0052108801
 11
26.1129807128
 21
24.999336017
  0
LINE
  5
674
100
AcDbEntity
  8
RACCORDO
100
AcDbLine
 62
7
  6
CONTINUOUS
 10
26.1129807128
 20
24.999336017
 11
26.1204446614
 21
24.9918720684
  0
LINE
  5
675
100
AcDbEntity
  8
RACCORDO
100
AcDbLine
 62
7
  6
CONTINUOUS
 10
26.1204446614
 20
24.9918720684
 11
26.1392109631
 21
24.9731057667
  0
LINE
  5
676
100
AcDbEntity
  8
RACCORDO
100
AcDbLine
 62
7
  6
CONTINUOUS
 10
26.1392109631
 20
24.9731057667
 11
26.3500145009
 21
24.7623022289
  0
SPLINE
  5
677
100
AcDbEntity
  8
RACCORDO
100
AcDbSpline
 62
7
  6
CONTINUOUS
 70
0
 71
3
 72
10
 73
6
 74
4
 42
0.0000001
 43
0.0000001
 44
0.0000000001
 12
0.0774694981
 22
0.1009602156
 32
0.0
 13
0.0697041434
 23
0.106469811
 33
0.0
 40
0.0
 40
0.0
 40
0.0
 40
0.0
 40
0.32200938
 40
0.6567009617
 40
1.0
 40
1.0
 40
1.0
 40
1.0
 10
23.2894835314
 20
26.7766388753
 30
0.0
 10
23.297798833
 20
26.7874755874
 30
0.0
 10
23.3144460842
 20
26.8098158843
 30
0.0
 10
23.3389080146
 20
26.844476191
 30
0.0
 10
23.35492512
 20
26.8683666526
 30
0.0
 10
23.3629015751
 20
26.8805503138
 30
0.0
 11
23.2894835314
 21
26.7766388753
 31
0.0
 11
23.313984399
 21
26.8094857112
 31
0.0
 11
23.3385590778
 21
26.8442731617
 31
0.0
 11
23.3629015751
 21
26.8805503138
 31
0.0
  0
LINE
  5
678
100
AcDbEntity
  8
RACCORDO
100
AcDbLine
 62
7
  6
CONTINUOUS
 10
23.1823024708
 20
26.6369577976
 11
23.2894835314
 21
26.7766388753
  0
SPLINE
  5
679
100
AcDbEntity
  8
RACCORDO
100
AcDbSpline
 62
7
  6
CONTINUOUS
 70
0
 71
3
 72
10
 73
6
 74
4
 42
0.0000001
 43
0.0000001
 44
0.0000000001
 12
-0.0774694984
 22
0.100960216
 32
0.0
 13
-0.0697041438
 23
0.1064698114
 33
0.0
 40
0.0
 40
0.0
 40
0.0
 40
0.0
 40
0.3220093799
 40
0.6567009616
 40
1.0
 40
1.0
 40
1.0
 40
1.0
 10
22.4360631875
 20
26.7766388748
 30
0.0
 10
22.4277478858
 20
26.787475587
 30
0.0
 10
22.4111006346
 20
26.809815884
 30
0.0
 10
22.3866387041
 20
26.8444761908
 30
0.0
 10
22.3706215986
 20
26.8683666525
 30
0.0
 10
22.3626451434
 20
26.8805503138
 30
0.0
 11
22.4360631875
 21
26.7766388748
 31
0.0
 11
22.4115623198
 21
26.8094857109
 31
0.0
 11
22.3869876408
 21
26.8442731616
 31
0.0
 11
22.3626451434
 21
26.8805503138
 31
0.0
  0
LINE
  5
67A
100
AcDbEntity
  8
RACCORDO
100
AcDbLine
 62
7
  6
CONTINUOUS
 10
-25.3748103987
 20
25.0119596126
 11
-25.3815591311
 21
25.0052108801
  0
LINE
  5
67B
100
AcDbEntity
  8
RACCORDO
100
AcDbLine
 62
7
  6
CONTINUOUS
 10
-25.3815591311
 20
25.0052108801
 11
-25.3874339942
 21
24.999336017
  0
LINE
  5
67C
100
AcDbEntity
  8
RACCORDO
100
AcDbLine
 62
7
  6
CONTINUOUS
 10
-25.3874339942
 20
24.999336017
 11
-25.3948979429
 21
24.9918720684
  0
LINE
  5
67D
100
AcDbEntity
  8
RACCORDO
100
AcDbLine
 62
7
  6
CONTINUOUS
 10
-25.3948979429
 20
24.9918720684
 11
-25.4136642446
 21
24.9731057667
  0
LINE
  5
67E
100
AcDbEntity
  8
RACCORDO
100
AcDbLine
 62
7
  6
CONTINUOUS
 10
-25.4136642446
 20
24.9731057667
 11
-25.6244677824
 21
24.7623022289
  0
LINE
  5
67F
100
AcDbEntity
  8
RACCORDO
100
AcDbLine
 62
7
  6
CONTINUOUS
 10
-22.4567557523
 20
26.6369577976
 11
-22.5639368125
 21
26.7766388748
  0
LINE
  5
680
100
AcDbEntity
  8
RACCORDO
100
AcDbLine
 62
7
  6
CONTINUOUS
 10
-18.8996428827
 20
25.0119596126
 11
-18.8928941503
 21
25.0052108801
  0
LINE
  5
681
100
AcDbEntity
  8
RACCORDO
100
AcDbLine
 62
7
  6
CONTINUOUS
 10
-18.8928941503
 20
25.0052108801
 11
-18.8870192872
 21
24.999336017
  0
LINE
  5
682
100
AcDbEntity
  8
RACCORDO
100
AcDbLine
 62
7
  6
CONTINUOUS
 10
-18.8870192872
 20
24.999336017
 11
-18.8795553386
 21
24.9918720684
  0
LINE
  5
683
100
AcDbEntity
  8
RACCORDO
100
AcDbLine
 62
7
  6
CONTINUOUS
 10
-18.8795553386
 20
24.9918720684
 11
-18.8607890369
 21
24.9731057667
  0
LINE
  5
684
100
AcDbEntity
  8
RACCORDO
100
AcDbLine
 62
7
  6
CONTINUOUS
 10
-18.8607890369
 20
24.9731057667
 11
-18.6499854991
 21
24.7623022289
  0
SPLINE
  5
685
100
AcDbEntity
  8
RACCORDO
100
AcDbSpline
 62
7
  6
CONTINUOUS
 70
0
 71
3
 72
10
 73
6
 74
4
 42
0.0000001
 43
0.0000001
 44
0.0000000001
 12
0.0774694981
 22
0.1009602156
 32
0.0
 13
0.0697041434
 23
0.106469811
 33
0.0
 40
0.0
 40
0.0
 40
0.0
 40
0.0
 40
0.32200938
 40
0.6567009617
 40
1.0
 40
1.0
 40
1.0
 40
1.0
 10
-21.7105164686
 20
26.7766388753
 30
0.0
 10
-21.702201167
 20
26.7874755874
 30
0.0
 10
-21.6855539158
 20
26.8098158843
 30
0.0
 10
-21.6610919854
 20
26.844476191
 30
0.0
 10
-21.64507488
 20
26.8683666526
 30
0.0
 10
-21.6370984249
 20
26.8805503138
 30
0.0
 11
-21.7105164686
 21
26.7766388753
 31
0.0
 11
-21.686015601
 21
26.8094857112
 31
0.0
 11
-21.6614409222
 21
26.8442731617
 31
0.0
 11
-21.6370984249
 21
26.8805503138
 31
0.0
  0
LINE
  5
686
100
AcDbEntity
  8
RACCORDO
100
AcDbLine
 62
7
  6
CONTINUOUS
 10
-21.8176975292
 20
26.6369577976
 11
-21.7105164686
 21
26.7766388753
  0
SPLINE
  5
687
100
AcDbEntity
  8
RACCORDO
100
AcDbSpline
 62
7
  6
CONTINUOUS
 70
0
 71
3
 72
10
 73
6
 74
4
 42
0.0000001
 43
0.0000001
 44
0.0000000001
 12
-0.0774694984
 22
0.100960216
 32
0.0
 13
-0.0697041438
 23
0.1064698114
 33
0.0
 40
0.0
 40
0.0
 40
0.0
 40
0.0
 40
0.3220093799
 40
0.6567009616
 40
1.0
 40
1.0
 40
1.0
 40
1.0
 10
-22.5639368125
 20
26.7766388748
 30
0.0
 10
-22.5722521142
 20
26.787475587
 30
0.0
 10
-22.5888993654
 20
26.809815884
 30
0.0
 10
-22.6133612959
 20
26.8444761908
 30
0.0
 10
-22.6293784014
 20
26.8683666525
 30
0.0
 10
-22.6373548566
 20
26.8805503138
 30
0.0
 11
-22.5639368125
 21
26.7766388748
 31
0.0
 11
-22.5884376802
 21
26.8094857109
 31
0.0
 11
-22.6130123592
 21
26.8442731616
 31
0.0
 11
-22.6373548566
 21
26.8805503138
 31
0.0
  0
SPLINE
  5
688
100
AcDbEntity
  8
RACCORDO
100
AcDbSpline
 62
253
  6
CONTINUOUS
 70
0
 71
3
 72
16
 73
12
 74
10
 42
0.0000001
 43
0.0000001
 44
0.0000000001
 12
0.4296025883
 22
-0.0631496906
 32
0.0
 13
0.1648651182
 23
-0.4017035724
 33
0.0
 40
0.0
 40
0.0
 40
0.0
 40
0.0
 40
0.0129859785
 40
0.0464586228
 40
0.1039242318
 40
0.1872556068
 40
0.2967571798
 40
0.4328184163
 40
0.5954267822
 40
0.7846440183
 40
1.0
 40
1.0
 40
1.0
 40
1.0
 10
-22.345977544
 20
26.7182734182
 30
0.0
 10
-22.3441179406
 20
26.7180000647
 30
0.0
 10
-22.3420014098
 20
26.7096714444
 30
0.0
 10
-22.3309935412
 20
26.7004843487
 30
0.0
 10
-22.31830197
 20
26.6777284258
 30
0.0
 10
-22.2985649187
 20
26.6477774373
 30
0.0
 10
-22.2739460201
 20
26.6068514006
 30
0.0
 10
-22.2442993607
 20
26.5558121993
 30
0.0
 10
-22.2103260782
 20
26.4938699393
 30
0.0
 10
-22.1732031065
 20
26.4206414814
 30
0.0
 10
-22.1490615301
 20
26.3672443908
 30
0.0
 10
-22.1372266336
 20
26.3384079684
 30
0.0
 11
-22.345977544
 21
26.7182734182
 31
0.0
 11
-22.3427156156
 21
26.7136739136
 31
0.0
 11
-22.3339426753
 21
26.7020857241
 31
0.0
 11
-22.3200443466
 21
26.6813620159
 31
0.0
 11
-22.300772606
 21
26.650737066
 31
0.0
 11
-22.2760425373
 21
26.6101266543
 31
0.0
 11
-22.2464134686
 21
26.5590129454
 31
0.0
 11
-22.2124932371
 21
26.4970866959
 31
0.0
 11
-22.1754254329
 21
26.4237618671
 31
0.0
 11
-22.1372266336
 21
26.3384079684
 31
0.0
  0
SPLINE
  5
689
100
AcDbEntity
  8
RACCORDO
100
AcDbSpline
 62
253
  6
CONTINUOUS
 70
0
 71
3
 72
17
 73
13
 74
11
 42
0.0000001
 43
0.0000001
 44
0.0000000001
 12
0.1648553655
 22
0.4016798015
 32
0.0
 13
0.4216258294
 23
0.1037092785
 33
0.0
 40
0.0
 40
0.0
 40
0.0
 40
0.0
 40
0.1951783285
 40
0.3692106168
 40
0.5216778481
 40
0.652557815
 40
0.7618670202
 40
0.8496231654
 40
0.9160627121
 40
0.9623762539
 40
0.9900105581
 40
1.0
 40
1.0
 40
1.0
 40
1.0
 10
-22.1372266471
 20
26.3384079655
 30
0.0
 10
-22.1265012488
 20
26.3645410296
 30
0.0
 10
-22.1046274193
 20
26.4133298173
 30
0.0
 10
-22.0708562251
 20
26.4808747486
 30
0.0
 10
-22.039408995
 20
26.5391299325
 30
0.0
 10
-22.0112884142
 20
26.588533305
 30
0.0
 10
-21.9869334127
 20
26.6292360437
 30
0.0
 10
-21.9669396469
 20
26.6618180227
 30
0.0
 10
-21.9509471838
 20
26.6857883725
 30
0.0
 10
-21.9401601453
 20
26.7035534255
 30
0.0
 10
-21.9322896838
 20
26.7119680592
 30
0.0
 10
-21.9298703167
 20
26.7178940363
 30
0.0
 10
-21.9284663812
 20
26.7182393689
 30
0.0
 11
-22.1372266471
 21
26.3384079655
 31
0.0
 11
-22.1028080857
 21
26.4158489332
 31
0.0
 11
-22.0690873326
 21
26.483471271
 31
0.0
 11
-22.0376900345
 21
26.5417523648
 31
0.0
 11
-22.0095546655
 21
26.5911257837
 31
0.0
 11
-21.9852350975
 21
26.6318828386
 31
0.0
 11
-21.965128292
 21
26.6642489618
 31
0.0
 11
-21.949456327
 21
26.6884682613
 31
0.0
 11
-21.9382338508
 21
26.7051544647
 31
0.0
 11
-21.931233185
 21
26.7148990988
 31
0.0
 11
-21.9284663812
 21
26.7182393689
 31
0.0
  0
SPLINE
  5
68A
100
AcDbEntity
  8
RACCORDO
100
AcDbSpline
 62
7
  6
CONTINUOUS
 70
0
 71
3
 72
12
 73
8
 74
6
 42
0.0000001
 43
0.0000001
 44
0.0000000001
 12
-0.4692270593
 22
0.0
 32
0.0
 13
-0.0030111711
 23
-0.4692173974
 33
0.0
 40
0.0
 40
0.0
 40
0.0
 40
0.0
 40
0.2024621175
 40
0.4025895463
 40
0.6028505149
 40
0.8022701451
 40
1.0
 40
1.0
 40
1.0
 40
1.0
 10
-24.9963785889
 20
26.2820898847
 30
0.0
 10
-25.0280454902
 20
26.2820898847
 30
0.0
 10
-25.0914566252
 20
26.2718448654
 30
0.0
 10
-25.1766186848
 20
26.2280731019
 30
0.0
 10
-25.2439922006
 20
26.1605568587
 30
0.0
 10
-25.2872341541
 20
26.0760877823
 30
0.0
 10
-25.2974212154
 20
26.0136119686
 30
0.0
 10
-25.2976196815
 20
25.9826858727
 30
0.0
 11
-24.9963785889
 21
26.2820898847
 31
0.0
 11
-25.0901705752
 21
26.2669836914
 31
0.0
 11
-25.173704892
 21
26.2240860759
 31
0.0
 11
-25.2400787917
 21
26.1575694226
 31
0.0
 11
-25.282677012
 21
26.0742548731
 31
0.0
 11
-25.2976196815
 21
25.9826858727
 31
0.0
  0
SPLINE
  5
68B
100
AcDbEntity
  8
RACCORDO
100
AcDbSpline
 62
253
  6
CONTINUOUS
 70
0
 71
3
 72
14
 73
10
 74
8
 42
0.0000001
 43
0.0000001
 44
0.0000000001
 12
-0.4791652707
 22
0.0045493158
 32
0.0
 13
0.0043907483
 23
-0.4791667499
 33
0.0
 40
0.0
 40
0.0
 40
0.0
 40
0.0
 40
0.1379993513
 40
0.2755101356
 40
0.4144343111
 40
0.5559596911
 40
0.7007656059
 40
0.8488631718
 40
1.0
 40
1.0
 40
1.0
 40
1.0
 10
-25.0801986179
 20
26.6369577959
 30
0.0
 10
-25.1022401167
 20
26.6371670635
 30
0.0
 10
-25.1464758396
 20
26.632381122
 30
0.0
 10
-25.2093217726
 20
26.6097782403
 30
0.0
 10
-25.2656702903
 20
26.5728410698
 30
0.0
 10
-25.3128306951
 20
26.5231364778
 30
0.0
 10
-25.3483902825
 20
26.4628694458
 30
0.0
 10
-25.3703789896
 20
26.3948718545
 30
0.0
 10
-25.3750315768
 20
26.3468657262
 30
0.0
 10
-25.3748103755
 20
26.322725812
 30
0.0
 11
-25.0801986179
 21
26.6369577959
 31
0.0
 11
-25.1459379471
 21
26.6298035129
 31
0.0
 11
-25.207956559
 21
26.607540833
 31
0.0
 11
-25.2636735576
 21
26.571109168
 31
0.0
 11
-25.3104351084
 21
26.5219917894
 31
0.0
 11
-25.3458060786
 21
26.4622947156
 31
0.0
 11
-25.3677385017
 21
26.3948024941
 31
0.0
 11
-25.3748103755
 21
26.322725812
 31
0.0
  0
LINE
  5
68C
100
AcDbEntity
  8
RACCORDO
100
AcDbLine
 62
7
  6
CONTINUOUS
 10
-25.1348464568
 20
25.0127133684
 11
-25.0882218418
 21
25.0593379835
  0
LINE
  5
68D
100
AcDbEntity
  8
RACCORDO
100
AcDbLine
 62
7
  6
CONTINUOUS
 10
-25.0882218418
 20
25.0593379835
 11
-24.8352575964
 21
25.3123022289
  0
LINE
  5
68E
100
AcDbEntity
  8
RACCORDO
100
AcDbLine
 62
7
  6
CONTINUOUS
 10
-19.1396068247
 20
25.0127133684
 11
-19.1862314397
 21
25.0593379835
  0
LINE
  5
68F
100
AcDbEntity
  8
RACCORDO
100
AcDbLine
 62
7
  6
CONTINUOUS
 10
-19.1862314397
 20
25.0593379835
 11
-19.4391956851
 21
25.3123022289
  0
SPLINE
  5
690
100
AcDbEntity
  8
RACCORDO
100
AcDbSpline
 62
7
  6
CONTINUOUS
 70
0
 71
3
 72
12
 73
8
 74
6
 42
0.0000001
 43
0.0000001
 44
0.0000000001
 12
0.4660079162
 22
0.0
 32
0.0
 13
0.0029905129
 23
-0.4659983206
 33
0.0
 40
0.0
 40
0.0
 40
0.0
 40
0.0
 40
0.1984092931
 40
0.3991903761
 40
0.5993791037
 40
0.799454417
 40
1.0
 40
1.0
 40
1.0
 40
1.0
 10
-19.2748123295
 20
26.2820898847
 30
0.0
 10
-19.2439922291
 20
26.2820898847
 30
0.0
 10
-19.1816942399
 20
26.2710822651
 30
0.0
 10
-19.0976727284
 20
26.2279349531
 30
0.0
 10
-19.0306442642
 20
26.1607024901
 30
0.0
 10
-18.9873140165
 20
26.0764380919
 30
0.0
 10
-18.9770335113
 20
26.0138371743
 30
0.0
 10
-18.9768335999
 20
25.9826858727
 30
0.0
 11
-19.2748123295
 21
26.2820898847
 31
0.0
 11
-19.1836303867
 21
26.2667679856
 31
0.0
 11
-19.1004712417
 21
26.2238835681
 31
0.0
 11
-19.0345764607
 21
26.157847104
 31
0.0
 11
-18.9919900594
 21
26.074904492
 31
0.0
 11
-18.9768335999
 21
25.9826858727
 31
0.0
  0
SPLINE
  5
691
100
AcDbEntity
  8
RACCORDO
100
AcDbSpline
 62
253
  6
CONTINUOUS
 70
0
 71
3
 72
14
 73
10
 74
8
 42
0.0000001
 43
0.0000001
 44
0.0000000001
 12
0.0043907563
 22
0.4791659655
 32
0.0
 13
-0.479164482
 23
-0.0045497749
 33
0.0
 40
0.0
 40
0.0
 40
0.0
 40
0.0
 40
0.1511280999
 40
0.2992156184
 40
0.4440047768
 40
0.5855397392
 40
0.7244382586
 40
0.8619719265
 40
1.0
 40
1.0
 40
1.0
 40
1.0
 10
-18.8996429056
 20
26.3227258446
 30
0.0
 10
-18.8994217168
 20
26.3468643252
 30
0.0
 10
-18.9040737043
 20
26.3948673378
 30
0.0
 10
-18.926059195
 20
26.4628597642
 30
0.0
 10
-18.961614656
 20
26.5231256653
 30
0.0
 10
-19.0087688779
 20
26.5728288433
 30
0.0
 10
-19.0651155094
 20
26.6097701477
 30
0.0
 10
-19.1279638525
 20
26.6323789842
 30
0.0
 10
-19.1722078638
 20
26.6371671274
 30
0.0
 10
-19.1942539139
 20
26.6369577951
 30
0.0
 11
-18.8996429056
 21
26.3227258446
 31
0.0
 11
-18.9067139009
 21
26.3947982913
 31
0.0
 11
-18.9286433908
 21
26.4622862813
 31
0.0
 11
-18.9640076477
 21
26.5219778678
 31
0.0
 11
-19.0107697798
 21
26.5711008795
 31
0.0
 11
-19.0664739592
 21
26.6075294856
 31
0.0
 11
-19.1285012037
 21
26.6298002533
 31
0.0
 11
-19.1942539139
 21
26.6369577951
 31
0.0
  0
LINE
  5
692
100
AcDbEntity
  8
RACCORDO
100
AcDbLine
 62
7
  6
CONTINUOUS
 10
-21.7972216587
 20
26.2284265273
 11
-22.0273846948
 21
25.9284722188
  0
LINE
  5
693
100
AcDbEntity
  8
RACCORDO
100
AcDbLine
 62
7
  6
CONTINUOUS
 10
-22.4772316228
 20
26.2284265273
 11
-22.2470685867
 21
25.9284722188
  0
SPLINE
  5
694
100
AcDbEntity
  8
RACCORDO
100
AcDbSpline
 62
253
  6
CONTINUOUS
 70
0
 71
3
 72
16
 73
12
 74
10
 42
0.0000001
 43
0.0000001
 44
0.0000000001
 12
-0.4296025883
 22
0.0631496905
 32
0.0
 13
-0.1648651182
 23
0.4017035724
 33
0.0
 40
0.0
 40
0.0
 40
0.0
 40
0.0
 40
0.0129859785
 40
0.0464586228
 40
0.1039242318
 40
0.1872556068
 40
0.2967571798
 40
0.4328184163
 40
0.5954267822
 40
0.7846440183
 40
1.0
 40
1.0
 40
1.0
 40
1.0
 10
-21.9284757375
 20
-26.7936689605
 30
0.0
 10
-21.9303353408
 20
-26.793395607
 30
0.0
 10
-21.9324518716
 20
-26.7850669867
 30
0.0
 10
-21.9434597403
 20
-26.775879891
 30
0.0
 10
-21.9561513115
 20
-26.753123968
 30
0.0
 10
-21.9758883628
 20
-26.7231729796
 30
0.0
 10
-22.0005072614
 20
-26.6822469428
 30
0.0
 10
-22.0301539207
 20
-26.6312077416
 30
0.0
 10
-22.0641272033
 20
-26.5692654816
 30
0.0
 10
-22.101250175
 20
-26.4960370237
 30
0.0
 10
-22.1253917514
 20
-26.4426399331
 30
0.0
 10
-22.1372266478
 20
-26.4138035107
 30
0.0
 11
-21.9284757375
 21
-26.7936689605
 31
0.0
 11
-21.9317376659
 21
-26.7890694559
 31
0.0
 11
-21.9405106062
 21
-26.7774812664
 31
0.0
 11
-21.9544089348
 21
-26.7567575581
 31
0.0
 11
-21.9736806755
 21
-26.7261326083
 31
0.0
 11
-21.9984107442
 21
-26.6855221966
 31
0.0
 11
-22.0280398128
 21
-26.6344084876
 31
0.0
 11
-22.0619600444
 21
-26.5724822382
 31
0.0
 11
-22.0990278486
 21
-26.4991574093
 31
0.0
 11
-22.1372266478
 21
-26.4138035107
 31
0.0
  0
SPLINE
  5
695
100
AcDbEntity
  8
RACCORDO
100
AcDbSpline
 62
253
  6
CONTINUOUS
 70
0
 71
3
 72
17
 73
13
 74
11
 42
0.0000001
 43
0.0000001
 44
0.0000000001
 12
-0.1648553655
 22
-0.4016798015
 32
0.0
 13
-0.4216258294
 23
-0.1037092785
 33
0.0
 40
0.0
 40
0.0
 40
0.0
 40
0.0
 40
0.1951783285
 40
0.3692106168
 40
0.5216778481
 40
0.652557815
 40
0.7618670202
 40
0.8496231654
 40
0.9160627121
 40
0.9623762539
 40
0.9900105581
 40
1.0
 40
1.0
 40
1.0
 40
1.0
 10
-22.1372266344
 20
-26.4138035078
 30
0.0
 10
-22.1479520326
 20
-26.4399365719
 30
0.0
 10
-22.1698258622
 20
-26.4887253596
 30
0.0
 10
-22.2035970564
 20
-26.5562702909
 30
0.0
 10
-22.2350442865
 20
-26.6145254747
 30
0.0
 10
-22.2631648672
 20
-26.6639288473
 30
0.0
 10
-22.2875198688
 20
-26.704631586
 30
0.0
 10
-22.3075136345
 20
-26.737213565
 30
0.0
 10
-22.3235060977
 20
-26.7611839148
 30
0.0
 10
-22.3342931362
 20
-26.7789489678
 30
0.0
 10
-22.3421635976
 20
-26.7873636015
 30
0.0
 10
-22.3445829647
 20
-26.7932895786
 30
0.0
 10
-22.3459869003
 20
-26.7936349112
 30
0.0
 11
-22.1372266344
 21
-26.4138035078
 31
0.0
 11
-22.1716451958
 21
-26.4912444755
 31
0.0
 11
-22.2053659489
 21
-26.5588668133
 31
0.0
 11
-22.236763247
 21
-26.6171479071
 31
0.0
 11
-22.2648986159
 21
-26.6665213259
 31
0.0
 11
-22.2892181839
 21
-26.7072783809
 31
0.0
 11
-22.3093249894
 21
-26.7396445041
 31
0.0
 11
-22.3249969545
 21
-26.7638638036
 31
0.0
 11
-22.3362194307
 21
-26.780550007
 31
0.0
 11
-22.3432200965
 21
-26.7902946411
 31
0.0
 11
-22.3459869003
 21
-26.7936349112
 31
0.0
  0
SPLINE
  5
696
100
AcDbEntity
  8
RACCORDO
100
AcDbSpline
 62
7
  6
CONTINUOUS
 70
0
 71
3
 72
12
 73
8
 74
6
 42
0.0000001
 43
0.0000001
 44
0.0000000001
 12
0.4692270593
 22
0.0
 32
0.0
 13
0.0030111711
 23
0.4692173974
 33
0.0
 40
0.0
 40
0.0
 40
0.0
 40
0.0
 40
0.2024621175
 40
0.4025895463
 40
0.6028505149
 40
0.8022701451
 40
1.0
 40
1.0
 40
1.0
 40
1.0
 10
-19.2780746925
 20
-26.3574854269
 30
0.0
 10
-19.2464077912
 20
-26.3574854269
 30
0.0
 10
-19.1829966562
 20
-26.3472404076
 30
0.0
 10
-19.0978345967
 20
-26.3034686442
 30
0.0
 10
-19.0304610808
 20
-26.235952401
 30
0.0
 10
-18.9872191274
 20
-26.1514833246
 30
0.0
 10
-18.9770320661
 20
-26.0890075109
 30
0.0
 10
-18.9768335999
 20
-26.0580814149
 30
0.0
 11
-19.2780746925
 21
-26.3574854269
 31
0.0
 11
-19.1842827063
 21
-26.3423792337
 31
0.0
 11
-19.1007483894
 21
-26.2994816182
 31
0.0
 11
-19.0343744897
 21
-26.2329649649
 31
0.0
 11
-18.9917762695
 21
-26.1496504153
 31
0.0
 11
-18.9768335999
 21
-26.0580814149
 31
0.0
  0
SPLINE
  5
697
100
AcDbEntity
  8
RACCORDO
100
AcDbSpline
 62
253
  6
CONTINUOUS
 70
0
 71
3
 72
14
 73
10
 74
8
 42
0.0000001
 43
0.0000001
 44
0.0000000001
 12
0.4791652707
 22
-0.0045493158
 32
0.0
 13
-0.0043907483
 23
0.4791667499
 33
0.0
 40
0.0
 40
0.0
 40
0.0
 40
0.0
 40
0.1379993513
 40
0.2755101356
 40
0.4144343111
 40
0.5559596911
 40
0.7007656059
 40
0.8488631718
 40
1.0
 40
1.0
 40
1.0
 40
1.0
 10
-19.1942546636
 20
-26.7123533382
 30
0.0
 10
-19.1722131647
 20
-26.7125626058
 30
0.0
 10
-19.1279774419
 20
-26.7077766643
 30
0.0
 10
-19.0651315089
 20
-26.6851737826
 30
0.0
 10
-19.0087829911
 20
-26.6482366121
 30
0.0
 10
-18.9616225863
 20
-26.5985320201
 30
0.0
 10
-18.9260629989
 20
-26.5382649881
 30
0.0
 10
-18.9040742919
 20
-26.4702673967
 30
0.0
 10
-18.8994217047
 20
-26.4222612685
 30
0.0
 10
-18.8996429059
 20
-26.3981213542
 30
0.0
 11
-19.1942546636
 21
-26.7123533382
 31
0.0
 11
-19.1285153343
 21
-26.7051990552
 31
0.0
 11
-19.0664967225
 21
-26.6829363753
 31
0.0
 11
-19.0107797238
 21
-26.6465047103
 31
0.0
 11
-18.9640181731
 21
-26.5973873317
 31
0.0
 11
-18.9286472029
 21
-26.5376902579
 31
0.0
 11
-18.9067147798
 21
-26.4701980364
 31
0.0
 11
-18.8996429059
 21
-26.3981213542
 31
0.0
  0
LINE
  5
698
100
AcDbEntity
  8
RACCORDO
100
AcDbLine
 62
7
  6
CONTINUOUS
 10
-19.1396068247
 20
-25.0881089107
 11
-19.1862314397
 21
-25.1347335258
  0
LINE
  5
699
100
AcDbEntity
  8
RACCORDO
100
AcDbLine
 62
7
  6
CONTINUOUS
 10
-19.1862314397
 20
-25.1347335258
 11
-19.4391956851
 21
-25.3876977711
  0
LINE
  5
69A
100
AcDbEntity
  8
RACCORDO
100
AcDbLine
 62
7
  6
CONTINUOUS
 10
-25.1348464568
 20
-25.0881089107
 11
-25.0882218418
 21
-25.1347335258
  0
LINE
  5
69B
100
AcDbEntity
  8
RACCORDO
100
AcDbLine
 62
7
  6
CONTINUOUS
 10
-25.0882218418
 20
-25.1347335258
 11
-24.8352575964
 21
-25.3876977711
  0
SPLINE
  5
69C
100
AcDbEntity
  8
RACCORDO
100
AcDbSpline
 62
7
  6
CONTINUOUS
 70
0
 71
3
 72
12
 73
8
 74
6
 42
0.0000001
 43
0.0000001
 44
0.0000000001
 12
-0.4660079162
 22
0.0
 32
0.0
 13
-0.0029905129
 23
0.4659983206
 33
0.0
 40
0.0
 40
0.0
 40
0.0
 40
0.0
 40
0.1984092931
 40
0.3991903761
 40
0.5993791037
 40
0.799454417
 40
1.0
 40
1.0
 40
1.0
 40
1.0
 10
-24.9996409519
 20
-26.3574854269
 30
0.0
 10
-25.0304610523
 20
-26.3574854269
 30
0.0
 10
-25.0927590416
 20
-26.3464778074
 30
0.0
 10
-25.1767805531
 20
-26.3033304954
 30
0.0
 10
-25.2438090173
 20
-26.2360980324
 30
0.0
 10
-25.2871392649
 20
-26.1518336342
 30
0.0
 10
-25.2974197701
 20
-26.0892327166
 30
0.0
 10
-25.2976196815
 20
-26.0580814149
 30
0.0
 11
-24.9996409519
 21
-26.3574854269
 31
0.0
 11
-25.0908228948
 21
-26.3421635278
 31
0.0
 11
-25.1739820398
 21
-26.2992791104
 31
0.0
 11
-25.2398768208
 21
-26.2332426463
 31
0.0
 11
-25.282463222
 21
-26.1503000343
 31
0.0
 11
-25.2976196815
 21
-26.0580814149
 31
0.0
  0
SPLINE
  5
69D
100
AcDbEntity
  8
RACCORDO
100
AcDbSpline
 62
253
  6
CONTINUOUS
 70
0
 71
3
 72
14
 73
10
 74
8
 42
0.0000001
 43
0.0000001
 44
0.0000000001
 12
-0.0043907563
 22
-0.4791659655
 32
0.0
 13
0.479164482
 23
0.0045497749
 33
0.0
 40
0.0
 40
0.0
 40
0.0
 40
0.0
 40
0.1511280999
 40
0.2992156184
 40
0.4440047768
 40
0.5855397392
 40
0.7244382586
 40
0.8619719265
 40
1.0
 40
1.0
 40
1.0
 40
1.0
 10
-25.3748103758
 20
-26.3981213869
 30
0.0
 10
-25.3750315647
 20
-26.4222598675
 30
0.0
 10
-25.3703795771
 20
-26.47026288
 30
0.0
 10
-25.3483940865
 20
-26.5382553065
 30
0.0
 10
-25.3128386255
 20
-26.5985212075
 30
0.0
 10
-25.2656844036
 20
-26.6482243856
 30
0.0
 10
-25.2093377721
 20
-26.68516569
 30
0.0
 10
-25.146489429
 20
-26.7077745264
 30
0.0
 10
-25.1022454177
 20
-26.7125626696
 30
0.0
 10
-25.0801993676
 20
-26.7123533374
 30
0.0
 11
-25.3748103758
 21
-26.3981213869
 31
0.0
 11
-25.3677393806
 21
-26.4701938336
 31
0.0
 11
-25.3458098907
 21
-26.5376818236
 31
0.0
 11
-25.3104456338
 21
-26.59737341
 31
0.0
 11
-25.2636835017
 21
-26.6464964218
 31
0.0
 11
-25.2079793222
 21
-26.6829250279
 31
0.0
 11
-25.1459520778
 21
-26.7051957956
 31
0.0
 11
-25.0801993676
 21
-26.7123533374
 31
0.0
  0
LINE
  5
69E
100
AcDbEntity
  8
RACCORDO
100
AcDbLine
 62
7
  6
CONTINUOUS
 10
-22.4772316228
 20
-26.3038220696
 11
-22.2470685867
 21
-26.0038677611
  0
LINE
  5
69F
100
AcDbEntity
  8
RACCORDO
100
AcDbLine
 62
7
  6
CONTINUOUS
 10
-21.7972216587
 20
-26.3038220696
 11
-22.0273846948
 21
-26.0038677611
  0
SPLINE
  5
6A0
100
AcDbEntity
  8
RACCORDO
100
AcDbSpline
 62
253
  6
CONTINUOUS
 70
0
 71
3
 72
16
 73
12
 74
10
 42
0.0000001
 43
0.0000001
 44
0.0000000001
 12
0.4296025883
 22
-0.0631496905
 32
0.0
 13
0.1648651182
 23
-0.4017035724
 33
0.0
 40
0.0
 40
0.0
 40
0.0
 40
0.0
 40
0.0129859785
 40
0.0464586228
 40
0.1039242318
 40
0.1872556068
 40
0.2967571798
 40
0.4328184163
 40
0.5954267822
 40
0.7846440183
 40
1.0
 40
1.0
 40
1.0
 40
1.0
 10
22.654022456
 20
26.7182734182
 30
0.0
 10
22.6558820594
 20
26.7180000647
 30
0.0
 10
22.6579985902
 20
26.7096714444
 30
0.0
 10
22.6690064588
 20
26.7004843487
 30
0.0
 10
22.68169803
 20
26.6777284258
 30
0.0
 10
22.7014350813
 20
26.6477774373
 30
0.0
 10
22.7260539799
 20
26.6068514006
 30
0.0
 10
22.7557006393
 20
26.5558121993
 30
0.0
 10
22.7896739218
 20
26.4938699393
 30
0.0
 10
22.8267968935
 20
26.4206414814
 30
0.0
 10
22.8509384699
 20
26.3672443908
 30
0.0
 10
22.8627733664
 20
26.3384079684
 30
0.0
 11
22.654022456
 21
26.7182734182
 31
0.0
 11
22.6572843844
 21
26.7136739136
 31
0.0
 11
22.6660573247
 21
26.7020857241
 31
0.0
 11
22.6799556534
 21
26.6813620159
 31
0.0
 11
22.699227394
 21
26.650737066
 31
0.0
 11
22.7239574627
 21
26.6101266543
 31
0.0
 11
22.7535865314
 21
26.5590129454
 31
0.0
 11
22.7875067629
 21
26.4970866959
 31
0.0
 11
22.8245745671
 21
26.4237618671
 31
0.0
 11
22.8627733664
 21
26.3384079684
 31
0.0
  0
SPLINE
  5
6A1
100
AcDbEntity
  8
RACCORDO
100
AcDbSpline
 62
253
  6
CONTINUOUS
 70
0
 71
3
 72
17
 73
13
 74
11
 42
0.0000001
 43
0.0000001
 44
0.0000000001
 12
0.1648553655
 22
0.4016798015
 32
0.0
 13
0.4216258294
 23
0.1037092785
 33
0.0
 40
0.0
 40
0.0
 40
0.0
 40
0.0
 40
0.1951783285
 40
0.3692106168
 40
0.5216778481
 40
0.652557815
 40
0.7618670202
 40
0.8496231654
 40
0.9160627121
 40
0.9623762539
 40
0.9900105581
 40
1.0
 40
1.0
 40
1.0
 40
1.0
 10
22.8627733529
 20
26.3384079655
 30
0.0
 10
22.8734987512
 20
26.3645410296
 30
0.0
 10
22.8953725807
 20
26.4133298173
 30
0.0
 10
22.9291437749
 20
26.4808747486
 30
0.0
 10
22.960591005
 20
26.5391299325
 30
0.0
 10
22.9887115858
 20
26.588533305
 30
0.0
 10
23.0130665873
 20
26.6292360437
 30
0.0
 10
23.0330603531
 20
26.6618180227
 30
0.0
 10
23.0490528162
 20
26.6857883725
 30
0.0
 10
23.0598398547
 20
26.7035534255
 30
0.0
 10
23.0677103162
 20
26.7119680592
 30
0.0
 10
23.0701296833
 20
26.7178940363
 30
0.0
 10
23.0715336188
 20
26.7182393689
 30
0.0
 11
22.8627733529
 21
26.3384079655
 31
0.0
 11
22.8971919143
 21
26.4158489332
 31
0.0
 11
22.9309126674
 21
26.483471271
 31
0.0
 11
22.9623099655
 21
26.5417523648
 31
0.0
 11
22.9904453345
 21
26.5911257837
 31
0.0
 11
23.0147649025
 21
26.6318828386
 31
0.0
 11
23.034871708
 21
26.6642489618
 31
0.0
 11
23.050543673
 21
26.6884682613
 31
0.0
 11
23.0617661492
 21
26.7051544647
 31
0.0
 11
23.068766815
 21
26.7148990988
 31
0.0
 11
23.0715336188
 21
26.7182393689
 31
0.0
  0
SPLINE
  5
6A2
100
AcDbEntity
  8
RACCORDO
100
AcDbSpline
 62
253
  6
CONTINUOUS
 70
0
 71
3
 72
14
 73
10
 74
8
 42
0.0000001
 43
0.0000001
 44
0.0000000001
 12
-0.4791652707
 22
0.0045493158
 32
0.0
 13
0.0043907483
 23
-0.4791667499
 33
0.0
 40
0.0
 40
0.0
 40
0.0
 40
0.0
 40
0.1379993513
 40
0.2755101356
 40
0.4144343111
 40
0.5559596911
 40
0.7007656059
 40
0.8488631718
 40
1.0
 40
1.0
 40
1.0
 40
1.0
 10
19.9198013821
 20
26.6369577959
 30
0.0
 10
19.8977598833
 20
26.6371670635
 30
0.0
 10
19.8535241604
 20
26.632381122
 30
0.0
 10
19.7906782274
 20
26.6097782403
 30
0.0
 10
19.7343297097
 20
26.5728410698
 30
0.0
 10
19.6871693049
 20
26.5231364778
 30
0.0
 10
19.6516097175
 20
26.4628694458
 30
0.0
 10
19.6296210104
 20
26.3948718545
 30
0.0
 10
19.6249684232
 20
26.3468657262
 30
0.0
 10
19.6251896245
 20
26.322725812
 30
0.0
 11
19.9198013821
 21
26.6369577959
 31
0.0
 11
19.8540620529
 21
26.6298035129
 31
0.0
 11
19.792043441
 21
26.607540833
 31
0.0
 11
19.7363264424
 21
26.571109168
 31
0.0
 11
19.6895648916
 21
26.5219917894
 31
0.0
 11
19.6541939214
 21
26.4622947156
 31
0.0
 11
19.6322614983
 21
26.3948024941
 31
0.0
 11
19.6251896245
 21
26.322725812
 31
0.0
  0
SPLINE
  5
6A3
100
AcDbEntity
  8
RACCORDO
100
AcDbSpline
 62
7
  6
CONTINUOUS
 70
0
 71
3
 72
12
 73
8
 74
6
 42
0.0000001
 43
0.0000001
 44
0.0000000001
 12
-0.4692270593
 22
0.0
 32
0.0
 13
-0.0030111711
 23
-0.4692173974
 33
0.0
 40
0.0
 40
0.0
 40
0.0
 40
0.0
 40
0.2024621175
 40
0.4025895463
 40
0.6028505149
 40
0.8022701451
 40
1.0
 40
1.0
 40
1.0
 40
1.0
 10
20.0036214111
 20
26.2820898847
 30
0.0
 10
19.9719545098
 20
26.2820898847
 30
0.0
 10
19.9085433748
 20
26.2718448654
 30
0.0
 10
19.8233813152
 20
26.2280731019
 30
0.0
 10
19.7560077994
 20
26.1605568587
 30
0.0
 10
19.7127658459
 20
26.0760877823
 30
0.0
 10
19.7025787846
 20
26.0136119686
 30
0.0
 10
19.7023803185
 20
25.9826858727
 30
0.0
 11
20.0036214111
 21
26.2820898847
 31
0.0
 11
19.9098294248
 21
26.2669836914
 31
0.0
 11
19.826295108
 21
26.2240860759
 31
0.0
 11
19.7599212083
 21
26.1575694226
 31
0.0
 11
19.717322988
 21
26.0742548731
 31
0.0
 11
19.7023803185
 21
25.9826858727
 31
0.0
  0
LINE
  5
6A4
100
AcDbEntity
  8
RACCORDO
100
AcDbLine
 62
7
  6
CONTINUOUS
 10
22.5227683772
 20
26.2284265273
 11
22.7529314133
 21
25.9284722188
  0
LINE
  5
6A5
100
AcDbEntity
  8
RACCORDO
100
AcDbLine
 62
7
  6
CONTINUOUS
 10
23.2027783413
 20
26.2284265273
 11
22.9726153052
 21
25.9284722188
  0
SPLINE
  5
6A6
100
AcDbEntity
  8
RACCORDO
100
AcDbSpline
 62
7
  6
CONTINUOUS
 70
0
 71
3
 72
12
 73
8
 74
6
 42
0.0000001
 43
0.0000001
 44
0.0000000001
 12
0.4660079162
 22
0.0
 32
0.0
 13
0.0029905129
 23
-0.4659983206
 33
0.0
 40
0.0
 40
0.0
 40
0.0
 40
0.0
 40
0.1984092931
 40
0.3991903761
 40
0.5993791037
 40
0.799454417
 40
1.0
 40
1.0
 40
1.0
 40
1.0
 10
25.7251876705
 20
26.2820898847
 30
0.0
 10
25.7560077709
 20
26.2820898847
 30
0.0
 10
25.8183057601
 20
26.2710822651
 30
0.0
 10
25.9023272716
 20
26.2279349531
 30
0.0
 10
25.9693557358
 20
26.1607024901
 30
0.0
 10
26.0126859835
 20
26.0764380919
 30
0.0
 10
26.0229664887
 20
26.0138371743
 30
0.0
 10
26.0231664001
 20
25.9826858727
 30
0.0
 11
25.7251876705
 21
26.2820898847
 31
0.0
 11
25.8163696133
 21
26.2667679856
 31
0.0
 11
25.8995287583
 21
26.2238835681
 31
0.0
 11
25.9654235393
 21
26.157847104
 31
0.0
 11
26.0080099406
 21
26.074904492
 31
0.0
 11
26.0231664001
 21
25.9826858727
 31
0.0
  0
SPLINE
  5
6A7
100
AcDbEntity
  8
RACCORDO
100
AcDbSpline
 62
253
  6
CONTINUOUS
 70
0
 71
3
 72
14
 73
10
 74
8
 42
0.0000001
 43
0.0000001
 44
0.0000000001
 12
0.0043907563
 22
0.4791659655
 32
0.0
 13
-0.479164482
 23
-0.0045497749
 33
0.0
 40
0.0
 40
0.0
 40
0.0
 40
0.0
 40
0.1511280999
 40
0.2992156184
 40
0.4440047768
 40
0.5855397392
 40
0.7244382586
 40
0.8619719265
 40
1.0
 40
1.0
 40
1.0
 40
1.0
 10
26.1003570944
 20
26.3227258446
 30
0.0
 10
26.1005782832
 20
26.3468643252
 30
0.0
 10
26.0959262957
 20
26.3948673378
 30
0.0
 10
26.073940805
 20
26.4628597642
 30
0.0
 10
26.038385344
 20
26.5231256653
 30
0.0
 10
25.9912311221
 20
26.5728288433
 30
0.0
 10
25.9348844906
 20
26.6097701477
 30
0.0
 10
25.8720361475
 20
26.6323789842
 30
0.0
 10
25.8277921362
 20
26.6371671274
 30
0.0
 10
25.8057460861
 20
26.6369577951
 30
0.0
 11
26.1003570944
 21
26.3227258446
 31
0.0
 11
26.0932860991
 21
26.3947982913
 31
0.0
 11
26.0713566092
 21
26.4622862813
 31
0.0
 11
26.0359923523
 21
26.5219778678
 31
0.0
 11
25.9892302202
 21
26.5711008795
 31
0.0
 11
25.9335260408
 21
26.6075294856
 31
0.0
 11
25.8714987963
 21
26.6298002533
 31
0.0
 11
25.8057460861
 21
26.6369577951
 31
0.0
  0
LINE
  5
6A8
100
AcDbEntity
  8
RACCORDO
100
AcDbLine
 62
7
  6
CONTINUOUS
 10
25.8603931753
 20
25.0127133684
 11
25.8137685603
 21
25.0593379835
  0
LINE
  5
6A9
100
AcDbEntity
  8
RACCORDO
100
AcDbLine
 62
7
  6
CONTINUOUS
 10
25.8137685603
 20
25.0593379835
 11
25.5608043149
 21
25.3123022289
  0
LINE
  5
6AA
100
AcDbEntity
  8
RACCORDO
100
AcDbLine
 62
7
  6
CONTINUOUS
 10
19.8651535432
 20
25.0127133684
 11
19.9117781582
 21
25.0593379835
  0
LINE
  5
6AB
100
AcDbEntity
  8
RACCORDO
100
AcDbLine
 62
7
  6
CONTINUOUS
 10
19.9117781582
 20
25.0593379835
 11
20.1647424036
 21
25.3123022289
  0
SPLINE
  5
6AC
100
AcDbEntity
  8
RACCORDO
100
AcDbSpline
 62
253
  6
CONTINUOUS
 70
0
 71
3
 72
16
 73
12
 74
10
 42
0.0000001
 43
0.0000001
 44
0.0000000001
 12
-0.4296025883
 22
0.0631496906
 32
0.0
 13
-0.1648651182
 23
0.4017035724
 33
0.0
 40
0.0
 40
0.0
 40
0.0
 40
0.0
 40
0.0129859785
 40
0.0464586228
 40
0.1039242318
 40
0.1872556068
 40
0.2967571798
 40
0.4328184163
 40
0.5954267822
 40
0.7846440183
 40
1.0
 40
1.0
 40
1.0
 40
1.0
 10
23.0715242625
 20
-26.7936689605
 30
0.0
 10
23.0696646592
 20
-26.793395607
 30
0.0
 10
23.0675481284
 20
-26.7850669867
 30
0.0
 10
23.0565402597
 20
-26.775879891
 30
0.0
 10
23.0438486885
 20
-26.753123968
 30
0.0
 10
23.0241116372
 20
-26.7231729796
 30
0.0
 10
22.9994927386
 20
-26.6822469428
 30
0.0
 10
22.9698460793
 20
-26.6312077416
 30
0.0
 10
22.9358727967
 20
-26.5692654816
 30
0.0
 10
22.898749825
 20
-26.4960370237
 30
0.0
 10
22.8746082486
 20
-26.4426399331
 30
0.0
 10
22.8627733522
 20
-26.4138035107
 30
0.0
 11
23.0715242625
 21
-26.7936689605
 31
0.0
 11
23.0682623341
 21
-26.7890694559
 31
0.0
 11
23.0594893938
 21
-26.7774812664
 31
0.0
 11
23.0455910652
 21
-26.7567575581
 31
0.0
 11
23.0263193245
 21
-26.7261326083
 31
0.0
 11
23.0015892558
 21
-26.6855221966
 31
0.0
 11
22.9719601872
 21
-26.6344084876
 31
0.0
 11
22.9380399556
 21
-26.5724822382
 31
0.0
 11
22.9009721514
 21
-26.4991574093
 31
0.0
 11
22.8627733522
 21
-26.4138035107
 31
0.0
  0
SPLINE
  5
6AD
100
AcDbEntity
  8
RACCORDO
100
AcDbSpline
 62
253
  6
CONTINUOUS
 70
0
 71
3
 72
17
 73
13
 74
11
 42
0.0000001
 43
0.0000001
 44
0.0000000001
 12
-0.1648553655
 22
-0.4016798015
 32
0.0
 13
-0.4216258295
 23
-0.1037092784
 33
0.0
 40
0.0
 40
0.0
 40
0.0
 40
0.0
 40
0.1951783285
 40
0.3692106168
 40
0.5216778481
 40
0.652557815
 40
0.7618670202
 40
0.8496231654
 40
0.9160627121
 40
0.9623762539
 40
0.9900105581
 40
1.0
 40
1.0
 40
1.0
 40
1.0
 10
22.8627733656
 20
-26.4138035078
 30
0.0
 10
22.8520479674
 20
-26.4399365719
 30
0.0
 10
22.8301741378
 20
-26.4887253596
 30
0.0
 10
22.7964029436
 20
-26.5562702909
 30
0.0
 10
22.7649557135
 20
-26.6145254747
 30
0.0
 10
22.7368351328
 20
-26.6639288473
 30
0.0
 10
22.7124801312
 20
-26.704631586
 30
0.0
 10
22.6924863655
 20
-26.737213565
 30
0.0
 10
22.6764939023
 20
-26.7611839148
 30
0.0
 10
22.6657068638
 20
-26.7789489678
 30
0.0
 10
22.6578364024
 20
-26.7873636015
 30
0.0
 10
22.6554170353
 20
-26.7932895786
 30
0.0
 10
22.6540130997
 20
-26.7936349112
 30
0.0
 11
22.8627733656
 21
-26.4138035078
 31
0.0
 11
22.8283548042
 21
-26.4912444755
 31
0.0
 11
22.7946340511
 21
-26.5588668133
 31
0.0
 11
22.763236753
 21
-26.6171479071
 31
0.0
 11
22.7351013841
 21
-26.6665213259
 31
0.0
 11
22.7107818161
 21
-26.7072783809
 31
0.0
 11
22.6906750106
 21
-26.7396445041
 31
0.0
 11
22.6750030455
 21
-26.7638638036
 31
0.0
 11
22.6637805693
 21
-26.780550007
 31
0.0
 11
22.6567799035
 21
-26.7902946411
 31
0.0
 11
22.6540130997
 21
-26.7936349112
 31
0.0
  0
SPLINE
  5
6AE
100
AcDbEntity
  8
RACCORDO
100
AcDbSpline
 62
7
  6
CONTINUOUS
 70
0
 71
3
 72
12
 73
8
 74
6
 42
0.0000001
 43
0.0000001
 44
0.0000000001
 12
0.4692270593
 22
0.0
 32
0.0
 13
0.0030111711
 23
0.4692173974
 33
0.0
 40
0.0
 40
0.0
 40
0.0
 40
0.0
 40
0.2024621175
 40
0.4025895463
 40
0.6028505149
 40
0.8022701451
 40
1.0
 40
1.0
 40
1.0
 40
1.0
 10
25.7219253075
 20
-26.3574854269
 30
0.0
 10
25.7535922088
 20
-26.3574854269
 30
0.0
 10
25.8170033438
 20
-26.3472404076
 30
0.0
 10
25.9021654033
 20
-26.3034686442
 30
0.0
 10
25.9695389192
 20
-26.235952401
 30
0.0
 10
26.0127808726
 20
-26.1514833246
 30
0.0
 10
26.0229679339
 20
-26.0890075109
 30
0.0
 10
26.0231664001
 20
-26.0580814149
 30
0.0
 11
25.7219253075
 21
-26.3574854269
 31
0.0
 11
25.8157172937
 21
-26.3423792337
 31
0.0
 11
25.8992516106
 21
-26.2994816182
 31
0.0
 11
25.9656255103
 21
-26.2329649649
 31
0.0
 11
26.0082237305
 21
-26.1496504153
 31
0.0
 11
26.0231664001
 21
-26.0580814149
 31
0.0
  0
SPLINE
  5
6AF
100
AcDbEntity
  8
RACCORDO
100
AcDbSpline
 62
253
  6
CONTINUOUS
 70
0
 71
3
 72
14
 73
10
 74
8
 42
0.0000001
 43
0.0000001
 44
0.0000000001
 12
0.4791652707
 22
-0.0045493158
 32
0.0
 13
-0.0043907483
 23
0.4791667499
 33
0.0
 40
0.0
 40
0.0
 40
0.0
 40
0.0
 40
0.1379993513
 40
0.2755101356
 40
0.4144343111
 40
0.5559596911
 40
0.7007656059
 40
0.8488631718
 40
1.0
 40
1.0
 40
1.0
 40
1.0
 10
25.8057453364
 20
-26.7123533382
 30
0.0
 10
25.8277868353
 20
-26.7125626058
 30
0.0
 10
25.8720225581
 20
-26.7077766643
 30
0.0
 10
25.9348684911
 20
-26.6851737826
 30
0.0
 10
25.9912170089
 20
-26.6482366121
 30
0.0
 10
26.0383774137
 20
-26.5985320201
 30
0.0
 10
26.0739370011
 20
-26.5382649881
 30
0.0
 10
26.0959257081
 20
-26.4702673967
 30
0.0
 10
26.1005782953
 20
-26.4222612685
 30
0.0
 10
26.1003570941
 20
-26.3981213542
 30
0.0
 11
25.8057453364
 21
-26.7123533382
 31
0.0
 11
25.8714846657
 21
-26.7051990552
 31
0.0
 11
25.9335032775
 21
-26.6829363753
 31
0.0
 11
25.9892202762
 21
-26.6465047103
 31
0.0
 11
26.0359818269
 21
-26.5973873317
 31
0.0
 11
26.0713527971
 21
-26.5376902579
 31
0.0
 11
26.0932852202
 21
-26.4701980364
 31
0.0
 11
26.1003570941
 21
-26.3981213542
 31
0.0
  0
LINE
  5
6B0
100
AcDbEntity
  8
RACCORDO
100
AcDbLine
 62
7
  6
CONTINUOUS
 10
25.8603931753
 20
-25.0881089107
 11
25.8137685603
 21
-25.1347335258
  0
LINE
  5
6B1
100
AcDbEntity
  8
RACCORDO
100
AcDbLine
 62
7
  6
CONTINUOUS
 10
25.8137685603
 20
-25.1347335258
 11
25.5608043149
 21
-25.3876977711
  0
LINE
  5
6B2
100
AcDbEntity
  8
RACCORDO
100
AcDbLine
 62
7
  6
CONTINUOUS
 10
19.8651535432
 20
-25.0881089107
 11
19.9117781582
 21
-25.1347335258
  0
LINE
  5
6B3
100
AcDbEntity
  8
RACCORDO
100
AcDbLine
 62
7
  6
CONTINUOUS
 10
19.9117781582
 20
-25.1347335258
 11
20.1647424036
 21
-25.3876977711
  0
SPLINE
  5
6B4
100
AcDbEntity
  8
0
100
AcDbSpline
 62
253
  6
CONTINUOUS
 70
0
 71
3
 72
12
 73
8
 74
6
 42
0.0000001
 43
0.0000001
 44
0.0000000001
 12
-0.2973512682
 22
0.5113341863
 32
0.0
 13
-0.2884285063
 23
0.5164089413
 33
0.0
 40
0.0
 40
0.0
 40
0.0
 40
0.0
 40
0.2629380974
 40
0.5058098583
 40
0.7186149515
 40
0.8946907006
 40
1.0
 40
1.0
 40
1.0
 40
1.0
 10
-43.7894847845
 20
44.1490292107
 30
0.0
 10
-43.8155464434
 20
44.1938456234
 30
0.0
 10
-43.8652749932
 20
44.2802935836
 30
0.0
 10
-43.936052385
 20
44.4030377792
 30
0.0
 10
-43.9979704818
 20
44.5111211323
 30
0.0
 10
-44.0461309422
 20
44.5958249833
 30
0.0
 10
-44.0733554558
 20
44.6441688378
 30
0.0
 10
-44.0834801905
 20
44.6622963924
 30
0.0
 11
-43.7894847845
 21
44.1490292107
 31
0.0
 11
-43.8672719599
 21
44.2837089922
 31
0.0
 11
-43.9389513817
 21
44.4082093919
 31
0.0
 11
-44.001505493
 21
44.5174415798
 31
0.0
 11
-44.0529500773
 21
44.6079991966
 31
0.0
 11
-44.0834801905
 21
44.6622963924
 31
0.0
  0
SPLINE
  5
6B5
100
AcDbEntity
  8
0
100
AcDbSpline
 62
253
  6
CONTINUOUS
 70
0
 71
3
 72
12
 73
8
 74
6
 42
0.0000001
 43
0.0000001
 44
0.0000000001
 12
0.5191200029
 22
-0.2412601346
 32
0.0
 13
0.4973800658
 23
-0.2825462527
 33
0.0
 40
0.0
 40
0.0
 40
0.0
 40
0.0
 40
0.0525877725
 40
0.2389703684
 40
0.4644220702
 40
0.7218085153
 40
1.0
 40
1.0
 40
1.0
 40
1.0
 10
-44.2955438629
 20
44.4155161164
 30
0.0
 10
-44.2864440747
 20
44.4112870054
 30
0.0
 10
-44.2452098733
 20
44.3917827989
 30
0.0
 10
-44.1658617978
 20
44.3525464644
 30
0.0
 10
-44.052609273
 20
44.2936957803
 30
0.0
 10
-43.9249302164
 20
44.2247441996
 30
0.0
 10
-43.8356070841
 20
44.1752298645
 30
0.0
 10
-43.7894847845
 20
44.1490292107
 30
0.0
 11
-44.2955438629
 21
44.4155161164
 31
0.0
 11
-44.2683157217
 21
44.4026696488
 31
0.0
 11
-44.1726737807
 21
44.3555557639
 31
0.0
 11
-44.058167191
 21
44.2962236647
 31
0.0
 11
-43.9285434749
 21
44.2264007023
 31
0.0
 11
-43.7894847845
 21
44.1490292107
 31
0.0
  0
SPLINE
  5
6B6
100
AcDbEntity
  8
RACCORDO
100
AcDbSpline
 62
7
  6
CONTINUOUS
 70
0
 71
3
 72
12
 73
8
 74
6
 42
0.0000001
 43
0.0000001
 44
0.0000000001
 12
-0.4660079162
 22
0.0
 32
0.0
 13
-0.0029905129
 23
0.4659983206
 33
0.0
 40
0.0
 40
0.0
 40
0.0
 40
0.0
 40
0.1984092931
 40
0.3991903761
 40
0.5993791037
 40
0.799454417
 40
1.0
 40
1.0
 40
1.0
 40
1.0
 10
20.0003590481
 20
-26.3574854269
 30
0.0
 10
19.9695389477
 20
-26.3574854269
 30
0.0
 10
19.9072409584
 20
-26.3464778074
 30
0.0
 10
19.8232194469
 20
-26.3033304954
 30
0.0
 10
19.7561909827
 20
-26.2360980324
 30
0.0
 10
19.7128607351
 20
-26.1518336342
 30
0.0
 10
19.7025802299
 20
-26.0892327166
 30
0.0
 10
19.7023803185
 20
-26.0580814149
 30
0.0
 11
20.0003590481
 21
-26.3574854269
 31
0.0
 11
19.9091771052
 21
-26.3421635278
 31
0.0
 11
19.8260179602
 21
-26.2992791104
 31
0.0
 11
19.7601231792
 21
-26.2332426463
 31
0.0
 11
19.717536778
 21
-26.1503000343
 31
0.0
 11
19.7023803185
 21
-26.0580814149
 31
0.0
  0
SPLINE
  5
6B7
100
AcDbEntity
  8
0
100
AcDbSpline
 62
253
  6
CONTINUOUS
 70
0
 71
3
 72
12
 73
8
 74
6
 42
0.0000001
 43
0.0000001
 44
0.0000000001
 12
0.5369255703
 22
0.3049831184
 32
0.0
 13
0.5660334484
 23
0.244564703
 33
0.0
 40
0.0
 40
0.0
 40
0.0
 40
0.0
 40
0.2579896983
 40
0.4958813949
 40
0.7049261209
 40
0.8774502905
 40
1.0
 40
1.0
 40
1.0
 40
1.0
 10
44.5152277338
 20
44.1490423417
 30
0.0
 10
44.5614014891
 20
44.1752698426
 30
0.0
 10
44.6506795895
 20
44.2247544593
 30
0.0
 10
44.778348425
 20
44.2936956448
 30
0.0
 10
44.891512296
 20
44.3525000653
 30
0.0
 10
44.9844868287
 20
44.3984803413
 30
0.0
 10
45.0396256565
 20
44.4241771631
 30
0.0
 10
45.0627480681
 20
44.4341676076
 30
0.0
 11
44.5152277338
 21
44.1490423417
 31
0.0
 11
44.6544416775
 21
44.226492682
 31
0.0
 11
44.78377191
 21
44.296153353
 31
0.0
 11
44.8983841764
 21
44.3555409595
 31
0.0
 11
44.9939491949
 21
44.4026225618
 31
0.0
 11
45.0627480681
 21
44.4341676076
 31
0.0
  0
SPLINE
  5
6B8
100
AcDbEntity
  8
0
100
AcDbSpline
 62
253
  6
CONTINUOUS
 70
0
 71
3
 72
12
 73
8
 74
6
 42
0.0000001
 43
0.0000001
 44
0.0000000001
 12
-0.273811953
 22
-0.4868719346
 32
0.0
 13
-0.2806996193
 23
-0.4829220812
 33
0.0
 40
0.0
 40
0.0
 40
0.0
 40
0.0
 40
0.0526459784
 40
0.2390278846
 40
0.4645761754
 40
0.7212184691
 40
1.0
 40
1.0
 40
1.0
 40
1.0
 10
44.7930079014
 20
44.6336473187
 30
0.0
 10
44.7882028687
 20
44.6251033689
 30
0.0
 10
44.7663412772
 20
44.5863364982
 30
0.0
 10
44.7236039408
 20
44.5111323365
 30
0.0
 10
44.6617494132
 20
44.4031040635
 30
0.0
 10
44.591001791
 20
44.2803449115
 30
0.0
 10
44.541312357
 20
44.1939189274
 30
0.0
 10
44.5152277338
 20
44.1490423417
 30
0.0
 11
44.7930079014
 21
44.6336473187
 31
0.0
 11
44.7785666568
 21
44.6080301129
 31
0.0
 11
44.7271626473
 21
44.5174974683
 31
0.0
 11
44.6645783807
 21
44.408155851
 31
0.0
 11
44.5930805138
 21
44.2839044351
 31
0.0
 11
44.5152277338
 21
44.1490423417
 31
0.0
  0
SPLINE
  5
6B9
100
AcDbEntity
  8
0
100
AcDbSpline
 62
253
  6
CONTINUOUS
 70
0
 71
3
 72
12
 73
8
 74
6
 42
0.0000001
 43
0.0000001
 44
0.0000000001
 12
-0.5370576703
 22
-0.305185797
 32
0.0
 13
-0.5662968468
 23
-0.2445701689
 33
0.0
 40
0.0
 40
0.0
 40
0.0
 40
0.0
 40
0.2580526197
 40
0.4962657581
 40
0.7050960252
 40
0.8774642499
 40
1.0
 40
1.0
 40
1.0
 40
1.0
 10
-43.7894821404
 20
-44.2244250912
 30
0.0
 10
-43.8356785199
 20
-44.2506764227
 30
0.0
 10
-43.9250596848
 20
-44.3002118338
 30
0.0
 10
-44.0528051024
 20
-44.3691914791
 30
0.0
 10
-44.1659986801
 20
-44.4280115659
 30
0.0
 10
-44.2589331414
 20
-44.4739800412
 30
0.0
 10
-44.3140709964
 20
-44.4996399838
 30
0.0
 10
-44.3372015328
 20
-44.5096295135
 30
0.0
 11
-43.7894821404
 21
-44.2244250912
 31
0.0
 11
-43.9287761032
 21
-44.3019256262
 31
0.0
 11
-44.0583277172
 21
-44.3717018431
 31
0.0
 11
-44.1728617898
 21
-44.4310500916
 31
0.0
 11
-44.2683764179
 21
-44.4780999289
 31
0.0
 11
-44.3372015328
 21
-44.5096295135
 31
0.0
  0
SPLINE
  5
6BA
100
AcDbEntity
  8
0
100
AcDbSpline
 62
253
  6
CONTINUOUS
 70
0
 71
3
 72
12
 73
8
 74
6
 42
0.0000001
 43
0.0000001
 44
0.0000000001
 12
0.2740021237
 22
0.4869224341
 32
0.0
 13
0.28096287
 23
0.482929064
 33
0.0
 40
0.0
 40
0.0
 40
0.0
 40
0.0
 40
0.0526439763
 40
0.2388390563
 40
0.4641809149
 40
0.7211585423
 40
1.0
 40
1.0
 40
1.0
 40
1.0
 10
-44.067439161
 20
-44.7090880666
 30
0.0
 10
-44.0626309739
 20
-44.7005435556
 30
0.0
 10
-44.040772707
 20
-44.6618026765
 30
0.0
 10
-43.9980511552
 20
-44.5866494293
 30
0.0
 10
-43.9361562451
 20
-44.4786212222
 30
0.0
 10
-43.8653492438
 20
-44.3558152096
 30
0.0
 10
-43.8155968391
 20
-44.2693119726
 30
0.0
 10
-43.7894821404
 20
-44.2244250912
 30
0.0
 11
-44.067439161
 21
-44.7090880666
 31
0.0
 11
-44.0529891393
 21
-44.6834688074
 31
0.0
 11
-44.0016078102
 21
-44.593013664
 31
0.0
 11
-43.9390390188
 21
-44.4837601257
 31
0.0
 11
-43.8674043269
 21
-44.3593303148
 31
0.0
 11
-43.7894821404
 21
-44.2244250912
 31
0.0
  0
SPLINE
  5
6BB
100
AcDbEntity
  8
0
100
AcDbSpline
 62
253
  6
CONTINUOUS
 70
0
 71
3
 72
12
 73
8
 74
6
 42
0.0000001
 43
0.0000001
 44
0.0000000001
 12
0.2972031145
 22
-0.5113153007
 32
0.0
 13
0.2882771563
 23
-0.5163892607
 33
0.0
 40
0.0
 40
0.0
 40
0.0
 40
0.0
 40
0.2633940639
 40
0.5054666158
 40
0.7179739173
 40
0.8941846505
 40
1.0
 40
1.0
 40
1.0
 40
1.0
 10
44.5152276455
 20
-44.2244381755
 30
0.0
 10
44.5413214909
 20
-44.2693306472
 30
0.0
 10
44.5909891217
 20
-44.3557179317
 30
0.0
 10
44.66166367
 20
-44.4783504415
 30
0.0
 10
44.7234541883
 20
-44.5862662733
 30
0.0
 10
44.7716229303
 20
-44.671026046
 30
0.0
 10
44.7988957967
 20
-44.7194779358
 30
0.0
 10
44.809063846
 20
-44.7376919058
 30
0.0
 11
44.5152276455
 21
-44.2244381755
 31
0.0
 11
44.5931082324
 21
-44.3593478459
 31
0.0
 11
44.6645122322
 21
-44.4834359622
 31
0.0
 11
44.7269452405
 21
-44.5925122803
 31
0.0
 11
44.7784026458
 21
-44.6831360398
 31
0.0
 11
44.809063846
 21
-44.7376919058
 31
0.0
  0
SPLINE
  5
6BC
100
AcDbEntity
  8
0
100
AcDbSpline
 62
253
  6
CONTINUOUS
 70
0
 71
3
 72
12
 73
8
 74
6
 42
0.0000001
 43
0.0000001
 44
0.0000000001
 12
-0.5186909856
 22
0.2411968327
 32
0.0
 13
-0.497032882
 23
0.2823257462
 33
0.0
 40
0.0
 40
0.0
 40
0.0
 40
0.0
 40
0.052679411
 40
0.2393002156
 40
0.4645738844
 40
0.721210052
 40
1.0
 40
1.0
 40
1.0
 40
1.0
 10
45.0209169643
 20
-44.4907467282
 30
0.0
 10
45.0118088524
 20
-44.4865113592
 30
0.0
 10
44.9705515432
 20
-44.4669867612
 30
0.0
 10
44.8912389543
 20
-44.4277558532
 30
0.0
 10
44.7781871003
 20
-44.3690036248
 30
0.0
 10
44.6506525815
 20
-44.3001358647
 30
0.0
 10
44.5614169026
 20
-44.2506747022
 30
0.0
 10
44.5152276455
 20
-44.2244381755
 30
0.0
 11
45.0209169643
 21
-44.4907467282
 31
0.0
 11
44.9936636959
 21
-44.4778819882
 31
0.0
 11
44.8979744705
 21
-44.4307292204
 31
0.0
 11
44.7836434295
 21
-44.3714808353
 31
0.0
 11
44.6544886932
 21
-44.3019145322
 31
0.0
 11
44.5152276455
 21
-44.2244381755
 31
0.0
  0
SPLINE
  5
6BD
100
AcDbEntity
  8
RACCORDO
100
AcDbSpline
 62
253
  6
CONTINUOUS
 70
0
 71
3
 72
14
 73
10
 74
8
 42
0.0000001
 43
0.0000001
 44
0.0000000001
 12
-0.0043907563
 22
-0.4791659655
 32
0.0
 13
0.479164482
 23
0.0045497749
 33
0.0
 40
0.0
 40
0.0
 40
0.0
 40
0.0
 40
0.1511280999
 40
0.2992156184
 40
0.4440047768
 40
0.5855397392
 40
0.7244382586
 40
0.8619719265
 40
1.0
 40
1.0
 40
1.0
 40
1.0
 10
19.6251896242
 20
-26.3981213869
 30
0.0
 10
19.6249684353
 20
-26.4222598675
 30
0.0
 10
19.6296204229
 20
-26.47026288
 30
0.0
 10
19.6516059135
 20
-26.5382553065
 30
0.0
 10
19.6871613745
 20
-26.5985212075
 30
0.0
 10
19.7343155964
 20
-26.6482243856
 30
0.0
 10
19.7906622279
 20
-26.68516569
 30
0.0
 10
19.853510571
 20
-26.7077745264
 30
0.0
 10
19.8977545823
 20
-26.7125626696
 30
0.0
 10
19.9198006324
 20
-26.7123533374
 30
0.0
 11
19.6251896242
 21
-26.3981213869
 31
0.0
 11
19.6322606194
 21
-26.4701938336
 31
0.0
 11
19.6541901093
 21
-26.5376818236
 31
0.0
 11
19.6895543662
 21
-26.59737341
 31
0.0
 11
19.7363164983
 21
-26.6464964218
 31
0.0
 11
19.7920206778
 21
-26.6829250279
 31
0.0
 11
19.8540479222
 21
-26.7051957956
 31
0.0
 11
19.9198006324
 21
-26.7123533374
 31
0.0
  0
LINE
  5
6BE
100
AcDbEntity
  8
RACCORDO
100
AcDbLine
 62
7
  6
CONTINUOUS
 10
22.5227683772
 20
-26.3038220696
 11
22.7529314133
 21
-26.0038677611
  0
LINE
  5
6BF
100
AcDbEntity
  8
RACCORDO
100
AcDbLine
 62
7
  6
CONTINUOUS
 10
23.2027783413
 20
-26.3038220696
 11
22.9726153052
 21
-26.0038677611
  0
SPLINE
  5
6C0
100
AcDbEntity
  8
RACCORDO
100
AcDbSpline
 62
253
  6
CONTINUOUS
 70
0
 71
3
 72
43
 73
39
 74
37
 42
0.0000001
 43
0.0000001
 44
0.0000000001
 12
-23.6526984113
 22
-0.0000035116
 32
0.0
 13
-23.6493542838
 23
0.3977236414
 33
0.0
 40
0.0
 40
0.0
 40
0.0
 40
0.0
 40
0.0488958963
 40
0.105694582
 40
0.1685858406
 40
0.2340281761
 40
0.2950390492
 40
0.3511701753
 40
0.4029219585
 40
0.4506844247
 40
0.4947915528
 40
0.5355426037
 40
0.5731704375
 40
0.6078909442
 40
0.6399434925
 40
0.6695606975
 40
0.6969505683
 40
0.7223019136
 40
0.7457821965
 40
0.7675382201
 40
0.7876962749
 40
0.8063827349
 40
0.823718587
 40
0.8397729158
 40
0.8545560267
 40
0.8680792584
 40
0.880472361
 40
0.892008552
 40
0.9030283434
 40
0.9138615353
 40
0.9247165646
 40
0.9356289172
 40
0.9464941774
 40
0.9572648714
 40
0.9684361886
 40
0.9799164325
 40
0.9906197184
 40
1.0
 40
1.0
 40
1.0
 40
1.0
 10
-20.1371510254
 20
-44.2894305167
 30
0.0
 10
-20.5226576547
 20
-44.2894305739
 30
0.0
 10
-21.3559783437
 20
-44.2892039643
 30
0.0
 10
-22.6851481397
 20
-44.2884345483
 30
0.0
 10
-24.1447738152
 20
-44.2874748622
 30
0.0
 10
-25.6376094303
 20
-44.2866003273
 30
0.0
 10
-27.0771468129
 20
-44.286221912
 30
0.0
 10
-28.408744711
 20
-44.2862566601
 30
0.0
 10
-29.6358891015
 20
-44.2861584137
 30
0.0
 10
-30.7682333655
 20
-44.2856089185
 30
0.0
 10
-31.8138451819
 20
-44.2849256471
 30
0.0
 10
-32.7795533248
 20
-44.2844748649
 30
0.0
 10
-33.6712552443
 20
-44.2842633565
 30
0.0
 10
-34.4943761645
 20
-44.2843313654
 30
0.0
 10
-35.2543393921
 20
-44.2840504634
 30
0.0
 10
-35.9565059855
 20
-44.2834691489
 30
0.0
 10
-36.6058384145
 20
-44.2826114388
 30
0.0
 10
-37.2067854658
 20
-44.2815097208
 30
0.0
 10
-37.7633135698
 20
-44.2802608543
 30
0.0
 10
-38.2788957382
 20
-44.278732152
 30
0.0
 10
-38.7566809163
 20
-44.2768670065
 30
0.0
 10
-39.1996150333
 20
-44.2747558232
 30
0.0
 10
-39.6101928332
 20
-44.272424927
 30
0.0
 10
-39.9899943031
 20
-44.2699585278
 30
0.0
 10
-40.3397353491
 20
-44.2674722382
 30
0.0
 10
-40.6606095636
 20
-44.264975958
 30
0.0
 10
-40.9558835536
 20
-44.2624906899
 30
0.0
 10
-41.2314189408
 20
-44.2599892128
 30
0.0
 10
-41.4946545647
 20
-44.2574323883
 30
0.0
 10
-41.7525179957
 20
-44.2547265824
 30
0.0
 10
-42.0095312817
 20
-44.2517464025
 30
0.0
 10
-42.266794569
 20
-44.2485324087
 30
0.0
 10
-42.5233908797
 20
-44.2451599123
 30
0.0
 10
-42.7820240873
 20
-44.2414203899
 30
0.0
 10
-43.0455000409
 20
-44.2372498083
 30
0.0
 10
-43.3084373395
 20
-44.2326559434
 30
0.0
 10
-43.557256436
 20
-44.2283459247
 30
0.0
 10
-43.7155762824
 20
-44.2256072265
 30
0.0
 10
-43.7895221499
 20
-44.2243636399
 30
0.0
 11
-20.1371510254
 21
-44.2894305167
 31
0.0
 11
-21.2936708829
 21
-44.289166169
 31
0.0
 11
-22.6371128726
 21
-44.2884456474
 31
0.0
 11
-24.1246605494
 21
-44.2875055011
 31
0.0
 11
-25.6725481455
 21
-44.2866660938
 31
0.0
 11
-27.1156198771
 21
-44.2862841939
 31
0.0
 11
-28.4432724728
 21
-44.2862331179
 31
0.0
 11
-29.6673417829
 21
-44.2860699138
 31
0.0
 11
-30.7970528758
 21
-44.2855620049
 31
0.0
 11
-31.8403052912
 21
-44.2849420985
 31
0.0
 11
-32.8041775068
 21
-44.2845017234
 31
0.0
 11
-33.6941772921
 21
-44.2843072657
 31
0.0
 11
-34.5154109641
 21
-44.2842687297
 31
0.0
 11
-35.2735401689
 21
-44.2839831762
 31
0.0
 11
-35.9740667385
 21
-44.2833947989
 31
0.0
 11
-36.6219105179
 21
-44.2825327456
 31
0.0
 11
-37.221537248
 21
-44.2814400563
 31
0.0
 11
-37.776907825
 21
-44.2801610705
 31
0.0
 11
-38.2914941573
 21
-44.2786112189
 31
0.0
 11
-38.7682829158
 21
-44.2767505703
 31
0.0
 11
-39.2102630574
 21
-44.2746354667
 31
0.0
 11
-39.6202961434
 21
-44.2723096078
 31
0.0
 11
-40.0000163941
 21
-44.2698529178
 31
0.0
 11
-40.3496679766
 21
-44.2673608044
 31
0.0
 11
-40.6695192074
 21
-44.2648711952
 31
0.0
 11
-40.9626391134
 21
-44.2624003416
 31
0.0
 11
-41.2354899101
 21
-44.2599227416
 31
0.0
 11
-41.4961253482
 21
-44.257383926
 31
0.0
 11
-41.7523453163
 21
-44.2546813723
 31
0.0
 11
-42.009078895
 21
-44.2517133431
 31
0.0
 11
-42.2671654724
 21
-44.2484997474
 31
0.0
 11
-42.524135622
 21
-44.2450935342
 31
0.0
 11
-42.778864952
 21
-44.2414089549
 31
0.0
 11
-43.0430634952
 21
-44.2372170512
 31
0.0
 11
-43.3145622349
 21
-44.232555932
 31
0.0
 11
-43.5676857688
 21
-44.2281663203
 31
0.0
 11
-43.7895221499
 21
-44.2243636399
 31
0.0
  0
SPLINE
  5
6C1
100
AcDbEntity
  8
RACCORDO
100
AcDbSpline
 62
253
  6
CONTINUOUS
 70
0
 71
3
 72
64
 73
60
 74
58
 42
0.0000001
 43
0.0000001
 44
0.0000000001
 12
-0.554286472
 22
32.4410881229
 32
0.0
 13
0.0000022065
 23
32.4458230299
 33
0.0
 40
0.0
 40
0.0
 40
0.0
 40
0.0
 40
0.0083535708
 40
0.0171884523
 40
0.0263488106
 40
0.0358750778
 40
0.0457060455
 40
0.0555538747
 40
0.0651260065
 40
0.0743989775
 40
0.0835088675
 40
0.092567024
 40
0.1016294617
 40
0.1107225081
 40
0.119941448
 40
0.1295233843
 40
0.1397598439
 40
0.1506817293
 40
0.1617543501
 40
0.1722031293
 40
0.1816524179
 40
0.1902406642
 40
0.1983126076
 40
0.2061750691
 40
0.2139857814
 40
0.2217539537
 40
0.2294645029
 40
0.2371299087
 40
0.2447769937
 40
0.2524266111
 40
0.2600673695
 40
0.2677257863
 40
0.2755816903
 40
0.2839195055
 40
0.2930080411
 40
0.3029848232
 40
0.313843534
 40
0.3255778556
 40
0.3382657865
 40
0.3520272526
 40
0.3669694399
 40
0.3831932117
 40
0.4008125051
 40
0.4199464932
 40
0.4407125569
 40
0.4632287526
 40
0.487616699
 40
0.5140067175
 40
0.5425532537
 40
0.5734551384
 40
0.6069459383
 40
0.6432736352
 40
0.6827090921
 40
0.7255235107
 40
0.7719755584
 40
0.8223431127
 40
0.876954939
 40
0.9360848919
 40
1.0
 40
1.0
 40
1.0
 40
1.0
 10
-43.7895221499
 20
-44.2243636399
 30
0.0
 10
-43.7910655736
 20
-44.1340306644
 30
0.0
 10
-43.794126816
 20
-43.9481580297
 30
0.0
 10
-43.7988840361
 20
-43.6632281294
 30
0.0
 10
-43.8038839838
 20
-43.3656174751
 30
0.0
 10
-43.8092034455
 20
-43.0572377372
 30
0.0
 10
-43.8149665289
 20
-42.741429441
 30
0.0
 10
-43.8212693093
 20
-42.4251352252
 30
0.0
 10
-43.8279871539
 20
-42.1148859408
 30
0.0
 10
-43.8347265683
 20
-41.8126201381
 30
0.0
 10
-43.8416160363
 20
-41.5159179021
 30
0.0
 10
-43.8488376783
 20
-41.2215012554
 30
0.0
 10
-43.8561576501
 20
-40.9272693167
 30
0.0
 10
-43.8637079441
 20
-40.6313036278
 30
0.0
 10
-43.8718446356
 20
-40.3297328727
 30
0.0
 10
-43.8805353789
 20
-40.0158063999
 30
0.0
 10
-43.8897097645
 20
-39.6834684308
 30
0.0
 10
-43.8992946149
 20
-39.3350134916
 30
0.0
 10
-43.9088727582
 20
-38.9842612062
 30
0.0
 10
-43.9177549993
 20
-38.6494224253
 30
0.0
 10
-43.9255042375
 20
-38.3414325014
 30
0.0
 10
-43.9322275404
 20
-38.0591312776
 30
0.0
 10
-43.9380865744
 20
-37.7939766447
 30
0.0
 10
-43.9432517865
 20
-37.5372184646
 30
0.0
 10
-43.9478408656
 20
-37.2837352355
 30
0.0
 10
-43.9518125929
 20
-37.0318846159
 30
0.0
 10
-43.9550600089
 20
-36.7815953879
 30
0.0
 10
-43.9579632023
 20
-36.5326118248
 30
0.0
 10
-43.9608232846
 20
-36.2842867908
 30
0.0
 10
-43.9635837912
 20
-36.0362272103
 30
0.0
 10
-43.9662179652
 20
-35.7880436873
 30
0.0
 10
-43.9687191349
 20
-35.537627629
 30
0.0
 10
-43.9711636035
 20
-35.2796718097
 30
0.0
 10
-43.9736377739
 20
-35.006248469
 30
0.0
 10
-43.9761186351
 20
-34.7098864249
 30
0.0
 10
-43.9785741256
 20
-34.3862591241
 30
0.0
 10
-43.9809236838
 20
-34.0340154217
 30
0.0
 10
-43.9830812359
 20
-33.6524481674
 30
0.0
 10
-43.9850469618
 20
-33.2394853923
 30
0.0
 10
-43.986716083
 20
-32.7918270851
 30
0.0
 10
-43.9880191553
 20
-32.3059262961
 30
0.0
 10
-43.9888224109
 20
-31.7783009339
 30
0.0
 10
-43.9893103082
 20
-31.2053397601
 30
0.0
 10
-43.9895463716
 20
-30.5832522685
 30
0.0
 10
-43.9893851147
 20
-29.9082034306
 30
0.0
 10
-43.9892259485
 20
-29.1763316125
 30
0.0
 10
-43.989101709
 20
-28.3836351656
 30
0.0
 10
-43.9890250877
 20
-27.5257189269
 30
0.0
 10
-43.9889953155
 20
-26.597352655
 30
0.0
 10
-43.9890453074
 20
-25.5921894836
 30
0.0
 10
-43.9892253763
 20
-24.5028709388
 30
0.0
 10
-43.9894747654
 20
-23.3212594824
 30
0.0
 10
-43.9898724247
 20
-22.0388105639
 30
0.0
 10
-43.9905235032
 20
-20.6468641042
 30
0.0
 10
-43.9913572859
 20
-19.1366840948
 30
0.0
 10
-43.9921911063
 20
-17.498911863
 30
0.0
 10
-43.9928862922
 20
-15.7240245305
 30
0.0
 10
-43.9934077863
 20
-13.8026166215
 30
0.0
 10
-43.9935586847
 20
-12.4718505289
 30
0.0
 10
-43.9935586377
 20
-11.7805910998
 30
0.0
 11
-43.7895221499
 21
-44.2243636399
 31
0.0
 11
-43.7940510378
 21
-43.9533630002
 31
0.0
 11
-43.7988301577
 21
-43.6667478416
 31
0.0
 11
-43.8038393244
 21
-43.3695746889
 31
0.0
 11
-43.8091972364
 21
-43.0605335542
 31
0.0
 11
-43.8150522979
 21
-42.7416134576
 31
0.0
 11
-43.8214218796
 21
-42.4221560288
 31
0.0
 11
-43.828090997
 21
-42.111651945
 31
0.0
 11
-43.834812584
 21
-41.810857862
 31
0.0
 11
-43.8416936138
 21
-41.5153600876
 31
0.0
 11
-43.848853647
 21
-41.2215479768
 31
0.0
 11
-43.8561803307
 21
-40.9276010204
 31
0.0
 11
-43.8637449484
 21
-40.6326666397
 31
0.0
 11
-43.8717730787
 21
-40.3336583021
 31
0.0
 11
-43.8803355583
 21
-40.0228824295
 31
0.0
 11
-43.8894999104
 21
-39.6908785296
 31
0.0
 11
-43.8992381129
 21
-39.3366427996
 31
0.0
 11
-43.9090088967
 21
-38.9775153956
 31
0.0
 11
-43.9179606555
 21
-38.6386143618
 31
0.0
 11
-43.9256665468
 21
-38.332121271
 31
0.0
 11
-43.9322782291
 21
-38.0535470029
 31
0.0
 11
-43.9380491356
 21
-37.7917097414
 31
0.0
 11
-43.9431772223
 21
-37.536657254
 31
0.0
 11
-43.9477503891
 21
-37.2832735309
 31
0.0
 11
-43.9517045863
 21
-37.0312598077
 31
0.0
 11
-43.9550113862
 21
-36.7811065497
 31
0.0
 11
-43.9579595921
 21
-36.5324136242
 31
0.0
 11
-43.9608068849
 21
-36.2843139933
 31
0.0
 11
-43.9635635623
 21
-36.0361311727
 31
0.0
 11
-43.9661901169
 21
-35.7882343898
 31
0.0
 11
-43.9686768819
 21
-35.5397631988
 31
0.0
 11
-43.9710965992
 21
-35.2848834139
 31
0.0
 11
-43.9735350656
 21
-35.0143671273
 31
0.0
 11
-43.9760015039
 21
-34.7194924247
 31
0.0
 11
-43.9784543744
 21
-34.3957968118
 31
0.0
 11
-43.9808031843
 21
-34.0434848305
 31
0.0
 11
-43.9829683841
 21
-33.6627612659
 31
0.0
 11
-43.9849237971
 21
-33.2510955514
 31
0.0
 11
-43.9865937765
 21
-32.804596579
 31
0.0
 11
-43.9878921579
 21
-32.319786754
 31
0.0
 11
-43.9887430043
 21
-31.7933938117
 31
0.0
 11
-43.9892532342
 21
-31.2217215628
 31
0.0
 11
-43.9894783099
 21
-30.600903614
 31
0.0
 11
-43.9893919426
 21
-29.9271315903
 31
0.0
 11
-43.9892374525
 21
-29.1965751076
 31
0.0
 11
-43.9891136435
 21
-28.4052881236
 31
0.0
 11
-43.9890350189
 21
-27.5490422569
 31
0.0
 11
-43.9890082602
 21
-26.6228263951
 31
0.0
 11
-43.9890624507
 21
-25.6201893139
 31
0.0
 11
-43.9892282541
 21
-24.5335527592
 31
0.0
 11
-43.9894863256
 21
-23.3548707628
 31
0.0
 11
-43.989893335
 21
-22.0753549722
 31
0.0
 11
-43.9905238369
 21
-20.6862060679
 31
0.0
 11
-43.9913235436
 21
-19.1790313601
 31
0.0
 11
-43.9921370425
 21
-17.5448148099
 31
0.0
 11
-43.9928330465
 21
-15.7728892929
 31
0.0
 11
-43.9933451774
 21
-13.8543693759
 31
0.0
 11
-43.9935586377
 21
-11.7805910998
 31
0.0
  0
SPLINE
  5
6C2
100
AcDbEntity
  8
RACCORDO
100
AcDbSpline
 62
253
  6
CONTINUOUS
 70
0
 71
3
 72
98
 73
94
 74
92
 42
0.0000001
 43
0.0000001
 44
0.0000000001
 12
-31.2937312069
 22
0.0002550359
 32
0.0
 13
-0.0001375558
 23
31.2937312077
 33
0.0
 40
0.0
 40
0.0
 40
0.0
 40
0.0
 40
0.0458047605
 40
0.08698982
 40
0.1241588121
 40
0.1579336248
 40
0.1888170781
 40
0.217097746
 40
0.243025389
 40
0.2668274007
 40
0.2887050428
 40
0.308829104
 40
0.3273759158
 40
0.3444699957
 40
0.3601782579
 40
0.3745924144
 40
0.3878124043
 40
0.3999303347
 40
0.4110324073
 40
0.4212161658
 40
0.4305749423
 40
0.4391793555
 40
0.4470941228
 40
0.4543696693
 40
0.4610618209
 40
0.4672352634
 40
0.4729523803
 40
0.4782360681
 40
0.4830800165
 40
0.4874838014
 40
0.4915203752
 40
0.4953260229
 40
0.4990453818
 40
0.5028017745
 40
0.5065852688
 40
0.5103504694
 40
0.5140850363
 40
0.517807294
 40
0.5215835225
 40
0.5253671968
 40
0.5288776376
 40
0.5319729157
 40
0.5347002112
 40
0.5371052192
 40
0.5392643897
 40
0.5412646853
 40
0.543193627
 40
0.5451057361
 40
0.5470581479
 40
0.5490364187
 40
0.551004652
 40
0.5529700204
 40
0.5549388906
 40
0.5568984866
 40
0.5588616543
 40
0.5609012294
 40
0.5630965722
 40
0.56552302
 40
0.5682350937
 40
0.5712788523
 40
0.5746729339
 40
0.5783211529
 40
0.5821064248
 40
0.585988988
 40
0.5899746555
 40
0.5941241982
 40
0.5985265503
 40
0.6032690131
 40
0.6084297164
 40
0.6140454031
 40
0.6201364584
 40
0.6267244131
 40
0.6338515156
 40
0.6415706092
 40
0.6499312898
 40
0.6589726599
 40
0.6687334384
 40
0.6792641989
 40
0.6906456745
 40
0.7029680003
 40
0.7163174349
 40
0.7307842699
 40
0.7464795522
 40
0.763525972
 40
0.7820242824
 40
0.8020488008
 40
0.8237033934
 40
0.8471772393
 40
0.8726843088
 40
0.9004701457
 40
0.9307832016
 40
0.9638686327
 40
1.0
 40
1.0
 40
1.0
 40
1.0
 10
-20.137195332
 20
-28.6906779368
 30
0.0
 10
-20.6149959529
 20
-28.6906740429
 30
0.0
 10
-21.5224073693
 20
-28.6752133927
 30
0.0
 10
-22.8167915081
 20
-28.6318429185
 30
0.0
 10
-23.9859099505
 20
-28.5957120853
 30
0.0
 10
-25.0480298292
 20
-28.5809668752
 30
0.0
 10
-26.0174814915
 20
-28.5753304785
 30
0.0
 10
-26.905089393
 20
-28.5722075681
 30
0.0
 10
-27.7188194207
 20
-28.5669014382
 30
0.0
 10
-28.4657180089
 20
-28.557236035
 30
0.0
 10
-29.1519750054
 20
-28.5419925816
 30
0.0
 10
-29.78325078
 20
-28.521568383
 30
0.0
 10
-30.3644065942
 20
-28.4959188657
 30
0.0
 10
-30.8989908931
 20
-28.4616761063
 30
0.0
 10
-31.3896760875
 20
-28.4185255144
 30
0.0
 10
-31.8388970687
 20
-28.3669308102
 30
0.0
 10
-32.2493535237
 20
-28.3075596582
 30
0.0
 10
-32.6237253879
 20
-28.2413714621
 30
0.0
 10
-32.9648047233
 20
-28.1698224812
 30
0.0
 10
-33.2753554167
 20
-28.093776192
 30
0.0
 10
-33.5578901553
 20
-28.0136596002
 30
0.0
 10
-33.8147249171
 20
-27.9303651266
 30
0.0
 10
-34.0477732693
 20
-27.8447696712
 30
0.0
 10
-34.2588998022
 20
-27.7578531877
 30
0.0
 10
-34.450014232
 20
-27.6704593114
 30
0.0
 10
-34.6231251537
 20
-27.5831377044
 30
0.0
 10
-34.7799454392
 20
-27.4964389184
 30
0.0
 10
-34.9215810587
 20
-27.4111813354
 30
0.0
 10
-35.0486464774
 20
-27.3284766441
 30
0.0
 10
-35.1622448218
 20
-27.2490787836
 30
0.0
 10
-35.2646732711
 20
-27.1727185137
 30
0.0
 10
-35.3592766662
 20
-27.0978945032
 30
0.0
 10
-35.4495762951
 20
-27.0224119756
 30
0.0
 10
-35.5376288643
 20
-26.9446672081
 30
0.0
 10
-35.6238327616
 20
-26.8641744896
 30
0.0
 10
-35.7075996415
 20
-26.7814721953
 30
0.0
 10
-35.7885807849
 20
-26.6969238032
 30
0.0
 10
-35.8673553421
 20
-26.6101615814
 30
0.0
 10
-35.9440878525
 20
-26.52090969
 30
0.0
 10
-36.0166569808
 20
-26.4310521212
 30
0.0
 10
-36.0813611639
 20
-26.3440713604
 30
0.0
 10
-36.1362173198
 20
-26.2636180031
 30
0.0
 10
-36.1825228616
 20
-26.1913484462
 30
0.0
 10
-36.2221358007
 20
-26.1264125284
 30
0.0
 10
-36.2564985388
 20
-26.0671756997
 30
0.0
 10
-36.2869892334
 20
-26.0114569242
 30
0.0
 10
-36.3149804395
 20
-25.957327772
 30
0.0
 10
-36.3415533125
 20
-25.9030478741
 30
0.0
 10
-36.3695375325
 20
-25.8488995963
 30
0.0
 10
-36.3985627908
 20
-25.7946421247
 30
0.0
 10
-36.4270581185
 20
-25.739950793
 30
0.0
 10
-36.4550135409
 20
-25.6850922057
 30
0.0
 10
-36.4824125351
 20
-25.6300539456
 30
0.0
 10
-36.5092657164
 20
-25.5747729124
 30
0.0
 10
-36.5359217158
 20
-25.5185792436
 30
0.0
 10
-36.5631180216
 20
-25.4599228103
 30
0.0
 10
-36.5917814839
 20
-25.3966229456
 30
0.0
 10
-36.6225452278
 20
-25.3265762158
 30
0.0
 10
-36.655226785
 20
-25.2477213131
 30
0.0
 10
-36.6896785059
 20
-25.1587017965
 30
0.0
 10
-36.7254308881
 20
-25.0597435128
 30
0.0
 10
-36.761414533
 20
-24.9526724887
 30
0.0
 10
-36.7961732147
 20
-24.8398515486
 30
0.0
 10
-36.8289372824
 20
-24.7227757078
 30
0.0
 10
-36.8596300901
 20
-24.601216974
 30
0.0
 10
-36.8884198942
 20
-24.4736283462
 30
0.0
 10
-36.9154941094
 20
-24.3376052964
 30
0.0
 10
-36.9408870884
 20
-24.1905396637
 30
0.0
 10
-36.9641575747
 20
-24.0303224962
 30
0.0
 10
-36.9854570221
 20
-23.8556550149
 30
0.0
 10
-37.0046952577
 20
-23.6657776855
 30
0.0
 10
-37.0213746416
 20
-23.4598362954
 30
0.0
 10
-37.0351986341
 20
-23.2366666224
 30
0.0
 10
-37.0458518381
 20
-22.9948127039
 30
0.0
 10
-37.0531595581
 20
-22.732860141
 30
0.0
 10
-37.0572524643
 20
-22.4495411177
 30
0.0
 10
-37.0585279218
 20
-22.1435608462
 30
0.0
 10
-37.0574309197
 20
-21.81317303
 30
0.0
 10
-37.0570525396
 20
-21.4560639689
 30
0.0
 10
-37.057652015
 20
-21.0695525162
 30
0.0
 10
-37.0597395936
 20
-20.6508611276
 30
0.0
 10
-37.0640189557
 20
-20.1970001374
 30
0.0
 10
-37.0713560255
 20
-19.7046069093
 30
0.0
 10
-37.0837367936
 20
-19.1702472562
 30
0.0
 10
-37.1012571323
 20
-18.5908523472
 30
0.0
 10
-37.1232323105
 20
-17.9635108563
 30
0.0
 10
-37.1478203357
 20
-17.284329771
 30
0.0
 10
-37.1736742361
 20
-16.5479661703
 30
0.0
 10
-37.1981713686
 20
-15.7475650009
 30
0.0
 10
-37.2208157523
 20
-14.8757422024
 30
0.0
 10
-37.2404143483
 20
-13.9247697909
 30
0.0
 10
-37.2531398999
 20
-12.8866176306
 30
0.0
 10
-37.2567511258
 20
-12.1645991254
 30
0.0
 10
-37.2567527825
 20
-11.7877040267
 30
0.0
 11
-20.137195332
 21
-28.6906779368
 31
0.0
 11
-21.5704516804
 21
-28.6702539372
 31
0.0
 11
-22.8586887537
 21
-28.6310264605
 31
0.0
 11
-24.0213783136
 21
-28.5980734027
 31
0.0
 11
-25.0781965023
 21
-28.5820329853
 31
0.0
 11
-26.0446333013
 21
-28.5755586597
 31
0.0
 11
-26.9296323295
 21
-28.5716591441
 31
0.0
 11
-27.7409842358
 21
-28.5658517002
 31
0.0
 11
-28.4857698615
 21
-28.5557773207
 31
0.0
 11
-29.1702297986
 21
-28.5403822084
 31
0.0
 11
-29.7996487589
 21
-28.5197520276
 31
0.0
 11
-30.3794424933
 21
-28.4932537631
 31
0.0
 11
-30.913253246
 21
-28.4585514112
 31
0.0
 11
-31.4028972432
 21
-28.4150778017
 31
0.0
 11
-31.8509803087
 21
-28.3632301266
 31
0.0
 11
-32.260375755
 21
-28.303687006
 31
0.0
 11
-32.6337645104
 21
-28.2374673005
 31
0.0
 11
-32.9737363697
 21
-28.1658889772
 31
0.0
 11
-33.2832057699
 21
-28.0897929506
 31
0.0
 11
-33.5649113657
 21
-28.009696748
 31
0.0
 11
-33.820983641
 21
-27.9264489562
 31
0.0
 11
-34.0534321465
 21
-27.840924905
 31
0.0
 11
-34.2639242582
 21
-27.7541447441
 31
0.0
 11
-34.454333715
 21
-27.6669554239
 31
0.0
 11
-34.6267845722
 21
-27.5798744418
 31
0.0
 11
-34.7833321643
 21
-27.4932626037
 31
0.0
 11
-34.9249749604
 21
-27.4079589139
 31
0.0
 11
-35.0520060015
 21
-27.325247405
 31
0.0
 11
-35.1649550948
 21
-27.2462896001
 31
0.0
 11
-35.2662273384
 21
-27.1707876944
 31
0.0
 11
-35.3596396182
 21
-27.0969143663
 31
0.0
 11
-35.4489397028
 21
-27.0222636021
 31
0.0
 11
-35.5370515418
 21
-26.9444518464
 31
0.0
 11
-35.6235906455
 21
-26.8636467666
 31
0.0
 11
-35.7074344017
 21
-26.780861091
 31
0.0
 11
-35.7882889527
 21
-26.6964762823
 31
0.0
 11
-35.8665860218
 21
-26.6102328178
 31
0.0
 11
-35.9435732852
 21
-26.5205798797
 31
0.0
 11
-36.0178055795
 21
-26.4283335887
 31
0.0
 11
-36.0832933336
 21
-26.3401325179
 31
0.0
 11
-36.1379695536
 21
-26.2601768235
 31
0.0
 11
-36.1840536627
 21
-26.1883408403
 31
0.0
 11
-36.223220305
 21
-26.1240734775
 31
0.0
 11
-36.2570761474
 21
-26.065598833
 31
0.0
 11
-36.287126535
 21
-26.0106868791
 31
0.0
 11
-36.314862313
 21
-25.9570723945
 31
0.0
 11
-36.3415603495
 21
-25.9035216257
 31
0.0
 11
-36.3695406352
 21
-25.8492068034
 31
0.0
 11
-36.3985125957
 21
-25.7944970163
 31
0.0
 11
-36.426989404
 21
-25.739881872
 31
0.0
 11
-36.4549110792
 21
-25.6850814485
 31
0.0
 11
-36.4823659463
 21
-25.6299232386
 31
0.0
 11
-36.509164154
 21
-25.5747655093
 31
0.0
 11
-36.535500325
 21
-25.5192619424
 31
0.0
 11
-36.5623511257
 21
-25.4613587293
 31
0.0
 11
-36.590674235
 21
-25.3987683512
 31
0.0
 11
-36.6211172932
 21
-25.3292055665
 31
0.0
 11
-36.6536094172
 21
-25.2508006402
 31
0.0
 11
-36.6880421121
 21
-25.1619915215
 31
0.0
 11
-36.7241678762
 21
-25.062110433
 31
0.0
 11
-36.7605083811
 21
-24.9538822895
 31
0.0
 11
-36.7953883351
 21
-24.8406787448
 31
0.0
 11
-36.8281539393
 21
-24.72368029
 31
0.0
 11
-36.8587084167
 21
-24.6027542772
 31
0.0
 11
-36.8873163518
 21
-24.4760900682
 31
0.0
 11
-36.9142473282
 21
-24.3409819645
 31
0.0
 11
-36.9395188935
 21
-24.1947400927
 31
0.0
 11
-36.9628902394
 21
-24.0349424857
 31
0.0
 11
-36.9842878648
 21
-23.8605142504
 31
0.0
 11
-37.0035598698
 21
-23.670879164
 31
0.0
 11
-37.0202966289
 21
-23.4653979714
 31
0.0
 11
-37.034180787
 21
-23.2427969128
 31
0.0
 11
-37.0449342099
 21
-23.0014771469
 31
0.0
 11
-37.0523983119
 21
-22.7399467471
 31
0.0
 11
-37.0566779961
 21
-22.4570409092
 31
0.0
 11
-37.0581276648
 21
-22.15159317
 31
0.0
 11
-37.0575797352
 21
-21.8220468369
 31
0.0
 11
-37.0572117539
 21
-21.4658781904
 31
0.0
 11
-37.0578473229
 21
-21.0802671626
 31
0.0
 11
-37.0599783647
 21
-20.6625189784
 31
0.0
 11
-37.0642941239
 21
-20.2098183029
 31
0.0
 11
-37.0717946211
 21
-19.7187116318
 31
0.0
 11
-37.0839882022
 21
-19.1854049301
 31
0.0
 11
-37.101219049
 21
-18.6067802785
 31
0.0
 11
-37.1227545783
 21
-17.9805085445
 31
0.0
 11
-37.1470156174
 21
-17.3032899756
 31
0.0
 11
-37.1724023455
 21
-16.5691445568
 31
0.0
 11
-37.196854963
 21
-15.7713078112
 31
0.0
 11
-37.2193882627
 21
-14.9020773199
 31
0.0
 11
-37.2385563965
 21
-13.9536623768
 31
0.0
 11
-37.2515535348
 21
-12.9183773689
 31
0.0
 11
-37.2567527825
 21
-11.7877040267
 31
0.0
  0
ELLIPSE
  5
6C3
100
AcDbEntity
  8
0
100
AcDbEllipse
 62
7
  6
CONTINUOUS
 10
-45.7328632068
 20
4.1640954555
 30
0.0
 11
0.0
 21
0.5
 31
0.0
 40
0.0087268678
 41
-4.7123889804
 42
-3.2724923475
  0
ELLIPSE
  5
6C4
100
AcDbEntity
  8
0
100
AcDbEllipse
 62
7
  6
CONTINUOUS
 10
-45.724136339
 20
3.0238139974
 30
0.0
 11
0.0
 21
0.5
 31
0.0
 40
0.0087268678
 41
-1.5707963268
 42
-0.1308996939
  0
ELLIPSE
  5
6C5
100
AcDbEntity
  8
0
100
AcDbEllipse
 62
7
  6
CONTINUOUS
 10
-45.724136339
 20
-3.0992095396
 30
0.0
 11
0.0
 21
0.5
 31
0.0
 40
0.0087268678
 41
-3.0106929597
 42
-1.5707963268
  0
ELLIPSE
  5
6C6
100
AcDbEntity
  8
0
100
AcDbEllipse
 62
7
  6
CONTINUOUS
 10
-45.7328632068
 20
-4.2394909978
 30
0.0
 11
-0.0
 21
0.5
 31
0.0
 40
0.0087268678
 41
0.1308996939
 42
1.5707963268
  0
ELLIPSE
  5
6C7
100
AcDbEntity
  8
0
100
AcDbEllipse
 62
7
  6
CONTINUOUS
 10
46.4584099254
 20
-4.2394909978
 30
0.0
 11
-0.0
 21
0.5
 31
0.0
 40
0.0087268678
 41
-1.5707963268
 42
-0.1308996939
  0
ELLIPSE
  5
6C8
100
AcDbEntity
  8
0
100
AcDbEllipse
 62
7
  6
CONTINUOUS
 10
46.4496830576
 20
-3.0992095396
 30
0.0
 11
-0.0
 21
0.5
 31
0.0
 40
0.0087268678
 41
-4.7123889804
 42
-3.2724923475
  0
ELLIPSE
  5
6C9
100
AcDbEntity
  8
0
100
AcDbEllipse
 62
7
  6
CONTINUOUS
 10
46.4496830576
 20
3.0238139974
 30
0.0
 11
0.0
 21
0.5
 31
0.0
 40
0.0087268678
 41
0.1308996939
 42
1.5707963268
  0
ELLIPSE
  5
6CA
100
AcDbEntity
  8
0
100
AcDbEllipse
 62
7
  6
CONTINUOUS
 10
46.4584099254
 20
4.1640954555
 30
0.0
 11
0.0
 21
0.5
 31
0.0
 40
0.0087268678
 41
-3.0106929597
 42
-1.5707963268
  0
ELLIPSE
  5
6CB
100
AcDbEntity
  8
0
100
AcDbEllipse
 62
7
  6
CONTINUOUS
 10
-44.1371657153
 20
44.4622413034
 30
0.0
 11
-1.1314570098
 21
1.1314570098
 31
-0.0
 40
0.9999238505
 41
-0.7853600872
 42
0.7853600873
  0
ELLIPSE
  5
6CC
100
AcDbEntity
  8
0
100
AcDbEllipse
 62
7
  6
CONTINUOUS
 10
-44.1371657153
 20
-44.5376368457
 30
0.0
 11
-1.1314570098
 21
-1.1314570098
 31
-0.0
 40
0.9999238505
 41
-0.7853600873
 42
0.7853600872
  0
ELLIPSE
  5
6CD
100
AcDbEntity
  8
0
100
AcDbEllipse
 62
7
  6
CONTINUOUS
 10
44.8627124339
 20
-44.5376368457
 30
0.0
 11
1.1314570098
 21
-1.1314570098
 31
-0.0
 40
0.9999238505
 41
-0.7853600872
 42
0.7853600873
  0
ELLIPSE
  5
6CE
100
AcDbEntity
  8
0
100
AcDbEllipse
 62
7
  6
CONTINUOUS
 10
44.8627124339
 20
44.4622413034
 30
0.0
 11
1.1314570098
 21
1.1314570098
 31
-0.0
 40
0.9999238505
 41
-0.7853600873
 42
0.7853600872
  0
ELLIPSE
  5
6CF
100
AcDbEntity
  8
RACCORDO
100
AcDbEllipse
 62
7
  6
CONTINUOUS
 10
22.2875797968
 20
26.6239742869
 30
0.0
 11
0.2592794329
 21
0.0036213932
 31
0.0
 40
0.2221669683
 41
-0.0453318575
 42
0.1641076527
  0
ELLIPSE
  5
6D0
100
AcDbEntity
  8
RACCORDO
100
AcDbEllipse
 62
7
  6
CONTINUOUS
 10
23.4379669218
 20
26.6239742869
 30
0.0
 11
0.2592794329
 21
-0.0036213932
 31
0.0
 40
0.2221669683
 41
2.9774850009
 42
3.1869245111
  0
ELLIPSE
  5
6D1
100
AcDbEntity
  8
RACCORDO
100
AcDbEllipse
 62
7
  6
CONTINUOUS
 10
-19.1387839813
 20
-25.3876977711
 30
0.0
 11
-0.0
 21
0.3
 31
0.0
 40
0.0524077793
 41
0.0
 42
0.0523598776
  0
ELLIPSE
  5
6D2
100
AcDbEntity
  8
RACCORDO
100
AcDbEllipse
 62
7
  6
CONTINUOUS
 10
-18.9003285856
 20
-24.8376977711
 30
0.0
 11
-0.0
 21
0.25
 31
0.0
 40
0.0524077793
 41
-3.1415926536
 42
-3.089232776
  0
ELLIPSE
  5
6D3
100
AcDbEntity
  8
RACCORDO
100
AcDbEllipse
 62
7
  6
CONTINUOUS
 10
-19.1387839813
 20
25.3123022289
 30
0.0
 11
0.0
 21
0.3
 31
0.0
 40
0.0524077793
 41
-3.1939525311
 42
-3.1415926536
  0
ELLIPSE
  5
6D4
100
AcDbEntity
  8
RACCORDO
100
AcDbEllipse
 62
7
  6
CONTINUOUS
 10
-18.9003285856
 20
24.7623022289
 30
0.0
 11
-0.0
 21
0.25
 31
0.0
 40
0.0524077793
 41
-0.0523598776
 42
0.0
  0
ELLIPSE
  5
6D5
100
AcDbEntity
  8
RACCORDO
100
AcDbEllipse
 62
7
  6
CONTINUOUS
 10
-25.1356693002
 20
-25.3876977711
 30
0.0
 11
0.0
 21
0.3
 31
0.0
 40
0.0524077793
 41
-0.0523598776
 42
0.0
  0
ELLIPSE
  5
6D6
100
AcDbEntity
  8
RACCORDO
100
AcDbEllipse
 62
7
  6
CONTINUOUS
 10
-25.3741246959
 20
-24.8376977711
 30
0.0
 11
-0.0
 21
0.25
 31
0.0
 40
0.0524077793
 41
-3.1939525311
 42
-3.1415926536
  0
ELLIPSE
  5
6D7
100
AcDbEntity
  8
RACCORDO
100
AcDbEllipse
 62
7
  6
CONTINUOUS
 10
-25.1356693002
 20
25.3123022289
 30
0.0
 11
0.0
 21
0.3
 31
0.0
 40
0.0524077793
 41
-3.1415926536
 42
-3.089232776
  0
ELLIPSE
  5
6D8
100
AcDbEntity
  8
RACCORDO
100
AcDbEllipse
 62
7
  6
CONTINUOUS
 10
-25.3741246959
 20
24.7623022289
 30
0.0
 11
0.0
 21
0.25
 31
0.0
 40
0.0524077793
 41
0.0
 42
0.0523598776
  0
ELLIPSE
  5
6D9
100
AcDbEntity
  8
RACCORDO
100
AcDbEllipse
 62
7
  6
CONTINUOUS
 10
25.8612160187
 20
-25.3876977711
 30
0.0
 11
-0.0
 21
0.3
 31
0.0
 40
0.0524077793
 41
0.0
 42
0.0523598776
  0
ELLIPSE
  5
6DA
100
AcDbEntity
  8
RACCORDO
100
AcDbEllipse
 62
7
  6
CONTINUOUS
 10
26.0996714144
 20
-24.8376977711
 30
0.0
 11
0.0
 21
0.25
 31
0.0
 40
0.0524077793
 41
-3.1415926536
 42
-3.089232776
  0
ELLIPSE
  5
6DB
100
AcDbEntity
  8
RACCORDO
100
AcDbEllipse
 62
7
  6
CONTINUOUS
 10
25.8612160187
 20
25.3123022289
 30
0.0
 11
-0.0
 21
0.3
 31
0.0
 40
0.0524077793
 41
-3.1939525311
 42
-3.1415926536
  0
ELLIPSE
  5
6DC
100
AcDbEntity
  8
RACCORDO
100
AcDbEllipse
 62
7
  6
CONTINUOUS
 10
26.0996714144
 20
24.7623022289
 30
0.0
 11
0.0
 21
0.25
 31
0.0
 40
0.0524077793
 41
-0.0523598776
 42
0.0
  0
ELLIPSE
  5
6DD
100
AcDbEntity
  8
RACCORDO
100
AcDbEllipse
 62
7
  6
CONTINUOUS
 10
19.8643306998
 20
-25.3876977711
 30
0.0
 11
-0.0
 21
0.3
 31
0.0
 40
0.0524077793
 41
-0.0523598776
 42
0.0
  0
ELLIPSE
  5
6DE
100
AcDbEntity
  8
RACCORDO
100
AcDbEllipse
 62
7
  6
CONTINUOUS
 10
19.6258753041
 20
-24.8376977711
 30
0.0
 11
0.0
 21
0.25
 31
0.0
 40
0.0524077793
 41
-3.1939525311
 42
-3.1415926536
  0
ELLIPSE
  5
6DF
100
AcDbEntity
  8
RACCORDO
100
AcDbEllipse
 62
7
  6
CONTINUOUS
 10
19.8643306998
 20
25.3123022289
 30
0.0
 11
-0.0
 21
0.3
 31
0.0
 40
0.0524077793
 41
-3.1415926536
 42
-3.089232776
  0
ELLIPSE
  5
6E0
100
AcDbEntity
  8
RACCORDO
100
AcDbEllipse
 62
7
  6
CONTINUOUS
 10
19.6258753041
 20
24.7623022289
 30
0.0
 11
-0.0
 21
0.25
 31
0.0
 40
0.0524077793
 41
0.0
 42
0.0523598776
  0
ELLIPSE
  5
6E1
100
AcDbEntity
  8
RACCORDO
100
AcDbEllipse
 62
7
  6
CONTINUOUS
 10
-21.5620330782
 20
-26.6993698292
 30
0.0
 11
0.2592794329
 21
0.0036213932
 31
0.0
 40
0.2221669683
 41
3.0962607961
 42
3.3057003063
  0
ELLIPSE
  5
6E2
100
AcDbEntity
  8
RACCORDO
100
AcDbEllipse
 62
7
  6
CONTINUOUS
 10
-22.7124202032
 20
-26.6993698292
 30
0.0
 11
0.2592794329
 21
-0.0036213932
 31
0.0
 40
0.2221669683
 41
-0.1641076527
 42
0.0453318575
  0
ELLIPSE
  5
6E3
100
AcDbEntity
  8
RACCORDO
100
AcDbEllipse
 62
7
  6
CONTINUOUS
 10
-22.7124202032
 20
26.6239742869
 30
0.0
 11
0.2592794329
 21
0.0036213932
 31
0.0
 40
0.2221669683
 41
-0.0453318575
 42
0.1641076527
  0
ELLIPSE
  5
6E4
100
AcDbEntity
  8
RACCORDO
100
AcDbEllipse
 62
7
  6
CONTINUOUS
 10
-21.5620330782
 20
26.6239742869
 30
0.0
 11
0.2592794329
 21
-0.0036213932
 31
0.0
 40
0.2221669683
 41
2.9774850009
 42
3.1869245111
  0
ELLIPSE
  5
6E5
100
AcDbEntity
  8
RACCORDO
100
AcDbEllipse
 62
7
  6
CONTINUOUS
 10
23.4379669218
 20
-26.6993698292
 30
0.0
 11
0.2592794329
 21
0.0036213932
 31
0.0
 40
0.2221669683
 41
3.0962607961
 42
3.3057003063
  0
ELLIPSE
  5
6E6
100
AcDbEntity
  8
RACCORDO
100
AcDbEllipse
 62
7
  6
CONTINUOUS
 10
22.2875797968
 20
-26.6993698292
 30
0.0
 11
0.2592794329
 21
-0.0036213932
 31
0.0
 40
0.2221669683
 41
-0.1641076527
 42
0.0453318575
  0
ELLIPSE
  5
6E7
100
AcDbEntity
  8
RACCORDO
100
AcDbEllipse
 62
7
  6
CONTINUOUS
 10
-47.1110227511
 20
4.1640954555
 30
0.0
 11
-0.0
 21
0.5
 31
0.0
 40
0.0524077793
 41
1.5707963268
 42
3.0106929597
  0
ELLIPSE
  5
6E8
100
AcDbEntity
  8
RACCORDO
100
AcDbEllipse
 62
7
  6
CONTINUOUS
 10
-47.1110227511
 20
-4.2394909978
 30
0.0
 11
0.0
 21
0.5
 31
0.0
 40
0.0524077793
 41
0.1308996939
 42
1.5707963268
  0
ELLIPSE
  5
6E9
100
AcDbEntity
  8
RACCORDO
100
AcDbEllipse
 62
7
  6
CONTINUOUS
 10
47.8365694696
 20
4.1640954555
 30
0.0
 11
-0.0
 21
0.5
 31
0.0
 40
0.0524077793
 41
-3.0106929597
 42
-1.5707963268
  0
ELLIPSE
  5
6EA
100
AcDbEntity
  8
RACCORDO
100
AcDbEllipse
 62
7
  6
CONTINUOUS
 10
47.8365694696
 20
-4.2394909978
 30
0.0
 11
0.0
 21
0.5
 31
0.0
 40
0.0524077793
 41
-1.5707963268
 42
-0.1308996939
  0
ELLIPSE
  5
6EB
100
AcDbEntity
  8
RACCORDO
100
AcDbEllipse
 62
7
  6
CONTINUOUS
 10
-47.0586149718
 20
-3.0992095396
 30
0.0
 11
0.0
 21
0.5
 31
0.0
 40
0.0524077793
 41
-3.0106929597
 42
-1.5707963268
  0
ELLIPSE
  5
6EC
100
AcDbEntity
  8
RACCORDO
100
AcDbEllipse
 62
7
  6
CONTINUOUS
 10
-47.0586149718
 20
3.0238139974
 30
0.0
 11
0.0
 21
0.5
 31
0.0
 40
0.0524077793
 41
-1.5707963268
 42
-0.1308996939
  0
ELLIPSE
  5
6ED
100
AcDbEntity
  8
RACCORDO
100
AcDbEllipse
 62
7
  6
CONTINUOUS
 10
47.7841616903
 20
-3.0992095396
 30
0.0
 11
-0.0
 21
0.5
 31
0.0
 40
0.0524077793
 41
1.5707963268
 42
3.0106929597
  0
ELLIPSE
  5
6EE
100
AcDbEntity
  8
RACCORDO
100
AcDbEllipse
 62
7
  6
CONTINUOUS
 10
47.7841616903
 20
3.0238139974
 30
0.0
 11
0.0
 21
0.5
 31
0.0
 40
0.0524077793
 41
0.1308996939
 42
1.5707963268
  0
ELLIPSE
  5
6EF
100
AcDbEntity
  8
RACCORDO
100
AcDbEllipse
 62
7
  6
CONTINUOUS
 10
-45.724136339
 20
-3.0992095396
 30
0.0
 11
0.0
 21
0.5
 31
0.0
 40
0.0087268678
 41
-3.0106929597
 42
-1.6470625775
  0
ELLIPSE
  5
6F0
100
AcDbEntity
  8
RACCORDO
100
AcDbEllipse
 62
7
  6
CONTINUOUS
 10
-45.724136339
 20
3.0238139974
 30
0.0
 11
-0.0
 21
0.5
 31
0.0
 40
0.0087268678
 41
-1.5707963268
 42
-0.2071523056
  0
ELLIPSE
  5
6F1
100
AcDbEntity
  8
RACCORDO
100
AcDbEllipse
 62
7
  6
CONTINUOUS
 10
46.4496830576
 20
-3.0992095396
 30
0.0
 11
-0.0
 21
0.5
 31
0.0
 40
0.0087268678
 41
-4.7123889804
 42
-3.3489405345
  0
ELLIPSE
  5
6F2
100
AcDbEntity
  8
RACCORDO
100
AcDbEllipse
 62
7
  6
CONTINUOUS
 10
46.4496830576
 20
3.0238139974
 30
0.0
 11
0.0
 21
0.5
 31
0.0
 40
0.0087268678
 41
0.1308996939
 42
1.4944549329
  0
ELLIPSE
  5
6F3
100
AcDbEntity
  8
RACCORDO
100
AcDbEllipse
 62
7
  6
CONTINUOUS
 10
46.4584099254
 20
4.1640954555
 30
0.0
 11
-0.0
 21
0.5
 31
0.0
 40
0.0087268678
 41
3.3489405424
 42
4.7123889804
  0
ELLIPSE
  5
6F4
100
AcDbEntity
  8
RACCORDO
100
AcDbEllipse
 62
7
  6
CONTINUOUS
 10
46.4584099254
 20
-4.2394909978
 30
0.0
 11
-0.0
 21
0.5
 31
0.0
 40
0.0087268678
 41
4.7887303743
 42
6.1522856133
  0
ELLIPSE
  5
6F5
100
AcDbEntity
  8
RACCORDO
100
AcDbEllipse
 62
7
  6
CONTINUOUS
 10
-45.7328632068
 20
4.1640954555
 30
0.0
 11
0.0
 21
0.5
 31
0.0
 40
0.0087268678
 41
1.6470625849
 42
3.0106929597
  0
ELLIPSE
  5
6F6
100
AcDbEntity
  8
RACCORDO
100
AcDbEllipse
 62
7
  6
CONTINUOUS
 10
-45.7328632068
 20
-4.2394909978
 30
0.0
 11
-0.0
 21
0.5
 31
0.0
 40
0.0087268678
 41
6.4903376128
 42
7.853981634
  0
ELLIPSE
  5
6F7
100
AcDbEntity
  8
RACCORDO
100
AcDbEllipse
 62
7
  6
CONTINUOUS
 10
-44.1371657153
 20
-44.5376368457
 30
0.0
 11
1.1314570098
 21
1.1314570098
 31
0.0
 40
0.9999238505
 41
-3.9269527408
 42
-2.3562325664
  0
ELLIPSE
  5
6F8
100
AcDbEntity
  8
RACCORDO
100
AcDbEllipse
 62
7
  6
CONTINUOUS
 10
44.8627124339
 20
-44.5376368457
 30
0.0
 11
1.1314570098
 21
-1.1314570098
 31
0.0
 40
0.9999238505
 41
-0.7853600872
 42
0.7853600872
  0
ELLIPSE
  5
6F9
100
AcDbEntity
  8
RACCORDO
100
AcDbEllipse
 62
7
  6
CONTINUOUS
 10
-44.1371657153
 20
44.4622413034
 30
0.0
 11
1.1314570098
 21
-1.1314570098
 31
0.0
 40
0.9999238505
 41
2.3562325664
 42
3.9269527408
  0
ELLIPSE
  5
6FA
100
AcDbEntity
  8
RACCORDO
100
AcDbEllipse
 62
7
  6
CONTINUOUS
 10
44.8627124339
 20
44.4622413034
 30
0.0
 11
1.1314570098
 21
1.1314570098
 31
0.0
 40
0.9999238505
 41
-0.7853600872
 42
0.7853600872
  0
ENDSEC
  0
SECTION
  2
OBJECTS
  0
DICTIONARY
  5
C
100
AcDbDictionary
280
0
281
1
  3
ACAD_GROUP
350
D
  3
ACAD_MLINESTYLE
350
17
  3
ACAD_LAYOUT
350
1A
  3
ACAD_PLOTSETTINGS
350
19
  3
ACAD_PLOTSTYLENAME
350
E
  0
DICTIONARY
  5
D
102
{ACAD_REACTORS
330
C
102
}
100
AcDbDictionary
280
0
281
1
  0
ACDBDICTIONARYWDFLT
  5
E
102
{ACAD_REACTORS
330
C
102
}
100
AcDbDictionary
281
1
  3
Normal
350
F
100
AcDbDictionaryWithDefault
340
F
  0
DICTIONARY
  5
17
102
{ACAD_REACTORS
330
C
102
}
100
AcDbDictionary
280
0
281
1
  3
Standard
350
18
  0
DICTIONARY
  5
19
102
{ACAD_REACTORS
330
C
102
}
100
AcDbDictionary
281
1
  0
DICTIONARY
  5
1A
102
{ACAD_REACTORS
330
C
102
}
100
AcDbDictionary
281
1
  3
Model
350
6FB
  3
Layout1
350
6FC
  0
ACDBPLACEHOLDER
  5
F
102
{ACAD_REACTORS
330
E
102
}
  0
MLINESTYLE
  5
18
102
{ACAD_REACTORS
330
17
102
}
100
AcDbMlineStyle
  2
STANDARD
 70
0
  3

 62
256
 51
90.0
 52
90.0
 71
2
 49
0.5
 62
256
  6
BYLAYER
 49
-0.5
 62
256
  6
BYLAYER
  0
LAYOUT
  5
6FB
102
{ACAD_REACTORS
330
1A
102
}
100
AcDbPlotSettings
  1

  2
none_device
  4
ISO_A4_(297.00_x_210.00_MM)
  6

 40
0.0
 41
0.0
 42
0.0
 43
0.0
 44
297.0
 45
210.0
 46
0.0
 47
0.0
 48
0.0
 49
0.0
140
0.0
141
0.0
142
1.0
143
1.0
 70
1024
 72
1
 73
0
 74
0
  7

 75
0
147
1.0
148
0.0
149
0.0
100
AcDbLayout
  1
Model
 70
0
 71
0
 10
0.0
 20
0.0
 11
297.0
 21
210.0
 12
0.0
 22
0.0
 32
0.0
 14
0.0
 24
0.0
 34
0.0
 15
0.0
 25
0.0
 35
0.0
146
0.0
 13
0.0
 23
0.0
 33
0.0
 16
1.0
 26
0.0
 36
0.0
 17
0.0
 27
1.0
 37
0.0
 76
0
330
20D
345
0
346
0
  0
LAYOUT
  5
6FC
102
{ACAD_REACTORS
330
1A
102
}
100
AcDbPlotSettings
  1

  2
none_device
  4
ISO_A4_(297.00_x_210.00_MM)
  6

 40
0.0
 41
0.0
 42
0.0
 43
0.0
 44
297.0
 45
210.0
 46
0.0
 47
0.0
 48
0.0
 49
0.0
140
0.0
141
0.0
142
1.0
143
1.0
 70
0
 72
1
 73
0
 74
0
  7

 75
0
147
1.0
148
0.0
149
0.0
100
AcDbLayout
  1
Layout1
 70
0
 71
1
 10
0.0
 20
0.0
 11
297.0
 21
210.0
 12
0.0
 22
0.0
 32
0.0
 14
0.0
 24
0.0
 34
0.0
 15
0.0
 25
0.0
 35
0.0
146
0.0
 13
0.0
 23
0.0
 33
0.0
 16
1.0
 26
0.0
 36
0.0
 17
0.0
 27
1.0
 37
0.0
 76
0
330
20E
345
0
346
0
  0
ENDSEC
  0
EOF
