  0
SECTION
  2
HEADER
  9
$ACADVER
  1
AC1024
  9
$DWGCODEPAGE
  3
ANSI_1252
  9
$EXTMAX
 10
297.0
 20
210.0
 30
0.0
  9
$EXTMIN
 10
0.0
 20
0.0
 30
0.0
  9
$LIMMIN
 10
0.0
 20
0.0
  9
$LIMMAX
 10
297.0
 20
210.0
  9
$VIEWCTR
 10
148.5
 20
105.0
  9
$VIEWSIZE
 40
210.0
  9
$CLAYER
  8
0
  9
$LTSCALE
 40
16.335
  9
$CELTYPE
  6
BYLAYER
  9
$DIMSCALE
 40
1.0
  9
$DIMASZ
 40
3.0
  9
$DIMEXO
 40
0.5
  9
$DIMDLI
 40
11.286
  9
$DIMEXE
 40
1.5
  9
$DIMCEN
 40
2.673
  9
$DIMLFAC
 40
1.0
  9
$DIMBLK
  1
_FILLED
  9
$DIMALT
 70
0
  9
$DIMALTF
 40
0.0393700787
  9
$DIMTXT
 40
3.0
  9
$DIMTOL
 70
1
  9
$DIMLIM
 70
0
  9
$DIMTFAC
 40
1.0
  9
$DIMTP
 40
0.01
  9
$DIMTM
 40
0.01
  9
$DIMGAP
 40
0.625
  9
$DIMDSEP
 70
44
  9
$AUNITS
 70
0
  9
$PDMODE
 70
3
  9
$PDSIZE
 40
3.0
  9
$HANDSEED
  5
7BB
  9
$TILEMODE
 70
1
  9
$MEASUREMENT
 70
1
  9
$INSUNITS
 70
4
  0
ENDSEC
  0
SECTION
  2
CLASSES
  0
CLASS
  1
ACDBDICTIONARYWDFLT
  2
AcDbDictionaryWithDefault
  3
AutoCAD 2000
 90
0
 91
1
280
0
281
0
  0
CLASS
  1
ACDBPLACEHOLDER
  2
AcDbPlaceHolder
  3
AutoCAD 2000
 90
0
 91
1
280
0
281
0
  0
CLASS
  1
LAYOUT
  2
AcDbLayout
  3
AutoCAD 2000
 90
0
 91
0
280
0
281
0
  0
ENDSEC
  0
SECTION
  2
TABLES
  0
TABLE
  2
VPORT
  5
8
100
AcDbSymbolTable
 70
2
  0
VPORT
  5
1F4
100
AcDbSymbolTableRecord
100
AcDbViewportTableRecord
  2
*ACTIVE
 70
0
 10
0.0
 20
0.0
 11
1.0
 21
1.0
 12
148.5
 22
105.0
 13
0.0
 23
0.0
 14
1.0
 24
1.0
 15
0.0
 25
0.0
 16
0.0
 26
0.0
 36
1.0
 17
0.0
 27
0.0
 37
0.0
 40
210.0
 41
1.4142857143
 42
50.0
 43
0.0
 44
0.0
 50
0.0
 51
0.0
 71
0
 72
100
 73
1
 74
1
 75
0
 76
0
 77
0
 78
0
  0
ENDTAB
  0
TABLE
  2
LTYPE
  5
5
100
AcDbSymbolTable
 70
6
  0
LTYPE
  5
14
100
AcDbSymbolTableRecord
100
AcDbLinetypeTableRecord
  2
BYBLOCK
 70
0
  3

 72
65
 73
0
 40
0.0
  0
LTYPE
  5
15
100
AcDbSymbolTableRecord
100
AcDbLinetypeTableRecord
  2
BYLAYER
 70
0
  3

 72
65
 73
0
 40
0.0
  0
LTYPE
  5
16
100
AcDbSymbolTableRecord
100
AcDbLinetypeTableRecord
  2
CONTINUOUS
 70
64
  3
Solid line
 72
65
 73
0
 40
0.0
  0
LTYPE
  5
1F5
100
AcDbSymbolTableRecord
100
AcDbLinetypeTableRecord
  2
CENTER
 70
64
  3
____ _ ____ _ ____ _ ____ _ ____ _ ____ _ ____
 72
65
 73
4
 40
0.6
 49
0.375
 74
0
 49
-0.075
 74
0
 49
0.075
 74
0
 49
-0.075
 74
0
  0
LTYPE
  5
1F6
100
AcDbSymbolTableRecord
100
AcDbLinetypeTableRecord
  2
HIDDEN
 70
64
  3
- - - - - - - - - - - - - - - - - - - -
 72
65
 73
2
 40
0.2
 49
0.1
 74
0
 49
-0.1
 74
0
  0
LTYPE
  5
1F7
100
AcDbSymbolTableRecord
100
AcDbLinetypeTableRecord
  2
PHANTOM
 70
64
  3
_____ _ _ _____ _ _ _____ _ _ _____
 72
65
 73
6
 40
0.8
 49
0.45
 74
0
 49
-0.05
 74
0
 49
0.1
 74
0
 49
-0.05
 74
0
 49
0.1
 74
0
 49
-0.05
 74
0
  0
LTYPE
  5
1F8
100
AcDbSymbolTableRecord
100
AcDbLinetypeTableRecord
  2
DOT
 70
64
  3
. . . . . . . . . . . . . . . . . . . .
 72
65
 73
2
 40
0.2
 49
0.1
 74
0
 49
-0.1
 74
0
  0
LTYPE
  5
1F9
100
AcDbSymbolTableRecord
100
AcDbLinetypeTableRecord
  2
DASHED
 70
64
  3
- - - - - - - - - - - - - - - - - - - -
 72
65
 73
2
 40
0.2
 49
0.1
 74
0
 49
-0.1
 74
0
  0
ENDTAB
  0
TABLE
  2
LAYER
  5
2
100
AcDbSymbolTable
 70
36
  0
LAYER
  5
10
100
AcDbSymbolTableRecord
100
AcDbLayerTableRecord
  2
0
 70
0
 62
7
  6
CONTINUOUS
370
-3
390
F
  0
LAYER
  5
1FA
100
AcDbSymbolTableRecord
100
AcDbLayerTableRecord
  2
DEFAULT_1
 70
0
 62
7
  6
CENTER
370
-3
390
F
  0
LAYER
  5
1FB
100
AcDbSymbolTableRecord
100
AcDbLayerTableRecord
  2
DEFAULT_2
 70
0
 62
7
  6
HIDDEN
370
-3
390
F
  0
LAYER
  5
1FC
100
AcDbSymbolTableRecord
100
AcDbLayerTableRecord
  2
DEFAULT_3
 70
0
 62
7
  6
PHANTOM
370
-3
390
F
  0
LAYER
  5
1FD
100
AcDbSymbolTableRecord
100
AcDbLayerTableRecord
  2
ASSI
 70
0
 62
7
  6
CONTINUOUS
370
-3
390
F
  0
LAYER
  5
1FE
100
AcDbSymbolTableRecord
100
AcDbLayerTableRecord
  2
COLOR16
 70
0
 62
7
  6
CONTINUOUS
370
-3
390
F
  0
LAYER
  5
1FF
100
AcDbSymbolTableRecord
100
AcDbLayerTableRecord
  2
COLOR5
 70
0
 62
7
  6
CONTINUOUS
370
-3
390
F
  0
LAYER
  5
200
100
AcDbSymbolTableRecord
100
AcDbLayerTableRecord
  2
COORDINATE
 70
0
 62
7
  6
CONTINUOUS
370
-3
390
F
  0
LAYER
  5
201
100
AcDbSymbolTableRecord
100
AcDbLayerTableRecord
  2
COORD_ORIGINE
 70
0
 62
7
  6
CONTINUOUS
370
-3
390
F
  0
LAYER
  5
202
100
AcDbSymbolTableRecord
100
AcDbLayerTableRecord
  2
CURVE
 70
0
 62
7
  6
CONTINUOUS
370
-3
390
F
  0
LAYER
  5
203
100
AcDbSymbolTableRecord
100
AcDbLayerTableRecord
  2
DRAFT
 70
0
 62
7
  6
CONTINUOUS
370
-3
390
F
  0
LAYER
  5
204
100
AcDbSymbolTableRecord
100
AcDbLayerTableRecord
  2
ESTRATTORI
 70
0
 62
7
  6
CONTINUOUS
370
-3
390
F
  0
LAYER
  5
205
100
AcDbSymbolTableRecord
100
AcDbLayerTableRecord
  2
IGES
 70
0
 62
7
  6
CONTINUOUS
370
-3
390
F
  0
LAYER
  5
206
100
AcDbSymbolTableRecord
100
AcDbLayerTableRecord
  2
INTF_1
 70
0
 62
7
  6
CONTINUOUS
370
-3
390
F
  0
LAYER
  5
207
100
AcDbSymbolTableRecord
100
AcDbLayerTableRecord
  2
INTF_7
 70
0
 62
7
  6
CONTINUOUS
370
-3
390
F
  0
LAYER
  5
208
100
AcDbSymbolTableRecord
100
AcDbLayerTableRecord
  2
INTF_RED
 70
0
 62
7
  6
CONTINUOUS
370
-3
390
F
  0
LAYER
  5
209
100
AcDbSymbolTableRecord
100
AcDbLayerTableRecord
  2
NOTE
 70
0
 62
7
  6
CONTINUOUS
370
-3
390
F
  0
LAYER
  5
20A
100
AcDbSymbolTableRecord
100
AcDbLayerTableRecord
  2
PIANI
 70
0
 62
7
  6
CONTINUOUS
370
-3
390
F
  0
LAYER
  5
20B
100
AcDbSymbolTableRecord
100
AcDbLayerTableRecord
  2
PIANI_ORIGINE
 70
0
 62
7
  6
CONTINUOUS
370
-3
390
F
  0
LAYER
  5
20C
100
AcDbSymbolTableRecord
100
AcDbLayerTableRecord
  2
PLACCA
 70
0
 62
7
  6
CONTINUOUS
370
-3
390
F
  0
LAYER
  5
20D
100
AcDbSymbolTableRecord
100
AcDbLayerTableRecord
  2
PUNTI
 70
0
 62
7
  6
CONTINUOUS
370
-3
390
F
  0
LAYER
  5
20E
100
AcDbSymbolTableRecord
100
AcDbLayerTableRecord
  2
RACCORDO
 70
0
 62
7
  6
CONTINUOUS
370
-3
390
F
  0
LAYER
  5
20F
100
AcDbSymbolTableRecord
100
AcDbLayerTableRecord
  2
RGB__255__255__255__
 70
0
 62
7
  6
CONTINUOUS
370
-3
390
F
  0
LAYER
  5
210
100
AcDbSymbolTableRecord
100
AcDbLayerTableRecord
  2
RGB____0____0____0__
 70
0
 62
7
  6
CONTINUOUS
370
-3
390
F
  0
LAYER
  5
211
100
AcDbSymbolTableRecord
100
AcDbLayerTableRecord
  2
SMUSSO
 70
0
 62
7
  6
CONTINUOUS
370
-3
390
F
  0
LAYER
  5
212
100
AcDbSymbolTableRecord
100
AcDbLayerTableRecord
  2
SNAPLINE
 70
0
 62
7
  6
CONTINUOUS
370
-3
390
F
  0
LAYER
  5
213
100
AcDbSymbolTableRecord
100
AcDbLayerTableRecord
  2
SUPERFICI
 70
0
 62
7
  6
CONTINUOUS
370
-3
390
F
  0
LAYER
  5
214
100
AcDbSymbolTableRecord
100
AcDbLayerTableRecord
  2
SUPPORTO
 70
0
 62
7
  6
CONTINUOUS
370
-3
390
F
  0
LAYER
  5
215
100
AcDbSymbolTableRecord
100
AcDbLayerTableRecord
  2
TEMP
 70
0
 62
7
  6
CONTINUOUS
370
-3
390
F
  0
LAYER
  5
216
100
AcDbSymbolTableRecord
100
AcDbLayerTableRecord
  2
TRASH
 70
0
 62
7
  6
CONTINUOUS
370
-3
390
F
  0
LAYER
  5
217
100
AcDbSymbolTableRecord
100
AcDbLayerTableRecord
  2
XSEC_DATUMS
 70
0
 62
7
  6
CONTINUOUS
370
-3
390
F
  0
ENDTAB
  0
TABLE
  2
STYLE
  5
3
100
AcDbSymbolTable
 70
1
  0
STYLE
  5
11
100
AcDbSymbolTableRecord
100
AcDbTextStyleTableRecord
  2
STANDARD
 70
0
 40
0.0
 41
0.8
 50
0.0
 71
0
 42
0.2
  3
txt
  4

  0
STYLE
  5
218
100
AcDbSymbolTableRecord
100
AcDbTextStyleTableRecord
  2
TEXTSTYLE_1
 70
0
 40
0.0
 41
0.8
 50
0.0
 71
0
 42
0.2
  3
gdt
  4

  0
ENDTAB
  0
TABLE
  2
VIEW
  5
6
100
AcDbSymbolTable
 70
0
  0
ENDTAB
  0
TABLE
  2
UCS
  5
7
100
AcDbSymbolTable
 70
0
  0
ENDTAB
  0
TABLE
  2
APPID
  5
9
100
AcDbSymbolTable
 70
1
  0
APPID
  5
219
100
AcDbSymbolTableRecord
100
AcDbRegAppTableRecord
  2
ACAD
 70
0
  0
ENDTAB
  0
TABLE
  2
BLOCK_RECORD
  5
1
100
AcDbSymbolTable
 70
0
  0
BLOCK_RECORD
  5
21A
100
AcDbSymbolTableRecord
100
AcDbBlockTableRecord
  2
*Model_Space
  0
BLOCK_RECORD
  5
21B
100
AcDbSymbolTableRecord
100
AcDbBlockTableRecord
  2
*Paper_Space
  0
BLOCK_RECORD
  5
21C
100
AcDbSymbolTableRecord
100
AcDbBlockTableRecord
  2
_FILLED
  0
ENDTAB
  0
TABLE
  2
DIMSTYLE
  5
A
100
AcDbSymbolTable
 70
1
100
AcDbDimStyleTable
 71
0
  0
DIMSTYLE
105
21D
100
AcDbSymbolTableRecord
100
AcDbDimStyleTableRecord
  2
STANDARD
 70
0
  3

  4

 40
1.0
 41
3.0
 42
0.5
 43
0.38
 44
1.5
 45
0.0
 46
0.0
 47
0.01
 48
0.01
140
3.0
141
0.09
142
0.0
143
25.4
144
1.0
145
0.0
146
1.0
147
0.625
 71
1
 72
0
 73
0
 74
0
 75
0
 76
0
 77
1
 78
8
 79
2
170
0
171
1
172
0
173
0
174
0
175
0
176
0
177
0
178
0
270
2
179
2
271
2
272
2
273
2
274
2
275
0
280
0
281
0
282
0
283
1
284
8
285
0
286
0
287
3
288
0
340
11
278
44
341
21C
342
21C
343
21C
344
21C
  0
ENDTAB
  0
ENDSEC
  0
SECTION
  2
BLOCKS
  0
BLOCK
  5
20
100
AcDbEntity
  8
0
100
AcDbBlockBegin
  2
*Model_Space
 70
0
 10
0.0
 20
0.0
 30
0.0
  3
*Model_Space
  1

  0
ENDBLK
  5
21
100
AcDbEntity
  8
0
100
AcDbBlockEnd
  0
BLOCK
  5
1C
100
AcDbEntity
  8
0
100
AcDbBlockBegin
  2
*Paper_Space
 70
0
 10
0.0
 20
0.0
 30
0.0
  3
*Paper_Space
  1

  0
ENDBLK
  5
1D
100
AcDbEntity
  8
0
100
AcDbBlockEnd
  0
BLOCK
  5
21E
100
AcDbEntity
  8
0
100
AcDbBlockBegin
  2
_FILLED
 70
64
 10
0.0
 20
0.0
  3
_FILLED
  1

  0
SOLID
  5
21F
100
AcDbEntity
  8
0
  6
BYBLOCK
 62
0
100
AcDbTrace
 10
0.0
 20
0.0
 11
-1.0
 21
0.3166666667
 12
-1.0
 22
-0.3166666667
 13
-1.0
 23
-0.3166666667
  0
ENDBLK
  5
220
100
AcDbEntity
  8
0
  6
BYBLOCK
 62
0
100
AcDbBlockEnd
  0
ENDSEC
  0
SECTION
  2
ENTITIES
  0
LWPOLYLINE
  5
221
100
AcDbEntity
  8
0
100
AcDbPolyline
 62
7
  6
CONTINUOUS
 90
37
 70
0
 10
-102.0680641722
 20
-36.8503373816
 10
-102.065878935
 20
-36.9466766541
 10
-102.0590875069
 20
-37.0432572037
 10
-102.0476898881
 20
-37.1400790305
 10
-102.0315527304
 20
-37.2377399525
 10
-102.0108093819
 20
-37.3356421517
 10
-101.9858598868
 20
-37.4319921737
 10
-101.9565374366
 20
-37.5266522643
 10
-101.9230088398
 20
-37.6197601777
 10
-101.8861745656
 20
-37.7099357226
 10
-101.8460497127
 20
-37.7968788763
 10
-101.8026191824
 20
-37.8808896616
 10
-101.7567381489
 20
-37.9614879551
 10
-101.708665868
 20
-38.0383376868
 10
-101.6581430839
 20
-38.1117749269
 10
-101.6052472025
 20
-38.1823277626
 10
-101.5500516
 20
-38.2500802507
 10
-101.4924829004
 20
-38.3149483346
 10
-101.4323983817
 20
-38.3772079321
 10
-101.3698299273
 20
-38.4368914196
 10
-101.3047456538
 20
-38.4939664209
 10
-101.2369071892
 20
-38.5486117246
 10
-101.1664069709
 20
-38.6008953312
 10
-101.0931525615
 20
-38.6507492404
 10
-101.0166282775
 20
-38.698148239
 10
-100.9365776281
 20
-38.7433264126
 10
-100.8532571042
 20
-38.7860496757
 10
-100.7669204943
 20
-38.8255905594
 10
-100.6772278196
 20
-38.8620135873
 10
-100.584519059
 20
-38.8952542357
 10
-100.490067937
 20
-38.9243914648
 10
-100.393734429
 20
-38.9492778605
 10
-100.2956585596
 20
-38.9700608367
 10
-100.1975341272
 20
-38.986261595
 10
-100.0999257312
 20
-38.997720536
 10
-100.0022687722
 20
-39.004597259
 10
-99.9045632502
 20
-39.0068917641
  0
LINE
  5
222
100
AcDbEntity
  8
0
100
AcDbLine
 62
7
  6
CONTINUOUS
 10
-103.05892912
 20
-37.041498446
 11
-103.05892912
 21
-3.7099727925
  0
LINE
  5
223
100
AcDbEntity
  8
0
100
AcDbLine
 62
7
  6
CONTINUOUS
 10
-103.05892912
 20
3.7099727925
 11
-103.05892912
 21
37.041498446
  0
LINE
  5
224
100
AcDbEntity
  8
0
100
AcDbLine
 62
7
  6
CONTINUOUS
 10
-102.9331504497
 20
-3.5
 11
-102.9331504497
 21
3.5
  0
LINE
  5
225
100
AcDbEntity
  8
0
100
AcDbLine
 62
7
  6
CONTINUOUS
 10
-102.2578312432
 20
-37.0414936416
 11
-102.2578312432
 21
-3.7099727925
  0
LINE
  5
226
100
AcDbEntity
  8
0
100
AcDbLine
 62
7
  6
CONTINUOUS
 10
-102.2578312432
 20
3.7099727925
 11
-102.2578312432
 21
37.0414936552
  0
LINE
  5
227
100
AcDbEntity
  8
0
100
AcDbLine
 62
7
  6
CONTINUOUS
 10
-102.1320525729
 20
3.5
 11
-102.1320525729
 21
-3.5
  0
LINE
  5
228
100
AcDbEntity
  8
RACCORDO
100
AcDbLine
 62
7
  6
CONTINUOUS
 10
-102.068064175
 20
36.8503373846
 11
-102.0680641738
 21
4.2031338449
  0
LINE
  5
229
100
AcDbEntity
  8
RACCORDO
100
AcDbLine
 62
7
  6
CONTINUOUS
 10
-102.0680641734
 20
-4.2031338449
 11
-102.0680641722
 21
-36.8503373816
  0
LINE
  5
22A
100
AcDbEntity
  8
0
100
AcDbLine
 62
7
  6
CONTINUOUS
 10
-101.9209017648
 20
-3.05
 11
-101.9209017649
 21
-2.25
  0
LINE
  5
22B
100
AcDbEntity
  8
0
100
AcDbLine
 62
7
  6
CONTINUOUS
 10
-101.9209017649
 20
-0.4
 11
-101.920901765
 21
0.4
  0
LINE
  5
22C
100
AcDbEntity
  8
0
100
AcDbLine
 62
7
  6
CONTINUOUS
 10
-101.920901765
 20
2.25
 11
-101.9209017651
 21
3.05
  0
LINE
  5
22D
100
AcDbEntity
  8
RACCORDO
100
AcDbLine
 62
7
  6
CONTINUOUS
 10
-101.4201769672
 20
-3.4083668826
 11
-101.4201769671
 21
-3.05
  0
LINE
  5
22E
100
AcDbEntity
  8
0
100
AcDbLine
 62
7
  6
CONTINUOUS
 10
-101.420176967
 20
-2.25
 11
-101.4201769668
 21
-0.4
  0
LINE
  5
22F
100
AcDbEntity
  8
0
100
AcDbLine
 62
7
  6
CONTINUOUS
 10
-101.4201769667
 20
0.4
 11
-101.4201769665
 21
2.25
  0
LINE
  5
230
100
AcDbEntity
  8
RACCORDO
100
AcDbLine
 62
7
  6
CONTINUOUS
 10
-101.4201769664
 20
3.05
 11
-101.4201769663
 21
3.4083668826
  0
LINE
  5
231
100
AcDbEntity
  8
RACCORDO
100
AcDbLine
 62
7
  6
CONTINUOUS
 10
-100.2
 20
36.0
 11
-100.2
 21
3.7198272148
  0
LINE
  5
232
100
AcDbEntity
  8
RACCORDO
100
AcDbLine
 62
7
  6
CONTINUOUS
 10
-100.2
 20
-36.0
 11
-100.2
 21
-3.7198272148
  0
LINE
  5
233
100
AcDbEntity
  8
RACCORDO
100
AcDbLine
 62
7
  6
CONTINUOUS
 10
-100.1248842951
 20
3.4083668826
 11
-100.1248842951
 21
-3.4083668826
  0
LWPOLYLINE
  5
234
100
AcDbEntity
  8
RACCORDO
100
AcDbPolyline
 62
7
  6
CONTINUOUS
 90
16
 70
0
 10
-100.1248842951
 20
-3.4083668826
 10
-100.1255170217
 20
-3.437419663
 10
-100.1270702413
 20
-3.4663725165
 10
-100.1295439538
 20
-3.4949424653
 10
-100.1330823031
 20
-3.522936817
 10
-100.1375411454
 20
-3.5499625063
 10
-100.1424880489
 20
-3.575472828
 10
-100.1479206104
 20
-3.5990518797
 10
-100.1538412332
 20
-3.620707549
 10
-100.1598246956
 20
-3.6405199673
 10
-100.1659096607
 20
-3.6584018489
 10
-100.1720574653
 20
-3.6738937049
 10
-100.1777268984
 20
-3.686581345
 10
-100.1827375562
 20
-3.6963479109
 10
-100.1872698426
 20
-3.7032315262
 10
-100.1913237575
 20
-3.707225292
  0
LWPOLYLINE
  5
235
100
AcDbEntity
  8
RACCORDO
100
AcDbPolyline
 62
7
  6
CONTINUOUS
 90
10
 70
0
 10
-100.159865014
 20
3.640644221
 10
-100.1539031915
 20
3.6209350025
 10
-100.1479957198
 20
3.5993663973
 10
-100.1425645232
 20
3.5758273194
 10
-100.1375998234
 20
3.550261023
 10
-100.1331113986
 20
3.5231071358
 10
-100.1295505075
 20
3.495003067
 10
-100.1270675697
 20
3.4663811643
 10
-100.1255121655
 20
3.4374074361
 10
-100.1248842951
 20
3.4083668826
  0
LINE
  5
236
100
AcDbEntity
  8
RACCORDO
100
AcDbLine
 62
7
  6
CONTINUOUS
 10
-81.4635616354
 20
2.2
 11
-81.4635616354
 21
-2.2
  0
LINE
  5
237
100
AcDbEntity
  8
RACCORDO
100
AcDbLine
 62
7
  6
CONTINUOUS
 10
-79.9586274595
 20
-2.5
 11
-79.9586274595
 21
2.5
  0
LINE
  5
238
100
AcDbEntity
  8
0
100
AcDbLine
 62
7
  6
CONTINUOUS
 10
-79.7586274595
 20
-2.5
 11
-79.7586274595
 21
2.5
  0
LINE
  5
239
100
AcDbEntity
  8
0
100
AcDbLine
 62
7
  6
CONTINUOUS
 10
-103.05892912
 20
-3.7099727925
 11
-102.9331504497
 21
-3.5
  0
LINE
  5
23A
100
AcDbEntity
  8
0
100
AcDbLine
 62
7
  6
CONTINUOUS
 10
-102.2578312432
 20
-3.7099727925
 11
-102.1320525729
 21
-3.5
  0
LINE
  5
23B
100
AcDbEntity
  8
RACCORDO
100
AcDbLine
 62
7
  6
CONTINUOUS
 10
-102.0536709921
 20
-3.9042754355
 11
-101.9997387694
 21
-3.8144992301
  0
LINE
  5
23C
100
AcDbEntity
  8
RACCORDO
100
AcDbLine
 62
7
  6
CONTINUOUS
 10
-101.4990361908
 20
-3.8144992301
 11
-101.4345742051
 21
-3.707225292
  0
LINE
  5
23D
100
AcDbEntity
  8
RACCORDO
100
AcDbLine
 62
7
  6
CONTINUOUS
 10
-101.4345742042
 20
3.707225292
 11
-101.4990361899
 21
3.8144992301
  0
LINE
  5
23E
100
AcDbEntity
  8
RACCORDO
100
AcDbLine
 62
7
  6
CONTINUOUS
 10
-101.9997387697
 20
3.8144992301
 11
-102.0536709924
 21
3.9042754355
  0
LINE
  5
23F
100
AcDbEntity
  8
0
100
AcDbLine
 62
7
  6
CONTINUOUS
 10
-102.9331504497
 20
3.5
 11
-103.05892912
 21
3.7099727925
  0
LINE
  5
240
100
AcDbEntity
  8
0
100
AcDbLine
 62
7
  6
CONTINUOUS
 10
-102.1320525729
 20
3.5
 11
-102.2578312432
 21
3.7099727925
  0
LINE
  5
241
100
AcDbEntity
  8
0
100
AcDbLine
 62
7
  6
CONTINUOUS
 10
-70.7133145545
 20
-25.2
 11
-70.7211757214
 21
-25.05
  0
LINE
  5
242
100
AcDbEntity
  8
0
100
AcDbLine
 62
7
  6
CONTINUOUS
 10
-70.6871106649
 20
-25.2
 11
-70.6949718318
 21
-25.05
  0
LINE
  5
243
100
AcDbEntity
  8
0
100
AcDbLine
 62
7
  6
CONTINUOUS
 10
-70.6609067752
 20
-25.2
 11
-70.6687679421
 21
-25.05
  0
LINE
  5
244
100
AcDbEntity
  8
0
100
AcDbLine
 62
7
  6
CONTINUOUS
 10
-70.6347028856
 20
-25.2
 11
-70.6425640525
 21
-25.05
  0
LINE
  5
245
100
AcDbEntity
  8
0
100
AcDbLine
 62
7
  6
CONTINUOUS
 10
-70.6084989959
 20
-25.2
 11
-70.6163601628
 21
-25.05
  0
LINE
  5
246
100
AcDbEntity
  8
0
100
AcDbLine
 62
7
  6
CONTINUOUS
 10
-70.5822951063
 20
-25.2
 11
-70.5901562732
 21
-25.05
  0
LINE
  5
247
100
AcDbEntity
  8
0
100
AcDbLine
 62
7
  6
CONTINUOUS
 10
-70.5560912167
 20
-25.2
 11
-70.5639523835
 21
-25.05
  0
LINE
  5
248
100
AcDbEntity
  8
0
100
AcDbLine
 62
7
  6
CONTINUOUS
 10
-70.529887327
 20
-25.2
 11
-70.5377484939
 21
-25.05
  0
LINE
  5
249
100
AcDbEntity
  8
0
100
AcDbLine
 62
7
  6
CONTINUOUS
 10
-78.9777061685
 20
-22.2248821058
 11
-78.9777061685
 21
-2.5
  0
LINE
  5
24A
100
AcDbEntity
  8
0
100
AcDbLine
 62
7
  6
CONTINUOUS
 10
-78.9777061685
 20
2.5
 11
-78.9777061685
 21
22.2248821058
  0
LINE
  5
24B
100
AcDbEntity
  8
0
100
AcDbLine
 62
7
  6
CONTINUOUS
 10
-78.958505597
 20
-22.2248821058
 11
-78.958505597
 21
22.2248821058
  0
LINE
  5
24C
100
AcDbEntity
  8
0
100
AcDbLine
 62
7
  6
CONTINUOUS
 10
-70.7211757214
 20
25.05
 11
-70.7133145545
 21
25.2
  0
LINE
  5
24D
100
AcDbEntity
  8
0
100
AcDbLine
 62
7
  6
CONTINUOUS
 10
-70.6949718318
 20
25.05
 11
-70.6871106649
 21
25.2
  0
LINE
  5
24E
100
AcDbEntity
  8
0
100
AcDbLine
 62
7
  6
CONTINUOUS
 10
-70.6687679421
 20
25.05
 11
-70.6609067752
 21
25.2
  0
LINE
  5
24F
100
AcDbEntity
  8
0
100
AcDbLine
 62
7
  6
CONTINUOUS
 10
-70.6425640525
 20
25.05
 11
-70.6347028856
 21
25.2
  0
LINE
  5
250
100
AcDbEntity
  8
0
100
AcDbLine
 62
7
  6
CONTINUOUS
 10
-70.6163601628
 20
25.05
 11
-70.6084989959
 21
25.2
  0
LINE
  5
251
100
AcDbEntity
  8
0
100
AcDbLine
 62
7
  6
CONTINUOUS
 10
-70.5901562732
 20
25.05
 11
-70.5822951063
 21
25.2
  0
LINE
  5
252
100
AcDbEntity
  8
0
100
AcDbLine
 62
7
  6
CONTINUOUS
 10
-70.5639523835
 20
25.05
 11
-70.5560912167
 21
25.2
  0
LINE
  5
253
100
AcDbEntity
  8
0
100
AcDbLine
 62
7
  6
CONTINUOUS
 10
-70.5377484939
 20
25.05
 11
-70.529887327
 21
25.2
  0
LINE
  5
254
100
AcDbEntity
  8
RACCORDO
100
AcDbLine
 62
7
  6
CONTINUOUS
 10
-67.8161832919
 20
26.7847210577
 11
-67.925341513
 21
26.3773370308
  0
LINE
  5
255
100
AcDbEntity
  8
0
100
AcDbLine
 62
7
  6
CONTINUOUS
 10
-64.305984
 20
-32.146609
 11
-64.836753
 21
-30.575
  0
LINE
  5
256
100
AcDbEntity
  8
0
100
AcDbLine
 62
7
  6
CONTINUOUS
 10
-64.432208
 20
-32.425
 11
-64.952726
 21
-30.873783
  0
LINE
  5
257
100
AcDbEntity
  8
RACCORDO
100
AcDbLine
 62
7
  6
CONTINUOUS
 10
-67.925341513
 20
-26.3773370308
 11
-67.8161832919
 21
-26.7847210577
  0
LINE
  5
258
100
AcDbEntity
  8
0
100
AcDbLine
 62
7
  6
CONTINUOUS
 10
-70.7133145545
 20
25.2
 11
-70.7054533876
 21
25.05
  0
LINE
  5
259
100
AcDbEntity
  8
0
100
AcDbLine
 62
7
  6
CONTINUOUS
 10
-70.6871106649
 20
25.2
 11
-70.679249498
 21
25.05
  0
LINE
  5
25A
100
AcDbEntity
  8
0
100
AcDbLine
 62
7
  6
CONTINUOUS
 10
-70.6609067752
 20
25.2
 11
-70.6530456083
 21
25.05
  0
LINE
  5
25B
100
AcDbEntity
  8
0
100
AcDbLine
 62
7
  6
CONTINUOUS
 10
-70.6347028856
 20
25.2
 11
-70.6268417187
 21
25.05
  0
LINE
  5
25C
100
AcDbEntity
  8
0
100
AcDbLine
 62
7
  6
CONTINUOUS
 10
-70.6084989959
 20
25.2
 11
-70.600637829
 21
25.05
  0
LINE
  5
25D
100
AcDbEntity
  8
0
100
AcDbLine
 62
7
  6
CONTINUOUS
 10
-70.5822951063
 20
25.2
 11
-70.5744339394
 21
25.05
  0
LINE
  5
25E
100
AcDbEntity
  8
0
100
AcDbLine
 62
7
  6
CONTINUOUS
 10
-70.5560912167
 20
25.2
 11
-70.5482300498
 21
25.05
  0
LINE
  5
25F
100
AcDbEntity
  8
0
100
AcDbLine
 62
7
  6
CONTINUOUS
 10
-70.529887327
 20
25.2
 11
-70.5220261601
 21
25.05
  0
LINE
  5
260
100
AcDbEntity
  8
0
100
AcDbLine
 62
7
  6
CONTINUOUS
 10
-64.4779738399
 20
-25.05
 11
-64.470112673
 21
-25.2
  0
LINE
  5
261
100
AcDbEntity
  8
0
100
AcDbLine
 62
7
  6
CONTINUOUS
 10
-64.4517699502
 20
-25.05
 11
-64.4439087833
 21
-25.2
  0
LINE
  5
262
100
AcDbEntity
  8
0
100
AcDbLine
 62
7
  6
CONTINUOUS
 10
-64.4255660606
 20
-25.05
 11
-64.4177048937
 21
-25.2
  0
LINE
  5
263
100
AcDbEntity
  8
0
100
AcDbLine
 62
7
  6
CONTINUOUS
 10
-64.399362171
 20
-25.05
 11
-64.3915010041
 21
-25.2
  0
LINE
  5
264
100
AcDbEntity
  8
0
100
AcDbLine
 62
7
  6
CONTINUOUS
 10
-64.3731582813
 20
-25.05
 11
-64.3652971144
 21
-25.2
  0
LINE
  5
265
100
AcDbEntity
  8
0
100
AcDbLine
 62
7
  6
CONTINUOUS
 10
-64.3469543917
 20
-25.05
 11
-64.3390932248
 21
-25.2
  0
LINE
  5
266
100
AcDbEntity
  8
0
100
AcDbLine
 62
7
  6
CONTINUOUS
 10
-64.320750502
 20
-25.05
 11
-64.3128893351
 21
-25.2
  0
LINE
  5
267
100
AcDbEntity
  8
0
100
AcDbLine
 62
7
  6
CONTINUOUS
 10
-64.2945466124
 20
-25.05
 11
-64.2866854455
 21
-25.2
  0
LINE
  5
268
100
AcDbEntity
  8
RACCORDO
100
AcDbLine
 62
7
  6
CONTINUOUS
 10
-70.0
 20
-24.75
 11
-70.0
 21
-22.564144533
  0
LINE
  5
269
100
AcDbEntity
  8
0
100
AcDbLine
 62
7
  6
CONTINUOUS
 10
-70.0
 20
-22.5449439616
 11
-70.0
 21
-22.564144533
  0
LINE
  5
26A
100
AcDbEntity
  8
0
100
AcDbLine
 62
7
  6
CONTINUOUS
 10
-70.0
 20
22.5449439616
 11
-70.0
 21
22.564144533
  0
LINE
  5
26B
100
AcDbEntity
  8
RACCORDO
100
AcDbLine
 62
7
  6
CONTINUOUS
 10
-70.0
 20
22.564144533
 11
-70.0
 21
24.75
  0
LINE
  5
26C
100
AcDbEntity
  8
0
100
AcDbLine
 62
7
  6
CONTINUOUS
 10
-66.0
 20
-33.75
 11
-66.0
 21
-29.25
  0
LINE
  5
26D
100
AcDbEntity
  8
0
100
AcDbLine
 62
7
  6
CONTINUOUS
 10
-65.194916
 20
-32.425
 11
-65.194916
 21
-30.575
  0
LINE
  5
26E
100
AcDbEntity
  8
RACCORDO
100
AcDbLine
 62
7
  6
CONTINUOUS
 10
-65.0
 20
24.75
 11
-65.0
 21
22.564144533
  0
LINE
  5
26F
100
AcDbEntity
  8
0
100
AcDbLine
 62
7
  6
CONTINUOUS
 10
-65.0
 20
-22.5449439616
 11
-65.0
 21
-22.564144533
  0
LINE
  5
270
100
AcDbEntity
  8
RACCORDO
100
AcDbLine
 62
7
  6
CONTINUOUS
 10
-65.0
 20
-22.564144533
 11
-65.0
 21
-24.75
  0
LINE
  5
271
100
AcDbEntity
  8
0
100
AcDbLine
 62
7
  6
CONTINUOUS
 10
-65.0
 20
22.5449439616
 11
-65.0
 21
22.564144533
  0
LINE
  5
272
100
AcDbEntity
  8
0
100
AcDbLine
 62
7
  6
CONTINUOUS
 10
-64.952726
 20
-32.425
 11
-64.952726
 21
-30.873783
  0
LINE
  5
273
100
AcDbEntity
  8
0
100
AcDbLine
 62
7
  6
CONTINUOUS
 10
-63.664426
 20
-32.425
 11
-63.664426
 21
-30.871239
  0
LINE
  5
274
100
AcDbEntity
  8
0
100
AcDbLine
 62
7
  6
CONTINUOUS
 10
-63.422138
 20
-32.425
 11
-63.422138
 21
-30.575
  0
LINE
  5
275
100
AcDbEntity
  8
0
100
AcDbLine
 62
7
  6
CONTINUOUS
 10
-70.7054533876
 20
-25.05
 11
-70.7133145545
 21
-25.2
  0
LINE
  5
276
100
AcDbEntity
  8
0
100
AcDbLine
 62
7
  6
CONTINUOUS
 10
-70.679249498
 20
-25.05
 11
-70.6871106649
 21
-25.2
  0
LINE
  5
277
100
AcDbEntity
  8
0
100
AcDbLine
 62
7
  6
CONTINUOUS
 10
-70.6530456083
 20
-25.05
 11
-70.6609067752
 21
-25.2
  0
LINE
  5
278
100
AcDbEntity
  8
0
100
AcDbLine
 62
7
  6
CONTINUOUS
 10
-70.6268417187
 20
-25.05
 11
-70.6347028856
 21
-25.2
  0
LINE
  5
279
100
AcDbEntity
  8
0
100
AcDbLine
 62
7
  6
CONTINUOUS
 10
-70.600637829
 20
-25.05
 11
-70.6084989959
 21
-25.2
  0
LINE
  5
27A
100
AcDbEntity
  8
0
100
AcDbLine
 62
7
  6
CONTINUOUS
 10
-70.5744339394
 20
-25.05
 11
-70.5822951063
 21
-25.2
  0
LINE
  5
27B
100
AcDbEntity
  8
0
100
AcDbLine
 62
7
  6
CONTINUOUS
 10
-70.5482300498
 20
-25.05
 11
-70.5560912167
 21
-25.2
  0
LINE
  5
27C
100
AcDbEntity
  8
0
100
AcDbLine
 62
7
  6
CONTINUOUS
 10
-70.5220261601
 20
-25.05
 11
-70.529887327
 21
-25.2
  0
LINE
  5
27D
100
AcDbEntity
  8
0
100
AcDbLine
 62
7
  6
CONTINUOUS
 10
-64.470112673
 20
25.2
 11
-64.4779738399
 21
25.05
  0
LINE
  5
27E
100
AcDbEntity
  8
0
100
AcDbLine
 62
7
  6
CONTINUOUS
 10
-64.4439087833
 20
25.2
 11
-64.4517699502
 21
25.05
  0
LINE
  5
27F
100
AcDbEntity
  8
0
100
AcDbLine
 62
7
  6
CONTINUOUS
 10
-64.4177048937
 20
25.2
 11
-64.4255660606
 21
25.05
  0
LINE
  5
280
100
AcDbEntity
  8
0
100
AcDbLine
 62
7
  6
CONTINUOUS
 10
-64.3915010041
 20
25.2
 11
-64.399362171
 21
25.05
  0
LINE
  5
281
100
AcDbEntity
  8
0
100
AcDbLine
 62
7
  6
CONTINUOUS
 10
-64.3652971144
 20
25.2
 11
-64.3731582813
 21
25.05
  0
LINE
  5
282
100
AcDbEntity
  8
0
100
AcDbLine
 62
7
  6
CONTINUOUS
 10
-64.3390932248
 20
25.2
 11
-64.3469543917
 21
25.05
  0
LINE
  5
283
100
AcDbEntity
  8
0
100
AcDbLine
 62
7
  6
CONTINUOUS
 10
-64.3128893351
 20
25.2
 11
-64.320750502
 21
25.05
  0
LINE
  5
284
100
AcDbEntity
  8
0
100
AcDbLine
 62
7
  6
CONTINUOUS
 10
-64.2866854455
 20
25.2
 11
-64.2945466124
 21
25.05
  0
LINE
  5
285
100
AcDbEntity
  8
RACCORDO
100
AcDbLine
 62
7
  6
CONTINUOUS
 10
-67.0757173472
 20
26.3812887508
 11
-67.0572764491
 21
26.4071375944
  0
LWPOLYLINE
  5
286
100
AcDbEntity
  8
RACCORDO
100
AcDbPolyline
 62
7
  6
CONTINUOUS
 90
3
 70
0
 10
-67.0572764491
 20
26.4071375944
 10
-67.0452176885
 20
26.4238929619
 10
-67.0021917118
 20
26.4823032581
  0
LINE
  5
287
100
AcDbEntity
  8
RACCORDO
100
AcDbLine
 62
7
  6
CONTINUOUS
 10
-67.0021917118
 20
26.4823032581
 11
-66.9523669335
 21
26.5488765555
  0
LINE
  5
288
100
AcDbEntity
  8
RACCORDO
100
AcDbLine
 62
7
  6
CONTINUOUS
 10
-66.9523669335
 20
26.5488765555
 11
-66.8994930265
 21
26.6188524851
  0
LWPOLYLINE
  5
289
100
AcDbEntity
  8
RACCORDO
100
AcDbPolyline
 62
7
  6
CONTINUOUS
 90
3
 70
0
 10
-66.8994930265
 20
26.6188524851
 10
-66.8817564099
 20
26.6421651261
 10
-66.8639210243
 20
26.6652145484
  0
LWPOLYLINE
  5
28A
100
AcDbEntity
  8
RACCORDO
100
AcDbPolyline
 62
7
  6
CONTINUOUS
 90
7
 70
0
 10
-67.1078338384
 20
26.3340328461
 10
-67.0926312202
 20
26.3539608825
 10
-67.086381107
 20
26.36198736
 10
-67.0814205929
 20
26.3685244829
 10
-67.0778769585
 20
26.3733886124
 10
-67.0756229232
 20
26.3763838804
 10
-67.074658487
 20
26.3773370308
  0
LWPOLYLINE
  5
28B
100
AcDbEntity
  8
RACCORDO
100
AcDbPolyline
 62
7
  6
CONTINUOUS
 90
3
 70
0
 10
-67.1364413216
 20
26.2967618641
 10
-67.1167863433
 20
26.3224710468
 10
-67.1078338384
 20
26.3340328461
  0
LINE
  5
28C
100
AcDbEntity
  8
RACCORDO
100
AcDbLine
 62
7
  6
CONTINUOUS
 10
-67.2162970619
 20
26.1925772872
 11
-67.1471437951
 21
26.282904321
  0
LINE
  5
28D
100
AcDbEntity
  8
RACCORDO
100
AcDbLine
 62
7
  6
CONTINUOUS
 10
-67.1471437951
 20
26.282904321
 11
-67.1364413216
 21
26.2967618641
  0
LINE
  5
28E
100
AcDbEntity
  8
RACCORDO
100
AcDbLine
 62
7
  6
CONTINUOUS
 10
-67.2281212875
 20
26.1773404154
 11
-67.2162970619
 21
26.1925772872
  0
LWPOLYLINE
  5
28F
100
AcDbEntity
  8
RACCORDO
100
AcDbPolyline
 62
7
  6
CONTINUOUS
 90
6
 70
0
 10
-70.5031348751
 20
25.050274093
 10
-70.5008245805
 20
25.0530694671
 10
-70.4964028654
 20
25.0573928673
 10
-70.4901646747
 20
25.0632442935
 10
-70.4824423429
 20
25.0708243505
 10
-70.4734967659
 20
25.0799324336
  0
LINE
  5
290
100
AcDbEntity
  8
RACCORDO
100
AcDbLine
 62
7
  6
CONTINUOUS
 10
-70.317436801
 20
25.2358321508
 11
-70.3034089682
 21
25.25
  0
LINE
  5
291
100
AcDbEntity
  8
RACCORDO
100
AcDbLine
 62
7
  6
CONTINUOUS
 10
-70.440764211
 20
25.112663254
 11
-70.317436801
 21
25.2358321508
  0
LWPOLYLINE
  5
292
100
AcDbEntity
  8
RACCORDO
100
AcDbPolyline
 62
7
  6
CONTINUOUS
 90
3
 70
0
 10
-70.4734967659
 20
25.0799324336
 10
-70.4524628415
 20
25.1008518854
 10
-70.440764211
 20
25.112663254
  0
LWPOLYLINE
  5
293
100
AcDbEntity
  8
RACCORDO
100
AcDbPolyline
 62
7
  6
CONTINUOUS
 90
7
 70
0
 10
-100.1913237575
 20
3.707225292
 10
-100.187225232
 20
3.7031866344
 10
-100.1826688671
 20
3.6962423401
 10
-100.1776546629
 20
3.6864320514
 10
-100.1720118892
 20
3.6737724721
 10
-100.1659112761
 20
3.6583953334
 10
-100.159865014
 20
3.640644221
  0
LWPOLYLINE
  5
294
100
AcDbEntity
  8
RACCORDO
100
AcDbPolyline
 62
7
  6
CONTINUOUS
 90
3
 70
0
 10
-70.4020951981
 20
-25.1513345918
 10
-70.3601736472
 20
-25.1932564506
 10
-70.317436801
 20
-25.2358321508
  0
LINE
  5
295
100
AcDbEntity
  8
RACCORDO
100
AcDbLine
 62
7
  6
CONTINUOUS
 10
-70.4154428445
 20
-25.1379046072
 11
-70.4020951981
 21
-25.1513345918
  0
LWPOLYLINE
  5
296
100
AcDbEntity
  8
RACCORDO
100
AcDbPolyline
 62
7
  6
CONTINUOUS
 90
3
 70
0
 10
-70.4524628415
 20
-25.1008518854
 10
-70.440764211
 20
-25.112663254
 10
-70.4154428445
 20
-25.1379046072
  0
LINE
  5
297
100
AcDbEntity
  8
RACCORDO
100
AcDbLine
 62
7
  6
CONTINUOUS
 10
-70.317436801
 20
-25.2358321508
 11
-70.3034089682
 21
-25.25
  0
LWPOLYLINE
  5
298
100
AcDbEntity
  8
RACCORDO
100
AcDbPolyline
 62
7
  6
CONTINUOUS
 90
7
 70
0
 10
-70.5031348751
 20
-25.050274093
 10
-70.5008245805
 20
-25.0530694671
 10
-70.4964028654
 20
-25.0573928673
 10
-70.4901646747
 20
-25.0632442935
 10
-70.4824423429
 20
-25.0708243505
 10
-70.4734967659
 20
-25.0799324336
 10
-70.4524628415
 20
-25.1008518854
  0
LWPOLYLINE
  5
299
100
AcDbEntity
  8
RACCORDO
100
AcDbPolyline
 62
7
  6
CONTINUOUS
 90
6
 70
0
 10
-67.0926312202
 20
-26.3539608825
 10
-67.086381107
 20
-26.36198736
 10
-67.0814205929
 20
-26.3685244829
 10
-67.0778769585
 20
-26.3733886124
 10
-67.0756229232
 20
-26.3763838804
 10
-67.074658487
 20
-26.3773370308
  0
LINE
  5
29A
100
AcDbEntity
  8
RACCORDO
100
AcDbLine
 62
7
  6
CONTINUOUS
 10
-67.2281212875
 20
-26.1773404154
 11
-67.2162970619
 21
-26.1925772872
  0
LWPOLYLINE
  5
29B
100
AcDbEntity
  8
RACCORDO
100
AcDbPolyline
 62
7
  6
CONTINUOUS
 90
3
 70
0
 10
-67.1167863433
 20
-26.3224710468
 10
-67.1078338384
 20
-26.3340328461
 10
-67.0926312202
 20
-26.3539608825
  0
LINE
  5
29C
100
AcDbEntity
  8
RACCORDO
100
AcDbLine
 62
7
  6
CONTINUOUS
 10
-67.1364413216
 20
-26.2967618641
 11
-67.1167863433
 21
-26.3224710468
  0
LINE
  5
29D
100
AcDbEntity
  8
RACCORDO
100
AcDbLine
 62
7
  6
CONTINUOUS
 10
-67.2162970619
 20
-26.1925772872
 11
-67.1364413216
 21
-26.2967618641
  0
LWPOLYLINE
  5
29E
100
AcDbEntity
  8
RACCORDO
100
AcDbPolyline
 62
7
  6
CONTINUOUS
 90
4
 70
0
 10
-66.9523669336
 20
-26.5488765554
 10
-66.8994930265
 20
-26.6188524851
 10
-66.8817564099
 20
-26.6421651261
 10
-66.8639210243
 20
-26.6652145484
  0
LINE
  5
29F
100
AcDbEntity
  8
RACCORDO
100
AcDbLine
 62
7
  6
CONTINUOUS
 10
-67.002191712
 20
-26.4823032579
 11
-66.9523669336
 21
-26.5488765554
  0
LINE
  5
2A0
100
AcDbEntity
  8
RACCORDO
100
AcDbLine
 62
7
  6
CONTINUOUS
 10
-67.0452176886
 20
-26.4238929617
 11
-67.002191712
 21
-26.4823032579
  0
LWPOLYLINE
  5
2A1
100
AcDbEntity
  8
RACCORDO
100
AcDbPolyline
 62
7
  6
CONTINUOUS
 90
3
 70
0
 10
-67.0757173472
 20
-26.3812887508
 10
-67.0572764491
 20
-26.4071375943
 10
-67.0452176886
 20
-26.4238929617
  0
LINE
  5
2A2
100
AcDbEntity
  8
0
100
AcDbLine
 62
7
  6
CONTINUOUS
 10
-55.122618
 20
-32.425
 11
-56.068265
 21
-30.922579
  0
LINE
  5
2A3
100
AcDbEntity
  8
0
100
AcDbLine
 62
7
  6
CONTINUOUS
 10
-55.083957
 20
-32.077726
 11
-56.014194
 21
-30.575
  0
LINE
  5
2A4
100
AcDbEntity
  8
0
100
AcDbLine
 62
7
  6
CONTINUOUS
 10
-61.551521
 20
-32.425
 11
-62.221411
 21
-30.575
  0
LINE
  5
2A5
100
AcDbEntity
  8
0
100
AcDbLine
 62
7
  6
CONTINUOUS
 10
-61.824675
 20
-32.425
 11
-62.007595
 21
-31.886533
  0
LINE
  5
2A6
100
AcDbEntity
  8
0
100
AcDbLine
 62
7
  6
CONTINUOUS
 10
-62.097709
 20
-31.664951
 11
-62.373331
 21
-30.84334
  0
LINE
  5
2A7
100
AcDbEntity
  8
0
100
AcDbLine
 62
7
  6
CONTINUOUS
 10
-64.4622515061
 20
25.05
 11
-64.470112673
 21
25.2
  0
LINE
  5
2A8
100
AcDbEntity
  8
0
100
AcDbLine
 62
7
  6
CONTINUOUS
 10
-64.4360476165
 20
25.05
 11
-64.4439087833
 21
25.2
  0
LINE
  5
2A9
100
AcDbEntity
  8
0
100
AcDbLine
 62
7
  6
CONTINUOUS
 10
-64.4098437268
 20
25.05
 11
-64.4177048937
 21
25.2
  0
LINE
  5
2AA
100
AcDbEntity
  8
0
100
AcDbLine
 62
7
  6
CONTINUOUS
 10
-64.3836398372
 20
25.05
 11
-64.3915010041
 21
25.2
  0
LINE
  5
2AB
100
AcDbEntity
  8
0
100
AcDbLine
 62
7
  6
CONTINUOUS
 10
-64.3574359475
 20
25.05
 11
-64.3652971144
 21
25.2
  0
LINE
  5
2AC
100
AcDbEntity
  8
0
100
AcDbLine
 62
7
  6
CONTINUOUS
 10
-64.3312320579
 20
25.05
 11
-64.3390932248
 21
25.2
  0
LINE
  5
2AD
100
AcDbEntity
  8
0
100
AcDbLine
 62
7
  6
CONTINUOUS
 10
-64.3050281682
 20
25.05
 11
-64.3128893351
 21
25.2
  0
LINE
  5
2AE
100
AcDbEntity
  8
0
100
AcDbLine
 62
7
  6
CONTINUOUS
 10
-64.2788242786
 20
25.05
 11
-64.2866854455
 21
25.2
  0
LINE
  5
2AF
100
AcDbEntity
  8
0
100
AcDbLine
 62
7
  6
CONTINUOUS
 10
-61.309338
 20
-32.425
 11
-61.309338
 21
-30.575
  0
LINE
  5
2B0
100
AcDbEntity
  8
0
100
AcDbLine
 62
7
  6
CONTINUOUS
 10
-61.05933
 20
-32.211199
 11
-61.05933
 21
-30.788801
  0
LINE
  5
2B1
100
AcDbEntity
  8
0
100
AcDbLine
 62
7
  6
CONTINUOUS
 10
-59.436073
 20
-32.425
 11
-59.436073
 21
-30.575
  0
LINE
  5
2B2
100
AcDbEntity
  8
0
100
AcDbLine
 62
7
  6
CONTINUOUS
 10
-59.18608
 20
-32.203419
 11
-59.18608
 21
-31.585057
  0
LINE
  5
2B3
100
AcDbEntity
  8
0
100
AcDbLine
 62
7
  6
CONTINUOUS
 10
-59.18608
 20
-31.363476
 11
-59.18608
 21
-30.796581
  0
LINE
  5
2B4
100
AcDbEntity
  8
0
100
AcDbLine
 62
7
  6
CONTINUOUS
 10
-58.173464
 20
-31.585057
 11
-58.173464
 21
-31.363476
  0
LINE
  5
2B5
100
AcDbEntity
  8
0
100
AcDbLine
 62
7
  6
CONTINUOUS
 10
-58.088438
 20
-30.796581
 11
-58.088438
 21
-30.575
  0
LINE
  5
2B6
100
AcDbEntity
  8
0
100
AcDbLine
 62
7
  6
CONTINUOUS
 10
-58.070379
 20
-32.425
 11
-58.070379
 21
-32.203419
  0
LINE
  5
2B7
100
AcDbEntity
  8
0
100
AcDbLine
 62
7
  6
CONTINUOUS
 10
-56.988148
 20
-32.425
 11
-56.988148
 21
-30.575
  0
LINE
  5
2B8
100
AcDbEntity
  8
0
100
AcDbLine
 62
7
  6
CONTINUOUS
 10
-56.73823
 20
-32.425
 11
-56.73823
 21
-30.575
  0
LINE
  5
2B9
100
AcDbEntity
  8
0
100
AcDbLine
 62
7
  6
CONTINUOUS
 10
-56.310568
 20
-32.425
 11
-56.310568
 21
-30.575
  0
LINE
  5
2BA
100
AcDbEntity
  8
0
100
AcDbLine
 62
7
  6
CONTINUOUS
 10
-56.068265
 20
-32.425
 11
-56.068265
 21
-30.922579
  0
LINE
  5
2BB
100
AcDbEntity
  8
0
100
AcDbLine
 62
7
  6
CONTINUOUS
 10
-55.083957
 20
-32.077726
 11
-55.083957
 21
-30.575
  0
LWPOLYLINE
  5
2BC
100
AcDbEntity
  8
0
100
AcDbPolyline
 62
7
  6
CONTINUOUS
 90
31
 70
0
 10
-60.039390866
 20
-31.5
 10
-60.0390944652
 20
-31.466858017
 10
-60.0398139058
 20
-31.4338362064
 10
-60.0415491877
 20
-31.4009346434
 10
-60.0443230854
 20
-31.3681524547
 10
-60.0481128246
 20
-31.3354906615
 10
-60.052850082
 20
-31.30295218
 10
-60.058444487
 20
-31.2705158708
 10
-60.0649864103
 20
-31.238203014
 10
-60.072678641
 20
-31.2060801814
 10
-60.081412753
 20
-31.1740121561
 10
-60.0912971723
 20
-31.1421343135
 10
-60.1028599656
 20
-31.1109193196
 10
-60.1162481412
 20
-31.080374358
 10
-60.1313146909
 20
-31.050492776
 10
-60.1481466559
 20
-31.0217268136
 10
-60.1668219306
 20
-30.9940709834
 10
-60.1872626207
 20
-30.9675315425
 10
-60.2093220853
 20
-30.9425786256
 10
-60.2330681063
 20
-30.91926778
 10
-60.2584329019
 20
-30.8975443762
 10
-60.2850664854
 20
-30.8777134544
 10
-60.3129899482
 20
-30.8598334877
 10
-60.342182199
 20
-30.8438468392
 10
-60.372229977
 20
-30.8298844186
 10
-60.4031357386
 20
-30.8179935398
 10
-60.4348970275
 20
-30.8081274917
 10
-60.4670932141
 20
-30.8002760979
 10
-60.4995840885
 20
-30.7944360696
 10
-60.5325098607
 20
-30.790611008
 10
-60.5658705306
 20
-30.788801
  0
LWPOLYLINE
  5
2BD
100
AcDbEntity
  8
0
100
AcDbPolyline
 62
7
  6
CONTINUOUS
 90
33
 70
0
 10
-59.7818125155
 20
-31.541246166
 10
-59.7826975895
 20
-31.5823626465
 10
-59.7848842803
 20
-31.6233494613
 10
-59.7882659031
 20
-31.6642610918
 10
-59.7929491425
 20
-31.705043079
 10
-59.7992540531
 20
-31.7455321212
 10
-59.8073194441
 20
-31.7856899299
 10
-59.8170065062
 20
-31.8255550274
 10
-59.8282188659
 20
-31.8650794412
 10
-59.8408917917
 20
-31.9043639731
 10
-59.855090015
 20
-31.9433080609
 10
-59.8709113567
 20
-31.9815618972
 10
-59.888221856
 20
-32.0192280061
 10
-59.9071554736
 20
-32.0562044685
 10
-59.9282119125
 20
-32.091835328
 10
-59.9517360743
 20
-32.1259335543
 10
-59.9773830573
 20
-32.1586874847
 10
-60.0046178592
 20
-32.1900045637
 10
-60.0333020303
 20
-32.2200289926
 10
-60.0635740202
 20
-32.2486177328
 10
-60.0953141759
 20
-32.2752475874
 10
-60.1285569695
 20
-32.2998661225
 10
-60.1632679288
 20
-32.3225271972
 10
-60.1992239845
 20
-32.3428673108
 10
-60.2365356865
 20
-32.3607234927
 10
-60.2750924849
 20
-32.3762600143
 10
-60.3143396607
 20
-32.3896042161
 10
-60.3542294585
 20
-32.4007581659
 10
-60.3948096338
 20
-32.4097205743
 10
-60.4356687339
 20
-32.4166135984
 10
-60.4766696077
 20
-32.421478069
 10
-60.5179494064
 20
-32.4242735081
 10
-60.5595081298
 20
-32.425
  0
LINE
  5
2BE
100
AcDbEntity
  8
0
100
AcDbLine
 62
7
  6
CONTINUOUS
 10
-64.470112673
 20
-25.2
 11
-64.4622515061
 21
-25.05
  0
LINE
  5
2BF
100
AcDbEntity
  8
0
100
AcDbLine
 62
7
  6
CONTINUOUS
 10
-64.4439087833
 20
-25.2
 11
-64.4360476165
 21
-25.05
  0
LINE
  5
2C0
100
AcDbEntity
  8
0
100
AcDbLine
 62
7
  6
CONTINUOUS
 10
-64.4177048937
 20
-25.2
 11
-64.4098437268
 21
-25.05
  0
LINE
  5
2C1
100
AcDbEntity
  8
0
100
AcDbLine
 62
7
  6
CONTINUOUS
 10
-64.3915010041
 20
-25.2
 11
-64.3836398372
 21
-25.05
  0
LINE
  5
2C2
100
AcDbEntity
  8
0
100
AcDbLine
 62
7
  6
CONTINUOUS
 10
-64.3652971144
 20
-25.2
 11
-64.3574359475
 21
-25.05
  0
LINE
  5
2C3
100
AcDbEntity
  8
0
100
AcDbLine
 62
7
  6
CONTINUOUS
 10
-64.3390932248
 20
-25.2
 11
-64.3312320579
 21
-25.05
  0
LINE
  5
2C4
100
AcDbEntity
  8
0
100
AcDbLine
 62
7
  6
CONTINUOUS
 10
-64.3128893351
 20
-25.2
 11
-64.3050281682
 21
-25.05
  0
LINE
  5
2C5
100
AcDbEntity
  8
0
100
AcDbLine
 62
7
  6
CONTINUOUS
 10
-64.2866854455
 20
-25.2
 11
-64.2788242786
 21
-25.05
  0
LINE
  5
2C6
100
AcDbEntity
  8
RACCORDO
100
AcDbLine
 62
7
  6
CONTINUOUS
 10
-67.1838167081
 20
-26.7847210577
 11
-67.074658487
 21
-26.3773370308
  0
LINE
  5
2C7
100
AcDbEntity
  8
0
100
AcDbLine
 62
7
  6
CONTINUOUS
 10
-47.753349
 20
-31.680362
 11
-48.451606
 21
-30.575
  0
LINE
  5
2C8
100
AcDbEntity
  8
0
100
AcDbLine
 62
7
  6
CONTINUOUS
 10
-47.629616
 20
-31.464017
 11
-48.160454
 21
-30.575
  0
LINE
  5
2C9
100
AcDbEntity
  8
0
100
AcDbLine
 62
7
  6
CONTINUOUS
 10
-49.953749
 20
-32.425
 11
-50.623774
 21
-30.575
  0
LINE
  5
2CA
100
AcDbEntity
  8
0
100
AcDbLine
 62
7
  6
CONTINUOUS
 10
-50.226948
 20
-32.425
 11
-50.409883
 21
-31.886533
  0
LINE
  5
2CB
100
AcDbEntity
  8
0
100
AcDbLine
 62
7
  6
CONTINUOUS
 10
-50.500086
 20
-31.664951
 11
-50.775723
 21
-30.84334
  0
LINE
  5
2CC
100
AcDbEntity
  8
RACCORDO
100
AcDbLine
 62
7
  6
CONTINUOUS
 10
-67.074658487
 20
26.3773370308
 11
-67.1838167081
 21
26.7847210577
  0
LINE
  5
2CD
100
AcDbEntity
  8
0
100
AcDbLine
 62
7
  6
CONTINUOUS
 10
-54.841774
 20
-32.425
 11
-54.841774
 21
-30.575
  0
LINE
  5
2CE
100
AcDbEntity
  8
0
100
AcDbLine
 62
7
  6
CONTINUOUS
 10
-53.695208
 20
-32.425
 11
-53.695208
 21
-30.575
  0
LINE
  5
2CF
100
AcDbEntity
  8
0
100
AcDbLine
 62
7
  6
CONTINUOUS
 10
-53.445215
 20
-32.425
 11
-53.445215
 21
-30.575
  0
LINE
  5
2D0
100
AcDbEntity
  8
0
100
AcDbLine
 62
7
  6
CONTINUOUS
 10
-53.177238
 20
-30.796581
 11
-53.177238
 21
-30.575
  0
LINE
  5
2D1
100
AcDbEntity
  8
0
100
AcDbLine
 62
7
  6
CONTINUOUS
 10
-52.551095
 20
-32.425
 11
-52.551095
 21
-30.796581
  0
LINE
  5
2D2
100
AcDbEntity
  8
0
100
AcDbLine
 62
7
  6
CONTINUOUS
 10
-52.301192
 20
-32.425
 11
-52.301192
 21
-30.796581
  0
LINE
  5
2D3
100
AcDbEntity
  8
0
100
AcDbLine
 62
7
  6
CONTINUOUS
 10
-51.67505
 20
-30.796581
 11
-51.67505
 21
-30.575
  0
LINE
  5
2D4
100
AcDbEntity
  8
0
100
AcDbLine
 62
7
  6
CONTINUOUS
 10
-49.724538
 20
-32.425
 11
-49.724538
 21
-30.575
  0
LINE
  5
2D5
100
AcDbEntity
  8
0
100
AcDbLine
 62
7
  6
CONTINUOUS
 10
-49.47453
 20
-32.203419
 11
-49.47453
 21
-30.575
  0
LINE
  5
2D6
100
AcDbEntity
  8
0
100
AcDbLine
 62
7
  6
CONTINUOUS
 10
-48.536588
 20
-32.425
 11
-48.536588
 21
-32.203419
  0
LINE
  5
2D7
100
AcDbEntity
  8
0
100
AcDbLine
 62
7
  6
CONTINUOUS
 10
-47.753349
 20
-32.425
 11
-47.753349
 21
-31.680362
  0
LINE
  5
2D8
100
AcDbEntity
  8
0
100
AcDbLine
 62
7
  6
CONTINUOUS
 10
-47.50349
 20
-32.425
 11
-47.50349
 21
-31.680362
  0
LINE
  5
2D9
100
AcDbEntity
  8
RACCORDO
100
AcDbLine
 62
7
  6
CONTINUOUS
 10
-47.5
 20
-24.75
 11
-47.5
 21
-22.564144533
  0
LINE
  5
2DA
100
AcDbEntity
  8
0
100
AcDbLine
 62
7
  6
CONTINUOUS
 10
-47.5
 20
-22.5449439616
 11
-47.5
 21
-22.564144533
  0
LINE
  5
2DB
100
AcDbEntity
  8
0
100
AcDbLine
 62
7
  6
CONTINUOUS
 10
-47.5
 20
22.5449439616
 11
-47.5
 21
22.564144533
  0
LINE
  5
2DC
100
AcDbEntity
  8
RACCORDO
100
AcDbLine
 62
7
  6
CONTINUOUS
 10
-47.5
 20
22.564144533
 11
-47.5
 21
24.75
  0
LINE
  5
2DD
100
AcDbEntity
  8
RACCORDO
100
AcDbLine
 62
7
  6
CONTINUOUS
 10
-45.3161832919
 20
26.7847210577
 11
-45.425341513
 21
26.3773370308
  0
LINE
  5
2DE
100
AcDbEntity
  8
0
100
AcDbLine
 62
7
  6
CONTINUOUS
 10
-64.184844
 20
-32.425
 11
-63.664426
 21
-30.871239
  0
LINE
  5
2DF
100
AcDbEntity
  8
0
100
AcDbLine
 62
7
  6
CONTINUOUS
 10
-64.305984
 20
-32.146609
 11
-63.77776
 21
-30.575
  0
LINE
  5
2E0
100
AcDbEntity
  8
0
100
AcDbLine
 62
7
  6
CONTINUOUS
 10
-62.942904
 20
-32.425
 11
-62.74963
 21
-31.886533
  0
LINE
  5
2E1
100
AcDbEntity
  8
0
100
AcDbLine
 62
7
  6
CONTINUOUS
 10
-62.672308
 20
-31.664951
 11
-62.373331
 21
-30.84334
  0
LINE
  5
2E2
100
AcDbEntity
  8
0
100
AcDbLine
 62
7
  6
CONTINUOUS
 10
-63.200542
 20
-32.425
 11
-62.504888
 21
-30.575
  0
LINE
  5
2E3
100
AcDbEntity
  8
RACCORDO
100
AcDbLine
 62
7
  6
CONTINUOUS
 10
-44.5757173472
 20
26.3812887508
 11
-44.5572764491
 21
26.4071375944
  0
LWPOLYLINE
  5
2E4
100
AcDbEntity
  8
RACCORDO
100
AcDbPolyline
 62
7
  6
CONTINUOUS
 90
3
 70
0
 10
-44.5572764491
 20
26.4071375944
 10
-44.5452176885
 20
26.4238929619
 10
-44.5021917118
 20
26.4823032581
  0
LINE
  5
2E5
100
AcDbEntity
  8
RACCORDO
100
AcDbLine
 62
7
  6
CONTINUOUS
 10
-44.5021917118
 20
26.4823032581
 11
-44.4523669335
 21
26.5488765555
  0
LWPOLYLINE
  5
2E6
100
AcDbEntity
  8
RACCORDO
100
AcDbPolyline
 62
7
  6
CONTINUOUS
 90
6
 70
0
 10
-44.5925864267
 20
26.3539265113
 10
-44.5864510932
 20
26.3620410623
 10
-44.5814205929
 20
26.3685244829
 10
-44.5776393646
 20
26.3732063002
 10
-44.5753295452
 20
26.3761587635
 10
-44.574658487
 20
26.3773370308
  0
LINE
  5
2E7
100
AcDbEntity
  8
RACCORDO
100
AcDbLine
 62
7
  6
CONTINUOUS
 10
-44.4523669335
 20
26.5488765555
 11
-44.3994930265
 21
26.6188524851
  0
LINE
  5
2E8
100
AcDbEntity
  8
RACCORDO
100
AcDbLine
 62
7
  6
CONTINUOUS
 10
-44.7281212875
 20
26.1773404154
 11
-44.7164639343
 21
26.1927053329
  0
LWPOLYLINE
  5
2E9
100
AcDbEntity
  8
RACCORDO
100
AcDbPolyline
 62
7
  6
CONTINUOUS
 90
3
 70
0
 10
-44.6167514664
 20
26.3224442849
 10
-44.6079007046
 20
26.3340841544
 10
-44.5925864267
 20
26.3539265113
  0
LWPOLYLINE
  5
2EA
100
AcDbEntity
  8
RACCORDO
100
AcDbPolyline
 62
7
  6
CONTINUOUS
 90
3
 70
0
 10
-44.3994930265
 20
26.6188524851
 10
-44.3817564099
 20
26.6421651261
 10
-44.3639210243
 20
26.6652145484
  0
LINE
  5
2EB
100
AcDbEntity
  8
RACCORDO
100
AcDbLine
 62
7
  6
CONTINUOUS
 10
-44.6364975472
 20
26.2968050075
 11
-44.6167514664
 21
26.3224442849
  0
LINE
  5
2EC
100
AcDbEntity
  8
RACCORDO
100
AcDbLine
 62
7
  6
CONTINUOUS
 10
-44.7164639343
 20
26.1927053329
 11
-44.6364975472
 21
26.2968050075
  0
LINE
  5
2ED
100
AcDbEntity
  8
RACCORDO
100
AcDbLine
 62
7
  6
CONTINUOUS
 10
-47.9020743764
 20
25.40131377
 11
-47.8175768173
 21
25.4859721672
  0
LINE
  5
2EE
100
AcDbEntity
  8
RACCORDO
100
AcDbLine
 62
7
  6
CONTINUOUS
 10
-47.9155043609
 20
25.3879661237
 11
-47.9020743764
 21
25.40131377
  0
LWPOLYLINE
  5
2EF
100
AcDbEntity
  8
RACCORDO
100
AcDbPolyline
 62
7
  6
CONTINUOUS
 90
3
 70
0
 10
-47.9525570828
 20
25.3509461267
 10
-47.9407457141
 20
25.3626447572
 10
-47.9155043609
 20
25.3879661237
  0
LINE
  5
2F0
100
AcDbEntity
  8
RACCORDO
100
AcDbLine
 62
7
  6
CONTINUOUS
 10
-47.8175768173
 20
25.4859721672
 11
-47.8034089682
 21
25.5
  0
LWPOLYLINE
  5
2F1
100
AcDbEntity
  8
RACCORDO
100
AcDbPolyline
 62
7
  6
CONTINUOUS
 90
7
 70
0
 10
-48.0031348751
 20
25.300274093
 10
-48.0003395011
 20
25.3025843876
 10
-47.9960161009
 20
25.3070061027
 10
-47.9901646747
 20
25.3132442935
 10
-47.9825846177
 20
25.3209666253
 10
-47.9734765345
 20
25.3299122023
 10
-47.9525570828
 20
25.3509461267
  0
LWPOLYLINE
  5
2F2
100
AcDbEntity
  8
RACCORDO
100
AcDbPolyline
 62
7
  6
CONTINUOUS
 90
6
 70
0
 10
-48.0031348751
 20
-25.300274093
 10
-48.0003395011
 20
-25.3025843876
 10
-47.9960161009
 20
-25.3070061027
 10
-47.9901646747
 20
-25.3132442935
 10
-47.9825846177
 20
-25.3209666253
 10
-47.9734765345
 20
-25.3299122023
  0
LINE
  5
2F3
100
AcDbEntity
  8
RACCORDO
100
AcDbLine
 62
7
  6
CONTINUOUS
 10
-47.8175768173
 20
-25.4859721672
 11
-47.8034089682
 21
-25.5
  0
LINE
  5
2F4
100
AcDbEntity
  8
RACCORDO
100
AcDbLine
 62
7
  6
CONTINUOUS
 10
-47.9407457141
 20
-25.3626447572
 11
-47.8175768173
 21
-25.4859721672
  0
LWPOLYLINE
  5
2F5
100
AcDbEntity
  8
RACCORDO
100
AcDbPolyline
 62
7
  6
CONTINUOUS
 90
3
 70
0
 10
-47.9734765345
 20
-25.3299122023
 10
-47.9525570828
 20
-25.3509461267
 10
-47.9407457141
 20
-25.3626447572
  0
LWPOLYLINE
  5
2F6
100
AcDbEntity
  8
RACCORDO
100
AcDbPolyline
 62
7
  6
CONTINUOUS
 90
7
 70
0
 10
-44.6079007046
 20
-26.3340841544
 10
-44.5925864267
 20
-26.3539265113
 10
-44.5864510932
 20
-26.3620410623
 10
-44.5814205929
 20
-26.3685244829
 10
-44.5776393646
 20
-26.3732063002
 10
-44.5753295452
 20
-26.3761587635
 10
-44.574658487
 20
-26.3773370308
  0
LWPOLYLINE
  5
2F7
100
AcDbEntity
  8
RACCORDO
100
AcDbPolyline
 62
7
  6
CONTINUOUS
 90
3
 70
0
 10
-44.6364975472
 20
-26.2968050075
 10
-44.6167514664
 20
-26.3224442849
 10
-44.6079007046
 20
-26.3340841544
  0
LINE
  5
2F8
100
AcDbEntity
  8
RACCORDO
100
AcDbLine
 62
7
  6
CONTINUOUS
 10
-44.7164639343
 20
-26.1927053329
 11
-44.6471129021
 21
-26.282880616
  0
LINE
  5
2F9
100
AcDbEntity
  8
RACCORDO
100
AcDbLine
 62
7
  6
CONTINUOUS
 10
-44.6471129021
 20
-26.282880616
 11
-44.6364975472
 21
-26.2968050075
  0
LINE
  5
2FA
100
AcDbEntity
  8
RACCORDO
100
AcDbLine
 62
7
  6
CONTINUOUS
 10
-44.7281212875
 20
-26.1773404154
 11
-44.7164639343
 21
-26.1927053329
  0
LWPOLYLINE
  5
2FB
100
AcDbEntity
  8
RACCORDO
100
AcDbPolyline
 62
7
  6
CONTINUOUS
 90
4
 70
0
 10
-44.4523669336
 20
-26.5488765554
 10
-44.3994930265
 20
-26.6188524851
 10
-44.3817564099
 20
-26.6421651261
 10
-44.3639210243
 20
-26.6652145484
  0
LINE
  5
2FC
100
AcDbEntity
  8
RACCORDO
100
AcDbLine
 62
7
  6
CONTINUOUS
 10
-44.502191712
 20
-26.4823032579
 11
-44.4523669336
 21
-26.5488765554
  0
LINE
  5
2FD
100
AcDbEntity
  8
RACCORDO
100
AcDbLine
 62
7
  6
CONTINUOUS
 10
-44.5452176886
 20
-26.4238929617
 11
-44.502191712
 21
-26.4823032579
  0
LWPOLYLINE
  5
2FE
100
AcDbEntity
  8
RACCORDO
100
AcDbPolyline
 62
7
  6
CONTINUOUS
 90
3
 70
0
 10
-44.5757173472
 20
-26.3812887508
 10
-44.5572764491
 20
-26.4071375943
 10
-44.5452176886
 20
-26.4238929617
  0
LINE
  5
2FF
100
AcDbEntity
  8
RACCORDO
100
AcDbLine
 62
7
  6
CONTINUOUS
 10
-45.425341513
 20
-26.3773370308
 11
-45.3161832919
 21
-26.7847210577
  0
LINE
  5
300
100
AcDbEntity
  8
0
100
AcDbLine
 62
7
  6
CONTINUOUS
 10
-46.0
 20
-33.75
 11
-46.0
 21
-29.25
  0
LINE
  5
301
100
AcDbEntity
  8
RACCORDO
100
AcDbLine
 62
7
  6
CONTINUOUS
 10
-42.5
 20
24.75
 11
-42.5
 21
22.564144533
  0
LINE
  5
302
100
AcDbEntity
  8
0
100
AcDbLine
 62
7
  6
CONTINUOUS
 10
-42.5
 20
-22.5449439616
 11
-42.5
 21
-22.564144533
  0
LINE
  5
303
100
AcDbEntity
  8
RACCORDO
100
AcDbLine
 62
7
  6
CONTINUOUS
 10
-42.5
 20
-22.564144533
 11
-42.5
 21
-24.75
  0
LINE
  5
304
100
AcDbEntity
  8
0
100
AcDbLine
 62
7
  6
CONTINUOUS
 10
-42.5
 20
22.5449439616
 11
-42.5
 21
22.564144533
  0
LINE
  5
305
100
AcDbEntity
  8
RACCORDO
100
AcDbLine
 62
7
  6
CONTINUOUS
 10
-67.9242826528
 20
-26.3812887508
 11
-67.9427235509
 21
-26.4071375944
  0
LWPOLYLINE
  5
306
100
AcDbEntity
  8
RACCORDO
100
AcDbPolyline
 62
7
  6
CONTINUOUS
 90
3
 70
0
 10
-67.9427235509
 20
-26.4071375944
 10
-67.9547823115
 20
-26.4238929619
 10
-67.9682312666
 20
-26.4421185169
  0
LINE
  5
307
100
AcDbEntity
  8
RACCORDO
100
AcDbLine
 62
7
  6
CONTINUOUS
 10
-67.9682312666
 20
-26.4421185169
 11
-67.9978082882
 21
-26.4823032581
  0
LINE
  5
308
100
AcDbEntity
  8
0
100
AcDbLine
 62
7
  6
CONTINUOUS
 10
50.9792913881
 20
-31.7230245362
 11
51.1472838959
 21
-31.6959912591
  0
LWPOLYLINE
  5
309
100
AcDbEntity
  8
0
100
AcDbPolyline
 62
7
  6
CONTINUOUS
 90
37
 70
0
 10
99.9045632626
 20
-39.0068917721
 10
100.002255392
 20
-39.0045978591
 10
100.099898919
 20
-38.997723023
 10
100.1974938436
 20
-38.9862672638
 10
100.2956043683
 20
-38.9700711212
 10
100.3936662906
 20
-38.9492940555
 10
100.4899870035
 20
-38.9244144472
 10
100.5844266646
 20
-38.8952850002
 10
100.6771251163
 20
-38.8620530106
 10
100.7668092779
 20
-38.8256387463
 10
100.8531394985
 20
-38.7861066129
 10
100.9364554291
 20
-38.7433922049
 10
101.0165029419
 20
-38.6982225745
 10
101.0930254775
 20
-38.6508317961
 10
101.1662795954
 20
-38.6009857952
 10
101.236780846
 20
-38.5487094012
 10
101.304621738
 20
-38.4940706018
 10
101.3697097629
 20
-38.4370014092
 10
101.4322829454
 20
-38.3773226885
 10
101.4923731982
 20
-38.315066773
 10
101.5499486086
 20
-38.2502013294
 10
101.6051514647
 20
-38.1824502231
 10
101.6580551328
 20
-38.1118974347
 10
101.7085862464
 20
-38.0384589836
 10
101.7566669945
 20
-37.9616067925
 10
101.8025566018
 20
-37.881004937
 10
101.8459958436
 20
-37.7969893416
 10
101.8861292341
 20
-37.7100397027
 10
101.9229720165
 20
-37.6198555827
 10
101.9565089476
 20
-37.5267374192
 10
101.9858388117
 20
-37.4320662216
 10
102.0107946471
 20
-37.3357041769
 10
102.0315434154
 20
-37.2377890982
 10
102.0476847856
 20
-37.1401154346
 10
102.0590853141
 20
-37.0432813358
 10
102.0658784445
 20
-36.9466886522
 10
102.0680641769
 20
-36.8503373837
  0
LINE
  5
30A
100
AcDbEntity
  8
0
100
AcDbLine
 62
7
  6
CONTINUOUS
 10
100.1004434799
 20
-39.9999840702
 11
-100.1004434799
 21
-39.9999840702
  0
LINE
  5
30B
100
AcDbEntity
  8
0
100
AcDbLine
 62
7
  6
CONTINUOUS
 10
-100.1004386937
 20
-39.1988861934
 11
100.1004386937
 21
-39.1988861934
  0
LINE
  5
30C
100
AcDbEntity
  8
RACCORDO
100
AcDbLine
 62
7
  6
CONTINUOUS
 10
-67.9682312664
 20
26.4421185167
 11
-67.997808288
 21
26.4823032579
  0
LWPOLYLINE
  5
30D
100
AcDbEntity
  8
RACCORDO
100
AcDbPolyline
 62
7
  6
CONTINUOUS
 90
4
 70
0
 10
-67.9242826528
 20
26.3812887508
 10
-67.9427235509
 20
26.4071375943
 10
-67.9547823114
 20
26.4238929617
 10
-67.9682312664
 20
26.4421185167
  0
LINE
  5
30E
100
AcDbEntity
  8
RACCORDO
100
AcDbLine
 62
7
  6
CONTINUOUS
 10
-44.6838167081
 20
-26.7847210577
 11
-44.574658487
 21
-26.3773370308
  0
LINE
  5
30F
100
AcDbEntity
  8
0
100
AcDbLine
 62
7
  6
CONTINUOUS
 10
-22.808182
 20
33.450078
 11
-23.670385
 21
30.764596
  0
LINE
  5
310
100
AcDbEntity
  8
0
100
AcDbLine
 62
7
  6
CONTINUOUS
 10
-22.028143
 20
33.450078
 11
-23.280365
 21
29.549902
  0
LINE
  5
311
100
AcDbEntity
  8
0
100
AcDbLine
 62
7
  6
CONTINUOUS
 10
-51.345281
 20
-32.425
 11
-51.151993
 21
-31.886533
  0
LINE
  5
312
100
AcDbEntity
  8
0
100
AcDbLine
 62
7
  6
CONTINUOUS
 10
-51.074686
 20
-31.664951
 11
-50.775723
 21
-30.84334
  0
LINE
  5
313
100
AcDbEntity
  8
0
100
AcDbLine
 62
7
  6
CONTINUOUS
 10
-51.602905
 20
-32.425
 11
-50.907161
 21
-30.575
  0
LINE
  5
314
100
AcDbEntity
  8
RACCORDO
100
AcDbLine
 62
7
  6
CONTINUOUS
 10
-22.0757173472
 20
26.3812887508
 11
-22.0572764491
 21
26.4071375944
  0
LWPOLYLINE
  5
315
100
AcDbEntity
  8
RACCORDO
100
AcDbPolyline
 62
7
  6
CONTINUOUS
 90
3
 70
0
 10
-22.0572764491
 20
26.4071375944
 10
-22.0452176885
 20
26.4238929619
 10
-22.0021917118
 20
26.4823032581
  0
LINE
  5
316
100
AcDbEntity
  8
RACCORDO
100
AcDbLine
 62
7
  6
CONTINUOUS
 10
-67.9978082882
 20
-26.4823032581
 11
-68.0476330665
 21
-26.5488765555
  0
LINE
  5
317
100
AcDbEntity
  8
RACCORDO
100
AcDbLine
 62
7
  6
CONTINUOUS
 10
-22.0021917118
 20
26.4823032581
 11
-21.9523669335
 21
26.5488765555
  0
LWPOLYLINE
  5
318
100
AcDbEntity
  8
RACCORDO
100
AcDbPolyline
 62
7
  6
CONTINUOUS
 90
6
 70
0
 10
-67.9074135733
 20
-26.3539265113
 10
-67.9135489068
 20
-26.3620410623
 10
-67.9185794071
 20
-26.3685244829
 10
-67.9223606354
 20
-26.3732063002
 10
-67.9246704548
 20
-26.3761587635
 10
-67.925341513
 20
-26.3773370308
  0
LINE
  5
319
100
AcDbEntity
  8
RACCORDO
100
AcDbLine
 62
7
  6
CONTINUOUS
 10
-68.0476330665
 20
-26.5488765555
 11
-68.1005069735
 21
-26.6188524851
  0
LINE
  5
31A
100
AcDbEntity
  8
RACCORDO
100
AcDbLine
 62
7
  6
CONTINUOUS
 10
-21.9523669335
 20
26.5488765555
 11
-21.8994930265
 21
26.6188524851
  0
LINE
  5
31B
100
AcDbEntity
  8
RACCORDO
100
AcDbLine
 62
7
  6
CONTINUOUS
 10
-67.7718787125
 20
-26.1773404154
 11
-67.7835360657
 21
-26.1927053329
  0
LWPOLYLINE
  5
31C
100
AcDbEntity
  8
RACCORDO
100
AcDbPolyline
 62
7
  6
CONTINUOUS
 90
3
 70
0
 10
-67.8832485336
 20
-26.3224442849
 10
-67.8920992954
 20
-26.3340841544
 10
-67.9074135733
 20
-26.3539265113
  0
LWPOLYLINE
  5
31D
100
AcDbEntity
  8
RACCORDO
100
AcDbPolyline
 62
7
  6
CONTINUOUS
 90
3
 70
0
 10
-68.1005069735
 20
-26.6188524851
 10
-68.1182435901
 20
-26.6421651261
 10
-68.1360789757
 20
-26.6652145484
  0
LWPOLYLINE
  5
31E
100
AcDbEntity
  8
RACCORDO
100
AcDbPolyline
 62
7
  6
CONTINUOUS
 90
3
 70
0
 10
-21.8994930265
 20
26.6188524851
 10
-21.8817564099
 20
26.6421651261
 10
-21.8639210243
 20
26.6652145484
  0
LWPOLYLINE
  5
31F
100
AcDbEntity
  8
RACCORDO
100
AcDbPolyline
 62
7
  6
CONTINUOUS
 90
7
 70
0
 10
-22.1078338384
 20
26.3340328461
 10
-22.0926312202
 20
26.3539608825
 10
-22.086381107
 20
26.36198736
 10
-22.0814205929
 20
26.3685244829
 10
-22.0778769585
 20
26.3733886124
 10
-22.0756229232
 20
26.3763838804
 10
-22.074658487
 20
26.3773370308
  0
LWPOLYLINE
  5
320
100
AcDbEntity
  8
RACCORDO
100
AcDbPolyline
 62
7
  6
CONTINUOUS
 90
3
 70
0
 10
-22.1364413216
 20
26.2967618641
 10
-22.1167863433
 20
26.3224710468
 10
-22.1078338384
 20
26.3340328461
  0
LINE
  5
321
100
AcDbEntity
  8
RACCORDO
100
AcDbLine
 62
7
  6
CONTINUOUS
 10
-67.8635024528
 20
-26.2968050075
 11
-67.8832485336
 21
-26.3224442849
  0
LINE
  5
322
100
AcDbEntity
  8
RACCORDO
100
AcDbLine
 62
7
  6
CONTINUOUS
 10
-22.2162970619
 20
26.1925772872
 11
-22.1471437951
 21
26.282904321
  0
LINE
  5
323
100
AcDbEntity
  8
RACCORDO
100
AcDbLine
 62
7
  6
CONTINUOUS
 10
-22.1471437951
 20
26.282904321
 11
-22.1364413216
 21
26.2967618641
  0
LINE
  5
324
100
AcDbEntity
  8
RACCORDO
100
AcDbLine
 62
7
  6
CONTINUOUS
 10
-67.7835360657
 20
-26.1927053329
 11
-67.8635024528
 21
-26.2968050075
  0
LINE
  5
325
100
AcDbEntity
  8
RACCORDO
100
AcDbLine
 62
7
  6
CONTINUOUS
 10
-22.2281212875
 20
26.1773404154
 11
-22.2162970619
 21
26.1925772872
  0
LWPOLYLINE
  5
326
100
AcDbEntity
  8
RACCORDO
100
AcDbPolyline
 62
7
  6
CONTINUOUS
 90
6
 70
0
 10
-64.4968651249
 20
-25.050274093
 10
-64.4991754195
 20
-25.0530694671
 10
-64.5035971346
 20
-25.0573928673
 10
-64.5098353253
 20
-25.0632442935
 10
-64.5175576571
 20
-25.0708243505
 10
-64.5265032341
 20
-25.0799324336
  0
LINE
  5
327
100
AcDbEntity
  8
RACCORDO
100
AcDbLine
 62
7
  6
CONTINUOUS
 10
-25.4020743764
 20
25.40131377
 11
-25.3175768173
 21
25.4859721672
  0
LINE
  5
328
100
AcDbEntity
  8
RACCORDO
100
AcDbLine
 62
7
  6
CONTINUOUS
 10
-25.4155043609
 20
25.3879661237
 11
-25.4020743764
 21
25.40131377
  0
LWPOLYLINE
  5
329
100
AcDbEntity
  8
RACCORDO
100
AcDbPolyline
 62
7
  6
CONTINUOUS
 90
3
 70
0
 10
-25.4525570828
 20
25.3509461267
 10
-25.4407457141
 20
25.3626447572
 10
-25.4155043609
 20
25.3879661237
  0
LINE
  5
32A
100
AcDbEntity
  8
RACCORDO
100
AcDbLine
 62
7
  6
CONTINUOUS
 10
-25.3175768173
 20
25.4859721672
 11
-25.3034089682
 21
25.5
  0
LWPOLYLINE
  5
32B
100
AcDbEntity
  8
RACCORDO
100
AcDbPolyline
 62
7
  6
CONTINUOUS
 90
7
 70
0
 10
-25.5031348751
 20
25.300274093
 10
-25.5003395011
 20
25.3025843876
 10
-25.4960161009
 20
25.3070061027
 10
-25.4901646747
 20
25.3132442935
 10
-25.4825846177
 20
25.3209666253
 10
-25.4734765345
 20
25.3299122023
 10
-25.4525570828
 20
25.3509461267
  0
LINE
  5
32C
100
AcDbEntity
  8
0
100
AcDbLine
 62
7
  6
CONTINUOUS
 10
51.6068496069
 20
-31.3040087409
 11
51.7729111663
 21
-31.2808373605
  0
LINE
  5
32D
100
AcDbEntity
  8
RACCORDO
100
AcDbLine
 62
7
  6
CONTINUOUS
 10
70.554049825
 20
-26.3507451384
 11
70.3254755779
 21
-26.3761193498
  0
LINE
  5
32E
100
AcDbEntity
  8
RACCORDO
100
AcDbLine
 62
7
  6
CONTINUOUS
 10
48.054049825
 20
-26.3507451384
 11
47.8254755779
 21
-26.3761193498
  0
LINE
  5
32F
100
AcDbEntity
  8
RACCORDO
100
AcDbLine
 62
7
  6
CONTINUOUS
 10
70.554046085
 20
-26.3507455535
 11
70.5497159726
 21
-26.3511790585
  0
LINE
  5
330
100
AcDbEntity
  8
0
100
AcDbLine
 62
7
  6
CONTINUOUS
 10
22.0114665417
 20
-33.2998776599
 11
22.132446
 21
-33.29722
  0
LINE
  5
331
100
AcDbEntity
  8
0
100
AcDbLine
 62
7
  6
CONTINUOUS
 10
99.9045632626
 20
-39.0068917721
 11
-99.9045632502
 21
-39.0068917641
  0
LINE
  5
332
100
AcDbEntity
  8
RACCORDO
100
AcDbLine
 62
7
  6
CONTINUOUS
 10
-99.0
 20
-37.2
 11
99.0
 21
-37.2
  0
LINE
  5
333
100
AcDbEntity
  8
0
100
AcDbLine
 62
7
  6
CONTINUOUS
 10
6.5
 20
-35.7
 11
28.2
 21
-35.7
  0
LINE
  5
334
100
AcDbEntity
  8
0
100
AcDbLine
 62
7
  6
CONTINUOUS
 10
-66.0
 20
-33.75
 11
-46.0
 21
-33.75
  0
LINE
  5
335
100
AcDbEntity
  8
0
100
AcDbLine
 62
7
  6
CONTINUOUS
 10
-26.5
 20
-33.75
 11
-6.5
 21
-33.75
  0
LINE
  5
336
100
AcDbEntity
  8
0
100
AcDbLine
 62
7
  6
CONTINUOUS
 10
46.0
 20
-33.75
 11
66.0
 21
-33.75
  0
LINE
  5
337
100
AcDbEntity
  8
0
100
AcDbLine
 62
7
  6
CONTINUOUS
 10
10.533113
 20
-33.660266
 11
11.872991
 21
-33.660266
  0
LINE
  5
338
100
AcDbEntity
  8
0
100
AcDbLine
 62
7
  6
CONTINUOUS
 10
10.533113
 20
-33.188045
 11
10.951602
 21
-33.188045
  0
LINE
  5
339
100
AcDbEntity
  8
0
100
AcDbLine
 62
7
  6
CONTINUOUS
 10
11.454665
 20
-33.188045
 11
11.872991
 21
-33.188045
  0
LINE
  5
33A
100
AcDbEntity
  8
ASSI
100
AcDbLine
 62
7
  6
CONTINUOUS
 10
-35.6871716806
 20
-32.6095719726
 11
-31.8128283194
 21
-32.6095719726
  0
LINE
  5
33B
100
AcDbEntity
  8
ASSI
100
AcDbLine
 62
7
  6
CONTINUOUS
 10
31.8128283194
 20
-32.6095719726
 11
35.6871716806
 21
-32.6095719726
  0
LINE
  5
33C
100
AcDbEntity
  8
0
100
AcDbLine
 62
7
  6
CONTINUOUS
 10
-20.376934
 20
-32.562448
 11
-20.115548
 21
-32.562448
  0
LINE
  5
33D
100
AcDbEntity
  8
0
100
AcDbLine
 62
7
  6
CONTINUOUS
 10
-18.609608
 20
-32.562448
 11
-18.348222
 21
-32.562448
  0
LINE
  5
33E
100
AcDbEntity
  8
0
100
AcDbLine
 62
7
  6
CONTINUOUS
 10
-14.17792454
 20
-32.562448
 11
-13.9105978231
 21
-32.562448
  0
LINE
  5
33F
100
AcDbEntity
  8
0
100
AcDbLine
 62
7
  6
CONTINUOUS
 10
-65.194916
 20
-32.425
 11
-64.952726
 21
-32.425
  0
LINE
  5
340
100
AcDbEntity
  8
0
100
AcDbLine
 62
7
  6
CONTINUOUS
 10
-64.432208
 20
-32.425
 11
-64.184844
 21
-32.425
  0
LINE
  5
341
100
AcDbEntity
  8
0
100
AcDbLine
 62
7
  6
CONTINUOUS
 10
-63.664426
 20
-32.425
 11
-63.422138
 21
-32.425
  0
LINE
  5
342
100
AcDbEntity
  8
0
100
AcDbLine
 62
7
  6
CONTINUOUS
 10
-63.200542
 20
-32.425
 11
-62.942904
 21
-32.425
  0
LINE
  5
343
100
AcDbEntity
  8
0
100
AcDbLine
 62
7
  6
CONTINUOUS
 10
-61.824675
 20
-32.425
 11
-61.551521
 21
-32.425
  0
LINE
  5
344
100
AcDbEntity
  8
0
100
AcDbLine
 62
7
  6
CONTINUOUS
 10
-61.309338
 20
-32.425
 11
-60.5595081298
 21
-32.425
  0
LINE
  5
345
100
AcDbEntity
  8
0
100
AcDbLine
 62
7
  6
CONTINUOUS
 10
-59.436073
 20
-32.425
 11
-58.070379
 21
-32.425
  0
LINE
  5
346
100
AcDbEntity
  8
0
100
AcDbLine
 62
7
  6
CONTINUOUS
 10
-56.988148
 20
-32.425
 11
-56.73823
 21
-32.425
  0
LINE
  5
347
100
AcDbEntity
  8
0
100
AcDbLine
 62
7
  6
CONTINUOUS
 10
-56.310568
 20
-32.425
 11
-56.068265
 21
-32.425
  0
LINE
  5
348
100
AcDbEntity
  8
0
100
AcDbLine
 62
7
  6
CONTINUOUS
 10
-55.122618
 20
-32.425
 11
-54.841774
 21
-32.425
  0
LINE
  5
349
100
AcDbEntity
  8
0
100
AcDbLine
 62
7
  6
CONTINUOUS
 10
-53.695208
 20
-32.425
 11
-53.445215
 21
-32.425
  0
LINE
  5
34A
100
AcDbEntity
  8
0
100
AcDbLine
 62
7
  6
CONTINUOUS
 10
-52.551095
 20
-32.425
 11
-52.301192
 21
-32.425
  0
LINE
  5
34B
100
AcDbEntity
  8
0
100
AcDbLine
 62
7
  6
CONTINUOUS
 10
-51.602905
 20
-32.425
 11
-51.345281
 21
-32.425
  0
LINE
  5
34C
100
AcDbEntity
  8
0
100
AcDbLine
 62
7
  6
CONTINUOUS
 10
-50.226948
 20
-32.425
 11
-49.953749
 21
-32.425
  0
LINE
  5
34D
100
AcDbEntity
  8
0
100
AcDbLine
 62
7
  6
CONTINUOUS
 10
-49.724538
 20
-32.425
 11
-48.536588
 21
-32.425
  0
LINE
  5
34E
100
AcDbEntity
  8
0
100
AcDbLine
 62
7
  6
CONTINUOUS
 10
-47.753349
 20
-32.425
 11
-47.50349
 21
-32.425
  0
LINE
  5
34F
100
AcDbEntity
  8
0
100
AcDbLine
 62
7
  6
CONTINUOUS
 10
-61.05933
 20
-32.211199
 11
-60.5658705306
 21
-32.211199
  0
LINE
  5
350
100
AcDbEntity
  8
0
100
AcDbLine
 62
7
  6
CONTINUOUS
 10
-59.18608
 20
-32.203419
 11
-58.070379
 21
-32.203419
  0
LINE
  5
351
100
AcDbEntity
  8
0
100
AcDbLine
 62
7
  6
CONTINUOUS
 10
-49.47453
 20
-32.203419
 11
-48.536588
 21
-32.203419
  0
LINE
  5
352
100
AcDbEntity
  8
0
100
AcDbLine
 62
7
  6
CONTINUOUS
 10
-19.53337
 20
-32.054527
 11
-18.609608
 21
-32.054527
  0
LINE
  5
353
100
AcDbEntity
  8
0
100
AcDbLine
 62
7
  6
CONTINUOUS
 10
-18.348222
 20
-32.054527
 11
-18.060103
 21
-32.054527
  0
LINE
  5
354
100
AcDbEntity
  8
0
100
AcDbLine
 62
7
  6
CONTINUOUS
 10
-62.74963
 20
-31.886533
 11
-62.007595
 21
-31.886533
  0
LINE
  5
355
100
AcDbEntity
  8
0
100
AcDbLine
 62
7
  6
CONTINUOUS
 10
-51.151993
 20
-31.886533
 11
-50.409883
 21
-31.886533
  0
LINE
  5
356
100
AcDbEntity
  8
0
100
AcDbLine
 62
7
  6
CONTINUOUS
 10
24.657055
 20
-31.875
 11
26.117556
 21
-31.875
  0
LINE
  5
357
100
AcDbEntity
  8
0
100
AcDbLine
 62
7
  6
CONTINUOUS
 10
-19.276579
 20
-31.813933
 11
-18.609608
 21
-31.813933
  0
LINE
  5
358
100
AcDbEntity
  8
0
100
AcDbLine
 62
7
  6
CONTINUOUS
 10
-18.348222
 20
-31.813933
 11
-18.060103
 21
-31.813933
  0
LINE
  5
359
100
AcDbEntity
  8
0
100
AcDbLine
 62
7
  6
CONTINUOUS
 10
-62.672308
 20
-31.664951
 11
-62.097709
 21
-31.664951
  0
LINE
  5
35A
100
AcDbEntity
  8
0
100
AcDbLine
 62
7
  6
CONTINUOUS
 10
-51.074686
 20
-31.664951
 11
-50.500086
 21
-31.664951
  0
LINE
  5
35B
100
AcDbEntity
  8
0
100
AcDbLine
 62
7
  6
CONTINUOUS
 10
-59.18608
 20
-31.585057
 11
-58.173464
 21
-31.585057
  0
LINE
  5
35C
100
AcDbEntity
  8
0
100
AcDbLine
 62
7
  6
CONTINUOUS
 10
-59.18608
 20
-31.363476
 11
-58.173464
 21
-31.363476
  0
LINE
  5
35D
100
AcDbEntity
  8
0
100
AcDbLine
 62
7
  6
CONTINUOUS
 10
24.657051888
 20
-31.125
 11
26.117556
 21
-31.125
  0
LWPOLYLINE
  5
35E
100
AcDbEntity
  8
0
100
AcDbPolyline
 62
7
  6
CONTINUOUS
 90
28
 70
0
 10
51.407690411
 20
-32.0435619648
 10
51.3861617228
 20
-32.0433978616
 10
51.3646431916
 20
-32.0425964323
 10
51.3431348173
 20
-32.0411576697
 10
51.321628616
 20
-32.039155577
 10
51.3001325715
 20
-32.036516122
 10
51.2786706363
 20
-32.0330172278
 10
51.2571610102
 20
-32.0286739737
 10
51.2356854934
 20
-32.0234711881
 10
51.2145134374
 20
-32.0171413751
 10
51.1935859161
 20
-32.0096695483
 10
51.1729618558
 20
-32.0010704792
 10
51.1530873871
 20
-31.9911212371
 10
51.1339862083
 20
-31.9797181622
 10
51.1156346212
 20
-31.9669645101
 10
51.0984076622
 20
-31.9529476754
 10
51.0824183043
 20
-31.9375359274
 10
51.0675535746
 20
-31.9208604765
 10
51.053849591
 20
-31.9034032215
 10
51.0413534255
 20
-31.8852120128
 10
51.0300180061
 20
-31.8662386382
 10
51.0197382344
 20
-31.8468210872
 10
51.0105059893
 20
-31.8270214156
 10
51.0023293918
 20
-31.8067773551
 10
50.9951277065
 20
-31.7862405328
 10
50.9888740216
 20
-31.76546146
 10
50.9835952488
 20
-31.7443894862
 10
50.9792913881
 20
-31.7230245362
  0
LWPOLYLINE
  5
35F
100
AcDbEntity
  8
0
100
AcDbPolyline
 62
7
  6
CONTINUOUS
 90
37
 70
0
 10
50.0
 20
-33.25
 10
49.9115992462
 20
-33.2486463013
 10
49.8234813611
 20
-33.2445722214
 10
49.7356463445
 20
-33.2377775791
 10
49.648015309
 20
-33.228271976
 10
49.560667142
 20
-33.2160450875
 10
49.4738385064
 20
-33.2010666569
 10
49.3875187301
 20
-33.1833451939
 10
49.301718485
 20
-33.1628707337
 10
49.2167064495
 20
-33.1395851023
 10
49.1324704726
 20
-33.1134979942
 10
49.0490227053
 20
-33.084597501
 10
48.9666682786
 20
-33.0527928026
 10
48.8853455516
 20
-33.0180649798
 10
48.8051161654
 20
-32.9804299181
 10
48.7264701743
 20
-32.9398487597
 10
48.6493959813
 20
-32.8963145499
 10
48.5739051834
 20
-32.8498304568
 10
48.5005226258
 20
-32.8003725965
 10
48.4291507172
 20
-32.7478383146
 10
48.3598870488
 20
-32.69232573
 10
48.2935492394
 20
-32.6341121824
 10
48.2301968188
 20
-32.573187669
 10
48.1697702571
 20
-32.5095576449
 10
48.112908584
 20
-32.4435230522
 10
48.0596323361
 20
-32.3750517515
 10
48.0099209766
 20
-32.3041715547
 10
47.9643519245
 20
-32.2312739572
 10
47.9229612791
 20
-32.1563768798
 10
47.885712941
 20
-32.0794587485
 10
47.8530760313
 20
-32.0008525584
 10
47.8250471834
 20
-31.9204581686
 10
47.8016297638
 20
-31.8383726679
 10
47.7833029932
 20
-31.7552259581
 10
47.7702266116
 20
-31.6712278065
 10
47.7622408789
 20
-31.5861670708
 10
47.7593457951
 20
-31.5000430078
  0
LWPOLYLINE
  5
360
100
AcDbEntity
  8
0
100
AcDbPolyline
 62
7
  6
CONTINUOUS
 90
22
 70
0
 10
-60.5516423485
 20
-30.575
 10
-60.4851325679
 20
-30.5786638288
 10
-60.4223671935
 20
-30.5860166099
 10
-60.3633462253
 20
-30.5970580478
 10
-60.3086587651
 20
-30.6116562244
 10
-60.2577157112
 20
-30.6299420354
 10
-60.2087497582
 20
-30.6523091007
 10
-60.1612938023
 20
-30.6787457106
 10
-60.1158149473
 20
-30.7092613621
 10
-60.0719471992
 20
-30.7442809707
 10
-60.0289770081
 20
-30.7839173421
 10
-59.987617924
 20
-30.8280538007
 10
-59.9496446019
 20
-30.8767704759
 10
-59.9155662078
 20
-30.9303698472
 10
-59.8848735757
 20
-30.9885437588
 10
-59.857813863
 20
-31.0504564761
 10
-59.834099535
 20
-31.1157760525
 10
-59.8140181263
 20
-31.1848286276
 10
-59.7986793981
 20
-31.2577656919
 10
-59.7884532709
 20
-31.3346351223
 10
-59.7829698243
 20
-31.415381314
 10
-59.7818125155
 20
-31.541246166
  0
LINE
  5
361
100
AcDbEntity
  8
RACCORDO
100
AcDbLine
 62
7
  6
CONTINUOUS
 10
-70.5540500014
 20
-26.3507451188
 11
-70.3254755779
 21
-26.3761193498
  0
LINE
  5
362
100
AcDbEntity
  8
RACCORDO
100
AcDbLine
 62
7
  6
CONTINUOUS
 10
-48.0540500014
 20
-26.3507451188
 11
-47.8254755779
 21
-26.3761193498
  0
LINE
  5
363
100
AcDbEntity
  8
0
100
AcDbLine
 62
7
  6
CONTINUOUS
 10
-15.8472316778
 20
-31.591160902
 11
-16.093766
 21
-31.555517
  0
LWPOLYLINE
  5
364
100
AcDbEntity
  8
RACCORDO
100
AcDbPolyline
 62
7
  6
CONTINUOUS
 90
6
 70
0
 10
-25.5031348751
 20
-25.300274093
 10
-25.5003395011
 20
-25.3025843876
 10
-25.4960161009
 20
-25.3070061027
 10
-25.4901646747
 20
-25.3132442935
 10
-25.4825846177
 20
-25.3209666253
 10
-25.4734765345
 20
-25.3299122023
  0
LINE
  5
365
100
AcDbEntity
  8
RACCORDO
100
AcDbLine
 62
7
  6
CONTINUOUS
 10
-25.3175768173
 20
-25.4859721672
 11
-25.3034089682
 21
-25.5
  0
LINE
  5
366
100
AcDbEntity
  8
RACCORDO
100
AcDbLine
 62
7
  6
CONTINUOUS
 10
-25.4407457141
 20
-25.3626447572
 11
-25.3175768173
 21
-25.4859721672
  0
LWPOLYLINE
  5
367
100
AcDbEntity
  8
RACCORDO
100
AcDbPolyline
 62
7
  6
CONTINUOUS
 90
3
 70
0
 10
-25.4734765345
 20
-25.3299122023
 10
-25.4525570828
 20
-25.3509461267
 10
-25.4407457141
 20
-25.3626447572
  0
LWPOLYLINE
  5
368
100
AcDbEntity
  8
RACCORDO
100
AcDbPolyline
 62
7
  6
CONTINUOUS
 90
7
 70
0
 10
-64.4968651249
 20
25.050274093
 10
-64.4991754195
 20
25.0530694671
 10
-64.5035971346
 20
25.0573928673
 10
-64.5098353253
 20
25.0632442935
 10
-64.5175576571
 20
25.0708243505
 10
-64.5265032341
 20
25.0799324336
 10
-64.5475371585
 20
25.1008518854
  0
LWPOLYLINE
  5
369
100
AcDbEntity
  8
RACCORDO
100
AcDbPolyline
 62
7
  6
CONTINUOUS
 90
6
 70
0
 10
-22.0926312202
 20
-26.3539608825
 10
-22.086381107
 20
-26.36198736
 10
-22.0814205929
 20
-26.3685244829
 10
-22.0778769585
 20
-26.3733886124
 10
-22.0756229232
 20
-26.3763838804
 10
-22.074658487
 20
-26.3773370308
  0
LINE
  5
36A
100
AcDbEntity
  8
RACCORDO
100
AcDbLine
 62
7
  6
CONTINUOUS
 10
-22.2281212875
 20
-26.1773404154
 11
-22.2162970619
 21
-26.1925772872
  0
LWPOLYLINE
  5
36B
100
AcDbEntity
  8
RACCORDO
100
AcDbPolyline
 62
7
  6
CONTINUOUS
 90
3
 70
0
 10
-22.1167863433
 20
-26.3224710468
 10
-22.1078338384
 20
-26.3340328461
 10
-22.0926312202
 20
-26.3539608825
  0
LWPOLYLINE
  5
36C
100
AcDbEntity
  8
RACCORDO
100
AcDbPolyline
 62
7
  6
CONTINUOUS
 90
7
 70
0
 10
-67.8920992954
 20
26.3340841544
 10
-67.9074135733
 20
26.3539265113
 10
-67.9135489068
 20
26.3620410623
 10
-67.9185794071
 20
26.3685244829
 10
-67.9223606354
 20
26.3732063002
 10
-67.9246704548
 20
26.3761587635
 10
-67.925341513
 20
26.3773370308
  0
LWPOLYLINE
  5
36D
100
AcDbEntity
  8
RACCORDO
100
AcDbPolyline
 62
7
  6
CONTINUOUS
 90
3
 70
0
 10
-67.8635024528
 20
26.2968050075
 10
-67.8832485336
 20
26.3224442849
 10
-67.8920992954
 20
26.3340841544
  0
LINE
  5
36E
100
AcDbEntity
  8
RACCORDO
100
AcDbLine
 62
7
  6
CONTINUOUS
 10
-22.1364413216
 20
-26.2967618641
 11
-22.1167863433
 21
-26.3224710468
  0
LINE
  5
36F
100
AcDbEntity
  8
RACCORDO
100
AcDbLine
 62
7
  6
CONTINUOUS
 10
-67.7835360657
 20
26.1927053329
 11
-67.8528870979
 21
26.282880616
  0
LINE
  5
370
100
AcDbEntity
  8
RACCORDO
100
AcDbLine
 62
7
  6
CONTINUOUS
 10
-67.8528870979
 20
26.282880616
 11
-67.8635024528
 21
26.2968050075
  0
LINE
  5
371
100
AcDbEntity
  8
RACCORDO
100
AcDbLine
 62
7
  6
CONTINUOUS
 10
-22.2162970619
 20
-26.1925772872
 11
-22.1364413216
 21
-26.2967618641
  0
LINE
  5
372
100
AcDbEntity
  8
RACCORDO
100
AcDbLine
 62
7
  6
CONTINUOUS
 10
-67.7718787125
 20
26.1773404154
 11
-67.7835360657
 21
26.1927053329
  0
LWPOLYLINE
  5
373
100
AcDbEntity
  8
RACCORDO
100
AcDbPolyline
 62
7
  6
CONTINUOUS
 90
4
 70
0
 10
-68.0476330664
 20
26.5488765554
 10
-68.1005069735
 20
26.6188524851
 10
-68.1182435901
 20
26.6421651261
 10
-68.1360789757
 20
26.6652145484
  0
LWPOLYLINE
  5
374
100
AcDbEntity
  8
RACCORDO
100
AcDbPolyline
 62
7
  6
CONTINUOUS
 90
4
 70
0
 10
-21.9523669336
 20
-26.5488765554
 10
-21.8994930265
 20
-26.6188524851
 10
-21.8817564099
 20
-26.6421651261
 10
-21.8639210243
 20
-26.6652145484
  0
LINE
  5
375
100
AcDbEntity
  8
RACCORDO
100
AcDbLine
 62
7
  6
CONTINUOUS
 10
-67.997808288
 20
26.4823032579
 11
-68.0476330664
 21
26.5488765554
  0
LINE
  5
376
100
AcDbEntity
  8
RACCORDO
100
AcDbLine
 62
7
  6
CONTINUOUS
 10
-22.002191712
 20
-26.4823032579
 11
-21.9523669336
 21
-26.5488765554
  0
LINE
  5
377
100
AcDbEntity
  8
RACCORDO
100
AcDbLine
 62
7
  6
CONTINUOUS
 10
-22.0452176886
 20
-26.4238929617
 11
-22.002191712
 21
-26.4823032579
  0
LWPOLYLINE
  5
378
100
AcDbEntity
  8
RACCORDO
100
AcDbPolyline
 62
7
  6
CONTINUOUS
 90
3
 70
0
 10
-22.0757173472
 20
-26.3812887508
 10
-22.0572764491
 20
-26.4071375943
 10
-22.0452176886
 20
-26.4238929617
  0
LINE
  5
379
100
AcDbEntity
  8
RACCORDO
100
AcDbLine
 62
7
  6
CONTINUOUS
 10
-44.574658487
 20
26.3773370308
 11
-44.6838167081
 21
26.7847210577
  0
LINE
  5
37A
100
AcDbEntity
  8
0
100
AcDbLine
 62
7
  6
CONTINUOUS
 10
-27.3
 20
34.8
 11
-27.3
 21
28.2
  0
LINE
  5
37B
100
AcDbEntity
  8
0
100
AcDbLine
 62
7
  6
CONTINUOUS
 10
-26.5
 20
-33.75
 11
-26.5
 21
-29.25
  0
LINE
  5
37C
100
AcDbEntity
  8
RACCORDO
100
AcDbLine
 62
7
  6
CONTINUOUS
 10
-25.0
 20
-24.75
 11
-25.0
 21
-22.564144533
  0
LINE
  5
37D
100
AcDbEntity
  8
0
100
AcDbLine
 62
7
  6
CONTINUOUS
 10
-25.0
 20
-22.5449439616
 11
-25.0
 21
-22.564144533
  0
LINE
  5
37E
100
AcDbEntity
  8
0
100
AcDbLine
 62
7
  6
CONTINUOUS
 10
-25.0
 20
22.5449439616
 11
-25.0
 21
22.564144533
  0
LINE
  5
37F
100
AcDbEntity
  8
RACCORDO
100
AcDbLine
 62
7
  6
CONTINUOUS
 10
-25.0
 20
22.564144533
 11
-25.0
 21
24.75
  0
LINE
  5
380
100
AcDbEntity
  8
RACCORDO
100
AcDbLine
 62
7
  6
CONTINUOUS
 10
-22.8161832919
 20
26.7847210577
 11
-22.925341513
 21
26.3773370308
  0
LINE
  5
381
100
AcDbEntity
  8
0
100
AcDbLine
 62
7
  6
CONTINUOUS
 10
-17.312273
 20
33.450078
 11
-18.040588
 21
30.910144
  0
LINE
  5
382
100
AcDbEntity
  8
0
100
AcDbLine
 62
7
  6
CONTINUOUS
 10
-16.913118
 20
32.121806
 11
-17.650588
 21
29.549912
  0
LINE
  5
383
100
AcDbEntity
  8
0
100
AcDbLine
 62
7
  6
CONTINUOUS
 10
-14.36086
 20
33.450088
 11
-15.613062
 21
29.549902
  0
LINE
  5
384
100
AcDbEntity
  8
0
100
AcDbLine
 62
7
  6
CONTINUOUS
 10
-14.586777
 20
30.316906
 11
-14.833033
 21
29.549912
  0
LINE
  5
385
100
AcDbEntity
  8
0
100
AcDbLine
 62
7
  6
CONTINUOUS
 10
-13.970831
 20
32.235384
 11
-14.348848
 21
31.057935
  0
LINE
  5
386
100
AcDbEntity
  8
0
100
AcDbLine
 62
7
  6
CONTINUOUS
 10
-47.629616
 20
-31.464017
 11
-47.098929
 21
-30.575
  0
LINE
  5
387
100
AcDbEntity
  8
0
100
AcDbLine
 62
7
  6
CONTINUOUS
 10
-47.50349
 20
-31.680362
 11
-46.805084
 21
-30.575
  0
LINE
  5
388
100
AcDbEntity
  8
RACCORDO
100
AcDbLine
 62
7
  6
CONTINUOUS
 10
-64.682563199
 20
-25.2358321508
 11
-64.6965910318
 21
-25.25
  0
LINE
  5
389
100
AcDbEntity
  8
RACCORDO
100
AcDbLine
 62
7
  6
CONTINUOUS
 10
-64.559235789
 20
-25.112663254
 11
-64.682563199
 21
-25.2358321508
  0
LWPOLYLINE
  5
38A
100
AcDbEntity
  8
RACCORDO
100
AcDbPolyline
 62
7
  6
CONTINUOUS
 90
3
 70
0
 10
-64.5265032341
 20
-25.0799324336
 10
-64.5475371585
 20
-25.1008518854
 10
-64.559235789
 20
-25.112663254
  0
LINE
  5
38B
100
AcDbEntity
  8
RACCORDO
100
AcDbLine
 62
7
  6
CONTINUOUS
 10
25.554049825
 20
-26.3507451384
 11
25.3254755779
 21
-26.3761193498
  0
LINE
  5
38C
100
AcDbEntity
  8
RACCORDO
100
AcDbLine
 62
7
  6
CONTINUOUS
 10
3.054049825
 20
-26.3507451384
 11
2.8254755779
 21
-26.3761193498
  0
LINE
  5
38D
100
AcDbEntity
  8
RACCORDO
100
AcDbLine
 62
7
  6
CONTINUOUS
 10
-19.445950175
 20
-26.3507451384
 11
-19.6745244221
 21
-26.3761193498
  0
LINE
  5
38E
100
AcDbEntity
  8
RACCORDO
100
AcDbLine
 62
7
  6
CONTINUOUS
 10
48.054046085
 20
-26.3507455535
 11
48.0497159726
 21
-26.3511790585
  0
LINE
  5
38F
100
AcDbEntity
  8
RACCORDO
100
AcDbLine
 62
7
  6
CONTINUOUS
 10
25.554046085
 20
-26.3507455535
 11
25.5497159726
 21
-26.3511790585
  0
LINE
  5
390
100
AcDbEntity
  8
RACCORDO
100
AcDbLine
 62
7
  6
CONTINUOUS
 10
3.054046085
 20
-26.3507455535
 11
3.0497159726
 21
-26.3511790585
  0
LINE
  5
391
100
AcDbEntity
  8
RACCORDO
100
AcDbLine
 62
7
  6
CONTINUOUS
 10
-19.445953915
 20
-26.3507455535
 11
-19.4502840274
 21
-26.3511790585
  0
LINE
  5
392
100
AcDbEntity
  8
0
100
AcDbLine
 62
7
  6
CONTINUOUS
 10
-16.693766134
 20
-30.9763090108
 11
-16.4353502742
 21
-30.9555170221
  0
LINE
  5
393
100
AcDbEntity
  8
0
100
AcDbLine
 62
7
  6
CONTINUOUS
 10
-16.1412908578
 20
-32.0040319892
 11
-15.8680235153
 21
-31.9832399631
  0
LWPOLYLINE
  5
394
100
AcDbEntity
  8
0
100
AcDbPolyline
 62
7
  6
CONTINUOUS
 90
28
 70
0
 10
-60.5658705306
 20
-32.211199
 10
-60.5291566247
 20
-32.2091133545
 10
-60.492991485
 20
-32.2045749602
 10
-60.4573751115
 20
-32.1975836594
 10
-60.422082646
 20
-32.1881155094
 10
-60.3873389467
 20
-32.1761938806
 10
-60.3538185886
 20
-32.1618894707
 10
-60.3215958268
 20
-32.1451472966
 10
-60.2905964063
 20
-32.1260212973
 10
-60.2612721362
 20
-32.1047455129
 10
-60.2336435095
 20
-32.0812075762
 10
-60.2076900333
 20
-32.0555185019
 10
-60.1838020385
 20
-32.0282475778
 10
-60.1621159727
 20
-31.9994361225
 10
-60.1424953883
 20
-31.9690416346
 10
-60.1249212738
 20
-31.9375080139
 10
-60.1095310583
 20
-31.9048272699
 10
-60.0961873127
 20
-31.8710064413
 10
-60.0844587384
 20
-31.8365123495
 10
-60.0743544477
 20
-31.801446951
 10
-60.0658653282
 20
-31.7657077521
 10
-60.0585327439
 20
-31.7294551832
 10
-60.0521488656
 20
-31.6927969677
 10
-60.0469215224
 20
-31.6556249909
 10
-60.0430155657
 20
-31.6177759219
 10
-60.040485946
 20
-31.5791950842
 10
-60.0392777127
 20
-31.5399365434
 10
-60.039390866
 20
-31.5
  0
LINE
  5
395
100
AcDbEntity
  8
RACCORDO
100
AcDbLine
 62
7
  6
CONTINUOUS
 10
70.3034089682
 20
-26.3773370308
 11
70.3199723374
 21
-26.3766531592
  0
LINE
  5
396
100
AcDbEntity
  8
RACCORDO
100
AcDbLine
 62
7
  6
CONTINUOUS
 10
47.8034089682
 20
-26.3773370308
 11
47.8199723374
 21
-26.3766531592
  0
LINE
  5
397
100
AcDbEntity
  8
RACCORDO
100
AcDbLine
 62
7
  6
CONTINUOUS
 10
25.3034089682
 20
-26.3773370308
 11
25.3199723374
 21
-26.3766531592
  0
LINE
  5
398
100
AcDbEntity
  8
RACCORDO
100
AcDbLine
 62
7
  6
CONTINUOUS
 10
2.8034089682
 20
-26.3773370308
 11
2.8199723374
 21
-26.3766531592
  0
LINE
  5
399
100
AcDbEntity
  8
RACCORDO
100
AcDbLine
 62
7
  6
CONTINUOUS
 10
-19.6965910318
 20
-26.3773370308
 11
-19.6800276626
 21
-26.3766531592
  0
LINE
  5
39A
100
AcDbEntity
  8
RACCORDO
100
AcDbLine
 62
7
  6
CONTINUOUS
 10
-42.1965910318
 20
-26.3773370308
 11
-42.1800276626
 21
-26.3766531592
  0
LINE
  5
39B
100
AcDbEntity
  8
0
100
AcDbLine
 62
7
  6
CONTINUOUS
 10
-59.18608
 20
-30.796581
 11
-58.088438
 21
-30.796581
  0
LINE
  5
39C
100
AcDbEntity
  8
0
100
AcDbLine
 62
7
  6
CONTINUOUS
 10
-53.177238
 20
-30.796581
 11
-52.551095
 21
-30.796581
  0
LINE
  5
39D
100
AcDbEntity
  8
0
100
AcDbLine
 62
7
  6
CONTINUOUS
 10
-52.301192
 20
-30.796581
 11
-51.67505
 21
-30.796581
  0
LINE
  5
39E
100
AcDbEntity
  8
0
100
AcDbLine
 62
7
  6
CONTINUOUS
 10
-61.05933
 20
-30.788801
 11
-60.5658705306
 21
-30.788801
  0
LINE
  5
39F
100
AcDbEntity
  8
0
100
AcDbLine
 62
7
  6
CONTINUOUS
 10
-15.680524
 20
-30.711953
 11
-14.83436
 21
-30.711953
  0
LINE
  5
3A0
100
AcDbEntity
  8
0
100
AcDbLine
 62
7
  6
CONTINUOUS
 10
-14.474954
 20
-30.711953
 11
-13.4353505906
 21
-30.711953
  0
LINE
  5
3A1
100
AcDbEntity
  8
0
100
AcDbLine
 62
7
  6
CONTINUOUS
 10
-65.194916
 20
-30.575
 11
-64.836753
 21
-30.575
  0
LINE
  5
3A2
100
AcDbEntity
  8
0
100
AcDbLine
 62
7
  6
CONTINUOUS
 10
-63.77776
 20
-30.575
 11
-63.422138
 21
-30.575
  0
LINE
  5
3A3
100
AcDbEntity
  8
0
100
AcDbLine
 62
7
  6
CONTINUOUS
 10
-62.504888
 20
-30.575
 11
-62.221411
 21
-30.575
  0
LINE
  5
3A4
100
AcDbEntity
  8
0
100
AcDbLine
 62
7
  6
CONTINUOUS
 10
-61.309338
 20
-30.575
 11
-60.5516423485
 21
-30.575
  0
LINE
  5
3A5
100
AcDbEntity
  8
0
100
AcDbLine
 62
7
  6
CONTINUOUS
 10
-59.436073
 20
-30.575
 11
-58.088438
 21
-30.575
  0
LINE
  5
3A6
100
AcDbEntity
  8
0
100
AcDbLine
 62
7
  6
CONTINUOUS
 10
-56.988148
 20
-30.575
 11
-56.73823
 21
-30.575
  0
LINE
  5
3A7
100
AcDbEntity
  8
0
100
AcDbLine
 62
7
  6
CONTINUOUS
 10
-56.310568
 20
-30.575
 11
-56.014194
 21
-30.575
  0
LINE
  5
3A8
100
AcDbEntity
  8
0
100
AcDbLine
 62
7
  6
CONTINUOUS
 10
-55.083957
 20
-30.575
 11
-54.841774
 21
-30.575
  0
LINE
  5
3A9
100
AcDbEntity
  8
0
100
AcDbLine
 62
7
  6
CONTINUOUS
 10
-53.695208
 20
-30.575
 11
-53.445215
 21
-30.575
  0
LINE
  5
3AA
100
AcDbEntity
  8
0
100
AcDbLine
 62
7
  6
CONTINUOUS
 10
-53.177238
 20
-30.575
 11
-51.67505
 21
-30.575
  0
LINE
  5
3AB
100
AcDbEntity
  8
0
100
AcDbLine
 62
7
  6
CONTINUOUS
 10
-50.907161
 20
-30.575
 11
-50.623774
 21
-30.575
  0
LINE
  5
3AC
100
AcDbEntity
  8
0
100
AcDbLine
 62
7
  6
CONTINUOUS
 10
-49.724538
 20
-30.575
 11
-49.47453
 21
-30.575
  0
LINE
  5
3AD
100
AcDbEntity
  8
0
100
AcDbLine
 62
7
  6
CONTINUOUS
 10
-48.451606
 20
-30.575
 11
-48.160454
 21
-30.575
  0
LINE
  5
3AE
100
AcDbEntity
  8
0
100
AcDbLine
 62
7
  6
CONTINUOUS
 10
-47.098929
 20
-30.575
 11
-46.805084
 21
-30.575
  0
LINE
  5
3AF
100
AcDbEntity
  8
0
100
AcDbLine
 62
7
  6
CONTINUOUS
 10
-15.888816
 20
-30.462448
 11
-14.83436
 21
-30.462448
  0
LINE
  5
3B0
100
AcDbEntity
  8
0
100
AcDbLine
 62
7
  6
CONTINUOUS
 10
-14.474954
 20
-30.462448
 11
-13.099707
 21
-30.462448
  0
LINE
  5
3B1
100
AcDbEntity
  8
0
100
AcDbLine
 62
7
  6
CONTINUOUS
 10
-18.562083
 20
-30.435715
 11
-18.348222
 21
-30.435715
  0
LINE
  5
3B2
100
AcDbEntity
  8
0
100
AcDbLine
 62
7
  6
CONTINUOUS
 10
-20.284019756
 20
-30.426804
 11
-20.115548
 21
-30.426804
  0
LINE
  5
3B3
100
AcDbEntity
  8
0
100
AcDbLine
 62
7
  6
CONTINUOUS
 10
10.548534
 20
-29.833154
 11
10.951602
 21
-29.833154
  0
LINE
  5
3B4
100
AcDbEntity
  8
0
100
AcDbLine
 62
7
  6
CONTINUOUS
 10
11.454665
 20
-29.833154
 11
11.85757
 21
-29.833154
  0
LINE
  5
3B5
100
AcDbEntity
  8
0
100
AcDbLine
 62
7
  6
CONTINUOUS
 10
10.548534
 20
-29.358337
 11
11.85757
 21
-29.358337
  0
LINE
  5
3B6
100
AcDbEntity
  8
0
100
AcDbLine
 62
7
  6
CONTINUOUS
 10
-66.0
 20
-29.25
 11
-46.0
 21
-29.25
  0
LINE
  5
3B7
100
AcDbEntity
  8
0
100
AcDbLine
 62
7
  6
CONTINUOUS
 10
-26.5
 20
-29.25
 11
-6.5
 21
-29.25
  0
LINE
  5
3B8
100
AcDbEntity
  8
0
100
AcDbLine
 62
7
  6
CONTINUOUS
 10
46.0
 20
-29.25
 11
66.0
 21
-29.25
  0
LINE
  5
3B9
100
AcDbEntity
  8
0
100
AcDbLine
 62
7
  6
CONTINUOUS
 10
6.5
 20
-28.0
 11
28.2
 21
-28.0
  0
LINE
  5
3BA
100
AcDbEntity
  8
RACCORDO
100
AcDbLine
 62
7
  6
CONTINUOUS
 10
-70.3034089682
 20
-26.3773370308
 11
-67.925341513
 21
-26.3773370308
  0
LINE
  5
3BB
100
AcDbEntity
  8
RACCORDO
100
AcDbLine
 62
7
  6
CONTINUOUS
 10
-67.074658487
 20
-26.3773370308
 11
-64.6965910318
 21
-26.3773370308
  0
LINE
  5
3BC
100
AcDbEntity
  8
RACCORDO
100
AcDbLine
 62
7
  6
CONTINUOUS
 10
-47.8034089682
 20
-26.3773370308
 11
-45.425341513
 21
-26.3773370308
  0
LINE
  5
3BD
100
AcDbEntity
  8
RACCORDO
100
AcDbLine
 62
7
  6
CONTINUOUS
 10
-44.574658487
 20
-26.3773370308
 11
-42.1965910318
 21
-26.3773370308
  0
LINE
  5
3BE
100
AcDbEntity
  8
RACCORDO
100
AcDbLine
 62
7
  6
CONTINUOUS
 10
-25.3034089682
 20
-26.3773370308
 11
-22.925341513
 21
-26.3773370308
  0
LINE
  5
3BF
100
AcDbEntity
  8
RACCORDO
100
AcDbLine
 62
7
  6
CONTINUOUS
 10
-22.074658487
 20
-26.3773370308
 11
-19.6965910318
 21
-26.3773370308
  0
LINE
  5
3C0
100
AcDbEntity
  8
RACCORDO
100
AcDbLine
 62
7
  6
CONTINUOUS
 10
-2.8034089682
 20
-26.3773370308
 11
-0.425341513
 21
-26.3773370308
  0
LINE
  5
3C1
100
AcDbEntity
  8
RACCORDO
100
AcDbLine
 62
7
  6
CONTINUOUS
 10
0.425341513
 20
-26.3773370308
 11
2.8034089682
 21
-26.3773370308
  0
LINE
  5
3C2
100
AcDbEntity
  8
RACCORDO
100
AcDbLine
 62
7
  6
CONTINUOUS
 10
19.6965910318
 20
-26.3773370308
 11
22.074658487
 21
-26.3773370308
  0
LINE
  5
3C3
100
AcDbEntity
  8
RACCORDO
100
AcDbLine
 62
7
  6
CONTINUOUS
 10
22.925341513
 20
-26.3773370308
 11
25.3034089682
 21
-26.3773370308
  0
LINE
  5
3C4
100
AcDbEntity
  8
RACCORDO
100
AcDbLine
 62
7
  6
CONTINUOUS
 10
42.1965910318
 20
-26.3773370308
 11
44.574658487
 21
-26.3773370308
  0
LINE
  5
3C5
100
AcDbEntity
  8
RACCORDO
100
AcDbLine
 62
7
  6
CONTINUOUS
 10
45.425341513
 20
-26.3773370308
 11
47.8034089682
 21
-26.3773370308
  0
LINE
  5
3C6
100
AcDbEntity
  8
RACCORDO
100
AcDbLine
 62
7
  6
CONTINUOUS
 10
64.6965910318
 20
-26.3773370308
 11
67.074658487
 21
-26.3773370308
  0
LINE
  5
3C7
100
AcDbEntity
  8
RACCORDO
100
AcDbLine
 62
7
  6
CONTINUOUS
 10
67.925341513
 20
-26.3773370308
 11
70.3034089682
 21
-26.3773370308
  0
LINE
  5
3C8
100
AcDbEntity
  8
RACCORDO
100
AcDbLine
 62
7
  6
CONTINUOUS
 10
-3.5345851468
 20
-25.3
 11
3.5345851468
 21
-25.3
  0
LINE
  5
3C9
100
AcDbEntity
  8
RACCORDO
100
AcDbLine
 62
7
  6
CONTINUOUS
 10
18.9654148532
 20
-25.3
 11
26.0345851468
 21
-25.3
  0
LINE
  5
3CA
100
AcDbEntity
  8
RACCORDO
100
AcDbLine
 62
7
  6
CONTINUOUS
 10
-18.9654148532
 20
-25.3
 11
-26.0345851468
 21
-25.3
  0
LINE
  5
3CB
100
AcDbEntity
  8
RACCORDO
100
AcDbLine
 62
7
  6
CONTINUOUS
 10
41.4654148532
 20
-25.3
 11
48.5345851468
 21
-25.3
  0
LINE
  5
3CC
100
AcDbEntity
  8
RACCORDO
100
AcDbLine
 62
7
  6
CONTINUOUS
 10
-41.4654148532
 20
-25.3
 11
-48.5345851468
 21
-25.3
  0
LINE
  5
3CD
100
AcDbEntity
  8
0
100
AcDbLine
 62
7
  6
CONTINUOUS
 10
-70.7211757214
 20
-25.05
 11
-70.7054533876
 21
-25.05
  0
LINE
  5
3CE
100
AcDbEntity
  8
0
100
AcDbLine
 62
7
  6
CONTINUOUS
 10
-70.6949718318
 20
-25.05
 11
-70.679249498
 21
-25.05
  0
LINE
  5
3CF
100
AcDbEntity
  8
0
100
AcDbLine
 62
7
  6
CONTINUOUS
 10
-70.6687679421
 20
-25.05
 11
-70.6530456083
 21
-25.05
  0
LINE
  5
3D0
100
AcDbEntity
  8
0
100
AcDbLine
 62
7
  6
CONTINUOUS
 10
-70.6425640525
 20
-25.05
 11
-70.6268417187
 21
-25.05
  0
LINE
  5
3D1
100
AcDbEntity
  8
0
100
AcDbLine
 62
7
  6
CONTINUOUS
 10
-70.6163601628
 20
-25.05
 11
-70.600637829
 21
-25.05
  0
LINE
  5
3D2
100
AcDbEntity
  8
0
100
AcDbLine
 62
7
  6
CONTINUOUS
 10
-70.5901562732
 20
-25.05
 11
-70.5744339394
 21
-25.05
  0
LINE
  5
3D3
100
AcDbEntity
  8
0
100
AcDbLine
 62
7
  6
CONTINUOUS
 10
-70.5639523835
 20
-25.05
 11
-70.5482300498
 21
-25.05
  0
LINE
  5
3D4
100
AcDbEntity
  8
0
100
AcDbLine
 62
7
  6
CONTINUOUS
 10
-70.5377484939
 20
-25.05
 11
-70.5220261601
 21
-25.05
  0
LINE
  5
3D5
100
AcDbEntity
  8
0
100
AcDbLine
 62
7
  6
CONTINUOUS
 10
-64.4517699502
 20
-25.05
 11
-64.4360476165
 21
-25.05
  0
LINE
  5
3D6
100
AcDbEntity
  8
0
100
AcDbLine
 62
7
  6
CONTINUOUS
 10
-64.4779738399
 20
-25.05
 11
-64.4622515061
 21
-25.05
  0
LINE
  5
3D7
100
AcDbEntity
  8
RACCORDO
100
AcDbLine
 62
7
  6
CONTINUOUS
 10
-64.2788242786
 20
-25.05
 11
-63.9653253569
 21
-25.05
  0
LINE
  5
3D8
100
AcDbEntity
  8
0
100
AcDbLine
 62
7
  6
CONTINUOUS
 10
-64.2945466124
 20
-25.05
 11
-64.2788242786
 21
-25.05
  0
LINE
  5
3D9
100
AcDbEntity
  8
0
100
AcDbLine
 62
7
  6
CONTINUOUS
 10
-64.320750502
 20
-25.05
 11
-64.3050281682
 21
-25.05
  0
LINE
  5
3DA
100
AcDbEntity
  8
0
100
AcDbLine
 62
7
  6
CONTINUOUS
 10
-64.3469543917
 20
-25.05
 11
-64.3312320579
 21
-25.05
  0
LINE
  5
3DB
100
AcDbEntity
  8
0
100
AcDbLine
 62
7
  6
CONTINUOUS
 10
-64.3731582813
 20
-25.05
 11
-64.3574359475
 21
-25.05
  0
LINE
  5
3DC
100
AcDbEntity
  8
0
100
AcDbLine
 62
7
  6
CONTINUOUS
 10
-64.399362171
 20
-25.05
 11
-64.3836398372
 21
-25.05
  0
LINE
  5
3DD
100
AcDbEntity
  8
0
100
AcDbLine
 62
7
  6
CONTINUOUS
 10
-64.4255660606
 20
-25.05
 11
-64.4098437268
 21
-25.05
  0
LINE
  5
3DE
100
AcDbEntity
  8
RACCORDO
100
AcDbLine
 62
7
  6
CONTINUOUS
 10
-47.2
 20
-25.05
 11
-42.8
 21
-25.05
  0
LINE
  5
3DF
100
AcDbEntity
  8
RACCORDO
100
AcDbLine
 62
7
  6
CONTINUOUS
 10
-24.7
 20
-25.05
 11
-20.3
 21
-25.05
  0
LINE
  5
3E0
100
AcDbEntity
  8
RACCORDO
100
AcDbLine
 62
7
  6
CONTINUOUS
 10
-2.2
 20
-25.05
 11
2.2
 21
-25.05
  0
LINE
  5
3E1
100
AcDbEntity
  8
RACCORDO
100
AcDbLine
 62
7
  6
CONTINUOUS
 10
20.3
 20
-25.05
 11
24.7
 21
-25.05
  0
LINE
  5
3E2
100
AcDbEntity
  8
RACCORDO
100
AcDbLine
 62
7
  6
CONTINUOUS
 10
42.8
 20
-25.05
 11
47.2
 21
-25.05
  0
LINE
  5
3E3
100
AcDbEntity
  8
RACCORDO
100
AcDbLine
 62
7
  6
CONTINUOUS
 10
63.9653253569
 20
-25.05
 11
64.2788242786
 21
-25.05
  0
LINE
  5
3E4
100
AcDbEntity
  8
0
100
AcDbLine
 62
7
  6
CONTINUOUS
 10
64.2788242786
 20
-25.05
 11
64.2945466124
 21
-25.05
  0
LINE
  5
3E5
100
AcDbEntity
  8
0
100
AcDbLine
 62
7
  6
CONTINUOUS
 10
64.3050281682
 20
-25.05
 11
64.320750502
 21
-25.05
  0
LINE
  5
3E6
100
AcDbEntity
  8
0
100
AcDbLine
 62
7
  6
CONTINUOUS
 10
64.3312320579
 20
-25.05
 11
64.3469543917
 21
-25.05
  0
LINE
  5
3E7
100
AcDbEntity
  8
0
100
AcDbLine
 62
7
  6
CONTINUOUS
 10
64.3574359475
 20
-25.05
 11
64.3731582813
 21
-25.05
  0
LINE
  5
3E8
100
AcDbEntity
  8
0
100
AcDbLine
 62
7
  6
CONTINUOUS
 10
64.3836398372
 20
-25.05
 11
64.399362171
 21
-25.05
  0
LINE
  5
3E9
100
AcDbEntity
  8
0
100
AcDbLine
 62
7
  6
CONTINUOUS
 10
64.4098437268
 20
-25.05
 11
64.4255660606
 21
-25.05
  0
LINE
  5
3EA
100
AcDbEntity
  8
0
100
AcDbLine
 62
7
  6
CONTINUOUS
 10
64.4360476165
 20
-25.05
 11
64.4517699502
 21
-25.05
  0
LINE
  5
3EB
100
AcDbEntity
  8
0
100
AcDbLine
 62
7
  6
CONTINUOUS
 10
64.4622515061
 20
-25.05
 11
64.4779738399
 21
-25.05
  0
LINE
  5
3EC
100
AcDbEntity
  8
RACCORDO
100
AcDbLine
 62
7
  6
CONTINUOUS
 10
-64.4779738399
 20
-25.05
 11
-70.5220261601
 21
-25.05
  0
LINE
  5
3ED
100
AcDbEntity
  8
0
100
AcDbLine
 62
7
  6
CONTINUOUS
 10
70.679249498
 20
-25.05
 11
70.6949718318
 21
-25.05
  0
LINE
  5
3EE
100
AcDbEntity
  8
0
100
AcDbLine
 62
7
  6
CONTINUOUS
 10
70.6530456083
 20
-25.05
 11
70.6687679421
 21
-25.05
  0
LINE
  5
3EF
100
AcDbEntity
  8
0
100
AcDbLine
 62
7
  6
CONTINUOUS
 10
70.6268417187
 20
-25.05
 11
70.6425640525
 21
-25.05
  0
LINE
  5
3F0
100
AcDbEntity
  8
0
100
AcDbLine
 62
7
  6
CONTINUOUS
 10
70.600637829
 20
-25.05
 11
70.6163601628
 21
-25.05
  0
LINE
  5
3F1
100
AcDbEntity
  8
0
100
AcDbLine
 62
7
  6
CONTINUOUS
 10
70.5744339394
 20
-25.05
 11
70.5901562732
 21
-25.05
  0
LINE
  5
3F2
100
AcDbEntity
  8
0
100
AcDbLine
 62
7
  6
CONTINUOUS
 10
70.5482300498
 20
-25.05
 11
70.5639523835
 21
-25.05
  0
LINE
  5
3F3
100
AcDbEntity
  8
0
100
AcDbLine
 62
7
  6
CONTINUOUS
 10
70.5220261601
 20
-25.05
 11
70.5377484939
 21
-25.05
  0
LINE
  5
3F4
100
AcDbEntity
  8
RACCORDO
100
AcDbLine
 62
7
  6
CONTINUOUS
 10
64.4779738399
 20
-25.05
 11
70.5220261601
 21
-25.05
  0
LINE
  5
3F5
100
AcDbEntity
  8
RACCORDO
100
AcDbLine
 62
7
  6
CONTINUOUS
 10
-70.7211757214
 20
-25.05
 11
-71.0346746431
 21
-25.05
  0
LINE
  5
3F6
100
AcDbEntity
  8
0
100
AcDbLine
 62
7
  6
CONTINUOUS
 10
70.7054533876
 20
-25.05
 11
70.7211757214
 21
-25.05
  0
LINE
  5
3F7
100
AcDbEntity
  8
RACCORDO
100
AcDbLine
 62
7
  6
CONTINUOUS
 10
70.7211757214
 20
-25.05
 11
71.0346746431
 21
-25.05
  0
LINE
  5
3F8
100
AcDbEntity
  8
RACCORDO
100
AcDbLine
 62
7
  6
CONTINUOUS
 10
2.5
 20
-23.5450658241
 11
-2.5
 21
-23.5450658241
  0
LINE
  5
3F9
100
AcDbEntity
  8
RACCORDO
100
AcDbLine
 62
7
  6
CONTINUOUS
 10
20.0
 20
-23.5450658241
 11
25.0
 21
-23.5450658241
  0
LINE
  5
3FA
100
AcDbEntity
  8
RACCORDO
100
AcDbLine
 62
7
  6
CONTINUOUS
 10
-20.0
 20
-23.5450658241
 11
-25.0
 21
-23.5450658241
  0
LINE
  5
3FB
100
AcDbEntity
  8
RACCORDO
100
AcDbLine
 62
7
  6
CONTINUOUS
 10
42.5
 20
-23.5450658241
 11
47.5
 21
-23.5450658241
  0
LINE
  5
3FC
100
AcDbEntity
  8
RACCORDO
100
AcDbLine
 62
7
  6
CONTINUOUS
 10
-42.5
 20
-23.5450658241
 11
-47.5
 21
-23.5450658241
  0
LINE
  5
3FD
100
AcDbEntity
  8
RACCORDO
100
AcDbLine
 62
7
  6
CONTINUOUS
 10
65.0
 20
-23.5450658241
 11
70.0
 21
-23.5450658241
  0
LINE
  5
3FE
100
AcDbEntity
  8
RACCORDO
100
AcDbLine
 62
7
  6
CONTINUOUS
 10
-65.0
 20
-23.5450658241
 11
-70.0
 21
-23.5450658241
  0
LINE
  5
3FF
100
AcDbEntity
  8
0
100
AcDbLine
 62
7
  6
CONTINUOUS
 10
70.0
 20
-23.3450658241
 11
65.0
 21
-23.3450658241
  0
LINE
  5
400
100
AcDbEntity
  8
0
100
AcDbLine
 62
7
  6
CONTINUOUS
 10
47.5
 20
-23.3450658241
 11
42.5
 21
-23.3450658241
  0
LINE
  5
401
100
AcDbEntity
  8
0
100
AcDbLine
 62
7
  6
CONTINUOUS
 10
25.0
 20
-23.3450658241
 11
20.0
 21
-23.3450658241
  0
LINE
  5
402
100
AcDbEntity
  8
0
100
AcDbLine
 62
7
  6
CONTINUOUS
 10
2.5
 20
-23.3450658241
 11
-2.5
 21
-23.3450658241
  0
LINE
  5
403
100
AcDbEntity
  8
0
100
AcDbLine
 62
7
  6
CONTINUOUS
 10
-20.0
 20
-23.3450658241
 11
-25.0
 21
-23.3450658241
  0
LINE
  5
404
100
AcDbEntity
  8
0
100
AcDbLine
 62
7
  6
CONTINUOUS
 10
-42.5
 20
-23.3450658241
 11
-47.5
 21
-23.3450658241
  0
LINE
  5
405
100
AcDbEntity
  8
0
100
AcDbLine
 62
7
  6
CONTINUOUS
 10
-65.0
 20
-23.3450658241
 11
-70.0
 21
-23.3450658241
  0
LWPOLYLINE
  5
406
100
AcDbEntity
  8
0
100
AcDbPolyline
 62
7
  6
CONTINUOUS
 90
28
 70
0
 10
50.0
 20
-29.75
 10
50.1519327772
 20
-29.7545890298
 10
50.3001506453
 20
-29.7661904237
 10
50.4446536043
 20
-29.7848034278
 10
50.5858837417
 20
-29.8108197081
 10
50.7233989701
 20
-29.8438446149
 10
50.8558730264
 20
-29.8826975742
 10
50.9829598559
 20
-29.9272486719
 10
51.1050055134
 20
-29.9776231415
 10
51.2217219007
 20
-30.0330233348
 10
51.3334437336
 20
-30.0936849635
 10
51.4398362963
 20
-30.1593662527
 10
51.5396073425
 20
-30.2285542242
 10
51.6324667515
 20
-30.3012689485
 10
51.718704644
 20
-30.3774848031
 10
51.797899136
 20
-30.455622211
 10
51.8696601082
 20
-30.5352342919
 10
51.93437768
 20
-30.6167642945
 10
51.9928003256
 20
-30.6999691642
 10
52.0451440666
 20
-30.7849589562
 10
52.0911928814
 20
-30.8716196103
 10
52.1310471796
 20
-30.9593725638
 10
52.1647269023
 20
-31.0483052818
 10
52.1922121082
 20
-31.1383270524
 10
52.213543383
 20
-31.2285934445
 10
52.228734255
 20
-31.3188228664
 10
52.2377711959
 20
-31.4092955646
 10
52.2406542056
 20
-31.500010752
  0
LWPOLYLINE
  5
407
100
AcDbEntity
  8
RACCORDO
100
AcDbPolyline
 62
7
  6
CONTINUOUS
 90
3
 70
0
 10
-70.5318238005
 20
-26.3519805162
 10
-70.5495024571
 20
-26.3511980025
 10
-70.5540463365
 20
-26.3507455256
  0
LWPOLYLINE
  5
408
100
AcDbEntity
  8
RACCORDO
100
AcDbPolyline
 62
7
  6
CONTINUOUS
 90
3
 70
0
 10
-48.0318238005
 20
-26.3519805162
 10
-48.0495024571
 20
-26.3511980025
 10
-48.0540463365
 20
-26.3507455256
  0
LWPOLYLINE
  5
409
100
AcDbEntity
  8
RACCORDO
100
AcDbPolyline
 62
7
  6
CONTINUOUS
 90
3
 70
0
 10
-25.5318238005
 20
-26.3519805162
 10
-25.5495024571
 20
-26.3511980025
 10
-25.5540463365
 20
-26.3507455256
  0
LWPOLYLINE
  5
40A
100
AcDbEntity
  8
RACCORDO
100
AcDbPolyline
 62
7
  6
CONTINUOUS
 90
3
 70
0
 10
-3.0318238005
 20
-26.3519805162
 10
-3.0495024571
 20
-26.3511980025
 10
-3.0540463365
 20
-26.3507455256
  0
LWPOLYLINE
  5
40B
100
AcDbEntity
  8
RACCORDO
100
AcDbPolyline
 62
7
  6
CONTINUOUS
 90
3
 70
0
 10
19.4681761995
 20
-26.3519805162
 10
19.4504975429
 20
-26.3511980025
 10
19.4459536635
 20
-26.3507455256
  0
LWPOLYLINE
  5
40C
100
AcDbEntity
  8
RACCORDO
100
AcDbPolyline
 62
7
  6
CONTINUOUS
 90
3
 70
0
 10
41.9681761995
 20
-26.3519805162
 10
41.9504975429
 20
-26.3511980025
 10
41.9459536635
 20
-26.3507455256
  0
LWPOLYLINE
  5
40D
100
AcDbEntity
  8
RACCORDO
100
AcDbPolyline
 62
7
  6
CONTINUOUS
 90
3
 70
0
 10
64.4681761995
 20
-26.3519805162
 10
64.4504975429
 20
-26.3511980025
 10
64.4459536635
 20
-26.3507455256
  0
LINE
  5
40E
100
AcDbEntity
  8
RACCORDO
100
AcDbLine
 62
7
  6
CONTINUOUS
 10
-25.3254136832
 20
-26.376126211
 11
-25.3034089682
 21
-26.3773370308
  0
LINE
  5
40F
100
AcDbEntity
  8
RACCORDO
100
AcDbLine
 62
7
  6
CONTINUOUS
 10
19.6745863168
 20
-26.376126211
 11
19.6965910318
 21
-26.3773370308
  0
LINE
  5
410
100
AcDbEntity
  8
RACCORDO
100
AcDbLine
 62
7
  6
CONTINUOUS
 10
-47.8254755779
 20
-26.3761193498
 11
-47.8034089682
 21
-26.3773370308
  0
LINE
  5
411
100
AcDbEntity
  8
RACCORDO
100
AcDbLine
 62
7
  6
CONTINUOUS
 10
-2.8254755779
 20
-26.3761193498
 11
-2.8034089682
 21
-26.3773370308
  0
LINE
  5
412
100
AcDbEntity
  8
RACCORDO
100
AcDbLine
 62
7
  6
CONTINUOUS
 10
42.1745244221
 20
-26.3761193498
 11
42.1965910318
 21
-26.3773370308
  0
LINE
  5
413
100
AcDbEntity
  8
RACCORDO
100
AcDbLine
 62
7
  6
CONTINUOUS
 10
-25.5540500014
 20
-26.3507451188
 11
-25.3254755779
 21
-26.3761193498
  0
LINE
  5
414
100
AcDbEntity
  8
RACCORDO
100
AcDbLine
 62
7
  6
CONTINUOUS
 10
-3.0540500014
 20
-26.3507451188
 11
-2.8254755779
 21
-26.3761193498
  0
LINE
  5
415
100
AcDbEntity
  8
RACCORDO
100
AcDbLine
 62
7
  6
CONTINUOUS
 10
19.4459499986
 20
-26.3507451188
 11
19.6745244221
 21
-26.3761193498
  0
LINE
  5
416
100
AcDbEntity
  8
RACCORDO
100
AcDbLine
 62
7
  6
CONTINUOUS
 10
-2.8317533465
 20
-26.375321437
 11
-2.8254755779
 21
-26.3761193498
  0
LWPOLYLINE
  5
417
100
AcDbEntity
  8
RACCORDO
100
AcDbPolyline
 62
7
  6
CONTINUOUS
 90
3
 70
0
 10
-64.5979048019
 20
25.1513345918
 10
-64.6398263528
 20
25.1932564506
 10
-64.682563199
 20
25.2358321508
  0
LINE
  5
418
100
AcDbEntity
  8
RACCORDO
100
AcDbLine
 62
7
  6
CONTINUOUS
 10
-64.5845571555
 20
25.1379046072
 11
-64.5979048019
 21
25.1513345918
  0
LWPOLYLINE
  5
419
100
AcDbEntity
  8
RACCORDO
100
AcDbPolyline
 62
7
  6
CONTINUOUS
 90
3
 70
0
 10
-64.5475371585
 20
25.1008518854
 10
-64.559235789
 20
25.112663254
 10
-64.5845571555
 20
25.1379046072
  0
LINE
  5
41A
100
AcDbEntity
  8
RACCORDO
100
AcDbLine
 62
7
  6
CONTINUOUS
 10
-64.682563199
 20
25.2358321508
 11
-64.6965910318
 21
25.25
  0
LINE
  5
41B
100
AcDbEntity
  8
RACCORDO
100
AcDbLine
 62
7
  6
CONTINUOUS
 10
-22.925341513
 20
-26.3773370308
 11
-22.8161832919
 21
-26.7847210577
  0
LWPOLYLINE
  5
41C
100
AcDbEntity
  8
0
100
AcDbPolyline
 62
7
  6
CONTINUOUS
 90
43
 70
0
 10
-16.693766134
 20
-30.9763090108
 10
-16.7002891185
 20
-30.9483456045
 10
-16.7078815573
 20
-30.9209299174
 10
-16.7165434504
 20
-30.8940621372
 10
-16.7261102032
 20
-30.8675309306
 10
-16.7367464104
 20
-30.8415479503
 10
-16.7489458561
 20
-30.8167480438
 10
-16.7628122968
 20
-30.793197769
 10
-16.7782419759
 20
-30.7708312485
 10
-16.7954174078
 20
-30.7500849472
 10
-16.8144058019
 20
-30.7311343186
 10
-16.8351399488
 20
-30.7138046672
 10
-16.8576007344
 20
-30.6980072782
 10
-16.8817097956
 20
-30.6834838962
 10
-16.9075454955
 20
-30.6704932685
 10
-16.935323809
 20
-30.6597222236
 10
-16.9654876744
 20
-30.6512253614
 10
-16.9975941535
 20
-30.6449485589
 10
-17.0305304061
 20
-30.6414156116
 10
-17.0643249685
 20
-30.6406742652
 10
-17.0989493044
 20
-30.6426769037
 10
-17.1332049652
 20
-30.6478041815
 10
-17.166802819
 20
-30.6559805908
 10
-17.2000319977
 20
-30.667281185
 10
-17.2325614481
 20
-30.6823122133
 10
-17.2645164124
 20
-30.701452826
 10
-17.2957716483
 20
-30.7243224056
 10
-17.3256203756
 20
-30.7503873701
 10
-17.3539431045
 20
-30.7795809344
 10
-17.3808593247
 20
-30.8119678886
 10
-17.4060207245
 20
-30.8472120853
 10
-17.4294912398
 20
-30.8852509497
 10
-17.4512069347
 20
-30.9261446184
 10
-17.4706276906
 20
-30.9697410424
 10
-17.4875676162
 20
-31.0161765374
 10
-17.5022126028
 20
-31.0653117799
 10
-17.5145802058
 20
-31.1165814992
 10
-17.5244819998
 20
-31.1699346743
 10
-17.5321064102
 20
-31.225419483
 10
-17.5380362689
 20
-31.2826199411
 10
-17.5424658531
 20
-31.3413966085
 10
-17.5452008856
 20
-31.4018862788
 10
-17.5462413664
 20
-31.4640875076
  0
LWPOLYLINE
  5
41D
100
AcDbEntity
  8
0
100
AcDbPolyline
 62
7
  6
CONTINUOUS
 90
40
 70
0
 10
-17.5046572079
 20
-31.8731995458
 10
-17.5027739626
 20
-31.9189749288
 10
-17.4978739055
 20
-31.9635532861
 10
-17.4899570366
 20
-32.0069352821
 10
-17.4788892214
 20
-32.0493660933
 10
-17.4648045944
 20
-32.0906017466
 10
-17.4481055589
 20
-32.1299095836
 10
-17.4288295105
 20
-32.1674148377
 10
-17.4069390536
 20
-32.2029942238
 10
-17.382724404
 20
-32.2355432165
 10
-17.355977405
 20
-32.2647632994
 10
-17.3269062133
 20
-32.2909556962
 10
-17.2964255145
 20
-32.3139159431
 10
-17.2646049862
 20
-32.333568567
 10
-17.2313749508
 20
-32.3499910238
 10
-17.1974410616
 20
-32.3632080991
 10
-17.1628134107
 20
-32.3732354411
 10
-17.1274819061
 20
-32.3800584772
 10
-17.0921219247
 20
-32.3836564375
 10
-17.0565820859
 20
-32.3840053983
 10
-17.0210137704
 20
-32.3811294689
 10
-16.9865464974
 20
-32.375079707
 10
-16.9532527197
 20
-32.3655935221
 10
-16.9210599846
 20
-32.35293277
 10
-16.8908804527
 20
-32.3379351135
 10
-16.8631271444
 20
-32.3206712076
 10
-16.8373870394
 20
-32.3010693255
 10
-16.8133332381
 20
-32.2797537695
 10
-16.7908052039
 20
-32.2569259145
 10
-16.7699634733
 20
-32.2323833598
 10
-16.7509627571
 20
-32.206144869
 10
-16.7337862808
 20
-32.1780634777
 10
-16.7184508187
 20
-32.1482848356
 10
-16.7051614054
 20
-32.1172667726
 10
-16.6940366422
 20
-32.084851052
 10
-16.6849579276
 20
-32.0511948093
 10
-16.6777744916
 20
-32.0172295325
 10
-16.6724360772
 20
-31.9832658325
 10
-16.6689929413
 20
-31.9489929615
 10
-16.6674450839
 20
-31.914410803
  0
LINE
  5
41E
100
AcDbEntity
  8
0
100
AcDbLine
 62
7
  6
CONTINUOUS
 10
-21.508127
 20
33.450078
 11
-21.508137
 21
29.549893
  0
LINE
  5
41F
100
AcDbEntity
  8
0
100
AcDbLine
 62
7
  6
CONTINUOUS
 10
-20.899707
 20
-31.2131439487
 11
-20.899707
 21
-30.9607151418
  0
LINE
  5
420
100
AcDbEntity
  8
0
100
AcDbLine
 62
7
  6
CONTINUOUS
 10
-20.728098
 20
33.450078
 11
-20.728108
 21
29.549902
  0
LINE
  5
421
100
AcDbEntity
  8
0
100
AcDbLine
 62
7
  6
CONTINUOUS
 10
-20.376934
 20
-32.562448
 11
-20.376934
 21
-30.8983383542
  0
LINE
  5
422
100
AcDbEntity
  8
0
100
AcDbLine
 62
7
  6
CONTINUOUS
 10
-20.115548
 20
-32.562448
 11
-20.115548
 21
-30.426804
  0
LINE
  5
423
100
AcDbEntity
  8
RACCORDO
100
AcDbLine
 62
7
  6
CONTINUOUS
 10
-20.0
 20
24.75
 11
-20.0
 21
22.564144533
  0
LINE
  5
424
100
AcDbEntity
  8
0
100
AcDbLine
 62
7
  6
CONTINUOUS
 10
-20.0
 20
-22.5449439616
 11
-20.0
 21
-22.564144533
  0
LINE
  5
425
100
AcDbEntity
  8
RACCORDO
100
AcDbLine
 62
7
  6
CONTINUOUS
 10
-20.0
 20
-22.564144533
 11
-20.0
 21
-24.75
  0
LINE
  5
426
100
AcDbEntity
  8
0
100
AcDbLine
 62
7
  6
CONTINUOUS
 10
-20.0
 20
22.5449439616
 11
-20.0
 21
22.564144533
  0
LINE
  5
427
100
AcDbEntity
  8
0
100
AcDbLine
 62
7
  6
CONTINUOUS
 10
-19.948098
 20
33.450078
 11
-19.948098
 21
29.549902
  0
LINE
  5
428
100
AcDbEntity
  8
0
100
AcDbLine
 62
7
  6
CONTINUOUS
 10
-19.53337
 20
-32.054527
 11
-19.53337
 21
-31.813933
  0
LINE
  5
429
100
AcDbEntity
  8
0
100
AcDbLine
 62
7
  6
CONTINUOUS
 10
-19.168069
 20
32.121806
 11
-19.168069
 21
29.549902
  0
LINE
  5
42A
100
AcDbEntity
  8
0
100
AcDbLine
 62
7
  6
CONTINUOUS
 10
-18.609608
 20
-32.562448
 11
-18.609608
 21
-32.054527
  0
LINE
  5
42B
100
AcDbEntity
  8
0
100
AcDbLine
 62
7
  6
CONTINUOUS
 10
-18.609608
 20
-31.813933
 11
-18.609608
 21
-30.857172
  0
LINE
  5
42C
100
AcDbEntity
  8
0
100
AcDbLine
 62
7
  6
CONTINUOUS
 10
-18.348222
 20
-32.562448
 11
-18.348222
 21
-32.054527
  0
LINE
  5
42D
100
AcDbEntity
  8
0
100
AcDbLine
 62
7
  6
CONTINUOUS
 10
-18.348222
 20
-31.813933
 11
-18.348222
 21
-30.435715
  0
LINE
  5
42E
100
AcDbEntity
  8
0
100
AcDbLine
 62
7
  6
CONTINUOUS
 10
-18.060103
 20
-32.054527
 11
-18.060103
 21
-31.813933
  0
LINE
  5
42F
100
AcDbEntity
  8
0
100
AcDbLine
 62
7
  6
CONTINUOUS
 10
-16.913118
 20
32.121806
 11
-16.913108
 21
29.549902
  0
LINE
  5
430
100
AcDbEntity
  8
0
100
AcDbLine
 62
7
  6
CONTINUOUS
 10
-16.133079
 20
33.450078
 11
-16.133079
 21
29.549902
  0
LWPOLYLINE
  5
431
100
AcDbEntity
  8
0
100
AcDbPolyline
 62
7
  6
CONTINUOUS
 90
30
 70
0
 10
-16.6674450839
 20
-31.914410803
 10
-16.6667896724
 20
-31.8780040155
 10
-16.6680988874
 20
-31.8419002257
 10
-16.6713727292
 20
-31.8060996142
 10
-16.6765213745
 20
-31.7702927917
 10
-16.6836346465
 20
-31.7347894033
 10
-16.6929820141
 20
-31.7005186111
 10
-16.7046414775
 20
-31.6676504306
 10
-16.7185350364
 20
-31.6360160366
 10
-16.7346981591
 20
-31.6060368993
 10
-16.7530181423
 20
-31.5778749545
 10
-16.7736076893
 20
-31.5513695871
 10
-16.7968403774
 20
-31.526458531
 10
-16.8227045825
 20
-31.5027426804
 10
-16.8512119287
 20
-31.4806220693
 10
-16.8827708661
 20
-31.4612333822
 10
-16.9182707452
 20
-31.444596348
 10
-16.9568222155
 20
-31.4306924941
 10
-16.9961656758
 20
-31.4206015589
 10
-17.0359746841
 20
-31.414769016
 10
-17.0765756824
 20
-31.4127501856
 10
-17.1166883959
 20
-31.4142894799
 10
-17.1562959032
 20
-31.41932511
 10
-17.1954151257
 20
-31.4279185728
 10
-17.2328165524
 20
-31.4399989701
 10
-17.2683628031
 20
-31.4559537651
 10
-17.302191258
 20
-31.4753942129
 10
-17.333484546
 20
-31.4970851771
 10
-17.3620048629
 20
-31.5208420915
 10
-17.3879900129
 20
-31.5468482408
  0
LINE
  5
432
100
AcDbEntity
  8
RACCORDO
100
AcDbLine
 62
7
  6
CONTINUOUS
 10
-45.4242826528
 20
-26.3812887508
 11
-45.4427235509
 21
-26.4071375944
  0
LWPOLYLINE
  5
433
100
AcDbEntity
  8
RACCORDO
100
AcDbPolyline
 62
7
  6
CONTINUOUS
 90
5
 70
0
 10
0.4242826528
 20
26.3812887508
 10
0.4320231304
 20
26.3921162581
 10
0.4427235509
 20
26.4071375944
 10
0.4547823115
 20
26.4238929619
 10
0.4978082882
 20
26.4823032581
  0
LWPOLYLINE
  5
434
100
AcDbEntity
  8
RACCORDO
100
AcDbPolyline
 62
7
  6
CONTINUOUS
 90
3
 70
0
 10
-45.4427235509
 20
-26.4071375944
 10
-45.4547823115
 20
-26.4238929619
 10
-45.4978082882
 20
-26.4823032581
  0
LINE
  5
435
100
AcDbEntity
  8
RACCORDO
100
AcDbLine
 62
7
  6
CONTINUOUS
 10
-45.4978082882
 20
-26.4823032581
 11
-45.5476330665
 21
-26.5488765555
  0
LINE
  5
436
100
AcDbEntity
  8
RACCORDO
100
AcDbLine
 62
7
  6
CONTINUOUS
 10
0.4978082882
 20
26.4823032581
 11
0.5476330665
 21
26.5488765555
  0
LINE
  5
437
100
AcDbEntity
  8
RACCORDO
100
AcDbLine
 62
7
  6
CONTINUOUS
 10
-45.5476330665
 20
-26.5488765555
 11
-45.6005069735
 21
-26.6188524851
  0
LINE
  5
438
100
AcDbEntity
  8
RACCORDO
100
AcDbLine
 62
7
  6
CONTINUOUS
 10
0.5476330665
 20
26.5488765555
 11
0.6005069735
 21
26.6188524851
  0
LWPOLYLINE
  5
439
100
AcDbEntity
  8
RACCORDO
100
AcDbPolyline
 62
7
  6
CONTINUOUS
 90
3
 70
0
 10
-45.6005069735
 20
-26.6188524851
 10
-45.6182435901
 20
-26.6421651261
 10
-45.6360789757
 20
-26.6652145484
  0
LWPOLYLINE
  5
43A
100
AcDbEntity
  8
RACCORDO
100
AcDbPolyline
 62
7
  6
CONTINUOUS
 90
3
 70
0
 10
0.6005069735
 20
26.6188524851
 10
0.6182435901
 20
26.6421651261
 10
0.6360789757
 20
26.6652145484
  0
LWPOLYLINE
  5
43B
100
AcDbEntity
  8
RACCORDO
100
AcDbPolyline
 62
7
  6
CONTINUOUS
 90
7
 70
0
 10
-45.3921661616
 20
-26.3340328461
 10
-45.4073687798
 20
-26.3539608825
 10
-45.413618893
 20
-26.36198736
 10
-45.4185794071
 20
-26.3685244829
 10
-45.4221230415
 20
-26.3733886124
 10
-45.4243770768
 20
-26.3763838804
 10
-45.425341513
 20
-26.3773370308
  0
LWPOLYLINE
  5
43C
100
AcDbEntity
  8
RACCORDO
100
AcDbPolyline
 62
7
  6
CONTINUOUS
 90
7
 70
0
 10
0.3921661616
 20
26.3340328461
 10
0.4073687798
 20
26.3539608825
 10
0.413618893
 20
26.36198736
 10
0.4185794071
 20
26.3685244829
 10
0.4221230415
 20
26.3733886124
 10
0.4243770768
 20
26.3763838804
 10
0.425341513
 20
26.3773370308
  0
LWPOLYLINE
  5
43D
100
AcDbEntity
  8
RACCORDO
100
AcDbPolyline
 62
7
  6
CONTINUOUS
 90
3
 70
0
 10
-45.3635586784
 20
-26.2967618641
 10
-45.3832136567
 20
-26.3224710468
 10
-45.3921661616
 20
-26.3340328461
  0
LWPOLYLINE
  5
43E
100
AcDbEntity
  8
RACCORDO
100
AcDbPolyline
 62
7
  6
CONTINUOUS
 90
3
 70
0
 10
0.3635586784
 20
26.2967618641
 10
0.3832136567
 20
26.3224710468
 10
0.3921661616
 20
26.3340328461
  0
LINE
  5
43F
100
AcDbEntity
  8
RACCORDO
100
AcDbLine
 62
7
  6
CONTINUOUS
 10
-45.2837029381
 20
-26.1925772872
 11
-45.3528562049
 21
-26.282904321
  0
LINE
  5
440
100
AcDbEntity
  8
RACCORDO
100
AcDbLine
 62
7
  6
CONTINUOUS
 10
0.2837029381
 20
26.1925772872
 11
0.3528562049
 21
26.282904321
  0
LINE
  5
441
100
AcDbEntity
  8
RACCORDO
100
AcDbLine
 62
7
  6
CONTINUOUS
 10
-45.3528562049
 20
-26.282904321
 11
-45.3635586784
 21
-26.2967618641
  0
LINE
  5
442
100
AcDbEntity
  8
RACCORDO
100
AcDbLine
 62
7
  6
CONTINUOUS
 10
0.3528562049
 20
26.282904321
 11
0.3635586784
 21
26.2967618641
  0
LINE
  5
443
100
AcDbEntity
  8
RACCORDO
100
AcDbLine
 62
7
  6
CONTINUOUS
 10
-45.2718787125
 20
-26.1773404154
 11
-45.2837029381
 21
-26.1925772872
  0
LINE
  5
444
100
AcDbEntity
  8
RACCORDO
100
AcDbLine
 62
7
  6
CONTINUOUS
 10
0.2718787125
 20
26.1773404154
 11
0.2837029381
 21
26.1925772872
  0
LWPOLYLINE
  5
445
100
AcDbEntity
  8
RACCORDO
100
AcDbPolyline
 62
7
  6
CONTINUOUS
 90
3
 70
0
 10
-2.9020743764
 20
25.40131377
 10
-2.8601525176
 20
25.443235321
 10
-2.8175768173
 20
25.4859721672
  0
LINE
  5
446
100
AcDbEntity
  8
RACCORDO
100
AcDbLine
 62
7
  6
CONTINUOUS
 10
-2.9155043609
 20
25.3879661237
 11
-2.9020743764
 21
25.40131377
  0
LWPOLYLINE
  5
447
100
AcDbEntity
  8
RACCORDO
100
AcDbPolyline
 62
7
  6
CONTINUOUS
 90
3
 70
0
 10
-2.9525570828
 20
25.3509461267
 10
-2.9407457141
 20
25.3626447572
 10
-2.9155043609
 20
25.3879661237
  0
LINE
  5
448
100
AcDbEntity
  8
RACCORDO
100
AcDbLine
 62
7
  6
CONTINUOUS
 10
-2.8175768173
 20
25.4859721672
 11
-2.8034089682
 21
25.5
  0
LWPOLYLINE
  5
449
100
AcDbEntity
  8
RACCORDO
100
AcDbPolyline
 62
7
  6
CONTINUOUS
 90
7
 70
0
 10
-3.0031348751
 20
25.300274093
 10
-3.0003395011
 20
25.3025843876
 10
-2.9960161009
 20
25.3070061027
 10
-2.9901646747
 20
25.3132442935
 10
-2.9825846177
 20
25.3209666253
 10
-2.9734765345
 20
25.3299122023
 10
-2.9525570828
 20
25.3509461267
  0
LINE
  5
44A
100
AcDbEntity
  8
RACCORDO
100
AcDbLine
 62
7
  6
CONTINUOUS
 10
-64.6745244221
 20
-26.3761193498
 11
-64.6682466535
 21
-26.375321437
  0
LINE
  5
44B
100
AcDbEntity
  8
RACCORDO
100
AcDbLine
 62
7
  6
CONTINUOUS
 10
-41.945950175
 20
-26.3507451384
 11
-42.1745244221
 21
-26.3761193498
  0
LINE
  5
44C
100
AcDbEntity
  8
RACCORDO
100
AcDbLine
 62
7
  6
CONTINUOUS
 10
-64.445950175
 20
-26.3507451384
 11
-64.6745244221
 21
-26.3761193498
  0
LINE
  5
44D
100
AcDbEntity
  8
RACCORDO
100
AcDbLine
 62
7
  6
CONTINUOUS
 10
-41.945953915
 20
-26.3507455535
 11
-41.9502840274
 21
-26.3511790585
  0
LINE
  5
44E
100
AcDbEntity
  8
RACCORDO
100
AcDbLine
 62
7
  6
CONTINUOUS
 10
-64.445953915
 20
-26.3507455535
 11
-64.4502840274
 21
-26.3511790585
  0
LINE
  5
44F
100
AcDbEntity
  8
RACCORDO
100
AcDbLine
 62
7
  6
CONTINUOUS
 10
-64.6965910318
 20
-26.3773370308
 11
-64.6745244221
 21
-26.3761193498
  0
LINE
  5
450
100
AcDbEntity
  8
0
100
AcDbLine
 62
7
  6
CONTINUOUS
 10
78.6384437412
 20
-22.564144533
 11
70.0
 21
-22.564144533
  0
LINE
  5
451
100
AcDbEntity
  8
0
100
AcDbLine
 62
7
  6
CONTINUOUS
 10
65.0
 20
-22.564144533
 11
47.5
 21
-22.564144533
  0
LINE
  5
452
100
AcDbEntity
  8
0
100
AcDbLine
 62
7
  6
CONTINUOUS
 10
42.5
 20
-22.564144533
 11
25.0
 21
-22.564144533
  0
LINE
  5
453
100
AcDbEntity
  8
0
100
AcDbLine
 62
7
  6
CONTINUOUS
 10
20.0
 20
-22.564144533
 11
2.5
 21
-22.564144533
  0
LINE
  5
454
100
AcDbEntity
  8
0
100
AcDbLine
 62
7
  6
CONTINUOUS
 10
-2.5
 20
-22.564144533
 11
-20.0
 21
-22.564144533
  0
LINE
  5
455
100
AcDbEntity
  8
0
100
AcDbLine
 62
7
  6
CONTINUOUS
 10
-25.0
 20
-22.564144533
 11
-42.5
 21
-22.564144533
  0
LINE
  5
456
100
AcDbEntity
  8
0
100
AcDbLine
 62
7
  6
CONTINUOUS
 10
-47.5
 20
-22.564144533
 11
-65.0
 21
-22.564144533
  0
LINE
  5
457
100
AcDbEntity
  8
0
100
AcDbLine
 62
7
  6
CONTINUOUS
 10
-70.0
 20
-22.564144533
 11
-78.6384437412
 21
-22.564144533
  0
LINE
  5
458
100
AcDbEntity
  8
0
100
AcDbLine
 62
7
  6
CONTINUOUS
 10
78.6384437412
 20
-22.5449439616
 11
-78.6384437412
 21
-22.5449439616
  0
LINE
  5
459
100
AcDbEntity
  8
RACCORDO
100
AcDbLine
 62
7
  6
CONTINUOUS
 10
64.6745863168
 20
-26.376126211
 11
64.6965910318
 21
-26.3773370308
  0
LINE
  5
45A
100
AcDbEntity
  8
RACCORDO
100
AcDbLine
 62
7
  6
CONTINUOUS
 10
41.9459499986
 20
-26.3507451188
 11
42.1745244221
 21
-26.3761193498
  0
LINE
  5
45B
100
AcDbEntity
  8
RACCORDO
100
AcDbLine
 62
7
  6
CONTINUOUS
 10
64.4459499986
 20
-26.3507451188
 11
64.6745244221
 21
-26.3761193498
  0
LWPOLYLINE
  5
45C
100
AcDbEntity
  8
0
100
AcDbPolyline
 62
7
  6
CONTINUOUS
 90
4
 70
0
 10
51.4149432386
 20
-31.597791545
 10
51.3889679782
 20
-31.5911614846
 10
51.3631624128
 20
-31.5843545893
 10
51.3375265425
 20
-31.5773708437
  0
LINE
  5
45D
100
AcDbEntity
  8
0
100
AcDbLine
 62
7
  6
CONTINUOUS
 10
51.3788607988
 20
-31.4072021879
 11
51.430026253
 21
-31.4211127215
  0
LWPOLYLINE
  5
45E
100
AcDbEntity
  8
0
100
AcDbPolyline
 62
7
  6
CONTINUOUS
 90
3
 70
0
 10
51.430026253
 20
-31.4211127215
 10
51.452411858
 20
-31.4272892336
 10
51.4746360254
 20
-31.4335376161
  0
LWPOLYLINE
  5
45F
100
AcDbEntity
  8
0
100
AcDbPolyline
 62
7
  6
CONTINUOUS
 90
41
 70
0
 10
51.3375265425
 20
-31.5773708437
 10
51.3120249137
 20
-31.5702533845
 10
51.28669298
 20
-31.562959046
 10
51.2616371019
 20
-31.5553583476
 10
51.2368299164
 20
-31.5476800253
 10
51.2122987865
 20
-31.5396952985
 10
51.1882321621
 20
-31.5305883124
 10
51.1644892501
 20
-31.5204426817
 10
51.1412108436
 20
-31.5091745236
 10
51.1190077716
 20
-31.4957164729
 10
51.0976936427
 20
-31.4797833417
 10
51.0774548484
 20
-31.4616594689
 10
51.0594613919
 20
-31.4411314862
 10
51.0438296997
 20
-31.4176922659
 10
51.0304433454
 20
-31.3918475252
 10
51.0201230533
 20
-31.3649034315
 10
51.013097876
 20
-31.3369185899
 10
51.0091387609
 20
-31.3078336856
 10
51.0083792743
 20
-31.2787788113
 10
51.0109423004
 20
-31.2497424809
 10
51.0167049549
 20
-31.220736233
 10
51.0254321522
 20
-31.19292551
 10
51.0371233105
 20
-31.1665152026
 10
51.0517790115
 20
-31.1413012771
 10
51.0691659143
 20
-31.1178363334
 10
51.0893569818
 20
-31.0961082831
 10
51.1122792512
 20
-31.0761301733
 10
51.1374804931
 20
-31.0584925532
 10
51.1652117475
 20
-31.0434392604
 10
51.1952219744
 20
-31.0307274003
 10
51.2263058243
 20
-31.0202174418
 10
51.2584978018
 20
-31.0119925864
 10
51.2917634022
 20
-31.0059701248
 10
51.3247937623
 20
-31.0017615251
 10
51.3572794408
 20
-30.9993246938
 10
51.3895298791
 20
-30.9987018645
 10
51.421164538
 20
-30.9996309076
 10
51.4521210489
 20
-31.0019942311
 10
51.4824617803
 20
-31.0059093686
 10
51.5119932988
 20
-31.01146683
 10
51.5408059464
 20
-31.0187069333
  0
LINE
  5
460
100
AcDbEntity
  8
0
100
AcDbLine
 62
7
  6
CONTINUOUS
 10
51.3382098338
 20
-31.395921162
 11
51.3788607988
 21
-31.4072021879
  0
LWPOLYLINE
  5
461
100
AcDbEntity
  8
0
100
AcDbPolyline
 62
7
  6
CONTINUOUS
 90
4
 70
0
 10
51.4746360254
 20
-31.4335376161
 10
51.4966664675
 20
-31.4398402171
 10
51.518535472
 20
-31.4462146777
 10
51.5621224798
 20
-31.4591935118
  0
LWPOLYLINE
  5
462
100
AcDbEntity
  8
0
100
AcDbPolyline
 62
7
  6
CONTINUOUS
 90
7
 70
0
 10
51.4931846007
 20
-31.6185055815
 10
51.4810019131
 20
-31.615011574
 10
51.4684644905
 20
-31.6115776998
 10
51.4555883137
 20
-31.6081446873
 10
51.4423787096
 20
-31.6046927785
 10
51.4288303512
 20
-31.6012417311
 10
51.4149432386
 20
-31.597791545
  0
LWPOLYLINE
  5
463
100
AcDbEntity
  8
0
100
AcDbPolyline
 62
7
  6
CONTINUOUS
 90
33
 70
0
 10
51.5621224798
 20
-31.4591935118
 10
51.5838404832
 20
-31.4657978724
 10
51.6054626026
 20
-31.4730132423
 10
51.6271217872
 20
-31.4807591957
 10
51.6486850879
 20
-31.4891160472
 10
51.6697223488
 20
-31.4988110132
 10
51.6903552353
 20
-31.5098830233
 10
51.710462082
 20
-31.5222927895
 10
51.7292477368
 20
-31.5366499906
 10
51.7467124129
 20
-31.5531257451
 10
51.7628558972
 20
-31.5715481384
 10
51.7768823975
 20
-31.5920121039
 10
51.7887019921
 20
-31.6147838192
 10
51.7984046028
 20
-31.6395959033
 10
51.8054642027
 20
-31.6657430686
 10
51.8098329478
 20
-31.6933474077
 10
51.811558682
 20
-31.722285835
 10
51.8102589102
 20
-31.7514858865
 10
51.8059301212
 20
-31.7809243614
 10
51.7985758261
 20
-31.810624228
 10
51.7878240633
 20
-31.8395830726
 10
51.7735879015
 20
-31.8677958828
 10
51.755954272
 20
-31.8952682075
 10
51.734812007
 20
-31.9210142251
 10
51.7099222453
 20
-31.9450032482
 10
51.681523848
 20
-31.967267115
 10
51.6502222305
 20
-31.9869143713
 10
51.6160327281
 20
-32.0038164628
 10
51.5789400055
 20
-32.0181032677
 10
51.5395034716
 20
-32.0292712128
 10
51.497909596
 20
-32.0371527551
 10
51.4539719091
 20
-32.0419162706
 10
51.407690411
 20
-32.0435619648
  0
LWPOLYLINE
  5
464
100
AcDbEntity
  8
RACCORDO
100
AcDbPolyline
 62
7
  6
CONTINUOUS
 90
6
 70
0
 10
-3.0031348751
 20
-25.300274093
 10
-3.0003395011
 20
-25.3025843876
 10
-2.9960161009
 20
-25.3070061027
 10
-2.9901646747
 20
-25.3132442935
 10
-2.9825846177
 20
-25.3209666253
 10
-2.9734765345
 20
-25.3299122023
  0
LINE
  5
465
100
AcDbEntity
  8
0
100
AcDbLine
 62
7
  6
CONTINUOUS
 10
10.951602
 20
-31.622365
 11
9.681859
 21
-30.552345
  0
LINE
  5
466
100
AcDbEntity
  8
0
100
AcDbLine
 62
7
  6
CONTINUOUS
 10
10.951602
 20
-31.037162
 11
9.623252
 21
-29.917753
  0
LINE
  5
467
100
AcDbEntity
  8
RACCORDO
100
AcDbLine
 62
7
  6
CONTINUOUS
 10
-2.8175768173
 20
-25.4859721672
 11
-2.8034089682
 21
-25.5
  0
LINE
  5
468
100
AcDbEntity
  8
RACCORDO
100
AcDbLine
 62
7
  6
CONTINUOUS
 10
-2.9407457141
 20
-25.3626447572
 11
-2.8175768173
 21
-25.4859721672
  0
LWPOLYLINE
  5
469
100
AcDbEntity
  8
RACCORDO
100
AcDbPolyline
 62
7
  6
CONTINUOUS
 90
3
 70
0
 10
-2.9734765345
 20
-25.3299122023
 10
-2.9525570828
 20
-25.3509461267
 10
-2.9407457141
 20
-25.3626447572
  0
LWPOLYLINE
  5
46A
100
AcDbEntity
  8
RACCORDO
100
AcDbPolyline
 62
7
  6
CONTINUOUS
 90
7
 70
0
 10
-45.3920992954
 20
26.3340841544
 10
-45.4074135733
 20
26.3539265113
 10
-45.4135489068
 20
26.3620410623
 10
-45.4185794071
 20
26.3685244829
 10
-45.4223606354
 20
26.3732063002
 10
-45.4246704548
 20
26.3761587635
 10
-45.425341513
 20
26.3773370308
  0
LWPOLYLINE
  5
46B
100
AcDbEntity
  8
RACCORDO
100
AcDbPolyline
 62
7
  6
CONTINUOUS
 90
7
 70
0
 10
0.3920992954
 20
-26.3340841544
 10
0.4074135733
 20
-26.3539265113
 10
0.4135489068
 20
-26.3620410623
 10
0.4185794071
 20
-26.3685244829
 10
0.4223606354
 20
-26.3732063002
 10
0.4246704548
 20
-26.3761587635
 10
0.425341513
 20
-26.3773370308
  0
LWPOLYLINE
  5
46C
100
AcDbEntity
  8
RACCORDO
100
AcDbPolyline
 62
7
  6
CONTINUOUS
 90
3
 70
0
 10
-45.3635024528
 20
26.2968050075
 10
-45.3832485336
 20
26.3224442849
 10
-45.3920992954
 20
26.3340841544
  0
LWPOLYLINE
  5
46D
100
AcDbEntity
  8
RACCORDO
100
AcDbPolyline
 62
7
  6
CONTINUOUS
 90
3
 70
0
 10
0.3635024528
 20
-26.2968050075
 10
0.3832485336
 20
-26.3224442849
 10
0.3920992954
 20
-26.3340841544
  0
LINE
  5
46E
100
AcDbEntity
  8
RACCORDO
100
AcDbLine
 62
7
  6
CONTINUOUS
 10
-45.2835360657
 20
26.1927053329
 11
-45.3528870979
 21
26.282880616
  0
LINE
  5
46F
100
AcDbEntity
  8
RACCORDO
100
AcDbLine
 62
7
  6
CONTINUOUS
 10
0.2835360657
 20
-26.1927053329
 11
0.3528870979
 21
-26.282880616
  0
LINE
  5
470
100
AcDbEntity
  8
RACCORDO
100
AcDbLine
 62
7
  6
CONTINUOUS
 10
-45.3528870979
 20
26.282880616
 11
-45.3635024528
 21
26.2968050075
  0
LINE
  5
471
100
AcDbEntity
  8
RACCORDO
100
AcDbLine
 62
7
  6
CONTINUOUS
 10
0.3528870979
 20
-26.282880616
 11
0.3635024528
 21
-26.2968050075
  0
LINE
  5
472
100
AcDbEntity
  8
RACCORDO
100
AcDbLine
 62
7
  6
CONTINUOUS
 10
-45.2718787125
 20
26.1773404154
 11
-45.2835360657
 21
26.1927053329
  0
LINE
  5
473
100
AcDbEntity
  8
RACCORDO
100
AcDbLine
 62
7
  6
CONTINUOUS
 10
0.2718787125
 20
-26.1773404154
 11
0.2835360657
 21
-26.1927053329
  0
LWPOLYLINE
  5
474
100
AcDbEntity
  8
RACCORDO
100
AcDbPolyline
 62
7
  6
CONTINUOUS
 90
4
 70
0
 10
-45.5476330664
 20
26.5488765554
 10
-45.6005069735
 20
26.6188524851
 10
-45.6182435901
 20
26.6421651261
 10
-45.6360789757
 20
26.6652145484
  0
LWPOLYLINE
  5
475
100
AcDbEntity
  8
RACCORDO
100
AcDbPolyline
 62
7
  6
CONTINUOUS
 90
4
 70
0
 10
0.5476330664
 20
-26.5488765554
 10
0.6005069735
 20
-26.6188524851
 10
0.6182435901
 20
-26.6421651261
 10
0.6360789757
 20
-26.6652145484
  0
LINE
  5
476
100
AcDbEntity
  8
RACCORDO
100
AcDbLine
 62
7
  6
CONTINUOUS
 10
-45.497808288
 20
26.4823032579
 11
-45.5476330664
 21
26.5488765554
  0
LINE
  5
477
100
AcDbEntity
  8
RACCORDO
100
AcDbLine
 62
7
  6
CONTINUOUS
 10
0.497808288
 20
-26.4823032579
 11
0.5476330664
 21
-26.5488765554
  0
LINE
  5
478
100
AcDbEntity
  8
RACCORDO
100
AcDbLine
 62
7
  6
CONTINUOUS
 10
-45.4547823114
 20
26.4238929617
 11
-45.497808288
 21
26.4823032579
  0
LINE
  5
479
100
AcDbEntity
  8
RACCORDO
100
AcDbLine
 62
7
  6
CONTINUOUS
 10
0.4547823114
 20
-26.4238929617
 11
0.497808288
 21
-26.4823032579
  0
LWPOLYLINE
  5
47A
100
AcDbEntity
  8
RACCORDO
100
AcDbPolyline
 62
7
  6
CONTINUOUS
 90
4
 70
0
 10
0.4242826528
 20
-26.3812887508
 10
0.4320231304
 20
-26.392116258
 10
0.4427235509
 20
-26.4071375943
 10
0.4547823114
 20
-26.4238929617
  0
LWPOLYLINE
  5
47B
100
AcDbEntity
  8
RACCORDO
100
AcDbPolyline
 62
7
  6
CONTINUOUS
 90
3
 70
0
 10
-45.4242826528
 20
26.3812887508
 10
-45.4427235509
 20
26.4071375943
 10
-45.4547823114
 20
26.4238929617
  0
LWPOLYLINE
  5
47C
100
AcDbEntity
  8
0
100
AcDbPolyline
 62
7
  6
CONTINUOUS
 90
27
 70
0
 10
-15.0205653979
 20
-31.7416861199
 10
-15.0308290407
 20
-31.6965621234
 10
-15.0446435638
 20
-31.6538703448
 10
-15.0623262128
 20
-31.6138742914
 10
-15.0835597421
 20
-31.5763132736
 10
-15.1076476551
 20
-31.5419297264
 10
-15.1345793816
 20
-31.5109011926
 10
-15.1643654916
 20
-31.4830528921
 10
-15.1963411987
 20
-31.4585989949
 10
-15.2305719563
 20
-31.4375865263
 10
-15.2669923109
 20
-31.4199704384
 10
-15.3047411153
 20
-31.4058266537
 10
-15.3438103927
 20
-31.3953027849
 10
-15.3842081198
 20
-31.3882523113
 10
-15.4250970798
 20
-31.3843097099
 10
-15.4666232073
 20
-31.3831939088
 10
-15.5086405676
 20
-31.3851861705
 10
-15.5498741397
 20
-31.3907642473
 10
-15.5902280748
 20
-31.4001484655
 10
-15.6297982217
 20
-31.4131178136
 10
-15.6675971063
 20
-31.4294878113
 10
-15.7035913954
 20
-31.4494760085
 10
-15.7378144222
 20
-31.4728632579
 10
-15.7693787113
 20
-31.4988100855
 10
-15.7979884378
 20
-31.527036183
 10
-15.8239394266
 20
-31.5578201314
 10
-15.8472316778
 20
-31.591160902
  0
LWPOLYLINE
  5
47D
100
AcDbEntity
  8
0
100
AcDbPolyline
 62
7
  6
CONTINUOUS
 90
38
 70
0
 10
-15.8680235153
 20
-31.9832399631
 10
-15.8616655202
 20
-32.0224586146
 10
-15.8526936503
 20
-32.0609480798
 10
-15.8411079055
 20
-32.0987087064
 10
-15.8270072284
 20
-32.136285135
 10
-15.8102926765
 20
-32.173133224
 10
-15.7906674222
 20
-32.2076209826
 10
-15.7678319992
 20
-32.2394717628
 10
-15.7420858739
 20
-32.2689644651
 10
-15.7140306166
 20
-32.2953014929
 10
-15.6835666028
 20
-32.3183533014
 10
-15.6507934571
 20
-32.3382516801
 10
-15.6166116238
 20
-32.3545912819
 10
-15.5810996533
 20
-32.3671592938
 10
-15.5441789951
 20
-32.3761700425
 10
-15.5065144415
 20
-32.3818587055
 10
-15.4678740393
 20
-32.3843182143
 10
-15.4284897418
 20
-32.3834560268
 10
-15.389722201
 20
-32.3792288393
 10
-15.3517067892
 20
-32.3716107365
 10
-15.3143081342
 20
-32.3606270536
 10
-15.2784807704
 20
-32.3463111216
 10
-15.2445179983
 20
-32.3286336289
 10
-15.2121265175
 20
-32.3076223472
 10
-15.1813809618
 20
-32.2833960388
 10
-15.1520157734
 20
-32.2560478592
 10
-15.12429651
 20
-32.2254823246
 10
-15.0990944792
 20
-32.1915349946
 10
-15.0763399237
 20
-32.1536582284
 10
-15.0561026007
 20
-32.1123961137
 10
-15.0394630891
 20
-32.0692223633
 10
-15.0269202419
 20
-32.0240807713
 10
-15.0179752061
 20
-31.977025298
 10
-15.0122120017
 20
-31.9296967553
 10
-15.009454032
 20
-31.8822504153
 10
-15.0098778936
 20
-31.8345308709
 10
-15.0135973966
 20
-31.7877147243
 10
-15.0205653979
 20
-31.7416861199
  0
LINE
  5
47E
100
AcDbEntity
  8
0
100
AcDbLine
 62
7
  6
CONTINUOUS
 10
-14.83436
 20
-30.711953
 11
-14.83436
 21
-30.462448
  0
LINE
  5
47F
100
AcDbEntity
  8
0
100
AcDbLine
 62
7
  6
CONTINUOUS
 10
-14.474954
 20
-30.711953
 11
-14.474954
 21
-30.462448
  0
LINE
  5
480
100
AcDbEntity
  8
0
100
AcDbLine
 62
7
  6
CONTINUOUS
 10
-13.099707
 20
-30.6643817834
 11
-13.099707
 21
-30.462448
  0
LINE
  5
481
100
AcDbEntity
  8
0
100
AcDbLine
 62
7
  6
CONTINUOUS
 10
-11.808554
 20
33.450088
 11
-11.808554
 21
29.549912
  0
LINE
  5
482
100
AcDbEntity
  8
0
100
AcDbLine
 62
7
  6
CONTINUOUS
 10
-11.039279
 20
32.728559
 11
-11.039269
 21
31.779474
  0
LINE
  5
483
100
AcDbEntity
  8
0
100
AcDbLine
 62
7
  6
CONTINUOUS
 10
-11.028427
 20
31.057945
 11
-11.028515
 21
29.549912
  0
LWPOLYLINE
  5
484
100
AcDbEntity
  8
0
100
AcDbPolyline
 62
7
  6
CONTINUOUS
 90
25
 70
0
 10
-14.17792454
 20
-32.562448
 10
-14.1737392462
 20
-32.4828103376
 10
-14.1667737259
 20
-32.4030573237
 10
-14.157027979
 20
-32.3231891884
 10
-14.1441962295
 20
-32.243049667
 10
-14.1285842535
 20
-32.1627953727
 10
-14.1111093796
 20
-32.0828963901
 10
-14.0920993709
 20
-32.0034154984
 10
-14.0712264643
 20
-31.9242914731
 10
-14.0484247001
 20
-31.845809216
 10
-14.0236566366
 20
-31.7679823396
 10
-13.9969597155
 20
-31.6907992623
 10
-13.9683803021
 20
-31.6145076199
 10
-13.9380282792
 20
-31.5394215444
 10
-13.905793764
 20
-31.4652294656
 10
-13.8713934735
 20
-31.3912400168
 10
-13.8349187075
 20
-31.3174643253
 10
-13.7962781663
 20
-31.2438922053
 10
-13.7549146678
 20
-31.169799001
 10
-13.711127174
 20
-31.0949753387
 10
-13.6646167229
 20
-31.0196301006
 10
-13.6139292459
 20
-30.9436652839
 10
-13.5585800534
 20
-30.8670480192
 10
-13.499053835
 20
-30.789810668
 10
-13.4353505906
 20
-30.711953
  0
LINE
  5
485
100
AcDbEntity
  8
0
100
AcDbLine
 62
7
  6
CONTINUOUS
 10
-16.093766
 20
-31.555517
 11
-15.888816
 21
-30.462448
  0
LINE
  5
486
100
AcDbEntity
  8
0
100
AcDbLine
 62
7
  6
CONTINUOUS
 10
-15.7939520948
 20
-31.2855914793
 11
-15.680524
 21
-30.711953
  0
LINE
  5
487
100
AcDbEntity
  8
RACCORDO
100
AcDbLine
 62
7
  6
CONTINUOUS
 10
-22.1838167081
 20
-26.7847210577
 11
-22.074658487
 21
-26.3773370308
  0
LINE
  5
488
100
AcDbEntity
  8
RACCORDO
100
AcDbLine
 62
7
  6
CONTINUOUS
 10
-0.3161832919
 20
26.7847210577
 11
-0.425341513
 21
26.3773370308
  0
LINE
  5
489
100
AcDbEntity
  8
RACCORDO
100
AcDbLine
 62
7
  6
CONTINUOUS
 10
-42.0979256236
 20
-25.40131377
 11
-42.1824231827
 21
-25.4859721672
  0
LINE
  5
48A
100
AcDbEntity
  8
RACCORDO
100
AcDbLine
 62
7
  6
CONTINUOUS
 10
-42.0844956391
 20
-25.3879661237
 11
-42.0979256236
 21
-25.40131377
  0
LWPOLYLINE
  5
48B
100
AcDbEntity
  8
RACCORDO
100
AcDbPolyline
 62
7
  6
CONTINUOUS
 90
3
 70
0
 10
-42.0474429172
 20
-25.3509461267
 10
-42.0592542859
 20
-25.3626447572
 10
-42.0844956391
 20
-25.3879661237
  0
LINE
  5
48C
100
AcDbEntity
  8
RACCORDO
100
AcDbLine
 62
7
  6
CONTINUOUS
 10
-42.1824231827
 20
-25.4859721672
 11
-42.1965910318
 21
-25.5
  0
LWPOLYLINE
  5
48D
100
AcDbEntity
  8
RACCORDO
100
AcDbPolyline
 62
7
  6
CONTINUOUS
 90
7
 70
0
 10
-41.9968651249
 20
-25.300274093
 10
-41.9996604989
 20
-25.3025843876
 10
-42.0039838991
 20
-25.3070061027
 10
-42.0098353253
 20
-25.3132442935
 10
-42.0174153823
 20
-25.3209666253
 10
-42.0265234655
 20
-25.3299122023
 10
-42.0474429172
 20
-25.3509461267
  0
LWPOLYLINE
  5
48E
100
AcDbEntity
  8
0
100
AcDbPolyline
 62
7
  6
CONTINUOUS
 90
15
 70
0
 10
51.5408059464
 20
-31.0187069333
 10
51.5688093811
 20
-31.0275891115
 10
51.5955391428
 20
-31.0380824973
 10
51.6210656858
 20
-31.0501350887
 10
51.6453185558
 20
-31.0637984621
 10
51.6676219293
 20
-31.0791970544
 10
51.6878917083
 20
-31.0964443954
 10
51.7062119908
 20
-31.115426262
 10
51.7221592482
 20
-31.1359254337
 10
51.7353793799
 20
-31.1582209209
 10
51.7462264865
 20
-31.1820328737
 10
51.7553393411
 20
-31.2063060855
 10
51.7629308681
 20
-31.2306888578
 10
51.7687881432
 20
-31.2555326662
 10
51.7729111663
 20
-31.2808373605
  0
LWPOLYLINE
  5
48F
100
AcDbEntity
  8
0
100
AcDbPolyline
 62
7
  6
CONTINUOUS
 90
7
 70
0
 10
51.2579513833
 20
-31.3716522473
 10
51.2680365813
 20
-31.3749953342
 10
51.2785834193
 20
-31.378376744
 10
51.2895918972
 20
-31.3817964751
 10
51.3010736895
 20
-31.3852446505
 10
51.3130171218
 20
-31.3887311441
 10
51.3382098338
 20
-31.395921162
  0
LWPOLYLINE
  5
490
100
AcDbEntity
  8
RACCORDO
100
AcDbPolyline
 62
7
  6
CONTINUOUS
 90
6
 70
0
 10
-41.9968651249
 20
25.300274093
 10
-41.9996604989
 20
25.3025843876
 10
-42.0039838991
 20
25.3070061027
 10
-42.0098353253
 20
25.3132442935
 10
-42.0174153823
 20
25.3209666253
 10
-42.0265234655
 20
25.3299122023
  0
LWPOLYLINE
  5
491
100
AcDbEntity
  8
RACCORDO
100
AcDbPolyline
 62
7
  6
CONTINUOUS
 90
6
 70
0
 10
19.4968651249
 20
-25.300274093
 10
19.4996604989
 20
-25.3025843876
 10
19.5039838991
 20
-25.3070061027
 10
19.5098353253
 20
-25.3132442935
 10
19.5174153823
 20
-25.3209666253
 10
19.5265234655
 20
-25.3299122023
  0
LINE
  5
492
100
AcDbEntity
  8
RACCORDO
100
AcDbLine
 62
7
  6
CONTINUOUS
 10
-42.1824231827
 20
25.4859721672
 11
-42.1965910318
 21
25.5
  0
LINE
  5
493
100
AcDbEntity
  8
RACCORDO
100
AcDbLine
 62
7
  6
CONTINUOUS
 10
-42.0592542859
 20
25.3626447572
 11
-42.1824231827
 21
25.4859721672
  0
LWPOLYLINE
  5
494
100
AcDbEntity
  8
RACCORDO
100
AcDbPolyline
 62
7
  6
CONTINUOUS
 90
3
 70
0
 10
-42.0265234655
 20
25.3299122023
 10
-42.0474429172
 20
25.3509461267
 10
-42.0592542859
 20
25.3626447572
  0
LINE
  5
495
100
AcDbEntity
  8
0
100
AcDbLine
 62
7
  6
CONTINUOUS
 10
-25.312636
 20
33.450078
 11
-24.060424
 21
29.549893
  0
LINE
  5
496
100
AcDbEntity
  8
0
100
AcDbLine
 62
7
  6
CONTINUOUS
 10
-24.532597
 20
33.450078
 11
-23.670385
 21
30.764596
  0
LINE
  5
497
100
AcDbEntity
  8
0
100
AcDbLine
 62
7
  6
CONTINUOUS
 10
-19.168069
 20
32.121806
 11
-18.430598
 21
29.549902
  0
LINE
  5
498
100
AcDbEntity
  8
0
100
AcDbLine
 62
7
  6
CONTINUOUS
 10
-18.768904
 20
33.450078
 11
-18.040588
 21
30.910144
  0
LINE
  5
499
100
AcDbEntity
  8
RACCORDO
100
AcDbLine
 62
7
  6
CONTINUOUS
 10
-22.074658487
 20
26.3773370308
 11
-22.1838167081
 21
26.7847210577
  0
LINE
  5
49A
100
AcDbEntity
  8
RACCORDO
100
AcDbLine
 62
7
  6
CONTINUOUS
 10
-0.425341513
 20
-26.3773370308
 11
-0.3161832919
 21
-26.7847210577
  0
LINE
  5
49B
100
AcDbEntity
  8
0
100
AcDbLine
 62
7
  6
CONTINUOUS
 10
-6.7
 20
34.8
 11
-6.7
 21
28.2
  0
LINE
  5
49C
100
AcDbEntity
  8
0
100
AcDbLine
 62
7
  6
CONTINUOUS
 10
-6.5
 20
-33.75
 11
-6.5
 21
-29.25
  0
LINE
  5
49D
100
AcDbEntity
  8
RACCORDO
100
AcDbLine
 62
7
  6
CONTINUOUS
 10
-2.5
 20
-24.75
 11
-2.5
 21
-22.564144533
  0
LINE
  5
49E
100
AcDbEntity
  8
0
100
AcDbLine
 62
7
  6
CONTINUOUS
 10
-2.5
 20
-22.5449439616
 11
-2.5
 21
-22.564144533
  0
LINE
  5
49F
100
AcDbEntity
  8
0
100
AcDbLine
 62
7
  6
CONTINUOUS
 10
-2.5
 20
22.5449439616
 11
-2.5
 21
22.564144533
  0
LINE
  5
4A0
100
AcDbEntity
  8
RACCORDO
100
AcDbLine
 62
7
  6
CONTINUOUS
 10
-2.5
 20
22.564144533
 11
-2.5
 21
24.75
  0
LWPOLYLINE
  5
4A1
100
AcDbEntity
  8
0
100
AcDbPolyline
 62
7
  6
CONTINUOUS
 90
9
 70
0
 10
-17.432011426
 20
-31.6034624285
 10
-17.450047689
 20
-31.6340693173
 10
-17.4654354092
 20
-31.6658480344
 10
-17.4780776059
 20
-31.6989309073
 10
-17.4880712597
 20
-31.7331845308
 10
-17.4956978945
 20
-31.7678174628
 10
-17.5010513514
 20
-31.8025659117
 10
-17.5040377892
 20
-31.8376933423
 10
-17.5046572079
 20
-31.8731995458
  0
LINE
  5
4A2
100
AcDbEntity
  8
RACCORDO
100
AcDbLine
 62
7
  6
CONTINUOUS
 10
-22.9242826528
 20
-26.3812887508
 11
-22.9427235509
 21
-26.4071375944
  0
LWPOLYLINE
  5
4A3
100
AcDbEntity
  8
RACCORDO
100
AcDbPolyline
 62
7
  6
CONTINUOUS
 90
3
 70
0
 10
-22.9427235509
 20
-26.4071375944
 10
-22.9547823115
 20
-26.4238929619
 10
-22.9978082882
 20
-26.4823032581
  0
LINE
  5
4A4
100
AcDbEntity
  8
RACCORDO
100
AcDbLine
 62
7
  6
CONTINUOUS
 10
-22.9978082882
 20
-26.4823032581
 11
-23.0476330665
 21
-26.5488765555
  0
LWPOLYLINE
  5
4A5
100
AcDbEntity
  8
RACCORDO
100
AcDbPolyline
 62
7
  6
CONTINUOUS
 90
6
 70
0
 10
-22.9074135733
 20
-26.3539265113
 10
-22.9135489068
 20
-26.3620410623
 10
-22.9185794071
 20
-26.3685244829
 10
-22.9223606354
 20
-26.3732063002
 10
-22.9246704548
 20
-26.3761587635
 10
-22.925341513
 20
-26.3773370308
  0
LINE
  5
4A6
100
AcDbEntity
  8
RACCORDO
100
AcDbLine
 62
7
  6
CONTINUOUS
 10
-23.0476330665
 20
-26.5488765555
 11
-23.1005069735
 21
-26.6188524851
  0
LINE
  5
4A7
100
AcDbEntity
  8
RACCORDO
100
AcDbLine
 62
7
  6
CONTINUOUS
 10
-22.7718787125
 20
-26.1773404154
 11
-22.7835360657
 21
-26.1927053329
  0
LWPOLYLINE
  5
4A8
100
AcDbEntity
  8
RACCORDO
100
AcDbPolyline
 62
7
  6
CONTINUOUS
 90
3
 70
0
 10
-22.8832485336
 20
-26.3224442849
 10
-22.8920992954
 20
-26.3340841544
 10
-22.9074135733
 20
-26.3539265113
  0
LWPOLYLINE
  5
4A9
100
AcDbEntity
  8
RACCORDO
100
AcDbPolyline
 62
7
  6
CONTINUOUS
 90
3
 70
0
 10
-23.1005069735
 20
-26.6188524851
 10
-23.1182435901
 20
-26.6421651261
 10
-23.1360789757
 20
-26.6652145484
  0
LINE
  5
4AA
100
AcDbEntity
  8
RACCORDO
100
AcDbLine
 62
7
  6
CONTINUOUS
 10
-22.8635024528
 20
-26.2968050075
 11
-22.8832485336
 21
-26.3224442849
  0
LINE
  5
4AB
100
AcDbEntity
  8
RACCORDO
100
AcDbLine
 62
7
  6
CONTINUOUS
 10
-22.7835360657
 20
-26.1927053329
 11
-22.8635024528
 21
-26.2968050075
  0
LINE
  5
4AC
100
AcDbEntity
  8
0
100
AcDbLine
 62
7
  6
CONTINUOUS
 10
101.9997387712
 20
-3.8144992301
 11
101.4990361907
 21
-3.8144992301
  0
LINE
  5
4AD
100
AcDbEntity
  8
0
100
AcDbLine
 62
7
  6
CONTINUOUS
 10
-101.4990361908
 20
-3.8144992301
 11
-101.9997387694
 21
-3.8144992301
  0
LINE
  5
4AE
100
AcDbEntity
  8
0
100
AcDbLine
 62
7
  6
CONTINUOUS
 10
-103.05892912
 20
-3.7099727925
 11
-102.2578312432
 21
-3.7099727925
  0
LINE
  5
4AF
100
AcDbEntity
  8
0
100
AcDbLine
 62
7
  6
CONTINUOUS
 10
102.2578312432
 20
-3.7099727925
 11
103.05892912
 21
-3.7099727925
  0
LINE
  5
4B0
100
AcDbEntity
  8
0
100
AcDbLine
 62
7
  6
CONTINUOUS
 10
102.9331504497
 20
-3.5
 11
102.1320525729
 21
-3.5
  0
LINE
  5
4B1
100
AcDbEntity
  8
0
100
AcDbLine
 62
7
  6
CONTINUOUS
 10
-102.1320525729
 20
-3.5
 11
-102.9331504497
 21
-3.5
  0
LINE
  5
4B2
100
AcDbEntity
  8
0
100
AcDbLine
 62
7
  6
CONTINUOUS
 10
101.9209017665
 20
-3.05
 11
101.4201769674
 21
-3.05
  0
LINE
  5
4B3
100
AcDbEntity
  8
0
100
AcDbLine
 62
7
  6
CONTINUOUS
 10
-101.4201769671
 20
-3.05
 11
-101.9209017648
 21
-3.05
  0
LINE
  5
4B4
100
AcDbEntity
  8
RACCORDO
100
AcDbLine
 62
7
  6
CONTINUOUS
 10
81.1635616354
 20
-2.5
 11
78.9777061685
 21
-2.5
  0
LINE
  5
4B5
100
AcDbEntity
  8
0
100
AcDbLine
 62
7
  6
CONTINUOUS
 10
-78.958505597
 20
-2.5
 11
-78.9777061685
 21
-2.5
  0
LINE
  5
4B6
100
AcDbEntity
  8
0
100
AcDbLine
 62
7
  6
CONTINUOUS
 10
78.958505597
 20
-2.5
 11
78.9777061685
 21
-2.5
  0
LINE
  5
4B7
100
AcDbEntity
  8
RACCORDO
100
AcDbLine
 62
7
  6
CONTINUOUS
 10
-78.9777061685
 20
-2.5
 11
-81.1635616354
 21
-2.5
  0
LINE
  5
4B8
100
AcDbEntity
  8
0
100
AcDbLine
 62
7
  6
CONTINUOUS
 10
-101.9209017649
 20
-2.25
 11
-101.420176967
 21
-2.25
  0
LINE
  5
4B9
100
AcDbEntity
  8
0
100
AcDbLine
 62
7
  6
CONTINUOUS
 10
101.4201769673
 20
-2.25
 11
101.9209017664
 21
-2.25
  0
LINE
  5
4BA
100
AcDbEntity
  8
0
100
AcDbLine
 62
7
  6
CONTINUOUS
 10
101.9209017663
 20
-0.4
 11
101.4201769671
 21
-0.4
  0
LINE
  5
4BB
100
AcDbEntity
  8
0
100
AcDbLine
 62
7
  6
CONTINUOUS
 10
-101.4201769668
 20
-0.4
 11
-101.9209017649
 21
-0.4
  0
LINE
  5
4BC
100
AcDbEntity
  8
0
100
AcDbLine
 62
7
  6
CONTINUOUS
 10
-101.920901765
 20
0.4
 11
-101.4201769667
 21
0.4
  0
LINE
  5
4BD
100
AcDbEntity
  8
0
100
AcDbLine
 62
7
  6
CONTINUOUS
 10
101.420176967
 20
0.4
 11
101.9209017663
 21
0.4
  0
LWPOLYLINE
  5
4BE
100
AcDbEntity
  8
0
100
AcDbPolyline
 62
7
  6
CONTINUOUS
 90
10
 70
0
 10
51.5868763791
 20
-31.6548077413
 10
51.577851594
 20
-31.6500210729
 10
51.5684841826
 20
-31.6454557151
 10
51.5587741447
 20
-31.6411116811
 10
51.5487264493
 20
-31.6370330673
 10
51.5383361275
 20
-31.6331758032
 10
51.5275882724
 20
-31.6294076444
 10
51.5164769823
 20
-31.6256941724
 10
51.505008159
 20
-31.6220698133
 10
51.4931846007
 20
-31.6185055815
  0
LINE
  5
4BF
100
AcDbEntity
  8
RACCORDO
100
AcDbLine
 62
7
  6
CONTINUOUS
 10
19.6824231827
 20
-25.4859721672
 11
19.6965910318
 21
-25.5
  0
LINE
  5
4C0
100
AcDbEntity
  8
RACCORDO
100
AcDbLine
 62
7
  6
CONTINUOUS
 10
19.5592542859
 20
-25.3626447572
 11
19.6824231827
 21
-25.4859721672
  0
LWPOLYLINE
  5
4C1
100
AcDbEntity
  8
RACCORDO
100
AcDbPolyline
 62
7
  6
CONTINUOUS
 90
3
 70
0
 10
19.5265234655
 20
-25.3299122023
 10
19.5474429172
 20
-25.3509461267
 10
19.5592542859
 20
-25.3626447572
  0
LWPOLYLINE
  5
4C2
100
AcDbEntity
  8
RACCORDO
100
AcDbPolyline
 62
7
  6
CONTINUOUS
 90
7
 70
0
 10
-22.8920992954
 20
26.3340841544
 10
-22.9074135733
 20
26.3539265113
 10
-22.9135489068
 20
26.3620410623
 10
-22.9185794071
 20
26.3685244829
 10
-22.9223606354
 20
26.3732063002
 10
-22.9246704548
 20
26.3761587635
 10
-22.925341513
 20
26.3773370308
  0
LWPOLYLINE
  5
4C3
100
AcDbEntity
  8
RACCORDO
100
AcDbPolyline
 62
7
  6
CONTINUOUS
 90
3
 70
0
 10
-22.8635024528
 20
26.2968050075
 10
-22.8832485336
 20
26.3224442849
 10
-22.8920992954
 20
26.3340841544
  0
LINE
  5
4C4
100
AcDbEntity
  8
RACCORDO
100
AcDbLine
 62
7
  6
CONTINUOUS
 10
-22.7835360657
 20
26.1927053329
 11
-22.8528870979
 21
26.282880616
  0
LINE
  5
4C5
100
AcDbEntity
  8
RACCORDO
100
AcDbLine
 62
7
  6
CONTINUOUS
 10
-22.8528870979
 20
26.282880616
 11
-22.8635024528
 21
26.2968050075
  0
LINE
  5
4C6
100
AcDbEntity
  8
RACCORDO
100
AcDbLine
 62
7
  6
CONTINUOUS
 10
-22.7718787125
 20
26.1773404154
 11
-22.7835360657
 21
26.1927053329
  0
LWPOLYLINE
  5
4C7
100
AcDbEntity
  8
RACCORDO
100
AcDbPolyline
 62
7
  6
CONTINUOUS
 90
4
 70
0
 10
-23.0476330664
 20
26.5488765554
 10
-23.1005069735
 20
26.6188524851
 10
-23.1182435901
 20
26.6421651261
 10
-23.1360789757
 20
26.6652145484
  0
LINE
  5
4C8
100
AcDbEntity
  8
RACCORDO
100
AcDbLine
 62
7
  6
CONTINUOUS
 10
-22.997808288
 20
26.4823032579
 11
-23.0476330664
 21
26.5488765554
  0
LINE
  5
4C9
100
AcDbEntity
  8
RACCORDO
100
AcDbLine
 62
7
  6
CONTINUOUS
 10
-22.9547823114
 20
26.4238929617
 11
-22.997808288
 21
26.4823032579
  0
LWPOLYLINE
  5
4CA
100
AcDbEntity
  8
RACCORDO
100
AcDbPolyline
 62
7
  6
CONTINUOUS
 90
3
 70
0
 10
-22.9242826528
 20
26.3812887508
 10
-22.9427235509
 20
26.4071375943
 10
-22.9547823114
 20
26.4238929617
  0
LINE
  5
4CB
100
AcDbEntity
  8
0
100
AcDbLine
 62
7
  6
CONTINUOUS
 10
12.293299
 20
-33.447906
 11
12.07593
 21
-33.060625
  0
LINE
  5
4CC
100
AcDbEntity
  8
0
100
AcDbLine
 62
7
  6
CONTINUOUS
 10
-13.354855
 20
30.316906
 11
-13.108609
 21
29.549912
  0
LINE
  5
4CD
100
AcDbEntity
  8
0
100
AcDbLine
 62
7
  6
CONTINUOUS
 10
-13.970831
 20
32.235384
 11
-13.592794
 21
31.057935
  0
LINE
  5
4CE
100
AcDbEntity
  8
0
100
AcDbLine
 62
7
  6
CONTINUOUS
 10
-13.580792
 20
33.450088
 11
-12.32857
 21
29.549902
  0
LINE
  5
4CF
100
AcDbEntity
  8
RACCORDO
100
AcDbLine
 62
7
  6
CONTINUOUS
 10
2.5
 20
24.75
 11
2.5
 21
22.564144533
  0
LINE
  5
4D0
100
AcDbEntity
  8
0
100
AcDbLine
 62
7
  6
CONTINUOUS
 10
2.5
 20
-22.5449439616
 11
2.5
 21
-22.564144533
  0
LINE
  5
4D1
100
AcDbEntity
  8
RACCORDO
100
AcDbLine
 62
7
  6
CONTINUOUS
 10
2.5
 20
-22.564144533
 11
2.5
 21
-24.75
  0
LINE
  5
4D2
100
AcDbEntity
  8
0
100
AcDbLine
 62
7
  6
CONTINUOUS
 10
2.5
 20
22.5449439616
 11
2.5
 21
22.564144533
  0
LINE
  5
4D3
100
AcDbEntity
  8
0
100
AcDbLine
 62
7
  6
CONTINUOUS
 10
6.5
 20
-35.7
 11
6.5
 21
-28.0
  0
LINE
  5
4D4
100
AcDbEntity
  8
0
100
AcDbLine
 62
7
  6
CONTINUOUS
 10
6.7
 20
34.8
 11
6.7
 21
28.2
  0
LINE
  5
4D5
100
AcDbEntity
  8
0
100
AcDbLine
 62
7
  6
CONTINUOUS
 10
8.057428
 20
33.450001
 11
8.057428
 21
29.549999
  0
LINE
  5
4D6
100
AcDbEntity
  8
0
100
AcDbLine
 62
7
  6
CONTINUOUS
 10
8.894725
 20
32.801884
 11
8.894725
 21
31.699968
  0
LINE
  5
4D7
100
AcDbEntity
  8
0
100
AcDbLine
 62
7
  6
CONTINUOUS
 10
8.894725
 20
31.051851
 11
8.894725
 21
29.549999
  0
LINE
  5
4D8
100
AcDbEntity
  8
RACCORDO
100
AcDbLine
 62
7
  6
CONTINUOUS
 10
0.3161832919
 20
-26.7847210577
 11
0.425341513
 21
-26.3773370308
  0
LINE
  5
4D9
100
AcDbEntity
  8
0
100
AcDbLine
 62
7
  6
CONTINUOUS
 10
15.96593
 20
32.704752
 11
15.387634
 21
31.0247
  0
LINE
  5
4DA
100
AcDbEntity
  8
0
100
AcDbLine
 62
7
  6
CONTINUOUS
 10
15.171595
 20
30.376583
 11
14.879972
 21
29.549999
  0
LINE
  5
4DB
100
AcDbEntity
  8
0
100
AcDbLine
 62
7
  6
CONTINUOUS
 10
15.490369
 20
33.450001
 11
14.08054
 21
29.549999
  0
LINE
  5
4DC
100
AcDbEntity
  8
0
100
AcDbLine
 62
7
  6
CONTINUOUS
 10
-19.276579
 20
-31.813933
 11
-18.609608
 21
-30.857172
  0
LINE
  5
4DD
100
AcDbEntity
  8
0
100
AcDbLine
 62
7
  6
CONTINUOUS
 10
-19.53337
 20
-31.813933
 11
-18.562083
 21
-30.435715
  0
LWPOLYLINE
  5
4DE
100
AcDbEntity
  8
0
100
AcDbPolyline
 62
7
  6
CONTINUOUS
 90
38
 70
0
 10
-17.5462413664
 20
-31.4640875076
 10
-17.511750786
 20
-31.4157150984
 10
-17.4743628166
 20
-31.3718424355
 10
-17.4340774583
 20
-31.3324720479
 10
-17.3905523391
 20
-31.2975910908
 10
-17.344129831
 20
-31.2672166199
 10
-17.2958370496
 20
-31.2413956179
 10
-17.2457113253
 20
-31.2201091518
 10
-17.1937153277
 20
-31.203378788
 10
-17.1407641817
 20
-31.1913119011
 10
-17.0867498025
 20
-31.1839219262
 10
-17.0317802748
 20
-31.1811965292
 10
-16.9770949776
 20
-31.1832040551
 10
-16.9225320158
 20
-31.1899668284
 10
-16.8682532846
 20
-31.2014620219
 10
-16.8159838488
 20
-31.2176898476
 10
-16.7661167933
 20
-31.2388874881
 10
-16.7182590331
 20
-31.2648155621
 10
-16.672956379
 20
-31.2947592417
 10
-16.630192428
 20
-31.328535501
 10
-16.589983583
 20
-31.3663242189
 10
-16.5529248629
 20
-31.4079549067
 10
-16.5187866417
 20
-31.453432132
 10
-16.4877985455
 20
-31.5027470143
 10
-16.4612444715
 20
-31.5557087686
 10
-16.4393952436
 20
-31.6128597672
 10
-16.421980038
 20
-31.6736519938
 10
-16.4094702806
 20
-31.7362603118
 10
-16.4020549134
 20
-31.8009212761
 10
-16.3995449944
 20
-31.8673947864
 10
-16.4018451241
 20
-31.9331442951
 10
-16.409002164
 20
-31.9978040208
 10
-16.4209692526
 20
-32.0617408535
 10
-16.4375104055
 20
-32.1235207669
 10
-16.4587416085
 20
-32.1831124764
 10
-16.4845468758
 20
-32.2405506283
 10
-16.5143422652
 20
-32.2945023886
 10
-16.5481531653
 20
-32.3449085834
  0
LINE
  5
4DF
100
AcDbEntity
  8
RACCORDO
100
AcDbLine
 62
7
  6
CONTINUOUS
 10
22.9242826528
 20
26.3812887508
 11
22.9427235509
 21
26.4071375944
  0
LWPOLYLINE
  5
4E0
100
AcDbEntity
  8
RACCORDO
100
AcDbPolyline
 62
7
  6
CONTINUOUS
 90
3
 70
0
 10
22.9427235509
 20
26.4071375944
 10
22.9547823115
 20
26.4238929619
 10
22.9978082882
 20
26.4823032581
  0
LINE
  5
4E1
100
AcDbEntity
  8
RACCORDO
100
AcDbLine
 62
7
  6
CONTINUOUS
 10
22.9978082882
 20
26.4823032581
 11
23.0476330665
 21
26.5488765555
  0
LINE
  5
4E2
100
AcDbEntity
  8
RACCORDO
100
AcDbLine
 62
7
  6
CONTINUOUS
 10
23.0476330665
 20
26.5488765555
 11
23.1005069735
 21
26.6188524851
  0
LWPOLYLINE
  5
4E3
100
AcDbEntity
  8
RACCORDO
100
AcDbPolyline
 62
7
  6
CONTINUOUS
 90
3
 70
0
 10
23.1005069735
 20
26.6188524851
 10
23.1182435901
 20
26.6421651261
 10
23.1360789757
 20
26.6652145484
  0
LWPOLYLINE
  5
4E4
100
AcDbEntity
  8
RACCORDO
100
AcDbPolyline
 62
7
  6
CONTINUOUS
 90
7
 70
0
 10
22.8921661616
 20
26.3340328461
 10
22.9073687798
 20
26.3539608825
 10
22.913618893
 20
26.36198736
 10
22.9185794071
 20
26.3685244829
 10
22.9221230415
 20
26.3733886124
 10
22.9243770768
 20
26.3763838804
 10
22.925341513
 20
26.3773370308
  0
LWPOLYLINE
  5
4E5
100
AcDbEntity
  8
RACCORDO
100
AcDbPolyline
 62
7
  6
CONTINUOUS
 90
3
 70
0
 10
22.8635586784
 20
26.2967618641
 10
22.8832136567
 20
26.3224710468
 10
22.8921661616
 20
26.3340328461
  0
LINE
  5
4E6
100
AcDbEntity
  8
RACCORDO
100
AcDbLine
 62
7
  6
CONTINUOUS
 10
22.7837029381
 20
26.1925772872
 11
22.8528562049
 21
26.282904321
  0
LINE
  5
4E7
100
AcDbEntity
  8
RACCORDO
100
AcDbLine
 62
7
  6
CONTINUOUS
 10
22.8528562049
 20
26.282904321
 11
22.8635586784
 21
26.2967618641
  0
LINE
  5
4E8
100
AcDbEntity
  8
RACCORDO
100
AcDbLine
 62
7
  6
CONTINUOUS
 10
22.7718787125
 20
26.1773404154
 11
22.7837029381
 21
26.1925772872
  0
LWPOLYLINE
  5
4E9
100
AcDbEntity
  8
0
100
AcDbPolyline
 62
7
  6
CONTINUOUS
 90
49
 70
0
 10
-16.5481531653
 20
-32.3449085834
 10
-16.5859541875
 20
-32.39183343
 10
-16.6270852243
 20
-32.4341308387
 10
-16.6718026683
 20
-32.4715328403
 10
-16.7198501268
 20
-32.5043128122
 10
-16.7697983142
 20
-32.5321372007
 10
-16.8214087613
 20
-32.5547855334
 10
-16.8749199374
 20
-32.572482025
 10
-16.9296179647
 20
-32.5855597013
 10
-16.9854677556
 20
-32.5940519546
 10
-17.0425043977
 20
-32.5979268765
 10
-17.1001192765
 20
-32.5974189662
 10
-17.1586971012
 20
-32.592863096
 10
-17.2178531626
 20
-32.5839240696
 10
-17.2758247183
 20
-32.5698307348
 10
-17.3326087832
 20
-32.5501733779
 10
-17.3882083424
 20
-32.5253590554
 10
-17.4408696083
 20
-32.4958412477
 10
-17.4902958054
 20
-32.4614847228
 10
-17.5367837093
 20
-32.4224202806
 10
-17.5794698587
 20
-32.379500643
 10
-17.6182495005
 20
-32.332535223
 10
-17.653227388
 20
-32.2817096206
 10
-17.6838543198
 20
-32.228442083
 10
-17.7095737027
 20
-32.1726260141
 10
-17.7309421301
 20
-32.1143643991
 10
-17.7490801802
 20
-32.0553922198
 10
-17.7640111046
 20
-31.9961814354
 10
-17.7757116518
 20
-31.9362594732
 10
-17.7852326458
 20
-31.8759461961
 10
-17.7927251164
 20
-31.8153982367
 10
-17.7980380338
 20
-31.7544587208
 10
-17.8017691331
 20
-31.6929773978
 10
-17.8040702151
 20
-31.6310011753
 10
-17.8047894789
 20
-31.5684826233
 10
-17.8040692567
 20
-31.5051296329
 10
-17.8021851599
 20
-31.4409266647
 10
-17.798861577
 20
-31.3758882557
 10
-17.7934140051
 20
-31.3097669809
 10
-17.7860519661
 20
-31.2423335779
 10
-17.7765659382
 20
-31.1738158112
 10
-17.7636428527
 20
-31.1046519658
 10
-17.7471529013
 20
-31.0339427863
 10
-17.7272258924
 20
-30.9625864213
 10
-17.7029381823
 20
-30.8937202368
 10
-17.6736067737
 20
-30.8273147342
 10
-17.639914664
 20
-30.7634036965
 10
-17.6029872022
 20
-30.7052241561
 10
-17.5629698796
 20
-30.6540238658
  0
LWPOLYLINE
  5
4EA
100
AcDbEntity
  8
0
100
AcDbPolyline
 62
7
  6
CONTINUOUS
 90
3
 70
0
 10
-17.3879900129
 20
-31.5468482408
 10
-17.4113360383
 20
-31.5744206881
 10
-17.432011426
 20
-31.6034624285
  0
LWPOLYLINE
  5
4EB
100
AcDbEntity
  8
0
100
AcDbPolyline
 62
7
  6
CONTINUOUS
 90
27
 70
0
 10
-17.5629698796
 20
-30.6540238658
 10
-17.5197172048
 20
-30.6085627855
 10
-17.4739180528
 20
-30.5683476756
 10
-17.4258264061
 20
-30.5333285438
 10
-17.3751882822
 20
-30.5035597279
 10
-17.3219306084
 20
-30.4787036323
 10
-17.2653478716
 20
-30.4587245176
 10
-17.2061455848
 20
-30.4436604856
 10
-17.146367215
 20
-30.4332841552
 10
-17.0860072787
 20
-30.4276112247
 10
-17.0250712594
 20
-30.4266267942
 10
-16.9656190739
 20
-30.4300571944
 10
-16.9077787805
 20
-30.4378434661
 10
-16.8514223209
 20
-30.4500440467
 10
-16.7982254374
 20
-30.4665610607
 10
-16.7485915615
 20
-30.4876645012
 10
-16.7021172616
 20
-30.5130826002
 10
-16.659267986
 20
-30.5419047924
 10
-16.6202555031
 20
-30.573838854
 10
-16.5848680444
 20
-30.6091748014
 10
-16.5529357526
 20
-30.6478754832
 10
-16.5243357316
 20
-30.6897442686
 10
-16.4991908775
 20
-30.7349747733
 10
-16.4777000215
 20
-30.7841147326
 10
-16.4599294409
 20
-30.8373450354
 10
-16.4458128584
 20
-30.8944800251
 10
-16.4353502742
 20
-30.9555170221
  0
LINE
  5
4EC
100
AcDbEntity
  8
RACCORDO
100
AcDbLine
 62
7
  6
CONTINUOUS
 10
-19.5979256236
 20
-25.40131377
 11
-19.6824231827
 21
-25.4859721672
  0
LINE
  5
4ED
100
AcDbEntity
  8
RACCORDO
100
AcDbLine
 62
7
  6
CONTINUOUS
 10
-19.5844956391
 20
-25.3879661237
 11
-19.5979256236
 21
-25.40131377
  0
LWPOLYLINE
  5
4EE
100
AcDbEntity
  8
RACCORDO
100
AcDbPolyline
 62
7
  6
CONTINUOUS
 90
3
 70
0
 10
-19.5474429172
 20
-25.3509461267
 10
-19.5592542859
 20
-25.3626447572
 10
-19.5844956391
 20
-25.3879661237
  0
LINE
  5
4EF
100
AcDbEntity
  8
RACCORDO
100
AcDbLine
 62
7
  6
CONTINUOUS
 10
-19.6824231827
 20
-25.4859721672
 11
-19.6965910318
 21
-25.5
  0
LWPOLYLINE
  5
4F0
100
AcDbEntity
  8
RACCORDO
100
AcDbPolyline
 62
7
  6
CONTINUOUS
 90
7
 70
0
 10
-19.4968651249
 20
-25.300274093
 10
-19.4996604989
 20
-25.3025843876
 10
-19.5039838991
 20
-25.3070061027
 10
-19.5098353253
 20
-25.3132442935
 10
-19.5174153823
 20
-25.3209666253
 10
-19.5265234655
 20
-25.3299122023
 10
-19.5474429172
 20
-25.3509461267
  0
LWPOLYLINE
  5
4F1
100
AcDbEntity
  8
RACCORDO
100
AcDbPolyline
 62
7
  6
CONTINUOUS
 90
7
 70
0
 10
41.9968651249
 20
25.300274093
 10
41.9996604989
 20
25.3025843876
 10
42.0039838991
 20
25.3070061027
 10
42.0098353253
 20
25.3132442935
 10
42.0174153823
 20
25.3209666253
 10
42.0265234655
 20
25.3299122023
 10
42.0474429172
 20
25.3509461267
  0
LINE
  5
4F2
100
AcDbEntity
  8
0
100
AcDbLine
 62
7
  6
CONTINUOUS
 10
101.9209017662
 20
2.25
 11
101.4201769667
 21
2.25
  0
LINE
  5
4F3
100
AcDbEntity
  8
0
100
AcDbLine
 62
7
  6
CONTINUOUS
 10
-101.4201769665
 20
2.25
 11
-101.920901765
 21
2.25
  0
LINE
  5
4F4
100
AcDbEntity
  8
RACCORDO
100
AcDbLine
 62
7
  6
CONTINUOUS
 10
-81.1635616354
 20
2.5
 11
-78.9777061685
 21
2.5
  0
LINE
  5
4F5
100
AcDbEntity
  8
0
100
AcDbLine
 62
7
  6
CONTINUOUS
 10
-78.958505597
 20
2.5
 11
-78.9777061685
 21
2.5
  0
LINE
  5
4F6
100
AcDbEntity
  8
0
100
AcDbLine
 62
7
  6
CONTINUOUS
 10
78.958505597
 20
2.5
 11
78.9777061685
 21
2.5
  0
LINE
  5
4F7
100
AcDbEntity
  8
RACCORDO
100
AcDbLine
 62
7
  6
CONTINUOUS
 10
78.9777061685
 20
2.5
 11
81.1635616354
 21
2.5
  0
LINE
  5
4F8
100
AcDbEntity
  8
0
100
AcDbLine
 62
7
  6
CONTINUOUS
 10
-101.9209017651
 20
3.05
 11
-101.4201769664
 21
3.05
  0
LINE
  5
4F9
100
AcDbEntity
  8
0
100
AcDbLine
 62
7
  6
CONTINUOUS
 10
101.4201769666
 20
3.05
 11
101.9209017662
 21
3.05
  0
LINE
  5
4FA
100
AcDbEntity
  8
0
100
AcDbLine
 62
7
  6
CONTINUOUS
 10
102.9331504497
 20
3.5
 11
102.1320525729
 21
3.5
  0
LINE
  5
4FB
100
AcDbEntity
  8
0
100
AcDbLine
 62
7
  6
CONTINUOUS
 10
-102.1320525729
 20
3.5
 11
-102.9331504497
 21
3.5
  0
LINE
  5
4FC
100
AcDbEntity
  8
0
100
AcDbLine
 62
7
  6
CONTINUOUS
 10
-103.05892912
 20
3.7099727925
 11
-102.2578312432
 21
3.7099727925
  0
LINE
  5
4FD
100
AcDbEntity
  8
0
100
AcDbLine
 62
7
  6
CONTINUOUS
 10
102.2578312432
 20
3.7099727925
 11
103.05892912
 21
3.7099727925
  0
LINE
  5
4FE
100
AcDbEntity
  8
0
100
AcDbLine
 62
7
  6
CONTINUOUS
 10
101.9997387709
 20
3.8144992301
 11
101.4990361896
 21
3.8144992301
  0
LINE
  5
4FF
100
AcDbEntity
  8
0
100
AcDbLine
 62
7
  6
CONTINUOUS
 10
-101.4990361899
 20
3.8144992301
 11
-101.9997387697
 21
3.8144992301
  0
LWPOLYLINE
  5
500
100
AcDbEntity
  8
RACCORDO
100
AcDbPolyline
 62
7
  6
CONTINUOUS
 90
6
 70
0
 10
-19.4968651249
 20
25.300274093
 10
-19.4996604989
 20
25.3025843876
 10
-19.5039838991
 20
25.3070061027
 10
-19.5098353253
 20
25.3132442935
 10
-19.5174153823
 20
25.3209666253
 10
-19.5265234655
 20
25.3299122023
  0
LWPOLYLINE
  5
501
100
AcDbEntity
  8
RACCORDO
100
AcDbPolyline
 62
7
  6
CONTINUOUS
 90
6
 70
0
 10
41.9968651249
 20
-25.300274093
 10
41.9996604989
 20
-25.3025843876
 10
42.0039838991
 20
-25.3070061027
 10
42.0098353253
 20
-25.3132442935
 10
42.0174153823
 20
-25.3209666253
 10
42.0265234655
 20
-25.3299122023
  0
LINE
  5
502
100
AcDbEntity
  8
RACCORDO
100
AcDbLine
 62
7
  6
CONTINUOUS
 10
-19.6824231827
 20
25.4859721672
 11
-19.6965910318
 21
25.5
  0
LINE
  5
503
100
AcDbEntity
  8
RACCORDO
100
AcDbLine
 62
7
  6
CONTINUOUS
 10
-19.5592542859
 20
25.3626447572
 11
-19.6824231827
 21
25.4859721672
  0
LWPOLYLINE
  5
504
100
AcDbEntity
  8
RACCORDO
100
AcDbPolyline
 62
7
  6
CONTINUOUS
 90
3
 70
0
 10
-19.5265234655
 20
25.3299122023
 10
-19.5474429172
 20
25.3509461267
 10
-19.5592542859
 20
25.3626447572
  0
LWPOLYLINE
  5
505
100
AcDbEntity
  8
RACCORDO
100
AcDbPolyline
 62
7
  6
CONTINUOUS
 90
6
 70
0
 10
22.9073687798
 20
-26.3539608825
 10
22.913618893
 20
-26.36198736
 10
22.9185794071
 20
-26.3685244829
 10
22.9221230415
 20
-26.3733886124
 10
22.9243770768
 20
-26.3763838804
 10
22.925341513
 20
-26.3773370308
  0
LINE
  5
506
100
AcDbEntity
  8
RACCORDO
100
AcDbLine
 62
7
  6
CONTINUOUS
 10
22.7718787125
 20
-26.1773404154
 11
22.7837029381
 21
-26.1925772872
  0
LWPOLYLINE
  5
507
100
AcDbEntity
  8
RACCORDO
100
AcDbPolyline
 62
7
  6
CONTINUOUS
 90
3
 70
0
 10
22.8832136567
 20
-26.3224710468
 10
22.8921661616
 20
-26.3340328461
 10
22.9073687798
 20
-26.3539608825
  0
LINE
  5
508
100
AcDbEntity
  8
RACCORDO
100
AcDbLine
 62
7
  6
CONTINUOUS
 10
22.8635586784
 20
-26.2967618641
 11
22.8832136567
 21
-26.3224710468
  0
LINE
  5
509
100
AcDbEntity
  8
RACCORDO
100
AcDbLine
 62
7
  6
CONTINUOUS
 10
22.7837029381
 20
-26.1925772872
 11
22.8635586784
 21
-26.2967618641
  0
LWPOLYLINE
  5
50A
100
AcDbEntity
  8
RACCORDO
100
AcDbPolyline
 62
7
  6
CONTINUOUS
 90
4
 70
0
 10
23.0476330664
 20
-26.5488765554
 10
23.1005069735
 20
-26.6188524851
 10
23.1182435901
 20
-26.6421651261
 10
23.1360789757
 20
-26.6652145484
  0
LINE
  5
50B
100
AcDbEntity
  8
RACCORDO
100
AcDbLine
 62
7
  6
CONTINUOUS
 10
22.997808288
 20
-26.4823032579
 11
23.0476330664
 21
-26.5488765554
  0
LINE
  5
50C
100
AcDbEntity
  8
RACCORDO
100
AcDbLine
 62
7
  6
CONTINUOUS
 10
22.9547823114
 20
-26.4238929617
 11
22.997808288
 21
-26.4823032579
  0
LWPOLYLINE
  5
50D
100
AcDbEntity
  8
RACCORDO
100
AcDbPolyline
 62
7
  6
CONTINUOUS
 90
3
 70
0
 10
22.9242826528
 20
-26.3812887508
 10
22.9427235509
 20
-26.4071375943
 10
22.9547823114
 20
-26.4238929617
  0
LINE
  5
50E
100
AcDbEntity
  8
0
100
AcDbLine
 62
7
  6
CONTINUOUS
 10
-10.347633
 20
31.057935
 11
-9.565947
 21
29.549912
  0
LINE
  5
50F
100
AcDbEntity
  8
0
100
AcDbLine
 62
7
  6
CONTINUOUS
 10
-9.5176663886
 20
31.1517426788
 11
-8.687364
 21
29.549922
  0
LINE
  5
510
100
AcDbEntity
  8
RACCORDO
100
AcDbLine
 62
7
  6
CONTINUOUS
 10
0.425341513
 20
26.3773370308
 11
0.3161832919
 21
26.7847210577
  0
LWPOLYLINE
  5
511
100
AcDbEntity
  8
0
100
AcDbPolyline
 62
7
  6
CONTINUOUS
 90
26
 70
0
 10
9.9643388347
 20
32.2827058887
 10
9.963056703
 20
32.3142870995
 10
9.9605063165
 20
32.3456696742
 10
9.9567914796
 20
32.3769883835
 10
9.9518083878
 20
32.4081085519
 10
9.9452456274
 20
32.4386262608
 10
9.9369847267
 20
32.4684867594
 10
9.9271441573
 20
32.4977453079
 10
9.9157679208
 20
32.5261632859
 10
9.9028927153
 20
32.5537828145
 10
9.8884818427
 20
32.5805624278
 10
9.8724692098
 20
32.6061383607
 10
9.854914145
 20
32.6306130042
 10
9.83575732
 20
32.6538848228
 10
9.8147546571
 20
32.6752845133
 10
9.7916301123
 20
32.6946576774
 10
9.7666597297
 20
32.7121598889
 10
9.7404275643
 20
32.7275870164
 10
9.7128374486
 20
32.7407096602
 10
9.6839855502
 20
32.7517581528
 10
9.6547444265
 20
32.7612178377
 10
9.6253338088
 20
32.7690168224
 10
9.595533966
 20
32.7752274251
 10
9.5655582612
 20
32.780551097
 10
9.5354500437
 20
32.7849768136
 10
9.5051659643
 20
32.7885157327
  0
LINE
  5
512
100
AcDbEntity
  8
0
100
AcDbLine
 62
7
  6
CONTINUOUS
 10
10.533113
 20
-33.660266
 11
10.533113
 21
-33.188045
  0
LINE
  5
513
100
AcDbEntity
  8
0
100
AcDbLine
 62
7
  6
CONTINUOUS
 10
10.548534
 20
-29.833154
 11
10.548534
 21
-29.358337
  0
LINE
  5
514
100
AcDbEntity
  8
0
100
AcDbLine
 62
7
  6
CONTINUOUS
 10
10.951602
 20
-33.188045
 11
10.951602
 21
-31.622365
  0
LINE
  5
515
100
AcDbEntity
  8
0
100
AcDbLine
 62
7
  6
CONTINUOUS
 10
10.951602
 20
-31.037162
 11
10.951602
 21
-29.833154
  0
LINE
  5
516
100
AcDbEntity
  8
0
100
AcDbLine
 62
7
  6
CONTINUOUS
 10
11.379613
 20
33.450001
 11
11.379613
 21
29.549999
  0
LINE
  5
517
100
AcDbEntity
  8
0
100
AcDbLine
 62
7
  6
CONTINUOUS
 10
11.454665
 20
-33.188045
 11
11.454665
 21
-31.617084
  0
LINE
  5
518
100
AcDbEntity
  8
0
100
AcDbLine
 62
7
  6
CONTINUOUS
 10
11.454665
 20
-31.037162
 11
11.454665
 21
-29.833154
  0
LINE
  5
519
100
AcDbEntity
  8
0
100
AcDbLine
 62
7
  6
CONTINUOUS
 10
11.85757
 20
-29.833154
 11
11.85757
 21
-29.358337
  0
LINE
  5
51A
100
AcDbEntity
  8
0
100
AcDbLine
 62
7
  6
CONTINUOUS
 10
11.872991
 20
-33.660266
 11
11.872991
 21
-33.188045
  0
LINE
  5
51B
100
AcDbEntity
  8
0
100
AcDbLine
 62
7
  6
CONTINUOUS
 10
12.21691
 20
33.450001
 11
12.21691
 21
30.198116
  0
LINE
  5
51C
100
AcDbEntity
  8
0
100
AcDbLine
 62
7
  6
CONTINUOUS
 10
13.659909
 20
30.198116
 11
13.659909
 21
29.549999
  0
LWPOLYLINE
  5
51D
100
AcDbEntity
  8
0
100
AcDbPolyline
 62
7
  6
CONTINUOUS
 90
34
 70
0
 10
10.8556599413
 20
32.2509259742
 10
10.8548687708
 20
32.1804597727
 10
10.8508252648
 20
32.1103938764
 10
10.8435294232
 20
32.0407289246
 10
10.8332694169
 20
31.9711742895
 10
10.819757075
 20
31.9020216634
 10
10.8021278855
 20
31.8341459711
 10
10.7802024551
 20
31.7674274698
 10
10.7541601772
 20
31.7019885654
 10
10.7236747198
 20
31.6390692248
 10
10.6885375329
 20
31.5787282342
 10
10.6489571666
 20
31.5209112095
 10
10.605232939
 20
31.4666900372
 10
10.5570459615
 20
31.4163254154
 10
10.5047151227
 20
31.3695617245
 10
10.4494964069
 20
31.3266970331
 10
10.3914024471
 20
31.2879547347
 10
10.3304206103
 20
31.2531155455
 10
10.2677689812
 20
31.2218132124
 10
10.2035125463
 20
31.1941904672
 10
10.1375863191
 20
31.1701071836
 10
10.0710134252
 20
31.1487721855
 10
10.0039817018
 20
31.1300934552
 10
9.9363033116
 20
31.1141643282
 10
9.8684378684
 20
31.1004711854
 10
9.8005282736
 20
31.0890323631
 10
9.7324316259
 20
31.0798301994
 10
9.6641788355
 20
31.0722968247
 10
9.5958019392
 20
31.0665822547
 10
9.5272689002
 20
31.0625367441
 10
9.4585145183
 20
31.0591426181
 10
9.3895170601
 20
31.0560606466
 10
9.3202982591
 20
31.053630101
 10
9.2508581152
 20
31.051851
  0
LINE
  5
51E
100
AcDbEntity
  8
RACCORDO
100
AcDbLine
 62
7
  6
CONTINUOUS
 10
22.1838167081
 20
26.7847210577
 11
22.074658487
 21
26.3773370308
  0
LINE
  5
51F
100
AcDbEntity
  8
0
100
AcDbLine
 62
7
  6
CONTINUOUS
 10
24.068487
 20
32.704531
 11
23.490266
 21
31.0247
  0
LINE
  5
520
100
AcDbEntity
  8
0
100
AcDbLine
 62
7
  6
CONTINUOUS
 10
23.274228
 20
30.376583
 11
22.982458
 21
29.549999
  0
LINE
  5
521
100
AcDbEntity
  8
0
100
AcDbLine
 62
7
  6
CONTINUOUS
 10
23.593002
 20
33.450001
 11
22.183026
 21
29.549999
  0
LINE
  5
522
100
AcDbEntity
  8
RACCORDO
100
AcDbLine
 62
7
  6
CONTINUOUS
 10
-0.4242826528
 20
-26.3812887508
 11
-0.4427235509
 21
-26.4071375944
  0
LWPOLYLINE
  5
523
100
AcDbEntity
  8
RACCORDO
100
AcDbPolyline
 62
7
  6
CONTINUOUS
 90
3
 70
0
 10
-0.4427235509
 20
-26.4071375944
 10
-0.4547823115
 20
-26.4238929619
 10
-0.4978082882
 20
-26.4823032581
  0
LINE
  5
524
100
AcDbEntity
  8
RACCORDO
100
AcDbLine
 62
7
  6
CONTINUOUS
 10
-0.4978082882
 20
-26.4823032581
 11
-0.5476330665
 21
-26.5488765555
  0
LINE
  5
525
100
AcDbEntity
  8
RACCORDO
100
AcDbLine
 62
7
  6
CONTINUOUS
 10
-0.5476330665
 20
-26.5488765555
 11
-0.6005069735
 21
-26.6188524851
  0
LWPOLYLINE
  5
526
100
AcDbEntity
  8
RACCORDO
100
AcDbPolyline
 62
7
  6
CONTINUOUS
 90
3
 70
0
 10
-0.6005069735
 20
-26.6188524851
 10
-0.6182435901
 20
-26.6421651261
 10
-0.6360789757
 20
-26.6652145484
  0
LWPOLYLINE
  5
527
100
AcDbEntity
  8
RACCORDO
100
AcDbPolyline
 62
7
  6
CONTINUOUS
 90
7
 70
0
 10
-0.3921661616
 20
-26.3340328461
 10
-0.4073687798
 20
-26.3539608825
 10
-0.413618893
 20
-26.36198736
 10
-0.4185794071
 20
-26.3685244829
 10
-0.4221230415
 20
-26.3733886124
 10
-0.4243770768
 20
-26.3763838804
 10
-0.425341513
 20
-26.3773370308
  0
LWPOLYLINE
  5
528
100
AcDbEntity
  8
RACCORDO
100
AcDbPolyline
 62
7
  6
CONTINUOUS
 90
3
 70
0
 10
-0.3635586784
 20
-26.2967618641
 10
-0.3832136567
 20
-26.3224710468
 10
-0.3921661616
 20
-26.3340328461
  0
LINE
  5
529
100
AcDbEntity
  8
RACCORDO
100
AcDbLine
 62
7
  6
CONTINUOUS
 10
-0.2837029381
 20
-26.1925772872
 11
-0.3528562049
 21
-26.282904321
  0
LINE
  5
52A
100
AcDbEntity
  8
RACCORDO
100
AcDbLine
 62
7
  6
CONTINUOUS
 10
-0.3528562049
 20
-26.282904321
 11
-0.3635586784
 21
-26.2967618641
  0
LINE
  5
52B
100
AcDbEntity
  8
RACCORDO
100
AcDbLine
 62
7
  6
CONTINUOUS
 10
-0.2718787125
 20
-26.1773404154
 11
-0.2837029381
 21
-26.1925772872
  0
LWPOLYLINE
  5
52C
100
AcDbEntity
  8
0
100
AcDbPolyline
 62
7
  6
CONTINUOUS
 90
28
 70
0
 10
-13.099707
 20
-30.6643817834
 10
-13.1494689017
 20
-30.7200754793
 10
-13.1978197225
 20
-30.7777819284
 10
-13.2447594624
 20
-30.8374996984
 10
-13.2903310794
 20
-30.8996227999
 10
-13.3344916155
 20
-30.963753942
 10
-13.3771121971
 20
-31.0287055054
 10
-13.4181149895
 20
-31.0942039876
 10
-13.4575778275
 20
-31.1605213915
 10
-13.4956053417
 20
-31.2272894917
 10
-13.5322356315
 20
-31.2943021079
 10
-13.5674305977
 20
-31.3617643859
 10
-13.6011805731
 20
-31.4299251573
 10
-13.6334861356
 20
-31.4987986414
 10
-13.6643467073
 20
-31.5683689605
 10
-13.6937508879
 20
-31.6388393814
 10
-13.7217373173
 20
-31.710261883
 10
-13.7482673556
 20
-31.7825822948
 10
-13.7732136824
 20
-31.8558443914
 10
-13.7967236146
 20
-31.9299983678
 10
-13.8186498353
 20
-32.0050916317
 10
-13.8384230741
 20
-32.081313488
 10
-13.8558577785
 20
-32.1587329814
 10
-13.8711395008
 20
-32.2372779631
 10
-13.8842556278
 20
-32.3169257078
 10
-13.895201955
 20
-32.3976675572
 10
-13.9039826867
 20
-32.479508892
 10
-13.9105978231
 20
-32.562448
  0
LWPOLYLINE
  5
52D
100
AcDbEntity
  8
RACCORDO
100
AcDbPolyline
 62
7
  6
CONTINUOUS
 90
3
 70
0
 10
42.0979256236
 20
25.40131377
 10
42.1398474824
 20
25.443235321
 10
42.1824231827
 20
25.4859721672
  0
LINE
  5
52E
100
AcDbEntity
  8
RACCORDO
100
AcDbLine
 62
7
  6
CONTINUOUS
 10
42.0844956391
 20
25.3879661237
 11
42.0979256236
 21
25.40131377
  0
LWPOLYLINE
  5
52F
100
AcDbEntity
  8
RACCORDO
100
AcDbPolyline
 62
7
  6
CONTINUOUS
 90
3
 70
0
 10
42.0474429172
 20
25.3509461267
 10
42.0592542859
 20
25.3626447572
 10
42.0844956391
 20
25.3879661237
  0
LINE
  5
530
100
AcDbEntity
  8
RACCORDO
100
AcDbLine
 62
7
  6
CONTINUOUS
 10
42.1824231827
 20
25.4859721672
 11
42.1965910318
 21
25.5
  0
LWPOLYLINE
  5
531
100
AcDbEntity
  8
0
100
AcDbPolyline
 62
7
  6
CONTINUOUS
 90
13
 70
0
 10
-20.376934
 20
-30.8983383542
 10
-20.4130868697
 20
-30.9304097638
 10
-20.450744866
 20
-30.9613256935
 10
-20.4899079888
 20
-30.9910865373
 10
-20.5307059108
 20
-31.0195778727
 10
-20.5730089594
 20
-31.0469149007
 10
-20.6164281169
 20
-31.0734423218
 10
-20.6608298705
 20
-31.0993923321
 10
-20.7063477331
 20
-31.1245331661
 10
-20.7529932253
 20
-31.1485135674
 10
-20.8007701873
 20
-31.1712167078
 10
-20.8496747789
 20
-31.1927600699
 10
-20.899707
 20
-31.2131439487
  0
LINE
  5
532
100
AcDbEntity
  8
RACCORDO
100
AcDbLine
 62
7
  6
CONTINUOUS
 10
42.1824231827
 20
-25.4859721672
 11
42.1965910318
 21
-25.5
  0
LINE
  5
533
100
AcDbEntity
  8
RACCORDO
100
AcDbLine
 62
7
  6
CONTINUOUS
 10
42.0592542859
 20
-25.3626447572
 11
42.1824231827
 21
-25.4859721672
  0
LWPOLYLINE
  5
534
100
AcDbEntity
  8
RACCORDO
100
AcDbPolyline
 62
7
  6
CONTINUOUS
 90
3
 70
0
 10
42.0265234655
 20
-25.3299122023
 10
42.0474429172
 20
-25.3509461267
 10
42.0592542859
 20
-25.3626447572
  0
LWPOLYLINE
  5
535
100
AcDbEntity
  8
RACCORDO
100
AcDbPolyline
 62
7
  6
CONTINUOUS
 90
7
 70
0
 10
-0.3920992954
 20
26.3340841544
 10
-0.4074135733
 20
26.3539265113
 10
-0.4135489068
 20
26.3620410623
 10
-0.4185794071
 20
26.3685244829
 10
-0.4223606354
 20
26.3732063002
 10
-0.4246704548
 20
26.3761587635
 10
-0.425341513
 20
26.3773370308
  0
LWPOLYLINE
  5
536
100
AcDbEntity
  8
RACCORDO
100
AcDbPolyline
 62
7
  6
CONTINUOUS
 90
3
 70
0
 10
-0.3635024528
 20
26.2968050075
 10
-0.3832485336
 20
26.3224442849
 10
-0.3920992954
 20
26.3340841544
  0
LINE
  5
537
100
AcDbEntity
  8
RACCORDO
100
AcDbLine
 62
7
  6
CONTINUOUS
 10
-0.2835360657
 20
26.1927053329
 11
-0.3528870979
 21
26.282880616
  0
LINE
  5
538
100
AcDbEntity
  8
RACCORDO
100
AcDbLine
 62
7
  6
CONTINUOUS
 10
-0.3528870979
 20
26.282880616
 11
-0.3635024528
 21
26.2968050075
  0
LINE
  5
539
100
AcDbEntity
  8
RACCORDO
100
AcDbLine
 62
7
  6
CONTINUOUS
 10
-0.2718787125
 20
26.1773404154
 11
-0.2835360657
 21
26.1927053329
  0
LWPOLYLINE
  5
53A
100
AcDbEntity
  8
RACCORDO
100
AcDbPolyline
 62
7
  6
CONTINUOUS
 90
4
 70
0
 10
-0.5476330664
 20
26.5488765554
 10
-0.6005069735
 20
26.6188524851
 10
-0.6182435901
 20
26.6421651261
 10
-0.6360789757
 20
26.6652145484
  0
LINE
  5
53B
100
AcDbEntity
  8
RACCORDO
100
AcDbLine
 62
7
  6
CONTINUOUS
 10
-0.497808288
 20
26.4823032579
 11
-0.5476330664
 21
26.5488765554
  0
LINE
  5
53C
100
AcDbEntity
  8
RACCORDO
100
AcDbLine
 62
7
  6
CONTINUOUS
 10
-0.4547823114
 20
26.4238929617
 11
-0.497808288
 21
26.4823032579
  0
LWPOLYLINE
  5
53D
100
AcDbEntity
  8
RACCORDO
100
AcDbPolyline
 62
7
  6
CONTINUOUS
 90
3
 70
0
 10
-0.4242826528
 20
26.3812887508
 10
-0.4427235509
 20
26.4071375943
 10
-0.4547823114
 20
26.4238929617
  0
LINE
  5
53E
100
AcDbEntity
  8
RACCORDO
100
AcDbLine
 62
7
  6
CONTINUOUS
 10
22.074658487
 20
-26.3773370308
 11
22.1838167081
 21
-26.7847210577
  0
LINE
  5
53F
100
AcDbEntity
  8
0
100
AcDbLine
 62
7
  6
CONTINUOUS
 10
18.266734
 20
33.450001
 11
18.266734
 21
29.549999
  0
LINE
  5
540
100
AcDbEntity
  8
0
100
AcDbLine
 62
7
  6
CONTINUOUS
 10
19.050021
 20
32.814036
 11
19.050021
 21
29.549999
  0
LINE
  5
541
100
AcDbEntity
  8
RACCORDO
100
AcDbLine
 62
7
  6
CONTINUOUS
 10
20.0
 20
-24.75
 11
20.0
 21
-22.564144533
  0
LINE
  5
542
100
AcDbEntity
  8
0
100
AcDbLine
 62
7
  6
CONTINUOUS
 10
20.0
 20
-22.5449439616
 11
20.0
 21
-22.564144533
  0
LINE
  5
543
100
AcDbEntity
  8
0
100
AcDbLine
 62
7
  6
CONTINUOUS
 10
20.0
 20
22.5449439616
 11
20.0
 21
22.564144533
  0
LINE
  5
544
100
AcDbEntity
  8
RACCORDO
100
AcDbLine
 62
7
  6
CONTINUOUS
 10
20.0
 20
22.564144533
 11
20.0
 21
24.75
  0
LINE
  5
545
100
AcDbEntity
  8
0
100
AcDbLine
 62
7
  6
CONTINUOUS
 10
21.005379
 20
33.450001
 11
21.005379
 21
30.359434
  0
LINE
  5
546
100
AcDbEntity
  8
0
100
AcDbLine
 62
7
  6
CONTINUOUS
 10
21.788667
 20
33.450001
 11
21.788667
 21
29.549999
  0
LINE
  5
547
100
AcDbEntity
  8
0
100
AcDbLine
 62
7
  6
CONTINUOUS
 10
22.132446
 20
-34.048037
 11
22.132446
 21
-33.29722
  0
LINE
  5
548
100
AcDbEntity
  8
0
100
AcDbLine
 62
7
  6
CONTINUOUS
 10
22.132446
 20
-29.70278
 11
22.132446
 21
-28.951963
  0
LINE
  5
549
100
AcDbEntity
  8
RACCORDO
100
AcDbLine
 62
7
  6
CONTINUOUS
 10
25.0
 20
24.75
 11
25.0
 21
22.564144533
  0
LINE
  5
54A
100
AcDbEntity
  8
0
100
AcDbLine
 62
7
  6
CONTINUOUS
 10
25.0
 20
-22.5449439616
 11
25.0
 21
-22.564144533
  0
LINE
  5
54B
100
AcDbEntity
  8
RACCORDO
100
AcDbLine
 62
7
  6
CONTINUOUS
 10
25.0
 20
-22.564144533
 11
25.0
 21
-24.75
  0
LINE
  5
54C
100
AcDbEntity
  8
0
100
AcDbLine
 62
7
  6
CONTINUOUS
 10
25.0
 20
22.5449439616
 11
25.0
 21
22.564144533
  0
LINE
  5
54D
100
AcDbEntity
  8
RACCORDO
100
AcDbLine
 62
7
  6
CONTINUOUS
 10
45.4242826528
 20
26.3812887508
 11
45.4427235509
 21
26.4071375944
  0
LWPOLYLINE
  5
54E
100
AcDbEntity
  8
RACCORDO
100
AcDbPolyline
 62
7
  6
CONTINUOUS
 90
3
 70
0
 10
45.4427235509
 20
26.4071375944
 10
45.4547823115
 20
26.4238929619
 10
45.4978082882
 20
26.4823032581
  0
LINE
  5
54F
100
AcDbEntity
  8
RACCORDO
100
AcDbLine
 62
7
  6
CONTINUOUS
 10
45.4978082882
 20
26.4823032581
 11
45.5476330665
 21
26.5488765555
  0
LINE
  5
550
100
AcDbEntity
  8
RACCORDO
100
AcDbLine
 62
7
  6
CONTINUOUS
 10
45.5476330665
 20
26.5488765555
 11
45.6005069735
 21
26.6188524851
  0
LWPOLYLINE
  5
551
100
AcDbEntity
  8
RACCORDO
100
AcDbPolyline
 62
7
  6
CONTINUOUS
 90
3
 70
0
 10
45.6005069735
 20
26.6188524851
 10
45.6182435901
 20
26.6421651261
 10
45.6360789757
 20
26.6652145484
  0
LWPOLYLINE
  5
552
100
AcDbEntity
  8
RACCORDO
100
AcDbPolyline
 62
7
  6
CONTINUOUS
 90
7
 70
0
 10
45.3921661616
 20
26.3340328461
 10
45.4073687798
 20
26.3539608825
 10
45.413618893
 20
26.36198736
 10
45.4185794071
 20
26.3685244829
 10
45.4221230415
 20
26.3733886124
 10
45.4243770768
 20
26.3763838804
 10
45.425341513
 20
26.3773370308
  0
LWPOLYLINE
  5
553
100
AcDbEntity
  8
RACCORDO
100
AcDbPolyline
 62
7
  6
CONTINUOUS
 90
3
 70
0
 10
45.3635586784
 20
26.2967618641
 10
45.3832136567
 20
26.3224710468
 10
45.3921661616
 20
26.3340328461
  0
LINE
  5
554
100
AcDbEntity
  8
RACCORDO
100
AcDbLine
 62
7
  6
CONTINUOUS
 10
45.2837029381
 20
26.1925772872
 11
45.3528562049
 21
26.282904321
  0
LINE
  5
555
100
AcDbEntity
  8
RACCORDO
100
AcDbLine
 62
7
  6
CONTINUOUS
 10
45.3528562049
 20
26.282904321
 11
45.3635586784
 21
26.2967618641
  0
LINE
  5
556
100
AcDbEntity
  8
RACCORDO
100
AcDbLine
 62
7
  6
CONTINUOUS
 10
45.2718787125
 20
26.1773404154
 11
45.2837029381
 21
26.1925772872
  0
LINE
  5
557
100
AcDbEntity
  8
RACCORDO
100
AcDbLine
 62
7
  6
CONTINUOUS
 10
2.9020743764
 20
-25.40131377
 11
2.8175768173
 21
-25.4859721672
  0
LINE
  5
558
100
AcDbEntity
  8
RACCORDO
100
AcDbLine
 62
7
  6
CONTINUOUS
 10
2.9155043609
 20
-25.3879661237
 11
2.9020743764
 21
-25.40131377
  0
LWPOLYLINE
  5
559
100
AcDbEntity
  8
RACCORDO
100
AcDbPolyline
 62
7
  6
CONTINUOUS
 90
3
 70
0
 10
2.9525570828
 20
-25.3509461267
 10
2.9407457141
 20
-25.3626447572
 10
2.9155043609
 20
-25.3879661237
  0
LINE
  5
55A
100
AcDbEntity
  8
RACCORDO
100
AcDbLine
 62
7
  6
CONTINUOUS
 10
2.8175768173
 20
-25.4859721672
 11
2.8034089682
 21
-25.5
  0
LWPOLYLINE
  5
55B
100
AcDbEntity
  8
RACCORDO
100
AcDbPolyline
 62
7
  6
CONTINUOUS
 90
7
 70
0
 10
3.0031348751
 20
-25.300274093
 10
3.0003395011
 20
-25.3025843876
 10
2.9960161009
 20
-25.3070061027
 10
2.9901646747
 20
-25.3132442935
 10
2.9825846177
 20
-25.3209666253
 10
2.9734765345
 20
-25.3299122023
 10
2.9525570828
 20
-25.3509461267
  0
LWPOLYLINE
  5
55C
100
AcDbEntity
  8
0
100
AcDbPolyline
 62
7
  6
CONTINUOUS
 90
41
 70
0
 10
-15.7939520948
 20
-31.2855914793
 10
-15.7481007359
 20
-31.2550005732
 10
-15.7005359399
 20
-31.22822739
 10
-15.6512577069
 20
-31.2052731904
 10
-15.5999175781
 20
-31.1859009086
 10
-15.5468640124
 20
-31.1703495443
 10
-15.4931423857
 20
-31.1593343133
 10
-15.4387363882
 20
-31.1531743232
 10
-15.3836623299
 20
-31.1515514275
 10
-15.329014517
 20
-31.1542247145
 10
-15.2747095139
 20
-31.1610862961
 10
-15.2208307563
 20
-31.1722435716
 10
-15.1687228569
 20
-31.1877782101
 10
-15.1185612713
 20
-31.2079484737
 10
-15.070170544
 20
-31.2324941645
 10
-15.0243689216
 20
-31.260719101
 10
-14.9812325119
 20
-31.2926396575
 10
-14.9406852071
 20
-31.3282367091
 10
-14.9033169306
 20
-31.3667610904
 10
-14.8690694275
 20
-31.4081172114
 10
-14.8380009527
 20
-31.4523976934
 10
-14.8108761944
 20
-31.4991360868
 10
-14.7879087268
 20
-31.5485444094
 10
-14.7688849758
 20
-31.6004073961
 10
-14.7539289071
 20
-31.6536185168
 10
-14.7432492442
 20
-31.7081666264
 10
-14.7366372637
 20
-31.7640607631
 10
-14.7335907605
 20
-31.8202261392
 10
-14.7338790037
 20
-31.8766377305
 10
-14.7377327242
 20
-31.9333199144
 10
-14.7453419109
 20
-31.9892735534
 10
-14.7566756375
 20
-32.0443888151
 10
-14.7717648302
 20
-32.098776455
 10
-14.7908922561
 20
-32.1517694893
 10
-14.8142316429
 20
-32.2033878719
 10
-14.8416092628
 20
-32.253613485
 10
-14.8727867004
 20
-32.3017232379
 10
-14.9078834221
 20
-32.348046942
 10
-14.9467799613
 20
-32.3922573554
 10
-14.9888795033
 20
-32.4326473446
 10
-15.0344181592
 20
-32.4689711533
  0
LWPOLYLINE
  5
55D
100
AcDbEntity
  8
0
100
AcDbPolyline
 62
7
  6
CONTINUOUS
 90
27
 70
0
 10
-15.0344181592
 20
-32.4689711533
 10
-15.0831598178
 20
-32.5014788355
 10
-15.1337993298
 20
-32.5292082368
 10
-15.1861964188
 20
-32.5516673262
 10
-15.2404913613
 20
-32.5693517899
 10
-15.2957998363
 20
-32.5827808836
 10
-15.3520498093
 20
-32.591950791
 10
-15.4093133149
 20
-32.596866764
 10
-15.4669221369
 20
-32.5980610814
 10
-15.5252312727
 20
-32.5958883871
 10
-15.5838857249
 20
-32.5899939845
 10
-15.6411522855
 20
-32.5798457431
 10
-15.6969532567
 20
-32.5652317332
 10
-15.7513663362
 20
-32.5463622874
 10
-15.8028914099
 20
-32.523338248
 10
-15.8512362337
 20
-32.4959077079
 10
-15.8966930516
 20
-32.4643194269
 10
-15.9386384805
 20
-32.4294253051
 10
-15.9770619845
 20
-32.391202984
 10
-16.0119740995
 20
-32.3496713474
 10
-16.0427830493
 20
-32.3057448909
 10
-16.0692543853
 20
-32.2593434561
 10
-16.0916225562
 20
-32.2105441884
 10
-16.1099991319
 20
-32.1604987919
 10
-16.1244213024
 20
-32.1095909944
 10
-16.1348518777
 20
-32.0574356618
 10
-16.1412908578
 20
-32.0040319892
  0
LWPOLYLINE
  5
55E
100
AcDbEntity
  8
0
100
AcDbPolyline
 62
7
  6
CONTINUOUS
 90
16
 70
0
 10
-20.899707
 20
-30.9607151418
 10
-20.8387957269
 20
-30.9304824962
 10
-20.780803492
 20
-30.8991711479
 10
-20.7257302952
 20
-30.8667807281
 10
-20.6736124267
 20
-30.8331560826
 10
-20.6244135963
 20
-30.7984515605
 10
-20.5780249338
 20
-30.7631312178
 10
-20.5344876219
 20
-30.7272579808
 10
-20.4937604779
 20
-30.6907685088
 10
-20.4556110832
 20
-30.6539377487
 10
-20.419827256
 20
-30.6168398257
 10
-20.3866211781
 20
-30.5794004254
 10
-20.3563969764
 20
-30.5416719694
 10
-20.32928936
 20
-30.5036718868
 10
-20.3051636198
 20
-30.4653825905
 10
-20.284019756
 20
-30.426804
  0
LINE
  5
55F
100
AcDbEntity
  8
RACCORDO
100
AcDbLine
 62
7
  6
CONTINUOUS
 10
42.1745244221
 20
26.3761193498
 11
42.1682466535
 21
26.375321437
  0
LINE
  5
560
100
AcDbEntity
  8
RACCORDO
100
AcDbLine
 62
7
  6
CONTINUOUS
 10
64.445950175
 20
26.3507451384
 11
64.6745244221
 21
26.3761193498
  0
LINE
  5
561
100
AcDbEntity
  8
RACCORDO
100
AcDbLine
 62
7
  6
CONTINUOUS
 10
41.945950175
 20
26.3507451384
 11
42.1745244221
 21
26.3761193498
  0
LINE
  5
562
100
AcDbEntity
  8
RACCORDO
100
AcDbLine
 62
7
  6
CONTINUOUS
 10
19.445950175
 20
26.3507451384
 11
19.6745244221
 21
26.3761193498
  0
LINE
  5
563
100
AcDbEntity
  8
RACCORDO
100
AcDbLine
 62
7
  6
CONTINUOUS
 10
64.445953915
 20
26.3507455535
 11
64.4502840274
 21
26.3511790585
  0
LINE
  5
564
100
AcDbEntity
  8
RACCORDO
100
AcDbLine
 62
7
  6
CONTINUOUS
 10
41.945953915
 20
26.3507455535
 11
41.9502840274
 21
26.3511790585
  0
LINE
  5
565
100
AcDbEntity
  8
RACCORDO
100
AcDbLine
 62
7
  6
CONTINUOUS
 10
19.445953915
 20
26.3507455535
 11
19.4502840274
 21
26.3511790585
  0
LINE
  5
566
100
AcDbEntity
  8
RACCORDO
100
AcDbLine
 62
7
  6
CONTINUOUS
 10
42.1965910318
 20
26.3773370308
 11
42.1745244221
 21
26.3761193498
  0
LINE
  5
567
100
AcDbEntity
  8
RACCORDO
100
AcDbLine
 62
7
  6
CONTINUOUS
 10
64.6965910318
 20
26.3773370308
 11
64.6800276626
 21
26.3766531592
  0
LINE
  5
568
100
AcDbEntity
  8
0
100
AcDbLine
 62
7
  6
CONTINUOUS
 10
78.6384437412
 20
22.5449439616
 11
-78.6384437412
 21
22.5449439616
  0
LINE
  5
569
100
AcDbEntity
  8
0
100
AcDbLine
 62
7
  6
CONTINUOUS
 10
-78.6384437412
 20
22.564144533
 11
-70.0
 21
22.564144533
  0
LINE
  5
56A
100
AcDbEntity
  8
0
100
AcDbLine
 62
7
  6
CONTINUOUS
 10
-65.0
 20
22.564144533
 11
-47.5
 21
22.564144533
  0
LINE
  5
56B
100
AcDbEntity
  8
0
100
AcDbLine
 62
7
  6
CONTINUOUS
 10
-42.5
 20
22.564144533
 11
-25.0
 21
22.564144533
  0
LINE
  5
56C
100
AcDbEntity
  8
0
100
AcDbLine
 62
7
  6
CONTINUOUS
 10
-20.0
 20
22.564144533
 11
-2.5
 21
22.564144533
  0
LINE
  5
56D
100
AcDbEntity
  8
0
100
AcDbLine
 62
7
  6
CONTINUOUS
 10
2.5
 20
22.564144533
 11
20.0
 21
22.564144533
  0
LINE
  5
56E
100
AcDbEntity
  8
0
100
AcDbLine
 62
7
  6
CONTINUOUS
 10
25.0
 20
22.564144533
 11
42.5
 21
22.564144533
  0
LINE
  5
56F
100
AcDbEntity
  8
0
100
AcDbLine
 62
7
  6
CONTINUOUS
 10
47.5
 20
22.564144533
 11
65.0
 21
22.564144533
  0
LINE
  5
570
100
AcDbEntity
  8
0
100
AcDbLine
 62
7
  6
CONTINUOUS
 10
70.0
 20
22.564144533
 11
78.6384437412
 21
22.564144533
  0
LINE
  5
571
100
AcDbEntity
  8
0
100
AcDbLine
 62
7
  6
CONTINUOUS
 10
-70.0
 20
23.3450658241
 11
-65.0
 21
23.3450658241
  0
LINE
  5
572
100
AcDbEntity
  8
0
100
AcDbLine
 62
7
  6
CONTINUOUS
 10
-47.5
 20
23.3450658241
 11
-42.5
 21
23.3450658241
  0
LINE
  5
573
100
AcDbEntity
  8
0
100
AcDbLine
 62
7
  6
CONTINUOUS
 10
-25.0
 20
23.3450658241
 11
-20.0
 21
23.3450658241
  0
LINE
  5
574
100
AcDbEntity
  8
0
100
AcDbLine
 62
7
  6
CONTINUOUS
 10
-2.5
 20
23.3450658241
 11
2.5
 21
23.3450658241
  0
LINE
  5
575
100
AcDbEntity
  8
0
100
AcDbLine
 62
7
  6
CONTINUOUS
 10
20.0
 20
23.3450658241
 11
25.0
 21
23.3450658241
  0
LINE
  5
576
100
AcDbEntity
  8
0
100
AcDbLine
 62
7
  6
CONTINUOUS
 10
42.5
 20
23.3450658241
 11
47.5
 21
23.3450658241
  0
LINE
  5
577
100
AcDbEntity
  8
0
100
AcDbLine
 62
7
  6
CONTINUOUS
 10
65.0
 20
23.3450658241
 11
70.0
 21
23.3450658241
  0
LINE
  5
578
100
AcDbEntity
  8
RACCORDO
100
AcDbLine
 62
7
  6
CONTINUOUS
 10
2.5
 20
23.5450658241
 11
-2.5
 21
23.5450658241
  0
LINE
  5
579
100
AcDbEntity
  8
RACCORDO
100
AcDbLine
 62
7
  6
CONTINUOUS
 10
20.0
 20
23.5450658241
 11
25.0
 21
23.5450658241
  0
LINE
  5
57A
100
AcDbEntity
  8
RACCORDO
100
AcDbLine
 62
7
  6
CONTINUOUS
 10
-20.0
 20
23.5450658241
 11
-25.0
 21
23.5450658241
  0
LINE
  5
57B
100
AcDbEntity
  8
RACCORDO
100
AcDbLine
 62
7
  6
CONTINUOUS
 10
42.5
 20
23.5450658241
 11
47.5
 21
23.5450658241
  0
LINE
  5
57C
100
AcDbEntity
  8
RACCORDO
100
AcDbLine
 62
7
  6
CONTINUOUS
 10
-42.5
 20
23.5450658241
 11
-47.5
 21
23.5450658241
  0
LINE
  5
57D
100
AcDbEntity
  8
RACCORDO
100
AcDbLine
 62
7
  6
CONTINUOUS
 10
65.0
 20
23.5450658241
 11
70.0
 21
23.5450658241
  0
LINE
  5
57E
100
AcDbEntity
  8
RACCORDO
100
AcDbLine
 62
7
  6
CONTINUOUS
 10
-65.0
 20
23.5450658241
 11
-70.0
 21
23.5450658241
  0
LINE
  5
57F
100
AcDbEntity
  8
0
100
AcDbLine
 62
7
  6
CONTINUOUS
 10
70.7211757214
 20
25.05
 11
70.7054533876
 21
25.05
  0
LINE
  5
580
100
AcDbEntity
  8
0
100
AcDbLine
 62
7
  6
CONTINUOUS
 10
70.5377484939
 20
25.05
 11
70.5220261601
 21
25.05
  0
LINE
  5
581
100
AcDbEntity
  8
0
100
AcDbLine
 62
7
  6
CONTINUOUS
 10
70.5639523835
 20
25.05
 11
70.5482300498
 21
25.05
  0
LINE
  5
582
100
AcDbEntity
  8
0
100
AcDbLine
 62
7
  6
CONTINUOUS
 10
70.5901562732
 20
25.05
 11
70.5744339394
 21
25.05
  0
LINE
  5
583
100
AcDbEntity
  8
0
100
AcDbLine
 62
7
  6
CONTINUOUS
 10
70.6163601628
 20
25.05
 11
70.600637829
 21
25.05
  0
LINE
  5
584
100
AcDbEntity
  8
0
100
AcDbLine
 62
7
  6
CONTINUOUS
 10
70.6425640525
 20
25.05
 11
70.6268417187
 21
25.05
  0
LINE
  5
585
100
AcDbEntity
  8
0
100
AcDbLine
 62
7
  6
CONTINUOUS
 10
70.6687679421
 20
25.05
 11
70.6530456083
 21
25.05
  0
LINE
  5
586
100
AcDbEntity
  8
0
100
AcDbLine
 62
7
  6
CONTINUOUS
 10
70.6949718318
 20
25.05
 11
70.679249498
 21
25.05
  0
LINE
  5
587
100
AcDbEntity
  8
0
100
AcDbLine
 62
7
  6
CONTINUOUS
 10
64.4779738399
 20
25.05
 11
64.4622515061
 21
25.05
  0
LINE
  5
588
100
AcDbEntity
  8
0
100
AcDbLine
 62
7
  6
CONTINUOUS
 10
64.2945466124
 20
25.05
 11
64.2788242786
 21
25.05
  0
LINE
  5
589
100
AcDbEntity
  8
0
100
AcDbLine
 62
7
  6
CONTINUOUS
 10
64.4517699502
 20
25.05
 11
64.4360476165
 21
25.05
  0
LINE
  5
58A
100
AcDbEntity
  8
0
100
AcDbLine
 62
7
  6
CONTINUOUS
 10
64.4255660606
 20
25.05
 11
64.4098437268
 21
25.05
  0
LINE
  5
58B
100
AcDbEntity
  8
0
100
AcDbLine
 62
7
  6
CONTINUOUS
 10
64.399362171
 20
25.05
 11
64.3836398372
 21
25.05
  0
LINE
  5
58C
100
AcDbEntity
  8
0
100
AcDbLine
 62
7
  6
CONTINUOUS
 10
64.3731582813
 20
25.05
 11
64.3574359475
 21
25.05
  0
LINE
  5
58D
100
AcDbEntity
  8
0
100
AcDbLine
 62
7
  6
CONTINUOUS
 10
64.3469543917
 20
25.05
 11
64.3312320579
 21
25.05
  0
LINE
  5
58E
100
AcDbEntity
  8
0
100
AcDbLine
 62
7
  6
CONTINUOUS
 10
64.320750502
 20
25.05
 11
64.3050281682
 21
25.05
  0
LINE
  5
58F
100
AcDbEntity
  8
RACCORDO
100
AcDbLine
 62
7
  6
CONTINUOUS
 10
64.2788242786
 20
25.05
 11
63.9653253569
 21
25.05
  0
LINE
  5
590
100
AcDbEntity
  8
RACCORDO
100
AcDbLine
 62
7
  6
CONTINUOUS
 10
47.2
 20
25.05
 11
42.8
 21
25.05
  0
LINE
  5
591
100
AcDbEntity
  8
RACCORDO
100
AcDbLine
 62
7
  6
CONTINUOUS
 10
24.7
 20
25.05
 11
20.3
 21
25.05
  0
LINE
  5
592
100
AcDbEntity
  8
RACCORDO
100
AcDbLine
 62
7
  6
CONTINUOUS
 10
2.2
 20
25.05
 11
-2.2
 21
25.05
  0
LINE
  5
593
100
AcDbEntity
  8
RACCORDO
100
AcDbLine
 62
7
  6
CONTINUOUS
 10
-20.3
 20
25.05
 11
-24.7
 21
25.05
  0
LINE
  5
594
100
AcDbEntity
  8
RACCORDO
100
AcDbLine
 62
7
  6
CONTINUOUS
 10
-42.8
 20
25.05
 11
-47.2
 21
25.05
  0
LINE
  5
595
100
AcDbEntity
  8
RACCORDO
100
AcDbLine
 62
7
  6
CONTINUOUS
 10
-63.9653253569
 20
25.05
 11
-64.2788242786
 21
25.05
  0
LINE
  5
596
100
AcDbEntity
  8
0
100
AcDbLine
 62
7
  6
CONTINUOUS
 10
-64.2788242786
 20
25.05
 11
-64.2945466124
 21
25.05
  0
LINE
  5
597
100
AcDbEntity
  8
0
100
AcDbLine
 62
7
  6
CONTINUOUS
 10
-64.4098437268
 20
25.05
 11
-64.4255660606
 21
25.05
  0
LINE
  5
598
100
AcDbEntity
  8
0
100
AcDbLine
 62
7
  6
CONTINUOUS
 10
-64.3836398372
 20
25.05
 11
-64.399362171
 21
25.05
  0
LINE
  5
599
100
AcDbEntity
  8
0
100
AcDbLine
 62
7
  6
CONTINUOUS
 10
-64.3574359475
 20
25.05
 11
-64.3731582813
 21
25.05
  0
LINE
  5
59A
100
AcDbEntity
  8
0
100
AcDbLine
 62
7
  6
CONTINUOUS
 10
-64.3312320579
 20
25.05
 11
-64.3469543917
 21
25.05
  0
LINE
  5
59B
100
AcDbEntity
  8
0
100
AcDbLine
 62
7
  6
CONTINUOUS
 10
-64.3050281682
 20
25.05
 11
-64.320750502
 21
25.05
  0
LINE
  5
59C
100
AcDbEntity
  8
0
100
AcDbLine
 62
7
  6
CONTINUOUS
 10
-64.4622515061
 20
25.05
 11
-64.4779738399
 21
25.05
  0
LINE
  5
59D
100
AcDbEntity
  8
0
100
AcDbLine
 62
7
  6
CONTINUOUS
 10
-64.4360476165
 20
25.05
 11
-64.4517699502
 21
25.05
  0
LINE
  5
59E
100
AcDbEntity
  8
RACCORDO
100
AcDbLine
 62
7
  6
CONTINUOUS
 10
-64.4779738399
 20
25.05
 11
-70.5220261601
 21
25.05
  0
LINE
  5
59F
100
AcDbEntity
  8
0
100
AcDbLine
 62
7
  6
CONTINUOUS
 10
-70.5220261601
 20
25.05
 11
-70.5377484939
 21
25.05
  0
LINE
  5
5A0
100
AcDbEntity
  8
0
100
AcDbLine
 62
7
  6
CONTINUOUS
 10
-70.5482300498
 20
25.05
 11
-70.5639523835
 21
25.05
  0
LINE
  5
5A1
100
AcDbEntity
  8
0
100
AcDbLine
 62
7
  6
CONTINUOUS
 10
-70.5744339394
 20
25.05
 11
-70.5901562732
 21
25.05
  0
LINE
  5
5A2
100
AcDbEntity
  8
0
100
AcDbLine
 62
7
  6
CONTINUOUS
 10
-70.600637829
 20
25.05
 11
-70.6163601628
 21
25.05
  0
LINE
  5
5A3
100
AcDbEntity
  8
0
100
AcDbLine
 62
7
  6
CONTINUOUS
 10
-70.6268417187
 20
25.05
 11
-70.6425640525
 21
25.05
  0
LINE
  5
5A4
100
AcDbEntity
  8
0
100
AcDbLine
 62
7
  6
CONTINUOUS
 10
-70.6530456083
 20
25.05
 11
-70.6687679421
 21
25.05
  0
LINE
  5
5A5
100
AcDbEntity
  8
RACCORDO
100
AcDbLine
 62
7
  6
CONTINUOUS
 10
64.4779738399
 20
25.05
 11
70.5220261601
 21
25.05
  0
LINE
  5
5A6
100
AcDbEntity
  8
0
100
AcDbLine
 62
7
  6
CONTINUOUS
 10
-70.7054533876
 20
25.05
 11
-70.7211757214
 21
25.05
  0
LINE
  5
5A7
100
AcDbEntity
  8
0
100
AcDbLine
 62
7
  6
CONTINUOUS
 10
-70.679249498
 20
25.05
 11
-70.6949718318
 21
25.05
  0
LINE
  5
5A8
100
AcDbEntity
  8
RACCORDO
100
AcDbLine
 62
7
  6
CONTINUOUS
 10
70.7211757214
 20
25.05
 11
71.0346746431
 21
25.05
  0
LINE
  5
5A9
100
AcDbEntity
  8
RACCORDO
100
AcDbLine
 62
7
  6
CONTINUOUS
 10
-70.7211757214
 20
25.05
 11
-71.0346746431
 21
25.05
  0
LWPOLYLINE
  5
5AA
100
AcDbEntity
  8
RACCORDO
100
AcDbPolyline
 62
7
  6
CONTINUOUS
 90
3
 70
0
 10
-64.4681761995
 20
26.3519805162
 10
-64.4504975429
 20
26.3511980025
 10
-64.4459536635
 20
26.3507455256
  0
LWPOLYLINE
  5
5AB
100
AcDbEntity
  8
RACCORDO
100
AcDbPolyline
 62
7
  6
CONTINUOUS
 90
3
 70
0
 10
-41.9681761995
 20
26.3519805162
 10
-41.9504975429
 20
26.3511980025
 10
-41.9459536635
 20
26.3507455256
  0
LINE
  5
5AC
100
AcDbEntity
  8
RACCORDO
100
AcDbLine
 62
7
  6
CONTINUOUS
 10
-64.6745863168
 20
26.376126211
 11
-64.6965910318
 21
26.3773370308
  0
LINE
  5
5AD
100
AcDbEntity
  8
RACCORDO
100
AcDbLine
 62
7
  6
CONTINUOUS
 10
-42.1745863168
 20
26.376126211
 11
-42.1965910318
 21
26.3773370308
  0
LINE
  5
5AE
100
AcDbEntity
  8
RACCORDO
100
AcDbLine
 62
7
  6
CONTINUOUS
 10
-64.4459499986
 20
26.3507451188
 11
-64.6745244221
 21
26.3761193498
  0
LINE
  5
5AF
100
AcDbEntity
  8
RACCORDO
100
AcDbLine
 62
7
  6
CONTINUOUS
 10
-41.9459499986
 20
26.3507451188
 11
-42.1745244221
 21
26.3761193498
  0
LINE
  5
5B0
100
AcDbEntity
  8
RACCORDO
100
AcDbLine
 62
7
  6
CONTINUOUS
 10
-19.4459499986
 20
26.3507451188
 11
-19.6745244221
 21
26.3761193498
  0
LWPOLYLINE
  5
5B1
100
AcDbEntity
  8
RACCORDO
100
AcDbPolyline
 62
7
  6
CONTINUOUS
 90
6
 70
0
 10
3.0031348751
 20
25.300274093
 10
3.0003395011
 20
25.3025843876
 10
2.9960161009
 20
25.3070061027
 10
2.9901646747
 20
25.3132442935
 10
2.9825846177
 20
25.3209666253
 10
2.9734765345
 20
25.3299122023
  0
LINE
  5
5B2
100
AcDbEntity
  8
RACCORDO
100
AcDbLine
 62
7
  6
CONTINUOUS
 10
2.8175768173
 20
25.4859721672
 11
2.8034089682
 21
25.5
  0
LINE
  5
5B3
100
AcDbEntity
  8
RACCORDO
100
AcDbLine
 62
7
  6
CONTINUOUS
 10
2.9407457141
 20
25.3626447572
 11
2.8175768173
 21
25.4859721672
  0
LWPOLYLINE
  5
5B4
100
AcDbEntity
  8
RACCORDO
100
AcDbPolyline
 62
7
  6
CONTINUOUS
 90
3
 70
0
 10
2.9734765345
 20
25.3299122023
 10
2.9525570828
 20
25.3509461267
 10
2.9407457141
 20
25.3626447572
  0
LWPOLYLINE
  5
5B5
100
AcDbEntity
  8
RACCORDO
100
AcDbPolyline
 62
7
  6
CONTINUOUS
 90
7
 70
0
 10
45.3920992954
 20
-26.3340841544
 10
45.4074135733
 20
-26.3539265113
 10
45.4135489068
 20
-26.3620410623
 10
45.4185794071
 20
-26.3685244829
 10
45.4223606354
 20
-26.3732063002
 10
45.4246704548
 20
-26.3761587635
 10
45.425341513
 20
-26.3773370308
  0
LWPOLYLINE
  5
5B6
100
AcDbEntity
  8
RACCORDO
100
AcDbPolyline
 62
7
  6
CONTINUOUS
 90
3
 70
0
 10
45.3635024528
 20
-26.2968050075
 10
45.3832485336
 20
-26.3224442849
 10
45.3920992954
 20
-26.3340841544
  0
LINE
  5
5B7
100
AcDbEntity
  8
RACCORDO
100
AcDbLine
 62
7
  6
CONTINUOUS
 10
45.2835360657
 20
-26.1927053329
 11
45.3528870979
 21
-26.282880616
  0
LINE
  5
5B8
100
AcDbEntity
  8
RACCORDO
100
AcDbLine
 62
7
  6
CONTINUOUS
 10
45.3528870979
 20
-26.282880616
 11
45.3635024528
 21
-26.2968050075
  0
LINE
  5
5B9
100
AcDbEntity
  8
RACCORDO
100
AcDbLine
 62
7
  6
CONTINUOUS
 10
45.2718787125
 20
-26.1773404154
 11
45.2835360657
 21
-26.1927053329
  0
LWPOLYLINE
  5
5BA
100
AcDbEntity
  8
RACCORDO
100
AcDbPolyline
 62
7
  6
CONTINUOUS
 90
4
 70
0
 10
45.5476330664
 20
-26.5488765554
 10
45.6005069735
 20
-26.6188524851
 10
45.6182435901
 20
-26.6421651261
 10
45.6360789757
 20
-26.6652145484
  0
LINE
  5
5BB
100
AcDbEntity
  8
RACCORDO
100
AcDbLine
 62
7
  6
CONTINUOUS
 10
45.497808288
 20
-26.4823032579
 11
45.5476330664
 21
-26.5488765554
  0
LINE
  5
5BC
100
AcDbEntity
  8
RACCORDO
100
AcDbLine
 62
7
  6
CONTINUOUS
 10
45.4547823114
 20
-26.4238929617
 11
45.497808288
 21
-26.4823032579
  0
LWPOLYLINE
  5
5BD
100
AcDbEntity
  8
RACCORDO
100
AcDbPolyline
 62
7
  6
CONTINUOUS
 90
3
 70
0
 10
45.4242826528
 20
-26.3812887508
 10
45.4427235509
 20
-26.4071375943
 10
45.4547823114
 20
-26.4238929617
  0
LINE
  5
5BE
100
AcDbEntity
  8
0
100
AcDbLine
 62
7
  6
CONTINUOUS
 10
26.117556
 20
-31.875
 11
26.117556
 21
-31.125
  0
LINE
  5
5BF
100
AcDbEntity
  8
0
100
AcDbLine
 62
7
  6
CONTINUOUS
 10
26.517556
 20
-34.0480371177
 11
26.517556
 21
-33.2972169516
  0
LINE
  5
5C0
100
AcDbEntity
  8
0
100
AcDbLine
 62
7
  6
CONTINUOUS
 10
26.517556
 20
-29.70278
 11
26.517556
 21
-28.9519628823
  0
LINE
  5
5C1
100
AcDbEntity
  8
0
100
AcDbLine
 62
7
  6
CONTINUOUS
 10
27.3
 20
34.8
 11
27.3
 21
28.2
  0
LINE
  5
5C2
100
AcDbEntity
  8
0
100
AcDbLine
 62
7
  6
CONTINUOUS
 10
28.2
 20
-35.7
 11
28.2
 21
-28.0
  0
LINE
  5
5C3
100
AcDbEntity
  8
RACCORDO
100
AcDbLine
 62
7
  6
CONTINUOUS
 10
22.8161832919
 20
-26.7847210577
 11
22.925341513
 21
-26.3773370308
  0
LINE
  5
5C4
100
AcDbEntity
  8
0
100
AcDbLine
 62
7
  6
CONTINUOUS
 10
10.1067010727
 20
-33.4479058704
 11
10.3240702271
 21
-33.0606245954
  0
LINE
  5
5C5
100
AcDbEntity
  8
0
100
AcDbLine
 62
7
  6
CONTINUOUS
 10
12.910123
 20
-35.159553
 11
13.156541
 21
-34.810217
  0
LINE
  5
5C6
100
AcDbEntity
  8
RACCORDO
100
AcDbLine
 62
7
  6
CONTINUOUS
 10
64.682563199
 20
25.2358321508
 11
64.6965910318
 21
25.25
  0
LINE
  5
5C7
100
AcDbEntity
  8
RACCORDO
100
AcDbLine
 62
7
  6
CONTINUOUS
 10
64.559235789
 20
25.112663254
 11
64.682563199
 21
25.2358321508
  0
LWPOLYLINE
  5
5C8
100
AcDbEntity
  8
RACCORDO
100
AcDbPolyline
 62
7
  6
CONTINUOUS
 90
3
 70
0
 10
64.5265032341
 20
25.0799324336
 10
64.5475371585
 20
25.1008518854
 10
64.559235789
 20
25.112663254
  0
LINE
  5
5C9
100
AcDbEntity
  8
0
100
AcDbLine
 62
7
  6
CONTINUOUS
 10
11.454665
 20
-31.037162
 11
12.7796169933
 21
-29.9206170057
  0
LINE
  5
5CA
100
AcDbEntity
  8
0
100
AcDbLine
 62
7
  6
CONTINUOUS
 10
11.454665
 20
-31.617084
 11
12.7181413584
 21
-30.552344698
  0
LWPOLYLINE
  5
5CB
100
AcDbEntity
  8
0
100
AcDbPolyline
 62
7
  6
CONTINUOUS
 90
28
 70
0
 10
9.4447708156
 20
31.7065066032
 10
9.506028079
 20
31.7134377985
 10
9.5365391869
 20
31.7170195922
 10
9.5668495706
 20
31.7215058932
 10
9.5969774732
 20
31.7269001734
 10
9.6269046515
 20
31.7331988429
 10
9.6564662385
 20
31.7411355302
 10
9.6859155738
 20
31.7507852074
 10
9.7149993177
 20
31.7620725148
 10
9.7427925841
 20
31.775505391
 10
9.7691840597
 20
31.7913326475
 10
9.7942850578
 20
31.8093046019
 10
9.8175046324
 20
31.829181337
 10
9.8385772816
 20
31.8511445116
 10
9.8577685073
 20
31.8750113524
 10
9.8752838695
 20
31.8999955248
 10
9.8911641467
 20
31.9259836878
 10
9.9053685605
 20
31.953088414
 10
9.9179803355
 20
31.9808626256
 10
9.9290142085
 20
32.009233979
 10
9.9384554427
 20
32.0382742899
 10
9.9463430527
 20
32.0677529641
 10
9.9525703365
 20
32.0976832255
 10
9.957243996
 20
32.1280514477
 10
9.9607231512
 20
32.1585869608
 10
9.9631275089
 20
32.1891995311
 10
9.9643373623
 20
32.2199792334
 10
9.9643388347
 20
32.2827058887
  0
LINE
  5
5CC
100
AcDbEntity
  8
RACCORDO
100
AcDbLine
 62
7
  6
CONTINUOUS
 10
-3.054049825
 20
26.3507451384
 11
-2.8254755779
 21
26.3761193498
  0
LINE
  5
5CD
100
AcDbEntity
  8
RACCORDO
100
AcDbLine
 62
7
  6
CONTINUOUS
 10
-25.554049825
 20
26.3507451384
 11
-25.3254755779
 21
26.3761193498
  0
LINE
  5
5CE
100
AcDbEntity
  8
RACCORDO
100
AcDbLine
 62
7
  6
CONTINUOUS
 10
-48.054049825
 20
26.3507451384
 11
-47.8254755779
 21
26.3761193498
  0
LWPOLYLINE
  5
5CF
100
AcDbEntity
  8
0
100
AcDbPolyline
 62
7
  6
CONTINUOUS
 90
3
 70
0
 10
9.3831879181
 20
31.699968
 10
9.4140246602
 20
31.7031572087
 10
9.4447708156
 20
31.7065066032
  0
LINE
  5
5D0
100
AcDbEntity
  8
RACCORDO
100
AcDbLine
 62
7
  6
CONTINUOUS
 10
-3.054046085
 20
26.3507455535
 11
-3.0497159726
 21
26.3511790585
  0
LINE
  5
5D1
100
AcDbEntity
  8
RACCORDO
100
AcDbLine
 62
7
  6
CONTINUOUS
 10
-25.554046085
 20
26.3507455535
 11
-25.5497159726
 21
26.3511790585
  0
LINE
  5
5D2
100
AcDbEntity
  8
RACCORDO
100
AcDbLine
 62
7
  6
CONTINUOUS
 10
-48.054046085
 20
26.3507455535
 11
-48.0497159726
 21
26.3511790585
  0
LINE
  5
5D3
100
AcDbEntity
  8
RACCORDO
100
AcDbLine
 62
7
  6
CONTINUOUS
 10
19.6965910318
 20
26.3773370308
 11
19.6745244221
 21
26.3761193498
  0
LINE
  5
5D4
100
AcDbEntity
  8
RACCORDO
100
AcDbLine
 62
7
  6
CONTINUOUS
 10
-2.8034089682
 20
26.3773370308
 11
-2.8254755779
 21
26.3761193498
  0
LINE
  5
5D5
100
AcDbEntity
  8
RACCORDO
100
AcDbLine
 62
7
  6
CONTINUOUS
 10
-25.3034089682
 20
26.3773370308
 11
-25.3199723374
 21
26.3766531592
  0
LINE
  5
5D6
100
AcDbEntity
  8
RACCORDO
100
AcDbLine
 62
7
  6
CONTINUOUS
 10
-47.8034089682
 20
26.3773370308
 11
-47.8199723374
 21
26.3766531592
  0
LINE
  5
5D7
100
AcDbEntity
  8
RACCORDO
100
AcDbLine
 62
7
  6
CONTINUOUS
 10
-70.3034089682
 20
26.3773370308
 11
-70.3199723374
 21
26.3766531592
  0
LINE
  5
5D8
100
AcDbEntity
  8
RACCORDO
100
AcDbLine
 62
7
  6
CONTINUOUS
 10
3.5345851468
 20
25.3
 11
-3.5345851468
 21
25.3
  0
LINE
  5
5D9
100
AcDbEntity
  8
RACCORDO
100
AcDbLine
 62
7
  6
CONTINUOUS
 10
18.9654148532
 20
25.3
 11
26.0345851468
 21
25.3
  0
LINE
  5
5DA
100
AcDbEntity
  8
RACCORDO
100
AcDbLine
 62
7
  6
CONTINUOUS
 10
-18.9654148532
 20
25.3
 11
-26.0345851468
 21
25.3
  0
LINE
  5
5DB
100
AcDbEntity
  8
RACCORDO
100
AcDbLine
 62
7
  6
CONTINUOUS
 10
41.4654148532
 20
25.3
 11
48.5345851468
 21
25.3
  0
LINE
  5
5DC
100
AcDbEntity
  8
RACCORDO
100
AcDbLine
 62
7
  6
CONTINUOUS
 10
-41.4654148532
 20
25.3
 11
-48.5345851468
 21
25.3
  0
LINE
  5
5DD
100
AcDbEntity
  8
RACCORDO
100
AcDbLine
 62
7
  6
CONTINUOUS
 10
70.3034089682
 20
26.3773370308
 11
67.925341513
 21
26.3773370308
  0
LINE
  5
5DE
100
AcDbEntity
  8
RACCORDO
100
AcDbLine
 62
7
  6
CONTINUOUS
 10
67.074658487
 20
26.3773370308
 11
64.6965910318
 21
26.3773370308
  0
LINE
  5
5DF
100
AcDbEntity
  8
RACCORDO
100
AcDbLine
 62
7
  6
CONTINUOUS
 10
47.8034089682
 20
26.3773370308
 11
45.425341513
 21
26.3773370308
  0
LINE
  5
5E0
100
AcDbEntity
  8
RACCORDO
100
AcDbLine
 62
7
  6
CONTINUOUS
 10
44.574658487
 20
26.3773370308
 11
42.1965910318
 21
26.3773370308
  0
LINE
  5
5E1
100
AcDbEntity
  8
RACCORDO
100
AcDbLine
 62
7
  6
CONTINUOUS
 10
25.3034089682
 20
26.3773370308
 11
22.925341513
 21
26.3773370308
  0
LINE
  5
5E2
100
AcDbEntity
  8
RACCORDO
100
AcDbLine
 62
7
  6
CONTINUOUS
 10
22.074658487
 20
26.3773370308
 11
19.6965910318
 21
26.3773370308
  0
LINE
  5
5E3
100
AcDbEntity
  8
RACCORDO
100
AcDbLine
 62
7
  6
CONTINUOUS
 10
2.8034089682
 20
26.3773370308
 11
0.425341513
 21
26.3773370308
  0
LINE
  5
5E4
100
AcDbEntity
  8
RACCORDO
100
AcDbLine
 62
7
  6
CONTINUOUS
 10
-0.425341513
 20
26.3773370308
 11
-2.8034089682
 21
26.3773370308
  0
LINE
  5
5E5
100
AcDbEntity
  8
RACCORDO
100
AcDbLine
 62
7
  6
CONTINUOUS
 10
-19.6965910318
 20
26.3773370308
 11
-22.074658487
 21
26.3773370308
  0
LINE
  5
5E6
100
AcDbEntity
  8
RACCORDO
100
AcDbLine
 62
7
  6
CONTINUOUS
 10
-22.925341513
 20
26.3773370308
 11
-25.3034089682
 21
26.3773370308
  0
LINE
  5
5E7
100
AcDbEntity
  8
RACCORDO
100
AcDbLine
 62
7
  6
CONTINUOUS
 10
-42.1965910318
 20
26.3773370308
 11
-44.574658487
 21
26.3773370308
  0
LINE
  5
5E8
100
AcDbEntity
  8
RACCORDO
100
AcDbLine
 62
7
  6
CONTINUOUS
 10
-45.425341513
 20
26.3773370308
 11
-47.8034089682
 21
26.3773370308
  0
LINE
  5
5E9
100
AcDbEntity
  8
RACCORDO
100
AcDbLine
 62
7
  6
CONTINUOUS
 10
-64.6965910318
 20
26.3773370308
 11
-67.074658487
 21
26.3773370308
  0
LINE
  5
5EA
100
AcDbEntity
  8
RACCORDO
100
AcDbLine
 62
7
  6
CONTINUOUS
 10
-67.925341513
 20
26.3773370308
 11
-70.3034089682
 21
26.3773370308
  0
LINE
  5
5EB
100
AcDbEntity
  8
0
100
AcDbLine
 62
7
  6
CONTINUOUS
 10
27.3
 20
28.2
 11
6.7
 21
28.2
  0
LINE
  5
5EC
100
AcDbEntity
  8
0
100
AcDbLine
 62
7
  6
CONTINUOUS
 10
-6.7
 20
28.2
 11
-27.3
 21
28.2
  0
LINE
  5
5ED
100
AcDbEntity
  8
0
100
AcDbLine
 62
7
  6
CONTINUOUS
 10
-12.32857
 20
29.549902
 11
-13.108609
 21
29.549912
  0
LINE
  5
5EE
100
AcDbEntity
  8
0
100
AcDbLine
 62
7
  6
CONTINUOUS
 10
-16.133079
 20
29.549902
 11
-16.913108
 21
29.549902
  0
LINE
  5
5EF
100
AcDbEntity
  8
0
100
AcDbLine
 62
7
  6
CONTINUOUS
 10
-19.168069
 20
29.549902
 11
-19.948098
 21
29.549902
  0
LINE
  5
5F0
100
AcDbEntity
  8
0
100
AcDbLine
 62
7
  6
CONTINUOUS
 10
-11.028515
 20
29.549912
 11
-11.808554
 21
29.549912
  0
LINE
  5
5F1
100
AcDbEntity
  8
0
100
AcDbLine
 62
7
  6
CONTINUOUS
 10
25.942572
 20
29.549999
 11
25.100138
 21
29.549999
  0
LINE
  5
5F2
100
AcDbEntity
  8
0
100
AcDbLine
 62
7
  6
CONTINUOUS
 10
22.982458
 20
29.549999
 11
22.183026
 21
29.549999
  0
LINE
  5
5F3
100
AcDbEntity
  8
0
100
AcDbLine
 62
7
  6
CONTINUOUS
 10
21.788667
 20
29.549999
 11
20.600306
 21
29.549999
  0
LINE
  5
5F4
100
AcDbEntity
  8
0
100
AcDbLine
 62
7
  6
CONTINUOUS
 10
19.050021
 20
29.549999
 11
18.266734
 21
29.549999
  0
LINE
  5
5F5
100
AcDbEntity
  8
0
100
AcDbLine
 62
7
  6
CONTINUOUS
 10
17.840086
 20
29.549999
 11
16.997358
 21
29.549999
  0
LINE
  5
5F6
100
AcDbEntity
  8
0
100
AcDbLine
 62
7
  6
CONTINUOUS
 10
14.879972
 20
29.549999
 11
14.08054
 21
29.549999
  0
LINE
  5
5F7
100
AcDbEntity
  8
0
100
AcDbLine
 62
7
  6
CONTINUOUS
 10
13.659909
 20
29.549999
 11
11.379613
 21
29.549999
  0
LINE
  5
5F8
100
AcDbEntity
  8
0
100
AcDbLine
 62
7
  6
CONTINUOUS
 10
8.894725
 20
29.549999
 11
8.057428
 21
29.549999
  0
LINE
  5
5F9
100
AcDbEntity
  8
0
100
AcDbLine
 62
7
  6
CONTINUOUS
 10
-8.687364
 20
29.549922
 11
-9.565947
 21
29.549912
  0
LINE
  5
5FA
100
AcDbEntity
  8
0
100
AcDbLine
 62
7
  6
CONTINUOUS
 10
-14.833033
 20
29.549912
 11
-15.613062
 21
29.549902
  0
LINE
  5
5FB
100
AcDbEntity
  8
0
100
AcDbLine
 62
7
  6
CONTINUOUS
 10
-17.650588
 20
29.549912
 11
-18.430598
 21
29.549902
  0
LINE
  5
5FC
100
AcDbEntity
  8
0
100
AcDbLine
 62
7
  6
CONTINUOUS
 10
-20.728108
 20
29.549902
 11
-21.508137
 21
29.549893
  0
LINE
  5
5FD
100
AcDbEntity
  8
0
100
AcDbLine
 62
7
  6
CONTINUOUS
 10
-23.280365
 20
29.549902
 11
-24.060424
 21
29.549893
  0
LINE
  5
5FE
100
AcDbEntity
  8
0
100
AcDbLine
 62
7
  6
CONTINUOUS
 10
13.659909
 20
30.198116
 11
12.21691
 21
30.198116
  0
LINE
  5
5FF
100
AcDbEntity
  8
0
100
AcDbLine
 62
7
  6
CONTINUOUS
 10
-13.354855
 20
30.316906
 11
-14.586777
 21
30.316906
  0
LINE
  5
600
100
AcDbEntity
  8
0
100
AcDbLine
 62
7
  6
CONTINUOUS
 10
24.819082
 20
30.376583
 11
23.274228
 21
30.376583
  0
LINE
  5
601
100
AcDbEntity
  8
0
100
AcDbLine
 62
7
  6
CONTINUOUS
 10
16.716449
 20
30.376583
 11
15.171595
 21
30.376583
  0
LINE
  5
602
100
AcDbEntity
  8
0
100
AcDbLine
 62
7
  6
CONTINUOUS
 10
24.608327
 20
31.0247
 11
23.490266
 21
31.0247
  0
LINE
  5
603
100
AcDbEntity
  8
0
100
AcDbLine
 62
7
  6
CONTINUOUS
 10
16.50584
 20
31.0247
 11
15.387634
 21
31.0247
  0
LINE
  5
604
100
AcDbEntity
  8
0
100
AcDbLine
 62
7
  6
CONTINUOUS
 10
9.2508581152
 20
31.051851
 11
8.894725
 21
31.051851
  0
LINE
  5
605
100
AcDbEntity
  8
0
100
AcDbLine
 62
7
  6
CONTINUOUS
 10
-10.347633
 20
31.057935
 11
-11.028427
 21
31.057945
  0
LINE
  5
606
100
AcDbEntity
  8
0
100
AcDbLine
 62
7
  6
CONTINUOUS
 10
-13.592794
 20
31.057935
 11
-14.348848
 21
31.057935
  0
LINE
  5
607
100
AcDbEntity
  8
0
100
AcDbLine
 62
7
  6
CONTINUOUS
 10
9.3831879181
 20
31.699968
 11
8.894725
 21
31.699968
  0
LINE
  5
608
100
AcDbEntity
  8
0
100
AcDbLine
 62
7
  6
CONTINUOUS
 10
-10.090256
 20
31.779474
 11
-11.039269
 21
31.779474
  0
LINE
  5
609
100
AcDbEntity
  8
ASSI
100
AcDbLine
 62
7
  6
CONTINUOUS
 10
35.6871716806
 20
32.6095719726
 11
31.8128283194
 21
32.6095719726
  0
LINE
  5
60A
100
AcDbEntity
  8
ASSI
100
AcDbLine
 62
7
  6
CONTINUOUS
 10
-31.8128283194
 20
32.6095719726
 11
-35.6871716806
 21
32.6095719726
  0
LINE
  5
60B
100
AcDbEntity
  8
0
100
AcDbLine
 62
7
  6
CONTINUOUS
 10
-10.090256
 20
32.728559
 11
-11.039279
 21
32.728559
  0
LINE
  5
60C
100
AcDbEntity
  8
0
100
AcDbLine
 62
7
  6
CONTINUOUS
 10
9.3831875084
 20
32.801884
 11
8.894725
 21
32.801884
  0
LWPOLYLINE
  5
60D
100
AcDbEntity
  8
RACCORDO
100
AcDbPolyline
 62
7
  6
CONTINUOUS
 90
3
 70
0
 10
-19.4681761995
 20
26.3519805162
 10
-19.4504975429
 20
26.3511980025
 10
-19.4459536635
 20
26.3507455256
  0
LWPOLYLINE
  5
60E
100
AcDbEntity
  8
RACCORDO
100
AcDbPolyline
 62
7
  6
CONTINUOUS
 90
3
 70
0
 10
3.0318238005
 20
26.3519805162
 10
3.0495024571
 20
26.3511980025
 10
3.0540463365
 20
26.3507455256
  0
LWPOLYLINE
  5
60F
100
AcDbEntity
  8
RACCORDO
100
AcDbPolyline
 62
7
  6
CONTINUOUS
 90
3
 70
0
 10
25.5318238005
 20
26.3519805162
 10
25.5495024571
 20
26.3511980025
 10
25.5540463365
 20
26.3507455256
  0
LWPOLYLINE
  5
610
100
AcDbEntity
  8
RACCORDO
100
AcDbPolyline
 62
7
  6
CONTINUOUS
 90
3
 70
0
 10
48.0318238005
 20
26.3519805162
 10
48.0495024571
 20
26.3511980025
 10
48.0540463365
 20
26.3507455256
  0
LWPOLYLINE
  5
611
100
AcDbEntity
  8
RACCORDO
100
AcDbPolyline
 62
7
  6
CONTINUOUS
 90
3
 70
0
 10
70.5318238005
 20
26.3519805162
 10
70.5495024571
 20
26.3511980025
 10
70.5540463365
 20
26.3507455256
  0
LINE
  5
612
100
AcDbEntity
  8
RACCORDO
100
AcDbLine
 62
7
  6
CONTINUOUS
 10
2.8254136832
 20
26.376126211
 11
2.8034089682
 21
26.3773370308
  0
LINE
  5
613
100
AcDbEntity
  8
RACCORDO
100
AcDbLine
 62
7
  6
CONTINUOUS
 10
-19.6745244221
 20
26.3761193498
 11
-19.6965910318
 21
26.3773370308
  0
LINE
  5
614
100
AcDbEntity
  8
RACCORDO
100
AcDbLine
 62
7
  6
CONTINUOUS
 10
25.3254755779
 20
26.3761193498
 11
25.3034089682
 21
26.3773370308
  0
LINE
  5
615
100
AcDbEntity
  8
RACCORDO
100
AcDbLine
 62
7
  6
CONTINUOUS
 10
47.8254755779
 20
26.3761193498
 11
47.8034089682
 21
26.3773370308
  0
LWPOLYLINE
  5
616
100
AcDbEntity
  8
RACCORDO
100
AcDbPolyline
 62
7
  6
CONTINUOUS
 90
3
 70
0
 10
70.3242985469
 20
26.3762499984
 10
70.3172249514
 20
26.3768914393
 10
70.3034089682
 20
26.3773370308
  0
LINE
  5
617
100
AcDbEntity
  8
RACCORDO
100
AcDbLine
 62
7
  6
CONTINUOUS
 10
3.0540500014
 20
26.3507451188
 11
2.8254755779
 21
26.3761193498
  0
LINE
  5
618
100
AcDbEntity
  8
RACCORDO
100
AcDbLine
 62
7
  6
CONTINUOUS
 10
25.5540500014
 20
26.3507451188
 11
25.3254755779
 21
26.3761193498
  0
LINE
  5
619
100
AcDbEntity
  8
RACCORDO
100
AcDbLine
 62
7
  6
CONTINUOUS
 10
48.0540500014
 20
26.3507451188
 11
47.8254755779
 21
26.3761193498
  0
LINE
  5
61A
100
AcDbEntity
  8
RACCORDO
100
AcDbLine
 62
7
  6
CONTINUOUS
 10
64.5979048019
 20
-25.1513345918
 11
64.682563199
 21
-25.2358321508
  0
LINE
  5
61B
100
AcDbEntity
  8
RACCORDO
100
AcDbLine
 62
7
  6
CONTINUOUS
 10
64.5845571555
 20
-25.1379046072
 11
64.5979048019
 21
-25.1513345918
  0
LWPOLYLINE
  5
61C
100
AcDbEntity
  8
RACCORDO
100
AcDbPolyline
 62
7
  6
CONTINUOUS
 90
3
 70
0
 10
64.5475371585
 20
-25.1008518854
 10
64.559235789
 20
-25.112663254
 10
64.5845571555
 20
-25.1379046072
  0
LINE
  5
61D
100
AcDbEntity
  8
RACCORDO
100
AcDbLine
 62
7
  6
CONTINUOUS
 10
64.682563199
 20
-25.2358321508
 11
64.6965910318
 21
-25.25
  0
LINE
  5
61E
100
AcDbEntity
  8
0
100
AcDbLine
 62
7
  6
CONTINUOUS
 10
19.509104
 20
33.450001
 11
21.005379
 21
30.359434
  0
LINE
  5
61F
100
AcDbEntity
  8
0
100
AcDbLine
 62
7
  6
CONTINUOUS
 10
19.050021
 20
32.814036
 11
20.600306
 21
29.549999
  0
LINE
  5
620
100
AcDbEntity
  8
0
100
AcDbLine
 62
7
  6
CONTINUOUS
 10
16.484266
 20
33.450001
 11
17.840086
 21
29.549999
  0
LINE
  5
621
100
AcDbEntity
  8
0
100
AcDbLine
 62
7
  6
CONTINUOUS
 10
16.716449
 20
30.376583
 11
16.997358
 21
29.549999
  0
LINE
  5
622
100
AcDbEntity
  8
0
100
AcDbLine
 62
7
  6
CONTINUOUS
 10
15.96593
 20
32.704752
 11
16.50584
 21
31.0247
  0
LINE
  5
623
100
AcDbEntity
  8
0
100
AcDbLine
 62
7
  6
CONTINUOUS
 10
24.068487
 20
32.704531
 11
24.608327
 21
31.0247
  0
LINE
  5
624
100
AcDbEntity
  8
RACCORDO
100
AcDbLine
 62
7
  6
CONTINUOUS
 10
22.925341513
 20
26.3773370308
 11
22.8161832919
 21
26.7847210577
  0
LINE
  5
625
100
AcDbEntity
  8
RACCORDO
100
AcDbLine
 62
7
  6
CONTINUOUS
 10
44.6838167081
 20
26.7847210577
 11
44.574658487
 21
26.3773370308
  0
LINE
  5
626
100
AcDbEntity
  8
RACCORDO
100
AcDbLine
 62
7
  6
CONTINUOUS
 10
22.0757173472
 20
-26.3812887508
 11
22.0572764491
 21
-26.4071375944
  0
LINE
  5
627
100
AcDbEntity
  8
RACCORDO
100
AcDbLine
 62
7
  6
CONTINUOUS
 10
67.9242826528
 20
26.3812887508
 11
67.9427235509
 21
26.4071375944
  0
LWPOLYLINE
  5
628
100
AcDbEntity
  8
RACCORDO
100
AcDbPolyline
 62
7
  6
CONTINUOUS
 90
3
 70
0
 10
22.0572764491
 20
-26.4071375944
 10
22.0452176885
 20
-26.4238929619
 10
22.0021917118
 20
-26.4823032581
  0
LWPOLYLINE
  5
629
100
AcDbEntity
  8
RACCORDO
100
AcDbPolyline
 62
7
  6
CONTINUOUS
 90
3
 70
0
 10
67.9427235509
 20
26.4071375944
 10
67.9547823115
 20
26.4238929619
 10
67.9978082882
 20
26.4823032581
  0
LINE
  5
62A
100
AcDbEntity
  8
RACCORDO
100
AcDbLine
 62
7
  6
CONTINUOUS
 10
22.0021917118
 20
-26.4823032581
 11
21.9523669335
 21
-26.5488765555
  0
LINE
  5
62B
100
AcDbEntity
  8
RACCORDO
100
AcDbLine
 62
7
  6
CONTINUOUS
 10
67.9978082882
 20
26.4823032581
 11
68.0476330665
 21
26.5488765555
  0
LWPOLYLINE
  5
62C
100
AcDbEntity
  8
RACCORDO
100
AcDbPolyline
 62
7
  6
CONTINUOUS
 90
6
 70
0
 10
22.0925864267
 20
-26.3539265113
 10
22.0864510932
 20
-26.3620410623
 10
22.0814205929
 20
-26.3685244829
 10
22.0776393646
 20
-26.3732063002
 10
22.0753295452
 20
-26.3761587635
 10
22.074658487
 20
-26.3773370308
  0
LINE
  5
62D
100
AcDbEntity
  8
RACCORDO
100
AcDbLine
 62
7
  6
CONTINUOUS
 10
21.9523669335
 20
-26.5488765555
 11
21.8994930265
 21
-26.6188524851
  0
LINE
  5
62E
100
AcDbEntity
  8
RACCORDO
100
AcDbLine
 62
7
  6
CONTINUOUS
 10
68.0476330665
 20
26.5488765555
 11
68.1005069735
 21
26.6188524851
  0
LINE
  5
62F
100
AcDbEntity
  8
RACCORDO
100
AcDbLine
 62
7
  6
CONTINUOUS
 10
22.2281212875
 20
-26.1773404154
 11
22.2164639343
 21
-26.1927053329
  0
LWPOLYLINE
  5
630
100
AcDbEntity
  8
RACCORDO
100
AcDbPolyline
 62
7
  6
CONTINUOUS
 90
3
 70
0
 10
22.1167514664
 20
-26.3224442849
 10
22.1079007046
 20
-26.3340841544
 10
22.0925864267
 20
-26.3539265113
  0
LWPOLYLINE
  5
631
100
AcDbEntity
  8
RACCORDO
100
AcDbPolyline
 62
7
  6
CONTINUOUS
 90
3
 70
0
 10
21.8994930265
 20
-26.6188524851
 10
21.8817564099
 20
-26.6421651261
 10
21.8639210243
 20
-26.6652145484
  0
LWPOLYLINE
  5
632
100
AcDbEntity
  8
RACCORDO
100
AcDbPolyline
 62
7
  6
CONTINUOUS
 90
3
 70
0
 10
68.1005069735
 20
26.6188524851
 10
68.1182435901
 20
26.6421651261
 10
68.1360789757
 20
26.6652145484
  0
LWPOLYLINE
  5
633
100
AcDbEntity
  8
RACCORDO
100
AcDbPolyline
 62
7
  6
CONTINUOUS
 90
7
 70
0
 10
67.8921661616
 20
26.3340328461
 10
67.9073687798
 20
26.3539608825
 10
67.913618893
 20
26.36198736
 10
67.9185794071
 20
26.3685244829
 10
67.9221230415
 20
26.3733886124
 10
67.9243770768
 20
26.3763838804
 10
67.925341513
 20
26.3773370308
  0
LWPOLYLINE
  5
634
100
AcDbEntity
  8
RACCORDO
100
AcDbPolyline
 62
7
  6
CONTINUOUS
 90
3
 70
0
 10
67.8635586784
 20
26.2967618641
 10
67.8832136567
 20
26.3224710468
 10
67.8921661616
 20
26.3340328461
  0
LINE
  5
635
100
AcDbEntity
  8
RACCORDO
100
AcDbLine
 62
7
  6
CONTINUOUS
 10
22.1364975472
 20
-26.2968050075
 11
22.1167514664
 21
-26.3224442849
  0
LINE
  5
636
100
AcDbEntity
  8
RACCORDO
100
AcDbLine
 62
7
  6
CONTINUOUS
 10
67.7837029381
 20
26.1925772872
 11
67.8528562049
 21
26.282904321
  0
LINE
  5
637
100
AcDbEntity
  8
RACCORDO
100
AcDbLine
 62
7
  6
CONTINUOUS
 10
67.8528562049
 20
26.282904321
 11
67.8635586784
 21
26.2967618641
  0
LINE
  5
638
100
AcDbEntity
  8
RACCORDO
100
AcDbLine
 62
7
  6
CONTINUOUS
 10
22.2164639343
 20
-26.1927053329
 11
22.1364975472
 21
-26.2968050075
  0
LINE
  5
639
100
AcDbEntity
  8
RACCORDO
100
AcDbLine
 62
7
  6
CONTINUOUS
 10
67.7718787125
 20
26.1773404154
 11
67.7837029381
 21
26.1925772872
  0
LWPOLYLINE
  5
63A
100
AcDbEntity
  8
RACCORDO
100
AcDbPolyline
 62
7
  6
CONTINUOUS
 90
6
 70
0
 10
64.4968651249
 20
25.050274093
 10
64.4991754195
 20
25.0530694671
 10
64.5035971346
 20
25.0573928673
 10
64.5098353253
 20
25.0632442935
 10
64.5175576571
 20
25.0708243505
 10
64.5265032341
 20
25.0799324336
  0
LWPOLYLINE
  5
63B
100
AcDbEntity
  8
RACCORDO
100
AcDbPolyline
 62
7
  6
CONTINUOUS
 90
3
 70
0
 10
25.4020743764
 20
-25.40131377
 10
25.3601525176
 20
-25.443235321
 10
25.3175768173
 20
-25.4859721672
  0
LINE
  5
63C
100
AcDbEntity
  8
RACCORDO
100
AcDbLine
 62
7
  6
CONTINUOUS
 10
25.4155043609
 20
-25.3879661237
 11
25.4020743764
 21
-25.40131377
  0
LWPOLYLINE
  5
63D
100
AcDbEntity
  8
RACCORDO
100
AcDbPolyline
 62
7
  6
CONTINUOUS
 90
3
 70
0
 10
25.4525570828
 20
-25.3509461267
 10
25.4407457141
 20
-25.3626447572
 10
25.4155043609
 20
-25.3879661237
  0
LINE
  5
63E
100
AcDbEntity
  8
RACCORDO
100
AcDbLine
 62
7
  6
CONTINUOUS
 10
25.3175768173
 20
-25.4859721672
 11
25.3034089682
 21
-25.5
  0
LWPOLYLINE
  5
63F
100
AcDbEntity
  8
RACCORDO
100
AcDbPolyline
 62
7
  6
CONTINUOUS
 90
7
 70
0
 10
25.5031348751
 20
-25.300274093
 10
25.5003395011
 20
-25.3025843876
 10
25.4960161009
 20
-25.3070061027
 10
25.4901646747
 20
-25.3132442935
 10
25.4825846177
 20
-25.3209666253
 10
25.4734765345
 20
-25.3299122023
 10
25.4525570828
 20
-25.3509461267
  0
LINE
  5
640
100
AcDbEntity
  8
RACCORDO
100
AcDbLine
 62
7
  6
CONTINUOUS
 10
-70.554049825
 20
26.3507451384
 11
-70.3254755779
 21
26.3761193498
  0
LINE
  5
641
100
AcDbEntity
  8
RACCORDO
100
AcDbLine
 62
7
  6
CONTINUOUS
 10
-70.554046085
 20
26.3507455535
 11
-70.5497159726
 21
26.3511790585
  0
LINE
  5
642
100
AcDbEntity
  8
0
100
AcDbLine
 62
7
  6
CONTINUOUS
 10
24.586899
 20
33.450001
 11
23.593002
 21
33.450001
  0
LINE
  5
643
100
AcDbEntity
  8
0
100
AcDbLine
 62
7
  6
CONTINUOUS
 10
21.788667
 20
33.450001
 11
21.005379
 21
33.450001
  0
LINE
  5
644
100
AcDbEntity
  8
0
100
AcDbLine
 62
7
  6
CONTINUOUS
 10
19.509104
 20
33.450001
 11
18.266734
 21
33.450001
  0
LINE
  5
645
100
AcDbEntity
  8
0
100
AcDbLine
 62
7
  6
CONTINUOUS
 10
16.484266
 20
33.450001
 11
15.490369
 21
33.450001
  0
LINE
  5
646
100
AcDbEntity
  8
0
100
AcDbLine
 62
7
  6
CONTINUOUS
 10
12.21691
 20
33.450001
 11
11.379613
 21
33.450001
  0
LINE
  5
647
100
AcDbEntity
  8
0
100
AcDbLine
 62
7
  6
CONTINUOUS
 10
9.2508567238
 20
33.450001
 11
8.057428
 21
33.450001
  0
LINE
  5
648
100
AcDbEntity
  8
0
100
AcDbLine
 62
7
  6
CONTINUOUS
 10
-16.133079
 20
33.450078
 11
-17.312273
 21
33.450078
  0
LINE
  5
649
100
AcDbEntity
  8
0
100
AcDbLine
 62
7
  6
CONTINUOUS
 10
-18.768904
 20
33.450078
 11
-19.948098
 21
33.450078
  0
LINE
  5
64A
100
AcDbEntity
  8
0
100
AcDbLine
 62
7
  6
CONTINUOUS
 10
-20.728098
 20
33.450078
 11
-21.508127
 21
33.450078
  0
LINE
  5
64B
100
AcDbEntity
  8
0
100
AcDbLine
 62
7
  6
CONTINUOUS
 10
-22.028143
 20
33.450078
 11
-22.808182
 21
33.450078
  0
LINE
  5
64C
100
AcDbEntity
  8
0
100
AcDbLine
 62
7
  6
CONTINUOUS
 10
-24.532597
 20
33.450078
 11
-25.312636
 21
33.450078
  0
LINE
  5
64D
100
AcDbEntity
  8
0
100
AcDbLine
 62
7
  6
CONTINUOUS
 10
-9.981989
 20
33.450088
 11
-11.808554
 21
33.450088
  0
LINE
  5
64E
100
AcDbEntity
  8
0
100
AcDbLine
 62
7
  6
CONTINUOUS
 10
-13.580792
 20
33.450088
 11
-14.36086
 21
33.450088
  0
LINE
  5
64F
100
AcDbEntity
  8
0
100
AcDbLine
 62
7
  6
CONTINUOUS
 10
27.3
 20
34.8
 11
6.7
 21
34.8
  0
LINE
  5
650
100
AcDbEntity
  8
0
100
AcDbLine
 62
7
  6
CONTINUOUS
 10
-6.7
 20
34.8
 11
-27.3
 21
34.8
  0
LINE
  5
651
100
AcDbEntity
  8
RACCORDO
100
AcDbLine
 62
7
  6
CONTINUOUS
 10
-99.0
 20
37.2
 11
99.0
 21
37.2
  0
LINE
  5
652
100
AcDbEntity
  8
0
100
AcDbLine
 62
7
  6
CONTINUOUS
 10
99.9045632454
 20
39.0068917647
 11
-99.904563254
 21
39.0068917734
  0
LINE
  5
653
100
AcDbEntity
  8
0
100
AcDbLine
 62
7
  6
CONTINUOUS
 10
-100.1004386911
 20
39.1988861938
 11
100.100438691
 21
39.1988861938
  0
LINE
  5
654
100
AcDbEntity
  8
0
100
AcDbLine
 62
7
  6
CONTINUOUS
 10
-100.1004434766
 20
39.9999840706
 11
100.1004434766
 21
39.9999840706
  0
LWPOLYLINE
  5
655
100
AcDbEntity
  8
0
100
AcDbPolyline
 62
7
  6
CONTINUOUS
 90
34
 70
0
 10
9.2508567238
 20
33.450001
 10
9.3205600041
 20
33.4482242084
 10
9.3900854763
 20
33.4457809645
 10
9.4594331403
 20
33.442671241
 10
9.5285969132
 20
33.4392388146
 10
9.597582878
 20
33.435139848
 10
9.6664092838
 20
33.4293428078
 10
9.7351029675
 20
33.4216918008
 10
9.8036370923
 20
33.4123423264
 10
9.8719493966
 20
33.4007297046
 10
9.9401847335
 20
33.3868336923
 10
10.0081982498
 20
33.3706735694
 10
10.075493125
 20
33.3517435887
 10
10.1422339548
 20
33.3301415864
 10
10.2082561433
 20
33.3057678989
 10
10.2725690824
 20
33.2778198838
 10
10.3352632821
 20
33.2461299108
 10
10.3962482324
 20
33.2108620938
 10
10.4542617947
 20
33.1717106134
 10
10.509303291
 20
33.1284342291
 10
10.5613733994
 20
33.0812689921
 10
10.6092120162
 20
33.0306248318
 10
10.6524653396
 20
32.9762642188
 10
10.6914871713
 20
32.9184189547
 10
10.7260788136
 20
32.8582040597
 10
10.7560449482
 20
32.7955989806
 10
10.7815808934
 20
32.7306200736
 10
10.8030739059
 20
32.6644398251
 10
10.820365848
 20
32.5972086791
 10
10.8336148575
 20
32.5287742982
 10
10.8436826045
 20
32.4598568965
 10
10.8508563125
 20
32.3906967024
 10
10.8548487581
 20
32.3210531435
 10
10.8556599413
 20
32.2509259742
  0
LINE
  5
656
100
AcDbEntity
  8
RACCORDO
100
AcDbLine
 62
7
  6
CONTINUOUS
 10
70.5540500014
 20
26.3507451188
 11
70.3254755779
 21
26.3761193498
  0
LWPOLYLINE
  5
657
100
AcDbEntity
  8
0
100
AcDbPolyline
 62
7
  6
CONTINUOUS
 90
4
 70
0
 10
9.5051659643
 20
32.7885157327
 10
9.4443479413
 20
32.7953818245
 10
9.4138139976
 20
32.7987090045
 10
9.3831875084
 20
32.801884
  0
LWPOLYLINE
  5
658
100
AcDbEntity
  8
RACCORDO
100
AcDbPolyline
 62
7
  6
CONTINUOUS
 90
7
 70
0
 10
64.4968651249
 20
-25.050274093
 10
64.4991754195
 20
-25.0530694671
 10
64.5035971346
 20
-25.0573928673
 10
64.5098353253
 20
-25.0632442935
 10
64.5175576571
 20
-25.0708243505
 10
64.5265032341
 20
-25.0799324336
 10
64.5475371585
 20
-25.1008518854
  0
LWPOLYLINE
  5
659
100
AcDbEntity
  8
RACCORDO
100
AcDbPolyline
 62
7
  6
CONTINUOUS
 90
7
 70
0
 10
22.1079007046
 20
26.3340841544
 10
22.0925864267
 20
26.3539265113
 10
22.0864510932
 20
26.3620410623
 10
22.0814205929
 20
26.3685244829
 10
22.0776393646
 20
26.3732063002
 10
22.0753295452
 20
26.3761587635
 10
22.074658487
 20
26.3773370308
  0
LWPOLYLINE
  5
65A
100
AcDbEntity
  8
RACCORDO
100
AcDbPolyline
 62
7
  6
CONTINUOUS
 90
7
 70
0
 10
67.8920992954
 20
-26.3340841544
 10
67.9074135733
 20
-26.3539265113
 10
67.9135489068
 20
-26.3620410623
 10
67.9185794071
 20
-26.3685244829
 10
67.9223606354
 20
-26.3732063002
 10
67.9246704548
 20
-26.3761587635
 10
67.925341513
 20
-26.3773370308
  0
LWPOLYLINE
  5
65B
100
AcDbEntity
  8
RACCORDO
100
AcDbPolyline
 62
7
  6
CONTINUOUS
 90
3
 70
0
 10
22.1364975472
 20
26.2968050075
 10
22.1167514664
 20
26.3224442849
 10
22.1079007046
 20
26.3340841544
  0
LWPOLYLINE
  5
65C
100
AcDbEntity
  8
RACCORDO
100
AcDbPolyline
 62
7
  6
CONTINUOUS
 90
3
 70
0
 10
67.8635024528
 20
-26.2968050075
 10
67.8832485336
 20
-26.3224442849
 10
67.8920992954
 20
-26.3340841544
  0
LINE
  5
65D
100
AcDbEntity
  8
RACCORDO
100
AcDbLine
 62
7
  6
CONTINUOUS
 10
22.2164639343
 20
26.1927053329
 11
22.1471129021
 21
26.282880616
  0
LINE
  5
65E
100
AcDbEntity
  8
RACCORDO
100
AcDbLine
 62
7
  6
CONTINUOUS
 10
67.7835360657
 20
-26.1927053329
 11
67.8528870979
 21
-26.282880616
  0
LINE
  5
65F
100
AcDbEntity
  8
RACCORDO
100
AcDbLine
 62
7
  6
CONTINUOUS
 10
22.1471129021
 20
26.282880616
 11
22.1364975472
 21
26.2968050075
  0
LINE
  5
660
100
AcDbEntity
  8
RACCORDO
100
AcDbLine
 62
7
  6
CONTINUOUS
 10
67.8528870979
 20
-26.282880616
 11
67.8635024528
 21
-26.2968050075
  0
LINE
  5
661
100
AcDbEntity
  8
RACCORDO
100
AcDbLine
 62
7
  6
CONTINUOUS
 10
22.2281212875
 20
26.1773404154
 11
22.2164639343
 21
26.1927053329
  0
LINE
  5
662
100
AcDbEntity
  8
RACCORDO
100
AcDbLine
 62
7
  6
CONTINUOUS
 10
67.7718787125
 20
-26.1773404154
 11
67.7835360657
 21
-26.1927053329
  0
LWPOLYLINE
  5
663
100
AcDbEntity
  8
RACCORDO
100
AcDbPolyline
 62
7
  6
CONTINUOUS
 90
4
 70
0
 10
21.9523669336
 20
26.5488765554
 10
21.8994930265
 20
26.6188524851
 10
21.8817564099
 20
26.6421651261
 10
21.8639210243
 20
26.6652145484
  0
LWPOLYLINE
  5
664
100
AcDbEntity
  8
RACCORDO
100
AcDbPolyline
 62
7
  6
CONTINUOUS
 90
4
 70
0
 10
68.0476330664
 20
-26.5488765554
 10
68.1005069735
 20
-26.6188524851
 10
68.1182435901
 20
-26.6421651261
 10
68.1360789757
 20
-26.6652145484
  0
LINE
  5
665
100
AcDbEntity
  8
RACCORDO
100
AcDbLine
 62
7
  6
CONTINUOUS
 10
22.002191712
 20
26.4823032579
 11
21.9523669336
 21
26.5488765554
  0
LINE
  5
666
100
AcDbEntity
  8
RACCORDO
100
AcDbLine
 62
7
  6
CONTINUOUS
 10
67.997808288
 20
-26.4823032579
 11
68.0476330664
 21
-26.5488765554
  0
LINE
  5
667
100
AcDbEntity
  8
RACCORDO
100
AcDbLine
 62
7
  6
CONTINUOUS
 10
22.0452176886
 20
26.4238929617
 11
22.002191712
 21
26.4823032579
  0
LINE
  5
668
100
AcDbEntity
  8
RACCORDO
100
AcDbLine
 62
7
  6
CONTINUOUS
 10
67.9547823114
 20
-26.4238929617
 11
67.997808288
 21
-26.4823032579
  0
LWPOLYLINE
  5
669
100
AcDbEntity
  8
RACCORDO
100
AcDbPolyline
 62
7
  6
CONTINUOUS
 90
3
 70
0
 10
22.0757173472
 20
26.3812887508
 10
22.0572764491
 20
26.4071375943
 10
22.0452176886
 20
26.4238929617
  0
LWPOLYLINE
  5
66A
100
AcDbEntity
  8
RACCORDO
100
AcDbPolyline
 62
7
  6
CONTINUOUS
 90
3
 70
0
 10
67.9242826528
 20
-26.3812887508
 10
67.9427235509
 20
-26.4071375943
 10
67.9547823114
 20
-26.4238929617
  0
LINE
  5
66B
100
AcDbEntity
  8
0
100
AcDbLine
 62
7
  6
CONTINUOUS
 10
24.586899
 20
33.450001
 11
25.942572
 21
29.549999
  0
LINE
  5
66C
100
AcDbEntity
  8
0
100
AcDbLine
 62
7
  6
CONTINUOUS
 10
24.819082
 20
30.376583
 11
25.100138
 21
29.549999
  0
LWPOLYLINE
  5
66D
100
AcDbEntity
  8
0
100
AcDbPolyline
 62
7
  6
CONTINUOUS
 90
7
 70
0
 10
51.6346493372
 20
-31.7241743418
 10
51.6302773325
 20
-31.7098530158
 10
51.6239898722
 20
-31.6963165217
 10
51.6164406748
 20
-31.6840000487
 10
51.6078476466
 20
-31.6730488178
 10
51.5979928814
 20
-31.6633179967
 10
51.5868763791
 20
-31.6548077413
  0
LINE
  5
66E
100
AcDbEntity
  8
RACCORDO
100
AcDbLine
 62
7
  6
CONTINUOUS
 10
44.574658487
 20
-26.3773370308
 11
44.6838167081
 21
-26.7847210577
  0
LWPOLYLINE
  5
66F
100
AcDbEntity
  8
0
100
AcDbPolyline
 62
7
  6
CONTINUOUS
 90
55
 70
0
 10
47.9065420561
 20
-31.5000024465
 10
47.9100568932
 20
-31.5906282732
 10
47.9200589481
 20
-31.6802455338
 10
47.9365482209
 20
-31.7688548992
 10
47.9597174075
 20
-31.8568195537
 10
47.9893738119
 20
-31.9437774228
 10
48.0249393462
 20
-32.0286425916
 10
48.0664181381
 20
-32.111226207
 10
48.1138060599
 20
-32.1917212677
 10
48.1665126414
 20
-32.2696164915
 10
48.2245044773
 20
-32.3448775528
 10
48.2878149728
 20
-32.417543849
 10
48.3559538733
 20
-32.4872156335
 10
48.4285986849
 20
-32.553746269
 10
48.5060719015
 20
-32.6172880474
 10
48.5888507495
 20
-32.6778898814
 10
48.6770147828
 20
-32.7358059325
 10
48.7704844475
 20
-32.7907868607
 10
48.8694983089
 20
-32.8421267442
 10
48.9741550396
 20
-32.8899714897
 10
49.084355967
 20
-32.9341805301
 10
49.2000436391
 20
-32.9736193601
 10
49.3215101398
 20
-33.0084053116
 10
49.4484633852
 20
-33.038426513
 10
49.5799696717
 20
-33.0622056399
 10
49.7172493142
 20
-33.0795828165
 10
49.8590819978
 20
-33.0907220381
 10
50.0008730737
 20
-33.0946317473
 10
50.1426180027
 20
-33.0906390527
 10
50.284321324
 20
-33.0794168358
 10
50.4214020065
 20
-33.0619913025
 10
50.5526187756
 20
-33.0382105945
 10
50.6792129059
 20
-33.0082224712
 10
50.8003271913
 20
-32.973502542
 10
50.9156847715
 20
-32.9341679858
 10
51.0255625068
 20
-32.8900962161
 10
51.1299337721
 20
-32.8424041713
 10
51.2287063994
 20
-32.7912341293
 10
51.3219725568
 20
-32.7364385131
 10
51.4099821241
 20
-32.6787005702
 10
51.492658319
 20
-32.618272509
 10
51.5700779238
 20
-32.5548973005
 10
51.6427211648
 20
-32.488494703
 10
51.7109253087
 20
-32.4188967128
 10
51.7743530888
 20
-32.3462655969
 10
51.8324729316
 20
-32.2710167685
 10
51.8853070405
 20
-32.1931252518
 10
51.9328332122
 20
-32.1126109101
 10
51.9744532632
 20
-32.0299573499
 10
52.0101711592
 20
-31.9449538684
 10
52.0399829347
 20
-31.8578068878
 10
52.0632785089
 20
-31.769627556
 10
52.0798545218
 20
-31.6807863535
 10
52.0899143334
 20
-31.5909116383
 10
52.0934579439
 20
-31.5000027107
  0
LINE
  5
670
100
AcDbEntity
  8
RACCORDO
100
AcDbLine
 62
7
  6
CONTINUOUS
 10
42.5
 20
-24.75
 11
42.5
 21
-22.564144533
  0
LINE
  5
671
100
AcDbEntity
  8
0
100
AcDbLine
 62
7
  6
CONTINUOUS
 10
42.5
 20
-22.5449439616
 11
42.5
 21
-22.564144533
  0
LINE
  5
672
100
AcDbEntity
  8
0
100
AcDbLine
 62
7
  6
CONTINUOUS
 10
42.5
 20
22.5449439616
 11
42.5
 21
22.564144533
  0
LINE
  5
673
100
AcDbEntity
  8
RACCORDO
100
AcDbLine
 62
7
  6
CONTINUOUS
 10
42.5
 20
22.564144533
 11
42.5
 21
24.75
  0
LINE
  5
674
100
AcDbEntity
  8
0
100
AcDbLine
 62
7
  6
CONTINUOUS
 10
46.0
 20
-33.75
 11
46.0
 21
-29.25
  0
LINE
  5
675
100
AcDbEntity
  8
RACCORDO
100
AcDbLine
 62
7
  6
CONTINUOUS
 10
47.5
 20
24.75
 11
47.5
 21
22.564144533
  0
LINE
  5
676
100
AcDbEntity
  8
0
100
AcDbLine
 62
7
  6
CONTINUOUS
 10
47.5
 20
-22.5449439616
 11
47.5
 21
-22.564144533
  0
LINE
  5
677
100
AcDbEntity
  8
RACCORDO
100
AcDbLine
 62
7
  6
CONTINUOUS
 10
47.5
 20
-22.564144533
 11
47.5
 21
-24.75
  0
LINE
  5
678
100
AcDbEntity
  8
0
100
AcDbLine
 62
7
  6
CONTINUOUS
 10
47.5
 20
22.5449439616
 11
47.5
 21
22.564144533
  0
LWPOLYLINE
  5
679
100
AcDbEntity
  8
0
100
AcDbPolyline
 62
7
  6
CONTINUOUS
 90
28
 70
0
 10
47.7593457951
 20
-31.5000430078
 10
47.7622283481
 20
-31.4093000802
 10
47.771268675
 20
-31.3187997881
 10
47.7864667758
 20
-31.228542919
 10
47.8078092271
 20
-31.1382487665
 10
47.8353094523
 20
-31.0481993834
 10
47.8690077219
 20
-30.9592405854
 10
47.9088885436
 20
-30.8714587089
 10
47.9549674097
 20
-30.7847706658
 10
48.0073310681
 20
-30.6997695485
 10
48.06575207
 20
-30.6165833262
 10
48.1304578641
 20
-30.5350880729
 10
48.2022175446
 20
-30.4554996909
 10
48.2814283057
 20
-30.3773628314
 10
48.3676929531
 20
-30.3011364486
 10
48.4605889986
 20
-30.2284092125
 10
48.5604111262
 20
-30.1592066634
 10
48.6668646518
 20
-30.0935088111
 10
48.7786430352
 20
-30.0328379843
 10
48.8954144152
 20
-29.97743881
 10
49.017510653
 20
-29.9270727342
 10
49.1446207917
 20
-29.88253822
 10
49.2770838319
 20
-29.8437145213
 10
49.4145607731
 20
-29.8107270697
 10
49.5557236563
 20
-29.7847437941
 10
49.7001298288
 20
-29.7661551254
 10
49.8482219433
 20
-29.7545736099
 10
50.0
 20
-29.75
  0
LWPOLYLINE
  5
67A
100
AcDbEntity
  8
0
100
AcDbPolyline
 62
7
  6
CONTINUOUS
 90
37
 70
0
 10
-99.904563254
 20
39.0068917734
 10
-100.0022553863
 20
39.0045978602
 10
-100.0998989156
 20
38.997723024
 10
-100.1974938417
 20
38.9862672646
 10
-100.2956043669
 20
38.970071122
 10
-100.393666289
 20
38.9492940564
 10
-100.4899870015
 20
38.924414448
 10
-100.5844266627
 20
38.8952850011
 10
-100.6771251144
 20
38.8620530114
 10
-100.766809276
 20
38.8256387472
 10
-100.8531394966
 20
38.7861066138
 10
-100.9364554271
 20
38.7433922057
 10
-101.01650294
 20
38.6982225754
 10
-101.0930254756
 20
38.6508317969
 10
-101.1662795934
 20
38.6009857961
 10
-101.2367808441
 20
38.548709402
 10
-101.3046217361
 20
38.4940706027
 10
-101.3697097609
 20
38.43700141
 10
-101.4322829435
 20
38.3773226893
 10
-101.4923731962
 20
38.3150667739
 10
-101.5499486067
 20
38.2502013303
 10
-101.6051514628
 20
38.182450224
 10
-101.6580551308
 20
38.1118974356
 10
-101.7085862445
 20
38.0384589845
 10
-101.7566669926
 20
37.9616067934
 10
-101.8025565999
 20
37.8810049379
 10
-101.8459958417
 20
37.7969893425
 10
-101.8861292321
 20
37.7100397036
 10
-101.9229720146
 20
37.6198555836
 10
-101.9565089457
 20
37.52673742
 10
-101.9858388098
 20
37.4320662225
 10
-102.0107946451
 20
37.3357041778
 10
-102.0315434135
 20
37.2377890991
 10
-102.0476847837
 20
37.1401154355
 10
-102.0590853122
 20
37.0432813367
 10
-102.0658784426
 20
36.9466886531
 10
-102.068064175
 20
36.8503373846
  0
LWPOLYLINE
  5
67B
100
AcDbEntity
  8
0
100
AcDbPolyline
 62
7
  6
CONTINUOUS
 90
9
 70
0
 10
51.1738120986
 20
-31.2826417264
 10
51.1774797753
 20
-31.2970582051
 10
51.1832674707
 20
-31.3107289422
 10
51.1912882867
 20
-31.3235962517
 10
51.2014291214
 20
-31.3357180667
 10
51.2132134963
 20
-31.3466307863
 10
51.2264825852
 20
-31.3561800086
 10
51.2413952142
 20
-31.3645204539
 10
51.2579513833
 20
-31.3716522473
  0
LWPOLYLINE
  5
67C
100
AcDbEntity
  8
0
100
AcDbPolyline
 62
7
  6
CONTINUOUS
 90
34
 70
0
 10
51.6068496069
 20
-31.3040087409
 10
51.604234806
 20
-31.2896359677
 10
51.6007043091
 20
-31.2756253895
 10
51.5962581162
 20
-31.2619770706
 10
51.5908970015
 20
-31.2486183758
 10
51.5846201908
 20
-31.2356220555
 10
51.5774253616
 20
-31.2232062832
 10
51.56935456
 20
-31.2113554489
 10
51.5603657398
 20
-31.200085335
 10
51.55033044
 20
-31.1896612685
 10
51.5391679165
 20
-31.1801151666
 10
51.5269589134
 20
-31.1714153205
 10
51.5138172022
 20
-31.1637316582
 10
51.4996725939
 20
-31.1571252765
 10
51.4845952774
 20
-31.1515352575
 10
51.4689095908
 20
-31.146948506
 10
51.4526643533
 20
-31.1434485401
 10
51.4358107457
 20
-31.1409519418
 10
51.4185266487
 20
-31.1391951842
 10
51.4008146352
 20
-31.1380923163
 10
51.3826721323
 20
-31.1377293133
 10
51.3642693018
 20
-31.1381005202
 10
51.3454584118
 20
-31.1390893247
 10
51.3263871941
 20
-31.1408123276
 10
51.3076690062
 20
-31.1436136758
 10
51.2892762485
 20
-31.1475137497
 10
51.2712365205
 20
-31.1524920816
 10
51.254245978
 20
-31.1588315
 10
51.2383099119
 20
-31.166681074
 10
51.2234230314
 20
-31.1758914932
 10
51.2102656195
 20
-31.1862979833
 10
51.1989384723
 20
-31.1980455387
 10
51.1893407939
 20
-31.21098883
 10
51.1818504792
 20
-31.2245276824
  0
LWPOLYLINE
  5
67D
100
AcDbEntity
  8
0
100
AcDbPolyline
 62
7
  6
CONTINUOUS
 90
26
 70
0
 10
51.1472838959
 20
-31.6959912591
 10
51.151809903
 20
-31.7223215252
 10
51.1590830848
 20
-31.747796701
 10
51.1691034413
 20
-31.7724170624
 10
51.1819307862
 20
-31.7968273937
 10
51.1975053058
 20
-31.8203833063
 10
51.2156475592
 20
-31.8411519053
 10
51.236810697
 20
-31.8585242488
 10
51.2605415687
 20
-31.873110798
 10
51.2853012812
 20
-31.8848082329
 10
51.3109588312
 20
-31.8932306671
 10
51.3376452221
 20
-31.8987648051
 10
51.364214571
 20
-31.9024659848
 10
51.390449278
 20
-31.9045828857
 10
51.4165669431
 20
-31.9048669662
 10
51.4420744836
 20
-31.9036275813
 10
51.4670687186
 20
-31.9010694982
 10
51.491452829
 20
-31.8969878748
 10
51.5144432746
 20
-31.8910775868
 10
51.5360178458
 20
-31.8831200544
 10
51.5561987521
 20
-31.8733335014
 10
51.5742690824
 20
-31.8620679706
 10
51.5900386164
 20
-31.8491694278
 10
51.6036975745
 20
-31.834791412
 10
51.6150997068
 20
-31.8197454831
 10
51.6242398678
 20
-31.8040387594
  0
LWPOLYLINE
  5
67E
100
AcDbEntity
  8
0
100
AcDbPolyline
 62
7
  6
CONTINUOUS
 90
49
 70
0
 10
52.0934579439
 20
-31.5000027107
 10
52.0907457407
 20
-31.4109370165
 10
52.0807056334
 20
-31.3211481445
 10
52.063337622
 20
-31.2306357883
 10
52.0387275077
 20
-31.1387627493
 10
52.0067894893
 20
-31.0461651948
 10
51.9672661633
 20
-30.9547549894
 10
51.9200227914
 20
-30.8647490377
 10
51.865194112
 20
-30.7759341155
 10
51.8029269368
 20
-30.6895801849
 10
51.7334786341
 20
-30.6059205329
 10
51.6565918356
 20
-30.5247274991
 10
51.5716412481
 20
-30.4465812001
 10
51.4782766979
 20
-30.3711030669
 10
51.3768483588
 20
-30.2986770437
 10
51.2677814583
 20
-30.2310285623
 10
51.1506992358
 20
-30.1681211082
 10
51.025978452
 20
-30.1099979107
 10
50.8951746169
 20
-30.0585059041
 10
50.7582803642
 20
-30.0137928111
 10
50.6153030603
 20
-29.9757173917
 10
50.4678203141
 20
-29.9456939801
 10
50.3148586286
 20
-29.9238926685
 10
50.1573915009
 20
-29.9101474368
 10
49.9999170311
 20
-29.9053681151
 10
49.8424227285
 20
-29.91016271
 10
49.6849210837
 20
-29.9239232136
 10
49.5319476687
 20
-29.9457345128
 10
49.3845036098
 20
-29.9757567014
 10
49.2415877808
 20
-30.0138256164
 10
49.1047323747
 20
-30.0585394211
 10
48.9739195704
 20
-30.1100464896
 10
48.849167189
 20
-30.1681919549
 10
48.7320608882
 20
-30.2311199616
 10
48.6229855435
 20
-30.29878876
 10
48.5215562793
 20
-30.3712333842
 10
48.4282041261
 20
-30.4467150591
 10
48.3432915228
 20
-30.5248331987
 10
48.2664560305
 20
-30.6059830482
 10
48.1970413622
 20
-30.6896211031
 10
48.1347706994
 20
-30.7760006207
 10
48.0799208607
 20
-30.8648626599
 10
48.0326660139
 20
-30.9548970015
 10
47.9931545133
 20
-31.0462975502
 10
47.9612380048
 20
-31.1388667731
 10
47.9366455942
 20
-31.2307106072
 10
47.9192869835
 20
-31.3211988108
 10
47.9092524708
 20
-31.4109626547
 10
47.9065420561
 20
-31.5000024465
  0
LINE
  5
67F
100
AcDbEntity
  8
0
100
AcDbLine
 62
7
  6
CONTINUOUS
 10
49.5584109574
 20
-32.4649529787
 11
49.5584109574
 21
-32.178738617
  0
LINE
  5
680
100
AcDbEntity
  8
0
100
AcDbLine
 62
7
  6
CONTINUOUS
 10
49.5584109574
 20
-30.821261383
 11
49.5584109574
 21
-30.5350470213
  0
LINE
  5
681
100
AcDbEntity
  8
0
100
AcDbLine
 62
7
  6
CONTINUOUS
 10
50.2616815957
 20
-32.4649529787
 11
50.2616815957
 21
-32.178738617
  0
LINE
  5
682
100
AcDbEntity
  8
0
100
AcDbLine
 62
7
  6
CONTINUOUS
 10
50.2616815957
 20
-30.821261383
 11
50.2616815957
 21
-30.5350470213
  0
LINE
  5
683
100
AcDbEntity
  8
0
100
AcDbLine
 62
7
  6
CONTINUOUS
 10
50.9649529787
 20
-32.4649529787
 11
50.9649529787
 21
-32.178738617
  0
LINE
  5
684
100
AcDbEntity
  8
0
100
AcDbLine
 62
7
  6
CONTINUOUS
 10
50.9649529787
 20
-30.821261383
 11
50.9649529787
 21
-30.5350470213
  0
LWPOLYLINE
  5
685
100
AcDbEntity
  8
0
100
AcDbPolyline
 62
7
  6
CONTINUOUS
 90
37
 70
0
 10
52.2406542056
 20
-31.500010752
 10
52.2377591294
 20
-31.5862347621
 10
52.2297542357
 20
-31.6714076977
 10
52.2166395245
 20
-31.7555302884
 10
52.1982508512
 20
-31.8388262179
 10
52.1747523603
 20
-31.9210731406
 10
52.1466364859
 20
-32.0016035049
 10
52.1139045187
 20
-32.0803101172
 10
52.0765551678
 20
-32.1573032889
 10
52.0350769946
 20
-32.232242839
 10
51.9894343629
 20
-32.3051467139
 10
51.9396629088
 20
-32.3760006926
 10
51.8863581019
 20
-32.4444170865
 10
51.8295080021
 20
-32.510361097
 10
51.7691245494
 20
-32.5738719079
 10
51.7058390343
 20
-32.6346734006
 10
51.6395950347
 20
-32.6927631012
 10
51.5704489726
 20
-32.7481480284
 10
51.4992014045
 20
-32.8005666795
 10
51.4259504002
 20
-32.8499243672
 10
51.35059789
 20
-32.896320285
 10
51.2736502205
 20
-32.9397837977
 10
51.1951187233
 20
-32.9803141199
 10
51.114992067
 20
-33.0179157944
 10
51.0337426043
 20
-33.0526259668
 10
50.9514228512
 20
-33.084432155
 10
50.8679802917
 20
-33.1133498563
 10
50.7837297311
 20
-33.1394579483
 10
50.6986819286
 20
-33.1627666331
 10
50.612826125
 20
-33.1832679221
 10
50.5264448473
 20
-33.2010131741
 10
50.4395466152
 20
-33.2160105246
 10
50.3521229091
 20
-33.2282532971
 10
50.2644306976
 20
-33.2377704295
 10
50.1765556371
 20
-33.2445718076
 10
50.0884120712
 20
-33.2486482706
 10
50.0
 20
-33.25
  0
LINE
  5
686
100
AcDbEntity
  8
RACCORDO
100
AcDbLine
 62
7
  6
CONTINUOUS
 10
45.3161832919
 20
-26.7847210577
 11
45.425341513
 21
-26.3773370308
  0
LINE
  5
687
100
AcDbEntity
  8
RACCORDO
100
AcDbLine
 62
7
  6
CONTINUOUS
 10
44.5757173472
 20
-26.3812887508
 11
44.5572764491
 21
-26.4071375944
  0
LWPOLYLINE
  5
688
100
AcDbEntity
  8
RACCORDO
100
AcDbPolyline
 62
7
  6
CONTINUOUS
 90
3
 70
0
 10
44.5572764491
 20
-26.4071375944
 10
44.5452176885
 20
-26.4238929619
 10
44.5021917118
 20
-26.4823032581
  0
LINE
  5
689
100
AcDbEntity
  8
RACCORDO
100
AcDbLine
 62
7
  6
CONTINUOUS
 10
44.5021917118
 20
-26.4823032581
 11
44.4523669335
 21
-26.5488765555
  0
LINE
  5
68A
100
AcDbEntity
  8
RACCORDO
100
AcDbLine
 62
7
  6
CONTINUOUS
 10
44.4523669335
 20
-26.5488765555
 11
44.3994930265
 21
-26.6188524851
  0
LWPOLYLINE
  5
68B
100
AcDbEntity
  8
RACCORDO
100
AcDbPolyline
 62
7
  6
CONTINUOUS
 90
3
 70
0
 10
44.3994930265
 20
-26.6188524851
 10
44.3817564099
 20
-26.6421651261
 10
44.3639210243
 20
-26.6652145484
  0
LWPOLYLINE
  5
68C
100
AcDbEntity
  8
RACCORDO
100
AcDbPolyline
 62
7
  6
CONTINUOUS
 90
7
 70
0
 10
44.6078338384
 20
-26.3340328461
 10
44.5926312202
 20
-26.3539608825
 10
44.586381107
 20
-26.36198736
 10
44.5814205929
 20
-26.3685244829
 10
44.5778769585
 20
-26.3733886124
 10
44.5756229232
 20
-26.3763838804
 10
44.574658487
 20
-26.3773370308
  0
LWPOLYLINE
  5
68D
100
AcDbEntity
  8
RACCORDO
100
AcDbPolyline
 62
7
  6
CONTINUOUS
 90
3
 70
0
 10
44.6364413216
 20
-26.2967618641
 10
44.6167863433
 20
-26.3224710468
 10
44.6078338384
 20
-26.3340328461
  0
LINE
  5
68E
100
AcDbEntity
  8
RACCORDO
100
AcDbLine
 62
7
  6
CONTINUOUS
 10
44.7162970619
 20
-26.1925772872
 11
44.6471437951
 21
-26.282904321
  0
LINE
  5
68F
100
AcDbEntity
  8
RACCORDO
100
AcDbLine
 62
7
  6
CONTINUOUS
 10
44.6471437951
 20
-26.282904321
 11
44.6364413216
 21
-26.2967618641
  0
LINE
  5
690
100
AcDbEntity
  8
RACCORDO
100
AcDbLine
 62
7
  6
CONTINUOUS
 10
44.7281212875
 20
-26.1773404154
 11
44.7162970619
 21
-26.1925772872
  0
LWPOLYLINE
  5
691
100
AcDbEntity
  8
RACCORDO
100
AcDbPolyline
 62
7
  6
CONTINUOUS
 90
3
 70
0
 10
47.9020743764
 20
-25.40131377
 10
47.8601525176
 20
-25.443235321
 10
47.8175768173
 20
-25.4859721672
  0
LINE
  5
692
100
AcDbEntity
  8
RACCORDO
100
AcDbLine
 62
7
  6
CONTINUOUS
 10
47.9155043609
 20
-25.3879661237
 11
47.9020743764
 21
-25.40131377
  0
LWPOLYLINE
  5
693
100
AcDbEntity
  8
RACCORDO
100
AcDbPolyline
 62
7
  6
CONTINUOUS
 90
3
 70
0
 10
47.9525570828
 20
-25.3509461267
 10
47.9407457141
 20
-25.3626447572
 10
47.9155043609
 20
-25.3879661237
  0
LINE
  5
694
100
AcDbEntity
  8
RACCORDO
100
AcDbLine
 62
7
  6
CONTINUOUS
 10
47.8175768173
 20
-25.4859721672
 11
47.8034089682
 21
-25.5
  0
LWPOLYLINE
  5
695
100
AcDbEntity
  8
RACCORDO
100
AcDbPolyline
 62
7
  6
CONTINUOUS
 90
7
 70
0
 10
48.0031348751
 20
-25.300274093
 10
48.0003395011
 20
-25.3025843876
 10
47.9960161009
 20
-25.3070061027
 10
47.9901646747
 20
-25.3132442935
 10
47.9825846177
 20
-25.3209666253
 10
47.9734765345
 20
-25.3299122023
 10
47.9525570828
 20
-25.3509461267
  0
LWPOLYLINE
  5
696
100
AcDbEntity
  8
RACCORDO
100
AcDbPolyline
 62
7
  6
CONTINUOUS
 90
6
 70
0
 10
48.0031348751
 20
25.300274093
 10
48.0003395011
 20
25.3025843876
 10
47.9960161009
 20
25.3070061027
 10
47.9901646747
 20
25.3132442935
 10
47.9825846177
 20
25.3209666253
 10
47.9734765345
 20
25.3299122023
  0
LINE
  5
697
100
AcDbEntity
  8
RACCORDO
100
AcDbLine
 62
7
  6
CONTINUOUS
 10
47.8175768173
 20
25.4859721672
 11
47.8034089682
 21
25.5
  0
LINE
  5
698
100
AcDbEntity
  8
RACCORDO
100
AcDbLine
 62
7
  6
CONTINUOUS
 10
47.9407457141
 20
25.3626447572
 11
47.8175768173
 21
25.4859721672
  0
LWPOLYLINE
  5
699
100
AcDbEntity
  8
RACCORDO
100
AcDbPolyline
 62
7
  6
CONTINUOUS
 90
3
 70
0
 10
47.9734765345
 20
25.3299122023
 10
47.9525570828
 20
25.3509461267
 10
47.9407457141
 20
25.3626447572
  0
LWPOLYLINE
  5
69A
100
AcDbEntity
  8
RACCORDO
100
AcDbPolyline
 62
7
  6
CONTINUOUS
 90
7
 70
0
 10
44.6079007046
 20
26.3340841544
 10
44.5925864267
 20
26.3539265113
 10
44.5864510932
 20
26.3620410623
 10
44.5814205929
 20
26.3685244829
 10
44.5776393646
 20
26.3732063002
 10
44.5753295452
 20
26.3761587635
 10
44.574658487
 20
26.3773370308
  0
LWPOLYLINE
  5
69B
100
AcDbEntity
  8
RACCORDO
100
AcDbPolyline
 62
7
  6
CONTINUOUS
 90
3
 70
0
 10
44.6364975472
 20
26.2968050075
 10
44.6167514664
 20
26.3224442849
 10
44.6079007046
 20
26.3340841544
  0
LINE
  5
69C
100
AcDbEntity
  8
RACCORDO
100
AcDbLine
 62
7
  6
CONTINUOUS
 10
44.7164639343
 20
26.1927053329
 11
44.6471129021
 21
26.282880616
  0
LINE
  5
69D
100
AcDbEntity
  8
RACCORDO
100
AcDbLine
 62
7
  6
CONTINUOUS
 10
44.6471129021
 20
26.282880616
 11
44.6364975472
 21
26.2968050075
  0
LINE
  5
69E
100
AcDbEntity
  8
RACCORDO
100
AcDbLine
 62
7
  6
CONTINUOUS
 10
44.7281212875
 20
26.1773404154
 11
44.7164639343
 21
26.1927053329
  0
LWPOLYLINE
  5
69F
100
AcDbEntity
  8
RACCORDO
100
AcDbPolyline
 62
7
  6
CONTINUOUS
 90
4
 70
0
 10
44.4523669336
 20
26.5488765554
 10
44.3994930265
 20
26.6188524851
 10
44.3817564099
 20
26.6421651261
 10
44.3639210243
 20
26.6652145484
  0
LINE
  5
6A0
100
AcDbEntity
  8
RACCORDO
100
AcDbLine
 62
7
  6
CONTINUOUS
 10
44.502191712
 20
26.4823032579
 11
44.4523669336
 21
26.5488765554
  0
LINE
  5
6A1
100
AcDbEntity
  8
RACCORDO
100
AcDbLine
 62
7
  6
CONTINUOUS
 10
44.5452176886
 20
26.4238929617
 11
44.502191712
 21
26.4823032579
  0
LWPOLYLINE
  5
6A2
100
AcDbEntity
  8
RACCORDO
100
AcDbPolyline
 62
7
  6
CONTINUOUS
 90
3
 70
0
 10
44.5757173472
 20
26.3812887508
 10
44.5572764491
 20
26.4071375943
 10
44.5452176886
 20
26.4238929617
  0
LINE
  5
6A3
100
AcDbEntity
  8
RACCORDO
100
AcDbLine
 62
7
  6
CONTINUOUS
 10
45.425341513
 20
26.3773370308
 11
45.3161832919
 21
26.7847210577
  0
LINE
  5
6A4
100
AcDbEntity
  8
0
100
AcDbLine
 62
7
  6
CONTINUOUS
 10
64.2866854455
 20
-25.2
 11
64.2788242786
 21
-25.05
  0
LINE
  5
6A5
100
AcDbEntity
  8
0
100
AcDbLine
 62
7
  6
CONTINUOUS
 10
64.3128893351
 20
-25.2
 11
64.3050281682
 21
-25.05
  0
LINE
  5
6A6
100
AcDbEntity
  8
0
100
AcDbLine
 62
7
  6
CONTINUOUS
 10
64.3390932248
 20
-25.2
 11
64.3312320579
 21
-25.05
  0
LINE
  5
6A7
100
AcDbEntity
  8
0
100
AcDbLine
 62
7
  6
CONTINUOUS
 10
64.3652971144
 20
-25.2
 11
64.3574359475
 21
-25.05
  0
LINE
  5
6A8
100
AcDbEntity
  8
0
100
AcDbLine
 62
7
  6
CONTINUOUS
 10
64.3915010041
 20
-25.2
 11
64.3836398372
 21
-25.05
  0
LINE
  5
6A9
100
AcDbEntity
  8
0
100
AcDbLine
 62
7
  6
CONTINUOUS
 10
64.4177048937
 20
-25.2
 11
64.4098437268
 21
-25.05
  0
LINE
  5
6AA
100
AcDbEntity
  8
0
100
AcDbLine
 62
7
  6
CONTINUOUS
 10
64.4439087833
 20
-25.2
 11
64.4360476165
 21
-25.05
  0
LINE
  5
6AB
100
AcDbEntity
  8
0
100
AcDbLine
 62
7
  6
CONTINUOUS
 10
64.470112673
 20
-25.2
 11
64.4622515061
 21
-25.05
  0
LINE
  5
6AC
100
AcDbEntity
  8
RACCORDO
100
AcDbLine
 62
7
  6
CONTINUOUS
 10
65.0
 20
-24.75
 11
65.0
 21
-22.564144533
  0
LINE
  5
6AD
100
AcDbEntity
  8
0
100
AcDbLine
 62
7
  6
CONTINUOUS
 10
65.0
 20
-22.5449439616
 11
65.0
 21
-22.564144533
  0
LINE
  5
6AE
100
AcDbEntity
  8
0
100
AcDbLine
 62
7
  6
CONTINUOUS
 10
65.0
 20
22.5449439616
 11
65.0
 21
22.564144533
  0
LINE
  5
6AF
100
AcDbEntity
  8
RACCORDO
100
AcDbLine
 62
7
  6
CONTINUOUS
 10
65.0
 20
22.564144533
 11
65.0
 21
24.75
  0
LINE
  5
6B0
100
AcDbEntity
  8
0
100
AcDbLine
 62
7
  6
CONTINUOUS
 10
64.2788242786
 20
25.05
 11
64.2866854455
 21
25.2
  0
LINE
  5
6B1
100
AcDbEntity
  8
0
100
AcDbLine
 62
7
  6
CONTINUOUS
 10
64.3050281682
 20
25.05
 11
64.3128893351
 21
25.2
  0
LINE
  5
6B2
100
AcDbEntity
  8
0
100
AcDbLine
 62
7
  6
CONTINUOUS
 10
64.3312320579
 20
25.05
 11
64.3390932248
 21
25.2
  0
LINE
  5
6B3
100
AcDbEntity
  8
0
100
AcDbLine
 62
7
  6
CONTINUOUS
 10
64.3574359475
 20
25.05
 11
64.3652971144
 21
25.2
  0
LINE
  5
6B4
100
AcDbEntity
  8
0
100
AcDbLine
 62
7
  6
CONTINUOUS
 10
64.3836398372
 20
25.05
 11
64.3915010041
 21
25.2
  0
LINE
  5
6B5
100
AcDbEntity
  8
0
100
AcDbLine
 62
7
  6
CONTINUOUS
 10
64.4098437268
 20
25.05
 11
64.4177048937
 21
25.2
  0
LINE
  5
6B6
100
AcDbEntity
  8
0
100
AcDbLine
 62
7
  6
CONTINUOUS
 10
64.4360476165
 20
25.05
 11
64.4439087833
 21
25.2
  0
LINE
  5
6B7
100
AcDbEntity
  8
0
100
AcDbLine
 62
7
  6
CONTINUOUS
 10
64.4622515061
 20
25.05
 11
64.470112673
 21
25.2
  0
LINE
  5
6B8
100
AcDbEntity
  8
RACCORDO
100
AcDbLine
 62
7
  6
CONTINUOUS
 10
67.1838167081
 20
26.7847210577
 11
67.074658487
 21
26.3773370308
  0
LWPOLYLINE
  5
6B9
100
AcDbEntity
  8
0
100
AcDbPolyline
 62
7
  6
CONTINUOUS
 90
5
 70
0
 10
51.1818504792
 20
-31.2245276824
 10
51.1765435509
 20
-31.2386966479
 10
51.1733439865
 20
-31.2534609664
 10
51.1724016134
 20
-31.2681167075
 10
51.1738120986
 20
-31.2826417264
  0
LWPOLYLINE
  5
6BA
100
AcDbEntity
  8
0
100
AcDbPolyline
 62
7
  6
CONTINUOUS
 90
6
 70
0
 10
51.6242398678
 20
-31.8040387594
 10
51.6311232032
 20
-31.787663854
 10
51.6356188991
 20
-31.7714108876
 10
51.6375259566
 20
-31.7553225326
 10
51.6370453747
 20
-31.7393561809
 10
51.6346493372
 20
-31.7241743418
  0
LINE
  5
6BB
100
AcDbEntity
  8
RACCORDO
100
AcDbLine
 62
7
  6
CONTINUOUS
 10
67.074658487
 20
-26.3773370308
 11
67.1838167081
 21
-26.7847210577
  0
LINE
  5
6BC
100
AcDbEntity
  8
0
100
AcDbLine
 62
7
  6
CONTINUOUS
 10
64.2866854455
 20
25.2
 11
64.2945466124
 21
25.05
  0
LINE
  5
6BD
100
AcDbEntity
  8
0
100
AcDbLine
 62
7
  6
CONTINUOUS
 10
64.3128893351
 20
25.2
 11
64.320750502
 21
25.05
  0
LINE
  5
6BE
100
AcDbEntity
  8
0
100
AcDbLine
 62
7
  6
CONTINUOUS
 10
64.3390932248
 20
25.2
 11
64.3469543917
 21
25.05
  0
LINE
  5
6BF
100
AcDbEntity
  8
0
100
AcDbLine
 62
7
  6
CONTINUOUS
 10
64.3652971144
 20
25.2
 11
64.3731582813
 21
25.05
  0
LINE
  5
6C0
100
AcDbEntity
  8
0
100
AcDbLine
 62
7
  6
CONTINUOUS
 10
64.3915010041
 20
25.2
 11
64.399362171
 21
25.05
  0
LINE
  5
6C1
100
AcDbEntity
  8
0
100
AcDbLine
 62
7
  6
CONTINUOUS
 10
64.4177048937
 20
25.2
 11
64.4255660606
 21
25.05
  0
LINE
  5
6C2
100
AcDbEntity
  8
0
100
AcDbLine
 62
7
  6
CONTINUOUS
 10
64.4439087833
 20
25.2
 11
64.4517699502
 21
25.05
  0
LINE
  5
6C3
100
AcDbEntity
  8
0
100
AcDbLine
 62
7
  6
CONTINUOUS
 10
64.470112673
 20
25.2
 11
64.4779738399
 21
25.05
  0
LINE
  5
6C4
100
AcDbEntity
  8
0
100
AcDbLine
 62
7
  6
CONTINUOUS
 10
70.5220261601
 20
-25.05
 11
70.529887327
 21
-25.2
  0
LINE
  5
6C5
100
AcDbEntity
  8
0
100
AcDbLine
 62
7
  6
CONTINUOUS
 10
70.5482300498
 20
-25.05
 11
70.5560912167
 21
-25.2
  0
LINE
  5
6C6
100
AcDbEntity
  8
0
100
AcDbLine
 62
7
  6
CONTINUOUS
 10
70.5744339394
 20
-25.05
 11
70.5822951063
 21
-25.2
  0
LINE
  5
6C7
100
AcDbEntity
  8
0
100
AcDbLine
 62
7
  6
CONTINUOUS
 10
70.600637829
 20
-25.05
 11
70.6084989959
 21
-25.2
  0
LINE
  5
6C8
100
AcDbEntity
  8
0
100
AcDbLine
 62
7
  6
CONTINUOUS
 10
70.6268417187
 20
-25.05
 11
70.6347028856
 21
-25.2
  0
LINE
  5
6C9
100
AcDbEntity
  8
0
100
AcDbLine
 62
7
  6
CONTINUOUS
 10
70.6530456083
 20
-25.05
 11
70.6609067752
 21
-25.2
  0
LINE
  5
6CA
100
AcDbEntity
  8
0
100
AcDbLine
 62
7
  6
CONTINUOUS
 10
70.679249498
 20
-25.05
 11
70.6871106649
 21
-25.2
  0
LINE
  5
6CB
100
AcDbEntity
  8
0
100
AcDbLine
 62
7
  6
CONTINUOUS
 10
70.7054533876
 20
-25.05
 11
70.7133145545
 21
-25.2
  0
LINE
  5
6CC
100
AcDbEntity
  8
0
100
AcDbLine
 62
7
  6
CONTINUOUS
 10
70.5377484939
 20
25.05
 11
70.529887327
 21
25.2
  0
LINE
  5
6CD
100
AcDbEntity
  8
0
100
AcDbLine
 62
7
  6
CONTINUOUS
 10
70.5639523835
 20
25.05
 11
70.5560912167
 21
25.2
  0
LINE
  5
6CE
100
AcDbEntity
  8
0
100
AcDbLine
 62
7
  6
CONTINUOUS
 10
70.5901562732
 20
25.05
 11
70.5822951063
 21
25.2
  0
LINE
  5
6CF
100
AcDbEntity
  8
0
100
AcDbLine
 62
7
  6
CONTINUOUS
 10
70.6163601628
 20
25.05
 11
70.6084989959
 21
25.2
  0
LINE
  5
6D0
100
AcDbEntity
  8
0
100
AcDbLine
 62
7
  6
CONTINUOUS
 10
70.6425640525
 20
25.05
 11
70.6347028856
 21
25.2
  0
LINE
  5
6D1
100
AcDbEntity
  8
0
100
AcDbLine
 62
7
  6
CONTINUOUS
 10
70.6687679421
 20
25.05
 11
70.6609067752
 21
25.2
  0
LINE
  5
6D2
100
AcDbEntity
  8
0
100
AcDbLine
 62
7
  6
CONTINUOUS
 10
70.6949718318
 20
25.05
 11
70.6871106649
 21
25.2
  0
LINE
  5
6D3
100
AcDbEntity
  8
0
100
AcDbLine
 62
7
  6
CONTINUOUS
 10
70.7211757214
 20
25.05
 11
70.7133145545
 21
25.2
  0
LWPOLYLINE
  5
6D4
100
AcDbEntity
  8
RACCORDO
100
AcDbPolyline
 62
7
  6
CONTINUOUS
 90
18
 70
0
 10
70.4932018815
 20
26.1784430851
 10
70.4920799662
 20
26.2004226941
 10
70.4887921641
 20
26.2214224693
 10
70.4836038752
 20
26.2412408906
 10
70.4768201254
 20
26.2596731737
 10
70.4686869827
 20
26.2766714047
 10
70.4593373355
 20
26.292315852
 10
70.4489829196
 20
26.3065511824
 10
70.4378320072
 20
26.3193533368
 10
70.4259233824
 20
26.3308383176
 10
70.4133914164
 20
26.3410062474
 10
70.4004040863
 20
26.3498421036
 10
70.3869921314
 20
26.3574110099
 10
70.3732506064
 20
26.3637308004
 10
70.3593205254
 20
26.3688048144
 10
70.3452770387
 20
26.3726667308
 10
70.3312099524
 20
26.3753499681
 10
70.3242985469
 20
26.3762499984
  0
LINE
  5
6D5
100
AcDbEntity
  8
0
100
AcDbLine
 62
7
  6
CONTINUOUS
 10
66.0
 20
-33.75
 11
66.0
 21
-29.25
  0
LINE
  5
6D6
100
AcDbEntity
  8
RACCORDO
100
AcDbLine
 62
7
  6
CONTINUOUS
 10
70.0
 20
24.75
 11
70.0
 21
22.564144533
  0
LINE
  5
6D7
100
AcDbEntity
  8
0
100
AcDbLine
 62
7
  6
CONTINUOUS
 10
70.0
 20
-22.5449439616
 11
70.0
 21
-22.564144533
  0
LINE
  5
6D8
100
AcDbEntity
  8
RACCORDO
100
AcDbLine
 62
7
  6
CONTINUOUS
 10
70.0
 20
-22.564144533
 11
70.0
 21
-24.75
  0
LINE
  5
6D9
100
AcDbEntity
  8
0
100
AcDbLine
 62
7
  6
CONTINUOUS
 10
70.0
 20
22.5449439616
 11
70.0
 21
22.564144533
  0
LINE
  5
6DA
100
AcDbEntity
  8
RACCORDO
100
AcDbLine
 62
7
  6
CONTINUOUS
 10
70.4932018815
 20
25.25
 11
70.4932018815
 21
26.1784430851
  0
LINE
  5
6DB
100
AcDbEntity
  8
0
100
AcDbLine
 62
7
  6
CONTINUOUS
 10
64.2945466124
 20
-25.05
 11
64.2866854455
 21
-25.2
  0
LINE
  5
6DC
100
AcDbEntity
  8
0
100
AcDbLine
 62
7
  6
CONTINUOUS
 10
64.320750502
 20
-25.05
 11
64.3128893351
 21
-25.2
  0
LINE
  5
6DD
100
AcDbEntity
  8
0
100
AcDbLine
 62
7
  6
CONTINUOUS
 10
64.3469543917
 20
-25.05
 11
64.3390932248
 21
-25.2
  0
LINE
  5
6DE
100
AcDbEntity
  8
0
100
AcDbLine
 62
7
  6
CONTINUOUS
 10
64.3731582813
 20
-25.05
 11
64.3652971144
 21
-25.2
  0
LINE
  5
6DF
100
AcDbEntity
  8
0
100
AcDbLine
 62
7
  6
CONTINUOUS
 10
64.399362171
 20
-25.05
 11
64.3915010041
 21
-25.2
  0
LINE
  5
6E0
100
AcDbEntity
  8
0
100
AcDbLine
 62
7
  6
CONTINUOUS
 10
64.4255660606
 20
-25.05
 11
64.4177048937
 21
-25.2
  0
LINE
  5
6E1
100
AcDbEntity
  8
0
100
AcDbLine
 62
7
  6
CONTINUOUS
 10
64.4517699502
 20
-25.05
 11
64.4439087833
 21
-25.2
  0
LINE
  5
6E2
100
AcDbEntity
  8
0
100
AcDbLine
 62
7
  6
CONTINUOUS
 10
64.4779738399
 20
-25.05
 11
64.470112673
 21
-25.2
  0
LINE
  5
6E3
100
AcDbEntity
  8
0
100
AcDbLine
 62
7
  6
CONTINUOUS
 10
70.529887327
 20
25.2
 11
70.5220261601
 21
25.05
  0
LINE
  5
6E4
100
AcDbEntity
  8
0
100
AcDbLine
 62
7
  6
CONTINUOUS
 10
70.5560912167
 20
25.2
 11
70.5482300498
 21
25.05
  0
LINE
  5
6E5
100
AcDbEntity
  8
0
100
AcDbLine
 62
7
  6
CONTINUOUS
 10
70.5822951063
 20
25.2
 11
70.5744339394
 21
25.05
  0
LINE
  5
6E6
100
AcDbEntity
  8
0
100
AcDbLine
 62
7
  6
CONTINUOUS
 10
70.6084989959
 20
25.2
 11
70.600637829
 21
25.05
  0
LINE
  5
6E7
100
AcDbEntity
  8
0
100
AcDbLine
 62
7
  6
CONTINUOUS
 10
70.6347028856
 20
25.2
 11
70.6268417187
 21
25.05
  0
LINE
  5
6E8
100
AcDbEntity
  8
0
100
AcDbLine
 62
7
  6
CONTINUOUS
 10
70.6609067752
 20
25.2
 11
70.6530456083
 21
25.05
  0
LINE
  5
6E9
100
AcDbEntity
  8
0
100
AcDbLine
 62
7
  6
CONTINUOUS
 10
70.6871106649
 20
25.2
 11
70.679249498
 21
25.05
  0
LINE
  5
6EA
100
AcDbEntity
  8
0
100
AcDbLine
 62
7
  6
CONTINUOUS
 10
70.7133145545
 20
25.2
 11
70.7054533876
 21
25.05
  0
LINE
  5
6EB
100
AcDbEntity
  8
0
100
AcDbLine
 62
7
  6
CONTINUOUS
 10
70.529887327
 20
-25.2
 11
70.5377484939
 21
-25.05
  0
LINE
  5
6EC
100
AcDbEntity
  8
0
100
AcDbLine
 62
7
  6
CONTINUOUS
 10
70.5560912167
 20
-25.2
 11
70.5639523835
 21
-25.05
  0
LINE
  5
6ED
100
AcDbEntity
  8
0
100
AcDbLine
 62
7
  6
CONTINUOUS
 10
70.5822951063
 20
-25.2
 11
70.5901562732
 21
-25.05
  0
LINE
  5
6EE
100
AcDbEntity
  8
0
100
AcDbLine
 62
7
  6
CONTINUOUS
 10
70.6084989959
 20
-25.2
 11
70.6163601628
 21
-25.05
  0
LINE
  5
6EF
100
AcDbEntity
  8
0
100
AcDbLine
 62
7
  6
CONTINUOUS
 10
70.6347028856
 20
-25.2
 11
70.6425640525
 21
-25.05
  0
LINE
  5
6F0
100
AcDbEntity
  8
0
100
AcDbLine
 62
7
  6
CONTINUOUS
 10
70.6609067752
 20
-25.2
 11
70.6687679421
 21
-25.05
  0
LINE
  5
6F1
100
AcDbEntity
  8
0
100
AcDbLine
 62
7
  6
CONTINUOUS
 10
70.6871106649
 20
-25.2
 11
70.6949718318
 21
-25.05
  0
LINE
  5
6F2
100
AcDbEntity
  8
0
100
AcDbLine
 62
7
  6
CONTINUOUS
 10
70.7133145545
 20
-25.2
 11
70.7211757214
 21
-25.05
  0
LINE
  5
6F3
100
AcDbEntity
  8
RACCORDO
100
AcDbLine
 62
7
  6
CONTINUOUS
 10
67.8161832919
 20
-26.7847210577
 11
67.925341513
 21
-26.3773370308
  0
LINE
  5
6F4
100
AcDbEntity
  8
RACCORDO
100
AcDbLine
 62
7
  6
CONTINUOUS
 10
67.0757173472
 20
-26.3812887508
 11
67.0572764491
 21
-26.4071375944
  0
LWPOLYLINE
  5
6F5
100
AcDbEntity
  8
RACCORDO
100
AcDbPolyline
 62
7
  6
CONTINUOUS
 90
3
 70
0
 10
67.0572764491
 20
-26.4071375944
 10
67.0452176885
 20
-26.4238929619
 10
67.0021917118
 20
-26.4823032581
  0
LINE
  5
6F6
100
AcDbEntity
  8
RACCORDO
100
AcDbLine
 62
7
  6
CONTINUOUS
 10
67.0021917118
 20
-26.4823032581
 11
66.9523669335
 21
-26.5488765555
  0
LINE
  5
6F7
100
AcDbEntity
  8
RACCORDO
100
AcDbLine
 62
7
  6
CONTINUOUS
 10
66.9523669335
 20
-26.5488765555
 11
66.8994930265
 21
-26.6188524851
  0
LWPOLYLINE
  5
6F8
100
AcDbEntity
  8
RACCORDO
100
AcDbPolyline
 62
7
  6
CONTINUOUS
 90
3
 70
0
 10
66.8994930265
 20
-26.6188524851
 10
66.8817564099
 20
-26.6421651261
 10
66.8639210243
 20
-26.6652145484
  0
LWPOLYLINE
  5
6F9
100
AcDbEntity
  8
RACCORDO
100
AcDbPolyline
 62
7
  6
CONTINUOUS
 90
7
 70
0
 10
67.1078338384
 20
-26.3340328461
 10
67.0926312202
 20
-26.3539608825
 10
67.086381107
 20
-26.36198736
 10
67.0814205929
 20
-26.3685244829
 10
67.0778769585
 20
-26.3733886124
 10
67.0756229232
 20
-26.3763838804
 10
67.074658487
 20
-26.3773370308
  0
LWPOLYLINE
  5
6FA
100
AcDbEntity
  8
RACCORDO
100
AcDbPolyline
 62
7
  6
CONTINUOUS
 90
3
 70
0
 10
67.1364413216
 20
-26.2967618641
 10
67.1167863433
 20
-26.3224710468
 10
67.1078338384
 20
-26.3340328461
  0
LINE
  5
6FB
100
AcDbEntity
  8
RACCORDO
100
AcDbLine
 62
7
  6
CONTINUOUS
 10
67.2162970619
 20
-26.1925772872
 11
67.1471437951
 21
-26.282904321
  0
LINE
  5
6FC
100
AcDbEntity
  8
RACCORDO
100
AcDbLine
 62
7
  6
CONTINUOUS
 10
67.1471437951
 20
-26.282904321
 11
67.1364413216
 21
-26.2967618641
  0
LINE
  5
6FD
100
AcDbEntity
  8
RACCORDO
100
AcDbLine
 62
7
  6
CONTINUOUS
 10
67.2281212875
 20
-26.1773404154
 11
67.2162970619
 21
-26.1925772872
  0
LWPOLYLINE
  5
6FE
100
AcDbEntity
  8
RACCORDO
100
AcDbPolyline
 62
7
  6
CONTINUOUS
 90
6
 70
0
 10
70.5031348751
 20
-25.050274093
 10
70.5008245805
 20
-25.0530694671
 10
70.4964028654
 20
-25.0573928673
 10
70.4901646747
 20
-25.0632442935
 10
70.4824423429
 20
-25.0708243505
 10
70.4734967659
 20
-25.0799324336
  0
LINE
  5
6FF
100
AcDbEntity
  8
RACCORDO
100
AcDbLine
 62
7
  6
CONTINUOUS
 10
70.317436801
 20
-25.2358321508
 11
70.3034089682
 21
-25.25
  0
LINE
  5
700
100
AcDbEntity
  8
RACCORDO
100
AcDbLine
 62
7
  6
CONTINUOUS
 10
70.440764211
 20
-25.112663254
 11
70.317436801
 21
-25.2358321508
  0
LWPOLYLINE
  5
701
100
AcDbEntity
  8
RACCORDO
100
AcDbPolyline
 62
7
  6
CONTINUOUS
 90
3
 70
0
 10
70.4734967659
 20
-25.0799324336
 10
70.4524628415
 20
-25.1008518854
 10
70.440764211
 20
-25.112663254
  0
LWPOLYLINE
  5
702
100
AcDbEntity
  8
RACCORDO
100
AcDbPolyline
 62
7
  6
CONTINUOUS
 90
7
 70
0
 10
100.1913237575
 20
-3.707225292
 10
100.1872283946
 20
-3.7031887336
 10
100.1826682584
 20
-3.6962396832
 10
100.1776433487
 20
-3.6864086384
 10
100.1719774573
 20
-3.6736925582
 10
100.1658467926
 20
-3.6582225426
 10
100.1597799791
 20
-3.640382042
  0
LWPOLYLINE
  5
703
100
AcDbEntity
  8
RACCORDO
100
AcDbPolyline
 62
7
  6
CONTINUOUS
 90
7
 70
0
 10
67.1079007046
 20
26.3340841544
 10
67.0925864267
 20
26.3539265113
 10
67.0864510932
 20
26.3620410623
 10
67.0814205929
 20
26.3685244829
 10
67.0776393646
 20
26.3732063002
 10
67.0753295452
 20
26.3761587635
 10
67.074658487
 20
26.3773370308
  0
LWPOLYLINE
  5
704
100
AcDbEntity
  8
RACCORDO
100
AcDbPolyline
 62
7
  6
CONTINUOUS
 90
3
 70
0
 10
67.1364975472
 20
26.2968050075
 10
67.1167514664
 20
26.3224442849
 10
67.1079007046
 20
26.3340841544
  0
LINE
  5
705
100
AcDbEntity
  8
RACCORDO
100
AcDbLine
 62
7
  6
CONTINUOUS
 10
67.2164639343
 20
26.1927053329
 11
67.1471129021
 21
26.282880616
  0
LINE
  5
706
100
AcDbEntity
  8
RACCORDO
100
AcDbLine
 62
7
  6
CONTINUOUS
 10
67.1471129021
 20
26.282880616
 11
67.1364975472
 21
26.2968050075
  0
LINE
  5
707
100
AcDbEntity
  8
RACCORDO
100
AcDbLine
 62
7
  6
CONTINUOUS
 10
67.2281212875
 20
26.1773404154
 11
67.2164639343
 21
26.1927053329
  0
LWPOLYLINE
  5
708
100
AcDbEntity
  8
RACCORDO
100
AcDbPolyline
 62
7
  6
CONTINUOUS
 90
4
 70
0
 10
66.9523669336
 20
26.5488765554
 10
66.8994930265
 20
26.6188524851
 10
66.8817564099
 20
26.6421651261
 10
66.8639210243
 20
26.6652145484
  0
LINE
  5
709
100
AcDbEntity
  8
RACCORDO
100
AcDbLine
 62
7
  6
CONTINUOUS
 10
67.002191712
 20
26.4823032579
 11
66.9523669336
 21
26.5488765554
  0
LINE
  5
70A
100
AcDbEntity
  8
RACCORDO
100
AcDbLine
 62
7
  6
CONTINUOUS
 10
67.0452176886
 20
26.4238929617
 11
67.002191712
 21
26.4823032579
  0
LWPOLYLINE
  5
70B
100
AcDbEntity
  8
RACCORDO
100
AcDbPolyline
 62
7
  6
CONTINUOUS
 90
3
 70
0
 10
67.0757173472
 20
26.3812887508
 10
67.0572764491
 20
26.4071375943
 10
67.0452176886
 20
26.4238929617
  0
LINE
  5
70C
100
AcDbEntity
  8
RACCORDO
100
AcDbLine
 62
7
  6
CONTINUOUS
 10
67.925341513
 20
26.3773370308
 11
67.8161832919
 21
26.7847210577
  0
LINE
  5
70D
100
AcDbEntity
  8
0
100
AcDbLine
 62
7
  6
CONTINUOUS
 10
78.958505597
 20
-22.2248821058
 11
78.958505597
 21
22.2248821058
  0
LINE
  5
70E
100
AcDbEntity
  8
0
100
AcDbLine
 62
7
  6
CONTINUOUS
 10
78.9777061685
 20
22.2248821058
 11
78.9777061685
 21
2.5
  0
LINE
  5
70F
100
AcDbEntity
  8
0
100
AcDbLine
 62
7
  6
CONTINUOUS
 10
78.9777061685
 20
-2.5
 11
78.9777061685
 21
-22.2248821058
  0
LINE
  5
710
100
AcDbEntity
  8
0
100
AcDbLine
 62
7
  6
CONTINUOUS
 10
79.7586274595
 20
2.5
 11
79.7586274595
 21
-2.5
  0
LINE
  5
711
100
AcDbEntity
  8
RACCORDO
100
AcDbLine
 62
7
  6
CONTINUOUS
 10
79.9586274595
 20
-2.5
 11
79.9586274595
 21
2.5
  0
LINE
  5
712
100
AcDbEntity
  8
RACCORDO
100
AcDbLine
 62
7
  6
CONTINUOUS
 10
81.4635616354
 20
-2.2
 11
81.4635616354
 21
2.2
  0
LINE
  5
713
100
AcDbEntity
  8
0
100
AcDbLine
 62
7
  6
CONTINUOUS
 10
102.1320525729
 20
3.5
 11
102.2578312432
 21
3.7099727925
  0
LINE
  5
714
100
AcDbEntity
  8
0
100
AcDbLine
 62
7
  6
CONTINUOUS
 10
102.9331504497
 20
3.5
 11
103.05892912
 21
3.7099727925
  0
LINE
  5
715
100
AcDbEntity
  8
RACCORDO
100
AcDbLine
 62
7
  6
CONTINUOUS
 10
101.4345742043
 20
3.707225292
 11
101.4990361896
 21
3.8144992301
  0
LINE
  5
716
100
AcDbEntity
  8
RACCORDO
100
AcDbLine
 62
7
  6
CONTINUOUS
 10
101.9997387709
 20
3.8144992301
 11
102.0536709936
 21
3.9042754355
  0
LINE
  5
717
100
AcDbEntity
  8
RACCORDO
100
AcDbLine
 62
7
  6
CONTINUOUS
 10
101.4990361907
 20
-3.8144992301
 11
101.4345742053
 21
-3.707225292
  0
LINE
  5
718
100
AcDbEntity
  8
RACCORDO
100
AcDbLine
 62
7
  6
CONTINUOUS
 10
102.0536709939
 20
-3.9042754355
 11
101.9997387712
 21
-3.8144992301
  0
LINE
  5
719
100
AcDbEntity
  8
0
100
AcDbLine
 62
7
  6
CONTINUOUS
 10
102.2578312432
 20
-3.7099727925
 11
102.1320525729
 21
-3.5
  0
LINE
  5
71A
100
AcDbEntity
  8
0
100
AcDbLine
 62
7
  6
CONTINUOUS
 10
103.05892912
 20
-3.7099727925
 11
102.9331504497
 21
-3.5
  0
LWPOLYLINE
  5
71B
100
AcDbEntity
  8
RACCORDO
100
AcDbPolyline
 62
7
  6
CONTINUOUS
 90
10
 70
0
 10
100.1597799791
 20
-3.640382042
 10
100.1538134911
 20
-3.6206147477
 10
100.1479108544
 20
-3.599016487
 10
100.1424912711
 20
-3.5754877811
 10
100.1375489937
 20
-3.5500063486
 10
100.1330897696
 20
-3.5229920893
 10
100.1295500433
 20
-3.4949987754
 10
100.1270752961
 20
-3.4664218454
 10
100.1255200467
 20
-3.4374501926
 10
100.1248842951
 20
-3.4083668826
  0
LWPOLYLINE
  5
71C
100
AcDbEntity
  8
0
100
AcDbPolyline
 62
7
  6
CONTINUOUS
 90
37
 70
0
 10
102.0680641734
 20
36.8503373825
 10
102.0658789361
 20
36.946676655
 10
102.0590875081
 20
37.0432572046
 10
102.0476898892
 20
37.1400790313
 10
102.0315527316
 20
37.2377399533
 10
102.0108093831
 20
37.3356421524
 10
101.985859888
 20
37.4319921744
 10
101.9565374378
 20
37.5266522649
 10
101.923008841
 20
37.6197601783
 10
101.8861745668
 20
37.7099357231
 10
101.8460497139
 20
37.7968788768
 10
101.8026191837
 20
37.8808896621
 10
101.7567381502
 20
37.9614879556
 10
101.7086658693
 20
38.0383376873
 10
101.6581430852
 20
38.1117749273
 10
101.6052472038
 20
38.1823277631
 10
101.5500516014
 20
38.2500802511
 10
101.4924829018
 20
38.3149483349
 10
101.4323983831
 20
38.3772079324
 10
101.3698299287
 20
38.43689142
 10
101.3047456552
 20
38.4939664212
 10
101.2369071907
 20
38.5486117248
 10
101.1664069724
 20
38.6008953315
 10
101.093152563
 20
38.6507492406
 10
101.016628279
 20
38.6981482392
 10
100.9365776297
 20
38.7433264128
 10
100.8532571058
 20
38.7860496759
 10
100.7669204959
 20
38.8255905595
 10
100.6772278213
 20
38.8620135874
 10
100.5845190607
 20
38.8952542359
 10
100.4900679387
 20
38.9243914649
 10
100.393734431
 20
38.9492778606
 10
100.2956585619
 20
38.9700608368
 10
100.197534129
 20
38.9862615952
 10
100.0999257316
 20
38.9977205362
 10
100.0022687704
 20
39.0045972594
 10
99.9045632454
 20
39.0068917647
  0
LINE
  5
71D
100
AcDbEntity
  8
RACCORDO
100
AcDbLine
 62
7
  6
CONTINUOUS
 10
100.1248842951
 20
-3.4083668826
 11
100.1248842951
 21
3.4083668826
  0
LINE
  5
71E
100
AcDbEntity
  8
RACCORDO
100
AcDbLine
 62
7
  6
CONTINUOUS
 10
100.2
 20
-36.0
 11
100.2
 21
-3.7198272148
  0
LINE
  5
71F
100
AcDbEntity
  8
RACCORDO
100
AcDbLine
 62
7
  6
CONTINUOUS
 10
100.2
 20
3.7198272148
 11
100.2
 21
36.0
  0
LINE
  5
720
100
AcDbEntity
  8
RACCORDO
100
AcDbLine
 62
7
  6
CONTINUOUS
 10
101.4201769675
 20
-3.4083668826
 11
101.4201769674
 21
-3.05
  0
LINE
  5
721
100
AcDbEntity
  8
0
100
AcDbLine
 62
7
  6
CONTINUOUS
 10
101.4201769673
 20
-2.25
 11
101.4201769671
 21
-0.4
  0
LINE
  5
722
100
AcDbEntity
  8
0
100
AcDbLine
 62
7
  6
CONTINUOUS
 10
101.420176967
 20
0.4
 11
101.4201769667
 21
2.25
  0
LINE
  5
723
100
AcDbEntity
  8
RACCORDO
100
AcDbLine
 62
7
  6
CONTINUOUS
 10
101.4201769666
 20
3.05
 11
101.4201769665
 21
3.4083668826
  0
LINE
  5
724
100
AcDbEntity
  8
0
100
AcDbLine
 62
7
  6
CONTINUOUS
 10
101.9209017665
 20
-3.05
 11
101.9209017664
 21
-2.25
  0
LINE
  5
725
100
AcDbEntity
  8
0
100
AcDbLine
 62
7
  6
CONTINUOUS
 10
101.9209017663
 20
-0.4
 11
101.9209017663
 21
0.4
  0
LINE
  5
726
100
AcDbEntity
  8
0
100
AcDbLine
 62
7
  6
CONTINUOUS
 10
101.9209017662
 20
2.25
 11
101.9209017662
 21
3.05
  0
LINE
  5
727
100
AcDbEntity
  8
RACCORDO
100
AcDbLine
 62
7
  6
CONTINUOUS
 10
102.0680641734
 20
36.8503373825
 11
102.0680641749
 21
4.2031338449
  0
LINE
  5
728
100
AcDbEntity
  8
RACCORDO
100
AcDbLine
 62
7
  6
CONTINUOUS
 10
102.0680641753
 20
-4.2031338449
 11
102.0680641769
 21
-36.8503373837
  0
LINE
  5
729
100
AcDbEntity
  8
0
100
AcDbLine
 62
7
  6
CONTINUOUS
 10
102.1320525729
 20
-3.5
 11
102.1320525729
 21
3.5
  0
LINE
  5
72A
100
AcDbEntity
  8
0
100
AcDbLine
 62
7
  6
CONTINUOUS
 10
102.2578312432
 20
-37.0414936552
 11
102.2578312432
 21
-3.7099727925
  0
LINE
  5
72B
100
AcDbEntity
  8
0
100
AcDbLine
 62
7
  6
CONTINUOUS
 10
102.2578312432
 20
3.7099727925
 11
102.2578312432
 21
37.0414936416
  0
LINE
  5
72C
100
AcDbEntity
  8
0
100
AcDbLine
 62
7
  6
CONTINUOUS
 10
102.9331504497
 20
3.5
 11
102.9331504497
 21
-3.5
  0
LINE
  5
72D
100
AcDbEntity
  8
0
100
AcDbLine
 62
7
  6
CONTINUOUS
 10
103.05892912
 20
37.041498446
 11
103.05892912
 21
3.7099727925
  0
LINE
  5
72E
100
AcDbEntity
  8
0
100
AcDbLine
 62
7
  6
CONTINUOUS
 10
103.05892912
 20
-3.7099727925
 11
103.05892912
 21
-37.041498446
  0
LWPOLYLINE
  5
72F
100
AcDbEntity
  8
RACCORDO
100
AcDbPolyline
 62
7
  6
CONTINUOUS
 90
16
 70
0
 10
100.1248842951
 20
3.4083668826
 10
100.125509359
 20
3.4373791937
 10
100.1270628922
 20
3.4663355961
 10
100.1295448948
 20
3.4949511689
 10
100.1331040339
 20
3.5230540739
 10
100.1375916424
 20
3.5502166687
 10
100.1425617185
 20
3.5758143331
 10
100.148008721
 20
3.5994136232
 10
100.1539381912
 20
3.6210519285
 10
100.1599207515
 20
3.6408158289
 10
100.1659891461
 20
3.6586169655
 10
100.1721106307
 20
3.6740203776
 10
100.1777575952
 20
3.6866446905
 10
100.1827541694
 20
3.6963755417
 10
100.1872762235
 20
3.7032392945
 10
100.1913237575
 20
3.707225292
  0
CIRCLE
  5
730
100
AcDbEntity
  8
RACCORDO
100
AcDbCircle
 62
7
  6
CONTINUOUS
 10
-86.8
 20
-22.0
 40
3.25
  0
ARC
  5
731
100
AcDbEntity
  8
ASSI
100
AcDbCircle
 62
7
  6
CONTINUOUS
 10
-33.75
 20
-30.0
 40
3.25
100
AcDbArc
 50
306.5877220356
 51
233.4122779644
  0
ARC
  5
732
100
AcDbEntity
  8
0
100
AcDbCircle
 62
7
  6
CONTINUOUS
 10
-100.1004152256
 20
-37.0414701762
 40
2.9585176137
100
AcDbArc
 50
180.0005474838
 51
269.9994528158
  0
ARC
  5
733
100
AcDbEntity
  8
0
100
AcDbCircle
 62
7
  6
CONTINUOUS
 10
-100.1004152256
 20
-37.0414701762
 40
2.1574197341
100
AcDbArc
 50
180.0006231842
 51
269.9993767446
  0
ARC
  5
734
100
AcDbEntity
  8
RACCORDO
100
AcDbCircle
 62
7
  6
CONTINUOUS
 10
-99.0
 20
-36.0
 40
1.2
100
AcDbArc
 50
180.0
 51
270.0
  0
ARC
  5
735
100
AcDbEntity
  8
DRAFT
100
AcDbCircle
 62
7
  6
CONTINUOUS
 10
-78.6384437412
 20
-22.2248821058
 40
0.3392624273
100
AcDbArc
 50
180.0
 51
270.0
  0
ARC
  5
736
100
AcDbEntity
  8
RACCORDO
100
AcDbCircle
 62
7
  6
CONTINUOUS
 10
-67.5
 20
-26.7
 40
0.3273370305
100
AcDbArc
 50
195.0
 51
345.0
  0
ARC
  5
737
100
AcDbEntity
  8
RACCORDO
100
AcDbCircle
 62
7
  6
CONTINUOUS
 10
-45.0
 20
-26.7
 40
0.3273370305
100
AcDbArc
 50
195.0
 51
345.0
  0
ARC
  5
738
100
AcDbEntity
  8
RACCORDO
100
AcDbCircle
 62
7
  6
CONTINUOUS
 10
-22.5
 20
-26.7
 40
0.3273370305
100
AcDbArc
 50
195.0
 51
345.0
  0
ARC
  5
739
100
AcDbEntity
  8
DRAFT
100
AcDbCircle
 62
7
  6
CONTINUOUS
 10
-78.6384437412
 20
-22.2248821058
 40
0.3200618559
100
AcDbArc
 50
180.0
 51
270.0
  0
ARC
  5
73A
100
AcDbEntity
  8
0
100
AcDbCircle
 62
7
  6
CONTINUOUS
 10
-78.6384437412
 20
-22.2248821058
 40
0.3200618558
100
AcDbArc
 50
247.5002102116
 51
270.0002128828
  0
ARC
  5
73B
100
AcDbEntity
  8
RACCORDO
100
AcDbCircle
 62
7
  6
CONTINUOUS
 10
-20.3
 20
-24.75
 40
0.3
100
AcDbArc
 50
270.0
 51
360.0
  0
ARC
  5
73C
100
AcDbEntity
  8
RACCORDO
100
AcDbCircle
 62
7
  6
CONTINUOUS
 10
-24.7
 20
-24.75
 40
0.3
100
AcDbArc
 50
180.0
 51
270.0
  0
ARC
  5
73D
100
AcDbEntity
  8
RACCORDO
100
AcDbCircle
 62
7
  6
CONTINUOUS
 10
-42.8
 20
-24.75
 40
0.3
100
AcDbArc
 50
270.0
 51
360.0
  0
ARC
  5
73E
100
AcDbEntity
  8
RACCORDO
100
AcDbCircle
 62
7
  6
CONTINUOUS
 10
-47.2
 20
-24.75
 40
0.3
100
AcDbArc
 50
180.0
 51
270.0
  0
ARC
  5
73F
100
AcDbEntity
  8
RACCORDO
100
AcDbCircle
 62
7
  6
CONTINUOUS
 10
-81.1635616354
 20
-2.2
 40
0.3
100
AcDbArc
 50
180.0
 51
270.0
  0
ARC
  5
740
100
AcDbEntity
  8
RACCORDO
100
AcDbCircle
 62
7
  6
CONTINUOUS
 10
-65.3
 20
-24.75
 40
0.3
100
AcDbArc
 50
270.0
 51
360.0
  0
ARC
  5
741
100
AcDbEntity
  8
RACCORDO
100
AcDbCircle
 62
7
  6
CONTINUOUS
 10
-69.7
 20
-24.75
 40
0.3
100
AcDbArc
 50
180.0
 51
270.0
  0
ARC
  5
742
100
AcDbEntity
  8
RACCORDO
100
AcDbCircle
 62
7
  6
CONTINUOUS
 10
-2.2
 20
-24.75
 40
0.3
100
AcDbArc
 50
180.0
 51
270.0
  0
ARC
  5
743
100
AcDbEntity
  8
RACCORDO
100
AcDbCircle
 62
7
  6
CONTINUOUS
 10
-81.1635616354
 20
2.2
 40
0.3
100
AcDbArc
 50
90.0
 51
180.0
  0
CIRCLE
  5
744
100
AcDbEntity
  8
RACCORDO
100
AcDbCircle
 62
7
  6
CONTINUOUS
 10
-86.8
 20
22.0
 40
3.25
  0
ARC
  5
745
100
AcDbEntity
  8
0
100
AcDbCircle
 62
7
  6
CONTINUOUS
 10
-100.1004152256
 20
37.0414701762
 40
2.9585176137
100
AcDbArc
 50
90.0005471202
 51
179.9994525162
  0
ARC
  5
746
100
AcDbEntity
  8
0
100
AcDbCircle
 62
7
  6
CONTINUOUS
 10
-100.1004152256
 20
37.0414701762
 40
2.1574197341
100
AcDbArc
 50
90.0006231859
 51
179.9993764545
  0
ARC
  5
747
100
AcDbEntity
  8
RACCORDO
100
AcDbCircle
 62
7
  6
CONTINUOUS
 10
-99.0
 20
36.0
 40
1.2
100
AcDbArc
 50
90.0
 51
180.0
  0
ARC
  5
748
100
AcDbEntity
  8
DRAFT
100
AcDbCircle
 62
7
  6
CONTINUOUS
 10
-78.6384437412
 20
22.2248821058
 40
0.3392624273
100
AcDbArc
 50
90.0
 51
180.0
  0
ARC
  5
749
100
AcDbEntity
  8
RACCORDO
100
AcDbCircle
 62
7
  6
CONTINUOUS
 10
-67.5
 20
26.7
 40
0.3273370305
100
AcDbArc
 50
15.0
 51
165.0
  0
ARC
  5
74A
100
AcDbEntity
  8
DRAFT
100
AcDbCircle
 62
7
  6
CONTINUOUS
 10
-78.6384437412
 20
22.2248821058
 40
0.3200618559
100
AcDbArc
 50
90.0
 51
180.0
  0
ARC
  5
74B
100
AcDbEntity
  8
0
100
AcDbCircle
 62
7
  6
CONTINUOUS
 10
-78.6384437412
 20
22.2248821058
 40
0.3200618558
100
AcDbArc
 50
89.9997871172
 51
112.4997897884
  0
ARC
  5
74C
100
AcDbEntity
  8
RACCORDO
100
AcDbCircle
 62
7
  6
CONTINUOUS
 10
-69.7
 20
24.75
 40
0.3
100
AcDbArc
 50
90.0
 51
180.0
  0
ARC
  5
74D
100
AcDbEntity
  8
RACCORDO
100
AcDbCircle
 62
7
  6
CONTINUOUS
 10
-65.3
 20
24.75
 40
0.3
100
AcDbArc
 50
0.0
 51
90.0
  0
ARC
  5
74E
100
AcDbEntity
  8
ASSI
100
AcDbCircle
 62
7
  6
CONTINUOUS
 10
-33.75
 20
30.0
 40
3.25
100
AcDbArc
 50
126.5877220356
 51
53.4122779644
  0
ARC
  5
74F
100
AcDbEntity
  8
0
100
AcDbCircle
 62
7
  6
CONTINUOUS
 10
-9.981989
 20
32.254014
 40
1.1960758977
100
AcDbArc
 50
292.8428535923
 51
90.0
  0
ARC
  5
750
100
AcDbEntity
  8
0
100
AcDbCircle
 62
7
  6
CONTINUOUS
 10
-10.090256
 20
32.254014
 40
0.474543
100
AcDbArc
 50
270.0
 51
90.0
  0
ARC
  5
751
100
AcDbEntity
  8
RACCORDO
100
AcDbCircle
 62
7
  6
CONTINUOUS
 10
-45.0
 20
26.7
 40
0.3273370305
100
AcDbArc
 50
15.0
 51
165.0
  0
ARC
  5
752
100
AcDbEntity
  8
RACCORDO
100
AcDbCircle
 62
7
  6
CONTINUOUS
 10
-22.5
 20
26.7
 40
0.3273370305
100
AcDbArc
 50
15.0
 51
165.0
  0
ARC
  5
753
100
AcDbEntity
  8
RACCORDO
100
AcDbCircle
 62
7
  6
CONTINUOUS
 10
-47.2
 20
24.75
 40
0.3
100
AcDbArc
 50
90.0
 51
180.0
  0
ARC
  5
754
100
AcDbEntity
  8
RACCORDO
100
AcDbCircle
 62
7
  6
CONTINUOUS
 10
-42.8
 20
24.75
 40
0.3
100
AcDbArc
 50
0.0
 51
90.0
  0
ARC
  5
755
100
AcDbEntity
  8
RACCORDO
100
AcDbCircle
 62
7
  6
CONTINUOUS
 10
-20.3
 20
24.75
 40
0.3
100
AcDbArc
 50
0.0
 51
90.0
  0
ARC
  5
756
100
AcDbEntity
  8
RACCORDO
100
AcDbCircle
 62
7
  6
CONTINUOUS
 10
-24.7
 20
24.75
 40
0.3
100
AcDbArc
 50
90.0
 51
180.0
  0
ARC
  5
757
100
AcDbEntity
  8
RACCORDO
100
AcDbCircle
 62
7
  6
CONTINUOUS
 10
-2.2
 20
24.75
 40
0.3
100
AcDbArc
 50
90.0
 51
180.0
  0
ARC
  5
758
100
AcDbEntity
  8
ASSI
100
AcDbCircle
 62
7
  6
CONTINUOUS
 10
33.75
 20
-30.0
 40
3.25
100
AcDbArc
 50
306.5877220356
 51
233.4122779644
  0
ARC
  5
759
100
AcDbEntity
  8
0
100
AcDbCircle
 62
7
  6
CONTINUOUS
 10
11.2
 20
-31.5
 40
2.9735749324
100
AcDbArc
 50
292.0885434728
 51
273.4298223208
  0
ARC
  5
75A
100
AcDbEntity
  8
0
100
AcDbCircle
 62
7
  6
CONTINUOUS
 10
11.110062
 20
-37.105572
 40
2.6508884458
100
AcDbArc
 50
47.2312789315
 51
84.2011738916
  0
ARC
  5
75B
100
AcDbEntity
  8
0
100
AcDbCircle
 62
7
  6
CONTINUOUS
 10
11.318685
 20
-36.676187
 40
2.6190759282
100
AcDbArc
 50
45.4348969444
 51
67.5658550007
  0
ARC
  5
75C
100
AcDbEntity
  8
0
100
AcDbCircle
 62
7
  6
CONTINUOUS
 10
26.417556
 20
-31.5
 40
2.5499986575
100
AcDbArc
 50
87.752529198
 51
272.247470802
  0
ARC
  5
75D
100
AcDbEntity
  8
0
100
AcDbCircle
 62
7
  6
CONTINUOUS
 10
22.032446
 20
-31.5
 40
2.5499985399
100
AcDbArc
 50
87.7525290943
 51
272.2474709057
  0
CIRCLE
  5
75E
100
AcDbEntity
  8
0
100
AcDbCircle
 62
7
  6
CONTINUOUS
 10
11.2
 20
-31.5
 40
2.497595
  0
ARC
  5
75F
100
AcDbEntity
  8
0
100
AcDbCircle
 62
7
  6
CONTINUOUS
 10
11.2
 20
-31.5
 40
2.2337503191
100
AcDbArc
 50
299.3041411838
 51
44.9957558874
  0
ARC
  5
760
100
AcDbEntity
  8
0
100
AcDbCircle
 62
7
  6
CONTINUOUS
 10
11.2
 20
-31.5
 40
2.2337501706
100
AcDbArc
 50
134.9002628452
 51
240.6958588162
  0
ARC
  5
761
100
AcDbEntity
  8
0
100
AcDbCircle
 62
7
  6
CONTINUOUS
 10
22.032446
 20
-31.5
 40
1.7999999246
100
AcDbArc
 50
86.8152613297
 51
269.3321879536
  0
ARC
  5
762
100
AcDbEntity
  8
0
100
AcDbCircle
 62
7
  6
CONTINUOUS
 10
26.417556
 20
-31.5
 40
1.7999999246
100
AcDbArc
 50
86.8152613297
 51
167.9753003079
  0
ARC
  5
763
100
AcDbEntity
  8
0
100
AcDbCircle
 62
7
  6
CONTINUOUS
 10
26.417556
 20
-31.5
 40
1.7999968808
100
AcDbArc
 50
192.0247203293
 51
273.1847440612
  0
ARC
  5
764
100
AcDbEntity
  8
0
100
AcDbCircle
 62
7
  6
CONTINUOUS
 10
11.2
 20
-31.5
 40
1.7896378839
100
AcDbArc
 50
299.3041347443
 51
31.9732647666
  0
ARC
  5
765
100
AcDbEntity
  8
0
100
AcDbCircle
 62
7
  6
CONTINUOUS
 10
11.2
 20
-31.5
 40
1.78963742
100
AcDbArc
 50
148.02673736
 51
240.6958652557
  0
ARC
  5
766
100
AcDbEntity
  8
0
100
AcDbCircle
 62
7
  6
CONTINUOUS
 10
49.5584109574
 20
-31.5
 40
0.9649529787
100
AcDbArc
 50
90.0
 51
270.0
  0
ARC
  5
767
100
AcDbEntity
  8
0
100
AcDbCircle
 62
7
  6
CONTINUOUS
 10
49.5584109574
 20
-31.5
 40
0.678738617
100
AcDbArc
 50
90.0
 51
270.0
  0
ARC
  5
768
100
AcDbEntity
  8
RACCORDO
100
AcDbCircle
 62
7
  6
CONTINUOUS
 10
-0.0
 20
-26.7
 40
0.3273370305
100
AcDbArc
 50
195.0
 51
345.0
  0
ARC
  5
769
100
AcDbEntity
  8
RACCORDO
100
AcDbCircle
 62
7
  6
CONTINUOUS
 10
22.5
 20
-26.7
 40
0.3273370305
100
AcDbArc
 50
195.0
 51
345.0
  0
ARC
  5
76A
100
AcDbEntity
  8
RACCORDO
100
AcDbCircle
 62
7
  6
CONTINUOUS
 10
45.0
 20
-26.7
 40
0.3273370305
100
AcDbArc
 50
195.0
 51
345.0
  0
ARC
  5
76B
100
AcDbEntity
  8
RACCORDO
100
AcDbCircle
 62
7
  6
CONTINUOUS
 10
47.2
 20
-24.75
 40
0.3
100
AcDbArc
 50
270.0
 51
360.0
  0
ARC
  5
76C
100
AcDbEntity
  8
RACCORDO
100
AcDbCircle
 62
7
  6
CONTINUOUS
 10
42.8
 20
-24.75
 40
0.3
100
AcDbArc
 50
180.0
 51
270.0
  0
ARC
  5
76D
100
AcDbEntity
  8
RACCORDO
100
AcDbCircle
 62
7
  6
CONTINUOUS
 10
24.7
 20
-24.75
 40
0.3
100
AcDbArc
 50
270.0
 51
360.0
  0
ARC
  5
76E
100
AcDbEntity
  8
RACCORDO
100
AcDbCircle
 62
7
  6
CONTINUOUS
 10
20.3
 20
-24.75
 40
0.3
100
AcDbArc
 50
180.0
 51
270.0
  0
ARC
  5
76F
100
AcDbEntity
  8
RACCORDO
100
AcDbCircle
 62
7
  6
CONTINUOUS
 10
2.2
 20
-24.75
 40
0.3
100
AcDbArc
 50
270.0
 51
360.0
  0
CIRCLE
  5
770
100
AcDbEntity
  8
RACCORDO
100
AcDbCircle
 62
7
  6
CONTINUOUS
 10
86.8
 20
-22.0
 40
3.25
  0
ARC
  5
771
100
AcDbEntity
  8
0
100
AcDbCircle
 62
7
  6
CONTINUOUS
 10
100.1004152256
 20
-37.0414701762
 40
2.9585176137
100
AcDbArc
 50
270.0005471842
 51
359.9994525162
  0
ARC
  5
772
100
AcDbEntity
  8
0
100
AcDbCircle
 62
7
  6
CONTINUOUS
 10
100.1004152256
 20
-37.0414701762
 40
2.1574197341
100
AcDbArc
 50
270.0006232572
 51
359.9993764545
  0
ARC
  5
773
100
AcDbEntity
  8
RACCORDO
100
AcDbCircle
 62
7
  6
CONTINUOUS
 10
99.0
 20
-36.0
 40
1.2
100
AcDbArc
 50
270.0
 51
360.0
  0
ARC
  5
774
100
AcDbEntity
  8
0
100
AcDbCircle
 62
7
  6
CONTINUOUS
 10
50.2616815957
 20
-31.5
 40
0.9649529787
100
AcDbArc
 50
90.0
 51
270.0
  0
ARC
  5
775
100
AcDbEntity
  8
0
100
AcDbCircle
 62
7
  6
CONTINUOUS
 10
50.9649529787
 20
-31.5
 40
0.9649529787
100
AcDbArc
 50
90.0
 51
270.0
  0
ARC
  5
776
100
AcDbEntity
  8
0
100
AcDbCircle
 62
7
  6
CONTINUOUS
 10
50.2616815957
 20
-31.5
 40
0.678738617
100
AcDbArc
 50
90.0
 51
270.0
  0
ARC
  5
777
100
AcDbEntity
  8
0
100
AcDbCircle
 62
7
  6
CONTINUOUS
 10
50.9649529787
 20
-31.5
 40
0.678738617
100
AcDbArc
 50
90.0
 51
270.0
  0
ARC
  5
778
100
AcDbEntity
  8
DRAFT
100
AcDbCircle
 62
7
  6
CONTINUOUS
 10
78.6384437412
 20
-22.2248821058
 40
0.3392624273
100
AcDbArc
 50
270.0
 51
360.0
  0
ARC
  5
779
100
AcDbEntity
  8
RACCORDO
100
AcDbCircle
 62
7
  6
CONTINUOUS
 10
67.5
 20
-26.7
 40
0.3273370305
100
AcDbArc
 50
195.0
 51
345.0
  0
ARC
  5
77A
100
AcDbEntity
  8
DRAFT
100
AcDbCircle
 62
7
  6
CONTINUOUS
 10
78.6384437412
 20
-22.2248821058
 40
0.3200618559
100
AcDbArc
 50
270.0
 51
360.0
  0
ARC
  5
77B
100
AcDbEntity
  8
0
100
AcDbCircle
 62
7
  6
CONTINUOUS
 10
78.6384437412
 20
-22.2248821058
 40
0.3200618558
100
AcDbArc
 50
269.9997871177
 51
292.4997897884
  0
ARC
  5
77C
100
AcDbEntity
  8
RACCORDO
100
AcDbCircle
 62
7
  6
CONTINUOUS
 10
69.7
 20
-24.75
 40
0.3
100
AcDbArc
 50
270.0
 51
360.0
  0
ARC
  5
77D
100
AcDbEntity
  8
RACCORDO
100
AcDbCircle
 62
7
  6
CONTINUOUS
 10
65.3
 20
-24.75
 40
0.3
100
AcDbArc
 50
180.0
 51
270.0
  0
ARC
  5
77E
100
AcDbEntity
  8
RACCORDO
100
AcDbCircle
 62
7
  6
CONTINUOUS
 10
81.1635616354
 20
-2.2
 40
0.3
100
AcDbArc
 50
270.0
 51
360.0
  0
ARC
  5
77F
100
AcDbEntity
  8
ASSI
100
AcDbCircle
 62
7
  6
CONTINUOUS
 10
33.75
 20
30.0
 40
3.25
100
AcDbArc
 50
126.5877220356
 51
53.4122779644
  0
ARC
  5
780
100
AcDbEntity
  8
RACCORDO
100
AcDbCircle
 62
7
  6
CONTINUOUS
 10
-0.0
 20
26.7
 40
0.3273370305
100
AcDbArc
 50
15.0
 51
165.0
  0
ARC
  5
781
100
AcDbEntity
  8
RACCORDO
100
AcDbCircle
 62
7
  6
CONTINUOUS
 10
22.5
 20
26.7
 40
0.3273370305
100
AcDbArc
 50
15.0
 51
165.0
  0
ARC
  5
782
100
AcDbEntity
  8
RACCORDO
100
AcDbCircle
 62
7
  6
CONTINUOUS
 10
45.0
 20
26.7
 40
0.3273370305
100
AcDbArc
 50
15.0
 51
165.0
  0
ARC
  5
783
100
AcDbEntity
  8
RACCORDO
100
AcDbCircle
 62
7
  6
CONTINUOUS
 10
20.3
 20
24.75
 40
0.3
100
AcDbArc
 50
90.0
 51
180.0
  0
ARC
  5
784
100
AcDbEntity
  8
RACCORDO
100
AcDbCircle
 62
7
  6
CONTINUOUS
 10
24.7
 20
24.75
 40
0.3
100
AcDbArc
 50
0.0
 51
90.0
  0
ARC
  5
785
100
AcDbEntity
  8
RACCORDO
100
AcDbCircle
 62
7
  6
CONTINUOUS
 10
42.8
 20
24.75
 40
0.3
100
AcDbArc
 50
90.0
 51
180.0
  0
ARC
  5
786
100
AcDbEntity
  8
RACCORDO
100
AcDbCircle
 62
7
  6
CONTINUOUS
 10
47.2
 20
24.75
 40
0.3
100
AcDbArc
 50
0.0
 51
90.0
  0
ARC
  5
787
100
AcDbEntity
  8
RACCORDO
100
AcDbCircle
 62
7
  6
CONTINUOUS
 10
2.2
 20
24.75
 40
0.3
100
AcDbArc
 50
0.0
 51
90.0
  0
ARC
  5
788
100
AcDbEntity
  8
RACCORDO
100
AcDbCircle
 62
7
  6
CONTINUOUS
 10
81.1635616354
 20
2.2
 40
0.3
100
AcDbArc
 50
0.0
 51
90.0
  0
CIRCLE
  5
789
100
AcDbEntity
  8
RACCORDO
100
AcDbCircle
 62
7
  6
CONTINUOUS
 10
86.8
 20
22.0
 40
3.25
  0
ARC
  5
78A
100
AcDbEntity
  8
0
100
AcDbCircle
 62
7
  6
CONTINUOUS
 10
100.1004152256
 20
37.0414701762
 40
2.9585176137
100
AcDbArc
 50
0.0005474838
 51
89.9994528798
  0
ARC
  5
78B
100
AcDbEntity
  8
0
100
AcDbCircle
 62
7
  6
CONTINUOUS
 10
100.1004152256
 20
37.0414701762
 40
2.1574197341
100
AcDbArc
 50
0.0006231842
 51
89.9993768158
  0
ARC
  5
78C
100
AcDbEntity
  8
RACCORDO
100
AcDbCircle
 62
7
  6
CONTINUOUS
 10
99.0
 20
36.0
 40
1.2
100
AcDbArc
 50
0.0
 51
90.0
  0
ARC
  5
78D
100
AcDbEntity
  8
DRAFT
100
AcDbCircle
 62
7
  6
CONTINUOUS
 10
78.6384437412
 20
22.2248821058
 40
0.3392624273
100
AcDbArc
 50
0.0
 51
90.0
  0
ARC
  5
78E
100
AcDbEntity
  8
RACCORDO
100
AcDbCircle
 62
7
  6
CONTINUOUS
 10
67.5
 20
26.7
 40
0.3273370305
100
AcDbArc
 50
15.0
 51
165.0
  0
ARC
  5
78F
100
AcDbEntity
  8
DRAFT
100
AcDbCircle
 62
7
  6
CONTINUOUS
 10
78.6384437412
 20
22.2248821058
 40
0.3200618558
100
AcDbArc
 50
0.0
 51
90.0
  0
ARC
  5
790
100
AcDbEntity
  8
0
100
AcDbCircle
 62
7
  6
CONTINUOUS
 10
78.6384437412
 20
22.2248821058
 40
0.3200618558
100
AcDbArc
 50
67.5002102044
 51
90.0002128823
  0
ARC
  5
791
100
AcDbEntity
  8
RACCORDO
100
AcDbCircle
 62
7
  6
CONTINUOUS
 10
65.3
 20
24.75
 40
0.3
100
AcDbArc
 50
90.0
 51
180.0
  0
ARC
  5
792
100
AcDbEntity
  8
RACCORDO
100
AcDbCircle
 62
7
  6
CONTINUOUS
 10
69.7
 20
24.75
 40
0.3
100
AcDbArc
 50
0.0
 51
90.0
  0
ELLIPSE
  5
793
100
AcDbEntity
  8
RACCORDO
100
AcDbEllipse
 62
7
  6
CONTINUOUS
 10
101.4359488121
 20
-3.4083668826
 30
0.0
 11
-0.0000000001
 21
0.3
 31
0.0
 40
0.0525728154
 41
1.5707963268
 42
3.0543261901
  0
ELLIPSE
  5
794
100
AcDbEntity
  8
RACCORDO
100
AcDbEllipse
 62
7
  6
CONTINUOUS
 10
101.4359488112
 20
3.4083668826
 30
0.0
 11
-0.0000000001
 21
0.3
 31
0.0
 40
0.0525728154
 41
0.0872664617
 42
1.5707963268
  0
ELLIPSE
  5
795
100
AcDbEntity
  8
RACCORDO
100
AcDbEllipse
 62
7
  6
CONTINUOUS
 10
-101.435948811
 20
3.4083668826
 30
0.0
 11
0.0
 21
0.3
 31
0.0
 40
0.0525728157
 41
-1.5707963268
 42
-0.0872664618
  0
ELLIPSE
  5
796
100
AcDbEntity
  8
RACCORDO
100
AcDbEllipse
 62
7
  6
CONTINUOUS
 10
-101.4359488119
 20
-3.4083668826
 30
0.0
 11
0.0
 21
0.3
 31
0.0
 40
0.0525728157
 41
-3.0543261902
 42
-1.5707963268
  0
ELLIPSE
  5
797
100
AcDbEntity
  8
RACCORDO
100
AcDbEllipse
 62
7
  6
CONTINUOUS
 10
-102.0522967725
 20
-4.2031338449
 30
0.0
 11
-0.0
 21
0.3
 31
0.0
 40
0.0525580031
 41
0.0872664624
 42
1.5707963268
  0
ELLIPSE
  5
798
100
AcDbEntity
  8
RACCORDO
100
AcDbEllipse
 62
7
  6
CONTINUOUS
 10
-102.0522967728
 20
4.2031338449
 30
0.0
 11
-0.0
 21
0.3
 31
0.0
 40
0.0525580031
 41
1.5707963268
 42
3.0543261908
  0
ELLIPSE
  5
799
100
AcDbEntity
  8
RACCORDO
100
AcDbEllipse
 62
7
  6
CONTINUOUS
 10
102.0522967744
 20
-4.2031338449
 30
0.0
 11
-0.0
 21
0.3
 31
0.0
 40
0.0525580032
 41
-1.5707963268
 42
-0.0872664629
  0
ELLIPSE
  5
79A
100
AcDbEntity
  8
RACCORDO
100
AcDbEllipse
 62
7
  6
CONTINUOUS
 10
102.052296774
 20
4.2031338449
 30
0.0
 11
-0.0
 21
0.3
 31
0.0
 40
0.0525580032
 41
-3.0543261913
 42
-1.5707963268
  0
ELLIPSE
  5
79B
100
AcDbEntity
  8
RACCORDO
100
AcDbEllipse
 62
7
  6
CONTINUOUS
 10
-64.4963165626
 20
-25.25
 30
0.0
 11
-0.0
 21
0.2
 31
0.0
 40
0.0524077793
 41
-0.0
 42
0.0523598776
  0
ELLIPSE
  5
79C
100
AcDbEntity
  8
RACCORDO
100
AcDbEllipse
 62
7
  6
CONTINUOUS
 10
-70.5036834374
 20
25.25
 30
0.0
 11
-0.0
 21
0.2
 31
0.0
 40
0.0524077793
 41
-3.1415926536
 42
-3.089232776
  0
ELLIPSE
  5
79D
100
AcDbEntity
  8
RACCORDO
100
AcDbEllipse
 62
7
  6
CONTINUOUS
 10
-64.4963165626
 20
25.25
 30
0.0
 11
0.0
 21
0.2
 31
0.0
 40
0.0524077793
 41
-3.1939525311
 42
-3.1415926536
  0
ELLIPSE
  5
79E
100
AcDbEntity
  8
RACCORDO
100
AcDbEllipse
 62
7
  6
CONTINUOUS
 10
-48.0036834374
 20
-25.5
 30
0.0
 11
0.0
 21
0.2
 31
0.0
 40
0.0524077793
 41
-0.0523598776
 42
0.0
  0
ELLIPSE
  5
79F
100
AcDbEntity
  8
RACCORDO
100
AcDbEllipse
 62
7
  6
CONTINUOUS
 10
-41.9963165626
 20
-25.5
 30
0.0
 11
0.0
 21
0.2
 31
0.0
 40
0.0524077793
 41
0.0
 42
0.0523598776
  0
ELLIPSE
  5
7A0
100
AcDbEntity
  8
RACCORDO
100
AcDbEllipse
 62
7
  6
CONTINUOUS
 10
-41.9963165626
 20
25.5
 30
0.0
 11
0.0
 21
0.2
 31
0.0
 40
0.0524077793
 41
-3.1939525311
 42
-3.1415926536
  0
ELLIPSE
  5
7A1
100
AcDbEntity
  8
RACCORDO
100
AcDbEllipse
 62
7
  6
CONTINUOUS
 10
-48.0036834374
 20
25.5
 30
0.0
 11
-0.0
 21
0.2
 31
0.0
 40
0.0524077793
 41
-3.1415926536
 42
-3.089232776
  0
ELLIPSE
  5
7A2
100
AcDbEntity
  8
RACCORDO
100
AcDbEllipse
 62
7
  6
CONTINUOUS
 10
-25.5036834374
 20
-25.5
 30
0.0
 11
0.0
 21
0.2
 31
0.0
 40
0.0524077793
 41
-0.0523598776
 42
-0.0
  0
ELLIPSE
  5
7A3
100
AcDbEntity
  8
RACCORDO
100
AcDbEllipse
 62
7
  6
CONTINUOUS
 10
-19.4963165626
 20
-25.5
 30
0.0
 11
0.0
 21
0.2
 31
0.0
 40
0.0524077793
 41
-0.0
 42
0.0523598776
  0
ELLIPSE
  5
7A4
100
AcDbEntity
  8
RACCORDO
100
AcDbEllipse
 62
7
  6
CONTINUOUS
 10
-19.4963165626
 20
25.5
 30
0.0
 11
0.0
 21
0.2
 31
0.0
 40
0.0524077793
 41
-3.1939525311
 42
-3.1415926536
  0
ELLIPSE
  5
7A5
100
AcDbEntity
  8
RACCORDO
100
AcDbEllipse
 62
7
  6
CONTINUOUS
 10
-25.5036834374
 20
25.5
 30
0.0
 11
0.0
 21
0.2
 31
0.0
 40
0.0524077793
 41
-3.1415926536
 42
-3.089232776
  0
ELLIPSE
  5
7A6
100
AcDbEntity
  8
RACCORDO
100
AcDbEllipse
 62
7
  6
CONTINUOUS
 10
-3.0036834374
 20
-25.5
 30
0.0
 11
-0.0
 21
0.2
 31
0.0
 40
0.0524077793
 41
-0.0523598776
 42
0.0
  0
ELLIPSE
  5
7A7
100
AcDbEntity
  8
RACCORDO
100
AcDbEllipse
 62
7
  6
CONTINUOUS
 10
3.0036834374
 20
-25.5
 30
0.0
 11
0.0
 21
0.2
 31
0.0
 40
0.0524077793
 41
-0.0
 42
0.0523598776
  0
ELLIPSE
  5
7A8
100
AcDbEntity
  8
RACCORDO
100
AcDbEllipse
 62
7
  6
CONTINUOUS
 10
3.0036834374
 20
25.5
 30
0.0
 11
-0.0
 21
0.2
 31
0.0
 40
0.0524077793
 41
-3.1939525311
 42
-3.1415926536
  0
ELLIPSE
  5
7A9
100
AcDbEntity
  8
RACCORDO
100
AcDbEllipse
 62
7
  6
CONTINUOUS
 10
-3.0036834374
 20
25.5
 30
0.0
 11
0.0
 21
0.2
 31
0.0
 40
0.0524077793
 41
-3.1415926536
 42
-3.089232776
  0
ELLIPSE
  5
7AA
100
AcDbEntity
  8
RACCORDO
100
AcDbEllipse
 62
7
  6
CONTINUOUS
 10
19.4963165626
 20
-25.5
 30
0.0
 11
0.0
 21
0.2
 31
0.0
 40
0.0524077793
 41
-0.0523598776
 42
0.0
  0
ELLIPSE
  5
7AB
100
AcDbEntity
  8
RACCORDO
100
AcDbEllipse
 62
7
  6
CONTINUOUS
 10
25.5036834374
 20
-25.5
 30
0.0
 11
-0.0
 21
0.2
 31
0.0
 40
0.0524077793
 41
0.0
 42
0.0523598776
  0
ELLIPSE
  5
7AC
100
AcDbEntity
  8
RACCORDO
100
AcDbEllipse
 62
7
  6
CONTINUOUS
 10
41.9963165626
 20
-25.5
 30
0.0
 11
0.0
 21
0.2
 31
0.0
 40
0.0524077793
 41
-0.0523598776
 42
-0.0
  0
ELLIPSE
  5
7AD
100
AcDbEntity
  8
RACCORDO
100
AcDbEllipse
 62
7
  6
CONTINUOUS
 10
48.0036834374
 20
-25.5
 30
0.0
 11
-0.0
 21
0.2
 31
0.0
 40
0.0524077793
 41
-0.0
 42
0.0523598776
  0
ELLIPSE
  5
7AE
100
AcDbEntity
  8
RACCORDO
100
AcDbEllipse
 62
7
  6
CONTINUOUS
 10
48.0036834374
 20
25.5
 30
0.0
 11
0.0
 21
0.2
 31
0.0
 40
0.0524077793
 41
-3.1939525311
 42
-3.1415926536
  0
ELLIPSE
  5
7AF
100
AcDbEntity
  8
RACCORDO
100
AcDbEllipse
 62
7
  6
CONTINUOUS
 10
41.9963165626
 20
25.5
 30
0.0
 11
-0.0
 21
0.2
 31
0.0
 40
0.0524077793
 41
-3.1415926536
 42
-3.089232776
  0
ELLIPSE
  5
7B0
100
AcDbEntity
  8
RACCORDO
100
AcDbEllipse
 62
7
  6
CONTINUOUS
 10
64.4963165626
 20
-25.25
 30
0.0
 11
-0.0
 21
0.2
 31
0.0
 40
0.0524077793
 41
-0.0523598776
 42
0.0
  0
ELLIPSE
  5
7B1
100
AcDbEntity
  8
RACCORDO
100
AcDbEllipse
 62
7
  6
CONTINUOUS
 10
70.5036834374
 20
-25.25
 30
0.0
 11
0.0
 21
0.2
 31
0.0
 40
0.0524077793
 41
-0.0
 42
0.0523598776
  0
ELLIPSE
  5
7B2
100
AcDbEntity
  8
RACCORDO
100
AcDbEllipse
 62
7
  6
CONTINUOUS
 10
70.5036834374
 20
25.25
 30
0.0
 11
0.0
 21
0.2
 31
0.0
 40
0.0524077793
 41
-4.7123889804
 42
-3.1415926536
  0
ELLIPSE
  5
7B3
100
AcDbEntity
  8
RACCORDO
100
AcDbEllipse
 62
7
  6
CONTINUOUS
 10
64.4963165626
 20
25.25
 30
0.0
 11
-0.0
 21
0.2
 31
0.0
 40
0.0524077793
 41
-3.1415926536
 42
-3.089232776
  0
ELLIPSE
  5
7B4
100
AcDbEntity
  8
RACCORDO
100
AcDbEllipse
 62
7
  6
CONTINUOUS
 10
-70.5036834374
 20
-25.25
 30
0.0
 11
0.0
 21
0.2
 31
0.0
 40
0.0524077793
 41
-0.0523598776
 42
0.0
  0
ELLIPSE
  5
7B5
100
AcDbEntity
  8
RACCORDO
100
AcDbEllipse
 62
7
  6
CONTINUOUS
 10
-99.0
 20
-3.7198272148
 30
0.0
 11
1.2
 21
-0.0
 31
0.0
 40
0.0874886635
 41
3.0212686613
 42
3.1415926536
  0
ELLIPSE
  5
7B6
100
AcDbEntity
  8
RACCORDO
100
AcDbEllipse
 62
7
  6
CONTINUOUS
 10
-99.0
 20
3.7198272148
 30
0.0
 11
1.2
 21
0.0
 31
0.0
 40
0.0874886635
 41
3.1415926536
 42
3.2619166459
  0
ELLIPSE
  5
7B7
100
AcDbEntity
  8
RACCORDO
100
AcDbEllipse
 62
7
  6
CONTINUOUS
 10
99.0
 20
3.7198272148
 30
0.0
 11
1.2
 21
-0.0
 31
0.0
 40
0.0874886635
 41
-0.1203239923
 42
-0.0
  0
ELLIPSE
  5
7B8
100
AcDbEntity
  8
RACCORDO
100
AcDbEllipse
 62
7
  6
CONTINUOUS
 10
99.0
 20
-3.7198272148
 30
0.0
 11
1.2
 21
-0.0
 31
0.0
 40
0.0874886635
 41
0.0
 42
0.1203239923
  0
ENDSEC
  0
SECTION
  2
OBJECTS
  0
DICTIONARY
  5
C
100
AcDbDictionary
280
0
281
1
  3
ACAD_GROUP
350
D
  3
ACAD_MLINESTYLE
350
17
  3
ACAD_LAYOUT
350
1A
  3
ACAD_PLOTSETTINGS
350
19
  3
ACAD_PLOTSTYLENAME
350
E
  0
DICTIONARY
  5
D
102
{ACAD_REACTORS
330
C
102
}
100
AcDbDictionary
280
0
281
1
  0
ACDBDICTIONARYWDFLT
  5
E
102
{ACAD_REACTORS
330
C
102
}
100
AcDbDictionary
281
1
  3
Normal
350
F
100
AcDbDictionaryWithDefault
340
F
  0
DICTIONARY
  5
17
102
{ACAD_REACTORS
330
C
102
}
100
AcDbDictionary
280
0
281
1
  3
Standard
350
18
  0
DICTIONARY
  5
19
102
{ACAD_REACTORS
330
C
102
}
100
AcDbDictionary
281
1
  0
DICTIONARY
  5
1A
102
{ACAD_REACTORS
330
C
102
}
100
AcDbDictionary
281
1
  3
Model
350
7B9
  3
Layout1
350
7BA
  0
ACDBPLACEHOLDER
  5
F
102
{ACAD_REACTORS
330
E
102
}
  0
MLINESTYLE
  5
18
102
{ACAD_REACTORS
330
17
102
}
100
AcDbMlineStyle
  2
STANDARD
 70
0
  3

 62
256
 51
90.0
 52
90.0
 71
2
 49
0.5
 62
256
  6
BYLAYER
 49
-0.5
 62
256
  6
BYLAYER
  0
LAYOUT
  5
7B9
102
{ACAD_REACTORS
330
1A
102
}
100
AcDbPlotSettings
  1

  2
none_device
  4
ISO_A4_(297.00_x_210.00_MM)
  6

 40
0.0
 41
0.0
 42
0.0
 43
0.0
 44
297.0
 45
210.0
 46
0.0
 47
0.0
 48
0.0
 49
0.0
140
0.0
141
0.0
142
1.0
143
1.0
 70
1024
 72
1
 73
0
 74
0
  7

 75
0
147
1.0
148
0.0
149
0.0
100
AcDbLayout
  1
Model
 70
0
 71
0
 10
0.0
 20
0.0
 11
297.0
 21
210.0
 12
0.0
 22
0.0
 32
0.0
 14
0.0
 24
0.0
 34
0.0
 15
0.0
 25
0.0
 35
0.0
146
0.0
 13
0.0
 23
0.0
 33
0.0
 16
1.0
 26
0.0
 36
0.0
 17
0.0
 27
1.0
 37
0.0
 76
0
330
21A
345
0
346
0
  0
LAYOUT
  5
7BA
102
{ACAD_REACTORS
330
1A
102
}
100
AcDbPlotSettings
  1

  2
none_device
  4
ISO_A4_(297.00_x_210.00_MM)
  6

 40
0.0
 41
0.0
 42
0.0
 43
0.0
 44
297.0
 45
210.0
 46
0.0
 47
0.0
 48
0.0
 49
0.0
140
0.0
141
0.0
142
1.0
143
1.0
 70
0
 72
1
 73
0
 74
0
  7

 75
0
147
1.0
148
0.0
149
0.0
100
AcDbLayout
  1
Layout1
 70
0
 71
1
 10
0.0
 20
0.0
 11
297.0
 21
210.0
 12
0.0
 22
0.0
 32
0.0
 14
0.0
 24
0.0
 34
0.0
 15
0.0
 25
0.0
 35
0.0
146
0.0
 13
0.0
 23
0.0
 33
0.0
 16
1.0
 26
0.0
 36
0.0
 17
0.0
 27
1.0
 37
0.0
 76
0
330
21B
345
0
346
0
  0
ENDSEC
  0
EOF
