  0
SECTION
  2
HEADER
  9
$ACADVER
  1
AC1021
  9
$DWGCODEPAGE
  3
ANSI_1252
  9
$EXTMAX
 10
297.0
 20
210.0
 30
0.0
  9
$EXTMIN
 10
0.0
 20
0.0
 30
0.0
  9
$LIMMIN
 10
0.0
 20
0.0
  9
$LIMMAX
 10
297.0
 20
210.0
  9
$VIEWCTR
 10
148.5
 20
105.0
  9
$VIEWSIZE
 40
210.0
  9
$CLAYER
  8
0
  9
$LTSCALE
 40
16.335
  9
$CELTYPE
  6
BYLAYER
  9
$DIMSCALE
 40
1.0
  9
$DIMASZ
 40
3.0
  9
$DIMEXO
 40
0.5
  9
$DIMDLI
 40
11.286
  9
$DIMEXE
 40
1.5
  9
$DIMCEN
 40
2.673
  9
$DIMLFAC
 40
1.0
  9
$DIMBLK
  1
_FILLED
  9
$DIMALT
 70
0
  9
$DIMALTF
 40
25.4
  9
$DIMTXT
 40
3.0
  9
$DIMTOL
 70
1
  9
$DIMLIM
 70
0
  9
$DIMTFAC
 40
1.0
  9
$DIMTP
 40
0.01
  9
$DIMTM
 40
0.01
  9
$DIMGAP
 40
0.625
  9
$DIMDSEP
 70
44
  9
$AUNITS
 70
0
  9
$PDMODE
 70
3
  9
$PDSIZE
 40
3.0
  9
$HANDSEED
  5
5A9
  9
$TILEMODE
 70
1
  9
$MEASUREMENT
 70
1
  9
$INSUNITS
 70
4
  0
ENDSEC
  0
SECTION
  2
CLASSES
  0
CLASS
  1
ACDBDICTIONARYWDFLT
  2
AcDbDictionaryWithDefault
  3
AutoCAD 2000
 90
0
 91
1
280
0
281
0
  0
CLASS
  1
ACDBPLACEHOLDER
  2
AcDbPlaceHolder
  3
AutoCAD 2000
 90
0
 91
1
280
0
281
0
  0
CLASS
  1
LAYOUT
  2
AcDbLayout
  3
AutoCAD 2000
 90
0
 91
0
280
0
281
0
  0
ENDSEC
  0
SECTION
  2
TABLES
  0
TABLE
  2
VPORT
  5
8
100
AcDbSymbolTable
 70
2
  0
VPORT
  5
1F4
100
AcDbSymbolTableRecord
100
AcDbViewportTableRecord
  2
*ACTIVE
 70
0
 10
0.0
 20
0.0
 11
1.0
 21
1.0
 12
148.5
 22
105.0
 13
0.0
 23
0.0
 14
1.0
 24
1.0
 15
0.0
 25
0.0
 16
0.0
 26
0.0
 36
1.0
 17
0.0
 27
0.0
 37
0.0
 40
210.0
 41
1.4142857143
 42
50.0
 43
0.0
 44
0.0
 50
0.0
 51
0.0
 71
0
 72
100
 73
1
 74
1
 75
0
 76
0
 77
0
 78
0
  0
ENDTAB
  0
TABLE
  2
LTYPE
  5
5
100
AcDbSymbolTable
 70
6
  0
LTYPE
  5
14
100
AcDbSymbolTableRecord
100
AcDbLinetypeTableRecord
  2
BYBLOCK
 70
0
  3

 72
65
 73
0
 40
0.0
  0
LTYPE
  5
15
100
AcDbSymbolTableRecord
100
AcDbLinetypeTableRecord
  2
BYLAYER
 70
0
  3

 72
65
 73
0
 40
0.0
  0
LTYPE
  5
16
100
AcDbSymbolTableRecord
100
AcDbLinetypeTableRecord
  2
CONTINUOUS
 70
64
  3
Solid line
 72
65
 73
0
 40
0.0
  0
LTYPE
  5
1F5
100
AcDbSymbolTableRecord
100
AcDbLinetypeTableRecord
  2
CENTER
 70
64
  3
____ _ ____ _ ____ _ ____ _ ____ _ ____ _ ____
 72
65
 73
4
 40
0.6
 49
0.375
 74
0
 49
-0.075
 74
0
 49
0.075
 74
0
 49
-0.075
 74
0
  0
LTYPE
  5
1F6
100
AcDbSymbolTableRecord
100
AcDbLinetypeTableRecord
  2
HIDDEN
 70
64
  3
- - - - - - - - - - - - - - - - - - - -
 72
65
 73
2
 40
0.2
 49
0.1
 74
0
 49
-0.1
 74
0
  0
LTYPE
  5
1F7
100
AcDbSymbolTableRecord
100
AcDbLinetypeTableRecord
  2
PHANTOM
 70
64
  3
_____ _ _ _____ _ _ _____ _ _ _____
 72
65
 73
6
 40
0.8
 49
0.45
 74
0
 49
-0.05
 74
0
 49
0.1
 74
0
 49
-0.05
 74
0
 49
0.1
 74
0
 49
-0.05
 74
0
  0
LTYPE
  5
1F8
100
AcDbSymbolTableRecord
100
AcDbLinetypeTableRecord
  2
DOT
 70
64
  3
. . . . . . . . . . . . . . . . . . . .
 72
65
 73
2
 40
0.2
 49
0.1
 74
0
 49
-0.1
 74
0
  0
LTYPE
  5
1F9
100
AcDbSymbolTableRecord
100
AcDbLinetypeTableRecord
  2
DASHED
 70
64
  3
- - - - - - - - - - - - - - - - - - - -
 72
65
 73
2
 40
0.2
 49
0.1
 74
0
 49
-0.1
 74
0
  0
ENDTAB
  0
TABLE
  2
LAYER
  5
2
100
AcDbSymbolTable
 70
36
  0
LAYER
  5
10
100
AcDbSymbolTableRecord
100
AcDbLayerTableRecord
  2
0
 70
0
 62
7
  6
CONTINUOUS
370
-3
390
F
  0
LAYER
  5
1FA
100
AcDbSymbolTableRecord
100
AcDbLayerTableRecord
  2
DEFAULT_1
 70
0
 62
7
  6
CENTER
370
-3
390
F
  0
LAYER
  5
1FB
100
AcDbSymbolTableRecord
100
AcDbLayerTableRecord
  2
DEFAULT_2
 70
0
 62
7
  6
HIDDEN
370
-3
390
F
  0
LAYER
  5
1FC
100
AcDbSymbolTableRecord
100
AcDbLayerTableRecord
  2
DEFAULT_3
 70
0
 62
7
  6
PHANTOM
370
-3
390
F
  0
LAYER
  5
1FD
100
AcDbSymbolTableRecord
100
AcDbLayerTableRecord
  2
ASSI
 70
0
 62
7
  6
CONTINUOUS
370
-3
390
F
  0
LAYER
  5
1FE
100
AcDbSymbolTableRecord
100
AcDbLayerTableRecord
  2
COLORE_MATERIALE
 70
0
 62
7
  6
CONTINUOUS
370
-3
390
F
  0
LAYER
  5
1FF
100
AcDbSymbolTableRecord
100
AcDbLayerTableRecord
  2
COORDINATE
 70
0
 62
7
  6
CONTINUOUS
370
-3
390
F
  0
LAYER
  5
200
100
AcDbSymbolTableRecord
100
AcDbLayerTableRecord
  2
COORD_ORIGINE
 70
0
 62
7
  6
CONTINUOUS
370
-3
390
F
  0
LAYER
  5
201
100
AcDbSymbolTableRecord
100
AcDbLayerTableRecord
  2
COPY
 70
0
 62
7
  6
CONTINUOUS
370
-3
390
F
  0
LAYER
  5
202
100
AcDbSymbolTableRecord
100
AcDbLayerTableRecord
  2
COSMETICI
 70
0
 62
7
  6
CONTINUOUS
370
-3
390
F
  0
LAYER
  5
203
100
AcDbSymbolTableRecord
100
AcDbLayerTableRecord
  2
CURVE
 70
0
 62
7
  6
CONTINUOUS
370
-3
390
F
  0
LAYER
  5
204
100
AcDbSymbolTableRecord
100
AcDbLayerTableRecord
  2
DRAFT
 70
0
 62
7
  6
CONTINUOUS
370
-3
390
F
  0
LAYER
  5
205
100
AcDbSymbolTableRecord
100
AcDbLayerTableRecord
  2
IGS
 70
0
 62
7
  6
CONTINUOUS
370
-3
390
F
  0
LAYER
  5
206
100
AcDbSymbolTableRecord
100
AcDbLayerTableRecord
  2
NOTE
 70
0
 62
7
  6
CONTINUOUS
370
-3
390
F
  0
LAYER
  5
207
100
AcDbSymbolTableRecord
100
AcDbLayerTableRecord
  2
PIANI
 70
0
 62
7
  6
CONTINUOUS
370
-3
390
F
  0
LAYER
  5
208
100
AcDbSymbolTableRecord
100
AcDbLayerTableRecord
  2
PIANI_ORIGINE
 70
0
 62
7
  6
CONTINUOUS
370
-3
390
F
  0
LAYER
  5
209
100
AcDbSymbolTableRecord
100
AcDbLayerTableRecord
  2
PIANI_RIFERIMENTO
 70
0
 62
7
  6
CONTINUOUS
370
-3
390
F
  0
LAYER
  5
20A
100
AcDbSymbolTableRecord
100
AcDbLayerTableRecord
  2
PUNTI
 70
0
 62
7
  6
CONTINUOUS
370
-3
390
F
  0
LAYER
  5
20B
100
AcDbSymbolTableRecord
100
AcDbLayerTableRecord
  2
RACCORDO
 70
0
 62
7
  6
CONTINUOUS
370
-3
390
F
  0
LAYER
  5
20C
100
AcDbSymbolTableRecord
100
AcDbLayerTableRecord
  2
SIMBOLI
 70
0
 62
7
  6
CONTINUOUS
370
-3
390
F
  0
LAYER
  5
20D
100
AcDbSymbolTableRecord
100
AcDbLayerTableRecord
  2
SMUSSO
 70
0
 62
7
  6
CONTINUOUS
370
-3
390
F
  0
LAYER
  5
20E
100
AcDbSymbolTableRecord
100
AcDbLayerTableRecord
  2
SNAPLINE
 70
0
 62
7
  6
CONTINUOUS
370
-3
390
F
  0
LAYER
  5
20F
100
AcDbSymbolTableRecord
100
AcDbLayerTableRecord
  2
SOLIDO
 70
0
 62
7
  6
CONTINUOUS
370
-3
390
F
  0
LAYER
  5
210
100
AcDbSymbolTableRecord
100
AcDbLayerTableRecord
  2
SUPERFICI
 70
0
 62
7
  6
CONTINUOUS
370
-3
390
F
  0
LAYER
  5
211
100
AcDbSymbolTableRecord
100
AcDbLayerTableRecord
  2
TRASH
 70
0
 62
7
  6
CONTINUOUS
370
-3
390
F
  0
ENDTAB
  0
TABLE
  2
STYLE
  5
3
100
AcDbSymbolTable
 70
1
  0
STYLE
  5
11
100
AcDbSymbolTableRecord
100
AcDbTextStyleTableRecord
  2
STANDARD
 70
0
 40
0.0
 41
0.8
 50
0.0
 71
0
 42
0.2
  3
txt
  4

  0
STYLE
  5
212
100
AcDbSymbolTableRecord
100
AcDbTextStyleTableRecord
  2
TEXTSTYLE_1
 70
0
 40
0.0
 41
0.8
 50
0.0
 71
0
 42
0.2
  3
gdt
  4

  0
ENDTAB
  0
TABLE
  2
VIEW
  5
6
100
AcDbSymbolTable
 70
0
  0
ENDTAB
  0
TABLE
  2
UCS
  5
7
100
AcDbSymbolTable
 70
0
  0
ENDTAB
  0
TABLE
  2
APPID
  5
9
100
AcDbSymbolTable
 70
1
  0
APPID
  5
213
100
AcDbSymbolTableRecord
100
AcDbRegAppTableRecord
  2
ACAD
 70
0
  0
ENDTAB
  0
TABLE
  2
BLOCK_RECORD
  5
1
100
AcDbSymbolTable
 70
0
  0
BLOCK_RECORD
  5
214
100
AcDbSymbolTableRecord
100
AcDbBlockTableRecord
  2
*Model_Space
  0
BLOCK_RECORD
  5
215
100
AcDbSymbolTableRecord
100
AcDbBlockTableRecord
  2
*Paper_Space
  0
ENDTAB
  0
TABLE
  2
DIMSTYLE
  5
A
100
AcDbSymbolTable
 70
1
100
AcDbDimStyleTable
 71
0
  0
DIMSTYLE
105
216
100
AcDbSymbolTableRecord
100
AcDbDimStyleTableRecord
  2
STANDARD
 70
0
  3

  4

 40
1.0
 41
3.0
 42
0.5
 43
0.38
 44
1.5
 45
0.0
 46
0.0
 47
0.01
 48
0.01
140
3.0
141
0.09
142
0.0
143
25.4
144
1.0
145
0.0
146
1.0
147
0.625
 71
1.0
 72
0.0
 73
0
 74
0
 75
0
 76
0
 77
1
 78
8
170
0
171
1
172
0
173
0
174
0
175
0
176
0
177
0
178
0
270
2
271
2
272
2
273
2
274
2
275
0
280
0
281
0
282
0
283
1
284
8
285
0
286
0
287
3
288
0
340
11
278
44
  0
ENDTAB
  0
ENDSEC
  0
SECTION
  2
BLOCKS
  0
BLOCK
  5
20
100
AcDbEntity
  8
0
100
AcDbBlockBegin
  2
*Model_Space
 70
0
 10
0.0
 20
0.0
 30
0.0
  3
*Model_Space
  1

  0
ENDBLK
  5
21
100
AcDbEntity
  8
0
100
AcDbBlockEnd
  0
BLOCK
  5
1C
100
AcDbEntity
  8
0
100
AcDbBlockBegin
  2
*Paper_Space
 70
0
 10
0.0
 20
0.0
 30
0.0
  3
*Paper_Space
  1

  0
ENDBLK
  5
1D
100
AcDbEntity
  8
0
100
AcDbBlockEnd
  0
ENDSEC
  0
SECTION
  2
ENTITIES
  0
LINE
  5
217
100
AcDbEntity
  8
RACCORDO
100
AcDbLine
 62
7
  6
CONTINUOUS
 10
2.2935169505
 20
-22.2654279241
 11
3.6791575965
 21
-22.1396492538
  0
LINE
  5
218
100
AcDbEntity
  8
RACCORDO
100
AcDbLine
 62
7
  6
CONTINUOUS
 10
-8.9064830495
 20
-22.2654279241
 11
-7.5208424035
 21
-22.1396492538
  0
LINE
  5
219
100
AcDbEntity
  8
RACCORDO
100
AcDbLine
 62
7
  6
CONTINUOUS
 10
10.4872732232
 20
-22.2654279241
 11
8.6802682964
 21
-22.2654279241
  0
LINE
  5
21A
100
AcDbEntity
  8
DRAFT
100
AcDbLine
 62
7
  6
CONTINUOUS
 10
2.2935169505
 20
-22.2654279241
 11
-2.5197317036
 21
-22.2654279241
  0
LINE
  5
21B
100
AcDbEntity
  8
RACCORDO
100
AcDbLine
 62
7
  6
CONTINUOUS
 10
-8.9064830495
 20
-22.2654279241
 11
-10.7134879763
 21
-22.2654279241
  0
LINE
  5
21C
100
AcDbEntity
  8
RACCORDO
100
AcDbLine
 62
7
  6
CONTINUOUS
 10
7.1214225696
 20
-22.1344084759
 11
3.8523626773
 21
-22.1344084759
  0
LINE
  5
21D
100
AcDbEntity
  8
RACCORDO
100
AcDbLine
 62
7
  6
CONTINUOUS
 10
-4.0785774304
 20
-22.1344084759
 11
-7.3476373227
 21
-22.1344084759
  0
LINE
  5
21E
100
AcDbEntity
  8
RACCORDO
100
AcDbLine
 62
7
  6
CONTINUOUS
 10
-2.5197317036
 20
-22.2654279241
 11
-3.9053723496
 21
-22.1396492538
  0
LINE
  5
21F
100
AcDbEntity
  8
RACCORDO
100
AcDbLine
 62
7
  6
CONTINUOUS
 10
8.6802682964
 20
-22.2654279241
 11
7.2946276504
 21
-22.1396492538
  0
LINE
  5
220
100
AcDbEntity
  8
RACCORDO
100
AcDbLine
 62
7
  6
CONTINUOUS
 10
3.0440723004
 20
-20.7654279241
 11
3.6791575965
 21
-20.6303649071
  0
LINE
  5
221
100
AcDbEntity
  8
DRAFT
100
AcDbLine
 62
7
  6
CONTINUOUS
 10
3.0440723004
 20
-20.7654279241
 11
2.2935169505
 21
-20.8354279241
  0
LINE
  5
222
100
AcDbEntity
  8
DRAFT
100
AcDbLine
 62
7
  6
CONTINUOUS
 10
-8.1559276996
 20
-20.7654279241
 11
-8.9064830495
 21
-20.8354279241
  0
LWPOLYLINE
  5
223
100
AcDbEntity
  8
RACCORDO
100
AcDbPolyline
 62
253
  6
CONTINUOUS
 90
43
 70
0
 10
9.5377020801
 20
-20.053607885
 10
9.5450980379
 20
-20.0535712205
 10
9.5524838782
 20
-20.053496872
 10
9.5598494972
 20
-20.0533849429
 10
9.5671848191
 20
-20.0532355892
 10
9.5744798091
 20
-20.0530490157
 10
9.581724488
 20
-20.0528254749
 10
9.588908945
 20
-20.0525652731
 10
9.5960233521
 20
-20.0522687678
 10
9.6030579767
 20
-20.0519363628
 10
9.6100031958
 20
-20.0515685133
 10
9.6168495084
 20
-20.0511657235
 10
9.6235875488
 20
-20.0507285433
 10
9.6302080995
 20
-20.0502575709
 10
9.6367021038
 20
-20.0497534512
 10
9.643060678
 20
-20.0492168732
 10
9.6492751236
 20
-20.048648571
 10
9.6553369395
 20
-20.0480493225
 10
9.6612378332
 20
-20.047419947
 10
9.6669697323
 20
-20.0467613056
 10
9.6725247959
 20
-20.0460742993
 10
9.6778954245
 20
-20.0453598681
 10
9.6830742714
 20
-20.0446189889
 10
9.6880542519
 20
-20.0438526756
 10
9.6928285536
 20
-20.0430619765
 10
9.6973906453
 20
-20.042247973
 10
9.7017342861
 20
-20.0414117786
 10
9.705853534
 20
-20.0405545378
 10
9.7097427541
 20
-20.0396774226
 10
9.7133966258
 20
-20.0387816329
 10
9.7168101508
 20
-20.0378683949
 10
9.7199786595
 20
-20.0369389571
 10
9.7228978173
 20
-20.0359945908
 10
9.725563631
 20
-20.0350365891
 10
9.7279724538
 20
-20.0340662613
 10
9.7301209904
 20
-20.0330849346
 10
9.7320063017
 20
-20.0320939532
 10
9.7336258086
 20
-20.0310946711
 10
9.7349772957
 20
-20.0300884548
 10
9.7360589142
 20
-20.0290766835
 10
9.7368691844
 20
-20.0280607408
 10
9.737406998
 20
-20.0270420137
 10
9.7376716191
 20
-20.0260218941
  0
LINE
  5
224
100
AcDbEntity
  8
RACCORDO
100
AcDbLine
 62
7
  6
CONTINUOUS
 10
-9.8632646167
 20
-20.8354279241
 11
-8.9064830495
 21
-20.8354279241
  0
LINE
  5
225
100
AcDbEntity
  8
DRAFT
100
AcDbLine
 62
7
  6
CONTINUOUS
 10
-2.5197317036
 20
-20.8354279241
 11
2.2935169505
 21
-20.8354279241
  0
LINE
  5
226
100
AcDbEntity
  8
RACCORDO
100
AcDbLine
 62
7
  6
CONTINUOUS
 10
8.6802682964
 20
-20.8354279241
 11
9.6370498635
 21
-20.8354279241
  0
LINE
  5
227
100
AcDbEntity
  8
RACCORDO
100
AcDbLine
 62
7
  6
CONTINUOUS
 10
9.6145960209
 20
-20.7654279241
 11
7.9297129465
 21
-20.7654279241
  0
LINE
  5
228
100
AcDbEntity
  8
DRAFT
100
AcDbLine
 62
7
  6
CONTINUOUS
 10
3.0440723004
 20
-20.7654279241
 11
-3.2702870535
 21
-20.7654279241
  0
LINE
  5
229
100
AcDbEntity
  8
RACCORDO
100
AcDbLine
 62
7
  6
CONTINUOUS
 10
-8.1559276996
 20
-20.7654279241
 11
-9.840810774
 21
-20.7654279241
  0
LINE
  5
22A
100
AcDbEntity
  8
RACCORDO
100
AcDbLine
 62
7
  6
CONTINUOUS
 10
7.1214225696
 20
-20.618086451
 11
3.8523626773
 21
-20.618086451
  0
LINE
  5
22B
100
AcDbEntity
  8
RACCORDO
100
AcDbLine
 62
7
  6
CONTINUOUS
 10
-4.0785774304
 20
-20.618086451
 11
-7.3476373227
 21
-20.618086451
  0
LINE
  5
22C
100
AcDbEntity
  8
RACCORDO
100
AcDbLine
 62
253
  6
CONTINUOUS
 10
9.5377020801
 20
-20.2245311244
 11
-9.7639168332
 21
-20.2245311244
  0
LINE
  5
22D
100
AcDbEntity
  8
RACCORDO
100
AcDbLine
 62
253
  6
CONTINUOUS
 10
9.5377020506
 20
-20.053607885
 11
-9.7639168037
 21
-20.053607885
  0
LWPOLYLINE
  5
22E
100
AcDbEntity
  8
RACCORDO
100
AcDbPolyline
 62
253
  6
CONTINUOUS
 90
46
 70
0
 10
-9.7639168332
 20
-20.2245311244
 10
-9.7708862395
 20
-20.2243958101
 10
-9.7778471776
 20
-20.2240194617
 10
-9.7847911896
 20
-20.2234025366
 10
-9.7917098383
 20
-20.2225457843
 10
-9.7985947171
 20
-20.2214502457
 10
-9.8054374606
 20
-20.2201172522
 10
-9.8122297544
 20
-20.2185484232
 10
-9.8189633457
 20
-20.216745665
 10
-9.8256300528
 20
-20.2147111681
 10
-9.8322217753
 20
-20.2124474044
 10
-9.8387305039
 20
-20.2099571246
 10
-9.8451483302
 20
-20.2072433544
 10
-9.8514674563
 20
-20.2043093912
 10
-9.857680204
 20
-20.2011588
 10
-9.8637790247
 20
-20.1977954088
 10
-9.8697565079
 20
-20.1942233043
 10
-9.8756053906
 20
-20.1904468269
 10
-9.8813185663
 20
-20.1864705651
 10
-9.8868890931
 20
-20.1822993502
 10
-9.8923102026
 20
-20.1779382506
 10
-9.8975753078
 20
-20.1733925651
 10
-9.9026780114
 20
-20.1686678171
 10
-9.9076121133
 20
-20.1637697472
 10
-9.9123716184
 20
-20.1587043069
 10
-9.9169507437
 20
-20.1534776509
 10
-9.9213439252
 20
-20.1480961299
 10
-9.9255458251
 20
-20.1425662828
 10
-9.9295513378
 20
-20.1368948284
 10
-9.9333555964
 20
-20.131088658
 10
-9.9369539786
 20
-20.1251548264
 10
-9.9403421122
 20
-20.1191005433
 10
-9.9435158803
 20
-20.1129331651
 10
-9.9464714268
 20
-20.1066601854
 10
-9.9492051605
 20
-20.1002892263
 10
-9.9517137598
 20
-20.0938280287
 10
-9.9539941766
 20
-20.0872844433
 10
-9.95604364
 20
-20.0806664209
 10
-9.95785966
 20
-20.0739820027
 10
-9.9594400299
 20
-20.0672393106
 10
-9.9607828294
 20
-20.0604465373
 10
-9.9618864272
 20
-20.0536119364
 10
-9.9627494821
 20
-20.0467438123
 10
-9.9633709456
 20
-20.0398505099
 10
-9.9637500625
 20
-20.0329404052
 10
-9.9638863722
 20
-20.0260218941
  0
LWPOLYLINE
  5
22F
100
AcDbEntity
  8
RACCORDO
100
AcDbPolyline
 62
253
  6
CONTINUOUS
 90
4
 70
0
 10
-9.7934004243
 20
-20.0532382443
 10
-9.7860642504
 20
-20.0533849429
 10
-9.7786952047
 20
-20.0534864915
 10
-9.7639168332
 20
-20.053607885
  0
LINE
  5
230
100
AcDbEntity
  8
DRAFT
100
AcDbLine
 62
7
  6
CONTINUOUS
 10
-3.2702870535
 20
-20.7654279241
 11
-2.5197317036
 21
-20.8354279241
  0
LINE
  5
231
100
AcDbEntity
  8
DRAFT
100
AcDbLine
 62
7
  6
CONTINUOUS
 10
7.9297129465
 20
-20.7654279241
 11
8.6802682964
 21
-20.8354279241
  0
LINE
  5
232
100
AcDbEntity
  8
RACCORDO
100
AcDbLine
 62
7
  6
CONTINUOUS
 10
-3.2702870535
 20
-20.7654279241
 11
-3.9053723496
 21
-20.6303649071
  0
LINE
  5
233
100
AcDbEntity
  8
RACCORDO
100
AcDbLine
 62
7
  6
CONTINUOUS
 10
-8.1559276996
 20
-20.7654279241
 11
-7.5208424035
 21
-20.6303649071
  0
LINE
  5
234
100
AcDbEntity
  8
0
100
AcDbLine
 62
7
  6
CONTINUOUS
 10
-2.9153833766
 20
-18.8477289241
 11
-2.6026913766
 21
-18.8477289241
  0
LINE
  5
235
100
AcDbEntity
  8
0
100
AcDbLine
 62
7
  6
CONTINUOUS
 10
-1.9246093766
 20
-18.8477289241
 11
-1.5697813766
 21
-18.8477289241
  0
LINE
  5
236
100
AcDbEntity
  8
0
100
AcDbLine
 62
7
  6
CONTINUOUS
 10
-1.3787663766
 20
-18.8477289241
 11
-1.0393113766
 21
-18.8477289241
  0
LINE
  5
237
100
AcDbEntity
  8
0
100
AcDbLine
 62
7
  6
CONTINUOUS
 10
-0.5464833766
 20
-18.8477289241
 11
-0.4967193766
 21
-18.8477289241
  0
LINE
  5
238
100
AcDbEntity
  8
0
100
AcDbLine
 62
7
  6
CONTINUOUS
 10
-0.0019273766
 20
-18.8477289241
 11
0.3451886234
 21
-18.8477289241
  0
LINE
  5
239
100
AcDbEntity
  8
0
100
AcDbLine
 62
7
  6
CONTINUOUS
 10
0.4009056234
 20
-18.8477289241
 11
0.7518836234
 21
-18.8477289241
  0
LINE
  5
23A
100
AcDbEntity
  8
0
100
AcDbLine
 62
7
  6
CONTINUOUS
 10
1.4249306234
 20
-18.8477289241
 11
1.7989046234
 21
-18.8477289241
  0
LINE
  5
23B
100
AcDbEntity
  8
0
100
AcDbLine
 62
7
  6
CONTINUOUS
 10
1.9030992874
 20
-18.8477286108
 11
2.2564996194
 21
-18.8477286108
  0
LINE
  5
23C
100
AcDbEntity
  8
0
100
AcDbLine
 62
7
  6
CONTINUOUS
 10
2.7998698386
 20
-18.8477286108
 11
3.1411731819
 21
-18.8477286108
  0
LINE
  5
23D
100
AcDbEntity
  8
0
100
AcDbLine
 62
7
  6
CONTINUOUS
 10
0.8497946234
 20
-18.5083759241
 11
1.3330116234
 21
-18.5083759241
  0
LINE
  5
23E
100
AcDbEntity
  8
0
100
AcDbLine
 62
7
  6
CONTINUOUS
 10
0.9223766234
 20
-18.2457859241
 11
1.2620986234
 21
-18.2457859241
  0
LINE
  5
23F
100
AcDbEntity
  8
0
100
AcDbLine
 62
7
  6
CONTINUOUS
 10
2.2564996194
 20
-18.1824962082
 11
2.4467499425
 21
-18.1824962082
  0
LINE
  5
240
100
AcDbEntity
  8
RACCORDO
100
AcDbLine
 62
7
  6
CONTINUOUS
 10
7.9297129465
 20
-20.7654279241
 11
7.2946276504
 21
-20.6303649071
  0
LWPOLYLINE
  5
241
100
AcDbEntity
  8
0
100
AcDbPolyline
 62
7
  6
CONTINUOUS
 90
13
 70
0
 10
-3.0647388339
 20
18.0032526083
 10
-3.0611297195
 20
18.0053403742
 10
-3.0593525459
 20
18.0063558906
 10
-3.0575750243
 20
18.007337718
 10
-3.0557910804
 20
18.0082942786
 10
-3.0540067887
 20
18.0092171504
 10
-3.0522217878
 20
18.0100690399
 10
-3.0504336093
 20
18.0108474419
 10
-3.0486447217
 20
18.0115548621
 10
-3.0468621685
 20
18.0121615233
 10
-3.0450882977
 20
18.0126574998
 10
-3.0433207613
 20
18.0130527177
 10
-3.0415595593
 20
18.0133471771
  0
LWPOLYLINE
  5
242
100
AcDbEntity
  8
0
100
AcDbPolyline
 62
7
  6
CONTINUOUS
 90
37
 70
0
 10
1.9030992874
 20
-17.1677258419
 10
1.941388529
 20
-17.1622695471
 10
1.9786173664
 20
-17.1572626693
 10
2.0147857997
 20
-17.1527052166
 10
2.0498911768
 20
-17.1486119326
 10
2.0839361498
 20
-17.144968088
 10
2.1169286748
 20
-17.1417294797
 10
2.148869496
 20
-17.1389002454
 10
2.1797578693
 20
-17.1364762564
 10
2.2095995178
 20
-17.1344009082
 10
2.2383936907
 20
-17.1326725258
 10
2.266141139
 20
-17.1312927891
 10
2.2928498382
 20
-17.130210125
 10
2.3184779852
 20
-17.1294216793
 10
2.3430673831
 20
-17.1289303082
 10
2.3667514175
 20
-17.1286930034
 10
2.3894750867
 20
-17.1287066503
 10
2.4112933923
 20
-17.1289743638
 10
2.4325047243
 20
-17.1294624797
 10
2.4531035432
 20
-17.1301606376
 10
2.4730953885
 20
-17.131079197
 10
2.4927952686
 20
-17.1322155742
 10
2.512212788
 20
-17.133552233
 10
2.5313383423
 20
-17.1351067077
 10
2.5504581259
 20
-17.136929019
 10
2.5696560089
 20
-17.1390119842
 10
2.5888481213
 20
-17.1413627824
 10
2.608069047
 20
-17.1440529756
 10
2.6273628581
 20
-17.1470873975
 10
2.6466854825
 20
-17.1504612074
 10
2.665939288
 20
-17.1542314534
 10
2.6851310268
 20
-17.1584048911
 10
2.7042539468
 20
-17.1629747534
 10
2.7231901588
 20
-17.1679778025
 10
2.7419003662
 20
-17.1734262868
 10
2.7604238656
 20
-17.1793079413
 10
2.778760657
 20
-17.1856227567
  0
LWPOLYLINE
  5
243
100
AcDbEntity
  8
0
100
AcDbPolyline
 62
7
  6
CONTINUOUS
 90
55
 70
0
 10
2.4475147679
 20
-17.9040997556
 10
2.4552443188
 20
-17.9038861551
 10
2.4629943527
 20
-17.9035467108
 10
2.4707648697
 20
-17.9030814223
 10
2.4785718322
 20
-17.9024955132
 10
2.4863992778
 20
-17.9017837595
 10
2.494199319
 20
-17.9009304902
 10
2.501971556
 20
-17.8999327843
 10
2.5097163885
 20
-17.8987935618
 10
2.5173871279
 20
-17.8975059131
 10
2.5249729988
 20
-17.8960693447
 10
2.5324847767
 20
-17.8944843485
 10
2.5399080993
 20
-17.8927454931
 10
2.5472349039
 20
-17.8908549707
 10
2.5544732532
 20
-17.8888105868
 10
2.5616329741
 20
-17.886600329
 10
2.568717079
 20
-17.8842258926
 10
2.5757225555
 20
-17.8816855794
 10
2.5826501926
 20
-17.8789622861
 10
2.5895013824
 20
-17.8760590152
 10
2.5962747328
 20
-17.8729727602
 10
2.6029668573
 20
-17.8696774036
 10
2.6095884099
 20
-17.8661699694
 10
2.6161287366
 20
-17.862453428
 10
2.6225524883
 20
-17.8585105797
 10
2.6288800673
 20
-17.8543200587
 10
2.6350910714
 20
-17.8499032234
 10
2.641088945
 20
-17.8453069613
 10
2.646857843
 20
-17.8405231033
 10
2.6524136106
 20
-17.8355598117
 10
2.6577072279
 20
-17.8304884727
 10
2.6627022047
 20
-17.8253472837
 10
2.6674350312
 20
-17.8200980435
 10
2.6719661585
 20
-17.8146975406
 10
2.6762995088
 20
-17.8091589042
 10
2.6804311598
 20
-17.8034689989
 10
2.6844097958
 20
-17.7975452135
 10
2.6882556736
 20
-17.7913727804
 10
2.6919485363
 20
-17.7849664562
 10
2.6954762975
 20
-17.7782879121
 10
2.6988450816
 20
-17.7713326283
 10
2.7020487643
 20
-17.7641051103
 10
2.7050568855
 20
-17.7565805657
 10
2.7078685122
 20
-17.7487585772
 10
2.7104845775
 20
-17.7406395446
 10
2.7128774212
 20
-17.732199899
 10
2.715047183
 20
-17.7234500437
 10
2.7169937233
 20
-17.7143795546
 10
2.7186889629
 20
-17.7049336189
 10
2.7201376267
 20
-17.695102148
 10
2.7213349899
 20
-17.6848952027
 10
2.7222387984
 20
-17.67428819
 10
2.7228349675
 20
-17.6632729011
 10
2.7231375819
 20
-17.6518575118
 10
2.7231466416
 20
-17.6400420051
  0
LINE
  5
244
100
AcDbEntity
  8
0
100
AcDbLine
 62
7
  6
CONTINUOUS
 10
2.2447340551
 20
-17.9040997556
 11
2.4475147679
 21
-17.9040997556
  0
LINE
  5
245
100
AcDbEntity
  8
0
100
AcDbLine
 62
7
  6
CONTINUOUS
 10
-3.4542733766
 20
-17.1478659241
 11
-3.0688203766
 21
-17.1478659241
  0
LINE
  5
246
100
AcDbEntity
  8
0
100
AcDbLine
 62
7
  6
CONTINUOUS
 10
-2.4108733766
 20
-17.1478659241
 11
-2.0562873766
 21
-17.1478659241
  0
LINE
  5
247
100
AcDbEntity
  8
0
100
AcDbLine
 62
7
  6
CONTINUOUS
 10
-1.2252793766
 20
-17.1478659241
 11
-0.8707443766
 21
-17.1478659241
  0
LINE
  5
248
100
AcDbEntity
  8
0
100
AcDbLine
 62
7
  6
CONTINUOUS
 10
-0.1648353766
 20
-17.1478659241
 11
0.1862316234
 21
-17.1478659241
  0
LINE
  5
249
100
AcDbEntity
  8
0
100
AcDbLine
 62
7
  6
CONTINUOUS
 10
0.9340906234
 20
-17.1478659241
 11
1.2773446234
 21
-17.1478659241
  0
LINE
  5
24A
100
AcDbEntity
  8
0
100
AcDbLine
 62
7
  6
CONTINUOUS
 10
-1.9246093766
 20
-17.1477639241
 11
-1.5697813766
 21
-17.1477639241
  0
LWPOLYLINE
  5
24B
100
AcDbEntity
  8
0
100
AcDbPolyline
 62
7
  6
CONTINUOUS
 90
25
 70
0
 10
2.5227007021
 20
-17.427446745
 10
2.5111241906
 20
-17.426163827
 10
2.4995302073
 20
-17.4250217012
 10
2.487918752
 20
-17.424020368
 10
2.4762861796
 20
-17.4231559508
 10
2.4646361354
 20
-17.4224323273
 10
2.452979555
 20
-17.4218611299
 10
2.4413158091
 20
-17.4214425705
 10
2.4296455272
 20
-17.4211764378
 10
2.4179815328
 20
-17.4210737295
 10
2.4063243846
 20
-17.4211375154
 10
2.394673524
 20
-17.4213647256
 10
2.3830400993
 20
-17.4217571484
 10
2.3714276882
 20
-17.4223221302
 10
2.3598327131
 20
-17.4230523239
 10
2.3482555889
 20
-17.4239274781
 10
2.3366973397
 20
-17.4249484803
 10
2.3251569415
 20
-17.4261144418
 10
2.313631737
 20
-17.4274024466
 10
2.3021230704
 20
-17.4288120127
 10
2.2906295976
 20
-17.4303436208
 10
2.2791446286
 20
-17.4319757986
 10
2.2676659335
 20
-17.4337013885
 10
2.2561957424
 20
-17.4355275469
 10
2.2447340551
 20
-17.4374542731
  0
LINE
  5
24C
100
AcDbEntity
  8
RACCORDO
100
AcDbLine
 62
7
  6
CONTINUOUS
 10
-9.9520378429
 20
13.2287576852
 11
-10.0631073766
 21
13.1732271478
  0
LINE
  5
24D
100
AcDbEntity
  8
0
100
AcDbLine
 62
7
  6
CONTINUOUS
 10
1.6535594649
 20
-15.8611726055
 11
1.5202258773
 21
-15.8952151546
  0
LINE
  5
24E
100
AcDbEntity
  8
0
100
AcDbLine
 62
7
  6
CONTINUOUS
 10
1.1868926711
 20
-15.2484066495
 11
1.3202258773
 21
-15.2143641004
  0
LINE
  5
24F
100
AcDbEntity
  8
0
100
AcDbLine
 62
7
  6
CONTINUOUS
 10
1.5202258773
 20
-16.0654279241
 11
1.6868926711
 21
-16.031385372
  0
LINE
  5
250
100
AcDbEntity
  8
0
100
AcDbLine
 62
7
  6
CONTINUOUS
 10
1.3202258773
 20
-15.0441513547
 11
1.1535594649
 21
-15.0781939039
  0
LINE
  5
251
100
AcDbEntity
  8
0
100
AcDbLine
 62
7
  6
CONTINUOUS
 10
-2.7131073289
 20
-16.0654279241
 11
-2.5131073289
 21
-16.0654279241
  0
LINE
  5
252
100
AcDbEntity
  8
0
100
AcDbLine
 62
7
  6
CONTINUOUS
 10
-1.4464406304
 20
-16.0654279241
 11
-1.2464407258
 21
-16.0654279241
  0
LINE
  5
253
100
AcDbEntity
  8
0
100
AcDbLine
 62
7
  6
CONTINUOUS
 10
-0.3131073289
 20
-16.0654279241
 11
-0.1131073289
 21
-16.0654279241
  0
LINE
  5
254
100
AcDbEntity
  8
0
100
AcDbLine
 62
7
  6
CONTINUOUS
 10
1.3202258773
 20
-16.0654279241
 11
1.5202258773
 21
-16.0654279241
  0
LINE
  5
255
100
AcDbEntity
  8
0
100
AcDbLine
 62
7
  6
CONTINUOUS
 10
2.4868926711
 20
-16.0654279241
 11
2.6868926711
 21
-16.0654279241
  0
LINE
  5
256
100
AcDbEntity
  8
0
100
AcDbLine
 62
7
  6
CONTINUOUS
 10
1.5202258773
 20
-15.8952151546
 11
1.3202258773
 21
-15.8952151546
  0
LINE
  5
257
100
AcDbEntity
  8
0
100
AcDbLine
 62
7
  6
CONTINUOUS
 10
1.0202258773
 20
-15.6569172868
 11
0.8202258773
 21
-15.6569172868
  0
LINE
  5
258
100
AcDbEntity
  8
0
100
AcDbLine
 62
7
  6
CONTINUOUS
 10
-2.2464406781
 20
-15.5888321885
 11
-1.4464406304
 21
-15.5888321885
  0
LINE
  5
259
100
AcDbEntity
  8
0
100
AcDbLine
 62
7
  6
CONTINUOUS
 10
-1.2464407258
 20
-15.5888321885
 11
-0.9131073289
 21
-15.5888321885
  0
LINE
  5
25A
100
AcDbEntity
  8
0
100
AcDbLine
 62
7
  6
CONTINUOUS
 10
-0.9131073289
 20
-15.3845768461
 11
-1.2464407258
 21
-15.3845768461
  0
LINE
  5
25B
100
AcDbEntity
  8
0
100
AcDbLine
 62
7
  6
CONTINUOUS
 10
-1.4464406304
 20
-15.3845768461
 11
-2.0131073289
 21
-15.3845768461
  0
LINE
  5
25C
100
AcDbEntity
  8
0
100
AcDbLine
 62
7
  6
CONTINUOUS
 10
0.8202258773
 20
-15.3505342969
 11
1.0535594649
 21
-15.3505342969
  0
LINE
  5
25D
100
AcDbEntity
  8
0
100
AcDbLine
 62
7
  6
CONTINUOUS
 10
1.3202258773
 20
-15.2143641004
 11
1.5202258773
 21
-15.2143641004
  0
LINE
  5
25E
100
AcDbEntity
  8
0
100
AcDbLine
 62
7
  6
CONTINUOUS
 10
1.5202258773
 20
-15.0441513547
 11
1.3202258773
 21
-15.0441513547
  0
LINE
  5
25F
100
AcDbEntity
  8
0
100
AcDbLine
 62
7
  6
CONTINUOUS
 10
1.1535594649
 20
-16.031385372
 11
1.3202258773
 21
-16.0654279241
  0
LWPOLYLINE
  5
260
100
AcDbEntity
  8
RACCORDO
100
AcDbPolyline
 62
7
  6
CONTINUOUS
 90
10
 70
0
 10
-9.9520378429
 20
-13.2596135334
 10
-9.9518002448
 20
-13.2596736947
 10
-9.9513247145
 20
-13.2597337101
 10
-9.9506112519
 20
-13.2597935794
 10
-9.9496580897
 20
-13.2598534166
 10
-9.9484669952
 20
-13.2599131077
 10
-9.9470432706
 20
-13.2599723118
 10
-9.9453850224
 20
-13.2600310057
 10
-9.9434941439
 20
-13.2600892125
 10
-9.9390503382
 20
-13.2602032721
  0
LINE
  5
261
100
AcDbEntity
  8
0
100
AcDbLine
 62
7
  6
CONTINUOUS
 10
1.3202258773
 20
-15.8952151546
 11
1.1868926711
 21
-15.8611726055
  0
LWPOLYLINE
  5
262
100
AcDbEntity
  8
0
100
AcDbPolyline
 62
7
  6
CONTINUOUS
 90
108
 70
0
 10
2.778760657
 20
-17.1856227567
 10
2.7873011049
 20
-17.18882623
 10
2.7961064251
 20
-17.1925231883
 10
2.8051766178
 20
-17.1967136252
 10
2.8145097721
 20
-17.2013731908
 10
2.8241077988
 20
-17.2065262194
 10
2.8339764301
 20
-17.2122457271
 10
2.8441958756
 20
-17.2185846288
 10
2.8546859257
 20
-17.2254899839
 10
2.8652116832
 20
-17.2328760248
 10
2.8757943506
 20
-17.2407746347
 10
2.8864127254
 20
-17.2491539029
 10
2.896768303
 20
-17.2578323761
 10
2.9067654177
 20
-17.2667529969
 10
2.9164997352
 20
-17.2759728046
 10
2.9259597478
 20
-17.2854814968
 10
2.9351577194
 20
-17.2952936385
 10
2.9440813861
 20
-17.3053946436
 10
2.9526824489
 20
-17.3157304852
 10
2.9609492193
 20
-17.3262892661
 10
2.9688933857
 20
-17.3370828654
 10
2.9765017146
 20
-17.3480929227
 10
2.9837680751
 20
-17.3593092709
 10
2.9906985981
 20
-17.3707420594
 10
2.9972984422
 20
-17.3824034021
 10
3.003573586
 20
-17.3942987349
 10
3.009518051
 20
-17.4064226014
 10
3.0151190599
 20
-17.4187707774
 10
3.0203726726
 20
-17.4313286388
 10
3.0252828292
 20
-17.4441107887
 10
3.0298485734
 20
-17.4571568412
 10
3.0340756558
 20
-17.4704701333
 10
3.0379583256
 20
-17.4840473012
 10
3.0414783745
 20
-17.4979179044
 10
3.0446383156
 20
-17.5120714202
 10
3.0474356356
 20
-17.5265183401
 10
3.0498445867
 20
-17.5413197401
 10
3.0518689694
 20
-17.5565067401
 10
3.0535049831
 20
-17.572048178
 10
3.0547154783
 20
-17.5879117046
 10
3.0554943563
 20
-17.6042903785
 10
3.0558477159
 20
-17.6209910928
 10
3.0557567039
 20
-17.6374022896
 10
3.0552035456
 20
-17.653319931
 10
3.0542060157
 20
-17.6689480977
 10
3.0527985847
 20
-17.6842874478
 10
3.0509839667
 20
-17.6993267652
 10
3.0487594477
 20
-17.7140772989
 10
3.0461513556
 20
-17.7285734024
 10
3.0431508266
 20
-17.7428504112
 10
3.0397667246
 20
-17.7568730158
 10
3.0360519685
 20
-17.7705696029
 10
3.0319646812
 20
-17.7840063779
 10
3.02754674
 20
-17.7971171667
 10
3.0229766954
 20
-17.8096318034
 10
3.0182743272
 20
-17.8214557874
 10
3.0134198556
 20
-17.832683678
 10
3.0085324923
 20
-17.8433289109
 10
3.0036356974
 20
-17.8533592561
 10
2.9987060107
 20
-17.862806991
 10
2.9937922627
 20
-17.8717823054
 10
2.9888996854
 20
-17.8802942116
 10
2.9840230469
 20
-17.8883337292
 10
2.9791954816
 20
-17.8959840513
 10
2.9744217272
 20
-17.9032505696
 10
2.9696970461
 20
-17.9101279148
 10
2.9650403597
 20
-17.9166831329
 10
2.9604546895
 20
-17.9229208219
 10
2.9559370141
 20
-17.9288363998
 10
2.9514971908
 20
-17.9344831378
 10
2.947137186
 20
-17.9398646834
 10
2.9428550333
 20
-17.9449774007
 10
2.9386546907
 20
-17.9498636333
 10
2.9345372004
 20
-17.9545260531
 10
2.9305015203
 20
-17.9589619967
 10
2.9265484815
 20
-17.9632058037
 10
2.9226787432
 20
-17.9672594814
 10
2.9188916463
 20
-17.9711210286
 10
2.9151860449
 20
-17.9748187706
 10
2.9115623856
 20
-17.9783541168
 10
2.9080202219
 20
-17.9817256625
 10
2.904557068
 20
-17.9849575107
 10
2.9011730607
 20
-17.9880509278
 10
2.8978680633
 20
-17.991004651
 10
2.89463918
 20
-17.9938389891
 10
2.8914872343
 20
-17.9965554391
 10
2.8884114026
 20
-17.9991525066
 10
2.8854063181
 20
-18.001646013
 10
2.8824725864
 20
-18.0040378621
 10
2.8796096019
 20
-18.006326152
 10
2.8768101814
 20
-18.0085209962
 10
2.8740730577
 20
-18.010623051
 10
2.871399498
 20
-18.0126316617
 10
2.8687861203
 20
-18.0145549744
 10
2.8662306169
 20
-18.0163927139
 10
2.8637352956
 20
-18.0181451568
 10
2.8613036982
 20
-18.0198212771
 10
2.858936663
 20
-18.0214204594
 10
2.8566333518
 20
-18.0229433201
 10
2.8543947917
 20
-18.0244006814
 10
2.852225053
 20
-18.0257910196
 10
2.8501200654
 20
-18.027115859
 10
2.8480686454
 20
-18.028390594
 10
2.8460727059
 20
-18.0296151178
 10
2.844130334
 20
-18.0307895376
 10
2.8422246073
 20
-18.0319295686
 10
2.8403560214
 20
-18.0330362068
 10
2.8385240808
 20
-18.0341084564
  0
LWPOLYLINE
  5
263
100
AcDbEntity
  8
0
100
AcDbPolyline
 62
7
  6
CONTINUOUS
 90
40
 70
0
 10
2.8153448062
 20
-18.0542477325
 10
2.8220307622
 20
-18.0570682826
 10
2.8286043983
 20
-18.0601063573
 10
2.8350657143
 20
-18.0633619538
 10
2.841419465
 20
-18.0668447946
 10
2.8476608957
 20
-18.0705451513
 10
2.8537757424
 20
-18.0744338452
 10
2.8597614512
 20
-18.0785085973
 10
2.865620576
 20
-18.0827716806
 10
2.8713465153
 20
-18.0872007446
 10
2.8769272829
 20
-18.0917809374
 10
2.8823748649
 20
-18.0965271051
 10
2.8877186187
 20
-18.101461444
 10
2.8929474321
 20
-18.1065610926
 10
2.8980724173
 20
-18.1118489052
 10
2.9031562678
 20
-18.1174156494
 10
2.9082058868
 20
-18.1232565147
 10
2.9132143711
 20
-18.1293762988
 10
2.9182237056
 20
-18.1358801765
 10
2.9232429065
 20
-18.1427683087
 10
2.9282629575
 20
-18.1500405138
 10
2.9332987947
 20
-18.1578014461
 10
2.9383633871
 20
-18.1660715052
 10
2.9434437656
 20
-18.1748302595
 10
2.9485159588
 20
-18.1841211108
 10
2.9535854058
 20
-18.1939597426
 10
2.9586466675
 20
-18.2043304298
 10
2.9636594547
 20
-18.2152294587
 10
2.9686170638
 20
-18.2266521072
 10
2.9735261986
 20
-18.2386030496
 10
2.9783666806
 20
-18.2510926646
 10
2.9831268812
 20
-18.2641242884
 10
2.987818429
 20
-18.2776945285
 10
2.9924560314
 20
-18.2918036683
 10
2.9970182022
 20
-18.3064538995
 10
3.0015264276
 20
-18.3216429666
 10
3.0060598736
 20
-18.3373644807
 10
3.0106449287
 20
-18.3536162888
 10
3.0152552044
 20
-18.3704004734
 10
3.0366519039
 20
-18.4498241334
  0
LINE
  5
264
100
AcDbEntity
  8
RACCORDO
100
AcDbLine
 62
7
  6
CONTINUOUS
 10
-9.9520378429
 20
-13.2596135334
 11
-10.0631073766
 21
-13.204082996
  0
LINE
  5
265
100
AcDbEntity
  8
0
100
AcDbLine
 62
7
  6
CONTINUOUS
 10
-1.9797742181
 20
15.762231659
 11
-1.8797742181
 21
15.8303167573
  0
LINE
  5
266
100
AcDbEntity
  8
0
100
AcDbLine
 62
7
  6
CONTINUOUS
 10
-1.9131074242
 20
16.0005295238
 11
-2.0797742181
 21
15.8984018674
  0
LINE
  5
267
100
AcDbEntity
  8
0
100
AcDbLine
 62
7
  6
CONTINUOUS
 10
-1.3797742181
 20
15.0473380557
 11
-1.2131074242
 21
15.1494657031
  0
LWPOLYLINE
  5
268
100
AcDbEntity
  8
RACCORDO
100
AcDbPolyline
 62
7
  6
CONTINUOUS
 90
8
 70
0
 10
9.7191702692
 20
-13.2600310057
 10
9.7208285175
 20
-13.2599723118
 10
9.7222522421
 20
-13.2599131077
 10
9.7234433366
 20
-13.2598534166
 10
9.7243964988
 20
-13.2597935794
 10
9.7251099614
 20
-13.2597337101
 10
9.7255854917
 20
-13.2596736947
 10
9.7258230898
 20
-13.2596135334
  0
LINE
  5
269
100
AcDbEntity
  8
RACCORDO
100
AcDbLine
 62
7
  6
CONTINUOUS
 10
9.7151668643
 20
-13.2601466602
 11
9.7191702692
 21
-13.2600310057
  0
LINE
  5
26A
100
AcDbEntity
  8
RACCORDO
100
AcDbLine
 62
7
  6
CONTINUOUS
 10
9.7102826579
 20
-13.2602591249
 11
9.7151668643
 21
-13.2601466602
  0
LINE
  5
26B
100
AcDbEntity
  8
RACCORDO
100
AcDbLine
 62
7
  6
CONTINUOUS
 10
9.7013027312
 20
-13.260421989
 11
9.7102826579
 21
-13.2602591249
  0
LINE
  5
26C
100
AcDbEntity
  8
RACCORDO
100
AcDbLine
 62
7
  6
CONTINUOUS
 10
9.6821401315
 20
-13.2606735784
 11
9.7013027312
 21
-13.260421989
  0
LINE
  5
26D
100
AcDbEntity
  8
DRAFT
100
AcDbLine
 62
7
  6
CONTINUOUS
 10
9.8368926234
 20
-13.178370064
 11
9.2368926234
 21
-13.1836061847
  0
LINE
  5
26E
100
AcDbEntity
  8
RACCORDO
100
AcDbLine
 62
7
  6
CONTINUOUS
 10
9.6422233861
 20
-13.2610044665
 11
9.6821401315
 21
-13.2606735784
  0
LINE
  5
26F
100
AcDbEntity
  8
DRAFT
100
AcDbLine
 62
7
  6
CONTINUOUS
 10
-10.0631073766
 20
-13.1923017245
 11
-9.4631073766
 21
-13.1892786488
  0
LINE
  5
270
100
AcDbEntity
  8
RACCORDO
100
AcDbLine
 62
7
  6
CONTINUOUS
 10
9.5601286969
 20
-13.2613049473
 11
9.6422233861
 21
-13.2610044665
  0
LINE
  5
271
100
AcDbEntity
  8
RACCORDO
100
AcDbLine
 62
7
  6
CONTINUOUS
 10
9.5258421817
 20
-13.2613308327
 11
9.5601286969
 21
-13.2613049473
  0
LINE
  5
272
100
AcDbEntity
  8
0
100
AcDbLine
 62
7
  6
CONTINUOUS
 10
-0.6464407258
 20
-14.6356406698
 11
0.3535594649
 21
-14.6356406698
  0
LINE
  5
273
100
AcDbEntity
  8
0
100
AcDbLine
 62
7
  6
CONTINUOUS
 10
0.9868926711
 20
-14.6356406698
 11
1.9535594649
 21
-14.6356406698
  0
LINE
  5
274
100
AcDbEntity
  8
0
100
AcDbLine
 62
7
  6
CONTINUOUS
 10
2.6868926711
 20
-14.4654279241
 11
2.4868926711
 21
-14.4654279241
  0
LINE
  5
275
100
AcDbEntity
  8
0
100
AcDbLine
 62
7
  6
CONTINUOUS
 10
1.9535594649
 20
-14.4654279241
 11
0.8202258773
 21
-14.4654279241
  0
LINE
  5
276
100
AcDbEntity
  8
0
100
AcDbLine
 62
7
  6
CONTINUOUS
 10
0.5535594649
 20
-14.4654279241
 11
-0.6464407258
 21
-14.4654279241
  0
LINE
  5
277
100
AcDbEntity
  8
0
100
AcDbLine
 62
7
  6
CONTINUOUS
 10
-1.2464407258
 20
-14.4654279241
 11
-1.4464406304
 21
-14.4654279241
  0
LINE
  5
278
100
AcDbEntity
  8
0
100
AcDbLine
 62
7
  6
CONTINUOUS
 10
-2.5131073289
 20
-14.4654279241
 11
-2.7131073289
 21
-14.4654279241
  0
LINE
  5
279
100
AcDbEntity
  8
DRAFT
100
AcDbLine
 62
7
  6
CONTINUOUS
 10
-11.2131073766
 20
-13.204082996
 11
-10.0631073766
 21
-13.204082996
  0
LINE
  5
27A
100
AcDbEntity
  8
DRAFT
100
AcDbLine
 62
7
  6
CONTINUOUS
 10
9.8368926234
 20
-13.204082996
 11
10.9868926234
 21
-13.204082996
  0
LINE
  5
27B
100
AcDbEntity
  8
0
100
AcDbLine
 62
7
  6
CONTINUOUS
 10
10.0469296056
 20
-13.178370064
 11
9.8368926234
 21
-13.178370064
  0
LINE
  5
27C
100
AcDbEntity
  8
0
100
AcDbLine
 62
7
  6
CONTINUOUS
 10
-10.0631073766
 20
-13.178370064
 11
-10.2731443587
 21
-13.178370064
  0
LINE
  5
27D
100
AcDbEntity
  8
RACCORDO
100
AcDbLine
 62
7
  6
CONTINUOUS
 10
-9.8448771857
 20
-13.2611312141
 11
-9.7520569348
 21
-13.2613308327
  0
LINE
  5
27E
100
AcDbEntity
  8
DRAFT
100
AcDbLine
 62
7
  6
CONTINUOUS
 10
9.2368926234
 20
-13.1892786488
 11
9.8368926234
 21
-13.1923017245
  0
LINE
  5
27F
100
AcDbEntity
  8
RACCORDO
100
AcDbLine
 62
7
  6
CONTINUOUS
 10
-9.8946253526
 20
-13.2608088732
 11
-9.8448771857
 21
-13.2611312141
  0
LINE
  5
280
100
AcDbEntity
  8
DRAFT
100
AcDbLine
 62
7
  6
CONTINUOUS
 10
-9.4631073766
 20
-13.1836061847
 11
-10.0631073766
 21
-13.178370064
  0
LINE
  5
281
100
AcDbEntity
  8
RACCORDO
100
AcDbLine
 62
7
  6
CONTINUOUS
 10
-9.9204583051
 20
-13.260525989
 11
-9.8946253526
 21
-13.2608088732
  0
LINE
  5
282
100
AcDbEntity
  8
RACCORDO
100
AcDbLine
 62
7
  6
CONTINUOUS
 10
-9.9337251318
 20
-13.2603141767
 11
-9.9204583051
 21
-13.260525989
  0
LINE
  5
283
100
AcDbEntity
  8
RACCORDO
100
AcDbLine
 62
7
  6
CONTINUOUS
 10
-9.9390503382
 20
-13.2602032721
 11
-9.9337251318
 21
-13.2603141767
  0
LINE
  5
284
100
AcDbEntity
  8
0
100
AcDbLine
 62
7
  6
CONTINUOUS
 10
1.6868926711
 20
-15.0781939039
 11
1.5202258773
 21
-15.0441513547
  0
LINE
  5
285
100
AcDbEntity
  8
0
100
AcDbLine
 62
7
  6
CONTINUOUS
 10
1.5202258773
 20
-15.2143641004
 11
1.6535594649
 21
-15.2484066495
  0
LWPOLYLINE
  5
286
100
AcDbEntity
  8
RACCORDO
100
AcDbPolyline
 62
253
  6
CONTINUOUS
 90
38
 70
0
 10
-9.9638863722
 20
-20.0260218941
 10
-9.9636208939
 20
-20.0270584298
 10
-9.96308279
 20
-20.0280737286
 10
-9.9622736673
 20
-20.0290766835
 10
-9.9611929486
 20
-20.0300859985
 10
-9.9598407241
 20
-20.0310990627
 10
-9.9582210548
 20
-20.0320939532
 10
-9.9563366334
 20
-20.0330815988
 10
-9.9541876121
 20
-20.0340703876
 10
-9.9517783841
 20
-20.0350365891
 10
-9.9491131437
 20
-20.0359906733
 10
-9.9461939951
 20
-20.0369427209
 10
-9.9430249039
 20
-20.0378683949
 10
-9.9396115432
 20
-20.0387774612
 10
-9.9359581887
 20
-20.0396808078
 10
-9.9320682872
 20
-20.0405545378
 10
-9.9279488381
 20
-20.0414076257
 10
-9.9236061241
 20
-20.0422510168
 10
-9.9190433067
 20
-20.0430619765
 10
-9.9142685342
 20
-20.0438487232
 10
-9.9092897655
 20
-20.044621755
 10
-9.9041101776
 20
-20.0453598681
 10
-9.8987389046
 20
-20.046070641
 10
-9.8931852311
 20
-20.0467638671
 10
-9.8874525863
 20
-20.047419947
 10
-9.8815509499
 20
-20.0480459837
 10
-9.8754906275
 20
-20.0486510031
 10
-9.8692754311
 20
-20.0492168732
 10
-9.8629160659
 20
-20.0497504122
 10
-9.8564236152
 20
-20.0502599482
 10
-9.8498023019
 20
-20.0507285433
 10
-9.8430634506
 20
-20.0511629377
 10
-9.8362187328
 20
-20.0515709101
 10
-9.8292727298
 20
-20.0519363628
 10
-9.8222372864
 20
-20.0522661736
 10
-9.8151245128
 20
-20.0525677627
 10
-9.8079392411
 20
-20.0528254749
 10
-9.7934004243
 20
-20.0532382443
  0
LINE
  5
287
100
AcDbEntity
  8
0
100
AcDbLine
 62
7
  6
CONTINUOUS
 10
-2.5131074242
 20
14.9452104083
 11
-2.7131074242
 21
14.706912469
  0
LINE
  5
288
100
AcDbEntity
  8
0
100
AcDbLine
 62
7
  6
CONTINUOUS
 10
-1.2797742181
 20
15.3196784487
 11
-1.4131074242
 21
15.2175508013
  0
LINE
  5
289
100
AcDbEntity
  8
0
100
AcDbLine
 62
7
  6
CONTINUOUS
 10
-10.9693096855
 20
-13.1838403272
 11
-11.2131073766
 21
-13.204082996
  0
LINE
  5
28A
100
AcDbEntity
  8
0
100
AcDbLine
 62
7
  6
CONTINUOUS
 10
10.9868926234
 20
-13.204082996
 11
10.7430949324
 21
-13.1838403272
  0
LINE
  5
28B
100
AcDbEntity
  8
0
100
AcDbLine
 62
7
  6
CONTINUOUS
 10
0.9868926711
 20
-15.9292577156
 11
1.1535594649
 21
-16.031385372
  0
LINE
  5
28C
100
AcDbEntity
  8
0
100
AcDbLine
 62
7
  6
CONTINUOUS
 10
1.8535594649
 20
-15.1803215513
 11
1.6868926711
 21
-15.0781939039
  0
LINE
  5
28D
100
AcDbEntity
  8
0
100
AcDbLine
 62
7
  6
CONTINUOUS
 10
1.1868926711
 20
-15.8611726055
 11
1.0868926711
 21
-15.7930875072
  0
LINE
  5
28E
100
AcDbEntity
  8
0
100
AcDbLine
 62
7
  6
CONTINUOUS
 10
1.6535594649
 20
-15.2484066495
 11
1.7535594649
 21
-15.3164917478
  0
LWPOLYLINE
  5
28F
100
AcDbEntity
  8
RACCORDO
100
AcDbPolyline
 62
7
  6
CONTINUOUS
 90
52
 70
0
 10
-10.0406618008
 20
-20.5660850404
 10
-10.0405576315
 20
-20.5722202932
 10
-10.04026412
 20
-20.5783492319
 10
-10.0397815899
 20
-20.5844660769
 10
-10.0391105501
 20
-20.5905650594
 10
-10.0382516763
 20
-20.5966404346
 10
-10.0372058017
 20
-20.6026864856
 10
-10.0359739539
 20
-20.6086975178
 10
-10.0345573365
 20
-20.6146678715
 10
-10.032957296
 20
-20.6205919307
 10
-10.0311753764
 20
-20.6264641191
 10
-10.0292132938
 20
-20.6322789106
 10
-10.0270728967
 20
-20.6380308368
 10
-10.0247562323
 20
-20.6437144845
 10
-10.022265515
 20
-20.6493245068
 10
-10.0196030801
 20
-20.6548556267
 10
-10.0167714613
 20
-20.6603026389
 10
-10.0137733525
 20
-20.6656604188
 10
-10.0106115569
 20
-20.6709239249
 10
-10.0072890736
 20
-20.6760882018
 10
-10.0038090543
 20
-20.6811483896
 10
-10.0001747472
 20
-20.6860997228
 10
-9.9963895923
 20
-20.690937537
 10
-9.992457173
 20
-20.6956572763
 10
-9.9883811564
 20
-20.7002544912
 10
-9.9841653952
 20
-20.704724846
 10
-9.9798138755
 20
-20.7090641269
 10
-9.9753306529
 20
-20.7132682369
 10
-9.9707199617
 20
-20.717333205
 10
-9.9659861578
 20
-20.7212551938
 10
-9.9611336525
 20
-20.7250304933
 10
-9.9561670269
 20
-20.7286555299
 10
-9.9510909715
 20
-20.7321268745
 10
-9.9459102168
 20
-20.7354412348
 10
-9.9406296535
 20
-20.7385954646
 10
-9.9352542683
 20
-20.7415865714
 10
-9.9297890721
 20
-20.7444117086
 10
-9.9242392255
 20
-20.7470681832
 10
-9.9186099704
 20
-20.7495534645
 10
-9.9129065567
 20
-20.7518651757
 10
-9.9071343723
 20
-20.7540010997
 10
-9.9012988718
 20
-20.7559591891
 10
-9.8954055007
 20
-20.7577375565
 10
-9.8894598306
 20
-20.75933448
 10
-9.8834674841
 20
-20.7607484122
 10
-9.8774340571
 20
-20.761977972
 10
-9.871360908
 20
-20.7630226143
 10
-9.8652580953
 20
-20.7638803718
 10
-9.8591444845
 20
-20.764549178
 10
-9.8530303507
 20
-20.7650292786
 10
-9.8469171877
 20
-20.7653219034
 10
-9.840810774
 20
-20.7654279241
  0
LINE
  5
290
100
AcDbEntity
  8
RACCORDO
100
AcDbLine
 62
253
  6
CONTINUOUS
 10
-9.9638863715
 20
19.9951660407
 11
-9.9604702642
 21
18.4963485615
  0
LINE
  5
291
100
AcDbEntity
  8
RACCORDO
100
AcDbLine
 62
253
  6
CONTINUOUS
 10
-9.9604702642
 20
18.4963485615
 11
-9.9575009416
 21
16.9943969795
  0
LINE
  5
292
100
AcDbEntity
  8
RACCORDO
100
AcDbLine
 62
253
  6
CONTINUOUS
 10
-9.9575009416
 20
16.9943969795
 11
-9.9555677064
 21
15.8661526281
  0
LINE
  5
293
100
AcDbEntity
  8
RACCORDO
100
AcDbLine
 62
253
  6
CONTINUOUS
 10
-9.9555677064
 20
15.8661526281
 11
-9.9533823304
 21
14.359802824
  0
LINE
  5
294
100
AcDbEntity
  8
RACCORDO
100
AcDbLine
 62
253
  6
CONTINUOUS
 10
-9.9533823304
 20
14.359802824
 11
-9.9520378429
 21
13.2287576852
  0
LWPOLYLINE
  5
295
100
AcDbEntity
  8
RACCORDO
100
AcDbPolyline
 62
253
  6
CONTINUOUS
 90
3
 70
0
 10
-9.9492170651
 20
8.9389761851
 10
-9.9489723388
 20
8.1210508182
 10
-9.9481000869
 20
4.0311864465
  0
LINE
  5
296
100
AcDbEntity
  8
DRAFT
100
AcDbLine
 62
7
  6
CONTINUOUS
 10
-11.2131073766
 20
-4.1154279241
 11
-11.2131073766
 21
-13.204082996
  0
LINE
  5
297
100
AcDbEntity
  8
RACCORDO
100
AcDbLine
 62
7
  6
CONTINUOUS
 10
-11.2131073766
 20
-13.204082996
 11
-11.2131073766
 21
-21.765199072
  0
LINE
  5
298
100
AcDbEntity
  8
DRAFT
100
AcDbLine
 62
7
  6
CONTINUOUS
 10
-11.2131073766
 20
4.0845720759
 11
-11.2131073766
 21
13.1732271478
  0
LINE
  5
299
100
AcDbEntity
  8
RACCORDO
100
AcDbLine
 62
7
  6
CONTINUOUS
 10
-11.2131073766
 20
13.1732271478
 11
-11.2131073766
 21
21.7343432238
  0
LINE
  5
29A
100
AcDbEntity
  8
RACCORDO
100
AcDbLine
 62
7
  6
CONTINUOUS
 10
-11.1729607272
 20
-0.3241319466
 11
-11.1729607272
 21
-4.1154279241
  0
LINE
  5
29B
100
AcDbEntity
  8
RACCORDO
100
AcDbLine
 62
7
  6
CONTINUOUS
 10
-11.1729607272
 20
0.2932760984
 11
-11.1729607272
 21
4.0845720759
  0
LINE
  5
29C
100
AcDbEntity
  8
0
100
AcDbLine
 62
253
  6
CONTINUOUS
 10
-10.9693096855
 20
13.152984479
 11
-10.9693096855
 21
9.0161596728
  0
LINE
  5
29D
100
AcDbEntity
  8
0
100
AcDbLine
 62
253
  6
CONTINUOUS
 10
-10.9693096855
 20
-13.1838403272
 11
-10.9693096855
 21
-9.047015521
  0
LINE
  5
29E
100
AcDbEntity
  8
0
100
AcDbLine
 62
253
  6
CONTINUOUS
 10
-10.2731443587
 20
13.1475142158
 11
-10.2731443587
 21
9.021629936
  0
LINE
  5
29F
100
AcDbEntity
  8
0
100
AcDbLine
 62
253
  6
CONTINUOUS
 10
-10.2731443587
 20
-13.178370064
 11
-10.2731443587
 21
-9.0524857842
  0
LINE
  5
2A0
100
AcDbEntity
  8
DRAFT
100
AcDbLine
 62
7
  6
CONTINUOUS
 10
-10.0631073766
 20
13.1732271483
 11
-10.0631073766
 21
13.1614458763
  0
LINE
  5
2A1
100
AcDbEntity
  8
DRAFT
100
AcDbLine
 62
7
  6
CONTINUOUS
 10
-10.0631073766
 20
-9.0524857842
 11
-10.0631073766
 21
-13.178370064
  0
LINE
  5
2A2
100
AcDbEntity
  8
RACCORDO
100
AcDbLine
 62
7
  6
CONTINUOUS
 10
-10.0631073766
 20
-13.204082996
 11
-10.0631073766
 21
-20.6353261421
  0
LINE
  5
2A3
100
AcDbEntity
  8
DRAFT
100
AcDbLine
 62
7
  6
CONTINUOUS
 10
-10.0631073766
 20
-13.204082996
 11
-10.0631073766
 21
-13.1923017245
  0
LINE
  5
2A4
100
AcDbEntity
  8
DRAFT
100
AcDbLine
 62
7
  6
CONTINUOUS
 10
-10.0631073766
 20
-9.0385541237
 11
-10.0631073766
 21
-4.1154279241
  0
LINE
  5
2A5
100
AcDbEntity
  8
DRAFT
100
AcDbLine
 62
7
  6
CONTINUOUS
 10
-10.0631073766
 20
4.0845720759
 11
-10.0631073766
 21
9.0076982755
  0
LINE
  5
2A6
100
AcDbEntity
  8
DRAFT
100
AcDbLine
 62
7
  6
CONTINUOUS
 10
-10.0631073766
 20
9.021629936
 11
-10.0631073766
 21
13.1475142158
  0
LINE
  5
2A7
100
AcDbEntity
  8
RACCORDO
100
AcDbLine
 62
7
  6
CONTINUOUS
 10
-10.0631073766
 20
13.1732271478
 11
-10.0631073766
 21
20.6044702939
  0
LINE
  5
2A8
100
AcDbEntity
  8
RACCORDO
100
AcDbLine
 62
7
  6
CONTINUOUS
 10
-10.0229607272
 20
-1.5328525281
 11
-10.0229607272
 21
-4.1154279241
  0
LINE
  5
2A9
100
AcDbEntity
  8
RACCORDO
100
AcDbLine
 62
7
  6
CONTINUOUS
 10
-10.0229607272
 20
1.5019966799
 11
-10.0229607272
 21
4.0845720759
  0
LINE
  5
2AA
100
AcDbEntity
  8
RACCORDO
100
AcDbLine
 62
253
  6
CONTINUOUS
 10
-9.9481000869
 20
4.0311864465
 11
-9.9478578445
 21
1.5770995626
  0
LINE
  5
2AB
100
AcDbEntity
  8
RACCORDO
100
AcDbLine
 62
253
  6
CONTINUOUS
 10
-9.9478578445
 20
-1.6079554107
 11
-9.9481000869
 21
-4.0620422947
  0
LINE
  5
2AC
100
AcDbEntity
  8
RACCORDO
100
AcDbLine
 62
253
  6
CONTINUOUS
 10
-9.9481000869
 20
-4.0620422947
 11
-9.9485531621
 21
-6.5160084252
  0
LINE
  5
2AD
100
AcDbEntity
  8
RACCORDO
100
AcDbLine
 62
253
  6
CONTINUOUS
 10
-9.9485531621
 20
-6.5160084252
 11
-9.9492170651
 21
-8.9698320333
  0
LWPOLYLINE
  5
2AE
100
AcDbEntity
  8
RACCORDO
100
AcDbPolyline
 62
253
  6
CONTINUOUS
 90
3
 70
0
 10
-9.9520378429
 20
-13.2596135334
 10
-9.9524579502
 20
-13.6367483133
 10
-9.9529061127
 20
-14.0137633596
  0
LINE
  5
2AF
100
AcDbEntity
  8
RACCORDO
100
AcDbLine
 62
253
  6
CONTINUOUS
 10
-9.9529061127
 20
-14.0137633596
 11
-9.9538866129
 21
-14.767441073
  0
LINE
  5
2B0
100
AcDbEntity
  8
RACCORDO
100
AcDbLine
 62
253
  6
CONTINUOUS
 10
-9.9538866129
 20
-14.767441073
 11
-9.9549793145
 21
-15.5206262079
  0
LWPOLYLINE
  5
2B1
100
AcDbEntity
  8
RACCORDO
100
AcDbPolyline
 62
253
  6
CONTINUOUS
 90
3
 70
0
 10
-9.9549793145
 20
-15.5206262079
 10
-9.9561841246
 20
-16.2732505454
 10
-9.9568285357
 20
-16.64933195
  0
LINE
  5
2B2
100
AcDbEntity
  8
RACCORDO
100
AcDbLine
 62
253
  6
CONTINUOUS
 10
-9.9568285357
 20
-16.64933195
 11
-9.9582013404
 21
-17.4010130409
  0
LINE
  5
2B3
100
AcDbEntity
  8
RACCORDO
100
AcDbLine
 62
253
  6
CONTINUOUS
 10
-9.9582013404
 20
-17.4010130409
 11
-9.9596860017
 21
-18.1519888319
  0
LINE
  5
2B4
100
AcDbEntity
  8
RACCORDO
100
AcDbLine
 62
253
  6
CONTINUOUS
 10
-9.9596860017
 20
-18.1519888319
 11
-9.9612824367
 21
-18.9022175898
  0
LWPOLYLINE
  5
2B5
100
AcDbEntity
  8
RACCORDO
100
AcDbPolyline
 62
253
  6
CONTINUOUS
 90
3
 70
0
 10
-9.9612824367
 20
-18.9022175898
 10
-9.9629904831
 20
-19.6516228536
 10
-9.9638863715
 20
-20.0260218889
  0
LWPOLYLINE
  5
2B6
100
AcDbEntity
  8
RACCORDO
100
AcDbPolyline
 62
7
  6
CONTINUOUS
 90
52
 70
0
 10
-10.0406618008
 20
20.5352291922
 10
-10.0405579288
 20
20.5413548562
 10
-10.0402652493
 20
20.5474753602
 10
-10.0397839793
 20
20.5535849091
 10
-10.0391145082
 20
20.5596777249
 10
-10.0382574144
 20
20.5657480229
 10
-10.0372134709
 20
20.5717900175
 10
-10.0359836116
 20
20.5777979781
 10
-10.0345689469
 20
20.5837662025
 10
-10.0329707899
 20
20.5896889942
 10
-10.0311906061
 20
20.5955607296
 10
-10.0292300338
 20
20.6013758301
 10
-10.0270909162
 20
20.6071287386
 10
-10.0247752382
 20
20.6128139887
 10
-10.0222851529
 20
20.6184261742
 10
-10.0196230185
 20
20.6239599269
 10
-10.0167913228
 20
20.6294099853
 10
-10.0137927154
 20
20.634771164
 10
-10.0106300496
 20
20.6400383316
 10
-10.0073062951
 20
20.6452064784
 10
-10.0038245751
 20
20.6502706859
 10
-10.0001882141
 20
20.6552261045
 10
-9.9964006378
 20
20.6600680211
 10
-9.9924654164
 20
20.6647918276
 10
-9.9883863164
 20
20.669393
 10
-9.9841671902
 20
20.6738671635
 10
-9.9798120234
 20
20.6782100614
 10
-9.9753249919
 20
20.682417536
 10
-9.9707103408
 20
20.6864855897
 10
-9.9659724362
 20
20.6904103552
 10
-9.9611158267
 20
20.6941880782
 10
-9.9561451125
 20
20.6978151739
 10
-9.9510650019
 20
20.7012881985
 10
-9.9458803756
 20
20.7046038349
 10
-9.9405961486
 20
20.7077589427
 10
-9.9352173295
 20
20.7107505322
 10
-9.9297490877
 20
20.7135757531
 10
-9.9241966094
 20
20.7162319369
 10
-9.9185651592
 20
20.7187165746
 10
-9.9128601484
 20
20.7210273076
 10
-9.9070869884
 20
20.7231619629
 10
-9.9012511531
 20
20.7251185338
 10
-9.8953582475
 20
20.726895174
 10
-9.8894138603
 20
20.7284902248
 10
-9.883423626
 20
20.7299021987
 10
-9.8773932928
 20
20.7311297776
 10
-9.8713329272
 20
20.7321711549
 10
-9.8652439619
 20
20.7330263189
 10
-9.8591190742
 20
20.7336957144
 10
-9.8529595784
 20
20.7341778062
 10
-9.8467756074
 20
20.7344704146
 10
-9.8405730322
 20
20.7345720759
  0
LWPOLYLINE
  5
2B7
100
AcDbEntity
  8
RACCORDO
100
AcDbPolyline
 62
253
  6
CONTINUOUS
 90
46
 70
0
 10
-9.9478578443
 20
-1.6079554109
 10
-9.9477341262
 20
-1.6009829224
 10
-9.9473672836
 20
-1.5940176887
 10
-9.9467576346
 20
-1.5870681902
 10
-9.9459057412
 20
-1.5801425247
 10
-9.9448125392
 20
-1.5732495138
 10
-9.943479467
 20
-1.5663986717
 10
-9.9419082194
 20
-1.5595986729
 10
-9.9401006407
 20
-1.5528574689
 10
-9.9380589557
 20
-1.5461833769
 10
-9.9357856676
 20
-1.5395845697
 10
-9.9332835327
 20
-1.5330690389
 10
-9.9305555862
 20
-1.5266446915
 10
-9.9276051388
 20
-1.5203193337
 10
-9.9244357895
 20
-1.5141006908
 10
-9.9210514128
 20
-1.5079963672
 10
-9.9174561405
 20
-1.5020138117
 10
-9.9136543442
 20
-1.4961602956
 10
-9.9096506448
 20
-1.490442934
 10
-9.9054499128
 20
-1.4848686844
 10
-9.9010572683
 20
-1.4794443436
 10
-9.8964780661
 20
-1.4741765251
 10
-9.8917178857
 20
-1.4690716474
 10
-9.8867825226
 20
-1.4641359258
 10
-9.8816779866
 20
-1.4593753709
 10
-9.8764104937
 20
-1.4547957804
 10
-9.8709864603
 20
-1.4504027334
 10
-9.8654124939
 20
-1.4462015817
 10
-9.8596953837
 20
-1.4421974428
 10
-9.8538420927
 20
-1.4383951934
 10
-9.84785975
 20
-1.434799465
 10
-9.8417556419
 20
-1.4314146372
 10
-9.8355372032
 20
-1.4282448328
 10
-9.8292120081
 20
-1.425293913
 10
-9.8227877609
 20
-1.4225654723
 10
-9.8162722859
 20
-1.4200628337
 10
-9.8096735192
 20
-1.4177890458
 10
-9.802999498
 20
-1.4157468781
 10
-9.7962583512
 20
-1.4139388179
 10
-9.78945829
 20
-1.4123670678
 10
-9.7826075961
 20
-1.411033542
 10
-9.7757146143
 20
-1.4099398648
 10
-9.7687877427
 20
-1.4090873688
 10
-9.761835419
 20
-1.4084770919
 10
-9.7548661104
 20
-1.4081097773
 10
-9.7478883053
 20
-1.4079858719
  0
LWPOLYLINE
  5
2B8
100
AcDbEntity
  8
RACCORDO
100
AcDbPolyline
 62
253
  6
CONTINUOUS
 90
46
 70
0
 10
-9.9638863722
 20
19.9951660459
 10
-9.9637503041
 20
20.0020780712
 10
-9.9633717718
 20
20.0089832592
 10
-9.9627510717
 20
20.0158732234
 10
-9.961888729
 20
20.0227400453
 10
-9.9607856628
 20
20.0295749025
 10
-9.9594433459
 20
20.0363681047
 10
-9.957863496
 20
20.0431109868
 10
-9.9560479423
 20
20.049795765
 10
-9.9539989162
 20
20.0564141862
 10
-9.9517189236
 20
20.0629581563
 10
-9.9492107173
 20
20.0694197748
 10
-9.9464773301
 20
20.0757912164
 10
-9.9435220635
 20
20.0820647662
 10
-9.9403485157
 20
20.0882327675
 10
-9.9369605727
 20
20.0942876625
 10
-9.9333623698
 20
20.100222067
 10
-9.9295582655
 20
20.1060287982
 10
-9.9255528684
 20
20.1117008214
 10
-9.9213510361
 20
20.117231254
 10
-9.9169578814
 20
20.1226133632
 10
-9.9123787516
 20
20.1278405968
 10
-9.9076192161
 20
20.132906598
 10
-9.9026850546
 20
20.1378052158
 10
-9.8975822596
 20
20.1425305006
 10
-9.8923170301
 20
20.1470767115
 10
-9.8868957659
 20
20.1514383221
 10
-9.8813250566
 20
20.1556100303
 10
-9.8756116727
 20
20.1595867662
 10
-9.8697625561
 20
20.1633636978
 10
-9.8637848147
 20
20.1669362352
 10
-9.8576857123
 20
20.1703000373
 10
-9.8514726608
 20
20.173451016
 10
-9.8451532107
 20
20.1763853421
 10
-9.8387350411
 20
20.1790994497
 10
-9.8322259516
 20
20.1815900406
 10
-9.825633853
 20
20.1838540879
 10
-9.8189667559
 20
20.1858888403
 10
-9.8122327623
 20
20.1876918252
 10
-9.8054400564
 20
20.1892608515
 10
-9.7985968936
 20
20.1905940125
 10
-9.7917115889
 20
20.1916896885
 10
-9.7847925082
 20
20.1925465482
 10
-9.7778480591
 20
20.1931635506
 10
-9.7708866809
 20
20.1935399457
 10
-9.7639168332
 20
20.1936752762
  0
LINE
  5
2B9
100
AcDbEntity
  8
0
100
AcDbLine
 62
7
  6
CONTINUOUS
 10
-2.0464406304
 20
15.6601039878
 11
-1.9797742181
 21
15.762231659
  0
LINE
  5
2BA
100
AcDbEntity
  8
0
100
AcDbLine
 62
7
  6
CONTINUOUS
 10
-2.0797742181
 20
15.8984018674
 11
-2.1797742181
 21
15.762231659
  0
LINE
  5
2BB
100
AcDbEntity
  8
0
100
AcDbLine
 62
7
  6
CONTINUOUS
 10
-2.7131074242
 20
14.4345720759
 11
-2.5131074242
 21
14.6728699198
  0
LINE
  5
2BC
100
AcDbEntity
  8
0
100
AcDbLine
 62
7
  6
CONTINUOUS
 10
10.9868926234
 20
-9.0267728522
 11
10.7430949324
 21
-9.047015521
  0
LINE
  5
2BD
100
AcDbEntity
  8
0
100
AcDbLine
 62
7
  6
CONTINUOUS
 10
-10.9693096855
 20
-9.047015521
 11
-11.2131073766
 21
-9.0267728522
  0
LINE
  5
2BE
100
AcDbEntity
  8
RACCORDO
100
AcDbLine
 62
253
  6
CONTINUOUS
 10
-9.7639168037
 20
20.0227520368
 11
-9.760495747
 21
18.5182030139
  0
LINE
  5
2BF
100
AcDbEntity
  8
RACCORDO
100
AcDbLine
 62
253
  6
CONTINUOUS
 10
-9.760495747
 20
18.5182030139
 11
-9.757522851
 21
17.0105173594
  0
LINE
  5
2C0
100
AcDbEntity
  8
RACCORDO
100
AcDbLine
 62
253
  6
CONTINUOUS
 10
-9.757522851
 20
17.0105173594
 11
-9.7555878529
 21
15.8779598967
  0
LINE
  5
2C1
100
AcDbEntity
  8
RACCORDO
100
AcDbLine
 62
253
  6
CONTINUOUS
 10
-9.7555878529
 20
15.8779598967
 11
-9.7534013487
 21
14.3658465058
  0
LINE
  5
2C2
100
AcDbEntity
  8
RACCORDO
100
AcDbLine
 62
253
  6
CONTINUOUS
 10
-9.7534013487
 20
14.3658465058
 11
-9.7520569348
 21
13.2304749845
  0
LWPOLYLINE
  5
2C3
100
AcDbEntity
  8
RACCORDO
100
AcDbPolyline
 62
253
  6
CONTINUOUS
 90
3
 70
0
 10
-9.7492458633
 20
8.9372607224
 10
-9.7490014564
 20
8.1195990472
 10
-9.7481302973
 20
4.0310396596
  0
LINE
  5
2C4
100
AcDbEntity
  8
RACCORDO
100
AcDbLine
 62
253
  6
CONTINUOUS
 10
-9.7639168332
 20
20.1936752762
 11
-9.7639168332
 21
20.0227520368
  0
LINE
  5
2C5
100
AcDbEntity
  8
RACCORDO
100
AcDbLine
 62
253
  6
CONTINUOUS
 10
-9.7639168332
 20
-20.053607885
 11
-9.7639168332
 21
-20.2245311244
  0
LINE
  5
2C6
100
AcDbEntity
  8
RACCORDO
100
AcDbLine
 62
253
  6
CONTINUOUS
 10
-9.7481302973
 20
4.0310396596
 11
-9.7478883053
 21
1.3771300237
  0
LINE
  5
2C7
100
AcDbEntity
  8
DRAFT
100
AcDbLine
 62
7
  6
CONTINUOUS
 10
-9.4631073766
 20
-13.1892786488
 11
-9.4631073766
 21
-9.0415771994
  0
LINE
  5
2C8
100
AcDbEntity
  8
DRAFT
100
AcDbLine
 62
7
  6
CONTINUOUS
 10
-9.4631073766
 20
9.0107213512
 11
-9.4631073766
 21
13.1584228006
  0
LINE
  5
2C9
100
AcDbEntity
  8
DRAFT
100
AcDbLine
 62
7
  6
CONTINUOUS
 10
-8.9064830495
 20
22.2345720759
 11
-8.9064830495
 21
20.8045720759
  0
LINE
  5
2CA
100
AcDbEntity
  8
DRAFT
100
AcDbLine
 62
7
  6
CONTINUOUS
 10
-8.9064830495
 20
-22.2654279241
 11
-8.9064830495
 21
-20.8354279241
  0
LINE
  5
2CB
100
AcDbEntity
  8
DRAFT
100
AcDbLine
 62
7
  6
CONTINUOUS
 10
-8.2880847036
 20
1.3020271408
 11
-8.2880847036
 21
0.0932989437
  0
LINE
  5
2CC
100
AcDbEntity
  8
DRAFT
100
AcDbLine
 62
7
  6
CONTINUOUS
 10
-8.2880847036
 20
-0.1241547919
 11
-8.2880847036
 21
-1.332882989
  0
LINE
  5
2CD
100
AcDbEntity
  8
RACCORDO
100
AcDbLine
 62
253
  6
CONTINUOUS
 10
-9.7478883053
 20
-1.4079858719
 11
-9.7481302973
 21
-4.0618955078
  0
LINE
  5
2CE
100
AcDbEntity
  8
RACCORDO
100
AcDbLine
 62
253
  6
CONTINUOUS
 10
-9.7481302973
 20
-4.0618955078
 11
-9.7485828177
 21
-6.5150747485
  0
LINE
  5
2CF
100
AcDbEntity
  8
RACCORDO
100
AcDbLine
 62
253
  6
CONTINUOUS
 10
-9.7485828177
 20
-6.5150747485
 11
-9.7492458633
 21
-8.9681165705
  0
LWPOLYLINE
  5
2D0
100
AcDbEntity
  8
RACCORDO
100
AcDbPolyline
 62
253
  6
CONTINUOUS
 90
3
 70
0
 10
-9.7520569348
 20
-13.2613308327
 10
-9.7524769299
 20
-13.6398967276
 10
-9.7529250679
 20
-14.0183562035
  0
LINE
  5
2D1
100
AcDbEntity
  8
RACCORDO
100
AcDbLine
 62
253
  6
CONTINUOUS
 10
-9.7529250679
 20
-14.0183562035
 11
-9.7539057819
 21
-14.7749282612
  0
LINE
  5
2D2
100
AcDbEntity
  8
RACCORDO
100
AcDbLine
 62
253
  6
CONTINUOUS
 10
-9.7539057819
 20
-14.7749282612
 11
-9.7549990477
 21
-15.5309918237
  0
LWPOLYLINE
  5
2D3
100
AcDbEntity
  8
RACCORDO
100
AcDbPolyline
 62
253
  6
CONTINUOUS
 90
3
 70
0
 10
-9.7549990477
 20
-15.5309918237
 10
-9.7562047717
 20
-16.2864918852
 10
-9.7568497706
 20
-16.6640133321
  0
LINE
  5
2D4
100
AcDbEntity
  8
RACCORDO
100
AcDbLine
 62
253
  6
CONTINUOUS
 10
-9.7568497706
 20
-16.6640133321
 11
-9.7582240115
 21
-17.4185646144
  0
LINE
  5
2D5
100
AcDbEntity
  8
RACCORDO
100
AcDbLine
 62
253
  6
CONTINUOUS
 10
-9.7582240115
 20
-17.4185646144
 11
-9.7597104595
 21
-18.1724143198
  0
LWPOLYLINE
  5
2D6
100
AcDbEntity
  8
RACCORDO
100
AcDbPolyline
 62
253
  6
CONTINUOUS
 90
3
 70
0
 10
-9.7597104595
 20
-18.1724143198
 10
-9.7613090298
 20
-18.9255073584
 10
-9.7621502925
 20
-19.3017529357
  0
LINE
  5
2D7
100
AcDbEntity
  8
RACCORDO
100
AcDbLine
 62
253
  6
CONTINUOUS
 10
-9.7621502925
 20
-19.3017529357
 11
-9.7639168037
 21
-20.053607885
  0
LINE
  5
2D8
100
AcDbEntity
  8
0
100
AcDbLine
 62
7
  6
CONTINUOUS
 10
-5.7687723766
 20
6.4602590759
 11
-6.1273443766
 21
5.8595720759
  0
LINE
  5
2D9
100
AcDbEntity
  8
0
100
AcDbLine
 62
7
  6
CONTINUOUS
 10
-5.8539923766
 20
6.6064380759
 11
-6.3258883766
 21
5.8595720759
  0
LINE
  5
2DA
100
AcDbEntity
  8
0
100
AcDbLine
 62
7
  6
CONTINUOUS
 10
1.2202258773
 20
14.4345720759
 11
2.020225925
 21
15.3537209979
  0
LINE
  5
2DB
100
AcDbEntity
  8
0
100
AcDbLine
 62
7
  6
CONTINUOUS
 10
1.7868925758
 20
15.3537209979
 11
1.2202258773
 21
14.706912469
  0
LINE
  5
2DC
100
AcDbEntity
  8
RACCORDO
100
AcDbLine
 62
253
  6
CONTINUOUS
 10
-9.9478578445
 20
1.5770995626
 11
-10.0229607272
 21
1.5019966799
  0
LWPOLYLINE
  5
2DD
100
AcDbEntity
  8
RACCORDO
100
AcDbPolyline
 62
7
  6
CONTINUOUS
 90
8
 70
0
 10
-9.9425723117
 20
-8.9694152344
 10
-9.9442287026
 20
-8.9694738384
 10
-9.9456507753
 20
-8.96953295
 10
-9.946840422
 20
-8.9695925461
 10
-9.9477923987
 20
-8.9696522866
 10
-9.9485049575
 20
-8.9697120579
 10
-9.9489798463
 20
-8.9697719735
 10
-9.9492170651
 20
-8.9698320333
  0
LINE
  5
2DE
100
AcDbEntity
  8
RACCORDO
100
AcDbLine
 62
7
  6
CONTINUOUS
 10
-9.9385731713
 20
-8.9692997516
 11
-9.9425723117
 21
-8.9694152344
  0
LINE
  5
2DF
100
AcDbEntity
  8
RACCORDO
100
AcDbLine
 62
7
  6
CONTINUOUS
 10
-9.9336937888
 20
-8.9691874465
 11
-9.9385731713
 21
-8.9692997516
  0
LINE
  5
2E0
100
AcDbEntity
  8
RACCORDO
100
AcDbLine
 62
7
  6
CONTINUOUS
 10
-9.9247219045
 20
-8.9690248
 11
-9.9336937888
 21
-8.9691874465
  0
LINE
  5
2E1
100
AcDbEntity
  8
RACCORDO
100
AcDbLine
 62
7
  6
CONTINUOUS
 10
-9.9055723598
 20
-8.9687734963
 11
-9.9247219045
 21
-8.9690248
  0
LINE
  5
2E2
100
AcDbEntity
  8
DRAFT
100
AcDbLine
 62
7
  6
CONTINUOUS
 10
-9.4631073766
 20
-9.0472496635
 11
-10.0631073766
 21
-9.0524857842
  0
LINE
  5
2E3
100
AcDbEntity
  8
RACCORDO
100
AcDbLine
 62
7
  6
CONTINUOUS
 10
-9.8656675428
 20
-8.968442863
 11
-9.9055723598
 21
-8.9687734963
  0
LINE
  5
2E4
100
AcDbEntity
  8
DRAFT
100
AcDbLine
 62
7
  6
CONTINUOUS
 10
9.2368926234
 20
-9.0415771994
 11
9.8368926234
 21
-9.0385541237
  0
LINE
  5
2E5
100
AcDbEntity
  8
RACCORDO
100
AcDbLine
 62
7
  6
CONTINUOUS
 10
-9.7835518939
 20
-8.968142459
 11
-9.8656675428
 21
-8.968442863
  0
LINE
  5
2E6
100
AcDbEntity
  8
RACCORDO
100
AcDbLine
 62
7
  6
CONTINUOUS
 10
-9.7492458633
 20
-8.9681165705
 11
-9.7835518939
 21
-8.968142459
  0
LINE
  5
2E7
100
AcDbEntity
  8
DRAFT
100
AcDbLine
 62
253
  6
CONTINUOUS
 10
9.2368926234
 20
-9.5791926153
 11
-9.4631073766
 21
-9.5791926153
  0
LINE
  5
2E8
100
AcDbEntity
  8
0
100
AcDbLine
 62
7
  6
CONTINUOUS
 10
10.0469296056
 20
-9.0524857842
 11
9.8368926234
 21
-9.0524857842
  0
LINE
  5
2E9
100
AcDbEntity
  8
0
100
AcDbLine
 62
7
  6
CONTINUOUS
 10
-10.0631073766
 20
-9.0524857842
 11
-10.2731443587
 21
-9.0524857842
  0
LINE
  5
2EA
100
AcDbEntity
  8
DRAFT
100
AcDbLine
 62
7
  6
CONTINUOUS
 10
-11.2131073766
 20
-9.0267728522
 11
-10.0631073766
 21
-9.0267728522
  0
LINE
  5
2EB
100
AcDbEntity
  8
DRAFT
100
AcDbLine
 62
7
  6
CONTINUOUS
 10
9.8368926234
 20
-9.0267728522
 11
10.9868926234
 21
-9.0267728522
  0
LINE
  5
2EC
100
AcDbEntity
  8
RACCORDO
100
AcDbLine
 62
7
  6
CONTINUOUS
 10
9.6158907594
 20
-8.9683161679
 11
9.5230311101
 21
-8.9681165705
  0
LINE
  5
2ED
100
AcDbEntity
  8
DRAFT
100
AcDbLine
 62
7
  6
CONTINUOUS
 10
-10.0631073766
 20
-9.0385541237
 11
-9.4631073766
 21
-9.0415771994
  0
LINE
  5
2EE
100
AcDbEntity
  8
RACCORDO
100
AcDbLine
 62
7
  6
CONTINUOUS
 10
9.665634226
 20
-8.9686383232
 11
9.6158907594
 21
-8.9683161679
  0
LINE
  5
2EF
100
AcDbEntity
  8
DRAFT
100
AcDbLine
 62
7
  6
CONTINUOUS
 10
9.8368926234
 20
-9.0524857842
 11
9.2368926234
 21
-9.0472496635
  0
LINE
  5
2F0
100
AcDbEntity
  8
RACCORDO
100
AcDbLine
 62
7
  6
CONTINUOUS
 10
9.6914534287
 20
-8.9689209268
 11
9.665634226
 21
-8.9686383232
  0
LINE
  5
2F1
100
AcDbEntity
  8
RACCORDO
100
AcDbLine
 62
7
  6
CONTINUOUS
 10
9.7047093302
 20
-8.9691324701
 11
9.6914534287
 21
-8.9689209268
  0
LINE
  5
2F2
100
AcDbEntity
  8
RACCORDO
100
AcDbLine
 62
7
  6
CONTINUOUS
 10
9.7100294801
 20
-8.969243221
 11
9.7047093302
 21
-8.9691324701
  0
LINE
  5
2F3
100
AcDbEntity
  8
RACCORDO
100
AcDbLine
 62
253
  6
CONTINUOUS
 10
-10.0229607272
 20
-1.5328525281
 11
-9.9478578445
 21
-1.6079554107
  0
LINE
  5
2F4
100
AcDbEntity
  8
0
100
AcDbLine
 62
7
  6
CONTINUOUS
 10
0.8868926711
 20
-15.7930875072
 11
0.9868926711
 21
-15.9292577156
  0
LINE
  5
2F5
100
AcDbEntity
  8
0
100
AcDbLine
 62
7
  6
CONTINUOUS
 10
-2.9153833766
 20
-18.8477289241
 11
-3.4542733766
 21
-17.1478659241
  0
LINE
  5
2F6
100
AcDbEntity
  8
DRAFT
100
AcDbLine
 62
7
  6
CONTINUOUS
 10
-8.1131073766
 20
-0.1416085275
 11
-8.1131073766
 21
-1.3677931189
  0
LINE
  5
2F7
100
AcDbEntity
  8
DRAFT
100
AcDbLine
 62
7
  6
CONTINUOUS
 10
-8.1131073766
 20
0.1107526793
 11
-8.1131073766
 21
1.3369372707
  0
LINE
  5
2F8
100
AcDbEntity
  8
RACCORDO
100
AcDbLine
 62
253
  6
CONTINUOUS
 10
-7.5208424035
 20
-22.1396492538
 11
-7.5208424035
 21
-20.6303649071
  0
LINE
  5
2F9
100
AcDbEntity
  8
RACCORDO
100
AcDbLine
 62
253
  6
CONTINUOUS
 10
-7.5208424035
 20
20.5995090589
 11
-7.5208424035
 21
22.1087934056
  0
LINE
  5
2FA
100
AcDbEntity
  8
RACCORDO
100
AcDbLine
 62
253
  6
CONTINUOUS
 10
-7.3476373227
 20
-22.1344084759
 11
-7.3476373227
 21
-20.618086451
  0
LINE
  5
2FB
100
AcDbEntity
  8
RACCORDO
100
AcDbLine
 62
253
  6
CONTINUOUS
 10
-7.3476373227
 20
20.5872306028
 11
-7.3476373227
 21
22.1035526277
  0
LINE
  5
2FC
100
AcDbEntity
  8
RACCORDO
100
AcDbLine
 62
253
  6
CONTINUOUS
 10
-9.9638863715
 20
-20.0260218889
 11
-10.0406618008
 21
-20.5660850404
  0
LINE
  5
2FD
100
AcDbEntity
  8
RACCORDO
100
AcDbLine
 62
253
  6
CONTINUOUS
 10
-9.7639168332
 20
-20.2245311244
 11
-9.840810774
 21
-20.7654279241
  0
LINE
  5
2FE
100
AcDbEntity
  8
0
100
AcDbLine
 62
7
  6
CONTINUOUS
 10
-2.0797742181
 20
15.5579763404
 11
-2.0464406304
 21
15.6601039878
  0
LINE
  5
2FF
100
AcDbEntity
  8
0
100
AcDbLine
 62
7
  6
CONTINUOUS
 10
-2.1797742181
 20
15.762231659
 11
-2.2464406304
 21
15.5920188895
  0
LINE
  5
300
100
AcDbEntity
  8
0
100
AcDbLine
 62
7
  6
CONTINUOUS
 10
-0.1131074242
 20
16.0345720759
 11
-0.7797742181
 21
14.6047848216
  0
LINE
  5
301
100
AcDbEntity
  8
0
100
AcDbLine
 62
7
  6
CONTINUOUS
 10
-0.5797742181
 20
14.6047848216
 11
0.0868925758
 21
16.0345720759
  0
LINE
  5
302
100
AcDbEntity
  8
0
100
AcDbLine
 62
7
  6
CONTINUOUS
 10
2.6868925758
 20
14.9452104083
 11
2.4868925758
 21
14.706912469
  0
LINE
  5
303
100
AcDbEntity
  8
0
100
AcDbLine
 62
7
  6
CONTINUOUS
 10
2.4868925758
 20
14.4345720759
 11
2.6868925758
 21
14.6728699198
  0
LINE
  5
304
100
AcDbEntity
  8
RACCORDO
100
AcDbLine
 62
253
  6
CONTINUOUS
 10
-9.7478883053
 20
1.3771300237
 11
-9.8229911882
 21
1.3020271408
  0
LWPOLYLINE
  5
305
100
AcDbEntity
  8
0
100
AcDbPolyline
 62
7
  6
CONTINUOUS
 90
61
 70
0
 10
-3.1981605204
 20
-6.9959679241
 10
-3.1868424092
 20
-6.9955086752
 10
-3.1756200326
 20
-6.9947200617
 10
-3.1644933905
 20
-6.9936020837
 10
-3.1534517119
 20
-6.9921498355
 10
-3.142505768
 20
-6.9903682227
 10
-3.1316878712
 20
-6.9882719621
 10
-3.1209984406
 20
-6.9858609248
 10
-3.1104370573
 20
-6.9831352396
 10
-3.1000347766
 20
-6.9801100107
 10
-3.089792523
 20
-6.9767846172
 10
-3.079709372
 20
-6.9731596797
 10
-3.0698136055
 20
-6.9692521646
 10
-3.0601091044
 20
-6.9650626042
 10
-3.0505919878
 20
-6.960590466
 10
-3.0412788956
 20
-6.955851118
 10
-3.0321711916
 20
-6.9508418812
 10
-3.0232675119
 20
-6.9455654343
 10
-3.0145804051
 20
-6.9400451827
 10
-3.0061223035
 20
-6.9342930279
 10
-2.9978807747
 20
-6.9282970682
 10
-2.9898310696
 20
-6.9220450031
 10
-2.9819677352
 20
-6.9155408948
 10
-2.9742962246
 20
-6.9087806809
 10
-2.9668081478
 20
-6.9017398751
 10
-2.9594936959
 20
-6.8944074176
 10
-2.9523626779
 20
-6.8867943679
 10
-2.9454361309
 20
-6.8789094186
 10
-2.9387043621
 20
-6.8707316937
 10
-2.9321770643
 20
-6.862282069
 10
-2.9259043528
 20
-6.8536318646
 10
-2.9199073241
 20
-6.8448104269
 10
-2.9141648817
 20
-6.8357884093
 10
-2.9086638521
 20
-6.8265490931
 10
-2.9034089339
 20
-6.8171219359
 10
-2.8983954284
 20
-6.8074774798
 10
-2.8935960659
 20
-6.7975106317
 10
-2.8889967375
 20
-6.787181835
 10
-2.8846115521
 20
-6.7765306458
 10
-2.8804555663
 20
-6.7655706401
 10
-2.8765291017
 20
-6.7542346004
 10
-2.8728318367
 20
-6.7425897435
 10
-2.8693778633
 20
-6.7308512976
 10
-2.8661863537
 20
-6.7190588148
 10
-2.8632381356
 20
-6.7071727428
 10
-2.8604897843
 20
-6.6952896535
 10
-2.8579315888
 20
-6.6834515897
 10
-2.8555732601
 20
-6.6716165088
 10
-2.8534005062
 20
-6.659754854
 10
-2.851406437
 20
-6.6478594679
 10
-2.8495979427
 20
-6.6359375079
 10
-2.8479814014
 20
-6.6239808896
 10
-2.8465556678
 20
-6.6119809011
 10
-2.8453218872
 20
-6.5999462543
 10
-2.8442898735
 20
-6.5878950001
 10
-2.8434602682
 20
-6.5758274847
 10
-2.8428324298
 20
-6.5637433619
 10
-2.8424142478
 20
-6.5516596433
 10
-2.8422083519
 20
-6.5395819994
 10
-2.8422121124
 20
-6.5275047597
 10
-2.8424255293
 20
-6.5154279241
  0
LINE
  5
306
100
AcDbEntity
  8
0
100
AcDbLine
 62
7
  6
CONTINUOUS
 10
-6.3258883766
 20
-7.1404279241
 11
-6.1622463766
 21
-7.1404279241
  0
LINE
  5
307
100
AcDbEntity
  8
0
100
AcDbLine
 62
7
  6
CONTINUOUS
 10
-5.8105453766
 20
-7.1404279241
 11
-5.6434073766
 21
-7.1404279241
  0
LINE
  5
308
100
AcDbEntity
  8
0
100
AcDbLine
 62
7
  6
CONTINUOUS
 10
-5.2917733766
 20
-7.1404279241
 11
-5.1280653766
 21
-7.1404279241
  0
LINE
  5
309
100
AcDbEntity
  8
0
100
AcDbLine
 62
7
  6
CONTINUOUS
 10
-4.9783383766
 20
-7.1404279241
 11
-4.8042583766
 21
-7.1404279241
  0
LINE
  5
30A
100
AcDbEntity
  8
0
100
AcDbLine
 62
7
  6
CONTINUOUS
 10
-4.0486983766
 20
-7.1404279241
 11
-3.8641353766
 21
-7.1404279241
  0
LINE
  5
30B
100
AcDbEntity
  8
0
100
AcDbLine
 62
7
  6
CONTINUOUS
 10
-3.7004973766
 20
-7.1404279241
 11
-3.1884222566
 21
-7.1404279241
  0
LINE
  5
30C
100
AcDbEntity
  8
0
100
AcDbLine
 62
7
  6
CONTINUOUS
 10
-2.4347783766
 20
-7.1404279241
 11
-1.5120123766
 21
-7.1404279241
  0
LINE
  5
30D
100
AcDbEntity
  8
0
100
AcDbLine
 62
7
  6
CONTINUOUS
 10
-0.7807743766
 20
-7.1404279241
 11
-0.6119113766
 21
-7.1404279241
  0
LINE
  5
30E
100
AcDbEntity
  8
0
100
AcDbLine
 62
7
  6
CONTINUOUS
 10
-0.3229503766
 20
-7.1404279241
 11
-0.1592323766
 21
-7.1404279241
  0
LINE
  5
30F
100
AcDbEntity
  8
0
100
AcDbLine
 62
7
  6
CONTINUOUS
 10
0.4797186234
 20
-7.1404279241
 11
0.6694776234
 21
-7.1404279241
  0
LINE
  5
310
100
AcDbEntity
  8
0
100
AcDbLine
 62
7
  6
CONTINUOUS
 10
1.4441846234
 20
-7.1404279241
 11
1.6130986234
 21
-7.1404279241
  0
LINE
  5
311
100
AcDbEntity
  8
0
100
AcDbLine
 62
7
  6
CONTINUOUS
 10
2.2172336234
 20
-7.1404279241
 11
2.3860876234
 21
-7.1404279241
  0
LINE
  5
312
100
AcDbEntity
  8
0
100
AcDbLine
 62
7
  6
CONTINUOUS
 10
2.8579026234
 20
-7.1404279241
 11
3.0319726234
 21
-7.1404279241
  0
LINE
  5
313
100
AcDbEntity
  8
0
100
AcDbLine
 62
7
  6
CONTINUOUS
 10
3.7876036234
 20
-7.1404279241
 11
3.9721976234
 21
-7.1404279241
  0
LINE
  5
314
100
AcDbEntity
  8
0
100
AcDbLine
 62
7
  6
CONTINUOUS
 10
4.1270696234
 20
-7.1404279241
 11
4.9297386234
 21
-7.1404279241
  0
LINE
  5
315
100
AcDbEntity
  8
0
100
AcDbLine
 62
7
  6
CONTINUOUS
 10
5.4589546234
 20
-7.1404279241
 11
5.6277776234
 21
-7.1404279241
  0
LINE
  5
316
100
AcDbEntity
  8
0
100
AcDbLine
 62
7
  6
CONTINUOUS
 10
-3.5315733766
 20
-6.9959679241
 11
-3.1981605204
 21
-6.9959679241
  0
LINE
  5
317
100
AcDbEntity
  8
0
100
AcDbLine
 62
7
  6
CONTINUOUS
 10
-2.2658633766
 20
-6.9907109241
 11
-1.5120123766
 21
-6.9907109241
  0
LINE
  5
318
100
AcDbEntity
  8
0
100
AcDbLine
 62
7
  6
CONTINUOUS
 10
4.2959946234
 20
-6.9907109241
 11
4.9297386234
 21
-6.9907109241
  0
LINE
  5
319
100
AcDbEntity
  8
0
100
AcDbLine
 62
7
  6
CONTINUOUS
 10
-4.6736683766
 20
-6.7765989241
 11
-4.1722933766
 21
-6.7765989241
  0
LINE
  5
31A
100
AcDbEntity
  8
0
100
AcDbLine
 62
7
  6
CONTINUOUS
 10
3.1625736234
 20
-6.7765989241
 11
3.6639986234
 21
-6.7765989241
  0
LINE
  5
31B
100
AcDbEntity
  8
0
100
AcDbLine
 62
7
  6
CONTINUOUS
 10
-4.6214233766
 20
-6.6268819241
 11
-4.2331803766
 21
-6.6268819241
  0
LINE
  5
31C
100
AcDbEntity
  8
0
100
AcDbLine
 62
7
  6
CONTINUOUS
 10
3.2148076234
 20
-6.6268819241
 11
3.6030506234
 21
-6.6268819241
  0
LINE
  5
31D
100
AcDbEntity
  8
0
100
AcDbLine
 62
7
  6
CONTINUOUS
 10
-2.2658633766
 20
-6.5728989241
 11
-1.5816643766
 21
-6.5728989241
  0
LINE
  5
31E
100
AcDbEntity
  8
RACCORDO
100
AcDbLine
 62
253
  6
CONTINUOUS
 10
-9.8229911882
 20
-1.332882989
 11
-9.7478883053
 21
-1.4079858719
  0
LINE
  5
31F
100
AcDbEntity
  8
0
100
AcDbLine
 62
7
  6
CONTINUOUS
 10
1.9535594649
 20
-15.3164917478
 11
1.8535594649
 21
-15.1803215513
  0
LINE
  5
320
100
AcDbEntity
  8
0
100
AcDbLine
 62
7
  6
CONTINUOUS
 10
1.7535594649
 20
-15.3164917478
 11
1.8202258773
 21
-15.4186193952
  0
LINE
  5
321
100
AcDbEntity
  8
0
100
AcDbLine
 62
7
  6
CONTINUOUS
 10
-0.5464833766
 20
-18.8477289241
 11
-0.9627393766
 21
-17.7377499241
  0
LINE
  5
322
100
AcDbEntity
  8
0
100
AcDbLine
 62
7
  6
CONTINUOUS
 10
-0.5196633766
 20
-18.0916349241
 11
-0.8707443766
 21
-17.1478659241
  0
LINE
  5
323
100
AcDbEntity
  8
0
100
AcDbLine
 62
7
  6
CONTINUOUS
 10
-5.7252583766
 20
-6.9523259241
 11
-6.0838863766
 21
-5.8904279241
  0
LINE
  5
324
100
AcDbEntity
  8
0
100
AcDbLine
 62
7
  6
CONTINUOUS
 10
-5.8105453766
 20
-7.1404279241
 11
-6.1622463766
 21
-6.0923079241
  0
LINE
  5
325
100
AcDbEntity
  8
0
100
AcDbLine
 62
7
  6
CONTINUOUS
 10
-2.7447953766
 20
-18.3179339241
 11
-3.0688203766
 21
-17.1478659241
  0
LINE
  5
326
100
AcDbEntity
  8
RACCORDO
100
AcDbLine
 62
253
  6
CONTINUOUS
 10
-10.0406618008
 20
20.5352291922
 11
-9.9638863715
 21
19.9951660407
  0
LINE
  5
327
100
AcDbEntity
  8
RACCORDO
100
AcDbLine
 62
253
  6
CONTINUOUS
 10
-9.840810774
 20
20.7345720759
 11
-9.7639168332
 21
20.1936752762
  0
LINE
  5
328
100
AcDbEntity
  8
0
100
AcDbLine
 62
7
  6
CONTINUOUS
 10
-6.3258883766
 20
-7.1404279241
 11
-6.3258883766
 21
-5.8904279241
  0
LINE
  5
329
100
AcDbEntity
  8
0
100
AcDbLine
 62
7
  6
CONTINUOUS
 10
-6.1622463766
 20
-7.1404279241
 11
-6.1622463766
 21
-6.0923079241
  0
LINE
  5
32A
100
AcDbEntity
  8
0
100
AcDbLine
 62
7
  6
CONTINUOUS
 10
-5.8539923766
 20
7.1095720759
 11
-5.8539923766
 21
6.6064380759
  0
LINE
  5
32B
100
AcDbEntity
  8
0
100
AcDbLine
 62
7
  6
CONTINUOUS
 10
-5.6851693766
 20
7.1095720759
 11
-5.6851693766
 21
6.6064380759
  0
LINE
  5
32C
100
AcDbEntity
  8
0
100
AcDbLine
 62
7
  6
CONTINUOUS
 10
-5.2917733766
 20
-7.1404279241
 11
-5.2917733766
 21
-6.0905899241
  0
LINE
  5
32D
100
AcDbEntity
  8
0
100
AcDbLine
 62
7
  6
CONTINUOUS
 10
-5.1559533766
 20
7.1095720759
 11
-5.1559533766
 21
6.9598550759
  0
LINE
  5
32E
100
AcDbEntity
  8
0
100
AcDbLine
 62
7
  6
CONTINUOUS
 10
-5.1280653766
 20
-7.1404279241
 11
-5.1280653766
 21
-5.8904279241
  0
LINE
  5
32F
100
AcDbEntity
  8
0
100
AcDbLine
 62
7
  6
CONTINUOUS
 10
-1.1485913766
 20
18.2149300759
 11
-1.3252653766
 21
17.5840890759
  0
LINE
  5
330
100
AcDbEntity
  8
0
100
AcDbLine
 62
7
  6
CONTINUOUS
 10
-0.9780983766
 20
18.8168730759
 11
-1.0760093766
 21
18.4775200759
  0
LINE
  5
331
100
AcDbEntity
  8
0
100
AcDbLine
 62
7
  6
CONTINUOUS
 10
-0.6271203766
 20
18.8168730759
 11
-1.1603053766
 21
17.1170100759
  0
LINE
  5
332
100
AcDbEntity
  8
0
100
AcDbLine
 62
7
  6
CONTINUOUS
 10
-3.2581873766
 20
7.1095720759
 11
-3.3887883766
 21
6.7457430759
  0
LINE
  5
333
100
AcDbEntity
  8
0
100
AcDbLine
 62
7
  6
CONTINUOUS
 10
-3.4410223766
 20
6.5960260759
 11
-3.6430243766
 21
6.0408830759
  0
LINE
  5
334
100
AcDbEntity
  8
0
100
AcDbLine
 62
7
  6
CONTINUOUS
 10
0.2934486234
 20
18.0607790759
 11
-0.0613793766
 21
17.1170100759
  0
LINE
  5
335
100
AcDbEntity
  8
0
100
AcDbLine
 62
7
  6
CONTINUOUS
 10
-3.0841173766
 20
7.1095720759
 11
-3.5542143766
 21
5.8595720759
  0
LINE
  5
336
100
AcDbEntity
  8
0
100
AcDbLine
 62
7
  6
CONTINUOUS
 10
0.2705046234
 20
18.8168730759
 11
-0.1513863766
 21
17.7115210759
  0
LINE
  5
337
100
AcDbEntity
  8
0
100
AcDbLine
 62
7
  6
CONTINUOUS
 10
-2.2658633766
 20
-6.4231819241
 11
-1.5816643766
 21
-6.4231819241
  0
LINE
  5
338
100
AcDbEntity
  8
0
100
AcDbLine
 62
7
  6
CONTINUOUS
 10
-2.2658633766
 20
-6.0401449241
 11
-1.5242143766
 21
-6.0401449241
  0
LINE
  5
339
100
AcDbEntity
  8
0
100
AcDbLine
 62
7
  6
CONTINUOUS
 10
1.7941646234
 20
-6.0401449241
 11
2.2172336234
 21
-6.0401449241
  0
LINE
  5
33A
100
AcDbEntity
  8
0
100
AcDbLine
 62
7
  6
CONTINUOUS
 10
2.3860876234
 20
-6.0401449241
 11
2.8091566234
 21
-6.0401449241
  0
LINE
  5
33B
100
AcDbEntity
  8
0
100
AcDbLine
 62
7
  6
CONTINUOUS
 10
-3.5315733766
 20
-6.0348879241
 11
-3.1981605204
 21
-6.0348879241
  0
LINE
  5
33C
100
AcDbEntity
  8
0
100
AcDbLine
 62
7
  6
CONTINUOUS
 10
-6.3258883766
 20
-5.8904279241
 11
-6.0838863766
 21
-5.8904279241
  0
LINE
  5
33D
100
AcDbEntity
  8
0
100
AcDbLine
 62
7
  6
CONTINUOUS
 10
-5.3683503766
 20
-5.8904279241
 11
-5.1280653766
 21
-5.8904279241
  0
LINE
  5
33E
100
AcDbEntity
  8
0
100
AcDbLine
 62
7
  6
CONTINUOUS
 10
-4.5083023766
 20
-5.8904279241
 11
-4.3167633766
 21
-5.8904279241
  0
LINE
  5
33F
100
AcDbEntity
  8
0
100
AcDbLine
 62
7
  6
CONTINUOUS
 10
-3.7004973766
 20
-5.8904279241
 11
-3.1885413958
 21
-5.8904279241
  0
LINE
  5
340
100
AcDbEntity
  8
0
100
AcDbLine
 62
7
  6
CONTINUOUS
 10
-2.4347783766
 20
-5.8904279241
 11
-1.5242143766
 21
-5.8904279241
  0
LINE
  5
341
100
AcDbEntity
  8
0
100
AcDbLine
 62
7
  6
CONTINUOUS
 10
-0.7807743766
 20
-5.8904279241
 11
-0.6119113766
 21
-5.8904279241
  0
LINE
  5
342
100
AcDbEntity
  8
0
100
AcDbLine
 62
7
  6
CONTINUOUS
 10
-0.3229503766
 20
-5.8904279241
 11
-0.1226973766
 21
-5.8904279241
  0
LINE
  5
343
100
AcDbEntity
  8
0
100
AcDbLine
 62
7
  6
CONTINUOUS
 10
0.5058406234
 20
-5.8904279241
 11
0.6694776234
 21
-5.8904279241
  0
LINE
  5
344
100
AcDbEntity
  8
0
100
AcDbLine
 62
7
  6
CONTINUOUS
 10
1.4441846234
 20
-5.8904279241
 11
1.6130986234
 21
-5.8904279241
  0
LINE
  5
345
100
AcDbEntity
  8
0
100
AcDbLine
 62
7
  6
CONTINUOUS
 10
1.7941646234
 20
-5.8904279241
 11
2.8091566234
 21
-5.8904279241
  0
LINE
  5
346
100
AcDbEntity
  8
0
100
AcDbLine
 62
7
  6
CONTINUOUS
 10
3.3279996234
 20
-5.8904279241
 11
3.5194776234
 21
-5.8904279241
  0
LINE
  5
347
100
AcDbEntity
  8
0
100
AcDbLine
 62
7
  6
CONTINUOUS
 10
4.1270696234
 20
-5.8904279241
 11
4.2959946234
 21
-5.8904279241
  0
LINE
  5
348
100
AcDbEntity
  8
0
100
AcDbLine
 62
7
  6
CONTINUOUS
 10
4.9871586234
 20
-5.8904279241
 11
5.1838836234
 21
-5.8904279241
  0
LINE
  5
349
100
AcDbEntity
  8
0
100
AcDbLine
 62
7
  6
CONTINUOUS
 10
5.9011296234
 20
-5.8904279241
 11
6.0996736234
 21
-5.8904279241
  0
LWPOLYLINE
  5
34A
100
AcDbEntity
  8
0
100
AcDbPolyline
 62
7
  6
CONTINUOUS
 90
70
 70
0
 10
-3.1885413958
 20
-5.8904279241
 10
-3.1752211505
 20
-5.8906221168
 10
-3.1618216046
 20
-5.8911432152
 10
-3.1483427581
 20
-5.8919912193
 10
-3.1347332536
 20
-5.8931650641
 10
-3.1210444486
 20
-5.8946658145
 10
-3.1074304156
 20
-5.8964966657
 10
-3.093893919
 20
-5.8986698847
 10
-3.0804321945
 20
-5.9011732044
 10
-3.0671910211
 20
-5.9039730184
 10
-3.0542000214
 20
-5.9070710638
 10
-3.0414295728
 20
-5.9104656034
 10
-3.0289365871
 20
-5.9141178192
 10
-3.0167628151
 20
-5.9180112727
 10
-3.0048665059
 20
-5.9221624022
 10
-2.9931793183
 20
-5.9265817049
 10
-2.9817071337
 20
-5.9312542474
 10
-2.9704440707
 20
-5.9361949628
 10
-2.9593041435
 20
-5.9414591478
 10
-2.9482799245
 20
-5.9470345012
 10
-2.9373788414
 20
-5.952933324
 10
-2.9265371915
 20
-5.9592478155
 10
-2.9157345547
 20
-5.9659951008
 10
-2.9049913511
 20
-5.9731580544
 10
-2.8943051385
 20
-5.9807774991
 10
-2.883634695
 20
-5.988910715
 10
-2.8730212425
 20
-5.9975004214
 10
-2.8625860047
 20
-6.0064156008
 10
-2.8523413587
 20
-6.0156579805
 10
-2.8422749274
 20
-6.0252258328
 10
-2.8324708037
 20
-6.0349829583
 10
-2.8229293205
 20
-6.0449033922
 10
-2.813650145
 20
-6.055013099
 10
-2.8047163718
 20
-6.0652537731
 10
-2.7961433211
 20
-6.0756061128
 10
-2.7879156727
 20
-6.0860894196
 10
-2.7800705606
 20
-6.0967032924
 10
-2.7726326119
 20
-6.1074420558
 10
-2.7655771996
 20
-6.1183113849
 10
-2.7588675769
 20
-6.1293279051
 10
-2.7525230189
 20
-6.1404909254
 10
-2.7465242506
 20
-6.1518011365
 10
-2.7407767003
 20
-6.1632772363
 10
-2.7352752729
 20
-6.1749159569
 10
-2.7300250635
 20
-6.1867205659
 10
-2.7249467849
 20
-6.1987195643
 10
-2.7200133304
 20
-6.2109290293
 10
-2.7152518067
 20
-6.2233328834
 10
-2.7106642471
 20
-6.2359113947
 10
-2.7062286746
 20
-6.2486882126
 10
-2.7019670663
 20
-6.2616396874
 10
-2.6979473864
 20
-6.2746751395
 10
-2.6941797757
 20
-6.2877782821
 10
-2.6906540933
 20
-6.3009654017
 10
-2.6874078804
 20
-6.3141946785
 10
-2.6844570884
 20
-6.3274572713
 10
-2.6817857658
 20
-6.3407620213
 10
-2.6793835999
 20
-6.3540936319
 10
-2.6772581386
 20
-6.3674497916
 10
-2.6754018339
 20
-6.3808328119
 10
-2.6737817292
 20
-6.3942343313
 10
-2.6723968003
 20
-6.4076544592
 10
-2.6712480714
 20
-6.4210930862
 10
-2.6703056591
 20
-6.4345415228
 10
-2.6695691027
 20
-6.4479966071
 10
-2.669038863
 20
-6.461461501
 10
-2.6686864381
 20
-6.4749370001
 10
-2.6685023275
 20
-6.4884233696
 10
-2.6684960318
 20
-6.5019203443
 10
-2.668667551
 20
-6.5154279241
  0
LWPOLYLINE
  5
34B
100
AcDbEntity
  8
RACCORDO
100
AcDbPolyline
 62
7
  6
CONTINUOUS
 90
10
 70
0
 10
9.723002312
 20
-8.9698320333
 10
9.7227650932
 20
-8.9697719735
 10
9.7222902044
 20
-8.9697120579
 10
9.7215776456
 20
-8.9696522866
 10
9.7206256689
 20
-8.9695925461
 10
9.7194360222
 20
-8.96953295
 10
9.7180139494
 20
-8.9694738384
 10
9.7163575585
 20
-8.9694152344
 10
9.7144687415
 20
-8.9693571149
 10
9.7100294801
 20
-8.969243221
  0
LINE
  5
34C
100
AcDbEntity
  8
0
100
AcDbLine
 62
7
  6
CONTINUOUS
 10
0.8202258773
 20
-15.6569172868
 11
0.8868926711
 21
-15.7930875072
  0
LINE
  5
34D
100
AcDbEntity
  8
0
100
AcDbLine
 62
7
  6
CONTINUOUS
 10
1.0868926711
 20
-15.7930875072
 11
1.0202258773
 21
-15.6569172868
  0
LINE
  5
34E
100
AcDbEntity
  8
0
100
AcDbLine
 62
7
  6
CONTINUOUS
 10
-3.8641353766
 20
-7.1404279241
 11
-4.3167633766
 21
-5.8904279241
  0
LINE
  5
34F
100
AcDbEntity
  8
0
100
AcDbLine
 62
7
  6
CONTINUOUS
 10
-4.0486983766
 20
-7.1404279241
 11
-4.1722933766
 21
-6.7765989241
  0
LINE
  5
350
100
AcDbEntity
  8
0
100
AcDbLine
 62
7
  6
CONTINUOUS
 10
-4.2331803766
 20
-6.6268819241
 11
-4.4194113766
 21
-6.0717389241
  0
LINE
  5
351
100
AcDbEntity
  8
0
100
AcDbLine
 62
7
  6
CONTINUOUS
 10
-4.5222093766
 20
6.9598550759
 11
-4.5222093766
 21
5.8595720759
  0
LINE
  5
352
100
AcDbEntity
  8
0
100
AcDbLine
 62
7
  6
CONTINUOUS
 10
-4.3532843766
 20
7.1095720759
 11
-4.3532843766
 21
5.8595720759
  0
LINE
  5
353
100
AcDbEntity
  8
RACCORDO
100
AcDbLine
 62
253
  6
CONTINUOUS
 10
-4.0785774304
 20
22.1035526277
 11
-4.0785774304
 21
20.5872306028
  0
LINE
  5
354
100
AcDbEntity
  8
RACCORDO
100
AcDbLine
 62
253
  6
CONTINUOUS
 10
-4.0785774304
 20
-20.618086451
 11
-4.0785774304
 21
-22.1344084759
  0
LINE
  5
355
100
AcDbEntity
  8
RACCORDO
100
AcDbLine
 62
253
  6
CONTINUOUS
 10
-3.9053723496
 20
22.1087934056
 11
-3.9053723496
 21
20.5995090589
  0
LINE
  5
356
100
AcDbEntity
  8
RACCORDO
100
AcDbLine
 62
253
  6
CONTINUOUS
 10
-3.9053723496
 20
-20.6303649071
 11
-3.9053723496
 21
-22.1396492538
  0
LINE
  5
357
100
AcDbEntity
  8
0
100
AcDbLine
 62
7
  6
CONTINUOUS
 10
-3.7004973766
 20
-7.1404279241
 11
-3.7004973766
 21
-5.8904279241
  0
LINE
  5
358
100
AcDbEntity
  8
0
100
AcDbLine
 62
7
  6
CONTINUOUS
 10
-3.5315733766
 20
-6.9959679241
 11
-3.5315733766
 21
-6.0348879241
  0
LINE
  5
359
100
AcDbEntity
  8
0
100
AcDbLine
 62
7
  6
CONTINUOUS
 10
2.3764766234
 20
18.8168730759
 11
1.8300726234
 21
17.1170100759
  0
LINE
  5
35A
100
AcDbEntity
  8
RACCORDO
100
AcDbLine
 62
253
  6
CONTINUOUS
 10
-10.0406618008
 20
-20.5660850404
 11
-10.0631073766
 21
-20.6353261421
  0
LINE
  5
35B
100
AcDbEntity
  8
0
100
AcDbLine
 62
7
  6
CONTINUOUS
 10
-5.7252583766
 20
-6.9523259241
 11
-5.3683503766
 21
-5.8904279241
  0
LINE
  5
35C
100
AcDbEntity
  8
RACCORDO
100
AcDbLine
 62
7
  6
CONTINUOUS
 10
9.8368926234
 20
8.995917004
 11
9.723002312
 21
8.9389761851
  0
LINE
  5
35D
100
AcDbEntity
  8
DRAFT
100
AcDbLine
 62
7
  6
CONTINUOUS
 10
9.7967459741
 20
-4.1154279241
 11
10.9868926234
 21
-4.1154279241
  0
LINE
  5
35E
100
AcDbEntity
  8
DRAFT
100
AcDbLine
 62
7
  6
CONTINUOUS
 10
-10.0229607272
 20
-4.1154279241
 11
-11.2131073766
 21
-4.1154279241
  0
LINE
  5
35F
100
AcDbEntity
  8
RACCORDO
100
AcDbLine
 62
7
  6
CONTINUOUS
 10
9.8368926234
 20
-9.0267728522
 11
9.723002312
 21
-8.9698320333
  0
LINE
  5
360
100
AcDbEntity
  8
0
100
AcDbLine
 62
7
  6
CONTINUOUS
 10
0.4797186234
 20
-7.1404279241
 11
-0.1592323766
 21
-6.1252779241
  0
LINE
  5
361
100
AcDbEntity
  8
0
100
AcDbLine
 62
7
  6
CONTINUOUS
 10
0.5058406234
 20
-6.9057829241
 11
-0.1226973766
 21
-5.8904279241
  0
LWPOLYLINE
  5
362
100
AcDbEntity
  8
0
100
AcDbPolyline
 62
7
  6
CONTINUOUS
 90
37
 70
0
 10
2.6447122552
 20
-18.3322745195
 10
2.6411305597
 20
-18.3232034467
 10
2.6374186617
 20
-18.314500633
 10
2.6335765613
 20
-18.3061660915
 10
2.6295978303
 20
-18.2982126505
 10
2.6254888967
 20
-18.2906275067
 10
2.6212690456
 20
-18.2833722236
 10
2.6169454154
 20
-18.276449725
 10
2.6125108676
 20
-18.2698571065
 10
2.6079632712
 20
-18.2635471857
 10
2.6032998332
 20
-18.2575119463
 10
2.5985233466
 20
-18.2517594188
 10
2.5936400591
 20
-18.246266489
 10
2.5886516981
 20
-18.2410350048
 10
2.5835565361
 20
-18.2360631297
 10
2.5783556389
 20
-18.2313222211
 10
2.5730547755
 20
-18.2268097983
 10
2.5676481769
 20
-18.2225283507
 10
2.5621196013
 20
-18.2184566891
 10
2.5564584999
 20
-18.2145833482
 10
2.5506754216
 20
-18.2109198
 10
2.5447857715
 20
-18.2074792599
 10
2.5387854102
 20
-18.2042647539
 10
2.5326784772
 20
-18.2012732622
 10
2.5264927962
 20
-18.1985089312
 10
2.5202368237
 20
-18.1959771818
 10
2.5139021032
 20
-18.1936725981
 10
2.5074910891
 20
-18.191583071
 10
2.5010021653
 20
-18.1897045749
 10
2.4944369479
 20
-18.1880411389
 10
2.48780274
 20
-18.186592735
 10
2.4810950634
 20
-18.1853564576
 10
2.4743183963
 20
-18.1843352146
 10
2.4674934769
 20
-18.1835376985
 10
2.4606272178
 20
-18.1829668069
 10
2.4537127063
 20
-18.1826196434
 10
2.4467499425
 20
-18.1824962082
  0
LINE
  5
363
100
AcDbEntity
  8
0
100
AcDbLine
 62
7
  6
CONTINUOUS
 10
2.0202258773
 20
-15.4867045411
 11
1.9535594649
 21
-15.3164917478
  0
LINE
  5
364
100
AcDbEntity
  8
RACCORDO
100
AcDbLine
 62
253
  6
CONTINUOUS
 10
-10.0631073766
 20
20.6044702939
 11
-10.0406618008
 21
20.5352291922
  0
LINE
  5
365
100
AcDbEntity
  8
0
100
AcDbLine
 62
7
  6
CONTINUOUS
 10
1.7989046234
 20
-18.8477289241
 11
1.2773446234
 21
-17.1478659241
  0
LINE
  5
366
100
AcDbEntity
  8
0
100
AcDbLine
 62
7
  6
CONTINUOUS
 10
1.4249306234
 20
-18.8477289241
 11
1.3330116234
 21
-18.5083759241
  0
LINE
  5
367
100
AcDbEntity
  8
0
100
AcDbLine
 62
7
  6
CONTINUOUS
 10
1.2620986234
 20
-18.2457859241
 11
1.0990506234
 21
-17.6149449241
  0
LWPOLYLINE
  5
368
100
AcDbEntity
  8
0
100
AcDbPolyline
 62
7
  6
CONTINUOUS
 90
46
 70
0
 10
-2.9493613947
 20
17.6091861569
 10
-2.9491639894
 20
17.6024482163
 10
-2.9487608205
 20
17.5957062186
 10
-2.9481518879
 20
17.5889601638
 10
-2.9473373969
 20
17.5821935867
 10
-2.9463171422
 20
17.5754229521
 10
-2.9450905081
 20
17.5686976559
 10
-2.9436545843
 20
17.5620185439
 10
-2.9420122811
 20
17.5553847727
 10
-2.9401717136
 20
17.5488432075
 10
-2.9381322664
 20
17.5424015113
 10
-2.9358945548
 20
17.5360520258
 10
-2.9334685402
 20
17.5298186357
 10
-2.9308565188
 20
17.5237131156
 10
-2.9280561945
 20
17.5177236966
 10
-2.92507064
 20
17.5118389492
 10
-2.9219009574
 20
17.5060561037
 10
-2.9185460447
 20
17.5003779345
 10
-2.915005669
 20
17.4948013283
 10
-2.9112821006
 20
17.4893243818
 10
-2.9073730692
 20
17.4839490026
 10
-2.9032715309
 20
17.4786777932
 10
-2.898982561
 20
17.4735119061
 10
-2.8945010842
 20
17.4684501929
 10
-2.889804831
 20
17.4634918058
 10
-2.884886905
 20
17.4586291731
 10
-2.8797542025
 20
17.4538698703
 10
-2.8744051422
 20
17.4492357697
 10
-2.8688311244
 20
17.4447217254
 10
-2.8630407489
 20
17.4403328877
 10
-2.8570582333
 20
17.4361065749
 10
-2.8508808714
 20
17.432044293
 10
-2.8445113696
 20
17.4281445411
 10
-2.8379820645
 20
17.4244401277
 10
-2.8313007519
 20
17.4209377787
 10
-2.8244596362
 20
17.4176307735
 10
-2.8174676664
 20
17.4145317507
 10
-2.8103186716
 20
17.411639764
 10
-2.8030188229
 20
17.4089557643
 10
-2.7955955821
 20
17.4064952366
 10
-2.7880434504
 20
17.4042583498
 10
-2.7803679267
 20
17.4022449389
 10
-2.7726129695
 20
17.4004699884
 10
-2.7647932316
 20
17.3989384942
 10
-2.7568940602
 20
17.3976454632
 10
-2.7489154552
 20
17.3965908968
  0
LWPOLYLINE
  5
369
100
AcDbEntity
  8
0
100
AcDbPolyline
 62
7
  6
CONTINUOUS
 90
70
 70
0
 10
-2.668667551
 20
-6.5154279241
 10
-2.6684960948
 20
-6.5289370769
 10
-2.6685023996
 20
-6.5424345348
 10
-2.6686864655
 20
-6.5559202977
 10
-2.669038797
 20
-6.569393672
 10
-2.6695688897
 20
-6.5828553515
 10
-2.6703052298
 20
-6.5963074169
 10
-2.6712472884
 20
-6.6097531059
 10
-2.6723955944
 20
-6.623189181
 10
-2.6737802223
 20
-6.6366080099
 10
-2.6754001004
 20
-6.6500096862
 10
-2.6772563003
 20
-6.6633941164
 10
-2.6793821108
 20
-6.6767533877
 10
-2.6817851357
 20
-6.6900901563
 10
-2.6844577712
 20
-6.703401766
 10
-2.687410495
 20
-6.7166723357
 10
-2.6906594128
 20
-6.729910946
 10
-2.6941884188
 20
-6.7431085163
 10
-2.6979596736
 20
-6.7562219233
 10
-2.7019836229
 20
-6.769267949
 10
-2.706249821
 20
-6.7822298115
 10
-2.7106890909
 20
-6.7950140419
 10
-2.7152792166
 20
-6.8075961369
 10
-2.7200424142
 20
-6.8200006002
 10
-2.7249761538
 20
-6.832207474
 10
-2.7300529742
 20
-6.8441997813
 10
-2.7353003367
 20
-6.8559944995
 10
-2.7407980957
 20
-6.8676226019
 10
-2.746541218
 20
-6.8790877521
 10
-2.7525347367
 20
-6.8903862869
 10
-2.7588736059
 20
-6.9015381893
 10
-2.7655771927
 20
-6.9125445628
 10
-2.77262613
 20
-6.9234043042
 10
-2.7800572709
 20
-6.9341340865
 10
-2.7878951957
 20
-6.9447396092
 10
-2.7961153241
 20
-6.9552151731
 10
-2.8046807676
 20
-6.9655603528
 10
-2.8136068461
 20
-6.9757943842
 10
-2.8228782398
 20
-6.9858980317
 10
-2.8324121
 20
-6.995813163
 10
-2.8422085296
 20
-7.0055655359
 10
-2.8522674257
 20
-7.0151293929
 10
-2.8625056318
 20
-7.0243693293
 10
-2.8729355479
 20
-7.0332839011
 10
-2.8835447739
 20
-7.0418745529
 10
-2.8942129533
 20
-7.0500102135
 10
-2.904899602
 20
-7.0576341242
 10
-2.915645204
 20
-7.0648030443
 10
-2.9264508557
 20
-7.07155618
 10
-2.9372961779
 20
-7.0778760856
 10
-2.9482015497
 20
-7.0837802072
 10
-2.9592292041
 20
-7.0893600881
 10
-2.9703714401
 20
-7.0946277444
 10
-2.9816359588
 20
-7.0995711603
 10
-2.993108096
 20
-7.1042458315
 10
-3.0047934499
 20
-7.1086665632
 10
-3.0166864224
 20
-7.1128185503
 10
-3.0288555545
 20
-7.1167128731
 10
-3.0413421886
 20
-7.1203660103
 10
-3.0541049823
 20
-7.1237614835
 10
-3.0670884499
 20
-7.1268609368
 10
-3.0803222185
 20
-7.1296628739
 10
-3.0937766609
 20
-7.1321687913
 10
-3.10730741
 20
-7.1343448233
 10
-3.1209175789
 20
-7.136178858
 10
-3.1346040544
 20
-7.1376830075
 10
-3.1482131306
 20
-7.1388597418
 10
-3.1616935719
 20
-7.1397098843
 10
-3.175096614
 20
-7.1402326117
 10
-3.1884222566
 20
-7.1404279241
  0
LINE
  5
36A
100
AcDbEntity
  8
0
100
AcDbLine
 62
7
  6
CONTINUOUS
 10
-3.0415595593
 20
18.0233918843
 11
-3.0415595593
 21
18.0133471771
  0
LINE
  5
36B
100
AcDbEntity
  8
0
100
AcDbLine
 62
7
  6
CONTINUOUS
 10
-3.0353713766
 20
6.0092890759
 11
-3.0353713766
 21
5.8595720759
  0
LINE
  5
36C
100
AcDbEntity
  8
0
100
AcDbLine
 62
7
  6
CONTINUOUS
 10
-2.9131074242
 20
16.0345720759
 11
-2.9131074242
 21
14.4345720759
  0
LINE
  5
36D
100
AcDbEntity
  8
0
100
AcDbLine
 62
7
  6
CONTINUOUS
 10
-2.9131073289
 20
-14.703725768
 11
-2.9131073289
 21
-14.9760662565
  0
LINE
  5
36E
100
AcDbEntity
  8
0
100
AcDbLine
 62
7
  6
CONTINUOUS
 10
-2.7131073289
 20
-14.7377683172
 11
-2.7131073289
 21
-16.0654279241
  0
LINE
  5
36F
100
AcDbEntity
  8
0
100
AcDbLine
 62
7
  6
CONTINUOUS
 10
-2.7131074242
 20
14.706912469
 11
-2.7131074242
 21
16.0345720759
  0
LINE
  5
370
100
AcDbEntity
  8
0
100
AcDbLine
 62
7
  6
CONTINUOUS
 10
-2.6123023766
 20
7.1095720759
 11
-2.6123023766
 21
6.0092890759
  0
LINE
  5
371
100
AcDbEntity
  8
DRAFT
100
AcDbLine
 62
7
  6
CONTINUOUS
 10
-2.5197317036
 20
22.2345720759
 11
-2.5197317036
 21
20.8045720759
  0
LINE
  5
372
100
AcDbEntity
  8
DRAFT
100
AcDbLine
 62
7
  6
CONTINUOUS
 10
-2.5197317036
 20
-22.2654279241
 11
-2.5197317036
 21
-20.8354279241
  0
LINE
  5
373
100
AcDbEntity
  8
0
100
AcDbLine
 62
7
  6
CONTINUOUS
 10
-2.5131074242
 20
14.6728699198
 11
-2.5131074242
 21
14.9452104083
  0
LINE
  5
374
100
AcDbEntity
  8
0
100
AcDbLine
 62
7
  6
CONTINUOUS
 10
-2.5131073289
 20
-16.0654279241
 11
-2.5131073289
 21
-14.4654279241
  0
LINE
  5
375
100
AcDbEntity
  8
0
100
AcDbLine
 62
7
  6
CONTINUOUS
 10
-2.4827143725
 20
18.8168727626
 11
-2.4827143725
 21
18.15164036
  0
LINE
  5
376
100
AcDbEntity
  8
0
100
AcDbLine
 62
7
  6
CONTINUOUS
 10
-2.4709488082
 20
17.8732439074
 11
-2.4709488082
 21
17.4065984249
  0
LINE
  5
377
100
AcDbEntity
  8
0
100
AcDbLine
 62
7
  6
CONTINUOUS
 10
-2.4434483766
 20
7.1095720759
 11
-2.4434483766
 21
6.0092890759
  0
LINE
  5
378
100
AcDbEntity
  8
0
100
AcDbLine
 62
7
  6
CONTINUOUS
 10
-2.4347783766
 20
-7.1404279241
 11
-2.4347783766
 21
-5.8904279241
  0
LINE
  5
379
100
AcDbEntity
  8
0
100
AcDbLine
 62
7
  6
CONTINUOUS
 10
-2.2658633766
 20
-6.9907109241
 11
-2.2658633766
 21
-6.5728989241
  0
LINE
  5
37A
100
AcDbEntity
  8
0
100
AcDbLine
 62
7
  6
CONTINUOUS
 10
-2.2658633766
 20
-6.4231819241
 11
-2.2658633766
 21
-6.0401449241
  0
LINE
  5
37B
100
AcDbEntity
  8
0
100
AcDbLine
 62
7
  6
CONTINUOUS
 10
-2.2464406304
 20
15.5920188895
 11
-2.2464406304
 21
15.455848693
  0
LINE
  5
37C
100
AcDbEntity
  8
0
100
AcDbLine
 62
7
  6
CONTINUOUS
 10
-2.2464406781
 20
-15.3845768461
 11
-2.2464406781
 21
-15.5888321885
  0
LINE
  5
37D
100
AcDbEntity
  8
0
100
AcDbLine
 62
7
  6
CONTINUOUS
 10
-2.1797742181
 20
14.6047848216
 11
-2.1797742181
 21
14.4345720759
  0
LINE
  5
37E
100
AcDbEntity
  8
0
100
AcDbLine
 62
7
  6
CONTINUOUS
 10
-2.1293140405
 20
18.8168727626
 11
-2.1293140405
 21
17.1368699937
  0
LINE
  5
37F
100
AcDbEntity
  8
0
100
AcDbLine
 62
7
  6
CONTINUOUS
 10
-2.0797742181
 20
15.4898912421
 11
-2.0797742181
 21
15.5579763404
  0
LINE
  5
380
100
AcDbEntity
  8
0
100
AcDbLine
 62
7
  6
CONTINUOUS
 10
-2.0203793766
 20
6.0092890759
 11
-2.0203793766
 21
5.8595720759
  0
LINE
  5
381
100
AcDbEntity
  8
0
100
AcDbLine
 62
7
  6
CONTINUOUS
 10
-1.9246093766
 20
-18.8477289241
 11
-1.9246093766
 21
-17.1477639241
  0
LINE
  5
382
100
AcDbEntity
  8
0
100
AcDbLine
 62
7
  6
CONTINUOUS
 10
-1.8393133766
 20
7.1095720759
 11
-1.8393133766
 21
5.8595720759
  0
LINE
  5
383
100
AcDbEntity
  8
0
100
AcDbLine
 62
7
  6
CONTINUOUS
 10
-1.6703993766
 20
7.1095720759
 11
-1.6703993766
 21
5.8595720759
  0
LINE
  5
384
100
AcDbEntity
  8
0
100
AcDbLine
 62
7
  6
CONTINUOUS
 10
-1.5816643766
 20
-6.5728989241
 11
-1.5816643766
 21
-6.4231819241
  0
LINE
  5
385
100
AcDbEntity
  8
0
100
AcDbLine
 62
7
  6
CONTINUOUS
 10
-1.5697813766
 20
-18.8477289241
 11
-1.5697813766
 21
-17.1477639241
  0
LWPOLYLINE
  5
386
100
AcDbEntity
  8
0
100
AcDbPolyline
 62
7
  6
CONTINUOUS
 90
61
 70
0
 10
-2.8424255293
 20
-6.5154279241
 10
-2.842212136
 20
-6.5033509997
 10
-2.8422083704
 20
-6.4912739556
 10
-2.8424142325
 20
-6.479196792
 10
-2.8428323445
 20
-6.4671140093
 10
-2.8434600841
 20
-6.4550311069
 10
-2.8442895849
 20
-6.4429645837
 10
-2.8453214776
 20
-6.4309139605
 10
-2.8465551315
 20
-6.4188797164
 10
-2.8479807875
 20
-6.4068797869
 10
-2.8495973249
 20
-6.3949227442
 10
-2.8514058644
 20
-6.3830000163
 10
-2.8534000094
 20
-6.3711038221
 10
-2.8555728265
 20
-6.3592415432
 10
-2.857931249
 20
-6.3474057982
 10
-2.8604896801
 20
-6.3355666611
 10
-2.8632383065
 20
-6.3236822457
 10
-2.8661869414
 20
-6.3117944383
 10
-2.8693794286
 20
-6.2999989719
 10
-2.8728351443
 20
-6.2882555712
 10
-2.8765347122
 20
-6.2766045117
 10
-2.8804638469
 20
-6.2652623533
 10
-2.8846230935
 20
-6.2542962492
 10
-2.8890119069
 20
-6.2436390469
 10
-2.8936143661
 20
-6.2333058474
 10
-2.8984161842
 20
-6.2233368037
 10
-2.9034316482
 20
-6.2136917634
 10
-2.9086876974
 20
-6.2042653692
 10
-2.914188753
 20
-6.1950284861
 10
-2.9199303939
 20
-6.1860102496
 10
-2.9259262966
 20
-6.1771927078
 10
-2.932197573
 20
-6.1685462939
 10
-2.9387231111
 20
-6.1601005751
 10
-2.9454532519
 20
-6.1519263009
 10
-2.9523785129
 20
-6.1440440634
 10
-2.9595083765
 20
-6.1364332709
 10
-2.9668216311
 20
-6.1291028972
 10
-2.9743084189
 20
-6.122064078
 10
-2.9819785978
 20
-6.1153056779
 10
-2.9898405293
 20
-6.1088032642
 10
-2.9978886634
 20
-6.1025528366
 10
-3.0061285501
 20
-6.0965583955
 10
-3.0145852019
 20
-6.0908075088
 10
-3.0232710689
 20
-6.0852882302
 10
-3.0321737009
 20
-6.0800125063
 10
-3.0412807596
 20
-6.0750037434
 10
-3.0505937648
 20
-6.0702645487
 10
-3.0601111967
 20
-6.0657923153
 10
-3.0698161579
 20
-6.061602629
 10
-3.0797124864
 20
-6.057695007
 10
-3.0897963443
 20
-6.0540699323
 10
-3.10003932
 20
-6.0507444394
 10
-3.1104423891
 20
-6.0477191605
 10
-3.1210045761
 20
-6.0449934636
 10
-3.1316945426
 20
-6.0425824873
 10
-3.1425127502
 20
-6.0404863935
 10
-3.1534587373
 20
-6.0387050203
 10
-3.1644997802
 20
-6.0372530215
 10
-3.1756249711
 20
-6.0361352814
 10
-3.1868452178
 20
-6.0353469156
 10
-3.1981605204
 20
-6.0348879241
  0
LINE
  5
387
100
AcDbEntity
  8
0
100
AcDbLine
 62
7
  6
CONTINUOUS
 10
2.5185806234
 20
18.2870780759
 11
2.1846586234
 21
17.1170100759
  0
LINE
  5
388
100
AcDbEntity
  8
RACCORDO
100
AcDbLine
 62
253
  6
CONTINUOUS
 10
-9.8405730322
 20
-20.7654279241
 11
-9.8632646167
 21
-20.8354279241
  0
LINE
  5
389
100
AcDbEntity
  8
0
100
AcDbLine
 62
7
  6
CONTINUOUS
 10
-5.6434073766
 20
-7.1404279241
 11
-5.2917733766
 21
-6.0905899241
  0
LINE
  5
38A
100
AcDbEntity
  8
0
100
AcDbLine
 62
7
  6
CONTINUOUS
 10
-4.8042583766
 20
-7.1404279241
 11
-4.6736683766
 21
-6.7765989241
  0
LINE
  5
38B
100
AcDbEntity
  8
0
100
AcDbLine
 62
7
  6
CONTINUOUS
 10
-4.6214233766
 20
-6.6268819241
 11
-4.4194113766
 21
-6.0717389241
  0
LINE
  5
38C
100
AcDbEntity
  8
0
100
AcDbLine
 62
7
  6
CONTINUOUS
 10
-4.9783383766
 20
-7.1404279241
 11
-4.5083023766
 21
-5.8904279241
  0
LINE
  5
38D
100
AcDbEntity
  8
DRAFT
100
AcDbLine
 62
7
  6
CONTINUOUS
 10
8.0618699505
 20
-1.332882989
 11
7.8868926234
 21
-1.3677931189
  0
LWPOLYLINE
  5
38E
100
AcDbEntity
  8
RACCORDO
100
AcDbPolyline
 62
253
  6
CONTINUOUS
 90
5
 70
0
 10
9.7216430912
 20
-1.6079554109
 10
9.7213756011
 20
-1.6079738859
 10
9.7208360977
 20
-1.6079989783
 10
9.7200269988
 20
-1.6080262472
 10
9.7189456804
 20
-1.6080487411
  0
LWPOLYLINE
  5
38F
100
AcDbEntity
  8
RACCORDO
100
AcDbPolyline
 62
253
  6
CONTINUOUS
 90
3
 70
0
 10
9.7189456804
 20
-1.6080487411
 10
9.7140873641
 20
-1.6081192768
 10
9.7119358503
 20
-1.6081380841
  0
LINE
  5
390
100
AcDbEntity
  8
RACCORDO
100
AcDbLine
 62
253
  6
CONTINUOUS
 10
9.7119358503
 20
-1.6081380841
 11
9.7068622506
 21
-1.608187882
  0
LINE
  5
391
100
AcDbEntity
  8
RACCORDO
100
AcDbLine
 62
253
  6
CONTINUOUS
 10
9.7068622506
 20
-1.608187882
 11
9.6392974136
 21
-1.6084695944
  0
LINE
  5
392
100
AcDbEntity
  8
RACCORDO
100
AcDbLine
 62
253
  6
CONTINUOUS
 10
9.6392974136
 20
-1.6084695944
 11
9.5290645142
 21
-1.6086062032
  0
LINE
  5
393
100
AcDbEntity
  8
RACCORDO
100
AcDbLine
 62
253
  6
CONTINUOUS
 10
9.5290645142
 20
-1.6086062032
 11
-9.8468789574
 21
-1.6085052832
  0
LINE
  5
394
100
AcDbEntity
  8
RACCORDO
100
AcDbLine
 62
253
  6
CONTINUOUS
 10
-9.8468789574
 20
-1.6085052832
 11
-9.9199181407
 21
-1.6082719606
  0
LINE
  5
395
100
AcDbEntity
  8
RACCORDO
100
AcDbLine
 62
253
  6
CONTINUOUS
 10
-9.9199181407
 20
-1.6082719606
 11
-9.9381509124
 21
-1.6081419212
  0
LWPOLYLINE
  5
396
100
AcDbEntity
  8
RACCORDO
100
AcDbPolyline
 62
253
  6
CONTINUOUS
 90
7
 70
0
 10
-9.9381509124
 20
-1.6081419212
 10
-9.9438066998
 20
-1.6080730346
 10
-9.9451591282
 20
-1.6080497062
 10
-9.9462417519
 20
-1.6080262472
 10
-9.9470530902
 20
-1.6080026898
 10
-9.9475920333
 20
-1.6079790669
 10
-9.9478578443
 20
-1.6079554109
  0
LINE
  5
397
100
AcDbEntity
  8
DRAFT
100
AcDbLine
 62
7
  6
CONTINUOUS
 10
-8.2880847036
 20
-1.332882989
 11
-8.1131073766
 21
-1.3677931189
  0
LINE
  5
398
100
AcDbEntity
  8
0
100
AcDbLine
 62
7
  6
CONTINUOUS
 10
-5.7687723766
 20
6.4602590759
 11
-5.4100983766
 21
5.8595720759
  0
LINE
  5
399
100
AcDbEntity
  8
0
100
AcDbLine
 62
7
  6
CONTINUOUS
 10
1.8202258773
 20
-15.4186193952
 11
1.8535594649
 21
-15.5207470903
  0
LINE
  5
39A
100
AcDbEntity
  8
RACCORDO
100
AcDbLine
 62
253
  6
CONTINUOUS
 10
-9.8632646167
 20
20.8045720759
 11
-9.8405730322
 21
20.7345720759
  0
LWPOLYLINE
  5
39B
100
AcDbEntity
  8
0
100
AcDbPolyline
 62
7
  6
CONTINUOUS
 90
5
 70
0
 10
2.6611117235
 20
-18.3807670421
 10
2.6570310829
 20
-18.3681388405
 10
2.6529249753
 20
-18.3558470602
 10
2.6488186994
 20
-18.3438922809
 10
2.6447122552
 20
-18.3322745195
  0
LINE
  5
39C
100
AcDbEntity
  8
0
100
AcDbLine
 62
7
  6
CONTINUOUS
 10
2.6736027356
 20
-18.4206715607
 11
2.6611117235
 21
-18.3807670421
  0
LINE
  5
39D
100
AcDbEntity
  8
0
100
AcDbLine
 62
7
  6
CONTINUOUS
 10
2.6868460254
 20
-18.4636753832
 11
2.6736027356
 21
-18.4206715607
  0
LINE
  5
39E
100
AcDbEntity
  8
0
100
AcDbLine
 62
7
  6
CONTINUOUS
 10
2.7057369936
 20
-18.5262192986
 11
2.6868460254
 21
-18.4636753832
  0
LINE
  5
39F
100
AcDbEntity
  8
0
100
AcDbLine
 62
7
  6
CONTINUOUS
 10
2.7371483281
 20
-18.632298133
 11
2.7057369936
 21
-18.5262192986
  0
LINE
  5
3A0
100
AcDbEntity
  8
0
100
AcDbLine
 62
7
  6
CONTINUOUS
 10
2.786169145
 20
-18.8002841251
 11
2.7371483281
 21
-18.632298133
  0
LINE
  5
3A1
100
AcDbEntity
  8
0
100
AcDbLine
 62
7
  6
CONTINUOUS
 10
2.7998698386
 20
-18.8477286108
 11
2.786169145
 21
-18.8002841251
  0
LINE
  5
3A2
100
AcDbEntity
  8
0
100
AcDbLine
 62
7
  6
CONTINUOUS
 10
3.1262407458
 20
-18.7918127586
 11
3.1411731819
 21
-18.8477286108
  0
LINE
  5
3A3
100
AcDbEntity
  8
0
100
AcDbLine
 62
7
  6
CONTINUOUS
 10
3.0366519039
 20
-18.4498241334
 11
3.0525698827
 21
-18.509746478
  0
LINE
  5
3A4
100
AcDbEntity
  8
0
100
AcDbLine
 62
7
  6
CONTINUOUS
 10
3.0525698827
 20
-18.509746478
 11
3.072840049
 21
-18.5870068531
  0
LWPOLYLINE
  5
3A5
100
AcDbEntity
  8
0
100
AcDbPolyline
 62
7
  6
CONTINUOUS
 90
3
 70
0
 10
3.0972473007
 20
-18.6807624678
 10
3.102071733
 20
-18.6993066703
 10
3.1262407458
 20
-18.7918127586
  0
LINE
  5
3A6
100
AcDbEntity
  8
0
100
AcDbLine
 62
7
  6
CONTINUOUS
 10
3.072840049
 20
-18.5870068531
 11
3.0972473007
 21
-18.6807624678
  0
LINE
  5
3A7
100
AcDbEntity
  8
0
100
AcDbLine
 62
7
  6
CONTINUOUS
 10
0.3451886234
 20
-18.8477289241
 11
0.1862316234
 21
-17.1478659241
  0
LINE
  5
3A8
100
AcDbEntity
  8
0
100
AcDbLine
 62
7
  6
CONTINUOUS
 10
-0.0019273766
 20
-18.8477289241
 11
-0.0748283766
 21
-17.7423769241
  0
LINE
  5
3A9
100
AcDbEntity
  8
0
100
AcDbLine
 62
7
  6
CONTINUOUS
 10
-1.5242143766
 20
-6.0401449241
 11
-1.5242143766
 21
-5.8904279241
  0
LINE
  5
3AA
100
AcDbEntity
  8
0
100
AcDbLine
 62
7
  6
CONTINUOUS
 10
-1.5120123766
 20
-7.1404279241
 11
-1.5120123766
 21
-6.9907109241
  0
LINE
  5
3AB
100
AcDbEntity
  8
0
100
AcDbLine
 62
7
  6
CONTINUOUS
 10
-1.4464406304
 20
-14.7377683172
 11
-1.4464406304
 21
-15.3845768461
  0
LINE
  5
3AC
100
AcDbEntity
  8
0
100
AcDbLine
 62
7
  6
CONTINUOUS
 10
-1.4464406304
 20
-15.5888321885
 11
-1.4464406304
 21
-16.0654279241
  0
LINE
  5
3AD
100
AcDbEntity
  8
0
100
AcDbLine
 62
7
  6
CONTINUOUS
 10
-1.2464407258
 20
-16.0654279241
 11
-1.2464407258
 21
-15.5888321885
  0
LINE
  5
3AE
100
AcDbEntity
  8
0
100
AcDbLine
 62
7
  6
CONTINUOUS
 10
-1.2464407258
 20
-15.3845768461
 11
-1.2464407258
 21
-14.4654279241
  0
LINE
  5
3AF
100
AcDbEntity
  8
0
100
AcDbLine
 62
7
  6
CONTINUOUS
 10
-1.2131074242
 20
15.1494657031
 11
-1.2131074242
 21
14.6047848216
  0
LINE
  5
3B0
100
AcDbEntity
  8
0
100
AcDbLine
 62
7
  6
CONTINUOUS
 10
-1.0464406304
 20
14.4345720759
 11
-1.0464406304
 21
15.3196784487
  0
LINE
  5
3B1
100
AcDbEntity
  8
0
100
AcDbLine
 62
7
  6
CONTINUOUS
 10
-0.9131073289
 20
-15.5888321885
 11
-0.9131073289
 21
-15.3845768461
  0
LINE
  5
3B2
100
AcDbEntity
  8
0
100
AcDbLine
 62
7
  6
CONTINUOUS
 10
-0.8956923766
 20
7.1095720759
 11
-0.8956923766
 21
5.8595720759
  0
LINE
  5
3B3
100
AcDbEntity
  8
0
100
AcDbLine
 62
7
  6
CONTINUOUS
 10
-0.7807743766
 20
-7.1404279241
 11
-0.7807743766
 21
-5.8904279241
  0
LINE
  5
3B4
100
AcDbEntity
  8
0
100
AcDbLine
 62
7
  6
CONTINUOUS
 10
-0.7797742181
 20
14.6047848216
 11
-0.7797742181
 21
14.4345720759
  0
LINE
  5
3B5
100
AcDbEntity
  8
0
100
AcDbLine
 62
7
  6
CONTINUOUS
 10
-0.7320553766
 20
6.8749270759
 11
-0.7320553766
 21
5.8595720759
  0
LINE
  5
3B6
100
AcDbEntity
  8
0
100
AcDbLine
 62
7
  6
CONTINUOUS
 10
-0.6464407258
 20
-14.4654279241
 11
-0.6464407258
 21
-14.6356406698
  0
LINE
  5
3B7
100
AcDbEntity
  8
0
100
AcDbLine
 62
7
  6
CONTINUOUS
 10
-0.6119113766
 20
-7.1404279241
 11
-0.6119113766
 21
-5.8904279241
  0
LINE
  5
3B8
100
AcDbEntity
  8
0
100
AcDbLine
 62
7
  6
CONTINUOUS
 10
-0.3229503766
 20
-7.1404279241
 11
-0.3229503766
 21
-5.8904279241
  0
LINE
  5
3B9
100
AcDbEntity
  8
0
100
AcDbLine
 62
7
  6
CONTINUOUS
 10
-0.1592323766
 20
-7.1404279241
 11
-0.1592323766
 21
-6.1252779241
  0
LINE
  5
3BA
100
AcDbEntity
  8
0
100
AcDbLine
 62
7
  6
CONTINUOUS
 10
-0.0669823766
 20
7.1095720759
 11
-0.0669823766
 21
6.0944220759
  0
LINE
  5
3BB
100
AcDbEntity
  8
0
100
AcDbLine
 62
7
  6
CONTINUOUS
 10
0.0967356234
 20
7.1095720759
 11
0.0967356234
 21
5.8595720759
  0
LINE
  5
3BC
100
AcDbEntity
  8
0
100
AcDbLine
 62
7
  6
CONTINUOUS
 10
0.8130966234
 20
18.8168730759
 11
0.7365246234
 21
17.7068940759
  0
LINE
  5
3BD
100
AcDbEntity
  8
0
100
AcDbLine
 62
7
  6
CONTINUOUS
 10
1.1525516234
 20
18.8168730759
 11
0.9990646234
 21
17.1170100759
  0
LINE
  5
3BE
100
AcDbEntity
  8
DRAFT
100
AcDbLine
 62
7
  6
CONTINUOUS
 10
8.0618699505
 20
-0.1241547919
 11
7.8868926234
 21
-0.1416085275
  0
LINE
  5
3BF
100
AcDbEntity
  8
RACCORDO
100
AcDbLine
 62
253
  6
CONTINUOUS
 10
-9.7478883053
 20
-1.4079858719
 11
9.5216735522
 21
-1.4079858719
  0
LINE
  5
3C0
100
AcDbEntity
  8
DRAFT
100
AcDbLine
 62
7
  6
CONTINUOUS
 10
-8.1131073766
 20
-1.3677931189
 11
7.8868926234
 21
-1.3677931189
  0
LINE
  5
3C1
100
AcDbEntity
  8
RACCORDO
100
AcDbLine
 62
7
  6
CONTINUOUS
 10
-9.8229911882
 20
-1.332882989
 11
-8.2880847036
 21
-1.332882989
  0
LINE
  5
3C2
100
AcDbEntity
  8
RACCORDO
100
AcDbLine
 62
7
  6
CONTINUOUS
 10
8.0618699505
 20
-1.332882989
 11
9.5967764351
 21
-1.332882989
  0
LINE
  5
3C3
100
AcDbEntity
  8
DRAFT
100
AcDbLine
 62
7
  6
CONTINUOUS
 10
-8.1131073766
 20
-0.1416085275
 11
7.8868926234
 21
-0.1416085275
  0
LINE
  5
3C4
100
AcDbEntity
  8
RACCORDO
100
AcDbLine
 62
7
  6
CONTINUOUS
 10
10.7467459729
 20
-0.1241547919
 11
8.0618699505
 21
-0.1241547919
  0
LINE
  5
3C5
100
AcDbEntity
  8
RACCORDO
100
AcDbLine
 62
7
  6
CONTINUOUS
 10
-8.2880847036
 20
-0.1241547919
 11
-10.9729607261
 21
-0.1241547919
  0
LINE
  5
3C6
100
AcDbEntity
  8
RACCORDO
100
AcDbLine
 62
7
  6
CONTINUOUS
 10
-10.9729607261
 20
0.0932989437
 11
-8.2880847036
 21
0.0932989437
  0
LINE
  5
3C7
100
AcDbEntity
  8
RACCORDO
100
AcDbLine
 62
7
  6
CONTINUOUS
 10
8.0618699505
 20
0.0932989437
 11
10.7467459729
 21
0.0932989437
  0
LINE
  5
3C8
100
AcDbEntity
  8
DRAFT
100
AcDbLine
 62
7
  6
CONTINUOUS
 10
7.8868926234
 20
0.1107526793
 11
-8.1131073766
 21
0.1107526793
  0
LWPOLYLINE
  5
3C9
100
AcDbEntity
  8
RACCORDO
100
AcDbPolyline
 62
253
  6
CONTINUOUS
 90
46
 70
0
 10
9.5216735522
 20
-1.4079858719
 10
9.5286510361
 20
-1.408109766
 10
9.5356200223
 20
-1.4084770467
 10
9.5425720235
 20
-1.409087267
 10
9.549498573
 20
-1.4099396834
 10
9.5563912351
 20
-1.411033258
 10
9.5632416155
 20
-1.4123666589
 10
9.5700413712
 20
-1.4139382621
 10
9.576782221
 20
-1.4157461537
 10
9.5834559555
 20
-1.4177881319
 10
9.5900544468
 20
-1.4200617098
 10
9.5965696588
 20
-1.4225641184
 10
9.6029936568
 20
-1.4252923102
 10
9.6093186172
 20
-1.4282429626
 10
9.615536837
 20
-1.431412482
 10
9.6216407432
 20
-1.4347970084
 10
9.627622902
 20
-1.4383924198
 10
9.6334760279
 20
-1.4421943375
 10
9.6391929925
 20
-1.4461981312
 10
9.6447668333
 20
-1.4503989248
 10
9.650190762
 20
-1.4547916024
 10
9.655458173
 20
-1.459370814
 10
9.6605626513
 20
-1.464130983
 10
9.6654979802
 20
-1.4690663119
 10
9.6702581491
 20
-1.4741707901
 10
9.6748373608
 20
-1.4794382011
 10
9.6792300383
 20
-1.4848621299
 10
9.6834308319
 20
-1.4904359707
 10
9.6874346257
 20
-1.4961529353
 10
9.6912365434
 20
-1.5020060611
 10
9.6948319548
 20
-1.5079882199
 10
9.6982164811
 20
-1.5140921261
 10
9.7013860005
 20
-1.5203103459
 10
9.7043366529
 20
-1.5266353063
 10
9.7070648447
 20
-1.5330593044
 10
9.7095672534
 20
-1.5395745164
 10
9.7118408312
 20
-1.5461730077
 10
9.7138828094
 20
-1.5528467421
 10
9.715690701
 20
-1.5595875919
 10
9.7172623043
 20
-1.5663873477
 10
9.7185957051
 20
-1.573237728
 10
9.7196892797
 20
-1.5801303902
 10
9.7205416962
 20
-1.5870569396
 10
9.7211519164
 20
-1.5940089408
 10
9.7215191972
 20
-1.600977927
 10
9.7216430912
 20
-1.6079554109
  0
LINE
  5
3CA
100
AcDbEntity
  8
DRAFT
100
AcDbLine
 62
7
  6
CONTINUOUS
 10
-8.2880847036
 20
-0.1241547919
 11
-8.1131073766
 21
-0.1416085275
  0
LINE
  5
3CB
100
AcDbEntity
  8
0
100
AcDbLine
 62
7
  6
CONTINUOUS
 10
-5.6851693766
 20
6.6064380759
 11
-5.2133733766
 21
5.8595720759
  0
LINE
  5
3CC
100
AcDbEntity
  8
0
100
AcDbLine
 62
7
  6
CONTINUOUS
 10
-4.1984123766
 20
7.1095720759
 11
-3.7456923766
 21
5.8595720759
  0
LINE
  5
3CD
100
AcDbEntity
  8
0
100
AcDbLine
 62
7
  6
CONTINUOUS
 10
-4.0138183766
 20
7.1095720759
 11
-3.8902133766
 21
6.7457430759
  0
LINE
  5
3CE
100
AcDbEntity
  8
0
100
AcDbLine
 62
7
  6
CONTINUOUS
 10
-3.8292653766
 20
6.5960260759
 11
-3.6430243766
 21
6.0408830759
  0
LINE
  5
3CF
100
AcDbEntity
  8
0
100
AcDbLine
 62
7
  6
CONTINUOUS
 10
-0.5714033766
 20
18.8168730759
 11
-0.4124463766
 21
17.1170100759
  0
LINE
  5
3D0
100
AcDbEntity
  8
0
100
AcDbLine
 62
7
  6
CONTINUOUS
 10
-0.2242873766
 20
18.8168730759
 11
-0.1513863766
 21
17.7115210759
  0
LINE
  5
3D1
100
AcDbEntity
  8
0
100
AcDbLine
 62
7
  6
CONTINUOUS
 10
0.3856966234
 20
7.1095720759
 11
0.3856966234
 21
5.8595720759
  0
LINE
  5
3D2
100
AcDbEntity
  8
0
100
AcDbLine
 62
7
  6
CONTINUOUS
 10
0.4202259727
 20
14.4345720759
 11
0.4202259727
 21
14.6047848216
  0
LINE
  5
3D3
100
AcDbEntity
  8
0
100
AcDbLine
 62
7
  6
CONTINUOUS
 10
0.5058406234
 20
-6.9057829241
 11
0.5058406234
 21
-5.8904279241
  0
LINE
  5
3D4
100
AcDbEntity
  8
0
100
AcDbLine
 62
7
  6
CONTINUOUS
 10
0.5535594649
 20
-14.6356406698
 11
0.5535594649
 21
-14.4654279241
  0
LINE
  5
3D5
100
AcDbEntity
  8
0
100
AcDbLine
 62
7
  6
CONTINUOUS
 10
0.5545596234
 20
7.1095720759
 11
0.5545596234
 21
5.8595720759
  0
LINE
  5
3D6
100
AcDbEntity
  8
0
100
AcDbLine
 62
7
  6
CONTINUOUS
 10
0.6694776234
 20
-7.1404279241
 11
0.6694776234
 21
-5.8904279241
  0
LINE
  5
3D7
100
AcDbEntity
  8
0
100
AcDbLine
 62
7
  6
CONTINUOUS
 10
0.6868925758
 20
15.5579763404
 11
0.6868925758
 21
15.3537209979
  0
LINE
  5
3D8
100
AcDbEntity
  8
0
100
AcDbLine
 62
7
  6
CONTINUOUS
 10
0.8202258773
 20
-14.4654279241
 11
0.8202258773
 21
-15.3505342969
  0
LINE
  5
3D9
100
AcDbEntity
  8
0
100
AcDbLine
 62
7
  6
CONTINUOUS
 10
0.9868926711
 20
-15.1803215513
 11
0.9868926711
 21
-14.6356406698
  0
LINE
  5
3DA
100
AcDbEntity
  8
0
100
AcDbLine
 62
7
  6
CONTINUOUS
 10
1.0202259727
 20
16.0345720759
 11
1.0202259727
 21
15.5579763404
  0
LINE
  5
3DB
100
AcDbEntity
  8
0
100
AcDbLine
 62
7
  6
CONTINUOUS
 10
1.0202259727
 20
15.3537209979
 11
1.0202259727
 21
14.4345720759
  0
LINE
  5
3DC
100
AcDbEntity
  8
0
100
AcDbLine
 62
7
  6
CONTINUOUS
 10
1.2202258773
 20
14.706912469
 11
1.2202258773
 21
15.3537209979
  0
LINE
  5
3DD
100
AcDbEntity
  8
0
100
AcDbLine
 62
7
  6
CONTINUOUS
 10
1.2202258773
 20
15.5579763404
 11
1.2202258773
 21
16.0345720759
  0
LINE
  5
3DE
100
AcDbEntity
  8
0
100
AcDbLine
 62
7
  6
CONTINUOUS
 10
1.2857976234
 20
7.1095720759
 11
1.2857976234
 21
6.9598550759
  0
LINE
  5
3DF
100
AcDbEntity
  8
0
100
AcDbLine
 62
7
  6
CONTINUOUS
 10
1.2979996234
 20
6.0092890759
 11
1.2979996234
 21
5.8595720759
  0
LINE
  5
3E0
100
AcDbEntity
  8
0
100
AcDbLine
 62
7
  6
CONTINUOUS
 10
1.3435666234
 20
18.8168730759
 11
1.3435666234
 21
17.1169080759
  0
LINE
  5
3E1
100
AcDbEntity
  8
0
100
AcDbLine
 62
7
  6
CONTINUOUS
 10
1.3554496234
 20
6.5420430759
 11
1.3554496234
 21
6.3923260759
  0
LINE
  5
3E2
100
AcDbEntity
  8
0
100
AcDbLine
 62
7
  6
CONTINUOUS
 10
1.4441846234
 20
-7.1404279241
 11
1.4441846234
 21
-5.8904279241
  0
LINE
  5
3E3
100
AcDbEntity
  8
0
100
AcDbLine
 62
7
  6
CONTINUOUS
 10
1.6130986234
 20
-7.1404279241
 11
1.6130986234
 21
-5.8904279241
  0
LINE
  5
3E4
100
AcDbEntity
  8
0
100
AcDbLine
 62
7
  6
CONTINUOUS
 10
1.6983946234
 20
18.8168730759
 11
1.6983946234
 21
17.1169080759
  0
LINE
  5
3E5
100
AcDbEntity
  8
0
100
AcDbLine
 62
7
  6
CONTINUOUS
 10
-1.0393113766
 20
-18.8477289241
 11
-0.9627393766
 21
-17.7377499241
  0
LINE
  5
3E6
100
AcDbEntity
  8
0
100
AcDbLine
 62
7
  6
CONTINUOUS
 10
-1.3787663766
 20
-18.8477289241
 11
-1.2252793766
 21
-17.1478659241
  0
LINE
  5
3E7
100
AcDbEntity
  8
DRAFT
100
AcDbLine
 62
7
  6
CONTINUOUS
 10
-8.2880847036
 20
0.0932989437
 11
-8.1131073766
 21
0.1107526793
  0
LWPOLYLINE
  5
3E8
100
AcDbEntity
  8
RACCORDO
100
AcDbPolyline
 62
253
  6
CONTINUOUS
 90
3
 70
0
 10
-9.9451604335
 20
1.5771928929
 10
-9.9403021172
 20
1.5772634286
 10
-9.9357414112
 20
1.5773085641
  0
LINE
  5
3E9
100
AcDbEntity
  8
RACCORDO
100
AcDbLine
 62
253
  6
CONTINUOUS
 10
-9.9357414112
 20
1.5773085641
 11
-9.8826996178
 21
1.5775680804
  0
LINE
  5
3EA
100
AcDbEntity
  8
RACCORDO
100
AcDbLine
 62
7
  6
CONTINUOUS
 10
9.5967764351
 20
1.3020271408
 11
8.0618699505
 21
1.3020271408
  0
LINE
  5
3EB
100
AcDbEntity
  8
RACCORDO
100
AcDbLine
 62
7
  6
CONTINUOUS
 10
-8.2880847036
 20
1.3020271408
 11
-9.8229911882
 21
1.3020271408
  0
LINE
  5
3EC
100
AcDbEntity
  8
DRAFT
100
AcDbLine
 62
7
  6
CONTINUOUS
 10
7.8868926234
 20
1.3369372707
 11
-8.1131073766
 21
1.3369372707
  0
LINE
  5
3ED
100
AcDbEntity
  8
RACCORDO
100
AcDbLine
 62
253
  6
CONTINUOUS
 10
9.5216735522
 20
1.3771300237
 11
-9.7478883053
 21
1.3771300237
  0
LINE
  5
3EE
100
AcDbEntity
  8
RACCORDO
100
AcDbLine
 62
253
  6
CONTINUOUS
 10
-9.8826996178
 20
1.5775680804
 11
-9.7552792674
 21
1.577750355
  0
LINE
  5
3EF
100
AcDbEntity
  8
RACCORDO
100
AcDbLine
 62
253
  6
CONTINUOUS
 10
9.5584474857
 20
1.577725571
 11
9.5799889174
 21
1.5777075765
  0
LINE
  5
3F0
100
AcDbEntity
  8
RACCORDO
100
AcDbLine
 62
253
  6
CONTINUOUS
 10
-9.7552792674
 20
1.577750355
 11
9.5584474857
 21
1.577725571
  0
LINE
  5
3F1
100
AcDbEntity
  8
RACCORDO
100
AcDbLine
 62
253
  6
CONTINUOUS
 10
9.5799889174
 20
1.5777075765
 11
9.6206642043
 21
1.577649435
  0
LINE
  5
3F2
100
AcDbEntity
  8
RACCORDO
100
AcDbLine
 62
253
  6
CONTINUOUS
 10
9.6206642043
 20
1.577649435
 11
9.6937033876
 21
1.5774161125
  0
LINE
  5
3F3
100
AcDbEntity
  8
RACCORDO
100
AcDbLine
 62
253
  6
CONTINUOUS
 10
9.6937033876
 20
1.5774161125
 11
9.7119361593
 21
1.577286073
  0
LWPOLYLINE
  5
3F4
100
AcDbEntity
  8
RACCORDO
100
AcDbPolyline
 62
253
  6
CONTINUOUS
 90
7
 70
0
 10
9.7119361593
 20
1.577286073
 10
9.7175919467
 20
1.5772171864
 10
9.7189443751
 20
1.577193858
 10
9.7200269988
 20
1.577170399
 10
9.720838337
 20
1.5771468417
 10
9.7213772802
 20
1.5771232187
 10
9.7216430912
 20
1.5770995627
  0
LWPOLYLINE
  5
3F5
100
AcDbEntity
  8
RACCORDO
100
AcDbPolyline
 62
253
  6
CONTINUOUS
 90
46
 70
0
 10
-9.7478883053
 20
1.3771300237
 10
-9.7548657892
 20
1.3772539178
 10
-9.7618347754
 20
1.3776211986
 10
-9.7687867766
 20
1.3782314188
 10
-9.7757133261
 20
1.3790838352
 10
-9.7826059882
 20
1.3801774098
 10
-9.7894563686
 20
1.3815108107
 10
-9.7962561243
 20
1.3830824139
 10
-9.8029969741
 20
1.3848903055
 10
-9.8096707086
 20
1.3869322837
 10
-9.8162691999
 20
1.3892058616
 10
-9.8227844119
 20
1.3917082702
 10
-9.8292084099
 20
1.394436462
 10
-9.8355333703
 20
1.3973871144
 10
-9.8417515901
 20
1.4005566338
 10
-9.8478554963
 20
1.4039411602
 10
-9.8538376551
 20
1.4075365716
 10
-9.859690781
 20
1.4113384893
 10
-9.8654077456
 20
1.415342283
 10
-9.8709815864
 20
1.4195430767
 10
-9.8764055151
 20
1.4239357542
 10
-9.8816729261
 20
1.4285149659
 10
-9.8867774044
 20
1.4332751348
 10
-9.8917127333
 20
1.4382104637
 10
-9.8964729022
 20
1.4433149419
 10
-9.9010521139
 20
1.448582353
 10
-9.9054447914
 20
1.4540062817
 10
-9.909645585
 20
1.4595801225
 10
-9.9136493788
 20
1.4652970871
 10
-9.9174512965
 20
1.4711502129
 10
-9.9210467079
 20
1.4771323717
 10
-9.9244312343
 20
1.4832362779
 10
-9.9276007537
 20
1.4894544977
 10
-9.930551406
 20
1.4957794581
 10
-9.9332795978
 20
1.5022034562
 10
-9.9357820065
 20
1.5087186682
 10
-9.9380555844
 20
1.5153171595
 10
-9.9400975625
 20
1.5219908939
 10
-9.9419054541
 20
1.5287317438
 10
-9.9434770574
 20
1.5355314995
 10
-9.9448104582
 20
1.5423818799
 10
-9.9459040328
 20
1.549274542
 10
-9.9467564493
 20
1.5562010915
 10
-9.9473666695
 20
1.5631530926
 10
-9.9477339503
 20
1.5701220788
 10
-9.9478578443
 20
1.5770995627
  0
LINE
  5
3F6
100
AcDbEntity
  8
DRAFT
100
AcDbLine
 62
7
  6
CONTINUOUS
 10
8.0618699505
 20
0.0932989437
 11
7.8868926234
 21
0.1107526793
  0
LINE
  5
3F7
100
AcDbEntity
  8
0
100
AcDbLine
 62
7
  6
CONTINUOUS
 10
5.4589546234
 20
-6.6372939241
 11
4.9871586234
 21
-5.8904279241
  0
LINE
  5
3F8
100
AcDbEntity
  8
0
100
AcDbLine
 62
7
  6
CONTINUOUS
 10
5.5425576234
 20
-6.4911149241
 11
5.1838836234
 21
-5.8904279241
  0
LINE
  5
3F9
100
AcDbEntity
  8
0
100
AcDbLine
 62
7
  6
CONTINUOUS
 10
3.9721976234
 20
-7.1404279241
 11
3.5194776234
 21
-5.8904279241
  0
LINE
  5
3FA
100
AcDbEntity
  8
0
100
AcDbLine
 62
7
  6
CONTINUOUS
 10
3.7876036234
 20
-7.1404279241
 11
3.6639986234
 21
-6.7765989241
  0
LINE
  5
3FB
100
AcDbEntity
  8
0
100
AcDbLine
 62
7
  6
CONTINUOUS
 10
3.6030506234
 20
-6.6268819241
 11
3.4168096234
 21
-6.0717389241
  0
LINE
  5
3FC
100
AcDbEntity
  8
0
100
AcDbLine
 62
7
  6
CONTINUOUS
 10
-3.3524554989
 20
18.7609569104
 11
-3.367387935
 21
18.8168727626
  0
LINE
  5
3FD
100
AcDbEntity
  8
0
100
AcDbLine
 62
7
  6
CONTINUOUS
 10
-3.262866657
 20
18.4189682852
 11
-3.2787846359
 21
18.4788906298
  0
LINE
  5
3FE
100
AcDbEntity
  8
0
100
AcDbLine
 62
7
  6
CONTINUOUS
 10
-3.2787846359
 20
18.4788906298
 11
-3.2990548022
 21
18.5561510049
  0
LINE
  5
3FF
100
AcDbEntity
  8
0
100
AcDbLine
 62
7
  6
CONTINUOUS
 10
-3.3282864862
 20
18.6684508221
 11
-3.3524554989
 21
18.7609569104
  0
LINE
  5
400
100
AcDbEntity
  8
0
100
AcDbLine
 62
7
  6
CONTINUOUS
 10
-3.2990548022
 20
18.5561510049
 11
-3.3282864862
 21
18.6684508221
  0
LWPOLYLINE
  5
401
100
AcDbEntity
  8
0
100
AcDbPolyline
 62
7
  6
CONTINUOUS
 90
46
 70
0
 10
2.7231466416
 20
-17.6400420051
 10
2.7229492363
 20
-17.6333040645
 10
2.7225460674
 20
-17.6265620668
 10
2.7219371348
 20
-17.619816012
 10
2.7211226437
 20
-17.6130494349
 10
2.7201023891
 20
-17.6062788003
 10
2.718875755
 20
-17.5995535041
 10
2.7174398312
 20
-17.5928743921
 10
2.715797528
 20
-17.5862406209
 10
2.7139569605
 20
-17.5796990557
 10
2.7119175132
 20
-17.5732573595
 10
2.7096798016
 20
-17.566907874
 10
2.7072537871
 20
-17.5606744839
 10
2.7046417657
 20
-17.5545689638
 10
2.7018414413
 20
-17.5485795448
 10
2.6988558869
 20
-17.5426947974
 10
2.6956862043
 20
-17.5369119519
 10
2.6923312916
 20
-17.5312337827
 10
2.6887909159
 20
-17.5256571765
 10
2.6850673475
 20
-17.52018023
 10
2.6811583161
 20
-17.5148048508
 10
2.6770567778
 20
-17.5095336414
 10
2.6727678079
 20
-17.5043677543
 10
2.6682863311
 20
-17.4993060411
 10
2.6635900778
 20
-17.494347654
 10
2.6586721519
 20
-17.4894850213
 10
2.6535394494
 20
-17.4847257185
 10
2.6481903891
 20
-17.4800916179
 10
2.6426163713
 20
-17.4755775736
 10
2.6368259957
 20
-17.4711887359
 10
2.6308434802
 20
-17.466962423
 10
2.6246661183
 20
-17.4629001412
 10
2.6182966165
 20
-17.4590003893
 10
2.6117673114
 20
-17.4552959758
 10
2.6050859988
 20
-17.4517936269
 10
2.598244883
 20
-17.4484866217
 10
2.5912529132
 20
-17.4453875989
 10
2.5841039185
 20
-17.4424956121
 10
2.5768040697
 20
-17.4398116125
 10
2.5693808289
 20
-17.4373510848
 10
2.5618286973
 20
-17.435114198
 10
2.5541531736
 20
-17.4331007871
 10
2.5463982164
 20
-17.4313258366
 10
2.5385784785
 20
-17.4297943424
 10
2.530679307
 20
-17.4285013114
 10
2.5227007021
 20
-17.427446745
  0
LWPOLYLINE
  5
402
100
AcDbEntity
  8
0
100
AcDbPolyline
 62
7
  6
CONTINUOUS
 90
70
 70
0
 10
2.4424527979
 20
6.4845720759
 10
2.4422813416
 20
6.4980812287
 10
2.4422876465
 20
6.5115786866
 10
2.4424717124
 20
6.5250644495
 10
2.4428240439
 20
6.5385378239
 10
2.4433541365
 20
6.5519995033
 10
2.4440904767
 20
6.5654515687
 10
2.4450325352
 20
6.5788972577
 10
2.4461808413
 20
6.5923333328
 10
2.4475654692
 20
6.6057521617
 10
2.4491853473
 20
6.619153838
 10
2.4510415472
 20
6.6325382682
 10
2.4531673577
 20
6.6458975395
 10
2.4555703826
 20
6.6592343081
 10
2.4582430181
 20
6.6725459178
 10
2.4611957419
 20
6.6858164875
 10
2.4644446597
 20
6.6990550978
 10
2.4679736657
 20
6.7122526681
 10
2.4717449204
 20
6.7253660751
 10
2.4757688698
 20
6.7384121008
 10
2.4800350679
 20
6.7513739633
 10
2.4844743377
 20
6.7641581937
 10
2.4890644635
 20
6.7767402887
 10
2.4938276611
 20
6.789144752
 10
2.4987614007
 20
6.8013516258
 10
2.5038382211
 20
6.8133439331
 10
2.5090855836
 20
6.8251386513
 10
2.5145833426
 20
6.8367667537
 10
2.5203264649
 20
6.8482319039
 10
2.5263199835
 20
6.8595304387
 10
2.5326588528
 20
6.8706823411
 10
2.5393624396
 20
6.8816887146
 10
2.5464113769
 20
6.892548456
 10
2.5538425178
 20
6.9032782383
 10
2.5616804426
 20
6.913883761
 10
2.569900571
 20
6.9243593249
 10
2.5784660145
 20
6.9347045046
 10
2.587392093
 20
6.944938536
 10
2.5966634867
 20
6.9550421835
 10
2.6061973469
 20
6.9649573148
 10
2.6159937765
 20
6.9747096877
 10
2.6260526726
 20
6.9842735447
 10
2.6362908787
 20
6.9935134812
 10
2.6467207948
 20
7.0024280529
 10
2.6573300208
 20
7.0110187047
 10
2.6679982002
 20
7.0191543653
 10
2.6786848489
 20
7.026778276
 10
2.6894304509
 20
7.0339471961
 10
2.7002361026
 20
7.0407003318
 10
2.7110814248
 20
7.0470202374
 10
2.7219867966
 20
7.052924359
 10
2.733014451
 20
7.0585042399
 10
2.744156687
 20
7.0637718962
 10
2.7554212057
 20
7.0687153121
 10
2.7668933429
 20
7.0733899833
 10
2.7785786968
 20
7.077810715
 10
2.7904716693
 20
7.0819627021
 10
2.8026408014
 20
7.0858570249
 10
2.8151274355
 20
7.0895101621
 10
2.8278902292
 20
7.0929056353
 10
2.8408736968
 20
7.0960050886
 10
2.8541074653
 20
7.0988070257
 10
2.8675619078
 20
7.1013129431
 10
2.8810926569
 20
7.1034889751
 10
2.8947028257
 20
7.1053230098
 10
2.9083893013
 20
7.1068271593
 10
2.9219983774
 20
7.1080038936
 10
2.9354788188
 20
7.1088540361
 10
2.9488818608
 20
7.1093767635
 10
2.9622075035
 20
7.1095720759
  0
LINE
  5
403
100
AcDbEntity
  8
0
100
AcDbLine
 62
7
  6
CONTINUOUS
 10
1.7941646234
 20
-6.0401449241
 11
1.7941646234
 21
-5.8904279241
  0
LINE
  5
404
100
AcDbEntity
  8
0
100
AcDbLine
 62
7
  6
CONTINUOUS
 10
1.8535594649
 20
-15.5207470903
 11
1.8535594649
 21
-15.5888321885
  0
LINE
  5
405
100
AcDbEntity
  8
0
100
AcDbLine
 62
7
  6
CONTINUOUS
 10
1.9030992874
 20
-18.8477286108
 11
1.9030992874
 21
-17.1677258419
  0
LINE
  5
406
100
AcDbEntity
  8
0
100
AcDbLine
 62
7
  6
CONTINUOUS
 10
1.9535594649
 20
-14.6356406698
 11
1.9535594649
 21
-14.4654279241
  0
LINE
  5
407
100
AcDbEntity
  8
0
100
AcDbLine
 62
7
  6
CONTINUOUS
 10
2.0202258773
 20
-15.6228747377
 11
2.0202258773
 21
-15.4867045411
  0
LINE
  5
408
100
AcDbEntity
  8
0
100
AcDbLine
 62
7
  6
CONTINUOUS
 10
2.020225925
 20
15.3537209979
 11
2.020225925
 21
15.5579763404
  0
LINE
  5
409
100
AcDbEntity
  8
0
100
AcDbLine
 62
7
  6
CONTINUOUS
 10
2.0396486234
 20
6.9598550759
 11
2.0396486234
 21
6.5420430759
  0
LINE
  5
40A
100
AcDbEntity
  8
0
100
AcDbLine
 62
7
  6
CONTINUOUS
 10
2.0396486234
 20
6.3923260759
 11
2.0396486234
 21
6.0092890759
  0
LINE
  5
40B
100
AcDbEntity
  8
0
100
AcDbLine
 62
7
  6
CONTINUOUS
 10
2.2085636234
 20
7.1095720759
 11
2.2085636234
 21
5.8595720759
  0
LINE
  5
40C
100
AcDbEntity
  8
0
100
AcDbLine
 62
7
  6
CONTINUOUS
 10
2.2172336234
 20
-7.1404279241
 11
2.2172336234
 21
-6.0401449241
  0
LINE
  5
40D
100
AcDbEntity
  8
0
100
AcDbLine
 62
7
  6
CONTINUOUS
 10
2.2447340551
 20
-17.9040997556
 11
2.2447340551
 21
-17.4374542731
  0
LINE
  5
40E
100
AcDbEntity
  8
0
100
AcDbLine
 62
7
  6
CONTINUOUS
 10
2.2564996194
 20
-18.8477286108
 11
2.2564996194
 21
-18.1824962082
  0
LINE
  5
40F
100
AcDbEntity
  8
0
100
AcDbLine
 62
7
  6
CONTINUOUS
 10
2.2868925758
 20
16.0345720759
 11
2.2868925758
 21
14.4345720759
  0
LINE
  5
410
100
AcDbEntity
  8
0
100
AcDbLine
 62
7
  6
CONTINUOUS
 10
2.2868926711
 20
-14.703725768
 11
2.2868926711
 21
-14.9760662565
  0
LINE
  5
411
100
AcDbEntity
  8
DRAFT
100
AcDbLine
 62
7
  6
CONTINUOUS
 10
2.2935169505
 20
22.2345720759
 11
2.2935169505
 21
20.8045720759
  0
LINE
  5
412
100
AcDbEntity
  8
DRAFT
100
AcDbLine
 62
7
  6
CONTINUOUS
 10
2.2935169505
 20
-22.2654279241
 11
2.2935169505
 21
-20.8354279241
  0
LINE
  5
413
100
AcDbEntity
  8
0
100
AcDbLine
 62
7
  6
CONTINUOUS
 10
2.3860876234
 20
-7.1404279241
 11
2.3860876234
 21
-6.0401449241
  0
LINE
  5
414
100
AcDbEntity
  8
0
100
AcDbLine
 62
7
  6
CONTINUOUS
 10
2.4868926711
 20
-14.7377683172
 11
2.4868926711
 21
-16.0654279241
  0
LINE
  5
415
100
AcDbEntity
  8
0
100
AcDbLine
 62
7
  6
CONTINUOUS
 10
2.4868925758
 20
14.706912469
 11
2.4868925758
 21
16.0345720759
  0
LINE
  5
416
100
AcDbEntity
  8
0
100
AcDbLine
 62
7
  6
CONTINUOUS
 10
2.6868926711
 20
-16.0654279241
 11
2.6868926711
 21
-14.4654279241
  0
LINE
  5
417
100
AcDbEntity
  8
0
100
AcDbLine
 62
7
  6
CONTINUOUS
 10
2.6868925758
 20
14.6728699198
 11
2.6868925758
 21
14.9452104083
  0
LINE
  5
418
100
AcDbEntity
  8
0
100
AcDbLine
 62
7
  6
CONTINUOUS
 10
2.8091566234
 20
-6.0401449241
 11
2.8091566234
 21
-5.8904279241
  0
LINE
  5
419
100
AcDbEntity
  8
0
100
AcDbLine
 62
7
  6
CONTINUOUS
 10
2.8153448062
 20
-18.0542477325
 11
2.8153448062
 21
-18.0442030253
  0
LINE
  5
41A
100
AcDbEntity
  8
0
100
AcDbLine
 62
7
  6
CONTINUOUS
 10
3.3053586234
 20
6.9651120759
 11
3.3053586234
 21
6.0040320759
  0
LWPOLYLINE
  5
41B
100
AcDbEntity
  8
0
100
AcDbPolyline
 62
7
  6
CONTINUOUS
 90
61
 70
0
 10
2.6162107762
 20
6.4845720759
 10
2.6159973829
 20
6.4724951515
 10
2.6159936173
 20
6.4604181074
 10
2.6161994794
 20
6.4483409438
 10
2.6166175913
 20
6.4362581611
 10
2.617245331
 20
6.4241752588
 10
2.6180748318
 20
6.4121087355
 10
2.6191067245
 20
6.4000581123
 10
2.6203403784
 20
6.3880238682
 10
2.6217660344
 20
6.3760239387
 10
2.6233825718
 20
6.364066896
 10
2.6251911113
 20
6.3521441681
 10
2.6271852562
 20
6.3402479739
 10
2.6293580733
 20
6.328385695
 10
2.6317164959
 20
6.31654995
 10
2.634274927
 20
6.3047108129
 10
2.6370235534
 20
6.2928263975
 10
2.6399721883
 20
6.2809385901
 10
2.6431646755
 20
6.2691431238
 10
2.6466203912
 20
6.257399723
 10
2.6503199591
 20
6.2457486635
 10
2.6542490938
 20
6.2344065051
 10
2.6584083404
 20
6.2234404011
 10
2.6627971538
 20
6.2127831987
 10
2.667399613
 20
6.2024499992
 10
2.6722014311
 20
6.1924809555
 10
2.677216895
 20
6.1828359152
 10
2.6824729443
 20
6.173409521
 10
2.6879739999
 20
6.164172638
 10
2.6937156408
 20
6.1551544014
 10
2.6997115435
 20
6.1463368596
 10
2.7059828199
 20
6.1376904457
 10
2.712508358
 20
6.1292447269
 10
2.7192384988
 20
6.1210704527
 10
2.7261637597
 20
6.1131882152
 10
2.7332936233
 20
6.1055774227
 10
2.740606878
 20
6.098247049
 10
2.7480936658
 20
6.0912082298
 10
2.7557638447
 20
6.0844498298
 10
2.7636257762
 20
6.077947416
 10
2.7716739103
 20
6.0716969884
 10
2.779913797
 20
6.0657025473
 10
2.7883704488
 20
6.0599516606
 10
2.7970563157
 20
6.0544323821
 10
2.8059589477
 20
6.0491566581
 10
2.8150660065
 20
6.0441478952
 10
2.8243790116
 20
6.0394087005
 10
2.8338964436
 20
6.0349364671
 10
2.8436014048
 20
6.0307467808
 10
2.8534977333
 20
6.0268391588
 10
2.8635815912
 20
6.0232140841
 10
2.8738245669
 20
6.0198885912
 10
2.884227636
 20
6.0168633123
 10
2.894789823
 20
6.0141376154
 10
2.9054797894
 20
6.0117266391
 10
2.9162979971
 20
6.0096305453
 10
2.9272439842
 20
6.0078491721
 10
2.9382850271
 20
6.0063971733
 10
2.949410218
 20
6.0052794332
 10
2.9606304647
 20
6.0044910674
 10
2.9719457673
 20
6.0040320759
  0
LINE
  5
41C
100
AcDbEntity
  8
0
100
AcDbLine
 62
7
  6
CONTINUOUS
 10
-2.7447953766
 20
-18.3179339241
 11
-2.4108733766
 21
-17.1478659241
  0
LINE
  5
41D
100
AcDbEntity
  8
0
100
AcDbLine
 62
7
  6
CONTINUOUS
 10
-2.6026913766
 20
-18.8477289241
 11
-2.0562873766
 21
-17.1478659241
  0
LINE
  5
41E
100
AcDbEntity
  8
RACCORDO
100
AcDbLine
 62
253
  6
CONTINUOUS
 10
9.6143582791
 20
20.7345720759
 11
9.6370498635
 21
20.8045720759
  0
LINE
  5
41F
100
AcDbEntity
  8
RACCORDO
100
AcDbLine
 62
253
  6
CONTINUOUS
 10
9.8144470477
 20
20.5352291922
 11
9.8368926234
 21
20.6044702939
  0
LINE
  5
420
100
AcDbEntity
  8
0
100
AcDbLine
 62
7
  6
CONTINUOUS
 10
5.4171926234
 20
7.1095720759
 11
5.0655586234
 21
6.0597340759
  0
LINE
  5
421
100
AcDbEntity
  8
0
100
AcDbLine
 62
7
  6
CONTINUOUS
 10
5.4990436234
 20
6.9214700759
 11
5.1421356234
 21
5.8595720759
  0
LINE
  5
422
100
AcDbEntity
  8
0
100
AcDbLine
 62
7
  6
CONTINUOUS
 10
4.5780436234
 20
7.1095720759
 11
4.4474536234
 21
6.7457430759
  0
LINE
  5
423
100
AcDbEntity
  8
0
100
AcDbLine
 62
7
  6
CONTINUOUS
 10
4.3952086234
 20
6.5960260759
 11
4.1931966234
 21
6.0408830759
  0
LINE
  5
424
100
AcDbEntity
  8
0
100
AcDbLine
 62
7
  6
CONTINUOUS
 10
4.7521236234
 20
7.1095720759
 11
4.2820876234
 21
5.8595720759
  0
LINE
  5
425
100
AcDbEntity
  8
DRAFT
100
AcDbLine
 62
7
  6
CONTINUOUS
 10
-8.2880847036
 20
1.3020271408
 11
-8.1131073766
 21
1.3369372707
  0
LWPOLYLINE
  5
426
100
AcDbEntity
  8
RACCORDO
100
AcDbPolyline
 62
253
  6
CONTINUOUS
 90
5
 70
0
 10
-9.9478578443
 20
1.5770995627
 10
-9.9475903542
 20
1.5771180377
 10
-9.9470508508
 20
1.5771431301
 10
-9.9462417519
 20
1.577170399
 10
-9.9451604335
 20
1.5771928929
  0
LINE
  5
427
100
AcDbEntity
  8
DRAFT
100
AcDbLine
 62
7
  6
CONTINUOUS
 10
8.0618699505
 20
1.3020271408
 11
7.8868926234
 21
1.3369372707
  0
LINE
  5
428
100
AcDbEntity
  8
0
100
AcDbLine
 62
7
  6
CONTINUOUS
 10
-0.7059333766
 20
7.1095720759
 11
-0.0669823766
 21
6.0944220759
  0
LINE
  5
429
100
AcDbEntity
  8
0
100
AcDbLine
 62
7
  6
CONTINUOUS
 10
-0.7320553766
 20
6.8749270759
 11
-0.1035173766
 21
5.8595720759
  0
LINE
  5
42A
100
AcDbEntity
  8
0
100
AcDbLine
 62
7
  6
CONTINUOUS
 10
-2.0464406304
 20
15.387763547
 11
-2.0797742181
 21
15.4898912421
  0
LINE
  5
42B
100
AcDbEntity
  8
RACCORDO
100
AcDbLine
 62
253
  6
CONTINUOUS
 10
9.6370498635
 20
-20.8354279241
 11
9.6143582791
 21
-20.7654279241
  0
LINE
  5
42C
100
AcDbEntity
  8
RACCORDO
100
AcDbLine
 62
253
  6
CONTINUOUS
 10
9.8368926234
 20
-20.6353261421
 11
9.8144470477
 21
-20.5660850404
  0
LWPOLYLINE
  5
42D
100
AcDbEntity
  8
0
100
AcDbPolyline
 62
7
  6
CONTINUOUS
 90
5
 70
0
 10
-2.8873264767
 20
18.3499111939
 10
-2.883245836
 20
18.3372829923
 10
-2.8791397285
 20
18.324991212
 10
-2.8750334526
 20
18.3130364328
 10
-2.8709270083
 20
18.3014186713
  0
LINE
  5
42E
100
AcDbEntity
  8
0
100
AcDbLine
 62
7
  6
CONTINUOUS
 10
-2.8998174887
 20
18.3898157125
 11
-2.8873264767
 21
18.3499111939
  0
LINE
  5
42F
100
AcDbEntity
  8
0
100
AcDbLine
 62
7
  6
CONTINUOUS
 10
-2.9130607785
 20
18.432819535
 11
-2.8998174887
 21
18.3898157125
  0
LINE
  5
430
100
AcDbEntity
  8
0
100
AcDbLine
 62
7
  6
CONTINUOUS
 10
-2.9319517467
 20
18.4953634504
 11
-2.9130607785
 21
18.432819535
  0
LINE
  5
431
100
AcDbEntity
  8
0
100
AcDbLine
 62
7
  6
CONTINUOUS
 10
-2.9633630812
 20
18.6014422848
 11
-2.9319517467
 21
18.4953634504
  0
LINE
  5
432
100
AcDbEntity
  8
0
100
AcDbLine
 62
7
  6
CONTINUOUS
 10
-3.0123838981
 20
18.769428277
 11
-2.9633630812
 21
18.6014422848
  0
LINE
  5
433
100
AcDbEntity
  8
0
100
AcDbLine
 62
7
  6
CONTINUOUS
 10
-3.0260845917
 20
18.8168727626
 11
-3.0123838981
 21
18.769428277
  0
LINE
  5
434
100
AcDbEntity
  8
0
100
AcDbLine
 62
7
  6
CONTINUOUS
 10
-1.6511453766
 20
18.8168730759
 11
-1.5592263766
 21
18.4775200759
  0
LINE
  5
435
100
AcDbEntity
  8
0
100
AcDbLine
 62
7
  6
CONTINUOUS
 10
-1.4883133766
 20
18.2149300759
 11
-1.3252653766
 21
17.5840890759
  0
LINE
  5
436
100
AcDbEntity
  8
0
100
AcDbLine
 62
7
  6
CONTINUOUS
 10
3.4742826234
 20
7.1095720759
 11
3.4742826234
 21
5.8595720759
  0
LINE
  5
437
100
AcDbEntity
  8
RACCORDO
100
AcDbLine
 62
253
  6
CONTINUOUS
 10
3.6791575965
 20
-22.1396492538
 11
3.6791575965
 21
-20.6303649071
  0
LINE
  5
438
100
AcDbEntity
  8
RACCORDO
100
AcDbLine
 62
253
  6
CONTINUOUS
 10
3.6791575965
 20
20.5995090589
 11
3.6791575965
 21
22.1087934056
  0
LINE
  5
439
100
AcDbEntity
  8
RACCORDO
100
AcDbLine
 62
253
  6
CONTINUOUS
 10
3.8523626773
 20
-22.1344084759
 11
3.8523626773
 21
-20.618086451
  0
LINE
  5
43A
100
AcDbEntity
  8
RACCORDO
100
AcDbLine
 62
253
  6
CONTINUOUS
 10
3.8523626773
 20
20.5872306028
 11
3.8523626773
 21
22.1035526277
  0
LINE
  5
43B
100
AcDbEntity
  8
0
100
AcDbLine
 62
7
  6
CONTINUOUS
 10
4.1270696234
 20
-7.1404279241
 11
4.1270696234
 21
-5.8904279241
  0
LINE
  5
43C
100
AcDbEntity
  8
0
100
AcDbLine
 62
7
  6
CONTINUOUS
 10
4.2959946234
 20
-6.9907109241
 11
4.2959946234
 21
-5.8904279241
  0
LINE
  5
43D
100
AcDbEntity
  8
0
100
AcDbLine
 62
7
  6
CONTINUOUS
 10
4.9018506234
 20
7.1095720759
 11
4.9018506234
 21
5.8595720759
  0
LINE
  5
43E
100
AcDbEntity
  8
0
100
AcDbLine
 62
7
  6
CONTINUOUS
 10
4.9297386234
 20
-7.1404279241
 11
4.9297386234
 21
-6.9907109241
  0
LINE
  5
43F
100
AcDbEntity
  8
0
100
AcDbLine
 62
7
  6
CONTINUOUS
 10
5.0655586234
 20
7.1095720759
 11
5.0655586234
 21
6.0597340759
  0
LINE
  5
440
100
AcDbEntity
  8
RACCORDO
100
AcDbLine
 62
7
  6
CONTINUOUS
 10
-10.0631073766
 20
-9.0267728522
 11
-9.9492170651
 21
-8.9698320333
  0
LINE
  5
441
100
AcDbEntity
  8
DRAFT
100
AcDbLine
 62
7
  6
CONTINUOUS
 10
9.7967459741
 20
4.0845720759
 11
10.9868926234
 21
4.0845720759
  0
LINE
  5
442
100
AcDbEntity
  8
DRAFT
100
AcDbLine
 62
7
  6
CONTINUOUS
 10
-10.0229607272
 20
4.0845720759
 11
-11.2131073766
 21
4.0845720759
  0
LINE
  5
443
100
AcDbEntity
  8
RACCORDO
100
AcDbLine
 62
7
  6
CONTINUOUS
 10
-10.0631073766
 20
8.995917004
 11
-9.9492170651
 21
8.9389761851
  0
LWPOLYLINE
  5
444
100
AcDbEntity
  8
0
100
AcDbPolyline
 62
7
  6
CONTINUOUS
 90
37
 70
0
 10
-2.8709270083
 20
18.3014186713
 10
-2.8673453128
 20
18.2923475985
 10
-2.8636334148
 20
18.2836447848
 10
-2.8597913145
 20
18.2753102433
 10
-2.8558125834
 20
18.2673568024
 10
-2.8517036499
 20
18.2597716585
 10
-2.8474837987
 20
18.2525163754
 10
-2.8431601685
 20
18.2455938769
 10
-2.8387256207
 20
18.2390012583
 10
-2.8341780243
 20
18.2326913375
 10
-2.8295145863
 20
18.2266560981
 10
-2.8247380998
 20
18.2209035706
 10
-2.8198548122
 20
18.2154106408
 10
-2.8148664512
 20
18.2101791566
 10
-2.8097712892
 20
18.2052072815
 10
-2.804570392
 20
18.2004663729
 10
-2.7992695286
 20
18.1959539501
 10
-2.79386293
 20
18.1916725025
 10
-2.7883343545
 20
18.1876008409
 10
-2.7826732531
 20
18.1837275
 10
-2.7768901747
 20
18.1800639518
 10
-2.7710005247
 20
18.1766234117
 10
-2.7650001634
 20
18.1734089057
 10
-2.7588932303
 20
18.170417414
 10
-2.7527075493
 20
18.167653083
 10
-2.7464515768
 20
18.1651213336
 10
-2.7401168563
 20
18.1628167499
 10
-2.7337058423
 20
18.1607272228
 10
-2.7272169184
 20
18.1588487268
 10
-2.720651701
 20
18.1571852907
 10
-2.7140174931
 20
18.1557368868
 10
-2.7073098165
 20
18.1545006094
 10
-2.7005331494
 20
18.1534793664
 10
-2.69370823
 20
18.1526818503
 10
-2.6868419709
 20
18.1521109587
 10
-2.6799274594
 20
18.1517637952
 10
-2.6729646956
 20
18.15164036
  0
LINE
  5
445
100
AcDbEntity
  8
0
100
AcDbLine
 62
7
  6
CONTINUOUS
 10
-2.2464406304
 20
15.455848693
 11
-2.1797742181
 21
15.2856358996
  0
LINE
  5
446
100
AcDbEntity
  8
0
100
AcDbLine
 62
7
  6
CONTINUOUS
 10
-2.0251193766
 20
18.8168730759
 11
-1.5035593766
 21
17.1170100759
  0
LINE
  5
447
100
AcDbEntity
  8
0
100
AcDbLine
 62
7
  6
CONTINUOUS
 10
5.4589546234
 20
-7.1404279241
 11
5.4589546234
 21
-6.6372939241
  0
LINE
  5
448
100
AcDbEntity
  8
0
100
AcDbLine
 62
7
  6
CONTINUOUS
 10
5.6277776234
 20
-7.1404279241
 11
5.6277776234
 21
-6.6372939241
  0
LINE
  5
449
100
AcDbEntity
  8
0
100
AcDbLine
 62
7
  6
CONTINUOUS
 10
5.9360316234
 20
7.1095720759
 11
5.9360316234
 21
6.0614520759
  0
LINE
  5
44A
100
AcDbEntity
  8
0
100
AcDbLine
 62
7
  6
CONTINUOUS
 10
6.0996736234
 20
7.1095720759
 11
6.0996736234
 21
5.8595720759
  0
LINE
  5
44B
100
AcDbEntity
  8
RACCORDO
100
AcDbLine
 62
253
  6
CONTINUOUS
 10
9.5377020801
 20
20.1936752762
 11
9.6145960209
 21
20.7345720759
  0
LINE
  5
44C
100
AcDbEntity
  8
0
100
AcDbLine
 62
7
  6
CONTINUOUS
 10
0.9223766234
 20
-18.2457859241
 11
1.0990506234
 21
-17.6149449241
  0
LINE
  5
44D
100
AcDbEntity
  8
0
100
AcDbLine
 62
7
  6
CONTINUOUS
 10
0.7518836234
 20
-18.8477289241
 11
0.8497946234
 21
-18.5083759241
  0
LINE
  5
44E
100
AcDbEntity
  8
0
100
AcDbLine
 62
7
  6
CONTINUOUS
 10
0.4009056234
 20
-18.8477289241
 11
0.9340906234
 21
-17.1478659241
  0
LINE
  5
44F
100
AcDbEntity
  8
0
100
AcDbLine
 62
7
  6
CONTINUOUS
 10
1.8535594649
 20
-15.5888321885
 11
1.8202258773
 21
-15.6909598359
  0
LINE
  5
450
100
AcDbEntity
  8
0
100
AcDbLine
 62
7
  6
CONTINUOUS
 10
3.0319726234
 20
-7.1404279241
 11
3.1625736234
 21
-6.7765989241
  0
LINE
  5
451
100
AcDbEntity
  8
0
100
AcDbLine
 62
7
  6
CONTINUOUS
 10
3.2148076234
 20
-6.6268819241
 11
3.4168096234
 21
-6.0717389241
  0
LINE
  5
452
100
AcDbEntity
  8
0
100
AcDbLine
 62
7
  6
CONTINUOUS
 10
2.8579026234
 20
-7.1404279241
 11
3.3279996234
 21
-5.8904279241
  0
LINE
  5
453
100
AcDbEntity
  8
0
100
AcDbLine
 62
7
  6
CONTINUOUS
 10
-0.5196633766
 20
-18.0916349241
 11
-0.1648353766
 21
-17.1478659241
  0
LINE
  5
454
100
AcDbEntity
  8
0
100
AcDbLine
 62
7
  6
CONTINUOUS
 10
-0.4967193766
 20
-18.8477289241
 11
-0.0748283766
 21
-17.7423769241
  0
LINE
  5
455
100
AcDbEntity
  8
0
100
AcDbLine
 62
7
  6
CONTINUOUS
 10
0.3535594649
 20
-14.6356406698
 11
-0.3131073289
 21
-16.0654279241
  0
LINE
  5
456
100
AcDbEntity
  8
0
100
AcDbLine
 62
7
  6
CONTINUOUS
 10
-0.1131073289
 20
-16.0654279241
 11
0.5535594649
 21
-14.6356406698
  0
LWPOLYLINE
  5
457
100
AcDbEntity
  8
0
100
AcDbPolyline
 62
7
  6
CONTINUOUS
 90
61
 70
0
 10
2.9719457673
 20
6.9651120759
 10
2.9606276561
 20
6.964652827
 10
2.9494052795
 20
6.9638642135
 10
2.9382786373
 20
6.9627462355
 10
2.9272369588
 20
6.9612939873
 10
2.9162910148
 20
6.9595123745
 10
2.905473118
 20
6.9574161139
 10
2.8947836875
 20
6.9550050766
 10
2.8842223042
 20
6.9522793914
 10
2.8738200235
 20
6.9492541625
 10
2.8635777699
 20
6.945928769
 10
2.8534946188
 20
6.9423038315
 10
2.8435988524
 20
6.9383963164
 10
2.8338943513
 20
6.9342067561
 10
2.8243772347
 20
6.9297346178
 10
2.8150641425
 20
6.9249952698
 10
2.8059564385
 20
6.919986033
 10
2.7970527588
 20
6.9147095861
 10
2.788365652
 20
6.9091893345
 10
2.7799075504
 20
6.9034371798
 10
2.7716660216
 20
6.89744122
 10
2.7636163165
 20
6.8911891549
 10
2.7557529821
 20
6.8846850466
 10
2.7480814714
 20
6.8779248327
 10
2.7405933947
 20
6.8708840269
 10
2.7332789428
 20
6.8635515694
 10
2.7261479248
 20
6.8559385197
 10
2.7192213778
 20
6.8480535704
 10
2.712489609
 20
6.8398758455
 10
2.7059623111
 20
6.8314262208
 10
2.6996895997
 20
6.8227760164
 10
2.693692571
 20
6.8139545787
 10
2.6879501286
 20
6.8049325611
 10
2.682449099
 20
6.7956932449
 10
2.6771941808
 20
6.7862660877
 10
2.6721806753
 20
6.7766216316
 10
2.6673813128
 20
6.7666547835
 10
2.6627819844
 20
6.7563259868
 10
2.658396799
 20
6.7456747976
 10
2.6542408132
 20
6.7347147919
 10
2.6503143486
 20
6.7233787522
 10
2.6466170836
 20
6.7117338953
 10
2.6431631102
 20
6.6999954494
 10
2.6399716006
 20
6.6882029666
 10
2.6370233825
 20
6.6763168946
 10
2.6342750311
 20
6.6644338053
 10
2.6317168357
 20
6.6525957416
 10
2.6293585069
 20
6.6407606606
 10
2.627185753
 20
6.6288990058
 10
2.6251916839
 20
6.6170036197
 10
2.6233831896
 20
6.6050816597
 10
2.6217666483
 20
6.5931250414
 10
2.6203409147
 20
6.581125053
 10
2.6191071341
 20
6.5690904061
 10
2.6180751204
 20
6.5570391519
 10
2.6172455151
 20
6.5449716366
 10
2.6166176767
 20
6.5328875138
 10
2.6161994947
 20
6.5208037951
 10
2.6159935988
 20
6.5087261512
 10
2.6159973593
 20
6.4966489115
 10
2.6162107762
 20
6.4845720759
  0
LINE
  5
458
100
AcDbEntity
  8
0
100
AcDbLine
 62
7
  6
CONTINUOUS
 10
6.0996736234
 20
5.8595720759
 11
5.8576716234
 21
5.8595720759
  0
LINE
  5
459
100
AcDbEntity
  8
0
100
AcDbLine
 62
7
  6
CONTINUOUS
 10
5.1421356234
 20
5.8595720759
 11
4.9018506234
 21
5.8595720759
  0
LINE
  5
45A
100
AcDbEntity
  8
0
100
AcDbLine
 62
7
  6
CONTINUOUS
 10
4.2820876234
 20
5.8595720759
 11
4.0905486234
 21
5.8595720759
  0
LINE
  5
45B
100
AcDbEntity
  8
0
100
AcDbLine
 62
7
  6
CONTINUOUS
 10
3.4742826234
 20
5.8595720759
 11
2.9623266427
 21
5.8595720759
  0
LINE
  5
45C
100
AcDbEntity
  8
0
100
AcDbLine
 62
7
  6
CONTINUOUS
 10
2.2085636234
 20
5.8595720759
 11
1.2979996234
 21
5.8595720759
  0
LINE
  5
45D
100
AcDbEntity
  8
0
100
AcDbLine
 62
7
  6
CONTINUOUS
 10
0.5545596234
 20
5.8595720759
 11
0.3856966234
 21
5.8595720759
  0
LINE
  5
45E
100
AcDbEntity
  8
0
100
AcDbLine
 62
7
  6
CONTINUOUS
 10
0.0967356234
 20
5.8595720759
 11
-0.1035173766
 21
5.8595720759
  0
LINE
  5
45F
100
AcDbEntity
  8
0
100
AcDbLine
 62
7
  6
CONTINUOUS
 10
-0.7320553766
 20
5.8595720759
 11
-0.8956923766
 21
5.8595720759
  0
LINE
  5
460
100
AcDbEntity
  8
0
100
AcDbLine
 62
7
  6
CONTINUOUS
 10
-1.6703993766
 20
5.8595720759
 11
-1.8393133766
 21
5.8595720759
  0
LINE
  5
461
100
AcDbEntity
  8
0
100
AcDbLine
 62
7
  6
CONTINUOUS
 10
-2.0203793766
 20
5.8595720759
 11
-3.0353713766
 21
5.8595720759
  0
LINE
  5
462
100
AcDbEntity
  8
0
100
AcDbLine
 62
7
  6
CONTINUOUS
 10
-3.5542143766
 20
5.8595720759
 11
-3.7456923766
 21
5.8595720759
  0
LINE
  5
463
100
AcDbEntity
  8
0
100
AcDbLine
 62
7
  6
CONTINUOUS
 10
-4.3532843766
 20
5.8595720759
 11
-4.5222093766
 21
5.8595720759
  0
LINE
  5
464
100
AcDbEntity
  8
0
100
AcDbLine
 62
7
  6
CONTINUOUS
 10
-5.2133733766
 20
5.8595720759
 11
-5.4100983766
 21
5.8595720759
  0
LINE
  5
465
100
AcDbEntity
  8
0
100
AcDbLine
 62
7
  6
CONTINUOUS
 10
-6.1273443766
 20
5.8595720759
 11
-6.3258883766
 21
5.8595720759
  0
LINE
  5
466
100
AcDbEntity
  8
0
100
AcDbLine
 62
7
  6
CONTINUOUS
 10
3.3053586234
 20
6.0040320759
 11
2.9719457673
 21
6.0040320759
  0
LINE
  5
467
100
AcDbEntity
  8
0
100
AcDbLine
 62
7
  6
CONTINUOUS
 10
2.0396486234
 20
6.0092890759
 11
1.2979996234
 21
6.0092890759
  0
LINE
  5
468
100
AcDbEntity
  8
0
100
AcDbLine
 62
7
  6
CONTINUOUS
 10
-2.0203793766
 20
6.0092890759
 11
-2.4434483766
 21
6.0092890759
  0
LINE
  5
469
100
AcDbEntity
  8
0
100
AcDbLine
 62
7
  6
CONTINUOUS
 10
-2.6123023766
 20
6.0092890759
 11
-3.0353713766
 21
6.0092890759
  0
LINE
  5
46A
100
AcDbEntity
  8
0
100
AcDbLine
 62
7
  6
CONTINUOUS
 10
2.0396486234
 20
6.3923260759
 11
1.3554496234
 21
6.3923260759
  0
LINE
  5
46B
100
AcDbEntity
  8
0
100
AcDbLine
 62
7
  6
CONTINUOUS
 10
2.0396486234
 20
6.5420430759
 11
1.3554496234
 21
6.5420430759
  0
LINE
  5
46C
100
AcDbEntity
  8
0
100
AcDbLine
 62
7
  6
CONTINUOUS
 10
4.3952086234
 20
6.5960260759
 11
4.0069656234
 21
6.5960260759
  0
LINE
  5
46D
100
AcDbEntity
  8
0
100
AcDbLine
 62
7
  6
CONTINUOUS
 10
-3.4410223766
 20
6.5960260759
 11
-3.8292653766
 21
6.5960260759
  0
LINE
  5
46E
100
AcDbEntity
  8
0
100
AcDbLine
 62
7
  6
CONTINUOUS
 10
4.4474536234
 20
6.7457430759
 11
3.9460786234
 21
6.7457430759
  0
LINE
  5
46F
100
AcDbEntity
  8
0
100
AcDbLine
 62
7
  6
CONTINUOUS
 10
-3.3887883766
 20
6.7457430759
 11
-3.8902133766
 21
6.7457430759
  0
LWPOLYLINE
  5
470
100
AcDbEntity
  8
0
100
AcDbPolyline
 62
7
  6
CONTINUOUS
 90
70
 70
0
 10
2.9623266427
 20
5.8595720759
 10
2.9490063973
 20
5.8597662686
 10
2.9356068514
 20
5.860287367
 10
2.922128005
 20
5.8611353711
 10
2.9085185005
 20
5.8623092159
 10
2.8948296955
 20
5.8638099663
 10
2.8812156625
 20
5.8656408175
 10
2.8676791659
 20
5.8678140365
 10
2.8542174413
 20
5.8703173562
 10
2.840976268
 20
5.8731171702
 10
2.8279852683
 20
5.8762152156
 10
2.8152148197
 20
5.8796097552
 10
2.802721834
 20
5.883261971
 10
2.790548062
 20
5.8871554245
 10
2.7786517528
 20
5.891306554
 10
2.7669645652
 20
5.8957258567
 10
2.7554923806
 20
5.9003983992
 10
2.7442293176
 20
5.9053391146
 10
2.7330893904
 20
5.9106032996
 10
2.7220651714
 20
5.916178653
 10
2.7111640883
 20
5.9220774758
 10
2.7003224384
 20
5.9283919673
 10
2.6895198016
 20
5.9351392526
 10
2.678776598
 20
5.9423022062
 10
2.6680903854
 20
5.949921651
 10
2.6574199418
 20
5.9580548668
 10
2.6468064894
 20
5.9666445732
 10
2.6363712516
 20
5.9755597526
 10
2.6261266056
 20
5.9848021323
 10
2.6160601743
 20
5.9943699846
 10
2.6062560506
 20
6.0041271101
 10
2.5967145674
 20
6.014047544
 10
2.5874353919
 20
6.0241572508
 10
2.5785016186
 20
6.0343979249
 10
2.5699285679
 20
6.0447502646
 10
2.5617009195
 20
6.0552335714
 10
2.5538558075
 20
6.0658474442
 10
2.5464178588
 20
6.0765862076
 10
2.5393624465
 20
6.0874555367
 10
2.5326528238
 20
6.098472057
 10
2.5263082658
 20
6.1096350772
 10
2.5203094975
 20
6.1209452883
 10
2.5145619471
 20
6.1324213881
 10
2.5090605198
 20
6.1440601087
 10
2.5038103104
 20
6.1558647177
 10
2.4987320318
 20
6.1678637161
 10
2.4937985773
 20
6.1800731811
 10
2.4890370535
 20
6.1924770352
 10
2.4844494939
 20
6.2050555465
 10
2.4800139215
 20
6.2178323644
 10
2.4757523132
 20
6.2307838392
 10
2.4717326332
 20
6.2438192913
 10
2.4679650225
 20
6.2569224339
 10
2.4644393402
 20
6.2701095535
 10
2.4611931273
 20
6.2833388303
 10
2.4582423352
 20
6.2966014231
 10
2.4555710127
 20
6.3099061731
 10
2.4531688468
 20
6.3232377837
 10
2.4510433855
 20
6.3365939434
 10
2.4491870808
 20
6.3499769637
 10
2.4475669761
 20
6.3633784831
 10
2.4461820472
 20
6.376798611
 10
2.4450333183
 20
6.390237238
 10
2.444090906
 20
6.4036856746
 10
2.4433543496
 20
6.4171407589
 10
2.4428241099
 20
6.4306056528
 10
2.442471685
 20
6.4440811519
 10
2.4422875744
 20
6.4575675214
 10
2.4422812787
 20
6.4710644961
 10
2.4424527979
 20
6.4845720759
  0
LWPOLYLINE
  5
471
100
AcDbEntity
  8
RACCORDO
100
AcDbPolyline
 62
7
  6
CONTINUOUS
 90
10
 70
0
 10
-9.9492170651
 20
8.9389761851
 10
-9.9489798463
 20
8.9389161253
 10
-9.9485049575
 20
8.9388562097
 10
-9.9477923987
 20
8.9387964384
 10
-9.946840422
 20
8.9387366979
 10
-9.9456507753
 20
8.9386771018
 10
-9.9442287026
 20
8.9386179902
 10
-9.9425723117
 20
8.9385593862
 10
-9.9406834946
 20
8.9385012668
 10
-9.9362442332
 20
8.9383873728
  0
LINE
  5
472
100
AcDbEntity
  8
0
100
AcDbLine
 62
7
  6
CONTINUOUS
 10
-1.9797742181
 20
15.2856358996
 11
-2.0464406304
 21
15.387763547
  0
LINE
  5
473
100
AcDbEntity
  8
0
100
AcDbLine
 62
7
  6
CONTINUOUS
 10
-1.3131074242
 20
15.762231659
 11
-1.2464406304
 21
15.6260614386
  0
LINE
  5
474
100
AcDbEntity
  8
0
100
AcDbLine
 62
7
  6
CONTINUOUS
 10
-1.0464406304
 20
15.6260614386
 11
-1.1131074242
 21
15.762231659
  0
LINE
  5
475
100
AcDbEntity
  8
0
100
AcDbLine
 62
7
  6
CONTINUOUS
 10
0.2934486234
 20
18.0607790759
 11
0.6445296234
 21
17.1170100759
  0
LINE
  5
476
100
AcDbEntity
  8
0
100
AcDbLine
 62
7
  6
CONTINUOUS
 10
3.6379206234
 20
7.1095720759
 11
4.0905486234
 21
5.8595720759
  0
LINE
  5
477
100
AcDbEntity
  8
0
100
AcDbLine
 62
7
  6
CONTINUOUS
 10
3.8224836234
 20
7.1095720759
 11
3.9460786234
 21
6.7457430759
  0
LINE
  5
478
100
AcDbEntity
  8
0
100
AcDbLine
 62
7
  6
CONTINUOUS
 10
4.0069656234
 20
6.5960260759
 11
4.1931966234
 21
6.0408830759
  0
LINE
  5
479
100
AcDbEntity
  8
RACCORDO
100
AcDbLine
 62
253
  6
CONTINUOUS
 10
9.6145960209
 20
-20.7654279241
 11
9.5377020801
 21
-20.2245311244
  0
LINE
  5
47A
100
AcDbEntity
  8
RACCORDO
100
AcDbLine
 62
253
  6
CONTINUOUS
 10
7.1214225696
 20
22.1035526277
 11
7.1214225696
 21
20.5872306028
  0
LINE
  5
47B
100
AcDbEntity
  8
RACCORDO
100
AcDbLine
 62
253
  6
CONTINUOUS
 10
7.1214225696
 20
-20.618086451
 11
7.1214225696
 21
-22.1344084759
  0
LINE
  5
47C
100
AcDbEntity
  8
RACCORDO
100
AcDbLine
 62
253
  6
CONTINUOUS
 10
7.2946276504
 20
22.1087934056
 11
7.2946276504
 21
20.5995090589
  0
LINE
  5
47D
100
AcDbEntity
  8
RACCORDO
100
AcDbLine
 62
253
  6
CONTINUOUS
 10
7.2946276504
 20
-20.6303649071
 11
7.2946276504
 21
-22.1396492538
  0
LINE
  5
47E
100
AcDbEntity
  8
DRAFT
100
AcDbLine
 62
7
  6
CONTINUOUS
 10
7.8868926234
 20
-0.1416085275
 11
7.8868926234
 21
-1.3677931189
  0
LINE
  5
47F
100
AcDbEntity
  8
DRAFT
100
AcDbLine
 62
7
  6
CONTINUOUS
 10
7.8868926234
 20
0.1107526793
 11
7.8868926234
 21
1.3369372707
  0
LINE
  5
480
100
AcDbEntity
  8
DRAFT
100
AcDbLine
 62
7
  6
CONTINUOUS
 10
8.0618699505
 20
-1.332882989
 11
8.0618699505
 21
-0.1241547919
  0
LINE
  5
481
100
AcDbEntity
  8
DRAFT
100
AcDbLine
 62
7
  6
CONTINUOUS
 10
8.0618699505
 20
0.0932989437
 11
8.0618699505
 21
1.3020271408
  0
LINE
  5
482
100
AcDbEntity
  8
RACCORDO
100
AcDbLine
 62
253
  6
CONTINUOUS
 10
9.7376716184
 20
19.9951660407
 11
9.8144470477
 21
20.5352291922
  0
LINE
  5
483
100
AcDbEntity
  8
0
100
AcDbLine
 62
7
  6
CONTINUOUS
 10
1.9535594649
 20
-15.7930875072
 11
2.0202258773
 21
-15.6228747377
  0
LINE
  5
484
100
AcDbEntity
  8
0
100
AcDbLine
 62
7
  6
CONTINUOUS
 10
5.5425576234
 20
-6.4911149241
 11
5.9011296234
 21
-5.8904279241
  0
LINE
  5
485
100
AcDbEntity
  8
0
100
AcDbLine
 62
7
  6
CONTINUOUS
 10
5.6277776234
 20
-6.6372939241
 11
6.0996736234
 21
-5.8904279241
  0
LINE
  5
486
100
AcDbEntity
  8
0
100
AcDbLine
 62
7
  6
CONTINUOUS
 10
-2.7131073289
 20
-14.4654279241
 11
-2.9131073289
 21
-14.703725768
  0
LINE
  5
487
100
AcDbEntity
  8
0
100
AcDbLine
 62
7
  6
CONTINUOUS
 10
-2.9131073289
 20
-14.9760662565
 11
-2.7131073289
 21
-14.7377683172
  0
LINE
  5
488
100
AcDbEntity
  8
0
100
AcDbLine
 62
7
  6
CONTINUOUS
 10
-1.4464406304
 20
-14.4654279241
 11
-2.2464406781
 21
-15.3845768461
  0
LINE
  5
489
100
AcDbEntity
  8
RACCORDO
100
AcDbLine
 62
253
  6
CONTINUOUS
 10
9.5216735522
 20
-1.4079858719
 11
9.5967764351
 21
-1.332882989
  0
LINE
  5
48A
100
AcDbEntity
  8
RACCORDO
100
AcDbLine
 62
253
  6
CONTINUOUS
 10
9.7216430914
 20
-1.6079554107
 11
9.7967459741
 21
-1.5328525281
  0
LINE
  5
48B
100
AcDbEntity
  8
0
100
AcDbLine
 62
7
  6
CONTINUOUS
 10
2.0396486234
 20
6.9598550759
 11
1.2857976234
 21
6.9598550759
  0
LINE
  5
48C
100
AcDbEntity
  8
0
100
AcDbLine
 62
7
  6
CONTINUOUS
 10
-4.5222093766
 20
6.9598550759
 11
-5.1559533766
 21
6.9598550759
  0
LINE
  5
48D
100
AcDbEntity
  8
0
100
AcDbLine
 62
7
  6
CONTINUOUS
 10
3.3053586234
 20
6.9651120759
 11
2.9719457673
 21
6.9651120759
  0
LINE
  5
48E
100
AcDbEntity
  8
0
100
AcDbLine
 62
7
  6
CONTINUOUS
 10
6.0996736234
 20
7.1095720759
 11
5.9360316234
 21
7.1095720759
  0
LINE
  5
48F
100
AcDbEntity
  8
0
100
AcDbLine
 62
7
  6
CONTINUOUS
 10
5.5843306234
 20
7.1095720759
 11
5.4171926234
 21
7.1095720759
  0
LINE
  5
490
100
AcDbEntity
  8
0
100
AcDbLine
 62
7
  6
CONTINUOUS
 10
5.0655586234
 20
7.1095720759
 11
4.9018506234
 21
7.1095720759
  0
LINE
  5
491
100
AcDbEntity
  8
0
100
AcDbLine
 62
7
  6
CONTINUOUS
 10
4.7521236234
 20
7.1095720759
 11
4.5780436234
 21
7.1095720759
  0
LINE
  5
492
100
AcDbEntity
  8
0
100
AcDbLine
 62
7
  6
CONTINUOUS
 10
3.8224836234
 20
7.1095720759
 11
3.6379206234
 21
7.1095720759
  0
LINE
  5
493
100
AcDbEntity
  8
0
100
AcDbLine
 62
7
  6
CONTINUOUS
 10
3.4742826234
 20
7.1095720759
 11
2.9622075035
 21
7.1095720759
  0
LINE
  5
494
100
AcDbEntity
  8
0
100
AcDbLine
 62
7
  6
CONTINUOUS
 10
2.2085636234
 20
7.1095720759
 11
1.2857976234
 21
7.1095720759
  0
LINE
  5
495
100
AcDbEntity
  8
0
100
AcDbLine
 62
7
  6
CONTINUOUS
 10
0.5545596234
 20
7.1095720759
 11
0.3856966234
 21
7.1095720759
  0
LINE
  5
496
100
AcDbEntity
  8
0
100
AcDbLine
 62
7
  6
CONTINUOUS
 10
0.0967356234
 20
7.1095720759
 11
-0.0669823766
 21
7.1095720759
  0
LINE
  5
497
100
AcDbEntity
  8
0
100
AcDbLine
 62
7
  6
CONTINUOUS
 10
-0.7059333766
 20
7.1095720759
 11
-0.8956923766
 21
7.1095720759
  0
LINE
  5
498
100
AcDbEntity
  8
0
100
AcDbLine
 62
7
  6
CONTINUOUS
 10
-1.6703993766
 20
7.1095720759
 11
-1.8393133766
 21
7.1095720759
  0
LINE
  5
499
100
AcDbEntity
  8
0
100
AcDbLine
 62
7
  6
CONTINUOUS
 10
-2.4434483766
 20
7.1095720759
 11
-2.6123023766
 21
7.1095720759
  0
LINE
  5
49A
100
AcDbEntity
  8
0
100
AcDbLine
 62
7
  6
CONTINUOUS
 10
-3.0841173766
 20
7.1095720759
 11
-3.2581873766
 21
7.1095720759
  0
LINE
  5
49B
100
AcDbEntity
  8
0
100
AcDbLine
 62
7
  6
CONTINUOUS
 10
-4.0138183766
 20
7.1095720759
 11
-4.1984123766
 21
7.1095720759
  0
LINE
  5
49C
100
AcDbEntity
  8
0
100
AcDbLine
 62
7
  6
CONTINUOUS
 10
-4.3532843766
 20
7.1095720759
 11
-5.1559533766
 21
7.1095720759
  0
LINE
  5
49D
100
AcDbEntity
  8
0
100
AcDbLine
 62
7
  6
CONTINUOUS
 10
-5.6851693766
 20
7.1095720759
 11
-5.8539923766
 21
7.1095720759
  0
LINE
  5
49E
100
AcDbEntity
  8
RACCORDO
100
AcDbLine
 62
253
  6
CONTINUOUS
 10
9.5967764351
 20
1.3020271408
 11
9.5216735522
 21
1.3771300237
  0
LINE
  5
49F
100
AcDbEntity
  8
RACCORDO
100
AcDbLine
 62
253
  6
CONTINUOUS
 10
9.7967459741
 20
1.5019966799
 11
9.7216430914
 21
1.5770995626
  0
LINE
  5
4A0
100
AcDbEntity
  8
0
100
AcDbLine
 62
7
  6
CONTINUOUS
 10
-2.1797742181
 20
15.2856358996
 11
-2.0797742181
 21
15.1494657031
  0
LINE
  5
4A1
100
AcDbEntity
  8
0
100
AcDbLine
 62
7
  6
CONTINUOUS
 10
0.3202686234
 20
18.8168730759
 11
0.7365246234
 21
17.7068940759
  0
LINE
  5
4A2
100
AcDbEntity
  8
0
100
AcDbLine
 62
7
  6
CONTINUOUS
 10
5.4990436234
 20
6.9214700759
 11
5.8576716234
 21
5.8595720759
  0
LINE
  5
4A3
100
AcDbEntity
  8
0
100
AcDbLine
 62
7
  6
CONTINUOUS
 10
5.5843306234
 20
7.1095720759
 11
5.9360316234
 21
6.0614520759
  0
LINE
  5
4A4
100
AcDbEntity
  8
0
100
AcDbLine
 62
7
  6
CONTINUOUS
 10
2.6891686234
 20
18.8168730759
 11
3.2280586234
 21
17.1170100759
  0
LINE
  5
4A5
100
AcDbEntity
  8
0
100
AcDbLine
 62
7
  6
CONTINUOUS
 10
2.5185806234
 20
18.2870780759
 11
2.8426056234
 21
17.1170100759
  0
LINE
  5
4A6
100
AcDbEntity
  8
RACCORDO
100
AcDbLine
 62
253
  6
CONTINUOUS
 10
9.8144470477
 20
-20.5660850404
 11
9.7376716184
 21
-20.0260218889
  0
LWPOLYLINE
  5
4A7
100
AcDbEntity
  8
RACCORDO
100
AcDbPolyline
 62
253
  6
CONTINUOUS
 90
3
 70
0
 10
9.5377020506
 20
-20.053607885
 10
9.5368047974
 20
-19.6777887318
 10
9.5359355394
 20
-19.3017529357
  0
LWPOLYLINE
  5
4A8
100
AcDbEntity
  8
RACCORDO
100
AcDbPolyline
 62
253
  6
CONTINUOUS
 90
3
 70
0
 10
9.7376716184
 20
-20.0260218889
 10
9.73677573
 20
-19.6516228536
 10
9.7359077517
 20
-19.2770214206
  0
LINE
  5
4A9
100
AcDbEntity
  8
RACCORDO
100
AcDbLine
 62
253
  6
CONTINUOUS
 10
9.5359355394
 20
-19.3017529357
 11
9.5342809939
 21
-18.549058862
  0
LINE
  5
4AA
100
AcDbEntity
  8
RACCORDO
100
AcDbLine
 62
253
  6
CONTINUOUS
 10
9.7359077517
 20
-19.2770214206
 11
9.734255511
 21
-18.5272044097
  0
LINE
  5
4AB
100
AcDbEntity
  8
RACCORDO
100
AcDbLine
 62
253
  6
CONTINUOUS
 10
9.5342809939
 20
-18.549058862
 11
9.5327384603
 21
-17.7955806164
  0
LINE
  5
4AC
100
AcDbEntity
  8
RACCORDO
100
AcDbLine
 62
253
  6
CONTINUOUS
 10
9.734255511
 20
-18.5272044097
 11
9.7327149401
 21
-17.7765917115
  0
LWPOLYLINE
  5
4AD
100
AcDbEntity
  8
RACCORDO
100
AcDbPolyline
 62
253
  6
CONTINUOUS
 90
3
 70
0
 10
9.5327384603
 20
-17.7955806164
 10
9.5313080979
 20
-17.0413732076
 10
9.5306350174
 20
-16.6640133321
  0
LWPOLYLINE
  5
4AE
100
AcDbEntity
  8
RACCORDO
100
AcDbPolyline
 62
253
  6
CONTINUOUS
 90
3
 70
0
 10
9.7327149401
 20
-17.7765917115
 10
9.7312861885
 20
-17.0252528277
 10
9.7306137826
 20
-16.64933195
  0
LINE
  5
4AF
100
AcDbEntity
  8
RACCORDO
100
AcDbLine
 62
253
  6
CONTINUOUS
 10
9.5306350174
 20
-16.6640133321
 11
9.5293730997
 21
-15.9088157449
  0
LINE
  5
4B0
100
AcDbEntity
  8
RACCORDO
100
AcDbLine
 62
253
  6
CONTINUOUS
 10
9.7306137826
 20
-16.64933195
 11
9.7293529533
 21
-15.8970084763
  0
LINE
  5
4B1
100
AcDbEntity
  8
RACCORDO
100
AcDbLine
 62
253
  6
CONTINUOUS
 10
9.5293730997
 20
-15.9088157449
 11
9.5282236048
 21
-15.153027037
  0
LINE
  5
4B2
100
AcDbEntity
  8
RACCORDO
100
AcDbLine
 62
253
  6
CONTINUOUS
 10
9.7293529533
 20
-15.8970084763
 11
9.7282041974
 21
-15.1441037401
  0
LWPOLYLINE
  5
4B3
100
AcDbEntity
  8
RACCORDO
100
AcDbPolyline
 62
253
  6
CONTINUOUS
 90
3
 70
0
 10
9.5282236048
 20
-15.153027037
 10
9.5271865955
 20
-14.396702354
 10
9.5267103148
 20
-14.0183562035
  0
LWPOLYLINE
  5
4B4
100
AcDbEntity
  8
RACCORDO
100
AcDbPolyline
 62
253
  6
CONTINUOUS
 90
3
 70
0
 10
9.7282041974
 20
-15.1441037401
 10
9.7271675773
 20
-14.3906586722
 10
9.7266913596
 20
-14.0137633596
  0
LINE
  5
4B5
100
AcDbEntity
  8
RACCORDO
100
AcDbLine
 62
253
  6
CONTINUOUS
 10
9.5267103148
 20
-14.0183562035
 11
9.5258421817
 21
-13.2613308327
  0
LINE
  5
4B6
100
AcDbEntity
  8
RACCORDO
100
AcDbLine
 62
253
  6
CONTINUOUS
 10
9.7266913596
 20
-14.0137633596
 11
9.7258230898
 21
-13.2596135334
  0
LINE
  5
4B7
100
AcDbEntity
  8
RACCORDO
100
AcDbLine
 62
253
  6
CONTINUOUS
 10
9.5230311101
 20
-8.9681165705
 11
9.5223680646
 21
-6.5150747485
  0
LINE
  5
4B8
100
AcDbEntity
  8
RACCORDO
100
AcDbLine
 62
253
  6
CONTINUOUS
 10
9.5223680646
 20
-6.5150747485
 11
9.5219155441
 21
-4.0618955078
  0
LINE
  5
4B9
100
AcDbEntity
  8
RACCORDO
100
AcDbLine
 62
253
  6
CONTINUOUS
 10
9.723002312
 20
-8.9698320333
 11
9.722338409
 21
-6.5160084252
  0
LINE
  5
4BA
100
AcDbEntity
  8
RACCORDO
100
AcDbLine
 62
253
  6
CONTINUOUS
 10
9.722338409
 20
-6.5160084252
 11
9.7218853338
 21
-4.0620422947
  0
LINE
  5
4BB
100
AcDbEntity
  8
DRAFT
100
AcDbLine
 62
7
  6
CONTINUOUS
 10
8.6802682964
 20
22.2345720759
 11
8.6802682964
 21
20.8045720759
  0
LINE
  5
4BC
100
AcDbEntity
  8
DRAFT
100
AcDbLine
 62
7
  6
CONTINUOUS
 10
8.6802682964
 20
-22.2654279241
 11
8.6802682964
 21
-20.8354279241
  0
LINE
  5
4BD
100
AcDbEntity
  8
DRAFT
100
AcDbLine
 62
7
  6
CONTINUOUS
 10
9.2368926234
 20
-13.1892786488
 11
9.2368926234
 21
-9.0415771994
  0
LINE
  5
4BE
100
AcDbEntity
  8
DRAFT
100
AcDbLine
 62
7
  6
CONTINUOUS
 10
9.2368926234
 20
9.0107213512
 11
9.2368926234
 21
13.1584228006
  0
LINE
  5
4BF
100
AcDbEntity
  8
RACCORDO
100
AcDbLine
 62
253
  6
CONTINUOUS
 10
9.5219155441
 20
-4.0618955078
 11
9.5216735522
 21
-1.4079858719
  0
LINE
  5
4C0
100
AcDbEntity
  8
RACCORDO
100
AcDbLine
 62
253
  6
CONTINUOUS
 10
9.5377020801
 20
-20.2245311244
 11
9.5377020801
 21
-20.053607885
  0
LINE
  5
4C1
100
AcDbEntity
  8
RACCORDO
100
AcDbLine
 62
253
  6
CONTINUOUS
 10
9.5377020801
 20
20.0227520368
 11
9.5377020801
 21
20.1936752762
  0
LINE
  5
4C2
100
AcDbEntity
  8
RACCORDO
100
AcDbLine
 62
253
  6
CONTINUOUS
 10
9.7218853338
 20
-4.0620422947
 11
9.7216430914
 21
-1.6079554107
  0
LINE
  5
4C3
100
AcDbEntity
  8
RACCORDO
100
AcDbLine
 62
7
  6
CONTINUOUS
 10
9.7967459741
 20
-1.5328525281
 11
9.7967459741
 21
-4.1154279241
  0
LINE
  5
4C4
100
AcDbEntity
  8
RACCORDO
100
AcDbLine
 62
7
  6
CONTINUOUS
 10
9.7967459741
 20
1.5019966799
 11
9.7967459741
 21
4.0845720759
  0
LINE
  5
4C5
100
AcDbEntity
  8
DRAFT
100
AcDbLine
 62
7
  6
CONTINUOUS
 10
9.8368926234
 20
13.1732271478
 11
9.8368926234
 21
13.1614458763
  0
LINE
  5
4C6
100
AcDbEntity
  8
DRAFT
100
AcDbLine
 62
7
  6
CONTINUOUS
 10
9.8368926234
 20
-9.0524857842
 11
9.8368926234
 21
-13.178370064
  0
LINE
  5
4C7
100
AcDbEntity
  8
RACCORDO
100
AcDbLine
 62
7
  6
CONTINUOUS
 10
9.8368926234
 20
-13.204082996
 11
9.8368926234
 21
-20.6353261421
  0
LINE
  5
4C8
100
AcDbEntity
  8
DRAFT
100
AcDbLine
 62
7
  6
CONTINUOUS
 10
9.8368926234
 20
-13.2040829965
 11
9.8368926234
 21
-13.1923017245
  0
LINE
  5
4C9
100
AcDbEntity
  8
DRAFT
100
AcDbLine
 62
7
  6
CONTINUOUS
 10
9.8368926234
 20
-9.0385541237
 11
9.8368926234
 21
-4.1154279241
  0
LINE
  5
4CA
100
AcDbEntity
  8
DRAFT
100
AcDbLine
 62
7
  6
CONTINUOUS
 10
9.8368926234
 20
4.0845720759
 11
9.8368926234
 21
9.0076982755
  0
LINE
  5
4CB
100
AcDbEntity
  8
DRAFT
100
AcDbLine
 62
7
  6
CONTINUOUS
 10
9.8368926234
 20
9.021629936
 11
9.8368926234
 21
13.1475142158
  0
LINE
  5
4CC
100
AcDbEntity
  8
RACCORDO
100
AcDbLine
 62
7
  6
CONTINUOUS
 10
9.8368926234
 20
13.1732271478
 11
9.8368926234
 21
20.6044702939
  0
LINE
  5
4CD
100
AcDbEntity
  8
0
100
AcDbLine
 62
253
  6
CONTINUOUS
 10
10.0469296056
 20
13.1475142158
 11
10.0469296056
 21
9.021629936
  0
LINE
  5
4CE
100
AcDbEntity
  8
0
100
AcDbLine
 62
253
  6
CONTINUOUS
 10
10.0469296056
 20
-13.178370064
 11
10.0469296056
 21
-9.0524857842
  0
LWPOLYLINE
  5
4CF
100
AcDbEntity
  8
RACCORDO
100
AcDbPolyline
 62
253
  6
CONTINUOUS
 90
3
 70
0
 10
9.5216735522
 20
1.3771300237
 10
9.5217308243
 20
2.39551536
 10
9.5223680646
 20
6.4842189003
  0
LWPOLYLINE
  5
4D0
100
AcDbEntity
  8
RACCORDO
100
AcDbPolyline
 62
253
  6
CONTINUOUS
 90
3
 70
0
 10
9.7216430914
 20
1.5770995626
 10
9.721700413
 20
2.3951419409
 10
9.722338409
 20
6.485152577
  0
LINE
  5
4D1
100
AcDbEntity
  8
RACCORDO
100
AcDbLine
 62
253
  6
CONTINUOUS
 10
9.5223680646
 20
6.4842189003
 11
9.5230311101
 21
8.9372607224
  0
LINE
  5
4D2
100
AcDbEntity
  8
RACCORDO
100
AcDbLine
 62
253
  6
CONTINUOUS
 10
9.722338409
 20
6.485152577
 11
9.723002312
 21
8.9389761851
  0
LINE
  5
4D3
100
AcDbEntity
  8
RACCORDO
100
AcDbLine
 62
253
  6
CONTINUOUS
 10
9.5258421817
 20
13.2304749845
 11
9.5276910288
 21
14.744072413
  0
LINE
  5
4D4
100
AcDbEntity
  8
RACCORDO
100
AcDbLine
 62
253
  6
CONTINUOUS
 10
9.7258230898
 20
13.2287576852
 11
9.7276718597
 21
14.7365852248
  0
LINE
  5
4D5
100
AcDbEntity
  8
RACCORDO
100
AcDbLine
 62
253
  6
CONTINUOUS
 10
9.5276910288
 20
14.744072413
 11
9.5299900186
 21
16.255636037
  0
LINE
  5
4D6
100
AcDbEntity
  8
RACCORDO
100
AcDbLine
 62
253
  6
CONTINUOUS
 10
9.7276718597
 20
14.7365852248
 11
9.7299693715
 21
16.2423946973
  0
LINE
  5
4D7
100
AcDbEntity
  8
RACCORDO
100
AcDbLine
 62
253
  6
CONTINUOUS
 10
9.5299900186
 20
16.255636037
 11
9.5320092584
 21
17.3877087662
  0
LINE
  5
4D8
100
AcDbEntity
  8
RACCORDO
100
AcDbLine
 62
253
  6
CONTINUOUS
 10
9.7299693715
 20
16.2423946973
 11
9.7319865873
 21
17.3701571927
  0
LINE
  5
4D9
100
AcDbEntity
  8
RACCORDO
100
AcDbLine
 62
253
  6
CONTINUOUS
 10
9.5320092584
 20
17.3877087662
 11
9.5350942767
 21
18.8946515102
  0
LINE
  5
4DA
100
AcDbEntity
  8
RACCORDO
100
AcDbLine
 62
253
  6
CONTINUOUS
 10
9.7319865873
 20
17.3701571927
 11
9.7350676836
 21
18.8713617417
  0
LINE
  5
4DB
100
AcDbEntity
  8
RACCORDO
100
AcDbLine
 62
253
  6
CONTINUOUS
 10
9.5350942767
 20
18.8946515102
 11
9.5377020506
 21
20.0227520368
  0
LWPOLYLINE
  5
4DC
100
AcDbEntity
  8
RACCORDO
100
AcDbPolyline
 62
253
  6
CONTINUOUS
 90
3
 70
0
 10
9.7350676836
 20
18.8713617417
 10
9.73677573
 20
19.6207670054
 10
9.7376716184
 20
19.9951660407
  0
LWPOLYLINE
  5
4DD
100
AcDbEntity
  8
RACCORDO
100
AcDbPolyline
 62
253
  6
CONTINUOUS
 90
46
 70
0
 10
9.7216430912
 20
1.5770995627
 10
9.721519373
 20
1.5701270742
 10
9.7211525304
 20
1.5631618405
 10
9.7205428815
 20
1.556212342
 10
9.7196909881
 20
1.5492866765
 10
9.7185977861
 20
1.5423936656
 10
9.7172647139
 20
1.5355428235
 10
9.7156934663
 20
1.5287428247
 10
9.7138858876
 20
1.5220016207
 10
9.7118442026
 20
1.5153275287
 10
9.7095709144
 20
1.5087287215
 10
9.7070687795
 20
1.5022131907
 10
9.7043408331
 20
1.4957888433
 10
9.7013903857
 20
1.4894634855
 10
9.6982210364
 20
1.4832448426
 10
9.6948366597
 20
1.477140519
 10
9.6912413874
 20
1.4711579635
 10
9.6874395911
 20
1.4653044474
 10
9.6834358917
 20
1.4595870858
 10
9.6792351597
 20
1.4540128362
 10
9.6748425152
 20
1.4485884954
 10
9.670263313
 20
1.4433206769
 10
9.6655031326
 20
1.4382157993
 10
9.6605677695
 20
1.4332800776
 10
9.6554632335
 20
1.4285195227
 10
9.6501957406
 20
1.4239399322
 10
9.6447717072
 20
1.4195468852
 10
9.6391977408
 20
1.4153457335
 10
9.6334806306
 20
1.4113415946
 10
9.6276273396
 20
1.4075393452
 10
9.6216449969
 20
1.4039436168
 10
9.6155408888
 20
1.400558789
 10
9.60932245
 20
1.3973889846
 10
9.602997255
 20
1.3944380648
 10
9.5965730077
 20
1.3917096241
 10
9.5900575328
 20
1.3892069855
 10
9.5834587661
 20
1.3869331976
 10
9.5767847449
 20
1.3848910299
 10
9.5700435981
 20
1.3830829697
 10
9.5632435369
 20
1.3815112196
 10
9.556392843
 20
1.3801776938
 10
9.5494998611
 20
1.3790840166
 10
9.5425729895
 20
1.3782315206
 10
9.5356206659
 20
1.3776212437
 10
9.5286513573
 20
1.3772539291
 10
9.5216735522
 20
1.3771300237
  0
LINE
  5
4DE
100
AcDbEntity
  8
0
100
AcDbLine
 62
7
  6
CONTINUOUS
 10
-2.0131073289
 20
-15.3845768461
 11
-1.4464406304
 21
-14.7377683172
  0
LINE
  5
4DF
100
AcDbEntity
  8
0
100
AcDbLine
 62
7
  6
CONTINUOUS
 10
-11.2131073766
 20
8.995917004
 11
-10.9693096855
 21
9.0161596728
  0
LWPOLYLINE
  5
4E0
100
AcDbEntity
  8
RACCORDO
100
AcDbPolyline
 62
7
  6
CONTINUOUS
 90
8
 70
0
 10
9.7163575585
 20
8.9385593862
 10
9.7180139494
 20
8.9386179902
 10
9.7194360222
 20
8.9386771018
 10
9.7206256689
 20
8.9387366979
 10
9.7215776456
 20
8.9387964384
 10
9.7222902044
 20
8.9388562097
 10
9.7227650932
 20
8.9389161253
 10
9.723002312
 20
8.9389761851
  0
LINE
  5
4E1
100
AcDbEntity
  8
RACCORDO
100
AcDbLine
 62
7
  6
CONTINUOUS
 10
9.7123584182
 20
8.9384439034
 11
9.7163575585
 21
8.9385593862
  0
LINE
  5
4E2
100
AcDbEntity
  8
RACCORDO
100
AcDbLine
 62
7
  6
CONTINUOUS
 10
9.7074790357
 20
8.9383315983
 11
9.7123584182
 21
8.9384439034
  0
LINE
  5
4E3
100
AcDbEntity
  8
RACCORDO
100
AcDbLine
 62
7
  6
CONTINUOUS
 10
9.6985071514
 20
8.9381689518
 11
9.7074790357
 21
8.9383315983
  0
LINE
  5
4E4
100
AcDbEntity
  8
RACCORDO
100
AcDbLine
 62
7
  6
CONTINUOUS
 10
9.6793576067
 20
8.9379176481
 11
9.6985071514
 21
8.9381689518
  0
LINE
  5
4E5
100
AcDbEntity
  8
DRAFT
100
AcDbLine
 62
7
  6
CONTINUOUS
 10
9.2368926234
 20
9.0163938153
 11
9.8368926234
 21
9.021629936
  0
LINE
  5
4E6
100
AcDbEntity
  8
RACCORDO
100
AcDbLine
 62
7
  6
CONTINUOUS
 10
9.6394527897
 20
8.9375870148
 11
9.6793576067
 21
8.9379176481
  0
LINE
  5
4E7
100
AcDbEntity
  8
DRAFT
100
AcDbLine
 62
7
  6
CONTINUOUS
 10
-9.4631073766
 20
9.0107213512
 11
-10.0631073766
 21
9.0076982755
  0
LINE
  5
4E8
100
AcDbEntity
  8
RACCORDO
100
AcDbLine
 62
7
  6
CONTINUOUS
 10
9.5573371408
 20
8.9372866108
 11
9.6394527897
 21
8.9375870148
  0
LINE
  5
4E9
100
AcDbEntity
  8
RACCORDO
100
AcDbLine
 62
7
  6
CONTINUOUS
 10
9.5230311101
 20
8.9372607224
 11
9.5573371408
 21
8.9372866108
  0
LINE
  5
4EA
100
AcDbEntity
  8
DRAFT
100
AcDbLine
 62
7
  6
CONTINUOUS
 10
10.9868926234
 20
8.995917004
 11
9.8368926234
 21
8.995917004
  0
LINE
  5
4EB
100
AcDbEntity
  8
DRAFT
100
AcDbLine
 62
7
  6
CONTINUOUS
 10
-10.0631073766
 20
8.995917004
 11
-11.2131073766
 21
8.995917004
  0
LINE
  5
4EC
100
AcDbEntity
  8
0
100
AcDbLine
 62
7
  6
CONTINUOUS
 10
-10.2731443587
 20
9.021629936
 11
-10.0631073766
 21
9.021629936
  0
LINE
  5
4ED
100
AcDbEntity
  8
0
100
AcDbLine
 62
7
  6
CONTINUOUS
 10
9.8368926234
 20
9.021629936
 11
10.0469296056
 21
9.021629936
  0
LINE
  5
4EE
100
AcDbEntity
  8
DRAFT
100
AcDbLine
 62
253
  6
CONTINUOUS
 10
-9.4631073766
 20
9.5483367671
 11
9.2368926234
 21
9.5483367671
  0
LINE
  5
4EF
100
AcDbEntity
  8
RACCORDO
100
AcDbLine
 62
7
  6
CONTINUOUS
 10
-9.8421055125
 20
8.9374603198
 11
-9.7492458633
 21
8.9372607224
  0
LINE
  5
4F0
100
AcDbEntity
  8
DRAFT
100
AcDbLine
 62
7
  6
CONTINUOUS
 10
9.8368926234
 20
9.0076982755
 11
9.2368926234
 21
9.0107213512
  0
LINE
  5
4F1
100
AcDbEntity
  8
RACCORDO
100
AcDbLine
 62
7
  6
CONTINUOUS
 10
-9.8918489791
 20
8.937782475
 11
-9.8421055125
 21
8.9374603198
  0
LINE
  5
4F2
100
AcDbEntity
  8
DRAFT
100
AcDbLine
 62
7
  6
CONTINUOUS
 10
-10.0631073766
 20
9.021629936
 11
-9.4631073766
 21
9.0163938153
  0
LINE
  5
4F3
100
AcDbEntity
  8
RACCORDO
100
AcDbLine
 62
7
  6
CONTINUOUS
 10
-9.9176681818
 20
8.9380650786
 11
-9.8918489791
 21
8.937782475
  0
LINE
  5
4F4
100
AcDbEntity
  8
RACCORDO
100
AcDbLine
 62
7
  6
CONTINUOUS
 10
-9.9309240833
 20
8.9382766219
 11
-9.9176681818
 21
8.9380650786
  0
LINE
  5
4F5
100
AcDbEntity
  8
RACCORDO
100
AcDbLine
 62
7
  6
CONTINUOUS
 10
-9.9362442332
 20
8.9383873728
 11
-9.9309240833
 21
8.9382766219
  0
LINE
  5
4F6
100
AcDbEntity
  8
0
100
AcDbLine
 62
7
  6
CONTINUOUS
 10
10.7430949324
 20
9.0161596728
 11
10.9868926234
 21
8.995917004
  0
LINE
  5
4F7
100
AcDbEntity
  8
0
100
AcDbLine
 62
7
  6
CONTINUOUS
 10
-1.1131074242
 20
15.762231659
 11
-1.2131074242
 21
15.8984018674
  0
LWPOLYLINE
  5
4F8
100
AcDbEntity
  8
RACCORDO
100
AcDbPolyline
 62
7
  6
CONTINUOUS
 90
52
 70
0
 10
9.8144470477
 20
20.5352291922
 10
9.8143428784
 20
20.541364445
 10
9.8140493669
 20
20.5474933837
 10
9.8135668368
 20
20.5536102287
 10
9.812895797
 20
20.5597092112
 10
9.8120369232
 20
20.5657845864
 10
9.8109910486
 20
20.5718306374
 10
9.8097592008
 20
20.5778416696
 10
9.8083425834
 20
20.5838120233
 10
9.8067425429
 20
20.5897360825
 10
9.8049606233
 20
20.5956082709
 10
9.8029985407
 20
20.6014230624
 10
9.8008581436
 20
20.6071749886
 10
9.7985414792
 20
20.6128586363
 10
9.7960507619
 20
20.6184686586
 10
9.793388327
 20
20.6239997785
 10
9.7905567081
 20
20.6294467907
 10
9.7875585994
 20
20.6348045706
 10
9.7843968038
 20
20.6400680767
 10
9.7810743205
 20
20.6452323537
 10
9.7775943012
 20
20.6502925414
 10
9.7739599941
 20
20.6552438746
 10
9.7701748391
 20
20.6600816888
 10
9.7662424199
 20
20.6648014281
 10
9.7621664033
 20
20.669398643
 10
9.7579506421
 20
20.6738689978
 10
9.7535991224
 20
20.6782082787
 10
9.7491158998
 20
20.6824123887
 10
9.7445052085
 20
20.6864773568
 10
9.7397714047
 20
20.6903993456
 10
9.7349188994
 20
20.6941746451
 10
9.7299522738
 20
20.6977996817
 10
9.7248762183
 20
20.7012710263
 10
9.7196954637
 20
20.7045853866
 10
9.7144149004
 20
20.7077396164
 10
9.7090395152
 20
20.7107307232
 10
9.703574319
 20
20.7135558604
 10
9.6980244724
 20
20.716212335
 10
9.6923952173
 20
20.7186976163
 10
9.6866918036
 20
20.7210093275
 10
9.6809196192
 20
20.7231452515
 10
9.6750841186
 20
20.7251033409
 10
9.6691907476
 20
20.7268817084
 10
9.6632450775
 20
20.7284786318
 10
9.6572527309
 20
20.729892564
 10
9.6512193039
 20
20.7311221238
 10
9.6451461549
 20
20.7321667661
 10
9.6390433422
 20
20.7330245236
 10
9.6329297314
 20
20.7336933298
 10
9.6268155976
 20
20.7341734304
 10
9.6207024345
 20
20.7344660553
 10
9.6145960209
 20
20.7345720759
  0
LINE
  5
4F9
100
AcDbEntity
  8
0
100
AcDbLine
 62
253
  6
CONTINUOUS
 10
10.7430949324
 20
13.152984479
 11
10.7430949324
 21
9.0161596728
  0
LINE
  5
4FA
100
AcDbEntity
  8
0
100
AcDbLine
 62
253
  6
CONTINUOUS
 10
10.7430949324
 20
-13.1838403272
 11
10.7430949324
 21
-9.047015521
  0
LINE
  5
4FB
100
AcDbEntity
  8
RACCORDO
100
AcDbLine
 62
7
  6
CONTINUOUS
 10
10.9467459741
 20
-0.3241319466
 11
10.9467459741
 21
-4.1154279241
  0
LINE
  5
4FC
100
AcDbEntity
  8
RACCORDO
100
AcDbLine
 62
7
  6
CONTINUOUS
 10
10.9467459741
 20
0.2932760984
 11
10.9467459741
 21
4.0845720759
  0
LINE
  5
4FD
100
AcDbEntity
  8
DRAFT
100
AcDbLine
 62
7
  6
CONTINUOUS
 10
10.9868926234
 20
-4.1154279241
 11
10.9868926234
 21
-13.204082996
  0
LINE
  5
4FE
100
AcDbEntity
  8
RACCORDO
100
AcDbLine
 62
7
  6
CONTINUOUS
 10
10.9868926234
 20
-13.204082996
 11
10.9868926234
 21
-21.765199072
  0
LINE
  5
4FF
100
AcDbEntity
  8
DRAFT
100
AcDbLine
 62
7
  6
CONTINUOUS
 10
10.9868926234
 20
4.0845720759
 11
10.9868926234
 21
13.1732271478
  0
LINE
  5
500
100
AcDbEntity
  8
RACCORDO
100
AcDbLine
 62
7
  6
CONTINUOUS
 10
10.9868926234
 20
13.1732271478
 11
10.9868926234
 21
21.7343432238
  0
LWPOLYLINE
  5
501
100
AcDbEntity
  8
RACCORDO
100
AcDbPolyline
 62
7
  6
CONTINUOUS
 90
52
 70
0
 10
9.8144470477
 20
-20.5660850404
 10
9.8143431757
 20
-20.5722107044
 10
9.8140504962
 20
-20.5783312084
 10
9.8135692261
 20
-20.5844407573
 10
9.8128997551
 20
-20.5905335731
 10
9.8120426613
 20
-20.5966038711
 10
9.8109987178
 20
-20.6026458657
 10
9.8097688585
 20
-20.6086538263
 10
9.8083541937
 20
-20.6146220507
 10
9.8067560368
 20
-20.6205448424
 10
9.8049758529
 20
-20.6264165778
 10
9.8030152806
 20
-20.6322316782
 10
9.800876163
 20
-20.6379845868
 10
9.7985604851
 20
-20.6436698369
 10
9.7960703998
 20
-20.6492820224
 10
9.7934082654
 20
-20.6548157751
 10
9.7905765697
 20
-20.6602658334
 10
9.7875779623
 20
-20.6656270122
 10
9.7844152965
 20
-20.6708941798
 10
9.781091542
 20
-20.6760623266
 10
9.777609822
 20
-20.6811265341
 10
9.773973461
 20
-20.6860819527
 10
9.7701858847
 20
-20.6909238693
 10
9.7662506633
 20
-20.6956476758
 10
9.7621715633
 20
-20.7002488482
 10
9.7579524371
 20
-20.7047230117
 10
9.7535972703
 20
-20.7090659096
 10
9.7491102388
 20
-20.7132733842
 10
9.7444955877
 20
-20.7173414379
 10
9.7397576831
 20
-20.7212662034
 10
9.7349010736
 20
-20.7250439264
 10
9.7299303594
 20
-20.7286710221
 10
9.7248502488
 20
-20.7321440467
 10
9.7196656225
 20
-20.7354596831
 10
9.7143813955
 20
-20.7386147909
 10
9.7090025764
 20
-20.7416063804
 10
9.7035343346
 20
-20.7444316013
 10
9.6979818563
 20
-20.7470877851
 10
9.6923504061
 20
-20.7495724228
 10
9.6866453953
 20
-20.7518831557
 10
9.6808722353
 20
-20.7540178111
 10
9.6750364
 20
-20.755974382
 10
9.6691434944
 20
-20.7577510222
 10
9.6631991072
 20
-20.759346073
 10
9.6572088729
 20
-20.7607580469
 10
9.6511785397
 20
-20.7619856258
 10
9.6451181741
 20
-20.7630270031
 10
9.6390292088
 20
-20.7638821671
 10
9.6329043211
 20
-20.7645515626
 10
9.6267448253
 20
-20.7650336544
 10
9.6205608543
 20
-20.7653262628
 10
9.6143582791
 20
-20.7654279241
  0
LWPOLYLINE
  5
502
100
AcDbEntity
  8
RACCORDO
100
AcDbPolyline
 62
253
  6
CONTINUOUS
 90
46
 70
0
 10
9.7376716191
 20
-20.0260218941
 10
9.737535551
 20
-20.0329339193
 10
9.7371570187
 20
-20.0398391074
 10
9.7365363186
 20
-20.0467290716
 10
9.7356739759
 20
-20.0535958935
 10
9.7345709097
 20
-20.0604307507
 10
9.7332285928
 20
-20.0672239529
 10
9.7316487429
 20
-20.073966835
 10
9.7298331892
 20
-20.0806516132
 10
9.7277841631
 20
-20.0872700344
 10
9.7255041705
 20
-20.0938140045
 10
9.7229959642
 20
-20.100275623
 10
9.720262577
 20
-20.1066470646
 10
9.7173073104
 20
-20.1129206144
 10
9.7141337625
 20
-20.1190886157
 10
9.7107458196
 20
-20.1251435107
 10
9.7071476167
 20
-20.1310779152
 10
9.7033435124
 20
-20.1368846464
 10
9.6993381153
 20
-20.1425566696
 10
9.695136283
 20
-20.1480871021
 10
9.6907431282
 20
-20.1534692114
 10
9.6861639985
 20
-20.158696445
 10
9.681404463
 20
-20.1637624462
 10
9.6764703015
 20
-20.168661064
 10
9.6713675065
 20
-20.1733863488
 10
9.666102277
 20
-20.1779325597
 10
9.6606810128
 20
-20.1822941702
 10
9.6551103035
 20
-20.1864658785
 10
9.6493969195
 20
-20.1904426144
 10
9.643547803
 20
-20.194219546
 10
9.6375700616
 20
-20.1977920834
 10
9.6314709592
 20
-20.2011558855
 10
9.6252579077
 20
-20.2043068642
 10
9.6189384575
 20
-20.2072411902
 10
9.612520288
 20
-20.2099552979
 10
9.6060111985
 20
-20.2124458888
 10
9.5994190999
 20
-20.214709936
 10
9.5927520028
 20
-20.2167446885
 10
9.5860180092
 20
-20.2185476734
 10
9.5792253033
 20
-20.2201166997
 10
9.5723821405
 20
-20.2214498607
 10
9.5654968358
 20
-20.2225455366
 10
9.5585777551
 20
-20.2234023964
 10
9.5516333059
 20
-20.2240193988
 10
9.5446719278
 20
-20.2243957939
 10
9.5377020801
 20
-20.2245311244
  0
LINE
  5
503
100
AcDbEntity
  8
0
100
AcDbLine
 62
7
  6
CONTINUOUS
 10
1.8202258773
 20
-15.6909598359
 11
1.7535594649
 21
-15.7930875072
  0
LINE
  5
504
100
AcDbEntity
  8
0
100
AcDbLine
 62
7
  6
CONTINUOUS
 10
1.8535594649
 20
-15.9292577156
 11
1.9535594649
 21
-15.7930875072
  0
LINE
  5
505
100
AcDbEntity
  8
0
100
AcDbLine
 62
7
  6
CONTINUOUS
 10
2.4868926711
 20
-14.4654279241
 11
2.2868926711
 21
-14.703725768
  0
LINE
  5
506
100
AcDbEntity
  8
0
100
AcDbLine
 62
7
  6
CONTINUOUS
 10
2.2868926711
 20
-14.9760662565
 11
2.4868926711
 21
-14.7377683172
  0
LINE
  5
507
100
AcDbEntity
  8
0
100
AcDbLine
 62
7
  6
CONTINUOUS
 10
-1.8797742181
 20
15.2175508013
 11
-1.9797742181
 21
15.2856358996
  0
LINE
  5
508
100
AcDbEntity
  8
0
100
AcDbLine
 62
7
  6
CONTINUOUS
 10
1.0535594649
 20
-15.3505342969
 11
1.1868926711
 21
-15.2484066495
  0
LINE
  5
509
100
AcDbEntity
  8
0
100
AcDbLine
 62
7
  6
CONTINUOUS
 10
10.7430949324
 20
13.152984479
 11
10.9868926234
 21
13.1732271478
  0
LINE
  5
50A
100
AcDbEntity
  8
RACCORDO
100
AcDbLine
 62
7
  6
CONTINUOUS
 10
-9.936497411
 20
13.2294032767
 11
-9.9413816174
 21
13.229290812
  0
LINE
  5
50B
100
AcDbEntity
  8
RACCORDO
100
AcDbLine
 62
7
  6
CONTINUOUS
 10
-9.9275174844
 20
13.2295661408
 11
-9.936497411
 21
13.2294032767
  0
LINE
  5
50C
100
AcDbEntity
  8
RACCORDO
100
AcDbLine
 62
7
  6
CONTINUOUS
 10
-9.9083548846
 20
13.2298177302
 11
-9.9275174844
 21
13.2295661408
  0
LINE
  5
50D
100
AcDbEntity
  8
DRAFT
100
AcDbLine
 62
7
  6
CONTINUOUS
 10
-10.0631073766
 20
13.1475142158
 11
-9.4631073766
 21
13.1527503365
  0
LINE
  5
50E
100
AcDbEntity
  8
RACCORDO
100
AcDbLine
 62
7
  6
CONTINUOUS
 10
-9.8684381392
 20
13.2301486183
 11
-9.9083548846
 21
13.2298177302
  0
LINE
  5
50F
100
AcDbEntity
  8
DRAFT
100
AcDbLine
 62
7
  6
CONTINUOUS
 10
9.8368926234
 20
13.1614458763
 11
9.2368926234
 21
13.1584228006
  0
LINE
  5
510
100
AcDbEntity
  8
RACCORDO
100
AcDbLine
 62
7
  6
CONTINUOUS
 10
-9.78634345
 20
13.2304490991
 11
-9.8684381392
 21
13.2301486183
  0
LINE
  5
511
100
AcDbEntity
  8
RACCORDO
100
AcDbLine
 62
7
  6
CONTINUOUS
 10
-9.7520569348
 20
13.2304749845
 11
-9.78634345
 21
13.2304490991
  0
LINE
  5
512
100
AcDbEntity
  8
0
100
AcDbLine
 62
7
  6
CONTINUOUS
 10
-10.2731443587
 20
13.1475142158
 11
-10.0631073766
 21
13.1475142158
  0
LINE
  5
513
100
AcDbEntity
  8
0
100
AcDbLine
 62
7
  6
CONTINUOUS
 10
9.8368926234
 20
13.1475142158
 11
10.0469296056
 21
13.1475142158
  0
LINE
  5
514
100
AcDbEntity
  8
DRAFT
100
AcDbLine
 62
7
  6
CONTINUOUS
 10
10.9868926234
 20
13.1732271478
 11
9.8368926234
 21
13.1732271478
  0
LINE
  5
515
100
AcDbEntity
  8
DRAFT
100
AcDbLine
 62
7
  6
CONTINUOUS
 10
-10.0631073766
 20
13.1732271478
 11
-11.2131073766
 21
13.1732271478
  0
LINE
  5
516
100
AcDbEntity
  8
RACCORDO
100
AcDbLine
 62
7
  6
CONTINUOUS
 10
9.6186624326
 20
13.2302753659
 11
9.5258421817
 21
13.2304749845
  0
LINE
  5
517
100
AcDbEntity
  8
DRAFT
100
AcDbLine
 62
7
  6
CONTINUOUS
 10
-9.4631073766
 20
13.1584228006
 11
-10.0631073766
 21
13.1614458763
  0
LINE
  5
518
100
AcDbEntity
  8
RACCORDO
100
AcDbLine
 62
7
  6
CONTINUOUS
 10
9.6684105995
 20
13.229953025
 11
9.6186624326
 21
13.2302753659
  0
LINE
  5
519
100
AcDbEntity
  8
DRAFT
100
AcDbLine
 62
7
  6
CONTINUOUS
 10
9.2368926234
 20
13.1527503365
 11
9.8368926234
 21
13.1475142158
  0
LINE
  5
51A
100
AcDbEntity
  8
RACCORDO
100
AcDbLine
 62
7
  6
CONTINUOUS
 10
9.694243552
 20
13.2296701408
 11
9.6684105995
 21
13.229953025
  0
LINE
  5
51B
100
AcDbEntity
  8
RACCORDO
100
AcDbLine
 62
7
  6
CONTINUOUS
 10
9.7075103787
 20
13.2294583285
 11
9.694243552
 21
13.2296701408
  0
LWPOLYLINE
  5
51C
100
AcDbEntity
  8
RACCORDO
100
AcDbPolyline
 62
7
  6
CONTINUOUS
 90
3
 70
0
 10
9.7151668643
 20
13.229290812
 10
9.7128355851
 20
13.2293474239
 10
9.7075103787
 20
13.2294583285
  0
LINE
  5
51D
100
AcDbEntity
  8
0
100
AcDbLine
 62
7
  6
CONTINUOUS
 10
-11.2131073766
 20
13.1732271478
 11
-10.9693096855
 21
13.152984479
  0
LINE
  5
51E
100
AcDbEntity
  8
0
100
AcDbLine
 62
7
  6
CONTINUOUS
 10
-2.0797742181
 20
15.1494657031
 11
-1.9131074242
 21
15.0473380557
  0
LINE
  5
51F
100
AcDbEntity
  8
0
100
AcDbLine
 62
7
  6
CONTINUOUS
 10
-1.2131074242
 20
15.8984018674
 11
-1.3797742181
 21
16.0005295238
  0
LINE
  5
520
100
AcDbEntity
  8
0
100
AcDbLine
 62
7
  6
CONTINUOUS
 10
-1.4131074242
 20
15.8303167573
 11
-1.3131074242
 21
15.762231659
  0
LINE
  5
521
100
AcDbEntity
  8
0
100
AcDbLine
 62
7
  6
CONTINUOUS
 10
1.7535594649
 20
-15.7930875072
 11
1.6535594649
 21
-15.8611726055
  0
LINE
  5
522
100
AcDbEntity
  8
0
100
AcDbLine
 62
7
  6
CONTINUOUS
 10
1.1535594649
 20
-15.0781939039
 11
0.9868926711
 21
-15.1803215513
  0
LINE
  5
523
100
AcDbEntity
  8
0
100
AcDbLine
 62
7
  6
CONTINUOUS
 10
1.6868926711
 20
-16.031385372
 11
1.8535594649
 21
-15.9292577156
  0
LINE
  5
524
100
AcDbEntity
  8
0
100
AcDbLine
 62
7
  6
CONTINUOUS
 10
-1.4131074242
 20
15.2175508013
 11
-1.5464406304
 21
15.1835082522
  0
LINE
  5
525
100
AcDbEntity
  8
0
100
AcDbLine
 62
7
  6
CONTINUOUS
 10
-1.5464406304
 20
15.0132955065
 11
-1.3797742181
 21
15.0473380557
  0
LWPOLYLINE
  5
526
100
AcDbEntity
  8
RACCORDO
100
AcDbPolyline
 62
7
  6
CONTINUOUS
 90
8
 70
0
 10
-9.9453850224
 20
13.2291751575
 10
-9.9470432706
 20
13.2291164636
 10
-9.9484669952
 20
13.2290572595
 10
-9.9496580897
 20
13.2289975684
 10
-9.9506112519
 20
13.2289377312
 10
-9.9513247145
 20
13.2288778619
 10
-9.9518002448
 20
13.2288178465
 10
-9.9520378429
 20
13.2287576852
  0
LINE
  5
527
100
AcDbEntity
  8
RACCORDO
100
AcDbLine
 62
7
  6
CONTINUOUS
 10
-9.9413816174
 20
13.229290812
 11
-9.9453850224
 21
13.2291751575
  0
LINE
  5
528
100
AcDbEntity
  8
0
100
AcDbLine
 62
7
  6
CONTINUOUS
 10
-2.9131074242
 20
14.4345720759
 11
-2.7131074242
 21
14.4345720759
  0
LINE
  5
529
100
AcDbEntity
  8
0
100
AcDbLine
 62
7
  6
CONTINUOUS
 10
-2.1797742181
 20
14.4345720759
 11
-1.0464406304
 21
14.4345720759
  0
LINE
  5
52A
100
AcDbEntity
  8
0
100
AcDbLine
 62
7
  6
CONTINUOUS
 10
-0.7797742181
 20
14.4345720759
 11
0.4202259727
 21
14.4345720759
  0
LINE
  5
52B
100
AcDbEntity
  8
0
100
AcDbLine
 62
7
  6
CONTINUOUS
 10
1.0202259727
 20
14.4345720759
 11
1.2202258773
 21
14.4345720759
  0
LINE
  5
52C
100
AcDbEntity
  8
0
100
AcDbLine
 62
7
  6
CONTINUOUS
 10
2.2868925758
 20
14.4345720759
 11
2.4868925758
 21
14.4345720759
  0
LINE
  5
52D
100
AcDbEntity
  8
0
100
AcDbLine
 62
7
  6
CONTINUOUS
 10
0.4202259727
 20
14.6047848216
 11
-0.5797742181
 21
14.6047848216
  0
LINE
  5
52E
100
AcDbEntity
  8
0
100
AcDbLine
 62
7
  6
CONTINUOUS
 10
-1.2131074242
 20
14.6047848216
 11
-2.1797742181
 21
14.6047848216
  0
LINE
  5
52F
100
AcDbEntity
  8
0
100
AcDbLine
 62
7
  6
CONTINUOUS
 10
-1.7464406304
 20
15.0132955065
 11
-1.5464406304
 21
15.0132955065
  0
LINE
  5
530
100
AcDbEntity
  8
0
100
AcDbLine
 62
7
  6
CONTINUOUS
 10
-1.9131074242
 20
15.0473380557
 11
-1.7464406304
 21
15.0132955065
  0
LINE
  5
531
100
AcDbEntity
  8
0
100
AcDbLine
 62
7
  6
CONTINUOUS
 10
-1.7464406304
 20
15.1835082522
 11
-1.8797742181
 21
15.2175508013
  0
LINE
  5
532
100
AcDbEntity
  8
0
100
AcDbLine
 62
7
  6
CONTINUOUS
 10
-1.5464406304
 20
15.8643593064
 11
-1.4131074242
 21
15.8303167573
  0
LWPOLYLINE
  5
533
100
AcDbEntity
  8
0
100
AcDbPolyline
 62
7
  6
CONTINUOUS
 90
108
 70
0
 10
-3.0049754101
 20
17.1547669085
 10
-3.013515858
 20
17.1579703818
 10
-3.0223211782
 20
17.1616673401
 10
-3.0313913709
 20
17.165857777
 10
-3.0407245252
 20
17.1705173426
 10
-3.050322552
 20
17.1756703712
 10
-3.0601911832
 20
17.1813898789
 10
-3.0704106287
 20
17.1877287806
 10
-3.0809006788
 20
17.1946341357
 10
-3.0914264363
 20
17.2020201766
 10
-3.1020091037
 20
17.2099187865
 10
-3.1126274785
 20
17.2182980547
 10
-3.1229830561
 20
17.2269765279
 10
-3.1329801708
 20
17.2358971487
 10
-3.1427144883
 20
17.2451169565
 10
-3.1521745009
 20
17.2546256487
 10
-3.1613724725
 20
17.2644377903
 10
-3.1702961392
 20
17.2745387954
 10
-3.178897202
 20
17.284874637
 10
-3.1871639724
 20
17.2954334179
 10
-3.1951081388
 20
17.3062270172
 10
-3.2027164677
 20
17.3172370745
 10
-3.2099828283
 20
17.3284534227
 10
-3.2169133512
 20
17.3398862112
 10
-3.2235131953
 20
17.3515475539
 10
-3.2297883391
 20
17.3634428867
 10
-3.2357328041
 20
17.3755667532
 10
-3.241333813
 20
17.3879149292
 10
-3.2465874257
 20
17.4004727906
 10
-3.2514975823
 20
17.4132549405
 10
-3.2560633265
 20
17.426300993
 10
-3.2602904089
 20
17.4396142851
 10
-3.2641730788
 20
17.453191453
 10
-3.2676931277
 20
17.4670620563
 10
-3.2708530687
 20
17.481215572
 10
-3.2736503888
 20
17.4956624919
 10
-3.2760593399
 20
17.5104638919
 10
-3.2780837225
 20
17.5256508919
 10
-3.2797197362
 20
17.5411923298
 10
-3.2809302314
 20
17.5570558564
 10
-3.2817091095
 20
17.5734345303
 10
-3.2820624691
 20
17.5901352446
 10
-3.281971457
 20
17.6065464414
 10
-3.2814182987
 20
17.6224640828
 10
-3.2804207688
 20
17.6380922495
 10
-3.2790133378
 20
17.6534315996
 10
-3.2771987199
 20
17.668470917
 10
-3.2749742008
 20
17.6832214507
 10
-3.2723661087
 20
17.6977175542
 10
-3.2693655797
 20
17.711994563
 10
-3.2659814777
 20
17.7260171676
 10
-3.2622667216
 20
17.7397137547
 10
-3.2581794344
 20
17.7531505297
 10
-3.2537614931
 20
17.7662613185
 10
-3.2491914485
 20
17.7787759552
 10
-3.2444890803
 20
17.7905999392
 10
-3.2396346087
 20
17.8018278298
 10
-3.2347472454
 20
17.8124730627
 10
-3.2298504505
 20
17.8225034079
 10
-3.2249207638
 20
17.8319511428
 10
-3.2200070158
 20
17.8409264572
 10
-3.2151144386
 20
17.8494383634
 10
-3.2102378
 20
17.857477881
 10
-3.2054102347
 20
17.8651282031
 10
-3.2006364803
 20
17.8723947214
 10
-3.1959117992
 20
17.8792720666
 10
-3.1912551128
 20
17.8858272847
 10
-3.1866694426
 20
17.8920649738
 10
-3.1821517672
 20
17.8979805516
 10
-3.1777119439
 20
17.9036272896
 10
-3.1733519391
 20
17.9090088352
 10
-3.1690697864
 20
17.9141215525
 10
-3.1648694438
 20
17.9190077851
 10
-3.1607519535
 20
17.9236702049
 10
-3.1567162734
 20
17.9281061486
 10
-3.1527632346
 20
17.9323499555
 10
-3.1488934963
 20
17.9364036332
 10
-3.1451063994
 20
17.9402651804
 10
-3.141400798
 20
17.9439629224
 10
-3.1377771388
 20
17.9474982686
 10
-3.134234975
 20
17.9508698143
 10
-3.1307718211
 20
17.9541016625
 10
-3.1273878139
 20
17.9571950796
 10
-3.1240828165
 20
17.9601488028
 10
-3.1208539331
 20
17.9629831409
 10
-3.1177019874
 20
17.9656995909
 10
-3.1146261557
 20
17.9682966584
 10
-3.1116210713
 20
17.9707901649
 10
-3.1086873395
 20
17.9731820139
 10
-3.1058243551
 20
17.9754703038
 10
-3.1030249345
 20
17.977665148
 10
-3.1002878108
 20
17.9797672029
 10
-3.0976142511
 20
17.9817758135
 10
-3.0950008735
 20
17.9836991263
 10
-3.09244537
 20
17.9855368657
 10
-3.0899500487
 20
17.9872893086
 10
-3.0875184513
 20
17.9889654289
 10
-3.0851514161
 20
17.9905646112
 10
-3.0828481049
 20
17.992087472
 10
-3.0806095448
 20
17.9935448333
 10
-3.0784398061
 20
17.9949351714
 10
-3.0763348185
 20
17.9962600108
 10
-3.0742833985
 20
17.9975347458
 10
-3.072287459
 20
17.9987592696
 10
-3.0703450871
 20
17.9999336894
 10
-3.0684393605
 20
18.0010737204
 10
-3.0665707746
 20
18.0021803586
 10
-3.0647388339
 20
18.0032526083
  0
LWPOLYLINE
  5
534
100
AcDbEntity
  8
RACCORDO
100
AcDbPolyline
 62
253
  6
CONTINUOUS
 90
38
 70
0
 10
9.7376716191
 20
19.9951660459
 10
9.7374061408
 20
19.9962025816
 10
9.7368680369
 20
19.9972178804
 10
9.7360589142
 20
19.9982208353
 10
9.7349781955
 20
19.9992301503
 10
9.733625971
 20
20.0002432145
 10
9.7320063017
 20
20.001238105
 10
9.7301218803
 20
20.0022257506
 10
9.727972859
 20
20.0032145394
 10
9.725563631
 20
20.0041807409
 10
9.7228983905
 20
20.0051348251
 10
9.719979242
 20
20.0060868728
 10
9.7168101508
 20
20.0070125467
 10
9.71339679
 20
20.007921613
 10
9.7097434356
 20
20.0088249596
 10
9.705853534
 20
20.0096986896
 10
9.701734085
 20
20.0105517775
 10
9.697391371
 20
20.0113951686
 10
9.6928285536
 20
20.0122061283
 10
9.6880537811
 20
20.012992875
 10
9.6830750123
 20
20.0137659068
 10
9.6778954245
 20
20.0145040199
 10
9.6725241515
 20
20.0152147928
 10
9.666970478
 20
20.0159080189
 10
9.6612378332
 20
20.0165640988
 10
9.6553361968
 20
20.0171901355
 10
9.6492758744
 20
20.0177951549
 10
9.643060678
 20
20.018361025
 10
9.6367013128
 20
20.018894564
 10
9.6302088621
 20
20.0194041
 10
9.6235875488
 20
20.0198726951
 10
9.6168486975
 20
20.0203070895
 10
9.6100039797
 20
20.0207150619
 10
9.6030579767
 20
20.0210805146
 10
9.5960225333
 20
20.0214103254
 10
9.5889097597
 20
20.0217119145
 10
9.581724488
 20
20.0219696267
 10
9.5671856712
 20
20.0223823961
  0
LINE
  5
535
100
AcDbEntity
  8
RACCORDO
100
AcDbLine
 62
7
  6
CONTINUOUS
 10
9.7258230898
 20
-13.2596135334
 11
9.8368926234
 21
-13.204082996
  0
LINE
  5
536
100
AcDbEntity
  8
0
100
AcDbLine
 62
7
  6
CONTINUOUS
 10
-1.8797742181
 20
15.8303167573
 11
-1.7464406304
 21
15.8643593064
  0
LINE
  5
537
100
AcDbEntity
  8
0
100
AcDbLine
 62
7
  6
CONTINUOUS
 10
-1.7464406304
 20
16.0345720759
 11
-1.9131074242
 21
16.0005295238
  0
LINE
  5
538
100
AcDbEntity
  8
0
100
AcDbLine
 62
7
  6
CONTINUOUS
 10
-1.5464406304
 20
15.1835082522
 11
-1.7464406304
 21
15.1835082522
  0
LINE
  5
539
100
AcDbEntity
  8
0
100
AcDbLine
 62
7
  6
CONTINUOUS
 10
-1.0464406304
 20
15.3196784487
 11
-1.2797742181
 21
15.3196784487
  0
LINE
  5
53A
100
AcDbEntity
  8
0
100
AcDbLine
 62
7
  6
CONTINUOUS
 10
0.6868925758
 20
15.3537209979
 11
1.0202259727
 21
15.3537209979
  0
LINE
  5
53B
100
AcDbEntity
  8
0
100
AcDbLine
 62
7
  6
CONTINUOUS
 10
1.2202258773
 20
15.3537209979
 11
1.7868925758
 21
15.3537209979
  0
LINE
  5
53C
100
AcDbEntity
  8
0
100
AcDbLine
 62
7
  6
CONTINUOUS
 10
2.020225925
 20
15.5579763404
 11
1.2202258773
 21
15.5579763404
  0
LINE
  5
53D
100
AcDbEntity
  8
0
100
AcDbLine
 62
7
  6
CONTINUOUS
 10
1.0202259727
 20
15.5579763404
 11
0.6868925758
 21
15.5579763404
  0
LINE
  5
53E
100
AcDbEntity
  8
0
100
AcDbLine
 62
7
  6
CONTINUOUS
 10
-1.2464406304
 20
15.6260614386
 11
-1.0464406304
 21
15.6260614386
  0
LINE
  5
53F
100
AcDbEntity
  8
0
100
AcDbLine
 62
7
  6
CONTINUOUS
 10
-1.7464406304
 20
15.8643593064
 11
-1.5464406304
 21
15.8643593064
  0
LINE
  5
540
100
AcDbEntity
  8
0
100
AcDbLine
 62
7
  6
CONTINUOUS
 10
2.4868925758
 20
16.0345720759
 11
2.2868925758
 21
16.0345720759
  0
LINE
  5
541
100
AcDbEntity
  8
0
100
AcDbLine
 62
7
  6
CONTINUOUS
 10
1.2202258773
 20
16.0345720759
 11
1.0202259727
 21
16.0345720759
  0
LINE
  5
542
100
AcDbEntity
  8
0
100
AcDbLine
 62
7
  6
CONTINUOUS
 10
0.0868925758
 20
16.0345720759
 11
-0.1131074242
 21
16.0345720759
  0
LINE
  5
543
100
AcDbEntity
  8
0
100
AcDbLine
 62
7
  6
CONTINUOUS
 10
-1.5464406304
 20
16.0345720759
 11
-1.7464406304
 21
16.0345720759
  0
LINE
  5
544
100
AcDbEntity
  8
0
100
AcDbLine
 62
7
  6
CONTINUOUS
 10
-2.7131074242
 20
16.0345720759
 11
-2.9131074242
 21
16.0345720759
  0
LINE
  5
545
100
AcDbEntity
  8
0
100
AcDbLine
 62
7
  6
CONTINUOUS
 10
-1.3797742181
 20
16.0005295238
 11
-1.5464406304
 21
16.0345720759
  0
LWPOLYLINE
  5
546
100
AcDbEntity
  8
RACCORDO
100
AcDbPolyline
 62
7
  6
CONTINUOUS
 90
9
 70
0
 10
9.7258230898
 20
13.2287576852
 10
9.7255854917
 20
13.2288178465
 10
9.7251099614
 20
13.2288778619
 10
9.7243964988
 20
13.2289377312
 10
9.7234433366
 20
13.2289975684
 10
9.7222522421
 20
13.2290572595
 10
9.7208285175
 20
13.2291164636
 10
9.7191702692
 20
13.2291751575
 10
9.7151668643
 20
13.229290812
  0
LWPOLYLINE
  5
547
100
AcDbEntity
  8
0
100
AcDbPolyline
 62
7
  6
CONTINUOUS
 90
40
 70
0
 10
-3.0415595593
 20
18.0233918843
 10
-3.0482455153
 20
18.0262124345
 10
-3.0548191514
 20
18.0292505091
 10
-3.0612804674
 20
18.0325061056
 10
-3.0676342181
 20
18.0359889464
 10
-3.0738756488
 20
18.0396893031
 10
-3.0799904955
 20
18.043577997
 10
-3.0859762043
 20
18.0476527491
 10
-3.0918353291
 20
18.0519158324
 10
-3.0975612684
 20
18.0563448964
 10
-3.103142036
 20
18.0609250892
 10
-3.1085896181
 20
18.0656712569
 10
-3.1139333719
 20
18.0706055958
 10
-3.1191621852
 20
18.0757052444
 10
-3.1242871704
 20
18.080993057
 10
-3.1293710209
 20
18.0865598012
 10
-3.1344206399
 20
18.0924006665
 10
-3.1394291243
 20
18.0985204506
 10
-3.1444384588
 20
18.1050243284
 10
-3.1494576596
 20
18.1119124605
 10
-3.1544777106
 20
18.1191846656
 10
-3.1595135478
 20
18.126945598
 10
-3.1645781402
 20
18.135215657
 10
-3.1696585187
 20
18.1439744113
 10
-3.1747307119
 20
18.1532652626
 10
-3.1798001589
 20
18.1631038944
 10
-3.1848614206
 20
18.1734745816
 10
-3.1898742078
 20
18.1843736105
 10
-3.194831817
 20
18.195796259
 10
-3.1997409517
 20
18.2077472014
 10
-3.2045814337
 20
18.2202368164
 10
-3.2093416343
 20
18.2332684402
 10
-3.2140331821
 20
18.2468386803
 10
-3.2186707845
 20
18.2609478201
 10
-3.2232329553
 20
18.2755980513
 10
-3.2277411808
 20
18.2907871184
 10
-3.2322746267
 20
18.3065086325
 10
-3.2368596818
 20
18.3227604406
 10
-3.2414699575
 20
18.3395446252
 10
-3.262866657
 20
18.4189682852
  0
LINE
  5
548
100
AcDbEntity
  8
RACCORDO
100
AcDbLine
 62
7
  6
CONTINUOUS
 10
9.7258230898
 20
13.2287576852
 11
9.8368926234
 21
13.1732271478
  0
LWPOLYLINE
  5
549
100
AcDbEntity
  8
0
100
AcDbPolyline
 62
7
  6
CONTINUOUS
 90
13
 70
0
 10
2.8385240808
 20
-18.0341084564
 10
2.8349149664
 20
-18.0361962224
 10
2.8331377927
 20
-18.0372117388
 10
2.8313602711
 20
-18.0381935662
 10
2.8295763273
 20
-18.0391501267
 10
2.8277920356
 20
-18.0400729986
 10
2.8260070346
 20
-18.0409248881
 10
2.8242188562
 20
-18.0417032901
 10
2.8224299686
 20
-18.0424107103
 10
2.8206474154
 20
-18.0430173715
 10
2.8188735446
 20
-18.043513348
 10
2.8171060082
 20
-18.0439085659
 10
2.8153448062
 20
-18.0442030253
  0
LWPOLYLINE
  5
54A
100
AcDbEntity
  8
0
100
AcDbPolyline
 62
7
  6
CONTINUOUS
 90
37
 70
0
 10
-2.1293140405
 20
17.1368699937
 10
-2.1676032821
 20
17.1314136989
 10
-2.2048321195
 20
17.1264068211
 10
-2.2410005528
 20
17.1218493684
 10
-2.2761059299
 20
17.1177560844
 10
-2.3101509029
 20
17.1141122398
 10
-2.3431434279
 20
17.1108736315
 10
-2.3750842491
 20
17.1080443972
 10
-2.4059726224
 20
17.1056204082
 10
-2.4358142709
 20
17.1035450601
 10
-2.4646084439
 20
17.1018166776
 10
-2.4923558921
 20
17.1004369409
 10
-2.5190645913
 20
17.0993542768
 10
-2.5446927383
 20
17.0985658311
 10
-2.5692821363
 20
17.09807446
 10
-2.5929661706
 20
17.0978371553
 10
-2.6156898398
 20
17.0978508021
 10
-2.6375081454
 20
17.0981185156
 10
-2.6587194774
 20
17.0986066315
 10
-2.6793182963
 20
17.0993047894
 10
-2.6993101416
 20
17.1002233488
 10
-2.7190100217
 20
17.101359726
 10
-2.7384275412
 20
17.1026963848
 10
-2.7575530954
 20
17.1042508595
 10
-2.776672879
 20
17.1060731708
 10
-2.795870762
 20
17.1081561361
 10
-2.8150628744
 20
17.1105069342
 10
-2.8342838001
 20
17.1131971274
 10
-2.8535776112
 20
17.1162315493
 10
-2.8729002356
 20
17.1196053592
 10
-2.8921540411
 20
17.1233756052
 10
-2.91134578
 20
17.1275490429
 10
-2.9304686999
 20
17.1321189052
 10
-2.9494049119
 20
17.1371219543
 10
-2.9681151193
 20
17.1425704386
 10
-2.9866386188
 20
17.1484520931
 10
-3.0049754101
 20
17.1547669085
  0
LWPOLYLINE
  5
54B
100
AcDbEntity
  8
0
100
AcDbPolyline
 62
7
  6
CONTINUOUS
 90
55
 70
0
 10
-2.673729521
 20
17.8732439074
 10
-2.6814590719
 20
17.8730303069
 10
-2.6892091058
 20
17.8726908626
 10
-2.6969796228
 20
17.8722255741
 10
-2.7047865854
 20
17.871639665
 10
-2.712614031
 20
17.8709279113
 10
-2.7204140721
 20
17.870074642
 10
-2.7281863091
 20
17.8690769361
 10
-2.7359311416
 20
17.8679377136
 10
-2.7436018811
 20
17.8666500649
 10
-2.751187752
 20
17.8652134965
 10
-2.7586995298
 20
17.8636285004
 10
-2.7661228524
 20
17.8618896449
 10
-2.773449657
 20
17.8599991225
 10
-2.7806880063
 20
17.8579547386
 10
-2.7878477272
 20
17.8557444808
 10
-2.7949318321
 20
17.8533700444
 10
-2.8019373086
 20
17.8508297312
 10
-2.8088649457
 20
17.8481064379
 10
-2.8157161355
 20
17.845203167
 10
-2.822489486
 20
17.8421169121
 10
-2.8291816104
 20
17.8388215554
 10
-2.8358031631
 20
17.8353141212
 10
-2.8423434897
 20
17.8315975798
 10
-2.8487672414
 20
17.8276547315
 10
-2.8550948204
 20
17.8234642105
 10
-2.8613058245
 20
17.8190473752
 10
-2.8673036981
 20
17.8144511131
 10
-2.8730725961
 20
17.8096672551
 10
-2.8786283637
 20
17.8047039635
 10
-2.883921981
 20
17.7996326245
 10
-2.8889169578
 20
17.7944914355
 10
-2.8936497844
 20
17.7892421953
 10
-2.8981809117
 20
17.7838416924
 10
-2.9025142619
 20
17.778303056
 10
-2.9066459129
 20
17.7726131507
 10
-2.9106245489
 20
17.7666893653
 10
-2.9144704267
 20
17.7605169322
 10
-2.9181632894
 20
17.754110608
 10
-2.9216910506
 20
17.7474320639
 10
-2.9250598348
 20
17.7404767801
 10
-2.9282635174
 20
17.7332492621
 10
-2.9312716386
 20
17.7257247175
 10
-2.9340832653
 20
17.717902729
 10
-2.9366993306
 20
17.7097836964
 10
-2.9390921743
 20
17.7013440508
 10
-2.9412619361
 20
17.6925941955
 10
-2.9432084764
 20
17.6835237064
 10
-2.944903716
 20
17.6740777707
 10
-2.9463523799
 20
17.6642462998
 10
-2.947549743
 20
17.6540393545
 10
-2.9484535515
 20
17.6434323419
 10
-2.9490497206
 20
17.6324170529
 10
-2.949352335
 20
17.6210016636
 10
-2.9493613947
 20
17.6091861569
  0
LINE
  5
54C
100
AcDbEntity
  8
0
100
AcDbLine
 62
7
  6
CONTINUOUS
 10
1.6983946234
 20
17.1169080759
 11
1.3435666234
 21
17.1169080759
  0
LINE
  5
54D
100
AcDbEntity
  8
0
100
AcDbLine
 62
7
  6
CONTINUOUS
 10
3.2280586234
 20
17.1170100759
 11
2.8426056234
 21
17.1170100759
  0
LINE
  5
54E
100
AcDbEntity
  8
0
100
AcDbLine
 62
7
  6
CONTINUOUS
 10
2.1846586234
 20
17.1170100759
 11
1.8300726234
 21
17.1170100759
  0
LINE
  5
54F
100
AcDbEntity
  8
0
100
AcDbLine
 62
7
  6
CONTINUOUS
 10
0.9990646234
 20
17.1170100759
 11
0.6445296234
 21
17.1170100759
  0
LINE
  5
550
100
AcDbEntity
  8
0
100
AcDbLine
 62
7
  6
CONTINUOUS
 10
-0.0613793766
 20
17.1170100759
 11
-0.4124463766
 21
17.1170100759
  0
LINE
  5
551
100
AcDbEntity
  8
0
100
AcDbLine
 62
7
  6
CONTINUOUS
 10
-1.1603053766
 20
17.1170100759
 11
-1.5035593766
 21
17.1170100759
  0
LINE
  5
552
100
AcDbEntity
  8
0
100
AcDbLine
 62
7
  6
CONTINUOUS
 10
-2.4709488082
 20
17.8732439074
 11
-2.673729521
 21
17.8732439074
  0
LINE
  5
553
100
AcDbEntity
  8
0
100
AcDbLine
 62
7
  6
CONTINUOUS
 10
-2.4827143725
 20
18.15164036
 11
-2.6729646956
 21
18.15164036
  0
LINE
  5
554
100
AcDbEntity
  8
0
100
AcDbLine
 62
7
  6
CONTINUOUS
 10
-1.1485913766
 20
18.2149300759
 11
-1.4883133766
 21
18.2149300759
  0
LWPOLYLINE
  5
555
100
AcDbEntity
  8
0
100
AcDbPolyline
 62
7
  6
CONTINUOUS
 90
25
 70
0
 10
-2.7489154552
 20
17.3965908968
 10
-2.7373389437
 20
17.3953079788
 10
-2.7257449604
 20
17.394165853
 10
-2.7141335052
 20
17.3931645199
 10
-2.7025009328
 20
17.3923001026
 10
-2.6908508885
 20
17.3915764791
 10
-2.6791943081
 20
17.3910052817
 10
-2.6675305623
 20
17.3905867223
 10
-2.6558602803
 20
17.3903205896
 10
-2.644196286
 20
17.3902178813
 10
-2.6325391377
 20
17.3902816672
 10
-2.6208882771
 20
17.3905088774
 10
-2.6092548524
 20
17.3909013002
 10
-2.5976424413
 20
17.391466282
 10
-2.5860474662
 20
17.3921964757
 10
-2.574470342
 20
17.3930716299
 10
-2.5629120928
 20
17.3940926321
 10
-2.5513716946
 20
17.3952585936
 10
-2.5398464901
 20
17.3965465984
 10
-2.5283378235
 20
17.3979561645
 10
-2.5168443507
 20
17.3994877726
 10
-2.5053593817
 20
17.4011199505
 10
-2.4938806867
 20
17.4028455403
 10
-2.4824104955
 20
17.4046716987
 10
-2.4709488082
 20
17.4065984249
  0
LINE
  5
556
100
AcDbEntity
  8
RACCORDO
100
AcDbLine
 62
7
  6
CONTINUOUS
 10
7.9297129465
 20
20.7345720759
 11
7.2946276504
 21
20.5995090589
  0
LINE
  5
557
100
AcDbEntity
  8
DRAFT
100
AcDbLine
 62
7
  6
CONTINUOUS
 10
7.9297129465
 20
20.7345720759
 11
8.6802682964
 21
20.8045720759
  0
LWPOLYLINE
  5
558
100
AcDbEntity
  8
RACCORDO
100
AcDbPolyline
 62
253
  6
CONTINUOUS
 90
43
 70
0
 10
-9.7639168332
 20
20.0227520368
 10
-9.771312791
 20
20.0227153723
 10
-9.7786986313
 20
20.0226410238
 10
-9.7860642504
 20
20.0225290947
 10
-9.7933995722
 20
20.0223797411
 10
-9.8006945623
 20
20.0221931675
 10
-9.8079392411
 20
20.0219696267
 10
-9.8151236981
 20
20.0217094249
 10
-9.8222381052
 20
20.0214129196
 10
-9.8292727298
 20
20.0210805146
 10
-9.8362179489
 20
20.0207126651
 10
-9.8430642615
 20
20.0203098754
 10
-9.8498023019
 20
20.0198726951
 10
-9.8564228526
 20
20.0194017227
 10
-9.8629168569
 20
20.018897603
 10
-9.8692754311
 20
20.018361025
 10
-9.8754898767
 20
20.0177927228
 10
-9.8815516926
 20
20.0171934743
 10
-9.8874525863
 20
20.0165640988
 10
-9.8931844855
 20
20.0159054574
 10
-9.898739549
 20
20.0152184511
 10
-9.9041101776
 20
20.0145040199
 10
-9.9092890245
 20
20.0137631407
 10
-9.914269005
 20
20.0129968274
 10
-9.9190433067
 20
20.0122061283
 10
-9.9236053984
 20
20.0113921248
 10
-9.9279490392
 20
20.0105559304
 10
-9.9320682872
 20
20.0096986896
 10
-9.9359575072
 20
20.0088215744
 10
-9.9396113789
 20
20.0079257847
 10
-9.9430249039
 20
20.0070125467
 10
-9.9461934126
 20
20.0060831089
 10
-9.9491125704
 20
20.0051387426
 10
-9.9517783841
 20
20.0041807409
 10
-9.9541872069
 20
20.0032104131
 10
-9.9563357435
 20
20.0022290864
 10
-9.9582210548
 20
20.001238105
 10
-9.9598405617
 20
20.0002388229
 10
-9.9611920489
 20
19.9992326066
 10
-9.9622736673
 20
19.9982208353
 10
-9.9630839376
 20
19.9972048926
 10
-9.9636217511
 20
19.9961861655
 10
-9.9638863722
 20
19.9951660459
  0
LINE
  5
559
100
AcDbEntity
  8
0
100
AcDbLine
 62
7
  6
CONTINUOUS
 10
-1.0760093766
 20
18.4775200759
 11
-1.5592263766
 21
18.4775200759
  0
LINE
  5
55A
100
AcDbEntity
  8
0
100
AcDbLine
 62
7
  6
CONTINUOUS
 10
2.6891686234
 20
18.8168730759
 11
2.3764766234
 21
18.8168730759
  0
LINE
  5
55B
100
AcDbEntity
  8
0
100
AcDbLine
 62
7
  6
CONTINUOUS
 10
1.6983946234
 20
18.8168730759
 11
1.3435666234
 21
18.8168730759
  0
LINE
  5
55C
100
AcDbEntity
  8
0
100
AcDbLine
 62
7
  6
CONTINUOUS
 10
1.1525516234
 20
18.8168730759
 11
0.8130966234
 21
18.8168730759
  0
LINE
  5
55D
100
AcDbEntity
  8
0
100
AcDbLine
 62
7
  6
CONTINUOUS
 10
0.3202686234
 20
18.8168730759
 11
0.2705046234
 21
18.8168730759
  0
LINE
  5
55E
100
AcDbEntity
  8
0
100
AcDbLine
 62
7
  6
CONTINUOUS
 10
-0.2242873766
 20
18.8168730759
 11
-0.5714033766
 21
18.8168730759
  0
LINE
  5
55F
100
AcDbEntity
  8
0
100
AcDbLine
 62
7
  6
CONTINUOUS
 10
-0.6271203766
 20
18.8168730759
 11
-0.9780983766
 21
18.8168730759
  0
LINE
  5
560
100
AcDbEntity
  8
0
100
AcDbLine
 62
7
  6
CONTINUOUS
 10
-1.6511453766
 20
18.8168730759
 11
-2.0251193766
 21
18.8168730759
  0
LINE
  5
561
100
AcDbEntity
  8
0
100
AcDbLine
 62
7
  6
CONTINUOUS
 10
-2.1293140405
 20
18.8168727626
 11
-2.4827143725
 21
18.8168727626
  0
LINE
  5
562
100
AcDbEntity
  8
0
100
AcDbLine
 62
7
  6
CONTINUOUS
 10
-3.0260845917
 20
18.8168727626
 11
-3.367387935
 21
18.8168727626
  0
LINE
  5
563
100
AcDbEntity
  8
RACCORDO
100
AcDbLine
 62
253
  6
CONTINUOUS
 10
-9.7639168037
 20
20.0227520368
 11
9.5377020506
 21
20.0227520368
  0
LINE
  5
564
100
AcDbEntity
  8
RACCORDO
100
AcDbLine
 62
253
  6
CONTINUOUS
 10
9.5450937271
 20
20.0227023726
 11
9.5377020801
 21
20.0227520368
  0
LINE
  5
565
100
AcDbEntity
  8
DRAFT
100
AcDbLine
 62
7
  6
CONTINUOUS
 10
-8.1559276996
 20
20.7345720759
 11
-8.9064830495
 21
20.8045720759
  0
LINE
  5
566
100
AcDbEntity
  8
RACCORDO
100
AcDbLine
 62
7
  6
CONTINUOUS
 10
-8.1559276996
 20
20.7345720759
 11
-7.5208424035
 21
20.5995090589
  0
LINE
  5
567
100
AcDbEntity
  8
RACCORDO
100
AcDbLine
 62
7
  6
CONTINUOUS
 10
-3.2702870535
 20
20.7345720759
 11
-3.9053723496
 21
20.5995090589
  0
LINE
  5
568
100
AcDbEntity
  8
DRAFT
100
AcDbLine
 62
7
  6
CONTINUOUS
 10
-3.2702870535
 20
20.7345720759
 11
-2.5197317036
 21
20.8045720759
  0
LINE
  5
569
100
AcDbEntity
  8
RACCORDO
100
AcDbLine
 62
7
  6
CONTINUOUS
 10
8.6802682964
 20
22.2345720759
 11
7.2946276504
 21
22.1087934056
  0
LINE
  5
56A
100
AcDbEntity
  8
RACCORDO
100
AcDbLine
 62
253
  6
CONTINUOUS
 10
-9.7639168332
 20
20.1936752762
 11
9.5377020801
 21
20.1936752762
  0
LINE
  5
56B
100
AcDbEntity
  8
RACCORDO
100
AcDbLine
 62
7
  6
CONTINUOUS
 10
-7.3476373227
 20
20.5872306028
 11
-4.0785774304
 21
20.5872306028
  0
LINE
  5
56C
100
AcDbEntity
  8
RACCORDO
100
AcDbLine
 62
7
  6
CONTINUOUS
 10
3.8523626773
 20
20.5872306028
 11
7.1214225696
 21
20.5872306028
  0
LINE
  5
56D
100
AcDbEntity
  8
RACCORDO
100
AcDbLine
 62
7
  6
CONTINUOUS
 10
-9.840810774
 20
20.7345720759
 11
-8.1559276996
 21
20.7345720759
  0
LINE
  5
56E
100
AcDbEntity
  8
DRAFT
100
AcDbLine
 62
7
  6
CONTINUOUS
 10
-3.2702870535
 20
20.7345720759
 11
3.0440723004
 21
20.7345720759
  0
LINE
  5
56F
100
AcDbEntity
  8
RACCORDO
100
AcDbLine
 62
7
  6
CONTINUOUS
 10
7.9297129465
 20
20.7345720759
 11
9.6145960209
 21
20.7345720759
  0
LINE
  5
570
100
AcDbEntity
  8
RACCORDO
100
AcDbLine
 62
7
  6
CONTINUOUS
 10
9.6370498635
 20
20.8045720759
 11
8.6802682964
 21
20.8045720759
  0
LINE
  5
571
100
AcDbEntity
  8
DRAFT
100
AcDbLine
 62
7
  6
CONTINUOUS
 10
2.2935169505
 20
20.8045720759
 11
-2.5197317036
 21
20.8045720759
  0
LINE
  5
572
100
AcDbEntity
  8
RACCORDO
100
AcDbLine
 62
7
  6
CONTINUOUS
 10
-8.9064830495
 20
20.8045720759
 11
-9.8632646167
 21
20.8045720759
  0
LWPOLYLINE
  5
573
100
AcDbEntity
  8
RACCORDO
100
AcDbPolyline
 62
253
  6
CONTINUOUS
 90
46
 70
0
 10
9.5377020801
 20
20.1936752762
 10
9.5446714863
 20
20.1935399619
 10
9.5516324244
 20
20.1931636135
 10
9.5585764365
 20
20.1925466884
 10
9.5654950852
 20
20.1916899361
 10
9.572379964
 20
20.1905943975
 10
9.5792227074
 20
20.189261404
 10
9.5860150013
 20
20.187692575
 10
9.5927485926
 20
20.1858898168
 10
9.5994152997
 20
20.1838553199
 10
9.6060070221
 20
20.1815915562
 10
9.6125157508
 20
20.1791012764
 10
9.6189335771
 20
20.1763875062
 10
9.6252527032
 20
20.173453543
 10
9.6314654509
 20
20.1703029518
 10
9.6375642716
 20
20.1669395606
 10
9.6435417547
 20
20.1633674561
 10
9.6493906375
 20
20.1595909787
 10
9.6551038132
 20
20.1556147169
 10
9.66067434
 20
20.151443502
 10
9.6660954495
 20
20.1470824024
 10
9.6713605547
 20
20.1425367169
 10
9.6764632583
 20
20.1378119689
 10
9.6813973602
 20
20.132913899
 10
9.6861568653
 20
20.1278484587
 10
9.6907359906
 20
20.1226218027
 10
9.6951291721
 20
20.1172402817
 10
9.699331072
 20
20.1117104346
 10
9.7033365846
 20
20.1060389802
 10
9.7071408433
 20
20.1002328099
 10
9.7107392255
 20
20.0942989782
 10
9.714127359
 20
20.0882446951
 10
9.7173011272
 20
20.0820773169
 10
9.7202566737
 20
20.0758043373
 10
9.7229904074
 20
20.0694333781
 10
9.7254990067
 20
20.0629721805
 10
9.7277794235
 20
20.0564285951
 10
9.7298288869
 20
20.0498105727
 10
9.7316449069
 20
20.0431261545
 10
9.7332252767
 20
20.0363834624
 10
9.7345680763
 20
20.0295906891
 10
9.735671674
 20
20.0227560882
 10
9.736534729
 20
20.0158879641
 10
9.7371561924
 20
20.0089946617
 10
9.7375353094
 20
20.002084557
 10
9.7376716191
 20
19.9951660459
  0
LWPOLYLINE
  5
574
100
AcDbEntity
  8
RACCORDO
100
AcDbPolyline
 62
253
  6
CONTINUOUS
 90
3
 70
0
 10
9.5671856712
 20
20.0223823961
 10
9.5598494972
 20
20.0225290947
 10
9.5450937271
 20
20.0227023726
  0
LINE
  5
575
100
AcDbEntity
  8
RACCORDO
100
AcDbLine
 62
7
  6
CONTINUOUS
 10
-8.9064830495
 20
22.2345720759
 11
-7.5208424035
 21
22.1087934056
  0
LINE
  5
576
100
AcDbEntity
  8
DRAFT
100
AcDbLine
 62
7
  6
CONTINUOUS
 10
3.0440723004
 20
20.7345720759
 11
2.2935169505
 21
20.8045720759
  0
LINE
  5
577
100
AcDbEntity
  8
RACCORDO
100
AcDbLine
 62
7
  6
CONTINUOUS
 10
3.0440723004
 20
20.7345720759
 11
3.6791575965
 21
20.5995090589
  0
LINE
  5
578
100
AcDbEntity
  8
RACCORDO
100
AcDbLine
 62
7
  6
CONTINUOUS
 10
-2.5197317036
 20
22.2345720759
 11
-3.9053723496
 21
22.1087934056
  0
LINE
  5
579
100
AcDbEntity
  8
RACCORDO
100
AcDbLine
 62
7
  6
CONTINUOUS
 10
-7.3476373227
 20
22.1035526277
 11
-4.0785774304
 21
22.1035526277
  0
LINE
  5
57A
100
AcDbEntity
  8
RACCORDO
100
AcDbLine
 62
7
  6
CONTINUOUS
 10
3.8523626773
 20
22.1035526277
 11
7.1214225696
 21
22.1035526277
  0
LINE
  5
57B
100
AcDbEntity
  8
RACCORDO
100
AcDbLine
 62
7
  6
CONTINUOUS
 10
-10.7134879763
 20
22.2345720759
 11
-8.9064830495
 21
22.2345720759
  0
LINE
  5
57C
100
AcDbEntity
  8
DRAFT
100
AcDbLine
 62
7
  6
CONTINUOUS
 10
-2.5197317036
 20
22.2345720759
 11
2.2935169505
 21
22.2345720759
  0
LINE
  5
57D
100
AcDbEntity
  8
RACCORDO
100
AcDbLine
 62
7
  6
CONTINUOUS
 10
8.6802682964
 20
22.2345720759
 11
10.4872732232
 21
22.2345720759
  0
LINE
  5
57E
100
AcDbEntity
  8
RACCORDO
100
AcDbLine
 62
7
  6
CONTINUOUS
 10
2.2935169505
 20
22.2345720759
 11
3.6791575965
 21
22.1087934056
  0
ELLIPSE
  5
57F
100
AcDbEntity
  8
RACCORDO
100
AcDbEllipse
 62
7
  6
CONTINUOUS
 10
-10.7130312125
 20
21.7338859029
 30
0.0
 11
0.1582391023
 21
-0.4751033573
 31
0.0
 40
0.9984778551
 41
2.8205423031
 42
4.3904252414
  0
ELLIPSE
  5
580
100
AcDbEntity
  8
RACCORDO
100
AcDbEllipse
 62
7
  6
CONTINUOUS
 10
10.4868164594
 20
21.7338859029
 30
0.0
 11
0.1582391023
 21
0.4751033573
 31
0.0
 40
0.9984778551
 41
-1.2488325878
 42
0.3210503505
  0
ELLIPSE
  5
581
100
AcDbEntity
  8
RACCORDO
100
AcDbEllipse
 62
7
  6
CONTINUOUS
 10
3.8523626773
 20
22.1140341836
 30
0.0
 11
0.2
 21
-0.0
 31
0.0
 40
0.0524077793
 41
-2.617993878
 42
-1.5707963268
  0
ELLIPSE
  5
582
100
AcDbEntity
  8
RACCORDO
100
AcDbEllipse
 62
7
  6
CONTINUOUS
 10
7.1214225696
 20
22.1140341836
 30
0.0
 11
0.2
 21
-0.0
 31
0.0
 40
0.0524077793
 41
-1.5707963268
 42
-0.5235987756
  0
ELLIPSE
  5
583
100
AcDbEntity
  8
RACCORDO
100
AcDbEllipse
 62
7
  6
CONTINUOUS
 10
-4.0785774304
 20
22.1140341836
 30
0.0
 11
0.2
 21
0.0
 31
0.0
 40
0.0524077793
 41
-1.5707963268
 42
-0.5235987756
  0
ELLIPSE
  5
584
100
AcDbEntity
  8
RACCORDO
100
AcDbEllipse
 62
7
  6
CONTINUOUS
 10
-7.3476373227
 20
22.1140341836
 30
0.0
 11
0.2
 21
0.0
 31
0.0
 40
0.0524077793
 41
-2.617993878
 42
-1.5707963268
  0
ELLIPSE
  5
585
100
AcDbEntity
  8
RACCORDO
100
AcDbEllipse
 62
7
  6
CONTINUOUS
 10
10.7467155085
 20
0.2933065594
 30
0.0
 11
0.1789222233
 21
-0.0894542984
 31
0.0
 40
0.9998096356
 41
-1.1071030277
 42
0.4635410001
  0
ELLIPSE
  5
586
100
AcDbEntity
  8
RACCORDO
100
AcDbEllipse
 62
7
  6
CONTINUOUS
 10
-10.9729302616
 20
0.2933065594
 30
0.0
 11
0.1789222233
 21
0.0894542984
 31
0.0
 40
0.9998096356
 41
2.6780516535
 42
4.2486956813
  0
ELLIPSE
  5
587
100
AcDbEntity
  8
RACCORDO
100
AcDbEllipse
 62
7
  6
CONTINUOUS
 10
3.8523626773
 20
20.611787515
 30
0.0
 11
0.2
 21
0.0
 31
0.0
 40
0.1227845609
 41
-2.617993878
 42
-1.5707963268
  0
ELLIPSE
  5
588
100
AcDbEntity
  8
RACCORDO
100
AcDbEllipse
 62
7
  6
CONTINUOUS
 10
7.1214225696
 20
20.611787515
 30
0.0
 11
0.2
 21
-0.0
 31
0.0
 40
0.1227845609
 41
-1.5707963268
 42
-0.5235987756
  0
ELLIPSE
  5
589
100
AcDbEntity
  8
RACCORDO
100
AcDbEllipse
 62
7
  6
CONTINUOUS
 10
-4.0785774304
 20
20.611787515
 30
0.0
 11
0.2
 21
-0.0
 31
0.0
 40
0.1227845609
 41
-1.5707963268
 42
-0.5235987756
  0
ELLIPSE
  5
58A
100
AcDbEntity
  8
RACCORDO
100
AcDbEllipse
 62
7
  6
CONTINUOUS
 10
-7.3476373227
 20
20.611787515
 30
0.0
 11
0.2
 21
0.0
 31
0.0
 40
0.1227845609
 41
-2.617993878
 42
-1.5707963268
  0
ELLIPSE
  5
58B
100
AcDbEntity
  8
RACCORDO
100
AcDbEllipse
 62
7
  6
CONTINUOUS
 10
-9.8630769109
 20
20.6042823449
 30
0.0
 11
-0.0617723213
 21
0.1905579802
 31
0.0
 40
0.9984017958
 41
-0.3130080407
 42
1.2568499004
  0
ELLIPSE
  5
58C
100
AcDbEntity
  8
RACCORDO
100
AcDbEllipse
 62
7
  6
CONTINUOUS
 10
9.6368621578
 20
20.6042823449
 30
0.0
 11
0.0617723213
 21
0.1905579802
 31
0.0
 40
0.9984017958
 41
-1.2568499004
 42
0.3130080407
  0
ELLIPSE
  5
58D
100
AcDbEntity
  8
RACCORDO
100
AcDbEllipse
 62
7
  6
CONTINUOUS
 10
9.5967155085
 20
1.5020576064
 30
0.0
 11
0.1414644378
 21
-0.1414644378
 31
0.0
 40
0.9996954599
 41
-0.7852458701
 42
0.7852458701
  0
ELLIPSE
  5
58E
100
AcDbEntity
  8
RACCORDO
100
AcDbEllipse
 62
7
  6
CONTINUOUS
 10
-9.8229302616
 20
1.5020576064
 30
0.0
 11
0.1414644378
 21
0.1414644378
 31
0.0
 40
0.9996954599
 41
-3.9268385237
 42
-2.3563467834
  0
ELLIPSE
  5
58F
100
AcDbEntity
  8
0
100
AcDbEllipse
 62
7
  6
CONTINUOUS
 10
10.0469296056
 20
9.0155211285
 30
0.0
 11
0.7
 21
0.0
 31
0.0
 40
0.0087268678
 41
0.1047197551
 42
1.5707963268
  0
ELLIPSE
  5
590
100
AcDbEntity
  8
0
100
AcDbEllipse
 62
7
  6
CONTINUOUS
 10
-10.2731443587
 20
9.0155211285
 30
0.0
 11
0.7
 21
-0.0
 31
0.0
 40
0.0087268678
 41
1.5707963268
 42
3.0368728985
  0
ELLIPSE
  5
591
100
AcDbEntity
  8
0
100
AcDbEllipse
 62
7
  6
CONTINUOUS
 10
10.0469296056
 20
13.1536230233
 30
0.0
 11
0.7
 21
-0.0
 31
0.0
 40
0.0087268678
 41
-1.5707963268
 42
-0.1047197551
  0
ELLIPSE
  5
592
100
AcDbEntity
  8
0
100
AcDbEllipse
 62
7
  6
CONTINUOUS
 10
-10.2731443587
 20
13.1536230233
 30
0.0
 11
0.7
 21
0.0
 31
0.0
 40
0.0087268678
 41
-3.0368728985
 42
-1.5707963268
  0
ELLIPSE
  5
593
100
AcDbEntity
  8
RACCORDO
100
AcDbEllipse
 62
7
  6
CONTINUOUS
 10
10.4868164594
 20
-21.7647417511
 30
0.0
 11
-0.1582391023
 21
0.4751033573
 31
0.0
 40
0.9984778551
 41
2.8205423031
 42
4.3904252414
  0
ELLIPSE
  5
594
100
AcDbEntity
  8
RACCORDO
100
AcDbEllipse
 62
7
  6
CONTINUOUS
 10
-10.7130312125
 20
-21.7647417511
 30
0.0
 11
-0.1582391023
 21
-0.4751033573
 31
0.0
 40
0.9984778551
 41
-1.2488325878
 42
0.3210503505
  0
ELLIPSE
  5
595
100
AcDbEntity
  8
RACCORDO
100
AcDbEllipse
 62
7
  6
CONTINUOUS
 10
-4.0785774304
 20
-22.1448900317
 30
0.0
 11
0.2
 21
-0.0
 31
0.0
 40
0.0524077793
 41
0.5235987756
 42
1.5707963268
  0
ELLIPSE
  5
596
100
AcDbEntity
  8
RACCORDO
100
AcDbEllipse
 62
7
  6
CONTINUOUS
 10
-7.3476373227
 20
-22.1448900317
 30
0.0
 11
0.2
 21
-0.0
 31
0.0
 40
0.0524077793
 41
1.5707963268
 42
2.617993878
  0
ELLIPSE
  5
597
100
AcDbEntity
  8
RACCORDO
100
AcDbEllipse
 62
7
  6
CONTINUOUS
 10
3.8523626773
 20
-22.1448900317
 30
0.0
 11
0.2
 21
0.0
 31
0.0
 40
0.0524077793
 41
1.5707963268
 42
2.617993878
  0
ELLIPSE
  5
598
100
AcDbEntity
  8
RACCORDO
100
AcDbEllipse
 62
7
  6
CONTINUOUS
 10
7.1214225696
 20
-22.1448900317
 30
0.0
 11
0.2
 21
-0.0
 31
0.0
 40
0.0524077793
 41
0.5235987756
 42
1.5707963268
  0
ELLIPSE
  5
599
100
AcDbEntity
  8
RACCORDO
100
AcDbEllipse
 62
7
  6
CONTINUOUS
 10
-10.9729302616
 20
-0.3241624076
 30
0.0
 11
-0.1789222233
 21
0.0894542984
 31
0.0
 40
0.9998096356
 41
-1.1071030277
 42
0.4635410001
  0
ELLIPSE
  5
59A
100
AcDbEntity
  8
RACCORDO
100
AcDbEllipse
 62
7
  6
CONTINUOUS
 10
10.7467155085
 20
-0.3241624076
 30
0.0
 11
-0.1789222233
 21
-0.0894542984
 31
0.0
 40
0.9998096356
 41
2.6780516535
 42
4.2486956813
  0
ELLIPSE
  5
59B
100
AcDbEntity
  8
RACCORDO
100
AcDbEllipse
 62
7
  6
CONTINUOUS
 10
-4.0785774304
 20
-20.6426433632
 30
0.0
 11
0.2
 21
-0.0
 31
0.0
 40
0.1227845609
 41
0.5235987756
 42
1.5707963268
  0
ELLIPSE
  5
59C
100
AcDbEntity
  8
RACCORDO
100
AcDbEllipse
 62
7
  6
CONTINUOUS
 10
-7.3476373227
 20
-20.6426433632
 30
0.0
 11
0.2
 21
-0.0
 31
0.0
 40
0.1227845609
 41
1.5707963268
 42
2.617993878
  0
ELLIPSE
  5
59D
100
AcDbEntity
  8
RACCORDO
100
AcDbEllipse
 62
7
  6
CONTINUOUS
 10
3.8523626773
 20
-20.6426433632
 30
0.0
 11
0.2
 21
-0.0
 31
0.0
 40
0.1227845609
 41
1.5707963268
 42
2.617993878
  0
ELLIPSE
  5
59E
100
AcDbEntity
  8
RACCORDO
100
AcDbEllipse
 62
7
  6
CONTINUOUS
 10
7.1214225696
 20
-20.6426433632
 30
0.0
 11
0.2
 21
-0.0
 31
0.0
 40
0.1227845609
 41
0.5235987756
 42
1.5707963268
  0
ELLIPSE
  5
59F
100
AcDbEntity
  8
RACCORDO
100
AcDbEllipse
 62
7
  6
CONTINUOUS
 10
9.6368621578
 20
-20.6351381931
 30
0.0
 11
-0.0617723213
 21
0.1905579802
 31
0.0
 40
0.9984017958
 41
-3.4546006943
 42
-1.8847427532
  0
ELLIPSE
  5
5A0
100
AcDbEntity
  8
RACCORDO
100
AcDbEllipse
 62
7
  6
CONTINUOUS
 10
-9.8630769109
 20
-20.6351381931
 30
0.0
 11
0.0617723213
 21
0.1905579802
 31
0.0
 40
0.9984017958
 41
-4.398442554
 42
-2.8285846129
  0
ELLIPSE
  5
5A1
100
AcDbEntity
  8
RACCORDO
100
AcDbEllipse
 62
7
  6
CONTINUOUS
 10
-9.8229302616
 20
-1.5329134546
 30
0.0
 11
0.1414644378
 21
-0.1414644378
 31
0.0
 40
0.9996954599
 41
2.3563467834
 42
3.9268385237
  0
ELLIPSE
  5
5A2
100
AcDbEntity
  8
RACCORDO
100
AcDbEllipse
 62
7
  6
CONTINUOUS
 10
9.5967155085
 20
-1.5329134546
 30
0.0
 11
0.1414644378
 21
0.1414644378
 31
0.0
 40
0.9996954599
 41
-0.7852458701
 42
0.7852458701
  0
ELLIPSE
  5
5A3
100
AcDbEntity
  8
0
100
AcDbEllipse
 62
7
  6
CONTINUOUS
 10
-10.2731443587
 20
-9.0463769767
 30
0.0
 11
0.7
 21
-0.0
 31
0.0
 40
0.0087268678
 41
-3.0368728985
 42
-1.5707963268
  0
ELLIPSE
  5
5A4
100
AcDbEntity
  8
0
100
AcDbEllipse
 62
7
  6
CONTINUOUS
 10
10.0469296056
 20
-9.0463769767
 30
0.0
 11
0.7
 21
-0.0
 31
0.0
 40
0.0087268678
 41
-1.5707963268
 42
-0.1047197551
  0
ELLIPSE
  5
5A5
100
AcDbEntity
  8
0
100
AcDbEllipse
 62
7
  6
CONTINUOUS
 10
-10.2731443587
 20
-13.1844788715
 30
0.0
 11
0.7
 21
-0.0
 31
0.0
 40
0.0087268678
 41
1.5707963268
 42
3.0368728985
  0
ELLIPSE
  5
5A6
100
AcDbEntity
  8
0
100
AcDbEllipse
 62
7
  6
CONTINUOUS
 10
10.0469296056
 20
-13.1844788715
 30
0.0
 11
0.7
 21
0.0
 31
0.0
 40
0.0087268678
 41
0.1047197551
 42
1.5707963268
  0
ENDSEC
  0
SECTION
  2
OBJECTS
  0
DICTIONARY
  5
C
100
AcDbDictionary
280
0
281
1
  3
ACAD_GROUP
350
D
  3
ACAD_MLINESTYLE
350
17
  3
ACAD_LAYOUT
350
1A
  3
ACAD_PLOTSETTINGS
350
19
  3
ACAD_PLOTSTYLENAME
350
E
  0
DICTIONARY
  5
D
102
{ACAD_REACTORS
330
C
102
}
100
AcDbDictionary
280
0
281
1
  0
ACDBDICTIONARYWDFLT
  5
E
102
{ACAD_REACTORS
330
C
102
}
100
AcDbDictionary
281
1
  3
Normal
350
F
100
AcDbDictionaryWithDefault
340
F
  0
DICTIONARY
  5
17
102
{ACAD_REACTORS
330
C
102
}
100
AcDbDictionary
280
0
281
1
  3
Standard
350
18
  0
DICTIONARY
  5
19
102
{ACAD_REACTORS
330
C
102
}
100
AcDbDictionary
281
1
  0
DICTIONARY
  5
1A
102
{ACAD_REACTORS
330
C
102
}
100
AcDbDictionary
281
1
  3
Model
350
5A7
  3
Layout1
350
5A8
  0
ACDBPLACEHOLDER
  5
F
102
{ACAD_REACTORS
330
E
102
}
  0
MLINESTYLE
  5
18
102
{ACAD_REACTORS
330
17
102
}
100
AcDbMlineStyle
  2
STANDARD
 70
0
  3

 62
256
 51
90.0
 52
90.0
 71
2
 49
0.5
 62
256
  6
BYLAYER
 49
-0.5
 62
256
  6
BYLAYER
  0
LAYOUT
  5
5A7
102
{ACAD_REACTORS
330
1A
102
}
100
AcDbPlotSettings
  1

  2
none_device
  4
ISO_A4_(297.00_x_210.00_MM)
  6

 40
0.0
 41
0.0
 42
0.0
 43
0.0
 44
297.0
 45
210.0
 46
0.0
 47
0.0
 48
0.0
 49
0.0
140
0.0
141
0.0
142
1.0
143
1.0
 70
1024
 72
1
 73
0
 74
0
  7

 75
0
147
1.0
148
0.0
149
0.0
100
AcDbLayout
  1
Model
 70
0
 71
0
 10
0.0
 20
0.0
 11
297.0
 21
210.0
 12
0.0
 22
0.0
 32
0.0
 14
0.0
 24
0.0
 34
0.0
 15
0.0
 25
0.0
 35
0.0
146
0.0
 13
0.0
 23
0.0
 33
0.0
 16
1.0
 26
0.0
 36
0.0
 17
0.0
 27
1.0
 37
0.0
 76
0
330
214
345
0
346
0
  0
LAYOUT
  5
5A8
102
{ACAD_REACTORS
330
1A
102
}
100
AcDbPlotSettings
  1

  2
none_device
  4
ISO_A4_(297.00_x_210.00_MM)
  6

 40
0.0
 41
0.0
 42
0.0
 43
0.0
 44
297.0
 45
210.0
 46
0.0
 47
0.0
 48
0.0
 49
0.0
140
0.0
141
0.0
142
1.0
143
1.0
 70
0
 72
1
 73
0
 74
0
  7

 75
0
147
1.0
148
0.0
149
0.0
100
AcDbLayout
  1
Layout1
 70
0
 71
1
 10
0.0
 20
0.0
 11
297.0
 21
210.0
 12
0.0
 22
0.0
 32
0.0
 14
0.0
 24
0.0
 34
0.0
 15
0.0
 25
0.0
 35
0.0
146
0.0
 13
0.0
 23
0.0
 33
0.0
 16
1.0
 26
0.0
 36
0.0
 17
0.0
 27
1.0
 37
0.0
 76
0
330
215
345
0
346
0
  0
ENDSEC
  0
EOF
