  0
SECTION
  2
HEADER
  9
$ACADVER
  1
AC1024
  9
$DWGCODEPAGE
  3
ANSI_1252
  9
$EXTMAX
 10
210.0
 20
297.0
 30
0.0
  9
$EXTMIN
 10
0.0
 20
0.0
 30
0.0
  9
$LIMMIN
 10
0.0
 20
0.0
  9
$LIMMAX
 10
210.0
 20
297.0
  9
$VIEWCTR
 10
105.0
 20
148.5
  9
$VIEWSIZE
 40
297.0
  9
$CLAYER
  8
0
  9
$LTSCALE
 40
19.36
  9
$CELTYPE
  6
BYLAYER
  9
$DIMSCALE
 40
1.0
  9
$DIMASZ
 40
3.0
  9
$DIMEXO
 40
0.5
  9
$DIMDLI
 40
13.376
  9
$DIMEXE
 40
1.5
  9
$DIMCEN
 40
3.168
  9
$DIMLFAC
 40
1.0
  9
$DIMBLK
  1
_FILLED
  9
$DIMALT
 70
0
  9
$DIMALTF
 40
0.0393700787
  9
$DIMTXT
 40
3.0
  9
$DIMTOL
 70
1
  9
$DIMLIM
 70
0
  9
$DIMTFAC
 40
1.0
  9
$DIMTP
 40
0.01
  9
$DIMTM
 40
0.01
  9
$DIMGAP
 40
0.625
  9
$DIMDSEP
 70
44
  9
$AUNITS
 70
0
  9
$PDMODE
 70
3
  9
$PDSIZE
 40
3.0
  9
$HANDSEED
  5
66F
  9
$TILEMODE
 70
1
  9
$MEASUREMENT
 70
1
  9
$INSUNITS
 70
4
  0
ENDSEC
  0
SECTION
  2
CLASSES
  0
CLASS
  1
ACDBDICTIONARYWDFLT
  2
AcDbDictionaryWithDefault
  3
AutoCAD 2000
 90
0
 91
1
280
0
281
0
  0
CLASS
  1
ACDBPLACEHOLDER
  2
AcDbPlaceHolder
  3
AutoCAD 2000
 90
0
 91
1
280
0
281
0
  0
CLASS
  1
LAYOUT
  2
AcDbLayout
  3
AutoCAD 2000
 90
0
 91
0
280
0
281
0
  0
ENDSEC
  0
SECTION
  2
TABLES
  0
TABLE
  2
VPORT
  5
8
100
AcDbSymbolTable
 70
2
  0
VPORT
  5
1F4
100
AcDbSymbolTableRecord
100
AcDbViewportTableRecord
  2
*ACTIVE
 70
0
 10
0.0
 20
0.0
 11
1.0
 21
1.0
 12
105.0
 22
148.5
 13
0.0
 23
0.0
 14
1.0
 24
1.0
 15
0.0
 25
0.0
 16
0.0
 26
0.0
 36
1.0
 17
0.0
 27
0.0
 37
0.0
 40
297.0
 41
0.7070707071
 42
50.0
 43
0.0
 44
0.0
 50
0.0
 51
0.0
 71
0
 72
100
 73
1
 74
1
 75
0
 76
0
 77
0
 78
0
  0
ENDTAB
  0
TABLE
  2
LTYPE
  5
5
100
AcDbSymbolTable
 70
6
  0
LTYPE
  5
14
100
AcDbSymbolTableRecord
100
AcDbLinetypeTableRecord
  2
BYBLOCK
 70
0
  3

 72
65
 73
0
 40
0.0
  0
LTYPE
  5
15
100
AcDbSymbolTableRecord
100
AcDbLinetypeTableRecord
  2
BYLAYER
 70
0
  3

 72
65
 73
0
 40
0.0
  0
LTYPE
  5
16
100
AcDbSymbolTableRecord
100
AcDbLinetypeTableRecord
  2
CONTINUOUS
 70
64
  3
Solid line
 72
65
 73
0
 40
0.0
  0
LTYPE
  5
1F5
100
AcDbSymbolTableRecord
100
AcDbLinetypeTableRecord
  2
CENTER
 70
64
  3
____ _ ____ _ ____ _ ____ _ ____ _ ____ _ ____
 72
65
 73
4
 40
0.6
 49
0.375
 74
0
 49
-0.075
 74
0
 49
0.075
 74
0
 49
-0.075
 74
0
  0
LTYPE
  5
1F6
100
AcDbSymbolTableRecord
100
AcDbLinetypeTableRecord
  2
HIDDEN
 70
64
  3
- - - - - - - - - - - - - - - - - - - -
 72
65
 73
2
 40
0.2
 49
0.1
 74
0
 49
-0.1
 74
0
  0
LTYPE
  5
1F7
100
AcDbSymbolTableRecord
100
AcDbLinetypeTableRecord
  2
PHANTOM
 70
64
  3
_____ _ _ _____ _ _ _____ _ _ _____
 72
65
 73
6
 40
0.8
 49
0.45
 74
0
 49
-0.05
 74
0
 49
0.1
 74
0
 49
-0.05
 74
0
 49
0.1
 74
0
 49
-0.05
 74
0
  0
LTYPE
  5
1F8
100
AcDbSymbolTableRecord
100
AcDbLinetypeTableRecord
  2
DOT
 70
64
  3
. . . . . . . . . . . . . . . . . . . .
 72
65
 73
2
 40
0.2
 49
0.1
 74
0
 49
-0.1
 74
0
  0
LTYPE
  5
1F9
100
AcDbSymbolTableRecord
100
AcDbLinetypeTableRecord
  2
DASHED
 70
64
  3
- - - - - - - - - - - - - - - - - - - -
 72
65
 73
2
 40
0.2
 49
0.1
 74
0
 49
-0.1
 74
0
  0
ENDTAB
  0
TABLE
  2
LAYER
  5
2
100
AcDbSymbolTable
 70
36
  0
LAYER
  5
10
100
AcDbSymbolTableRecord
100
AcDbLayerTableRecord
  2
0
 70
0
 62
7
  6
CONTINUOUS
370
-3
390
F
  0
LAYER
  5
1FA
100
AcDbSymbolTableRecord
100
AcDbLayerTableRecord
  2
DEFAULT_1
 70
0
 62
7
  6
CENTER
370
-3
390
F
  0
LAYER
  5
1FB
100
AcDbSymbolTableRecord
100
AcDbLayerTableRecord
  2
DEFAULT_2
 70
0
 62
7
  6
HIDDEN
370
-3
390
F
  0
LAYER
  5
1FC
100
AcDbSymbolTableRecord
100
AcDbLayerTableRecord
  2
DEFAULT_3
 70
0
 62
7
  6
PHANTOM
370
-3
390
F
  0
LAYER
  5
1FD
100
AcDbSymbolTableRecord
100
AcDbLayerTableRecord
  2
ASSI
 70
0
 62
7
  6
CONTINUOUS
370
-3
390
F
  0
LAYER
  5
1FE
100
AcDbSymbolTableRecord
100
AcDbLayerTableRecord
  2
COORDINATE
 70
0
 62
7
  6
CONTINUOUS
370
-3
390
F
  0
LAYER
  5
1FF
100
AcDbSymbolTableRecord
100
AcDbLayerTableRecord
  2
COORD_ORIGINE
 70
0
 62
7
  6
CONTINUOUS
370
-3
390
F
  0
LAYER
  5
200
100
AcDbSymbolTableRecord
100
AcDbLayerTableRecord
  2
COSMETICI
 70
0
 62
7
  6
CONTINUOUS
370
-3
390
F
  0
LAYER
  5
201
100
AcDbSymbolTableRecord
100
AcDbLayerTableRecord
  2
CURVE
 70
0
 62
7
  6
CONTINUOUS
370
-3
390
F
  0
LAYER
  5
202
100
AcDbSymbolTableRecord
100
AcDbLayerTableRecord
  2
DRAFT
 70
0
 62
7
  6
CONTINUOUS
370
-3
390
F
  0
LAYER
  5
203
100
AcDbSymbolTableRecord
100
AcDbLayerTableRecord
  2
IGES
 70
0
 62
7
  6
CONTINUOUS
370
-3
390
F
  0
LAYER
  5
204
100
AcDbSymbolTableRecord
100
AcDbLayerTableRecord
  2
NOTE
 70
0
 62
7
  6
CONTINUOUS
370
-3
390
F
  0
LAYER
  5
205
100
AcDbSymbolTableRecord
100
AcDbLayerTableRecord
  2
PIANI
 70
0
 62
7
  6
CONTINUOUS
370
-3
390
F
  0
LAYER
  5
206
100
AcDbSymbolTableRecord
100
AcDbLayerTableRecord
  2
PIANI_ORIGINE
 70
0
 62
7
  6
CONTINUOUS
370
-3
390
F
  0
LAYER
  5
207
100
AcDbSymbolTableRecord
100
AcDbLayerTableRecord
  2
PIANI_RIFERIMENTO
 70
0
 62
7
  6
CONTINUOUS
370
-3
390
F
  0
LAYER
  5
208
100
AcDbSymbolTableRecord
100
AcDbLayerTableRecord
  2
PUNTI
 70
0
 62
7
  6
CONTINUOUS
370
-3
390
F
  0
LAYER
  5
209
100
AcDbSymbolTableRecord
100
AcDbLayerTableRecord
  2
RACCORDO
 70
0
 62
7
  6
CONTINUOUS
370
-3
390
F
  0
LAYER
  5
20A
100
AcDbSymbolTableRecord
100
AcDbLayerTableRecord
  2
SIMBOLI
 70
0
 62
7
  6
CONTINUOUS
370
-3
390
F
  0
LAYER
  5
20B
100
AcDbSymbolTableRecord
100
AcDbLayerTableRecord
  2
SMUSSO
 70
0
 62
7
  6
CONTINUOUS
370
-3
390
F
  0
LAYER
  5
20C
100
AcDbSymbolTableRecord
100
AcDbLayerTableRecord
  2
SNAPLINE
 70
0
 62
7
  6
CONTINUOUS
370
-3
390
F
  0
LAYER
  5
20D
100
AcDbSymbolTableRecord
100
AcDbLayerTableRecord
  2
SUPERFICI
 70
0
 62
7
  6
CONTINUOUS
370
-3
390
F
  0
LAYER
  5
20E
100
AcDbSymbolTableRecord
100
AcDbLayerTableRecord
  2
TRASH
 70
0
 62
7
  6
CONTINUOUS
370
-3
390
F
  0
LAYER
  5
20F
100
AcDbSymbolTableRecord
100
AcDbLayerTableRecord
  2
XSEC_DATUMS
 70
0
 62
7
  6
CONTINUOUS
370
-3
390
F
  0
ENDTAB
  0
TABLE
  2
STYLE
  5
3
100
AcDbSymbolTable
 70
1
  0
STYLE
  5
11
100
AcDbSymbolTableRecord
100
AcDbTextStyleTableRecord
  2
STANDARD
 70
0
 40
0.0
 41
0.8
 50
0.0
 71
0
 42
0.2
  3
txt
  4

  0
STYLE
  5
210
100
AcDbSymbolTableRecord
100
AcDbTextStyleTableRecord
  2
TEXTSTYLE_1
 70
0
 40
0.0
 41
0.8
 50
0.0
 71
0
 42
0.2
  3
gdt
  4

  0
ENDTAB
  0
TABLE
  2
VIEW
  5
6
100
AcDbSymbolTable
 70
0
  0
ENDTAB
  0
TABLE
  2
UCS
  5
7
100
AcDbSymbolTable
 70
0
  0
ENDTAB
  0
TABLE
  2
APPID
  5
9
100
AcDbSymbolTable
 70
1
  0
APPID
  5
211
100
AcDbSymbolTableRecord
100
AcDbRegAppTableRecord
  2
ACAD
 70
0
  0
ENDTAB
  0
TABLE
  2
BLOCK_RECORD
  5
1
100
AcDbSymbolTable
 70
0
  0
BLOCK_RECORD
  5
212
100
AcDbSymbolTableRecord
100
AcDbBlockTableRecord
  2
*Model_Space
  0
BLOCK_RECORD
  5
213
100
AcDbSymbolTableRecord
100
AcDbBlockTableRecord
  2
*Paper_Space
  0
BLOCK_RECORD
  5
214
100
AcDbSymbolTableRecord
100
AcDbBlockTableRecord
  2
_FILLED
  0
ENDTAB
  0
TABLE
  2
DIMSTYLE
  5
A
100
AcDbSymbolTable
 70
1
100
AcDbDimStyleTable
 71
0
  0
DIMSTYLE
105
215
100
AcDbSymbolTableRecord
100
AcDbDimStyleTableRecord
  2
STANDARD
 70
0
  3

  4

 40
1.0
 41
3.0
 42
0.5
 43
0.38
 44
1.5
 45
0.0
 46
0.0
 47
0.01
 48
0.01
140
3.0
141
0.09
142
0.0
143
25.4
144
1.0
145
0.0
146
1.0
147
0.625
 71
1
 72
0
 73
0
 74
0
 75
0
 76
0
 77
1
 78
8
 79
2
170
0
171
1
172
0
173
0
174
0
175
0
176
0
177
0
178
0
270
2
179
2
271
2
272
2
273
2
274
2
275
0
280
0
281
0
282
0
283
1
284
8
285
0
286
0
287
3
288
0
340
11
278
44
341
214
342
214
343
214
344
214
  0
ENDTAB
  0
ENDSEC
  0
SECTION
  2
BLOCKS
  0
BLOCK
  5
20
100
AcDbEntity
  8
0
100
AcDbBlockBegin
  2
*Model_Space
 70
0
 10
0.0
 20
0.0
 30
0.0
  3
*Model_Space
  1

  0
ENDBLK
  5
21
100
AcDbEntity
  8
0
100
AcDbBlockEnd
  0
BLOCK
  5
1C
100
AcDbEntity
  8
0
100
AcDbBlockBegin
  2
*Paper_Space
 70
0
 10
0.0
 20
0.0
 30
0.0
  3
*Paper_Space
  1

  0
ENDBLK
  5
1D
100
AcDbEntity
  8
0
100
AcDbBlockEnd
  0
BLOCK
  5
216
100
AcDbEntity
  8
0
100
AcDbBlockBegin
  2
_FILLED
 70
64
 10
0.0
 20
0.0
  3
_FILLED
  1

  0
SOLID
  5
217
100
AcDbEntity
  8
0
  6
BYBLOCK
 62
0
100
AcDbTrace
 10
0.0
 20
0.0
 11
-1.0
 21
0.3166666667
 12
-1.0
 22
-0.3166666667
 13
-1.0
 23
-0.3166666667
  0
ENDBLK
  5
218
100
AcDbEntity
  8
0
  6
BYBLOCK
 62
0
100
AcDbBlockEnd
  0
ENDSEC
  0
SECTION
  2
ENTITIES
  0
LINE
  5
219
100
AcDbEntity
  8
RACCORDO
100
AcDbLine
 62
7
  6
CONTINUOUS
 10
3.5555907899
 20
-21.6501394228
 11
3.906280756
 21
-21.6183062648
  0
LINE
  5
21A
100
AcDbEntity
  8
RACCORDO
100
AcDbLine
 62
7
  6
CONTINUOUS
 10
-7.6444092101
 20
-21.6501394228
 11
-7.293719244
 21
-21.6183062648
  0
LINE
  5
21B
100
AcDbEntity
  8
RACCORDO
100
AcDbLine
 62
7
  6
CONTINUOUS
 10
10.8005617223
 20
-21.6501394228
 11
7.9724407759
 21
-21.6501394228
  0
LINE
  5
21C
100
AcDbEntity
  8
DRAFT
100
AcDbLine
 62
7
  6
CONTINUOUS
 10
3.5555907899
 20
-21.6501394228
 11
-3.2275592241
 21
-21.6501394228
  0
LINE
  5
21D
100
AcDbEntity
  8
RACCORDO
100
AcDbLine
 62
7
  6
CONTINUOUS
 10
-7.6444092101
 20
-21.6501394228
 11
-10.4725301565
 21
-21.6501394228
  0
LINE
  5
21E
100
AcDbEntity
  8
RACCORDO
100
AcDbLine
 62
7
  6
CONTINUOUS
 10
7.4485457291
 20
-21.6130654869
 11
4.0794858367
 21
-21.6130654869
  0
LINE
  5
21F
100
AcDbEntity
  8
RACCORDO
100
AcDbLine
 62
7
  6
CONTINUOUS
 10
-3.7514542709
 20
-21.6130654869
 11
-7.1205141633
 21
-21.6130654869
  0
LINE
  5
220
100
AcDbEntity
  8
RACCORDO
100
AcDbLine
 62
7
  6
CONTINUOUS
 10
-3.2275592241
 20
-21.6501394228
 11
-3.5782491902
 21
-21.6183062648
  0
LINE
  5
221
100
AcDbEntity
  8
RACCORDO
100
AcDbLine
 62
7
  6
CONTINUOUS
 10
7.9724407759
 20
-21.6501394228
 11
7.6217508098
 21
-21.6183062648
  0
LWPOLYLINE
  5
222
100
AcDbEntity
  8
RACCORDO
100
AcDbPolyline
 62
250
  6
CONTINUOUS
 90
8
 70
0
 10
-9.6731870592
 20
-19.5980178505
 10
-9.672371392
 20
-19.5987270657
 10
-9.6704732381
 20
-19.599295761
 10
-9.6675160574
 20
-19.5997940307
 10
-9.6634965711
 20
-19.6003598509
 10
-9.6584143104
 20
-19.6009740597
 10
-9.6523163649
 20
-19.6014831803
 10
-9.6372495375
 20
-19.6025471161
  0
LINE
  5
223
100
AcDbEntity
  8
RACCORDO
100
AcDbLine
 62
7
  6
CONTINUOUS
 10
3.906280756
 20
-20.0689283318
 11
3.4802973061
 21
-20.1595218478
  0
LWPOLYLINE
  5
224
100
AcDbEntity
  8
RACCORDO
100
AcDbPolyline
 62
250
  6
CONTINUOUS
 90
13
 70
0
 10
9.9247748803
 20
-19.6042773648
 10
9.9360614246
 20
-19.603883692
 10
9.9466106834
 20
-19.6034579479
 10
9.9563649629
 20
-19.6030024609
 10
9.9652709173
 20
-19.6025197211
 10
9.9732798401
 20
-19.6020123687
 10
9.9803479307
 20
-19.6014831803
 10
9.9864365339
 20
-19.6009350474
 10
9.9915123512
 20
-19.6003709678
 10
9.9955476232
 20
-19.5997940307
 10
9.998520281
 20
-19.5992073905
 10
10.0004140673
 20
-19.5986142503
 10
10.001218625
 20
-19.5980178505
  0
LINE
  5
225
100
AcDbEntity
  8
RACCORDO
100
AcDbLine
 62
250
  6
CONTINUOUS
 10
9.9002405329
 20
-19.604960069
 11
9.9247748803
 21
-19.6042773648
  0
LINE
  5
226
100
AcDbEntity
  8
RACCORDO
100
AcDbLine
 62
250
  6
CONTINUOUS
 10
9.8735436184
 20
-19.6054911486
 11
9.9002405329
 21
-19.604960069
  0
LINE
  5
227
100
AcDbEntity
  8
RACCORDO
100
AcDbLine
 62
250
  6
CONTINUOUS
 10
9.8452673578
 20
-19.6058590002
 11
9.8735436184
 21
-19.6054911486
  0
LINE
  5
228
100
AcDbEntity
  8
RACCORDO
100
AcDbLine
 62
250
  6
CONTINUOUS
 10
9.816029474
 20
-19.6060555929
 11
9.8452673578
 21
-19.6058590002
  0
LINE
  5
229
100
AcDbEntity
  8
RACCORDO
100
AcDbLine
 62
7
  6
CONTINUOUS
 10
9.8528524568
 20
-20.1595218478
 11
8.0477342597
 21
-20.1595218478
  0
LINE
  5
22A
100
AcDbEntity
  8
DRAFT
100
AcDbLine
 62
7
  6
CONTINUOUS
 10
3.4802973061
 20
-20.1595218478
 11
-3.1522657403
 21
-20.1595218478
  0
LINE
  5
22B
100
AcDbEntity
  8
RACCORDO
100
AcDbLine
 62
7
  6
CONTINUOUS
 10
-7.7197026939
 20
-20.1595218478
 11
-9.524820891
 21
-20.1595218478
  0
LINE
  5
22C
100
AcDbEntity
  8
RACCORDO
100
AcDbLine
 62
7
  6
CONTINUOUS
 10
7.4485457291
 20
-20.0566498758
 11
6.0841481569
 21
-20.0566498758
  0
LINE
  5
22D
100
AcDbEntity
  8
RACCORDO
100
AcDbLine
 62
7
  6
CONTINUOUS
 10
5.4438834089
 20
-20.0566498758
 11
4.0794858367
 21
-20.0566498758
  0
LINE
  5
22E
100
AcDbEntity
  8
RACCORDO
100
AcDbLine
 62
7
  6
CONTINUOUS
 10
-3.7514542709
 20
-20.0566498758
 11
-5.1158518431
 21
-20.0566498758
  0
LINE
  5
22F
100
AcDbEntity
  8
RACCORDO
100
AcDbLine
 62
7
  6
CONTINUOUS
 10
-5.7561165911
 20
-20.0566498758
 11
-7.1205141633
 21
-20.0566498758
  0
LINE
  5
230
100
AcDbEntity
  8
RACCORDO
100
AcDbLine
 62
7
  6
CONTINUOUS
 10
-5.3580919879
 20
-19.8497843297
 11
-5.5138764463
 21
-19.8497843297
  0
LINE
  5
231
100
AcDbEntity
  8
RACCORDO
100
AcDbLine
 62
7
  6
CONTINUOUS
 10
5.6861235537
 20
-19.8497843297
 11
5.8419080121
 21
-19.8497843297
  0
LINE
  5
232
100
AcDbEntity
  8
RACCORDO
100
AcDbLine
 62
250
  6
CONTINUOUS
 10
-9.4732175201
 20
-19.7965270808
 11
-5.8300972943
 21
-19.7965270808
  0
LINE
  5
233
100
AcDbEntity
  8
RACCORDO
100
AcDbLine
 62
250
  6
CONTINUOUS
 10
-5.0418711399
 20
-19.7965270808
 11
5.3699027057
 21
-19.7965270808
  0
LINE
  5
234
100
AcDbEntity
  8
RACCORDO
100
AcDbLine
 62
250
  6
CONTINUOUS
 10
6.1581288601
 20
-19.7965270808
 11
9.8012490859
 21
-19.7965270808
  0
LINE
  5
235
100
AcDbEntity
  8
RACCORDO
100
AcDbLine
 62
250
  6
CONTINUOUS
 10
-9.4732175098
 20
-19.606088166
 11
-5.8362246057
 21
-19.606088166
  0
LINE
  5
236
100
AcDbEntity
  8
RACCORDO
100
AcDbLine
 62
250
  6
CONTINUOUS
 10
-5.0357438285
 20
-19.606088166
 11
5.3637753943
 21
-19.606088166
  0
LINE
  5
237
100
AcDbEntity
  8
RACCORDO
100
AcDbLine
 62
250
  6
CONTINUOUS
 10
6.1642561715
 20
-19.606088166
 11
9.816029474
 21
-19.6060555929
  0
LWPOLYLINE
  5
238
100
AcDbEntity
  8
RACCORDO
100
AcDbPolyline
 62
250
  6
CONTINUOUS
 90
3
 70
0
 10
-9.517235792
 20
-19.6058590002
 10
-9.4879641008
 20
-19.6059529629
 10
-9.4732175201
 20
-19.606088166
  0
LINE
  5
239
100
AcDbEntity
  8
RACCORDO
100
AcDbLine
 62
250
  6
CONTINUOUS
 10
-9.5315398207
 20
-19.6057139971
 11
-9.517235792
 21
-19.6058590002
  0
LWPOLYLINE
  5
23A
100
AcDbEntity
  8
RACCORDO
100
AcDbPolyline
 62
250
  6
CONTINUOUS
 90
3
 70
0
 10
-9.5967433145
 20
-19.6042773648
 10
-9.5722156554
 20
-19.6049770592
 10
-9.5315398207
 20
-19.6057139971
  0
LWPOLYLINE
  5
23B
100
AcDbEntity
  8
RACCORDO
100
AcDbPolyline
 62
250
  6
CONTINUOUS
 90
25
 70
0
 10
-9.4732175201
 20
-19.7965270808
 10
-9.4862784996
 20
-19.7960756304
 10
-9.4992837012
 20
-19.7947783606
 10
-9.5121775854
 20
-19.7926408114
 10
-9.524905088
 20
-19.7896721114
 10
-9.5374118552
 20
-19.7858849386
 10
-9.5496444761
 20
-19.7812954665
 10
-9.5615507103
 20
-19.7759232946
 10
-9.5730797116
 20
-19.7697913652
 10
-9.5841822445
 20
-19.7629258651
 10
-9.5948108949
 20
-19.755356114
 10
-9.6049202723
 20
-19.747114439
 10
-9.6144672041
 20
-19.7382360366
 10
-9.6234109193
 20
-19.7287588228
 10
-9.6317132232
 20
-19.7187232707
 10
-9.6393386603
 20
-19.7081722377
 10
-9.6462546655
 20
-19.6971507828
 10
-9.6524317037
 20
-19.6857059738
 10
-9.6578433953
 20
-19.6738866867
 10
-9.6624666294
 20
-19.6617433964
 10
-9.666281662
 20
-19.6493279618
 10
-9.6692722009
 20
-19.6366934038
 10
-9.6714254747
 20
-19.6238936792
 10
-9.6727322877
 20
-19.6109834501
 10
-9.6731870592
 20
-19.5980178505
  0
LWPOLYLINE
  5
23C
100
AcDbEntity
  8
RACCORDO
100
AcDbPolyline
 62
250
  6
CONTINUOUS
 90
3
 70
0
 10
-9.6283333971
 20
-19.603002461
 10
-9.6080379557
 20
-19.6039033517
 10
-9.5967433145
 20
-19.6042773648
  0
LINE
  5
23D
100
AcDbEntity
  8
RACCORDO
100
AcDbLine
 62
250
  6
CONTINUOUS
 10
-9.6372495375
 20
-19.6025471161
 11
-9.6283333971
 21
-19.603002461
  0
LINE
  5
23E
100
AcDbEntity
  8
RACCORDO
100
AcDbLine
 62
7
  6
CONTINUOUS
 10
-3.5782491902
 20
-20.0689283318
 11
-3.1522657403
 21
-20.1595218478
  0
LINE
  5
23F
100
AcDbEntity
  8
RACCORDO
100
AcDbLine
 62
7
  6
CONTINUOUS
 10
-7.293719244
 20
-20.0689283318
 11
-7.7197026939
 21
-20.1595218478
  0
LWPOLYLINE
  5
240
100
AcDbEntity
  8
RACCORDO
100
AcDbPolyline
 62
250
  6
CONTINUOUS
 90
25
 70
0
 10
5.8044767069
 20
-17.5511037968
 10
5.8204969649
 20
-17.5506723186
 10
5.8364513525
 20
-17.5498082161
 10
5.8522742734
 20
-17.5485150421
 10
5.8679006725
 20
-17.5467981137
 10
5.8832663014
 20
-17.5446644905
 10
5.8983079825
 20
-17.5421229453
 10
5.9129638723
 20
-17.5391839282
 10
5.9271737138
 20
-17.5358595233
 10
5.9408790827
 20
-17.5321633996
 10
5.9540236302
 20
-17.5281107541
 10
5.9665533136
 20
-17.5237182496
 10
5.978416618
 20
-17.5190039463
 10
5.9895647684
 20
-17.5139872275
 10
5.9999519309
 20
-17.5086887196
 10
6.0095354004
 20
-17.5031302074
 10
6.0182757756
 20
-17.497334545
 10
6.0261371222
 20
-17.491325561
 10
6.0330871205
 20
-17.485127961
 10
6.0390971965
 20
-17.4787672263
 10
6.0441426414
 20
-17.4722695088
 10
6.0482027126
 20
-17.4656615227
 10
6.051260718
 20
-17.4589704361
 10
6.0533040852
 20
-17.4522237595
 10
6.0543244137
 20
-17.4454492314
  0
LINE
  5
241
100
AcDbEntity
  8
RACCORDO
100
AcDbLine
 62
250
  6
CONTINUOUS
 10
5.8044767069
 20
-17.5511037968
 11
5.7235548588
 21
-17.5511037968
  0
LINE
  5
242
100
AcDbEntity
  8
RACCORDO
100
AcDbLine
 62
250
  6
CONTINUOUS
 10
-5.3955232931
 20
-17.5511037968
 11
-5.4764451412
 21
-17.5511037968
  0
LWPOLYLINE
  5
243
100
AcDbEntity
  8
RACCORDO
100
AcDbPolyline
 62
250
  6
CONTINUOUS
 90
25
 70
0
 10
-5.4764451412
 20
-17.5511037968
 10
-5.4924653395
 20
-17.5506723221
 10
-5.5084196713
 20
-17.549808226
 10
-5.5242425409
 20
-17.5485150611
 10
-5.5398688929
 20
-17.5467981443
 10
-5.5552344802
 20
-17.5446645346
 10
-5.5702761276
 20
-17.5421230043
 10
-5.5849319919
 20
-17.5391840028
 10
-5.5991418159
 20
-17.5358596138
 10
-5.6128471764
 20
-17.5321635054
 10
-5.6259917241
 20
-17.5281108739
 10
-5.6385214159
 20
-17.5237183817
 10
-5.6503847361
 20
-17.5190040883
 10
-5.6615329092
 20
-17.5139873765
 10
-5.6719200997
 20
-17.5086888723
 10
-5.6815036011
 20
-17.5031303602
 10
-5.6902440111
 20
-17.497334694
 10
-5.6981053938
 20
-17.4913257024
 10
-5.7050554273
 20
-17.4851280911
 10
-5.7110655368
 20
-17.4787673414
 10
-5.716111012
 20
-17.4722696054
 10
-5.7201711085
 20
-17.4656615982
 10
-5.7232291333
 20
-17.4589704886
 10
-5.7252725136
 20
-17.4522237867
 10
-5.7262928479
 20
-17.4454492314
  0
LINE
  5
244
100
AcDbEntity
  8
RACCORDO
100
AcDbLine
 62
7
  6
CONTINUOUS
 10
7.6217508098
 20
-20.0689283318
 11
8.0477342597
 21
-20.1595218478
  0
LINE
  5
245
100
AcDbEntity
  8
RACCORDO
100
AcDbLine
 62
250
  6
CONTINUOUS
 10
-5.7872101317
 20
16.3834386841
 11
-5.8416044101
 21
16.3562498313
  0
LINE
  5
246
100
AcDbEntity
  8
RACCORDO
100
AcDbLine
 62
250
  6
CONTINUOUS
 10
-5.5373628834
 20
16.1334765312
 11
-5.5918798892
 21
16.1062263334
  0
LWPOLYLINE
  5
247
100
AcDbEntity
  8
RACCORDO
100
AcDbPolyline
 62
7
  6
CONTINUOUS
 90
31
 70
0
 10
5.6643531409
 20
-16.5909323281
 10
5.648738553
 20
-16.5918788239
 10
5.6334471199
 20
-16.5935100856
 10
5.6185320489
 20
-16.595826113
 10
5.6040477827
 20
-16.5988725841
 10
5.5900277396
 20
-16.602603821
 10
5.5764856876
 20
-16.6068827901
 10
5.5634560934
 20
-16.6117034645
 10
5.5509612468
 20
-16.6170718712
 10
5.5389926191
 20
-16.6228690572
 10
5.5275699721
 20
-16.6290882126
 10
5.516708346
 20
-16.6357361473
 10
5.5063918381
 20
-16.6427143391
 10
5.4966308891
 20
-16.6500175614
 10
5.4874354489
 20
-16.6576510407
 10
5.4787907167
 20
-16.6655319339
 10
5.4707016748
 20
-16.6736568059
 10
5.4631739602
 20
-16.6820290919
 10
5.4561961512
 20
-16.6905762542
 10
5.4497695001
 20
-16.6992963552
 10
5.4438960774
 20
-16.7081913326
 10
5.4385676243
 20
-16.7171944626
 10
5.4337823719
 20
-16.7263047622
 10
5.4295390573
 20
-16.7355232145
 10
5.4258310433
 20
-16.7447860445
 10
5.4226535551
 20
-16.7540929492
 10
5.4200020684
 20
-16.7634442318
 10
5.4178697052
 20
-16.7727770271
 10
5.41624876
 20
-16.7820703802
 10
5.4151305856
 20
-16.7913452462
 10
5.4145054342
 20
-16.8006016249
  0
LWPOLYLINE
  5
248
100
AcDbEntity
  8
RACCORDO
100
AcDbPolyline
 62
250
  6
CONTINUOUS
 90
25
 70
0
 10
5.722275607
 20
-16.8468701478
 10
5.7059973847
 20
-16.8474904408
 10
5.6897883349
 20
-16.8491542631
 10
5.673717333
 20
-16.8518545442
 10
5.6578526676
 20
-16.8555798096
 10
5.6422617515
 20
-16.8603142294
 10
5.6270108357
 20
-16.8660376846
 10
5.6121647244
 20
-16.872725854
 10
5.5977865012
 20
-16.8803503176
 10
5.5839372629
 20
-16.8888786757
 10
5.5706758573
 20
-16.8982746883
 10
5.5580586337
 20
-16.9084984292
 10
5.5461392047
 20
-16.9195064542
 10
5.5349682176
 20
-16.9312519871
 10
5.5245931387
 20
-16.943685118
 10
5.5150580523
 20
-16.9567530158
 10
5.5064034738
 20
-16.9704001517
 10
5.4986661767
 20
-16.9845685362
 10
5.4918790365
 20
-16.9991979659
 10
5.486070892
 20
-17.0142262773
 10
5.4812664218
 20
-17.0295896124
 10
5.4774860396
 20
-17.0452226916
 10
5.474745808
 20
-17.0610590879
 10
5.4730573703
 20
-17.0770315092
 10
5.4724279002
 20
-17.093072086
  0
LWPOLYLINE
  5
249
100
AcDbEntity
  8
RACCORDO
100
AcDbPolyline
 62
250
  6
CONTINUOUS
 90
25
 70
0
 10
-5.477724393
 20
-16.8468701478
 10
-5.4940026153
 20
-16.8474904408
 10
-5.5102116651
 20
-16.8491542631
 10
-5.526282667
 20
-16.8518545442
 10
-5.5421473324
 20
-16.8555798096
 10
-5.5577382485
 20
-16.8603142294
 10
-5.5729891643
 20
-16.8660376846
 10
-5.5878352756
 20
-16.872725854
 10
-5.6022134988
 20
-16.8803503176
 10
-5.6160627371
 20
-16.8888786757
 10
-5.6293241427
 20
-16.8982746883
 10
-5.6419413663
 20
-16.9084984292
 10
-5.6538607953
 20
-16.9195064542
 10
-5.6650317824
 20
-16.9312519871
 10
-5.6754068613
 20
-16.943685118
 10
-5.6849419477
 20
-16.9567530158
 10
-5.6935965262
 20
-16.9704001517
 10
-5.7013338233
 20
-16.9845685362
 10
-5.7081209635
 20
-16.9991979659
 10
-5.713929108
 20
-17.0142262773
 10
-5.7187335782
 20
-17.0295896124
 10
-5.7225139604
 20
-17.0452226916
 10
-5.725254192
 20
-17.0610590879
 10
-5.7269426297
 20
-17.0770315092
 10
-5.7275720998
 20
-17.093072086
  0
LWPOLYLINE
  5
24A
100
AcDbEntity
  8
RACCORDO
100
AcDbPolyline
 62
250
  6
CONTINUOUS
 90
25
 70
0
 10
-5.3955232931
 20
-17.5511037968
 10
-5.3795030351
 20
-17.5506723186
 10
-5.3635486475
 20
-17.5498082161
 10
-5.3477257266
 20
-17.5485150421
 10
-5.3320993275
 20
-17.5467981137
 10
-5.3167336986
 20
-17.5446644905
 10
-5.3016920175
 20
-17.5421229453
 10
-5.2870361277
 20
-17.5391839282
 10
-5.2728262862
 20
-17.5358595233
 10
-5.2591209173
 20
-17.5321633996
 10
-5.2459763698
 20
-17.5281107541
 10
-5.2334466864
 20
-17.5237182496
 10
-5.221583382
 20
-17.5190039463
 10
-5.2104352316
 20
-17.5139872275
 10
-5.2000480691
 20
-17.5086887196
 10
-5.1904645996
 20
-17.5031302074
 10
-5.1817242244
 20
-17.497334545
 10
-5.1738628778
 20
-17.491325561
 10
-5.1669128795
 20
-17.485127961
 10
-5.1609028035
 20
-17.4787672263
 10
-5.1558573586
 20
-17.4722695088
 10
-5.1517972874
 20
-17.4656615227
 10
-5.148739282
 20
-17.4589704361
 10
-5.1466959148
 20
-17.4522237595
 10
-5.1456755863
 20
-17.4454492314
  0
LINE
  5
24B
100
AcDbEntity
  8
RACCORDO
100
AcDbLine
 62
250
  6
CONTINUOUS
 10
-5.7261292577
 20
-17.4243183183
 11
-5.1458391765
 21
-17.4243183183
  0
LINE
  5
24C
100
AcDbEntity
  8
RACCORDO
100
AcDbLine
 62
250
  6
CONTINUOUS
 10
5.4738707423
 20
-17.4243183183
 11
6.0541608235
 21
-17.4243183183
  0
LINE
  5
24D
100
AcDbEntity
  8
RACCORDO
100
AcDbLine
 62
250
  6
CONTINUOUS
 10
-5.7261292577
 20
-17.1423124737
 11
-5.1458391765
 21
-17.1423124737
  0
LINE
  5
24E
100
AcDbEntity
  8
RACCORDO
100
AcDbLine
 62
250
  6
CONTINUOUS
 10
5.4738707423
 20
-17.1423124737
 11
6.0541608235
 21
-17.1423124737
  0
LINE
  5
24F
100
AcDbEntity
  8
RACCORDO
100
AcDbLine
 62
250
  6
CONTINUOUS
 10
5.8057559588
 20
-16.8468701478
 11
5.722275607
 21
-16.8468701478
  0
LINE
  5
250
100
AcDbEntity
  8
RACCORDO
100
AcDbLine
 62
250
  6
CONTINUOUS
 10
-5.3942440412
 20
-16.8468701478
 11
-5.477724393
 21
-16.8468701478
  0
LINE
  5
251
100
AcDbEntity
  8
RACCORDO
100
AcDbLine
 62
7
  6
CONTINUOUS
 10
5.8564642145
 20
-16.5908267171
 11
5.6715673513
 21
-16.5908267171
  0
LINE
  5
252
100
AcDbEntity
  8
RACCORDO
100
AcDbLine
 62
7
  6
CONTINUOUS
 10
-5.5284326487
 20
-16.5908267171
 11
-5.3435357855
 21
-16.5908267171
  0
LWPOLYLINE
  5
253
100
AcDbEntity
  8
RACCORDO
100
AcDbPolyline
 62
250
  6
CONTINUOUS
 90
25
 70
0
 10
5.7235548588
 20
-17.5511037968
 10
5.7075346605
 20
-17.5506723221
 10
5.6915803287
 20
-17.549808226
 10
5.6757574591
 20
-17.5485150611
 10
5.6601311071
 20
-17.5467981443
 10
5.6447655198
 20
-17.5446645346
 10
5.6297238724
 20
-17.5421230043
 10
5.6150680081
 20
-17.5391840028
 10
5.6008581841
 20
-17.5358596138
 10
5.5871528236
 20
-17.5321635054
 10
5.5740082759
 20
-17.5281108739
 10
5.5614785841
 20
-17.5237183817
 10
5.5496152639
 20
-17.5190040883
 10
5.5384670908
 20
-17.5139873765
 10
5.5280799003
 20
-17.5086888723
 10
5.5184963989
 20
-17.5031303602
 10
5.5097559889
 20
-17.497334694
 10
5.5018946062
 20
-17.4913257024
 10
5.4949445727
 20
-17.4851280911
 10
5.4889344632
 20
-17.4787673414
 10
5.483888988
 20
-17.4722696054
 10
5.4798288915
 20
-17.4656615982
 10
5.4767708667
 20
-17.4589704886
 10
5.4747274864
 20
-17.4522237867
 10
5.4737071521
 20
-17.4454492314
  0
LWPOLYLINE
  5
254
100
AcDbEntity
  8
RACCORDO
100
AcDbPolyline
 62
250
  6
CONTINUOUS
 90
25
 70
0
 10
-5.3942440412
 20
-16.8468701478
 10
-5.3779658752
 20
-16.8474904368
 10
-5.3617568782
 20
-16.8491542482
 10
-5.3456859253
 20
-16.8518545122
 10
-5.3298213048
 20
-16.8555797547
 10
-5.3142304286
 20
-16.8603141466
 10
-5.2989795453
 20
-16.8660375706
 10
-5.2841334586
 20
-16.8727257066
 10
-5.2697552523
 20
-16.8803501357
 10
-5.2559060222
 20
-16.8888784601
 10
-5.2426446163
 20
-16.8982744415
 10
-5.2300273846
 20
-16.9084981544
 10
-5.2181079403
 20
-16.9195061566
 10
-5.2069369312
 20
-16.9312516729
 10
-5.1965618251
 20
-16.9436847943
 10
-5.1870267076
 20
-16.9567526903
 10
-5.1783720954
 20
-16.970399833
 10
-5.1706347635
 20
-16.9845682329
 10
-5.1638475893
 20
-16.9991976861
 10
-5.1580394126
 20
-17.0142260291
 10
-5.1532349137
 20
-17.0295894038
 10
-5.1494545075
 20
-17.0452225283
 10
-5.146714258
 20
-17.0610589745
 10
-5.1450258088
 20
-17.0770314504
 10
-5.1443963344
 20
-17.093072086
  0
LWPOLYLINE
  5
255
100
AcDbEntity
  8
RACCORDO
100
AcDbPolyline
 62
250
  6
CONTINUOUS
 90
25
 70
0
 10
5.8057559588
 20
-16.8468701478
 10
5.8220341248
 20
-16.8474904368
 10
5.8382431218
 20
-16.8491542482
 10
5.8543140747
 20
-16.8518545122
 10
5.8701786952
 20
-16.8555797547
 10
5.8857695714
 20
-16.8603141466
 10
5.9010204547
 20
-16.8660375706
 10
5.9158665414
 20
-16.8727257066
 10
5.9302447477
 20
-16.8803501357
 10
5.9440939778
 20
-16.8888784601
 10
5.9573553837
 20
-16.8982744415
 10
5.9699726154
 20
-16.9084981544
 10
5.9818920597
 20
-16.9195061566
 10
5.9930630688
 20
-16.9312516729
 10
6.0034381749
 20
-16.9436847943
 10
6.0129732924
 20
-16.9567526903
 10
6.0216279046
 20
-16.970399833
 10
6.0293652365
 20
-16.9845682329
 10
6.0361524107
 20
-16.9991976861
 10
6.0419605874
 20
-17.0142260291
 10
6.0467650863
 20
-17.0295894038
 10
6.0505454925
 20
-17.0452225283
 10
6.053285742
 20
-17.0610589745
 10
6.0549741912
 20
-17.0770314504
 10
6.0556036656
 20
-17.093072086
  0
LINE
  5
256
100
AcDbEntity
  8
RACCORDO
100
AcDbLine
 62
250
  6
CONTINUOUS
 10
-5.8416044101
 20
-15.3379032655
 11
-5.7872101317
 21
-15.3650921183
  0
LINE
  5
257
100
AcDbEntity
  8
RACCORDO
100
AcDbLine
 62
250
  6
CONTINUOUS
 10
-5.5918798892
 20
-15.0878797676
 11
-5.5373628834
 21
-15.1151299654
  0
LWPOLYLINE
  5
258
100
AcDbEntity
  8
RACCORDO
100
AcDbPolyline
 62
250
  6
CONTINUOUS
 90
25
 70
0
 10
5.662637575
 20
-15.1151301945
 10
5.646303049
 20
-15.1156749228
 10
5.6300384179
 20
-15.1172868695
 10
5.6139132756
 20
-15.1199591368
 10
5.597996619
 20
-15.1236802903
 10
5.5823565529
 20
-15.1284344072
 10
5.5670599992
 20
-15.1342011449
 10
5.5521724091
 20
-15.140955828
 10
5.5377574842
 20
-15.1486695538
 10
5.5238769036
 20
-15.1573093161
 10
5.5105900599
 20
-15.166838146
 10
5.497953805
 20
-15.177215271
 10
5.4860222071
 20
-15.1883962884
 10
5.4748463193
 20
-15.2003333561
 10
5.464473961
 20
-15.2129753969
 10
5.4549495132
 20
-15.2262683174
 10
5.4463137291
 20
-15.2401552388
 10
5.4386035591
 20
-15.2545767413
 10
5.4318519934
 20
-15.2694711174
 10
5.42608792
 20
-15.2847746364
 10
5.4213360021
 20
-15.3004218171
 10
5.4176165715
 20
-15.3163457079
 10
5.4149455426
 20
-15.3324781733
 10
5.4133343437
 20
-15.3487501851
 10
5.4127898683
 20
-15.3650921183
  0
LWPOLYLINE
  5
259
100
AcDbEntity
  8
RACCORDO
100
AcDbPolyline
 62
250
  6
CONTINUOUS
 90
25
 70
0
 10
-5.537362425
 20
-15.1151301945
 10
-5.553696951
 20
-15.1156749228
 10
-5.5699615821
 20
-15.1172868695
 10
-5.5860867244
 20
-15.1199591368
 10
-5.602003381
 20
-15.1236802903
 10
-5.6176434471
 20
-15.1284344072
 10
-5.6329400008
 20
-15.1342011449
 10
-5.6478275909
 20
-15.140955828
 10
-5.6622425158
 20
-15.1486695538
 10
-5.6761230964
 20
-15.1573093161
 10
-5.6894099401
 20
-15.166838146
 10
-5.702046195
 20
-15.177215271
 10
-5.7139777929
 20
-15.1883962884
 10
-5.7251536807
 20
-15.2003333561
 10
-5.735526039
 20
-15.2129753969
 10
-5.7450504868
 20
-15.2262683174
 10
-5.7536862709
 20
-15.2401552388
 10
-5.7613964409
 20
-15.2545767413
 10
-5.7681480066
 20
-15.2694711174
 10
-5.77391208
 20
-15.2847746364
 10
-5.7786639979
 20
-15.3004218171
 10
-5.7823834285
 20
-15.3163457079
 10
-5.7850544574
 20
-15.3324781733
 10
-5.7866656563
 20
-15.3487501851
 10
-5.7872101317
 20
-15.3650921183
  0
LINE
  5
25A
100
AcDbEntity
  8
RACCORDO
100
AcDbLine
 62
250
  6
CONTINUOUS
 10
-5.7854945658
 20
-15.4150845031
 11
-5.0864738684
 21
-15.4150845031
  0
LINE
  5
25B
100
AcDbEntity
  8
RACCORDO
100
AcDbLine
 62
250
  6
CONTINUOUS
 10
5.4145054342
 20
-15.4150845031
 11
6.1135261316
 21
-15.4150845031
  0
LINE
  5
25C
100
AcDbEntity
  8
RACCORDO
100
AcDbLine
 62
250
  6
CONTINUOUS
 10
5.8653944492
 20
-15.1151299654
 11
5.6626371166
 21
-15.1151299654
  0
LINE
  5
25D
100
AcDbEntity
  8
RACCORDO
100
AcDbLine
 62
250
  6
CONTINUOUS
 10
-5.3346055508
 20
-15.1151299654
 11
-5.5373628834
 21
-15.1151299654
  0
LINE
  5
25E
100
AcDbEntity
  8
RACCORDO
100
AcDbLine
 62
7
  6
CONTINUOUS
 10
5.919911455
 20
-15.0878797676
 11
5.6081201108
 21
-15.0878797676
  0
LINE
  5
25F
100
AcDbEntity
  8
RACCORDO
100
AcDbLine
 62
7
  6
CONTINUOUS
 10
-5.280088545
 20
-15.0878797676
 11
-5.5918798892
 21
-15.0878797676
  0
LWPOLYLINE
  5
260
100
AcDbEntity
  8
RACCORDO
100
AcDbPolyline
 62
7
  6
CONTINUOUS
 90
28
 70
0
 10
-5.280088545
 20
-15.0878797676
 10
-5.2656298827
 20
-15.088297994
 10
-5.2511906908
 20
-15.0895549646
 10
-5.2368198656
 20
-15.0916517268
 10
-5.2225470135
 20
-15.0945910593
 10
-5.2084416185
 20
-15.098365889
 10
-5.194609845
 20
-15.1029479505
 10
-5.1811276236
 20
-15.1083035779
 10
-5.168006494
 20
-15.1144194839
 10
-5.1552539257
 20
-15.1212903447
 10
-5.1429120128
 20
-15.1288956364
 10
-5.1310248289
 20
-15.1372104375
 10
-5.1196072763
 20
-15.1462301308
 10
-5.1086731334
 20
-15.1559582615
 10
-5.0982978041
 20
-15.1663428815
 10
-5.0885793082
 20
-15.1772858401
 10
-5.0795699551
 20
-15.1887111819
 10
-5.071265787
 20
-15.2006056147
 10
-5.0636704032
 20
-15.2129558416
 10
-5.0568087756
 20
-15.2257184042
 10
-5.0507020245
 20
-15.2388508798
 10
-5.0453556114
 20
-15.2523461509
 10
-5.0407828367
 20
-15.2661941056
 10
-5.037018296
 20
-15.2803174932
 10
-5.0340911517
 20
-15.2946061517
 10
-5.0320082766
 20
-15.3089890667
 10
-5.0307663523
 20
-15.3234377762
 10
-5.0303640241
 20
-15.3379032655
  0
LWPOLYLINE
  5
261
100
AcDbEntity
  8
RACCORDO
100
AcDbPolyline
 62
7
  6
CONTINUOUS
 90
28
 70
0
 10
5.919911455
 20
-15.0878797676
 10
5.9343701173
 20
-15.088297994
 10
5.9488093092
 20
-15.0895549646
 10
5.9631801344
 20
-15.0916517268
 10
5.9774529865
 20
-15.0945910593
 10
5.9915583815
 20
-15.098365889
 10
6.005390155
 20
-15.1029479505
 10
6.0188723764
 20
-15.1083035779
 10
6.031993506
 20
-15.1144194839
 10
6.0447460743
 20
-15.1212903447
 10
6.0570879872
 20
-15.1288956364
 10
6.0689751711
 20
-15.1372104375
 10
6.0803927237
 20
-15.1462301308
 10
6.0913268666
 20
-15.1559582615
 10
6.1017021959
 20
-15.1663428815
 10
6.1114206918
 20
-15.1772858401
 10
6.1204300449
 20
-15.1887111819
 10
6.128734213
 20
-15.2006056147
 10
6.1363295968
 20
-15.2129558416
 10
6.1431912244
 20
-15.2257184042
 10
6.1492979755
 20
-15.2388508798
 10
6.1546443886
 20
-15.2523461509
 10
6.1592171633
 20
-15.2661941056
 10
6.162981704
 20
-15.2803174932
 10
6.1659088483
 20
-15.2946061517
 10
6.1679917234
 20
-15.3089890667
 10
6.1692336477
 20
-15.3234377762
 10
6.1696359759
 20
-15.3379032655
  0
LWPOLYLINE
  5
262
100
AcDbEntity
  8
RACCORDO
100
AcDbPolyline
 62
250
  6
CONTINUOUS
 90
25
 70
0
 10
-5.3346060092
 20
-15.1151301945
 10
-5.3182715115
 20
-15.115674921
 10
-5.3020069064
 20
-15.1172868623
 10
-5.2858817874
 20
-15.1199591213
 10
-5.2699651514
 20
-15.1236802639
 10
-5.2543251028
 20
-15.1284343678
 10
-5.239028563
 20
-15.1342010911
 10
-5.2241409832
 20
-15.1409557588
 10
-5.2097260651
 20
-15.148669469
 10
-5.1958454875
 20
-15.1573092159
 10
-5.1825586432
 20
-15.1668380314
 10
-5.1699223845
 20
-15.1772151434
 10
-5.1579907798
 20
-15.1883961498
 10
-5.1468148823
 20
-15.200333209
 10
-5.1364425121
 20
-15.2129752444
 10
-5.1269180506
 20
-15.2262681627
 10
-5.1182822516
 20
-15.2401550857
 10
-5.1105720661
 20
-15.2545765936
 10
-5.1038204848
 20
-15.2694709792
 10
-5.0980563965
 20
-15.2847745118
 10
-5.0933044649
 20
-15.3004217101
 10
-5.0895850227
 20
-15.3163456224
 10
-5.0869139848
 20
-15.3324781129
 10
-5.08530278
 20
-15.3487501533
 10
-5.0847583025
 20
-15.3650921183
  0
LWPOLYLINE
  5
263
100
AcDbEntity
  8
RACCORDO
100
AcDbPolyline
 62
250
  6
CONTINUOUS
 90
25
 70
0
 10
5.8653939908
 20
-15.1151301945
 10
5.8817284885
 20
-15.115674921
 10
5.8979930936
 20
-15.1172868623
 10
5.9141182126
 20
-15.1199591213
 10
5.9300348486
 20
-15.1236802639
 10
5.9456748972
 20
-15.1284343678
 10
5.960971437
 20
-15.1342010911
 10
5.9758590168
 20
-15.1409557588
 10
5.9902739349
 20
-15.148669469
 10
6.0041545125
 20
-15.1573092159
 10
6.0174413568
 20
-15.1668380314
 10
6.0300776155
 20
-15.1772151434
 10
6.0420092202
 20
-15.1883961498
 10
6.0531851177
 20
-15.200333209
 10
6.0635574879
 20
-15.2129752444
 10
6.0730819494
 20
-15.2262681627
 10
6.0817177484
 20
-15.2401550857
 10
6.0894279339
 20
-15.2545765936
 10
6.0961795152
 20
-15.2694709792
 10
6.1019436035
 20
-15.2847745118
 10
6.1066955351
 20
-15.3004217101
 10
6.1104149773
 20
-15.3163456224
 10
6.1130860152
 20
-15.3324781129
 10
6.11469722
 20
-15.3487501533
 10
6.1152416975
 20
-15.3650921183
  0
LINE
  5
264
100
AcDbEntity
  8
DRAFT
100
AcDbLine
 62
7
  6
CONTINUOUS
 10
-9.7191073181
 20
-13.5908267171
 11
-9.3359842171
 21
-13.5908267171
  0
LINE
  5
265
100
AcDbEntity
  8
DRAFT
100
AcDbLine
 62
7
  6
CONTINUOUS
 10
9.6640157829
 20
-13.5908267171
 11
10.0471388838
 21
-13.5908267171
  0
LINE
  5
266
100
AcDbEntity
  8
DRAFT
100
AcDbLine
 62
7
  6
CONTINUOUS
 10
11.3140157829
 20
-12.5908267171
 11
10.0640157829
 21
-12.5908267171
  0
LINE
  5
267
100
AcDbEntity
  8
DRAFT
100
AcDbLine
 62
7
  6
CONTINUOUS
 10
-9.7359842171
 20
-12.5908267171
 11
-10.9859842171
 21
-12.5908267171
  0
LWPOLYLINE
  5
268
100
AcDbEntity
  8
RACCORDO
100
AcDbPolyline
 62
250
  6
CONTINUOUS
 90
13
 70
0
 10
-5.7872101317
 20
-15.3650921183
 10
-5.7871093874
 20
-15.3652269312
 10
-5.7870096943
 20
-15.3655239405
 10
-5.7869110525
 20
-15.3659831461
 10
-5.7868131318
 20
-15.3666071326
 10
-5.7867162623
 20
-15.3673933155
 10
-5.7866214342
 20
-15.368333941
 10
-5.7865286782
 20
-15.3694305217
 10
-5.7864379635
 20
-15.370681545
 10
-5.7863501877
 20
-15.3720747195
 10
-5.7862653798
 20
-15.3736114729
 10
-5.7861835107
 20
-15.3752903777
 10
-5.7861053909
 20
-15.3770948593
  0
LINE
  5
269
100
AcDbEntity
  8
RACCORDO
100
AcDbLine
 62
250
  6
CONTINUOUS
 10
5.4127898683
 20
16.3834386841
 11
5.3583955899
 21
16.3562498313
  0
LINE
  5
26A
100
AcDbEntity
  8
RACCORDO
100
AcDbLine
 62
250
  6
CONTINUOUS
 10
5.6626371166
 20
16.1334765312
 11
5.6081201108
 21
16.1062263334
  0
LINE
  5
26B
100
AcDbEntity
  8
RACCORDO
100
AcDbLine
 62
250
  6
CONTINUOUS
 10
5.3583955899
 20
-15.3379032655
 11
5.4127898683
 21
-15.3650921183
  0
LINE
  5
26C
100
AcDbEntity
  8
RACCORDO
100
AcDbLine
 62
250
  6
CONTINUOUS
 10
5.6081201108
 20
-15.0878797676
 11
5.6626371166
 21
-15.1151299654
  0
LINE
  5
26D
100
AcDbEntity
  8
RACCORDO
100
AcDbLine
 62
7
  6
CONTINUOUS
 10
-10.9859842171
 20
-12.5908267171
 11
-10.9729099798
 21
-21.152193695
  0
LINE
  5
26E
100
AcDbEntity
  8
RACCORDO
100
AcDbLine
 62
7
  6
CONTINUOUS
 10
-9.7247297089
 20
-19.9605854855
 11
-9.7359842171
 21
-12.5908267171
  0
LINE
  5
26F
100
AcDbEntity
  8
RACCORDO
100
AcDbLine
 62
250
  6
CONTINUOUS
 10
-9.67318706
 20
20.6163644221
 11
-9.6695858086
 21
14.6091732829
  0
LINE
  5
270
100
AcDbEntity
  8
RACCORDO
100
AcDbLine
 62
250
  6
CONTINUOUS
 10
-9.6679613548
 20
10.8091732829
 11
-9.667037153
 21
7.8120032828
  0
LINE
  5
271
100
AcDbEntity
  8
RACCORDO
100
AcDbLine
 62
7
  6
CONTINUOUS
 10
-10.9859842171
 20
0.2091961282
 11
-10.9859842171
 21
-12.5908267171
  0
LINE
  5
272
100
AcDbEntity
  8
RACCORDO
100
AcDbLine
 62
7
  6
CONTINUOUS
 10
-10.9859842171
 20
0.8091504376
 11
-10.9859842171
 21
13.6091732829
  0
LINE
  5
273
100
AcDbEntity
  8
DRAFT
100
AcDbLine
 62
7
  6
CONTINUOUS
 10
-9.7359842171
 20
0.4091732829
 11
-9.7359842171
 21
-12.5908267171
  0
LINE
  5
274
100
AcDbEntity
  8
DRAFT
100
AcDbLine
 62
7
  6
CONTINUOUS
 10
-9.7359842171
 20
0.6091732829
 11
-9.7359842171
 21
13.6091732829
  0
LINE
  5
275
100
AcDbEntity
  8
DRAFT
100
AcDbLine
 62
7
  6
CONTINUOUS
 10
-9.7191073181
 20
14.6091732829
 11
-9.7191073181
 21
10.8091732829
  0
LINE
  5
276
100
AcDbEntity
  8
DRAFT
100
AcDbLine
 62
7
  6
CONTINUOUS
 10
-9.7191073181
 20
-13.5908267171
 11
-9.7191073181
 21
-9.7908267171
  0
LINE
  5
277
100
AcDbEntity
  8
DRAFT
100
AcDbLine
 62
7
  6
CONTINUOUS
 10
-9.6818735158
 20
0.3821199927
 11
-9.6818735158
 21
-0.7668323223
  0
LINE
  5
278
100
AcDbEntity
  8
DRAFT
100
AcDbLine
 62
7
  6
CONTINUOUS
 10
-9.6818735158
 20
0.636226573
 11
-9.6818735158
 21
1.7851788881
  0
LINE
  5
279
100
AcDbEntity
  8
RACCORDO
100
AcDbLine
 62
250
  6
CONTINUOUS
 10
-9.667037153
 20
7.8120032828
 11
-9.6661329729
 21
1.8166695684
  0
LINE
  5
27A
100
AcDbEntity
  8
RACCORDO
100
AcDbLine
 62
250
  6
CONTINUOUS
 10
-9.6661329729
 20
-0.7983230027
 11
-9.66669308
 21
-5.2949475069
  0
LINE
  5
27B
100
AcDbEntity
  8
RACCORDO
100
AcDbLine
 62
250
  6
CONTINUOUS
 10
-9.66669308
 20
-5.2949475069
 11
-9.6679613548
 21
-9.7908267171
  0
LINE
  5
27C
100
AcDbEntity
  8
RACCORDO
100
AcDbLine
 62
250
  6
CONTINUOUS
 10
-9.6695858086
 20
-13.5908267171
 11
-9.671846096
 21
-17.5958809708
  0
LINE
  5
27D
100
AcDbEntity
  8
RACCORDO
100
AcDbLine
 62
250
  6
CONTINUOUS
 10
-9.671846096
 20
-17.5958809708
 11
-9.67318706
 21
-19.5980178563
  0
LINE
  5
27E
100
AcDbEntity
  8
RACCORDO
100
AcDbLine
 62
7
  6
CONTINUOUS
 10
-10.9859842171
 20
13.6091732829
 11
-10.9729099798
 21
22.1705402608
  0
LINE
  5
27F
100
AcDbEntity
  8
RACCORDO
100
AcDbLine
 62
7
  6
CONTINUOUS
 10
-9.7247297089
 20
20.9789320513
 11
-9.7359842171
 21
13.6091732829
  0
LWPOLYLINE
  5
280
100
AcDbEntity
  8
RACCORDO
100
AcDbPolyline
 62
250
  6
CONTINUOUS
 90
25
 70
0
 10
-9.6731870592
 20
20.6163644163
 10
-9.6727374912
 20
20.6292533623
 10
-9.6714434986
 20
20.6421059709
 10
-9.6693070004
 20
20.6548675033
 10
-9.6663323509
 20
20.6674875894
 10
-9.6625293271
 20
20.6799071966
 10
-9.6579159695
 20
20.6920597202
 10
-9.6525123163
 20
20.7038905267
 10
-9.6463397752
 20
20.7153511665
 10
-9.6394270927
 20
20.7263874997
 10
-9.6318056888
 20
20.7369502312
 10
-9.6235069154
 20
20.7469966956
 10
-9.6145645207
 20
20.7564859301
 10
-9.6050152963
 20
20.765378189
 10
-9.5949009246
 20
20.7736339977
 10
-9.584266269
 20
20.781216586
 10
-9.5731577283
 20
20.7880931023
 10
-9.5616221001
 20
20.7942347984
 10
-9.5497080676
 20
20.7996157765
 10
-9.5374662188
 20
20.8042130885
 10
-9.5249492391
 20
20.8080068514
 10
-9.5122110121
 20
20.8109807124
 10
-9.4993061547
 20
20.8131219472
 10
-9.4862897622
 20
20.8144214403
 10
-9.4732175201
 20
20.8148736466
  0
LINE
  5
281
100
AcDbEntity
  8
RACCORDO
100
AcDbLine
 62
7
  6
CONTINUOUS
 10
-5.8300972943
 20
20.8148736466
 11
-5.7561165911
 21
21.0749964415
  0
LINE
  5
282
100
AcDbEntity
  8
DRAFT
100
AcDbLine
 62
7
  6
CONTINUOUS
 10
-9.7191073181
 20
-9.7908267171
 11
-9.3359842171
 21
-9.7908267171
  0
LINE
  5
283
100
AcDbEntity
  8
DRAFT
100
AcDbLine
 62
7
  6
CONTINUOUS
 10
9.6640157829
 20
-9.7908267171
 11
10.0471388838
 21
-9.7908267171
  0
LINE
  5
284
100
AcDbEntity
  8
RACCORDO
100
AcDbLine
 62
7
  6
CONTINUOUS
 10
-5.7561165911
 20
-20.0566498758
 11
-5.8300972943
 21
-19.7965270808
  0
LINE
  5
285
100
AcDbEntity
  8
DRAFT
100
AcDbLine
 62
7
  6
CONTINUOUS
 10
-7.6444092101
 20
-21.6501394228
 11
-7.7197026939
 21
-20.1595218478
  0
LINE
  5
286
100
AcDbEntity
  8
RACCORDO
100
AcDbLine
 62
250
  6
CONTINUOUS
 10
-9.4679903248
 20
10.8091732829
 11
-9.467067449
 21
7.8143071479
  0
LINE
  5
287
100
AcDbEntity
  8
RACCORDO
100
AcDbLine
 62
250
  6
CONTINUOUS
 10
-9.4732175201
 20
20.8148736466
 11
-9.469613475
 21
14.6091732829
  0
LINE
  5
288
100
AcDbEntity
  8
RACCORDO
100
AcDbLine
 62
250
  6
CONTINUOUS
 10
-9.467067449
 20
7.8143071479
 11
-9.4661637247
 21
1.823531226
  0
LINE
  5
289
100
AcDbEntity
  8
0
100
AcDbLine
 62
7
  6
CONTINUOUS
 10
-9.3359842171
 20
14.6091732829
 11
-9.3359842171
 21
10.8091732829
  0
LINE
  5
28A
100
AcDbEntity
  8
0
100
AcDbLine
 62
7
  6
CONTINUOUS
 10
-9.3359842171
 20
-13.5908267171
 11
-9.3359842171
 21
-9.7908267171
  0
LINE
  5
28B
100
AcDbEntity
  8
RACCORDO
100
AcDbLine
 62
250
  6
CONTINUOUS
 10
-9.4661637247
 20
-0.8051846602
 11
-9.4667237645
 21
-5.2983767706
  0
LINE
  5
28C
100
AcDbEntity
  8
RACCORDO
100
AcDbLine
 62
250
  6
CONTINUOUS
 10
-9.4667237645
 20
-5.2983767706
 11
-9.4679903248
 21
-9.7908267171
  0
LINE
  5
28D
100
AcDbEntity
  8
RACCORDO
100
AcDbLine
 62
250
  6
CONTINUOUS
 10
-9.469613475
 20
-13.5908267171
 11
-9.4718753739
 21
-17.6012934168
  0
LINE
  5
28E
100
AcDbEntity
  8
RACCORDO
100
AcDbLine
 62
250
  6
CONTINUOUS
 10
-9.4718753739
 20
-17.6012934168
 11
-9.4732175201
 21
-19.7965270808
  0
LINE
  5
28F
100
AcDbEntity
  8
DRAFT
100
AcDbLine
 62
7
  6
CONTINUOUS
 10
-7.6444092101
 20
22.6684859886
 11
-7.7197026939
 21
21.1778684136
  0
LINE
  5
290
100
AcDbEntity
  8
RACCORDO
100
AcDbLine
 62
250
  6
CONTINUOUS
 10
-5.7275720998
 20
18.1114186518
 11
-5.7854945658
 21
17.8189481907
  0
LINE
  5
291
100
AcDbEntity
  8
RACCORDO
100
AcDbLine
 62
250
  6
CONTINUOUS
 10
-5.477724393
 20
17.8652167135
 11
-5.5284326487
 21
17.6091732829
  0
LINE
  5
292
100
AcDbEntity
  8
RACCORDO
100
AcDbLine
 62
7
  6
CONTINUOUS
 10
-9.6661329729
 20
1.8166695684
 11
-9.6818735158
 21
1.7851788881
  0
LINE
  5
293
100
AcDbEntity
  8
RACCORDO
100
AcDbLine
 62
250
  6
CONTINUOUS
 10
-6.9278650759
 20
6.6671096722
 11
-6.8727351406
 21
6.7222396075
  0
LINE
  5
294
100
AcDbEntity
  8
RACCORDO
100
AcDbLine
 62
250
  6
CONTINUOUS
 10
-6.6280483553
 20
6.3672918966
 11
-6.5727905931
 21
6.4225496588
  0
LINE
  5
295
100
AcDbEntity
  8
RACCORDO
100
AcDbLine
 62
250
  6
CONTINUOUS
 10
-6.8727351406
 20
-5.7038930417
 11
-6.9278650759
 21
-5.6487631064
  0
LINE
  5
296
100
AcDbEntity
  8
RACCORDO
100
AcDbLine
 62
250
  6
CONTINUOUS
 10
-6.5727905931
 20
-5.404203093
 11
-6.6280483553
 21
-5.3489453308
  0
LWPOLYLINE
  5
297
100
AcDbEntity
  8
RACCORDO
100
AcDbPolyline
 62
250
  6
CONTINUOUS
 90
13
 70
0
 10
-6.6280483553
 20
-5.3489453308
 10
-6.6284064726
 20
-5.3483203986
 10
-6.6287612505
 20
-5.3471813193
 10
-6.629112689
 20
-5.3455280929
 10
-6.6294617137
 20
-5.34335372
 10
-6.6298073989
 20
-5.3406652
 10
-6.630146968
 20
-5.3374835311
 10
-6.6304803545
 20
-5.333804807
 10
-6.630807625
 20
-5.3296329341
 10
-6.6311262018
 20
-5.3250006292
 10
-6.6314360107
 20
-5.3199043179
 10
-6.6317371259
 20
-5.3143475747
 10
-6.632027193
 20
-5.3083738394
  0
LINE
  5
298
100
AcDbEntity
  8
RACCORDO
100
AcDbLine
 62
7
  6
CONTINUOUS
 10
-9.6818735158
 20
-0.7668323223
 11
-9.6661329729
 21
-0.7983230027
  0
LWPOLYLINE
  5
299
100
AcDbEntity
  8
RACCORDO
100
AcDbPolyline
 62
250
  6
CONTINUOUS
 90
8
 70
0
 10
-6.9278653938
 20
-5.6487631062
 10
-6.9282238044
 20
-5.6472162302
 10
-6.9285787792
 20
-5.6443639522
 10
-6.9289303183
 20
-5.6402136757
 10
-6.929279303
 20
-5.6347762277
 10
-6.9296248519
 20
-5.6280657759
 10
-6.9299643211
 20
-5.6200997466
 10
-6.9302977066
 20
-5.6108987381
  0
LINE
  5
29A
100
AcDbEntity
  8
RACCORDO
100
AcDbLine
 62
250
  6
CONTINUOUS
 10
-5.7854945658
 20
-16.8006016249
 11
-5.7275720998
 21
-17.093072086
  0
LINE
  5
29B
100
AcDbEntity
  8
RACCORDO
100
AcDbLine
 62
250
  6
CONTINUOUS
 10
-5.5284326487
 20
-16.5908267171
 11
-5.477724393
 21
-16.8468701478
  0
LWPOLYLINE
  5
29C
100
AcDbEntity
  8
RACCORDO
100
AcDbPolyline
 62
250
  6
CONTINUOUS
 90
10
 70
0
 10
-5.7275720998
 20
-17.093072086
 10
-5.7274722239
 20
-17.0936640903
 10
-5.727374324
 20
-17.0944150118
 10
-5.7272783999
 20
-17.0953248507
 10
-5.7271841289
 20
-17.0963978011
 10
-5.7270918338
 20
-17.0976296689
 10
-5.7270024828
 20
-17.0990078709
 10
-5.7269161171
 20
-17.1005338162
 10
-5.7268326955
 20
-17.1022060958
 10
-5.7267530623
 20
-17.1040078996
  0
LWPOLYLINE
  5
29D
100
AcDbEntity
  8
RACCORDO
100
AcDbPolyline
 62
7
  6
CONTINUOUS
 90
31
 70
0
 10
-5.0864738684
 20
-16.8006016249
 10
-5.0871001502
 20
-16.791383841
 10
-5.0882181079
 20
-16.7821015773
 10
-5.0898381394
 20
-16.7727770271
 10
-5.091970303
 20
-16.7634374153
 10
-5.0946222777
 20
-16.7541027938
 10
-5.0977994775
 20
-16.7447860445
 10
-5.1015072686
 20
-16.7355156054
 10
-5.1057511256
 20
-16.7263156721
 10
-5.1105360585
 20
-16.7171944626
 10
-5.1158642702
 20
-16.7081830893
 10
-5.1217382962
 20
-16.69930871
 10
-5.1281645854
 20
-16.6905762542
 10
-5.1351421351
 20
-16.6820202383
 10
-5.1426705281
 20
-16.673671115
 10
-5.1507591509
 20
-16.6655319339
 10
-5.1594036006
 20
-16.6576413952
 10
-5.1685998144
 20
-16.6500343307
 10
-5.1783602723
 20
-16.6427143391
 10
-5.1886764613
 20
-16.6357252595
 10
-5.1995389766
 20
-16.6291076825
 10
-5.2109610533
 20
-16.6228690572
 10
-5.2229292969
 20
-16.6170587559
 10
-5.2354251523
 20
-16.611724793
 10
-5.2484541218
 20
-16.6068827901
 10
-5.2619956851
 20
-16.6025871345
 10
-5.2760168162
 20
-16.5988930449
 10
-5.2905004831
 20
-16.595826113
 10
-5.3054133455
 20
-16.5934346766
 10
-5.3207042437
 20
-16.5917851479
 10
-5.3363215751
 20
-16.5909323281
  0
LINE
  5
29E
100
AcDbEntity
  8
RACCORDO
100
AcDbLine
 62
250
  6
CONTINUOUS
 10
-7.0649242677
 20
-2.721970245
 11
-7.0641003611
 21
-2.7372806809
  0
LINE
  5
29F
100
AcDbEntity
  8
RACCORDO
100
AcDbLine
 62
250
  6
CONTINUOUS
 10
-6.9070441665
 20
3.7403168108
 11
-6.9078680731
 21
3.7556272467
  0
LINE
  5
2A0
100
AcDbEntity
  8
RACCORDO
100
AcDbLine
 62
250
  6
CONTINUOUS
 10
-7.0664656549
 20
-2.6891359294
 11
-7.0649242677
 21
-2.721970245
  0
LINE
  5
2A1
100
AcDbEntity
  8
RACCORDO
100
AcDbLine
 62
250
  6
CONTINUOUS
 10
-6.9055027793
 20
3.7074824952
 11
-6.9070441665
 21
3.7403168108
  0
LINE
  5
2A2
100
AcDbEntity
  8
RACCORDO
100
AcDbLine
 62
250
  6
CONTINUOUS
 10
-7.3399412412
 20
6.3267204052
 11
-7.339394419
 21
6.313515271
  0
LINE
  5
2A3
100
AcDbEntity
  8
RACCORDO
100
AcDbLine
 62
250
  6
CONTINUOUS
 10
-6.632027193
 20
-5.3083738394
 11
-6.6325740152
 21
-5.2951687052
  0
LINE
  5
2A4
100
AcDbEntity
  8
RACCORDO
100
AcDbLine
 62
250
  6
CONTINUOUS
 10
-7.0678711228
 20
-2.6534101173
 11
-7.0664656549
 21
-2.6891359294
  0
LINE
  5
2A5
100
AcDbEntity
  8
RACCORDO
100
AcDbLine
 62
250
  6
CONTINUOUS
 10
-6.9040973114
 20
3.6717566831
 11
-6.9055027793
 21
3.7074824952
  0
LINE
  5
2A6
100
AcDbEntity
  8
RACCORDO
100
AcDbLine
 62
250
  6
CONTINUOUS
 10
-7.0641004877
 20
-2.737280681
 11
-7.0394080317
 21
-3.4443801077
  0
LINE
  5
2A7
100
AcDbEntity
  8
RACCORDO
100
AcDbLine
 62
250
  6
CONTINUOUS
 10
-6.9078679465
 20
3.7556272467
 11
-6.9325604026
 21
4.4627266735
  0
LWPOLYLINE
  5
2A8
100
AcDbEntity
  8
RACCORDO
100
AcDbPolyline
 62
250
  6
CONTINUOUS
 90
3
 70
0
 10
-5.7267530623
 20
-17.1040078996
 10
-5.7266052351
 20
-17.1080028455
 10
-5.7265377369
 20
-17.1101736471
  0
LWPOLYLINE
  5
2A9
100
AcDbEntity
  8
RACCORDO
100
AcDbPolyline
 62
250
  6
CONTINUOUS
 90
3
 70
0
 10
-5.7861053909
 20
-15.3770948593
 10
-5.7859604722
 20
-15.3810831462
 10
-5.7858943384
 20
-15.383245191
  0
LINE
  5
2AA
100
AcDbEntity
  8
RACCORDO
100
AcDbLine
 62
250
  6
CONTINUOUS
 10
-7.339394419
 20
6.313515271
 11
-7.3388982042
 21
6.2987997319
  0
LINE
  5
2AB
100
AcDbEntity
  8
RACCORDO
100
AcDbLine
 62
250
  6
CONTINUOUS
 10
-6.6325740152
 20
-5.2951687052
 11
-6.63307023
 21
-5.2804531661
  0
LINE
  5
2AC
100
AcDbEntity
  8
RACCORDO
100
AcDbLine
 62
250
  6
CONTINUOUS
 10
-7.0691068673
 20
-2.615236505
 11
-7.0678711228
 21
-2.6534101173
  0
LINE
  5
2AD
100
AcDbEntity
  8
RACCORDO
100
AcDbLine
 62
250
  6
CONTINUOUS
 10
-6.9028615669
 20
3.6335830707
 11
-6.9040973114
 21
3.6717566831
  0
LINE
  5
2AE
100
AcDbEntity
  8
RACCORDO
100
AcDbLine
 62
250
  6
CONTINUOUS
 10
-7.365529489
 20
-2.8992154264
 11
-7.338813365
 21
-3.6693863106
  0
LINE
  5
2AF
100
AcDbEntity
  8
RACCORDO
100
AcDbLine
 62
250
  6
CONTINUOUS
 10
-6.6064389452
 20
3.9175619922
 11
-6.6331550692
 21
4.6877328764
  0
LINE
  5
2B0
100
AcDbEntity
  8
RACCORDO
100
AcDbLine
 62
250
  6
CONTINUOUS
 10
-6.9302977066
 20
-5.6108987381
 11
-6.9309436067
 21
-5.5888919085
  0
LINE
  5
2B1
100
AcDbEntity
  8
RACCORDO
100
AcDbLine
 62
250
  6
CONTINUOUS
 10
-7.0416707276
 20
6.6292453039
 11
-7.0410248276
 21
6.6072384743
  0
LINE
  5
2B2
100
AcDbEntity
  8
RACCORDO
100
AcDbLine
 62
250
  6
CONTINUOUS
 10
-7.3388982042
 20
6.2987997319
 11
-7.3384564885
 21
6.2826892861
  0
LINE
  5
2B3
100
AcDbEntity
  8
RACCORDO
100
AcDbLine
 62
250
  6
CONTINUOUS
 10
-6.63307023
 20
-5.2804531661
 11
-6.6335119457
 21
-5.2643427203
  0
LINE
  5
2B4
100
AcDbEntity
  8
RACCORDO
100
AcDbLine
 62
250
  6
CONTINUOUS
 10
-7.3670027172
 20
-2.8443868371
 11
-7.365529489
 21
-2.8992154264
  0
LINE
  5
2B5
100
AcDbEntity
  8
RACCORDO
100
AcDbLine
 62
250
  6
CONTINUOUS
 10
-6.604965717
 20
3.8627334029
 11
-6.6064389452
 21
3.9175619922
  0
LINE
  5
2B6
100
AcDbEntity
  8
RACCORDO
100
AcDbLine
 62
250
  6
CONTINUOUS
 10
-7.338813365
 20
-3.6693863106
 11
-7.3384431014
 21
-3.6832054881
  0
LINE
  5
2B7
100
AcDbEntity
  8
RACCORDO
100
AcDbLine
 62
250
  6
CONTINUOUS
 10
-6.6331550692
 20
4.6877328764
 11
-6.6335253329
 21
4.7015520539
  0
LINE
  5
2B8
100
AcDbEntity
  8
RACCORDO
100
AcDbLine
 62
250
  6
CONTINUOUS
 10
-7.0701576558
 20
-2.5750175407
 11
-7.0691068673
 21
-2.615236505
  0
LINE
  5
2B9
100
AcDbEntity
  8
RACCORDO
100
AcDbLine
 62
250
  6
CONTINUOUS
 10
-6.9018107784
 20
3.5933641065
 11
-6.9028615669
 21
3.6335830707
  0
LINE
  5
2BA
100
AcDbEntity
  8
RACCORDO
100
AcDbLine
 62
250
  6
CONTINUOUS
 10
-6.9309436067
 20
-5.5888919085
 11
-6.9315544597
 21
-5.5622778362
  0
LINE
  5
2BB
100
AcDbEntity
  8
RACCORDO
100
AcDbLine
 62
250
  6
CONTINUOUS
 10
-7.0410248276
 20
6.6072384743
 11
-7.0404139745
 21
6.5806244019
  0
LINE
  5
2BC
100
AcDbEntity
  8
RACCORDO
100
AcDbLine
 62
250
  6
CONTINUOUS
 10
-7.3384564885
 20
6.2826892861
 11
-7.3380747693
 21
6.2653682847
  0
LINE
  5
2BD
100
AcDbEntity
  8
RACCORDO
100
AcDbLine
 62
250
  6
CONTINUOUS
 10
-6.6335119457
 20
-5.2643427203
 11
-6.6338936649
 21
-5.2470217189
  0
LINE
  5
2BE
100
AcDbEntity
  8
RACCORDO
100
AcDbLine
 62
250
  6
CONTINUOUS
 10
-7.3689238636
 20
-2.7541727046
 11
-7.3670027172
 21
-2.8443868371
  0
LINE
  5
2BF
100
AcDbEntity
  8
RACCORDO
100
AcDbLine
 62
250
  6
CONTINUOUS
 10
-6.6030445706
 20
3.7725192704
 11
-6.604965717
 21
3.8627334029
  0
LINE
  5
2C0
100
AcDbEntity
  8
RACCORDO
100
AcDbLine
 62
250
  6
CONTINUOUS
 10
-7.3384431014
 20
-3.6832054881
 11
-7.3379689946
 21
-3.7055757526
  0
LINE
  5
2C1
100
AcDbEntity
  8
RACCORDO
100
AcDbLine
 62
250
  6
CONTINUOUS
 10
-6.6335253329
 20
4.7015520539
 11
-6.6339994396
 21
4.7239223184
  0
LINE
  5
2C2
100
AcDbEntity
  8
RACCORDO
100
AcDbLine
 62
250
  6
CONTINUOUS
 10
-7.0710034021
 20
-2.5332950005
 11
-7.0701576558
 21
-2.5750175407
  0
LINE
  5
2C3
100
AcDbEntity
  8
RACCORDO
100
AcDbLine
 62
250
  6
CONTINUOUS
 10
-6.9009650321
 20
3.5516415663
 11
-6.9018107784
 21
3.5933641065
  0
LINE
  5
2C4
100
AcDbEntity
  8
RACCORDO
100
AcDbLine
 62
250
  6
CONTINUOUS
 10
-6.9315544597
 20
-5.5622778362
 11
-6.9323912655
 21
-5.5143392492
  0
LINE
  5
2C5
100
AcDbEntity
  8
RACCORDO
100
AcDbLine
 62
250
  6
CONTINUOUS
 10
-7.0404139745
 20
6.5806244019
 11
-7.0395771687
 21
6.532685815
  0
LINE
  5
2C6
100
AcDbEntity
  8
RACCORDO
100
AcDbLine
 62
250
  6
CONTINUOUS
 10
-7.3380747693
 20
6.2653682847
 11
-7.3376230846
 21
6.2375349621
  0
LINE
  5
2C7
100
AcDbEntity
  8
RACCORDO
100
AcDbLine
 62
250
  6
CONTINUOUS
 10
-6.6338936649
 20
-5.2470217189
 11
-6.6343453496
 21
-5.2191883963
  0
LINE
  5
2C8
100
AcDbEntity
  8
RACCORDO
100
AcDbLine
 62
250
  6
CONTINUOUS
 10
-7.3379689946
 20
-3.7055757526
 11
-7.3376009052
 21
-3.7295295735
  0
LINE
  5
2C9
100
AcDbEntity
  8
RACCORDO
100
AcDbLine
 62
250
  6
CONTINUOUS
 10
-6.6339994396
 20
4.7239223184
 11
-6.634367529
 21
4.7478761393
  0
LINE
  5
2CA
100
AcDbEntity
  8
RACCORDO
100
AcDbLine
 62
250
  6
CONTINUOUS
 10
-7.3704231687
 20
-2.6566997002
 11
-7.3689238636
 21
-2.7541727046
  0
LINE
  5
2CB
100
AcDbEntity
  8
RACCORDO
100
AcDbLine
 62
250
  6
CONTINUOUS
 10
-7.0716362989
 20
-2.4906595016
 11
-7.0710034021
 21
-2.5332950005
  0
LINE
  5
2CC
100
AcDbEntity
  8
RACCORDO
100
AcDbLine
 62
250
  6
CONTINUOUS
 10
-6.9003321353
 20
3.5090060674
 11
-6.9009650321
 21
3.5516415663
  0
LINE
  5
2CD
100
AcDbEntity
  8
RACCORDO
100
AcDbLine
 62
250
  6
CONTINUOUS
 10
-6.6015452655
 20
3.6750462659
 11
-6.6030445706
 21
3.7725192704
  0
LINE
  5
2CE
100
AcDbEntity
  8
RACCORDO
100
AcDbLine
 62
250
  6
CONTINUOUS
 10
-6.9323912655
 20
-5.5143392492
 11
-6.9333291382
 21
-5.4372673258
  0
LINE
  5
2CF
100
AcDbEntity
  8
RACCORDO
100
AcDbLine
 62
250
  6
CONTINUOUS
 10
-7.0395771687
 20
6.532685815
 11
-7.038639296
 21
6.4556138916
  0
LINE
  5
2D0
100
AcDbEntity
  8
RACCORDO
100
AcDbLine
 62
250
  6
CONTINUOUS
 10
-7.0394080317
 20
-3.4443801077
 11
-7.0384562317
 21
-3.52927825
  0
LINE
  5
2D1
100
AcDbEntity
  8
RACCORDO
100
AcDbLine
 62
250
  6
CONTINUOUS
 10
-6.9325604026
 20
4.4627266735
 11
-6.9335122025
 21
4.5476248158
  0
LINE
  5
2D2
100
AcDbEntity
  8
RACCORDO
100
AcDbLine
 62
250
  6
CONTINUOUS
 10
-7.3376009052
 20
-3.7295295735
 11
-7.3373452095
 21
-3.7546523951
  0
LINE
  5
2D3
100
AcDbEntity
  8
RACCORDO
100
AcDbLine
 62
250
  6
CONTINUOUS
 10
-6.634367529
 20
4.7478761393
 11
-6.6346232247
 21
4.7729989609
  0
LINE
  5
2D4
100
AcDbEntity
  8
RACCORDO
100
AcDbLine
 62
250
  6
CONTINUOUS
 10
-7.3714537116
 20
-2.5548205754
 11
-7.3704231687
 21
-2.6566997002
  0
LINE
  5
2D5
100
AcDbEntity
  8
RACCORDO
100
AcDbLine
 62
250
  6
CONTINUOUS
 10
-7.0720539987
 20
-2.4476362318
 11
-7.0716362989
 21
-2.4906595016
  0
LINE
  5
2D6
100
AcDbEntity
  8
RACCORDO
100
AcDbLine
 62
250
  6
CONTINUOUS
 10
-6.8999144355
 20
3.4659827976
 11
-6.9003321353
 21
3.5090060674
  0
LINE
  5
2D7
100
AcDbEntity
  8
RACCORDO
100
AcDbLine
 62
250
  6
CONTINUOUS
 10
-6.6005147226
 20
3.5731671412
 11
-6.6015452655
 21
3.6750462659
  0
LINE
  5
2D8
100
AcDbEntity
  8
RACCORDO
100
AcDbLine
 62
250
  6
CONTINUOUS
 10
-7.3376230846
 20
6.2375349621
 11
-7.3373254486
 21
6.2080520728
  0
LINE
  5
2D9
100
AcDbEntity
  8
RACCORDO
100
AcDbLine
 62
250
  6
CONTINUOUS
 10
-6.6343453496
 20
-5.2191883963
 11
-6.6346429857
 21
-5.189705507
  0
LINE
  5
2DA
100
AcDbEntity
  8
RACCORDO
100
AcDbLine
 62
250
  6
CONTINUOUS
 10
-7.038639296
 20
6.4556138916
 11
-7.0378059018
 21
6.3427641928
  0
LINE
  5
2DB
100
AcDbEntity
  8
RACCORDO
100
AcDbLine
 62
250
  6
CONTINUOUS
 10
-6.9333291382
 20
-5.4372673258
 11
-6.9341625324
 21
-5.324417627
  0
LINE
  5
2DC
100
AcDbEntity
  8
RACCORDO
100
AcDbLine
 62
250
  6
CONTINUOUS
 10
-7.0384562317
 20
-3.52927825
 11
-7.0376855802
 21
-3.6475894176
  0
LINE
  5
2DD
100
AcDbEntity
  8
RACCORDO
100
AcDbLine
 62
250
  6
CONTINUOUS
 10
-6.9335122025
 20
4.5476248158
 11
-6.9342828541
 21
4.6659359834
  0
LINE
  5
2DE
100
AcDbEntity
  8
RACCORDO
100
AcDbLine
 62
250
  6
CONTINUOUS
 10
-7.3373452095
 20
-3.7546523951
 11
-7.3372062937
 21
-3.7804907821
  0
LINE
  5
2DF
100
AcDbEntity
  8
RACCORDO
100
AcDbLine
 62
250
  6
CONTINUOUS
 10
-6.6346232247
 20
4.7729989609
 11
-6.6347621405
 21
4.7988373479
  0
LINE
  5
2E0
100
AcDbEntity
  8
RACCORDO
100
AcDbLine
 62
250
  6
CONTINUOUS
 10
-7.3720008056
 20
-2.451782664
 11
-7.3714537116
 21
-2.5548205754
  0
LINE
  5
2E1
100
AcDbEntity
  8
RACCORDO
100
AcDbLine
 62
250
  6
CONTINUOUS
 10
-6.5999676286
 20
3.4701292298
 11
-6.6005147226
 21
3.5731671412
  0
LINE
  5
2E2
100
AcDbEntity
  8
RACCORDO
100
AcDbLine
 62
250
  6
CONTINUOUS
 10
-7.0722598745
 20
-2.4048927489
 11
-7.0720539987
 21
-2.4476362318
  0
LINE
  5
2E3
100
AcDbEntity
  8
RACCORDO
100
AcDbLine
 62
250
  6
CONTINUOUS
 10
-6.8997085597
 20
3.4232393147
 11
-6.8999144355
 21
3.4659827976
  0
LINE
  5
2E4
100
AcDbEntity
  8
RACCORDO
100
AcDbLine
 62
250
  6
CONTINUOUS
 10
-7.3373254486
 20
6.2080520728
 11
-7.3371889762
 21
6.1776828602
  0
LINE
  5
2E5
100
AcDbEntity
  8
RACCORDO
100
AcDbLine
 62
250
  6
CONTINUOUS
 10
-6.6346429857
 20
-5.189705507
 11
-6.634779458
 21
-5.1593362944
  0
LINE
  5
2E6
100
AcDbEntity
  8
RACCORDO
100
AcDbLine
 62
250
  6
CONTINUOUS
 10
-7.0378059018
 20
6.3427641928
 11
-7.0373717438
 21
6.1929814095
  0
LINE
  5
2E7
100
AcDbEntity
  8
RACCORDO
100
AcDbLine
 62
250
  6
CONTINUOUS
 10
-6.9341625324
 20
-5.324417627
 11
-6.9345966904
 21
-5.1746348438
  0
LINE
  5
2E8
100
AcDbEntity
  8
RACCORDO
100
AcDbLine
 62
250
  6
CONTINUOUS
 10
-7.3721004379
 20
-0.7769429379
 11
-7.3720008056
 21
-2.451782664
  0
LINE
  5
2E9
100
AcDbEntity
  8
RACCORDO
100
AcDbLine
 62
250
  6
CONTINUOUS
 10
-7.3371889762
 20
6.1776828602
 11
-7.3371796684
 21
4.8162800641
  0
LINE
  5
2EA
100
AcDbEntity
  8
RACCORDO
100
AcDbLine
 62
250
  6
CONTINUOUS
 10
-7.3372062937
 20
-3.7804907821
 11
-7.3371796684
 21
-5.1490671654
  0
LINE
  5
2EB
100
AcDbEntity
  8
RACCORDO
100
AcDbLine
 62
250
  6
CONTINUOUS
 10
-7.293719244
 20
-21.6183062648
 11
-7.293719244
 21
-20.0689283318
  0
LINE
  5
2EC
100
AcDbEntity
  8
RACCORDO
100
AcDbLine
 62
250
  6
CONTINUOUS
 10
-7.293719244
 20
21.0872748976
 11
-7.293719244
 21
22.6366528306
  0
LINE
  5
2ED
100
AcDbEntity
  8
RACCORDO
100
AcDbLine
 62
250
  6
CONTINUOUS
 10
-7.1205141633
 20
-21.6130654869
 11
-7.1205141633
 21
-20.0566498758
  0
LINE
  5
2EE
100
AcDbEntity
  8
RACCORDO
100
AcDbLine
 62
250
  6
CONTINUOUS
 10
-7.1205141633
 20
21.0749964415
 11
-7.1205141633
 21
22.6314120527
  0
LINE
  5
2EF
100
AcDbEntity
  8
RACCORDO
100
AcDbLine
 62
250
  6
CONTINUOUS
 10
-7.0722831898
 20
-0.7668323223
 11
-7.0722598745
 21
-2.4048927489
  0
LINE
  5
2F0
100
AcDbEntity
  8
RACCORDO
100
AcDbLine
 62
250
  6
CONTINUOUS
 10
-7.0373717438
 20
6.1929814095
 11
-7.0373624203
 21
4.8162800641
  0
LINE
  5
2F1
100
AcDbEntity
  8
RACCORDO
100
AcDbLine
 62
250
  6
CONTINUOUS
 10
-7.0376855802
 20
-3.6475894176
 11
-7.0373624203
 21
-5.1490517048
  0
LINE
  5
2F2
100
AcDbEntity
  8
RACCORDO
100
AcDbLine
 62
250
  6
CONTINUOUS
 10
-6.9345966904
 20
-5.1746348438
 11
-6.9346060139
 21
-3.7979334983
  0
LINE
  5
2F3
100
AcDbEntity
  8
RACCORDO
100
AcDbLine
 62
250
  6
CONTINUOUS
 10
-6.9342828541
 20
4.6659359834
 11
-6.9346060139
 21
6.1673982706
  0
LINE
  5
2F4
100
AcDbEntity
  8
RACCORDO
100
AcDbLine
 62
250
  6
CONTINUOUS
 10
-6.8996852444
 20
1.7851788881
 11
-6.8997085597
 21
3.4232393147
  0
LINE
  5
2F5
100
AcDbEntity
  8
RACCORDO
100
AcDbLine
 62
250
  6
CONTINUOUS
 10
-6.634779458
 20
-5.1593362944
 11
-6.6347887658
 21
-3.7979334983
  0
LINE
  5
2F6
100
AcDbEntity
  8
RACCORDO
100
AcDbLine
 62
250
  6
CONTINUOUS
 10
-6.6347621405
 20
4.7988373479
 11
-6.6347887658
 21
6.1674137312
  0
LINE
  5
2F7
100
AcDbEntity
  8
RACCORDO
100
AcDbLine
 62
250
  6
CONTINUOUS
 10
-6.5998679963
 20
1.7952895037
 11
-6.5999676286
 21
3.4701292298
  0
LINE
  5
2F8
100
AcDbEntity
  8
RACCORDO
100
AcDbLine
 62
250
  6
CONTINUOUS
 10
-7.0721834645
 20
3.4445618578
 11
-7.0722831898
 21
1.7851788881
  0
LINE
  5
2F9
100
AcDbEntity
  8
RACCORDO
100
AcDbLine
 62
250
  6
CONTINUOUS
 10
-6.8997849697
 20
-2.426215292
 11
-6.8996852444
 21
-0.7668323223
  0
LINE
  5
2FA
100
AcDbEntity
  8
RACCORDO
100
AcDbLine
 62
250
  6
CONTINUOUS
 10
-7.3718713799
 20
3.5043022664
 11
-7.3721004379
 21
1.7952895037
  0
LINE
  5
2FB
100
AcDbEntity
  8
RACCORDO
100
AcDbLine
 62
250
  6
CONTINUOUS
 10
-7.3371796684
 20
4.8162800641
 11
-7.3372393577
 21
4.790187791
  0
LINE
  5
2FC
100
AcDbEntity
  8
RACCORDO
100
AcDbLine
 62
250
  6
CONTINUOUS
 10
-6.6347887658
 20
-3.7979334983
 11
-6.6347290765
 21
-3.7718412252
  0
LINE
  5
2FD
100
AcDbEntity
  8
RACCORDO
100
AcDbLine
 62
250
  6
CONTINUOUS
 10
-6.6000970543
 20
-2.4859557006
 11
-6.5998679963
 21
-0.7769429379
  0
LINE
  5
2FE
100
AcDbEntity
  8
RACCORDO
100
AcDbLine
 62
250
  6
CONTINUOUS
 10
-7.0373624038
 20
-5.1490517048
 11
-7.0376891635
 21
-5.3002249679
  0
LINE
  5
2FF
100
AcDbEntity
  8
RACCORDO
100
AcDbLine
 62
250
  6
CONTINUOUS
 10
-6.9346060304
 20
6.1673982706
 11
-6.9342792707
 21
6.3185715337
  0
LINE
  5
300
100
AcDbEntity
  8
RACCORDO
100
AcDbLine
 62
250
  6
CONTINUOUS
 10
-7.0373624203
 20
4.8162800641
 11
-7.0376855802
 21
4.665935983
  0
LINE
  5
301
100
AcDbEntity
  8
RACCORDO
100
AcDbLine
 62
250
  6
CONTINUOUS
 10
-6.9346060139
 20
-3.7979334983
 11
-6.9342828541
 21
-3.6475894172
  0
LINE
  5
302
100
AcDbEntity
  8
RACCORDO
100
AcDbLine
 62
250
  6
CONTINUOUS
 10
-7.3371796684
 20
-5.1490671654
 11
-7.3372617605
 21
-5.1796420955
  0
LINE
  5
303
100
AcDbEntity
  8
RACCORDO
100
AcDbLine
 62
250
  6
CONTINUOUS
 10
-6.6347887658
 20
6.1674137312
 11
-6.6347066737
 21
6.1979886613
  0
LINE
  5
304
100
AcDbEntity
  8
RACCORDO
100
AcDbLine
 62
250
  6
CONTINUOUS
 10
-7.0376891635
 20
-5.3002249679
 11
-7.0384409814
 21
-5.4159796607
  0
LINE
  5
305
100
AcDbEntity
  8
RACCORDO
100
AcDbLine
 62
250
  6
CONTINUOUS
 10
-6.9342792707
 20
6.3185715337
 11
-6.9335274528
 21
6.4343262265
  0
LINE
  5
306
100
AcDbEntity
  8
RACCORDO
100
AcDbLine
 62
250
  6
CONTINUOUS
 10
-7.3711646646
 20
3.607388139
 11
-7.3718713799
 21
3.5043022664
  0
LINE
  5
307
100
AcDbEntity
  8
RACCORDO
100
AcDbLine
 62
250
  6
CONTINUOUS
 10
-7.3372393577
 20
4.790187791
 11
-7.337417555
 21
4.7645263255
  0
LINE
  5
308
100
AcDbEntity
  8
RACCORDO
100
AcDbLine
 62
250
  6
CONTINUOUS
 10
-7.0718716766
 20
3.4874885779
 11
-7.0721834645
 21
3.4445618578
  0
LINE
  5
309
100
AcDbEntity
  8
RACCORDO
100
AcDbLine
 62
250
  6
CONTINUOUS
 10
-7.0376855802
 20
4.665935983
 11
-7.0384562317
 21
4.5476248154
  0
LINE
  5
30A
100
AcDbEntity
  8
RACCORDO
100
AcDbLine
 62
250
  6
CONTINUOUS
 10
-6.9342828541
 20
-3.6475894172
 11
-6.9335122025
 21
-3.5292782496
  0
LINE
  5
30B
100
AcDbEntity
  8
RACCORDO
100
AcDbLine
 62
250
  6
CONTINUOUS
 10
-6.9000967576
 20
-2.4691420121
 11
-6.8997849697
 21
-2.426215292
  0
LINE
  5
30C
100
AcDbEntity
  8
RACCORDO
100
AcDbLine
 62
250
  6
CONTINUOUS
 10
-6.6347290765
 20
-3.7718412252
 11
-6.6345508792
 21
-3.7461797597
  0
LINE
  5
30D
100
AcDbEntity
  8
RACCORDO
100
AcDbLine
 62
250
  6
CONTINUOUS
 10
-6.6008037696
 20
-2.5890415732
 11
-6.6000970543
 21
-2.4859557006
  0
LINE
  5
30E
100
AcDbEntity
  8
RACCORDO
100
AcDbLine
 62
250
  6
CONTINUOUS
 10
-7.3372617605
 20
-5.1796420955
 11
-7.3375063587
 21
-5.2095196545
  0
LINE
  5
30F
100
AcDbEntity
  8
RACCORDO
100
AcDbLine
 62
250
  6
CONTINUOUS
 10
-6.6347066737
 20
6.1979886613
 11
-6.6344620755
 21
6.2278662203
  0
LINE
  5
310
100
AcDbEntity
  8
RACCORDO
100
AcDbLine
 62
250
  6
CONTINUOUS
 10
-6.9335274528
 20
6.4343262265
 11
-6.9326459839
 21
6.5147331113
  0
LINE
  5
311
100
AcDbEntity
  8
RACCORDO
100
AcDbLine
 62
250
  6
CONTINUOUS
 10
-7.0384409814
 20
-5.4159796607
 11
-7.0393224503
 21
-5.4963865455
  0
LINE
  5
312
100
AcDbEntity
  8
RACCORDO
100
AcDbLine
 62
250
  6
CONTINUOUS
 10
-7.0384562317
 20
4.5476248154
 11
-7.0394080317
 21
4.4627266735
  0
LINE
  5
313
100
AcDbEntity
  8
RACCORDO
100
AcDbLine
 62
250
  6
CONTINUOUS
 10
-6.9335122025
 20
-3.5292782496
 11
-6.9325604026
 21
-3.4443801077
  0
LINE
  5
314
100
AcDbEntity
  8
RACCORDO
100
AcDbLine
 62
250
  6
CONTINUOUS
 10
-7.3699748606
 20
3.7081461127
 11
-7.3711646646
 21
3.607388139
  0
LINE
  5
315
100
AcDbEntity
  8
RACCORDO
100
AcDbLine
 62
250
  6
CONTINUOUS
 10
-7.337417555
 20
4.7645263255
 11
-7.3377112752
 21
4.7397454752
  0
LINE
  5
316
100
AcDbEntity
  8
RACCORDO
100
AcDbLine
 62
250
  6
CONTINUOUS
 10
-7.0713472677
 20
3.5304049806
 11
-7.0718716766
 21
3.4874885779
  0
LINE
  5
317
100
AcDbEntity
  8
RACCORDO
100
AcDbLine
 62
250
  6
CONTINUOUS
 10
-6.9006211665
 20
-2.5120584149
 11
-6.9000967576
 21
-2.4691420121
  0
LINE
  5
318
100
AcDbEntity
  8
RACCORDO
100
AcDbLine
 62
250
  6
CONTINUOUS
 10
-6.6345508792
 20
-3.7461797597
 11
-6.634257159
 21
-3.7213989094
  0
LINE
  5
319
100
AcDbEntity
  8
RACCORDO
100
AcDbLine
 62
250
  6
CONTINUOUS
 10
-6.6019935736
 20
-2.6897995469
 11
-6.6008037696
 21
-2.5890415732
  0
LINE
  5
31A
100
AcDbEntity
  8
RACCORDO
100
AcDbLine
 62
250
  6
CONTINUOUS
 10
-7.3375063587
 20
-5.2095196545
 11
-7.3379077512
 21
-5.2379778743
  0
LINE
  5
31B
100
AcDbEntity
  8
RACCORDO
100
AcDbLine
 62
250
  6
CONTINUOUS
 10
-6.6344620755
 20
6.2278662203
 11
-6.634060683
 21
6.25632444
  0
LINE
  5
31C
100
AcDbEntity
  8
RACCORDO
100
AcDbLine
 62
250
  6
CONTINUOUS
 10
-6.9326459839
 20
6.5147331113
 11
-6.9318444877
 21
6.5656747712
  0
LINE
  5
31D
100
AcDbEntity
  8
RACCORDO
100
AcDbLine
 62
250
  6
CONTINUOUS
 10
-7.0393224503
 20
-5.4963865455
 11
-7.0401239465
 21
-5.5473282054
  0
LINE
  5
31E
100
AcDbEntity
  8
RACCORDO
100
AcDbLine
 62
250
  6
CONTINUOUS
 10
-7.0706058832
 20
3.5726704313
 11
-7.0713472677
 21
3.5304049806
  0
LINE
  5
31F
100
AcDbEntity
  8
RACCORDO
100
AcDbLine
 62
250
  6
CONTINUOUS
 10
-6.901362551
 20
-2.5543238656
 11
-6.9006211665
 21
-2.5120584149
  0
LINE
  5
320
100
AcDbEntity
  8
RACCORDO
100
AcDbLine
 62
250
  6
CONTINUOUS
 10
-7.3683285586
 20
3.8035051508
 11
-7.3699748606
 21
3.7081461127
  0
LINE
  5
321
100
AcDbEntity
  8
RACCORDO
100
AcDbLine
 62
250
  6
CONTINUOUS
 10
-7.3377112752
 20
4.7397454752
 11
-7.3381154875
 21
4.7162741812
  0
LINE
  5
322
100
AcDbEntity
  8
RACCORDO
100
AcDbLine
 62
250
  6
CONTINUOUS
 10
-6.634257159
 20
-3.7213989094
 11
-6.6338529467
 21
-3.6979276154
  0
LINE
  5
323
100
AcDbEntity
  8
RACCORDO
100
AcDbLine
 62
250
  6
CONTINUOUS
 10
-6.6036398756
 20
-2.785158585
 11
-6.6019935736
 21
-2.6897995469
  0
LINE
  5
324
100
AcDbEntity
  8
RACCORDO
100
AcDbLine
 62
250
  6
CONTINUOUS
 10
-7.3379077512
 20
-5.2379778743
 11
-7.338258159
 21
-5.2558329666
  0
LINE
  5
325
100
AcDbEntity
  8
RACCORDO
100
AcDbLine
 62
250
  6
CONTINUOUS
 10
-6.634060683
 20
6.25632444
 11
-6.6337102752
 21
6.2741795324
  0
LINE
  5
326
100
AcDbEntity
  8
RACCORDO
100
AcDbLine
 62
250
  6
CONTINUOUS
 10
-6.9318444877
 20
6.5656747712
 11
-6.931253389
 21
6.5944910367
  0
LINE
  5
327
100
AcDbEntity
  8
RACCORDO
100
AcDbLine
 62
250
  6
CONTINUOUS
 10
-7.0401239465
 20
-5.5473282054
 11
-7.0407150452
 21
-5.5761444709
  0
LINE
  5
328
100
AcDbEntity
  8
RACCORDO
100
AcDbLine
 62
250
  6
CONTINUOUS
 10
-7.3381154875
 20
4.7162741812
 11
-7.3384431014
 21
4.7015520537
  0
LINE
  5
329
100
AcDbEntity
  8
RACCORDO
100
AcDbLine
 62
250
  6
CONTINUOUS
 10
-6.6338529467
 20
-3.6979276154
 11
-6.6335253329
 21
-3.6832054879
  0
LINE
  5
32A
100
AcDbEntity
  8
RACCORDO
100
AcDbLine
 62
250
  6
CONTINUOUS
 10
-7.3670027172
 20
3.8627334041
 11
-7.3683285586
 21
3.8035051508
  0
LINE
  5
32B
100
AcDbEntity
  8
RACCORDO
100
AcDbLine
 62
250
  6
CONTINUOUS
 10
-6.604965717
 20
-2.8443868383
 11
-6.6036398756
 21
-2.785158585
  0
LINE
  5
32C
100
AcDbEntity
  8
RACCORDO
100
AcDbLine
 62
250
  6
CONTINUOUS
 10
-7.0696576157
 20
3.6136816651
 11
-7.0706058832
 21
3.5726704313
  0
LINE
  5
32D
100
AcDbEntity
  8
RACCORDO
100
AcDbLine
 62
250
  6
CONTINUOUS
 10
-6.9023108185
 20
-2.5953350993
 11
-6.901362551
 21
-2.5543238656
  0
LINE
  5
32E
100
AcDbEntity
  8
RACCORDO
100
AcDbLine
 62
250
  6
CONTINUOUS
 10
-7.338258159
 20
-5.2558329666
 11
-7.3386698765
 21
-5.2725486903
  0
LINE
  5
32F
100
AcDbEntity
  8
RACCORDO
100
AcDbLine
 62
250
  6
CONTINUOUS
 10
-6.6337102752
 20
6.2741795324
 11
-6.6332985577
 21
6.290895256
  0
LWPOLYLINE
  5
330
100
AcDbEntity
  8
RACCORDO
100
AcDbPolyline
 62
250
  6
CONTINUOUS
 90
10
 70
0
 10
-6.931253389
 20
6.5944910367
 10
-6.9306250124
 20
6.6188334572
 10
-6.9302977066
 20
6.6292453041
 10
-6.9299643211
 20
6.6384463125
 10
-6.9296248519
 20
6.6464123417
 10
-6.929279303
 20
6.6531227936
 10
-6.9289303183
 20
6.6585602415
 10
-6.9285787792
 20
6.662710518
 10
-6.9282238044
 20
6.665562796
 10
-6.9278653938
 20
6.667109672
  0
LWPOLYLINE
  5
331
100
AcDbEntity
  8
RACCORDO
100
AcDbPolyline
 62
250
  6
CONTINUOUS
 90
10
 70
0
 10
-7.0407150452
 20
-5.5761444709
 10
-7.0413434218
 20
-5.6004868914
 10
-7.0416707276
 20
-5.6108987383
 10
-7.0420041131
 20
-5.6200997467
 10
-7.0423435823
 20
-5.6280657759
 10
-7.0426891312
 20
-5.6347762278
 10
-7.0430381159
 20
-5.6402136757
 10
-7.043389655
 20
-5.6443639522
 10
-7.0437446298
 20
-5.6472162302
 10
-7.0441030404
 20
-5.6487631062
  0
LINE
  5
332
100
AcDbEntity
  8
RACCORDO
100
AcDbLine
 62
250
  6
CONTINUOUS
 10
-7.365529489
 20
3.9175619942
 11
-7.3670027172
 21
3.8627334041
  0
LINE
  5
333
100
AcDbEntity
  8
RACCORDO
100
AcDbLine
 62
250
  6
CONTINUOUS
 10
-7.3384431014
 20
4.7015520537
 11
-7.338813365
 21
4.6877328763
  0
LINE
  5
334
100
AcDbEntity
  8
RACCORDO
100
AcDbLine
 62
250
  6
CONTINUOUS
 10
-6.6335253329
 20
-3.6832054879
 11
-6.6331550692
 21
-3.6693863105
  0
LINE
  5
335
100
AcDbEntity
  8
RACCORDO
100
AcDbLine
 62
250
  6
CONTINUOUS
 10
-6.6064389452
 20
-2.8992154284
 11
-6.604965717
 21
-2.8443868383
  0
LWPOLYLINE
  5
336
100
AcDbEntity
  8
RACCORDO
100
AcDbPolyline
 62
7
  6
CONTINUOUS
 90
28
 70
0
 10
-7.3991778411
 20
6.4225496588
 10
-7.3986696991
 20
6.4398782817
 10
-7.3971561385
 20
6.4571901225
 10
-7.3946349026
 20
6.4744265051
 10
-7.3911009078
 20
6.4915549166
 10
-7.3865620469
 20
6.5084885027
 10
-7.3810546382
 20
6.5250903961
 10
-7.3746211187
 20
6.5412664882
 10
-7.3672770826
 20
6.5570064178
 10
-7.3590292678
 20
6.5723019817
 10
-7.3499032351
 20
6.5871023238
 10
-7.3399289849
 20
6.6013556525
 10
-7.3291106167
 20
6.6150467674
 10
-7.3174437583
 20
6.6281594072
 10
-7.3049908199
 20
6.6406031153
 10
-7.2918676728
 20
6.6522619805
 10
-7.2781638773
 20
6.6630739348
 10
-7.2638961916
 20
6.6730424344
 10
-7.2490821834
 20
6.6821618156
 10
-7.2337746
 20
6.6904018047
 10
-7.218023648
 20
6.6977374919
 10
-7.2018377388
 20
6.7041623778
 10
-7.1852285214
 20
6.7096606628
 10
-7.168288987
 20
6.7141906253
 10
-7.1511524015
 20
6.7177169366
 10
-7.1339043036
 20
6.7202314338
 10
-7.1165783678
 20
6.7217383948
 10
-7.0992332936
 20
6.7222396075
  0
LWPOLYLINE
  5
337
100
AcDbEntity
  8
RACCORDO
100
AcDbPolyline
 62
7
  6
CONTINUOUS
 90
28
 70
0
 10
-6.5727905931
 20
-5.404203093
 10
-6.5732987351
 20
-5.4215317159
 10
-6.5748122957
 20
-5.4388435567
 10
-6.5773335316
 20
-5.4560799393
 10
-6.5808675264
 20
-5.4732083508
 10
-6.5854063873
 20
-5.4901419369
 10
-6.590913796
 20
-5.5067438303
 10
-6.5973473155
 20
-5.5229199225
 10
-6.6046913516
 20
-5.5386598521
 10
-6.6129391664
 20
-5.5539554159
 10
-6.6220651991
 20
-5.568755758
 10
-6.6320394494
 20
-5.5830090867
 10
-6.6428578175
 20
-5.5967002016
 10
-6.6545246759
 20
-5.6098128414
 10
-6.6669776143
 20
-5.6222565495
 10
-6.6801007614
 20
-5.6339154148
 10
-6.6938045569
 20
-5.644727369
 10
-6.7080722426
 20
-5.6546958686
 10
-6.7228862508
 20
-5.6638152498
 10
-6.7381938343
 20
-5.6720552389
 10
-6.7539447862
 20
-5.6793909261
 10
-6.7701306954
 20
-5.685815812
 10
-6.7867399128
 20
-5.691314097
 10
-6.8036794472
 20
-5.6958440595
 10
-6.8208160327
 20
-5.6993703708
 10
-6.8380641307
 20
-5.701884868
 10
-6.8553900664
 20
-5.703391829
 10
-6.8727351406
 20
-5.7038930417
  0
LINE
  5
338
100
AcDbEntity
  8
RACCORDO
100
AcDbLine
 62
250
  6
CONTINUOUS
 10
-7.0685116709
 20
3.6529522556
 11
-7.0696576157
 21
3.6136816651
  0
LINE
  5
339
100
AcDbEntity
  8
RACCORDO
100
AcDbLine
 62
250
  6
CONTINUOUS
 10
-6.9034567633
 20
-2.6346056898
 11
-6.9023108185
 21
-2.5953350993
  0
LINE
  5
33A
100
AcDbEntity
  8
RACCORDO
100
AcDbLine
 62
250
  6
CONTINUOUS
 10
-7.3386698765
 20
-5.2725486903
 11
-7.3391396834
 21
-5.2879941218
  0
LINE
  5
33B
100
AcDbEntity
  8
RACCORDO
100
AcDbLine
 62
250
  6
CONTINUOUS
 10
-6.6332985577
 20
6.290895256
 11
-6.6328287508
 21
6.3063406876
  0
LINE
  5
33C
100
AcDbEntity
  8
RACCORDO
100
AcDbLine
 62
250
  6
CONTINUOUS
 10
-7.3639179927
 20
3.9677519267
 11
-7.365529489
 21
3.9175619942
  0
LINE
  5
33D
100
AcDbEntity
  8
RACCORDO
100
AcDbLine
 62
250
  6
CONTINUOUS
 10
-6.6080504415
 20
-2.9494053609
 11
-6.6064389452
 21
-2.8992154284
  0
LWPOLYLINE
  5
33E
100
AcDbEntity
  8
RACCORDO
100
AcDbPolyline
 62
250
  6
CONTINUOUS
 90
15
 70
0
 10
-5.7858943384
 20
16.4015917568
 10
-5.7860310569
 20
16.3973727801
 10
-5.7861053909
 20
16.395441425
 10
-5.7861835107
 20
16.3936369434
 10
-5.7862653798
 20
16.3919580387
 10
-5.7863501877
 20
16.3904212853
 10
-5.7864379635
 20
16.3890281107
 10
-5.7865286782
 20
16.3877770875
 10
-5.7866214342
 20
16.3866805068
 10
-5.7867162623
 20
16.3857398813
 10
-5.7868131318
 20
16.3849536984
 10
-5.7869110525
 20
16.3843297119
 10
-5.7870096943
 20
16.3838705063
 10
-5.7871093874
 20
16.383573497
 10
-5.7872101317
 20
16.3834386841
  0
LINE
  5
33F
100
AcDbEntity
  8
RACCORDO
100
AcDbLine
 62
250
  6
CONTINUOUS
 10
-7.338813365
 20
4.6877328763
 11
-7.3639179927
 21
3.9677519267
  0
LINE
  5
340
100
AcDbEntity
  8
RACCORDO
100
AcDbLine
 62
250
  6
CONTINUOUS
 10
-7.0394080317
 20
4.4627266735
 11
-7.0641004876
 21
3.7556272502
  0
LINE
  5
341
100
AcDbEntity
  8
RACCORDO
100
AcDbLine
 62
250
  6
CONTINUOUS
 10
-6.9325604026
 20
-3.4443801077
 11
-6.9078679466
 21
-2.7372806844
  0
LINE
  5
342
100
AcDbEntity
  8
RACCORDO
100
AcDbLine
 62
250
  6
CONTINUOUS
 10
-6.6331550692
 20
-3.6693863105
 11
-6.6080504415
 21
-2.9494053609
  0
LWPOLYLINE
  5
343
100
AcDbEntity
  8
RACCORDO
100
AcDbPolyline
 62
250
  6
CONTINUOUS
 90
12
 70
0
 10
-5.7265377369
 20
18.1285202129
 10
-5.7266772545
 20
18.1242871762
 10
-5.7267530623
 20
18.1223544654
 10
-5.7268326955
 20
18.1205526615
 10
-5.7269161171
 20
18.118880382
 10
-5.7270024828
 20
18.1173544367
 10
-5.7270918338
 20
18.1159762347
 10
-5.7271841289
 20
18.1147443669
 10
-5.7272783999
 20
18.1136714165
 10
-5.727374324
 20
18.1127615776
 10
-5.7274722239
 20
18.1120106561
 10
-5.7275720998
 20
18.1114186518
  0
LINE
  5
344
100
AcDbEntity
  8
RACCORDO
100
AcDbLine
 62
250
  6
CONTINUOUS
 10
-7.0671861267
 20
3.6899661511
 11
-7.0685116709
 21
3.6529522556
  0
LINE
  5
345
100
AcDbEntity
  8
RACCORDO
100
AcDbLine
 62
250
  6
CONTINUOUS
 10
-6.9047823075
 20
-2.6716195853
 11
-6.9034567633
 21
-2.6346056898
  0
LWPOLYLINE
  5
346
100
AcDbEntity
  8
RACCORDO
100
AcDbPolyline
 62
250
  6
CONTINUOUS
 90
15
 70
0
 10
-7.3391396834
 20
-5.2879941218
 10
-7.339662306
 20
-5.3019797684
 10
-7.3399412412
 20
-5.3083738395
 10
-7.3402313083
 20
-5.3143475747
 10
-7.3405324235
 20
-5.319904318
 10
-7.3408422324
 20
-5.3250006292
 10
-7.3411608092
 20
-5.3296329341
 10
-7.3414880797
 20
-5.3338048071
 10
-7.3418214662
 20
-5.3374835311
 10
-7.3421610353
 20
-5.3406652
 10
-7.3425067206
 20
-5.34335372
 10
-7.3428557452
 20
-5.345528093
 10
-7.3432071837
 20
-5.3471813193
 10
-7.3435619616
 20
-5.3483203986
 10
-7.3439200789
 20
-5.3489453308
  0
LWPOLYLINE
  5
347
100
AcDbEntity
  8
RACCORDO
100
AcDbPolyline
 62
250
  6
CONTINUOUS
 90
15
 70
0
 10
-6.6328287508
 20
6.3063406876
 10
-6.6323061282
 20
6.3203263342
 10
-6.632027193
 20
6.3267204053
 10
-6.6317371259
 20
6.3326941405
 10
-6.6314360107
 20
6.3382508837
 10
-6.6311262018
 20
6.343347195
 10
-6.630807625
 20
6.3479794999
 10
-6.6304803545
 20
6.3521513728
 10
-6.630146968
 20
6.3558300969
 10
-6.6298073989
 20
6.3590117658
 10
-6.6294617137
 20
6.3617002858
 10
-6.629112689
 20
6.3638746587
 10
-6.6287612505
 20
6.3655278851
 10
-6.6284064726
 20
6.3666669644
 10
-6.6280483553
 20
6.3672918966
  0
LWPOLYLINE
  5
348
100
AcDbEntity
  8
RACCORDO
100
AcDbPolyline
 62
250
  6
CONTINUOUS
 90
4
 70
0
 10
-7.0641003609
 20
3.7556272501
 10
-7.0649242678
 20
3.7403168132
 10
-7.0657126992
 20
3.7242637267
 10
-7.0671861267
 20
3.6899661511
  0
LWPOLYLINE
  5
349
100
AcDbEntity
  8
RACCORDO
100
AcDbPolyline
 62
250
  6
CONTINUOUS
 90
4
 70
0
 10
-6.9078680733
 20
-2.7372806843
 10
-6.9070441664
 20
-2.7219702474
 10
-6.906255735
 20
-2.7059171609
 10
-6.9047823075
 20
-2.6716195853
  0
LINE
  5
34A
100
AcDbEntity
  8
RACCORDO
100
AcDbLine
 62
250
  6
CONTINUOUS
 10
-9.67318706
 20
-19.5980178563
 11
-9.7247297089
 21
-19.9605854855
  0
LINE
  5
34B
100
AcDbEntity
  8
RACCORDO
100
AcDbLine
 62
250
  6
CONTINUOUS
 10
-9.4732175201
 20
-19.7965270808
 11
-9.524820891
 21
-20.1595218478
  0
LWPOLYLINE
  5
34C
100
AcDbEntity
  8
RACCORDO
100
AcDbPolyline
 62
250
  6
CONTINUOUS
 90
25
 70
0
 10
7.3721343966
 20
-5.6487625789
 10
7.3917282309
 20
-5.648097776
 10
7.4112382904
 20
-5.6461539395
 10
7.4305811593
 20
-5.6429393805
 10
7.4496741369
 20
-5.638467843
 10
7.4684355905
 20
-5.6327584454
 10
7.4867853049
 20
-5.6258355987
 10
7.5046448256
 20
-5.6177289019
 10
7.5219377939
 20
-5.6084730156
 10
7.5385902732
 20
-5.598107514
 10
7.5545310656
 20
-5.5866767151
 10
7.5696920162
 20
-5.574229492
 10
7.584008304
 20
-5.5608190632
 10
7.5974187198
 20
-5.5465027657
 10
7.6098659272
 20
-5.5313418093
 10
7.6212967083
 20
-5.5154010152
 10
7.6316621909
 20
-5.4987485388
 10
7.6409180574
 20
-5.4814555782
 10
7.6490247347
 20
-5.46359607
 10
7.6559475628
 20
-5.4452463729
 10
7.6616569436
 20
-5.4264849415
 10
7.6661284668
 20
-5.4073919905
 10
7.6693430149
 20
-5.3880491522
 10
7.6712868443
 20
-5.3685391272
 10
7.6719516447
 20
-5.3489453308
  0
LWPOLYLINE
  5
34D
100
AcDbEntity
  8
RACCORDO
100
AcDbPolyline
 62
7
  6
CONTINUOUS
 90
28
 70
0
 10
-7.0992332936
 20
-5.7038930417
 10
-7.1165783678
 20
-5.703391829
 10
-7.1339043036
 20
-5.701884868
 10
-7.1511524015
 20
-5.6993703708
 10
-7.168288987
 20
-5.6958440595
 10
-7.1852285214
 20
-5.691314097
 10
-7.2018377388
 20
-5.685815812
 10
-7.218023648
 20
-5.6793909261
 10
-7.2337746
 20
-5.6720552389
 10
-7.2490821834
 20
-5.6638152498
 10
-7.2638961916
 20
-5.6546958686
 10
-7.2781638773
 20
-5.644727369
 10
-7.2918676728
 20
-5.6339154148
 10
-7.3049908199
 20
-5.6222565495
 10
-7.3174437583
 20
-5.6098128414
 10
-7.3291106167
 20
-5.5967002016
 10
-7.3399289849
 20
-5.5830090867
 10
-7.3499032351
 20
-5.568755758
 10
-7.3590292678
 20
-5.5539554159
 10
-7.3672770826
 20
-5.5386598521
 10
-7.3746211187
 20
-5.5229199225
 10
-7.3810546382
 20
-5.5067438303
 10
-7.3865620469
 20
-5.4901419369
 10
-7.3911009078
 20
-5.4732083508
 10
-7.3946349026
 20
-5.4560799393
 10
-7.3971561385
 20
-5.4388435567
 10
-7.3986696991
 20
-5.4215317159
 10
-7.3991778411
 20
-5.404203093
  0
LWPOLYLINE
  5
34E
100
AcDbEntity
  8
RACCORDO
100
AcDbPolyline
 62
250
  6
CONTINUOUS
 90
25
 70
0
 10
-7.0441028308
 20
-5.6487625789
 10
-7.0636966487
 20
-5.6480977771
 10
-7.0832066929
 20
-5.6461539437
 10
-7.1025495478
 20
-5.6429393896
 10
-7.1216425127
 20
-5.6384678587
 10
-7.1404039554
 20
-5.632758469
 10
-7.1587536608
 20
-5.6258356313
 10
-7.1766131746
 20
-5.6177289441
 10
-7.1939061381
 20
-5.6084730677
 10
-7.2105586149
 20
-5.5981075759
 10
-7.226499407
 20
-5.5866767865
 10
-7.2416603593
 20
-5.5742295721
 10
-7.2559766508
 20
-5.5608191508
 10
-7.2693870721
 20
-5.5465028593
 10
-7.2818342865
 20
-5.531341907
 10
-7.2932650759
 20
-5.5154011149
 10
-7.3036305677
 20
-5.4987486381
 10
-7.3128864441
 20
-5.4814556746
 10
-7.3209931313
 20
-5.4635961608
 10
-7.327915969
 20
-5.4452464554
 10
-7.3336253587
 20
-5.4264850127
 10
-7.3380968896
 20
-5.4073920478
 10
-7.3413114437
 20
-5.3880491929
 10
-7.3432552771
 20
-5.3685391487
 10
-7.3439200789
 20
-5.3489453308
  0
LWPOLYLINE
  5
34F
100
AcDbEntity
  8
RACCORDO
100
AcDbPolyline
 62
7
  6
CONTINUOUS
 90
15
 70
0
 10
-9.6661329729
 20
-0.7983230027
 10
-9.6654945028
 20
-0.7987734292
 10
-9.6640338617
 20
-0.7992190813
 10
-9.6617510497
 20
-0.7996599588
 10
-9.6586240345
 20
-0.8000985965
 10
-9.6546748484
 20
-0.8005324597
 10
-9.6499695883
 20
-0.8009539439
 10
-9.6445175477
 20
-0.8013614492
 10
-9.6383094332
 20
-0.8017565755
 10
-9.6313834615
 20
-0.8021365181
 10
-9.6237108405
 20
-0.8025023155
 10
-9.6153203623
 20
-0.8028529292
 10
-9.6063366202
 20
-0.8031824389
 10
-9.5967437617
 20
-0.8034902824
 10
-9.5759504031
 20
-0.8040384241
  0
LINE
  5
350
100
AcDbEntity
  8
RACCORDO
100
AcDbLine
 62
250
  6
CONTINUOUS
 10
-9.7247297089
 20
20.9789320513
 11
-9.67318706
 21
20.6163644221
  0
LINE
  5
351
100
AcDbEntity
  8
RACCORDO
100
AcDbLine
 62
250
  6
CONTINUOUS
 10
-9.524820891
 20
21.1778684136
 11
-9.4732175201
 21
20.8148736466
  0
LWPOLYLINE
  5
352
100
AcDbEntity
  8
RACCORDO
100
AcDbPolyline
 62
250
  6
CONTINUOUS
 90
5
 70
0
 10
-5.5373625008
 20
-15.1151299657
 10
-5.5372616766
 20
-15.1159262658
 10
-5.5371619494
 20
-15.1177122338
 10
-5.5370633192
 20
-15.1204821872
 10
-5.5369654913
 20
-15.1242272835
  0
LWPOLYLINE
  5
353
100
AcDbEntity
  8
RACCORDO
100
AcDbPolyline
 62
7
  6
CONTINUOUS
 90
31
 70
0
 10
-5.7854945658
 20
17.8189481907
 10
-5.784868284
 20
17.8097304068
 10
-5.7837503264
 20
17.8004481431
 10
-5.7821302948
 20
17.7911235929
 10
-5.7799981312
 20
17.7817839811
 10
-5.7773461565
 20
17.7724493596
 10
-5.7741689567
 20
17.7631326103
 10
-5.7704611656
 20
17.7538621712
 10
-5.7662173086
 20
17.7446622379
 10
-5.7614323757
 20
17.7355410284
 10
-5.756104164
 20
17.7265296551
 10
-5.750230138
 20
17.7176552758
 10
-5.7438038488
 20
17.70892282
 10
-5.7368262991
 20
17.7003668041
 10
-5.7292979062
 20
17.6920176808
 10
-5.7212092833
 20
17.6838784997
 10
-5.7125648336
 20
17.675987961
 10
-5.7033686198
 20
17.6683808964
 10
-5.6936081619
 20
17.6610609049
 10
-5.6832919729
 20
17.6540718253
 10
-5.6724294577
 20
17.6474542483
 10
-5.6610073809
 20
17.641215623
 10
-5.6490391373
 20
17.6354053217
 10
-5.6365432819
 20
17.6300713588
 10
-5.6235143124
 20
17.6252293559
 10
-5.6099727491
 20
17.6209337003
 10
-5.595951618
 20
17.6172396107
 10
-5.5814679511
 20
17.6141726788
 10
-5.5665550887
 20
17.6117812424
 10
-5.5512641905
 20
17.6101317137
 10
-5.5356468591
 20
17.6092788939
  0
LINE
  5
354
100
AcDbEntity
  8
RACCORDO
100
AcDbLine
 62
250
  6
CONTINUOUS
 10
-5.477724393
 20
-16.8468701478
 11
-5.4776244669
 21
-16.8503967396
  0
LINE
  5
355
100
AcDbEntity
  8
RACCORDO
100
AcDbLine
 62
250
  6
CONTINUOUS
 10
-5.3942440412
 20
17.8652167135
 11
-5.3943439673
 21
17.8687433054
  0
LINE
  5
356
100
AcDbEntity
  8
RACCORDO
100
AcDbLine
 62
250
  6
CONTINUOUS
 10
-5.1453631991
 20
18.1263494113
 11
-5.145493627
 21
18.1308006736
  0
LINE
  5
357
100
AcDbEntity
  8
RACCORDO
100
AcDbLine
 62
250
  6
CONTINUOUS
 10
-5.086007962
 20
16.399429712
 11
-5.0861357325
 21
16.4038599122
  0
LINE
  5
358
100
AcDbEntity
  8
RACCORDO
100
AcDbLine
 62
250
  6
CONTINUOUS
 10
-5.7265377369
 20
-17.1101736471
 11
-5.7264163986
 21
-17.1148431351
  0
LINE
  5
359
100
AcDbEntity
  8
RACCORDO
100
AcDbLine
 62
250
  6
CONTINUOUS
 10
-5.7858943384
 20
-15.383245191
 11
-5.7857755159
 21
-15.3878866148
  0
LINE
  5
35A
100
AcDbEntity
  8
RACCORDO
100
AcDbLine
 62
250
  6
CONTINUOUS
 10
-5.145493627
 20
18.1308006736
 11
-5.1456053324
 21
18.1356630588
  0
LINE
  5
35B
100
AcDbEntity
  8
RACCORDO
100
AcDbLine
 62
250
  6
CONTINUOUS
 10
-5.0861357325
 20
16.4038599122
 11
-5.0862450899
 21
16.4086881043
  0
LINE
  5
35C
100
AcDbEntity
  8
RACCORDO
100
AcDbLine
 62
250
  6
CONTINUOUS
 10
-5.7264163986
 20
-17.1148431351
 11
-5.7263149698
 21
-17.1198750097
  0
LINE
  5
35D
100
AcDbEntity
  8
RACCORDO
100
AcDbLine
 62
250
  6
CONTINUOUS
 10
-5.7857755159
 20
-15.3878866148
 11
-5.7856762366
 21
-15.392878935
  0
LINE
  5
35E
100
AcDbEntity
  8
RACCORDO
100
AcDbLine
 62
250
  6
CONTINUOUS
 10
-5.4776244669
 20
-16.8503967396
 11
-5.4774306575
 21
-16.8603976912
  0
LINE
  5
35F
100
AcDbEntity
  8
RACCORDO
100
AcDbLine
 62
250
  6
CONTINUOUS
 10
-5.3943439673
 20
17.8687433054
 11
-5.3945377767
 21
17.878744257
  0
LINE
  5
360
100
AcDbEntity
  8
RACCORDO
100
AcDbLine
 62
250
  6
CONTINUOUS
 10
-5.5369654913
 20
-15.1242272835
 11
-5.5367740109
 21
-15.1345904366
  0
LINE
  5
361
100
AcDbEntity
  8
RACCORDO
100
AcDbLine
 62
250
  6
CONTINUOUS
 10
-5.3350029429
 20
16.1425738493
 11
-5.3351944233
 21
16.1529370024
  0
LINE
  5
362
100
AcDbEntity
  8
RACCORDO
100
AcDbLine
 62
250
  6
CONTINUOUS
 10
-5.3580919879
 20
-19.8497843297
 11
-5.3955232931
 21
-17.5511037968
  0
LINE
  5
363
100
AcDbEntity
  8
RACCORDO
100
AcDbLine
 62
250
  6
CONTINUOUS
 10
-5.5138764463
 20
20.8681308955
 11
-5.4764451412
 21
18.5694503626
  0
LINE
  5
364
100
AcDbEntity
  8
RACCORDO
100
AcDbLine
 62
250
  6
CONTINUOUS
 10
-5.1456053324
 20
18.1356630588
 11
-5.1456964846
 21
18.1408644229
  0
LINE
  5
365
100
AcDbEntity
  8
RACCORDO
100
AcDbLine
 62
250
  6
CONTINUOUS
 10
-5.0862450899
 20
16.4086881043
 11
-5.0863342911
 21
16.4138445526
  0
LINE
  5
366
100
AcDbEntity
  8
RACCORDO
100
AcDbLine
 62
250
  6
CONTINUOUS
 10
-5.7263149698
 20
-17.1198750097
 11
-5.7262344725
 21
-17.1252183148
  0
LINE
  5
367
100
AcDbEntity
  8
RACCORDO
100
AcDbLine
 62
250
  6
CONTINUOUS
 10
-5.7856762366
 20
-15.392878935
 11
-5.785597477
 21
-15.3981727855
  0
LINE
  5
368
100
AcDbEntity
  8
RACCORDO
100
AcDbLine
 62
250
  6
CONTINUOUS
 10
-5.7561165911
 20
20.2952910527
 11
-5.7262287937
 21
18.4593053796
  0
LINE
  5
369
100
AcDbEntity
  8
RACCORDO
100
AcDbLine
 62
250
  6
CONTINUOUS
 10
-5.1158518431
 20
-19.2769444869
 11
-5.1457396405
 21
-17.4409588138
  0
LINE
  5
36A
100
AcDbEntity
  8
RACCORDO
100
AcDbLine
 62
250
  6
CONTINUOUS
 10
-5.1456964846
 20
18.1408644229
 11
-5.1457658404
 21
18.1463238556
  0
LINE
  5
36B
100
AcDbEntity
  8
RACCORDO
100
AcDbLine
 62
250
  6
CONTINUOUS
 10
-5.0863342911
 20
16.4138445526
 11
-5.0864021425
 21
16.4192507395
  0
LINE
  5
36C
100
AcDbEntity
  8
RACCORDO
100
AcDbLine
 62
250
  6
CONTINUOUS
 10
-5.4774306575
 20
-16.8603976912
 11
-5.4771550509
 21
-16.882498064
  0
LINE
  5
36D
100
AcDbEntity
  8
RACCORDO
100
AcDbLine
 62
250
  6
CONTINUOUS
 10
-5.3945377767
 20
17.878744257
 11
-5.3948133833
 21
17.9008446298
  0
LINE
  5
36E
100
AcDbEntity
  8
RACCORDO
100
AcDbLine
 62
250
  6
CONTINUOUS
 10
-5.5367740109
 20
-15.1345904366
 11
-5.5365025364
 21
-15.1570356901
  0
LINE
  5
36F
100
AcDbEntity
  8
RACCORDO
100
AcDbLine
 62
250
  6
CONTINUOUS
 10
-5.3351944233
 20
16.1529370024
 11
-5.3354658978
 21
16.1753822559
  0
LINE
  5
370
100
AcDbEntity
  8
RACCORDO
100
AcDbLine
 62
250
  6
CONTINUOUS
 10
-5.7262287937
 20
18.4593053796
 11
-5.7261619863
 21
18.4522974825
  0
LINE
  5
371
100
AcDbEntity
  8
RACCORDO
100
AcDbLine
 62
250
  6
CONTINUOUS
 10
-5.1457396405
 20
-17.4409588138
 11
-5.1458064479
 21
-17.4339509167
  0
LINE
  5
372
100
AcDbEntity
  8
RACCORDO
100
AcDbLine
 62
250
  6
CONTINUOUS
 10
-5.785597477
 20
-15.3981727855
 11
-5.7855204569
 21
-15.406505753
  0
LINE
  5
373
100
AcDbEntity
  8
RACCORDO
100
AcDbLine
 62
250
  6
CONTINUOUS
 10
-5.7262344725
 20
-17.1252183148
 11
-5.7261557303
 21
-17.1336386303
  0
LINE
  5
374
100
AcDbEntity
  8
RACCORDO
100
AcDbLine
 62
250
  6
CONTINUOUS
 10
-5.5365025364
 20
-15.1570356901
 11
-5.5360465662
 21
-15.2240395543
  0
LINE
  5
375
100
AcDbEntity
  8
RACCORDO
100
AcDbLine
 62
250
  6
CONTINUOUS
 10
-5.4771550509
 20
-16.882498064
 11
-5.476690017
 21
-16.9494766312
  0
LINE
  5
376
100
AcDbEntity
  8
RACCORDO
100
AcDbLine
 62
250
  6
CONTINUOUS
 10
-5.3948133833
 20
17.9008446298
 11
-5.3952784172
 21
17.9678231969
  0
LINE
  5
377
100
AcDbEntity
  8
RACCORDO
100
AcDbLine
 62
250
  6
CONTINUOUS
 10
-5.3354658978
 20
16.1753822559
 11
-5.335921868
 21
16.2423861201
  0
LINE
  5
378
100
AcDbEntity
  8
RACCORDO
100
AcDbLine
 62
250
  6
CONTINUOUS
 10
-5.1457658404
 20
18.1463238556
 11
-5.1458273358
 21
18.1548483075
  0
LINE
  5
379
100
AcDbEntity
  8
RACCORDO
100
AcDbLine
 62
250
  6
CONTINUOUS
 10
-5.0864021425
 20
16.4192507395
 11
-5.0864622887
 21
16.427684593
  0
LINE
  5
37A
100
AcDbEntity
  8
RACCORDO
100
AcDbLine
 62
250
  6
CONTINUOUS
 10
-5.7261619863
 20
18.4522974825
 11
-5.7261313373
 21
18.4450955545
  0
LINE
  5
37B
100
AcDbEntity
  8
RACCORDO
100
AcDbLine
 62
250
  6
CONTINUOUS
 10
-5.1458064479
 20
-17.4339509167
 11
-5.1458370969
 21
-17.4267489887
  0
LINE
  5
37C
100
AcDbEntity
  8
RACCORDO
100
AcDbLine
 62
250
  6
CONTINUOUS
 10
-5.7855204569
 20
-15.406505753
 11
-5.7854945658
 21
-15.4150845031
  0
LINE
  5
37D
100
AcDbEntity
  8
RACCORDO
100
AcDbLine
 62
250
  6
CONTINUOUS
 10
-5.7261557303
 20
-17.1336386303
 11
-5.7261292577
 21
-17.1423124737
  0
LINE
  5
37E
100
AcDbEntity
  8
RACCORDO
100
AcDbLine
 62
250
  6
CONTINUOUS
 10
-5.5360465662
 20
-15.2240395543
 11
-5.5356498163
 21
-15.3978439657
  0
LINE
  5
37F
100
AcDbEntity
  8
RACCORDO
100
AcDbLine
 62
250
  6
CONTINUOUS
 10
-5.476690017
 20
-16.9494766312
 11
-5.4762845764
 21
-17.1248788215
  0
LINE
  5
380
100
AcDbEntity
  8
RACCORDO
100
AcDbLine
 62
250
  6
CONTINUOUS
 10
-5.3952784172
 20
17.9678231969
 11
-5.3956838578
 21
18.1432253873
  0
LINE
  5
381
100
AcDbEntity
  8
RACCORDO
100
AcDbLine
 62
250
  6
CONTINUOUS
 10
-5.335921868
 20
16.2423861201
 11
-5.3363186179
 21
16.4161905315
  0
LINE
  5
382
100
AcDbEntity
  8
RACCORDO
100
AcDbLine
 62
250
  6
CONTINUOUS
 10
-5.7854945658
 20
-15.4150845031
 11
-5.7854945658
 21
-16.8006016249
  0
LINE
  5
383
100
AcDbEntity
  8
RACCORDO
100
AcDbLine
 62
7
  6
CONTINUOUS
 10
-5.7561165911
 20
-20.0566498758
 11
-5.7561165911
 21
-19.2769444869
  0
LINE
  5
384
100
AcDbEntity
  8
RACCORDO
100
AcDbLine
 62
7
  6
CONTINUOUS
 10
-5.7561165911
 20
20.2952910527
 11
-5.7561165911
 21
21.0749964415
  0
LINE
  5
385
100
AcDbEntity
  8
RACCORDO
100
AcDbLine
 62
250
  6
CONTINUOUS
 10
-5.5356498163
 20
-15.3978439657
 11
-5.5356468591
 21
-16.5909323281
  0
LINE
  5
386
100
AcDbEntity
  8
RACCORDO
100
AcDbLine
 62
250
  6
CONTINUOUS
 10
-5.3363186179
 20
16.4161905315
 11
-5.3363215751
 21
17.6092788939
  0
LINE
  5
387
100
AcDbEntity
  8
RACCORDO
100
AcDbLine
 62
7
  6
CONTINUOUS
 10
-5.1158518431
 20
21.0749964415
 11
-5.1158518431
 21
20.2952910527
  0
LINE
  5
388
100
AcDbEntity
  8
RACCORDO
100
AcDbLine
 62
7
  6
CONTINUOUS
 10
-5.1158518431
 20
-19.2769444869
 11
-5.1158518431
 21
-20.0566498758
  0
LINE
  5
389
100
AcDbEntity
  8
RACCORDO
100
AcDbLine
 62
250
  6
CONTINUOUS
 10
-5.0864622887
 20
16.427684593
 11
-5.0864738684
 21
17.8189481907
  0
LINE
  5
38A
100
AcDbEntity
  8
RACCORDO
100
AcDbLine
 62
250
  6
CONTINUOUS
 10
-5.4764451412
 20
18.5694503626
 11
-5.4762845764
 21
18.1432253873
  0
LINE
  5
38B
100
AcDbEntity
  8
RACCORDO
100
AcDbLine
 62
250
  6
CONTINUOUS
 10
-5.3955232931
 20
-17.5511037968
 11
-5.3956838578
 21
-17.1248788215
  0
LINE
  5
38C
100
AcDbEntity
  8
RACCORDO
100
AcDbLine
 62
250
  6
CONTINUOUS
 10
-5.1458273358
 20
18.1548483075
 11
-5.1458370969
 21
18.4450955547
  0
LINE
  5
38D
100
AcDbEntity
  8
RACCORDO
100
AcDbLine
 62
250
  6
CONTINUOUS
 10
-5.3956838578
 20
18.1432253873
 11
-5.3955232931
 21
18.5694503626
  0
LINE
  5
38E
100
AcDbEntity
  8
RACCORDO
100
AcDbLine
 62
250
  6
CONTINUOUS
 10
-5.4762845764
 20
-17.1248788215
 11
-5.4764451412
 21
-17.5511037968
  0
LINE
  5
38F
100
AcDbEntity
  8
RACCORDO
100
AcDbLine
 62
250
  6
CONTINUOUS
 10
-5.7854945658
 20
17.8189481907
 11
-5.7855061456
 21
16.4276845929
  0
LINE
  5
390
100
AcDbEntity
  8
RACCORDO
100
AcDbLine
 62
250
  6
CONTINUOUS
 10
-5.7261313373
 20
18.4450955545
 11
-5.7261410984
 21
18.1548483075
  0
LINE
  5
391
100
AcDbEntity
  8
RACCORDO
100
AcDbLine
 62
250
  6
CONTINUOUS
 10
-5.1458370969
 20
-17.4267489887
 11
-5.1458273358
 21
-17.1365017417
  0
LINE
  5
392
100
AcDbEntity
  8
RACCORDO
100
AcDbLine
 62
250
  6
CONTINUOUS
 10
-5.0864738684
 20
-16.8006016249
 11
-5.0864622887
 21
-15.4093380271
  0
LINE
  5
393
100
AcDbEntity
  8
RACCORDO
100
AcDbLine
 62
250
  6
CONTINUOUS
 10
-5.5356468591
 20
17.6092788939
 11
-5.5359277584
 21
16.2702082292
  0
LINE
  5
394
100
AcDbEntity
  8
RACCORDO
100
AcDbLine
 62
250
  6
CONTINUOUS
 10
-5.3363215751
 20
-16.5909323281
 11
-5.3360406758
 21
-15.2518616634
  0
LINE
  5
395
100
AcDbEntity
  8
RACCORDO
100
AcDbLine
 62
250
  6
CONTINUOUS
 10
-5.7261292577
 20
-17.1423124737
 11
-5.7261476775
 21
-17.4315621881
  0
LINE
  5
396
100
AcDbEntity
  8
RACCORDO
100
AcDbLine
 62
250
  6
CONTINUOUS
 10
-5.4762845764
 20
18.1432253873
 11
-5.476690017
 21
17.9678231969
  0
LINE
  5
397
100
AcDbEntity
  8
RACCORDO
100
AcDbLine
 62
250
  6
CONTINUOUS
 10
-5.3956838578
 20
-17.1248788215
 11
-5.3952784172
 21
-16.9494766311
  0
LINE
  5
398
100
AcDbEntity
  8
RACCORDO
100
AcDbLine
 62
250
  6
CONTINUOUS
 10
-5.1458370969
 20
18.4450955547
 11
-5.1458064479
 21
18.4522974831
  0
LINE
  5
399
100
AcDbEntity
  8
RACCORDO
100
AcDbLine
 62
250
  6
CONTINUOUS
 10
-5.5359277584
 20
16.2702082292
 11
-5.5364177153
 21
16.18460803
  0
LINE
  5
39A
100
AcDbEntity
  8
RACCORDO
100
AcDbLine
 62
250
  6
CONTINUOUS
 10
-5.3360406758
 20
-15.2518616634
 11
-5.3355507189
 21
-15.1662614642
  0
LINE
  5
39B
100
AcDbEntity
  8
RACCORDO
100
AcDbLine
 62
250
  6
CONTINUOUS
 10
-5.7855061456
 20
16.4276845929
 11
-5.7855662917
 21
16.4192507395
  0
LINE
  5
39C
100
AcDbEntity
  8
RACCORDO
100
AcDbLine
 62
250
  6
CONTINUOUS
 10
-5.0864622887
 20
-15.4093380271
 11
-5.0864021425
 21
-15.4009041737
  0
LINE
  5
39D
100
AcDbEntity
  8
RACCORDO
100
AcDbLine
 62
250
  6
CONTINUOUS
 10
-5.7261410984
 20
18.1548483075
 11
-5.7262025938
 21
18.1463238556
  0
LINE
  5
39E
100
AcDbEntity
  8
RACCORDO
100
AcDbLine
 62
250
  6
CONTINUOUS
 10
-5.476690017
 20
17.9678231969
 11
-5.4771550509
 21
17.9008446297
  0
LINE
  5
39F
100
AcDbEntity
  8
RACCORDO
100
AcDbLine
 62
250
  6
CONTINUOUS
 10
-5.3952784172
 20
-16.9494766311
 11
-5.3948133833
 21
-16.8824980639
  0
LINE
  5
3A0
100
AcDbEntity
  8
RACCORDO
100
AcDbLine
 62
250
  6
CONTINUOUS
 10
-5.1458273358
 20
-17.1365017417
 11
-5.1457658404
 21
-17.1279772898
  0
LINE
  5
3A1
100
AcDbEntity
  8
RACCORDO
100
AcDbLine
 62
250
  6
CONTINUOUS
 10
-5.7261476775
 20
-17.4315621881
 11
-5.7262026407
 21
-17.4386616317
  0
LINE
  5
3A2
100
AcDbEntity
  8
RACCORDO
100
AcDbLine
 62
250
  6
CONTINUOUS
 10
-5.1458064479
 20
18.4522974831
 11
-5.1457396405
 21
18.45930538
  0
LINE
  5
3A3
100
AcDbEntity
  8
RACCORDO
100
AcDbLine
 62
250
  6
CONTINUOUS
 10
-5.5364177153
 20
16.18460803
 11
-5.5366812104
 21
16.1595204255
  0
LINE
  5
3A4
100
AcDbEntity
  8
RACCORDO
100
AcDbLine
 62
250
  6
CONTINUOUS
 10
-5.3355507189
 20
-15.1662614642
 11
-5.3352872238
 21
-15.1411738597
  0
LINE
  5
3A5
100
AcDbEntity
  8
RACCORDO
100
AcDbLine
 62
250
  6
CONTINUOUS
 10
-5.7855662917
 20
16.4192507395
 11
-5.7856341431
 21
16.4138445526
  0
LINE
  5
3A6
100
AcDbEntity
  8
RACCORDO
100
AcDbLine
 62
250
  6
CONTINUOUS
 10
-5.0864021425
 20
-15.4009041737
 11
-5.0863342911
 21
-15.3954979868
  0
LINE
  5
3A7
100
AcDbEntity
  8
RACCORDO
100
AcDbLine
 62
250
  6
CONTINUOUS
 10
-5.7262025938
 20
18.1463238556
 11
-5.7262719497
 21
18.1408644228
  0
LINE
  5
3A8
100
AcDbEntity
  8
RACCORDO
100
AcDbLine
 62
250
  6
CONTINUOUS
 10
-5.1457658404
 20
-17.1279772898
 11
-5.1456964846
 21
-17.122517857
  0
LINE
  5
3A9
100
AcDbEntity
  8
RACCORDO
100
AcDbLine
 62
250
  6
CONTINUOUS
 10
-5.4771550509
 20
17.9008446297
 11
-5.4774306575
 21
17.878744257
  0
LINE
  5
3AA
100
AcDbEntity
  8
RACCORDO
100
AcDbLine
 62
250
  6
CONTINUOUS
 10
-5.3948133833
 20
-16.8824980639
 11
-5.3945377767
 21
-16.8603976912
  0
LINE
  5
3AB
100
AcDbEntity
  8
RACCORDO
100
AcDbLine
 62
250
  6
CONTINUOUS
 10
-5.7262026407
 20
-17.4386616317
 11
-5.7262928479
 21
-17.4454492314
  0
LINE
  5
3AC
100
AcDbEntity
  8
RACCORDO
100
AcDbLine
 62
250
  6
CONTINUOUS
 10
-5.3955232931
 20
18.5694503626
 11
-5.3580919879
 21
20.8681308955
  0
LINE
  5
3AD
100
AcDbEntity
  8
RACCORDO
100
AcDbLine
 62
250
  6
CONTINUOUS
 10
-5.1457396405
 20
18.45930538
 11
-5.1158518431
 21
20.2952910527
  0
LINE
  5
3AE
100
AcDbEntity
  8
RACCORDO
100
AcDbLine
 62
250
  6
CONTINUOUS
 10
-5.7262928479
 20
-17.4454492314
 11
-5.7561165911
 21
-19.2769444869
  0
LINE
  5
3AF
100
AcDbEntity
  8
RACCORDO
100
AcDbLine
 62
250
  6
CONTINUOUS
 10
-5.4764451412
 20
-17.5511037968
 11
-5.5138764463
 21
-19.8497843297
  0
LWPOLYLINE
  5
3B0
100
AcDbEntity
  8
RACCORDO
100
AcDbPolyline
 62
250
  6
CONTINUOUS
 90
7
 70
0
 10
-5.5366812104
 20
16.1595204255
 10
-5.5368687603
 20
16.1472818634
 10
-5.5369654913
 20
16.1425738493
 10
-5.5370633192
 20
16.1388287529
 10
-5.5371619494
 20
16.1360587996
 10
-5.5372616766
 20
16.1342728316
 10
-5.5373625009
 20
16.1334765315
  0
LWPOLYLINE
  5
3B1
100
AcDbEntity
  8
RACCORDO
100
AcDbPolyline
 62
250
  6
CONTINUOUS
 90
7
 70
0
 10
-5.3352872238
 20
-15.1411738597
 10
-5.3350996739
 20
-15.1289352976
 10
-5.335002943
 20
-15.1242272835
 10
-5.334905115
 20
-15.1204821871
 10
-5.3348064848
 20
-15.1177122338
 10
-5.3347067576
 20
-15.1159262658
 10
-5.3346059334
 20
-15.1151299657
  0
LINE
  5
3B2
100
AcDbEntity
  8
RACCORDO
100
AcDbLine
 62
250
  6
CONTINUOUS
 10
-5.7856341431
 20
16.4138445526
 11
-5.7857233443
 21
16.4086881043
  0
LINE
  5
3B3
100
AcDbEntity
  8
RACCORDO
100
AcDbLine
 62
250
  6
CONTINUOUS
 10
-5.0863342911
 20
-15.3954979868
 11
-5.0862450899
 21
-15.3903415385
  0
LINE
  5
3B4
100
AcDbEntity
  8
RACCORDO
100
AcDbLine
 62
250
  6
CONTINUOUS
 10
-5.7262719497
 20
18.1408644228
 11
-5.7263631018
 21
18.1356630588
  0
LINE
  5
3B5
100
AcDbEntity
  8
RACCORDO
100
AcDbLine
 62
250
  6
CONTINUOUS
 10
-5.1456964846
 20
-17.122517857
 11
-5.1456053324
 21
-17.117316493
  0
LWPOLYLINE
  5
3B6
100
AcDbEntity
  8
RACCORDO
100
AcDbPolyline
 62
250
  6
CONTINUOUS
 90
3
 70
0
 10
-5.4774306575
 20
17.878744257
 10
-5.4776244669
 20
17.8687433053
 10
-5.477724393
 20
17.8652167135
  0
LWPOLYLINE
  5
3B7
100
AcDbEntity
  8
RACCORDO
100
AcDbPolyline
 62
250
  6
CONTINUOUS
 90
3
 70
0
 10
-5.3945377767
 20
-16.8603976912
 10
-5.3943439673
 20
-16.8503967396
 10
-5.3942440412
 20
-16.8468701478
  0
LWPOLYLINE
  5
3B8
100
AcDbEntity
  8
RACCORDO
100
AcDbPolyline
 62
250
  6
CONTINUOUS
 90
3
 70
0
 10
-5.7857233443
 20
16.4086881043
 10
-5.7858327017
 20
16.4038599122
 10
-5.7858943384
 20
16.4015917568
  0
LINE
  5
3B9
100
AcDbEntity
  8
RACCORDO
100
AcDbLine
 62
250
  6
CONTINUOUS
 10
-5.0862450899
 20
-15.3903415385
 11
-5.0861357325
 21
-15.3855133464
  0
LWPOLYLINE
  5
3BA
100
AcDbEntity
  8
RACCORDO
100
AcDbPolyline
 62
250
  6
CONTINUOUS
 90
3
 70
0
 10
-5.7263631018
 20
18.1356630588
 10
-5.7264748072
 20
18.1308006736
 10
-5.7265377369
 20
18.1285202129
  0
LINE
  5
3BB
100
AcDbEntity
  8
RACCORDO
100
AcDbLine
 62
250
  6
CONTINUOUS
 10
-5.1456053324
 20
-17.117316493
 11
-5.145493627
 21
-17.1124541078
  0
LWPOLYLINE
  5
3BC
100
AcDbEntity
  8
RACCORDO
100
AcDbPolyline
 62
7
  6
CONTINUOUS
 90
28
 70
0
 10
-5.0303640241
 20
16.3562498313
 10
-5.0307664596
 20
16.3417824546
 10
-5.0320086997
 20
16.3273319613
 10
-5.0340920833
 20
16.3129473827
 10
-5.0370199453
 20
16.2986570553
 10
-5.0407853769
 20
16.2845321522
 10
-5.0453590452
 20
16.2706832556
 10
-5.0507061585
 20
16.2571878365
 10
-5.0568134044
 20
16.2440557273
 10
-5.063675412
 20
16.2312937066
 10
-5.0712710676
 20
16.2189441283
 10
-5.0795753465
 20
16.2070504848
 10
-5.0885847316
 20
16.1956259262
 10
-5.0983032189
 20
16.1846836992
 10
-5.1086784664
 20
16.1742997949
 10
-5.1196124547
 20
16.1645723547
 10
-5.1310297747
 20
16.1555533253
 10
-5.1429166586
 20
16.1472391498
 10
-5.155258233
 20
16.1396344259
 10
-5.1680104468
 20
16.1327640658
 10
-5.1811311968
 20
16.1266486027
 10
-5.1946129963
 20
16.1212933693
 10
-5.2084442999
 20
16.1167116525
 10
-5.2225491912
 20
16.11293711
 10
-5.236821517
 20
16.1099980024
 10
-5.2511918011
 20
16.1079014012
 10
-5.2656304407
 20
16.1066445275
 10
-5.280088545
 20
16.1062263334
  0
LWPOLYLINE
  5
3BD
100
AcDbEntity
  8
RACCORDO
100
AcDbPolyline
 62
7
  6
CONTINUOUS
 90
28
 70
0
 10
-5.8416044101
 20
-15.3379032655
 10
-5.8412019747
 20
-15.3234358888
 10
-5.8399597345
 20
-15.3089853955
 10
-5.8378763509
 20
-15.2946008169
 10
-5.8349484889
 20
-15.2803104895
 10
-5.8311830573
 20
-15.2661855864
 10
-5.826609389
 20
-15.2523366898
 10
-5.8212622758
 20
-15.2388412707
 10
-5.8151550298
 20
-15.2257091615
 10
-5.8082930222
 20
-15.2129471408
 10
-5.8006973666
 20
-15.2005975625
 10
-5.7923930877
 20
-15.1887039191
 10
-5.7833837026
 20
-15.1772793604
 10
-5.7736652153
 20
-15.1663371334
 10
-5.7632899678
 20
-15.1559532291
 10
-5.7523559795
 20
-15.1462257889
 10
-5.7409386595
 20
-15.1372067595
 10
-5.7290517757
 20
-15.128892584
 10
-5.7167102012
 20
-15.1212878601
 10
-5.7039579874
 20
-15.1144175001
 10
-5.6908372374
 20
-15.1083020369
 10
-5.677355438
 20
-15.1029468035
 10
-5.6635241343
 20
-15.0983650868
 10
-5.649419243
 20
-15.0945905442
 10
-5.6351469172
 20
-15.0916514366
 10
-5.6207766331
 20
-15.0895548354
 10
-5.6063379935
 20
-15.0882979617
 10
-5.5918798892
 20
-15.0878797676
  0
LINE
  5
3BE
100
AcDbEntity
  8
RACCORDO
100
AcDbLine
 62
250
  6
CONTINUOUS
 10
-5.0861357325
 20
-15.3855133464
 11
-5.086007962
 21
-15.3810831462
  0
LINE
  5
3BF
100
AcDbEntity
  8
RACCORDO
100
AcDbLine
 62
250
  6
CONTINUOUS
 10
-5.145493627
 20
-17.1124541078
 11
-5.1453631991
 21
-17.1080028455
  0
LWPOLYLINE
  5
3C0
100
AcDbEntity
  8
RACCORDO
100
AcDbPolyline
 62
7
  6
CONTINUOUS
 90
31
 70
0
 10
-5.7854945658
 20
-16.8006016249
 10
-5.7848694144
 20
-16.7913452462
 10
-5.78375124
 20
-16.7820703802
 10
-5.7821302948
 20
-16.7727770271
 10
-5.7799979316
 20
-16.7634442318
 10
-5.7773464449
 20
-16.7540929492
 10
-5.7741689567
 20
-16.7447860445
 10
-5.7704609427
 20
-16.7355232145
 10
-5.7662176281
 20
-16.7263047622
 10
-5.7614323757
 20
-16.7171944626
 10
-5.7561039226
 20
-16.7081913326
 10
-5.7502304999
 20
-16.6992963552
 10
-5.7438038488
 20
-16.6905762542
 10
-5.7368260398
 20
-16.6820290919
 10
-5.7292983252
 20
-16.6736568059
 10
-5.7212092833
 20
-16.6655319339
 10
-5.7125645511
 20
-16.6576510407
 10
-5.7033691109
 20
-16.6500175614
 10
-5.6936081619
 20
-16.6427143391
 10
-5.683291654
 20
-16.6357361473
 10
-5.6724300279
 20
-16.6290882126
 10
-5.6610073809
 20
-16.6228690572
 10
-5.6490387532
 20
-16.6170718712
 10
-5.6365439066
 20
-16.6117034645
 10
-5.6235143124
 20
-16.6068827901
 10
-5.6099722604
 20
-16.602603821
 10
-5.5959522173
 20
-16.5988725841
 10
-5.5814679511
 20
-16.595826113
 10
-5.5665528801
 20
-16.5935100856
 10
-5.551261447
 20
-16.5918788239
 10
-5.5356468591
 20
-16.5909323281
  0
LINE
  5
3C1
100
AcDbEntity
  8
RACCORDO
100
AcDbLine
 62
7
  6
CONTINUOUS
 10
-6.571626274
 20
1.823531226
 11
-6.5998679963
 21
1.7952895037
  0
LWPOLYLINE
  5
3C2
100
AcDbEntity
  8
RACCORDO
100
AcDbPolyline
 62
250
  6
CONTINUOUS
 90
25
 70
0
 10
-6.9278656034
 20
-5.6487625789
 10
-6.9082717691
 20
-5.648097776
 10
-6.8887617096
 20
-5.6461539395
 10
-6.8694188407
 20
-5.6429393805
 10
-6.8503258631
 20
-5.638467843
 10
-6.8315644095
 20
-5.6327584454
 10
-6.8132146951
 20
-5.6258355987
 10
-6.7953551744
 20
-5.6177289019
 10
-6.7780622061
 20
-5.6084730156
 10
-6.7614097268
 20
-5.598107514
 10
-6.7454689344
 20
-5.5866767151
 10
-6.7303079838
 20
-5.574229492
 10
-6.715991696
 20
-5.5608190632
 10
-6.7025812802
 20
-5.5465027657
 10
-6.6901340728
 20
-5.5313418093
 10
-6.6787032917
 20
-5.5154010152
 10
-6.6683378091
 20
-5.4987485388
 10
-6.6590819426
 20
-5.4814555782
 10
-6.6509752653
 20
-5.46359607
 10
-6.6440524372
 20
-5.4452463729
 10
-6.6383430564
 20
-5.4264849415
 10
-6.6338715332
 20
-5.4073919905
 10
-6.6306569851
 20
-5.3880491522
 10
-6.6287131557
 20
-5.3685391272
 10
-6.6280483553
 20
-5.3489453308
  0
LINE
  5
3C3
100
AcDbEntity
  8
RACCORDO
100
AcDbLine
 62
7
  6
CONTINUOUS
 10
7.4272648594
 20
-5.7038930417
 11
7.2007667064
 21
-5.7038930417
  0
LINE
  5
3C4
100
AcDbEntity
  8
RACCORDO
100
AcDbLine
 62
7
  6
CONTINUOUS
 10
-6.8727351406
 20
-5.7038930417
 11
-7.0992332936
 21
-5.7038930417
  0
LINE
  5
3C5
100
AcDbEntity
  8
RACCORDO
100
AcDbLine
 62
250
  6
CONTINUOUS
 10
-7.0441033583
 20
-5.6487631064
 11
-6.9278650759
 21
-5.6487631064
  0
LINE
  5
3C6
100
AcDbEntity
  8
RACCORDO
100
AcDbLine
 62
250
  6
CONTINUOUS
 10
7.2558966417
 20
-5.6487631064
 11
7.3721349241
 21
-5.6487631064
  0
LINE
  5
3C7
100
AcDbEntity
  8
RACCORDO
100
AcDbLine
 62
250
  6
CONTINUOUS
 10
-7.3371796684
 20
-5.1490671654
 11
-6.6347887658
 21
-5.1490671654
  0
LINE
  5
3C8
100
AcDbEntity
  8
RACCORDO
100
AcDbLine
 62
250
  6
CONTINUOUS
 10
6.9628203316
 20
-5.1490671654
 11
7.6652112342
 21
-5.1490671654
  0
LWPOLYLINE
  5
3C9
100
AcDbEntity
  8
RACCORDO
100
AcDbPolyline
 62
7
  6
CONTINUOUS
 90
28
 70
0
 10
7.2007667064
 20
-5.7038930417
 10
7.1834216322
 20
-5.703391829
 10
7.1660956964
 20
-5.701884868
 10
7.1488475985
 20
-5.6993703708
 10
7.131711013
 20
-5.6958440595
 10
7.1147714786
 20
-5.691314097
 10
7.0981622612
 20
-5.685815812
 10
7.081976352
 20
-5.6793909261
 10
7.0662254
 20
-5.6720552389
 10
7.0509178166
 20
-5.6638152498
 10
7.0361038084
 20
-5.6546958686
 10
7.0218361227
 20
-5.644727369
 10
7.0081323272
 20
-5.6339154148
 10
6.9950091801
 20
-5.6222565495
 10
6.9825562417
 20
-5.6098128414
 10
6.9708893833
 20
-5.5967002016
 10
6.9600710151
 20
-5.5830090867
 10
6.9500967649
 20
-5.568755758
 10
6.9409707322
 20
-5.5539554159
 10
6.9327229174
 20
-5.5386598521
 10
6.9253788813
 20
-5.5229199225
 10
6.9189453618
 20
-5.5067438303
 10
6.9134379531
 20
-5.4901419369
 10
6.9088990922
 20
-5.4732083508
 10
6.9053650974
 20
-5.4560799393
 10
6.9028438615
 20
-5.4388435567
 10
6.9013303009
 20
-5.4215317159
 10
6.9008221589
 20
-5.404203093
  0
LWPOLYLINE
  5
3CA
100
AcDbEntity
  8
RACCORDO
100
AcDbPolyline
 62
250
  6
CONTINUOUS
 90
25
 70
0
 10
7.2558971692
 20
-5.6487625789
 10
7.2363033513
 20
-5.6480977771
 10
7.2167933071
 20
-5.6461539437
 10
7.1974504522
 20
-5.6429393896
 10
7.1783574873
 20
-5.6384678587
 10
7.1595960446
 20
-5.632758469
 10
7.1412463392
 20
-5.6258356313
 10
7.1233868254
 20
-5.6177289441
 10
7.1060938619
 20
-5.6084730677
 10
7.0894413851
 20
-5.5981075759
 10
7.073500593
 20
-5.5866767865
 10
7.0583396407
 20
-5.5742295721
 10
7.0440233492
 20
-5.5608191508
 10
7.0306129279
 20
-5.5465028593
 10
7.0181657135
 20
-5.531341907
 10
7.0067349241
 20
-5.5154011149
 10
6.9963694323
 20
-5.4987486381
 10
6.9871135559
 20
-5.4814556746
 10
6.9790068687
 20
-5.4635961608
 10
6.972084031
 20
-5.4452464554
 10
6.9663746413
 20
-5.4264850127
 10
6.9619031104
 20
-5.4073920478
 10
6.9586885563
 20
-5.3880491929
 10
6.9567447229
 20
-5.3685391487
 10
6.9560799211
 20
-5.3489453308
  0
LINE
  5
3CB
100
AcDbEntity
  8
RACCORDO
100
AcDbLine
 62
7
  6
CONTINUOUS
 10
-6.5998679963
 20
-0.7769429379
 11
-6.571626274
 21
-0.8051846602
  0
LWPOLYLINE
  5
3CC
100
AcDbEntity
  8
RACCORDO
100
AcDbPolyline
 62
250
  6
CONTINUOUS
 90
13
 70
0
 10
5.4127898683
 20
-15.3650921183
 10
5.4128906126
 20
-15.3652269312
 10
5.4129903057
 20
-15.3655239405
 10
5.4130889475
 20
-15.3659831461
 10
5.4131868682
 20
-15.3666071326
 10
5.4132837377
 20
-15.3673933155
 10
5.4133785658
 20
-15.368333941
 10
5.4134713218
 20
-15.3694305217
 10
5.4135620365
 20
-15.370681545
 10
5.4136498123
 20
-15.3720747195
 10
5.4137346202
 20
-15.3736114729
 10
5.4138164893
 20
-15.3752903777
 10
5.4138946091
 20
-15.3770948593
  0
LWPOLYLINE
  5
3CD
100
AcDbEntity
  8
RACCORDO
100
AcDbPolyline
 62
250
  6
CONTINUOUS
 90
8
 70
0
 10
-7.0441030404
 20
6.667109672
 10
-7.0437446298
 20
6.6655627959
 10
-7.043389655
 20
6.662710518
 10
-7.0430381159
 20
6.6585602415
 10
-7.0426891312
 20
6.6531227935
 10
-7.0423435823
 20
6.6464123416
 10
-7.0420041131
 20
6.6384463124
 10
-7.0416707276
 20
6.6292453039
  0
LINE
  5
3CE
100
AcDbEntity
  8
RACCORDO
100
AcDbLine
 62
250
  6
CONTINUOUS
 10
-5.1452153719
 20
18.1223544654
 11
-5.1453631991
 21
18.1263494113
  0
LINE
  5
3CF
100
AcDbEntity
  8
RACCORDO
100
AcDbLine
 62
250
  6
CONTINUOUS
 10
-5.0858630433
 20
16.395441425
 11
-5.086007962
 21
16.399429712
  0
LINE
  5
3D0
100
AcDbEntity
  8
RACCORDO
100
AcDbLine
 62
250
  6
CONTINUOUS
 10
-3.7514542709
 20
22.6314120527
 11
-3.7514542709
 21
21.0749964415
  0
LINE
  5
3D1
100
AcDbEntity
  8
RACCORDO
100
AcDbLine
 62
250
  6
CONTINUOUS
 10
-3.7514542709
 20
-20.0566498758
 11
-3.7514542709
 21
-21.6130654869
  0
LINE
  5
3D2
100
AcDbEntity
  8
RACCORDO
100
AcDbLine
 62
250
  6
CONTINUOUS
 10
-3.5782491902
 20
22.6366528306
 11
-3.5782491902
 21
21.0872748976
  0
LINE
  5
3D3
100
AcDbEntity
  8
RACCORDO
100
AcDbLine
 62
250
  6
CONTINUOUS
 10
-3.5782491902
 20
-20.0689283318
 11
-3.5782491902
 21
-21.6183062648
  0
LWPOLYLINE
  5
3D4
100
AcDbEntity
  8
RACCORDO
100
AcDbPolyline
 62
250
  6
CONTINUOUS
 90
14
 70
0
 10
-5.086007962
 20
-15.3810831462
 10
-5.0858630433
 20
-15.3770948592
 10
-5.0857849235
 20
-15.3752903776
 10
-5.0857030544
 20
-15.3736114729
 10
-5.0856182465
 20
-15.3720747195
 10
-5.0855304707
 20
-15.3706815449
 10
-5.085439756
 20
-15.3694305217
 10
-5.0853470001
 20
-15.368333941
 10
-5.0852521719
 20
-15.3673933155
 10
-5.0851553024
 20
-15.3666071326
 10
-5.0850573818
 20
-15.3659831461
 10
-5.0849587399
 20
-15.3655239405
 10
-5.0848590468
 20
-15.3652269312
 10
-5.0847583025
 20
-15.3650921183
  0
LWPOLYLINE
  5
3D5
100
AcDbEntity
  8
RACCORDO
100
AcDbPolyline
 62
250
  6
CONTINUOUS
 90
11
 70
0
 10
-5.1453631991
 20
-17.1080028455
 10
-5.1452153719
 20
-17.1040078996
 10
-5.1451357387
 20
-17.1022060957
 10
-5.1450523171
 20
-17.1005338162
 10
-5.1449659514
 20
-17.0990078709
 10
-5.1448766004
 20
-17.0976296689
 10
-5.1447843053
 20
-17.0963978011
 10
-5.1446900343
 20
-17.0953248507
 10
-5.1445941102
 20
-17.0944150118
 10
-5.1444962103
 20
-17.0936640903
 10
-5.1443963344
 20
-17.093072086
  0
LINE
  5
3D6
100
AcDbEntity
  8
RACCORDO
100
AcDbLine
 62
7
  6
CONTINUOUS
 10
-7.4003421602
 20
-0.8051846602
 11
-7.3721004379
 21
-0.7769429379
  0
LINE
  5
3D7
100
AcDbEntity
  8
DRAFT
100
AcDbLine
 62
7
  6
CONTINUOUS
 10
-9.6818735158
 20
0.636226573
 11
-9.7359842171
 21
0.6091732829
  0
LWPOLYLINE
  5
3D8
100
AcDbEntity
  8
RACCORDO
100
AcDbPolyline
 62
250
  6
CONTINUOUS
 90
25
 70
0
 10
7.2605919683
 20
-3.4443801077
 10
7.2412847545
 20
-3.4451572554
 10
7.2220576413
 20
-3.4468112511
 10
7.2029903962
 20
-3.4493352329
 10
7.1841621234
 20
-3.4527187293
 10
7.1656509357
 20
-3.4569477033
 10
7.1475336308
 20
-3.4620046098
 10
7.1298853717
 20
-3.4678684692
 10
7.1127793758
 20
-3.474514954
 10
7.0962866106
 20
-3.4819164897
 10
7.0804754997
 20
-3.4900423694
 10
7.0654116383
 20
-3.4988588812
 10
7.0511575218
 20
-3.508329448
 10
7.0377722861
 20
-3.5184147789
 10
7.0253114622
 20
-3.529073033
 10
7.0138267461
 20
-3.5402599923
 10
7.0033657843
 20
-3.5519292453
 10
6.9939719758
 20
-3.5640323798
 10
6.9856842923
 20
-3.5765191834
 10
6.9785371168
 20
-3.5893378523
 10
6.9725601004
 20
-3.6024352056
 10
6.9677780395
 20
-3.6157569064
 10
6.9642107733
 20
-3.629247687
 10
6.9618731008
 20
-3.6428515783
 10
6.9607747202
 20
-3.6565121421
  0
LWPOLYLINE
  5
3D9
100
AcDbEntity
  8
RACCORDO
100
AcDbPolyline
 62
250
  6
CONTINUOUS
 90
25
 70
0
 10
-7.0394080317
 20
-3.4443801077
 10
-7.0587152455
 20
-3.4451572554
 10
-7.0779423587
 20
-3.4468112511
 10
-7.0970096038
 20
-3.4493352329
 10
-7.1158378766
 20
-3.4527187293
 10
-7.1343490643
 20
-3.4569477033
 10
-7.1524663692
 20
-3.4620046098
 10
-7.1701146283
 20
-3.4678684692
 10
-7.1872206242
 20
-3.474514954
 10
-7.2037133894
 20
-3.4819164897
 10
-7.2195245003
 20
-3.4900423694
 10
-7.2345883617
 20
-3.4988588812
 10
-7.2488424782
 20
-3.508329448
 10
-7.2622277139
 20
-3.5184147789
 10
-7.2746885378
 20
-3.529073033
 10
-7.2861732539
 20
-3.5402599923
 10
-7.2966342157
 20
-3.5519292453
 10
-7.3060280242
 20
-3.5640323798
 10
-7.3143157077
 20
-3.5765191834
 10
-7.3214628832
 20
-3.5893378523
 10
-7.3274398996
 20
-3.6024352056
 10
-7.3322219605
 20
-3.6157569064
 10
-7.3357892267
 20
-3.629247687
 10
-7.3381268992
 20
-3.6428515783
 10
-7.3392252798
 20
-3.6565121421
  0
LWPOLYLINE
  5
3DA
100
AcDbEntity
  8
RACCORDO
100
AcDbPolyline
 62
250
  6
CONTINUOUS
 90
25
 70
0
 10
7.2358992554
 20
-2.7372733265
 10
7.2165920539
 20
-2.7380504733
 10
7.197364952
 20
-2.7397044671
 10
7.1782977172
 20
-2.742228446
 10
7.1594694536
 20
-2.7456119389
 10
7.140958274
 20
-2.7498409085
 10
7.1228409756
 20
-2.7548978103
 10
7.1051927216
 20
-2.7607616647
 10
7.0880867292
 20
-2.7674081443
 10
7.0715939659
 20
-2.7748096749
 10
7.0557828552
 20
-2.7829355498
 10
7.0407189926
 20
-2.7917520572
 10
7.0264648734
 20
-2.8012226202
 10
7.0130796337
 20
-2.8113079482
 10
7.0006188047
 20
-2.8219662004
 10
6.9891340827
 20
-2.8331531587
 10
6.9786731141
 20
-2.8448224121
 10
6.9692792985
 20
-2.8569255483
 10
6.9609916078
 20
-2.869412355
 10
6.9538444253
 20
-2.8822310283
 10
6.9478674023
 20
-2.8953283875
 10
6.9430853357
 20
-2.9086500956
 10
6.9395180649
 20
-2.9221408848
 10
6.9371803893
 20
-2.9357447861
 10
6.9360820073
 20
-2.9494053609
  0
LINE
  5
3DB
100
AcDbEntity
  8
RACCORDO
100
AcDbLine
 62
250
  6
CONTINUOUS
 10
-7.3371796684
 20
-3.7979334983
 11
-6.6347887658
 21
-3.7979334983
  0
LINE
  5
3DC
100
AcDbEntity
  8
RACCORDO
100
AcDbLine
 62
250
  6
CONTINUOUS
 10
6.9628203316
 20
-3.7979334983
 11
7.6652112342
 21
-3.7979334983
  0
LINE
  5
3DD
100
AcDbEntity
  8
RACCORDO
100
AcDbLine
 62
250
  6
CONTINUOUS
 10
7.3674395974
 20
-3.4443801077
 11
7.2605919683
 21
-3.4443801077
  0
LINE
  5
3DE
100
AcDbEntity
  8
RACCORDO
100
AcDbLine
 62
250
  6
CONTINUOUS
 10
-6.9325604026
 20
-3.4443801077
 11
-7.0394080317
 21
-3.4443801077
  0
LINE
  5
3DF
100
AcDbEntity
  8
RACCORDO
100
AcDbLine
 62
250
  6
CONTINUOUS
 10
-7.0641004877
 20
-2.737280681
 11
-6.9078679466
 21
-2.7372806844
  0
LINE
  5
3E0
100
AcDbEntity
  8
RACCORDO
100
AcDbLine
 62
250
  6
CONTINUOUS
 10
7.2358995123
 20
-2.737280681
 11
7.3921320534
 21
-2.7372806844
  0
LWPOLYLINE
  5
3E1
100
AcDbEntity
  8
RACCORDO
100
AcDbPolyline
 62
250
  6
CONTINUOUS
 90
25
 70
0
 10
-6.9325604026
 20
-3.4443801077
 10
-6.913253201
 20
-3.4451572545
 10
-6.8940260991
 20
-3.4468112483
 10
-6.8749588643
 20
-3.4493352272
 10
-6.8561306007
 20
-3.45271872
 10
-6.8376194211
 20
-3.4569476897
 10
-6.8195021228
 20
-3.4620045915
 10
-6.8018538687
 20
-3.4678684459
 10
-6.7847478763
 20
-3.4745149254
 10
-6.768255113
 20
-3.481916456
 10
-6.7524440023
 20
-3.490042331
 10
-6.7373801397
 20
-3.4988588384
 10
-6.7231260205
 20
-3.5083294014
 10
-6.7097407808
 20
-3.5184147294
 10
-6.6972799518
 20
-3.5290729816
 10
-6.6857952298
 20
-3.5402599399
 10
-6.6753342612
 20
-3.5519291933
 10
-6.6659404456
 20
-3.5640323294
 10
-6.657652755
 20
-3.5765191362
 10
-6.6505055724
 20
-3.5893378095
 10
-6.6445285494
 20
-3.6024351687
 10
-6.6397464828
 20
-3.6157568767
 10
-6.636179212
 20
-3.629247666
 10
-6.6338415364
 20
-3.6428515672
 10
-6.6327431545
 20
-3.6565121421
  0
LWPOLYLINE
  5
3E2
100
AcDbEntity
  8
RACCORDO
100
AcDbPolyline
 62
250
  6
CONTINUOUS
 90
25
 70
0
 10
7.3674395974
 20
-3.4443801077
 10
7.386746799
 20
-3.4451572545
 10
7.4059739009
 20
-3.4468112483
 10
7.4250411357
 20
-3.4493352272
 10
7.4438693993
 20
-3.45271872
 10
7.4623805789
 20
-3.4569476897
 10
7.4804978772
 20
-3.4620045915
 10
7.4981461313
 20
-3.4678684459
 10
7.5152521237
 20
-3.4745149254
 10
7.531744887
 20
-3.481916456
 10
7.5475559977
 20
-3.490042331
 10
7.5626198603
 20
-3.4988588384
 10
7.5768739795
 20
-3.5083294014
 10
7.5902592192
 20
-3.5184147294
 10
7.6027200482
 20
-3.5290729816
 10
7.6142047702
 20
-3.5402599399
 10
7.6246657388
 20
-3.5519291933
 10
7.6340595544
 20
-3.5640323294
 10
7.642347245
 20
-3.5765191362
 10
7.6494944276
 20
-3.5893378095
 10
7.6554714506
 20
-3.6024351687
 10
7.6602535172
 20
-3.6157568767
 10
7.663820788
 20
-3.629247666
 10
7.6661584636
 20
-3.6428515672
 10
7.6672568455
 20
-3.6565121421
  0
LWPOLYLINE
  5
3E3
100
AcDbEntity
  8
RACCORDO
100
AcDbPolyline
 62
250
  6
CONTINUOUS
 90
25
 70
0
 10
-6.9078676896
 20
-2.7372733265
 10
-6.8885605181
 20
-2.7380504714
 10
-6.8693334445
 20
-2.7397044607
 10
-6.8502662359
 20
-2.7422284329
 10
-6.8314379964
 20
-2.7456119167
 10
-6.8129268383
 20
-2.7498408756
 10
-6.7948095578
 20
-2.7548977652
 10
-6.7771613179
 20
-2.7607616063
 10
-6.760055336
 20
-2.7674080721
 10
-6.7435625788
 20
-2.774809589
 10
-6.7277514701
 20
-2.7829354506
 10
-6.7126876056
 20
-2.7917519457
 10
-6.6984334804
 20
-2.801222498
 10
-6.6850482311
 20
-2.8113078173
 10
-6.6725873894
 20
-2.8219660631
 10
-6.6611026519
 20
-2.8331530181
 10
-6.6506416658
 20
-2.8448222715
 10
-6.6412478313
 20
-2.8569254112
 10
-6.6329601211
 20
-2.8694122254
 10
-6.6258129193
 20
-2.8822309102
 10
-6.6198358782
 20
-2.895328285
 10
-6.6150537957
 20
-2.9086500129
 10
-6.6114865119
 20
-2.9221408259
 10
-6.6091488275
 20
-2.9357447549
 10
-6.6080504415
 20
-2.9494053609
  0
LINE
  5
3E4
100
AcDbEntity
  8
DRAFT
100
AcDbLine
 62
7
  6
CONTINUOUS
 10
-9.6818735158
 20
0.3821199927
 11
-9.7359842171
 21
0.4091732829
  0
LINE
  5
3E5
100
AcDbEntity
  8
RACCORDO
100
AcDbLine
 62
7
  6
CONTINUOUS
 10
-7.3721004379
 20
1.7952895037
 11
-7.4003421602
 21
1.823531226
  0
LWPOLYLINE
  5
3E6
100
AcDbEntity
  8
RACCORDO
100
AcDbPolyline
 62
250
  6
CONTINUOUS
 90
13
 70
0
 10
-7.3439200789
 20
6.3672918966
 10
-7.3435619616
 20
6.3666669644
 10
-7.3432071837
 20
6.3655278851
 10
-7.3428557452
 20
6.3638746587
 10
-7.3425067205
 20
6.3617002858
 10
-7.3421610353
 20
6.3590117658
 10
-7.3418214662
 20
6.3558300968
 10
-7.3414880797
 20
6.3521513728
 10
-7.3411608092
 20
6.3479794999
 10
-7.3408422324
 20
6.3433471949
 10
-7.3405324235
 20
6.3382508837
 10
-7.3402313083
 20
6.3326941404
 10
-7.3399412412
 20
6.3267204052
  0
LWPOLYLINE
  5
3E7
100
AcDbEntity
  8
RACCORDO
100
AcDbPolyline
 62
250
  6
CONTINUOUS
 90
5
 70
0
 10
-5.3346059334
 20
16.1334765315
 10
-5.3347067576
 20
16.1342728316
 10
-5.3348064848
 20
16.1360587996
 10
-5.334905115
 20
16.1388287529
 10
-5.3350029429
 20
16.1425738493
  0
LINE
  5
3E8
100
AcDbEntity
  8
DRAFT
100
AcDbLine
 62
7
  6
CONTINUOUS
 10
-3.2275592241
 20
22.6684859886
 11
-3.1522657403
 21
21.1778684136
  0
LINE
  5
3E9
100
AcDbEntity
  8
DRAFT
100
AcDbLine
 62
7
  6
CONTINUOUS
 10
-3.2275592241
 20
-21.6501394228
 11
-3.1522657403
 21
-20.1595218478
  0
LINE
  5
3EA
100
AcDbEntity
  8
RACCORDO
100
AcDbLine
 62
250
  6
CONTINUOUS
 10
-5.3942440412
 20
-16.8468701478
 11
-5.3435357855
 21
-16.5908267171
  0
LINE
  5
3EB
100
AcDbEntity
  8
RACCORDO
100
AcDbLine
 62
250
  6
CONTINUOUS
 10
-5.1443963344
 20
-17.093072086
 11
-5.0864738684
 21
-16.8006016249
  0
LWPOLYLINE
  5
3EC
100
AcDbEntity
  8
RACCORDO
100
AcDbPolyline
 62
250
  6
CONTINUOUS
 90
25
 70
0
 10
-7.0641007446
 20
-2.7372733265
 10
-7.0834079461
 20
-2.7380504733
 10
-7.102635048
 20
-2.7397044671
 10
-7.1217022828
 20
-2.742228446
 10
-7.1405305464
 20
-2.7456119389
 10
-7.159041726
 20
-2.7498409085
 10
-7.1771590244
 20
-2.7548978103
 10
-7.1948072784
 20
-2.7607616647
 10
-7.2119132708
 20
-2.7674081443
 10
-7.2284060341
 20
-2.7748096749
 10
-7.2442171448
 20
-2.7829355498
 10
-7.2592810074
 20
-2.7917520572
 10
-7.2735351266
 20
-2.8012226202
 10
-7.2869203663
 20
-2.8113079482
 10
-7.2993811953
 20
-2.8219662004
 10
-7.3108659173
 20
-2.8331531587
 10
-7.3213268859
 20
-2.8448224121
 10
-7.3307207015
 20
-2.8569255483
 10
-7.3390083922
 20
-2.869412355
 10
-7.3461555747
 20
-2.8822310283
 10
-7.3521325977
 20
-2.8953283875
 10
-7.3569146643
 20
-2.9086500956
 10
-7.3604819351
 20
-2.9221408848
 10
-7.3628196107
 20
-2.9357447861
 10
-7.3639179927
 20
-2.9494053609
  0
LWPOLYLINE
  5
3ED
100
AcDbEntity
  8
RACCORDO
100
AcDbPolyline
 62
7
  6
CONTINUOUS
 90
13
 70
0
 10
9.934368186
 20
-0.8031824389
 10
9.9433519281
 20
-0.8028529292
 10
9.9517424063
 20
-0.8025023155
 10
9.9594150273
 20
-0.8021365181
 10
9.966340999
 20
-0.8017565755
 10
9.9725491135
 20
-0.8013614492
 10
9.9780011541
 20
-0.8009539439
 10
9.9827064142
 20
-0.8005324597
 10
9.9866556003
 20
-0.8000985965
 10
9.9897826155
 20
-0.7996599588
 10
9.9920654275
 20
-0.7992190813
 10
9.9935260686
 20
-0.7987734292
 10
9.9941645387
 20
-0.7983230027
  0
LINE
  5
3EE
100
AcDbEntity
  8
RACCORDO
100
AcDbLine
 62
7
  6
CONTINUOUS
 10
9.914589205
 20
-0.803777022
 11
9.934368186
 21
-0.8031824389
  0
LINE
  5
3EF
100
AcDbEntity
  8
RACCORDO
100
AcDbLine
 62
7
  6
CONTINUOUS
 10
9.8929852459
 20
-0.8042734901
 11
9.914589205
 21
-0.803777022
  0
LWPOLYLINE
  5
3F0
100
AcDbEntity
  8
RACCORDO
100
AcDbPolyline
 62
7
  6
CONTINUOUS
 90
3
 70
0
 10
9.8576509294
 20
-0.804823281
 10
9.8698057286
 20
-0.8046663718
 10
9.8929852459
 20
-0.8042734901
  0
LINE
  5
3F1
100
AcDbEntity
  8
RACCORDO
100
AcDbLine
 62
250
  6
CONTINUOUS
 10
6.9278995621
 20
-2.3837199359
 11
7.7001320037
 21
-2.3837199359
  0
LINE
  5
3F2
100
AcDbEntity
  8
RACCORDO
100
AcDbLine
 62
250
  6
CONTINUOUS
 10
-7.3721004379
 20
-2.3837199359
 11
-6.5998679963
 21
-2.3837199359
  0
LINE
  5
3F3
100
AcDbEntity
  8
RACCORDO
100
AcDbLine
 62
7
  6
CONTINUOUS
 10
-9.5535358435
 20
-0.8044832185
 11
-9.5296193636
 21
-0.804823281
  0
LINE
  5
3F4
100
AcDbEntity
  8
RACCORDO
100
AcDbLine
 62
7
  6
CONTINUOUS
 10
-9.5759504031
 20
-0.8040384241
 11
-9.5535358435
 21
-0.8044832185
  0
LWPOLYLINE
  5
3F5
100
AcDbEntity
  8
RACCORDO
100
AcDbPolyline
 62
250
  6
CONTINUOUS
 90
25
 70
0
 10
7.3921323104
 20
-2.7372733265
 10
7.4114394819
 20
-2.7380504714
 10
7.4306665555
 20
-2.7397044607
 10
7.4497337641
 20
-2.7422284329
 10
7.4685620036
 20
-2.7456119167
 10
7.4870731617
 20
-2.7498408756
 10
7.5051904422
 20
-2.7548977652
 10
7.5228386821
 20
-2.7607616063
 10
7.539944664
 20
-2.7674080721
 10
7.5564374212
 20
-2.774809589
 10
7.5722485299
 20
-2.7829354506
 10
7.5873123944
 20
-2.7917519457
 10
7.6015665196
 20
-2.801222498
 10
7.6149517689
 20
-2.8113078173
 10
7.6274126106
 20
-2.8219660631
 10
7.6388973481
 20
-2.8331530181
 10
7.6493583342
 20
-2.8448222715
 10
7.6587521687
 20
-2.8569254112
 10
7.6670398789
 20
-2.8694122254
 10
7.6741870807
 20
-2.8822309102
 10
7.6801641218
 20
-2.895328285
 10
7.6849462043
 20
-2.9086500129
 10
7.6885134881
 20
-2.9221408259
 10
7.6908511725
 20
-2.9357447549
 10
7.6919495585
 20
-2.9494053609
  0
LINE
  5
3F6
100
AcDbEntity
  8
RACCORDO
100
AcDbLine
 62
250
  6
CONTINUOUS
 10
-5.3435357855
 20
17.6091732829
 11
-5.3942440412
 21
17.8652167135
  0
LINE
  5
3F7
100
AcDbEntity
  8
RACCORDO
100
AcDbLine
 62
250
  6
CONTINUOUS
 10
-5.0864738684
 20
17.8189481907
 11
-5.1443963344
 21
18.1114186518
  0
LWPOLYLINE
  5
3F8
100
AcDbEntity
  8
RACCORDO
100
AcDbPolyline
 62
250
  6
CONTINUOUS
 90
10
 70
0
 10
-5.1443963344
 20
18.1114186518
 10
-5.1444962103
 20
18.1120106561
 10
-5.1445941102
 20
18.1127615776
 10
-5.1446900343
 20
18.1136714165
 10
-5.1447843053
 20
18.1147443669
 10
-5.1448766004
 20
18.1159762347
 10
-5.1449659514
 20
18.1173544367
 10
-5.1450523171
 20
18.118880382
 10
-5.1451357387
 20
18.1205526615
 10
-5.1452153719
 20
18.1223544654
  0
LINE
  5
3F9
100
AcDbEntity
  8
RACCORDO
100
AcDbLine
 62
7
  6
CONTINUOUS
 10
5.3699027057
 20
20.8148736466
 11
5.4438834089
 21
21.0749964415
  0
LINE
  5
3FA
100
AcDbEntity
  8
RACCORDO
100
AcDbLine
 62
250
  6
CONTINUOUS
 10
-7.3439200789
 20
-5.3489453308
 11
-7.3991778411
 21
-5.404203093
  0
LINE
  5
3FB
100
AcDbEntity
  8
RACCORDO
100
AcDbLine
 62
250
  6
CONTINUOUS
 10
-7.0441033583
 20
-5.6487631064
 11
-7.0992332936
 21
-5.7038930417
  0
LINE
  5
3FC
100
AcDbEntity
  8
DRAFT
100
AcDbLine
 62
7
  6
CONTINUOUS
 10
-2.1323259471
 20
0.6388446334
 11
-2.1377167976
 21
0.636226573
  0
LINE
  5
3FD
100
AcDbEntity
  8
DRAFT
100
AcDbLine
 62
7
  6
CONTINUOUS
 10
2.0335729793
 20
0.3664116307
 11
2.0870299416
 21
0.3795019324
  0
LWPOLYLINE
  5
3FE
100
AcDbEntity
  8
0
100
AcDbPolyline
 62
7
  6
CONTINUOUS
 90
25
 70
0
 10
1.7794287231
 20
0.3664116307
 10
1.763171599
 20
0.3659746303
 10
1.7470197949
 20
0.3646616024
 10
1.7309733106
 20
0.3624725468
 10
1.7149635003
 20
0.3593909799
 10
1.6990590099
 20
0.3554333854
 10
1.6834657775
 20
0.3506492148
 10
1.6682293624
 20
0.3450457238
 10
1.6533042053
 20
0.3386156567
 10
1.6387595668
 20
0.3313866976
 10
1.6245653748
 20
0.3233377656
 10
1.6107517014
 20
0.3144899415
 10
1.5974780232
 20
0.3049341526
 10
1.5847541921
 20
0.2946574451
 10
1.5725703563
 20
0.2836727727
 10
1.561056437
 20
0.2721099243
 10
1.5502404064
 20
0.259991634
 10
1.5400942924
 20
0.2472951677
 10
1.5306640995
 20
0.234082111
 10
1.5219318004
 20
0.2203122304
 10
1.5139154224
 20
0.2060257594
 10
1.5067150522
 20
0.1914049846
 10
1.5003640523
 20
0.1765106681
 10
1.4948290602
 20
0.1612820478
 10
1.490110076
 20
0.1457191236
  0
LWPOLYLINE
  5
3FF
100
AcDbEntity
  8
0
100
AcDbPolyline
 62
7
  6
CONTINUOUS
 90
25
 70
0
 10
-1.4513971573
 20
0.6519349351
 10
-1.4351400332
 20
0.6523719355
 10
-1.4189882291
 20
0.6536849634
 10
-1.4029417448
 20
0.655874019
 10
-1.3869319345
 20
0.6589555859
 10
-1.3710274441
 20
0.6629131804
 10
-1.3554342117
 20
0.667697351
 10
-1.3401977966
 20
0.673300842
 10
-1.3252726395
 20
0.6797309091
 10
-1.310728001
 20
0.6869598682
 10
-1.296533809
 20
0.6950088002
 10
-1.2827201356
 20
0.7038566243
 10
-1.2694464574
 20
0.7134124132
 10
-1.2567226263
 20
0.7236891207
 10
-1.2445387905
 20
0.7346737931
 10
-1.2330248712
 20
0.7462366415
 10
-1.2222088406
 20
0.7583549318
 10
-1.2120627266
 20
0.7710513981
 10
-1.2026325337
 20
0.7842644548
 10
-1.1939002346
 20
0.7980343354
 10
-1.1858838566
 20
0.8123208064
 10
-1.1786834864
 20
0.8269415812
 10
-1.1723324865
 20
0.8418358977
 10
-1.1667974944
 20
0.857064518
 10
-1.1620785102
 20
0.8726274422
  0
LINE
  5
400
100
AcDbEntity
  8
RACCORDO
100
AcDbLine
 62
7
  6
CONTINUOUS
 10
9.8325348912
 20
-0.8050551432
 11
9.8576509294
 21
-0.804823281
  0
LINE
  5
401
100
AcDbEntity
  8
RACCORDO
100
AcDbLine
 62
7
  6
CONTINUOUS
 10
9.8070939091
 20
-0.8051702939
 11
9.8325348912
 21
-0.8050551432
  0
LINE
  5
402
100
AcDbEntity
  8
RACCORDO
100
AcDbLine
 62
7
  6
CONTINUOUS
 10
9.8070939091
 20
-0.8051702939
 11
7.728373726
 21
-0.8051846602
  0
LINE
  5
403
100
AcDbEntity
  8
DRAFT
100
AcDbLine
 62
7
  6
CONTINUOUS
 10
6.8996578398
 20
-0.8051846602
 11
2.8050313447
 21
-0.8051846602
  0
LINE
  5
404
100
AcDbEntity
  8
DRAFT
100
AcDbLine
 62
7
  6
CONTINUOUS
 10
-2.4769997789
 20
-0.8051846602
 11
-6.571626274
 21
-0.8051846602
  0
LINE
  5
405
100
AcDbEntity
  8
RACCORDO
100
AcDbLine
 62
7
  6
CONTINUOUS
 10
-9.6818735158
 20
-0.7668323223
 11
-7.0722831898
 21
-0.7668323223
  0
LINE
  5
406
100
AcDbEntity
  8
RACCORDO
100
AcDbLine
 62
7
  6
CONTINUOUS
 10
-6.8996852444
 20
-0.7668323223
 11
-2.4957416676
 21
-0.7668323223
  0
LINE
  5
407
100
AcDbEntity
  8
RACCORDO
100
AcDbLine
 62
7
  6
CONTINUOUS
 10
2.8237732334
 20
-0.7668323223
 11
7.2277168102
 21
-0.7668323223
  0
LINE
  5
408
100
AcDbEntity
  8
RACCORDO
100
AcDbLine
 62
7
  6
CONTINUOUS
 10
7.4003147556
 20
-0.7668323223
 11
10.0099050816
 21
-0.7668323223
  0
LINE
  5
409
100
AcDbEntity
  8
0
100
AcDbLine
 62
7
  6
CONTINUOUS
 10
-1.7055414135
 20
0.3664116307
 11
-1.4513971573
 21
0.3664116307
  0
LINE
  5
40A
100
AcDbEntity
  8
0
100
AcDbLine
 62
7
  6
CONTINUOUS
 10
1.7794287231
 20
0.3664116307
 11
2.0335729793
 21
0.3664116307
  0
LINE
  5
40B
100
AcDbEntity
  8
DRAFT
100
AcDbLine
 62
7
  6
CONTINUOUS
 10
-2.1323259471
 20
0.3795019324
 11
-1.7589983758
 21
0.3795019324
  0
LINE
  5
40C
100
AcDbEntity
  8
DRAFT
100
AcDbLine
 62
7
  6
CONTINUOUS
 10
2.0870299416
 20
0.3795019324
 11
2.4603575129
 21
0.3795019324
  0
LINE
  5
40D
100
AcDbEntity
  8
DRAFT
100
AcDbLine
 62
7
  6
CONTINUOUS
 10
10.0099050816
 20
0.3821199927
 11
2.4657483634
 21
0.3821199927
  0
LINE
  5
40E
100
AcDbEntity
  8
DRAFT
100
AcDbLine
 62
7
  6
CONTINUOUS
 10
-2.1377167976
 20
0.3821199927
 11
-9.6818735158
 21
0.3821199927
  0
LINE
  5
40F
100
AcDbEntity
  8
RACCORDO
100
AcDbLine
 62
7
  6
CONTINUOUS
 10
11.1140157817
 20
0.4091732829
 11
10.0640157829
 21
0.4091732829
  0
LINE
  5
410
100
AcDbEntity
  8
RACCORDO
100
AcDbLine
 62
7
  6
CONTINUOUS
 10
-9.7359842171
 20
0.4091732829
 11
-10.7859842159
 21
0.4091732829
  0
LINE
  5
411
100
AcDbEntity
  8
RACCORDO
100
AcDbLine
 62
7
  6
CONTINUOUS
 10
-10.7859842159
 20
0.6091732829
 11
-9.7359842171
 21
0.6091732829
  0
LINE
  5
412
100
AcDbEntity
  8
RACCORDO
100
AcDbLine
 62
7
  6
CONTINUOUS
 10
10.0640157829
 20
0.6091732829
 11
11.1140157817
 21
0.6091732829
  0
LINE
  5
413
100
AcDbEntity
  8
DRAFT
100
AcDbLine
 62
7
  6
CONTINUOUS
 10
-9.6818735158
 20
0.636226573
 11
-2.1377167976
 21
0.636226573
  0
LINE
  5
414
100
AcDbEntity
  8
DRAFT
100
AcDbLine
 62
7
  6
CONTINUOUS
 10
2.4657483634
 20
0.636226573
 11
10.0099050816
 21
0.636226573
  0
LINE
  5
415
100
AcDbEntity
  8
DRAFT
100
AcDbLine
 62
7
  6
CONTINUOUS
 10
2.4603575129
 20
0.6388446334
 11
2.0870299416
 21
0.6388446334
  0
LINE
  5
416
100
AcDbEntity
  8
DRAFT
100
AcDbLine
 62
7
  6
CONTINUOUS
 10
-1.7589983758
 20
0.6388446334
 11
-2.1323259471
 21
0.6388446334
  0
LINE
  5
417
100
AcDbEntity
  8
0
100
AcDbLine
 62
7
  6
CONTINUOUS
 10
2.0335729793
 20
0.6519349351
 11
1.7794287231
 21
0.6519349351
  0
LINE
  5
418
100
AcDbEntity
  8
0
100
AcDbLine
 62
7
  6
CONTINUOUS
 10
-1.4513971573
 20
0.6519349351
 11
-1.7055414135
 21
0.6519349351
  0
LINE
  5
419
100
AcDbEntity
  8
RACCORDO
100
AcDbLine
 62
7
  6
CONTINUOUS
 10
-9.49184221
 20
-0.8051271216
 11
-7.4003421602
 21
-0.8051846602
  0
LWPOLYLINE
  5
41A
100
AcDbEntity
  8
RACCORDO
100
AcDbPolyline
 62
7
  6
CONTINUOUS
 90
3
 70
0
 10
-9.5296193636
 20
-0.804823281
 10
-9.5171207202
 20
-0.8049536151
 10
-9.49184221
 20
-0.8051271216
  0
LINE
  5
41B
100
AcDbEntity
  8
DRAFT
100
AcDbLine
 62
7
  6
CONTINUOUS
 10
-1.7589983758
 20
0.3795019324
 11
-1.7055414135
 21
0.3664116307
  0
LINE
  5
41C
100
AcDbEntity
  8
DRAFT
100
AcDbLine
 62
7
  6
CONTINUOUS
 10
-2.1377167976
 20
0.3821199927
 11
-2.1323259471
 21
0.3795019324
  0
LINE
  5
41D
100
AcDbEntity
  8
RACCORDO
100
AcDbLine
 62
250
  6
CONTINUOUS
 10
-7.3991778411
 20
6.4225496588
 11
-7.3439200789
 21
6.3672918966
  0
LINE
  5
41E
100
AcDbEntity
  8
RACCORDO
100
AcDbLine
 62
250
  6
CONTINUOUS
 10
-7.0992332936
 20
6.7222396075
 11
-7.0441033583
 21
6.6671096722
  0
LWPOLYLINE
  5
41F
100
AcDbEntity
  8
0
100
AcDbPolyline
 62
7
  6
CONTINUOUS
 90
25
 70
0
 10
-1.1620785102
 20
0.1457191236
 10
-1.1667974944
 20
0.1612820478
 10
-1.1723324865
 20
0.1765106681
 10
-1.1786834864
 20
0.1914049846
 10
-1.1858838566
 20
0.2060257594
 10
-1.1939002346
 20
0.2203122304
 10
-1.2026325337
 20
0.234082111
 10
-1.2120627266
 20
0.2472951677
 10
-1.2222088406
 20
0.259991634
 10
-1.2330248712
 20
0.2721099243
 10
-1.2445387905
 20
0.2836727727
 10
-1.2567226263
 20
0.2946574451
 10
-1.2694464574
 20
0.3049341526
 10
-1.2827201356
 20
0.3144899415
 10
-1.296533809
 20
0.3233377656
 10
-1.310728001
 20
0.3313866976
 10
-1.3252726395
 20
0.3386156567
 10
-1.3401977966
 20
0.3450457238
 10
-1.3554342117
 20
0.3506492148
 10
-1.3710274441
 20
0.3554333854
 10
-1.3869319345
 20
0.3593909799
 10
-1.4029417448
 20
0.3624725468
 10
-1.4189882291
 20
0.3646616024
 10
-1.4351400332
 20
0.3659746303
 10
-1.4513971573
 20
0.3664116307
  0
LINE
  5
420
100
AcDbEntity
  8
RACCORDO
100
AcDbLine
 62
7
  6
CONTINUOUS
 10
5.4438834089
 20
-20.0566498758
 11
5.3699027057
 21
-19.7965270808
  0
LINE
  5
421
100
AcDbEntity
  8
RACCORDO
100
AcDbLine
 62
250
  6
CONTINUOUS
 10
5.4724279002
 20
18.1114186518
 11
5.4145054342
 21
17.8189481907
  0
LINE
  5
422
100
AcDbEntity
  8
RACCORDO
100
AcDbLine
 62
7
  6
CONTINUOUS
 10
-5.0418711399
 20
-19.7965270808
 11
-5.1158518431
 21
-20.0566498758
  0
LINE
  5
423
100
AcDbEntity
  8
RACCORDO
100
AcDbLine
 62
250
  6
CONTINUOUS
 10
7.3721349241
 20
6.6671096722
 11
7.4272648594
 21
6.7222396075
  0
LINE
  5
424
100
AcDbEntity
  8
RACCORDO
100
AcDbLine
 62
250
  6
CONTINUOUS
 10
7.6719516447
 20
6.3672918966
 11
7.7272094069
 21
6.4225496588
  0
LINE
  5
425
100
AcDbEntity
  8
DRAFT
100
AcDbLine
 62
7
  6
CONTINUOUS
 10
2.4603575129
 20
0.3795019324
 11
2.4657483634
 21
0.3821199927
  0
LINE
  5
426
100
AcDbEntity
  8
DRAFT
100
AcDbLine
 62
7
  6
CONTINUOUS
 10
-1.7055414135
 20
0.6519349351
 11
-1.7589983758
 21
0.6388446334
  0
LWPOLYLINE
  5
427
100
AcDbEntity
  8
RACCORDO
100
AcDbPolyline
 62
7
  6
CONTINUOUS
 90
13
 70
0
 10
-9.6063366202
 20
1.8215290047
 10
-9.6153203623
 20
1.821199495
 10
-9.6237108405
 20
1.8208488813
 10
-9.6313834615
 20
1.8204830839
 10
-9.6383094332
 20
1.8201031413
 10
-9.6445175477
 20
1.819708015
 10
-9.6499695883
 20
1.8193005097
 10
-9.6546748484
 20
1.8188790255
 10
-9.6586240345
 20
1.8184451623
 10
-9.6617510497
 20
1.8180065245
 10
-9.6640338617
 20
1.8175656471
 10
-9.6654945028
 20
1.817119995
 10
-9.6661329729
 20
1.8166695684
  0
LINE
  5
428
100
AcDbEntity
  8
RACCORDO
100
AcDbLine
 62
7
  6
CONTINUOUS
 10
-9.5865576392
 20
1.8221235878
 11
-9.6063366202
 21
1.8215290047
  0
LINE
  5
429
100
AcDbEntity
  8
RACCORDO
100
AcDbLine
 62
7
  6
CONTINUOUS
 10
-9.5649536801
 20
1.8226200558
 11
-9.5865576392
 21
1.8221235878
  0
LINE
  5
42A
100
AcDbEntity
  8
RACCORDO
100
AcDbLine
 62
7
  6
CONTINUOUS
 10
-9.5417741628
 20
1.8230129376
 11
-9.5649536801
 21
1.8226200558
  0
LINE
  5
42B
100
AcDbEntity
  8
RACCORDO
100
AcDbLine
 62
7
  6
CONTINUOUS
 10
-9.5171207202
 20
1.8233001809
 11
-9.5417741628
 21
1.8230129376
  0
LINE
  5
42C
100
AcDbEntity
  8
RACCORDO
100
AcDbLine
 62
7
  6
CONTINUOUS
 10
-9.4918422101
 20
1.8234736874
 11
-9.5171207202
 21
1.8233001809
  0
LINE
  5
42D
100
AcDbEntity
  8
RACCORDO
100
AcDbLine
 62
7
  6
CONTINUOUS
 10
10.0099050816
 20
1.7851788881
 11
7.4003147556
 21
1.7851788881
  0
LINE
  5
42E
100
AcDbEntity
  8
RACCORDO
100
AcDbLine
 62
7
  6
CONTINUOUS
 10
7.2277168102
 20
1.7851788881
 11
2.8237732334
 21
1.7851788881
  0
LINE
  5
42F
100
AcDbEntity
  8
RACCORDO
100
AcDbLine
 62
7
  6
CONTINUOUS
 10
-2.4957416676
 20
1.7851788881
 11
-6.8996852444
 21
1.7851788881
  0
LINE
  5
430
100
AcDbEntity
  8
RACCORDO
100
AcDbLine
 62
7
  6
CONTINUOUS
 10
-7.0722831898
 20
1.7851788881
 11
-9.6818735158
 21
1.7851788881
  0
LINE
  5
431
100
AcDbEntity
  8
RACCORDO
100
AcDbLine
 62
7
  6
CONTINUOUS
 10
-9.4918422101
 20
1.8234736874
 11
-7.4003421602
 21
1.823531226
  0
LINE
  5
432
100
AcDbEntity
  8
DRAFT
100
AcDbLine
 62
7
  6
CONTINUOUS
 10
-6.571626274
 20
1.823531226
 11
-2.4769997789
 21
1.823531226
  0
LINE
  5
433
100
AcDbEntity
  8
DRAFT
100
AcDbLine
 62
7
  6
CONTINUOUS
 10
2.8050313447
 20
1.823531226
 11
6.8996578398
 21
1.823531226
  0
LINE
  5
434
100
AcDbEntity
  8
RACCORDO
100
AcDbLine
 62
7
  6
CONTINUOUS
 10
9.8198737758
 20
1.8234736874
 11
7.728373726
 21
1.823531226
  0
LINE
  5
435
100
AcDbEntity
  8
RACCORDO
100
AcDbLine
 62
7
  6
CONTINUOUS
 10
9.845152286
 20
1.8233001809
 11
9.8198737758
 21
1.8234736874
  0
LINE
  5
436
100
AcDbEntity
  8
RACCORDO
100
AcDbLine
 62
7
  6
CONTINUOUS
 10
9.8698057286
 20
1.8230129376
 11
9.845152286
 21
1.8233001809
  0
LINE
  5
437
100
AcDbEntity
  8
RACCORDO
100
AcDbLine
 62
7
  6
CONTINUOUS
 10
9.8929852459
 20
1.8226200558
 11
9.8698057286
 21
1.8230129376
  0
LINE
  5
438
100
AcDbEntity
  8
RACCORDO
100
AcDbLine
 62
7
  6
CONTINUOUS
 10
9.914589205
 20
1.8221235878
 11
9.8929852459
 21
1.8226200558
  0
LINE
  5
439
100
AcDbEntity
  8
DRAFT
100
AcDbLine
 62
7
  6
CONTINUOUS
 10
2.0870299416
 20
0.6388446334
 11
2.0335729793
 21
0.6519349351
  0
LINE
  5
43A
100
AcDbEntity
  8
DRAFT
100
AcDbLine
 62
7
  6
CONTINUOUS
 10
2.4657483634
 20
0.636226573
 11
2.4603575129
 21
0.6388446334
  0
LINE
  5
43B
100
AcDbEntity
  8
RACCORDO
100
AcDbLine
 62
250
  6
CONTINUOUS
 10
7.4272648594
 20
-5.7038930417
 11
7.3721349241
 21
-5.6487631064
  0
LINE
  5
43C
100
AcDbEntity
  8
RACCORDO
100
AcDbLine
 62
250
  6
CONTINUOUS
 10
7.7272094069
 20
-5.404203093
 11
7.6719516447
 21
-5.3489453308
  0
LWPOLYLINE
  5
43D
100
AcDbEntity
  8
0
100
AcDbPolyline
 62
7
  6
CONTINUOUS
 90
25
 70
0
 10
1.490110076
 20
0.8726274422
 10
1.4948290602
 20
0.857064518
 10
1.5003640523
 20
0.8418358977
 10
1.5067150522
 20
0.8269415812
 10
1.5139154224
 20
0.8123208064
 10
1.5219318004
 20
0.7980343354
 10
1.5306640995
 20
0.7842644548
 10
1.5400942924
 20
0.7710513981
 10
1.5502404064
 20
0.7583549318
 10
1.561056437
 20
0.7462366415
 10
1.5725703563
 20
0.7346737931
 10
1.5847541921
 20
0.7236891207
 10
1.5974780232
 20
0.7134124132
 10
1.6107517014
 20
0.7038566243
 10
1.6245653748
 20
0.6950088002
 10
1.6387595668
 20
0.6869598682
 10
1.6533042053
 20
0.6797309091
 10
1.6682293624
 20
0.673300842
 10
1.6834657775
 20
0.667697351
 10
1.6990590099
 20
0.6629131804
 10
1.7149635003
 20
0.6589555859
 10
1.7309733106
 20
0.655874019
 10
1.7470197949
 20
0.6536849634
 10
1.763171599
 20
0.6523719355
 10
1.7794287231
 20
0.6519349351
  0
LINE
  5
43E
100
AcDbEntity
  8
RACCORDO
100
AcDbLine
 62
7
  6
CONTINUOUS
 10
-5.1158518431
 20
21.0749964415
 11
-5.0418711399
 21
20.8148736466
  0
LINE
  5
43F
100
AcDbEntity
  8
RACCORDO
100
AcDbLine
 62
250
  6
CONTINUOUS
 10
5.4145054342
 20
-16.8006016249
 11
5.4724279002
 21
-17.093072086
  0
LINE
  5
440
100
AcDbEntity
  8
DRAFT
100
AcDbLine
 62
7
  6
CONTINUOUS
 10
3.5555907899
 20
-21.6501394228
 11
3.4802973061
 21
-20.1595218478
  0
LINE
  5
441
100
AcDbEntity
  8
DRAFT
100
AcDbLine
 62
7
  6
CONTINUOUS
 10
3.5555907899
 20
22.6684859886
 11
3.4802973061
 21
21.1778684136
  0
LINE
  5
442
100
AcDbEntity
  8
RACCORDO
100
AcDbLine
 62
250
  6
CONTINUOUS
 10
5.722275607
 20
17.8652167135
 11
5.6715673513
 21
17.6091732829
  0
LWPOLYLINE
  5
443
100
AcDbEntity
  8
RACCORDO
100
AcDbPolyline
 62
250
  6
CONTINUOUS
 90
25
 70
0
 10
7.3921323104
 20
3.7556198923
 10
7.4114395119
 20
3.7563970391
 10
7.4306666138
 20
3.7580510329
 10
7.4497338486
 20
3.7605750118
 10
7.4685621122
 20
3.7639585047
 10
7.4870732918
 20
3.7681874743
 10
7.5051905902
 20
3.7732443761
 10
7.5228388442
 20
3.7791082305
 10
7.5399448366
 20
3.7857547101
 10
7.5564375999
 20
3.7931562407
 10
7.5722487106
 20
3.8012821156
 10
7.5873125732
 20
3.810098623
 10
7.6015666924
 20
3.819569186
 10
7.6149519321
 20
3.829654514
 10
7.6274127611
 20
3.8403127662
 10
7.6388974831
 20
3.8514997245
 10
7.6493584517
 20
3.8631689779
 10
7.6587522673
 20
3.875272114
 10
7.667039958
 20
3.8877589208
 10
7.6741871405
 20
3.9005775941
 10
7.6801641635
 20
3.9136749533
 10
7.6849462301
 20
3.9269966613
 10
7.6885135009
 20
3.9404874506
 10
7.6908511765
 20
3.9540913518
 10
7.6919495585
 20
3.9677519267
  0
LWPOLYLINE
  5
444
100
AcDbEntity
  8
RACCORDO
100
AcDbPolyline
 62
250
  6
CONTINUOUS
 90
25
 70
0
 10
-6.9078676896
 20
3.7556198923
 10
-6.8885604881
 20
3.7563970391
 10
-6.8693333862
 20
3.7580510329
 10
-6.8502661514
 20
3.7605750118
 10
-6.8314378878
 20
3.7639585047
 10
-6.8129267082
 20
3.7681874743
 10
-6.7948094098
 20
3.7732443761
 10
-6.7771611558
 20
3.7791082305
 10
-6.7600551634
 20
3.7857547101
 10
-6.7435624001
 20
3.7931562407
 10
-6.7277512894
 20
3.8012821156
 10
-6.7126874268
 20
3.810098623
 10
-6.6984333076
 20
3.819569186
 10
-6.6850480679
 20
3.829654514
 10
-6.6725872389
 20
3.8403127662
 10
-6.6611025169
 20
3.8514997245
 10
-6.6506415483
 20
3.8631689779
 10
-6.6412477327
 20
3.875272114
 10
-6.632960042
 20
3.8877589208
 10
-6.6258128595
 20
3.9005775941
 10
-6.6198358365
 20
3.9136749533
 10
-6.6150537699
 20
3.9269966613
 10
-6.6114864991
 20
3.9404874506
 10
-6.6091488235
 20
3.9540913518
 10
-6.6080504415
 20
3.9677519267
  0
LINE
  5
445
100
AcDbEntity
  8
RACCORDO
100
AcDbLine
 62
250
  6
CONTINUOUS
 10
-7.3721004379
 20
3.4020665017
 11
-6.5998679963
 21
3.4020665017
  0
LINE
  5
446
100
AcDbEntity
  8
RACCORDO
100
AcDbLine
 62
250
  6
CONTINUOUS
 10
6.9278995621
 20
3.4020665017
 11
7.7001320037
 21
3.4020665017
  0
LINE
  5
447
100
AcDbEntity
  8
RACCORDO
100
AcDbLine
 62
250
  6
CONTINUOUS
 10
-6.9078679465
 20
3.7556272467
 11
-7.0641004876
 21
3.7556272502
  0
LINE
  5
448
100
AcDbEntity
  8
RACCORDO
100
AcDbLine
 62
250
  6
CONTINUOUS
 10
7.3921320535
 20
3.7556272467
 11
7.2358995124
 21
3.7556272502
  0
LWPOLYLINE
  5
449
100
AcDbEntity
  8
RACCORDO
100
AcDbPolyline
 62
250
  6
CONTINUOUS
 90
25
 70
0
 10
-7.0641007446
 20
3.7556198923
 10
-7.0834079161
 20
3.7563970372
 10
-7.1026349897
 20
3.7580510265
 10
-7.1217021983
 20
3.7605749987
 10
-7.1405304378
 20
3.7639584825
 10
-7.1590415959
 20
3.7681874414
 10
-7.1771588764
 20
3.7732443309
 10
-7.1948071163
 20
3.7791081721
 10
-7.2119130982
 20
3.7857546379
 10
-7.2284058554
 20
3.7931561548
 10
-7.2442169641
 20
3.8012820164
 10
-7.2592808286
 20
3.8100985115
 10
-7.2735349538
 20
3.8195690637
 10
-7.2869202031
 20
3.8296543831
 10
-7.2993810448
 20
3.8403126289
 10
-7.3108657823
 20
3.8514995839
 10
-7.3213267684
 20
3.8631688373
 10
-7.3307206029
 20
3.875271977
 10
-7.3390083131
 20
3.8877587912
 10
-7.3461555149
 20
3.900577476
 10
-7.352132556
 20
3.9136748508
 10
-7.3569146386
 20
3.9269965786
 10
-7.3604819223
 20
3.9404873917
 10
-7.3628196068
 20
3.9540913206
 10
-7.3639179927
 20
3.9677519267
  0
LWPOLYLINE
  5
44A
100
AcDbEntity
  8
RACCORDO
100
AcDbPolyline
 62
250
  6
CONTINUOUS
 90
25
 70
0
 10
7.2358992554
 20
3.7556198923
 10
7.2165920839
 20
3.7563970372
 10
7.1973650103
 20
3.7580510265
 10
7.1782978017
 20
3.7605749987
 10
7.1594695622
 20
3.7639584825
 10
7.1409584041
 20
3.7681874414
 10
7.1228411236
 20
3.7732443309
 10
7.1051928837
 20
3.7791081721
 10
7.0880869018
 20
3.7857546379
 10
7.0715941446
 20
3.7931561548
 10
7.0557830359
 20
3.8012820164
 10
7.0407191714
 20
3.8100985115
 10
7.0264650462
 20
3.8195690637
 10
7.0130797969
 20
3.8296543831
 10
7.0006189552
 20
3.8403126289
 10
6.9891342177
 20
3.8514995839
 10
6.9786732316
 20
3.8631688373
 10
6.9692793971
 20
3.875271977
 10
6.9609916869
 20
3.8877587912
 10
6.9538444851
 20
3.900577476
 10
6.947867444
 20
3.9136748508
 10
6.9430853614
 20
3.9269965786
 10
6.9395180777
 20
3.9404873917
 10
6.9371803932
 20
3.9540913206
 10
6.9360820073
 20
3.9677519267
  0
LINE
  5
44B
100
AcDbEntity
  8
RACCORDO
100
AcDbLine
 62
250
  6
CONTINUOUS
 10
5.6715673513
 20
-16.5908267171
 11
5.722275607
 21
-16.8468701478
  0
LWPOLYLINE
  5
44C
100
AcDbEntity
  8
RACCORDO
100
AcDbPolyline
 62
250
  6
CONTINUOUS
 90
10
 70
0
 10
5.4724279002
 20
-17.093072086
 10
5.4725277761
 20
-17.0936640903
 10
5.472625676
 20
-17.0944150118
 10
5.4727216001
 20
-17.0953248507
 10
5.4728158711
 20
-17.0963978011
 10
5.4729081662
 20
-17.0976296689
 10
5.4729975172
 20
-17.0990078709
 10
5.4730838829
 20
-17.1005338162
 10
5.4731673045
 20
-17.1022060958
 10
5.4732469377
 20
-17.1040078996
  0
LWPOLYLINE
  5
44D
100
AcDbEntity
  8
RACCORDO
100
AcDbPolyline
 62
250
  6
CONTINUOUS
 90
6
 70
0
 10
5.6626374992
 20
-15.1151299657
 10
5.6627383234
 20
-15.1159262658
 10
5.6628380506
 20
-15.1177122338
 10
5.6629366808
 20
-15.1204821872
 10
5.6630345087
 20
-15.1242272835
 10
5.6631312397
 20
-15.1289352976
  0
LWPOLYLINE
  5
44E
100
AcDbEntity
  8
RACCORDO
100
AcDbPolyline
 62
7
  6
CONTINUOUS
 90
31
 70
0
 10
6.1135261316
 20
-16.8006016249
 10
6.1128998498
 20
-16.791383841
 10
6.1117818921
 20
-16.7821015773
 10
6.1101618606
 20
-16.7727770271
 10
6.108029697
 20
-16.7634374153
 10
6.1053777223
 20
-16.7541027938
 10
6.1022005225
 20
-16.7447860445
 10
6.0984927314
 20
-16.7355156054
 10
6.0942488744
 20
-16.7263156721
 10
6.0894639415
 20
-16.7171944626
 10
6.0841357298
 20
-16.7081830893
 10
6.0782617038
 20
-16.69930871
 10
6.0718354146
 20
-16.6905762542
 10
6.0648578649
 20
-16.6820202383
 10
6.0573294719
 20
-16.673671115
 10
6.0492408491
 20
-16.6655319339
 10
6.0405963994
 20
-16.6576413952
 10
6.0314001856
 20
-16.6500343307
 10
6.0216397277
 20
-16.6427143391
 10
6.0113235387
 20
-16.6357252595
 10
6.0004610234
 20
-16.6291076825
 10
5.9890389467
 20
-16.6228690572
 10
5.9770707031
 20
-16.6170587559
 10
5.9645748477
 20
-16.611724793
 10
5.9515458782
 20
-16.6068827901
 10
5.9380043149
 20
-16.6025871345
 10
5.9239831838
 20
-16.5988930449
 10
5.9094995169
 20
-16.595826113
 10
5.8945866545
 20
-16.5934346766
 10
5.8792957563
 20
-16.5917851479
 10
5.8636784249
 20
-16.5909323281
  0
LINE
  5
44F
100
AcDbEntity
  8
RACCORDO
100
AcDbLine
 62
250
  6
CONTINUOUS
 10
5.4732469377
 20
-17.1040078996
 11
5.4733947649
 21
-17.1080028455
  0
LINE
  5
450
100
AcDbEntity
  8
RACCORDO
100
AcDbLine
 62
250
  6
CONTINUOUS
 10
5.4138946091
 20
-15.3770948593
 11
5.4140395278
 21
-15.3810831462
  0
LWPOLYLINE
  5
451
100
AcDbEntity
  8
RACCORDO
100
AcDbPolyline
 62
250
  6
CONTINUOUS
 90
3
 70
0
 10
5.722275607
 20
-16.8468701478
 10
5.7223755331
 20
-16.8503967396
 10
5.722473445
 20
-16.8549108378
  0
LINE
  5
452
100
AcDbEntity
  8
RACCORDO
100
AcDbLine
 62
250
  6
CONTINUOUS
 10
5.4733947649
 20
-17.1080028455
 11
5.4735251928
 21
-17.1124541078
  0
LINE
  5
453
100
AcDbEntity
  8
RACCORDO
100
AcDbLine
 62
250
  6
CONTINUOUS
 10
5.4140395278
 20
-15.3810831462
 11
5.4141672983
 21
-15.3855133464
  0
LINE
  5
454
100
AcDbEntity
  8
RACCORDO
100
AcDbLine
 62
250
  6
CONTINUOUS
 10
5.4735251928
 20
-17.1124541078
 11
5.4736368982
 21
-17.117316493
  0
LINE
  5
455
100
AcDbEntity
  8
RACCORDO
100
AcDbLine
 62
250
  6
CONTINUOUS
 10
5.4141672983
 20
-15.3855133464
 11
5.4142766557
 21
-15.3903415386
  0
LINE
  5
456
100
AcDbEntity
  8
RACCORDO
100
AcDbLine
 62
250
  6
CONTINUOUS
 10
5.4736368982
 20
-17.117316493
 11
5.4737280503
 21
-17.1225178571
  0
LINE
  5
457
100
AcDbEntity
  8
RACCORDO
100
AcDbLine
 62
250
  6
CONTINUOUS
 10
5.4142766557
 20
-15.3903415386
 11
5.4143658569
 21
-15.3954979869
  0
LINE
  5
458
100
AcDbEntity
  8
RACCORDO
100
AcDbLine
 62
250
  6
CONTINUOUS
 10
5.4737280503
 20
-17.1225178571
 11
5.4737974062
 21
-17.1279772898
  0
LINE
  5
459
100
AcDbEntity
  8
RACCORDO
100
AcDbLine
 62
250
  6
CONTINUOUS
 10
5.4143658569
 20
-15.3954979869
 11
5.4144337083
 21
-15.4009041738
  0
LINE
  5
45A
100
AcDbEntity
  8
RACCORDO
100
AcDbLine
 62
250
  6
CONTINUOUS
 10
5.4737974062
 20
-17.1279772898
 11
5.4738442697
 21
-17.1336386303
  0
LINE
  5
45B
100
AcDbEntity
  8
RACCORDO
100
AcDbLine
 62
250
  6
CONTINUOUS
 10
5.4144337083
 20
-15.4009041738
 11
5.4144938544
 21
-15.4093380272
  0
LINE
  5
45C
100
AcDbEntity
  8
RACCORDO
100
AcDbLine
 62
250
  6
CONTINUOUS
 10
3.906280756
 20
-21.6183062648
 11
3.906280756
 21
-20.0689283318
  0
LINE
  5
45D
100
AcDbEntity
  8
RACCORDO
100
AcDbLine
 62
250
  6
CONTINUOUS
 10
3.906280756
 20
21.0872748976
 11
3.906280756
 21
22.6366528306
  0
LINE
  5
45E
100
AcDbEntity
  8
RACCORDO
100
AcDbLine
 62
250
  6
CONTINUOUS
 10
4.0794858367
 20
-21.6130654869
 11
4.0794858367
 21
-20.0566498758
  0
LINE
  5
45F
100
AcDbEntity
  8
RACCORDO
100
AcDbLine
 62
250
  6
CONTINUOUS
 10
4.0794858367
 20
21.0749964415
 11
4.0794858367
 21
22.6314120527
  0
LINE
  5
460
100
AcDbEntity
  8
RACCORDO
100
AcDbLine
 62
250
  6
CONTINUOUS
 10
5.4144938544
 20
16.4276845929
 11
5.4144337083
 21
16.4192507395
  0
LINE
  5
461
100
AcDbEntity
  8
RACCORDO
100
AcDbLine
 62
250
  6
CONTINUOUS
 10
5.4738442697
 20
18.1519851961
 11
5.4737655275
 21
18.1435648806
  0
LINE
  5
462
100
AcDbEntity
  8
RACCORDO
100
AcDbLine
 62
250
  6
CONTINUOUS
 10
5.4144337083
 20
16.4192507395
 11
5.4143658569
 21
16.4138445526
  0
LINE
  5
463
100
AcDbEntity
  8
RACCORDO
100
AcDbLine
 62
250
  6
CONTINUOUS
 10
5.4737655275
 20
18.1435648806
 11
5.4736850302
 21
18.1382215755
  0
LINE
  5
464
100
AcDbEntity
  8
RACCORDO
100
AcDbLine
 62
250
  6
CONTINUOUS
 10
5.4143658569
 20
16.4138445526
 11
5.4142766557
 21
16.4086881043
  0
LINE
  5
465
100
AcDbEntity
  8
RACCORDO
100
AcDbLine
 62
250
  6
CONTINUOUS
 10
5.4736850302
 20
18.1382215755
 11
5.4735836014
 21
18.1331897009
  0
LINE
  5
466
100
AcDbEntity
  8
RACCORDO
100
AcDbLine
 62
250
  6
CONTINUOUS
 10
5.4142766557
 20
16.4086881043
 11
5.4141672983
 21
16.4038599122
  0
LINE
  5
467
100
AcDbEntity
  8
RACCORDO
100
AcDbLine
 62
250
  6
CONTINUOUS
 10
5.4735836014
 20
18.1331897009
 11
5.4734622631
 21
18.1285202129
  0
LINE
  5
468
100
AcDbEntity
  8
RACCORDO
100
AcDbLine
 62
250
  6
CONTINUOUS
 10
5.4141672983
 20
16.4038599122
 11
5.4140395278
 21
16.399429712
  0
LWPOLYLINE
  5
469
100
AcDbEntity
  8
RACCORDO
100
AcDbPolyline
 62
250
  6
CONTINUOUS
 90
12
 70
0
 10
5.4734622631
 20
18.1285202129
 10
5.4733227455
 20
18.1242871762
 10
5.4732469377
 20
18.1223544654
 10
5.4731673045
 20
18.1205526615
 10
5.4730838829
 20
18.118880382
 10
5.4729975172
 20
18.1173544367
 10
5.4729081662
 20
18.1159762347
 10
5.4728158711
 20
18.1147443669
 10
5.4727216001
 20
18.1136714165
 10
5.472625676
 20
18.1127615776
 10
5.4725277761
 20
18.1120106561
 10
5.4724279002
 20
18.1114186518
  0
LWPOLYLINE
  5
46A
100
AcDbEntity
  8
RACCORDO
100
AcDbPolyline
 62
250
  6
CONTINUOUS
 90
14
 70
0
 10
5.4140395278
 20
16.399429712
 10
5.4138946091
 20
16.395441425
 10
5.4138164893
 20
16.3936369434
 10
5.4137346202
 20
16.3919580387
 10
5.4136498123
 20
16.3904212853
 10
5.4135620365
 20
16.3890281107
 10
5.4134713218
 20
16.3877770875
 10
5.4133785658
 20
16.3866805068
 10
5.4132837377
 20
16.3857398813
 10
5.4131868682
 20
16.3849536984
 10
5.4130889475
 20
16.3843297119
 10
5.4129903057
 20
16.3838705063
 10
5.4128906126
 20
16.383573497
 10
5.4127898683
 20
16.3834386841
  0
LWPOLYLINE
  5
46B
100
AcDbEntity
  8
RACCORDO
100
AcDbPolyline
 62
7
  6
CONTINUOUS
 90
31
 70
0
 10
6.1135261316
 20
17.8189481907
 10
6.1129009801
 20
17.809691812
 10
6.1117828058
 20
17.800416946
 10
6.1101618606
 20
17.7911235929
 10
6.1080294974
 20
17.7817907976
 10
6.1053780107
 20
17.772439515
 10
6.1022005225
 20
17.7631326103
 10
6.0984925085
 20
17.7538697802
 10
6.0942491939
 20
17.744651328
 10
6.0894639415
 20
17.7355410284
 10
6.0841354884
 20
17.7265378984
 10
6.0782620657
 20
17.717642921
 10
6.0718354146
 20
17.70892282
 10
6.0648576056
 20
17.7003756576
 10
6.057329891
 20
17.6920033717
 10
6.0492408491
 20
17.6838784997
 10
6.0405961169
 20
17.6759976065
 10
6.0314006767
 20
17.6683641272
 10
6.0216397277
 20
17.6610609049
 10
6.0113232198
 20
17.6540827131
 10
6.0004615937
 20
17.6474347784
 10
5.9890389467
 20
17.641215623
 10
5.977070319
 20
17.6354184369
 10
5.9645754724
 20
17.6300500303
 10
5.9515458782
 20
17.6252293559
 10
5.9380038262
 20
17.6209503868
 10
5.9239837831
 20
17.6172191499
 10
5.9094995169
 20
17.6141726788
 10
5.8945844459
 20
17.6118566514
 10
5.8792930128
 20
17.6102253897
 10
5.8636784249
 20
17.6092788939
  0
LINE
  5
46C
100
AcDbEntity
  8
RACCORDO
100
AcDbLine
 62
7
  6
CONTINUOUS
 10
7.728373726
 20
1.823531226
 11
7.7001320037
 21
1.7952895037
  0
LINE
  5
46D
100
AcDbEntity
  8
DRAFT
100
AcDbLine
 62
7
  6
CONTINUOUS
 10
10.0099050816
 20
0.3821199927
 11
10.0640157829
 21
0.4091732829
  0
LWPOLYLINE
  5
46E
100
AcDbEntity
  8
RACCORDO
100
AcDbPolyline
 62
250
  6
CONTINUOUS
 90
25
 70
0
 10
7.3674395974
 20
4.4627266735
 10
7.3867468113
 20
4.4635038212
 10
7.4059739245
 20
4.4651578169
 10
7.4250411696
 20
4.4676817986
 10
7.4438694424
 20
4.4710652951
 10
7.4623806301
 20
4.4752942691
 10
7.480497935
 20
4.4803511756
 10
7.4981461941
 20
4.486215035
 10
7.51525219
 20
4.4928615198
 10
7.5317449552
 20
4.5002630555
 10
7.5475560661
 20
4.5083889352
 10
7.5626199275
 20
4.517205447
 10
7.576874044
 20
4.5266760138
 10
7.5902592797
 20
4.5367613447
 10
7.6027201036
 20
4.5474195988
 10
7.6142048197
 20
4.5586065581
 10
7.6246657815
 20
4.5702758111
 10
7.63405959
 20
4.5823789456
 10
7.6423472735
 20
4.5948657492
 10
7.649494449
 20
4.6076844181
 10
7.6554714654
 20
4.6207817714
 10
7.6602535263
 20
4.6341034722
 10
7.6638207925
 20
4.6475942528
 10
7.6661584649
 20
4.6611981441
 10
7.6672568455
 20
4.6748587078
  0
LWPOLYLINE
  5
46F
100
AcDbEntity
  8
RACCORDO
100
AcDbPolyline
 62
250
  6
CONTINUOUS
 90
25
 70
0
 10
-6.9325604026
 20
4.4627266735
 10
-6.9132531887
 20
4.4635038212
 10
-6.8940260755
 20
4.4651578169
 10
-6.8749588304
 20
4.4676817986
 10
-6.8561305576
 20
4.4710652951
 10
-6.8376193699
 20
4.4752942691
 10
-6.819502065
 20
4.4803511756
 10
-6.8018538059
 20
4.486215035
 10
-6.78474781
 20
4.4928615198
 10
-6.7682550448
 20
4.5002630555
 10
-6.7524439339
 20
4.5083889352
 10
-6.7373800725
 20
4.517205447
 10
-6.723125956
 20
4.5266760138
 10
-6.7097407203
 20
4.5367613447
 10
-6.6972798964
 20
4.5474195988
 10
-6.6857951803
 20
4.5586065581
 10
-6.6753342185
 20
4.5702758111
 10
-6.66594041
 20
4.5823789456
 10
-6.6576527265
 20
4.5948657492
 10
-6.650505551
 20
4.6076844181
 10
-6.6445285346
 20
4.6207817714
 10
-6.6397464737
 20
4.6341034722
 10
-6.6361792075
 20
4.6475942528
 10
-6.6338415351
 20
4.6611981441
 10
-6.6327431545
 20
4.6748587078
  0
LINE
  5
470
100
AcDbEntity
  8
RACCORDO
100
AcDbLine
 62
250
  6
CONTINUOUS
 10
-7.0394080317
 20
4.4627266735
 11
-6.9325604026
 21
4.4627266735
  0
LINE
  5
471
100
AcDbEntity
  8
RACCORDO
100
AcDbLine
 62
250
  6
CONTINUOUS
 10
7.2605919683
 20
4.4627266735
 11
7.3674395974
 21
4.4627266735
  0
LINE
  5
472
100
AcDbEntity
  8
RACCORDO
100
AcDbLine
 62
250
  6
CONTINUOUS
 10
-7.3371796684
 20
4.8162800641
 11
-6.6347887658
 21
4.8162800641
  0
LINE
  5
473
100
AcDbEntity
  8
RACCORDO
100
AcDbLine
 62
250
  6
CONTINUOUS
 10
6.9628203316
 20
4.8162800641
 11
7.6652112342
 21
4.8162800641
  0
LWPOLYLINE
  5
474
100
AcDbEntity
  8
RACCORDO
100
AcDbPolyline
 62
250
  6
CONTINUOUS
 90
25
 70
0
 10
-7.0394080317
 20
4.4627266735
 10
-7.0587152332
 20
4.4635038202
 10
-7.0779423351
 20
4.4651578141
 10
-7.0970095699
 20
4.467681793
 10
-7.1158378335
 20
4.4710652858
 10
-7.1343490131
 20
4.4752942555
 10
-7.1524663115
 20
4.4803511573
 10
-7.1701145655
 20
4.4862150116
 10
-7.1872205579
 20
4.4928614912
 10
-7.2037133212
 20
4.5002630218
 10
-7.2195244319
 20
4.5083888967
 10
-7.2345882945
 20
4.5172054042
 10
-7.2488424137
 20
4.5266759672
 10
-7.2622276534
 20
4.5367612952
 10
-7.2746884824
 20
4.5474195473
 10
-7.2861732044
 20
4.5586065057
 10
-7.296634173
 20
4.5702757591
 10
-7.3060279886
 20
4.5823788952
 10
-7.3143156792
 20
4.594865702
 10
-7.3214628618
 20
4.6076843753
 10
-7.3274398848
 20
4.6207817345
 10
-7.3322219514
 20
4.6341034425
 10
-7.3357892222
 20
4.6475942318
 10
-7.3381268978
 20
4.661198133
 10
-7.3392252798
 20
4.6748587078
  0
LWPOLYLINE
  5
475
100
AcDbEntity
  8
RACCORDO
100
AcDbPolyline
 62
250
  6
CONTINUOUS
 90
25
 70
0
 10
7.2605919683
 20
4.4627266735
 10
7.2412847668
 20
4.4635038202
 10
7.2220576649
 20
4.4651578141
 10
7.2029904301
 20
4.467681793
 10
7.1841621665
 20
4.4710652858
 10
7.1656509869
 20
4.4752942555
 10
7.1475336885
 20
4.4803511573
 10
7.1298854345
 20
4.4862150116
 10
7.1127794421
 20
4.4928614912
 10
7.0962866788
 20
4.5002630218
 10
7.0804755681
 20
4.5083888967
 10
7.0654117055
 20
4.5172054042
 10
7.0511575863
 20
4.5266759672
 10
7.0377723466
 20
4.5367612952
 10
7.0253115176
 20
4.5474195473
 10
7.0138267956
 20
4.5586065057
 10
7.003365827
 20
4.5702757591
 10
6.9939720114
 20
4.5823788952
 10
6.9856843208
 20
4.594865702
 10
6.9785371382
 20
4.6076843753
 10
6.9725601152
 20
4.6207817345
 10
6.9677780486
 20
4.6341034425
 10
6.9642107778
 20
4.6475942318
 10
6.9618731022
 20
4.661198133
 10
6.9607747202
 20
4.6748587078
  0
LINE
  5
476
100
AcDbEntity
  8
DRAFT
100
AcDbLine
 62
7
  6
CONTINUOUS
 10
10.0099050816
 20
0.636226573
 11
10.0640157829
 21
0.6091732829
  0
LINE
  5
477
100
AcDbEntity
  8
RACCORDO
100
AcDbLine
 62
7
  6
CONTINUOUS
 10
7.7001320037
 20
-0.7769429379
 11
7.728373726
 21
-0.8051846602
  0
LWPOLYLINE
  5
478
100
AcDbEntity
  8
RACCORDO
100
AcDbPolyline
 62
250
  6
CONTINUOUS
 90
13
 70
0
 10
7.6719516447
 20
-5.3489453308
 10
7.6715935274
 20
-5.3483203986
 10
7.6712387495
 20
-5.3471813193
 10
7.670887311
 20
-5.3455280929
 10
7.6705382863
 20
-5.34335372
 10
7.6701926011
 20
-5.3406652
 10
7.669853032
 20
-5.3374835311
 10
7.6695196455
 20
-5.333804807
 10
7.669192375
 20
-5.3296329341
 10
7.6688737982
 20
-5.3250006292
 10
7.6685639893
 20
-5.3199043179
 10
7.6682628741
 20
-5.3143475747
 10
7.667972807
 20
-5.3083738394
  0
LWPOLYLINE
  5
479
100
AcDbEntity
  8
RACCORDO
100
AcDbPolyline
 62
7
  6
CONTINUOUS
 90
31
 70
0
 10
5.4145054342
 20
17.8189481907
 10
5.415131716
 20
17.8097304068
 10
5.4162496736
 20
17.8004481431
 10
5.4178697052
 20
17.7911235929
 10
5.4200018688
 20
17.7817839811
 10
5.4226538435
 20
17.7724493596
 10
5.4258310433
 20
17.7631326103
 10
5.4295388344
 20
17.7538621712
 10
5.4337826914
 20
17.7446622379
 10
5.4385676243
 20
17.7355410284
 10
5.443895836
 20
17.7265296551
 10
5.449769862
 20
17.7176552758
 10
5.4561961512
 20
17.70892282
 10
5.4631737009
 20
17.7003668041
 10
5.4707020938
 20
17.6920176808
 10
5.4787907167
 20
17.6838784997
 10
5.4874351664
 20
17.675987961
 10
5.4966313802
 20
17.6683808964
 10
5.5063918381
 20
17.6610609049
 10
5.5167080271
 20
17.6540718253
 10
5.5275705423
 20
17.6474542483
 10
5.5389926191
 20
17.641215623
 10
5.5509608627
 20
17.6354053217
 10
5.5634567181
 20
17.6300713588
 10
5.5764856876
 20
17.6252293559
 10
5.5900272509
 20
17.6209337003
 10
5.604048382
 20
17.6172396107
 10
5.6185320489
 20
17.6141726788
 10
5.6334449113
 20
17.6117812424
 10
5.6487358095
 20
17.6101317137
 10
5.6643531409
 20
17.6092788939
  0
LINE
  5
47A
100
AcDbEntity
  8
RACCORDO
100
AcDbLine
 62
250
  6
CONTINUOUS
 10
6.0547846281
 20
18.1223544654
 11
6.0546368009
 21
18.1263494113
  0
LINE
  5
47B
100
AcDbEntity
  8
RACCORDO
100
AcDbLine
 62
250
  6
CONTINUOUS
 10
6.1141369567
 20
16.395441425
 11
6.113992038
 21
16.399429712
  0
LINE
  5
47C
100
AcDbEntity
  8
RACCORDO
100
AcDbLine
 62
250
  6
CONTINUOUS
 10
6.934470511
 20
-2.8992154264
 11
6.961186635
 21
-3.6693863106
  0
LINE
  5
47D
100
AcDbEntity
  8
RACCORDO
100
AcDbLine
 62
250
  6
CONTINUOUS
 10
5.8057559588
 20
17.8652167135
 11
5.8056560327
 21
17.8687433054
  0
LINE
  5
47E
100
AcDbEntity
  8
RACCORDO
100
AcDbLine
 62
250
  6
CONTINUOUS
 10
6.0546368009
 20
18.1263494113
 11
6.054506373
 21
18.1308006736
  0
LINE
  5
47F
100
AcDbEntity
  8
RACCORDO
100
AcDbLine
 62
250
  6
CONTINUOUS
 10
6.113992038
 20
16.399429712
 11
6.1138642675
 21
16.4038599122
  0
LINE
  5
480
100
AcDbEntity
  8
RACCORDO
100
AcDbLine
 62
250
  6
CONTINUOUS
 10
6.9329972828
 20
-2.8443868371
 11
6.934470511
 21
-2.8992154264
  0
LINE
  5
481
100
AcDbEntity
  8
RACCORDO
100
AcDbLine
 62
250
  6
CONTINUOUS
 10
6.961186635
 20
-3.6693863106
 11
6.9615568986
 21
-3.6832054881
  0
LINE
  5
482
100
AcDbEntity
  8
RACCORDO
100
AcDbLine
 62
250
  6
CONTINUOUS
 10
6.054506373
 20
18.1308006736
 11
6.0543946676
 21
18.1356630588
  0
LINE
  5
483
100
AcDbEntity
  8
RACCORDO
100
AcDbLine
 62
250
  6
CONTINUOUS
 10
6.1138642675
 20
16.4038599122
 11
6.1137549101
 21
16.4086881043
  0
LINE
  5
484
100
AcDbEntity
  8
RACCORDO
100
AcDbLine
 62
250
  6
CONTINUOUS
 10
6.9310761364
 20
-2.7541727046
 11
6.9329972828
 21
-2.8443868371
  0
LINE
  5
485
100
AcDbEntity
  8
RACCORDO
100
AcDbLine
 62
250
  6
CONTINUOUS
 10
6.9615568986
 20
-3.6832054881
 11
6.9620310054
 21
-3.7055757526
  0
LINE
  5
486
100
AcDbEntity
  8
RACCORDO
100
AcDbLine
 62
250
  6
CONTINUOUS
 10
5.8056560327
 20
17.8687433054
 11
5.8054622233
 21
17.878744257
  0
LINE
  5
487
100
AcDbEntity
  8
RACCORDO
100
AcDbLine
 62
250
  6
CONTINUOUS
 10
5.8649970571
 20
16.1425738493
 11
5.8648055767
 21
16.1529370024
  0
LINE
  5
488
100
AcDbEntity
  8
RACCORDO
100
AcDbLine
 62
250
  6
CONTINUOUS
 10
5.8419080121
 20
-19.8497843297
 11
5.8044767069
 21
-17.5511037968
  0
LINE
  5
489
100
AcDbEntity
  8
RACCORDO
100
AcDbLine
 62
250
  6
CONTINUOUS
 10
5.6861235537
 20
20.8681308955
 11
5.7235548588
 21
18.5694503626
  0
LINE
  5
48A
100
AcDbEntity
  8
RACCORDO
100
AcDbLine
 62
250
  6
CONTINUOUS
 10
6.0543946676
 20
18.1356630588
 11
6.0543035154
 21
18.1408644229
  0
LINE
  5
48B
100
AcDbEntity
  8
RACCORDO
100
AcDbLine
 62
250
  6
CONTINUOUS
 10
6.1137549101
 20
16.4086881043
 11
6.1136657089
 21
16.4138445526
  0
LINE
  5
48C
100
AcDbEntity
  8
RACCORDO
100
AcDbLine
 62
250
  6
CONTINUOUS
 10
5.722473445
 20
-16.8549108378
 11
5.7226635152
 21
-16.8668396409
  0
LINE
  5
48D
100
AcDbEntity
  8
RACCORDO
100
AcDbLine
 62
250
  6
CONTINUOUS
 10
5.6631312397
 20
-15.1289352976
 11
5.6633187896
 21
-15.1411738598
  0
LINE
  5
48E
100
AcDbEntity
  8
RACCORDO
100
AcDbLine
 62
250
  6
CONTINUOUS
 10
6.9620310054
 20
-3.7055757526
 11
6.9623990948
 21
-3.7295295735
  0
LINE
  5
48F
100
AcDbEntity
  8
RACCORDO
100
AcDbLine
 62
250
  6
CONTINUOUS
 10
6.9295768313
 20
-2.6566997002
 11
6.9310761364
 21
-2.7541727046
  0
LINE
  5
490
100
AcDbEntity
  8
RACCORDO
100
AcDbLine
 62
250
  6
CONTINUOUS
 10
5.4438834089
 20
20.2952910527
 11
5.4737712063
 21
18.4593053796
  0
LINE
  5
491
100
AcDbEntity
  8
RACCORDO
100
AcDbLine
 62
250
  6
CONTINUOUS
 10
6.0841481569
 20
-19.2769444869
 11
6.0542603595
 21
-17.4409588138
  0
LINE
  5
492
100
AcDbEntity
  8
RACCORDO
100
AcDbLine
 62
250
  6
CONTINUOUS
 10
6.0543035154
 20
18.1408644229
 11
6.0542341596
 21
18.1463238556
  0
LINE
  5
493
100
AcDbEntity
  8
RACCORDO
100
AcDbLine
 62
250
  6
CONTINUOUS
 10
6.1136657089
 20
16.4138445526
 11
6.1135978575
 21
16.4192507395
  0
LINE
  5
494
100
AcDbEntity
  8
RACCORDO
100
AcDbLine
 62
250
  6
CONTINUOUS
 10
5.8054622233
 20
17.878744257
 11
5.8051866167
 21
17.9008446298
  0
LINE
  5
495
100
AcDbEntity
  8
RACCORDO
100
AcDbLine
 62
250
  6
CONTINUOUS
 10
5.8648055767
 20
16.1529370024
 11
5.8645341022
 21
16.1753822559
  0
LINE
  5
496
100
AcDbEntity
  8
RACCORDO
100
AcDbLine
 62
250
  6
CONTINUOUS
 10
6.9623990948
 20
-3.7295295735
 11
6.9626547905
 21
-3.7546523951
  0
LINE
  5
497
100
AcDbEntity
  8
RACCORDO
100
AcDbLine
 62
250
  6
CONTINUOUS
 10
5.7226635152
 20
-16.8668396409
 11
5.7230148904
 21
-16.9016702816
  0
LINE
  5
498
100
AcDbEntity
  8
RACCORDO
100
AcDbLine
 62
250
  6
CONTINUOUS
 10
6.9285462884
 20
-2.5548205754
 11
6.9295768313
 21
-2.6566997002
  0
LINE
  5
499
100
AcDbEntity
  8
RACCORDO
100
AcDbLine
 62
250
  6
CONTINUOUS
 10
5.6633187896
 20
-15.1411738598
 11
5.6636641418
 21
-15.1763107195
  0
LINE
  5
49A
100
AcDbEntity
  8
RACCORDO
100
AcDbLine
 62
250
  6
CONTINUOUS
 10
5.4737712063
 20
18.4593053796
 11
5.4738380137
 21
18.4522974825
  0
LINE
  5
49B
100
AcDbEntity
  8
RACCORDO
100
AcDbLine
 62
250
  6
CONTINUOUS
 10
6.0542603595
 20
-17.4409588138
 11
6.0541935521
 21
-17.4339509167
  0
LINE
  5
49C
100
AcDbEntity
  8
RACCORDO
100
AcDbLine
 62
250
  6
CONTINUOUS
 10
5.8051866167
 20
17.9008446298
 11
5.8047215828
 21
17.9678231969
  0
LINE
  5
49D
100
AcDbEntity
  8
RACCORDO
100
AcDbLine
 62
250
  6
CONTINUOUS
 10
5.8645341022
 20
16.1753822559
 11
5.864078132
 21
16.2423861201
  0
LINE
  5
49E
100
AcDbEntity
  8
RACCORDO
100
AcDbLine
 62
250
  6
CONTINUOUS
 10
6.0542341596
 20
18.1463238556
 11
6.0541726642
 21
18.1548483075
  0
LINE
  5
49F
100
AcDbEntity
  8
RACCORDO
100
AcDbLine
 62
250
  6
CONTINUOUS
 10
6.1135978575
 20
16.4192507395
 11
6.1135377113
 21
16.427684593
  0
LINE
  5
4A0
100
AcDbEntity
  8
RACCORDO
100
AcDbLine
 62
250
  6
CONTINUOUS
 10
6.9626547905
 20
-3.7546523951
 11
6.9627937063
 21
-3.7804907821
  0
LINE
  5
4A1
100
AcDbEntity
  8
RACCORDO
100
AcDbLine
 62
250
  6
CONTINUOUS
 10
6.9279991944
 20
-2.451782664
 11
6.9285462884
 21
-2.5548205754
  0
LINE
  5
4A2
100
AcDbEntity
  8
RACCORDO
100
AcDbLine
 62
250
  6
CONTINUOUS
 10
5.7230148904
 20
-16.9016702816
 11
5.7235327927
 21
-17.0076813843
  0
LINE
  5
4A3
100
AcDbEntity
  8
RACCORDO
100
AcDbLine
 62
250
  6
CONTINUOUS
 10
5.6636641418
 20
-15.1763107195
 11
5.6641715228
 21
-15.281842957
  0
LINE
  5
4A4
100
AcDbEntity
  8
RACCORDO
100
AcDbLine
 62
250
  6
CONTINUOUS
 10
6.9626745514
 20
6.2080520728
 11
6.9628110238
 21
6.1776828602
  0
LINE
  5
4A5
100
AcDbEntity
  8
RACCORDO
100
AcDbLine
 62
250
  6
CONTINUOUS
 10
5.4738380137
 20
18.4522974825
 11
5.4738686627
 21
18.4450955545
  0
LINE
  5
4A6
100
AcDbEntity
  8
RACCORDO
100
AcDbLine
 62
250
  6
CONTINUOUS
 10
6.0541935521
 20
-17.4339509167
 11
6.0541629031
 21
-17.4267489887
  0
LINE
  5
4A7
100
AcDbEntity
  8
RACCORDO
100
AcDbLine
 62
250
  6
CONTINUOUS
 10
5.4738442697
 20
-17.1336386303
 11
5.4738707423
 21
-17.1423124737
  0
LINE
  5
4A8
100
AcDbEntity
  8
RACCORDO
100
AcDbLine
 62
250
  6
CONTINUOUS
 10
5.8047215828
 20
17.9678231969
 11
5.8043161422
 21
18.1432253873
  0
LINE
  5
4A9
100
AcDbEntity
  8
RACCORDO
100
AcDbLine
 62
250
  6
CONTINUOUS
 10
5.864078132
 20
16.2423861201
 11
5.8636813821
 21
16.4161905315
  0
LINE
  5
4AA
100
AcDbEntity
  8
RACCORDO
100
AcDbLine
 62
250
  6
CONTINUOUS
 10
5.4144938544
 20
-15.4093380272
 11
5.4145054342
 21
-16.8006016249
  0
LINE
  5
4AB
100
AcDbEntity
  8
RACCORDO
100
AcDbLine
 62
7
  6
CONTINUOUS
 10
5.4438834089
 20
-20.0566498758
 11
5.4438834089
 21
-19.2769444869
  0
LINE
  5
4AC
100
AcDbEntity
  8
RACCORDO
100
AcDbLine
 62
7
  6
CONTINUOUS
 10
5.4438834089
 20
20.2952910527
 11
5.4438834089
 21
21.0749964415
  0
LINE
  5
4AD
100
AcDbEntity
  8
RACCORDO
100
AcDbLine
 62
250
  6
CONTINUOUS
 10
5.6641715228
 20
-15.281842957
 11
5.6643531409
 21
-16.5909323281
  0
LINE
  5
4AE
100
AcDbEntity
  8
RACCORDO
100
AcDbLine
 62
250
  6
CONTINUOUS
 10
5.8636813821
 20
16.4161905315
 11
5.8636784249
 21
17.6092788939
  0
LINE
  5
4AF
100
AcDbEntity
  8
RACCORDO
100
AcDbLine
 62
7
  6
CONTINUOUS
 10
6.0841481569
 20
21.0749964415
 11
6.0841481569
 21
20.2952910527
  0
LINE
  5
4B0
100
AcDbEntity
  8
RACCORDO
100
AcDbLine
 62
7
  6
CONTINUOUS
 10
6.0841481569
 20
-19.2769444869
 11
6.0841481569
 21
-20.0566498758
  0
LINE
  5
4B1
100
AcDbEntity
  8
RACCORDO
100
AcDbLine
 62
250
  6
CONTINUOUS
 10
6.1135377113
 20
16.427684593
 11
6.1135261316
 21
17.8189481907
  0
LINE
  5
4B2
100
AcDbEntity
  8
RACCORDO
100
AcDbLine
 62
250
  6
CONTINUOUS
 10
6.9278995621
 20
-0.7769429379
 11
6.9279991944
 21
-2.451782664
  0
LINE
  5
4B3
100
AcDbEntity
  8
RACCORDO
100
AcDbLine
 62
250
  6
CONTINUOUS
 10
6.9628110238
 20
6.1776828602
 11
6.9628203316
 21
4.8162800641
  0
LINE
  5
4B4
100
AcDbEntity
  8
RACCORDO
100
AcDbLine
 62
250
  6
CONTINUOUS
 10
6.9627937063
 20
-3.7804907821
 11
6.9628203316
 21
-5.1490671654
  0
LINE
  5
4B5
100
AcDbEntity
  8
RACCORDO
100
AcDbLine
 62
250
  6
CONTINUOUS
 10
5.7235548588
 20
18.5694503626
 11
5.7237154236
 21
18.1432253873
  0
LINE
  5
4B6
100
AcDbEntity
  8
RACCORDO
100
AcDbLine
 62
250
  6
CONTINUOUS
 10
5.7235327927
 20
-17.0076813843
 11
5.7237163355
 21
-17.4388583157
  0
LINE
  5
4B7
100
AcDbEntity
  8
RACCORDO
100
AcDbLine
 62
250
  6
CONTINUOUS
 10
5.8044767069
 20
-17.5511037968
 11
5.8043161422
 21
-17.1248788215
  0
LINE
  5
4B8
100
AcDbEntity
  8
RACCORDO
100
AcDbLine
 62
250
  6
CONTINUOUS
 10
6.0541726642
 20
18.1548483075
 11
6.0541629031
 21
18.4450955547
  0
LINE
  5
4B9
100
AcDbEntity
  8
RACCORDO
100
AcDbLine
 62
250
  6
CONTINUOUS
 10
5.8043161422
 20
18.1432253873
 11
5.8044767069
 21
18.5694503626
  0
LINE
  5
4BA
100
AcDbEntity
  8
RACCORDO
100
AcDbLine
 62
250
  6
CONTINUOUS
 10
5.7237163355
 20
-17.4388583157
 11
5.7235548588
 21
-17.5511037968
  0
LINE
  5
4BB
100
AcDbEntity
  8
RACCORDO
100
AcDbLine
 62
250
  6
CONTINUOUS
 10
5.4145054342
 20
17.8189481907
 11
5.4144938544
 21
16.4276845929
  0
LWPOLYLINE
  5
4BC
100
AcDbEntity
  8
RACCORDO
100
AcDbPolyline
 62
250
  6
CONTINUOUS
 90
3
 70
0
 10
5.4738686627
 20
18.4450955545
 10
5.4738589016
 20
18.1548483075
 10
5.4738442697
 20
18.1519851961
  0
LINE
  5
4BD
100
AcDbEntity
  8
RACCORDO
100
AcDbLine
 62
250
  6
CONTINUOUS
 10
6.0541629031
 20
-17.4267489887
 11
6.0541726642
 21
-17.1365017417
  0
LINE
  5
4BE
100
AcDbEntity
  8
RACCORDO
100
AcDbLine
 62
250
  6
CONTINUOUS
 10
6.1135261316
 20
-16.8006016249
 11
6.1135377113
 21
-15.4093380271
  0
LINE
  5
4BF
100
AcDbEntity
  8
RACCORDO
100
AcDbLine
 62
250
  6
CONTINUOUS
 10
5.6643531409
 20
17.6092788939
 11
5.6640722416
 21
16.2702082292
  0
LINE
  5
4C0
100
AcDbEntity
  8
RACCORDO
100
AcDbLine
 62
250
  6
CONTINUOUS
 10
5.8636784249
 20
-16.5909323281
 11
5.8639593242
 21
-15.2518616634
  0
LINE
  5
4C1
100
AcDbEntity
  8
RACCORDO
100
AcDbLine
 62
250
  6
CONTINUOUS
 10
6.9281286201
 20
3.5043022664
 11
6.9278995621
 21
1.7952895037
  0
LINE
  5
4C2
100
AcDbEntity
  8
RACCORDO
100
AcDbLine
 62
250
  6
CONTINUOUS
 10
6.9628203316
 20
4.8162800641
 11
6.9627606423
 21
4.790187791
  0
LINE
  5
4C3
100
AcDbEntity
  8
RACCORDO
100
AcDbLine
 62
250
  6
CONTINUOUS
 10
5.4738707423
 20
-17.1423124737
 11
5.4738523225
 21
-17.4315621881
  0
LWPOLYLINE
  5
4C4
100
AcDbEntity
  8
RACCORDO
100
AcDbPolyline
 62
250
  6
CONTINUOUS
 90
3
 70
0
 10
6.9628203316
 20
-5.1490671654
 10
6.9627382395
 20
-5.1796420955
 10
6.9626745514
 20
-5.1897055071
  0
LINE
  5
4C5
100
AcDbEntity
  8
RACCORDO
100
AcDbLine
 62
250
  6
CONTINUOUS
 10
5.7237154236
 20
18.1432253873
 11
5.723309983
 21
17.9678231969
  0
LINE
  5
4C6
100
AcDbEntity
  8
RACCORDO
100
AcDbLine
 62
250
  6
CONTINUOUS
 10
5.8043161422
 20
-17.1248788215
 11
5.8047215828
 21
-16.9494766311
  0
LINE
  5
4C7
100
AcDbEntity
  8
RACCORDO
100
AcDbLine
 62
250
  6
CONTINUOUS
 10
6.0541629031
 20
18.4450955547
 11
6.0541935521
 21
18.4522974831
  0
LINE
  5
4C8
100
AcDbEntity
  8
RACCORDO
100
AcDbLine
 62
250
  6
CONTINUOUS
 10
5.6640722416
 20
16.2702082292
 11
5.6635822847
 21
16.18460803
  0
LINE
  5
4C9
100
AcDbEntity
  8
RACCORDO
100
AcDbLine
 62
250
  6
CONTINUOUS
 10
5.8639593242
 20
-15.2518616634
 11
5.8644492811
 21
-15.1662614642
  0
LINE
  5
4CA
100
AcDbEntity
  8
RACCORDO
100
AcDbLine
 62
250
  6
CONTINUOUS
 10
6.9288353354
 20
3.607388139
 11
6.9281286201
 21
3.5043022664
  0
LINE
  5
4CB
100
AcDbEntity
  8
RACCORDO
100
AcDbLine
 62
250
  6
CONTINUOUS
 10
6.9627606423
 20
4.790187791
 11
6.962582445
 21
4.7645263255
  0
LINE
  5
4CC
100
AcDbEntity
  8
RACCORDO
100
AcDbLine
 62
250
  6
CONTINUOUS
 10
6.1135377113
 20
-15.4093380271
 11
6.1135978575
 21
-15.4009041737
  0
LINE
  5
4CD
100
AcDbEntity
  8
RACCORDO
100
AcDbLine
 62
250
  6
CONTINUOUS
 10
5.723309983
 20
17.9678231969
 11
5.7228449491
 21
17.9008446297
  0
LINE
  5
4CE
100
AcDbEntity
  8
RACCORDO
100
AcDbLine
 62
250
  6
CONTINUOUS
 10
5.8047215828
 20
-16.9494766311
 11
5.8051866167
 21
-16.8824980639
  0
LINE
  5
4CF
100
AcDbEntity
  8
RACCORDO
100
AcDbLine
 62
250
  6
CONTINUOUS
 10
6.0541726642
 20
-17.1365017417
 11
6.0542341596
 21
-17.1279772898
  0
LINE
  5
4D0
100
AcDbEntity
  8
RACCORDO
100
AcDbLine
 62
250
  6
CONTINUOUS
 10
5.4738523225
 20
-17.4315621881
 11
5.4737973593
 21
-17.4386616317
  0
LINE
  5
4D1
100
AcDbEntity
  8
RACCORDO
100
AcDbLine
 62
250
  6
CONTINUOUS
 10
6.0541935521
 20
18.4522974831
 11
6.0542603595
 21
18.45930538
  0
LINE
  5
4D2
100
AcDbEntity
  8
RACCORDO
100
AcDbLine
 62
250
  6
CONTINUOUS
 10
5.6635822847
 20
16.18460803
 11
5.6633187896
 21
16.1595204255
  0
LINE
  5
4D3
100
AcDbEntity
  8
RACCORDO
100
AcDbLine
 62
250
  6
CONTINUOUS
 10
5.8644492811
 20
-15.1662614642
 11
5.8647127762
 21
-15.1411738597
  0
LINE
  5
4D4
100
AcDbEntity
  8
RACCORDO
100
AcDbLine
 62
250
  6
CONTINUOUS
 10
6.9300251394
 20
3.7081461127
 11
6.9288353354
 21
3.607388139
  0
LINE
  5
4D5
100
AcDbEntity
  8
RACCORDO
100
AcDbLine
 62
250
  6
CONTINUOUS
 10
6.962582445
 20
4.7645263255
 11
6.9622887248
 21
4.7397454752
  0
LINE
  5
4D6
100
AcDbEntity
  8
RACCORDO
100
AcDbLine
 62
250
  6
CONTINUOUS
 10
6.1135978575
 20
-15.4009041737
 11
6.1136657089
 21
-15.3954979868
  0
LINE
  5
4D7
100
AcDbEntity
  8
RACCORDO
100
AcDbLine
 62
250
  6
CONTINUOUS
 10
6.0542341596
 20
-17.1279772898
 11
6.0543035154
 21
-17.122517857
  0
LWPOLYLINE
  5
4D8
100
AcDbEntity
  8
RACCORDO
100
AcDbPolyline
 62
250
  6
CONTINUOUS
 90
5
 70
0
 10
5.7228449491
 20
17.9008446297
 10
5.7225693425
 20
17.878744257
 10
5.722473445
 20
17.8732574035
 10
5.7223755331
 20
17.8687433053
 10
5.722275607
 20
17.8652167135
  0
LINE
  5
4D9
100
AcDbEntity
  8
RACCORDO
100
AcDbLine
 62
250
  6
CONTINUOUS
 10
5.8051866167
 20
-16.8824980639
 11
5.8054622233
 21
-16.8603976912
  0
LINE
  5
4DA
100
AcDbEntity
  8
RACCORDO
100
AcDbLine
 62
250
  6
CONTINUOUS
 10
5.4737973593
 20
-17.4386616317
 11
5.4737071521
 21
-17.4454492314
  0
LINE
  5
4DB
100
AcDbEntity
  8
RACCORDO
100
AcDbLine
 62
250
  6
CONTINUOUS
 10
5.8044767069
 20
18.5694503626
 11
5.8419080121
 21
20.8681308955
  0
LINE
  5
4DC
100
AcDbEntity
  8
RACCORDO
100
AcDbLine
 62
250
  6
CONTINUOUS
 10
6.0542603595
 20
18.45930538
 11
6.0841481569
 21
20.2952910527
  0
LINE
  5
4DD
100
AcDbEntity
  8
RACCORDO
100
AcDbLine
 62
250
  6
CONTINUOUS
 10
5.4737071521
 20
-17.4454492314
 11
5.4438834089
 21
-19.2769444869
  0
LINE
  5
4DE
100
AcDbEntity
  8
RACCORDO
100
AcDbLine
 62
250
  6
CONTINUOUS
 10
5.7235548588
 20
-17.5511037968
 11
5.6861235537
 21
-19.8497843297
  0
LWPOLYLINE
  5
4DF
100
AcDbEntity
  8
RACCORDO
100
AcDbPolyline
 62
250
  6
CONTINUOUS
 90
7
 70
0
 10
5.6633187896
 20
16.1595204255
 10
5.6631312397
 20
16.1472818634
 10
5.6630345087
 20
16.1425738493
 10
5.6629366808
 20
16.1388287529
 10
5.6628380506
 20
16.1360587996
 10
5.6627383234
 20
16.1342728316
 10
5.6626374991
 20
16.1334765315
  0
LWPOLYLINE
  5
4E0
100
AcDbEntity
  8
RACCORDO
100
AcDbPolyline
 62
250
  6
CONTINUOUS
 90
7
 70
0
 10
5.8647127762
 20
-15.1411738597
 10
5.8649003261
 20
-15.1289352976
 10
5.864997057
 20
-15.1242272835
 10
5.865094885
 20
-15.1204821871
 10
5.8651935152
 20
-15.1177122338
 10
5.8652932424
 20
-15.1159262658
 10
5.8653940666
 20
-15.1151299657
  0
LINE
  5
4E1
100
AcDbEntity
  8
RACCORDO
100
AcDbLine
 62
250
  6
CONTINUOUS
 10
6.1136657089
 20
-15.3954979868
 11
6.1137549101
 21
-15.3903415385
  0
LINE
  5
4E2
100
AcDbEntity
  8
RACCORDO
100
AcDbLine
 62
250
  6
CONTINUOUS
 10
6.0543035154
 20
-17.122517857
 11
6.0543946676
 21
-17.117316493
  0
LINE
  5
4E3
100
AcDbEntity
  8
RACCORDO
100
AcDbLine
 62
250
  6
CONTINUOUS
 10
6.9316714414
 20
3.8035051508
 11
6.9300251394
 21
3.7081461127
  0
LINE
  5
4E4
100
AcDbEntity
  8
RACCORDO
100
AcDbLine
 62
250
  6
CONTINUOUS
 10
6.9622887248
 20
4.7397454752
 11
6.9618845125
 21
4.7162741812
  0
LWPOLYLINE
  5
4E5
100
AcDbEntity
  8
RACCORDO
100
AcDbPolyline
 62
250
  6
CONTINUOUS
 90
3
 70
0
 10
5.8054622233
 20
-16.8603976912
 10
5.8056560327
 20
-16.8503967396
 10
5.8057559588
 20
-16.8468701478
  0
LINE
  5
4E6
100
AcDbEntity
  8
RACCORDO
100
AcDbLine
 62
250
  6
CONTINUOUS
 10
6.9618845125
 20
4.7162741812
 11
6.9615568986
 21
4.7015520537
  0
LINE
  5
4E7
100
AcDbEntity
  8
RACCORDO
100
AcDbLine
 62
250
  6
CONTINUOUS
 10
6.9329972828
 20
3.8627334041
 11
6.9316714414
 21
3.8035051508
  0
LINE
  5
4E8
100
AcDbEntity
  8
RACCORDO
100
AcDbLine
 62
250
  6
CONTINUOUS
 10
6.1137549101
 20
-15.3903415385
 11
6.1138642675
 21
-15.3855133464
  0
LINE
  5
4E9
100
AcDbEntity
  8
RACCORDO
100
AcDbLine
 62
250
  6
CONTINUOUS
 10
6.0543946676
 20
-17.117316493
 11
6.054506373
 21
-17.1124541078
  0
LWPOLYLINE
  5
4EA
100
AcDbEntity
  8
RACCORDO
100
AcDbPolyline
 62
7
  6
CONTINUOUS
 90
28
 70
0
 10
6.1696359759
 20
16.3562498313
 10
6.1692335404
 20
16.3417824546
 10
6.1679913003
 20
16.3273319613
 10
6.1659079167
 20
16.3129473827
 10
6.1629800547
 20
16.2986570553
 10
6.1592146231
 20
16.2845321522
 10
6.1546409548
 20
16.2706832556
 10
6.1492938415
 20
16.2571878365
 10
6.1431865956
 20
16.2440557273
 10
6.136324588
 20
16.2312937066
 10
6.1287289324
 20
16.2189441283
 10
6.1204246535
 20
16.2070504848
 10
6.1114152684
 20
16.1956259262
 10
6.1016967811
 20
16.1846836992
 10
6.0913215336
 20
16.1742997949
 10
6.0803875453
 20
16.1645723547
 10
6.0689702253
 20
16.1555533253
 10
6.0570833414
 20
16.1472391498
 10
6.044741767
 20
16.1396344259
 10
6.0319895532
 20
16.1327640658
 10
6.0188688032
 20
16.1266486027
 10
6.0053870037
 20
16.1212933693
 10
5.9915557001
 20
16.1167116525
 10
5.9774508088
 20
16.11293711
 10
5.963178483
 20
16.1099980024
 10
5.9488081989
 20
16.1079014012
 10
5.9343695593
 20
16.1066445275
 10
5.919911455
 20
16.1062263334
  0
LWPOLYLINE
  5
4EB
100
AcDbEntity
  8
RACCORDO
100
AcDbPolyline
 62
7
  6
CONTINUOUS
 90
28
 70
0
 10
5.3583955899
 20
-15.3379032655
 10
5.3587980253
 20
-15.3234358888
 10
5.3600402655
 20
-15.3089853955
 10
5.3621236491
 20
-15.2946008169
 10
5.3650515111
 20
-15.2803104895
 10
5.3688169427
 20
-15.2661855864
 10
5.373390611
 20
-15.2523366898
 10
5.3787377242
 20
-15.2388412707
 10
5.3848449702
 20
-15.2257091615
 10
5.3917069778
 20
-15.2129471408
 10
5.3993026334
 20
-15.2005975625
 10
5.4076069123
 20
-15.1887039191
 10
5.4166162974
 20
-15.1772793604
 10
5.4263347847
 20
-15.1663371334
 10
5.4367100322
 20
-15.1559532291
 10
5.4476440205
 20
-15.1462257889
 10
5.4590613405
 20
-15.1372067595
 10
5.4709482243
 20
-15.128892584
 10
5.4832897988
 20
-15.1212878601
 10
5.4960420126
 20
-15.1144175001
 10
5.5091627626
 20
-15.1083020369
 10
5.522644562
 20
-15.1029468035
 10
5.5364758657
 20
-15.0983650868
 10
5.550580757
 20
-15.0945905442
 10
5.5648530828
 20
-15.0916514366
 10
5.5792233669
 20
-15.0895548354
 10
5.5936620065
 20
-15.0882979617
 10
5.6081201108
 20
-15.0878797676
  0
LINE
  5
4EC
100
AcDbEntity
  8
RACCORDO
100
AcDbLine
 62
250
  6
CONTINUOUS
 10
6.934470511
 20
3.9175619942
 11
6.9329972828
 21
3.8627334041
  0
LINE
  5
4ED
100
AcDbEntity
  8
RACCORDO
100
AcDbLine
 62
250
  6
CONTINUOUS
 10
6.9615568986
 20
4.7015520537
 11
6.961186635
 21
4.6877328763
  0
LWPOLYLINE
  5
4EE
100
AcDbEntity
  8
RACCORDO
100
AcDbPolyline
 62
7
  6
CONTINUOUS
 90
28
 70
0
 10
6.9008221589
 20
6.4225496588
 10
6.9013303009
 20
6.4398782817
 10
6.9028438615
 20
6.4571901225
 10
6.9053650974
 20
6.4744265051
 10
6.9088990922
 20
6.4915549166
 10
6.9134379531
 20
6.5084885027
 10
6.9189453618
 20
6.5250903961
 10
6.9253788813
 20
6.5412664882
 10
6.9327229174
 20
6.5570064178
 10
6.9409707322
 20
6.5723019817
 10
6.9500967649
 20
6.5871023238
 10
6.9600710151
 20
6.6013556525
 10
6.9708893833
 20
6.6150467674
 10
6.9825562417
 20
6.6281594072
 10
6.9950091801
 20
6.6406031153
 10
7.0081323272
 20
6.6522619805
 10
7.0218361227
 20
6.6630739348
 10
7.0361038084
 20
6.6730424344
 10
7.0509178166
 20
6.6821618156
 10
7.0662254
 20
6.6904018047
 10
7.081976352
 20
6.6977374919
 10
7.0981622612
 20
6.7041623778
 10
7.1147714786
 20
6.7096606628
 10
7.131711013
 20
6.7141906253
 10
7.1488475985
 20
6.7177169366
 10
7.1660956964
 20
6.7202314338
 10
7.1834216322
 20
6.7217383948
 10
7.2007667064
 20
6.7222396075
  0
LINE
  5
4EF
100
AcDbEntity
  8
RACCORDO
100
AcDbLine
 62
250
  6
CONTINUOUS
 10
6.1138642675
 20
-15.3855133464
 11
6.113992038
 21
-15.3810831462
  0
LINE
  5
4F0
100
AcDbEntity
  8
RACCORDO
100
AcDbLine
 62
250
  6
CONTINUOUS
 10
6.054506373
 20
-17.1124541078
 11
6.0546368009
 21
-17.1080028455
  0
LINE
  5
4F1
100
AcDbEntity
  8
RACCORDO
100
AcDbLine
 62
250
  6
CONTINUOUS
 10
6.9360820073
 20
3.9677519267
 11
6.934470511
 21
3.9175619942
  0
LINE
  5
4F2
100
AcDbEntity
  8
RACCORDO
100
AcDbLine
 62
250
  6
CONTINUOUS
 10
6.961186635
 20
4.6877328763
 11
6.9360820073
 21
3.9677519267
  0
LWPOLYLINE
  5
4F3
100
AcDbEntity
  8
RACCORDO
100
AcDbPolyline
 62
250
  6
CONTINUOUS
 90
14
 70
0
 10
6.113992038
 20
-15.3810831462
 10
6.1141369567
 20
-15.3770948592
 10
6.1142150765
 20
-15.3752903776
 10
6.1142969456
 20
-15.3736114729
 10
6.1143817535
 20
-15.3720747195
 10
6.1144695293
 20
-15.3706815449
 10
6.114560244
 20
-15.3694305217
 10
6.1146529999
 20
-15.368333941
 10
6.1147478281
 20
-15.3673933155
 10
6.1148446976
 20
-15.3666071326
 10
6.1149426182
 20
-15.3659831461
 10
6.1150412601
 20
-15.3655239405
 10
6.1151409532
 20
-15.3652269312
 10
6.1152416975
 20
-15.3650921183
  0
LWPOLYLINE
  5
4F4
100
AcDbEntity
  8
RACCORDO
100
AcDbPolyline
 62
250
  6
CONTINUOUS
 90
11
 70
0
 10
6.0546368009
 20
-17.1080028455
 10
6.0547846281
 20
-17.1040078996
 10
6.0548642613
 20
-17.1022060957
 10
6.0549476829
 20
-17.1005338162
 10
6.0550340486
 20
-17.0990078709
 10
6.0551233996
 20
-17.0976296689
 10
6.0552156947
 20
-17.0963978011
 10
6.0553099657
 20
-17.0953248507
 10
6.0554058898
 20
-17.0944150118
 10
6.0555037897
 20
-17.0936640903
 10
6.0556036656
 20
-17.093072086
  0
LINE
  5
4F5
100
AcDbEntity
  8
RACCORDO
100
AcDbLine
 62
250
  6
CONTINUOUS
 10
9.8012490859
 20
20.8148736466
 11
9.8528524568
 21
21.1778684136
  0
LINE
  5
4F6
100
AcDbEntity
  8
RACCORDO
100
AcDbLine
 62
7
  6
CONTINUOUS
 10
6.8996578398
 20
-0.8051846602
 11
6.9278995621
 21
-0.7769429379
  0
LWPOLYLINE
  5
4F7
100
AcDbEntity
  8
RACCORDO
100
AcDbPolyline
 62
250
  6
CONTINUOUS
 90
25
 70
0
 10
7.2558971692
 20
6.6671091447
 10
7.2363033349
 20
6.6664443418
 10
7.2167932754
 20
6.6645005053
 10
7.1974504065
 20
6.6612859462
 10
7.1783574289
 20
6.6568144087
 10
7.1595959753
 20
6.6511050112
 10
7.1412462609
 20
6.6441821645
 10
7.1233867402
 20
6.6360754677
 10
7.1060937719
 20
6.6268195814
 10
7.0894412926
 20
6.6164540797
 10
7.0735005002
 20
6.6050232809
 10
7.0583395496
 20
6.5925760577
 10
7.0440232617
 20
6.579165629
 10
7.030612846
 20
6.5648493315
 10
7.0181656386
 20
6.5496883751
 10
7.0067348575
 20
6.5337475809
 10
6.9963693749
 20
6.5170951045
 10
6.9871135084
 20
6.499802144
 10
6.9790068311
 20
6.4819426357
 10
6.972084003
 20
6.4635929387
 10
6.9663746222
 20
6.4448315072
 10
6.9619030989
 20
6.4257385563
 10
6.9586885509
 20
6.406395718
 10
6.9567447215
 20
6.386885693
 10
6.9560799211
 20
6.3672918966
  0
LWPOLYLINE
  5
4F8
100
AcDbEntity
  8
RACCORDO
100
AcDbPolyline
 62
250
  6
CONTINUOUS
 90
25
 70
0
 10
-7.0441028308
 20
6.6671091447
 10
-7.0636966651
 20
6.6664443418
 10
-7.0832067246
 20
6.6645005053
 10
-7.1025495935
 20
6.6612859462
 10
-7.1216425711
 20
6.6568144087
 10
-7.1404040247
 20
6.6511050112
 10
-7.1587537391
 20
6.6441821645
 10
-7.1766132598
 20
6.6360754677
 10
-7.1939062281
 20
6.6268195814
 10
-7.2105587074
 20
6.6164540797
 10
-7.2264994998
 20
6.6050232809
 10
-7.2416604504
 20
6.5925760577
 10
-7.2559767383
 20
6.579165629
 10
-7.269387154
 20
6.5648493315
 10
-7.2818343614
 20
6.5496883751
 10
-7.2932651425
 20
6.5337475809
 10
-7.3036306251
 20
6.5170951045
 10
-7.3128864916
 20
6.499802144
 10
-7.3209931689
 20
6.4819426357
 10
-7.327915997
 20
6.4635929387
 10
-7.3336253778
 20
6.4448315072
 10
-7.3380969011
 20
6.4257385563
 10
-7.3413114491
 20
6.406395718
 10
-7.3432552785
 20
6.386885693
 10
-7.3439200789
 20
6.3672918966
  0
LINE
  5
4F9
100
AcDbEntity
  8
RACCORDO
100
AcDbLine
 62
250
  6
CONTINUOUS
 10
-7.3371796684
 20
6.1674137312
 11
-6.6347887658
 21
6.1674137312
  0
LINE
  5
4FA
100
AcDbEntity
  8
RACCORDO
100
AcDbLine
 62
250
  6
CONTINUOUS
 10
6.9628203316
 20
6.1674137312
 11
7.6652112342
 21
6.1674137312
  0
LINE
  5
4FB
100
AcDbEntity
  8
RACCORDO
100
AcDbLine
 62
250
  6
CONTINUOUS
 10
7.3721349241
 20
6.6671096722
 11
7.2558966417
 21
6.6671096722
  0
LINE
  5
4FC
100
AcDbEntity
  8
RACCORDO
100
AcDbLine
 62
250
  6
CONTINUOUS
 10
-6.9278650759
 20
6.6671096722
 11
-7.0441033583
 21
6.6671096722
  0
LINE
  5
4FD
100
AcDbEntity
  8
RACCORDO
100
AcDbLine
 62
7
  6
CONTINUOUS
 10
-7.0992332936
 20
6.7222396075
 11
-6.8727351406
 21
6.7222396075
  0
LINE
  5
4FE
100
AcDbEntity
  8
RACCORDO
100
AcDbLine
 62
7
  6
CONTINUOUS
 10
7.2007667064
 20
6.7222396075
 11
7.4272648594
 21
6.7222396075
  0
LWPOLYLINE
  5
4FF
100
AcDbEntity
  8
RACCORDO
100
AcDbPolyline
 62
7
  6
CONTINUOUS
 90
28
 70
0
 10
-6.8727351406
 20
6.7222396075
 10
-6.8553900664
 20
6.7217383948
 10
-6.8380641307
 20
6.7202314338
 10
-6.8208160327
 20
6.7177169366
 10
-6.8036794472
 20
6.7141906253
 10
-6.7867399128
 20
6.7096606628
 10
-6.7701306954
 20
6.7041623778
 10
-6.7539447862
 20
6.6977374919
 10
-6.7381938343
 20
6.6904018047
 10
-6.7228862508
 20
6.6821618156
 10
-6.7080722426
 20
6.6730424344
 10
-6.6938045569
 20
6.6630739348
 10
-6.6801007614
 20
6.6522619805
 10
-6.6669776143
 20
6.6406031153
 10
-6.6545246759
 20
6.6281594072
 10
-6.6428578175
 20
6.6150467674
 10
-6.6320394494
 20
6.6013556525
 10
-6.6220651991
 20
6.5871023238
 10
-6.6129391664
 20
6.5723019817
 10
-6.6046913516
 20
6.5570064178
 10
-6.5973473155
 20
6.5412664882
 10
-6.590913796
 20
6.5250903961
 10
-6.5854063873
 20
6.5084885027
 10
-6.5808675264
 20
6.4915549166
 10
-6.5773335316
 20
6.4744265051
 10
-6.5748122957
 20
6.4571901225
 10
-6.5732987351
 20
6.4398782817
 10
-6.5727905931
 20
6.4225496588
  0
LWPOLYLINE
  5
500
100
AcDbEntity
  8
RACCORDO
100
AcDbPolyline
 62
7
  6
CONTINUOUS
 90
28
 70
0
 10
7.4272648594
 20
6.7222396075
 10
7.4446099336
 20
6.7217383948
 10
7.4619358693
 20
6.7202314338
 10
7.4791839673
 20
6.7177169366
 10
7.4963205528
 20
6.7141906253
 10
7.5132600872
 20
6.7096606628
 10
7.5298693046
 20
6.7041623778
 10
7.5460552138
 20
6.6977374919
 10
7.5618061657
 20
6.6904018047
 10
7.5771137492
 20
6.6821618156
 10
7.5919277574
 20
6.6730424344
 10
7.6061954431
 20
6.6630739348
 10
7.6198992386
 20
6.6522619805
 10
7.6330223857
 20
6.6406031153
 10
7.6454753241
 20
6.6281594072
 10
7.6571421825
 20
6.6150467674
 10
7.6679605506
 20
6.6013556525
 10
7.6779348009
 20
6.5871023238
 10
7.6870608336
 20
6.5723019817
 10
7.6953086484
 20
6.5570064178
 10
7.7026526845
 20
6.5412664882
 10
7.709086204
 20
6.5250903961
 10
7.7145936127
 20
6.5084885027
 10
7.7191324736
 20
6.4915549166
 10
7.7226664684
 20
6.4744265051
 10
7.7251877043
 20
6.4571901225
 10
7.7267012649
 20
6.4398782817
 10
7.7272094069
 20
6.4225496588
  0
LWPOLYLINE
  5
501
100
AcDbEntity
  8
RACCORDO
100
AcDbPolyline
 62
250
  6
CONTINUOUS
 90
25
 70
0
 10
-6.9278656034
 20
6.6671091447
 10
-6.9082717855
 20
6.6664443429
 10
-6.8887617414
 20
6.6645005095
 10
-6.8694188864
 20
6.6612859554
 10
-6.8503259215
 20
6.6568144245
 10
-6.8315644789
 20
6.6511050348
 10
-6.8132147734
 20
6.644182197
 10
-6.7953552596
 20
6.6360755098
 10
-6.7780622961
 20
6.6268196335
 10
-6.7614098193
 20
6.6164541417
 10
-6.7454690272
 20
6.6050233523
 10
-6.730308075
 20
6.5925761379
 10
-6.7159917834
 20
6.5791657166
 10
-6.7025813621
 20
6.564849425
 10
-6.6901341477
 20
6.5496884728
 10
-6.6787033583
 20
6.5337476807
 10
-6.6683378665
 20
6.5170952039
 10
-6.6590819902
 20
6.4998022404
 10
-6.650975303
 20
6.4819427266
 10
-6.6440524652
 20
6.4635930211
 10
-6.6383430755
 20
6.4448315785
 10
-6.6338715446
 20
6.4257386136
 10
-6.6306569905
 20
6.4063957586
 10
-6.6287131571
 20
6.3868857145
 10
-6.6280483553
 20
6.3672918966
  0
LWPOLYLINE
  5
502
100
AcDbEntity
  8
RACCORDO
100
AcDbPolyline
 62
250
  6
CONTINUOUS
 90
25
 70
0
 10
7.3721343966
 20
6.6671091447
 10
7.3917282145
 20
6.6664443429
 10
7.4112382586
 20
6.6645005095
 10
7.4305811136
 20
6.6612859554
 10
7.4496740785
 20
6.6568144245
 10
7.4684355211
 20
6.6511050348
 10
7.4867852266
 20
6.644182197
 10
7.5046447404
 20
6.6360755098
 10
7.5219377039
 20
6.6268196335
 10
7.5385901807
 20
6.6164541417
 10
7.5545309728
 20
6.6050233523
 10
7.569691925
 20
6.5925761379
 10
7.5840082166
 20
6.5791657166
 10
7.5974186379
 20
6.564849425
 10
7.6098658523
 20
6.5496884728
 10
7.6212966417
 20
6.5337476807
 10
7.6316621335
 20
6.5170952039
 10
7.6409180098
 20
6.4998022404
 10
7.649024697
 20
6.4819427266
 10
7.6559475348
 20
6.4635930211
 10
7.6616569245
 20
6.4448315785
 10
7.6661284554
 20
6.4257386136
 10
7.6693430095
 20
6.4063957586
 10
7.6712868429
 20
6.3868857145
 10
7.6719516447
 20
6.3672918966
  0
LWPOLYLINE
  5
503
100
AcDbEntity
  8
RACCORDO
100
AcDbPolyline
 62
7
  6
CONTINUOUS
 90
14
 70
0
 10
9.9941645387
 20
1.8166695684
 10
9.9935260686
 20
1.817119995
 10
9.9920654275
 20
1.8175656471
 10
9.9897826155
 20
1.8180065245
 10
9.9866556003
 20
1.8184451623
 10
9.9827064142
 20
1.8188790255
 10
9.9780011541
 20
1.8193005097
 10
9.9725491135
 20
1.819708015
 10
9.966340999
 20
1.8201031413
 10
9.9594150273
 20
1.8204830839
 10
9.9517424063
 20
1.8208488813
 10
9.9433519281
 20
1.821199495
 10
9.934368186
 20
1.8215290047
 10
9.914589205
 20
1.8221235878
  0
LINE
  5
504
100
AcDbEntity
  8
RACCORDO
100
AcDbLine
 62
7
  6
CONTINUOUS
 10
6.9278995621
 20
1.7952895037
 11
6.8996578398
 21
1.823531226
  0
LWPOLYLINE
  5
505
100
AcDbEntity
  8
RACCORDO
100
AcDbPolyline
 62
250
  6
CONTINUOUS
 90
13
 70
0
 10
-5.0847583025
 20
16.3834386841
 10
-5.0848590468
 20
16.383573497
 10
-5.0849587399
 20
16.3838705063
 10
-5.0850573818
 20
16.3843297119
 10
-5.0851553024
 20
16.3849536984
 10
-5.0852521719
 20
16.3857398813
 10
-5.0853470001
 20
16.3866805068
 10
-5.085439756
 20
16.3877770875
 10
-5.0855304707
 20
16.3890281107
 10
-5.0856182465
 20
16.3904212853
 10
-5.0857030544
 20
16.3919580387
 10
-5.0857849235
 20
16.3936369434
 10
-5.0858630433
 20
16.395441425
  0
LWPOLYLINE
  5
506
100
AcDbEntity
  8
RACCORDO
100
AcDbPolyline
 62
250
  6
CONTINUOUS
 90
8
 70
0
 10
7.3721346062
 20
-5.6487631062
 10
7.3717761956
 20
-5.6472162302
 10
7.3714212208
 20
-5.6443639522
 10
7.3710696817
 20
-5.6402136757
 10
7.370720697
 20
-5.6347762277
 10
7.3703751481
 20
-5.6280657759
 10
7.3700356789
 20
-5.6200997466
 10
7.3697022934
 20
-5.6108987381
  0
LINE
  5
507
100
AcDbEntity
  8
RACCORDO
100
AcDbLine
 62
250
  6
CONTINUOUS
 10
9.8528524568
 20
-20.1595218478
 11
9.8012490859
 21
-19.7965270808
  0
LINE
  5
508
100
AcDbEntity
  8
RACCORDO
100
AcDbLine
 62
250
  6
CONTINUOUS
 10
7.2350757323
 20
-2.721970245
 11
7.2358996389
 21
-2.7372806809
  0
LINE
  5
509
100
AcDbEntity
  8
RACCORDO
100
AcDbLine
 62
250
  6
CONTINUOUS
 10
7.3929558335
 20
3.7403168108
 11
7.3921319269
 21
3.7556272467
  0
LINE
  5
50A
100
AcDbEntity
  8
RACCORDO
100
AcDbLine
 62
250
  6
CONTINUOUS
 10
7.2335343451
 20
-2.6891359294
 11
7.2350757323
 21
-2.721970245
  0
LINE
  5
50B
100
AcDbEntity
  8
RACCORDO
100
AcDbLine
 62
250
  6
CONTINUOUS
 10
7.3944972207
 20
3.7074824952
 11
7.3929558335
 21
3.7403168108
  0
LINE
  5
50C
100
AcDbEntity
  8
RACCORDO
100
AcDbLine
 62
250
  6
CONTINUOUS
 10
6.9600587588
 20
6.3267204052
 11
6.960605581
 21
6.313515271
  0
LINE
  5
50D
100
AcDbEntity
  8
RACCORDO
100
AcDbLine
 62
250
  6
CONTINUOUS
 10
7.667972807
 20
-5.3083738394
 11
7.6674259848
 21
-5.2951687052
  0
LINE
  5
50E
100
AcDbEntity
  8
RACCORDO
100
AcDbLine
 62
250
  6
CONTINUOUS
 10
7.2321288772
 20
-2.6534101173
 11
7.2335343451
 21
-2.6891359294
  0
LINE
  5
50F
100
AcDbEntity
  8
RACCORDO
100
AcDbLine
 62
250
  6
CONTINUOUS
 10
7.3959026886
 20
3.6717566831
 11
7.3944972207
 21
3.7074824952
  0
LINE
  5
510
100
AcDbEntity
  8
RACCORDO
100
AcDbLine
 62
250
  6
CONTINUOUS
 10
7.2358995123
 20
-2.737280681
 11
7.2605919683
 21
-3.4443801077
  0
LINE
  5
511
100
AcDbEntity
  8
RACCORDO
100
AcDbLine
 62
250
  6
CONTINUOUS
 10
7.3921320535
 20
3.7556272467
 11
7.3674395974
 21
4.4627266735
  0
LINE
  5
512
100
AcDbEntity
  8
RACCORDO
100
AcDbLine
 62
250
  6
CONTINUOUS
 10
6.960605581
 20
6.313515271
 11
6.9611017958
 21
6.2987997319
  0
LINE
  5
513
100
AcDbEntity
  8
RACCORDO
100
AcDbLine
 62
250
  6
CONTINUOUS
 10
7.6674259848
 20
-5.2951687052
 11
7.66692977
 21
-5.2804531661
  0
LINE
  5
514
100
AcDbEntity
  8
RACCORDO
100
AcDbLine
 62
250
  6
CONTINUOUS
 10
7.2308931327
 20
-2.615236505
 11
7.2321288772
 21
-2.6534101173
  0
LINE
  5
515
100
AcDbEntity
  8
RACCORDO
100
AcDbLine
 62
250
  6
CONTINUOUS
 10
7.3971384331
 20
3.6335830707
 11
7.3959026886
 21
3.6717566831
  0
LINE
  5
516
100
AcDbEntity
  8
RACCORDO
100
AcDbLine
 62
250
  6
CONTINUOUS
 10
7.6935610548
 20
3.9175619922
 11
7.6668449308
 21
4.6877328764
  0
LINE
  5
517
100
AcDbEntity
  8
RACCORDO
100
AcDbLine
 62
250
  6
CONTINUOUS
 10
7.3697022934
 20
-5.6108987381
 11
7.3690563933
 21
-5.5888919085
  0
LINE
  5
518
100
AcDbEntity
  8
RACCORDO
100
AcDbLine
 62
250
  6
CONTINUOUS
 10
7.2583292724
 20
6.6292453039
 11
7.2589751724
 21
6.6072384743
  0
LINE
  5
519
100
AcDbEntity
  8
RACCORDO
100
AcDbLine
 62
250
  6
CONTINUOUS
 10
6.9611017958
 20
6.2987997319
 11
6.9615435115
 21
6.2826892861
  0
LINE
  5
51A
100
AcDbEntity
  8
RACCORDO
100
AcDbLine
 62
250
  6
CONTINUOUS
 10
7.66692977
 20
-5.2804531661
 11
7.6664880543
 21
-5.2643427203
  0
LINE
  5
51B
100
AcDbEntity
  8
RACCORDO
100
AcDbLine
 62
250
  6
CONTINUOUS
 10
7.695034283
 20
3.8627334029
 11
7.6935610548
 21
3.9175619922
  0
LINE
  5
51C
100
AcDbEntity
  8
RACCORDO
100
AcDbLine
 62
250
  6
CONTINUOUS
 10
7.6668449308
 20
4.6877328764
 11
7.6664746671
 21
4.7015520539
  0
LINE
  5
51D
100
AcDbEntity
  8
RACCORDO
100
AcDbLine
 62
250
  6
CONTINUOUS
 10
7.2298423442
 20
-2.5750175407
 11
7.2308931327
 21
-2.615236505
  0
LINE
  5
51E
100
AcDbEntity
  8
RACCORDO
100
AcDbLine
 62
250
  6
CONTINUOUS
 10
7.3981892216
 20
3.5933641065
 11
7.3971384331
 21
3.6335830707
  0
LINE
  5
51F
100
AcDbEntity
  8
RACCORDO
100
AcDbLine
 62
250
  6
CONTINUOUS
 10
7.3690563933
 20
-5.5888919085
 11
7.3684455403
 21
-5.5622778362
  0
LINE
  5
520
100
AcDbEntity
  8
RACCORDO
100
AcDbLine
 62
250
  6
CONTINUOUS
 10
7.2589751724
 20
6.6072384743
 11
7.2595860255
 21
6.5806244019
  0
LINE
  5
521
100
AcDbEntity
  8
RACCORDO
100
AcDbLine
 62
250
  6
CONTINUOUS
 10
6.9615435115
 20
6.2826892861
 11
6.9619252307
 21
6.2653682847
  0
LINE
  5
522
100
AcDbEntity
  8
RACCORDO
100
AcDbLine
 62
250
  6
CONTINUOUS
 10
7.6664880543
 20
-5.2643427203
 11
7.6661063351
 21
-5.2470217189
  0
LINE
  5
523
100
AcDbEntity
  8
RACCORDO
100
AcDbLine
 62
250
  6
CONTINUOUS
 10
7.6969554294
 20
3.7725192704
 11
7.695034283
 21
3.8627334029
  0
LINE
  5
524
100
AcDbEntity
  8
RACCORDO
100
AcDbLine
 62
250
  6
CONTINUOUS
 10
7.6664746671
 20
4.7015520539
 11
7.6660005604
 21
4.7239223184
  0
LINE
  5
525
100
AcDbEntity
  8
RACCORDO
100
AcDbLine
 62
250
  6
CONTINUOUS
 10
7.2289965979
 20
-2.5332950005
 11
7.2298423442
 21
-2.5750175407
  0
LINE
  5
526
100
AcDbEntity
  8
RACCORDO
100
AcDbLine
 62
250
  6
CONTINUOUS
 10
7.3990349679
 20
3.5516415663
 11
7.3981892216
 21
3.5933641065
  0
LINE
  5
527
100
AcDbEntity
  8
RACCORDO
100
AcDbLine
 62
250
  6
CONTINUOUS
 10
7.3684455403
 20
-5.5622778362
 11
7.3676087345
 21
-5.5143392492
  0
LINE
  5
528
100
AcDbEntity
  8
RACCORDO
100
AcDbLine
 62
250
  6
CONTINUOUS
 10
7.2595860255
 20
6.5806244019
 11
7.2604228313
 21
6.532685815
  0
LINE
  5
529
100
AcDbEntity
  8
RACCORDO
100
AcDbLine
 62
250
  6
CONTINUOUS
 10
6.9619252307
 20
6.2653682847
 11
6.9623769154
 21
6.2375349621
  0
LINE
  5
52A
100
AcDbEntity
  8
RACCORDO
100
AcDbLine
 62
250
  6
CONTINUOUS
 10
7.6661063351
 20
-5.2470217189
 11
7.6656546504
 21
-5.2191883963
  0
LINE
  5
52B
100
AcDbEntity
  8
RACCORDO
100
AcDbLine
 62
250
  6
CONTINUOUS
 10
7.6660005604
 20
4.7239223184
 11
7.665632471
 21
4.7478761393
  0
LINE
  5
52C
100
AcDbEntity
  8
RACCORDO
100
AcDbLine
 62
250
  6
CONTINUOUS
 10
7.2283637011
 20
-2.4906595016
 11
7.2289965979
 21
-2.5332950005
  0
LINE
  5
52D
100
AcDbEntity
  8
RACCORDO
100
AcDbLine
 62
250
  6
CONTINUOUS
 10
7.3996678647
 20
3.5090060674
 11
7.3990349679
 21
3.5516415663
  0
LINE
  5
52E
100
AcDbEntity
  8
RACCORDO
100
AcDbLine
 62
250
  6
CONTINUOUS
 10
7.6984547345
 20
3.6750462659
 11
7.6969554294
 21
3.7725192704
  0
LINE
  5
52F
100
AcDbEntity
  8
RACCORDO
100
AcDbLine
 62
250
  6
CONTINUOUS
 10
7.3676087345
 20
-5.5143392492
 11
7.3666708618
 21
-5.4372673258
  0
LINE
  5
530
100
AcDbEntity
  8
RACCORDO
100
AcDbLine
 62
250
  6
CONTINUOUS
 10
7.2604228313
 20
6.532685815
 11
7.261360704
 21
6.4556138916
  0
LINE
  5
531
100
AcDbEntity
  8
RACCORDO
100
AcDbLine
 62
250
  6
CONTINUOUS
 10
7.2605919683
 20
-3.4443801077
 11
7.2615437683
 21
-3.52927825
  0
LINE
  5
532
100
AcDbEntity
  8
RACCORDO
100
AcDbLine
 62
250
  6
CONTINUOUS
 10
7.3674395974
 20
4.4627266735
 11
7.3664877975
 21
4.5476248158
  0
LINE
  5
533
100
AcDbEntity
  8
RACCORDO
100
AcDbLine
 62
250
  6
CONTINUOUS
 10
7.665632471
 20
4.7478761393
 11
7.6653767753
 21
4.7729989609
  0
LINE
  5
534
100
AcDbEntity
  8
RACCORDO
100
AcDbLine
 62
250
  6
CONTINUOUS
 10
7.2279460013
 20
-2.4476362318
 11
7.2283637011
 21
-2.4906595016
  0
LINE
  5
535
100
AcDbEntity
  8
RACCORDO
100
AcDbLine
 62
250
  6
CONTINUOUS
 10
7.4000855645
 20
3.4659827976
 11
7.3996678647
 21
3.5090060674
  0
LINE
  5
536
100
AcDbEntity
  8
RACCORDO
100
AcDbLine
 62
250
  6
CONTINUOUS
 10
7.6994852774
 20
3.5731671412
 11
7.6984547345
 21
3.6750462659
  0
LINE
  5
537
100
AcDbEntity
  8
RACCORDO
100
AcDbLine
 62
250
  6
CONTINUOUS
 10
6.9623769154
 20
6.2375349621
 11
6.9626745514
 21
6.2080520728
  0
LINE
  5
538
100
AcDbEntity
  8
RACCORDO
100
AcDbLine
 62
250
  6
CONTINUOUS
 10
7.6656546504
 20
-5.2191883963
 11
7.6653570143
 21
-5.189705507
  0
LINE
  5
539
100
AcDbEntity
  8
RACCORDO
100
AcDbLine
 62
250
  6
CONTINUOUS
 10
7.261360704
 20
6.4556138916
 11
7.2621940982
 21
6.3427641928
  0
LINE
  5
53A
100
AcDbEntity
  8
RACCORDO
100
AcDbLine
 62
250
  6
CONTINUOUS
 10
7.3666708618
 20
-5.4372673258
 11
7.3658374676
 21
-5.324417627
  0
LINE
  5
53B
100
AcDbEntity
  8
RACCORDO
100
AcDbLine
 62
250
  6
CONTINUOUS
 10
7.2615437683
 20
-3.52927825
 11
7.2623144198
 21
-3.6475894176
  0
LINE
  5
53C
100
AcDbEntity
  8
RACCORDO
100
AcDbLine
 62
250
  6
CONTINUOUS
 10
7.3664877975
 20
4.5476248158
 11
7.3657171459
 21
4.6659359834
  0
LINE
  5
53D
100
AcDbEntity
  8
RACCORDO
100
AcDbLine
 62
250
  6
CONTINUOUS
 10
7.6653767753
 20
4.7729989609
 11
7.6652378595
 21
4.7988373479
  0
LINE
  5
53E
100
AcDbEntity
  8
RACCORDO
100
AcDbLine
 62
250
  6
CONTINUOUS
 10
7.7000323714
 20
3.4701292298
 11
7.6994852774
 21
3.5731671412
  0
LINE
  5
53F
100
AcDbEntity
  8
RACCORDO
100
AcDbLine
 62
250
  6
CONTINUOUS
 10
7.2277401255
 20
-2.4048927489
 11
7.2279460013
 21
-2.4476362318
  0
LINE
  5
540
100
AcDbEntity
  8
RACCORDO
100
AcDbLine
 62
250
  6
CONTINUOUS
 10
7.4002914403
 20
3.4232393147
 11
7.4000855645
 21
3.4659827976
  0
LINE
  5
541
100
AcDbEntity
  8
RACCORDO
100
AcDbLine
 62
250
  6
CONTINUOUS
 10
7.6653570143
 20
-5.189705507
 11
7.665220542
 21
-5.1593362944
  0
LINE
  5
542
100
AcDbEntity
  8
RACCORDO
100
AcDbLine
 62
250
  6
CONTINUOUS
 10
7.2621940982
 20
6.3427641928
 11
7.2626282562
 21
6.1929814095
  0
LINE
  5
543
100
AcDbEntity
  8
RACCORDO
100
AcDbLine
 62
250
  6
CONTINUOUS
 10
7.3658374676
 20
-5.324417627
 11
7.3654033096
 21
-5.1746348438
  0
LINE
  5
544
100
AcDbEntity
  8
RACCORDO
100
AcDbLine
 62
250
  6
CONTINUOUS
 10
7.2277168102
 20
-0.7668323223
 11
7.2277401255
 21
-2.4048927489
  0
LINE
  5
545
100
AcDbEntity
  8
RACCORDO
100
AcDbLine
 62
250
  6
CONTINUOUS
 10
7.2626282562
 20
6.1929814095
 11
7.2626375797
 21
4.8162800641
  0
LINE
  5
546
100
AcDbEntity
  8
RACCORDO
100
AcDbLine
 62
250
  6
CONTINUOUS
 10
7.2623144198
 20
-3.6475894176
 11
7.2626375797
 21
-5.1490517048
  0
LINE
  5
547
100
AcDbEntity
  8
RACCORDO
100
AcDbLine
 62
250
  6
CONTINUOUS
 10
7.3654033096
 20
-5.1746348438
 11
7.3653939861
 21
-3.7979334983
  0
LINE
  5
548
100
AcDbEntity
  8
RACCORDO
100
AcDbLine
 62
250
  6
CONTINUOUS
 10
7.3657171459
 20
4.6659359834
 11
7.3653939861
 21
6.1673982706
  0
LINE
  5
549
100
AcDbEntity
  8
RACCORDO
100
AcDbLine
 62
250
  6
CONTINUOUS
 10
7.4003147556
 20
1.7851788881
 11
7.4002914403
 21
3.4232393147
  0
LINE
  5
54A
100
AcDbEntity
  8
RACCORDO
100
AcDbLine
 62
250
  6
CONTINUOUS
 10
7.4485457291
 20
22.6314120527
 11
7.4485457291
 21
21.0749964415
  0
LINE
  5
54B
100
AcDbEntity
  8
RACCORDO
100
AcDbLine
 62
250
  6
CONTINUOUS
 10
7.4485457291
 20
-20.0566498758
 11
7.4485457291
 21
-21.6130654869
  0
LINE
  5
54C
100
AcDbEntity
  8
RACCORDO
100
AcDbLine
 62
250
  6
CONTINUOUS
 10
7.6217508098
 20
22.6366528306
 11
7.6217508098
 21
21.0872748976
  0
LINE
  5
54D
100
AcDbEntity
  8
RACCORDO
100
AcDbLine
 62
250
  6
CONTINUOUS
 10
7.6217508098
 20
-20.0689283318
 11
7.6217508098
 21
-21.6183062648
  0
LINE
  5
54E
100
AcDbEntity
  8
RACCORDO
100
AcDbLine
 62
250
  6
CONTINUOUS
 10
7.665220542
 20
-5.1593362944
 11
7.6652112342
 21
-3.7979334983
  0
LINE
  5
54F
100
AcDbEntity
  8
RACCORDO
100
AcDbLine
 62
250
  6
CONTINUOUS
 10
7.6652378595
 20
4.7988373479
 11
7.6652112342
 21
6.1674137312
  0
LINE
  5
550
100
AcDbEntity
  8
RACCORDO
100
AcDbLine
 62
250
  6
CONTINUOUS
 10
7.7001320037
 20
1.7952895037
 11
7.7000323714
 21
3.4701292298
  0
LINE
  5
551
100
AcDbEntity
  8
RACCORDO
100
AcDbLine
 62
250
  6
CONTINUOUS
 10
7.2278165355
 20
3.4445618578
 11
7.2277168102
 21
1.7851788881
  0
LINE
  5
552
100
AcDbEntity
  8
RACCORDO
100
AcDbLine
 62
250
  6
CONTINUOUS
 10
7.4002150303
 20
-2.426215292
 11
7.4003147556
 21
-0.7668323223
  0
LINE
  5
553
100
AcDbEntity
  8
RACCORDO
100
AcDbLine
 62
250
  6
CONTINUOUS
 10
7.6652112342
 20
-3.7979334983
 11
7.6652709235
 21
-3.7718412252
  0
LINE
  5
554
100
AcDbEntity
  8
RACCORDO
100
AcDbLine
 62
250
  6
CONTINUOUS
 10
7.6999029457
 20
-2.4859557006
 11
7.7001320037
 21
-0.7769429379
  0
LINE
  5
555
100
AcDbEntity
  8
RACCORDO
100
AcDbLine
 62
250
  6
CONTINUOUS
 10
7.2626375962
 20
-5.1490517048
 11
7.2623108365
 21
-5.3002249679
  0
LINE
  5
556
100
AcDbEntity
  8
RACCORDO
100
AcDbLine
 62
250
  6
CONTINUOUS
 10
7.3653939696
 20
6.1673982706
 11
7.3657207293
 21
6.3185715337
  0
LINE
  5
557
100
AcDbEntity
  8
RACCORDO
100
AcDbLine
 62
250
  6
CONTINUOUS
 10
7.2626375797
 20
4.8162800641
 11
7.2623144198
 21
4.665935983
  0
LINE
  5
558
100
AcDbEntity
  8
RACCORDO
100
AcDbLine
 62
250
  6
CONTINUOUS
 10
7.3653939861
 20
-3.7979334983
 11
7.3657171459
 21
-3.6475894172
  0
LINE
  5
559
100
AcDbEntity
  8
RACCORDO
100
AcDbLine
 62
250
  6
CONTINUOUS
 10
7.6652112342
 20
6.1674137312
 11
7.6652933263
 21
6.1979886613
  0
LINE
  5
55A
100
AcDbEntity
  8
RACCORDO
100
AcDbLine
 62
250
  6
CONTINUOUS
 10
7.2623108365
 20
-5.3002249679
 11
7.2615590186
 21
-5.4159796607
  0
LINE
  5
55B
100
AcDbEntity
  8
RACCORDO
100
AcDbLine
 62
250
  6
CONTINUOUS
 10
7.3657207293
 20
6.3185715337
 11
7.3664725472
 21
6.4343262265
  0
LINE
  5
55C
100
AcDbEntity
  8
RACCORDO
100
AcDbLine
 62
250
  6
CONTINUOUS
 10
7.2281283234
 20
3.4874885779
 11
7.2278165355
 21
3.4445618578
  0
LINE
  5
55D
100
AcDbEntity
  8
RACCORDO
100
AcDbLine
 62
250
  6
CONTINUOUS
 10
7.2623144198
 20
4.665935983
 11
7.2615437683
 21
4.5476248154
  0
LINE
  5
55E
100
AcDbEntity
  8
RACCORDO
100
AcDbLine
 62
250
  6
CONTINUOUS
 10
7.3657171459
 20
-3.6475894172
 11
7.3664877975
 21
-3.5292782496
  0
LINE
  5
55F
100
AcDbEntity
  8
RACCORDO
100
AcDbLine
 62
250
  6
CONTINUOUS
 10
7.3999032424
 20
-2.4691420121
 11
7.4002150303
 21
-2.426215292
  0
LINE
  5
560
100
AcDbEntity
  8
RACCORDO
100
AcDbLine
 62
250
  6
CONTINUOUS
 10
7.6652709235
 20
-3.7718412252
 11
7.6654491208
 21
-3.7461797597
  0
LINE
  5
561
100
AcDbEntity
  8
RACCORDO
100
AcDbLine
 62
250
  6
CONTINUOUS
 10
7.6991962304
 20
-2.5890415732
 11
7.6999029457
 21
-2.4859557006
  0
LINE
  5
562
100
AcDbEntity
  8
RACCORDO
100
AcDbLine
 62
250
  6
CONTINUOUS
 10
7.6652933263
 20
6.1979886613
 11
7.6655379245
 21
6.2278662203
  0
LINE
  5
563
100
AcDbEntity
  8
RACCORDO
100
AcDbLine
 62
250
  6
CONTINUOUS
 10
6.9626745514
 20
-5.1897055071
 11
6.9623769154
 21
-5.2191883964
  0
LINE
  5
564
100
AcDbEntity
  8
RACCORDO
100
AcDbLine
 62
250
  6
CONTINUOUS
 10
7.3664725472
 20
6.4343262265
 11
7.3673540161
 21
6.5147331113
  0
LINE
  5
565
100
AcDbEntity
  8
RACCORDO
100
AcDbLine
 62
250
  6
CONTINUOUS
 10
7.2615590186
 20
-5.4159796607
 11
7.2606775497
 21
-5.4963865455
  0
LINE
  5
566
100
AcDbEntity
  8
RACCORDO
100
AcDbLine
 62
250
  6
CONTINUOUS
 10
7.2615437683
 20
4.5476248154
 11
7.2605919683
 21
4.4627266735
  0
LINE
  5
567
100
AcDbEntity
  8
RACCORDO
100
AcDbLine
 62
250
  6
CONTINUOUS
 10
7.3664877975
 20
-3.5292782496
 11
7.3674395974
 21
-3.4443801077
  0
LINE
  5
568
100
AcDbEntity
  8
RACCORDO
100
AcDbLine
 62
250
  6
CONTINUOUS
 10
7.2286527323
 20
3.5304049806
 11
7.2281283234
 21
3.4874885779
  0
LINE
  5
569
100
AcDbEntity
  8
RACCORDO
100
AcDbLine
 62
250
  6
CONTINUOUS
 10
7.3993788335
 20
-2.5120584149
 11
7.3999032424
 21
-2.4691420121
  0
LINE
  5
56A
100
AcDbEntity
  8
RACCORDO
100
AcDbLine
 62
250
  6
CONTINUOUS
 10
7.6654491208
 20
-3.7461797597
 11
7.665742841
 21
-3.7213989094
  0
LINE
  5
56B
100
AcDbEntity
  8
RACCORDO
100
AcDbLine
 62
250
  6
CONTINUOUS
 10
7.6980064264
 20
-2.6897995469
 11
7.6991962304
 21
-2.5890415732
  0
LINE
  5
56C
100
AcDbEntity
  8
RACCORDO
100
AcDbLine
 62
250
  6
CONTINUOUS
 10
7.6655379245
 20
6.2278662203
 11
7.665939317
 21
6.25632444
  0
LINE
  5
56D
100
AcDbEntity
  8
RACCORDO
100
AcDbLine
 62
250
  6
CONTINUOUS
 10
7.3673540161
 20
6.5147331113
 11
7.3681555123
 21
6.5656747712
  0
LINE
  5
56E
100
AcDbEntity
  8
RACCORDO
100
AcDbLine
 62
250
  6
CONTINUOUS
 10
7.2606775497
 20
-5.4963865455
 11
7.2598760535
 21
-5.5473282054
  0
LINE
  5
56F
100
AcDbEntity
  8
RACCORDO
100
AcDbLine
 62
250
  6
CONTINUOUS
 10
6.9623769154
 20
-5.2191883964
 11
6.9619252307
 21
-5.247021719
  0
LINE
  5
570
100
AcDbEntity
  8
RACCORDO
100
AcDbLine
 62
250
  6
CONTINUOUS
 10
7.2293941168
 20
3.5726704313
 11
7.2286527323
 21
3.5304049806
  0
LINE
  5
571
100
AcDbEntity
  8
RACCORDO
100
AcDbLine
 62
250
  6
CONTINUOUS
 10
7.398637449
 20
-2.5543238656
 11
7.3993788335
 21
-2.5120584149
  0
LINE
  5
572
100
AcDbEntity
  8
RACCORDO
100
AcDbLine
 62
250
  6
CONTINUOUS
 10
7.665742841
 20
-3.7213989094
 11
7.6661470533
 21
-3.6979276154
  0
LINE
  5
573
100
AcDbEntity
  8
RACCORDO
100
AcDbLine
 62
250
  6
CONTINUOUS
 10
7.6963601244
 20
-2.785158585
 11
7.6980064264
 21
-2.6897995469
  0
LINE
  5
574
100
AcDbEntity
  8
RACCORDO
100
AcDbLine
 62
250
  6
CONTINUOUS
 10
7.665939317
 20
6.25632444
 11
7.6662897248
 21
6.2741795324
  0
LINE
  5
575
100
AcDbEntity
  8
RACCORDO
100
AcDbLine
 62
250
  6
CONTINUOUS
 10
7.3681555123
 20
6.5656747712
 11
7.368746611
 21
6.5944910367
  0
LINE
  5
576
100
AcDbEntity
  8
RACCORDO
100
AcDbLine
 62
250
  6
CONTINUOUS
 10
7.2598760535
 20
-5.5473282054
 11
7.2592849548
 21
-5.5761444709
  0
LINE
  5
577
100
AcDbEntity
  8
RACCORDO
100
AcDbLine
 62
250
  6
CONTINUOUS
 10
6.9619252307
 20
-5.247021719
 11
6.9615435115
 21
-5.2643427204
  0
LINE
  5
578
100
AcDbEntity
  8
RACCORDO
100
AcDbLine
 62
250
  6
CONTINUOUS
 10
7.6661470533
 20
-3.6979276154
 11
7.6664746671
 21
-3.6832054879
  0
LINE
  5
579
100
AcDbEntity
  8
RACCORDO
100
AcDbLine
 62
250
  6
CONTINUOUS
 10
7.695034283
 20
-2.8443868383
 11
7.6963601244
 21
-2.785158585
  0
LINE
  5
57A
100
AcDbEntity
  8
RACCORDO
100
AcDbLine
 62
250
  6
CONTINUOUS
 10
7.2303423843
 20
3.6136816651
 11
7.2293941168
 21
3.5726704313
  0
LINE
  5
57B
100
AcDbEntity
  8
RACCORDO
100
AcDbLine
 62
250
  6
CONTINUOUS
 10
7.3976891815
 20
-2.5953350993
 11
7.398637449
 21
-2.5543238656
  0
LINE
  5
57C
100
AcDbEntity
  8
RACCORDO
100
AcDbLine
 62
250
  6
CONTINUOUS
 10
7.6662897248
 20
6.2741795324
 11
7.6667014423
 21
6.290895256
  0
LWPOLYLINE
  5
57D
100
AcDbEntity
  8
RACCORDO
100
AcDbPolyline
 62
250
  6
CONTINUOUS
 90
10
 70
0
 10
7.368746611
 20
6.5944910367
 10
7.3693749876
 20
6.6188334572
 10
7.3697022934
 20
6.6292453041
 10
7.3700356789
 20
6.6384463125
 10
7.3703751481
 20
6.6464123417
 10
7.370720697
 20
6.6531227936
 10
7.3710696817
 20
6.6585602415
 10
7.3714212208
 20
6.662710518
 10
7.3717761956
 20
6.665562796
 10
7.3721346062
 20
6.667109672
  0
LWPOLYLINE
  5
57E
100
AcDbEntity
  8
RACCORDO
100
AcDbPolyline
 62
250
  6
CONTINUOUS
 90
10
 70
0
 10
7.2592849548
 20
-5.5761444709
 10
7.2586565782
 20
-5.6004868914
 10
7.2583292724
 20
-5.6108987383
 10
7.2579958869
 20
-5.6200997467
 10
7.2576564177
 20
-5.6280657759
 10
7.2573108688
 20
-5.6347762278
 10
7.2569618841
 20
-5.6402136757
 10
7.256610345
 20
-5.6443639522
 10
7.2562553702
 20
-5.6472162302
 10
7.2558969596
 20
-5.6487631062
  0
LINE
  5
57F
100
AcDbEntity
  8
RACCORDO
100
AcDbLine
 62
250
  6
CONTINUOUS
 10
7.6664746671
 20
-3.6832054879
 11
7.6668449308
 21
-3.6693863105
  0
LINE
  5
580
100
AcDbEntity
  8
RACCORDO
100
AcDbLine
 62
250
  6
CONTINUOUS
 10
7.6935610548
 20
-2.8992154284
 11
7.695034283
 21
-2.8443868383
  0
LINE
  5
581
100
AcDbEntity
  8
RACCORDO
100
AcDbLine
 62
250
  6
CONTINUOUS
 10
6.9615435115
 20
-5.2643427204
 11
6.9611017958
 21
-5.2804531662
  0
LWPOLYLINE
  5
582
100
AcDbEntity
  8
RACCORDO
100
AcDbPolyline
 62
7
  6
CONTINUOUS
 90
28
 70
0
 10
7.7272094069
 20
-5.404203093
 10
7.7267012649
 20
-5.4215317159
 10
7.7251877043
 20
-5.4388435567
 10
7.7226664684
 20
-5.4560799393
 10
7.7191324736
 20
-5.4732083508
 10
7.7145936127
 20
-5.4901419369
 10
7.709086204
 20
-5.5067438303
 10
7.7026526845
 20
-5.5229199225
 10
7.6953086484
 20
-5.5386598521
 10
7.6870608336
 20
-5.5539554159
 10
7.6779348009
 20
-5.568755758
 10
7.6679605506
 20
-5.5830090867
 10
7.6571421825
 20
-5.5967002016
 10
7.6454753241
 20
-5.6098128414
 10
7.6330223857
 20
-5.6222565495
 10
7.6198992386
 20
-5.6339154148
 10
7.6061954431
 20
-5.644727369
 10
7.5919277574
 20
-5.6546958686
 10
7.5771137492
 20
-5.6638152498
 10
7.5618061657
 20
-5.6720552389
 10
7.5460552138
 20
-5.6793909261
 10
7.5298693046
 20
-5.685815812
 10
7.5132600872
 20
-5.691314097
 10
7.4963205528
 20
-5.6958440595
 10
7.4791839673
 20
-5.6993703708
 10
7.4619358693
 20
-5.701884868
 10
7.4446099336
 20
-5.703391829
 10
7.4272648594
 20
-5.7038930417
  0
LINE
  5
583
100
AcDbEntity
  8
RACCORDO
100
AcDbLine
 62
250
  6
CONTINUOUS
 10
7.2314883291
 20
3.6529522556
 11
7.2303423843
 21
3.6136816651
  0
LINE
  5
584
100
AcDbEntity
  8
RACCORDO
100
AcDbLine
 62
250
  6
CONTINUOUS
 10
7.3965432367
 20
-2.6346056898
 11
7.3976891815
 21
-2.5953350993
  0
LINE
  5
585
100
AcDbEntity
  8
RACCORDO
100
AcDbLine
 62
250
  6
CONTINUOUS
 10
7.6667014423
 20
6.290895256
 11
7.6671712492
 21
6.3063406876
  0
LINE
  5
586
100
AcDbEntity
  8
RACCORDO
100
AcDbLine
 62
250
  6
CONTINUOUS
 10
7.6919495585
 20
-2.9494053609
 11
7.6935610548
 21
-2.8992154284
  0
LINE
  5
587
100
AcDbEntity
  8
RACCORDO
100
AcDbLine
 62
250
  6
CONTINUOUS
 10
7.2605919683
 20
4.4627266735
 11
7.2358995124
 21
3.7556272502
  0
LINE
  5
588
100
AcDbEntity
  8
RACCORDO
100
AcDbLine
 62
250
  6
CONTINUOUS
 10
7.3674395974
 20
-3.4443801077
 11
7.3921320534
 21
-2.7372806844
  0
LINE
  5
589
100
AcDbEntity
  8
RACCORDO
100
AcDbLine
 62
250
  6
CONTINUOUS
 10
7.6668449308
 20
-3.6693863105
 11
7.6919495585
 21
-2.9494053609
  0
LINE
  5
58A
100
AcDbEntity
  8
RACCORDO
100
AcDbLine
 62
250
  6
CONTINUOUS
 10
6.9611017958
 20
-5.2804531662
 11
6.960605581
 21
-5.2951687053
  0
LINE
  5
58B
100
AcDbEntity
  8
RACCORDO
100
AcDbLine
 62
250
  6
CONTINUOUS
 10
7.2328138733
 20
3.6899661511
 11
7.2314883291
 21
3.6529522556
  0
LINE
  5
58C
100
AcDbEntity
  8
RACCORDO
100
AcDbLine
 62
250
  6
CONTINUOUS
 10
7.3952176925
 20
-2.6716195853
 11
7.3965432367
 21
-2.6346056898
  0
LWPOLYLINE
  5
58D
100
AcDbEntity
  8
RACCORDO
100
AcDbPolyline
 62
250
  6
CONTINUOUS
 90
15
 70
0
 10
7.6671712492
 20
6.3063406876
 10
7.6676938718
 20
6.3203263342
 10
7.667972807
 20
6.3267204053
 10
7.6682628741
 20
6.3326941405
 10
7.6685639893
 20
6.3382508837
 10
7.6688737982
 20
6.343347195
 10
7.669192375
 20
6.3479794999
 10
7.6695196455
 20
6.3521513728
 10
7.669853032
 20
6.3558300969
 10
7.6701926011
 20
6.3590117658
 10
7.6705382863
 20
6.3617002858
 10
7.670887311
 20
6.3638746587
 10
7.6712387495
 20
6.3655278851
 10
7.6715935274
 20
6.3666669644
 10
7.6719516447
 20
6.3672918966
  0
LWPOLYLINE
  5
58E
100
AcDbEntity
  8
RACCORDO
100
AcDbPolyline
 62
250
  6
CONTINUOUS
 90
14
 70
0
 10
6.960605581
 20
-5.2951687053
 10
6.9600587588
 20
-5.3083738395
 10
6.9597686917
 20
-5.3143475747
 10
6.9594675765
 20
-5.319904318
 10
6.9591577676
 20
-5.3250006292
 10
6.9588391908
 20
-5.3296329341
 10
6.9585119203
 20
-5.3338048071
 10
6.9581785338
 20
-5.3374835311
 10
6.9578389647
 20
-5.3406652
 10
6.9574932794
 20
-5.34335372
 10
6.9571442548
 20
-5.345528093
 10
6.9567928163
 20
-5.3471813193
 10
6.9564380384
 20
-5.3483203986
 10
6.9560799211
 20
-5.3489453308
  0
LWPOLYLINE
  5
58F
100
AcDbEntity
  8
RACCORDO
100
AcDbPolyline
 62
250
  6
CONTINUOUS
 90
4
 70
0
 10
7.2358996391
 20
3.7556272501
 10
7.2350757322
 20
3.7403168132
 10
7.2342873008
 20
3.7242637267
 10
7.2328138733
 20
3.6899661511
  0
LWPOLYLINE
  5
590
100
AcDbEntity
  8
RACCORDO
100
AcDbPolyline
 62
250
  6
CONTINUOUS
 90
4
 70
0
 10
7.3921319267
 20
-2.7372806843
 10
7.3929558336
 20
-2.7219702474
 10
7.393744265
 20
-2.7059171609
 10
7.3952176925
 20
-2.6716195853
  0
LINE
  5
591
100
AcDbEntity
  8
RACCORDO
100
AcDbLine
 62
250
  6
CONTINUOUS
 10
10.0012186258
 20
20.6163644221
 11
10.0527612747
 21
20.9789320513
  0
LWPOLYLINE
  5
592
100
AcDbEntity
  8
RACCORDO
100
AcDbPolyline
 62
250
  6
CONTINUOUS
 90
8
 70
0
 10
7.2558969596
 20
6.667109672
 10
7.2562553702
 20
6.6655627959
 10
7.256610345
 20
6.662710518
 10
7.2569618841
 20
6.6585602415
 10
7.2573108688
 20
6.6531227935
 10
7.2576564177
 20
6.6464123416
 10
7.2579958869
 20
6.6384463124
 10
7.2583292724
 20
6.6292453039
  0
LINE
  5
593
100
AcDbEntity
  8
RACCORDO
100
AcDbLine
 62
250
  6
CONTINUOUS
 10
10.0527612747
 20
-19.9605854855
 11
10.0012186258
 21
-19.5980178563
  0
LWPOLYLINE
  5
594
100
AcDbEntity
  8
RACCORDO
100
AcDbPolyline
 62
250
  6
CONTINUOUS
 90
5
 70
0
 10
5.8653940666
 20
16.1334765315
 10
5.8652932424
 20
16.1342728316
 10
5.8651935152
 20
16.1360587996
 10
5.865094885
 20
16.1388287529
 10
5.8649970571
 20
16.1425738493
  0
LINE
  5
595
100
AcDbEntity
  8
DRAFT
100
AcDbLine
 62
7
  6
CONTINUOUS
 10
7.9724407759
 20
22.6684859886
 11
8.0477342597
 21
21.1778684136
  0
LINE
  5
596
100
AcDbEntity
  8
RACCORDO
100
AcDbLine
 62
7
  6
CONTINUOUS
 10
10.0527612747
 20
20.9789320513
 11
10.0640157829
 21
13.6091732829
  0
LINE
  5
597
100
AcDbEntity
  8
RACCORDO
100
AcDbLine
 62
250
  6
CONTINUOUS
 10
10.0012186258
 20
-19.5980178563
 11
9.9986772447
 21
-15.5934839244
  0
LINE
  5
598
100
AcDbEntity
  8
RACCORDO
100
AcDbLine
 62
250
  6
CONTINUOUS
 10
9.9986772447
 20
-15.5934839244
 11
9.9976173744
 21
-13.5908267171
  0
LINE
  5
599
100
AcDbEntity
  8
RACCORDO
100
AcDbLine
 62
250
  6
CONTINUOUS
 10
9.7960218906
 20
-9.7908267171
 11
9.7947553303
 21
-5.2983767854
  0
LINE
  5
59A
100
AcDbEntity
  8
RACCORDO
100
AcDbLine
 62
250
  6
CONTINUOUS
 10
9.9959929206
 20
-9.7908267171
 11
9.9947246458
 21
-5.2949475027
  0
LINE
  5
59B
100
AcDbEntity
  8
0
100
AcDbLine
 62
7
  6
CONTINUOUS
 10
9.6640157829
 20
14.6091732829
 11
9.6640157829
 21
10.8091732829
  0
LINE
  5
59C
100
AcDbEntity
  8
0
100
AcDbLine
 62
7
  6
CONTINUOUS
 10
9.6640157829
 20
-13.5908267171
 11
9.6640157829
 21
-9.7908267171
  0
LINE
  5
59D
100
AcDbEntity
  8
RACCORDO
100
AcDbLine
 62
250
  6
CONTINUOUS
 10
9.7947553303
 20
-5.2983767854
 11
9.7941952905
 21
-0.8051846602
  0
LINE
  5
59E
100
AcDbEntity
  8
RACCORDO
100
AcDbLine
 62
250
  6
CONTINUOUS
 10
9.8012490859
 20
-19.7965270808
 11
9.7976450408
 21
-13.5908267171
  0
LINE
  5
59F
100
AcDbEntity
  8
RACCORDO
100
AcDbLine
 62
250
  6
CONTINUOUS
 10
9.9947246458
 20
-5.2949475027
 11
9.9941645387
 21
-0.7983230027
  0
LINE
  5
5A0
100
AcDbEntity
  8
DRAFT
100
AcDbLine
 62
7
  6
CONTINUOUS
 10
10.0099050816
 20
0.3821199927
 11
10.0099050816
 21
-0.7668323223
  0
LINE
  5
5A1
100
AcDbEntity
  8
DRAFT
100
AcDbLine
 62
7
  6
CONTINUOUS
 10
10.0099050816
 20
0.636226573
 11
10.0099050816
 21
1.7851788881
  0
LINE
  5
5A2
100
AcDbEntity
  8
DRAFT
100
AcDbLine
 62
7
  6
CONTINUOUS
 10
10.0471388838
 20
14.6091732829
 11
10.0471388838
 21
10.8091732829
  0
LINE
  5
5A3
100
AcDbEntity
  8
DRAFT
100
AcDbLine
 62
7
  6
CONTINUOUS
 10
10.0471388838
 20
-13.5908267171
 11
10.0471388838
 21
-9.7908267171
  0
LINE
  5
5A4
100
AcDbEntity
  8
DRAFT
100
AcDbLine
 62
7
  6
CONTINUOUS
 10
10.0640157829
 20
0.4091732829
 11
10.0640157829
 21
-12.5908267171
  0
LINE
  5
5A5
100
AcDbEntity
  8
DRAFT
100
AcDbLine
 62
7
  6
CONTINUOUS
 10
10.0640157829
 20
0.6091732829
 11
10.0640157829
 21
13.6091732829
  0
LINE
  5
5A6
100
AcDbEntity
  8
RACCORDO
100
AcDbLine
 62
250
  6
CONTINUOUS
 10
9.7941952905
 20
1.823531226
 11
9.7960218906
 21
10.8091732829
  0
LINE
  5
5A7
100
AcDbEntity
  8
RACCORDO
100
AcDbLine
 62
250
  6
CONTINUOUS
 10
9.9941645387
 20
1.8166695684
 11
9.9959929206
 21
10.8091732829
  0
LINE
  5
5A8
100
AcDbEntity
  8
RACCORDO
100
AcDbLine
 62
250
  6
CONTINUOUS
 10
9.7976450408
 20
14.6091732829
 11
9.8012490859
 21
20.8148736466
  0
LINE
  5
5A9
100
AcDbEntity
  8
RACCORDO
100
AcDbLine
 62
250
  6
CONTINUOUS
 10
9.9976173744
 20
14.6091732829
 11
10.0012186258
 21
20.6163644221
  0
LINE
  5
5AA
100
AcDbEntity
  8
RACCORDO
100
AcDbLine
 62
7
  6
CONTINUOUS
 10
10.0527612747
 20
-19.9605854855
 11
10.0640157829
 21
-12.5908267171
  0
LINE
  5
5AB
100
AcDbEntity
  8
DRAFT
100
AcDbLine
 62
7
  6
CONTINUOUS
 10
7.9724407759
 20
-21.6501394228
 11
8.0477342597
 21
-20.1595218478
  0
LINE
  5
5AC
100
AcDbEntity
  8
RACCORDO
100
AcDbLine
 62
250
  6
CONTINUOUS
 10
5.8057559588
 20
-16.8468701478
 11
5.8564642145
 21
-16.5908267171
  0
LINE
  5
5AD
100
AcDbEntity
  8
RACCORDO
100
AcDbLine
 62
250
  6
CONTINUOUS
 10
6.0556036656
 20
-17.093072086
 11
6.1135261316
 21
-16.8006016249
  0
LINE
  5
5AE
100
AcDbEntity
  8
RACCORDO
100
AcDbLine
 62
7
  6
CONTINUOUS
 10
9.9941645387
 20
-0.7983230027
 11
10.0099050816
 21
-0.7668323223
  0
LINE
  5
5AF
100
AcDbEntity
  8
RACCORDO
100
AcDbLine
 62
250
  6
CONTINUOUS
 10
6.9560799211
 20
-5.3489453308
 11
6.9008221589
 21
-5.404203093
  0
LINE
  5
5B0
100
AcDbEntity
  8
RACCORDO
100
AcDbLine
 62
250
  6
CONTINUOUS
 10
7.2558966417
 20
-5.6487631064
 11
7.2007667064
 21
-5.7038930417
  0
LINE
  5
5B1
100
AcDbEntity
  8
RACCORDO
100
AcDbLine
 62
250
  6
CONTINUOUS
 10
6.9008221589
 20
6.4225496588
 11
6.9560799211
 21
6.3672918966
  0
LINE
  5
5B2
100
AcDbEntity
  8
RACCORDO
100
AcDbLine
 62
250
  6
CONTINUOUS
 10
7.2007667064
 20
6.7222396075
 11
7.2558966417
 21
6.6671096722
  0
LWPOLYLINE
  5
5B3
100
AcDbEntity
  8
RACCORDO
100
AcDbPolyline
 62
250
  6
CONTINUOUS
 90
13
 70
0
 10
6.9560799211
 20
6.3672918966
 10
6.9564380384
 20
6.3666669644
 10
6.9567928163
 20
6.3655278851
 10
6.9571442548
 20
6.3638746587
 10
6.9574932795
 20
6.3617002858
 10
6.9578389647
 20
6.3590117658
 10
6.9581785338
 20
6.3558300968
 10
6.9585119203
 20
6.3521513728
 10
6.9588391908
 20
6.3479794999
 10
6.9591577676
 20
6.3433471949
 10
6.9594675765
 20
6.3382508837
 10
6.9597686917
 20
6.3326941404
 10
6.9600587588
 20
6.3267204052
  0
LINE
  5
5B4
100
AcDbEntity
  8
RACCORDO
100
AcDbLine
 62
7
  6
CONTINUOUS
 10
10.0099050816
 20
1.7851788881
 11
9.9941645387
 21
1.8166695684
  0
LINE
  5
5B5
100
AcDbEntity
  8
RACCORDO
100
AcDbLine
 62
250
  6
CONTINUOUS
 10
5.8564642145
 20
17.6091732829
 11
5.8057559588
 21
17.8652167135
  0
LINE
  5
5B6
100
AcDbEntity
  8
RACCORDO
100
AcDbLine
 62
250
  6
CONTINUOUS
 10
6.1135261316
 20
17.8189481907
 11
6.0556036656
 21
18.1114186518
  0
LWPOLYLINE
  5
5B7
100
AcDbEntity
  8
RACCORDO
100
AcDbPolyline
 62
250
  6
CONTINUOUS
 90
10
 70
0
 10
6.0556036656
 20
18.1114186518
 10
6.0555037897
 20
18.1120106561
 10
6.0554058898
 20
18.1127615776
 10
6.0553099657
 20
18.1136714165
 10
6.0552156947
 20
18.1147443669
 10
6.0551233996
 20
18.1159762347
 10
6.0550340486
 20
18.1173544367
 10
6.0549476829
 20
18.118880382
 10
6.0548642613
 20
18.1205526615
 10
6.0547846281
 20
18.1223544654
  0
LINE
  5
5B8
100
AcDbEntity
  8
RACCORDO
100
AcDbLine
 62
7
  6
CONTINUOUS
 10
11.3140157829
 20
13.6091732829
 11
11.3009415456
 21
22.1705402608
  0
LINE
  5
5B9
100
AcDbEntity
  8
RACCORDO
100
AcDbLine
 62
7
  6
CONTINUOUS
 10
11.3140157829
 20
0.2091961282
 11
11.3140157829
 21
-12.5908267171
  0
LINE
  5
5BA
100
AcDbEntity
  8
RACCORDO
100
AcDbLine
 62
7
  6
CONTINUOUS
 10
11.3140157829
 20
0.8091504376
 11
11.3140157829
 21
13.6091732829
  0
LINE
  5
5BB
100
AcDbEntity
  8
RACCORDO
100
AcDbLine
 62
7
  6
CONTINUOUS
 10
11.3140157829
 20
-12.5908267171
 11
11.3009415456
 21
-21.152193695
  0
LWPOLYLINE
  5
5BC
100
AcDbEntity
  8
RACCORDO
100
AcDbPolyline
 62
250
  6
CONTINUOUS
 90
25
 70
0
 10
10.001218625
 20
-19.5980178505
 10
10.000769057
 20
-19.6109067965
 10
9.9994750644
 20
-19.6237594052
 10
9.9973385662
 20
-19.6365209375
 10
9.9943639167
 20
-19.6491410237
 10
9.9905608928
 20
-19.6615606308
 10
9.9859475353
 20
-19.6737131544
 10
9.9805438821
 20
-19.6855439609
 10
9.974371341
 20
-19.6970046007
 10
9.9674586585
 20
-19.7080409339
 10
9.9598372546
 20
-19.7186036654
 10
9.9515384812
 20
-19.7286501298
 10
9.9425960865
 20
-19.7381393644
 10
9.9330468621
 20
-19.7470316232
 10
9.9229324904
 20
-19.7552874319
 10
9.9122978348
 20
-19.7628700202
 10
9.9011892941
 20
-19.7697465365
 10
9.8896536659
 20
-19.7758882326
 10
9.8777396334
 20
-19.7812692107
 10
9.8654977846
 20
-19.7858665227
 10
9.8529808049
 20
-19.7896602856
 10
9.8402425779
 20
-19.7926341466
 10
9.8273377205
 20
-19.7947753815
 10
9.814321328
 20
-19.7960748745
 10
9.8012490859
 20
-19.7965270808
  0
LINE
  5
5BD
100
AcDbEntity
  8
RACCORDO
100
AcDbLine
 62
7
  6
CONTINUOUS
 10
6.1581288601
 20
-19.7965270808
 11
6.0841481569
 21
-20.0566498758
  0
LINE
  5
5BE
100
AcDbEntity
  8
RACCORDO
100
AcDbLine
 62
250
  6
CONTINUOUS
 10
-5.3346055508
 20
-15.1151299654
 11
-5.280088545
 21
-15.0878797676
  0
LINE
  5
5BF
100
AcDbEntity
  8
DRAFT
100
AcDbLine
 62
7
  6
CONTINUOUS
 10
10.0471388838
 20
10.8091732829
 11
9.6640157829
 21
10.8091732829
  0
LINE
  5
5C0
100
AcDbEntity
  8
DRAFT
100
AcDbLine
 62
7
  6
CONTINUOUS
 10
-9.3359842171
 20
10.8091732829
 11
-9.7191073181
 21
10.8091732829
  0
LINE
  5
5C1
100
AcDbEntity
  8
RACCORDO
100
AcDbLine
 62
250
  6
CONTINUOUS
 10
-5.280088545
 20
16.1062263334
 11
-5.3346055508
 21
16.1334765312
  0
LINE
  5
5C2
100
AcDbEntity
  8
RACCORDO
100
AcDbLine
 62
7
  6
CONTINUOUS
 10
6.0841481569
 20
21.0749964415
 11
6.1581288601
 21
20.8148736466
  0
LINE
  5
5C3
100
AcDbEntity
  8
RACCORDO
100
AcDbLine
 62
250
  6
CONTINUOUS
 10
-5.0847583025
 20
-15.3650921183
 11
-5.0303640241
 21
-15.3379032655
  0
LINE
  5
5C4
100
AcDbEntity
  8
DRAFT
100
AcDbLine
 62
7
  6
CONTINUOUS
 10
-10.9859842171
 20
13.6091732829
 11
-9.7359842171
 21
13.6091732829
  0
LINE
  5
5C5
100
AcDbEntity
  8
DRAFT
100
AcDbLine
 62
7
  6
CONTINUOUS
 10
10.0640157829
 20
13.6091732829
 11
11.3140157829
 21
13.6091732829
  0
LINE
  5
5C6
100
AcDbEntity
  8
RACCORDO
100
AcDbLine
 62
250
  6
CONTINUOUS
 10
-5.0303640241
 20
16.3562498313
 11
-5.0847583025
 21
16.3834386841
  0
LINE
  5
5C7
100
AcDbEntity
  8
DRAFT
100
AcDbLine
 62
7
  6
CONTINUOUS
 10
10.0471388838
 20
14.6091732829
 11
9.6640157829
 21
14.6091732829
  0
LINE
  5
5C8
100
AcDbEntity
  8
DRAFT
100
AcDbLine
 62
7
  6
CONTINUOUS
 10
-9.3359842171
 20
14.6091732829
 11
-9.7191073181
 21
14.6091732829
  0
LWPOLYLINE
  5
5C9
100
AcDbEntity
  8
RACCORDO
100
AcDbPolyline
 62
250
  6
CONTINUOUS
 90
13
 70
0
 10
6.1152416975
 20
16.3834386841
 10
6.1151409532
 20
16.383573497
 10
6.1150412601
 20
16.3838705063
 10
6.1149426182
 20
16.3843297119
 10
6.1148446976
 20
16.3849536984
 10
6.1147478281
 20
16.3857398813
 10
6.1146529999
 20
16.3866805068
 10
6.114560244
 20
16.3877770875
 10
6.1144695293
 20
16.3890281107
 10
6.1143817535
 20
16.3904212853
 10
6.1142969456
 20
16.3919580387
 10
6.1142150765
 20
16.3936369434
 10
6.1141369567
 20
16.395441425
  0
LINE
  5
5CA
100
AcDbEntity
  8
RACCORDO
100
AcDbLine
 62
250
  6
CONTINUOUS
 10
5.8653944492
 20
-15.1151299654
 11
5.919911455
 21
-15.0878797676
  0
LWPOLYLINE
  5
5CB
100
AcDbEntity
  8
RACCORDO
100
AcDbPolyline
 62
250
  6
CONTINUOUS
 90
25
 70
0
 10
5.8653939908
 20
16.1334767603
 10
5.8817285168
 20
16.1340214886
 10
5.8979931479
 20
16.1356334353
 10
5.9141182902
 20
16.1383057026
 10
5.9300349468
 20
16.1420268561
 10
5.9456750129
 20
16.146780973
 10
5.9609715666
 20
16.1525477107
 10
5.9758591567
 20
16.1593023938
 10
5.9902740816
 20
16.1670161196
 10
6.0041546622
 20
16.1756558819
 10
6.0174415059
 20
16.1851847118
 10
6.0300777608
 20
16.1955618368
 10
6.0420093587
 20
16.2067428542
 10
6.0531852465
 20
16.2186799219
 10
6.0635576048
 20
16.2313219627
 10
6.0730820526
 20
16.2446148832
 10
6.0817178367
 20
16.2585018046
 10
6.0894280067
 20
16.2729233071
 10
6.0961795724
 20
16.2878176832
 10
6.1019436457
 20
16.3031212022
 10
6.1066955637
 20
16.3187683829
 10
6.1104149943
 20
16.3346922737
 10
6.1130860232
 20
16.350824739
 10
6.1146972221
 20
16.3670967509
 10
6.1152416975
 20
16.3834386841
  0
LWPOLYLINE
  5
5CC
100
AcDbEntity
  8
RACCORDO
100
AcDbPolyline
 62
250
  6
CONTINUOUS
 90
25
 70
0
 10
-5.3346060092
 20
16.1334767603
 10
-5.3182714832
 20
16.1340214886
 10
-5.3020068521
 20
16.1356334353
 10
-5.2858817098
 20
16.1383057026
 10
-5.2699650532
 20
16.1420268561
 10
-5.2543249871
 20
16.146780973
 10
-5.2390284334
 20
16.1525477107
 10
-5.2241408433
 20
16.1593023938
 10
-5.2097259184
 20
16.1670161196
 10
-5.1958453378
 20
16.1756558819
 10
-5.1825584941
 20
16.1851847118
 10
-5.1699222392
 20
16.1955618368
 10
-5.1579906413
 20
16.2067428542
 10
-5.1468147535
 20
16.2186799219
 10
-5.1364423952
 20
16.2313219627
 10
-5.1269179474
 20
16.2446148832
 10
-5.1182821633
 20
16.2585018046
 10
-5.1105719933
 20
16.2729233071
 10
-5.1038204276
 20
16.2878176832
 10
-5.0980563543
 20
16.3031212022
 10
-5.0933044363
 20
16.3187683829
 10
-5.0895850057
 20
16.3346922737
 10
-5.0869139768
 20
16.350824739
 10
-5.0853027779
 20
16.3670967509
 10
-5.0847583025
 20
16.3834386841
  0
LINE
  5
5CD
100
AcDbEntity
  8
RACCORDO
100
AcDbLine
 62
7
  6
CONTINUOUS
 10
-5.5918798892
 20
16.1062263334
 11
-5.280088545
 21
16.1062263334
  0
LINE
  5
5CE
100
AcDbEntity
  8
RACCORDO
100
AcDbLine
 62
7
  6
CONTINUOUS
 10
5.6081201108
 20
16.1062263334
 11
5.919911455
 21
16.1062263334
  0
LINE
  5
5CF
100
AcDbEntity
  8
RACCORDO
100
AcDbLine
 62
250
  6
CONTINUOUS
 10
-5.5373628834
 20
16.1334765312
 11
-5.3346055508
 21
16.1334765312
  0
LINE
  5
5D0
100
AcDbEntity
  8
RACCORDO
100
AcDbLine
 62
250
  6
CONTINUOUS
 10
5.6626371166
 20
16.1334765312
 11
5.8653944492
 21
16.1334765312
  0
LINE
  5
5D1
100
AcDbEntity
  8
RACCORDO
100
AcDbLine
 62
250
  6
CONTINUOUS
 10
-5.7854945658
 20
16.4334310689
 11
-5.0864738684
 21
16.4334310689
  0
LINE
  5
5D2
100
AcDbEntity
  8
RACCORDO
100
AcDbLine
 62
250
  6
CONTINUOUS
 10
5.4145054342
 20
16.4334310689
 11
6.1135261316
 21
16.4334310689
  0
LWPOLYLINE
  5
5D3
100
AcDbEntity
  8
RACCORDO
100
AcDbPolyline
 62
7
  6
CONTINUOUS
 90
28
 70
0
 10
-5.5918798892
 20
16.1062263334
 10
-5.6063385515
 20
16.1066445598
 10
-5.6207777434
 20
16.1079015304
 10
-5.6351485686
 20
16.1099982926
 10
-5.6494214207
 20
16.1129376251
 10
-5.6635268157
 20
16.1167124548
 10
-5.6773585892
 20
16.1212945163
 10
-5.6908408106
 20
16.1266501437
 10
-5.7039619403
 20
16.1327660497
 10
-5.7167145086
 20
16.1396369105
 10
-5.7290564214
 20
16.1472422022
 10
-5.7409436054
 20
16.1555570033
 10
-5.7523611579
 20
16.1645766966
 10
-5.7632953008
 20
16.1743048273
 10
-5.7736706301
 20
16.1846894473
 10
-5.783389126
 20
16.1956324059
 10
-5.7923984791
 20
16.2070577477
 10
-5.8007026472
 20
16.2189521805
 10
-5.8082980311
 20
16.2313024074
 10
-5.8151596586
 20
16.24406497
 10
-5.8212664097
 20
16.2571974456
 10
-5.8266128228
 20
16.2706927167
 10
-5.8311855975
 20
16.2845406714
 10
-5.8349501382
 20
16.298664059
 10
-5.8378772825
 20
16.3129527174
 10
-5.8399601577
 20
16.3273356325
 10
-5.8412020819
 20
16.3417843419
 10
-5.8416044101
 20
16.3562498313
  0
LWPOLYLINE
  5
5D4
100
AcDbEntity
  8
RACCORDO
100
AcDbPolyline
 62
7
  6
CONTINUOUS
 90
28
 70
0
 10
5.6081201108
 20
16.1062263334
 10
5.5936614485
 20
16.1066445598
 10
5.5792222566
 20
16.1079015304
 10
5.5648514314
 20
16.1099982926
 10
5.5505785793
 20
16.1129376251
 10
5.5364731843
 20
16.1167124548
 10
5.5226414108
 20
16.1212945163
 10
5.5091591894
 20
16.1266501437
 10
5.4960380597
 20
16.1327660497
 10
5.4832854914
 20
16.1396369105
 10
5.4709435786
 20
16.1472422022
 10
5.4590563946
 20
16.1555570033
 10
5.4476388421
 20
16.1645766966
 10
5.4367046992
 20
16.1743048273
 10
5.4263293699
 20
16.1846894473
 10
5.416610874
 20
16.1956324059
 10
5.4076015209
 20
16.2070577477
 10
5.3992973528
 20
16.2189521805
 10
5.3917019689
 20
16.2313024074
 10
5.3848403414
 20
16.24406497
 10
5.3787335903
 20
16.2571974456
 10
5.3733871772
 20
16.2706927167
 10
5.3688144025
 20
16.2845406714
 10
5.3650498618
 20
16.298664059
 10
5.3621227175
 20
16.3129527174
 10
5.3600398423
 20
16.3273356325
 10
5.3587979181
 20
16.3417843419
 10
5.3583955899
 20
16.3562498313
  0
LWPOLYLINE
  5
5D5
100
AcDbEntity
  8
RACCORDO
100
AcDbPolyline
 62
250
  6
CONTINUOUS
 90
25
 70
0
 10
-5.537362425
 20
16.1334767603
 10
-5.5536969227
 20
16.1340214868
 10
-5.5699615278
 20
16.1356334281
 10
-5.5860866468
 20
16.1383056871
 10
-5.6020032829
 20
16.1420268297
 10
-5.6176433314
 20
16.1467809336
 10
-5.6329398712
 20
16.1525476569
 10
-5.647827451
 20
16.1593023246
 10
-5.6622423691
 20
16.1670160348
 10
-5.6761229467
 20
16.1756557817
 10
-5.689409791
 20
16.1851845972
 10
-5.7020460497
 20
16.1955617091
 10
-5.7139776545
 20
16.2067427156
 10
-5.7251535519
 20
16.2186797748
 10
-5.7355259221
 20
16.2313218102
 10
-5.7450503836
 20
16.2446147285
 10
-5.7536861826
 20
16.2585016515
 10
-5.7613963681
 20
16.2729231594
 10
-5.7681479494
 20
16.287817545
 10
-5.7739120377
 20
16.3031210776
 10
-5.7786639693
 20
16.3187682759
 10
-5.7823834115
 20
16.3346921882
 10
-5.7850544494
 20
16.3508246787
 10
-5.7866656542
 20
16.3670967191
 10
-5.7872101317
 20
16.3834386841
  0
LWPOLYLINE
  5
5D6
100
AcDbEntity
  8
RACCORDO
100
AcDbPolyline
 62
250
  6
CONTINUOUS
 90
25
 70
0
 10
5.662637575
 20
16.1334767603
 10
5.6463030773
 20
16.1340214868
 10
5.6300384722
 20
16.1356334281
 10
5.6139133532
 20
16.1383056871
 10
5.5979967171
 20
16.1420268297
 10
5.5823566686
 20
16.1467809336
 10
5.5670601288
 20
16.1525476569
 10
5.552172549
 20
16.1593023246
 10
5.5377576309
 20
16.1670160348
 10
5.5238770533
 20
16.1756557817
 10
5.510590209
 20
16.1851845972
 10
5.4979539503
 20
16.1955617091
 10
5.4860223455
 20
16.2067427156
 10
5.4748464481
 20
16.2186797748
 10
5.4644740779
 20
16.2313218102
 10
5.4549496164
 20
16.2446147285
 10
5.4463138174
 20
16.2585016515
 10
5.4386036319
 20
16.2729231594
 10
5.4318520506
 20
16.287817545
 10
5.4260879623
 20
16.3031210776
 10
5.4213360307
 20
16.3187682759
 10
5.4176165885
 20
16.3346921882
 10
5.4149455506
 20
16.3508246787
 10
5.4133343458
 20
16.3670967191
 10
5.4127898683
 20
16.3834386841
  0
LINE
  5
5D7
100
AcDbEntity
  8
RACCORDO
100
AcDbLine
 62
250
  6
CONTINUOUS
 10
5.919911455
 20
16.1062263334
 11
5.8653944492
 21
16.1334765312
  0
LINE
  5
5D8
100
AcDbEntity
  8
RACCORDO
100
AcDbLine
 62
250
  6
CONTINUOUS
 10
6.1152416975
 20
-15.3650921183
 11
6.1696359759
 21
-15.3379032655
  0
LWPOLYLINE
  5
5D9
100
AcDbEntity
  8
RACCORDO
100
AcDbPolyline
 62
7
  6
CONTINUOUS
 90
31
 70
0
 10
-5.3363215751
 20
17.6092788939
 10
-5.3207069872
 20
17.6102253897
 10
-5.3054155541
 20
17.6118566514
 10
-5.2905004831
 20
17.6141726788
 10
-5.2760162169
 20
17.6172191499
 10
-5.2619961738
 20
17.6209503868
 10
-5.2484541218
 20
17.6252293559
 10
-5.2354245276
 20
17.6300500303
 10
-5.222929681
 20
17.6354184369
 10
-5.2109610533
 20
17.641215623
 10
-5.1995384063
 20
17.6474347784
 10
-5.1886767802
 20
17.6540827131
 10
-5.1783602723
 20
17.6610609049
 10
-5.1685993233
 20
17.6683641272
 10
-5.1594038831
 20
17.6759976065
 10
-5.1507591509
 20
17.6838784997
 10
-5.142670109
 20
17.6920033717
 10
-5.1351423944
 20
17.7003756576
 10
-5.1281645854
 20
17.70892282
 10
-5.1217379343
 20
17.717642921
 10
-5.1158645116
 20
17.7265378984
 10
-5.1105360585
 20
17.7355410284
 10
-5.1057508061
 20
17.744651328
 10
-5.1015074915
 20
17.7538697802
 10
-5.0977994775
 20
17.7631326103
 10
-5.0946219893
 20
17.772439515
 10
-5.0919705026
 20
17.7817907976
 10
-5.0898381394
 20
17.7911235929
 10
-5.0882171942
 20
17.800416946
 10
-5.0870990199
 20
17.809691812
 10
-5.0864738684
 20
17.8189481907
  0
LWPOLYLINE
  5
5DA
100
AcDbEntity
  8
RACCORDO
100
AcDbPolyline
 62
250
  6
CONTINUOUS
 90
25
 70
0
 10
5.8057559588
 20
17.8652167135
 10
5.822034181
 20
17.8658370066
 10
5.8382432309
 20
17.8675008289
 10
5.8543142327
 20
17.87020111
 10
5.8701788982
 20
17.8739263754
 10
5.8857698143
 20
17.8786607952
 10
5.9010207301
 20
17.8843842503
 10
5.9158668414
 20
17.8910724198
 10
5.9302450646
 20
17.8986968834
 10
5.9440943029
 20
17.9072252414
 10
5.9573557085
 20
17.9166212541
 10
5.9699729321
 20
17.926844995
 10
5.9818923611
 20
17.93785302
 10
5.9930633482
 20
17.9495985529
 10
6.0034384271
 20
17.9620316838
 10
6.0129735135
 20
17.9750995816
 10
6.021628092
 20
17.9887467175
 10
6.0293653891
 20
18.002915102
 10
6.0361525293
 20
18.0175445317
 10
6.0419606738
 20
18.0325728431
 10
6.046765144
 20
18.0479361782
 10
6.0505455262
 20
18.0635692574
 10
6.0532857577
 20
18.0794056537
 10
6.0549741955
 20
18.095378075
 10
6.0556036656
 20
18.1114186518
  0
LWPOLYLINE
  5
5DB
100
AcDbEntity
  8
RACCORDO
100
AcDbPolyline
 62
250
  6
CONTINUOUS
 90
25
 70
0
 10
-5.3942440412
 20
17.8652167135
 10
-5.377965819
 20
17.8658370066
 10
-5.3617567691
 20
17.8675008289
 10
-5.3456857673
 20
17.87020111
 10
-5.3298211018
 20
17.8739263754
 10
-5.3142301857
 20
17.8786607952
 10
-5.2989792699
 20
17.8843842503
 10
-5.2841331586
 20
17.8910724198
 10
-5.2697549354
 20
17.8986968834
 10
-5.2559056971
 20
17.9072252414
 10
-5.2426442915
 20
17.9166212541
 10
-5.2300270679
 20
17.926844995
 10
-5.2181076389
 20
17.93785302
 10
-5.2069366518
 20
17.9495985529
 10
-5.1965615729
 20
17.9620316838
 10
-5.1870264865
 20
17.9750995816
 10
-5.178371908
 20
17.9887467175
 10
-5.1706346109
 20
18.002915102
 10
-5.1638474707
 20
18.0175445317
 10
-5.1580393262
 20
18.0325728431
 10
-5.153234856
 20
18.0479361782
 10
-5.1494544738
 20
18.0635692574
 10
-5.1467142423
 20
18.0794056537
 10
-5.1450258045
 20
18.095378075
 10
-5.1443963344
 20
18.1114186518
  0
LWPOLYLINE
  5
5DC
100
AcDbEntity
  8
RACCORDO
100
AcDbPolyline
 62
250
  6
CONTINUOUS
 90
25
 70
0
 10
5.7235548588
 20
18.5694503626
 10
5.7075346009
 20
18.5690188844
 10
5.6915802133
 20
18.5681547818
 10
5.6757572924
 20
18.5668616079
 10
5.6601308933
 20
18.5651446795
 10
5.6447652644
 20
18.5630110562
 10
5.6297235833
 20
18.5604695111
 10
5.6150676935
 20
18.557530494
 10
5.600857852
 20
18.5542060891
 10
5.5871524831
 20
18.5505099654
 10
5.5740079356
 20
18.5464573199
 10
5.5614782522
 20
18.5420648154
 10
5.5496149478
 20
18.5373505121
 10
5.5384667974
 20
18.5323337933
 10
5.5280796349
 20
18.5270352854
 10
5.5184961654
 20
18.5214767732
 10
5.5097557902
 20
18.5156811107
 10
5.5018944436
 20
18.5096721268
 10
5.4949444453
 20
18.5034745268
 10
5.4889343693
 20
18.4971137921
 10
5.4838889243
 20
18.4906160745
 10
5.4798288532
 20
18.4840080885
 10
5.4767708478
 20
18.4773170019
 10
5.4747274806
 20
18.4705703253
 10
5.4737071521
 20
18.4637957972
  0
LWPOLYLINE
  5
5DD
100
AcDbEntity
  8
RACCORDO
100
AcDbPolyline
 62
250
  6
CONTINUOUS
 90
25
 70
0
 10
-5.4764451412
 20
18.5694503626
 10
-5.4924653991
 20
18.5690188844
 10
-5.5084197867
 20
18.5681547818
 10
-5.5242427076
 20
18.5668616079
 10
-5.5398691067
 20
18.5651446795
 10
-5.5552347356
 20
18.5630110562
 10
-5.5702764167
 20
18.5604695111
 10
-5.5849323065
 20
18.557530494
 10
-5.599142148
 20
18.5542060891
 10
-5.6128475169
 20
18.5505099654
 10
-5.6259920644
 20
18.5464573199
 10
-5.6385217478
 20
18.5420648154
 10
-5.6503850522
 20
18.5373505121
 10
-5.6615332026
 20
18.5323337933
 10
-5.6719203651
 20
18.5270352854
 10
-5.6815038346
 20
18.5214767732
 10
-5.6902442098
 20
18.5156811107
 10
-5.6981055564
 20
18.5096721268
 10
-5.7050555547
 20
18.5034745268
 10
-5.7110656307
 20
18.4971137921
 10
-5.7161110757
 20
18.4906160745
 10
-5.7201711468
 20
18.4840080885
 10
-5.7232291522
 20
18.4773170019
 10
-5.7252725194
 20
18.4705703253
 10
-5.7262928479
 20
18.4637957972
  0
LINE
  5
5DE
100
AcDbEntity
  8
RACCORDO
100
AcDbLine
 62
7
  6
CONTINUOUS
 10
5.8564642145
 20
17.6091732829
 11
5.6715673513
 21
17.6091732829
  0
LINE
  5
5DF
100
AcDbEntity
  8
RACCORDO
100
AcDbLine
 62
7
  6
CONTINUOUS
 10
-5.5284326487
 20
17.6091732829
 11
-5.3435357855
 21
17.6091732829
  0
LINE
  5
5E0
100
AcDbEntity
  8
RACCORDO
100
AcDbLine
 62
250
  6
CONTINUOUS
 10
-5.477724393
 20
17.8652167135
 11
-5.3942440412
 21
17.8652167135
  0
LINE
  5
5E1
100
AcDbEntity
  8
RACCORDO
100
AcDbLine
 62
250
  6
CONTINUOUS
 10
5.722275607
 20
17.8652167135
 11
5.8057559588
 21
17.8652167135
  0
LINE
  5
5E2
100
AcDbEntity
  8
RACCORDO
100
AcDbLine
 62
250
  6
CONTINUOUS
 10
-5.7261292577
 20
18.1606590395
 11
-5.1458391765
 21
18.1606590395
  0
LINE
  5
5E3
100
AcDbEntity
  8
RACCORDO
100
AcDbLine
 62
250
  6
CONTINUOUS
 10
5.4738707423
 20
18.1606590395
 11
6.0541608235
 21
18.1606590395
  0
LINE
  5
5E4
100
AcDbEntity
  8
RACCORDO
100
AcDbLine
 62
250
  6
CONTINUOUS
 10
-5.7261292577
 20
18.4426648841
 11
-5.1458391765
 21
18.4426648841
  0
LINE
  5
5E5
100
AcDbEntity
  8
RACCORDO
100
AcDbLine
 62
250
  6
CONTINUOUS
 10
5.4738707423
 20
18.4426648841
 11
6.0541608235
 21
18.4426648841
  0
LINE
  5
5E6
100
AcDbEntity
  8
RACCORDO
100
AcDbLine
 62
250
  6
CONTINUOUS
 10
-5.4764451412
 20
18.5694503626
 11
-5.3955232931
 21
18.5694503626
  0
LINE
  5
5E7
100
AcDbEntity
  8
RACCORDO
100
AcDbLine
 62
250
  6
CONTINUOUS
 10
5.7235548588
 20
18.5694503626
 11
5.8044767069
 21
18.5694503626
  0
LWPOLYLINE
  5
5E8
100
AcDbEntity
  8
RACCORDO
100
AcDbPolyline
 62
250
  6
CONTINUOUS
 90
25
 70
0
 10
-5.3955232931
 20
18.5694503626
 10
-5.3795030947
 20
18.5690188879
 10
-5.3635487629
 20
18.5681547918
 10
-5.3477258933
 20
18.5668616269
 10
-5.3320995413
 20
18.5651447101
 10
-5.316733954
 20
18.5630111004
 10
-5.3016923066
 20
18.5604695701
 10
-5.2870364423
 20
18.5575305686
 10
-5.2728266183
 20
18.5542061796
 10
-5.2591212579
 20
18.5505100712
 10
-5.2459767101
 20
18.5464574397
 10
-5.2334470183
 20
18.5420649475
 10
-5.2215836981
 20
18.5373506541
 10
-5.210435525
 20
18.5323339423
 10
-5.2000483345
 20
18.5270354381
 10
-5.1904648331
 20
18.521476926
 10
-5.1817244231
 20
18.5156812598
 10
-5.1738630404
 20
18.5096722682
 10
-5.1669130069
 20
18.5034746569
 10
-5.1609028974
 20
18.4971139072
 10
-5.1558574222
 20
18.4906161712
 10
-5.1517973257
 20
18.484008164
 10
-5.1487393009
 20
18.4773170543
 10
-5.1466959206
 20
18.4705703525
 10
-5.1456755863
 20
18.4637957972
  0
LWPOLYLINE
  5
5E9
100
AcDbEntity
  8
RACCORDO
100
AcDbPolyline
 62
250
  6
CONTINUOUS
 90
25
 70
0
 10
5.8044767069
 20
18.5694503626
 10
5.8204969053
 20
18.5690188879
 10
5.8364512371
 20
18.5681547918
 10
5.8522741067
 20
18.5668616269
 10
5.8679004587
 20
18.5651447101
 10
5.883266046
 20
18.5630111004
 10
5.8983076934
 20
18.5604695701
 10
5.9129635577
 20
18.5575305686
 10
5.9271733817
 20
18.5542061796
 10
5.9408787421
 20
18.5505100712
 10
5.9540232899
 20
18.5464574397
 10
5.9665529817
 20
18.5420649475
 10
5.9784163019
 20
18.5373506541
 10
5.989564475
 20
18.5323339423
 10
5.9999516655
 20
18.5270354381
 10
6.0095351669
 20
18.521476926
 10
6.0182755769
 20
18.5156812598
 10
6.0261369596
 20
18.5096722682
 10
6.0330869931
 20
18.5034746569
 10
6.0390971026
 20
18.4971139072
 10
6.0441425778
 20
18.4906161712
 10
6.0482026743
 20
18.484008164
 10
6.0512606991
 20
18.4773170543
 10
6.0533040794
 20
18.4705703525
 10
6.0543244137
 20
18.4637957972
  0
LWPOLYLINE
  5
5EA
100
AcDbEntity
  8
RACCORDO
100
AcDbPolyline
 62
250
  6
CONTINUOUS
 90
25
 70
0
 10
-5.477724393
 20
17.8652167135
 10
-5.494002559
 20
17.8658370026
 10
-5.510211556
 20
17.867500814
 10
-5.5262825089
 20
17.870201078
 10
-5.5421471294
 20
17.8739263205
 10
-5.5577380056
 20
17.8786607124
 10
-5.5729888889
 20
17.8843841364
 10
-5.5878349756
 20
17.8910722724
 10
-5.6022131819
 20
17.8986967015
 10
-5.616062412
 20
17.9072250259
 10
-5.6293238179
 20
17.9166210073
 10
-5.6419410496
 20
17.9268447202
 10
-5.6538604939
 20
17.9378527224
 10
-5.665031503
 20
17.9495982386
 10
-5.6754066091
 20
17.9620313601
 10
-5.6849417266
 20
17.9750992561
 10
-5.6935963388
 20
17.9887463988
 10
-5.7013336707
 20
18.0029147987
 10
-5.708120845
 20
18.0175442519
 10
-5.7139290216
 20
18.0325725949
 10
-5.7187335206
 20
18.0479359696
 10
-5.7225139267
 20
18.0635690941
 10
-5.7252541762
 20
18.0794055403
 10
-5.7269426255
 20
18.0953780162
 10
-5.7275720998
 20
18.1114186518
  0
LWPOLYLINE
  5
5EB
100
AcDbEntity
  8
RACCORDO
100
AcDbPolyline
 62
250
  6
CONTINUOUS
 90
25
 70
0
 10
5.722275607
 20
17.8652167135
 10
5.705997441
 20
17.8658370026
 10
5.689788444
 20
17.867500814
 10
5.6737174911
 20
17.870201078
 10
5.6578528706
 20
17.8739263205
 10
5.6422619944
 20
17.8786607124
 10
5.6270111111
 20
17.8843841364
 10
5.6121650244
 20
17.8910722724
 10
5.5977868181
 20
17.8986967015
 10
5.583937588
 20
17.9072250259
 10
5.5706761821
 20
17.9166210073
 10
5.5580589504
 20
17.9268447202
 10
5.5461395061
 20
17.9378527224
 10
5.534968497
 20
17.9495982386
 10
5.5245933909
 20
17.9620313601
 10
5.5150582734
 20
17.9750992561
 10
5.5064036612
 20
17.9887463988
 10
5.4986663293
 20
18.0029147987
 10
5.491879155
 20
18.0175442519
 10
5.4860709784
 20
18.0325725949
 10
5.4812664794
 20
18.0479359696
 10
5.4774860733
 20
18.0635690941
 10
5.4747458238
 20
18.0794055403
 10
5.4730573745
 20
18.0953780162
 10
5.4724279002
 20
18.1114186518
  0
LINE
  5
5EC
100
AcDbEntity
  8
RACCORDO
100
AcDbLine
 62
250
  6
CONTINUOUS
 10
6.1696359759
 20
16.3562498313
 11
6.1152416975
 21
16.3834386841
  0
LINE
  5
5ED
100
AcDbEntity
  8
RACCORDO
100
AcDbLine
 62
7
  6
CONTINUOUS
 10
7.6217508098
 20
21.0872748976
 11
8.0477342597
 21
21.1778684136
  0
LINE
  5
5EE
100
AcDbEntity
  8
RACCORDO
100
AcDbLine
 62
7
  6
CONTINUOUS
 10
-7.293719244
 20
21.0872748976
 11
-7.7197026939
 21
21.1778684136
  0
LINE
  5
5EF
100
AcDbEntity
  8
RACCORDO
100
AcDbLine
 62
7
  6
CONTINUOUS
 10
-3.5782491902
 20
21.0872748976
 11
-3.1522657403
 21
21.1778684136
  0
LINE
  5
5F0
100
AcDbEntity
  8
RACCORDO
100
AcDbLine
 62
7
  6
CONTINUOUS
 10
7.9724407759
 20
22.6684859886
 11
7.6217508098
 21
22.6366528306
  0
LWPOLYLINE
  5
5F1
100
AcDbEntity
  8
RACCORDO
100
AcDbPolyline
 62
250
  6
CONTINUOUS
 90
13
 70
0
 10
-9.5967433145
 20
20.6226239306
 10
-9.6080298588
 20
20.6222302578
 10
-9.6185791176
 20
20.6218045137
 10
-9.6283333971
 20
20.6213490267
 10
-9.6372393515
 20
20.6208662869
 10
-9.6452482743
 20
20.6203589345
 10
-9.6523163649
 20
20.6198297461
 10
-9.6584049681
 20
20.6192816132
 10
-9.6634807854
 20
20.6187175336
 10
-9.6675160574
 20
20.6181405965
 10
-9.6704887152
 20
20.6175539563
 10
-9.6723825015
 20
20.6169608161
 10
-9.6731870592
 20
20.6163644163
  0
LINE
  5
5F2
100
AcDbEntity
  8
RACCORDO
100
AcDbLine
 62
250
  6
CONTINUOUS
 10
-9.5722089671
 20
20.6233066348
 11
-9.5967433145
 21
20.6226239306
  0
LINE
  5
5F3
100
AcDbEntity
  8
RACCORDO
100
AcDbLine
 62
250
  6
CONTINUOUS
 10
-9.5455120526
 20
20.6238377144
 11
-9.5722089671
 21
20.6233066348
  0
LINE
  5
5F4
100
AcDbEntity
  8
RACCORDO
100
AcDbLine
 62
250
  6
CONTINUOUS
 10
-9.517235792
 20
20.624205566
 11
-9.5455120526
 21
20.6238377144
  0
LINE
  5
5F5
100
AcDbEntity
  8
RACCORDO
100
AcDbLine
 62
250
  6
CONTINUOUS
 10
-9.4879979082
 20
20.6244021587
 11
-9.517235792
 21
20.624205566
  0
LINE
  5
5F6
100
AcDbEntity
  8
RACCORDO
100
AcDbLine
 62
250
  6
CONTINUOUS
 10
9.8012490756
 20
20.6244347318
 11
6.1642561715
 21
20.6244347318
  0
LINE
  5
5F7
100
AcDbEntity
  8
RACCORDO
100
AcDbLine
 62
250
  6
CONTINUOUS
 10
5.3637753943
 20
20.6244347318
 11
-5.0357438285
 21
20.6244347318
  0
LINE
  5
5F8
100
AcDbEntity
  8
RACCORDO
100
AcDbLine
 62
250
  6
CONTINUOUS
 10
-5.8362246057
 20
20.6244347318
 11
-9.4879979082
 21
20.6244021587
  0
LINE
  5
5F9
100
AcDbEntity
  8
RACCORDO
100
AcDbLine
 62
250
  6
CONTINUOUS
 10
9.8012490859
 20
20.8148736466
 11
6.1581288601
 21
20.8148736466
  0
LINE
  5
5FA
100
AcDbEntity
  8
RACCORDO
100
AcDbLine
 62
250
  6
CONTINUOUS
 10
5.3699027057
 20
20.8148736466
 11
-5.0418711399
 21
20.8148736466
  0
LINE
  5
5FB
100
AcDbEntity
  8
RACCORDO
100
AcDbLine
 62
250
  6
CONTINUOUS
 10
-5.8300972943
 20
20.8148736466
 11
-9.4732175201
 21
20.8148736466
  0
LINE
  5
5FC
100
AcDbEntity
  8
RACCORDO
100
AcDbLine
 62
7
  6
CONTINUOUS
 10
-5.3580919879
 20
20.8681308955
 11
-5.5138764463
 21
20.8681308955
  0
LINE
  5
5FD
100
AcDbEntity
  8
RACCORDO
100
AcDbLine
 62
7
  6
CONTINUOUS
 10
5.6861235537
 20
20.8681308955
 11
5.8419080121
 21
20.8681308955
  0
LINE
  5
5FE
100
AcDbEntity
  8
RACCORDO
100
AcDbLine
 62
7
  6
CONTINUOUS
 10
-7.1205141633
 20
21.0749964415
 11
-5.7561165911
 21
21.0749964415
  0
LINE
  5
5FF
100
AcDbEntity
  8
RACCORDO
100
AcDbLine
 62
7
  6
CONTINUOUS
 10
-5.1158518431
 20
21.0749964415
 11
-3.7514542709
 21
21.0749964415
  0
LINE
  5
600
100
AcDbEntity
  8
RACCORDO
100
AcDbLine
 62
7
  6
CONTINUOUS
 10
4.0794858367
 20
21.0749964415
 11
5.4438834089
 21
21.0749964415
  0
LINE
  5
601
100
AcDbEntity
  8
RACCORDO
100
AcDbLine
 62
7
  6
CONTINUOUS
 10
6.0841481569
 20
21.0749964415
 11
7.4485457291
 21
21.0749964415
  0
LINE
  5
602
100
AcDbEntity
  8
RACCORDO
100
AcDbLine
 62
7
  6
CONTINUOUS
 10
-9.524820891
 20
21.1778684136
 11
-7.7197026939
 21
21.1778684136
  0
LINE
  5
603
100
AcDbEntity
  8
DRAFT
100
AcDbLine
 62
7
  6
CONTINUOUS
 10
-3.1522657403
 20
21.1778684136
 11
3.4802973061
 21
21.1778684136
  0
LINE
  5
604
100
AcDbEntity
  8
RACCORDO
100
AcDbLine
 62
7
  6
CONTINUOUS
 10
8.0477342597
 20
21.1778684136
 11
9.8528524568
 21
21.1778684136
  0
LWPOLYLINE
  5
605
100
AcDbEntity
  8
RACCORDO
100
AcDbPolyline
 62
250
  6
CONTINUOUS
 90
3
 70
0
 10
9.8452673578
 20
20.624205566
 10
9.8159956666
 20
20.6242995287
 10
9.8012490859
 20
20.6244347318
  0
LINE
  5
606
100
AcDbEntity
  8
RACCORDO
100
AcDbLine
 62
250
  6
CONTINUOUS
 10
9.8595713865
 20
20.6240605629
 11
9.8452673578
 21
20.624205566
  0
LWPOLYLINE
  5
607
100
AcDbEntity
  8
RACCORDO
100
AcDbPolyline
 62
250
  6
CONTINUOUS
 90
3
 70
0
 10
9.9247748803
 20
20.6226239306
 10
9.9002472212
 20
20.623323625
 10
9.8595713865
 20
20.6240605629
  0
LWPOLYLINE
  5
608
100
AcDbEntity
  8
RACCORDO
100
AcDbPolyline
 62
250
  6
CONTINUOUS
 90
25
 70
0
 10
9.8012490859
 20
20.8148736466
 10
9.8143100654
 20
20.8144221962
 10
9.827315267
 20
20.8131249264
 10
9.8402091512
 20
20.8109873772
 10
9.8529366538
 20
20.8080186772
 10
9.865443421
 20
20.8042315044
 10
9.8776760419
 20
20.7996420322
 10
9.8895822761
 20
20.7942698604
 10
9.9011112774
 20
20.788137931
 10
9.9122138103
 20
20.7812724309
 10
9.9228424607
 20
20.7737026798
 10
9.9329518381
 20
20.7654610048
 10
9.9424987699
 20
20.7565826024
 10
9.9514424851
 20
20.7471053886
 10
9.959744789
 20
20.7370698365
 10
9.9673702261
 20
20.7265188035
 10
9.9742862313
 20
20.7154973486
 10
9.9804632695
 20
20.7040525396
 10
9.9858749611
 20
20.6922332525
 10
9.9904981951
 20
20.6800899622
 10
9.9943132278
 20
20.6676745276
 10
9.9973037667
 20
20.6550399696
 10
9.9994570405
 20
20.642240245
 10
10.0007638535
 20
20.6293300159
 10
10.001218625
 20
20.6163644163
  0
LWPOLYLINE
  5
609
100
AcDbEntity
  8
RACCORDO
100
AcDbPolyline
 62
250
  6
CONTINUOUS
 90
3
 70
0
 10
9.9563649629
 20
20.6213490267
 10
9.9360695215
 20
20.6222499175
 10
9.9247748803
 20
20.6226239306
  0
LINE
  5
60A
100
AcDbEntity
  8
RACCORDO
100
AcDbLine
 62
250
  6
CONTINUOUS
 10
9.9652811033
 20
20.6208936819
 11
9.9563649629
 21
20.6213490267
  0
LINE
  5
60B
100
AcDbEntity
  8
RACCORDO
100
AcDbLine
 62
7
  6
CONTINUOUS
 10
-7.6444092101
 20
22.6684859886
 11
-7.293719244
 21
22.6366528306
  0
LINE
  5
60C
100
AcDbEntity
  8
RACCORDO
100
AcDbLine
 62
7
  6
CONTINUOUS
 10
3.906280756
 20
21.0872748976
 11
3.4802973061
 21
21.1778684136
  0
LWPOLYLINE
  5
60D
100
AcDbEntity
  8
RACCORDO
100
AcDbPolyline
 62
250
  6
CONTINUOUS
 90
8
 70
0
 10
10.001218625
 20
20.6163644163
 10
10.0004029578
 20
20.6170736315
 10
9.9985048039
 20
20.6176423268
 10
9.9955476232
 20
20.6181405965
 10
9.9915281369
 20
20.6187064167
 10
9.9864458762
 20
20.6193206255
 10
9.9803479307
 20
20.6198297461
 10
9.9652811033
 20
20.6208936819
  0
LINE
  5
60E
100
AcDbEntity
  8
RACCORDO
100
AcDbLine
 62
7
  6
CONTINUOUS
 10
-3.2275592241
 20
22.6684859886
 11
-3.5782491902
 21
22.6366528306
  0
LINE
  5
60F
100
AcDbEntity
  8
RACCORDO
100
AcDbLine
 62
7
  6
CONTINUOUS
 10
-7.1205141633
 20
22.6314120527
 11
-3.7514542709
 21
22.6314120527
  0
LINE
  5
610
100
AcDbEntity
  8
RACCORDO
100
AcDbLine
 62
7
  6
CONTINUOUS
 10
4.0794858367
 20
22.6314120527
 11
7.4485457291
 21
22.6314120527
  0
LINE
  5
611
100
AcDbEntity
  8
RACCORDO
100
AcDbLine
 62
7
  6
CONTINUOUS
 10
-10.4725301565
 20
22.6684859886
 11
-7.6444092101
 21
22.6684859886
  0
LINE
  5
612
100
AcDbEntity
  8
DRAFT
100
AcDbLine
 62
7
  6
CONTINUOUS
 10
-3.2275592241
 20
22.6684859886
 11
3.5555907899
 21
22.6684859886
  0
LINE
  5
613
100
AcDbEntity
  8
RACCORDO
100
AcDbLine
 62
7
  6
CONTINUOUS
 10
7.9724407759
 20
22.6684859886
 11
10.8005617223
 21
22.6684859886
  0
LINE
  5
614
100
AcDbEntity
  8
RACCORDO
100
AcDbLine
 62
7
  6
CONTINUOUS
 10
3.5555907899
 20
22.6684859886
 11
3.906280756
 21
22.6366528306
  0
ARC
  5
615
100
AcDbEntity
  8
DRAFT
100
AcDbCircle
 62
7
  6
CONTINUOUS
 10
0.1640157829
 20
0.5091732829
 40
2.95
100
AcDbArc
 50
25.6291347882
 51
154.3708652118
  0
ARC
  5
616
100
AcDbEntity
  8
DRAFT
100
AcDbCircle
 62
7
  6
CONTINUOUS
 10
0.1640157829
 20
0.5091732829
 40
2.95
100
AcDbArc
 50
205.6291347882
 51
334.3708652118
  0
ARC
  5
617
100
AcDbEntity
  8
DRAFT
100
AcDbCircle
 62
7
  6
CONTINUOUS
 10
0.1640157829
 20
0.5091732829
 40
2.3052365195
100
AcDbArc
 50
3.1594622934
 51
176.8405377066
  0
ARC
  5
618
100
AcDbEntity
  8
DRAFT
100
AcDbCircle
 62
7
  6
CONTINUOUS
 10
0.1640157829
 20
0.5091732829
 40
2.3052365195
100
AcDbArc
 50
183.1594622934
 51
356.8405377066
  0
ARC
  5
619
100
AcDbEntity
  8
DRAFT
100
AcDbCircle
 62
7
  6
CONTINUOUS
 10
0.1640157829
 20
0.5091732829
 40
2.3
100
AcDbArc
 50
3.2319837745
 51
176.7680162255
  0
ARC
  5
61A
100
AcDbEntity
  8
DRAFT
100
AcDbCircle
 62
7
  6
CONTINUOUS
 10
0.1640157829
 20
0.5091732829
 40
2.3
100
AcDbArc
 50
183.2319837745
 51
356.7680162255
  0
ARC
  5
61B
100
AcDbEntity
  8
DRAFT
100
AcDbCircle
 62
7
  6
CONTINUOUS
 10
0.1640157829
 20
0.5091732829
 40
1.9273811542
100
AcDbArc
 50
3.8576891981
 51
176.1423108019
  0
ARC
  5
61C
100
AcDbEntity
  8
DRAFT
100
AcDbCircle
 62
7
  6
CONTINUOUS
 10
0.1640157829
 20
0.5091732829
 40
1.9273811542
100
AcDbArc
 50
183.8576891981
 51
356.1423108019
  0
ARC
  5
61D
100
AcDbEntity
  8
DRAFT
100
AcDbCircle
 62
7
  6
CONTINUOUS
 10
0.1640157829
 20
0.5091732829
 40
1.875
100
AcDbArc
 50
4.3667008241
 51
175.6332991759
  0
ARC
  5
61E
100
AcDbEntity
  8
DRAFT
100
AcDbCircle
 62
7
  6
CONTINUOUS
 10
0.1640157829
 20
0.5091732829
 40
1.875
100
AcDbArc
 50
184.3667008241
 51
355.6332991759
  0
ARC
  5
61F
100
AcDbEntity
  8
0
100
AcDbCircle
 62
7
  6
CONTINUOUS
 10
0.1640157829
 20
0.5091732829
 40
1.375
100
AcDbArc
 50
15.3271627815
 51
164.6728372185
  0
ARC
  5
620
100
AcDbEntity
  8
0
100
AcDbCircle
 62
7
  6
CONTINUOUS
 10
0.1640157829
 20
0.5091732829
 40
1.375
100
AcDbArc
 50
195.3271627815
 51
344.6728372185
  0
ELLIPSE
  5
621
100
AcDbEntity
  8
RACCORDO
100
AcDbEllipse
 62
7
  6
CONTINUOUS
 10
-10.472834511
 20
22.1700850272
 30
0.0
 11
0.498078285
 21
0.0448076117
 31
0.0
 40
0.9965957691
 41
1.4807720384
 42
3.0506549766
  0
ELLIPSE
  5
622
100
AcDbEntity
  8
RACCORDO
100
AcDbEllipse
 62
7
  6
CONTINUOUS
 10
10.8008660767
 20
22.1700850272
 30
0.0
 11
0.498078285
 21
-0.0448076117
 31
0.0
 40
0.9965957691
 41
0.0909376769
 42
1.6608206152
  0
ELLIPSE
  5
623
100
AcDbEntity
  8
RACCORDO
100
AcDbEllipse
 62
7
  6
CONTINUOUS
 10
-10.7859537515
 20
0.8091808986
 30
0.0
 11
0.1789222233
 21
0.0894542984
 31
0.0
 40
0.9998096356
 41
2.6780516535
 42
4.2486956813
  0
ELLIPSE
  5
624
100
AcDbEntity
  8
RACCORDO
100
AcDbEllipse
 62
7
  6
CONTINUOUS
 10
11.1139853173
 20
0.8091808986
 30
0.0
 11
0.1789222233
 21
-0.0894542984
 31
0.0
 40
0.9998096356
 41
-1.1071030277
 42
0.4635410001
  0
ELLIPSE
  5
625
100
AcDbEntity
  8
RACCORDO
100
AcDbEllipse
 62
7
  6
CONTINUOUS
 10
7.4485457291
 20
22.6418936086
 30
0.0
 11
0.2
 21
-0.0
 31
0.0
 40
0.0524077793
 41
-1.5707963268
 42
-0.5235987756
  0
ELLIPSE
  5
626
100
AcDbEntity
  8
RACCORDO
100
AcDbEllipse
 62
7
  6
CONTINUOUS
 10
4.0794858367
 20
22.6418936086
 30
0.0
 11
0.2
 21
-0.0
 31
0.0
 40
0.0524077793
 41
-2.617993878
 42
-1.5707963268
  0
ELLIPSE
  5
627
100
AcDbEntity
  8
RACCORDO
100
AcDbEllipse
 62
7
  6
CONTINUOUS
 10
-3.7514542709
 20
22.6418936086
 30
0.0
 11
0.2
 21
0.0
 31
0.0
 40
0.0524077793
 41
-1.5707963268
 42
-0.5235987756
  0
ELLIPSE
  5
628
100
AcDbEntity
  8
RACCORDO
100
AcDbEllipse
 62
7
  6
CONTINUOUS
 10
-7.1205141633
 20
22.6418936086
 30
0.0
 11
0.2
 21
0.0
 31
0.0
 40
0.0524077793
 41
-2.617993878
 42
-1.5707963268
  0
ELLIPSE
  5
629
100
AcDbEntity
  8
RACCORDO
100
AcDbEllipse
 62
7
  6
CONTINUOUS
 10
-9.6795693571
 20
0.5091732829
 30
0.0
 11
0.0
 21
498.5
 31
0.0
 40
0.0349207695
 41
-1.568159698
 42
-1.5589337088
  0
ELLIPSE
  5
62A
100
AcDbEntity
  8
RACCORDO
100
AcDbEllipse
 62
7
  6
CONTINUOUS
 10
24.3076009229
 20
0.5091732829
 30
0.0
 11
0.0
 21
498.5
 31
0.0
 40
0.0349207695
 41
1.5589337088
 42
1.568159698
  0
ELLIPSE
  5
62B
100
AcDbEntity
  8
RACCORDO
100
AcDbEllipse
 62
7
  6
CONTINUOUS
 10
-23.9795693571
 20
0.5091732829
 30
0.0
 11
0.0
 21
498.5
 31
0.0
 40
0.0349207695
 41
-1.568159698
 42
-1.5589337088
  0
ELLIPSE
  5
62C
100
AcDbEntity
  8
RACCORDO
100
AcDbEllipse
 62
7
  6
CONTINUOUS
 10
10.0076009229
 20
0.5091732829
 30
0.0
 11
0.0
 21
498.5
 31
0.0
 40
0.0349207695
 41
1.5589337088
 42
1.568159698
  0
ELLIPSE
  5
62D
100
AcDbEntity
  8
RACCORDO
100
AcDbEllipse
 62
7
  6
CONTINUOUS
 10
-5.505964205
 20
20.2765804997
 30
0.0
 11
-0.0096324734
 21
0.5915363915
 31
0.0
 40
0.4225722455
 41
-0.0068809827
 42
1.5322803821
  0
ELLIPSE
  5
62E
100
AcDbEntity
  8
RACCORDO
100
AcDbEllipse
 62
7
  6
CONTINUOUS
 10
5.694035795
 20
20.2765804997
 30
0.0
 11
-0.0096324734
 21
0.5915363915
 31
0.0
 40
0.4225722455
 41
-0.0068809827
 42
1.5322803821
  0
ELLIPSE
  5
62F
100
AcDbEntity
  8
RACCORDO
100
AcDbEllipse
 62
7
  6
CONTINUOUS
 10
5.8339957708
 20
20.2765804997
 30
0.0
 11
0.0096324734
 21
0.5915363915
 31
0.0
 40
0.4225722455
 41
-1.5322803821
 42
0.0068809827
  0
ELLIPSE
  5
630
100
AcDbEntity
  8
RACCORDO
100
AcDbEllipse
 62
7
  6
CONTINUOUS
 10
5.6730833333
 20
17.8630299359
 30
0.0
 11
0.0493464685
 21
0.2491672984
 31
0.0
 40
0.9842259085
 41
-2.97793128
 42
-2.9490849661
  0
ELLIPSE
  5
631
100
AcDbEntity
  8
RACCORDO
100
AcDbEllipse
 62
7
  6
CONTINUOUS
 10
5.8549482325
 20
17.8630299359
 30
0.0
 11
-0.0493464685
 21
0.2491672984
 31
0.0
 40
0.9842259085
 41
-3.3341003411
 42
-3.3052540272
  0
ELLIPSE
  5
632
100
AcDbEntity
  8
RACCORDO
100
AcDbEllipse
 62
7
  6
CONTINUOUS
 10
-5.5269166667
 20
17.8630299359
 30
0.0
 11
0.0493464685
 21
0.2491672984
 31
0.0
 40
0.9842259085
 41
-2.97793128
 42
-2.9490849661
  0
ELLIPSE
  5
633
100
AcDbEntity
  8
RACCORDO
100
AcDbEllipse
 62
7
  6
CONTINUOUS
 10
-5.3450517675
 20
17.8630299359
 30
0.0
 11
-0.0493464685
 21
0.2491672984
 31
0.0
 40
0.9842259085
 41
-3.3341003411
 42
-3.3052540272
  0
ELLIPSE
  5
634
100
AcDbEntity
  8
RACCORDO
100
AcDbEllipse
 62
7
  6
CONTINUOUS
 10
-5.3660042292
 20
20.2765804997
 30
0.0
 11
0.0096324734
 21
0.5915363915
 31
0.0
 40
0.4225722455
 41
-1.5322803821
 42
0.0068809827
  0
ELLIPSE
  5
635
100
AcDbEntity
  8
RACCORDO
100
AcDbEllipse
 62
7
  6
CONTINUOUS
 10
-7.0722831898
 20
1.7956551189
 30
0.0
 11
0.3
 21
-0.0
 31
0.0
 40
0.0349207695
 41
-3.1066860685
 42
-1.5707963268
  0
ELLIPSE
  5
636
100
AcDbEntity
  8
RACCORDO
100
AcDbEllipse
 62
7
  6
CONTINUOUS
 10
-6.8996852444
 20
1.7956551189
 30
0.0
 11
0.3
 21
0.0
 31
0.0
 40
0.0349207695
 41
-1.5707963268
 42
-0.034906585
  0
ELLIPSE
  5
637
100
AcDbEntity
  8
RACCORDO
100
AcDbEllipse
 62
7
  6
CONTINUOUS
 10
22.7576009229
 20
0.5091732829
 30
0.0
 11
0.0
 21
498.5
 31
0.0
 40
0.0349207695
 41
1.5304337907
 42
1.5390014484
  0
ELLIPSE
  5
638
100
AcDbEntity
  8
RACCORDO
100
AcDbEllipse
 62
7
  6
CONTINUOUS
 10
5.3707538599
 20
20.6163644163
 30
0.0
 11
0.0
 21
0.2
 31
0.0
 40
0.0349207695
 41
0.1221730476
 42
1.5304337907
  0
ELLIPSE
  5
639
100
AcDbEntity
  8
RACCORDO
100
AcDbEllipse
 62
7
  6
CONTINUOUS
 10
6.1572777059
 20
20.6163644163
 30
0.0
 11
0.0
 21
0.2
 31
0.0
 40
0.0349207695
 41
-1.5304337907
 42
-0.1221730476
  0
ELLIPSE
  5
63A
100
AcDbEntity
  8
RACCORDO
100
AcDbEllipse
 62
7
  6
CONTINUOUS
 10
-11.2295693571
 20
0.5091732829
 30
0.0
 11
0.0
 21
498.5
 31
0.0
 40
0.0349207695
 41
-1.5390014484
 42
-1.5304337907
  0
ELLIPSE
  5
63B
100
AcDbEntity
  8
RACCORDO
100
AcDbEllipse
 62
7
  6
CONTINUOUS
 10
11.5576009229
 20
0.5091732829
 30
0.0
 11
0.0
 21
498.5
 31
0.0
 40
0.0349207695
 41
1.5304337907
 42
1.5390014484
  0
ELLIPSE
  5
63C
100
AcDbEntity
  8
RACCORDO
100
AcDbEllipse
 62
7
  6
CONTINUOUS
 10
-5.8292461401
 20
20.6163644163
 30
0.0
 11
-0.0
 21
0.2
 31
0.0
 40
0.0349207695
 41
0.1221730476
 42
1.5304337907
  0
ELLIPSE
  5
63D
100
AcDbEntity
  8
RACCORDO
100
AcDbEllipse
 62
7
  6
CONTINUOUS
 10
-5.0427222941
 20
20.6163644163
 30
0.0
 11
0.0
 21
0.2
 31
0.0
 40
0.0349207695
 41
-1.5304337907
 42
-0.1221730476
  0
ELLIPSE
  5
63E
100
AcDbEntity
  8
RACCORDO
100
AcDbEllipse
 62
7
  6
CONTINUOUS
 10
-22.4295693571
 20
0.5091732829
 30
0.0
 11
0.0
 21
498.5
 31
0.0
 40
0.0349207695
 41
-1.5390014484
 42
-1.5304337907
  0
ELLIPSE
  5
63F
100
AcDbEntity
  8
RACCORDO
100
AcDbEllipse
 62
7
  6
CONTINUOUS
 10
7.2277168102
 20
1.7956551189
 30
0.0
 11
0.3
 21
0.0
 31
0.0
 40
0.0349207695
 41
-3.1066860685
 42
-1.5707963268
  0
ELLIPSE
  5
640
100
AcDbEntity
  8
RACCORDO
100
AcDbEllipse
 62
7
  6
CONTINUOUS
 10
7.4485457291
 20
21.0995533537
 30
0.0
 11
0.2
 21
0.0
 31
0.0
 40
0.1227845609
 41
-1.5707963268
 42
-0.5235987756
  0
ELLIPSE
  5
641
100
AcDbEntity
  8
RACCORDO
100
AcDbEllipse
 62
7
  6
CONTINUOUS
 10
4.0794858367
 20
21.0995533537
 30
0.0
 11
0.2
 21
0.0
 31
0.0
 40
0.1227845609
 41
-2.617993878
 42
-1.5707963268
  0
ELLIPSE
  5
642
100
AcDbEntity
  8
RACCORDO
100
AcDbEllipse
 62
7
  6
CONTINUOUS
 10
-3.7514542709
 20
21.0995533537
 30
0.0
 11
0.2
 21
0.0
 31
0.0
 40
0.1227845609
 41
-1.5707963268
 42
-0.5235987756
  0
ELLIPSE
  5
643
100
AcDbEntity
  8
RACCORDO
100
AcDbEllipse
 62
7
  6
CONTINUOUS
 10
-7.1205141633
 20
21.0995533537
 30
0.0
 11
0.2
 21
0.0
 31
0.0
 40
0.1227845609
 41
-2.617993878
 42
-1.5707963268
  0
ELLIPSE
  5
644
100
AcDbEntity
  8
RACCORDO
100
AcDbEllipse
 62
7
  6
CONTINUOUS
 10
7.4003147556
 20
1.7956551189
 30
0.0
 11
0.3
 21
-0.0
 31
0.0
 40
0.0349207695
 41
-1.5707963268
 42
-0.034906585
  0
ELLIPSE
  5
645
100
AcDbEntity
  8
RACCORDO
100
AcDbEllipse
 62
7
  6
CONTINUOUS
 10
-9.5246998908
 20
20.978508029
 30
0.0
 11
0.1992395838
 21
-0.0178260286
 31
0.0
 40
0.9965982379
 41
1.6603320108
 42
3.2290014227
  0
ELLIPSE
  5
646
100
AcDbEntity
  8
RACCORDO
100
AcDbEllipse
 62
7
  6
CONTINUOUS
 10
9.8527314566
 20
20.978508029
 30
0.0
 11
0.1992395838
 21
0.0178260286
 31
0.0
 40
0.9965982379
 41
-0.0874087691
 42
1.4812606428
  0
ELLIPSE
  5
647
100
AcDbEntity
  8
RACCORDO
100
AcDbEllipse
 62
7
  6
CONTINUOUS
 10
10.8008660767
 20
-21.1517384614
 30
0.0
 11
0.498078285
 21
0.0448076117
 31
0.0
 40
0.9965957691
 41
-1.6608206152
 42
-0.0909376769
  0
ELLIPSE
  5
648
100
AcDbEntity
  8
RACCORDO
100
AcDbEllipse
 62
7
  6
CONTINUOUS
 10
-10.472834511
 20
-21.1517384614
 30
0.0
 11
0.498078285
 21
-0.0448076117
 31
0.0
 40
0.9965957691
 41
-3.0506549766
 42
-1.4807720384
  0
ELLIPSE
  5
649
100
AcDbEntity
  8
RACCORDO
100
AcDbEllipse
 62
7
  6
CONTINUOUS
 10
11.1139853173
 20
0.2091656672
 30
0.0
 11
-0.1789222233
 21
-0.0894542984
 31
0.0
 40
0.9998096356
 41
2.6780516535
 42
4.2486956813
  0
ELLIPSE
  5
64A
100
AcDbEntity
  8
RACCORDO
100
AcDbEllipse
 62
7
  6
CONTINUOUS
 10
-10.7859537515
 20
0.2091656672
 30
0.0
 11
-0.1789222233
 21
0.0894542984
 31
0.0
 40
0.9998096356
 41
-1.1071030277
 42
0.4635410001
  0
ELLIPSE
  5
64B
100
AcDbEntity
  8
RACCORDO
100
AcDbEllipse
 62
7
  6
CONTINUOUS
 10
-7.1205141633
 20
-21.6235470428
 30
0.0
 11
0.2
 21
-0.0
 31
0.0
 40
0.0524077793
 41
1.5707963268
 42
2.617993878
  0
ELLIPSE
  5
64C
100
AcDbEntity
  8
RACCORDO
100
AcDbEllipse
 62
7
  6
CONTINUOUS
 10
-3.7514542709
 20
-21.6235470428
 30
0.0
 11
0.2
 21
0.0
 31
0.0
 40
0.0524077793
 41
0.5235987756
 42
1.5707963268
  0
ELLIPSE
  5
64D
100
AcDbEntity
  8
RACCORDO
100
AcDbEllipse
 62
7
  6
CONTINUOUS
 10
4.0794858367
 20
-21.6235470428
 30
0.0
 11
0.2
 21
0.0
 31
0.0
 40
0.0524077793
 41
1.5707963268
 42
2.617993878
  0
ELLIPSE
  5
64E
100
AcDbEntity
  8
RACCORDO
100
AcDbEllipse
 62
7
  6
CONTINUOUS
 10
7.4485457291
 20
-21.6235470428
 30
0.0
 11
0.2
 21
0.0
 31
0.0
 40
0.0524077793
 41
0.5235987756
 42
1.5707963268
  0
ELLIPSE
  5
64F
100
AcDbEntity
  8
RACCORDO
100
AcDbEllipse
 62
7
  6
CONTINUOUS
 10
10.0076009229
 20
0.5091732829
 30
0.0
 11
0.0
 21
498.5
 31
0.0
 40
0.0349207695
 41
-4.7097523516
 42
-4.7005263624
  0
ELLIPSE
  5
650
100
AcDbEntity
  8
RACCORDO
100
AcDbEllipse
 62
7
  6
CONTINUOUS
 10
-23.9795693571
 20
0.5091732829
 30
0.0
 11
0.0
 21
498.5
 31
0.0
 40
0.0349207695
 41
-1.5826589448
 42
-1.5734329556
  0
ELLIPSE
  5
651
100
AcDbEntity
  8
RACCORDO
100
AcDbEllipse
 62
7
  6
CONTINUOUS
 10
24.3076009229
 20
0.5091732829
 30
0.0
 11
0.0
 21
498.5
 31
0.0
 40
0.0349207695
 41
-4.7097523516
 42
-4.7005263624
  0
ELLIPSE
  5
652
100
AcDbEntity
  8
RACCORDO
100
AcDbEllipse
 62
7
  6
CONTINUOUS
 10
-9.6795693571
 20
0.5091732829
 30
0.0
 11
0.0
 21
498.5
 31
0.0
 40
0.0349207695
 41
-1.5826589448
 42
-1.5734329556
  0
ELLIPSE
  5
653
100
AcDbEntity
  8
RACCORDO
100
AcDbEllipse
 62
7
  6
CONTINUOUS
 10
5.8339957708
 20
-19.2582339339
 30
0.0
 11
-0.0096324734
 21
0.5915363915
 31
0.0
 40
0.4225722455
 41
-3.1484736363
 42
-1.6093122714
  0
ELLIPSE
  5
654
100
AcDbEntity
  8
RACCORDO
100
AcDbEllipse
 62
7
  6
CONTINUOUS
 10
-5.3660042292
 20
-19.2582339339
 30
0.0
 11
-0.0096324734
 21
0.5915363915
 31
0.0
 40
0.4225722455
 41
-3.1484736363
 42
-1.6093122714
  0
ELLIPSE
  5
655
100
AcDbEntity
  8
RACCORDO
100
AcDbEllipse
 62
7
  6
CONTINUOUS
 10
-5.505964205
 20
-19.2582339339
 30
0.0
 11
0.0096324734
 21
0.5915363915
 31
0.0
 40
0.4225722455
 41
-4.6738730357
 42
-3.1347116709
  0
ELLIPSE
  5
656
100
AcDbEntity
  8
RACCORDO
100
AcDbEllipse
 62
7
  6
CONTINUOUS
 10
-5.3450517675
 20
-16.8446833701
 30
0.0
 11
0.0493464685
 21
0.2491672984
 31
0.0
 40
0.9842259085
 41
0.1636613736
 42
0.1925076875
  0
ELLIPSE
  5
657
100
AcDbEntity
  8
RACCORDO
100
AcDbEllipse
 62
7
  6
CONTINUOUS
 10
-5.5269166667
 20
-16.8446833701
 30
0.0
 11
-0.0493464685
 21
0.2491672984
 31
0.0
 40
0.9842259085
 41
-0.1925076875
 42
-0.1636613736
  0
ELLIPSE
  5
658
100
AcDbEntity
  8
RACCORDO
100
AcDbEllipse
 62
7
  6
CONTINUOUS
 10
5.8549482325
 20
-16.8446833701
 30
0.0
 11
0.0493464685
 21
0.2491672984
 31
0.0
 40
0.9842259085
 41
0.1636613736
 42
0.1925076875
  0
ELLIPSE
  5
659
100
AcDbEntity
  8
RACCORDO
100
AcDbEllipse
 62
7
  6
CONTINUOUS
 10
5.6730833333
 20
-16.8446833701
 30
0.0
 11
-0.0493464685
 21
0.2491672984
 31
0.0
 40
0.9842259085
 41
-0.1925076875
 42
-0.1636613736
  0
ELLIPSE
  5
65A
100
AcDbEntity
  8
RACCORDO
100
AcDbEllipse
 62
7
  6
CONTINUOUS
 10
5.694035795
 20
-19.2582339339
 30
0.0
 11
0.0096324734
 21
0.5915363915
 31
0.0
 40
0.4225722455
 41
-4.6738730357
 42
-3.1347116709
  0
ELLIPSE
  5
65B
100
AcDbEntity
  8
RACCORDO
100
AcDbEllipse
 62
7
  6
CONTINUOUS
 10
7.4003147556
 20
-0.7773085531
 30
0.0
 11
0.3
 21
-0.0
 31
0.0
 40
0.0349207695
 41
0.034906585
 42
1.5707963268
  0
ELLIPSE
  5
65C
100
AcDbEntity
  8
RACCORDO
100
AcDbEllipse
 62
7
  6
CONTINUOUS
 10
7.2277168102
 20
-0.7773085531
 30
0.0
 11
0.3
 21
-0.0
 31
0.0
 40
0.0349207695
 41
1.5707963268
 42
3.1066860685
  0
ELLIPSE
  5
65D
100
AcDbEntity
  8
RACCORDO
100
AcDbEllipse
 62
7
  6
CONTINUOUS
 10
-22.4295693571
 20
0.5091732829
 30
0.0
 11
0.0
 21
498.5
 31
0.0
 40
0.0349207695
 41
-1.6111588629
 42
-1.6025912052
  0
ELLIPSE
  5
65E
100
AcDbEntity
  8
RACCORDO
100
AcDbEllipse
 62
7
  6
CONTINUOUS
 10
-5.0427222941
 20
-19.5980178505
 30
0.0
 11
0.0
 21
0.2
 31
0.0
 40
0.0349207695
 41
-3.019419606
 42
-1.6111588629
  0
ELLIPSE
  5
65F
100
AcDbEntity
  8
RACCORDO
100
AcDbEllipse
 62
7
  6
CONTINUOUS
 10
-5.8292461401
 20
-19.5980178505
 30
0.0
 11
0.0
 21
0.2
 31
0.0
 40
0.0349207695
 41
-4.6720264443
 42
-3.2637657012
  0
ELLIPSE
  5
660
100
AcDbEntity
  8
RACCORDO
100
AcDbEllipse
 62
7
  6
CONTINUOUS
 10
11.5576009229
 20
0.5091732829
 30
0.0
 11
0.0
 21
498.5
 31
0.0
 40
0.0349207695
 41
-4.680594102
 42
-4.6720264443
  0
ELLIPSE
  5
661
100
AcDbEntity
  8
RACCORDO
100
AcDbEllipse
 62
7
  6
CONTINUOUS
 10
-11.2295693571
 20
0.5091732829
 30
0.0
 11
0.0
 21
498.5
 31
0.0
 40
0.0349207695
 41
-1.6111588629
 42
-1.6025912052
  0
ELLIPSE
  5
662
100
AcDbEntity
  8
RACCORDO
100
AcDbEllipse
 62
7
  6
CONTINUOUS
 10
6.1572777059
 20
-19.5980178505
 30
0.0
 11
0.0
 21
0.2
 31
0.0
 40
0.0349207695
 41
-3.0194196059
 42
-1.6111588629
  0
ELLIPSE
  5
663
100
AcDbEntity
  8
RACCORDO
100
AcDbEllipse
 62
7
  6
CONTINUOUS
 10
5.3707538599
 20
-19.5980178505
 30
0.0
 11
0.0
 21
0.2
 31
0.0
 40
0.0349207695
 41
-4.6720264443
 42
-3.2637657012
  0
ELLIPSE
  5
664
100
AcDbEntity
  8
RACCORDO
100
AcDbEllipse
 62
7
  6
CONTINUOUS
 10
22.7576009229
 20
0.5091732829
 30
0.0
 11
0.0
 21
498.5
 31
0.0
 40
0.0349207695
 41
-4.680594102
 42
-4.6720264443
  0
ELLIPSE
  5
665
100
AcDbEntity
  8
RACCORDO
100
AcDbEllipse
 62
7
  6
CONTINUOUS
 10
-6.8996852444
 20
-0.7773085531
 30
0.0
 11
0.3
 21
-0.0
 31
0.0
 40
0.0349207695
 41
0.034906585
 42
1.5707963268
  0
ELLIPSE
  5
666
100
AcDbEntity
  8
RACCORDO
100
AcDbEllipse
 62
7
  6
CONTINUOUS
 10
-7.1205141633
 20
-20.0812067879
 30
0.0
 11
0.2
 21
0.0
 31
0.0
 40
0.1227845609
 41
1.5707963268
 42
2.617993878
  0
ELLIPSE
  5
667
100
AcDbEntity
  8
RACCORDO
100
AcDbEllipse
 62
7
  6
CONTINUOUS
 10
-3.7514542709
 20
-20.0812067879
 30
0.0
 11
0.2
 21
-0.0
 31
0.0
 40
0.1227845609
 41
0.5235987756
 42
1.5707963268
  0
ELLIPSE
  5
668
100
AcDbEntity
  8
RACCORDO
100
AcDbEllipse
 62
7
  6
CONTINUOUS
 10
4.0794858367
 20
-20.0812067879
 30
0.0
 11
0.2
 21
0.0
 31
0.0
 40
0.1227845609
 41
1.5707963268
 42
2.617993878
  0
ELLIPSE
  5
669
100
AcDbEntity
  8
RACCORDO
100
AcDbEllipse
 62
7
  6
CONTINUOUS
 10
7.4485457291
 20
-20.0812067879
 30
0.0
 11
0.2
 21
-0.0
 31
0.0
 40
0.1227845609
 41
0.5235987756
 42
1.5707963268
  0
ELLIPSE
  5
66A
100
AcDbEntity
  8
RACCORDO
100
AcDbEllipse
 62
7
  6
CONTINUOUS
 10
-7.0722831898
 20
-0.7773085531
 30
0.0
 11
0.3
 21
-0.0
 31
0.0
 40
0.0349207695
 41
1.5707963268
 42
3.1066860685
  0
ELLIPSE
  5
66B
100
AcDbEntity
  8
RACCORDO
100
AcDbEllipse
 62
7
  6
CONTINUOUS
 10
9.8527314566
 20
-19.9601614633
 30
0.0
 11
0.1992395838
 21
-0.0178260286
 31
0.0
 40
0.9965982379
 41
-1.4812606427
 42
0.0874087691
  0
ELLIPSE
  5
66C
100
AcDbEntity
  8
RACCORDO
100
AcDbEllipse
 62
7
  6
CONTINUOUS
 10
-9.5246998908
 20
-19.9601614633
 30
0.0
 11
0.1992395838
 21
0.0178260286
 31
0.0
 40
0.9965982379
 41
3.0541838845
 42
4.6228532964
  0
ENDSEC
  0
SECTION
  2
OBJECTS
  0
DICTIONARY
  5
C
100
AcDbDictionary
280
0
281
1
  3
ACAD_GROUP
350
D
  3
ACAD_MLINESTYLE
350
17
  3
ACAD_LAYOUT
350
1A
  3
ACAD_PLOTSETTINGS
350
19
  3
ACAD_PLOTSTYLENAME
350
E
  0
DICTIONARY
  5
D
102
{ACAD_REACTORS
330
C
102
}
100
AcDbDictionary
280
0
281
1
  0
ACDBDICTIONARYWDFLT
  5
E
102
{ACAD_REACTORS
330
C
102
}
100
AcDbDictionary
281
1
  3
Normal
350
F
100
AcDbDictionaryWithDefault
340
F
  0
DICTIONARY
  5
17
102
{ACAD_REACTORS
330
C
102
}
100
AcDbDictionary
280
0
281
1
  3
Standard
350
18
  0
DICTIONARY
  5
19
102
{ACAD_REACTORS
330
C
102
}
100
AcDbDictionary
281
1
  0
DICTIONARY
  5
1A
102
{ACAD_REACTORS
330
C
102
}
100
AcDbDictionary
281
1
  3
Model
350
66D
  3
Layout1
350
66E
  0
ACDBPLACEHOLDER
  5
F
102
{ACAD_REACTORS
330
E
102
}
  0
MLINESTYLE
  5
18
102
{ACAD_REACTORS
330
17
102
}
100
AcDbMlineStyle
  2
STANDARD
 70
0
  3

 62
256
 51
90.0
 52
90.0
 71
2
 49
0.5
 62
256
  6
BYLAYER
 49
-0.5
 62
256
  6
BYLAYER
  0
LAYOUT
  5
66D
102
{ACAD_REACTORS
330
1A
102
}
100
AcDbPlotSettings
  1

  2
none_device
  4

  6

 40
0.0
 41
0.0
 42
0.0
 43
0.0
 44
210.0
 45
297.0
 46
0.0
 47
0.0
 48
0.0
 49
0.0
140
0.0
141
0.0
142
1.0
143
1.0
 70
1024
 72
1
 73
0
 74
0
  7

 75
0
147
1.0
148
0.0
149
0.0
100
AcDbLayout
  1
Model
 70
0
 71
0
 10
0.0
 20
0.0
 11
210.0
 21
297.0
 12
0.0
 22
0.0
 32
0.0
 14
0.0
 24
0.0
 34
0.0
 15
0.0
 25
0.0
 35
0.0
146
0.0
 13
0.0
 23
0.0
 33
0.0
 16
1.0
 26
0.0
 36
0.0
 17
0.0
 27
1.0
 37
0.0
 76
0
330
212
345
0
346
0
  0
LAYOUT
  5
66E
102
{ACAD_REACTORS
330
1A
102
}
100
AcDbPlotSettings
  1

  2
none_device
  4

  6

 40
0.0
 41
0.0
 42
0.0
 43
0.0
 44
210.0
 45
297.0
 46
0.0
 47
0.0
 48
0.0
 49
0.0
140
0.0
141
0.0
142
1.0
143
1.0
 70
0
 72
1
 73
0
 74
0
  7

 75
0
147
1.0
148
0.0
149
0.0
100
AcDbLayout
  1
Layout1
 70
0
 71
1
 10
0.0
 20
0.0
 11
210.0
 21
297.0
 12
0.0
 22
0.0
 32
0.0
 14
0.0
 24
0.0
 34
0.0
 15
0.0
 25
0.0
 35
0.0
146
0.0
 13
0.0
 23
0.0
 33
0.0
 16
1.0
 26
0.0
 36
0.0
 17
0.0
 27
1.0
 37
0.0
 76
0
330
213
345
0
346
0
  0
ENDSEC
  0
EOF
