  0
SECTION
  2
HEADER
  9
$ACADVER
  1
AC1024
  9
$DWGCODEPAGE
  3
ANSI_1252
  9
$EXTMAX
 10
210.0
 20
297.0
 30
0.0
  9
$EXTMIN
 10
0.0
 20
0.0
 30
0.0
  9
$LIMMIN
 10
0.0
 20
0.0
  9
$LIMMAX
 10
210.0
 20
297.0
  9
$VIEWCTR
 10
105.0
 20
148.5
  9
$VIEWSIZE
 40
297.0
  9
$CLAYER
  8
0
  9
$LTSCALE
 40
19.36
  9
$CELTYPE
  6
BYLAYER
  9
$DIMSCALE
 40
1.0
  9
$DIMASZ
 40
3.0
  9
$DIMEXO
 40
0.5
  9
$DIMDLI
 40
13.376
  9
$DIMEXE
 40
1.5
  9
$DIMCEN
 40
3.168
  9
$DIMLFAC
 40
1.0
  9
$DIMBLK
  1
_FILLED
  9
$DIMALT
 70
0
  9
$DIMALTF
 40
0.0393700787
  9
$DIMTXT
 40
3.0
  9
$DIMTOL
 70
1
  9
$DIMLIM
 70
0
  9
$DIMTFAC
 40
1.0
  9
$DIMTP
 40
0.01
  9
$DIMTM
 40
0.01
  9
$DIMGAP
 40
0.625
  9
$DIMDSEP
 70
44
  9
$AUNITS
 70
0
  9
$PDMODE
 70
3
  9
$PDSIZE
 40
3.0
  9
$HANDSEED
  5
65B
  9
$TILEMODE
 70
1
  9
$MEASUREMENT
 70
1
  9
$INSUNITS
 70
4
  0
ENDSEC
  0
SECTION
  2
CLASSES
  0
CLASS
  1
ACDBDICTIONARYWDFLT
  2
AcDbDictionaryWithDefault
  3
AutoCAD 2000
 90
0
 91
1
280
0
281
0
  0
CLASS
  1
ACDBPLACEHOLDER
  2
AcDbPlaceHolder
  3
AutoCAD 2000
 90
0
 91
1
280
0
281
0
  0
CLASS
  1
LAYOUT
  2
AcDbLayout
  3
AutoCAD 2000
 90
0
 91
0
280
0
281
0
  0
ENDSEC
  0
SECTION
  2
TABLES
  0
TABLE
  2
VPORT
  5
8
100
AcDbSymbolTable
 70
2
  0
VPORT
  5
1F4
100
AcDbSymbolTableRecord
100
AcDbViewportTableRecord
  2
*ACTIVE
 70
0
 10
0.0
 20
0.0
 11
1.0
 21
1.0
 12
105.0
 22
148.5
 13
0.0
 23
0.0
 14
1.0
 24
1.0
 15
0.0
 25
0.0
 16
0.0
 26
0.0
 36
1.0
 17
0.0
 27
0.0
 37
0.0
 40
297.0
 41
0.7070707071
 42
50.0
 43
0.0
 44
0.0
 50
0.0
 51
0.0
 71
0
 72
100
 73
1
 74
1
 75
0
 76
0
 77
0
 78
0
  0
ENDTAB
  0
TABLE
  2
LTYPE
  5
5
100
AcDbSymbolTable
 70
6
  0
LTYPE
  5
14
100
AcDbSymbolTableRecord
100
AcDbLinetypeTableRecord
  2
BYBLOCK
 70
0
  3

 72
65
 73
0
 40
0.0
  0
LTYPE
  5
15
100
AcDbSymbolTableRecord
100
AcDbLinetypeTableRecord
  2
BYLAYER
 70
0
  3

 72
65
 73
0
 40
0.0
  0
LTYPE
  5
16
100
AcDbSymbolTableRecord
100
AcDbLinetypeTableRecord
  2
CONTINUOUS
 70
64
  3
Solid line
 72
65
 73
0
 40
0.0
  0
LTYPE
  5
1F5
100
AcDbSymbolTableRecord
100
AcDbLinetypeTableRecord
  2
CENTER
 70
64
  3
____ _ ____ _ ____ _ ____ _ ____ _ ____ _ ____
 72
65
 73
4
 40
0.6
 49
0.375
 74
0
 49
-0.075
 74
0
 49
0.075
 74
0
 49
-0.075
 74
0
  0
LTYPE
  5
1F6
100
AcDbSymbolTableRecord
100
AcDbLinetypeTableRecord
  2
HIDDEN
 70
64
  3
- - - - - - - - - - - - - - - - - - - -
 72
65
 73
2
 40
0.2
 49
0.1
 74
0
 49
-0.1
 74
0
  0
LTYPE
  5
1F7
100
AcDbSymbolTableRecord
100
AcDbLinetypeTableRecord
  2
PHANTOM
 70
64
  3
_____ _ _ _____ _ _ _____ _ _ _____
 72
65
 73
6
 40
0.8
 49
0.45
 74
0
 49
-0.05
 74
0
 49
0.1
 74
0
 49
-0.05
 74
0
 49
0.1
 74
0
 49
-0.05
 74
0
  0
LTYPE
  5
1F8
100
AcDbSymbolTableRecord
100
AcDbLinetypeTableRecord
  2
DOT
 70
64
  3
. . . . . . . . . . . . . . . . . . . .
 72
65
 73
2
 40
0.2
 49
0.1
 74
0
 49
-0.1
 74
0
  0
LTYPE
  5
1F9
100
AcDbSymbolTableRecord
100
AcDbLinetypeTableRecord
  2
DASHED
 70
64
  3
- - - - - - - - - - - - - - - - - - - -
 72
65
 73
2
 40
0.2
 49
0.1
 74
0
 49
-0.1
 74
0
  0
ENDTAB
  0
TABLE
  2
LAYER
  5
2
100
AcDbSymbolTable
 70
36
  0
LAYER
  5
10
100
AcDbSymbolTableRecord
100
AcDbLayerTableRecord
  2
0
 70
0
 62
7
  6
CONTINUOUS
370
-3
390
F
  0
LAYER
  5
1FA
100
AcDbSymbolTableRecord
100
AcDbLayerTableRecord
  2
DEFAULT_1
 70
0
 62
7
  6
CENTER
370
-3
390
F
  0
LAYER
  5
1FB
100
AcDbSymbolTableRecord
100
AcDbLayerTableRecord
  2
DEFAULT_2
 70
0
 62
7
  6
HIDDEN
370
-3
390
F
  0
LAYER
  5
1FC
100
AcDbSymbolTableRecord
100
AcDbLayerTableRecord
  2
DEFAULT_3
 70
0
 62
7
  6
PHANTOM
370
-3
390
F
  0
LAYER
  5
1FD
100
AcDbSymbolTableRecord
100
AcDbLayerTableRecord
  2
ASSI
 70
0
 62
7
  6
CONTINUOUS
370
-3
390
F
  0
LAYER
  5
1FE
100
AcDbSymbolTableRecord
100
AcDbLayerTableRecord
  2
COORDINATE
 70
0
 62
7
  6
CONTINUOUS
370
-3
390
F
  0
LAYER
  5
1FF
100
AcDbSymbolTableRecord
100
AcDbLayerTableRecord
  2
COORD_ORIGINE
 70
0
 62
7
  6
CONTINUOUS
370
-3
390
F
  0
LAYER
  5
200
100
AcDbSymbolTableRecord
100
AcDbLayerTableRecord
  2
COPY_PUBLISH
 70
0
 62
7
  6
CONTINUOUS
370
-3
390
F
  0
LAYER
  5
201
100
AcDbSymbolTableRecord
100
AcDbLayerTableRecord
  2
COSMETICI
 70
0
 62
7
  6
CONTINUOUS
370
-3
390
F
  0
LAYER
  5
202
100
AcDbSymbolTableRecord
100
AcDbLayerTableRecord
  2
CURVE
 70
0
 62
7
  6
CONTINUOUS
370
-3
390
F
  0
LAYER
  5
203
100
AcDbSymbolTableRecord
100
AcDbLayerTableRecord
  2
DRAFT
 70
0
 62
7
  6
CONTINUOUS
370
-3
390
F
  0
LAYER
  5
204
100
AcDbSymbolTableRecord
100
AcDbLayerTableRecord
  2
IGES
 70
0
 62
7
  6
CONTINUOUS
370
-3
390
F
  0
LAYER
  5
205
100
AcDbSymbolTableRecord
100
AcDbLayerTableRecord
  2
IMPORT_IGES
 70
0
 62
7
  6
CONTINUOUS
370
-3
390
F
  0
LAYER
  5
206
100
AcDbSymbolTableRecord
100
AcDbLayerTableRecord
  2
INTF_2
 70
0
 62
7
  6
CONTINUOUS
370
-3
390
F
  0
LAYER
  5
207
100
AcDbSymbolTableRecord
100
AcDbLayerTableRecord
  2
INTF_YELLOW
 70
0
 62
7
  6
CONTINUOUS
370
-3
390
F
  0
LAYER
  5
208
100
AcDbSymbolTableRecord
100
AcDbLayerTableRecord
  2
NOTE
 70
0
 62
7
  6
CONTINUOUS
370
-3
390
F
  0
LAYER
  5
209
100
AcDbSymbolTableRecord
100
AcDbLayerTableRecord
  2
PIANI
 70
0
 62
7
  6
CONTINUOUS
370
-3
390
F
  0
LAYER
  5
20A
100
AcDbSymbolTableRecord
100
AcDbLayerTableRecord
  2
PIANI_ORIGINE
 70
0
 62
7
  6
CONTINUOUS
370
-3
390
F
  0
LAYER
  5
20B
100
AcDbSymbolTableRecord
100
AcDbLayerTableRecord
  2
PIANI_RIFERIMENTO
 70
0
 62
7
  6
CONTINUOUS
370
-3
390
F
  0
LAYER
  5
20C
100
AcDbSymbolTableRecord
100
AcDbLayerTableRecord
  2
PUNTI
 70
0
 62
7
  6
CONTINUOUS
370
-3
390
F
  0
LAYER
  5
20D
100
AcDbSymbolTableRecord
100
AcDbLayerTableRecord
  2
RACCORDO
 70
0
 62
7
  6
CONTINUOUS
370
-3
390
F
  0
LAYER
  5
20E
100
AcDbSymbolTableRecord
100
AcDbLayerTableRecord
  2
SIMBOLI
 70
0
 62
7
  6
CONTINUOUS
370
-3
390
F
  0
LAYER
  5
20F
100
AcDbSymbolTableRecord
100
AcDbLayerTableRecord
  2
SMUSSO
 70
0
 62
7
  6
CONTINUOUS
370
-3
390
F
  0
LAYER
  5
210
100
AcDbSymbolTableRecord
100
AcDbLayerTableRecord
  2
SNAPLINE
 70
0
 62
7
  6
CONTINUOUS
370
-3
390
F
  0
LAYER
  5
211
100
AcDbSymbolTableRecord
100
AcDbLayerTableRecord
  2
SUPERFICI
 70
0
 62
7
  6
CONTINUOUS
370
-3
390
F
  0
LAYER
  5
212
100
AcDbSymbolTableRecord
100
AcDbLayerTableRecord
  2
TRASH
 70
0
 62
7
  6
CONTINUOUS
370
-3
390
F
  0
LAYER
  5
213
100
AcDbSymbolTableRecord
100
AcDbLayerTableRecord
  2
XSEC_DATUMS
 70
0
 62
7
  6
CONTINUOUS
370
-3
390
F
  0
ENDTAB
  0
TABLE
  2
STYLE
  5
3
100
AcDbSymbolTable
 70
1
  0
STYLE
  5
11
100
AcDbSymbolTableRecord
100
AcDbTextStyleTableRecord
  2
STANDARD
 70
0
 40
0.0
 41
0.8
 50
0.0
 71
0
 42
0.2
  3
txt
  4

  0
STYLE
  5
214
100
AcDbSymbolTableRecord
100
AcDbTextStyleTableRecord
  2
TEXTSTYLE_1
 70
0
 40
0.0
 41
0.8
 50
0.0
 71
0
 42
0.2
  3
gdt
  4

  0
ENDTAB
  0
TABLE
  2
VIEW
  5
6
100
AcDbSymbolTable
 70
0
  0
ENDTAB
  0
TABLE
  2
UCS
  5
7
100
AcDbSymbolTable
 70
0
  0
ENDTAB
  0
TABLE
  2
APPID
  5
9
100
AcDbSymbolTable
 70
1
  0
APPID
  5
215
100
AcDbSymbolTableRecord
100
AcDbRegAppTableRecord
  2
ACAD
 70
0
  0
ENDTAB
  0
TABLE
  2
BLOCK_RECORD
  5
1
100
AcDbSymbolTable
 70
0
  0
BLOCK_RECORD
  5
216
100
AcDbSymbolTableRecord
100
AcDbBlockTableRecord
  2
*Model_Space
  0
BLOCK_RECORD
  5
217
100
AcDbSymbolTableRecord
100
AcDbBlockTableRecord
  2
*Paper_Space
  0
BLOCK_RECORD
  5
218
100
AcDbSymbolTableRecord
100
AcDbBlockTableRecord
  2
_FILLED
  0
ENDTAB
  0
TABLE
  2
DIMSTYLE
  5
A
100
AcDbSymbolTable
 70
1
100
AcDbDimStyleTable
 71
0
  0
DIMSTYLE
105
219
100
AcDbSymbolTableRecord
100
AcDbDimStyleTableRecord
  2
STANDARD
 70
0
  3

  4

 40
1.0
 41
3.0
 42
0.5
 43
0.38
 44
1.5
 45
0.0
 46
0.0
 47
0.01
 48
0.01
140
3.0
141
0.09
142
0.0
143
25.4
144
1.0
145
0.0
146
1.0
147
0.625
 71
1
 72
0
 73
0
 74
0
 75
0
 76
0
 77
1
 78
8
 79
2
170
0
171
1
172
0
173
0
174
0
175
0
176
0
177
0
178
0
270
2
179
2
271
2
272
2
273
2
274
2
275
0
280
0
281
0
282
0
283
1
284
8
285
0
286
0
287
3
288
0
340
11
278
44
341
218
342
218
343
218
344
218
  0
ENDTAB
  0
ENDSEC
  0
SECTION
  2
BLOCKS
  0
BLOCK
  5
20
100
AcDbEntity
  8
0
100
AcDbBlockBegin
  2
*Model_Space
 70
0
 10
0.0
 20
0.0
 30
0.0
  3
*Model_Space
  1

  0
ENDBLK
  5
21
100
AcDbEntity
  8
0
100
AcDbBlockEnd
  0
BLOCK
  5
1C
100
AcDbEntity
  8
0
100
AcDbBlockBegin
  2
*Paper_Space
 70
0
 10
0.0
 20
0.0
 30
0.0
  3
*Paper_Space
  1

  0
ENDBLK
  5
1D
100
AcDbEntity
  8
0
100
AcDbBlockEnd
  0
BLOCK
  5
21A
100
AcDbEntity
  8
0
100
AcDbBlockBegin
  2
_FILLED
 70
64
 10
0.0
 20
0.0
  3
_FILLED
  1

  0
SOLID
  5
21B
100
AcDbEntity
  8
0
  6
BYBLOCK
 62
0
100
AcDbTrace
 10
0.0
 20
0.0
 11
-1.0
 21
0.3166666667
 12
-1.0
 22
-0.3166666667
 13
-1.0
 23
-0.3166666667
  0
ENDBLK
  5
21C
100
AcDbEntity
  8
0
  6
BYBLOCK
 62
0
100
AcDbBlockEnd
  0
ENDSEC
  0
SECTION
  2
ENTITIES
  0
LINE
  5
21D
100
AcDbEntity
  8
ASSI
100
AcDbLine
 62
7
  6
CONTINUOUS
 10
3.4147518123
 20
-22.1255783534
 11
3.7654417784
 21
-22.0937451954
  0
LINE
  5
21E
100
AcDbEntity
  8
ASSI
100
AcDbLine
 62
7
  6
CONTINUOUS
 10
10.6597227447
 20
-22.1255783534
 11
7.8316017983
 21
-22.1255783534
  0
LINE
  5
21F
100
AcDbEntity
  8
ASSI
100
AcDbLine
 62
7
  6
CONTINUOUS
 10
3.4147518123
 20
-22.1255783534
 11
-3.3683982017
 21
-22.1255783534
  0
LINE
  5
220
100
AcDbEntity
  8
ASSI
100
AcDbLine
 62
7
  6
CONTINUOUS
 10
-7.7852481877
 20
-22.1255783534
 11
-10.6133691341
 21
-22.1255783534
  0
LINE
  5
221
100
AcDbEntity
  8
ASSI
100
AcDbLine
 62
7
  6
CONTINUOUS
 10
7.3077067515
 20
-22.0885044175
 11
3.9386468592
 21
-22.0885044175
  0
LINE
  5
222
100
AcDbEntity
  8
ASSI
100
AcDbLine
 62
7
  6
CONTINUOUS
 10
-3.8922932485
 20
-22.0885044175
 11
-7.2613531408
 21
-22.0885044175
  0
LINE
  5
223
100
AcDbEntity
  8
ASSI
100
AcDbLine
 62
7
  6
CONTINUOUS
 10
-3.3683982017
 20
-22.1255783534
 11
-3.7190881678
 21
-22.0937451954
  0
LINE
  5
224
100
AcDbEntity
  8
ASSI
100
AcDbLine
 62
7
  6
CONTINUOUS
 10
3.7654417784
 20
-20.5443672624
 11
3.3394583285
 21
-20.6349607784
  0
LINE
  5
225
100
AcDbEntity
  8
ASSI
100
AcDbLine
 62
7
  6
CONTINUOUS
 10
-7.7852481877
 20
-22.1255783534
 11
-7.4345582216
 21
-22.0937451954
  0
LWPOLYLINE
  5
226
100
AcDbEntity
  8
ASSI
100
AcDbPolyline
 62
250
  6
CONTINUOUS
 90
13
 70
0
 10
9.7839359027
 20
-20.0797162954
 10
9.795222447
 20
-20.0793226226
 10
9.8057717058
 20
-20.0788968785
 10
9.8155259854
 20
-20.0784413915
 10
9.8244319398
 20
-20.0779586516
 10
9.8324408626
 20
-20.0774512993
 10
9.8395089532
 20
-20.0769221109
 10
9.8455975563
 20
-20.076373978
 10
9.8506733737
 20
-20.0758098983
 10
9.8547086456
 20
-20.0752329613
 10
9.8576813035
 20
-20.0746463211
 10
9.8595750897
 20
-20.0740531809
 10
9.8603796474
 20
-20.0734567811
  0
LINE
  5
227
100
AcDbEntity
  8
ASSI
100
AcDbLine
 62
250
  6
CONTINUOUS
 10
9.7594015553
 20
-20.0803989996
 11
9.7839359027
 21
-20.0797162954
  0
LINE
  5
228
100
AcDbEntity
  8
ASSI
100
AcDbLine
 62
250
  6
CONTINUOUS
 10
9.7327046409
 20
-20.0809300792
 11
9.7594015553
 21
-20.0803989996
  0
LINE
  5
229
100
AcDbEntity
  8
ASSI
100
AcDbLine
 62
250
  6
CONTINUOUS
 10
9.7044283802
 20
-20.0812979308
 11
9.7327046409
 21
-20.0809300792
  0
LINE
  5
22A
100
AcDbEntity
  8
ASSI
100
AcDbLine
 62
250
  6
CONTINUOUS
 10
9.6751904964
 20
-20.0814945235
 11
9.7044283802
 21
-20.0812979308
  0
LINE
  5
22B
100
AcDbEntity
  8
ASSI
100
AcDbLine
 62
7
  6
CONTINUOUS
 10
9.7120134792
 20
-20.6349607784
 11
7.9068952821
 21
-20.6349607784
  0
LINE
  5
22C
100
AcDbEntity
  8
ASSI
100
AcDbLine
 62
7
  6
CONTINUOUS
 10
3.3394583285
 20
-20.6349607784
 11
-3.2931047179
 21
-20.6349607784
  0
LINE
  5
22D
100
AcDbEntity
  8
ASSI
100
AcDbLine
 62
7
  6
CONTINUOUS
 10
-7.8605416715
 20
-20.6349607784
 11
-9.6656598685
 21
-20.6349607784
  0
LINE
  5
22E
100
AcDbEntity
  8
ASSI
100
AcDbLine
 62
7
  6
CONTINUOUS
 10
7.3077067515
 20
-20.5320888063
 11
5.9433091793
 21
-20.5320888063
  0
LINE
  5
22F
100
AcDbEntity
  8
ASSI
100
AcDbLine
 62
7
  6
CONTINUOUS
 10
5.3030444313
 20
-20.5320888063
 11
3.9386468592
 21
-20.5320888063
  0
LINE
  5
230
100
AcDbEntity
  8
ASSI
100
AcDbLine
 62
7
  6
CONTINUOUS
 10
-3.8922932485
 20
-20.5320888063
 11
-5.2566908207
 21
-20.5320888063
  0
LINE
  5
231
100
AcDbEntity
  8
ASSI
100
AcDbLine
 62
7
  6
CONTINUOUS
 10
-5.8969555687
 20
-20.5320888063
 11
-7.2613531408
 21
-20.5320888063
  0
LINE
  5
232
100
AcDbEntity
  8
ASSI
100
AcDbLine
 62
7
  6
CONTINUOUS
 10
-5.4989309654
 20
-20.3252232602
 11
-5.6547154239
 21
-20.3252232602
  0
LINE
  5
233
100
AcDbEntity
  8
ASSI
100
AcDbLine
 62
7
  6
CONTINUOUS
 10
5.5452845761
 20
-20.3252232602
 11
5.7010690346
 21
-20.3252232602
  0
LINE
  5
234
100
AcDbEntity
  8
ASSI
100
AcDbLine
 62
250
  6
CONTINUOUS
 10
-9.6140564977
 20
-20.2719660114
 11
-5.9709362719
 21
-20.2719660114
  0
LINE
  5
235
100
AcDbEntity
  8
ASSI
100
AcDbLine
 62
250
  6
CONTINUOUS
 10
-5.1827101175
 20
-20.2719660114
 11
5.2290637281
 21
-20.2719660114
  0
LINE
  5
236
100
AcDbEntity
  8
ASSI
100
AcDbLine
 62
250
  6
CONTINUOUS
 10
6.0172898825
 20
-20.2719660114
 11
9.6604101084
 21
-20.2719660114
  0
LINE
  5
237
100
AcDbEntity
  8
ASSI
100
AcDbLine
 62
250
  6
CONTINUOUS
 10
-9.6140564873
 20
-20.0815270966
 11
-5.9770635832
 21
-20.0815270966
  0
LINE
  5
238
100
AcDbEntity
  8
ASSI
100
AcDbLine
 62
250
  6
CONTINUOUS
 10
-5.1765828061
 20
-20.0815270966
 11
5.2229364168
 21
-20.0815270966
  0
LINE
  5
239
100
AcDbEntity
  8
ASSI
100
AcDbLine
 62
250
  6
CONTINUOUS
 10
6.0234171939
 20
-20.0815270966
 11
9.6751904964
 21
-20.0814945235
  0
LWPOLYLINE
  5
23A
100
AcDbEntity
  8
ASSI
100
AcDbPolyline
 62
250
  6
CONTINUOUS
 90
3
 70
0
 10
-9.6580747695
 20
-20.0812979308
 10
-9.6288030784
 20
-20.0813918935
 10
-9.6140564977
 20
-20.0815270966
  0
LINE
  5
23B
100
AcDbEntity
  8
ASSI
100
AcDbLine
 62
250
  6
CONTINUOUS
 10
-9.6723787983
 20
-20.0811529277
 11
-9.6580747695
 21
-20.0812979308
  0
LWPOLYLINE
  5
23C
100
AcDbEntity
  8
ASSI
100
AcDbPolyline
 62
250
  6
CONTINUOUS
 90
3
 70
0
 10
-9.7375822921
 20
-20.0797162954
 10
-9.713054633
 20
-20.0804159898
 10
-9.6723787983
 20
-20.0811529277
  0
LWPOLYLINE
  5
23D
100
AcDbEntity
  8
ASSI
100
AcDbPolyline
 62
250
  6
CONTINUOUS
 90
25
 70
0
 10
-9.6140564977
 20
-20.2719660114
 10
-9.6271174772
 20
-20.271514561
 10
-9.6401226788
 20
-20.2702172912
 10
-9.653016563
 20
-20.268079742
 10
-9.6657440655
 20
-20.265111042
 10
-9.6782508328
 20
-20.2613238692
 10
-9.6904834536
 20
-20.256734397
 10
-9.7023896879
 20
-20.2513622252
 10
-9.7139186892
 20
-20.2452302958
 10
-9.7250212221
 20
-20.2383647957
 10
-9.7356498725
 20
-20.2307950446
 10
-9.7457592499
 20
-20.2225533696
 10
-9.7553061817
 20
-20.2136749672
 10
-9.7642498969
 20
-20.2041977534
 10
-9.7725522008
 20
-20.1941622013
 10
-9.7801776379
 20
-20.1836111683
 10
-9.7870936431
 20
-20.1725897134
 10
-9.7932706813
 20
-20.1611449044
 10
-9.7986823729
 20
-20.1493256173
 10
-9.8033056069
 20
-20.137182327
 10
-9.8071206396
 20
-20.1247668924
 10
-9.8101111784
 20
-20.1121323344
 10
-9.8122644523
 20
-20.0993326098
 10
-9.8135712653
 20
-20.0864223807
 10
-9.8140260367
 20
-20.0734567811
  0
LWPOLYLINE
  5
23E
100
AcDbEntity
  8
ASSI
100
AcDbPolyline
 62
250
  6
CONTINUOUS
 90
3
 70
0
 10
-9.7691723747
 20
-20.0784413915
 10
-9.7488769333
 20
-20.0793422823
 10
-9.7375822921
 20
-20.0797162954
  0
LINE
  5
23F
100
AcDbEntity
  8
ASSI
100
AcDbLine
 62
250
  6
CONTINUOUS
 10
-9.7780885151
 20
-20.0779860467
 11
-9.7691723747
 21
-20.0784413915
  0
LINE
  5
240
100
AcDbEntity
  8
ASSI
100
AcDbLine
 62
7
  6
CONTINUOUS
 10
7.8316017983
 20
-22.1255783534
 11
7.4809118322
 21
-22.0937451954
  0
LINE
  5
241
100
AcDbEntity
  8
ASSI
100
AcDbLine
 62
7
  6
CONTINUOUS
 10
-3.7190881678
 20
-20.5443672624
 11
-3.2931047179
 21
-20.6349607784
  0
LINE
  5
242
100
AcDbEntity
  8
ASSI
100
AcDbLine
 62
7
  6
CONTINUOUS
 10
-7.4345582216
 20
-20.5443672624
 11
-7.8605416715
 21
-20.6349607784
  0
LWPOLYLINE
  5
243
100
AcDbEntity
  8
ASSI
100
AcDbPolyline
 62
250
  6
CONTINUOUS
 90
25
 70
0
 10
5.6636377294
 20
-18.0265427274
 10
5.6796579873
 20
-18.0261112492
 10
5.6956123749
 20
-18.0252471466
 10
5.7114352958
 20
-18.0239539727
 10
5.7270616949
 20
-18.0222370443
 10
5.7424273238
 20
-18.020103421
 10
5.7574690049
 20
-18.0175618759
 10
5.7721248947
 20
-18.0146228588
 10
5.7863347362
 20
-18.0112984539
 10
5.8000401051
 20
-18.0076023302
 10
5.8131846526
 20
-18.0035496847
 10
5.825714336
 20
-17.9991571801
 10
5.8375776404
 20
-17.9944428769
 10
5.8487257909
 20
-17.9894261581
 10
5.8591129534
 20
-17.9841276502
 10
5.8686964228
 20
-17.978569138
 10
5.877436798
 20
-17.9727734755
 10
5.8852981447
 20
-17.9667644916
 10
5.8922481429
 20
-17.9605668916
 10
5.898258219
 20
-17.9542061569
 10
5.9033036639
 20
-17.9477084393
 10
5.907363735
 20
-17.9411004532
 10
5.9104217404
 20
-17.9344093667
 10
5.9124651076
 20
-17.9276626901
 10
5.9134854361
 20
-17.920888162
  0
LWPOLYLINE
  5
244
100
AcDbEntity
  8
ASSI
100
AcDbPolyline
 62
250
  6
CONTINUOUS
 90
8
 70
0
 10
-9.8140260367
 20
-20.0734567811
 10
-9.8132103695
 20
-20.0741659963
 10
-9.8113122157
 20
-20.0747346916
 10
-9.808355035
 20
-20.0752329613
 10
-9.8043355487
 20
-20.0757987815
 10
-9.7992532879
 20
-20.0764129903
 10
-9.7931553425
 20
-20.0769221109
 10
-9.7780885151
 20
-20.0779860467
  0
LWPOLYLINE
  5
245
100
AcDbEntity
  8
ASSI
100
AcDbPolyline
 62
7
  6
CONTINUOUS
 90
31
 70
0
 10
5.5235141633
 20
-17.0663712587
 10
5.5078995754
 20
-17.0673177545
 10
5.4926081423
 20
-17.0689490162
 10
5.4776930714
 20
-17.0712650436
 10
5.4632088051
 20
-17.0743115147
 10
5.449188762
 20
-17.0780427516
 10
5.43564671
 20
-17.0823217207
 10
5.4226171158
 20
-17.0871423951
 10
5.4101222693
 20
-17.0925108017
 10
5.3981536415
 20
-17.0983079878
 10
5.3867309946
 20
-17.1045271431
 10
5.3758693684
 20
-17.1111750779
 10
5.3655528605
 20
-17.1181532697
 10
5.3557919115
 20
-17.125456492
 10
5.3465964713
 20
-17.1330899713
 10
5.3379517391
 20
-17.1409708645
 10
5.3298626972
 20
-17.1490957365
 10
5.3223349826
 20
-17.1574680224
 10
5.3153571736
 20
-17.1660151848
 10
5.3089305226
 20
-17.1747352858
 10
5.3030570999
 20
-17.1836302632
 10
5.2977286467
 20
-17.1926333932
 10
5.2929433943
 20
-17.2017436928
 10
5.2887000797
 20
-17.210962145
 10
5.2849920657
 20
-17.2202249751
 10
5.2818145776
 20
-17.2295318798
 10
5.2791630908
 20
-17.2388831624
 10
5.2770307276
 20
-17.2482159577
 10
5.2754097824
 20
-17.2575093108
 10
5.2742916081
 20
-17.2667841768
 10
5.2736664566
 20
-17.2760405555
  0
LWPOLYLINE
  5
246
100
AcDbEntity
  8
ASSI
100
AcDbPolyline
 62
250
  6
CONTINUOUS
 90
25
 70
0
 10
5.5814366294
 20
-17.3223090783
 10
5.5651584072
 20
-17.3229293714
 10
5.5489493573
 20
-17.3245931937
 10
5.5328783555
 20
-17.3272934748
 10
5.51701369
 20
-17.3310187402
 10
5.5014227739
 20
-17.33575316
 10
5.4861718581
 20
-17.3414766151
 10
5.4713257468
 20
-17.3481647846
 10
5.4569475236
 20
-17.3557892482
 10
5.4430982853
 20
-17.3643176062
 10
5.4298368797
 20
-17.3737136189
 10
5.4172196561
 20
-17.3839373598
 10
5.4053002272
 20
-17.3949453848
 10
5.39412924
 20
-17.4066909176
 10
5.3837541611
 20
-17.4191240486
 10
5.3742190747
 20
-17.4321919464
 10
5.3655644962
 20
-17.4458390823
 10
5.3578271991
 20
-17.4600074668
 10
5.3510400589
 20
-17.4746368965
 10
5.3452319144
 20
-17.4896652079
 10
5.3404274443
 20
-17.505028543
 10
5.336647062
 20
-17.5206616222
 10
5.3339068305
 20
-17.5364980185
 10
5.3322183927
 20
-17.5524704398
 10
5.3315889227
 20
-17.5685110166
  0
LWPOLYLINE
  5
247
100
AcDbEntity
  8
ASSI
100
AcDbPolyline
 62
250
  6
CONTINUOUS
 90
25
 70
0
 10
-5.6185633706
 20
-17.3223090783
 10
-5.6348415928
 20
-17.3229293714
 10
-5.6510506427
 20
-17.3245931937
 10
-5.6671216445
 20
-17.3272934748
 10
-5.68298631
 20
-17.3310187402
 10
-5.6985772261
 20
-17.33575316
 10
-5.7138281419
 20
-17.3414766151
 10
-5.7286742532
 20
-17.3481647846
 10
-5.7430524764
 20
-17.3557892482
 10
-5.7569017147
 20
-17.3643176062
 10
-5.7701631203
 20
-17.3737136189
 10
-5.7827803439
 20
-17.3839373598
 10
-5.7946997728
 20
-17.3949453848
 10
-5.80587076
 20
-17.4066909176
 10
-5.8162458389
 20
-17.4191240486
 10
-5.8257809253
 20
-17.4321919464
 10
-5.8344355038
 20
-17.4458390823
 10
-5.8421728009
 20
-17.4600074668
 10
-5.8489599411
 20
-17.4746368965
 10
-5.8547680856
 20
-17.4896652079
 10
-5.8595725557
 20
-17.505028543
 10
-5.863352938
 20
-17.5206616222
 10
-5.8660931695
 20
-17.5364980185
 10
-5.8677816073
 20
-17.5524704398
 10
-5.8684110773
 20
-17.5685110166
  0
LWPOLYLINE
  5
248
100
AcDbEntity
  8
ASSI
100
AcDbPolyline
 62
250
  6
CONTINUOUS
 90
25
 70
0
 10
-5.5363622706
 20
-18.0265427274
 10
-5.5203420127
 20
-18.0261112492
 10
-5.5043876251
 20
-18.0252471466
 10
-5.4885647042
 20
-18.0239539727
 10
-5.4729383051
 20
-18.0222370443
 10
-5.4575726762
 20
-18.020103421
 10
-5.4425309951
 20
-18.0175618759
 10
-5.4278751053
 20
-18.0146228588
 10
-5.4136652638
 20
-18.0112984539
 10
-5.3999598949
 20
-18.0076023302
 10
-5.3868153474
 20
-18.0035496847
 10
-5.374285664
 20
-17.9991571801
 10
-5.3624223596
 20
-17.9944428769
 10
-5.3512742091
 20
-17.9894261581
 10
-5.3408870466
 20
-17.9841276502
 10
-5.3313035772
 20
-17.978569138
 10
-5.322563202
 20
-17.9727734755
 10
-5.3147018553
 20
-17.9667644916
 10
-5.3077518571
 20
-17.9605668916
 10
-5.301741781
 20
-17.9542061569
 10
-5.2966963361
 20
-17.9477084393
 10
-5.292636265
 20
-17.9411004532
 10
-5.2895782596
 20
-17.9344093667
 10
-5.2875348924
 20
-17.9276626901
 10
-5.2865145639
 20
-17.920888162
  0
LINE
  5
249
100
AcDbEntity
  8
ASSI
100
AcDbLine
 62
250
  6
CONTINUOUS
 10
5.6636377294
 20
-18.0265427274
 11
5.5827158813
 21
-18.0265427274
  0
LINE
  5
24A
100
AcDbEntity
  8
ASSI
100
AcDbLine
 62
250
  6
CONTINUOUS
 10
-5.5363622706
 20
-18.0265427274
 11
-5.6172841187
 21
-18.0265427274
  0
LINE
  5
24B
100
AcDbEntity
  8
ASSI
100
AcDbLine
 62
250
  6
CONTINUOUS
 10
-5.8669682353
 20
-17.8997572489
 11
-5.2866781541
 21
-17.8997572489
  0
LINE
  5
24C
100
AcDbEntity
  8
ASSI
100
AcDbLine
 62
250
  6
CONTINUOUS
 10
5.3330317647
 20
-17.8997572489
 11
5.9133218459
 21
-17.8997572489
  0
LINE
  5
24D
100
AcDbEntity
  8
ASSI
100
AcDbLine
 62
250
  6
CONTINUOUS
 10
-5.8669682353
 20
-17.6177514042
 11
-5.2866781541
 21
-17.6177514042
  0
LINE
  5
24E
100
AcDbEntity
  8
ASSI
100
AcDbLine
 62
250
  6
CONTINUOUS
 10
5.3330317647
 20
-17.6177514042
 11
5.9133218459
 21
-17.6177514042
  0
LINE
  5
24F
100
AcDbEntity
  8
ASSI
100
AcDbLine
 62
250
  6
CONTINUOUS
 10
5.6649169812
 20
-17.3223090783
 11
5.5814366294
 21
-17.3223090783
  0
LINE
  5
250
100
AcDbEntity
  8
ASSI
100
AcDbLine
 62
250
  6
CONTINUOUS
 10
-5.5350830188
 20
-17.3223090783
 11
-5.6185633706
 21
-17.3223090783
  0
LINE
  5
251
100
AcDbEntity
  8
ASSI
100
AcDbLine
 62
7
  6
CONTINUOUS
 10
5.7156252369
 20
-17.0662656477
 11
5.5307283737
 21
-17.0662656477
  0
LINE
  5
252
100
AcDbEntity
  8
ASSI
100
AcDbLine
 62
7
  6
CONTINUOUS
 10
-5.6692716263
 20
-17.0662656477
 11
-5.4843747631
 21
-17.0662656477
  0
LWPOLYLINE
  5
253
100
AcDbEntity
  8
ASSI
100
AcDbPolyline
 62
250
  6
CONTINUOUS
 90
25
 70
0
 10
-5.6172841187
 20
-18.0265427274
 10
-5.6333043171
 20
-18.0261112527
 10
-5.6492586489
 20
-18.0252471566
 10
-5.6650815185
 20
-18.0239539917
 10
-5.6807078705
 20
-18.0222370749
 10
-5.6960734578
 20
-18.0201034652
 10
-5.7111151052
 20
-18.0175619349
 10
-5.7257709695
 20
-18.0146229334
 10
-5.7399807935
 20
-18.0112985444
 10
-5.7536861539
 20
-18.0076024359
 10
-5.7668307017
 20
-18.0035498045
 10
-5.7793603935
 20
-17.9991573123
 10
-5.7912237137
 20
-17.9944430189
 10
-5.8023718868
 20
-17.9894263071
 10
-5.8127590773
 20
-17.9841278028
 10
-5.8223425787
 20
-17.9785692908
 10
-5.8310829887
 20
-17.9727736246
 10
-5.8389443714
 20
-17.966764633
 10
-5.8458944049
 20
-17.9605670217
 10
-5.8519045144
 20
-17.954206272
 10
-5.8569499896
 20
-17.947708536
 10
-5.8610100861
 20
-17.9411005288
 10
-5.8640681109
 20
-17.9344094191
 10
-5.8661114912
 20
-17.9276627172
 10
-5.8671318255
 20
-17.920888162
  0
LWPOLYLINE
  5
254
100
AcDbEntity
  8
ASSI
100
AcDbPolyline
 62
250
  6
CONTINUOUS
 90
25
 70
0
 10
5.5827158813
 20
-18.0265427274
 10
5.5666956829
 20
-18.0261112527
 10
5.5507413511
 20
-18.0252471566
 10
5.5349184815
 20
-18.0239539917
 10
5.5192921295
 20
-18.0222370749
 10
5.5039265422
 20
-18.0201034652
 10
5.4888848948
 20
-18.0175619349
 10
5.4742290305
 20
-18.0146229334
 10
5.4600192065
 20
-18.0112985444
 10
5.4463138461
 20
-18.0076024359
 10
5.4331692983
 20
-18.0035498045
 10
5.4206396065
 20
-17.9991573123
 10
5.4087762863
 20
-17.9944430189
 10
5.3976281132
 20
-17.9894263071
 10
5.3872409227
 20
-17.9841278028
 10
5.3776574213
 20
-17.9785692908
 10
5.3689170113
 20
-17.9727736246
 10
5.3610556286
 20
-17.966764633
 10
5.3541055951
 20
-17.9605670217
 10
5.3480954856
 20
-17.954206272
 10
5.3430500104
 20
-17.947708536
 10
5.3389899139
 20
-17.9411005288
 10
5.3359318891
 20
-17.9344094191
 10
5.3338885088
 20
-17.9276627172
 10
5.3328681745
 20
-17.920888162
  0
LWPOLYLINE
  5
255
100
AcDbEntity
  8
ASSI
100
AcDbPolyline
 62
250
  6
CONTINUOUS
 90
25
 70
0
 10
-5.5350830188
 20
-17.3223090783
 10
-5.5188048528
 20
-17.3229293674
 10
-5.5025958558
 20
-17.3245931788
 10
-5.4865249028
 20
-17.3272934428
 10
-5.4706602824
 20
-17.3310186853
 10
-5.4550694062
 20
-17.3357530772
 10
-5.4398185228
 20
-17.3414765012
 10
-5.4249724361
 20
-17.3481646372
 10
-5.4105942299
 20
-17.3557890663
 10
-5.3967449998
 20
-17.3643173907
 10
-5.3834835939
 20
-17.3737133721
 10
-5.3708663622
 20
-17.383937085
 10
-5.3589469179
 20
-17.3949450872
 10
-5.3477759088
 20
-17.4066906034
 10
-5.3374008026
 20
-17.4191237249
 10
-5.3278656852
 20
-17.4321916209
 10
-5.319211073
 20
-17.4458387635
 10
-5.3114737411
 20
-17.4600071635
 10
-5.3046865668
 20
-17.4746366167
 10
-5.2988783902
 20
-17.4896649597
 10
-5.2940738912
 20
-17.5050283344
 10
-5.2902934851
 20
-17.5206614589
 10
-5.2875532355
 20
-17.5364979051
 10
-5.2858647863
 20
-17.552470381
 10
-5.285235312
 20
-17.5685110166
  0
LWPOLYLINE
  5
256
100
AcDbEntity
  8
ASSI
100
AcDbPolyline
 62
250
  6
CONTINUOUS
 90
25
 70
0
 10
5.6649169812
 20
-17.3223090783
 10
5.6811951472
 20
-17.3229293674
 10
5.6974041442
 20
-17.3245931788
 10
5.7134750972
 20
-17.3272934428
 10
5.7293397176
 20
-17.3310186853
 10
5.7449305938
 20
-17.3357530772
 10
5.7601814772
 20
-17.3414765012
 10
5.7750275639
 20
-17.3481646372
 10
5.7894057701
 20
-17.3557890663
 10
5.8032550002
 20
-17.3643173907
 10
5.8165164061
 20
-17.3737133721
 10
5.8291336378
 20
-17.383937085
 10
5.8410530821
 20
-17.3949450872
 10
5.8522240912
 20
-17.4066906034
 10
5.8625991974
 20
-17.4191237249
 10
5.8721343148
 20
-17.4321916209
 10
5.880788927
 20
-17.4458387635
 10
5.8885262589
 20
-17.4600071635
 10
5.8953134332
 20
-17.4746366167
 10
5.9011216098
 20
-17.4896649597
 10
5.9059261088
 20
-17.5050283344
 10
5.9097065149
 20
-17.5206614589
 10
5.9124467645
 20
-17.5364979051
 10
5.9141352137
 20
-17.552470381
 10
5.914764688
 20
-17.5685110166
  0
LINE
  5
257
100
AcDbEntity
  8
ASSI
100
AcDbLine
 62
7
  6
CONTINUOUS
 10
7.4809118322
 20
-20.5443672624
 11
7.9068952821
 21
-20.6349607784
  0
LWPOLYLINE
  5
258
100
AcDbEntity
  8
ASSI
100
AcDbPolyline
 62
250
  6
CONTINUOUS
 90
25
 70
0
 10
5.5217985974
 20
-15.5905691251
 10
5.5054640714
 20
-15.5911138534
 10
5.4891994403
 20
-15.5927258001
 10
5.473074298
 20
-15.5953980674
 10
5.4571576414
 20
-15.5991192208
 10
5.4415175754
 20
-15.6038733378
 10
5.4262210216
 20
-15.6096400755
 10
5.4113334315
 20
-15.6163947586
 10
5.3969185066
 20
-15.6241084844
 10
5.383037926
 20
-15.6327482466
 10
5.3697510823
 20
-15.6422770766
 10
5.3571148274
 20
-15.6526542016
 10
5.3451832295
 20
-15.663835219
 10
5.3340073418
 20
-15.6757722867
 10
5.3236349834
 20
-15.6884143275
 10
5.3141105356
 20
-15.7017072479
 10
5.3054747515
 20
-15.7155941694
 10
5.2977645816
 20
-15.7300156719
 10
5.2910130158
 20
-15.744910048
 10
5.2852489425
 20
-15.760213567
 10
5.2804970245
 20
-15.7758607477
 10
5.2767775939
 20
-15.7917846385
 10
5.274106565
 20
-15.8079171038
 10
5.2724953661
 20
-15.8241891157
 10
5.2719508907
 20
-15.8405310489
  0
LWPOLYLINE
  5
259
100
AcDbEntity
  8
ASSI
100
AcDbPolyline
 62
250
  6
CONTINUOUS
 90
25
 70
0
 10
-5.6782014026
 20
-15.5905691251
 10
-5.6945359286
 20
-15.5911138534
 10
-5.7108005597
 20
-15.5927258001
 10
-5.726925702
 20
-15.5953980674
 10
-5.7428423586
 20
-15.5991192208
 10
-5.7584824246
 20
-15.6038733378
 10
-5.7737789784
 20
-15.6096400755
 10
-5.7886665685
 20
-15.6163947586
 10
-5.8030814934
 20
-15.6241084844
 10
-5.816962074
 20
-15.6327482466
 10
-5.8302489177
 20
-15.6422770766
 10
-5.8428851726
 20
-15.6526542016
 10
-5.8548167705
 20
-15.663835219
 10
-5.8659926582
 20
-15.6757722867
 10
-5.8763650166
 20
-15.6884143275
 10
-5.8858894644
 20
-15.7017072479
 10
-5.8945252485
 20
-15.7155941694
 10
-5.9022354184
 20
-15.7300156719
 10
-5.9089869842
 20
-15.744910048
 10
-5.9147510575
 20
-15.760213567
 10
-5.9195029755
 20
-15.7758607477
 10
-5.9232224061
 20
-15.7917846385
 10
-5.925893435
 20
-15.8079171038
 10
-5.9275046339
 20
-15.8241891157
 10
-5.9280491093
 20
-15.8405310489
  0
LINE
  5
25A
100
AcDbEntity
  8
ASSI
100
AcDbLine
 62
250
  6
CONTINUOUS
 10
-5.9263335434
 20
-15.8905234337
 11
-5.2273128459
 21
-15.8905234337
  0
LINE
  5
25B
100
AcDbEntity
  8
ASSI
100
AcDbLine
 62
250
  6
CONTINUOUS
 10
5.2736664566
 20
-15.8905234337
 11
5.9726871541
 21
-15.8905234337
  0
LINE
  5
25C
100
AcDbEntity
  8
ASSI
100
AcDbLine
 62
250
  6
CONTINUOUS
 10
5.7245554716
 20
-15.590568896
 11
5.521798139
 21
-15.590568896
  0
LINE
  5
25D
100
AcDbEntity
  8
ASSI
100
AcDbLine
 62
250
  6
CONTINUOUS
 10
-5.4754445284
 20
-15.590568896
 11
-5.678201861
 21
-15.590568896
  0
LINE
  5
25E
100
AcDbEntity
  8
ASSI
100
AcDbLine
 62
7
  6
CONTINUOUS
 10
5.7790724774
 20
-15.5633186982
 11
5.4672811332
 21
-15.5633186982
  0
LINE
  5
25F
100
AcDbEntity
  8
ASSI
100
AcDbLine
 62
7
  6
CONTINUOUS
 10
-5.4209275226
 20
-15.5633186982
 11
-5.7327188668
 21
-15.5633186982
  0
LWPOLYLINE
  5
260
100
AcDbEntity
  8
ASSI
100
AcDbPolyline
 62
7
  6
CONTINUOUS
 90
28
 70
0
 10
-5.4209275226
 20
-15.5633186982
 10
-5.4064688603
 20
-15.5637369246
 10
-5.3920296684
 20
-15.5649938952
 10
-5.3776588432
 20
-15.5670906573
 10
-5.3633859911
 20
-15.5700299899
 10
-5.3492805961
 20
-15.5738048196
 10
-5.3354488225
 20
-15.5783868811
 10
-5.3219666012
 20
-15.5837425085
 10
-5.3088454715
 20
-15.5898584145
 10
-5.2960929032
 20
-15.5967292753
 10
-5.2837509903
 20
-15.604334567
 10
-5.2718638064
 20
-15.6126493681
 10
-5.2604462538
 20
-15.6216690614
 10
-5.249512111
 20
-15.6313971921
 10
-5.2391367817
 20
-15.6417818121
 10
-5.2294182857
 20
-15.6527247707
 10
-5.2204089327
 20
-15.6641501125
 10
-5.2121047646
 20
-15.6760445453
 10
-5.2045093807
 20
-15.6883947722
 10
-5.1976477531
 20
-15.7011573348
 10
-5.1915410021
 20
-15.7142898104
 10
-5.186194589
 20
-15.7277850815
 10
-5.1816218143
 20
-15.7416330362
 10
-5.1778572736
 20
-15.7557564237
 10
-5.1749301293
 20
-15.7700450822
 10
-5.1728472541
 20
-15.7844279973
 10
-5.1716053299
 20
-15.7988767067
 10
-5.1712030016
 20
-15.8133421961
  0
LWPOLYLINE
  5
261
100
AcDbEntity
  8
ASSI
100
AcDbPolyline
 62
7
  6
CONTINUOUS
 90
28
 70
0
 10
5.7790724774
 20
-15.5633186982
 10
5.7935311397
 20
-15.5637369246
 10
5.8079703316
 20
-15.5649938952
 10
5.8223411568
 20
-15.5670906573
 10
5.8366140089
 20
-15.5700299899
 10
5.8507194039
 20
-15.5738048196
 10
5.8645511775
 20
-15.5783868811
 10
5.8780333988
 20
-15.5837425085
 10
5.8911545285
 20
-15.5898584145
 10
5.9039070968
 20
-15.5967292753
 10
5.9162490097
 20
-15.604334567
 10
5.9281361936
 20
-15.6126493681
 10
5.9395537462
 20
-15.6216690614
 10
5.950487889
 20
-15.6313971921
 10
5.9608632183
 20
-15.6417818121
 10
5.9705817143
 20
-15.6527247707
 10
5.9795910673
 20
-15.6641501125
 10
5.9878952354
 20
-15.6760445453
 10
5.9954906193
 20
-15.6883947722
 10
6.0023522469
 20
-15.7011573348
 10
6.0084589979
 20
-15.7142898104
 10
6.013805411
 20
-15.7277850815
 10
6.0183781857
 20
-15.7416330362
 10
6.0221427264
 20
-15.7557564237
 10
6.0250698707
 20
-15.7700450822
 10
6.0271527459
 20
-15.7844279973
 10
6.0283946701
 20
-15.7988767067
 10
6.0287969984
 20
-15.8133421961
  0
LWPOLYLINE
  5
262
100
AcDbEntity
  8
ASSI
100
AcDbPolyline
 62
250
  6
CONTINUOUS
 90
25
 70
0
 10
-5.4754449868
 20
-15.5905691251
 10
-5.4591104891
 20
-15.5911138515
 10
-5.4428458839
 20
-15.5927257929
 10
-5.426720765
 20
-15.5953980519
 10
-5.4108041289
 20
-15.5991191944
 10
-5.3951640804
 20
-15.6038732984
 10
-5.3798675406
 20
-15.6096400216
 10
-5.3649799608
 20
-15.6163946894
 10
-5.3505650426
 20
-15.6241083996
 10
-5.3366844651
 20
-15.6327481465
 10
-5.3233976208
 20
-15.642276962
 10
-5.3107613621
 20
-15.6526540739
 10
-5.2988297573
 20
-15.6638350804
 10
-5.2876538599
 20
-15.6757721396
 10
-5.2772814896
 20
-15.688414175
 10
-5.2677570282
 20
-15.7017070933
 10
-5.2591212292
 20
-15.7155940163
 10
-5.2514110437
 20
-15.7300155242
 10
-5.2446594624
 20
-15.7449099098
 10
-5.2388953741
 20
-15.7602134424
 10
-5.2341434425
 20
-15.7758606407
 10
-5.2304240003
 20
-15.791784553
 10
-5.2277529623
 20
-15.8079170435
 10
-5.2261417576
 20
-15.8241890839
 10
-5.22559728
 20
-15.8405310489
  0
LWPOLYLINE
  5
263
100
AcDbEntity
  8
ASSI
100
AcDbPolyline
 62
250
  6
CONTINUOUS
 90
25
 70
0
 10
5.7245550132
 20
-15.5905691251
 10
5.7408895109
 20
-15.5911138515
 10
5.7571541161
 20
-15.5927257929
 10
5.773279235
 20
-15.5953980519
 10
5.7891958711
 20
-15.5991191944
 10
5.8048359196
 20
-15.6038732984
 10
5.8201324594
 20
-15.6096400216
 10
5.8350200392
 20
-15.6163946894
 10
5.8494349574
 20
-15.6241083996
 10
5.8633155349
 20
-15.6327481465
 10
5.8766023792
 20
-15.642276962
 10
5.8892386379
 20
-15.6526540739
 10
5.9011702427
 20
-15.6638350804
 10
5.9123461401
 20
-15.6757721396
 10
5.9227185104
 20
-15.688414175
 10
5.9322429718
 20
-15.7017070933
 10
5.9408787708
 20
-15.7155940163
 10
5.9485889563
 20
-15.7300155242
 10
5.9553405376
 20
-15.7449099098
 10
5.9611046259
 20
-15.7602134424
 10
5.9658565575
 20
-15.7758606407
 10
5.9695759997
 20
-15.791784553
 10
5.9722470377
 20
-15.8079170435
 10
5.9738582424
 20
-15.8241890839
 10
5.97440272
 20
-15.8405310489
  0
LINE
  5
264
100
AcDbEntity
  8
ASSI
100
AcDbLine
 62
250
  6
CONTINUOUS
 10
-5.9824433877
 20
-15.8133421961
 11
-5.9280491093
 21
-15.8405310489
  0
LINE
  5
265
100
AcDbEntity
  8
ASSI
100
AcDbLine
 62
250
  6
CONTINUOUS
 10
-5.7327188668
 20
-15.5633186982
 11
-5.678201861
 21
-15.590568896
  0
LINE
  5
266
100
AcDbEntity
  8
ASSI
100
AcDbLine
 62
7
  6
CONTINUOUS
 10
-9.8599462956
 20
-14.0662656477
 11
-9.4768231947
 21
-14.0662656477
  0
LINE
  5
267
100
AcDbEntity
  8
ASSI
100
AcDbLine
 62
7
  6
CONTINUOUS
 10
9.5231768053
 20
-14.0662656477
 11
9.9062999063
 21
-14.0662656477
  0
LINE
  5
268
100
AcDbEntity
  8
ASSI
100
AcDbLine
 62
7
  6
CONTINUOUS
 10
11.1731768053
 20
-13.0662656477
 11
9.9231768053
 21
-13.0662656477
  0
LINE
  5
269
100
AcDbEntity
  8
ASSI
100
AcDbLine
 62
7
  6
CONTINUOUS
 10
-9.8768231947
 20
-13.0662656477
 11
-11.1268231947
 21
-13.0662656477
  0
LINE
  5
26A
100
AcDbEntity
  8
ASSI
100
AcDbLine
 62
250
  6
CONTINUOUS
 10
-5.9280491093
 20
15.9079997535
 11
-5.9824433877
 21
15.8808109007
  0
LINE
  5
26B
100
AcDbEntity
  8
ASSI
100
AcDbLine
 62
250
  6
CONTINUOUS
 10
-5.678201861
 20
15.6580376006
 11
-5.7327188668
 21
15.6307874028
  0
LWPOLYLINE
  5
26C
100
AcDbEntity
  8
ASSI
100
AcDbPolyline
 62
250
  6
CONTINUOUS
 90
13
 70
0
 10
-5.9280491093
 20
-15.8405310489
 10
-5.927948365
 20
-15.8406658618
 10
-5.9278486719
 20
-15.8409628711
 10
-5.92775003
 20
-15.8414220767
 10
-5.9276521093
 20
-15.8420460632
 10
-5.9275552399
 20
-15.8428322461
 10
-5.9274604117
 20
-15.8437728716
 10
-5.9273676558
 20
-15.8448694523
 10
-5.9272769411
 20
-15.8461204755
 10
-5.9271891653
 20
-15.8475136501
 10
-5.9271043573
 20
-15.8490504035
 10
-5.9270224883
 20
-15.8507293082
 10
-5.9269443685
 20
-15.8525337898
  0
LINE
  5
26D
100
AcDbEntity
  8
ASSI
100
AcDbLine
 62
7
  6
CONTINUOUS
 10
-9.8599462956
 20
-10.2662656477
 11
-9.4768231947
 21
-10.2662656477
  0
LINE
  5
26E
100
AcDbEntity
  8
ASSI
100
AcDbLine
 62
7
  6
CONTINUOUS
 10
9.5231768053
 20
-10.2662656477
 11
9.9062999063
 21
-10.2662656477
  0
LINE
  5
26F
100
AcDbEntity
  8
ASSI
100
AcDbLine
 62
250
  6
CONTINUOUS
 10
5.2175566123
 20
-15.8133421961
 11
5.2719508907
 21
-15.8405310489
  0
LINE
  5
270
100
AcDbEntity
  8
ASSI
100
AcDbLine
 62
250
  6
CONTINUOUS
 10
5.4672811332
 20
-15.5633186982
 11
5.521798139
 21
-15.590568896
  0
LINE
  5
271
100
AcDbEntity
  8
ASSI
100
AcDbLine
 62
7
  6
CONTINUOUS
 10
-5.8969555687
 20
-20.5320888063
 11
-5.9709362719
 21
-20.2719660114
  0
LINE
  5
272
100
AcDbEntity
  8
ASSI
100
AcDbLine
 62
7
  6
CONTINUOUS
 10
-11.1268231947
 20
-13.0662656477
 11
-11.1137489574
 21
-21.6276326256
  0
LINE
  5
273
100
AcDbEntity
  8
ASSI
100
AcDbLine
 62
7
  6
CONTINUOUS
 10
-9.8655686864
 20
-20.4360244161
 11
-9.8768231947
 21
-13.0662656477
  0
LINE
  5
274
100
AcDbEntity
  8
ASSI
100
AcDbLine
 62
7
  6
CONTINUOUS
 10
-11.1268231947
 20
-0.2662428024
 11
-11.1268231947
 21
-13.0662656477
  0
LINE
  5
275
100
AcDbEntity
  8
ASSI
100
AcDbLine
 62
7
  6
CONTINUOUS
 10
-11.1268231947
 20
0.333711507
 11
-11.1268231947
 21
13.1337343523
  0
LINE
  5
276
100
AcDbEntity
  8
ASSI
100
AcDbLine
 62
7
  6
CONTINUOUS
 10
-9.8768231947
 20
-0.0662656477
 11
-9.8768231947
 21
-13.0662656477
  0
LINE
  5
277
100
AcDbEntity
  8
ASSI
100
AcDbLine
 62
7
  6
CONTINUOUS
 10
-9.8768231947
 20
0.1337343523
 11
-9.8768231947
 21
13.1337343523
  0
LINE
  5
278
100
AcDbEntity
  8
ASSI
100
AcDbLine
 62
7
  6
CONTINUOUS
 10
-11.1268231947
 20
13.1337343523
 11
-11.1137489574
 21
21.6951013302
  0
LINE
  5
279
100
AcDbEntity
  8
ASSI
100
AcDbLine
 62
7
  6
CONTINUOUS
 10
-9.8655686864
 20
20.5034931207
 11
-9.8768231947
 21
13.1337343523
  0
LWPOLYLINE
  5
27A
100
AcDbEntity
  8
ASSI
100
AcDbPolyline
 62
250
  6
CONTINUOUS
 90
25
 70
0
 10
-9.8140260367
 20
20.1409254857
 10
-9.8135764688
 20
20.1538144317
 10
-9.8122824762
 20
20.1666670404
 10
-9.810145978
 20
20.1794285727
 10
-9.8071713285
 20
20.1920486589
 10
-9.8033683046
 20
20.204468266
 10
-9.798754947
 20
20.2166207896
 10
-9.7933512939
 20
20.2284515961
 10
-9.7871787528
 20
20.2399122359
 10
-9.7802660703
 20
20.2509485691
 10
-9.7726446663
 20
20.2615113006
 10
-9.764345893
 20
20.271557765
 10
-9.7554034983
 20
20.2810469996
 10
-9.7458542739
 20
20.2899392585
 10
-9.7357399022
 20
20.2981950671
 10
-9.7251052466
 20
20.3057776555
 10
-9.7139967059
 20
20.3126541717
 10
-9.7024610777
 20
20.3187958678
 10
-9.6905470452
 20
20.3241768459
 10
-9.6783051963
 20
20.3287741579
 10
-9.6657882167
 20
20.3325679208
 10
-9.6530499896
 20
20.3355417819
 10
-9.6401451322
 20
20.3376830167
 10
-9.6271287398
 20
20.3389825097
 10
-9.6140564977
 20
20.339434716
  0
LINE
  5
27B
100
AcDbEntity
  8
ASSI
100
AcDbLine
 62
7
  6
CONTINUOUS
 10
-5.9709362719
 20
20.339434716
 11
-5.8969555687
 21
20.599557511
  0
LINE
  5
27C
100
AcDbEntity
  8
ASSI
100
AcDbLine
 62
250
  6
CONTINUOUS
 10
5.2719508907
 20
15.9079997535
 11
5.2175566123
 21
15.8808109007
  0
LINE
  5
27D
100
AcDbEntity
  8
ASSI
100
AcDbLine
 62
250
  6
CONTINUOUS
 10
5.521798139
 20
15.6580376006
 11
5.4672811332
 21
15.6307874028
  0
LWPOLYLINE
  5
27E
100
AcDbEntity
  8
ASSI
100
AcDbPolyline
 62
250
  6
CONTINUOUS
 90
25
 70
0
 10
7.231295419
 20
-6.1242015095
 10
7.2508892534
 20
-6.1235367066
 10
7.2703993128
 20
-6.1215928701
 10
7.2897421817
 20
-6.118378311
 10
7.3088351593
 20
-6.1139067735
 10
7.3275966129
 20
-6.108197376
 10
7.3459463274
 20
-6.1012745293
 10
7.363805848
 20
-6.0931678325
 10
7.3810988163
 20
-6.0839119462
 10
7.3977512956
 20
-6.0735464445
 10
7.4136920881
 20
-6.0621156457
 10
7.4288530386
 20
-6.0496684225
 10
7.4431693265
 20
-6.0362579938
 10
7.4565797422
 20
-6.0219416963
 10
7.4690269496
 20
-6.0067807398
 10
7.4804577307
 20
-5.9908399457
 10
7.4908232133
 20
-5.9741874693
 10
7.5000790798
 20
-5.9568945087
 10
7.5081857571
 20
-5.9390350005
 10
7.5151085853
 20
-5.9206853035
 10
7.520817966
 20
-5.901923872
 10
7.5252894893
 20
-5.8828309211
 10
7.5285040373
 20
-5.8634880828
 10
7.5304478668
 20
-5.8439780578
 10
7.5311126671
 20
-5.8243842614
  0
LWPOLYLINE
  5
27F
100
AcDbEntity
  8
ASSI
100
AcDbPolyline
 62
250
  6
CONTINUOUS
 90
25
 70
0
 10
-7.068704581
 20
-6.1242015095
 10
-7.0491107466
 20
-6.1235367066
 10
-7.0296006872
 20
-6.1215928701
 10
-7.0102578183
 20
-6.118378311
 10
-6.9911648407
 20
-6.1139067735
 10
-6.9724033871
 20
-6.108197376
 10
-6.9540536726
 20
-6.1012745293
 10
-6.936194152
 20
-6.0931678325
 10
-6.9189011837
 20
-6.0839119462
 10
-6.9022487044
 20
-6.0735464445
 10
-6.8863079119
 20
-6.0621156457
 10
-6.8711469614
 20
-6.0496684225
 10
-6.8568306735
 20
-6.0362579938
 10
-6.8434202578
 20
-6.0219416963
 10
-6.8309730504
 20
-6.0067807398
 10
-6.8195422693
 20
-5.9908399457
 10
-6.8091767867
 20
-5.9741874693
 10
-6.7999209202
 20
-5.9568945087
 10
-6.7918142429
 20
-5.9390350005
 10
-6.7848914147
 20
-5.9206853035
 10
-6.779182034
 20
-5.901923872
 10
-6.7747105107
 20
-5.8828309211
 10
-6.7714959627
 20
-5.8634880828
 10
-6.7695521332
 20
-5.8439780578
 10
-6.7688873329
 20
-5.8243842614
  0
LINE
  5
280
100
AcDbEntity
  8
ASSI
100
AcDbLine
 62
7
  6
CONTINUOUS
 10
7.2864258818
 20
-6.1793319723
 11
7.0599277288
 21
-6.1793319723
  0
LINE
  5
281
100
AcDbEntity
  8
ASSI
100
AcDbLine
 62
7
  6
CONTINUOUS
 10
-7.0135741182
 20
-6.1793319723
 11
-7.2400722712
 21
-6.1793319723
  0
LINE
  5
282
100
AcDbEntity
  8
ASSI
100
AcDbLine
 62
250
  6
CONTINUOUS
 10
-7.1849423359
 20
-6.124202037
 11
-7.0687040535
 21
-6.124202037
  0
LINE
  5
283
100
AcDbEntity
  8
ASSI
100
AcDbLine
 62
250
  6
CONTINUOUS
 10
7.1150576641
 20
-6.124202037
 11
7.2312959465
 21
-6.124202037
  0
LINE
  5
284
100
AcDbEntity
  8
ASSI
100
AcDbLine
 62
250
  6
CONTINUOUS
 10
-7.478018646
 20
-5.624506096
 11
-6.7756277433
 21
-5.624506096
  0
LINE
  5
285
100
AcDbEntity
  8
ASSI
100
AcDbLine
 62
250
  6
CONTINUOUS
 10
6.821981354
 20
-5.624506096
 11
7.5243722567
 21
-5.624506096
  0
LWPOLYLINE
  5
286
100
AcDbEntity
  8
ASSI
100
AcDbPolyline
 62
7
  6
CONTINUOUS
 90
28
 70
0
 10
-7.2400722712
 20
-6.1793319723
 10
-7.2574173453
 20
-6.1788307596
 10
-7.2747432811
 20
-6.1773237986
 10
-7.2919913791
 20
-6.1748093014
 10
-7.3091279646
 20
-6.1712829901
 10
-7.326067499
 20
-6.1667530275
 10
-7.3426767164
 20
-6.1612547426
 10
-7.3588626256
 20
-6.1548298567
 10
-7.3746135775
 20
-6.1474941695
 10
-7.389921161
 20
-6.1392541804
 10
-7.4047351692
 20
-6.1301347992
 10
-7.4190028549
 20
-6.1201662996
 10
-7.4327066504
 20
-6.1093543453
 10
-7.4458297975
 20
-6.0976954801
 10
-7.4582827359
 20
-6.085251772
 10
-7.4699495942
 20
-6.0721391322
 10
-7.4807679624
 20
-6.0584480173
 10
-7.4907422127
 20
-6.0441946886
 10
-7.4998682454
 20
-6.0293943465
 10
-7.5081160602
 20
-6.0140987826
 10
-7.5154600963
 20
-5.998358853
 10
-7.5218936158
 20
-5.9821827609
 10
-7.5274010244
 20
-5.9655808675
 10
-7.5319398854
 20
-5.9486472814
 10
-7.5354738802
 20
-5.9315188699
 10
-7.5379951161
 20
-5.9142824873
 10
-7.5395086767
 20
-5.8969706465
 10
-7.5400168187
 20
-5.8796420236
  0
LWPOLYLINE
  5
287
100
AcDbEntity
  8
ASSI
100
AcDbPolyline
 62
7
  6
CONTINUOUS
 90
28
 70
0
 10
7.0599277288
 20
-6.1793319723
 10
7.0425826547
 20
-6.1788307596
 10
7.0252567189
 20
-6.1773237986
 10
7.0080086209
 20
-6.1748093014
 10
6.9908720354
 20
-6.1712829901
 10
6.973932501
 20
-6.1667530275
 10
6.9573232836
 20
-6.1612547426
 10
6.9411373744
 20
-6.1548298567
 10
6.9253864225
 20
-6.1474941695
 10
6.910078839
 20
-6.1392541804
 10
6.8952648308
 20
-6.1301347992
 10
6.8809971451
 20
-6.1201662996
 10
6.8672933496
 20
-6.1093543453
 10
6.8541702025
 20
-6.0976954801
 10
6.8417172641
 20
-6.085251772
 10
6.8300504058
 20
-6.0721391322
 10
6.8192320376
 20
-6.0584480173
 10
6.8092577873
 20
-6.0441946886
 10
6.8001317546
 20
-6.0293943465
 10
6.7918839398
 20
-6.0140987826
 10
6.7845399037
 20
-5.998358853
 10
6.7781063842
 20
-5.9821827609
 10
6.7725989756
 20
-5.9655808675
 10
6.7680601146
 20
-5.9486472814
 10
6.7645261198
 20
-5.9315188699
 10
6.7620048839
 20
-5.9142824873
 10
6.7604913233
 20
-5.8969706465
 10
6.7599831813
 20
-5.8796420236
  0
LWPOLYLINE
  5
288
100
AcDbEntity
  8
ASSI
100
AcDbPolyline
 62
250
  6
CONTINUOUS
 90
25
 70
0
 10
-7.1849418084
 20
-6.1242015095
 10
-7.2045356262
 20
-6.1235367077
 10
-7.2240456704
 20
-6.1215928743
 10
-7.2433885253
 20
-6.1183783202
 10
-7.2624814903
 20
-6.1139067893
 10
-7.2812429329
 20
-6.1081973996
 10
-7.2995926384
 20
-6.1012745618
 10
-7.3174521522
 20
-6.0931678746
 10
-7.3347451157
 20
-6.0839119983
 10
-7.3513975924
 20
-6.0735465065
 10
-7.3673383845
 20
-6.0621157171
 10
-7.3824993368
 20
-6.0496685026
 10
-7.3968156284
 20
-6.0362580814
 10
-7.4102260496
 20
-6.0219417898
 10
-7.4226732641
 20
-6.0067808375
 10
-7.4341040535
 20
-5.9908400455
 10
-7.4444695453
 20
-5.9741875687
 10
-7.4537254216
 20
-5.9568946052
 10
-7.4618321088
 20
-5.9390350914
 10
-7.4687549466
 20
-5.9206853859
 10
-7.4744643363
 20
-5.9019239433
 10
-7.4789358672
 20
-5.8828309783
 10
-7.4821504213
 20
-5.8634881234
 10
-7.4840942547
 20
-5.8439780793
 10
-7.4847590565
 20
-5.8243842614
  0
LWPOLYLINE
  5
289
100
AcDbEntity
  8
ASSI
100
AcDbPolyline
 62
250
  6
CONTINUOUS
 90
25
 70
0
 10
7.1150581916
 20
-6.1242015095
 10
7.0954643738
 20
-6.1235367077
 10
7.0759543296
 20
-6.1215928743
 10
7.0566114747
 20
-6.1183783202
 10
7.0375185097
 20
-6.1139067893
 10
7.0187570671
 20
-6.1081973996
 10
7.0004073616
 20
-6.1012745618
 10
6.9825478478
 20
-6.0931678746
 10
6.9652548843
 20
-6.0839119983
 10
6.9486024076
 20
-6.0735465065
 10
6.9326616155
 20
-6.0621157171
 10
6.9175006632
 20
-6.0496685026
 10
6.9031843716
 20
-6.0362580814
 10
6.8897739504
 20
-6.0219417898
 10
6.8773267359
 20
-6.0067808375
 10
6.8658959465
 20
-5.9908400455
 10
6.8555304547
 20
-5.9741875687
 10
6.8462745784
 20
-5.9568946052
 10
6.8381678912
 20
-5.9390350914
 10
6.8312450534
 20
-5.9206853859
 10
6.8255356637
 20
-5.9019239433
 10
6.8210641328
 20
-5.8828309783
 10
6.8178495787
 20
-5.8634881234
 10
6.8159057453
 20
-5.8439780793
 10
6.8152409435
 20
-5.8243842614
  0
LINE
  5
28A
100
AcDbEntity
  8
ASSI
100
AcDbLine
 62
250
  6
CONTINUOUS
 10
-7.0135741182
 20
-6.1793319723
 11
-7.0687040535
 21
-6.124202037
  0
LINE
  5
28B
100
AcDbEntity
  8
ASSI
100
AcDbLine
 62
250
  6
CONTINUOUS
 10
-6.7136295707
 20
-5.8796420236
 11
-6.7688873329
 21
-5.8243842614
  0
LWPOLYLINE
  5
28C
100
AcDbEntity
  8
ASSI
100
AcDbPolyline
 62
250
  6
CONTINUOUS
 90
13
 70
0
 10
-6.7688873329
 20
-5.8243842614
 10
-6.7692454502
 20
-5.8237593292
 10
-6.7696002281
 20
-5.8226202499
 10
-6.7699516666
 20
-5.8209670235
 10
-6.7703006912
 20
-5.8187926506
 10
-6.7706463765
 20
-5.8161041306
 10
-6.7709859456
 20
-5.8129224616
 10
-6.7713193321
 20
-5.8092437376
 10
-6.7716466026
 20
-5.8050718647
 10
-6.7719651794
 20
-5.8004395597
 10
-6.7722749882
 20
-5.7953432485
 10
-6.7725761035
 20
-5.7897865052
 10
-6.7728661706
 20
-5.78381277
  0
LINE
  5
28D
100
AcDbEntity
  8
ASSI
100
AcDbLine
 62
7
  6
CONTINUOUS
 10
-9.8227124934
 20
-1.2422712529
 11
-9.8069719505
 21
-1.2737619332
  0
LINE
  5
28E
100
AcDbEntity
  8
ASSI
100
AcDbLine
 62
7
  6
CONTINUOUS
 10
-7.7852481877
 20
-22.1255783534
 11
-7.8605416715
 21
-20.6349607784
  0
LINE
  5
28F
100
AcDbEntity
  8
ASSI
100
AcDbLine
 62
250
  6
CONTINUOUS
 10
-9.8140260376
 20
20.1409254915
 11
-9.8104247862
 21
14.1337343523
  0
LINE
  5
290
100
AcDbEntity
  8
ASSI
100
AcDbLine
 62
7
  6
CONTINUOUS
 10
-9.8599462956
 20
14.1337343523
 11
-9.8599462956
 21
10.3337343523
  0
LINE
  5
291
100
AcDbEntity
  8
ASSI
100
AcDbLine
 62
7
  6
CONTINUOUS
 10
-9.8599462956
 20
-14.0662656477
 11
-9.8599462956
 21
-10.2662656477
  0
LINE
  5
292
100
AcDbEntity
  8
ASSI
100
AcDbLine
 62
7
  6
CONTINUOUS
 10
-9.8227124934
 20
-0.0933189378
 11
-9.8227124934
 21
-1.2422712529
  0
LINE
  5
293
100
AcDbEntity
  8
ASSI
100
AcDbLine
 62
7
  6
CONTINUOUS
 10
-9.8227124934
 20
0.1607876425
 11
-9.8227124934
 21
1.3097399575
  0
LINE
  5
294
100
AcDbEntity
  8
ASSI
100
AcDbLine
 62
250
  6
CONTINUOUS
 10
-9.8088003324
 20
10.3337343523
 11
-9.8069719505
 21
1.3412306379
  0
LINE
  5
295
100
AcDbEntity
  8
ASSI
100
AcDbLine
 62
250
  6
CONTINUOUS
 10
-9.6140564977
 20
20.339434716
 11
-9.6104524526
 21
14.1337343523
  0
LINE
  5
296
100
AcDbEntity
  8
ASSI
100
AcDbLine
 62
250
  6
CONTINUOUS
 10
-9.6088293024
 20
10.3337343523
 11
-9.6070027023
 21
1.3480922954
  0
LINE
  5
297
100
AcDbEntity
  8
ASSI
100
AcDbLine
 62
7
  6
CONTINUOUS
 10
-9.4768231947
 20
14.1337343523
 11
-9.4768231947
 21
10.3337343523
  0
LINE
  5
298
100
AcDbEntity
  8
ASSI
100
AcDbLine
 62
7
  6
CONTINUOUS
 10
-9.4768231947
 20
-14.0662656477
 11
-9.4768231947
 21
-10.2662656477
  0
LINE
  5
299
100
AcDbEntity
  8
ASSI
100
AcDbLine
 62
250
  6
CONTINUOUS
 10
-9.8069719505
 20
-1.2737619332
 11
-9.8088003324
 21
-10.2662656477
  0
LINE
  5
29A
100
AcDbEntity
  8
ASSI
100
AcDbLine
 62
250
  6
CONTINUOUS
 10
-9.6070027023
 20
-1.2806235907
 11
-9.6088293024
 21
-10.2662656477
  0
LINE
  5
29B
100
AcDbEntity
  8
ASSI
100
AcDbLine
 62
250
  6
CONTINUOUS
 10
-9.8104247862
 20
-14.0662656477
 11
-9.8140260376
 21
-20.0734567869
  0
LINE
  5
29C
100
AcDbEntity
  8
ASSI
100
AcDbLine
 62
250
  6
CONTINUOUS
 10
-9.6104524526
 20
-14.0662656477
 11
-9.6140564977
 21
-20.2719660114
  0
LINE
  5
29D
100
AcDbEntity
  8
ASSI
100
AcDbLine
 62
7
  6
CONTINUOUS
 10
-7.7852481877
 20
22.193047058
 11
-7.8605416715
 21
20.702429483
  0
LINE
  5
29E
100
AcDbEntity
  8
ASSI
100
AcDbLine
 62
250
  6
CONTINUOUS
 10
-5.8684110773
 20
17.6359797212
 11
-5.9263335434
 21
17.3435092601
  0
LINE
  5
29F
100
AcDbEntity
  8
ASSI
100
AcDbLine
 62
250
  6
CONTINUOUS
 10
-5.6185633706
 20
17.389777783
 11
-5.6692716263
 21
17.1337343523
  0
LINE
  5
2A0
100
AcDbEntity
  8
ASSI
100
AcDbLine
 62
7
  6
CONTINUOUS
 10
-9.8069719505
 20
1.3412306379
 11
-9.8227124934
 21
1.3097399575
  0
LINE
  5
2A1
100
AcDbEntity
  8
ASSI
100
AcDbLine
 62
250
  6
CONTINUOUS
 10
-7.0687040534
 20
6.1916707417
 11
-7.0135741182
 21
6.2468006769
  0
LINE
  5
2A2
100
AcDbEntity
  8
ASSI
100
AcDbLine
 62
250
  6
CONTINUOUS
 10
-6.7688873329
 20
5.891852966
 11
-6.7136295707
 21
5.9471107282
  0
LWPOLYLINE
  5
2A3
100
AcDbEntity
  8
ASSI
100
AcDbPolyline
 62
250
  6
CONTINUOUS
 90
25
 70
0
 10
7.1197529908
 20
-3.9198190383
 10
7.100445777
 20
-3.9205961859
 10
7.0812186637
 20
-3.9222501817
 10
7.0621514186
 20
-3.9247741634
 10
7.0433231458
 20
-3.9281576599
 10
7.0248119581
 20
-3.9323866338
 10
7.0066946532
 20
-3.9374435404
 10
6.9890463941
 20
-3.9433073998
 10
6.9719403982
 20
-3.9499538846
 10
6.955447633
 20
-3.9573554202
 10
6.9396365221
 20
-3.9654813
 10
6.9245726607
 20
-3.9742978118
 10
6.9103185442
 20
-3.9837683785
 10
6.8969333085
 20
-3.9938537095
 10
6.8844724846
 20
-4.0045119636
 10
6.8729877686
 20
-4.0156989229
 10
6.8625268067
 20
-4.0273681759
 10
6.8531329982
 20
-4.0394713103
 10
6.8448453148
 20
-4.051958114
 10
6.8376981392
 20
-4.0647767829
 10
6.8317211228
 20
-4.0778741362
 10
6.8269390619
 20
-4.0911958369
 10
6.8233717957
 20
-4.1046866176
 10
6.8210341233
 20
-4.1182905089
 10
6.8199357427
 20
-4.1319510726
  0
LWPOLYLINE
  5
2A4
100
AcDbEntity
  8
ASSI
100
AcDbPolyline
 62
250
  6
CONTINUOUS
 90
25
 70
0
 10
-7.1802470092
 20
-3.9198190383
 10
-7.199554223
 20
-3.9205961859
 10
-7.2187813363
 20
-3.9222501817
 10
-7.2378485814
 20
-3.9247741634
 10
-7.2566768542
 20
-3.9281576599
 10
-7.2751880419
 20
-3.9323866338
 10
-7.2933053468
 20
-3.9374435404
 10
-7.3109536059
 20
-3.9433073998
 10
-7.3280596018
 20
-3.9499538846
 10
-7.344552367
 20
-3.9573554202
 10
-7.3603634779
 20
-3.9654813
 10
-7.3754273393
 20
-3.9742978118
 10
-7.3896814558
 20
-3.9837683785
 10
-7.4030666915
 20
-3.9938537095
 10
-7.4155275154
 20
-4.0045119636
 10
-7.4270122314
 20
-4.0156989229
 10
-7.4374731933
 20
-4.0273681759
 10
-7.4468670018
 20
-4.0394713103
 10
-7.4551546852
 20
-4.051958114
 10
-7.4623018608
 20
-4.0647767829
 10
-7.4682788772
 20
-4.0778741362
 10
-7.4730609381
 20
-4.0911958369
 10
-7.4766282043
 20
-4.1046866176
 10
-7.4789658767
 20
-4.1182905089
 10
-7.4800642573
 20
-4.1319510726
  0
LWPOLYLINE
  5
2A5
100
AcDbEntity
  8
ASSI
100
AcDbPolyline
 62
250
  6
CONTINUOUS
 90
25
 70
0
 10
7.0950602779
 20
-3.2127122571
 10
7.0757530763
 20
-3.2134894039
 10
7.0565259744
 20
-3.2151433977
 10
7.0374587396
 20
-3.2176673766
 10
7.018630476
 20
-3.2210508694
 10
7.0001192964
 20
-3.2252798391
 10
6.9820019981
 20
-3.2303367409
 10
6.964353744
 20
-3.2362005953
 10
6.9472477516
 20
-3.2428470748
 10
6.9307549883
 20
-3.2502486054
 10
6.9149438776
 20
-3.2583744804
 10
6.899880015
 20
-3.2671909878
 10
6.8856258958
 20
-3.2766615508
 10
6.8722406561
 20
-3.2867468788
 10
6.8597798271
 20
-3.2974051309
 10
6.8482951051
 20
-3.3085920893
 10
6.8378341366
 20
-3.3202613427
 10
6.8284403209
 20
-3.3323644788
 10
6.8201526303
 20
-3.3448512856
 10
6.8130054477
 20
-3.3576699589
 10
6.8070284247
 20
-3.3707673181
 10
6.8022463581
 20
-3.3840890261
 10
6.7986790873
 20
-3.3975798154
 10
6.7963414117
 20
-3.4111837166
 10
6.7952430298
 20
-3.4248442914
  0
LINE
  5
2A6
100
AcDbEntity
  8
ASSI
100
AcDbLine
 62
250
  6
CONTINUOUS
 10
-7.478018646
 20
-4.2733724289
 11
-6.7756277433
 21
-4.2733724289
  0
LINE
  5
2A7
100
AcDbEntity
  8
ASSI
100
AcDbLine
 62
250
  6
CONTINUOUS
 10
6.821981354
 20
-4.2733724289
 11
7.5243722567
 21
-4.2733724289
  0
LINE
  5
2A8
100
AcDbEntity
  8
ASSI
100
AcDbLine
 62
250
  6
CONTINUOUS
 10
7.2266006199
 20
-3.9198190383
 11
7.1197529908
 21
-3.9198190383
  0
LINE
  5
2A9
100
AcDbEntity
  8
ASSI
100
AcDbLine
 62
250
  6
CONTINUOUS
 10
-7.0733993801
 20
-3.9198190383
 11
-7.1802470092
 21
-3.9198190383
  0
LWPOLYLINE
  5
2AA
100
AcDbEntity
  8
ASSI
100
AcDbPolyline
 62
250
  6
CONTINUOUS
 90
25
 70
0
 10
-7.0733993801
 20
-3.9198190383
 10
-7.0540921785
 20
-3.920596185
 10
-7.0348650767
 20
-3.9222501788
 10
-7.0157978419
 20
-3.9247741578
 10
-6.9969695783
 20
-3.9281576506
 10
-6.9784583987
 20
-3.9323866203
 10
-6.9603411003
 20
-3.9374435221
 10
-6.9426928463
 20
-3.9433073764
 10
-6.9255868539
 20
-3.949953856
 10
-6.9090940906
 20
-3.9573553866
 10
-6.8932829799
 20
-3.9654812615
 10
-6.8782191173
 20
-3.974297769
 10
-6.8639649981
 20
-3.983768332
 10
-6.8505797584
 20
-3.99385366
 10
-6.8381189294
 20
-4.0045119121
 10
-6.8266342074
 20
-4.0156988705
 10
-6.8161732388
 20
-4.0273681239
 10
-6.8067794232
 20
-4.03947126
 10
-6.7984917325
 20
-4.0519580667
 10
-6.79134455
 20
-4.0647767401
 10
-6.785367527
 20
-4.0778740993
 10
-6.7805854604
 20
-4.0911958073
 10
-6.7770181896
 20
-4.1046865966
 10
-6.774680514
 20
-4.1182904978
 10
-6.773582132
 20
-4.1319510726
  0
LWPOLYLINE
  5
2AB
100
AcDbEntity
  8
ASSI
100
AcDbPolyline
 62
250
  6
CONTINUOUS
 90
25
 70
0
 10
7.2266006199
 20
-3.9198190383
 10
7.2459078215
 20
-3.920596185
 10
7.2651349233
 20
-3.9222501788
 10
7.2842021581
 20
-3.9247741578
 10
7.3030304217
 20
-3.9281576506
 10
7.3215416013
 20
-3.9323866203
 10
7.3396588997
 20
-3.9374435221
 10
7.3573071537
 20
-3.9433073764
 10
7.3744131461
 20
-3.949953856
 10
7.3909059094
 20
-3.9573553866
 10
7.4067170201
 20
-3.9654812615
 10
7.4217808827
 20
-3.974297769
 10
7.4360350019
 20
-3.983768332
 10
7.4494202416
 20
-3.99385366
 10
7.4618810706
 20
-4.0045119121
 10
7.4733657926
 20
-4.0156988705
 10
7.4838267612
 20
-4.0273681239
 10
7.4932205768
 20
-4.03947126
 10
7.5015082675
 20
-4.0519580667
 10
7.50865545
 20
-4.0647767401
 10
7.514632473
 20
-4.0778740993
 10
7.5194145396
 20
-4.0911958073
 10
7.5229818104
 20
-4.1046865966
 10
7.525319486
 20
-4.1182904978
 10
7.526417868
 20
-4.1319510726
  0
LWPOLYLINE
  5
2AC
100
AcDbEntity
  8
ASSI
100
AcDbPolyline
 62
250
  6
CONTINUOUS
 90
25
 70
0
 10
-7.0487066672
 20
-3.2127122571
 10
-7.0293994957
 20
-3.213489402
 10
-7.0101724221
 20
-3.2151433913
 10
-6.9911052135
 20
-3.2176673634
 10
-6.972276974
 20
-3.2210508473
 10
-6.9537658159
 20
-3.2252798062
 10
-6.9356485354
 20
-3.2303366957
 10
-6.9180002955
 20
-3.2362005369
 10
-6.9008943135
 20
-3.2428470027
 10
-6.8844015564
 20
-3.2502485196
 10
-6.8685904477
 20
-3.2583743812
 10
-6.8535265832
 20
-3.2671908763
 10
-6.839272458
 20
-3.2766614285
 10
-6.8258872087
 20
-3.2867467479
 10
-6.813426367
 20
-3.2974049937
 10
-6.8019416295
 20
-3.3085919487
 10
-6.7914806434
 20
-3.3202612021
 10
-6.7820868088
 20
-3.3323643418
 10
-6.7737990987
 20
-3.3448511559
 10
-6.7666518969
 20
-3.3576698408
 10
-6.7606748558
 20
-3.3707672156
 10
-6.7558927732
 20
-3.3840889434
 10
-6.7523254895
 20
-3.3975797565
 10
-6.749987805
 20
-3.4111836854
 10
-6.7488894191
 20
-3.4248442915
  0
LWPOLYLINE
  5
2AD
100
AcDbEntity
  8
ASSI
100
AcDbPolyline
 62
7
  6
CONTINUOUS
 90
15
 70
0
 10
-9.8069719505
 20
-1.2737619332
 10
-9.8063334803
 20
-1.2742123598
 10
-9.8048728393
 20
-1.2746580119
 10
-9.8025900273
 20
-1.2750988893
 10
-9.7994630121
 20
-1.2755375271
 10
-9.7955138259
 20
-1.2759713903
 10
-9.7908085659
 20
-1.2763928745
 10
-9.7853565253
 20
-1.2768003798
 10
-9.7791484107
 20
-1.2771955061
 10
-9.7722224391
 20
-1.2775754487
 10
-9.7645498181
 20
-1.2779412461
 10
-9.7561593399
 20
-1.2782918597
 10
-9.7471755978
 20
-1.2786213695
 10
-9.7375827393
 20
-1.278929213
 10
-9.7167893806
 20
-1.2794773547
  0
LWPOLYLINE
  5
2AE
100
AcDbEntity
  8
ASSI
100
AcDbPolyline
 62
250
  6
CONTINUOUS
 90
8
 70
0
 10
-7.0687043714
 20
-6.1242020368
 10
-7.069062782
 20
-6.1226551607
 10
-7.0694177568
 20
-6.1198028828
 10
-7.0697692959
 20
-6.1156526062
 10
-7.0701182806
 20
-6.1102151583
 10
-7.0704638295
 20
-6.1035047064
 10
-7.0708032987
 20
-6.0955386772
 10
-7.0711366842
 20
-6.0863376687
  0
LINE
  5
2AF
100
AcDbEntity
  8
ASSI
100
AcDbLine
 62
250
  6
CONTINUOUS
 10
-5.9263335434
 20
-17.2760405555
 11
-5.8684110773
 21
-17.5685110166
  0
LINE
  5
2B0
100
AcDbEntity
  8
ASSI
100
AcDbLine
 62
250
  6
CONTINUOUS
 10
-5.6692716263
 20
-17.0662656477
 11
-5.6185633706
 21
-17.3223090783
  0
LWPOLYLINE
  5
2B1
100
AcDbEntity
  8
ASSI
100
AcDbPolyline
 62
250
  6
CONTINUOUS
 90
10
 70
0
 10
-5.8684110773
 20
-17.5685110166
 10
-5.8683112015
 20
-17.5691030209
 10
-5.8682133016
 20
-17.5698539424
 10
-5.8681173775
 20
-17.5707637813
 10
-5.8680231065
 20
-17.5718367317
 10
-5.8679308114
 20
-17.5730685995
 10
-5.8678414603
 20
-17.5744468015
 10
-5.8677550947
 20
-17.5759727468
 10
-5.8676716731
 20
-17.5776450263
 10
-5.8675920399
 20
-17.5794468302
  0
LWPOLYLINE
  5
2B2
100
AcDbEntity
  8
ASSI
100
AcDbPolyline
 62
7
  6
CONTINUOUS
 90
31
 70
0
 10
-5.2273128459
 20
-17.2760405555
 10
-5.2279391278
 20
-17.2668227716
 10
-5.2290570854
 20
-17.2575405079
 10
-5.2306771169
 20
-17.2482159577
 10
-5.2328092805
 20
-17.2388763458
 10
-5.2354612552
 20
-17.2295417244
 10
-5.2386384551
 20
-17.2202249751
 10
-5.2423462462
 20
-17.210954536
 10
-5.2465901032
 20
-17.2017546027
 10
-5.2513750361
 20
-17.1926333932
 10
-5.2567032478
 20
-17.1836220199
 10
-5.2625772738
 20
-17.1747476406
 10
-5.269003563
 20
-17.1660151848
 10
-5.2759811126
 20
-17.1574591689
 10
-5.2835095056
 20
-17.1491100456
 10
-5.2915981285
 20
-17.1409708645
 10
-5.3002425782
 20
-17.1330803258
 10
-5.309438792
 20
-17.1254732612
 10
-5.3191992499
 20
-17.1181532697
 10
-5.3295154389
 20
-17.1111641901
 10
-5.3403779541
 20
-17.1045466131
 10
-5.3518000308
 20
-17.0983079878
 10
-5.3637682745
 20
-17.0924976865
 10
-5.3762641299
 20
-17.0871637236
 10
-5.3892930994
 20
-17.0823217207
 10
-5.4028346627
 20
-17.0780260651
 10
-5.4168557937
 20
-17.0743319755
 10
-5.4313394607
 20
-17.0712650436
 10
-5.4462523231
 20
-17.0688736072
 10
-5.4615432213
 20
-17.0672240785
 10
-5.4771605527
 20
-17.0663712587
  0
LINE
  5
2B3
100
AcDbEntity
  8
ASSI
100
AcDbLine
 62
250
  6
CONTINUOUS
 10
-7.2057632452
 20
-3.1974091756
 11
-7.2049393387
 21
-3.2127196115
  0
LINE
  5
2B4
100
AcDbEntity
  8
ASSI
100
AcDbLine
 62
250
  6
CONTINUOUS
 10
-7.0478831441
 20
3.2648778802
 11
-7.0487070507
 21
3.2801883161
  0
LINE
  5
2B5
100
AcDbEntity
  8
ASSI
100
AcDbLine
 62
250
  6
CONTINUOUS
 10
-7.2073046325
 20
-3.16457486
 11
-7.2057632452
 21
-3.1974091756
  0
LINE
  5
2B6
100
AcDbEntity
  8
ASSI
100
AcDbLine
 62
250
  6
CONTINUOUS
 10
-7.0463417569
 20
3.2320435646
 11
-7.0478831441
 21
3.2648778802
  0
LINE
  5
2B7
100
AcDbEntity
  8
ASSI
100
AcDbLine
 62
250
  6
CONTINUOUS
 10
-7.4807802188
 20
5.8512814746
 11
-7.4802333966
 21
5.8380763404
  0
LINE
  5
2B8
100
AcDbEntity
  8
ASSI
100
AcDbLine
 62
250
  6
CONTINUOUS
 10
-6.7728661706
 20
-5.78381277
 11
-6.7734129928
 21
-5.7706076358
  0
LINE
  5
2B9
100
AcDbEntity
  8
ASSI
100
AcDbLine
 62
250
  6
CONTINUOUS
 10
-7.2087101004
 20
-3.1288490479
 11
-7.2073046325
 21
-3.16457486
  0
LINE
  5
2BA
100
AcDbEntity
  8
ASSI
100
AcDbLine
 62
250
  6
CONTINUOUS
 10
-7.044936289
 20
3.1963177525
 11
-7.0463417569
 21
3.2320435646
  0
LINE
  5
2BB
100
AcDbEntity
  8
ASSI
100
AcDbLine
 62
250
  6
CONTINUOUS
 10
-7.2049394653
 20
-3.2127196115
 11
-7.1802470092
 21
-3.9198190383
  0
LINE
  5
2BC
100
AcDbEntity
  8
ASSI
100
AcDbLine
 62
250
  6
CONTINUOUS
 10
-7.048706924
 20
3.2801883162
 11
-7.0733993801
 21
3.9872877429
  0
LINE
  5
2BD
100
AcDbEntity
  8
ASSI
100
AcDbLine
 62
250
  6
CONTINUOUS
 10
-5.8675920399
 20
-17.5794468302
 11
-5.8674442127
 21
-17.5834417761
  0
LINE
  5
2BE
100
AcDbEntity
  8
ASSI
100
AcDbLine
 62
250
  6
CONTINUOUS
 10
-5.9269443685
 20
-15.8525337898
 11
-5.9267994497
 21
-15.8565220768
  0
LINE
  5
2BF
100
AcDbEntity
  8
ASSI
100
AcDbLine
 62
250
  6
CONTINUOUS
 10
-7.4802333966
 20
5.8380763404
 11
-7.4797371818
 21
5.8233608014
  0
LINE
  5
2C0
100
AcDbEntity
  8
ASSI
100
AcDbLine
 62
250
  6
CONTINUOUS
 10
-6.7734129928
 20
-5.7706076358
 11
-6.7739092075
 21
-5.7558920967
  0
LINE
  5
2C1
100
AcDbEntity
  8
ASSI
100
AcDbLine
 62
250
  6
CONTINUOUS
 10
-7.2099458449
 20
-3.0906754355
 11
-7.2087101004
 21
-3.1288490479
  0
LINE
  5
2C2
100
AcDbEntity
  8
ASSI
100
AcDbLine
 62
250
  6
CONTINUOUS
 10
-7.0437005444
 20
3.1581441402
 11
-7.044936289
 21
3.1963177525
  0
LINE
  5
2C3
100
AcDbEntity
  8
ASSI
100
AcDbLine
 62
250
  6
CONTINUOUS
 10
-7.5063684666
 20
-3.3746543569
 11
-7.4796523426
 21
-4.1448252412
  0
LINE
  5
2C4
100
AcDbEntity
  8
ASSI
100
AcDbLine
 62
250
  6
CONTINUOUS
 10
-6.7472779228
 20
3.4421230616
 11
-6.7739940468
 21
4.2122939458
  0
LINE
  5
2C5
100
AcDbEntity
  8
ASSI
100
AcDbLine
 62
250
  6
CONTINUOUS
 10
-5.6185633706
 20
-17.3223090783
 11
-5.6184634444
 21
-17.3258356701
  0
LINE
  5
2C6
100
AcDbEntity
  8
ASSI
100
AcDbLine
 62
250
  6
CONTINUOUS
 10
-5.8674442127
 20
-17.5834417761
 11
-5.8673137847
 21
-17.5878930384
  0
LINE
  5
2C7
100
AcDbEntity
  8
ASSI
100
AcDbLine
 62
250
  6
CONTINUOUS
 10
-7.0711366842
 20
-6.0863376687
 11
-7.0717825842
 21
-6.0643308391
  0
LINE
  5
2C8
100
AcDbEntity
  8
ASSI
100
AcDbLine
 62
250
  6
CONTINUOUS
 10
-7.1825097052
 20
6.1538063734
 11
-7.1818638051
 21
6.1317995437
  0
LINE
  5
2C9
100
AcDbEntity
  8
ASSI
100
AcDbLine
 62
250
  6
CONTINUOUS
 10
-5.9267994497
 20
-15.8565220768
 11
-5.9266716793
 21
-15.860952277
  0
LINE
  5
2CA
100
AcDbEntity
  8
ASSI
100
AcDbLine
 62
250
  6
CONTINUOUS
 10
-7.4797371818
 20
5.8233608014
 11
-7.4792954661
 21
5.8072503555
  0
LINE
  5
2CB
100
AcDbEntity
  8
ASSI
100
AcDbLine
 62
250
  6
CONTINUOUS
 10
-6.7739092075
 20
-5.7558920967
 11
-6.7743509233
 21
-5.7397816509
  0
LINE
  5
2CC
100
AcDbEntity
  8
ASSI
100
AcDbLine
 62
250
  6
CONTINUOUS
 10
-7.5078416948
 20
-3.3198257677
 11
-7.5063684666
 21
-3.3746543569
  0
LINE
  5
2CD
100
AcDbEntity
  8
ASSI
100
AcDbLine
 62
250
  6
CONTINUOUS
 10
-6.7458046946
 20
3.3872944723
 11
-6.7472779228
 21
3.4421230616
  0
LINE
  5
2CE
100
AcDbEntity
  8
ASSI
100
AcDbLine
 62
250
  6
CONTINUOUS
 10
-7.4796523426
 20
-4.1448252412
 11
-7.4792820789
 21
-4.1586444187
  0
LINE
  5
2CF
100
AcDbEntity
  8
ASSI
100
AcDbLine
 62
250
  6
CONTINUOUS
 10
-6.7739940468
 20
4.2122939458
 11
-6.7743643104
 21
4.2261131233
  0
LINE
  5
2D0
100
AcDbEntity
  8
ASSI
100
AcDbLine
 62
250
  6
CONTINUOUS
 10
-7.2109966334
 20
-3.0504564712
 11
-7.2099458449
 21
-3.0906754355
  0
LINE
  5
2D1
100
AcDbEntity
  8
ASSI
100
AcDbLine
 62
250
  6
CONTINUOUS
 10
-7.042649756
 20
3.1179251759
 11
-7.0437005444
 21
3.1581441402
  0
LINE
  5
2D2
100
AcDbEntity
  8
ASSI
100
AcDbLine
 62
250
  6
CONTINUOUS
 10
-7.0717825842
 20
-6.0643308391
 11
-7.0723934373
 21
-6.0377167667
  0
LINE
  5
2D3
100
AcDbEntity
  8
ASSI
100
AcDbLine
 62
250
  6
CONTINUOUS
 10
-7.1818638051
 20
6.1317995437
 11
-7.1812529521
 21
6.1051854714
  0
LINE
  5
2D4
100
AcDbEntity
  8
ASSI
100
AcDbLine
 62
250
  6
CONTINUOUS
 10
-5.8673137847
 20
-17.5878930384
 11
-5.8672020793
 21
-17.5927554236
  0
LINE
  5
2D5
100
AcDbEntity
  8
ASSI
100
AcDbLine
 62
250
  6
CONTINUOUS
 10
-5.9266716793
 20
-15.860952277
 11
-5.9265623219
 21
-15.8657804691
  0
LINE
  5
2D6
100
AcDbEntity
  8
ASSI
100
AcDbLine
 62
250
  6
CONTINUOUS
 10
-7.4792954661
 20
5.8072503555
 11
-7.4789137469
 21
5.7899293541
  0
LINE
  5
2D7
100
AcDbEntity
  8
ASSI
100
AcDbLine
 62
250
  6
CONTINUOUS
 10
-6.7743509233
 20
-5.7397816509
 11
-6.7747326425
 21
-5.7224606495
  0
LINE
  5
2D8
100
AcDbEntity
  8
ASSI
100
AcDbLine
 62
250
  6
CONTINUOUS
 10
-7.5097628412
 20
-3.2296116352
 11
-7.5078416948
 21
-3.3198257677
  0
LINE
  5
2D9
100
AcDbEntity
  8
ASSI
100
AcDbLine
 62
250
  6
CONTINUOUS
 10
-6.7438835481
 20
3.2970803398
 11
-6.7458046946
 21
3.3872944723
  0
LINE
  5
2DA
100
AcDbEntity
  8
ASSI
100
AcDbLine
 62
250
  6
CONTINUOUS
 10
-7.4792820789
 20
-4.1586444187
 11
-7.4788079722
 21
-4.1810146832
  0
LINE
  5
2DB
100
AcDbEntity
  8
ASSI
100
AcDbLine
 62
250
  6
CONTINUOUS
 10
-6.7743643104
 20
4.2261131233
 11
-6.7748384171
 21
4.2484833878
  0
LINE
  5
2DC
100
AcDbEntity
  8
ASSI
100
AcDbLine
 62
250
  6
CONTINUOUS
 10
-7.2118423797
 20
-3.0087339311
 11
-7.2109966334
 21
-3.0504564712
  0
LINE
  5
2DD
100
AcDbEntity
  8
ASSI
100
AcDbLine
 62
250
  6
CONTINUOUS
 10
-7.0418040097
 20
3.0762026357
 11
-7.042649756
 21
3.1179251759
  0
LINE
  5
2DE
100
AcDbEntity
  8
ASSI
100
AcDbLine
 62
250
  6
CONTINUOUS
 10
-5.8672020793
 20
-17.5927554236
 11
-5.8671109272
 21
-17.5979567876
  0
LWPOLYLINE
  5
2DF
100
AcDbEntity
  8
ASSI
100
AcDbPolyline
 62
250
  6
CONTINUOUS
 90
3
 70
0
 10
-5.9265623219
 20
-15.8657804691
 10
-5.9264731207
 20
-15.8709369174
 10
-5.9264364546
 20
-15.8736117161
  0
LINE
  5
2E0
100
AcDbEntity
  8
ASSI
100
AcDbLine
 62
250
  6
CONTINUOUS
 10
-7.0723934373
 20
-6.0377167667
 11
-7.0732302431
 21
-5.9897781798
  0
LINE
  5
2E1
100
AcDbEntity
  8
ASSI
100
AcDbLine
 62
250
  6
CONTINUOUS
 10
-7.1812529521
 20
6.1051854714
 11
-7.1804161463
 21
6.0572468844
  0
LINE
  5
2E2
100
AcDbEntity
  8
ASSI
100
AcDbLine
 62
250
  6
CONTINUOUS
 10
-7.4789137469
 20
5.7899293541
 11
-7.4784620622
 21
5.7620960315
  0
LINE
  5
2E3
100
AcDbEntity
  8
ASSI
100
AcDbLine
 62
250
  6
CONTINUOUS
 10
-6.7747326425
 20
-5.7224606495
 11
-6.7751843272
 21
-5.6946273268
  0
LINE
  5
2E4
100
AcDbEntity
  8
ASSI
100
AcDbLine
 62
250
  6
CONTINUOUS
 10
-7.4788079722
 20
-4.1810146832
 11
-7.4784398828
 21
-4.2049685041
  0
LINE
  5
2E5
100
AcDbEntity
  8
ASSI
100
AcDbLine
 62
250
  6
CONTINUOUS
 10
-6.7748384171
 20
4.2484833878
 11
-6.7752065066
 21
4.2724372087
  0
LINE
  5
2E6
100
AcDbEntity
  8
ASSI
100
AcDbLine
 62
250
  6
CONTINUOUS
 10
-7.5112621463
 20
-3.1321386307
 11
-7.5097628412
 21
-3.2296116352
  0
LINE
  5
2E7
100
AcDbEntity
  8
ASSI
100
AcDbLine
 62
250
  6
CONTINUOUS
 10
-7.2124752765
 20
-2.9660984322
 11
-7.2118423797
 21
-3.0087339311
  0
LINE
  5
2E8
100
AcDbEntity
  8
ASSI
100
AcDbLine
 62
250
  6
CONTINUOUS
 10
-7.0411711129
 20
3.0335671368
 11
-7.0418040097
 21
3.0762026357
  0
LINE
  5
2E9
100
AcDbEntity
  8
ASSI
100
AcDbLine
 62
250
  6
CONTINUOUS
 10
-6.7423842431
 20
3.1996073354
 11
-6.7438835481
 21
3.2970803398
  0
LINE
  5
2EA
100
AcDbEntity
  8
ASSI
100
AcDbLine
 62
250
  6
CONTINUOUS
 10
-7.0732302431
 20
-5.9897781798
 11
-7.0741681158
 21
-5.9127062564
  0
LINE
  5
2EB
100
AcDbEntity
  8
ASSI
100
AcDbLine
 62
250
  6
CONTINUOUS
 10
-7.1804161463
 20
6.0572468844
 11
-7.1794782735
 21
5.980174961
  0
LINE
  5
2EC
100
AcDbEntity
  8
ASSI
100
AcDbLine
 62
250
  6
CONTINUOUS
 10
-7.1802470092
 20
-3.9198190383
 11
-7.1792952093
 21
-4.0047171806
  0
LINE
  5
2ED
100
AcDbEntity
  8
ASSI
100
AcDbLine
 62
250
  6
CONTINUOUS
 10
-7.0733993801
 20
3.9872877429
 11
-7.0743511801
 21
4.0721858852
  0
LINE
  5
2EE
100
AcDbEntity
  8
ASSI
100
AcDbLine
 62
250
  6
CONTINUOUS
 10
-7.4784398828
 20
-4.2049685041
 11
-7.4781841871
 21
-4.2300913257
  0
LINE
  5
2EF
100
AcDbEntity
  8
ASSI
100
AcDbLine
 62
250
  6
CONTINUOUS
 10
-6.7752065066
 20
4.2724372087
 11
-6.7754622023
 21
4.2975600303
  0
LINE
  5
2F0
100
AcDbEntity
  8
ASSI
100
AcDbLine
 62
250
  6
CONTINUOUS
 10
-7.5122926892
 20
-3.030259506
 11
-7.5112621463
 21
-3.1321386307
  0
LINE
  5
2F1
100
AcDbEntity
  8
ASSI
100
AcDbLine
 62
250
  6
CONTINUOUS
 10
-7.2128929763
 20
-2.9230751624
 11
-7.2124752765
 21
-2.9660984322
  0
LINE
  5
2F2
100
AcDbEntity
  8
ASSI
100
AcDbLine
 62
250
  6
CONTINUOUS
 10
-7.0407534131
 20
2.9905438671
 11
-7.0411711129
 21
3.0335671368
  0
LINE
  5
2F3
100
AcDbEntity
  8
ASSI
100
AcDbLine
 62
250
  6
CONTINUOUS
 10
-6.7413537001
 20
3.0977282106
 11
-6.7423842431
 21
3.1996073354
  0
LINE
  5
2F4
100
AcDbEntity
  8
ASSI
100
AcDbLine
 62
250
  6
CONTINUOUS
 10
-7.4784620622
 20
5.7620960315
 11
-7.4781644261
 21
5.7326131422
  0
LINE
  5
2F5
100
AcDbEntity
  8
ASSI
100
AcDbLine
 62
250
  6
CONTINUOUS
 10
-6.7751843272
 20
-5.6946273268
 11
-6.7754819632
 21
-5.6651444376
  0
LINE
  5
2F6
100
AcDbEntity
  8
ASSI
100
AcDbLine
 62
250
  6
CONTINUOUS
 10
-7.1794782735
 20
5.980174961
 11
-7.1786448794
 21
5.8673252623
  0
LINE
  5
2F7
100
AcDbEntity
  8
ASSI
100
AcDbLine
 62
250
  6
CONTINUOUS
 10
-7.0741681158
 20
-5.9127062564
 11
-7.07500151
 21
-5.7998565576
  0
LINE
  5
2F8
100
AcDbEntity
  8
ASSI
100
AcDbLine
 62
250
  6
CONTINUOUS
 10
-7.1792952093
 20
-4.0047171806
 11
-7.1785245577
 21
-4.1230283482
  0
LINE
  5
2F9
100
AcDbEntity
  8
ASSI
100
AcDbLine
 62
250
  6
CONTINUOUS
 10
-7.0743511801
 20
4.0721858852
 11
-7.0751218316
 21
4.1904970528
  0
LINE
  5
2FA
100
AcDbEntity
  8
ASSI
100
AcDbLine
 62
250
  6
CONTINUOUS
 10
-7.4781841871
 20
-4.2300913257
 11
-7.4780452713
 21
-4.2559297127
  0
LINE
  5
2FB
100
AcDbEntity
  8
ASSI
100
AcDbLine
 62
250
  6
CONTINUOUS
 10
-6.7754622023
 20
4.2975600303
 11
-6.775601118
 21
4.3233984173
  0
LINE
  5
2FC
100
AcDbEntity
  8
ASSI
100
AcDbLine
 62
250
  6
CONTINUOUS
 10
-7.5128397832
 20
-2.9272215946
 11
-7.5122926892
 21
-3.030259506
  0
LINE
  5
2FD
100
AcDbEntity
  8
ASSI
100
AcDbLine
 62
250
  6
CONTINUOUS
 10
-6.7408066061
 20
2.9946902992
 11
-6.7413537001
 21
3.0977282106
  0
LINE
  5
2FE
100
AcDbEntity
  8
ASSI
100
AcDbLine
 62
250
  6
CONTINUOUS
 10
-7.2130988521
 20
-2.8803316795
 11
-7.2128929763
 21
-2.9230751624
  0
LINE
  5
2FF
100
AcDbEntity
  8
ASSI
100
AcDbLine
 62
250
  6
CONTINUOUS
 10
-7.0405475372
 20
2.9478003841
 11
-7.0407534131
 21
2.9905438671
  0
LINE
  5
300
100
AcDbEntity
  8
ASSI
100
AcDbLine
 62
250
  6
CONTINUOUS
 10
-7.4781644261
 20
5.7326131422
 11
-7.4780279538
 21
5.7022439296
  0
LINE
  5
301
100
AcDbEntity
  8
ASSI
100
AcDbLine
 62
250
  6
CONTINUOUS
 10
-6.7754819632
 20
-5.6651444376
 11
-6.7756184356
 21
-5.634775225
  0
LINE
  5
302
100
AcDbEntity
  8
ASSI
100
AcDbLine
 62
250
  6
CONTINUOUS
 10
-7.1786448794
 20
5.8673252623
 11
-7.1782107214
 21
5.717542479
  0
LINE
  5
303
100
AcDbEntity
  8
ASSI
100
AcDbLine
 62
250
  6
CONTINUOUS
 10
-7.07500151
 20
-5.7998565576
 11
-7.075435668
 21
-5.6500737743
  0
LINE
  5
304
100
AcDbEntity
  8
ASSI
100
AcDbLine
 62
250
  6
CONTINUOUS
 10
-7.5129394155
 20
-1.2523818685
 11
-7.5128397832
 21
-2.9272215946
  0
LINE
  5
305
100
AcDbEntity
  8
ASSI
100
AcDbLine
 62
250
  6
CONTINUOUS
 10
-7.4345582216
 20
-22.0937451954
 11
-7.4345582216
 21
-20.5443672624
  0
LINE
  5
306
100
AcDbEntity
  8
ASSI
100
AcDbLine
 62
250
  6
CONTINUOUS
 10
-7.4345582216
 20
20.611835967
 11
-7.4345582216
 21
22.1612139
  0
LINE
  5
307
100
AcDbEntity
  8
ASSI
100
AcDbLine
 62
250
  6
CONTINUOUS
 10
-7.2613531408
 20
-22.0885044175
 11
-7.2613531408
 21
-20.5320888063
  0
LINE
  5
308
100
AcDbEntity
  8
ASSI
100
AcDbLine
 62
250
  6
CONTINUOUS
 10
-7.2613531408
 20
20.599557511
 11
-7.2613531408
 21
22.1559731221
  0
LINE
  5
309
100
AcDbEntity
  8
ASSI
100
AcDbLine
 62
250
  6
CONTINUOUS
 10
-7.2131221674
 20
-1.2422712529
 11
-7.2130988521
 21
-2.8803316795
  0
LINE
  5
30A
100
AcDbEntity
  8
ASSI
100
AcDbLine
 62
250
  6
CONTINUOUS
 10
-7.1785245577
 20
-4.1230283482
 11
-7.1782013979
 21
-5.6244906354
  0
LINE
  5
30B
100
AcDbEntity
  8
ASSI
100
AcDbLine
 62
250
  6
CONTINUOUS
 10
-7.0751218316
 20
4.1904970528
 11
-7.0754449914
 21
5.69195934
  0
LINE
  5
30C
100
AcDbEntity
  8
ASSI
100
AcDbLine
 62
250
  6
CONTINUOUS
 10
-7.040524222
 20
1.3097399575
 11
-7.0405475372
 21
2.9478003841
  0
LINE
  5
30D
100
AcDbEntity
  8
ASSI
100
AcDbLine
 62
250
  6
CONTINUOUS
 10
-6.7407069738
 20
1.3198505731
 11
-6.7408066061
 21
2.9946902992
  0
LINE
  5
30E
100
AcDbEntity
  8
ASSI
100
AcDbLine
 62
250
  6
CONTINUOUS
 10
-7.4780452713
 20
-4.2559297127
 11
-7.4780279538
 21
-5.634775225
  0
LINE
  5
30F
100
AcDbEntity
  8
ASSI
100
AcDbLine
 62
250
  6
CONTINUOUS
 10
-6.775601118
 20
4.3233984173
 11
-6.7756184356
 21
5.7022439296
  0
LINE
  5
310
100
AcDbEntity
  8
ASSI
100
AcDbLine
 62
250
  6
CONTINUOUS
 10
-7.4780279538
 20
5.7022439296
 11
-7.4780452713
 21
4.3233984172
  0
LINE
  5
311
100
AcDbEntity
  8
ASSI
100
AcDbLine
 62
250
  6
CONTINUOUS
 10
-6.7756184356
 20
-5.634775225
 11
-6.775601118
 21
-4.2559297126
  0
LINE
  5
312
100
AcDbEntity
  8
ASSI
100
AcDbLine
 62
250
  6
CONTINUOUS
 10
-7.1782107214
 20
5.717542479
 11
-7.1784393049
 21
4.2114424683
  0
LINE
  5
313
100
AcDbEntity
  8
ASSI
100
AcDbLine
 62
250
  6
CONTINUOUS
 10
-7.075435668
 20
-5.6500737743
 11
-7.0752070844
 21
-4.1439737636
  0
LINE
  5
314
100
AcDbEntity
  8
ASSI
100
AcDbLine
 62
250
  6
CONTINUOUS
 10
-7.2130224421
 20
2.9691229272
 11
-7.2131221674
 21
1.3097399575
  0
LINE
  5
315
100
AcDbEntity
  8
ASSI
100
AcDbLine
 62
250
  6
CONTINUOUS
 10
-7.0406239473
 20
-2.9016542226
 11
-7.040524222
 21
-1.2422712529
  0
LINE
  5
316
100
AcDbEntity
  8
ASSI
100
AcDbLine
 62
250
  6
CONTINUOUS
 10
-7.5127103575
 20
3.0288633358
 11
-7.5129394155
 21
1.3198505731
  0
LINE
  5
317
100
AcDbEntity
  8
ASSI
100
AcDbLine
 62
250
  6
CONTINUOUS
 10
-6.7409360319
 20
-2.9613946312
 11
-6.7407069738
 21
-1.2523818685
  0
LINE
  5
318
100
AcDbEntity
  8
ASSI
100
AcDbLine
 62
250
  6
CONTINUOUS
 10
-7.1782013814
 20
-5.6244906354
 11
-7.1785281411
 21
-5.7756638985
  0
LINE
  5
319
100
AcDbEntity
  8
ASSI
100
AcDbLine
 62
250
  6
CONTINUOUS
 10
-7.075445008
 20
5.69195934
 11
-7.0751182483
 21
5.8431326031
  0
LINE
  5
31A
100
AcDbEntity
  8
ASSI
100
AcDbLine
 62
250
  6
CONTINUOUS
 10
-7.4780279538
 20
-5.634775225
 11
-7.4781644261
 21
-5.6651444377
  0
LINE
  5
31B
100
AcDbEntity
  8
ASSI
100
AcDbLine
 62
250
  6
CONTINUOUS
 10
-6.7756184356
 20
5.7022439296
 11
-6.7754819632
 21
5.7326131423
  0
LINE
  5
31C
100
AcDbEntity
  8
ASSI
100
AcDbLine
 62
250
  6
CONTINUOUS
 10
-7.4780452713
 20
4.3233984172
 11
-7.4781841871
 21
4.2975600301
  0
LINE
  5
31D
100
AcDbEntity
  8
ASSI
100
AcDbLine
 62
250
  6
CONTINUOUS
 10
-6.775601118
 20
-4.2559297126
 11
-6.7754622023
 21
-4.2300913255
  0
LINE
  5
31E
100
AcDbEntity
  8
ASSI
100
AcDbLine
 62
250
  6
CONTINUOUS
 10
-7.1784393049
 20
4.2114424683
 11
-7.1791371999
 21
4.090836918
  0
LINE
  5
31F
100
AcDbEntity
  8
ASSI
100
AcDbLine
 62
250
  6
CONTINUOUS
 10
-7.0752070844
 20
-4.1439737636
 11
-7.0745091895
 21
-4.0233682134
  0
LINE
  5
320
100
AcDbEntity
  8
ASSI
100
AcDbLine
 62
250
  6
CONTINUOUS
 10
-7.1785281411
 20
-5.7756638985
 11
-7.179279959
 21
-5.8914185913
  0
LINE
  5
321
100
AcDbEntity
  8
ASSI
100
AcDbLine
 62
250
  6
CONTINUOUS
 10
-7.0751182483
 20
5.8431326031
 11
-7.0743664304
 21
5.9588872959
  0
LINE
  5
322
100
AcDbEntity
  8
ASSI
100
AcDbLine
 62
250
  6
CONTINUOUS
 10
-7.5120036421
 20
3.1319492084
 11
-7.5127103575
 21
3.0288633358
  0
LINE
  5
323
100
AcDbEntity
  8
ASSI
100
AcDbLine
 62
250
  6
CONTINUOUS
 10
-7.2127106542
 20
3.0120496473
 11
-7.2130224421
 21
2.9691229272
  0
LINE
  5
324
100
AcDbEntity
  8
ASSI
100
AcDbLine
 62
250
  6
CONTINUOUS
 10
-7.0409357351
 20
-2.9445809426
 11
-7.0406239473
 21
-2.9016542226
  0
LINE
  5
325
100
AcDbEntity
  8
ASSI
100
AcDbLine
 62
250
  6
CONTINUOUS
 10
-6.7416427472
 20
-3.0644805038
 11
-6.7409360319
 21
-2.9613946312
  0
LINE
  5
326
100
AcDbEntity
  8
ASSI
100
AcDbLine
 62
250
  6
CONTINUOUS
 10
-7.4781841871
 20
4.2975600301
 11
-7.4784398828
 21
4.2724372085
  0
LINE
  5
327
100
AcDbEntity
  8
ASSI
100
AcDbLine
 62
250
  6
CONTINUOUS
 10
-6.7754622023
 20
-4.2300913255
 11
-6.7752065066
 21
-4.2049685039
  0
LINE
  5
328
100
AcDbEntity
  8
ASSI
100
AcDbLine
 62
250
  6
CONTINUOUS
 10
-7.4781644261
 20
-5.6651444377
 11
-7.4784620622
 21
-5.694627327
  0
LINE
  5
329
100
AcDbEntity
  8
ASSI
100
AcDbLine
 62
250
  6
CONTINUOUS
 10
-6.7754819632
 20
5.7326131423
 11
-6.7751843272
 21
5.7620960316
  0
LWPOLYLINE
  5
32A
100
AcDbEntity
  8
ASSI
100
AcDbPolyline
 62
250
  6
CONTINUOUS
 90
3
 70
0
 10
-7.1791371999
 20
4.090836918
 10
-7.1800357164
 20
4.0030434689
 10
-7.1802470092
 20
3.9872877429
  0
LWPOLYLINE
  5
32B
100
AcDbEntity
  8
ASSI
100
AcDbPolyline
 62
250
  6
CONTINUOUS
 90
3
 70
0
 10
-7.0745091895
 20
-4.0233682134
 10
-7.0736106729
 20
-3.9355747643
 10
-7.0733993801
 20
-3.9198190383
  0
LINE
  5
32C
100
AcDbEntity
  8
ASSI
100
AcDbLine
 62
250
  6
CONTINUOUS
 10
-7.0743664304
 20
5.9588872959
 11
-7.0734849615
 21
6.0392941808
  0
LINE
  5
32D
100
AcDbEntity
  8
ASSI
100
AcDbLine
 62
250
  6
CONTINUOUS
 10
-7.179279959
 20
-5.8914185913
 11
-7.1801614279
 21
-5.9718254761
  0
LINE
  5
32E
100
AcDbEntity
  8
ASSI
100
AcDbLine
 62
250
  6
CONTINUOUS
 10
-7.5108138382
 20
3.2327071822
 11
-7.5120036421
 21
3.1319492084
  0
LINE
  5
32F
100
AcDbEntity
  8
ASSI
100
AcDbLine
 62
250
  6
CONTINUOUS
 10
-7.2121862453
 20
3.0549660501
 11
-7.2127106542
 21
3.0120496473
  0
LINE
  5
330
100
AcDbEntity
  8
ASSI
100
AcDbLine
 62
250
  6
CONTINUOUS
 10
-7.041460144
 20
-2.9874973454
 11
-7.0409357351
 21
-2.9445809426
  0
LINE
  5
331
100
AcDbEntity
  8
ASSI
100
AcDbLine
 62
250
  6
CONTINUOUS
 10
-6.7428325512
 20
-3.1652384775
 11
-6.7416427472
 21
-3.0644805038
  0
LINE
  5
332
100
AcDbEntity
  8
ASSI
100
AcDbLine
 62
250
  6
CONTINUOUS
 10
-7.4784398828
 20
4.2724372085
 11
-7.4788079722
 21
4.2484833877
  0
LINE
  5
333
100
AcDbEntity
  8
ASSI
100
AcDbLine
 62
250
  6
CONTINUOUS
 10
-6.7752065066
 20
-4.2049685039
 11
-6.7748384171
 21
-4.1810146831
  0
LINE
  5
334
100
AcDbEntity
  8
ASSI
100
AcDbLine
 62
250
  6
CONTINUOUS
 10
-7.0734849615
 20
6.0392941808
 11
-7.0726834652
 21
6.0902358406
  0
LINE
  5
335
100
AcDbEntity
  8
ASSI
100
AcDbLine
 62
250
  6
CONTINUOUS
 10
-7.1801614279
 20
-5.9718254761
 11
-7.1809629241
 21
-6.022767136
  0
LINE
  5
336
100
AcDbEntity
  8
ASSI
100
AcDbLine
 62
250
  6
CONTINUOUS
 10
-7.4784620622
 20
-5.694627327
 11
-7.4789137469
 21
-5.7224606496
  0
LINE
  5
337
100
AcDbEntity
  8
ASSI
100
AcDbLine
 62
250
  6
CONTINUOUS
 10
-6.7751843272
 20
5.7620960316
 11
-6.7747326425
 21
5.7899293542
  0
LINE
  5
338
100
AcDbEntity
  8
ASSI
100
AcDbLine
 62
250
  6
CONTINUOUS
 10
-5.9264731207
 20
15.938405622
 11
-5.9265623219
 21
15.9332491737
  0
LINE
  5
339
100
AcDbEntity
  8
ASSI
100
AcDbLine
 62
250
  6
CONTINUOUS
 10
-7.2114448608
 20
3.0972315008
 11
-7.2121862453
 21
3.0549660501
  0
LINE
  5
33A
100
AcDbEntity
  8
ASSI
100
AcDbLine
 62
250
  6
CONTINUOUS
 10
-7.0422015286
 20
-3.0297627961
 11
-7.041460144
 21
-2.9874973454
  0
LINE
  5
33B
100
AcDbEntity
  8
ASSI
100
AcDbLine
 62
250
  6
CONTINUOUS
 10
-7.5091675362
 20
3.3280662202
 11
-7.5108138382
 21
3.2327071822
  0
LINE
  5
33C
100
AcDbEntity
  8
ASSI
100
AcDbLine
 62
250
  6
CONTINUOUS
 10
-6.7444788531
 20
-3.2605975156
 11
-6.7428325512
 21
-3.1652384775
  0
LINE
  5
33D
100
AcDbEntity
  8
ASSI
100
AcDbLine
 62
250
  6
CONTINUOUS
 10
-5.8671539474
 20
17.6627826449
 11
-5.8672553762
 21
17.6577507703
  0
LINE
  5
33E
100
AcDbEntity
  8
ASSI
100
AcDbLine
 62
250
  6
CONTINUOUS
 10
-7.0726834652
 20
6.0902358406
 11
-7.0720923666
 21
6.1190521061
  0
LINE
  5
33F
100
AcDbEntity
  8
ASSI
100
AcDbLine
 62
250
  6
CONTINUOUS
 10
-7.1809629241
 20
-6.022767136
 11
-7.1815540228
 21
-6.0515834015
  0
LINE
  5
340
100
AcDbEntity
  8
ASSI
100
AcDbLine
 62
250
  6
CONTINUOUS
 10
-7.4788079722
 20
4.2484833877
 11
-7.4792820789
 21
4.2261131231
  0
LINE
  5
341
100
AcDbEntity
  8
ASSI
100
AcDbLine
 62
250
  6
CONTINUOUS
 10
-7.4789137469
 20
-5.7224606496
 11
-7.4792954661
 21
-5.739781651
  0
LINE
  5
342
100
AcDbEntity
  8
ASSI
100
AcDbLine
 62
250
  6
CONTINUOUS
 10
-6.7747326425
 20
5.7899293542
 11
-6.7743509233
 21
5.8072503556
  0
LINE
  5
343
100
AcDbEntity
  8
ASSI
100
AcDbLine
 62
250
  6
CONTINUOUS
 10
-6.7748384171
 20
-4.1810146831
 11
-6.7743643104
 21
-4.1586444185
  0
LINE
  5
344
100
AcDbEntity
  8
ASSI
100
AcDbLine
 62
250
  6
CONTINUOUS
 10
-7.5078416948
 20
3.3872944735
 11
-7.5091675362
 21
3.3280662202
  0
LINE
  5
345
100
AcDbEntity
  8
ASSI
100
AcDbLine
 62
250
  6
CONTINUOUS
 10
-6.7458046946
 20
-3.3198257689
 11
-6.7444788531
 21
-3.2605975156
  0
LINE
  5
346
100
AcDbEntity
  8
ASSI
100
AcDbLine
 62
250
  6
CONTINUOUS
 10
-5.9265623219
 20
15.9332491737
 11
-5.9266716793
 21
15.9284209816
  0
LINE
  5
347
100
AcDbEntity
  8
ASSI
100
AcDbLine
 62
250
  6
CONTINUOUS
 10
-7.2104965933
 20
3.1382427346
 11
-7.2114448608
 21
3.0972315008
  0
LINE
  5
348
100
AcDbEntity
  8
ASSI
100
AcDbLine
 62
250
  6
CONTINUOUS
 10
-7.0431497961
 20
-3.0707740299
 11
-7.0422015286
 21
-3.0297627961
  0
LWPOLYLINE
  5
349
100
AcDbEntity
  8
ASSI
100
AcDbPolyline
 62
250
  6
CONTINUOUS
 90
10
 70
0
 10
-7.0720923666
 20
6.1190521061
 10
-7.07146399
 20
6.1433945266
 10
-7.0711366842
 20
6.1538063735
 10
-7.0708032987
 20
6.1630073819
 10
-7.0704638295
 20
6.1709734112
 10
-7.0701182806
 20
6.177683863
 10
-7.0697692959
 20
6.1831213109
 10
-7.0694177568
 20
6.1872715874
 10
-7.069062782
 20
6.1901238654
 10
-7.0687043714
 20
6.1916707414
  0
LWPOLYLINE
  5
34A
100
AcDbEntity
  8
ASSI
100
AcDbPolyline
 62
250
  6
CONTINUOUS
 90
10
 70
0
 10
-7.1815540228
 20
-6.0515834015
 10
-7.1821823993
 20
-6.075925822
 10
-7.1825097052
 20
-6.0863376688
 10
-7.1828430907
 20
-6.0955386773
 10
-7.1831825599
 20
-6.1035047065
 10
-7.1835281088
 20
-6.1102151584
 10
-7.1838770935
 20
-6.1156526063
 10
-7.1842286325
 20
-6.1198028828
 10
-7.1845836074
 20
-6.1226551608
 10
-7.184942018
 20
-6.1242020368
  0
LINE
  5
34B
100
AcDbEntity
  8
ASSI
100
AcDbLine
 62
250
  6
CONTINUOUS
 10
-5.8672553762
 20
17.6577507703
 11
-5.8673767145
 21
17.6530812823
  0
LINE
  5
34C
100
AcDbEntity
  8
ASSI
100
AcDbLine
 62
250
  6
CONTINUOUS
 10
-7.5063684666
 20
3.4421230636
 11
-7.5078416948
 21
3.3872944735
  0
LINE
  5
34D
100
AcDbEntity
  8
ASSI
100
AcDbLine
 62
250
  6
CONTINUOUS
 10
-7.4792820789
 20
4.2261131231
 11
-7.4796523426
 21
4.2122939457
  0
LINE
  5
34E
100
AcDbEntity
  8
ASSI
100
AcDbLine
 62
250
  6
CONTINUOUS
 10
-6.7743643104
 20
-4.1586444185
 11
-6.7739940468
 21
-4.144825241
  0
LINE
  5
34F
100
AcDbEntity
  8
ASSI
100
AcDbLine
 62
250
  6
CONTINUOUS
 10
-6.7472779228
 20
-3.374654359
 11
-6.7458046946
 21
-3.3198257689
  0
LINE
  5
350
100
AcDbEntity
  8
ASSI
100
AcDbLine
 62
250
  6
CONTINUOUS
 10
-7.4792954661
 20
-5.739781651
 11
-7.4797371818
 21
-5.7558920968
  0
LINE
  5
351
100
AcDbEntity
  8
ASSI
100
AcDbLine
 62
250
  6
CONTINUOUS
 10
-6.7743509233
 20
5.8072503556
 11
-6.7739092075
 21
5.8233608014
  0
LWPOLYLINE
  5
352
100
AcDbEntity
  8
ASSI
100
AcDbPolyline
 62
7
  6
CONTINUOUS
 90
28
 70
0
 10
-7.5400168187
 20
5.9471107282
 10
-7.5395086767
 20
5.9644393511
 10
-7.5379951161
 20
5.9817511919
 10
-7.5354738802
 20
5.9989875745
 10
-7.5319398854
 20
6.016115986
 10
-7.5274010244
 20
6.0330495721
 10
-7.5218936158
 20
6.0496514655
 10
-7.5154600963
 20
6.0658275577
 10
-7.5081160602
 20
6.0815674873
 10
-7.4998682454
 20
6.0968630511
 10
-7.4907422127
 20
6.1116633932
 10
-7.4807679624
 20
6.1259167219
 10
-7.4699495942
 20
6.1396078368
 10
-7.4582827359
 20
6.1527204766
 10
-7.4458297975
 20
6.1651641847
 10
-7.4327066504
 20
6.17682305
 10
-7.4190028549
 20
6.1876350042
 10
-7.4047351692
 20
6.1976035038
 10
-7.389921161
 20
6.206722885
 10
-7.3746135775
 20
6.2149628741
 10
-7.3588626256
 20
6.2222985614
 10
-7.3426767164
 20
6.2287234472
 10
-7.326067499
 20
6.2342217322
 10
-7.3091279646
 20
6.2387516947
 10
-7.2919913791
 20
6.242278006
 10
-7.2747432811
 20
6.2447925032
 10
-7.2574173453
 20
6.2462994643
 10
-7.2400722712
 20
6.2468006769
  0
LWPOLYLINE
  5
353
100
AcDbEntity
  8
ASSI
100
AcDbPolyline
 62
7
  6
CONTINUOUS
 90
28
 70
0
 10
-6.7136295707
 20
-5.8796420236
 10
-6.7141377127
 20
-5.8969706465
 10
-6.7156512733
 20
-5.9142824873
 10
-6.7181725092
 20
-5.9315188699
 10
-6.721706504
 20
-5.9486472814
 10
-6.7262453649
 20
-5.9655808675
 10
-6.7317527736
 20
-5.9821827609
 10
-6.7381862931
 20
-5.998358853
 10
-6.7455303291
 20
-6.0140987826
 10
-6.753778144
 20
-6.0293943465
 10
-6.7629041766
 20
-6.0441946886
 10
-6.7728784269
 20
-6.0584480173
 10
-6.7836967951
 20
-6.0721391322
 10
-6.7953636535
 20
-6.085251772
 10
-6.8078165918
 20
-6.0976954801
 10
-6.8209397389
 20
-6.1093543453
 10
-6.8346435345
 20
-6.1201662996
 10
-6.8489112201
 20
-6.1301347992
 10
-6.8637252284
 20
-6.1392541804
 10
-6.8790328118
 20
-6.1474941695
 10
-6.8947837638
 20
-6.1548298567
 10
-6.910969673
 20
-6.1612547426
 10
-6.9275788904
 20
-6.1667530275
 10
-6.9445184248
 20
-6.1712829901
 10
-6.9616550102
 20
-6.1748093014
 10
-6.9789031082
 20
-6.1773237986
 10
-6.996229044
 20
-6.1788307596
 10
-7.0135741182
 20
-6.1793319723
  0
LINE
  5
354
100
AcDbEntity
  8
ASSI
100
AcDbLine
 62
250
  6
CONTINUOUS
 10
-5.9266716793
 20
15.9284209816
 11
-5.9267994497
 21
15.9239907814
  0
LINE
  5
355
100
AcDbEntity
  8
ASSI
100
AcDbLine
 62
250
  6
CONTINUOUS
 10
-7.2093506484
 20
3.177513325
 11
-7.2104965933
 21
3.1382427346
  0
LINE
  5
356
100
AcDbEntity
  8
ASSI
100
AcDbLine
 62
250
  6
CONTINUOUS
 10
-7.0442957409
 20
-3.1100446204
 11
-7.0431497961
 21
-3.0707740299
  0
LINE
  5
357
100
AcDbEntity
  8
ASSI
100
AcDbLine
 62
250
  6
CONTINUOUS
 10
-7.5047569702
 20
3.4923129961
 11
-7.5063684666
 21
3.4421230636
  0
LINE
  5
358
100
AcDbEntity
  8
ASSI
100
AcDbLine
 62
250
  6
CONTINUOUS
 10
-6.7488894191
 20
-3.4248442914
 11
-6.7472779228
 21
-3.374654359
  0
LINE
  5
359
100
AcDbEntity
  8
ASSI
100
AcDbLine
 62
250
  6
CONTINUOUS
 10
-7.4796523426
 20
4.2122939457
 11
-7.5047569702
 21
3.4923129961
  0
LINE
  5
35A
100
AcDbEntity
  8
ASSI
100
AcDbLine
 62
250
  6
CONTINUOUS
 10
-7.1802470092
 20
3.9872877429
 11
-7.2049394652
 21
3.2801883196
  0
LINE
  5
35B
100
AcDbEntity
  8
ASSI
100
AcDbLine
 62
250
  6
CONTINUOUS
 10
-7.0733993801
 20
-3.9198190383
 11
-7.0487069242
 21
-3.212719615
  0
LINE
  5
35C
100
AcDbEntity
  8
ASSI
100
AcDbLine
 62
250
  6
CONTINUOUS
 10
-6.7739940468
 20
-4.144825241
 11
-6.7488894191
 21
-3.4248442914
  0
LWPOLYLINE
  5
35D
100
AcDbEntity
  8
ASSI
100
AcDbPolyline
 62
250
  6
CONTINUOUS
 90
12
 70
0
 10
-5.8673767145
 20
17.6530812823
 10
-5.8675162321
 20
17.6488482456
 10
-5.8675920399
 20
17.6469155348
 10
-5.8676716731
 20
17.645113731
 10
-5.8677550947
 20
17.6434414514
 10
-5.8678414603
 20
17.6419155061
 10
-5.8679308114
 20
17.6405373041
 10
-5.8680231065
 20
17.6393054363
 10
-5.8681173775
 20
17.6382324859
 10
-5.8682133016
 20
17.637322647
 10
-5.8683112015
 20
17.6365717255
 10
-5.8684110773
 20
17.6359797212
  0
LINE
  5
35E
100
AcDbEntity
  8
ASSI
100
AcDbLine
 62
250
  6
CONTINUOUS
 10
-7.4797371818
 20
-5.7558920968
 11
-7.4802333966
 21
-5.7706076359
  0
LINE
  5
35F
100
AcDbEntity
  8
ASSI
100
AcDbLine
 62
250
  6
CONTINUOUS
 10
-6.7739092075
 20
5.8233608014
 11
-6.7734129928
 21
5.8380763405
  0
LINE
  5
360
100
AcDbEntity
  8
ASSI
100
AcDbLine
 62
250
  6
CONTINUOUS
 10
-7.2080251043
 20
3.2145272205
 11
-7.2093506484
 21
3.177513325
  0
LINE
  5
361
100
AcDbEntity
  8
ASSI
100
AcDbLine
 62
250
  6
CONTINUOUS
 10
-7.0456212851
 20
-3.1470585159
 11
-7.0442957409
 21
-3.1100446204
  0
LWPOLYLINE
  5
362
100
AcDbEntity
  8
ASSI
100
AcDbPolyline
 62
250
  6
CONTINUOUS
 90
14
 70
0
 10
-5.9267994497
 20
15.9239907814
 10
-5.9269443685
 20
15.9200024944
 10
-5.9270224883
 20
15.9181980128
 10
-5.9271043574
 20
15.9165191081
 10
-5.9271891653
 20
15.9149823547
 10
-5.9272769411
 20
15.9135891801
 10
-5.9273676558
 20
15.9123381569
 10
-5.9274604117
 20
15.9112415762
 10
-5.9275552399
 20
15.9103009507
 10
-5.9276521093
 20
15.9095147678
 10
-5.92775003
 20
15.9088907813
 10
-5.9278486719
 20
15.9084315757
 10
-5.927948365
 20
15.9081345664
 10
-5.9280491093
 20
15.9079997535
  0
LWPOLYLINE
  5
363
100
AcDbEntity
  8
ASSI
100
AcDbPolyline
 62
250
  6
CONTINUOUS
 90
14
 70
0
 10
-7.4802333966
 20
-5.7706076359
 10
-7.4807802188
 20
-5.7838127701
 10
-7.4810702859
 20
-5.7897865053
 10
-7.4813714011
 20
-5.7953432485
 10
-7.48168121
 20
-5.8004395598
 10
-7.4819997868
 20
-5.8050718647
 10
-7.4823270572
 20
-5.8092437376
 10
-7.4826604438
 20
-5.8129224617
 10
-7.4830000129
 20
-5.8161041306
 10
-7.4833456981
 20
-5.8187926506
 10
-7.4836947228
 20
-5.8209670235
 10
-7.4840461612
 20
-5.8226202499
 10
-7.4844009391
 20
-5.8237593292
 10
-7.4847590565
 20
-5.8243842614
  0
LWPOLYLINE
  5
364
100
AcDbEntity
  8
ASSI
100
AcDbPolyline
 62
250
  6
CONTINUOUS
 90
14
 70
0
 10
-6.7734129928
 20
5.8380763405
 10
-6.7728661705
 20
5.8512814747
 10
-6.7725761035
 20
5.8572552099
 10
-6.7722749882
 20
5.8628119532
 10
-6.7719651794
 20
5.8679082644
 10
-6.7716466026
 20
5.8725405693
 10
-6.7713193321
 20
5.8767124423
 10
-6.7709859455
 20
5.8803911663
 10
-6.7706463765
 20
5.8835728352
 10
-6.7703006912
 20
5.8862613552
 10
-6.7699516666
 20
5.8884357282
 10
-6.7696002281
 20
5.8900889546
 10
-6.7692454502
 20
5.8912280338
 10
-6.7688873329
 20
5.891852966
  0
LWPOLYLINE
  5
365
100
AcDbEntity
  8
ASSI
100
AcDbPolyline
 62
250
  6
CONTINUOUS
 90
4
 70
0
 10
-7.2049393385
 20
3.2801883195
 10
-7.2057632454
 20
3.2648778826
 10
-7.2065516768
 20
3.2488247961
 10
-7.2080251043
 20
3.2145272205
  0
LWPOLYLINE
  5
366
100
AcDbEntity
  8
ASSI
100
AcDbPolyline
 62
250
  6
CONTINUOUS
 90
4
 70
0
 10
-7.0487070509
 20
-3.2127196149
 10
-7.047883144
 20
-3.197409178
 10
-7.0470947125
 20
-3.1813560915
 10
-7.0456212851
 20
-3.1470585159
  0
LINE
  5
367
100
AcDbEntity
  8
ASSI
100
AcDbLine
 62
250
  6
CONTINUOUS
 10
-9.8140260376
 20
-20.0734567869
 11
-9.8655686864
 21
-20.4360244161
  0
LINE
  5
368
100
AcDbEntity
  8
ASSI
100
AcDbLine
 62
250
  6
CONTINUOUS
 10
-9.6140564977
 20
-20.2719660114
 11
-9.6656598685
 21
-20.6349607784
  0
LWPOLYLINE
  5
369
100
AcDbEntity
  8
ASSI
100
AcDbPolyline
 62
250
  6
CONTINUOUS
 90
25
 70
0
 10
-7.2049397221
 20
-3.2127122571
 10
-7.2242469237
 20
-3.2134894039
 10
-7.2434740256
 20
-3.2151433977
 10
-7.2625412604
 20
-3.2176673766
 10
-7.281369524
 20
-3.2210508694
 10
-7.2998807036
 20
-3.2252798391
 10
-7.3179980019
 20
-3.2303367409
 10
-7.335646256
 20
-3.2362005953
 10
-7.3527522484
 20
-3.2428470748
 10
-7.3692450117
 20
-3.2502486054
 10
-7.3850561224
 20
-3.2583744804
 10
-7.400119985
 20
-3.2671909878
 10
-7.4143741042
 20
-3.2766615508
 10
-7.4277593439
 20
-3.2867468788
 10
-7.4402201729
 20
-3.2974051309
 10
-7.4517048949
 20
-3.3085920893
 10
-7.4621658634
 20
-3.3202613427
 10
-7.4715596791
 20
-3.3323644788
 10
-7.4798473697
 20
-3.3448512856
 10
-7.4869945523
 20
-3.3576699589
 10
-7.4929715753
 20
-3.3707673181
 10
-7.4977536419
 20
-3.3840890261
 10
-7.5013209127
 20
-3.3975798154
 10
-7.5036585883
 20
-3.4111837166
 10
-7.5047569702
 20
-3.4248442914
  0
LWPOLYLINE
  5
36A
100
AcDbEntity
  8
ASSI
100
AcDbPolyline
 62
7
  6
CONTINUOUS
 90
13
 70
0
 10
9.7935292084
 20
-1.2786213695
 10
9.8025129505
 20
-1.2782918597
 10
9.8109034287
 20
-1.2779412461
 10
9.8185760497
 20
-1.2775754487
 10
9.8255020214
 20
-1.2771955061
 10
9.8317101359
 20
-1.2768003798
 10
9.8371621765
 20
-1.2763928745
 10
9.8418674366
 20
-1.2759713903
 10
9.8458166227
 20
-1.2755375271
 10
9.8489436379
 20
-1.2750988893
 10
9.8512264499
 20
-1.2746580119
 10
9.852687091
 20
-1.2742123598
 10
9.8533255611
 20
-1.2737619332
  0
LINE
  5
36B
100
AcDbEntity
  8
ASSI
100
AcDbLine
 62
7
  6
CONTINUOUS
 10
9.7737502274
 20
-1.2792159526
 11
9.7935292084
 21
-1.2786213695
  0
LINE
  5
36C
100
AcDbEntity
  8
ASSI
100
AcDbLine
 62
7
  6
CONTINUOUS
 10
9.7521462684
 20
-1.2797124206
 11
9.7737502274
 21
-1.2792159526
  0
LINE
  5
36D
100
AcDbEntity
  8
ASSI
100
AcDbLine
 62
7
  6
CONTINUOUS
 10
9.728966751
 20
-1.2801053024
 11
9.7521462684
 21
-1.2797124206
  0
LWPOLYLINE
  5
36E
100
AcDbEntity
  8
ASSI
100
AcDbPolyline
 62
7
  6
CONTINUOUS
 90
3
 70
0
 10
9.6916959136
 20
-1.2804940738
 10
9.7043133084
 20
-1.2803925457
 10
9.728966751
 20
-1.2801053024
  0
LINE
  5
36F
100
AcDbEntity
  8
ASSI
100
AcDbLine
 62
250
  6
CONTINUOUS
 10
-7.2049394653
 20
-3.2127196115
 11
-7.0487069242
 21
-3.212719615
  0
LINE
  5
370
100
AcDbEntity
  8
ASSI
100
AcDbLine
 62
250
  6
CONTINUOUS
 10
7.0950605347
 20
-3.2127196115
 11
7.2512930758
 21
-3.212719615
  0
LINE
  5
371
100
AcDbEntity
  8
ASSI
100
AcDbLine
 62
250
  6
CONTINUOUS
 10
6.7870605845
 20
-2.8591588665
 11
7.5592930262
 21
-2.8591588665
  0
LINE
  5
372
100
AcDbEntity
  8
ASSI
100
AcDbLine
 62
250
  6
CONTINUOUS
 10
-7.5129394155
 20
-2.8591588665
 11
-6.7407069738
 21
-2.8591588665
  0
LINE
  5
373
100
AcDbEntity
  8
ASSI
100
AcDbLine
 62
7
  6
CONTINUOUS
 10
-9.6943748211
 20
-1.2799221491
 11
-9.6704583412
 21
-1.2802622116
  0
LINE
  5
374
100
AcDbEntity
  8
ASSI
100
AcDbLine
 62
7
  6
CONTINUOUS
 10
-9.7167893806
 20
-1.2794773547
 11
-9.6943748211
 21
-1.2799221491
  0
LWPOLYLINE
  5
375
100
AcDbEntity
  8
ASSI
100
AcDbPolyline
 62
250
  6
CONTINUOUS
 90
25
 70
0
 10
7.2512933328
 20
-3.2127122571
 10
7.2706005043
 20
-3.213489402
 10
7.2898275779
 20
-3.2151433913
 10
7.3088947865
 20
-3.2176673634
 10
7.327723026
 20
-3.2210508473
 10
7.3462341841
 20
-3.2252798062
 10
7.3643514646
 20
-3.2303366957
 10
7.3819997045
 20
-3.2362005369
 10
7.3991056865
 20
-3.2428470027
 10
7.4155984436
 20
-3.2502485196
 10
7.4314095523
 20
-3.2583743812
 10
7.4464734168
 20
-3.2671908763
 10
7.460727542
 20
-3.2766614285
 10
7.4741127913
 20
-3.2867467479
 10
7.486573633
 20
-3.2974049937
 10
7.4980583705
 20
-3.3085919487
 10
7.5085193566
 20
-3.3202612021
 10
7.5179131912
 20
-3.3323643418
 10
7.5262009013
 20
-3.3448511559
 10
7.5333481031
 20
-3.3576698408
 10
7.5393251442
 20
-3.3707672156
 10
7.5441072268
 20
-3.3840889434
 10
7.5476745105
 20
-3.3975797565
 10
7.550012195
 20
-3.4111836854
 10
7.5511105809
 20
-3.4248442915
  0
LINE
  5
376
100
AcDbEntity
  8
ASSI
100
AcDbLine
 62
7
  6
CONTINUOUS
 10
-9.8227124934
 20
-0.0933189378
 11
-9.8768231947
 21
-0.0662656477
  0
LINE
  5
377
100
AcDbEntity
  8
ASSI
100
AcDbLine
 62
7
  6
CONTINUOUS
 10
-6.7407069738
 20
-1.2523818685
 11
-6.7124652516
 21
-1.2806235907
  0
LINE
  5
378
100
AcDbEntity
  8
ASSI
100
AcDbLine
 62
7
  6
CONTINUOUS
 10
-7.5129394155
 20
1.3198505731
 11
-7.5411811377
 21
1.3480922954
  0
LWPOLYLINE
  5
379
100
AcDbEntity
  8
ASSI
100
AcDbPolyline
 62
250
  6
CONTINUOUS
 90
13
 70
0
 10
5.2719508907
 20
-15.8405310489
 10
5.272051635
 20
-15.8406658618
 10
5.2721513281
 20
-15.8409628711
 10
5.27224997
 20
-15.8414220767
 10
5.2723478907
 20
-15.8420460632
 10
5.2724447601
 20
-15.8428322461
 10
5.2725395883
 20
-15.8437728716
 10
5.2726323442
 20
-15.8448694523
 10
5.2727230589
 20
-15.8461204755
 10
5.2728108347
 20
-15.8475136501
 10
5.2728956427
 20
-15.8490504035
 10
5.2729775117
 20
-15.8507293082
 10
5.2730556315
 20
-15.8525337898
  0
LWPOLYLINE
  5
37A
100
AcDbEntity
  8
ASSI
100
AcDbPolyline
 62
250
  6
CONTINUOUS
 90
8
 70
0
 10
-7.184942018
 20
6.1916707414
 10
-7.1845836074
 20
6.1901238654
 10
-7.1842286326
 20
6.1872715874
 10
-7.1838770935
 20
6.1831213109
 10
-7.1835281088
 20
6.1776838629
 10
-7.1831825599
 20
6.1709734111
 10
-7.1828430907
 20
6.1630073818
 10
-7.1825097052
 20
6.1538063734
  0
LINE
  5
37B
100
AcDbEntity
  8
ASSI
100
AcDbLine
 62
250
  6
CONTINUOUS
 10
-9.8655686864
 20
20.5034931207
 11
-9.8140260376
 21
20.1409254915
  0
LINE
  5
37C
100
AcDbEntity
  8
ASSI
100
AcDbLine
 62
250
  6
CONTINUOUS
 10
-9.6656598685
 20
20.702429483
 11
-9.6140564977
 21
20.339434716
  0
LWPOLYLINE
  5
37D
100
AcDbEntity
  8
ASSI
100
AcDbPolyline
 62
250
  6
CONTINUOUS
 90
5
 70
0
 10
-5.6782014784
 20
-15.5905688963
 10
-5.6781006542
 20
-15.5913651964
 10
-5.678000927
 20
-15.5931511644
 10
-5.6779022968
 20
-15.5959211177
 10
-5.6778044688
 20
-15.5996662141
  0
LWPOLYLINE
  5
37E
100
AcDbEntity
  8
ASSI
100
AcDbPolyline
 62
7
  6
CONTINUOUS
 90
31
 70
0
 10
-5.9263335434
 20
17.3435092601
 10
-5.9257072616
 20
17.3342914762
 10
-5.9245893039
 20
17.3250092125
 10
-5.9229692724
 20
17.3156846623
 10
-5.9208371088
 20
17.3063450505
 10
-5.9181851341
 20
17.2970104291
 10
-5.9150079343
 20
17.2876936797
 10
-5.9113001432
 20
17.2784232406
 10
-5.9070562862
 20
17.2692233073
 10
-5.9022713533
 20
17.2601020978
 10
-5.8969431416
 20
17.2510907245
 10
-5.8910691156
 20
17.2422163452
 10
-5.8846428264
 20
17.2334838895
 10
-5.8776652767
 20
17.2249278735
 10
-5.8701368837
 20
17.2165787503
 10
-5.8620482609
 20
17.2084395691
 10
-5.8534038112
 20
17.2005490304
 10
-5.8442075974
 20
17.1929419659
 10
-5.8344471395
 20
17.1856219743
 10
-5.8241309505
 20
17.1786328947
 10
-5.8132684352
 20
17.1720153177
 10
-5.8018463585
 20
17.1657766924
 10
-5.7898781148
 20
17.1599663911
 10
-5.7773822595
 20
17.1546324282
 10
-5.76435329
 20
17.1497904253
 10
-5.7508117267
 20
17.1454947697
 10
-5.7367905956
 20
17.1418006801
 10
-5.7223069286
 20
17.1387337482
 10
-5.7073940662
 20
17.1363423118
 10
-5.6921031681
 20
17.1346927831
 10
-5.6764858367
 20
17.1338399633
  0
LINE
  5
37F
100
AcDbEntity
  8
ASSI
100
AcDbLine
 62
250
  6
CONTINUOUS
 10
-5.2860543495
 20
17.6469155348
 11
-5.2862021766
 21
17.6509104807
  0
LINE
  5
380
100
AcDbEntity
  8
ASSI
100
AcDbLine
 62
250
  6
CONTINUOUS
 10
-5.2267020208
 20
15.9200024945
 11
-5.2268469396
 21
15.9239907814
  0
LINE
  5
381
100
AcDbEntity
  8
ASSI
100
AcDbLine
 62
250
  6
CONTINUOUS
 10
-5.5350830188
 20
17.389777783
 11
-5.5351829449
 21
17.3933043748
  0
LINE
  5
382
100
AcDbEntity
  8
ASSI
100
AcDbLine
 62
250
  6
CONTINUOUS
 10
-5.2862021766
 20
17.6509104807
 11
-5.2863326046
 21
17.655361743
  0
LINE
  5
383
100
AcDbEntity
  8
ASSI
100
AcDbLine
 62
250
  6
CONTINUOUS
 10
-5.2268469396
 20
15.9239907814
 11
-5.2269747101
 21
15.9284209816
  0
LINE
  5
384
100
AcDbEntity
  8
ASSI
100
AcDbLine
 62
250
  6
CONTINUOUS
 10
-5.2863326046
 20
17.655361743
 11
-5.28644431
 21
17.6602241282
  0
LINE
  5
385
100
AcDbEntity
  8
ASSI
100
AcDbLine
 62
250
  6
CONTINUOUS
 10
-5.2269747101
 20
15.9284209816
 11
-5.2270840675
 21
15.9332491738
  0
LINE
  5
386
100
AcDbEntity
  8
ASSI
100
AcDbLine
 62
250
  6
CONTINUOUS
 10
-5.6184634444
 20
-17.3258356701
 11
-5.6182696351
 21
-17.3358366218
  0
LINE
  5
387
100
AcDbEntity
  8
ASSI
100
AcDbLine
 62
250
  6
CONTINUOUS
 10
-5.5351829449
 20
17.3933043748
 11
-5.5353767542
 21
17.4033053265
  0
LINE
  5
388
100
AcDbEntity
  8
ASSI
100
AcDbLine
 62
250
  6
CONTINUOUS
 10
-5.6778044688
 20
-15.5996662141
 11
-5.6776129885
 21
-15.6100293672
  0
LINE
  5
389
100
AcDbEntity
  8
ASSI
100
AcDbLine
 62
250
  6
CONTINUOUS
 10
-5.4758419205
 20
15.6671349188
 11
-5.4760334008
 21
15.6774980718
  0
LINE
  5
38A
100
AcDbEntity
  8
ASSI
100
AcDbLine
 62
250
  6
CONTINUOUS
 10
-5.4989309654
 20
-20.3252232602
 11
-5.5363622706
 21
-18.0265427274
  0
LINE
  5
38B
100
AcDbEntity
  8
ASSI
100
AcDbLine
 62
250
  6
CONTINUOUS
 10
-5.6547154239
 20
20.3926919649
 11
-5.6172841187
 21
18.094011432
  0
LINE
  5
38C
100
AcDbEntity
  8
ASSI
100
AcDbLine
 62
250
  6
CONTINUOUS
 10
-5.28644431
 20
17.6602241282
 11
-5.2865354621
 21
17.6654254923
  0
LINE
  5
38D
100
AcDbEntity
  8
ASSI
100
AcDbLine
 62
250
  6
CONTINUOUS
 10
-5.2270840675
 20
15.9332491738
 11
-5.2271732687
 21
15.9384056221
  0
LINE
  5
38E
100
AcDbEntity
  8
ASSI
100
AcDbLine
 62
250
  6
CONTINUOUS
 10
-5.8969555687
 20
19.8198521221
 11
-5.8670677713
 21
17.983866449
  0
LINE
  5
38F
100
AcDbEntity
  8
ASSI
100
AcDbLine
 62
250
  6
CONTINUOUS
 10
-5.2566908207
 20
-19.7523834175
 11
-5.2865786181
 21
-17.9163977444
  0
LINE
  5
390
100
AcDbEntity
  8
ASSI
100
AcDbLine
 62
250
  6
CONTINUOUS
 10
-5.8671109272
 20
-17.5979567876
 11
-5.8670415714
 21
-17.6034162204
  0
LINE
  5
391
100
AcDbEntity
  8
ASSI
100
AcDbLine
 62
250
  6
CONTINUOUS
 10
-5.2865354621
 20
17.6654254923
 11
-5.2866048179
 21
17.670884925
  0
LINE
  5
392
100
AcDbEntity
  8
ASSI
100
AcDbLine
 62
250
  6
CONTINUOUS
 10
-5.2271732687
 20
15.9384056221
 11
-5.2272411201
 21
15.943811809
  0
LINE
  5
393
100
AcDbEntity
  8
ASSI
100
AcDbLine
 62
250
  6
CONTINUOUS
 10
-5.6182696351
 20
-17.3358366218
 11
-5.6179940285
 21
-17.3579369946
  0
LINE
  5
394
100
AcDbEntity
  8
ASSI
100
AcDbLine
 62
250
  6
CONTINUOUS
 10
-5.5353767542
 20
17.4033053265
 11
-5.5356523609
 21
17.4254056992
  0
LINE
  5
395
100
AcDbEntity
  8
ASSI
100
AcDbLine
 62
250
  6
CONTINUOUS
 10
-5.6776129885
 20
-15.6100293672
 11
-5.677341514
 21
-15.6324746207
  0
LINE
  5
396
100
AcDbEntity
  8
ASSI
100
AcDbLine
 62
250
  6
CONTINUOUS
 10
-5.4760334008
 20
15.6774980718
 11
-5.4763048754
 21
15.6999433254
  0
LINE
  5
397
100
AcDbEntity
  8
ASSI
100
AcDbLine
 62
250
  6
CONTINUOUS
 10
-5.8670677713
 20
17.983866449
 11
-5.8670009639
 21
17.9768585519
  0
LINE
  5
398
100
AcDbEntity
  8
ASSI
100
AcDbLine
 62
250
  6
CONTINUOUS
 10
-5.2865786181
 20
-17.9163977444
 11
-5.2866454255
 21
-17.9093898473
  0
LINE
  5
399
100
AcDbEntity
  8
ASSI
100
AcDbLine
 62
250
  6
CONTINUOUS
 10
-5.9264364546
 20
-15.8736117161
 11
-5.9263594345
 21
-15.8819446836
  0
LINE
  5
39A
100
AcDbEntity
  8
ASSI
100
AcDbLine
 62
250
  6
CONTINUOUS
 10
-5.8670415714
 20
-17.6034162204
 11
-5.8669800759
 21
-17.6119406723
  0
LINE
  5
39B
100
AcDbEntity
  8
ASSI
100
AcDbLine
 62
250
  6
CONTINUOUS
 10
-5.677341514
 20
-15.6324746207
 11
-5.6768855438
 21
-15.6994784849
  0
LINE
  5
39C
100
AcDbEntity
  8
ASSI
100
AcDbLine
 62
250
  6
CONTINUOUS
 10
-5.6179940285
 20
-17.3579369946
 11
-5.6175289946
 21
-17.4249155617
  0
LINE
  5
39D
100
AcDbEntity
  8
ASSI
100
AcDbLine
 62
250
  6
CONTINUOUS
 10
-5.5356523609
 20
17.4254056992
 11
-5.5361173948
 21
17.4923842664
  0
LINE
  5
39E
100
AcDbEntity
  8
ASSI
100
AcDbLine
 62
250
  6
CONTINUOUS
 10
-5.4763048754
 20
15.6999433254
 11
-5.4767608456
 21
15.7669471895
  0
LINE
  5
39F
100
AcDbEntity
  8
ASSI
100
AcDbLine
 62
250
  6
CONTINUOUS
 10
-5.2866048179
 20
17.670884925
 11
-5.2866663134
 21
17.6794093769
  0
LINE
  5
3A0
100
AcDbEntity
  8
ASSI
100
AcDbLine
 62
250
  6
CONTINUOUS
 10
-5.2272411201
 20
15.943811809
 11
-5.2273012662
 21
15.9522456624
  0
LINE
  5
3A1
100
AcDbEntity
  8
ASSI
100
AcDbLine
 62
250
  6
CONTINUOUS
 10
-5.8670009639
 20
17.9768585519
 11
-5.8669703148
 21
17.9696566239
  0
LINE
  5
3A2
100
AcDbEntity
  8
ASSI
100
AcDbLine
 62
250
  6
CONTINUOUS
 10
-5.2866454255
 20
-17.9093898473
 11
-5.2866760745
 21
-17.9021879193
  0
LINE
  5
3A3
100
AcDbEntity
  8
ASSI
100
AcDbLine
 62
250
  6
CONTINUOUS
 10
-5.9263594345
 20
-15.8819446836
 11
-5.9263335434
 21
-15.8905234337
  0
LINE
  5
3A4
100
AcDbEntity
  8
ASSI
100
AcDbLine
 62
250
  6
CONTINUOUS
 10
-5.6175289946
 20
-17.4249155617
 11
-5.617123554
 21
-17.6003177521
  0
LINE
  5
3A5
100
AcDbEntity
  8
ASSI
100
AcDbLine
 62
250
  6
CONTINUOUS
 10
-5.5361173948
 20
17.4923842664
 11
-5.5365228354
 21
17.6677864567
  0
LINE
  5
3A6
100
AcDbEntity
  8
ASSI
100
AcDbLine
 62
250
  6
CONTINUOUS
 10
-5.6768855438
 20
-15.6994784849
 11
-5.6764858367
 21
-15.8905234337
  0
LINE
  5
3A7
100
AcDbEntity
  8
ASSI
100
AcDbLine
 62
250
  6
CONTINUOUS
 10
-5.4767608456
 20
15.7669471895
 11
-5.4771605527
 21
15.9579921383
  0
LINE
  5
3A8
100
AcDbEntity
  8
ASSI
100
AcDbLine
 62
250
  6
CONTINUOUS
 10
-5.9263335434
 20
-15.8905234337
 11
-5.9263335434
 21
-17.2760405555
  0
LINE
  5
3A9
100
AcDbEntity
  8
ASSI
100
AcDbLine
 62
7
  6
CONTINUOUS
 10
-5.8969555687
 20
-20.5320888063
 11
-5.8969555687
 21
-19.7523834175
  0
LINE
  5
3AA
100
AcDbEntity
  8
ASSI
100
AcDbLine
 62
7
  6
CONTINUOUS
 10
-5.8969555687
 20
19.8198521221
 11
-5.8969555687
 21
20.599557511
  0
LINE
  5
3AB
100
AcDbEntity
  8
ASSI
100
AcDbLine
 62
250
  6
CONTINUOUS
 10
-5.6764858367
 20
-15.8905234337
 11
-5.6764858367
 21
-17.0663712587
  0
LINE
  5
3AC
100
AcDbEntity
  8
ASSI
100
AcDbLine
 62
250
  6
CONTINUOUS
 10
-5.4771605527
 20
15.9579921383
 11
-5.4771605527
 21
17.1338399633
  0
LINE
  5
3AD
100
AcDbEntity
  8
ASSI
100
AcDbLine
 62
7
  6
CONTINUOUS
 10
-5.2566908207
 20
20.599557511
 11
-5.2566908207
 21
19.8198521221
  0
LINE
  5
3AE
100
AcDbEntity
  8
ASSI
100
AcDbLine
 62
7
  6
CONTINUOUS
 10
-5.2566908207
 20
-19.7523834175
 11
-5.2566908207
 21
-20.5320888063
  0
LINE
  5
3AF
100
AcDbEntity
  8
ASSI
100
AcDbLine
 62
250
  6
CONTINUOUS
 10
-5.2273012662
 20
15.9522456624
 11
-5.2273128459
 21
17.3435092601
  0
LINE
  5
3B0
100
AcDbEntity
  8
ASSI
100
AcDbLine
 62
250
  6
CONTINUOUS
 10
-5.8669800759
 20
-17.6119406723
 11
-5.8669703148
 21
-17.9021879195
  0
LINE
  5
3B1
100
AcDbEntity
  8
ASSI
100
AcDbLine
 62
250
  6
CONTINUOUS
 10
-5.2866663134
 20
17.6794093769
 11
-5.2866760745
 21
17.9696566241
  0
LINE
  5
3B2
100
AcDbEntity
  8
ASSI
100
AcDbLine
 62
250
  6
CONTINUOUS
 10
-5.6172841187
 20
18.094011432
 11
-5.6171938027
 21
17.5991957732
  0
LINE
  5
3B3
100
AcDbEntity
  8
ASSI
100
AcDbLine
 62
250
  6
CONTINUOUS
 10
-5.5363622706
 20
-18.0265427274
 11
-5.5364525866
 21
-17.5317270686
  0
LINE
  5
3B4
100
AcDbEntity
  8
ASSI
100
AcDbLine
 62
250
  6
CONTINUOUS
 10
-5.5365228354
 20
17.6677864567
 11
-5.5363622706
 21
18.094011432
  0
LINE
  5
3B5
100
AcDbEntity
  8
ASSI
100
AcDbLine
 62
250
  6
CONTINUOUS
 10
-5.617123554
 20
-17.6003177521
 11
-5.6172841187
 21
-18.0265427274
  0
LINE
  5
3B6
100
AcDbEntity
  8
ASSI
100
AcDbLine
 62
250
  6
CONTINUOUS
 10
-5.9263335434
 20
17.3435092601
 11
-5.9263451231
 21
15.9522456624
  0
LINE
  5
3B7
100
AcDbEntity
  8
ASSI
100
AcDbLine
 62
250
  6
CONTINUOUS
 10
-5.8669703148
 20
17.9696566239
 11
-5.8669800759
 21
17.6794093769
  0
LINE
  5
3B8
100
AcDbEntity
  8
ASSI
100
AcDbLine
 62
250
  6
CONTINUOUS
 10
-5.2866760745
 20
-17.9021879193
 11
-5.2866663134
 21
-17.6119406722
  0
LINE
  5
3B9
100
AcDbEntity
  8
ASSI
100
AcDbLine
 62
250
  6
CONTINUOUS
 10
-5.2273128459
 20
-17.2760405555
 11
-5.2273012662
 21
-15.8847769577
  0
LINE
  5
3BA
100
AcDbEntity
  8
ASSI
100
AcDbLine
 62
250
  6
CONTINUOUS
 10
-5.6764858367
 20
17.1338399633
 11
-5.6768239065
 21
15.7805646587
  0
LINE
  5
3BB
100
AcDbEntity
  8
ASSI
100
AcDbLine
 62
250
  6
CONTINUOUS
 10
-5.4771605527
 20
-17.0663712587
 11
-5.4768224828
 21
-15.7130959541
  0
LINE
  5
3BC
100
AcDbEntity
  8
ASSI
100
AcDbLine
 62
250
  6
CONTINUOUS
 10
-5.6171938027
 20
17.5991957732
 11
-5.617668529
 21
17.46700525
  0
LINE
  5
3BD
100
AcDbEntity
  8
ASSI
100
AcDbLine
 62
250
  6
CONTINUOUS
 10
-5.5364525866
 20
-17.5317270686
 11
-5.5359778604
 21
-17.3995365454
  0
LINE
  5
3BE
100
AcDbEntity
  8
ASSI
100
AcDbLine
 62
250
  6
CONTINUOUS
 10
-5.8669703148
 20
-17.9021879195
 11
-5.8670009639
 21
-17.9093898479
  0
LINE
  5
3BF
100
AcDbEntity
  8
ASSI
100
AcDbLine
 62
250
  6
CONTINUOUS
 10
-5.2866760745
 20
17.9696566241
 11
-5.2866454255
 21
17.9768585525
  0
LINE
  5
3C0
100
AcDbEntity
  8
ASSI
100
AcDbLine
 62
250
  6
CONTINUOUS
 10
-5.6768239065
 20
15.7805646587
 11
-5.6772566929
 21
15.7091690994
  0
LINE
  5
3C1
100
AcDbEntity
  8
ASSI
100
AcDbLine
 62
250
  6
CONTINUOUS
 10
-5.4768224828
 20
-15.7130959541
 11
-5.4763896964
 21
-15.6417003948
  0
LINE
  5
3C2
100
AcDbEntity
  8
ASSI
100
AcDbLine
 62
250
  6
CONTINUOUS
 10
-5.9263451231
 20
15.9522456624
 11
-5.9264052693
 21
15.9438118089
  0
LINE
  5
3C3
100
AcDbEntity
  8
ASSI
100
AcDbLine
 62
250
  6
CONTINUOUS
 10
-5.2273012662
 20
-15.8847769577
 11
-5.2272411201
 21
-15.8763431043
  0
LINE
  5
3C4
100
AcDbEntity
  8
ASSI
100
AcDbLine
 62
250
  6
CONTINUOUS
 10
-5.8669800759
 20
17.6794093769
 11
-5.8670415714
 21
17.670884925
  0
LINE
  5
3C5
100
AcDbEntity
  8
ASSI
100
AcDbLine
 62
250
  6
CONTINUOUS
 10
-5.2866663134
 20
-17.6119406722
 11
-5.2866048179
 21
-17.6034162204
  0
LINE
  5
3C6
100
AcDbEntity
  8
ASSI
100
AcDbLine
 62
250
  6
CONTINUOUS
 10
-5.617668529
 20
17.46700525
 11
-5.618083304
 21
17.417122729
  0
LINE
  5
3C7
100
AcDbEntity
  8
ASSI
100
AcDbLine
 62
250
  6
CONTINUOUS
 10
-5.5359778604
 20
-17.3995365454
 11
-5.5355630854
 21
-17.3496540244
  0
LINE
  5
3C8
100
AcDbEntity
  8
ASSI
100
AcDbLine
 62
250
  6
CONTINUOUS
 10
-5.8670009639
 20
-17.9093898479
 11
-5.8670677713
 21
-17.9163977448
  0
LINE
  5
3C9
100
AcDbEntity
  8
ASSI
100
AcDbLine
 62
250
  6
CONTINUOUS
 10
-5.2866454255
 20
17.9768585525
 11
-5.286578618
 21
17.9838664494
  0
LINE
  5
3CA
100
AcDbEntity
  8
ASSI
100
AcDbLine
 62
250
  6
CONTINUOUS
 10
-5.6772566929
 20
15.7091690994
 11
-5.677520188
 21
15.6840814949
  0
LINE
  5
3CB
100
AcDbEntity
  8
ASSI
100
AcDbLine
 62
250
  6
CONTINUOUS
 10
-5.4763896964
 20
-15.6417003948
 11
-5.4761262013
 21
-15.6166127903
  0
LINE
  5
3CC
100
AcDbEntity
  8
ASSI
100
AcDbLine
 62
250
  6
CONTINUOUS
 10
-5.9264052693
 20
15.9438118089
 11
-5.9264731207
 21
15.938405622
  0
LINE
  5
3CD
100
AcDbEntity
  8
ASSI
100
AcDbLine
 62
250
  6
CONTINUOUS
 10
-5.2272411201
 20
-15.8763431043
 11
-5.2271732687
 21
-15.8709369174
  0
LWPOLYLINE
  5
3CE
100
AcDbEntity
  8
ASSI
100
AcDbPolyline
 62
250
  6
CONTINUOUS
 90
3
 70
0
 10
-5.8670415714
 20
17.670884925
 10
-5.8671109272
 20
17.6654254923
 10
-5.8671539474
 20
17.6627826449
  0
LINE
  5
3CF
100
AcDbEntity
  8
ASSI
100
AcDbLine
 62
250
  6
CONTINUOUS
 10
-5.2866048179
 20
-17.6034162204
 11
-5.2865354621
 21
-17.5979567876
  0
LINE
  5
3D0
100
AcDbEntity
  8
ASSI
100
AcDbLine
 62
250
  6
CONTINUOUS
 10
-5.618083304
 20
17.417122729
 11
-5.6182696351
 21
17.4033053264
  0
LINE
  5
3D1
100
AcDbEntity
  8
ASSI
100
AcDbLine
 62
250
  6
CONTINUOUS
 10
-5.5355630854
 20
-17.3496540244
 11
-5.5353767542
 21
-17.3358366218
  0
LINE
  5
3D2
100
AcDbEntity
  8
ASSI
100
AcDbLine
 62
250
  6
CONTINUOUS
 10
-5.5363622706
 20
18.094011432
 11
-5.4989309654
 21
20.3926919649
  0
LINE
  5
3D3
100
AcDbEntity
  8
ASSI
100
AcDbLine
 62
250
  6
CONTINUOUS
 10
-5.286578618
 20
17.9838664494
 11
-5.2566908207
 21
19.8198521221
  0
LINE
  5
3D4
100
AcDbEntity
  8
ASSI
100
AcDbLine
 62
250
  6
CONTINUOUS
 10
-5.8670677713
 20
-17.9163977448
 11
-5.8969555687
 21
-19.7523834175
  0
LINE
  5
3D5
100
AcDbEntity
  8
ASSI
100
AcDbLine
 62
250
  6
CONTINUOUS
 10
-5.6172841187
 20
-18.0265427274
 11
-5.6547154239
 21
-20.3252232602
  0
LWPOLYLINE
  5
3D6
100
AcDbEntity
  8
ASSI
100
AcDbPolyline
 62
250
  6
CONTINUOUS
 90
7
 70
0
 10
-5.677520188
 20
15.6840814949
 10
-5.6777077379
 20
15.6718429328
 10
-5.6778044688
 20
15.6671349187
 10
-5.6779022968
 20
15.6633898223
 10
-5.678000927
 20
15.660619869
 10
-5.6781006542
 20
15.658833901
 10
-5.6782014784
 20
15.6580376009
  0
LWPOLYLINE
  5
3D7
100
AcDbEntity
  8
ASSI
100
AcDbPolyline
 62
250
  6
CONTINUOUS
 90
7
 70
0
 10
-5.4761262013
 20
-15.6166127903
 10
-5.4759386514
 20
-15.6043742282
 10
-5.4758419205
 20
-15.5996662141
 10
-5.4757440926
 20
-15.5959211177
 10
-5.4756454624
 20
-15.5931511644
 10
-5.4755457352
 20
-15.5913651964
 10
-5.4754449109
 20
-15.5905688963
  0
LINE
  5
3D8
100
AcDbEntity
  8
ASSI
100
AcDbLine
 62
250
  6
CONTINUOUS
 10
-5.2271732687
 20
-15.8709369174
 11
-5.2270840675
 21
-15.8657804691
  0
LINE
  5
3D9
100
AcDbEntity
  8
ASSI
100
AcDbLine
 62
250
  6
CONTINUOUS
 10
-5.2865354621
 20
-17.5979567876
 11
-5.28644431
 21
-17.5927554236
  0
LWPOLYLINE
  5
3DA
100
AcDbEntity
  8
ASSI
100
AcDbPolyline
 62
250
  6
CONTINUOUS
 90
3
 70
0
 10
-5.6182696351
 20
17.4033053264
 10
-5.6184634444
 20
17.3933043748
 10
-5.6185633706
 20
17.389777783
  0
LWPOLYLINE
  5
3DB
100
AcDbEntity
  8
ASSI
100
AcDbPolyline
 62
250
  6
CONTINUOUS
 90
3
 70
0
 10
-5.5353767542
 20
-17.3358366218
 10
-5.5351829449
 20
-17.3258356701
 10
-5.5350830188
 20
-17.3223090783
  0
LINE
  5
3DC
100
AcDbEntity
  8
ASSI
100
AcDbLine
 62
250
  6
CONTINUOUS
 10
-5.2270840675
 20
-15.8657804691
 11
-5.2269747101
 21
-15.860952277
  0
LINE
  5
3DD
100
AcDbEntity
  8
ASSI
100
AcDbLine
 62
250
  6
CONTINUOUS
 10
-5.28644431
 20
-17.5927554236
 11
-5.2863326046
 21
-17.5878930384
  0
LWPOLYLINE
  5
3DE
100
AcDbEntity
  8
ASSI
100
AcDbPolyline
 62
7
  6
CONTINUOUS
 90
28
 70
0
 10
-5.1712030016
 20
15.8808109007
 10
-5.1716054371
 20
15.8663435241
 10
-5.1728476772
 20
15.8518930308
 10
-5.1749310609
 20
15.8375084521
 10
-5.1778589228
 20
15.8232181247
 10
-5.1816243545
 20
15.8090932216
 10
-5.1861980228
 20
15.795244325
 10
-5.191545136
 20
15.7817489059
 10
-5.1976523819
 20
15.7686167967
 10
-5.2045143896
 20
15.755854776
 10
-5.2121100452
 20
15.7435051977
 10
-5.2204143241
 20
15.7316115543
 10
-5.2294237091
 20
15.7201869956
 10
-5.2391421965
 20
15.7092447686
 10
-5.249517444
 20
15.6988608643
 10
-5.2604514323
 20
15.6891334242
 10
-5.2718687523
 20
15.6801143947
 10
-5.2837556361
 20
15.6718002193
 10
-5.2960972106
 20
15.6641954953
 10
-5.3088494244
 20
15.6573251353
 10
-5.3219701744
 20
15.6512096722
 10
-5.3354519738
 20
15.6458544387
 10
-5.3492832775
 20
15.641272722
 10
-5.3633881688
 20
15.6374981794
 10
-5.3776604946
 20
15.6345590718
 10
-5.3920307787
 20
15.6324624706
 10
-5.4064694183
 20
15.6312055969
 10
-5.4209275226
 20
15.6307874028
  0
LWPOLYLINE
  5
3DF
100
AcDbEntity
  8
ASSI
100
AcDbPolyline
 62
7
  6
CONTINUOUS
 90
28
 70
0
 10
-5.9824433877
 20
-15.8133421961
 10
-5.9820409522
 20
-15.7988748194
 10
-5.9807987121
 20
-15.7844243261
 10
-5.9787153285
 20
-15.7700397475
 10
-5.9757874665
 20
-15.7557494201
 10
-5.9720220349
 20
-15.741624517
 10
-5.9674483666
 20
-15.7277756204
 10
-5.9621012533
 20
-15.7142802013
 10
-5.9559940074
 20
-15.7011480921
 10
-5.9491319998
 20
-15.6883860714
 10
-5.9415363442
 20
-15.6760364931
 10
-5.9332320653
 20
-15.6641428496
 10
-5.9242226802
 20
-15.652718291
 10
-5.9145041929
 20
-15.641776064
 10
-5.9041289453
 20
-15.6313921597
 10
-5.893194957
 20
-15.6216647195
 10
-5.8817776371
 20
-15.6126456901
 10
-5.8698907532
 20
-15.6043315146
 10
-5.8575491787
 20
-15.5967267907
 10
-5.844796965
 20
-15.5898564306
 10
-5.831676215
 20
-15.5837409675
 10
-5.8181944155
 20
-15.5783857341
 10
-5.8043631118
 20
-15.5738040173
 10
-5.7902582206
 20
-15.5700294748
 10
-5.7759858948
 20
-15.5670903672
 10
-5.7616156106
 20
-15.564993766
 10
-5.7471769711
 20
-15.5637368923
 10
-5.7327188668
 20
-15.5633186982
  0
LINE
  5
3E0
100
AcDbEntity
  8
ASSI
100
AcDbLine
 62
250
  6
CONTINUOUS
 10
-5.2269747101
 20
-15.860952277
 11
-5.2268469396
 21
-15.8565220768
  0
LINE
  5
3E1
100
AcDbEntity
  8
ASSI
100
AcDbLine
 62
250
  6
CONTINUOUS
 10
-5.2863326046
 20
-17.5878930384
 11
-5.2862021766
 21
-17.5834417761
  0
LWPOLYLINE
  5
3E2
100
AcDbEntity
  8
ASSI
100
AcDbPolyline
 62
250
  6
CONTINUOUS
 90
14
 70
0
 10
-5.2268469396
 20
-15.8565220768
 10
-5.2267020208
 20
-15.8525337898
 10
-5.2266239011
 20
-15.8507293082
 10
-5.226542032
 20
-15.8490504035
 10
-5.2264572241
 20
-15.8475136501
 10
-5.2263694483
 20
-15.8461204755
 10
-5.2262787336
 20
-15.8448694522
 10
-5.2261859776
 20
-15.8437728716
 10
-5.2260911495
 20
-15.8428322461
 10
-5.22599428
 20
-15.8420460632
 10
-5.2258963593
 20
-15.8414220767
 10
-5.2257977175
 20
-15.8409628711
 10
-5.2256980244
 20
-15.8406658618
 10
-5.22559728
 20
-15.8405310489
  0
LWPOLYLINE
  5
3E3
100
AcDbEntity
  8
ASSI
100
AcDbPolyline
 62
250
  6
CONTINUOUS
 90
11
 70
0
 10
-5.2862021766
 20
-17.5834417761
 10
-5.2860543495
 20
-17.5794468302
 10
-5.2859747162
 20
-17.5776450263
 10
-5.2858912947
 20
-17.5759727468
 10
-5.285804929
 20
-17.5744468015
 10
-5.285715578
 20
-17.5730685995
 10
-5.2856232829
 20
-17.5718367317
 10
-5.2855290119
 20
-17.5707637813
 10
-5.2854330878
 20
-17.5698539424
 10
-5.2853351878
 20
-17.5691030209
 10
-5.285235312
 20
-17.5685110166
  0
LWPOLYLINE
  5
3E4
100
AcDbEntity
  8
ASSI
100
AcDbPolyline
 62
7
  6
CONTINUOUS
 90
31
 70
0
 10
-5.9263335434
 20
-17.2760405555
 10
-5.9257083919
 20
-17.2667841768
 10
-5.9245902176
 20
-17.2575093108
 10
-5.9229692724
 20
-17.2482159577
 10
-5.9208369092
 20
-17.2388831624
 10
-5.9181854224
 20
-17.2295318798
 10
-5.9150079343
 20
-17.2202249751
 10
-5.9112999203
 20
-17.210962145
 10
-5.9070566057
 20
-17.2017436928
 10
-5.9022713533
 20
-17.1926333932
 10
-5.8969429001
 20
-17.1836302632
 10
-5.8910694774
 20
-17.1747352858
 10
-5.8846428264
 20
-17.1660151848
 10
-5.8776650174
 20
-17.1574680224
 10
-5.8701373028
 20
-17.1490957365
 10
-5.8620482609
 20
-17.1409708645
 10
-5.8534035287
 20
-17.1330899713
 10
-5.8442080885
 20
-17.125456492
 10
-5.8344471395
 20
-17.1181532697
 10
-5.8241306316
 20
-17.1111750779
 10
-5.8132690054
 20
-17.1045271431
 10
-5.8018463585
 20
-17.0983079878
 10
-5.7898777307
 20
-17.0925108017
 10
-5.7773828842
 20
-17.0871423951
 10
-5.76435329
 20
-17.0823217207
 10
-5.750811238
 20
-17.0780427516
 10
-5.7367911949
 20
-17.0743115147
 10
-5.7223069286
 20
-17.0712650436
 10
-5.7073918577
 20
-17.0689490162
 10
-5.6921004246
 20
-17.0673177545
 10
-5.6764858367
 20
-17.0663712587
  0
LINE
  5
3E5
100
AcDbEntity
  8
ASSI
100
AcDbLine
 62
7
  6
CONTINUOUS
 10
-6.7124652516
 20
1.3480922954
 11
-6.7407069738
 21
1.3198505731
  0
LINE
  5
3E6
100
AcDbEntity
  8
ASSI
100
AcDbLine
 62
7
  6
CONTINUOUS
 10
1.8927340017
 20
-0.1090272999
 11
1.946190964
 21
-0.0959369982
  0
LINE
  5
3E7
100
AcDbEntity
  8
ASSI
100
AcDbLine
 62
7
  6
CONTINUOUS
 10
-1.8463803911
 20
0.1764960045
 11
-1.8998373534
 21
0.1634057028
  0
LWPOLYLINE
  5
3E8
100
AcDbEntity
  8
ASSI
100
AcDbPolyline
 62
7
  6
CONTINUOUS
 90
25
 70
0
 10
1.6385897455
 20
-0.1090272999
 10
1.6223326215
 20
-0.1094643002
 10
1.6061808173
 20
-0.1107773282
 10
1.5901343331
 20
-0.1129663838
 10
1.5741245227
 20
-0.1160479507
 10
1.5582200323
 20
-0.1200055452
 10
1.5426267999
 20
-0.1247897158
 10
1.5273903848
 20
-0.1303932068
 10
1.5124652277
 20
-0.1368232739
 10
1.4979205892
 20
-0.144052233
 10
1.4837263972
 20
-0.152101165
 10
1.4699127238
 20
-0.1609489891
 10
1.4566390456
 20
-0.170504778
 10
1.4439152145
 20
-0.1807814855
 10
1.4317313787
 20
-0.1917661579
 10
1.4202174594
 20
-0.2033290063
 10
1.4094014288
 20
-0.2154472966
 10
1.3992553148
 20
-0.2281437629
 10
1.3898251219
 20
-0.2413568196
 10
1.3810928228
 20
-0.2551267002
 10
1.3730764448
 20
-0.2694131712
 10
1.3658760747
 20
-0.284033946
 10
1.3595250747
 20
-0.2989282625
 10
1.3539900826
 20
-0.3141568828
 10
1.3492710984
 20
-0.329719807
  0
LWPOLYLINE
  5
3E9
100
AcDbEntity
  8
ASSI
100
AcDbPolyline
 62
7
  6
CONTINUOUS
 90
25
 70
0
 10
-1.5922361349
 20
0.1764960045
 10
-1.5759790108
 20
0.1769330049
 10
-1.5598272066
 20
0.1782460328
 10
-1.5437807224
 20
0.1804350884
 10
-1.5277709121
 20
0.1835166553
 10
-1.5118664216
 20
0.1874742498
 10
-1.4962731893
 20
0.1922584204
 10
-1.4810367742
 20
0.1978619114
 10
-1.4661116171
 20
0.2042919785
 10
-1.4515669786
 20
0.2115209376
 10
-1.4373727866
 20
0.2195698697
 10
-1.4235591131
 20
0.2284176937
 10
-1.410285435
 20
0.2379734826
 10
-1.3975616039
 20
0.2482501901
 10
-1.385377768
 20
0.2592348625
 10
-1.3738638488
 20
0.2707977109
 10
-1.3630478182
 20
0.2829160012
 10
-1.3529017042
 20
0.2956124675
 10
-1.3434715113
 20
0.3088255242
 10
-1.3347392121
 20
0.3225954048
 10
-1.3267228341
 20
0.3368818758
 10
-1.319522464
 20
0.3515026506
 10
-1.313171464
 20
0.3663969671
 10
-1.3076364719
 20
0.3816255874
 10
-1.3029174877
 20
0.3971885116
  0
LINE
  5
3EA
100
AcDbEntity
  8
ASSI
100
AcDbLine
 62
7
  6
CONTINUOUS
 10
9.6662549315
 20
-1.2806092245
 11
9.6916959136
 21
-1.2804940738
  0
LINE
  5
3EB
100
AcDbEntity
  8
ASSI
100
AcDbLine
 62
7
  6
CONTINUOUS
 10
9.6662549315
 20
-1.2806092245
 11
7.5875347484
 21
-1.2806235907
  0
LINE
  5
3EC
100
AcDbEntity
  8
ASSI
100
AcDbLine
 62
7
  6
CONTINUOUS
 10
6.7588188623
 20
-1.2806235907
 11
2.6641923671
 21
-1.2806235907
  0
LINE
  5
3ED
100
AcDbEntity
  8
ASSI
100
AcDbLine
 62
7
  6
CONTINUOUS
 10
-2.6178387564
 20
-1.2806235907
 11
-6.7124652516
 21
-1.2806235907
  0
LINE
  5
3EE
100
AcDbEntity
  8
ASSI
100
AcDbLine
 62
7
  6
CONTINUOUS
 10
-9.8227124934
 20
-1.2422712529
 11
-7.2131221674
 21
-1.2422712529
  0
LINE
  5
3EF
100
AcDbEntity
  8
ASSI
100
AcDbLine
 62
7
  6
CONTINUOUS
 10
-7.040524222
 20
-1.2422712529
 11
-2.6365806452
 21
-1.2422712529
  0
LINE
  5
3F0
100
AcDbEntity
  8
ASSI
100
AcDbLine
 62
7
  6
CONTINUOUS
 10
2.6829342558
 20
-1.2422712529
 11
7.0868778326
 21
-1.2422712529
  0
LINE
  5
3F1
100
AcDbEntity
  8
ASSI
100
AcDbLine
 62
7
  6
CONTINUOUS
 10
7.259475778
 20
-1.2422712529
 11
9.869066104
 21
-1.2422712529
  0
LINE
  5
3F2
100
AcDbEntity
  8
ASSI
100
AcDbLine
 62
7
  6
CONTINUOUS
 10
-1.8463803911
 20
-0.1090272999
 11
-1.5922361349
 21
-0.1090272999
  0
LINE
  5
3F3
100
AcDbEntity
  8
ASSI
100
AcDbLine
 62
7
  6
CONTINUOUS
 10
1.6385897455
 20
-0.1090272999
 11
1.8927340017
 21
-0.1090272999
  0
LINE
  5
3F4
100
AcDbEntity
  8
ASSI
100
AcDbLine
 62
7
  6
CONTINUOUS
 10
-2.2731649247
 20
-0.0959369982
 11
-1.8998373534
 21
-0.0959369982
  0
LINE
  5
3F5
100
AcDbEntity
  8
ASSI
100
AcDbLine
 62
7
  6
CONTINUOUS
 10
1.946190964
 20
-0.0959369982
 11
2.3195185353
 21
-0.0959369982
  0
LINE
  5
3F6
100
AcDbEntity
  8
ASSI
100
AcDbLine
 62
7
  6
CONTINUOUS
 10
9.869066104
 20
-0.0933189378
 11
2.3249093858
 21
-0.0933189378
  0
LINE
  5
3F7
100
AcDbEntity
  8
ASSI
100
AcDbLine
 62
7
  6
CONTINUOUS
 10
-2.2785557752
 20
-0.0933189378
 11
-9.8227124934
 21
-0.0933189378
  0
LINE
  5
3F8
100
AcDbEntity
  8
ASSI
100
AcDbLine
 62
7
  6
CONTINUOUS
 10
10.9731768042
 20
-0.0662656477
 11
9.9231768053
 21
-0.0662656477
  0
LINE
  5
3F9
100
AcDbEntity
  8
ASSI
100
AcDbLine
 62
7
  6
CONTINUOUS
 10
-9.8768231947
 20
-0.0662656477
 11
-10.9268231935
 21
-0.0662656477
  0
LINE
  5
3FA
100
AcDbEntity
  8
ASSI
100
AcDbLine
 62
7
  6
CONTINUOUS
 10
-10.9268231935
 20
0.1337343523
 11
-9.8768231947
 21
0.1337343523
  0
LINE
  5
3FB
100
AcDbEntity
  8
ASSI
100
AcDbLine
 62
7
  6
CONTINUOUS
 10
9.9231768053
 20
0.1337343523
 11
10.9731768042
 21
0.1337343523
  0
LINE
  5
3FC
100
AcDbEntity
  8
ASSI
100
AcDbLine
 62
7
  6
CONTINUOUS
 10
-9.8227124934
 20
0.1607876425
 11
-2.2785557752
 21
0.1607876425
  0
LINE
  5
3FD
100
AcDbEntity
  8
ASSI
100
AcDbLine
 62
7
  6
CONTINUOUS
 10
2.3249093858
 20
0.1607876425
 11
9.869066104
 21
0.1607876425
  0
LINE
  5
3FE
100
AcDbEntity
  8
ASSI
100
AcDbLine
 62
7
  6
CONTINUOUS
 10
2.3195185353
 20
0.1634057028
 11
1.946190964
 21
0.1634057028
  0
LINE
  5
3FF
100
AcDbEntity
  8
ASSI
100
AcDbLine
 62
7
  6
CONTINUOUS
 10
-1.8998373534
 20
0.1634057028
 11
-2.2731649247
 21
0.1634057028
  0
LINE
  5
400
100
AcDbEntity
  8
ASSI
100
AcDbLine
 62
7
  6
CONTINUOUS
 10
1.8927340017
 20
0.1764960045
 11
1.6385897455
 21
0.1764960045
  0
LINE
  5
401
100
AcDbEntity
  8
ASSI
100
AcDbLine
 62
7
  6
CONTINUOUS
 10
-1.5922361349
 20
0.1764960045
 11
-1.8463803911
 21
0.1764960045
  0
LINE
  5
402
100
AcDbEntity
  8
ASSI
100
AcDbLine
 62
7
  6
CONTINUOUS
 10
-9.6326811876
 20
-1.2805660522
 11
-7.5411811377
 21
-1.2806235907
  0
LWPOLYLINE
  5
403
100
AcDbEntity
  8
ASSI
100
AcDbPolyline
 62
7
  6
CONTINUOUS
 90
3
 70
0
 10
-9.6704583412
 20
-1.2802622116
 10
-9.6579596978
 20
-1.2803925457
 10
-9.6326811876
 20
-1.2805660522
  0
LINE
  5
404
100
AcDbEntity
  8
ASSI
100
AcDbLine
 62
7
  6
CONTINUOUS
 10
-1.8998373534
 20
-0.0959369982
 11
-1.8463803911
 21
-0.1090272999
  0
LWPOLYLINE
  5
405
100
AcDbEntity
  8
ASSI
100
AcDbPolyline
 62
250
  6
CONTINUOUS
 90
13
 70
0
 10
-7.4847590565
 20
5.891852966
 10
-7.4844009391
 20
5.8912280338
 10
-7.4840461612
 20
5.8900889545
 10
-7.4836947228
 20
5.8884357281
 10
-7.4833456981
 20
5.8862613552
 10
-7.4830000129
 20
5.8835728352
 10
-7.4826604438
 20
5.8803911663
 10
-7.4823270572
 20
5.8767124422
 10
-7.4819997868
 20
5.8725405693
 10
-7.48168121
 20
5.8679082644
 10
-7.4813714011
 20
5.8628119531
 10
-7.4810702859
 20
5.8572552099
 10
-7.4807802188
 20
5.8512814746
  0
LINE
  5
406
100
AcDbEntity
  8
ASSI
100
AcDbLine
 62
250
  6
CONTINUOUS
 10
-3.8922932485
 20
22.1559731221
 11
-3.8922932485
 21
20.599557511
  0
LINE
  5
407
100
AcDbEntity
  8
ASSI
100
AcDbLine
 62
250
  6
CONTINUOUS
 10
-3.8922932485
 20
-20.5320888063
 11
-3.8922932485
 21
-22.0885044175
  0
LINE
  5
408
100
AcDbEntity
  8
ASSI
100
AcDbLine
 62
250
  6
CONTINUOUS
 10
-3.7190881678
 20
22.1612139
 11
-3.7190881678
 21
20.611835967
  0
LINE
  5
409
100
AcDbEntity
  8
ASSI
100
AcDbLine
 62
250
  6
CONTINUOUS
 10
-3.7190881678
 20
-20.5443672624
 11
-3.7190881678
 21
-22.0937451954
  0
LINE
  5
40A
100
AcDbEntity
  8
ASSI
100
AcDbLine
 62
7
  6
CONTINUOUS
 10
-7.5411811377
 20
-1.2806235907
 11
-7.5129394155
 21
-1.2523818685
  0
LINE
  5
40B
100
AcDbEntity
  8
ASSI
100
AcDbLine
 62
7
  6
CONTINUOUS
 10
-9.8227124934
 20
0.1607876425
 11
-9.8768231947
 21
0.1337343523
  0
LWPOLYLINE
  5
40C
100
AcDbEntity
  8
ASSI
100
AcDbPolyline
 62
7
  6
CONTINUOUS
 90
13
 70
0
 10
-9.7471755978
 20
1.3460900741
 10
-9.7561593399
 20
1.3457605644
 10
-9.7645498181
 20
1.3454099507
 10
-9.7722224391
 20
1.3450441533
 10
-9.7791484107
 20
1.3446642107
 10
-9.7853565253
 20
1.3442690844
 10
-9.7908085659
 20
1.3438615791
 10
-9.7955138259
 20
1.3434400949
 10
-9.7994630121
 20
1.3430062317
 10
-9.8025900273
 20
1.342567594
 10
-9.8048728393
 20
1.3421267165
 10
-9.8063334803
 20
1.3416810644
 10
-9.8069719505
 20
1.3412306379
  0
LINE
  5
40D
100
AcDbEntity
  8
ASSI
100
AcDbLine
 62
7
  6
CONTINUOUS
 10
-9.7273966168
 20
1.3466846572
 11
-9.7471755978
 21
1.3460900741
  0
LINE
  5
40E
100
AcDbEntity
  8
ASSI
100
AcDbLine
 62
7
  6
CONTINUOUS
 10
-9.7057926577
 20
1.3471811253
 11
-9.7273966168
 21
1.3466846572
  0
LINE
  5
40F
100
AcDbEntity
  8
ASSI
100
AcDbLine
 62
7
  6
CONTINUOUS
 10
-9.6826131404
 20
1.347574007
 11
-9.7057926577
 21
1.3471811253
  0
LINE
  5
410
100
AcDbEntity
  8
ASSI
100
AcDbLine
 62
7
  6
CONTINUOUS
 10
-9.6579596978
 20
1.3478612504
 11
-9.6826131404
 21
1.347574007
  0
LINE
  5
411
100
AcDbEntity
  8
ASSI
100
AcDbLine
 62
7
  6
CONTINUOUS
 10
-9.6326811876
 20
1.3480347568
 11
-9.6579596978
 21
1.3478612504
  0
LINE
  5
412
100
AcDbEntity
  8
ASSI
100
AcDbLine
 62
7
  6
CONTINUOUS
 10
9.869066104
 20
1.3097399575
 11
7.259475778
 21
1.3097399575
  0
LINE
  5
413
100
AcDbEntity
  8
ASSI
100
AcDbLine
 62
7
  6
CONTINUOUS
 10
7.0868778326
 20
1.3097399575
 11
2.6829342558
 21
1.3097399575
  0
LINE
  5
414
100
AcDbEntity
  8
ASSI
100
AcDbLine
 62
7
  6
CONTINUOUS
 10
-2.6365806452
 20
1.3097399575
 11
-7.040524222
 21
1.3097399575
  0
LINE
  5
415
100
AcDbEntity
  8
ASSI
100
AcDbLine
 62
7
  6
CONTINUOUS
 10
-7.2131221674
 20
1.3097399575
 11
-9.8227124934
 21
1.3097399575
  0
LINE
  5
416
100
AcDbEntity
  8
ASSI
100
AcDbLine
 62
7
  6
CONTINUOUS
 10
-9.6326811876
 20
1.3480347568
 11
-7.5411811377
 21
1.3480922954
  0
LINE
  5
417
100
AcDbEntity
  8
ASSI
100
AcDbLine
 62
7
  6
CONTINUOUS
 10
-6.7124652516
 20
1.3480922954
 11
-2.6178387564
 21
1.3480922954
  0
LINE
  5
418
100
AcDbEntity
  8
ASSI
100
AcDbLine
 62
7
  6
CONTINUOUS
 10
2.6641923671
 20
1.3480922954
 11
6.7588188623
 21
1.3480922954
  0
LINE
  5
419
100
AcDbEntity
  8
ASSI
100
AcDbLine
 62
7
  6
CONTINUOUS
 10
9.6790347982
 20
1.3480347568
 11
7.5875347484
 21
1.3480922954
  0
LINE
  5
41A
100
AcDbEntity
  8
ASSI
100
AcDbLine
 62
7
  6
CONTINUOUS
 10
9.7043133085
 20
1.3478612504
 11
9.6790347982
 21
1.3480347568
  0
LINE
  5
41B
100
AcDbEntity
  8
ASSI
100
AcDbLine
 62
7
  6
CONTINUOUS
 10
9.728966751
 20
1.347574007
 11
9.7043133085
 21
1.3478612504
  0
LINE
  5
41C
100
AcDbEntity
  8
ASSI
100
AcDbLine
 62
7
  6
CONTINUOUS
 10
9.7521462684
 20
1.3471811253
 11
9.728966751
 21
1.347574007
  0
LINE
  5
41D
100
AcDbEntity
  8
ASSI
100
AcDbLine
 62
7
  6
CONTINUOUS
 10
9.7737502274
 20
1.3466846572
 11
9.7521462684
 21
1.3471811253
  0
LINE
  5
41E
100
AcDbEntity
  8
ASSI
100
AcDbLine
 62
7
  6
CONTINUOUS
 10
1.946190964
 20
0.1634057028
 11
1.8927340017
 21
0.1764960045
  0
LINE
  5
41F
100
AcDbEntity
  8
ASSI
100
AcDbLine
 62
250
  6
CONTINUOUS
 10
-7.5400168187
 20
5.9471107282
 11
-7.4847590565
 21
5.891852966
  0
LINE
  5
420
100
AcDbEntity
  8
ASSI
100
AcDbLine
 62
250
  6
CONTINUOUS
 10
-7.2400722712
 20
6.2468006769
 11
-7.1849423359
 21
6.1916707416
  0
LINE
  5
421
100
AcDbEntity
  8
ASSI
100
AcDbLine
 62
250
  6
CONTINUOUS
 10
-5.4843747631
 20
17.1337343523
 11
-5.5350830188
 21
17.389777783
  0
LWPOLYLINE
  5
422
100
AcDbEntity
  8
ASSI
100
AcDbPolyline
 62
250
  6
CONTINUOUS
 90
10
 70
0
 10
-5.285235312
 20
17.6359797212
 10
-5.2853351878
 20
17.6365717255
 10
-5.2854330878
 20
17.637322647
 10
-5.2855290119
 20
17.6382324859
 10
-5.2856232829
 20
17.6393054363
 10
-5.285715578
 20
17.6405373041
 10
-5.285804929
 20
17.6419155061
 10
-5.2858912947
 20
17.6434414514
 10
-5.2859747163
 20
17.645113731
 10
-5.2860543495
 20
17.6469155348
  0
LWPOLYLINE
  5
423
100
AcDbEntity
  8
ASSI
100
AcDbPolyline
 62
250
  6
CONTINUOUS
 90
5
 70
0
 10
-5.4754449109
 20
15.6580376009
 10
-5.4755457352
 20
15.658833901
 10
-5.4756454624
 20
15.6606198691
 10
-5.4757440926
 20
15.6633898224
 10
-5.4758419205
 20
15.6671349188
  0
LINE
  5
424
100
AcDbEntity
  8
ASSI
100
AcDbLine
 62
7
  6
CONTINUOUS
 10
-3.3683982017
 20
22.193047058
 11
-3.2931047179
 21
20.702429483
  0
LINE
  5
425
100
AcDbEntity
  8
ASSI
100
AcDbLine
 62
7
  6
CONTINUOUS
 10
-3.3683982017
 20
-22.1255783534
 11
-3.2931047179
 21
-20.6349607784
  0
LINE
  5
426
100
AcDbEntity
  8
ASSI
100
AcDbLine
 62
250
  6
CONTINUOUS
 10
-5.5350830188
 20
-17.3223090783
 11
-5.4843747631
 21
-17.0662656477
  0
LINE
  5
427
100
AcDbEntity
  8
ASSI
100
AcDbLine
 62
250
  6
CONTINUOUS
 10
-5.285235312
 20
-17.5685110166
 11
-5.2273128459
 21
-17.2760405555
  0
LWPOLYLINE
  5
428
100
AcDbEntity
  8
ASSI
100
AcDbPolyline
 62
250
  6
CONTINUOUS
 90
25
 70
0
 10
7.2512933328
 20
3.2801809617
 10
7.2706005344
 20
3.2809581085
 10
7.2898276362
 20
3.2826121023
 10
7.308894871
 20
3.2851360812
 10
7.3277231346
 20
3.2885195741
 10
7.3462343142
 20
3.2927485437
 10
7.3643516126
 20
3.2978054455
 10
7.3819998666
 20
3.3036692999
 10
7.399105859
 20
3.3103157795
 10
7.4155986223
 20
3.3177173101
 10
7.431409733
 20
3.325843185
 10
7.4464735956
 20
3.3346596924
 10
7.4607277148
 20
3.3441302554
 10
7.4741129545
 20
3.3542155834
 10
7.4865737835
 20
3.3648738356
 10
7.4980585056
 20
3.376060794
 10
7.5085194741
 20
3.3877300473
 10
7.5179132897
 20
3.3998331835
 10
7.5262009804
 20
3.4123199902
 10
7.5333481629
 20
3.4251386635
 10
7.5393251859
 20
3.4382360227
 10
7.5441072525
 20
3.4515577308
 10
7.5476745234
 20
3.46504852
 10
7.5500121989
 20
3.4786524213
 10
7.5511105809
 20
3.4923129961
  0
LWPOLYLINE
  5
429
100
AcDbEntity
  8
ASSI
100
AcDbPolyline
 62
250
  6
CONTINUOUS
 90
25
 70
0
 10
-7.0487066672
 20
3.2801809617
 10
-7.0293994656
 20
3.2809581085
 10
-7.0101723638
 20
3.2826121023
 10
-6.991105129
 20
3.2851360812
 10
-6.9722768654
 20
3.2885195741
 10
-6.9537656858
 20
3.2927485437
 10
-6.9356483874
 20
3.2978054455
 10
-6.9180001334
 20
3.3036692999
 10
-6.900894141
 20
3.3103157795
 10
-6.8844013777
 20
3.3177173101
 10
-6.868590267
 20
3.325843185
 10
-6.8535264044
 20
3.3346596924
 10
-6.8392722852
 20
3.3441302554
 10
-6.8258870455
 20
3.3542155834
 10
-6.8134262165
 20
3.3648738356
 10
-6.8019414944
 20
3.376060794
 10
-6.7914805259
 20
3.3877300473
 10
-6.7820867103
 20
3.3998331835
 10
-6.7737990196
 20
3.4123199902
 10
-6.7666518371
 20
3.4251386635
 10
-6.7606748141
 20
3.4382360227
 10
-6.7558927475
 20
3.4515577308
 10
-6.7523254766
 20
3.46504852
 10
-6.7499878011
 20
3.4786524213
 10
-6.7488894191
 20
3.4923129961
  0
LWPOLYLINE
  5
42A
100
AcDbEntity
  8
ASSI
100
AcDbPolyline
 62
250
  6
CONTINUOUS
 90
25
 70
0
 10
7.2266006199
 20
3.9872877429
 10
7.2459078337
 20
3.9880648906
 10
7.2651349469
 20
3.9897188863
 10
7.284202192
 20
3.9922428681
 10
7.3030304649
 20
3.9956263645
 10
7.3215416525
 20
3.9998553385
 10
7.3396589575
 20
4.004912245
 10
7.3573072165
 20
4.0107761044
 10
7.3744132125
 20
4.0174225892
 10
7.3909059776
 20
4.0248241249
 10
7.4067170886
 20
4.0329500046
 10
7.4217809499
 20
4.0417665164
 10
7.4360350664
 20
4.0512370832
 10
7.4494203021
 20
4.0613224141
 10
7.461881126
 20
4.0719806682
 10
7.4733658421
 20
4.0831676275
 10
7.4838268039
 20
4.0948368805
 10
7.4932206125
 20
4.106940015
 10
7.5015082959
 20
4.1194268187
 10
7.5086554714
 20
4.1322454875
 10
7.5146324878
 20
4.1453428408
 10
7.5194145487
 20
4.1586645416
 10
7.5229818149
 20
4.1721553222
 10
7.5253194874
 20
4.1857592135
 10
7.526417868
 20
4.1994197773
  0
LWPOLYLINE
  5
42B
100
AcDbEntity
  8
ASSI
100
AcDbPolyline
 62
250
  6
CONTINUOUS
 90
25
 70
0
 10
-7.0733993801
 20
3.9872877429
 10
-7.0540921663
 20
3.9880648906
 10
-7.0348650531
 20
3.9897188863
 10
-7.015797808
 20
3.9922428681
 10
-6.9969695351
 20
3.9956263645
 10
-6.9784583475
 20
3.9998553385
 10
-6.9603410425
 20
4.004912245
 10
-6.9426927835
 20
4.0107761044
 10
-6.9255867875
 20
4.0174225892
 10
-6.9090940224
 20
4.0248241249
 10
-6.8932829114
 20
4.0329500046
 10
-6.8782190501
 20
4.0417665164
 10
-6.8639649336
 20
4.0512370832
 10
-6.8505796979
 20
4.0613224141
 10
-6.838118874
 20
4.0719806682
 10
-6.8266341579
 20
4.0831676275
 10
-6.8161731961
 20
4.0948368805
 10
-6.8067793875
 20
4.106940015
 10
-6.7984917041
 20
4.1194268187
 10
-6.7913445286
 20
4.1322454875
 10
-6.7853675122
 20
4.1453428408
 10
-6.7805854513
 20
4.1586645416
 10
-6.7770181851
 20
4.1721553222
 10
-6.7746805126
 20
4.1857592135
 10
-6.773582132
 20
4.1994197773
  0
LINE
  5
42C
100
AcDbEntity
  8
ASSI
100
AcDbLine
 62
250
  6
CONTINUOUS
 10
-7.5129394155
 20
2.9266275711
 11
-6.7407069738
 21
2.9266275711
  0
LINE
  5
42D
100
AcDbEntity
  8
ASSI
100
AcDbLine
 62
250
  6
CONTINUOUS
 10
6.7870605845
 20
2.9266275711
 11
7.5592930262
 21
2.9266275711
  0
LINE
  5
42E
100
AcDbEntity
  8
ASSI
100
AcDbLine
 62
250
  6
CONTINUOUS
 10
-7.048706924
 20
3.2801883162
 11
-7.2049394652
 21
3.2801883196
  0
LINE
  5
42F
100
AcDbEntity
  8
ASSI
100
AcDbLine
 62
250
  6
CONTINUOUS
 10
7.251293076
 20
3.2801883162
 11
7.0950605348
 21
3.2801883196
  0
LINE
  5
430
100
AcDbEntity
  8
ASSI
100
AcDbLine
 62
250
  6
CONTINUOUS
 10
-7.1802470092
 20
3.9872877429
 11
-7.0733993801
 21
3.9872877429
  0
LINE
  5
431
100
AcDbEntity
  8
ASSI
100
AcDbLine
 62
250
  6
CONTINUOUS
 10
7.1197529908
 20
3.9872877429
 11
7.2266006199
 21
3.9872877429
  0
LWPOLYLINE
  5
432
100
AcDbEntity
  8
ASSI
100
AcDbPolyline
 62
250
  6
CONTINUOUS
 90
25
 70
0
 10
-7.2049397221
 20
3.2801809617
 10
-7.2242468937
 20
3.2809581066
 10
-7.2434739673
 20
3.2826120959
 10
-7.2625411759
 20
3.2851360681
 10
-7.2813694154
 20
3.2885195519
 10
-7.2998805735
 20
3.2927485108
 10
-7.317997854
 20
3.2978054004
 10
-7.3356460938
 20
3.3036692415
 10
-7.3527520758
 20
3.3103157073
 10
-7.3692448329
 20
3.3177172242
 10
-7.3850559417
 20
3.3258430858
 10
-7.4001198062
 20
3.3346595809
 10
-7.4143739313
 20
3.3441301332
 10
-7.4277591807
 20
3.3542154525
 10
-7.4402200223
 20
3.3648736983
 10
-7.4517047599
 20
3.3760606533
 10
-7.462165746
 20
3.3877299067
 10
-7.4715595805
 20
3.3998330464
 10
-7.4798472907
 20
3.4123198606
 10
-7.4869944925
 20
3.4251385454
 10
-7.4929715336
 20
3.4382359202
 10
-7.4977536161
 20
3.4515576481
 10
-7.5013208999
 20
3.4650484612
 10
-7.5036585843
 20
3.4786523901
 10
-7.5047569702
 20
3.4923129961
  0
LWPOLYLINE
  5
433
100
AcDbEntity
  8
ASSI
100
AcDbPolyline
 62
250
  6
CONTINUOUS
 90
25
 70
0
 10
7.0950602779
 20
3.2801809617
 10
7.0757531063
 20
3.2809581066
 10
7.0565260327
 20
3.2826120959
 10
7.0374588241
 20
3.2851360681
 10
7.0186305846
 20
3.2885195519
 10
7.0001194265
 20
3.2927485108
 10
6.982002146
 20
3.2978054004
 10
6.9643539062
 20
3.3036692415
 10
6.9472479242
 20
3.3103157073
 10
6.9307551671
 20
3.3177172242
 10
6.9149440583
 20
3.3258430858
 10
6.8998801938
 20
3.3346595809
 10
6.8856260687
 20
3.3441301332
 10
6.8722408193
 20
3.3542154525
 10
6.8597799777
 20
3.3648736983
 10
6.8482952401
 20
3.3760606533
 10
6.837834254
 20
3.3877299067
 10
6.8284404195
 20
3.3998330464
 10
6.8201527093
 20
3.4123198606
 10
6.8130055075
 20
3.4251385454
 10
6.8070284664
 20
3.4382359202
 10
6.8022463839
 20
3.4515576481
 10
6.7986791001
 20
3.4650484612
 10
6.7963414157
 20
3.4786523901
 10
6.7952430298
 20
3.4923129961
  0
LWPOLYLINE
  5
434
100
AcDbEntity
  8
ASSI
100
AcDbPolyline
 62
250
  6
CONTINUOUS
 90
25
 70
0
 10
-7.1802470092
 20
3.9872877429
 10
-7.1995542108
 20
3.9880648897
 10
-7.2187813127
 20
3.9897188835
 10
-7.2378485475
 20
3.9922428624
 10
-7.256676811
 20
3.9956263552
 10
-7.2751879906
 20
3.9998553249
 10
-7.293305289
 20
4.0049122267
 10
-7.310953543
 20
4.0107760811
 10
-7.3280595355
 20
4.0174225607
 10
-7.3445522988
 20
4.0248240913
 10
-7.3603634095
 20
4.0329499662
 10
-7.3754272721
 20
4.0417664736
 10
-7.3896813912
 20
4.0512370366
 10
-7.403066631
 20
4.0613223646
 10
-7.4155274599
 20
4.0719806168
 10
-7.427012182
 20
4.0831675751
 10
-7.4374731505
 20
4.0948368285
 10
-7.4468669662
 20
4.1069399646
 10
-7.4551546568
 20
4.1194267714
 10
-7.4623018394
 20
4.1322454447
 10
-7.4682788624
 20
4.1453428039
 10
-7.473060929
 20
4.1586645119
 10
-7.4766281998
 20
4.1721553012
 10
-7.4789658754
 20
4.1857592024
 10
-7.4800642573
 20
4.1994197773
  0
LINE
  5
435
100
AcDbEntity
  8
ASSI
100
AcDbLine
 62
250
  6
CONTINUOUS
 10
7.2864258818
 20
-6.1793319723
 11
7.2312959465
 21
-6.124202037
  0
LINE
  5
436
100
AcDbEntity
  8
ASSI
100
AcDbLine
 62
250
  6
CONTINUOUS
 10
7.5863704293
 20
-5.8796420236
 11
7.5311126671
 21
-5.8243842614
  0
LWPOLYLINE
  5
437
100
AcDbEntity
  8
ASSI
100
AcDbPolyline
 62
7
  6
CONTINUOUS
 90
25
 70
0
 10
-1.3029174877
 20
-0.329719807
 10
-1.3076364719
 20
-0.3141568828
 10
-1.313171464
 20
-0.2989282625
 10
-1.319522464
 20
-0.284033946
 10
-1.3267228341
 20
-0.2694131712
 10
-1.3347392121
 20
-0.2551267002
 10
-1.3434715113
 20
-0.2413568196
 10
-1.3529017042
 20
-0.2281437629
 10
-1.3630478182
 20
-0.2154472966
 10
-1.3738638488
 20
-0.2033290063
 10
-1.385377768
 20
-0.1917661579
 10
-1.3975616039
 20
-0.1807814855
 10
-1.410285435
 20
-0.170504778
 10
-1.4235591131
 20
-0.1609489891
 10
-1.4373727866
 20
-0.152101165
 10
-1.4515669786
 20
-0.144052233
 10
-1.4661116171
 20
-0.1368232739
 10
-1.4810367742
 20
-0.1303932068
 10
-1.4962731893
 20
-0.1247897158
 10
-1.5118664216
 20
-0.1200055452
 10
-1.5277709121
 20
-0.1160479507
 10
-1.5437807224
 20
-0.1129663838
 10
-1.5598272066
 20
-0.1107773282
 10
-1.5759790108
 20
-0.1094643002
 10
-1.5922361349
 20
-0.1090272999
  0
LINE
  5
438
100
AcDbEntity
  8
ASSI
100
AcDbLine
 62
7
  6
CONTINUOUS
 10
5.3030444313
 20
-20.5320888063
 11
5.2290637281
 21
-20.2719660114
  0
LINE
  5
439
100
AcDbEntity
  8
ASSI
100
AcDbLine
 62
250
  6
CONTINUOUS
 10
-5.2273128459
 20
17.3435092601
 11
-5.285235312
 21
17.6359797212
  0
LINE
  5
43A
100
AcDbEntity
  8
ASSI
100
AcDbLine
 62
7
  6
CONTINUOUS
 10
5.2290637281
 20
20.339434716
 11
5.3030444313
 21
20.599557511
  0
LINE
  5
43B
100
AcDbEntity
  8
ASSI
100
AcDbLine
 62
7
  6
CONTINUOUS
 10
-5.1827101175
 20
-20.2719660114
 11
-5.2566908207
 21
-20.5320888063
  0
LINE
  5
43C
100
AcDbEntity
  8
ASSI
100
AcDbLine
 62
250
  6
CONTINUOUS
 10
-7.4847590565
 20
-5.8243842614
 11
-7.5400168187
 21
-5.8796420236
  0
LINE
  5
43D
100
AcDbEntity
  8
ASSI
100
AcDbLine
 62
250
  6
CONTINUOUS
 10
-7.1849423359
 20
-6.124202037
 11
-7.2400722712
 21
-6.1793319723
  0
LWPOLYLINE
  5
43E
100
AcDbEntity
  8
ASSI
100
AcDbPolyline
 62
250
  6
CONTINUOUS
 90
25
 70
0
 10
7.1150581916
 20
6.1916702141
 10
7.0954643573
 20
6.1910054112
 10
7.0759542978
 20
6.1890615747
 10
7.0566114289
 20
6.1858470157
 10
7.0375184514
 20
6.1813754782
 10
7.0187569977
 20
6.1756660806
 10
7.0004072833
 20
6.1687432339
 10
6.9825477626
 20
6.1606365371
 10
6.9652547943
 20
6.1513806508
 10
6.948602315
 20
6.1410151492
 10
6.9326615226
 20
6.1295843503
 10
6.917500572
 20
6.1171371272
 10
6.9031842842
 20
6.1037266984
 10
6.8897738684
 20
6.0894104009
 10
6.877326661
 20
6.0742494445
 10
6.8658958799
 20
6.0583086504
 10
6.8555303974
 20
6.041656174
 10
6.8462745308
 20
6.0243632134
 10
6.8381678535
 20
6.0065037052
 10
6.8312450254
 20
5.9881540081
 10
6.8255356446
 20
5.9693925767
 10
6.8210641214
 20
5.9502996257
 10
6.8178495733
 20
5.9309567874
 10
6.8159057439
 20
5.9114467624
 10
6.8152409435
 20
5.891852966
  0
LINE
  5
43F
100
AcDbEntity
  8
ASSI
100
AcDbLine
 62
250
  6
CONTINUOUS
 10
-7.478018646
 20
4.3408411335
 11
-6.7756277433
 21
4.3408411335
  0
LINE
  5
440
100
AcDbEntity
  8
ASSI
100
AcDbLine
 62
250
  6
CONTINUOUS
 10
6.821981354
 20
4.3408411335
 11
7.5243722567
 21
4.3408411335
  0
LINE
  5
441
100
AcDbEntity
  8
ASSI
100
AcDbLine
 62
250
  6
CONTINUOUS
 10
-7.478018646
 20
5.6919748006
 11
-6.7756277433
 21
5.6919748006
  0
LINE
  5
442
100
AcDbEntity
  8
ASSI
100
AcDbLine
 62
250
  6
CONTINUOUS
 10
6.821981354
 20
5.6919748006
 11
7.5243722567
 21
5.6919748006
  0
LWPOLYLINE
  5
443
100
AcDbEntity
  8
ASSI
100
AcDbPolyline
 62
250
  6
CONTINUOUS
 90
25
 70
0
 10
-7.068704581
 20
6.1916702141
 10
-7.0491107631
 20
6.1910054123
 10
-7.0296007189
 20
6.1890615789
 10
-7.010257864
 20
6.1858470248
 10
-6.9911648991
 20
6.1813754939
 10
-6.9724034564
 20
6.1756661042
 10
-6.954053751
 20
6.1687432665
 10
-6.9361942371
 20
6.1606365793
 10
-6.9189012737
 20
6.1513807029
 10
-6.9022487969
 20
6.1410152112
 10
-6.8863080048
 20
6.1295844217
 10
-6.8711470525
 20
6.1171372073
 10
-6.856830761
 20
6.103726786
 10
-6.8434203397
 20
6.0894104945
 10
-6.8309731252
 20
6.0742495422
 10
-6.8195423358
 20
6.0583087501
 10
-6.8091768441
 20
6.0416562733
 10
-6.7999209677
 20
6.0243633098
 10
-6.7918142805
 20
6.006503796
 10
-6.7848914427
 20
5.9881540906
 10
-6.7791820531
 20
5.9693926479
 10
-6.7747105221
 20
5.950299683
 10
-6.771495968
 20
5.9309568281
 10
-6.7695521347
 20
5.9114467839
 10
-6.7688873329
 20
5.891852966
  0
LWPOLYLINE
  5
444
100
AcDbEntity
  8
ASSI
100
AcDbPolyline
 62
250
  6
CONTINUOUS
 90
25
 70
0
 10
7.1197529908
 20
3.9872877429
 10
7.1004457892
 20
3.9880648897
 10
7.0812186873
 20
3.9897188835
 10
7.0621514525
 20
3.9922428624
 10
7.043323189
 20
3.9956263552
 10
7.0248120094
 20
3.9998553249
 10
7.006694711
 20
4.0049122267
 10
6.989046457
 20
4.0107760811
 10
6.9719404645
 20
4.0174225607
 10
6.9554477012
 20
4.0248240913
 10
6.9396365905
 20
4.0329499662
 10
6.9245727279
 20
4.0417664736
 10
6.9103186088
 20
4.0512370366
 10
6.896933369
 20
4.0613223646
 10
6.8844725401
 20
4.0719806168
 10
6.872987818
 20
4.0831675751
 10
6.8625268495
 20
4.0948368285
 10
6.8531330338
 20
4.1069399646
 10
6.8448453432
 20
4.1194267714
 10
6.8376981606
 20
4.1322454447
 10
6.8317211376
 20
4.1453428039
 10
6.826939071
 20
4.1586645119
 10
6.8233718002
 20
4.1721553012
 10
6.8210341246
 20
4.1857592024
 10
6.8199357427
 20
4.1994197773
  0
LINE
  5
445
100
AcDbEntity
  8
ASSI
100
AcDbLine
 62
7
  6
CONTINUOUS
 10
9.869066104
 20
0.1607876425
 11
9.9231768053
 21
0.1337343523
  0
LWPOLYLINE
  5
446
100
AcDbEntity
  8
ASSI
100
AcDbPolyline
 62
7
  6
CONTINUOUS
 90
25
 70
0
 10
1.3492710984
 20
0.3971885116
 10
1.3539900826
 20
0.3816255874
 10
1.3595250747
 20
0.3663969671
 10
1.3658760747
 20
0.3515026506
 10
1.3730764448
 20
0.3368818758
 10
1.3810928228
 20
0.3225954048
 10
1.3898251219
 20
0.3088255242
 10
1.3992553148
 20
0.2956124675
 10
1.4094014288
 20
0.2829160012
 10
1.4202174594
 20
0.2707977109
 10
1.4317313787
 20
0.2592348625
 10
1.4439152145
 20
0.2482501901
 10
1.4566390456
 20
0.2379734826
 10
1.4699127238
 20
0.2284176937
 10
1.4837263972
 20
0.2195698697
 10
1.4979205892
 20
0.2115209376
 10
1.5124652277
 20
0.2042919785
 10
1.5273903848
 20
0.1978619114
 10
1.5426267999
 20
0.1922584204
 10
1.5582200323
 20
0.1874742498
 10
1.5741245227
 20
0.1835166553
 10
1.5901343331
 20
0.1804350884
 10
1.6061808173
 20
0.1782460328
 10
1.6223326215
 20
0.1769330049
 10
1.6385897455
 20
0.1764960045
  0
LINE
  5
447
100
AcDbEntity
  8
ASSI
100
AcDbLine
 62
7
  6
CONTINUOUS
 10
-5.2566908207
 20
20.599557511
 11
-5.1827101175
 21
20.339434716
  0
LINE
  5
448
100
AcDbEntity
  8
ASSI
100
AcDbLine
 62
7
  6
CONTINUOUS
 10
3.4147518123
 20
-22.1255783534
 11
3.3394583285
 21
-20.6349607784
  0
LINE
  5
449
100
AcDbEntity
  8
ASSI
100
AcDbLine
 62
7
  6
CONTINUOUS
 10
3.4147518123
 20
22.193047058
 11
3.3394583285
 21
20.702429483
  0
LINE
  5
44A
100
AcDbEntity
  8
ASSI
100
AcDbLine
 62
250
  6
CONTINUOUS
 10
5.3315889227
 20
17.6359797212
 11
5.2736664566
 21
17.3435092601
  0
LINE
  5
44B
100
AcDbEntity
  8
ASSI
100
AcDbLine
 62
250
  6
CONTINUOUS
 10
5.5814366294
 20
17.389777783
 11
5.5307283737
 21
17.1337343523
  0
LINE
  5
44C
100
AcDbEntity
  8
ASSI
100
AcDbLine
 62
250
  6
CONTINUOUS
 10
7.2312959466
 20
6.1916707417
 11
7.2864258818
 21
6.2468006769
  0
LINE
  5
44D
100
AcDbEntity
  8
ASSI
100
AcDbLine
 62
250
  6
CONTINUOUS
 10
7.5311126671
 20
5.891852966
 11
7.5863704293
 21
5.9471107282
  0
LWPOLYLINE
  5
44E
100
AcDbEntity
  8
ASSI
100
AcDbPolyline
 62
250
  6
CONTINUOUS
 90
25
 70
0
 10
-7.1849418084
 20
6.1916702141
 10
-7.2045356427
 20
6.1910054112
 10
-7.2240457022
 20
6.1890615747
 10
-7.2433885711
 20
6.1858470157
 10
-7.2624815486
 20
6.1813754782
 10
-7.2812430023
 20
6.1756660806
 10
-7.2995927167
 20
6.1687432339
 10
-7.3174522374
 20
6.1606365371
 10
-7.3347452057
 20
6.1513806508
 10
-7.351397685
 20
6.1410151492
 10
-7.3673384774
 20
6.1295843503
 10
-7.382499428
 20
6.1171371272
 10
-7.3968157158
 20
6.1037266984
 10
-7.4102261316
 20
6.0894104009
 10
-7.422673339
 20
6.0742494445
 10
-7.4341041201
 20
6.0583086504
 10
-7.4444696026
 20
6.041656174
 10
-7.4537254692
 20
6.0243632134
 10
-7.4618321465
 20
6.0065037052
 10
-7.4687549746
 20
5.9881540081
 10
-7.4744643554
 20
5.9693925767
 10
-7.4789358786
 20
5.9502996257
 10
-7.4821504267
 20
5.9309567874
 10
-7.4840942561
 20
5.9114467624
 10
-7.4847590565
 20
5.891852966
  0
LINE
  5
44F
100
AcDbEntity
  8
ASSI
100
AcDbLine
 62
250
  6
CONTINUOUS
 10
7.2312959466
 20
6.1916707417
 11
7.1150576641
 21
6.1916707416
  0
LINE
  5
450
100
AcDbEntity
  8
ASSI
100
AcDbLine
 62
250
  6
CONTINUOUS
 10
-7.0687040534
 20
6.1916707417
 11
-7.1849423359
 21
6.1916707416
  0
LINE
  5
451
100
AcDbEntity
  8
ASSI
100
AcDbLine
 62
7
  6
CONTINUOUS
 10
-7.2400722712
 20
6.2468006769
 11
-7.0135741182
 21
6.2468006769
  0
LINE
  5
452
100
AcDbEntity
  8
ASSI
100
AcDbLine
 62
7
  6
CONTINUOUS
 10
7.0599277288
 20
6.2468006769
 11
7.2864258818
 21
6.2468006769
  0
LWPOLYLINE
  5
453
100
AcDbEntity
  8
ASSI
100
AcDbPolyline
 62
7
  6
CONTINUOUS
 90
28
 70
0
 10
-7.0135741182
 20
6.2468006769
 10
-6.996229044
 20
6.2462994643
 10
-6.9789031082
 20
6.2447925032
 10
-6.9616550102
 20
6.242278006
 10
-6.9445184248
 20
6.2387516947
 10
-6.9275788904
 20
6.2342217322
 10
-6.910969673
 20
6.2287234472
 10
-6.8947837638
 20
6.2222985614
 10
-6.8790328118
 20
6.2149628741
 10
-6.8637252284
 20
6.206722885
 10
-6.8489112201
 20
6.1976035038
 10
-6.8346435345
 20
6.1876350042
 10
-6.8209397389
 20
6.17682305
 10
-6.8078165918
 20
6.1651641847
 10
-6.7953636535
 20
6.1527204766
 10
-6.7836967951
 20
6.1396078368
 10
-6.7728784269
 20
6.1259167219
 10
-6.7629041766
 20
6.1116633932
 10
-6.753778144
 20
6.0968630511
 10
-6.7455303291
 20
6.0815674873
 10
-6.7381862931
 20
6.0658275577
 10
-6.7317527736
 20
6.0496514655
 10
-6.7262453649
 20
6.0330495721
 10
-6.721706504
 20
6.016115986
 10
-6.7181725092
 20
5.9989875745
 10
-6.7156512733
 20
5.9817511919
 10
-6.7141377127
 20
5.9644393511
 10
-6.7136295707
 20
5.9471107282
  0
LWPOLYLINE
  5
454
100
AcDbEntity
  8
ASSI
100
AcDbPolyline
 62
7
  6
CONTINUOUS
 90
28
 70
0
 10
7.2864258818
 20
6.2468006769
 10
7.303770956
 20
6.2462994643
 10
7.3210968918
 20
6.2447925032
 10
7.3383449898
 20
6.242278006
 10
7.3554815752
 20
6.2387516947
 10
7.3724211096
 20
6.2342217322
 10
7.389030327
 20
6.2287234472
 10
7.4052162362
 20
6.2222985614
 10
7.4209671882
 20
6.2149628741
 10
7.4362747716
 20
6.206722885
 10
7.4510887799
 20
6.1976035038
 10
7.4653564655
 20
6.1876350042
 10
7.4790602611
 20
6.17682305
 10
7.4921834082
 20
6.1651641847
 10
7.5046363465
 20
6.1527204766
 10
7.5163032049
 20
6.1396078368
 10
7.5271215731
 20
6.1259167219
 10
7.5370958234
 20
6.1116633932
 10
7.546221856
 20
6.0968630511
 10
7.5544696709
 20
6.0815674873
 10
7.5618137069
 20
6.0658275577
 10
7.5682472264
 20
6.0496514655
 10
7.5737546351
 20
6.0330495721
 10
7.578293496
 20
6.016115986
 10
7.5818274908
 20
5.9989875745
 10
7.5843487267
 20
5.9817511919
 10
7.5858622873
 20
5.9644393511
 10
7.5863704293
 20
5.9471107282
  0
LWPOLYLINE
  5
455
100
AcDbEntity
  8
ASSI
100
AcDbPolyline
 62
250
  6
CONTINUOUS
 90
25
 70
0
 10
7.231295419
 20
6.1916702141
 10
7.2508892369
 20
6.1910054123
 10
7.2703992811
 20
6.1890615789
 10
7.289742136
 20
6.1858470248
 10
7.3088351009
 20
6.1813754939
 10
7.3275965436
 20
6.1756661042
 10
7.345946249
 20
6.1687432665
 10
7.3638057629
 20
6.1606365793
 10
7.3810987263
 20
6.1513807029
 10
7.3977512031
 20
6.1410152112
 10
7.4136919952
 20
6.1295844217
 10
7.4288529475
 20
6.1171372073
 10
7.443169239
 20
6.103726786
 10
7.4565796603
 20
6.0894104945
 10
7.4690268748
 20
6.0742495422
 10
7.4804576642
 20
6.0583087501
 10
7.4908231559
 20
6.0416562733
 10
7.5000790323
 20
6.0243633098
 10
7.5081857195
 20
6.006503796
 10
7.5151085573
 20
5.9881540906
 10
7.5208179469
 20
5.9693926479
 10
7.5252894779
 20
5.950299683
 10
7.528504032
 20
5.9309568281
 10
7.5304478653
 20
5.9114467839
 10
7.5311126671
 20
5.891852966
  0
LINE
  5
456
100
AcDbEntity
  8
ASSI
100
AcDbLine
 62
7
  6
CONTINUOUS
 10
7.5592930262
 20
-1.2523818685
 11
7.5875347484
 21
-1.2806235907
  0
LWPOLYLINE
  5
457
100
AcDbEntity
  8
ASSI
100
AcDbPolyline
 62
250
  6
CONTINUOUS
 90
13
 70
0
 10
7.5311126671
 20
-5.8243842614
 10
7.5307545498
 20
-5.8237593292
 10
7.5303997719
 20
-5.8226202499
 10
7.5300483334
 20
-5.8209670235
 10
7.5296993088
 20
-5.8187926506
 10
7.5293536235
 20
-5.8161041306
 10
7.5290140544
 20
-5.8129224616
 10
7.5286806679
 20
-5.8092437376
 10
7.5283533974
 20
-5.8050718647
 10
7.5280348206
 20
-5.8004395597
 10
7.5277250118
 20
-5.7953432485
 10
7.5274238965
 20
-5.7897865052
 10
7.5271338294
 20
-5.78381277
  0
LINE
  5
458
100
AcDbEntity
  8
ASSI
100
AcDbLine
 62
250
  6
CONTINUOUS
 10
5.2736664566
 20
-17.2760405555
 11
5.3315889227
 21
-17.5685110166
  0
LINE
  5
459
100
AcDbEntity
  8
ASSI
100
AcDbLine
 62
250
  6
CONTINUOUS
 10
5.5307283737
 20
-17.0662656477
 11
5.5814366294
 21
-17.3223090783
  0
LWPOLYLINE
  5
45A
100
AcDbEntity
  8
ASSI
100
AcDbPolyline
 62
250
  6
CONTINUOUS
 90
10
 70
0
 10
5.3315889227
 20
-17.5685110166
 10
5.3316887985
 20
-17.5691030209
 10
5.3317866984
 20
-17.5698539424
 10
5.3318826225
 20
-17.5707637813
 10
5.3319768935
 20
-17.5718367317
 10
5.3320691886
 20
-17.5730685995
 10
5.3321585397
 20
-17.5744468015
 10
5.3322449053
 20
-17.5759727468
 10
5.3323283269
 20
-17.5776450263
 10
5.3324079601
 20
-17.5794468302
  0
LWPOLYLINE
  5
45B
100
AcDbEntity
  8
ASSI
100
AcDbPolyline
 62
7
  6
CONTINUOUS
 90
31
 70
0
 10
5.9726871541
 20
-17.2760405555
 10
5.9720608722
 20
-17.2668227716
 10
5.9709429146
 20
-17.2575405079
 10
5.9693228831
 20
-17.2482159577
 10
5.9671907195
 20
-17.2388763458
 10
5.9645387448
 20
-17.2295417244
 10
5.9613615449
 20
-17.2202249751
 10
5.9576537538
 20
-17.210954536
 10
5.9534098968
 20
-17.2017546027
 10
5.9486249639
 20
-17.1926333932
 10
5.9432967522
 20
-17.1836220199
 10
5.9374227262
 20
-17.1747476406
 10
5.930996437
 20
-17.1660151848
 10
5.9240188874
 20
-17.1574591689
 10
5.9164904944
 20
-17.1491100456
 10
5.9084018715
 20
-17.1409708645
 10
5.8997574218
 20
-17.1330803258
 10
5.890561208
 20
-17.1254732612
 10
5.8808007501
 20
-17.1181532697
 10
5.8704845611
 20
-17.1111641901
 10
5.8596220459
 20
-17.1045466131
 10
5.8481999692
 20
-17.0983079878
 10
5.8362317255
 20
-17.0924976865
 10
5.8237358701
 20
-17.0871637236
 10
5.8107069006
 20
-17.0823217207
 10
5.7971653373
 20
-17.0780260651
 10
5.7831442063
 20
-17.0743319755
 10
5.7686605393
 20
-17.0712650436
 10
5.7537476769
 20
-17.0688736072
 10
5.7384567787
 20
-17.0672240785
 10
5.7228394473
 20
-17.0663712587
  0
LINE
  5
45C
100
AcDbEntity
  8
ASSI
100
AcDbLine
 62
250
  6
CONTINUOUS
 10
5.3324079601
 20
-17.5794468302
 11
5.3325557873
 21
-17.5834417761
  0
LINE
  5
45D
100
AcDbEntity
  8
ASSI
100
AcDbLine
 62
250
  6
CONTINUOUS
 10
5.2730556315
 20
-15.8525337898
 11
5.2732005503
 21
-15.8565220768
  0
LINE
  5
45E
100
AcDbEntity
  8
ASSI
100
AcDbLine
 62
250
  6
CONTINUOUS
 10
5.5814366294
 20
-17.3223090783
 11
5.5815365556
 21
-17.3258356701
  0
LINE
  5
45F
100
AcDbEntity
  8
ASSI
100
AcDbLine
 62
250
  6
CONTINUOUS
 10
5.3325557873
 20
-17.5834417761
 11
5.3326862153
 21
-17.5878930384
  0
LINE
  5
460
100
AcDbEntity
  8
ASSI
100
AcDbLine
 62
250
  6
CONTINUOUS
 10
5.2732005503
 20
-15.8565220768
 11
5.2733283207
 21
-15.860952277
  0
LINE
  5
461
100
AcDbEntity
  8
ASSI
100
AcDbLine
 62
250
  6
CONTINUOUS
 10
5.3326862153
 20
-17.5878930384
 11
5.3327979207
 21
-17.5927554236
  0
LINE
  5
462
100
AcDbEntity
  8
ASSI
100
AcDbLine
 62
250
  6
CONTINUOUS
 10
5.2733283207
 20
-15.860952277
 11
5.2734376781
 21
-15.8657804691
  0
LINE
  5
463
100
AcDbEntity
  8
ASSI
100
AcDbLine
 62
250
  6
CONTINUOUS
 10
5.3327979207
 20
-17.5927554236
 11
5.3328890728
 21
-17.5979567876
  0
LWPOLYLINE
  5
464
100
AcDbEntity
  8
ASSI
100
AcDbPolyline
 62
250
  6
CONTINUOUS
 90
3
 70
0
 10
5.2734376781
 20
-15.8657804691
 10
5.2735268793
 20
-15.8709369174
 10
5.2735635454
 20
-15.8736117161
  0
LINE
  5
465
100
AcDbEntity
  8
ASSI
100
AcDbLine
 62
250
  6
CONTINUOUS
 10
3.7654417784
 20
-22.0937451954
 11
3.7654417784
 21
-20.5443672624
  0
LINE
  5
466
100
AcDbEntity
  8
ASSI
100
AcDbLine
 62
250
  6
CONTINUOUS
 10
3.7654417784
 20
20.611835967
 11
3.7654417784
 21
22.1612139
  0
LINE
  5
467
100
AcDbEntity
  8
ASSI
100
AcDbLine
 62
250
  6
CONTINUOUS
 10
3.9386468592
 20
-22.0885044175
 11
3.9386468592
 21
-20.5320888063
  0
LINE
  5
468
100
AcDbEntity
  8
ASSI
100
AcDbLine
 62
250
  6
CONTINUOUS
 10
3.9386468592
 20
20.599557511
 11
3.9386468592
 21
22.1559731221
  0
LINE
  5
469
100
AcDbEntity
  8
ASSI
100
AcDbLine
 62
250
  6
CONTINUOUS
 10
5.2735268793
 20
15.938405622
 11
5.2734376781
 21
15.9332491737
  0
LINE
  5
46A
100
AcDbEntity
  8
ASSI
100
AcDbLine
 62
250
  6
CONTINUOUS
 10
5.3328460526
 20
17.6627826449
 11
5.3327446238
 21
17.6577507703
  0
LINE
  5
46B
100
AcDbEntity
  8
ASSI
100
AcDbLine
 62
250
  6
CONTINUOUS
 10
5.2734376781
 20
15.9332491737
 11
5.2733283207
 21
15.9284209816
  0
LINE
  5
46C
100
AcDbEntity
  8
ASSI
100
AcDbLine
 62
250
  6
CONTINUOUS
 10
5.3327446238
 20
17.6577507703
 11
5.3326232855
 21
17.6530812823
  0
LINE
  5
46D
100
AcDbEntity
  8
ASSI
100
AcDbLine
 62
250
  6
CONTINUOUS
 10
5.2733283207
 20
15.9284209816
 11
5.2732005503
 21
15.9239907814
  0
LWPOLYLINE
  5
46E
100
AcDbEntity
  8
ASSI
100
AcDbPolyline
 62
250
  6
CONTINUOUS
 90
12
 70
0
 10
5.3326232855
 20
17.6530812823
 10
5.3324837679
 20
17.6488482456
 10
5.3324079601
 20
17.6469155348
 10
5.3323283269
 20
17.645113731
 10
5.3322449053
 20
17.6434414514
 10
5.3321585397
 20
17.6419155061
 10
5.3320691886
 20
17.6405373041
 10
5.3319768935
 20
17.6393054363
 10
5.3318826225
 20
17.6382324859
 10
5.3317866984
 20
17.637322647
 10
5.3316887985
 20
17.6365717255
 10
5.3315889227
 20
17.6359797212
  0
LWPOLYLINE
  5
46F
100
AcDbEntity
  8
ASSI
100
AcDbPolyline
 62
250
  6
CONTINUOUS
 90
14
 70
0
 10
5.2732005503
 20
15.9239907814
 10
5.2730556315
 20
15.9200024944
 10
5.2729775117
 20
15.9181980128
 10
5.2728956426
 20
15.9165191081
 10
5.2728108347
 20
15.9149823547
 10
5.2727230589
 20
15.9135891801
 10
5.2726323442
 20
15.9123381569
 10
5.2725395883
 20
15.9112415762
 10
5.2724447601
 20
15.9103009507
 10
5.2723478907
 20
15.9095147678
 10
5.27224997
 20
15.9088907813
 10
5.2721513281
 20
15.9084315757
 10
5.272051635
 20
15.9081345664
 10
5.2719508907
 20
15.9079997535
  0
LWPOLYLINE
  5
470
100
AcDbEntity
  8
ASSI
100
AcDbPolyline
 62
7
  6
CONTINUOUS
 90
31
 70
0
 10
5.9726871541
 20
17.3435092601
 10
5.9720620026
 20
17.3342528814
 10
5.9709438282
 20
17.3249780155
 10
5.9693228831
 20
17.3156846623
 10
5.9671905198
 20
17.306351867
 10
5.9645390331
 20
17.2970005844
 10
5.9613615449
 20
17.2876936797
 10
5.9576535309
 20
17.2784308497
 10
5.9534102163
 20
17.2692123974
 10
5.9486249639
 20
17.2601020978
 10
5.9432965108
 20
17.2510989678
 10
5.9374230881
 20
17.2422039904
 10
5.930996437
 20
17.2334838895
 10
5.9240186281
 20
17.2249367271
 10
5.9164909134
 20
17.2165644411
 10
5.9084018715
 20
17.2084395691
 10
5.8997571393
 20
17.2005586759
 10
5.8905616992
 20
17.1929251966
 10
5.8808007501
 20
17.1856219743
 10
5.8704842423
 20
17.1786437826
 10
5.8596226161
 20
17.1719958478
 10
5.8481999692
 20
17.1657766924
 10
5.8362313414
 20
17.1599795064
 10
5.8237364948
 20
17.1546110997
 10
5.8107069006
 20
17.1497904253
 10
5.7971648486
 20
17.1455114562
 10
5.7831448055
 20
17.1417802193
 10
5.7686605393
 20
17.1387337482
 10
5.7537454684
 20
17.1364177208
 10
5.7384540352
 20
17.1347864591
 10
5.7228394473
 20
17.1338399633
  0
LINE
  5
471
100
AcDbEntity
  8
ASSI
100
AcDbLine
 62
7
  6
CONTINUOUS
 10
9.869066104
 20
-0.0933189378
 11
9.9231768053
 21
-0.0662656477
  0
LWPOLYLINE
  5
472
100
AcDbEntity
  8
ASSI
100
AcDbPolyline
 62
7
  6
CONTINUOUS
 90
14
 70
0
 10
9.8533255611
 20
1.3412306379
 10
9.852687091
 20
1.3416810644
 10
9.8512264499
 20
1.3421267165
 10
9.8489436379
 20
1.342567594
 10
9.8458166227
 20
1.3430062317
 10
9.8418674366
 20
1.3434400949
 10
9.8371621765
 20
1.3438615791
 10
9.8317101359
 20
1.3442690844
 10
9.8255020214
 20
1.3446642107
 10
9.8185760497
 20
1.3450441533
 10
9.8109034287
 20
1.3454099507
 10
9.8025129505
 20
1.3457605644
 10
9.7935292084
 20
1.3460900741
 10
9.7737502274
 20
1.3466846572
  0
LINE
  5
473
100
AcDbEntity
  8
ASSI
100
AcDbLine
 62
7
  6
CONTINUOUS
 10
6.7870605845
 20
1.3198505731
 11
6.7588188623
 21
1.3480922954
  0
LWPOLYLINE
  5
474
100
AcDbEntity
  8
ASSI
100
AcDbPolyline
 62
250
  6
CONTINUOUS
 90
13
 70
0
 10
-5.22559728
 20
15.9079997535
 10
-5.2256980244
 20
15.9081345664
 10
-5.2257977175
 20
15.9084315757
 10
-5.2258963593
 20
15.9088907813
 10
-5.22599428
 20
15.9095147678
 10
-5.2260911495
 20
15.9103009507
 10
-5.2261859776
 20
15.9112415762
 10
-5.2262787336
 20
15.9123381569
 10
-5.2263694483
 20
15.9135891802
 10
-5.2264572241
 20
15.9149823547
 10
-5.226542032
 20
15.9165191081
 10
-5.2266239011
 20
15.9181980129
 10
-5.2267020208
 20
15.9200024945
  0
LWPOLYLINE
  5
475
100
AcDbEntity
  8
ASSI
100
AcDbPolyline
 62
250
  6
CONTINUOUS
 90
5
 70
0
 10
5.5217985216
 20
-15.5905688963
 10
5.5218993458
 20
-15.5913651964
 10
5.521999073
 20
-15.5931511644
 10
5.5220977032
 20
-15.5959211177
 10
5.5221955312
 20
-15.5996662141
  0
LWPOLYLINE
  5
476
100
AcDbEntity
  8
ASSI
100
AcDbPolyline
 62
7
  6
CONTINUOUS
 90
31
 70
0
 10
5.2736664566
 20
17.3435092601
 10
5.2742927384
 20
17.3342914762
 10
5.2754106961
 20
17.3250092125
 10
5.2770307276
 20
17.3156846623
 10
5.2791628912
 20
17.3063450505
 10
5.2818148659
 20
17.2970104291
 10
5.2849920657
 20
17.2876936797
 10
5.2886998568
 20
17.2784232406
 10
5.2929437138
 20
17.2692233073
 10
5.2977286467
 20
17.2601020978
 10
5.3030568584
 20
17.2510907245
 10
5.3089308844
 20
17.2422163452
 10
5.3153571736
 20
17.2334838895
 10
5.3223347233
 20
17.2249278735
 10
5.3298631163
 20
17.2165787503
 10
5.3379517391
 20
17.2084395691
 10
5.3465961888
 20
17.2005490304
 10
5.3557924026
 20
17.1929419659
 10
5.3655528605
 20
17.1856219743
 10
5.3758690495
 20
17.1786328947
 10
5.3867315648
 20
17.1720153177
 10
5.3981536415
 20
17.1657766924
 10
5.4101218852
 20
17.1599663911
 10
5.4226177405
 20
17.1546324282
 10
5.43564671
 20
17.1497904253
 10
5.4491882733
 20
17.1454947697
 10
5.4632094044
 20
17.1418006801
 10
5.4776930714
 20
17.1387337482
 10
5.4926059338
 20
17.1363423118
 10
5.5078968319
 20
17.1346927831
 10
5.5235141633
 20
17.1338399633
  0
LINE
  5
477
100
AcDbEntity
  8
ASSI
100
AcDbLine
 62
250
  6
CONTINUOUS
 10
7.0942367548
 20
-3.1974091756
 11
7.0950606613
 21
-3.2127196115
  0
LINE
  5
478
100
AcDbEntity
  8
ASSI
100
AcDbLine
 62
250
  6
CONTINUOUS
 10
7.0926953675
 20
-3.16457486
 11
7.0942367548
 21
-3.1974091756
  0
LINE
  5
479
100
AcDbEntity
  8
ASSI
100
AcDbLine
 62
250
  6
CONTINUOUS
 10
5.9139456505
 20
17.6469155348
 11
5.9137978234
 21
17.6509104807
  0
LINE
  5
47A
100
AcDbEntity
  8
ASSI
100
AcDbLine
 62
250
  6
CONTINUOUS
 10
7.0950605347
 20
-3.2127196115
 11
7.1197529908
 21
-3.9198190383
  0
LINE
  5
47B
100
AcDbEntity
  8
ASSI
100
AcDbLine
 62
250
  6
CONTINUOUS
 10
5.9732979792
 20
15.9200024945
 11
5.9731530604
 21
15.9239907814
  0
LWPOLYLINE
  5
47C
100
AcDbEntity
  8
ASSI
100
AcDbPolyline
 62
250
  6
CONTINUOUS
 90
3
 70
0
 10
7.0906493513
 20
-3.1100446212
 10
7.0912898996
 20
-3.1288490479
 10
7.0926953675
 20
-3.16457486
  0
LINE
  5
47D
100
AcDbEntity
  8
ASSI
100
AcDbLine
 62
250
  6
CONTINUOUS
 10
6.7936315334
 20
-3.3746543569
 11
6.8203476574
 21
-4.1448252412
  0
LINE
  5
47E
100
AcDbEntity
  8
ASSI
100
AcDbLine
 62
250
  6
CONTINUOUS
 10
5.6649169812
 20
17.389777783
 11
5.6648170551
 21
17.3933043748
  0
LINE
  5
47F
100
AcDbEntity
  8
ASSI
100
AcDbLine
 62
250
  6
CONTINUOUS
 10
5.9137978234
 20
17.6509104807
 11
5.9136673954
 21
17.655361743
  0
LINE
  5
480
100
AcDbEntity
  8
ASSI
100
AcDbLine
 62
250
  6
CONTINUOUS
 10
5.9731530604
 20
15.9239907814
 11
5.9730252899
 21
15.9284209816
  0
LINE
  5
481
100
AcDbEntity
  8
ASSI
100
AcDbLine
 62
250
  6
CONTINUOUS
 10
6.7921583052
 20
-3.3198257677
 11
6.7936315334
 21
-3.3746543569
  0
LINE
  5
482
100
AcDbEntity
  8
ASSI
100
AcDbLine
 62
250
  6
CONTINUOUS
 10
6.8203476574
 20
-4.1448252412
 11
6.8207179211
 21
-4.1586444187
  0
LINE
  5
483
100
AcDbEntity
  8
ASSI
100
AcDbLine
 62
250
  6
CONTINUOUS
 10
6.8204911459
 20
5.8154563254
 11
6.8209028634
 21
5.7987406017
  0
LINE
  5
484
100
AcDbEntity
  8
ASSI
100
AcDbLine
 62
250
  6
CONTINUOUS
 10
5.9136673954
 20
17.655361743
 11
5.91355569
 21
17.6602241282
  0
LINE
  5
485
100
AcDbEntity
  8
ASSI
100
AcDbLine
 62
250
  6
CONTINUOUS
 10
5.9730252899
 20
15.9284209816
 11
5.9729159325
 21
15.9332491738
  0
LINE
  5
486
100
AcDbEntity
  8
ASSI
100
AcDbLine
 62
250
  6
CONTINUOUS
 10
6.7902371588
 20
-3.2296116352
 11
6.7921583052
 21
-3.3198257677
  0
LINE
  5
487
100
AcDbEntity
  8
ASSI
100
AcDbLine
 62
250
  6
CONTINUOUS
 10
6.8207179211
 20
-4.1586444187
 11
6.8211920278
 21
-4.1810146832
  0
LINE
  5
488
100
AcDbEntity
  8
ASSI
100
AcDbLine
 62
250
  6
CONTINUOUS
 10
6.8209028634
 20
5.7987406017
 11
6.8212532712
 21
5.7808855094
  0
LINE
  5
489
100
AcDbEntity
  8
ASSI
100
AcDbLine
 62
250
  6
CONTINUOUS
 10
5.5815365556
 20
-17.3258356701
 11
5.5817303649
 21
-17.3358366218
  0
LINE
  5
48A
100
AcDbEntity
  8
ASSI
100
AcDbLine
 62
250
  6
CONTINUOUS
 10
5.6648170551
 20
17.3933043748
 11
5.6646232458
 21
17.4033053265
  0
LINE
  5
48B
100
AcDbEntity
  8
ASSI
100
AcDbLine
 62
250
  6
CONTINUOUS
 10
5.5221955312
 20
-15.5996662141
 11
5.5223870115
 21
-15.6100293672
  0
LINE
  5
48C
100
AcDbEntity
  8
ASSI
100
AcDbLine
 62
250
  6
CONTINUOUS
 10
5.7241580795
 20
15.6671349188
 11
5.7239665992
 21
15.6774980718
  0
LINE
  5
48D
100
AcDbEntity
  8
ASSI
100
AcDbLine
 62
250
  6
CONTINUOUS
 10
5.7010690346
 20
-20.3252232602
 11
5.6636377294
 21
-18.0265427274
  0
LINE
  5
48E
100
AcDbEntity
  8
ASSI
100
AcDbLine
 62
250
  6
CONTINUOUS
 10
5.5452845761
 20
20.3926919649
 11
5.5827158813
 21
18.094011432
  0
LINE
  5
48F
100
AcDbEntity
  8
ASSI
100
AcDbLine
 62
250
  6
CONTINUOUS
 10
5.91355569
 20
17.6602241282
 11
5.9134645379
 21
17.6654254923
  0
LINE
  5
490
100
AcDbEntity
  8
ASSI
100
AcDbLine
 62
250
  6
CONTINUOUS
 10
5.9729159325
 20
15.9332491738
 11
5.9728267313
 21
15.9384056221
  0
LINE
  5
491
100
AcDbEntity
  8
ASSI
100
AcDbLine
 62
250
  6
CONTINUOUS
 10
6.8211920278
 20
-4.1810146832
 11
6.8215601172
 21
-4.2049685041
  0
LINE
  5
492
100
AcDbEntity
  8
ASSI
100
AcDbLine
 62
250
  6
CONTINUOUS
 10
6.7887378537
 20
-3.1321386307
 11
6.7902371588
 21
-3.2296116352
  0
LINE
  5
493
100
AcDbEntity
  8
ASSI
100
AcDbLine
 62
250
  6
CONTINUOUS
 10
5.3030444313
 20
19.8198521221
 11
5.3329322287
 21
17.983866449
  0
LINE
  5
494
100
AcDbEntity
  8
ASSI
100
AcDbLine
 62
250
  6
CONTINUOUS
 10
5.9433091793
 20
-19.7523834175
 11
5.9134213819
 21
-17.9163977444
  0
LINE
  5
495
100
AcDbEntity
  8
ASSI
100
AcDbLine
 62
250
  6
CONTINUOUS
 10
6.8212532712
 20
5.7808855094
 11
6.8216546637
 21
5.7524272896
  0
LINE
  5
496
100
AcDbEntity
  8
ASSI
100
AcDbLine
 62
250
  6
CONTINUOUS
 10
5.3328890728
 20
-17.5979567876
 11
5.3329584286
 21
-17.6034162204
  0
LINE
  5
497
100
AcDbEntity
  8
ASSI
100
AcDbLine
 62
250
  6
CONTINUOUS
 10
5.9134645379
 20
17.6654254923
 11
5.9133951821
 21
17.670884925
  0
LINE
  5
498
100
AcDbEntity
  8
ASSI
100
AcDbLine
 62
250
  6
CONTINUOUS
 10
5.9728267313
 20
15.9384056221
 11
5.9727588799
 21
15.943811809
  0
LINE
  5
499
100
AcDbEntity
  8
ASSI
100
AcDbLine
 62
250
  6
CONTINUOUS
 10
5.5817303649
 20
-17.3358366218
 11
5.5820059715
 21
-17.3579369946
  0
LINE
  5
49A
100
AcDbEntity
  8
ASSI
100
AcDbLine
 62
250
  6
CONTINUOUS
 10
5.6646232458
 20
17.4033053265
 11
5.6643476391
 21
17.4254056992
  0
LINE
  5
49B
100
AcDbEntity
  8
ASSI
100
AcDbLine
 62
250
  6
CONTINUOUS
 10
5.5223870115
 20
-15.6100293672
 11
5.522658486
 21
-15.6324746207
  0
LINE
  5
49C
100
AcDbEntity
  8
ASSI
100
AcDbLine
 62
250
  6
CONTINUOUS
 10
5.7239665992
 20
15.6774980718
 11
5.7236951246
 21
15.6999433254
  0
LINE
  5
49D
100
AcDbEntity
  8
ASSI
100
AcDbLine
 62
250
  6
CONTINUOUS
 10
6.8215601172
 20
-4.2049685041
 11
6.8218158129
 21
-4.2300913257
  0
LINE
  5
49E
100
AcDbEntity
  8
ASSI
100
AcDbLine
 62
250
  6
CONTINUOUS
 10
6.7877073108
 20
-3.030259506
 11
6.7887378537
 21
-3.1321386307
  0
LINE
  5
49F
100
AcDbEntity
  8
ASSI
100
AcDbLine
 62
250
  6
CONTINUOUS
 10
5.3329322287
 20
17.983866449
 11
5.3329990361
 21
17.9768585519
  0
LINE
  5
4A0
100
AcDbEntity
  8
ASSI
100
AcDbLine
 62
250
  6
CONTINUOUS
 10
5.9134213819
 20
-17.9163977444
 11
5.9133545745
 21
-17.9093898473
  0
LINE
  5
4A1
100
AcDbEntity
  8
ASSI
100
AcDbLine
 62
250
  6
CONTINUOUS
 10
5.2735635454
 20
-15.8736117161
 11
5.2736405655
 21
-15.8819446836
  0
LINE
  5
4A2
100
AcDbEntity
  8
ASSI
100
AcDbLine
 62
250
  6
CONTINUOUS
 10
6.8216546637
 20
5.7524272896
 11
6.8218992619
 21
5.7225497306
  0
LINE
  5
4A3
100
AcDbEntity
  8
ASSI
100
AcDbLine
 62
250
  6
CONTINUOUS
 10
5.3329584286
 20
-17.6034162204
 11
5.3330199241
 21
-17.6119406723
  0
LINE
  5
4A4
100
AcDbEntity
  8
ASSI
100
AcDbLine
 62
250
  6
CONTINUOUS
 10
5.522658486
 20
-15.6324746207
 11
5.5231144562
 21
-15.6994784849
  0
LINE
  5
4A5
100
AcDbEntity
  8
ASSI
100
AcDbLine
 62
250
  6
CONTINUOUS
 10
5.5820059715
 20
-17.3579369946
 11
5.5824710054
 21
-17.4249155617
  0
LINE
  5
4A6
100
AcDbEntity
  8
ASSI
100
AcDbLine
 62
250
  6
CONTINUOUS
 10
5.6643476391
 20
17.4254056992
 11
5.6638826052
 21
17.4923842664
  0
LINE
  5
4A7
100
AcDbEntity
  8
ASSI
100
AcDbLine
 62
250
  6
CONTINUOUS
 10
5.7236951246
 20
15.6999433254
 11
5.7232391544
 21
15.7669471895
  0
LINE
  5
4A8
100
AcDbEntity
  8
ASSI
100
AcDbLine
 62
250
  6
CONTINUOUS
 10
5.9133951821
 20
17.670884925
 11
5.9133336866
 21
17.6794093769
  0
LINE
  5
4A9
100
AcDbEntity
  8
ASSI
100
AcDbLine
 62
250
  6
CONTINUOUS
 10
5.9727588799
 20
15.943811809
 11
5.9726987338
 21
15.9522456624
  0
LINE
  5
4AA
100
AcDbEntity
  8
ASSI
100
AcDbLine
 62
250
  6
CONTINUOUS
 10
6.8218158129
 20
-4.2300913257
 11
6.8219547287
 21
-4.2559297127
  0
LINE
  5
4AB
100
AcDbEntity
  8
ASSI
100
AcDbLine
 62
250
  6
CONTINUOUS
 10
6.7871602168
 20
-2.9272215946
 11
6.7877073108
 21
-3.030259506
  0
LINE
  5
4AC
100
AcDbEntity
  8
ASSI
100
AcDbLine
 62
250
  6
CONTINUOUS
 10
5.3329990361
 20
17.9768585519
 11
5.3330296852
 21
17.9696566239
  0
LINE
  5
4AD
100
AcDbEntity
  8
ASSI
100
AcDbLine
 62
250
  6
CONTINUOUS
 10
5.9133545745
 20
-17.9093898473
 11
5.9133239255
 21
-17.9021879193
  0
LINE
  5
4AE
100
AcDbEntity
  8
ASSI
100
AcDbLine
 62
250
  6
CONTINUOUS
 10
5.2736405655
 20
-15.8819446836
 11
5.2736664566
 21
-15.8905234337
  0
LINE
  5
4AF
100
AcDbEntity
  8
ASSI
100
AcDbLine
 62
250
  6
CONTINUOUS
 10
6.8218992619
 20
5.7225497306
 11
6.821981354
 21
5.6919748006
  0
LINE
  5
4B0
100
AcDbEntity
  8
ASSI
100
AcDbLine
 62
250
  6
CONTINUOUS
 10
5.5824710054
 20
-17.4249155617
 11
5.582876446
 21
-17.6003177521
  0
LINE
  5
4B1
100
AcDbEntity
  8
ASSI
100
AcDbLine
 62
250
  6
CONTINUOUS
 10
5.6638826052
 20
17.4923842664
 11
5.6634771646
 21
17.6677864567
  0
LINE
  5
4B2
100
AcDbEntity
  8
ASSI
100
AcDbLine
 62
250
  6
CONTINUOUS
 10
5.5231144562
 20
-15.6994784849
 11
5.5235141633
 21
-15.8905234337
  0
LINE
  5
4B3
100
AcDbEntity
  8
ASSI
100
AcDbLine
 62
250
  6
CONTINUOUS
 10
5.7232391544
 20
15.7669471895
 11
5.7228394473
 21
15.9579921383
  0
LINE
  5
4B4
100
AcDbEntity
  8
ASSI
100
AcDbLine
 62
250
  6
CONTINUOUS
 10
5.2736664566
 20
-15.8905234337
 11
5.2736664566
 21
-17.2760405555
  0
LINE
  5
4B5
100
AcDbEntity
  8
ASSI
100
AcDbLine
 62
7
  6
CONTINUOUS
 10
5.3030444313
 20
-20.5320888063
 11
5.3030444313
 21
-19.7523834175
  0
LINE
  5
4B6
100
AcDbEntity
  8
ASSI
100
AcDbLine
 62
7
  6
CONTINUOUS
 10
5.3030444313
 20
19.8198521221
 11
5.3030444313
 21
20.599557511
  0
LINE
  5
4B7
100
AcDbEntity
  8
ASSI
100
AcDbLine
 62
250
  6
CONTINUOUS
 10
5.5235141633
 20
-15.8905234337
 11
5.5235141633
 21
-17.0663712587
  0
LINE
  5
4B8
100
AcDbEntity
  8
ASSI
100
AcDbLine
 62
250
  6
CONTINUOUS
 10
5.7228394473
 20
15.9579921383
 11
5.7228394473
 21
17.1338399633
  0
LINE
  5
4B9
100
AcDbEntity
  8
ASSI
100
AcDbLine
 62
7
  6
CONTINUOUS
 10
5.9433091793
 20
20.599557511
 11
5.9433091793
 21
19.8198521221
  0
LINE
  5
4BA
100
AcDbEntity
  8
ASSI
100
AcDbLine
 62
7
  6
CONTINUOUS
 10
5.9433091793
 20
-19.7523834175
 11
5.9433091793
 21
-20.5320888063
  0
LINE
  5
4BB
100
AcDbEntity
  8
ASSI
100
AcDbLine
 62
250
  6
CONTINUOUS
 10
5.9726987338
 20
15.9522456624
 11
5.9726871541
 21
17.3435092601
  0
LINE
  5
4BC
100
AcDbEntity
  8
ASSI
100
AcDbLine
 62
250
  6
CONTINUOUS
 10
6.7870605845
 20
-1.2523818685
 11
6.7871602168
 21
-2.9272215946
  0
LINE
  5
4BD
100
AcDbEntity
  8
ASSI
100
AcDbLine
 62
250
  6
CONTINUOUS
 10
5.3330199241
 20
-17.6119406723
 11
5.3330296852
 21
-17.9021879195
  0
LINE
  5
4BE
100
AcDbEntity
  8
ASSI
100
AcDbLine
 62
250
  6
CONTINUOUS
 10
5.9133336866
 20
17.6794093769
 11
5.9133239255
 21
17.9696566241
  0
LINE
  5
4BF
100
AcDbEntity
  8
ASSI
100
AcDbLine
 62
250
  6
CONTINUOUS
 10
6.8219547287
 20
-4.2559297127
 11
6.8219720462
 21
-5.634775225
  0
LINE
  5
4C0
100
AcDbEntity
  8
ASSI
100
AcDbLine
 62
250
  6
CONTINUOUS
 10
5.5827158813
 20
18.094011432
 11
5.5828061973
 21
17.5991957732
  0
LINE
  5
4C1
100
AcDbEntity
  8
ASSI
100
AcDbLine
 62
250
  6
CONTINUOUS
 10
5.6636377294
 20
-18.0265427274
 11
5.6635474134
 21
-17.5317270686
  0
LINE
  5
4C2
100
AcDbEntity
  8
ASSI
100
AcDbLine
 62
250
  6
CONTINUOUS
 10
5.6634771646
 20
17.6677864567
 11
5.6636377294
 21
18.094011432
  0
LINE
  5
4C3
100
AcDbEntity
  8
ASSI
100
AcDbLine
 62
250
  6
CONTINUOUS
 10
5.582876446
 20
-17.6003177521
 11
5.5827158813
 21
-18.0265427274
  0
LINE
  5
4C4
100
AcDbEntity
  8
ASSI
100
AcDbLine
 62
250
  6
CONTINUOUS
 10
5.2736664566
 20
17.3435092601
 11
5.2736548769
 21
15.9522456624
  0
LINE
  5
4C5
100
AcDbEntity
  8
ASSI
100
AcDbLine
 62
250
  6
CONTINUOUS
 10
5.3330296852
 20
17.9696566239
 11
5.3330199241
 21
17.6794093769
  0
LINE
  5
4C6
100
AcDbEntity
  8
ASSI
100
AcDbLine
 62
250
  6
CONTINUOUS
 10
5.9133239255
 20
-17.9021879193
 11
5.9133336866
 21
-17.6119406722
  0
LINE
  5
4C7
100
AcDbEntity
  8
ASSI
100
AcDbLine
 62
250
  6
CONTINUOUS
 10
5.9726871541
 20
-17.2760405555
 11
5.9726987338
 21
-15.8847769577
  0
LINE
  5
4C8
100
AcDbEntity
  8
ASSI
100
AcDbLine
 62
250
  6
CONTINUOUS
 10
6.7872896425
 20
3.0288633358
 11
6.7870605845
 21
1.3198505731
  0
LINE
  5
4C9
100
AcDbEntity
  8
ASSI
100
AcDbLine
 62
250
  6
CONTINUOUS
 10
6.821981354
 20
5.6919748006
 11
6.8219216647
 21
4.3147488604
  0
LINE
  5
4CA
100
AcDbEntity
  8
ASSI
100
AcDbLine
 62
250
  6
CONTINUOUS
 10
5.5235141633
 20
17.1338399633
 11
5.5231760935
 21
15.7805646587
  0
LINE
  5
4CB
100
AcDbEntity
  8
ASSI
100
AcDbLine
 62
250
  6
CONTINUOUS
 10
5.7228394473
 20
-17.0663712587
 11
5.7231775172
 21
-15.7130959541
  0
LINE
  5
4CC
100
AcDbEntity
  8
ASSI
100
AcDbLine
 62
250
  6
CONTINUOUS
 10
5.5828061973
 20
17.5991957732
 11
5.582331471
 21
17.46700525
  0
LINE
  5
4CD
100
AcDbEntity
  8
ASSI
100
AcDbLine
 62
250
  6
CONTINUOUS
 10
5.6635474134
 20
-17.5317270686
 11
5.6640221396
 21
-17.3995365454
  0
LINE
  5
4CE
100
AcDbEntity
  8
ASSI
100
AcDbLine
 62
250
  6
CONTINUOUS
 10
5.3330296852
 20
-17.9021879195
 11
5.3329990361
 21
-17.9093898479
  0
LINE
  5
4CF
100
AcDbEntity
  8
ASSI
100
AcDbLine
 62
250
  6
CONTINUOUS
 10
5.9133239255
 20
17.9696566241
 11
5.9133545745
 21
17.9768585525
  0
LINE
  5
4D0
100
AcDbEntity
  8
ASSI
100
AcDbLine
 62
250
  6
CONTINUOUS
 10
6.8219720462
 20
-5.634775225
 11
6.8218355739
 21
-5.6651444377
  0
LINE
  5
4D1
100
AcDbEntity
  8
ASSI
100
AcDbLine
 62
250
  6
CONTINUOUS
 10
5.5231760935
 20
15.7805646587
 11
5.5227433071
 21
15.7091690994
  0
LINE
  5
4D2
100
AcDbEntity
  8
ASSI
100
AcDbLine
 62
250
  6
CONTINUOUS
 10
5.7231775172
 20
-15.7130959541
 11
5.7236103036
 21
-15.6417003948
  0
LINE
  5
4D3
100
AcDbEntity
  8
ASSI
100
AcDbLine
 62
250
  6
CONTINUOUS
 10
6.7879963579
 20
3.1319492084
 11
6.7872896425
 21
3.0288633358
  0
LINE
  5
4D4
100
AcDbEntity
  8
ASSI
100
AcDbLine
 62
250
  6
CONTINUOUS
 10
6.8219216647
 20
4.3147488604
 11
6.8217434674
 21
4.2890873949
  0
LINE
  5
4D5
100
AcDbEntity
  8
ASSI
100
AcDbLine
 62
250
  6
CONTINUOUS
 10
5.2736548769
 20
15.9522456624
 11
5.2735947307
 21
15.9438118089
  0
LINE
  5
4D6
100
AcDbEntity
  8
ASSI
100
AcDbLine
 62
250
  6
CONTINUOUS
 10
5.9726987338
 20
-15.8847769577
 11
5.9727588799
 21
-15.8763431043
  0
LINE
  5
4D7
100
AcDbEntity
  8
ASSI
100
AcDbLine
 62
250
  6
CONTINUOUS
 10
5.3330199241
 20
17.6794093769
 11
5.3329584286
 21
17.670884925
  0
LINE
  5
4D8
100
AcDbEntity
  8
ASSI
100
AcDbLine
 62
250
  6
CONTINUOUS
 10
5.9133336866
 20
-17.6119406722
 11
5.9133951821
 21
-17.6034162204
  0
LINE
  5
4D9
100
AcDbEntity
  8
ASSI
100
AcDbLine
 62
250
  6
CONTINUOUS
 10
5.582331471
 20
17.46700525
 11
5.581916696
 21
17.417122729
  0
LINE
  5
4DA
100
AcDbEntity
  8
ASSI
100
AcDbLine
 62
250
  6
CONTINUOUS
 10
5.6640221396
 20
-17.3995365454
 11
5.6644369146
 21
-17.3496540244
  0
LINE
  5
4DB
100
AcDbEntity
  8
ASSI
100
AcDbLine
 62
250
  6
CONTINUOUS
 10
5.3329990361
 20
-17.9093898479
 11
5.3329322287
 21
-17.9163977448
  0
LINE
  5
4DC
100
AcDbEntity
  8
ASSI
100
AcDbLine
 62
250
  6
CONTINUOUS
 10
5.9133545745
 20
17.9768585525
 11
5.913421382
 21
17.9838664494
  0
LINE
  5
4DD
100
AcDbEntity
  8
ASSI
100
AcDbLine
 62
250
  6
CONTINUOUS
 10
6.8218355739
 20
-5.6651444377
 11
6.8215379378
 21
-5.694627327
  0
LINE
  5
4DE
100
AcDbEntity
  8
ASSI
100
AcDbLine
 62
250
  6
CONTINUOUS
 10
5.5227433071
 20
15.7091690994
 11
5.522479812
 21
15.6840814949
  0
LINE
  5
4DF
100
AcDbEntity
  8
ASSI
100
AcDbLine
 62
250
  6
CONTINUOUS
 10
5.7236103036
 20
-15.6417003948
 11
5.7238737987
 21
-15.6166127903
  0
LINE
  5
4E0
100
AcDbEntity
  8
ASSI
100
AcDbLine
 62
250
  6
CONTINUOUS
 10
6.7891861618
 20
3.2327071822
 11
6.7879963579
 21
3.1319492084
  0
LINE
  5
4E1
100
AcDbEntity
  8
ASSI
100
AcDbLine
 62
250
  6
CONTINUOUS
 10
6.8217434674
 20
4.2890873949
 11
6.8214497473
 21
4.2643065446
  0
LINE
  5
4E2
100
AcDbEntity
  8
ASSI
100
AcDbLine
 62
250
  6
CONTINUOUS
 10
5.2735947307
 20
15.9438118089
 11
5.2735268793
 21
15.938405622
  0
LINE
  5
4E3
100
AcDbEntity
  8
ASSI
100
AcDbLine
 62
250
  6
CONTINUOUS
 10
5.9727588799
 20
-15.8763431043
 11
5.9728267313
 21
-15.8709369174
  0
LWPOLYLINE
  5
4E4
100
AcDbEntity
  8
ASSI
100
AcDbPolyline
 62
250
  6
CONTINUOUS
 90
3
 70
0
 10
5.3329584286
 20
17.670884925
 10
5.3328890728
 20
17.6654254923
 10
5.3328460526
 20
17.6627826449
  0
LINE
  5
4E5
100
AcDbEntity
  8
ASSI
100
AcDbLine
 62
250
  6
CONTINUOUS
 10
5.9133951821
 20
-17.6034162204
 11
5.9134645379
 21
-17.5979567876
  0
LINE
  5
4E6
100
AcDbEntity
  8
ASSI
100
AcDbLine
 62
250
  6
CONTINUOUS
 10
5.581916696
 20
17.417122729
 11
5.5817303649
 21
17.4033053264
  0
LINE
  5
4E7
100
AcDbEntity
  8
ASSI
100
AcDbLine
 62
250
  6
CONTINUOUS
 10
5.6644369146
 20
-17.3496540244
 11
5.6646232458
 21
-17.3358366218
  0
LINE
  5
4E8
100
AcDbEntity
  8
ASSI
100
AcDbLine
 62
250
  6
CONTINUOUS
 10
5.6636377294
 20
18.094011432
 11
5.7010690346
 21
20.3926919649
  0
LINE
  5
4E9
100
AcDbEntity
  8
ASSI
100
AcDbLine
 62
250
  6
CONTINUOUS
 10
5.913421382
 20
17.9838664494
 11
5.9433091793
 21
19.8198521221
  0
LINE
  5
4EA
100
AcDbEntity
  8
ASSI
100
AcDbLine
 62
250
  6
CONTINUOUS
 10
5.3329322287
 20
-17.9163977448
 11
5.3030444313
 21
-19.7523834175
  0
LINE
  5
4EB
100
AcDbEntity
  8
ASSI
100
AcDbLine
 62
250
  6
CONTINUOUS
 10
5.5827158813
 20
-18.0265427274
 11
5.5452845761
 21
-20.3252232602
  0
LWPOLYLINE
  5
4EC
100
AcDbEntity
  8
ASSI
100
AcDbPolyline
 62
250
  6
CONTINUOUS
 90
7
 70
0
 10
5.522479812
 20
15.6840814949
 10
5.5222922621
 20
15.6718429328
 10
5.5221955312
 20
15.6671349187
 10
5.5220977032
 20
15.6633898223
 10
5.521999073
 20
15.660619869
 10
5.5218993458
 20
15.658833901
 10
5.5217985216
 20
15.6580376009
  0
LWPOLYLINE
  5
4ED
100
AcDbEntity
  8
ASSI
100
AcDbPolyline
 62
250
  6
CONTINUOUS
 90
7
 70
0
 10
5.7238737987
 20
-15.6166127903
 10
5.7240613486
 20
-15.6043742282
 10
5.7241580795
 20
-15.5996662141
 10
5.7242559074
 20
-15.5959211177
 10
5.7243545376
 20
-15.5931511644
 10
5.7244542648
 20
-15.5913651964
 10
5.7245550891
 20
-15.5905688963
  0
LINE
  5
4EE
100
AcDbEntity
  8
ASSI
100
AcDbLine
 62
250
  6
CONTINUOUS
 10
5.9728267313
 20
-15.8709369174
 11
5.9729159325
 21
-15.8657804691
  0
LINE
  5
4EF
100
AcDbEntity
  8
ASSI
100
AcDbLine
 62
250
  6
CONTINUOUS
 10
5.9134645379
 20
-17.5979567876
 11
5.91355569
 21
-17.5927554236
  0
LINE
  5
4F0
100
AcDbEntity
  8
ASSI
100
AcDbLine
 62
250
  6
CONTINUOUS
 10
6.7908324638
 20
3.3280662202
 11
6.7891861618
 21
3.2327071822
  0
LINE
  5
4F1
100
AcDbEntity
  8
ASSI
100
AcDbLine
 62
250
  6
CONTINUOUS
 10
6.8214497473
 20
4.2643065446
 11
6.8210455349
 21
4.2408352506
  0
LWPOLYLINE
  5
4F2
100
AcDbEntity
  8
ASSI
100
AcDbPolyline
 62
250
  6
CONTINUOUS
 90
3
 70
0
 10
5.5817303649
 20
17.4033053264
 10
5.5815365556
 20
17.3933043748
 10
5.5814366294
 20
17.389777783
  0
LWPOLYLINE
  5
4F3
100
AcDbEntity
  8
ASSI
100
AcDbPolyline
 62
250
  6
CONTINUOUS
 90
3
 70
0
 10
5.6646232458
 20
-17.3358366218
 10
5.6648170551
 20
-17.3258356701
 10
5.6649169812
 20
-17.3223090783
  0
LINE
  5
4F4
100
AcDbEntity
  8
ASSI
100
AcDbLine
 62
250
  6
CONTINUOUS
 10
6.8210455349
 20
4.2408352506
 11
6.8207179211
 21
4.2261131231
  0
LINE
  5
4F5
100
AcDbEntity
  8
ASSI
100
AcDbLine
 62
250
  6
CONTINUOUS
 10
6.7921583052
 20
3.3872944735
 11
6.7908324638
 21
3.3280662202
  0
LINE
  5
4F6
100
AcDbEntity
  8
ASSI
100
AcDbLine
 62
250
  6
CONTINUOUS
 10
5.9729159325
 20
-15.8657804691
 11
5.9730252899
 21
-15.860952277
  0
LINE
  5
4F7
100
AcDbEntity
  8
ASSI
100
AcDbLine
 62
250
  6
CONTINUOUS
 10
5.91355569
 20
-17.5927554236
 11
5.9136673954
 21
-17.5878930384
  0
LWPOLYLINE
  5
4F8
100
AcDbEntity
  8
ASSI
100
AcDbPolyline
 62
7
  6
CONTINUOUS
 90
28
 70
0
 10
6.0287969984
 20
15.8808109007
 10
6.0283945629
 20
15.8663435241
 10
6.0271523228
 20
15.8518930308
 10
6.0250689391
 20
15.8375084521
 10
6.0221410772
 20
15.8232181247
 10
6.0183756455
 20
15.8090932216
 10
6.0138019772
 20
15.795244325
 10
6.008454864
 20
15.7817489059
 10
6.0023476181
 20
15.7686167967
 10
5.9954856104
 20
15.755854776
 10
5.9878899548
 20
15.7435051977
 10
5.9795856759
 20
15.7316115543
 10
5.9705762909
 20
15.7201869956
 10
5.9608578035
 20
15.7092447686
 10
5.950482556
 20
15.6988608643
 10
5.9395485677
 20
15.6891334242
 10
5.9281312477
 20
15.6801143947
 10
5.9162443639
 20
15.6718002193
 10
5.9039027894
 20
15.6641954953
 10
5.8911505756
 20
15.6573251353
 10
5.8780298256
 20
15.6512096722
 10
5.8645480262
 20
15.6458544387
 10
5.8507167225
 20
15.641272722
 10
5.8366118312
 20
15.6374981794
 10
5.8223395054
 20
15.6345590718
 10
5.8079692213
 20
15.6324624706
 10
5.7935305817
 20
15.6312055969
 10
5.7790724774
 20
15.6307874028
  0
LWPOLYLINE
  5
4F9
100
AcDbEntity
  8
ASSI
100
AcDbPolyline
 62
7
  6
CONTINUOUS
 90
28
 70
0
 10
5.2175566123
 20
-15.8133421961
 10
5.2179590478
 20
-15.7988748194
 10
5.2192012879
 20
-15.7844243261
 10
5.2212846715
 20
-15.7700397475
 10
5.2242125335
 20
-15.7557494201
 10
5.2279779651
 20
-15.741624517
 10
5.2325516334
 20
-15.7277756204
 10
5.2378987467
 20
-15.7142802013
 10
5.2440059926
 20
-15.7011480921
 10
5.2508680002
 20
-15.6883860714
 10
5.2584636558
 20
-15.6760364931
 10
5.2667679347
 20
-15.6641428496
 10
5.2757773198
 20
-15.652718291
 10
5.2854958071
 20
-15.641776064
 10
5.2958710547
 20
-15.6313921597
 10
5.306805043
 20
-15.6216647195
 10
5.3182223629
 20
-15.6126456901
 10
5.3301092468
 20
-15.6043315146
 10
5.3424508213
 20
-15.5967267907
 10
5.355203035
 20
-15.5898564306
 10
5.368323785
 20
-15.5837409675
 10
5.3818055845
 20
-15.5783857341
 10
5.3956368882
 20
-15.5738040173
 10
5.4097417794
 20
-15.5700294748
 10
5.4240141052
 20
-15.5670903672
 10
5.4383843894
 20
-15.564993766
 10
5.4528230289
 20
-15.5637368923
 10
5.4672811332
 20
-15.5633186982
  0
LINE
  5
4FA
100
AcDbEntity
  8
ASSI
100
AcDbLine
 62
250
  6
CONTINUOUS
 10
6.7936315334
 20
3.4421230636
 11
6.7921583052
 21
3.3872944735
  0
LINE
  5
4FB
100
AcDbEntity
  8
ASSI
100
AcDbLine
 62
250
  6
CONTINUOUS
 10
6.8207179211
 20
4.2261131231
 11
6.8203476574
 21
4.2122939457
  0
LWPOLYLINE
  5
4FC
100
AcDbEntity
  8
ASSI
100
AcDbPolyline
 62
7
  6
CONTINUOUS
 90
28
 70
0
 10
6.7599831813
 20
5.9471107282
 10
6.7604913233
 20
5.9644393511
 10
6.7620048839
 20
5.9817511919
 10
6.7645261198
 20
5.9989875745
 10
6.7680601146
 20
6.016115986
 10
6.7725989756
 20
6.0330495721
 10
6.7781063842
 20
6.0496514655
 10
6.7845399037
 20
6.0658275577
 10
6.7918839398
 20
6.0815674873
 10
6.8001317546
 20
6.0968630511
 10
6.8092577873
 20
6.1116633932
 10
6.8192320376
 20
6.1259167219
 10
6.8300504058
 20
6.1396078368
 10
6.8417172641
 20
6.1527204766
 10
6.8541702025
 20
6.1651641847
 10
6.8672933496
 20
6.17682305
 10
6.8809971451
 20
6.1876350042
 10
6.8952648308
 20
6.1976035038
 10
6.910078839
 20
6.206722885
 10
6.9253864225
 20
6.2149628741
 10
6.9411373744
 20
6.2222985614
 10
6.9573232836
 20
6.2287234472
 10
6.973932501
 20
6.2342217322
 10
6.9908720354
 20
6.2387516947
 10
7.0080086209
 20
6.242278006
 10
7.0252567189
 20
6.2447925032
 10
7.0425826547
 20
6.2462994643
 10
7.0599277288
 20
6.2468006769
  0
LINE
  5
4FD
100
AcDbEntity
  8
ASSI
100
AcDbLine
 62
250
  6
CONTINUOUS
 10
5.9730252899
 20
-15.860952277
 11
5.9731530604
 21
-15.8565220768
  0
LINE
  5
4FE
100
AcDbEntity
  8
ASSI
100
AcDbLine
 62
250
  6
CONTINUOUS
 10
5.9136673954
 20
-17.5878930384
 11
5.9137978234
 21
-17.5834417761
  0
LINE
  5
4FF
100
AcDbEntity
  8
ASSI
100
AcDbLine
 62
250
  6
CONTINUOUS
 10
6.7952430298
 20
3.4923129961
 11
6.7936315334
 21
3.4421230636
  0
LINE
  5
500
100
AcDbEntity
  8
ASSI
100
AcDbLine
 62
250
  6
CONTINUOUS
 10
6.8203476574
 20
4.2122939457
 11
6.7952430298
 21
3.4923129961
  0
LWPOLYLINE
  5
501
100
AcDbEntity
  8
ASSI
100
AcDbPolyline
 62
250
  6
CONTINUOUS
 90
14
 70
0
 10
5.9731530604
 20
-15.8565220768
 10
5.9732979792
 20
-15.8525337898
 10
5.9733760989
 20
-15.8507293082
 10
5.973457968
 20
-15.8490504035
 10
5.9735427759
 20
-15.8475136501
 10
5.9736305517
 20
-15.8461204755
 10
5.9737212664
 20
-15.8448694522
 10
5.9738140224
 20
-15.8437728716
 10
5.9739088505
 20
-15.8428322461
 10
5.97400572
 20
-15.8420460632
 10
5.9741036407
 20
-15.8414220767
 10
5.9742022825
 20
-15.8409628711
 10
5.9743019756
 20
-15.8406658618
 10
5.97440272
 20
-15.8405310489
  0
LWPOLYLINE
  5
502
100
AcDbEntity
  8
ASSI
100
AcDbPolyline
 62
250
  6
CONTINUOUS
 90
11
 70
0
 10
5.9137978234
 20
-17.5834417761
 10
5.9139456505
 20
-17.5794468302
 10
5.9140252838
 20
-17.5776450263
 10
5.9141087053
 20
-17.5759727468
 10
5.914195071
 20
-17.5744468015
 10
5.914284422
 20
-17.5730685995
 10
5.9143767171
 20
-17.5718367317
 10
5.9144709881
 20
-17.5707637813
 10
5.9145669122
 20
-17.5698539424
 10
5.9146648122
 20
-17.5691030209
 10
5.914764688
 20
-17.5685110166
  0
LINE
  5
503
100
AcDbEntity
  8
ASSI
100
AcDbLine
 62
7
  6
CONTINUOUS
 10
7.5875347484
 20
1.3480922954
 11
7.5592930262
 21
1.3198505731
  0
LINE
  5
504
100
AcDbEntity
  8
ASSI
100
AcDbLine
 62
7
  6
CONTINUOUS
 10
6.7588188623
 20
-1.2806235907
 11
6.7870605845
 21
-1.2523818685
  0
LINE
  5
505
100
AcDbEntity
  8
ASSI
100
AcDbLine
 62
7
  6
CONTINUOUS
 10
9.9062999063
 20
10.3337343523
 11
9.5231768053
 21
10.3337343523
  0
LINE
  5
506
100
AcDbEntity
  8
ASSI
100
AcDbLine
 62
7
  6
CONTINUOUS
 10
-9.4768231947
 20
10.3337343523
 11
-9.8599462956
 21
10.3337343523
  0
LINE
  5
507
100
AcDbEntity
  8
ASSI
100
AcDbLine
 62
250
  6
CONTINUOUS
 10
6.7599831813
 20
5.9471107282
 11
6.8152409435
 21
5.891852966
  0
LWPOLYLINE
  5
508
100
AcDbEntity
  8
ASSI
100
AcDbPolyline
 62
250
  6
CONTINUOUS
 90
8
 70
0
 10
7.2312956286
 20
-6.1242020368
 10
7.230937218
 20
-6.1226551607
 10
7.2305822432
 20
-6.1198028828
 10
7.2302307041
 20
-6.1156526062
 10
7.2298817194
 20
-6.1102151583
 10
7.2295361705
 20
-6.1035047064
 10
7.2291967013
 20
-6.0955386772
 10
7.2288633158
 20
-6.0863376687
  0
LINE
  5
509
100
AcDbEntity
  8
ASSI
100
AcDbLine
 62
250
  6
CONTINUOUS
 10
9.7120134792
 20
-20.6349607784
 11
9.6604101084
 21
-20.2719660114
  0
LINE
  5
50A
100
AcDbEntity
  8
ASSI
100
AcDbLine
 62
250
  6
CONTINUOUS
 10
9.9119222971
 20
-20.4360244161
 11
9.8603796482
 21
-20.0734567869
  0
LINE
  5
50B
100
AcDbEntity
  8
ASSI
100
AcDbLine
 62
250
  6
CONTINUOUS
 10
7.2521168559
 20
3.2648778802
 11
7.2512929493
 21
3.2801883161
  0
LINE
  5
50C
100
AcDbEntity
  8
ASSI
100
AcDbLine
 62
250
  6
CONTINUOUS
 10
7.2536582431
 20
3.2320435646
 11
7.2521168559
 21
3.2648778802
  0
LINE
  5
50D
100
AcDbEntity
  8
ASSI
100
AcDbLine
 62
250
  6
CONTINUOUS
 10
6.8192197812
 20
5.8512814746
 11
6.8197666034
 21
5.8380763404
  0
LINE
  5
50E
100
AcDbEntity
  8
ASSI
100
AcDbLine
 62
250
  6
CONTINUOUS
 10
7.5271338294
 20
-5.78381277
 11
7.5265870072
 21
-5.7706076358
  0
LINE
  5
50F
100
AcDbEntity
  8
ASSI
100
AcDbLine
 62
250
  6
CONTINUOUS
 10
7.255063711
 20
3.1963177525
 11
7.2536582431
 21
3.2320435646
  0
LINE
  5
510
100
AcDbEntity
  8
ASSI
100
AcDbLine
 62
250
  6
CONTINUOUS
 10
7.251293076
 20
3.2801883162
 11
7.2266006199
 21
3.9872877429
  0
LWPOLYLINE
  5
511
100
AcDbEntity
  8
ASSI
100
AcDbPolyline
 62
250
  6
CONTINUOUS
 90
3
 70
0
 10
6.8197666034
 20
5.8380763404
 10
6.8202628182
 20
5.8233608014
 10
6.8204911459
 20
5.8154563254
  0
LINE
  5
512
100
AcDbEntity
  8
ASSI
100
AcDbLine
 62
250
  6
CONTINUOUS
 10
7.5265870072
 20
-5.7706076358
 11
7.5260907925
 21
-5.7558920967
  0
LINE
  5
513
100
AcDbEntity
  8
ASSI
100
AcDbLine
 62
250
  6
CONTINUOUS
 10
7.2562994556
 20
3.1581441402
 11
7.255063711
 21
3.1963177525
  0
LINE
  5
514
100
AcDbEntity
  8
ASSI
100
AcDbLine
 62
250
  6
CONTINUOUS
 10
7.5527220772
 20
3.4421230616
 11
7.5260059532
 21
4.2122939458
  0
LINE
  5
515
100
AcDbEntity
  8
ASSI
100
AcDbLine
 62
250
  6
CONTINUOUS
 10
7.0895034068
 20
-3.0707740318
 11
7.0906493513
 21
-3.1100446212
  0
LINE
  5
516
100
AcDbEntity
  8
ASSI
100
AcDbLine
 62
250
  6
CONTINUOUS
 10
7.2288633158
 20
-6.0863376687
 11
7.2282174158
 21
-6.0643308391
  0
LINE
  5
517
100
AcDbEntity
  8
ASSI
100
AcDbLine
 62
250
  6
CONTINUOUS
 10
7.1174902948
 20
6.1538063734
 11
7.1181361949
 21
6.1317995437
  0
LINE
  5
518
100
AcDbEntity
  8
ASSI
100
AcDbLine
 62
250
  6
CONTINUOUS
 10
7.5260907925
 20
-5.7558920967
 11
7.5256490767
 21
-5.7397816509
  0
LINE
  5
519
100
AcDbEntity
  8
ASSI
100
AcDbLine
 62
250
  6
CONTINUOUS
 10
7.5541953054
 20
3.3872944723
 11
7.5527220772
 21
3.4421230616
  0
LINE
  5
51A
100
AcDbEntity
  8
ASSI
100
AcDbLine
 62
250
  6
CONTINUOUS
 10
7.5260059532
 20
4.2122939458
 11
7.5256356896
 21
4.2261131233
  0
LINE
  5
51B
100
AcDbEntity
  8
ASSI
100
AcDbLine
 62
250
  6
CONTINUOUS
 10
7.257350244
 20
3.1179251759
 11
7.2562994556
 21
3.1581441402
  0
LINE
  5
51C
100
AcDbEntity
  8
ASSI
100
AcDbLine
 62
250
  6
CONTINUOUS
 10
7.0885551394
 20
-3.0297627992
 11
7.0895034068
 21
-3.0707740318
  0
LINE
  5
51D
100
AcDbEntity
  8
ASSI
100
AcDbLine
 62
250
  6
CONTINUOUS
 10
7.2282174158
 20
-6.0643308391
 11
7.2276065627
 21
-6.0377167667
  0
LINE
  5
51E
100
AcDbEntity
  8
ASSI
100
AcDbLine
 62
250
  6
CONTINUOUS
 10
7.1181361949
 20
6.1317995437
 11
7.1187470479
 21
6.1051854714
  0
LINE
  5
51F
100
AcDbEntity
  8
ASSI
100
AcDbLine
 62
250
  6
CONTINUOUS
 10
7.5256490767
 20
-5.7397816509
 11
7.5252673575
 21
-5.7224606495
  0
LINE
  5
520
100
AcDbEntity
  8
ASSI
100
AcDbLine
 62
250
  6
CONTINUOUS
 10
7.5561164519
 20
3.2970803398
 11
7.5541953054
 21
3.3872944723
  0
LINE
  5
521
100
AcDbEntity
  8
ASSI
100
AcDbLine
 62
250
  6
CONTINUOUS
 10
7.5256356896
 20
4.2261131233
 11
7.5251615829
 21
4.2484833878
  0
LINE
  5
522
100
AcDbEntity
  8
ASSI
100
AcDbLine
 62
250
  6
CONTINUOUS
 10
7.2581959903
 20
3.0762026357
 11
7.257350244
 21
3.1179251759
  0
LINE
  5
523
100
AcDbEntity
  8
ASSI
100
AcDbLine
 62
250
  6
CONTINUOUS
 10
7.0878137546
 20
-2.9874973498
 11
7.0885551394
 21
-3.0297627992
  0
LINE
  5
524
100
AcDbEntity
  8
ASSI
100
AcDbLine
 62
250
  6
CONTINUOUS
 10
7.2276065627
 20
-6.0377167667
 11
7.2267697569
 21
-5.9897781798
  0
LINE
  5
525
100
AcDbEntity
  8
ASSI
100
AcDbLine
 62
250
  6
CONTINUOUS
 10
7.1187470479
 20
6.1051854714
 11
7.1195838537
 21
6.0572468844
  0
LINE
  5
526
100
AcDbEntity
  8
ASSI
100
AcDbLine
 62
250
  6
CONTINUOUS
 10
7.5252673575
 20
-5.7224606495
 11
7.5248156728
 21
-5.6946273268
  0
LINE
  5
527
100
AcDbEntity
  8
ASSI
100
AcDbLine
 62
250
  6
CONTINUOUS
 10
7.5251615829
 20
4.2484833878
 11
7.5247934934
 21
4.2724372087
  0
LINE
  5
528
100
AcDbEntity
  8
ASSI
100
AcDbLine
 62
250
  6
CONTINUOUS
 10
7.2588288871
 20
3.0335671368
 11
7.2581959903
 21
3.0762026357
  0
LINE
  5
529
100
AcDbEntity
  8
ASSI
100
AcDbLine
 62
250
  6
CONTINUOUS
 10
7.5576157569
 20
3.1996073354
 11
7.5561164519
 21
3.2970803398
  0
LINE
  5
52A
100
AcDbEntity
  8
ASSI
100
AcDbLine
 62
250
  6
CONTINUOUS
 10
7.0872893458
 20
-2.9445809484
 11
7.0878137546
 21
-2.9874973498
  0
LINE
  5
52B
100
AcDbEntity
  8
ASSI
100
AcDbLine
 62
250
  6
CONTINUOUS
 10
7.2267697569
 20
-5.9897781798
 11
7.2258318842
 21
-5.9127062564
  0
LINE
  5
52C
100
AcDbEntity
  8
ASSI
100
AcDbLine
 62
250
  6
CONTINUOUS
 10
7.1195838537
 20
6.0572468844
 11
7.1205217265
 21
5.980174961
  0
LINE
  5
52D
100
AcDbEntity
  8
ASSI
100
AcDbLine
 62
250
  6
CONTINUOUS
 10
7.1197529908
 20
-3.9198190383
 11
7.1207047907
 21
-4.0047171806
  0
LINE
  5
52E
100
AcDbEntity
  8
ASSI
100
AcDbLine
 62
250
  6
CONTINUOUS
 10
7.2266006199
 20
3.9872877429
 11
7.2256488199
 21
4.0721858852
  0
LINE
  5
52F
100
AcDbEntity
  8
ASSI
100
AcDbLine
 62
250
  6
CONTINUOUS
 10
7.5247934934
 20
4.2724372087
 11
7.5245377977
 21
4.2975600303
  0
LINE
  5
530
100
AcDbEntity
  8
ASSI
100
AcDbLine
 62
250
  6
CONTINUOUS
 10
7.2592465869
 20
2.9905438671
 11
7.2588288871
 21
3.0335671368
  0
LINE
  5
531
100
AcDbEntity
  8
ASSI
100
AcDbLine
 62
250
  6
CONTINUOUS
 10
7.5586462999
 20
3.0977282106
 11
7.5576157569
 21
3.1996073354
  0
LINE
  5
532
100
AcDbEntity
  8
ASSI
100
AcDbLine
 62
250
  6
CONTINUOUS
 10
7.5248156728
 20
-5.6946273268
 11
7.5245180368
 21
-5.6651444376
  0
LINE
  5
533
100
AcDbEntity
  8
ASSI
100
AcDbLine
 62
250
  6
CONTINUOUS
 10
7.086977558
 20
-2.9016542284
 11
7.0872893458
 21
-2.9445809484
  0
LINE
  5
534
100
AcDbEntity
  8
ASSI
100
AcDbLine
 62
250
  6
CONTINUOUS
 10
7.1205217265
 20
5.980174961
 11
7.1213551206
 21
5.8673252623
  0
LINE
  5
535
100
AcDbEntity
  8
ASSI
100
AcDbLine
 62
250
  6
CONTINUOUS
 10
7.2258318842
 20
-5.9127062564
 11
7.22499849
 21
-5.7998565576
  0
LINE
  5
536
100
AcDbEntity
  8
ASSI
100
AcDbLine
 62
250
  6
CONTINUOUS
 10
7.1207047907
 20
-4.0047171806
 11
7.1214754423
 21
-4.1230283482
  0
LINE
  5
537
100
AcDbEntity
  8
ASSI
100
AcDbLine
 62
250
  6
CONTINUOUS
 10
7.2256488199
 20
4.0721858852
 11
7.2248781684
 21
4.1904970528
  0
LINE
  5
538
100
AcDbEntity
  8
ASSI
100
AcDbLine
 62
250
  6
CONTINUOUS
 10
7.5245377977
 20
4.2975600303
 11
7.524398882
 21
4.3233984173
  0
LINE
  5
539
100
AcDbEntity
  8
ASSI
100
AcDbLine
 62
250
  6
CONTINUOUS
 10
7.5591933939
 20
2.9946902992
 11
7.5586462999
 21
3.0977282106
  0
LINE
  5
53A
100
AcDbEntity
  8
ASSI
100
AcDbLine
 62
250
  6
CONTINUOUS
 10
7.2594524628
 20
2.9478003841
 11
7.2592465869
 21
2.9905438671
  0
LINE
  5
53B
100
AcDbEntity
  8
ASSI
100
AcDbLine
 62
250
  6
CONTINUOUS
 10
7.5245180368
 20
-5.6651444376
 11
7.5243815644
 21
-5.634775225
  0
LINE
  5
53C
100
AcDbEntity
  8
ASSI
100
AcDbLine
 62
250
  6
CONTINUOUS
 10
7.1213551206
 20
5.8673252623
 11
7.1217892786
 21
5.717542479
  0
LINE
  5
53D
100
AcDbEntity
  8
ASSI
100
AcDbLine
 62
250
  6
CONTINUOUS
 10
7.22499849
 20
-5.7998565576
 11
7.224564332
 21
-5.6500737743
  0
LINE
  5
53E
100
AcDbEntity
  8
ASSI
100
AcDbLine
 62
250
  6
CONTINUOUS
 10
7.0868778326
 20
-1.2422712529
 11
7.086977558
 21
-2.9016542284
  0
LINE
  5
53F
100
AcDbEntity
  8
ASSI
100
AcDbLine
 62
250
  6
CONTINUOUS
 10
7.1214754423
 20
-4.1230283482
 11
7.1217986021
 21
-5.6244906354
  0
LINE
  5
540
100
AcDbEntity
  8
ASSI
100
AcDbLine
 62
250
  6
CONTINUOUS
 10
7.2248781684
 20
4.1904970528
 11
7.2245550086
 21
5.69195934
  0
LINE
  5
541
100
AcDbEntity
  8
ASSI
100
AcDbLine
 62
250
  6
CONTINUOUS
 10
7.259475778
 20
1.3097399575
 11
7.2594524628
 21
2.9478003841
  0
LINE
  5
542
100
AcDbEntity
  8
ASSI
100
AcDbLine
 62
250
  6
CONTINUOUS
 10
7.3077067515
 20
22.1559731221
 11
7.3077067515
 21
20.599557511
  0
LINE
  5
543
100
AcDbEntity
  8
ASSI
100
AcDbLine
 62
250
  6
CONTINUOUS
 10
7.3077067515
 20
-20.5320888063
 11
7.3077067515
 21
-22.0885044175
  0
LINE
  5
544
100
AcDbEntity
  8
ASSI
100
AcDbLine
 62
250
  6
CONTINUOUS
 10
7.4809118322
 20
22.1612139
 11
7.4809118322
 21
20.611835967
  0
LINE
  5
545
100
AcDbEntity
  8
ASSI
100
AcDbLine
 62
250
  6
CONTINUOUS
 10
7.4809118322
 20
-20.5443672624
 11
7.4809118322
 21
-22.0937451954
  0
LINE
  5
546
100
AcDbEntity
  8
ASSI
100
AcDbLine
 62
250
  6
CONTINUOUS
 10
7.5592930262
 20
1.3198505731
 11
7.5591933939
 21
2.9946902992
  0
LINE
  5
547
100
AcDbEntity
  8
ASSI
100
AcDbLine
 62
250
  6
CONTINUOUS
 10
7.524398882
 20
4.3233984173
 11
7.5243815644
 21
5.7022439296
  0
LINE
  5
548
100
AcDbEntity
  8
ASSI
100
AcDbLine
 62
250
  6
CONTINUOUS
 10
7.5243815644
 20
-5.634775225
 11
7.524398882
 21
-4.2559297126
  0
LINE
  5
549
100
AcDbEntity
  8
ASSI
100
AcDbLine
 62
250
  6
CONTINUOUS
 10
7.1217892786
 20
5.717542479
 11
7.1215606951
 21
4.2114424683
  0
LINE
  5
54A
100
AcDbEntity
  8
ASSI
100
AcDbLine
 62
250
  6
CONTINUOUS
 10
7.224564332
 20
-5.6500737743
 11
7.2247929156
 21
-4.1439737636
  0
LINE
  5
54B
100
AcDbEntity
  8
ASSI
100
AcDbLine
 62
250
  6
CONTINUOUS
 10
7.0869775579
 20
2.9691229272
 11
7.0868778326
 21
1.3097399575
  0
LINE
  5
54C
100
AcDbEntity
  8
ASSI
100
AcDbLine
 62
250
  6
CONTINUOUS
 10
7.2593760527
 20
-2.9016542226
 11
7.259475778
 21
-1.2422712529
  0
LINE
  5
54D
100
AcDbEntity
  8
ASSI
100
AcDbLine
 62
250
  6
CONTINUOUS
 10
7.5590639681
 20
-2.9613946312
 11
7.5592930262
 21
-1.2523818685
  0
LINE
  5
54E
100
AcDbEntity
  8
ASSI
100
AcDbLine
 62
250
  6
CONTINUOUS
 10
7.1217986186
 20
-5.6244906354
 11
7.1214718589
 21
-5.7756638985
  0
LINE
  5
54F
100
AcDbEntity
  8
ASSI
100
AcDbLine
 62
250
  6
CONTINUOUS
 10
7.224554992
 20
5.69195934
 11
7.2248817517
 21
5.8431326031
  0
LINE
  5
550
100
AcDbEntity
  8
ASSI
100
AcDbLine
 62
250
  6
CONTINUOUS
 10
7.5243815644
 20
5.7022439296
 11
7.5245180368
 21
5.7326131423
  0
LINE
  5
551
100
AcDbEntity
  8
ASSI
100
AcDbLine
 62
250
  6
CONTINUOUS
 10
7.524398882
 20
-4.2559297126
 11
7.5245377977
 21
-4.2300913255
  0
LINE
  5
552
100
AcDbEntity
  8
ASSI
100
AcDbLine
 62
250
  6
CONTINUOUS
 10
7.1215606951
 20
4.2114424683
 11
7.1208628001
 21
4.090836918
  0
LINE
  5
553
100
AcDbEntity
  8
ASSI
100
AcDbLine
 62
250
  6
CONTINUOUS
 10
7.2247929156
 20
-4.1439737636
 11
7.2254908105
 21
-4.0233682134
  0
LINE
  5
554
100
AcDbEntity
  8
ASSI
100
AcDbLine
 62
250
  6
CONTINUOUS
 10
7.1214718589
 20
-5.7756638985
 11
7.120720041
 21
-5.8914185913
  0
LINE
  5
555
100
AcDbEntity
  8
ASSI
100
AcDbLine
 62
250
  6
CONTINUOUS
 10
7.2248817517
 20
5.8431326031
 11
7.2256335696
 21
5.9588872959
  0
LINE
  5
556
100
AcDbEntity
  8
ASSI
100
AcDbLine
 62
250
  6
CONTINUOUS
 10
7.0872893458
 20
3.0120496473
 11
7.0869775579
 21
2.9691229272
  0
LINE
  5
557
100
AcDbEntity
  8
ASSI
100
AcDbLine
 62
250
  6
CONTINUOUS
 10
7.2590642649
 20
-2.9445809426
 11
7.2593760527
 21
-2.9016542226
  0
LINE
  5
558
100
AcDbEntity
  8
ASSI
100
AcDbLine
 62
250
  6
CONTINUOUS
 10
7.5583572528
 20
-3.0644805038
 11
7.5590639681
 21
-2.9613946312
  0
LINE
  5
559
100
AcDbEntity
  8
ASSI
100
AcDbLine
 62
250
  6
CONTINUOUS
 10
7.5245377977
 20
-4.2300913255
 11
7.5247934934
 21
-4.2049685039
  0
LINE
  5
55A
100
AcDbEntity
  8
ASSI
100
AcDbLine
 62
250
  6
CONTINUOUS
 10
7.5245180368
 20
5.7326131423
 11
7.5248156728
 21
5.7620960316
  0
LWPOLYLINE
  5
55B
100
AcDbEntity
  8
ASSI
100
AcDbPolyline
 62
250
  6
CONTINUOUS
 90
3
 70
0
 10
7.1208628001
 20
4.090836918
 10
7.1199642836
 20
4.0030434689
 10
7.1197529908
 20
3.9872877429
  0
LWPOLYLINE
  5
55C
100
AcDbEntity
  8
ASSI
100
AcDbPolyline
 62
250
  6
CONTINUOUS
 90
3
 70
0
 10
7.2254908105
 20
-4.0233682134
 10
7.2263893271
 20
-3.9355747643
 10
7.2266006199
 20
-3.9198190383
  0
LINE
  5
55D
100
AcDbEntity
  8
ASSI
100
AcDbLine
 62
250
  6
CONTINUOUS
 10
7.2256335696
 20
5.9588872959
 11
7.2265150385
 21
6.0392941808
  0
LINE
  5
55E
100
AcDbEntity
  8
ASSI
100
AcDbLine
 62
250
  6
CONTINUOUS
 10
7.120720041
 20
-5.8914185913
 11
7.1198385721
 21
-5.9718254761
  0
LINE
  5
55F
100
AcDbEntity
  8
ASSI
100
AcDbLine
 62
250
  6
CONTINUOUS
 10
7.0878137547
 20
3.0549660501
 11
7.0872893458
 21
3.0120496473
  0
LINE
  5
560
100
AcDbEntity
  8
ASSI
100
AcDbLine
 62
250
  6
CONTINUOUS
 10
7.258539856
 20
-2.9874973454
 11
7.2590642649
 21
-2.9445809426
  0
LINE
  5
561
100
AcDbEntity
  8
ASSI
100
AcDbLine
 62
250
  6
CONTINUOUS
 10
7.5571674488
 20
-3.1652384775
 11
7.5583572528
 21
-3.0644805038
  0
LINE
  5
562
100
AcDbEntity
  8
ASSI
100
AcDbLine
 62
250
  6
CONTINUOUS
 10
7.5247934934
 20
-4.2049685039
 11
7.5251615829
 21
-4.1810146831
  0
LINE
  5
563
100
AcDbEntity
  8
ASSI
100
AcDbLine
 62
250
  6
CONTINUOUS
 10
7.2265150385
 20
6.0392941808
 11
7.2273165348
 21
6.0902358406
  0
LINE
  5
564
100
AcDbEntity
  8
ASSI
100
AcDbLine
 62
250
  6
CONTINUOUS
 10
7.1198385721
 20
-5.9718254761
 11
7.1190370759
 21
-6.022767136
  0
LINE
  5
565
100
AcDbEntity
  8
ASSI
100
AcDbLine
 62
250
  6
CONTINUOUS
 10
6.8215379378
 20
-5.694627327
 11
6.8210862531
 21
-5.7224606496
  0
LINE
  5
566
100
AcDbEntity
  8
ASSI
100
AcDbLine
 62
250
  6
CONTINUOUS
 10
7.5248156728
 20
5.7620960316
 11
7.5252673575
 21
5.7899293542
  0
LINE
  5
567
100
AcDbEntity
  8
ASSI
100
AcDbLine
 62
250
  6
CONTINUOUS
 10
7.0885551392
 20
3.0972315008
 11
7.0878137547
 21
3.0549660501
  0
LINE
  5
568
100
AcDbEntity
  8
ASSI
100
AcDbLine
 62
250
  6
CONTINUOUS
 10
7.2577984714
 20
-3.0297627961
 11
7.258539856
 21
-2.9874973454
  0
LINE
  5
569
100
AcDbEntity
  8
ASSI
100
AcDbLine
 62
250
  6
CONTINUOUS
 10
7.5555211469
 20
-3.2605975156
 11
7.5571674488
 21
-3.1652384775
  0
LINE
  5
56A
100
AcDbEntity
  8
ASSI
100
AcDbLine
 62
250
  6
CONTINUOUS
 10
7.2273165348
 20
6.0902358406
 11
7.2279076334
 21
6.1190521061
  0
LINE
  5
56B
100
AcDbEntity
  8
ASSI
100
AcDbLine
 62
250
  6
CONTINUOUS
 10
7.1190370759
 20
-6.022767136
 11
7.1184459772
 21
-6.0515834015
  0
LINE
  5
56C
100
AcDbEntity
  8
ASSI
100
AcDbLine
 62
250
  6
CONTINUOUS
 10
6.8210862531
 20
-5.7224606496
 11
6.8207045339
 21
-5.739781651
  0
LINE
  5
56D
100
AcDbEntity
  8
ASSI
100
AcDbLine
 62
250
  6
CONTINUOUS
 10
7.5252673575
 20
5.7899293542
 11
7.5256490767
 21
5.8072503556
  0
LINE
  5
56E
100
AcDbEntity
  8
ASSI
100
AcDbLine
 62
250
  6
CONTINUOUS
 10
7.5251615829
 20
-4.1810146831
 11
7.5256356896
 21
-4.1586444185
  0
LINE
  5
56F
100
AcDbEntity
  8
ASSI
100
AcDbLine
 62
250
  6
CONTINUOUS
 10
7.5541953054
 20
-3.3198257689
 11
7.5555211469
 21
-3.2605975156
  0
LINE
  5
570
100
AcDbEntity
  8
ASSI
100
AcDbLine
 62
250
  6
CONTINUOUS
 10
7.0895034067
 20
3.1382427346
 11
7.0885551392
 21
3.0972315008
  0
LINE
  5
571
100
AcDbEntity
  8
ASSI
100
AcDbLine
 62
250
  6
CONTINUOUS
 10
7.2568502039
 20
-3.0707740299
 11
7.2577984714
 21
-3.0297627961
  0
LWPOLYLINE
  5
572
100
AcDbEntity
  8
ASSI
100
AcDbPolyline
 62
250
  6
CONTINUOUS
 90
10
 70
0
 10
7.2279076334
 20
6.1190521061
 10
7.22853601
 20
6.1433945266
 10
7.2288633158
 20
6.1538063735
 10
7.2291967013
 20
6.1630073819
 10
7.2295361705
 20
6.1709734112
 10
7.2298817194
 20
6.177683863
 10
7.2302307041
 20
6.1831213109
 10
7.2305822432
 20
6.1872715874
 10
7.230937218
 20
6.1901238654
 10
7.2312956286
 20
6.1916707414
  0
LWPOLYLINE
  5
573
100
AcDbEntity
  8
ASSI
100
AcDbPolyline
 62
250
  6
CONTINUOUS
 90
10
 70
0
 10
7.1184459772
 20
-6.0515834015
 10
7.1178176007
 20
-6.075925822
 10
7.1174902948
 20
-6.0863376688
 10
7.1171569093
 20
-6.0955386773
 10
7.1168174401
 20
-6.1035047065
 10
7.1164718912
 20
-6.1102151584
 10
7.1161229065
 20
-6.1156526063
 10
7.1157713675
 20
-6.1198028828
 10
7.1154163926
 20
-6.1226551608
 10
7.115057982
 20
-6.1242020368
  0
LINE
  5
574
100
AcDbEntity
  8
ASSI
100
AcDbLine
 62
250
  6
CONTINUOUS
 10
7.5256356896
 20
-4.1586444185
 11
7.5260059532
 21
-4.144825241
  0
LINE
  5
575
100
AcDbEntity
  8
ASSI
100
AcDbLine
 62
250
  6
CONTINUOUS
 10
7.5527220772
 20
-3.374654359
 11
7.5541953054
 21
-3.3198257689
  0
LINE
  5
576
100
AcDbEntity
  8
ASSI
100
AcDbLine
 62
250
  6
CONTINUOUS
 10
6.8207045339
 20
-5.739781651
 11
6.8202628182
 21
-5.7558920968
  0
LINE
  5
577
100
AcDbEntity
  8
ASSI
100
AcDbLine
 62
250
  6
CONTINUOUS
 10
7.5256490767
 20
5.8072503556
 11
7.5260907925
 21
5.8233608014
  0
LWPOLYLINE
  5
578
100
AcDbEntity
  8
ASSI
100
AcDbPolyline
 62
7
  6
CONTINUOUS
 90
28
 70
0
 10
7.5863704293
 20
-5.8796420236
 10
7.5858622873
 20
-5.8969706465
 10
7.5843487267
 20
-5.9142824873
 10
7.5818274908
 20
-5.9315188699
 10
7.578293496
 20
-5.9486472814
 10
7.5737546351
 20
-5.9655808675
 10
7.5682472264
 20
-5.9821827609
 10
7.5618137069
 20
-5.998358853
 10
7.5544696709
 20
-6.0140987826
 10
7.546221856
 20
-6.0293943465
 10
7.5370958234
 20
-6.0441946886
 10
7.5271215731
 20
-6.0584480173
 10
7.5163032049
 20
-6.0721391322
 10
7.5046363465
 20
-6.085251772
 10
7.4921834082
 20
-6.0976954801
 10
7.4790602611
 20
-6.1093543453
 10
7.4653564655
 20
-6.1201662996
 10
7.4510887799
 20
-6.1301347992
 10
7.4362747716
 20
-6.1392541804
 10
7.4209671882
 20
-6.1474941695
 10
7.4052162362
 20
-6.1548298567
 10
7.389030327
 20
-6.1612547426
 10
7.3724211096
 20
-6.1667530275
 10
7.3554815752
 20
-6.1712829901
 10
7.3383449898
 20
-6.1748093014
 10
7.3210968918
 20
-6.1773237986
 10
7.303770956
 20
-6.1788307596
 10
7.2864258818
 20
-6.1793319723
  0
LINE
  5
579
100
AcDbEntity
  8
ASSI
100
AcDbLine
 62
250
  6
CONTINUOUS
 10
7.0906493516
 20
3.177513325
 11
7.0895034067
 21
3.1382427346
  0
LINE
  5
57A
100
AcDbEntity
  8
ASSI
100
AcDbLine
 62
250
  6
CONTINUOUS
 10
7.2557042591
 20
-3.1100446204
 11
7.2568502039
 21
-3.0707740299
  0
LINE
  5
57B
100
AcDbEntity
  8
ASSI
100
AcDbLine
 62
250
  6
CONTINUOUS
 10
7.5511105809
 20
-3.4248442914
 11
7.5527220772
 21
-3.374654359
  0
LINE
  5
57C
100
AcDbEntity
  8
ASSI
100
AcDbLine
 62
250
  6
CONTINUOUS
 10
7.1197529908
 20
3.9872877429
 11
7.0950605348
 21
3.2801883196
  0
LINE
  5
57D
100
AcDbEntity
  8
ASSI
100
AcDbLine
 62
250
  6
CONTINUOUS
 10
7.2266006199
 20
-3.9198190383
 11
7.2512930758
 21
-3.212719615
  0
LINE
  5
57E
100
AcDbEntity
  8
ASSI
100
AcDbLine
 62
250
  6
CONTINUOUS
 10
7.5260059532
 20
-4.144825241
 11
7.5511105809
 21
-3.4248442914
  0
LINE
  5
57F
100
AcDbEntity
  8
ASSI
100
AcDbLine
 62
250
  6
CONTINUOUS
 10
6.8202628182
 20
-5.7558920968
 11
6.8197666034
 21
-5.7706076359
  0
LINE
  5
580
100
AcDbEntity
  8
ASSI
100
AcDbLine
 62
250
  6
CONTINUOUS
 10
7.5260907925
 20
5.8233608014
 11
7.5265870072
 21
5.8380763405
  0
LINE
  5
581
100
AcDbEntity
  8
ASSI
100
AcDbLine
 62
250
  6
CONTINUOUS
 10
7.0919748957
 20
3.2145272205
 11
7.0906493516
 21
3.177513325
  0
LINE
  5
582
100
AcDbEntity
  8
ASSI
100
AcDbLine
 62
250
  6
CONTINUOUS
 10
7.2543787149
 20
-3.1470585159
 11
7.2557042591
 21
-3.1100446204
  0
LWPOLYLINE
  5
583
100
AcDbEntity
  8
ASSI
100
AcDbPolyline
 62
250
  6
CONTINUOUS
 90
14
 70
0
 10
6.8197666034
 20
-5.7706076359
 10
6.8192197812
 20
-5.7838127701
 10
6.8189297141
 20
-5.7897865053
 10
6.8186285989
 20
-5.7953432485
 10
6.81831879
 20
-5.8004395598
 10
6.8180002132
 20
-5.8050718647
 10
6.8176729428
 20
-5.8092437376
 10
6.8173395562
 20
-5.8129224617
 10
6.8169999871
 20
-5.8161041306
 10
6.8166543019
 20
-5.8187926506
 10
6.8163052772
 20
-5.8209670235
 10
6.8159538388
 20
-5.8226202499
 10
6.8155990609
 20
-5.8237593292
 10
6.8152409435
 20
-5.8243842614
  0
LWPOLYLINE
  5
584
100
AcDbEntity
  8
ASSI
100
AcDbPolyline
 62
250
  6
CONTINUOUS
 90
14
 70
0
 10
7.5265870072
 20
5.8380763405
 10
7.5271338295
 20
5.8512814747
 10
7.5274238965
 20
5.8572552099
 10
7.5277250118
 20
5.8628119532
 10
7.5280348206
 20
5.8679082644
 10
7.5283533974
 20
5.8725405693
 10
7.5286806679
 20
5.8767124423
 10
7.5290140545
 20
5.8803911663
 10
7.5293536235
 20
5.8835728352
 10
7.5296993088
 20
5.8862613552
 10
7.5300483334
 20
5.8884357282
 10
7.5303997719
 20
5.8900889546
 10
7.5307545498
 20
5.8912280338
 10
7.5311126671
 20
5.891852966
  0
LWPOLYLINE
  5
585
100
AcDbEntity
  8
ASSI
100
AcDbPolyline
 62
250
  6
CONTINUOUS
 90
4
 70
0
 10
7.0950606615
 20
3.2801883195
 10
7.0942367546
 20
3.2648778826
 10
7.0934483232
 20
3.2488247961
 10
7.0919748957
 20
3.2145272205
  0
LWPOLYLINE
  5
586
100
AcDbEntity
  8
ASSI
100
AcDbPolyline
 62
250
  6
CONTINUOUS
 90
4
 70
0
 10
7.2512929491
 20
-3.2127196149
 10
7.252116856
 20
-3.197409178
 10
7.2529052875
 20
-3.1813560915
 10
7.2543787149
 20
-3.1470585159
  0
LINE
  5
587
100
AcDbEntity
  8
ASSI
100
AcDbLine
 62
250
  6
CONTINUOUS
 10
9.6604101084
 20
20.339434716
 11
9.7120134792
 21
20.702429483
  0
LINE
  5
588
100
AcDbEntity
  8
ASSI
100
AcDbLine
 62
250
  6
CONTINUOUS
 10
9.8603796482
 20
20.1409254915
 11
9.9119222971
 21
20.5034931207
  0
LINE
  5
589
100
AcDbEntity
  8
ASSI
100
AcDbLine
 62
7
  6
CONTINUOUS
 10
-11.1268231947
 20
13.1337343523
 11
-9.8768231947
 21
13.1337343523
  0
LINE
  5
58A
100
AcDbEntity
  8
ASSI
100
AcDbLine
 62
7
  6
CONTINUOUS
 10
9.9231768053
 20
13.1337343523
 11
11.1731768053
 21
13.1337343523
  0
LINE
  5
58B
100
AcDbEntity
  8
ASSI
100
AcDbLine
 62
250
  6
CONTINUOUS
 10
-5.4209275226
 20
15.6307874028
 11
-5.4754445284
 21
15.6580376006
  0
LINE
  5
58C
100
AcDbEntity
  8
ASSI
100
AcDbLine
 62
250
  6
CONTINUOUS
 10
-5.1712030016
 20
15.8808109007
 11
-5.22559728
 21
15.9079997535
  0
LINE
  5
58D
100
AcDbEntity
  8
ASSI
100
AcDbLine
 62
250
  6
CONTINUOUS
 10
7.0599277288
 20
6.2468006769
 11
7.1150576641
 21
6.1916707416
  0
LWPOLYLINE
  5
58E
100
AcDbEntity
  8
ASSI
100
AcDbPolyline
 62
250
  6
CONTINUOUS
 90
13
 70
0
 10
6.8152409435
 20
5.891852966
 10
6.8155990609
 20
5.8912280338
 10
6.8159538388
 20
5.8900889545
 10
6.8163052772
 20
5.8884357281
 10
6.8166543019
 20
5.8862613552
 10
6.8169999871
 20
5.8835728352
 10
6.8173395562
 20
5.8803911663
 10
6.8176729428
 20
5.8767124422
 10
6.8180002132
 20
5.8725405693
 10
6.81831879
 20
5.8679082644
 10
6.8186285989
 20
5.8628119531
 10
6.8189297141
 20
5.8572552099
 10
6.8192197812
 20
5.8512814746
  0
LINE
  5
58F
100
AcDbEntity
  8
ASSI
100
AcDbLine
 62
7
  6
CONTINUOUS
 10
9.869066104
 20
1.3097399575
 11
9.8533255611
 21
1.3412306379
  0
LWPOLYLINE
  5
590
100
AcDbEntity
  8
ASSI
100
AcDbPolyline
 62
250
  6
CONTINUOUS
 90
8
 70
0
 10
7.115057982
 20
6.1916707414
 10
7.1154163926
 20
6.1901238654
 10
7.1157713674
 20
6.1872715874
 10
7.1161229065
 20
6.1831213109
 10
7.1164718912
 20
6.1776838629
 10
7.1168174401
 20
6.1709734111
 10
7.1171569093
 20
6.1630073818
 10
7.1174902948
 20
6.1538063734
  0
LINE
  5
591
100
AcDbEntity
  8
ASSI
100
AcDbLine
 62
250
  6
CONTINUOUS
 10
5.7156252369
 20
17.1337343523
 11
5.6649169812
 21
17.389777783
  0
LINE
  5
592
100
AcDbEntity
  8
ASSI
100
AcDbLine
 62
250
  6
CONTINUOUS
 10
5.9726871541
 20
17.3435092601
 11
5.914764688
 21
17.6359797212
  0
LWPOLYLINE
  5
593
100
AcDbEntity
  8
ASSI
100
AcDbPolyline
 62
250
  6
CONTINUOUS
 90
10
 70
0
 10
5.914764688
 20
17.6359797212
 10
5.9146648122
 20
17.6365717255
 10
5.9145669122
 20
17.637322647
 10
5.9144709881
 20
17.6382324859
 10
5.9143767171
 20
17.6393054363
 10
5.914284422
 20
17.6405373041
 10
5.914195071
 20
17.6419155061
 10
5.9141087053
 20
17.6434414514
 10
5.9140252837
 20
17.645113731
 10
5.9139456505
 20
17.6469155348
  0
LWPOLYLINE
  5
594
100
AcDbEntity
  8
ASSI
100
AcDbPolyline
 62
250
  6
CONTINUOUS
 90
5
 70
0
 10
5.7245550891
 20
15.6580376009
 10
5.7244542648
 20
15.658833901
 10
5.7243545376
 20
15.6606198691
 10
5.7242559074
 20
15.6633898224
 10
5.7241580795
 20
15.6671349188
  0
LINE
  5
595
100
AcDbEntity
  8
ASSI
100
AcDbLine
 62
7
  6
CONTINUOUS
 10
7.8316017983
 20
22.193047058
 11
7.9068952821
 21
20.702429483
  0
LINE
  5
596
100
AcDbEntity
  8
ASSI
100
AcDbLine
 62
7
  6
CONTINUOUS
 10
9.9119222971
 20
20.5034931207
 11
9.9231768053
 21
13.1337343523
  0
LINE
  5
597
100
AcDbEntity
  8
ASSI
100
AcDbLine
 62
250
  6
CONTINUOUS
 10
9.8603796482
 20
-20.0734567869
 11
9.8567783968
 21
-14.0662656477
  0
LINE
  5
598
100
AcDbEntity
  8
ASSI
100
AcDbLine
 62
7
  6
CONTINUOUS
 10
9.5231768053
 20
14.1337343523
 11
9.5231768053
 21
10.3337343523
  0
LINE
  5
599
100
AcDbEntity
  8
ASSI
100
AcDbLine
 62
7
  6
CONTINUOUS
 10
9.5231768053
 20
-14.0662656477
 11
9.5231768053
 21
-10.2662656477
  0
LINE
  5
59A
100
AcDbEntity
  8
ASSI
100
AcDbLine
 62
250
  6
CONTINUOUS
 10
9.655182913
 20
-10.2662656477
 11
9.6533563129
 21
-1.2806235907
  0
LINE
  5
59B
100
AcDbEntity
  8
ASSI
100
AcDbLine
 62
250
  6
CONTINUOUS
 10
9.6604101084
 20
-20.2719660114
 11
9.6568060632
 21
-14.0662656477
  0
LINE
  5
59C
100
AcDbEntity
  8
ASSI
100
AcDbLine
 62
250
  6
CONTINUOUS
 10
9.855153943
 20
-10.2662656477
 11
9.8533255611
 21
-1.2737619332
  0
LINE
  5
59D
100
AcDbEntity
  8
ASSI
100
AcDbLine
 62
7
  6
CONTINUOUS
 10
9.869066104
 20
-0.0933189378
 11
9.869066104
 21
-1.2422712529
  0
LINE
  5
59E
100
AcDbEntity
  8
ASSI
100
AcDbLine
 62
7
  6
CONTINUOUS
 10
9.869066104
 20
0.1607876425
 11
9.869066104
 21
1.3097399575
  0
LINE
  5
59F
100
AcDbEntity
  8
ASSI
100
AcDbLine
 62
7
  6
CONTINUOUS
 10
9.9062999063
 20
14.1337343523
 11
9.9062999063
 21
10.3337343523
  0
LINE
  5
5A0
100
AcDbEntity
  8
ASSI
100
AcDbLine
 62
7
  6
CONTINUOUS
 10
9.9062999063
 20
-14.0662656477
 11
9.9062999063
 21
-10.2662656477
  0
LINE
  5
5A1
100
AcDbEntity
  8
ASSI
100
AcDbLine
 62
7
  6
CONTINUOUS
 10
9.9231768053
 20
-0.0662656477
 11
9.9231768053
 21
-13.0662656477
  0
LINE
  5
5A2
100
AcDbEntity
  8
ASSI
100
AcDbLine
 62
7
  6
CONTINUOUS
 10
9.9231768053
 20
0.1337343523
 11
9.9231768053
 21
13.1337343523
  0
LINE
  5
5A3
100
AcDbEntity
  8
ASSI
100
AcDbLine
 62
250
  6
CONTINUOUS
 10
9.6533563129
 20
1.3480922954
 11
9.655182913
 21
10.3337343523
  0
LINE
  5
5A4
100
AcDbEntity
  8
ASSI
100
AcDbLine
 62
250
  6
CONTINUOUS
 10
9.8533255611
 20
1.3412306379
 11
9.855153943
 21
10.3337343523
  0
LINE
  5
5A5
100
AcDbEntity
  8
ASSI
100
AcDbLine
 62
250
  6
CONTINUOUS
 10
9.6568060632
 20
14.1337343523
 11
9.6604101084
 21
20.339434716
  0
LINE
  5
5A6
100
AcDbEntity
  8
ASSI
100
AcDbLine
 62
250
  6
CONTINUOUS
 10
9.8567783968
 20
14.1337343523
 11
9.8603796482
 21
20.1409254915
  0
LINE
  5
5A7
100
AcDbEntity
  8
ASSI
100
AcDbLine
 62
7
  6
CONTINUOUS
 10
9.9119222971
 20
-20.4360244161
 11
9.9231768053
 21
-13.0662656477
  0
LWPOLYLINE
  5
5A8
100
AcDbEntity
  8
ASSI
100
AcDbPolyline
 62
250
  6
CONTINUOUS
 90
25
 70
0
 10
9.8603796474
 20
-20.0734567811
 10
9.8599300794
 20
-20.0863457271
 10
9.8586360868
 20
-20.0991983357
 10
9.8564995886
 20
-20.1119598681
 10
9.8535249392
 20
-20.1245799542
 10
9.8497219153
 20
-20.1369995614
 10
9.8451085577
 20
-20.149152085
 10
9.8397049045
 20
-20.1609828915
 10
9.8335323634
 20
-20.1724435313
 10
9.8266196809
 20
-20.1834798645
 10
9.818998277
 20
-20.194042596
 10
9.8106995037
 20
-20.2040890604
 10
9.8017571089
 20
-20.2135782949
 10
9.7922078845
 20
-20.2224705538
 10
9.7820935128
 20
-20.2307263624
 10
9.7714588572
 20
-20.2383089508
 10
9.7603503166
 20
-20.2451854671
 10
9.7488146883
 20
-20.2513271632
 10
9.7369006558
 20
-20.2567081413
 10
9.724658807
 20
-20.2613054533
 10
9.7121418274
 20
-20.2650992162
 10
9.6994036003
 20
-20.2680730772
 10
9.6864987429
 20
-20.270214312
 10
9.6734823504
 20
-20.2715138051
 10
9.6604101084
 20
-20.2719660114
  0
LINE
  5
5A9
100
AcDbEntity
  8
ASSI
100
AcDbLine
 62
7
  6
CONTINUOUS
 10
7.8316017983
 20
-22.1255783534
 11
7.9068952821
 21
-20.6349607784
  0
LINE
  5
5AA
100
AcDbEntity
  8
ASSI
100
AcDbLine
 62
250
  6
CONTINUOUS
 10
5.6649169812
 20
-17.3223090783
 11
5.7156252369
 21
-17.0662656477
  0
LINE
  5
5AB
100
AcDbEntity
  8
ASSI
100
AcDbLine
 62
250
  6
CONTINUOUS
 10
5.914764688
 20
-17.5685110166
 11
5.9726871541
 21
-17.2760405555
  0
LINE
  5
5AC
100
AcDbEntity
  8
ASSI
100
AcDbLine
 62
7
  6
CONTINUOUS
 10
9.8533255611
 20
-1.2737619332
 11
9.869066104
 21
-1.2422712529
  0
LINE
  5
5AD
100
AcDbEntity
  8
ASSI
100
AcDbLine
 62
250
  6
CONTINUOUS
 10
6.8152409435
 20
-5.8243842614
 11
6.7599831813
 21
-5.8796420236
  0
LINE
  5
5AE
100
AcDbEntity
  8
ASSI
100
AcDbLine
 62
250
  6
CONTINUOUS
 10
7.1150576641
 20
-6.124202037
 11
7.0599277288
 21
-6.1793319723
  0
LWPOLYLINE
  5
5AF
100
AcDbEntity
  8
ASSI
100
AcDbPolyline
 62
250
  6
CONTINUOUS
 90
25
 70
0
 10
5.7245550132
 20
15.6580378297
 10
5.7408895392
 20
15.658582558
 10
5.7571541703
 20
15.6601945047
 10
5.7732793126
 20
15.662866772
 10
5.7891959693
 20
15.6665879255
 10
5.8048360353
 20
15.6713420424
 10
5.820132589
 20
15.6771087801
 10
5.8350201791
 20
15.6838634632
 10
5.849435104
 20
15.6915771891
 10
5.8633156846
 20
15.7002169513
 10
5.8766025283
 20
15.7097457812
 10
5.8892387832
 20
15.7201229062
 10
5.9011703811
 20
15.7313039236
 10
5.9123462689
 20
15.7432409913
 10
5.9227186273
 20
15.7558830321
 10
5.932243075
 20
15.7691759526
 10
5.9408788592
 20
15.783062874
 10
5.9485890291
 20
15.7974843765
 10
5.9553405949
 20
15.8123787526
 10
5.9611046682
 20
15.8276822716
 10
5.9658565861
 20
15.8433294523
 10
5.9695760167
 20
15.8592533431
 10
5.9722470456
 20
15.8753858085
 10
5.9738582445
 20
15.8916578203
 10
5.97440272
 20
15.9079997535
  0
LINE
  5
5B0
100
AcDbEntity
  8
ASSI
100
AcDbLine
 62
7
  6
CONTINUOUS
 10
9.9062999063
 20
14.1337343523
 11
9.5231768053
 21
14.1337343523
  0
LINE
  5
5B1
100
AcDbEntity
  8
ASSI
100
AcDbLine
 62
7
  6
CONTINUOUS
 10
-9.4768231947
 20
14.1337343523
 11
-9.8599462956
 21
14.1337343523
  0
LINE
  5
5B2
100
AcDbEntity
  8
ASSI
100
AcDbLine
 62
7
  6
CONTINUOUS
 10
11.1731768053
 20
13.1337343523
 11
11.160102568
 21
21.6951013302
  0
LINE
  5
5B3
100
AcDbEntity
  8
ASSI
100
AcDbLine
 62
7
  6
CONTINUOUS
 10
11.1731768053
 20
-0.2662428024
 11
11.1731768053
 21
-13.0662656477
  0
LINE
  5
5B4
100
AcDbEntity
  8
ASSI
100
AcDbLine
 62
7
  6
CONTINUOUS
 10
11.1731768053
 20
0.333711507
 11
11.1731768053
 21
13.1337343523
  0
LINE
  5
5B5
100
AcDbEntity
  8
ASSI
100
AcDbLine
 62
7
  6
CONTINUOUS
 10
11.1731768053
 20
-13.0662656477
 11
11.160102568
 21
-21.6276326256
  0
LINE
  5
5B6
100
AcDbEntity
  8
ASSI
100
AcDbLine
 62
7
  6
CONTINUOUS
 10
6.0172898825
 20
-20.2719660114
 11
5.9433091793
 21
-20.5320888063
  0
LINE
  5
5B7
100
AcDbEntity
  8
ASSI
100
AcDbLine
 62
250
  6
CONTINUOUS
 10
-5.4754445284
 20
-15.590568896
 11
-5.4209275226
 21
-15.5633186982
  0
LINE
  5
5B8
100
AcDbEntity
  8
ASSI
100
AcDbLine
 62
250
  6
CONTINUOUS
 10
-5.22559728
 20
-15.8405310489
 11
-5.1712030016
 21
-15.8133421961
  0
LWPOLYLINE
  5
5B9
100
AcDbEntity
  8
ASSI
100
AcDbPolyline
 62
7
  6
CONTINUOUS
 90
31
 70
0
 10
-5.4771605527
 20
17.1338399633
 10
-5.4615459648
 20
17.1347864591
 10
-5.4462545316
 20
17.1364177208
 10
-5.4313394607
 20
17.1387337482
 10
-5.4168551945
 20
17.1417802193
 10
-5.4028351514
 20
17.1455114562
 10
-5.3892930994
 20
17.1497904253
 10
-5.3762635052
 20
17.1546110997
 10
-5.3637686586
 20
17.1599795064
 10
-5.3518000308
 20
17.1657766924
 10
-5.3403773839
 20
17.1719958478
 10
-5.3295157577
 20
17.1786437826
 10
-5.3191992499
 20
17.1856219743
 10
-5.3094383008
 20
17.1929251966
 10
-5.3002428607
 20
17.2005586759
 10
-5.2915981285
 20
17.2084395691
 10
-5.2835090866
 20
17.2165644411
 10
-5.2759813719
 20
17.2249367271
 10
-5.269003563
 20
17.2334838895
 10
-5.2625769119
 20
17.2422039904
 10
-5.2567034892
 20
17.2510989678
 10
-5.2513750361
 20
17.2601020978
 10
-5.2465897837
 20
17.2692123974
 10
-5.2423464691
 20
17.2784308497
 10
-5.2386384551
 20
17.2876936797
 10
-5.2354609669
 20
17.2970005844
 10
-5.2328094802
 20
17.306351867
 10
-5.2306771169
 20
17.3156846623
 10
-5.2290561718
 20
17.3249780155
 10
-5.2279379974
 20
17.3342528814
 10
-5.2273128459
 20
17.3435092601
  0
LWPOLYLINE
  5
5BA
100
AcDbEntity
  8
ASSI
100
AcDbPolyline
 62
250
  6
CONTINUOUS
 90
25
 70
0
 10
5.6649169812
 20
17.389777783
 10
5.6811952035
 20
17.390398076
 10
5.6974042533
 20
17.3920618983
 10
5.7134752552
 20
17.3947621794
 10
5.7293399206
 20
17.3984874448
 10
5.7449308368
 20
17.4032218646
 10
5.7601817526
 20
17.4089453198
 10
5.7750278638
 20
17.4156334892
 10
5.789406087
 20
17.4232579528
 10
5.8032553253
 20
17.4317863109
 10
5.8165167309
 20
17.4411823235
 10
5.8291339545
 20
17.4514060644
 10
5.8410533835
 20
17.4624140895
 10
5.8522243706
 20
17.4741596223
 10
5.8625994495
 20
17.4865927532
 10
5.8721345359
 20
17.499660651
 10
5.8807891144
 20
17.5133077869
 10
5.8885264115
 20
17.5274761714
 10
5.8953135517
 20
17.5421056011
 10
5.9011216962
 20
17.5571339125
 10
5.9059261664
 20
17.5724972476
 10
5.9097065486
 20
17.5881303268
 10
5.9124467802
 20
17.6039667231
 10
5.9141352179
 20
17.6199391444
 10
5.914764688
 20
17.6359797212
  0
LWPOLYLINE
  5
5BB
100
AcDbEntity
  8
ASSI
100
AcDbPolyline
 62
250
  6
CONTINUOUS
 90
25
 70
0
 10
-5.4754449868
 20
15.6580378297
 10
-5.4591104608
 20
15.658582558
 10
-5.4428458297
 20
15.6601945047
 10
-5.4267206874
 20
15.662866772
 10
-5.4108040307
 20
15.6665879255
 10
-5.3951639647
 20
15.6713420424
 10
-5.379867411
 20
15.6771087801
 10
-5.3649798209
 20
15.6838634632
 10
-5.350564896
 20
15.6915771891
 10
-5.3366843154
 20
15.7002169513
 10
-5.3233974717
 20
15.7097457812
 10
-5.3107612168
 20
15.7201229062
 10
-5.2988296189
 20
15.7313039236
 10
-5.2876537311
 20
15.7432409913
 10
-5.2772813727
 20
15.7558830321
 10
-5.267756925
 20
15.7691759526
 10
-5.2591211408
 20
15.783062874
 10
-5.2514109709
 20
15.7974843765
 10
-5.2446594051
 20
15.8123787526
 10
-5.2388953318
 20
15.8276822716
 10
-5.2341434139
 20
15.8433294523
 10
-5.2304239833
 20
15.8592533431
 10
-5.2277529544
 20
15.8753858085
 10
-5.2261417555
 20
15.8916578203
 10
-5.22559728
 20
15.9079997535
  0
LINE
  5
5BC
100
AcDbEntity
  8
ASSI
100
AcDbLine
 62
7
  6
CONTINUOUS
 10
-5.7327188668
 20
15.6307874028
 11
-5.4209275226
 21
15.6307874028
  0
LINE
  5
5BD
100
AcDbEntity
  8
ASSI
100
AcDbLine
 62
7
  6
CONTINUOUS
 10
5.4672811332
 20
15.6307874028
 11
5.7790724774
 21
15.6307874028
  0
LINE
  5
5BE
100
AcDbEntity
  8
ASSI
100
AcDbLine
 62
250
  6
CONTINUOUS
 10
-5.678201861
 20
15.6580376006
 11
-5.4754445284
 21
15.6580376006
  0
LINE
  5
5BF
100
AcDbEntity
  8
ASSI
100
AcDbLine
 62
250
  6
CONTINUOUS
 10
5.521798139
 20
15.6580376006
 11
5.7245554716
 21
15.6580376006
  0
LINE
  5
5C0
100
AcDbEntity
  8
ASSI
100
AcDbLine
 62
250
  6
CONTINUOUS
 10
-5.9263335434
 20
15.9579921383
 11
-5.2273128459
 21
15.9579921383
  0
LINE
  5
5C1
100
AcDbEntity
  8
ASSI
100
AcDbLine
 62
250
  6
CONTINUOUS
 10
5.2736664566
 20
15.9579921383
 11
5.9726871541
 21
15.9579921383
  0
LINE
  5
5C2
100
AcDbEntity
  8
ASSI
100
AcDbLine
 62
7
  6
CONTINUOUS
 10
5.7156252369
 20
17.1337343523
 11
5.5307283737
 21
17.1337343523
  0
LINE
  5
5C3
100
AcDbEntity
  8
ASSI
100
AcDbLine
 62
7
  6
CONTINUOUS
 10
-5.6692716263
 20
17.1337343523
 11
-5.4843747631
 21
17.1337343523
  0
LWPOLYLINE
  5
5C4
100
AcDbEntity
  8
ASSI
100
AcDbPolyline
 62
7
  6
CONTINUOUS
 90
28
 70
0
 10
-5.7327188668
 20
15.6307874028
 10
-5.7471775291
 20
15.6312056292
 10
-5.7616167209
 20
15.6324625998
 10
-5.7759875462
 20
15.634559362
 10
-5.7902603983
 20
15.6374986945
 10
-5.8043657933
 20
15.6412735242
 10
-5.8181975668
 20
15.6458555857
 10
-5.8316797882
 20
15.6512112132
 10
-5.8448009178
 20
15.6573271192
 10
-5.8575534861
 20
15.6641979799
 10
-5.869895399
 20
15.6718032716
 10
-5.8817825829
 20
15.6801180727
 10
-5.8932001355
 20
15.6891377661
 10
-5.9041342783
 20
15.6988658968
 10
-5.9145096077
 20
15.7092505167
 10
-5.9242281036
 20
15.7201934753
 10
-5.9332374567
 20
15.7316188171
 10
-5.9415416248
 20
15.7435132499
 10
-5.9491370086
 20
15.7558634768
 10
-5.9559986362
 20
15.7686260394
 10
-5.9621053873
 20
15.781758515
 10
-5.9674518004
 20
15.7952537861
 10
-5.9720245751
 20
15.8091017408
 10
-5.9757891158
 20
15.8232251284
 10
-5.9787162601
 20
15.8375137869
 10
-5.9807991352
 20
15.8518967019
 10
-5.9820410594
 20
15.8663454114
 10
-5.9824433877
 20
15.8808109007
  0
LWPOLYLINE
  5
5C5
100
AcDbEntity
  8
ASSI
100
AcDbPolyline
 62
7
  6
CONTINUOUS
 90
28
 70
0
 10
5.4672811332
 20
15.6307874028
 10
5.4528224709
 20
15.6312056292
 10
5.4383832791
 20
15.6324625998
 10
5.4240124538
 20
15.634559362
 10
5.4097396017
 20
15.6374986945
 10
5.3956342067
 20
15.6412735242
 10
5.3818024332
 20
15.6458555857
 10
5.3683202118
 20
15.6512112132
 10
5.3551990822
 20
15.6573271192
 10
5.3424465139
 20
15.6641979799
 10
5.330104601
 20
15.6718032716
 10
5.3182174171
 20
15.6801180727
 10
5.3067998645
 20
15.6891377661
 10
5.2958657217
 20
15.6988658968
 10
5.2854903923
 20
15.7092505167
 10
5.2757718964
 20
15.7201934753
 10
5.2667625433
 20
15.7316188171
 10
5.2584583752
 20
15.7435132499
 10
5.2508629914
 20
15.7558634768
 10
5.2440013638
 20
15.7686260394
 10
5.2378946127
 20
15.781758515
 10
5.2325481996
 20
15.7952537861
 10
5.2279754249
 20
15.8091017408
 10
5.2242108842
 20
15.8232251284
 10
5.2212837399
 20
15.8375137869
 10
5.2192008648
 20
15.8518967019
 10
5.2179589406
 20
15.8663454114
 10
5.2175566123
 20
15.8808109007
  0
LWPOLYLINE
  5
5C6
100
AcDbEntity
  8
ASSI
100
AcDbPolyline
 62
250
  6
CONTINUOUS
 90
25
 70
0
 10
-5.6782014026
 20
15.6580378297
 10
-5.6945359003
 20
15.6585825562
 10
-5.7108005054
 20
15.6601944975
 10
-5.7269256244
 20
15.6628667565
 10
-5.7428422604
 20
15.6665878991
 10
-5.758482309
 20
15.671342003
 10
-5.7737788488
 20
15.6771087263
 10
-5.7886664285
 20
15.683863394
 10
-5.8030813467
 20
15.6915771042
 10
-5.8169619243
 20
15.7002168511
 10
-5.8302487685
 20
15.7097456666
 10
-5.8428850273
 20
15.7201227786
 10
-5.854816632
 20
15.731303785
 10
-5.8659925295
 20
15.7432408443
 10
-5.8763648997
 20
15.7558828796
 10
-5.8858893612
 20
15.7691757979
 10
-5.8945251602
 20
15.7830627209
 10
-5.9022353457
 20
15.7974842288
 10
-5.908986927
 20
15.8123786144
 10
-5.9147510152
 20
15.827682147
 10
-5.9195029468
 20
15.8433293453
 10
-5.9232223891
 20
15.8592532576
 10
-5.925893427
 20
15.8753857481
 10
-5.9275046318
 20
15.8916577885
 10
-5.9280491093
 20
15.9079997535
  0
LWPOLYLINE
  5
5C7
100
AcDbEntity
  8
ASSI
100
AcDbPolyline
 62
250
  6
CONTINUOUS
 90
25
 70
0
 10
5.5217985974
 20
15.6580378297
 10
5.5054640997
 20
15.6585825562
 10
5.4891994946
 20
15.6601944975
 10
5.4730743756
 20
15.6628667565
 10
5.4571577396
 20
15.6665878991
 10
5.441517691
 20
15.671342003
 10
5.4262211512
 20
15.6771087263
 10
5.4113335715
 20
15.683863394
 10
5.3969186533
 20
15.6915771042
 10
5.3830380757
 20
15.7002168511
 10
5.3697512315
 20
15.7097456666
 10
5.3571149727
 20
15.7201227786
 10
5.345183368
 20
15.731303785
 10
5.3340074705
 20
15.7432408443
 10
5.3236351003
 20
15.7558828796
 10
5.3141106388
 20
15.7691757979
 10
5.3054748398
 20
15.7830627209
 10
5.2977646543
 20
15.7974842288
 10
5.291013073
 20
15.8123786144
 10
5.2852489848
 20
15.827682147
 10
5.2804970532
 20
15.8433293453
 10
5.2767776109
 20
15.8592532576
 10
5.274106573
 20
15.8753857481
 10
5.2724953682
 20
15.8916577885
 10
5.2719508907
 20
15.9079997535
  0
LWPOLYLINE
  5
5C8
100
AcDbEntity
  8
ASSI
100
AcDbPolyline
 62
250
  6
CONTINUOUS
 90
25
 70
0
 10
-5.6185633706
 20
17.389777783
 10
-5.6348415366
 20
17.390398072
 10
-5.6510505336
 20
17.3920618834
 10
-5.6671214865
 20
17.3947621474
 10
-5.682986107
 20
17.3984873899
 10
-5.6985769831
 20
17.4032217818
 10
-5.7138278665
 20
17.4089452058
 10
-5.7286739532
 20
17.4156333418
 10
-5.7430521595
 20
17.4232577709
 10
-5.7569013895
 20
17.4317860953
 10
-5.7701627955
 20
17.4411820767
 10
-5.7827800271
 20
17.4514057897
 10
-5.7946994715
 20
17.4624137918
 10
-5.8058704806
 20
17.4741593081
 10
-5.8162455867
 20
17.4865924295
 10
-5.8257807041
 20
17.4996603255
 10
-5.8344353163
 20
17.5133074682
 10
-5.8421726483
 20
17.5274758682
 10
-5.8489598225
 20
17.5421053213
 10
-5.8547679992
 20
17.5571336644
 10
-5.8595724981
 20
17.572497039
 10
-5.8633529042
 20
17.5881301635
 10
-5.8660931538
 20
17.6039666097
 10
-5.867781603
 20
17.6199390857
 10
-5.8684110773
 20
17.6359797212
  0
LWPOLYLINE
  5
5C9
100
AcDbEntity
  8
ASSI
100
AcDbPolyline
 62
250
  6
CONTINUOUS
 90
13
 70
0
 10
5.97440272
 20
15.9079997535
 10
5.9743019756
 20
15.9081345664
 10
5.9742022825
 20
15.9084315757
 10
5.9741036407
 20
15.9088907813
 10
5.97400572
 20
15.9095147678
 10
5.9739088505
 20
15.9103009507
 10
5.9738140224
 20
15.9112415762
 10
5.9737212664
 20
15.9123381569
 10
5.9736305517
 20
15.9135891802
 10
5.9735427759
 20
15.9149823547
 10
5.973457968
 20
15.9165191081
 10
5.9733760989
 20
15.9181980129
 10
5.9732979792
 20
15.9200024945
  0
LINE
  5
5CA
100
AcDbEntity
  8
ASSI
100
AcDbLine
 62
7
  6
CONTINUOUS
 10
5.9433091793
 20
20.599557511
 11
6.0172898825
 21
20.339434716
  0
LINE
  5
5CB
100
AcDbEntity
  8
ASSI
100
AcDbLine
 62
7
  6
CONTINUOUS
 10
7.4809118322
 20
20.611835967
 11
7.9068952821
 21
20.702429483
  0
LWPOLYLINE
  5
5CC
100
AcDbEntity
  8
ASSI
100
AcDbPolyline
 62
250
  6
CONTINUOUS
 90
25
 70
0
 10
-5.5350830188
 20
17.389777783
 10
-5.5188047965
 20
17.390398076
 10
-5.5025957467
 20
17.3920618983
 10
-5.4865247448
 20
17.3947621794
 10
-5.4706600794
 20
17.3984874448
 10
-5.4550691632
 20
17.4032218646
 10
-5.4398182474
 20
17.4089453198
 10
-5.4249721362
 20
17.4156334892
 10
-5.410593913
 20
17.4232579528
 10
-5.3967446747
 20
17.4317863109
 10
-5.3834832691
 20
17.4411823235
 10
-5.3708660455
 20
17.4514060644
 10
-5.3589466165
 20
17.4624140895
 10
-5.3477756294
 20
17.4741596223
 10
-5.3374005505
 20
17.4865927532
 10
-5.3278654641
 20
17.499660651
 10
-5.3192108856
 20
17.5133077869
 10
-5.3114735885
 20
17.5274761714
 10
-5.3046864483
 20
17.5421056011
 10
-5.2988783038
 20
17.5571339125
 10
-5.2940738336
 20
17.5724972476
 10
-5.2902934514
 20
17.5881303268
 10
-5.2875532198
 20
17.6039667231
 10
-5.2858647821
 20
17.6199391444
 10
-5.285235312
 20
17.6359797212
  0
LWPOLYLINE
  5
5CD
100
AcDbEntity
  8
ASSI
100
AcDbPolyline
 62
250
  6
CONTINUOUS
 90
25
 70
0
 10
5.5827158813
 20
18.094011432
 10
5.5666956233
 20
18.0935799538
 10
5.5507412357
 20
18.0927158513
 10
5.5349183148
 20
18.0914226773
 10
5.5192919157
 20
18.0897057489
 10
5.5039262868
 20
18.0875721257
 10
5.4888846057
 20
18.0850305805
 10
5.474228716
 20
18.0820915634
 10
5.4600188745
 20
18.0787671585
 10
5.4463135055
 20
18.0750710348
 10
5.4331689581
 20
18.0710183893
 10
5.4206392746
 20
18.0666258848
 10
5.4087759702
 20
18.0619115815
 10
5.3976278198
 20
18.0568948627
 10
5.3872406573
 20
18.0515963548
 10
5.3776571879
 20
18.0460378426
 10
5.3689168126
 20
18.0402421802
 10
5.361055466
 20
18.0342331962
 10
5.3541054678
 20
18.0280355962
 10
5.3480953917
 20
18.0216748615
 10
5.3430499468
 20
18.015177144
 10
5.3389898756
 20
18.0085691579
 10
5.3359318703
 20
18.0018780713
 10
5.333888503
 20
17.9951313947
 10
5.3328681745
 20
17.9883568666
  0
LWPOLYLINE
  5
5CE
100
AcDbEntity
  8
ASSI
100
AcDbPolyline
 62
250
  6
CONTINUOUS
 90
25
 70
0
 10
-5.6172841187
 20
18.094011432
 10
-5.6333043767
 20
18.0935799538
 10
-5.6492587643
 20
18.0927158513
 10
-5.6650816852
 20
18.0914226773
 10
-5.6807080843
 20
18.0897057489
 10
-5.6960737132
 20
18.0875721257
 10
-5.7111153943
 20
18.0850305805
 10
-5.725771284
 20
18.0820915634
 10
-5.7399811255
 20
18.0787671585
 10
-5.7536864945
 20
18.0750710348
 10
-5.7668310419
 20
18.0710183893
 10
-5.7793607254
 20
18.0666258848
 10
-5.7912240298
 20
18.0619115815
 10
-5.8023721802
 20
18.0568948627
 10
-5.8127593427
 20
18.0515963548
 10
-5.8223428121
 20
18.0460378426
 10
-5.8310831874
 20
18.0402421802
 10
-5.838944534
 20
18.0342331962
 10
-5.8458945322
 20
18.0280355962
 10
-5.8519046083
 20
18.0216748615
 10
-5.8569500532
 20
18.015177144
 10
-5.8610101244
 20
18.0085691579
 10
-5.8640681297
 20
18.0018780713
 10
-5.866111497
 20
17.9951313947
 10
-5.8671318255
 20
17.9883568666
  0
LINE
  5
5CF
100
AcDbEntity
  8
ASSI
100
AcDbLine
 62
250
  6
CONTINUOUS
 10
-5.6185633706
 20
17.389777783
 11
-5.5350830188
 21
17.389777783
  0
LINE
  5
5D0
100
AcDbEntity
  8
ASSI
100
AcDbLine
 62
250
  6
CONTINUOUS
 10
5.5814366294
 20
17.389777783
 11
5.6649169812
 21
17.389777783
  0
LINE
  5
5D1
100
AcDbEntity
  8
ASSI
100
AcDbLine
 62
250
  6
CONTINUOUS
 10
-5.8669682353
 20
17.6852201089
 11
-5.2866781541
 21
17.6852201089
  0
LINE
  5
5D2
100
AcDbEntity
  8
ASSI
100
AcDbLine
 62
250
  6
CONTINUOUS
 10
5.3330317647
 20
17.6852201089
 11
5.9133218459
 21
17.6852201089
  0
LINE
  5
5D3
100
AcDbEntity
  8
ASSI
100
AcDbLine
 62
250
  6
CONTINUOUS
 10
-5.8669682353
 20
17.9672259535
 11
-5.2866781541
 21
17.9672259535
  0
LINE
  5
5D4
100
AcDbEntity
  8
ASSI
100
AcDbLine
 62
250
  6
CONTINUOUS
 10
5.3330317647
 20
17.9672259535
 11
5.9133218459
 21
17.9672259535
  0
LINE
  5
5D5
100
AcDbEntity
  8
ASSI
100
AcDbLine
 62
250
  6
CONTINUOUS
 10
-5.6172841187
 20
18.094011432
 11
-5.5363622706
 21
18.094011432
  0
LINE
  5
5D6
100
AcDbEntity
  8
ASSI
100
AcDbLine
 62
250
  6
CONTINUOUS
 10
5.5827158813
 20
18.094011432
 11
5.6636377294
 21
18.094011432
  0
LWPOLYLINE
  5
5D7
100
AcDbEntity
  8
ASSI
100
AcDbPolyline
 62
250
  6
CONTINUOUS
 90
25
 70
0
 10
-5.5363622706
 20
18.094011432
 10
-5.5203420723
 20
18.0935799573
 10
-5.5043877404
 20
18.0927158612
 10
-5.4885648709
 20
18.0914226963
 10
-5.4729385188
 20
18.0897057795
 10
-5.4575729315
 20
18.0875721698
 10
-5.4425312841
 20
18.0850306395
 10
-5.4278754199
 20
18.082091638
 10
-5.4136655959
 20
18.078767249
 10
-5.3999602354
 20
18.0750711406
 10
-5.3868156876
 20
18.0710185091
 10
-5.3742859959
 20
18.0666260169
 10
-5.3624226757
 20
18.0619117236
 10
-5.3512745026
 20
18.0568950117
 10
-5.3408873121
 20
18.0515965075
 10
-5.3313038107
 20
18.0460379954
 10
-5.3225634007
 20
18.0402423292
 10
-5.314702018
 20
18.0342333376
 10
-5.3077519845
 20
18.0280357263
 10
-5.3017418749
 20
18.0216749766
 10
-5.2966963998
 20
18.0151772406
 10
-5.2926363033
 20
18.0085692334
 10
-5.2895782784
 20
18.0018781238
 10
-5.2875348982
 20
17.9951314219
 10
-5.2865145639
 20
17.9883568666
  0
LWPOLYLINE
  5
5D8
100
AcDbEntity
  8
ASSI
100
AcDbPolyline
 62
250
  6
CONTINUOUS
 90
25
 70
0
 10
5.6636377294
 20
18.094011432
 10
5.6796579277
 20
18.0935799573
 10
5.6956122596
 20
18.0927158612
 10
5.7114351291
 20
18.0914226963
 10
5.7270614812
 20
18.0897057795
 10
5.7424270685
 20
18.0875721698
 10
5.7574687159
 20
18.0850306395
 10
5.7721245801
 20
18.082091638
 10
5.7863344041
 20
18.078767249
 10
5.8000397646
 20
18.0750711406
 10
5.8131843124
 20
18.0710185091
 10
5.8257140041
 20
18.0666260169
 10
5.8375773243
 20
18.0619117236
 10
5.8487254974
 20
18.0568950117
 10
5.8591126879
 20
18.0515965075
 10
5.8686961893
 20
18.0460379954
 10
5.8774365993
 20
18.0402423292
 10
5.885297982
 20
18.0342333376
 10
5.8922480155
 20
18.0280357263
 10
5.8982581251
 20
18.0216749766
 10
5.9033036002
 20
18.0151772406
 10
5.9073636967
 20
18.0085692334
 10
5.9104217216
 20
18.0018781238
 10
5.9124651018
 20
17.9951314219
 10
5.9134854361
 20
17.9883568666
  0
LWPOLYLINE
  5
5D9
100
AcDbEntity
  8
ASSI
100
AcDbPolyline
 62
250
  6
CONTINUOUS
 90
25
 70
0
 10
5.5814366294
 20
17.389777783
 10
5.5651584634
 20
17.390398072
 10
5.5489494664
 20
17.3920618834
 10
5.5328785135
 20
17.3947621474
 10
5.517013893
 20
17.3984873899
 10
5.5014230169
 20
17.4032217818
 10
5.4861721335
 20
17.4089452058
 10
5.4713260468
 20
17.4156333418
 10
5.4569478405
 20
17.4232577709
 10
5.4430986105
 20
17.4317860953
 10
5.4298372045
 20
17.4411820767
 10
5.4172199729
 20
17.4514057897
 10
5.4053005285
 20
17.4624137918
 10
5.3941295194
 20
17.4741593081
 10
5.3837544133
 20
17.4865924295
 10
5.3742192959
 20
17.4996603255
 10
5.3655646837
 20
17.5133074682
 10
5.3578273517
 20
17.5274758682
 10
5.3510401775
 20
17.5421053213
 10
5.3452320008
 20
17.5571336644
 10
5.3404275019
 20
17.572497039
 10
5.3366470958
 20
17.5881301635
 10
5.3339068462
 20
17.6039666097
 10
5.332218397
 20
17.6199390857
 10
5.3315889227
 20
17.6359797212
  0
LINE
  5
5DA
100
AcDbEntity
  8
ASSI
100
AcDbLine
 62
250
  6
CONTINUOUS
 10
5.7790724774
 20
15.6307874028
 11
5.7245554716
 21
15.6580376006
  0
LINE
  5
5DB
100
AcDbEntity
  8
ASSI
100
AcDbLine
 62
250
  6
CONTINUOUS
 10
6.0287969984
 20
15.8808109007
 11
5.97440272
 21
15.9079997535
  0
LINE
  5
5DC
100
AcDbEntity
  8
ASSI
100
AcDbLine
 62
7
  6
CONTINUOUS
 10
-3.7190881678
 20
20.611835967
 11
-3.2931047179
 21
20.702429483
  0
LWPOLYLINE
  5
5DD
100
AcDbEntity
  8
ASSI
100
AcDbPolyline
 62
250
  6
CONTINUOUS
 90
13
 70
0
 10
-9.7375822921
 20
20.147185
 10
-9.7488688364
 20
20.1467913272
 10
-9.7594180952
 20
20.1463655831
 10
-9.7691723747
 20
20.1459100962
 10
-9.7780783291
 20
20.1454273563
 10
-9.7860872519
 20
20.1449200039
 10
-9.7931553425
 20
20.1443908155
 10
-9.7992439457
 20
20.1438426826
 10
-9.804319763
 20
20.143278603
 10
-9.808355035
 20
20.1427016659
 10
-9.8113276928
 20
20.1421150257
 10
-9.8132214791
 20
20.1415218855
 10
-9.8140260367
 20
20.1409254857
  0
LINE
  5
5DE
100
AcDbEntity
  8
ASSI
100
AcDbLine
 62
250
  6
CONTINUOUS
 10
-9.7130479446
 20
20.1478677042
 11
-9.7375822921
 21
20.147185
  0
LINE
  5
5DF
100
AcDbEntity
  8
ASSI
100
AcDbLine
 62
250
  6
CONTINUOUS
 10
-9.6863510302
 20
20.1483987838
 11
-9.7130479446
 21
20.1478677042
  0
LINE
  5
5E0
100
AcDbEntity
  8
ASSI
100
AcDbLine
 62
250
  6
CONTINUOUS
 10
-9.6580747695
 20
20.1487666355
 11
-9.6863510302
 21
20.1483987838
  0
LINE
  5
5E1
100
AcDbEntity
  8
ASSI
100
AcDbLine
 62
250
  6
CONTINUOUS
 10
-9.6288368858
 20
20.1489632281
 11
-9.6580747695
 21
20.1487666355
  0
LINE
  5
5E2
100
AcDbEntity
  8
ASSI
100
AcDbLine
 62
250
  6
CONTINUOUS
 10
9.660410098
 20
20.1489958012
 11
6.0234171939
 21
20.1489958012
  0
LINE
  5
5E3
100
AcDbEntity
  8
ASSI
100
AcDbLine
 62
250
  6
CONTINUOUS
 10
5.2229364168
 20
20.1489958012
 11
-5.1765828061
 21
20.1489958012
  0
LINE
  5
5E4
100
AcDbEntity
  8
ASSI
100
AcDbLine
 62
250
  6
CONTINUOUS
 10
-5.9770635832
 20
20.1489958012
 11
-9.6288368858
 21
20.1489632281
  0
LINE
  5
5E5
100
AcDbEntity
  8
ASSI
100
AcDbLine
 62
250
  6
CONTINUOUS
 10
9.6604101084
 20
20.339434716
 11
6.0172898825
 21
20.339434716
  0
LINE
  5
5E6
100
AcDbEntity
  8
ASSI
100
AcDbLine
 62
250
  6
CONTINUOUS
 10
5.2290637281
 20
20.339434716
 11
-5.1827101175
 21
20.339434716
  0
LINE
  5
5E7
100
AcDbEntity
  8
ASSI
100
AcDbLine
 62
250
  6
CONTINUOUS
 10
-5.9709362719
 20
20.339434716
 11
-9.6140564977
 21
20.339434716
  0
LINE
  5
5E8
100
AcDbEntity
  8
ASSI
100
AcDbLine
 62
7
  6
CONTINUOUS
 10
-5.4989309654
 20
20.3926919649
 11
-5.6547154239
 21
20.3926919649
  0
LINE
  5
5E9
100
AcDbEntity
  8
ASSI
100
AcDbLine
 62
7
  6
CONTINUOUS
 10
5.5452845761
 20
20.3926919649
 11
5.7010690346
 21
20.3926919649
  0
LINE
  5
5EA
100
AcDbEntity
  8
ASSI
100
AcDbLine
 62
7
  6
CONTINUOUS
 10
-7.2613531408
 20
20.599557511
 11
-5.8969555687
 21
20.599557511
  0
LINE
  5
5EB
100
AcDbEntity
  8
ASSI
100
AcDbLine
 62
7
  6
CONTINUOUS
 10
-5.2566908207
 20
20.599557511
 11
-3.8922932485
 21
20.599557511
  0
LINE
  5
5EC
100
AcDbEntity
  8
ASSI
100
AcDbLine
 62
7
  6
CONTINUOUS
 10
3.9386468592
 20
20.599557511
 11
5.3030444313
 21
20.599557511
  0
LINE
  5
5ED
100
AcDbEntity
  8
ASSI
100
AcDbLine
 62
7
  6
CONTINUOUS
 10
5.9433091793
 20
20.599557511
 11
7.3077067515
 21
20.599557511
  0
LINE
  5
5EE
100
AcDbEntity
  8
ASSI
100
AcDbLine
 62
7
  6
CONTINUOUS
 10
-9.6656598685
 20
20.702429483
 11
-7.8605416715
 21
20.702429483
  0
LINE
  5
5EF
100
AcDbEntity
  8
ASSI
100
AcDbLine
 62
7
  6
CONTINUOUS
 10
-3.2931047179
 20
20.702429483
 11
3.3394583285
 21
20.702429483
  0
LINE
  5
5F0
100
AcDbEntity
  8
ASSI
100
AcDbLine
 62
7
  6
CONTINUOUS
 10
7.9068952821
 20
20.702429483
 11
9.7120134792
 21
20.702429483
  0
LWPOLYLINE
  5
5F1
100
AcDbEntity
  8
ASSI
100
AcDbPolyline
 62
250
  6
CONTINUOUS
 90
3
 70
0
 10
9.7044283802
 20
20.1487666355
 10
9.675156689
 20
20.1488605981
 10
9.6604101084
 20
20.1489958012
  0
LINE
  5
5F2
100
AcDbEntity
  8
ASSI
100
AcDbLine
 62
250
  6
CONTINUOUS
 10
9.7187324089
 20
20.1486216323
 11
9.7044283802
 21
20.1487666355
  0
LWPOLYLINE
  5
5F3
100
AcDbEntity
  8
ASSI
100
AcDbPolyline
 62
250
  6
CONTINUOUS
 90
3
 70
0
 10
9.7839359027
 20
20.147185
 10
9.7594082437
 20
20.1478846944
 10
9.7187324089
 20
20.1486216323
  0
LWPOLYLINE
  5
5F4
100
AcDbEntity
  8
ASSI
100
AcDbPolyline
 62
250
  6
CONTINUOUS
 90
25
 70
0
 10
9.6604101084
 20
20.339434716
 10
9.6734710878
 20
20.3389832656
 10
9.6864762894
 20
20.3376859958
 10
9.6993701736
 20
20.3355484466
 10
9.7120976762
 20
20.3325797466
 10
9.7246044434
 20
20.3287925738
 10
9.7368370643
 20
20.3242031017
 10
9.7487432986
 20
20.3188309298
 10
9.7602722998
 20
20.3126990004
 10
9.7713748327
 20
20.3058335004
 10
9.7820034831
 20
20.2982637492
 10
9.7921128606
 20
20.2900220742
 10
9.8016597923
 20
20.2811436718
 10
9.8106035075
 20
20.271666458
 10
9.8189058114
 20
20.2616309059
 10
9.8265312485
 20
20.2510798729
 10
9.8334472538
 20
20.240058418
 10
9.8396242919
 20
20.228613609
 10
9.8450359835
 20
20.2167943219
 10
9.8496592176
 20
20.2046510316
 10
9.8534742502
 20
20.192235597
 10
9.8564647891
 20
20.179601039
 10
9.8586180629
 20
20.1668013144
 10
9.859924876
 20
20.1538910853
 10
9.8603796474
 20
20.1409254857
  0
LWPOLYLINE
  5
5F5
100
AcDbEntity
  8
ASSI
100
AcDbPolyline
 62
250
  6
CONTINUOUS
 90
3
 70
0
 10
9.8155259854
 20
20.1459100962
 10
9.7952305439
 20
20.1468109869
 10
9.7839359027
 20
20.147185
  0
LINE
  5
5F6
100
AcDbEntity
  8
ASSI
100
AcDbLine
 62
250
  6
CONTINUOUS
 10
9.8244421257
 20
20.1454547513
 11
9.8155259854
 21
20.1459100962
  0
LINE
  5
5F7
100
AcDbEntity
  8
ASSI
100
AcDbLine
 62
7
  6
CONTINUOUS
 10
-7.4345582216
 20
20.611835967
 11
-7.8605416715
 21
20.702429483
  0
LINE
  5
5F8
100
AcDbEntity
  8
ASSI
100
AcDbLine
 62
250
  6
CONTINUOUS
 10
5.7245554716
 20
-15.590568896
 11
5.7790724774
 21
-15.5633186982
  0
LINE
  5
5F9
100
AcDbEntity
  8
ASSI
100
AcDbLine
 62
250
  6
CONTINUOUS
 10
5.97440272
 20
-15.8405310489
 11
6.0287969984
 21
-15.8133421961
  0
LINE
  5
5FA
100
AcDbEntity
  8
ASSI
100
AcDbLine
 62
7
  6
CONTINUOUS
 10
7.8316017983
 20
22.193047058
 11
7.4809118322
 21
22.1612139
  0
LINE
  5
5FB
100
AcDbEntity
  8
ASSI
100
AcDbLine
 62
7
  6
CONTINUOUS
 10
-3.3683982017
 20
22.193047058
 11
-3.7190881678
 21
22.1612139
  0
LINE
  5
5FC
100
AcDbEntity
  8
ASSI
100
AcDbLine
 62
7
  6
CONTINUOUS
 10
-7.2613531408
 20
22.1559731221
 11
-3.8922932485
 21
22.1559731221
  0
LINE
  5
5FD
100
AcDbEntity
  8
ASSI
100
AcDbLine
 62
7
  6
CONTINUOUS
 10
3.9386468592
 20
22.1559731221
 11
7.3077067515
 21
22.1559731221
  0
LINE
  5
5FE
100
AcDbEntity
  8
ASSI
100
AcDbLine
 62
7
  6
CONTINUOUS
 10
-10.6133691341
 20
22.193047058
 11
-7.7852481877
 21
22.193047058
  0
LINE
  5
5FF
100
AcDbEntity
  8
ASSI
100
AcDbLine
 62
7
  6
CONTINUOUS
 10
-3.3683982017
 20
22.193047058
 11
3.4147518123
 21
22.193047058
  0
LINE
  5
600
100
AcDbEntity
  8
ASSI
100
AcDbLine
 62
7
  6
CONTINUOUS
 10
7.8316017983
 20
22.193047058
 11
10.6597227447
 21
22.193047058
  0
LINE
  5
601
100
AcDbEntity
  8
ASSI
100
AcDbLine
 62
7
  6
CONTINUOUS
 10
-7.7852481877
 20
22.193047058
 11
-7.4345582216
 21
22.1612139
  0
LINE
  5
602
100
AcDbEntity
  8
ASSI
100
AcDbLine
 62
7
  6
CONTINUOUS
 10
3.4147518123
 20
22.193047058
 11
3.7654417784
 21
22.1612139
  0
LINE
  5
603
100
AcDbEntity
  8
ASSI
100
AcDbLine
 62
7
  6
CONTINUOUS
 10
3.7654417784
 20
20.611835967
 11
3.3394583285
 21
20.702429483
  0
LWPOLYLINE
  5
604
100
AcDbEntity
  8
ASSI
100
AcDbPolyline
 62
250
  6
CONTINUOUS
 90
8
 70
0
 10
9.8603796474
 20
20.1409254857
 10
9.8595639802
 20
20.1416347009
 10
9.8576658264
 20
20.1422033962
 10
9.8547086456
 20
20.1427016659
 10
9.8506891593
 20
20.1432674861
 10
9.8456068986
 20
20.1438816949
 10
9.8395089532
 20
20.1443908155
 10
9.8244421257
 20
20.1454547513
  0
ARC
  5
605
100
AcDbEntity
  8
ASSI
100
AcDbCircle
 62
7
  6
CONTINUOUS
 10
0.0231768053
 20
0.0337343523
 40
2.95
100
AcDbArc
 50
205.6291347882
 51
334.3708652118
  0
ARC
  5
606
100
AcDbEntity
  8
ASSI
100
AcDbCircle
 62
7
  6
CONTINUOUS
 10
0.0231768053
 20
0.0337343523
 40
2.95
100
AcDbArc
 50
25.6291347882
 51
154.3708652118
  0
ARC
  5
607
100
AcDbEntity
  8
ASSI
100
AcDbCircle
 62
7
  6
CONTINUOUS
 10
0.0231768053
 20
0.0337343523
 40
2.3052365195
100
AcDbArc
 50
183.1594622934
 51
356.8405377066
  0
ARC
  5
608
100
AcDbEntity
  8
ASSI
100
AcDbCircle
 62
7
  6
CONTINUOUS
 10
0.0231768053
 20
0.0337343523
 40
2.3052365195
100
AcDbArc
 50
3.1594622934
 51
176.8405377066
  0
ARC
  5
609
100
AcDbEntity
  8
ASSI
100
AcDbCircle
 62
7
  6
CONTINUOUS
 10
0.0231768053
 20
0.0337343523
 40
2.3
100
AcDbArc
 50
183.2319837745
 51
356.7680162255
  0
ARC
  5
60A
100
AcDbEntity
  8
ASSI
100
AcDbCircle
 62
7
  6
CONTINUOUS
 10
0.0231768053
 20
0.0337343523
 40
2.3
100
AcDbArc
 50
3.2319837745
 51
176.7680162255
  0
ARC
  5
60B
100
AcDbEntity
  8
ASSI
100
AcDbCircle
 62
7
  6
CONTINUOUS
 10
0.0231768053
 20
0.0337343523
 40
1.9273811542
100
AcDbArc
 50
183.8576891981
 51
356.1423108019
  0
ARC
  5
60C
100
AcDbEntity
  8
ASSI
100
AcDbCircle
 62
7
  6
CONTINUOUS
 10
0.0231768053
 20
0.0337343523
 40
1.9273811542
100
AcDbArc
 50
3.8576891981
 51
176.1423108019
  0
ARC
  5
60D
100
AcDbEntity
  8
ASSI
100
AcDbCircle
 62
7
  6
CONTINUOUS
 10
0.0231768053
 20
0.0337343523
 40
1.875
100
AcDbArc
 50
184.3667008241
 51
355.6332991759
  0
ARC
  5
60E
100
AcDbEntity
  8
ASSI
100
AcDbCircle
 62
7
  6
CONTINUOUS
 10
0.0231768053
 20
0.0337343523
 40
1.875
100
AcDbArc
 50
4.3667008241
 51
175.6332991759
  0
ARC
  5
60F
100
AcDbEntity
  8
ASSI
100
AcDbCircle
 62
7
  6
CONTINUOUS
 10
0.0231768053
 20
0.0337343523
 40
1.375
100
AcDbArc
 50
195.3271627815
 51
344.6728372185
  0
ARC
  5
610
100
AcDbEntity
  8
ASSI
100
AcDbCircle
 62
7
  6
CONTINUOUS
 10
0.0231768053
 20
0.0337343523
 40
1.375
100
AcDbArc
 50
15.3271627815
 51
164.6728372185
  0
ELLIPSE
  5
611
100
AcDbEntity
  8
ASSI
100
AcDbEllipse
 62
7
  6
CONTINUOUS
 10
10.6600270992
 20
-21.627177392
 30
0.0
 11
0.498078285
 21
0.0448076117
 31
0.0
 40
0.9965957691
 41
-1.6608206152
 42
-0.0909376769
  0
ELLIPSE
  5
612
100
AcDbEntity
  8
ASSI
100
AcDbEllipse
 62
7
  6
CONTINUOUS
 10
-10.6136734885
 20
-21.627177392
 30
0.0
 11
0.498078285
 21
-0.0448076117
 31
0.0
 40
0.9965957691
 41
-3.0506549766
 42
-1.4807720384
  0
ELLIPSE
  5
613
100
AcDbEntity
  8
ASSI
100
AcDbEllipse
 62
7
  6
CONTINUOUS
 10
10.9731463397
 20
-0.2662732634
 30
0.0
 11
-0.1789222233
 21
-0.0894542984
 31
0.0
 40
0.9998096356
 41
2.6780516535
 42
4.2486956813
  0
ELLIPSE
  5
614
100
AcDbEntity
  8
ASSI
100
AcDbEllipse
 62
7
  6
CONTINUOUS
 10
-10.9267927291
 20
-0.2662732634
 30
0.0
 11
-0.1789222233
 21
0.0894542984
 31
0.0
 40
0.9998096356
 41
-1.1071030277
 42
0.4635410001
  0
ELLIPSE
  5
615
100
AcDbEntity
  8
ASSI
100
AcDbEllipse
 62
7
  6
CONTINUOUS
 10
-7.2613531408
 20
-22.0989859733
 30
0.0
 11
0.2
 21
-0.0
 31
0.0
 40
0.0524077793
 41
1.5707963268
 42
2.617993878
  0
ELLIPSE
  5
616
100
AcDbEntity
  8
ASSI
100
AcDbEllipse
 62
7
  6
CONTINUOUS
 10
-3.8922932485
 20
-22.0989859733
 30
0.0
 11
0.2
 21
0.0
 31
0.0
 40
0.0524077793
 41
0.5235987756
 42
1.5707963268
  0
ELLIPSE
  5
617
100
AcDbEntity
  8
ASSI
100
AcDbEllipse
 62
7
  6
CONTINUOUS
 10
3.9386468592
 20
-22.0989859733
 30
0.0
 11
0.2
 21
0.0
 31
0.0
 40
0.0524077793
 41
1.5707963268
 42
2.617993878
  0
ELLIPSE
  5
618
100
AcDbEntity
  8
ASSI
100
AcDbEllipse
 62
7
  6
CONTINUOUS
 10
7.3077067515
 20
-22.0989859733
 30
0.0
 11
0.2
 21
-0.0
 31
0.0
 40
0.0524077793
 41
0.5235987756
 42
1.5707963268
  0
ELLIPSE
  5
619
100
AcDbEntity
  8
ASSI
100
AcDbEllipse
 62
7
  6
CONTINUOUS
 10
5.5531968174
 20
-19.7336728645
 30
0.0
 11
0.0096324734
 21
0.5915363915
 31
0.0
 40
0.4225722455
 41
-4.6738730357
 42
-3.1347116709
  0
ELLIPSE
  5
61A
100
AcDbEntity
  8
ASSI
100
AcDbEllipse
 62
7
  6
CONTINUOUS
 10
-24.1204083347
 20
0.0337343523
 30
0.0
 11
0.0
 21
498.5
 31
0.0
 40
0.0349207695
 41
-1.5826589448
 42
-1.5734329556
  0
ELLIPSE
  5
61B
100
AcDbEntity
  8
ASSI
100
AcDbEllipse
 62
7
  6
CONTINUOUS
 10
-5.5068432068
 20
-19.7336728645
 30
0.0
 11
-0.0096324734
 21
0.5915363915
 31
0.0
 40
0.4225722455
 41
-3.1484736363
 42
-1.6093122714
  0
ELLIPSE
  5
61C
100
AcDbEntity
  8
ASSI
100
AcDbEllipse
 62
7
  6
CONTINUOUS
 10
-5.6468031826
 20
-19.7336728645
 30
0.0
 11
0.0096324734
 21
0.5915363915
 31
0.0
 40
0.4225722455
 41
-4.6738730357
 42
-3.1347116709
  0
ELLIPSE
  5
61D
100
AcDbEntity
  8
ASSI
100
AcDbEllipse
 62
7
  6
CONTINUOUS
 10
-5.4858907451
 20
-17.3201223007
 30
0.0
 11
0.0493464685
 21
0.2491672984
 31
0.0
 40
0.9842259085
 41
0.1636613736
 42
0.1925076875
  0
ELLIPSE
  5
61E
100
AcDbEntity
  8
ASSI
100
AcDbEllipse
 62
7
  6
CONTINUOUS
 10
-5.6677556443
 20
-17.3201223007
 30
0.0
 11
-0.0493464685
 21
0.2491672984
 31
0.0
 40
0.9842259085
 41
-0.1925076875
 42
-0.1636613736
  0
ELLIPSE
  5
61F
100
AcDbEntity
  8
ASSI
100
AcDbEllipse
 62
7
  6
CONTINUOUS
 10
5.7141092549
 20
-17.3201223007
 30
0.0
 11
0.0493464685
 21
0.2491672984
 31
0.0
 40
0.9842259085
 41
0.1636613736
 42
0.1925076875
  0
ELLIPSE
  5
620
100
AcDbEntity
  8
ASSI
100
AcDbEllipse
 62
7
  6
CONTINUOUS
 10
5.5322443557
 20
-17.3201223007
 30
0.0
 11
-0.0493464685
 21
0.2491672984
 31
0.0
 40
0.9842259085
 41
-0.1925076875
 42
-0.1636613736
  0
ELLIPSE
  5
621
100
AcDbEntity
  8
ASSI
100
AcDbEllipse
 62
7
  6
CONTINUOUS
 10
24.1667619453
 20
0.0337343523
 30
0.0
 11
0.0
 21
498.5
 31
0.0
 40
0.0349207695
 41
-4.7097523516
 42
-4.7005263624
  0
ELLIPSE
  5
622
100
AcDbEntity
  8
ASSI
100
AcDbEllipse
 62
7
  6
CONTINUOUS
 10
-9.8204083347
 20
0.0337343523
 30
0.0
 11
0.0
 21
498.5
 31
0.0
 40
0.0349207695
 41
-1.5826589448
 42
-1.5734329556
  0
ELLIPSE
  5
623
100
AcDbEntity
  8
ASSI
100
AcDbEllipse
 62
7
  6
CONTINUOUS
 10
5.6931567932
 20
-19.7336728645
 30
0.0
 11
-0.0096324734
 21
0.5915363915
 31
0.0
 40
0.4225722455
 41
-3.1484736363
 42
-1.6093122714
  0
ELLIPSE
  5
624
100
AcDbEntity
  8
ASSI
100
AcDbEllipse
 62
7
  6
CONTINUOUS
 10
-22.5704083347
 20
0.0337343523
 30
0.0
 11
0.0
 21
498.5
 31
0.0
 40
0.0349207695
 41
-1.6111588629
 42
-1.6025912052
  0
ELLIPSE
  5
625
100
AcDbEntity
  8
ASSI
100
AcDbEllipse
 62
7
  6
CONTINUOUS
 10
-5.1835612717
 20
-20.0734567811
 30
0.0
 11
-0.0
 21
0.2
 31
0.0
 40
0.0349207695
 41
-3.019419606
 42
-1.6111588629
  0
ELLIPSE
  5
626
100
AcDbEntity
  8
ASSI
100
AcDbEllipse
 62
7
  6
CONTINUOUS
 10
-5.9700851176
 20
-20.0734567811
 30
0.0
 11
-0.0
 21
0.2
 31
0.0
 40
0.0349207695
 41
-4.6720264443
 42
-3.2637657012
  0
ELLIPSE
  5
627
100
AcDbEntity
  8
ASSI
100
AcDbEllipse
 62
7
  6
CONTINUOUS
 10
11.4167619453
 20
0.0337343523
 30
0.0
 11
0.0
 21
498.5
 31
0.0
 40
0.0349207695
 41
-4.680594102
 42
-4.6720264443
  0
ELLIPSE
  5
628
100
AcDbEntity
  8
ASSI
100
AcDbEllipse
 62
7
  6
CONTINUOUS
 10
-11.3704083347
 20
0.0337343523
 30
0.0
 11
0.0
 21
498.5
 31
0.0
 40
0.0349207695
 41
-1.6111588629
 42
-1.6025912052
  0
ELLIPSE
  5
629
100
AcDbEntity
  8
ASSI
100
AcDbEllipse
 62
7
  6
CONTINUOUS
 10
6.0164387283
 20
-20.0734567811
 30
0.0
 11
-0.0
 21
0.2
 31
0.0
 40
0.0349207695
 41
-3.0194196059
 42
-1.6111588629
  0
ELLIPSE
  5
62A
100
AcDbEntity
  8
ASSI
100
AcDbEllipse
 62
7
  6
CONTINUOUS
 10
5.2299148824
 20
-20.0734567811
 30
0.0
 11
0.0
 21
0.2
 31
0.0
 40
0.0349207695
 41
-4.6720264443
 42
-3.2637657012
  0
ELLIPSE
  5
62B
100
AcDbEntity
  8
ASSI
100
AcDbEllipse
 62
7
  6
CONTINUOUS
 10
22.6167619453
 20
0.0337343523
 30
0.0
 11
0.0
 21
498.5
 31
0.0
 40
0.0349207695
 41
-4.680594102
 42
-4.6720264443
  0
ELLIPSE
  5
62C
100
AcDbEntity
  8
ASSI
100
AcDbEllipse
 62
7
  6
CONTINUOUS
 10
7.0868778326
 20
-1.2527474837
 30
0.0
 11
0.3
 21
-0.0
 31
0.0
 40
0.0349207695
 41
1.5707963268
 42
3.1066860685
  0
ELLIPSE
  5
62D
100
AcDbEntity
  8
ASSI
100
AcDbEllipse
 62
7
  6
CONTINUOUS
 10
-7.2613531408
 20
-20.5566457185
 30
0.0
 11
0.2
 21
0.0
 31
0.0
 40
0.1227845609
 41
1.5707963268
 42
2.617993878
  0
ELLIPSE
  5
62E
100
AcDbEntity
  8
ASSI
100
AcDbEllipse
 62
7
  6
CONTINUOUS
 10
-3.8922932485
 20
-20.5566457185
 30
0.0
 11
0.2
 21
-0.0
 31
0.0
 40
0.1227845609
 41
0.5235987756
 42
1.5707963268
  0
ELLIPSE
  5
62F
100
AcDbEntity
  8
ASSI
100
AcDbEllipse
 62
7
  6
CONTINUOUS
 10
3.9386468592
 20
-20.5566457185
 30
0.0
 11
0.2
 21
0.0
 31
0.0
 40
0.1227845609
 41
1.5707963268
 42
2.617993878
  0
ELLIPSE
  5
630
100
AcDbEntity
  8
ASSI
100
AcDbEllipse
 62
7
  6
CONTINUOUS
 10
7.3077067515
 20
-20.5566457185
 30
0.0
 11
0.2
 21
0.0
 31
0.0
 40
0.1227845609
 41
0.5235987756
 42
1.5707963268
  0
ELLIPSE
  5
631
100
AcDbEntity
  8
ASSI
100
AcDbEllipse
 62
7
  6
CONTINUOUS
 10
9.711892479
 20
-20.4356003938
 30
0.0
 11
0.1992395838
 21
-0.0178260286
 31
0.0
 40
0.9965982379
 41
-1.4812606428
 42
0.0874087691
  0
ELLIPSE
  5
632
100
AcDbEntity
  8
ASSI
100
AcDbEllipse
 62
7
  6
CONTINUOUS
 10
-9.6655388684
 20
-20.4356003938
 30
0.0
 11
0.1992395838
 21
0.0178260286
 31
0.0
 40
0.9965982379
 41
3.0541838845
 42
4.6228532963
  0
ELLIPSE
  5
633
100
AcDbEntity
  8
ASSI
100
AcDbEllipse
 62
7
  6
CONTINUOUS
 10
9.8667619453
 20
0.0337343523
 30
0.0
 11
0.0
 21
498.5
 31
0.0
 40
0.0349207695
 41
-4.7097523516
 42
-4.7005263624
  0
ELLIPSE
  5
634
100
AcDbEntity
  8
ASSI
100
AcDbEllipse
 62
7
  6
CONTINUOUS
 10
-7.2131221674
 20
-1.2527474837
 30
0.0
 11
0.3
 21
-0.0
 31
0.0
 40
0.0349207695
 41
1.5707963268
 42
3.1066860685
  0
ELLIPSE
  5
635
100
AcDbEntity
  8
ASSI
100
AcDbEllipse
 62
7
  6
CONTINUOUS
 10
-10.6136734885
 20
21.6946460966
 30
0.0
 11
0.498078285
 21
0.0448076117
 31
0.0
 40
0.9965957691
 41
1.4807720384
 42
3.0506549766
  0
ELLIPSE
  5
636
100
AcDbEntity
  8
ASSI
100
AcDbEllipse
 62
7
  6
CONTINUOUS
 10
10.6600270992
 20
21.6946460966
 30
0.0
 11
0.498078285
 21
-0.0448076117
 31
0.0
 40
0.9965957691
 41
0.0909376769
 42
1.6608206152
  0
ELLIPSE
  5
637
100
AcDbEntity
  8
ASSI
100
AcDbEllipse
 62
7
  6
CONTINUOUS
 10
-10.9267927291
 20
0.333741968
 30
0.0
 11
0.1789222233
 21
0.0894542984
 31
0.0
 40
0.9998096356
 41
2.6780516535
 42
4.2486956813
  0
ELLIPSE
  5
638
100
AcDbEntity
  8
ASSI
100
AcDbEllipse
 62
7
  6
CONTINUOUS
 10
10.9731463397
 20
0.333741968
 30
0.0
 11
0.1789222233
 21
-0.0894542984
 31
0.0
 40
0.9998096356
 41
-1.1071030277
 42
0.4635410001
  0
ELLIPSE
  5
639
100
AcDbEntity
  8
ASSI
100
AcDbEllipse
 62
7
  6
CONTINUOUS
 10
7.3077067515
 20
22.166454678
 30
0.0
 11
0.2
 21
-0.0
 31
0.0
 40
0.0524077793
 41
-1.5707963268
 42
-0.5235987756
  0
ELLIPSE
  5
63A
100
AcDbEntity
  8
ASSI
100
AcDbEllipse
 62
7
  6
CONTINUOUS
 10
3.9386468592
 20
22.166454678
 30
0.0
 11
0.2
 21
0.0
 31
0.0
 40
0.0524077793
 41
-2.617993878
 42
-1.5707963268
  0
ELLIPSE
  5
63B
100
AcDbEntity
  8
ASSI
100
AcDbEllipse
 62
7
  6
CONTINUOUS
 10
-3.8922932485
 20
22.166454678
 30
0.0
 11
0.2
 21
0.0
 31
0.0
 40
0.0524077793
 41
-1.5707963268
 42
-0.5235987756
  0
ELLIPSE
  5
63C
100
AcDbEntity
  8
ASSI
100
AcDbEllipse
 62
7
  6
CONTINUOUS
 10
-7.2613531408
 20
22.166454678
 30
0.0
 11
0.2
 21
0.0
 31
0.0
 40
0.0524077793
 41
-2.617993878
 42
-1.5707963268
  0
ELLIPSE
  5
63D
100
AcDbEntity
  8
ASSI
100
AcDbEllipse
 62
7
  6
CONTINUOUS
 10
-5.5068432068
 20
19.8011415691
 30
0.0
 11
0.0096324734
 21
0.5915363915
 31
0.0
 40
0.4225722455
 41
-1.5322803821
 42
0.0068809827
  0
ELLIPSE
  5
63E
100
AcDbEntity
  8
ASSI
100
AcDbEllipse
 62
7
  6
CONTINUOUS
 10
24.1667619453
 20
0.0337343523
 30
0.0
 11
0.0
 21
498.5
 31
0.0
 40
0.0349207695
 41
1.5589337088
 42
1.568159698
  0
ELLIPSE
  5
63F
100
AcDbEntity
  8
ASSI
100
AcDbEllipse
 62
7
  6
CONTINUOUS
 10
5.5531968174
 20
19.8011415691
 30
0.0
 11
-0.0096324734
 21
0.5915363915
 31
0.0
 40
0.4225722455
 41
-0.0068809827
 42
1.5322803821
  0
ELLIPSE
  5
640
100
AcDbEntity
  8
ASSI
100
AcDbEllipse
 62
7
  6
CONTINUOUS
 10
5.6931567932
 20
19.8011415691
 30
0.0
 11
0.0096324734
 21
0.5915363915
 31
0.0
 40
0.4225722455
 41
-1.5322803821
 42
0.0068809827
  0
ELLIPSE
  5
641
100
AcDbEntity
  8
ASSI
100
AcDbEllipse
 62
7
  6
CONTINUOUS
 10
5.5322443557
 20
17.3875910053
 30
0.0
 11
0.0493464685
 21
0.2491672984
 31
0.0
 40
0.9842259085
 41
-2.97793128
 42
-2.9490849661
  0
ELLIPSE
  5
642
100
AcDbEntity
  8
ASSI
100
AcDbEllipse
 62
7
  6
CONTINUOUS
 10
5.7141092549
 20
17.3875910053
 30
0.0
 11
-0.0493464685
 21
0.2491672984
 31
0.0
 40
0.9842259085
 41
-3.3341003411
 42
-3.3052540272
  0
ELLIPSE
  5
643
100
AcDbEntity
  8
ASSI
100
AcDbEllipse
 62
7
  6
CONTINUOUS
 10
-5.6677556443
 20
17.3875910053
 30
0.0
 11
0.0493464685
 21
0.2491672984
 31
0.0
 40
0.9842259085
 41
-2.97793128
 42
-2.9490849661
  0
ELLIPSE
  5
644
100
AcDbEntity
  8
ASSI
100
AcDbEllipse
 62
7
  6
CONTINUOUS
 10
-5.4858907451
 20
17.3875910053
 30
0.0
 11
-0.0493464685
 21
0.2491672984
 31
0.0
 40
0.9842259085
 41
-3.3341003411
 42
-3.3052540272
  0
ELLIPSE
  5
645
100
AcDbEntity
  8
ASSI
100
AcDbEllipse
 62
7
  6
CONTINUOUS
 10
-24.1204083347
 20
0.0337343523
 30
0.0
 11
0.0
 21
498.5
 31
0.0
 40
0.0349207695
 41
-1.568159698
 42
-1.5589337088
  0
ELLIPSE
  5
646
100
AcDbEntity
  8
ASSI
100
AcDbEllipse
 62
7
  6
CONTINUOUS
 10
9.8667619453
 20
0.0337343523
 30
0.0
 11
0.0
 21
498.5
 31
0.0
 40
0.0349207695
 41
1.5589337088
 42
1.568159698
  0
ELLIPSE
  5
647
100
AcDbEntity
  8
ASSI
100
AcDbEllipse
 62
7
  6
CONTINUOUS
 10
-5.6468031826
 20
19.8011415691
 30
0.0
 11
-0.0096324734
 21
0.5915363915
 31
0.0
 40
0.4225722455
 41
-0.0068809827
 42
1.5322803821
  0
ELLIPSE
  5
648
100
AcDbEntity
  8
ASSI
100
AcDbEllipse
 62
7
  6
CONTINUOUS
 10
22.6167619453
 20
0.0337343523
 30
0.0
 11
0.0
 21
498.5
 31
0.0
 40
0.0349207695
 41
1.5304337907
 42
1.5390014484
  0
ELLIPSE
  5
649
100
AcDbEntity
  8
ASSI
100
AcDbEllipse
 62
7
  6
CONTINUOUS
 10
5.2299148824
 20
20.1409254857
 30
0.0
 11
0.0
 21
0.2
 31
0.0
 40
0.0349207695
 41
0.1221730476
 42
1.5304337907
  0
ELLIPSE
  5
64A
100
AcDbEntity
  8
ASSI
100
AcDbEllipse
 62
7
  6
CONTINUOUS
 10
6.0164387283
 20
20.1409254857
 30
0.0
 11
0.0
 21
0.2
 31
0.0
 40
0.0349207695
 41
-1.5304337907
 42
-0.1221730476
  0
ELLIPSE
  5
64B
100
AcDbEntity
  8
ASSI
100
AcDbEllipse
 62
7
  6
CONTINUOUS
 10
-11.3704083347
 20
0.0337343523
 30
0.0
 11
0.0
 21
498.5
 31
0.0
 40
0.0349207695
 41
-1.5390014484
 42
-1.5304337907
  0
ELLIPSE
  5
64C
100
AcDbEntity
  8
ASSI
100
AcDbEllipse
 62
7
  6
CONTINUOUS
 10
11.4167619453
 20
0.0337343523
 30
0.0
 11
0.0
 21
498.5
 31
0.0
 40
0.0349207695
 41
1.5304337907
 42
1.5390014484
  0
ELLIPSE
  5
64D
100
AcDbEntity
  8
ASSI
100
AcDbEllipse
 62
7
  6
CONTINUOUS
 10
-5.9700851176
 20
20.1409254857
 30
0.0
 11
-0.0
 21
0.2
 31
0.0
 40
0.0349207695
 41
0.1221730476
 42
1.5304337907
  0
ELLIPSE
  5
64E
100
AcDbEntity
  8
ASSI
100
AcDbEllipse
 62
7
  6
CONTINUOUS
 10
-5.1835612717
 20
20.1409254857
 30
0.0
 11
-0.0
 21
0.2
 31
0.0
 40
0.0349207695
 41
-1.5304337907
 42
-0.1221730476
  0
ELLIPSE
  5
64F
100
AcDbEntity
  8
ASSI
100
AcDbEllipse
 62
7
  6
CONTINUOUS
 10
-22.5704083347
 20
0.0337343523
 30
0.0
 11
0.0
 21
498.5
 31
0.0
 40
0.0349207695
 41
-1.5390014484
 42
-1.5304337907
  0
ELLIPSE
  5
650
100
AcDbEntity
  8
ASSI
100
AcDbEllipse
 62
7
  6
CONTINUOUS
 10
-7.040524222
 20
1.3202161883
 30
0.0
 11
0.3
 21
0.0
 31
0.0
 40
0.0349207695
 41
-1.5707963268
 42
-0.034906585
  0
ELLIPSE
  5
651
100
AcDbEntity
  8
ASSI
100
AcDbEllipse
 62
7
  6
CONTINUOUS
 10
7.3077067515
 20
20.6241144231
 30
0.0
 11
0.2
 21
0.0
 31
0.0
 40
0.1227845609
 41
-1.5707963268
 42
-0.5235987756
  0
ELLIPSE
  5
652
100
AcDbEntity
  8
ASSI
100
AcDbEllipse
 62
7
  6
CONTINUOUS
 10
3.9386468592
 20
20.6241144231
 30
0.0
 11
0.2
 21
-0.0
 31
0.0
 40
0.1227845609
 41
-2.617993878
 42
-1.5707963268
  0
ELLIPSE
  5
653
100
AcDbEntity
  8
ASSI
100
AcDbEllipse
 62
7
  6
CONTINUOUS
 10
-3.8922932485
 20
20.6241144231
 30
0.0
 11
0.2
 21
-0.0
 31
0.0
 40
0.1227845609
 41
-1.5707963268
 42
-0.5235987756
  0
ELLIPSE
  5
654
100
AcDbEntity
  8
ASSI
100
AcDbEllipse
 62
7
  6
CONTINUOUS
 10
-7.2613531408
 20
20.6241144231
 30
0.0
 11
0.2
 21
0.0
 31
0.0
 40
0.1227845609
 41
-2.617993878
 42
-1.5707963268
  0
ELLIPSE
  5
655
100
AcDbEntity
  8
ASSI
100
AcDbEllipse
 62
7
  6
CONTINUOUS
 10
-9.6655388684
 20
20.5030690985
 30
0.0
 11
0.1992395838
 21
-0.0178260286
 31
0.0
 40
0.9965982379
 41
1.6603320108
 42
3.2290014227
  0
ELLIPSE
  5
656
100
AcDbEntity
  8
ASSI
100
AcDbEllipse
 62
7
  6
CONTINUOUS
 10
9.711892479
 20
20.5030690985
 30
0.0
 11
0.1992395838
 21
0.0178260286
 31
0.0
 40
0.9965982379
 41
-0.0874087691
 42
1.4812606428
  0
ELLIPSE
  5
657
100
AcDbEntity
  8
ASSI
100
AcDbEllipse
 62
7
  6
CONTINUOUS
 10
-9.8204083347
 20
0.0337343523
 30
0.0
 11
0.0
 21
498.5
 31
0.0
 40
0.0349207695
 41
-1.568159698
 42
-1.5589337088
  0
ELLIPSE
  5
658
100
AcDbEntity
  8
ASSI
100
AcDbEllipse
 62
7
  6
CONTINUOUS
 10
7.259475778
 20
1.3202161883
 30
0.0
 11
0.3
 21
0.0
 31
0.0
 40
0.0349207695
 41
-1.5707963268
 42
-0.034906585
  0
ENDSEC
  0
SECTION
  2
OBJECTS
  0
DICTIONARY
  5
C
100
AcDbDictionary
280
0
281
1
  3
ACAD_GROUP
350
D
  3
ACAD_MLINESTYLE
350
17
  3
ACAD_LAYOUT
350
1A
  3
ACAD_PLOTSETTINGS
350
19
  3
ACAD_PLOTSTYLENAME
350
E
  0
DICTIONARY
  5
D
102
{ACAD_REACTORS
330
C
102
}
100
AcDbDictionary
280
0
281
1
  0
ACDBDICTIONARYWDFLT
  5
E
102
{ACAD_REACTORS
330
C
102
}
100
AcDbDictionary
281
1
  3
Normal
350
F
100
AcDbDictionaryWithDefault
340
F
  0
DICTIONARY
  5
17
102
{ACAD_REACTORS
330
C
102
}
100
AcDbDictionary
280
0
281
1
  3
Standard
350
18
  0
DICTIONARY
  5
19
102
{ACAD_REACTORS
330
C
102
}
100
AcDbDictionary
281
1
  0
DICTIONARY
  5
1A
102
{ACAD_REACTORS
330
C
102
}
100
AcDbDictionary
281
1
  3
Model
350
659
  3
Layout1
350
65A
  0
ACDBPLACEHOLDER
  5
F
102
{ACAD_REACTORS
330
E
102
}
  0
MLINESTYLE
  5
18
102
{ACAD_REACTORS
330
17
102
}
100
AcDbMlineStyle
  2
STANDARD
 70
0
  3

 62
256
 51
90.0
 52
90.0
 71
2
 49
0.5
 62
256
  6
BYLAYER
 49
-0.5
 62
256
  6
BYLAYER
  0
LAYOUT
  5
659
102
{ACAD_REACTORS
330
1A
102
}
100
AcDbPlotSettings
  1

  2
none_device
  4

  6

 40
0.0
 41
0.0
 42
0.0
 43
0.0
 44
210.0
 45
297.0
 46
0.0
 47
0.0
 48
0.0
 49
0.0
140
0.0
141
0.0
142
1.0
143
1.0
 70
1024
 72
1
 73
0
 74
0
  7

 75
0
147
1.0
148
0.0
149
0.0
100
AcDbLayout
  1
Model
 70
0
 71
0
 10
0.0
 20
0.0
 11
210.0
 21
297.0
 12
0.0
 22
0.0
 32
0.0
 14
0.0
 24
0.0
 34
0.0
 15
0.0
 25
0.0
 35
0.0
146
0.0
 13
0.0
 23
0.0
 33
0.0
 16
1.0
 26
0.0
 36
0.0
 17
0.0
 27
1.0
 37
0.0
 76
0
330
216
345
0
346
0
  0
LAYOUT
  5
65A
102
{ACAD_REACTORS
330
1A
102
}
100
AcDbPlotSettings
  1

  2
none_device
  4

  6

 40
0.0
 41
0.0
 42
0.0
 43
0.0
 44
210.0
 45
297.0
 46
0.0
 47
0.0
 48
0.0
 49
0.0
140
0.0
141
0.0
142
1.0
143
1.0
 70
0
 72
1
 73
0
 74
0
  7

 75
0
147
1.0
148
0.0
149
0.0
100
AcDbLayout
  1
Layout1
 70
0
 71
1
 10
0.0
 20
0.0
 11
210.0
 21
297.0
 12
0.0
 22
0.0
 32
0.0
 14
0.0
 24
0.0
 34
0.0
 15
0.0
 25
0.0
 35
0.0
146
0.0
 13
0.0
 23
0.0
 33
0.0
 16
1.0
 26
0.0
 36
0.0
 17
0.0
 27
1.0
 37
0.0
 76
0
330
217
345
0
346
0
  0
ENDSEC
  0
EOF
