  0
SECTION
  2
HEADER
  9
$ACADVER
  1
AC1024
  9
$DWGCODEPAGE
  3
ANSI_1252
  9
$EXTMAX
 10
297.0
 20
210.0
 30
0.0
  9
$EXTMIN
 10
0.0
 20
0.0
 30
0.0
  9
$LIMMIN
 10
0.0
 20
0.0
  9
$LIMMAX
 10
297.0
 20
210.0
  9
$VIEWCTR
 10
148.5
 20
105.0
  9
$VIEWSIZE
 40
210.0
  9
$CLAYER
  8
0
  9
$LTSCALE
 40
16.335
  9
$CELTYPE
  6
BYLAYER
  9
$DIMSCALE
 40
1.0
  9
$DIMASZ
 40
3.0
  9
$DIMEXO
 40
0.5
  9
$DIMDLI
 40
11.286
  9
$DIMEXE
 40
1.5
  9
$DIMCEN
 40
2.673
  9
$DIMLFAC
 40
1.0
  9
$DIMBLK
  1
_FILLED
  9
$DIMALT
 70
0
  9
$DIMALTF
 40
0.0393700787
  9
$DIMTXT
 40
3.0
  9
$DIMTOL
 70
1
  9
$DIMLIM
 70
0
  9
$DIMTFAC
 40
1.0
  9
$DIMTP
 40
0.01
  9
$DIMTM
 40
0.01
  9
$DIMGAP
 40
0.625
  9
$DIMDSEP
 70
44
  9
$AUNITS
 70
0
  9
$PDMODE
 70
3
  9
$PDSIZE
 40
3.0
  9
$HANDSEED
  5
2A7
  9
$TILEMODE
 70
1
  9
$MEASUREMENT
 70
1
  9
$INSUNITS
 70
4
  0
ENDSEC
  0
SECTION
  2
CLASSES
  0
CLASS
  1
ACDBDICTIONARYWDFLT
  2
AcDbDictionaryWithDefault
  3
AutoCAD 2000
 90
0
 91
1
280
0
281
0
  0
CLASS
  1
ACDBPLACEHOLDER
  2
AcDbPlaceHolder
  3
AutoCAD 2000
 90
0
 91
1
280
0
281
0
  0
CLASS
  1
LAYOUT
  2
AcDbLayout
  3
AutoCAD 2000
 90
0
 91
0
280
0
281
0
  0
ENDSEC
  0
SECTION
  2
TABLES
  0
TABLE
  2
VPORT
  5
8
100
AcDbSymbolTable
 70
2
  0
VPORT
  5
1F4
100
AcDbSymbolTableRecord
100
AcDbViewportTableRecord
  2
*ACTIVE
 70
0
 10
0.0
 20
0.0
 11
1.0
 21
1.0
 12
148.5
 22
105.0
 13
0.0
 23
0.0
 14
1.0
 24
1.0
 15
0.0
 25
0.0
 16
0.0
 26
0.0
 36
1.0
 17
0.0
 27
0.0
 37
0.0
 40
210.0
 41
1.4142857143
 42
50.0
 43
0.0
 44
0.0
 50
0.0
 51
0.0
 71
0
 72
100
 73
1
 74
1
 75
0
 76
0
 77
0
 78
0
  0
ENDTAB
  0
TABLE
  2
LTYPE
  5
5
100
AcDbSymbolTable
 70
6
  0
LTYPE
  5
14
100
AcDbSymbolTableRecord
100
AcDbLinetypeTableRecord
  2
BYBLOCK
 70
0
  3

 72
65
 73
0
 40
0.0
  0
LTYPE
  5
15
100
AcDbSymbolTableRecord
100
AcDbLinetypeTableRecord
  2
BYLAYER
 70
0
  3

 72
65
 73
0
 40
0.0
  0
LTYPE
  5
16
100
AcDbSymbolTableRecord
100
AcDbLinetypeTableRecord
  2
CONTINUOUS
 70
64
  3
Solid line
 72
65
 73
0
 40
0.0
  0
LTYPE
  5
1F5
100
AcDbSymbolTableRecord
100
AcDbLinetypeTableRecord
  2
CENTER
 70
64
  3
____ _ ____ _ ____ _ ____ _ ____ _ ____ _ ____
 72
65
 73
4
 40
0.6
 49
0.375
 74
0
 49
-0.075
 74
0
 49
0.075
 74
0
 49
-0.075
 74
0
  0
LTYPE
  5
1F6
100
AcDbSymbolTableRecord
100
AcDbLinetypeTableRecord
  2
HIDDEN
 70
64
  3
- - - - - - - - - - - - - - - - - - - -
 72
65
 73
2
 40
0.2
 49
0.1
 74
0
 49
-0.1
 74
0
  0
LTYPE
  5
1F7
100
AcDbSymbolTableRecord
100
AcDbLinetypeTableRecord
  2
PHANTOM
 70
64
  3
_____ _ _ _____ _ _ _____ _ _ _____
 72
65
 73
6
 40
0.8
 49
0.45
 74
0
 49
-0.05
 74
0
 49
0.1
 74
0
 49
-0.05
 74
0
 49
0.1
 74
0
 49
-0.05
 74
0
  0
LTYPE
  5
1F8
100
AcDbSymbolTableRecord
100
AcDbLinetypeTableRecord
  2
DOT
 70
64
  3
. . . . . . . . . . . . . . . . . . . .
 72
65
 73
2
 40
0.2
 49
0.1
 74
0
 49
-0.1
 74
0
  0
LTYPE
  5
1F9
100
AcDbSymbolTableRecord
100
AcDbLinetypeTableRecord
  2
DASHED
 70
64
  3
- - - - - - - - - - - - - - - - - - - -
 72
65
 73
2
 40
0.2
 49
0.1
 74
0
 49
-0.1
 74
0
  0
ENDTAB
  0
TABLE
  2
LAYER
  5
2
100
AcDbSymbolTable
 70
36
  0
LAYER
  5
10
100
AcDbSymbolTableRecord
100
AcDbLayerTableRecord
  2
0
 70
0
 62
7
  6
CONTINUOUS
370
-3
390
F
  0
LAYER
  5
1FA
100
AcDbSymbolTableRecord
100
AcDbLayerTableRecord
  2
DEFAULT_1
 70
0
 62
7
  6
CENTER
370
-3
390
F
  0
LAYER
  5
1FB
100
AcDbSymbolTableRecord
100
AcDbLayerTableRecord
  2
DEFAULT_2
 70
0
 62
7
  6
HIDDEN
370
-3
390
F
  0
LAYER
  5
1FC
100
AcDbSymbolTableRecord
100
AcDbLayerTableRecord
  2
DEFAULT_3
 70
0
 62
7
  6
PHANTOM
370
-3
390
F
  0
LAYER
  5
1FD
100
AcDbSymbolTableRecord
100
AcDbLayerTableRecord
  2
ASSI
 70
0
 62
7
  6
CONTINUOUS
370
-3
390
F
  0
LAYER
  5
1FE
100
AcDbSymbolTableRecord
100
AcDbLayerTableRecord
  2
COORDINATE
 70
0
 62
7
  6
CONTINUOUS
370
-3
390
F
  0
LAYER
  5
1FF
100
AcDbSymbolTableRecord
100
AcDbLayerTableRecord
  2
COORD_ORIGINE
 70
0
 62
7
  6
CONTINUOUS
370
-3
390
F
  0
LAYER
  5
200
100
AcDbSymbolTableRecord
100
AcDbLayerTableRecord
  2
PIANI
 70
0
 62
7
  6
CONTINUOUS
370
-3
390
F
  0
LAYER
  5
201
100
AcDbSymbolTableRecord
100
AcDbLayerTableRecord
  2
PIANI_ORIGINE
 70
0
 62
7
  6
CONTINUOUS
370
-3
390
F
  0
LAYER
  5
202
100
AcDbSymbolTableRecord
100
AcDbLayerTableRecord
  2
RACCORDO
 70
0
 62
7
  6
CONTINUOUS
370
-3
390
F
  0
LAYER
  5
203
100
AcDbSymbolTableRecord
100
AcDbLayerTableRecord
  2
SNAPLINE
 70
0
 62
7
  6
CONTINUOUS
370
-3
390
F
  0
LAYER
  5
204
100
AcDbSymbolTableRecord
100
AcDbLayerTableRecord
  2
TRASH
 70
0
 62
7
  6
CONTINUOUS
370
-3
390
F
  0
ENDTAB
  0
TABLE
  2
STYLE
  5
3
100
AcDbSymbolTable
 70
1
  0
STYLE
  5
11
100
AcDbSymbolTableRecord
100
AcDbTextStyleTableRecord
  2
STANDARD
 70
0
 40
0.0
 41
0.8
 50
0.0
 71
0
 42
0.2
  3
txt
  4

  0
STYLE
  5
205
100
AcDbSymbolTableRecord
100
AcDbTextStyleTableRecord
  2
TEXTSTYLE_1
 70
0
 40
0.0
 41
0.8
 50
0.0
 71
0
 42
0.2
  3
gdt
  4

  0
ENDTAB
  0
TABLE
  2
VIEW
  5
6
100
AcDbSymbolTable
 70
0
  0
ENDTAB
  0
TABLE
  2
UCS
  5
7
100
AcDbSymbolTable
 70
0
  0
ENDTAB
  0
TABLE
  2
APPID
  5
9
100
AcDbSymbolTable
 70
1
  0
APPID
  5
206
100
AcDbSymbolTableRecord
100
AcDbRegAppTableRecord
  2
ACAD
 70
0
  0
ENDTAB
  0
TABLE
  2
BLOCK_RECORD
  5
1
100
AcDbSymbolTable
 70
0
  0
BLOCK_RECORD
  5
207
100
AcDbSymbolTableRecord
100
AcDbBlockTableRecord
  2
*Model_Space
  0
BLOCK_RECORD
  5
208
100
AcDbSymbolTableRecord
100
AcDbBlockTableRecord
  2
*Paper_Space
  0
BLOCK_RECORD
  5
209
100
AcDbSymbolTableRecord
100
AcDbBlockTableRecord
  2
_FILLED
  0
ENDTAB
  0
TABLE
  2
DIMSTYLE
  5
A
100
AcDbSymbolTable
 70
1
100
AcDbDimStyleTable
 71
0
  0
DIMSTYLE
105
20A
100
AcDbSymbolTableRecord
100
AcDbDimStyleTableRecord
  2
STANDARD
 70
0
  3

  4

 40
1.0
 41
3.0
 42
0.5
 43
0.38
 44
1.5
 45
0.0
 46
0.0
 47
0.01
 48
0.01
140
3.0
141
0.09
142
0.0
143
25.4
144
1.0
145
0.0
146
1.0
147
0.625
 71
1
 72
0
 73
0
 74
0
 75
0
 76
0
 77
1
 78
8
 79
2
170
0
171
1
172
0
173
0
174
0
175
0
176
0
177
0
178
0
270
2
179
2
271
2
272
2
273
2
274
2
275
0
280
0
281
0
282
0
283
1
284
8
285
0
286
0
287
3
288
0
340
11
278
44
341
209
342
209
343
209
344
209
  0
ENDTAB
  0
ENDSEC
  0
SECTION
  2
BLOCKS
  0
BLOCK
  5
20
100
AcDbEntity
  8
0
100
AcDbBlockBegin
  2
*Model_Space
 70
0
 10
0.0
 20
0.0
 30
0.0
  3
*Model_Space
  1

  0
ENDBLK
  5
21
100
AcDbEntity
  8
0
100
AcDbBlockEnd
  0
BLOCK
  5
1C
100
AcDbEntity
  8
0
100
AcDbBlockBegin
  2
*Paper_Space
 70
0
 10
0.0
 20
0.0
 30
0.0
  3
*Paper_Space
  1

  0
ENDBLK
  5
1D
100
AcDbEntity
  8
0
100
AcDbBlockEnd
  0
BLOCK
  5
20B
100
AcDbEntity
  8
0
100
AcDbBlockBegin
  2
_FILLED
 70
64
 10
0.0
 20
0.0
  3
_FILLED
  1

  0
SOLID
  5
20C
100
AcDbEntity
  8
0
  6
BYBLOCK
 62
0
100
AcDbTrace
 10
0.0
 20
0.0
 11
-1.0
 21
0.3166666667
 12
-1.0
 22
-0.3166666667
 13
-1.0
 23
-0.3166666667
  0
ENDBLK
  5
20D
100
AcDbEntity
  8
0
  6
BYBLOCK
 62
0
100
AcDbBlockEnd
  0
ENDSEC
  0
SECTION
  2
ENTITIES
  0
LWPOLYLINE
  5
20E
100
AcDbEntity
  8
0
100
AcDbPolyline
 62
7
  6
CONTINUOUS
 90
3
 70
0
 10
-4.6348647266
 20
-0.3697820262
 10
-4.606503076
 20
-0.6315371641
 10
-4.5605651915
 20
-0.9055135808
  0
LINE
  5
20F
100
AcDbEntity
  8
0
100
AcDbLine
 62
7
  6
CONTINUOUS
 10
-4.6483647385
 20
-0.1068411918
 11
-4.6336873465
 21
-0.3842541941
  0
LINE
  5
210
100
AcDbEntity
  8
0
100
AcDbLine
 62
7
  6
CONTINUOUS
 10
-4.6469598251
 20
0.1564422225
 11
-4.6480084163
 21
-0.121356797
  0
LINE
  5
211
100
AcDbEntity
  8
0
100
AcDbLine
 62
7
  6
CONTINUOUS
 10
-4.6306544967
 20
0.4192239487
 11
-4.6474257021
 21
0.1419297476
  0
LINE
  5
212
100
AcDbEntity
  8
0
100
AcDbLine
 62
7
  6
CONTINUOUS
 10
-4.5995010521
 20
0.6806613414
 11
-4.6319410738
 21
0.404761161
  0
LINE
  5
213
100
AcDbEntity
  8
0
100
AcDbLine
 62
7
  6
CONTINUOUS
 10
-4.5535993926
 20
0.9399161472
 11
-4.6016041909
 21
0.6662946638
  0
LINE
  5
214
100
AcDbEntity
  8
0
100
AcDbLine
 62
7
  6
CONTINUOUS
 10
-4.4930966934
 20
1.1961571378
 11
-4.5565123335
 21
0.9256916673
  0
LINE
  5
215
100
AcDbEntity
  8
0
100
AcDbLine
 62
7
  6
CONTINUOUS
 10
-4.418186951
 20
1.4485626886
 11
-4.4968100968
 21
1.1821204089
  0
LINE
  5
216
100
AcDbEntity
  8
0
100
AcDbLine
 62
7
  6
CONTINUOUS
 10
-4.3291103623
 20
1.6963234567
 11
-4.4226889348
 21
1.4347586185
  0
LINE
  5
217
100
AcDbEntity
  8
0
100
AcDbLine
 62
7
  6
CONTINUOUS
 10
-4.226152531
 20
1.9386450388
 11
-4.3343865154
 21
1.6827962567
  0
LINE
  5
218
100
AcDbEntity
  8
0
100
AcDbLine
 62
7
  6
CONTINUOUS
 10
-4.1096435665
 20
2.1747504593
 11
-4.2321859421
 21
1.925438095
  0
LINE
  5
219
100
AcDbEntity
  8
0
100
AcDbLine
 62
7
  6
CONTINUOUS
 10
-3.9799570572
 20
2.4038826156
 11
-4.1164148873
 21
2.1619061453
  0
LINE
  5
21A
100
AcDbEntity
  8
0
100
AcDbLine
 62
7
  6
CONTINUOUS
 10
-3.8375088638
 20
2.6253067496
 11
-3.9874445776
 21
2.3914421269
  0
LINE
  5
21B
100
AcDbEntity
  8
0
100
AcDbLine
 62
7
  6
CONTINUOUS
 10
-3.6827557451
 20
2.8383128674
 11
-3.8456885671
 21
2.6133099989
  0
LINE
  5
21C
100
AcDbEntity
  8
0
100
AcDbLine
 62
7
  6
CONTINUOUS
 10
-3.5161939153
 20
3.0422179679
 11
-3.6916013885
 21
2.8267983468
  0
LINE
  5
21D
100
AcDbEntity
  8
0
100
AcDbLine
 62
7
  6
CONTINUOUS
 10
-3.3383574906
 20
3.2363681933
 11
-3.5256771201
 21
3.0312226163
  0
LINE
  5
21E
100
AcDbEntity
  8
0
100
AcDbLine
 62
7
  6
CONTINUOUS
 10
-3.149816721
 20
3.4201409976
 11
-3.3484478306
 21
3.2259272822
  0
LWPOLYLINE
  5
21F
100
AcDbEntity
  8
0
100
AcDbPolyline
 62
7
  6
CONTINUOUS
 90
38
 70
0
 10
-3.0031807486
 20
3.549593659
 10
-3.1993801977
 20
3.3738221802
 10
-3.3853105591
 20
3.1872217012
 10
-3.5603750517
 20
2.9903911527
 10
-3.724011766
 20
2.7839623062
 10
-3.8756954721
 20
2.5685977429
 10
-4.0149393077
 20
2.3449887235
 10
-4.1412963422
 20
2.1138529668
 10
-4.2543610075
 20
1.875932349
 10
-4.3537703989
 20
1.6319905253
 10
-4.4392054399
 20
1.3828104802
 10
-4.510391908
 20
1.1291920114
 10
-4.5671013152
 20
0.8719491617
 10
-4.6091516406
 20
0.6119076062
 10
-4.6364079149
 20
0.349902004
 10
-4.6487826533
 20
0.0867733186
 10
-4.6462361368
 20
-0.1766338836
 10
-4.6287765387
 20
-0.4394741433
 10
-4.596459899
 20
-0.700903821
 10
-4.5493899444
 20
-0.9600838005
 10
-4.4877177568
 20
-1.2161821848
 10
-4.4116412875
 20
-1.4683769688
 10
-4.3214047198
 20
-1.7158586831
 10
-4.2172976854
 20
-1.9578329875
 10
-4.0996543354
 20
-2.1935232174
 10
-3.9688522722
 20
-2.422172871
 10
-3.8253113362
 20
-2.643048043
 10
-3.6694922557
 20
-2.8554397844
 10
-3.5018951633
 20
-3.0586663832
 10
-3.3230579927
 20
-3.252075546
 10
-3.1335547554
 20
-3.4350464881
 10
-2.9339937052
 20
-3.6069919211
 10
-2.725015382
 20
-3.7673599443
 10
-2.507290551
 20
-3.9156358201
 10
-2.2815180424
 20
-4.0513436297
 10
-2.0484225139
 20
-4.1740477943
 10
-1.8087521293
 20
-4.2833544705
 10
-1.7665064849
 20
-4.2997997618
  0
LWPOLYLINE
  5
220
100
AcDbEntity
  8
0
100
AcDbPolyline
 62
7
  6
CONTINUOUS
 90
38
 70
0
 10
-2.9808090453
 20
3.5684012028
 10
-3.1781095103
 20
3.3938664748
 10
-3.3652091542
 20
3.2084384139
 10
-3.5415074379
 20
3.0127121958
 10
-3.7064384991
 20
2.8073160418
 10
-3.8594729621
 20
2.592909208
 10
-4.0001196323
 20
2.3701798735
 10
-4.1279270706
 20
2.1398429394
 10
-4.2424850478
 20
1.902637728
 10
-4.3434258646
 20
1.659325605
 10
-4.4304255329
 20
1.4106875279
 10
-4.5032048114
 20
1.1575215465
 10
-4.5615300998
 20
0.9006402461
 10
-4.6052141886
 20
0.6408681459
 10
-4.6341168635
 20
0.3790390461
 10
-4.6481453556
 20
0.1159933469
 10
-4.6472546384
 20
-0.1474246546
 10
-4.631447571
 20
-0.4103694678
 10
-4.6007748886
 20
-0.6719971183
 10
-4.5553350415
 20
-0.9314678538
 10
-4.495273879
 20
-1.1879488437
 10
-4.4207841811
 20
-1.4406168561
 10
-4.3321050383
 20
-1.6886609013
 10
-4.2295210842
 20
-1.9312848315
 10
-4.1133615835
 20
-2.1677098943
 10
-3.9839993748
 20
-2.3971772324
 10
-3.8418496739
 20
-2.6189503213
 10
-3.68736874
 20
-2.8323173335
 10
-3.5210524126
 20
-3.0365934219
 10
-3.3434345206
 20
-3.2311229177
 10
-3.1550851675
 20
-3.4152814362
 10
-2.9566088996
 20
-3.5884778831
 10
-2.7486427662
 20
-3.7501563496
 10
-2.5318542762
 20
-3.8997978956
 10
-2.3069392602
 20
-4.0369222129
 10
-2.0746196349
 20
-4.1610891691
 10
-1.8356410831
 20
-4.2719002232
 10
-1.7983322064
 20
-4.2866944662
  0
LINE
  5
221
100
AcDbEntity
  8
0
100
AcDbLine
 62
7
  6
CONTINUOUS
 10
-2.9511761547
 20
3.5929471366
 11
-3.160481816
 21
3.4102880223
  0
LWPOLYLINE
  5
222
100
AcDbEntity
  8
0
100
AcDbPolyline
 62
250
  6
CONTINUOUS
 90
35
 70
0
 10
-2.7642834465
 20
3.4026213617
 10
-2.9575490188
 20
3.2360468009
 10
-3.141159602
 20
3.0581385585
 10
-3.3143458565
 20
2.8695307323
 10
-3.4756839928
 20
2.6718375425
 10
-3.6245037334
 20
2.466184857
 10
-3.7607144477
 20
2.2530250544
 10
-3.8839995221
 20
2.0331361872
 10
-3.9939617804
 20
1.8075852206
 10
-4.0905256414
 20
1.5769258067
 10
-4.1737877899
 20
1.3411153929
 10
-4.2434747844
 20
1.1009163253
 10
-4.2993548767
 20
0.8571129644
 10
-4.341365272
 20
0.609624928
 10
-4.3692617321
 20
0.3586737823
 10
-4.3826860843
 20
0.1056297262
 10
-4.3814648144
 20
-0.147854726
 10
-4.3655823843
 20
-0.4009805135
 10
-4.3350756322
 20
-0.6528508066
 10
-4.2902296115
 20
-0.9016788668
 10
-4.2315219569
 20
-1.1460003543
 10
-4.1591891546
 20
-1.3857274066
 10
-4.0732037435
 20
-1.6211434597
 10
-3.973579569
 20
-1.8519611894
 10
-3.8607813236
 20
-2.0768876699
 10
-3.7354281912
 20
-2.2947049993
 10
-3.5982332313
 20
-2.5043586808
 10
-3.449478468
 20
-2.7055855319
 10
-3.2891648804
 20
-2.8983597333
 10
-3.1173782342
 20
-3.0823769531
 10
-2.9349532163
 20
-3.2565540585
 10
-2.743062328
 20
-3.4197520033
 10
-2.542592731
 20
-3.5713186478
 10
-2.3340375425
 20
-3.7109787672
 10
-2.1181108849
 20
-3.8383200648
  0
LINE
  5
223
100
AcDbEntity
  8
0
100
AcDbLine
 62
7
  6
CONTINUOUS
 10
-2.7973419509
 20
3.7139719656
 11
-3.0031807486
 21
3.549593659
  0
LINE
  5
224
100
AcDbEntity
  8
0
100
AcDbLine
 62
7
  6
CONTINUOUS
 10
-2.7547829557
 20
3.7456482177
 11
-2.962381783
 21
3.5837136989
  0
LINE
  5
225
100
AcDbEntity
  8
0
100
AcDbLine
 62
7
  6
CONTINUOUS
 10
-2.582524484
 20
3.866429495
 11
-2.7973419509
 21
3.7139719656
  0
LINE
  5
226
100
AcDbEntity
  8
0
100
AcDbLine
 62
7
  6
CONTINUOUS
 10
0.959337706
 20
-4.5495473287
 11
1.2303801272
 21
-4.4838459543
  0
LINE
  5
227
100
AcDbEntity
  8
0
100
AcDbLine
 62
7
  6
CONTINUOUS
 10
0.7002810656
 20
-4.5965548143
 11
0.9744782225
 21
-4.5463284082
  0
LINE
  5
228
100
AcDbEntity
  8
0
100
AcDbLine
 62
7
  6
CONTINUOUS
 10
0.4389789509
 20
-4.6288235237
 11
0.7154485287
 21
-4.5942184544
  0
LINE
  5
229
100
AcDbEntity
  8
0
100
AcDbLine
 62
7
  6
CONTINUOUS
 10
0.1762692151
 20
-4.6462499823
 11
0.4541224535
 21
-4.6273623808
  0
LINE
  5
22A
100
AcDbEntity
  8
0
100
AcDbLine
 62
7
  6
CONTINUOUS
 10
-0.0870057879
 20
-4.6487783049
 11
0.1913387741
 21
-4.6456538057
  0
LINE
  5
22B
100
AcDbEntity
  8
0
100
AcDbLine
 62
7
  6
CONTINUOUS
 10
-0.3500018499
 20
-4.6364003755
 11
-0.0720590521
 21
-4.6490340184
  0
LWPOLYLINE
  5
22C
100
AcDbEntity
  8
0
100
AcDbPolyline
 62
7
  6
CONTINUOUS
 90
62
 70
0
 10
-0.435753694
 20
-4.6269272119
 10
-0.3676682631
 20
-4.6326261116
 10
-0.297281459
 20
-4.6374505148
 10
-0.22459233
 20
-4.6412975358
 10
-0.1493719871
 20
-4.6440670722
 10
-0.0716335922
 20
-4.6456368311
 10
0.0085995006
 20
-4.6458805605
 10
0.0915353471
 20
-4.6446629819
 10
0.1771901916
 20
-4.6418359882
 10
0.2654822692
 20
-4.6372494775
 10
0.3564638419
 20
-4.6307414548
 10
0.4500946451
 20
-4.6221473983
 10
0.5463102789
 20
-4.6113003876
 10
0.6451151226
 20
-4.5980195108
 10
0.7464442955
 20
-4.58212497
 10
0.8502084692
 20
-4.5634362163
 10
0.9563608227
 20
-4.5417594159
 10
1.0647178546
 20
-4.5169250653
 10
1.1752498806
 20
-4.4887263826
 10
1.2881185512
 20
-4.4568865911
 10
1.402866336
 20
-4.421293305
 10
1.5196582892
 20
-4.3816455106
 10
1.6395294362
 20
-4.3372628043
 10
1.7622813496
 20
-4.2878177215
 10
1.8876348832
 20
-4.2330029188
 10
2.0163897458
 20
-4.1719698948
 10
2.1482306423
 20
-4.104280557
 10
2.282721552
 20
-4.0295378905
 10
2.4203268794
 20
-3.9467658893
 10
2.560560964
 20
-3.8554283211
 10
2.7027700886
 20
-3.7550679554
 10
2.846972121
 20
-3.6446698183
 10
2.9923939677
 20
-3.523691575
 10
3.1381659103
 20
-3.3916361504
 10
3.2839196536
 20
-3.247442948
 10
3.4286636039
 20
-3.0904971207
 10
3.5710932573
 20
-2.9204717414
 10
3.7101226179
 20
-2.7367213427
 10
3.8457293372
 20
-2.5367676977
 10
3.9747687184
 20
-2.3224477599
 10
4.0923397477
 20
-2.1003294327
 10
4.1971525393
 20
-1.8727495533
 10
4.2896356174
 20
-1.6386754055
 10
4.3688163687
 20
-1.400391092
 10
4.4343465116
 20
-1.1594080424
 10
4.4863661214
 20
-0.9157675969
 10
4.5248659005
 20
-0.6696382053
 10
4.5497426663
 20
-0.4213670886
 10
4.5608296179
 20
-0.1721318495
 10
4.5580929551
 20
0.0766546587
 10
4.5416724926
 20
0.3238280608
 10
4.5117181357
 20
0.5690242712
 10
4.4682907391
 20
0.8120271762
 10
4.4114455125
 20
1.0524120115
 10
4.3414166435
 20
1.2890901697
 10
4.2585839175
 20
1.5208670257
 10
4.1633997011
 20
1.7468120137
 10
4.0561609613
 20
1.9664983731
 10
3.9371040309
 20
2.1795145926
 10
3.8065771681
 20
2.3852839647
 10
3.6650864284
 20
2.5830984874
 10
3.5131179404
 20
2.7723593075
  0
LINE
  5
22D
100
AcDbEntity
  8
0
100
AcDbLine
 62
7
  6
CONTINUOUS
 10
-0.6118756232
 20
-4.6091558837
 11
-0.3352255912
 21
-4.637492169
  0
LWPOLYLINE
  5
22E
100
AcDbEntity
  8
0
100
AcDbPolyline
 62
7
  6
CONTINUOUS
 90
15
 70
0
 10
-0.799971886
 20
-4.5802570638
 10
-0.5393008187
 20
-4.618210088
 10
-0.2768987413
 20
-4.6413399873
 10
-0.0136078944
 20
-4.6495725198
 10
0.249726626
 20
-4.6428812611
 10
0.5122595868
 20
-4.6212876895
 10
0.773148338
 20
-4.5848611148
 10
1.0315555089
 20
-4.5337184548
 10
1.2866516913
 20
-4.4680238609
 10
1.5376180951
 20
-4.387988194
 10
1.783649184
 20
-4.2938683475
 10
2.0239552657
 20
-4.1859664213
 10
2.2577650308
 20
-4.0646287487
 10
2.4843280218
 20
-3.9302447862
 10
2.7029170391
 20
-3.7832458657
  0
LINE
  5
22F
100
AcDbEntity
  8
0
100
AcDbLine
 62
7
  6
CONTINUOUS
 10
-0.828747065
 20
-4.5751380314
 11
-0.7643487253
 21
-4.5849280297
  0
LWPOLYLINE
  5
230
100
AcDbEntity
  8
0
100
AcDbPolyline
 62
7
  6
CONTINUOUS
 90
15
 70
0
 10
-0.6840901644
 20
-4.5971291388
 10
-0.5683197073
 20
-4.614728856
 10
-0.3060682154
 20
-4.6395077274
 10
-0.0428343365
 20
-4.6493951138
 10
0.2205370324
 20
-4.6443592801
 10
0.4832005503
 20
-4.6244163885
 10
0.7443131374
 20
-4.5896304491
 10
1.0030366891
 20
-4.5401131161
 10
1.2585407719
 20
-4.4760233279
 10
1.510005297
 20
-4.3975667943
 10
1.7566231437
 20
-4.3049953355
 10
1.9976027446
 20
-4.1986060762
 10
2.2321706188
 20
-4.0787404964
 10
2.4595738633
 20
-3.9457833342
 10
2.6790825748
 20
-3.8001613475
  0
LINE
  5
231
100
AcDbEntity
  8
0
100
AcDbLine
 62
7
  6
CONTINUOUS
 10
-0.8717874119
 20
-4.5671321908
 11
-0.6985474258
 21
-4.5950241994
  0
LINE
  5
232
100
AcDbEntity
  8
0
100
AcDbLine
 62
7
  6
CONTINUOUS
 10
-0.6851468107
 20
-4.5973090725
 11
-0.5973161517
 21
-4.6110653034
  0
LWPOLYLINE
  5
233
100
AcDbEntity
  8
0
100
AcDbPolyline
 62
7
  6
CONTINUOUS
 90
9
 70
0
 10
-0.9552031143
 20
-4.5495099327
 10
-0.9048696985
 20
-4.5596814411
 10
-0.8528694303
 20
-4.5695787121
 10
-0.7991915359
 20
-4.5791480629
 10
-0.7436070851
 20
-4.5883687966
 10
-0.6861080611
 20
-4.5971744532
 10
-0.626699058
 20
-4.6054944481
 10
-0.5651695751
 20
-4.6132822501
 10
-0.5015197081
 20
-4.6204551088
  0
LINE
  5
234
100
AcDbEntity
  8
0
100
AcDbLine
 62
7
  6
CONTINUOUS
 10
-1.0580752697
 20
-4.5276027334
 11
-1.0259776926
 21
-4.5341507934
  0
LINE
  5
235
100
AcDbEntity
  8
0
100
AcDbLine
 62
7
  6
CONTINUOUS
 10
-0.8484778214
 20
-4.5703616199
 11
-0.799971886
 21
-4.5802570638
  0
LINE
  5
236
100
AcDbEntity
  8
0
100
AcDbLine
 62
7
  6
CONTINUOUS
 10
-1.0865143866
 20
-4.5208623283
 11
-0.828747065
 21
-4.5751380314
  0
LINE
  5
237
100
AcDbEntity
  8
0
100
AcDbLine
 62
7
  6
CONTINUOUS
 10
-1.3320526749
 20
-4.4551246527
 11
-1.3244394836
 21
-4.4569686873
  0
LINE
  5
238
100
AcDbEntity
  8
0
100
AcDbLine
 62
7
  6
CONTINUOUS
 10
-1.3127825405
 20
-4.4604161004
 11
-1.0580752697
 21
-4.5276027334
  0
LINE
  5
239
100
AcDbEntity
  8
0
100
AcDbLine
 62
7
  6
CONTINUOUS
 10
-1.3407943062
 20
-4.4520759576
 11
-1.0865143866
 21
-4.5208623283
  0
LWPOLYLINE
  5
23A
100
AcDbEntity
  8
0
100
AcDbPolyline
 62
7
  6
CONTINUOUS
 90
3
 70
0
 10
-1.3824003404
 20
-4.4393331753
 10
-1.1289038136
 20
-4.5104640471
 10
-0.8574894973
 20
-4.5698382446
  0
LINE
  5
23B
100
AcDbEntity
  8
0
100
AcDbLine
 62
7
  6
CONTINUOUS
 10
-1.5609028876
 20
-4.3796850073
 11
-1.3127825405
 21
-4.4604161004
  0
LINE
  5
23C
100
AcDbEntity
  8
0
100
AcDbLine
 62
7
  6
CONTINUOUS
 10
-1.3500836765
 20
-4.4489887612
 11
-1.3407943062
 21
-4.4520759576
  0
LINE
  5
23D
100
AcDbEntity
  8
0
100
AcDbLine
 62
7
  6
CONTINUOUS
 10
-1.3902116953
 20
-4.4366558684
 11
-1.3824003404
 21
-4.4393331753
  0
LWPOLYLINE
  5
23E
100
AcDbEntity
  8
0
100
AcDbPolyline
 62
7
  6
CONTINUOUS
 90
19
 70
0
 10
-1.6639345335
 20
-4.3416622279
 10
-1.6359648651
 20
-4.3522718397
 10
-1.60716022
 20
-4.3629793353
 10
-1.5775206056
 20
-4.3737678556
 10
-1.5470373786
 20
-4.3846221666
 10
-1.5155921646
 20
-4.3955660677
 10
-1.4831790448
 20
-4.4065802705
 10
-1.4497940246
 20
-4.4176437329
 10
-1.4153200832
 20
-4.428771849
 10
-1.3797495883
 20
-4.439940964
 10
-1.3430793801
 20
-4.4511249994
 10
-1.305197766
 20
-4.4623294088
 10
-1.2660960657
 20
-4.4735254581
 10
-1.2257718825
 20
-4.4846815407
 10
-1.1841218308
 20
-4.4957920984
 10
-1.1411455515
 20
-4.5068204866
 10
-1.0968329519
 20
-4.5177314755
 10
-1.0510651128
 20
-4.5285139095
 10
-1.0038662056
 20
-4.5391190159
  0
LWPOLYLINE
  5
23F
100
AcDbEntity
  8
0
100
AcDbPolyline
 62
7
  6
CONTINUOUS
 90
4
 70
0
 10
-1.7433868042
 20
-4.3103511238
 10
-1.7176417803
 20
-4.3206889561
 10
-1.6911730839
 20
-4.3311241553
 10
-1.6639345335
 20
-4.3416622279
  0
LINE
  5
240
100
AcDbEntity
  8
0
100
AcDbLine
 62
7
  6
CONTINUOUS
 10
-1.8752965788
 20
-4.2546412877
 11
-1.8685707288
 21
-4.2573810969
  0
LINE
  5
241
100
AcDbEntity
  8
0
100
AcDbLine
 62
7
  6
CONTINUOUS
 10
-1.8620011323
 20
-4.2604766758
 11
-1.6779863449
 21
-4.3362508632
  0
LWPOLYLINE
  5
242
100
AcDbEntity
  8
0
100
AcDbPolyline
 62
7
  6
CONTINUOUS
 90
4
 70
0
 10
-1.8653561672
 20
-4.2585729512
 10
-1.8416512725
 20
-4.2690445583
 10
-1.8177705947
 20
-4.2793798142
 10
-1.7934498837
 20
-4.2896902723
  0
LINE
  5
243
100
AcDbEntity
  8
0
100
AcDbLine
 62
7
  6
CONTINUOUS
 10
-2.113115958
 20
-4.1416724514
 11
-1.8620011323
 21
-4.2604766758
  0
LINE
  5
244
100
AcDbEntity
  8
0
100
AcDbLine
 62
7
  6
CONTINUOUS
 10
-2.1177505789
 20
-3.8396277019
 11
-2.1112031053
 21
-3.842741418
  0
LINE
  5
245
100
AcDbEntity
  8
0
100
AcDbLine
 62
7
  6
CONTINUOUS
 10
-2.3441597114
 20
-4.0154233894
 11
-2.1001721821
 21
-4.1482510202
  0
LINE
  5
246
100
AcDbEntity
  8
0
100
AcDbLine
 62
7
  6
CONTINUOUS
 10
-2.5676869773
 20
-3.8762989225
 11
-2.3316090083
 21
-4.0227240961
  0
LINE
  5
247
100
AcDbEntity
  8
0
100
AcDbLine
 62
7
  6
CONTINUOUS
 10
-2.7829810313
 20
-3.7247451364
 11
-2.5555695424
 21
-3.8842983966
  0
LINE
  5
248
100
AcDbEntity
  8
0
100
AcDbLine
 62
7
  6
CONTINUOUS
 10
-2.9893515499
 20
-3.5612479645
 11
-2.7713357396
 21
-3.7334177288
  0
LINE
  5
249
100
AcDbEntity
  8
0
100
AcDbLine
 62
7
  6
CONTINUOUS
 10
-2.2767695717
 20
-3.6718782229
 11
-2.4128702319
 21
-3.5552081272
  0
LINE
  5
24A
100
AcDbEntity
  8
0
100
AcDbLine
 62
7
  6
CONTINUOUS
 10
-2.4128702319
 20
-3.5552081272
 11
-2.4489340914
 21
-3.5239885774
  0
LINE
  5
24B
100
AcDbEntity
  8
0
100
AcDbLine
 62
7
  6
CONTINUOUS
 10
-2.2536747429
 20
-3.6918892012
 11
-2.2767695717
 21
-3.6718782229
  0
LINE
  5
24C
100
AcDbEntity
  8
0
100
AcDbLine
 62
7
  6
CONTINUOUS
 10
-2.2393256018
 20
-3.7044463641
 11
-2.2536747429
 21
-3.6918892012
  0
LINE
  5
24D
100
AcDbEntity
  8
0
100
AcDbLine
 62
7
  6
CONTINUOUS
 10
-2.4489340914
 20
-3.5239885774
 11
-2.4877483103
 21
-3.4900489627
  0
LINE
  5
24E
100
AcDbEntity
  8
0
100
AcDbLine
 62
7
  6
CONTINUOUS
 10
-2.4877483103
 20
-3.4900489627
 11
-2.5152271397
 21
-3.4657685278
  0
LINE
  5
24F
100
AcDbEntity
  8
0
100
AcDbLine
 62
7
  6
CONTINUOUS
 10
-2.2257866269
 20
-3.7164191036
 11
-2.2393256018
 21
-3.7044463641
  0
LINE
  5
250
100
AcDbEntity
  8
0
100
AcDbLine
 62
7
  6
CONTINUOUS
 10
-3.1861367841
 20
-3.3863316654
 11
-2.9782157797
 21
-3.5705658498
  0
LINE
  5
251
100
AcDbEntity
  8
0
100
AcDbLine
 62
7
  6
CONTINUOUS
 10
-2.5152271397
 20
-3.4657685278
 11
-2.5440652865
 21
-3.4400359452
  0
LINE
  5
252
100
AcDbEntity
  8
0
100
AcDbLine
 62
7
  6
CONTINUOUS
 10
-2.2130237925
 20
-3.7278507163
 11
-2.2257866269
 21
-3.7164191036
  0
LINE
  5
253
100
AcDbEntity
  8
0
100
AcDbLine
 62
7
  6
CONTINUOUS
 10
-2.5440652865
 20
-3.4400359452
 11
-2.5742932979
 21
-3.4127588496
  0
LINE
  5
254
100
AcDbEntity
  8
0
100
AcDbLine
 62
7
  6
CONTINUOUS
 10
-2.5742932979
 20
-3.4127588496
 11
-2.6059754109
 21
-3.3838102966
  0
LINE
  5
255
100
AcDbEntity
  8
0
100
AcDbLine
 62
7
  6
CONTINUOUS
 10
-2.6059754109
 20
-3.3838102966
 11
-2.6391831001
 21
-3.3530459981
  0
LWPOLYLINE
  5
256
100
AcDbEntity
  8
0
100
AcDbPolyline
 62
7
  6
CONTINUOUS
 90
50
 70
0
 10
-2.6391831001
 20
-3.3530459981
 10
-2.6739434426
 20
-3.3203457046
 10
-2.6919344172
 20
-3.3032119327
 10
-2.7103220789
 20
-3.2855447909
 10
-2.729145357
 20
-3.2672953835
 10
-2.7483921912
 20
-3.248456511
 10
-2.7680538327
 20
-3.2290178504
 10
-2.7881718635
 20
-3.2089238295
 10
-2.8087318775
 20
-3.1881660906
 10
-2.8297231251
 20
-3.1667326579
 10
-2.8511898378
 20
-3.144560187
 10
-2.8731147381
 20
-3.1216390016
 10
-2.8954845918
 20
-3.09795522
 10
-2.9183462026
 20
-3.0734364291
 10
-2.9416787597
 20
-3.0480714703
 10
-2.9654659373
 20
-3.0218442656
 10
-2.9897569466
 20
-2.9946717767
 10
-3.0145266384
 20
-2.9665411671
 10
-3.0397547968
 20
-2.9374338702
 10
-3.0654926645
 20
-2.9072544432
 10
-3.0917097355
 20
-2.8759881817
 10
-3.1183808932
 20
-2.8436137185
 10
-3.1455587665
 20
-2.8100211583
 10
-3.1732061259
 20
-2.7751938607
 10
-3.2012917503
 20
-2.7391072453
 10
-3.229868879
 20
-2.701634308
 10
-3.2588917423
 20
-2.6627565966
 10
-3.2883215471
 20
-2.6224457791
 10
-3.3182113735
 20
-2.5805539778
 10
-3.3485049373
 20
-2.5370607087
 10
-3.3791535691
 20
-2.4919338067
 10
-3.4102082406
 20
-2.4450008556
 10
-3.4415996208
 20
-2.3962391793
 10
-3.4732661777
 20
-2.3456129297
 10
-3.5052533159
 20
-2.292921916
 10
-3.537474881
 20
-2.2381422118
 10
-3.5698532507
 20
-2.1812339282
 10
-3.6024245125
 20
-2.1219639323
 10
-3.6350810473
 20
-2.0603083263
 10
-3.6677247025
 20
-1.9962233765
 10
-3.7003772095
 20
-1.9294362949
 10
-3.7329038496
 20
-1.8599245753
 10
-3.76517967
 20
-1.7876421784
 10
-3.7972039477
 20
-1.7122705077
 10
-3.8288069327
 20
-1.6337924221
 10
-3.8598294579
 20
-1.5521609614
 10
-3.8902380988
 20
-1.467002308
 10
-3.9198719272
 20
-1.3781706759
 10
-3.9484669224
 20
-1.2857590868
 10
-3.9758003432
 20
-1.1897527606
  0
LINE
  5
257
100
AcDbEntity
  8
0
100
AcDbLine
 62
7
  6
CONTINUOUS
 10
-3.3727057021
 20
-3.2005571396
 11
-3.1755462586
 21
-3.3962649598
  0
LINE
  5
258
100
AcDbEntity
  8
0
100
AcDbLine
 62
7
  6
CONTINUOUS
 10
-3.5484600737
 20
-3.0045200722
 11
-3.3626943991
 21
-3.2110739785
  0
LINE
  5
259
100
AcDbEntity
  8
0
100
AcDbLine
 62
7
  6
CONTINUOUS
 10
-3.712836346
 20
-2.7988490542
 11
-3.5390601128
 21
-3.0155867149
  0
LINE
  5
25A
100
AcDbEntity
  8
0
100
AcDbLine
 62
7
  6
CONTINUOUS
 10
-3.8653074207
 20
-2.5842036115
 11
-3.7040778815
 21
-2.8104299963
  0
LINE
  5
25B
100
AcDbEntity
  8
0
100
AcDbLine
 62
7
  6
CONTINUOUS
 10
-4.0053843877
 20
-2.3612720452
 11
-3.8572185456
 21
-2.5962616984
  0
LINE
  5
25C
100
AcDbEntity
  8
0
100
AcDbLine
 62
7
  6
CONTINUOUS
 10
-4.1326181273
 20
-2.1307691523
 11
-3.9979910582
 21
-2.3737685678
  0
LINE
  5
25D
100
AcDbEntity
  8
0
100
AcDbLine
 62
7
  6
CONTINUOUS
 10
-4.2466007081
 20
-1.8934339688
 11
-4.12594405
 21
-2.1436640153
  0
LINE
  5
25E
100
AcDbEntity
  8
0
100
AcDbLine
 62
7
  6
CONTINUOUS
 10
-4.3469666499
 20
-1.650027489
 11
-4.2406672464
 21
-1.9066858731
  0
LINE
  5
25F
100
AcDbEntity
  8
0
100
AcDbLine
 62
7
  6
CONTINUOUS
 10
-4.4333941205
 20
-1.4013302053
 11
-4.3417927832
 21
-1.6635940432
  0
LINE
  5
260
100
AcDbEntity
  8
0
100
AcDbLine
 62
7
  6
CONTINUOUS
 10
-4.5056059959
 20
-1.1481395316
 11
-4.4289964255
 21
-1.4151679671
  0
LINE
  5
261
100
AcDbEntity
  8
0
100
AcDbLine
 62
7
  6
CONTINUOUS
 10
-4.5633707271
 20
-0.8912672905
 11
-4.5019985886
 21
-1.1622041217
  0
LINE
  5
262
100
AcDbEntity
  8
0
100
AcDbLine
 62
7
  6
CONTINUOUS
 10
-4.6336873465
 20
-0.3842541941
 11
-4.6045084166
 21
-0.6459194628
  0
LWPOLYLINE
  5
263
100
AcDbEntity
  8
0
100
AcDbPolyline
 62
7
  6
CONTINUOUS
 90
13
 70
0
 10
-3.9071355429
 20
1.3040118975
 10
-3.9678325451
 20
1.106308483
 10
-4.0198269971
 20
0.9022897453
 10
-4.0617056002
 20
0.6960456466
 10
-4.093418201
 20
0.4874416342
 10
-4.1150149527
 20
0.2766122608
 10
-4.1261854374
 20
0.0651985663
 10
-4.1267460175
 20
-0.1470864916
 10
-4.1168803304
 20
-0.3599558706
 10
-4.0968288701
 20
-0.5709074037
 10
-4.0666718011
 20
-0.7791070353
 10
-4.0263289588
 20
-0.9853888209
 10
-3.9758003432
 20
-1.1897527606
  0
LWPOLYLINE
  5
264
100
AcDbEntity
  8
0
100
AcDbPolyline
 62
7
  6
CONTINUOUS
 90
13
 70
0
 10
-2.4642771049
 20
3.3391373662
 10
-2.6285539433
 20
3.2049098145
 10
-2.7853988032
 20
3.063481504
 10
-2.9348116846
 20
2.9148524348
 10
-3.0772167177
 20
2.7584797721
 10
-3.2121897722
 20
2.5949063507
 10
-3.3384584577
 20
2.4257606745
 10
-3.4557671965
 20
2.251224904
 10
-3.5643715661
 20
2.0711168787
 10
-3.6637659093
 20
1.8865186212
 10
-3.7539299882
 20
1.6974483092
 10
-3.8348840406
 20
1.503887765
 10
-3.9071355429
 20
1.3040118975
  0
LWPOLYLINE
  5
265
100
AcDbEntity
  8
0
100
AcDbPolyline
 62
7
  6
CONTINUOUS
 90
31
 70
0
 10
-2.4642771049
 20
3.3391373662
 10
-2.2881780455
 20
3.4689567707
 10
-2.1055838196
 20
3.5898476846
 10
-1.9169260458
 20
3.7015012516
 10
-1.7226248572
 20
3.8036380383
 10
-1.5231627334
 20
3.8959747144
 10
-1.3190893741
 20
3.9782376897
 10
-1.1108827318
 20
4.0502147446
 10
-0.8990467701
 20
4.1117028546
 10
-0.684195727
 20
4.1625023851
 10
-0.4668248727
 20
4.2024849929
 10
-0.2474797956
 20
4.2315265024
 10
-0.0268724223
 20
4.249512055
 10
0.1944691079
 20
4.2564130135
 10
0.4159959879
 20
4.252201528
 10
0.6369483913
 20
4.2368622352
 10
0.8567561222
 20
4.210479615
 10
1.0749077418
 20
4.1731296247
 10
1.2907209736
 20
4.1248799234
 10
1.5036188808
 20
4.0659104746
 10
1.7131220288
 20
3.9963995178
 10
1.9186884588
 20
3.9164800173
 10
2.1197811617
 20
3.8264069104
 10
2.3159317387
 20
3.72644087
 10
2.5066971415
 20
3.6167618957
 10
2.6915898133
 20
3.4976844046
 10
2.8701601647
 20
3.3695420142
 10
3.0420196124
 20
3.2325672194
 10
3.2067479716
 20
3.0870910789
 10
3.3639115275
 20
2.9335498353
 10
3.5131179404
 20
2.7723593075
  0
LWPOLYLINE
  5
266
100
AcDbEntity
  8
0
100
AcDbPolyline
 62
7
  6
CONTINUOUS
 90
25
 70
0
 10
-2.1177505789
 20
-3.8396277019
 10
-2.1184100667
 20
-3.8358334753
 10
-2.1194715808
 20
-3.8319972469
 10
-2.1209352786
 20
-3.8281201848
 10
-2.1228519722
 20
-3.8242014631
 10
-2.1251710668
 20
-3.8202435448
 10
-2.1277404984
 20
-3.816251997
 10
-2.1305264064
 20
-3.812235386
 10
-2.1335626202
 20
-3.808185382
 10
-2.1367983752
 20
-3.8040817942
 10
-2.1402228993
 20
-3.7999225368
 10
-2.1438465208
 20
-3.7957093009
 10
-2.1476498521
 20
-3.7914273354
 10
-2.1516277551
 20
-3.7870756727
 10
-2.1557846729
 20
-3.7826545545
 10
-2.1601153847
 20
-3.7781509034
 10
-2.1646171103
 20
-3.7735637266
 10
-2.1692917027
 20
-3.7688930267
 10
-2.1741407091
 20
-3.7641270948
 10
-2.179162101
 20
-3.7592651431
 10
-2.1843567545
 20
-3.7543067241
 10
-2.1897303999
 20
-3.7492405103
 10
-2.1952813345
 20
-3.7440657275
 10
-2.2010098685
 20
-3.7387816588
 10
-2.2130237925
 20
-3.7278507163
  0
LWPOLYLINE
  5
267
100
AcDbEntity
  8
0
100
AcDbPolyline
 62
7
  6
CONTINUOUS
 90
22
 70
0
 10
-2.1112031053
 20
-3.842741418
 10
-2.1056403712
 20
-3.8806406943
 10
-2.0998212325
 20
-3.9161230537
 10
-2.0937935677
 20
-3.9491589489
 10
-2.0874955698
 20
-3.9797251286
 10
-2.0811115193
 20
-4.0078605294
 10
-2.0750538303
 20
-4.0336285093
 10
-2.0697409984
 20
-4.0569906147
 10
-2.0648611965
 20
-4.078012916
 10
-2.0597300701
 20
-4.0969385412
 10
-2.0547011012
 20
-4.1137628581
 10
-2.0495586816
 20
-4.1286606675
 10
-2.042802258
 20
-4.1422659454
 10
-2.0340772956
 20
-4.1549127333
 10
-2.0239293279
 20
-4.166616224
 10
-2.0122339751
 20
-4.1776093436
 10
-1.9991169417
 20
-4.1880527527
 10
-1.984615487
 20
-4.1980860024
 10
-1.9684817854
 20
-4.2079339198
 10
-1.9506235628
 20
-4.2177870483
 10
-1.9312723586
 20
-4.2277212229
 10
-1.9106554424
 20
-4.2377709838
  0
LINE
  5
268
100
AcDbEntity
  8
0
100
AcDbLine
 62
7
  6
CONTINUOUS
 10
4.6430983359
 20
0.2456573876
 11
4.6196431892
 21
0.5268838137
  0
LINE
  5
269
100
AcDbEntity
  8
0
100
AcDbLine
 62
7
  6
CONTINUOUS
 10
4.6495593014
 20
-0.0175502632
 11
4.6420675941
 21
0.2644205019
  0
LINE
  5
26A
100
AcDbEntity
  8
0
100
AcDbLine
 62
7
  6
CONTINUOUS
 10
4.6411115319
 20
-0.2807017247
 11
4.6495922964
 21
0.0011084801
  0
LINE
  5
26B
100
AcDbEntity
  8
0
100
AcDbLine
 62
7
  6
CONTINUOUS
 10
4.617782105
 20
-0.5429531666
 11
4.6421931449
 21
-0.2622070909
  0
LINE
  5
26C
100
AcDbEntity
  8
0
100
AcDbLine
 62
7
  6
CONTINUOUS
 10
4.5796458203
 20
-0.8034636717
 11
4.6198938897
 21
-0.5246810488
  0
LINE
  5
26D
100
AcDbEntity
  8
0
100
AcDbLine
 62
7
  6
CONTINUOUS
 10
4.5268249521
 20
-1.0613979296
 11
4.5827661043
 21
-0.7854709355
  0
LINE
  5
26E
100
AcDbEntity
  8
0
100
AcDbLine
 62
7
  6
CONTINUOUS
 10
4.4594888656
 20
-1.3159288619
 11
4.5309289562
 21
-1.0437396959
  0
LINE
  5
26F
100
AcDbEntity
  8
0
100
AcDbLine
 62
7
  6
CONTINUOUS
 10
4.3778534857
 20
-1.5662402661
 11
4.4645488278
 21
-1.2986583558
  0
LINE
  5
270
100
AcDbEntity
  8
0
100
AcDbLine
 62
7
  6
CONTINUOUS
 10
4.2821805794
 20
-1.8115295193
 11
4.3838387822
 21
-1.5494086917
  0
LINE
  5
271
100
AcDbEntity
  8
0
100
AcDbLine
 62
7
  6
CONTINUOUS
 10
4.1727769227
 20
-2.0510101092
 11
4.2890578785
 21
-1.795185862
  0
LINE
  5
272
100
AcDbEntity
  8
0
100
AcDbLine
 62
7
  6
CONTINUOUS
 10
4.049993341
 20
-2.2839141081
 11
4.1805103351
 21
-2.0352009986
  0
LINE
  5
273
100
AcDbEntity
  8
0
100
AcDbLine
 62
7
  6
CONTINUOUS
 10
3.9142235734
 20
-2.5094946769
 11
4.0585445548
 21
-2.2686837295
  0
LINE
  5
274
100
AcDbEntity
  8
0
100
AcDbLine
 62
7
  6
CONTINUOUS
 10
3.765902951
 20
-2.7270285441
 11
3.9235520091
 21
-2.494884647
  0
LINE
  5
275
100
AcDbEntity
  8
0
100
AcDbLine
 62
7
  6
CONTINUOUS
 10
3.6055070052
 20
-2.9358182766
 11
3.7759659871
 21
-2.7130777056
  0
LINE
  5
276
100
AcDbEntity
  8
0
100
AcDbLine
 62
7
  6
CONTINUOUS
 10
3.4335500137
 20
-3.1351944153
 11
3.6162602021
 21
-2.9225625613
  0
LINE
  5
277
100
AcDbEntity
  8
0
100
AcDbLine
 62
7
  6
CONTINUOUS
 10
3.2505833692
 20
-3.3245176311
 11
3.4449472682
 21
-3.1226668242
  0
LINE
  5
278
100
AcDbEntity
  8
0
100
AcDbLine
 62
7
  6
CONTINUOUS
 10
3.057193748
 20
-3.5031808557
 11
3.2625770479
 21
-3.3127482224
  0
LWPOLYLINE
  5
279
100
AcDbEntity
  8
0
100
AcDbPolyline
 62
7
  6
CONTINUOUS
 90
40
 70
0
 10
2.9128304719
 20
-3.6241038124
 10
3.1133945553
 20
-3.453329429
 10
3.3039655349
 20
-3.2714708538
 10
3.4839317346
 20
-3.0791117992
 10
3.6527155161
 20
-2.8768696812
 10
3.8097751325
 20
-2.6653936378
 10
3.954606467
 20
-2.4453624469
 10
4.0867446523
 20
-2.2174823457
 10
4.205765563
 20
-1.9824847633
 10
4.3112871759
 20
-1.7411239746
 10
4.4029707964
 20
-1.4941746799
 10
4.4805221464
 20
-1.2424295172
 10
4.543692309
 20
-0.9866965143
 10
4.5922785269
 20
-0.7277964975
 10
4.6261248524
 20
-0.4665604586
 10
4.6451226474
 20
-0.2038268927
 10
4.6492109343
 20
0.0595608961
 10
4.6383765916
 20
0.3227575052
 10
4.612654395
 20
0.5849181527
 10
4.5721269048
 20
0.8452013846
 10
4.5169242009
 20
1.1027717707
 10
4.447223468
 20
1.3568025798
 10
4.3632484276
 20
1.606478439
 10
4.2652686178
 20
1.8509979563
 10
4.1535985248
 20
2.0895762994
 10
4.0285965742
 20
2.3214477076
 10
3.8906639827
 20
2.5458679446
 10
3.740243476
 20
2.7621166808
 10
3.5778178655
 20
2.9694998131
 10
3.4039084951
 20
3.1673516975
 10
3.2190735611
 20
3.3550372916
 10
3.0239063244
 20
3.5319541845
 10
2.8190332106
 20
3.6975345269
 10
2.6051118072
 20
3.8512468491
 10
2.3828287473
 20
3.9925977736
 10
2.1528975009
 20
4.1211336028
 10
1.9160560769
 20
4.2364417772
 10
1.6730646607
 20
4.3381521945
 10
1.4247031796
 20
4.4259383945
 10
1.1717688071
 20
4.499518606
  0
LINE
  5
27A
100
AcDbEntity
  8
0
100
AcDbLine
 62
7
  6
CONTINUOUS
 10
2.8540012334
 20
-3.6706112136
 11
3.0697348915
 21
-3.4921966549
  0
LINE
  5
27B
100
AcDbEntity
  8
0
100
AcDbLine
 62
7
  6
CONTINUOUS
 10
2.7029170391
 20
-3.7832458657
 11
2.9128304719
 21
-3.6241038124
  0
LINE
  5
27C
100
AcDbEntity
  8
0
100
AcDbLine
 62
7
  6
CONTINUOUS
 10
2.6790825748
 20
-3.8001613475
 11
2.8899921989
 21
-3.6423419389
  0
LINE
  5
27D
100
AcDbEntity
  8
0
100
AcDbLine
 62
7
  6
CONTINUOUS
 10
2.6416573678
 20
-3.8262718244
 11
2.8670397621
 21
-3.6604361469
  0
LINE
  5
27E
100
AcDbEntity
  8
0
100
AcDbLine
 62
7
  6
CONTINUOUS
 10
2.4208430711
 20
-3.9696635309
 11
2.6551422561
 21
-3.8169266937
  0
LINE
  5
27F
100
AcDbEntity
  8
0
100
AcDbLine
 62
7
  6
CONTINUOUS
 10
2.1922663854
 20
-4.1003265504
 11
2.4347225098
 21
-3.961166001
  0
LINE
  5
280
100
AcDbEntity
  8
0
100
AcDbLine
 62
7
  6
CONTINUOUS
 10
1.9566602382
 20
-4.2178419171
 11
2.2064880117
 21
-4.0926911004
  0
LINE
  5
281
100
AcDbEntity
  8
0
100
AcDbLine
 62
7
  6
CONTINUOUS
 10
1.7147801425
 20
-4.3218328045
 11
1.9711713253
 21
-4.2110798376
  0
LINE
  5
282
100
AcDbEntity
  8
0
100
AcDbLine
 62
7
  6
CONTINUOUS
 10
1.4674017327
 20
-4.4119657618
 11
1.7295277433
 21
-4.3159522216
  0
LINE
  5
283
100
AcDbEntity
  8
0
100
AcDbLine
 62
7
  6
CONTINUOUS
 10
1.2153181838
 20
-4.4879518091
 11
1.4823328679
 21
-4.4069716433
  0
LWPOLYLINE
  5
284
100
AcDbEntity
  8
0
100
AcDbPolyline
 62
7
  6
CONTINUOUS
 90
14
 70
0
 10
0.655440873
 20
4.6031627263
 10
0.3937045759
 20
4.6328939692
 10
0.1307045972
 20
4.6477549561
 10
-0.1327149129
 20
4.6476979867
 10
-0.3957084495
 20
4.6327232431
 10
-0.6574318733
 20
4.6028787901
 10
-0.9170451239
 20
4.5582604209
 10
-1.1737149211
 20
4.4990113479
 10
-1.4266174329
 20
4.4253217425
 10
-1.6749409171
 20
4.3374281261
 10
-1.9178883245
 20
4.2356126121
 10
-2.1546798609
 20
4.1202020001
 10
-2.3845554931
 20
3.9915667256
 10
-2.6067773873
 20
3.8501196706
  0
LWPOLYLINE
  5
285
100
AcDbEntity
  8
0
100
AcDbPolyline
 62
7
  6
CONTINUOUS
 90
14
 70
0
 10
0.6843628787
 20
4.5989517489
 10
0.422818623
 20
4.6303276506
 10
0.1599172454
 20
4.6468415311
 10
-0.1034974107
 20
4.6484403866
 10
-0.3665798656
 20
4.6351190863
 10
-0.6284857089
 20
4.6069203875
 10
-0.8883743035
 20
4.5639347981
 10
-1.1454114763
 20
4.506300289
 10
-1.3987722035
 20
4.4342018525
 10
-1.6476432653
 20
4.3478709062
 10
-1.8912258626
 20
4.2475845471
 10
-2.1287381726
 20
4.1336646624
 10
-2.3594178531
 20
4.0064768992
 10
-2.582524484
 20
3.866429495
  0
LINE
  5
286
100
AcDbEntity
  8
0
100
AcDbLine
 62
7
  6
CONTINUOUS
 10
0.9150733971
 20
4.5586566553
 11
0.655440873
 21
4.6031627263
  0
LINE
  5
287
100
AcDbEntity
  8
0
100
AcDbLine
 62
7
  6
CONTINUOUS
 10
0.9437105221
 20
4.5528145348
 11
0.6843628787
 21
4.5989517489
  0
LINE
  5
288
100
AcDbEntity
  8
0
100
AcDbLine
 62
7
  6
CONTINUOUS
 10
0.9723103608
 20
4.5467925269
 11
0.8284183012
 21
4.5733246957
  0
LINE
  5
289
100
AcDbEntity
  8
0
100
AcDbLine
 62
7
  6
CONTINUOUS
 10
1.1717688071
 20
4.499518606
 11
0.9150733971
 21
4.5586566553
  0
LINE
  5
28A
100
AcDbEntity
  8
0
100
AcDbLine
 62
7
  6
CONTINUOUS
 10
1.2000291166
 20
4.4920640975
 11
0.9437105221
 21
4.5528145348
  0
LINE
  5
28B
100
AcDbEntity
  8
0
100
AcDbLine
 62
7
  6
CONTINUOUS
 10
1.2282420273
 20
4.4844320983
 11
0.9723103608
 21
4.5467925269
  0
LINE
  5
28C
100
AcDbEntity
  8
0
100
AcDbLine
 62
7
  6
CONTINUOUS
 10
1.2280319789
 20
4.483726615
 11
1.2000291166
 21
4.4920640975
  0
LINE
  5
28D
100
AcDbEntity
  8
0
100
AcDbLine
 62
7
  6
CONTINUOUS
 10
1.3402625956
 20
4.4503114306
 11
1.2282420273
 21
4.4844320983
  0
LWPOLYLINE
  5
28E
100
AcDbEntity
  8
0
100
AcDbPolyline
 62
250
  6
CONTINUOUS
 90
23
 70
0
 10
2.2564132975
 20
3.756773806
 10
2.1819896972
 20
3.8023698048
 10
1.9605793062
 20
3.9211253431
 10
1.7334812149
 20
4.0266782898
 10
1.5010887317
 20
4.118959552
 10
1.2634038146
 20
4.1979645035
 10
1.0206561341
 20
4.2634910843
 10
0.7741304367
 20
4.3150686247
 10
0.5254204284
 20
4.3523589627
 10
0.2758678294
 20
4.375270518
 10
0.0257872811
 20
4.3838830024
 10
-0.2247466949
 20
4.3781941577
 10
-0.4754140004
 20
4.3581047124
 10
-0.7248818354
 20
4.3236143997
 10
-0.9715718453
 20
4.2749436602
 10
-1.2142994135
 20
4.2124306616
 10
-1.4526844324
 20
4.1362788928
 10
-1.6863773039
 20
4.046631528
 10
-1.914367898
 20
3.9438928333
 10
-2.1361688034
 20
3.8282996182
 10
-2.3521174934
 20
3.6995457038
 10
-2.5619755189
 20
3.5574396061
 10
-2.7642834465
 20
3.4026213617
  0
LINE
  5
28F
100
AcDbEntity
  8
0
100
AcDbLine
 62
7
  6
CONTINUOUS
 10
3.1081300031
 20
3.4569497042
 11
3.1233239765
 21
3.4449016442
  0
LINE
  5
290
100
AcDbEntity
  8
0
100
AcDbLine
 62
7
  6
CONTINUOUS
 10
3.260997113
 20
3.3143034804
 11
3.0680694099
 21
3.4936599471
  0
LWPOLYLINE
  5
291
100
AcDbEntity
  8
0
100
AcDbPolyline
 62
7
  6
CONTINUOUS
 90
3
 70
0
 10
3.6148662834
 20
2.924286492
 10
3.4434579535
 20
3.1243090525
 10
3.260997113
 20
3.3143034804
  0
LWPOLYLINE
  5
292
100
AcDbEntity
  8
0
100
AcDbPolyline
 62
7
  6
CONTINUOUS
 90
28
 70
0
 10
3.6275670767
 20
2.9085162554
 10
3.4571201474
 20
3.109184779
 10
3.2755880595
 20
3.2998837204
 10
3.0835528168
 20
3.4800016853
 10
2.8816301331
 20
3.6489611507
 10
2.6704674978
 20
3.8062203097
 10
2.450742023
 20
3.9512748878
 10
2.2231582472
 20
4.0836597692
 10
1.9884459186
 20
4.2029504555
 10
1.7473576873
 20
4.3087644186
 10
1.5006666104
 20
4.4007623688
 10
1.2491636931
 20
4.4786493243
 10
0.9936554033
 20
4.5421755406
 10
0.7349610716
 20
4.5911373237
 10
0.4739101547
 20
4.6253777
 10
0.211339599
 20
4.6447868924
 10
-0.0519087138
 20
4.6493026561
 10
-0.3149906369
 20
4.6389104972
 10
-0.5770625752
 20
4.6136437321
 10
-0.8372842069
 20
4.5735833718
 10
-1.0948211247
 20
4.5188578654
 10
-1.348847487
 20
4.4496427002
 10
-1.598548756
 20
4.3661598204
 10
-1.8431242758
 20
4.2686769153
 10
-2.0817897905
 20
4.157506581
 10
-2.313779986
 20
4.0330053161
 10
-2.5383510377
 20
3.8955723216
 10
-2.7547829557
 20
3.7456482177
  0
LINE
  5
293
100
AcDbEntity
  8
0
100
AcDbLine
 62
7
  6
CONTINUOUS
 10
3.7863823305
 20
2.6985215493
 11
3.6148662834
 21
2.924286492
  0
LINE
  5
294
100
AcDbEntity
  8
0
100
AcDbLine
 62
7
  6
CONTINUOUS
 10
3.9330566345
 20
2.4798740319
 11
3.7746719305
 21
2.7148778154
  0
LINE
  5
295
100
AcDbEntity
  8
0
100
AcDbLine
 62
7
  6
CONTINUOUS
 10
4.0671196633
 20
2.2532748055
 11
3.922361966
 21
2.496755163
  0
LINE
  5
296
100
AcDbEntity
  8
0
100
AcDbLine
 62
7
  6
CONTINUOUS
 10
4.1881415459
 20
2.0194504443
 11
4.0574623492
 21
2.2706186432
  0
LINE
  5
297
100
AcDbEntity
  8
0
100
AcDbLine
 62
7
  6
CONTINUOUS
 10
4.2957342161
 20
1.7791507106
 11
4.1795394475
 21
2.0371940865
  0
LINE
  5
298
100
AcDbEntity
  8
0
100
AcDbLine
 62
7
  6
CONTINUOUS
 10
4.3895526565
 20
1.533146171
 11
4.2882014269
 21
1.7972307206
  0
LINE
  5
299
100
AcDbEntity
  8
0
100
AcDbLine
 62
7
  6
CONTINUOUS
 10
4.4692960417
 20
1.2822256426
 11
4.3830995117
 21
1.5514987634
  0
LINE
  5
29A
100
AcDbEntity
  8
0
100
AcDbLine
 62
7
  6
CONTINUOUS
 10
4.5347086808
 20
1.0271936952
 11
4.4639291057
 21
1.3007869476
  0
LINE
  5
29B
100
AcDbEntity
  8
0
100
AcDbLine
 62
7
  6
CONTINUOUS
 10
4.5855808264
 20
0.768868124
 11
4.5304307711
 21
1.0458999827
  0
LINE
  5
29C
100
AcDbEntity
  8
0
100
AcDbLine
 62
7
  6
CONTINUOUS
 10
4.6217493624
 20
0.5080772963
 11
4.5823910581
 21
0.7876559766
  0
CIRCLE
  5
29D
100
AcDbEntity
  8
0
100
AcDbCircle
 62
7
  6
CONTINUOUS
 10
-0.0
 20
0.0
 40
5.0
  0
CIRCLE
  5
29E
100
AcDbEntity
  8
0
100
AcDbCircle
 62
7
  6
CONTINUOUS
 10
-0.0
 20
0.0
 40
4.9
  0
ARC
  5
29F
100
AcDbEntity
  8
0
100
AcDbCircle
 62
7
  6
CONTINUOUS
 10
-0.0
 20
-0.0
 40
4.65
100
AcDbArc
 50
258.359607633
 51
47.8029400142
  0
ARC
  5
2A0
100
AcDbEntity
  8
0
100
AcDbCircle
 62
7
  6
CONTINUOUS
 10
-0.0
 20
-0.0
 40
4.65
100
AcDbArc
 50
255.5249168918
 51
257.3089063727
  0
ARC
  5
2A1
100
AcDbEntity
  8
0
100
AcDbCircle
 62
7
  6
CONTINUOUS
 10
-0.0
 20
-0.0
 40
4.65
100
AcDbArc
 50
48.7142057849
 51
253.8790833745
  0
ARC
  5
2A2
100
AcDbEntity
  8
0
100
AcDbCircle
 62
250
  6
CONTINUOUS
 10
-0.0
 20
0.0
 40
4.15
100
AcDbArc
 50
196.6597397568
 51
126.4272559301
  0
CIRCLE
  5
2A3
100
AcDbEntity
  8
0
100
AcDbCircle
 62
7
  6
CONTINUOUS
 10
-0.0
 20
0.0
 40
2.95
  0
CIRCLE
  5
2A4
100
AcDbEntity
  8
0
100
AcDbCircle
 62
7
  6
CONTINUOUS
 10
-0.0
 20
0.0
 40
1.5
  0
ENDSEC
  0
SECTION
  2
OBJECTS
  0
DICTIONARY
  5
C
100
AcDbDictionary
280
0
281
1
  3
ACAD_GROUP
350
D
  3
ACAD_MLINESTYLE
350
17
  3
ACAD_LAYOUT
350
1A
  3
ACAD_PLOTSETTINGS
350
19
  3
ACAD_PLOTSTYLENAME
350
E
  0
DICTIONARY
  5
D
102
{ACAD_REACTORS
330
C
102
}
100
AcDbDictionary
280
0
281
1
  0
ACDBDICTIONARYWDFLT
  5
E
102
{ACAD_REACTORS
330
C
102
}
100
AcDbDictionary
281
1
  3
Normal
350
F
100
AcDbDictionaryWithDefault
340
F
  0
DICTIONARY
  5
17
102
{ACAD_REACTORS
330
C
102
}
100
AcDbDictionary
280
0
281
1
  3
Standard
350
18
  0
DICTIONARY
  5
19
102
{ACAD_REACTORS
330
C
102
}
100
AcDbDictionary
281
1
  0
DICTIONARY
  5
1A
102
{ACAD_REACTORS
330
C
102
}
100
AcDbDictionary
281
1
  3
Model
350
2A5
  3
Layout1
350
2A6
  0
ACDBPLACEHOLDER
  5
F
102
{ACAD_REACTORS
330
E
102
}
  0
MLINESTYLE
  5
18
102
{ACAD_REACTORS
330
17
102
}
100
AcDbMlineStyle
  2
STANDARD
 70
0
  3

 62
256
 51
90.0
 52
90.0
 71
2
 49
0.5
 62
256
  6
BYLAYER
 49
-0.5
 62
256
  6
BYLAYER
  0
LAYOUT
  5
2A5
102
{ACAD_REACTORS
330
1A
102
}
100
AcDbPlotSettings
  1

  2
none_device
  4
ISO_A4_(297.00_x_210.00_MM)
  6

 40
0.0
 41
0.0
 42
0.0
 43
0.0
 44
297.0
 45
210.0
 46
0.0
 47
0.0
 48
0.0
 49
0.0
140
0.0
141
0.0
142
1.0
143
1.0
 70
1024
 72
1
 73
0
 74
0
  7

 75
0
147
1.0
148
0.0
149
0.0
100
AcDbLayout
  1
Model
 70
0
 71
0
 10
0.0
 20
0.0
 11
297.0
 21
210.0
 12
0.0
 22
0.0
 32
0.0
 14
0.0
 24
0.0
 34
0.0
 15
0.0
 25
0.0
 35
0.0
146
0.0
 13
0.0
 23
0.0
 33
0.0
 16
1.0
 26
0.0
 36
0.0
 17
0.0
 27
1.0
 37
0.0
 76
0
330
207
345
0
346
0
  0
LAYOUT
  5
2A6
102
{ACAD_REACTORS
330
1A
102
}
100
AcDbPlotSettings
  1

  2
none_device
  4
ISO_A4_(297.00_x_210.00_MM)
  6

 40
0.0
 41
0.0
 42
0.0
 43
0.0
 44
297.0
 45
210.0
 46
0.0
 47
0.0
 48
0.0
 49
0.0
140
0.0
141
0.0
142
1.0
143
1.0
 70
0
 72
1
 73
0
 74
0
  7

 75
0
147
1.0
148
0.0
149
0.0
100
AcDbLayout
  1
Layout1
 70
0
 71
1
 10
0.0
 20
0.0
 11
297.0
 21
210.0
 12
0.0
 22
0.0
 32
0.0
 14
0.0
 24
0.0
 34
0.0
 15
0.0
 25
0.0
 35
0.0
146
0.0
 13
0.0
 23
0.0
 33
0.0
 16
1.0
 26
0.0
 36
0.0
 17
0.0
 27
1.0
 37
0.0
 76
0
330
208
345
0
346
0
  0
ENDSEC
  0
EOF
