  0
SECTION
  2
HEADER
  9
$ACADVER
  1
AC1015
  9
$DWGCODEPAGE
  3
ANSI_1252
  9
$EXTMAX
 10
297.0
 20
210.0
 30
0.0
  9
$EXTMIN
 10
0.0
 20
0.0
 30
0.0
  9
$LIMMIN
 10
0.0
 20
0.0
  9
$LIMMAX
 10
297.0
 20
210.0
  9
$VIEWCTR
 10
148.5
 20
105.0
  9
$VIEWSIZE
 40
210.0
  9
$CLAYER
  8
0
  9
$LTSCALE
 40
16.335
  9
$CELTYPE
  6
BYLAYER
  9
$DIMSCALE
 40
1.0
  9
$DIMASZ
 40
3.0
  9
$DIMEXO
 40
0.5
  9
$DIMDLI
 40
11.286
  9
$DIMEXE
 40
1.5
  9
$DIMCEN
 40
2.673
  9
$DIMLFAC
 40
1.0
  9
$DIMBLK
  1
_FILLED
  9
$DIMTXT
 40
3.0
  9
$DIMTOL
 70
1
  9
$DIMLIM
 70
0
  9
$DIMTFAC
 40
1.0
  9
$DIMTP
 40
0.01
  9
$DIMTM
 40
0.01
  9
$DIMGAP
 40
0.625
  9
$DIMDSEP
 70
44
  9
$PDMODE
 70
3
  9
$PDSIZE
 40
3.0
  9
$HANDSEED
  5
3F3
  9
$TILEMODE
 70
1
  9
$MEASUREMENT
 70
1
  9
$INSUNITS
 70
4
  0
ENDSEC
  0
SECTION
  2
CLASSES
  0
CLASS
  1
ACDBDICTIONARYWDFLT
  2
AcDbDictionaryWithDefault
  3
AutoCAD 2000
 90
0
280
0
281
0
  0
CLASS
  1
ACDBPLACEHOLDER
  2
AcDbPlaceHolder
  3
AutoCAD 2000
 90
0
280
0
281
0
  0
CLASS
  1
LAYOUT
  2
AcDbLayout
  3
AutoCAD 2000
 90
0
280
0
281
0
  0
ENDSEC
  0
SECTION
  2
TABLES
  0
TABLE
  2
VPORT
  5
8
100
AcDbSymbolTable
 70
2
  0
VPORT
  5
1F4
100
AcDbSymbolTableRecord
100
AcDbViewportTableRecord
  2
*ACTIVE
 70
0
 10
0.0
 20
0.0
 11
1.0
 21
1.0
 12
148.5
 22
105.0
 13
0.0
 23
0.0
 14
1.0
 24
1.0
 15
0.0
 25
0.0
 16
0.0
 26
0.0
 36
1.0
 17
0.0
 27
0.0
 37
0.0
 40
210.0
 41
1.4142857143
 42
50.0
 43
0.0
 44
0.0
 50
0.0
 51
0.0
 71
0
 72
100
 73
1
 74
1
 75
0
 76
0
 77
0
 78
0
  0
ENDTAB
  0
TABLE
  2
LTYPE
  5
5
100
AcDbSymbolTable
 70
6
  0
LTYPE
  5
14
100
AcDbSymbolTableRecord
100
AcDbLinetypeTableRecord
  2
BYBLOCK
 70
0
  3

 72
65
 73
0
 40
0.0
  0
LTYPE
  5
15
100
AcDbSymbolTableRecord
100
AcDbLinetypeTableRecord
  2
BYLAYER
 70
0
  3

 72
65
 73
0
 40
0.0
  0
LTYPE
  5
16
100
AcDbSymbolTableRecord
100
AcDbLinetypeTableRecord
  2
CONTINUOUS
 70
64
  3
Solid line
 72
65
 73
0
 40
0.0
  0
LTYPE
  5
1F5
100
AcDbSymbolTableRecord
100
AcDbLinetypeTableRecord
  2
CENTER
 70
64
  3
____ _ ____ _ ____ _ ____ _ ____ _ ____ _ ____
 72
65
 73
4
 40
0.6
 49
0.375
 74
0
 49
-0.075
 74
0
 49
0.075
 74
0
 49
-0.075
 74
0
  0
LTYPE
  5
1F6
100
AcDbSymbolTableRecord
100
AcDbLinetypeTableRecord
  2
HIDDEN
 70
64
  3
- - - - - - - - - - - - - - - - - - - -
 72
65
 73
2
 40
0.2
 49
0.1
 74
0
 49
-0.1
 74
0
  0
LTYPE
  5
1F7
100
AcDbSymbolTableRecord
100
AcDbLinetypeTableRecord
  2
PHANTOM
 70
64
  3
_____ _ _ _____ _ _ _____ _ _ _____
 72
65
 73
6
 40
0.8
 49
0.45
 74
0
 49
-0.05
 74
0
 49
0.1
 74
0
 49
-0.05
 74
0
 49
0.1
 74
0
 49
-0.05
 74
0
  0
LTYPE
  5
1F8
100
AcDbSymbolTableRecord
100
AcDbLinetypeTableRecord
  2
DOT
 70
64
  3
. . . . . . . . . . . . . . . . . . . .
 72
65
 73
2
 40
0.2
 49
0.1
 74
0
 49
-0.1
 74
0
  0
LTYPE
  5
1F9
100
AcDbSymbolTableRecord
100
AcDbLinetypeTableRecord
  2
DASHED
 70
64
  3
- - - - - - - - - - - - - - - - - - - -
 72
65
 73
2
 40
0.2
 49
0.1
 74
0
 49
-0.1
 74
0
  0
ENDTAB
  0
TABLE
  2
LAYER
  5
2
100
AcDbSymbolTable
 70
36
  0
LAYER
  5
10
100
AcDbSymbolTableRecord
100
AcDbLayerTableRecord
  2
0
 70
0
 62
7
  6
CONTINUOUS
370
-3
390
F
  0
LAYER
  5
1FA
100
AcDbSymbolTableRecord
100
AcDbLayerTableRecord
  2
DEFAULT_1
 70
0
 62
7
  6
CENTER
370
-3
390
F
  0
LAYER
  5
1FB
100
AcDbSymbolTableRecord
100
AcDbLayerTableRecord
  2
DEFAULT_2
 70
0
 62
7
  6
HIDDEN
370
-3
390
F
  0
LAYER
  5
1FC
100
AcDbSymbolTableRecord
100
AcDbLayerTableRecord
  2
DEFAULT_3
 70
0
 62
7
  6
PHANTOM
370
-3
390
F
  0
LAYER
  5
1FD
100
AcDbSymbolTableRecord
100
AcDbLayerTableRecord
  2
ASSI
 70
0
 62
7
  6
CONTINUOUS
370
-3
390
F
  0
LAYER
  5
1FE
100
AcDbSymbolTableRecord
100
AcDbLayerTableRecord
  2
COLOR5
 70
0
 62
7
  6
CONTINUOUS
370
-3
390
F
  0
LAYER
  5
1FF
100
AcDbSymbolTableRecord
100
AcDbLayerTableRecord
  2
COORDINATE
 70
0
 62
7
  6
CONTINUOUS
370
-3
390
F
  0
LAYER
  5
200
100
AcDbSymbolTableRecord
100
AcDbLayerTableRecord
  2
COORD_ORIGINE
 70
0
 62
7
  6
CONTINUOUS
370
-3
390
F
  0
LAYER
  5
201
100
AcDbSymbolTableRecord
100
AcDbLayerTableRecord
  2
COSMETICI
 70
0
 62
7
  6
CONTINUOUS
370
-3
390
F
  0
LAYER
  5
202
100
AcDbSymbolTableRecord
100
AcDbLayerTableRecord
  2
CURVE
 70
0
 62
7
  6
CONTINUOUS
370
-3
390
F
  0
LAYER
  5
203
100
AcDbSymbolTableRecord
100
AcDbLayerTableRecord
  2
DRAFT
 70
0
 62
7
  6
CONTINUOUS
370
-3
390
F
  0
LAYER
  5
204
100
AcDbSymbolTableRecord
100
AcDbLayerTableRecord
  2
IGES_SCRITTE
 70
0
 62
7
  6
CONTINUOUS
370
-3
390
F
  0
LAYER
  5
205
100
AcDbSymbolTableRecord
100
AcDbLayerTableRecord
  2
INTF_1
 70
0
 62
7
  6
CONTINUOUS
370
-3
390
F
  0
LAYER
  5
206
100
AcDbSymbolTableRecord
100
AcDbLayerTableRecord
  2
INTF_7
 70
0
 62
7
  6
CONTINUOUS
370
-3
390
F
  0
LAYER
  5
207
100
AcDbSymbolTableRecord
100
AcDbLayerTableRecord
  2
NOTE
 70
0
 62
7
  6
CONTINUOUS
370
-3
390
F
  0
LAYER
  5
208
100
AcDbSymbolTableRecord
100
AcDbLayerTableRecord
  2
PIANI
 70
0
 62
7
  6
CONTINUOUS
370
-3
390
F
  0
LAYER
  5
209
100
AcDbSymbolTableRecord
100
AcDbLayerTableRecord
  2
PIANI_ORIGINE
 70
0
 62
7
  6
CONTINUOUS
370
-3
390
F
  0
LAYER
  5
20A
100
AcDbSymbolTableRecord
100
AcDbLayerTableRecord
  2
PUNTI
 70
0
 62
7
  6
CONTINUOUS
370
-3
390
F
  0
LAYER
  5
20B
100
AcDbSymbolTableRecord
100
AcDbLayerTableRecord
  2
RACCORDO
 70
0
 62
7
  6
CONTINUOUS
370
-3
390
F
  0
LAYER
  5
20C
100
AcDbSymbolTableRecord
100
AcDbLayerTableRecord
  2
RGB__255__255__255__
 70
0
 62
7
  6
CONTINUOUS
370
-3
390
F
  0
LAYER
  5
20D
100
AcDbSymbolTableRecord
100
AcDbLayerTableRecord
  2
RGB____0____0____0__
 70
0
 62
7
  6
CONTINUOUS
370
-3
390
F
  0
LAYER
  5
20E
100
AcDbSymbolTableRecord
100
AcDbLayerTableRecord
  2
SUPERFICI
 70
0
 62
7
  6
CONTINUOUS
370
-3
390
F
  0
LAYER
  5
20F
100
AcDbSymbolTableRecord
100
AcDbLayerTableRecord
  2
TRASH
 70
0
 62
7
  6
CONTINUOUS
370
-3
390
F
  0
LAYER
  5
210
100
AcDbSymbolTableRecord
100
AcDbLayerTableRecord
  2
XSEC_DATUMS
 70
0
 62
7
  6
CONTINUOUS
370
-3
390
F
  0
ENDTAB
  0
TABLE
  2
STYLE
  5
3
100
AcDbSymbolTable
 70
1
  0
STYLE
  5
11
100
AcDbSymbolTableRecord
100
AcDbTextStyleTableRecord
  2
STANDARD
 70
0
 40
0.0
 41
0.8
 50
0.0
 71
0
 42
0.2
  3
txt
  4

  0
STYLE
  5
211
100
AcDbSymbolTableRecord
100
AcDbTextStyleTableRecord
  2
TEXTSTYLE_1
 70
0
 40
0.0
 41
0.8
 50
0.0
 71
0
 42
0.2
  3
gdt
  4

  0
ENDTAB
  0
TABLE
  2
VIEW
  5
6
100
AcDbSymbolTable
 70
0
  0
ENDTAB
  0
TABLE
  2
UCS
  5
7
100
AcDbSymbolTable
 70
0
  0
ENDTAB
  0
TABLE
  2
APPID
  5
9
100
AcDbSymbolTable
 70
1
  0
APPID
  5
212
100
AcDbSymbolTableRecord
100
AcDbRegAppTableRecord
  2
ACAD
 70
0
  0
ENDTAB
  0
TABLE
  2
BLOCK_RECORD
  5
1
100
AcDbSymbolTable
 70
0
  0
BLOCK_RECORD
  5
213
100
AcDbSymbolTableRecord
100
AcDbBlockTableRecord
  2
*Model_Space
  0
BLOCK_RECORD
  5
214
100
AcDbSymbolTableRecord
100
AcDbBlockTableRecord
  2
*Paper_Space
  0
ENDTAB
  0
TABLE
  2
DIMSTYLE
  5
A
100
AcDbSymbolTable
 70
1
100
AcDbDimStyleTable
 71
0
  0
DIMSTYLE
105
215
100
AcDbSymbolTableRecord
100
AcDbDimStyleTableRecord
  2
STANDARD
 70
0
  3

  4

 40
1.0
 41
3.0
 42
0.5
 43
0.38
 44
1.5
 45
0.0
 46
0.0
 47
0.01
 48
0.01
140
3.0
141
0.09
142
0.0
143
25.4
144
1.0
145
0.0
146
1.0
147
0.625
 71
1.0
 72
0.0
 73
0
 74
0
 75
0
 76
0
 77
1
 78
8
170
0
171
2
172
0
173
0
174
0
175
0
176
0
177
0
178
0
270
2
271
2
272
2
273
2
274
2
275
0
280
0
281
0
282
0
283
1
284
8
285
0
286
0
287
3
288
0
340
11
278
44
  0
ENDTAB
  0
ENDSEC
  0
SECTION
  2
BLOCKS
  0
BLOCK
  5
20
100
AcDbEntity
  8
0
100
AcDbBlockBegin
  2
*Model_Space
 70
0
 10
0.0
 20
0.0
 30
0.0
  3
*Model_Space
  1

  0
ENDBLK
  5
21
100
AcDbEntity
  8
0
100
AcDbBlockEnd
  0
BLOCK
  5
1C
100
AcDbEntity
  8
0
100
AcDbBlockBegin
  2
*Paper_Space
 70
0
 10
0.0
 20
0.0
 30
0.0
  3
*Paper_Space
  1

  0
ENDBLK
  5
1D
100
AcDbEntity
  8
0
100
AcDbBlockEnd
  0
ENDSEC
  0
SECTION
  2
ENTITIES
  0
LWPOLYLINE
  5
216
100
AcDbEntity
  8
0
100
AcDbPolyline
 62
7
  6
CONTINUOUS
 90
22
 70
0
 10
33.5610817296
 20
77.4419181262
 10
33.5698065238
 20
77.2158874882
 10
33.5948486005
 20
76.9934882645
 10
33.6362079597
 20
76.7747204548
 10
33.6942973755
 20
76.5583731008
 10
33.7687040738
 20
76.345657161
 10
33.8581897322
 20
76.1402055109
 10
33.9630069515
 20
75.9421707907
 10
34.0829031309
 20
75.7514003603
 10
34.215882146
 20
75.5710691749
 10
34.3621629944
 20
75.4013520892
 10
34.5215266785
 20
75.2420742485
 10
34.691320081
 20
75.0958860439
 10
34.8717177682
 20
74.9630067089
 10
35.0625451738
 20
74.84321701
 10
35.2606254815
 20
74.7385096371
 10
35.4661645655
 20
74.6491374095
 10
35.6789565516
 20
74.574847508
 10
35.8952070011
 20
74.5168741647
 10
36.1136511012
 20
74.4756287902
 10
36.3355536646
 20
74.4506999738
 10
36.5609146915
 20
74.4420877156
  0
LINE
  5
217
100
AcDbEntity
  8
0
100
AcDbLine
 62
7
  6
CONTINUOUS
 10
33.5610817293
 20
151.4422349201
 11
33.5610817296
 21
77.4419181262
  0
LINE
  5
218
100
AcDbEntity
  8
RACCORDO
100
AcDbLine
 62
253
  6
CONTINUOUS
 10
34.0590447357
 20
77.9310590464
 11
34.0590447715
 21
151.2509761022
  0
LWPOLYLINE
  5
219
100
AcDbEntity
  8
RACCORDO
100
AcDbPolyline
 62
253
  6
CONTINUOUS
 90
19
 70
0
 10
34.0591638221
 20
151.2509760763
 10
34.070784355
 20
151.5123124511
 10
34.1050262057
 20
151.7717415535
 10
34.1617874097
 20
152.0270596287
 10
34.240534053
 20
152.2763535317
 10
34.340594249
 20
152.5178079487
 10
34.4612984331
 20
152.7496068541
 10
34.6017436025
 20
152.9700169177
 10
34.7607617832
 20
153.1774234838
 10
34.937187762
 20
153.3702176376
 10
35.1297729943
 20
153.5468381123
 10
35.3369772602
 20
153.7060347286
 10
35.5571950341
 20
153.8466479243
 10
35.7887991158
 20
153.9675218317
 10
36.0300611729
 20
154.0677235969
 10
36.279163115
 20
154.1465729887
 10
36.5342795498
 20
154.203418639
 10
36.7935206145
 20
154.2377214
 10
37.0547127648
 20
154.2493544509
  0
LWPOLYLINE
  5
21A
100
AcDbEntity
  8
RACCORDO
100
AcDbPolyline
 62
253
  6
CONTINUOUS
 90
10
 70
0
 10
36.2123876018
 20
77.3896250806
 10
36.1793429938
 20
77.4448060795
 10
36.1500993114
 20
77.5013778293
 10
36.1246565546
 20
77.5593403298
 10
36.1029691556
 20
77.6188884695
 10
36.0850826822
 20
77.6798273601
 10
36.0711338378
 20
77.7415723357
 10
36.0611681902
 20
77.8039285078
 10
36.0551401715
 20
77.867090765
 10
36.0530497818
 20
77.9310591073
  0
LWPOLYLINE
  5
21B
100
AcDbEntity
  8
RACCORDO
100
AcDbPolyline
 62
253
  6
CONTINUOUS
 90
19
 70
0
 10
37.4208913236
 20
151.6729603881
 10
37.6240797259
 20
148.4915321527
 10
37.8351792876
 20
145.3903947903
 10
38.0532120221
 20
142.369548301
 10
38.2772264971
 20
139.4290385865
 10
38.5062941727
 20
136.5688197451
 10
38.7395088036
 20
133.7887540718
 10
38.9759957074
 20
131.0888365516
 10
39.2149006625
 20
128.4690721995
 10
39.4553842123
 20
125.929338355
 10
39.6966458642
 20
123.4696333129
 10
39.9379067652
 20
121.0899587785
 10
40.1783948115
 20
118.7901972071
 10
40.4173837483
 20
116.5703527946
 10
40.6541694858
 20
114.4304213452
 10
40.8880474714
 20
112.3702727264
 10
41.1183547614
 20
110.3898635608
 10
41.3444722614
 20
108.489237226
 10
41.5657973827
 20
106.6683937218
  0
LINE
  5
21C
100
AcDbEntity
  8
RACCORDO
100
AcDbLine
 62
253
  6
CONTINUOUS
 10
37.0547127552
 20
154.0343215545
 11
37.0552255107
 21
153.9309180488
  0
LINE
  5
21D
100
AcDbEntity
  8
RACCORDO
100
AcDbLine
 62
253
  6
CONTINUOUS
 10
36.0530497818
 20
77.9310591073
 11
36.0530485149
 21
151.2509760979
  0
LINE
  5
21E
100
AcDbEntity
  8
RACCORDO
100
AcDbLine
 62
7
  6
CONTINUOUS
 10
36.2123876018
 20
151.7916252269
 11
36.2123876161
 21
79.0929911488
  0
LINE
  5
21F
100
AcDbEntity
  8
RACCORDO
100
AcDbLine
 62
7
  6
CONTINUOUS
 10
36.2123876018
 20
77.3896250806
 11
36.2123876018
 21
77.0933773085
  0
LINE
  5
220
100
AcDbEntity
  8
RACCORDO
100
AcDbLine
 62
7
  6
CONTINUOUS
 10
36.2123876018
 20
151.7916252269
 11
36.2122231603
 21
152.0161605107
  0
LINE
  5
221
100
AcDbEntity
  8
RACCORDO
100
AcDbLine
 62
253
  6
CONTINUOUS
 10
37.0500530389
 20
74.9400507334
 11
37.0500531041
 21
76.9340559109
  0
LINE
  5
222
100
AcDbEntity
  8
RACCORDO
100
AcDbLine
 62
253
  6
CONTINUOUS
 10
37.0547127422
 20
154.2494731422
 11
37.0547127552
 21
154.0343215545
  0
LINE
  5
223
100
AcDbEntity
  8
RACCORDO
100
AcDbLine
 62
253
  6
CONTINUOUS
 10
39.4132409757
 20
153.6726481229
 11
39.4132409757
 21
152.8201055043
  0
LINE
  5
224
100
AcDbEntity
  8
0
100
AcDbLine
 62
7
  6
CONTINUOUS
 10
41.5610817293
 20
146.7184567881
 11
41.5610817293
 21
145.6817180398
  0
LINE
  5
225
100
AcDbEntity
  8
RACCORDO
100
AcDbLine
 62
253
  6
CONTINUOUS
 10
37.0552255107
 20
153.9309180488
 11
37.0550904292
 21
153.7649354492
  0
LINE
  5
226
100
AcDbEntity
  8
RACCORDO
100
AcDbLine
 62
253
  6
CONTINUOUS
 10
37.0550904292
 20
153.7649354492
 11
37.0547127132
 21
153.6707513106
  0
LWPOLYLINE
  5
227
100
AcDbEntity
  8
0
100
AcDbPolyline
 62
7
  6
CONTINUOUS
 90
21
 70
0
 10
41.5610817293
 20
146.7184567881
 10
41.5667923998
 20
146.9328422615
 10
41.5839135408
 20
147.1468196398
 10
41.6124125611
 20
147.3599816052
 10
41.6522352113
 20
147.5719223916
 10
41.7033056867
 20
147.7822385577
 10
41.7655267717
 20
147.9905297548
 10
41.838780025
 20
148.1963994887
 10
41.9229260048
 20
148.3994558746
 10
42.0178045345
 20
148.5993123832
 10
42.1232350074
 20
148.7955885763
 10
42.2390167307
 20
148.987910831
 10
42.3649293071
 20
149.1759130509
 10
42.500733055
 20
149.3592373632
 10
42.6461694642
 20
149.5375347995
 10
42.8009616883
 20
149.7104659606
 10
42.9648150715
 20
149.8777016622
 10
43.1374177094
 20
150.0389235616
 10
43.3184410433
 20
150.1938247638
 10
43.5075404848
 20
150.3421104055
 10
43.5432828766
 20
150.3687231597
  0
LWPOLYLINE
  5
228
100
AcDbEntity
  8
0
100
AcDbPolyline
 62
253
  6
CONTINUOUS
 90
10
 70
0
 10
36.0530485149
 20
151.2509760979
 10
36.0551390225
 20
151.3147768663
 10
36.0611665987
 20
151.3777898679
 10
36.0711312438
 20
151.4400151028
 10
36.0850777708
 20
151.501645096
 10
36.1029613666
 20
151.5624873225
 10
36.1246475916
 20
151.6219642064
 10
36.1500916325
 20
151.6798832225
 10
36.1793383026
 20
151.736436896
 10
36.2123876018
 20
151.7916252269
  0
LWPOLYLINE
  5
229
100
AcDbEntity
  8
RACCORDO
100
AcDbPolyline
 62
7
  6
CONTINUOUS
 90
10
 70
0
 10
36.2122253565
 20
152.0161605103
 10
36.2228788741
 20
152.22740324
 10
36.255444416
 20
152.437104032
 10
36.3097435171
 20
152.6428836585
 10
36.3852659377
 20
152.8421575124
 10
36.4813571262
 20
153.0328377104
 10
36.5974388042
 20
153.2132487114
 10
36.7326396619
 20
153.3812677113
 10
36.885579137
 20
153.534468872
 10
37.0547127132
 20
153.6707513106
  0
LWPOLYLINE
  5
22A
100
AcDbEntity
  8
RACCORDO
100
AcDbPolyline
 62
253
  6
CONTINUOUS
 90
19
 70
0
 10
39.4139414549
 20
152.8201055043
 10
39.6173134817
 20
149.6387077856
 10
39.8267290595
 20
146.5375906508
 10
40.0421881882
 20
143.5167541001
 10
40.2646157234
 20
140.5762403481
 10
40.4930868095
 20
137.7160071801
 10
40.7248268797
 20
134.935927952
 10
40.9597379061
 20
132.2360011934
 10
41.1979179164
 20
129.6162283746
 10
41.4368864272
 20
127.0764872636
 10
41.676571561
 20
124.6167764594
 10
41.9170451951
 20
122.2370973629
 10
42.156042478
 20
119.9373319438
 10
42.3935144475
 20
117.7174760675
 10
42.6295100657
 20
115.5775338687
 10
42.8619113676
 20
113.517399721
 10
43.0900123648
 20
111.5370384156
 10
43.3145190456
 20
109.6364851614
 10
43.5354314102
 20
107.8157399582
  0
LINE
  5
22B
100
AcDbEntity
  8
RACCORDO
100
AcDbLine
 62
253
  6
CONTINUOUS
 10
43.0609017008
 20
90.5206336906
 11
43.0609017008
 21
89.0418698469
  0
LINE
  5
22C
100
AcDbEntity
  8
RACCORDO
100
AcDbLine
 62
253
  6
CONTINUOUS
 10
43.5360493377
 20
107.8157399582
 11
43.5360493377
 21
106.3212916335
  0
LINE
  5
22D
100
AcDbEntity
  8
0
100
AcDbLine
 62
7
  6
CONTINUOUS
 10
44.5610817293
 20
114.2800340735
 11
44.5610817293
 21
113.2432952139
  0
LWPOLYLINE
  5
22E
100
AcDbEntity
  8
0
100
AcDbPolyline
 62
7
  6
CONTINUOUS
 90
21
 70
0
 10
44.5610817293
 20
114.2800340735
 10
44.5667923998
 20
114.4944195355
 10
44.5839135408
 20
114.7083969027
 10
44.6124125611
 20
114.9215588568
 10
44.6522352113
 20
115.1334996321
 10
44.7033056867
 20
115.3438157871
 10
44.7655267717
 20
115.5521069732
 10
44.838780025
 20
115.7579766963
 10
44.9229260048
 20
115.9610330715
 10
45.0178045345
 20
116.1608895697
 10
45.1232350074
 20
116.3571657524
 10
45.2390167307
 20
116.549487997
 10
45.3649293071
 20
116.737490207
 10
45.500733055
 20
116.9208145097
 10
45.6461694642
 20
117.0991119366
 10
45.8009616883
 20
117.2720430886
 10
45.9648150715
 20
117.4392787814
 10
46.1374177094
 20
117.6005006723
 10
46.3184410433
 20
117.7554018664
 10
46.5075404848
 20
117.9036875003
 10
46.5432828766
 20
117.9303002531
  0
LWPOLYLINE
  5
22F
100
AcDbEntity
  8
RACCORDO
100
AcDbPolyline
 62
253
  6
CONTINUOUS
 90
7
 70
0
 10
43.5360493492
 20
106.3212916335
 10
43.4553908002
 20
103.6892252713
 10
43.37531916
 20
101.0566082577
 10
43.2958344287
 20
98.4234405929
 10
43.2169366063
 20
95.7897222768
 10
43.1386256928
 20
93.1554533093
 10
43.0609016882
 20
90.5206336906
  0
LWPOLYLINE
  5
230
100
AcDbEntity
  8
RACCORDO
100
AcDbPolyline
 62
253
  6
CONTINUOUS
 90
7
 70
0
 10
41.5657973827
 20
106.6683937218
 10
41.484709645
 20
104.036430379
 10
41.4042110229
 20
101.4038948435
 10
41.3243016483
 20
98.7707871155
 10
41.2449816521
 20
96.1371071948
 10
41.1662511644
 20
93.5028550815
 10
41.088110314
 20
90.8680307756
  0
LWPOLYLINE
  5
231
100
AcDbEntity
  8
RACCORDO
100
AcDbPolyline
 62
7
  6
CONTINUOUS
 90
10
 70
0
 10
37.0547127132
 20
153.6707513106
 10
37.1757223387
 20
153.7519779758
 10
37.2978119721
 20
153.8208606456
 10
37.4209816134
 20
153.8786084814
 10
37.5454844301
 20
153.9271550471
 10
37.6710672547
 20
153.9667674184
 10
37.7969705847
 20
153.9964520415
 10
37.9229412525
 20
154.0167296372
 10
38.0492324257
 20
154.0291686258
 10
38.1758441043
 20
154.0343215545
  0
LWPOLYLINE
  5
232
100
AcDbEntity
  8
0
100
AcDbPolyline
 62
7
  6
CONTINUOUS
 90
61
 70
0
 10
51.6092162403
 20
146.7184567881
 10
51.6036684126
 20
146.8920047991
 10
51.5870401359
 20
147.0650771271
 10
51.559376987
 20
147.2371993928
 10
51.5207547887
 20
147.4078998211
 10
51.4712794017
 20
147.576710534
 10
51.4110864348
 20
147.743168833
 10
51.3403408726
 20
147.9068184675
 10
51.2592366237
 20
148.0672108853
 10
51.1679959894
 20
148.2239064618
 10
51.0668690537
 20
148.3764757054
 10
50.9561329987
 20
148.5245004344
 10
50.8360913442
 20
148.6675749233
 10
50.7070731159
 20
148.8053070149
 10
50.569431944
 20
148.9373191951
 10
50.4235450932
 20
149.0632496276
 10
50.2698124293
 20
149.182753146
 10
50.1086553228
 20
149.2955021993
 10
49.9405154942
 20
149.4011877503
 10
49.765853803
 20
149.4995201222
 10
49.5851489848
 20
149.5902297928
 10
49.398896339
 20
149.6730681332
 10
49.207606371
 20
149.7478080893
 10
49.0118033935
 20
149.814244804
 10
48.8120240887
 20
149.872196179
 10
48.6088160379
 20
149.9215033735
 10
48.4027362201
 20
149.96203124
 10
48.1943494859
 20
149.9936686943
 10
47.9842270088
 20
150.0163290205
 10
47.7729447199
 20
150.0299501081
 10
47.5610817293
 20
150.0344946227
 10
47.3492187387
 20
150.0299501081
 10
47.1379364498
 20
150.0163290205
 10
46.9278139727
 20
149.9936686943
 10
46.7194272385
 20
149.96203124
 10
46.5133474207
 20
149.9215033735
 10
46.3101393699
 20
149.872196179
 10
46.1103600651
 20
149.814244804
 10
45.9145570876
 20
149.7478080893
 10
45.7232671197
 20
149.6730681332
 10
45.5370144738
 20
149.5902297928
 10
45.3563096557
 20
149.4995201222
 10
45.1816479645
 20
149.4011877503
 10
45.0135081359
 20
149.2955021993
 10
44.8523510294
 20
149.182753146
 10
44.6986183655
 20
149.0632496276
 10
44.5527315147
 20
148.9373191951
 10
44.4150903427
 20
148.8053070149
 10
44.2860721144
 20
148.6675749233
 10
44.1660304599
 20
148.5245004344
 10
44.0552944049
 20
148.3764757054
 10
43.9541674693
 20
148.2239064618
 10
43.8629268349
 20
148.0672108853
 10
43.7818225861
 20
147.9068184675
 10
43.7110770238
 20
147.743168833
 10
43.6508840569
 20
147.576710534
 10
43.60140867
 20
147.4078998211
 10
43.5627864717
 20
147.2371993928
 10
43.5351233228
 20
147.0650771271
 10
43.518495046
 20
146.8920047991
 10
43.5129472184
 20
146.7184567881
  0
LWPOLYLINE
  5
233
100
AcDbEntity
  8
0
100
AcDbPolyline
 62
7
  6
CONTINUOUS
 90
61
 70
0
 10
54.6092162403
 20
114.2800340735
 10
54.6036684126
 20
114.4535820754
 10
54.5870401359
 20
114.6266543942
 10
54.559376987
 20
114.7987766509
 10
54.5207547887
 20
114.9694770702
 10
54.4712794017
 20
115.1382877742
 10
54.4110864348
 20
115.3047460645
 10
54.3403408726
 20
115.4683956904
 10
54.2592366237
 20
115.6287880997
 10
54.1679959894
 20
115.785483668
 10
54.0668690537
 20
115.9380529036
 10
53.9561329987
 20
116.0860776248
 10
53.8360913442
 20
116.2291521062
 10
53.7070731159
 20
116.3668841905
 10
53.569431944
 20
116.4988963638
 10
53.4235450932
 20
116.6248267897
 10
53.2698124293
 20
116.7443303017
 10
53.1086553228
 20
116.8570793491
 10
52.9405154942
 20
116.9627648946
 10
52.765853803
 20
117.0610972613
 10
52.5851489848
 20
117.1518069271
 10
52.398896339
 20
117.2346452632
 10
52.207606371
 20
117.3093852153
 10
52.0118033935
 20
117.3758219266
 10
51.8120240887
 20
117.4337732985
 10
51.6088160379
 20
117.4830804904
 10
51.4027362201
 20
117.5236083547
 10
51.1943494859
 20
117.5552458074
 10
50.9842270088
 20
117.5779061324
 10
50.7729447199
 20
117.5915272193
 10
50.5610817293
 20
117.5960717337
 10
50.3492187387
 20
117.5915272193
 10
50.1379364498
 20
117.5779061324
 10
49.9278139727
 20
117.5552458074
 10
49.7194272385
 20
117.5236083547
 10
49.5133474207
 20
117.4830804904
 10
49.3101393699
 20
117.4337732985
 10
49.1103600651
 20
117.3758219266
 10
48.9145570876
 20
117.3093852153
 10
48.7232671197
 20
117.2346452632
 10
48.5370144738
 20
117.1518069271
 10
48.3563096557
 20
117.0610972613
 10
48.1816479645
 20
116.9627648946
 10
48.0135081359
 20
116.8570793491
 10
47.8523510294
 20
116.7443303017
 10
47.6986183655
 20
116.6248267897
 10
47.5527315147
 20
116.4988963638
 10
47.4150903427
 20
116.3668841905
 10
47.2860721144
 20
116.2291521062
 10
47.1660304599
 20
116.0860776248
 10
47.0552944049
 20
115.9380529036
 10
46.9541674693
 20
115.785483668
 10
46.8629268349
 20
115.6287880997
 10
46.7818225861
 20
115.4683956904
 10
46.7110770238
 20
115.3047460645
 10
46.6508840569
 20
115.1382877742
 10
46.60140867
 20
114.9694770702
 10
46.5627864717
 20
114.7987766509
 10
46.5351233228
 20
114.6266543942
 10
46.518495046
 20
114.4535820754
 10
46.5129472184
 20
114.2800340735
  0
LINE
  5
234
100
AcDbEntity
  8
0
100
AcDbLine
 62
7
  6
CONTINUOUS
 10
53.5610817293
 20
146.7184567881
 11
53.5610817293
 21
145.6817180398
  0
LWPOLYLINE
  5
235
100
AcDbEntity
  8
0
100
AcDbPolyline
 62
7
  6
CONTINUOUS
 90
37
 70
0
 10
53.5610817293
 20
146.7184567881
 10
53.5553710588
 20
146.5040713148
 10
53.5382499178
 20
146.2900939364
 10
53.5097508975
 20
146.076931971
 10
53.4699282473
 20
145.8649911846
 10
53.4188577719
 20
145.6546750185
 10
53.3566366869
 20
145.4463838215
 10
53.2833834336
 20
145.2405140876
 10
53.1992374538
 20
145.0374577017
 10
53.1043589241
 20
144.837601193
 10
52.9989284512
 20
144.6413249999
 10
52.883146728
 20
144.4490027452
 10
52.7572341515
 20
144.2610005253
 10
52.6214304036
 20
144.0776762131
 10
52.4759939944
 20
143.8993787767
 10
52.3212017703
 20
143.7264476156
 10
52.1573483872
 20
143.559211914
 10
51.9847457492
 20
143.3979900146
 10
51.8037224154
 20
143.2430888125
 10
51.6146229738
 20
143.0948031708
 10
51.4178073862
 20
142.9534153597
 10
51.213650302
 20
142.8191945189
 10
51.0025403459
 20
142.6923961456
 10
50.7848793778
 20
142.5732616075
 10
50.5610817276
 20
142.462017684
 10
50.3315734069
 20
142.3588761343
 10
50.0967912978
 20
142.2640332941
 10
49.8571823214
 20
142.1776697022
 10
49.6132025871
 20
142.0999497567
 10
49.365316524
 20
142.0310214018
 10
49.1139959975
 20
141.9710158465
 10
48.8597194103
 20
141.9200473149
 10
48.6029707925
 20
141.8782128285
 10
48.3442388799
 20
141.8455920216
 10
48.0840161836
 20
141.8222469898
 10
47.8227980523
 20
141.8082221716
 10
47.5610817293
 20
141.8035442639
  0
LWPOLYLINE
  5
236
100
AcDbEntity
  8
0
100
AcDbPolyline
 62
7
  6
CONTINUOUS
 90
34
 70
0
 10
53.5610817293
 20
145.6817180398
 10
53.5542499781
 20
145.4480356724
 10
53.5338468161
 20
145.2143533051
 10
53.5000103806
 20
144.9822530588
 10
53.4526495175
 20
144.7517456694
 10
53.3918553809
 20
144.5228204012
 10
53.318039571
 20
144.2970271677
 10
53.2311137265
 20
144.0743872221
 10
53.1311662087
 20
143.8548793112
 10
53.0188737014
 20
143.6399895897
 10
52.8941524352
 20
143.429749395
 10
52.7570861794
 20
143.2241273896
 10
52.6086029263
 20
143.024515715
 10
52.4486252035
 20
142.8309551554
 10
52.2772304835
 20
142.6434049266
 10
52.0955791754
 20
142.4631348169
 10
51.9036016813
 20
142.2901942272
 10
51.7013675992
 20
142.1245337567
 10
51.490246133
 20
141.9672749916
 10
51.2701769756
 20
141.8184749435
 10
51.0412204341
 20
141.6780766008
 10
50.804926634
 20
141.5470305153
 10
50.5612457868
 20
141.4254001486
 10
50.310227681
 20
141.313122039
 10
50.0535718073
 20
141.2109563534
 10
49.7912399096
 20
141.1189717117
 10
49.5232702441
 20
141.0370994938
 10
49.2514770704
 20
140.9658940069
 10
48.9758344431
 20
140.9054276321
 10
48.6963683076
 20
140.8556279883
 10
48.414970759
 20
140.8168322384
 10
48.1322724955
 20
140.7891527701
 10
47.847642819
 20
140.7724771959
 10
47.5610817293
 20
140.7668055156
  0
LWPOLYLINE
  5
237
100
AcDbEntity
  8
0
100
AcDbPolyline
 62
7
  6
CONTINUOUS
 90
17
 70
0
 10
51.6092162403
 20
146.7184567881
 10
51.6036684126
 20
146.5449087771
 10
51.5870401359
 20
146.3718364491
 10
51.559376987
 20
146.1997141834
 10
51.5207547887
 20
146.0290137551
 10
51.4712794017
 20
145.8602030423
 10
51.4110864348
 20
145.6937447432
 10
51.3403408726
 20
145.5300951087
 10
51.2592366237
 20
145.369702691
 10
51.1679959894
 20
145.2130071144
 10
51.0668690537
 20
145.0604378708
 10
50.9561329987
 20
144.9124131418
 10
50.8360913442
 20
144.7693386529
 10
50.7070731159
 20
144.6316065613
 10
50.569431944
 20
144.4995943812
 10
50.4235450932
 20
144.3736639486
 10
50.2721736811
 20
144.2559033892
  0
LWPOLYLINE
  5
238
100
AcDbEntity
  8
0
100
AcDbPolyline
 62
7
  6
CONTINUOUS
 90
17
 70
0
 10
54.6092162403
 20
114.2800340735
 10
54.6036684126
 20
114.1064860716
 10
54.5870401359
 20
113.9334137527
 10
54.559376987
 20
113.761291496
 10
54.5207547887
 20
113.5905910767
 10
54.4712794017
 20
113.4217803727
 10
54.4110864348
 20
113.2553220825
 10
54.3403408726
 20
113.0916724566
 10
54.2592366237
 20
112.9312800472
 10
54.1679959894
 20
112.774584479
 10
54.0668690537
 20
112.6220152434
 10
53.9561329987
 20
112.4739905221
 10
53.8360913442
 20
112.3309160408
 10
53.7070731159
 20
112.1931839564
 10
53.569431944
 20
112.0611717832
 10
53.4235450932
 20
111.9352413573
 10
53.2721736811
 20
111.8174808041
  0
LWPOLYLINE
  5
239
100
AcDbEntity
  8
RACCORDO
100
AcDbPolyline
 62
253
  6
CONTINUOUS
 90
13
 70
0
 10
41.088110314
 20
90.8680307756
 10
40.4618168102
 20
89.2128998246
 10
39.871553288
 20
87.6790163821
 10
39.3184228343
 20
86.2663804482
 10
38.8029970032
 20
84.9740385806
 10
38.3270263535
 20
83.8029442215
 10
37.892965648
 20
82.7559576982
 10
37.5015407996
 20
81.8337858681
 10
37.1534121266
 20
81.0357218738
 10
36.8501049536
 20
80.3625054701
 10
36.5921385152
 20
79.8143832419
 10
36.3794735364
 20
79.3911086044
 10
36.2123876019
 20
79.0926815575
  0
LWPOLYLINE
  5
23A
100
AcDbEntity
  8
0
100
AcDbPolyline
 62
7
  6
CONTINUOUS
 90
33
 70
0
 10
43.5432828766
 20
150.3687231597
 10
43.5793634439
 20
150.3951617636
 10
43.7993175265
 20
150.5476774107
 10
44.0270946526
 20
150.6911554824
 10
44.2618196272
 20
150.8251329907
 10
44.5033967557
 20
150.9496332815
 10
44.7513097581
 20
151.0644280504
 10
45.0050221421
 20
151.1693042143
 10
45.2640814201
 20
151.2641017609
 10
45.5280880847
 20
151.348683283
 10
45.7967664038
 20
151.4229398252
 10
46.0693826613
 20
151.4866408661
 10
46.3448198156
 20
151.5395421346
 10
46.62235142
 20
151.5815609335
 10
46.901618547
 20
151.6126915798
 10
47.1820299204
 20
151.6329009084
 10
47.4630435481
 20
151.6421780675
 10
47.7441220422
 20
151.6405260279
 10
48.0246801983
 20
151.627964214
 10
48.3041807637
 20
151.6045281975
 10
48.5820923116
 20
151.5702667293
 10
48.8578433862
 20
151.525249452
 10
49.1311091746
 20
151.4695112616
 10
49.4011595205
 20
151.4031753045
 10
49.6668470966
 20
151.3265429954
 10
49.9273935427
 20
151.2399118984
 10
50.1826285832
 20
151.1434055878
 10
50.4323450829
 20
151.0371248185
 10
50.6761677398
 20
150.9212191217
 10
50.9135346186
 20
150.7959379277
 10
51.1439593334
 20
150.6615227281
 10
51.3673676441
 20
150.5179632717
 10
51.5788521932
 20
150.3687441268
  0
LINE
  5
23B
100
AcDbEntity
  8
0
100
AcDbLine
 62
7
  6
CONTINUOUS
 10
56.5610817293
 20
114.2800340735
 11
56.5610817293
 21
113.2432952139
  0
LINE
  5
23C
100
AcDbEntity
  8
0
100
AcDbLine
 62
7
  6
CONTINUOUS
 10
59.0009156987
 20
131.5925570076
 11
59.0009156987
 21
134.0500132697
  0
LINE
  5
23D
100
AcDbEntity
  8
0
100
AcDbLine
 62
7
  6
CONTINUOUS
 10
59.5610817293
 20
131.1336959078
 11
59.5610817293
 21
133.5911521699
  0
LINE
  5
23E
100
AcDbEntity
  8
0
100
AcDbLine
 62
7
  6
CONTINUOUS
 10
60.0610817293
 20
131.1336959078
 11
60.0610817293
 21
133.5911521699
  0
LINE
  5
23F
100
AcDbEntity
  8
0
100
AcDbLine
 62
7
  6
CONTINUOUS
 10
60.632340932
 20
131.3631264577
 11
60.632340932
 21
133.8205827198
  0
LINE
  5
240
100
AcDbEntity
  8
0
100
AcDbLine
 62
7
  6
CONTINUOUS
 10
62.9898225266
 20
133.8205827198
 11
62.9898225266
 21
131.3631264577
  0
LINE
  5
241
100
AcDbEntity
  8
0
100
AcDbLine
 62
7
  6
CONTINUOUS
 10
63.5610817293
 20
133.5911521699
 11
63.5610817293
 21
131.1336959078
  0
LWPOLYLINE
  5
242
100
AcDbEntity
  8
0
100
AcDbPolyline
 62
7
  6
CONTINUOUS
 90
37
 70
0
 10
56.5610817293
 20
114.2800340735
 10
56.5553710588
 20
114.0656486114
 10
56.5382499178
 20
113.8516712443
 10
56.5097508975
 20
113.6385092901
 10
56.4699282473
 20
113.4265685149
 10
56.4188577719
 20
113.2162523598
 10
56.3566366869
 20
113.0079611737
 10
56.2833834336
 20
112.8020914507
 10
56.1992374538
 20
112.5990350754
 10
56.1043589241
 20
112.3991785773
 10
55.9989284512
 20
112.2029023945
 10
55.883146728
 20
112.0105801499
 10
55.7572341515
 20
111.8225779399
 10
55.6214304036
 20
111.6392536373
 10
55.4759939944
 20
111.4609562103
 10
55.3212017703
 20
111.2880250583
 10
55.1573483872
 20
111.1207893655
 10
54.9847457492
 20
110.9595674746
 10
54.8037224154
 20
110.8046662806
 10
54.6146229738
 20
110.6563806467
 10
54.4178073862
 20
110.514992843
 10
54.213650302
 20
110.3807720093
 10
54.0025403459
 20
110.2539736426
 10
53.7848793778
 20
110.1348391108
 10
53.5610817276
 20
110.0235951932
 10
53.3315734069
 20
109.9204536489
 10
53.0967912978
 20
109.8256108137
 10
52.8571823214
 20
109.7392472264
 10
52.6132025871
 20
109.6615272849
 10
52.365316524
 20
109.5925989336
 10
52.1139959975
 20
109.5325933815
 10
51.8597194103
 20
109.4816248526
 10
51.6029707925
 20
109.4397903684
 10
51.3442388799
 20
109.4071695632
 10
51.0840161836
 20
109.3838245326
 10
50.8227980523
 20
109.3697997151
 10
50.5610817293
 20
109.3651218077
  0
LWPOLYLINE
  5
243
100
AcDbEntity
  8
0
100
AcDbPolyline
 62
7
  6
CONTINUOUS
 90
34
 70
0
 10
56.5610817293
 20
113.2432952139
 10
56.5542499781
 20
113.0096128589
 10
56.5338468161
 20
112.7759305038
 10
56.5000103806
 20
112.5438302697
 10
56.4526495175
 20
112.3133228925
 10
56.3918553809
 20
112.0843976363
 10
56.318039571
 20
111.8586044147
 10
56.2311137265
 20
111.6359644807
 10
56.1311662087
 20
111.4164565814
 10
56.0188737014
 20
111.2015668712
 10
55.8941524352
 20
110.9913266876
 10
55.7570861794
 20
110.785704693
 10
55.6086029263
 20
110.5860930289
 10
55.4486252035
 20
110.3925324795
 10
55.2772304835
 20
110.2049822605
 10
55.0955791754
 20
110.0247121603
 10
54.9036016813
 20
109.8517715797
 10
54.7013675992
 20
109.6861111179
 10
54.490246133
 20
109.5288523611
 10
54.2701769756
 20
109.3800523208
 10
54.0412204341
 20
109.2396539855
 10
53.804926634
 20
109.1086079068
 10
53.5612457868
 20
108.9869775465
 10
53.310227681
 20
108.8746994429
 10
53.0535718073
 20
108.7725337627
 10
52.7912399096
 20
108.6805491258
 10
52.5232702441
 20
108.5986769122
 10
52.2514770704
 20
108.527471429
 10
51.9758344431
 20
108.4670050575
 10
51.6963683076
 20
108.4172054162
 10
51.414970759
 20
108.3784096684
 10
51.1322724955
 20
108.3507302016
 10
50.847642819
 20
108.3340546282
 10
50.5610817293
 20
108.3283829482
  0
LWPOLYLINE
  5
244
100
AcDbEntity
  8
0
100
AcDbPolyline
 62
7
  6
CONTINUOUS
 90
31
 70
0
 10
59.0009156987
 20
134.0500132697
 10
59.0176937678
 20
134.2948643048
 10
59.0635402063
 20
134.5319785419
 10
59.1384550141
 20
134.7613559812
 10
59.2438853037
 20
134.9853231114
 10
59.3783839627
 20
135.2015534437
 10
59.5376096536
 20
135.4030675119
 10
59.7223691944
 20
135.5893851393
 10
59.9318557671
 20
135.7609865026
 10
60.1593075801
 20
135.9123326661
 10
60.4053108209
 20
136.0427627232
 10
60.669279302
 20
136.1529375804
 10
60.9426926689
 20
136.2393010223
 10
61.2258590985
 20
136.3010761062
 10
61.5184704139
 20
136.3390397748
 10
61.8110817293
 20
136.3519666395
 10
62.1036930447
 20
136.3390397748
 10
62.3963043601
 20
136.3010761062
 10
62.6794707898
 20
136.2393010223
 10
62.9528841566
 20
136.1529375804
 10
63.2168526377
 20
136.0427627232
 10
63.4628558786
 20
135.9123326661
 10
63.6903076915
 20
135.7609865026
 10
63.8997942642
 20
135.5893851393
 10
64.0845538051
 20
135.4030675119
 10
64.2437794959
 20
135.2015534437
 10
64.3782781549
 20
134.9853231114
 10
64.4837084446
 20
134.7613559812
 10
64.5586232524
 20
134.5319785419
 10
64.6044696908
 20
134.2948643048
 10
64.6212477599
 20
134.0500132697
  0
LWPOLYLINE
  5
245
100
AcDbEntity
  8
0
100
AcDbPolyline
 62
7
  6
CONTINUOUS
 90
31
 70
0
 10
64.6212477599
 20
131.5925570076
 10
64.6044696908
 20
131.3477059726
 10
64.5586232524
 20
131.1105917354
 10
64.4837084446
 20
130.8812142961
 10
64.3782781549
 20
130.6572471659
 10
64.2437794959
 20
130.4410168336
 10
64.0845538051
 20
130.2395027654
 10
63.8997942642
 20
130.053185138
 10
63.6903076915
 20
129.8815837747
 10
63.4628558786
 20
129.7302376112
 10
63.2168526377
 20
129.5998075542
 10
62.9528841566
 20
129.4896326969
 10
62.6794707898
 20
129.4032692551
 10
62.3963043601
 20
129.3414941711
 10
62.1036930447
 20
129.3035305026
 10
61.8110817293
 20
129.2906036378
 10
61.5184704139
 20
129.3035305026
 10
61.2258590985
 20
129.3414941711
 10
60.9426926689
 20
129.4032692551
 10
60.669279302
 20
129.4896326969
 10
60.4053108209
 20
129.5998075542
 10
60.1593075801
 20
129.7302376112
 10
59.9318557671
 20
129.8815837747
 10
59.7223691944
 20
130.053185138
 10
59.5376096536
 20
130.2395027654
 10
59.3783839627
 20
130.4410168336
 10
59.2438853037
 20
130.6572471659
 10
59.1384550141
 20
130.8812142961
 10
59.0635402063
 20
131.1105917354
 10
59.0176937678
 20
131.3477059726
 10
59.0009156987
 20
131.5925570076
  0
LWPOLYLINE
  5
246
100
AcDbEntity
  8
0
100
AcDbPolyline
 62
7
  6
CONTINUOUS
 90
28
 70
0
 10
59.5610817293
 20
133.5911521699
 10
59.5779770641
 20
133.8097251097
 10
59.6232075985
 20
134.0198499955
 10
59.6967733325
 20
134.2215268271
 10
59.8004196439
 20
134.4172319693
 10
59.9324011549
 20
134.6044890574
 10
60.0874817323
 20
134.7758689973
 10
60.2665900721
 20
134.9307334495
 10
60.4687974783
 20
135.0697207535
 10
60.6860817293
 20
135.1873168336
 10
60.9190489884
 20
135.2826616573
 10
61.1670930924
 20
135.3566152571
 10
61.4203733296
 20
135.4062436546
 10
61.6791002183
 20
135.4305688569
 10
61.9430632403
 20
135.4305688569
 10
62.2017901291
 20
135.4062436546
 10
62.4550703662
 20
135.3566152571
 10
62.7031144702
 20
135.2826616573
 10
62.9360817293
 20
135.1873168336
 10
63.1533659803
 20
135.0697207535
 10
63.3555733865
 20
134.9307334495
 10
63.5346817263
 20
134.7758689973
 10
63.6897623037
 20
134.6044890574
 10
63.8217438147
 20
134.4172319693
 10
63.9253901261
 20
134.2215268271
 10
63.9989558601
 20
134.0198499955
 10
64.0441863945
 20
133.8097251097
 10
64.0610817293
 20
133.5911521699
  0
LWPOLYLINE
  5
247
100
AcDbEntity
  8
0
100
AcDbPolyline
 62
7
  6
CONTINUOUS
 90
28
 70
0
 10
64.0610817293
 20
131.1336959078
 10
64.0441863945
 20
130.9151229679
 10
63.9989558601
 20
130.7049980822
 10
63.9253901261
 20
130.5033212505
 10
63.8217438147
 20
130.3076161083
 10
63.6897623037
 20
130.1203590202
 10
63.5346817263
 20
129.9489790803
 10
63.3555733865
 20
129.7941146281
 10
63.1533659803
 20
129.6551273241
 10
62.9360817293
 20
129.537531244
 10
62.7031144702
 20
129.4421864203
 10
62.4550703662
 20
129.3682328205
 10
62.2017901291
 20
129.3186044231
 10
61.9430632403
 20
129.2942792207
 10
61.6791002183
 20
129.2942792207
 10
61.4203733296
 20
129.3186044231
 10
61.1670930924
 20
129.3682328205
 10
60.9190489884
 20
129.4421864203
 10
60.6860817293
 20
129.537531244
 10
60.4687974783
 20
129.6551273241
 10
60.2665900721
 20
129.7941146281
 10
60.0874817323
 20
129.9489790803
 10
59.9324011549
 20
130.1203590202
 10
59.8004196439
 20
130.3076161083
 10
59.6967733325
 20
130.5033212505
 10
59.6232075985
 20
130.7049980822
 10
59.5779770641
 20
130.9151229679
 10
59.5610817293
 20
131.1336959078
  0
LWPOLYLINE
  5
248
100
AcDbEntity
  8
0
100
AcDbPolyline
 62
7
  6
CONTINUOUS
 90
25
 70
0
 10
60.0610817293
 20
133.5911521699
 10
60.0781362802
 20
133.7832927716
 10
60.1225398862
 20
133.9661537322
 10
60.1942925474
 20
134.1397350516
 10
60.295533262
 20
134.3066590297
 10
60.4241230318
 20
134.4643033667
 10
60.5736448622
 20
134.6048011625
 10
60.7451609921
 20
134.727282282
 10
60.9376091826
 20
134.8326168603
 10
61.1413857227
 20
134.915548403
 10
61.3570654918
 20
134.9749400237
 10
61.5840736106
 20
135.0119286088
 10
61.8110817293
 20
135.0246683227
 10
62.0380898481
 20
135.0119286088
 10
62.2650979668
 20
134.9749400237
 10
62.480777736
 20
134.915548403
 10
62.684554276
 20
134.8326168603
 10
62.8770024665
 20
134.727282282
 10
63.0485185964
 20
134.6048011625
 10
63.1980404268
 20
134.4643033667
 10
63.3266301966
 20
134.3066590297
 10
63.4278709112
 20
134.1397350516
 10
63.4996235724
 20
133.9661537322
 10
63.5440271785
 20
133.7832927716
 10
63.5610817293
 20
133.5911521699
  0
LWPOLYLINE
  5
249
100
AcDbEntity
  8
0
100
AcDbPolyline
 62
7
  6
CONTINUOUS
 90
25
 70
0
 10
63.5610817293
 20
131.1336959078
 10
63.5440271785
 20
130.941555306
 10
63.4996235724
 20
130.7586943454
 10
63.4278709112
 20
130.585113026
 10
63.3266301966
 20
130.4181890479
 10
63.1980404268
 20
130.2605447109
 10
63.0485185964
 20
130.1200469151
 10
62.8770024665
 20
129.9975657956
 10
62.684554276
 20
129.8922312173
 10
62.480777736
 20
129.8092996746
 10
62.2650979668
 20
129.7499080539
 10
62.0380898481
 20
129.7129194689
 10
61.8110817293
 20
129.7001797549
 10
61.5840736106
 20
129.7129194689
 10
61.3570654918
 20
129.7499080539
 10
61.1413857227
 20
129.8092996746
 10
60.9376091826
 20
129.8922312173
 10
60.7451609921
 20
129.9975657956
 10
60.5736448622
 20
130.1200469151
 10
60.4241230318
 20
130.2605447109
 10
60.295533262
 20
130.4181890479
 10
60.1942925474
 20
130.585113026
 10
60.1225398862
 20
130.7586943454
 10
60.0781362802
 20
130.941555306
 10
60.0610817293
 20
131.1336959078
  0
LWPOLYLINE
  5
24A
100
AcDbEntity
  8
0
100
AcDbPolyline
 62
7
  6
CONTINUOUS
 90
22
 70
0
 10
60.632340932
 20
133.8205827198
 10
60.6478800706
 20
133.9694504741
 10
60.6867907491
 20
134.1090985566
 10
60.7490729676
 20
134.2395269673
 10
60.837126037
 20
134.3632002404
 10
60.9485506463
 20
134.4776538418
 10
61.0761488632
 20
134.5754941686
 10
61.2209884813
 20
134.6556243999
 10
61.3820017069
 20
134.7191413567
 10
61.5487872262
 20
134.7619418991
 10
61.7217261304
 20
134.7826583136
 10
61.9004373282
 20
134.7826583136
 10
62.0733762324
 20
134.7619418991
 10
62.2401617517
 20
134.7191413567
 10
62.4011749773
 20
134.6556243999
 10
62.5460145955
 20
134.5754941686
 10
62.6736128123
 20
134.4776538418
 10
62.7850374217
 20
134.3632002404
 10
62.873090491
 20
134.2395269673
 10
62.9353727095
 20
134.1090985566
 10
62.9742833881
 20
133.9694504741
 10
62.9898225266
 20
133.8205827198
  0
LWPOLYLINE
  5
24B
100
AcDbEntity
  8
0
100
AcDbPolyline
 62
7
  6
CONTINUOUS
 90
22
 70
0
 10
62.9898225266
 20
131.3631264577
 10
62.9742833881
 20
131.2142587034
 10
62.9353727095
 20
131.0746106209
 10
62.873090491
 20
130.9441822102
 10
62.7850374217
 20
130.820508937
 10
62.6736128123
 20
130.7060553357
 10
62.5460145955
 20
130.6082150089
 10
62.4011749773
 20
130.5280847775
 10
62.2401617517
 20
130.4645678207
 10
62.0733762324
 20
130.4217672784
 10
61.9004373282
 20
130.4010508639
 10
61.7217261304
 20
130.4010508639
 10
61.5487872262
 20
130.4217672784
 10
61.3820017069
 20
130.4645678207
 10
61.2209884813
 20
130.5280847775
 10
61.0761488632
 20
130.6082150089
 10
60.9485506463
 20
130.7060553357
 10
60.837126037
 20
130.820508937
 10
60.7490729676
 20
130.9441822102
 10
60.6867907491
 20
131.0746106209
 10
60.6478800706
 20
131.2142587034
 10
60.632340932
 20
131.3631264577
  0
LWPOLYLINE
  5
24C
100
AcDbEntity
  8
RACCORDO
100
AcDbPolyline
 62
253
  6
CONTINUOUS
 90
13
 70
0
 10
43.0597692373
 20
89.0418698469
 10
42.4343121246
 20
87.3612366366
 10
41.8470675752
 20
85.8025322005
 10
41.2980355889
 20
84.3667979328
 10
40.7858440268
 20
83.0548356109
 10
40.311865028
 20
81.8675865607
 10
39.880215009
 20
80.8060143871
 10
39.491444451
 20
79.8705687057
 10
39.1450028729
 20
79.0615809567
 10
38.8433552486
 20
78.3794406317
 10
38.5873232361
 20
77.824175187
 10
38.3760851775
 20
77.3955729729
 10
38.2096410727
 20
77.0933773087
  0
LWPOLYLINE
  5
24D
100
AcDbEntity
  8
0
100
AcDbPolyline
 62
7
  6
CONTINUOUS
 90
32
 70
0
 10
50.2721736811
 20
144.2559033892
 10
50.139779269
 20
144.1624312199
 10
49.9923819323
 20
144.0677475121
 10
49.8388950165
 20
143.978495506
 10
49.6799359671
 20
143.8950785142
 10
49.5157106763
 20
143.8176380466
 10
49.346578718
 20
143.7463902168
 10
49.1730555621
 20
143.6815892866
 10
48.9955738852
 20
143.6234221339
 10
48.8147243052
 20
143.572093744
 10
48.6308805786
 20
143.5277137234
 10
48.4441391221
 20
143.4903330194
 10
48.2548600669
 20
143.4600755457
 10
48.0636675248
 20
143.4370852538
 10
47.8710465358
 20
143.4214509903
 10
47.6775087255
 20
143.4132390045
 10
47.4835753958
 20
143.4124889586
 10
47.2897516894
 20
143.4192140158
 10
47.0965566435
 20
143.4334013704
 10
46.9045139822
 20
143.4550106009
 10
46.7141356732
 20
143.4839750117
 10
46.5260480051
 20
143.5201761688
 10
46.3406363719
 20
143.5635091314
 10
46.1580606853
 20
143.6139263955
 10
45.9787276558
 20
143.6713256496
 10
45.8032292738
 20
143.7355195553
 10
45.6320153825
 20
143.8063331863
 10
45.465602034
 20
143.8835327734
 10
45.3043941196
 20
143.9669008128
 10
45.1486784787
 20
144.0562658771
 10
44.9990951004
 20
144.151221215
 10
44.8499835205
 20
144.2559080115
  0
LINE
  5
24E
100
AcDbEntity
  8
0
100
AcDbLine
 62
7
  6
CONTINUOUS
 10
64.0610817293
 20
133.5911521699
 11
64.0610817293
 21
131.1336959078
  0
LINE
  5
24F
100
AcDbEntity
  8
0
100
AcDbLine
 62
7
  6
CONTINUOUS
 10
64.6212477599
 20
134.0500132697
 11
64.6212477599
 21
131.5925570076
  0
LINE
  5
250
100
AcDbEntity
  8
0
100
AcDbLine
 62
253
  6
CONTINUOUS
 10
64.6212477599
 20
134.0500132697
 11
64.0610817293
 21
133.5911521699
  0
LINE
  5
251
100
AcDbEntity
  8
0
100
AcDbLine
 62
253
  6
CONTINUOUS
 10
64.6212477599
 20
131.5925570076
 11
64.0610817293
 21
131.1336959078
  0
LWPOLYLINE
  5
252
100
AcDbEntity
  8
0
100
AcDbPolyline
 62
7
  6
CONTINUOUS
 90
33
 70
0
 10
46.5432828766
 20
117.9303002531
 10
46.5793634439
 20
117.9567388559
 10
46.7993175265
 20
118.1092544965
 10
47.0270946526
 20
118.2527325619
 10
47.2618196272
 20
118.3867100644
 10
47.5033967557
 20
118.5112103497
 10
47.7513097581
 20
118.6260051137
 10
48.0050221421
 20
118.730881273
 10
48.2640814201
 20
118.8256788154
 10
48.5280880847
 20
118.9102603338
 10
48.7967664038
 20
118.9845168727
 10
49.0693826613
 20
119.0482179108
 10
49.3448198156
 20
119.1011191769
 10
49.62235142
 20
119.143137974
 10
49.901618547
 20
119.1742686189
 10
50.1820299204
 20
119.1944779466
 10
50.4630435481
 20
119.2037551053
 10
50.7441220422
 20
119.2021030657
 10
51.0246801983
 20
119.1895412523
 10
51.3041807637
 20
119.1661052369
 10
51.5820923116
 20
119.1318437703
 10
51.8578433862
 20
119.0868264949
 10
52.1311091746
 20
119.031088307
 10
52.4011595205
 20
118.9647523529
 10
52.6668470966
 20
118.8881200471
 10
52.9273935427
 20
118.801488954
 10
53.1826285832
 20
118.7049826476
 10
53.4323450829
 20
118.598701883
 10
53.6761677398
 20
118.4827961913
 10
53.9135346186
 20
118.3575150027
 10
54.1439593334
 20
118.2230998089
 10
54.3673676441
 20
118.0795403587
 10
54.5788521932
 20
117.9303212202
  0
LWPOLYLINE
  5
253
100
AcDbEntity
  8
0
100
AcDbPolyline
 62
7
  6
CONTINUOUS
 90
17
 70
0
 10
47.8499835205
 20
111.8174854263
 10
47.6986183655
 20
111.9352413573
 10
47.5527315147
 20
112.0611717832
 10
47.4150903427
 20
112.1931839564
 10
47.2860721144
 20
112.3309160408
 10
47.1660304599
 20
112.4739905221
 10
47.0552944049
 20
112.6220152434
 10
46.9541674693
 20
112.774584479
 10
46.8629268349
 20
112.9312800472
 10
46.7818225861
 20
113.0916724566
 10
46.7110770238
 20
113.2553220825
 10
46.6508840569
 20
113.4217803727
 10
46.60140867
 20
113.5905910767
 10
46.5627864717
 20
113.761291496
 10
46.5351233228
 20
113.9334137527
 10
46.518495046
 20
114.1064860716
 10
46.5129472184
 20
114.2800340735
  0
LINE
  5
254
100
AcDbEntity
  8
0
100
AcDbLine
 62
253
  6
CONTINUOUS
 10
36.5608779419
 20
74.4420877156
 11
37.0500531488
 21
74.9400507334
  0
LINE
  5
255
100
AcDbEntity
  8
0
100
AcDbLine
 62
253
  6
CONTINUOUS
 10
33.5610817296
 20
77.4418839242
 11
34.0590447357
 21
77.9310591558
  0
LWPOLYLINE
  5
256
100
AcDbEntity
  8
0
100
AcDbPolyline
 62
7
  6
CONTINUOUS
 90
32
 70
0
 10
53.2721736811
 20
111.8174808041
 10
53.139779269
 20
111.7240086411
 10
52.9923819323
 20
111.6293249397
 10
52.8388950165
 20
111.5400729396
 10
52.6799359671
 20
111.4566559533
 10
52.5157106763
 20
111.3792154908
 10
52.346578718
 20
111.3079676657
 10
52.1730555621
 20
111.2431667397
 10
51.9955738852
 20
111.1849995908
 10
51.8147243052
 20
111.1336712043
 10
51.6308805786
 20
111.0892911865
 10
51.4441391221
 20
111.0519104849
 10
51.2548600669
 20
111.0216530131
 10
51.0636675248
 20
110.9986627228
 10
50.8710465358
 20
110.9830284603
 10
50.6775087255
 20
110.974816475
 10
50.4835753958
 20
110.9740664291
 10
50.2897516894
 20
110.9807914859
 10
50.0965566435
 20
110.9949788396
 10
49.9045139822
 20
111.0165880687
 10
49.7141356732
 20
111.0455524776
 10
49.5260480051
 20
111.0817536324
 10
49.3406363719
 20
111.1250865922
 10
49.1580606853
 20
111.175503853
 10
48.9787276558
 20
111.2329031034
 10
48.8032292738
 20
111.2970970049
 10
48.6320153825
 20
111.3679106312
 10
48.465602034
 20
111.4451102132
 10
48.3043941196
 20
111.5284782471
 10
48.1486784787
 20
111.6178433054
 10
47.9990951004
 20
111.712798637
 10
47.8499835205
 20
111.8174854263
  0
LINE
  5
257
100
AcDbEntity
  8
0
100
AcDbLine
 62
253
  6
CONTINUOUS
 10
60.0610817293
 20
133.5911521699
 11
60.632340932
 21
133.8205827198
  0
LINE
  5
258
100
AcDbEntity
  8
0
100
AcDbLine
 62
253
  6
CONTINUOUS
 10
60.0610817293
 20
131.1336959078
 11
60.632340932
 21
131.3631264577
  0
LWPOLYLINE
  5
259
100
AcDbEntity
  8
0
100
AcDbPolyline
 62
7
  6
CONTINUOUS
 90
22
 70
0
 10
236.5612487684
 20
74.4420877156
 10
236.7866095359
 20
74.4506999696
 10
237.008511814
 20
74.475628721
 10
237.2269556028
 20
74.51687397
 10
237.4432056852
 20
74.5748471175
 10
237.6559972783
 20
74.6491367625
 10
237.861536033
 20
74.7385087019
 10
238.0596160913
 20
74.8432157378
 10
238.2504433113
 20
74.9630050682
 10
238.4308409177
 20
75.0958840834
 10
238.6006343727
 20
75.2420720251
 10
238.7599982142
 20
75.4013496515
 10
238.906279281
 20
75.5710666281
 10
239.0392585877
 20
75.7513978349
 10
239.1591551197
 20
75.9421683918
 10
239.2639726729
 20
76.1402033231
 10
239.3534586349
 20
76.3456552924
 10
239.4278656181
 20
76.5583716362
 10
239.4859552557
 20
76.774719388
 10
239.527314759
 20
76.993487559
 10
239.5523569167
 20
77.215887138
 10
239.561081729
 20
77.4419181251
  0
LWPOLYLINE
  5
25A
100
AcDbEntity
  8
RACCORDO
100
AcDbPolyline
 62
253
  6
CONTINUOUS
 90
19
 70
0
 10
37.0500529927
 20
74.9401780394
 10
36.7896319193
 20
74.9525248857
 10
36.5311999318
 20
74.9873829669
 10
36.2768940715
 20
75.0446227627
 10
36.0285932014
 20
75.1236877886
 10
35.7881085378
 20
75.22393349
 10
35.5572274357
 20
75.3447012964
 10
35.3376601151
 20
75.4850482492
 10
35.1310230898
 20
75.6438217334
 10
34.9389066486
 20
75.8198939748
 10
34.7628409149
 20
76.0120196635
 10
34.6040524971
 20
76.2186445052
 10
34.4636985301
 20
76.4381991788
 10
34.3429469215
 20
76.669083492
 10
34.2426918036
 20
76.9095754242
 10
34.1636120329
 20
77.1578911032
 10
34.1063845042
 20
77.4122275518
 10
34.0715323729
 20
77.6706745377
 10
34.0591619052
 20
77.9310590761
  0
LWPOLYLINE
  5
25B
100
AcDbEntity
  8
0
100
AcDbPolyline
 62
7
  6
CONTINUOUS
 90
21
 70
0
 10
54.5788521932
 20
117.9303212202
 10
54.6146229738
 20
117.9036875003
 10
54.8037224154
 20
117.7554018664
 10
54.9847457492
 20
117.6005006723
 10
55.1573483872
 20
117.4392787814
 10
55.3212017703
 20
117.2720430886
 10
55.4759939944
 20
117.0991119366
 10
55.6214304036
 20
116.9208145097
 10
55.7572341515
 20
116.737490207
 10
55.883146728
 20
116.549487997
 10
55.9989284512
 20
116.3571657524
 10
56.1043589241
 20
116.1608895697
 10
56.1992374538
 20
115.9610330715
 10
56.2833834336
 20
115.7579766963
 10
56.3566366869
 20
115.5521069732
 10
56.4188577719
 20
115.3438157871
 10
56.4699282473
 20
115.1334996321
 10
56.5097508975
 20
114.9215588568
 10
56.5382499178
 20
114.7083969027
 10
56.5553710588
 20
114.4944195355
 10
56.5610817293
 20
114.2800340735
  0
LWPOLYLINE
  5
25C
100
AcDbEntity
  8
0
100
AcDbPolyline
 62
7
  6
CONTINUOUS
 90
37
 70
0
 10
94.0610817293
 20
129.2906037112
 10
94.0914119563
 20
128.7485330766
 10
94.1765973905
 20
128.2185026739
 10
94.3166380321
 20
127.7005125033
 10
94.5134250057
 20
127.1908226614
 10
94.7650671866
 20
126.6931730514
 10
95.0658912009
 20
126.2187833836
 10
95.4170142689
 20
125.7681820333
 10
95.8173191702
 20
125.3408406252
 10
96.2577808704
 20
124.9463937427
 10
96.7393115759
 20
124.5855886216
 10
97.2609990802
 20
124.2576780261
 10
97.8110817293
 20
123.970054832
 10
98.3902045505
 20
123.7236342128
 10
98.9977225165
 20
123.517500995
 10
99.619938891
 20
123.3563025348
 10
100.2571875648
 20
123.2410595754
 10
100.9091346471
 20
123.1707513736
 10
101.5610817293
 20
123.1469630559
 10
102.2130288116
 20
123.1707513736
 10
102.8649758938
 20
123.2410595754
 10
103.5022245676
 20
123.3563025348
 10
104.1244409421
 20
123.517500995
 10
104.7319589081
 20
123.7236342128
 10
105.3110817293
 20
123.970054832
 10
105.8611643784
 20
124.2576780261
 10
106.3828518827
 20
124.5855886216
 10
106.8643825882
 20
124.9463937427
 10
107.3048442884
 20
125.3408406252
 10
107.7051491898
 20
125.7681820333
 10
108.0562722577
 20
126.2187833836
 10
108.357096272
 20
126.6931730514
 10
108.6087384529
 20
127.1908226614
 10
108.8055254265
 20
127.7005125033
 10
108.9455660681
 20
128.2185026739
 10
109.0307515024
 20
128.7485330766
 10
109.0610817293
 20
129.2906037112
  0
LWPOLYLINE
  5
25D
100
AcDbEntity
  8
0
100
AcDbPolyline
 62
7
  6
CONTINUOUS
 90
37
 70
0
 10
94.5610817293
 20
129.2906037112
 10
94.5893899411
 20
128.7846711189
 10
94.6688963465
 20
128.2899760764
 10
94.7996009453
 20
127.8065185839
 10
94.9832687873
 20
127.3308080647
 10
95.2181348228
 20
126.8663350954
 10
95.4989039028
 20
126.4235714054
 10
95.8266187662
 20
126.0030101452
 10
96.2002366742
 20
125.6041581643
 10
96.611334261
 20
125.2360077406
 10
97.0607629195
 20
124.8992562942
 10
97.5476712568
 20
124.5932064051
 10
98.0610817293
 20
124.3247580906
 10
98.6015963625
 20
124.0947655127
 10
99.1686131307
 20
123.9023745094
 10
99.7493484136
 20
123.7519226133
 10
100.3441138424
 20
123.6443625178
 10
100.9525977859
 20
123.5787415294
 10
101.5610817293
 20
123.5565390996
 10
102.1695656728
 20
123.5787415294
 10
102.7780496162
 20
123.6443625178
 10
103.372815045
 20
123.7519226133
 10
103.9535503279
 20
123.9023745094
 10
104.5205670962
 20
124.0947655127
 10
105.0610817293
 20
124.3247580906
 10
105.5744922018
 20
124.5932064051
 10
106.0614005392
 20
124.8992562942
 10
106.5108291976
 20
125.2360077406
 10
106.9219267845
 20
125.6041581643
 10
107.2955446924
 20
126.0030101452
 10
107.6232595558
 20
126.4235714054
 10
107.9040286358
 20
126.8663350954
 10
108.1388946713
 20
127.3308080647
 10
108.3225625133
 20
127.8065185839
 10
108.4532671122
 20
128.2899760764
 10
108.5327735175
 20
128.7846711189
 10
108.5610817293
 20
129.2906037112
  0
LWPOLYLINE
  5
25E
100
AcDbEntity
  8
0
100
AcDbPolyline
 62
7
  6
CONTINUOUS
 90
37
 70
0
 10
95.132340932
 20
129.5200342611
 10
95.1583389543
 20
129.0553900473
 10
95.2313569646
 20
128.6010663042
 10
95.3513949627
 20
128.1570630319
 10
95.5200739554
 20
127.7201745144
 10
95.735772936
 20
127.2936064677
 10
95.9936288845
 20
126.8869760395
 10
96.2945994434
 20
126.500736135
 10
96.6377269702
 20
126.1344338491
 10
97.015275517
 20
125.7963276136
 10
97.4280269959
 20
125.4870579333
 10
97.8751994949
 20
125.2059843035
 10
98.3467113307
 20
124.959443642
 10
98.8431153983
 20
124.7482204035
 10
99.3638588027
 20
124.5715301333
 10
99.8972011749
 20
124.4333563843
 10
100.4434287145
 20
124.3345741024
 10
101.0022552219
 20
124.2743083416
 10
101.5610817293
 20
124.2539178179
 10
102.1199082367
 20
124.2743083416
 10
102.6787347441
 20
124.3345741024
 10
103.2249622837
 20
124.4333563843
 10
103.7583046559
 20
124.5715301333
 10
104.2790480603
 20
124.7482204035
 10
104.775452128
 20
124.959443642
 10
105.2469639637
 20
125.2059843035
 10
105.6941364627
 20
125.4870579333
 10
106.1068879416
 20
125.7963276136
 10
106.4844364885
 20
126.1344338491
 10
106.8275640152
 20
126.500736135
 10
107.1285345741
 20
126.8869760395
 10
107.3863905226
 20
127.2936064677
 10
107.6020895032
 20
127.7201745144
 10
107.7707684959
 20
128.1570630319
 10
107.8908064941
 20
128.6010663042
 10
107.9638245043
 20
129.0553900473
 10
107.9898225266
 20
129.5200342611
  0
LWPOLYLINE
  5
25F
100
AcDbEntity
  8
0
100
AcDbPolyline
 62
7
  6
CONTINUOUS
 90
40
 70
0
 10
93.5009156987
 20
129.749464811
 10
93.5284518576
 20
129.212567593
 10
93.6065231163
 20
128.685873556
 10
93.7351294748
 20
128.1693827
 10
93.9157540407
 20
127.6598916219
 10
94.1469137064
 20
127.1606037248
 10
94.4241591498
 20
126.6811292179
 10
94.7483831501
 20
126.2218519286
 10
95.118692928
 20
125.7823880295
 10
95.5279608234
 20
125.3711962475
 10
95.9769415377
 20
124.9888242736
 10
96.4648803695
 20
124.6347244169
 10
96.9823855545
 20
124.3157123317
 10
97.5300298558
 20
124.0324677425
 10
98.1072405102
 20
123.7843109248
 10
98.7029074645
 20
123.5760183591
 10
99.3173882564
 20
123.4083623006
 10
99.9503253483
 20
123.280570494
 10
100.5895360737
 20
123.1951026547
 10
101.2351419662
 20
123.1527786875
 10
101.8870214924
 20
123.1527786875
 10
102.5326273849
 20
123.1951026547
 10
103.1718381104
 20
123.280570494
 10
103.8047752022
 20
123.4083623006
 10
104.4192559941
 20
123.5760183591
 10
105.0149229485
 20
123.7843109248
 10
105.5921336029
 20
124.0324677425
 10
106.1397779041
 20
124.3157123317
 10
106.6572830891
 20
124.6347244169
 10
107.1452219209
 20
124.9888242736
 10
107.5942026352
 20
125.3711962475
 10
108.0034705307
 20
125.7823880295
 10
108.3737803086
 20
126.2218519286
 10
108.6980043088
 20
126.6811292179
 10
108.9752497522
 20
127.1606037248
 10
109.2064094179
 20
127.6598916219
 10
109.3870339838
 20
128.1693827
 10
109.5156403424
 20
128.685873556
 10
109.5937116011
 20
129.212567593
 10
109.6212477599
 20
129.749464811
  0
LINE
  5
260
100
AcDbEntity
  8
0
100
AcDbLine
 62
7
  6
CONTINUOUS
 10
93.5009156987
 20
132.2069210731
 11
93.5009156987
 21
129.749464811
  0
LINE
  5
261
100
AcDbEntity
  8
0
100
AcDbLine
 62
7
  6
CONTINUOUS
 10
94.0610817293
 20
131.7480599733
 11
94.0610817293
 21
129.2906037112
  0
LINE
  5
262
100
AcDbEntity
  8
0
100
AcDbLine
 62
7
  6
CONTINUOUS
 10
94.5610817293
 20
131.7480599733
 11
94.5610817293
 21
129.2906037112
  0
LINE
  5
263
100
AcDbEntity
  8
0
100
AcDbLine
 62
7
  6
CONTINUOUS
 10
95.132340932
 20
131.9774905232
 11
95.132340932
 21
129.5200342611
  0
LINE
  5
264
100
AcDbEntity
  8
0
100
AcDbLine
 62
7
  6
CONTINUOUS
 10
36.5609146915
 20
74.4420877156
 11
236.5612487684
 21
74.4420877156
  0
LINE
  5
265
100
AcDbEntity
  8
RACCORDO
100
AcDbLine
 62
253
  6
CONTINUOUS
 10
236.0721104206
 20
74.9400507334
 11
37.0500530389
 21
74.9400507334
  0
LINE
  5
266
100
AcDbEntity
  8
RACCORDO
100
AcDbLine
 62
253
  6
CONTINUOUS
 10
236.0721103554
 20
76.9340559104
 11
37.0500531041
 21
76.9340559109
  0
LINE
  5
267
100
AcDbEntity
  8
RACCORDO
100
AcDbLine
 62
7
  6
CONTINUOUS
 10
236.9097758568
 20
77.0933773085
 11
236.6135124442
 21
77.0933773085
  0
LINE
  5
268
100
AcDbEntity
  8
RACCORDO
100
AcDbLine
 62
7
  6
CONTINUOUS
 10
234.9120596847
 20
77.0933773713
 11
38.210104824
 21
77.0933773715
  0
LINE
  5
269
100
AcDbEntity
  8
RACCORDO
100
AcDbLine
 62
7
  6
CONTINUOUS
 10
36.5086510137
 20
77.0933773085
 11
36.2123876018
 21
77.0933773085
  0
LINE
  5
26A
100
AcDbEntity
  8
RACCORDO
100
AcDbLine
 62
253
  6
CONTINUOUS
 10
239.0631187229
 20
77.9310590455
 11
237.0691136772
 21
77.9310591064
  0
LINE
  5
26B
100
AcDbEntity
  8
RACCORDO
100
AcDbLine
 62
253
  6
CONTINUOUS
 10
34.0590447357
 20
77.9310590464
 11
36.0530497818
 21
77.9310591073
  0
LWPOLYLINE
  5
26C
100
AcDbEntity
  8
RACCORDO
100
AcDbPolyline
 62
7
  6
CONTINUOUS
 90
28
 70
0
 10
38.210104824
 20
77.0933773715
 10
38.0929306338
 20
77.0968845627
 10
37.9770135209
 20
77.1070343407
 10
37.8623534853
 20
77.1238267055
 10
37.7485983381
 20
77.1473609438
 10
37.6361002683
 20
77.177537769
 10
37.5259158427
 20
77.2140593204
 10
37.4180397662
 20
77.2569934797
 10
37.312477334
 20
77.3062723652
 10
37.2103009981
 20
77.3613944716
 10
37.1115483714
 20
77.4224184933
 10
37.0161818411
 20
77.4892857359
 10
36.9251610204
 20
77.5613186108
 10
36.8385307282
 20
77.6385687099
 10
36.7562461456
 20
77.7209844413
 10
36.6791324302
 20
77.8077334415
 10
36.607242158
 20
77.8988585989
 10
36.540522753
 20
77.9943170251
 10
36.479641644
 20
78.093147691
 10
36.4246570158
 20
78.1953870083
 10
36.3755106836
 20
78.3009985652
 10
36.3326955221
 20
78.4089120982
 10
36.296277944
 20
78.5191265236
 10
36.2661915366
 20
78.631642925
 10
36.2427299364
 20
78.7453942895
 10
36.2259910224
 20
78.8600249462
 10
36.2158769156
 20
78.975890566
 10
36.2123876161
 20
79.0929911488
  0
LWPOLYLINE
  5
26D
100
AcDbEntity
  8
RACCORDO
100
AcDbPolyline
 62
253
  6
CONTINUOUS
 90
10
 70
0
 10
37.0500531041
 20
76.9340559109
 10
36.9860510724
 20
76.9361505675
 10
36.9228656293
 20
76.9421822581
 10
36.8604967746
 20
76.9521509825
 10
36.7987512118
 20
76.9661035457
 10
36.7378222375
 20
76.9839931428
 10
36.6782897416
 20
77.0056793591
 10
36.6203470206
 20
77.0311153897
 10
36.563800778
 20
77.0603480395
 10
36.5086510137
 20
77.0933773085
  0
LINE
  5
26E
100
AcDbEntity
  8
0
100
AcDbLine
 62
253
  6
CONTINUOUS
 10
59.0009156987
 20
131.5925570076
 11
59.5610817293
 21
131.1336959078
  0
LINE
  5
26F
100
AcDbEntity
  8
0
100
AcDbLine
 62
7
  6
CONTINUOUS
 10
107.9898225266
 20
129.5200342611
 11
107.9898225266
 21
131.9774905232
  0
LINE
  5
270
100
AcDbEntity
  8
0
100
AcDbLine
 62
253
  6
CONTINUOUS
 10
109.0610817293
 20
131.7480599733
 11
109.6212477599
 21
132.2069210731
  0
LINE
  5
271
100
AcDbEntity
  8
0
100
AcDbLine
 62
253
  6
CONTINUOUS
 10
109.0610817293
 20
129.2906037112
 11
109.6212477599
 21
129.749464811
  0
LINE
  5
272
100
AcDbEntity
  8
0
100
AcDbLine
 62
253
  6
CONTINUOUS
 10
95.132340932
 20
131.9774905232
 11
94.5610817293
 21
131.7480599733
  0
LINE
  5
273
100
AcDbEntity
  8
0
100
AcDbLine
 62
253
  6
CONTINUOUS
 10
95.132340932
 20
129.5200342611
 11
94.5610817293
 21
129.2906037112
  0
LWPOLYLINE
  5
274
100
AcDbEntity
  8
RACCORDO
100
AcDbPolyline
 62
253
  6
CONTINUOUS
 90
16
 70
0
 10
230.0612617613
 20
89.0418698565
 10
230.2591737185
 20
89.0632320919
 10
230.4550975576
 20
89.1027175673
 10
230.6470643142
 20
89.1599344005
 10
230.8331442663
 20
89.2343139925
 10
231.0114685301
 20
89.3251107603
 10
231.1802480912
 20
89.4314089068
 10
231.3377886239
 20
89.5521400843
 10
231.4825072808
 20
89.6860947074
 10
231.6129509503
 20
89.8319277382
 10
231.7278108514
 20
89.9881722013
 10
231.8259333038
 20
90.1532602792
 10
231.9063315306
 20
90.3255384524
 10
231.9681987235
 20
90.5032756335
 10
232.0109158783
 20
90.6846812639
 10
232.0340557827
 20
90.8679292747
  0
LWPOLYLINE
  5
275
100
AcDbEntity
  8
RACCORDO
100
AcDbPolyline
 62
253
  6
CONTINUOUS
 90
16
 70
0
 10
43.0609016989
 20
89.0418698563
 10
42.8633052363
 20
89.0619263765
 10
42.6671220384
 20
89.1016426971
 10
42.4746876708
 20
89.1600292547
 10
42.28842919
 20
89.2348622101
 10
42.1101383928
 20
89.3252261438
 10
41.9411872907
 20
89.4319846246
 10
41.7834350884
 20
89.5531394235
 10
41.6386392126
 20
89.6865660643
 10
41.5081379591
 20
89.8330828618
 10
41.3932704228
 20
89.9899485775
 10
41.2952471856
 20
90.1544428174
 10
41.2151935282
 20
90.3273551418
 10
41.1539049602
 20
90.5068104041
 10
41.1115800818
 20
90.6881578607
 10
41.0881076758
 20
90.8679292709
  0
LWPOLYLINE
  5
276
100
AcDbEntity
  8
RACCORDO
100
AcDbPolyline
 62
253
  6
CONTINUOUS
 90
10
 70
0
 10
117.9539779593
 20
90.6851773009
 10
117.8591884797
 20
90.7439603281
 10
117.7656808649
 20
90.8097050531
 10
117.674719645
 20
90.8815223912
 10
117.5875349148
 20
90.9584411361
 10
117.5053056982
 20
91.0394210934
 10
117.4291440045
 20
91.1233671481
 10
117.3600797901
 20
91.2091440735
 10
117.2990470301
 20
91.2955918838
 10
117.2468710881
 20
91.3815415205
  0
LWPOLYLINE
  5
277
100
AcDbEntity
  8
0
100
AcDbPolyline
 62
7
  6
CONTINUOUS
 90
17
 70
0
 10
44.8499835205
 20
144.2559080115
 10
44.6986183655
 20
144.3736639486
 10
44.5527315147
 20
144.4995943812
 10
44.4150903427
 20
144.6316065613
 10
44.2860721144
 20
144.7693386529
 10
44.1660304599
 20
144.9124131418
 10
44.0552944049
 20
145.0604378708
 10
43.9541674693
 20
145.2130071144
 10
43.8629268349
 20
145.369702691
 10
43.7818225861
 20
145.5300951087
 10
43.7110770238
 20
145.6937447432
 10
43.6508840569
 20
145.8602030423
 10
43.60140867
 20
146.0290137551
 10
43.5627864717
 20
146.1997141834
 10
43.5351233228
 20
146.3718364491
 10
43.518495046
 20
146.5449087771
 10
43.5129472184
 20
146.7184567881
  0
LINE
  5
278
100
AcDbEntity
  8
0
100
AcDbLine
 62
253
  6
CONTINUOUS
 10
59.0009156987
 20
134.0500132697
 11
59.5610817293
 21
133.5911521699
  0
LWPOLYLINE
  5
279
100
AcDbEntity
  8
RACCORDO
100
AcDbPolyline
 62
253
  6
CONTINUOUS
 90
10
 70
0
 10
117.4501904871
 20
90.2157060347
 10
117.3807457614
 20
90.2816146874
 10
117.3120464857
 20
90.35297289
 10
117.2448301118
 20
90.4290146494
 10
117.1798181733
 20
90.5089236966
 10
117.1177085402
 20
90.5918422493
 10
117.0591679282
 20
90.6768802199
 10
117.0048247409
 20
90.7631247697
 10
116.955262325
 20
90.8496501081
 10
116.9110127082
 20
90.9355274307
  0
LWPOLYLINE
  5
27A
100
AcDbEntity
  8
RACCORDO
100
AcDbPolyline
 62
253
  6
CONTINUOUS
 90
10
 70
0
 10
116.9514620142
 20
90.1223098818
 10
116.9076847177
 20
90.1676031301
 10
116.864086212
 20
90.2137796565
 10
116.8208438758
 20
90.2606512953
 10
116.7781337577
 20
90.3080269235
 10
116.7361294811
 20
90.3557136479
 10
116.6950015598
 20
90.403517597
 10
116.6549172061
 20
90.4512441542
 10
116.6160396274
 20
90.498698745
 10
116.5785269987
 20
90.5456880419
  0
LWPOLYLINE
  5
27B
100
AcDbEntity
  8
0
100
AcDbPolyline
 62
7
  6
CONTINUOUS
 90
37
 70
0
 10
107.9898225266
 20
131.9774905232
 10
107.9638245043
 20
132.4421347371
 10
107.8908064941
 20
132.8964584801
 10
107.7707684959
 20
133.3404617525
 10
107.6020895032
 20
133.7773502699
 10
107.3863905226
 20
134.2039183166
 10
107.1285345741
 20
134.6105487448
 10
106.8275640152
 20
134.9967886493
 10
106.4844364885
 20
135.3630909353
 10
106.1068879416
 20
135.7011971707
 10
105.6941364627
 20
136.010466851
 10
105.2469639637
 20
136.2915404808
 10
104.775452128
 20
136.5380811423
 10
104.2790480603
 20
136.7493043808
 10
103.7583046559
 20
136.925994651
 10
103.2249622837
 20
137.0641684
 10
102.6787347441
 20
137.162950682
 10
102.1199082367
 20
137.2232164427
 10
101.5610817293
 20
137.2436069665
 10
101.0022552219
 20
137.2232164427
 10
100.4434287145
 20
137.162950682
 10
99.8972011749
 20
137.0641684
 10
99.3638588027
 20
136.925994651
 10
98.8431153983
 20
136.7493043808
 10
98.3467113307
 20
136.5380811423
 10
97.8751994949
 20
136.2915404808
 10
97.4280269959
 20
136.010466851
 10
97.015275517
 20
135.7011971707
 10
96.6377269702
 20
135.3630909353
 10
96.2945994434
 20
134.9967886493
 10
95.9936288845
 20
134.6105487448
 10
95.735772936
 20
134.2039183166
 10
95.5200739554
 20
133.7773502699
 10
95.3513949627
 20
133.3404617525
 10
95.2313569646
 20
132.8964584801
 10
95.1583389543
 20
132.4421347371
 10
95.132340932
 20
131.9774905232
  0
LWPOLYLINE
  5
27C
100
AcDbEntity
  8
0
100
AcDbPolyline
 62
7
  6
CONTINUOUS
 90
37
 70
0
 10
108.5610817293
 20
131.7480599733
 10
108.5327735175
 20
132.2539925656
 10
108.4532671122
 20
132.748687608
 10
108.3225625133
 20
133.2321451006
 10
108.1388946713
 20
133.7078556198
 10
107.9040286358
 20
134.1723285891
 10
107.6232595558
 20
134.6150922791
 10
107.2955446924
 20
135.0356535393
 10
106.9219267845
 20
135.4345055202
 10
106.5108291976
 20
135.8026559439
 10
106.0614005392
 20
136.1394073902
 10
105.5744922018
 20
136.4454572794
 10
105.0610817293
 20
136.7139055938
 10
104.5205670962
 20
136.9438981718
 10
103.9535503279
 20
137.136289175
 10
103.372815045
 20
137.2867410712
 10
102.7780496162
 20
137.3943011667
 10
102.1695656728
 20
137.459922155
 10
101.5610817293
 20
137.4821245848
 10
100.9525977859
 20
137.459922155
 10
100.3441138424
 20
137.3943011667
 10
99.7493484136
 20
137.2867410712
 10
99.1686131307
 20
137.136289175
 10
98.6015963625
 20
136.9438981718
 10
98.0610817293
 20
136.7139055938
 10
97.5476712568
 20
136.4454572794
 10
97.0607629195
 20
136.1394073902
 10
96.611334261
 20
135.8026559439
 10
96.2002366742
 20
135.4345055202
 10
95.8266187662
 20
135.0356535393
 10
95.4989039028
 20
134.6150922791
 10
95.2181348228
 20
134.1723285891
 10
94.9832687873
 20
133.7078556198
 10
94.7996009453
 20
133.2321451006
 10
94.6688963465
 20
132.748687608
 10
94.5893899411
 20
132.2539925656
 10
94.5610817293
 20
131.7480599733
  0
LWPOLYLINE
  5
27D
100
AcDbEntity
  8
0
100
AcDbPolyline
 62
7
  6
CONTINUOUS
 90
37
 70
0
 10
109.0610817293
 20
131.7480599733
 10
109.0307515024
 20
132.2901306079
 10
108.9455660681
 20
132.8201610105
 10
108.8055254265
 20
133.3381511811
 10
108.6087384529
 20
133.8478410231
 10
108.357096272
 20
134.345490633
 10
108.0562722577
 20
134.8198803009
 10
107.7051491898
 20
135.2704816511
 10
107.3048442884
 20
135.6978230592
 10
106.8643825882
 20
136.0922699418
 10
106.3828518827
 20
136.4530750629
 10
105.8611643784
 20
136.7809856584
 10
105.3110817293
 20
137.0686088524
 10
104.7319589081
 20
137.3150294717
 10
104.1244409421
 20
137.5211626894
 10
103.5022245676
 20
137.6823611496
 10
102.8649758938
 20
137.797604109
 10
102.2130288116
 20
137.8679123109
 10
101.5610817293
 20
137.8917006285
 10
100.9091346471
 20
137.8679123109
 10
100.2571875648
 20
137.797604109
 10
99.619938891
 20
137.6823611496
 10
98.9977225165
 20
137.5211626894
 10
98.3902045505
 20
137.3150294717
 10
97.8110817293
 20
137.0686088524
 10
97.2609990802
 20
136.7809856584
 10
96.7393115759
 20
136.4530750629
 10
96.2577808704
 20
136.0922699418
 10
95.8173191702
 20
135.6978230592
 10
95.4170142689
 20
135.2704816511
 10
95.0658912009
 20
134.8198803009
 10
94.7650671866
 20
134.345490633
 10
94.5134250057
 20
133.8478410231
 10
94.3166380321
 20
133.3381511811
 10
94.1765973905
 20
132.8201610105
 10
94.0914119563
 20
132.2901306079
 10
94.0610817293
 20
131.7480599733
  0
LWPOLYLINE
  5
27E
100
AcDbEntity
  8
0
100
AcDbPolyline
 62
7
  6
CONTINUOUS
 90
40
 70
0
 10
109.6212477599
 20
132.2069210731
 10
109.5937116011
 20
132.7438182911
 10
109.5156403424
 20
133.2705123282
 10
109.3870339838
 20
133.7870031842
 10
109.2064094179
 20
134.2964942623
 10
108.9752497522
 20
134.7957821594
 10
108.6980043088
 20
135.2752566663
 10
108.3737803086
 20
135.7345339556
 10
108.0034705307
 20
136.1739978547
 10
107.5942026352
 20
136.5851896367
 10
107.1452219209
 20
136.9675616105
 10
106.6572830891
 20
137.3216614673
 10
106.1397779041
 20
137.6406735525
 10
105.5921336029
 20
137.9239181417
 10
105.0149229485
 20
138.1720749594
 10
104.4192559941
 20
138.3803675251
 10
103.8047752022
 20
138.5480235836
 10
103.1718381104
 20
138.6758153901
 10
102.5326273849
 20
138.7612832295
 10
101.8870214924
 20
138.8036071967
 10
101.2351419662
 20
138.8036071967
 10
100.5895360737
 20
138.7612832295
 10
99.9503253483
 20
138.6758153901
 10
99.3173882564
 20
138.5480235836
 10
98.7029074645
 20
138.3803675251
 10
98.1072405102
 20
138.1720749594
 10
97.5300298558
 20
137.9239181417
 10
96.9823855545
 20
137.6406735525
 10
96.4648803695
 20
137.3216614673
 10
95.9769415377
 20
136.9675616105
 10
95.5279608234
 20
136.5851896367
 10
95.118692928
 20
136.1739978547
 10
94.7483831501
 20
135.7345339556
 10
94.4241591498
 20
135.2752566663
 10
94.1469137064
 20
134.7957821594
 10
93.9157540407
 20
134.2964942623
 10
93.7351294748
 20
133.7870031842
 10
93.6065231163
 20
133.2705123282
 10
93.5284518576
 20
132.7438182912
 10
93.5009156987
 20
132.2069210731
  0
LINE
  5
27F
100
AcDbEntity
  8
0
100
AcDbLine
 62
7
  6
CONTINUOUS
 10
108.5610817293
 20
129.2906037112
 11
108.5610817293
 21
131.7480599733
  0
LINE
  5
280
100
AcDbEntity
  8
0
100
AcDbLine
 62
7
  6
CONTINUOUS
 10
109.0610817293
 20
129.2906037112
 11
109.0610817293
 21
131.7480599733
  0
LINE
  5
281
100
AcDbEntity
  8
0
100
AcDbLine
 62
7
  6
CONTINUOUS
 10
109.6212477599
 20
129.749464811
 11
109.6212477599
 21
132.2069210731
  0
LWPOLYLINE
  5
282
100
AcDbEntity
  8
RACCORDO
100
AcDbPolyline
 62
253
  6
CONTINUOUS
 90
16
 70
0
 10
230.0612617578
 20
90.5206336906
 10
230.2481497229
 20
90.5297191559
 10
230.4342713628
 20
90.5391700598
 10
230.6174945536
 20
90.5502268804
 10
230.7953395881
 20
90.5653768492
 10
230.9662988242
 20
90.5844620795
 10
231.1297078962
 20
90.6047485461
 10
231.2837051485
 20
90.6277129065
 10
231.4265726744
 20
90.6541218358
 10
231.5577486165
 20
90.680547637
 10
231.6756673174
 20
90.7088977878
 10
231.7789661651
 20
90.7401054492
 10
231.8673180254
 20
90.7701697335
 10
231.9398923527
 20
90.7993326993
 10
231.9956237007
 20
90.8313444955
 10
232.0340557827
 20
90.8679292747
  0
LWPOLYLINE
  5
283
100
AcDbEntity
  8
RACCORDO
100
AcDbPolyline
 62
253
  6
CONTINUOUS
 90
7
 70
0
 10
115.8326570691
 20
90.5206336906
 10
115.960011197
 20
90.5213381909
 10
116.0868284486
 20
90.5234491081
 10
116.2125946159
 20
90.5269572126
 10
116.3368001595
 20
90.5318476156
 10
116.4589422694
 20
90.5380998361
 10
116.5785268958
 20
90.5456878903
  0
LINE
  5
284
100
AcDbEntity
  8
RACCORDO
100
AcDbLine
 62
253
  6
CONTINUOUS
 10
43.0609017008
 20
89.0418698469
 11
230.0612617578
 21
89.0418698469
  0
LINE
  5
285
100
AcDbEntity
  8
RACCORDO
100
AcDbLine
 62
253
  6
CONTINUOUS
 10
157.28949414
 20
89.8981709654
 11
115.8328519718
 21
89.8981690139
  0
LINE
  5
286
100
AcDbEntity
  8
RACCORDO
100
AcDbLine
 62
253
  6
CONTINUOUS
 10
155.6719771623
 20
90.2157075584
 11
117.4501904871
 21
90.2157060291
  0
LINE
  5
287
100
AcDbEntity
  8
RACCORDO
100
AcDbLine
 62
253
  6
CONTINUOUS
 10
43.0609016882
 20
90.5206336906
 11
115.8326570691
 21
90.5206336906
  0
LINE
  5
288
100
AcDbEntity
  8
RACCORDO
100
AcDbLine
 62
253
  6
CONTINUOUS
 10
157.2895095379
 20
90.5206336906
 11
230.0612617696
 21
90.5206336906
  0
LWPOLYLINE
  5
289
100
AcDbEntity
  8
RACCORDO
100
AcDbPolyline
 62
253
  6
CONTINUOUS
 90
7
 70
0
 10
157.2895095379
 20
90.5206336906
 10
157.162113316
 20
90.5213386816
 10
157.0352713698
 20
90.5234506427
 10
156.9094979003
 20
90.5269597746
 10
156.7853020261
 20
90.5318506257
 10
156.6631857294
 20
90.538102166
 10
156.543641836
 20
90.5456878841
  0
LWPOLYLINE
  5
28A
100
AcDbEntity
  8
RACCORDO
100
AcDbPolyline
 62
253
  6
CONTINUOUS
 90
16
 70
0
 10
43.0609017008
 20
90.5206336906
 10
42.8734960414
 20
90.5275001419
 10
42.6877408596
 20
90.5373648961
 10
42.5052720975
 20
90.5501412383
 10
42.3276967553
 20
90.5657168586
 10
42.1565787319
 20
90.5839546265
 10
41.9934250515
 20
90.6046937753
 10
41.8396726001
 20
90.6277516218
 10
41.6966754711
 20
90.6529251927
 10
41.5656930336
 20
90.6799927856
 10
41.4478788416
 20
90.708715921
 10
41.3442704796
 20
90.7388416705
 10
41.2557804244
 20
90.7701048659
 10
41.183188003
 20
90.8022301307
 10
41.1271325287
 20
90.8349343283
 10
41.0881076758
 20
90.8679292709
  0
LWPOLYLINE
  5
28B
100
AcDbEntity
  8
0
100
AcDbPolyline
 62
7
  6
CONTINUOUS
 90
21
 70
0
 10
51.5788521932
 20
150.3687441268
 10
51.6146229738
 20
150.3421104055
 10
51.8037224154
 20
150.1938247638
 10
51.9847457492
 20
150.0389235616
 10
52.1573483872
 20
149.8777016622
 10
52.3212017703
 20
149.7104659606
 10
52.4759939944
 20
149.5375347995
 10
52.6214304036
 20
149.3592373632
 10
52.7572341515
 20
149.1759130509
 10
52.883146728
 20
148.987910831
 10
52.9989284512
 20
148.7955885763
 10
53.1043589241
 20
148.5993123832
 10
53.1992374538
 20
148.3994558746
 10
53.2833834336
 20
148.1963994887
 10
53.3566366869
 20
147.9905297548
 10
53.4188577719
 20
147.7822385577
 10
53.4699282473
 20
147.5719223916
 10
53.5097508975
 20
147.3599816052
 10
53.5382499178
 20
147.1468196398
 10
53.5553710588
 20
146.9328422615
 10
53.5610817293
 20
146.7184567881
  0
LWPOLYLINE
  5
28C
100
AcDbEntity
  8
ASSI
100
AcDbPolyline
 62
7
  6
CONTINUOUS
 90
37
 70
0
 10
117.3475528553
 20
102.9291957809
 10
117.3625654964
 20
102.4756187006
 10
117.4047300826
 20
102.0368882385
 10
117.4740466111
 20
101.613005233
 10
117.5714511404
 20
101.2009848767
 10
117.6960076122
 20
100.803811977
 10
117.8449078506
 20
100.4304409562
 10
118.0187048516
 20
100.0814125007
 10
118.2168456194
 20
99.7561859241
 10
118.4348629908
 20
99.4620935902
 10
118.673208485
 20
99.1998427479
 10
118.9314305829
 20
98.9687261482
 10
119.2037075636
 20
98.7739544075
 10
119.4903586996
 20
98.61635314
 10
119.7910647184
 20
98.4950967315
 10
120.0990460822
 20
98.4129189564
 10
120.4144680586
 20
98.3707075295
 10
120.73716538
 20
98.3675747361
 10
121.0598627059
 20
98.4035912061
 10
121.3825600364
 20
98.4796462589
 10
121.7052573713
 20
98.5948505752
 10
122.0206793698
 20
98.7466068275
 10
122.3286607645
 20
98.9357453338
 10
122.6293668229
 20
99.1614357761
 10
122.9160180061
 20
99.4185898728
 10
123.188295042
 20
99.707922356
 10
123.4465172027
 20
100.0287184936
 10
123.6848627662
 20
100.373745808
 10
123.9028802132
 20
100.7435547375
 10
124.1010210629
 20
101.1375948437
 10
124.2748181504
 20
101.5469823346
 10
124.4237184798
 20
101.9720658429
 10
124.548275047
 20
102.4124967358
 10
124.6456796741
 20
102.858345322
 10
124.714996302
 20
103.3063017046
 10
124.7571609898
 20
103.7596757806
 10
124.7721737375
 20
104.21846755
  0
LINE
  5
28D
100
AcDbEntity
  8
RACCORDO
100
AcDbLine
 62
253
  6
CONTINUOUS
 10
115.8328519681
 20
89.8981690139
 11
115.8326645381
 21
107.8157399582
  0
LINE
  5
28E
100
AcDbEntity
  8
RACCORDO
100
AcDbLine
 62
253
  6
CONTINUOUS
 10
117.2468710881
 20
91.3815415205
 11
117.2468781982
 21
106.423011521
  0
LWPOLYLINE
  5
28F
100
AcDbEntity
  8
ASSI
100
AcDbPolyline
 62
7
  6
CONTINUOUS
 90
7
 70
0
 10
117.7827243232
 20
105.4334545456
 10
117.6960081104
 20
105.1755983264
 10
117.5714515432
 20
104.7351674335
 10
117.474046916
 20
104.2893188473
 10
117.4047302882
 20
103.8413624647
 10
117.3625656004
 20
103.3879883887
 10
117.3475528527
 20
102.9291966193
  0
LWPOLYLINE
  5
290
100
AcDbEntity
  8
RACCORDO
100
AcDbPolyline
 62
253
  6
CONTINUOUS
 90
6
 70
0
 10
115.8328519718
 20
89.8981690139
 10
115.8491448689
 20
89.9024335443
 10
115.8664650717
 20
89.9064716814
 10
115.8848125802
 20
89.9102762263
 10
115.9043321817
 20
89.9137040657
 10
115.9460189398
 20
89.920227054
  0
LINE
  5
291
100
AcDbEntity
  8
RACCORDO
100
AcDbLine
 62
253
  6
CONTINUOUS
 10
116.4364890566
 20
90.0144809547
 11
116.9513582221
 21
90.1223635266
  0
LINE
  5
292
100
AcDbEntity
  8
RACCORDO
100
AcDbLine
 62
253
  6
CONTINUOUS
 10
116.9513582221
 20
90.1223635266
 11
117.029705318
 21
90.1383365851
  0
LINE
  5
293
100
AcDbEntity
  8
RACCORDO
100
AcDbLine
 62
253
  6
CONTINUOUS
 10
116.2937155875
 20
89.9856078056
 11
116.4364890566
 21
90.0144809547
  0
LINE
  5
294
100
AcDbEntity
  8
RACCORDO
100
AcDbLine
 62
253
  6
CONTINUOUS
 10
116.1992697814
 20
89.9669695621
 11
116.2937155875
 21
89.9856078056
  0
LINE
  5
295
100
AcDbEntity
  8
RACCORDO
100
AcDbLine
 62
253
  6
CONTINUOUS
 10
117.029705318
 20
90.1383365851
 11
117.110015447
 21
90.1541181657
  0
LINE
  5
296
100
AcDbEntity
  8
RACCORDO
100
AcDbLine
 62
253
  6
CONTINUOUS
 10
116.1134800894
 20
89.9505043562
 11
116.1992697814
 21
89.9669695621
  0
LINE
  5
297
100
AcDbEntity
  8
RACCORDO
100
AcDbLine
 62
253
  6
CONTINUOUS
 10
117.110015447
 20
90.1541181657
 11
117.1922873274
 21
90.1696958828
  0
LINE
  5
298
100
AcDbEntity
  8
RACCORDO
100
AcDbLine
 62
253
  6
CONTINUOUS
 10
117.1922873274
 20
90.1696958828
 11
117.2765643339
 21
90.1851582711
  0
LINE
  5
299
100
AcDbEntity
  8
RACCORDO
100
AcDbLine
 62
253
  6
CONTINUOUS
 10
117.2765643339
 20
90.1851582711
 11
117.3625563052
 21
90.2005162233
  0
LWPOLYLINE
  5
29A
100
AcDbEntity
  8
RACCORDO
100
AcDbPolyline
 62
253
  6
CONTINUOUS
 90
4
 70
0
 10
115.98961584
 20
89.9276262665
 10
116.0125617942
 20
89.9316680258
 10
116.0364013054
 20
89.9360183985
 10
116.1134800894
 20
89.9505043562
  0
LINE
  5
29B
100
AcDbEntity
  8
RACCORDO
100
AcDbLine
 62
253
  6
CONTINUOUS
 10
117.3625563052
 20
90.2005162233
 11
117.4501904871
 21
90.2157060291
  0
LINE
  5
29C
100
AcDbEntity
  8
RACCORDO
100
AcDbLine
 62
253
  6
CONTINUOUS
 10
115.9460189398
 20
89.920227054
 11
115.98961584
 21
89.9276262665
  0
LINE
  5
29D
100
AcDbEntity
  8
RACCORDO
100
AcDbLine
 62
253
  6
CONTINUOUS
 10
125.5752972583
 20
99.5141419962
 11
147.5468686461
 21
99.5141403467
  0
LINE
  5
29E
100
AcDbEntity
  8
RACCORDO
100
AcDbLine
 62
253
  6
CONTINUOUS
 10
125.5752973314
 20
100.2613665075
 11
147.5468687192
 21
100.261364858
  0
LWPOLYLINE
  5
29F
100
AcDbEntity
  8
RACCORDO
100
AcDbPolyline
 62
253
  6
CONTINUOUS
 90
10
 70
0
 10
147.5468687192
 20
100.261364858
 10
147.6340244208
 20
100.2607040663
 10
147.7205168146
 20
100.2587267378
 10
147.805687642
 20
100.255447921
 10
147.888888702
 20
100.2508925696
 10
147.9694867851
 20
100.2450953528
 10
148.0468684916
 20
100.2381003906
 10
148.1204449006
 20
100.229960919
 10
148.1896560517
 20
100.2207388841
 10
148.2539752069
 20
100.2105044713
  0
LWPOLYLINE
  5
2A0
100
AcDbEntity
  8
RACCORDO
100
AcDbPolyline
 62
253
  6
CONTINUOUS
 90
8
 70
0
 10
157.1905077674
 20
89.9176414139
 10
157.2063205002
 20
89.9151288525
 10
157.2220802579
 20
89.9130681551
 10
157.2375232727
 20
89.9112040865
 10
157.2520464752
 20
89.9088424287
 10
157.2654488424
 20
89.9057606537
 10
157.2779313973
 20
89.9021997597
 10
157.28949414
 20
89.8981709654
  0
LINE
  5
2A1
100
AcDbEntity
  8
RACCORDO
100
AcDbLine
 62
253
  6
CONTINUOUS
 10
157.1577438379
 20
89.9232198587
 11
157.1905077674
 21
89.9176414139
  0
LINE
  5
2A2
100
AcDbEntity
  8
RACCORDO
100
AcDbLine
 62
253
  6
CONTINUOUS
 10
155.6719771623
 20
90.2157075584
 11
155.7582071824
 21
90.2007639036
  0
LINE
  5
2A3
100
AcDbEntity
  8
RACCORDO
100
AcDbLine
 62
253
  6
CONTINUOUS
 10
157.1229198866
 20
89.9293541597
 11
157.1577438379
 21
89.9232198587
  0
LINE
  5
2A4
100
AcDbEntity
  8
RACCORDO
100
AcDbLine
 62
253
  6
CONTINUOUS
 10
155.7582071824
 20
90.2007639036
 11
155.8855132111
 21
90.1779030867
  0
LINE
  5
2A5
100
AcDbEntity
  8
RACCORDO
100
AcDbLine
 62
253
  6
CONTINUOUS
 10
157.0661237754
 20
89.9397106981
 11
157.1229198866
 21
89.9293541597
  0
LINE
  5
2A6
100
AcDbEntity
  8
RACCORDO
100
AcDbLine
 62
253
  6
CONTINUOUS
 10
155.8855132111
 20
90.1779030867
 11
155.9687919433
 21
90.1623871629
  0
LINE
  5
2A7
100
AcDbEntity
  8
RACCORDO
100
AcDbLine
 62
253
  6
CONTINUOUS
 10
157.0029044526
 20
89.9515794657
 11
157.0661237754
 21
89.9397106981
  0
LINE
  5
2A8
100
AcDbEntity
  8
RACCORDO
100
AcDbLine
 62
253
  6
CONTINUOUS
 10
155.9687919433
 20
90.1623871629
 11
156.0506655684
 21
90.1466314917
  0
LINE
  5
2A9
100
AcDbEntity
  8
RACCORDO
100
AcDbLine
 62
253
  6
CONTINUOUS
 10
156.9066346662
 20
89.9701578532
 11
157.0029044526
 21
89.9515794657
  0
LINE
  5
2AA
100
AcDbEntity
  8
RACCORDO
100
AcDbLine
 62
253
  6
CONTINUOUS
 10
156.7940717275
 20
89.9924876367
 11
156.9066346662
 21
89.9701578532
  0
LINE
  5
2AB
100
AcDbEntity
  8
RACCORDO
100
AcDbLine
 62
253
  6
CONTINUOUS
 10
156.0506655684
 20
90.1466314917
 11
156.131116887
 21
90.1305235615
  0
LINE
  5
2AC
100
AcDbEntity
  8
RACCORDO
100
AcDbLine
 62
253
  6
CONTINUOUS
 10
156.6623798446
 20
90.0192685364
 11
156.7940717275
 21
89.9924876367
  0
LINE
  5
2AD
100
AcDbEntity
  8
RACCORDO
100
AcDbLine
 62
253
  6
CONTINUOUS
 10
156.131116887
 20
90.1305235615
 11
156.2342721666
 21
90.1090910596
  0
LINE
  5
2AE
100
AcDbEntity
  8
RACCORDO
100
AcDbLine
 62
253
  6
CONTINUOUS
 10
156.4177990561
 20
90.0703450346
 11
156.6623798446
 21
90.0192685364
  0
LWPOLYLINE
  5
2AF
100
AcDbEntity
  8
RACCORDO
100
AcDbPolyline
 62
253
  6
CONTINUOUS
 90
3
 70
0
 10
156.2342721666
 20
90.1090910596
 10
156.2781651802
 20
90.099833627
 10
156.4177990561
 20
90.0703450346
  0
LWPOLYLINE
  5
2B0
100
AcDbEntity
  8
RACCORDO
100
AcDbPolyline
 62
253
  6
CONTINUOUS
 90
10
 70
0
 10
125.5752972583
 20
99.5141419962
 10
125.4805077788
 20
99.5729250234
 10
125.387000164
 20
99.6386697484
 10
125.2960389441
 20
99.7104870865
 10
125.2088542138
 20
99.7874058314
 10
125.1266249972
 20
99.8683857887
 10
125.0504633035
 20
99.9523318434
 10
124.9813990891
 20
100.0381087688
 10
124.9203663292
 20
100.1245565791
 10
124.8681903872
 20
100.2105062158
  0
LWPOLYLINE
  5
2B1
100
AcDbEntity
  8
RACCORDO
100
AcDbPolyline
 62
253
  6
CONTINUOUS
 90
10
 70
0
 10
115.8326645381
 20
107.8157399582
 10
116.0222434887
 20
107.6981739014
 10
116.209258709
 20
107.5666844498
 10
116.3911811389
 20
107.4230497728
 10
116.5655505893
 20
107.2692122833
 10
116.7300090125
 20
107.1072523693
 10
116.8823323901
 20
106.9393602612
 10
117.0204608098
 20
106.7678064118
 10
117.1425263214
 20
106.5949107928
 10
117.2468781982
 20
106.423011521
  0
LINE
  5
2B2
100
AcDbEntity
  8
0
100
AcDbLine
 62
253
  6
CONTINUOUS
 10
94.0610817293
 20
129.2906037112
 11
93.5009156987
 21
129.749464811
  0
LWPOLYLINE
  5
2B3
100
AcDbEntity
  8
ASSI
100
AcDbPolyline
 62
7
  6
CONTINUOUS
 90
30
 70
0
 10
117.365495341
 20
102.732697447
 10
117.4145236699
 20
102.3100878224
 10
117.4946378393
 20
101.9069433108
 10
117.6073853971
 20
101.5193025976
 10
117.7512187954
 20
101.1511269972
 10
117.9214953907
 20
100.8143004539
 10
118.1190779979
 20
100.5098458555
 10
118.3431038022
 20
100.2367403141
 10
118.5863417157
 20
100.0037991094
 10
118.8494186101
 20
99.8123327633
 10
119.1317076137
 20
99.6610307539
 10
119.4240970237
 20
99.5547767961
 10
119.7269164059
 20
99.4950407622
 10
120.0398361944
 20
99.4803527798
 10
120.3527559881
 20
99.5111869465
 10
120.6656757871
 20
99.589028604
 10
120.9785955914
 20
99.7123924106
 10
121.2814149992
 20
99.8772964388
 10
121.5738044449
 20
100.0850961039
 10
121.8560934942
 20
100.3344359906
 10
122.1191704427
 20
100.617267925
 10
122.3624084189
 20
100.9346847188
 10
122.5864342942
 20
101.2855935602
 10
122.7840169786
 20
101.6586678405
 10
122.9542936575
 20
102.0546307955
 10
123.0981271454
 20
102.4727591893
 10
123.210874796
 20
102.8995567056
 10
123.2909890604
 20
103.3305245721
 10
123.3400174876
 20
103.770161561
 10
123.3579600774
 20
104.2184676723
  0
LWPOLYLINE
  5
2B4
100
AcDbEntity
  8
RACCORDO
100
AcDbPolyline
 62
253
  6
CONTINUOUS
 90
7
 70
0
 10
125.5571243891
 20
115.6284476675
 10
125.5628479965
 20
115.5723896982
 10
125.5674938046
 20
115.5170470613
 10
125.5710618136
 20
115.4624197569
 10
125.5735520234
 20
115.408507785
 10
125.574964434
 20
115.3553111455
 10
125.5752990455
 20
115.3028298385
  0
LWPOLYLINE
  5
2B5
100
AcDbEntity
  8
ASSI
100
AcDbPolyline
 62
7
  6
CONTINUOUS
 90
32
 70
0
 10
124.7721737375
 20
104.21846755
 10
124.7571610937
 20
104.6720454687
 10
124.7149965076
 20
105.1107759308
 10
124.6456799791
 20
105.5346589363
 10
124.5482754497
 20
105.9466792926
 10
124.423718978
 20
106.3438521923
 10
124.2748187395
 20
106.7172232131
 10
124.1010217385
 20
107.0662516686
 10
123.9028809708
 20
107.3914782452
 10
123.6848635994
 20
107.6855705791
 10
123.4465181051
 20
107.9478214215
 10
123.1882960073
 20
108.1789380212
 10
122.9160190265
 20
108.3737097618
 10
122.6293678906
 20
108.5313110294
 10
122.3286618718
 20
108.6525674379
 10
122.020680508
 20
108.7347452129
 10
121.7052585316
 20
108.7769566398
 10
121.3825612102
 20
108.7800894332
 10
121.0598638843
 20
108.7440729632
 10
120.7371665538
 20
108.6680179104
 10
120.4144692189
 20
108.5528135941
 10
120.0990472204
 20
108.4010573418
 10
119.7910658256
 20
108.2119188355
 10
119.4903597673
 20
107.9862283932
 10
119.2037085841
 20
107.7290742965
 10
118.9314315482
 20
107.4397418133
 10
118.6732093874
 20
107.1189456757
 10
118.434863824
 20
106.7739183613
 10
118.216846377
 20
106.4041094318
 10
118.0187055272
 20
106.0100693256
 10
117.8449084398
 20
105.6006818347
 10
117.7827243232
 20
105.4334545456
  0
LINE
  5
2B6
100
AcDbEntity
  8
RACCORDO
100
AcDbLine
 62
253
  6
CONTINUOUS
 10
124.8681921012
 20
115.2519695468
 11
124.8681903872
 21
100.2105062158
  0
LINE
  5
2B7
100
AcDbEntity
  8
RACCORDO
100
AcDbLine
 62
253
  6
CONTINUOUS
 10
125.5752972583
 20
99.5141419962
 11
125.5752990455
 21
115.3028298385
  0
LWPOLYLINE
  5
2B8
100
AcDbEntity
  8
RACCORDO
100
AcDbPolyline
 62
253
  6
CONTINUOUS
 90
7
 70
0
 10
124.8907941502
 20
115.509267944
 10
124.8889527827
 20
115.4653073265
 10
124.8863152584
 20
115.4217737092
 10
124.882900981
 20
115.3786706472
 10
124.8787294009
 20
115.336000958
 10
124.8738199702
 20
115.293766766
 10
124.8681921012
 20
115.2519695468
  0
LWPOLYLINE
  5
2B9
100
AcDbEntity
  8
ASSI
100
AcDbPolyline
 62
7
  6
CONTINUOUS
 90
26
 70
0
 10
117.790557316
 20
105.4300861093
 10
117.9214959514
 20
105.7345720164
 10
118.1190786358
 20
106.1076462966
 10
118.3431045112
 20
106.4585551381
 10
118.5863424874
 20
106.7759719318
 10
118.8494194359
 20
107.0588038662
 10
119.1317084852
 20
107.3081437529
 10
119.4240979309
 20
107.5159434181
 10
119.7269173387
 20
107.6808474462
 10
120.0398371429
 20
107.8042112529
 10
120.352756942
 20
107.8820529104
 10
120.6656767357
 20
107.9128870771
 10
120.9785965242
 20
107.8981990947
 10
121.2814159064
 20
107.8384630608
 10
121.5738053163
 20
107.7322091029
 10
121.85609432
 20
107.5809070936
 10
122.1191712144
 20
107.3894407475
 10
122.3624091279
 20
107.1564995428
 10
122.5864349321
 20
106.8833940014
 10
122.7840175393
 20
106.578939403
 10
122.9542941347
 20
106.2421128596
 10
123.098127533
 20
105.8739372593
 10
123.2108750908
 20
105.486296546
 10
123.2909892602
 20
105.0831520344
 10
123.340017589
 20
104.6605424099
 10
123.3579600774
 20
104.2184676723
  0
LWPOLYLINE
  5
2BA
100
AcDbEntity
  8
RACCORDO
100
AcDbPolyline
 62
253
  6
CONTINUOUS
 90
15
 70
0
 10
115.832851609
 20
89.8983611871
 10
115.8412185072
 20
89.9157455007
 10
115.8534323198
 20
89.9266789669
 10
115.8673587025
 20
89.9348782731
 10
115.8810569183
 20
89.9432879496
 10
115.8944520865
 20
89.9524053416
 10
115.9081743654
 20
89.9623518211
 10
115.9224503215
 20
89.9730252441
 10
115.9371704191
 20
89.9842776908
 10
115.9524527147
 20
89.9961830195
 10
115.9683262033
 20
90.0087444847
 10
115.9847829397
 20
90.0219451334
 10
116.0018890728
 20
90.0358257698
 10
116.019684164
 20
90.0504051568
 10
116.0572088254
 20
90.0815561241
  0
LINE
  5
2BB
100
AcDbEntity
  8
RACCORDO
100
AcDbLine
 62
253
  6
CONTINUOUS
 10
115.8326645381
 20
107.8157399582
 11
124.3326583633
 21
117.6626101511
  0
LINE
  5
2BC
100
AcDbEntity
  8
RACCORDO
100
AcDbLine
 62
253
  6
CONTINUOUS
 10
117.2468781982
 20
106.423011521
 11
124.8681921012
 21
115.2519695468
  0
LWPOLYLINE
  5
2BD
100
AcDbEntity
  8
RACCORDO
100
AcDbPolyline
 62
253
  6
CONTINUOUS
 90
10
 70
0
 10
124.8533841821
 20
115.9233504255
 10
124.9093856807
 20
115.9510139827
 10
124.9682078605
 20
115.9789128842
 10
125.0295324727
 20
116.0068961871
 10
125.0930277295
 20
116.0348124919
 10
125.1583500989
 20
116.0625107617
 10
125.2251461637
 20
116.0898411391
 10
125.2930545337
 20
116.1166557573
 10
125.3617078003
 20
116.1428095397
 10
125.4307345251
 20
116.1681609852
  0
LWPOLYLINE
  5
2BE
100
AcDbEntity
  8
ASSI
100
AcDbPolyline
 62
7
  6
CONTINUOUS
 90
8
 70
0
 10
137.6259029366
 20
101.1258742823
 10
138.1403758301
 20
101.2380789635
 10
138.646604759
 20
101.3957504861
 10
139.1408752146
 20
101.5973736253
 10
139.6120436703
 20
101.8384027075
 10
140.0595853386
 20
102.1197328826
 10
140.484025007
 20
102.4404690007
 10
140.8757935119
 20
102.7933799375
  0
LWPOLYLINE
  5
2BF
100
AcDbEntity
  8
ASSI
100
AcDbPolyline
 62
7
  6
CONTINUOUS
 90
8
 70
0
 10
137.5610752774
 20
101.7766702501
 10
137.9750531603
 20
101.8653442871
 10
138.3774024033
 20
101.9822806864
 10
138.7681230066
 20
102.1274794481
 10
139.1493323743
 20
102.3020451843
 10
139.5189131022
 20
102.5048732828
 10
139.8705129777
 20
102.7326499072
 10
140.2020145967
 20
102.9842704451
  0
LWPOLYLINE
  5
2C0
100
AcDbEntity
  8
RACCORDO
100
AcDbPolyline
 62
253
  6
CONTINUOUS
 90
10
 70
0
 10
124.8681903872
 20
100.2105062158
 10
124.9324684448
 20
100.2207346342
 10
125.0016478359
 20
100.2299537904
 10
125.0752054046
 20
100.238092918
 10
125.152590079
 20
100.2450898785
 10
125.2332096383
 20
100.2508900187
 10
125.3164329439
 20
100.2554475147
 10
125.4016196766
 20
100.2587275222
 10
125.4881273584
 20
100.260705519
 10
125.5752973314
 20
100.2613665075
  0
LWPOLYLINE
  5
2C1
100
AcDbEntity
  8
ASSI
100
AcDbPolyline
 62
7
  6
CONTINUOUS
 90
7
 70
0
 10
137.5610751631
 20
101.3351773845
 10
137.3974215556
 20
101.3099767887
 10
137.2325631622
 20
101.2893168097
 10
137.0664999828
 20
101.2731974472
 10
136.8992320176
 20
101.2616187014
 10
136.7307592664
 20
101.2545805722
 10
136.5610817293
 20
101.2520830597
  0
LWPOLYLINE
  5
2C2
100
AcDbEntity
  8
ASSI
100
AcDbPolyline
 62
7
  6
CONTINUOUS
 90
3
 70
0
 10
136.5610817293
 20
101.0333197699
 10
137.0994715696
 20
101.0576212178
 10
137.6259029366
 20
101.1258742823
  0
LWPOLYLINE
  5
2C3
100
AcDbEntity
  8
0
100
AcDbPolyline
 62
7
  6
CONTINUOUS
 90
20
 70
0
 10
222.5610817293
 20
108.2464677438
 10
223.149407729
 20
108.2707793441
 10
223.7222639279
 20
108.3382482182
 10
224.279650326
 20
108.448874366
 10
224.8263057666
 20
108.6044305612
 10
225.3574914063
 20
108.8031440303
 10
225.8589907158
 20
109.0396964517
 10
226.330002025
 20
109.3151096546
 10
226.7713270039
 20
109.6283618099
 10
227.1711541329
 20
109.9710691094
 10
227.5283627757
 20
110.3440269801
 10
227.8440735686
 20
110.7464399951
 10
228.109836901
 20
111.1675380655
 10
228.3243039575
 20
111.6078257753
 10
228.4888235536
 20
112.0667985407
 10
228.5989925248
 20
112.5321725206
 10
228.6533431497
 20
113.004120578
 10
228.6533431497
 20
113.4824698499
 10
228.5989925248
 20
113.9544179072
 10
228.5610817293
 20
114.1145600741
  0
LWPOLYLINE
  5
2C4
100
AcDbEntity
  8
RACCORDO
100
AcDbPolyline
 62
253
  6
CONTINUOUS
 90
16
 70
0
 10
229.586114121
 20
106.3212916335
 10
229.7725224633
 20
106.3283656866
 10
229.9573064486
 20
106.3384044208
 10
230.1388558742
 20
106.3513203588
 10
230.3155887236
 20
106.3670009519
 10
230.4859649516
 20
106.3853095599
 10
230.6484999046
 20
106.4060866418
 10
230.8017772576
 20
106.4291511468
 10
230.9444613558
 20
106.4543020915
 10
231.0753088542
 20
106.4813203112
 10
231.1931795512
 20
106.5099703699
 10
231.2970463249
 20
106.5400026117
 10
231.3860040831
 20
106.5711553367
 10
231.4592776504
 20
106.603157081
 10
231.516228523
 20
106.6357289818
 10
231.5563604326
 20
106.6685872086
  0
LWPOLYLINE
  5
2C5
100
AcDbEntity
  8
RACCORDO
100
AcDbPolyline
 62
253
  6
CONTINUOUS
 90
10
 70
0
 10
115.8326645381
 20
106.3212916335
 10
116.0070044576
 20
106.3226135501
 10
116.1800197938
 20
106.3265694781
 10
116.3503932312
 20
106.333129422
 10
116.5168398144
 20
106.3422443385
 10
116.6780789059
 20
106.3538445394
 10
116.8328482288
 20
106.3678383777
 10
116.9799633419
 20
106.3841165477
 10
117.1183221022
 20
106.4025547727
 10
117.2468781982
 20
106.423011521
  0
LINE
  5
2C6
100
AcDbEntity
  8
ASSI
100
AcDbLine
 62
7
  6
CONTINUOUS
 10
140.8110751631
 20
106.1445578937
 11
140.1110751631
 21
106.1445579076
  0
LINE
  5
2C7
100
AcDbEntity
  8
ASSI
100
AcDbLine
 62
7
  6
CONTINUOUS
 10
133.0110751631
 20
106.1445580484
 11
132.3110751631
 21
106.1445580623
  0
LINE
  5
2C8
100
AcDbEntity
  8
RACCORDO
100
AcDbLine
 62
253
  6
CONTINUOUS
 10
43.5360493492
 20
106.3212916335
 11
115.8326645381
 21
106.3212916335
  0
LINE
  5
2C9
100
AcDbEntity
  8
RACCORDO
100
AcDbLine
 62
253
  6
CONTINUOUS
 10
157.2895051713
 20
106.3212916335
 11
229.5861141088
 21
106.3212916335
  0
LINE
  5
2CA
100
AcDbEntity
  8
RACCORDO
100
AcDbLine
 62
253
  6
CONTINUOUS
 10
43.5354314102
 20
107.8157399582
 11
115.8326645381
 21
107.8157399582
  0
LINE
  5
2CB
100
AcDbEntity
  8
RACCORDO
100
AcDbLine
 62
253
  6
CONTINUOUS
 10
157.2895051713
 20
107.8157399582
 11
229.586719127
 21
107.8157399582
  0
LWPOLYLINE
  5
2CC
100
AcDbEntity
  8
RACCORDO
100
AcDbPolyline
 62
253
  6
CONTINUOUS
 90
10
 70
0
 10
157.2895051713
 20
106.3212916335
 10
157.1151937419
 20
106.3226131505
 10
156.9422089269
 20
106.3265677372
 10
156.7718672443
 20
106.333125297
 10
156.6054650964
 20
106.3422359228
 10
156.4442689031
 20
106.3538302773
 10
156.289505464
 20
106.3678201206
 10
156.1423526216
 20
106.3840989816
 10
156.0039302971
 20
106.4025429683
 10
155.8752919674
 20
106.4230117111
  0
LWPOLYLINE
  5
2CD
100
AcDbEntity
  8
ASSI
100
AcDbPolyline
 62
7
  6
CONTINUOUS
 90
7
 70
0
 10
136.5610817293
 20
101.2520830597
 10
136.3914019208
 20
101.2545806572
 10
136.2229269313
 20
101.2616189906
 10
136.0556567608
 20
101.2731980599
 10
135.8895914092
 20
101.2893178652
 10
135.7247308767
 20
101.3099784063
 10
135.5610751631
 20
101.3351796835
  0
LWPOLYLINE
  5
2CE
100
AcDbEntity
  8
0
100
AcDbPolyline
 62
7
  6
CONTINUOUS
 90
37
 70
0
 10
50.5610817293
 20
109.3651218077
 10
50.2993654064
 20
109.3697997151
 10
50.038147275
 20
109.3838245326
 10
49.7779245787
 20
109.4071695632
 10
49.5191926662
 20
109.4397903684
 10
49.2624440483
 20
109.4816248526
 10
49.0081674611
 20
109.5325933815
 10
48.7568469346
 20
109.5925989336
 10
48.5089608716
 20
109.6615272849
 10
48.2649811372
 20
109.7392472264
 10
48.0253721608
 20
109.8256108137
 10
47.7905900518
 20
109.9204536489
 10
47.561081731
 20
110.0235951932
 10
47.3372840808
 20
110.1348391108
 10
47.1196231127
 20
110.2539736426
 10
46.9085131566
 20
110.3807720093
 10
46.7043560725
 20
110.514992843
 10
46.5075404848
 20
110.6563806467
 10
46.3184410433
 20
110.8046662806
 10
46.1374177094
 20
110.9595674746
 10
45.9648150715
 20
111.1207893655
 10
45.8009616883
 20
111.2880250583
 10
45.6461694642
 20
111.4609562103
 10
45.500733055
 20
111.6392536373
 10
45.3649293071
 20
111.8225779399
 10
45.2390167307
 20
112.0105801499
 10
45.1232350074
 20
112.2029023945
 10
45.0178045345
 20
112.3991785773
 10
44.9229260048
 20
112.5990350754
 10
44.838780025
 20
112.8020914507
 10
44.7655267717
 20
113.0079611737
 10
44.7033056867
 20
113.2162523598
 10
44.6522352113
 20
113.4265685149
 10
44.6124125611
 20
113.6385092901
 10
44.5839135408
 20
113.8516712443
 10
44.5667923998
 20
114.0656486114
 10
44.5610817293
 20
114.2800340735
  0
LWPOLYLINE
  5
2CF
100
AcDbEntity
  8
0
100
AcDbPolyline
 62
7
  6
CONTINUOUS
 90
34
 70
0
 10
50.5610817293
 20
108.3283829482
 10
50.2745206396
 20
108.3340546282
 10
49.9898909631
 20
108.3507302016
 10
49.7071926997
 20
108.3784096684
 10
49.425795151
 20
108.4172054162
 10
49.1463290155
 20
108.4670050575
 10
48.8706863883
 20
108.527471429
 10
48.5988932145
 20
108.5986769122
 10
48.330923549
 20
108.6805491258
 10
48.0685916513
 20
108.7725337627
 10
47.8119357776
 20
108.8746994429
 10
47.5609176718
 20
108.9869775465
 10
47.3172368246
 20
109.1086079068
 10
47.0809430245
 20
109.2396539855
 10
46.851986483
 20
109.3800523208
 10
46.6319173256
 20
109.5288523611
 10
46.4207958595
 20
109.6861111179
 10
46.2185617774
 20
109.8517715797
 10
46.0265842832
 20
110.0247121603
 10
45.8449329752
 20
110.2049822605
 10
45.6735382551
 20
110.3925324795
 10
45.5135605323
 20
110.5860930289
 10
45.3650772792
 20
110.785704693
 10
45.2280110235
 20
110.9913266876
 10
45.1032897572
 20
111.2015668712
 10
44.9909972499
 20
111.4164565814
 10
44.8910497321
 20
111.6359644807
 10
44.8041238876
 20
111.8586044147
 10
44.7303080777
 20
112.0843976363
 10
44.6695139412
 20
112.3133228925
 10
44.622153078
 20
112.5438302697
 10
44.5883166426
 20
112.7759305038
 10
44.5679134805
 20
113.0096128589
 10
44.5610817293
 20
113.2432952139
  0
LWPOLYLINE
  5
2D0
100
AcDbEntity
  8
RACCORDO
100
AcDbPolyline
 62
253
  6
CONTINUOUS
 90
16
 70
0
 10
43.5360493377
 20
106.3212916335
 10
43.3500770649
 20
106.3258910802
 10
43.1649783332
 20
106.3363808754
 10
42.982795909
 20
106.3512362721
 10
42.8057601256
 20
106.3675817524
 10
42.6353867643
 20
106.3851406226
 10
42.4726044521
 20
106.40639445
 10
42.3191106575
 20
106.4296692887
 10
42.1764699381
 20
106.453659092
 10
42.0454945968
 20
106.4813095196
 10
41.9275951173
 20
106.5103910622
 10
41.8239616918
 20
106.5394512754
 10
41.7351698674
 20
106.5718955787
 10
41.6620734505
 20
106.6069078506
 10
41.6055061313
 20
106.6400112278
 10
41.565803026
 20
106.6685872086
  0
LWPOLYLINE
  5
2D1
100
AcDbEntity
  8
0
100
AcDbPolyline
 62
7
  6
CONTINUOUS
 90
20
 70
0
 10
50.5610817293
 20
108.2464677438
 10
49.9727557296
 20
108.2707793441
 10
49.3998995307
 20
108.3382482182
 10
48.8425131326
 20
108.448874366
 10
48.295857692
 20
108.6044305612
 10
47.7646720523
 20
108.8031440303
 10
47.2631727428
 20
109.0396964517
 10
46.7921614336
 20
109.3151096546
 10
46.3508364548
 20
109.6283618099
 10
45.9510093258
 20
109.9710691094
 10
45.593800683
 20
110.3440269801
 10
45.2780898901
 20
110.7464399951
 10
45.0123265577
 20
111.1675380655
 10
44.7978595011
 20
111.6078257753
 10
44.633339905
 20
112.0667985407
 10
44.5231709338
 20
112.5321725206
 10
44.468820309
 20
113.004120578
 10
44.468820309
 20
113.4824698499
 10
44.5231709338
 20
113.9544179072
 10
44.5610817293
 20
114.1145600741
  0
LWPOLYLINE
  5
2D2
100
AcDbEntity
  8
ASSI
100
AcDbPolyline
 62
7
  6
CONTINUOUS
 90
3
 70
0
 10
135.4962605339
 20
101.1258743886
 10
136.0226918925
 20
101.0576212725
 10
136.5610817293
 20
101.0333197699
  0
LINE
  5
2D3
100
AcDbEntity
  8
ASSI
100
AcDbLine
 62
7
  6
CONTINUOUS
 10
135.1470968221
 20
101.8653478413
 11
135.5610752774
 21
101.7766726156
  0
LWPOLYLINE
  5
2D4
100
AcDbEntity
  8
ASSI
100
AcDbPolyline
 62
7
  6
CONTINUOUS
 90
10
 70
0
 10
135.5610751631
 20
102.3048114111
 10
135.2411265362
 20
102.3802351716
 10
134.9294154565
 20
102.4749861897
 10
134.6259419241
 20
102.5890644653
 10
134.3294842376
 20
102.7231201549
 10
134.0412640984
 20
102.876503102
 10
133.7649466109
 20
103.0472628375
 10
133.5017534766
 20
103.2347492049
 10
133.250462994
 20
103.4396123606
 10
133.0110751631
 20
103.6618523047
  0
LINE
  5
2D5
100
AcDbEntity
  8
0
100
AcDbLine
 62
253
  6
CONTINUOUS
 10
63.5610817293
 20
131.1336959078
 11
62.9898225266
 21
131.3631264577
  0
LINE
  5
2D6
100
AcDbEntity
  8
0
100
AcDbLine
 62
253
  6
CONTINUOUS
 10
63.5610817293
 20
133.5911521699
 11
62.9898225266
 21
133.8205827198
  0
LWPOLYLINE
  5
2D7
100
AcDbEntity
  8
RACCORDO
100
AcDbPolyline
 62
253
  6
CONTINUOUS
 90
7
 70
0
 10
36.2122231603
 20
152.0161605107
 10
36.3411366045
 20
151.9588813818
 10
36.4990810031
 20
151.9016338963
 10
36.6860442012
 20
151.8444180542
 10
36.9020117957
 20
151.7872338555
 10
37.1469671356
 20
151.7300813001
 10
37.4208913236
 20
151.6729603881
  0
LWPOLYLINE
  5
2D8
100
AcDbEntity
  8
RACCORDO
100
AcDbPolyline
 62
253
  6
CONTINUOUS
 90
7
 70
0
 10
38.1758441043
 20
154.0343215545
 10
38.3020799486
 20
153.9739360726
 10
38.4603143071
 20
153.9135932214
 10
38.6505471799
 20
153.8532930008
 10
38.8727785669
 20
153.7930354108
 10
39.1270084681
 20
153.7328204516
 10
39.4132368836
 20
153.6726481229
  0
LWPOLYLINE
  5
2D9
100
AcDbEntity
  8
RACCORDO
100
AcDbPolyline
 62
253
  6
CONTINUOUS
 90
7
 70
0
 10
155.5505827194
 20
90.3106585376
 10
155.5701328077
 20
90.2946727773
 10
155.5899558236
 20
90.2787512558
 10
155.610051767
 20
90.2628939732
 10
155.6304206379
 20
90.2471009294
 10
155.6510624363
 20
90.2313721245
 10
155.6719771623
 20
90.2157075584
  0
LINE
  5
2DA
100
AcDbEntity
  8
0
100
AcDbLine
 62
253
  6
CONTINUOUS
 10
94.0610817293
 20
131.7480599733
 11
93.5009156987
 21
132.2069210731
  0
LWPOLYLINE
  5
2DB
100
AcDbEntity
  8
ASSI
100
AcDbPolyline
 62
7
  6
CONTINUOUS
 90
8
 70
0
 10
132.6066146139
 20
103.2608527874
 10
132.9201349479
 20
102.9842822496
 10
133.2516362793
 20
102.7326602569
 10
133.6032360133
 20
102.5048821848
 10
133.9728167447
 20
102.3020526579
 10
134.3540262583
 20
102.1274855502
 10
134.7447471491
 20
101.9822854862
 10
135.1470968221
 20
101.8653478413
  0
LWPOLYLINE
  5
2DC
100
AcDbEntity
  8
ASSI
100
AcDbPolyline
 62
7
  6
CONTINUOUS
 90
8
 70
0
 10
132.2463701335
 20
102.7933802926
 10
132.6381386064
 20
102.4404693373
 10
133.0625782427
 20
102.119733194
 10
133.5101198817
 20
101.8384029878
 10
133.9812883112
 20
101.5973738686
 10
134.4755587433
 20
101.3957506867
 10
134.9817876536
 20
101.2380791182
 10
135.4962605339
 20
101.1258743886
  0
LINE
  5
2DD
100
AcDbEntity
  8
ASSI
100
AcDbLine
 62
7
  6
CONTINUOUS
 10
132.3110752774
 20
103.5623718705
 11
132.6066146139
 21
103.2608527874
  0
LWPOLYLINE
  5
2DE
100
AcDbEntity
  8
RACCORDO
100
AcDbPolyline
 62
253
  6
CONTINUOUS
 90
25
 70
0
 10
124.3326583633
 20
117.6626101511
 10
124.3798527165
 20
117.6123677278
 10
124.426900266
 20
117.5611342183
 10
124.4738010117
 20
117.5089578723
 10
124.5205859251
 20
117.4559015911
 10
124.5672240347
 20
117.402001697
 10
124.6136224259
 20
117.3472657106
 10
124.6597940721
 20
117.2917265481
 10
124.705726
 20
117.2354503474
 10
124.7512863752
 20
117.178493954
 10
124.7964782844
 20
117.1209040649
 10
124.841298641
 20
117.062738319
 10
124.8856063505
 20
117.0040717657
 10
124.9293856465
 20
116.9449782572
 10
124.9726522955
 20
116.8854929925
 10
125.0153125026
 20
116.825633536
 10
125.0573666724
 20
116.7654546559
 10
125.0988144004
 20
116.7050114277
 10
125.139560677
 20
116.6443214794
 10
125.1796124316
 20
116.583428941
 10
125.218962735
 20
116.5224016181
 10
125.2574957899
 20
116.4612930269
 10
125.2951729972
 20
116.4001592392
 10
125.3320329562
 20
116.339058836
 10
125.3680756667
 20
116.2780496497
  0
LWPOLYLINE
  5
2DF
100
AcDbEntity
  8
ASSI
100
AcDbPolyline
 62
7
  6
CONTINUOUS
 90
3
 70
0
 10
132.3110751631
 20
103.0032845337
 10
131.961695603
 20
103.3855129557
 10
131.6508513373
 20
103.7894126051
  0
LINE
  5
2E0
100
AcDbEntity
  8
ASSI
100
AcDbLine
 62
7
  6
CONTINUOUS
 10
131.6508513373
 20
103.7894126051
 11
131.378542366
 21
104.214983482
  0
LINE
  5
2E1
100
AcDbEntity
  8
RACCORDO
100
AcDbLine
 62
253
  6
CONTINUOUS
 10
125.3680756667
 20
116.2780496497
 11
125.3886835641
 21
116.2424528896
  0
LINE
  5
2E2
100
AcDbEntity
  8
RACCORDO
100
AcDbLine
 62
253
  6
CONTINUOUS
 10
125.3886835641
 20
116.2424528896
 11
125.4095698502
 21
116.205816063
  0
LINE
  5
2E3
100
AcDbEntity
  8
RACCORDO
100
AcDbLine
 62
253
  6
CONTINUOUS
 10
125.4095698502
 20
116.205816063
 11
125.4307345251
 21
116.1681609852
  0
LWPOLYLINE
  5
2E4
100
AcDbEntity
  8
ASSI
100
AcDbPolyline
 62
7
  6
CONTINUOUS
 90
5
 70
0
 10
131.0319135084
 20
104.5019412392
 10
131.2766608565
 20
104.0379309048
 10
131.562331002
 20
103.5971884121
 10
131.888014986
 20
103.1791969464
 10
132.2463701335
 20
102.7933802926
  0
LWPOLYLINE
  5
2E5
100
AcDbEntity
  8
ASSI
100
AcDbPolyline
 62
7
  6
CONTINUOUS
 90
15
 70
0
 10
131.378542366
 20
104.214983482
 10
131.1433167262
 20
104.6657122035
 10
130.9466263807
 20
105.1381121524
 10
130.7928272185
 20
105.6217234774
 10
130.6828760783
 20
106.1167966868
 10
130.6158161213
 20
106.6230812723
 10
130.5931327196
 20
107.1293658568
 10
130.6158161213
 20
107.6356504405
 10
130.6828760783
 20
108.1419350233
 10
130.7928272185
 20
108.6370082284
 10
130.9466263807
 20
109.1206195472
 10
131.1433167262
 20
109.5930194883
 10
131.378542366
 20
110.0437482005
 10
131.6508513373
 20
110.4693190666
 10
131.961695603
 20
110.8732187037
  0
LWPOLYLINE
  5
2E6
100
AcDbEntity
  8
RACCORDO
100
AcDbPolyline
 62
253
  6
CONTINUOUS
 90
8
 70
0
 10
124.3326583633
 20
117.6626101511
 10
124.3549636684
 20
117.6018141672
 10
124.3772897393
 20
117.5400981507
 10
124.3995911052
 20
117.4774910708
 10
124.4217918571
 20
117.4140105092
 10
124.4438776651
 20
117.3496998443
 10
124.4658952906
 20
117.2846258215
 10
124.4878063213
 20
117.218799566
  0
LWPOLYLINE
  5
2E7
100
AcDbEntity
  8
RACCORDO
100
AcDbPolyline
 62
253
  6
CONTINUOUS
 90
10
 70
0
 10
125.4307345251
 20
116.1681609852
 10
125.4495845651
 20
116.1156166509
 10
125.4672820144
 20
116.0612657351
 10
125.483826873
 20
116.0051082379
 10
125.4992845942
 20
115.9472099878
 10
125.5135897246
 20
115.8875051563
 10
125.5265459053
 20
115.8257962571
 10
125.5380876831
 20
115.7620174616
 10
125.548280511
 20
115.6962345984
 10
125.5571243891
 20
115.6284476675
  0
LWPOLYLINE
  5
2E8
100
AcDbEntity
  8
RACCORDO
100
AcDbPolyline
 62
253
  6
CONTINUOUS
 90
3
 70
0
 10
124.4878063213
 20
117.218799566
 10
124.531179197
 20
117.0851631604
 10
124.5526253327
 20
117.0175044937
  0
LWPOLYLINE
  5
2E9
100
AcDbEntity
  8
RACCORDO
100
AcDbPolyline
 62
253
  6
CONTINUOUS
 90
3
 70
0
 10
124.5526253327
 20
117.0175044937
 10
124.5948751807
 20
116.8807947072
 10
124.6156504049
 20
116.8119469019
  0
LWPOLYLINE
  5
2EA
100
AcDbEntity
  8
RACCORDO
100
AcDbPolyline
 62
253
  6
CONTINUOUS
 90
3
 70
0
 10
124.6156504049
 20
116.8119469019
 10
124.656384704
 20
116.6734394126
 10
124.6763409705
 20
116.6038905054
  0
LWPOLYLINE
  5
2EB
100
AcDbEntity
  8
RACCORDO
100
AcDbPolyline
 62
253
  6
CONTINUOUS
 90
3
 70
0
 10
124.6763409705
 20
116.6038905054
 10
124.7153040615
 20
116.4644264208
 10
124.7343125097
 20
116.3946109869
  0
LWPOLYLINE
  5
2EC
100
AcDbEntity
  8
RACCORDO
100
AcDbPolyline
 62
253
  6
CONTINUOUS
 90
4
 70
0
 10
124.7343125097
 20
116.3946109869
 10
124.7712331253
 20
116.255105809
 10
124.7891544051
 20
116.1855950286
 10
124.8066467779
 20
116.1162823139
  0
LINE
  5
2ED
100
AcDbEntity
  8
RACCORDO
100
AcDbLine
 62
253
  6
CONTINUOUS
 10
124.8066467779
 20
116.1162823139
 11
124.8334357228
 21
116.0070143465
  0
LWPOLYLINE
  5
2EE
100
AcDbEntity
  8
RACCORDO
100
AcDbPolyline
 62
253
  6
CONTINUOUS
 90
3
 70
0
 10
124.8334357228
 20
116.0070143465
 10
124.8483584242
 20
115.9446746724
 10
124.8533841821
 20
115.9233504255
  0
LWPOLYLINE
  5
2EF
100
AcDbEntity
  8
RACCORDO
100
AcDbPolyline
 62
253
  6
CONTINUOUS
 90
10
 70
0
 10
124.8533841821
 20
115.9233504255
 10
124.8620745926
 20
115.8838923862
 10
124.8697148613
 20
115.8428301812
 10
124.8762807115
 20
115.8001708072
 10
124.8817774719
 20
115.755992571
 10
124.886149581
 20
115.7102336009
 10
124.8892775585
 20
115.6626918255
 10
124.8910999054
 20
115.6133071768
 10
124.8916161326
 20
115.5621616811
 10
124.8907941502
 20
115.509267944
  0
LINE
  5
2F0
100
AcDbEntity
  8
ASSI
100
AcDbLine
 62
7
  6
CONTINUOUS
 10
132.3110751631
 20
111.2554471118
 11
132.3110751631
 21
108.1141735832
  0
LINE
  5
2F1
100
AcDbEntity
  8
ASSI
100
AcDbLine
 62
7
  6
CONTINUOUS
 10
132.3110751631
 20
106.1445580623
 11
132.3110751631
 21
103.0032845337
  0
LINE
  5
2F2
100
AcDbEntity
  8
ASSI
100
AcDbLine
 62
7
  6
CONTINUOUS
 10
133.0110751631
 20
103.6618523047
 11
133.0110751631
 21
106.1445580484
  0
LINE
  5
2F3
100
AcDbEntity
  8
ASSI
100
AcDbLine
 62
7
  6
CONTINUOUS
 10
133.0110752774
 20
110.7705274485
 11
133.0110751631
 21
108.1141735693
  0
LINE
  5
2F4
100
AcDbEntity
  8
ASSI
100
AcDbLine
 62
7
  6
CONTINUOUS
 10
135.5610751631
 20
101.3351796835
 11
135.5610751631
 21
102.3048114111
  0
LINE
  5
2F5
100
AcDbEntity
  8
ASSI
100
AcDbLine
 62
7
  6
CONTINUOUS
 10
135.5610751631
 20
111.9539201054
 11
135.5610751631
 21
112.9235518331
  0
LWPOLYLINE
  5
2F6
100
AcDbEntity
  8
RACCORDO
100
AcDbPolyline
 62
253
  6
CONTINUOUS
 90
12
 70
0
 10
116.5785268958
 20
90.5456878903
 10
116.6044168206
 20
90.5796133469
 10
116.6306737804
 20
90.6132301786
 10
116.6572829283
 20
90.6465418526
 10
116.6842135606
 20
90.6795201908
 10
116.7114644736
 20
90.7122002631
 10
116.7390628527
 20
90.7446807756
 10
116.7669991339
 20
90.777006792
 10
116.7952431902
 20
90.8091410042
 10
116.8237884923
 20
90.841059039
 10
116.8526171318
 20
90.8727554603
 10
116.8817002249
 20
90.9042436224
  0
LWPOLYLINE
  5
2F7
100
AcDbEntity
  8
RACCORDO
100
AcDbPolyline
 62
253
  6
CONTINUOUS
 90
10
 70
0
 10
117.0540762326
 20
91.101727063
 10
117.0773174076
 20
91.1318025791
 10
117.1000925664
 20
91.1621409111
 10
117.1224037771
 20
91.192739881
 10
117.1442455462
 20
91.2236029272
 10
117.1656284238
 20
91.2547223253
 10
117.1865780199
 20
91.2860793801
 10
117.2071039517
 20
91.3176667024
 10
117.2272008108
 20
91.3494880177
 10
117.2468710881
 20
91.3815415205
  0
LWPOLYLINE
  5
2F8
100
AcDbEntity
  8
RACCORDO
100
AcDbPolyline
 62
253
  6
CONTINUOUS
 90
9
 70
0
 10
116.9919437062
 20
91.0257358376
 10
116.9988752609
 20
91.0339121511
 10
117.0058004581
 20
91.0421551192
 10
117.0127190348
 20
91.050464759
 10
117.0196307378
 20
91.0588409607
 10
117.0265352896
 20
91.0672838679
 10
117.0334323879
 20
91.0757938776
 10
117.0403217526
 20
91.0843711329
 10
117.0540762326
 20
91.101727063
  0
LINE
  5
2F9
100
AcDbEntity
  8
RACCORDO
100
AcDbLine
 62
253
  6
CONTINUOUS
 10
117.2468710881
 20
91.3815415205
 11
124.8681903872
 21
100.2105062158
  0
LINE
  5
2FA
100
AcDbEntity
  8
ASSI
100
AcDbLine
 62
7
  6
CONTINUOUS
 10
131.961695603
 20
110.8732187037
 11
132.3110751631
 21
111.2554471118
  0
LWPOLYLINE
  5
2FB
100
AcDbEntity
  8
ASSI
100
AcDbPolyline
 62
7
  6
CONTINUOUS
 90
15
 70
0
 10
132.2463701335
 20
111.29170322
 10
131.888014986
 20
110.9058865805
 10
131.562331002
 20
110.4878951276
 10
131.2766608565
 20
110.0471526463
 10
131.0319135084
 20
109.5831423216
 10
130.8271799988
 20
109.0963809683
 10
130.6670761261
 20
108.5978428158
 10
130.5526157021
 20
108.087260341
 10
130.4827849149
 20
107.5649010668
 10
130.4591581275
 20
107.0425417918
 10
130.4827849149
 20
106.5201825158
 10
130.5526157021
 20
105.9978232389
 10
130.6670761261
 20
105.4872407595
 10
130.8271799988
 20
104.9887026006
 10
131.0319135084
 20
104.5019412392
  0
LINE
  5
2FC
100
AcDbEntity
  8
ASSI
100
AcDbLine
 62
7
  6
CONTINUOUS
 10
132.6066146139
 20
111.3451751173
 11
132.3110752774
 21
111.0436560459
  0
LWPOLYLINE
  5
2FD
100
AcDbEntity
  8
ASSI
100
AcDbPolyline
 62
7
  6
CONTINUOUS
 90
9
 70
0
 10
133.0110752774
 20
110.7705274485
 10
133.2504631083
 20
110.992767383
 10
133.5017535909
 20
111.1976305288
 10
133.7649467252
 20
111.3851168857
 10
134.0412642127
 20
111.5558766103
 10
134.3294843519
 20
111.709259546
 10
134.6259420384
 20
111.8433152238
 10
134.9294155707
 20
111.9573934874
 10
135.2411266504
 20
112.0521444931
  0
LWPOLYLINE
  5
2FE
100
AcDbEntity
  8
ASSI
100
AcDbPolyline
 62
7
  6
CONTINUOUS
 90
10
 70
0
 10
133.0110751631
 20
110.5968793131
 10
133.250462994
 20
110.8191192476
 10
133.5017534766
 20
111.0239823934
 10
133.7649466109
 20
111.2114687503
 10
134.0412640984
 20
111.3822284748
 10
134.3294842376
 20
111.5356114105
 10
134.6259419241
 20
111.6696670884
 10
134.9294154565
 20
111.7837453519
 10
135.2411265362
 20
111.8784963576
 10
135.5610751631
 20
111.9539201054
  0
LINE
  5
2FF
100
AcDbEntity
  8
0
100
AcDbLine
 62
253
  6
CONTINUOUS
 10
165.132340932
 20
131.9774905232
 11
164.5610817293
 21
131.7480599733
  0
LINE
  5
300
100
AcDbEntity
  8
0
100
AcDbLine
 62
253
  6
CONTINUOUS
 10
165.132340932
 20
129.5200342611
 11
164.5610817293
 21
129.2906037112
  0
LINE
  5
301
100
AcDbEntity
  8
ASSI
100
AcDbLine
 62
7
  6
CONTINUOUS
 10
135.2411266504
 20
112.0521444931
 11
135.5610752774
 21
112.1275682409
  0
LWPOLYLINE
  5
302
100
AcDbEntity
  8
ASSI
100
AcDbPolyline
 62
7
  6
CONTINUOUS
 90
8
 70
0
 10
135.4962605339
 20
112.9592089951
 10
134.9817876536
 20
112.8470042859
 10
134.4755587433
 20
112.6893327375
 10
133.9812883112
 20
112.4877095752
 10
133.5101198817
 20
112.2466804746
 10
133.0625782427
 20
111.9653502863
 10
132.6381386064
 20
111.6446141598
 10
132.2463701335
 20
111.29170322
  0
LWPOLYLINE
  5
303
100
AcDbEntity
  8
ASSI
100
AcDbPolyline
 62
7
  6
CONTINUOUS
 90
9
 70
0
 10
135.5610752774
 20
112.8293551719
 10
135.1470968221
 20
112.7406799626
 10
134.7447471491
 20
112.6237423337
 10
134.3540262583
 20
112.4785422852
 10
133.9728167447
 20
112.3039751925
 10
133.6032360133
 20
112.1011456803
 10
133.2516362793
 20
111.8733676222
 10
132.9201349479
 20
111.6217456427
 10
132.6066146139
 20
111.3451751173
  0
LWPOLYLINE
  5
304
100
AcDbEntity
  8
ASSI
100
AcDbPolyline
 62
7
  6
CONTINUOUS
 90
7
 70
0
 10
135.5610751631
 20
112.9235518331
 10
135.7247308767
 20
112.9487531037
 10
135.8895914092
 20
112.9694136384
 10
136.0556567608
 20
112.985533437
 10
136.2229269313
 20
112.9971124997
 10
136.3914019208
 20
113.0041508264
 10
136.5610817293
 20
113.0066484172
  0
LWPOLYLINE
  5
305
100
AcDbEntity
  8
ASSI
100
AcDbPolyline
 62
7
  6
CONTINUOUS
 90
3
 70
0
 10
136.5610817293
 20
113.0517635715
 10
136.0226918925
 20
113.0274620903
 10
135.4962605339
 20
112.9592089951
  0
LWPOLYLINE
  5
306
100
AcDbEntity
  8
0
100
AcDbPolyline
 62
7
  6
CONTINUOUS
 90
20
 70
0
 10
50.5610817293
 20
108.2464677438
 10
51.149407729
 20
108.2707793441
 10
51.7222639279
 20
108.3382482182
 10
52.279650326
 20
108.448874366
 10
52.8263057666
 20
108.6044305612
 10
53.3574914063
 20
108.8031440303
 10
53.8589907158
 20
109.0396964517
 10
54.330002025
 20
109.3151096546
 10
54.7713270039
 20
109.6283618099
 10
55.1711541329
 20
109.9710691094
 10
55.5283627757
 20
110.3440269801
 10
55.8440735686
 20
110.7464399951
 10
56.109836901
 20
111.1675380655
 10
56.3243039575
 20
111.6078257753
 10
56.4888235536
 20
112.0667985407
 10
56.5989925248
 20
112.5321725206
 10
56.6533431497
 20
113.004120578
 10
56.6533431497
 20
113.4824698499
 10
56.5989925248
 20
113.9544179072
 10
56.5610817293
 20
114.1145600741
  0
LWPOLYLINE
  5
307
100
AcDbEntity
  8
0
100
AcDbPolyline
 62
7
  6
CONTINUOUS
 90
40
 70
0
 10
50.5610817293
 20
108.2464677437
 10
51.1425252963
 20
108.266477824
 10
51.712919126
 20
108.3232109431
 10
52.2722632187
 20
108.4166671009
 10
52.8240267631
 20
108.5479240473
 10
53.3647405703
 20
108.7159040325
 10
53.8839970737
 20
108.9173738069
 10
54.3813805999
 20
109.1529821388
 10
54.8573068223
 20
109.4220802599
 10
55.3026151937
 20
109.7194886164
 10
55.7167125817
 20
110.0457556375
 10
56.1001921189
 20
110.4003328939
 10
56.4456726555
 20
110.7763955439
 10
56.7524180705
 20
111.1743598052
 10
57.021164485
 20
111.59380946
 10
57.2467391123
 20
112.0266710132
 10
57.4283056236
 20
112.4732042821
 10
57.5667003477
 20
112.9331494494
 10
57.6592594849
 20
113.3976535689
 10
57.7050951026
 20
113.8668049573
 10
57.7050951334
 20
114.3405152979
 10
57.6592595749
 20
114.8096666939
 10
57.5667004945
 20
115.2741708292
 10
57.4283058248
 20
115.73411602
 10
57.2467393617
 20
116.1806493181
 10
57.0211647756
 20
116.613510907
 10
56.7524183961
 20
117.0329606032
 10
56.445673007
 20
117.4309249087
 10
56.1001924868
 20
117.8069876059
 10
55.7167129571
 20
118.1615649124
 10
55.302615567
 20
118.4878319826
 10
54.8573071832
 20
118.7852403872
 10
54.3813809391
 20
119.0543385554
 10
53.8839973831
 20
119.2899469299
 10
53.3647408416
 20
119.4914167422
 10
52.8240269883
 20
119.6593967608
 10
52.2722633934
 20
119.7906537337
 10
51.712919247
 20
119.8841099102
 10
51.142525359
 20
119.9408430411
 10
50.5610817293
 20
119.9608531262
  0
LINE
  5
308
100
AcDbEntity
  8
ASSI
100
AcDbLine
 62
7
  6
CONTINUOUS
 10
132.3110751631
 20
108.1141735832
 11
133.0110751631
 21
108.1141735693
  0
LINE
  5
309
100
AcDbEntity
  8
ASSI
100
AcDbLine
 62
7
  6
CONTINUOUS
 10
140.1110751631
 20
108.1141734285
 11
140.8110751631
 21
108.1141734146
  0
LINE
  5
30A
100
AcDbEntity
  8
ASSI
100
AcDbLine
 62
7
  6
CONTINUOUS
 10
132.3110752774
 20
108.2878217187
 11
133.0110752774
 21
108.2878217048
  0
LINE
  5
30B
100
AcDbEntity
  8
ASSI
100
AcDbLine
 62
7
  6
CONTINUOUS
 10
140.1110752774
 20
108.2878215639
 11
140.8110752774
 21
108.28782155
  0
LWPOLYLINE
  5
30C
100
AcDbEntity
  8
RACCORDO
100
AcDbPolyline
 62
253
  6
CONTINUOUS
 90
10
 70
0
 10
147.5468699584
 20
115.3028280086
 10
147.6340256443
 20
115.3021672172
 10
147.720518028
 20
115.3001898892
 10
147.8056888508
 20
115.296911073
 10
147.8888899133
 20
115.292355722
 10
147.9694880037
 20
115.286558505
 10
148.0468697172
 20
115.2795635426
 10
148.1204461312
 20
115.2714240706
 10
148.1896572869
 20
115.2622020354
 10
148.2539764461
 20
115.2519676219
  0
LWPOLYLINE
  5
30D
100
AcDbEntity
  8
ASSI
100
AcDbPolyline
 62
7
  6
CONTINUOUS
 90
7
 70
0
 10
136.5610817293
 20
113.0066484172
 10
136.7307592664
 20
113.0041508979
 10
136.8992320176
 20
112.9971127621
 10
137.0664999828
 20
112.9855340096
 10
137.2325631622
 20
112.9694146406
 10
137.3974215556
 20
112.948754655
 10
137.5610751631
 20
112.9235540527
  0
LWPOLYLINE
  5
30E
100
AcDbEntity
  8
0
100
AcDbPolyline
 62
7
  6
CONTINUOUS
 90
37
 70
0
 10
222.5610817293
 20
109.3651218077
 10
222.2993654064
 20
109.3697997151
 10
222.038147275
 20
109.3838245326
 10
221.7779245787
 20
109.4071695632
 10
221.5191926662
 20
109.4397903684
 10
221.2624440483
 20
109.4816248526
 10
221.0081674611
 20
109.5325933815
 10
220.7568469346
 20
109.5925989336
 10
220.5089608716
 20
109.6615272849
 10
220.2649811372
 20
109.7392472264
 10
220.0253721608
 20
109.8256108137
 10
219.7905900518
 20
109.9204536489
 10
219.561081731
 20
110.0235951932
 10
219.3372840808
 20
110.1348391108
 10
219.1196231127
 20
110.2539736426
 10
218.9085131566
 20
110.3807720093
 10
218.7043560725
 20
110.514992843
 10
218.5075404848
 20
110.6563806467
 10
218.3184410433
 20
110.8046662806
 10
218.1374177094
 20
110.9595674746
 10
217.9648150715
 20
111.1207893655
 10
217.8009616883
 20
111.2880250583
 10
217.6461694642
 20
111.4609562103
 10
217.500733055
 20
111.6392536373
 10
217.3649293071
 20
111.8225779399
 10
217.2390167307
 20
112.0105801499
 10
217.1232350074
 20
112.2029023945
 10
217.0178045345
 20
112.3991785773
 10
216.9229260048
 20
112.5990350754
 10
216.838780025
 20
112.8020914507
 10
216.7655267717
 20
113.0079611737
 10
216.7033056867
 20
113.2162523598
 10
216.6522352113
 20
113.4265685149
 10
216.6124125611
 20
113.6385092901
 10
216.5839135408
 20
113.8516712443
 10
216.5667923998
 20
114.0656486114
 10
216.5610817293
 20
114.2800340735
  0
LWPOLYLINE
  5
30F
100
AcDbEntity
  8
0
100
AcDbPolyline
 62
7
  6
CONTINUOUS
 90
34
 70
0
 10
222.5610817293
 20
108.3283829482
 10
222.2745206396
 20
108.3340546282
 10
221.9898909631
 20
108.3507302016
 10
221.7071926997
 20
108.3784096684
 10
221.425795151
 20
108.4172054162
 10
221.1463290155
 20
108.4670050575
 10
220.8706863883
 20
108.527471429
 10
220.5988932145
 20
108.5986769122
 10
220.330923549
 20
108.6805491258
 10
220.0685916513
 20
108.7725337627
 10
219.8119357776
 20
108.8746994429
 10
219.5609176718
 20
108.9869775465
 10
219.3172368246
 20
109.1086079068
 10
219.0809430245
 20
109.2396539855
 10
218.851986483
 20
109.3800523208
 10
218.6319173256
 20
109.5288523611
 10
218.4207958595
 20
109.6861111179
 10
218.2185617774
 20
109.8517715797
 10
218.0265842832
 20
110.0247121603
 10
217.8449329752
 20
110.2049822605
 10
217.6735382551
 20
110.3925324795
 10
217.5135605323
 20
110.5860930289
 10
217.3650772792
 20
110.785704693
 10
217.2280110235
 20
110.9913266876
 10
217.1032897572
 20
111.2015668712
 10
216.9909972499
 20
111.4164565814
 10
216.8910497321
 20
111.6359644807
 10
216.8041238876
 20
111.8586044147
 10
216.7303080777
 20
112.0843976363
 10
216.6695139412
 20
112.3133228925
 10
216.622153078
 20
112.5438302697
 10
216.5883166426
 20
112.7759305038
 10
216.5679134805
 20
113.0096128589
 10
216.5610817293
 20
113.2432952139
  0
LWPOLYLINE
  5
310
100
AcDbEntity
  8
0
100
AcDbPolyline
 62
7
  6
CONTINUOUS
 90
40
 70
0
 10
222.5610817293
 20
108.2464677437
 10
221.9796381624
 20
108.266477824
 10
221.4092443326
 20
108.3232109431
 10
220.8499002399
 20
108.4166671009
 10
220.2981366955
 20
108.5479240473
 10
219.7574228883
 20
108.7159040325
 10
219.2381663849
 20
108.9173738069
 10
218.7407828587
 20
109.1529821388
 10
218.2648566364
 20
109.4220802599
 10
217.8195482649
 20
109.7194886164
 10
217.4054508769
 20
110.0457556375
 10
217.0219713398
 20
110.4003328939
 10
216.6764908032
 20
110.7763955439
 10
216.3697453881
 20
111.1743598052
 10
216.1009989736
 20
111.59380946
 10
215.8754243463
 20
112.0266710132
 10
215.693857835
 20
112.4732042821
 10
215.5554631109
 20
112.9331494494
 10
215.4629039737
 20
113.3976535689
 10
215.417068356
 20
113.8668049573
 10
215.4170683253
 20
114.3405152979
 10
215.4629038838
 20
114.8096666939
 10
215.5554629642
 20
115.2741708292
 10
215.6938576338
 20
115.73411602
 10
215.8754240969
 20
116.1806493181
 10
216.100998683
 20
116.613510907
 10
216.3697450625
 20
117.0329606032
 10
216.6764904516
 20
117.4309249087
 10
217.0219709718
 20
117.8069876059
 10
217.4054505015
 20
118.1615649124
 10
217.8195478917
 20
118.4878319826
 10
218.2648562754
 20
118.7852403872
 10
218.7407825196
 20
119.0543385554
 10
219.2381660755
 20
119.2899469299
 10
219.757422617
 20
119.4914167422
 10
220.2981364703
 20
119.6593967608
 10
220.8499000652
 20
119.7906537337
 10
221.4092442116
 20
119.8841099102
 10
221.9796380997
 20
119.9408430411
 10
222.5610817293
 20
119.9608531262
  0
LWPOLYLINE
  5
311
100
AcDbEntity
  8
0
100
AcDbPolyline
 62
7
  6
CONTINUOUS
 90
20
 70
0
 10
222.5610817293
 20
108.2464677438
 10
221.9727557296
 20
108.2707793441
 10
221.3998995307
 20
108.3382482182
 10
220.8425131326
 20
108.448874366
 10
220.295857692
 20
108.6044305612
 10
219.7646720523
 20
108.8031440303
 10
219.2631727428
 20
109.0396964517
 10
218.7921614336
 20
109.3151096546
 10
218.3508364548
 20
109.6283618099
 10
217.9510093258
 20
109.9710691094
 10
217.593800683
 20
110.3440269801
 10
217.2780898901
 20
110.7464399951
 10
217.0123265577
 20
111.1675380655
 10
216.7978595011
 20
111.6078257753
 10
216.633339905
 20
112.0667985407
 10
216.5231709338
 20
112.5321725206
 10
216.468820309
 20
113.004120578
 10
216.468820309
 20
113.4824698499
 10
216.5231709338
 20
113.9544179072
 10
216.5610817293
 20
114.1145600741
  0
LWPOLYLINE
  5
312
100
AcDbEntity
  8
ASSI
100
AcDbPolyline
 62
7
  6
CONTINUOUS
 90
3
 70
0
 10
137.6259029366
 20
112.9592090169
 10
137.0994715696
 20
113.0274621023
 10
136.5610817293
 20
113.0517635715
  0
LWPOLYLINE
  5
313
100
AcDbEntity
  8
ASSI
100
AcDbPolyline
 62
7
  6
CONTINUOUS
 90
10
 70
0
 10
137.5610751631
 20
111.9539200657
 10
137.8810234738
 20
111.8784972573
 10
138.1927343142
 20
111.7837472201
 10
138.4962076844
 20
111.6696699543
 10
138.7926652832
 20
111.5356153093
 10
139.0808854118
 20
111.3822334357
 10
139.3572029737
 20
111.2114747848
 10
139.6203962702
 20
111.0239895071
 10
139.871687
 20
110.8191274522
 10
140.1110751631
 20
110.59688862
  0
LWPOLYLINE
  5
314
100
AcDbEntity
  8
ASSI
100
AcDbPolyline
 62
7
  6
CONTINUOUS
 90
10
 70
0
 10
137.5610752774
 20
112.1275682012
 10
137.881023588
 20
112.0521453927
 10
138.1927344284
 20
111.9573953556
 10
138.4962077986
 20
111.8433180897
 10
138.7926653975
 20
111.7092634448
 10
139.0808855261
 20
111.5558815711
 10
139.357203088
 20
111.3851229202
 10
139.6203963844
 20
111.1976376425
 10
139.8716871142
 20
110.9927755876
 10
140.1110752774
 20
110.7705367554
  0
LWPOLYLINE
  5
315
100
AcDbEntity
  8
RACCORDO
100
AcDbPolyline
 62
253
  6
CONTINUOUS
 90
15
 70
0
 10
157.1421335879
 20
90.0181250948
 10
157.1550744895
 20
90.0077679887
 10
157.1675599621
 20
89.9978839089
 10
157.1796026832
 20
89.9884524941
 10
157.1912604977
 20
89.9794366855
 10
157.202657506
 20
89.970776602
 10
157.2137883892
 20
89.9624862056
 10
157.2245318254
 20
89.9547048957
 10
157.2349161775
 20
89.9474923578
 10
157.2448833199
 20
89.9411163869
 10
157.2545853292
 20
89.9352526272
 10
157.2646772275
 20
89.9289864791
 10
157.2760689602
 20
89.9210373617
 10
157.2873193757
 20
89.9093520988
 10
157.2889419021
 20
89.8977971646
  0
LINE
  5
316
100
AcDbEntity
  8
RACCORDO
100
AcDbLine
 62
253
  6
CONTINUOUS
 10
157.1147435018
 20
90.0403451027
 11
157.1421335879
 21
90.0181250948
  0
LINE
  5
317
100
AcDbEntity
  8
RACCORDO
100
AcDbLine
 62
253
  6
CONTINUOUS
 10
157.0853413545
 20
90.064571274
 11
157.1147435018
 21
90.0403451027
  0
LINE
  5
318
100
AcDbEntity
  8
RACCORDO
100
AcDbLine
 62
253
  6
CONTINUOUS
 10
157.0536038582
 20
90.0910818001
 11
157.0853413545
 21
90.064571274
  0
LINE
  5
319
100
AcDbEntity
  8
RACCORDO
100
AcDbLine
 62
253
  6
CONTINUOUS
 10
157.0192552995
 20
90.1201356427
 11
157.0536038582
 21
90.0910818001
  0
LINE
  5
31A
100
AcDbEntity
  8
RACCORDO
100
AcDbLine
 62
253
  6
CONTINUOUS
 10
156.9821398831
 20
90.1518934868
 11
157.0192552995
 21
90.1201356427
  0
LINE
  5
31B
100
AcDbEntity
  8
RACCORDO
100
AcDbLine
 62
253
  6
CONTINUOUS
 10
156.941968714
 20
90.1866291995
 11
156.9821398831
 21
90.1518934868
  0
LINE
  5
31C
100
AcDbEntity
  8
RACCORDO
100
AcDbLine
 62
253
  6
CONTINUOUS
 10
156.8754692403
 20
90.2447988358
 11
156.941968714
 21
90.1866291995
  0
LINE
  5
31D
100
AcDbEntity
  8
RACCORDO
100
AcDbLine
 62
253
  6
CONTINUOUS
 10
156.8002550511
 20
90.3112287695
 11
156.8754692403
 21
90.2447988358
  0
LWPOLYLINE
  5
31E
100
AcDbEntity
  8
RACCORDO
100
AcDbPolyline
 62
253
  6
CONTINUOUS
 90
10
 70
0
 10
155.4573815631
 20
90.3906482905
 10
155.4676918193
 20
90.3814786875
 10
155.4780137449
 20
90.3723796597
 10
155.4883473398
 20
90.3633512071
 10
155.4986930206
 20
90.3543934791
 10
155.5090503708
 20
90.3455063263
 10
155.5194181407
 20
90.3366893006
 10
155.5297959139
 20
90.3279422525
 10
155.5401841068
 20
90.3192653315
 10
155.5505827194
 20
90.3106585376
  0
LINE
  5
31F
100
AcDbEntity
  8
RACCORDO
100
AcDbLine
 62
253
  6
CONTINUOUS
 10
156.7441181153
 20
90.3614815426
 11
156.8002550511
 21
90.3112287695
  0
LWPOLYLINE
  5
320
100
AcDbEntity
  8
ASSI
100
AcDbPolyline
 62
7
  6
CONTINUOUS
 90
8
 70
0
 10
140.8757935119
 20
111.2917032328
 10
140.484025007
 20
111.6446141851
 10
140.0595853386
 20
111.96535032
 10
139.6120436703
 20
112.2466805129
 10
139.1408752146
 20
112.4877096137
 10
138.646604759
 20
112.6893327726
 10
138.1403758301
 20
112.8470043152
 10
137.6259029366
 20
112.9592090169
  0
LINE
  5
321
100
AcDbEntity
  8
RACCORDO
100
AcDbLine
 62
253
  6
CONTINUOUS
 10
156.6826550808
 20
90.4171253035
 11
156.7441181153
 21
90.3614815426
  0
LINE
  5
322
100
AcDbEntity
  8
RACCORDO
100
AcDbLine
 62
253
  6
CONTINUOUS
 10
156.6144569347
 20
90.4799265456
 11
156.6826550026
 21
90.4171252202
  0
LINE
  5
323
100
AcDbEntity
  8
RACCORDO
100
AcDbLine
 62
253
  6
CONTINUOUS
 10
156.5434270916
 20
90.5457527778
 11
156.6144569347
 21
90.4799265456
  0
LWPOLYLINE
  5
324
100
AcDbEntity
  8
ASSI
100
AcDbPolyline
 62
7
  6
CONTINUOUS
 90
10
 70
0
 10
140.8110752774
 20
111.0436704807
 10
140.5155353632
 20
111.345188082
 10
140.2020145967
 20
111.6217571582
 10
139.8705129777
 20
111.8733777093
 10
139.5189131022
 20
112.1011543476
 10
139.1493323743
 20
112.3039824608
 10
138.7681230066
 20
112.4785482121
 10
138.3774024033
 20
112.6237469893
 10
137.9750531603
 20
112.7406834046
 10
137.5610752774
 20
112.829357458
  0
LWPOLYLINE
  5
325
100
AcDbEntity
  8
RACCORDO
100
AcDbPolyline
 62
253
  6
CONTINUOUS
 90
12
 70
0
 10
156.2399590459
 20
90.9048052883
 10
156.2686200523
 20
90.873783786
 10
156.2971160151
 20
90.8424613469
 10
156.3254225051
 20
90.8108327444
 10
156.3535233523
 20
90.7788970024
 10
156.3814109532
 20
90.7466575051
 10
156.4090601513
 20
90.7141503615
 10
156.4364609584
 20
90.6813332833
 10
156.4636307158
 20
90.648092391
 10
156.4905657818
 20
90.6143879457
 10
156.5172407044
 20
90.58025406
 10
156.543641836
 20
90.5456878841
  0
LWPOLYLINE
  5
326
100
AcDbEntity
  8
ASSI
100
AcDbPolyline
 62
7
  6
CONTINUOUS
 90
16
 70
0
 10
140.8110751631
 20
111.255460427
 10
141.1604573731
 20
110.8732314254
 10
141.471304019
 20
110.469330936
 10
141.7436151007
 20
110.0437589588
 10
141.9788426051
 20
109.5930288357
 10
142.1755345453
 20
109.1206272248
 10
142.3293349614
 20
108.6370141004
 10
142.4392869987
 20
108.141938949
 10
142.5063475119
 20
107.6356522841
 10
142.5290311044
 20
107.1293656201
 10
142.5063475119
 20
106.6230789569
 10
142.4392869987
 20
106.1167922947
 10
142.3293349614
 20
105.6217171476
 10
142.1755345453
 20
105.1381040293
 10
141.9788426051
 20
104.6657024262
 10
141.7436151007
 20
104.2149723124
  0
LWPOLYLINE
  5
327
100
AcDbEntity
  8
RACCORDO
100
AcDbPolyline
 62
253
  6
CONTINUOUS
 90
10
 70
0
 10
155.1681895635
 20
90.6851786394
 10
155.1976892655
 20
90.651436219
 10
155.2278357978
 20
90.6179420256
 10
155.2586291603
 20
90.5846960592
 10
155.2900542125
 20
90.5516903473
 10
155.3221260949
 20
90.5189328624
 10
155.3548902291
 20
90.4864475224
 10
155.3883617554
 20
90.4542423001
 10
155.4225255334
 20
90.4223092228
 10
155.4573815631
 20
90.3906482905
  0
LINE
  5
328
100
AcDbEntity
  8
RACCORDO
100
AcDbLine
 62
253
  6
CONTINUOUS
 10
147.5468686461
 20
99.5141403467
 11
155.1681895635
 21
90.6851786394
  0
LINE
  5
329
100
AcDbEntity
  8
RACCORDO
100
AcDbLine
 62
253
  6
CONTINUOUS
 10
148.2539752069
 20
100.2105044713
 11
155.8752961243
 21
91.381542764
  0
LWPOLYLINE
  5
32A
100
AcDbEntity
  8
RACCORDO
100
AcDbPolyline
 62
253
  6
CONTINUOUS
 90
7
 70
0
 10
156.1302249242
 20
91.0257356278
 10
156.1432610539
 20
91.0105481964
 10
156.1564768392
 20
90.9954212159
 10
156.1698732059
 20
90.9803552352
 10
156.1834510474
 20
90.9653508104
 10
156.1972112238
 20
90.9504085049
 10
156.2399590459
 20
90.9048052883
  0
LWPOLYLINE
  5
32B
100
AcDbEntity
  8
RACCORDO
100
AcDbPolyline
 62
253
  6
CONTINUOUS
 90
8
 70
0
 10
156.0818452418
 20
91.08437282
 10
156.0887346651
 20
91.0757954968
 10
156.0956318788
 20
91.0672853497
 10
156.1025366034
 20
91.0588422364
 10
156.1094485386
 20
91.0504657621
 10
156.1163674073
 20
91.0421557841
 10
156.1232929567
 20
91.0339124117
 10
156.1302249242
 20
91.0257356278
  0
LINE
  5
32C
100
AcDbEntity
  8
RACCORDO
100
AcDbLine
 62
253
  6
CONTINUOUS
 10
156.0680908137
 20
91.101728679
 11
156.0818452418
 21
91.08437282
  0
LINE
  5
32D
100
AcDbEntity
  8
ASSI
100
AcDbLine
 62
7
  6
CONTINUOUS
 10
137.5610751631
 20
112.9235540527
 11
137.5610751631
 21
111.9539200657
  0
LINE
  5
32E
100
AcDbEntity
  8
ASSI
100
AcDbLine
 62
7
  6
CONTINUOUS
 10
137.5610751631
 20
102.3048113715
 11
137.5610751631
 21
101.3351773845
  0
LINE
  5
32F
100
AcDbEntity
  8
ASSI
100
AcDbLine
 62
7
  6
CONTINUOUS
 10
140.1110751631
 20
106.1445579076
 11
140.1110751631
 21
103.6618427161
  0
LINE
  5
330
100
AcDbEntity
  8
ASSI
100
AcDbLine
 62
7
  6
CONTINUOUS
 10
140.1110752774
 20
110.7705367554
 11
140.1110751631
 21
108.1141734285
  0
LINE
  5
331
100
AcDbEntity
  8
ASSI
100
AcDbLine
 62
7
  6
CONTINUOUS
 10
140.8110751631
 20
103.0032708812
 11
140.8110751631
 21
106.1445578937
  0
LINE
  5
332
100
AcDbEntity
  8
ASSI
100
AcDbLine
 62
7
  6
CONTINUOUS
 10
140.8110751631
 20
108.1141734146
 11
140.8110751631
 21
111.255460427
  0
LINE
  5
333
100
AcDbEntity
  8
RACCORDO
100
AcDbLine
 62
253
  6
CONTINUOUS
 10
117.9539779593
 20
90.6851773009
 11
125.5752972583
 21
99.5141419962
  0
LWPOLYLINE
  5
334
100
AcDbEntity
  8
RACCORDO
100
AcDbPolyline
 62
253
  6
CONTINUOUS
 90
7
 70
0
 10
116.8817002249
 20
90.9042436224
 10
116.9248963217
 20
90.9503413337
 10
116.9386212712
 20
90.9652441869
 10
116.9521879991
 20
90.9802355231
 10
116.9655969761
 20
90.9953148807
 10
116.9788487021
 20
91.0104818028
 10
116.9919437062
 20
91.0257358376
  0
LWPOLYLINE
  5
335
100
AcDbEntity
  8
RACCORDO
100
AcDbPolyline
 62
253
  6
CONTINUOUS
 90
25
 70
0
 10
148.789510299
 20
117.6626069144
 10
148.7423033714
 20
117.6123509729
 10
148.6952447202
 20
117.561104962
 10
148.6483343455
 20
117.5089172538
 10
148.6015396829
 20
117.4558489894
 10
148.5548932968
 20
117.4019384134
 10
148.5084928802
 20
117.3471989439
 10
148.4623320751
 20
117.2916719428
 10
148.4164172395
 20
117.2354159165
 10
148.3708651408
 20
117.1784690126
 10
148.3256634463
 20
117.120865824
 10
148.2808244886
 20
117.0626751395
 10
148.2365020333
 20
117.0039880427
 10
148.1927174207
 20
116.9448857695
 10
148.1494493105
 20
116.8853965422
 10
148.1067874469
 20
116.825532722
 10
148.0647318184
 20
116.7653502158
 10
148.0232824365
 20
116.7049029791
 10
147.9825290807
 20
116.6441998663
 10
147.9424539691
 20
116.5832669343
 10
147.9030748836
 20
116.5221900314
 10
147.8645349489
 20
116.4610681414
 10
147.8268818734
 20
116.3999724298
 10
147.7900679487
 20
116.338946111
 10
147.7540931749
 20
116.2780465673
  0
LINE
  5
336
100
AcDbEntity
  8
RACCORDO
100
AcDbLine
 62
253
  6
CONTINUOUS
 10
116.4613515309
 20
90.4371536176
 11
116.5787416422
 21
90.545752784
  0
LINE
  5
337
100
AcDbEntity
  8
RACCORDO
100
AcDbLine
 62
253
  6
CONTINUOUS
 10
116.4118864118
 20
90.3919547973
 11
116.4613515309
 21
90.4371536176
  0
LWPOLYLINE
  5
338
100
AcDbEntity
  8
RACCORDO
100
AcDbPolyline
 62
253
  6
CONTINUOUS
 90
10
 70
0
 10
117.664785735
 20
90.3906465808
 10
117.6996417923
 20
90.4223075517
 10
117.7338055973
 20
90.4542406683
 10
117.76727715
 20
90.4864459307
 10
117.8000413102
 20
90.5189313116
 10
117.832113218
 20
90.5516888383
 10
117.8635382947
 20
90.5846945924
 10
117.8943316807
 20
90.6179406012
 10
117.9244782355
 20
90.6514348373
 10
117.9539779593
 20
90.6851773009
  0
LINE
  5
339
100
AcDbEntity
  8
RACCORDO
100
AcDbLine
 62
253
  6
CONTINUOUS
 10
116.3477800585
 20
90.3342958851
 11
116.4118864118
 21
90.3919547973
  0
LINE
  5
33A
100
AcDbEntity
  8
RACCORDO
100
AcDbLine
 62
253
  6
CONTINUOUS
 10
116.2614527221
 20
90.2577923376
 11
116.3477800585
 21
90.3342958851
  0
LINE
  5
33B
100
AcDbEntity
  8
RACCORDO
100
AcDbLine
 62
253
  6
CONTINUOUS
 10
116.1856432874
 20
90.1913604357
 11
116.2614527221
 21
90.2577923376
  0
LINE
  5
33C
100
AcDbEntity
  8
RACCORDO
100
AcDbLine
 62
253
  6
CONTINUOUS
 10
116.1398237391
 20
90.1517155426
 11
116.1856432874
 21
90.1913604357
  0
LINE
  5
33D
100
AcDbEntity
  8
RACCORDO
100
AcDbLine
 62
253
  6
CONTINUOUS
 10
116.097111418
 20
90.1152037386
 11
116.1398237391
 21
90.1517155426
  0
LINE
  5
33E
100
AcDbEntity
  8
RACCORDO
100
AcDbLine
 62
253
  6
CONTINUOUS
 10
116.0572088254
 20
90.0815561241
 11
116.097111418
 21
90.1152037386
  0
LWPOLYLINE
  5
33F
100
AcDbEntity
  8
RACCORDO
100
AcDbPolyline
 62
253
  6
CONTINUOUS
 90
10
 70
0
 10
117.5715869617
 20
90.3106587566
 10
117.5819849557
 20
90.3192650544
 10
117.5923726193
 20
90.3279415491
 10
117.6027499526
 20
90.3366882407
 10
117.6131173734
 20
90.3455049789
 10
117.623474464
 20
90.3543919139
 10
117.6338199707
 20
90.3633494965
 10
117.6441534759
 20
90.372377877
 10
117.6544753973
 20
90.3814769051
 10
117.664785735
 20
90.3906465808
  0
LWPOLYLINE
  5
340
100
AcDbEntity
  8
RACCORDO
100
AcDbPolyline
 62
253
  6
CONTINUOUS
 90
7
 70
0
 10
117.4501904871
 20
90.2157060291
 10
117.4710145835
 20
90.2312996656
 10
117.4916021396
 20
90.2469860293
 10
117.5119531555
 20
90.2627651203
 10
117.5320676311
 20
90.2786369385
 10
117.5519455665
 20
90.2946014839
 10
117.5715869617
 20
90.3106587566
  0
LWPOLYLINE
  5
341
100
AcDbEntity
  8
RACCORDO
100
AcDbPolyline
 62
253
  6
CONTINUOUS
 90
10
 70
0
 10
124.8681921012
 20
115.2519695468
 10
124.9325112842
 20
115.2622039579
 10
125.0017224717
 20
115.2714259888
 10
125.0752989243
 20
115.2795654542
 10
125.1526806807
 20
115.286560408
 10
125.2332788187
 20
115.2923576143
 10
125.3164799375
 20
115.2969129528
 10
125.401650826
 20
115.3001917545
 10
125.488143282
 20
115.302169066
 10
125.5752990455
 20
115.3028298385
  0
LWPOLYLINE
  5
342
100
AcDbEntity
  8
RACCORDO
100
AcDbPolyline
 62
253
  6
CONTINUOUS
 90
16
 70
0
 10
43.5360493377
 20
107.8157399582
 10
43.3466758144
 20
107.7950131921
 10
43.1590210344
 20
107.7640630441
 10
42.9747881419
 20
107.7231703936
 10
42.7956492251
 20
107.6727063512
 10
42.6232301368
 20
107.6131289191
 10
42.4590957382
 20
107.5449788377
 10
42.3047357008
 20
107.4688746371
 10
42.161550987
 20
107.3855070206
 10
42.0308411311
 20
107.2956326271
 10
41.9137924449
 20
107.2000671629
 10
41.8114672545
 20
107.0996779688
 10
41.7247942586
 20
106.9953761503
 10
41.6545600944
 20
106.8881083491
 10
41.6014021986
 20
106.7788481486
 10
41.565803026
 20
106.6685872086
  0
LINE
  5
343
100
AcDbEntity
  8
RACCORDO
100
AcDbLine
 62
253
  6
CONTINUOUS
 10
125.4307345251
 20
116.1681609852
 11
147.6914344012
 21
116.1681580392
  0
LINE
  5
344
100
AcDbEntity
  8
RACCORDO
100
AcDbLine
 62
253
  6
CONTINUOUS
 10
124.3326583633
 20
117.6626101511
 11
148.789510299
 21
117.6626069144
  0
LWPOLYLINE
  5
345
100
AcDbEntity
  8
RACCORDO
100
AcDbPolyline
 62
253
  6
CONTINUOUS
 90
16
 70
0
 10
229.586114121
 20
107.8157399582
 10
229.7751111204
 20
107.7973407673
 10
229.96301832
 20
107.7659733098
 10
230.1477558479
 20
107.723204549
 10
230.3271501604
 20
107.6720243521
 10
230.4996101418
 20
107.6130902294
 10
230.6639674042
 20
107.5444114923
 10
230.8185384317
 20
107.4679562446
 10
230.9617633252
 20
107.3855589264
 10
231.0925681662
 20
107.2949893117
 10
231.2096258408
 20
107.1988875167
 10
231.3117963441
 20
107.099356727
 10
231.3982284762
 20
106.9938735363
 10
231.4680874417
 20
106.883854816
 10
231.5208427024
 20
106.7743105737
 10
231.5563604326
 20
106.6685872086
  0
LWPOLYLINE
  5
346
100
AcDbEntity
  8
RACCORDO
100
AcDbPolyline
 62
253
  6
CONTINUOUS
 90
10
 70
0
 10
147.6914344012
 20
116.1681580392
 10
147.7604610873
 20
116.1428066024
 10
147.8291143147
 20
116.1166528299
 10
147.8970226456
 20
116.0898382224
 10
147.9638186721
 20
116.0625078563
 10
148.0291410045
 20
116.0348095983
 10
148.0926362262
 20
116.0068933056
 10
148.1539608058
 20
115.978910015
 10
148.2127829562
 20
115.9510111256
 10
148.2687844288
 20
115.9233475802
  0
LINE
  5
347
100
AcDbEntity
  8
0
100
AcDbLine
 62
253
  6
CONTINUOUS
 10
107.9898225266
 20
129.5200342611
 11
108.5610817293
 21
129.2906037112
  0
LINE
  5
348
100
AcDbEntity
  8
0
100
AcDbLine
 62
253
  6
CONTINUOUS
 10
107.9898225266
 20
131.9774905232
 11
108.5610817293
 21
131.7480599733
  0
LWPOLYLINE
  5
349
100
AcDbEntity
  8
RACCORDO
100
AcDbPolyline
 62
253
  6
CONTINUOUS
 90
10
 70
0
 10
155.8752961243
 20
91.381542764
 10
155.8949663851
 20
91.3494893041
 10
155.9150632273
 20
91.3176680315
 10
155.9355891416
 20
91.2860807516
 10
155.9565387196
 20
91.2547237391
 10
155.9779215785
 20
91.223604383
 10
155.9997633285
 20
91.1927413781
 10
156.0220745198
 20
91.1621424486
 10
156.0448496589
 20
91.1318041562
 10
156.0680908137
 20
91.101728679
  0
LWPOLYLINE
  5
34A
100
AcDbEntity
  8
RACCORDO
100
AcDbPolyline
 62
253
  6
CONTINUOUS
 90
7
 70
0
 10
148.2313744663
 20
115.5092656684
 10
148.2330329746
 20
115.4677879542
 10
148.2355304686
 20
115.4257408782
 10
148.2388703135
 20
115.3831298804
 10
148.2430557975
 20
115.3399603924
 10
148.2480901311
 20
115.2962378359
 10
148.2539764461
 20
115.2519676219
  0
LINE
  5
34B
100
AcDbEntity
  8
RACCORDO
100
AcDbLine
 62
253
  6
CONTINUOUS
 10
147.5468686461
 20
99.5141403467
 11
147.5468699584
 21
115.3028280086
  0
LINE
  5
34C
100
AcDbEntity
  8
RACCORDO
100
AcDbLine
 62
253
  6
CONTINUOUS
 10
148.2539764461
 20
115.2519676219
 11
148.2539752069
 21
100.2105044713
  0
LWPOLYLINE
  5
34D
100
AcDbEntity
  8
ASSI
100
AcDbPolyline
 62
7
  6
CONTINUOUS
 90
32
 70
0
 10
148.3499916244
 20
104.218467342
 10
148.3650038366
 20
104.6720453071
 10
148.4071681324
 20
105.1107757765
 10
148.4764845116
 20
105.5346587502
 10
148.5738890806
 20
105.9466790279
 10
148.6984457331
 20
106.3438518099
 10
148.8473461504
 20
106.7172226968
 10
149.0211432842
 20
107.0662510077
 10
149.2192841829
 20
107.3914774235
 10
149.437301673
 20
107.6855695868
 10
149.6756472731
 20
107.9478202468
 10
149.9338694646
 20
108.1789366543
 10
150.2061465189
 20
108.3737082046
 10
150.4927977068
 20
108.5313092828
 10
150.7935037574
 20
108.6525655037
 10
151.1014851294
 20
108.7347431073
 10
151.4169070885
 20
108.7769543792
 10
151.7396043691
 20
108.7800870338
 10
152.0623016324
 20
108.7440704542
 10
152.384998877
 20
108.6680153228
 10
152.7076961043
 20
108.5528109571
 10
153.0231179806
 20
108.4010546932
 10
153.3310992373
 20
108.2119162155
 10
153.6318051429
 20
107.9862258396
 10
153.918456169
 20
107.7290718482
 10
154.1907330431
 20
107.439739512
 10
154.4489550378
 20
107.1189435604
 10
154.6873004419
 20
106.7739164639
 10
154.905317737
 20
106.4041077868
 10
155.1034584415
 20
106.0100679649
 10
155.2772553995
 20
105.6006807768
 10
155.3394394606
 20
105.4334536145
  0
LWPOLYLINE
  5
34E
100
AcDbEntity
  8
RACCORDO
100
AcDbPolyline
 62
253
  6
CONTINUOUS
 90
7
 70
0
 10
147.5650446482
 20
115.6284454203
 10
147.5594913862
 20
115.5755063344
 10
147.5549477831
 20
115.5220350554
 10
147.5514138387
 20
115.4680315834
 10
147.5488895532
 20
115.4134959182
 10
147.5473749264
 20
115.35842806
 10
147.5468699584
 20
115.3028280086
  0
LWPOLYLINE
  5
34F
100
AcDbEntity
  8
RACCORDO
100
AcDbPolyline
 62
253
  6
CONTINUOUS
 90
10
 70
0
 10
148.2687844288
 20
115.9233475802
 10
148.260094283
 20
115.8838925027
 10
148.2524541902
 20
115.8428322654
 10
148.2458884494
 20
115.8001738618
 10
148.2403917873
 20
115.7559952319
 10
148.2360197652
 20
115.7102348676
 10
148.2328917785
 20
115.6626917914
 10
148.2310692884
 20
115.6133063005
 10
148.2305528203
 20
115.5621600575
 10
148.2313744663
 20
115.5092656684
  0
LINE
  5
350
100
AcDbEntity
  8
RACCORDO
100
AcDbLine
 62
253
  6
CONTINUOUS
 10
148.2838007217
 20
115.9865508847
 11
148.2687844288
 21
115.9233475802
  0
LINE
  5
351
100
AcDbEntity
  8
RACCORDO
100
AcDbLine
 62
253
  6
CONTINUOUS
 10
148.2984982623
 20
116.0472055646
 11
148.2838007217
 21
115.9865508847
  0
LWPOLYLINE
  5
352
100
AcDbEntity
  8
RACCORDO
100
AcDbPolyline
 62
253
  6
CONTINUOUS
 90
3
 70
0
 10
148.332962503
 20
116.1853819739
 10
148.3154925264
 20
116.1161533354
 10
148.2984982623
 20
116.0472055646
  0
LWPOLYLINE
  5
353
100
AcDbEntity
  8
RACCORDO
100
AcDbPolyline
 62
253
  6
CONTINUOUS
 90
4
 70
0
 10
148.4068269393
 20
116.4642872066
 10
148.3878062375
 20
116.3944267152
 10
148.3691583441
 20
116.3245593229
 10
148.332962503
 20
116.1853819739
  0
LWPOLYLINE
  5
354
100
AcDbEntity
  8
RACCORDO
100
AcDbPolyline
 62
253
  6
CONTINUOUS
 90
3
 70
0
 10
148.4657513234
 20
116.6733233288
 10
148.4457944884
 20
116.6037703764
 10
148.4068269393
 20
116.4642872066
  0
LWPOLYLINE
  5
355
100
AcDbEntity
  8
RACCORDO
100
AcDbPolyline
 62
253
  6
CONTINUOUS
 90
3
 70
0
 10
148.5272647736
 20
116.8806975519
 10
148.5064871649
 20
116.811839761
 10
148.4657513234
 20
116.6733233288
  0
LWPOLYLINE
  5
356
100
AcDbEntity
  8
RACCORDO
100
AcDbPolyline
 62
253
  6
CONTINUOUS
 90
3
 70
0
 10
148.5909812832
 20
117.0851344199
 10
148.5695302033
 20
117.0174603861
 10
148.5272647736
 20
116.8806975519
  0
LWPOLYLINE
  5
357
100
AcDbEntity
  8
RACCORDO
100
AcDbPolyline
 62
253
  6
CONTINUOUS
 90
10
 70
0
 10
147.6914344012
 20
116.1681580392
 10
147.6725854836
 20
116.1156175573
 10
147.6548887565
 20
116.0612691992
 10
147.6383442198
 20
116.0051129649
 10
147.622886257
 20
115.9472142151
 10
147.6085804848
 20
115.8875075891
 10
147.5956237527
 20
115.8257970048
 10
147.5840816776
 20
115.7620171016
 10
147.5738886428
 20
115.6962332401
 10
147.5650446482
 20
115.6284454203
  0
LWPOLYLINE
  5
358
100
AcDbEntity
  8
RACCORDO
100
AcDbPolyline
 62
253
  6
CONTINUOUS
 90
9
 70
0
 10
148.789510299
 20
117.6626069144
 10
148.7671990536
 20
117.601794598
 10
148.7448677018
 20
117.5400636105
 10
148.7225617405
 20
117.4774430321
 10
148.7003562903
 20
117.4139483426
 10
148.6782665114
 20
117.3496251665
 10
148.65624802
 20
117.2845471675
 10
148.6343423635
 20
117.2187353965
 10
148.5909812832
 20
117.0851344199
  0
LWPOLYLINE
  5
359
100
AcDbEntity
  8
ASSI
100
AcDbPolyline
 62
7
  6
CONTINUOUS
 90
16
 70
0
 10
141.8455028823
 20
104.0379305358
 10
142.0902502567
 20
104.5019408789
 10
142.2949837897
 20
104.9887022553
 10
142.4550876811
 20
105.4872404336
 10
142.5695481185
 20
105.9978229373
 10
142.6393789143
 20
106.520182243
 10
142.6630057047
 20
107.0425415497
 10
142.6393789143
 20
107.5649008572
 10
142.5695481185
 20
108.0872601657
 10
142.4550876811
 20
108.597842674
 10
142.2949837897
 20
109.0963808587
 10
142.0902502567
 20
109.5831422431
 10
141.8455028823
 20
110.0471525959
 10
141.5598327075
 20
110.4878951018
 10
141.2341486915
 20
110.905886576
 10
140.8757935119
 20
111.2917032328
  0
LINE
  5
35A
100
AcDbEntity
  8
RACCORDO
100
AcDbLine
 62
253
  6
CONTINUOUS
 10
147.7126203756
 20
116.2058494863
 11
147.6914344012
 21
116.1681580392
  0
LINE
  5
35B
100
AcDbEntity
  8
RACCORDO
100
AcDbLine
 62
253
  6
CONTINUOUS
 10
147.7335066335
 20
116.2424863669
 11
147.7126203756
 21
116.2058494863
  0
LINE
  5
35C
100
AcDbEntity
  8
RACCORDO
100
AcDbLine
 62
253
  6
CONTINUOUS
 10
147.7540931749
 20
116.2780465673
 11
147.7335066335
 21
116.2424863669
  0
LWPOLYLINE
  5
35D
100
AcDbEntity
  8
ASSI
100
AcDbPolyline
 62
7
  6
CONTINUOUS
 90
4
 70
0
 10
141.7436151007
 20
104.2149723124
 10
141.471304019
 20
103.789400346
 10
141.1604573731
 20
103.385499869
 10
140.8110751631
 20
103.0032708812
  0
LWPOLYLINE
  5
35E
100
AcDbEntity
  8
ASSI
100
AcDbPolyline
 62
7
  6
CONTINUOUS
 90
4
 70
0
 10
140.8757935119
 20
102.7933799375
 10
141.2341486915
 20
103.17919658
 10
141.5598327075
 20
103.5971880413
 10
141.8455028823
 20
104.0379305358
  0
LINE
  5
35F
100
AcDbEntity
  8
ASSI
100
AcDbLine
 62
7
  6
CONTINUOUS
 10
140.5155353632
 20
103.2608395089
 11
140.8110752774
 21
103.5623570984
  0
LWPOLYLINE
  5
360
100
AcDbEntity
  8
ASSI
100
AcDbPolyline
 62
7
  6
CONTINUOUS
 90
10
 70
0
 10
140.1110751631
 20
103.6618427161
 10
139.871687
 20
103.4396038934
 10
139.6203962702
 20
103.2347418484
 10
139.3572029737
 20
103.0472565812
 10
139.0808854118
 20
102.8764979412
 10
138.7926652832
 20
102.723116079
 10
138.4962076844
 20
102.5890614458
 10
138.1927343142
 20
102.474984192
 10
137.8810234738
 20
102.3802341672
 10
137.5610751631
 20
102.3048113715
  0
LINE
  5
361
100
AcDbEntity
  8
ASSI
100
AcDbLine
 62
7
  6
CONTINUOUS
 10
140.2020145967
 20
102.9842704451
 11
140.5155353632
 21
103.2608395089
  0
LINE
  5
362
100
AcDbEntity
  8
0
100
AcDbLine
 62
253
  6
CONTINUOUS
 10
179.0610817293
 20
131.7480599733
 11
179.6212477599
 21
132.2069210731
  0
LINE
  5
363
100
AcDbEntity
  8
0
100
AcDbLine
 62
253
  6
CONTINUOUS
 10
179.0610817293
 20
129.2906037112
 11
179.6212477599
 21
129.749464811
  0
LINE
  5
364
100
AcDbEntity
  8
0
100
AcDbLine
 62
253
  6
CONTINUOUS
 10
209.5610817293
 20
133.5911521699
 11
210.132340932
 21
133.8205827198
  0
LINE
  5
365
100
AcDbEntity
  8
0
100
AcDbLine
 62
253
  6
CONTINUOUS
 10
209.5610817293
 20
131.1336959078
 11
210.132340932
 21
131.3631264577
  0
LWPOLYLINE
  5
366
100
AcDbEntity
  8
0
100
AcDbPolyline
 62
7
  6
CONTINUOUS
 90
40
 70
0
 10
50.5610817293
 20
119.9608531262
 10
49.9796380997
 20
119.9408430411
 10
49.4092442116
 20
119.8841099102
 10
48.8499000652
 20
119.7906537337
 10
48.2981364703
 20
119.6593967608
 10
47.757422617
 20
119.4914167422
 10
47.2381660755
 20
119.2899469299
 10
46.7407825196
 20
119.0543385554
 10
46.2648562754
 20
118.7852403872
 10
45.8195478917
 20
118.4878319826
 10
45.4054505015
 20
118.1615649124
 10
45.0219709718
 20
117.8069876059
 10
44.6764904516
 20
117.4309249087
 10
44.3697450625
 20
117.0329606032
 10
44.100998683
 20
116.613510907
 10
43.8754240969
 20
116.1806493181
 10
43.6938576338
 20
115.73411602
 10
43.5554629642
 20
115.2741708292
 10
43.4629038838
 20
114.8096666939
 10
43.4170683253
 20
114.3405152979
 10
43.417068356
 20
113.8668049573
 10
43.4629039737
 20
113.3976535689
 10
43.5554631109
 20
112.9331494494
 10
43.693857835
 20
112.4732042821
 10
43.8754243463
 20
112.0266710132
 10
44.1009989736
 20
111.59380946
 10
44.3697453881
 20
111.1743598052
 10
44.6764908032
 20
110.7763955439
 10
45.0219713398
 20
110.4003328939
 10
45.4054508769
 20
110.0457556375
 10
45.8195482649
 20
109.7194886164
 10
46.2648566364
 20
109.4220802599
 10
46.7407828587
 20
109.1529821388
 10
47.2381663849
 20
108.9173738069
 10
47.7574228883
 20
108.7159040325
 10
48.2981366955
 20
108.5479240473
 10
48.8499002399
 20
108.4166671009
 10
49.4092443326
 20
108.3232109431
 10
49.9796381624
 20
108.266477824
 10
50.5610817293
 20
108.2464677437
  0
LWPOLYLINE
  5
367
100
AcDbEntity
  8
0
100
AcDbPolyline
 62
7
  6
CONTINUOUS
 90
40
 70
0
 10
222.5610817293
 20
119.9608531262
 10
223.142525359
 20
119.9408430411
 10
223.712919247
 20
119.8841099102
 10
224.2722633934
 20
119.7906537337
 10
224.8240269883
 20
119.6593967608
 10
225.3647408416
 20
119.4914167422
 10
225.8839973831
 20
119.2899469299
 10
226.3813809391
 20
119.0543385554
 10
226.8573071832
 20
118.7852403872
 10
227.302615567
 20
118.4878319826
 10
227.7167129571
 20
118.1615649124
 10
228.1001924868
 20
117.8069876059
 10
228.445673007
 20
117.4309249087
 10
228.7524183961
 20
117.0329606032
 10
229.0211647756
 20
116.613510907
 10
229.2467393617
 20
116.1806493181
 10
229.4283058248
 20
115.73411602
 10
229.5667004945
 20
115.2741708292
 10
229.6592595749
 20
114.8096666939
 10
229.7050951334
 20
114.3405152979
 10
229.7050951026
 20
113.8668049573
 10
229.6592594849
 20
113.3976535689
 10
229.5667003477
 20
112.9331494494
 10
229.4283056236
 20
112.4732042821
 10
229.2467391123
 20
112.0266710132
 10
229.021164485
 20
111.59380946
 10
228.7524180705
 20
111.1743598052
 10
228.4456726555
 20
110.7763955439
 10
228.1001921189
 20
110.4003328939
 10
227.7167125817
 20
110.0457556375
 10
227.3026151937
 20
109.7194886164
 10
226.8573068223
 20
109.4220802599
 10
226.3813805999
 20
109.1529821388
 10
225.8839970737
 20
108.9173738069
 10
225.3647405703
 20
108.7159040325
 10
224.8240267631
 20
108.5479240473
 10
224.2722632187
 20
108.4166671009
 10
223.712919126
 20
108.3232109431
 10
223.1425252963
 20
108.266477824
 10
222.5610817293
 20
108.2464677437
  0
LWPOLYLINE
  5
368
100
AcDbEntity
  8
0
100
AcDbPolyline
 62
253
  6
CONTINUOUS
 90
10
 70
0
 10
34.0590447715
 20
151.2509761022
 10
33.9675205964
 20
151.272202037
 10
33.8850427316
 20
151.2934346923
 10
33.8116131428
 20
151.3146740681
 10
33.747235865
 20
151.3359203912
 10
33.6919085713
 20
151.3571734349
 10
33.6456264321
 20
151.3784325191
 10
33.6083915585
 20
151.3996974173
 10
33.5802091431
 20
151.420968356
 10
33.5610817293
 20
151.4422453354
  0
LINE
  5
369
100
AcDbEntity
  8
RACCORDO
100
AcDbLine
 62
253
  6
CONTINUOUS
 10
148.2539764461
 20
115.2519676219
 11
155.8752919674
 21
106.4230117111
  0
LINE
  5
36A
100
AcDbEntity
  8
RACCORDO
100
AcDbLine
 62
253
  6
CONTINUOUS
 10
148.789510299
 20
117.6626069144
 11
157.2895051713
 21
107.8157399582
  0
LWPOLYLINE
  5
36B
100
AcDbEntity
  8
ASSI
100
AcDbPolyline
 62
7
  6
CONTINUOUS
 90
26
 70
0
 10
155.3316065313
 20
105.4300852056
 10
155.2006675072
 20
105.7345720164
 10
155.0030848228
 20
106.1076462966
 10
154.7790589474
 20
106.4585551381
 10
154.5358209712
 20
106.7759719318
 10
154.2727440228
 20
107.0588038662
 10
153.9904549735
 20
107.3081437529
 10
153.6980655278
 20
107.5159434181
 10
153.3952461199
 20
107.6808474462
 10
153.0823263157
 20
107.8042112529
 10
152.7694065166
 20
107.8820529104
 10
152.456486723
 20
107.9128870771
 10
152.1435669344
 20
107.8981990947
 10
151.8407475522
 20
107.8384630608
 10
151.5483581423
 20
107.7322091029
 10
151.2660691387
 20
107.5809070936
 10
151.0029922443
 20
107.3894407475
 10
150.7597543308
 20
107.1564995428
 10
150.5357285265
 20
106.8833940014
 10
150.3381459193
 20
106.578939403
 10
150.1678693239
 20
106.2421128596
 10
150.0240359256
 20
105.8739372593
 10
149.9112883679
 20
105.486296546
 10
149.8311741985
 20
105.0831520344
 10
149.7821458696
 20
104.6605424099
 10
149.7642033812
 20
104.2184676723
  0
LWPOLYLINE
  5
36C
100
AcDbEntity
  8
ASSI
100
AcDbPolyline
 62
7
  6
CONTINUOUS
 90
7
 70
0
 10
155.3394394606
 20
105.4334536145
 10
155.4261555724
 20
105.1755975984
 10
155.550711999
 20
104.7351670537
 10
155.6481166393
 20
104.2893187931
 10
155.7174334803
 20
103.8413626999
 10
155.759598535
 20
103.3879888908
 10
155.7746118036
 20
102.9291973658
  0
LINE
  5
36D
100
AcDbEntity
  8
RACCORDO
100
AcDbLine
 62
253
  6
CONTINUOUS
 10
155.8752919674
 20
106.4230117111
 11
155.8752961243
 21
91.381542764
  0
LINE
  5
36E
100
AcDbEntity
  8
RACCORDO
100
AcDbLine
 62
253
  6
CONTINUOUS
 10
157.2895051713
 20
107.8157399582
 11
157.2894357683
 21
89.8981709654
  0
LWPOLYLINE
  5
36F
100
AcDbEntity
  8
ASSI
100
AcDbPolyline
 62
7
  6
CONTINUOUS
 90
37
 70
0
 10
155.774611801
 20
102.9291965274
 10
155.7595986416
 20
102.4756198551
 10
155.7174336855
 20
102.0368897468
 10
155.6481169353
 20
101.613007041
 10
155.5507123799
 20
101.2009869247
 10
155.4261560303
 20
100.8038142108
 10
155.2772559207
 20
100.4304433378
 10
155.103459011
 20
100.0814149968
 10
154.9053183413
 20
99.7561884967
 10
154.6873010649
 20
99.462096202
 10
154.4489556622
 20
99.1998453593
 10
154.1907336528
 20
98.9687287222
 10
153.9184567499
 20
98.7739569151
 10
153.6318056796
 20
98.6163555506
 10
153.3310997158
 20
98.4950990162
 10
153.023118392
 20
98.4129210992
 10
152.7076964393
 20
98.370709514
 10
152.3849991267
 20
98.3675765461
 10
152.0623017956
 20
98.4035928398
 10
151.7396044445
 20
98.4796477149
 10
151.416907075
 20
98.5948518515
 10
151.1014850332
 20
98.7466079334
 10
150.7935035856
 20
98.9357462804
 10
150.4927974658
 20
99.1614365728
 10
150.2061462207
 20
99.418590535
 10
149.9338691224
 20
99.7079229011
 10
149.6756468988
 20
100.0287189372
 10
149.4373012809
 20
100.373746165
 10
149.2192837885
 20
100.7435550248
 10
149.0211429018
 20
101.1375950763
 10
148.8473457925
 20
101.5469825213
 10
148.6984454132
 20
101.9720660014
 10
148.5738888112
 20
102.4124968749
 10
148.4764843001
 20
102.8583454181
 10
148.4071679841
 20
103.3063017231
 10
148.3650037589
 20
103.7596756977
 10
148.3499916244
 20
104.218467342
  0
LWPOLYLINE
  5
370
100
AcDbEntity
  8
ASSI
100
AcDbPolyline
 62
7
  6
CONTINUOUS
 90
30
 70
0
 10
155.7566681176
 20
102.732697447
 10
155.7076397887
 20
102.3100878224
 10
155.6275256193
 20
101.9069433108
 10
155.5147780615
 20
101.5193025976
 10
155.3709446633
 20
101.1511269972
 10
155.2006680679
 20
100.8143004539
 10
155.0030854607
 20
100.5098458555
 10
154.7790596564
 20
100.2367403141
 10
154.5358217429
 20
100.0037991094
 10
154.2727448485
 20
99.8123327633
 10
153.9904558449
 20
99.6610307539
 10
153.698066435
 20
99.5547767961
 10
153.3952470527
 20
99.4950407622
 10
153.0823272642
 20
99.4803527798
 10
152.7694074705
 20
99.5111869465
 10
152.4564876715
 20
99.589028604
 10
152.1435678673
 20
99.7123924106
 10
151.8407484594
 20
99.8772964388
 10
151.5483590137
 20
100.0850961039
 10
151.2660699644
 20
100.3344359906
 10
151.002993016
 20
100.617267925
 10
150.7597550398
 20
100.9346847188
 10
150.5357291644
 20
101.2855935602
 10
150.33814648
 20
101.6586678405
 10
150.1678698011
 20
102.0546307955
 10
150.0240363132
 20
102.4727591893
 10
149.9112886626
 20
102.8995567056
 10
149.8311743982
 20
103.3305245721
 10
149.782145971
 20
103.770161561
 10
149.7642033812
 20
104.2184676723
  0
LWPOLYLINE
  5
371
100
AcDbEntity
  8
0
100
AcDbPolyline
 62
7
  6
CONTINUOUS
 90
33
 70
0
 10
221.5432828766
 20
150.3687231597
 10
221.5793634439
 20
150.3951617636
 10
221.7993175265
 20
150.5476774107
 10
222.0270946526
 20
150.6911554824
 10
222.2618196272
 20
150.8251329907
 10
222.5033967557
 20
150.9496332815
 10
222.7513097581
 20
151.0644280504
 10
223.0050221421
 20
151.1693042143
 10
223.2640814201
 20
151.2641017609
 10
223.5280880847
 20
151.348683283
 10
223.7967664038
 20
151.4229398252
 10
224.0693826613
 20
151.4866408661
 10
224.3448198156
 20
151.5395421346
 10
224.62235142
 20
151.5815609335
 10
224.901618547
 20
151.6126915798
 10
225.1820299204
 20
151.6329009084
 10
225.4630435481
 20
151.6421780675
 10
225.7441220422
 20
151.6405260279
 10
226.0246801983
 20
151.627964214
 10
226.3041807637
 20
151.6045281975
 10
226.5820923116
 20
151.5702667293
 10
226.8578433862
 20
151.525249452
 10
227.1311091746
 20
151.4695112616
 10
227.4011595205
 20
151.4031753045
 10
227.6668470966
 20
151.3265429954
 10
227.9273935427
 20
151.2399118984
 10
228.1826285832
 20
151.1434055878
 10
228.4323450829
 20
151.0371248185
 10
228.6761677398
 20
150.9212191217
 10
228.9135346186
 20
150.7959379277
 10
229.1439593334
 20
150.6615227281
 10
229.3673676441
 20
150.5179632717
 10
229.5788521932
 20
150.3687441268
  0
LWPOLYLINE
  5
372
100
AcDbEntity
  8
RACCORDO
100
AcDbPolyline
 62
253
  6
CONTINUOUS
 90
10
 70
0
 10
157.2895051713
 20
107.8157399582
 10
157.0998986778
 20
107.6981556341
 10
156.9128569297
 20
107.5666440196
 10
156.7309100939
 20
107.4229840825
 10
156.5565110098
 20
107.269111287
 10
156.392028233
 20
107.1071141362
 10
156.2397086465
 20
106.9392095076
 10
156.1016129407
 20
106.7676789294
 10
155.9795934997
 20
106.5948342899
 10
155.8752919674
 20
106.4230117111
  0
LWPOLYLINE
  5
373
100
AcDbEntity
  8
RACCORDO
100
AcDbPolyline
 62
253
  6
CONTINUOUS
 90
10
 70
0
 10
147.5468686461
 20
99.5141403467
 10
147.6416718887
 20
99.5729325102
 10
147.7351927582
 20
99.6386883184
 10
147.8261661713
 20
99.7105182875
 10
147.9133657083
 20
99.7874546855
 10
147.9956070917
 20
99.8684532608
 10
148.0717668801
 20
99.9524055748
 10
148.1408147283
 20
100.0381708634
 10
148.2018244445
 20
100.1245931825
 10
148.2539752069
 20
100.2105044713
  0
LWPOLYLINE
  5
374
100
AcDbEntity
  8
RACCORDO
100
AcDbPolyline
 62
253
  6
CONTINUOUS
 90
7
 70
0
 10
233.708926575
 20
153.6726481229
 10
233.9951549905
 20
153.7328204516
 10
234.2493848918
 20
153.7930354108
 10
234.4716162788
 20
153.8532930008
 10
234.6618491515
 20
153.9135932214
 10
234.82008351
 20
153.9739360726
 10
234.9463193543
 20
154.0343215545
  0
LWPOLYLINE
  5
375
100
AcDbEntity
  8
RACCORDO
100
AcDbPolyline
 62
253
  6
CONTINUOUS
 90
7
 70
0
 10
235.7012723463
 20
151.67296043
 10
235.9751964287
 20
151.7300813234
 10
236.2201517005
 20
151.7872338648
 10
236.4361192574
 20
151.8444180542
 10
236.6230824415
 20
151.9016338917
 10
236.7810268424
 20
151.9588813771
 10
236.9099402984
 20
152.0161605107
  0
LWPOLYLINE
  5
376
100
AcDbEntity
  8
0
100
AcDbPolyline
 62
7
  6
CONTINUOUS
 90
20
 70
0
 10
225.5610817293
 20
140.6848903069
 10
226.149407729
 20
140.7092019085
 10
226.7222639279
 20
140.7766707861
 10
227.279650326
 20
140.8872969397
 10
227.8263057666
 20
141.0428531432
 10
228.3574914063
 20
141.2415666226
 10
228.8589907158
 20
141.4781190565
 10
229.330002025
 20
141.7535322739
 10
229.7713270039
 20
142.0667844456
 10
230.1711541329
 20
142.4094917632
 10
230.5283627757
 20
142.7824496535
 10
230.8440735686
 20
143.1848626896
 10
231.109836901
 20
143.6059607822
 10
231.3243039575
 20
144.0462485152
 10
231.4888235536
 20
144.5052213047
 10
231.5989925248
 20
144.9705953091
 10
231.6533431497
 20
145.4425433913
 10
231.6533431497
 20
145.9208926883
 10
231.5989925248
 20
146.3928407705
 10
231.5610817293
 20
146.5529829458
  0
LWPOLYLINE
  5
377
100
AcDbEntity
  8
0
100
AcDbPolyline
 62
7
  6
CONTINUOUS
 90
20
 70
0
 10
47.5610817293
 20
140.6848903069
 10
46.9727557296
 20
140.7092019085
 10
46.3998995307
 20
140.7766707861
 10
45.8425131326
 20
140.8872969397
 10
45.295857692
 20
141.0428531432
 10
44.7646720523
 20
141.2415666226
 10
44.2631727428
 20
141.4781190565
 10
43.7921614336
 20
141.7535322739
 10
43.3508364548
 20
142.0667844456
 10
42.9510093258
 20
142.4094917632
 10
42.593800683
 20
142.7824496535
 10
42.2780898901
 20
143.1848626896
 10
42.0123265577
 20
143.6059607822
 10
41.7978595011
 20
144.0462485152
 10
41.633339905
 20
144.5052213047
 10
41.5231709338
 20
144.9705953091
 10
41.468820309
 20
145.4425433913
 10
41.468820309
 20
145.9208926883
 10
41.5231709338
 20
146.3928407705
 10
41.5610817293
 20
146.5529829458
  0
LWPOLYLINE
  5
378
100
AcDbEntity
  8
0
100
AcDbPolyline
 62
253
  6
CONTINUOUS
 90
10
 70
0
 10
37.0547127652
 20
154.2494731422
 10
36.9637618824
 20
154.2708470133
 10
36.8818251936
 20
154.292228022
 10
36.8089026989
 20
154.3136161684
 10
36.7449940433
 20
154.3350117736
 10
36.6900995818
 20
154.3564145164
 10
36.6442203791
 20
154.3778234333
 10
36.6073567902
 20
154.3992382029
 10
36.5795084601
 20
154.4206591466
 10
36.5606753889
 20
154.4420862643
  0
LINE
  5
379
100
AcDbEntity
  8
0
100
AcDbLine
 62
7
  6
CONTINUOUS
 10
163.5009156987
 20
129.749464811
 11
163.5009156987
 21
132.2069210731
  0
LINE
  5
37A
100
AcDbEntity
  8
0
100
AcDbLine
 62
7
  6
CONTINUOUS
 10
164.0610817293
 20
129.2906037112
 11
164.0610817293
 21
131.7480599733
  0
LINE
  5
37B
100
AcDbEntity
  8
0
100
AcDbLine
 62
7
  6
CONTINUOUS
 10
164.5610817293
 20
129.2906037112
 11
164.5610817293
 21
131.7480599733
  0
LINE
  5
37C
100
AcDbEntity
  8
0
100
AcDbLine
 62
7
  6
CONTINUOUS
 10
165.132340932
 20
129.5200342611
 11
165.132340932
 21
131.9774905232
  0
LWPOLYLINE
  5
37D
100
AcDbEntity
  8
0
100
AcDbPolyline
 62
7
  6
CONTINUOUS
 90
40
 70
0
 10
163.5009156987
 20
132.2069210731
 10
163.5284518576
 20
132.7438182911
 10
163.6065231163
 20
133.2705123282
 10
163.7351294748
 20
133.7870031842
 10
163.9157540407
 20
134.2964942623
 10
164.1469137064
 20
134.7957821594
 10
164.4241591498
 20
135.2752566663
 10
164.7483831501
 20
135.7345339556
 10
165.118692928
 20
136.1739978547
 10
165.5279608234
 20
136.5851896367
 10
165.9769415377
 20
136.9675616105
 10
166.4648803695
 20
137.3216614673
 10
166.9823855545
 20
137.6406735525
 10
167.5300298558
 20
137.9239181417
 10
168.1072405102
 20
138.1720749594
 10
168.7029074645
 20
138.3803675251
 10
169.3173882564
 20
138.5480235836
 10
169.9503253483
 20
138.6758153901
 10
170.5895360737
 20
138.7612832295
 10
171.2351419662
 20
138.8036071967
 10
171.8870214924
 20
138.8036071967
 10
172.5326273849
 20
138.7612832295
 10
173.1718381104
 20
138.6758153901
 10
173.8047752022
 20
138.5480235836
 10
174.4192559941
 20
138.3803675251
 10
175.0149229485
 20
138.1720749594
 10
175.5921336029
 20
137.9239181417
 10
176.1397779041
 20
137.6406735525
 10
176.6572830891
 20
137.3216614673
 10
177.1452219209
 20
136.9675616105
 10
177.5942026352
 20
136.5851896367
 10
178.0034705307
 20
136.1739978547
 10
178.3737803086
 20
135.7345339556
 10
178.6980043088
 20
135.2752566663
 10
178.9752497522
 20
134.7957821594
 10
179.2064094179
 20
134.2964942623
 10
179.3870339838
 20
133.7870031842
 10
179.5156403424
 20
133.2705123282
 10
179.5937116011
 20
132.7438182912
 10
179.6212477599
 20
132.2069210731
  0
LWPOLYLINE
  5
37E
100
AcDbEntity
  8
0
100
AcDbPolyline
 62
7
  6
CONTINUOUS
 90
37
 70
0
 10
164.0610817293
 20
131.7480599733
 10
164.0914119563
 20
132.2901306079
 10
164.1765973905
 20
132.8201610105
 10
164.3166380321
 20
133.3381511811
 10
164.5134250057
 20
133.8478410231
 10
164.7650671866
 20
134.345490633
 10
165.0658912009
 20
134.8198803009
 10
165.4170142689
 20
135.2704816511
 10
165.8173191702
 20
135.6978230592
 10
166.2577808704
 20
136.0922699418
 10
166.7393115759
 20
136.4530750629
 10
167.2609990802
 20
136.7809856584
 10
167.8110817293
 20
137.0686088524
 10
168.3902045505
 20
137.3150294717
 10
168.9977225165
 20
137.5211626894
 10
169.619938891
 20
137.6823611496
 10
170.2571875648
 20
137.797604109
 10
170.9091346471
 20
137.8679123109
 10
171.5610817293
 20
137.8917006285
 10
172.2130288116
 20
137.8679123109
 10
172.8649758938
 20
137.797604109
 10
173.5022245676
 20
137.6823611496
 10
174.1244409421
 20
137.5211626894
 10
174.7319589081
 20
137.3150294717
 10
175.3110817293
 20
137.0686088524
 10
175.8611643784
 20
136.7809856584
 10
176.3828518827
 20
136.4530750629
 10
176.8643825882
 20
136.0922699418
 10
177.3048442884
 20
135.6978230592
 10
177.7051491898
 20
135.2704816511
 10
178.0562722577
 20
134.8198803009
 10
178.357096272
 20
134.345490633
 10
178.6087384529
 20
133.8478410231
 10
178.8055254265
 20
133.3381511811
 10
178.9455660681
 20
132.8201610105
 10
179.0307515024
 20
132.2901306079
 10
179.0610817293
 20
131.7480599733
  0
LWPOLYLINE
  5
37F
100
AcDbEntity
  8
0
100
AcDbPolyline
 62
7
  6
CONTINUOUS
 90
37
 70
0
 10
164.5610817293
 20
131.7480599733
 10
164.5893899411
 20
132.2539925656
 10
164.6688963465
 20
132.748687608
 10
164.7996009453
 20
133.2321451006
 10
164.9832687873
 20
133.7078556198
 10
165.2181348228
 20
134.1723285891
 10
165.4989039028
 20
134.6150922791
 10
165.8266187662
 20
135.0356535393
 10
166.2002366742
 20
135.4345055202
 10
166.611334261
 20
135.8026559439
 10
167.0607629195
 20
136.1394073902
 10
167.5476712568
 20
136.4454572794
 10
168.0610817293
 20
136.7139055938
 10
168.6015963625
 20
136.9438981718
 10
169.1686131307
 20
137.136289175
 10
169.7493484136
 20
137.2867410712
 10
170.3441138424
 20
137.3943011667
 10
170.9525977859
 20
137.459922155
 10
171.5610817293
 20
137.4821245848
 10
172.1695656728
 20
137.459922155
 10
172.7780496162
 20
137.3943011667
 10
173.372815045
 20
137.2867410712
 10
173.9535503279
 20
137.136289175
 10
174.5205670962
 20
136.9438981718
 10
175.0610817293
 20
136.7139055938
 10
175.5744922018
 20
136.4454572794
 10
176.0614005392
 20
136.1394073902
 10
176.5108291976
 20
135.8026559439
 10
176.9219267845
 20
135.4345055202
 10
177.2955446924
 20
135.0356535393
 10
177.6232595558
 20
134.6150922791
 10
177.9040286358
 20
134.1723285891
 10
178.1388946713
 20
133.7078556198
 10
178.3225625133
 20
133.2321451006
 10
178.4532671122
 20
132.748687608
 10
178.5327735175
 20
132.2539925656
 10
178.5610817293
 20
131.7480599733
  0
LWPOLYLINE
  5
380
100
AcDbEntity
  8
0
100
AcDbPolyline
 62
7
  6
CONTINUOUS
 90
37
 70
0
 10
165.132340932
 20
131.9774905232
 10
165.1583389543
 20
132.4421347371
 10
165.2313569646
 20
132.8964584801
 10
165.3513949627
 20
133.3404617525
 10
165.5200739554
 20
133.7773502699
 10
165.735772936
 20
134.2039183166
 10
165.9936288845
 20
134.6105487448
 10
166.2945994434
 20
134.9967886493
 10
166.6377269702
 20
135.3630909353
 10
167.015275517
 20
135.7011971707
 10
167.4280269959
 20
136.010466851
 10
167.8751994949
 20
136.2915404808
 10
168.3467113307
 20
136.5380811423
 10
168.8431153983
 20
136.7493043808
 10
169.3638588027
 20
136.925994651
 10
169.8972011749
 20
137.0641684
 10
170.4434287145
 20
137.162950682
 10
171.0022552219
 20
137.2232164427
 10
171.5610817293
 20
137.2436069665
 10
172.1199082367
 20
137.2232164427
 10
172.6787347441
 20
137.162950682
 10
173.2249622837
 20
137.0641684
 10
173.7583046559
 20
136.925994651
 10
174.2790480603
 20
136.7493043808
 10
174.775452128
 20
136.5380811423
 10
175.2469639637
 20
136.2915404808
 10
175.6941364627
 20
136.010466851
 10
176.1068879416
 20
135.7011971707
 10
176.4844364885
 20
135.3630909353
 10
176.8275640152
 20
134.9967886493
 10
177.1285345741
 20
134.6105487448
 10
177.3863905226
 20
134.2039183166
 10
177.6020895032
 20
133.7773502699
 10
177.7707684959
 20
133.3404617525
 10
177.8908064941
 20
132.8964584801
 10
177.9638245043
 20
132.4421347371
 10
177.9898225266
 20
131.9774905232
  0
LWPOLYLINE
  5
381
100
AcDbEntity
  8
0
100
AcDbPolyline
 62
7
  6
CONTINUOUS
 90
32
 70
0
 10
228.2721736811
 20
144.2559033892
 10
228.139779269
 20
144.1624312199
 10
227.9923819323
 20
144.0677475121
 10
227.8388950165
 20
143.978495506
 10
227.6799359671
 20
143.8950785142
 10
227.5157106763
 20
143.8176380466
 10
227.346578718
 20
143.7463902168
 10
227.1730555621
 20
143.6815892866
 10
226.9955738852
 20
143.6234221339
 10
226.8147243052
 20
143.572093744
 10
226.6308805786
 20
143.5277137234
 10
226.4441391221
 20
143.4903330194
 10
226.2548600669
 20
143.4600755457
 10
226.0636675248
 20
143.4370852538
 10
225.8710465358
 20
143.4214509903
 10
225.6775087255
 20
143.4132390045
 10
225.4835753958
 20
143.4124889586
 10
225.2897516894
 20
143.4192140158
 10
225.0965566435
 20
143.4334013704
 10
224.9045139822
 20
143.4550106009
 10
224.7141356732
 20
143.4839750117
 10
224.5260480051
 20
143.5201761688
 10
224.3406363719
 20
143.5635091314
 10
224.1580606853
 20
143.6139263955
 10
223.9787276558
 20
143.6713256496
 10
223.8032292738
 20
143.7355195553
 10
223.6320153825
 20
143.8063331863
 10
223.465602034
 20
143.8835327734
 10
223.3043941196
 20
143.9669008128
 10
223.1486784787
 20
144.0562658771
 10
222.9990951004
 20
144.151221215
 10
222.8499835205
 20
144.2559080115
  0
LWPOLYLINE
  5
382
100
AcDbEntity
  8
RACCORDO
100
AcDbPolyline
 62
253
  6
CONTINUOUS
 90
10
 70
0
 10
155.1681895635
 20
90.6851786394
 10
155.2629789934
 20
90.7439616681
 10
155.356486559
 20
90.8097063897
 10
155.4474477317
 20
90.8815237202
 10
155.5346324184
 20
90.9584424539
 10
155.6168615963
 20
91.0394223975
 10
155.6930232575
 20
91.1233684369
 10
155.7620874467
 20
91.2091453465
 10
155.8231201899
 20
91.2955931413
 10
155.8752961243
 20
91.381542764
  0
LWPOLYLINE
  5
383
100
AcDbEntity
  8
0
100
AcDbPolyline
 62
7
  6
CONTINUOUS
 90
20
 70
0
 10
47.5610817293
 20
140.6848903069
 10
48.149407729
 20
140.7092019085
 10
48.7222639279
 20
140.7766707861
 10
49.279650326
 20
140.8872969397
 10
49.8263057666
 20
141.0428531432
 10
50.3574914063
 20
141.2415666226
 10
50.8589907158
 20
141.4781190565
 10
51.330002025
 20
141.7535322739
 10
51.7713270039
 20
142.0667844456
 10
52.1711541329
 20
142.4094917632
 10
52.5283627757
 20
142.7824496535
 10
52.8440735686
 20
143.1848626896
 10
53.109836901
 20
143.6059607822
 10
53.3243039575
 20
144.0462485152
 10
53.4888235536
 20
144.5052213047
 10
53.5989925248
 20
144.9705953091
 10
53.6533431497
 20
145.4425433913
 10
53.6533431497
 20
145.9208926883
 10
53.5989925248
 20
146.3928407705
 10
53.5610817293
 20
146.5529829458
  0
LWPOLYLINE
  5
384
100
AcDbEntity
  8
0
100
AcDbPolyline
 62
7
  6
CONTINUOUS
 90
40
 70
0
 10
47.5610817293
 20
140.6848903069
 10
48.1425252879
 20
140.7049003881
 10
48.712919108
 20
140.7616335092
 10
49.2722631895
 20
140.8550896699
 10
49.8240267218
 20
140.9863466207
 10
50.3647405157
 20
141.1543266111
 10
50.8839970031
 20
141.3557963909
 10
51.3813805107
 20
141.5914047281
 10
51.8573067118
 20
141.8605028546
 10
52.3026150593
 20
142.157911215
 10
52.7167124205
 20
142.4841782386
 10
53.1001919281
 20
142.8387554961
 10
53.4456724332
 20
143.2148181443
 10
53.7524178145
 20
143.6127824008
 10
54.0211641934
 20
144.032232048
 10
54.2467387849
 20
144.4650935898
 10
54.4283052599
 20
144.9116268432
 10
54.5666999474
 20
145.3715719911
 10
54.65925905
 20
145.8360760872
 10
54.705094635
 20
146.3052274477
 10
54.705094635
 20
146.7789377563
 10
54.65925905
 20
147.2480891169
 10
54.5666999474
 20
147.7125932129
 10
54.4283052599
 20
148.1725383609
 10
54.2467387849
 20
148.6190716143
 10
54.0211641934
 20
149.0519331561
 10
53.7524178145
 20
149.4713828033
 10
53.4456724332
 20
149.8693470598
 10
53.1001919281
 20
150.245409708
 10
52.7167124205
 20
150.5999869655
 10
52.3026150593
 20
150.9262539891
 10
51.8573067118
 20
151.2236623495
 10
51.3813805107
 20
151.492760476
 10
50.8839970031
 20
151.7283688132
 10
50.3647405157
 20
151.9298385929
 10
49.8240267218
 20
152.0978185834
 10
49.2722631895
 20
152.2290755341
 10
48.712919108
 20
152.3225316949
 10
48.1425252879
 20
152.3792648159
 10
47.5610817293
 20
152.3992748972
  0
LWPOLYLINE
  5
385
100
AcDbEntity
  8
0
100
AcDbPolyline
 62
7
  6
CONTINUOUS
 90
37
 70
0
 10
47.5610817293
 20
141.8035442639
 10
47.2993654064
 20
141.8082221716
 10
47.038147275
 20
141.8222469898
 10
46.7779245787
 20
141.8455920216
 10
46.5191926662
 20
141.8782128285
 10
46.2624440483
 20
141.9200473149
 10
46.0081674611
 20
141.9710158465
 10
45.7568469346
 20
142.0310214018
 10
45.5089608716
 20
142.0999497567
 10
45.2649811372
 20
142.1776697022
 10
45.0253721608
 20
142.2640332941
 10
44.7905900518
 20
142.3588761343
 10
44.561081731
 20
142.462017684
 10
44.3372840808
 20
142.5732616075
 10
44.1196231127
 20
142.6923961456
 10
43.9085131566
 20
142.8191945189
 10
43.7043560725
 20
142.9534153597
 10
43.5075404848
 20
143.0948031708
 10
43.3184410433
 20
143.2430888125
 10
43.1374177094
 20
143.3979900146
 10
42.9648150715
 20
143.559211914
 10
42.8009616883
 20
143.7264476156
 10
42.6461694642
 20
143.8993787767
 10
42.500733055
 20
144.0776762131
 10
42.3649293071
 20
144.2610005253
 10
42.2390167307
 20
144.4490027452
 10
42.1232350074
 20
144.6413249999
 10
42.0178045345
 20
144.837601193
 10
41.9229260048
 20
145.0374577017
 10
41.838780025
 20
145.2405140876
 10
41.7655267717
 20
145.4463838215
 10
41.7033056867
 20
145.6546750185
 10
41.6522352113
 20
145.8649911846
 10
41.6124125611
 20
146.076931971
 10
41.5839135408
 20
146.2900939364
 10
41.5667923998
 20
146.5040713148
 10
41.5610817293
 20
146.7184567881
  0
LWPOLYLINE
  5
386
100
AcDbEntity
  8
0
100
AcDbPolyline
 62
7
  6
CONTINUOUS
 90
37
 70
0
 10
225.5610817293
 20
141.8035442639
 10
225.2993654064
 20
141.8082221716
 10
225.038147275
 20
141.8222469898
 10
224.7779245787
 20
141.8455920216
 10
224.5191926662
 20
141.8782128285
 10
224.2624440483
 20
141.9200473149
 10
224.0081674611
 20
141.9710158465
 10
223.7568469346
 20
142.0310214018
 10
223.5089608716
 20
142.0999497567
 10
223.2649811372
 20
142.1776697022
 10
223.0253721608
 20
142.2640332941
 10
222.7905900518
 20
142.3588761343
 10
222.561081731
 20
142.462017684
 10
222.3372840808
 20
142.5732616075
 10
222.1196231127
 20
142.6923961456
 10
221.9085131566
 20
142.8191945189
 10
221.7043560725
 20
142.9534153597
 10
221.5075404848
 20
143.0948031708
 10
221.3184410433
 20
143.2430888125
 10
221.1374177094
 20
143.3979900146
 10
220.9648150715
 20
143.559211914
 10
220.8009616883
 20
143.7264476156
 10
220.6461694642
 20
143.8993787767
 10
220.500733055
 20
144.0776762131
 10
220.3649293071
 20
144.2610005253
 10
220.2390167307
 20
144.4490027452
 10
220.1232350074
 20
144.6413249999
 10
220.0178045345
 20
144.837601193
 10
219.9229260048
 20
145.0374577017
 10
219.838780025
 20
145.2405140876
 10
219.7655267717
 20
145.4463838215
 10
219.7033056867
 20
145.6546750185
 10
219.6522352113
 20
145.8649911846
 10
219.6124125611
 20
146.076931971
 10
219.5839135408
 20
146.2900939364
 10
219.5667923998
 20
146.5040713148
 10
219.5610817293
 20
146.7184567881
  0
LWPOLYLINE
  5
387
100
AcDbEntity
  8
0
100
AcDbPolyline
 62
7
  6
CONTINUOUS
 90
34
 70
0
 10
47.5610817293
 20
140.7668055156
 10
47.2745206396
 20
140.7724771959
 10
46.9898909631
 20
140.7891527701
 10
46.7071926997
 20
140.8168322384
 10
46.425795151
 20
140.8556279883
 10
46.1463290155
 20
140.9054276321
 10
45.8706863883
 20
140.9658940069
 10
45.5988932145
 20
141.0370994938
 10
45.330923549
 20
141.1189717117
 10
45.0685916513
 20
141.2109563534
 10
44.8119357776
 20
141.313122039
 10
44.5609176718
 20
141.4254001486
 10
44.3172368246
 20
141.5470305153
 10
44.0809430245
 20
141.6780766008
 10
43.851986483
 20
141.8184749435
 10
43.6319173256
 20
141.9672749916
 10
43.4207958595
 20
142.1245337567
 10
43.2185617774
 20
142.2901942272
 10
43.0265842832
 20
142.4631348169
 10
42.8449329752
 20
142.6434049266
 10
42.6735382551
 20
142.8309551554
 10
42.5135605323
 20
143.024515715
 10
42.3650772792
 20
143.2241273896
 10
42.2280110235
 20
143.429749395
 10
42.1032897572
 20
143.6399895897
 10
41.9909972499
 20
143.8548793112
 10
41.8910497321
 20
144.0743872221
 10
41.8041238876
 20
144.2970271677
 10
41.7303080777
 20
144.5228204012
 10
41.6695139412
 20
144.7517456694
 10
41.622153078
 20
144.9822530588
 10
41.5883166426
 20
145.2143533051
 10
41.5679134805
 20
145.4480356724
 10
41.5610817293
 20
145.6817180398
  0
LWPOLYLINE
  5
388
100
AcDbEntity
  8
0
100
AcDbPolyline
 62
7
  6
CONTINUOUS
 90
34
 70
0
 10
225.5610817293
 20
140.7668055156
 10
225.2745206396
 20
140.7724771959
 10
224.9898909631
 20
140.7891527701
 10
224.7071926997
 20
140.8168322384
 10
224.425795151
 20
140.8556279883
 10
224.1463290155
 20
140.9054276321
 10
223.8706863883
 20
140.9658940069
 10
223.5988932145
 20
141.0370994938
 10
223.330923549
 20
141.1189717117
 10
223.0685916513
 20
141.2109563534
 10
222.8119357776
 20
141.313122039
 10
222.5609176718
 20
141.4254001486
 10
222.3172368246
 20
141.5470305153
 10
222.0809430245
 20
141.6780766008
 10
221.851986483
 20
141.8184749435
 10
221.6319173256
 20
141.9672749916
 10
221.4207958595
 20
142.1245337567
 10
221.2185617774
 20
142.2901942272
 10
221.0265842832
 20
142.4631348169
 10
220.8449329752
 20
142.6434049266
 10
220.6735382551
 20
142.8309551554
 10
220.5135605323
 20
143.024515715
 10
220.3650772792
 20
143.2241273896
 10
220.2280110235
 20
143.429749395
 10
220.1032897572
 20
143.6399895897
 10
219.9909972499
 20
143.8548793112
 10
219.8910497321
 20
144.0743872221
 10
219.8041238876
 20
144.2970271677
 10
219.7303080777
 20
144.5228204012
 10
219.6695139412
 20
144.7517456694
 10
219.622153078
 20
144.9822530588
 10
219.5883166426
 20
145.2143533051
 10
219.5679134805
 20
145.4480356724
 10
219.5610817293
 20
145.6817180398
  0
LWPOLYLINE
  5
389
100
AcDbEntity
  8
0
100
AcDbPolyline
 62
7
  6
CONTINUOUS
 90
40
 70
0
 10
225.5610817293
 20
140.6848903069
 10
224.9796381707
 20
140.7049003881
 10
224.4092443507
 20
140.7616335092
 10
223.8499002691
 20
140.8550896699
 10
223.2981367368
 20
140.9863466207
 10
222.7574229429
 20
141.1543266111
 10
222.2381664555
 20
141.3557963909
 10
221.740782948
 20
141.5914047281
 10
221.2648567468
 20
141.8605028546
 10
220.8195483993
 20
142.157911215
 10
220.4054510381
 20
142.4841782386
 10
220.0219715306
 20
142.8387554961
 10
219.6764910254
 20
143.2148181443
 10
219.3697456441
 20
143.6127824008
 10
219.1009992652
 20
144.032232048
 10
218.8754246737
 20
144.4650935898
 10
218.6938581987
 20
144.9116268432
 10
218.5554635112
 20
145.3715719911
 10
218.4629044086
 20
145.8360760872
 10
218.4170688236
 20
146.3052274477
 10
218.4170688236
 20
146.7789377563
 10
218.4629044086
 20
147.2480891169
 10
218.5554635112
 20
147.7125932129
 10
218.6938581987
 20
148.1725383609
 10
218.8754246737
 20
148.6190716143
 10
219.1009992652
 20
149.0519331561
 10
219.3697456441
 20
149.4713828033
 10
219.6764910254
 20
149.8693470598
 10
220.0219715306
 20
150.245409708
 10
220.4054510381
 20
150.5999869655
 10
220.8195483993
 20
150.9262539891
 10
221.2648567468
 20
151.2236623495
 10
221.740782948
 20
151.492760476
 10
222.2381664555
 20
151.7283688132
 10
222.7574229429
 20
151.9298385929
 10
223.2981367368
 20
152.0978185834
 10
223.8499002691
 20
152.2290755341
 10
224.4092443507
 20
152.3225316949
 10
224.9796381707
 20
152.3792648159
 10
225.5610817293
 20
152.3992748972
  0
LWPOLYLINE
  5
38A
100
AcDbEntity
  8
0
100
AcDbPolyline
 62
7
  6
CONTINUOUS
 90
20
 70
0
 10
225.5610817293
 20
140.6848903069
 10
224.9727557296
 20
140.7092019085
 10
224.3998995307
 20
140.7766707861
 10
223.8425131326
 20
140.8872969397
 10
223.295857692
 20
141.0428531432
 10
222.7646720523
 20
141.2415666226
 10
222.2631727428
 20
141.4781190565
 10
221.7921614336
 20
141.7535322739
 10
221.3508364548
 20
142.0667844456
 10
220.9510093258
 20
142.4094917632
 10
220.593800683
 20
142.7824496535
 10
220.2780898901
 20
143.1848626896
 10
220.0123265577
 20
143.6059607822
 10
219.7978595011
 20
144.0462485152
 10
219.633339905
 20
144.5052213047
 10
219.5231709338
 20
144.9705953091
 10
219.468820309
 20
145.4425433913
 10
219.468820309
 20
145.9208926883
 10
219.5231709338
 20
146.3928407705
 10
219.5610817293
 20
146.5529829458
  0
LINE
  5
38B
100
AcDbEntity
  8
0
100
AcDbLine
 62
253
  6
CONTINUOUS
 10
177.9898225266
 20
129.5200342611
 11
178.5610817293
 21
129.2906037112
  0
LINE
  5
38C
100
AcDbEntity
  8
0
100
AcDbLine
 62
253
  6
CONTINUOUS
 10
164.0610817293
 20
129.2906037112
 11
163.5009156987
 21
129.749464811
  0
LWPOLYLINE
  5
38D
100
AcDbEntity
  8
RACCORDO
100
AcDbPolyline
 62
253
  6
CONTINUOUS
 90
10
 70
0
 10
156.3702290826
 20
90.0803810964
 10
156.4050836147
 20
90.1189174714
 10
156.4402699888
 20
90.1572753794
 10
156.475691937
 20
90.1953516878
 10
156.5114627588
 20
90.2328442856
 10
156.5472924988
 20
90.2698368115
 10
156.5824794338
 20
90.3068057056
 10
156.616726059
 20
90.3438429233
 10
156.6501479634
 20
90.3806495746
 10
156.6826550026
 20
90.4171252202
  0
LWPOLYLINE
  5
38E
100
AcDbEntity
  8
RACCORDO
100
AcDbPolyline
 62
253
  6
CONTINUOUS
 90
10
 70
0
 10
156.1709154335
 20
90.1224177986
 10
156.214600289
 20
90.1676595324
 10
156.2581260355
 20
90.2138032221
 10
156.3013155013
 20
90.2606623873
 10
156.3440035106
 20
90.3080595994
 10
156.3860041962
 20
90.3557902888
 10
156.4271137706
 20
90.4036229611
 10
156.4671556064
 20
90.4513504309
 10
156.5059788489
 20
90.4987911768
 10
156.5434270916
 20
90.5457527778
  0
LWPOLYLINE
  5
38F
100
AcDbEntity
  8
RACCORDO
100
AcDbPolyline
 62
253
  6
CONTINUOUS
 90
10
 70
0
 10
155.6719771623
 20
90.2157075584
 10
155.7414218197
 20
90.2816162268
 10
155.810121031
 20
90.3529744383
 10
155.8773373457
 20
90.4290161998
 10
155.9423492313
 20
90.508925243
 10
156.0044588187
 20
90.5918437864
 10
156.0629993934
 20
90.6768817427
 10
156.1173425527
 20
90.7631262743
 10
156.1669049506
 20
90.8496515912
 10
156.2111545603
 20
90.9355288897
  0
LINE
  5
390
100
AcDbEntity
  8
0
100
AcDbLine
 62
253
  6
CONTINUOUS
 10
214.1212477599
 20
134.0500132697
 11
213.5610817293
 21
133.5911521699
  0
LINE
  5
391
100
AcDbEntity
  8
0
100
AcDbLine
 62
253
  6
CONTINUOUS
 10
214.1212477599
 20
131.5925570076
 11
213.5610817293
 21
131.1336959078
  0
LINE
  5
392
100
AcDbEntity
  8
RACCORDO
100
AcDbLine
 62
253
  6
CONTINUOUS
 10
239.0631186872
 20
151.2509761022
 11
237.0691149436
 21
151.2509760979
  0
LINE
  5
393
100
AcDbEntity
  8
RACCORDO
100
AcDbLine
 62
253
  6
CONTINUOUS
 10
34.0590447715
 20
151.2509761022
 11
36.0530485149
 21
151.2509760979
  0
LINE
  5
394
100
AcDbEntity
  8
0
100
AcDbLine
 62
253
  6
CONTINUOUS
 10
177.9898225266
 20
131.9774905232
 11
178.5610817293
 21
131.7480599733
  0
LINE
  5
395
100
AcDbEntity
  8
0
100
AcDbLine
 62
253
  6
CONTINUOUS
 10
164.0610817293
 20
131.7480599733
 11
163.5009156987
 21
132.2069210731
  0
LINE
  5
396
100
AcDbEntity
  8
0
100
AcDbLine
 62
7
  6
CONTINUOUS
 10
177.9898225266
 20
131.9774905232
 11
177.9898225266
 21
129.5200342611
  0
LINE
  5
397
100
AcDbEntity
  8
0
100
AcDbLine
 62
7
  6
CONTINUOUS
 10
178.5610817293
 20
131.7480599733
 11
178.5610817293
 21
129.2906037112
  0
LINE
  5
398
100
AcDbEntity
  8
0
100
AcDbLine
 62
7
  6
CONTINUOUS
 10
179.0610817293
 20
131.7480599733
 11
179.0610817293
 21
129.2906037112
  0
LINE
  5
399
100
AcDbEntity
  8
0
100
AcDbLine
 62
7
  6
CONTINUOUS
 10
179.6212477599
 20
132.2069210731
 11
179.6212477599
 21
129.749464811
  0
LWPOLYLINE
  5
39A
100
AcDbEntity
  8
0
100
AcDbPolyline
 62
7
  6
CONTINUOUS
 90
40
 70
0
 10
179.6212477599
 20
129.749464811
 10
179.5937116011
 20
129.212567593
 10
179.5156403424
 20
128.685873556
 10
179.3870339838
 20
128.1693827
 10
179.2064094179
 20
127.6598916219
 10
178.9752497522
 20
127.1606037248
 10
178.6980043088
 20
126.6811292179
 10
178.3737803086
 20
126.2218519286
 10
178.0034705307
 20
125.7823880295
 10
177.5942026352
 20
125.3711962475
 10
177.1452219209
 20
124.9888242736
 10
176.6572830891
 20
124.6347244169
 10
176.1397779041
 20
124.3157123317
 10
175.5921336029
 20
124.0324677425
 10
175.0149229485
 20
123.7843109248
 10
174.4192559941
 20
123.5760183591
 10
173.8047752022
 20
123.4083623006
 10
173.1718381104
 20
123.280570494
 10
172.5326273849
 20
123.1951026547
 10
171.8870214924
 20
123.1527786875
 10
171.2351419662
 20
123.1527786875
 10
170.5895360737
 20
123.1951026547
 10
169.9503253483
 20
123.280570494
 10
169.3173882564
 20
123.4083623006
 10
168.7029074645
 20
123.5760183591
 10
168.1072405102
 20
123.7843109248
 10
167.5300298558
 20
124.0324677425
 10
166.9823855545
 20
124.3157123317
 10
166.4648803695
 20
124.6347244169
 10
165.9769415377
 20
124.9888242736
 10
165.5279608234
 20
125.3711962475
 10
165.118692928
 20
125.7823880295
 10
164.7483831501
 20
126.2218519286
 10
164.4241591498
 20
126.6811292179
 10
164.1469137064
 20
127.1606037248
 10
163.9157540407
 20
127.6598916219
 10
163.7351294748
 20
128.1693827
 10
163.6065231163
 20
128.685873556
 10
163.5284518576
 20
129.212567593
 10
163.5009156987
 20
129.749464811
  0
LWPOLYLINE
  5
39B
100
AcDbEntity
  8
0
100
AcDbPolyline
 62
7
  6
CONTINUOUS
 90
37
 70
0
 10
177.9898225266
 20
129.5200342611
 10
177.9638245043
 20
129.0553900473
 10
177.8908064941
 20
128.6010663042
 10
177.7707684959
 20
128.1570630319
 10
177.6020895032
 20
127.7201745144
 10
177.3863905226
 20
127.2936064677
 10
177.1285345741
 20
126.8869760395
 10
176.8275640152
 20
126.500736135
 10
176.4844364885
 20
126.1344338491
 10
176.1068879416
 20
125.7963276136
 10
175.6941364627
 20
125.4870579333
 10
175.2469639637
 20
125.2059843035
 10
174.775452128
 20
124.959443642
 10
174.2790480603
 20
124.7482204035
 10
173.7583046559
 20
124.5715301333
 10
173.2249622837
 20
124.4333563843
 10
172.6787347441
 20
124.3345741024
 10
172.1199082367
 20
124.2743083416
 10
171.5610817293
 20
124.2539178179
 10
171.0022552219
 20
124.2743083416
 10
170.4434287145
 20
124.3345741024
 10
169.8972011749
 20
124.4333563843
 10
169.3638588027
 20
124.5715301333
 10
168.8431153983
 20
124.7482204035
 10
168.3467113307
 20
124.959443642
 10
167.8751994949
 20
125.2059843035
 10
167.4280269959
 20
125.4870579333
 10
167.015275517
 20
125.7963276136
 10
166.6377269702
 20
126.1344338491
 10
166.2945994434
 20
126.500736135
 10
165.9936288845
 20
126.8869760395
 10
165.735772936
 20
127.2936064677
 10
165.5200739554
 20
127.7201745144
 10
165.3513949627
 20
128.1570630319
 10
165.2313569646
 20
128.6010663042
 10
165.1583389543
 20
129.0553900473
 10
165.132340932
 20
129.5200342611
  0
LWPOLYLINE
  5
39C
100
AcDbEntity
  8
0
100
AcDbPolyline
 62
7
  6
CONTINUOUS
 90
37
 70
0
 10
178.5610817293
 20
129.2906037112
 10
178.5327735175
 20
128.7846711189
 10
178.4532671122
 20
128.2899760764
 10
178.3225625133
 20
127.8065185839
 10
178.1388946713
 20
127.3308080647
 10
177.9040286358
 20
126.8663350954
 10
177.6232595558
 20
126.4235714054
 10
177.2955446924
 20
126.0030101452
 10
176.9219267845
 20
125.6041581643
 10
176.5108291976
 20
125.2360077406
 10
176.0614005392
 20
124.8992562942
 10
175.5744922018
 20
124.5932064051
 10
175.0610817293
 20
124.3247580906
 10
174.5205670962
 20
124.0947655127
 10
173.9535503279
 20
123.9023745094
 10
173.372815045
 20
123.7519226133
 10
172.7780496162
 20
123.6443625178
 10
172.1695656728
 20
123.5787415294
 10
171.5610817293
 20
123.5565390996
 10
170.9525977859
 20
123.5787415294
 10
170.3441138424
 20
123.6443625178
 10
169.7493484136
 20
123.7519226133
 10
169.1686131307
 20
123.9023745094
 10
168.6015963625
 20
124.0947655127
 10
168.0610817293
 20
124.3247580906
 10
167.5476712568
 20
124.5932064051
 10
167.0607629195
 20
124.8992562942
 10
166.611334261
 20
125.2360077406
 10
166.2002366742
 20
125.6041581643
 10
165.8266187662
 20
126.0030101452
 10
165.4989039028
 20
126.4235714054
 10
165.2181348228
 20
126.8663350954
 10
164.9832687873
 20
127.3308080647
 10
164.7996009453
 20
127.8065185839
 10
164.6688963465
 20
128.2899760764
 10
164.5893899411
 20
128.7846711189
 10
164.5610817293
 20
129.2906037112
  0
LWPOLYLINE
  5
39D
100
AcDbEntity
  8
0
100
AcDbPolyline
 62
7
  6
CONTINUOUS
 90
37
 70
0
 10
179.0610817293
 20
129.2906037112
 10
179.0307515024
 20
128.7485330766
 10
178.9455660681
 20
128.2185026739
 10
178.8055254265
 20
127.7005125033
 10
178.6087384529
 20
127.1908226614
 10
178.357096272
 20
126.6931730514
 10
178.0562722577
 20
126.2187833836
 10
177.7051491898
 20
125.7681820333
 10
177.3048442884
 20
125.3408406252
 10
176.8643825882
 20
124.9463937427
 10
176.3828518827
 20
124.5855886216
 10
175.8611643784
 20
124.2576780261
 10
175.3110817293
 20
123.970054832
 10
174.7319589081
 20
123.7236342128
 10
174.1244409421
 20
123.517500995
 10
173.5022245676
 20
123.3563025348
 10
172.8649758938
 20
123.2410595754
 10
172.2130288116
 20
123.1707513736
 10
171.5610817293
 20
123.1469630559
 10
170.9091346471
 20
123.1707513736
 10
170.2571875648
 20
123.2410595754
 10
169.619938891
 20
123.3563025348
 10
168.9977225165
 20
123.517500995
 10
168.3902045505
 20
123.7236342128
 10
167.8110817293
 20
123.970054832
 10
167.2609990802
 20
124.2576780261
 10
166.7393115759
 20
124.5855886216
 10
166.2577808704
 20
124.9463937427
 10
165.8173191702
 20
125.3408406252
 10
165.4170142689
 20
125.7681820333
 10
165.0658912009
 20
126.2187833836
 10
164.7650671866
 20
126.6931730514
 10
164.5134250057
 20
127.1908226614
 10
164.3166380321
 20
127.7005125033
 10
164.1765973905
 20
128.2185026739
 10
164.0914119563
 20
128.7485330766
 10
164.0610817293
 20
129.2906037112
  0
LWPOLYLINE
  5
39E
100
AcDbEntity
  8
RACCORDO
100
AcDbPolyline
 62
253
  6
CONTINUOUS
 90
16
 70
0
 10
39.4132409757
 20
152.8201055043
 10
39.2139364777
 20
152.8061670744
 10
39.0166211591
 20
152.7809185085
 10
38.8232643433
 20
152.7446118659
 10
38.6357958442
 20
152.6976095903
 10
38.4560867105
 20
152.6403808105
 10
38.285930552
 20
152.5734966483
 10
38.1270256316
 20
152.4976246346
 10
37.9809579149
 20
152.413522055
 10
37.8491852463
 20
152.3220283046
 10
37.7330227993
 20
152.2240565101
 10
37.633629945
 20
152.1205845038
 10
37.5519986806
 20
152.0126450557
 10
37.4889437369
 20
151.9013154498
 10
37.4450944455
 20
151.7877067424
 10
37.4208884527
 20
151.6729527545
  0
LWPOLYLINE
  5
39F
100
AcDbEntity
  8
RACCORDO
100
AcDbPolyline
 62
253
  6
CONTINUOUS
 90
16
 70
0
 10
39.4132409757
 20
153.6726481229
 10
39.2057216666
 20
153.6615455397
 10
38.9995462711
 20
153.6285358908
 10
38.7975310369
 20
153.5738314475
 10
38.6026570349
 20
153.4983884
 10
38.4169792997
 20
153.4031968387
 10
38.2418861547
 20
153.2887316806
 10
38.0795890922
 20
153.1564822227
 10
37.9321240717
 20
153.0083318229
 10
37.8007731405
 20
152.8450919363
 10
37.6871590157
 20
152.6690149776
 10
37.5926477839
 20
152.482702918
 10
37.5181902041
 20
152.2872179131
 10
37.4646293747
 20
152.0846905649
 10
37.4322794707
 20
151.8788089128
 10
37.4208884527
 20
151.6729527545
  0
LWPOLYLINE
  5
3A0
100
AcDbEntity
  8
0
100
AcDbPolyline
 62
7
  6
CONTINUOUS
 90
22
 70
0
 10
36.5606753889
 20
154.4420862643
 10
36.3353417584
 20
154.4334761118
 10
36.1134627208
 20
154.4085487823
 10
35.8950382761
 20
154.367304276
 10
35.6788022451
 20
154.3093310444
 10
35.466020807
 20
154.2350406359
 10
35.2604924994
 20
154.1456676955
 10
35.0624246963
 20
154.0409595383
 10
34.8716100237
 20
153.9211688492
 10
34.6912248979
 20
153.7882883269
 10
34.5214439176
 20
153.6420987573
 10
34.3620924841
 20
153.4828193545
 10
34.2158232179
 20
153.3131004594
 10
34.0828551074
 20
153.1327672297
 10
33.9629691642
 20
152.9419945077
 10
33.8581610441
 20
152.7439571615
 10
33.768683232
 20
152.5385020284
 10
33.6942832429
 20
152.3257822709
 10
33.636199278
 20
152.1094322458
 10
33.5948440709
 20
151.890663405
 10
33.569804888
 20
151.6682642964
 10
33.5610817293
 20
151.4422349201
  0
LWPOLYLINE
  5
3A1
100
AcDbEntity
  8
0
100
AcDbPolyline
 62
7
  6
CONTINUOUS
 90
40
 70
0
 10
47.5610817293
 20
152.3992748972
 10
46.9796381707
 20
152.3792648159
 10
46.4092443507
 20
152.3225316949
 10
45.8499002691
 20
152.2290755341
 10
45.2981367368
 20
152.0978185834
 10
44.7574229429
 20
151.9298385929
 10
44.2381664555
 20
151.7283688132
 10
43.740782948
 20
151.492760476
 10
43.2648567468
 20
151.2236623495
 10
42.8195483993
 20
150.9262539891
 10
42.4054510381
 20
150.5999869655
 10
42.0219715306
 20
150.245409708
 10
41.6764910254
 20
149.8693470598
 10
41.3697456441
 20
149.4713828033
 10
41.1009992652
 20
149.0519331561
 10
40.8754246737
 20
148.6190716143
 10
40.6938581987
 20
148.1725383609
 10
40.5554635112
 20
147.7125932129
 10
40.4629044086
 20
147.2480891169
 10
40.4170688236
 20
146.7789377563
 10
40.4170688236
 20
146.3052274477
 10
40.4629044086
 20
145.8360760872
 10
40.5554635112
 20
145.3715719911
 10
40.6938581987
 20
144.9116268432
 10
40.8754246737
 20
144.4650935898
 10
41.1009992652
 20
144.032232048
 10
41.3697456441
 20
143.6127824008
 10
41.6764910254
 20
143.2148181443
 10
42.0219715306
 20
142.8387554961
 10
42.4054510381
 20
142.4841782386
 10
42.8195483993
 20
142.157911215
 10
43.2648567468
 20
141.8605028546
 10
43.740782948
 20
141.5914047281
 10
44.2381664555
 20
141.3557963909
 10
44.7574229429
 20
141.1543266111
 10
45.2981367368
 20
140.9863466207
 10
45.8499002691
 20
140.8550896699
 10
46.4092443507
 20
140.7616335092
 10
46.9796381707
 20
140.7049003881
 10
47.5610817293
 20
140.6848903069
  0
LINE
  5
3A2
100
AcDbEntity
  8
RACCORDO
100
AcDbLine
 62
253
  6
CONTINUOUS
 10
39.4139414549
 20
152.8201055043
 11
233.7082356858
 21
152.8201055043
  0
LINE
  5
3A3
100
AcDbEntity
  8
RACCORDO
100
AcDbLine
 62
253
  6
CONTINUOUS
 10
39.4132368836
 20
153.6726481229
 11
233.708926575
 21
153.6726481229
  0
LINE
  5
3A4
100
AcDbEntity
  8
RACCORDO
100
AcDbLine
 62
7
  6
CONTINUOUS
 10
38.1758441043
 20
154.0343215545
 11
234.9463193543
 21
154.0343215545
  0
LINE
  5
3A5
100
AcDbEntity
  8
RACCORDO
100
AcDbLine
 62
253
  6
CONTINUOUS
 10
37.0547127652
 20
154.2494731422
 11
236.0674506933
 21
154.2494731422
  0
LINE
  5
3A6
100
AcDbEntity
  8
0
100
AcDbLine
 62
7
  6
CONTINUOUS
 10
36.5606753889
 20
154.4420862643
 11
236.5614880698
 21
154.4420862643
  0
LWPOLYLINE
  5
3A7
100
AcDbEntity
  8
0
100
AcDbPolyline
 62
7
  6
CONTINUOUS
 90
40
 70
0
 10
225.5610817293
 20
152.3992748972
 10
226.1425252879
 20
152.3792648159
 10
226.712919108
 20
152.3225316949
 10
227.2722631895
 20
152.2290755341
 10
227.8240267218
 20
152.0978185834
 10
228.3647405157
 20
151.9298385929
 10
228.8839970031
 20
151.7283688132
 10
229.3813805107
 20
151.492760476
 10
229.8573067118
 20
151.2236623495
 10
230.3026150593
 20
150.9262539891
 10
230.7167124205
 20
150.5999869655
 10
231.1001919281
 20
150.245409708
 10
231.4456724332
 20
149.8693470598
 10
231.7524178145
 20
149.4713828033
 10
232.0211641934
 20
149.0519331561
 10
232.2467387849
 20
148.6190716143
 10
232.4283052599
 20
148.1725383609
 10
232.5666999474
 20
147.7125932129
 10
232.65925905
 20
147.2480891169
 10
232.705094635
 20
146.7789377563
 10
232.705094635
 20
146.3052274477
 10
232.65925905
 20
145.8360760872
 10
232.5666999474
 20
145.3715719911
 10
232.4283052599
 20
144.9116268432
 10
232.2467387849
 20
144.4650935898
 10
232.0211641934
 20
144.032232048
 10
231.7524178145
 20
143.6127824008
 10
231.4456724332
 20
143.2148181443
 10
231.1001919281
 20
142.8387554961
 10
230.7167124205
 20
142.4841782386
 10
230.3026150593
 20
142.157911215
 10
229.8573067118
 20
141.8605028546
 10
229.3813805107
 20
141.5914047281
 10
228.8839970031
 20
141.3557963909
 10
228.3647405157
 20
141.1543266111
 10
227.8240267218
 20
140.9863466207
 10
227.2722631895
 20
140.8550896699
 10
226.712919108
 20
140.7616335092
 10
226.1425252879
 20
140.7049003881
 10
225.5610817293
 20
140.6848903069
  0
LWPOLYLINE
  5
3A8
100
AcDbEntity
  8
RACCORDO
100
AcDbPolyline
 62
7
  6
CONTINUOUS
 90
10
 70
0
 10
234.9463193543
 20
154.0343215545
 10
235.072931047
 20
154.0291686244
 10
235.1992222339
 20
154.0167296332
 10
235.3251929151
 20
153.9964520332
 10
235.451096258
 20
153.9667674037
 10
235.5766790952
 20
153.9271550238
 10
235.7011819243
 20
153.8786084473
 10
235.8243515778
 20
153.8208605983
 10
235.9464412231
 20
153.7519779123
 10
236.0674508604
 20
153.6707512278
  0
LWPOLYLINE
  5
3A9
100
AcDbEntity
  8
RACCORDO
100
AcDbPolyline
 62
253
  6
CONTINUOUS
 90
19
 70
0
 10
236.0674506937
 20
154.2493544563
 10
236.3286428283
 20
154.2377214067
 10
236.5878838706
 20
154.2034186457
 10
236.8430002971
 20
154.1465729968
 10
237.0921022435
 20
154.0677236075
 10
237.3333643101
 20
153.9675218452
 10
237.5649683998
 20
153.8466479401
 10
237.7851861777
 20
153.7060347458
 10
237.9923904452
 20
153.54683813
 10
238.1849756787
 20
153.3702176553
 10
238.3614016596
 20
153.1774235011
 10
238.5204198431
 20
152.9700169344
 10
238.6608650155
 20
152.7496068705
 10
238.7815692024
 20
152.5178079652
 10
238.8816294005
 20
152.2763535483
 10
238.9603760456
 20
152.0270596437
 10
239.0171372509
 20
151.7717415636
 10
239.0513791023
 20
151.5123124533
 10
239.0629996355
 20
151.2509760718
  0
LWPOLYLINE
  5
3AA
100
AcDbEntity
  8
RACCORDO
100
AcDbPolyline
 62
253
  6
CONTINUOUS
 90
16
 70
0
 10
233.7089224829
 20
153.6726481229
 10
233.9168531191
 20
153.6613852522
 10
234.1215409049
 20
153.628638341
 10
234.3214931745
 20
153.5748545194
 10
234.5154314804
 20
153.5002577226
 10
234.7014243392
 20
153.4053138224
 10
234.87672964
 20
153.2913278038
 10
235.0390211078
 20
153.159751385
 10
235.1868738037
 20
153.0116623627
 10
235.3187260598
 20
152.8487170913
 10
235.4326651421
 20
152.6731689152
 10
235.5275048469
 20
152.4868769912
 10
235.60269265
 20
152.2913008839
 10
235.6572709977
 20
152.0885851738
 10
235.6902530833
 20
151.8815843979
 10
235.7012750059
 20
151.6729527545
  0
LWPOLYLINE
  5
3AB
100
AcDbEntity
  8
RACCORDO
100
AcDbPolyline
 62
253
  6
CONTINUOUS
 90
16
 70
0
 10
233.7089224829
 20
152.8201055043
 10
233.9088787701
 20
152.8063187997
 10
234.1051903505
 20
152.7810796359
 10
234.2969350085
 20
152.7449064378
 10
234.4838866342
 20
152.6983577504
 10
234.6642427984
 20
152.6414160181
 10
234.8346743068
 20
152.5743014482
 10
234.9935952405
 20
152.4984706573
 10
235.1401885423
 20
152.4145261113
 10
235.2723402229
 20
152.3224828888
 10
235.3885889132
 20
152.2243264835
 10
235.4881500017
 20
152.121323474
 10
235.5699714745
 20
152.0129356459
 10
235.6331300238
 20
151.9003300435
 10
235.677015269
 20
151.7863072245
 10
235.7012750059
 20
151.6729527545
  0
LINE
  5
3AC
100
AcDbEntity
  8
0
100
AcDbLine
 62
253
  6
CONTINUOUS
 10
213.0610817293
 20
131.1336959078
 11
212.4898225266
 21
131.3631264577
  0
LINE
  5
3AD
100
AcDbEntity
  8
0
100
AcDbLine
 62
253
  6
CONTINUOUS
 10
236.0721103107
 20
74.9400507334
 11
236.5612855168
 21
74.4420877156
  0
LWPOLYLINE
  5
3AE
100
AcDbEntity
  8
0
100
AcDbPolyline
 62
253
  6
CONTINUOUS
 90
10
 70
0
 10
236.5614880698
 20
154.4420862643
 10
236.5426549985
 20
154.4206591466
 10
236.5148066684
 20
154.3992382029
 10
236.4779430795
 20
154.3778234333
 10
236.4320638769
 20
154.3564145164
 10
236.3771694154
 20
154.3350117736
 10
236.3132607598
 20
154.3136161684
 10
236.240338265
 20
154.292228022
 10
236.1584015762
 20
154.2708470133
 10
236.0674506933
 20
154.2494731422
  0
LWPOLYLINE
  5
3AF
100
AcDbEntity
  8
0
100
AcDbPolyline
 62
253
  6
CONTINUOUS
 90
10
 70
0
 10
239.5610817294
 20
151.4422453354
 10
239.5419543156
 20
151.420968356
 10
239.5137719002
 20
151.3996974173
 10
239.4765370265
 20
151.3784325191
 10
239.4302548873
 20
151.3571734349
 10
239.3749275936
 20
151.3359203912
 10
239.3105503159
 20
151.3146740681
 10
239.237120727
 20
151.2934346923
 10
239.1546428622
 20
151.272202037
 10
239.0631186872
 20
151.2509761022
  0
LWPOLYLINE
  5
3B0
100
AcDbEntity
  8
0
100
AcDbPolyline
 62
7
  6
CONTINUOUS
 90
33
 70
0
 10
218.5432828766
 20
117.9303002531
 10
218.5793634439
 20
117.9567388559
 10
218.7993175265
 20
118.1092544965
 10
219.0270946526
 20
118.2527325619
 10
219.2618196272
 20
118.3867100644
 10
219.5033967557
 20
118.5112103497
 10
219.7513097581
 20
118.6260051137
 10
220.0050221421
 20
118.730881273
 10
220.2640814201
 20
118.8256788154
 10
220.5280880847
 20
118.9102603338
 10
220.7967664038
 20
118.9845168727
 10
221.0693826613
 20
119.0482179108
 10
221.3448198156
 20
119.1011191769
 10
221.62235142
 20
119.143137974
 10
221.901618547
 20
119.1742686189
 10
222.1820299204
 20
119.1944779466
 10
222.4630435481
 20
119.2037551053
 10
222.7441220422
 20
119.2021030657
 10
223.0246801983
 20
119.1895412523
 10
223.3041807637
 20
119.1661052369
 10
223.5820923116
 20
119.1318437703
 10
223.8578433862
 20
119.0868264949
 10
224.1311091746
 20
119.031088307
 10
224.4011595205
 20
118.9647523529
 10
224.6668470966
 20
118.8881200471
 10
224.9273935427
 20
118.801488954
 10
225.1826285832
 20
118.7049826476
 10
225.4323450829
 20
118.598701883
 10
225.6761677398
 20
118.4827961913
 10
225.9135346186
 20
118.3575150027
 10
226.1439593334
 20
118.2230998089
 10
226.3673676441
 20
118.0795403587
 10
226.5788521932
 20
117.9303212202
  0
LINE
  5
3B1
100
AcDbEntity
  8
0
100
AcDbLine
 62
253
  6
CONTINUOUS
 10
213.0610817293
 20
133.5911521699
 11
212.4898225266
 21
133.8205827198
  0
LWPOLYLINE
  5
3B2
100
AcDbEntity
  8
0
100
AcDbPolyline
 62
7
  6
CONTINUOUS
 90
17
 70
0
 10
219.8499835205
 20
111.8174854263
 10
219.6986183655
 20
111.9352413573
 10
219.5527315147
 20
112.0611717832
 10
219.4150903427
 20
112.1931839564
 10
219.2860721144
 20
112.3309160408
 10
219.1660304599
 20
112.4739905221
 10
219.0552944049
 20
112.6220152434
 10
218.9541674693
 20
112.774584479
 10
218.8629268349
 20
112.9312800472
 10
218.7818225861
 20
113.0916724566
 10
218.7110770238
 20
113.2553220825
 10
218.6508840569
 20
113.4217803727
 10
218.60140867
 20
113.5905910767
 10
218.5627864717
 20
113.761291496
 10
218.5351233228
 20
113.9334137527
 10
218.518495046
 20
114.1064860716
 10
218.5129472184
 20
114.2800340735
  0
LINE
  5
3B3
100
AcDbEntity
  8
0
100
AcDbLine
 62
253
  6
CONTINUOUS
 10
239.0631187229
 20
77.9310591549
 11
239.561081729
 21
77.4418839241
  0
LWPOLYLINE
  5
3B4
100
AcDbEntity
  8
0
100
AcDbPolyline
 62
7
  6
CONTINUOUS
 90
32
 70
0
 10
225.2721736811
 20
111.8174808041
 10
225.139779269
 20
111.7240086411
 10
224.9923819323
 20
111.6293249397
 10
224.8388950165
 20
111.5400729396
 10
224.6799359671
 20
111.4566559533
 10
224.5157106763
 20
111.3792154908
 10
224.346578718
 20
111.3079676657
 10
224.1730555621
 20
111.2431667397
 10
223.9955738852
 20
111.1849995908
 10
223.8147243052
 20
111.1336712043
 10
223.6308805786
 20
111.0892911865
 10
223.4441391221
 20
111.0519104849
 10
223.2548600669
 20
111.0216530131
 10
223.0636675248
 20
110.9986627228
 10
222.8710465358
 20
110.9830284603
 10
222.6775087255
 20
110.974816475
 10
222.4835753958
 20
110.9740664291
 10
222.2897516894
 20
110.9807914859
 10
222.0965566435
 20
110.9949788396
 10
221.9045139822
 20
111.0165880687
 10
221.7141356732
 20
111.0455524776
 10
221.5260480051
 20
111.0817536324
 10
221.3406363719
 20
111.1250865922
 10
221.1580606853
 20
111.175503853
 10
220.9787276558
 20
111.2329031034
 10
220.8032292738
 20
111.2970970049
 10
220.6320153825
 20
111.3679106312
 10
220.465602034
 20
111.4451102132
 10
220.3043941196
 20
111.5284782471
 10
220.1486784787
 20
111.6178433054
 10
219.9990951004
 20
111.712798637
 10
219.8499835205
 20
111.8174854263
  0
LWPOLYLINE
  5
3B5
100
AcDbEntity
  8
0
100
AcDbPolyline
 62
7
  6
CONTINUOUS
 90
21
 70
0
 10
226.5788521932
 20
117.9303212202
 10
226.6146229738
 20
117.9036875003
 10
226.8037224154
 20
117.7554018664
 10
226.9847457492
 20
117.6005006723
 10
227.1573483872
 20
117.4392787814
 10
227.3212017703
 20
117.2720430886
 10
227.4759939944
 20
117.0991119366
 10
227.6214304036
 20
116.9208145097
 10
227.7572341515
 20
116.737490207
 10
227.883146728
 20
116.549487997
 10
227.9989284512
 20
116.3571657524
 10
228.1043589241
 20
116.1608895697
 10
228.1992374538
 20
115.9610330715
 10
228.2833834336
 20
115.7579766963
 10
228.3566366869
 20
115.5521069732
 10
228.4188577719
 20
115.3438157871
 10
228.4699282473
 20
115.1334996321
 10
228.5097508975
 20
114.9215588568
 10
228.5382499178
 20
114.7083969027
 10
228.5553710588
 20
114.4944195355
 10
228.5610817293
 20
114.2800340735
  0
LINE
  5
3B6
100
AcDbEntity
  8
0
100
AcDbLine
 62
253
  6
CONTINUOUS
 10
208.5009156987
 20
131.5925570076
 11
209.0610817293
 21
131.1336959078
  0
LINE
  5
3B7
100
AcDbEntity
  8
0
100
AcDbLine
 62
253
  6
CONTINUOUS
 10
208.5009156987
 20
134.0500132697
 11
209.0610817293
 21
133.5911521699
  0
LWPOLYLINE
  5
3B8
100
AcDbEntity
  8
0
100
AcDbPolyline
 62
7
  6
CONTINUOUS
 90
25
 70
0
 10
209.5610817293
 20
131.1336959078
 10
209.5781362802
 20
130.941555306
 10
209.6225398862
 20
130.7586943454
 10
209.6942925474
 20
130.585113026
 10
209.795533262
 20
130.4181890479
 10
209.9241230318
 20
130.2605447109
 10
210.0736448622
 20
130.1200469151
 10
210.2451609921
 20
129.9975657956
 10
210.4376091826
 20
129.8922312173
 10
210.6413857227
 20
129.8092996746
 10
210.8570654918
 20
129.7499080539
 10
211.0840736106
 20
129.7129194689
 10
211.3110817293
 20
129.7001797549
 10
211.5380898481
 20
129.7129194689
 10
211.7650979668
 20
129.7499080539
 10
211.980777736
 20
129.8092996746
 10
212.184554276
 20
129.8922312173
 10
212.3770024665
 20
129.9975657956
 10
212.5485185964
 20
130.1200469151
 10
212.6980404268
 20
130.2605447109
 10
212.8266301966
 20
130.4181890479
 10
212.9278709112
 20
130.585113026
 10
212.9996235724
 20
130.7586943454
 10
213.0440271785
 20
130.941555306
 10
213.0610817293
 20
131.1336959078
  0
LWPOLYLINE
  5
3B9
100
AcDbEntity
  8
0
100
AcDbPolyline
 62
7
  6
CONTINUOUS
 90
28
 70
0
 10
209.0610817293
 20
131.1336959078
 10
209.0779770641
 20
130.9151229679
 10
209.1232075985
 20
130.7049980822
 10
209.1967733325
 20
130.5033212505
 10
209.3004196439
 20
130.3076161083
 10
209.4324011549
 20
130.1203590202
 10
209.5874817323
 20
129.9489790803
 10
209.7665900721
 20
129.7941146281
 10
209.9687974783
 20
129.6551273241
 10
210.1860817293
 20
129.537531244
 10
210.4190489884
 20
129.4421864203
 10
210.6670930924
 20
129.3682328205
 10
210.9203733296
 20
129.3186044231
 10
211.1791002183
 20
129.2942792207
 10
211.4430632403
 20
129.2942792207
 10
211.7017901291
 20
129.3186044231
 10
211.9550703662
 20
129.3682328205
 10
212.2031144702
 20
129.4421864203
 10
212.4360817293
 20
129.537531244
 10
212.6533659803
 20
129.6551273241
 10
212.8555733865
 20
129.7941146281
 10
213.0346817263
 20
129.9489790803
 10
213.1897623037
 20
130.1203590202
 10
213.3217438147
 20
130.3076161083
 10
213.4253901261
 20
130.5033212505
 10
213.4989558601
 20
130.7049980822
 10
213.5441863945
 20
130.9151229679
 10
213.5610817293
 20
131.1336959078
  0
LWPOLYLINE
  5
3BA
100
AcDbEntity
  8
0
100
AcDbPolyline
 62
7
  6
CONTINUOUS
 90
31
 70
0
 10
208.5009156987
 20
131.5925570076
 10
208.5176937678
 20
131.3477059726
 10
208.5635402063
 20
131.1105917354
 10
208.6384550141
 20
130.8812142961
 10
208.7438853037
 20
130.6572471659
 10
208.8783839627
 20
130.4410168336
 10
209.0376096536
 20
130.2395027654
 10
209.2223691944
 20
130.053185138
 10
209.4318557671
 20
129.8815837747
 10
209.6593075801
 20
129.7302376112
 10
209.9053108209
 20
129.5998075542
 10
210.169279302
 20
129.4896326969
 10
210.4426926689
 20
129.4032692551
 10
210.7258590985
 20
129.3414941711
 10
211.0184704139
 20
129.3035305026
 10
211.3110817293
 20
129.2906036378
 10
211.6036930447
 20
129.3035305026
 10
211.8963043601
 20
129.3414941711
 10
212.1794707898
 20
129.4032692551
 10
212.4528841566
 20
129.4896326969
 10
212.7168526377
 20
129.5998075542
 10
212.9628558786
 20
129.7302376112
 10
213.1903076915
 20
129.8815837747
 10
213.3997942642
 20
130.053185138
 10
213.5845538051
 20
130.2395027654
 10
213.7437794959
 20
130.4410168336
 10
213.8782781549
 20
130.6572471659
 10
213.9837084446
 20
130.8812142961
 10
214.0586232524
 20
131.1105917354
 10
214.1044696908
 20
131.3477059726
 10
214.1212477599
 20
131.5925570076
  0
LINE
  5
3BB
100
AcDbEntity
  8
0
100
AcDbLine
 62
7
  6
CONTINUOUS
 10
208.5009156987
 20
134.0500132697
 11
208.5009156987
 21
131.5925570076
  0
LINE
  5
3BC
100
AcDbEntity
  8
0
100
AcDbLine
 62
7
  6
CONTINUOUS
 10
209.0610817293
 20
133.5911521699
 11
209.0610817293
 21
131.1336959078
  0
LINE
  5
3BD
100
AcDbEntity
  8
0
100
AcDbLine
 62
7
  6
CONTINUOUS
 10
209.5610817293
 20
133.5911521699
 11
209.5610817293
 21
131.1336959078
  0
LINE
  5
3BE
100
AcDbEntity
  8
0
100
AcDbLine
 62
7
  6
CONTINUOUS
 10
210.132340932
 20
133.8205827198
 11
210.132340932
 21
131.3631264577
  0
LWPOLYLINE
  5
3BF
100
AcDbEntity
  8
RACCORDO
100
AcDbPolyline
 62
253
  6
CONTINUOUS
 90
13
 70
0
 10
236.9097758568
 20
79.0926815575
 10
236.7426899225
 20
79.391108604
 10
236.530024944
 20
79.8143832405
 10
236.2720585061
 20
80.3625054668
 10
235.9687513336
 20
81.0357218679
 10
235.6206226611
 20
81.8337858588
 10
235.2291978135
 20
82.7559576854
 10
234.7951371105
 20
83.8029442023
 10
234.3191664637
 20
84.9740385549
 10
233.8037406298
 20
86.2663804247
 10
233.2506101634
 20
87.6790163722
 10
232.6603466194
 20
89.2128998369
 10
232.0340530831
 20
90.8680308189
  0
LWPOLYLINE
  5
3C0
100
AcDbEntity
  8
RACCORDO
100
AcDbPolyline
 62
253
  6
CONTINUOUS
 90
13
 70
0
 10
234.9125223859
 20
77.0933773087
 10
234.746078281
 20
77.3955729729
 10
234.5348402226
 20
77.8241751869
 10
234.2788082105
 20
78.3794406316
 10
233.9771605871
 20
79.0615809565
 10
233.6307190101
 20
79.8705687054
 10
233.2419484526
 20
80.8060143866
 10
232.8102984333
 20
81.86758656
 10
232.3363194336
 20
83.05483561
 10
231.8241278708
 20
84.3667979318
 10
231.275095884
 20
85.8025321996
 10
230.6878513342
 20
87.361236636
 10
230.0623942214
 20
89.0418698469
  0
LWPOLYLINE
  5
3C1
100
AcDbEntity
  8
0
100
AcDbPolyline
 62
7
  6
CONTINUOUS
 90
22
 70
0
 10
210.132340932
 20
131.3631264577
 10
210.1478800706
 20
131.2142587034
 10
210.1867907491
 20
131.0746106209
 10
210.2490729676
 20
130.9441822102
 10
210.337126037
 20
130.820508937
 10
210.4485506463
 20
130.7060553357
 10
210.5761488632
 20
130.6082150089
 10
210.7209884813
 20
130.5280847775
 10
210.8820017069
 20
130.4645678207
 10
211.0487872262
 20
130.4217672784
 10
211.2217261304
 20
130.4010508639
 10
211.4004373282
 20
130.4010508639
 10
211.5733762324
 20
130.4217672784
 10
211.7401617517
 20
130.4645678207
 10
211.9011749773
 20
130.5280847775
 10
212.0460145955
 20
130.6082150089
 10
212.1736128123
 20
130.7060553357
 10
212.2850374217
 20
130.820508937
 10
212.373090491
 20
130.9441822102
 10
212.4353727095
 20
131.0746106209
 10
212.4742833881
 20
131.2142587034
 10
212.4898225266
 20
131.3631264577
  0
LWPOLYLINE
  5
3C2
100
AcDbEntity
  8
0
100
AcDbPolyline
 62
7
  6
CONTINUOUS
 90
22
 70
0
 10
212.4898225266
 20
133.8205827198
 10
212.4742833881
 20
133.9694504741
 10
212.4353727095
 20
134.1090985566
 10
212.373090491
 20
134.2395269673
 10
212.2850374217
 20
134.3632002404
 10
212.1736128123
 20
134.4776538418
 10
212.0460145955
 20
134.5754941686
 10
211.9011749773
 20
134.6556243999
 10
211.7401617517
 20
134.7191413567
 10
211.5733762324
 20
134.7619418991
 10
211.4004373282
 20
134.7826583136
 10
211.2217261304
 20
134.7826583136
 10
211.0487872262
 20
134.7619418991
 10
210.8820017069
 20
134.7191413567
 10
210.7209884813
 20
134.6556243999
 10
210.5761488632
 20
134.5754941686
 10
210.4485506463
 20
134.4776538418
 10
210.337126037
 20
134.3632002404
 10
210.2490729676
 20
134.2395269673
 10
210.1867907491
 20
134.1090985566
 10
210.1478800706
 20
133.9694504741
 10
210.132340932
 20
133.8205827198
  0
LWPOLYLINE
  5
3C3
100
AcDbEntity
  8
0
100
AcDbPolyline
 62
7
  6
CONTINUOUS
 90
25
 70
0
 10
213.0610817293
 20
133.5911521699
 10
213.0440271785
 20
133.7832927716
 10
212.9996235724
 20
133.9661537322
 10
212.9278709112
 20
134.1397350516
 10
212.8266301966
 20
134.3066590297
 10
212.6980404268
 20
134.4643033667
 10
212.5485185964
 20
134.6048011625
 10
212.3770024665
 20
134.727282282
 10
212.184554276
 20
134.8326168603
 10
211.980777736
 20
134.915548403
 10
211.7650979668
 20
134.9749400237
 10
211.5380898481
 20
135.0119286088
 10
211.3110817293
 20
135.0246683227
 10
211.0840736106
 20
135.0119286088
 10
210.8570654918
 20
134.9749400237
 10
210.6413857227
 20
134.915548403
 10
210.4376091826
 20
134.8326168603
 10
210.2451609921
 20
134.727282282
 10
210.0736448622
 20
134.6048011625
 10
209.9241230318
 20
134.4643033667
 10
209.795533262
 20
134.3066590297
 10
209.6942925474
 20
134.1397350516
 10
209.6225398862
 20
133.9661537322
 10
209.5781362802
 20
133.7832927716
 10
209.5610817293
 20
133.5911521699
  0
LWPOLYLINE
  5
3C4
100
AcDbEntity
  8
0
100
AcDbPolyline
 62
7
  6
CONTINUOUS
 90
28
 70
0
 10
213.5610817293
 20
133.5911521699
 10
213.5441863945
 20
133.8097251097
 10
213.4989558601
 20
134.0198499955
 10
213.4253901261
 20
134.2215268271
 10
213.3217438147
 20
134.4172319693
 10
213.1897623037
 20
134.6044890574
 10
213.0346817263
 20
134.7758689973
 10
212.8555733865
 20
134.9307334495
 10
212.6533659803
 20
135.0697207535
 10
212.4360817293
 20
135.1873168336
 10
212.2031144702
 20
135.2826616573
 10
211.9550703662
 20
135.3566152571
 10
211.7017901291
 20
135.4062436546
 10
211.4430632403
 20
135.4305688569
 10
211.1791002183
 20
135.4305688569
 10
210.9203733296
 20
135.4062436546
 10
210.6670930924
 20
135.3566152571
 10
210.4190489884
 20
135.2826616573
 10
210.1860817293
 20
135.1873168336
 10
209.9687974783
 20
135.0697207535
 10
209.7665900721
 20
134.9307334495
 10
209.5874817323
 20
134.7758689973
 10
209.4324011549
 20
134.6044890574
 10
209.3004196439
 20
134.4172319693
 10
209.1967733325
 20
134.2215268271
 10
209.1232075985
 20
134.0198499955
 10
209.0779770641
 20
133.8097251097
 10
209.0610817293
 20
133.5911521699
  0
LWPOLYLINE
  5
3C5
100
AcDbEntity
  8
0
100
AcDbPolyline
 62
7
  6
CONTINUOUS
 90
31
 70
0
 10
214.1212477599
 20
134.0500132697
 10
214.1044696908
 20
134.2948643048
 10
214.0586232524
 20
134.5319785419
 10
213.9837084446
 20
134.7613559812
 10
213.8782781549
 20
134.9853231114
 10
213.7437794959
 20
135.2015534437
 10
213.5845538051
 20
135.4030675119
 10
213.3997942642
 20
135.5893851393
 10
213.1903076915
 20
135.7609865026
 10
212.9628558786
 20
135.9123326661
 10
212.7168526377
 20
136.0427627232
 10
212.4528841566
 20
136.1529375804
 10
212.1794707898
 20
136.2393010223
 10
211.8963043601
 20
136.3010761062
 10
211.6036930447
 20
136.3390397748
 10
211.3110817293
 20
136.3519666395
 10
211.0184704139
 20
136.3390397748
 10
210.7258590985
 20
136.3010761062
 10
210.4426926689
 20
136.2393010223
 10
210.169279302
 20
136.1529375804
 10
209.9053108209
 20
136.0427627232
 10
209.6593075801
 20
135.9123326661
 10
209.4318557671
 20
135.7609865026
 10
209.2223691944
 20
135.5893851393
 10
209.0376096536
 20
135.4030675119
 10
208.8783839627
 20
135.2015534437
 10
208.7438853037
 20
134.9853231114
 10
208.6384550141
 20
134.7613559812
 10
208.5635402063
 20
134.5319785419
 10
208.5176937678
 20
134.2948643048
 10
208.5009156987
 20
134.0500132697
  0
LINE
  5
3C6
100
AcDbEntity
  8
0
100
AcDbLine
 62
7
  6
CONTINUOUS
 10
212.4898225266
 20
131.3631264577
 11
212.4898225266
 21
133.8205827198
  0
LINE
  5
3C7
100
AcDbEntity
  8
0
100
AcDbLine
 62
7
  6
CONTINUOUS
 10
213.0610817293
 20
131.1336959078
 11
213.0610817293
 21
133.5911521699
  0
LINE
  5
3C8
100
AcDbEntity
  8
0
100
AcDbLine
 62
7
  6
CONTINUOUS
 10
213.5610817293
 20
131.1336959078
 11
213.5610817293
 21
133.5911521699
  0
LINE
  5
3C9
100
AcDbEntity
  8
0
100
AcDbLine
 62
7
  6
CONTINUOUS
 10
214.1212477599
 20
131.5925570076
 11
214.1212477599
 21
134.0500132697
  0
LINE
  5
3CA
100
AcDbEntity
  8
0
100
AcDbLine
 62
7
  6
CONTINUOUS
 10
216.5610817293
 20
114.2800340735
 11
216.5610817293
 21
113.2432952139
  0
LWPOLYLINE
  5
3CB
100
AcDbEntity
  8
0
100
AcDbPolyline
 62
7
  6
CONTINUOUS
 90
21
 70
0
 10
216.5610817293
 20
114.2800340735
 10
216.5667923998
 20
114.4944195355
 10
216.5839135408
 20
114.7083969027
 10
216.6124125611
 20
114.9215588568
 10
216.6522352113
 20
115.1334996321
 10
216.7033056867
 20
115.3438157871
 10
216.7655267717
 20
115.5521069732
 10
216.838780025
 20
115.7579766963
 10
216.9229260048
 20
115.9610330715
 10
217.0178045345
 20
116.1608895697
 10
217.1232350074
 20
116.3571657524
 10
217.2390167307
 20
116.549487997
 10
217.3649293071
 20
116.737490207
 10
217.500733055
 20
116.9208145097
 10
217.6461694642
 20
117.0991119366
 10
217.8009616883
 20
117.2720430886
 10
217.9648150715
 20
117.4392787814
 10
218.1374177094
 20
117.6005006723
 10
218.3184410433
 20
117.7554018664
 10
218.5075404848
 20
117.9036875003
 10
218.5432828766
 20
117.9303002531
  0
LWPOLYLINE
  5
3CC
100
AcDbEntity
  8
0
100
AcDbPolyline
 62
7
  6
CONTINUOUS
 90
17
 70
0
 10
222.8499835205
 20
144.2559080115
 10
222.6986183655
 20
144.3736639486
 10
222.5527315147
 20
144.4995943812
 10
222.4150903427
 20
144.6316065613
 10
222.2860721144
 20
144.7693386529
 10
222.1660304599
 20
144.9124131418
 10
222.0552944049
 20
145.0604378708
 10
221.9541674693
 20
145.2130071144
 10
221.8629268349
 20
145.369702691
 10
221.7818225861
 20
145.5300951087
 10
221.7110770238
 20
145.6937447432
 10
221.6508840569
 20
145.8602030423
 10
221.60140867
 20
146.0290137551
 10
221.5627864717
 20
146.1997141834
 10
221.5351233228
 20
146.3718364491
 10
221.518495046
 20
146.5449087771
 10
221.5129472184
 20
146.7184567881
  0
LINE
  5
3CD
100
AcDbEntity
  8
0
100
AcDbLine
 62
7
  6
CONTINUOUS
 10
219.5610817293
 20
146.7184567881
 11
219.5610817293
 21
145.6817180398
  0
LWPOLYLINE
  5
3CE
100
AcDbEntity
  8
0
100
AcDbPolyline
 62
7
  6
CONTINUOUS
 90
21
 70
0
 10
219.5610817293
 20
146.7184567881
 10
219.5667923998
 20
146.9328422615
 10
219.5839135408
 20
147.1468196398
 10
219.6124125611
 20
147.3599816052
 10
219.6522352113
 20
147.5719223916
 10
219.7033056867
 20
147.7822385577
 10
219.7655267717
 20
147.9905297548
 10
219.838780025
 20
148.1963994887
 10
219.9229260048
 20
148.3994558746
 10
220.0178045345
 20
148.5993123832
 10
220.1232350074
 20
148.7955885763
 10
220.2390167307
 20
148.987910831
 10
220.3649293071
 20
149.1759130509
 10
220.500733055
 20
149.3592373632
 10
220.6461694642
 20
149.5375347995
 10
220.8009616883
 20
149.7104659606
 10
220.9648150715
 20
149.8777016622
 10
221.1374177094
 20
150.0389235616
 10
221.3184410433
 20
150.1938247638
 10
221.5075404848
 20
150.3421104055
 10
221.5432828766
 20
150.3687231597
  0
LWPOLYLINE
  5
3CF
100
AcDbEntity
  8
RACCORDO
100
AcDbPolyline
 62
253
  6
CONTINUOUS
 90
10
 70
0
 10
236.6135124442
 20
77.0933773085
 10
236.5583626807
 20
77.0603480379
 10
236.5018164386
 20
77.031115387
 10
236.4438737179
 20
77.0056793558
 10
236.3843412221
 20
76.9839931398
 10
236.3234122477
 20
76.9661035435
 10
236.2616666849
 20
76.952150981
 10
236.1992978302
 20
76.942182257
 10
236.1361123871
 20
76.9361505668
 10
236.0721103554
 20
76.9340559104
  0
LWPOLYLINE
  5
3D0
100
AcDbEntity
  8
0
100
AcDbPolyline
 62
7
  6
CONTINUOUS
 90
21
 70
0
 10
229.5788521932
 20
150.3687441268
 10
229.6146229738
 20
150.3421104055
 10
229.8037224154
 20
150.1938247638
 10
229.9847457492
 20
150.0389235616
 10
230.1573483872
 20
149.8777016622
 10
230.3212017703
 20
149.7104659606
 10
230.4759939944
 20
149.5375347995
 10
230.6214304036
 20
149.3592373632
 10
230.7572341515
 20
149.1759130509
 10
230.883146728
 20
148.987910831
 10
230.9989284512
 20
148.7955885763
 10
231.1043589241
 20
148.5993123832
 10
231.1992374538
 20
148.3994558746
 10
231.2833834336
 20
148.1963994887
 10
231.3566366869
 20
147.9905297548
 10
231.4188577719
 20
147.7822385577
 10
231.4699282473
 20
147.5719223916
 10
231.5097508975
 20
147.3599816052
 10
231.5382499178
 20
147.1468196398
 10
231.5553710588
 20
146.9328422615
 10
231.5610817293
 20
146.7184567881
  0
LWPOLYLINE
  5
3D1
100
AcDbEntity
  8
0
100
AcDbPolyline
 62
7
  6
CONTINUOUS
 90
61
 70
0
 10
226.6092162403
 20
114.2800340735
 10
226.6036684126
 20
114.4535820754
 10
226.5870401359
 20
114.6266543942
 10
226.559376987
 20
114.7987766509
 10
226.5207547887
 20
114.9694770702
 10
226.4712794017
 20
115.1382877742
 10
226.4110864348
 20
115.3047460645
 10
226.3403408726
 20
115.4683956904
 10
226.2592366237
 20
115.6287880997
 10
226.1679959894
 20
115.785483668
 10
226.0668690537
 20
115.9380529036
 10
225.9561329987
 20
116.0860776248
 10
225.8360913442
 20
116.2291521062
 10
225.7070731159
 20
116.3668841905
 10
225.569431944
 20
116.4988963638
 10
225.4235450932
 20
116.6248267897
 10
225.2698124293
 20
116.7443303017
 10
225.1086553228
 20
116.8570793491
 10
224.9405154942
 20
116.9627648946
 10
224.765853803
 20
117.0610972613
 10
224.5851489848
 20
117.1518069271
 10
224.398896339
 20
117.2346452632
 10
224.207606371
 20
117.3093852153
 10
224.0118033935
 20
117.3758219266
 10
223.8120240887
 20
117.4337732985
 10
223.6088160379
 20
117.4830804904
 10
223.4027362201
 20
117.5236083547
 10
223.1943494859
 20
117.5552458074
 10
222.9842270088
 20
117.5779061324
 10
222.7729447199
 20
117.5915272193
 10
222.5610817293
 20
117.5960717337
 10
222.3492187387
 20
117.5915272193
 10
222.1379364498
 20
117.5779061324
 10
221.9278139727
 20
117.5552458074
 10
221.7194272385
 20
117.5236083547
 10
221.5133474207
 20
117.4830804904
 10
221.3101393699
 20
117.4337732985
 10
221.1103600651
 20
117.3758219266
 10
220.9145570876
 20
117.3093852153
 10
220.7232671197
 20
117.2346452632
 10
220.5370144738
 20
117.1518069271
 10
220.3563096557
 20
117.0610972613
 10
220.1816479645
 20
116.9627648946
 10
220.0135081359
 20
116.8570793491
 10
219.8523510294
 20
116.7443303017
 10
219.6986183655
 20
116.6248267897
 10
219.5527315147
 20
116.4988963638
 10
219.4150903427
 20
116.3668841905
 10
219.2860721144
 20
116.2291521062
 10
219.1660304599
 20
116.0860776248
 10
219.0552944049
 20
115.9380529036
 10
218.9541674693
 20
115.785483668
 10
218.8629268349
 20
115.6287880997
 10
218.7818225861
 20
115.4683956904
 10
218.7110770238
 20
115.3047460645
 10
218.6508840569
 20
115.1382877742
 10
218.60140867
 20
114.9694770702
 10
218.5627864717
 20
114.7987766509
 10
218.5351233228
 20
114.6266543942
 10
218.518495046
 20
114.4535820754
 10
218.5129472184
 20
114.2800340735
  0
LWPOLYLINE
  5
3D2
100
AcDbEntity
  8
0
100
AcDbPolyline
 62
7
  6
CONTINUOUS
 90
61
 70
0
 10
229.6092162403
 20
146.7184567881
 10
229.6036684126
 20
146.8920047991
 10
229.5870401359
 20
147.0650771271
 10
229.559376987
 20
147.2371993928
 10
229.5207547887
 20
147.4078998211
 10
229.4712794017
 20
147.576710534
 10
229.4110864348
 20
147.743168833
 10
229.3403408726
 20
147.9068184675
 10
229.2592366237
 20
148.0672108853
 10
229.1679959894
 20
148.2239064618
 10
229.0668690537
 20
148.3764757054
 10
228.9561329987
 20
148.5245004344
 10
228.8360913442
 20
148.6675749233
 10
228.7070731159
 20
148.8053070149
 10
228.569431944
 20
148.9373191951
 10
228.4235450932
 20
149.0632496276
 10
228.2698124293
 20
149.182753146
 10
228.1086553228
 20
149.2955021993
 10
227.9405154942
 20
149.4011877503
 10
227.765853803
 20
149.4995201222
 10
227.5851489848
 20
149.5902297928
 10
227.398896339
 20
149.6730681332
 10
227.207606371
 20
149.7478080893
 10
227.0118033935
 20
149.814244804
 10
226.8120240887
 20
149.872196179
 10
226.6088160379
 20
149.9215033735
 10
226.4027362201
 20
149.96203124
 10
226.1943494859
 20
149.9936686943
 10
225.9842270088
 20
150.0163290205
 10
225.7729447199
 20
150.0299501081
 10
225.5610817293
 20
150.0344946227
 10
225.3492187387
 20
150.0299501081
 10
225.1379364498
 20
150.0163290205
 10
224.9278139727
 20
149.9936686943
 10
224.7194272385
 20
149.96203124
 10
224.5133474207
 20
149.9215033735
 10
224.3101393699
 20
149.872196179
 10
224.1103600651
 20
149.814244804
 10
223.9145570876
 20
149.7478080893
 10
223.7232671197
 20
149.6730681332
 10
223.5370144738
 20
149.5902297928
 10
223.3563096557
 20
149.4995201222
 10
223.1816479645
 20
149.4011877503
 10
223.0135081359
 20
149.2955021993
 10
222.8523510294
 20
149.182753146
 10
222.6986183655
 20
149.0632496276
 10
222.5527315147
 20
148.9373191951
 10
222.4150903427
 20
148.8053070149
 10
222.2860721144
 20
148.6675749233
 10
222.1660304599
 20
148.5245004344
 10
222.0552944049
 20
148.3764757054
 10
221.9541674693
 20
148.2239064618
 10
221.8629268349
 20
148.0672108853
 10
221.7818225861
 20
147.9068184675
 10
221.7110770238
 20
147.743168833
 10
221.6508840569
 20
147.576710534
 10
221.60140867
 20
147.4078998211
 10
221.5627864717
 20
147.2371993928
 10
221.5351233228
 20
147.0650771271
 10
221.518495046
 20
146.8920047991
 10
221.5129472184
 20
146.7184567881
  0
LWPOLYLINE
  5
3D3
100
AcDbEntity
  8
RACCORDO
100
AcDbPolyline
 62
253
  6
CONTINUOUS
 90
7
 70
0
 10
232.0340530831
 20
90.8680308189
 10
231.9559122686
 20
93.5028550341
 10
231.8771817942
 20
96.1371073753
 10
231.7978617883
 20
98.7707878422
 10
231.7179523806
 20
101.4038964351
 10
231.6374537014
 20
104.0364331538
 10
231.556365882
 20
106.6683979983
  0
LWPOLYLINE
  5
3D4
100
AcDbEntity
  8
RACCORDO
100
AcDbPolyline
 62
253
  6
CONTINUOUS
 90
7
 70
0
 10
230.0612617696
 20
90.5206336906
 10
229.9835377528
 20
93.1554537282
 10
229.905226832
 20
95.789722947
 10
229.8263290072
 20
98.4234413469
 10
229.7468442784
 20
101.056608928
 10
229.6667726456
 20
103.6892256902
 10
229.5861141088
 20
106.3212916335
  0
LINE
  5
3D5
100
AcDbEntity
  8
0
100
AcDbLine
 62
7
  6
CONTINUOUS
 10
228.5610817293
 20
114.2800340735
 11
228.5610817293
 21
113.2432952139
  0
LINE
  5
3D6
100
AcDbEntity
  8
RACCORDO
100
AcDbLine
 62
253
  6
CONTINUOUS
 10
229.586114121
 20
107.8157399582
 11
229.586114121
 21
106.3212916335
  0
LINE
  5
3D7
100
AcDbEntity
  8
RACCORDO
100
AcDbLine
 62
253
  6
CONTINUOUS
 10
230.0612617578
 20
90.5206336906
 11
230.0612617578
 21
89.0418698469
  0
LINE
  5
3D8
100
AcDbEntity
  8
0
100
AcDbLine
 62
7
  6
CONTINUOUS
 10
231.5610817293
 20
146.7184567881
 11
231.5610817293
 21
145.6817180398
  0
LWPOLYLINE
  5
3D9
100
AcDbEntity
  8
0
100
AcDbPolyline
 62
7
  6
CONTINUOUS
 90
37
 70
0
 10
228.5610817293
 20
114.2800340735
 10
228.5553710588
 20
114.0656486114
 10
228.5382499178
 20
113.8516712443
 10
228.5097508975
 20
113.6385092901
 10
228.4699282473
 20
113.4265685149
 10
228.4188577719
 20
113.2162523598
 10
228.3566366869
 20
113.0079611737
 10
228.2833834336
 20
112.8020914507
 10
228.1992374538
 20
112.5990350754
 10
228.1043589241
 20
112.3991785773
 10
227.9989284512
 20
112.2029023945
 10
227.883146728
 20
112.0105801499
 10
227.7572341515
 20
111.8225779399
 10
227.6214304036
 20
111.6392536373
 10
227.4759939944
 20
111.4609562103
 10
227.3212017703
 20
111.2880250583
 10
227.1573483872
 20
111.1207893655
 10
226.9847457492
 20
110.9595674746
 10
226.8037224154
 20
110.8046662806
 10
226.6146229738
 20
110.6563806467
 10
226.4178073862
 20
110.514992843
 10
226.213650302
 20
110.3807720093
 10
226.0025403459
 20
110.2539736426
 10
225.7848793778
 20
110.1348391108
 10
225.5610817276
 20
110.0235951932
 10
225.3315734069
 20
109.9204536489
 10
225.0967912978
 20
109.8256108137
 10
224.8571823214
 20
109.7392472264
 10
224.6132025871
 20
109.6615272849
 10
224.365316524
 20
109.5925989336
 10
224.1139959975
 20
109.5325933815
 10
223.8597194103
 20
109.4816248526
 10
223.6029707925
 20
109.4397903684
 10
223.3442388799
 20
109.4071695632
 10
223.0840161836
 20
109.3838245326
 10
222.8227980523
 20
109.3697997151
 10
222.5610817293
 20
109.3651218077
  0
LWPOLYLINE
  5
3DA
100
AcDbEntity
  8
0
100
AcDbPolyline
 62
7
  6
CONTINUOUS
 90
37
 70
0
 10
231.5610817293
 20
146.7184567881
 10
231.5553710588
 20
146.5040713148
 10
231.5382499178
 20
146.2900939364
 10
231.5097508975
 20
146.076931971
 10
231.4699282473
 20
145.8649911846
 10
231.4188577719
 20
145.6546750185
 10
231.3566366869
 20
145.4463838215
 10
231.2833834336
 20
145.2405140876
 10
231.1992374538
 20
145.0374577017
 10
231.1043589241
 20
144.837601193
 10
230.9989284512
 20
144.6413249999
 10
230.883146728
 20
144.4490027452
 10
230.7572341515
 20
144.2610005253
 10
230.6214304036
 20
144.0776762131
 10
230.4759939944
 20
143.8993787767
 10
230.3212017703
 20
143.7264476156
 10
230.1573483872
 20
143.559211914
 10
229.9847457492
 20
143.3979900146
 10
229.8037224154
 20
143.2430888125
 10
229.6146229738
 20
143.0948031708
 10
229.4178073862
 20
142.9534153597
 10
229.213650302
 20
142.8191945189
 10
229.0025403459
 20
142.6923961456
 10
228.7848793778
 20
142.5732616075
 10
228.5610817276
 20
142.462017684
 10
228.3315734069
 20
142.3588761343
 10
228.0967912978
 20
142.2640332941
 10
227.8571823214
 20
142.1776697022
 10
227.6132025871
 20
142.0999497567
 10
227.365316524
 20
142.0310214018
 10
227.1139959975
 20
141.9710158465
 10
226.8597194103
 20
141.9200473149
 10
226.6029707925
 20
141.8782128285
 10
226.3442388799
 20
141.8455920216
 10
226.0840161836
 20
141.8222469898
 10
225.8227980523
 20
141.8082221716
 10
225.5610817293
 20
141.8035442639
  0
LWPOLYLINE
  5
3DB
100
AcDbEntity
  8
0
100
AcDbPolyline
 62
7
  6
CONTINUOUS
 90
34
 70
0
 10
228.5610817293
 20
113.2432952139
 10
228.5542499781
 20
113.0096128589
 10
228.5338468161
 20
112.7759305038
 10
228.5000103806
 20
112.5438302697
 10
228.4526495175
 20
112.3133228925
 10
228.3918553809
 20
112.0843976363
 10
228.318039571
 20
111.8586044147
 10
228.2311137265
 20
111.6359644807
 10
228.1311662087
 20
111.4164565814
 10
228.0188737014
 20
111.2015668712
 10
227.8941524352
 20
110.9913266876
 10
227.7570861794
 20
110.785704693
 10
227.6086029263
 20
110.5860930289
 10
227.4486252035
 20
110.3925324795
 10
227.2772304835
 20
110.2049822605
 10
227.0955791754
 20
110.0247121603
 10
226.9036016813
 20
109.8517715797
 10
226.7013675992
 20
109.6861111179
 10
226.490246133
 20
109.5288523611
 10
226.2701769756
 20
109.3800523208
 10
226.0412204341
 20
109.2396539855
 10
225.804926634
 20
109.1086079068
 10
225.5612457868
 20
108.9869775465
 10
225.310227681
 20
108.8746994429
 10
225.0535718073
 20
108.7725337627
 10
224.7912399096
 20
108.6805491258
 10
224.5232702441
 20
108.5986769122
 10
224.2514770704
 20
108.527471429
 10
223.9758344431
 20
108.4670050575
 10
223.6963683076
 20
108.4172054162
 10
223.414970759
 20
108.3784096684
 10
223.1322724955
 20
108.3507302016
 10
222.847642819
 20
108.3340546282
 10
222.5610817293
 20
108.3283829482
  0
LWPOLYLINE
  5
3DC
100
AcDbEntity
  8
0
100
AcDbPolyline
 62
7
  6
CONTINUOUS
 90
34
 70
0
 10
231.5610817293
 20
145.6817180398
 10
231.5542499781
 20
145.4480356724
 10
231.5338468161
 20
145.2143533051
 10
231.5000103806
 20
144.9822530588
 10
231.4526495175
 20
144.7517456694
 10
231.3918553809
 20
144.5228204012
 10
231.318039571
 20
144.2970271677
 10
231.2311137265
 20
144.0743872221
 10
231.1311662087
 20
143.8548793112
 10
231.0188737014
 20
143.6399895897
 10
230.8941524352
 20
143.429749395
 10
230.7570861794
 20
143.2241273896
 10
230.6086029263
 20
143.024515715
 10
230.4486252035
 20
142.8309551554
 10
230.2772304835
 20
142.6434049266
 10
230.0955791754
 20
142.4631348169
 10
229.9036016813
 20
142.2901942272
 10
229.7013675992
 20
142.1245337567
 10
229.490246133
 20
141.9672749916
 10
229.2701769756
 20
141.8184749435
 10
229.0412204341
 20
141.6780766008
 10
228.804926634
 20
141.5470305153
 10
228.5612457868
 20
141.4254001486
 10
228.310227681
 20
141.313122039
 10
228.0535718073
 20
141.2109563534
 10
227.7912399096
 20
141.1189717117
 10
227.5232702441
 20
141.0370994938
 10
227.2514770704
 20
140.9658940069
 10
226.9758344431
 20
140.9054276321
 10
226.6963683076
 20
140.8556279883
 10
226.414970759
 20
140.8168322384
 10
226.1322724955
 20
140.7891527701
 10
225.847642819
 20
140.7724771959
 10
225.5610817293
 20
140.7668055156
  0
LWPOLYLINE
  5
3DD
100
AcDbEntity
  8
0
100
AcDbPolyline
 62
7
  6
CONTINUOUS
 90
17
 70
0
 10
226.6092162403
 20
114.2800340735
 10
226.6036684126
 20
114.1064860716
 10
226.5870401359
 20
113.9334137527
 10
226.559376987
 20
113.761291496
 10
226.5207547887
 20
113.5905910767
 10
226.4712794017
 20
113.4217803727
 10
226.4110864348
 20
113.2553220825
 10
226.3403408726
 20
113.0916724566
 10
226.2592366237
 20
112.9312800472
 10
226.1679959894
 20
112.774584479
 10
226.0668690537
 20
112.6220152434
 10
225.9561329987
 20
112.4739905221
 10
225.8360913442
 20
112.3309160408
 10
225.7070731159
 20
112.1931839564
 10
225.569431944
 20
112.0611717832
 10
225.4235450932
 20
111.9352413573
 10
225.2721736811
 20
111.8174808041
  0
LWPOLYLINE
  5
3DE
100
AcDbEntity
  8
0
100
AcDbPolyline
 62
7
  6
CONTINUOUS
 90
17
 70
0
 10
229.6092162403
 20
146.7184567881
 10
229.6036684126
 20
146.5449087771
 10
229.5870401359
 20
146.3718364491
 10
229.559376987
 20
146.1997141834
 10
229.5207547887
 20
146.0290137551
 10
229.4712794017
 20
145.8602030423
 10
229.4110864348
 20
145.6937447432
 10
229.3403408726
 20
145.5300951087
 10
229.2592366237
 20
145.369702691
 10
229.1679959894
 20
145.2130071144
 10
229.0668690537
 20
145.0604378708
 10
228.9561329987
 20
144.9124131418
 10
228.8360913442
 20
144.7693386529
 10
228.7070731159
 20
144.6316065613
 10
228.569431944
 20
144.4995943812
 10
228.4235450932
 20
144.3736639486
 10
228.2721736811
 20
144.2559033892
  0
LWPOLYLINE
  5
3DF
100
AcDbEntity
  8
RACCORDO
100
AcDbPolyline
 62
253
  6
CONTINUOUS
 90
19
 70
0
 10
229.586719127
 20
107.8157399582
 10
229.809192544
 20
109.649617292
 10
230.0350283587
 20
111.5617606733
 10
230.2642265712
 20
113.5521701023
 10
230.497481367
 20
115.6208111127
 10
230.7340985605
 20
117.7677181707
 10
230.9719955955
 20
119.9929946748
 10
231.2112190518
 20
122.2966366214
 10
231.4517223495
 20
124.6786480141
 10
231.6912831927
 20
127.1391442618
 10
231.9299706351
 20
129.6781240966
 10
232.1677156229
 20
132.2955887864
 10
232.4020886986
 20
134.9916575428
 10
232.633184576
 20
137.766328933
 10
232.8609085413
 20
140.6196043898
 10
233.0825469948
 20
143.5516074243
 10
233.2971954035
 20
146.5623792066
 10
233.5057583005
 20
149.6518785667
 10
233.7082356858
 20
152.8201055043
  0
LWPOLYLINE
  5
3E0
100
AcDbEntity
  8
RACCORDO
100
AcDbPolyline
 62
253
  6
CONTINUOUS
 90
19
 70
0
 10
231.556365882
 20
106.6683979983
 10
231.7792701238
 20
108.5023721069
 10
232.0067168996
 20
110.4145873517
 10
232.2381118475
 20
112.4050437327
 10
232.472844822
 20
114.4736987415
 10
232.7102633339
 20
116.6205948864
 10
232.9496747358
 20
118.8458596927
 10
233.1903870418
 20
121.1494973727
 10
233.4316870731
 20
123.5315037141
 10
233.6728174478
 20
125.9919936046
 10
233.9130143117
 20
128.5309654217
 10
234.1514931183
 20
131.1484207881
 10
234.3874318996
 20
133.84447946
 10
234.6199942979
 20
136.6191361706
 10
234.8483244693
 20
139.4723961868
 10
235.071536453
 20
142.4043950651
 10
235.2887225856
 20
145.4151779912
 10
235.4989529826
 20
148.5046997795
 10
235.7012723463
 20
151.67296043
  0
LWPOLYLINE
  5
3E1
100
AcDbEntity
  8
RACCORDO
100
AcDbPolyline
 62
7
  6
CONTINUOUS
 90
10
 70
0
 10
236.0674508604
 20
153.6707512278
 10
236.2365844138
 20
153.5344687891
 10
236.3895238681
 20
153.3812676318
 10
236.5247247075
 20
153.2132486378
 10
236.6408063701
 20
153.0328376446
 10
236.7368975458
 20
152.8421574559
 10
236.8124199559
 20
152.6428836135
 10
236.8667190491
 20
152.4371040008
 10
236.8992845861
 20
152.227403224
 10
236.9099381022
 20
152.0161605103
  0
LWPOLYLINE
  5
3E2
100
AcDbEntity
  8
0
100
AcDbPolyline
 62
7
  6
CONTINUOUS
 90
22
 70
0
 10
239.5610817294
 20
151.4422349206
 10
239.5523587889
 20
151.6682600951
 10
239.5273205805
 20
151.890654931
 10
239.485967104
 20
152.1094194282
 10
239.4278858034
 20
152.3257646762
 10
239.3534892349
 20
152.5384795855
 10
239.2640150665
 20
152.7439308879
 10
239.1592109547
 20
152.9419657019
 10
239.039329243
 20
153.1327369089
 10
238.9063646302
 20
153.3130698844
 10
238.7600979841
 20
153.4827900926
 10
238.6007484369
 20
153.6420720693
 10
238.430968084
 20
153.7882647976
 10
238.2505819872
 20
153.9211491598
 10
238.0597650847
 20
154.0409442735
 10
237.8616942872
 20
154.145656475
 10
237.6561620265
 20
154.2350328741
 10
237.4433758708
 20
154.3093263609
 10
237.2271354358
 20
154.3673019426
 10
237.0087072599
 20
154.408547955
 10
236.7868248045
 20
154.4334760622
 10
236.5614880698
 20
154.4420862643
  0
LINE
  5
3E3
100
AcDbEntity
  8
RACCORDO
100
AcDbLine
 62
253
  6
CONTINUOUS
 10
236.0668890599
 20
153.892344929
 11
236.0674508604
 21
153.6707512278
  0
LINE
  5
3E4
100
AcDbEntity
  8
RACCORDO
100
AcDbLine
 62
253
  6
CONTINUOUS
 10
233.7089224829
 20
153.6726481229
 11
233.7089224829
 21
152.8201055043
  0
LINE
  5
3E5
100
AcDbEntity
  8
RACCORDO
100
AcDbLine
 62
253
  6
CONTINUOUS
 10
236.0674507163
 20
154.2494731422
 11
236.0674507877
 21
154.0343215545
  0
LINE
  5
3E6
100
AcDbEntity
  8
RACCORDO
100
AcDbLine
 62
253
  6
CONTINUOUS
 10
236.0721104206
 20
74.9400507334
 11
236.0721103554
 21
76.9340559104
  0
LINE
  5
3E7
100
AcDbEntity
  8
RACCORDO
100
AcDbLine
 62
7
  6
CONTINUOUS
 10
236.9097758568
 20
77.0933773085
 11
236.9097758568
 21
77.3896250755
  0
LINE
  5
3E8
100
AcDbEntity
  8
RACCORDO
100
AcDbLine
 62
253
  6
CONTINUOUS
 10
237.0691149436
 20
151.2509760979
 11
237.0691136772
 21
77.9310591064
  0
LINE
  5
3E9
100
AcDbEntity
  8
RACCORDO
100
AcDbLine
 62
253
  6
CONTINUOUS
 10
239.0631186872
 20
151.2509761022
 11
239.0631187229
 21
77.9310590455
  0
LINE
  5
3EA
100
AcDbEntity
  8
0
100
AcDbLine
 62
7
  6
CONTINUOUS
 10
239.561081729
 20
77.4419181251
 11
239.5610817294
 21
151.4422349206
  0
LINE
  5
3EB
100
AcDbEntity
  8
RACCORDO
100
AcDbLine
 62
7
  6
CONTINUOUS
 10
236.9099402984
 20
152.0161605107
 11
236.9097758425
 21
79.0929906871
  0
LWPOLYLINE
  5
3EC
100
AcDbEntity
  8
RACCORDO
100
AcDbPolyline
 62
253
  6
CONTINUOUS
 90
3
 70
0
 10
236.0674507877
 20
154.0343215545
 10
236.0672202898
 20
154.0019490651
 10
236.0668890599
 20
153.892344929
  0
LWPOLYLINE
  5
3ED
100
AcDbEntity
  8
RACCORDO
100
AcDbPolyline
 62
7
  6
CONTINUOUS
 90
28
 70
0
 10
236.9097758425
 20
79.0929906871
 10
236.9062866522
 20
78.9758894917
 10
236.8961723434
 20
78.8600227866
 10
236.8794329161
 20
78.7453905719
 10
236.8559705026
 20
78.6316370068
 10
236.8258829706
 20
78.5191179319
 10
236.7894639232
 20
78.40890087
 10
236.7466468368
 20
78.300984748
 10
236.697498235
 20
78.1953706388
 10
236.6425112912
 20
78.0931292839
 10
236.5816277732
 20
77.9942972072
 10
236.5149059132
 20
77.8988378847
 10
236.4430135816
 20
77.8077124866
 10
236.3658982632
 20
77.7209640342
 10
236.2836124732
 20
77.638549506
 10
236.1969816281
 20
77.5613010076
 10
236.1059610422
 20
77.4892701918
 10
236.010595401
 20
77.4224054058
 10
235.9118441781
 20
77.3613837956
 10
235.8096698731
 20
77.3062640083
 10
235.7041099864
 20
77.2569873969
 10
235.5962364925
 20
77.2140551668
 10
235.4860546439
 20
77.1775350838
 10
235.3735591881
 20
77.1473593822
 10
235.2598063426
 20
77.1238259694
 10
235.1451481797
 20
77.1070341479
 10
235.0292326271
 20
77.0968846152
 10
234.9120596847
 20
77.0933773713
  0
LWPOLYLINE
  5
3EE
100
AcDbEntity
  8
RACCORDO
100
AcDbPolyline
 62
253
  6
CONTINUOUS
 90
10
 70
0
 10
237.0691136772
 20
77.9310591064
 10
237.0670232879
 20
77.8670907637
 10
237.0609952693
 20
77.8039285061
 10
237.0510296214
 20
77.7415723336
 10
237.037080776
 20
77.6798273578
 10
237.0191943014
 20
77.6188884671
 10
236.9975069017
 20
77.559340327
 10
236.9720641451
 20
77.501377826
 10
236.9428204634
 20
77.4448060754
 10
236.9097758568
 20
77.3896250755
  0
LWPOLYLINE
  5
3EF
100
AcDbEntity
  8
RACCORDO
100
AcDbPolyline
 62
253
  6
CONTINUOUS
 90
19
 70
0
 10
239.0630015624
 20
77.9310590134
 10
239.0506310979
 20
77.6706745386
 10
239.0157789713
 20
77.4122276329
 10
238.9585514512
 20
77.1578912269
 10
238.8794716904
 20
76.9095755488
 10
238.7792165815
 20
76.6690835957
 10
238.6584649818
 20
76.4381992628
 10
238.5181110237
 20
76.2186445808
 10
238.359322613
 20
76.0120197364
 10
238.1832568838
 20
75.8198940461
 10
237.9911404443
 20
75.6438218006
 10
237.7845034208
 20
75.4850483097
 10
237.5649361069
 20
75.3447013481
 10
237.3340550228
 20
75.2239335327
 10
237.0935703813
 20
75.1236878219
 10
236.845269514
 20
75.0446227855
 10
236.5909636172
 20
74.987382981
 10
236.3325315499
 20
74.952524896
 10
236.0721104011
 20
74.9401780482
  0
LWPOLYLINE
  5
3F0
100
AcDbEntity
  8
0
100
AcDbPolyline
 62
253
  6
CONTINUOUS
 90
10
 70
0
 10
236.9097758568
 20
151.7916252263
 10
236.9428251562
 20
151.7364368955
 10
236.9720718264
 20
151.6798832221
 10
236.9975158673
 20
151.6219642061
 10
237.0192020922
 20
151.5624873223
 10
237.0370856878
 20
151.5016450958
 10
237.0510322148
 20
151.4400151026
 10
237.0609968598
 20
151.3777898678
 10
237.0670244361
 20
151.3147768663
 10
237.0691149436
 20
151.2509760979
  0
ENDSEC
  0
SECTION
  2
OBJECTS
  0
DICTIONARY
  5
C
100
AcDbDictionary
280
0
281
1
  3
ACAD_GROUP
350
D
  3
ACAD_MLINESTYLE
350
17
  3
ACAD_LAYOUT
350
1A
  3
ACAD_PLOTSETTINGS
350
19
  3
ACAD_PLOTSTYLENAME
350
E
  0
DICTIONARY
  5
D
102
{ACAD_REACTORS
330
C
102
}
100
AcDbDictionary
280
0
281
1
  0
ACDBDICTIONARYWDFLT
  5
E
102
{ACAD_REACTORS
330
C
102
}
100
AcDbDictionary
281
1
  3
Normal
350
F
100
AcDbDictionaryWithDefault
340
F
  0
DICTIONARY
  5
17
102
{ACAD_REACTORS
330
C
102
}
100
AcDbDictionary
280
0
281
1
  3
Standard
350
18
  0
DICTIONARY
  5
19
102
{ACAD_REACTORS
330
C
102
}
100
AcDbDictionary
281
1
  0
DICTIONARY
  5
1A
102
{ACAD_REACTORS
330
C
102
}
100
AcDbDictionary
281
1
  3
Model
350
3F1
  3
Layout1
350
3F2
  0
ACDBPLACEHOLDER
  5
F
102
{ACAD_REACTORS
330
E
102
}
  0
MLINESTYLE
  5
18
102
{ACAD_REACTORS
330
17
102
}
100
AcDbMlineStyle
  2
STANDARD
 70
0
  3

 62
256
 51
90.0
 52
90.0
 71
2
 49
0.5
 62
256
  6
BYLAYER
 49
-0.5
 62
256
  6
BYLAYER
  0
LAYOUT
  5
3F1
102
{ACAD_REACTORS
330
1A
102
}
100
AcDbPlotSettings
  1

  2
none_device
  4
ISO_A4_(297.00_x_210.00_MM)
  6

 40
0.0
 41
0.0
 42
0.0
 43
0.0
 44
297.0
 45
210.0
 46
0.0
 47
0.0
 48
0.0
 49
0.0
140
0.0
141
0.0
142
1.0
143
1.0
 70
1024
 72
1
 73
0
 74
0
  7

 75
0
147
1.0
148
0.0
149
0.0
100
AcDbLayout
  1
Model
 70
0
 71
0
 10
0.0
 20
0.0
 11
297.0
 21
210.0
 12
0.0
 22
0.0
 32
0.0
 14
0.0
 24
0.0
 34
0.0
 15
0.0
 25
0.0
 35
0.0
146
0.0
 13
0.0
 23
0.0
 33
0.0
 16
1.0
 26
0.0
 36
0.0
 17
0.0
 27
1.0
 37
0.0
 76
0
330
213
345
0
346
0
  0
LAYOUT
  5
3F2
102
{ACAD_REACTORS
330
1A
102
}
100
AcDbPlotSettings
  1

  2
none_device
  4
ISO_A4_(297.00_x_210.00_MM)
  6

 40
0.0
 41
0.0
 42
0.0
 43
0.0
 44
297.0
 45
210.0
 46
0.0
 47
0.0
 48
0.0
 49
0.0
140
0.0
141
0.0
142
1.0
143
1.0
 70
0
 72
1
 73
0
 74
0
  7

 75
0
147
1.0
148
0.0
149
0.0
100
AcDbLayout
  1
Layout1
 70
0
 71
1
 10
0.0
 20
0.0
 11
297.0
 21
210.0
 12
0.0
 22
0.0
 32
0.0
 14
0.0
 24
0.0
 34
0.0
 15
0.0
 25
0.0
 35
0.0
146
0.0
 13
0.0
 23
0.0
 33
0.0
 16
1.0
 26
0.0
 36
0.0
 17
0.0
 27
1.0
 37
0.0
 76
0
330
214
345
0
346
0
  0
ENDSEC
  0
EOF
