  0
SECTION
  2
HEADER
  9
$ACADVER
  1
AC1015
  9
$DWGCODEPAGE
  3
ANSI_1252
  9
$EXTMAX
 10
297.0
 20
210.0
 30
0.0
  9
$EXTMIN
 10
0.0
 20
0.0
 30
0.0
  9
$LIMMIN
 10
0.0
 20
0.0
  9
$LIMMAX
 10
297.0
 20
210.0
  9
$VIEWCTR
 10
148.5
 20
105.0
  9
$VIEWSIZE
 40
210.0
  9
$CLAYER
  8
0
  9
$LTSCALE
 40
16.335
  9
$CELTYPE
  6
BYLAYER
  9
$DIMSCALE
 40
1.0
  9
$DIMASZ
 40
3.0
  9
$DIMEXO
 40
1.85625
  9
$DIMDLI
 40
11.286
  9
$DIMEXE
 40
5.346
  9
$DIMCEN
 40
2.673
  9
$DIMLFAC
 40
1.0
  9
$DIMBLK
  1
_FILLED
  9
$DIMTXT
 40
3.0
  9
$DIMTOL
 70
1
  9
$DIMLIM
 70
0
  9
$DIMTFAC
 40
1.0
  9
$DIMTP
 40
0.01
  9
$DIMTM
 40
0.01
  9
$PDMODE
 70
3
  9
$PDSIZE
 40
3.0
  9
$HANDSEED
  5
390
  9
$TILEMODE
 70
1
  9
$MEASUREMENT
 70
1
  9
$INSUNITS
 70
4
  0
ENDSEC
  0
SECTION
  2
CLASSES
  0
CLASS
  1
ACDBDICTIONARYWDFLT
  2
AcDbDictionaryWithDefault
  3
AutoCAD 2000
 90
0
280
0
281
0
  0
CLASS
  1
ACDBPLACEHOLDER
  2
AcDbPlaceHolder
  3
AutoCAD 2000
 90
0
280
0
281
0
  0
CLASS
  1
LAYOUT
  2
AcDbLayout
  3
AutoCAD 2000
 90
0
280
0
281
0
  0
ENDSEC
  0
SECTION
  2
TABLES
  0
TABLE
  2
VPORT
  5
8
100
AcDbSymbolTable
 70
2
  0
VPORT
  5
1F4
100
AcDbSymbolTableRecord
100
AcDbViewportTableRecord
  2
*ACTIVE
 70
0
 10
0.0
 20
0.0
 11
1.0
 21
1.0
 12
148.5
 22
105.0
 13
0.0
 23
0.0
 14
1.0
 24
1.0
 15
0.0
 25
0.0
 16
0.0
 26
0.0
 36
1.0
 17
0.0
 27
0.0
 37
0.0
 40
210.0
 41
1.4142857143
 42
50.0
 43
0.0
 44
0.0
 50
0.0
 51
0.0
 71
0
 72
100
 73
1
 74
1
 75
0
 76
0
 77
0
 78
0
  0
ENDTAB
  0
TABLE
  2
LTYPE
  5
5
100
AcDbSymbolTable
 70
6
  0
LTYPE
  5
14
100
AcDbSymbolTableRecord
100
AcDbLinetypeTableRecord
  2
BYBLOCK
 70
0
  3

 72
65
 73
0
 40
0.0
  0
LTYPE
  5
15
100
AcDbSymbolTableRecord
100
AcDbLinetypeTableRecord
  2
BYLAYER
 70
0
  3

 72
65
 73
0
 40
0.0
  0
LTYPE
  5
16
100
AcDbSymbolTableRecord
100
AcDbLinetypeTableRecord
  2
CONTINUOUS
 70
64
  3
Solid line
 72
65
 73
0
 40
0.0
  0
LTYPE
  5
1F5
100
AcDbSymbolTableRecord
100
AcDbLinetypeTableRecord
  2
CENTER
 70
64
  3
____ _ ____ _ ____ _ ____ _ ____ _ ____ _ ____
 72
65
 73
4
 40
0.6
 49
0.375
 74
0
 49
-0.075
 74
0
 49
0.075
 74
0
 49
-0.075
 74
0
  0
LTYPE
  5
1F6
100
AcDbSymbolTableRecord
100
AcDbLinetypeTableRecord
  2
HIDDEN
 70
64
  3
- - - - - - - - - - - - - - - - - - - -
 72
65
 73
2
 40
0.2
 49
0.1
 74
0
 49
-0.1
 74
0
  0
LTYPE
  5
1F7
100
AcDbSymbolTableRecord
100
AcDbLinetypeTableRecord
  2
PHANTOM
 70
64
  3
_____ _ _ _____ _ _ _____ _ _ _____
 72
65
 73
6
 40
0.8
 49
0.45
 74
0
 49
-0.05
 74
0
 49
0.1
 74
0
 49
-0.05
 74
0
 49
0.1
 74
0
 49
-0.05
 74
0
  0
LTYPE
  5
1F8
100
AcDbSymbolTableRecord
100
AcDbLinetypeTableRecord
  2
DOT
 70
64
  3
. . . . . . . . . . . . . . . . . . . .
 72
65
 73
2
 40
0.2
 49
0.1
 74
0
 49
-0.1
 74
0
  0
LTYPE
  5
1F9
100
AcDbSymbolTableRecord
100
AcDbLinetypeTableRecord
  2
DASHED
 70
64
  3
- - - - - - - - - - - - - - - - - - - -
 72
65
 73
2
 40
0.2
 49
0.1
 74
0
 49
-0.1
 74
0
  0
ENDTAB
  0
TABLE
  2
LAYER
  5
2
100
AcDbSymbolTable
 70
36
  0
LAYER
  5
10
100
AcDbSymbolTableRecord
100
AcDbLayerTableRecord
  2
0
 70
0
 62
7
  6
CONTINUOUS
370
-3
390
F
  0
LAYER
  5
1FA
100
AcDbSymbolTableRecord
100
AcDbLayerTableRecord
  2
DEFAULT_1
 70
0
 62
7
  6
CENTER
370
-3
390
F
  0
LAYER
  5
1FB
100
AcDbSymbolTableRecord
100
AcDbLayerTableRecord
  2
DEFAULT_2
 70
0
 62
7
  6
HIDDEN
370
-3
390
F
  0
LAYER
  5
1FC
100
AcDbSymbolTableRecord
100
AcDbLayerTableRecord
  2
DEFAULT_3
 70
0
 62
7
  6
PHANTOM
370
-3
390
F
  0
LAYER
  5
1FD
100
AcDbSymbolTableRecord
100
AcDbLayerTableRecord
  2
ASSI
 70
0
 62
7
  6
CONTINUOUS
370
-3
390
F
  0
LAYER
  5
1FE
100
AcDbSymbolTableRecord
100
AcDbLayerTableRecord
  2
COLOR5
 70
0
 62
7
  6
CONTINUOUS
370
-3
390
F
  0
LAYER
  5
1FF
100
AcDbSymbolTableRecord
100
AcDbLayerTableRecord
  2
COORDINATE
 70
0
 62
7
  6
CONTINUOUS
370
-3
390
F
  0
LAYER
  5
200
100
AcDbSymbolTableRecord
100
AcDbLayerTableRecord
  2
COORD_ORIGINE
 70
0
 62
7
  6
CONTINUOUS
370
-3
390
F
  0
LAYER
  5
201
100
AcDbSymbolTableRecord
100
AcDbLayerTableRecord
  2
COPY_GEOMETRY
 70
0
 62
7
  6
CONTINUOUS
370
-3
390
F
  0
LAYER
  5
202
100
AcDbSymbolTableRecord
100
AcDbLayerTableRecord
  2
CURVE
 70
0
 62
7
  6
CONTINUOUS
370
-3
390
F
  0
LAYER
  5
203
100
AcDbSymbolTableRecord
100
AcDbLayerTableRecord
  2
DRAFT
 70
0
 62
7
  6
CONTINUOUS
370
-3
390
F
  0
LAYER
  5
204
100
AcDbSymbolTableRecord
100
AcDbLayerTableRecord
  2
IGES_SCRITTE
 70
0
 62
7
  6
CONTINUOUS
370
-3
390
F
  0
LAYER
  5
205
100
AcDbSymbolTableRecord
100
AcDbLayerTableRecord
  2
IMPORT_IGES
 70
0
 62
7
  6
CONTINUOUS
370
-3
390
F
  0
LAYER
  5
206
100
AcDbSymbolTableRecord
100
AcDbLayerTableRecord
  2
IMPORT_SUPERF
 70
0
 62
7
  6
CONTINUOUS
370
-3
390
F
  0
LAYER
  5
207
100
AcDbSymbolTableRecord
100
AcDbLayerTableRecord
  2
NOTE
 70
0
 62
7
  6
CONTINUOUS
370
-3
390
F
  0
LAYER
  5
208
100
AcDbSymbolTableRecord
100
AcDbLayerTableRecord
  2
PIANI
 70
0
 62
7
  6
CONTINUOUS
370
-3
390
F
  0
LAYER
  5
209
100
AcDbSymbolTableRecord
100
AcDbLayerTableRecord
  2
PIANI_ORIGINE
 70
0
 62
7
  6
CONTINUOUS
370
-3
390
F
  0
LAYER
  5
20A
100
AcDbSymbolTableRecord
100
AcDbLayerTableRecord
  2
PUNTI
 70
0
 62
7
  6
CONTINUOUS
370
-3
390
F
  0
LAYER
  5
20B
100
AcDbSymbolTableRecord
100
AcDbLayerTableRecord
  2
RACCORDO
 70
0
 62
7
  6
CONTINUOUS
370
-3
390
F
  0
LAYER
  5
20C
100
AcDbSymbolTableRecord
100
AcDbLayerTableRecord
  2
SKELETON
 70
0
 62
7
  6
CONTINUOUS
370
-3
390
F
  0
LAYER
  5
20D
100
AcDbSymbolTableRecord
100
AcDbLayerTableRecord
  2
SMUSSO
 70
0
 62
7
  6
CONTINUOUS
370
-3
390
F
  0
LAYER
  5
20E
100
AcDbSymbolTableRecord
100
AcDbLayerTableRecord
  2
SNAPLINE
 70
0
 62
7
  6
CONTINUOUS
370
-3
390
F
  0
LAYER
  5
20F
100
AcDbSymbolTableRecord
100
AcDbLayerTableRecord
  2
SOLIDO_BASE
 70
0
 62
7
  6
CONTINUOUS
370
-3
390
F
  0
LAYER
  5
210
100
AcDbSymbolTableRecord
100
AcDbLayerTableRecord
  2
SUPERFICI
 70
0
 62
7
  6
CONTINUOUS
370
-3
390
F
  0
LAYER
  5
211
100
AcDbSymbolTableRecord
100
AcDbLayerTableRecord
  2
TRASH
 70
0
 62
7
  6
CONTINUOUS
370
-3
390
F
  0
LAYER
  5
212
100
AcDbSymbolTableRecord
100
AcDbLayerTableRecord
  2
XSEC_DATUMS
 70
0
 62
7
  6
CONTINUOUS
370
-3
390
F
  0
ENDTAB
  0
TABLE
  2
STYLE
  5
3
100
AcDbSymbolTable
 70
1
  0
STYLE
  5
11
100
AcDbSymbolTableRecord
100
AcDbTextStyleTableRecord
  2
STANDARD
 70
0
 40
0.0
 41
0.8
 50
0.0
 71
0
 42
0.2
  3
txt
  4

  0
STYLE
  5
213
100
AcDbSymbolTableRecord
100
AcDbTextStyleTableRecord
  2
TEXTSTYLE_1
 70
0
 40
0.0
 41
0.8
 50
0.0
 71
0
 42
0.2
  3
gdt
  4

  0
ENDTAB
  0
TABLE
  2
VIEW
  5
6
100
AcDbSymbolTable
 70
0
  0
ENDTAB
  0
TABLE
  2
UCS
  5
7
100
AcDbSymbolTable
 70
0
  0
ENDTAB
  0
TABLE
  2
APPID
  5
9
100
AcDbSymbolTable
 70
1
  0
APPID
  5
214
100
AcDbSymbolTableRecord
100
AcDbRegAppTableRecord
  2
ACAD
 70
0
  0
ENDTAB
  0
TABLE
  2
BLOCK_RECORD
  5
1
100
AcDbSymbolTable
 70
0
  0
BLOCK_RECORD
  5
215
100
AcDbSymbolTableRecord
100
AcDbBlockTableRecord
  2
*Model_Space
  0
BLOCK_RECORD
  5
216
100
AcDbSymbolTableRecord
100
AcDbBlockTableRecord
  2
*Paper_Space
  0
ENDTAB
  0
TABLE
  2
DIMSTYLE
  5
A
100
AcDbSymbolTable
 70
1
100
AcDbDimStyleTable
 71
0
  0
DIMSTYLE
105
217
100
AcDbSymbolTableRecord
100
AcDbDimStyleTableRecord
  2
STANDARD
 70
0
  3

  4

 40
1.0
 41
3.0
 42
0.0625
 43
0.38
 44
0.18
 45
0.0
 46
0.0
 47
0.01
 48
0.01
140
3.0
141
0.09
142
0.0
143
25.4
144
1.0
145
0.0
146
1.0
147
0.09
 71
1.0
 72
0.0
 73
0
 74
0
 75
0
 76
0
 77
1
 78
8
170
0
171
2
172
0
173
0
174
0
175
0
176
0
177
0
178
0
270
2
271
2
272
2
273
2
274
2
275
0
280
0
281
0
282
0
283
1
284
8
285
0
286
0
287
3
288
0
340
11
  0
ENDTAB
  0
ENDSEC
  0
SECTION
  2
BLOCKS
  0
BLOCK
  5
20
100
AcDbEntity
  8
0
100
AcDbBlockBegin
  2
*Model_Space
 70
0
 10
0.0
 20
0.0
 30
0.0
  3
*Model_Space
  1

  0
ENDBLK
  5
21
100
AcDbEntity
  8
0
100
AcDbBlockEnd
  0
BLOCK
  5
1C
100
AcDbEntity
  8
0
100
AcDbBlockBegin
  2
*Paper_Space
 70
0
 10
0.0
 20
0.0
 30
0.0
  3
*Paper_Space
  1

  0
ENDBLK
  5
1D
100
AcDbEntity
  8
0
100
AcDbBlockEnd
  0
ENDSEC
  0
SECTION
  2
ENTITIES
  0
LINE
  5
218
100
AcDbEntity
  8
DRAFT
100
AcDbLine
 62
7
  6
CONTINUOUS
 10
-26.5
 20
-44.2899946334
 11
-26.2242099741
 21
-44.5657846593
  0
LINE
  5
219
100
AcDbEntity
  8
DRAFT
100
AcDbLine
 62
7
  6
CONTINUOUS
 10
-32.0
 20
-38.7899946334
 11
-32.2757899725
 21
-38.5142046609
  0
LINE
  5
21A
100
AcDbEntity
  8
SUPERFICI
100
AcDbLine
 62
7
  6
CONTINUOUS
 10
28.0095873347
 20
-46.2900021666
 11
-28.0095552235
 21
-46.2900053666
  0
LINE
  5
21B
100
AcDbEntity
  8
DRAFT
100
AcDbLine
 62
7
  6
CONTINUOUS
 10
-28.0
 20
-46.2899946334
 11
28.0
 21
-46.2899946334
  0
LINE
  5
21C
100
AcDbEntity
  8
0
100
AcDbLine
 62
253
  6
CONTINUOUS
 10
20.1
 20
-45.7578575736
 11
14.9
 21
-45.7578575736
  0
LINE
  5
21D
100
AcDbEntity
  8
0
100
AcDbLine
 62
253
  6
CONTINUOUS
 10
-28.0
 20
-45.6630227063
 11
13.923397555
 21
-45.6630227063
  0
LINE
  5
21E
100
AcDbEntity
  8
0
100
AcDbLine
 62
253
  6
CONTINUOUS
 10
21.0766024408
 20
-45.6630227063
 11
28.0
 21
-45.6630227063
  0
LINE
  5
21F
100
AcDbEntity
  8
DRAFT
100
AcDbLine
 62
7
  6
CONTINUOUS
 10
-32.0
 20
29.2100053666
 11
-32.2757899725
 21
28.9342153941
  0
LINE
  5
220
100
AcDbEntity
  8
DRAFT
100
AcDbLine
 62
7
  6
CONTINUOUS
 10
-26.5
 20
34.7100053666
 11
-26.2242099741
 21
34.9857953925
  0
LINE
  5
221
100
AcDbEntity
  8
0
100
AcDbLine
 62
7
  6
CONTINUOUS
 10
14.6
 20
-45.2899946334
 11
20.4
 21
-45.2899946334
  0
LINE
  5
222
100
AcDbEntity
  8
RACCORDO
100
AcDbLine
 62
7
  6
CONTINUOUS
 10
-28.0
 20
-44.5657846059
 11
-26.2242100275
 21
-44.5657846059
  0
LINE
  5
223
100
AcDbEntity
  8
RACCORDO
100
AcDbLine
 62
7
  6
CONTINUOUS
 10
28.0
 20
-44.5657846059
 11
26.2242100275
 21
-44.5657846059
  0
LINE
  5
224
100
AcDbEntity
  8
RACCORDO
100
AcDbLine
 62
253
  6
CONTINUOUS
 10
-26.2242099741
 20
-44.5631902416
 11
26.2242099741
 21
-44.5631902416
  0
LINE
  5
225
100
AcDbEntity
  8
DRAFT
100
AcDbLine
 62
7
  6
CONTINUOUS
 10
-28.0
 20
-44.2899946334
 11
-26.5
 21
-44.2899946334
  0
LINE
  5
226
100
AcDbEntity
  8
DRAFT
100
AcDbLine
 62
7
  6
CONTINUOUS
 10
28.0
 20
-44.2899946334
 11
26.5
 21
-44.2899946334
  0
LINE
  5
227
100
AcDbEntity
  8
DRAFT
100
AcDbLine
 62
253
  6
CONTINUOUS
 10
-26.5
 20
-40.2899946334
 11
-26.2242099741
 21
-40.2899946334
  0
LINE
  5
228
100
AcDbEntity
  8
DRAFT
100
AcDbLine
 62
253
  6
CONTINUOUS
 10
26.5
 20
-40.2899946334
 11
26.2242099741
 21
-40.2899946334
  0
LINE
  5
229
100
AcDbEntity
  8
RACCORDO
100
AcDbLine
 62
253
  6
CONTINUOUS
 10
32.0
 20
-40.2899946334
 11
34.0
 21
-40.2899946334
  0
LINE
  5
22A
100
AcDbEntity
  8
RACCORDO
100
AcDbLine
 62
253
  6
CONTINUOUS
 10
-32.0
 20
-40.2899946334
 11
-34.0
 21
-40.2899946334
  0
LINE
  5
22B
100
AcDbEntity
  8
DRAFT
100
AcDbLine
 62
7
  6
CONTINUOUS
 10
28.0
 20
-38.7899946334
 11
32.0
 21
-38.7899946334
  0
LINE
  5
22C
100
AcDbEntity
  8
DRAFT
100
AcDbLine
 62
7
  6
CONTINUOUS
 10
-28.0
 20
-38.7899946334
 11
-32.0
 21
-38.7899946334
  0
LINE
  5
22D
100
AcDbEntity
  8
DRAFT
100
AcDbLine
 62
7
  6
CONTINUOUS
 10
28.0
 20
-38.5142046075
 11
32.2731956082
 21
-38.5142046075
  0
LINE
  5
22E
100
AcDbEntity
  8
DRAFT
100
AcDbLine
 62
7
  6
CONTINUOUS
 10
-28.0
 20
-38.5142046075
 11
-32.2731956082
 21
-38.5142046075
  0
LINE
  5
22F
100
AcDbEntity
  8
SUPERFICI
100
AcDbLine
 62
7
  6
CONTINUOUS
 10
-34.0000081406
 20
-40.2899904433
 11
-33.99999988
 21
30.7100715651
  0
LINE
  5
230
100
AcDbEntity
  8
DRAFT
100
AcDbLine
 62
7
  6
CONTINUOUS
 10
-34.0
 20
30.7100053666
 11
-34.0
 21
-40.2899946334
  0
LINE
  5
231
100
AcDbEntity
  8
0
100
AcDbLine
 62
253
  6
CONTINUOUS
 10
-33.4678629402
 20
-33.8899946334
 11
-33.4678629402
 21
-28.6899946334
  0
LINE
  5
232
100
AcDbEntity
  8
0
100
AcDbLine
 62
253
  6
CONTINUOUS
 10
-33.3730280729
 20
30.7100053666
 11
-33.3730280729
 21
-27.7133921884
  0
LINE
  5
233
100
AcDbEntity
  8
0
100
AcDbLine
 62
253
  6
CONTINUOUS
 10
-33.3730280729
 20
-34.8665970742
 11
-33.3730280729
 21
-40.2899946334
  0
LINE
  5
234
100
AcDbEntity
  8
0
100
AcDbLine
 62
7
  6
CONTINUOUS
 10
-33.0
 20
-28.3899946334
 11
-33.0
 21
-34.1899946334
  0
LINE
  5
235
100
AcDbEntity
  8
RACCORDO
100
AcDbLine
 62
7
  6
CONTINUOUS
 10
-32.2757899725
 20
-38.5142046609
 11
-32.2757899725
 21
-40.2899946334
  0
LINE
  5
236
100
AcDbEntity
  8
RACCORDO
100
AcDbLine
 62
7
  6
CONTINUOUS
 10
-32.2757899725
 20
28.9342153941
 11
-32.2757899725
 21
30.7100053666
  0
LINE
  5
237
100
AcDbEntity
  8
RACCORDO
100
AcDbLine
 62
253
  6
CONTINUOUS
 10
-32.2731956082
 20
28.9342153407
 11
-32.2731956082
 21
-38.5142046075
  0
LINE
  5
238
100
AcDbEntity
  8
DRAFT
100
AcDbLine
 62
7
  6
CONTINUOUS
 10
-32.0
 20
-38.7899946334
 11
-32.0
 21
-40.2899946334
  0
LINE
  5
239
100
AcDbEntity
  8
DRAFT
100
AcDbLine
 62
7
  6
CONTINUOUS
 10
-32.0
 20
29.2100053666
 11
-32.0
 21
30.7100053666
  0
LINE
  5
23A
100
AcDbEntity
  8
0
100
AcDbLine
 62
253
  6
CONTINUOUS
 10
-33.4678629402
 20
-33.8899946334
 11
-33.0
 21
-33.8899946334
  0
LINE
  5
23B
100
AcDbEntity
  8
DRAFT
100
AcDbLine
 62
253
  6
CONTINUOUS
 10
-28.0
 20
29.2100053666
 11
-28.0
 21
28.9342153407
  0
LINE
  5
23C
100
AcDbEntity
  8
DRAFT
100
AcDbLine
 62
253
  6
CONTINUOUS
 10
-28.0
 20
-38.7899946334
 11
-28.0
 21
-38.5142046075
  0
LINE
  5
23D
100
AcDbEntity
  8
RACCORDO
100
AcDbLine
 62
253
  6
CONTINUOUS
 10
-28.0
 20
-44.2899946334
 11
-28.0
 21
-46.2899946334
  0
LINE
  5
23E
100
AcDbEntity
  8
RACCORDO
100
AcDbLine
 62
253
  6
CONTINUOUS
 10
-28.0
 20
34.7100053666
 11
-28.0
 21
36.7100053666
  0
LINE
  5
23F
100
AcDbEntity
  8
DRAFT
100
AcDbLine
 62
7
  6
CONTINUOUS
 10
-26.5
 20
34.7100053666
 11
-26.5
 21
30.7100053666
  0
LINE
  5
240
100
AcDbEntity
  8
DRAFT
100
AcDbLine
 62
7
  6
CONTINUOUS
 10
-26.5
 20
-44.2899946334
 11
-26.5
 21
-40.2899946334
  0
LINE
  5
241
100
AcDbEntity
  8
0
100
AcDbLine
 62
253
  6
CONTINUOUS
 10
-33.4678629402
 20
-28.6899946334
 11
-33.0
 21
-28.6899946387
  0
LINE
  5
242
100
AcDbEntity
  8
DRAFT
100
AcDbLine
 62
7
  6
CONTINUOUS
 10
-26.2242099741
 20
34.9832009748
 11
-26.2242099741
 21
30.7100053666
  0
LINE
  5
243
100
AcDbEntity
  8
DRAFT
100
AcDbLine
 62
7
  6
CONTINUOUS
 10
-26.2242099741
 20
-44.5631902416
 11
-26.2242099741
 21
-40.2899946334
  0
LINE
  5
244
100
AcDbEntity
  8
0
100
AcDbLine
 62
7
  6
CONTINUOUS
 10
-21.065387
 20
-4.9050836334
 11
-21.065387
 21
-6.3661156334
  0
LINE
  5
245
100
AcDbEntity
  8
0
100
AcDbLine
 62
7
  6
CONTINUOUS
 10
-20.793534
 20
-6.0830056334
 11
-20.793534
 21
-4.9050836334
  0
LINE
  5
246
100
AcDbEntity
  8
0
100
AcDbLine
 62
253
  6
CONTINUOUS
 10
-20.1
 20
36.1778683068
 11
-20.1
 21
35.7100053666
  0
LINE
  5
247
100
AcDbEntity
  8
0
100
AcDbLine
 62
7
  6
CONTINUOUS
 10
-17.6
 20
-21.2899946334
 11
-17.4
 21
-21.2899946334
  0
LINE
  5
248
100
AcDbEntity
  8
0
100
AcDbLine
 62
7
  6
CONTINUOUS
 10
-18.7037187644
 20
-6.3048601574
 11
-18.5737469122
 21
-6.5939248286
  0
LINE
  5
249
100
AcDbEntity
  8
0
100
AcDbLine
 62
7
  6
CONTINUOUS
 10
-18.7410220488
 20
-4.019106474
 11
-18.6454738397
 21
-4.3311421568
  0
LINE
  5
24A
100
AcDbEntity
  8
0
100
AcDbLine
 62
7
  6
CONTINUOUS
 10
-17.6
 20
11.7100053666
 11
-17.6
 21
-21.2899946334
  0
LINE
  5
24B
100
AcDbEntity
  8
0
100
AcDbLine
 62
7
  6
CONTINUOUS
 10
-17.4
 20
-21.2899946334
 11
-17.4
 21
11.7100053666
  0
LINE
  5
24C
100
AcDbEntity
  8
0
100
AcDbLine
 62
253
  6
CONTINUOUS
 10
-14.9
 20
36.1778683068
 11
-14.9000000056
 21
35.7100053666
  0
LINE
  5
24D
100
AcDbEntity
  8
0
100
AcDbLine
 62
7
  6
CONTINUOUS
 10
-20.6483798375
 20
-4.2142593151
 11
-20.5157908992
 21
-3.954578436
  0
LINE
  5
24E
100
AcDbEntity
  8
0
100
AcDbLine
 62
7
  6
CONTINUOUS
 10
-14.0
 20
37.5126130187
 11
-14.0
 21
36.1499592272
  0
LINE
  5
24F
100
AcDbEntity
  8
RACCORDO
100
AcDbLine
 62
7
  6
CONTINUOUS
 10
-14.0
 20
36.1499592272
 11
-14.0
 21
37.5126130187
  0
LINE
  5
250
100
AcDbEntity
  8
0
100
AcDbLine
 62
7
  6
CONTINUOUS
 10
-11.85
 20
39.9167292084
 11
-11.85
 21
39.4900053666
  0
LINE
  5
251
100
AcDbEntity
  8
RACCORDO
100
AcDbLine
 62
7
  6
CONTINUOUS
 10
-11.85
 20
39.4900053666
 11
-11.85
 21
39.9167292084
  0
LINE
  5
252
100
AcDbEntity
  8
0
100
AcDbLine
 62
7
  6
CONTINUOUS
 10
-11.35
 20
39.4900053666
 11
-11.35
 21
38.9900053666
  0
LINE
  5
253
100
AcDbEntity
  8
RACCORDO
100
AcDbLine
 62
7
  6
CONTINUOUS
 10
-10.1
 20
41.2900053666
 11
-10.1
 21
41.7569215872
  0
LINE
  5
254
100
AcDbEntity
  8
0
100
AcDbLine
 62
7
  6
CONTINUOUS
 10
-9.45
 20
41.2900053666
 11
-9.45
 21
40.7900053666
  0
LINE
  5
255
100
AcDbEntity
  8
0
100
AcDbLine
 62
7
  6
CONTINUOUS
 10
-8.35
 20
43.530126668
 11
-8.35
 21
43.0900053666
  0
LINE
  5
256
100
AcDbEntity
  8
RACCORDO
100
AcDbLine
 62
7
  6
CONTINUOUS
 10
-8.35
 20
43.0900053666
 11
-8.35
 21
43.530126668
  0
LINE
  5
257
100
AcDbEntity
  8
0
100
AcDbLine
 62
7
  6
CONTINUOUS
 10
-7.85
 20
43.0900053666
 11
-7.85
 21
42.5900053666
  0
LINE
  5
258
100
AcDbEntity
  8
0
100
AcDbLine
 62
7
  6
CONTINUOUS
 10
-7.5
 20
21.8100053666
 11
-7.5
 21
21.6100053666
  0
LINE
  5
259
100
AcDbEntity
  8
0
100
AcDbLine
 62
7
  6
CONTINUOUS
 10
-4.1
 20
45.2291647737
 11
-4.1
 21
44.8900053666
  0
LINE
  5
25A
100
AcDbEntity
  8
RACCORDO
100
AcDbLine
 62
7
  6
CONTINUOUS
 10
-4.1
 20
44.8900053666
 11
-4.1
 21
45.2291647737
  0
LINE
  5
25B
100
AcDbEntity
  8
0
100
AcDbLine
 62
7
  6
CONTINUOUS
 10
-3.6
 20
44.8900053666
 11
-3.6
 21
44.3900053666
  0
LINE
  5
25C
100
AcDbEntity
  8
0
100
AcDbLine
 62
7
  6
CONTINUOUS
 10
-1.5603169999
 20
24.4488953673
 11
-1.6011039925
 21
24.1278054258
  0
LINE
  5
25D
100
AcDbEntity
  8
0
100
AcDbLine
 62
7
  6
CONTINUOUS
 10
0.34811
 20
25.6581953666
 11
0.06038
 21
24.1236353666
  0
LINE
  5
25E
100
AcDbEntity
  8
0
100
AcDbLine
 62
7
  6
CONTINUOUS
 10
0.4812889101
 20
24.5025839117
 11
0.640531
 21
25.3079153666
  0
LINE
  5
25F
100
AcDbEntity
  8
0
100
AcDbLine
 62
7
  6
CONTINUOUS
 10
11.1960930686
 20
-5.8899946334
 11
10.0700680665
 21
-5.8899946334
  0
LINE
  5
260
100
AcDbEntity
  8
0
100
AcDbLine
 62
7
  6
CONTINUOUS
 10
-10.0700680665
 20
-5.8899946334
 11
-11.1960930686
 21
-5.8899946334
  0
LINE
  5
261
100
AcDbEntity
  8
0
100
AcDbLine
 62
7
  6
CONTINUOUS
 10
-20.793534
 20
-4.9050836334
 11
-21.065387
 21
-4.9050836334
  0
LINE
  5
262
100
AcDbEntity
  8
0
100
AcDbLine
 62
7
  6
CONTINUOUS
 10
-11.1960930686
 20
-3.6899946334
 11
-10.0700680665
 21
-3.6899946334
  0
LINE
  5
263
100
AcDbEntity
  8
0
100
AcDbLine
 62
7
  6
CONTINUOUS
 10
10.0700680665
 20
-3.6899946334
 11
11.1960930686
 21
-3.6899946334
  0
LINE
  5
264
100
AcDbEntity
  8
0
100
AcDbLine
 62
7
  6
CONTINUOUS
 10
-19.7875325974
 20
-3.6574636334
 11
-19.5160718602
 21
-3.6574636334
  0
LINE
  5
265
100
AcDbEntity
  8
0
100
AcDbLine
 62
7
  6
CONTINUOUS
 10
-19.8939441169
 20
-6.0987776313
 11
-20.793534
 21
-6.0830056334
  0
LINE
  5
266
100
AcDbEntity
  8
0
100
AcDbLine
 62
7
  6
CONTINUOUS
 10
-21.065387
 20
-6.3661156334
 11
-19.5275902179
 21
-6.3937976295
  0
LINE
  5
267
100
AcDbEntity
  8
0
100
AcDbLine
 62
7
  6
CONTINUOUS
 10
-1.1
 20
-15.986087702
 11
-1.1
 21
-14.8600626999
  0
LINE
  5
268
100
AcDbEntity
  8
0
100
AcDbLine
 62
7
  6
CONTINUOUS
 10
-1.1
 20
5.2800734332
 11
-1.1
 21
6.4060984352
  0
LINE
  5
269
100
AcDbEntity
  8
0
100
AcDbLine
 62
7
  6
CONTINUOUS
 10
1.1
 20
6.4060984352
 11
1.1
 21
5.2800734332
  0
LINE
  5
26A
100
AcDbEntity
  8
0
100
AcDbLine
 62
7
  6
CONTINUOUS
 10
1.1
 20
-14.8600626999
 11
1.1
 21
-15.986087702
  0
LINE
  5
26B
100
AcDbEntity
  8
0
100
AcDbLine
 62
7
  6
CONTINUOUS
 10
1.82846
 20
25.3079153666
 11
1.82846
 21
25.6581953666
  0
LINE
  5
26C
100
AcDbEntity
  8
0
100
AcDbLine
 62
7
  6
CONTINUOUS
 10
3.6
 20
44.8900053666
 11
3.6
 21
44.3900053666
  0
LINE
  5
26D
100
AcDbEntity
  8
0
100
AcDbLine
 62
7
  6
CONTINUOUS
 10
4.1
 20
45.2291647737
 11
4.1
 21
44.8900053666
  0
LINE
  5
26E
100
AcDbEntity
  8
RACCORDO
100
AcDbLine
 62
7
  6
CONTINUOUS
 10
4.1
 20
44.8900053666
 11
4.1
 21
45.2291647737
  0
LINE
  5
26F
100
AcDbEntity
  8
0
100
AcDbLine
 62
7
  6
CONTINUOUS
 10
7.5
 20
21.6100053666
 11
7.5
 21
21.8100053666
  0
LINE
  5
270
100
AcDbEntity
  8
0
100
AcDbLine
 62
7
  6
CONTINUOUS
 10
7.85
 20
43.0900053666
 11
7.85
 21
42.5900053666
  0
LINE
  5
271
100
AcDbEntity
  8
0
100
AcDbLine
 62
7
  6
CONTINUOUS
 10
8.35
 20
43.530126668
 11
8.35
 21
43.0900053666
  0
LINE
  5
272
100
AcDbEntity
  8
RACCORDO
100
AcDbLine
 62
7
  6
CONTINUOUS
 10
8.35
 20
43.0900053666
 11
8.35
 21
43.530126668
  0
LINE
  5
273
100
AcDbEntity
  8
0
100
AcDbLine
 62
7
  6
CONTINUOUS
 10
9.45
 20
41.2900053666
 11
9.45
 21
40.7900053666
  0
LINE
  5
274
100
AcDbEntity
  8
0
100
AcDbLine
 62
7
  6
CONTINUOUS
 10
10.1
 20
41.7569215872
 11
10.1
 21
41.2900053666
  0
LINE
  5
275
100
AcDbEntity
  8
RACCORDO
100
AcDbLine
 62
7
  6
CONTINUOUS
 10
10.1
 20
41.2900053666
 11
10.1
 21
41.7569215872
  0
LINE
  5
276
100
AcDbEntity
  8
0
100
AcDbLine
 62
7
  6
CONTINUOUS
 10
11.35
 20
39.4900053666
 11
11.35
 21
38.9900053666
  0
LINE
  5
277
100
AcDbEntity
  8
0
100
AcDbLine
 62
7
  6
CONTINUOUS
 10
11.85
 20
39.9167292084
 11
11.85
 21
39.4900053666
  0
LINE
  5
278
100
AcDbEntity
  8
RACCORDO
100
AcDbLine
 62
7
  6
CONTINUOUS
 10
11.85
 20
39.4900053666
 11
11.85
 21
39.9167292084
  0
LINE
  5
279
100
AcDbEntity
  8
0
100
AcDbLine
 62
7
  6
CONTINUOUS
 10
-17.4
 20
11.7100053666
 11
-17.6
 21
11.7100053666
  0
LINE
  5
27A
100
AcDbEntity
  8
0
100
AcDbLine
 62
7
  6
CONTINUOUS
 10
14.0
 20
37.5126130187
 11
14.0
 21
36.0900053666
  0
LINE
  5
27B
100
AcDbEntity
  8
RACCORDO
100
AcDbLine
 62
7
  6
CONTINUOUS
 10
14.0
 20
36.0900053666
 11
14.0
 21
37.5126130187
  0
LINE
  5
27C
100
AcDbEntity
  8
0
100
AcDbLine
 62
253
  6
CONTINUOUS
 10
14.9
 20
-45.7578575736
 11
14.9000000056
 21
-45.2899946334
  0
LINE
  5
27D
100
AcDbEntity
  8
0
100
AcDbLine
 62
253
  6
CONTINUOUS
 10
33.4678629402
 20
19.1100053666
 11
33.0
 21
19.1100053722
  0
LINE
  5
27E
100
AcDbEntity
  8
0
100
AcDbLine
 62
253
  6
CONTINUOUS
 10
20.1
 20
-45.7578575736
 11
20.1
 21
-45.2899946334
  0
LINE
  5
27F
100
AcDbEntity
  8
0
100
AcDbLine
 62
7
  6
CONTINUOUS
 10
0.3773
 20
23.5231553666
 11
-0.00634
 21
23.4939653666
  0
LINE
  5
280
100
AcDbEntity
  8
0
100
AcDbLine
 62
7
  6
CONTINUOUS
 10
-7.5
 20
21.6100053666
 11
7.5
 21
21.6100053666
  0
LINE
  5
281
100
AcDbEntity
  8
0
100
AcDbLine
 62
7
  6
CONTINUOUS
 10
7.5
 20
21.8100053666
 11
-7.5
 21
21.8100053666
  0
LINE
  5
282
100
AcDbEntity
  8
DRAFT
100
AcDbLine
 62
7
  6
CONTINUOUS
 10
26.2242099741
 20
34.9832009748
 11
26.2242099741
 21
30.7100053666
  0
LINE
  5
283
100
AcDbEntity
  8
DRAFT
100
AcDbLine
 62
7
  6
CONTINUOUS
 10
26.2242099741
 20
-44.5631902416
 11
26.2242099741
 21
-40.2899946334
  0
LINE
  5
284
100
AcDbEntity
  8
DRAFT
100
AcDbLine
 62
7
  6
CONTINUOUS
 10
26.5
 20
34.7100053666
 11
26.5
 21
30.7100053666
  0
LINE
  5
285
100
AcDbEntity
  8
DRAFT
100
AcDbLine
 62
7
  6
CONTINUOUS
 10
26.5
 20
-44.2899946334
 11
26.5
 21
-40.2899946334
  0
LINE
  5
286
100
AcDbEntity
  8
0
100
AcDbLine
 62
7
  6
CONTINUOUS
 10
-1.9579
 20
23.5523453666
 11
-2.32486
 21
23.5023053666
  0
LINE
  5
287
100
AcDbEntity
  8
0
100
AcDbLine
 62
253
  6
CONTINUOUS
 10
33.4678629402
 20
24.3100053666
 11
33.0
 21
24.3100053666
  0
LINE
  5
288
100
AcDbEntity
  8
0
100
AcDbLine
 62
7
  6
CONTINUOUS
 10
0.640531
 20
25.3079153666
 11
1.82846
 21
25.3079153666
  0
LINE
  5
289
100
AcDbEntity
  8
0
100
AcDbLine
 62
7
  6
CONTINUOUS
 10
1.82846
 20
25.6581953666
 11
0.34811
 21
25.6581953666
  0
LINE
  5
28A
100
AcDbEntity
  8
0
100
AcDbLine
 62
7
  6
CONTINUOUS
 10
0.06038
 20
24.1236353666
 11
0.40649
 21
24.0735953666
  0
LINE
  5
28B
100
AcDbEntity
  8
0
100
AcDbLine
 62
7
  6
CONTINUOUS
 10
-2.28733
 20
24.9326153666
 11
-1.92037
 21
24.8658953666
  0
LINE
  5
28C
100
AcDbEntity
  8
DRAFT
100
AcDbLine
 62
253
  6
CONTINUOUS
 10
28.0
 20
29.2100053666
 11
28.0
 21
28.9342153407
  0
LINE
  5
28D
100
AcDbEntity
  8
DRAFT
100
AcDbLine
 62
253
  6
CONTINUOUS
 10
28.0
 20
-38.7899946334
 11
28.0
 21
-38.5142046075
  0
LINE
  5
28E
100
AcDbEntity
  8
RACCORDO
100
AcDbLine
 62
253
  6
CONTINUOUS
 10
28.0
 20
-44.2899946334
 11
28.0
 21
-46.2899946334
  0
LINE
  5
28F
100
AcDbEntity
  8
RACCORDO
100
AcDbLine
 62
253
  6
CONTINUOUS
 10
28.0
 20
34.7100053666
 11
28.0
 21
36.7100053666
  0
LINE
  5
290
100
AcDbEntity
  8
DRAFT
100
AcDbLine
 62
7
  6
CONTINUOUS
 10
28.0
 20
28.9342153407
 11
32.2731956082
 21
28.9342153407
  0
LINE
  5
291
100
AcDbEntity
  8
DRAFT
100
AcDbLine
 62
7
  6
CONTINUOUS
 10
-28.0
 20
28.9342153407
 11
-32.2731956082
 21
28.9342153407
  0
LINE
  5
292
100
AcDbEntity
  8
DRAFT
100
AcDbLine
 62
7
  6
CONTINUOUS
 10
28.0
 20
29.2100053666
 11
32.0
 21
29.2100053666
  0
LINE
  5
293
100
AcDbEntity
  8
DRAFT
100
AcDbLine
 62
7
  6
CONTINUOUS
 10
-28.0
 20
29.2100053666
 11
-32.0
 21
29.2100053666
  0
LINE
  5
294
100
AcDbEntity
  8
DRAFT
100
AcDbLine
 62
253
  6
CONTINUOUS
 10
-26.5
 20
30.7100053666
 11
-26.2242099741
 21
30.7100053666
  0
LINE
  5
295
100
AcDbEntity
  8
DRAFT
100
AcDbLine
 62
253
  6
CONTINUOUS
 10
26.5
 20
30.7100053666
 11
26.2242099741
 21
30.7100053666
  0
LINE
  5
296
100
AcDbEntity
  8
RACCORDO
100
AcDbLine
 62
253
  6
CONTINUOUS
 10
32.0
 20
30.7100053666
 11
34.0
 21
30.7100053666
  0
LINE
  5
297
100
AcDbEntity
  8
RACCORDO
100
AcDbLine
 62
253
  6
CONTINUOUS
 10
-32.0
 20
30.7100053666
 11
-34.0
 21
30.7100053666
  0
LINE
  5
298
100
AcDbEntity
  8
DRAFT
100
AcDbLine
 62
7
  6
CONTINUOUS
 10
32.0
 20
-38.7899946334
 11
32.0
 21
-40.2899946334
  0
LINE
  5
299
100
AcDbEntity
  8
DRAFT
100
AcDbLine
 62
7
  6
CONTINUOUS
 10
32.0
 20
29.2100053666
 11
32.0
 21
30.7100053666
  0
LINE
  5
29A
100
AcDbEntity
  8
RACCORDO
100
AcDbLine
 62
253
  6
CONTINUOUS
 10
32.2731956082
 20
-38.5142046075
 11
32.2731956082
 21
28.9342153407
  0
LINE
  5
29B
100
AcDbEntity
  8
RACCORDO
100
AcDbLine
 62
7
  6
CONTINUOUS
 10
32.2757899725
 20
-38.5142046609
 11
32.2757899725
 21
-40.2899946334
  0
LINE
  5
29C
100
AcDbEntity
  8
RACCORDO
100
AcDbLine
 62
7
  6
CONTINUOUS
 10
32.2757899725
 20
28.9342153941
 11
32.2757899725
 21
30.7100053666
  0
LINE
  5
29D
100
AcDbEntity
  8
0
100
AcDbLine
 62
7
  6
CONTINUOUS
 10
33.0
 20
18.8100053666
 11
33.0
 21
24.6100053666
  0
LINE
  5
29E
100
AcDbEntity
  8
0
100
AcDbLine
 62
253
  6
CONTINUOUS
 10
33.3730280729
 20
-40.2899946334
 11
33.3730280729
 21
18.1334029216
  0
LINE
  5
29F
100
AcDbEntity
  8
0
100
AcDbLine
 62
253
  6
CONTINUOUS
 10
33.3730280729
 20
25.2866078074
 11
33.3730280729
 21
30.7100053666
  0
LINE
  5
2A0
100
AcDbEntity
  8
0
100
AcDbLine
 62
253
  6
CONTINUOUS
 10
33.4678629402
 20
24.3100053666
 11
33.4678629402
 21
19.1100053666
  0
LINE
  5
2A1
100
AcDbEntity
  8
DRAFT
100
AcDbLine
 62
7
  6
CONTINUOUS
 10
34.0
 20
-40.2899946334
 11
34.0
 21
30.7100053666
  0
LINE
  5
2A2
100
AcDbEntity
  8
SUPERFICI
100
AcDbLine
 62
7
  6
CONTINUOUS
 10
33.99999988
 20
30.7100715651
 11
34.0000081406
 21
-40.2899904433
  0
LINE
  5
2A3
100
AcDbEntity
  8
DRAFT
100
AcDbLine
 62
7
  6
CONTINUOUS
 10
-28.0
 20
34.7100053666
 11
-26.5
 21
34.7100053666
  0
LINE
  5
2A4
100
AcDbEntity
  8
DRAFT
100
AcDbLine
 62
7
  6
CONTINUOUS
 10
28.0
 20
34.7100053666
 11
26.5
 21
34.7100053666
  0
LINE
  5
2A5
100
AcDbEntity
  8
RACCORDO
100
AcDbLine
 62
253
  6
CONTINUOUS
 10
26.2242099741
 20
34.9832009748
 11
-26.2242099741
 21
34.9832009748
  0
LINE
  5
2A6
100
AcDbEntity
  8
RACCORDO
100
AcDbLine
 62
7
  6
CONTINUOUS
 10
-28.0
 20
34.9857953391
 11
-26.2242100275
 21
34.9857953391
  0
LINE
  5
2A7
100
AcDbEntity
  8
RACCORDO
100
AcDbLine
 62
7
  6
CONTINUOUS
 10
28.0
 20
34.9857953391
 11
26.2242100275
 21
34.9857953391
  0
LINE
  5
2A8
100
AcDbEntity
  8
0
100
AcDbLine
 62
7
  6
CONTINUOUS
 10
-14.6
 20
35.7100053666
 11
-20.4
 21
35.7100053666
  0
LINE
  5
2A9
100
AcDbEntity
  8
0
100
AcDbLine
 62
253
  6
CONTINUOUS
 10
28.0
 20
36.0830334395
 11
-13.923397555
 21
36.0830334395
  0
LINE
  5
2AA
100
AcDbEntity
  8
0
100
AcDbLine
 62
253
  6
CONTINUOUS
 10
-21.0766024408
 20
36.0830334395
 11
-28.0
 21
36.0830334395
  0
LINE
  5
2AB
100
AcDbEntity
  8
0
100
AcDbLine
 62
253
  6
CONTINUOUS
 10
-20.1
 20
36.1778683068
 11
-14.9
 21
36.1778683068
  0
LINE
  5
2AC
100
AcDbEntity
  8
DRAFT
100
AcDbLine
 62
7
  6
CONTINUOUS
 10
28.0
 20
36.7100053666
 11
14.0
 21
36.7100053666
  0
LINE
  5
2AD
100
AcDbEntity
  8
DRAFT
100
AcDbLine
 62
7
  6
CONTINUOUS
 10
-14.0
 20
36.7100053666
 11
-28.0
 21
36.7100053666
  0
LINE
  5
2AE
100
AcDbEntity
  8
SUPERFICI
100
AcDbLine
 62
7
  6
CONTINUOUS
 10
-28.0086838119
 20
36.7100161144
 11
-14.0
 21
36.7100153105
  0
LINE
  5
2AF
100
AcDbEntity
  8
SUPERFICI
100
AcDbLine
 62
7
  6
CONTINUOUS
 10
14.0
 20
36.7100137038
 11
28.0087161024
 21
36.7100128999
  0
LINE
  5
2B0
100
AcDbEntity
  8
RACCORDO
100
AcDbLine
 62
253
  6
CONTINUOUS
 10
-14.0
 20
37.5126130187
 11
14.0
 21
37.5126130187
  0
LINE
  5
2B1
100
AcDbEntity
  8
RACCORDO
100
AcDbLine
 62
253
  6
CONTINUOUS
 10
-13.2588190451
 20
38.478538845
 11
13.2588190451
 21
38.478538845
  0
LINE
  5
2B2
100
AcDbEntity
  8
0
100
AcDbLine
 62
7
  6
CONTINUOUS
 10
-11.35
 20
38.9900053666
 11
-13.2588190451
 21
38.478538845
  0
LINE
  5
2B3
100
AcDbEntity
  8
RACCORDO
100
AcDbLine
 62
7
  6
CONTINUOUS
 10
-13.2588190451
 20
38.478538845
 11
-11.35
 21
38.9900053666
  0
LINE
  5
2B4
100
AcDbEntity
  8
0
100
AcDbLine
 62
7
  6
CONTINUOUS
 10
-9.45
 20
40.7900053666
 11
-11.6276457135
 21
40.2065069563
  0
LINE
  5
2B5
100
AcDbEntity
  8
RACCORDO
100
AcDbLine
 62
7
  6
CONTINUOUS
 10
-11.6276457135
 20
40.2065069563
 11
-9.45
 21
40.7900053666
  0
LINE
  5
2B6
100
AcDbEntity
  8
0
100
AcDbLine
 62
7
  6
CONTINUOUS
 10
-11.35
 20
38.9900053666
 11
11.35
 21
38.9900053666
  0
LINE
  5
2B7
100
AcDbEntity
  8
0
100
AcDbLine
 62
7
  6
CONTINUOUS
 10
-11.85
 20
39.4900053666
 11
11.85
 21
39.4900053666
  0
LINE
  5
2B8
100
AcDbEntity
  8
RACCORDO
100
AcDbLine
 62
253
  6
CONTINUOUS
 10
-11.85
 20
39.9167292084
 11
11.85
 21
39.9167292084
  0
LINE
  5
2B9
100
AcDbEntity
  8
RACCORDO
100
AcDbLine
 62
253
  6
CONTINUOUS
 10
-11.6276457135
 20
40.2065069563
 11
11.6276457135
 21
40.2065069563
  0
LINE
  5
2BA
100
AcDbEntity
  8
0
100
AcDbLine
 62
7
  6
CONTINUOUS
 10
-9.45
 20
40.7900053666
 11
9.45
 21
40.7900053666
  0
LINE
  5
2BB
100
AcDbEntity
  8
0
100
AcDbLine
 62
7
  6
CONTINUOUS
 10
-10.1
 20
41.2900053666
 11
10.1
 21
41.2900053666
  0
LINE
  5
2BC
100
AcDbEntity
  8
RACCORDO
100
AcDbLine
 62
253
  6
CONTINUOUS
 10
-10.1
 20
41.7569215872
 11
10.1
 21
41.7569215872
  0
LINE
  5
2BD
100
AcDbEntity
  8
RACCORDO
100
AcDbLine
 62
253
  6
CONTINUOUS
 10
-9.8776457135
 20
42.0466993351
 11
9.8776457135
 21
42.0466993351
  0
LINE
  5
2BE
100
AcDbEntity
  8
0
100
AcDbLine
 62
7
  6
CONTINUOUS
 10
-7.85
 20
42.5900053666
 11
7.85
 21
42.5900053666
  0
LINE
  5
2BF
100
AcDbEntity
  8
0
100
AcDbLine
 62
7
  6
CONTINUOUS
 10
11.35
 20
38.9900053666
 11
13.2588190451
 21
38.478538845
  0
LINE
  5
2C0
100
AcDbEntity
  8
RACCORDO
100
AcDbLine
 62
7
  6
CONTINUOUS
 10
13.2588190451
 20
38.478538845
 11
11.35
 21
38.9900053666
  0
LINE
  5
2C1
100
AcDbEntity
  8
0
100
AcDbLine
 62
7
  6
CONTINUOUS
 10
9.45
 20
40.7900053666
 11
11.6276457135
 21
40.2065069563
  0
LINE
  5
2C2
100
AcDbEntity
  8
RACCORDO
100
AcDbLine
 62
7
  6
CONTINUOUS
 10
11.6276457135
 20
40.2065069563
 11
9.45
 21
40.7900053666
  0
LINE
  5
2C3
100
AcDbEntity
  8
0
100
AcDbLine
 62
7
  6
CONTINUOUS
 10
-7.85
 20
42.5900053666
 11
-9.8776457135
 21
42.0466993351
  0
LINE
  5
2C4
100
AcDbEntity
  8
RACCORDO
100
AcDbLine
 62
7
  6
CONTINUOUS
 10
-9.8776457135
 20
42.0466993351
 11
-7.85
 21
42.5900053666
  0
LINE
  5
2C5
100
AcDbEntity
  8
0
100
AcDbLine
 62
7
  6
CONTINUOUS
 10
-6.0
 20
44.3900053666
 11
-8.1276457135
 21
43.8199044159
  0
LINE
  5
2C6
100
AcDbEntity
  8
RACCORDO
100
AcDbLine
 62
7
  6
CONTINUOUS
 10
-8.1276457135
 20
43.8199044159
 11
-6.0
 21
44.3900053666
  0
LINE
  5
2C7
100
AcDbEntity
  8
0
100
AcDbLine
 62
7
  6
CONTINUOUS
 10
-1.0
 20
46.2900053666
 11
-3.8776457135
 21
45.5189425216
  0
LINE
  5
2C8
100
AcDbEntity
  8
RACCORDO
100
AcDbLine
 62
7
  6
CONTINUOUS
 10
-3.8776457135
 20
45.5189425216
 11
-1.0
 21
46.2900053666
  0
LINE
  5
2C9
100
AcDbEntity
  8
0
100
AcDbLine
 62
7
  6
CONTINUOUS
 10
-8.35
 20
43.0900053666
 11
8.35
 21
43.0900053666
  0
LINE
  5
2CA
100
AcDbEntity
  8
RACCORDO
100
AcDbLine
 62
253
  6
CONTINUOUS
 10
-8.35
 20
43.530126668
 11
8.35
 21
43.530126668
  0
LINE
  5
2CB
100
AcDbEntity
  8
RACCORDO
100
AcDbLine
 62
253
  6
CONTINUOUS
 10
-8.1276457135
 20
43.8199044159
 11
8.1276457135
 21
43.8199044159
  0
LINE
  5
2CC
100
AcDbEntity
  8
0
100
AcDbLine
 62
7
  6
CONTINUOUS
 10
-6.0
 20
44.3900053666
 11
6.0
 21
44.3900053666
  0
LINE
  5
2CD
100
AcDbEntity
  8
0
100
AcDbLine
 62
7
  6
CONTINUOUS
 10
-4.1
 20
44.8900053666
 11
4.1
 21
44.8900053666
  0
LINE
  5
2CE
100
AcDbEntity
  8
RACCORDO
100
AcDbLine
 62
253
  6
CONTINUOUS
 10
-4.1
 20
45.2291647737
 11
4.1
 21
45.2291647737
  0
LINE
  5
2CF
100
AcDbEntity
  8
RACCORDO
100
AcDbLine
 62
253
  6
CONTINUOUS
 10
-3.8776457135
 20
45.5189425216
 11
3.8776457135
 21
45.5189425216
  0
LINE
  5
2D0
100
AcDbEntity
  8
0
100
AcDbLine
 62
7
  6
CONTINUOUS
 10
-1.0
 20
46.2900053666
 11
1.0
 21
46.2900053666
  0
LINE
  5
2D1
100
AcDbEntity
  8
0
100
AcDbLine
 62
7
  6
CONTINUOUS
 10
7.85
 20
42.5900053666
 11
9.8776457135
 21
42.0466993351
  0
LINE
  5
2D2
100
AcDbEntity
  8
RACCORDO
100
AcDbLine
 62
7
  6
CONTINUOUS
 10
9.8776457135
 20
42.0466993351
 11
7.85
 21
42.5900053666
  0
LINE
  5
2D3
100
AcDbEntity
  8
0
100
AcDbLine
 62
7
  6
CONTINUOUS
 10
6.0
 20
44.3900053666
 11
8.1276457135
 21
43.8199044159
  0
LINE
  5
2D4
100
AcDbEntity
  8
RACCORDO
100
AcDbLine
 62
7
  6
CONTINUOUS
 10
8.1276457135
 20
43.8199044159
 11
6.0
 21
44.3900053666
  0
LINE
  5
2D5
100
AcDbEntity
  8
0
100
AcDbLine
 62
7
  6
CONTINUOUS
 10
1.0
 20
46.2900053666
 11
3.8776457135
 21
45.5189425216
  0
LINE
  5
2D6
100
AcDbEntity
  8
RACCORDO
100
AcDbLine
 62
7
  6
CONTINUOUS
 10
3.8776457135
 20
45.5189425216
 11
1.0
 21
46.2900053666
  0
LINE
  5
2D7
100
AcDbEntity
  8
DRAFT
100
AcDbLine
 62
7
  6
CONTINUOUS
 10
32.0
 20
29.2100053666
 11
32.2757899725
 21
28.9342153941
  0
LINE
  5
2D8
100
AcDbEntity
  8
DRAFT
100
AcDbLine
 62
7
  6
CONTINUOUS
 10
26.5
 20
34.7100053666
 11
26.2242099741
 21
34.9857953925
  0
LINE
  5
2D9
100
AcDbEntity
  8
DRAFT
100
AcDbLine
 62
7
  6
CONTINUOUS
 10
26.5
 20
-44.2899946334
 11
26.2242099741
 21
-44.5657846593
  0
LINE
  5
2DA
100
AcDbEntity
  8
DRAFT
100
AcDbLine
 62
7
  6
CONTINUOUS
 10
32.0
 20
-38.7899946334
 11
32.2757899725
 21
-38.5142046609
  0
CIRCLE
  5
2DB
100
AcDbEntity
  8
RACCORDO
100
AcDbCircle
 62
7
  6
CONTINUOUS
 10
-17.5
 20
-31.2899946334
 40
9.5
  0
CIRCLE
  5
2DC
100
AcDbEntity
  8
RACCORDO
100
AcDbCircle
 62
253
  6
CONTINUOUS
 10
-17.5
 20
-31.2899946334
 40
8.9999990565
  0
ARC
  5
2DD
100
AcDbEntity
  8
SUPERFICI
100
AcDbCircle
 62
7
  6
CONTINUOUS
 10
-28.0000028528
 20
-40.2899974862
 40
6.0000048868
100
AcDbArc
 50
179.9999327458
 51
269.9087817755
  0
ARC
  5
2DE
100
AcDbEntity
  8
DRAFT
100
AcDbCircle
 62
7
  6
CONTINUOUS
 10
-28.0
 20
-40.2899946334
 40
6.0
100
AcDbArc
 50
180.0
 51
270.0
  0
ARC
  5
2DF
100
AcDbEntity
  8
RACCORDO
100
AcDbCircle
 62
253
  6
CONTINUOUS
 10
-28.0
 20
-40.2899946334
 40
5.3730280717
100
AcDbArc
 50
180.0
 51
270.0
  0
ARC
  5
2E0
100
AcDbEntity
  8
RACCORDO
100
AcDbCircle
 62
7
  6
CONTINUOUS
 10
-28.0
 20
-40.2899946334
 40
4.2757899725
100
AcDbArc
 50
180.0
 51
270.0
  0
ARC
  5
2E1
100
AcDbEntity
  8
DRAFT
100
AcDbCircle
 62
7
  6
CONTINUOUS
 10
-28.0
 20
-40.2899946334
 40
4.0
100
AcDbArc
 50
180.0
 51
270.0
  0
CIRCLE
  5
2E2
100
AcDbEntity
  8
0
100
AcDbCircle
 62
7
  6
CONTINUOUS
 10
-17.5
 20
-31.2899946334
 40
2.25
  0
CIRCLE
  5
2E3
100
AcDbEntity
  8
0
100
AcDbCircle
 62
7
  6
CONTINUOUS
 10
-17.5
 20
-31.2899946334
 40
1.8
  0
ARC
  5
2E4
100
AcDbEntity
  8
DRAFT
100
AcDbCircle
 62
7
  6
CONTINUOUS
 10
-28.0
 20
-40.2899946334
 40
1.7757900259
100
AcDbArc
 50
0.0
 51
90.0
  0
ARC
  5
2E5
100
AcDbEntity
  8
DRAFT
100
AcDbCircle
 62
7
  6
CONTINUOUS
 10
-28.0
 20
-40.2899946334
 40
1.5
100
AcDbArc
 50
0.0
 51
90.0
  0
CIRCLE
  5
2E6
100
AcDbEntity
  8
0
100
AcDbCircle
 62
7
  6
CONTINUOUS
 10
-17.5
 20
-31.2899946334
 40
1.5
  0
ARC
  5
2E7
100
AcDbEntity
  8
0
100
AcDbCircle
 62
7
  6
CONTINUOUS
 10
-19.1845448244
 20
-3.0797895009
 40
1.362527402
100
AcDbArc
 50
293.3059241593
 51
295.479327962
  0
ARC
  5
2E8
100
AcDbEntity
  8
0
100
AcDbCircle
 62
7
  6
CONTINUOUS
 10
-19.1545527273
 20
-5.4275604096
 40
1.3029741114
100
AcDbArc
 50
296.471585841
 51
297.7290150867
  0
ARC
  5
2E9
100
AcDbEntity
  8
0
100
AcDbCircle
 62
7
  6
CONTINUOUS
 10
-19.1391814082
 20
-3.1744764316
 40
1.2575350088
100
AcDbArc
 50
295.4693745708
 51
298.5182273658
  0
ARC
  5
2EA
100
AcDbEntity
  8
0
100
AcDbCircle
 62
7
  6
CONTINUOUS
 10
-19.1080638428
 20
-5.5143669728
 40
1.2045059877
100
AcDbArc
 50
297.6928750903
 51
301.8280313082
  0
ARC
  5
2EB
100
AcDbEntity
  8
0
100
AcDbCircle
 62
7
  6
CONTINUOUS
 10
-20.0810490668
 20
-3.2175248321
 40
1.1468844361
100
AcDbArc
 50
234.9244625819
 51
240.3519237661
  0
ARC
  5
2EC
100
AcDbEntity
  8
0
100
AcDbCircle
 62
7
  6
CONTINUOUS
 10
-19.096346997
 20
-5.7051421049
 40
0.8879451778
100
AcDbArc
 50
116.8189103228
 51
118.1388603071
  0
ARC
  5
2ED
100
AcDbEntity
  8
0
100
AcDbCircle
 62
7
  6
CONTINUOUS
 10
-19.0976905581
 20
-5.7009609782
 40
0.8836872301
100
AcDbArc
 50
124.4046174226
 51
130.3116488957
  0
ARC
  5
2EE
100
AcDbEntity
  8
0
100
AcDbCircle
 62
7
  6
CONTINUOUS
 10
-19.1014727799
 20
-5.695819428
 40
0.8773070119
100
AcDbArc
 50
118.1308087916
 51
124.3905471937
  0
ARC
  5
2EF
100
AcDbEntity
  8
0
100
AcDbCircle
 62
7
  6
CONTINUOUS
 10
-32.6501037163
 20
-34.9092295753
 40
0.7998247033
100
AcDbArc
 50
115.9421797878
 51
180.0115328153
  0
ARC
  5
2F0
100
AcDbEntity
  8
0
100
AcDbCircle
 62
7
  6
CONTINUOUS
 10
-32.6501036545
 20
-27.6707737506
 40
0.7998155208
100
AcDbArc
 50
179.98745989
 51
244.0573756388
  0
ARC
  5
2F1
100
AcDbEntity
  8
0
100
AcDbCircle
 62
253
  6
CONTINUOUS
 10
-33.7994209397
 20
-34.190897657
 40
0.7989882067
100
AcDbArc
 50
295.9398514449
 51
302.2535348268
  0
ARC
  5
2F2
100
AcDbEntity
  8
0
100
AcDbCircle
 62
253
  6
CONTINUOUS
 10
-33.7985388149
 20
-28.3875067385
 40
0.7971759147
100
AcDbArc
 50
57.7392934743
 51
64.0673350278
  0
ARC
  5
2F3
100
AcDbEntity
  8
0
100
AcDbCircle
 62
7
  6
CONTINUOUS
 10
-20.3969149714
 20
-3.3158644965
 40
0.7693201757
100
AcDbArc
 50
18.2785459057
 51
24.2324694543
  0
ARC
  5
2F4
100
AcDbEntity
  8
0
100
AcDbCircle
 62
7
  6
CONTINUOUS
 10
-18.9508244415
 20
-3.244892353
 40
0.7510994307
100
AcDbArc
 50
118.2033932976
 51
124.9191107844
  0
ARC
  5
2F5
100
AcDbEntity
  8
0
100
AcDbCircle
 62
7
  6
CONTINUOUS
 10
-18.9542227992
 20
-3.2390439422
 40
0.7443373351
100
AcDbArc
 50
114.874356028
 51
118.1856186395
  0
ARC
  5
2F6
100
AcDbEntity
  8
0
100
AcDbCircle
 62
7
  6
CONTINUOUS
 10
-20.3583509666
 20
-3.2985750796
 40
0.7270555836
100
AcDbArc
 50
24.2373710383
 51
36.426532081
  0
ARC
  5
2F7
100
AcDbEntity
  8
0
100
AcDbCircle
 62
7
  6
CONTINUOUS
 10
-18.9870746861
 20
-3.1849586725
 40
0.6809160939
100
AcDbArc
 50
139.6535466631
 51
146.9496297314
  0
CIRCLE
  5
2F8
100
AcDbEntity
  8
RACCORDO
100
AcDbCircle
 62
7
  6
CONTINUOUS
 10
-17.5
 20
21.7100053666
 40
9.5
  0
CIRCLE
  5
2F9
100
AcDbEntity
  8
RACCORDO
100
AcDbCircle
 62
253
  6
CONTINUOUS
 10
-17.5
 20
21.7100053666
 40
8.9999990565
  0
ARC
  5
2FA
100
AcDbEntity
  8
SUPERFICI
100
AcDbCircle
 62
7
  6
CONTINUOUS
 10
-27.9999972513
 20
30.710002618
 40
6.0000091571
100
AcDbArc
 50
90.0829502982
 51
179.9993416037
  0
ARC
  5
2FB
100
AcDbEntity
  8
DRAFT
100
AcDbCircle
 62
7
  6
CONTINUOUS
 10
-28.0
 20
30.7100053666
 40
6.0
100
AcDbArc
 50
90.0
 51
180.0
  0
ARC
  5
2FC
100
AcDbEntity
  8
RACCORDO
100
AcDbCircle
 62
253
  6
CONTINUOUS
 10
-28.0
 20
30.7100053666
 40
5.3730280717
100
AcDbArc
 50
90.0
 51
180.0
  0
ARC
  5
2FD
100
AcDbEntity
  8
RACCORDO
100
AcDbCircle
 62
7
  6
CONTINUOUS
 10
-28.0
 20
30.7100053666
 40
4.2757899725
100
AcDbArc
 50
90.0
 51
180.0
  0
ARC
  5
2FE
100
AcDbEntity
  8
DRAFT
100
AcDbCircle
 62
7
  6
CONTINUOUS
 10
-28.0
 20
30.7100053666
 40
4.0
100
AcDbArc
 50
90.0
 51
180.0
  0
CIRCLE
  5
2FF
100
AcDbEntity
  8
0
100
AcDbCircle
 62
7
  6
CONTINUOUS
 10
-17.5
 20
21.7100053666
 40
2.25
  0
CIRCLE
  5
300
100
AcDbEntity
  8
0
100
AcDbCircle
 62
7
  6
CONTINUOUS
 10
-17.5
 20
21.7100053666
 40
1.8
  0
ARC
  5
301
100
AcDbEntity
  8
DRAFT
100
AcDbCircle
 62
7
  6
CONTINUOUS
 10
-28.0
 20
30.7100053666
 40
1.7757900259
100
AcDbArc
 50
270.0
 51
360.0
  0
CIRCLE
  5
302
100
AcDbEntity
  8
0
100
AcDbCircle
 62
7
  6
CONTINUOUS
 10
-17.5
 20
21.7100053666
 40
1.5
  0
ARC
  5
303
100
AcDbEntity
  8
DRAFT
100
AcDbCircle
 62
7
  6
CONTINUOUS
 10
-28.0
 20
30.7100053666
 40
1.5
100
AcDbArc
 50
270.0
 51
360.0
  0
ARC
  5
304
100
AcDbEntity
  8
0
100
AcDbCircle
 62
7
  6
CONTINUOUS
 10
-21.1192355636
 20
35.3601090808
 40
0.7998249454
100
AcDbArc
 50
25.9421604422
 51
90.0114882835
  0
ARC
  5
305
100
AcDbEntity
  8
0
100
AcDbCircle
 62
253
  6
CONTINUOUS
 10
-20.4009030284
 20
36.5094263125
 40
0.7989882067
100
AcDbArc
 50
205.9398519943
 51
212.2535353856
  0
ARC
  5
306
100
AcDbEntity
  8
RACCORDO
100
AcDbCircle
 62
7
  6
CONTINUOUS
 10
-13.0
 20
37.5126130187
 40
1.0
100
AcDbArc
 50
105.0
 51
180.0
  0
ARC
  5
307
100
AcDbEntity
  8
0
100
AcDbCircle
 62
7
  6
CONTINUOUS
 10
-13.8807791387
 20
35.3601090554
 40
0.7998155208
100
AcDbArc
 50
89.9874583533
 51
154.0573771759
  0
ARC
  5
308
100
AcDbEntity
  8
0
100
AcDbCircle
 62
253
  6
CONTINUOUS
 10
-14.5975121004
 20
36.5085441876
 40
0.7971759147
100
AcDbArc
 50
327.7392929226
 51
334.0673344855
  0
ARC
  5
309
100
AcDbEntity
  8
RACCORDO
100
AcDbCircle
 62
7
  6
CONTINUOUS
 10
-3.8
 20
45.2291647737
 40
0.3
100
AcDbArc
 50
104.9999999924
 51
180.0
  0
ARC
  5
30A
100
AcDbEntity
  8
RACCORDO
100
AcDbCircle
 62
7
  6
CONTINUOUS
 10
-11.55
 20
39.9167292084
 40
0.3
100
AcDbArc
 50
104.9999999999
 51
180.0
  0
ARC
  5
30B
100
AcDbEntity
  8
RACCORDO
100
AcDbCircle
 62
7
  6
CONTINUOUS
 10
-9.8
 20
41.7569215872
 40
0.3
100
AcDbArc
 50
105.0
 51
180.0
  0
ARC
  5
30C
100
AcDbEntity
  8
RACCORDO
100
AcDbCircle
 62
7
  6
CONTINUOUS
 10
-8.05
 20
43.530126668
 40
0.3
100
AcDbArc
 50
104.9999999998
 51
180.0
  0
ARC
  5
30D
100
AcDbEntity
  8
0
100
AcDbCircle
 62
7
  6
CONTINUOUS
 10
13.8807797239
 20
-44.9400979084
 40
0.7998155208
100
AcDbArc
 50
269.9874164345
 51
334.0573321825
  0
CIRCLE
  5
30E
100
AcDbEntity
  8
0
100
AcDbCircle
 62
7
  6
CONTINUOUS
 10
-0.0
 20
-4.7899946334
 40
11.25
  0
ARC
  5
30F
100
AcDbEntity
  8
0
100
AcDbCircle
 62
7
  6
CONTINUOUS
 10
-0.0
 20
-4.7899946334
 40
11.0
100
AcDbArc
 50
185.7391704773
 51
264.2608295227
  0
ARC
  5
310
100
AcDbEntity
  8
0
100
AcDbCircle
 62
7
  6
CONTINUOUS
 10
-0.0
 20
-4.7899946334
 40
11.0
100
AcDbArc
 50
275.7391704773
 51
354.2608295227
  0
ARC
  5
311
100
AcDbEntity
  8
0
100
AcDbCircle
 62
7
  6
CONTINUOUS
 10
-0.0
 20
-4.7899946334
 40
11.0
100
AcDbArc
 50
95.7391704773
 51
174.2608295227
  0
ARC
  5
312
100
AcDbEntity
  8
0
100
AcDbCircle
 62
7
  6
CONTINUOUS
 10
-0.0
 20
-4.7899946334
 40
11.0
100
AcDbArc
 50
5.7391704773
 51
84.2608295227
  0
ARC
  5
313
100
AcDbEntity
  8
0
100
AcDbCircle
 62
7
  6
CONTINUOUS
 10
-0.0
 20
-4.7899946334
 40
10.1299689469
100
AcDbArc
 50
6.233965798
 51
83.766034202
  0
ARC
  5
314
100
AcDbEntity
  8
0
100
AcDbCircle
 62
7
  6
CONTINUOUS
 10
-0.0
 20
-4.7899946334
 40
10.1299689469
100
AcDbArc
 50
96.233965798
 51
173.766034202
  0
ARC
  5
315
100
AcDbEntity
  8
0
100
AcDbCircle
 62
7
  6
CONTINUOUS
 10
-0.0
 20
-4.7899946334
 40
10.1299689469
100
AcDbArc
 50
186.233965798
 51
263.766034202
  0
ARC
  5
316
100
AcDbEntity
  8
0
100
AcDbCircle
 62
7
  6
CONTINUOUS
 10
-0.0
 20
-4.7899946334
 40
10.1299689469
100
AcDbArc
 50
276.233965798
 51
353.766034202
  0
CIRCLE
  5
317
100
AcDbEntity
  8
RACCORDO
100
AcDbCircle
 62
7
  6
CONTINUOUS
 10
-0.0
 20
-23.5899946334
 40
4.8
  0
CIRCLE
  5
318
100
AcDbEntity
  8
RACCORDO
100
AcDbCircle
 62
253
  6
CONTINUOUS
 10
-0.0
 20
-23.5899946334
 40
4.2999972642
  0
CIRCLE
  5
319
100
AcDbEntity
  8
RACCORDO
100
AcDbCircle
 62
7
  6
CONTINUOUS
 10
17.5
 20
-31.2899946334
 40
9.5
  0
CIRCLE
  5
31A
100
AcDbEntity
  8
RACCORDO
100
AcDbCircle
 62
253
  6
CONTINUOUS
 10
17.5
 20
-31.2899946334
 40
8.9999990565
  0
ARC
  5
31B
100
AcDbEntity
  8
SUPERFICI
100
AcDbCircle
 62
7
  6
CONTINUOUS
 10
28.0000028528
 20
-40.2899974862
 40
6.0000048868
100
AcDbArc
 50
270.0915249112
 51
0.0000672542
  0
ARC
  5
31C
100
AcDbEntity
  8
DRAFT
100
AcDbCircle
 62
7
  6
CONTINUOUS
 10
28.0
 20
-40.2899946334
 40
6.0
100
AcDbArc
 50
270.0
 51
360.0
  0
ARC
  5
31D
100
AcDbEntity
  8
RACCORDO
100
AcDbCircle
 62
253
  6
CONTINUOUS
 10
28.0
 20
-40.2899946334
 40
5.3730280717
100
AcDbArc
 50
270.0
 51
360.0
  0
ARC
  5
31E
100
AcDbEntity
  8
RACCORDO
100
AcDbCircle
 62
7
  6
CONTINUOUS
 10
28.0
 20
-40.2899946334
 40
4.2757899725
100
AcDbArc
 50
270.0
 51
360.0
  0
ARC
  5
31F
100
AcDbEntity
  8
DRAFT
100
AcDbCircle
 62
7
  6
CONTINUOUS
 10
28.0
 20
-40.2899946334
 40
4.0
100
AcDbArc
 50
270.0
 51
360.0
  0
CIRCLE
  5
320
100
AcDbEntity
  8
0
100
AcDbCircle
 62
7
  6
CONTINUOUS
 10
17.5
 20
-31.2899946334
 40
2.25
  0
CIRCLE
  5
321
100
AcDbEntity
  8
0
100
AcDbCircle
 62
7
  6
CONTINUOUS
 10
17.5
 20
-31.2899946334
 40
1.8
  0
ARC
  5
322
100
AcDbEntity
  8
DRAFT
100
AcDbCircle
 62
7
  6
CONTINUOUS
 10
28.0
 20
-40.2899946334
 40
1.7757900259
100
AcDbArc
 50
90.0
 51
180.0
  0
CIRCLE
  5
323
100
AcDbEntity
  8
0
100
AcDbCircle
 62
7
  6
CONTINUOUS
 10
17.5
 20
-31.2899946334
 40
1.5
  0
ARC
  5
324
100
AcDbEntity
  8
DRAFT
100
AcDbCircle
 62
7
  6
CONTINUOUS
 10
28.0
 20
-40.2899946334
 40
1.5
100
AcDbArc
 50
90.0
 51
180.0
  0
ARC
  5
325
100
AcDbEntity
  8
0
100
AcDbCircle
 62
7
  6
CONTINUOUS
 10
21.1192349784
 20
-44.9400979338
 40
0.7998249454
100
AcDbArc
 50
205.9422054354
 51
270.011530202
  0
ARC
  5
326
100
AcDbEntity
  8
0
100
AcDbCircle
 62
253
  6
CONTINUOUS
 10
20.4009030282
 20
-46.089415579
 40
0.7989882067
100
AcDbArc
 50
25.9398519717
 51
32.2535353627
  0
ARC
  5
327
100
AcDbEntity
  8
0
100
AcDbCircle
 62
253
  6
CONTINUOUS
 10
14.5975121005
 20
-46.0885334543
 40
0.7971759147
100
AcDbArc
 50
147.739292928
 51
154.0673344905
  0
CIRCLE
  5
328
100
AcDbEntity
  8
RACCORDO
100
AcDbCircle
 62
7
  6
CONTINUOUS
 10
-0.0
 20
14.0100053666
 40
4.8
  0
CIRCLE
  5
329
100
AcDbEntity
  8
RACCORDO
100
AcDbCircle
 62
253
  6
CONTINUOUS
 10
-0.0
 20
14.0100053666
 40
4.2999972642
  0
ARC
  5
32A
100
AcDbEntity
  8
RACCORDO
100
AcDbCircle
 62
7
  6
CONTINUOUS
 10
13.0
 20
37.5126130187
 40
1.0
100
AcDbArc
 50
0.0
 51
75.0
  0
ARC
  5
32B
100
AcDbEntity
  8
RACCORDO
100
AcDbCircle
 62
7
  6
CONTINUOUS
 10
3.8
 20
45.2291647737
 40
0.3
100
AcDbArc
 50
0.0
 51
75.0000000076
  0
ARC
  5
32C
100
AcDbEntity
  8
RACCORDO
100
AcDbCircle
 62
7
  6
CONTINUOUS
 10
11.55
 20
39.9167292084
 40
0.3
100
AcDbArc
 50
0.0
 51
75.0000000001
  0
ARC
  5
32D
100
AcDbEntity
  8
RACCORDO
100
AcDbCircle
 62
7
  6
CONTINUOUS
 10
9.8
 20
41.7569215872
 40
0.3
100
AcDbArc
 50
0.0
 51
75.0000000001
  0
ARC
  5
32E
100
AcDbEntity
  8
RACCORDO
100
AcDbCircle
 62
7
  6
CONTINUOUS
 10
8.05
 20
43.530126668
 40
0.3
100
AcDbArc
 50
0.0
 51
75.0000000002
  0
CIRCLE
  5
32F
100
AcDbEntity
  8
RACCORDO
100
AcDbCircle
 62
7
  6
CONTINUOUS
 10
17.5
 20
21.7100053666
 40
9.5
  0
CIRCLE
  5
330
100
AcDbEntity
  8
RACCORDO
100
AcDbCircle
 62
253
  6
CONTINUOUS
 10
17.5
 20
21.7100053666
 40
8.9999990565
  0
CIRCLE
  5
331
100
AcDbEntity
  8
0
100
AcDbCircle
 62
7
  6
CONTINUOUS
 10
17.5
 20
21.7100053666
 40
2.25
  0
CIRCLE
  5
332
100
AcDbEntity
  8
0
100
AcDbCircle
 62
7
  6
CONTINUOUS
 10
17.5
 20
21.7100053666
 40
1.8
  0
CIRCLE
  5
333
100
AcDbEntity
  8
0
100
AcDbCircle
 62
7
  6
CONTINUOUS
 10
17.5
 20
21.7100053666
 40
1.5
  0
ARC
  5
334
100
AcDbEntity
  8
0
100
AcDbCircle
 62
7
  6
CONTINUOUS
 10
32.6501037142
 20
25.3292409302
 40
0.7998249454
100
AcDbArc
 50
295.9421604422
 51
0.0114882835
  0
ARC
  5
335
100
AcDbEntity
  8
0
100
AcDbCircle
 62
7
  6
CONTINUOUS
 10
32.6501036887
 20
18.0907845053
 40
0.7998155208
100
AcDbArc
 50
359.9874583533
 51
64.0573771759
  0
ARC
  5
336
100
AcDbEntity
  8
0
100
AcDbCircle
 62
253
  6
CONTINUOUS
 10
33.7994209432
 20
24.6109083921
 40
0.7989882067
100
AcDbArc
 50
115.9398517298
 51
122.2535351113
  0
ARC
  5
337
100
AcDbEntity
  8
0
100
AcDbCircle
 62
253
  6
CONTINUOUS
 10
33.7985388183
 20
18.8075174699
 40
0.7971759147
100
AcDbArc
 50
237.7392931997
 51
244.0673347528
  0
ARC
  5
338
100
AcDbEntity
  8
SUPERFICI
100
AcDbCircle
 62
7
  6
CONTINUOUS
 10
27.9999972513
 20
30.710002618
 40
6.0000091571
100
AcDbArc
 50
0.0006583963
 51
89.9167413068
  0
ARC
  5
339
100
AcDbEntity
  8
DRAFT
100
AcDbCircle
 62
7
  6
CONTINUOUS
 10
28.0
 20
30.7100053666
 40
6.0
100
AcDbArc
 50
0.0
 51
90.0
  0
ARC
  5
33A
100
AcDbEntity
  8
RACCORDO
100
AcDbCircle
 62
253
  6
CONTINUOUS
 10
28.0
 20
30.7100053666
 40
5.3730280717
100
AcDbArc
 50
0.0
 51
90.0
  0
ARC
  5
33B
100
AcDbEntity
  8
RACCORDO
100
AcDbCircle
 62
7
  6
CONTINUOUS
 10
28.0
 20
30.7100053666
 40
4.2757899725
100
AcDbArc
 50
0.0
 51
90.0
  0
ARC
  5
33C
100
AcDbEntity
  8
DRAFT
100
AcDbCircle
 62
7
  6
CONTINUOUS
 10
28.0
 20
30.7100053666
 40
4.0
100
AcDbArc
 50
0.0
 51
90.0
  0
ARC
  5
33D
100
AcDbEntity
  8
DRAFT
100
AcDbCircle
 62
7
  6
CONTINUOUS
 10
28.0
 20
30.7100053666
 40
1.7757900259
100
AcDbArc
 50
180.0
 51
270.0
  0
ARC
  5
33E
100
AcDbEntity
  8
DRAFT
100
AcDbCircle
 62
7
  6
CONTINUOUS
 10
28.0
 20
30.7100053666
 40
1.5
100
AcDbArc
 50
180.0
 51
270.0
  0
SPLINE
  5
33F
100
AcDbEntity
  8
ASSI
100
AcDbSpline
 62
7
  6
CONTINUOUS
 70
0
 71
3
 72
16
 73
12
 74
10
 42
0.0000001
 43
0.0000001
 44
0.0000000001
 12
-11.7278740979
 22
0.0
 32
0.0
 13
0.0
 23
11.4728872726
 33
0.0
 40
0.0
 40
0.0
 40
0.0
 40
0.0
 40
0.0016141104
 40
0.0357505856
 40
0.1026382447
 40
0.2000525584
 40
0.3246907729
 40
0.4723150861
 40
0.6379022132
 40
0.8158160045
 40
1.0
 40
1.0
 40
1.0
 40
1.0
 10
33.6159885716
 20
-16.2421814949
 30
0.0
 10
33.6096785438
 20
-16.2421814949
 30
0.0
 10
33.469919088
 20
-16.232998356
 30
0.0
 10
33.6483410288
 20
-15.6226954604
 30
0.0
 10
33.4712772163
 20
-15.0199307902
 30
0.0
 10
33.5106967022
 20
-13.8421378265
 30
0.0
 10
33.4578078405
 20
-12.4570683071
 30
0.0
 10
33.4455909012
 20
-10.7728665173
 30
0.0
 10
33.4266332116
 20
-8.8978803032
 30
0.0
 10
33.4177000324
 20
-6.8789131632
 30
0.0
 10
33.4152858976
 20
-5.4943687061
 30
0.0
 10
33.4152858976
 20
-4.7899946334
 30
0.0
 11
33.6159885716
 21
-16.2421814949
 31
0.0
 11
33.5974700651
 21
-16.2409376608
 31
0.0
 11
33.5610636777
 21
-15.8509895299
 31
0.0
 11
33.5265276917
 21
-15.084372484
 31
0.0
 11
33.4950381886
 21
-13.9671927471
 31
0.0
 11
33.4676675058
 21
-12.5374945353
 31
0.0
 11
33.4453477189
 21
-10.8439645065
 31
0.0
 11
33.4288389017
 21
-8.9442737945
 31
0.0
 11
33.418703242
 21
-6.9031140883
 31
0.0
 11
33.4152858976
 21
-4.7899946334
 31
0.0
  0
SPLINE
  5
340
100
AcDbEntity
  8
0
100
AcDbSpline
 62
7
  6
CONTINUOUS
 70
0
 71
3
 72
16
 73
12
 74
10
 42
0.0000001
 43
0.0000001
 44
0.0000000001
 12
11.7278740979
 22
0.0
 32
0.0
 13
-0.0
 23
11.4728872726
 33
0.0
 40
0.0
 40
0.0
 40
0.0
 40
0.0
 40
0.0016141104
 40
0.0357505856
 40
0.1026382447
 40
0.2000525584
 40
0.3246907729
 40
0.4723150861
 40
0.6379022132
 40
0.8158160045
 40
1.0
 40
1.0
 40
1.0
 40
1.0
 10
-33.6159885716
 20
-16.2421814949
 30
0.0
 10
-33.6096785438
 20
-16.2421814949
 30
0.0
 10
-33.469919088
 20
-16.232998356
 30
0.0
 10
-33.6483410288
 20
-15.6226954604
 30
0.0
 10
-33.4712772163
 20
-15.0199307902
 30
0.0
 10
-33.5106967022
 20
-13.8421378265
 30
0.0
 10
-33.4578078405
 20
-12.4570683071
 30
0.0
 10
-33.4455909012
 20
-10.7728665173
 30
0.0
 10
-33.4266332116
 20
-8.8978803032
 30
0.0
 10
-33.4177000324
 20
-6.8789131632
 30
0.0
 10
-33.4152858976
 20
-5.4943687061
 30
0.0
 10
-33.4152858976
 20
-4.7899946334
 30
0.0
 11
-33.6159885716
 21
-16.2421814949
 31
0.0
 11
-33.5974700651
 21
-16.2409376608
 31
0.0
 11
-33.5610636777
 21
-15.8509895299
 31
0.0
 11
-33.5265276917
 21
-15.084372484
 31
0.0
 11
-33.4950381886
 21
-13.9671927471
 31
0.0
 11
-33.4676675058
 21
-12.5374945353
 31
0.0
 11
-33.4453477189
 21
-10.8439645065
 31
0.0
 11
-33.4288389017
 21
-8.9442737945
 31
0.0
 11
-33.418703242
 21
-6.9031140883
 31
0.0
 11
-33.4152858976
 21
-4.7899946334
 31
0.0
  0
SPLINE
  5
341
100
AcDbEntity
  8
0
100
AcDbSpline
 62
7
  6
CONTINUOUS
 70
0
 71
3
 72
16
 73
12
 74
10
 42
0.0000001
 43
0.0000001
 44
0.0000000001
 12
0.0
 22
11.7278740979
 32
0.0
 13
11.4728872726
 23
0.0
 33
0.0
 40
0.0
 40
0.0
 40
0.0
 40
0.0
 40
0.0016141104
 40
0.0357505856
 40
0.1026382447
 40
0.2000525584
 40
0.3246907729
 40
0.4723150861
 40
0.6379022132
 40
0.8158160045
 40
1.0
 40
1.0
 40
1.0
 40
1.0
 10
-11.4521868615
 20
-45.905983205
 30
0.0
 10
-11.4521868615
 20
-45.8996731772
 30
0.0
 10
-11.4430037227
 20
-45.7599137214
 30
0.0
 10
-10.832700827
 20
-45.9383356622
 30
0.0
 10
-10.2299361568
 20
-45.7612718497
 30
0.0
 10
-9.0521431931
 20
-45.8006913356
 30
0.0
 10
-7.6670736738
 20
-45.7478024739
 30
0.0
 10
-5.9828718839
 20
-45.7355855346
 30
0.0
 10
-4.1078856698
 20
-45.716627845
 30
0.0
 10
-2.0889185298
 20
-45.7076946658
 30
0.0
 10
-0.7043740727
 20
-45.7052805309
 30
0.0
 10
-0.0
 20
-45.7052805309
 30
0.0
 11
-11.4521868615
 21
-45.905983205
 31
0.0
 11
-11.4509430274
 21
-45.8874646985
 31
0.0
 11
-11.0609948965
 21
-45.8510583111
 31
0.0
 11
-10.2943778506
 21
-45.816522325
 31
0.0
 11
-9.1771981137
 21
-45.785032822
 31
0.0
 11
-7.7474999019
 21
-45.7576621391
 31
0.0
 11
-6.0539698731
 21
-45.7353423523
 31
0.0
 11
-4.1542791612
 21
-45.7188335351
 31
0.0
 11
-2.1131194549
 21
-45.7086978754
 31
0.0
 11
-0.0
 21
-45.7052805309
 31
0.0
  0
SPLINE
  5
342
100
AcDbEntity
  8
0
100
AcDbSpline
 62
7
  6
CONTINUOUS
 70
0
 71
3
 72
88
 73
84
 74
82
 42
0.0000001
 43
0.0000001
 44
0.0000000001
 12
0.6807826567
 22
1.0870646442
 32
0.0
 13
0.6560042481
 23
-1.1026398021
 33
0.0
 40
0.0
 40
0.0
 40
0.0
 40
0.0
 40
0.0592436284
 40
0.1185265305
 40
0.1484914654
 40
0.1788150195
 40
0.2096070875
 40
0.2252134069
 40
0.2409757454
 40
0.2567987753
 40
0.2725919634
 40
0.3041592347
 40
0.3358325469
 40
0.3517578755
 40
0.3677652519
 40
0.3838727041
 40
0.4000979269
 40
0.4164582327
 40
0.4329705091
 40
0.4412890393
 40
0.4496516801
 40
0.4580604076
 40
0.4665171656
 40
0.4707641839
 40
0.4750239235
 40
0.479296618
 40
0.4835824989
 40
0.4878817956
 40
0.4900365496
 40
0.4921947424
 40
0.4943564024
 40
0.4954385416
 40
0.4965215581
 40
0.4976054553
 40
0.4986902367
 40
0.49923296
 40
0.4997759057
 40
0.5000474621
 40
0.5003190742
 40
0.5005907421
 40
0.500726597
 40
0.5008624659
 40
0.5010809673
 40
0.5012994266
 40
0.5017362191
 40
0.5021728437
 40
0.5026093003
 40
0.5034817108
 40
0.5043534518
 40
0.5060949308
 40
0.5078337483
 40
0.5095699153
 40
0.5113034425
 40
0.5147626187
 40
0.5182113676
 40
0.5216497778
 40
0.5284959182
 40
0.535301788
 40
0.5420681256
 40
0.5487956828
 40
0.5554852241
 40
0.5687531841
 40
0.5818785784
 40
0.594867997
 40
0.6077282388
 40
0.6330875917
 40
0.6580168263
 40
0.6825774778
 40
0.7068338864
 40
0.7308528379
 40
0.7547031125
 40
0.802161648
 40
0.8259302349
 40
0.8498138467
 40
0.8738824361
 40
0.8860085806
 40
0.8982064313
 40
0.910425517
 40
0.9226159245
 40
0.9469445984
 40
0.9712673715
 40
0.9956569645
 40
1.0
 40
1.0
 40
1.0
 40
1.0
 10
0.40649
 20
24.0735953666
 30
0.0
 10
0.4199340116
 20
24.0950625846
 30
0.0
 10
0.4495430029
 20
24.1363811497
 30
0.0
 10
0.4929099947
 20
24.1829885653
 30
0.0
 10
0.5310929279
 20
24.2170233056
 30
0.0
 10
0.5617079158
 20
24.2411277792
 30
0.0
 10
0.5886555548
 20
24.2598663981
 30
0.0
 10
0.6111111524
 20
24.2740865184
 30
0.0
 10
0.6284477902
 20
24.2844137564
 30
0.0
 10
0.6461654668
 20
24.2942410429
 30
0.0
 10
0.6702408685
 20
24.306504094
 30
0.0
 10
0.7011273998
 20
24.3202794801
 30
0.0
 10
0.7329447947
 20
24.3319073956
 30
0.0
 10
0.7589340838
 20
24.3399284304
 30
0.0
 10
0.7787572576
 20
24.3453208168
 30
0.0
 10
0.7988738193
 20
24.3500780669
 30
0.0
 10
0.8192840116
 20
24.3542003325
 30
0.0
 10
0.8399875617
 20
24.3576876067
 30
0.0
 10
0.8574415992
 20
24.3600586458
 30
0.0
 10
0.871545478
 20
24.3616399152
 30
0.0
 10
0.882223463
 20
24.3626702635
 30
0.0
 10
0.8929748108
 20
24.3635420062
 30
0.0
 10
0.9019822619
 20
24.3641354258
 30
0.0
 10
0.9092242252
 20
24.3645311849
 30
0.0
 10
0.9146820289
 20
24.3647887975
 30
0.0
 10
0.9201581849
 20
24.365006767
 30
0.0
 10
0.9256526957
 20
24.3651850937
 30
0.0
 10
0.9302431222
 20
24.3653005723
 30
0.0
 10
0.9339245591
 20
24.3653731798
 30
0.0
 10
0.9366924104
 20
24.3654177682
 30
0.0
 10
0.9390018453
 20
24.3654466549
 30
0.0
 10
0.9408516778
 20
24.3654648151
 30
0.0
 10
0.9422407594
 20
24.3654759631
 30
0.0
 10
0.9436309884
 20
24.3654846336
 30
0.0
 10
0.9447902317
 20
24.3654897932
 30
0.0
 10
0.9457181987
 20
24.365492683
 30
0.0
 10
0.9462984762
 20
24.3654939731
 30
0.0
 10
0.9467628414
 20
24.3654946956
 30
0.0
 10
0.9471112228
 20
24.3654950828
 30
0.0
 10
0.9474015854
 20
24.3654952762
 30
0.0
 10
0.9476339113
 20
24.3654953539
 30
0.0
 10
0.9478435061
 20
24.3654953763
 30
0.0
 10
0.9480884181
 20
24.3654953376
 30
0.0
 10
0.9484619894
 20
24.3654951651
 30
0.0
 10
0.9489288187
 20
24.3654947329
 30
0.0
 10
0.9494888517
 20
24.3654938686
 30
0.0
 10
0.9502351312
 20
24.3654922556
 30
0.0
 10
0.9511674414
 20
24.3654893755
 30
0.0
 10
0.9526577016
 20
24.3654829249
 30
0.0
 10
0.9545183724
 20
24.3654714083
 30
0.0
 10
0.9567485785
 20
24.3654520514
 30
0.0
 10
0.9589753299
 20
24.3654271626
 30
0.0
 10
0.9619374789
 20
24.3653866326
 30
0.0
 10
0.9656315678
 20
24.3653221718
 30
0.0
 10
0.9700540208
 20
24.3652226326
 30
0.0
 10
0.9759234496
 20
24.3650606519
 30
0.0
 10
0.9832260222
 20
24.3648030974
 30
0.0
 10
0.991946919
 20
24.3644050555
 30
0.0
 10
1.0006125503
 20
24.3639184982
 30
0.0
 10
1.0092229247
 20
24.3633434236
 30
0.0
 10
1.0205980724
 20
24.3624610927
 30
0.0
 10
1.0346818687
 20
24.361138535
 30
0.0
 10
1.0514084618
 20
24.3591928648
 30
0.0
 10
1.0679142473
 20
24.3568929578
 30
0.0
 10
1.0895249819
 20
24.3533708434
 30
0.0
 10
1.1160142423
 20
24.3480906534
 30
0.0
 10
1.1470675866
 20
24.3403047753
 30
0.0
 10
1.1772382223
 20
24.3310984125
 30
0.0
 10
1.20652474
 20
24.3204716262
 30
0.0
 10
1.2349278033
 20
24.3084229521
 30
0.0
 10
1.271549088
 20
24.2904996195
 30
0.0
 10
1.3065581816
 20
24.2696490385
 30
0.0
 10
1.339675038
 20
24.2460245142
 30
0.0
 10
1.3636442465
 20
24.2268744774
 30
0.0
 10
1.3828303118
 20
24.2097761378
 30
0.0
 10
1.3977216057
 20
24.1954091122
 30
0.0
 10
1.4086816291
 20
24.1842717216
 30
0.0
 10
1.4193633347
 20
24.1728293154
 30
0.0
 10
1.433162861
 20
24.1572126362
 30
0.0
 10
1.4495857823
 20
24.1370215425
 30
0.0
 10
1.4679431012
 20
24.1117386361
 30
0.0
 10
1.4802539467
 20
24.0926749778
 30
0.0
 10
1.4865873483
 20
24.0821448845
 30
0.0
 10
1.4875370315
 20
24.0805486166
 30
0.0
 11
0.40649
 21
24.0735953666
 31
0.0
 11
0.4507840449
 21
24.1353390596
 31
0.0
 11
0.5025466197
 21
24.1910395097
 31
0.0
 11
0.5312286058
 21
24.2166235187
 31
0.0
 11
0.5617777243
 21
24.2406967169
 31
0.0
 11
0.5941939752
 21
24.2632591044
 31
0.0
 11
0.6111022754
 21
24.2739737441
 31
0.0
 11
0.6284773587
 21
24.2843106811
 31
0.0
 11
0.6462326898
 21
24.2941416391
 31
0.0
 11
0.6642817336
 21
24.3033383418
 31
0.0
 11
0.7012609593
 21
24.319828981
 31
0.0
 11
0.7394150355
 21
24.3337825988
 31
0.0
 11
0.7589326427
 21
24.3398080247
 31
0.0
 11
0.7787439625
 21
24.3451991952
 31
0.0
 11
0.7988489949
 21
24.3499561104
 31
0.0
 11
0.81924774
 21
24.3540787702
 31
0.0
 11
0.8399401978
 21
24.3575671747
 31
0.0
 11
0.8609263683
 21
24.3604213238
 31
0.0
 11
0.8715295957
 21
24.3616105526
 31
0.0
 11
0.8822062514
 21
24.3626412175
 31
0.0
 11
0.8929563352
 21
24.3635133186
 31
0.0
 11
0.9037798472
 21
24.3642268559
 31
0.0
 11
0.9092191387
 21
24.3645241631
 31
0.0
 11
0.9146767873
 21
24.3647818293
 31
0.0
 11
0.9201527929
 21
24.3649998546
 31
0.0
 11
0.9256471556
 21
24.3651782389
 31
0.0
 11
0.9311598753
 21
24.3653169823
 31
0.0
 11
0.9339231191
 21
24.3653714886
 31
0.0
 11
0.9366909521
 21
24.3654160847
 31
0.0
 11
0.9394633743
 21
24.3654507705
 31
0.0
 11
0.9408513064
 21
24.3654643971
 31
0.0
 11
0.9422403859
 21
24.3654755461
 31
0.0
 11
0.9436306126
 21
24.3654842176
 31
0.0
 11
0.9450219867
 21
24.3654904115
 31
0.0
 11
0.9457181039
 21
24.3654925794
 31
0.0
 11
0.946414508
 21
24.3654941278
 31
0.0
 11
0.9467628176
 21
24.3654946698
 31
0.0
 11
0.9471111989
 21
24.3654950569
 31
0.0
 11
0.947459652
 21
24.3654952892
 31
0.0
 11
0.9476339054
 21
24.3654953473
 31
0.0
 11
0.9478081767
 21
24.3654953666
 31
0.0
 11
0.9480884361
 21
24.3654953234
 31
0.0
 11
0.9483686415
 21
24.3654951937
 31
0.0
 11
0.9489288904
 21
24.3654946751
 31
0.0
 11
0.9494889234
 21
24.3654938108
 31
0.0
 11
0.9500487404
 21
24.3654926007
 31
0.0
 11
0.9511677267
 21
24.3654891434
 31
0.0
 11
0.9522858493
 21
24.3654843031
 31
0.0
 11
0.9545195033
 21
24.3654704737
 31
0.0
 11
0.9567497025
 21
24.3654511125
 31
0.0
 11
0.9589764468
 21
24.3654262196
 31
0.0
 11
0.9611997362
 21
24.3653957949
 31
0.0
 11
0.9656359504
 21
24.3653183503
 31
0.0
 11
0.9700583452
 21
24.3652187787
 31
0.0
 11
0.9744669206
 21
24.36509708
 31
0.0
 11
0.9832426129
 21
24.3647873014
 31
0.0
 11
0.9919630273
 21
24.3643890148
 31
0.0
 11
1.000628164
 21
24.36390222
 31
0.0
 11
1.0092380228
 21
24.363326917
 31
0.0
 11
1.0177926037
 21
24.3626631059
 31
0.0
 11
1.0347359322
 21
24.3610699593
 31
0.0
 11
1.0514581494
 21
24.35912278
 31
0.0
 11
1.0679592552
 21
24.3568215682
 31
0.0
 11
1.0842392497
 21
24.3541663238
 31
0.0
 11
1.1161359048
 21
24.3477937372
 31
0.0
 11
1.1471481147
 21
24.3400050202
 31
0.0
 11
1.1772758793
 21
24.3308001729
 31
0.0
 11
1.2065191986
 21
24.3201791952
 31
0.0
 11
1.2348780726
 21
24.3081420872
 31
0.0
 11
1.2623525014
 21
24.2946888488
 31
0.0
 11
1.3146480231
 21
24.263533981
 31
0.0
 11
1.3394691161
 21
24.2458323516
 31
0.0
 11
1.3634057639
 21
24.2267145918
 31
0.0
 11
1.3864579663
 21
24.2061807016
 31
0.0
 11
1.3976524006
 21
24.1953827077
 31
0.0
 11
1.4086257235
 21
24.1842306811
 31
0.0
 11
1.41931876
 21
24.1727723439
 31
0.0
 11
1.4296723351
 21
24.1610554179
 31
0.0
 11
1.4493611008
 21
24.1368457995
 31
0.0
 11
1.4676920206
 21
24.1116018261
 31
0.0
 11
1.4846650945
 21
24.0853234976
 31
0.0
 11
1.4875370315
 21
24.0805486166
 31
0.0
  0
SPLINE
  5
343
100
AcDbEntity
  8
0
100
AcDbSpline
 62
7
  6
CONTINUOUS
 70
0
 71
3
 72
35
 73
31
 74
29
 42
0.0000001
 43
0.0000001
 44
0.0000000001
 12
0.2571592665
 22
-0.4322442172
 32
0.0
 13
-0.0435977346
 23
-0.500920504
 33
0.0
 40
0.0
 40
0.0
 40
0.0
 40
0.0
 40
0.114554573
 40
0.2430318756
 40
0.3756887633
 40
0.4439867216
 40
0.5137734596
 40
0.585179454
 40
0.6583265168
 40
0.695590362
 40
0.7333312621
 40
0.7523848509
 40
0.7715624948
 40
0.781198342
 40
0.7908657761
 40
0.8005649842
 40
0.8054265644
 40
0.8078603583
 40
0.8102961583
 40
0.8128580164
 40
0.8154179006
 40
0.8205317587
 40
0.8307359141
 40
0.8409088235
 40
0.8510506811
 40
0.8712419767
 40
0.8913114389
 40
0.9310909499
 40
0.9704029161
 40
1.0
 40
1.0
 40
1.0
 40
1.0
 10
1.4875370315
 20
24.0805486166
 30
0.0
 10
1.4973566215
 20
24.0640434327
 30
0.0
 10
1.5164581335
 20
24.0279818381
 30
0.0
 10
1.5402379429
 20
23.9695649307
 30
0.0
 10
1.5559070773
 20
23.9165259244
 30
0.0
 10
1.5657564266
 20
23.8722189588
 30
0.0
 10
1.5718560516
 20
23.8376297268
 30
0.0
 10
1.5765951229
 20
23.8020099491
 30
0.0
 10
1.5793938165
 20
23.771657191
 30
0.0
 10
1.5809654739
 20
23.7468752578
 30
0.0
 10
1.581668665
 20
23.7311255067
 30
0.0
 10
1.5820630759
 20
23.7183983769
 30
0.0
 10
1.5822393639
 20
23.7103775515
 30
0.0
 10
1.5823381667
 20
23.7039287964
 30
0.0
 10
1.5823911728
 20
23.6990681818
 30
0.0
 10
1.5824176433
 20
23.6950075458
 30
0.0
 10
1.5824269074
 20
23.6921592259
 30
0.0
 10
1.5824295602
 20
23.6905282595
 30
0.0
 10
1.5824302259
 20
23.6892827302
 30
0.0
 10
1.5824295368
 20
23.6880160678
 30
0.0
 10
1.5824267695
 20
23.6863005584
 30
0.0
 10
1.5824170825
 20
23.6833041931
 30
0.0
 10
1.5823894145
 20
23.6790319283
 30
0.0
 10
1.582334011
 20
23.6739171664
 30
0.0
 10
1.5822307307
 20
23.6671290213
 30
0.0
 10
1.5820464426
 20
23.6586833045
 30
0.0
 10
1.5816340973
 20
23.6452745616
 30
0.0
 10
1.5808988431
 20
23.6286702075
 30
0.0
 10
1.5797563568
 20
23.6104885806
 30
0.0
 10
1.5788396505
 20
23.5989751697
 30
0.0
 10
1.5784095286
 20
23.5940332409
 30
0.0
 11
1.4875370315
 21
24.0805486166
 31
0.0
 11
1.5145377045
 21
24.0296637752
 31
0.0
 11
1.5389789309
 21
23.9698666325
 31
0.0
 11
1.5579887736
 21
23.9059320694
 31
0.0
 11
1.5654569261
 21
23.8724132552
 31
0.0
 11
1.5715672327
 21
23.8378600859
 31
0.0
 11
1.5763196934
 21
23.8022725615
 31
0.0
 11
1.5797143082
 21
23.7656506821
 31
0.0
 11
1.5809024234
 21
23.7469518592
 31
0.0
 11
1.581751077
 21
23.7279944475
 31
0.0
 11
1.5820481058
 21
23.7184187708
 31
0.0
 11
1.5822602693
 21
23.708778447
 31
0.0
 11
1.5823345265
 21
23.7039340424
 31
0.0
 11
1.5823875673
 21
23.699073476
 31
0.0
 11
1.5824193918
 21
23.6941967478
 31
0.0
 11
1.582427348
 21
23.691752323
 31
0.0
 11
1.582429337
 21
23.6905285955
 31
0.0
 11
1.58243
 21
23.6893038578
 31
0.0
 11
1.582429307
 21
23.6880157372
 31
0.0
 11
1.5824272282
 21
23.6867286106
 31
0.0
 11
1.5824189126
 21
23.6841573391
 31
0.0
 11
1.5823856505
 21
23.6790267238
 31
0.0
 11
1.5823302136
 21
23.6739120117
 31
0.0
 11
1.582252602
 21
23.668813203
 31
0.0
 11
1.5820308544
 21
23.6586632954
 31
0.0
 11
1.5817204078
 21
23.6485770011
 31
0.0
 11
1.5808334176
 21
23.6285952521
 31
0.0
 11
1.5795916313
 21
23.6088679561
 31
0.0
 11
1.5784095286
 21
23.5940332409
 31
0.0
  0
SPLINE
  5
344
100
AcDbEntity
  8
0
100
AcDbSpline
 62
7
  6
CONTINUOUS
 70
0
 71
3
 72
19
 73
15
 74
13
 42
0.0000001
 43
0.0000001
 44
0.0000000001
 12
-0.0367265509
 22
-0.421973356
 32
0.0
 13
-0.2579888054
 23
-0.3359957551
 33
0.0
 40
0.0
 40
0.0
 40
0.0
 40
0.0
 40
0.0109937847
 40
0.0566002634
 40
0.1463141604
 40
0.2341589532
 40
0.3202916033
 40
0.404878604
 40
0.4880957263
 40
0.6511176315
 40
0.8109713377
 40
0.8902540948
 40
0.9693735822
 40
1.0
 40
1.0
 40
1.0
 40
1.0
 10
1.5784095286
 20
23.5940332409
 30
0.0
 10
1.5782749407
 20
23.5924868795
 30
0.0
 10
1.5775636873
 20
23.5845272195
 30
0.0
 10
1.5754790584
 20
23.5639738873
 30
0.0
 10
1.5713729727
 20
23.53272504
 30
0.0
 10
1.5649967784
 20
23.496034087
 30
0.0
 10
1.5571986807
 20
23.4603587003
 30
0.0
 10
1.5479776927
 20
23.4256984555
 30
0.0
 10
1.5338855932
 20
23.3811519886
 30
0.0
 10
1.5127043629
 20
23.3277681199
 30
0.0
 10
1.4865086315
 20
23.2772719858
 30
0.0
 10
1.4627649584
 20
23.2391034962
 30
0.0
 10
1.4475007443
 20
23.2171960112
 30
0.0
 10
1.4381866133
 20
23.204809532
 30
0.0
 10
1.4355528556
 20
23.2013794166
 30
0.0
 11
1.5784095286
 21
23.5940332409
 31
0.0
 11
1.5779950489
 21
23.5893951131
 31
0.0
 11
1.5760436704
 21
23.570176723
 31
0.0
 11
1.5710765252
 21
23.5325033015
 31
0.0
 11
1.5646901956
 21
23.4958476919
 31
0.0
 11
1.5568846816
 21
23.460209894
 31
0.0
 11
1.5476599834
 21
23.4255899078
 31
0.0
 11
1.5370161007
 21
23.3919877335
 31
0.0
 11
1.5114707824
 21
23.32783682
 31
0.0
 11
1.4802487266
 21
23.2677571536
 31
0.0
 11
1.4625089222
 21
23.239244038
 31
0.0
 11
1.4433499334
 21
23.2117487342
 31
0.0
 11
1.4355528556
 21
23.2013794166
 31
0.0
  0
SPLINE
  5
345
100
AcDbEntity
  8
0
100
AcDbSpline
 62
7
  6
CONTINUOUS
 70
0
 71
3
 72
66
 73
62
 74
60
 42
0.0000001
 43
0.0000001
 44
0.0000000001
 12
0.1738598956
 22
-1.7911874353
 32
0.0
 13
1.683951546
 23
0.6376026123
 33
0.0
 40
0.0
 40
0.0
 40
0.0
 40
0.0
 40
0.0889891837
 40
0.1731101898
 40
0.2140590648
 40
0.2546373404
 40
0.2951518442
 40
0.3359108442
 40
0.356481658
 40
0.3772262411
 40
0.387667427
 40
0.3980919561
 40
0.4188661328
 40
0.4395748475
 40
0.460257721
 40
0.5016950463
 40
0.5435041081
 40
0.5859926761
 40
0.607588517
 40
0.629462663
 40
0.6516487425
 40
0.6741789871
 40
0.6970841757
 40
0.7086870269
 40
0.7203944706
 40
0.7322099346
 40
0.7441367537
 40
0.7501429878
 40
0.7561782687
 40
0.7622429871
 40
0.7683375286
 40
0.7713961077
 40
0.7744622844
 40
0.7775361054
 40
0.7790758976
 40
0.7798465166
 40
0.7806176184
 40
0.7813892037
 40
0.7817751779
 40
0.7821612733
 40
0.7823543664
 40
0.7825838723
 40
0.7830548945
 40
0.7839964301
 40
0.7858774707
 40
0.7877558145
 40
0.7896314731
 40
0.7915044586
 40
0.7952424551
 40
0.8026868764
 40
0.810089887
 40
0.8174522818
 40
0.8247748687
 40
0.8393037068
 40
0.8536833343
 40
0.8679206917
 40
0.8820229299
 40
0.9098497694
 40
0.9372269484
 40
0.9908753874
 40
1.0
 40
1.0
 40
1.0
 40
1.0
 10
-0.00634
 20
23.4939653666
 30
0.0
 10
-0.0011827833
 20
23.440833264
 30
0.0
 10
0.015610747
 20
23.3379430107
 30
0.0
 10
0.0558158529
 20
23.2153521397
 30
0.0
 10
0.0986507222
 20
23.1255711151
 30
0.0
 10
0.1358182706
 20
23.0623875009
 30
0.0
 10
0.1783044716
 20
23.0027964015
 30
0.0
 10
0.2180237136
 20
22.9562680901
 30
0.0
 10
0.2523220396
 20
22.9209306862
 30
0.0
 10
0.2748708063
 20
22.8995739649
 30
0.0
 10
0.2935125062
 20
22.8829728128
 30
0.0
 10
0.3125202353
 20
22.8667643189
 30
0.0
 10
0.3368642738
 20
22.8473330725
 30
0.0
 10
0.367007359
 20
22.8253570258
 30
0.0
 10
0.4084116752
 20
22.7978663984
 30
0.0
 10
0.4625856539
 20
22.7668365075
 30
0.0
 10
0.5311276572
 20
22.7351460305
 30
0.0
 10
0.5909127819
 20
22.7134443528
 30
0.0
 10
0.6403722334
 20
22.6988254472
 30
0.0
 10
0.6785659701
 20
22.6891682847
 30
0.0
 10
0.7176518985
 20
22.6808798087
 30
0.0
 10
0.7576304416
 20
22.6739593224
 30
0.0
 10
0.7915422739
 20
22.6693521556
 30
0.0
 10
0.8191027224
 20
22.6663422306
 30
0.0
 10
0.8400864755
 20
22.6644165366
 30
0.0
 10
0.8612935294
 20
22.6628324365
 30
0.0
 10
0.8791096894
 20
22.6617994644
 30
0.0
 10
0.8934726552
 20
22.6611426843
 30
0.0
 10
0.9043264581
 20
22.6607343024
 30
0.0
 10
0.9152361202
 20
22.6604112997
 30
0.0
 10
0.924362783
 20
22.6602135239
 30
0.0
 10
0.9316918564
 20
22.6600978355
 30
0.0
 10
0.9372094179
 20
22.660032306
 30
0.0
 10
0.9418161472
 20
22.6599955077
 30
0.0
 10
0.9450459383
 20
22.6599790745
 30
0.0
 10
0.9468944288
 20
22.6599723437
 30
0.0
 10
0.9482821035
 20
22.659968628
 30
0.0
 10
0.9494390451
 20
22.6599666436
 30
0.0
 10
0.9503650346
 20
22.6599657227
 30
0.0
 10
0.9509440052
 20
22.6599654252
 30
0.0
 10
0.9514291155
 20
22.6599653499
 30
0.0
 10
0.9519651707
 20
22.6599654106
 30
0.0
 10
0.9529501928
 20
22.6599659826
 30
0.0
 10
0.9549259169
 20
22.65996898
 30
0.0
 10
0.9577458375
 20
22.6599785533
 30
0.0
 10
0.9611260667
 20
22.659998517
 30
0.0
 10
0.9645014032
 20
22.6600269528
 30
0.0
 10
0.9689921382
 20
22.6600761284
 30
0.0
 10
0.9768228409
 20
22.6601916127
 30
0.0
 10
0.9879690743
 20
22.660441079
 30
0.0
 10
1.0012851643
 20
22.6608764241
 30
0.0
 10
1.0145230066
 20
22.6614473347
 30
0.0
 10
1.0320225174
 20
22.6623867987
 30
0.0
 10
1.053705649
 20
22.6638975687
 30
0.0
 10
1.0794816344
 20
22.6662577404
 30
0.0
 10
1.1049449468
 20
22.6691604236
 30
0.0
 10
1.138327876
 20
22.673733193
 30
0.0
 10
1.1793163889
 20
22.680793443
 30
0.0
 10
1.2430831187
 20
22.6949400432
 30
0.0
 10
1.2949692101
 20
22.710522755
 30
0.0
 10
1.3303243799
 20
22.7235484849
 30
0.0
 10
1.3354461817
 20
22.7254877772
 30
0.0
 11
-0.00634
 21
23.4939653666
 31
0.0
 11
0.0202372782
 21
23.336040691
 31
0.0
 11
0.0679284835
 21
23.1923644862
 31
0.0
 11
0.0996918088
 21
23.1258695604
 31
0.0
 11
0.1367336159
 21
23.0629367522
 31
0.0
 11
0.1790539047
 21
23.0035660618
 31
0.0
 11
0.2266526753
 21
22.947757489
 31
0.0
 11
0.2524314913
 21
22.9211889968
 31
0.0
 11
0.2795299277
 21
22.8955110339
 31
0.0
 11
0.2935642325
 21
22.8830169175
 31
0.0
 11
0.3078394175
 21
22.8708448937
 31
0.0
 11
0.3370603156
 21
22.8475253452
 31
0.0
 11
0.3671752513
 21
22.8255717954
 31
0.0
 11
0.3981842246
 21
22.8049842443
 31
0.0
 11
0.4628842841
 21
22.7679071379
 31
0.0
 11
0.531160494
 21
22.7362940262
 31
0.0
 11
0.6030128544
 21
22.7101449091
 31
0.0
 11
0.6402800909
 21
22.6991193485
 31
0.0
 11
0.6784413651
 21
22.6894597866
 31
0.0
 11
0.7174966769
 21
22.6811662233
 31
0.0
 11
0.7574460263
 21
22.6742386587
 31
0.0
 11
0.7982894133
 21
22.6686770927
 31
0.0
 11
0.8190463709
 21
22.6664085592
 31
0.0
 11
0.8400268379
 21
22.6644815254
 31
0.0
 11
0.8612308143
 21
22.6628959913
 31
0.0
 11
0.8826583001
 21
22.6616519568
 31
0.0
 11
0.893455859
 21
22.6611580019
 31
0.0
 11
0.9043092953
 21
22.660749422
 31
0.0
 11
0.9152186089
 21
22.6604262169
 31
0.0
 11
0.9261837999
 21
22.6601883868
 31
0.0
 11
0.9316873494
 21
22.6601014873
 31
0.0
 11
0.9372048683
 21
22.6600359316
 31
0.0
 11
0.9427363564
 21
22.6599917196
 31
0.0
 11
0.945507339
 21
22.6599776175
 31
0.0
 11
0.9468941399
 21
22.6599725674
 31
0.0
 11
0.9482818139
 21
22.6599688513
 31
0.0
 11
0.949670361
 21
22.6599664692
 31
0.0
 11
0.950364962
 21
22.6599657784
 31
0.0
 11
0.9510597812
 21
22.6599654211
 31
0.0
 11
0.9514072727
 21
22.6599653675
 31
0.0
 11
0.9518202926
 21
22.6599654152
 31
0.0
 11
0.9526679466
 21
22.6599659069
 31
0.0
 11
0.9543623372
 21
22.6599684788
 31
0.0
 11
0.9577474487
 21
22.6599799765
 31
0.0
 11
0.9611276672
 21
22.6599999463
 31
0.0
 11
0.9645029928
 21
22.6600283881
 31
0.0
 11
0.9678734256
 21
22.660065302
 31
0.0
 11
0.9745996122
 21
22.6601645458
 31
0.0
 11
0.9879932704
 21
22.6604646977
 31
0.0
 11
1.0013086419
 21
22.6609004021
 31
0.0
 11
1.0145457267
 21
22.661471659
 31
0.0
 11
1.0277045248
 21
22.6621784684
 31
0.0
 11
1.0537872607
 21
22.6639987446
 31
0.0
 11
1.0795568497
 21
22.6663612307
 31
0.0
 11
1.1050132919
 21
22.6692659267
 31
0.0
 11
1.1301565871
 21
22.6727128327
 31
0.0
 11
1.1795037368
 21
22.6812332745
 31
0.0
 11
1.2275982988
 21
22.691922556
 31
0.0
 11
1.3200296601
 21
22.7198076381
 31
0.0
 11
1.3354461817
 21
22.7254877772
 31
0.0
  0
SPLINE
  5
346
100
AcDbEntity
  8
0
100
AcDbSpline
 62
7
  6
CONTINUOUS
 70
0
 71
3
 72
37
 73
33
 74
31
 42
0.0000001
 43
0.0000001
 44
0.0000000001
 12
0.4923511452
 22
0.1864212644
 32
0.0
 13
0.319995911
 23
0.4176762123
 33
0.0
 40
0.0
 40
0.0
 40
0.0
 40
0.0
 40
0.1488834854
 40
0.2383013957
 40
0.3276158875
 40
0.4170804611
 40
0.5069473468
 40
0.5974654117
 40
0.688878205
 40
0.7349979437
 40
0.7814293376
 40
0.828200596
 40
0.875339318
 40
0.8990553417
 40
0.9109514193
 40
0.9228733864
 40
0.93482165
 40
0.9467966143
 40
0.9527942409
 40
0.9542947126
 40
0.9557956117
 40
0.9572578149
 40
0.9578716144
 40
0.9584853714
 40
0.9609399759
 40
0.9633939056
 40
0.9682997526
 40
0.9732029388
 40
0.9781034901
 40
0.9878967848
 40
0.9976798505
 40
1.0
 40
1.0
 40
1.0
 40
1.0
 10
1.3354461817
 20
22.7254877772
 30
0.0
 10
1.3598804999
 20
22.7347394597
 30
0.0
 10
1.3983566446
 20
22.7512192298
 30
0.0
 10
1.4494668093
 20
22.7775261811
 30
0.0
 10
1.4901043052
 20
22.8012626069
 30
0.0
 10
1.5294838513
 20
22.8271734678
 30
0.0
 10
1.5676062999
 20
22.8552583497
 30
0.0
 10
1.6044700967
 20
22.8855157325
 30
0.0
 10
1.6340544031
 20
22.9124613869
 30
0.0
 10
1.6570761452
 20
22.9350714332
 30
0.0
 10
1.6740813862
 20
22.9526226934
 30
0.0
 10
1.6907729138
 20
22.9707160776
 30
0.0
 10
1.7043932408
 20
22.9862139013
 30
0.0
 10
1.7137793834
 20
22.9972842229
 30
0.0
 10
1.7191146986
 20
23.0036904427
 30
0.0
 10
1.723100882
 20
23.0085341362
 30
0.0
 10
1.7270675162
 20
23.0134116968
 30
0.0
 10
1.7303548027
 20
23.0175023255
 30
0.0
 10
1.732482813
 20
23.0201736999
 30
0.0
 10
1.7334638469
 20
23.021410095
 30
0.0
 10
1.7339502782
 20
23.0220234901
 30
0.0
 10
1.7343388936
 20
23.0225159814
 30
0.0
 10
1.7346335133
 20
23.0228844256
 30
0.0
 10
1.7350361557
 20
23.0233893497
 30
0.0
 10
1.7356396979
 20
23.0241468593
 30
0.0
 10
1.7367106226
 20
23.0254944872
 30
0.0
 10
1.7380458953
 20
23.0271805855
 30
0.0
 10
1.7396429061
 20
23.0292067691
 30
0.0
 10
1.7417643502
 20
23.0319110478
 30
0.0
 10
1.7444024074
 20
23.0352978457
 30
0.0
 10
1.7467483772
 20
23.0383384367
 30
0.0
 10
1.7480402936
 20
23.0400228043
 30
0.0
 10
1.7482877731
 20
23.0403458281
 30
0.0
 11
1.3354461817
 21
22.7254877772
 31
0.0
 11
1.4074506708
 21
22.7563680792
 31
0.0
 11
1.4492822947
 21
22.7779015593
 31
0.0
 11
1.489861331
 21
22.8016038791
 31
0.0
 11
1.5291877797
 21
22.8274750386
 31
0.0
 11
1.5672616407
 21
22.8555150379
 31
0.0
 11
1.6040829141
 21
22.8857238769
 31
0.0
 11
1.6396515998
 21
22.9181015556
 31
0.0
 11
1.6569662224
 21
22.9351037098
 31
0.0
 11
1.673967698
 21
22.952648074
 31
0.0
 11
1.6906560267
 21
22.9707346481
 31
0.0
 11
1.7070312085
 21
22.9893634322
 31
0.0
 11
1.7151013693
 21
22.9988811529
 31
0.0
 11
1.7191070922
 21
23.0036908455
 31
0.0
 11
1.7230932434
 21
23.0085344261
 31
0.0
 11
1.7270598229
 21
23.0134118949
 31
0.0
 11
1.7310068307
 21
23.0183232518
 31
0.0
 11
1.7329729953
 21
23.0207916383
 31
0.0
 11
1.7334637719
 21
23.0214100587
 31
0.0
 11
1.7339542427
 21
23.0220290086
 31
0.0
 11
1.7344319837
 21
23.0226320679
 31
0.0
 11
1.7346334614
 21
23.0228844765
 31
0.0
 11
1.7348348529
 21
23.0231369253
 31
0.0
 11
1.735639558
 21
23.0241471218
 31
0.0
 11
1.7364428853
 21
23.0251579609
 31
0.0
 11
1.7380454067
 21
23.0271815662
 31
0.0
 11
1.7396424171
 21
23.0292077414
 31
0.0
 11
1.7412339165
 21
23.0312364863
 31
0.0
 11
1.7444003823
 21
23.0353016855
 31
0.0
 11
1.747544804
 21
23.0393771637
 31
0.0
 11
1.7482877731
 21
23.0403458281
 31
0.0
  0
SPLINE
  5
347
100
AcDbEntity
  8
0
100
AcDbSpline
 62
7
  6
CONTINUOUS
 70
0
 71
3
 72
48
 73
44
 74
42
 42
0.0000001
 43
0.0000001
 44
0.0000000001
 12
0.5751335881
 22
0.7506959008
 32
0.0
 13
-0.1702919609
 23
0.930298603
 33
0.0
 40
0.0
 40
0.0
 40
0.0
 40
0.0
 40
0.0041466818
 40
0.0150055484
 40
0.0258435097
 40
0.0366615037
 40
0.0474604736
 40
0.0690048999
 40
0.0904846671
 40
0.1119074862
 40
0.13328113
 40
0.1546134251
 40
0.1971835134
 40
0.2396830933
 40
0.2821758599
 40
0.324725539
 40
0.3673956013
 40
0.453332403
 40
0.4967377665
 40
0.540509456
 40
0.5847057802
 40
0.6293833852
 40
0.6519207133
 40
0.6745987621
 40
0.697424084
 40
0.7204031057
 40
0.7319523242
 40
0.7435423185
 40
0.7551738556
 40
0.7610054519
 40
0.7668477177
 40
0.7697728825
 40
0.7727007496
 40
0.7788069344
 40
0.7849401757
 40
0.7910583373
 40
0.8032498568
 40
0.815382461
 40
0.8394745053
 40
0.8633424951
 40
0.9104364866
 40
0.9567331421
 40
1.0
 40
1.0
 40
1.0
 40
1.0
 10
1.7482877731
 20
23.0403458281
 30
0.0
 10
1.7490827384
 20
23.0413834604
 30
0.0
 10
1.7519528611
 20
23.0451433921
 30
0.0
 10
1.7568545928
 20
23.0516504991
 30
0.0
 10
1.7629453727
 20
23.0598942663
 30
0.0
 10
1.76894798
 20
23.0681791688
 30
0.0
 10
1.7768273286
 20
23.0792713073
 30
0.0
 10
1.7864579737
 20
23.0932410389
 30
0.0
 10
1.7976713835
 20
23.1101829767
 30
0.0
 10
1.8085320089
 20
23.1272894968
 30
0.0
 10
1.8190398558
 20
23.1445606492
 30
0.0
 10
1.8325696506
 20
23.1677905725
 30
0.0
 10
1.8486115501
 20
23.1972568475
 30
0.0
 10
1.8664621979
 20
23.2332998687
 30
0.0
 10
1.8829000597
 20
23.2700018103
 30
0.0
 10
1.8979249554
 20
23.3073630975
 30
0.0
 10
1.9161152534
 20
23.3581685104
 30
0.0
 10
1.9314401614
 20
23.4102459109
 30
0.0
 10
1.9438931603
 20
23.4633857692
 30
0.0
 10
1.9518530943
 20
23.5040363834
 30
0.0
 10
1.9583998257
 20
23.545343058
 30
0.0
 10
1.9626657951
 20
23.5802109386
 30
0.0
 10
1.9653775243
 20
23.6084188502
 30
0.0
 10
1.967064566
 20
23.6298018786
 30
0.0
 10
1.9683987959
 20
23.6513491972
 30
0.0
 10
1.9692152531
 20
23.6694111425
 30
0.0
 10
1.9696929037
 20
23.6839412148
 30
0.0
 10
1.9699635811
 20
23.6948987337
 30
0.0
 10
1.9701155239
 20
23.704055959
 30
0.0
 10
1.9701931054
 20
23.7114020951
 30
0.0
 10
1.9702232562
 20
23.7160040421
 30
0.0
 10
1.9702363642
 20
23.7196907139
 30
0.0
 10
1.9702422733
 20
23.7234605993
 30
0.0
 10
1.9702349375
 20
23.7282417747
 30
0.0
 10
1.9702010162
 20
23.7340285322
 30
0.0
 10
1.9701224055
 20
23.7417332597
 30
0.0
 10
1.9699617082
 20
23.751328338
 30
0.0
 10
1.9695715667
 20
23.7665856621
 30
0.0
 10
1.9688349997
 20
23.7855154353
 30
0.0
 10
1.9671267028
 20
23.8154317439
 30
0.0
 10
1.964000736
 20
23.8522721033
 30
0.0
 10
1.9587157034
 20
23.8950358451
 30
0.0
 10
1.9541728506
 20
23.9229080058
 30
0.0
 10
1.9517168513
 20
23.9363250382
 30
0.0
 11
1.7482877731
 21
23.0403458281
 31
0.0
 11
1.7506671817
 21
23.0434629211
 31
0.0
 11
1.7568458052
 21
23.0516652731
 31
0.0
 11
1.7629362525
 21
23.0599087414
 31
0.0
 11
1.7689385238
 21
23.0681933261
 31
0.0
 11
1.774852619
 21
23.0765190272
 31
0.0
 11
1.7864162811
 21
23.0932937785
 31
0.0
 11
1.797627239
 21
23.1102329953
 31
0.0
 11
1.8084854926
 21
23.1273366776
 31
0.0
 11
1.8189910419
 21
23.1446048253
 31
0.0
 11
1.8291438869
 21
23.1620374385
 31
0.0
 11
1.848391464
 21
23.1973960614
 31
0.0
 11
1.8662282239
 21
23.2334125462
 31
0.0
 11
1.8826541667
 21
23.270086893
 31
0.0
 11
1.8976692923
 21
23.3074191017
 31
0.0
 11
1.9112736007
 21
23.3454091723
 31
0.0
 11
1.9342497661
 21
23.4233628993
 31
0.0
 11
1.943621623
 21
23.4633265557
 31
0.0
 11
1.9515826627
 21
23.503948074
 31
0.0
 11
1.9581328853
 21
23.5452274543
 31
0.0
 11
1.9632722907
 21
23.5871646964
 31
0.0
 11
1.965312937
 21
23.6083800158
 31
0.0
 11
1.9670008789
 21
23.6297598006
 31
0.0
 11
1.9683361166
 21
23.6513040508
 31
0.0
 11
1.96931865
 21
23.6730127666
 31
0.0
 11
1.9696776526
 21
23.683928799
 31
0.0
 11
1.9699484791
 21
23.6948859478
 31
0.0
 11
1.9701311295
 21
23.705884213
 31
0.0
 11
1.9701893887
 21
23.7113987642
 31
0.0
 11
1.9702256039
 21
23.7169235946
 31
0.0
 11
1.970235445
 21
23.7196898644
 31
0.0
 11
1.9702397751
 21
23.722458704
 31
0.0
 11
1.9702307949
 21
23.7282332304
 31
0.0
 11
1.9701967872
 21
23.7340332512
 31
0.0
 11
1.9701377211
 21
23.7398188094
 31
0.0
 11
1.969944414
 21
23.751346538
 31
0.0
 11
1.9696508736
 21
23.7628164163
 31
0.0
 11
1.9687630929
 21
23.7855826221
 31
0.0
 11
1.967474379
 21
23.8081174266
 31
0.0
 11
1.9636941515
 21
23.8524928319
 31
0.0
 11
1.9583101911
 21
23.8959426322
 31
0.0
 11
1.9517168513
 21
23.9363250382
 31
0.0
  0
SPLINE
  5
348
100
AcDbEntity
  8
0
100
AcDbSpline
 62
7
  6
CONTINUOUS
 70
0
 71
3
 72
20
 73
16
 74
14
 42
0.0000001
 43
0.0000001
 44
0.0000000001
 12
0.0817307712
 22
-0.8315331619
 32
0.0
 13
0.7017486391
 23
-0.4539178456
 33
0.0
 40
0.0
 40
0.0
 40
0.0
 40
0.0
 40
0.1637226984
 40
0.3202199296
 40
0.4723864137
 40
0.6233661755
 40
0.6994684554
 40
0.7378399801
 40
0.7764853871
 40
0.8154517502
 40
0.8350608336
 40
0.8546336747
 40
0.8935791116
 40
0.9323014854
 40
1.0
 40
1.0
 40
1.0
 40
1.0
 10
-2.32486
 20
23.5023053666
 30
0.0
 10
-2.3203996059
 20
23.4569250823
 30
0.0
 10
-2.3065683398
 20
23.3685463718
 30
0.0
 10
-2.2692663436
 20
23.2419632826
 30
0.0
 10
-2.2159119123
 20
23.1251053027
 30
0.0
 10
-2.1581811857
 20
23.0361614325
 30
0.0
 10
-2.1113728613
 20
22.9788618465
 30
0.0
 10
-2.0826674185
 20
22.9473122259
 30
0.0
 10
-2.0600967994
 20
22.9241936571
 30
0.0
 10
-2.0405164499
 20
22.9054827396
 30
0.0
 10
-2.0244044245
 20
22.890848074
 30
0.0
 10
-2.0080418536
 20
22.8765029145
 30
0.0
 10
-1.9872023433
 20
22.8591953015
 30
0.0
 10
-1.9551379319
 20
22.8344648839
 30
0.0
 10
-1.9307679904
 20
22.8175523106
 30
0.0
 10
-1.9149322103
 20
22.8073091226
 30
0.0
 11
-2.32486
 21
23.5023053666
 31
0.0
 11
-2.3032618317
 21
23.3672242538
 31
0.0
 11
-2.2659795914
 21
23.2418921416
 31
0.0
 11
-2.213013279
 21
23.1263090299
 31
0.0
 11
-2.1443628946
 21
23.0204749187
 31
0.0
 11
-2.1041561754
 21
22.9712137384
 31
0.0
 11
-2.082582434
 21
22.947497117
 31
0.0
 11
-2.0600284382
 21
22.9243898082
 31
0.0
 11
-2.0364941878
 21
22.9018918118
 31
0.0
 11
-2.0243649393
 21
22.8908771598
 31
0.0
 11
-2.0120672366
 21
22.8800967902
 31
0.0
 11
-1.9870321337
 21
22.8593091454
 31
0.0
 11
-1.9614107676
 21
22.8395522929
 31
0.0
 11
-1.9149322103
 21
22.8073091226
 31
0.0
  0
SPLINE
  5
349
100
AcDbEntity
  8
0
100
AcDbSpline
 62
7
  6
CONTINUOUS
 70
0
 71
3
 72
22
 73
18
 74
16
 42
0.0000001
 43
0.0000001
 44
0.0000000001
 12
0.4543658919
 22
-0.293901228
 32
0.0
 13
0.5408847986
 23
-0.0108749139
 33
0.0
 40
0.0
 40
0.0
 40
0.0
 40
0.0
 40
0.0143151336
 40
0.1327664598
 40
0.2514445758
 40
0.370993844
 40
0.4920447157
 40
0.6152045845
 40
0.6777656227
 40
0.7410672207
 40
0.8051758059
 40
0.8701553313
 40
0.9029919192
 40
0.9360690535
 40
0.9693940099
 40
0.9861517602
 40
1.0
 40
1.0
 40
1.0
 40
1.0
 10
-1.9149322103
 20
22.8073091226
 30
0.0
 10
-1.9127641075
 20
22.8059067108
 30
0.0
 10
-1.8925980142
 20
22.7929895998
 30
0.0
 10
-1.8534008729
 20
22.7701142562
 30
0.0
 10
-1.7955471707
 20
22.7418723021
 30
0.0
 10
-1.735342837
 20
22.7177788238
 30
0.0
 10
-1.6727947205
 20
22.6978335303
 30
0.0
 10
-1.6189989526
 20
22.6847358465
 30
0.0
 10
-1.5748836322
 20
22.676309125
 30
0.0
 10
-1.5410353934
 20
22.6709871597
 30
0.0
 10
-1.5066022379
 20
22.6666972163
 30
0.0
 10
-1.4775227928
 20
22.6639915957
 30
0.0
 10
-1.4539759841
 20
22.66233784
 30
0.0
 10
-1.4361067386
 20
22.6613508634
 30
0.0
 10
-1.4211221472
 20
22.6607443278
 30
0.0
 10
-1.4095983883
 20
22.6604031237
 30
0.0
 10
-1.4040806109
 20
22.6602759596
 30
0.0
 10
-1.4015838434
 20
22.6602257601
 30
0.0
 11
-1.9149322103
 21
22.8073091226
 31
0.0
 11
-1.9084092457
 21
22.8031309647
 31
0.0
 11
-1.853062671
 21
22.7708328058
 31
0.0
 11
-1.7953710434
 21
22.7426578161
 31
0.0
 11
-1.7353343628
 21
22.7186059956
 31
0.0
 11
-1.6729526294
 21
22.6986773443
 31
0.0
 11
-1.6082258431
 21
22.6828718623
 31
0.0
 11
-1.5749830552
 21
22.6765153098
 31
0.0
 11
-1.541154004
 21
22.6711895495
 31
0.0
 11
-1.5067386895
 21
22.6668945816
 31
0.0
 11
-1.4717371119
 21
22.6636304059
 31
0.0
 11
-1.4540164744
 21
22.6623848652
 31
0.0
 11
-1.436149271
 21
22.6613970226
 31
0.0
 11
-1.4181355019
 21
22.660666878
 31
0.0
 11
-1.4090736551
 21
22.6603984425
 31
0.0
 11
-1.4015838434
 21
22.6602257601
 31
0.0
  0
SPLINE
  5
34A
100
AcDbEntity
  8
0
100
AcDbSpline
 62
7
  6
CONTINUOUS
 70
0
 71
3
 72
92
 73
88
 74
86
 42
0.0000001
 43
0.0000001
 44
0.0000000001
 12
1.7113097302
 22
-0.0344072269
 32
0.0
 13
-0.2572512667
 23
1.6922644465
 33
0.0
 40
0.0
 40
0.0
 40
0.0
 40
0.0
 40
0.0009400148
 40
0.0062776649
 40
0.008954339
 40
0.0116362874
 40
0.0129792505
 40
0.0143235447
 40
0.0149961923
 40
0.0153448432
 40
0.0157178626
 40
0.0164636184
 40
0.0172089973
 40
0.0201867547
 40
0.023158532
 40
0.0261243695
 40
0.0290843079
 40
0.0349866412
 40
0.0467222514
 40
0.0583681441
 40
0.0699270712
 40
0.0814018471
 40
0.0927953486
 40
0.1153495878
 40
0.1376147596
 40
0.1813729769
 40
0.2242885113
 40
0.2665863839
 40
0.3085015644
 40
0.3502754809
 40
0.3921520049
 40
0.4132083085
 40
0.4343806214
 40
0.4556982451
 40
0.4664209862
 40
0.4771907626
 40
0.4879459173
 40
0.4986245058
 40
0.5197638757
 40
0.5406357199
 40
0.5612671185
 40
0.6019142753
 40
0.6419466691
 40
0.6816096324
 40
0.7211553739
 40
0.7608383374
 40
0.7808140696
 40
0.8009180066
 40
0.8211804473
 40
0.8416309859
 40
0.8519362612
 40
0.8622992803
 40
0.8727235006
 40
0.8832123191
 40
0.8884820485
 40
0.8937691723
 40
0.8990740975
 40
0.9017333679
 40
0.9043972392
 40
0.9070657612
 40
0.9084017825
 40
0.9097389849
 40
0.9104080311
 40
0.9110773749
 40
0.9114121586
 40
0.9115650416
 40
0.9116888467
 40
0.9119364114
 40
0.9121839156
 40
0.9126787423
 40
0.913173327
 40
0.9141617716
 40
0.9151492516
 40
0.9161357693
 40
0.9181059258
 40
0.9220347832
 40
0.9259484912
 40
0.9298471942
 40
0.9337310381
 40
0.9376001706
 40
0.9452948623
 40
0.9529325214
 40
0.9605143902
 40
0.968041739
 40
0.9829377603
 40
0.9976316246
 40
1.0
 40
1.0
 40
1.0
 40
1.0
 10
-1.4015838434
 20
22.6602257601
 30
0.0
 10
-1.4010476246
 20
22.660214979
 30
0.0
 10
-1.3974665693
 20
22.6601452404
 30
0.0
 10
-1.392358216
 20
22.6600672548
 30
0.0
 10
-1.3862557453
 20
22.6600064897
 30
0.0
 10
-1.3824322226
 20
22.6599819085
 30
0.0
 10
-1.3793688408
 20
22.6599702844
 30
0.0
 10
-1.3774518484
 20
22.6599663731
 30
0.0
 10
-1.3761021587
 20
22.6599653887
 30
0.0
 10
-1.37530663
 20
22.6599653394
 30
0.0
 10
-1.3744693894
 20
22.6599656585
 30
0.0
 10
-1.3734057958
 20
22.6599667931
 30
0.0
 10
-1.3708560723
 20
22.6599718481
 30
0.0
 10
-1.3670363115
 20
22.6599881675
 30
0.0
 10
-1.3619497917
 20
22.6600286242
 30
0.0
 10
-1.3568736214
 20
22.6600877619
 30
0.0
 10
-1.3501258697
 20
22.6601914178
 30
0.0
 10
-1.3383762206
 20
22.6604375281
 30
0.0
 10
-1.3216762797
 20
22.6609752231
 30
0.0
 10
-1.3017626602
 20
22.6619206715
 30
0.0
 10
-1.2820145776
 20
22.6631650713
 30
0.0
 10
-1.2624319697
 20
22.6647084422
 30
0.0
 10
-1.2366311695
 20
22.6671564519
 30
0.0
 10
-1.2047782777
 20
22.6709578067
 30
0.0
 10
-1.1548157887
 20
22.6786112176
 30
0.0
 10
-1.0938813655
 20
22.6911428213
 30
0.0
 10
-1.0229823616
 20
22.7110772539
 30
0.0
 10
-0.9547291969
 20
22.7358242224
 30
0.0
 10
-0.8891303017
 20
22.7653848129
 30
0.0
 10
-0.8261941899
 20
22.7997561375
 30
0.0
 10
-0.7760550702
 20
22.8323522772
 30
0.0
 10
-0.7373617557
 20
22.8607492739
 30
0.0
 10
-0.7089487531
 20
22.8832847885
 30
0.0
 10
-0.6858705125
 20
22.9030230428
 30
0.0
 10
-0.667746542
 20
22.9193990488
 30
0.0
 10
-0.6543208189
 20
22.9319810862
 30
0.0
 10
-0.6411330858
 20
22.94477606
 30
0.0
 10
-0.6239881287
 20
22.9619838081
 30
0.0
 10
-0.603324706
 20
22.9838276955
 30
0.0
 10
-0.5796973354
 20
23.010655362
 30
0.0
 10
-0.5500164317
 20
23.0469419995
 30
0.0
 10
-0.5159305695
 20
23.0937001057
 30
0.0
 10
-0.479861488
 20
23.1522057033
 30
0.0
 10
-0.4488300128
 20
23.2128318902
 30
0.0
 10
-0.4228435078
 20
23.2755680201
 30
0.0
 10
-0.4054304729
 20
23.3294928312
 30
0.0
 10
-0.3940335812
 20
23.3735610065
 30
0.0
 10
-0.3867209252
 20
23.407213029
 30
0.0
 10
-0.380664002
 20
23.441387697
 30
0.0
 10
-0.3766728717
 20
23.4702287978
 30
0.0
 10
-0.3741038791
 20
23.4935491561
 30
0.0
 10
-0.3724855302
 20
23.5112160829
 30
0.0
 10
-0.3711806506
 20
23.5290138131
 30
0.0
 10
-0.3703557776
 20
23.5439304781
 30
0.0
 10
-0.3698518949
 20
23.555927645
 30
0.0
 10
-0.3695517176
 20
23.5649727298
 30
0.0
 10
-0.3693670147
 20
23.5725311222
 30
0.0
 10
-0.3692583259
 20
23.5785940121
 30
0.0
 10
-0.3691963245
 20
23.5831532523
 30
0.0
 10
-0.3691609929
 20
23.5869577679
 30
0.0
 10
-0.3691425073
 20
23.5900054491
 30
0.0
 10
-0.3691350306
 20
23.5919123697
 30
0.0
 10
-0.3691314955
 20
23.5934389262
 30
0.0
 10
-0.3691303061
 20
23.5943935557
 30
0.0
 10
-0.3691300119
 20
23.5950536885
 30
0.0
 10
-0.369129993
 20
23.595402564
 30
0.0
 10
-0.3691300393
 20
23.5957016766
 30
0.0
 10
-0.3691301918
 20
23.5960547755
 30
0.0
 10
-0.3691306451
 20
23.5966195607
 30
0.0
 10
-0.3691316039
 20
23.5973252828
 30
0.0
 10
-0.3691339746
 20
23.5984537471
 30
0.0
 10
-0.3691385062
 20
23.5998632906
 30
0.0
 10
-0.3691464564
 20
23.6015534953
 30
0.0
 10
-0.369160398
 20
23.6038037918
 30
0.0
 10
-0.3691935392
 20
23.6077322003
 30
0.0
 10
-0.3692659445
 20
23.6133304215
 30
0.0
 10
-0.369393092
 20
23.6200282411
 30
0.0
 10
-0.3695604162
 20
23.6266994878
 30
0.0
 10
-0.3697679174
 20
23.6333441639
 30
0.0
 10
-0.3700975342
 20
23.6421517177
 30
0.0
 10
-0.3706094511
 20
23.653095481
 30
0.0
 10
-0.3713856314
 20
23.6661464796
 30
0.0
 10
-0.3723225387
 20
23.6790912439
 30
0.0
 10
-0.3737808898
 20
23.6961489102
 30
0.0
 10
-0.3760018652
 20
23.7172121465
 30
0.0
 10
-0.3784066373
 20
23.735288965
 30
0.0
 10
-0.3798477802
 20
23.7449169051
 30
0.0
 10
-0.3800508694
 20
23.7462528776
 30
0.0
 11
-1.4015838434
 21
22.6602257601
 31
0.0
 11
-1.3999751669
 21
22.6601944316
 31
0.0
 11
-1.3908400373
 21
22.6600548451
 31
0.0
 11
-1.3862587319
 21
22.6600092111
 31
0.0
 11
-1.3816682662
 21
22.6599796832
 31
0.0
 11
-1.3793695982
 21
22.659970959
 31
0.0
 11
-1.3770686401
 21
22.6599662614
 31
0.0
 11
-1.3759173022
 21
22.6599654225
 31
0.0
 11
-1.3753205334
 21
22.6599653828
 31
0.0
 11
-1.3746820543
 21
22.6599656261
 31
0.0
 11
-1.3734055811
 21
22.6599669882
 31
0.0
 11
-1.3721297549
 21
22.6599695179
 31
0.0
 11
-1.367032919
 21
22.6599913123
 31
0.0
 11
-1.3619464335
 21
22.6600317875
 31
0.0
 11
-1.3568702984
 21
22.6600909436
 31
0.0
 11
-1.3518045138
 21
22.6601687806
 31
0.0
 11
-1.3417039958
 21
22.6603804971
 31
0.0
 11
-1.3216271648
 21
22.6610281007
 31
0.0
 11
-1.3017159406
 21
22.6619745983
 31
0.0
 11
-1.2819703232
 21
22.6632199899
 31
0.0
 11
-1.2623903126
 21
22.6647642754
 31
0.0
 11
-1.2429759087
 21
22.6666074549
 31
0.0
 11
-1.2046439213
 21
22.6711904959
 31
0.0
 11
-1.1669743609
 21
22.6769691127
 31
0.0
 11
-1.0936225214
 21
22.692113074
 31
0.0
 11
-1.0229203903
 21
22.712039339
 31
0.0
 11
-0.9548679674
 21
22.7367479075
 31
0.0
 11
-0.8894652529
 21
22.7662387796
 31
0.0
 11
-0.8267122467
 21
22.8005119553
 31
0.0
 11
-0.7666089488
 21
22.8395674346
 31
0.0
 11
-0.7375509404
 21
22.8608885381
 31
0.0
 11
-0.7091553592
 21
22.8834052174
 31
0.0
 11
-0.681422205
 21
22.9071174727
 31
0.0
 11
-0.6678040381
 21
22.9194219413
 31
0.0
 11
-0.6543514779
 21
22.9320253039
 31
0.0
 11
-0.641138398
 21
22.9448435938
 31
0.0
 11
-0.6282386717
 21
22.9577928444
 31
0.0
 11
-0.6033792802
 21
22.9840842277
 31
0.0
 11
-0.5797733034
 21
23.0108994537
 31
0.0
 11
-0.5574207413
 21
23.0382385226
 31
0.0
 11
-0.5164758611
 21
23.0944881885
 31
0.0
 11
-0.4805446398
 21
23.1528332256
 31
0.0
 11
-0.4496270773
 21
23.2132736337
 31
0.0
 11
-0.4237231735
 21
23.2758094129
 31
0.0
 11
-0.4028329285
 21
23.3404405633
 31
0.0
 11
-0.3942679281
 21
23.3735419026
 31
0.0
 11
-0.3869563424
 21
23.4071670847
 31
0.0
 11
-0.3808981713
 21
23.4413161095
 31
0.0
 11
-0.376093415
 21
23.4759889771
 31
0.0
 11
-0.3741610673
 21
23.493521852
 31
0.0
 11
-0.3725420733
 21
23.5111856876
 31
0.0
 11
-0.371236433
 21
23.5289804838
 31
0.0
 11
-0.3702441464
 21
23.5469062407
 31
0.0
 11
-0.3698655107
 21
23.5559182295
 31
0.0
 11
-0.3695652134
 21
23.5649629584
 31
0.0
 11
-0.3693432546
 21
23.5740404274
 31
0.0
 11
-0.3692616521
 21
23.5785914395
 31
0.0
 11
-0.3691996341
 21
23.5831506367
 31
0.0
 11
-0.3691572008
 21
23.5877180189
 31
0.0
 11
-0.3691433284
 21
23.5900047793
 31
0.0
 11
-0.3691343521
 21
23.5922935861
 31
0.0
 11
-0.3691317001
 21
23.5934387568
 31
0.0
 11
-0.369130272
 21
23.5945844391
 31
0.0
 11
-0.369130017
 21
23.5951574721
 31
0.0
 11
-0.3691300022
 21
23.5954191543
 31
0.0
 11
-0.3691300349
 21
23.5956310655
 31
0.0
 11
-0.369130218
 21
23.59605481
 31
0.0
 11
-0.369130558
 21
23.5964784507
 31
0.0
 11
-0.3691317089
 21
23.5973254207
 31
0.0
 11
-0.3691334875
 21
23.5981719754
 31
0.0
 11
-0.369138928
 21
23.5998638392
 31
0.0
 11
-0.3691468794
 21
23.601554042
 31
0.0
 11
-0.3691573419
 21
23.6032425839
 31
0.0
 11
-0.3691857998
 21
23.6066146848
 31
0.0
 11
-0.3692728474
 21
23.6133389554
 31
0.0
 11
-0.3694000709
 21
23.6200366507
 31
0.0
 11
-0.3695674702
 21
23.626707771
 31
0.0
 11
-0.3697750454
 21
23.6333523161
 31
0.0
 11
-0.3700227964
 21
23.6399702862
 31
0.0
 11
-0.3706388258
 21
23.6531265008
 31
0.0
 11
-0.3714155587
 21
23.666176415
 31
0.0
 11
-0.3723529948
 21
23.6791200286
 31
0.0
 11
-0.3734511343
 21
23.6919573418
 31
0.0
 11
-0.3761295234
 21
23.7173130666
 31
0.0
 11
-0.3794507258
 21
23.7422435894
 31
0.0
 11
-0.3800508694
 21
23.7462528776
 31
0.0
  0
SPLINE
  5
34B
100
AcDbEntity
  8
0
100
AcDbSpline
 62
7
  6
CONTINUOUS
 70
0
 71
3
 72
11
 73
7
 74
5
 42
0.0000001
 43
0.0000001
 44
0.0000000001
 12
0.3071479808
 22
0.140944016
 32
0.0
 13
0.2142445598
 23
0.2614377173
 33
0.0
 40
0.0
 40
0.0
 40
0.0
 40
0.0
 40
0.5470330338
 40
0.8022171422
 40
0.9269078924
 40
1.0
 40
1.0
 40
1.0
 40
1.0
 10
-0.9264113834
 20
24.3310277571
 30
0.0
 10
-0.8704046861
 20
24.3567281013
 30
0.0
 10
-0.7912489388
 20
24.4023433108
 30
0.0
 10
-0.7119444902
 20
24.470664486
 30
0.0
 10
-0.6767562085
 20
24.507664932
 30
0.0
 10
-0.6622844001
 20
24.5246178062
 30
0.0
 10
-0.6570645379
 20
24.5309874841
 30
0.0
 11
-0.9264113834
 21
24.3310277571
 31
0.0
 11
-0.7673433518
 21
24.4252226711
 31
0.0
 11
-0.7021295211
 21
24.4816502348
 31
0.0
 11
-0.6731026519
 21
24.5121965433
 31
0.0
 11
-0.6570645379
 21
24.5309874841
 31
0.0
  0
SPLINE
  5
34C
100
AcDbEntity
  8
0
100
AcDbSpline
 62
7
  6
CONTINUOUS
 70
0
 71
3
 72
37
 73
33
 74
31
 42
0.0000001
 43
0.0000001
 44
0.0000000001
 12
0.3544501929
 22
0.4325274323
 32
0.0
 13
-0.0937265569
 23
0.5512823067
 33
0.0
 40
0.0
 40
0.0
 40
0.0
 40
0.0
 40
0.0304324054
 40
0.0675674136
 40
0.1046426147
 40
0.1416258775
 40
0.1783462975
 40
0.2510959169
 40
0.3231803925
 40
0.3949001184
 40
0.4665600761
 40
0.5384660073
 40
0.6109205403
 40
0.6474508525
 40
0.6842284452
 40
0.7212886882
 40
0.7399361694
 40
0.7492910447
 40
0.7586673331
 40
0.768065556
 40
0.7727730627
 40
0.7774862468
 40
0.7798449889
 40
0.7823108229
 40
0.7872752689
 40
0.797193274
 40
0.8169875521
 40
0.8367299744
 40
0.8760756185
 40
0.9152665311
 40
0.99331809
 40
1.0
 40
1.0
 40
1.0
 40
1.0
 10
-0.6570645379
 20
24.5309874841
 30
0.0
 10
-0.6534689473
 20
24.5353751008
 30
0.0
 10
-0.6456210146
 20
24.5452269005
 30
0.0
 10
-0.6339474739
 20
24.5608529221
 30
0.0
 10
-0.6221212012
 20
24.5778749042
 30
0.0
 10
-0.610921448
 20
24.5952227757
 30
0.0
 10
-0.5968147736
 20
24.6185924745
 30
0.0
 10
-0.5806997715
 20
24.6483722628
 30
0.0
 10
-0.5637940381
 20
24.6850493056
 30
0.0
 10
-0.5493828257
 20
24.7225601987
 30
0.0
 10
-0.5374669599
 20
24.7609019729
 30
0.0
 10
-0.5280470821
 20
24.8000718575
 30
0.0
 10
-0.5222925851
 20
24.8333143467
 30
0.0
 10
-0.5189308637
 20
24.8602743531
 30
0.0
 10
-0.5170241293
 20
24.8807580921
 30
0.0
 10
-0.5159556585
 20
24.8979639306
 30
0.0
 10
-0.5154786792
 20
24.9100804134
 30
0.0
 10
-0.5152829677
 20
24.9170438379
 30
0.0
 10
-0.5151748501
 20
24.9222851349
 30
0.0
 10
-0.5151171424
 20
24.9266610501
 30
0.0
 10
-0.515090359
 20
24.9301681616
 30
0.0
 10
-0.5150816948
 20
24.9323634371
 30
0.0
 10
-0.5150796036
 20
24.9341409518
 30
0.0
 10
-0.5150808333
 20
24.9359652941
 30
0.0
 10
-0.5150918302
 20
24.9391984152
 30
0.0
 10
-0.5151494589
 20
24.9456607732
 30
0.0
 10
-0.5153334561
 20
24.9548760029
 30
0.0
 10
-0.5158447631
 20
24.9695685102
 30
0.0
 10
-0.5168904229
 20
24.9878576492
 30
0.0
 10
-0.5194314013
 20
25.0169330313
 30
0.0
 10
-0.5224857914
 20
25.039841184
 30
0.0
 10
-0.5250922377
 20
25.0554188485
 30
0.0
 10
-0.5253009951
 20
25.0566467214
 30
0.0
 11
-0.6570645379
 21
24.5309874841
 31
0.0
 11
-0.6464624803
 21
24.5442978697
 31
0.0
 11
-0.634037406
 21
24.5609316645
 31
0.0
 11
-0.6222090061
 21
24.5779542138
 31
0.0
 11
-0.6109835441
 21
24.5953190881
 31
0.0
 11
-0.6003783072
 21
24.6128981422
 31
0.0
 11
-0.5810315151
 21
24.6486765038
 31
0.0
 11
-0.5641696322
 21
24.6852818698
 31
0.0
 11
-0.5497926583
 21
24.7227142402
 31
0.0
 11
-0.5379005935
 21
24.760973615
 31
0.0
 11
-0.5284934377
 21
24.8000599942
 31
0.0
 11
-0.521571191
 21
24.8399733778
 31
0.0
 11
-0.5190419086
 21
24.8602401963
 31
0.0
 11
-0.5171338534
 21
24.8807137659
 31
0.0
 11
-0.5158470255
 21
24.9013940866
 31
0.0
 11
-0.5154365718
 21
24.9118117786
 31
0.0
 11
-0.515289585
 21
24.9170400075
 31
0.0
 11
-0.5151814249
 21
24.9222811583
 31
0.0
 11
-0.5151120915
 21
24.9275352312
 31
0.0
 11
-0.5150919848
 21
24.9301671133
 31
0.0
 11
-0.5150815848
 21
24.9328022259
 31
0.0
 11
-0.5150800248
 21
24.9341209936
 31
0.0
 11
-0.5150809353
 21
24.9354996369
 31
0.0
 11
-0.5150903926
 21
24.938275234
 31
0.0
 11
-0.5151398611
 21
24.943820153
 31
0.0
 11
-0.5153610146
 21
24.95488489
 31
0.0
 11
-0.5157451233
 21
24.9659161591
 31
0.0
 11
-0.5170022064
 21
24.9878782938
 31
0.0
 11
-0.5189111103
 21
25.0097065569
 31
0.0
 11
-0.5246843807
 21
25.0529614686
 31
0.0
 11
-0.5253009951
 21
25.0566467214
 31
0.0
  0
SPLINE
  5
34D
100
AcDbEntity
  8
0
100
AcDbSpline
 62
7
  6
CONTINUOUS
 70
0
 71
3
 72
79
 73
75
 74
73
 42
0.0000001
 43
0.0000001
 44
0.0000000001
 12
-0.2789806302
 22
1.640912569
 32
0.0
 13
-1.4460287757
 23
-0.8247169195
 33
0.0
 40
0.0
 40
0.0
 40
0.0
 40
0.0
 40
0.0239144349
 40
0.050108451
 40
0.0764344932
 40
0.1029884148
 40
0.1298636309
 40
0.1571502572
 40
0.1640471984
 40
0.1709746265
 40
0.184815166
 40
0.2123902443
 40
0.23992318
 40
0.2952887725
 40
0.3518332273
 40
0.3808248922
 40
0.3955422862
 40
0.4104220251
 40
0.4254753809
 40
0.4330559104
 40
0.4406280985
 40
0.4708327089
 40
0.5009715776
 40
0.5311299128
 40
0.5613927583
 40
0.5918442823
 40
0.6071679619
 40
0.6225696177
 40
0.6380592322
 40
0.6536466184
 40
0.6614801411
 40
0.6693417013
 40
0.6772324719
 40
0.685153613
 40
0.689125949
 40
0.6931063065
 40
0.6970948267
 40
0.7010916498
 40
0.7030932208
 40
0.7040948035
 40
0.7050969203
 40
0.7060995734
 40
0.7066011018
 40
0.7071027651
 40
0.7076045636
 40
0.7078555136
 40
0.7079890732
 40
0.7081710535
 40
0.7085349378
 40
0.7088987204
 40
0.7096259806
 40
0.7103528348
 40
0.7110792839
 40
0.7125309688
 40
0.7154295054
 40
0.7183216372
 40
0.7212074098
 40
0.7240868692
 40
0.7269600615
 40
0.7326878196
 40
0.7383910713
 40
0.7440701972
 40
0.75535752
 40
0.7665530256
 40
0.777659934
 40
0.7886815424
 40
0.8104815623
 40
0.8319818271
 40
0.853211427
 40
0.8742005772
 40
0.8949805423
 40
0.9360342619
 40
0.9766476096
 40
1.0
 40
1.0
 40
1.0
 40
1.0
 10
-0.5253009951
 20
25.0566467214
 30
0.0
 10
-0.5275248832
 20
25.0697272204
 30
0.0
 10
-0.5329499446
 20
25.0970042499
 30
0.0
 10
-0.543648152
 20
25.1380599992
 30
0.0
 10
-0.5572767201
 20
25.1797814599
 30
0.0
 10
-0.5735203752
 20
25.2209621018
 30
0.0
 10
-0.5923777529
 20
25.261599286
 30
0.0
 10
-0.6083750525
 20
25.2914772463
 30
0.0
 10
-0.6198252432
 20
25.3111999944
 30
0.0
 10
-0.6277059891
 20
25.3243690902
 30
0.0
 10
-0.6420156614
 20
25.3470537997
 30
0.0
 10
-0.6639661898
 20
25.3784116791
 30
0.0
 10
-0.7022848768
 20
25.4262813567
 30
0.0
 10
-0.7563990502
 20
25.4818715001
 30
0.0
 10
-0.8176814973
 20
25.530714126
 30
0.0
 10
-0.8640749311
 20
25.5614291453
 30
0.0
 10
-0.8919146181
 20
25.5782075468
 30
0.0
 10
-0.9134789049
 20
25.5903988578
 30
0.0
 10
-0.9318685639
 20
25.6001445474
 30
0.0
 10
-0.9468270734
 20
25.6076960135
 30
0.0
 10
-0.9694350962
 20
25.6187397641
 30
0.0
 10
-1.0038311184
 20
25.6341603411
 30
0.0
 10
-1.05068978
 20
25.6522426853
 30
0.0
 10
-1.0984763792
 20
25.6678154712
 30
0.0
 10
-1.1471876685
 20
25.6808778057
 30
0.0
 10
-1.1884662817
 20
25.689653075
 30
0.0
 10
-1.2219120073
 20
25.6954206775
 30
0.0
 10
-1.2472818639
 20
25.6991297467
 30
0.0
 10
-1.2728824354
 20
25.7022126256
 30
0.0
 10
-1.2943725574
 20
25.7042564973
 30
0.0
 10
-1.3116755653
 20
25.7055798686
 30
0.0
 10
-1.32473274
 20
25.7064176463
 30
0.0
 10
-1.3378476473
 20
25.7070989713
 30
0.0
 10
-1.3488140656
 20
25.7075359375
 30
0.0
 10
-1.3576155435
 20
25.7078075059
 30
0.0
 10
-1.3642376335
 20
25.7079722761
 30
0.0
 10
-1.3708741633
 20
25.7080979382
 30
0.0
 10
-1.3764137273
 20
25.7081700286
 30
0.0
 10
-1.3802966559
 20
25.7082033999
 30
0.0
 10
-1.3825184378
 20
25.7082175948
 30
0.0
 10
-1.3841861193
 20
25.7082257996
 30
0.0
 10
-1.3855764197
 20
25.7082305995
 30
0.0
 10
-1.3866891104
 20
25.7082332178
 30
0.0
 10
-1.3875239661
 20
25.7082345708
 30
0.0
 10
-1.3882198203
 20
25.7082351888
 30
0.0
 10
-1.3887114782
 20
25.7082353561
 30
0.0
 10
-1.3890257248
 20
25.7082353742
 30
0.0
 10
-1.3894026189
 20
25.7082353146
 30
0.0
 10
-1.3899072235
 20
25.70823505
 30
0.0
 10
-1.3907143085
 20
25.708234231
 30
0.0
 10
-1.3917227414
 20
25.7082324662
 30
0.0
 10
-1.3929323517
 20
25.7082291618
 30
0.0
 10
-1.3945438124
 20
25.7082231758
 30
0.0
 10
-1.3973599357
 20
25.7082085599
 30
0.0
 10
-1.4013773333
 20
25.7081758306
 30
0.0
 10
-1.4061900377
 20
25.7081175525
 30
0.0
 10
-1.4109918911
 20
25.7080402931
 30
0.0
 10
-1.4157828941
 20
25.7079440525
 30
0.0
 10
-1.4221495373
 20
25.7077905896
 30
0.0
 10
-1.4300809349
 20
25.7075514574
 30
0.0
 10
-1.4395655244
 20
25.7071882596
 30
0.0
 10
-1.4521275242
 20
25.7066039803
 30
0.0
 10
-1.4677234189
 20
25.7056849179
 30
0.0
 10
-1.4863040255
 20
25.7042759715
 30
0.0
 10
-1.5047111782
 20
25.7025632375
 30
0.0
 10
-1.5289327816
 20
25.6998845061
 30
0.0
 10
-1.5587931545
 20
25.6957831667
 30
0.0
 10
-1.5940642576
 20
25.6896269291
 30
0.0
 10
-1.6286418399
 20
25.6822541381
 30
0.0
 10
-1.6625261851
 20
25.6736642502
 30
0.0
 10
-1.7065962526
 20
25.6606435195
 30
0.0
 10
-1.7601076796
 20
25.6413081878
 30
0.0
 10
-1.8131509777
 20
25.6170659859
 30
0.0
 10
-1.8444066124
 20
25.6002194817
 30
0.0
 10
-1.8556626886
 20
25.5937997779
 30
0.0
 11
-0.5253009951
 21
25.0566467214
 31
0.0
 11
-0.5330649346
 21
25.0956808943
 31
0.0
 11
-0.5440527718
 21
25.1378648339
 31
0.0
 11
-0.5576478925
 21
25.1795132874
 31
0.0
 11
-0.5738502966
 21
25.2206262549
 31
0.0
 11
-0.5926599841
 21
25.2612037363
 31
0.0
 11
-0.614076955
 21
25.3012457317
 31
0.0
 11
-0.6198385857
 21
25.3111725609
 31
0.0
 11
-0.625762428
 21
25.3210626392
 31
0.0
 11
-0.6380536149
 21
25.3405421372
 31
0.0
 11
-0.6643728148
 21
25.3781343543
 31
0.0
 11
-0.6930077829
 21
25.4139041995
 31
0.0
 11
-0.7572250232
 21
25.4799767743
 31
0.0
 11
-0.8307053359
 21
25.5387598618
 31
0.0
 11
-0.8709191444
 21
25.5654178477
 31
0.0
 11
-0.8918944617
 21
25.5780634513
 31
0.0
 11
-0.9134487211
 21
25.5902534619
 31
0.0
 11
-0.9355819224
 21
25.6019878795
 31
0.0
 11
-0.9468434431
 21
25.6076733917
 31
0.0
 11
-0.9581662903
 21
25.6132042125
 31
0.0
 11
-1.004035451
 21
25.6337632233
 31
0.0
 11
-1.0508290466
 21
25.6518193979
 31
0.0
 11
-1.0985470773
 21
25.6673727365
 31
0.0
 11
-1.1471895429
 21
25.680423239
 31
0.0
 11
-1.1967564435
 21
25.6909709054
 31
0.0
 11
-1.221886557
 21
25.6953061751
 31
0.0
 11
-1.2472477792
 21
25.6990157357
 31
0.0
 11
-1.2728401101
 21
25.7020995873
 31
0.0
 11
-1.2986635498
 21
25.7045577299
 31
0.0
 11
-1.3116619354
 21
25.7055521603
 31
0.0
 11
-1.3247180982
 21
25.7063901635
 31
0.0
 11
-1.3378320382
 21
25.7070717394
 31
0.0
 11
-1.3510037554
 21
25.707596888
 31
0.0
 11
-1.3576112804
 21
25.7078008021
 31
0.0
 11
-1.3642332498
 21
25.7079656094
 31
0.0
 11
-1.3708696634
 21
25.7080913099
 31
0.0
 11
-1.3775205213
 21
25.7081779035
 31
0.0
 11
-1.3808513669
 21
25.7082065353
 31
0.0
 11
-1.3825181438
 21
25.7082171849
 31
0.0
 11
-1.3841858236
 21
25.7082253904
 31
0.0
 11
-1.385854406
 21
25.7082311517
 31
0.0
 11
-1.3866890358
 21
25.7082331157
 31
0.0
 11
-1.3875238913
 21
25.7082344688
 31
0.0
 11
-1.3883589724
 21
25.7082352107
 31
0.0
 11
-1.3887765977
 21
25.7082353526
 31
0.0
 11
-1.3889988646
 21
25.7082353659
 31
0.0
 11
-1.3893017121
 21
25.7082353182
 31
0.0
 11
-1.3899072799
 21
25.7082350004
 31
0.0
 11
-1.3905126782
 21
25.7082343861
 31
0.0
 11
-1.3917229661
 21
25.7082322677
 31
0.0
 11
-1.3929325758
 21
25.7082289629
 31
0.0
 11
-1.3941415073
 21
25.7082244719
 31
0.0
 11
-1.3965573356
 21
25.7082119309
 31
0.0
 11
-1.4013808536
 21
25.7081726131
 31
0.0
 11
-1.4061935201
 21
25.7081143143
 31
0.0
 11
-1.410995335
 21
25.7080370346
 31
0.0
 11
-1.4157862985
 21
25.7079407738
 31
0.0
 11
-1.4205664105
 21
25.707825532
 31
0.0
 11
-1.4300940799
 21
25.7075381055
 31
0.0
 11
-1.4395783433
 21
25.707174755
 31
0.0
 11
-1.4490192007
 21
25.7067354805
 31
0.0
 11
-1.4677706974
 21
25.7056291596
 31
0.0
 11
-1.4863485702
 21
25.7042191427
 31
0.0
 11
-1.5047528188
 21
25.7025054299
 31
0.0
 11
-1.5229834434
 21
25.7004880212
 31
0.0
 11
-1.5589238204
 21
25.6955421158
 31
0.0
 11
-1.5941697013
 21
25.6893814267
 31
0.0
 11
-1.6287210859
 21
25.6820059539
 31
0.0
 11
-1.6625779743
 21
25.6734156973
 31
0.0
 11
-1.6957403665
 21
25.6636106569
 31
0.0
 11
-1.7599816623
 21
25.6403562248
 31
0.0
 11
-1.8214449732
 21
25.6122426576
 31
0.0
 11
-1.8556626886
 21
25.5937997779
 31
0.0
  0
SPLINE
  5
34E
100
AcDbEntity
  8
0
100
AcDbSpline
 62
7
  6
CONTINUOUS
 70
0
 71
3
 72
19
 73
15
 74
13
 42
0.0000001
 43
0.0000001
 44
0.0000000001
 12
0.1015197888
 22
0.6746354737
 32
0.0
 13
0.654566272
 23
0.1927355177
 33
0.0
 40
0.0
 40
0.0
 40
0.0
 40
0.0
 40
0.3200143378
 40
0.4606659363
 40
0.5274273795
 40
0.5923872356
 40
0.6243568918
 40
0.6560690687
 40
0.6875418768
 40
0.7186970261
 40
0.780237621
 40
0.8411527084
 40
0.9628734243
 40
1.0
 40
1.0
 40
1.0
 40
1.0
 10
-1.92037
 20
24.8658953666
 30
0.0
 10
-1.9095407373
 20
24.9378597081
 30
0.0
 10
-1.8849387048
 20
25.0410431055
 30
0.0
 10
-1.8325792719
 20
25.1494663565
 30
0.0
 10
-1.7989072842
 20
25.2015365922
 30
0.0
 10
-1.7760413137
 20
25.2309789842
 30
0.0
 10
-1.7565583072
 20
25.2528133449
 30
0.0
 10
-1.7414155136
 20
25.2682827333
 30
0.0
 10
-1.7257127659
 20
25.2829112465
 30
0.0
 10
-1.7042839076
 20
25.3013089495
 30
0.0
 10
-1.6763419196
 20
25.3223576965
 30
0.0
 10
-1.6292028787
 20
25.3518076528
 30
0.0
 10
-1.583381955
 20
25.3725229709
 30
0.0
 10
-1.5489797064
 20
25.3836131552
 30
0.0
 10
-1.540879105
 20
25.3859983585
 30
0.0
 11
-1.92037
 21
24.8658953666
 31
0.0
 11
-1.8651630277
 21
25.0771237846
 31
0.0
 11
-1.822921347
 21
25.1632827445
 31
0.0
 11
-1.7981409579
 21
25.2014984123
 31
0.0
 11
-1.7709208698
 21
25.2364715385
 31
0.0
 11
-1.7563959385
 21
25.2527421485
 31
0.0
 11
-1.7412610825
 21
25.2682021232
 31
0.0
 11
-1.7255629298
 21
25.2828514625
 31
0.0
 11
-1.7094301739
 21
25.2966901664
 31
0.0
 11
-1.6758832338
 21
25.3219356681
 31
0.0
 11
-1.6406277229
 21
25.3439386283
 31
0.0
 11
-1.5649909883
 21
25.3782169242
 31
0.0
 11
-1.540879105
 21
25.3859983585
 31
0.0
  0
SPLINE
  5
34F
100
AcDbEntity
  8
0
100
AcDbSpline
 62
7
  6
CONTINUOUS
 70
0
 71
3
 72
25
 73
21
 74
19
 42
0.0000001
 43
0.0000001
 44
0.0000000001
 12
0.4979309018
 22
0.1466145969
 32
0.0
 13
0.3958865693
 23
-0.3356479189
 33
0.0
 40
0.0
 40
0.0
 40
0.0
 40
0.0
 40
0.0325195719
 40
0.1154678534
 40
0.2005960303
 40
0.2441478961
 40
0.2884340905
 40
0.3108714192
 40
0.333536188
 40
0.3782695274
 40
0.4221622686
 40
0.4652712937
 40
0.5493652932
 40
0.6310834965
 40
0.7109894187
 40
0.7896855162
 40
0.8678022414
 40
0.9459840645
 40
0.9853106709
 40
1.0
 40
1.0
 40
1.0
 40
1.0
 10
-1.540879105
 20
25.3859983585
 30
0.0
 10
-1.5354816051
 20
25.3875876398
 30
0.0
 10
-1.5162221154
 20
25.3929046526
 30
0.0
 10
-1.4822463129
 20
25.40016439
 30
0.0
 10
-1.4459079022
 20
25.4049260661
 30
0.0
 10
-1.4160628754
 20
25.4071401759
 30
0.0
 10
-1.3969948327
 20
25.4078557576
 30
0.0
 10
-1.3815317114
 20
25.4080267272
 30
0.0
 10
-1.3659905496
 20
25.4079330115
 30
0.0
 10
-1.3467434807
 20
25.4073319051
 30
0.0
 10
-1.3239997496
 20
25.405814637
 30
0.0
 10
-1.2945539603
 20
25.4027632668
 30
0.0
 10
-1.2588331834
 20
25.3970069084
 30
0.0
 10
-1.2175052582
 20
25.3868594515
 30
0.0
 10
-1.1780726187
 20
25.3735251162
 30
0.0
 10
-1.1405434301
 20
25.3570012706
 30
0.0
 10
-1.104926919
 20
25.337289637
 30
0.0
 10
-1.076894412
 20
25.3182403948
 30
0.0
 10
-1.0588861465
 20
25.3041344841
 30
0.0
 10
-1.0517083657
 20
25.2981497309
 30
0.0
 10
-1.0497699296
 20
25.29650625
 30
0.0
 11
-1.540879105
 21
25.3859983585
 31
0.0
 11
-1.5246097647
 21
25.3904922599
 31
0.0
 11
-1.4825199702
 21
25.3995250541
 31
0.0
 11
-1.4387216047
 21
25.4053153068
 31
0.0
 11
-1.4161817079
 21
25.4069944801
 31
0.0
 11
-1.3932146684
 21
25.407863018
 31
0.0
 11
-1.3815709701
 21
25.4079932987
 31
0.0
 11
-1.3698087183
 21
25.4079228175
 31
0.0
 11
-1.3466047968
 21
25.4071892649
 31
0.0
 11
-1.323876539
 21
25.4056657328
 31
0.0
 11
-1.3016239449
 21
25.403352221
 31
0.0
 11
-1.2585457479
 21
25.3963552585
 31
0.0
 11
-1.2173702057
 21
25.3861983774
 31
0.0
 11
-1.1780973184
 21
25.3728815778
 31
0.0
 11
-1.140727086
 21
25.3564048596
 31
0.0
 11
-1.1052595084
 21
25.3367682229
 31
0.0
 11
-1.0716945858
 21
25.3139716676
 31
0.0
 11
-1.05562562
 21
25.3013884205
 31
0.0
 11
-1.0497699296
 21
25.29650625
 31
0.0
  0
SPLINE
  5
350
100
AcDbEntity
  8
0
100
AcDbSpline
 62
7
  6
CONTINUOUS
 70
0
 71
3
 72
50
 73
46
 74
44
 42
0.0000001
 43
0.0000001
 44
0.0000000001
 12
0.3701654614
 22
-0.3138405705
 32
0.0
 13
-0.0673738485
 23
-0.4806031688
 33
0.0
 40
0.0
 40
0.0
 40
0.0
 40
0.0
 40
0.0266231836
 40
0.0479197854
 40
0.0693051371
 40
0.1117598263
 40
0.1536823374
 40
0.1951518579
 40
0.2770401277
 40
0.3581237349
 40
0.4391018804
 40
0.5206764772
 40
0.5619135166
 40
0.6035547991
 40
0.6456811243
 40
0.6883705379
 40
0.7099511006
 40
0.7317002848
 40
0.753626954
 40
0.7646596899
 40
0.7757400223
 40
0.7868689987
 40
0.7980476529
 40
0.8092770049
 40
0.8149110231
 40
0.8177329204
 40
0.8205580958
 40
0.8233865648
 40
0.8248020394
 40
0.8262183432
 40
0.8269268067
 40
0.827794572
 40
0.8295820292
 40
0.8331521887
 40
0.8367160283
 40
0.8402735713
 40
0.8473698547
 40
0.8544412323
 40
0.8614878938
 40
0.8755077884
 40
0.9032591491
 40
0.9306372242
 40
0.9576554012
 40
0.9843276093
 40
1.0
 40
1.0
 40
1.0
 40
1.0
 10
-1.0497699296
 20
25.29650625
 30
0.0
 10
-1.0464849353
 20
25.2937211049
 30
0.0
 10
-1.0406420778
 20
25.288625542
 30
0.0
 10
-1.0323777685
 20
25.2810500571
 30
0.0
 10
-1.0224314499
 20
25.2715244018
 30
0.0
 10
-1.0104480137
 20
25.2593078558
 30
0.0
 10
-0.9968263886
 20
25.2441721337
 30
0.0
 10
-0.9798286616
 20
25.2235278401
 30
0.0
 10
-0.96053957
 20
25.1966062299
 30
0.0
 10
-0.9405928835
 20
25.162494117
 30
0.0
 10
-0.9239431803
 20
25.1267128223
 30
0.0
 10
-0.9128574434
 20
25.0956158108
 30
0.0
 10
-0.905642438
 20
25.0700048896
 30
0.0
 10
-0.9010296266
 20
25.0503111446
 30
0.0
 10
-0.8972362427
 20
25.0302050365
 30
0.0
 10
-0.8947665504
 20
25.0131677542
 30
0.0
 10
-0.8931965729
 20
24.9993420205
 30
0.0
 10
-0.8922191836
 20
24.9888312389
 30
0.0
 10
-0.8915764197
 20
24.980004741
 30
0.0
 10
-0.8911638248
 20
24.9728930713
 30
0.0
 10
-0.8909048214
 20
24.967522242
 30
0.0
 10
-0.8906969135
 20
24.9621255778
 30
0.0
 10
-0.8905401004
 20
24.9567030749
 30
0.0
 10
-0.8904521026
 20
24.9521679893
 30
0.0
 10
-0.8904128047
 20
24.9489840815
 30
0.0
 10
-0.8903966984
 20
24.9471594069
 30
0.0
 10
-0.890387805
 20
24.945788495
 30
0.0
 10
-0.8903830559
 20
24.9446450564
 30
0.0
 10
-0.8903808525
 20
24.9437295001
 30
0.0
 10
-0.8903801388
 20
24.9431568576
 30
0.0
 10
-0.8903799609
 20
24.9426728082
 30
0.0
 10
-0.8903800951
 20
24.9421287237
 30
0.0
 10
-0.8903812736
 20
24.9411217534
 30
0.0
 10
-0.8903857136
 20
24.9396786912
 30
0.0
 10
-0.8903954308
 20
24.9379493336
 30
0.0
 10
-0.890414226
 20
24.9356496661
 30
0.0
 10
-0.8904486669
 20
24.9327827642
 30
0.0
 10
-0.8905075952
 20
24.9293517866
 30
0.0
 10
-0.8906094056
 20
24.924801526
 30
0.0
 10
-0.8908479055
 20
24.9169085862
 30
0.0
 10
-0.8913630926
 20
24.9057344468
 30
0.0
 10
-0.8922645412
 20
24.8924764391
 30
0.0
 10
-0.89344711
 20
24.8794156414
 30
0.0
 10
-0.89471564
 20
24.8682671949
 30
0.0
 10
-0.895618224
 20
24.8614768541
 30
0.0
 10
-0.8959701937
 20
24.8589661206
 30
0.0
 11
-1.0497699296
 21
25.29650625
 31
0.0
 11
-1.0400323179
 21
25.2880151938
 31
0.0
 11
-1.0324140408
 21
25.2810323381
 31
0.0
 11
-1.0249181673
 21
25.2738558291
 31
0.0
 11
-1.010495916
 21
25.2591446642
 31
0.0
 11
-0.9968911202
 21
25.2440199972
 31
0.0
 11
-0.98410378
 21
25.228481828
 31
0.0
 11
-0.9609814662
 21
25.196164983
 31
0.0
 11
-0.9411289745
 21
25.1621941291
 31
0.0
 11
-0.924546305
 21
25.1265692664
 31
0.0
 11
-0.9112334576
 21
25.0892903948
 31
0.0
 11
-0.9058032173
 21
25.0700307057
 31
0.0
 11
-0.9011904324
 21
25.0503575144
 31
0.0
 11
-0.8973951031
 21
25.0302708209
 31
0.0
 11
-0.8944172294
 21
25.0097706252
 31
0.0
 11
-0.8932348384
 21
24.999365464
 31
0.0
 11
-0.8922568112
 21
24.9888569273
 31
0.0
 11
-0.8914831479
 21
24.978245015
 31
0.0
 11
-0.8911729527
 21
24.9729002931
 31
0.0
 11
-0.8909138485
 21
24.9675297272
 31
0.0
 11
-0.8907058353
 21
24.9621333174
 31
0.0
 11
-0.890548913
 21
24.9567110638
 31
0.0
 11
-0.8904430817
 21
24.9512629663
 31
0.0
 11
-0.8904093252
 21
24.9485292261
 31
0.0
 11
-0.8903972367
 21
24.9471599331
 31
0.0
 11
-0.8903883414
 21
24.9457890249
 31
0.0
 11
-0.8903826393
 21
24.9444165014
 31
0.0
 11
-0.8903809857
 21
24.943729634
 31
0.0
 11
-0.8903801303
 21
24.9430423627
 31
0.0
 11
-0.890380002
 21
24.9426985756
 31
0.0
 11
-0.8903801008
 21
24.9422774862
 31
0.0
 11
-0.89038112
 21
24.9414101101
 31
0.0
 11
-0.8903864514
 21
24.9396776722
 31
0.0
 11
-0.8903961733
 21
24.9379483202
 31
0.0
 11
-0.8904102857
 21
24.9362220541
 31
0.0
 11
-0.8904516822
 21
24.9327787794
 31
0.0
 11
-0.8905106408
 21
24.9293478482
 31
0.0
 11
-0.8905871616
 21
24.9259292604
 31
0.0
 11
-0.8907928895
 21
24.919129115
 31
0.0
 11
-0.891415091
 21
24.9056769455
 31
0.0
 11
-0.8923182868
 21
24.8924222709
 31
0.0
 11
-0.8935024768
 21
24.8793650913
 31
0.0
 11
-0.8949676611
 21
24.8665054065
 31
0.0
 11
-0.8959701937
 21
24.8589661206
 31
0.0
  0
SPLINE
  5
351
100
AcDbEntity
  8
0
100
AcDbSpline
 62
7
  6
CONTINUOUS
 70
0
 71
3
 72
68
 73
64
 74
62
 42
0.0000001
 43
0.0000001
 44
0.0000000001
 12
0.7214470045
 22
0.1895353323
 32
0.0
 13
0.511522064
 23
-0.5429909721
 33
0.0
 40
0.0
 40
0.0
 40
0.0
 40
0.0
 40
0.0460437962
 40
0.0901898437
 40
0.132456147
 40
0.1728637586
 40
0.1923783683
 40
0.2114376386
 40
0.2300451524
 40
0.2482047598
 40
0.265920603
 40
0.2831971434
 40
0.2916722433
 40
0.3000393535
 40
0.3082991356
 40
0.3164522769
 40
0.3244994924
 40
0.3284836211
 40
0.3324415497
 40
0.3363733757
 40
0.3402791989
 40
0.3422223927
 40
0.344159124
 40
0.3460894059
 40
0.3480132515
 40
0.348972765
 40
0.3499306745
 40
0.3508869815
 40
0.3513645347
 40
0.3516031613
 40
0.3518416879
 40
0.3520801146
 40
0.3523184414
 40
0.3525116503
 40
0.3528035981
 40
0.3533873619
 40
0.3545543635
 40
0.3557206649
 40
0.3568862675
 40
0.3580511727
 40
0.3603788963
 40
0.365026035
 40
0.3696621759
 40
0.3789018119
 40
0.388098575
 40
0.3972532234
 40
0.4063665258
 40
0.4154392614
 40
0.4334660004
 40
0.4513400797
 40
0.4866551491
 40
0.5214409427
 40
0.5557548395
 40
0.5896566147
 40
0.6232082462
 40
0.6895018986
 40
0.755181239
 40
0.8207908377
 40
0.8868769895
 40
0.920274761
 40
0.9539903427
 40
0.9880082677
 40
1.0
 40
1.0
 40
1.0
 40
1.0
 10
-1.6011040003
 20
24.1278054556
 30
0.0
 10
-1.5900312807
 20
24.130714431
 30
0.0
 10
-1.5682913478
 20
24.1362214584
 30
0.0
 10
-1.5362113015
 20
24.1436835896
 30
0.0
 10
-1.5053507543
 20
24.150172633
 30
0.0
 10
-1.4803684328
 20
24.1548218088
 30
0.0
 10
-1.4609953433
 20
24.1580406435
 30
0.0
 10
-1.4469394927
 20
24.1601831565
 30
0.0
 10
-1.4331886994
 20
24.1620821932
 30
0.0
 10
-1.4197429187
 20
24.1637377417
 30
0.0
 10
-1.40660217
 20
24.1651498004
 30
0.0
 10
-1.3958382542
 20
24.1661297598
 30
0.0
 10
-1.3873804966
 20
24.1667898091
 30
0.0
 10
-1.3811538785
 20
24.1672207972
 30
0.0
 10
-1.3750035403
 20
24.1675908968
 30
0.0
 10
-1.3689294803
 20
24.1679001062
 30
0.0
 10
-1.3639149634
 20
24.1681077172
 30
0.0
 10
-1.3599416364
 20
24.1682430678
 30
0.0
 10
-1.3569905189
 20
24.1683290229
 30
0.0
 10
-1.3540584739
 20
24.1683997545
 30
0.0
 10
-1.351626967
 20
24.1684460881
 30
0.0
 10
-1.3496913181
 20
24.1684755056
 30
0.0
 10
-1.3482467648
 20
24.1684937261
 30
0.0
 10
-1.3468069797
 20
24.1685081407
 30
0.0
 10
-1.3456101335
 20
24.1685169886
 30
0.0
 10
-1.3446550433
 20
24.1685221592
 30
0.0
 10
-1.3439405166
 20
24.1685250824
 30
0.0
 10
-1.3433458222
 20
24.1685267262
 30
0.0
 10
-1.342929971
 20
24.1685274602
 30
0.0
 10
-1.3426925902
 20
24.1685277604
 30
0.0
 10
-1.3425146665
 20
24.1685279261
 30
0.0
 10
-1.3423368172
 20
24.1685280324
 30
0.0
 10
-1.3421702358
 20
24.168528076
 30
0.0
 10
-1.3419903468
 20
24.1685280693
 30
0.0
 10
-1.3417245674
 20
24.1685280023
 30
0.0
 10
-1.3412166614
 20
24.1685276625
 30
0.0
 10
-1.3404913543
 20
24.1685265799
 30
0.0
 10
-1.3396213792
 20
24.168524322
 30
0.0
 10
-1.3387519283
 20
24.1685211063
 30
0.0
 10
-1.3375937055
 20
24.1685155431
 30
0.0
 10
-1.3355698513
 20
24.1685024654
 30
0.0
 10
-1.3326829858
 20
24.1684742147
 30
0.0
 10
-1.3280778501
 20
24.1684086271
 30
0.0
 10
-1.3223422023
 20
24.1682884558
 30
0.0
 10
-1.3154848772
 20
24.1680827675
 30
0.0
 10
-1.3086610995
 20
24.1678157661
 30
0.0
 10
-1.3018708627
 20
24.1674874505
 30
0.0
 10
-1.2928816484
 20
24.1669690826
 30
0.0
 10
-1.2817272059
 20
24.1661687414
 30
0.0
 10
-1.2640918249
 20
24.1645648606
 30
0.0
 10
-1.2423678273
 20
24.1619526821
 30
0.0
 10
-1.2167293161
 20
24.1578227865
 30
0.0
 10
-1.1916267119
 20
24.1527102166
 30
0.0
 10
-1.1670598261
 20
24.1466144522
 30
0.0
 10
-1.1351515778
 20
24.1372157223
 30
0.0
 10
-1.0964682555
 20
24.122989932
 30
0.0
 10
-1.0520266409
 20
24.1018928491
 30
0.0
 10
-1.0097487778
 20
24.0768394495
 30
0.0
 10
-0.9764384635
 20
24.0527474867
 30
0.0
 10
-0.9509454503
 20
24.0315920582
 30
0.0
 10
-0.9323094503
 20
24.0146978951
 30
0.0
 10
-0.9181982342
 20
24.0007673436
 30
0.0
 10
-0.9102900361
 20
23.9924992756
 30
0.0
 10
-0.9082453575
 20
23.9903288081
 30
0.0
 11
-1.6011040003
 21
24.1278054556
 31
0.0
 11
-1.5678069322
 21
24.1362262971
 31
0.0
 11
-1.5357301553
 21
24.143672905
 31
0.0
 11
-1.5048740086
 21
24.1501451904
 31
0.0
 11
-1.475238492
 21
24.1556431532
 31
0.0
 11
-1.4608784701
 21
24.1580267637
 31
0.0
 11
-1.4468236057
 21
24.1601667935
 31
0.0
 11
-1.4330738988
 21
24.1620632427
 31
0.0
 11
-1.4196293494
 21
24.1637161113
 31
0.0
 11
-1.4064899576
 21
24.1651253993
 31
0.0
 11
-1.3936557234
 21
24.1662911066
 31
0.0
 11
-1.3873530403
 21
24.1667826175
 31
0.0
 11
-1.3811266467
 21
24.1672132333
 31
0.0
 11
-1.3749765424
 21
24.1675829539
 31
0.0
 11
-1.3689027275
 21
24.1678917793
 31
0.0
 11
-1.362905202
 21
24.1681397096
 31
0.0
 11
-1.3599350477
 21
24.1682408391
 31
0.0
 11
-1.3569839658
 21
24.1683267447
 31
0.0
 11
-1.3540519563
 21
24.1683974266
 31
0.0
 11
-1.3511390191
 21
24.1684528847
 31
0.0
 11
-1.3496897026
 21
24.1684749048
 31
0.0
 11
-1.3482451543
 21
24.168493119
 31
0.0
 11
-1.346805374
 21
24.1685075272
 31
0.0
 11
-1.3453703618
 21
24.1685181295
 31
0.0
 11
-1.3446546437
 21
24.1685220034
 31
0.0
 11
-1.3439401176
 21
24.1685249258
 31
0.0
 11
-1.3432267836
 21
24.1685268968
 31
0.0
 11
-1.3428705636
 21
24.1685275254
 31
0.0
 11
-1.3426925653
 21
24.1685277506
 31
0.0
 11
-1.3425146416
 21
24.1685279162
 31
0.0
 11
-1.3423367923
 21
24.1685280224
 31
0.0
 11
-1.3421590176
 21
24.1685280692
 31
0.0
 11
-1.3420148975
 21
24.1685280661
 31
0.0
 11
-1.3417971254
 21
24.1685280105
 31
0.0
 11
-1.3413616794
 21
24.1685277197
 31
0.0
 11
-1.3404911805
 21
24.1685264196
 31
0.0
 11
-1.3396212059
 21
24.1685241616
 31
0.0
 11
-1.3387517556
 21
24.1685209456
 31
0.0
 11
-1.3378828296
 21
24.1685167716
 31
0.0
 11
-1.3361465503
 21
24.1685055498
 31
0.0
 11
-1.332680283
 21
24.1684716108
 31
0.0
 11
-1.329222404
 21
24.1684223445
 31
0.0
 11
-1.3223318108
 21
24.16827783
 31
0.0
 11
-1.3154747709
 21
24.1680720064
 31
0.0
 11
-1.3086512842
 21
24.1678048735
 31
0.0
 11
-1.3018613506
 21
24.1674764315
 31
0.0
 11
-1.2951049703
 21
24.1670866803
 31
0.0
 11
-1.2816928693
 21
24.1661232503
 31
0.0
 11
-1.2684149811
 21
24.1649145836
 31
0.0
 11
-1.2422618431
 21
24.1617615401
 31
0.0
 11
-1.2166455564
 21
24.1576275497
 31
0.0
 11
-1.191566121
 21
24.1525126124
 31
0.0
 11
-1.1670235368
 21
24.1464167282
 31
0.0
 11
-1.143017804
 21
24.1393398972
 31
0.0
 11
-1.096616892
 21
24.1222433945
 31
0.0
 11
-1.0523633852
 21
24.1012231043
 31
0.0
 11
-1.0102572834
 21
24.0762790266
 31
0.0
 11
-0.9702985867
 21
24.0474111614
 31
0.0
 11
-0.9511245153
 21
24.0315058085
 31
0.0
 11
-0.9324872951
 21
24.0146195087
 31
0.0
 11
-0.9144283368
 21
23.996793637
 31
0.0
 11
-0.9082453575
 21
23.9903288081
 31
0.0
  0
SPLINE
  5
352
100
AcDbEntity
  8
0
100
AcDbSpline
 62
7
  6
CONTINUOUS
 70
0
 71
3
 72
33
 73
29
 74
27
 42
0.0000001
 43
0.0000001
 44
0.0000000001
 12
0.3541767473
 22
-0.3759657497
 32
0.0
 13
-0.0526887103
 23
-0.5138154726
 33
0.0
 40
0.0
 40
0.0
 40
0.0
 40
0.0
 40
0.0314175465
 40
0.079649251
 40
0.1274692788
 40
0.2222345264
 40
0.3165229553
 40
0.4111324652
 40
0.5068529267
 40
0.6044472402
 40
0.6541847821
 40
0.7046563356
 40
0.7559433426
 40
0.808123427
 40
0.8213174118
 40
0.8345729438
 40
0.8412241506
 40
0.8478911545
 40
0.8546198447
 40
0.8581224054
 40
0.8616211196
 40
0.8755778347
 40
0.8894744932
 40
0.9033123024
 40
0.9170924854
 40
0.9444846258
 40
0.971661312
 40
1.0
 40
1.0
 40
1.0
 40
1.0
 10
-0.9082453575
 20
23.9903288081
 30
0.0
 10
-0.9045362361
 20
23.986391501
 30
0.0
 10
-0.8952703809
 20
23.9762802386
 30
0.0
 10
-0.8810287947
 20
23.9595741589
 30
0.0
 10
-0.8608416896
 20
23.9336464377
 30
0.0
 10
-0.8379833836
 20
23.8998005372
 30
0.0
 10
-0.8144590799
 20
23.8569269689
 30
0.0
 10
-0.7949198273
 20
23.8119156709
 30
0.0
 10
-0.779369181
 20
23.7647806773
 30
0.0
 10
-0.7697917767
 20
23.7239903066
 30
0.0
 10
-0.764095203
 20
23.6904086932
 30
0.0
 10
-0.760784292
 20
23.6645305905
 30
0.0
 10
-0.7584628456
 20
23.6381240413
 30
0.0
 10
-0.7574702811
 20
23.6180588639
 30
0.0
 10
-0.7571114194
 20
23.6045267025
 30
0.0
 10
-0.7570124333
 20
23.5988288491
 30
0.0
 10
-0.7569640114
 20
23.5942541654
 30
0.0
 10
-0.7569430252
 20
23.5908029471
 30
0.0
 10
-0.7569384733
 20
23.5878937408
 30
0.0
 10
-0.7569427327
 20
23.5855299951
 30
0.0
 10
-0.7569575009
 20
23.5819219013
 30
0.0
 10
-0.7570105886
 20
23.5765245068
 30
0.0
 10
-0.7571477916
 20
23.5693481754
 30
0.0
 10
-0.7573513033
 20
23.5622038089
 30
0.0
 10
-0.7577103276
 20
23.5527399722
 30
0.0
 10
-0.7583239415
 20
23.5409882389
 30
0.0
 10
-0.759343918
 20
23.5267505342
 30
0.0
 10
-0.7602187759
 20
23.5172323922
 30
0.0
 10
-0.7607164855
 20
23.5123787734
 30
0.0
 11
-0.9082453575
 21
23.9903288081
 31
0.0
 11
-0.8972835265
 21
23.9783637896
 31
0.0
 11
-0.8811264831
 21
23.9594035219
 31
0.0
 11
-0.8659572065
 21
23.9399128339
 31
0.0
 11
-0.8385819538
 21
23.8993401972
 31
0.0
 11
-0.8151577685
 21
23.8566458794
 31
0.0
 11
-0.7956846507
 21
23.8118298805
 31
0.0
 11
-0.7801626002
 21
23.7648922006
 31
0.0
 11
-0.7685916171
 21
23.7158328395
 31
0.0
 11
-0.7642877758
 21
23.6905075286
 31
0.0
 11
-0.7609717014
 21
23.6646517974
 31
0.0
 11
-0.7586433939
 21
23.6382656459
 31
0.0
 11
-0.7573028531
 21
23.6113490741
 31
0.0
 11
-0.7571220565
 21
23.604537053
 31
0.0
 11
-0.7570029953
 21
23.5976918806
 31
0.0
 11
-0.7569666155
 21
23.5942568627
 31
0.0
 11
-0.7569456696
 21
23.590813557
 31
0.0
 11
-0.7569401691
 21
23.5873383322
 31
0.0
 11
-0.7569434251
 21
23.5855293351
 31
0.0
 11
-0.7569508249
 21
23.5837223368
 31
0.0
 11
-0.7570218634
 21
23.5765143325
 31
0.0
 11
-0.7571592044
 21
23.5693383104
 31
0.0
 11
-0.7573628479
 21
23.5621942704
 31
0.0
 11
-0.7576327941
 21
23.5550822125
 31
0.0
 11
-0.758371594
 21
23.540954043
 31
0.0
 11
-0.7593756042
 21
23.5269538019
 31
0.0
 11
-0.7607164855
 21
23.5123787734
 31
0.0
  0
SPLINE
  5
353
100
AcDbEntity
  8
0
100
AcDbSpline
 62
7
  6
CONTINUOUS
 70
0
 71
3
 72
27
 73
23
 74
21
 42
0.0000001
 43
0.0000001
 44
0.0000000001
 12
-0.0766283122
 22
-0.7472722756
 32
0.0
 13
-0.7321512947
 23
-0.1685189146
 33
0.0
 40
0.0
 40
0.0
 40
0.0
 40
0.0
 40
0.0174696965
 40
0.0899094964
 40
0.1608282339
 40
0.2307573949
 40
0.3002511739
 40
0.3698741628
 40
0.4401878411
 40
0.4757832589
 40
0.5117536273
 40
0.5299003875
 40
0.5481645906
 40
0.5664865521
 40
0.5846880612
 40
0.6207261506
 40
0.6563329176
 40
0.7264984699
 40
0.7957457574
 40
0.8646415808
 40
0.9337613877
 40
1.0
 40
1.0
 40
1.0
 40
1.0
 10
-0.7607164855
 20
23.5123787734
 30
0.0
 10
-0.76116271
 20
23.5080272335
 30
0.0
 10
-0.7636707457
 20
23.4856525627
 30
0.0
 10
-0.7701426223
 20
23.445857059
 30
0.0
 10
-0.7831845162
 20
23.3940025502
 30
0.0
 10
-0.8005068237
 20
23.3441925405
 30
0.0
 10
-0.8221099597
 20
23.2964385293
 30
0.0
 10
-0.8479887231
 20
23.2507515252
 30
0.0
 10
-0.8730163281
 20
23.2145481634
 30
0.0
 10
-0.895075822
 20
23.1866924307
 30
0.0
 10
-0.9097627621
 20
23.1696866646
 30
0.0
 10
-0.9220301175
 20
23.1563453498
 30
0.0
 10
-0.9315120237
 20
23.1464496804
 30
0.0
 10
-0.9412011908
 20
23.1367375036
 30
0.0
 10
-0.9542915749
 20
23.1241376119
 30
0.0
 10
-0.9709785772
 20
23.1090396162
 30
0.0
 10
-0.9982986681
 20
23.0863473775
 30
0.0
 10
-1.0337987614
 20
23.0605497684
 30
0.0
 10
-1.0786327797
 20
23.0337623298
 30
0.0
 10
-1.1254943783
 20
23.0112962294
 30
0.0
 10
-1.1735059073
 20
22.9934789811
 30
0.0
 10
-1.2062362845
 20
22.9845127982
 30
0.0
 10
-1.2224018465
 20
22.9807919785
 30
0.0
 11
-0.7607164855
 21
23.5123787734
 31
0.0
 11
-0.7621792552
 21
23.4993371052
 31
0.0
 11
-0.77096908
 21
23.445638853
 31
0.0
 11
-0.7840022685
 21
23.3939874559
 31
0.0
 11
-0.8012788207
 21
23.3443829139
 31
0.0
 11
-0.8227987366
 21
23.296825227
 31
0.0
 11
-0.8485620161
 21
23.2513143952
 31
0.0
 11
-0.8785686594
 21
23.2078504186
 31
0.0
 11
-0.8951632425
 21
23.1868860009
 31
0.0
 11
-0.9128186664
 21
23.166433297
 31
0.0
 11
-0.9220441937
 21
23.1563988378
 31
0.0
 11
-0.9315349313
 21
23.1464923069
 31
0.0
 11
-0.9412551623
 21
23.1367494711
 31
0.0
 11
-0.9511063084
 21
23.1272690458
 31
0.0
 11
-0.9711842017
 21
23.109112595
 31
0.0
 11
-0.9917628966
 21
23.0920286772
 31
0.0
 11
-1.0344226913
 21
23.0610784403
 31
0.0
 11
-1.0790856923
 21
23.0344183354
 31
0.0
 11
-1.1257518997
 21
23.0120483622
 31
0.0
 11
-1.1744213135
 21
22.9939685209
 31
0.0
 11
-1.2224018465
 21
22.9807919785
 31
0.0
  0
SPLINE
  5
354
100
AcDbEntity
  8
0
100
AcDbSpline
 62
7
  6
CONTINUOUS
 70
0
 71
3
 72
8
 73
4
 74
2
 42
0.0000001
 43
0.0000001
 44
0.0000000001
 12
-0.5615704661
 22
0.3211247964
 32
0.0
 13
-0.0071620968
 23
0.6468625371
 33
0.0
 40
0.0
 40
0.0
 40
0.0
 40
0.0
 40
1.0
 40
1.0
 40
1.0
 40
1.0
 10
-20.5157909308
 20
-3.9545784912
 30
0.0
 10
-20.7029810862
 20
-3.8475368924
 30
0.0
 10
-20.8414073029
 20
-3.6126188106
 30
0.0
 10
-20.8437946685
 20
-3.3969979649
 30
0.0
 11
-20.5157909308
 21
-3.9545784912
 31
0.0
 11
-20.8437946685
 21
-3.3969979649
 31
0.0
  0
SPLINE
  5
355
100
AcDbEntity
  8
0
100
AcDbSpline
 62
7
  6
CONTINUOUS
 70
0
 71
3
 72
9
 73
5
 74
3
 42
0.0000001
 43
0.0000001
 44
0.0000000001
 12
0.0127392337
 22
0.8210742323
 32
0.0
 13
0.821065445
 23
0.0132935357
 33
0.0
 40
0.0
 40
0.0
 40
0.0
 40
0.0
 40
0.5130790416
 40
1.0
 40
1.0
 40
1.0
 40
1.0
 10
-20.8437946685
 20
-3.3969979649
 30
0.0
 10
-20.8416159239
 20
-3.2565726382
 30
0.0
 10
-20.7797679928
 20
-2.9449687161
 30
0.0
 10
-20.471637266
 20
-2.8596372717
 30
0.0
 10
-20.3383726082
 20
-2.857479638
 30
0.0
 11
-20.8437946685
 21
-3.3969979649
 31
0.0
 11
-20.7133161982
 21
-2.9963840078
 31
0.0
 11
-20.3383726082
 21
-2.857479638
 31
0.0
  0
SPLINE
  5
356
100
AcDbEntity
  8
0
100
AcDbSpline
 62
7
  6
CONTINUOUS
 70
0
 71
3
 72
17
 73
13
 74
11
 42
0.0000001
 43
0.0000001
 44
0.0000000001
 12
0.4669722759
 22
-0.0064668901
 32
0.0
 13
0.2825053567
 23
-0.3718967606
 33
0.0
 40
0.0
 40
0.0
 40
0.0
 40
0.0
 40
0.2236191569
 40
0.4268263999
 40
0.6145528111
 40
0.7046195736
 40
0.7932443047
 40
0.8813518361
 40
0.9255205447
 40
0.9699122695
 40
0.9922296273
 40
1.0
 40
1.0
 40
1.0
 40
1.0
 10
-20.3383726082
 20
-2.857479638
 30
0.0
 10
-20.303564626
 20
-2.8579616781
 30
0.0
 10
-20.237063863
 20
-2.8625237859
 30
0.0
 10
-20.1431417702
 20
-2.8825143393
 30
0.0
 10
-20.0731722389
 20
-2.9104683265
 30
0.0
 10
-20.0238323873
 20
-2.9392603152
 30
0.0
 10
-19.9901978597
 20
-2.9637510867
 30
0.0
 10
-19.9645933256
 20
-2.9868068098
 30
0.0
 10
-19.9456368611
 20
-3.0067458396
 30
0.0
 10
-19.9343954041
 20
-3.019855079
 30
0.0
 10
-19.9271858356
 20
-3.0289366075
 30
0.0
 10
-19.9243364551
 20
-3.0326542288
 30
0.0
 10
-19.9236047312
 20
-3.0336174876
 30
0.0
 11
-20.3383726082
 21
-2.857479638
 31
0.0
 11
-20.2342319187
 21
-2.8653006784
 31
0.0
 11
-20.1415535993
 21
-2.8857206667
 31
0.0
 11
-20.0603376502
 21
-2.918739603
 31
0.0
 11
-20.0240280644
 21
-2.9399736767
 31
0.0
 11
-19.9905840712
 21
-2.9643574873
 31
0.0
 11
-19.9600056706
 21
-2.9918910349
 31
0.0
 11
-19.9457910675
 21
-3.00683896
 31
0.0
 11
-19.9322928625
 21
-3.0225743195
 31
0.0
 11
-19.9258124093
 21
-3.030737287
 31
0.0
 11
-19.9236047312
 21
-3.0336174876
 31
0.0
  0
SPLINE
  5
357
100
AcDbEntity
  8
0
100
AcDbSpline
 62
7
  6
CONTINUOUS
 70
0
 71
3
 72
71
 73
67
 74
65
 42
0.0000001
 43
0.0000001
 44
0.0000000001
 12
0.3945173545
 22
-0.5193520145
 32
0.0
 13
-0.0
 23
-0.6521870385
 33
0.0
 40
0.0
 40
0.0
 40
0.0
 40
0.0
 40
0.0104874928
 40
0.018543144
 40
0.0267205186
 40
0.0431730291
 40
0.0760474242
 40
0.108911783
 40
0.1747424301
 40
0.2409540208
 40
0.3078220097
 40
0.3756138501
 40
0.4445862493
 40
0.4795955382
 40
0.5149901697
 40
0.550798344
 40
0.5870472963
 40
0.6237632807
 40
0.6423047274
 40
0.6609723217
 40
0.6797690672
 40
0.6986979063
 40
0.7082128078
 40
0.717761808
 40
0.7273452573
 40
0.7369635026
 40
0.7417857865
 40
0.7466168977
 40
0.7514568786
 40
0.753880209
 40
0.7563057726
 40
0.7587335746
 40
0.7599483167
 40
0.7611636203
 40
0.7617714829
 40
0.7623794862
 40
0.7626835406
 40
0.7628428096
 40
0.7630165516
 40
0.7633640355
 40
0.7637115195
 40
0.7640590035
 40
0.7644064875
 40
0.7651014554
 40
0.7664913913
 40
0.7678813272
 40
0.7692712631
 40
0.7706611989
 40
0.7720511348
 40
0.7748310066
 40
0.7776108784
 40
0.7831706219
 40
0.7887303655
 40
0.794290109
 40
0.7998498526
 40
0.8054095961
 40
0.8109693397
 40
0.8220888268
 40
0.8332083139
 40
0.844327801
 40
0.8665667752
 40
0.8888057494
 40
0.9110447236
 40
0.9332836978
 40
0.955522672
 40
1.0
 40
1.0
 40
1.0
 40
1.0
 10
-19.9236047312
 20
-3.0336174876
 30
0.0
 10
-19.9222255652
 20
-3.0354330544
 30
0.0
 10
-19.9198130958
 20
-3.0386630204
 30
0.0
 10
-19.9164013622
 20
-3.0433646705
 30
0.0
 10
-19.9123149735
 20
-3.0491780086
 30
0.0
 10
-19.9052510841
 20
-3.0594926163
 30
0.0
 10
-19.8955173508
 20
-3.0744809982
 30
0.0
 10
-19.8807307236
 20
-3.0989697451
 30
0.0
 10
-19.8637176169
 20
-3.1305573982
 30
0.0
 10
-19.8457201989
 20
-3.1699086166
 30
0.0
 10
-19.8301265449
 20
-3.2107297641
 30
0.0
 10
-19.8169371247
 20
-3.2530167613
 30
0.0
 10
-19.8079928923
 20
-3.2892971895
 30
0.0
 10
-19.8020268671
 20
-3.3190072177
 30
0.0
 10
-19.7981283365
 20
-3.3417690669
 30
0.0
 10
-19.7948285513
 20
-3.3648973334
 30
0.0
 10
-19.792127379
 20
-3.3883921791
 30
0.0
 10
-19.7903810209
 20
-3.4082109518
 30
0.0
 10
-19.7892804039
 20
-3.4242445547
 30
0.0
 10
-19.7886017684
 20
-3.4364013902
 30
0.0
 10
-19.7880727027
 20
-3.4486499102
 30
0.0
 10
-19.7877570134
 20
-3.4589152195
 30
0.0
 10
-19.7875788518
 20
-3.4671727965
 30
0.0
 10
-19.7874823818
 20
-3.4733999
 30
0.0
 10
-19.7874233001
 20
-3.4796499339
 30
0.0
 10
-19.7874052385
 20
-3.4848726457
 30
0.0
 10
-19.7874094322
 20
-3.48906222
 30
0.0
 10
-19.7874219271
 20
-3.4922129973
 30
0.0
 10
-19.7874401206
 20
-3.4948422137
 30
0.0
 10
-19.7874593415
 20
-3.4969484461
 30
0.0
 10
-19.787476103
 20
-3.4985302802
 30
0.0
 10
-19.7874920064
 20
-3.4998493652
 30
0.0
 10
-19.7875059147
 20
-3.5009053488
 30
0.0
 10
-19.7875150541
 20
-3.5015657139
 30
0.0
 10
-19.7875227517
 20
-3.5020941833
 30
0.0
 10
-19.78752747
 20
-3.5024245744
 30
0.0
 10
-19.7875312927
 20
-3.502657444
 30
0.0
 10
-19.7875328684
 20
-3.502795933
 30
0.0
 10
-19.7875324324
 20
-3.5029438714
 30
0.0
 10
-19.7875326508
 20
-3.5031327243
 30
0.0
 10
-19.7875325806
 20
-3.5033593491
 30
0.0
 10
-19.7875325993
 20
-3.5035859736
 30
0.0
 10
-19.7875325932
 20
-3.5038881397
 30
0.0
 10
-19.787532597
 20
-3.5044169303
 30
0.0
 10
-19.7875325949
 20
-3.5051723454
 30
0.0
 10
-19.7875325956
 20
-3.5060788436
 30
0.0
 10
-19.7875325954
 20
-3.5069853418
 30
0.0
 10
-19.7875325954
 20
-3.5078918399
 30
0.0
 10
-19.7875325954
 20
-3.5091005042
 30
0.0
 10
-19.7875325954
 20
-3.5106113344
 30
0.0
 10
-19.7875325954
 20
-3.5130286629
 30
0.0
 10
-19.7875325954
 20
-3.5160503235
 30
0.0
 10
-19.7875325954
 20
-3.5196763161
 30
0.0
 10
-19.7875325954
 20
-3.5233023088
 30
0.0
 10
-19.7875325954
 20
-3.5269283015
 30
0.0
 10
-19.7875325954
 20
-3.5305542942
 30
0.0
 10
-19.7875325954
 20
-3.5353889511
 30
0.0
 10
-19.7875325954
 20
-3.5414322722
 30
0.0
 10
-19.7875325954
 20
-3.5486842576
 30
0.0
 10
-19.7875325954
 20
-3.5583535714
 30
0.0
 10
-19.7875325954
 20
-3.5704402137
 30
0.0
 10
-19.7875325954
 20
-3.5849441844
 30
0.0
 10
-19.7875325954
 20
-3.5994481551
 30
0.0
 10
-19.7875325954
 20
-3.6139521258
 30
0.0
 10
-19.7875325954
 20
-3.6332906186
 30
0.0
 10
-19.7875325954
 20
-3.6477944544
 30
0.0
 10
-19.7875325954
 20
-3.6574636334
 30
0.0
 11
-19.9236047312
 21
-3.0336174876
 31
0.0
 11
-19.9195110557
 21
-3.0390971131
 31
0.0
 11
-19.9164275412
 21
-3.0433508481
 31
0.0
 11
-19.913355461
 21
-3.0477103331
 31
0.0
 11
-19.9072925847
 21
-3.0565634048
 31
0.0
 11
-19.8956154796
 21
-3.0745447763
 31
0.0
 11
-19.8845365711
 21
-3.0928931186
 31
0.0
 11
-19.8641733441
 21
-3.1306907151
 31
0.0
 11
-19.8462029036
 21
-3.1699561944
 31
0.0
 11
-19.8306252496
 21
-3.2106895565
 31
0.0
 11
-19.8174403822
 21
-3.2528908014
 31
0.0
 11
-19.8066483013
 21
-3.2965599291
 31
0.0
 11
-19.8021495558
 21
-3.318944949
 31
0.0
 11
-19.798249007
 21
-3.3416969396
 31
0.0
 11
-19.7949466548
 21
-3.3648159009
 31
0.0
 11
-19.7922424992
 21
-3.3883018329
 31
0.0
 11
-19.7901365403
 21
-3.4121547356
 31
0.0
 11
-19.7893078845
 21
-3.4242188009
 31
0.0
 11
-19.788628778
 21
-3.436374609
 31
0.0
 11
-19.7880992206
 21
-3.4486221597
 31
0.0
 11
-19.7877192123
 21
-3.4609614531
 31
0.0
 11
-19.7875852891
 21
-3.4671655032
 31
0.0
 11
-19.7874887532
 21
-3.4733924891
 31
0.0
 11
-19.7874296046
 21
-3.4796424106
 31
0.0
 11
-19.7874078433
 21
-3.4859152678
 31
0.0
 11
-19.7874109829
 21
-3.4890602973
 31
0.0
 11
-19.7874234693
 21
-3.4922110607
 31
0.0
 11
-19.7874453025
 21
-3.495367558
 31
0.0
 11
-19.7874597242
 21
-3.4969479569
 31
0.0
 11
-19.7874764825
 21
-3.4985297892
 31
0.0
 11
-19.7874955776
 21
-3.5001130551
 31
0.0
 11
-19.7875060014
 21
-3.5009052255
 31
0.0
 11
-19.7875170094
 21
-3.5016977544
 31
0.0
 11
-19.7875227324
 21
-3.5020941532
 31
0.0
 11
-19.7875286015
 21
-3.5024906416
 31
0.0
 11
-19.7875315909
 21
-3.5026889194
 31
0.0
 11
-19.7875325954
 21
-3.5027927877
 31
0.0
 11
-19.7875325954
 21
-3.5029061
 31
0.0
 11
-19.7875325954
 21
-3.5031327245
 31
0.0
 11
-19.7875325954
 21
-3.5033593491
 31
0.0
 11
-19.7875325954
 21
-3.5035859736
 31
0.0
 11
-19.7875325954
 21
-3.5038125982
 31
0.0
 11
-19.7875325954
 21
-3.5042658472
 31
0.0
 11
-19.7875325954
 21
-3.5051723454
 31
0.0
 11
-19.7875325954
 21
-3.5060788436
 31
0.0
 11
-19.7875325954
 21
-3.5069853418
 31
0.0
 11
-19.7875325954
 21
-3.5078918399
 31
0.0
 11
-19.7875325954
 21
-3.5087983381
 31
0.0
 11
-19.7875325954
 21
-3.5106113344
 31
0.0
 11
-19.7875325954
 21
-3.5124243308
 31
0.0
 11
-19.7875325954
 21
-3.5160503235
 31
0.0
 11
-19.7875325954
 21
-3.5196763161
 31
0.0
 11
-19.7875325954
 21
-3.5233023088
 31
0.0
 11
-19.7875325954
 21
-3.5269283015
 31
0.0
 11
-19.7875325954
 21
-3.5305542942
 31
0.0
 11
-19.7875325954
 21
-3.5341802869
 31
0.0
 11
-19.7875325954
 21
-3.5414322722
 31
0.0
 11
-19.7875325954
 21
-3.5486842576
 31
0.0
 11
-19.7875325954
 21
-3.5559362429
 31
0.0
 11
-19.7875325954
 21
-3.5704402137
 31
0.0
 11
-19.7875325954
 21
-3.5849441844
 31
0.0
 11
-19.7875325954
 21
-3.5994481551
 31
0.0
 11
-19.7875325954
 21
-3.6139521258
 31
0.0
 11
-19.7875325954
 21
-3.6284560965
 31
0.0
 11
-19.7875325954
 21
-3.6574636334
 31
0.0
  0
SPLINE
  5
358
100
AcDbEntity
  8
0
100
AcDbSpline
 62
7
  6
CONTINUOUS
 70
0
 71
3
 72
71
 73
67
 74
65
 42
0.0000001
 43
0.0000001
 44
0.0000000001
 12
0.0
 22
0.6763829956
 32
0.0
 13
0.3430382889
 23
0.5829396959
 33
0.0
 40
0.0
 40
0.0
 40
0.0
 40
0.0
 40
0.0237286751
 40
0.0474579484
 40
0.0711872217
 40
0.0830518583
 40
0.0949164949
 40
0.1067811316
 40
0.1186457682
 40
0.1305104049
 40
0.1423750415
 40
0.1483073598
 40
0.1542396781
 40
0.1601719965
 40
0.1661043148
 40
0.1690704739
 40
0.1720366331
 40
0.1750027923
 40
0.1779689514
 40
0.1809351106
 40
0.1824181902
 40
0.1839012697
 40
0.1853843493
 40
0.1861258891
 40
0.1868674289
 40
0.1876089687
 40
0.1883505085
 40
0.1887212784
 40
0.1890920483
 40
0.1892774332
 40
0.1894628182
 40
0.1896482031
 40
0.1898335881
 40
0.1900542567
 40
0.1902749102
 40
0.190716172
 40
0.1915985147
 40
0.1924806163
 40
0.193362477
 40
0.1951254762
 40
0.1968875135
 40
0.2004087068
 40
0.2039260671
 40
0.2074396041
 40
0.2109493277
 40
0.2179573716
 40
0.2249502803
 40
0.2319281334
 40
0.2458389743
 40
0.2596905618
 40
0.2734835521
 40
0.2872186097
 40
0.3008964075
 40
0.3280827843
 40
0.3550484054
 40
0.3817989621
 40
0.4083402841
 40
0.4608176928
 40
0.512531525
 40
0.563533419
 40
0.6138772043
 40
0.6636188465
 40
0.7128163666
 40
0.8098050496
 40
0.9053585042
 40
1.0
 40
1.0
 40
1.0
 40
1.0
 10
-19.5160718685
 20
-3.6574636334
 30
0.0
 10
-19.5160718685
 20
-3.6521137426
 30
0.0
 10
-19.5160718685
 20
-3.6414138262
 30
0.0
 10
-19.5160718685
 20
-3.6253638841
 30
0.0
 10
-19.5160718685
 20
-3.61198882
 30
0.0
 10
-19.5160718685
 20
-3.6012887687
 30
0.0
 10
-19.5160718685
 20
-3.5932637302
 30
0.0
 10
-19.5160718685
 20
-3.5852386917
 30
0.0
 10
-19.5160718685
 20
-3.5772136533
 30
0.0
 10
-19.5160718685
 20
-3.5691886148
 30
0.0
 10
-19.5160718685
 20
-3.5625010827
 30
0.0
 10
-19.5160718685
 20
-3.5571510571
 30
0.0
 10
-19.5160718685
 20
-3.5531385378
 30
0.0
 10
-19.5160718685
 20
-3.5491260186
 30
0.0
 10
-19.5160718685
 20
-3.5457822526
 30
0.0
 10
-19.5160718685
 20
-3.5431072398
 30
0.0
 10
-19.5160718685
 20
-3.5411009801
 30
0.0
 10
-19.5160718685
 20
-3.5390947205
 30
0.0
 10
-19.5160718685
 20
-3.5370884609
 30
0.0
 10
-19.5160718685
 20
-3.5354165779
 30
0.0
 10
-19.5160718685
 20
-3.5340790715
 30
0.0
 10
-19.5160718685
 20
-3.5330759417
 30
0.0
 10
-19.5160718685
 20
-3.5322400002
 30
0.0
 10
-19.5160718685
 20
-3.531571247
 30
0.0
 10
-19.5160718685
 20
-3.5310696821
 30
0.0
 10
-19.5160718685
 20
-3.5305681172
 30
0.0
 10
-19.5160718685
 20
-3.5301501464
 30
0.0
 10
-19.5160718685
 20
-3.5298157698
 30
0.0
 10
-19.5160718685
 20
-3.5296067844
 30
0.0
 10
-19.5160718685
 20
-3.5294395961
 30
0.0
 10
-19.5160718686
 20
-3.5293142049
 30
0.0
 10
-19.5160718682
 20
-3.5291888137
 30
0.0
 10
-19.5160718696
 20
-3.5290554673
 30
0.0
 10
-19.5160718637
 20
-3.5289141693
 30
0.0
 10
-19.5160718323
 20
-3.5287151811
 30
0.0
 10
-19.5160717245
 20
-3.5283670111
 30
0.0
 10
-19.5160714156
 20
-3.5278697105
 30
0.0
 10
-19.5160707982
 20
-3.5272730722
 30
0.0
 10
-19.5160696455
 20
-3.5264778808
 30
0.0
 10
-19.5160675875
 20
-3.5254842994
 30
0.0
 10
-19.516062978
 20
-3.5238956559
 30
0.0
 10
-19.5160547478
 20
-3.521911482
 30
0.0
 10
-19.5160409164
 20
-3.5195324362
 30
0.0
 10
-19.5160231326
 20
-3.5171560027
 30
0.0
 10
-19.5159941667
 20
-3.5139926221
 30
0.0
 10
-19.5159480941
 20
-3.5100449085
 30
0.0
 10
-19.5158769672
 20
-3.5053155316
 30
0.0
 10
-19.5157611759
 20
-3.4990303743
 30
0.0
 10
-19.5155770374
 20
-3.4911998944
 30
0.0
 10
-19.5152925929
 20
-3.4818350144
 30
0.0
 10
-19.5149449075
 20
-3.4725119271
 30
0.0
 10
-19.5145339809
 20
-3.4632306285
 30
0.0
 10
-19.5139030629
 20
-3.4509367277
 30
0.0
 10
-19.5129572422
 20
-3.4356724604
 30
0.0
 10
-19.5115669107
 20
-3.4174845357
 30
0.0
 10
-19.5099235712
 20
-3.3994636748
 30
0.0
 10
-19.5074047647
 20
-3.3757495097
 30
0.0
 10
-19.5036298759
 20
-3.3465120804
 30
0.0
 10
-19.4980698933
 20
-3.3119608858
 30
0.0
 10
-19.4914969671
 20
-3.2780774428
 30
0.0
 10
-19.4839110786
 20
-3.2448621916
 30
0.0
 10
-19.4753118065
 20
-3.2123145825
 30
0.0
 10
-19.4625575922
 20
-3.1700144882
 30
0.0
 10
-19.4440785587
 20
-3.1186849687
 30
0.0
 10
-19.4177279942
 20
-3.0594803268
 30
0.0
 10
-19.3973805778
 20
-3.0216784598
 30
0.0
 10
-19.3865586922
 20
-3.0032883649
 30
0.0
 11
-19.5160718685
 21
-3.6574636334
 31
0.0
 11
-19.5160718685
 21
-3.641413961
 31
0.0
 11
-19.5160718685
 21
-3.6253638841
 31
0.0
 11
-19.5160718685
 21
-3.6093138071
 31
0.0
 11
-19.5160718685
 21
-3.6012887687
 31
0.0
 11
-19.5160718685
 21
-3.5932637302
 31
0.0
 11
-19.5160718685
 21
-3.5852386917
 31
0.0
 11
-19.5160718685
 21
-3.5772136533
 31
0.0
 11
-19.5160718685
 21
-3.5691886148
 31
0.0
 11
-19.5160718685
 21
-3.5611635763
 31
0.0
 11
-19.5160718685
 21
-3.5571510571
 31
0.0
 11
-19.5160718685
 21
-3.5531385378
 31
0.0
 11
-19.5160718685
 21
-3.5491260186
 31
0.0
 11
-19.5160718685
 21
-3.5451134994
 31
0.0
 11
-19.5160718685
 21
-3.5431072398
 31
0.0
 11
-19.5160718685
 21
-3.5411009801
 31
0.0
 11
-19.5160718685
 21
-3.5390947205
 31
0.0
 11
-19.5160718685
 21
-3.5370884609
 31
0.0
 11
-19.5160718685
 21
-3.5350822013
 31
0.0
 11
-19.5160718685
 21
-3.5340790715
 31
0.0
 11
-19.5160718685
 21
-3.5330759417
 31
0.0
 11
-19.5160718685
 21
-3.5320728119
 31
0.0
 11
-19.5160718685
 21
-3.531571247
 31
0.0
 11
-19.5160718685
 21
-3.5310696821
 31
0.0
 11
-19.5160718685
 21
-3.5305681172
 31
0.0
 11
-19.5160718685
 21
-3.5300665522
 31
0.0
 11
-19.5160718685
 21
-3.5298157698
 31
0.0
 11
-19.5160718685
 21
-3.5295649873
 31
0.0
 11
-19.5160718685
 21
-3.5294395961
 31
0.0
 11
-19.5160718685
 21
-3.5293142049
 31
0.0
 11
-19.5160718685
 21
-3.5291888137
 31
0.0
 11
-19.5160718685
 21
-3.5290634224
 31
0.0
 11
-19.5160718608
 21
-3.5289141659
 31
0.0
 11
-19.5160718376
 21
-3.5287649196
 31
0.0
 11
-19.516071745
 21
-3.5284664577
 31
0.0
 11
-19.5160713744
 21
-3.5278696562
 31
0.0
 11
-19.5160707569
 21
-3.527273018
 31
0.0
 11
-19.5160698923
 21
-3.526676543
 31
0.0
 11
-19.516067422
 21
-3.5254840829
 31
0.0
 11
-19.5160639636
 21
-3.5242922759
 31
0.0
 11
-19.5160540826
 21
-3.5219106211
 31
0.0
 11
-19.5160402491
 21
-3.5195315786
 31
0.0
 11
-19.5160224631
 21
-3.5171551485
 31
0.0
 11
-19.5160007248
 21
-3.5147813306
 31
0.0
 11
-19.5159453908
 21
-3.5100415319
 31
0.0
 11
-19.5158742471
 21
-3.5053121825
 31
0.0
 11
-19.5157872936
 21
-3.5005932823
 31
0.0
 11
-19.5155659576
 21
-3.4911868298
 31
0.0
 11
-19.5152813828
 21
-3.4818221744
 31
0.0
 11
-19.5149335691
 21
-3.4724993161
 31
0.0
 11
-19.5145225165
 21
-3.4632182548
 31
0.0
 11
-19.5140482251
 21
-3.4539789907
 31
0.0
 11
-19.5129099257
 21
-3.4356258537
 31
0.0
 11
-19.5115186709
 21
-3.4174399051
 31
0.0
 11
-19.5098744606
 21
-3.3994211449
 31
0.0
 11
-19.507977295
 21
-3.3815695731
 31
0.0
 11
-19.5034240974
 21
-3.3463679946
 31
0.0
 11
-19.4978590781
 21
-3.3118351697
 31
0.0
 11
-19.4912822371
 21
-3.2779710983
 31
0.0
 11
-19.4836935744
 21
-3.2447757804
 31
0.0
 11
-19.4750930901
 21
-3.2122492161
 31
0.0
 11
-19.465480784
 21
-3.1803914053
 31
0.0
 11
-19.4432207068
 21
-3.1186820444
 31
0.0
 11
-19.4169133429
 21
-3.0596476975
 31
0.0
 11
-19.3865586922
 21
-3.0032883649
 31
0.0
  0
SPLINE
  5
359
100
AcDbEntity
  8
0
100
AcDbSpline
 62
7
  6
CONTINUOUS
 70
0
 71
3
 72
9
 73
5
 74
3
 42
0.0000001
 43
0.0000001
 44
0.0000000001
 12
0.2879762187
 22
0.457580325
 32
0.0
 13
0.5406179149
 23
0.0065058795
 33
0.0
 40
0.0
 40
0.0
 40
0.0
 40
0.0
 40
0.7095580048
 40
1.0
 40
1.0
 40
1.0
 40
1.0
 10
-19.3865586922
 20
-3.0032883649
 30
0.0
 10
-19.3184467485
 20
-2.8950617707
 30
0.0
 10
-19.1410790589
 20
-2.7901935545
 30
0.0
 10
-18.9619440322
 20
-2.7777446251
 30
0.0
 10
-18.9096046502
 20
-2.7771147649
 30
0.0
 11
-19.3865586922
 21
-3.0032883649
 31
0.0
 11
-19.0658516148
 21
-2.7927721813
 31
0.0
 11
-18.9096046502
 21
-2.7771147649
 31
0.0
  0
SPLINE
  5
35A
100
AcDbEntity
  8
0
100
AcDbSpline
 62
7
  6
CONTINUOUS
 70
0
 71
3
 72
8
 73
4
 74
2
 42
0.0000001
 43
0.0000001
 44
0.0000000001
 12
0.457123649
 22
-0.0069927601
 32
0.0
 13
0.3062959697
 23
-0.339401986
 33
0.0
 40
0.0
 40
0.0
 40
0.0
 40
0.0
 40
1.0
 40
1.0
 40
1.0
 40
1.0
 10
-18.9096046502
 20
-2.7771147649
 30
0.0
 10
-18.7572301006
 20
-2.7794456849
 30
0.0
 10
-18.5902455808
 20
-2.8411369559
 30
0.0
 10
-18.4881469242
 20
-2.9542709512
 30
0.0
 11
-18.9096046502
 21
-2.7771147649
 31
0.0
 11
-18.4881469242
 21
-2.9542709512
 31
0.0
  0
SPLINE
  5
35B
100
AcDbEntity
  8
0
100
AcDbSpline
 62
7
  6
CONTINUOUS
 70
0
 71
3
 72
74
 73
70
 74
68
 42
0.0000001
 43
0.0000001
 44
0.0000000001
 12
0.8997472671
 22
-0.9351009918
 32
0.0
 13
-1.2405076706
 23
-0.3809194816
 33
0.0
 40
0.0
 40
0.0
 40
0.0
 40
0.0
 40
0.0456903019
 40
0.0905248892
 40
0.1349494977
 40
0.157158282
 40
0.1794364946
 40
0.2018409971
 40
0.2244276972
 40
0.247251164
 40
0.2703642894
 40
0.2820462444
 40
0.2938195297
 40
0.3056901686
 40
0.3176640373
 40
0.3236915658
 40
0.3297470358
 40
0.3358311389
 40
0.3419445572
 40
0.3480879628
 40
0.3511711285
 40
0.3542620387
 40
0.3573607745
 40
0.3589131035
 40
0.3604674191
 40
0.3620237314
 40
0.3635820502
 40
0.3643619653
 40
0.3651423857
 40
0.3655327858
 40
0.3659233128
 40
0.3663139667
 40
0.3665093413
 40
0.3666070405
 40
0.3667047477
 40
0.3668940951
 40
0.3670834081
 40
0.367461931
 40
0.3682185644
 40
0.3689746484
 40
0.3697301835
 40
0.3712396089
 40
0.3727468449
 40
0.3757547636
 40
0.3787539735
 40
0.3817445077
 40
0.3847263996
 40
0.3906643828
 40
0.3965682047
 40
0.402438143
 40
0.4140774318
 40
0.4255846395
 40
0.4369621671
 40
0.4482124988
 40
0.4593382039
 40
0.4812257522
 40
0.5026477992
 40
0.5236281655
 40
0.5441922067
 40
0.5643668483
 40
0.5841806032
 40
0.622839295
 40
0.6604347812
 40
0.6972486953
 40
0.7335808511
 40
0.7697430468
 40
0.8427414886
 40
0.9187692804
 40
1.0
 40
1.0
 40
1.0
 40
1.0
 10
-18.4881469242
 20
-2.9542709512
 30
0.0
 10
-18.4744436828
 20
-2.9685126334
 30
0.0
 10
-18.4485825165
 20
-2.9980101832
 30
0.0
 10
-18.4145518102
 20
-3.0455499683
 30
0.0
 10
-18.3905556103
 20
-3.0874772082
 30
0.0
 10
-18.3740562361
 20
-3.1222326256
 30
0.0
 10
-18.3629843824
 20
-3.1489789772
 30
0.0
 10
-18.3532180102
 20
-3.1764016594
 30
0.0
 10
-18.3447563347
 20
-3.2045009849
 30
0.0
 10
-18.3375994622
 20
-3.2332758357
 30
0.0
 10
-18.3327397722
 20
-3.2577309717
 30
0.0
 10
-18.3294993952
 20
-3.2776135863
 30
0.0
 10
-18.3273857477
 20
-3.2927485918
 30
0.0
 10
-18.3255975937
 20
-3.3080524688
 30
0.0
 10
-18.3243814084
 20
-3.3209176291
 30
0.0
 10
-18.323570196
 20
-3.3312921176
 30
0.0
 10
-18.3230417458
 20
-3.3391328149
 30
0.0
 10
-18.3225946303
 20
-3.3470157715
 30
0.0
 10
-18.3222288477
 20
-3.3549409949
 30
0.0
 10
-18.3219921002
 20
-3.3615723374
 30
0.0
 10
-18.3218432211
 20
-3.3668983033
 30
0.0
 10
-18.3217517547
 20
-3.3709083087
 30
0.0
 10
-18.3216925136
 20
-3.3742566547
 30
0.0
 10
-18.3216552675
 20
-3.3769405865
 30
0.0
 10
-18.3216323979
 20
-3.3789574592
 30
0.0
 10
-18.3216146112
 20
-3.3809769739
 30
0.0
 10
-18.3216040281
 20
-3.3826615603
 30
0.0
 10
-18.3215981006
 20
-3.3840105469
 30
0.0
 10
-18.3215954541
 20
-3.3848543496
 30
0.0
 10
-18.3215939719
 20
-3.3855297216
 30
0.0
 10
-18.3215931778
 20
-3.3860364979
 30
0.0
 10
-18.3215927806
 20
-3.3864589148
 30
0.0
 10
-18.3215926419
 20
-3.3867546668
 30
0.0
 10
-18.3215926018
 20
-3.3869237023
 30
0.0
 10
-18.32159259
 20
-3.3870901307
 30
0.0
 10
-18.3215926124
 20
-3.3872961874
 30
0.0
 10
-18.3215927119
 20
-3.3876237132
 30
0.0
 10
-18.3215930621
 20
-3.3881966231
 30
0.0
 10
-18.3215940614
 20
-3.389014694
 30
0.0
 10
-18.3215960612
 20
-3.3899958431
 30
0.0
 10
-18.3215997928
 20
-3.3913026154
 30
0.0
 10
-18.3216064551
 20
-3.392934297
 30
0.0
 10
-18.3216213744
 20
-3.3955402364
 30
0.0
 10
-18.3216480062
 20
-3.3987905335
 30
0.0
 10
-18.3216927876
 20
-3.4026822952
 30
0.0
 10
-18.3217503689
 20
-3.4065626299
 30
0.0
 10
-18.3218440754
 20
-3.4117137302
 30
0.0
 10
-18.3219930701
 20
-3.4181241626
 30
0.0
 10
-18.3222233233
 20
-3.425782123
 30
0.0
 10
-18.3225975231
 20
-3.4359027783
 30
0.0
 10
-18.3231921841
 20
-3.4484404313
 30
0.0
 10
-18.3241126519
 20
-3.4633461962
 30
0.0
 10
-18.3252379422
 20
-3.4780691878
 30
0.0
 10
-18.3265680624
 20
-3.4926094441
 30
0.0
 10
-18.3286034833
 20
-3.5116481219
 30
0.0
 10
-18.3316519887
 20
-3.5350007446
 30
0.0
 10
-18.3361503585
 20
-3.5624487612
 30
0.0
 10
-18.3414688655
 20
-3.589166744
 30
0.0
 10
-18.3476075923
 20
-3.6151543295
 30
0.0
 10
-18.3545670191
 20
-3.6404121172
 30
0.0
 10
-18.364854641
 20
-3.6728457005
 30
0.0
 10
-18.3797514619
 20
-3.7116923578
 30
0.0
 10
-18.4010831626
 20
-3.7557709453
 30
0.0
 10
-18.4257263582
 20
-3.7969239811
 30
0.0
 10
-18.4536863115
 20
-3.8351411322
 30
0.0
 10
-18.4954783292
 20
-3.8823003275
 30
0.0
 10
-18.5569385411
 20
-3.9344592642
 30
0.0
 10
-18.6435832592
 20
-3.9844961589
 30
0.0
 10
-18.7074329648
 20
-4.0087922673
 30
0.0
 10
-18.7410220751
 20
-4.0191063885
 30
0.0
 11
-18.4881469242
 21
-2.9542709512
 31
0.0
 11
-18.4491107534
 21
-2.9988984808
 31
0.0
 11
-18.4152794054
 21
-3.0462316998
 31
0.0
 11
-18.3866528801
 21
-3.0962706082
 31
0.0
 11
-18.374291426
 21
-3.1223046959
 31
0.0
 11
-18.3632311776
 21
-3.149015206
 31
0.0
 11
-18.3534721349
 21
-3.1764021384
 31
0.0
 11
-18.3450142979
 21
-3.2044654932
 31
0.0
 11
-18.3378576666
 21
-3.2332052703
 31
0.0
 11
-18.332002241
 21
-3.2626214697
 31
0.0
 11
-18.3295624803
 21
-3.2775832278
 31
0.0
 11
-18.327448021
 21
-3.2927140915
 31
0.0
 11
-18.3256588632
 21
-3.3080140608
 31
0.0
 11
-18.3241950068
 21
-3.3234831356
 31
0.0
 11
-18.3235850666
 21
-3.3312810876
 31
0.0
 11
-18.3230564518
 21
-3.3391213161
 31
0.0
 11
-18.3226091624
 21
-3.3470038209
 31
0.0
 11
-18.3222431983
 21
-3.3549286021
 31
0.0
 11
-18.3219585595
 21
-3.3628956597
 31
0.0
 11
-18.3218467372
 21
-3.3668950422
 31
0.0
 11
-18.3217552461
 21
-3.3709049937
 31
0.0
 11
-18.3216840864
 21
-3.3749255144
 31
0.0
 11
-18.3216561309
 21
-3.3769397381
 31
0.0
 11
-18.3216332581
 21
-3.3789566041
 31
0.0
 11
-18.3216154682
 21
-3.3809761124
 31
0.0
 11
-18.3216027611
 21
-3.382998263
 31
0.0
 11
-18.3215983136
 21
-3.3840103291
 31
0.0
 11
-18.3215951368
 21
-3.3850230558
 31
0.0
 11
-18.321594025
 21
-3.3855296669
 31
0.0
 11
-18.3215932308
 21
-3.3860364431
 31
0.0
 11
-18.3215927543
 21
-3.3865433844
 31
0.0
 11
-18.3215926351
 21
-3.386796917
 31
0.0
 11
-18.3215926053
 21
-3.3869236988
 31
0.0
 11
-18.3215925954
 21
-3.3870504909
 31
0.0
 11
-18.3215926204
 21
-3.3872962022
 31
0.0
 11
-18.3215926954
 21
-3.3875418689
 31
0.0
 11
-18.3215929954
 21
-3.3880330683
 31
0.0
 11
-18.3215941954
 21
-3.3890149314
 31
0.0
 11
-18.3215961954
 21
-3.3899960802
 31
0.0
 11
-18.3215989954
 21
-3.3909765149
 31
0.0
 11
-18.3216069954
 21
-3.3929352414
 31
0.0
 11
-18.3216181953
 21
-3.3948911109
 31
0.0
 11
-18.3216501952
 21
-3.398794279
 31
0.0
 11
-18.3216949951
 21
-3.4026860193
 31
0.0
 11
-18.3217525949
 21
-3.4065663316
 31
0.0
 11
-18.3218229946
 21
-3.4104352161
 31
0.0
 11
-18.322002194
 21
-3.4181387014
 31
0.0
 11
-18.3222325932
 21
-3.425796475
 31
0.0
 11
-18.3225141922
 21
-3.4334085372
 31
0.0
 11
-18.3232309897
 21
-3.4484955267
 31
0.0
 11
-18.3241525865
 21
-3.46339967
 31
0.0
 11
-18.3252789826
 21
-3.478120967
 31
0.0
 11
-18.3266101779
 21
-3.4926594177
 31
0.0
 11
-18.3281461726
 21
-3.5070150221
 31
0.0
 11
-18.3318325597
 21
-3.5351776922
 31
0.0
 11
-18.336338144
 21
-3.5626089772
 31
0.0
 11
-18.3416629255
 21
-3.5893088771
 31
0.0
 11
-18.3478069041
 21
-3.615277392
 31
0.0
 11
-18.3547700798
 21
-3.6405145217
 31
0.0
 11
-18.3625524527
 21
-3.6650202664
 31
0.0
 11
-18.3805747899
 21
-3.7118376004
 31
0.0
 11
-18.4018739157
 21
-3.7557293942
 31
0.0
 11
-18.4264498301
 21
-3.7966956475
 31
0.0
 11
-18.4543025331
 21
-3.8347363606
 31
0.0
 11
-18.4854320246
 21
-3.8698515333
 31
0.0
 11
-18.5575213735
 21
-3.9313052577
 31
0.0
 11
-18.6427178767
 21
-3.9810568208
 31
0.0
 11
-18.7410220751
 21
-4.0191063885
 31
0.0
  0
SPLINE
  5
35C
100
AcDbEntity
  8
0
100
AcDbSpline
 62
7
  6
CONTINUOUS
 70
0
 71
3
 72
67
 73
63
 74
61
 42
0.0000001
 43
0.0000001
 44
0.0000000001
 12
1.4545601092
 22
0.7911234355
 32
0.0
 13
-0.9211204057
 23
1.3735294
 33
0.0
 40
0.0
 40
0.0
 40
0.0
 40
0.0
 40
0.0462669833
 40
0.1017838501
 40
0.1555489017
 40
0.2080482026
 40
0.259803492
 40
0.3113591017
 40
0.3632656462
 40
0.4160627615
 40
0.4702634899
 40
0.4980471267
 40
0.5263557686
 40
0.5407241462
 40
0.5552430512
 40
0.5699185186
 40
0.5847563923
 40
0.592238092
 40
0.5997624974
 40
0.6073302859
 40
0.6111306677
 40
0.614942144
 40
0.6187647962
 40
0.6225987051
 40
0.6264439507
 40
0.6283708508
 40
0.6303006148
 40
0.6312665739
 40
0.6322332527
 40
0.6327168623
 40
0.6332006523
 40
0.6334233715
 40
0.633569127
 40
0.6338605941
 40
0.6344433528
 40
0.6350258777
 40
0.6356081692
 40
0.6361902274
 40
0.6373536452
 40
0.6385161334
 40
0.6408383291
 40
0.6454716571
 40
0.6500903573
 40
0.6546945721
 40
0.6592844453
 40
0.6684217117
 40
0.6775033696
 40
0.6865306179
 40
0.6955046771
 40
0.7044267896
 40
0.7132982197
 40
0.7308938688
 40
0.7483024915
 40
0.7655349797
 40
0.7826025623
 40
0.8162865506
 40
0.8494534966
 40
0.8822041476
 40
0.9146431301
 40
0.9468781054
 40
0.979018785
 40
1.0
 40
1.0
 40
1.0
 40
1.0
 10
-18.5387860163
 20
-4.2794287706
 30
0.0
 10
-18.5163533136
 20
-4.2672278057
 30
0.0
 10
-18.4678679386
 20
-4.238819697
 30
0.0
 10
-18.3973928366
 20
-4.1898301708
 30
0.0
 10
-18.329078822
 20
-4.132297555
 30
0.0
 10
-18.2681673378
 20
-4.0698387744
 30
0.0
 10
-18.2146766032
 20
-4.0024555359
 30
0.0
 10
-18.1686319947
 20
-3.9301662181
 30
0.0
 10
-18.1300473553
 20
-3.8529946875
 30
0.0
 10
-18.0989266858
 20
-3.7709733594
 30
0.0
 10
-18.0793660628
 20
-3.6991830793
 30
0.0
 10
-18.0673750348
 20
-3.6395697707
 30
0.0
 10
-18.0613861295
 20
-3.6011832468
 30
0.0
 10
-18.0575064163
 20
-3.5698954368
 30
0.0
 10
-18.0550429442
 20
-3.5460090314
 30
0.0
 10
-18.0530404689
 20
-3.5218201478
 30
0.0
 10
-18.051759458
 20
-3.5014677505
 30
0.0
 10
-18.0509632337
 20
-3.4850371578
 30
0.0
 10
-18.0504795948
 20
-3.4726038871
 30
0.0
 10
-18.0501730139
 20
-3.4621948583
 30
0.0
 10
-18.049985105
 20
-3.4538300904
 30
0.0
 10
-18.0498727693
 20
-3.4475284924
 30
0.0
 10
-18.0497892343
 20
-3.4412079668
 30
0.0
 10
-18.0497344991
 20
-3.4348685127
 30
0.0
 10
-18.0497129045
 20
-3.4295737857
 30
0.0
 10
-18.0497099931
 20
-3.4253285763
 30
0.0
 10
-18.0497141795
 20
-3.4226704004
 30
0.0
 10
-18.0497211042
 20
-3.420541498
 30
0.0
 10
-18.0497269793
 20
-3.4192097019
 30
0.0
 10
-18.0497324719
 20
-3.4181436729
 30
0.0
 10
-18.04973646
 20
-3.4174877056
 30
0.0
 10
-18.0497390278
 20
-3.417017952
 30
0.0
 10
-18.049743195
 20
-3.4166542225
 30
0.0
 10
-18.0497490953
 20
-3.4160920514
 30
0.0
 10
-18.0497582896
 20
-3.4152891588
 30
0.0
 10
-18.0497698227
 20
-3.4143259839
 30
0.0
 10
-18.0497820488
 20
-3.4133632034
 30
0.0
 10
-18.0497992018
 20
-3.4120802783
 30
0.0
 10
-18.0498222771
 20
-3.4104776061
 30
0.0
 10
-18.0498626635
 20
-3.4079159414
 30
0.0
 10
-18.0499423949
 20
-3.4034420884
 30
0.0
 10
-18.0500823612
 20
-3.3970640044
 30
0.0
 10
-18.0502921842
 20
-3.3894294413
 30
0.0
 10
-18.0505437369
 20
-3.3818201
 30
0.0
 10
-18.050934176
 20
-3.3717235635
 30
0.0
 10
-18.0515260868
 20
-3.3591652538
 30
0.0
 10
-18.0524044111
 20
-3.3441728482
 30
0.0
 10
-18.0534496689
 20
-3.3292813161
 30
0.0
 10
-18.0546618599
 20
-3.3144906782
 30
0.0
 10
-18.0560409897
 20
-3.2998009007
 30
0.0
 10
-18.0580966875
 20
-3.2804030159
 30
0.0
 10
-18.0610807733
 20
-3.2564013688
 30
0.0
 10
-18.0653396626
 20
-3.2279228482
 30
0.0
 10
-18.0702667311
 20
-3.1998473497
 30
0.0
 10
-18.0776937005
 20
-3.1631152649
 30
0.0
 10
-18.0886377644
 20
-3.1181490713
 30
0.0
 10
-18.1045081376
 20
-3.0655652322
 30
0.0
 10
-18.1230591986
 20
-3.0145939522
 30
0.0
 10
-18.1442911432
 20
-2.9652379142
 30
0.0
 10
-18.1682042303
 20
-2.9174984532
 30
0.0
 10
-18.1917185157
 20
-2.8767178229
 30
0.0
 10
-18.2075652528
 20
-2.8520836808
 30
0.0
 10
-18.2140073279
 20
-2.8424775755
 30
0.0
 11
-18.5387860163
 21
-4.2794287706
 31
0.0
 11
-18.4727638402
 21
-4.2406475234
 31
0.0
 11
-18.3974681358
 21
-4.1881313057
 31
0.0
 11
-18.3295452388
 21
-4.1307691198
 31
0.0
 11
-18.2689951492
 21
-4.0685609658
 31
0.0
 11
-18.215817867
 21
-4.0015068437
 31
0.0
 11
-18.1700133922
 21
-3.9296067535
 31
0.0
 11
-18.1315817247
 21
-3.8528606951
 31
0.0
 11
-18.1005228647
 21
-3.7712686686
 31
0.0
 11
-18.0768368121
 21
-3.6848306739
 31
0.0
 11
-18.0677585885
 21
-3.6397944385
 31
0.0
 11
-18.0605235668
 21
-3.5935467111
 31
0.0
 11
-18.0575972567
 21
-3.5699685379
 31
0.0
 11
-18.055131747
 21
-3.5460874917
 31
0.0
 11
-18.0531270377
 21
-3.5219035725
 31
0.0
 11
-18.051583129
 21
-3.4974167802
 31
0.0
 11
-18.0509839747
 21
-3.4850598067
 31
0.0
 11
-18.0505000207
 21
-3.472627115
 31
0.0
 11
-18.0501312667
 21
-3.460118705
 31
0.0
 11
-18.0499900897
 21
-3.4538361056
 31
0.0
 11
-18.0498777128
 21
-3.4475345767
 31
0.0
 11
-18.0497941359
 21
-3.4412141182
 31
0.0
 11
-18.0497393591
 21
-3.4348747302
 31
0.0
 11
-18.0497133822
 21
-3.4285164126
 31
0.0
 11
-18.0497111938
 21
-3.4253301552
 31
0.0
 11
-18.0497162054
 21
-3.4221391654
 31
0.0
 11
-18.0497214112
 21
-3.4205418959
 31
0.0
 11
-18.049728417
 21
-3.4189434433
 31
0.0
 11
-18.0497325949
 21
-3.4181437733
 31
0.0
 11
-18.0497372228
 21
-3.4173438075
 31
0.0
 11
-18.0497397041
 21
-3.4169755349
 31
0.0
 11
-18.0497422491
 21
-3.4167345318
 31
0.0
 11
-18.0497474614
 21
-3.4162525997
 31
0.0
 11
-18.049758375
 21
-3.415289031
 31
0.0
 11
-18.0497699406
 21
-3.4143258566
 31
0.0
 11
-18.0497821582
 21
-3.4133630763
 31
0.0
 11
-18.0497950278
 21
-3.4124006901
 31
0.0
 11
-18.049822723
 21
-3.4104771004
 31
0.0
 11
-18.0498530263
 21
-3.4085550873
 31
0.0
 11
-18.049921457
 21
-3.4047157912
 31
0.0
 11
-18.0500896149
 21
-3.3970561193
 31
0.0
 11
-18.0502995015
 21
-3.3894216743
 31
0.0
 11
-18.0505511167
 21
-3.3818124562
 31
0.0
 11
-18.0508444606
 21
-3.3742284651
 31
0.0
 11
-18.0515563343
 21
-3.3591361637
 31
0.0
 11
-18.0524351226
 21
-3.3441447701
 31
0.0
 11
-18.0534808256
 21
-3.3292542843
 31
0.0
 11
-18.0546934432
 21
-3.3144647063
 31
0.0
 11
-18.0560729754
 21
-3.299776036
 31
0.0
 11
-18.0576194223
 21
-3.2851882736
 31
0.0
 11
-18.0612130599
 21
-3.256315472
 31
0.0
 11
-18.065474356
 21
-3.2278463017
 31
0.0
 11
-18.0704033107
 21
-3.1997807624
 31
0.0
 11
-18.0759999239
 21
-3.1721188543
 31
0.0
 11
-18.0891961258
 21
-3.1180059316
 31
0.0
 11
-18.1050629617
 21
-3.0655075335
 31
0.0
 11
-18.1236004318
 21
-3.01462366
 31
0.0
 11
-18.1448085359
 21
-2.9653543111
 31
0.0
 11
-18.1686872741
 21
-2.9176994869
 31
0.0
 11
-18.1952366464
 21
-2.8716591872
 31
0.0
 11
-18.2140073279
 21
-2.8424775755
 31
0.0
  0
SPLINE
  5
35D
100
AcDbEntity
  8
0
100
AcDbSpline
 62
7
  6
CONTINUOUS
 70
0
 71
3
 72
58
 73
54
 74
52
 42
0.0000001
 43
0.0000001
 44
0.0000000001
 12
-0.5268010788
 22
0.7855398331
 32
0.0
 13
-0.9369522628
 23
-0.1284235712
 33
0.0
 40
0.0
 40
0.0
 40
0.0
 40
0.0
 40
0.0195411508
 40
0.0477289154
 40
0.0759961431
 40
0.0901673641
 40
0.1043673461
 40
0.1114750496
 40
0.1185610088
 40
0.1326863261
 40
0.1607663298
 40
0.1886520942
 40
0.2439866202
 40
0.2990165245
 40
0.3540640982
 40
0.4094513236
 40
0.4654943294
 40
0.5224983347
 40
0.5807534559
 40
0.6104399433
 40
0.6405394645
 40
0.6710828366
 40
0.7020995541
 40
0.7336177826
 40
0.7656643651
 40
0.7982648399
 40
0.8147807814
 40
0.823093916
 40
0.8314442739
 40
0.8398322076
 40
0.8440403796
 40
0.8482580755
 40
0.852485338
 40
0.8546025707
 40
0.856722211
 40
0.8587173819
 40
0.8594615407
 40
0.8602054423
 40
0.8616924752
 40
0.8631784833
 40
0.8661474347
 40
0.8691123174
 40
0.8750299534
 40
0.880931561
 40
0.8868173059
 40
0.8926873554
 40
0.8985418781
 40
0.9102049807
 40
0.9218080314
 40
0.9333524267
 40
0.9562705827
 40
0.9789714002
 40
1.0
 40
1.0
 40
1.0
 40
1.0
 10
-18.2140073279
 20
-2.8424775755
 30
0.0
 10
-18.217438761
 20
-2.8373607914
 30
0.0
 10
-18.2259469262
 20
-2.8249487109
 30
0.0
 10
-18.239979154
 20
-2.8055287087
 30
0.0
 10
-18.2535400526
 20
-2.7878671178
 30
0.0
 10
-18.264718012
 20
-2.7739442783
 30
0.0
 10
-18.2718448279
 20
-2.7653244652
 30
0.0
 10
-18.277622245
 20
-2.7584879562
 30
0.0
 10
-18.2832618454
 20
-2.7515674897
 30
0.0
 10
-18.2933254251
 20
-2.7397271364
 30
0.0
 10
-18.3080495641
 20
-2.7232465168
 30
0.0
 10
-18.3324058434
 20
-2.6979830784
 30
0.0
 10
-18.3643937087
 20
-2.6683181906
 30
0.0
 10
-18.4052658718
 20
-2.6358585774
 30
0.0
 10
-18.4485236394
 20
-2.606621979
 30
0.0
 10
-18.494162146
 20
-2.5806132725
 30
0.0
 10
-18.5421765869
 20
-2.5578325583
 30
0.0
 10
-18.5925606463
 20
-2.5382796465
 30
0.0
 10
-18.6362459885
 20
-2.524758428
 30
0.0
 10
-18.672300513
 20
-2.5155349121
 30
0.0
 10
-18.7001063587
 20
-2.5093753726
 30
0.0
 10
-18.7285041284
 20
-2.504018304
 30
0.0
 10
-18.757494235
 20
-2.4994634245
 30
0.0
 10
-18.7870765539
 20
-2.4957106814
 30
0.0
 10
-18.8172509808
 20
-2.492759974
 30
0.0
 10
-18.8427774198
 20
-2.4909771847
 30
0.0
 10
-18.8608591578
 20
-2.4900775312
 30
0.0
 10
-18.8713101526
 20
-2.4896607292
 30
0.0
 10
-18.8792028397
 20
-2.4893975318
 30
0.0
 10
-18.8858035087
 20
-2.4892201317
 30
0.0
 10
-18.8911024795
 20
-2.4891032043
 30
0.0
 10
-18.8950904518
 20
-2.4890278498
 30
0.0
 10
-18.8984195912
 20
-2.4889757853
 30
0.0
 10
-18.9010875249
 20
-2.4889397883
 30
0.0
 10
-18.9030519298
 20
-2.4889179831
 30
0.0
 10
-18.9045835602
 20
-2.4888986958
 30
0.0
 10
-18.9056815941
 20
-2.4889010362
 30
0.0
 10
-18.9066194376
 20
-2.4889018407
 30
0.0
 10
-18.9077911363
 20
-2.4889046091
 30
0.0
 10
-18.909664233
 20
-2.4889111353
 30
0.0
 10
-18.9120031752
 20
-2.4889239878
 30
0.0
 10
-18.9157390225
 20
-2.4889542461
 30
0.0
 10
-18.9203991427
 20
-2.4890103803
 30
0.0
 10
-18.925979515
 20
-2.4891070996
 30
0.0
 10
-18.9315442979
 20
-2.4892331432
 30
0.0
 10
-18.9370934926
 20
-2.4893885081
 30
0.0
 10
-18.9444619703
 20
-2.4896344347
 30
0.0
 10
-18.9536340559
 20
-2.4900148735
 30
0.0
 10
-18.964592649
 20
-2.4905892967
 30
0.0
 10
-18.9790850825
 20
-2.4915093088
 30
0.0
 10
-18.9970487534
 20
-2.4929506502
 30
0.0
 10
-19.0179491021
 20
-2.4951064418
 30
0.0
 10
-19.0316273816
 20
-2.4968276648
 30
0.0
 10
-19.0381949797
 20
-2.4977278541
 30
0.0
 11
-18.2140073279
 21
-2.8424775755
 31
0.0
 11
-18.2244566527
 21
-2.8272334121
 31
0.0
 11
-18.2400681437
 21
-2.8056259713
 31
0.0
 11
-18.2563472931
 21
-2.7844221616
 31
0.0
 11
-18.2647372398
 21
-2.7739716185
 31
0.0
 11
-18.2732941011
 21
-2.7636219831
 31
0.0
 11
-18.2776112573
 21
-2.7584699089
 31
0.0
 11
-18.2818718712
 21
-2.7532975928
 31
0.0
 11
-18.2905042797
 21
-2.7431032362
 31
0.0
 11
-18.3082138196
 21
-2.7233156259
 31
0.0
 11
-18.3265163234
 21
-2.7043294859
 31
0.0
 11
-18.3649002224
 21
-2.6687616171
 31
0.0
 11
-18.4056559768
 21
-2.6363996299
 31
0.0
 11
-18.4487835866
 21
-2.6072435241
 31
0.0
 11
-18.4942830517
 21
-2.5812932999
 31
0.0
 11
-18.5421543721
 21
-2.5585489571
 31
0.0
 11
-18.592397548
 21
-2.5390104959
 31
0.0
 11
-18.6450125791
 21
-2.5226779162
 31
0.0
 11
-18.6722095405
 21
-2.515713832
 31
0.0
 11
-18.6999994657
 21
-2.5095512181
 31
0.0
 11
-18.7283823547
 21
-2.5041900745
 31
0.0
 11
-18.7573582076
 21
-2.4996304014
 31
0.0
 11
-18.7869270243
 21
-2.4958721986
 31
0.0
 11
-18.8170888048
 21
-2.4929154662
 31
0.0
 11
-18.8478435492
 21
-2.4907602042
 31
0.0
 11
-18.8634432829
 21
-2.4899831246
 31
0.0
 11
-18.87129874
 21
-2.4896697227
 31
0.0
 11
-18.8791912574
 21
-2.4894064126
 31
0.0
 11
-18.8871208351
 21
-2.4891931944
 31
0.0
 11
-18.8910995215
 21
-2.4891053698
 31
0.0
 11
-18.895087473
 21
-2.4890300682
 31
0.0
 11
-18.8990846895
 21
-2.4889672895
 31
0.0
 11
-18.9010867722
 21
-2.4889405963
 31
0.0
 11
-18.9030911711
 21
-2.4889170338
 31
0.0
 11
-18.9049779256
 21
-2.4889004746
 31
0.0
 11
-18.9056816742
 21
-2.4889008869
 31
0.0
 11
-18.9063851792
 21
-2.4889017574
 31
0.0
 11
-18.9077914583
 21
-2.4889048728
 31
0.0
 11
-18.909196763
 21
-2.4889098207
 31
0.0
 11
-18.9120044492
 21
-2.4889252144
 31
0.0
 11
-18.9148082378
 21
-2.4889479383
 31
0.0
 11
-18.9204041221
 21
-2.489015377
 31
0.0
 11
-18.9259844158
 21
-2.4891121369
 31
0.0
 11
-18.931549119
 21
-2.4892382179
 31
0.0
 11
-18.9370982316
 21
-2.4893936202
 31
0.0
 11
-18.9426317537
 21
-2.4895783436
 31
0.0
 11
-18.9536520263
 21
-2.490035754
 31
0.0
 11
-18.9646099367
 21
-2.490610449
 31
0.0
 11
-18.9755054849
 21
-2.4913024288
 31
0.0
 11
-18.9971094948
 21
-2.4930382425
 31
0.0
 11
-19.0184640561
 21
-2.495243195
 31
0.0
 11
-19.0381949797
 21
-2.4977278541
 31
0.0
  0
SPLINE
  5
35E
100
AcDbEntity
  8
0
100
AcDbSpline
 62
7
  6
CONTINUOUS
 70
0
 71
3
 72
13
 73
9
 74
7
 42
0.0000001
 43
0.0000001
 44
0.0000000001
 12
-0.2370487632
 22
-0.0324911417
 32
0.0
 13
-0.2171530394
 23
-0.1006990763
 33
0.0
 40
0.0
 40
0.0
 40
0.0
 40
0.0
 40
0.0057976925
 40
0.0939490489
 40
0.2681489376
 40
0.4399073722
 40
0.7777232738
 40
1.0
 40
1.0
 40
1.0
 40
1.0
 10
-19.0381949797
 20
-2.4977278541
 30
0.0
 10
-19.0386530916
 20
-2.4977906454
 30
0.0
 10
-19.0460758042
 20
-2.4988138645
 30
0.0
 10
-19.0672246799
 20
-2.5019990606
 30
0.0
 10
-19.1012692582
 20
-2.5083805875
 30
0.0
 10
-19.1543251243
 20
-2.5210664537
 30
0.0
 10
-19.2100080517
 20
-2.5389320811
 30
0.0
 10
-19.2512239109
 20
-2.5562959994
 30
0.0
 10
-19.2673132665
 20
-2.5637570197
 30
0.0
 11
-19.0381949797
 21
-2.4977278541
 31
0.0
 11
-19.0395691687
 21
-2.4979172864
 31
0.0
 11
-19.0604248327
 21
-2.5010605166
 31
0.0
 11
-19.1013878145
 21
-2.5087543935
 31
0.0
 11
-19.1413530017
 21
-2.5183248257
 31
0.0
 11
-19.218289992
 21
-2.5430953563
 31
0.0
 11
-19.2673132665
 21
-2.5637570197
 31
0.0
  0
SPLINE
  5
35F
100
AcDbEntity
  8
0
100
AcDbSpline
 62
7
  6
CONTINUOUS
 70
0
 71
3
 72
26
 73
22
 74
20
 42
0.0000001
 43
0.0000001
 44
0.0000000001
 12
-0.3981294674
 22
0.5395463268
 32
0.0
 13
-0.6702832875
 23
0.011354621
 33
0.0
 40
0.0
 40
0.0
 40
0.0
 40
0.0
 40
0.066777833
 40
0.149776877
 40
0.1917480243
 40
0.234100961
 40
0.2554377852
 40
0.2768895157
 40
0.2984624361
 40
0.3092963726
 40
0.3201629142
 40
0.3308237683
 40
0.341460124
 40
0.362663427
 40
0.4048221734
 40
0.4467131939
 40
0.4884094519
 40
0.571495573
 40
0.6546965922
 40
0.8236669791
 40
1.0
 40
1.0
 40
1.0
 40
1.0
 10
-19.7733481433
 20
-2.8668555106
 30
0.0
 10
-19.7822102176
 20
-2.8548455991
 30
0.0
 10
-19.8029108422
 20
-2.8285174652
 30
0.0
 10
-19.8316280068
 20
-2.7966605528
 30
0.0
 10
-19.8581284438
 20
-2.7702749788
 30
0.0
 10
-19.8754442624
 20
-2.7542155915
 30
0.0
 10
-19.8897267041
 20
-2.7416451294
 30
0.0
 10
-19.9006849975
 20
-2.7323292694
 30
0.0
 10
-19.9099875761
 20
-2.7246923444
 30
0.0
 10
-19.9175356489
 20
-2.7186478805
 30
0.0
 10
-19.9232251341
 20
-2.7141842125
 30
0.0
 10
-19.9288892568
 20
-2.7097597231
 30
0.0
 10
-19.936444418
 20
-2.7040047616
 30
0.0
 10
-19.9497445802
 20
-2.6941780094
 30
0.0
 10
-19.9690889747
 20
-2.6807871703
 30
0.0
 10
-19.9928428741
 20
-2.6657608745
 30
0.0
 10
-20.0251341506
 20
-2.6471838517
 30
0.0
 10
-20.0668648835
 20
-2.6265829127
 30
0.0
 10
-20.1366886994
 20
-2.5992204307
 30
0.0
 10
-20.2300129368
 20
-2.5758043386
 30
0.0
 10
-20.3072208264
 20
-2.5691474362
 30
0.0
 10
-20.3466185187
 20
-2.568480038
 30
0.0
 11
-19.7733481433
 21
-2.8668555106
 31
0.0
 11
-19.8010129484
 21
-2.8316559646
 31
0.0
 11
-19.8382473744
 21
-2.7903098386
 31
0.0
 11
-19.858182921
 21
-2.7704543117
 31
0.0
 11
-19.8789973566
 21
-2.7511438089
 31
0.0
 11
-19.8897341578
 21
-2.7416929415
 31
0.0
 11
-19.9006906813
 21
-2.7323783301
 31
0.0
 11
-19.911866927
 21
-2.7231999748
 31
0.0
 11
-19.9175374457
 21
-2.7186618931
 31
0.0
 11
-19.923262895
 21
-2.7141578754
 31
0.0
 11
-19.9289024494
 21
-2.709767838
 31
0.0
 11
-19.9345729681
 21
-2.7054449061
 31
0.0
 11
-19.9460068986
 21
-2.6970003586
 31
0.0
 11
-19.969246332
 21
-2.6809165287
 31
0.0
 11
-19.9929811951
 21
-2.6659063858
 31
0.0
 11
-20.0172114879
 21
-2.6519699297
 31
0.0
 11
-20.0671583626
 21
-2.6273180785
 31
0.0
 11
-20.1190869562
 21
-2.606960975
 31
0.0
 11
-20.2288892998
 21
-2.579131011
 31
0.0
 11
-20.3466185187
 21
-2.568480038
 31
0.0
  0
SPLINE
  5
360
100
AcDbEntity
  8
0
100
AcDbSpline
 62
7
  6
CONTINUOUS
 70
0
 71
3
 72
81
 73
77
 74
75
 42
0.0000001
 43
0.0000001
 44
0.0000000001
 12
-2.1555665213
 22
-0.023116994
 32
0.0
 13
1.7659202514
 23
-1.2429176434
 33
0.0
 40
0.0
 40
0.0
 40
0.0
 40
0.0
 40
0.0621203056
 40
0.1197905056
 40
0.1743309077
 40
0.2009326905
 40
0.2273497022
 40
0.2537964396
 40
0.2671012183
 40
0.2804931941
 40
0.2872303519
 40
0.2939989186
 40
0.2973960051
 40
0.3007909087
 40
0.3075607422
 40
0.3210516079
 40
0.3344908561
 40
0.3612728281
 40
0.3880360158
 40
0.4149061766
 40
0.4420075788
 40
0.4694613508
 40
0.4833587649
 40
0.4973875
 40
0.511561213
 40
0.5258931466
 40
0.5403961099
 40
0.5477157964
 40
0.5550828367
 40
0.5624987048
 40
0.5699648453
 40
0.5737172331
 40
0.5774827174
 40
0.5812614707
 40
0.5850536637
 40
0.5869548555
 40
0.5888594703
 40
0.5907675291
 40
0.5917228567
 40
0.592679053
 40
0.5936361207
 40
0.5941149821
 40
0.5945940623
 40
0.5948336845
 40
0.5950733616
 40
0.5951932207
 40
0.5953553152
 40
0.5955384945
 40
0.59572164
 40
0.5964538831
 40
0.5971855855
 40
0.5979167483
 40
0.5986473727
 40
0.6001070106
 40
0.6030198757
 40
0.6059242604
 40
0.6088202424
 40
0.6117079002
 40
0.6145873128
 40
0.620321702
 40
0.6260240758
 40
0.6373352483
 40
0.6485263816
 40
0.659603039
 40
0.6705709581
 40
0.6814360486
 40
0.6922043897
 40
0.7134743406
 40
0.7344341945
 40
0.755138124
 40
0.7959900303
 40
0.8365111031
 40
0.8771799771
 40
0.9184701477
 40
0.9608342828
 40
1.0
 40
1.0
 40
1.0
 40
1.0
 10
-20.3466185187
 20
-2.568480038
 30
0.0
 10
-20.3912533357
 20
-2.5689587162
 30
0.0
 10
-20.4774160184
 20
-2.57483065
 30
0.0
 10
-20.6003930133
 20
-2.6009396409
 30
0.0
 10
-20.6938313127
 20
-2.637346582
 30
0.0
 10
-20.7615383197
 20
-2.6748047521
 30
0.0
 10
-20.8088844556
 20
-2.7068650901
 30
0.0
 10
-20.8457320354
 20
-2.7370234546
 30
0.0
 10
-20.8736055196
 20
-2.763140196
 30
0.0
 10
-20.8903977605
 20
-2.7803334068
 30
0.0
 10
-20.9034506414
 20
-2.7945894908
 30
0.0
 10
-20.9114457193
 20
-2.8037336332
 30
0.0
 10
-20.9177701868
 20
-2.8111470476
 30
0.0
 10
-20.9239107331
 20
-2.8187149066
 30
0.0
 10
-20.9344092593
 20
-2.832084007
 30
0.0
 10
-20.9489083771
 20
-2.8514854355
 30
0.0
 10
-20.9709416056
 20
-2.8831811751
 30
0.0
 10
-20.9963846704
 20
-2.924087687
 30
0.0
 10
-21.0234781912
 20
-2.9751759708
 30
0.0
 10
-21.0471045006
 20
-3.028209761
 30
0.0
 10
-21.0672610114
 20
-3.083183033
 30
0.0
 10
-21.0811118167
 20
-3.1304195769
 30
0.0
 10
-21.0904666559
 20
-3.1691038434
 30
0.0
 10
-21.0966485034
 20
-3.1987222032
 30
0.0
 10
-21.101966534
 20
-3.228824421
 30
0.0
 10
-21.1064209839
 20
-3.2594107026
 30
0.0
 10
-21.1094041049
 20
-3.2852222566
 30
0.0
 10
-21.1113624519
 20
-3.3061058547
 30
0.0
 10
-21.1126200771
 20
-3.3219386653
 30
0.0
 10
-21.1136619634
 20
-3.3378925343
 30
0.0
 10
-21.114349244
 20
-3.3512653443
 30
0.0
 10
-21.1147917401
 20
-3.362023279
 30
0.0
 10
-21.1150702578
 20
-3.3701359077
 30
0.0
 10
-21.1152948494
 20
-3.3782788152
 30
0.0
 10
-21.1154369437
 20
-3.3850837197
 30
0.0
 10
-21.1155237278
 20
-3.3905426832
 30
0.0
 10
-21.115575393
 20
-3.3946481408
 30
0.0
 10
-21.1156071987
 20
-3.3980741115
 30
0.0
 10
-21.1156259118
 20
-3.4008186614
 30
0.0
 10
-21.1156365827
 20
-3.4028798999
 30
0.0
 10
-21.1156426652
 20
-3.404598784
 30
0.0
 10
-21.1156458472
 20
-3.4059748362
 30
0.0
 10
-21.1156471342
 20
-3.406835361
 30
0.0
 10
-21.1156477426
 20
-3.4075240172
 30
0.0
 10
-21.1156479473
 20
-3.4079545505
 30
0.0
 10
-21.115648011
 20
-3.4083293753
 30
0.0
 10
-21.1156479875
 20
-3.4086636028
 30
0.0
 10
-21.1156478468
 20
-3.4090433056
 30
0.0
 10
-21.1156473039
 20
-3.4098326962
 30
0.0
 10
-21.1156455503
 20
-3.4110162348
 30
0.0
 10
-21.1156412062
 20
-3.412593554
 30
0.0
 10
-21.1156348569
 20
-3.4141697031
 30
0.0
 10
-21.1156237214
 20
-3.4162689035
 30
0.0
 10
-21.1155972429
 20
-3.4199357325
 30
0.0
 10
-21.115539393
 20
-3.4251643432
 30
0.0
 10
-21.115437837
 20
-3.4314245572
 30
0.0
 10
-21.1153041955
 20
-3.4376660517
 30
0.0
 10
-21.1151384686
 20
-3.4438888287
 30
0.0
 10
-21.1148750924
 20
-3.4521491892
 30
0.0
 10
-21.1144659851
 20
-3.4624283541
 30
0.0
 10
-21.1136416189
 20
-3.4787536339
 30
0.0
 10
-21.1122927194
 20
-3.4989773037
 30
0.0
 10
-21.1101560153
 20
-3.5230130863
 30
0.0
 10
-21.1075057079
 20
-3.5467496346
 30
0.0
 10
-21.1043417916
 20
-3.5701868153
 30
0.0
 10
-21.1006641932
 20
-3.5933248208
 30
0.0
 10
-21.0950991611
 20
-3.6236496212
 30
0.0
 10
-21.086867084
 20
-3.6608486808
 30
0.0
 10
-21.0748876938
 20
-3.7044760132
 30
0.0
 10
-21.056257515
 20
-3.7607884976
 30
0.0
 10
-21.0277461565
 20
-3.828534636
 30
0.0
 10
-20.9850665977
 20
-3.9053396283
 30
0.0
 10
-20.9340830789
 20
-3.9772888721
 30
0.0
 10
-20.8748139572
 20
-4.0443596819
 30
0.0
 10
-20.8098160485
 20
-4.1042345061
 30
0.0
 10
-20.7631674725
 20
-4.1399028971
 30
0.0
 10
-20.7401129614
 20
-4.156129484
 30
0.0
 11
-20.3466185187
 21
-2.568480038
 31
0.0
 11
-20.4801705477
 21
-2.5782942997
 31
0.0
 11
-20.6016436033
 21
-2.6047430355
 31
0.0
 11
-20.7110376854
 21
-2.6478262454
 31
0.0
 11
-20.7612051114
 21
-2.6756057781
 31
0.0
 11
-20.8083527941
 21
-2.7075439294
 31
0.0
 11
-20.8524807333
 21
-2.7436406992
 31
0.0
 11
-20.8734122992
 21
-2.763248566
 31
0.0
 11
-20.8935889293
 21
-2.7838960875
 31
0.0
 11
-20.9033941433
 21
-2.7946097187
 31
0.0
 11
-20.9130106234
 21
-2.8055832636
 31
0.0
 11
-20.9177480883
 21
-2.8111675037
 31
0.0
 11
-20.9223724505
 21
-2.8168396893
 31
0.0
 11
-20.9313957309
 21
-2.8283094531
 31
0.0
 11
-20.9487952037
 21
-2.8516124286
 31
0.0
 11
-20.9653318928
 21
-2.8754000011
 31
0.0
 11
-20.9958169197
 21
-2.9244289371
 31
0.0
 11
-21.0228508114
 21
-2.9753962611
 31
0.0
 11
-21.046433568
 21
-3.0283019731
 31
0.0
 11
-21.0665651895
 21
-3.0831460731
 31
0.0
 11
-21.0832456759
 21
-3.1399285611
 31
0.0
 11
-21.0902917434
 21
-3.1690467006
 31
0.0
 11
-21.0964750271
 21
-3.1986494371
 31
0.0
 11
-21.1017955271
 21
-3.2287367706
 31
0.0
 11
-21.1062532433
 21
-3.2593087012
 31
0.0
 11
-21.1098481757
 21
-3.2903652287
 31
0.0
 11
-21.111322098
 21
-3.3060752163
 31
0.0
 11
-21.1125803243
 21
-3.3219063532
 31
0.0
 11
-21.1136228547
 21
-3.3378586393
 31
0.0
 11
-21.1144496892
 21
-3.3539320747
 31
0.0
 11
-21.1147822204
 21
-3.3620142233
 31
0.0
 11
-21.1150608277
 21
-3.3701266593
 31
0.0
 11
-21.115285511
 21
-3.3782693826
 31
0.0
 11
-21.1154562703
 21
-3.3864423932
 31
0.0
 11
-21.1155214284
 21
-3.3905402562
 31
0.0
 11
-21.1155731056
 21
-3.3946456911
 31
0.0
 11
-21.1156113017
 21
-3.3987586978
 31
0.0
 11
-21.1156253444
 21
-3.4008180406
 31
0.0
 11
-21.1156360169
 21
-3.4028792763
 31
0.0
 11
-21.1156433191
 21
-3.404942405
 31
0.0
 11
-21.1156457064
 21
-3.4059746792
 31
0.0
 11
-21.1156472511
 21
-3.4070074267
 31
0.0
 11
-21.1156477074
 21
-3.4075239779
 31
0.0
 11
-21.1156479532
 21
-3.4080406474
 31
0.0
 11
-21.1156479971
 21
-3.4082990265
 31
0.0
 11
-21.1156479721
 21
-3.408648452
 31
0.0
 11
-21.1156478259
 21
-3.4090433299
 31
0.0
 11
-21.1156475544
 21
-3.4094381347
 31
0.0
 11
-21.1156452149
 21
-3.4110166227
 31
0.0
 11
-21.1156408701
 21
-3.4125939406
 31
0.0
 11
-21.1156345199
 21
-3.4141700884
 31
0.0
 11
-21.1156261645
 21
-3.4157450662
 31
0.0
 11
-21.1156034378
 21
-3.4188915118
 31
0.0
 11
-21.1155339208
 21
-3.4251703624
 31
0.0
 11
-21.115432319
 21
-3.4314304924
 31
0.0
 11
-21.1152986325
 21
-3.4376719017
 31
0.0
 11
-21.1151328612
 21
-3.4438945905
 31
0.0
 11
-21.1149350051
 21
-3.4500985586
 31
0.0
 11
-21.1144430386
 21
-3.4624503331
 31
0.0
 11
-21.113822733
 21
-3.4747272251
 31
0.0
 11
-21.1121971046
 21
-3.4990563618
 31
0.0
 11
-21.1100581199
 21
-3.5230859687
 31
0.0
 11
-21.1074057788
 21
-3.5468160459
 31
0.0
 11
-21.1042400814
 21
-3.5702465932
 31
0.0
 11
-21.1005610276
 21
-3.5933776107
 31
0.0
 11
-21.0963686175
 21
-3.6162090985
 31
0.0
 11
-21.0864437283
 21
-3.6609734847
 31
0.0
 11
-21.0744654138
 21
-3.7045397517
 31
0.0
 11
-21.0604336738
 21
-3.7469078995
 31
0.0
 11
-21.0262099179
 21
-3.8280498378
 31
0.0
 11
-20.9837724607
 21
-3.9043992995
 31
0.0
 11
-20.9331213019
 21
-3.9759562846
 31
0.0
 11
-20.8742564418
 21
-4.0427207931
 31
0.0
 11
-20.8071778803
 21
-4.104692825
 31
0.0
 11
-20.7401129614
 21
-4.156129484
 31
0.0
  0
SPLINE
  5
361
100
AcDbEntity
  8
0
100
AcDbSpline
 62
7
  6
CONTINUOUS
 70
0
 71
3
 72
34
 73
30
 74
28
 42
0.0000001
 43
0.0000001
 44
0.0000000001
 12
-0.58973006
 22
1.0270320856
 32
0.0
 13
0.8220623
 23
0.8525197901
 33
0.0
 40
0.0
 40
0.0
 40
0.0
 40
0.0
 40
0.133748375
 40
0.199501579
 40
0.2648410462
 40
0.3300401741
 40
0.3626774145
 40
0.3953826765
 40
0.4281900499
 40
0.4611333075
 40
0.4776668513
 40
0.4942468332
 40
0.5108773421
 40
0.5192128749
 40
0.5233859233
 40
0.5275625713
 40
0.5317091598
 40
0.535843852
 40
0.5440778855
 40
0.5604070231
 40
0.5765561766
 40
0.5925315381
 40
0.6239849986
 40
0.654822611
 40
0.7148657006
 40
0.7731675938
 40
0.8302663747
 40
0.8867345312
 40
1.0
 40
1.0
 40
1.0
 40
1.0
 10
-19.5275902838
 20
-6.3937976673
 30
0.0
 10
-19.5538820962
 20
-6.3480097098
 30
0.0
 10
-19.5891119066
 20
-6.2772744293
 30
0.0
 10
-19.6265685334
 20
-6.1796079628
 30
0.0
 10
-19.6496183185
 20
-6.1055662006
 30
0.0
 10
-19.6647367066
 20
-6.0428987703
 30
0.0
 10
-19.674369176
 20
-5.9922657241
 30
0.0
 10
-19.6803758099
 20
-5.9539805269
 30
0.0
 10
-19.6851609634
 20
-5.9154024959
 30
0.0
 10
-19.6881276625
 20
-5.8830490479
 30
0.0
 10
-19.6898913366
 20
-5.8570308042
 30
0.0
 10
-19.6909128575
 20
-5.8374191111
 30
0.0
 10
-19.6915026348
 20
-5.8210281642
 30
0.0
 10
-19.6917955701
 20
-5.8095283568
 30
0.0
 10
-19.6919040965
 20
-5.8029427312
 30
0.0
 10
-19.692025183
 20
-5.798010077
 30
0.0
 10
-19.6919033463
 20
-5.7930925948
 30
0.0
 10
-19.6917874331
 20
-5.786574184
 30
0.0
 10
-19.6914715155
 20
-5.7752491775
 30
0.0
 10
-19.6908140194
 20
-5.7591898839
 30
0.0
 10
-19.6896538069
 20
-5.7400957562
 30
0.0
 10
-19.6876385314
 20
-5.715077044
 30
0.0
 10
-19.6842275214
 20
-5.684358567
 30
0.0
 10
-19.6768797412
 20
-5.6366160986
 30
0.0
 10
-19.6641322247
 20
-5.5790300276
 30
0.0
 10
-19.6428658801
 20
-5.5130078575
 30
0.0
 10
-19.6157429435
 20
-5.4506816293
 30
0.0
 10
-19.5718027106
 20
-5.3725287746
 30
0.0
 10
-19.5298973098
 20
-5.3194622138
 30
0.0
 10
-19.4988602192
 20
-5.287275196
 30
0.0
 11
-19.5275902838
 21
-6.3937976673
 31
0.0
 11
-19.5979665685
 21
-6.2518915491
 31
0.0
 11
-19.6258353723
 21
-6.1791774085
 31
0.0
 11
-19.6488245278
 21
-6.1052893686
 31
0.0
 11
-19.6669340353
 21
-6.0302274295
 31
0.0
 11
-19.6741589209
 21
-5.9922562477
 31
0.0
 11
-19.6801638945
 21
-5.9539915912
 31
0.0
 11
-19.6849489561
 21
-5.9154334598
 31
0.0
 11
-19.6885141056
 21
-5.8765818537
 31
0.0
 11
-19.6898392133
 21
-5.8570459975
 31
0.0
 11
-19.6908593431
 21
-5.8374367727
 31
0.0
 11
-19.6915744948
 21
-5.8177541792
 31
0.0
 11
-19.6918177039
 21
-5.8078853692
 31
0.0
 11
-19.6919107168
 21
-5.8029440858
 31
0.0
 11
-19.6919846685
 21
-5.797998217
 31
0.0
 11
-19.6919089632
 21
-5.7930879783
 31
0.0
 11
-19.6918106898
 21
-5.7881922313
 31
0.0
 11
-19.6915464383
 21
-5.7784442119
 31
0.0
 11
-19.6907471173
 21
-5.759122072
 31
0.0
 11
-19.6895867053
 21
-5.7400317974
 31
0.0
 11
-19.6880652025
 21
-5.7211733879
 31
0.0
 11
-19.6839389241
 21
-5.6841521646
 31
0.0
 11
-19.6783682822
 21
-5.6480584021
 31
0.0
 11
-19.6628939075
 21
-5.5786532596
 31
0.0
 11
-19.6416420785
 21
-5.5129579603
 31
0.0
 11
-19.6146127952
 21
-5.4509725043
 31
0.0
 11
-19.5818060575
 21
-5.3926968916
 31
0.0
 11
-19.4988602192
 21
-5.287275196
 31
0.0
  0
SPLINE
  5
362
100
AcDbEntity
  8
0
100
AcDbSpline
 62
7
  6
CONTINUOUS
 70
0
 71
3
 72
8
 73
4
 74
2
 42
0.0000001
 43
0.0000001
 44
0.0000000001
 12
0.3913573684
 22
0.3851242012
 32
0.0
 13
0.5490318814
 23
0.0067255769
 33
0.0
 40
0.0
 40
0.0
 40
0.0
 40
0.0
 40
1.0
 40
1.0
 40
1.0
 40
1.0
 10
-19.4988602192
 20
-5.287275196
 30
0.0
 10
-19.368407763
 20
-5.1589004622
 30
0.0
 10
-19.1682028116
 20
-5.0955418239
 30
0.0
 10
-18.9851921845
 20
-5.0932999649
 30
0.0
 11
-19.4988602192
 21
-5.287275196
 31
0.0
 11
-18.9851921845
 21
-5.0932999649
 31
0.0
  0
SPLINE
  5
363
100
AcDbEntity
  8
0
100
AcDbSpline
 62
7
  6
CONTINUOUS
 70
0
 71
3
 72
34
 73
30
 74
28
 42
0.0000001
 43
0.0000001
 44
0.0000000001
 12
1.0326627101
 22
-0.0146459835
 32
0.0
 13
0.0151472125
 23
-1.0326554796
 33
0.0
 40
0.0
 40
0.0
 40
0.0
 40
0.0
 40
0.1310441229
 40
0.1935637582
 40
0.2547716573
 40
0.315263831
 40
0.3756574841
 40
0.4060211431
 40
0.4365917492
 40
0.4519792744
 40
0.4674464455
 40
0.4830022984
 40
0.4908163995
 40
0.4947329568
 40
0.4986560218
 40
0.5026681227
 40
0.5066721376
 40
0.5146564456
 40
0.5305340744
 40
0.5462986067
 40
0.5619596225
 40
0.5930078581
 40
0.6237614216
 40
0.6543028562
 40
0.6847164325
 40
0.7454802949
 40
0.8067576143
 40
0.8692149114
 40
1.0
 40
1.0
 40
1.0
 40
1.0
 10
-18.9851921845
 20
-5.0932999649
 30
0.0
 10
-18.9400840581
 20
-5.0939397216
 30
0.0
 10
-18.8732825826
 20
-5.1000360934
 30
0.0
 10
-18.7878234418
 20
-5.1202228098
 30
0.0
 10
-18.727704762
 20
-5.140755146
 30
0.0
 10
-18.6706232351
 20
-5.1669159275
 30
0.0
 10
-18.6256602145
 20
-5.1933675001
 30
0.0
 10
-18.5913537812
 20
-5.2172164682
 30
0.0
 10
-18.5705454528
 20
-5.2332785747
 30
0.0
 10
-18.5542908638
 20
-5.2468067481
 30
0.0
 10
-18.5422621964
 20
-5.2573247582
 30
0.0
 10
-18.5324077713
 20
-5.2663626282
 30
0.0
 10
-18.5256049744
 20
-5.27284052
 30
0.0
 10
-18.5217256861
 20
-5.2765810469
 30
0.0
 10
-18.518832974
 20
-5.2794588292
 30
0.0
 10
-18.5158283932
 20
-5.2822639358
 30
0.0
 10
-18.5118623917
 20
-5.2860864874
 30
0.0
 10
-18.5049974497
 20
-5.2927873242
 30
0.0
 10
-18.4954173453
 20
-5.3025010997
 30
0.0
 10
-18.48426469
 20
-5.3143692489
 30
0.0
 10
-18.4699304766
 20
-5.3304053811
 30
0.0
 10
-18.4529103636
 20
-5.3509507445
 30
0.0
 10
-18.4339071578
 20
-5.3764524595
 30
0.0
 10
-18.4163829336
 20
-5.402731884
 30
0.0
 10
-18.3950004802
 20
-5.4387868755
 30
0.0
 10
-18.3718682399
 20
-5.486016552
 30
0.0
 10
-18.3500928452
 20
-5.545808807
 30
0.0
 10
-18.3287006304
 20
-5.6308997811
 30
0.0
 10
-18.3222529386
 20
-5.6976142083
 30
0.0
 10
-18.3215925954
 20
-5.7426328544
 30
0.0
 11
-18.9851921845
 21
-5.0932999649
 31
0.0
 11
-18.8504925798
 21
-5.1064296139
 31
0.0
 11
-18.7876706671
 21
-5.1213446504
 31
0.0
 11
-18.7278673475
 21
-5.141826495
 31
0.0
 11
-18.671082621
 21
-5.1678751477
 31
0.0
 11
-18.6173164876
 21
-5.1994906084
 31
0.0
 11
-18.5915653933
 21
-5.2173858918
 31
0.0
 11
-18.5665689472
 21
-5.2366728771
 31
0.0
 11
-18.5543537173
 21
-5.2468382581
 31
0.0
 11
-18.5423271495
 21
-5.2573515645
 31
0.0
 11
-18.5304892437
 21
-5.2682127965
 31
0.0
 11
-18.5246410391
 21
-5.2737738845
 31
0.0
 11
-18.5217346239
 21
-5.2765870466
 31
0.0
 11
-18.51884
 21
-5.2794219539
 31
0.0
 11
-18.5158339662
 21
-5.2822737745
 31
0.0
 11
-18.5128510039
 21
-5.285137674
 31
0.0
 11
-18.5069542937
 21
-5.2909017099
 31
0.0
 11
-18.4954377309
 21
-5.3025747294
 31
0.0
 11
-18.4842903117
 21
-5.3144410124
 31
0.0
 11
-18.473512036
 21
-5.326500559
 31
0.0
 11
-18.4530629153
 21
-5.3511994426
 31
0.0
 11
-18.4340903687
 21
-5.3766713804
 31
0.0
 11
-18.4165943963
 21
-5.4029163723
 31
0.0
 11
-18.4005749981
 21
-5.4299344183
 31
0.0
 11
-18.3729659242
 21
-5.4862896727
 31
0.0
 11
-18.351263147
 21
-5.5457371434
 31
0.0
 11
-18.3354666664
 21
-5.6082768306
 31
0.0
 11
-18.3215925954
 21
-5.7426328544
 31
0.0
  0
SPLINE
  5
364
100
AcDbEntity
  8
0
100
AcDbSpline
 62
7
  6
CONTINUOUS
 70
0
 71
3
 72
9
 73
5
 74
3
 42
0.0000001
 43
0.0000001
 44
0.0000000001
 12
-0.0149374991
 22
-0.7028924484
 32
0.0
 13
-0.637266865
 23
-0.2969374578
 33
0.0
 40
0.0
 40
0.0
 40
0.0
 40
0.0
 40
0.7263317952
 40
1.0
 40
1.0
 40
1.0
 40
1.0
 10
-18.3215925954
 20
-5.7426328544
 30
0.0
 10
-18.3252091223
 20
-5.9128105657
 30
0.0
 10
-18.4394204415
 20
-6.1619439462
 30
0.0
 10
-18.6455855459
 20
-6.2777726937
 30
0.0
 10
-18.7037187722
 20
-6.3048601407
 30
0.0
 11
-18.3215925954
 21
-5.7426328544
 31
0.0
 11
-18.539630691
 21
-6.2043916476
 31
0.0
 11
-18.7037187722
 21
-6.3048601407
 31
0.0
  0
SPLINE
  5
365
100
AcDbEntity
  8
0
100
AcDbSpline
 62
7
  6
CONTINUOUS
 70
0
 71
3
 72
20
 73
16
 74
14
 42
0.0000001
 43
0.0000001
 44
0.0000000001
 12
0.688991946
 22
0.4283523196
 32
0.0
 13
0.0839150149
 23
0.805496613
 33
0.0
 40
0.0
 40
0.0
 40
0.0
 40
0.0
 40
0.1133757629
 40
0.2334443496
 40
0.3498226659
 40
0.4638915406
 40
0.5771163285
 40
0.690994973
 40
0.7486644393
 40
0.8070437538
 40
0.8663041383
 40
0.9266093104
 40
0.9572049141
 40
0.9881192231
 40
1.0
 40
1.0
 40
1.0
 40
1.0
 10
-18.4728416739
 20
-6.5377571577
 30
0.0
 10
-18.4468033447
 20
-6.5215689007
 30
0.0
 10
-18.3945508539
 20
-6.4860719029
 30
0.0
 10
-18.3216734014
 20
-6.4258031831
 30
0.0
 10
-18.2554263427
 20
-6.3579687751
 30
0.0
 10
-18.1983200979
 20
-6.2846004683
 30
0.0
 10
-18.1503854326
 20
-6.2057231209
 30
0.0
 10
-18.1182316451
 20
-6.135697972
 30
0.0
 10
-18.0971482984
 20
-6.0772935188
 30
0.0
 10
-18.0835390679
 20
-6.0319428856
 30
0.0
 10
-18.0722056315
 20
-5.9852415565
 30
0.0
 10
-18.0646920714
 20
-5.9453893176
 30
0.0
 10
-18.0598048216
 20
-5.9128683966
 30
0.0
 10
-18.0573392575
 20
-5.8932088296
 30
0.0
 10
-18.0560903898
 20
-5.8817237936
 30
0.0
 10
-18.0557580646
 20
-5.8785338184
 30
0.0
 11
-18.4728416739
 21
-6.5377571577
 31
0.0
 11
-18.3969027232
 21
-6.4859759015
 31
0.0
 11
-18.3220830747
 21
-6.4238721505
 31
0.0
 11
-18.2563318572
 21
-6.3563489673
 31
0.0
 11
-18.1996490708
 21
-6.2834063518
 31
0.0
 11
-18.1520347153
 21
-6.205044304
 31
0.0
 11
-18.1134887909
 21
-6.121262824
 31
0.0
 11
-18.0976164903
 21
-6.0773397968
 31
0.0
 11
-18.0840112975
 21
-6.0320619116
 31
0.0
 11
-18.0726732124
 21
-5.9854291683
 31
0.0
 11
-18.0636022351
 21
-5.9374415669
 31
0.0
 11
-18.0599169118
 21
-5.9129396945
 31
0.0
 11
-18.0567983655
 21
-5.8880991075
 31
0.0
 11
-18.0557580646
 21
-5.8785338184
 31
0.0
  0
SPLINE
  5
366
100
AcDbEntity
  8
0
100
AcDbSpline
 62
7
  6
CONTINUOUS
 70
0
 71
3
 72
38
 73
34
 74
32
 42
0.0000001
 43
0.0000001
 44
0.0000000001
 12
0.0239555106
 22
0.2299479148
 32
0.0
 13
-0.0246784739
 23
0.2298683176
 33
0.0
 40
0.0
 40
0.0
 40
0.0
 40
0.0
 40
0.0678531123
 40
0.1785647012
 40
0.234405197
 40
0.2905778486
 40
0.3470897255
 40
0.3754751549
 40
0.4039479834
 40
0.432509059
 40
0.4468229655
 40
0.4611592482
 40
0.4683358147
 40
0.4755180142
 40
0.4791112305
 40
0.4807538361
 40
0.4820875202
 40
0.4847543748
 40
0.4874205453
 40
0.4927508359
 40
0.4980783968
 40
0.5087253467
 40
0.5193614331
 40
0.5299866932
 40
0.5512048739
 40
0.5935128888
 40
0.6356518898
 40
0.6776243207
 40
0.7194326548
 40
0.7610793943
 40
0.8438976012
 40
0.9261001738
 40
1.0
 40
1.0
 40
1.0
 40
1.0
 10
-18.0557580646
 20
-5.8785338184
 30
0.0
 10
-18.055216246
 20
-5.8733329245
 30
0.0
 10
-18.0538910082
 20
-5.8596355846
 30
0.0
 10
-18.0524923471
 20
-5.8416242283
 30
0.0
 10
-18.0514559304
 20
-5.8244915486
 30
0.0
 10
-18.0508180635
 20
-5.8115199973
 30
0.0
 10
-18.0504052284
 20
-5.8006564101
 30
0.0
 10
-18.0501454979
 20
-5.7919236603
 30
0.0
 10
-18.0499858236
 20
-5.7853429445
 30
0.0
 10
-18.0498823742
 20
-5.7798456547
 30
0.0
 10
-18.0498172598
 20
-5.7754372941
 30
0.0
 10
-18.0497839842
 20
-5.7726765938
 30
0.0
 10
-18.0497616498
 20
-5.770465399
 30
0.0
 10
-18.0497498451
 20
-5.7690820194
 30
0.0
 10
-18.0497420215
 20
-5.7681251008
 30
0.0
 10
-18.049739
 20
-5.7676188299
 30
0.0
 10
-18.0497447251
 20
-5.7671839825
 30
0.0
 10
-18.0497492869
 20
-5.7666702538
 30
0.0
 10
-18.0497582949
 20
-5.7658485606
 30
0.0
 10
-18.0497698108
 20
-5.7648218448
 30
0.0
 10
-18.0497900055
 20
-5.7631801691
 30
0.0
 10
-18.0498180054
 20
-5.7611296826
 30
0.0
 10
-18.0498562043
 20
-5.7586710478
 30
0.0
 10
-18.0499131652
 20
-5.7553979671
 30
0.0
 10
-18.0500286486
 20
-5.7496848329
 30
0.0
 10
-18.0502391038
 20
-5.741544655
 30
0.0
 10
-18.0505647609
 20
-5.7318078204
 30
0.0
 10
-18.0509632723
 20
-5.7221122325
 30
0.0
 10
-18.051434639
 20
-5.7124578862
 30
0.0
 10
-18.0521588844
 20
-5.6996648474
 30
0.0
 10
-18.0532453734
 20
-5.6837749316
 30
0.0
 10
-18.0547931795
 20
-5.6654275503
 30
0.0
 10
-18.0559885743
 20
-5.6534569745
 30
0.0
 10
-18.0565964859
 20
-5.6477945649
 30
0.0
 11
-18.0557580646
 21
-5.8785338184
 31
0.0
 11
-18.0542465961
 21
-5.862919806
 31
0.0
 11
-18.0522616037
 21
-5.83740179
 31
0.0
 11
-18.0514816488
 21
-5.824515764
 31
0.0
 11
-18.0508433882
 21
-5.8115450595
 31
0.0
 11
-18.0503468218
 21
-5.7984896762
 31
0.0
 11
-18.0501516739
 21
-5.7919302302
 31
0.0
 11
-18.0499919496
 21
-5.7853496144
 31
0.0
 11
-18.0498676489
 21
-5.778747829
 31
0.0
 11
-18.0498187823
 21
-5.7754389977
 31
0.0
 11
-18.0497787717
 21
-5.7721248739
 31
0.0
 11
-18.0497620873
 21
-5.7704658274
 31
0.0
 11
-18.0497476169
 21
-5.7688054578
 31
0.0
 11
-18.049741212
 21
-5.7679747768
 31
0.0
 11
-18.0497401946
 21
-5.7675950288
 31
0.0
 11
-18.0497432257
 21
-5.767286713
 31
0.0
 11
-18.0497495014
 21
-5.7666702022
 31
0.0
 11
-18.0497560617
 21
-5.7660538526
 31
0.0
 11
-18.049770036
 21
-5.7648216368
 31
0.0
 11
-18.0497851486
 21
-5.7635900656
 31
0.0
 11
-18.0498187888
 21
-5.7611288568
 31
0.0
 11
-18.0498569821
 21
-5.7586702262
 31
0.0
 11
-18.0498997286
 21
-5.7562141739
 31
0.0
 11
-18.0499988813
 21
-5.751309804
 31
0.0
 11
-18.0502518252
 21
-5.7415320032
 31
0.0
 11
-18.0505776203
 21
-5.7317954541
 31
0.0
 11
-18.0509762667
 21
-5.722100157
 31
0.0
 11
-18.0514477644
 21
-5.7124461117
 31
0.0
 11
-18.0519921133
 21
-5.7028333183
 31
0.0
 11
-18.0532993651
 21
-5.6837314871
 31
0.0
 11
-18.0548980219
 21
-5.6647946633
 31
0.0
 11
-18.0565964859
 21
-5.6477945649
 31
0.0
  0
SPLINE
  5
367
100
AcDbEntity
  8
0
100
AcDbSpline
 62
7
  6
CONTINUOUS
 70
0
 71
3
 72
64
 73
60
 74
58
 42
0.0000001
 43
0.0000001
 44
0.0000000001
 12
-0.1838090212
 22
1.7120941356
 32
0.0
 13
-1.6586442819
 23
-0.4637891139
 33
0.0
 40
0.0
 40
0.0
 40
0.0
 40
0.0
 40
0.001034912
 40
0.011914789
 40
0.033454846
 40
0.0547233511
 40
0.0757455986
 40
0.0965477811
 40
0.1171569305
 40
0.1579008014
 40
0.1982140841
 40
0.2383342008
 40
0.2785019987
 40
0.2986826306
 40
0.3189648251
 40
0.3393777438
 40
0.3496426283
 40
0.3599508662
 40
0.3651223831
 40
0.3703060363
 40
0.372902554
 40
0.3754559608
 40
0.3779845711
 40
0.3805105742
 40
0.390589562
 40
0.4006316486
 40
0.4206197654
 40
0.4405075308
 40
0.4801026681
 40
0.51968518
 40
0.5595154577
 40
0.5998490936
 40
0.6409322869
 40
0.6829980778
 40
0.7044711742
 40
0.7262698728
 40
0.7484185716
 40
0.7709405315
 40
0.7823487746
 40
0.7938585326
 40
0.7996523314
 40
0.8054724742
 40
0.8113192739
 40
0.8142527716
 40
0.815722061
 40
0.8171930501
 40
0.8186155864
 40
0.8200366032
 40
0.8228740932
 40
0.8285310079
 40
0.8341640637
 40
0.8397735245
 40
0.8509226653
 40
0.8619806751
 40
0.8838317078
 40
0.9053456929
 40
0.947435832
 40
0.9884216271
 40
1.0
 40
1.0
 40
1.0
 40
1.0
 10
-18.0565964859
 20
-5.6477945649
 30
0.0
 10
-18.0566598946
 20
-5.6472039427
 30
0.0
 10
-18.0573951712
 20
-5.6404047638
 30
0.0
 10
-18.0596301044
 20
-5.6213324107
 30
0.0
 10
-18.0639753903
 20
-5.590818265
 30
0.0
 10
-18.0703743809
 20
-5.5547370299
 30
0.0
 10
-18.0779404893
 20
-5.5193150161
 30
0.0
 10
-18.0866741482
 20
-5.4845519741
 30
0.0
 10
-18.0998233099
 20
-5.4392587591
 30
0.0
 10
-18.1191911529
 20
-5.3841497551
 30
0.0
 10
-18.1472131747
 20
-5.3204180979
 30
0.0
 10
-18.1799271471
 20
-5.2593366806
 30
0.0
 10
-18.2110543135
 20
-5.2107185868
 30
0.0
 10
-18.2382192336
 20
-5.1732387271
 30
0.0
 10
-18.2597936604
 20
-5.1457429098
 30
0.0
 10
-18.278708994
 20
-5.1234229094
 30
0.0
 10
-18.2944130154
 20
-5.105905723
 30
0.0
 10
-18.3044774264
 20
-5.0950849976
 30
0.0
 10
-18.3126756458
 20
-5.0865143397
 30
0.0
 10
-18.3178570743
 20
-5.0811834584
 30
0.0
 10
-18.3220331239
 20
-5.0769715689
 30
0.0
 10
-18.3251143254
 20
-5.0738203289
 30
0.0
 10
-18.3281719537
 20
-5.0707026529
 30
0.0
 10
-18.3342894553
 20
-5.0645359793
 30
0.0
 10
-18.3435541904
 20
-5.0554168276
 30
0.0
 10
-18.3602776176
 20
-5.0395937064
 30
0.0
 10
-18.3816699387
 20
-5.0205207948
 30
0.0
 10
-18.4169118784
 20
-4.9915459127
 30
0.0
 10
-18.4629931854
 20
-4.9581179115
 30
0.0
 10
-18.5214303624
 20
-4.9226065942
 30
0.0
 10
-18.5829289141
 20
-4.8917500145
 30
0.0
 10
-18.6474787103
 20
-4.8655511183
 30
0.0
 10
-18.7150702563
 20
-4.8440079971
 30
0.0
 10
-18.7735278542
 20
-4.8300278244
 30
0.0
 10
-18.821702314
 20
-4.8211318357
 30
0.0
 10
-18.8588452733
 20
-4.8155701034
 30
0.0
 10
-18.896748181
 20
-4.8111653156
 30
0.0
 10
-18.9288286613
 20
-4.8084701231
 30
0.0
 10
-18.954862513
 20
-4.8068850417
 30
0.0
 10
-18.971325818
 20
-4.8061324212
 30
0.0
 10
-18.984590356
 20
-4.80567412
 30
0.0
 10
-18.9946087321
 20
-4.8054010707
 30
0.0
 10
-19.0029874032
 20
-4.8052363897
 30
0.0
 10
-19.0088697823
 20
-4.8051477645
 30
0.0
 10
-19.0122409323
 20
-4.8051137355
 30
0.0
 10
-19.0147449573
 20
-4.8050715675
 30
0.0
 10
-19.0172212582
 20
-4.8051137487
 30
0.0
 10
-19.0204817835
 20
-4.8051477798
 30
0.0
 10
-19.0261723681
 20
-4.8052340623
 30
0.0
 10
-19.0342796427
 20
-4.8053915157
 30
0.0
 10
-19.043976135
 20
-4.8056487408
 30
0.0
 10
-19.0568212678
 20
-4.8060768946
 30
0.0
 10
-19.0727725928
 20
-4.8067746532
 30
0.0
 10
-19.0980191584
 20
-4.8082355536
 30
0.0
 10
-19.1291636358
 20
-4.8107075059
 30
0.0
 10
-19.1779281693
 20
-4.8160328708
 30
0.0
 10
-19.2372898786
 20
-4.8252584549
 30
0.0
 10
-19.2903621856
 20
-4.8370569424
 30
0.0
 10
-19.3195041444
 20
-4.844896133
 30
0.0
 10
-19.3259056118
 20
-4.8466861074
 30
0.0
 11
-18.0565964859
 21
-5.6477945649
 31
0.0
 11
-18.0567880839
 21
-5.646022847
 31
0.0
 11
-18.058969551
 21
-5.6274160382
 31
0.0
 11
-18.0642067005
 21
-5.5906974429
 31
0.0
 11
-18.0706094705
 21
-5.5546388775
 31
0.0
 11
-18.078177861
 21
-5.5192403419
 31
0.0
 11
-18.0869118719
 21
-5.4845018362
 31
0.0
 11
-18.0968115032
 21
-5.4504233603
 31
0.0
 11
-18.1201076274
 21
-5.3842464982
 31
0.0
 11
-18.1480662334
 21
-5.3207097556
 31
0.0
 11
-18.1806873212
 21
-5.2598131323
 31
0.0
 11
-18.2179708909
 21
-5.2015566285
 31
0.0
 11
-18.2383611065
 21
-5.1734184214
 31
0.0
 11
-18.2599169425
 21
-5.1459402441
 31
0.0
 11
-18.2826383989
 21
-5.1191220967
 31
0.0
 11
-18.2944362348
 21
-5.1059605342
 31
0.0
 11
-18.3065254759
 21
-5.0929639792
 31
0.0
 11
-18.3126793733
 21
-5.0865275795
 31
0.0
 11
-18.318906122
 21
-5.0801324316
 31
0.0
 11
-18.3220468156
 21
-5.0769503271
 31
0.0
 11
-18.325125072
 21
-5.0738109324
 31
0.0
 11
-18.3281759586
 21
-5.0707045012
 31
0.0
 11
-18.3312387489
 21
-5.0676161256
 31
0.0
 11
-18.3436089474
 21
-5.0554431786
 31
0.0
 11
-18.3561696055
 21
-5.0435591204
 31
0.0
 11
-18.3818623003
 21
-5.0206576706
 31
0.0
 11
-18.4083168334
 21
-4.998911776
 31
0.0
 11
-18.4635114142
 21
-4.958886653
 31
0.0
 11
-18.5217533478
 21
-4.9234837514
 31
0.0
 11
-18.5830426343
 21
-4.8927030711
 31
0.0
 11
-18.6473792736
 21
-4.8665446122
 31
0.0
 11
-18.7147632659
 21
-4.8450083746
 31
0.0
 11
-18.785194611
 21
-4.8280943584
 31
0.0
 11
-18.8215530408
 21
-4.8213706833
 31
0.0
 11
-18.8586733089
 21
-4.8158025636
 31
0.0
 11
-18.8965554152
 21
-4.8113899992
 31
0.0
 11
-18.9351993598
 21
-4.8081329901
 31
0.0
 11
-18.9548070214
 21
-4.8069378188
 31
0.0
 11
-18.9746051425
 21
-4.8060315364
 31
0.0
 11
-18.9845756254
 21
-4.8056867284
 31
0.0
 11
-18.9945937232
 21
-4.8054141427
 31
0.0
 11
-19.0046594359
 21
-4.8052137793
 31
0.0
 11
-19.0097101478
 21
-4.8051406808
 31
0.0
 11
-19.0122399677
 21
-4.8051109025
 31
0.0
 11
-19.0147727635
 21
-4.805085638
 31
0.0
 11
-19.0172221217
 21
-4.8051110691
 31
0.0
 11
-19.0196688173
 21
-4.8051405805
 31
0.0
 11
-19.0245542212
 21
-4.805211844
 31
0.0
 11
-19.0342930791
 21
-4.805403334
 31
0.0
 11
-19.0439893369
 21
-4.805660108
 31
0.0
 11
-19.0536429948
 21
-4.805982166
 31
0.0
 11
-19.0728225108
 21
-4.806822134
 31
0.0
 11
-19.091831627
 21
-4.8079232379
 31
0.0
 11
-19.1293386599
 21
-4.8109088536
 31
0.0
 11
-19.1661640937
 21
-4.8149390131
 31
0.0
 11
-19.2377701634
 21
-4.8261329636
 31
0.0
 11
-19.3066498363
 21
-4.8415050893
 31
0.0
 11
-19.3259056118
 21
-4.8466861074
 31
0.0
  0
SPLINE
  5
368
100
AcDbEntity
  8
0
100
AcDbSpline
 62
7
  6
CONTINUOUS
 70
0
 71
3
 72
10
 73
6
 74
4
 42
0.0000001
 43
0.0000001
 44
0.0000000001
 12
-0.1768625785
 22
-0.0494542075
 32
0.0
 13
-0.1638954614
 23
-0.0828592943
 33
0.0
 40
0.0
 40
0.0
 40
0.0
 40
0.0
 40
0.2671140458
 40
0.6359408278
 40
1.0
 40
1.0
 40
1.0
 40
1.0
 10
-19.3259056118
 20
-4.8466861074
 30
0.0
 10
-19.3416531047
 20
-4.8510894119
 30
0.0
 10
-19.3788899455
 20
-4.8624836531
 30
0.0
 10
-19.4362749308
 20
-4.8839137459
 30
0.0
 10
-19.4770738826
 20
-4.9026517821
 30
0.0
 10
-19.496963098
 20
-4.9127070108
 30
0.0
 11
-19.3259056118
 21
-4.8466861074
 31
0.0
 11
-19.3728031123
 21
-4.8610553903
 31
0.0
 11
-19.4362299914
 21
-4.8847838666
 31
0.0
 11
-19.496963098
 21
-4.9127070108
 31
0.0
  0
SPLINE
  5
369
100
AcDbEntity
  8
0
100
AcDbSpline
 62
7
  6
CONTINUOUS
 70
0
 71
3
 72
16
 73
12
 74
10
 42
0.0000001
 43
0.0000001
 44
0.0000000001
 12
11.4728872726
 22
0.0
 32
0.0
 13
0.0
 23
-11.7278740979
 33
0.0
 40
0.0
 40
0.0
 40
0.0
 40
0.0
 40
0.1841839955
 40
0.3620977868
 40
0.5276849139
 40
0.6753092271
 40
0.7999474416
 40
0.8973617553
 40
0.9642494144
 40
0.9983858896
 40
1.0
 40
1.0
 40
1.0
 40
1.0
 10
-0.0
 20
-45.7052805309
 30
0.0
 10
0.7043740727
 20
-45.7052805309
 30
0.0
 10
2.0889185298
 20
-45.7076946658
 30
0.0
 10
4.1078856698
 20
-45.716627845
 30
0.0
 10
5.9828718839
 20
-45.7355855346
 30
0.0
 10
7.6670736738
 20
-45.7478024739
 30
0.0
 10
9.0521431931
 20
-45.8006913356
 30
0.0
 10
10.2299361568
 20
-45.7612718497
 30
0.0
 10
10.832700827
 20
-45.9383356622
 30
0.0
 10
11.4430037227
 20
-45.7599137214
 30
0.0
 10
11.4521868615
 20
-45.8996731772
 30
0.0
 10
11.4521868615
 20
-45.905983205
 30
0.0
 11
-0.0
 21
-45.7052805309
 31
0.0
 11
2.1131194549
 21
-45.7086978754
 31
0.0
 11
4.1542791612
 21
-45.7188335351
 31
0.0
 11
6.0539698731
 21
-45.7353423523
 31
0.0
 11
7.7474999019
 21
-45.7576621391
 31
0.0
 11
9.1771981137
 21
-45.785032822
 31
0.0
 11
10.2943778506
 21
-45.816522325
 31
0.0
 11
11.0609948965
 21
-45.8510583111
 31
0.0
 11
11.4509430274
 21
-45.8874646985
 31
0.0
 11
11.4521868615
 21
-45.905983205
 31
0.0
  0
SPLINE
  5
36A
100
AcDbEntity
  8
0
100
AcDbSpline
 62
7
  6
CONTINUOUS
 70
0
 71
3
 72
16
 73
12
 74
10
 42
0.0000001
 43
0.0000001
 44
0.0000000001
 12
0.0
 22
11.4728872726
 32
0.0
 13
-11.7278740979
 23
0.0
 33
0.0
 40
0.0
 40
0.0
 40
0.0
 40
0.0
 40
0.1841839955
 40
0.3620977868
 40
0.5276849139
 40
0.6753092271
 40
0.7999474416
 40
0.8973617553
 40
0.9642494144
 40
0.9983858896
 40
1.0
 40
1.0
 40
1.0
 40
1.0
 10
-33.4152858976
 20
-4.7899946334
 30
0.0
 10
-33.4152858976
 20
-4.0856205607
 30
0.0
 10
-33.4177000324
 20
-2.7010761036
 30
0.0
 10
-33.4266332116
 20
-0.6821089636
 30
0.0
 10
-33.4455909012
 20
1.1928772506
 30
0.0
 10
-33.4578078405
 20
2.8770790404
 30
0.0
 10
-33.5106967022
 20
4.2621485597
 30
0.0
 10
-33.4712772163
 20
5.4399415234
 30
0.0
 10
-33.6483410288
 20
6.0427061936
 30
0.0
 10
-33.469919088
 20
6.6530090893
 30
0.0
 10
-33.6096785438
 20
6.6621922282
 30
0.0
 10
-33.6159885716
 20
6.6621922282
 30
0.0
 11
-33.4152858976
 21
-4.7899946334
 31
0.0
 11
-33.418703242
 21
-2.6768751785
 31
0.0
 11
-33.4288389017
 21
-0.6357154722
 31
0.0
 11
-33.4453477189
 21
1.2639752397
 31
0.0
 11
-33.4676675058
 21
2.9575052685
 31
0.0
 11
-33.4950381886
 21
4.3872034803
 31
0.0
 11
-33.5265276917
 21
5.5043832172
 31
0.0
 11
-33.5610636777
 21
6.2710002631
 31
0.0
 11
-33.5974700651
 21
6.660948394
 31
0.0
 11
-33.6159885716
 21
6.6621922282
 31
0.0
  0
SPLINE
  5
36B
100
AcDbEntity
  8
ASSI
100
AcDbSpline
 62
7
  6
CONTINUOUS
 70
0
 71
3
 72
16
 73
12
 74
10
 42
0.0000001
 43
0.0000001
 44
0.0000000001
 12
0.0
 22
11.4728872726
 32
0.0
 13
11.7278740979
 23
-0.0
 33
0.0
 40
0.0
 40
0.0
 40
0.0
 40
0.0
 40
0.1841839955
 40
0.3620977868
 40
0.5276849139
 40
0.6753092271
 40
0.7999474416
 40
0.8973617553
 40
0.9642494144
 40
0.9983858896
 40
1.0
 40
1.0
 40
1.0
 40
1.0
 10
33.4152858976
 20
-4.7899946334
 30
0.0
 10
33.4152858976
 20
-4.0856205607
 30
0.0
 10
33.4177000324
 20
-2.7010761036
 30
0.0
 10
33.4266332116
 20
-0.6821089636
 30
0.0
 10
33.4455909012
 20
1.1928772506
 30
0.0
 10
33.4578078405
 20
2.8770790404
 30
0.0
 10
33.5106967022
 20
4.2621485597
 30
0.0
 10
33.4712772163
 20
5.4399415234
 30
0.0
 10
33.6483410288
 20
6.0427061936
 30
0.0
 10
33.469919088
 20
6.6530090893
 30
0.0
 10
33.6096785438
 20
6.6621922282
 30
0.0
 10
33.6159885716
 20
6.6621922282
 30
0.0
 11
33.4152858976
 21
-4.7899946334
 31
0.0
 11
33.418703242
 21
-2.6768751785
 31
0.0
 11
33.4288389017
 21
-0.6357154722
 31
0.0
 11
33.4453477189
 21
1.2639752397
 31
0.0
 11
33.4676675058
 21
2.9575052685
 31
0.0
 11
33.4950381886
 21
4.3872034803
 31
0.0
 11
33.5265276917
 21
5.5043832172
 31
0.0
 11
33.5610636777
 21
6.2710002631
 31
0.0
 11
33.5974700651
 21
6.660948394
 31
0.0
 11
33.6159885716
 21
6.6621922282
 31
0.0
  0
SPLINE
  5
36C
100
AcDbEntity
  8
0
100
AcDbSpline
 62
7
  6
CONTINUOUS
 70
0
 71
3
 72
70
 73
66
 74
64
 42
0.0000001
 43
0.0000001
 44
0.0000000001
 12
-0.8819681991
 22
-1.148645076
 32
0.0
 13
-0.2181799419
 23
1.431472501
 33
0.0
 40
0.0
 40
0.0
 40
0.0
 40
0.0
 40
0.0141999844
 40
0.0258055371
 40
0.0374383102
 40
0.0490278754
 40
0.0605026858
 40
0.083132182
 40
0.1053818225
 40
0.127307831
 40
0.1704106326
 40
0.2129488598
 40
0.234174567
 40
0.2554522459
 40
0.2768461593
 40
0.2984195312
 40
0.3092937992
 40
0.3202358905
 40
0.3312531929
 40
0.342352944
 40
0.3535422217
 40
0.3591727047
 40
0.3648281454
 40
0.3705093799
 40
0.3762172329
 40
0.3790814086
 40
0.381952543
 40
0.3833907524
 40
0.3848307389
 40
0.3862725148
 40
0.3869940778
 40
0.3873550288
 40
0.3877160929
 40
0.3880154739
 40
0.3883147663
 40
0.388913086
 40
0.3901086677
 40
0.3913028457
 40
0.3924956276
 40
0.3948770307
 40
0.3972529393
 40
0.4019885005
 40
0.4067028166
 40
0.4113963848
 40
0.4160697085
 40
0.4253575403
 40
0.4345705986
 40
0.4437131451
 40
0.4618031175
 40
0.4796645568
 40
0.4973348818
 40
0.5148527362
 40
0.5322577794
 40
0.5668813972
 40
0.6015438909
 40
0.6365723002
 40
0.6543281624
 40
0.6722929796
 40
0.6904127327
 40
0.708643663
 40
0.7456253388
 40
0.7836325442
 40
0.8230173878
 40
0.9070842363
 40
1.0
 40
1.0
 40
1.0
 40
1.0
 10
1.4355528556
 20
23.2013794166
 30
0.0
 10
1.4313782107
 20
23.1959425025
 30
0.0
 10
1.4236341621
 20
23.1861831976
 30
0.0
 10
1.4119975396
 20
23.1723562059
 30
0.0
 10
1.4008386687
 20
23.1597812422
 30
0.0
 10
1.3894214576
 20
23.1475269091
 30
0.0
 10
1.3740183485
 20
23.1317396624
 30
0.0
 10
1.3543316193
 20
23.1129537675
 30
0.0
 10
1.3299207934
 20
23.0918649145
 30
0.0
 10
1.2966665211
 20
23.0659789731
 30
0.0
 10
1.2532372081
 20
23.0373355397
 30
0.0
 10
1.2072316669
 20
23.0137621123
 30
0.0
 10
1.1692558092
 20
22.9981378198
 30
0.0
 10
1.1401150127
 20
22.9879889208
 30
0.0
 10
1.1103023318
 20
22.9794052091
 30
0.0
 10
1.0849642193
 20
22.9735710004
 30
0.0
 10
1.0643834083
 20
22.9696833708
 30
0.0
 10
1.0487375839
 20
22.9671497496
 30
0.0
 10
1.0329238639
 20
22.9650062978
 30
0.0
 10
1.0169421762
 20
22.9632529513
 30
0.0
 10
1.0035125746
 20
22.9621193193
 30
0.0
 10
0.9926877488
 20
22.9614063442
 30
0.0
 10
0.984509772
 20
22.9609679459
 30
0.0
 10
0.9762897982
 20
22.9606270261
 30
0.0
 10
0.969413009
 20
22.9604243984
 30
0.0
 10
0.9638909015
 20
22.9603108639
 30
0.0
 10
0.9604288211
 20
22.9602601565
 30
0.0
 10
0.9576539454
 20
22.9602317518
 30
0.0
 10
0.9555688855
 20
22.9602165268
 30
0.0
 10
0.9538296894
 20
22.960208918
 30
0.0
 10
0.9526112979
 20
22.9602062546
 30
0.0
 10
0.9519145292
 20
22.9602054937
 30
0.0
 10
0.951421534
 20
22.9602053132
 30
0.0
 10
0.9509582993
 20
22.9602054562
 30
0.0
 10
0.9503805492
 20
22.9602059952
 30
0.0
 10
0.949370233
 20
22.9602078798
 30
0.0
 10
0.947927991
 20
22.9602132648
 30
0.0
 10
0.9461988443
 20
22.9602240395
 30
0.0
 10
0.9438973937
 20
22.9602441419
 30
0.0
 10
0.941025684
 20
22.9602800287
 30
0.0
 10
0.9364444669
 20
22.9603603809
 30
0.0
 10
0.9307382317
 20
22.9605037884
 30
0.0
 10
0.9239157917
 20
22.9607450539
 30
0.0
 10
0.9171261987
 20
22.9610553006
 30
0.0
 10
0.9081361747
 20
22.961559872
 30
0.0
 10
0.8969786295
 20
22.9623620795
 30
0.0
 10
0.8836927679
 20
22.9636027825
 30
0.0
 10
0.866216311
 20
22.9656178008
 30
0.0
 10
0.8446800985
 20
22.9688218113
 30
0.0
 10
0.8192701306
 20
22.973786298
 30
0.0
 10
0.7943852625
 20
22.9798568967
 30
0.0
 10
0.7700254548
 20
22.9870342259
 30
0.0
 10
0.7383078836
 20
22.9980570626
 30
0.0
 10
0.6998190778
 20
23.0146570067
 30
0.0
 10
0.6556932055
 20
23.039062937
 30
0.0
 10
0.6208460149
 20
23.0630024794
 30
0.0
 10
0.5941209588
 20
23.0842748474
 30
0.0
 10
0.5745248506
 20
23.1013573136
 30
0.0
 10
0.5556195123
 20
23.1195377976
 30
0.0
 10
0.5314541235
 20
23.1454195894
 30
0.0
 10
0.5033547181
 20
23.1806694051
 30
0.0
 10
0.4733645983
 20
23.2271182719
 30
0.0
 10
0.4373278165
 20
23.2963284994
 30
0.0
 10
0.4015462751
 20
23.3949478566
 30
0.0
 10
0.384057452
 20
23.4788199131
 30
0.0
 10
0.3773
 20
23.5231553666
 30
0.0
 11
1.4355528556
 21
23.2013794166
 31
0.0
 11
1.4227717603
 21
23.1852712421
 31
0.0
 11
1.4119504796
 21
23.1724141755
 31
0.0
 11
1.4007744028
 21
23.1598115619
 31
0.0
 11
1.3893368739
 21
23.1475311026
 31
0.0
 11
1.3777312366
 21
23.1356404991
 31
0.0
 11
1.3540156372
 21
23.1130288598
 31
0.0
 11
1.3296276046
 21
23.0919766439
 31
0.0
 11
1.3045671388
 21
23.0724838514
 31
0.0
 11
1.2524289077
 21
23.0381765366
 31
0.0
 11
1.1976009439
 21
23.0101069154
 31
0.0
 11
1.1691783122
 21
22.9984112399
 31
0.0
 11
1.1400832474
 21
22.9882749878
 31
0.0
 11
1.1103157494
 21
22.9796981591
 31
0.0
 11
1.0798758182
 21
22.9726807538
 31
0.0
 11
1.0644036901
 21
22.9697568349
 31
0.0
 11
1.0487634538
 21
22.9672227719
 31
0.0
 11
1.0329551091
 21
22.9650785647
 31
0.0
 11
1.0169786562
 21
22.9633242134
 31
0.0
 11
1.000834095
 21
22.9619597179
 31
0.0
 11
0.9926987737
 21
22.9614236661
 31
0.0
 11
0.9845214254
 21
22.9609850783
 31
0.0
 11
0.9763020501
 21
22.9606439544
 31
0.0
 11
0.9680406476
 21
22.9604002945
 31
0.0
 11
0.9638941862
 21
22.9603150136
 31
0.0
 11
0.9597372181
 21
22.9602540986
 31
0.0
 11
0.957654794
 21
22.9602327784
 31
0.0
 11
0.9555697432
 21
22.9602175496
 31
0.0
 11
0.9534820657
 21
22.9602084124
 31
0.0
 11
0.9524372419
 21
22.960206128
 31
0.0
 11
0.9519145838
 21
22.960205557
 31
0.0
 11
0.9513917615
 21
22.9602053666
 31
0.0
 11
0.9509582566
 21
22.9602055013
 31
0.0
 11
0.9505248801
 21
22.9602059055
 31
0.0
 11
0.9496585123
 21
22.9602075221
 31
0.0
 11
0.9479273171
 21
22.9602139884
 31
0.0
 11
0.9461981759
 21
22.9602247656
 31
0.0
 11
0.9444710888
 21
22.9602398536
 31
0.0
 11
0.9410230766
 21
22.9602829624
 31
0.0
 11
0.9375832805
 21
22.9603433146
 31
0.0
 11
0.9307283367
 21
22.9605157497
 31
0.0
 11
0.9239062574
 21
22.9607571587
 31
0.0
 11
0.9171170425
 21
22.9610675417
 31
0.0
 11
0.910360692
 21
22.9614468988
 31
0.0
 11
0.8969465846
 21
22.962412535
 31
0.0
 11
0.8836639349
 21
22.9636540671
 31
0.0
 11
0.8705127432
 21
22.9651714954
 31
0.0
 11
0.8446047331
 21
22.96903404
 31
0.0
 11
0.8192225544
 21
22.9740001687
 31
0.0
 11
0.7943662071
 21
22.9800698817
 31
0.0
 11
0.7700356912
 21
22.9872431788
 31
0.0
 11
0.7462310066
 21
22.9955200601
 31
0.0
 11
0.7001991316
 21
23.0153845752
 31
0.0
 11
0.6562705821
 21
23.0396634269
 31
0.0
 11
0.614445358
 21
23.0683566154
 31
0.0
 11
0.594321493
 21
23.0843585858
 31
0.0
 11
0.5747234594
 21
23.1014641405
 31
0.0
 11
0.5558256009
 21
23.1196651344
 31
0.0
 11
0.5378022614
 21
23.1389534227
 31
0.0
 11
0.5043791394
 21
23.1807918823
 31
0.0
 11
0.4744540931
 21
23.2269795194
 31
0.0
 11
0.4480271228
 21
23.2775163339
 31
0.0
 11
0.4056674097
 21
23.3916374954
 31
0.0
 11
0.3773
 21
23.5231553666
 31
0.0
  0
SPLINE
  5
36D
100
AcDbEntity
  8
0
100
AcDbSpline
 62
7
  6
CONTINUOUS
 70
0
 71
3
 72
77
 73
73
 74
71
 42
0.0000001
 43
0.0000001
 44
0.0000000001
 12
-0.3398380424
 22
1.8565224946
 32
0.0
 13
-1.5447546674
 23
-1.0841446508
 33
0.0
 40
0.0
 40
0.0
 40
0.0
 40
0.0
 40
0.0011538754
 40
0.0236612165
 40
0.0458796487
 40
0.0896008679
 40
0.1326633814
 40
0.1754187411
 40
0.196799033
 40
0.2182372705
 40
0.2397780348
 40
0.2614652748
 40
0.2833420567
 40
0.2888462146
 40
0.2943639891
 40
0.305355681
 40
0.3271037394
 40
0.3485701804
 40
0.3908018201
 40
0.4323795529
 40
0.4736381895
 40
0.5149203053
 40
0.5356825601
 40
0.556578325
 40
0.5776488716
 40
0.5989344546
 40
0.6204741233
 40
0.6313516453
 40
0.6423066951
 40
0.6478147645
 40
0.6533438863
 40
0.6588946044
 40
0.6644674567
 40
0.6700629746
 40
0.6728694056
 40
0.6756816992
 40
0.6770900658
 40
0.6784999222
 40
0.6792054118
 40
0.6799112768
 40
0.6802643504
 40
0.6804409226
 40
0.6805261303
 40
0.6805928169
 40
0.6808595506
 40
0.6811262638
 40
0.6816596296
 40
0.6821929148
 40
0.6832592461
 40
0.684325263
 40
0.6853909705
 40
0.6875214769
 40
0.6896508073
 40
0.6917790027
 40
0.6939061041
 40
0.6981571793
 40
0.7024043725
 40
0.7108883521
 40
0.7193607779
 40
0.7278243129
 40
0.7362816288
 40
0.744735403
 40
0.7531883164
 40
0.770101616
 40
0.7870436178
 40
0.8040356331
 40
0.8210987856
 40
0.855516528
 40
0.8904646633
 40
0.9260984994
 40
0.9625645843
 40
1.0
 40
1.0
 40
1.0
 40
1.0
 10
1.9517168513
 20
23.9363250382
 30
0.0
 10
1.951586141
 20
23.9370391035
 30
0.0
 10
1.9488906305
 20
23.951678865
 30
0.0
 10
1.9430590872
 20
23.9799543317
 30
0.0
 10
1.9295423136
 20
24.0339409592
 30
0.0
 10
1.9086250394
 20
24.0993443105
 30
0.0
 10
1.8769198264
 20
24.1745296704
 30
0.0
 10
1.8450931134
 20
24.2341007917
 30
0.0
 10
1.8165029651
 20
24.2797320099
 30
0.0
 10
1.793450962
 20
24.3130334934
 30
0.0
 10
1.7687927597
 20
24.3454056994
 30
0.0
 10
1.7425291638
 20
24.3768491291
 30
0.0
 10
1.721704892
 20
24.3996493473
 30
0.0
 10
1.7073407339
 20
24.4145488436
 30
0.0
 10
1.6976208718
 20
24.4244132486
 30
0.0
 10
1.6804734411
 20
24.4413024031
 30
0.0
 10
1.6554588
 20
24.4644932486
 30
0.0
 10
1.6145453568
 20
24.4993744655
 30
0.0
 10
1.5614437533
 20
24.5391010869
 30
0.0
 10
1.4944208596
 20
24.5805086758
 30
0.0
 10
1.4244455052
 20
24.615389708
 30
0.0
 10
1.36378332
 20
24.6389687871
 30
0.0
 10
1.3139682153
 20
24.654533215
 30
0.0
 10
1.2758006252
 20
24.6646074702
 30
0.0
 10
1.2369050026
 20
24.6730572653
 30
0.0
 10
1.197281243
 20
24.6798833777
 30
0.0
 10
1.1637647895
 20
24.6842045898
 30
0.0
 10
1.1366080235
 20
24.6868565764
 30
0.0
 10
1.1194582649
 20
24.6881794417
 30
0.0
 10
1.1056498313
 20
24.6890361039
 30
0.0
 10
1.0952286896
 20
24.6895785077
 30
0.0
 10
1.0847619939
 20
24.6900196203
 30
0.0
 10
1.0742497335
 20
24.690359444
 30
0.0
 10
1.0654606057
 20
24.6905580181
 30
0.0
 10
1.0584067987
 20
24.6906663871
 30
0.0
 10
1.0539864469
 20
24.6907130626
 30
0.0
 10
1.0504445041
 20
24.6907377626
 30
0.0
 10
1.0482278398
 20
24.6907479304
 30
0.0
 10
1.0464530885
 20
24.6907529022
 30
0.0
 10
1.0453431291
 20
24.6907546911
 30
0.0
 10
1.0445658983
 20
24.6907552518
 30
0.0
 10
1.0441791083
 20
24.6907553579
 30
0.0
 10
1.0439724777
 20
24.6907553701
 30
0.0
 10
1.0437091286
 20
24.6907553474
 30
0.0
 10
1.0433315987
 20
24.6907551852
 30
0.0
 10
1.0426604921
 20
24.6907545311
 30
0.0
 10
1.0418217049
 20
24.6907530264
 30
0.0
 10
1.040479901
 20
24.6907491536
 30
0.0
 10
1.0388030291
 20
24.6907415653
 30
0.0
 10
1.0367912506
 20
24.690728062
 30
0.0
 10
1.0341100853
 20
24.6907041988
 30
0.0
 10
1.0307601468
 20
24.6906633825
 30
0.0
 10
1.0267421242
 20
24.6905968092
 30
0.0
 10
1.0227265725
 20
24.690512649
 30
0.0
 10
1.0173771183
 20
24.6903770199
 30
0.0
 10
1.0106962575
 20
24.6901635409
 30
0.0
 10
1.0000218835
 20
24.689728271
 30
0.0
 10
0.9867018725
 20
24.6890084178
 30
0.0
 10
0.9707510547
 20
24.6878627745
 30
0.0
 10
0.9548397611
 20
24.6864356561
 30
0.0
 10
0.9389680472
 20
24.6847270676
 30
0.0
 10
0.923135844
 20
24.6827369918
 30
0.0
 10
0.9020762909
 20
24.6797079006
 30
0.0
 10
0.8758368993
 20
24.6752149991
 30
0.0
 10
0.8445144274
 20
24.6686976335
 30
0.0
 10
0.8133501859
 20
24.6610532139
 30
0.0
 10
0.771894932
 20
24.6493262026
 30
0.0
 10
0.7203798218
 20
24.6317913898
 30
0.0
 10
0.6593946524
 20
24.6062946031
 30
0.0
 10
0.5990574023
 20
24.5762841254
 30
0.0
 10
0.5393729971
 20
24.541765844
 30
0.0
 10
0.5005651384
 20
24.5161123082
 30
0.0
 10
0.4812889607
 20
24.5025838396
 30
0.0
 11
1.9517168513
 21
23.9363250382
 31
0.0
 11
1.9513224977
 21
23.9384668276
 31
0.0
 11
1.9427310715
 21
23.980065418
 31
0.0
 11
1.9325359125
 21
24.0207384035
 31
0.0
 11
1.9073343956
 21
24.0993075595
 31
0.0
 11
1.8757179472
 21
24.1741742957
 31
0.0
 11
1.8376865672
 21
24.2453386121
 31
0.0
 11
1.8162652779
 21
24.2795323629
 31
0.0
 11
1.7932402557
 21
24.3128005087
 31
0.0
 11
1.7686115006
 21
24.3451430495
 31
0.0
 11
1.7423790126
 21
24.3765599854
 31
0.0
 11
1.7145427918
 21
24.4070513163
 31
0.0
 11
1.7073331533
 21
24.4145295233
 31
0.0
 11
1.7000255125
 21
24.4219481072
 31
0.0
 11
1.6852456218
 21
24.4365035914
 31
0.0
 11
1.655138954
 21
24.4643991914
 31
0.0
 11
1.6243031041
 21
24.4906743
 31
0.0
 11
1.5604438583
 21
24.5383630435
 31
0.0
 11
1.4936678845
 21
24.5795698219
 31
0.0
 11
1.4239751827
 21
24.6142946351
 31
0.0
 11
1.3513657529
 21
24.6425374831
 31
0.0
 11
1.3139672649
 21
24.6542281702
 31
0.0
 11
1.275839595
 21
24.6642983661
 31
0.0
 11
1.236982743
 21
24.6727480706
 31
0.0
 11
1.197396709
 21
24.6795772839
 31
0.0
 11
1.1570814931
 21
24.6847860059
 31
0.0
 11
1.1366504418
 21
24.6867826826
 31
0.0
 11
1.1160370951
 21
24.6883742366
 31
0.0
 11
1.1056620609
 21
24.6890180925
 31
0.0
 11
1.0952414528
 21
24.6895606677
 31
0.0
 11
1.0847752709
 21
24.6900019622
 31
0.0
 11
1.0742635151
 21
24.690341976
 31
0.0
 11
1.0637061854
 21
24.6905807091
 31
0.0
 11
1.0584104303
 21
24.6906620954
 31
0.0
 11
1.0531032818
 21
24.6907181615
 31
0.0
 11
1.050445435
 21
24.6907366994
 31
0.0
 11
1.0477847398
 21
24.6907489074
 31
0.0
 11
1.0464533241
 21
24.6907526376
 31
0.0
 11
1.0451211963
 21
24.6907547853
 31
0.0
 11
1.0444548653
 21
24.6907552657
 31
0.0
 11
1.0441216331
 21
24.6907553575
 31
0.0
 11
1.0439608265
 21
24.6907553664
 31
0.0
 11
1.0438349735
 21
24.6907553554
 31
0.0
 11
1.0433315859
 21
24.6907551395
 31
0.0
 11
1.0428282369
 21
24.6907546488
 31
0.0
 11
1.0418216547
 21
24.690752843
 31
0.0
 11
1.0408152271
 21
24.6907499381
 31
0.0
 11
1.0388028354
 21
24.6907408308
 31
0.0
 11
1.0367910618
 21
24.6907273269
 31
0.0
 11
1.0347799063
 21
24.6907094264
 31
0.0
 11
1.0307594496
 21
24.6906604354
 31
0.0
 11
1.0267414652
 21
24.690593858
 31
0.0
 11
1.0227259531
 21
24.690509694
 31
0.0
 11
1.0187129134
 21
24.6904079436
 31
0.0
 11
1.0106942511
 21
24.6901516832
 31
0.0
 11
1.0026854781
 21
24.6898250769
 31
0.0
 11
0.9866976004
 21
24.6889608263
 31
0.0
 11
0.9707492802
 21
24.6878151917
 31
0.0
 11
0.9548405176
 21
24.6863881732
 31
0.0
 11
0.9389713126
 21
24.6846797708
 31
0.0
 11
0.9231416652
 21
24.6826899845
 31
0.0
 11
0.9073515753
 21
24.6804188142
 31
0.0
 11
0.8758900683
 21
24.6750323219
 31
0.0
 11
0.8445867916
 21
24.6685202938
 31
0.0
 11
0.8134417452
 21
24.6608827301
 31
0.0
 11
0.7824549291
 21
24.6521196307
 31
0.0
 11
0.7209559878
 21
24.6312168247
 31
0.0
 11
0.6600899677
 21
24.6058118758
 31
0.0
 11
0.5998568688
 21
24.5759047841
 31
0.0
 11
0.5402566911
 21
24.5414955496
 31
0.0
 11
0.4812889607
 21
24.5025838396
 31
0.0
  0
SPLINE
  5
36E
100
AcDbEntity
  8
0
100
AcDbSpline
 62
7
  6
CONTINUOUS
 70
0
 71
3
 72
24
 73
20
 74
18
 42
0.0000001
 43
0.0000001
 44
0.0000000001
 12
-0.1284183362
 22
0.8447685701
 32
0.0
 13
-0.8325477476
 23
0.1922053236
 33
0.0
 40
0.0
 40
0.0
 40
0.0
 40
0.0
 40
0.0243081721
 40
0.0530014068
 40
0.0813594551
 40
0.1371643204
 40
0.1919388962
 40
0.2459051923
 40
0.2992953029
 40
0.3523488841
 40
0.4053101611
 40
0.4318240606
 40
0.4582288219
 40
0.5106733755
 40
0.562850084
 40
0.6673504826
 40
0.7738043012
 40
0.8841160022
 40
1.0
 40
1.0
 40
1.0
 40
1.0
 10
-0.3800508694
 20
23.7462528776
 30
0.0
 10
-0.3810914077
 20
23.7530978042
 30
0.0
 10
-0.3835345949
 20
23.7679959658
 30
0.0
 10
-0.3878854795
 20
23.7907597733
 30
0.0
 10
-0.3948448371
 20
23.8221443231
 30
0.0
 10
-0.4051414829
 20
23.8603806167
 30
0.0
 10
-0.4201469042
 20
23.9048114816
 30
0.0
 10
-0.4377368759
 20
23.9475435085
 30
0.0
 10
-0.4579119621
 20
23.9885733009
 30
0.0
 10
-0.4806711038
 20
24.0278973675
 30
0.0
 10
-0.5017797961
 20
24.0592278668
 30
0.0
 10
-0.5198863732
 20
24.0833495065
 30
0.0
 10
-0.5387037086
 20
24.1067318751
 30
0.0
 10
-0.5635831518
 20
24.134591797
 30
0.0
 10
-0.6062734132
 20
24.176181839
 30
0.0
 10
-0.6653650913
 20
24.2227083732
 30
0.0
 10
-0.7446088058
 20
24.269000259
 30
0.0
 10
-0.8321603064
 20
24.3058344136
 30
0.0
 10
-0.8942517296
 20
24.32360325
 30
0.0
 10
-0.9264113834
 20
24.3310277571
 30
0.0
 11
-0.3800508694
 21
23.7462528776
 31
0.0
 11
-0.3834147416
 21
23.7667489102
 31
0.0
 11
-0.3880215708
 21
23.7908290291
 31
0.0
 11
-0.3932712134
 21
23.8144839459
 31
0.0
 11
-0.4056989386
 21
23.8605181736
 31
0.0
 11
-0.4206979173
 21
23.9048515933
 31
0.0
 11
-0.4382681495
 21
23.9474842051
 31
0.0
 11
-0.4584096353
 21
23.9884160088
 31
0.0
 11
-0.4811223745
 21
24.0276470046
 31
0.0
 11
-0.5064063672
 21
24.0651771924
 31
0.0
 11
-0.5200057912
 21
24.0832960048
 31
0.0
 11
-0.5341529351
 21
24.1008709153
 31
0.0
 11
-0.564008874
 21
24.1342872883
 31
0.0
 11
-0.5959470141
 21
24.1653923971
 31
0.0
 11
-0.6660698984
 21
24.2206688221
 31
0.0
 11
-0.7445215881
 21
24.2667001905
 31
0.0
 11
-0.8313020831
 21
24.3034865021
 31
0.0
 11
-0.9264113834
 21
24.3310277571
 31
0.0
  0
SPLINE
  5
36F
100
AcDbEntity
  8
0
100
AcDbSpline
 62
7
  6
CONTINUOUS
 70
0
 71
3
 72
21
 73
17
 74
15
 42
0.0000001
 43
0.0000001
 44
0.0000000001
 12
-0.7093356249
 22
-0.4045570194
 32
0.0
 13
-0.1461820316
 23
-0.8031512655
 33
0.0
 40
0.0
 40
0.0
 40
0.0
 40
0.0
 40
0.0348521574
 40
0.0761419152
 40
0.1175610309
 40
0.1591797576
 40
0.180086731
 40
0.2010498254
 40
0.2428976277
 40
0.2846751546
 40
0.3682935988
 40
0.4525062787
 40
0.5378838934
 40
0.6249742439
 40
0.8062061314
 40
1.0
 40
1.0
 40
1.0
 40
1.0
 10
-1.8556626886
 20
25.5937997779
 30
0.0
 10
-1.8639033142
 20
25.589099883
 30
0.0
 10
-1.8817256487
 20
25.5785164648
 30
0.0
 10
-1.9085905304
 20
25.5611345991
 30
0.0
 10
-1.936219084
 20
25.5415924073
 30
0.0
 10
-1.9586283858
 20
25.5243199157
 30
0.0
 10
-1.976193522
 20
25.5099094742
 30
0.0
 10
-1.9935131778
 20
25.4951088231
 30
0.0
 10
-2.014568263
 20
25.4759463966
 30
0.0
 10
-2.0469241826
 20
25.4439279056
 30
0.0
 10
-2.0849118844
 20
25.4012832207
 30
0.0
 10
-2.1263448695
 20
25.3461354886
 30
0.0
 10
-2.1636493036
 20
25.2869937726
 30
0.0
 10
-2.208468898
 20
25.2017210767
 30
0.0
 10
-2.2540235601
 20
25.0840185598
 30
0.0
 10
-2.2778869395
 20
24.9844972969
 30
0.0
 10
-2.28733
 20
24.9326153666
 30
0.0
 11
-1.8556626886
 21
25.5937997779
 31
0.0
 11
-1.8801302993
 21
25.5792699554
 31
0.0
 11
-1.908431218
 21
25.5609614287
 31
0.0
 11
-1.9360376405
 21
25.5414381182
 31
0.0
 11
-1.9629495669
 21
25.5207000239
 31
0.0
 11
-1.9761450939
 21
25.5098754328
 31
0.0
 11
-1.9891535712
 21
25.4987561175
 31
0.0
 11
-2.0144180593
 21
25.4757611608
 31
0.0
 11
-2.0386591203
 21
25.4517712267
 31
0.0
 11
-2.0840709607
 21
25.4008064267
 31
0.0
 11
-2.1253890924
 21
25.3458617173
 31
0.0
 11
-2.1626135154
 21
25.2869370987
 31
0.0
 11
-2.1957442297
 21
25.2240325708
 31
0.0
 11
-2.2497245323
 21
25.0862837873
 31
0.0
 11
-2.28733
 21
24.9326153666
 31
0.0
  0
SPLINE
  5
370
100
AcDbEntity
  8
0
100
AcDbSpline
 62
7
  6
CONTINUOUS
 70
0
 71
3
 72
18
 73
14
 74
12
 42
0.0000001
 43
0.0000001
 44
0.0000000001
 12
-0.0465533026
 22
-0.332082332
 32
0.0
 13
-0.2728484665
 23
-0.1949533353
 33
0.0
 40
0.0
 40
0.0
 40
0.0
 40
0.0
 40
0.0530974741
 40
0.1271353311
 40
0.1996218631
 40
0.2707595214
 40
0.4097980081
 40
0.5461346461
 40
0.6817107274
 40
0.8184999288
 40
0.8879830976
 40
0.9584809016
 40
1.0
 40
1.0
 40
1.0
 40
1.0
 10
-0.8959701937
 20
24.8589661206
 30
0.0
 10
-0.896794148
 20
24.8530885429
 30
0.0
 10
-0.8990020062
 20
24.8390479068
 30
0.0
 10
-0.9033928092
 20
24.81716391
 30
0.0
 10
-0.9094104261
 20
24.7935801737
 30
0.0
 10
-0.9188625441
 20
24.7634223536
 30
0.0
 10
-0.93351455
 20
24.7274729203
 30
0.0
 10
-0.9558005177
 20
24.6871866948
 30
0.0
 10
-0.9826522294
 20
24.6500961309
 30
0.0
 10
-1.0086960371
 20
24.6220076818
 30
0.0
 10
-1.031632613
 20
24.6012315596
 30
0.0
 10
-1.0474259506
 20
24.5884836897
 30
0.0
 10
-1.0574986867
 20
24.5810423021
 30
0.0
 10
-1.0612748275
 20
24.5783442066
 30
0.0
 11
-0.8959701937
 21
24.8589661206
 31
0.0
 11
-0.8987410123
 21
24.8413785217
 31
0.0
 11
-0.9036383405
 21
24.8170416165
 31
0.0
 11
-0.9096596456
 21
24.793494691
 31
0.0
 11
-0.9168049277
 21
24.7707377451
 31
0.0
 11
-0.9344674228
 21
24.7275937922
 31
0.0
 11
-0.9566258258
 21
24.6876097579
 31
0.0
 11
-0.9832801365
 21
24.6507856421
 31
0.0
 11
-1.0144303552
 21
24.6171214449
 31
0.0
 11
-1.0316914299
 21
24.6014743157
 31
0.0
 11
-1.0500764816
 21
24.5866171662
 31
0.0
 11
-1.0612748275
 21
24.5783442066
 31
0.0
  0
SPLINE
  5
371
100
AcDbEntity
  8
0
100
AcDbSpline
 62
7
  6
CONTINUOUS
 70
0
 71
3
 72
69
 73
65
 74
63
 42
0.0000001
 43
0.0000001
 44
0.0000000001
 12
-0.4282719041
 22
-0.3060051507
 32
0.0
 13
-0.5231436101
 23
0.0575089018
 33
0.0
 40
0.0
 40
0.0
 40
0.0
 40
0.0
 40
0.0192486823
 40
0.0424343601
 40
0.0656612717
 40
0.1119093393
 40
0.1579235764
 40
0.2494269518
 40
0.3405647711
 40
0.4317233472
 40
0.5232887307
 40
0.5693492009
 40
0.615653484
 40
0.6622476435
 40
0.7091768892
 40
0.7327817168
 40
0.7564868205
 40
0.7802975655
 40
0.804219246
 40
0.8162234022
 40
0.8282572437
 40
0.8403214113
 40
0.852416541
 40
0.8584759239
 40
0.8645432835
 40
0.8706186981
 40
0.8767022453
 40
0.8797470942
 40
0.8812702915
 40
0.8827940055
 40
0.8843182376
 40
0.8850805482
 40
0.8858429888
 40
0.8866055595
 40
0.8871711894
 40
0.8873903822
 40
0.8876099313
 40
0.8879032179
 40
0.8881971383
 40
0.8884916926
 40
0.8887868808
 40
0.8890827031
 40
0.8896762504
 40
0.8902723354
 40
0.8908709587
 40
0.8920758238
 40
0.8932908524
 40
0.8945160507
 40
0.8957514248
 40
0.8982527226
 40
0.9007947935
 40
0.903377681
 40
0.906001427
 40
0.9086660713
 40
0.9141181961
 40
0.9197343492
 40
0.9255147904
 40
0.9314597583
 40
0.9375694718
 40
0.9438441329
 40
0.9568889875
 40
0.9705957002
 40
0.9849654171
 40
1.0
 40
1.0
 40
1.0
 40
1.0
 10
-1.0612748275
 20
24.5783442066
 30
0.0
 10
-1.0640227174
 20
24.5763808079
 30
0.0
 10
-1.0701303545
 20
24.5721225407
 30
0.0
 10
-1.0797451106
 20
24.5657769664
 30
0.0
 10
-1.0934757194
 20
24.5570745232
 30
0.0
 10
-1.1108341954
 20
24.5466187987
 30
0.0
 10
-1.1389727685
 20
24.5308766642
 30
0.0
 10
-1.1749068351
 20
24.5129807228
 30
0.0
 10
-1.2192358345
 20
24.4943971714
 30
0.0
 10
-1.2646931547
 20
24.4787421167
 30
0.0
 10
-1.3034399636
 20
24.4681581014
 30
0.0
 10
-1.3349431028
 20
24.4611575707
 30
0.0
 10
-1.3589003816
 20
24.4566260633
 30
0.0
 10
-1.3831381147
 20
24.4528246194
 30
0.0
 10
-1.4035302573
 20
24.4502700121
 30
0.0
 10
-1.4199776878
 20
24.4485896353
 30
0.0
 10
-1.4324081376
 20
24.4475091624
 30
0.0
 10
-1.4449087686
 20
24.4466110315
 30
0.0
 10
-1.4553719268
 20
24.4460152492
 30
0.0
 10
-1.463776787
 20
24.4456294875
 30
0.0
 10
-1.470105605
 20
24.4453853925
 30
0.0
 10
-1.4764519782
 20
24.4451868739
 30
0.0
 10
-1.4817518126
 20
24.4450595046
 30
0.0
 10
-1.4860003669
 20
24.4449803539
 30
0.0
 10
-1.4891932484
 20
24.4449323458
 30
0.0
 10
-1.4923905198
 20
24.4448957313
 30
0.0
 10
-1.4950576735
 20
24.444874721
 30
0.0
 10
-1.4969262761
 20
24.4448649951
 30
0.0
 10
-1.497994956
 20
24.444860859
 30
0.0
 10
-1.498796876
 20
24.4448584687
 30
0.0
 10
-1.4994653144
 20
24.4448570698
 30
0.0
 10
-1.5000002022
 20
24.4448563076
 30
0.0
 10
-1.5004014707
 20
24.4448559113
 30
0.0
 10
-1.5007682354
 20
24.4448557212
 30
0.0
 10
-1.5010396973
 20
24.4448556626
 30
0.0
 10
-1.5012158959
 20
24.4448557031
 30
0.0
 10
-1.5013443169
 20
24.4448557987
 30
0.0
 10
-1.5014858474
 20
24.4448559776
 30
0.0
 10
-1.501640536
 20
24.4448562677
 30
0.0
 10
-1.501795558
 20
24.4448566521
 30
0.0
 10
-1.5019509134
 20
24.4448571309
 30
0.0
 10
-1.502158721
 20
24.4448578959
 30
0.0
 10
-1.5024193142
 20
24.4448590889
 30
0.0
 10
-1.5027330257
 20
24.4448608966
 30
0.0
 10
-1.5031539769
 20
24.4448638163
 30
0.0
 10
-1.503683501
 20
24.4448684157
 30
0.0
 10
-1.5043229277
 20
24.4448754334
 30
0.0
 10
-1.5049676887
 20
24.4448839612
 30
0.0
 10
-1.5058380549
 20
24.4448974003
 30
0.0
 10
-1.5069393561
 20
24.444918018
 30
0.0
 10
-1.508276895
 20
24.4449486982
 30
0.0
 10
-1.509635771
 20
24.4449854179
 30
0.0
 10
-1.511015984
 20
24.445028177
 30
0.0
 10
-1.5128990735
 20
24.4450937427
 30
0.0
 10
-1.5153063186
 20
24.4451910959
 30
0.0
 10
-1.5182588179
 20
24.445331193
 30
0.0
 10
-1.5212966618
 20
24.4454954378
 30
0.0
 10
-1.5244198497
 20
24.4456838312
 30
0.0
 10
-1.5276283835
 20
24.4458963724
 30
0.0
 10
-1.5320780217
 20
24.4462161243
 30
0.0
 10
-1.5378535482
 20
24.4466778848
 30
0.0
 10
-1.5450388495
 20
24.4473215383
 30
0.0
 10
-1.5525656647
 20
24.4480617218
 30
0.0
 10
-1.5576952458
 20
24.4486072091
 30
0.0
 10
-1.5603169945
 20
24.4488954165
 30
0.0
 11
-1.0612748275
 21
24.5783442066
 31
0.0
 11
-1.0695855103
 21
24.5725499964
 31
0.0
 11
-1.0797593655
 21
24.5658124987
 31
0.0
 11
-1.0900808861
 21
24.55926288
 31
0.0
 11
-1.1109346733
 21
24.5467105293
 31
0.0
 11
-1.1320694551
 21
24.5348873608
 31
0.0
 11
-1.1751820023
 21
24.5134285703
 31
0.0
 11
-1.2194185278
 21
24.4948865087
 31
0.0
 11
-1.2647790316
 21
24.4792611759
 31
0.0
 11
-1.3112635137
 21
24.4665525718
 31
0.0
 11
-1.3349272466
 21
24.4612920431
 31
0.0
 11
-1.3588719741
 21
24.4567606966
 31
0.0
 11
-1.3830976962
 21
24.4529585323
 31
0.0
 11
-1.4076044128
 21
24.4498855501
 31
0.0
 11
-1.4199631441
 21
24.4486225024
 31
0.0
 11
-1.432392124
 21
24.4475417502
 31
0.0
 11
-1.4448913526
 21
24.4466432936
 31
0.0
 11
-1.4574608298
 21
24.4459271325
 31
0.0
 11
-1.4637719116
 21
24.4456374128
 31
0.0
 11
-1.4701005556
 21
24.445393267
 31
0.0
 11
-1.4764467618
 21
24.445194695
 31
0.0
 11
-1.4828105301
 21
24.445041697
 31
0.0
 11
-1.4859990001
 21
24.4449822882
 31
0.0
 11
-1.4891918606
 21
24.4449342728
 31
0.0
 11
-1.4923891117
 21
24.4448976509
 31
0.0
 11
-1.4955907533
 21
24.4448724225
 31
0.0
 11
-1.4971932205
 21
24.4448640809
 31
0.0
 11
-1.4979948658
 21
24.4448609782
 31
0.0
 11
-1.4987967854
 21
24.4448585876
 31
0.0
 11
-1.4995989795
 21
24.4448569091
 31
0.0
 11
-1.5000001794
 21
24.4448563369
 31
0.0
 11
-1.5004014479
 21
24.4448559427
 31
0.0
 11
-1.5008027851
 21
24.4448557265
 31
0.0
 11
-1.5011004733
 21
24.4448556813
 31
0.0
 11
-1.5012158334
 21
24.4448557129
 31
0.0
 11
-1.501331381
 21
24.4448557976
 31
0.0
 11
-1.5014857362
 21
24.4448559932
 31
0.0
 11
-1.5016404248
 21
24.4448562831
 31
0.0
 11
-1.5017954467
 21
24.4448566674
 31
0.0
 11
-1.5019508021
 21
24.444857146
 31
0.0
 11
-1.5021064909
 21
24.4448577191
 31
0.0
 11
-1.5024188687
 21
24.4448591484
 31
0.0
 11
-1.50273258
 21
24.4448609552
 31
0.0
 11
-1.503047625
 21
24.4448631396
 31
0.0
 11
-1.5036817157
 21
24.4448686411
 31
0.0
 11
-1.5043211408
 21
24.4448756527
 31
0.0
 11
-1.5049659003
 21
24.4448841745
 31
0.0
 11
-1.5056159942
 21
24.4448942065
 31
0.0
 11
-1.5069321852
 21
24.4449188012
 31
0.0
 11
-1.5082697138
 21
24.4449494366
 31
0.0
 11
-1.5096285799
 21
24.4449861128
 31
0.0
 11
-1.5110087837
 21
24.4450288299
 31
0.0
 11
-1.512410325
 21
24.4450775877
 31
0.0
 11
-1.5152774204
 21
24.4451932256
 31
0.0
 11
-1.5182298661
 21
24.4453330268
 31
0.0
 11
-1.5212676622
 21
24.445496991
 31
0.0
 11
-1.5243908085
 21
24.4456851185
 31
0.0
 11
-1.5275993053
 21
24.4458974091
 31
0.0
 11
-1.5308931523
 21
24.4461338628
 31
0.0
 11
-1.5377368974
 21
24.4466792598
 31
0.0
 11
-1.5449220438
 21
24.4473213095
 31
0.0
 11
-1.5524485916
 21
24.4480600117
 31
0.0
 11
-1.5603169945
 21
24.4488954165
 31
0.0
  0
SPLINE
  5
372
100
AcDbEntity
  8
0
100
AcDbSpline
 62
7
  6
CONTINUOUS
 70
0
 71
3
 72
53
 73
49
 74
47
 42
0.0000001
 43
0.0000001
 44
0.0000000001
 12
-1.036462093
 22
-0.238561986
 32
0.0
 13
-0.2108813288
 23
1.042231868
 33
0.0
 40
0.0
 40
0.0
 40
0.0
 40
0.0
 40
0.0025960676
 40
0.0276279175
 40
0.052944181
 40
0.0657238459
 40
0.0785914205
 40
0.0915522852
 40
0.1046117048
 40
0.1177748262
 40
0.1243969276
 40
0.1310468286
 40
0.1343824041
 40
0.1377251573
 40
0.1393992502
 40
0.1410751655
 40
0.1427153596
 40
0.143422947
 40
0.1441301545
 40
0.1455434326
 40
0.1469552006
 40
0.1497742308
 40
0.1525872992
 40
0.1553944588
 40
0.1609912509
 40
0.1665650496
 40
0.1721162896
 40
0.1776454111
 40
0.1886389714
 40
0.1995494672
 40
0.2211352262
 40
0.2424342563
 40
0.2634784615
 40
0.2843009172
 40
0.3254092096
 40
0.3660511739
 40
0.4065202489
 40
0.447113623
 40
0.4881257824
 40
0.5088829723
 40
0.52985335
 40
0.5511211984
 40
0.5727534839
 40
0.6172926643
 40
0.6638411636
 40
0.7641154943
 40
0.8756785658
 40
1.0
 40
1.0
 40
1.0
 40
1.0
 10
-1.2224018465
 20
22.9807919785
 30
0.0
 10
-1.223298755
 20
22.9805855375
 30
0.0
 10
-1.2328487234
 20
22.9784103932
 30
0.0
 10
-1.2512463703
 20
22.9746871267
 30
0.0
 10
-1.273354721
 20
22.971189295
 30
0.0
 10
-1.2912772366
 20
22.9689246025
 30
0.0
 10
-1.3048874044
 20
22.967488838
 30
0.0
 10
-1.3186226281
 20
22.9663213352
 30
0.0
 10
-1.3324829705
 20
22.9654220615
 30
0.0
 10
-1.3441137522
 20
22.9648972648
 30
0.0
 10
-1.3534794346
 20
22.9646107419
 30
0.0
 10
-1.3593648123
 20
22.9644872943
 30
0.0
 10
-1.3640885751
 20
22.9644219494
 30
0.0
 10
-1.367048988
 20
22.9643950473
 30
0.0
 10
-1.3694212077
 20
22.9643818869
 30
0.0
 10
-1.3711899815
 20
22.9643762557
 30
0.0
 10
-1.3726161848
 20
22.9643749942
 30
0.0
 10
-1.3736990278
 20
22.9643758964
 30
0.0
 10
-1.3747014388
 20
22.9643778139
 30
0.0
 10
-1.3759534422
 20
22.9643822185
 30
0.0
 10
-1.3779539586
 20
22.9643935566
 30
0.0
 10
-1.3804505722
 20
22.9644157655
 30
0.0
 10
-1.3834416221
 20
22.9644553102
 30
0.0
 10
-1.3874169006
 20
22.9645251361
 30
0.0
 10
-1.3923699559
 20
22.9646445198
 30
0.0
 10
-1.3982938895
 20
22.9648394499
 30
0.0
 10
-1.4041919063
 20
22.9650859013
 30
0.0
 10
-1.4120060513
 20
22.9654824193
 30
0.0
 10
-1.4217103503
 20
22.9661061922
 30
0.0
 10
-1.4370736028
 20
22.9673763979
 30
0.0
 10
-1.4560304969
 20
22.9694750658
 30
0.0
 10
-1.4784462503
 20
22.9728279844
 30
0.0
 10
-1.5004483124
 20
22.9770067281
 30
0.0
 10
-1.5291053688
 20
22.9836495857
 30
0.0
 10
-1.5639988759
 20
22.9940219841
 30
0.0
 10
-1.6043819188
 20
23.0098443281
 30
0.0
 10
-1.6430990572
 20
23.0289896533
 30
0.0
 10
-1.6801392118
 20
23.0514553285
 30
0.0
 10
-1.7094980441
 20
23.0728530319
 30
0.0
 10
-1.732086645
 20
23.0915659541
 30
0.0
 10
-1.7487246967
 20
23.1064681451
 30
0.0
 10
-1.7648347155
 20
23.1223877398
 30
0.0
 10
-1.7858022995
 20
23.1452250404
 30
0.0
 10
-1.8107172093
 20
23.176535776
 30
0.0
 10
-1.8482723598
 20
23.2331008096
 30
0.0
 10
-1.8895969521
 20
23.3152232462
 30
0.0
 10
-1.9293866664
 20
23.4277757792
 30
0.0
 10
-1.9491609769
 20
23.5091547797
 30
0.0
 10
-1.9579
 20
23.5523453666
 30
0.0
 11
-1.2224018465
 21
22.9807919785
 31
0.0
 11
-1.2250939336
 21
22.9801788114
 31
0.0
 11
-1.251181446
 21
22.9748927561
 31
0.0
 11
-1.2777697601
 21
22.9706792338
 31
0.0
 11
-1.2912517177
 21
22.9689746725
 31
0.0
 11
-1.3048588757
 21
22.9675382444
 31
0.0
 11
-1.3185912341
 21
22.9663699496
 31
0.0
 11
-1.3324487929
 21
22.965469788
 31
0.0
 11
-1.3464315522
 21
22.9648377596
 31
0.0
 11
-1.3534698819
 21
22.9646222954
 31
0.0
 11
-1.3605395118
 21
22.9644738645
 31
0.0
 11
-1.3640860642
 21
22.9644247866
 31
0.0
 11
-1.3676404417
 21
22.9643924669
 31
0.0
 11
-1.3694205649
 21
22.9643825915
 31
0.0
 11
-1.3712026442
 21
22.9643769056
 31
0.0
 11
-1.3729467479
 21
22.9643753995
 31
0.0
 11
-1.3736991623
 21
22.9643760319
 31
0.0
 11
-1.3744511717
 21
22.9643774694
 31
0.0
 11
-1.3759539749
 21
22.9643827591
 31
0.0
 11
-1.3774551576
 21
22.9643912686
 31
0.0
 11
-1.3804526613
 21
22.9644179472
 31
0.0
 11
-1.3834436826
 21
22.9644575051
 31
0.0
 11
-1.3864282217
 21
22.9645099423
 31
0.0
 11
-1.3923778531
 21
22.9646534546
 31
0.0
 11
-1.3983015553
 21
22.9648484842
 31
0.0
 11
-1.4041993284
 21
22.965095031
 31
0.0
 11
-1.4100711724
 21
22.965393095
 31
0.0
 11
-1.4217370731
 21
22.9661437748
 31
0.0
 11
-1.4332992572
 21
22.9671005236
 31
0.0
 11
-1.4561124761
 21
22.9696322282
 31
0.0
 11
-1.4785108291
 21
22.9729882086
 31
0.0
 11
-1.5004943162
 21
22.9771684649
 31
0.0
 11
-1.5220629374
 21
22.9821729971
 31
0.0
 11
-1.5639555821
 21
22.9946548892
 31
0.0
 11
-1.6041887632
 21
23.0104338849
 31
0.0
 11
-1.6427624808
 21
23.0295099841
 31
0.0
 11
-1.6796767347
 21
23.0518831869
 31
0.0
 11
-1.7149315251
 21
23.0775534933
 31
0.0
 11
-1.7319366214
 21
23.0916250603
 31
0.0
 11
-1.7485223819
 21
23.106529875
 31
0.0
 11
-1.7646116998
 21
23.1224226991
 31
0.0
 11
-1.780176638
 21
23.139359606
 31
0.0
 11
-1.809733375
 21
23.176365668
 31
0.0
 11
-1.8371925929
 21
23.2175480609
 31
0.0
 11
-1.8858184715
 21
23.3124418392
 31
0.0
 11
-1.9260542739
 21
23.4240409412
 31
0.0
 11
-1.9579
 21
23.5523453666
 31
0.0
  0
SPLINE
  5
373
100
AcDbEntity
  8
0
100
AcDbSpline
 62
7
  6
CONTINUOUS
 70
0
 71
3
 72
16
 73
12
 74
10
 42
0.0000001
 43
0.0000001
 44
0.0000000001
 12
-0.1398700731
 22
-0.0976008135
 32
0.0
 13
-0.110418459
 23
-0.1300074755
 33
0.0
 40
0.0
 40
0.0
 40
0.0
 40
0.0
 40
0.0304690348
 40
0.0893062622
 40
0.1480764248
 40
0.177104253
 40
0.2060809062
 40
0.3214975827
 40
0.5502375342
 40
0.7767673548
 40
1.0
 40
1.0
 40
1.0
 40
1.0
 10
-19.3807683489
 20
-2.6290200864
 30
0.0
 10
-19.3821889176
 20
-2.6300113539
 30
0.0
 10
-19.3863424733
 20
-2.6329313325
 30
0.0
 10
-19.3931774455
 20
-2.6378454461
 30
0.0
 10
-19.3998986665
 20
-2.6427801254
 30
0.0
 10
-19.4051009839
 20
-2.6469051313
 30
0.0
 10
-19.4128146089
 20
-2.6530454097
 30
0.0
 10
-19.4291781719
 20
-2.6665487638
 30
0.0
 10
-19.453385124
 20
-2.6881760875
 30
0.0
 10
-19.4807176174
 20
-2.7154221004
 30
0.0
 10
-19.4978142524
 20
-2.7344542359
 30
0.0
 10
-19.5060305873
 20
-2.7441282068
 30
0.0
 11
-19.3807683489
 21
-2.6290200864
 31
0.0
 11
-19.3850194479
 21
-2.6320088941
 31
0.0
 11
-19.3931710607
 21
-2.6378614011
 31
0.0
 11
-19.4012113447
 21
-2.6438468025
 31
0.0
 11
-19.4051022336
 21
-2.6469081337
 31
0.0
 11
-19.408966198
 21
-2.6499893993
 31
0.0
 11
-19.4241528102
 21
-2.6625138056
 31
0.0
 11
-19.4532336566
 21
-2.6885194688
 31
0.0
 11
-19.4805913321
 21
-2.7158009328
 31
0.0
 11
-19.5060305873
 21
-2.7441282068
 31
0.0
  0
SPLINE
  5
374
100
AcDbEntity
  8
0
100
AcDbSpline
 62
7
  6
CONTINUOUS
 70
0
 71
3
 72
10
 73
6
 74
4
 42
0.0000001
 43
0.0000001
 44
0.0000000001
 12
-0.0602182549
 22
-0.0925135625
 32
0.0
 13
-0.0450094246
 23
-0.1008592478
 33
0.0
 40
0.0
 40
0.0
 40
0.0
 40
0.0
 40
0.2569460518
 40
0.9581731035
 40
1.0
 40
1.0
 40
1.0
 40
1.0
 10
-19.5578127253
 20
-2.8136032935
 30
0.0
 10
-19.5629703396
 20
-2.8215269584
 30
0.0
 10
-19.5815931616
 20
-2.851471472
 30
0.0
 10
-19.5985922248
 20
-2.8841432509
 30
0.0
 10
-19.6098191925
 20
-2.9090876895
 30
0.0
 10
-19.6104467273
 20
-2.9104938993
 30
0.0
 11
-19.5578127253
 21
-2.8136032935
 31
0.0
 11
-19.5727903265
 21
-2.8376847968
 31
0.0
 11
-19.6085507991
 21
-2.9062815337
 31
0.0
 11
-19.6104467273
 21
-2.9104938993
 31
0.0
  0
SPLINE
  5
375
100
AcDbEntity
  8
0
100
AcDbSpline
 62
7
  6
CONTINUOUS
 70
0
 71
3
 72
9
 73
5
 74
3
 42
0.0000001
 43
0.0000001
 44
0.0000000001
 12
-0.0704817417
 22
-0.1579388207
 32
0.0
 13
-0.0351344731
 23
-0.1689352675
 33
0.0
 40
0.0
 40
0.0
 40
0.0
 40
0.0
 40
0.9038456965
 40
1.0
 40
1.0
 40
1.0
 40
1.0
 10
-19.6104467273
 20
-2.9104938993
 30
0.0
 10
-19.6316816003
 20
-2.9580780071
 30
0.0
 10
-19.6495543816
 20
-3.0133520567
 30
0.0
 10
-19.6618008074
 20
-3.0695909128
 30
0.0
 10
-19.6629269176
 20
-3.0750055304
 30
0.0
 11
-19.6104467273
 21
-2.9104938993
 31
0.0
 11
-19.659393695
 21
-3.058784617
 31
0.0
 11
-19.6629269176
 21
-3.0750055304
 31
0.0
  0
SPLINE
  5
376
100
AcDbEntity
  8
0
100
AcDbSpline
 62
7
  6
CONTINUOUS
 70
0
 71
3
 72
14
 73
10
 74
8
 42
0.0000001
 43
0.0000001
 44
0.0000000001
 12
-0.0677951123
 22
-0.0574892729
 32
0.0
 13
-0.0608367052
 23
-0.064816574
 33
0.0
 40
0.0
 40
0.0
 40
0.0
 40
0.0
 40
0.0886967462
 40
0.2764881789
 40
0.3705807035
 40
0.4654496332
 40
0.5604778058
 40
0.6552901183
 40
1.0
 40
1.0
 40
1.0
 40
1.0
 10
-19.6693880331
 20
-5.0271162328
 30
0.0
 10
-19.6713924351
 20
-5.0288159366
 30
0.0
 10
-19.6776166357
 20
-5.0341424714
 30
0.0
 10
-19.6858549515
 20
-5.0414020689
 30
0.0
 10
-19.6941516711
 20
-5.0488708671
 30
0.0
 10
-19.7002860284
 20
-5.0546311169
 30
0.0
 10
-19.7063602045
 20
-5.060484961
 30
0.0
 10
-19.7176660608
 20
-5.0715769578
 30
0.0
 10
-19.7267522728
 20
-5.0809107208
 30
0.0
 10
-19.7337426106
 20
-5.0883583587
 30
0.0
 11
-19.6693880331
 21
-5.0271162328
 31
0.0
 11
-19.6753778624
 21
-5.0322426583
 31
0.0
 11
-19.687911786
 21
-5.0432669284
 31
0.0
 11
-19.6941148479
 21
-5.0488769895
 31
0.0
 11
-19.7002699823
 21
-5.0546410369
 31
0.0
 11
-19.7063560366
 21
-5.0604984075
 31
0.0
 11
-19.7123709112
 21
-5.0664014877
 31
0.0
 11
-19.7337426106
 21
-5.0883583587
 31
0.0
  0
SPLINE
  5
377
100
AcDbEntity
  8
0
100
AcDbSpline
 62
7
  6
CONTINUOUS
 70
0
 71
3
 72
70
 73
66
 74
64
 42
0.0000001
 43
0.0000001
 44
0.0000000001
 12
-0.7363923408
 22
-0.784566299
 32
0.0
 13
0.3761540894
 23
-1.0080362085
 33
0.0
 40
0.0
 40
0.0
 40
0.0
 40
0.0
 40
0.002688294
 40
0.0336301225
 40
0.0643972774
 40
0.0950404467
 40
0.156147471
 40
0.2173774886
 40
0.2791415619
 40
0.3418402499
 40
0.3736663433
 40
0.4058678283
 40
0.4384889256
 40
0.4715721734
 40
0.5051583539
 40
0.5221528838
 40
0.5392876073
 40
0.5565671115
 40
0.5739958691
 40
0.5827676511
 40
0.5915783713
 40
0.6004285568
 40
0.6093187277
 40
0.6137789763
 40
0.618249413
 40
0.622730101
 40
0.6249743098
 40
0.6272211048
 40
0.6294704939
 40
0.6305961637
 40
0.6317224849
 40
0.6322858901
 40
0.6328494585
 40
0.633131304
 40
0.6332479587
 40
0.6334522366
 40
0.6335884176
 40
0.6341331071
 40
0.6346777418
 40
0.6352223219
 40
0.6357668473
 40
0.6368557351
 40
0.6390328618
 40
0.6412091313
 40
0.6433845529
 40
0.6455591354
 40
0.647732888
 40
0.6520779376
 40
0.6564197768
 40
0.6650940981
 40
0.6737564563
 40
0.68240744
 40
0.6910476403
 40
0.6996776503
 40
0.7082980652
 40
0.725512351
 40
0.7426954467
 40
0.7598521786
 40
0.7941047447
 40
0.8283102458
 40
0.86250783
 40
0.8967366726
 40
0.9310358416
 40
0.9654441656
 40
1.0
 40
1.0
 40
1.0
 40
1.0
 10
-19.7337426106
 20
-5.0883583587
 30
0.0
 10
-19.7344024903
 20
-5.0890614069
 30
0.0
 10
-19.7426423371
 20
-5.0978706209
 30
0.0
 10
-19.7580561434
 20
-5.1150780911
 30
0.0
 10
-19.7791461009
 20
-5.140629806
 30
0.0
 10
-19.8057177185
 20
-5.1756377729
 30
0.0
 10
-19.8361721336
 20
-5.2213562188
 30
0.0
 10
-19.8681555708
 20
-5.2792029307
 30
0.0
 10
-19.8955495672
 20
-5.3399839351
 30
0.0
 10
-19.914459544
 20
-5.3928155964
 30
0.0
 10
-19.9273020467
 20
-5.4364220197
 30
0.0
 10
-19.9358427565
 20
-5.4700244649
 30
0.0
 10
-19.94324259
 20
-5.5043569337
 30
0.0
 10
-19.9495020359
 20
-5.5394197334
 30
0.0
 10
-19.9537511092
 20
-5.5691292704
 30
0.0
 10
-19.9565862708
 20
-5.593249832
 30
0.0
 10
-19.9584363327
 20
-5.6115950922
 30
0.0
 10
-19.9600016001
 20
-5.6301230323
 30
0.0
 10
-19.9610663425
 20
-5.6456812029
 30
0.0
 10
-19.961776645
 20
-5.6582177727
 30
0.0
 10
-19.9622393559
 20
-5.6676864957
 30
0.0
 10
-19.9626308834
 20
-5.677200914
 30
0.0
 10
-19.9628975346
 20
-5.6851586426
 30
0.0
 10
-19.9630753835
 20
-5.691547521
 30
0.0
 10
-19.9631911264
 20
-5.6963560468
 30
0.0
 10
-19.9632727028
 20
-5.7003703659
 30
0.0
 10
-19.9633290815
 20
-5.7035875159
 30
0.0
 10
-19.9633669414
 20
-5.7060046214
 30
0.0
 10
-19.9633947747
 20
-5.7080206741
 30
0.0
 10
-19.9634148218
 20
-5.7096349422
 30
0.0
 10
-19.9634264196
 20
-5.7106446005
 30
0.0
 10
-19.9634351576
 20
-5.7114526834
 30
0.0
 10
-19.9634403519
 20
-5.7119579218
 30
0.0
 10
-19.9634438494
 20
-5.7123029428
 30
0.0
 10
-19.9634458926
 20
-5.7125191179
 30
0.0
 10
-19.9634452811
 20
-5.7126830611
 30
0.0
 10
-19.9634453933
 20
-5.7130005134
 30
0.0
 10
-19.9634449911
 20
-5.7134400338
 30
0.0
 10
-19.9634443953
 20
-5.7140260231
 30
0.0
 10
-19.9634434374
 20
-5.7146119533
 30
0.0
 10
-19.9634417848
 20
-5.7153930755
 30
0.0
 10
-19.9634378391
 20
-5.7167596968
 30
0.0
 10
-19.9634292256
 20
-5.7187115212
 30
0.0
 10
-19.9634141138
 20
-5.7210529945
 30
0.0
 10
-19.9633942303
 20
-5.7233935198
 30
0.0
 10
-19.9633695744
 20
-5.725733097
 30
0.0
 10
-19.9633303443
 20
-5.7288506811
 30
0.0
 10
-19.9632693821
 20
-5.732745319
 30
0.0
 10
-19.9631464161
 20
-5.7389706103
 30
0.0
 10
-19.9629450305
 20
-5.7467429655
 30
0.0
 10
-19.9626269197
 20
-5.7560579546
 30
0.0
 10
-19.9622324473
 20
-5.7653577782
 30
0.0
 10
-19.9617616134
 20
-5.7746424301
 30
0.0
 10
-19.9612144172
 20
-5.7839119193
 30
0.0
 10
-19.960383438
 20
-5.7962446304
 30
0.0
 10
-19.9591539562
 20
-5.8116244063
 30
0.0
 10
-19.9573723064
 20
-5.8300288266
 30
0.0
 10
-19.9545911419
 20
-5.854472308
 30
0.0
 10
-19.9503500967
 20
-5.8848896474
 30
0.0
 10
-19.9440348601
 20
-5.9211677605
 30
0.0
 10
-19.9364964961
 20
-5.9572031146
 30
0.0
 10
-19.9277350719
 20
-5.9929952647
 30
0.0
 10
-19.9177505856
 20
-6.0285442801
 30
0.0
 10
-19.9065433029
 20
-6.0638494866
 30
0.0
 10
-19.8982769073
 20
-6.0871664605
 30
0.0
 10
-19.8939441345
 20
-6.0987776379
 30
0.0
 11
-19.7337426106
 21
-5.0883583587
 31
0.0
 11
-19.7357186129
 21
-5.0904709039
 31
0.0
 11
-19.7579274397
 21
-5.1152716731
 31
0.0
 11
-19.7789973916
 21
-5.1408037954
 31
0.0
 11
-19.7989284687
 21
-5.1670672706
 31
0.0
 11
-19.8353739981
 21
-5.2217882801
 31
0.0
 11
-19.867264028
 21
-5.2794347017
 31
0.0
 11
-19.8945985584
 21
-5.3400065352
 31
0.0
 11
-19.9173775893
 21
-5.4035037808
 31
0.0
 11
-19.9270587925
 21
-5.4363494331
 31
0.0
 11
-19.9356011207
 21
-5.4699264384
 31
0.0
 11
-19.9430045741
 21
-5.5042347967
 31
0.0
 11
-19.9492691526
 21
-5.539274508
 31
0.0
 11
-19.9543948562
 21
-5.5750455723
 31
0.0
 11
-19.9565306299
 21
-5.5932053618
 31
0.0
 11
-19.9583816849
 21
-5.6115479896
 31
0.0
 11
-19.9599480212
 21
-5.6300734556
 31
0.0
 11
-19.9612296387
 21
-5.6487817599
 31
0.0
 11
-19.961763678
 21
-5.6582044764
 31
0.0
 11
-19.9622265376
 21
-5.6676729024
 31
0.0
 11
-19.9626182175
 21
-5.677187038
 31
0.0
 11
-19.9629387177
 21
-5.6867468832
 31
0.0
 11
-19.9630722754
 21
-5.6915439469
 31
0.0
 11
-19.9631880382
 21
-5.696352438
 31
0.0
 11
-19.9632860061
 21
-5.7011723564
 31
0.0
 11
-19.963328317
 21
-5.7035866009
 31
0.0
 11
-19.9633661791
 21
-5.7060037023
 31
0.0
 11
-19.9633995925
 21
-5.7084236605
 31
0.0
 11
-19.9634146309
 21
-5.7096347109
 31
0.0
 11
-19.9634285572
 21
-5.7108464755
 31
0.0
 11
-19.9634351032
 21
-5.7114526256
 31
0.0
 11
-19.9634413712
 21
-5.7120589543
 31
0.0
 11
-19.963444401
 21
-5.7123621856
 31
0.0
 11
-19.9634453952
 21
-5.7124876942
 31
0.0
 11
-19.9634453695
 21
-5.7127074833
 31
0.0
 11
-19.9634453291
 21
-5.7128540047
 31
0.0
 11
-19.9634449812
 21
-5.7134400533
 31
0.0
 11
-19.9634443349
 21
-5.7140260427
 31
0.0
 11
-19.9634433904
 21
-5.7146119728
 31
0.0
 11
-19.9634421476
 21
-5.7151978436
 31
0.0
 11
-19.9634387673
 21
-5.7163694075
 31
0.0
 11
-19.9634284273
 21
-5.7187118242
 31
0.0
 11
-19.9634133151
 21
-5.7210532927
 31
0.0
 11
-19.9633934306
 21
-5.7233938131
 31
0.0
 11
-19.9633687739
 21
-5.7257333853
 31
0.0
 11
-19.9633393449
 21
-5.7280720094
 31
0.0
 11
-19.96326617
 21
-5.732746413
 31
0.0
 11
-19.963173906
 21
-5.737417024
 31
0.0
 11
-19.9629321107
 21
-5.746746868
 31
0.0
 11
-19.962613959
 21
-5.7560615415
 31
0.0
 11
-19.9622194508
 21
-5.7653610444
 31
0.0
 11
-19.9617485863
 21
-5.7746453767
 31
0.0
 11
-19.9612013654
 21
-5.7839145385
 31
0.0
 11
-19.9605777881
 21
-5.7931685297
 31
0.0
 11
-19.9591015641
 21
-5.8116310004
 31
0.0
 11
-19.9573199146
 21
-5.8300327889
 31
0.0
 11
-19.9552328394
 21
-5.848373895
 31
0.0
 11
-19.9501424121
 21
-5.8848740606
 31
0.0
 11
-19.9438302823
 21
-5.9211314971
 31
0.0
 11
-19.9362964499
 21
-5.9571462046
 31
0.0
 11
-19.927540915
 21
-5.992918183
 31
0.0
 11
-19.9175636775
 21
-6.0284474324
 31
0.0
 11
-19.9063647375
 21
-6.0637339527
 31
0.0
 11
-19.8939441345
 21
-6.0987776379
 31
0.0
  0
SPLINE
  5
378
100
AcDbEntity
  8
ASSI
100
AcDbSpline
 62
7
  6
CONTINUOUS
 70
0
 71
3
 72
16
 73
12
 74
10
 42
0.0000001
 43
0.0000001
 44
0.0000000001
 12
11.7278740979
 22
0.0
 32
0.0
 13
0.0
 23
-11.4728872726
 33
0.0
 40
0.0
 40
0.0
 40
0.0
 40
0.0
 40
0.0016141104
 40
0.0357505856
 40
0.1026382447
 40
0.2000525584
 40
0.3246907729
 40
0.4723150861
 40
0.6379022132
 40
0.8158160045
 40
1.0
 40
1.0
 40
1.0
 40
1.0
 10
33.6159885716
 20
6.6621922282
 30
0.0
 10
33.6222985994
 20
6.6621922282
 30
0.0
 10
33.7620580551
 20
6.6530090893
 30
0.0
 10
33.5836361144
 20
6.0427061936
 30
0.0
 10
33.7606999268
 20
5.4399415234
 30
0.0
 10
33.721280441
 20
4.2621485597
 30
0.0
 10
33.7741693027
 20
2.8770790404
 30
0.0
 10
33.786386242
 20
1.1928772506
 30
0.0
 10
33.8053439315
 20
-0.6821089636
 30
0.0
 10
33.8142771107
 20
-2.7010761036
 30
0.0
 10
33.8166912456
 20
-4.0856205607
 30
0.0
 10
33.8166912456
 20
-4.7899946334
 30
0.0
 11
33.6159885716
 21
6.6621922282
 31
0.0
 11
33.6345070781
 21
6.660948394
 31
0.0
 11
33.6709134655
 21
6.2710002631
 31
0.0
 11
33.7054494515
 21
5.5043832172
 31
0.0
 11
33.7369389546
 21
4.3872034803
 31
0.0
 11
33.7643096374
 21
2.9575052685
 31
0.0
 11
33.7866294242
 21
1.2639752397
 31
0.0
 11
33.8031382415
 21
-0.6357154722
 31
0.0
 11
33.8132739012
 21
-2.6768751785
 31
0.0
 11
33.8166912456
 21
-4.7899946334
 31
0.0
  0
SPLINE
  5
379
100
AcDbEntity
  8
0
100
AcDbSpline
 62
7
  6
CONTINUOUS
 70
0
 71
3
 72
16
 73
12
 74
10
 42
0.0000001
 43
0.0000001
 44
0.0000000001
 12
-11.7278740979
 22
0.0
 32
0.0
 13
0.0
 23
-11.4728872726
 33
0.0
 40
0.0
 40
0.0
 40
0.0
 40
0.0
 40
0.0016141104
 40
0.0357505856
 40
0.1026382447
 40
0.2000525584
 40
0.3246907729
 40
0.4723150861
 40
0.6379022132
 40
0.8158160045
 40
1.0
 40
1.0
 40
1.0
 40
1.0
 10
-33.6159885716
 20
6.6621922282
 30
0.0
 10
-33.6222985994
 20
6.6621922282
 30
0.0
 10
-33.7620580551
 20
6.6530090893
 30
0.0
 10
-33.5836361144
 20
6.0427061936
 30
0.0
 10
-33.7606999268
 20
5.4399415234
 30
0.0
 10
-33.721280441
 20
4.2621485597
 30
0.0
 10
-33.7741693027
 20
2.8770790404
 30
0.0
 10
-33.786386242
 20
1.1928772506
 30
0.0
 10
-33.8053439315
 20
-0.6821089636
 30
0.0
 10
-33.8142771107
 20
-2.7010761036
 30
0.0
 10
-33.8166912456
 20
-4.0856205607
 30
0.0
 10
-33.8166912456
 20
-4.7899946334
 30
0.0
 11
-33.6159885716
 21
6.6621922282
 31
0.0
 11
-33.6345070781
 21
6.660948394
 31
0.0
 11
-33.6709134655
 21
6.2710002631
 31
0.0
 11
-33.7054494515
 21
5.5043832172
 31
0.0
 11
-33.7369389546
 21
4.3872034803
 31
0.0
 11
-33.7643096374
 21
2.9575052685
 31
0.0
 11
-33.7866294242
 21
1.2639752397
 31
0.0
 11
-33.8031382415
 21
-0.6357154722
 31
0.0
 11
-33.8132739012
 21
-2.6768751785
 31
0.0
 11
-33.8166912456
 21
-4.7899946334
 31
0.0
  0
SPLINE
  5
37A
100
AcDbEntity
  8
0
100
AcDbSpline
 62
7
  6
CONTINUOUS
 70
0
 71
3
 72
13
 73
9
 74
7
 42
0.0000001
 43
0.0000001
 44
0.0000000001
 12
-0.6694750092
 22
-0.4425699075
 32
0.0
 13
-0.0162137315
 23
-0.8023727475
 33
0.0
 40
0.0
 40
0.0
 40
0.0
 40
0.0
 40
0.1840530994
 40
0.3571230805
 40
0.5231763455
 40
0.6840293438
 40
0.8426869342
 40
1.0
 40
1.0
 40
1.0
 40
1.0
 10
-33.0
 20
-34.1899946334
 30
0.0
 10
-33.0410729835
 20
-34.2171467544
 30
0.0
 10
-33.1162167627
 20
-34.2771196484
 30
0.0
 10
-33.2093886258
 20
-34.3823730679
 30
0.0
 10
-33.2809204227
 20
-34.4960685003
 30
0.0
 10
-33.3322281245
 20
-34.6159691736
 30
0.0
 10
-33.3639489878
 20
-34.7400111652
 30
0.0
 10
-33.3721778623
 20
-34.8245285199
 30
0.0
 10
-33.3730280729
 20
-34.8666030921
 30
0.0
 11
-33.0
 21
-34.1899946334
 31
0.0
 11
-33.1154614836
 21
-34.2821178913
 31
0.0
 11
-33.2075452047
 21
-34.3861006073
 31
0.0
 11
-33.2785094839
 21
-34.4988982811
 31
0.0
 11
-33.3292905113
 21
-34.6175811409
 31
0.0
 11
-33.3608133637
 21
-34.7409458866
 31
0.0
 11
-33.3730280729
 21
-34.8666030921
 31
0.0
  0
SPLINE
  5
37B
100
AcDbEntity
  8
0
100
AcDbSpline
 62
253
  6
CONTINUOUS
 70
0
 71
3
 72
14
 73
10
 74
8
 42
0.0000001
 43
0.0000001
 44
0.0000000001
 12
-0.895981061
 22
-0.4872827509
 32
0.0
 13
0.0005990088
 23
1.0199147916
 33
0.0
 40
0.0
 40
0.0
 40
0.0
 40
0.0
 40
0.0227315002
 40
0.0947835825
 40
0.2145760824
 40
0.375760203
 40
0.5688134736
 40
0.7812993176
 40
1.0
 40
1.0
 40
1.0
 40
1.0
 10
-33.4499217485
 20
-34.9093905694
 30
0.0
 10
-33.4567107463
 20
-34.913082792
 30
0.0
 10
-33.4490553199
 20
-34.8529098823
 30
0.0
 10
-33.4625220146
 20
-34.8078397107
 30
0.0
 10
-33.4598129606
 20
-34.6721217101
 30
0.0
 10
-33.4649563245
 20
-34.5175857281
 30
0.0
 10
-33.4661331564
 20
-34.3225908695
 30
0.0
 10
-33.4676310589
 20
-34.1111122038
 30
0.0
 10
-33.4679066081
 20
-33.9643466537
 30
0.0
 10
-33.4678629402
 20
-33.8899946334
 30
0.0
 11
-33.4499217485
 21
-34.9093905694
 31
0.0
 11
-33.4538212666
 21
-34.886536669
 31
0.0
 11
-33.4576198546
 21
-34.8131479132
 31
0.0
 11
-33.4610766631
 21
-34.6910186613
 31
0.0
 11
-33.4639670552
 21
-34.5266499758
 31
0.0
 11
-33.4661224884
 21
-34.3297638537
 31
0.0
 11
-33.4674317998
 21
-34.1130503161
 31
0.0
 11
-33.4678629402
 21
-33.8899946334
 31
0.0
  0
SPLINE
  5
37C
100
AcDbEntity
  8
0
100
AcDbSpline
 62
253
  6
CONTINUOUS
 70
0
 71
3
 72
14
 73
10
 74
8
 42
0.0000001
 43
0.0000001
 44
0.0000000001
 12
-0.0005992179
 22
1.0199149503
 32
0.0
 13
0.8959913034
 23
-0.4872642498
 33
0.0
 40
0.0
 40
0.0
 40
0.0
 40
0.0
 40
0.2188739895
 40
0.431711115
 40
0.6249571883
 40
0.7859928181
 40
0.9054638983
 40
0.9773063147
 40
1.0
 40
1.0
 40
1.0
 40
1.0
 10
-33.4678629402
 20
-28.6899946334
 30
0.0
 10
-33.467906658
 20
-28.615583682
 30
0.0
 10
-33.4676305884
 20
-28.4686393407
 30
0.0
 10
-33.4661292136
 20
-28.2569189321
 30
0.0
 10
-33.464949155
 20
-28.0617849922
 30
0.0
 10
-33.459804647
 20
-27.9073408049
 30
0.0
 10
-33.462497661
 20
-27.7718922605
 30
0.0
 10
-33.4490703573
 20
-27.7269314578
 30
0.0
 10
-33.45669953
 20
-27.6669127569
 30
0.0
 10
-33.4499217485
 20
-27.6705986974
 30
0.0
 11
-33.4678629402
 21
-28.6899946334
 31
0.0
 11
-33.4674311052
 21
-28.4667621584
 31
0.0
 11
-33.4661180205
 21
-28.2496903261
 31
0.0
 11
-33.4639568348
 21
-28.0526075822
 31
0.0
 11
-33.4610637884
 21
-27.8883903892
 31
0.0
 11
-33.457610445
 21
-27.7665889725
 31
0.0
 11
-33.4538181522
 21
-27.6934140072
 31
0.0
 11
-33.4499217485
 21
-27.6705986974
 31
0.0
  0
SPLINE
  5
37D
100
AcDbEntity
  8
0
100
AcDbSpline
 62
7
  6
CONTINUOUS
 70
0
 71
3
 72
13
 73
9
 74
7
 42
0.0000001
 43
0.0000001
 44
0.0000000001
 12
0.0162137278
 22
-0.8023728307
 32
0.0
 13
0.6694750811
 23
-0.4425699495
 33
0.0
 40
0.0
 40
0.0
 40
0.0
 40
0.0
 40
0.1574205711
 40
0.3161232375
 40
0.4769737906
 40
0.6429918086
 40
0.8160063404
 40
1.0
 40
1.0
 40
1.0
 40
1.0
 10
-33.3730280729
 20
-27.7133861746
 30
0.0
 10
-33.3721772815
 20
-27.7554895044
 30
0.0
 10
-33.3639399311
 20
-27.8400478088
 30
0.0
 10
-33.3321933575
 20
-27.9641250934
 30
0.0
 10
-33.2808673678
 20
-28.0840200968
 30
0.0
 10
-33.2093345069
 20
-28.1976850134
 30
0.0
 10
-33.1161807635
 20
-28.302900087
 30
0.0
 10
-33.0410597234
 20
-28.3628512785
 30
0.0
 10
-33.0
 20
-28.3899946334
 30
0.0
 11
-33.3730280729
 21
-27.7133861746
 31
0.0
 11
-33.3607984293
 21
-27.839128625
 31
0.0
 11
-33.3292510692
 21
-27.9625244584
 31
0.0
 11
-33.2784534733
 21
-28.0811981076
 31
0.0
 11
-33.2074898448
 21
-28.1939627864
 31
0.0
 11
-33.1154268642
 21
-28.297904447
 31
0.0
 11
-33.0
 21
-28.3899946334
 31
0.0
  0
SPLINE
  5
37E
100
AcDbEntity
  8
0
100
AcDbSpline
 62
7
  6
CONTINUOUS
 70
0
 71
3
 72
13
 73
9
 74
7
 42
0.0000001
 43
0.0000001
 44
0.0000000001
 12
-0.4425699075
 22
0.6694750092
 32
0.0
 13
-0.8023727475
 23
0.0162137315
 33
0.0
 40
0.0
 40
0.0
 40
0.0
 40
0.0
 40
0.1840530994
 40
0.3571230805
 40
0.5231763455
 40
0.6840293438
 40
0.8426869342
 40
1.0
 40
1.0
 40
1.0
 40
1.0
 10
-20.4
 20
35.7100053666
 30
0.0
 10
-20.4271521211
 20
35.7510783501
 30
0.0
 10
-20.487125015
 20
35.8262221293
 30
0.0
 10
-20.5923784345
 20
35.9193939924
 30
0.0
 10
-20.7060738669
 20
35.9909257893
 30
0.0
 10
-20.8259745402
 20
36.0422334911
 30
0.0
 10
-20.9500165319
 20
36.0739543544
 30
0.0
 10
-21.0345338865
 20
36.0821832289
 30
0.0
 10
-21.0766084587
 20
36.0830334395
 30
0.0
 11
-20.4
 21
35.7100053666
 31
0.0
 11
-20.4921232579
 21
35.8254668502
 31
0.0
 11
-20.5961059739
 21
35.9175505714
 31
0.0
 11
-20.7089036477
 21
35.9885148505
 31
0.0
 11
-20.8275865075
 21
36.0392958779
 31
0.0
 11
-20.9509512533
 21
36.0708187303
 31
0.0
 11
-21.0766084587
 21
36.0830334395
 31
0.0
  0
SPLINE
  5
37F
100
AcDbEntity
  8
0
100
AcDbSpline
 62
253
  6
CONTINUOUS
 70
0
 71
3
 72
14
 73
10
 74
8
 42
0.0000001
 43
0.0000001
 44
0.0000000001
 12
-0.4876097094
 22
0.8958032431
 32
0.0
 13
1.0199148648
 23
-0.0005897124
 33
0.0
 40
0.0
 40
0.0
 40
0.0
 40
0.0
 40
0.0227154308
 40
0.094674596
 40
0.2143228874
 40
0.3754390767
 40
0.5685763019
 40
0.7812174531
 40
1.0
 40
1.0
 40
1.0
 40
1.0
 10
-21.119395936
 20
36.1599271151
 30
0.0
 10
-21.1230880242
 20
36.1667099673
 30
0.0
 10
-21.0629764807
 20
36.1590694044
 30
0.0
 10
-21.0179612513
 20
36.1725151965
 30
0.0
 10
-20.8823607474
 20
36.1698152342
 30
0.0
 10
-20.7278686338
 20
36.1749582648
 30
0.0
 10
-20.5328129982
 20
36.1761367351
 30
0.0
 10
-20.3212262788
 20
36.1776365007
 30
0.0
 10
-20.1743798572
 20
36.1779113131
 30
0.0
 10
-20.1
 20
36.1778683068
 30
0.0
 11
-21.119395936
 21
36.1599271151
 31
0.0
 11
-21.0965584344
 21
36.1638253089
 31
0.0
 11
-21.0232644223
 21
36.16762108
 31
0.0
 11
-20.9012822569
 21
36.1710763029
 31
0.0
 11
-20.7369828755
 21
36.1739678496
 31
0.0
 11
-20.5400111366
 21
36.176125836
 31
0.0
 11
-20.3231391919
 21
36.1774368398
 31
0.0
 11
-20.1
 21
36.1778683068
 31
0.0
  0
SPLINE
  5
380
100
AcDbEntity
  8
0
100
AcDbSpline
 62
253
  6
CONTINUOUS
 70
0
 71
3
 72
14
 73
10
 74
8
 42
0.0000001
 43
0.0000001
 44
0.0000000001
 12
1.0199148525
 22
0.0005874065
 32
0.0
 13
-0.48775557
 23
-0.8957238164
 33
0.0
 40
0.0
 40
0.0
 40
0.0
 40
0.0
 40
0.2187656853
 40
0.4313763711
 40
0.6244961359
 40
0.7856258121
 40
0.9053031771
 40
0.9772810705
 40
1.0
 40
1.0
 40
1.0
 40
1.0
 10
-14.9
 20
36.1778683068
 30
0.0
 10
-14.8256258761
 20
36.1779111416
 30
0.0
 10
-14.6787955683
 20
36.1776366062
 30
0.0
 10
-14.4672307561
 20
36.1761371088
 30
0.0
 10
-14.2721870117
 20
36.1749588179
 30
0.0
 10
-14.1176872301
 20
36.1698162459
 30
0.0
 10
-13.9820608845
 20
36.1725167984
 30
0.0
 10
-13.9370384696
 20
36.1590689812
 30
0.0
 10
-13.8769103025
 20
36.1667104105
 30
0.0
 10
-13.880604064
 20
36.1599271151
 30
0.0
 11
-14.9
 21
36.1778683068
 31
0.0
 11
-14.6768780084
 21
36.1774369054
 31
0.0
 11
-14.4600371372
 21
36.1761262394
 31
0.0
 11
-14.2630832044
 21
36.1739687722
 31
0.0
 11
-14.0987700634
 21
36.171077464
 31
0.0
 11
-13.9767582441
 21
36.167621924
 31
0.0
 11
-13.9034451345
 21
36.163825606
 31
0.0
 11
-13.880604064
 21
36.1599271151
 31
0.0
  0
SPLINE
  5
381
100
AcDbEntity
  8
0
100
AcDbSpline
 62
7
  6
CONTINUOUS
 70
0
 71
3
 72
13
 73
9
 74
7
 42
0.0000001
 43
0.0000001
 44
0.0000000001
 12
-0.8023728305
 22
-0.0162137278
 32
0.0
 13
-0.4425699494
 23
-0.669475081
 33
0.0
 40
0.0
 40
0.0
 40
0.0
 40
0.0
 40
0.1574203525
 40
0.3161229382
 40
0.476973493
 40
0.6429915894
 40
0.8160062121
 40
1.0
 40
1.0
 40
1.0
 40
1.0
 10
-13.9233915413
 20
36.0830334395
 30
0.0
 10
-13.9654948125
 20
36.0821826493
 30
0.0
 10
-14.0500530366
 20
36.0739453159
 30
0.0
 10
-14.1741302513
 20
36.0421987933
 30
0.0
 10
-14.2940252694
 20
35.9908728382
 30
0.0
 10
-14.4076902431
 20
35.9193399808
 30
0.0
 10
-14.5129053927
 20
35.8261862017
 30
0.0
 10
-14.5728566262
 20
35.7510651186
 30
0.0
 10
-14.6
 20
35.7100053666
 30
0.0
 11
-13.9233915413
 21
36.0830334395
 31
0.0
 11
-14.0491338183
 21
36.0708038263
 31
0.0
 11
-14.1725295968
 21
36.0392565132
 31
0.0
 11
-14.2912032618
 21
35.9884589509
 31
0.0
 11
-14.4039680116
 21
35.917495317
 31
0.0
 11
-14.5079097422
 21
35.8254323055
 31
0.0
 11
-14.6
 21
35.7100053666
 31
0.0
  0
SPLINE
  5
382
100
AcDbEntity
  8
0
100
AcDbSpline
 62
7
  6
CONTINUOUS
 70
0
 71
3
 72
13
 73
9
 74
7
 42
0.0000001
 43
0.0000001
 44
0.0000000001
 12
0.6694750094
 22
0.4425699076
 32
0.0
 13
0.0162137315
 23
0.8023727477
 33
0.0
 40
0.0
 40
0.0
 40
0.0
 40
0.0
 40
0.1840529404
 40
0.3571228086
 40
0.523175977
 40
0.6840289734
 40
0.8426866641
 40
1.0
 40
1.0
 40
1.0
 40
1.0
 10
33.0
 20
24.6100053666
 30
0.0
 10
33.041072948
 20
24.6371574642
 30
0.0
 10
33.1162166739
 20
24.697130306
 30
0.0
 10
33.2093884928
 20
24.8023836314
 30
0.0
 10
33.2809202942
 20
24.9160789932
 30
0.0
 10
33.3322280389
 20
25.0359796486
 30
0.0
 10
33.3639489653
 20
25.1600217268
 30
0.0
 10
33.3721778608
 20
25.2445391808
 30
0.0
 10
33.3730280729
 20
25.2866138254
 30
0.0
 11
33.0
 21
24.6100053666
 31
0.0
 11
33.115461391
 21
24.702128536
 31
0.0
 11
33.2075450737
 21
24.806111165
 31
0.0
 11
33.2785093464
 21
24.9189087514
 31
0.0
 11
33.3292904156
 21
25.0375915917
 31
0.0
 11
33.3608133262
 21
25.1609564057
 31
0.0
 11
33.3730280729
 21
25.2866138254
 31
0.0
  0
SPLINE
  5
383
100
AcDbEntity
  8
0
100
AcDbSpline
 62
253
  6
CONTINUOUS
 70
0
 71
3
 72
14
 73
10
 74
8
 42
0.0000001
 43
0.0000001
 44
0.0000000001
 12
0.8958032431
 22
0.4876097094
 32
0.0
 13
-0.0005897124
 23
-1.0199148648
 33
0.0
 40
0.0
 40
0.0
 40
0.0
 40
0.0
 40
0.0227154308
 40
0.094674596
 40
0.2143228874
 40
0.3754390767
 40
0.5685763019
 40
0.7812174531
 40
1.0
 40
1.0
 40
1.0
 40
1.0
 10
33.4499217485
 20
25.3294013026
 30
0.0
 10
33.4567046007
 20
25.3330933908
 30
0.0
 10
33.4490640378
 20
25.2729818473
 30
0.0
 10
33.4625098299
 20
25.2279666179
 30
0.0
 10
33.4598098675
 20
25.092366114
 30
0.0
 10
33.4649528982
 20
24.9378740004
 30
0.0
 10
33.4661313685
 20
24.7428183648
 30
0.0
 10
33.4676311341
 20
24.5312316454
 30
0.0
 10
33.4679059465
 20
24.3843852239
 30
0.0
 10
33.4678629402
 20
24.3100053666
 30
0.0
 11
33.4499217485
 21
25.3294013026
 31
0.0
 11
33.4538199423
 21
25.306563801
 31
0.0
 11
33.4576157134
 21
25.2332697889
 31
0.0
 11
33.4610709363
 21
25.1112876235
 31
0.0
 11
33.463962483
 21
24.9469882421
 31
0.0
 11
33.4661204693
 21
24.7500165033
 31
0.0
 11
33.4674314732
 21
24.5331445585
 31
0.0
 11
33.4678629402
 21
24.3100053666
 31
0.0
  0
SPLINE
  5
384
100
AcDbEntity
  8
0
100
AcDbSpline
 62
253
  6
CONTINUOUS
 70
0
 71
3
 72
14
 73
10
 74
8
 42
0.0000001
 43
0.0000001
 44
0.0000000001
 12
0.0005874065
 22
-1.0199148525
 32
0.0
 13
-0.8957238164
 23
0.48775557
 33
0.0
 40
0.0
 40
0.0
 40
0.0
 40
0.0
 40
0.2187656853
 40
0.4313763711
 40
0.6244961359
 40
0.7856258121
 40
0.9053031771
 40
0.9772810705
 40
1.0
 40
1.0
 40
1.0
 40
1.0
 10
33.4678629402
 20
19.1100053666
 30
0.0
 10
33.467905775
 20
19.0356312427
 30
0.0
 10
33.4676312396
 20
18.8888009349
 30
0.0
 10
33.4661317422
 20
18.6772361227
 30
0.0
 10
33.4649534513
 20
18.4821923783
 30
0.0
 10
33.4598108793
 20
18.3276925967
 30
0.0
 10
33.4625114318
 20
18.1920662512
 30
0.0
 10
33.4490636145
 20
18.1470438362
 30
0.0
 10
33.4567050439
 20
18.0869156691
 30
0.0
 10
33.4499217485
 20
18.0906094306
 30
0.0
 11
33.4678629402
 21
19.1100053666
 31
0.0
 11
33.4674315388
 21
18.886883375
 31
0.0
 11
33.4661208728
 21
18.6700425038
 31
0.0
 11
33.4639634056
 21
18.473088571
 31
0.0
 11
33.4610720974
 21
18.30877543
 31
0.0
 11
33.4576165574
 21
18.1867636107
 31
0.0
 11
33.4538202393
 21
18.1134505011
 31
0.0
 11
33.4499217485
 21
18.0906094306
 31
0.0
  0
SPLINE
  5
385
100
AcDbEntity
  8
0
100
AcDbSpline
 62
7
  6
CONTINUOUS
 70
0
 71
3
 72
13
 73
9
 74
7
 42
0.0000001
 43
0.0000001
 44
0.0000000001
 12
-0.0162137278
 22
0.8023728305
 32
0.0
 13
-0.669475081
 23
0.4425699494
 33
0.0
 40
0.0
 40
0.0
 40
0.0
 40
0.0
 40
0.1574203525
 40
0.3161229382
 40
0.476973493
 40
0.6429915894
 40
0.8160062121
 40
1.0
 40
1.0
 40
1.0
 40
1.0
 10
33.3730280729
 20
18.1333969079
 30
0.0
 10
33.3721772827
 20
18.1755001791
 30
0.0
 10
33.3639399493
 20
18.2600584032
 30
0.0
 10
33.3321934267
 20
18.3841356179
 30
0.0
 10
33.2808674716
 20
18.504030636
 30
0.0
 10
33.2093346142
 20
18.6176956097
 30
0.0
 10
33.1161808351
 20
18.7229107593
 30
0.0
 10
33.041059752
 20
18.7828619928
 30
0.0
 10
33.0
 20
18.8100053666
 30
0.0
 11
33.3730280729
 21
18.1333969079
 31
0.0
 11
33.3607984597
 21
18.2591391849
 31
0.0
 11
33.3292511465
 21
18.3825349634
 31
0.0
 11
33.2784535843
 21
18.5012086285
 31
0.0
 11
33.2074899504
 21
18.6139733782
 31
0.0
 11
33.1154269389
 21
18.7179151089
 31
0.0
 11
33.0
 21
18.8100053666
 31
0.0
  0
SPLINE
  5
386
100
AcDbEntity
  8
0
100
AcDbSpline
 62
7
  6
CONTINUOUS
 70
0
 71
3
 72
13
 73
9
 74
7
 42
0.0000001
 43
0.0000001
 44
0.0000000001
 12
0.4425699075
 22
-0.6694750092
 32
0.0
 13
0.8023727475
 23
-0.0162137315
 33
0.0
 40
0.0
 40
0.0
 40
0.0
 40
0.0
 40
0.1840530994
 40
0.3571230805
 40
0.5231763455
 40
0.6840293438
 40
0.8426869342
 40
1.0
 40
1.0
 40
1.0
 40
1.0
 10
20.4
 20
-45.2899946334
 30
0.0
 10
20.4271521211
 20
-45.3310676169
 30
0.0
 10
20.487125015
 20
-45.4062113961
 30
0.0
 10
20.5923784345
 20
-45.4993832592
 30
0.0
 10
20.7060738669
 20
-45.5709150561
 30
0.0
 10
20.8259745402
 20
-45.6222227579
 30
0.0
 10
20.9500165319
 20
-45.6539436211
 30
0.0
 10
21.0345338865
 20
-45.6621724957
 30
0.0
 10
21.0766084587
 20
-45.6630227063
 30
0.0
 11
20.4
 21
-45.2899946334
 31
0.0
 11
20.4921232579
 21
-45.405456117
 31
0.0
 11
20.5961059739
 21
-45.4975398381
 31
0.0
 11
20.7089036477
 21
-45.5685041173
 31
0.0
 11
20.8275865075
 21
-45.6192851447
 31
0.0
 11
20.9509512533
 21
-45.6508079971
 31
0.0
 11
21.0766084587
 21
-45.6630227063
 31
0.0
  0
SPLINE
  5
387
100
AcDbEntity
  8
0
100
AcDbSpline
 62
253
  6
CONTINUOUS
 70
0
 71
3
 72
14
 73
10
 74
8
 42
0.0000001
 43
0.0000001
 44
0.0000000001
 12
0.4876097094
 22
-0.8958032431
 32
0.0
 13
-1.0199148648
 23
0.0005897124
 33
0.0
 40
0.0
 40
0.0
 40
0.0
 40
0.0
 40
0.0227154308
 40
0.094674596
 40
0.2143228874
 40
0.3754390767
 40
0.5685763019
 40
0.7812174531
 40
1.0
 40
1.0
 40
1.0
 40
1.0
 10
21.119395936
 20
-45.7399163818
 30
0.0
 10
21.1230880242
 20
-45.746699234
 30
0.0
 10
21.0629764807
 20
-45.7390586712
 30
0.0
 10
21.0179612513
 20
-45.7525044633
 30
0.0
 10
20.8823607474
 20
-45.7498045009
 30
0.0
 10
20.7278686338
 20
-45.7549475316
 30
0.0
 10
20.5328129982
 20
-45.7561260019
 30
0.0
 10
20.3212262788
 20
-45.7576257675
 30
0.0
 10
20.1743798572
 20
-45.7579005799
 30
0.0
 10
20.1
 20
-45.7578575736
 30
0.0
 11
21.119395936
 21
-45.7399163818
 31
0.0
 11
21.0965584344
 21
-45.7438145757
 31
0.0
 11
21.0232644223
 21
-45.7476103468
 31
0.0
 11
20.9012822569
 21
-45.7510655697
 31
0.0
 11
20.7369828755
 21
-45.7539571164
 31
0.0
 11
20.5400111366
 21
-45.7561151027
 31
0.0
 11
20.3231391919
 21
-45.7574261066
 31
0.0
 11
20.1
 21
-45.7578575736
 31
0.0
  0
SPLINE
  5
388
100
AcDbEntity
  8
0
100
AcDbSpline
 62
253
  6
CONTINUOUS
 70
0
 71
3
 72
14
 73
10
 74
8
 42
0.0000001
 43
0.0000001
 44
0.0000000001
 12
-1.0199148525
 22
-0.0005874065
 32
0.0
 13
0.48775557
 23
0.8957238164
 33
0.0
 40
0.0
 40
0.0
 40
0.0
 40
0.0
 40
0.2187656853
 40
0.4313763711
 40
0.6244961359
 40
0.7856258121
 40
0.9053031771
 40
0.9772810705
 40
1.0
 40
1.0
 40
1.0
 40
1.0
 10
14.9
 20
-45.7578575736
 30
0.0
 10
14.8256258761
 20
-45.7579004084
 30
0.0
 10
14.6787955683
 20
-45.757625873
 30
0.0
 10
14.4672307561
 20
-45.7561263756
 30
0.0
 10
14.2721870117
 20
-45.7549480847
 30
0.0
 10
14.1176872301
 20
-45.7498055127
 30
0.0
 10
13.9820608845
 20
-45.7525060652
 30
0.0
 10
13.9370384696
 20
-45.7390582479
 30
0.0
 10
13.8769103025
 20
-45.7466996772
 30
0.0
 10
13.880604064
 20
-45.7399163818
 30
0.0
 11
14.9
 21
-45.7578575736
 31
0.0
 11
14.6768780084
 21
-45.7574261722
 31
0.0
 11
14.4600371372
 21
-45.7561155062
 31
0.0
 11
14.2630832044
 21
-45.753958039
 31
0.0
 11
14.0987700634
 21
-45.7510667307
 31
0.0
 11
13.9767582441
 21
-45.7476111908
 31
0.0
 11
13.9034451345
 21
-45.7438148727
 31
0.0
 11
13.880604064
 21
-45.7399163818
 31
0.0
  0
SPLINE
  5
389
100
AcDbEntity
  8
0
100
AcDbSpline
 62
7
  6
CONTINUOUS
 70
0
 71
3
 72
16
 73
12
 74
10
 42
0.0000001
 43
0.0000001
 44
0.0000000001
 12
0.0
 22
-11.7278740979
 32
0.0
 13
-11.4728872726
 23
0.0
 33
0.0
 40
0.0
 40
0.0
 40
0.0
 40
0.0
 40
0.0016141104
 40
0.0357505856
 40
0.1026382447
 40
0.2000525584
 40
0.3246907729
 40
0.4723150861
 40
0.6379022132
 40
0.8158160045
 40
1.0
 40
1.0
 40
1.0
 40
1.0
 10
11.4521868615
 20
-45.905983205
 30
0.0
 10
11.4521868615
 20
-45.9122932328
 30
0.0
 10
11.4430037227
 20
-46.0520526885
 30
0.0
 10
10.832700827
 20
-45.8736307478
 30
0.0
 10
10.2299361568
 20
-46.0506945602
 30
0.0
 10
9.0521431931
 20
-46.0112750743
 30
0.0
 10
7.6670736738
 20
-46.064163936
 30
0.0
 10
5.9828718839
 20
-46.0763808754
 30
0.0
 10
4.1078856698
 20
-46.0953385649
 30
0.0
 10
2.0889185298
 20
-46.1042717441
 30
0.0
 10
0.7043740727
 20
-46.106685879
 30
0.0
 10
-0.0
 20
-46.106685879
 30
0.0
 11
11.4521868615
 21
-45.905983205
 31
0.0
 11
11.4509430274
 21
-45.9245017114
 31
0.0
 11
11.0609948965
 21
-45.9609080989
 31
0.0
 11
10.2943778506
 21
-45.9954440849
 31
0.0
 11
9.1771981137
 21
-46.026933588
 31
0.0
 11
7.7474999019
 21
-46.0543042708
 31
0.0
 11
6.0539698731
 21
-46.0766240576
 31
0.0
 11
4.1542791612
 21
-46.0931328749
 31
0.0
 11
2.1131194549
 21
-46.1032685346
 31
0.0
 11
-0.0
 21
-46.106685879
 31
0.0
  0
SPLINE
  5
38A
100
AcDbEntity
  8
0
100
AcDbSpline
 62
7
  6
CONTINUOUS
 70
0
 71
3
 72
13
 73
9
 74
7
 42
0.0000001
 43
0.0000001
 44
0.0000000001
 12
0.8023728305
 22
0.0162137278
 32
0.0
 13
0.4425699494
 23
0.669475081
 33
0.0
 40
0.0
 40
0.0
 40
0.0
 40
0.0
 40
0.1574203525
 40
0.3161229382
 40
0.476973493
 40
0.6429915894
 40
0.8160062121
 40
1.0
 40
1.0
 40
1.0
 40
1.0
 10
13.9233915413
 20
-45.6630227063
 30
0.0
 10
13.9654948125
 20
-45.662171916
 30
0.0
 10
14.0500530366
 20
-45.6539345826
 30
0.0
 10
14.1741302513
 20
-45.6221880601
 30
0.0
 10
14.2940252694
 20
-45.570862105
 30
0.0
 10
14.4076902431
 20
-45.4993292476
 30
0.0
 10
14.5129053927
 20
-45.4061754685
 30
0.0
 10
14.5728566262
 20
-45.3310543854
 30
0.0
 10
14.6
 20
-45.2899946334
 30
0.0
 11
13.9233915413
 21
-45.6630227063
 31
0.0
 11
14.0491338183
 21
-45.6507930931
 31
0.0
 11
14.1725295968
 21
-45.6192457799
 31
0.0
 11
14.2912032618
 21
-45.5684482177
 31
0.0
 11
14.4039680116
 21
-45.4974845838
 31
0.0
 11
14.5079097422
 21
-45.4054215723
 31
0.0
 11
14.6
 21
-45.2899946334
 31
0.0
  0
SPLINE
  5
38B
100
AcDbEntity
  8
0
100
AcDbSpline
 62
7
  6
CONTINUOUS
 70
0
 71
3
 72
16
 73
12
 74
10
 42
0.0000001
 43
0.0000001
 44
0.0000000001
 12
-11.4728872726
 22
0.0
 32
0.0
 13
0.0
 23
11.7278740979
 33
0.0
 40
0.0
 40
0.0
 40
0.0
 40
0.0
 40
0.1841839955
 40
0.3620977868
 40
0.5276849139
 40
0.6753092271
 40
0.7999474416
 40
0.8973617553
 40
0.9642494144
 40
0.9983858896
 40
1.0
 40
1.0
 40
1.0
 40
1.0
 10
-0.0
 20
-46.106685879
 30
0.0
 10
-0.7043740727
 20
-46.106685879
 30
0.0
 10
-2.0889185298
 20
-46.1042717441
 30
0.0
 10
-4.1078856698
 20
-46.0953385649
 30
0.0
 10
-5.9828718839
 20
-46.0763808754
 30
0.0
 10
-7.6670736738
 20
-46.064163936
 30
0.0
 10
-9.0521431931
 20
-46.0112750743
 30
0.0
 10
-10.2299361568
 20
-46.0506945602
 30
0.0
 10
-10.832700827
 20
-45.8736307478
 30
0.0
 10
-11.4430037227
 20
-46.0520526885
 30
0.0
 10
-11.4521868615
 20
-45.9122932328
 30
0.0
 10
-11.4521868615
 20
-45.905983205
 30
0.0
 11
-0.0
 21
-46.106685879
 31
0.0
 11
-2.1131194549
 21
-46.1032685346
 31
0.0
 11
-4.1542791612
 21
-46.0931328749
 31
0.0
 11
-6.0539698731
 21
-46.0766240576
 31
0.0
 11
-7.7474999019
 21
-46.0543042708
 31
0.0
 11
-9.1771981137
 21
-46.026933588
 31
0.0
 11
-10.2943778506
 21
-45.9954440849
 31
0.0
 11
-11.0609948965
 21
-45.9609080989
 31
0.0
 11
-11.4509430274
 21
-45.9245017114
 31
0.0
 11
-11.4521868615
 21
-45.905983205
 31
0.0
  0
SPLINE
  5
38C
100
AcDbEntity
  8
0
100
AcDbSpline
 62
7
  6
CONTINUOUS
 70
0
 71
3
 72
16
 73
12
 74
10
 42
0.0000001
 43
0.0000001
 44
0.0000000001
 12
0.0
 22
-11.4728872726
 32
0.0
 13
11.7278740979
 23
0.0
 33
0.0
 40
0.0
 40
0.0
 40
0.0
 40
0.0
 40
0.1841839955
 40
0.3620977868
 40
0.5276849139
 40
0.6753092271
 40
0.7999474416
 40
0.8973617553
 40
0.9642494144
 40
0.9983858896
 40
1.0
 40
1.0
 40
1.0
 40
1.0
 10
-33.8166912456
 20
-4.7899946334
 30
0.0
 10
-33.8166912456
 20
-5.4943687061
 30
0.0
 10
-33.8142771107
 20
-6.8789131632
 30
0.0
 10
-33.8053439315
 20
-8.8978803032
 30
0.0
 10
-33.786386242
 20
-10.7728665173
 30
0.0
 10
-33.7741693027
 20
-12.4570683071
 30
0.0
 10
-33.721280441
 20
-13.8421378265
 30
0.0
 10
-33.7606999268
 20
-15.0199307902
 30
0.0
 10
-33.5836361144
 20
-15.6226954604
 30
0.0
 10
-33.7620580551
 20
-16.232998356
 30
0.0
 10
-33.6222985994
 20
-16.2421814949
 30
0.0
 10
-33.6159885716
 20
-16.2421814949
 30
0.0
 11
-33.8166912456
 21
-4.7899946334
 31
0.0
 11
-33.8132739012
 21
-6.9031140883
 31
0.0
 11
-33.8031382415
 21
-8.9442737945
 31
0.0
 11
-33.7866294242
 21
-10.8439645065
 31
0.0
 11
-33.7643096374
 21
-12.5374945353
 31
0.0
 11
-33.7369389546
 21
-13.9671927471
 31
0.0
 11
-33.7054494515
 21
-15.084372484
 31
0.0
 11
-33.6709134655
 21
-15.8509895299
 31
0.0
 11
-33.6345070781
 21
-16.2409376608
 31
0.0
 11
-33.6159885716
 21
-16.2421814949
 31
0.0
  0
SPLINE
  5
38D
100
AcDbEntity
  8
ASSI
100
AcDbSpline
 62
7
  6
CONTINUOUS
 70
0
 71
3
 72
16
 73
12
 74
10
 42
0.0000001
 43
0.0000001
 44
0.0000000001
 12
0.0
 22
-11.4728872726
 32
0.0
 13
-11.7278740979
 23
0.0
 33
0.0
 40
0.0
 40
0.0
 40
0.0
 40
0.0
 40
0.1841839955
 40
0.3620977868
 40
0.5276849139
 40
0.6753092271
 40
0.7999474416
 40
0.8973617553
 40
0.9642494144
 40
0.9983858896
 40
1.0
 40
1.0
 40
1.0
 40
1.0
 10
33.8166912456
 20
-4.7899946334
 30
0.0
 10
33.8166912456
 20
-5.4943687061
 30
0.0
 10
33.8142771107
 20
-6.8789131632
 30
0.0
 10
33.8053439315
 20
-8.8978803032
 30
0.0
 10
33.786386242
 20
-10.7728665173
 30
0.0
 10
33.7741693027
 20
-12.4570683071
 30
0.0
 10
33.721280441
 20
-13.8421378265
 30
0.0
 10
33.7606999268
 20
-15.0199307902
 30
0.0
 10
33.5836361144
 20
-15.6226954604
 30
0.0
 10
33.7620580551
 20
-16.232998356
 30
0.0
 10
33.6222985994
 20
-16.2421814949
 30
0.0
 10
33.6159885716
 20
-16.2421814949
 30
0.0
 11
33.8166912456
 21
-4.7899946334
 31
0.0
 11
33.8132739012
 21
-6.9031140883
 31
0.0
 11
33.8031382415
 21
-8.9442737945
 31
0.0
 11
33.7866294242
 21
-10.8439645065
 31
0.0
 11
33.7643096374
 21
-12.5374945353
 31
0.0
 11
33.7369389546
 21
-13.9671927471
 31
0.0
 11
33.7054494515
 21
-15.084372484
 31
0.0
 11
33.6709134655
 21
-15.8509895299
 31
0.0
 11
33.6345070781
 21
-16.2409376608
 31
0.0
 11
33.6159885716
 21
-16.2421814949
 31
0.0
  0
ENDSEC
  0
SECTION
  2
OBJECTS
  0
DICTIONARY
  5
C
100
AcDbDictionary
280
0
281
1
  3
ACAD_GROUP
350
D
  3
ACAD_MLINESTYLE
350
17
  3
ACAD_LAYOUT
350
1A
  3
ACAD_PLOTSETTINGS
350
19
  3
ACAD_PLOTSTYLENAME
350
E
  0
DICTIONARY
  5
D
102
{ACAD_REACTORS
330
C
102
}
100
AcDbDictionary
280
0
281
1
  0
ACDBDICTIONARYWDFLT
  5
E
102
{ACAD_REACTORS
330
C
102
}
100
AcDbDictionary
281
1
  3
Normal
350
F
100
AcDbDictionaryWithDefault
340
F
  0
DICTIONARY
  5
17
102
{ACAD_REACTORS
330
C
102
}
100
AcDbDictionary
280
0
281
1
  3
Standard
350
18
  0
DICTIONARY
  5
19
102
{ACAD_REACTORS
330
C
102
}
100
AcDbDictionary
281
1
  0
DICTIONARY
  5
1A
102
{ACAD_REACTORS
330
C
102
}
100
AcDbDictionary
281
1
  3
Model
350
38E
  3
Layout1
350
38F
  0
ACDBPLACEHOLDER
  5
F
102
{ACAD_REACTORS
330
E
102
}
  0
MLINESTYLE
  5
18
102
{ACAD_REACTORS
330
17
102
}
100
AcDbMlineStyle
  2
STANDARD
 70
0
  3

 62
256
 51
90.0
 52
90.0
 71
2
 49
0.5
 62
256
  6
BYLAYER
 49
-0.5
 62
256
  6
BYLAYER
  0
LAYOUT
  5
38E
102
{ACAD_REACTORS
330
1A
102
}
100
AcDbPlotSettings
  1

  2
none_device
  4
ISO_A4_(297.00_x_210.00_MM)
  6

 40
0.0
 41
0.0
 42
0.0
 43
0.0
 44
297.0
 45
210.0
 46
0.0
 47
0.0
 48
0.0
 49
0.0
140
0.0
141
0.0
142
1.0
143
1.0
 70
1024
 72
1
 73
0
 74
0
  7

 75
0
147
1.0
148
0.0
149
0.0
100
AcDbLayout
  1
Model
 70
0
 71
0
 10
0.0
 20
0.0
 11
297.0
 21
210.0
 12
0.0
 22
0.0
 32
0.0
 14
0.0
 24
0.0
 34
0.0
 15
0.0
 25
0.0
 35
0.0
146
0.0
 13
0.0
 23
0.0
 33
0.0
 16
1.0
 26
0.0
 36
0.0
 17
0.0
 27
1.0
 37
0.0
 76
0
330
215
345
0
346
0
  0
LAYOUT
  5
38F
102
{ACAD_REACTORS
330
1A
102
}
100
AcDbPlotSettings
  1

  2
none_device
  4
ISO_A4_(297.00_x_210.00_MM)
  6

 40
0.0
 41
0.0
 42
0.0
 43
0.0
 44
297.0
 45
210.0
 46
0.0
 47
0.0
 48
0.0
 49
0.0
140
0.0
141
0.0
142
1.0
143
1.0
 70
0
 72
1
 73
0
 74
0
  7

 75
0
147
1.0
148
0.0
149
0.0
100
AcDbLayout
  1
Layout1
 70
0
 71
1
 10
0.0
 20
0.0
 11
297.0
 21
210.0
 12
0.0
 22
0.0
 32
0.0
 14
0.0
 24
0.0
 34
0.0
 15
0.0
 25
0.0
 35
0.0
146
0.0
 13
0.0
 23
0.0
 33
0.0
 16
1.0
 26
0.0
 36
0.0
 17
0.0
 27
1.0
 37
0.0
 76
0
330
216
345
0
346
0
  0
ENDSEC
  0
EOF
