  0
SECTION
  2
HEADER
  9
$ACADVER
  1
AC1015
  9
$DWGCODEPAGE
  3
ANSI_1252
  9
$EXTMAX
 10
297.0
 20
210.0
 30
0.0
  9
$EXTMIN
 10
0.0
 20
0.0
 30
0.0
  9
$LIMMIN
 10
0.0
 20
0.0
  9
$LIMMAX
 10
297.0
 20
210.0
  9
$VIEWCTR
 10
148.5
 20
105.0
  9
$VIEWSIZE
 40
210.0
  9
$CLAYER
  8
0
  9
$LTSCALE
 40
16.335
  9
$CELTYPE
  6
BYLAYER
  9
$DIMSCALE
 40
1.0
  9
$DIMASZ
 40
3.0
  9
$DIMEXO
 40
1.85625
  9
$DIMDLI
 40
11.286
  9
$DIMEXE
 40
5.346
  9
$DIMCEN
 40
2.673
  9
$DIMLFAC
 40
1.0
  9
$DIMBLK
  1
_FILLED
  9
$DIMTXT
 40
3.0
  9
$DIMTOL
 70
1
  9
$DIMLIM
 70
0
  9
$DIMTFAC
 40
1.0
  9
$DIMTP
 40
0.01
  9
$DIMTM
 40
0.01
  9
$PDMODE
 70
3
  9
$PDSIZE
 40
3.0
  9
$HANDSEED
  5
38F
  9
$TILEMODE
 70
1
  9
$MEASUREMENT
 70
1
  9
$INSUNITS
 70
4
  0
ENDSEC
  0
SECTION
  2
CLASSES
  0
CLASS
  1
ACDBDICTIONARYWDFLT
  2
AcDbDictionaryWithDefault
  3
AutoCAD 2000
 90
0
280
0
281
0
  0
CLASS
  1
ACDBPLACEHOLDER
  2
AcDbPlaceHolder
  3
AutoCAD 2000
 90
0
280
0
281
0
  0
CLASS
  1
LAYOUT
  2
AcDbLayout
  3
AutoCAD 2000
 90
0
280
0
281
0
  0
ENDSEC
  0
SECTION
  2
TABLES
  0
TABLE
  2
VPORT
  5
8
100
AcDbSymbolTable
 70
2
  0
VPORT
  5
1F4
100
AcDbSymbolTableRecord
100
AcDbViewportTableRecord
  2
*ACTIVE
 70
0
 10
0.0
 20
0.0
 11
1.0
 21
1.0
 12
148.5
 22
105.0
 13
0.0
 23
0.0
 14
1.0
 24
1.0
 15
0.0
 25
0.0
 16
0.0
 26
0.0
 36
1.0
 17
0.0
 27
0.0
 37
0.0
 40
210.0
 41
1.4142857143
 42
50.0
 43
0.0
 44
0.0
 50
0.0
 51
0.0
 71
0
 72
100
 73
1
 74
1
 75
0
 76
0
 77
0
 78
0
  0
ENDTAB
  0
TABLE
  2
LTYPE
  5
5
100
AcDbSymbolTable
 70
6
  0
LTYPE
  5
14
100
AcDbSymbolTableRecord
100
AcDbLinetypeTableRecord
  2
BYBLOCK
 70
0
  3

 72
65
 73
0
 40
0.0
  0
LTYPE
  5
15
100
AcDbSymbolTableRecord
100
AcDbLinetypeTableRecord
  2
BYLAYER
 70
0
  3

 72
65
 73
0
 40
0.0
  0
LTYPE
  5
16
100
AcDbSymbolTableRecord
100
AcDbLinetypeTableRecord
  2
CONTINUOUS
 70
64
  3
Solid line
 72
65
 73
0
 40
0.0
  0
LTYPE
  5
1F5
100
AcDbSymbolTableRecord
100
AcDbLinetypeTableRecord
  2
CENTER
 70
64
  3
____ _ ____ _ ____ _ ____ _ ____ _ ____ _ ____
 72
65
 73
4
 40
0.6
 49
0.375
 74
0
 49
-0.075
 74
0
 49
0.075
 74
0
 49
-0.075
 74
0
  0
LTYPE
  5
1F6
100
AcDbSymbolTableRecord
100
AcDbLinetypeTableRecord
  2
HIDDEN
 70
64
  3
- - - - - - - - - - - - - - - - - - - -
 72
65
 73
2
 40
0.2
 49
0.1
 74
0
 49
-0.1
 74
0
  0
LTYPE
  5
1F7
100
AcDbSymbolTableRecord
100
AcDbLinetypeTableRecord
  2
PHANTOM
 70
64
  3
_____ _ _ _____ _ _ _____ _ _ _____
 72
65
 73
6
 40
0.8
 49
0.45
 74
0
 49
-0.05
 74
0
 49
0.1
 74
0
 49
-0.05
 74
0
 49
0.1
 74
0
 49
-0.05
 74
0
  0
LTYPE
  5
1F8
100
AcDbSymbolTableRecord
100
AcDbLinetypeTableRecord
  2
DOT
 70
64
  3
. . . . . . . . . . . . . . . . . . . .
 72
65
 73
2
 40
0.2
 49
0.1
 74
0
 49
-0.1
 74
0
  0
LTYPE
  5
1F9
100
AcDbSymbolTableRecord
100
AcDbLinetypeTableRecord
  2
DASHED
 70
64
  3
- - - - - - - - - - - - - - - - - - - -
 72
65
 73
2
 40
0.2
 49
0.1
 74
0
 49
-0.1
 74
0
  0
ENDTAB
  0
TABLE
  2
LAYER
  5
2
100
AcDbSymbolTable
 70
36
  0
LAYER
  5
10
100
AcDbSymbolTableRecord
100
AcDbLayerTableRecord
  2
0
 70
0
 62
7
  6
CONTINUOUS
370
-3
390
F
  0
LAYER
  5
1FA
100
AcDbSymbolTableRecord
100
AcDbLayerTableRecord
  2
DEFAULT_1
 70
0
 62
7
  6
CENTER
370
-3
390
F
  0
LAYER
  5
1FB
100
AcDbSymbolTableRecord
100
AcDbLayerTableRecord
  2
DEFAULT_2
 70
0
 62
7
  6
HIDDEN
370
-3
390
F
  0
LAYER
  5
1FC
100
AcDbSymbolTableRecord
100
AcDbLayerTableRecord
  2
DEFAULT_3
 70
0
 62
7
  6
PHANTOM
370
-3
390
F
  0
LAYER
  5
1FD
100
AcDbSymbolTableRecord
100
AcDbLayerTableRecord
  2
ASSI
 70
0
 62
7
  6
CONTINUOUS
370
-3
390
F
  0
LAYER
  5
1FE
100
AcDbSymbolTableRecord
100
AcDbLayerTableRecord
  2
COLOR5
 70
0
 62
7
  6
CONTINUOUS
370
-3
390
F
  0
LAYER
  5
1FF
100
AcDbSymbolTableRecord
100
AcDbLayerTableRecord
  2
COORDINATE
 70
0
 62
7
  6
CONTINUOUS
370
-3
390
F
  0
LAYER
  5
200
100
AcDbSymbolTableRecord
100
AcDbLayerTableRecord
  2
COORD_ORIGINE
 70
0
 62
7
  6
CONTINUOUS
370
-3
390
F
  0
LAYER
  5
201
100
AcDbSymbolTableRecord
100
AcDbLayerTableRecord
  2
COPY_GEOMETRY
 70
0
 62
7
  6
CONTINUOUS
370
-3
390
F
  0
LAYER
  5
202
100
AcDbSymbolTableRecord
100
AcDbLayerTableRecord
  2
CURVE
 70
0
 62
7
  6
CONTINUOUS
370
-3
390
F
  0
LAYER
  5
203
100
AcDbSymbolTableRecord
100
AcDbLayerTableRecord
  2
DRAFT
 70
0
 62
7
  6
CONTINUOUS
370
-3
390
F
  0
LAYER
  5
204
100
AcDbSymbolTableRecord
100
AcDbLayerTableRecord
  2
IGES_SCRITTE
 70
0
 62
7
  6
CONTINUOUS
370
-3
390
F
  0
LAYER
  5
205
100
AcDbSymbolTableRecord
100
AcDbLayerTableRecord
  2
IMPORT_IGES
 70
0
 62
7
  6
CONTINUOUS
370
-3
390
F
  0
LAYER
  5
206
100
AcDbSymbolTableRecord
100
AcDbLayerTableRecord
  2
NOTE
 70
0
 62
7
  6
CONTINUOUS
370
-3
390
F
  0
LAYER
  5
207
100
AcDbSymbolTableRecord
100
AcDbLayerTableRecord
  2
PIANI
 70
0
 62
7
  6
CONTINUOUS
370
-3
390
F
  0
LAYER
  5
208
100
AcDbSymbolTableRecord
100
AcDbLayerTableRecord
  2
PIANI_COPIE_AGGANCI
 70
0
 62
7
  6
CONTINUOUS
370
-3
390
F
  0
LAYER
  5
209
100
AcDbSymbolTableRecord
100
AcDbLayerTableRecord
  2
PIANI_ORIGINE
 70
0
 62
7
  6
CONTINUOUS
370
-3
390
F
  0
LAYER
  5
20A
100
AcDbSymbolTableRecord
100
AcDbLayerTableRecord
  2
PUNTI
 70
0
 62
7
  6
CONTINUOUS
370
-3
390
F
  0
LAYER
  5
20B
100
AcDbSymbolTableRecord
100
AcDbLayerTableRecord
  2
RACCORDO
 70
0
 62
7
  6
CONTINUOUS
370
-3
390
F
  0
LAYER
  5
20C
100
AcDbSymbolTableRecord
100
AcDbLayerTableRecord
  2
SKELETON
 70
0
 62
7
  6
CONTINUOUS
370
-3
390
F
  0
LAYER
  5
20D
100
AcDbSymbolTableRecord
100
AcDbLayerTableRecord
  2
SMUSSO
 70
0
 62
7
  6
CONTINUOUS
370
-3
390
F
  0
LAYER
  5
20E
100
AcDbSymbolTableRecord
100
AcDbLayerTableRecord
  2
SNAPLINE
 70
0
 62
7
  6
CONTINUOUS
370
-3
390
F
  0
LAYER
  5
20F
100
AcDbSymbolTableRecord
100
AcDbLayerTableRecord
  2
SUPERFICI
 70
0
 62
7
  6
CONTINUOUS
370
-3
390
F
  0
LAYER
  5
210
100
AcDbSymbolTableRecord
100
AcDbLayerTableRecord
  2
TRASH
 70
0
 62
7
  6
CONTINUOUS
370
-3
390
F
  0
LAYER
  5
211
100
AcDbSymbolTableRecord
100
AcDbLayerTableRecord
  2
XSEC_DATUMS
 70
0
 62
7
  6
CONTINUOUS
370
-3
390
F
  0
ENDTAB
  0
TABLE
  2
STYLE
  5
3
100
AcDbSymbolTable
 70
1
  0
STYLE
  5
11
100
AcDbSymbolTableRecord
100
AcDbTextStyleTableRecord
  2
STANDARD
 70
0
 40
0.0
 41
0.8
 50
0.0
 71
0
 42
0.2
  3
txt
  4

  0
STYLE
  5
212
100
AcDbSymbolTableRecord
100
AcDbTextStyleTableRecord
  2
TEXTSTYLE_1
 70
0
 40
0.0
 41
0.8
 50
0.0
 71
0
 42
0.2
  3
gdt
  4

  0
ENDTAB
  0
TABLE
  2
VIEW
  5
6
100
AcDbSymbolTable
 70
0
  0
ENDTAB
  0
TABLE
  2
UCS
  5
7
100
AcDbSymbolTable
 70
0
  0
ENDTAB
  0
TABLE
  2
APPID
  5
9
100
AcDbSymbolTable
 70
1
  0
APPID
  5
213
100
AcDbSymbolTableRecord
100
AcDbRegAppTableRecord
  2
ACAD
 70
0
  0
ENDTAB
  0
TABLE
  2
BLOCK_RECORD
  5
1
100
AcDbSymbolTable
 70
0
  0
BLOCK_RECORD
  5
214
100
AcDbSymbolTableRecord
100
AcDbBlockTableRecord
  2
*Model_Space
  0
BLOCK_RECORD
  5
215
100
AcDbSymbolTableRecord
100
AcDbBlockTableRecord
  2
*Paper_Space
  0
ENDTAB
  0
TABLE
  2
DIMSTYLE
  5
A
100
AcDbSymbolTable
 70
1
100
AcDbDimStyleTable
 71
0
  0
DIMSTYLE
105
216
100
AcDbSymbolTableRecord
100
AcDbDimStyleTableRecord
  2
STANDARD
 70
0
  3

  4

 40
1.0
 41
3.0
 42
0.0625
 43
0.38
 44
0.18
 45
0.0
 46
0.0
 47
0.01
 48
0.01
140
3.0
141
0.09
142
0.0
143
25.4
144
1.0
145
0.0
146
1.0
147
0.09
 71
1.0
 72
0.0
 73
0
 74
0
 75
0
 76
0
 77
1
 78
8
170
0
171
2
172
0
173
0
174
0
175
0
176
0
177
0
178
0
270
2
271
2
272
2
273
2
274
2
275
0
280
0
281
0
282
0
283
1
284
8
285
0
286
0
287
3
288
0
340
11
  0
ENDTAB
  0
ENDSEC
  0
SECTION
  2
BLOCKS
  0
BLOCK
  5
20
100
AcDbEntity
  8
0
100
AcDbBlockBegin
  2
*Model_Space
 70
0
 10
0.0
 20
0.0
 30
0.0
  3
*Model_Space
  1

  0
ENDBLK
  5
21
100
AcDbEntity
  8
0
100
AcDbBlockEnd
  0
BLOCK
  5
1C
100
AcDbEntity
  8
0
100
AcDbBlockBegin
  2
*Paper_Space
 70
0
 10
0.0
 20
0.0
 30
0.0
  3
*Paper_Space
  1

  0
ENDBLK
  5
1D
100
AcDbEntity
  8
0
100
AcDbBlockEnd
  0
ENDSEC
  0
SECTION
  2
ENTITIES
  0
LINE
  5
217
100
AcDbEntity
  8
DRAFT
100
AcDbLine
 62
7
  6
CONTINUOUS
 10
-26.5
 20
-44.2899946264
 11
-26.2242099741
 21
-44.5657846522
  0
LINE
  5
218
100
AcDbEntity
  8
DRAFT
100
AcDbLine
 62
7
  6
CONTINUOUS
 10
-32.0
 20
-38.7899946264
 11
-32.2757899725
 21
-38.5142046539
  0
LINE
  5
219
100
AcDbEntity
  8
SUPERFICI
100
AcDbLine
 62
7
  6
CONTINUOUS
 10
27.9999663226
 20
-46.2900053736
 11
-27.9999989492
 21
-46.2900021601
  0
LINE
  5
21A
100
AcDbEntity
  8
DRAFT
100
AcDbLine
 62
7
  6
CONTINUOUS
 10
-28.0
 20
-46.2899946264
 11
28.0
 21
-46.2899946264
  0
LINE
  5
21B
100
AcDbEntity
  8
0
100
AcDbLine
 62
253
  6
CONTINUOUS
 10
20.1
 20
-45.7578575666
 11
14.9
 21
-45.7578575666
  0
LINE
  5
21C
100
AcDbEntity
  8
0
100
AcDbLine
 62
253
  6
CONTINUOUS
 10
-28.0
 20
-45.6630226993
 11
13.923397555
 21
-45.6630226993
  0
LINE
  5
21D
100
AcDbEntity
  8
0
100
AcDbLine
 62
253
  6
CONTINUOUS
 10
21.0766024408
 20
-45.6630226993
 11
28.0
 21
-45.6630226993
  0
LINE
  5
21E
100
AcDbEntity
  8
0
100
AcDbLine
 62
7
  6
CONTINUOUS
 10
14.6
 20
-45.2899946264
 11
20.4
 21
-45.2899946264
  0
LINE
  5
21F
100
AcDbEntity
  8
RACCORDO
100
AcDbLine
 62
7
  6
CONTINUOUS
 10
-28.0
 20
-44.5657845988
 11
-26.2242100275
 21
-44.5657845988
  0
LINE
  5
220
100
AcDbEntity
  8
RACCORDO
100
AcDbLine
 62
7
  6
CONTINUOUS
 10
28.0
 20
-44.5657845988
 11
26.2242100275
 21
-44.5657845988
  0
LINE
  5
221
100
AcDbEntity
  8
RACCORDO
100
AcDbLine
 62
253
  6
CONTINUOUS
 10
-26.2242099741
 20
-44.5631902346
 11
26.2242099741
 21
-44.5631902346
  0
LINE
  5
222
100
AcDbEntity
  8
DRAFT
100
AcDbLine
 62
7
  6
CONTINUOUS
 10
-32.0
 20
29.2100053736
 11
-32.2757899725
 21
28.9342154012
  0
LINE
  5
223
100
AcDbEntity
  8
DRAFT
100
AcDbLine
 62
7
  6
CONTINUOUS
 10
-26.5
 20
34.7100053736
 11
-26.2242099741
 21
34.9857953995
  0
LINE
  5
224
100
AcDbEntity
  8
DRAFT
100
AcDbLine
 62
7
  6
CONTINUOUS
 10
-28.0
 20
-44.2899946264
 11
-26.5
 21
-44.2899946264
  0
LINE
  5
225
100
AcDbEntity
  8
DRAFT
100
AcDbLine
 62
7
  6
CONTINUOUS
 10
28.0
 20
-44.2899946264
 11
26.5
 21
-44.2899946264
  0
LINE
  5
226
100
AcDbEntity
  8
DRAFT
100
AcDbLine
 62
253
  6
CONTINUOUS
 10
-26.5
 20
-40.2899946264
 11
-26.2242099741
 21
-40.2899946264
  0
LINE
  5
227
100
AcDbEntity
  8
DRAFT
100
AcDbLine
 62
253
  6
CONTINUOUS
 10
26.5
 20
-40.2899946264
 11
26.2242099741
 21
-40.2899946264
  0
LINE
  5
228
100
AcDbEntity
  8
RACCORDO
100
AcDbLine
 62
253
  6
CONTINUOUS
 10
32.0
 20
-40.2899946264
 11
34.0
 21
-40.2899946264
  0
LINE
  5
229
100
AcDbEntity
  8
RACCORDO
100
AcDbLine
 62
253
  6
CONTINUOUS
 10
-32.0
 20
-40.2899946264
 11
-34.0
 21
-40.2899946264
  0
LINE
  5
22A
100
AcDbEntity
  8
DRAFT
100
AcDbLine
 62
7
  6
CONTINUOUS
 10
28.0
 20
-38.7899946264
 11
32.0
 21
-38.7899946264
  0
LINE
  5
22B
100
AcDbEntity
  8
DRAFT
100
AcDbLine
 62
7
  6
CONTINUOUS
 10
-28.0
 20
-38.7899946264
 11
-32.0
 21
-38.7899946264
  0
LINE
  5
22C
100
AcDbEntity
  8
DRAFT
100
AcDbLine
 62
7
  6
CONTINUOUS
 10
28.0
 20
-38.5142046005
 11
32.2731956082
 21
-38.5142046005
  0
LINE
  5
22D
100
AcDbEntity
  8
DRAFT
100
AcDbLine
 62
7
  6
CONTINUOUS
 10
-28.0
 20
-38.5142046005
 11
-32.2731956082
 21
-38.5142046005
  0
LINE
  5
22E
100
AcDbEntity
  8
SUPERFICI
100
AcDbLine
 62
7
  6
CONTINUOUS
 10
-33.99999988
 20
-40.2900607944
 11
-34.0000081406
 21
30.7100011857
  0
LINE
  5
22F
100
AcDbEntity
  8
DRAFT
100
AcDbLine
 62
7
  6
CONTINUOUS
 10
-34.0
 20
30.7100053736
 11
-34.0
 21
-40.2899946264
  0
LINE
  5
230
100
AcDbEntity
  8
0
100
AcDbLine
 62
253
  6
CONTINUOUS
 10
-33.4678629402
 20
-33.8899946264
 11
-33.4678629402
 21
-28.6899946264
  0
LINE
  5
231
100
AcDbEntity
  8
0
100
AcDbLine
 62
253
  6
CONTINUOUS
 10
-33.3730280729
 20
30.7100053736
 11
-33.3730280729
 21
-27.7133921814
  0
LINE
  5
232
100
AcDbEntity
  8
0
100
AcDbLine
 62
253
  6
CONTINUOUS
 10
-33.3730280729
 20
-34.8665970672
 11
-33.3730280729
 21
-40.2899946264
  0
LINE
  5
233
100
AcDbEntity
  8
0
100
AcDbLine
 62
7
  6
CONTINUOUS
 10
-33.0
 20
-28.3899946264
 11
-33.0
 21
-34.1899946264
  0
LINE
  5
234
100
AcDbEntity
  8
RACCORDO
100
AcDbLine
 62
7
  6
CONTINUOUS
 10
-32.2757899725
 20
-38.5142046539
 11
-32.2757899725
 21
-40.2899946264
  0
LINE
  5
235
100
AcDbEntity
  8
RACCORDO
100
AcDbLine
 62
7
  6
CONTINUOUS
 10
-32.2757899725
 20
28.9342154012
 11
-32.2757899725
 21
30.7100053736
  0
LINE
  5
236
100
AcDbEntity
  8
RACCORDO
100
AcDbLine
 62
253
  6
CONTINUOUS
 10
-32.2731956082
 20
28.9342153478
 11
-32.2731956082
 21
-38.5142046005
  0
LINE
  5
237
100
AcDbEntity
  8
0
100
AcDbLine
 62
253
  6
CONTINUOUS
 10
-33.4678629402
 20
-33.8899946264
 11
-33.0
 21
-33.8899946264
  0
LINE
  5
238
100
AcDbEntity
  8
DRAFT
100
AcDbLine
 62
7
  6
CONTINUOUS
 10
-32.0
 20
-38.7899946264
 11
-32.0
 21
-40.2899946264
  0
LINE
  5
239
100
AcDbEntity
  8
DRAFT
100
AcDbLine
 62
7
  6
CONTINUOUS
 10
-32.0
 20
29.2100053736
 11
-32.0
 21
30.7100053736
  0
LINE
  5
23A
100
AcDbEntity
  8
0
100
AcDbLine
 62
253
  6
CONTINUOUS
 10
-33.4678629402
 20
-28.6899946264
 11
-33.0
 21
-28.6899946317
  0
LINE
  5
23B
100
AcDbEntity
  8
DRAFT
100
AcDbLine
 62
253
  6
CONTINUOUS
 10
-28.0
 20
29.2100053736
 11
-28.0
 21
28.9342153478
  0
LINE
  5
23C
100
AcDbEntity
  8
DRAFT
100
AcDbLine
 62
253
  6
CONTINUOUS
 10
-28.0
 20
-38.7899946264
 11
-28.0
 21
-38.5142046005
  0
LINE
  5
23D
100
AcDbEntity
  8
RACCORDO
100
AcDbLine
 62
253
  6
CONTINUOUS
 10
-28.0
 20
-44.2899946264
 11
-28.0
 21
-46.2899946264
  0
LINE
  5
23E
100
AcDbEntity
  8
RACCORDO
100
AcDbLine
 62
253
  6
CONTINUOUS
 10
-28.0
 20
34.7100053736
 11
-28.0
 21
36.7100053736
  0
LINE
  5
23F
100
AcDbEntity
  8
DRAFT
100
AcDbLine
 62
7
  6
CONTINUOUS
 10
-26.5
 20
34.7100053736
 11
-26.5
 21
30.7100053736
  0
LINE
  5
240
100
AcDbEntity
  8
DRAFT
100
AcDbLine
 62
7
  6
CONTINUOUS
 10
-26.5
 20
-44.2899946264
 11
-26.5
 21
-40.2899946264
  0
LINE
  5
241
100
AcDbEntity
  8
DRAFT
100
AcDbLine
 62
7
  6
CONTINUOUS
 10
-26.2242099741
 20
34.9832009819
 11
-26.2242099741
 21
30.7100053736
  0
LINE
  5
242
100
AcDbEntity
  8
DRAFT
100
AcDbLine
 62
7
  6
CONTINUOUS
 10
-26.2242099741
 20
-44.5631902346
 11
-26.2242099741
 21
-40.2899946264
  0
LINE
  5
243
100
AcDbEntity
  8
0
100
AcDbLine
 62
7
  6
CONTINUOUS
 10
-21.065387
 20
-4.9050836264
 11
-21.065387
 21
-6.3661156264
  0
LINE
  5
244
100
AcDbEntity
  8
0
100
AcDbLine
 62
7
  6
CONTINUOUS
 10
-20.793534
 20
-6.0830056264
 11
-20.793534
 21
-4.9050836264
  0
LINE
  5
245
100
AcDbEntity
  8
0
100
AcDbLine
 62
253
  6
CONTINUOUS
 10
-20.1
 20
36.1778683139
 11
-20.1
 21
35.7100053736
  0
LINE
  5
246
100
AcDbEntity
  8
0
100
AcDbLine
 62
7
  6
CONTINUOUS
 10
-17.6
 20
-21.2899946264
 11
-17.4
 21
-21.2899946264
  0
LINE
  5
247
100
AcDbEntity
  8
0
100
AcDbLine
 62
7
  6
CONTINUOUS
 10
-17.6
 20
11.7100053736
 11
-17.6
 21
-21.2899946264
  0
LINE
  5
248
100
AcDbEntity
  8
0
100
AcDbLine
 62
7
  6
CONTINUOUS
 10
-17.4
 20
-21.2899946264
 11
-17.4
 21
11.7100053736
  0
LINE
  5
249
100
AcDbEntity
  8
0
100
AcDbLine
 62
7
  6
CONTINUOUS
 10
-20.6483798375
 20
-4.2142593081
 11
-20.5157908992
 21
-3.954578429
  0
LINE
  5
24A
100
AcDbEntity
  8
0
100
AcDbLine
 62
7
  6
CONTINUOUS
 10
-18.7037187644
 20
-6.3048601503
 11
-18.5737469122
 21
-6.5939248216
  0
LINE
  5
24B
100
AcDbEntity
  8
0
100
AcDbLine
 62
7
  6
CONTINUOUS
 10
-18.7410220488
 20
-4.019106467
 11
-18.6454738397
 21
-4.3311421498
  0
LINE
  5
24C
100
AcDbEntity
  8
0
100
AcDbLine
 62
253
  6
CONTINUOUS
 10
-14.9
 20
36.1778683139
 11
-14.9000000056
 21
35.7100053737
  0
LINE
  5
24D
100
AcDbEntity
  8
0
100
AcDbLine
 62
7
  6
CONTINUOUS
 10
-14.0
 20
37.5126130257
 11
-14.0
 21
36.1499592342
  0
LINE
  5
24E
100
AcDbEntity
  8
RACCORDO
100
AcDbLine
 62
7
  6
CONTINUOUS
 10
-14.0
 20
36.1499592342
 11
-14.0
 21
37.5126130257
  0
LINE
  5
24F
100
AcDbEntity
  8
0
100
AcDbLine
 62
7
  6
CONTINUOUS
 10
-11.85
 20
39.9167292154
 11
-11.85
 21
39.4900053736
  0
LINE
  5
250
100
AcDbEntity
  8
RACCORDO
100
AcDbLine
 62
7
  6
CONTINUOUS
 10
-11.85
 20
39.4900053736
 11
-11.85
 21
39.9167292154
  0
LINE
  5
251
100
AcDbEntity
  8
0
100
AcDbLine
 62
7
  6
CONTINUOUS
 10
-11.35
 20
39.4900053736
 11
-11.35
 21
38.9900053736
  0
LINE
  5
252
100
AcDbEntity
  8
RACCORDO
100
AcDbLine
 62
7
  6
CONTINUOUS
 10
-10.1
 20
41.2900053736
 11
-10.1
 21
41.7569215943
  0
LINE
  5
253
100
AcDbEntity
  8
0
100
AcDbLine
 62
7
  6
CONTINUOUS
 10
-9.45
 20
41.2900053736
 11
-9.45
 21
40.7900053736
  0
LINE
  5
254
100
AcDbEntity
  8
0
100
AcDbLine
 62
7
  6
CONTINUOUS
 10
-8.35
 20
43.530126675
 11
-8.35
 21
43.0900053736
  0
LINE
  5
255
100
AcDbEntity
  8
RACCORDO
100
AcDbLine
 62
7
  6
CONTINUOUS
 10
-8.35
 20
43.0900053736
 11
-8.35
 21
43.530126675
  0
LINE
  5
256
100
AcDbEntity
  8
0
100
AcDbLine
 62
7
  6
CONTINUOUS
 10
-7.85
 20
43.0900053736
 11
-7.85
 21
42.5900053736
  0
LINE
  5
257
100
AcDbEntity
  8
0
100
AcDbLine
 62
7
  6
CONTINUOUS
 10
-7.5
 20
21.8100053736
 11
-7.5
 21
21.6100053736
  0
LINE
  5
258
100
AcDbEntity
  8
0
100
AcDbLine
 62
7
  6
CONTINUOUS
 10
-4.1
 20
45.2291647807
 11
-4.1
 21
44.8900053736
  0
LINE
  5
259
100
AcDbEntity
  8
RACCORDO
100
AcDbLine
 62
7
  6
CONTINUOUS
 10
-4.1
 20
44.8900053736
 11
-4.1
 21
45.2291647807
  0
LINE
  5
25A
100
AcDbEntity
  8
0
100
AcDbLine
 62
7
  6
CONTINUOUS
 10
-3.6
 20
44.8900053736
 11
-3.6
 21
44.3900053736
  0
LINE
  5
25B
100
AcDbEntity
  8
0
100
AcDbLine
 62
7
  6
CONTINUOUS
 10
-1.5603169999
 20
24.4488953744
 11
-1.6011039925
 21
24.1278054329
  0
LINE
  5
25C
100
AcDbEntity
  8
0
100
AcDbLine
 62
7
  6
CONTINUOUS
 10
0.34811
 20
25.6581953736
 11
0.06038
 21
24.1236353736
  0
LINE
  5
25D
100
AcDbEntity
  8
0
100
AcDbLine
 62
7
  6
CONTINUOUS
 10
0.4812889101
 20
24.5025839188
 11
0.640531
 21
25.3079153736
  0
LINE
  5
25E
100
AcDbEntity
  8
0
100
AcDbLine
 62
7
  6
CONTINUOUS
 10
11.1960930686
 20
-5.8899946264
 11
10.0700680665
 21
-5.8899946264
  0
LINE
  5
25F
100
AcDbEntity
  8
0
100
AcDbLine
 62
7
  6
CONTINUOUS
 10
-10.0700680665
 20
-5.8899946264
 11
-11.1960930686
 21
-5.8899946264
  0
LINE
  5
260
100
AcDbEntity
  8
0
100
AcDbLine
 62
7
  6
CONTINUOUS
 10
-20.793534
 20
-4.9050836264
 11
-21.065387
 21
-4.9050836264
  0
LINE
  5
261
100
AcDbEntity
  8
0
100
AcDbLine
 62
7
  6
CONTINUOUS
 10
-11.1960930686
 20
-3.6899946264
 11
-10.0700680665
 21
-3.6899946264
  0
LINE
  5
262
100
AcDbEntity
  8
0
100
AcDbLine
 62
7
  6
CONTINUOUS
 10
10.0700680665
 20
-3.6899946264
 11
11.1960930686
 21
-3.6899946264
  0
LINE
  5
263
100
AcDbEntity
  8
0
100
AcDbLine
 62
7
  6
CONTINUOUS
 10
-19.7875325974
 20
-3.6574636264
 11
-19.5160718602
 21
-3.6574636264
  0
LINE
  5
264
100
AcDbEntity
  8
0
100
AcDbLine
 62
7
  6
CONTINUOUS
 10
-19.8939441169
 20
-6.0987776243
 11
-20.793534
 21
-6.0830056264
  0
LINE
  5
265
100
AcDbEntity
  8
0
100
AcDbLine
 62
7
  6
CONTINUOUS
 10
-21.065387
 20
-6.3661156264
 11
-19.5275902179
 21
-6.3937976224
  0
LINE
  5
266
100
AcDbEntity
  8
0
100
AcDbLine
 62
7
  6
CONTINUOUS
 10
-1.1
 20
-15.9860876949
 11
-1.1
 21
-14.8600626929
  0
LINE
  5
267
100
AcDbEntity
  8
0
100
AcDbLine
 62
7
  6
CONTINUOUS
 10
-1.1
 20
5.2800734402
 11
-1.1
 21
6.4060984422
  0
LINE
  5
268
100
AcDbEntity
  8
0
100
AcDbLine
 62
7
  6
CONTINUOUS
 10
1.1
 20
6.4060984422
 11
1.1
 21
5.2800734402
  0
LINE
  5
269
100
AcDbEntity
  8
0
100
AcDbLine
 62
7
  6
CONTINUOUS
 10
1.1
 20
-14.8600626929
 11
1.1
 21
-15.9860876949
  0
LINE
  5
26A
100
AcDbEntity
  8
0
100
AcDbLine
 62
7
  6
CONTINUOUS
 10
1.82846
 20
25.3079153736
 11
1.82846
 21
25.6581953736
  0
LINE
  5
26B
100
AcDbEntity
  8
0
100
AcDbLine
 62
7
  6
CONTINUOUS
 10
3.6
 20
44.8900053736
 11
3.6
 21
44.3900053736
  0
LINE
  5
26C
100
AcDbEntity
  8
0
100
AcDbLine
 62
7
  6
CONTINUOUS
 10
4.1
 20
45.2291647807
 11
4.1
 21
44.8900053736
  0
LINE
  5
26D
100
AcDbEntity
  8
RACCORDO
100
AcDbLine
 62
7
  6
CONTINUOUS
 10
4.1
 20
44.8900053736
 11
4.1
 21
45.2291647807
  0
LINE
  5
26E
100
AcDbEntity
  8
0
100
AcDbLine
 62
7
  6
CONTINUOUS
 10
7.5
 20
21.6100053736
 11
7.5
 21
21.8100053736
  0
LINE
  5
26F
100
AcDbEntity
  8
0
100
AcDbLine
 62
7
  6
CONTINUOUS
 10
7.85
 20
43.0900053736
 11
7.85
 21
42.5900053736
  0
LINE
  5
270
100
AcDbEntity
  8
0
100
AcDbLine
 62
7
  6
CONTINUOUS
 10
8.35
 20
43.530126675
 11
8.35
 21
43.0900053736
  0
LINE
  5
271
100
AcDbEntity
  8
RACCORDO
100
AcDbLine
 62
7
  6
CONTINUOUS
 10
8.35
 20
43.0900053736
 11
8.35
 21
43.530126675
  0
LINE
  5
272
100
AcDbEntity
  8
0
100
AcDbLine
 62
7
  6
CONTINUOUS
 10
9.45
 20
41.2900053736
 11
9.45
 21
40.7900053736
  0
LINE
  5
273
100
AcDbEntity
  8
0
100
AcDbLine
 62
7
  6
CONTINUOUS
 10
10.1
 20
41.7569215943
 11
10.1
 21
41.2900053736
  0
LINE
  5
274
100
AcDbEntity
  8
RACCORDO
100
AcDbLine
 62
7
  6
CONTINUOUS
 10
10.1
 20
41.2900053736
 11
10.1
 21
41.7569215943
  0
LINE
  5
275
100
AcDbEntity
  8
0
100
AcDbLine
 62
7
  6
CONTINUOUS
 10
11.35
 20
39.4900053736
 11
11.35
 21
38.9900053736
  0
LINE
  5
276
100
AcDbEntity
  8
0
100
AcDbLine
 62
7
  6
CONTINUOUS
 10
11.85
 20
39.9167292154
 11
11.85
 21
39.4900053736
  0
LINE
  5
277
100
AcDbEntity
  8
RACCORDO
100
AcDbLine
 62
7
  6
CONTINUOUS
 10
11.85
 20
39.4900053736
 11
11.85
 21
39.9167292154
  0
LINE
  5
278
100
AcDbEntity
  8
0
100
AcDbLine
 62
7
  6
CONTINUOUS
 10
-17.4
 20
11.7100053736
 11
-17.6
 21
11.7100053736
  0
LINE
  5
279
100
AcDbEntity
  8
0
100
AcDbLine
 62
7
  6
CONTINUOUS
 10
14.0
 20
37.5126130257
 11
14.0
 21
36.0900053736
  0
LINE
  5
27A
100
AcDbEntity
  8
RACCORDO
100
AcDbLine
 62
7
  6
CONTINUOUS
 10
14.0
 20
36.0900053736
 11
14.0
 21
37.5126130257
  0
LINE
  5
27B
100
AcDbEntity
  8
0
100
AcDbLine
 62
253
  6
CONTINUOUS
 10
14.9
 20
-45.7578575666
 11
14.9000000056
 21
-45.2899946264
  0
LINE
  5
27C
100
AcDbEntity
  8
0
100
AcDbLine
 62
253
  6
CONTINUOUS
 10
20.1
 20
-45.7578575666
 11
20.1
 21
-45.2899946264
  0
LINE
  5
27D
100
AcDbEntity
  8
0
100
AcDbLine
 62
253
  6
CONTINUOUS
 10
33.4678629402
 20
19.1100053736
 11
33.0
 21
19.1100053792
  0
LINE
  5
27E
100
AcDbEntity
  8
0
100
AcDbLine
 62
7
  6
CONTINUOUS
 10
-1.9579
 20
23.5523453736
 11
-2.32486
 21
23.5023053736
  0
LINE
  5
27F
100
AcDbEntity
  8
0
100
AcDbLine
 62
7
  6
CONTINUOUS
 10
0.3773
 20
23.5231553736
 11
-0.00634
 21
23.4939653736
  0
LINE
  5
280
100
AcDbEntity
  8
0
100
AcDbLine
 62
7
  6
CONTINUOUS
 10
-7.5
 20
21.6100053736
 11
7.5
 21
21.6100053736
  0
LINE
  5
281
100
AcDbEntity
  8
0
100
AcDbLine
 62
7
  6
CONTINUOUS
 10
7.5
 20
21.8100053736
 11
-7.5
 21
21.8100053736
  0
LINE
  5
282
100
AcDbEntity
  8
0
100
AcDbLine
 62
253
  6
CONTINUOUS
 10
33.4678629402
 20
24.3100053736
 11
33.0
 21
24.3100053736
  0
LINE
  5
283
100
AcDbEntity
  8
0
100
AcDbLine
 62
7
  6
CONTINUOUS
 10
0.06038
 20
24.1236353736
 11
0.40649
 21
24.0735953736
  0
LINE
  5
284
100
AcDbEntity
  8
0
100
AcDbLine
 62
7
  6
CONTINUOUS
 10
-2.28733
 20
24.9326153736
 11
-1.92037
 21
24.8658953736
  0
LINE
  5
285
100
AcDbEntity
  8
DRAFT
100
AcDbLine
 62
7
  6
CONTINUOUS
 10
26.2242099741
 20
34.9832009819
 11
26.2242099741
 21
30.7100053736
  0
LINE
  5
286
100
AcDbEntity
  8
DRAFT
100
AcDbLine
 62
7
  6
CONTINUOUS
 10
26.2242099741
 20
-44.5631902346
 11
26.2242099741
 21
-40.2899946264
  0
LINE
  5
287
100
AcDbEntity
  8
DRAFT
100
AcDbLine
 62
7
  6
CONTINUOUS
 10
26.5
 20
34.7100053736
 11
26.5
 21
30.7100053736
  0
LINE
  5
288
100
AcDbEntity
  8
DRAFT
100
AcDbLine
 62
7
  6
CONTINUOUS
 10
26.5
 20
-44.2899946264
 11
26.5
 21
-40.2899946264
  0
LINE
  5
289
100
AcDbEntity
  8
DRAFT
100
AcDbLine
 62
253
  6
CONTINUOUS
 10
28.0
 20
29.2100053736
 11
28.0
 21
28.9342153478
  0
LINE
  5
28A
100
AcDbEntity
  8
DRAFT
100
AcDbLine
 62
253
  6
CONTINUOUS
 10
28.0
 20
-38.7899946264
 11
28.0
 21
-38.5142046005
  0
LINE
  5
28B
100
AcDbEntity
  8
RACCORDO
100
AcDbLine
 62
253
  6
CONTINUOUS
 10
28.0
 20
-44.2899946264
 11
28.0
 21
-46.2899946264
  0
LINE
  5
28C
100
AcDbEntity
  8
RACCORDO
100
AcDbLine
 62
253
  6
CONTINUOUS
 10
28.0
 20
34.7100053736
 11
28.0
 21
36.7100053736
  0
LINE
  5
28D
100
AcDbEntity
  8
0
100
AcDbLine
 62
7
  6
CONTINUOUS
 10
0.640531
 20
25.3079153736
 11
1.82846
 21
25.3079153736
  0
LINE
  5
28E
100
AcDbEntity
  8
0
100
AcDbLine
 62
7
  6
CONTINUOUS
 10
1.82846
 20
25.6581953736
 11
0.34811
 21
25.6581953736
  0
LINE
  5
28F
100
AcDbEntity
  8
DRAFT
100
AcDbLine
 62
7
  6
CONTINUOUS
 10
28.0
 20
28.9342153478
 11
32.2731956082
 21
28.9342153478
  0
LINE
  5
290
100
AcDbEntity
  8
DRAFT
100
AcDbLine
 62
7
  6
CONTINUOUS
 10
-28.0
 20
28.9342153478
 11
-32.2731956082
 21
28.9342153478
  0
LINE
  5
291
100
AcDbEntity
  8
DRAFT
100
AcDbLine
 62
7
  6
CONTINUOUS
 10
32.0
 20
-38.7899946264
 11
32.0
 21
-40.2899946264
  0
LINE
  5
292
100
AcDbEntity
  8
DRAFT
100
AcDbLine
 62
7
  6
CONTINUOUS
 10
32.0
 20
29.2100053736
 11
32.0
 21
30.7100053736
  0
LINE
  5
293
100
AcDbEntity
  8
RACCORDO
100
AcDbLine
 62
253
  6
CONTINUOUS
 10
32.2731956082
 20
-38.5142046005
 11
32.2731956082
 21
28.9342153478
  0
LINE
  5
294
100
AcDbEntity
  8
RACCORDO
100
AcDbLine
 62
7
  6
CONTINUOUS
 10
32.2757899725
 20
-38.5142046539
 11
32.2757899725
 21
-40.2899946264
  0
LINE
  5
295
100
AcDbEntity
  8
RACCORDO
100
AcDbLine
 62
7
  6
CONTINUOUS
 10
32.2757899725
 20
28.9342154012
 11
32.2757899725
 21
30.7100053736
  0
LINE
  5
296
100
AcDbEntity
  8
0
100
AcDbLine
 62
7
  6
CONTINUOUS
 10
33.0
 20
18.8100053736
 11
33.0
 21
24.6100053736
  0
LINE
  5
297
100
AcDbEntity
  8
DRAFT
100
AcDbLine
 62
7
  6
CONTINUOUS
 10
28.0
 20
29.2100053736
 11
32.0
 21
29.2100053736
  0
LINE
  5
298
100
AcDbEntity
  8
DRAFT
100
AcDbLine
 62
7
  6
CONTINUOUS
 10
-28.0
 20
29.2100053736
 11
-32.0
 21
29.2100053736
  0
LINE
  5
299
100
AcDbEntity
  8
DRAFT
100
AcDbLine
 62
253
  6
CONTINUOUS
 10
-26.5
 20
30.7100053736
 11
-26.2242099741
 21
30.7100053736
  0
LINE
  5
29A
100
AcDbEntity
  8
DRAFT
100
AcDbLine
 62
253
  6
CONTINUOUS
 10
26.5
 20
30.7100053736
 11
26.2242099741
 21
30.7100053736
  0
LINE
  5
29B
100
AcDbEntity
  8
RACCORDO
100
AcDbLine
 62
253
  6
CONTINUOUS
 10
32.0
 20
30.7100053736
 11
34.0
 21
30.7100053736
  0
LINE
  5
29C
100
AcDbEntity
  8
RACCORDO
100
AcDbLine
 62
253
  6
CONTINUOUS
 10
-32.0
 20
30.7100053736
 11
-34.0
 21
30.7100053736
  0
LINE
  5
29D
100
AcDbEntity
  8
0
100
AcDbLine
 62
253
  6
CONTINUOUS
 10
33.3730280729
 20
-40.2899946264
 11
33.3730280729
 21
18.1334029287
  0
LINE
  5
29E
100
AcDbEntity
  8
0
100
AcDbLine
 62
253
  6
CONTINUOUS
 10
33.3730280729
 20
25.2866078145
 11
33.3730280729
 21
30.7100053736
  0
LINE
  5
29F
100
AcDbEntity
  8
0
100
AcDbLine
 62
253
  6
CONTINUOUS
 10
33.4678629402
 20
24.3100053736
 11
33.4678629402
 21
19.1100053736
  0
LINE
  5
2A0
100
AcDbEntity
  8
DRAFT
100
AcDbLine
 62
7
  6
CONTINUOUS
 10
34.0
 20
-40.2899946264
 11
34.0
 21
30.7100053736
  0
LINE
  5
2A1
100
AcDbEntity
  8
SUPERFICI
100
AcDbLine
 62
7
  6
CONTINUOUS
 10
34.0000081406
 20
30.7100011857
 11
33.99999988
 21
-40.2900607944
  0
LINE
  5
2A2
100
AcDbEntity
  8
DRAFT
100
AcDbLine
 62
7
  6
CONTINUOUS
 10
-28.0
 20
34.7100053736
 11
-26.5
 21
34.7100053736
  0
LINE
  5
2A3
100
AcDbEntity
  8
DRAFT
100
AcDbLine
 62
7
  6
CONTINUOUS
 10
28.0
 20
34.7100053736
 11
26.5
 21
34.7100053736
  0
LINE
  5
2A4
100
AcDbEntity
  8
RACCORDO
100
AcDbLine
 62
253
  6
CONTINUOUS
 10
26.2242099741
 20
34.9832009819
 11
-26.2242099741
 21
34.9832009819
  0
LINE
  5
2A5
100
AcDbEntity
  8
RACCORDO
100
AcDbLine
 62
7
  6
CONTINUOUS
 10
-28.0
 20
34.9857953461
 11
-26.2242100275
 21
34.9857953461
  0
LINE
  5
2A6
100
AcDbEntity
  8
RACCORDO
100
AcDbLine
 62
7
  6
CONTINUOUS
 10
28.0
 20
34.9857953461
 11
26.2242100275
 21
34.9857953461
  0
LINE
  5
2A7
100
AcDbEntity
  8
0
100
AcDbLine
 62
7
  6
CONTINUOUS
 10
-14.6
 20
35.7100053736
 11
-20.4
 21
35.7100053736
  0
LINE
  5
2A8
100
AcDbEntity
  8
0
100
AcDbLine
 62
253
  6
CONTINUOUS
 10
28.0
 20
36.0830334465
 11
-13.923397555
 21
36.0830334465
  0
LINE
  5
2A9
100
AcDbEntity
  8
0
100
AcDbLine
 62
253
  6
CONTINUOUS
 10
-21.0766024408
 20
36.0830334465
 11
-28.0
 21
36.0830334465
  0
LINE
  5
2AA
100
AcDbEntity
  8
0
100
AcDbLine
 62
253
  6
CONTINUOUS
 10
-20.1
 20
36.1778683139
 11
-14.9
 21
36.1778683139
  0
LINE
  5
2AB
100
AcDbEntity
  8
DRAFT
100
AcDbLine
 62
7
  6
CONTINUOUS
 10
28.0
 20
36.7100053736
 11
14.0
 21
36.7100053736
  0
LINE
  5
2AC
100
AcDbEntity
  8
DRAFT
100
AcDbLine
 62
7
  6
CONTINUOUS
 10
-14.0
 20
36.7100053736
 11
-28.0
 21
36.7100053736
  0
LINE
  5
2AD
100
AcDbEntity
  8
SUPERFICI
100
AcDbLine
 62
7
  6
CONTINUOUS
 10
-28.0000124643
 20
36.7100129074
 11
-14.0
 21
36.7100137071
  0
LINE
  5
2AE
100
AcDbEntity
  8
SUPERFICI
100
AcDbLine
 62
7
  6
CONTINUOUS
 10
14.0
 20
36.7100153066
 11
27.9999799857
 21
36.7100161063
  0
LINE
  5
2AF
100
AcDbEntity
  8
0
100
AcDbLine
 62
7
  6
CONTINUOUS
 10
-11.35
 20
38.9900053736
 11
-13.2588190451
 21
38.478538852
  0
LINE
  5
2B0
100
AcDbEntity
  8
RACCORDO
100
AcDbLine
 62
7
  6
CONTINUOUS
 10
-13.2588190451
 20
38.478538852
 11
-11.35
 21
38.9900053736
  0
LINE
  5
2B1
100
AcDbEntity
  8
RACCORDO
100
AcDbLine
 62
253
  6
CONTINUOUS
 10
-14.0
 20
37.5126130257
 11
14.0
 21
37.5126130257
  0
LINE
  5
2B2
100
AcDbEntity
  8
RACCORDO
100
AcDbLine
 62
253
  6
CONTINUOUS
 10
-13.2588190451
 20
38.478538852
 11
13.2588190451
 21
38.478538852
  0
LINE
  5
2B3
100
AcDbEntity
  8
0
100
AcDbLine
 62
7
  6
CONTINUOUS
 10
-11.35
 20
38.9900053736
 11
11.35
 21
38.9900053736
  0
LINE
  5
2B4
100
AcDbEntity
  8
0
100
AcDbLine
 62
7
  6
CONTINUOUS
 10
-11.85
 20
39.4900053736
 11
11.85
 21
39.4900053736
  0
LINE
  5
2B5
100
AcDbEntity
  8
RACCORDO
100
AcDbLine
 62
253
  6
CONTINUOUS
 10
-11.85
 20
39.9167292154
 11
11.85
 21
39.9167292154
  0
LINE
  5
2B6
100
AcDbEntity
  8
RACCORDO
100
AcDbLine
 62
253
  6
CONTINUOUS
 10
-11.6276457135
 20
40.2065069633
 11
11.6276457135
 21
40.2065069633
  0
LINE
  5
2B7
100
AcDbEntity
  8
0
100
AcDbLine
 62
7
  6
CONTINUOUS
 10
-9.45
 20
40.7900053736
 11
9.45
 21
40.7900053736
  0
LINE
  5
2B8
100
AcDbEntity
  8
0
100
AcDbLine
 62
7
  6
CONTINUOUS
 10
-10.1
 20
41.2900053736
 11
10.1
 21
41.2900053736
  0
LINE
  5
2B9
100
AcDbEntity
  8
0
100
AcDbLine
 62
7
  6
CONTINUOUS
 10
11.35
 20
38.9900053736
 11
13.2588190451
 21
38.478538852
  0
LINE
  5
2BA
100
AcDbEntity
  8
RACCORDO
100
AcDbLine
 62
7
  6
CONTINUOUS
 10
13.2588190451
 20
38.478538852
 11
11.35
 21
38.9900053736
  0
LINE
  5
2BB
100
AcDbEntity
  8
0
100
AcDbLine
 62
7
  6
CONTINUOUS
 10
-9.45
 20
40.7900053736
 11
-11.6276457135
 21
40.2065069633
  0
LINE
  5
2BC
100
AcDbEntity
  8
RACCORDO
100
AcDbLine
 62
7
  6
CONTINUOUS
 10
-11.6276457135
 20
40.2065069633
 11
-9.45
 21
40.7900053736
  0
LINE
  5
2BD
100
AcDbEntity
  8
0
100
AcDbLine
 62
7
  6
CONTINUOUS
 10
-7.85
 20
42.5900053736
 11
-9.8776457135
 21
42.0466993422
  0
LINE
  5
2BE
100
AcDbEntity
  8
RACCORDO
100
AcDbLine
 62
7
  6
CONTINUOUS
 10
-9.8776457135
 20
42.0466993422
 11
-7.85
 21
42.5900053736
  0
LINE
  5
2BF
100
AcDbEntity
  8
0
100
AcDbLine
 62
7
  6
CONTINUOUS
 10
-6.0
 20
44.3900053736
 11
-8.1276457135
 21
43.8199044229
  0
LINE
  5
2C0
100
AcDbEntity
  8
RACCORDO
100
AcDbLine
 62
7
  6
CONTINUOUS
 10
-8.1276457135
 20
43.8199044229
 11
-6.0
 21
44.3900053736
  0
LINE
  5
2C1
100
AcDbEntity
  8
0
100
AcDbLine
 62
7
  6
CONTINUOUS
 10
-1.0
 20
46.2900053736
 11
-3.8776457135
 21
45.5189425286
  0
LINE
  5
2C2
100
AcDbEntity
  8
RACCORDO
100
AcDbLine
 62
7
  6
CONTINUOUS
 10
-3.8776457135
 20
45.5189425286
 11
-1.0
 21
46.2900053736
  0
LINE
  5
2C3
100
AcDbEntity
  8
RACCORDO
100
AcDbLine
 62
253
  6
CONTINUOUS
 10
-10.1
 20
41.7569215943
 11
10.1
 21
41.7569215943
  0
LINE
  5
2C4
100
AcDbEntity
  8
RACCORDO
100
AcDbLine
 62
253
  6
CONTINUOUS
 10
-9.8776457135
 20
42.0466993422
 11
9.8776457135
 21
42.0466993422
  0
LINE
  5
2C5
100
AcDbEntity
  8
0
100
AcDbLine
 62
7
  6
CONTINUOUS
 10
-7.85
 20
42.5900053736
 11
7.85
 21
42.5900053736
  0
LINE
  5
2C6
100
AcDbEntity
  8
0
100
AcDbLine
 62
7
  6
CONTINUOUS
 10
-8.35
 20
43.0900053736
 11
8.35
 21
43.0900053736
  0
LINE
  5
2C7
100
AcDbEntity
  8
RACCORDO
100
AcDbLine
 62
253
  6
CONTINUOUS
 10
-8.35
 20
43.530126675
 11
8.35
 21
43.530126675
  0
LINE
  5
2C8
100
AcDbEntity
  8
RACCORDO
100
AcDbLine
 62
253
  6
CONTINUOUS
 10
-8.1276457135
 20
43.8199044229
 11
8.1276457135
 21
43.8199044229
  0
LINE
  5
2C9
100
AcDbEntity
  8
0
100
AcDbLine
 62
7
  6
CONTINUOUS
 10
-6.0
 20
44.3900053736
 11
6.0
 21
44.3900053736
  0
LINE
  5
2CA
100
AcDbEntity
  8
0
100
AcDbLine
 62
7
  6
CONTINUOUS
 10
-4.1
 20
44.8900053736
 11
4.1
 21
44.8900053736
  0
LINE
  5
2CB
100
AcDbEntity
  8
RACCORDO
100
AcDbLine
 62
253
  6
CONTINUOUS
 10
-4.1
 20
45.2291647807
 11
4.1
 21
45.2291647807
  0
LINE
  5
2CC
100
AcDbEntity
  8
0
100
AcDbLine
 62
7
  6
CONTINUOUS
 10
9.45
 20
40.7900053736
 11
11.6276457135
 21
40.2065069633
  0
LINE
  5
2CD
100
AcDbEntity
  8
RACCORDO
100
AcDbLine
 62
7
  6
CONTINUOUS
 10
11.6276457135
 20
40.2065069633
 11
9.45
 21
40.7900053736
  0
LINE
  5
2CE
100
AcDbEntity
  8
0
100
AcDbLine
 62
7
  6
CONTINUOUS
 10
7.85
 20
42.5900053736
 11
9.8776457135
 21
42.0466993422
  0
LINE
  5
2CF
100
AcDbEntity
  8
RACCORDO
100
AcDbLine
 62
7
  6
CONTINUOUS
 10
9.8776457135
 20
42.0466993422
 11
7.85
 21
42.5900053736
  0
LINE
  5
2D0
100
AcDbEntity
  8
0
100
AcDbLine
 62
7
  6
CONTINUOUS
 10
6.0
 20
44.3900053736
 11
8.1276457135
 21
43.8199044229
  0
LINE
  5
2D1
100
AcDbEntity
  8
RACCORDO
100
AcDbLine
 62
7
  6
CONTINUOUS
 10
8.1276457135
 20
43.8199044229
 11
6.0
 21
44.3900053736
  0
LINE
  5
2D2
100
AcDbEntity
  8
0
100
AcDbLine
 62
7
  6
CONTINUOUS
 10
1.0
 20
46.2900053736
 11
3.8776457135
 21
45.5189425286
  0
LINE
  5
2D3
100
AcDbEntity
  8
RACCORDO
100
AcDbLine
 62
7
  6
CONTINUOUS
 10
3.8776457135
 20
45.5189425286
 11
1.0
 21
46.2900053736
  0
LINE
  5
2D4
100
AcDbEntity
  8
DRAFT
100
AcDbLine
 62
7
  6
CONTINUOUS
 10
32.0
 20
29.2100053736
 11
32.2757899725
 21
28.9342154012
  0
LINE
  5
2D5
100
AcDbEntity
  8
DRAFT
100
AcDbLine
 62
7
  6
CONTINUOUS
 10
26.5
 20
34.7100053736
 11
26.2242099741
 21
34.9857953995
  0
LINE
  5
2D6
100
AcDbEntity
  8
RACCORDO
100
AcDbLine
 62
253
  6
CONTINUOUS
 10
-3.8776457135
 20
45.5189425286
 11
3.8776457135
 21
45.5189425286
  0
LINE
  5
2D7
100
AcDbEntity
  8
0
100
AcDbLine
 62
7
  6
CONTINUOUS
 10
-1.0
 20
46.2900053736
 11
1.0
 21
46.2900053736
  0
LINE
  5
2D8
100
AcDbEntity
  8
DRAFT
100
AcDbLine
 62
7
  6
CONTINUOUS
 10
26.5
 20
-44.2899946264
 11
26.2242099741
 21
-44.5657846522
  0
LINE
  5
2D9
100
AcDbEntity
  8
DRAFT
100
AcDbLine
 62
7
  6
CONTINUOUS
 10
32.0
 20
-38.7899946264
 11
32.2757899725
 21
-38.5142046539
  0
CIRCLE
  5
2DA
100
AcDbEntity
  8
RACCORDO
100
AcDbCircle
 62
7
  6
CONTINUOUS
 10
-17.5
 20
-31.2899946264
 40
9.5
  0
CIRCLE
  5
2DB
100
AcDbEntity
  8
RACCORDO
100
AcDbCircle
 62
253
  6
CONTINUOUS
 10
-17.5
 20
-31.2899946264
 40
8.9999990565
  0
ARC
  5
2DC
100
AcDbEntity
  8
SUPERFICI
100
AcDbCircle
 62
7
  6
CONTINUOUS
 10
-27.9999972513
 20
-40.2899918777
 40
6.0000091571
100
AcDbArc
 50
180.0006581054
 51
269.9999837864
  0
ARC
  5
2DD
100
AcDbEntity
  8
DRAFT
100
AcDbCircle
 62
7
  6
CONTINUOUS
 10
-28.0
 20
-40.2899946264
 40
6.0
100
AcDbArc
 50
180.0
 51
270.0
  0
ARC
  5
2DE
100
AcDbEntity
  8
RACCORDO
100
AcDbCircle
 62
253
  6
CONTINUOUS
 10
-28.0
 20
-40.2899946264
 40
5.3730280717
100
AcDbArc
 50
180.0
 51
270.0
  0
ARC
  5
2DF
100
AcDbEntity
  8
RACCORDO
100
AcDbCircle
 62
7
  6
CONTINUOUS
 10
-28.0
 20
-40.2899946264
 40
4.2757899725
100
AcDbArc
 50
180.0
 51
270.0
  0
ARC
  5
2E0
100
AcDbEntity
  8
DRAFT
100
AcDbCircle
 62
7
  6
CONTINUOUS
 10
-28.0
 20
-40.2899946264
 40
4.0
100
AcDbArc
 50
180.0
 51
270.0
  0
CIRCLE
  5
2E1
100
AcDbEntity
  8
0
100
AcDbCircle
 62
7
  6
CONTINUOUS
 10
-17.5
 20
-31.2899946264
 40
2.25
  0
CIRCLE
  5
2E2
100
AcDbEntity
  8
0
100
AcDbCircle
 62
7
  6
CONTINUOUS
 10
-17.5
 20
-31.2899946264
 40
1.8
  0
ARC
  5
2E3
100
AcDbEntity
  8
DRAFT
100
AcDbCircle
 62
7
  6
CONTINUOUS
 10
-28.0
 20
-40.2899946264
 40
1.7757900259
100
AcDbArc
 50
0.0
 51
90.0
  0
ARC
  5
2E4
100
AcDbEntity
  8
DRAFT
100
AcDbCircle
 62
7
  6
CONTINUOUS
 10
-28.0
 20
-40.2899946264
 40
1.5
100
AcDbArc
 50
0.0
 51
90.0
  0
CIRCLE
  5
2E5
100
AcDbEntity
  8
0
100
AcDbCircle
 62
7
  6
CONTINUOUS
 10
-17.5
 20
-31.2899946264
 40
1.5
  0
ARC
  5
2E6
100
AcDbEntity
  8
0
100
AcDbCircle
 62
7
  6
CONTINUOUS
 10
-19.1845448244
 20
-3.0797894939
 40
1.362527402
100
AcDbArc
 50
293.3059241593
 51
295.479327962
  0
ARC
  5
2E7
100
AcDbEntity
  8
0
100
AcDbCircle
 62
7
  6
CONTINUOUS
 10
-19.1545527273
 20
-5.4275604026
 40
1.3029741114
100
AcDbArc
 50
296.471585841
 51
297.7290150867
  0
ARC
  5
2E8
100
AcDbEntity
  8
0
100
AcDbCircle
 62
7
  6
CONTINUOUS
 10
-19.1391814082
 20
-3.1744764245
 40
1.2575350088
100
AcDbArc
 50
295.4693745708
 51
298.5182273658
  0
ARC
  5
2E9
100
AcDbEntity
  8
0
100
AcDbCircle
 62
7
  6
CONTINUOUS
 10
-19.1080638428
 20
-5.5143669658
 40
1.2045059877
100
AcDbArc
 50
297.6928750903
 51
301.8280313082
  0
ARC
  5
2EA
100
AcDbEntity
  8
0
100
AcDbCircle
 62
7
  6
CONTINUOUS
 10
-20.0810490668
 20
-3.2175248251
 40
1.1468844361
100
AcDbArc
 50
234.9244625819
 51
240.3519237661
  0
ARC
  5
2EB
100
AcDbEntity
  8
0
100
AcDbCircle
 62
7
  6
CONTINUOUS
 10
-19.096346997
 20
-5.7051420979
 40
0.8879451778
100
AcDbArc
 50
116.8189103228
 51
118.1388603071
  0
ARC
  5
2EC
100
AcDbEntity
  8
0
100
AcDbCircle
 62
7
  6
CONTINUOUS
 10
-19.0976905581
 20
-5.7009609712
 40
0.8836872301
100
AcDbArc
 50
124.4046174226
 51
130.3116488957
  0
ARC
  5
2ED
100
AcDbEntity
  8
0
100
AcDbCircle
 62
7
  6
CONTINUOUS
 10
-19.1014727799
 20
-5.6958194209
 40
0.8773070119
100
AcDbArc
 50
118.1308087916
 51
124.3905471937
  0
ARC
  5
2EE
100
AcDbEntity
  8
0
100
AcDbCircle
 62
7
  6
CONTINUOUS
 10
-32.6501037163
 20
-34.9092295683
 40
0.7998247033
100
AcDbArc
 50
115.9421797878
 51
180.0115328153
  0
ARC
  5
2EF
100
AcDbEntity
  8
0
100
AcDbCircle
 62
7
  6
CONTINUOUS
 10
-32.6501036545
 20
-27.6707737436
 40
0.7998155208
100
AcDbArc
 50
179.98745989
 51
244.0573756388
  0
ARC
  5
2F0
100
AcDbEntity
  8
0
100
AcDbCircle
 62
253
  6
CONTINUOUS
 10
-33.7994209397
 20
-34.1908976499
 40
0.7989882067
100
AcDbArc
 50
295.9398514449
 51
302.2535348268
  0
ARC
  5
2F1
100
AcDbEntity
  8
0
100
AcDbCircle
 62
253
  6
CONTINUOUS
 10
-33.7985388149
 20
-28.3875067315
 40
0.7971759147
100
AcDbArc
 50
57.7392934743
 51
64.0673350278
  0
ARC
  5
2F2
100
AcDbEntity
  8
0
100
AcDbCircle
 62
7
  6
CONTINUOUS
 10
-20.3969149714
 20
-3.3158644895
 40
0.7693201757
100
AcDbArc
 50
18.2785459056
 51
24.2324694543
  0
ARC
  5
2F3
100
AcDbEntity
  8
0
100
AcDbCircle
 62
7
  6
CONTINUOUS
 10
-18.9508244414
 20
-3.2448923459
 40
0.7510994307
100
AcDbArc
 50
118.2033932996
 51
124.9191107864
  0
ARC
  5
2F4
100
AcDbEntity
  8
0
100
AcDbCircle
 62
7
  6
CONTINUOUS
 10
-18.9542227992
 20
-3.2390439351
 40
0.7443373351
100
AcDbArc
 50
114.874356028
 51
118.1856186395
  0
ARC
  5
2F5
100
AcDbEntity
  8
0
100
AcDbCircle
 62
7
  6
CONTINUOUS
 10
-20.3583509666
 20
-3.2985750726
 40
0.7270555836
100
AcDbArc
 50
24.2373710383
 51
36.426532081
  0
ARC
  5
2F6
100
AcDbEntity
  8
0
100
AcDbCircle
 62
7
  6
CONTINUOUS
 10
-18.9870746861
 20
-3.1849586654
 40
0.6809160939
100
AcDbArc
 50
139.6535466631
 51
146.9496297314
  0
CIRCLE
  5
2F7
100
AcDbEntity
  8
RACCORDO
100
AcDbCircle
 62
7
  6
CONTINUOUS
 10
-17.5
 20
21.7100053736
 40
9.5
  0
CIRCLE
  5
2F8
100
AcDbEntity
  8
RACCORDO
100
AcDbCircle
 62
253
  6
CONTINUOUS
 10
-17.5
 20
21.7100053736
 40
8.9999990565
  0
ARC
  5
2F9
100
AcDbEntity
  8
SUPERFICI
100
AcDbCircle
 62
7
  6
CONTINUOUS
 10
-28.0000028528
 20
30.7100082264
 40
6.0000048868
100
AcDbArc
 50
90.0000917828
 51
180.000067234
  0
ARC
  5
2FA
100
AcDbEntity
  8
DRAFT
100
AcDbCircle
 62
7
  6
CONTINUOUS
 10
-28.0
 20
30.7100053736
 40
6.0
100
AcDbArc
 50
90.0
 51
180.0
  0
ARC
  5
2FB
100
AcDbEntity
  8
RACCORDO
100
AcDbCircle
 62
253
  6
CONTINUOUS
 10
-28.0
 20
30.7100053736
 40
5.3730280717
100
AcDbArc
 50
90.0
 51
180.0
  0
ARC
  5
2FC
100
AcDbEntity
  8
RACCORDO
100
AcDbCircle
 62
7
  6
CONTINUOUS
 10
-28.0
 20
30.7100053736
 40
4.2757899725
100
AcDbArc
 50
90.0
 51
180.0
  0
ARC
  5
2FD
100
AcDbEntity
  8
DRAFT
100
AcDbCircle
 62
7
  6
CONTINUOUS
 10
-28.0
 20
30.7100053736
 40
4.0
100
AcDbArc
 50
90.0
 51
180.0
  0
CIRCLE
  5
2FE
100
AcDbEntity
  8
0
100
AcDbCircle
 62
7
  6
CONTINUOUS
 10
-17.5
 20
21.7100053736
 40
2.25
  0
CIRCLE
  5
2FF
100
AcDbEntity
  8
0
100
AcDbCircle
 62
7
  6
CONTINUOUS
 10
-17.5
 20
21.7100053736
 40
1.8
  0
ARC
  5
300
100
AcDbEntity
  8
DRAFT
100
AcDbCircle
 62
7
  6
CONTINUOUS
 10
-28.0
 20
30.7100053736
 40
1.7757900259
100
AcDbArc
 50
270.0
 51
360.0
  0
CIRCLE
  5
301
100
AcDbEntity
  8
0
100
AcDbCircle
 62
7
  6
CONTINUOUS
 10
-17.5
 20
21.7100053736
 40
1.5
  0
ARC
  5
302
100
AcDbEntity
  8
DRAFT
100
AcDbCircle
 62
7
  6
CONTINUOUS
 10
-28.0
 20
30.7100053736
 40
1.5
100
AcDbArc
 50
270.0
 51
360.0
  0
ARC
  5
303
100
AcDbEntity
  8
0
100
AcDbCircle
 62
7
  6
CONTINUOUS
 10
-21.1192355636
 20
35.3601090878
 40
0.7998249454
100
AcDbArc
 50
25.9421604422
 51
90.0114882835
  0
ARC
  5
304
100
AcDbEntity
  8
0
100
AcDbCircle
 62
253
  6
CONTINUOUS
 10
-20.4009030284
 20
36.5094263196
 40
0.7989882067
100
AcDbArc
 50
205.9398519943
 51
212.2535353856
  0
ARC
  5
305
100
AcDbEntity
  8
RACCORDO
100
AcDbCircle
 62
7
  6
CONTINUOUS
 10
-13.0
 20
37.5126130257
 40
1.0
100
AcDbArc
 50
105.0
 51
180.0
  0
ARC
  5
306
100
AcDbEntity
  8
0
100
AcDbCircle
 62
7
  6
CONTINUOUS
 10
-13.8807791387
 20
35.3601090624
 40
0.7998155208
100
AcDbArc
 50
89.9874583533
 51
154.0573771759
  0
ARC
  5
307
100
AcDbEntity
  8
0
100
AcDbCircle
 62
253
  6
CONTINUOUS
 10
-14.5975121004
 20
36.5085441946
 40
0.7971759147
100
AcDbArc
 50
327.7392929226
 51
334.0673344855
  0
ARC
  5
308
100
AcDbEntity
  8
RACCORDO
100
AcDbCircle
 62
7
  6
CONTINUOUS
 10
-3.8
 20
45.2291647807
 40
0.3
100
AcDbArc
 50
104.9999999924
 51
180.0
  0
ARC
  5
309
100
AcDbEntity
  8
RACCORDO
100
AcDbCircle
 62
7
  6
CONTINUOUS
 10
-11.55
 20
39.9167292154
 40
0.3
100
AcDbArc
 50
104.9999999999
 51
180.0
  0
ARC
  5
30A
100
AcDbEntity
  8
RACCORDO
100
AcDbCircle
 62
7
  6
CONTINUOUS
 10
-9.8
 20
41.7569215943
 40
0.3
100
AcDbArc
 50
104.9999999999
 51
180.0
  0
ARC
  5
30B
100
AcDbEntity
  8
RACCORDO
100
AcDbCircle
 62
7
  6
CONTINUOUS
 10
-8.05
 20
43.530126675
 40
0.3
100
AcDbArc
 50
104.9999999998
 51
180.0
  0
ARC
  5
30C
100
AcDbEntity
  8
0
100
AcDbCircle
 62
7
  6
CONTINUOUS
 10
13.8807797239
 20
-44.9400979014
 40
0.7998155208
100
AcDbArc
 50
269.9874164345
 51
334.0573321825
  0
CIRCLE
  5
30D
100
AcDbEntity
  8
0
100
AcDbCircle
 62
7
  6
CONTINUOUS
 10
-0.0
 20
-4.7899946264
 40
11.25
  0
ARC
  5
30E
100
AcDbEntity
  8
0
100
AcDbCircle
 62
7
  6
CONTINUOUS
 10
-0.0
 20
-4.7899946264
 40
11.0
100
AcDbArc
 50
185.7391704773
 51
264.2608295227
  0
ARC
  5
30F
100
AcDbEntity
  8
0
100
AcDbCircle
 62
7
  6
CONTINUOUS
 10
-0.0
 20
-4.7899946264
 40
11.0
100
AcDbArc
 50
275.7391704773
 51
354.2608295227
  0
ARC
  5
310
100
AcDbEntity
  8
0
100
AcDbCircle
 62
7
  6
CONTINUOUS
 10
-0.0
 20
-4.7899946264
 40
11.0
100
AcDbArc
 50
95.7391704773
 51
174.2608295227
  0
ARC
  5
311
100
AcDbEntity
  8
0
100
AcDbCircle
 62
7
  6
CONTINUOUS
 10
-0.0
 20
-4.7899946264
 40
11.0
100
AcDbArc
 50
5.7391704773
 51
84.2608295227
  0
ARC
  5
312
100
AcDbEntity
  8
0
100
AcDbCircle
 62
7
  6
CONTINUOUS
 10
-0.0
 20
-4.7899946264
 40
10.1299689469
100
AcDbArc
 50
6.233965798
 51
83.766034202
  0
ARC
  5
313
100
AcDbEntity
  8
0
100
AcDbCircle
 62
7
  6
CONTINUOUS
 10
-0.0
 20
-4.7899946264
 40
10.1299689469
100
AcDbArc
 50
96.233965798
 51
173.766034202
  0
ARC
  5
314
100
AcDbEntity
  8
0
100
AcDbCircle
 62
7
  6
CONTINUOUS
 10
-0.0
 20
-4.7899946264
 40
10.1299689469
100
AcDbArc
 50
186.233965798
 51
263.766034202
  0
ARC
  5
315
100
AcDbEntity
  8
0
100
AcDbCircle
 62
7
  6
CONTINUOUS
 10
-0.0
 20
-4.7899946264
 40
10.1299689469
100
AcDbArc
 50
276.233965798
 51
353.766034202
  0
CIRCLE
  5
316
100
AcDbEntity
  8
RACCORDO
100
AcDbCircle
 62
7
  6
CONTINUOUS
 10
-0.0
 20
-23.5899946264
 40
4.8
  0
CIRCLE
  5
317
100
AcDbEntity
  8
RACCORDO
100
AcDbCircle
 62
253
  6
CONTINUOUS
 10
-0.0
 20
-23.5899946264
 40
4.2999972642
  0
CIRCLE
  5
318
100
AcDbEntity
  8
RACCORDO
100
AcDbCircle
 62
7
  6
CONTINUOUS
 10
17.5
 20
-31.2899946264
 40
9.5
  0
CIRCLE
  5
319
100
AcDbEntity
  8
RACCORDO
100
AcDbCircle
 62
253
  6
CONTINUOUS
 10
17.5
 20
-31.2899946264
 40
8.9999990565
  0
ARC
  5
31A
100
AcDbEntity
  8
SUPERFICI
100
AcDbCircle
 62
7
  6
CONTINUOUS
 10
27.9999972513
 20
-40.2899918777
 40
6.0000091571
100
AcDbArc
 50
269.9997046527
 51
359.9993418946
  0
ARC
  5
31B
100
AcDbEntity
  8
DRAFT
100
AcDbCircle
 62
7
  6
CONTINUOUS
 10
28.0
 20
-40.2899946264
 40
6.0
100
AcDbArc
 50
270.0
 51
360.0
  0
ARC
  5
31C
100
AcDbEntity
  8
RACCORDO
100
AcDbCircle
 62
253
  6
CONTINUOUS
 10
28.0
 20
-40.2899946264
 40
5.3730280717
100
AcDbArc
 50
270.0
 51
360.0
  0
ARC
  5
31D
100
AcDbEntity
  8
RACCORDO
100
AcDbCircle
 62
7
  6
CONTINUOUS
 10
28.0
 20
-40.2899946264
 40
4.2757899725
100
AcDbArc
 50
270.0
 51
360.0
  0
ARC
  5
31E
100
AcDbEntity
  8
DRAFT
100
AcDbCircle
 62
7
  6
CONTINUOUS
 10
28.0
 20
-40.2899946264
 40
4.0
100
AcDbArc
 50
270.0
 51
360.0
  0
CIRCLE
  5
31F
100
AcDbEntity
  8
0
100
AcDbCircle
 62
7
  6
CONTINUOUS
 10
17.5
 20
-31.2899946264
 40
2.25
  0
CIRCLE
  5
320
100
AcDbEntity
  8
0
100
AcDbCircle
 62
7
  6
CONTINUOUS
 10
17.5
 20
-31.2899946264
 40
1.8
  0
ARC
  5
321
100
AcDbEntity
  8
DRAFT
100
AcDbCircle
 62
7
  6
CONTINUOUS
 10
28.0
 20
-40.2899946264
 40
1.7757900259
100
AcDbArc
 50
90.0
 51
180.0
  0
CIRCLE
  5
322
100
AcDbEntity
  8
0
100
AcDbCircle
 62
7
  6
CONTINUOUS
 10
17.5
 20
-31.2899946264
 40
1.5
  0
ARC
  5
323
100
AcDbEntity
  8
DRAFT
100
AcDbCircle
 62
7
  6
CONTINUOUS
 10
28.0
 20
-40.2899946264
 40
1.5
100
AcDbArc
 50
90.0
 51
180.0
  0
ARC
  5
324
100
AcDbEntity
  8
0
100
AcDbCircle
 62
7
  6
CONTINUOUS
 10
21.1192349784
 20
-44.9400979268
 40
0.7998249454
100
AcDbArc
 50
205.9422054354
 51
270.011530202
  0
ARC
  5
325
100
AcDbEntity
  8
0
100
AcDbCircle
 62
253
  6
CONTINUOUS
 10
20.4009030282
 20
-46.089415572
 40
0.7989882067
100
AcDbArc
 50
25.9398519717
 51
32.2535353627
  0
ARC
  5
326
100
AcDbEntity
  8
0
100
AcDbCircle
 62
253
  6
CONTINUOUS
 10
14.5975121005
 20
-46.0885334473
 40
0.7971759147
100
AcDbArc
 50
147.739292928
 51
154.0673344905
  0
CIRCLE
  5
327
100
AcDbEntity
  8
RACCORDO
100
AcDbCircle
 62
7
  6
CONTINUOUS
 10
-0.0
 20
14.0100053736
 40
4.8
  0
CIRCLE
  5
328
100
AcDbEntity
  8
RACCORDO
100
AcDbCircle
 62
253
  6
CONTINUOUS
 10
-0.0
 20
14.0100053736
 40
4.2999972642
  0
ARC
  5
329
100
AcDbEntity
  8
RACCORDO
100
AcDbCircle
 62
7
  6
CONTINUOUS
 10
13.0
 20
37.5126130257
 40
1.0
100
AcDbArc
 50
0.0
 51
75.0
  0
ARC
  5
32A
100
AcDbEntity
  8
RACCORDO
100
AcDbCircle
 62
7
  6
CONTINUOUS
 10
3.8
 20
45.2291647807
 40
0.3
100
AcDbArc
 50
0.0
 51
75.0000000076
  0
ARC
  5
32B
100
AcDbEntity
  8
RACCORDO
100
AcDbCircle
 62
7
  6
CONTINUOUS
 10
11.55
 20
39.9167292154
 40
0.3
100
AcDbArc
 50
0.0
 51
75.0000000001
  0
ARC
  5
32C
100
AcDbEntity
  8
RACCORDO
100
AcDbCircle
 62
7
  6
CONTINUOUS
 10
9.8
 20
41.7569215943
 40
0.3
100
AcDbArc
 50
0.0
 51
75.0
  0
ARC
  5
32D
100
AcDbEntity
  8
RACCORDO
100
AcDbCircle
 62
7
  6
CONTINUOUS
 10
8.05
 20
43.530126675
 40
0.3
100
AcDbArc
 50
0.0
 51
75.0000000002
  0
CIRCLE
  5
32E
100
AcDbEntity
  8
RACCORDO
100
AcDbCircle
 62
7
  6
CONTINUOUS
 10
17.5
 20
21.7100053736
 40
9.5
  0
CIRCLE
  5
32F
100
AcDbEntity
  8
RACCORDO
100
AcDbCircle
 62
253
  6
CONTINUOUS
 10
17.5
 20
21.7100053736
 40
8.9999990565
  0
CIRCLE
  5
330
100
AcDbEntity
  8
0
100
AcDbCircle
 62
7
  6
CONTINUOUS
 10
17.5
 20
21.7100053736
 40
2.25
  0
CIRCLE
  5
331
100
AcDbEntity
  8
0
100
AcDbCircle
 62
7
  6
CONTINUOUS
 10
17.5
 20
21.7100053736
 40
1.8
  0
CIRCLE
  5
332
100
AcDbEntity
  8
0
100
AcDbCircle
 62
7
  6
CONTINUOUS
 10
17.5
 20
21.7100053736
 40
1.5
  0
ARC
  5
333
100
AcDbEntity
  8
0
100
AcDbCircle
 62
7
  6
CONTINUOUS
 10
32.6501037142
 20
25.3292409373
 40
0.7998249454
100
AcDbArc
 50
295.9421604422
 51
0.0114882835
  0
ARC
  5
334
100
AcDbEntity
  8
0
100
AcDbCircle
 62
7
  6
CONTINUOUS
 10
32.6501036887
 20
18.0907845123
 40
0.7998155208
100
AcDbArc
 50
359.9874583533
 51
64.0573771759
  0
ARC
  5
335
100
AcDbEntity
  8
0
100
AcDbCircle
 62
253
  6
CONTINUOUS
 10
33.7994209432
 20
24.6109083991
 40
0.7989882067
100
AcDbArc
 50
115.9398517299
 51
122.2535351113
  0
ARC
  5
336
100
AcDbEntity
  8
0
100
AcDbCircle
 62
253
  6
CONTINUOUS
 10
33.7985388183
 20
18.8075174769
 40
0.7971759147
100
AcDbArc
 50
237.7392931997
 51
244.0673347529
  0
ARC
  5
337
100
AcDbEntity
  8
SUPERFICI
100
AcDbCircle
 62
7
  6
CONTINUOUS
 10
28.0000028528
 20
30.7100082264
 40
6.0000048868
100
AcDbArc
 50
359.999932766
 51
90.0002183647
  0
ARC
  5
338
100
AcDbEntity
  8
DRAFT
100
AcDbCircle
 62
7
  6
CONTINUOUS
 10
28.0
 20
30.7100053736
 40
6.0
100
AcDbArc
 50
0.0
 51
90.0
  0
ARC
  5
339
100
AcDbEntity
  8
RACCORDO
100
AcDbCircle
 62
253
  6
CONTINUOUS
 10
28.0
 20
30.7100053736
 40
5.3730280717
100
AcDbArc
 50
0.0
 51
90.0
  0
ARC
  5
33A
100
AcDbEntity
  8
RACCORDO
100
AcDbCircle
 62
7
  6
CONTINUOUS
 10
28.0
 20
30.7100053736
 40
4.2757899725
100
AcDbArc
 50
0.0
 51
90.0
  0
ARC
  5
33B
100
AcDbEntity
  8
DRAFT
100
AcDbCircle
 62
7
  6
CONTINUOUS
 10
28.0
 20
30.7100053736
 40
4.0
100
AcDbArc
 50
0.0
 51
90.0
  0
ARC
  5
33C
100
AcDbEntity
  8
DRAFT
100
AcDbCircle
 62
7
  6
CONTINUOUS
 10
28.0
 20
30.7100053736
 40
1.7757900259
100
AcDbArc
 50
180.0
 51
270.0
  0
ARC
  5
33D
100
AcDbEntity
  8
DRAFT
100
AcDbCircle
 62
7
  6
CONTINUOUS
 10
28.0
 20
30.7100053736
 40
1.5
100
AcDbArc
 50
180.0
 51
270.0
  0
SPLINE
  5
33E
100
AcDbEntity
  8
ASSI
100
AcDbSpline
 62
7
  6
CONTINUOUS
 70
0
 71
3
 72
16
 73
12
 74
10
 42
0.0000001
 43
0.0000001
 44
0.0000000001
 12
-11.7278740979
 22
0.0
 32
0.0
 13
0.0
 23
11.4728872726
 33
0.0
 40
0.0
 40
0.0
 40
0.0
 40
0.0
 40
0.0016141104
 40
0.0357505856
 40
0.1026382447
 40
0.2000525584
 40
0.3246907729
 40
0.4723150861
 40
0.6379022132
 40
0.8158160045
 40
1.0
 40
1.0
 40
1.0
 40
1.0
 10
33.6159885716
 20
-16.2421814879
 30
0.0
 10
33.6096785438
 20
-16.2421814879
 30
0.0
 10
33.469919088
 20
-16.232998349
 30
0.0
 10
33.6483410288
 20
-15.6226954534
 30
0.0
 10
33.4712772163
 20
-15.0199307831
 30
0.0
 10
33.5106967022
 20
-13.8421378195
 30
0.0
 10
33.4578078405
 20
-12.4570683001
 30
0.0
 10
33.4455909012
 20
-10.7728665103
 30
0.0
 10
33.4266332116
 20
-8.8978802962
 30
0.0
 10
33.4177000324
 20
-6.8789131562
 30
0.0
 10
33.4152858976
 20
-5.4943686991
 30
0.0
 10
33.4152858976
 20
-4.7899946264
 30
0.0
 11
33.6159885716
 21
-16.2421814879
 31
0.0
 11
33.5974700651
 21
-16.2409376537
 31
0.0
 11
33.5610636777
 21
-15.8509895228
 31
0.0
 11
33.5265276917
 21
-15.0843724769
 31
0.0
 11
33.4950381886
 21
-13.9671927401
 31
0.0
 11
33.4676675058
 21
-12.5374945283
 31
0.0
 11
33.4453477189
 21
-10.8439644994
 31
0.0
 11
33.4288389017
 21
-8.9442737875
 31
0.0
 11
33.418703242
 21
-6.9031140812
 31
0.0
 11
33.4152858976
 21
-4.7899946264
 31
0.0
  0
SPLINE
  5
33F
100
AcDbEntity
  8
0
100
AcDbSpline
 62
7
  6
CONTINUOUS
 70
0
 71
3
 72
16
 73
12
 74
10
 42
0.0000001
 43
0.0000001
 44
0.0000000001
 12
11.7278740979
 22
0.0
 32
0.0
 13
-0.0
 23
11.4728872726
 33
0.0
 40
0.0
 40
0.0
 40
0.0
 40
0.0
 40
0.0016141104
 40
0.0357505856
 40
0.1026382447
 40
0.2000525584
 40
0.3246907729
 40
0.4723150861
 40
0.6379022132
 40
0.8158160045
 40
1.0
 40
1.0
 40
1.0
 40
1.0
 10
-33.6159885716
 20
-16.2421814879
 30
0.0
 10
-33.6096785438
 20
-16.2421814879
 30
0.0
 10
-33.469919088
 20
-16.232998349
 30
0.0
 10
-33.6483410288
 20
-15.6226954534
 30
0.0
 10
-33.4712772163
 20
-15.0199307831
 30
0.0
 10
-33.5106967022
 20
-13.8421378195
 30
0.0
 10
-33.4578078405
 20
-12.4570683001
 30
0.0
 10
-33.4455909012
 20
-10.7728665103
 30
0.0
 10
-33.4266332116
 20
-8.8978802962
 30
0.0
 10
-33.4177000324
 20
-6.8789131562
 30
0.0
 10
-33.4152858976
 20
-5.4943686991
 30
0.0
 10
-33.4152858976
 20
-4.7899946264
 30
0.0
 11
-33.6159885716
 21
-16.2421814879
 31
0.0
 11
-33.5974700651
 21
-16.2409376537
 31
0.0
 11
-33.5610636777
 21
-15.8509895228
 31
0.0
 11
-33.5265276917
 21
-15.0843724769
 31
0.0
 11
-33.4950381886
 21
-13.9671927401
 31
0.0
 11
-33.4676675058
 21
-12.5374945283
 31
0.0
 11
-33.4453477189
 21
-10.8439644994
 31
0.0
 11
-33.4288389017
 21
-8.9442737875
 31
0.0
 11
-33.418703242
 21
-6.9031140812
 31
0.0
 11
-33.4152858976
 21
-4.7899946264
 31
0.0
  0
SPLINE
  5
340
100
AcDbEntity
  8
0
100
AcDbSpline
 62
7
  6
CONTINUOUS
 70
0
 71
3
 72
16
 73
12
 74
10
 42
0.0000001
 43
0.0000001
 44
0.0000000001
 12
0.0
 22
11.7278740979
 32
0.0
 13
11.4728872726
 23
0.0
 33
0.0
 40
0.0
 40
0.0
 40
0.0
 40
0.0
 40
0.0016141104
 40
0.0357505856
 40
0.1026382447
 40
0.2000525584
 40
0.3246907729
 40
0.4723150861
 40
0.6379022132
 40
0.8158160045
 40
1.0
 40
1.0
 40
1.0
 40
1.0
 10
-11.4521868615
 20
-45.9059831979
 30
0.0
 10
-11.4521868615
 20
-45.8996731701
 30
0.0
 10
-11.4430037227
 20
-45.7599137144
 30
0.0
 10
-10.832700827
 20
-45.9383356551
 30
0.0
 10
-10.2299361568
 20
-45.7612718427
 30
0.0
 10
-9.0521431931
 20
-45.8006913286
 30
0.0
 10
-7.6670736738
 20
-45.7478024669
 30
0.0
 10
-5.9828718839
 20
-45.7355855275
 30
0.0
 10
-4.1078856698
 20
-45.716627838
 30
0.0
 10
-2.0889185298
 20
-45.7076946588
 30
0.0
 10
-0.7043740727
 20
-45.7052805239
 30
0.0
 10
-0.0
 20
-45.7052805239
 30
0.0
 11
-11.4521868615
 21
-45.9059831979
 31
0.0
 11
-11.4509430274
 21
-45.8874646915
 31
0.0
 11
-11.0609948965
 21
-45.851058304
 31
0.0
 11
-10.2943778506
 21
-45.816522318
 31
0.0
 11
-9.1771981137
 21
-45.785032815
 31
0.0
 11
-7.7474999019
 21
-45.7576621321
 31
0.0
 11
-6.0539698731
 21
-45.7353423453
 31
0.0
 11
-4.1542791612
 21
-45.718833528
 31
0.0
 11
-2.1131194549
 21
-45.7086978683
 31
0.0
 11
-0.0
 21
-45.7052805239
 31
0.0
  0
SPLINE
  5
341
100
AcDbEntity
  8
0
100
AcDbSpline
 62
7
  6
CONTINUOUS
 70
0
 71
3
 72
88
 73
84
 74
82
 42
0.0000001
 43
0.0000001
 44
0.0000000001
 12
0.6807826567
 22
1.0870646442
 32
0.0
 13
0.6560042481
 23
-1.1026398021
 33
0.0
 40
0.0
 40
0.0
 40
0.0
 40
0.0
 40
0.0592436284
 40
0.1185265305
 40
0.1484914654
 40
0.1788150195
 40
0.2096070875
 40
0.2252134069
 40
0.2409757454
 40
0.2567987753
 40
0.2725919634
 40
0.3041592347
 40
0.3358325469
 40
0.3517578755
 40
0.3677652519
 40
0.3838727041
 40
0.4000979269
 40
0.4164582327
 40
0.4329705091
 40
0.4412890393
 40
0.4496516801
 40
0.4580604076
 40
0.4665171656
 40
0.4707641839
 40
0.4750239235
 40
0.479296618
 40
0.4835824989
 40
0.4878817956
 40
0.4900365496
 40
0.4921947424
 40
0.4943564024
 40
0.4954385416
 40
0.4965215581
 40
0.4976054553
 40
0.4986902367
 40
0.49923296
 40
0.4997759057
 40
0.5000474621
 40
0.5003190742
 40
0.5005907421
 40
0.500726597
 40
0.5008624659
 40
0.5010809673
 40
0.5012994266
 40
0.5017362191
 40
0.5021728437
 40
0.5026093003
 40
0.5034817108
 40
0.5043534518
 40
0.5060949308
 40
0.5078337483
 40
0.5095699153
 40
0.5113034425
 40
0.5147626187
 40
0.5182113676
 40
0.5216497778
 40
0.5284959182
 40
0.535301788
 40
0.5420681256
 40
0.5487956828
 40
0.5554852241
 40
0.5687531841
 40
0.5818785784
 40
0.594867997
 40
0.6077282388
 40
0.6330875917
 40
0.6580168263
 40
0.6825774778
 40
0.7068338864
 40
0.7308528379
 40
0.7547031125
 40
0.802161648
 40
0.8259302349
 40
0.8498138467
 40
0.8738824361
 40
0.8860085806
 40
0.8982064313
 40
0.910425517
 40
0.9226159245
 40
0.9469445984
 40
0.9712673715
 40
0.9956569645
 40
1.0
 40
1.0
 40
1.0
 40
1.0
 10
0.40649
 20
24.0735953736
 30
0.0
 10
0.4199340116
 20
24.0950625916
 30
0.0
 10
0.4495430029
 20
24.1363811568
 30
0.0
 10
0.4929099947
 20
24.1829885723
 30
0.0
 10
0.5310929279
 20
24.2170233127
 30
0.0
 10
0.5617079158
 20
24.2411277863
 30
0.0
 10
0.5886555548
 20
24.2598664051
 30
0.0
 10
0.6111111524
 20
24.2740865255
 30
0.0
 10
0.6284477902
 20
24.2844137634
 30
0.0
 10
0.6461654668
 20
24.2942410499
 30
0.0
 10
0.6702408685
 20
24.306504101
 30
0.0
 10
0.7011273998
 20
24.3202794871
 30
0.0
 10
0.7329447947
 20
24.3319074027
 30
0.0
 10
0.7589340838
 20
24.3399284374
 30
0.0
 10
0.7787572576
 20
24.3453208238
 30
0.0
 10
0.7988738193
 20
24.3500780739
 30
0.0
 10
0.8192840116
 20
24.3542003395
 30
0.0
 10
0.8399875617
 20
24.3576876137
 30
0.0
 10
0.8574415992
 20
24.3600586529
 30
0.0
 10
0.871545478
 20
24.3616399223
 30
0.0
 10
0.882223463
 20
24.3626702705
 30
0.0
 10
0.8929748108
 20
24.3635420133
 30
0.0
 10
0.9019822619
 20
24.3641354328
 30
0.0
 10
0.9092242252
 20
24.3645311919
 30
0.0
 10
0.9146820289
 20
24.3647888045
 30
0.0
 10
0.9201581849
 20
24.365006774
 30
0.0
 10
0.9256526957
 20
24.3651851007
 30
0.0
 10
0.9302431222
 20
24.3653005793
 30
0.0
 10
0.9339245591
 20
24.3653731869
 30
0.0
 10
0.9366924104
 20
24.3654177753
 30
0.0
 10
0.9390018453
 20
24.365446662
 30
0.0
 10
0.9408516778
 20
24.3654648221
 30
0.0
 10
0.9422407594
 20
24.3654759701
 30
0.0
 10
0.9436309884
 20
24.3654846406
 30
0.0
 10
0.9447902317
 20
24.3654898003
 30
0.0
 10
0.9457181987
 20
24.36549269
 30
0.0
 10
0.9462984762
 20
24.3654939802
 30
0.0
 10
0.9467628414
 20
24.3654947027
 30
0.0
 10
0.9471112228
 20
24.3654950898
 30
0.0
 10
0.9474015854
 20
24.3654952832
 30
0.0
 10
0.9476339113
 20
24.3654953609
 30
0.0
 10
0.9478435061
 20
24.3654953833
 30
0.0
 10
0.9480884181
 20
24.3654953446
 30
0.0
 10
0.9484619894
 20
24.3654951721
 30
0.0
 10
0.9489288187
 20
24.3654947399
 30
0.0
 10
0.9494888517
 20
24.3654938757
 30
0.0
 10
0.9502351312
 20
24.3654922626
 30
0.0
 10
0.9511674414
 20
24.3654893825
 30
0.0
 10
0.9526577016
 20
24.365482932
 30
0.0
 10
0.9545183724
 20
24.3654714154
 30
0.0
 10
0.9567485785
 20
24.3654520584
 30
0.0
 10
0.9589753299
 20
24.3654271697
 30
0.0
 10
0.9619374789
 20
24.3653866397
 30
0.0
 10
0.9656315678
 20
24.3653221788
 30
0.0
 10
0.9700540208
 20
24.3652226396
 30
0.0
 10
0.9759234496
 20
24.3650606589
 30
0.0
 10
0.9832260222
 20
24.3648031044
 30
0.0
 10
0.991946919
 20
24.3644050625
 30
0.0
 10
1.0006125503
 20
24.3639185052
 30
0.0
 10
1.0092229247
 20
24.3633434307
 30
0.0
 10
1.0205980724
 20
24.3624610997
 30
0.0
 10
1.0346818687
 20
24.3611385421
 30
0.0
 10
1.0514084618
 20
24.3591928718
 30
0.0
 10
1.0679142473
 20
24.3568929649
 30
0.0
 10
1.0895249819
 20
24.3533708504
 30
0.0
 10
1.1160142423
 20
24.3480906604
 30
0.0
 10
1.1470675866
 20
24.3403047823
 30
0.0
 10
1.1772382223
 20
24.3310984195
 30
0.0
 10
1.20652474
 20
24.3204716332
 30
0.0
 10
1.2349278033
 20
24.3084229591
 30
0.0
 10
1.271549088
 20
24.2904996266
 30
0.0
 10
1.3065581816
 20
24.2696490456
 30
0.0
 10
1.339675038
 20
24.2460245213
 30
0.0
 10
1.3636442465
 20
24.2268744844
 30
0.0
 10
1.3828303118
 20
24.2097761448
 30
0.0
 10
1.3977216057
 20
24.1954091193
 30
0.0
 10
1.4086816291
 20
24.1842717286
 30
0.0
 10
1.4193633347
 20
24.1728293224
 30
0.0
 10
1.433162861
 20
24.1572126433
 30
0.0
 10
1.4495857823
 20
24.1370215495
 30
0.0
 10
1.4679431012
 20
24.1117386432
 30
0.0
 10
1.4802539467
 20
24.0926749848
 30
0.0
 10
1.4865873483
 20
24.0821448916
 30
0.0
 10
1.4875370315
 20
24.0805486236
 30
0.0
 11
0.40649
 21
24.0735953736
 31
0.0
 11
0.4507840449
 21
24.1353390667
 31
0.0
 11
0.5025466197
 21
24.1910395168
 31
0.0
 11
0.5312286058
 21
24.2166235257
 31
0.0
 11
0.5617777243
 21
24.2406967239
 31
0.0
 11
0.5941939752
 21
24.2632591114
 31
0.0
 11
0.6111022754
 21
24.2739737511
 31
0.0
 11
0.6284773587
 21
24.2843106881
 31
0.0
 11
0.6462326898
 21
24.2941416461
 31
0.0
 11
0.6642817336
 21
24.3033383488
 31
0.0
 11
0.7012609593
 21
24.319828988
 31
0.0
 11
0.7394150355
 21
24.3337826059
 31
0.0
 11
0.7589326427
 21
24.3398080317
 31
0.0
 11
0.7787439625
 21
24.3451992023
 31
0.0
 11
0.7988489949
 21
24.3499561174
 31
0.0
 11
0.81924774
 21
24.3540787772
 31
0.0
 11
0.8399401978
 21
24.3575671817
 31
0.0
 11
0.8609263683
 21
24.3604213308
 31
0.0
 11
0.8715295957
 21
24.3616105596
 31
0.0
 11
0.8822062514
 21
24.3626412245
 31
0.0
 11
0.8929563352
 21
24.3635133257
 31
0.0
 11
0.9037798472
 21
24.3642268629
 31
0.0
 11
0.9092191387
 21
24.3645241701
 31
0.0
 11
0.9146767873
 21
24.3647818364
 31
0.0
 11
0.9201527929
 21
24.3649998616
 31
0.0
 11
0.9256471556
 21
24.365178246
 31
0.0
 11
0.9311598753
 21
24.3653169893
 31
0.0
 11
0.9339231191
 21
24.3653714956
 31
0.0
 11
0.9366909521
 21
24.3654160917
 31
0.0
 11
0.9394633743
 21
24.3654507776
 31
0.0
 11
0.9408513064
 21
24.3654644041
 31
0.0
 11
0.9422403859
 21
24.3654755532
 31
0.0
 11
0.9436306126
 21
24.3654842246
 31
0.0
 11
0.9450219867
 21
24.3654904185
 31
0.0
 11
0.9457181039
 21
24.3654925864
 31
0.0
 11
0.946414508
 21
24.3654941349
 31
0.0
 11
0.9467628176
 21
24.3654946768
 31
0.0
 11
0.9471111989
 21
24.3654950639
 31
0.0
 11
0.947459652
 21
24.3654952962
 31
0.0
 11
0.9476339054
 21
24.3654953543
 31
0.0
 11
0.9478081767
 21
24.3654953736
 31
0.0
 11
0.9480884361
 21
24.3654953304
 31
0.0
 11
0.9483686415
 21
24.3654952008
 31
0.0
 11
0.9489288904
 21
24.3654946822
 31
0.0
 11
0.9494889234
 21
24.3654938178
 31
0.0
 11
0.9500487404
 21
24.3654926078
 31
0.0
 11
0.9511677267
 21
24.3654891504
 31
0.0
 11
0.9522858493
 21
24.3654843101
 31
0.0
 11
0.9545195033
 21
24.3654704807
 31
0.0
 11
0.9567497025
 21
24.3654511196
 31
0.0
 11
0.9589764468
 21
24.3654262267
 31
0.0
 11
0.9611997362
 21
24.365395802
 31
0.0
 11
0.9656359504
 21
24.3653183574
 31
0.0
 11
0.9700583452
 21
24.3652187857
 31
0.0
 11
0.9744669206
 21
24.365097087
 31
0.0
 11
0.9832426129
 21
24.3647873085
 31
0.0
 11
0.9919630273
 21
24.3643890218
 31
0.0
 11
1.000628164
 21
24.363902227
 31
0.0
 11
1.0092380228
 21
24.363326924
 31
0.0
 11
1.0177926037
 21
24.3626631129
 31
0.0
 11
1.0347359322
 21
24.3610699663
 31
0.0
 11
1.0514581494
 21
24.359122787
 31
0.0
 11
1.0679592552
 21
24.3568215752
 31
0.0
 11
1.0842392497
 21
24.3541663308
 31
0.0
 11
1.1161359048
 21
24.3477937442
 31
0.0
 11
1.1471481147
 21
24.3400050272
 31
0.0
 11
1.1772758793
 21
24.3308001799
 31
0.0
 11
1.2065191986
 21
24.3201792023
 31
0.0
 11
1.2348780726
 21
24.3081420942
 31
0.0
 11
1.2623525014
 21
24.2946888559
 31
0.0
 11
1.3146480231
 21
24.263533988
 31
0.0
 11
1.3394691161
 21
24.2458323586
 31
0.0
 11
1.3634057639
 21
24.2267145988
 31
0.0
 11
1.3864579663
 21
24.2061807086
 31
0.0
 11
1.3976524006
 21
24.1953827147
 31
0.0
 11
1.4086257235
 21
24.1842306881
 31
0.0
 11
1.41931876
 21
24.1727723509
 31
0.0
 11
1.4296723351
 21
24.1610554249
 31
0.0
 11
1.4493611008
 21
24.1368458066
 31
0.0
 11
1.4676920206
 21
24.1116018331
 31
0.0
 11
1.4846650945
 21
24.0853235046
 31
0.0
 11
1.4875370315
 21
24.0805486236
 31
0.0
  0
SPLINE
  5
342
100
AcDbEntity
  8
0
100
AcDbSpline
 62
7
  6
CONTINUOUS
 70
0
 71
3
 72
35
 73
31
 74
29
 42
0.0000001
 43
0.0000001
 44
0.0000000001
 12
0.2571592665
 22
-0.4322442172
 32
0.0
 13
-0.0435977346
 23
-0.500920504
 33
0.0
 40
0.0
 40
0.0
 40
0.0
 40
0.0
 40
0.114554573
 40
0.2430318756
 40
0.3756887633
 40
0.4439867216
 40
0.5137734596
 40
0.585179454
 40
0.6583265168
 40
0.695590362
 40
0.7333312621
 40
0.7523848509
 40
0.7715624948
 40
0.781198342
 40
0.7908657761
 40
0.8005649842
 40
0.8054265644
 40
0.8078603583
 40
0.8102961583
 40
0.8128580164
 40
0.8154179006
 40
0.8205317587
 40
0.8307359141
 40
0.8409088235
 40
0.8510506811
 40
0.8712419767
 40
0.8913114389
 40
0.9310909499
 40
0.9704029161
 40
1.0
 40
1.0
 40
1.0
 40
1.0
 10
1.4875370315
 20
24.0805486236
 30
0.0
 10
1.4973566215
 20
24.0640434397
 30
0.0
 10
1.5164581335
 20
24.0279818452
 30
0.0
 10
1.5402379429
 20
23.9695649378
 30
0.0
 10
1.5559070773
 20
23.9165259314
 30
0.0
 10
1.5657564266
 20
23.8722189658
 30
0.0
 10
1.5718560516
 20
23.8376297339
 30
0.0
 10
1.5765951229
 20
23.8020099562
 30
0.0
 10
1.5793938165
 20
23.7716571981
 30
0.0
 10
1.5809654739
 20
23.7468752649
 30
0.0
 10
1.581668665
 20
23.7311255137
 30
0.0
 10
1.5820630759
 20
23.7183983839
 30
0.0
 10
1.5822393639
 20
23.7103775585
 30
0.0
 10
1.5823381667
 20
23.7039288034
 30
0.0
 10
1.5823911728
 20
23.6990681888
 30
0.0
 10
1.5824176433
 20
23.6950075528
 30
0.0
 10
1.5824269074
 20
23.6921592329
 30
0.0
 10
1.5824295602
 20
23.6905282665
 30
0.0
 10
1.5824302259
 20
23.6892827372
 30
0.0
 10
1.5824295368
 20
23.6880160748
 30
0.0
 10
1.5824267695
 20
23.6863005654
 30
0.0
 10
1.5824170825
 20
23.6833042002
 30
0.0
 10
1.5823894145
 20
23.6790319353
 30
0.0
 10
1.582334011
 20
23.6739171734
 30
0.0
 10
1.5822307307
 20
23.6671290283
 30
0.0
 10
1.5820464426
 20
23.6586833115
 30
0.0
 10
1.5816340973
 20
23.6452745686
 30
0.0
 10
1.5808988431
 20
23.6286702146
 30
0.0
 10
1.5797563568
 20
23.6104885876
 30
0.0
 10
1.5788396505
 20
23.5989751767
 30
0.0
 10
1.5784095286
 20
23.594033248
 30
0.0
 11
1.4875370315
 21
24.0805486236
 31
0.0
 11
1.5145377045
 21
24.0296637823
 31
0.0
 11
1.5389789309
 21
23.9698666396
 31
0.0
 11
1.5579887736
 21
23.9059320764
 31
0.0
 11
1.5654569261
 21
23.8724132623
 31
0.0
 11
1.5715672327
 21
23.837860093
 31
0.0
 11
1.5763196934
 21
23.8022725686
 31
0.0
 11
1.5797143082
 21
23.7656506891
 31
0.0
 11
1.5809024234
 21
23.7469518662
 31
0.0
 11
1.581751077
 21
23.7279944545
 31
0.0
 11
1.5820481058
 21
23.7184187779
 31
0.0
 11
1.5822602693
 21
23.7087784541
 31
0.0
 11
1.5823345265
 21
23.7039340494
 31
0.0
 11
1.5823875673
 21
23.699073483
 31
0.0
 11
1.5824193918
 21
23.6941967548
 31
0.0
 11
1.582427348
 21
23.6917523301
 31
0.0
 11
1.582429337
 21
23.6905286025
 31
0.0
 11
1.58243
 21
23.6893038648
 31
0.0
 11
1.582429307
 21
23.6880157442
 31
0.0
 11
1.5824272282
 21
23.6867286176
 31
0.0
 11
1.5824189126
 21
23.6841573462
 31
0.0
 11
1.5823856505
 21
23.6790267308
 31
0.0
 11
1.5823302136
 21
23.6739120188
 31
0.0
 11
1.582252602
 21
23.66881321
 31
0.0
 11
1.5820308544
 21
23.6586633024
 31
0.0
 11
1.5817204078
 21
23.6485770081
 31
0.0
 11
1.5808334176
 21
23.6285952592
 31
0.0
 11
1.5795916313
 21
23.6088679632
 31
0.0
 11
1.5784095286
 21
23.594033248
 31
0.0
  0
SPLINE
  5
343
100
AcDbEntity
  8
0
100
AcDbSpline
 62
7
  6
CONTINUOUS
 70
0
 71
3
 72
19
 73
15
 74
13
 42
0.0000001
 43
0.0000001
 44
0.0000000001
 12
-0.0367265509
 22
-0.421973356
 32
0.0
 13
-0.2579888054
 23
-0.3359957551
 33
0.0
 40
0.0
 40
0.0
 40
0.0
 40
0.0
 40
0.0109937847
 40
0.0566002634
 40
0.1463141604
 40
0.2341589532
 40
0.3202916033
 40
0.404878604
 40
0.4880957263
 40
0.6511176315
 40
0.8109713377
 40
0.8902540948
 40
0.9693735822
 40
1.0
 40
1.0
 40
1.0
 40
1.0
 10
1.5784095286
 20
23.594033248
 30
0.0
 10
1.5782749407
 20
23.5924868866
 30
0.0
 10
1.5775636873
 20
23.5845272265
 30
0.0
 10
1.5754790584
 20
23.5639738944
 30
0.0
 10
1.5713729727
 20
23.532725047
 30
0.0
 10
1.5649967784
 20
23.496034094
 30
0.0
 10
1.5571986807
 20
23.4603587073
 30
0.0
 10
1.5479776927
 20
23.4256984625
 30
0.0
 10
1.5338855932
 20
23.3811519956
 30
0.0
 10
1.5127043629
 20
23.3277681269
 30
0.0
 10
1.4865086315
 20
23.2772719928
 30
0.0
 10
1.4627649584
 20
23.2391035032
 30
0.0
 10
1.4475007443
 20
23.2171960182
 30
0.0
 10
1.4381866133
 20
23.2048095391
 30
0.0
 10
1.4355528556
 20
23.2013794236
 30
0.0
 11
1.5784095286
 21
23.594033248
 31
0.0
 11
1.5779950489
 21
23.5893951201
 31
0.0
 11
1.5760436704
 21
23.57017673
 31
0.0
 11
1.5710765252
 21
23.5325033086
 31
0.0
 11
1.5646901956
 21
23.4958476989
 31
0.0
 11
1.5568846816
 21
23.460209901
 31
0.0
 11
1.5476599834
 21
23.4255899149
 31
0.0
 11
1.5370161007
 21
23.3919877405
 31
0.0
 11
1.5114707824
 21
23.327836827
 31
0.0
 11
1.4802487266
 21
23.2677571606
 31
0.0
 11
1.4625089222
 21
23.239244045
 31
0.0
 11
1.4433499334
 21
23.2117487412
 31
0.0
 11
1.4355528556
 21
23.2013794236
 31
0.0
  0
SPLINE
  5
344
100
AcDbEntity
  8
0
100
AcDbSpline
 62
7
  6
CONTINUOUS
 70
0
 71
3
 72
66
 73
62
 74
60
 42
0.0000001
 43
0.0000001
 44
0.0000000001
 12
0.1738598956
 22
-1.7911874353
 32
0.0
 13
1.683951546
 23
0.6376026123
 33
0.0
 40
0.0
 40
0.0
 40
0.0
 40
0.0
 40
0.0889891837
 40
0.1731101898
 40
0.2140590648
 40
0.2546373404
 40
0.2951518442
 40
0.3359108442
 40
0.356481658
 40
0.3772262411
 40
0.387667427
 40
0.3980919561
 40
0.4188661328
 40
0.4395748475
 40
0.460257721
 40
0.5016950463
 40
0.5435041081
 40
0.5859926761
 40
0.607588517
 40
0.629462663
 40
0.6516487425
 40
0.6741789871
 40
0.6970841757
 40
0.7086870269
 40
0.7203944706
 40
0.7322099346
 40
0.7441367537
 40
0.7501429878
 40
0.7561782687
 40
0.7622429871
 40
0.7683375286
 40
0.7713961077
 40
0.7744622844
 40
0.7775361054
 40
0.7790758976
 40
0.7798465166
 40
0.7806176184
 40
0.7813892037
 40
0.7817751779
 40
0.7821612733
 40
0.7823543664
 40
0.7825838723
 40
0.7830548945
 40
0.7839964301
 40
0.7858774707
 40
0.7877558145
 40
0.7896314731
 40
0.7915044586
 40
0.7952424551
 40
0.8026868764
 40
0.810089887
 40
0.8174522818
 40
0.8247748687
 40
0.8393037068
 40
0.8536833343
 40
0.8679206917
 40
0.8820229299
 40
0.9098497694
 40
0.9372269484
 40
0.9908753874
 40
1.0
 40
1.0
 40
1.0
 40
1.0
 10
-0.00634
 20
23.4939653736
 30
0.0
 10
-0.0011827833
 20
23.4408332711
 30
0.0
 10
0.015610747
 20
23.3379430177
 30
0.0
 10
0.0558158529
 20
23.2153521467
 30
0.0
 10
0.0986507222
 20
23.1255711221
 30
0.0
 10
0.1358182706
 20
23.062387508
 30
0.0
 10
0.1783044716
 20
23.0027964085
 30
0.0
 10
0.2180237136
 20
22.9562680972
 30
0.0
 10
0.2523220396
 20
22.9209306932
 30
0.0
 10
0.2748708063
 20
22.8995739719
 30
0.0
 10
0.2935125062
 20
22.8829728198
 30
0.0
 10
0.3125202353
 20
22.866764326
 30
0.0
 10
0.3368642738
 20
22.8473330796
 30
0.0
 10
0.367007359
 20
22.8253570328
 30
0.0
 10
0.4084116752
 20
22.7978664055
 30
0.0
 10
0.4625856539
 20
22.7668365146
 30
0.0
 10
0.5311276572
 20
22.7351460375
 30
0.0
 10
0.5909127819
 20
22.7134443599
 30
0.0
 10
0.6403722334
 20
22.6988254542
 30
0.0
 10
0.6785659701
 20
22.6891682917
 30
0.0
 10
0.7176518985
 20
22.6808798157
 30
0.0
 10
0.7576304416
 20
22.6739593294
 30
0.0
 10
0.7915422739
 20
22.6693521627
 30
0.0
 10
0.8191027224
 20
22.6663422377
 30
0.0
 10
0.8400864755
 20
22.6644165437
 30
0.0
 10
0.8612935294
 20
22.6628324435
 30
0.0
 10
0.8791096894
 20
22.6617994714
 30
0.0
 10
0.8934726552
 20
22.6611426913
 30
0.0
 10
0.9043264581
 20
22.6607343095
 30
0.0
 10
0.9152361202
 20
22.6604113067
 30
0.0
 10
0.924362783
 20
22.6602135309
 30
0.0
 10
0.9316918564
 20
22.6600978425
 30
0.0
 10
0.9372094179
 20
22.660032313
 30
0.0
 10
0.9418161472
 20
22.6599955147
 30
0.0
 10
0.9450459383
 20
22.6599790815
 30
0.0
 10
0.9468944288
 20
22.6599723507
 30
0.0
 10
0.9482821035
 20
22.659968635
 30
0.0
 10
0.9494390451
 20
22.6599666506
 30
0.0
 10
0.9503650346
 20
22.6599657297
 30
0.0
 10
0.9509440052
 20
22.6599654322
 30
0.0
 10
0.9514291155
 20
22.6599653569
 30
0.0
 10
0.9519651707
 20
22.6599654176
 30
0.0
 10
0.9529501928
 20
22.6599659896
 30
0.0
 10
0.9549259169
 20
22.6599689871
 30
0.0
 10
0.9577458375
 20
22.6599785604
 30
0.0
 10
0.9611260667
 20
22.659998524
 30
0.0
 10
0.9645014032
 20
22.6600269599
 30
0.0
 10
0.9689921382
 20
22.6600761355
 30
0.0
 10
0.9768228409
 20
22.6601916198
 30
0.0
 10
0.9879690743
 20
22.660441086
 30
0.0
 10
1.0012851643
 20
22.6608764312
 30
0.0
 10
1.0145230066
 20
22.6614473417
 30
0.0
 10
1.0320225174
 20
22.6623868057
 30
0.0
 10
1.053705649
 20
22.6638975757
 30
0.0
 10
1.0794816344
 20
22.6662577474
 30
0.0
 10
1.1049449468
 20
22.6691604306
 30
0.0
 10
1.138327876
 20
22.6737332001
 30
0.0
 10
1.1793163889
 20
22.6807934501
 30
0.0
 10
1.2430831187
 20
22.6949400502
 30
0.0
 10
1.2949692101
 20
22.710522762
 30
0.0
 10
1.3303243799
 20
22.723548492
 30
0.0
 10
1.3354461817
 20
22.7254877842
 30
0.0
 11
-0.00634
 21
23.4939653736
 31
0.0
 11
0.0202372782
 21
23.336040698
 31
0.0
 11
0.0679284835
 21
23.1923644932
 31
0.0
 11
0.0996918088
 21
23.1258695674
 31
0.0
 11
0.1367336159
 21
23.0629367592
 31
0.0
 11
0.1790539047
 21
23.0035660688
 31
0.0
 11
0.2266526753
 21
22.947757496
 31
0.0
 11
0.2524314913
 21
22.9211890038
 31
0.0
 11
0.2795299277
 21
22.895511041
 31
0.0
 11
0.2935642325
 21
22.8830169245
 31
0.0
 11
0.3078394175
 21
22.8708449008
 31
0.0
 11
0.3370603156
 21
22.8475253523
 31
0.0
 11
0.3671752513
 21
22.8255718025
 31
0.0
 11
0.3981842246
 21
22.8049842513
 31
0.0
 11
0.4628842841
 21
22.7679071449
 31
0.0
 11
0.531160494
 21
22.7362940332
 31
0.0
 11
0.6030128544
 21
22.7101449161
 31
0.0
 11
0.6402800909
 21
22.6991193555
 31
0.0
 11
0.6784413651
 21
22.6894597936
 31
0.0
 11
0.7174966769
 21
22.6811662303
 31
0.0
 11
0.7574460263
 21
22.6742386657
 31
0.0
 11
0.7982894133
 21
22.6686770998
 31
0.0
 11
0.8190463709
 21
22.6664085663
 31
0.0
 11
0.8400268379
 21
22.6644815325
 31
0.0
 11
0.8612308143
 21
22.6628959983
 31
0.0
 11
0.8826583001
 21
22.6616519638
 31
0.0
 11
0.893455859
 21
22.661158009
 31
0.0
 11
0.9043092953
 21
22.660749429
 31
0.0
 11
0.9152186089
 21
22.660426224
 31
0.0
 11
0.9261837999
 21
22.6601883938
 31
0.0
 11
0.9316873494
 21
22.6601014944
 31
0.0
 11
0.9372048683
 21
22.6600359386
 31
0.0
 11
0.9427363564
 21
22.6599917266
 31
0.0
 11
0.945507339
 21
22.6599776245
 31
0.0
 11
0.9468941399
 21
22.6599725744
 31
0.0
 11
0.9482818139
 21
22.6599688583
 31
0.0
 11
0.949670361
 21
22.6599664762
 31
0.0
 11
0.950364962
 21
22.6599657854
 31
0.0
 11
0.9510597812
 21
22.6599654281
 31
0.0
 11
0.9514072727
 21
22.6599653745
 31
0.0
 11
0.9518202926
 21
22.6599654223
 31
0.0
 11
0.9526679466
 21
22.659965914
 31
0.0
 11
0.9543623372
 21
22.6599684858
 31
0.0
 11
0.9577474487
 21
22.6599799836
 31
0.0
 11
0.9611276672
 21
22.6599999534
 31
0.0
 11
0.9645029928
 21
22.6600283952
 31
0.0
 11
0.9678734256
 21
22.660065309
 31
0.0
 11
0.9745996122
 21
22.6601645528
 31
0.0
 11
0.9879932704
 21
22.6604647047
 31
0.0
 11
1.0013086419
 21
22.6609004091
 31
0.0
 11
1.0145457267
 21
22.661471666
 31
0.0
 11
1.0277045248
 21
22.6621784754
 31
0.0
 11
1.0537872607
 21
22.6639987516
 31
0.0
 11
1.0795568497
 21
22.6663612377
 31
0.0
 11
1.1050132919
 21
22.6692659338
 31
0.0
 11
1.1301565871
 21
22.6727128398
 31
0.0
 11
1.1795037368
 21
22.6812332815
 31
0.0
 11
1.2275982988
 21
22.691922563
 31
0.0
 11
1.3200296601
 21
22.7198076452
 31
0.0
 11
1.3354461817
 21
22.7254877842
 31
0.0
  0
SPLINE
  5
345
100
AcDbEntity
  8
0
100
AcDbSpline
 62
7
  6
CONTINUOUS
 70
0
 71
3
 72
37
 73
33
 74
31
 42
0.0000001
 43
0.0000001
 44
0.0000000001
 12
0.4923511452
 22
0.1864212644
 32
0.0
 13
0.319995911
 23
0.4176762123
 33
0.0
 40
0.0
 40
0.0
 40
0.0
 40
0.0
 40
0.1488834854
 40
0.2383013957
 40
0.3276158875
 40
0.4170804611
 40
0.5069473468
 40
0.5974654117
 40
0.688878205
 40
0.7349979437
 40
0.7814293376
 40
0.828200596
 40
0.875339318
 40
0.8990553417
 40
0.9109514193
 40
0.9228733864
 40
0.93482165
 40
0.9467966143
 40
0.9527942409
 40
0.9542947126
 40
0.9557956117
 40
0.9572578149
 40
0.9578716144
 40
0.9584853714
 40
0.9609399759
 40
0.9633939056
 40
0.9682997526
 40
0.9732029388
 40
0.9781034901
 40
0.9878967848
 40
0.9976798505
 40
1.0
 40
1.0
 40
1.0
 40
1.0
 10
1.3354461817
 20
22.7254877842
 30
0.0
 10
1.3598804999
 20
22.7347394668
 30
0.0
 10
1.3983566446
 20
22.7512192368
 30
0.0
 10
1.4494668093
 20
22.7775261882
 30
0.0
 10
1.4901043052
 20
22.8012626139
 30
0.0
 10
1.5294838513
 20
22.8271734749
 30
0.0
 10
1.5676062999
 20
22.8552583567
 30
0.0
 10
1.6044700967
 20
22.8855157395
 30
0.0
 10
1.6340544031
 20
22.9124613939
 30
0.0
 10
1.6570761452
 20
22.9350714402
 30
0.0
 10
1.6740813862
 20
22.9526227005
 30
0.0
 10
1.6907729138
 20
22.9707160846
 30
0.0
 10
1.7043932408
 20
22.9862139084
 30
0.0
 10
1.7137793834
 20
22.9972842299
 30
0.0
 10
1.7191146986
 20
23.0036904498
 30
0.0
 10
1.723100882
 20
23.0085341432
 30
0.0
 10
1.7270675162
 20
23.0134117038
 30
0.0
 10
1.7303548027
 20
23.0175023325
 30
0.0
 10
1.732482813
 20
23.0201737069
 30
0.0
 10
1.7334638469
 20
23.0214101021
 30
0.0
 10
1.7339502782
 20
23.0220234971
 30
0.0
 10
1.7343388936
 20
23.0225159884
 30
0.0
 10
1.7346335133
 20
23.0228844327
 30
0.0
 10
1.7350361557
 20
23.0233893567
 30
0.0
 10
1.7356396979
 20
23.0241468663
 30
0.0
 10
1.7367106226
 20
23.0254944942
 30
0.0
 10
1.7380458953
 20
23.0271805925
 30
0.0
 10
1.7396429061
 20
23.0292067761
 30
0.0
 10
1.7417643502
 20
23.0319110548
 30
0.0
 10
1.7444024074
 20
23.0352978527
 30
0.0
 10
1.7467483772
 20
23.0383384438
 30
0.0
 10
1.7480402936
 20
23.0400228114
 30
0.0
 10
1.7482877731
 20
23.0403458351
 30
0.0
 11
1.3354461817
 21
22.7254877842
 31
0.0
 11
1.4074506708
 21
22.7563680862
 31
0.0
 11
1.4492822947
 21
22.7779015663
 31
0.0
 11
1.489861331
 21
22.8016038861
 31
0.0
 11
1.5291877797
 21
22.8274750456
 31
0.0
 11
1.5672616407
 21
22.8555150449
 31
0.0
 11
1.6040829141
 21
22.8857238839
 31
0.0
 11
1.6396515998
 21
22.9181015626
 31
0.0
 11
1.6569662224
 21
22.9351037169
 31
0.0
 11
1.673967698
 21
22.952648081
 31
0.0
 11
1.6906560267
 21
22.9707346551
 31
0.0
 11
1.7070312085
 21
22.9893634392
 31
0.0
 11
1.7151013693
 21
22.9988811599
 31
0.0
 11
1.7191070922
 21
23.0036908525
 31
0.0
 11
1.7230932434
 21
23.0085344332
 31
0.0
 11
1.7270598229
 21
23.013411902
 31
0.0
 11
1.7310068307
 21
23.0183232589
 31
0.0
 11
1.7329729953
 21
23.0207916454
 31
0.0
 11
1.7334637719
 21
23.0214100657
 31
0.0
 11
1.7339542427
 21
23.0220290156
 31
0.0
 11
1.7344319837
 21
23.0226320749
 31
0.0
 11
1.7346334614
 21
23.0228844835
 31
0.0
 11
1.7348348529
 21
23.0231369323
 31
0.0
 11
1.735639558
 21
23.0241471289
 31
0.0
 11
1.7364428853
 21
23.0251579679
 31
0.0
 11
1.7380454067
 21
23.0271815733
 31
0.0
 11
1.7396424171
 21
23.0292077484
 31
0.0
 11
1.7412339165
 21
23.0312364933
 31
0.0
 11
1.7444003823
 21
23.0353016925
 31
0.0
 11
1.747544804
 21
23.0393771708
 31
0.0
 11
1.7482877731
 21
23.0403458351
 31
0.0
  0
SPLINE
  5
346
100
AcDbEntity
  8
0
100
AcDbSpline
 62
7
  6
CONTINUOUS
 70
0
 71
3
 72
48
 73
44
 74
42
 42
0.0000001
 43
0.0000001
 44
0.0000000001
 12
0.5751335881
 22
0.7506959008
 32
0.0
 13
-0.1702919609
 23
0.930298603
 33
0.0
 40
0.0
 40
0.0
 40
0.0
 40
0.0
 40
0.0041466818
 40
0.0150055484
 40
0.0258435097
 40
0.0366615037
 40
0.0474604736
 40
0.0690048999
 40
0.0904846671
 40
0.1119074862
 40
0.13328113
 40
0.1546134251
 40
0.1971835134
 40
0.2396830933
 40
0.2821758599
 40
0.324725539
 40
0.3673956013
 40
0.453332403
 40
0.4967377665
 40
0.540509456
 40
0.5847057802
 40
0.6293833852
 40
0.6519207133
 40
0.6745987621
 40
0.697424084
 40
0.7204031057
 40
0.7319523242
 40
0.7435423185
 40
0.7551738556
 40
0.7610054519
 40
0.7668477177
 40
0.7697728825
 40
0.7727007496
 40
0.7788069344
 40
0.7849401757
 40
0.7910583373
 40
0.8032498568
 40
0.815382461
 40
0.8394745053
 40
0.8633424951
 40
0.9104364866
 40
0.9567331421
 40
1.0
 40
1.0
 40
1.0
 40
1.0
 10
1.7482877731
 20
23.0403458351
 30
0.0
 10
1.7490827384
 20
23.0413834674
 30
0.0
 10
1.7519528611
 20
23.0451433991
 30
0.0
 10
1.7568545928
 20
23.0516505062
 30
0.0
 10
1.7629453727
 20
23.0598942733
 30
0.0
 10
1.76894798
 20
23.0681791758
 30
0.0
 10
1.7768273286
 20
23.0792713143
 30
0.0
 10
1.7864579737
 20
23.0932410459
 30
0.0
 10
1.7976713835
 20
23.1101829837
 30
0.0
 10
1.8085320089
 20
23.1272895038
 30
0.0
 10
1.8190398558
 20
23.1445606562
 30
0.0
 10
1.8325696506
 20
23.1677905796
 30
0.0
 10
1.8486115501
 20
23.1972568545
 30
0.0
 10
1.8664621979
 20
23.2332998757
 30
0.0
 10
1.8829000597
 20
23.2700018174
 30
0.0
 10
1.8979249554
 20
23.3073631045
 30
0.0
 10
1.9161152534
 20
23.3581685174
 30
0.0
 10
1.9314401614
 20
23.4102459179
 30
0.0
 10
1.9438931603
 20
23.4633857762
 30
0.0
 10
1.9518530943
 20
23.5040363904
 30
0.0
 10
1.9583998257
 20
23.545343065
 30
0.0
 10
1.9626657951
 20
23.5802109457
 30
0.0
 10
1.9653775243
 20
23.6084188572
 30
0.0
 10
1.967064566
 20
23.6298018857
 30
0.0
 10
1.9683987959
 20
23.6513492043
 30
0.0
 10
1.9692152531
 20
23.6694111495
 30
0.0
 10
1.9696929037
 20
23.6839412219
 30
0.0
 10
1.9699635811
 20
23.6948987407
 30
0.0
 10
1.9701155239
 20
23.7040559661
 30
0.0
 10
1.9701931054
 20
23.7114021021
 30
0.0
 10
1.9702232562
 20
23.7160040491
 30
0.0
 10
1.9702363642
 20
23.7196907209
 30
0.0
 10
1.9702422733
 20
23.7234606063
 30
0.0
 10
1.9702349375
 20
23.7282417818
 30
0.0
 10
1.9702010162
 20
23.7340285393
 30
0.0
 10
1.9701224055
 20
23.7417332667
 30
0.0
 10
1.9699617082
 20
23.751328345
 30
0.0
 10
1.9695715667
 20
23.7665856691
 30
0.0
 10
1.9688349997
 20
23.7855154423
 30
0.0
 10
1.9671267028
 20
23.815431751
 30
0.0
 10
1.964000736
 20
23.8522721103
 30
0.0
 10
1.9587157034
 20
23.8950358521
 30
0.0
 10
1.9541728506
 20
23.9229080128
 30
0.0
 10
1.9517168513
 20
23.9363250453
 30
0.0
 11
1.7482877731
 21
23.0403458351
 31
0.0
 11
1.7506671817
 21
23.0434629281
 31
0.0
 11
1.7568458052
 21
23.0516652801
 31
0.0
 11
1.7629362525
 21
23.0599087484
 31
0.0
 11
1.7689385238
 21
23.0681933332
 31
0.0
 11
1.774852619
 21
23.0765190343
 31
0.0
 11
1.7864162811
 21
23.0932937856
 31
0.0
 11
1.797627239
 21
23.1102330023
 31
0.0
 11
1.8084854926
 21
23.1273366846
 31
0.0
 11
1.8189910419
 21
23.1446048323
 31
0.0
 11
1.8291438869
 21
23.1620374456
 31
0.0
 11
1.848391464
 21
23.1973960685
 31
0.0
 11
1.8662282239
 21
23.2334125533
 31
0.0
 11
1.8826541667
 21
23.2700869
 31
0.0
 11
1.8976692923
 21
23.3074191087
 31
0.0
 11
1.9112736007
 21
23.3454091793
 31
0.0
 11
1.9342497661
 21
23.4233629063
 31
0.0
 11
1.943621623
 21
23.4633265627
 31
0.0
 11
1.9515826627
 21
23.503948081
 31
0.0
 11
1.9581328853
 21
23.5452274613
 31
0.0
 11
1.9632722907
 21
23.5871647035
 31
0.0
 11
1.965312937
 21
23.6083800228
 31
0.0
 11
1.9670008789
 21
23.6297598076
 31
0.0
 11
1.9683361166
 21
23.6513040579
 31
0.0
 11
1.96931865
 21
23.6730127736
 31
0.0
 11
1.9696776526
 21
23.6839288061
 31
0.0
 11
1.9699484791
 21
23.6948859549
 31
0.0
 11
1.9701311295
 21
23.70588422
 31
0.0
 11
1.9701893887
 21
23.7113987713
 31
0.0
 11
1.9702256039
 21
23.7169236016
 31
0.0
 11
1.970235445
 21
23.7196898714
 31
0.0
 11
1.9702397751
 21
23.722458711
 31
0.0
 11
1.9702307949
 21
23.7282332374
 31
0.0
 11
1.9701967872
 21
23.7340332582
 31
0.0
 11
1.9701377211
 21
23.7398188164
 31
0.0
 11
1.969944414
 21
23.751346545
 31
0.0
 11
1.9696508736
 21
23.7628164234
 31
0.0
 11
1.9687630929
 21
23.7855826291
 31
0.0
 11
1.967474379
 21
23.8081174336
 31
0.0
 11
1.9636941515
 21
23.8524928389
 31
0.0
 11
1.9583101911
 21
23.8959426393
 31
0.0
 11
1.9517168513
 21
23.9363250453
 31
0.0
  0
SPLINE
  5
347
100
AcDbEntity
  8
0
100
AcDbSpline
 62
7
  6
CONTINUOUS
 70
0
 71
3
 72
20
 73
16
 74
14
 42
0.0000001
 43
0.0000001
 44
0.0000000001
 12
0.0817307712
 22
-0.8315331619
 32
0.0
 13
0.7017486391
 23
-0.4539178456
 33
0.0
 40
0.0
 40
0.0
 40
0.0
 40
0.0
 40
0.1637226984
 40
0.3202199296
 40
0.4723864137
 40
0.6233661755
 40
0.6994684554
 40
0.7378399801
 40
0.7764853871
 40
0.8154517502
 40
0.8350608336
 40
0.8546336747
 40
0.8935791116
 40
0.9323014854
 40
1.0
 40
1.0
 40
1.0
 40
1.0
 10
-2.32486
 20
23.5023053736
 30
0.0
 10
-2.3203996059
 20
23.4569250893
 30
0.0
 10
-2.3065683398
 20
23.3685463788
 30
0.0
 10
-2.2692663436
 20
23.2419632896
 30
0.0
 10
-2.2159119123
 20
23.1251053097
 30
0.0
 10
-2.1581811857
 20
23.0361614396
 30
0.0
 10
-2.1113728613
 20
22.9788618535
 30
0.0
 10
-2.0826674185
 20
22.947312233
 30
0.0
 10
-2.0600967994
 20
22.9241936642
 30
0.0
 10
-2.0405164499
 20
22.9054827466
 30
0.0
 10
-2.0244044245
 20
22.8908480811
 30
0.0
 10
-2.0080418536
 20
22.8765029216
 30
0.0
 10
-1.9872023433
 20
22.8591953086
 30
0.0
 10
-1.9551379319
 20
22.8344648909
 30
0.0
 10
-1.9307679904
 20
22.8175523176
 30
0.0
 10
-1.9149322103
 20
22.8073091296
 30
0.0
 11
-2.32486
 21
23.5023053736
 31
0.0
 11
-2.3032618317
 21
23.3672242609
 31
0.0
 11
-2.2659795914
 21
23.2418921486
 31
0.0
 11
-2.213013279
 21
23.1263090369
 31
0.0
 11
-2.1443628946
 21
23.0204749258
 31
0.0
 11
-2.1041561754
 21
22.9712137454
 31
0.0
 11
-2.082582434
 21
22.947497124
 31
0.0
 11
-2.0600284382
 21
22.9243898152
 31
0.0
 11
-2.0364941878
 21
22.9018918189
 31
0.0
 11
-2.0243649393
 21
22.8908771668
 31
0.0
 11
-2.0120672366
 21
22.8800967973
 31
0.0
 11
-1.9870321337
 21
22.8593091524
 31
0.0
 11
-1.9614107676
 21
22.8395522999
 31
0.0
 11
-1.9149322103
 21
22.8073091296
 31
0.0
  0
SPLINE
  5
348
100
AcDbEntity
  8
0
100
AcDbSpline
 62
7
  6
CONTINUOUS
 70
0
 71
3
 72
22
 73
18
 74
16
 42
0.0000001
 43
0.0000001
 44
0.0000000001
 12
0.4543658919
 22
-0.293901228
 32
0.0
 13
0.5408847986
 23
-0.0108749139
 33
0.0
 40
0.0
 40
0.0
 40
0.0
 40
0.0
 40
0.0143151336
 40
0.1327664598
 40
0.2514445758
 40
0.370993844
 40
0.4920447157
 40
0.6152045845
 40
0.6777656227
 40
0.7410672207
 40
0.8051758059
 40
0.8701553313
 40
0.9029919192
 40
0.9360690535
 40
0.9693940099
 40
0.9861517602
 40
1.0
 40
1.0
 40
1.0
 40
1.0
 10
-1.9149322103
 20
22.8073091296
 30
0.0
 10
-1.9127641075
 20
22.8059067179
 30
0.0
 10
-1.8925980142
 20
22.7929896069
 30
0.0
 10
-1.8534008729
 20
22.7701142633
 30
0.0
 10
-1.7955471707
 20
22.7418723091
 30
0.0
 10
-1.735342837
 20
22.7177788309
 30
0.0
 10
-1.6727947205
 20
22.6978335374
 30
0.0
 10
-1.6189989526
 20
22.6847358535
 30
0.0
 10
-1.5748836322
 20
22.6763091321
 30
0.0
 10
-1.5410353934
 20
22.6709871667
 30
0.0
 10
-1.5066022379
 20
22.6666972233
 30
0.0
 10
-1.4775227928
 20
22.6639916027
 30
0.0
 10
-1.4539759841
 20
22.662337847
 30
0.0
 10
-1.4361067386
 20
22.6613508705
 30
0.0
 10
-1.4211221472
 20
22.6607443348
 30
0.0
 10
-1.4095983883
 20
22.6604031307
 30
0.0
 10
-1.4040806109
 20
22.6602759667
 30
0.0
 10
-1.4015838434
 20
22.6602257672
 30
0.0
 11
-1.9149322103
 21
22.8073091296
 31
0.0
 11
-1.9084092457
 21
22.8031309717
 31
0.0
 11
-1.853062671
 21
22.7708328128
 31
0.0
 11
-1.7953710434
 21
22.7426578231
 31
0.0
 11
-1.7353343628
 21
22.7186060026
 31
0.0
 11
-1.6729526294
 21
22.6986773514
 31
0.0
 11
-1.6082258431
 21
22.6828718693
 31
0.0
 11
-1.5749830552
 21
22.6765153168
 31
0.0
 11
-1.541154004
 21
22.6711895565
 31
0.0
 11
-1.5067386895
 21
22.6668945886
 31
0.0
 11
-1.4717371119
 21
22.663630413
 31
0.0
 11
-1.4540164744
 21
22.6623848723
 31
0.0
 11
-1.436149271
 21
22.6613970296
 31
0.0
 11
-1.4181355019
 21
22.6606668851
 31
0.0
 11
-1.4090736551
 21
22.6603984496
 31
0.0
 11
-1.4015838434
 21
22.6602257672
 31
0.0
  0
SPLINE
  5
349
100
AcDbEntity
  8
0
100
AcDbSpline
 62
7
  6
CONTINUOUS
 70
0
 71
3
 72
92
 73
88
 74
86
 42
0.0000001
 43
0.0000001
 44
0.0000000001
 12
1.7113097302
 22
-0.0344072269
 32
0.0
 13
-0.2572512667
 23
1.6922644465
 33
0.0
 40
0.0
 40
0.0
 40
0.0
 40
0.0
 40
0.0009400148
 40
0.0062776649
 40
0.008954339
 40
0.0116362874
 40
0.0129792505
 40
0.0143235447
 40
0.0149961923
 40
0.0153448432
 40
0.0157178626
 40
0.0164636184
 40
0.0172089973
 40
0.0201867547
 40
0.023158532
 40
0.0261243695
 40
0.0290843079
 40
0.0349866412
 40
0.0467222514
 40
0.0583681441
 40
0.0699270712
 40
0.0814018471
 40
0.0927953486
 40
0.1153495878
 40
0.1376147596
 40
0.1813729769
 40
0.2242885113
 40
0.2665863839
 40
0.3085015644
 40
0.3502754809
 40
0.3921520049
 40
0.4132083085
 40
0.4343806214
 40
0.4556982451
 40
0.4664209862
 40
0.4771907626
 40
0.4879459173
 40
0.4986245058
 40
0.5197638757
 40
0.5406357199
 40
0.5612671185
 40
0.6019142753
 40
0.6419466691
 40
0.6816096324
 40
0.7211553739
 40
0.7608383374
 40
0.7808140696
 40
0.8009180066
 40
0.8211804473
 40
0.8416309859
 40
0.8519362612
 40
0.8622992803
 40
0.8727235006
 40
0.8832123191
 40
0.8884820485
 40
0.8937691723
 40
0.8990740975
 40
0.9017333679
 40
0.9043972392
 40
0.9070657612
 40
0.9084017825
 40
0.9097389849
 40
0.9104080311
 40
0.9110773749
 40
0.9114121586
 40
0.9115650416
 40
0.9116888467
 40
0.9119364114
 40
0.9121839156
 40
0.9126787423
 40
0.913173327
 40
0.9141617716
 40
0.9151492516
 40
0.9161357693
 40
0.9181059258
 40
0.9220347832
 40
0.9259484912
 40
0.9298471942
 40
0.9337310381
 40
0.9376001706
 40
0.9452948623
 40
0.9529325214
 40
0.9605143902
 40
0.968041739
 40
0.9829377603
 40
0.9976316246
 40
1.0
 40
1.0
 40
1.0
 40
1.0
 10
-1.4015838434
 20
22.6602257672
 30
0.0
 10
-1.4010476246
 20
22.6602149861
 30
0.0
 10
-1.3974665693
 20
22.6601452475
 30
0.0
 10
-1.392358216
 20
22.6600672618
 30
0.0
 10
-1.3862557453
 20
22.6600064967
 30
0.0
 10
-1.3824322226
 20
22.6599819156
 30
0.0
 10
-1.3793688408
 20
22.6599702914
 30
0.0
 10
-1.3774518484
 20
22.6599663802
 30
0.0
 10
-1.3761021587
 20
22.6599653957
 30
0.0
 10
-1.37530663
 20
22.6599653464
 30
0.0
 10
-1.3744693894
 20
22.6599656655
 30
0.0
 10
-1.3734057958
 20
22.6599668001
 30
0.0
 10
-1.3708560723
 20
22.6599718552
 30
0.0
 10
-1.3670363115
 20
22.6599881745
 30
0.0
 10
-1.3619497917
 20
22.6600286312
 30
0.0
 10
-1.3568736214
 20
22.6600877689
 30
0.0
 10
-1.3501258697
 20
22.6601914248
 30
0.0
 10
-1.3383762206
 20
22.6604375351
 30
0.0
 10
-1.3216762797
 20
22.6609752301
 30
0.0
 10
-1.3017626602
 20
22.6619206785
 30
0.0
 10
-1.2820145776
 20
22.6631650783
 30
0.0
 10
-1.2624319697
 20
22.6647084492
 30
0.0
 10
-1.2366311695
 20
22.6671564589
 30
0.0
 10
-1.2047782777
 20
22.6709578138
 30
0.0
 10
-1.1548157887
 20
22.6786112247
 30
0.0
 10
-1.0938813655
 20
22.6911428283
 30
0.0
 10
-1.0229823616
 20
22.7110772609
 30
0.0
 10
-0.9547291969
 20
22.7358242295
 30
0.0
 10
-0.8891303017
 20
22.7653848199
 30
0.0
 10
-0.8261941899
 20
22.7997561446
 30
0.0
 10
-0.7760550702
 20
22.8323522842
 30
0.0
 10
-0.7373617557
 20
22.860749281
 30
0.0
 10
-0.7089487531
 20
22.8832847956
 30
0.0
 10
-0.6858705125
 20
22.9030230498
 30
0.0
 10
-0.667746542
 20
22.9193990558
 30
0.0
 10
-0.6543208189
 20
22.9319810933
 30
0.0
 10
-0.6411330858
 20
22.944776067
 30
0.0
 10
-0.6239881287
 20
22.9619838151
 30
0.0
 10
-0.603324706
 20
22.9838277025
 30
0.0
 10
-0.5796973354
 20
23.0106553691
 30
0.0
 10
-0.5500164317
 20
23.0469420065
 30
0.0
 10
-0.5159305695
 20
23.0937001128
 30
0.0
 10
-0.479861488
 20
23.1522057103
 30
0.0
 10
-0.4488300128
 20
23.2128318972
 30
0.0
 10
-0.4228435078
 20
23.2755680272
 30
0.0
 10
-0.4054304729
 20
23.3294928383
 30
0.0
 10
-0.3940335812
 20
23.3735610136
 30
0.0
 10
-0.3867209252
 20
23.4072130361
 30
0.0
 10
-0.380664002
 20
23.441387704
 30
0.0
 10
-0.3766728717
 20
23.4702288048
 30
0.0
 10
-0.3741038791
 20
23.4935491632
 30
0.0
 10
-0.3724855302
 20
23.5112160899
 30
0.0
 10
-0.3711806506
 20
23.5290138202
 30
0.0
 10
-0.3703557776
 20
23.5439304852
 30
0.0
 10
-0.3698518949
 20
23.5559276521
 30
0.0
 10
-0.3695517176
 20
23.5649727368
 30
0.0
 10
-0.3693670147
 20
23.5725311292
 30
0.0
 10
-0.3692583259
 20
23.5785940191
 30
0.0
 10
-0.3691963245
 20
23.5831532594
 30
0.0
 10
-0.3691609929
 20
23.5869577749
 30
0.0
 10
-0.3691425073
 20
23.5900054561
 30
0.0
 10
-0.3691350306
 20
23.5919123767
 30
0.0
 10
-0.3691314955
 20
23.5934389333
 30
0.0
 10
-0.3691303061
 20
23.5943935627
 30
0.0
 10
-0.3691300119
 20
23.5950536955
 30
0.0
 10
-0.369129993
 20
23.595402571
 30
0.0
 10
-0.3691300393
 20
23.5957016837
 30
0.0
 10
-0.3691301918
 20
23.5960547825
 30
0.0
 10
-0.3691306451
 20
23.5966195677
 30
0.0
 10
-0.3691316039
 20
23.5973252899
 30
0.0
 10
-0.3691339746
 20
23.5984537541
 30
0.0
 10
-0.3691385062
 20
23.5998632976
 30
0.0
 10
-0.3691464564
 20
23.6015535023
 30
0.0
 10
-0.369160398
 20
23.6038037989
 30
0.0
 10
-0.3691935392
 20
23.6077322073
 30
0.0
 10
-0.3692659445
 20
23.6133304286
 30
0.0
 10
-0.369393092
 20
23.6200282482
 30
0.0
 10
-0.3695604162
 20
23.6266994949
 30
0.0
 10
-0.3697679174
 20
23.6333441709
 30
0.0
 10
-0.3700975342
 20
23.6421517247
 30
0.0
 10
-0.3706094511
 20
23.6530954881
 30
0.0
 10
-0.3713856314
 20
23.6661464866
 30
0.0
 10
-0.3723225387
 20
23.6790912509
 30
0.0
 10
-0.3737808898
 20
23.6961489172
 30
0.0
 10
-0.3760018652
 20
23.7172121536
 30
0.0
 10
-0.3784066373
 20
23.7352889721
 30
0.0
 10
-0.3798477802
 20
23.7449169121
 30
0.0
 10
-0.3800508694
 20
23.7462528846
 30
0.0
 11
-1.4015838434
 21
22.6602257672
 31
0.0
 11
-1.3999751669
 21
22.6601944386
 31
0.0
 11
-1.3908400373
 21
22.6600548521
 31
0.0
 11
-1.3862587319
 21
22.6600092181
 31
0.0
 11
-1.3816682662
 21
22.6599796902
 31
0.0
 11
-1.3793695982
 21
22.6599709661
 31
0.0
 11
-1.3770686401
 21
22.6599662684
 31
0.0
 11
-1.3759173022
 21
22.6599654296
 31
0.0
 11
-1.3753205334
 21
22.6599653899
 31
0.0
 11
-1.3746820543
 21
22.6599656331
 31
0.0
 11
-1.3734055811
 21
22.6599669952
 31
0.0
 11
-1.3721297549
 21
22.6599695249
 31
0.0
 11
-1.367032919
 21
22.6599913193
 31
0.0
 11
-1.3619464335
 21
22.6600317945
 31
0.0
 11
-1.3568702984
 21
22.6600909506
 31
0.0
 11
-1.3518045138
 21
22.6601687876
 31
0.0
 11
-1.3417039958
 21
22.6603805042
 31
0.0
 11
-1.3216271648
 21
22.6610281078
 31
0.0
 11
-1.3017159406
 21
22.6619746054
 31
0.0
 11
-1.2819703232
 21
22.6632199969
 31
0.0
 11
-1.2623903126
 21
22.6647642825
 31
0.0
 11
-1.2429759087
 21
22.666607462
 31
0.0
 11
-1.2046439213
 21
22.6711905029
 31
0.0
 11
-1.1669743609
 21
22.6769691197
 31
0.0
 11
-1.0936225214
 21
22.6921130811
 31
0.0
 11
-1.0229203903
 21
22.712039346
 31
0.0
 11
-0.9548679674
 21
22.7367479145
 31
0.0
 11
-0.8894652529
 21
22.7662387866
 31
0.0
 11
-0.8267122467
 21
22.8005119623
 31
0.0
 11
-0.7666089488
 21
22.8395674416
 31
0.0
 11
-0.7375509404
 21
22.8608885451
 31
0.0
 11
-0.7091553592
 21
22.8834052245
 31
0.0
 11
-0.681422205
 21
22.9071174798
 31
0.0
 11
-0.6678040381
 21
22.9194219484
 31
0.0
 11
-0.6543514779
 21
22.9320253109
 31
0.0
 11
-0.641138398
 21
22.9448436008
 31
0.0
 11
-0.6282386717
 21
22.9577928514
 31
0.0
 11
-0.6033792802
 21
22.9840842347
 31
0.0
 11
-0.5797733034
 21
23.0108994608
 31
0.0
 11
-0.5574207413
 21
23.0382385296
 31
0.0
 11
-0.5164758611
 21
23.0944881956
 31
0.0
 11
-0.4805446398
 21
23.1528332326
 31
0.0
 11
-0.4496270773
 21
23.2132736407
 31
0.0
 11
-0.4237231735
 21
23.27580942
 31
0.0
 11
-0.4028329285
 21
23.3404405703
 31
0.0
 11
-0.3942679281
 21
23.3735419096
 31
0.0
 11
-0.3869563424
 21
23.4071670917
 31
0.0
 11
-0.3808981713
 21
23.4413161165
 31
0.0
 11
-0.376093415
 21
23.4759889842
 31
0.0
 11
-0.3741610673
 21
23.493521859
 31
0.0
 11
-0.3725420733
 21
23.5111856946
 31
0.0
 11
-0.371236433
 21
23.5289804908
 31
0.0
 11
-0.3702441464
 21
23.5469062478
 31
0.0
 11
-0.3698655107
 21
23.5559182365
 31
0.0
 11
-0.3695652134
 21
23.5649629654
 31
0.0
 11
-0.3693432546
 21
23.5740404345
 31
0.0
 11
-0.3692616521
 21
23.5785914466
 31
0.0
 11
-0.3691996341
 21
23.5831506437
 31
0.0
 11
-0.3691572008
 21
23.5877180259
 31
0.0
 11
-0.3691433284
 21
23.5900047864
 31
0.0
 11
-0.3691343521
 21
23.5922935931
 31
0.0
 11
-0.3691317001
 21
23.5934387638
 31
0.0
 11
-0.369130272
 21
23.5945844461
 31
0.0
 11
-0.369130017
 21
23.5951574791
 31
0.0
 11
-0.3691300022
 21
23.5954191614
 31
0.0
 11
-0.3691300349
 21
23.5956310725
 31
0.0
 11
-0.369130218
 21
23.5960548171
 31
0.0
 11
-0.369130558
 21
23.5964784578
 31
0.0
 11
-0.3691317089
 21
23.5973254277
 31
0.0
 11
-0.3691334875
 21
23.5981719825
 31
0.0
 11
-0.369138928
 21
23.5998638462
 31
0.0
 11
-0.3691468794
 21
23.6015540491
 31
0.0
 11
-0.3691573419
 21
23.603242591
 31
0.0
 11
-0.3691857998
 21
23.6066146919
 31
0.0
 11
-0.3692728474
 21
23.6133389624
 31
0.0
 11
-0.3694000709
 21
23.6200366578
 31
0.0
 11
-0.3695674702
 21
23.626707778
 31
0.0
 11
-0.3697750454
 21
23.6333523232
 31
0.0
 11
-0.3700227964
 21
23.6399702932
 31
0.0
 11
-0.3706388258
 21
23.6531265078
 31
0.0
 11
-0.3714155587
 21
23.666176422
 31
0.0
 11
-0.3723529948
 21
23.6791200356
 31
0.0
 11
-0.3734511343
 21
23.6919573488
 31
0.0
 11
-0.3761295234
 21
23.7173130736
 31
0.0
 11
-0.3794507258
 21
23.7422435964
 31
0.0
 11
-0.3800508694
 21
23.7462528846
 31
0.0
  0
SPLINE
  5
34A
100
AcDbEntity
  8
0
100
AcDbSpline
 62
7
  6
CONTINUOUS
 70
0
 71
3
 72
11
 73
7
 74
5
 42
0.0000001
 43
0.0000001
 44
0.0000000001
 12
0.3071479808
 22
0.140944016
 32
0.0
 13
0.2142445598
 23
0.2614377173
 33
0.0
 40
0.0
 40
0.0
 40
0.0
 40
0.0
 40
0.5470330338
 40
0.8022171422
 40
0.9269078924
 40
1.0
 40
1.0
 40
1.0
 40
1.0
 10
-0.9264113834
 20
24.3310277641
 30
0.0
 10
-0.8704046861
 20
24.3567281083
 30
0.0
 10
-0.7912489388
 20
24.4023433178
 30
0.0
 10
-0.7119444902
 20
24.470664493
 30
0.0
 10
-0.6767562085
 20
24.5076649391
 30
0.0
 10
-0.6622844001
 20
24.5246178132
 30
0.0
 10
-0.6570645379
 20
24.5309874911
 30
0.0
 11
-0.9264113834
 21
24.3310277641
 31
0.0
 11
-0.7673433518
 21
24.4252226781
 31
0.0
 11
-0.7021295211
 21
24.4816502418
 31
0.0
 11
-0.6731026519
 21
24.5121965504
 31
0.0
 11
-0.6570645379
 21
24.5309874911
 31
0.0
  0
SPLINE
  5
34B
100
AcDbEntity
  8
0
100
AcDbSpline
 62
7
  6
CONTINUOUS
 70
0
 71
3
 72
37
 73
33
 74
31
 42
0.0000001
 43
0.0000001
 44
0.0000000001
 12
0.3544501929
 22
0.4325274323
 32
0.0
 13
-0.0937265569
 23
0.5512823067
 33
0.0
 40
0.0
 40
0.0
 40
0.0
 40
0.0
 40
0.0304324054
 40
0.0675674136
 40
0.1046426147
 40
0.1416258775
 40
0.1783462975
 40
0.2510959169
 40
0.3231803925
 40
0.3949001184
 40
0.4665600761
 40
0.5384660073
 40
0.6109205403
 40
0.6474508525
 40
0.6842284452
 40
0.7212886882
 40
0.7399361694
 40
0.7492910447
 40
0.7586673331
 40
0.768065556
 40
0.7727730627
 40
0.7774862468
 40
0.7798449889
 40
0.7823108229
 40
0.7872752689
 40
0.797193274
 40
0.8169875521
 40
0.8367299744
 40
0.8760756185
 40
0.9152665311
 40
0.99331809
 40
1.0
 40
1.0
 40
1.0
 40
1.0
 10
-0.6570645379
 20
24.5309874911
 30
0.0
 10
-0.6534689473
 20
24.5353751079
 30
0.0
 10
-0.6456210146
 20
24.5452269076
 30
0.0
 10
-0.6339474739
 20
24.5608529291
 30
0.0
 10
-0.6221212012
 20
24.5778749112
 30
0.0
 10
-0.610921448
 20
24.5952227827
 30
0.0
 10
-0.5968147736
 20
24.6185924815
 30
0.0
 10
-0.5806997715
 20
24.6483722698
 30
0.0
 10
-0.5637940381
 20
24.6850493127
 30
0.0
 10
-0.5493828257
 20
24.7225602057
 30
0.0
 10
-0.5374669599
 20
24.7609019799
 30
0.0
 10
-0.5280470821
 20
24.8000718645
 30
0.0
 10
-0.5222925851
 20
24.8333143538
 30
0.0
 10
-0.5189308637
 20
24.8602743601
 30
0.0
 10
-0.5170241293
 20
24.8807580992
 30
0.0
 10
-0.5159556585
 20
24.8979639376
 30
0.0
 10
-0.5154786792
 20
24.9100804204
 30
0.0
 10
-0.5152829677
 20
24.9170438449
 30
0.0
 10
-0.5151748501
 20
24.9222851419
 30
0.0
 10
-0.5151171424
 20
24.9266610571
 30
0.0
 10
-0.515090359
 20
24.9301681686
 30
0.0
 10
-0.5150816948
 20
24.9323634441
 30
0.0
 10
-0.5150796036
 20
24.9341409589
 30
0.0
 10
-0.5150808333
 20
24.9359653012
 30
0.0
 10
-0.5150918302
 20
24.9391984223
 30
0.0
 10
-0.5151494589
 20
24.9456607802
 30
0.0
 10
-0.5153334561
 20
24.95487601
 30
0.0
 10
-0.5158447631
 20
24.9695685173
 30
0.0
 10
-0.5168904229
 20
24.9878576562
 30
0.0
 10
-0.5194314013
 20
25.0169330383
 30
0.0
 10
-0.5224857914
 20
25.039841191
 30
0.0
 10
-0.5250922377
 20
25.0554188556
 30
0.0
 10
-0.5253009951
 20
25.0566467285
 30
0.0
 11
-0.6570645379
 21
24.5309874911
 31
0.0
 11
-0.6464624803
 21
24.5442978767
 31
0.0
 11
-0.634037406
 21
24.5609316715
 31
0.0
 11
-0.6222090061
 21
24.5779542208
 31
0.0
 11
-0.6109835441
 21
24.5953190951
 31
0.0
 11
-0.6003783072
 21
24.6128981493
 31
0.0
 11
-0.5810315151
 21
24.6486765108
 31
0.0
 11
-0.5641696322
 21
24.6852818768
 31
0.0
 11
-0.5497926583
 21
24.7227142472
 31
0.0
 11
-0.5379005935
 21
24.760973622
 31
0.0
 11
-0.5284934377
 21
24.8000600012
 31
0.0
 11
-0.521571191
 21
24.8399733849
 31
0.0
 11
-0.5190419086
 21
24.8602402033
 31
0.0
 11
-0.5171338534
 21
24.8807137729
 31
0.0
 11
-0.5158470255
 21
24.9013940936
 31
0.0
 11
-0.5154365718
 21
24.9118117856
 31
0.0
 11
-0.515289585
 21
24.9170400145
 31
0.0
 11
-0.5151814249
 21
24.9222811654
 31
0.0
 11
-0.5151120915
 21
24.9275352382
 31
0.0
 11
-0.5150919848
 21
24.9301671203
 31
0.0
 11
-0.5150815848
 21
24.9328022329
 31
0.0
 11
-0.5150800248
 21
24.9341210007
 31
0.0
 11
-0.5150809353
 21
24.9354996439
 31
0.0
 11
-0.5150903926
 21
24.938275241
 31
0.0
 11
-0.5151398611
 21
24.94382016
 31
0.0
 11
-0.5153610146
 21
24.954884897
 31
0.0
 11
-0.5157451233
 21
24.9659161662
 31
0.0
 11
-0.5170022064
 21
24.9878783008
 31
0.0
 11
-0.5189111103
 21
25.0097065639
 31
0.0
 11
-0.5246843807
 21
25.0529614757
 31
0.0
 11
-0.5253009951
 21
25.0566467285
 31
0.0
  0
SPLINE
  5
34C
100
AcDbEntity
  8
0
100
AcDbSpline
 62
7
  6
CONTINUOUS
 70
0
 71
3
 72
79
 73
75
 74
73
 42
0.0000001
 43
0.0000001
 44
0.0000000001
 12
-0.2789806302
 22
1.640912569
 32
0.0
 13
-1.4460287757
 23
-0.8247169195
 33
0.0
 40
0.0
 40
0.0
 40
0.0
 40
0.0
 40
0.0239144349
 40
0.050108451
 40
0.0764344932
 40
0.1029884148
 40
0.1298636309
 40
0.1571502572
 40
0.1640471984
 40
0.1709746265
 40
0.184815166
 40
0.2123902443
 40
0.23992318
 40
0.2952887725
 40
0.3518332273
 40
0.3808248922
 40
0.3955422862
 40
0.4104220251
 40
0.4254753809
 40
0.4330559104
 40
0.4406280985
 40
0.4708327089
 40
0.5009715776
 40
0.5311299128
 40
0.5613927583
 40
0.5918442823
 40
0.6071679619
 40
0.6225696177
 40
0.6380592322
 40
0.6536466184
 40
0.6614801411
 40
0.6693417013
 40
0.6772324719
 40
0.685153613
 40
0.689125949
 40
0.6931063065
 40
0.6970948267
 40
0.7010916498
 40
0.7030932208
 40
0.7040948035
 40
0.7050969203
 40
0.7060995734
 40
0.7066011018
 40
0.7071027651
 40
0.7076045636
 40
0.7078555136
 40
0.7079890732
 40
0.7081710535
 40
0.7085349378
 40
0.7088987204
 40
0.7096259806
 40
0.7103528348
 40
0.7110792839
 40
0.7125309688
 40
0.7154295054
 40
0.7183216372
 40
0.7212074098
 40
0.7240868692
 40
0.7269600615
 40
0.7326878196
 40
0.7383910713
 40
0.7440701972
 40
0.75535752
 40
0.7665530256
 40
0.777659934
 40
0.7886815424
 40
0.8104815623
 40
0.8319818271
 40
0.853211427
 40
0.8742005772
 40
0.8949805423
 40
0.9360342619
 40
0.9766476096
 40
1.0
 40
1.0
 40
1.0
 40
1.0
 10
-0.5253009951
 20
25.0566467285
 30
0.0
 10
-0.5275248832
 20
25.0697272274
 30
0.0
 10
-0.5329499446
 20
25.0970042569
 30
0.0
 10
-0.543648152
 20
25.1380600062
 30
0.0
 10
-0.5572767201
 20
25.179781467
 30
0.0
 10
-0.5735203752
 20
25.2209621089
 30
0.0
 10
-0.5923777529
 20
25.2615992931
 30
0.0
 10
-0.6083750525
 20
25.2914772533
 30
0.0
 10
-0.6198252432
 20
25.3112000014
 30
0.0
 10
-0.6277059891
 20
25.3243690972
 30
0.0
 10
-0.6420156614
 20
25.3470538067
 30
0.0
 10
-0.6639661898
 20
25.3784116862
 30
0.0
 10
-0.7022848768
 20
25.4262813638
 30
0.0
 10
-0.7563990502
 20
25.4818715071
 30
0.0
 10
-0.8176814973
 20
25.530714133
 30
0.0
 10
-0.8640749311
 20
25.5614291523
 30
0.0
 10
-0.8919146181
 20
25.5782075538
 30
0.0
 10
-0.9134789049
 20
25.5903988649
 30
0.0
 10
-0.9318685639
 20
25.6001445545
 30
0.0
 10
-0.9468270734
 20
25.6076960205
 30
0.0
 10
-0.9694350962
 20
25.6187397711
 30
0.0
 10
-1.0038311184
 20
25.6341603482
 30
0.0
 10
-1.05068978
 20
25.6522426923
 30
0.0
 10
-1.0984763792
 20
25.6678154782
 30
0.0
 10
-1.1471876685
 20
25.6808778127
 30
0.0
 10
-1.1884662817
 20
25.6896530821
 30
0.0
 10
-1.2219120073
 20
25.6954206845
 30
0.0
 10
-1.2472818639
 20
25.6991297537
 30
0.0
 10
-1.2728824354
 20
25.7022126326
 30
0.0
 10
-1.2943725574
 20
25.7042565043
 30
0.0
 10
-1.3116755653
 20
25.7055798757
 30
0.0
 10
-1.32473274
 20
25.7064176534
 30
0.0
 10
-1.3378476473
 20
25.7070989783
 30
0.0
 10
-1.3488140656
 20
25.7075359445
 30
0.0
 10
-1.3576155435
 20
25.7078075129
 30
0.0
 10
-1.3642376335
 20
25.7079722832
 30
0.0
 10
-1.3708741633
 20
25.7080979452
 30
0.0
 10
-1.3764137273
 20
25.7081700356
 30
0.0
 10
-1.3802966559
 20
25.708203407
 30
0.0
 10
-1.3825184378
 20
25.7082176018
 30
0.0
 10
-1.3841861193
 20
25.7082258066
 30
0.0
 10
-1.3855764197
 20
25.7082306065
 30
0.0
 10
-1.3866891104
 20
25.7082332248
 30
0.0
 10
-1.3875239661
 20
25.7082345778
 30
0.0
 10
-1.3882198203
 20
25.7082351958
 30
0.0
 10
-1.3887114782
 20
25.7082353632
 30
0.0
 10
-1.3890257248
 20
25.7082353812
 30
0.0
 10
-1.3894026189
 20
25.7082353216
 30
0.0
 10
-1.3899072235
 20
25.708235057
 30
0.0
 10
-1.3907143085
 20
25.708234238
 30
0.0
 10
-1.3917227414
 20
25.7082324732
 30
0.0
 10
-1.3929323517
 20
25.7082291688
 30
0.0
 10
-1.3945438124
 20
25.7082231828
 30
0.0
 10
-1.3973599357
 20
25.7082085669
 30
0.0
 10
-1.4013773333
 20
25.7081758376
 30
0.0
 10
-1.4061900377
 20
25.7081175595
 30
0.0
 10
-1.4109918911
 20
25.7080403001
 30
0.0
 10
-1.4157828941
 20
25.7079440595
 30
0.0
 10
-1.4221495373
 20
25.7077905966
 30
0.0
 10
-1.4300809349
 20
25.7075514644
 30
0.0
 10
-1.4395655244
 20
25.7071882666
 30
0.0
 10
-1.4521275242
 20
25.7066039873
 30
0.0
 10
-1.4677234189
 20
25.705684925
 30
0.0
 10
-1.4863040255
 20
25.7042759785
 30
0.0
 10
-1.5047111782
 20
25.7025632445
 30
0.0
 10
-1.5289327816
 20
25.6998845132
 30
0.0
 10
-1.5587931545
 20
25.6957831737
 30
0.0
 10
-1.5940642576
 20
25.6896269361
 30
0.0
 10
-1.6286418399
 20
25.6822541451
 30
0.0
 10
-1.6625261851
 20
25.6736642572
 30
0.0
 10
-1.7065962526
 20
25.6606435265
 30
0.0
 10
-1.7601076796
 20
25.6413081948
 30
0.0
 10
-1.8131509777
 20
25.617065993
 30
0.0
 10
-1.8444066124
 20
25.6002194888
 30
0.0
 10
-1.8556626886
 20
25.593799785
 30
0.0
 11
-0.5253009951
 21
25.0566467285
 31
0.0
 11
-0.5330649346
 21
25.0956809013
 31
0.0
 11
-0.5440527718
 21
25.1378648409
 31
0.0
 11
-0.5576478925
 21
25.1795132945
 31
0.0
 11
-0.5738502966
 21
25.2206262619
 31
0.0
 11
-0.5926599841
 21
25.2612037434
 31
0.0
 11
-0.614076955
 21
25.3012457387
 31
0.0
 11
-0.6198385857
 21
25.3111725679
 31
0.0
 11
-0.625762428
 21
25.3210626463
 31
0.0
 11
-0.6380536149
 21
25.3405421442
 31
0.0
 11
-0.6643728148
 21
25.3781343613
 31
0.0
 11
-0.6930077829
 21
25.4139042065
 31
0.0
 11
-0.7572250232
 21
25.4799767813
 31
0.0
 11
-0.8307053359
 21
25.5387598688
 31
0.0
 11
-0.8709191444
 21
25.5654178548
 31
0.0
 11
-0.8918944617
 21
25.5780634583
 31
0.0
 11
-0.9134487211
 21
25.5902534689
 31
0.0
 11
-0.9355819224
 21
25.6019878865
 31
0.0
 11
-0.9468434431
 21
25.6076733987
 31
0.0
 11
-0.9581662903
 21
25.6132042195
 31
0.0
 11
-1.004035451
 21
25.6337632303
 31
0.0
 11
-1.0508290466
 21
25.651819405
 31
0.0
 11
-1.0985470773
 21
25.6673727436
 31
0.0
 11
-1.1471895429
 21
25.680423246
 31
0.0
 11
-1.1967564435
 21
25.6909709124
 31
0.0
 11
-1.221886557
 21
25.6953061821
 31
0.0
 11
-1.2472477792
 21
25.6990157427
 31
0.0
 11
-1.2728401101
 21
25.7020995943
 31
0.0
 11
-1.2986635498
 21
25.7045577369
 31
0.0
 11
-1.3116619354
 21
25.7055521673
 31
0.0
 11
-1.3247180982
 21
25.7063901705
 31
0.0
 11
-1.3378320382
 21
25.7070717464
 31
0.0
 11
-1.3510037554
 21
25.707596895
 31
0.0
 11
-1.3576112804
 21
25.7078008092
 31
0.0
 11
-1.3642332498
 21
25.7079656164
 31
0.0
 11
-1.3708696634
 21
25.7080913169
 31
0.0
 11
-1.3775205213
 21
25.7081779106
 31
0.0
 11
-1.3808513669
 21
25.7082065423
 31
0.0
 11
-1.3825181438
 21
25.708217192
 31
0.0
 11
-1.3841858236
 21
25.7082253974
 31
0.0
 11
-1.385854406
 21
25.7082311587
 31
0.0
 11
-1.3866890358
 21
25.7082331228
 31
0.0
 11
-1.3875238913
 21
25.7082344758
 31
0.0
 11
-1.3883589724
 21
25.7082352178
 31
0.0
 11
-1.3887765977
 21
25.7082353596
 31
0.0
 11
-1.3889988646
 21
25.7082353729
 31
0.0
 11
-1.3893017121
 21
25.7082353252
 31
0.0
 11
-1.3899072799
 21
25.7082350075
 31
0.0
 11
-1.3905126782
 21
25.7082343931
 31
0.0
 11
-1.3917229661
 21
25.7082322747
 31
0.0
 11
-1.3929325758
 21
25.70822897
 31
0.0
 11
-1.3941415073
 21
25.7082244789
 31
0.0
 11
-1.3965573356
 21
25.7082119379
 31
0.0
 11
-1.4013808536
 21
25.7081726201
 31
0.0
 11
-1.4061935201
 21
25.7081143214
 31
0.0
 11
-1.410995335
 21
25.7080370416
 31
0.0
 11
-1.4157862985
 21
25.7079407808
 31
0.0
 11
-1.4205664105
 21
25.7078255391
 31
0.0
 11
-1.4300940799
 21
25.7075381126
 31
0.0
 11
-1.4395783433
 21
25.7071747621
 31
0.0
 11
-1.4490192007
 21
25.7067354876
 31
0.0
 11
-1.4677706974
 21
25.7056291666
 31
0.0
 11
-1.4863485702
 21
25.7042191498
 31
0.0
 11
-1.5047528188
 21
25.702505437
 31
0.0
 11
-1.5229834434
 21
25.7004880282
 31
0.0
 11
-1.5589238204
 21
25.6955421229
 31
0.0
 11
-1.5941697013
 21
25.6893814338
 31
0.0
 11
-1.6287210859
 21
25.6820059609
 31
0.0
 11
-1.6625779743
 21
25.6734157043
 31
0.0
 11
-1.6957403665
 21
25.6636106639
 31
0.0
 11
-1.7599816623
 21
25.6403562318
 31
0.0
 11
-1.8214449732
 21
25.6122426647
 31
0.0
 11
-1.8556626886
 21
25.593799785
 31
0.0
  0
SPLINE
  5
34D
100
AcDbEntity
  8
0
100
AcDbSpline
 62
7
  6
CONTINUOUS
 70
0
 71
3
 72
19
 73
15
 74
13
 42
0.0000001
 43
0.0000001
 44
0.0000000001
 12
0.1015197888
 22
0.6746354737
 32
0.0
 13
0.654566272
 23
0.1927355177
 33
0.0
 40
0.0
 40
0.0
 40
0.0
 40
0.0
 40
0.3200143378
 40
0.4606659363
 40
0.5274273795
 40
0.5923872356
 40
0.6243568918
 40
0.6560690687
 40
0.6875418768
 40
0.7186970261
 40
0.780237621
 40
0.8411527084
 40
0.9628734243
 40
1.0
 40
1.0
 40
1.0
 40
1.0
 10
-1.92037
 20
24.8658953736
 30
0.0
 10
-1.9095407373
 20
24.9378597151
 30
0.0
 10
-1.8849387048
 20
25.0410431126
 30
0.0
 10
-1.8325792719
 20
25.1494663635
 30
0.0
 10
-1.7989072842
 20
25.2015365993
 30
0.0
 10
-1.7760413137
 20
25.2309789912
 30
0.0
 10
-1.7565583072
 20
25.252813352
 30
0.0
 10
-1.7414155136
 20
25.2682827403
 30
0.0
 10
-1.7257127659
 20
25.2829112536
 30
0.0
 10
-1.7042839076
 20
25.3013089566
 30
0.0
 10
-1.6763419196
 20
25.3223577036
 30
0.0
 10
-1.6292028787
 20
25.3518076598
 30
0.0
 10
-1.583381955
 20
25.3725229779
 30
0.0
 10
-1.5489797064
 20
25.3836131623
 30
0.0
 10
-1.540879105
 20
25.3859983655
 30
0.0
 11
-1.92037
 21
24.8658953736
 31
0.0
 11
-1.8651630277
 21
25.0771237916
 31
0.0
 11
-1.822921347
 21
25.1632827516
 31
0.0
 11
-1.7981409579
 21
25.2014984193
 31
0.0
 11
-1.7709208698
 21
25.2364715455
 31
0.0
 11
-1.7563959385
 21
25.2527421556
 31
0.0
 11
-1.7412610825
 21
25.2682021302
 31
0.0
 11
-1.7255629298
 21
25.2828514695
 31
0.0
 11
-1.7094301739
 21
25.2966901734
 31
0.0
 11
-1.6758832338
 21
25.3219356752
 31
0.0
 11
-1.6406277229
 21
25.3439386354
 31
0.0
 11
-1.5649909883
 21
25.3782169313
 31
0.0
 11
-1.540879105
 21
25.3859983655
 31
0.0
  0
SPLINE
  5
34E
100
AcDbEntity
  8
0
100
AcDbSpline
 62
7
  6
CONTINUOUS
 70
0
 71
3
 72
25
 73
21
 74
19
 42
0.0000001
 43
0.0000001
 44
0.0000000001
 12
0.4979309018
 22
0.1466145969
 32
0.0
 13
0.3958865693
 23
-0.3356479189
 33
0.0
 40
0.0
 40
0.0
 40
0.0
 40
0.0
 40
0.0325195719
 40
0.1154678534
 40
0.2005960303
 40
0.2441478961
 40
0.2884340905
 40
0.3108714192
 40
0.333536188
 40
0.3782695274
 40
0.4221622686
 40
0.4652712937
 40
0.5493652932
 40
0.6310834965
 40
0.7109894187
 40
0.7896855162
 40
0.8678022414
 40
0.9459840645
 40
0.9853106709
 40
1.0
 40
1.0
 40
1.0
 40
1.0
 10
-1.540879105
 20
25.3859983655
 30
0.0
 10
-1.5354816051
 20
25.3875876468
 30
0.0
 10
-1.5162221154
 20
25.3929046597
 30
0.0
 10
-1.4822463129
 20
25.400164397
 30
0.0
 10
-1.4459079022
 20
25.4049260731
 30
0.0
 10
-1.4160628754
 20
25.4071401829
 30
0.0
 10
-1.3969948327
 20
25.4078557646
 30
0.0
 10
-1.3815317114
 20
25.4080267342
 30
0.0
 10
-1.3659905496
 20
25.4079330185
 30
0.0
 10
-1.3467434807
 20
25.4073319121
 30
0.0
 10
-1.3239997496
 20
25.4058146441
 30
0.0
 10
-1.2945539603
 20
25.4027632738
 30
0.0
 10
-1.2588331834
 20
25.3970069155
 30
0.0
 10
-1.2175052582
 20
25.3868594585
 30
0.0
 10
-1.1780726187
 20
25.3735251232
 30
0.0
 10
-1.1405434301
 20
25.3570012776
 30
0.0
 10
-1.104926919
 20
25.337289644
 30
0.0
 10
-1.076894412
 20
25.3182404018
 30
0.0
 10
-1.0588861465
 20
25.3041344911
 30
0.0
 10
-1.0517083657
 20
25.2981497379
 30
0.0
 10
-1.0497699296
 20
25.296506257
 30
0.0
 11
-1.540879105
 21
25.3859983655
 31
0.0
 11
-1.5246097647
 21
25.390492267
 31
0.0
 11
-1.4825199702
 21
25.3995250611
 31
0.0
 11
-1.4387216047
 21
25.4053153138
 31
0.0
 11
-1.4161817079
 21
25.4069944871
 31
0.0
 11
-1.3932146684
 21
25.407863025
 31
0.0
 11
-1.3815709701
 21
25.4079933057
 31
0.0
 11
-1.3698087183
 21
25.4079228245
 31
0.0
 11
-1.3466047968
 21
25.407189272
 31
0.0
 11
-1.323876539
 21
25.4056657398
 31
0.0
 11
-1.3016239449
 21
25.403352228
 31
0.0
 11
-1.2585457479
 21
25.3963552655
 31
0.0
 11
-1.2173702057
 21
25.3861983844
 31
0.0
 11
-1.1780973184
 21
25.3728815848
 31
0.0
 11
-1.140727086
 21
25.3564048667
 31
0.0
 11
-1.1052595084
 21
25.3367682299
 31
0.0
 11
-1.0716945858
 21
25.3139716747
 31
0.0
 11
-1.05562562
 21
25.3013884276
 31
0.0
 11
-1.0497699296
 21
25.296506257
 31
0.0
  0
SPLINE
  5
34F
100
AcDbEntity
  8
0
100
AcDbSpline
 62
7
  6
CONTINUOUS
 70
0
 71
3
 72
50
 73
46
 74
44
 42
0.0000001
 43
0.0000001
 44
0.0000000001
 12
0.3701654614
 22
-0.3138405705
 32
0.0
 13
-0.0673738485
 23
-0.4806031688
 33
0.0
 40
0.0
 40
0.0
 40
0.0
 40
0.0
 40
0.0266231836
 40
0.0479197854
 40
0.0693051371
 40
0.1117598263
 40
0.1536823374
 40
0.1951518579
 40
0.2770401277
 40
0.3581237349
 40
0.4391018804
 40
0.5206764772
 40
0.5619135166
 40
0.6035547991
 40
0.6456811243
 40
0.6883705379
 40
0.7099511006
 40
0.7317002848
 40
0.753626954
 40
0.7646596899
 40
0.7757400223
 40
0.7868689987
 40
0.7980476529
 40
0.8092770049
 40
0.8149110231
 40
0.8177329204
 40
0.8205580958
 40
0.8233865648
 40
0.8248020394
 40
0.8262183432
 40
0.8269268067
 40
0.827794572
 40
0.8295820292
 40
0.8331521887
 40
0.8367160283
 40
0.8402735713
 40
0.8473698547
 40
0.8544412323
 40
0.8614878938
 40
0.8755077884
 40
0.9032591491
 40
0.9306372242
 40
0.9576554012
 40
0.9843276093
 40
1.0
 40
1.0
 40
1.0
 40
1.0
 10
-1.0497699296
 20
25.296506257
 30
0.0
 10
-1.0464849353
 20
25.293721112
 30
0.0
 10
-1.0406420778
 20
25.288625549
 30
0.0
 10
-1.0323777685
 20
25.2810500641
 30
0.0
 10
-1.0224314499
 20
25.2715244089
 30
0.0
 10
-1.0104480137
 20
25.2593078629
 30
0.0
 10
-0.9968263886
 20
25.2441721408
 30
0.0
 10
-0.9798286616
 20
25.2235278472
 30
0.0
 10
-0.96053957
 20
25.196606237
 30
0.0
 10
-0.9405928835
 20
25.162494124
 30
0.0
 10
-0.9239431803
 20
25.1267128294
 30
0.0
 10
-0.9128574434
 20
25.0956158178
 30
0.0
 10
-0.905642438
 20
25.0700048967
 30
0.0
 10
-0.9010296266
 20
25.0503111517
 30
0.0
 10
-0.8972362427
 20
25.0302050435
 30
0.0
 10
-0.8947665504
 20
25.0131677612
 30
0.0
 10
-0.8931965729
 20
24.9993420276
 30
0.0
 10
-0.8922191836
 20
24.9888312459
 30
0.0
 10
-0.8915764197
 20
24.9800047481
 30
0.0
 10
-0.8911638248
 20
24.9728930783
 30
0.0
 10
-0.8909048214
 20
24.967522249
 30
0.0
 10
-0.8906969135
 20
24.9621255849
 30
0.0
 10
-0.8905401004
 20
24.9567030819
 30
0.0
 10
-0.8904521026
 20
24.9521679964
 30
0.0
 10
-0.8904128047
 20
24.9489840885
 30
0.0
 10
-0.8903966984
 20
24.947159414
 30
0.0
 10
-0.890387805
 20
24.945788502
 30
0.0
 10
-0.8903830559
 20
24.9446450635
 30
0.0
 10
-0.8903808525
 20
24.9437295071
 30
0.0
 10
-0.8903801388
 20
24.9431568646
 30
0.0
 10
-0.8903799609
 20
24.9426728152
 30
0.0
 10
-0.8903800951
 20
24.9421287308
 30
0.0
 10
-0.8903812736
 20
24.9411217605
 30
0.0
 10
-0.8903857136
 20
24.9396786983
 30
0.0
 10
-0.8903954308
 20
24.9379493406
 30
0.0
 10
-0.890414226
 20
24.9356496731
 30
0.0
 10
-0.8904486669
 20
24.9327827712
 30
0.0
 10
-0.8905075952
 20
24.9293517936
 30
0.0
 10
-0.8906094056
 20
24.924801533
 30
0.0
 10
-0.8908479055
 20
24.9169085932
 30
0.0
 10
-0.8913630926
 20
24.9057344538
 30
0.0
 10
-0.8922645412
 20
24.8924764461
 30
0.0
 10
-0.89344711
 20
24.8794156484
 30
0.0
 10
-0.89471564
 20
24.8682672019
 30
0.0
 10
-0.895618224
 20
24.8614768612
 30
0.0
 10
-0.8959701937
 20
24.8589661276
 30
0.0
 11
-1.0497699296
 21
25.296506257
 31
0.0
 11
-1.0400323179
 21
25.2880152008
 31
0.0
 11
-1.0324140408
 21
25.2810323451
 31
0.0
 11
-1.0249181673
 21
25.2738558361
 31
0.0
 11
-1.010495916
 21
25.2591446713
 31
0.0
 11
-0.9968911202
 21
25.2440200043
 31
0.0
 11
-0.98410378
 21
25.2284818351
 31
0.0
 11
-0.9609814662
 21
25.19616499
 31
0.0
 11
-0.9411289745
 21
25.1621941361
 31
0.0
 11
-0.924546305
 21
25.1265692734
 31
0.0
 11
-0.9112334576
 21
25.0892904018
 31
0.0
 11
-0.9058032173
 21
25.0700307128
 31
0.0
 11
-0.9011904324
 21
25.0503575215
 31
0.0
 11
-0.8973951031
 21
25.030270828
 31
0.0
 11
-0.8944172294
 21
25.0097706323
 31
0.0
 11
-0.8932348384
 21
24.9993654711
 31
0.0
 11
-0.8922568112
 21
24.9888569343
 31
0.0
 11
-0.8914831479
 21
24.9782450221
 31
0.0
 11
-0.8911729527
 21
24.9729003001
 31
0.0
 11
-0.8909138485
 21
24.9675297342
 31
0.0
 11
-0.8907058353
 21
24.9621333245
 31
0.0
 11
-0.890548913
 21
24.9567110708
 31
0.0
 11
-0.8904430817
 21
24.9512629733
 31
0.0
 11
-0.8904093252
 21
24.9485292331
 31
0.0
 11
-0.8903972367
 21
24.9471599401
 31
0.0
 11
-0.8903883414
 21
24.9457890319
 31
0.0
 11
-0.8903826393
 21
24.9444165084
 31
0.0
 11
-0.8903809857
 21
24.943729641
 31
0.0
 11
-0.8903801303
 21
24.9430423697
 31
0.0
 11
-0.890380002
 21
24.9426985827
 31
0.0
 11
-0.8903801008
 21
24.9422774932
 31
0.0
 11
-0.89038112
 21
24.9414101171
 31
0.0
 11
-0.8903864514
 21
24.9396776792
 31
0.0
 11
-0.8903961733
 21
24.9379483273
 31
0.0
 11
-0.8904102857
 21
24.9362220611
 31
0.0
 11
-0.8904516822
 21
24.9327787865
 31
0.0
 11
-0.8905106408
 21
24.9293478552
 31
0.0
 11
-0.8905871616
 21
24.9259292674
 31
0.0
 11
-0.8907928895
 21
24.919129122
 31
0.0
 11
-0.891415091
 21
24.9056769525
 31
0.0
 11
-0.8923182868
 21
24.892422278
 31
0.0
 11
-0.8935024768
 21
24.8793650983
 31
0.0
 11
-0.8949676611
 21
24.8665054135
 31
0.0
 11
-0.8959701937
 21
24.8589661276
 31
0.0
  0
SPLINE
  5
350
100
AcDbEntity
  8
0
100
AcDbSpline
 62
7
  6
CONTINUOUS
 70
0
 71
3
 72
68
 73
64
 74
62
 42
0.0000001
 43
0.0000001
 44
0.0000000001
 12
0.7214470045
 22
0.1895353323
 32
0.0
 13
0.511522064
 23
-0.5429909721
 33
0.0
 40
0.0
 40
0.0
 40
0.0
 40
0.0
 40
0.0460437962
 40
0.0901898437
 40
0.132456147
 40
0.1728637586
 40
0.1923783683
 40
0.2114376386
 40
0.2300451524
 40
0.2482047598
 40
0.265920603
 40
0.2831971434
 40
0.2916722433
 40
0.3000393535
 40
0.3082991356
 40
0.3164522769
 40
0.3244994924
 40
0.3284836211
 40
0.3324415497
 40
0.3363733757
 40
0.3402791989
 40
0.3422223927
 40
0.344159124
 40
0.3460894059
 40
0.3480132515
 40
0.348972765
 40
0.3499306745
 40
0.3508869815
 40
0.3513645347
 40
0.3516031613
 40
0.3518416879
 40
0.3520801146
 40
0.3523184414
 40
0.3525116503
 40
0.3528035981
 40
0.3533873619
 40
0.3545543635
 40
0.3557206649
 40
0.3568862675
 40
0.3580511727
 40
0.3603788963
 40
0.365026035
 40
0.3696621759
 40
0.3789018119
 40
0.388098575
 40
0.3972532234
 40
0.4063665258
 40
0.4154392614
 40
0.4334660004
 40
0.4513400797
 40
0.4866551491
 40
0.5214409427
 40
0.5557548395
 40
0.5896566147
 40
0.6232082462
 40
0.6895018986
 40
0.755181239
 40
0.8207908377
 40
0.8868769895
 40
0.920274761
 40
0.9539903427
 40
0.9880082677
 40
1.0
 40
1.0
 40
1.0
 40
1.0
 10
-1.6011040003
 20
24.1278054627
 30
0.0
 10
-1.5900312807
 20
24.1307144381
 30
0.0
 10
-1.5682913478
 20
24.1362214654
 30
0.0
 10
-1.5362113015
 20
24.1436835967
 30
0.0
 10
-1.5053507543
 20
24.15017264
 30
0.0
 10
-1.4803684328
 20
24.1548218159
 30
0.0
 10
-1.4609953433
 20
24.1580406505
 30
0.0
 10
-1.4469394927
 20
24.1601831635
 30
0.0
 10
-1.4331886994
 20
24.1620822002
 30
0.0
 10
-1.4197429187
 20
24.1637377488
 30
0.0
 10
-1.40660217
 20
24.1651498074
 30
0.0
 10
-1.3958382542
 20
24.1661297668
 30
0.0
 10
-1.3873804966
 20
24.1667898162
 30
0.0
 10
-1.3811538785
 20
24.1672208043
 30
0.0
 10
-1.3750035403
 20
24.1675909039
 30
0.0
 10
-1.3689294803
 20
24.1679001132
 30
0.0
 10
-1.3639149634
 20
24.1681077242
 30
0.0
 10
-1.3599416364
 20
24.1682430748
 30
0.0
 10
-1.3569905189
 20
24.1683290299
 30
0.0
 10
-1.3540584739
 20
24.1683997616
 30
0.0
 10
-1.351626967
 20
24.1684460952
 30
0.0
 10
-1.3496913181
 20
24.1684755127
 30
0.0
 10
-1.3482467648
 20
24.1684937331
 30
0.0
 10
-1.3468069797
 20
24.1685081477
 30
0.0
 10
-1.3456101335
 20
24.1685169956
 30
0.0
 10
-1.3446550433
 20
24.1685221662
 30
0.0
 10
-1.3439405166
 20
24.1685250894
 30
0.0
 10
-1.3433458222
 20
24.1685267332
 30
0.0
 10
-1.342929971
 20
24.1685274672
 30
0.0
 10
-1.3426925902
 20
24.1685277675
 30
0.0
 10
-1.3425146665
 20
24.1685279331
 30
0.0
 10
-1.3423368172
 20
24.1685280394
 30
0.0
 10
-1.3421702358
 20
24.1685280831
 30
0.0
 10
-1.3419903468
 20
24.1685280763
 30
0.0
 10
-1.3417245674
 20
24.1685280093
 30
0.0
 10
-1.3412166614
 20
24.1685276696
 30
0.0
 10
-1.3404913543
 20
24.1685265869
 30
0.0
 10
-1.3396213792
 20
24.168524329
 30
0.0
 10
-1.3387519283
 20
24.1685211134
 30
0.0
 10
-1.3375937055
 20
24.1685155501
 30
0.0
 10
-1.3355698513
 20
24.1685024724
 30
0.0
 10
-1.3326829858
 20
24.1684742217
 30
0.0
 10
-1.3280778501
 20
24.1684086341
 30
0.0
 10
-1.3223422023
 20
24.1682884628
 30
0.0
 10
-1.3154848772
 20
24.1680827745
 30
0.0
 10
-1.3086610995
 20
24.1678157731
 30
0.0
 10
-1.3018708627
 20
24.1674874576
 30
0.0
 10
-1.2928816484
 20
24.1669690896
 30
0.0
 10
-1.2817272059
 20
24.1661687485
 30
0.0
 10
-1.2640918249
 20
24.1645648676
 30
0.0
 10
-1.2423678273
 20
24.1619526891
 30
0.0
 10
-1.2167293161
 20
24.1578227935
 30
0.0
 10
-1.1916267119
 20
24.1527102236
 30
0.0
 10
-1.1670598261
 20
24.1466144593
 30
0.0
 10
-1.1351515778
 20
24.1372157293
 30
0.0
 10
-1.0964682555
 20
24.1229899391
 30
0.0
 10
-1.0520266409
 20
24.1018928561
 30
0.0
 10
-1.0097487778
 20
24.0768394565
 30
0.0
 10
-0.9764384635
 20
24.0527474937
 30
0.0
 10
-0.9509454503
 20
24.0315920652
 30
0.0
 10
-0.9323094503
 20
24.0146979021
 30
0.0
 10
-0.9181982342
 20
24.0007673506
 30
0.0
 10
-0.9102900361
 20
23.9924992826
 30
0.0
 10
-0.9082453575
 20
23.9903288151
 30
0.0
 11
-1.6011040003
 21
24.1278054627
 31
0.0
 11
-1.5678069322
 21
24.1362263041
 31
0.0
 11
-1.5357301553
 21
24.143672912
 31
0.0
 11
-1.5048740086
 21
24.1501451974
 31
0.0
 11
-1.475238492
 21
24.1556431602
 31
0.0
 11
-1.4608784701
 21
24.1580267707
 31
0.0
 11
-1.4468236057
 21
24.1601668006
 31
0.0
 11
-1.4330738988
 21
24.1620632498
 31
0.0
 11
-1.4196293494
 21
24.1637161184
 31
0.0
 11
-1.4064899576
 21
24.1651254063
 31
0.0
 11
-1.3936557234
 21
24.1662911136
 31
0.0
 11
-1.3873530403
 21
24.1667826245
 31
0.0
 11
-1.3811266467
 21
24.1672132403
 31
0.0
 11
-1.3749765424
 21
24.1675829609
 31
0.0
 11
-1.3689027275
 21
24.1678917863
 31
0.0
 11
-1.362905202
 21
24.1681397166
 31
0.0
 11
-1.3599350477
 21
24.1682408461
 31
0.0
 11
-1.3569839658
 21
24.1683267518
 31
0.0
 11
-1.3540519563
 21
24.1683974336
 31
0.0
 11
-1.3511390191
 21
24.1684528917
 31
0.0
 11
-1.3496897026
 21
24.1684749119
 31
0.0
 11
-1.3482451543
 21
24.168493126
 31
0.0
 11
-1.346805374
 21
24.1685075343
 31
0.0
 11
-1.3453703618
 21
24.1685181365
 31
0.0
 11
-1.3446546437
 21
24.1685220105
 31
0.0
 11
-1.3439401176
 21
24.1685249329
 31
0.0
 11
-1.3432267836
 21
24.1685269038
 31
0.0
 11
-1.3428705636
 21
24.1685275325
 31
0.0
 11
-1.3426925653
 21
24.1685277576
 31
0.0
 11
-1.3425146416
 21
24.1685279233
 31
0.0
 11
-1.3423367923
 21
24.1685280295
 31
0.0
 11
-1.3421590176
 21
24.1685280762
 31
0.0
 11
-1.3420148975
 21
24.1685280731
 31
0.0
 11
-1.3417971254
 21
24.1685280175
 31
0.0
 11
-1.3413616794
 21
24.1685277267
 31
0.0
 11
-1.3404911805
 21
24.1685264266
 31
0.0
 11
-1.3396212059
 21
24.1685241686
 31
0.0
 11
-1.3387517556
 21
24.1685209526
 31
0.0
 11
-1.3378828296
 21
24.1685167786
 31
0.0
 11
-1.3361465503
 21
24.1685055569
 31
0.0
 11
-1.332680283
 21
24.1684716179
 31
0.0
 11
-1.329222404
 21
24.1684223516
 31
0.0
 11
-1.3223318108
 21
24.1682778371
 31
0.0
 11
-1.3154747709
 21
24.1680720134
 31
0.0
 11
-1.3086512842
 21
24.1678048805
 31
0.0
 11
-1.3018613506
 21
24.1674764385
 31
0.0
 11
-1.2951049703
 21
24.1670866873
 31
0.0
 11
-1.2816928693
 21
24.1661232573
 31
0.0
 11
-1.2684149811
 21
24.1649145906
 31
0.0
 11
-1.2422618431
 21
24.1617615471
 31
0.0
 11
-1.2166455564
 21
24.1576275567
 31
0.0
 11
-1.191566121
 21
24.1525126194
 31
0.0
 11
-1.1670235368
 21
24.1464167353
 31
0.0
 11
-1.143017804
 21
24.1393399042
 31
0.0
 11
-1.096616892
 21
24.1222434015
 31
0.0
 11
-1.0523633852
 21
24.1012231114
 31
0.0
 11
-1.0102572834
 21
24.0762790337
 31
0.0
 11
-0.9702985867
 21
24.0474111685
 31
0.0
 11
-0.9511245153
 21
24.0315058156
 31
0.0
 11
-0.9324872951
 21
24.0146195158
 31
0.0
 11
-0.9144283368
 21
23.996793644
 31
0.0
 11
-0.9082453575
 21
23.9903288151
 31
0.0
  0
SPLINE
  5
351
100
AcDbEntity
  8
0
100
AcDbSpline
 62
7
  6
CONTINUOUS
 70
0
 71
3
 72
33
 73
29
 74
27
 42
0.0000001
 43
0.0000001
 44
0.0000000001
 12
0.3541767473
 22
-0.3759657497
 32
0.0
 13
-0.0526887103
 23
-0.5138154726
 33
0.0
 40
0.0
 40
0.0
 40
0.0
 40
0.0
 40
0.0314175465
 40
0.079649251
 40
0.1274692788
 40
0.2222345264
 40
0.3165229553
 40
0.4111324652
 40
0.5068529267
 40
0.6044472402
 40
0.6541847821
 40
0.7046563356
 40
0.7559433426
 40
0.808123427
 40
0.8213174118
 40
0.8345729438
 40
0.8412241506
 40
0.8478911545
 40
0.8546198447
 40
0.8581224054
 40
0.8616211196
 40
0.8755778347
 40
0.8894744932
 40
0.9033123024
 40
0.9170924854
 40
0.9444846258
 40
0.971661312
 40
1.0
 40
1.0
 40
1.0
 40
1.0
 10
-0.9082453575
 20
23.9903288151
 30
0.0
 10
-0.9045362361
 20
23.986391508
 30
0.0
 10
-0.8952703809
 20
23.9762802456
 30
0.0
 10
-0.8810287947
 20
23.9595741659
 30
0.0
 10
-0.8608416896
 20
23.9336464447
 30
0.0
 10
-0.8379833836
 20
23.8998005443
 30
0.0
 10
-0.8144590799
 20
23.8569269759
 30
0.0
 10
-0.7949198273
 20
23.811915678
 30
0.0
 10
-0.779369181
 20
23.7647806844
 30
0.0
 10
-0.7697917767
 20
23.7239903136
 30
0.0
 10
-0.764095203
 20
23.6904087003
 30
0.0
 10
-0.760784292
 20
23.6645305975
 30
0.0
 10
-0.7584628456
 20
23.6381240483
 30
0.0
 10
-0.7574702811
 20
23.6180588709
 30
0.0
 10
-0.7571114194
 20
23.6045267096
 30
0.0
 10
-0.7570124333
 20
23.5988288562
 30
0.0
 10
-0.7569640114
 20
23.5942541725
 30
0.0
 10
-0.7569430252
 20
23.5908029541
 30
0.0
 10
-0.7569384733
 20
23.5878937479
 30
0.0
 10
-0.7569427327
 20
23.5855300021
 30
0.0
 10
-0.7569575009
 20
23.5819219083
 30
0.0
 10
-0.7570105886
 20
23.5765245139
 30
0.0
 10
-0.7571477916
 20
23.5693481825
 30
0.0
 10
-0.7573513033
 20
23.562203816
 30
0.0
 10
-0.7577103276
 20
23.5527399792
 30
0.0
 10
-0.7583239415
 20
23.5409882459
 30
0.0
 10
-0.759343918
 20
23.5267505412
 30
0.0
 10
-0.7602187759
 20
23.5172323993
 30
0.0
 10
-0.7607164855
 20
23.5123787805
 30
0.0
 11
-0.9082453575
 21
23.9903288151
 31
0.0
 11
-0.8972835265
 21
23.9783637966
 31
0.0
 11
-0.8811264831
 21
23.9594035289
 31
0.0
 11
-0.8659572065
 21
23.939912841
 31
0.0
 11
-0.8385819538
 21
23.8993402043
 31
0.0
 11
-0.8151577685
 21
23.8566458865
 31
0.0
 11
-0.7956846507
 21
23.8118298876
 31
0.0
 11
-0.7801626002
 21
23.7648922076
 31
0.0
 11
-0.7685916171
 21
23.7158328465
 31
0.0
 11
-0.7642877758
 21
23.6905075356
 31
0.0
 11
-0.7609717014
 21
23.6646518044
 31
0.0
 11
-0.7586433939
 21
23.6382656529
 31
0.0
 11
-0.7573028531
 21
23.6113490812
 31
0.0
 11
-0.7571220565
 21
23.6045370601
 31
0.0
 11
-0.7570029953
 21
23.5976918877
 31
0.0
 11
-0.7569666155
 21
23.5942568698
 31
0.0
 11
-0.7569456696
 21
23.590813564
 31
0.0
 11
-0.7569401691
 21
23.5873383392
 31
0.0
 11
-0.7569434251
 21
23.5855293421
 31
0.0
 11
-0.7569508249
 21
23.5837223438
 31
0.0
 11
-0.7570218634
 21
23.5765143396
 31
0.0
 11
-0.7571592044
 21
23.5693383174
 31
0.0
 11
-0.7573628479
 21
23.5621942774
 31
0.0
 11
-0.7576327941
 21
23.5550822195
 31
0.0
 11
-0.758371594
 21
23.54095405
 31
0.0
 11
-0.7593756042
 21
23.526953809
 31
0.0
 11
-0.7607164855
 21
23.5123787805
 31
0.0
  0
SPLINE
  5
352
100
AcDbEntity
  8
0
100
AcDbSpline
 62
7
  6
CONTINUOUS
 70
0
 71
3
 72
27
 73
23
 74
21
 42
0.0000001
 43
0.0000001
 44
0.0000000001
 12
-0.0766283122
 22
-0.7472722756
 32
0.0
 13
-0.7321512947
 23
-0.1685189146
 33
0.0
 40
0.0
 40
0.0
 40
0.0
 40
0.0
 40
0.0174696965
 40
0.0899094964
 40
0.1608282339
 40
0.2307573949
 40
0.3002511739
 40
0.3698741628
 40
0.4401878411
 40
0.4757832589
 40
0.5117536273
 40
0.5299003875
 40
0.5481645906
 40
0.5664865521
 40
0.5846880612
 40
0.6207261506
 40
0.6563329176
 40
0.7264984699
 40
0.7957457574
 40
0.8646415808
 40
0.9337613877
 40
1.0
 40
1.0
 40
1.0
 40
1.0
 10
-0.7607164855
 20
23.5123787805
 30
0.0
 10
-0.76116271
 20
23.5080272405
 30
0.0
 10
-0.7636707457
 20
23.4856525697
 30
0.0
 10
-0.7701426223
 20
23.445857066
 30
0.0
 10
-0.7831845162
 20
23.3940025572
 30
0.0
 10
-0.8005068237
 20
23.3441925475
 30
0.0
 10
-0.8221099597
 20
23.2964385363
 30
0.0
 10
-0.8479887231
 20
23.2507515322
 30
0.0
 10
-0.8730163281
 20
23.2145481704
 30
0.0
 10
-0.895075822
 20
23.1866924378
 30
0.0
 10
-0.9097627621
 20
23.1696866716
 30
0.0
 10
-0.9220301175
 20
23.1563453568
 30
0.0
 10
-0.9315120237
 20
23.1464496874
 30
0.0
 10
-0.9412011908
 20
23.1367375106
 30
0.0
 10
-0.9542915749
 20
23.124137619
 30
0.0
 10
-0.9709785772
 20
23.1090396233
 30
0.0
 10
-0.9982986681
 20
23.0863473846
 30
0.0
 10
-1.0337987614
 20
23.0605497754
 30
0.0
 10
-1.0786327797
 20
23.0337623368
 30
0.0
 10
-1.1254943783
 20
23.0112962365
 30
0.0
 10
-1.1735059073
 20
22.9934789881
 30
0.0
 10
-1.2062362845
 20
22.9845128052
 30
0.0
 10
-1.2224018465
 20
22.9807919855
 30
0.0
 11
-0.7607164855
 21
23.5123787805
 31
0.0
 11
-0.7621792552
 21
23.4993371122
 31
0.0
 11
-0.77096908
 21
23.44563886
 31
0.0
 11
-0.7840022685
 21
23.3939874629
 31
0.0
 11
-0.8012788207
 21
23.3443829209
 31
0.0
 11
-0.8227987366
 21
23.296825234
 31
0.0
 11
-0.8485620161
 21
23.2513144023
 31
0.0
 11
-0.8785686594
 21
23.2078504256
 31
0.0
 11
-0.8951632425
 21
23.186886008
 31
0.0
 11
-0.9128186664
 21
23.1664333041
 31
0.0
 11
-0.9220441937
 21
23.1563988448
 31
0.0
 11
-0.9315349313
 21
23.146492314
 31
0.0
 11
-0.9412551623
 21
23.1367494781
 31
0.0
 11
-0.9511063084
 21
23.1272690528
 31
0.0
 11
-0.9711842017
 21
23.109112602
 31
0.0
 11
-0.9917628966
 21
23.0920286842
 31
0.0
 11
-1.0344226913
 21
23.0610784474
 31
0.0
 11
-1.0790856923
 21
23.0344183424
 31
0.0
 11
-1.1257518997
 21
23.0120483693
 31
0.0
 11
-1.1744213135
 21
22.9939685279
 31
0.0
 11
-1.2224018465
 21
22.9807919855
 31
0.0
  0
SPLINE
  5
353
100
AcDbEntity
  8
0
100
AcDbSpline
 62
7
  6
CONTINUOUS
 70
0
 71
3
 72
8
 73
4
 74
2
 42
0.0000001
 43
0.0000001
 44
0.0000000001
 12
-0.5615704661
 22
0.3211247964
 32
0.0
 13
-0.0071620968
 23
0.6468625371
 33
0.0
 40
0.0
 40
0.0
 40
0.0
 40
0.0
 40
1.0
 40
1.0
 40
1.0
 40
1.0
 10
-20.5157909308
 20
-3.9545784842
 30
0.0
 10
-20.7029810862
 20
-3.8475368854
 30
0.0
 10
-20.8414073029
 20
-3.6126188036
 30
0.0
 10
-20.8437946685
 20
-3.3969979579
 30
0.0
 11
-20.5157909308
 21
-3.9545784842
 31
0.0
 11
-20.8437946685
 21
-3.3969979579
 31
0.0
  0
SPLINE
  5
354
100
AcDbEntity
  8
0
100
AcDbSpline
 62
7
  6
CONTINUOUS
 70
0
 71
3
 72
9
 73
5
 74
3
 42
0.0000001
 43
0.0000001
 44
0.0000000001
 12
0.0127392337
 22
0.8210742323
 32
0.0
 13
0.821065445
 23
0.0132935357
 33
0.0
 40
0.0
 40
0.0
 40
0.0
 40
0.0
 40
0.5130790416
 40
1.0
 40
1.0
 40
1.0
 40
1.0
 10
-20.8437946685
 20
-3.3969979579
 30
0.0
 10
-20.8416159239
 20
-3.2565726311
 30
0.0
 10
-20.7797679928
 20
-2.9449687091
 30
0.0
 10
-20.471637266
 20
-2.8596372647
 30
0.0
 10
-20.3383726082
 20
-2.8574796309
 30
0.0
 11
-20.8437946685
 21
-3.3969979579
 31
0.0
 11
-20.7133161982
 21
-2.9963840008
 31
0.0
 11
-20.3383726082
 21
-2.8574796309
 31
0.0
  0
SPLINE
  5
355
100
AcDbEntity
  8
0
100
AcDbSpline
 62
7
  6
CONTINUOUS
 70
0
 71
3
 72
17
 73
13
 74
11
 42
0.0000001
 43
0.0000001
 44
0.0000000001
 12
0.4669722759
 22
-0.0064668901
 32
0.0
 13
0.2825053567
 23
-0.3718967606
 33
0.0
 40
0.0
 40
0.0
 40
0.0
 40
0.0
 40
0.2236191569
 40
0.4268263999
 40
0.6145528111
 40
0.7046195736
 40
0.7932443047
 40
0.8813518361
 40
0.9255205447
 40
0.9699122695
 40
0.9922296273
 40
1.0
 40
1.0
 40
1.0
 40
1.0
 10
-20.3383726082
 20
-2.8574796309
 30
0.0
 10
-20.303564626
 20
-2.8579616711
 30
0.0
 10
-20.237063863
 20
-2.8625237789
 30
0.0
 10
-20.1431417702
 20
-2.8825143323
 30
0.0
 10
-20.0731722389
 20
-2.9104683195
 30
0.0
 10
-20.0238323873
 20
-2.9392603082
 30
0.0
 10
-19.9901978597
 20
-2.9637510797
 30
0.0
 10
-19.9645933256
 20
-2.9868068028
 30
0.0
 10
-19.9456368611
 20
-3.0067458326
 30
0.0
 10
-19.9343954041
 20
-3.0198550719
 30
0.0
 10
-19.9271858356
 20
-3.0289366004
 30
0.0
 10
-19.9243364551
 20
-3.0326542218
 30
0.0
 10
-19.9236047312
 20
-3.0336174806
 30
0.0
 11
-20.3383726082
 21
-2.8574796309
 31
0.0
 11
-20.2342319187
 21
-2.8653006713
 31
0.0
 11
-20.1415535993
 21
-2.8857206597
 31
0.0
 11
-20.0603376502
 21
-2.918739596
 31
0.0
 11
-20.0240280644
 21
-2.9399736696
 31
0.0
 11
-19.9905840712
 21
-2.9643574802
 31
0.0
 11
-19.9600056706
 21
-2.9918910278
 31
0.0
 11
-19.9457910675
 21
-3.006838953
 31
0.0
 11
-19.9322928625
 21
-3.0225743124
 31
0.0
 11
-19.9258124093
 21
-3.03073728
 31
0.0
 11
-19.9236047312
 21
-3.0336174806
 31
0.0
  0
SPLINE
  5
356
100
AcDbEntity
  8
0
100
AcDbSpline
 62
7
  6
CONTINUOUS
 70
0
 71
3
 72
71
 73
67
 74
65
 42
0.0000001
 43
0.0000001
 44
0.0000000001
 12
0.3945173545
 22
-0.5193520145
 32
0.0
 13
0.0
 23
-0.6521870385
 33
0.0
 40
0.0
 40
0.0
 40
0.0
 40
0.0
 40
0.0104874928
 40
0.018543144
 40
0.0267205186
 40
0.0431730291
 40
0.0760474242
 40
0.108911783
 40
0.1747424301
 40
0.2409540208
 40
0.3078220097
 40
0.3756138501
 40
0.4445862493
 40
0.4795955382
 40
0.5149901697
 40
0.550798344
 40
0.5870472963
 40
0.6237632807
 40
0.6423047274
 40
0.6609723217
 40
0.6797690672
 40
0.6986979063
 40
0.7082128078
 40
0.717761808
 40
0.7273452573
 40
0.7369635026
 40
0.7417857865
 40
0.7466168977
 40
0.7514568786
 40
0.753880209
 40
0.7563057726
 40
0.7587335746
 40
0.7599483167
 40
0.7611636203
 40
0.7617714829
 40
0.7623794862
 40
0.7626835406
 40
0.7628428096
 40
0.7630165516
 40
0.7633640355
 40
0.7637115195
 40
0.7640590035
 40
0.7644064875
 40
0.7651014554
 40
0.7664913913
 40
0.7678813272
 40
0.7692712631
 40
0.7706611989
 40
0.7720511348
 40
0.7748310066
 40
0.7776108784
 40
0.7831706219
 40
0.7887303655
 40
0.794290109
 40
0.7998498526
 40
0.8054095961
 40
0.8109693397
 40
0.8220888268
 40
0.8332083139
 40
0.844327801
 40
0.8665667752
 40
0.8888057494
 40
0.9110447236
 40
0.9332836978
 40
0.955522672
 40
1.0
 40
1.0
 40
1.0
 40
1.0
 10
-19.9236047312
 20
-3.0336174806
 30
0.0
 10
-19.9222255652
 20
-3.0354330474
 30
0.0
 10
-19.9198130958
 20
-3.0386630133
 30
0.0
 10
-19.9164013622
 20
-3.0433646635
 30
0.0
 10
-19.9123149735
 20
-3.0491780015
 30
0.0
 10
-19.9052510841
 20
-3.0594926092
 30
0.0
 10
-19.8955173508
 20
-3.0744809912
 30
0.0
 10
-19.8807307236
 20
-3.0989697381
 30
0.0
 10
-19.8637176169
 20
-3.1305573912
 30
0.0
 10
-19.8457201989
 20
-3.1699086096
 30
0.0
 10
-19.8301265449
 20
-3.2107297571
 30
0.0
 10
-19.8169371247
 20
-3.2530167542
 30
0.0
 10
-19.8079928923
 20
-3.2892971825
 30
0.0
 10
-19.8020268671
 20
-3.3190072106
 30
0.0
 10
-19.7981283365
 20
-3.3417690599
 30
0.0
 10
-19.7948285513
 20
-3.3648973264
 30
0.0
 10
-19.792127379
 20
-3.388392172
 30
0.0
 10
-19.7903810209
 20
-3.4082109448
 30
0.0
 10
-19.7892804039
 20
-3.4242445477
 30
0.0
 10
-19.7886017684
 20
-3.4364013832
 30
0.0
 10
-19.7880727027
 20
-3.4486499032
 30
0.0
 10
-19.7877570134
 20
-3.4589152124
 30
0.0
 10
-19.7875788518
 20
-3.4671727895
 30
0.0
 10
-19.7874823818
 20
-3.473399893
 30
0.0
 10
-19.7874233001
 20
-3.4796499269
 30
0.0
 10
-19.7874052385
 20
-3.4848726387
 30
0.0
 10
-19.7874094322
 20
-3.489062213
 30
0.0
 10
-19.7874219271
 20
-3.4922129903
 30
0.0
 10
-19.7874401206
 20
-3.4948422066
 30
0.0
 10
-19.7874593415
 20
-3.4969484391
 30
0.0
 10
-19.787476103
 20
-3.4985302731
 30
0.0
 10
-19.7874920064
 20
-3.4998493582
 30
0.0
 10
-19.7875059147
 20
-3.5009053417
 30
0.0
 10
-19.7875150541
 20
-3.5015657068
 30
0.0
 10
-19.7875227517
 20
-3.5020941763
 30
0.0
 10
-19.78752747
 20
-3.5024245674
 30
0.0
 10
-19.7875312927
 20
-3.502657437
 30
0.0
 10
-19.7875328684
 20
-3.502795926
 30
0.0
 10
-19.7875324324
 20
-3.5029438644
 30
0.0
 10
-19.7875326508
 20
-3.5031327173
 30
0.0
 10
-19.7875325806
 20
-3.5033593421
 30
0.0
 10
-19.7875325993
 20
-3.5035859666
 30
0.0
 10
-19.7875325932
 20
-3.5038881327
 30
0.0
 10
-19.787532597
 20
-3.5044169232
 30
0.0
 10
-19.7875325949
 20
-3.5051723384
 30
0.0
 10
-19.7875325956
 20
-3.5060788366
 30
0.0
 10
-19.7875325954
 20
-3.5069853347
 30
0.0
 10
-19.7875325954
 20
-3.5078918329
 30
0.0
 10
-19.7875325954
 20
-3.5091004971
 30
0.0
 10
-19.7875325954
 20
-3.5106113274
 30
0.0
 10
-19.7875325954
 20
-3.5130286559
 30
0.0
 10
-19.7875325954
 20
-3.5160503164
 30
0.0
 10
-19.7875325954
 20
-3.5196763091
 30
0.0
 10
-19.7875325954
 20
-3.5233023018
 30
0.0
 10
-19.7875325954
 20
-3.5269282945
 30
0.0
 10
-19.7875325954
 20
-3.5305542871
 30
0.0
 10
-19.7875325954
 20
-3.535388944
 30
0.0
 10
-19.7875325954
 20
-3.5414322652
 30
0.0
 10
-19.7875325954
 20
-3.5486842505
 30
0.0
 10
-19.7875325954
 20
-3.5583535644
 30
0.0
 10
-19.7875325954
 20
-3.5704402066
 30
0.0
 10
-19.7875325954
 20
-3.5849441773
 30
0.0
 10
-19.7875325954
 20
-3.5994481481
 30
0.0
 10
-19.7875325954
 20
-3.6139521188
 30
0.0
 10
-19.7875325954
 20
-3.6332906115
 30
0.0
 10
-19.7875325954
 20
-3.6477944474
 30
0.0
 10
-19.7875325954
 20
-3.6574636264
 30
0.0
 11
-19.9236047312
 21
-3.0336174806
 31
0.0
 11
-19.9195110557
 21
-3.0390971061
 31
0.0
 11
-19.9164275412
 21
-3.0433508411
 31
0.0
 11
-19.913355461
 21
-3.047710326
 31
0.0
 11
-19.9072925847
 21
-3.0565633978
 31
0.0
 11
-19.8956154796
 21
-3.0745447693
 31
0.0
 11
-19.8845365711
 21
-3.0928931115
 31
0.0
 11
-19.8641733441
 21
-3.1306907081
 31
0.0
 11
-19.8462029036
 21
-3.1699561874
 31
0.0
 11
-19.8306252496
 21
-3.2106895495
 31
0.0
 11
-19.8174403822
 21
-3.2528907944
 31
0.0
 11
-19.8066483013
 21
-3.2965599221
 31
0.0
 11
-19.8021495558
 21
-3.318944942
 31
0.0
 11
-19.798249007
 21
-3.3416969326
 31
0.0
 11
-19.7949466548
 21
-3.3648158939
 31
0.0
 11
-19.7922424992
 21
-3.3883018259
 31
0.0
 11
-19.7901365403
 21
-3.4121547286
 31
0.0
 11
-19.7893078845
 21
-3.4242187939
 31
0.0
 11
-19.788628778
 21
-3.4363746019
 31
0.0
 11
-19.7880992206
 21
-3.4486221526
 31
0.0
 11
-19.7877192123
 21
-3.460961446
 31
0.0
 11
-19.7875852891
 21
-3.4671654962
 31
0.0
 11
-19.7874887532
 21
-3.4733924821
 31
0.0
 11
-19.7874296046
 21
-3.4796424036
 31
0.0
 11
-19.7874078433
 21
-3.4859152608
 31
0.0
 11
-19.7874109829
 21
-3.4890602903
 31
0.0
 11
-19.7874234693
 21
-3.4922110537
 31
0.0
 11
-19.7874453025
 21
-3.495367551
 31
0.0
 11
-19.7874597242
 21
-3.4969479498
 31
0.0
 11
-19.7874764825
 21
-3.4985297822
 31
0.0
 11
-19.7874955776
 21
-3.500113048
 31
0.0
 11
-19.7875060014
 21
-3.5009052185
 31
0.0
 11
-19.7875170094
 21
-3.5016977473
 31
0.0
 11
-19.7875227324
 21
-3.5020941462
 31
0.0
 11
-19.7875286015
 21
-3.5024906346
 31
0.0
 11
-19.7875315909
 21
-3.5026889124
 31
0.0
 11
-19.7875325954
 21
-3.5027927807
 31
0.0
 11
-19.7875325954
 21
-3.502906093
 31
0.0
 11
-19.7875325954
 21
-3.5031327175
 31
0.0
 11
-19.7875325954
 21
-3.503359342
 31
0.0
 11
-19.7875325954
 21
-3.5035859666
 31
0.0
 11
-19.7875325954
 21
-3.5038125911
 31
0.0
 11
-19.7875325954
 21
-3.5042658402
 31
0.0
 11
-19.7875325954
 21
-3.5051723384
 31
0.0
 11
-19.7875325954
 21
-3.5060788366
 31
0.0
 11
-19.7875325954
 21
-3.5069853347
 31
0.0
 11
-19.7875325954
 21
-3.5078918329
 31
0.0
 11
-19.7875325954
 21
-3.5087983311
 31
0.0
 11
-19.7875325954
 21
-3.5106113274
 31
0.0
 11
-19.7875325954
 21
-3.5124243237
 31
0.0
 11
-19.7875325954
 21
-3.5160503164
 31
0.0
 11
-19.7875325954
 21
-3.5196763091
 31
0.0
 11
-19.7875325954
 21
-3.5233023018
 31
0.0
 11
-19.7875325954
 21
-3.5269282945
 31
0.0
 11
-19.7875325954
 21
-3.5305542871
 31
0.0
 11
-19.7875325954
 21
-3.5341802798
 31
0.0
 11
-19.7875325954
 21
-3.5414322652
 31
0.0
 11
-19.7875325954
 21
-3.5486842505
 31
0.0
 11
-19.7875325954
 21
-3.5559362359
 31
0.0
 11
-19.7875325954
 21
-3.5704402066
 31
0.0
 11
-19.7875325954
 21
-3.5849441773
 31
0.0
 11
-19.7875325954
 21
-3.5994481481
 31
0.0
 11
-19.7875325954
 21
-3.6139521188
 31
0.0
 11
-19.7875325954
 21
-3.6284560895
 31
0.0
 11
-19.7875325954
 21
-3.6574636264
 31
0.0
  0
SPLINE
  5
357
100
AcDbEntity
  8
0
100
AcDbSpline
 62
7
  6
CONTINUOUS
 70
0
 71
3
 72
71
 73
67
 74
65
 42
0.0000001
 43
0.0000001
 44
0.0000000001
 12
0.0
 22
0.6763829956
 32
0.0
 13
0.3430382889
 23
0.5829396959
 33
0.0
 40
0.0
 40
0.0
 40
0.0
 40
0.0
 40
0.0237286751
 40
0.0474579484
 40
0.0711872217
 40
0.0830518583
 40
0.0949164949
 40
0.1067811316
 40
0.1186457682
 40
0.1305104049
 40
0.1423750415
 40
0.1483073598
 40
0.1542396781
 40
0.1601719965
 40
0.1661043148
 40
0.1690704739
 40
0.1720366331
 40
0.1750027923
 40
0.1779689514
 40
0.1809351106
 40
0.1824181902
 40
0.1839012697
 40
0.1853843493
 40
0.1861258891
 40
0.1868674289
 40
0.1876089687
 40
0.1883505085
 40
0.1887212784
 40
0.1890920483
 40
0.1892774332
 40
0.1894628182
 40
0.1896482031
 40
0.1898335881
 40
0.1900542567
 40
0.1902749102
 40
0.190716172
 40
0.1915985147
 40
0.1924806163
 40
0.193362477
 40
0.1951254762
 40
0.1968875135
 40
0.2004087068
 40
0.2039260671
 40
0.2074396041
 40
0.2109493277
 40
0.2179573716
 40
0.2249502803
 40
0.2319281334
 40
0.2458389743
 40
0.2596905618
 40
0.2734835521
 40
0.2872186097
 40
0.3008964075
 40
0.3280827843
 40
0.3550484054
 40
0.3817989621
 40
0.4083402841
 40
0.4608176928
 40
0.512531525
 40
0.563533419
 40
0.6138772043
 40
0.6636188465
 40
0.7128163666
 40
0.8098050496
 40
0.9053585042
 40
1.0
 40
1.0
 40
1.0
 40
1.0
 10
-19.5160718685
 20
-3.6574636264
 30
0.0
 10
-19.5160718685
 20
-3.6521137356
 30
0.0
 10
-19.5160718685
 20
-3.6414138191
 30
0.0
 10
-19.5160718685
 20
-3.6253638771
 30
0.0
 10
-19.5160718685
 20
-3.6119888129
 30
0.0
 10
-19.5160718685
 20
-3.6012887616
 30
0.0
 10
-19.5160718685
 20
-3.5932637232
 30
0.0
 10
-19.5160718685
 20
-3.5852386847
 30
0.0
 10
-19.5160718685
 20
-3.5772136462
 30
0.0
 10
-19.5160718685
 20
-3.5691886078
 30
0.0
 10
-19.5160718685
 20
-3.5625010757
 30
0.0
 10
-19.5160718685
 20
-3.5571510501
 30
0.0
 10
-19.5160718685
 20
-3.5531385308
 30
0.0
 10
-19.5160718685
 20
-3.5491260116
 30
0.0
 10
-19.5160718685
 20
-3.5457822456
 30
0.0
 10
-19.5160718685
 20
-3.5431072327
 30
0.0
 10
-19.5160718685
 20
-3.5411009731
 30
0.0
 10
-19.5160718685
 20
-3.5390947135
 30
0.0
 10
-19.5160718685
 20
-3.5370884539
 30
0.0
 10
-19.5160718685
 20
-3.5354165709
 30
0.0
 10
-19.5160718685
 20
-3.5340790644
 30
0.0
 10
-19.5160718685
 20
-3.5330759346
 30
0.0
 10
-19.5160718685
 20
-3.5322399931
 30
0.0
 10
-19.5160718685
 20
-3.5315712399
 30
0.0
 10
-19.5160718685
 20
-3.531069675
 30
0.0
 10
-19.5160718685
 20
-3.5305681101
 30
0.0
 10
-19.5160718685
 20
-3.5301501394
 30
0.0
 10
-19.5160718685
 20
-3.5298157628
 30
0.0
 10
-19.5160718685
 20
-3.5296067774
 30
0.0
 10
-19.5160718685
 20
-3.5294395891
 30
0.0
 10
-19.5160718686
 20
-3.5293141979
 30
0.0
 10
-19.5160718682
 20
-3.5291888066
 30
0.0
 10
-19.5160718696
 20
-3.5290554603
 30
0.0
 10
-19.5160718637
 20
-3.5289141623
 30
0.0
 10
-19.5160718323
 20
-3.5287151741
 30
0.0
 10
-19.5160717245
 20
-3.5283670041
 30
0.0
 10
-19.5160714156
 20
-3.5278697035
 30
0.0
 10
-19.5160707982
 20
-3.5272730652
 30
0.0
 10
-19.5160696455
 20
-3.5264778738
 30
0.0
 10
-19.5160675875
 20
-3.5254842923
 30
0.0
 10
-19.516062978
 20
-3.5238956489
 30
0.0
 10
-19.5160547478
 20
-3.5219114749
 30
0.0
 10
-19.5160409164
 20
-3.5195324292
 30
0.0
 10
-19.5160231326
 20
-3.5171559956
 30
0.0
 10
-19.5159941667
 20
-3.5139926151
 30
0.0
 10
-19.5159480941
 20
-3.5100449014
 30
0.0
 10
-19.5158769672
 20
-3.5053155245
 30
0.0
 10
-19.5157611759
 20
-3.4990303672
 30
0.0
 10
-19.5155770374
 20
-3.4911998873
 30
0.0
 10
-19.5152925929
 20
-3.4818350074
 30
0.0
 10
-19.5149449075
 20
-3.4725119201
 30
0.0
 10
-19.5145339809
 20
-3.4632306215
 30
0.0
 10
-19.5139030629
 20
-3.4509367207
 30
0.0
 10
-19.5129572422
 20
-3.4356724534
 30
0.0
 10
-19.5115669107
 20
-3.4174845287
 30
0.0
 10
-19.5099235712
 20
-3.3994636678
 30
0.0
 10
-19.5074047647
 20
-3.3757495027
 30
0.0
 10
-19.5036298759
 20
-3.3465120734
 30
0.0
 10
-19.4980698933
 20
-3.3119608787
 30
0.0
 10
-19.4914969671
 20
-3.2780774358
 30
0.0
 10
-19.4839110786
 20
-3.2448621846
 30
0.0
 10
-19.4753118065
 20
-3.2123145754
 30
0.0
 10
-19.4625575922
 20
-3.1700144811
 30
0.0
 10
-19.4440785587
 20
-3.1186849617
 30
0.0
 10
-19.4177279942
 20
-3.0594803198
 30
0.0
 10
-19.3973805778
 20
-3.0216784528
 30
0.0
 10
-19.3865586922
 20
-3.0032883579
 30
0.0
 11
-19.5160718685
 21
-3.6574636264
 31
0.0
 11
-19.5160718685
 21
-3.641413954
 31
0.0
 11
-19.5160718685
 21
-3.6253638771
 31
0.0
 11
-19.5160718685
 21
-3.6093138001
 31
0.0
 11
-19.5160718685
 21
-3.6012887616
 31
0.0
 11
-19.5160718685
 21
-3.5932637232
 31
0.0
 11
-19.5160718685
 21
-3.5852386847
 31
0.0
 11
-19.5160718685
 21
-3.5772136462
 31
0.0
 11
-19.5160718685
 21
-3.5691886078
 31
0.0
 11
-19.5160718685
 21
-3.5611635693
 31
0.0
 11
-19.5160718685
 21
-3.5571510501
 31
0.0
 11
-19.5160718685
 21
-3.5531385308
 31
0.0
 11
-19.5160718685
 21
-3.5491260116
 31
0.0
 11
-19.5160718685
 21
-3.5451134923
 31
0.0
 11
-19.5160718685
 21
-3.5431072327
 31
0.0
 11
-19.5160718685
 21
-3.5411009731
 31
0.0
 11
-19.5160718685
 21
-3.5390947135
 31
0.0
 11
-19.5160718685
 21
-3.5370884539
 31
0.0
 11
-19.5160718685
 21
-3.5350821943
 31
0.0
 11
-19.5160718685
 21
-3.5340790644
 31
0.0
 11
-19.5160718685
 21
-3.5330759346
 31
0.0
 11
-19.5160718685
 21
-3.5320728048
 31
0.0
 11
-19.5160718685
 21
-3.5315712399
 31
0.0
 11
-19.5160718685
 21
-3.531069675
 31
0.0
 11
-19.5160718685
 21
-3.5305681101
 31
0.0
 11
-19.5160718685
 21
-3.5300665452
 31
0.0
 11
-19.5160718685
 21
-3.5298157628
 31
0.0
 11
-19.5160718685
 21
-3.5295649803
 31
0.0
 11
-19.5160718685
 21
-3.5294395891
 31
0.0
 11
-19.5160718685
 21
-3.5293141979
 31
0.0
 11
-19.5160718685
 21
-3.5291888066
 31
0.0
 11
-19.5160718685
 21
-3.5290634154
 31
0.0
 11
-19.5160718608
 21
-3.5289141589
 31
0.0
 11
-19.5160718376
 21
-3.5287649126
 31
0.0
 11
-19.516071745
 21
-3.5284664506
 31
0.0
 11
-19.5160713744
 21
-3.5278696492
 31
0.0
 11
-19.5160707569
 21
-3.5272730109
 31
0.0
 11
-19.5160698923
 21
-3.526676536
 31
0.0
 11
-19.516067422
 21
-3.5254840759
 31
0.0
 11
-19.5160639636
 21
-3.5242922689
 31
0.0
 11
-19.5160540826
 21
-3.5219106141
 31
0.0
 11
-19.5160402491
 21
-3.5195315716
 31
0.0
 11
-19.5160224631
 21
-3.5171551414
 31
0.0
 11
-19.5160007248
 21
-3.5147813236
 31
0.0
 11
-19.5159453908
 21
-3.5100415249
 31
0.0
 11
-19.5158742471
 21
-3.5053121755
 31
0.0
 11
-19.5157872936
 21
-3.5005932753
 31
0.0
 11
-19.5155659576
 21
-3.4911868228
 31
0.0
 11
-19.5152813828
 21
-3.4818221673
 31
0.0
 11
-19.5149335691
 21
-3.472499309
 31
0.0
 11
-19.5145225165
 21
-3.4632182478
 31
0.0
 11
-19.5140482251
 21
-3.4539789837
 31
0.0
 11
-19.5129099257
 21
-3.4356258467
 31
0.0
 11
-19.5115186709
 21
-3.4174398981
 31
0.0
 11
-19.5098744606
 21
-3.3994211379
 31
0.0
 11
-19.507977295
 21
-3.3815695661
 31
0.0
 11
-19.5034240974
 21
-3.3463679876
 31
0.0
 11
-19.4978590781
 21
-3.3118351627
 31
0.0
 11
-19.4912822371
 21
-3.2779710913
 31
0.0
 11
-19.4836935744
 21
-3.2447757734
 31
0.0
 11
-19.4750930901
 21
-3.2122492091
 31
0.0
 11
-19.465480784
 21
-3.1803913983
 31
0.0
 11
-19.4432207068
 21
-3.1186820373
 31
0.0
 11
-19.4169133429
 21
-3.0596476905
 31
0.0
 11
-19.3865586922
 21
-3.0032883579
 31
0.0
  0
SPLINE
  5
358
100
AcDbEntity
  8
0
100
AcDbSpline
 62
7
  6
CONTINUOUS
 70
0
 71
3
 72
9
 73
5
 74
3
 42
0.0000001
 43
0.0000001
 44
0.0000000001
 12
0.2879762187
 22
0.457580325
 32
0.0
 13
0.5406179149
 23
0.0065058795
 33
0.0
 40
0.0
 40
0.0
 40
0.0
 40
0.0
 40
0.7095580048
 40
1.0
 40
1.0
 40
1.0
 40
1.0
 10
-19.3865586922
 20
-3.0032883579
 30
0.0
 10
-19.3184467485
 20
-2.8950617637
 30
0.0
 10
-19.1410790589
 20
-2.7901935475
 30
0.0
 10
-18.9619440322
 20
-2.7777446181
 30
0.0
 10
-18.9096046502
 20
-2.7771147579
 30
0.0
 11
-19.3865586922
 21
-3.0032883579
 31
0.0
 11
-19.0658516148
 21
-2.7927721743
 31
0.0
 11
-18.9096046502
 21
-2.7771147579
 31
0.0
  0
SPLINE
  5
359
100
AcDbEntity
  8
0
100
AcDbSpline
 62
7
  6
CONTINUOUS
 70
0
 71
3
 72
8
 73
4
 74
2
 42
0.0000001
 43
0.0000001
 44
0.0000000001
 12
0.457123649
 22
-0.0069927601
 32
0.0
 13
0.3062959697
 23
-0.339401986
 33
0.0
 40
0.0
 40
0.0
 40
0.0
 40
0.0
 40
1.0
 40
1.0
 40
1.0
 40
1.0
 10
-18.9096046502
 20
-2.7771147579
 30
0.0
 10
-18.7572301006
 20
-2.7794456779
 30
0.0
 10
-18.5902455808
 20
-2.8411369488
 30
0.0
 10
-18.4881469242
 20
-2.9542709442
 30
0.0
 11
-18.9096046502
 21
-2.7771147579
 31
0.0
 11
-18.4881469242
 21
-2.9542709442
 31
0.0
  0
SPLINE
  5
35A
100
AcDbEntity
  8
0
100
AcDbSpline
 62
7
  6
CONTINUOUS
 70
0
 71
3
 72
74
 73
70
 74
68
 42
0.0000001
 43
0.0000001
 44
0.0000000001
 12
0.8997472671
 22
-0.9351009918
 32
0.0
 13
-1.2405076706
 23
-0.3809194816
 33
0.0
 40
0.0
 40
0.0
 40
0.0
 40
0.0
 40
0.0456903019
 40
0.0905248892
 40
0.1349494977
 40
0.157158282
 40
0.1794364946
 40
0.2018409971
 40
0.2244276972
 40
0.247251164
 40
0.2703642894
 40
0.2820462444
 40
0.2938195297
 40
0.3056901686
 40
0.3176640373
 40
0.3236915658
 40
0.3297470358
 40
0.3358311389
 40
0.3419445572
 40
0.3480879628
 40
0.3511711285
 40
0.3542620387
 40
0.3573607745
 40
0.3589131035
 40
0.3604674191
 40
0.3620237314
 40
0.3635820502
 40
0.3643619653
 40
0.3651423857
 40
0.3655327858
 40
0.3659233128
 40
0.3663139667
 40
0.3665093413
 40
0.3666070405
 40
0.3667047477
 40
0.3668940951
 40
0.3670834081
 40
0.367461931
 40
0.3682185644
 40
0.3689746484
 40
0.3697301835
 40
0.3712396089
 40
0.3727468449
 40
0.3757547636
 40
0.3787539735
 40
0.3817445077
 40
0.3847263996
 40
0.3906643828
 40
0.3965682047
 40
0.402438143
 40
0.4140774318
 40
0.4255846395
 40
0.4369621671
 40
0.4482124988
 40
0.4593382039
 40
0.4812257522
 40
0.5026477992
 40
0.5236281655
 40
0.5441922067
 40
0.5643668483
 40
0.5841806032
 40
0.622839295
 40
0.6604347812
 40
0.6972486953
 40
0.7335808511
 40
0.7697430468
 40
0.8427414886
 40
0.9187692804
 40
1.0
 40
1.0
 40
1.0
 40
1.0
 10
-18.4881469242
 20
-2.9542709442
 30
0.0
 10
-18.4744436828
 20
-2.9685126264
 30
0.0
 10
-18.4485825165
 20
-2.9980101761
 30
0.0
 10
-18.4145518102
 20
-3.0455499613
 30
0.0
 10
-18.3905556103
 20
-3.0874772012
 30
0.0
 10
-18.3740562361
 20
-3.1222326186
 30
0.0
 10
-18.3629843824
 20
-3.1489789701
 30
0.0
 10
-18.3532180102
 20
-3.1764016524
 30
0.0
 10
-18.3447563347
 20
-3.2045009779
 30
0.0
 10
-18.3375994622
 20
-3.2332758287
 30
0.0
 10
-18.3327397722
 20
-3.2577309647
 30
0.0
 10
-18.3294993952
 20
-3.2776135793
 30
0.0
 10
-18.3273857477
 20
-3.2927485848
 30
0.0
 10
-18.3255975937
 20
-3.3080524618
 30
0.0
 10
-18.3243814084
 20
-3.320917622
 30
0.0
 10
-18.323570196
 20
-3.3312921105
 30
0.0
 10
-18.3230417458
 20
-3.3391328078
 30
0.0
 10
-18.3225946303
 20
-3.3470157644
 30
0.0
 10
-18.3222288477
 20
-3.3549409879
 30
0.0
 10
-18.3219921002
 20
-3.3615723304
 30
0.0
 10
-18.3218432211
 20
-3.3668982963
 30
0.0
 10
-18.3217517547
 20
-3.3709083016
 30
0.0
 10
-18.3216925136
 20
-3.3742566476
 30
0.0
 10
-18.3216552675
 20
-3.3769405795
 30
0.0
 10
-18.3216323979
 20
-3.3789574522
 30
0.0
 10
-18.3216146112
 20
-3.3809769668
 30
0.0
 10
-18.3216040281
 20
-3.3826615532
 30
0.0
 10
-18.3215981006
 20
-3.3840105399
 30
0.0
 10
-18.3215954541
 20
-3.3848543426
 30
0.0
 10
-18.3215939719
 20
-3.3855297146
 30
0.0
 10
-18.3215931778
 20
-3.3860364909
 30
0.0
 10
-18.3215927806
 20
-3.3864589078
 30
0.0
 10
-18.3215926419
 20
-3.3867546597
 30
0.0
 10
-18.3215926018
 20
-3.3869236952
 30
0.0
 10
-18.32159259
 20
-3.3870901236
 30
0.0
 10
-18.3215926124
 20
-3.3872961803
 30
0.0
 10
-18.3215927119
 20
-3.3876237061
 30
0.0
 10
-18.3215930621
 20
-3.388196616
 30
0.0
 10
-18.3215940614
 20
-3.3890146869
 30
0.0
 10
-18.3215960612
 20
-3.3899958361
 30
0.0
 10
-18.3215997928
 20
-3.3913026083
 30
0.0
 10
-18.3216064551
 20
-3.3929342899
 30
0.0
 10
-18.3216213744
 20
-3.3955402294
 30
0.0
 10
-18.3216480062
 20
-3.3987905264
 30
0.0
 10
-18.3216927876
 20
-3.4026822881
 30
0.0
 10
-18.3217503689
 20
-3.4065626228
 30
0.0
 10
-18.3218440754
 20
-3.4117137232
 30
0.0
 10
-18.3219930701
 20
-3.4181241556
 30
0.0
 10
-18.3222233233
 20
-3.4257821159
 30
0.0
 10
-18.3225975231
 20
-3.4359027713
 30
0.0
 10
-18.3231921841
 20
-3.4484404242
 30
0.0
 10
-18.3241126519
 20
-3.4633461892
 30
0.0
 10
-18.3252379422
 20
-3.4780691808
 30
0.0
 10
-18.3265680624
 20
-3.492609437
 30
0.0
 10
-18.3286034833
 20
-3.5116481149
 30
0.0
 10
-18.3316519887
 20
-3.5350007376
 30
0.0
 10
-18.3361503585
 20
-3.5624487542
 30
0.0
 10
-18.3414688655
 20
-3.589166737
 30
0.0
 10
-18.3476075923
 20
-3.6151543225
 30
0.0
 10
-18.3545670191
 20
-3.6404121101
 30
0.0
 10
-18.364854641
 20
-3.6728456935
 30
0.0
 10
-18.3797514619
 20
-3.7116923508
 30
0.0
 10
-18.4010831626
 20
-3.7557709383
 30
0.0
 10
-18.4257263582
 20
-3.7969239741
 30
0.0
 10
-18.4536863115
 20
-3.8351411251
 30
0.0
 10
-18.4954783292
 20
-3.8823003205
 30
0.0
 10
-18.5569385411
 20
-3.9344592572
 30
0.0
 10
-18.6435832592
 20
-3.9844961519
 30
0.0
 10
-18.7074329648
 20
-4.0087922603
 30
0.0
 10
-18.7410220751
 20
-4.0191063815
 30
0.0
 11
-18.4881469242
 21
-2.9542709442
 31
0.0
 11
-18.4491107534
 21
-2.9988984738
 31
0.0
 11
-18.4152794054
 21
-3.0462316928
 31
0.0
 11
-18.3866528801
 21
-3.0962706012
 31
0.0
 11
-18.374291426
 21
-3.1223046889
 31
0.0
 11
-18.3632311776
 21
-3.149015199
 31
0.0
 11
-18.3534721349
 21
-3.1764021314
 31
0.0
 11
-18.3450142979
 21
-3.2044654861
 31
0.0
 11
-18.3378576666
 21
-3.2332052632
 31
0.0
 11
-18.332002241
 21
-3.2626214627
 31
0.0
 11
-18.3295624803
 21
-3.2775832208
 31
0.0
 11
-18.327448021
 21
-3.2927140845
 31
0.0
 11
-18.3256588632
 21
-3.3080140537
 31
0.0
 11
-18.3241950068
 21
-3.3234831286
 31
0.0
 11
-18.3235850666
 21
-3.3312810806
 31
0.0
 11
-18.3230564518
 21
-3.339121309
 31
0.0
 11
-18.3226091624
 21
-3.3470038139
 31
0.0
 11
-18.3222431983
 21
-3.3549285951
 31
0.0
 11
-18.3219585595
 21
-3.3628956527
 31
0.0
 11
-18.3218467372
 21
-3.3668950351
 31
0.0
 11
-18.3217552461
 21
-3.3709049867
 31
0.0
 11
-18.3216840864
 21
-3.3749255073
 31
0.0
 11
-18.3216561309
 21
-3.3769397311
 31
0.0
 11
-18.3216332581
 21
-3.3789565971
 31
0.0
 11
-18.3216154682
 21
-3.3809761054
 31
0.0
 11
-18.3216027611
 21
-3.3829982559
 31
0.0
 11
-18.3215983136
 21
-3.3840103221
 31
0.0
 11
-18.3215951368
 21
-3.3850230488
 31
0.0
 11
-18.321594025
 21
-3.3855296598
 31
0.0
 11
-18.3215932308
 21
-3.3860364361
 31
0.0
 11
-18.3215927543
 21
-3.3865433774
 31
0.0
 11
-18.3215926351
 21
-3.38679691
 31
0.0
 11
-18.3215926053
 21
-3.3869236918
 31
0.0
 11
-18.3215925954
 21
-3.3870504839
 31
0.0
 11
-18.3215926204
 21
-3.3872961952
 31
0.0
 11
-18.3215926954
 21
-3.3875418619
 31
0.0
 11
-18.3215929954
 21
-3.3880330612
 31
0.0
 11
-18.3215941954
 21
-3.3890149243
 31
0.0
 11
-18.3215961954
 21
-3.3899960732
 31
0.0
 11
-18.3215989954
 21
-3.3909765078
 31
0.0
 11
-18.3216069954
 21
-3.3929352343
 31
0.0
 11
-18.3216181953
 21
-3.3948911039
 31
0.0
 11
-18.3216501952
 21
-3.398794272
 31
0.0
 11
-18.3216949951
 21
-3.4026860122
 31
0.0
 11
-18.3217525949
 21
-3.4065663246
 31
0.0
 11
-18.3218229946
 21
-3.4104352091
 31
0.0
 11
-18.322002194
 21
-3.4181386943
 31
0.0
 11
-18.3222325932
 21
-3.425796468
 31
0.0
 11
-18.3225141922
 21
-3.4334085301
 31
0.0
 11
-18.3232309897
 21
-3.4484955197
 31
0.0
 11
-18.3241525865
 21
-3.4633996629
 31
0.0
 11
-18.3252789826
 21
-3.4781209599
 31
0.0
 11
-18.3266101779
 21
-3.4926594106
 31
0.0
 11
-18.3281461726
 21
-3.5070150151
 31
0.0
 11
-18.3318325597
 21
-3.5351776852
 31
0.0
 11
-18.336338144
 21
-3.5626089702
 31
0.0
 11
-18.3416629255
 21
-3.5893088701
 31
0.0
 11
-18.3478069041
 21
-3.6152773849
 31
0.0
 11
-18.3547700798
 21
-3.6405145147
 31
0.0
 11
-18.3625524527
 21
-3.6650202593
 31
0.0
 11
-18.3805747899
 21
-3.7118375934
 31
0.0
 11
-18.4018739157
 21
-3.7557293871
 31
0.0
 11
-18.4264498301
 21
-3.7966956405
 31
0.0
 11
-18.4543025331
 21
-3.8347363536
 31
0.0
 11
-18.4854320246
 21
-3.8698515263
 31
0.0
 11
-18.5575213735
 21
-3.9313052507
 31
0.0
 11
-18.6427178767
 21
-3.9810568137
 31
0.0
 11
-18.7410220751
 21
-4.0191063815
 31
0.0
  0
SPLINE
  5
35B
100
AcDbEntity
  8
0
100
AcDbSpline
 62
7
  6
CONTINUOUS
 70
0
 71
3
 72
67
 73
63
 74
61
 42
0.0000001
 43
0.0000001
 44
0.0000000001
 12
1.4545601092
 22
0.7911234355
 32
0.0
 13
-0.9211204057
 23
1.3735294
 33
0.0
 40
0.0
 40
0.0
 40
0.0
 40
0.0
 40
0.0462669833
 40
0.1017838501
 40
0.1555489017
 40
0.2080482026
 40
0.259803492
 40
0.3113591017
 40
0.3632656462
 40
0.4160627615
 40
0.4702634899
 40
0.4980471267
 40
0.5263557686
 40
0.5407241462
 40
0.5552430512
 40
0.5699185186
 40
0.5847563923
 40
0.592238092
 40
0.5997624974
 40
0.6073302859
 40
0.6111306677
 40
0.614942144
 40
0.6187647962
 40
0.6225987051
 40
0.6264439507
 40
0.6283708508
 40
0.6303006148
 40
0.6312665739
 40
0.6322332527
 40
0.6327168623
 40
0.6332006523
 40
0.6334233715
 40
0.633569127
 40
0.6338605941
 40
0.6344433528
 40
0.6350258777
 40
0.6356081692
 40
0.6361902274
 40
0.6373536452
 40
0.6385161334
 40
0.6408383291
 40
0.6454716571
 40
0.6500903573
 40
0.6546945721
 40
0.6592844453
 40
0.6684217117
 40
0.6775033696
 40
0.6865306179
 40
0.6955046771
 40
0.7044267896
 40
0.7132982197
 40
0.7308938688
 40
0.7483024915
 40
0.7655349797
 40
0.7826025623
 40
0.8162865506
 40
0.8494534966
 40
0.8822041476
 40
0.9146431301
 40
0.9468781054
 40
0.979018785
 40
1.0
 40
1.0
 40
1.0
 40
1.0
 10
-18.5387860163
 20
-4.2794287636
 30
0.0
 10
-18.5163533136
 20
-4.2672277987
 30
0.0
 10
-18.4678679386
 20
-4.23881969
 30
0.0
 10
-18.3973928366
 20
-4.1898301638
 30
0.0
 10
-18.329078822
 20
-4.1322975479
 30
0.0
 10
-18.2681673378
 20
-4.0698387674
 30
0.0
 10
-18.2146766032
 20
-4.0024555288
 30
0.0
 10
-18.1686319947
 20
-3.9301662111
 30
0.0
 10
-18.1300473553
 20
-3.8529946805
 30
0.0
 10
-18.0989266858
 20
-3.7709733524
 30
0.0
 10
-18.0793660628
 20
-3.6991830722
 30
0.0
 10
-18.0673750348
 20
-3.6395697637
 30
0.0
 10
-18.0613861295
 20
-3.6011832398
 30
0.0
 10
-18.0575064163
 20
-3.5698954298
 30
0.0
 10
-18.0550429442
 20
-3.5460090244
 30
0.0
 10
-18.0530404689
 20
-3.5218201408
 30
0.0
 10
-18.051759458
 20
-3.5014677435
 30
0.0
 10
-18.0509632337
 20
-3.4850371508
 30
0.0
 10
-18.0504795948
 20
-3.47260388
 30
0.0
 10
-18.0501730139
 20
-3.4621948513
 30
0.0
 10
-18.049985105
 20
-3.4538300834
 30
0.0
 10
-18.0498727693
 20
-3.4475284853
 30
0.0
 10
-18.0497892343
 20
-3.4412079597
 30
0.0
 10
-18.0497344991
 20
-3.4348685056
 30
0.0
 10
-18.0497129045
 20
-3.4295737787
 30
0.0
 10
-18.0497099931
 20
-3.4253285693
 30
0.0
 10
-18.0497141795
 20
-3.4226703934
 30
0.0
 10
-18.0497211042
 20
-3.420541491
 30
0.0
 10
-18.0497269793
 20
-3.4192096949
 30
0.0
 10
-18.0497324719
 20
-3.4181436659
 30
0.0
 10
-18.04973646
 20
-3.4174876986
 30
0.0
 10
-18.0497390278
 20
-3.417017945
 30
0.0
 10
-18.049743195
 20
-3.4166542155
 30
0.0
 10
-18.0497490953
 20
-3.4160920444
 30
0.0
 10
-18.0497582896
 20
-3.4152891518
 30
0.0
 10
-18.0497698227
 20
-3.4143259768
 30
0.0
 10
-18.0497820488
 20
-3.4133631964
 30
0.0
 10
-18.0497992018
 20
-3.4120802713
 30
0.0
 10
-18.0498222771
 20
-3.4104775991
 30
0.0
 10
-18.0498626635
 20
-3.4079159343
 30
0.0
 10
-18.0499423949
 20
-3.4034420814
 30
0.0
 10
-18.0500823612
 20
-3.3970639974
 30
0.0
 10
-18.0502921842
 20
-3.3894294343
 30
0.0
 10
-18.0505437369
 20
-3.381820093
 30
0.0
 10
-18.050934176
 20
-3.3717235564
 30
0.0
 10
-18.0515260868
 20
-3.3591652468
 30
0.0
 10
-18.0524044111
 20
-3.3441728412
 30
0.0
 10
-18.0534496689
 20
-3.329281309
 30
0.0
 10
-18.0546618599
 20
-3.3144906712
 30
0.0
 10
-18.0560409897
 20
-3.2998008936
 30
0.0
 10
-18.0580966875
 20
-3.2804030089
 30
0.0
 10
-18.0610807733
 20
-3.2564013618
 30
0.0
 10
-18.0653396626
 20
-3.2279228411
 30
0.0
 10
-18.0702667311
 20
-3.1998473427
 30
0.0
 10
-18.0776937005
 20
-3.1631152579
 30
0.0
 10
-18.0886377644
 20
-3.1181490643
 30
0.0
 10
-18.1045081376
 20
-3.0655652252
 30
0.0
 10
-18.1230591986
 20
-3.0145939451
 30
0.0
 10
-18.1442911432
 20
-2.9652379072
 30
0.0
 10
-18.1682042303
 20
-2.9174984462
 30
0.0
 10
-18.1917185157
 20
-2.8767178158
 30
0.0
 10
-18.2075652528
 20
-2.8520836737
 30
0.0
 10
-18.2140073279
 20
-2.8424775685
 30
0.0
 11
-18.5387860163
 21
-4.2794287636
 31
0.0
 11
-18.4727638402
 21
-4.2406475163
 31
0.0
 11
-18.3974681358
 21
-4.1881312986
 31
0.0
 11
-18.3295452388
 21
-4.1307691128
 31
0.0
 11
-18.2689951492
 21
-4.0685609588
 31
0.0
 11
-18.215817867
 21
-4.0015068367
 31
0.0
 11
-18.1700133922
 21
-3.9296067464
 31
0.0
 11
-18.1315817247
 21
-3.8528606881
 31
0.0
 11
-18.1005228647
 21
-3.7712686615
 31
0.0
 11
-18.0768368121
 21
-3.6848306669
 31
0.0
 11
-18.0677585885
 21
-3.6397944315
 31
0.0
 11
-18.0605235668
 21
-3.5935467041
 31
0.0
 11
-18.0575972567
 21
-3.5699685309
 31
0.0
 11
-18.055131747
 21
-3.5460874847
 31
0.0
 11
-18.0531270377
 21
-3.5219035654
 31
0.0
 11
-18.051583129
 21
-3.4974167732
 31
0.0
 11
-18.0509839747
 21
-3.4850597997
 31
0.0
 11
-18.0505000207
 21
-3.4726271079
 31
0.0
 11
-18.0501312667
 21
-3.4601186979
 31
0.0
 11
-18.0499900897
 21
-3.4538360986
 31
0.0
 11
-18.0498777128
 21
-3.4475345697
 31
0.0
 11
-18.0497941359
 21
-3.4412141112
 31
0.0
 11
-18.0497393591
 21
-3.4348747232
 31
0.0
 11
-18.0497133822
 21
-3.4285164056
 31
0.0
 11
-18.0497111938
 21
-3.4253301482
 31
0.0
 11
-18.0497162054
 21
-3.4221391584
 31
0.0
 11
-18.0497214112
 21
-3.4205418889
 31
0.0
 11
-18.049728417
 21
-3.4189434362
 31
0.0
 11
-18.0497325949
 21
-3.4181437663
 31
0.0
 11
-18.0497372228
 21
-3.4173438005
 31
0.0
 11
-18.0497397041
 21
-3.4169755278
 31
0.0
 11
-18.0497422491
 21
-3.4167345248
 31
0.0
 11
-18.0497474614
 21
-3.4162525927
 31
0.0
 11
-18.049758375
 21
-3.415289024
 31
0.0
 11
-18.0497699406
 21
-3.4143258495
 31
0.0
 11
-18.0497821582
 21
-3.4133630692
 31
0.0
 11
-18.0497950278
 21
-3.4124006831
 31
0.0
 11
-18.049822723
 21
-3.4104770934
 31
0.0
 11
-18.0498530263
 21
-3.4085550803
 31
0.0
 11
-18.049921457
 21
-3.4047157842
 31
0.0
 11
-18.0500896149
 21
-3.3970561122
 31
0.0
 11
-18.0502995015
 21
-3.3894216672
 31
0.0
 11
-18.0505511167
 21
-3.3818124492
 31
0.0
 11
-18.0508444606
 21
-3.3742284581
 31
0.0
 11
-18.0515563343
 21
-3.3591361567
 31
0.0
 11
-18.0524351226
 21
-3.3441447631
 31
0.0
 11
-18.0534808256
 21
-3.3292542773
 31
0.0
 11
-18.0546934432
 21
-3.3144646992
 31
0.0
 11
-18.0560729754
 21
-3.299776029
 31
0.0
 11
-18.0576194223
 21
-3.2851882665
 31
0.0
 11
-18.0612130599
 21
-3.256315465
 31
0.0
 11
-18.065474356
 21
-3.2278462946
 31
0.0
 11
-18.0704033107
 21
-3.1997807554
 31
0.0
 11
-18.0759999239
 21
-3.1721188473
 31
0.0
 11
-18.0891961258
 21
-3.1180059246
 31
0.0
 11
-18.1050629617
 21
-3.0655075265
 31
0.0
 11
-18.1236004318
 21
-3.014623653
 31
0.0
 11
-18.1448085359
 21
-2.9653543041
 31
0.0
 11
-18.1686872741
 21
-2.9176994798
 31
0.0
 11
-18.1952366464
 21
-2.8716591801
 31
0.0
 11
-18.2140073279
 21
-2.8424775685
 31
0.0
  0
SPLINE
  5
35C
100
AcDbEntity
  8
0
100
AcDbSpline
 62
7
  6
CONTINUOUS
 70
0
 71
3
 72
58
 73
54
 74
52
 42
0.0000001
 43
0.0000001
 44
0.0000000001
 12
-0.5268010788
 22
0.7855398331
 32
0.0
 13
-0.9369522628
 23
-0.1284235712
 33
0.0
 40
0.0
 40
0.0
 40
0.0
 40
0.0
 40
0.0195411508
 40
0.0477289154
 40
0.0759961431
 40
0.0901673641
 40
0.1043673461
 40
0.1114750496
 40
0.1185610088
 40
0.1326863261
 40
0.1607663298
 40
0.1886520942
 40
0.2439866202
 40
0.2990165245
 40
0.3540640982
 40
0.4094513236
 40
0.4654943294
 40
0.5224983347
 40
0.5807534559
 40
0.6104399433
 40
0.6405394645
 40
0.6710828366
 40
0.7020995541
 40
0.7336177826
 40
0.7656643651
 40
0.7982648399
 40
0.8147807814
 40
0.823093916
 40
0.8314442739
 40
0.8398322076
 40
0.8440403796
 40
0.8482580755
 40
0.852485338
 40
0.8546025707
 40
0.856722211
 40
0.8587173819
 40
0.8594615407
 40
0.8602054423
 40
0.8616924752
 40
0.8631784833
 40
0.8661474347
 40
0.8691123174
 40
0.8750299534
 40
0.880931561
 40
0.8868173059
 40
0.8926873554
 40
0.8985418781
 40
0.9102049807
 40
0.9218080314
 40
0.9333524267
 40
0.9562705827
 40
0.9789714002
 40
1.0
 40
1.0
 40
1.0
 40
1.0
 10
-18.2140073279
 20
-2.8424775685
 30
0.0
 10
-18.217438761
 20
-2.8373607844
 30
0.0
 10
-18.2259469262
 20
-2.8249487039
 30
0.0
 10
-18.239979154
 20
-2.8055287016
 30
0.0
 10
-18.2535400526
 20
-2.7878671107
 30
0.0
 10
-18.264718012
 20
-2.7739442712
 30
0.0
 10
-18.2718448279
 20
-2.7653244581
 30
0.0
 10
-18.277622245
 20
-2.7584879492
 30
0.0
 10
-18.2832618454
 20
-2.7515674827
 30
0.0
 10
-18.2933254251
 20
-2.7397271294
 30
0.0
 10
-18.3080495641
 20
-2.7232465098
 30
0.0
 10
-18.3324058434
 20
-2.6979830713
 30
0.0
 10
-18.3643937087
 20
-2.6683181835
 30
0.0
 10
-18.4052658718
 20
-2.6358585704
 30
0.0
 10
-18.4485236394
 20
-2.6066219719
 30
0.0
 10
-18.494162146
 20
-2.5806132654
 30
0.0
 10
-18.5421765869
 20
-2.5578325512
 30
0.0
 10
-18.5925606463
 20
-2.5382796394
 30
0.0
 10
-18.6362459885
 20
-2.524758421
 30
0.0
 10
-18.672300513
 20
-2.5155349051
 30
0.0
 10
-18.7001063587
 20
-2.5093753656
 30
0.0
 10
-18.7285041284
 20
-2.5040182969
 30
0.0
 10
-18.757494235
 20
-2.4994634174
 30
0.0
 10
-18.7870765539
 20
-2.4957106744
 30
0.0
 10
-18.8172509808
 20
-2.4927599669
 30
0.0
 10
-18.8427774198
 20
-2.4909771776
 30
0.0
 10
-18.8608591578
 20
-2.4900775242
 30
0.0
 10
-18.8713101526
 20
-2.4896607221
 30
0.0
 10
-18.8792028397
 20
-2.4893975248
 30
0.0
 10
-18.8858035087
 20
-2.4892201246
 30
0.0
 10
-18.8911024795
 20
-2.4891031973
 30
0.0
 10
-18.8950904518
 20
-2.4890278428
 30
0.0
 10
-18.8984195912
 20
-2.4889757782
 30
0.0
 10
-18.9010875249
 20
-2.4889397813
 30
0.0
 10
-18.9030519298
 20
-2.488917976
 30
0.0
 10
-18.9045835602
 20
-2.4888986888
 30
0.0
 10
-18.9056815941
 20
-2.4889010292
 30
0.0
 10
-18.9066194376
 20
-2.4889018337
 30
0.0
 10
-18.9077911363
 20
-2.4889046021
 30
0.0
 10
-18.909664233
 20
-2.4889111283
 30
0.0
 10
-18.9120031752
 20
-2.4889239808
 30
0.0
 10
-18.9157390225
 20
-2.4889542391
 30
0.0
 10
-18.9203991427
 20
-2.4890103733
 30
0.0
 10
-18.925979515
 20
-2.4891070926
 30
0.0
 10
-18.9315442979
 20
-2.4892331362
 30
0.0
 10
-18.9370934926
 20
-2.489388501
 30
0.0
 10
-18.9444619703
 20
-2.4896344276
 30
0.0
 10
-18.9536340559
 20
-2.4900148665
 30
0.0
 10
-18.964592649
 20
-2.4905892896
 30
0.0
 10
-18.9790850825
 20
-2.4915093018
 30
0.0
 10
-18.9970487534
 20
-2.4929506432
 30
0.0
 10
-19.0179491021
 20
-2.4951064347
 30
0.0
 10
-19.0316273816
 20
-2.4968276578
 30
0.0
 10
-19.0381949797
 20
-2.4977278471
 30
0.0
 11
-18.2140073279
 21
-2.8424775685
 31
0.0
 11
-18.2244566527
 21
-2.8272334051
 31
0.0
 11
-18.2400681437
 21
-2.8056259643
 31
0.0
 11
-18.2563472931
 21
-2.7844221546
 31
0.0
 11
-18.2647372398
 21
-2.7739716115
 31
0.0
 11
-18.2732941011
 21
-2.7636219761
 31
0.0
 11
-18.2776112573
 21
-2.7584699019
 31
0.0
 11
-18.2818718712
 21
-2.7532975857
 31
0.0
 11
-18.2905042797
 21
-2.7431032292
 31
0.0
 11
-18.3082138196
 21
-2.7233156188
 31
0.0
 11
-18.3265163234
 21
-2.7043294789
 31
0.0
 11
-18.3649002224
 21
-2.6687616101
 31
0.0
 11
-18.4056559768
 21
-2.6363996228
 31
0.0
 11
-18.4487835866
 21
-2.6072435171
 31
0.0
 11
-18.4942830517
 21
-2.5812932928
 31
0.0
 11
-18.5421543721
 21
-2.5585489501
 31
0.0
 11
-18.592397548
 21
-2.5390104889
 31
0.0
 11
-18.6450125791
 21
-2.5226779092
 31
0.0
 11
-18.6722095405
 21
-2.5157138249
 31
0.0
 11
-18.6999994657
 21
-2.509551211
 31
0.0
 11
-18.7283823547
 21
-2.5041900675
 31
0.0
 11
-18.7573582076
 21
-2.4996303944
 31
0.0
 11
-18.7869270243
 21
-2.4958721916
 31
0.0
 11
-18.8170888048
 21
-2.4929154592
 31
0.0
 11
-18.8478435492
 21
-2.4907601972
 31
0.0
 11
-18.8634432829
 21
-2.4899831176
 31
0.0
 11
-18.87129874
 21
-2.4896697156
 31
0.0
 11
-18.8791912574
 21
-2.4894064056
 31
0.0
 11
-18.8871208351
 21
-2.4891931874
 31
0.0
 11
-18.8910995215
 21
-2.4891053628
 31
0.0
 11
-18.895087473
 21
-2.4890300611
 31
0.0
 11
-18.8990846895
 21
-2.4889672825
 31
0.0
 11
-18.9010867722
 21
-2.4889405893
 31
0.0
 11
-18.9030911711
 21
-2.4889170268
 31
0.0
 11
-18.9049779256
 21
-2.4889004676
 31
0.0
 11
-18.9056816742
 21
-2.4889008799
 31
0.0
 11
-18.9063851792
 21
-2.4889017504
 31
0.0
 11
-18.9077914583
 21
-2.4889048658
 31
0.0
 11
-18.909196763
 21
-2.4889098137
 31
0.0
 11
-18.9120044492
 21
-2.4889252073
 31
0.0
 11
-18.9148082378
 21
-2.4889479312
 31
0.0
 11
-18.9204041221
 21
-2.48901537
 31
0.0
 11
-18.9259844158
 21
-2.4891121298
 31
0.0
 11
-18.931549119
 21
-2.4892382109
 31
0.0
 11
-18.9370982316
 21
-2.4893936131
 31
0.0
 11
-18.9426317537
 21
-2.4895783366
 31
0.0
 11
-18.9536520263
 21
-2.4900357469
 31
0.0
 11
-18.9646099367
 21
-2.490610442
 31
0.0
 11
-18.9755054849
 21
-2.4913024218
 31
0.0
 11
-18.9971094948
 21
-2.4930382355
 31
0.0
 11
-19.0184640561
 21
-2.495243188
 31
0.0
 11
-19.0381949797
 21
-2.4977278471
 31
0.0
  0
SPLINE
  5
35D
100
AcDbEntity
  8
0
100
AcDbSpline
 62
7
  6
CONTINUOUS
 70
0
 71
3
 72
13
 73
9
 74
7
 42
0.0000001
 43
0.0000001
 44
0.0000000001
 12
-0.2370487632
 22
-0.0324911417
 32
0.0
 13
-0.2171530394
 23
-0.1006990763
 33
0.0
 40
0.0
 40
0.0
 40
0.0
 40
0.0
 40
0.0057976925
 40
0.0939490489
 40
0.2681489376
 40
0.4399073722
 40
0.7777232738
 40
1.0
 40
1.0
 40
1.0
 40
1.0
 10
-19.0381949797
 20
-2.4977278471
 30
0.0
 10
-19.0386530916
 20
-2.4977906383
 30
0.0
 10
-19.0460758042
 20
-2.4988138575
 30
0.0
 10
-19.0672246799
 20
-2.5019990536
 30
0.0
 10
-19.1012692582
 20
-2.5083805804
 30
0.0
 10
-19.1543251243
 20
-2.5210664467
 30
0.0
 10
-19.2100080517
 20
-2.538932074
 30
0.0
 10
-19.2512239109
 20
-2.5562959923
 30
0.0
 10
-19.2673132665
 20
-2.5637570127
 30
0.0
 11
-19.0381949797
 21
-2.4977278471
 31
0.0
 11
-19.0395691687
 21
-2.4979172794
 31
0.0
 11
-19.0604248327
 21
-2.5010605096
 31
0.0
 11
-19.1013878145
 21
-2.5087543865
 31
0.0
 11
-19.1413530017
 21
-2.5183248187
 31
0.0
 11
-19.218289992
 21
-2.5430953492
 31
0.0
 11
-19.2673132665
 21
-2.5637570127
 31
0.0
  0
SPLINE
  5
35E
100
AcDbEntity
  8
0
100
AcDbSpline
 62
7
  6
CONTINUOUS
 70
0
 71
3
 72
26
 73
22
 74
20
 42
0.0000001
 43
0.0000001
 44
0.0000000001
 12
-0.3981294674
 22
0.5395463268
 32
0.0
 13
-0.6702832875
 23
0.011354621
 33
0.0
 40
0.0
 40
0.0
 40
0.0
 40
0.0
 40
0.066777833
 40
0.149776877
 40
0.1917480243
 40
0.234100961
 40
0.2554377852
 40
0.2768895157
 40
0.2984624361
 40
0.3092963726
 40
0.3201629142
 40
0.3308237683
 40
0.341460124
 40
0.362663427
 40
0.4048221734
 40
0.4467131939
 40
0.4884094519
 40
0.571495573
 40
0.6546965922
 40
0.8236669791
 40
1.0
 40
1.0
 40
1.0
 40
1.0
 10
-19.7733481433
 20
-2.8668555036
 30
0.0
 10
-19.7822102176
 20
-2.854845592
 30
0.0
 10
-19.8029108422
 20
-2.8285174582
 30
0.0
 10
-19.8316280068
 20
-2.7966605458
 30
0.0
 10
-19.8581284438
 20
-2.7702749718
 30
0.0
 10
-19.8754442624
 20
-2.7542155845
 30
0.0
 10
-19.8897267041
 20
-2.7416451224
 30
0.0
 10
-19.9006849975
 20
-2.7323292623
 30
0.0
 10
-19.9099875761
 20
-2.7246923374
 30
0.0
 10
-19.9175356489
 20
-2.7186478734
 30
0.0
 10
-19.9232251341
 20
-2.7141842054
 30
0.0
 10
-19.9288892568
 20
-2.7097597161
 30
0.0
 10
-19.936444418
 20
-2.7040047546
 30
0.0
 10
-19.9497445802
 20
-2.6941780024
 30
0.0
 10
-19.9690889747
 20
-2.6807871633
 30
0.0
 10
-19.9928428741
 20
-2.6657608675
 30
0.0
 10
-20.0251341506
 20
-2.6471838447
 30
0.0
 10
-20.0668648835
 20
-2.6265829056
 30
0.0
 10
-20.1366886994
 20
-2.5992204236
 30
0.0
 10
-20.2300129368
 20
-2.5758043316
 30
0.0
 10
-20.3072208264
 20
-2.5691474291
 30
0.0
 10
-20.3466185187
 20
-2.5684800309
 30
0.0
 11
-19.7733481433
 21
-2.8668555036
 31
0.0
 11
-19.8010129484
 21
-2.8316559576
 31
0.0
 11
-19.8382473744
 21
-2.7903098316
 31
0.0
 11
-19.858182921
 21
-2.7704543047
 31
0.0
 11
-19.8789973566
 21
-2.7511438019
 31
0.0
 11
-19.8897341578
 21
-2.7416929345
 31
0.0
 11
-19.9006906813
 21
-2.7323783231
 31
0.0
 11
-19.911866927
 21
-2.7231999677
 31
0.0
 11
-19.9175374457
 21
-2.718661886
 31
0.0
 11
-19.923262895
 21
-2.7141578684
 31
0.0
 11
-19.9289024494
 21
-2.709767831
 31
0.0
 11
-19.9345729681
 21
-2.7054448991
 31
0.0
 11
-19.9460068986
 21
-2.6970003516
 31
0.0
 11
-19.969246332
 21
-2.6809165217
 31
0.0
 11
-19.9929811951
 21
-2.6659063787
 31
0.0
 11
-20.0172114879
 21
-2.6519699227
 31
0.0
 11
-20.0671583626
 21
-2.6273180715
 31
0.0
 11
-20.1190869562
 21
-2.6069609679
 31
0.0
 11
-20.2288892998
 21
-2.579131004
 31
0.0
 11
-20.3466185187
 21
-2.5684800309
 31
0.0
  0
SPLINE
  5
35F
100
AcDbEntity
  8
0
100
AcDbSpline
 62
7
  6
CONTINUOUS
 70
0
 71
3
 72
81
 73
77
 74
75
 42
0.0000001
 43
0.0000001
 44
0.0000000001
 12
-2.1555665213
 22
-0.023116994
 32
0.0
 13
1.7659202514
 23
-1.2429176434
 33
0.0
 40
0.0
 40
0.0
 40
0.0
 40
0.0
 40
0.0621203056
 40
0.1197905056
 40
0.1743309077
 40
0.2009326905
 40
0.2273497022
 40
0.2537964396
 40
0.2671012183
 40
0.2804931941
 40
0.2872303519
 40
0.2939989186
 40
0.2973960051
 40
0.3007909087
 40
0.3075607422
 40
0.3210516079
 40
0.3344908561
 40
0.3612728281
 40
0.3880360158
 40
0.4149061766
 40
0.4420075788
 40
0.4694613508
 40
0.4833587649
 40
0.4973875
 40
0.511561213
 40
0.5258931466
 40
0.5403961099
 40
0.5477157964
 40
0.5550828367
 40
0.5624987048
 40
0.5699648453
 40
0.5737172331
 40
0.5774827174
 40
0.5812614707
 40
0.5850536637
 40
0.5869548555
 40
0.5888594703
 40
0.5907675291
 40
0.5917228567
 40
0.592679053
 40
0.5936361207
 40
0.5941149821
 40
0.5945940623
 40
0.5948336845
 40
0.5950733616
 40
0.5951932207
 40
0.5953553152
 40
0.5955384945
 40
0.59572164
 40
0.5964538831
 40
0.5971855855
 40
0.5979167483
 40
0.5986473727
 40
0.6001070106
 40
0.6030198757
 40
0.6059242604
 40
0.6088202424
 40
0.6117079002
 40
0.6145873128
 40
0.620321702
 40
0.6260240758
 40
0.6373352483
 40
0.6485263816
 40
0.659603039
 40
0.6705709581
 40
0.6814360486
 40
0.6922043897
 40
0.7134743406
 40
0.7344341945
 40
0.755138124
 40
0.7959900303
 40
0.8365111031
 40
0.8771799771
 40
0.9184701477
 40
0.9608342828
 40
1.0
 40
1.0
 40
1.0
 40
1.0
 10
-20.3466185187
 20
-2.5684800309
 30
0.0
 10
-20.3912533357
 20
-2.5689587092
 30
0.0
 10
-20.4774160184
 20
-2.574830643
 30
0.0
 10
-20.6003930133
 20
-2.6009396338
 30
0.0
 10
-20.6938313127
 20
-2.6373465749
 30
0.0
 10
-20.7615383197
 20
-2.6748047451
 30
0.0
 10
-20.8088844556
 20
-2.706865083
 30
0.0
 10
-20.8457320354
 20
-2.7370234476
 30
0.0
 10
-20.8736055196
 20
-2.763140189
 30
0.0
 10
-20.8903977605
 20
-2.7803333998
 30
0.0
 10
-20.9034506414
 20
-2.7945894838
 30
0.0
 10
-20.9114457193
 20
-2.8037336261
 30
0.0
 10
-20.9177701868
 20
-2.8111470405
 30
0.0
 10
-20.9239107331
 20
-2.8187148996
 30
0.0
 10
-20.9344092593
 20
-2.8320839999
 30
0.0
 10
-20.9489083771
 20
-2.8514854285
 30
0.0
 10
-20.9709416056
 20
-2.8831811681
 30
0.0
 10
-20.9963846704
 20
-2.92408768
 30
0.0
 10
-21.0234781912
 20
-2.9751759637
 30
0.0
 10
-21.0471045006
 20
-3.028209754
 30
0.0
 10
-21.0672610114
 20
-3.083183026
 30
0.0
 10
-21.0811118167
 20
-3.1304195699
 30
0.0
 10
-21.0904666559
 20
-3.1691038364
 30
0.0
 10
-21.0966485034
 20
-3.1987221961
 30
0.0
 10
-21.101966534
 20
-3.228824414
 30
0.0
 10
-21.1064209839
 20
-3.2594106956
 30
0.0
 10
-21.1094041049
 20
-3.2852222495
 30
0.0
 10
-21.1113624519
 20
-3.3061058477
 30
0.0
 10
-21.1126200771
 20
-3.3219386583
 30
0.0
 10
-21.1136619634
 20
-3.3378925272
 30
0.0
 10
-21.114349244
 20
-3.3512653373
 30
0.0
 10
-21.1147917401
 20
-3.362023272
 30
0.0
 10
-21.1150702578
 20
-3.3701359007
 30
0.0
 10
-21.1152948494
 20
-3.3782788082
 30
0.0
 10
-21.1154369437
 20
-3.3850837126
 30
0.0
 10
-21.1155237278
 20
-3.3905426761
 30
0.0
 10
-21.115575393
 20
-3.3946481338
 30
0.0
 10
-21.1156071987
 20
-3.3980741044
 30
0.0
 10
-21.1156259118
 20
-3.4008186544
 30
0.0
 10
-21.1156365827
 20
-3.4028798929
 30
0.0
 10
-21.1156426652
 20
-3.404598777
 30
0.0
 10
-21.1156458472
 20
-3.4059748291
 30
0.0
 10
-21.1156471342
 20
-3.4068353539
 30
0.0
 10
-21.1156477426
 20
-3.4075240102
 30
0.0
 10
-21.1156479473
 20
-3.4079545435
 30
0.0
 10
-21.115648011
 20
-3.4083293682
 30
0.0
 10
-21.1156479875
 20
-3.4086635958
 30
0.0
 10
-21.1156478468
 20
-3.4090432986
 30
0.0
 10
-21.1156473039
 20
-3.4098326892
 30
0.0
 10
-21.1156455503
 20
-3.4110162278
 30
0.0
 10
-21.1156412062
 20
-3.4125935469
 30
0.0
 10
-21.1156348569
 20
-3.4141696961
 30
0.0
 10
-21.1156237214
 20
-3.4162688965
 30
0.0
 10
-21.1155972429
 20
-3.4199357254
 30
0.0
 10
-21.115539393
 20
-3.4251643362
 30
0.0
 10
-21.115437837
 20
-3.4314245502
 30
0.0
 10
-21.1153041955
 20
-3.4376660447
 30
0.0
 10
-21.1151384686
 20
-3.4438888216
 30
0.0
 10
-21.1148750924
 20
-3.4521491822
 30
0.0
 10
-21.1144659851
 20
-3.4624283471
 30
0.0
 10
-21.1136416189
 20
-3.4787536269
 30
0.0
 10
-21.1122927194
 20
-3.4989772966
 30
0.0
 10
-21.1101560153
 20
-3.5230130793
 30
0.0
 10
-21.1075057079
 20
-3.5467496276
 30
0.0
 10
-21.1043417916
 20
-3.5701868083
 30
0.0
 10
-21.1006641932
 20
-3.5933248137
 30
0.0
 10
-21.0950991611
 20
-3.6236496141
 30
0.0
 10
-21.086867084
 20
-3.6608486737
 30
0.0
 10
-21.0748876938
 20
-3.7044760061
 30
0.0
 10
-21.056257515
 20
-3.7607884906
 30
0.0
 10
-21.0277461565
 20
-3.8285346289
 30
0.0
 10
-20.9850665977
 20
-3.9053396213
 30
0.0
 10
-20.9340830789
 20
-3.9772888651
 30
0.0
 10
-20.8748139572
 20
-4.0443596749
 30
0.0
 10
-20.8098160485
 20
-4.1042344991
 30
0.0
 10
-20.7631674725
 20
-4.13990289
 30
0.0
 10
-20.7401129614
 20
-4.156129477
 30
0.0
 11
-20.3466185187
 21
-2.5684800309
 31
0.0
 11
-20.4801705477
 21
-2.5782942926
 31
0.0
 11
-20.6016436033
 21
-2.6047430285
 31
0.0
 11
-20.7110376854
 21
-2.6478262384
 31
0.0
 11
-20.7612051114
 21
-2.6756057711
 31
0.0
 11
-20.8083527941
 21
-2.7075439224
 31
0.0
 11
-20.8524807333
 21
-2.7436406922
 31
0.0
 11
-20.8734122992
 21
-2.763248559
 31
0.0
 11
-20.8935889293
 21
-2.7838960805
 31
0.0
 11
-20.9033941433
 21
-2.7946097117
 31
0.0
 11
-20.9130106234
 21
-2.8055832566
 31
0.0
 11
-20.9177480883
 21
-2.8111674966
 31
0.0
 11
-20.9223724505
 21
-2.8168396822
 31
0.0
 11
-20.9313957309
 21
-2.8283094461
 31
0.0
 11
-20.9487952037
 21
-2.8516124216
 31
0.0
 11
-20.9653318928
 21
-2.8753999941
 31
0.0
 11
-20.9958169197
 21
-2.9244289301
 31
0.0
 11
-21.0228508114
 21
-2.9753962541
 31
0.0
 11
-21.046433568
 21
-3.0283019661
 31
0.0
 11
-21.0665651895
 21
-3.0831460661
 31
0.0
 11
-21.0832456759
 21
-3.1399285541
 31
0.0
 11
-21.0902917434
 21
-3.1690466936
 31
0.0
 11
-21.0964750271
 21
-3.1986494301
 31
0.0
 11
-21.1017955271
 21
-3.2287367636
 31
0.0
 11
-21.1062532433
 21
-3.2593086941
 31
0.0
 11
-21.1098481757
 21
-3.2903652216
 31
0.0
 11
-21.111322098
 21
-3.3060752093
 31
0.0
 11
-21.1125803243
 21
-3.3219063461
 31
0.0
 11
-21.1136228547
 21
-3.3378586323
 31
0.0
 11
-21.1144496892
 21
-3.3539320676
 31
0.0
 11
-21.1147822204
 21
-3.3620142163
 31
0.0
 11
-21.1150608277
 21
-3.3701266523
 31
0.0
 11
-21.115285511
 21
-3.3782693756
 31
0.0
 11
-21.1154562703
 21
-3.3864423862
 31
0.0
 11
-21.1155214284
 21
-3.3905402492
 31
0.0
 11
-21.1155731056
 21
-3.3946456841
 31
0.0
 11
-21.1156113017
 21
-3.3987586908
 31
0.0
 11
-21.1156253444
 21
-3.4008180335
 31
0.0
 11
-21.1156360169
 21
-3.4028792693
 31
0.0
 11
-21.1156433191
 21
-3.404942398
 31
0.0
 11
-21.1156457064
 21
-3.4059746722
 31
0.0
 11
-21.1156472511
 21
-3.4070074196
 31
0.0
 11
-21.1156477074
 21
-3.4075239708
 31
0.0
 11
-21.1156479532
 21
-3.4080406403
 31
0.0
 11
-21.1156479971
 21
-3.4082990194
 31
0.0
 11
-21.1156479721
 21
-3.408648445
 31
0.0
 11
-21.1156478259
 21
-3.4090433229
 31
0.0
 11
-21.1156475544
 21
-3.4094381277
 31
0.0
 11
-21.1156452149
 21
-3.4110166156
 31
0.0
 11
-21.1156408701
 21
-3.4125939335
 31
0.0
 11
-21.1156345199
 21
-3.4141700814
 31
0.0
 11
-21.1156261645
 21
-3.4157450592
 31
0.0
 11
-21.1156034378
 21
-3.4188915047
 31
0.0
 11
-21.1155339208
 21
-3.4251703553
 31
0.0
 11
-21.115432319
 21
-3.4314304853
 31
0.0
 11
-21.1152986325
 21
-3.4376718947
 31
0.0
 11
-21.1151328612
 21
-3.4438945835
 31
0.0
 11
-21.1149350051
 21
-3.4500985516
 31
0.0
 11
-21.1144430386
 21
-3.4624503261
 31
0.0
 11
-21.113822733
 21
-3.4747272181
 31
0.0
 11
-21.1121971046
 21
-3.4990563548
 31
0.0
 11
-21.1100581199
 21
-3.5230859617
 31
0.0
 11
-21.1074057788
 21
-3.5468160388
 31
0.0
 11
-21.1042400814
 21
-3.5702465862
 31
0.0
 11
-21.1005610276
 21
-3.5933776037
 31
0.0
 11
-21.0963686175
 21
-3.6162090915
 31
0.0
 11
-21.0864437283
 21
-3.6609734776
 31
0.0
 11
-21.0744654138
 21
-3.7045397446
 31
0.0
 11
-21.0604336738
 21
-3.7469078925
 31
0.0
 11
-21.0262099179
 21
-3.8280498308
 31
0.0
 11
-20.9837724607
 21
-3.9043992924
 31
0.0
 11
-20.9331213019
 21
-3.9759562775
 31
0.0
 11
-20.8742564418
 21
-4.042720786
 31
0.0
 11
-20.8071778803
 21
-4.1046928179
 31
0.0
 11
-20.7401129614
 21
-4.156129477
 31
0.0
  0
SPLINE
  5
360
100
AcDbEntity
  8
0
100
AcDbSpline
 62
7
  6
CONTINUOUS
 70
0
 71
3
 72
34
 73
30
 74
28
 42
0.0000001
 43
0.0000001
 44
0.0000000001
 12
-0.58973006
 22
1.0270320856
 32
0.0
 13
0.8220623
 23
0.8525197901
 33
0.0
 40
0.0
 40
0.0
 40
0.0
 40
0.0
 40
0.133748375
 40
0.199501579
 40
0.2648410462
 40
0.3300401741
 40
0.3626774145
 40
0.3953826765
 40
0.4281900499
 40
0.4611333075
 40
0.4776668513
 40
0.4942468332
 40
0.5108773421
 40
0.5192128749
 40
0.5233859233
 40
0.5275625713
 40
0.5317091598
 40
0.535843852
 40
0.5440778855
 40
0.5604070231
 40
0.5765561766
 40
0.5925315381
 40
0.6239849986
 40
0.654822611
 40
0.7148657006
 40
0.7731675938
 40
0.8302663747
 40
0.8867345312
 40
1.0
 40
1.0
 40
1.0
 40
1.0
 10
-19.5275902838
 20
-6.3937976603
 30
0.0
 10
-19.5538820962
 20
-6.3480097028
 30
0.0
 10
-19.5891119066
 20
-6.2772744222
 30
0.0
 10
-19.6265685334
 20
-6.1796079558
 30
0.0
 10
-19.6496183185
 20
-6.1055661936
 30
0.0
 10
-19.6647367066
 20
-6.0428987632
 30
0.0
 10
-19.674369176
 20
-5.992265717
 30
0.0
 10
-19.6803758099
 20
-5.9539805199
 30
0.0
 10
-19.6851609634
 20
-5.9154024889
 30
0.0
 10
-19.6881276625
 20
-5.8830490409
 30
0.0
 10
-19.6898913366
 20
-5.8570307972
 30
0.0
 10
-19.6909128575
 20
-5.837419104
 30
0.0
 10
-19.6915026348
 20
-5.8210281571
 30
0.0
 10
-19.6917955701
 20
-5.8095283498
 30
0.0
 10
-19.6919040965
 20
-5.8029427242
 30
0.0
 10
-19.692025183
 20
-5.7980100699
 30
0.0
 10
-19.6919033463
 20
-5.7930925877
 30
0.0
 10
-19.6917874331
 20
-5.786574177
 30
0.0
 10
-19.6914715155
 20
-5.7752491705
 30
0.0
 10
-19.6908140194
 20
-5.7591898768
 30
0.0
 10
-19.6896538069
 20
-5.7400957491
 30
0.0
 10
-19.6876385314
 20
-5.7150770369
 30
0.0
 10
-19.6842275214
 20
-5.6843585599
 30
0.0
 10
-19.6768797412
 20
-5.6366160916
 30
0.0
 10
-19.6641322247
 20
-5.5790300205
 30
0.0
 10
-19.6428658801
 20
-5.5130078505
 30
0.0
 10
-19.6157429435
 20
-5.4506816223
 30
0.0
 10
-19.5718027106
 20
-5.3725287676
 30
0.0
 10
-19.5298973098
 20
-5.3194622068
 30
0.0
 10
-19.4988602192
 20
-5.2872751889
 30
0.0
 11
-19.5275902838
 21
-6.3937976603
 31
0.0
 11
-19.5979665685
 21
-6.2518915421
 31
0.0
 11
-19.6258353723
 21
-6.1791774014
 31
0.0
 11
-19.6488245278
 21
-6.1052893615
 31
0.0
 11
-19.6669340353
 21
-6.0302274224
 31
0.0
 11
-19.6741589209
 21
-5.9922562407
 31
0.0
 11
-19.6801638945
 21
-5.9539915841
 31
0.0
 11
-19.6849489561
 21
-5.9154334528
 31
0.0
 11
-19.6885141056
 21
-5.8765818466
 31
0.0
 11
-19.6898392133
 21
-5.8570459905
 31
0.0
 11
-19.6908593431
 21
-5.8374367657
 31
0.0
 11
-19.6915744948
 21
-5.8177541722
 31
0.0
 11
-19.6918177039
 21
-5.8078853621
 31
0.0
 11
-19.6919107168
 21
-5.8029440788
 31
0.0
 11
-19.6919846685
 21
-5.7979982099
 31
0.0
 11
-19.6919089632
 21
-5.7930879713
 31
0.0
 11
-19.6918106898
 21
-5.7881922242
 31
0.0
 11
-19.6915464383
 21
-5.7784442049
 31
0.0
 11
-19.6907471173
 21
-5.759122065
 31
0.0
 11
-19.6895867053
 21
-5.7400317903
 31
0.0
 11
-19.6880652025
 21
-5.7211733809
 31
0.0
 11
-19.6839389241
 21
-5.6841521576
 31
0.0
 11
-19.6783682822
 21
-5.6480583951
 31
0.0
 11
-19.6628939075
 21
-5.5786532526
 31
0.0
 11
-19.6416420785
 21
-5.5129579533
 31
0.0
 11
-19.6146127952
 21
-5.4509724973
 31
0.0
 11
-19.5818060575
 21
-5.3926968846
 31
0.0
 11
-19.4988602192
 21
-5.2872751889
 31
0.0
  0
SPLINE
  5
361
100
AcDbEntity
  8
0
100
AcDbSpline
 62
7
  6
CONTINUOUS
 70
0
 71
3
 72
8
 73
4
 74
2
 42
0.0000001
 43
0.0000001
 44
0.0000000001
 12
0.3913573684
 22
0.3851242012
 32
0.0
 13
0.5490318814
 23
0.0067255769
 33
0.0
 40
0.0
 40
0.0
 40
0.0
 40
0.0
 40
1.0
 40
1.0
 40
1.0
 40
1.0
 10
-19.4988602192
 20
-5.2872751889
 30
0.0
 10
-19.368407763
 20
-5.1589004552
 30
0.0
 10
-19.1682028116
 20
-5.0955418168
 30
0.0
 10
-18.9851921845
 20
-5.0932999579
 30
0.0
 11
-19.4988602192
 21
-5.2872751889
 31
0.0
 11
-18.9851921845
 21
-5.0932999579
 31
0.0
  0
SPLINE
  5
362
100
AcDbEntity
  8
0
100
AcDbSpline
 62
7
  6
CONTINUOUS
 70
0
 71
3
 72
34
 73
30
 74
28
 42
0.0000001
 43
0.0000001
 44
0.0000000001
 12
1.0326627101
 22
-0.0146459835
 32
0.0
 13
0.0151472125
 23
-1.0326554796
 33
0.0
 40
0.0
 40
0.0
 40
0.0
 40
0.0
 40
0.1310441229
 40
0.1935637582
 40
0.2547716573
 40
0.315263831
 40
0.3756574841
 40
0.4060211431
 40
0.4365917492
 40
0.4519792744
 40
0.4674464455
 40
0.4830022984
 40
0.4908163995
 40
0.4947329568
 40
0.4986560218
 40
0.5026681227
 40
0.5066721376
 40
0.5146564456
 40
0.5305340744
 40
0.5462986067
 40
0.5619596225
 40
0.5930078581
 40
0.6237614216
 40
0.6543028562
 40
0.6847164325
 40
0.7454802949
 40
0.8067576143
 40
0.8692149114
 40
1.0
 40
1.0
 40
1.0
 40
1.0
 10
-18.9851921845
 20
-5.0932999579
 30
0.0
 10
-18.9400840581
 20
-5.0939397146
 30
0.0
 10
-18.8732825826
 20
-5.1000360863
 30
0.0
 10
-18.7878234418
 20
-5.1202228028
 30
0.0
 10
-18.727704762
 20
-5.1407551389
 30
0.0
 10
-18.6706232351
 20
-5.1669159204
 30
0.0
 10
-18.6256602145
 20
-5.1933674931
 30
0.0
 10
-18.5913537812
 20
-5.2172164611
 30
0.0
 10
-18.5705454528
 20
-5.2332785676
 30
0.0
 10
-18.5542908638
 20
-5.2468067411
 30
0.0
 10
-18.5422621964
 20
-5.2573247511
 30
0.0
 10
-18.5324077713
 20
-5.2663626212
 30
0.0
 10
-18.5256049744
 20
-5.2728405129
 30
0.0
 10
-18.5217256861
 20
-5.2765810398
 30
0.0
 10
-18.518832974
 20
-5.2794588222
 30
0.0
 10
-18.5158283932
 20
-5.2822639288
 30
0.0
 10
-18.5118623917
 20
-5.2860864804
 30
0.0
 10
-18.5049974497
 20
-5.2927873172
 30
0.0
 10
-18.4954173453
 20
-5.3025010926
 30
0.0
 10
-18.48426469
 20
-5.3143692418
 30
0.0
 10
-18.4699304766
 20
-5.3304053741
 30
0.0
 10
-18.4529103636
 20
-5.3509507375
 30
0.0
 10
-18.4339071578
 20
-5.3764524525
 30
0.0
 10
-18.4163829336
 20
-5.4027318769
 30
0.0
 10
-18.3950004802
 20
-5.4387868685
 30
0.0
 10
-18.3718682399
 20
-5.4860165449
 30
0.0
 10
-18.3500928452
 20
-5.5458088
 30
0.0
 10
-18.3287006304
 20
-5.630899774
 30
0.0
 10
-18.3222529386
 20
-5.6976142012
 30
0.0
 10
-18.3215925954
 20
-5.7426328474
 30
0.0
 11
-18.9851921845
 21
-5.0932999579
 31
0.0
 11
-18.8504925798
 21
-5.1064296068
 31
0.0
 11
-18.7876706671
 21
-5.1213446434
 31
0.0
 11
-18.7278673475
 21
-5.141826488
 31
0.0
 11
-18.671082621
 21
-5.1678751407
 31
0.0
 11
-18.6173164876
 21
-5.1994906014
 31
0.0
 11
-18.5915653933
 21
-5.2173858847
 31
0.0
 11
-18.5665689472
 21
-5.2366728701
 31
0.0
 11
-18.5543537173
 21
-5.2468382511
 31
0.0
 11
-18.5423271495
 21
-5.2573515575
 31
0.0
 11
-18.5304892437
 21
-5.2682127895
 31
0.0
 11
-18.5246410391
 21
-5.2737738775
 31
0.0
 11
-18.5217346239
 21
-5.2765870395
 31
0.0
 11
-18.51884
 21
-5.2794219469
 31
0.0
 11
-18.5158339662
 21
-5.2822737674
 31
0.0
 11
-18.5128510039
 21
-5.285137667
 31
0.0
 11
-18.5069542937
 21
-5.2909017029
 31
0.0
 11
-18.4954377309
 21
-5.3025747224
 31
0.0
 11
-18.4842903117
 21
-5.3144410054
 31
0.0
 11
-18.473512036
 21
-5.3265005519
 31
0.0
 11
-18.4530629153
 21
-5.3511994356
 31
0.0
 11
-18.4340903687
 21
-5.3766713734
 31
0.0
 11
-18.4165943963
 21
-5.4029163653
 31
0.0
 11
-18.4005749981
 21
-5.4299344113
 31
0.0
 11
-18.3729659242
 21
-5.4862896656
 31
0.0
 11
-18.351263147
 21
-5.5457371364
 31
0.0
 11
-18.3354666664
 21
-5.6082768236
 31
0.0
 11
-18.3215925954
 21
-5.7426328474
 31
0.0
  0
SPLINE
  5
363
100
AcDbEntity
  8
0
100
AcDbSpline
 62
7
  6
CONTINUOUS
 70
0
 71
3
 72
9
 73
5
 74
3
 42
0.0000001
 43
0.0000001
 44
0.0000000001
 12
-0.0149374991
 22
-0.7028924484
 32
0.0
 13
-0.637266865
 23
-0.2969374578
 33
0.0
 40
0.0
 40
0.0
 40
0.0
 40
0.0
 40
0.7263317952
 40
1.0
 40
1.0
 40
1.0
 40
1.0
 10
-18.3215925954
 20
-5.7426328474
 30
0.0
 10
-18.3252091223
 20
-5.9128105586
 30
0.0
 10
-18.4394204415
 20
-6.1619439392
 30
0.0
 10
-18.6455855459
 20
-6.2777726866
 30
0.0
 10
-18.7037187722
 20
-6.3048601336
 30
0.0
 11
-18.3215925954
 21
-5.7426328474
 31
0.0
 11
-18.539630691
 21
-6.2043916405
 31
0.0
 11
-18.7037187722
 21
-6.3048601336
 31
0.0
  0
SPLINE
  5
364
100
AcDbEntity
  8
0
100
AcDbSpline
 62
7
  6
CONTINUOUS
 70
0
 71
3
 72
20
 73
16
 74
14
 42
0.0000001
 43
0.0000001
 44
0.0000000001
 12
0.688991946
 22
0.4283523196
 32
0.0
 13
0.0839150149
 23
0.805496613
 33
0.0
 40
0.0
 40
0.0
 40
0.0
 40
0.0
 40
0.1133757629
 40
0.2334443496
 40
0.3498226659
 40
0.4638915406
 40
0.5771163285
 40
0.690994973
 40
0.7486644393
 40
0.8070437538
 40
0.8663041383
 40
0.9266093104
 40
0.9572049141
 40
0.9881192231
 40
1.0
 40
1.0
 40
1.0
 40
1.0
 10
-18.4728416739
 20
-6.5377571507
 30
0.0
 10
-18.4468033447
 20
-6.5215688937
 30
0.0
 10
-18.3945508539
 20
-6.4860718959
 30
0.0
 10
-18.3216734014
 20
-6.4258031761
 30
0.0
 10
-18.2554263427
 20
-6.357968768
 30
0.0
 10
-18.1983200979
 20
-6.2846004613
 30
0.0
 10
-18.1503854326
 20
-6.2057231139
 30
0.0
 10
-18.1182316451
 20
-6.135697965
 30
0.0
 10
-18.0971482984
 20
-6.0772935117
 30
0.0
 10
-18.0835390679
 20
-6.0319428786
 30
0.0
 10
-18.0722056315
 20
-5.9852415494
 30
0.0
 10
-18.0646920714
 20
-5.9453893106
 30
0.0
 10
-18.0598048216
 20
-5.9128683896
 30
0.0
 10
-18.0573392575
 20
-5.8932088225
 30
0.0
 10
-18.0560903898
 20
-5.8817237865
 30
0.0
 10
-18.0557580646
 20
-5.8785338114
 30
0.0
 11
-18.4728416739
 21
-6.5377571507
 31
0.0
 11
-18.3969027232
 21
-6.4859758944
 31
0.0
 11
-18.3220830747
 21
-6.4238721435
 31
0.0
 11
-18.2563318572
 21
-6.3563489603
 31
0.0
 11
-18.1996490708
 21
-6.2834063448
 31
0.0
 11
-18.1520347153
 21
-6.205044297
 31
0.0
 11
-18.1134887909
 21
-6.1212628169
 31
0.0
 11
-18.0976164903
 21
-6.0773397898
 31
0.0
 11
-18.0840112975
 21
-6.0320619046
 31
0.0
 11
-18.0726732124
 21
-5.9854291613
 31
0.0
 11
-18.0636022351
 21
-5.9374415599
 31
0.0
 11
-18.0599169118
 21
-5.9129396874
 31
0.0
 11
-18.0567983655
 21
-5.8880991005
 31
0.0
 11
-18.0557580646
 21
-5.8785338114
 31
0.0
  0
SPLINE
  5
365
100
AcDbEntity
  8
0
100
AcDbSpline
 62
7
  6
CONTINUOUS
 70
0
 71
3
 72
38
 73
34
 74
32
 42
0.0000001
 43
0.0000001
 44
0.0000000001
 12
0.0239555106
 22
0.2299479148
 32
0.0
 13
-0.0246784739
 23
0.2298683176
 33
0.0
 40
0.0
 40
0.0
 40
0.0
 40
0.0
 40
0.0678531123
 40
0.1785647012
 40
0.234405197
 40
0.2905778486
 40
0.3470897255
 40
0.3754751549
 40
0.4039479834
 40
0.432509059
 40
0.4468229655
 40
0.4611592482
 40
0.4683358147
 40
0.4755180142
 40
0.4791112305
 40
0.4807538361
 40
0.4820875202
 40
0.4847543748
 40
0.4874205453
 40
0.4927508359
 40
0.4980783968
 40
0.5087253467
 40
0.5193614331
 40
0.5299866932
 40
0.5512048739
 40
0.5935128888
 40
0.6356518898
 40
0.6776243207
 40
0.7194326548
 40
0.7610793943
 40
0.8438976012
 40
0.9261001738
 40
1.0
 40
1.0
 40
1.0
 40
1.0
 10
-18.0557580646
 20
-5.8785338114
 30
0.0
 10
-18.055216246
 20
-5.8733329175
 30
0.0
 10
-18.0538910082
 20
-5.8596355775
 30
0.0
 10
-18.0524923471
 20
-5.8416242212
 30
0.0
 10
-18.0514559304
 20
-5.8244915416
 30
0.0
 10
-18.0508180635
 20
-5.8115199903
 30
0.0
 10
-18.0504052284
 20
-5.8006564031
 30
0.0
 10
-18.0501454979
 20
-5.7919236533
 30
0.0
 10
-18.0499858236
 20
-5.7853429375
 30
0.0
 10
-18.0498823742
 20
-5.7798456477
 30
0.0
 10
-18.0498172598
 20
-5.775437287
 30
0.0
 10
-18.0497839842
 20
-5.7726765867
 30
0.0
 10
-18.0497616498
 20
-5.770465392
 30
0.0
 10
-18.0497498451
 20
-5.7690820124
 30
0.0
 10
-18.0497420215
 20
-5.7681250937
 30
0.0
 10
-18.049739
 20
-5.7676188228
 30
0.0
 10
-18.0497447251
 20
-5.7671839755
 30
0.0
 10
-18.0497492869
 20
-5.7666702467
 30
0.0
 10
-18.0497582949
 20
-5.7658485536
 30
0.0
 10
-18.0497698108
 20
-5.7648218377
 30
0.0
 10
-18.0497900055
 20
-5.7631801621
 30
0.0
 10
-18.0498180054
 20
-5.7611296756
 30
0.0
 10
-18.0498562043
 20
-5.7586710408
 30
0.0
 10
-18.0499131652
 20
-5.7553979601
 30
0.0
 10
-18.0500286486
 20
-5.7496848258
 30
0.0
 10
-18.0502391038
 20
-5.741544648
 30
0.0
 10
-18.0505647609
 20
-5.7318078134
 30
0.0
 10
-18.0509632723
 20
-5.7221122254
 30
0.0
 10
-18.051434639
 20
-5.7124578791
 30
0.0
 10
-18.0521588844
 20
-5.6996648403
 30
0.0
 10
-18.0532453734
 20
-5.6837749245
 30
0.0
 10
-18.0547931795
 20
-5.6654275433
 30
0.0
 10
-18.0559885743
 20
-5.6534569674
 30
0.0
 10
-18.0565964859
 20
-5.6477945579
 30
0.0
 11
-18.0557580646
 21
-5.8785338114
 31
0.0
 11
-18.0542465961
 21
-5.862919799
 31
0.0
 11
-18.0522616037
 21
-5.837401783
 31
0.0
 11
-18.0514816488
 21
-5.824515757
 31
0.0
 11
-18.0508433882
 21
-5.8115450524
 31
0.0
 11
-18.0503468218
 21
-5.7984896692
 31
0.0
 11
-18.0501516739
 21
-5.7919302231
 31
0.0
 11
-18.0499919496
 21
-5.7853496074
 31
0.0
 11
-18.0498676489
 21
-5.778747822
 31
0.0
 11
-18.0498187823
 21
-5.7754389906
 31
0.0
 11
-18.0497787717
 21
-5.7721248669
 31
0.0
 11
-18.0497620873
 21
-5.7704658204
 31
0.0
 11
-18.0497476169
 21
-5.7688054508
 31
0.0
 11
-18.049741212
 21
-5.7679747698
 31
0.0
 11
-18.0497401946
 21
-5.7675950217
 31
0.0
 11
-18.0497432257
 21
-5.7672867059
 31
0.0
 11
-18.0497495014
 21
-5.7666701952
 31
0.0
 11
-18.0497560617
 21
-5.7660538456
 31
0.0
 11
-18.049770036
 21
-5.7648216298
 31
0.0
 11
-18.0497851486
 21
-5.7635900585
 31
0.0
 11
-18.0498187888
 21
-5.7611288497
 31
0.0
 11
-18.0498569821
 21
-5.7586702192
 31
0.0
 11
-18.0498997286
 21
-5.7562141669
 31
0.0
 11
-18.0499988813
 21
-5.751309797
 31
0.0
 11
-18.0502518252
 21
-5.7415319961
 31
0.0
 11
-18.0505776203
 21
-5.7317954471
 31
0.0
 11
-18.0509762667
 21
-5.72210015
 31
0.0
 11
-18.0514477644
 21
-5.7124461047
 31
0.0
 11
-18.0519921133
 21
-5.7028333113
 31
0.0
 11
-18.0532993651
 21
-5.68373148
 31
0.0
 11
-18.0548980219
 21
-5.6647946563
 31
0.0
 11
-18.0565964859
 21
-5.6477945579
 31
0.0
  0
SPLINE
  5
366
100
AcDbEntity
  8
0
100
AcDbSpline
 62
7
  6
CONTINUOUS
 70
0
 71
3
 72
64
 73
60
 74
58
 42
0.0000001
 43
0.0000001
 44
0.0000000001
 12
-0.1838090212
 22
1.7120941356
 32
0.0
 13
-1.6586442819
 23
-0.4637891139
 33
0.0
 40
0.0
 40
0.0
 40
0.0
 40
0.0
 40
0.001034912
 40
0.011914789
 40
0.033454846
 40
0.0547233511
 40
0.0757455986
 40
0.0965477811
 40
0.1171569305
 40
0.1579008014
 40
0.1982140841
 40
0.2383342008
 40
0.2785019987
 40
0.2986826306
 40
0.3189648251
 40
0.3393777438
 40
0.3496426283
 40
0.3599508662
 40
0.3651223831
 40
0.3703060363
 40
0.372902554
 40
0.3754559608
 40
0.3779845711
 40
0.3805105742
 40
0.390589562
 40
0.4006316486
 40
0.4206197654
 40
0.4405075308
 40
0.4801026681
 40
0.51968518
 40
0.5595154577
 40
0.5998490936
 40
0.6409322869
 40
0.6829980778
 40
0.7044711742
 40
0.7262698728
 40
0.7484185716
 40
0.7709405315
 40
0.7823487746
 40
0.7938585326
 40
0.7996523314
 40
0.8054724742
 40
0.8113192739
 40
0.8142527716
 40
0.815722061
 40
0.8171930501
 40
0.8186155864
 40
0.8200366032
 40
0.8228740932
 40
0.8285310079
 40
0.8341640637
 40
0.8397735245
 40
0.8509226653
 40
0.8619806751
 40
0.8838317078
 40
0.9053456929
 40
0.947435832
 40
0.9884216271
 40
1.0
 40
1.0
 40
1.0
 40
1.0
 10
-18.0565964859
 20
-5.6477945579
 30
0.0
 10
-18.0566598946
 20
-5.6472039356
 30
0.0
 10
-18.0573951712
 20
-5.6404047568
 30
0.0
 10
-18.0596301044
 20
-5.6213324036
 30
0.0
 10
-18.0639753903
 20
-5.590818258
 30
0.0
 10
-18.0703743809
 20
-5.5547370229
 30
0.0
 10
-18.0779404893
 20
-5.519315009
 30
0.0
 10
-18.0866741482
 20
-5.4845519671
 30
0.0
 10
-18.0998233099
 20
-5.4392587521
 30
0.0
 10
-18.1191911529
 20
-5.384149748
 30
0.0
 10
-18.1472131747
 20
-5.3204180909
 30
0.0
 10
-18.1799271471
 20
-5.2593366736
 30
0.0
 10
-18.2110543135
 20
-5.2107185798
 30
0.0
 10
-18.2382192336
 20
-5.17323872
 30
0.0
 10
-18.2597936604
 20
-5.1457429027
 30
0.0
 10
-18.278708994
 20
-5.1234229024
 30
0.0
 10
-18.2944130154
 20
-5.105905716
 30
0.0
 10
-18.3044774264
 20
-5.0950849906
 30
0.0
 10
-18.3126756458
 20
-5.0865143327
 30
0.0
 10
-18.3178570743
 20
-5.0811834514
 30
0.0
 10
-18.3220331239
 20
-5.0769715618
 30
0.0
 10
-18.3251143254
 20
-5.0738203218
 30
0.0
 10
-18.3281719537
 20
-5.0707026458
 30
0.0
 10
-18.3342894553
 20
-5.0645359722
 30
0.0
 10
-18.3435541904
 20
-5.0554168206
 30
0.0
 10
-18.3602776176
 20
-5.0395936994
 30
0.0
 10
-18.3816699387
 20
-5.0205207877
 30
0.0
 10
-18.4169118784
 20
-4.9915459057
 30
0.0
 10
-18.4629931854
 20
-4.9581179044
 30
0.0
 10
-18.5214303624
 20
-4.9226065871
 30
0.0
 10
-18.5829289141
 20
-4.8917500074
 30
0.0
 10
-18.6474787103
 20
-4.8655511113
 30
0.0
 10
-18.7150702563
 20
-4.84400799
 30
0.0
 10
-18.7735278542
 20
-4.8300278174
 30
0.0
 10
-18.821702314
 20
-4.8211318287
 30
0.0
 10
-18.8588452733
 20
-4.8155700963
 30
0.0
 10
-18.896748181
 20
-4.8111653085
 30
0.0
 10
-18.9288286613
 20
-4.808470116
 30
0.0
 10
-18.954862513
 20
-4.8068850347
 30
0.0
 10
-18.971325818
 20
-4.8061324141
 30
0.0
 10
-18.984590356
 20
-4.805674113
 30
0.0
 10
-18.9946087321
 20
-4.8054010636
 30
0.0
 10
-19.0029874032
 20
-4.8052363827
 30
0.0
 10
-19.0088697823
 20
-4.8051477574
 30
0.0
 10
-19.0122409323
 20
-4.8051137284
 30
0.0
 10
-19.0147449573
 20
-4.8050715604
 30
0.0
 10
-19.0172212582
 20
-4.8051137417
 30
0.0
 10
-19.0204817835
 20
-4.8051477728
 30
0.0
 10
-19.0261723681
 20
-4.8052340553
 30
0.0
 10
-19.0342796427
 20
-4.8053915087
 30
0.0
 10
-19.043976135
 20
-4.8056487338
 30
0.0
 10
-19.0568212678
 20
-4.8060768876
 30
0.0
 10
-19.0727725928
 20
-4.8067746461
 30
0.0
 10
-19.0980191584
 20
-4.8082355466
 30
0.0
 10
-19.1291636358
 20
-4.8107074988
 30
0.0
 10
-19.1779281693
 20
-4.8160328637
 30
0.0
 10
-19.2372898786
 20
-4.8252584479
 30
0.0
 10
-19.2903621856
 20
-4.8370569353
 30
0.0
 10
-19.3195041444
 20
-4.844896126
 30
0.0
 10
-19.3259056118
 20
-4.8466861004
 30
0.0
 11
-18.0565964859
 21
-5.6477945579
 31
0.0
 11
-18.0567880839
 21
-5.64602284
 31
0.0
 11
-18.058969551
 21
-5.6274160311
 31
0.0
 11
-18.0642067005
 21
-5.5906974358
 31
0.0
 11
-18.0706094705
 21
-5.5546388704
 31
0.0
 11
-18.078177861
 21
-5.5192403349
 31
0.0
 11
-18.0869118719
 21
-5.4845018292
 31
0.0
 11
-18.0968115032
 21
-5.4504233533
 31
0.0
 11
-18.1201076274
 21
-5.3842464912
 31
0.0
 11
-18.1480662334
 21
-5.3207097485
 31
0.0
 11
-18.1806873212
 21
-5.2598131253
 31
0.0
 11
-18.2179708909
 21
-5.2015566215
 31
0.0
 11
-18.2383611065
 21
-5.1734184143
 31
0.0
 11
-18.2599169425
 21
-5.1459402371
 31
0.0
 11
-18.2826383989
 21
-5.1191220897
 31
0.0
 11
-18.2944362348
 21
-5.1059605272
 31
0.0
 11
-18.3065254759
 21
-5.0929639721
 31
0.0
 11
-18.3126793733
 21
-5.0865275724
 31
0.0
 11
-18.318906122
 21
-5.0801324246
 31
0.0
 11
-18.3220468156
 21
-5.0769503201
 31
0.0
 11
-18.325125072
 21
-5.0738109254
 31
0.0
 11
-18.3281759586
 21
-5.0707044942
 31
0.0
 11
-18.3312387489
 21
-5.0676161186
 31
0.0
 11
-18.3436089474
 21
-5.0554431716
 31
0.0
 11
-18.3561696055
 21
-5.0435591134
 31
0.0
 11
-18.3818623003
 21
-5.0206576635
 31
0.0
 11
-18.4083168334
 21
-4.998911769
 31
0.0
 11
-18.4635114142
 21
-4.958886646
 31
0.0
 11
-18.5217533478
 21
-4.9234837444
 31
0.0
 11
-18.5830426343
 21
-4.8927030641
 31
0.0
 11
-18.6473792736
 21
-4.8665446051
 31
0.0
 11
-18.7147632659
 21
-4.8450083676
 31
0.0
 11
-18.785194611
 21
-4.8280943514
 31
0.0
 11
-18.8215530408
 21
-4.8213706763
 31
0.0
 11
-18.8586733089
 21
-4.8158025565
 31
0.0
 11
-18.8965554152
 21
-4.8113899921
 31
0.0
 11
-18.9351993598
 21
-4.8081329831
 31
0.0
 11
-18.9548070214
 21
-4.8069378118
 31
0.0
 11
-18.9746051425
 21
-4.8060315293
 31
0.0
 11
-18.9845756254
 21
-4.8056867214
 31
0.0
 11
-18.9945937232
 21
-4.8054141357
 31
0.0
 11
-19.0046594359
 21
-4.8052137722
 31
0.0
 11
-19.0097101478
 21
-4.8051406738
 31
0.0
 11
-19.0122399677
 21
-4.8051108954
 31
0.0
 11
-19.0147727635
 21
-4.8050856309
 31
0.0
 11
-19.0172221217
 21
-4.8051110621
 31
0.0
 11
-19.0196688173
 21
-4.8051405735
 31
0.0
 11
-19.0245542212
 21
-4.805211837
 31
0.0
 11
-19.0342930791
 21
-4.805403327
 31
0.0
 11
-19.0439893369
 21
-4.805660101
 31
0.0
 11
-19.0536429948
 21
-4.805982159
 31
0.0
 11
-19.0728225108
 21
-4.806822127
 31
0.0
 11
-19.091831627
 21
-4.8079232309
 31
0.0
 11
-19.1293386599
 21
-4.8109088466
 31
0.0
 11
-19.1661640937
 21
-4.8149390061
 31
0.0
 11
-19.2377701634
 21
-4.8261329566
 31
0.0
 11
-19.3066498363
 21
-4.8415050823
 31
0.0
 11
-19.3259056118
 21
-4.8466861004
 31
0.0
  0
SPLINE
  5
367
100
AcDbEntity
  8
0
100
AcDbSpline
 62
7
  6
CONTINUOUS
 70
0
 71
3
 72
10
 73
6
 74
4
 42
0.0000001
 43
0.0000001
 44
0.0000000001
 12
-0.1768625785
 22
-0.0494542075
 32
0.0
 13
-0.1638954614
 23
-0.0828592943
 33
0.0
 40
0.0
 40
0.0
 40
0.0
 40
0.0
 40
0.2671140458
 40
0.6359408278
 40
1.0
 40
1.0
 40
1.0
 40
1.0
 10
-19.3259056118
 20
-4.8466861004
 30
0.0
 10
-19.3416531047
 20
-4.8510894049
 30
0.0
 10
-19.3788899455
 20
-4.862483646
 30
0.0
 10
-19.4362749308
 20
-4.8839137389
 30
0.0
 10
-19.4770738826
 20
-4.9026517751
 30
0.0
 10
-19.496963098
 20
-4.9127070038
 30
0.0
 11
-19.3259056118
 21
-4.8466861004
 31
0.0
 11
-19.3728031123
 21
-4.8610553833
 31
0.0
 11
-19.4362299914
 21
-4.8847838595
 31
0.0
 11
-19.496963098
 21
-4.9127070038
 31
0.0
  0
SPLINE
  5
368
100
AcDbEntity
  8
0
100
AcDbSpline
 62
7
  6
CONTINUOUS
 70
0
 71
3
 72
16
 73
12
 74
10
 42
0.0000001
 43
0.0000001
 44
0.0000000001
 12
11.4728872726
 22
0.0
 32
0.0
 13
-0.0
 23
-11.7278740979
 33
0.0
 40
0.0
 40
0.0
 40
0.0
 40
0.0
 40
0.1841839955
 40
0.3620977868
 40
0.5276849139
 40
0.6753092271
 40
0.7999474416
 40
0.8973617553
 40
0.9642494144
 40
0.9983858896
 40
1.0
 40
1.0
 40
1.0
 40
1.0
 10
-0.0
 20
-45.7052805239
 30
0.0
 10
0.7043740727
 20
-45.7052805239
 30
0.0
 10
2.0889185298
 20
-45.7076946588
 30
0.0
 10
4.1078856698
 20
-45.716627838
 30
0.0
 10
5.9828718839
 20
-45.7355855275
 30
0.0
 10
7.6670736738
 20
-45.7478024669
 30
0.0
 10
9.0521431931
 20
-45.8006913286
 30
0.0
 10
10.2299361568
 20
-45.7612718427
 30
0.0
 10
10.832700827
 20
-45.9383356551
 30
0.0
 10
11.4430037227
 20
-45.7599137144
 30
0.0
 10
11.4521868615
 20
-45.8996731701
 30
0.0
 10
11.4521868615
 20
-45.9059831979
 30
0.0
 11
-0.0
 21
-45.7052805239
 31
0.0
 11
2.1131194549
 21
-45.7086978683
 31
0.0
 11
4.1542791612
 21
-45.718833528
 31
0.0
 11
6.0539698731
 21
-45.7353423453
 31
0.0
 11
7.7474999019
 21
-45.7576621321
 31
0.0
 11
9.1771981137
 21
-45.785032815
 31
0.0
 11
10.2943778506
 21
-45.816522318
 31
0.0
 11
11.0609948965
 21
-45.851058304
 31
0.0
 11
11.4509430274
 21
-45.8874646915
 31
0.0
 11
11.4521868615
 21
-45.9059831979
 31
0.0
  0
SPLINE
  5
369
100
AcDbEntity
  8
0
100
AcDbSpline
 62
7
  6
CONTINUOUS
 70
0
 71
3
 72
16
 73
12
 74
10
 42
0.0000001
 43
0.0000001
 44
0.0000000001
 12
0.0
 22
11.4728872726
 32
0.0
 13
-11.7278740979
 23
-0.0
 33
0.0
 40
0.0
 40
0.0
 40
0.0
 40
0.0
 40
0.1841839955
 40
0.3620977868
 40
0.5276849139
 40
0.6753092271
 40
0.7999474416
 40
0.8973617553
 40
0.9642494144
 40
0.9983858896
 40
1.0
 40
1.0
 40
1.0
 40
1.0
 10
-33.4152858976
 20
-4.7899946264
 30
0.0
 10
-33.4152858976
 20
-4.0856205536
 30
0.0
 10
-33.4177000324
 20
-2.7010760966
 30
0.0
 10
-33.4266332116
 20
-0.6821089565
 30
0.0
 10
-33.4455909012
 20
1.1928772576
 30
0.0
 10
-33.4578078405
 20
2.8770790474
 30
0.0
 10
-33.5106967022
 20
4.2621485667
 30
0.0
 10
-33.4712772163
 20
5.4399415304
 30
0.0
 10
-33.6483410288
 20
6.0427062007
 30
0.0
 10
-33.469919088
 20
6.6530090963
 30
0.0
 10
-33.6096785438
 20
6.6621922352
 30
0.0
 10
-33.6159885716
 20
6.6621922352
 30
0.0
 11
-33.4152858976
 21
-4.7899946264
 31
0.0
 11
-33.418703242
 21
-2.6768751715
 31
0.0
 11
-33.4288389017
 21
-0.6357154652
 31
0.0
 11
-33.4453477189
 21
1.2639752467
 31
0.0
 11
-33.4676675058
 21
2.9575052756
 31
0.0
 11
-33.4950381886
 21
4.3872034874
 31
0.0
 11
-33.5265276917
 21
5.5043832242
 31
0.0
 11
-33.5610636777
 21
6.2710002701
 31
0.0
 11
-33.5974700651
 21
6.660948401
 31
0.0
 11
-33.6159885716
 21
6.6621922352
 31
0.0
  0
SPLINE
  5
36A
100
AcDbEntity
  8
ASSI
100
AcDbSpline
 62
7
  6
CONTINUOUS
 70
0
 71
3
 72
16
 73
12
 74
10
 42
0.0000001
 43
0.0000001
 44
0.0000000001
 12
0.0
 22
11.4728872726
 32
0.0
 13
11.7278740979
 23
-0.0
 33
0.0
 40
0.0
 40
0.0
 40
0.0
 40
0.0
 40
0.1841839955
 40
0.3620977868
 40
0.5276849139
 40
0.6753092271
 40
0.7999474416
 40
0.8973617553
 40
0.9642494144
 40
0.9983858896
 40
1.0
 40
1.0
 40
1.0
 40
1.0
 10
33.4152858976
 20
-4.7899946264
 30
0.0
 10
33.4152858976
 20
-4.0856205536
 30
0.0
 10
33.4177000324
 20
-2.7010760966
 30
0.0
 10
33.4266332116
 20
-0.6821089565
 30
0.0
 10
33.4455909012
 20
1.1928772576
 30
0.0
 10
33.4578078405
 20
2.8770790474
 30
0.0
 10
33.5106967022
 20
4.2621485667
 30
0.0
 10
33.4712772163
 20
5.4399415304
 30
0.0
 10
33.6483410288
 20
6.0427062007
 30
0.0
 10
33.469919088
 20
6.6530090963
 30
0.0
 10
33.6096785438
 20
6.6621922352
 30
0.0
 10
33.6159885716
 20
6.6621922352
 30
0.0
 11
33.4152858976
 21
-4.7899946264
 31
0.0
 11
33.418703242
 21
-2.6768751715
 31
0.0
 11
33.4288389017
 21
-0.6357154652
 31
0.0
 11
33.4453477189
 21
1.2639752467
 31
0.0
 11
33.4676675058
 21
2.9575052756
 31
0.0
 11
33.4950381886
 21
4.3872034874
 31
0.0
 11
33.5265276917
 21
5.5043832242
 31
0.0
 11
33.5610636777
 21
6.2710002701
 31
0.0
 11
33.5974700651
 21
6.660948401
 31
0.0
 11
33.6159885716
 21
6.6621922352
 31
0.0
  0
SPLINE
  5
36B
100
AcDbEntity
  8
0
100
AcDbSpline
 62
7
  6
CONTINUOUS
 70
0
 71
3
 72
70
 73
66
 74
64
 42
0.0000001
 43
0.0000001
 44
0.0000000001
 12
-0.8819681991
 22
-1.148645076
 32
0.0
 13
-0.2181799419
 23
1.431472501
 33
0.0
 40
0.0
 40
0.0
 40
0.0
 40
0.0
 40
0.0141999844
 40
0.0258055371
 40
0.0374383102
 40
0.0490278754
 40
0.0605026858
 40
0.083132182
 40
0.1053818225
 40
0.127307831
 40
0.1704106326
 40
0.2129488598
 40
0.234174567
 40
0.2554522459
 40
0.2768461593
 40
0.2984195312
 40
0.3092937992
 40
0.3202358905
 40
0.3312531929
 40
0.342352944
 40
0.3535422217
 40
0.3591727047
 40
0.3648281454
 40
0.3705093799
 40
0.3762172329
 40
0.3790814086
 40
0.381952543
 40
0.3833907524
 40
0.3848307389
 40
0.3862725148
 40
0.3869940778
 40
0.3873550288
 40
0.3877160929
 40
0.3880154739
 40
0.3883147663
 40
0.388913086
 40
0.3901086677
 40
0.3913028457
 40
0.3924956276
 40
0.3948770307
 40
0.3972529393
 40
0.4019885005
 40
0.4067028166
 40
0.4113963848
 40
0.4160697085
 40
0.4253575403
 40
0.4345705986
 40
0.4437131451
 40
0.4618031175
 40
0.4796645568
 40
0.4973348818
 40
0.5148527362
 40
0.5322577794
 40
0.5668813972
 40
0.6015438909
 40
0.6365723002
 40
0.6543281624
 40
0.6722929796
 40
0.6904127327
 40
0.708643663
 40
0.7456253388
 40
0.7836325442
 40
0.8230173878
 40
0.9070842363
 40
1.0
 40
1.0
 40
1.0
 40
1.0
 10
1.4355528556
 20
23.2013794236
 30
0.0
 10
1.4313782107
 20
23.1959425096
 30
0.0
 10
1.4236341621
 20
23.1861832046
 30
0.0
 10
1.4119975396
 20
23.1723562129
 30
0.0
 10
1.4008386687
 20
23.1597812492
 30
0.0
 10
1.3894214576
 20
23.1475269161
 30
0.0
 10
1.3740183485
 20
23.1317396695
 30
0.0
 10
1.3543316193
 20
23.1129537746
 30
0.0
 10
1.3299207934
 20
23.0918649216
 30
0.0
 10
1.2966665211
 20
23.0659789801
 30
0.0
 10
1.2532372081
 20
23.0373355467
 30
0.0
 10
1.2072316669
 20
23.0137621193
 30
0.0
 10
1.1692558092
 20
22.9981378269
 30
0.0
 10
1.1401150127
 20
22.9879889278
 30
0.0
 10
1.1103023318
 20
22.9794052162
 30
0.0
 10
1.0849642193
 20
22.9735710074
 30
0.0
 10
1.0643834083
 20
22.9696833778
 30
0.0
 10
1.0487375839
 20
22.9671497566
 30
0.0
 10
1.0329238639
 20
22.9650063048
 30
0.0
 10
1.0169421762
 20
22.9632529583
 30
0.0
 10
1.0035125746
 20
22.9621193264
 30
0.0
 10
0.9926877488
 20
22.9614063513
 30
0.0
 10
0.984509772
 20
22.9609679529
 30
0.0
 10
0.9762897982
 20
22.9606270331
 30
0.0
 10
0.969413009
 20
22.9604244054
 30
0.0
 10
0.9638909015
 20
22.9603108709
 30
0.0
 10
0.9604288211
 20
22.9602601635
 30
0.0
 10
0.9576539454
 20
22.9602317589
 30
0.0
 10
0.9555688855
 20
22.9602165338
 30
0.0
 10
0.9538296894
 20
22.960208925
 30
0.0
 10
0.9526112979
 20
22.9602062616
 30
0.0
 10
0.9519145292
 20
22.9602055007
 30
0.0
 10
0.951421534
 20
22.9602053203
 30
0.0
 10
0.9509582993
 20
22.9602054632
 30
0.0
 10
0.9503805492
 20
22.9602060022
 30
0.0
 10
0.949370233
 20
22.9602078869
 30
0.0
 10
0.947927991
 20
22.9602132719
 30
0.0
 10
0.9461988443
 20
22.9602240465
 30
0.0
 10
0.9438973937
 20
22.960244149
 30
0.0
 10
0.941025684
 20
22.9602800357
 30
0.0
 10
0.9364444669
 20
22.9603603879
 30
0.0
 10
0.9307382317
 20
22.9605037954
 30
0.0
 10
0.9239157917
 20
22.960745061
 30
0.0
 10
0.9171261987
 20
22.9610553076
 30
0.0
 10
0.9081361747
 20
22.961559879
 30
0.0
 10
0.8969786295
 20
22.9623620865
 30
0.0
 10
0.8836927679
 20
22.9636027896
 30
0.0
 10
0.866216311
 20
22.9656178078
 30
0.0
 10
0.8446800985
 20
22.9688218183
 30
0.0
 10
0.8192701306
 20
22.973786305
 30
0.0
 10
0.7943852625
 20
22.9798569038
 30
0.0
 10
0.7700254548
 20
22.9870342329
 30
0.0
 10
0.7383078836
 20
22.9980570696
 30
0.0
 10
0.6998190778
 20
23.0146570137
 30
0.0
 10
0.6556932055
 20
23.039062944
 30
0.0
 10
0.6208460149
 20
23.0630024865
 30
0.0
 10
0.5941209588
 20
23.0842748544
 30
0.0
 10
0.5745248506
 20
23.1013573206
 30
0.0
 10
0.5556195123
 20
23.1195378046
 30
0.0
 10
0.5314541235
 20
23.1454195964
 30
0.0
 10
0.5033547181
 20
23.1806694122
 30
0.0
 10
0.4733645983
 20
23.227118279
 30
0.0
 10
0.4373278165
 20
23.2963285064
 30
0.0
 10
0.4015462751
 20
23.3949478636
 30
0.0
 10
0.384057452
 20
23.4788199201
 30
0.0
 10
0.3773
 20
23.5231553736
 30
0.0
 11
1.4355528556
 21
23.2013794236
 31
0.0
 11
1.4227717603
 21
23.1852712492
 31
0.0
 11
1.4119504796
 21
23.1724141826
 31
0.0
 11
1.4007744028
 21
23.1598115689
 31
0.0
 11
1.3893368739
 21
23.1475311096
 31
0.0
 11
1.3777312366
 21
23.1356405062
 31
0.0
 11
1.3540156372
 21
23.1130288669
 31
0.0
 11
1.3296276046
 21
23.091976651
 31
0.0
 11
1.3045671388
 21
23.0724838585
 31
0.0
 11
1.2524289077
 21
23.0381765437
 31
0.0
 11
1.1976009439
 21
23.0101069225
 31
0.0
 11
1.1691783122
 21
22.998411247
 31
0.0
 11
1.1400832474
 21
22.9882749949
 31
0.0
 11
1.1103157494
 21
22.9796981661
 31
0.0
 11
1.0798758182
 21
22.9726807608
 31
0.0
 11
1.0644036901
 21
22.969756842
 31
0.0
 11
1.0487634538
 21
22.9672227789
 31
0.0
 11
1.0329551091
 21
22.9650785718
 31
0.0
 11
1.0169786562
 21
22.9633242204
 31
0.0
 11
1.000834095
 21
22.961959725
 31
0.0
 11
0.9926987737
 21
22.9614236732
 31
0.0
 11
0.9845214254
 21
22.9609850853
 31
0.0
 11
0.9763020501
 21
22.9606439615
 31
0.0
 11
0.9680406476
 21
22.9604003016
 31
0.0
 11
0.9638941862
 21
22.9603150206
 31
0.0
 11
0.9597372181
 21
22.9602541056
 31
0.0
 11
0.957654794
 21
22.9602327854
 31
0.0
 11
0.9555697432
 21
22.9602175566
 31
0.0
 11
0.9534820657
 21
22.9602084194
 31
0.0
 11
0.9524372419
 21
22.9602061351
 31
0.0
 11
0.9519145838
 21
22.960205564
 31
0.0
 11
0.9513917615
 21
22.9602053736
 31
0.0
 11
0.9509582566
 21
22.9602055084
 31
0.0
 11
0.9505248801
 21
22.9602059125
 31
0.0
 11
0.9496585123
 21
22.9602075291
 31
0.0
 11
0.9479273171
 21
22.9602139954
 31
0.0
 11
0.9461981759
 21
22.9602247726
 31
0.0
 11
0.9444710888
 21
22.9602398607
 31
0.0
 11
0.9410230766
 21
22.9602829694
 31
0.0
 11
0.9375832805
 21
22.9603433217
 31
0.0
 11
0.9307283367
 21
22.9605157567
 31
0.0
 11
0.9239062574
 21
22.9607571657
 31
0.0
 11
0.9171170425
 21
22.9610675488
 31
0.0
 11
0.910360692
 21
22.9614469058
 31
0.0
 11
0.8969465846
 21
22.962412542
 31
0.0
 11
0.8836639349
 21
22.9636540742
 31
0.0
 11
0.8705127432
 21
22.9651715024
 31
0.0
 11
0.8446047331
 21
22.969034047
 31
0.0
 11
0.8192225544
 21
22.9740001758
 31
0.0
 11
0.7943662071
 21
22.9800698887
 31
0.0
 11
0.7700356912
 21
22.9872431858
 31
0.0
 11
0.7462310066
 21
22.9955200671
 31
0.0
 11
0.7001991316
 21
23.0153845822
 31
0.0
 11
0.6562705821
 21
23.0396634339
 31
0.0
 11
0.614445358
 21
23.0683566224
 31
0.0
 11
0.594321493
 21
23.0843585929
 31
0.0
 11
0.5747234594
 21
23.1014641475
 31
0.0
 11
0.5558256009
 21
23.1196651414
 31
0.0
 11
0.5378022614
 21
23.1389534297
 31
0.0
 11
0.5043791394
 21
23.1807918893
 31
0.0
 11
0.4744540931
 21
23.2269795264
 31
0.0
 11
0.4480271228
 21
23.277516341
 31
0.0
 11
0.4056674097
 21
23.3916375024
 31
0.0
 11
0.3773
 21
23.5231553736
 31
0.0
  0
SPLINE
  5
36C
100
AcDbEntity
  8
0
100
AcDbSpline
 62
7
  6
CONTINUOUS
 70
0
 71
3
 72
77
 73
73
 74
71
 42
0.0000001
 43
0.0000001
 44
0.0000000001
 12
-0.3398380424
 22
1.8565224946
 32
0.0
 13
-1.5447546674
 23
-1.0841446508
 33
0.0
 40
0.0
 40
0.0
 40
0.0
 40
0.0
 40
0.0011538754
 40
0.0236612165
 40
0.0458796487
 40
0.0896008679
 40
0.1326633814
 40
0.1754187411
 40
0.196799033
 40
0.2182372705
 40
0.2397780348
 40
0.2614652748
 40
0.2833420567
 40
0.2888462146
 40
0.2943639891
 40
0.305355681
 40
0.3271037394
 40
0.3485701804
 40
0.3908018201
 40
0.4323795529
 40
0.4736381895
 40
0.5149203053
 40
0.5356825601
 40
0.556578325
 40
0.5776488716
 40
0.5989344546
 40
0.6204741233
 40
0.6313516453
 40
0.6423066951
 40
0.6478147645
 40
0.6533438863
 40
0.6588946044
 40
0.6644674567
 40
0.6700629746
 40
0.6728694056
 40
0.6756816992
 40
0.6770900658
 40
0.6784999222
 40
0.6792054118
 40
0.6799112768
 40
0.6802643504
 40
0.6804409226
 40
0.6805261303
 40
0.6805928169
 40
0.6808595506
 40
0.6811262638
 40
0.6816596296
 40
0.6821929148
 40
0.6832592461
 40
0.684325263
 40
0.6853909705
 40
0.6875214769
 40
0.6896508073
 40
0.6917790027
 40
0.6939061041
 40
0.6981571793
 40
0.7024043725
 40
0.7108883521
 40
0.7193607779
 40
0.7278243129
 40
0.7362816288
 40
0.744735403
 40
0.7531883164
 40
0.770101616
 40
0.7870436178
 40
0.8040356331
 40
0.8210987856
 40
0.855516528
 40
0.8904646633
 40
0.9260984994
 40
0.9625645843
 40
1.0
 40
1.0
 40
1.0
 40
1.0
 10
1.9517168513
 20
23.9363250453
 30
0.0
 10
1.951586141
 20
23.9370391105
 30
0.0
 10
1.9488906305
 20
23.9516788721
 30
0.0
 10
1.9430590872
 20
23.9799543388
 30
0.0
 10
1.9295423136
 20
24.0339409662
 30
0.0
 10
1.9086250394
 20
24.0993443176
 30
0.0
 10
1.8769198264
 20
24.1745296774
 30
0.0
 10
1.8450931134
 20
24.2341007988
 30
0.0
 10
1.8165029651
 20
24.279732017
 30
0.0
 10
1.793450962
 20
24.3130335005
 30
0.0
 10
1.7687927597
 20
24.3454057065
 30
0.0
 10
1.7425291638
 20
24.3768491361
 30
0.0
 10
1.721704892
 20
24.3996493543
 30
0.0
 10
1.7073407339
 20
24.4145488506
 30
0.0
 10
1.6976208718
 20
24.4244132556
 30
0.0
 10
1.6804734411
 20
24.4413024102
 30
0.0
 10
1.6554588
 20
24.4644932556
 30
0.0
 10
1.6145453568
 20
24.4993744725
 30
0.0
 10
1.5614437533
 20
24.5391010939
 30
0.0
 10
1.4944208596
 20
24.5805086829
 30
0.0
 10
1.4244455052
 20
24.6153897151
 30
0.0
 10
1.36378332
 20
24.6389687941
 30
0.0
 10
1.3139682153
 20
24.6545332221
 30
0.0
 10
1.2758006252
 20
24.6646074772
 30
0.0
 10
1.2369050026
 20
24.6730572723
 30
0.0
 10
1.197281243
 20
24.6798833847
 30
0.0
 10
1.1637647895
 20
24.6842045968
 30
0.0
 10
1.1366080235
 20
24.6868565834
 30
0.0
 10
1.1194582649
 20
24.6881794487
 30
0.0
 10
1.1056498313
 20
24.689036111
 30
0.0
 10
1.0952286896
 20
24.6895785147
 30
0.0
 10
1.0847619939
 20
24.6900196273
 30
0.0
 10
1.0742497335
 20
24.6903594511
 30
0.0
 10
1.0654606057
 20
24.6905580251
 30
0.0
 10
1.0584067987
 20
24.6906663941
 30
0.0
 10
1.0539864469
 20
24.6907130697
 30
0.0
 10
1.0504445041
 20
24.6907377696
 30
0.0
 10
1.0482278398
 20
24.6907479374
 30
0.0
 10
1.0464530885
 20
24.6907529092
 30
0.0
 10
1.0453431291
 20
24.6907546982
 30
0.0
 10
1.0445658983
 20
24.6907552588
 30
0.0
 10
1.0441791083
 20
24.6907553649
 30
0.0
 10
1.0439724777
 20
24.6907553771
 30
0.0
 10
1.0437091286
 20
24.6907553545
 30
0.0
 10
1.0433315987
 20
24.6907551922
 30
0.0
 10
1.0426604921
 20
24.6907545382
 30
0.0
 10
1.0418217049
 20
24.6907530334
 30
0.0
 10
1.040479901
 20
24.6907491606
 30
0.0
 10
1.0388030291
 20
24.6907415723
 30
0.0
 10
1.0367912506
 20
24.690728069
 30
0.0
 10
1.0341100853
 20
24.6907042058
 30
0.0
 10
1.0307601468
 20
24.6906633895
 30
0.0
 10
1.0267421242
 20
24.6905968162
 30
0.0
 10
1.0227265725
 20
24.6905126561
 30
0.0
 10
1.0173771183
 20
24.6903770269
 30
0.0
 10
1.0106962575
 20
24.6901635479
 30
0.0
 10
1.0000218835
 20
24.6897282781
 30
0.0
 10
0.9867018725
 20
24.6890084248
 30
0.0
 10
0.9707510547
 20
24.6878627815
 30
0.0
 10
0.9548397611
 20
24.6864356631
 30
0.0
 10
0.9389680472
 20
24.6847270747
 30
0.0
 10
0.923135844
 20
24.6827369988
 30
0.0
 10
0.9020762909
 20
24.6797079076
 30
0.0
 10
0.8758368993
 20
24.6752150061
 30
0.0
 10
0.8445144274
 20
24.6686976406
 30
0.0
 10
0.8133501859
 20
24.6610532209
 30
0.0
 10
0.771894932
 20
24.6493262096
 30
0.0
 10
0.7203798218
 20
24.6317913969
 30
0.0
 10
0.6593946524
 20
24.6062946102
 30
0.0
 10
0.5990574023
 20
24.5762841324
 30
0.0
 10
0.5393729971
 20
24.541765851
 30
0.0
 10
0.5005651384
 20
24.5161123152
 30
0.0
 10
0.4812889607
 20
24.5025838467
 30
0.0
 11
1.9517168513
 21
23.9363250453
 31
0.0
 11
1.9513224977
 21
23.9384668346
 31
0.0
 11
1.9427310715
 21
23.980065425
 31
0.0
 11
1.9325359125
 21
24.0207384105
 31
0.0
 11
1.9073343956
 21
24.0993075666
 31
0.0
 11
1.8757179472
 21
24.1741743028
 31
0.0
 11
1.8376865672
 21
24.2453386192
 31
0.0
 11
1.8162652779
 21
24.2795323699
 31
0.0
 11
1.7932402557
 21
24.3128005157
 31
0.0
 11
1.7686115006
 21
24.3451430565
 31
0.0
 11
1.7423790126
 21
24.3765599924
 31
0.0
 11
1.7145427918
 21
24.4070513233
 31
0.0
 11
1.7073331533
 21
24.4145295303
 31
0.0
 11
1.7000255125
 21
24.4219481143
 31
0.0
 11
1.6852456218
 21
24.4365035985
 31
0.0
 11
1.655138954
 21
24.4643991984
 31
0.0
 11
1.6243031041
 21
24.4906743071
 31
0.0
 11
1.5604438583
 21
24.5383630505
 31
0.0
 11
1.4936678845
 21
24.5795698289
 31
0.0
 11
1.4239751827
 21
24.6142946421
 31
0.0
 11
1.3513657529
 21
24.6425374902
 31
0.0
 11
1.3139672649
 21
24.6542281773
 31
0.0
 11
1.275839595
 21
24.6642983731
 31
0.0
 11
1.236982743
 21
24.6727480777
 31
0.0
 11
1.197396709
 21
24.6795772909
 31
0.0
 11
1.1570814931
 21
24.6847860129
 31
0.0
 11
1.1366504418
 21
24.6867826897
 31
0.0
 11
1.1160370951
 21
24.6883742436
 31
0.0
 11
1.1056620609
 21
24.6890180995
 31
0.0
 11
1.0952414528
 21
24.6895606747
 31
0.0
 11
1.0847752709
 21
24.6900019692
 31
0.0
 11
1.0742635151
 21
24.690341983
 31
0.0
 11
1.0637061854
 21
24.6905807161
 31
0.0
 11
1.0584104303
 21
24.6906621024
 31
0.0
 11
1.0531032818
 21
24.6907181685
 31
0.0
 11
1.050445435
 21
24.6907367065
 31
0.0
 11
1.0477847398
 21
24.6907489144
 31
0.0
 11
1.0464533241
 21
24.6907526446
 31
0.0
 11
1.0451211963
 21
24.6907547923
 31
0.0
 11
1.0444548653
 21
24.6907552727
 31
0.0
 11
1.0441216331
 21
24.6907553646
 31
0.0
 11
1.0439608265
 21
24.6907553735
 31
0.0
 11
1.0438349735
 21
24.6907553624
 31
0.0
 11
1.0433315859
 21
24.6907551465
 31
0.0
 11
1.0428282369
 21
24.6907546558
 31
0.0
 11
1.0418216547
 21
24.6907528501
 31
0.0
 11
1.0408152271
 21
24.6907499452
 31
0.0
 11
1.0388028354
 21
24.6907408379
 31
0.0
 11
1.0367910618
 21
24.690727334
 31
0.0
 11
1.0347799063
 21
24.6907094334
 31
0.0
 11
1.0307594496
 21
24.6906604425
 31
0.0
 11
1.0267414652
 21
24.690593865
 31
0.0
 11
1.0227259531
 21
24.6905097011
 31
0.0
 11
1.0187129134
 21
24.6904079506
 31
0.0
 11
1.0106942511
 21
24.6901516903
 31
0.0
 11
1.0026854781
 21
24.6898250839
 31
0.0
 11
0.9866976004
 21
24.6889608333
 31
0.0
 11
0.9707492802
 21
24.6878151987
 31
0.0
 11
0.9548405176
 21
24.6863881802
 31
0.0
 11
0.9389713126
 21
24.6846797778
 31
0.0
 11
0.9231416652
 21
24.6826899915
 31
0.0
 11
0.9073515753
 21
24.6804188212
 31
0.0
 11
0.8758900683
 21
24.6750323289
 31
0.0
 11
0.8445867916
 21
24.6685203009
 31
0.0
 11
0.8134417452
 21
24.6608827371
 31
0.0
 11
0.7824549291
 21
24.6521196377
 31
0.0
 11
0.7209559878
 21
24.6312168317
 31
0.0
 11
0.6600899677
 21
24.6058118828
 31
0.0
 11
0.5998568688
 21
24.5759047912
 31
0.0
 11
0.5402566911
 21
24.5414955567
 31
0.0
 11
0.4812889607
 21
24.5025838467
 31
0.0
  0
SPLINE
  5
36D
100
AcDbEntity
  8
0
100
AcDbSpline
 62
7
  6
CONTINUOUS
 70
0
 71
3
 72
24
 73
20
 74
18
 42
0.0000001
 43
0.0000001
 44
0.0000000001
 12
-0.1284183362
 22
0.8447685701
 32
0.0
 13
-0.8325477476
 23
0.1922053236
 33
0.0
 40
0.0
 40
0.0
 40
0.0
 40
0.0
 40
0.0243081721
 40
0.0530014068
 40
0.0813594551
 40
0.1371643204
 40
0.1919388962
 40
0.2459051923
 40
0.2992953029
 40
0.3523488841
 40
0.4053101611
 40
0.4318240606
 40
0.4582288219
 40
0.5106733755
 40
0.562850084
 40
0.6673504826
 40
0.7738043012
 40
0.8841160022
 40
1.0
 40
1.0
 40
1.0
 40
1.0
 10
-0.3800508694
 20
23.7462528846
 30
0.0
 10
-0.3810914077
 20
23.7530978112
 30
0.0
 10
-0.3835345949
 20
23.7679959728
 30
0.0
 10
-0.3878854795
 20
23.7907597803
 30
0.0
 10
-0.3948448371
 20
23.8221443302
 30
0.0
 10
-0.4051414829
 20
23.8603806238
 30
0.0
 10
-0.4201469042
 20
23.9048114887
 30
0.0
 10
-0.4377368759
 20
23.9475435155
 30
0.0
 10
-0.4579119621
 20
23.988573308
 30
0.0
 10
-0.4806711038
 20
24.0278973745
 30
0.0
 10
-0.5017797961
 20
24.0592278738
 30
0.0
 10
-0.5198863732
 20
24.0833495136
 30
0.0
 10
-0.5387037086
 20
24.1067318822
 30
0.0
 10
-0.5635831518
 20
24.134591804
 30
0.0
 10
-0.6062734132
 20
24.176181846
 30
0.0
 10
-0.6653650913
 20
24.2227083802
 30
0.0
 10
-0.7446088058
 20
24.269000266
 30
0.0
 10
-0.8321603064
 20
24.3058344206
 30
0.0
 10
-0.8942517296
 20
24.323603257
 30
0.0
 10
-0.9264113834
 20
24.3310277641
 30
0.0
 11
-0.3800508694
 21
23.7462528846
 31
0.0
 11
-0.3834147416
 21
23.7667489173
 31
0.0
 11
-0.3880215708
 21
23.7908290361
 31
0.0
 11
-0.3932712134
 21
23.8144839529
 31
0.0
 11
-0.4056989386
 21
23.8605181806
 31
0.0
 11
-0.4206979173
 21
23.9048516004
 31
0.0
 11
-0.4382681495
 21
23.9474842121
 31
0.0
 11
-0.4584096353
 21
23.9884160159
 31
0.0
 11
-0.4811223745
 21
24.0276470117
 31
0.0
 11
-0.5064063672
 21
24.0651771995
 31
0.0
 11
-0.5200057912
 21
24.0832960118
 31
0.0
 11
-0.5341529351
 21
24.1008709224
 31
0.0
 11
-0.564008874
 21
24.1342872953
 31
0.0
 11
-0.5959470141
 21
24.1653924041
 31
0.0
 11
-0.6660698984
 21
24.2206688292
 31
0.0
 11
-0.7445215881
 21
24.2667001975
 31
0.0
 11
-0.8313020831
 21
24.3034865092
 31
0.0
 11
-0.9264113834
 21
24.3310277641
 31
0.0
  0
SPLINE
  5
36E
100
AcDbEntity
  8
0
100
AcDbSpline
 62
7
  6
CONTINUOUS
 70
0
 71
3
 72
21
 73
17
 74
15
 42
0.0000001
 43
0.0000001
 44
0.0000000001
 12
-0.7093356249
 22
-0.4045570194
 32
0.0
 13
-0.1461820316
 23
-0.8031512655
 33
0.0
 40
0.0
 40
0.0
 40
0.0
 40
0.0
 40
0.0348521574
 40
0.0761419152
 40
0.1175610309
 40
0.1591797576
 40
0.180086731
 40
0.2010498254
 40
0.2428976277
 40
0.2846751546
 40
0.3682935988
 40
0.4525062787
 40
0.5378838934
 40
0.6249742439
 40
0.8062061314
 40
1.0
 40
1.0
 40
1.0
 40
1.0
 10
-1.8556626886
 20
25.593799785
 30
0.0
 10
-1.8639033142
 20
25.58909989
 30
0.0
 10
-1.8817256487
 20
25.5785164719
 30
0.0
 10
-1.9085905304
 20
25.5611346061
 30
0.0
 10
-1.936219084
 20
25.5415924144
 30
0.0
 10
-1.9586283858
 20
25.5243199228
 30
0.0
 10
-1.976193522
 20
25.5099094812
 30
0.0
 10
-1.9935131778
 20
25.4951088301
 30
0.0
 10
-2.014568263
 20
25.4759464036
 30
0.0
 10
-2.0469241826
 20
25.4439279126
 30
0.0
 10
-2.0849118844
 20
25.4012832278
 30
0.0
 10
-2.1263448695
 20
25.3461354957
 30
0.0
 10
-2.1636493036
 20
25.2869937796
 30
0.0
 10
-2.208468898
 20
25.2017210838
 30
0.0
 10
-2.2540235601
 20
25.0840185668
 30
0.0
 10
-2.2778869395
 20
24.9844973039
 30
0.0
 10
-2.28733
 20
24.9326153736
 30
0.0
 11
-1.8556626886
 21
25.593799785
 31
0.0
 11
-1.8801302993
 21
25.5792699625
 31
0.0
 11
-1.908431218
 21
25.5609614357
 31
0.0
 11
-1.9360376405
 21
25.5414381252
 31
0.0
 11
-1.9629495669
 21
25.5207000309
 31
0.0
 11
-1.9761450939
 21
25.5098754399
 31
0.0
 11
-1.9891535712
 21
25.4987561246
 31
0.0
 11
-2.0144180593
 21
25.4757611678
 31
0.0
 11
-2.0386591203
 21
25.4517712338
 31
0.0
 11
-2.0840709607
 21
25.4008064337
 31
0.0
 11
-2.1253890924
 21
25.3458617244
 31
0.0
 11
-2.1626135154
 21
25.2869371057
 31
0.0
 11
-2.1957442297
 21
25.2240325779
 31
0.0
 11
-2.2497245323
 21
25.0862837943
 31
0.0
 11
-2.28733
 21
24.9326153736
 31
0.0
  0
SPLINE
  5
36F
100
AcDbEntity
  8
0
100
AcDbSpline
 62
7
  6
CONTINUOUS
 70
0
 71
3
 72
18
 73
14
 74
12
 42
0.0000001
 43
0.0000001
 44
0.0000000001
 12
-0.0465533026
 22
-0.332082332
 32
0.0
 13
-0.2728484665
 23
-0.1949533353
 33
0.0
 40
0.0
 40
0.0
 40
0.0
 40
0.0
 40
0.0530974741
 40
0.1271353311
 40
0.1996218631
 40
0.2707595214
 40
0.4097980081
 40
0.5461346461
 40
0.6817107274
 40
0.8184999288
 40
0.8879830976
 40
0.9584809016
 40
1.0
 40
1.0
 40
1.0
 40
1.0
 10
-0.8959701937
 20
24.8589661276
 30
0.0
 10
-0.896794148
 20
24.85308855
 30
0.0
 10
-0.8990020062
 20
24.8390479138
 30
0.0
 10
-0.9033928092
 20
24.817163917
 30
0.0
 10
-0.9094104261
 20
24.7935801807
 30
0.0
 10
-0.9188625441
 20
24.7634223607
 30
0.0
 10
-0.93351455
 20
24.7274729273
 30
0.0
 10
-0.9558005177
 20
24.6871867018
 30
0.0
 10
-0.9826522294
 20
24.6500961379
 30
0.0
 10
-1.0086960371
 20
24.6220076888
 30
0.0
 10
-1.031632613
 20
24.6012315666
 30
0.0
 10
-1.0474259506
 20
24.5884836968
 30
0.0
 10
-1.0574986867
 20
24.5810423092
 30
0.0
 10
-1.0612748275
 20
24.5783442136
 30
0.0
 11
-0.8959701937
 21
24.8589661276
 31
0.0
 11
-0.8987410123
 21
24.8413785287
 31
0.0
 11
-0.9036383405
 21
24.8170416235
 31
0.0
 11
-0.9096596456
 21
24.793494698
 31
0.0
 11
-0.9168049277
 21
24.7707377521
 31
0.0
 11
-0.9344674228
 21
24.7275937992
 31
0.0
 11
-0.9566258258
 21
24.6876097649
 31
0.0
 11
-0.9832801365
 21
24.6507856491
 31
0.0
 11
-1.0144303552
 21
24.6171214519
 31
0.0
 11
-1.0316914299
 21
24.6014743228
 31
0.0
 11
-1.0500764816
 21
24.5866171733
 31
0.0
 11
-1.0612748275
 21
24.5783442136
 31
0.0
  0
SPLINE
  5
370
100
AcDbEntity
  8
0
100
AcDbSpline
 62
7
  6
CONTINUOUS
 70
0
 71
3
 72
69
 73
65
 74
63
 42
0.0000001
 43
0.0000001
 44
0.0000000001
 12
-0.4282719041
 22
-0.3060051507
 32
0.0
 13
-0.5231436101
 23
0.0575089018
 33
0.0
 40
0.0
 40
0.0
 40
0.0
 40
0.0
 40
0.0192486823
 40
0.0424343601
 40
0.0656612717
 40
0.1119093393
 40
0.1579235764
 40
0.2494269518
 40
0.3405647711
 40
0.4317233472
 40
0.5232887307
 40
0.5693492009
 40
0.615653484
 40
0.6622476435
 40
0.7091768892
 40
0.7327817168
 40
0.7564868205
 40
0.7802975655
 40
0.804219246
 40
0.8162234022
 40
0.8282572437
 40
0.8403214113
 40
0.852416541
 40
0.8584759239
 40
0.8645432835
 40
0.8706186981
 40
0.8767022453
 40
0.8797470942
 40
0.8812702915
 40
0.8827940055
 40
0.8843182376
 40
0.8850805482
 40
0.8858429888
 40
0.8866055595
 40
0.8871711894
 40
0.8873903822
 40
0.8876099313
 40
0.8879032179
 40
0.8881971383
 40
0.8884916926
 40
0.8887868808
 40
0.8890827031
 40
0.8896762504
 40
0.8902723354
 40
0.8908709587
 40
0.8920758238
 40
0.8932908524
 40
0.8945160507
 40
0.8957514248
 40
0.8982527226
 40
0.9007947935
 40
0.903377681
 40
0.906001427
 40
0.9086660713
 40
0.9141181961
 40
0.9197343492
 40
0.9255147904
 40
0.9314597583
 40
0.9375694718
 40
0.9438441329
 40
0.9568889875
 40
0.9705957002
 40
0.9849654171
 40
1.0
 40
1.0
 40
1.0
 40
1.0
 10
-1.0612748275
 20
24.5783442136
 30
0.0
 10
-1.0640227174
 20
24.576380815
 30
0.0
 10
-1.0701303545
 20
24.5721225478
 30
0.0
 10
-1.0797451106
 20
24.5657769734
 30
0.0
 10
-1.0934757194
 20
24.5570745302
 30
0.0
 10
-1.1108341954
 20
24.5466188057
 30
0.0
 10
-1.1389727685
 20
24.5308766712
 30
0.0
 10
-1.1749068351
 20
24.5129807298
 30
0.0
 10
-1.2192358345
 20
24.4943971784
 30
0.0
 10
-1.2646931547
 20
24.4787421237
 30
0.0
 10
-1.3034399636
 20
24.4681581085
 30
0.0
 10
-1.3349431028
 20
24.4611575777
 30
0.0
 10
-1.3589003816
 20
24.4566260704
 30
0.0
 10
-1.3831381147
 20
24.4528246264
 30
0.0
 10
-1.4035302573
 20
24.4502700192
 30
0.0
 10
-1.4199776878
 20
24.4485896424
 30
0.0
 10
-1.4324081376
 20
24.4475091695
 30
0.0
 10
-1.4449087686
 20
24.4466110386
 30
0.0
 10
-1.4553719268
 20
24.4460152562
 30
0.0
 10
-1.463776787
 20
24.4456294945
 30
0.0
 10
-1.470105605
 20
24.4453853995
 30
0.0
 10
-1.4764519782
 20
24.445186881
 30
0.0
 10
-1.4817518126
 20
24.4450595116
 30
0.0
 10
-1.4860003669
 20
24.4449803609
 30
0.0
 10
-1.4891932484
 20
24.4449323528
 30
0.0
 10
-1.4923905198
 20
24.4448957384
 30
0.0
 10
-1.4950576735
 20
24.444874728
 30
0.0
 10
-1.4969262761
 20
24.4448650021
 30
0.0
 10
-1.497994956
 20
24.4448608661
 30
0.0
 10
-1.498796876
 20
24.4448584757
 30
0.0
 10
-1.4994653144
 20
24.4448570768
 30
0.0
 10
-1.5000002022
 20
24.4448563147
 30
0.0
 10
-1.5004014707
 20
24.4448559183
 30
0.0
 10
-1.5007682354
 20
24.4448557282
 30
0.0
 10
-1.5010396973
 20
24.4448556696
 30
0.0
 10
-1.5012158959
 20
24.4448557101
 30
0.0
 10
-1.5013443169
 20
24.4448558058
 30
0.0
 10
-1.5014858474
 20
24.4448559846
 30
0.0
 10
-1.501640536
 20
24.4448562748
 30
0.0
 10
-1.501795558
 20
24.4448566591
 30
0.0
 10
-1.5019509134
 20
24.4448571379
 30
0.0
 10
-1.502158721
 20
24.4448579029
 30
0.0
 10
-1.5024193142
 20
24.444859096
 30
0.0
 10
-1.5027330257
 20
24.4448609036
 30
0.0
 10
-1.5031539769
 20
24.4448638233
 30
0.0
 10
-1.503683501
 20
24.4448684227
 30
0.0
 10
-1.5043229277
 20
24.4448754404
 30
0.0
 10
-1.5049676887
 20
24.4448839682
 30
0.0
 10
-1.5058380549
 20
24.4448974074
 30
0.0
 10
-1.5069393561
 20
24.4449180251
 30
0.0
 10
-1.508276895
 20
24.4449487052
 30
0.0
 10
-1.509635771
 20
24.444985425
 30
0.0
 10
-1.511015984
 20
24.445028184
 30
0.0
 10
-1.5128990735
 20
24.4450937497
 30
0.0
 10
-1.5153063186
 20
24.4451911029
 30
0.0
 10
-1.5182588179
 20
24.4453312001
 30
0.0
 10
-1.5212966618
 20
24.4454954448
 30
0.0
 10
-1.5244198497
 20
24.4456838382
 30
0.0
 10
-1.5276283835
 20
24.4458963794
 30
0.0
 10
-1.5320780217
 20
24.4462161313
 30
0.0
 10
-1.5378535482
 20
24.4466778918
 30
0.0
 10
-1.5450388495
 20
24.4473215453
 30
0.0
 10
-1.5525656647
 20
24.4480617288
 30
0.0
 10
-1.5576952458
 20
24.4486072161
 30
0.0
 10
-1.5603169945
 20
24.4488954235
 30
0.0
 11
-1.0612748275
 21
24.5783442136
 31
0.0
 11
-1.0695855103
 21
24.5725500034
 31
0.0
 11
-1.0797593655
 21
24.5658125057
 31
0.0
 11
-1.0900808861
 21
24.559262887
 31
0.0
 11
-1.1109346733
 21
24.5467105363
 31
0.0
 11
-1.1320694551
 21
24.5348873678
 31
0.0
 11
-1.1751820023
 21
24.5134285774
 31
0.0
 11
-1.2194185278
 21
24.4948865157
 31
0.0
 11
-1.2647790316
 21
24.4792611829
 31
0.0
 11
-1.3112635137
 21
24.4665525789
 31
0.0
 11
-1.3349272466
 21
24.4612920502
 31
0.0
 11
-1.3588719741
 21
24.4567607036
 31
0.0
 11
-1.3830976962
 21
24.4529585393
 31
0.0
 11
-1.4076044128
 21
24.4498855572
 31
0.0
 11
-1.4199631441
 21
24.4486225094
 31
0.0
 11
-1.432392124
 21
24.4475417573
 31
0.0
 11
-1.4448913526
 21
24.4466433006
 31
0.0
 11
-1.4574608298
 21
24.4459271395
 31
0.0
 11
-1.4637719116
 21
24.4456374198
 31
0.0
 11
-1.4701005556
 21
24.445393274
 31
0.0
 11
-1.4764467618
 21
24.4451947021
 31
0.0
 11
-1.4828105301
 21
24.445041704
 31
0.0
 11
-1.4859990001
 21
24.4449822952
 31
0.0
 11
-1.4891918606
 21
24.4449342798
 31
0.0
 11
-1.4923891117
 21
24.444897658
 31
0.0
 11
-1.4955907533
 21
24.4448724296
 31
0.0
 11
-1.4971932205
 21
24.4448640879
 31
0.0
 11
-1.4979948658
 21
24.4448609852
 31
0.0
 11
-1.4987967854
 21
24.4448585946
 31
0.0
 11
-1.4995989795
 21
24.4448569161
 31
0.0
 11
-1.5000001794
 21
24.4448563439
 31
0.0
 11
-1.5004014479
 21
24.4448559497
 31
0.0
 11
-1.5008027851
 21
24.4448557335
 31
0.0
 11
-1.5011004733
 21
24.4448556884
 31
0.0
 11
-1.5012158334
 21
24.44485572
 31
0.0
 11
-1.501331381
 21
24.4448558047
 31
0.0
 11
-1.5014857362
 21
24.4448560002
 31
0.0
 11
-1.5016404248
 21
24.4448562901
 31
0.0
 11
-1.5017954467
 21
24.4448566744
 31
0.0
 11
-1.5019508021
 21
24.4448571531
 31
0.0
 11
-1.5021064909
 21
24.4448577261
 31
0.0
 11
-1.5024188687
 21
24.4448591554
 31
0.0
 11
-1.50273258
 21
24.4448609623
 31
0.0
 11
-1.503047625
 21
24.4448631467
 31
0.0
 11
-1.5036817157
 21
24.4448686481
 31
0.0
 11
-1.5043211408
 21
24.4448756597
 31
0.0
 11
-1.5049659003
 21
24.4448841816
 31
0.0
 11
-1.5056159942
 21
24.4448942136
 31
0.0
 11
-1.5069321852
 21
24.4449188082
 31
0.0
 11
-1.5082697138
 21
24.4449494437
 31
0.0
 11
-1.5096285799
 21
24.4449861199
 31
0.0
 11
-1.5110087837
 21
24.4450288369
 31
0.0
 11
-1.512410325
 21
24.4450775947
 31
0.0
 11
-1.5152774204
 21
24.4451932327
 31
0.0
 11
-1.5182298661
 21
24.4453330338
 31
0.0
 11
-1.5212676622
 21
24.4454969981
 31
0.0
 11
-1.5243908085
 21
24.4456851255
 31
0.0
 11
-1.5275993053
 21
24.4458974161
 31
0.0
 11
-1.5308931523
 21
24.4461338699
 31
0.0
 11
-1.5377368974
 21
24.4466792669
 31
0.0
 11
-1.5449220438
 21
24.4473213165
 31
0.0
 11
-1.5524485916
 21
24.4480600188
 31
0.0
 11
-1.5603169945
 21
24.4488954235
 31
0.0
  0
SPLINE
  5
371
100
AcDbEntity
  8
0
100
AcDbSpline
 62
7
  6
CONTINUOUS
 70
0
 71
3
 72
53
 73
49
 74
47
 42
0.0000001
 43
0.0000001
 44
0.0000000001
 12
-1.036462093
 22
-0.238561986
 32
0.0
 13
-0.2108813288
 23
1.042231868
 33
0.0
 40
0.0
 40
0.0
 40
0.0
 40
0.0
 40
0.0025960676
 40
0.0276279175
 40
0.052944181
 40
0.0657238459
 40
0.0785914205
 40
0.0915522852
 40
0.1046117048
 40
0.1177748262
 40
0.1243969276
 40
0.1310468286
 40
0.1343824041
 40
0.1377251573
 40
0.1393992502
 40
0.1410751655
 40
0.1427153596
 40
0.143422947
 40
0.1441301545
 40
0.1455434326
 40
0.1469552006
 40
0.1497742308
 40
0.1525872992
 40
0.1553944588
 40
0.1609912509
 40
0.1665650496
 40
0.1721162896
 40
0.1776454111
 40
0.1886389714
 40
0.1995494672
 40
0.2211352262
 40
0.2424342563
 40
0.2634784615
 40
0.2843009172
 40
0.3254092096
 40
0.3660511739
 40
0.4065202489
 40
0.447113623
 40
0.4881257824
 40
0.5088829723
 40
0.52985335
 40
0.5511211984
 40
0.5727534839
 40
0.6172926643
 40
0.6638411636
 40
0.7641154943
 40
0.8756785658
 40
1.0
 40
1.0
 40
1.0
 40
1.0
 10
-1.2224018465
 20
22.9807919855
 30
0.0
 10
-1.223298755
 20
22.9805855445
 30
0.0
 10
-1.2328487234
 20
22.9784104002
 30
0.0
 10
-1.2512463703
 20
22.9746871338
 30
0.0
 10
-1.273354721
 20
22.971189302
 30
0.0
 10
-1.2912772366
 20
22.9689246095
 30
0.0
 10
-1.3048874044
 20
22.967488845
 30
0.0
 10
-1.3186226281
 20
22.9663213422
 30
0.0
 10
-1.3324829705
 20
22.9654220685
 30
0.0
 10
-1.3441137522
 20
22.9648972719
 30
0.0
 10
-1.3534794346
 20
22.9646107489
 30
0.0
 10
-1.3593648123
 20
22.9644873014
 30
0.0
 10
-1.3640885751
 20
22.9644219564
 30
0.0
 10
-1.367048988
 20
22.9643950544
 30
0.0
 10
-1.3694212077
 20
22.964381894
 30
0.0
 10
-1.3711899815
 20
22.9643762627
 30
0.0
 10
-1.3726161848
 20
22.9643750013
 30
0.0
 10
-1.3736990278
 20
22.9643759034
 30
0.0
 10
-1.3747014388
 20
22.9643778209
 30
0.0
 10
-1.3759534422
 20
22.9643822256
 30
0.0
 10
-1.3779539586
 20
22.9643935637
 30
0.0
 10
-1.3804505722
 20
22.9644157726
 30
0.0
 10
-1.3834416221
 20
22.9644553172
 30
0.0
 10
-1.3874169006
 20
22.9645251431
 30
0.0
 10
-1.3923699559
 20
22.9646445268
 30
0.0
 10
-1.3982938895
 20
22.9648394569
 30
0.0
 10
-1.4041919063
 20
22.9650859083
 30
0.0
 10
-1.4120060513
 20
22.9654824264
 30
0.0
 10
-1.4217103503
 20
22.9661061993
 30
0.0
 10
-1.4370736028
 20
22.967376405
 30
0.0
 10
-1.4560304969
 20
22.9694750728
 30
0.0
 10
-1.4784462503
 20
22.9728279915
 30
0.0
 10
-1.5004483124
 20
22.9770067351
 30
0.0
 10
-1.5291053688
 20
22.9836495927
 30
0.0
 10
-1.5639988759
 20
22.9940219911
 30
0.0
 10
-1.6043819188
 20
23.0098443352
 30
0.0
 10
-1.6430990572
 20
23.0289896603
 30
0.0
 10
-1.6801392118
 20
23.0514553355
 30
0.0
 10
-1.7094980441
 20
23.072853039
 30
0.0
 10
-1.732086645
 20
23.0915659611
 30
0.0
 10
-1.7487246967
 20
23.1064681522
 30
0.0
 10
-1.7648347155
 20
23.1223877469
 30
0.0
 10
-1.7858022995
 20
23.1452250474
 30
0.0
 10
-1.8107172093
 20
23.176535783
 30
0.0
 10
-1.8482723598
 20
23.2331008166
 30
0.0
 10
-1.8895969521
 20
23.3152232533
 30
0.0
 10
-1.9293866664
 20
23.4277757862
 30
0.0
 10
-1.9491609769
 20
23.5091547868
 30
0.0
 10
-1.9579
 20
23.5523453736
 30
0.0
 11
-1.2224018465
 21
22.9807919855
 31
0.0
 11
-1.2250939336
 21
22.9801788185
 31
0.0
 11
-1.251181446
 21
22.9748927632
 31
0.0
 11
-1.2777697601
 21
22.9706792408
 31
0.0
 11
-1.2912517177
 21
22.9689746795
 31
0.0
 11
-1.3048588757
 21
22.9675382515
 31
0.0
 11
-1.3185912341
 21
22.9663699566
 31
0.0
 11
-1.3324487929
 21
22.965469795
 31
0.0
 11
-1.3464315522
 21
22.9648377667
 31
0.0
 11
-1.3534698819
 21
22.9646223025
 31
0.0
 11
-1.3605395118
 21
22.9644738716
 31
0.0
 11
-1.3640860642
 21
22.9644247936
 31
0.0
 11
-1.3676404417
 21
22.964392474
 31
0.0
 11
-1.3694205649
 21
22.9643825985
 31
0.0
 11
-1.3712026442
 21
22.9643769127
 31
0.0
 11
-1.3729467479
 21
22.9643754065
 31
0.0
 11
-1.3736991623
 21
22.964376039
 31
0.0
 11
-1.3744511717
 21
22.9643774764
 31
0.0
 11
-1.3759539749
 21
22.9643827661
 31
0.0
 11
-1.3774551576
 21
22.9643912757
 31
0.0
 11
-1.3804526613
 21
22.9644179542
 31
0.0
 11
-1.3834436826
 21
22.9644575121
 31
0.0
 11
-1.3864282217
 21
22.9645099493
 31
0.0
 11
-1.3923778531
 21
22.9646534616
 31
0.0
 11
-1.3983015553
 21
22.9648484912
 31
0.0
 11
-1.4041993284
 21
22.965095038
 31
0.0
 11
-1.4100711724
 21
22.965393102
 31
0.0
 11
-1.4217370731
 21
22.9661437819
 31
0.0
 11
-1.4332992572
 21
22.9671005307
 31
0.0
 11
-1.4561124761
 21
22.9696322352
 31
0.0
 11
-1.4785108291
 21
22.9729882156
 31
0.0
 11
-1.5004943162
 21
22.9771684719
 31
0.0
 11
-1.5220629374
 21
22.9821730041
 31
0.0
 11
-1.5639555821
 21
22.9946548962
 31
0.0
 11
-1.6041887632
 21
23.0104338919
 31
0.0
 11
-1.6427624808
 21
23.0295099911
 31
0.0
 11
-1.6796767347
 21
23.051883194
 31
0.0
 11
-1.7149315251
 21
23.0775535003
 31
0.0
 11
-1.7319366214
 21
23.0916250674
 31
0.0
 11
-1.7485223819
 21
23.106529882
 31
0.0
 11
-1.7646116998
 21
23.1224227062
 31
0.0
 11
-1.780176638
 21
23.1393596131
 31
0.0
 11
-1.809733375
 21
23.176365675
 31
0.0
 11
-1.8371925929
 21
23.2175480679
 31
0.0
 11
-1.8858184715
 21
23.3124418463
 31
0.0
 11
-1.9260542739
 21
23.4240409482
 31
0.0
 11
-1.9579
 21
23.5523453736
 31
0.0
  0
SPLINE
  5
372
100
AcDbEntity
  8
0
100
AcDbSpline
 62
7
  6
CONTINUOUS
 70
0
 71
3
 72
16
 73
12
 74
10
 42
0.0000001
 43
0.0000001
 44
0.0000000001
 12
-0.1398700731
 22
-0.0976008135
 32
0.0
 13
-0.110418459
 23
-0.1300074755
 33
0.0
 40
0.0
 40
0.0
 40
0.0
 40
0.0
 40
0.0304690348
 40
0.0893062622
 40
0.1480764248
 40
0.177104253
 40
0.2060809062
 40
0.3214975827
 40
0.5502375342
 40
0.7767673548
 40
1.0
 40
1.0
 40
1.0
 40
1.0
 10
-19.3807683489
 20
-2.6290200794
 30
0.0
 10
-19.3821889176
 20
-2.6300113469
 30
0.0
 10
-19.3863424733
 20
-2.6329313255
 30
0.0
 10
-19.3931774455
 20
-2.6378454391
 30
0.0
 10
-19.3998986665
 20
-2.6427801183
 30
0.0
 10
-19.4051009839
 20
-2.6469051242
 30
0.0
 10
-19.4128146089
 20
-2.6530454027
 30
0.0
 10
-19.4291781719
 20
-2.6665487568
 30
0.0
 10
-19.453385124
 20
-2.6881760804
 30
0.0
 10
-19.4807176174
 20
-2.7154220934
 30
0.0
 10
-19.4978142524
 20
-2.7344542289
 30
0.0
 10
-19.5060305873
 20
-2.7441281998
 30
0.0
 11
-19.3807683489
 21
-2.6290200794
 31
0.0
 11
-19.3850194479
 21
-2.6320088871
 31
0.0
 11
-19.3931710607
 21
-2.6378613941
 31
0.0
 11
-19.4012113447
 21
-2.6438467955
 31
0.0
 11
-19.4051022336
 21
-2.6469081267
 31
0.0
 11
-19.408966198
 21
-2.6499893923
 31
0.0
 11
-19.4241528102
 21
-2.6625137986
 31
0.0
 11
-19.4532336566
 21
-2.6885194618
 31
0.0
 11
-19.4805913321
 21
-2.7158009258
 31
0.0
 11
-19.5060305873
 21
-2.7441281998
 31
0.0
  0
SPLINE
  5
373
100
AcDbEntity
  8
0
100
AcDbSpline
 62
7
  6
CONTINUOUS
 70
0
 71
3
 72
10
 73
6
 74
4
 42
0.0000001
 43
0.0000001
 44
0.0000000001
 12
-0.0602182549
 22
-0.0925135625
 32
0.0
 13
-0.0450094246
 23
-0.1008592478
 33
0.0
 40
0.0
 40
0.0
 40
0.0
 40
0.0
 40
0.2569460518
 40
0.9581731035
 40
1.0
 40
1.0
 40
1.0
 40
1.0
 10
-19.5578127253
 20
-2.8136032865
 30
0.0
 10
-19.5629703396
 20
-2.8215269513
 30
0.0
 10
-19.5815931616
 20
-2.8514714649
 30
0.0
 10
-19.5985922248
 20
-2.8841432439
 30
0.0
 10
-19.6098191925
 20
-2.9090876825
 30
0.0
 10
-19.6104467273
 20
-2.9104938923
 30
0.0
 11
-19.5578127253
 21
-2.8136032865
 31
0.0
 11
-19.5727903265
 21
-2.8376847898
 31
0.0
 11
-19.6085507991
 21
-2.9062815266
 31
0.0
 11
-19.6104467273
 21
-2.9104938923
 31
0.0
  0
SPLINE
  5
374
100
AcDbEntity
  8
0
100
AcDbSpline
 62
7
  6
CONTINUOUS
 70
0
 71
3
 72
9
 73
5
 74
3
 42
0.0000001
 43
0.0000001
 44
0.0000000001
 12
-0.0704817417
 22
-0.1579388207
 32
0.0
 13
-0.0351344731
 23
-0.1689352675
 33
0.0
 40
0.0
 40
0.0
 40
0.0
 40
0.0
 40
0.9038456965
 40
1.0
 40
1.0
 40
1.0
 40
1.0
 10
-19.6104467273
 20
-2.9104938923
 30
0.0
 10
-19.6316816003
 20
-2.9580780001
 30
0.0
 10
-19.6495543816
 20
-3.0133520497
 30
0.0
 10
-19.6618008074
 20
-3.0695909057
 30
0.0
 10
-19.6629269176
 20
-3.0750055234
 30
0.0
 11
-19.6104467273
 21
-2.9104938923
 31
0.0
 11
-19.659393695
 21
-3.0587846099
 31
0.0
 11
-19.6629269176
 21
-3.0750055234
 31
0.0
  0
SPLINE
  5
375
100
AcDbEntity
  8
0
100
AcDbSpline
 62
7
  6
CONTINUOUS
 70
0
 71
3
 72
14
 73
10
 74
8
 42
0.0000001
 43
0.0000001
 44
0.0000000001
 12
-0.0677951123
 22
-0.0574892729
 32
0.0
 13
-0.0608367052
 23
-0.064816574
 33
0.0
 40
0.0
 40
0.0
 40
0.0
 40
0.0
 40
0.0886967462
 40
0.2764881789
 40
0.3705807035
 40
0.4654496332
 40
0.5604778058
 40
0.6552901183
 40
1.0
 40
1.0
 40
1.0
 40
1.0
 10
-19.6693880331
 20
-5.0271162257
 30
0.0
 10
-19.6713924351
 20
-5.0288159295
 30
0.0
 10
-19.6776166357
 20
-5.0341424644
 30
0.0
 10
-19.6858549515
 20
-5.0414020619
 30
0.0
 10
-19.6941516711
 20
-5.04887086
 30
0.0
 10
-19.7002860284
 20
-5.0546311099
 30
0.0
 10
-19.7063602045
 20
-5.060484954
 30
0.0
 10
-19.7176660608
 20
-5.0715769508
 30
0.0
 10
-19.7267522728
 20
-5.0809107138
 30
0.0
 10
-19.7337426106
 20
-5.0883583516
 30
0.0
 11
-19.6693880331
 21
-5.0271162257
 31
0.0
 11
-19.6753778624
 21
-5.0322426513
 31
0.0
 11
-19.687911786
 21
-5.0432669214
 31
0.0
 11
-19.6941148479
 21
-5.0488769825
 31
0.0
 11
-19.7002699823
 21
-5.0546410299
 31
0.0
 11
-19.7063560366
 21
-5.0604984005
 31
0.0
 11
-19.7123709112
 21
-5.0664014806
 31
0.0
 11
-19.7337426106
 21
-5.0883583516
 31
0.0
  0
SPLINE
  5
376
100
AcDbEntity
  8
0
100
AcDbSpline
 62
7
  6
CONTINUOUS
 70
0
 71
3
 72
70
 73
66
 74
64
 42
0.0000001
 43
0.0000001
 44
0.0000000001
 12
-0.7363923408
 22
-0.784566299
 32
0.0
 13
0.3761540894
 23
-1.0080362085
 33
0.0
 40
0.0
 40
0.0
 40
0.0
 40
0.0
 40
0.002688294
 40
0.0336301225
 40
0.0643972774
 40
0.0950404467
 40
0.156147471
 40
0.2173774886
 40
0.2791415619
 40
0.3418402499
 40
0.3736663433
 40
0.4058678283
 40
0.4384889256
 40
0.4715721734
 40
0.5051583539
 40
0.5221528838
 40
0.5392876073
 40
0.5565671115
 40
0.5739958691
 40
0.5827676511
 40
0.5915783713
 40
0.6004285568
 40
0.6093187277
 40
0.6137789763
 40
0.618249413
 40
0.622730101
 40
0.6249743098
 40
0.6272211048
 40
0.6294704939
 40
0.6305961637
 40
0.6317224849
 40
0.6322858901
 40
0.6328494585
 40
0.633131304
 40
0.6332479587
 40
0.6334522366
 40
0.6335884176
 40
0.6341331071
 40
0.6346777418
 40
0.6352223219
 40
0.6357668473
 40
0.6368557351
 40
0.6390328618
 40
0.6412091313
 40
0.6433845529
 40
0.6455591354
 40
0.647732888
 40
0.6520779376
 40
0.6564197768
 40
0.6650940981
 40
0.6737564563
 40
0.68240744
 40
0.6910476403
 40
0.6996776503
 40
0.7082980652
 40
0.725512351
 40
0.7426954467
 40
0.7598521786
 40
0.7941047447
 40
0.8283102458
 40
0.86250783
 40
0.8967366726
 40
0.9310358416
 40
0.9654441656
 40
1.0
 40
1.0
 40
1.0
 40
1.0
 10
-19.7337426106
 20
-5.0883583516
 30
0.0
 10
-19.7344024903
 20
-5.0890613999
 30
0.0
 10
-19.7426423371
 20
-5.0978706139
 30
0.0
 10
-19.7580561434
 20
-5.115078084
 30
0.0
 10
-19.7791461009
 20
-5.1406297989
 30
0.0
 10
-19.8057177185
 20
-5.1756377658
 30
0.0
 10
-19.8361721336
 20
-5.2213562118
 30
0.0
 10
-19.8681555708
 20
-5.2792029236
 30
0.0
 10
-19.8955495672
 20
-5.3399839281
 30
0.0
 10
-19.914459544
 20
-5.3928155893
 30
0.0
 10
-19.9273020467
 20
-5.4364220127
 30
0.0
 10
-19.9358427565
 20
-5.4700244579
 30
0.0
 10
-19.94324259
 20
-5.5043569266
 30
0.0
 10
-19.9495020359
 20
-5.5394197264
 30
0.0
 10
-19.9537511092
 20
-5.5691292634
 30
0.0
 10
-19.9565862708
 20
-5.593249825
 30
0.0
 10
-19.9584363327
 20
-5.6115950851
 30
0.0
 10
-19.9600016001
 20
-5.6301230253
 30
0.0
 10
-19.9610663425
 20
-5.6456811959
 30
0.0
 10
-19.961776645
 20
-5.6582177657
 30
0.0
 10
-19.9622393559
 20
-5.6676864886
 30
0.0
 10
-19.9626308834
 20
-5.677200907
 30
0.0
 10
-19.9628975346
 20
-5.6851586356
 30
0.0
 10
-19.9630753835
 20
-5.691547514
 30
0.0
 10
-19.9631911264
 20
-5.6963560398
 30
0.0
 10
-19.9632727028
 20
-5.7003703589
 30
0.0
 10
-19.9633290815
 20
-5.7035875088
 30
0.0
 10
-19.9633669414
 20
-5.7060046144
 30
0.0
 10
-19.9633947747
 20
-5.7080206671
 30
0.0
 10
-19.9634148218
 20
-5.7096349352
 30
0.0
 10
-19.9634264196
 20
-5.7106445935
 30
0.0
 10
-19.9634351576
 20
-5.7114526764
 30
0.0
 10
-19.9634403519
 20
-5.7119579147
 30
0.0
 10
-19.9634438494
 20
-5.7123029358
 30
0.0
 10
-19.9634458926
 20
-5.7125191108
 30
0.0
 10
-19.9634452811
 20
-5.712683054
 30
0.0
 10
-19.9634453933
 20
-5.7130005063
 30
0.0
 10
-19.9634449911
 20
-5.7134400268
 30
0.0
 10
-19.9634443953
 20
-5.714026016
 30
0.0
 10
-19.9634434374
 20
-5.7146119463
 30
0.0
 10
-19.9634417848
 20
-5.7153930685
 30
0.0
 10
-19.9634378391
 20
-5.7167596898
 30
0.0
 10
-19.9634292256
 20
-5.7187115141
 30
0.0
 10
-19.9634141138
 20
-5.7210529875
 30
0.0
 10
-19.9633942303
 20
-5.7233935127
 30
0.0
 10
-19.9633695744
 20
-5.7257330899
 30
0.0
 10
-19.9633303443
 20
-5.7288506741
 30
0.0
 10
-19.9632693821
 20
-5.732745312
 30
0.0
 10
-19.9631464161
 20
-5.7389706033
 30
0.0
 10
-19.9629450305
 20
-5.7467429585
 30
0.0
 10
-19.9626269197
 20
-5.7560579475
 30
0.0
 10
-19.9622324473
 20
-5.7653577712
 30
0.0
 10
-19.9617616134
 20
-5.7746424231
 30
0.0
 10
-19.9612144172
 20
-5.7839119122
 30
0.0
 10
-19.960383438
 20
-5.7962446234
 30
0.0
 10
-19.9591539562
 20
-5.8116243992
 30
0.0
 10
-19.9573723064
 20
-5.8300288196
 30
0.0
 10
-19.9545911419
 20
-5.854472301
 30
0.0
 10
-19.9503500967
 20
-5.8848896403
 30
0.0
 10
-19.9440348601
 20
-5.9211677535
 30
0.0
 10
-19.9364964961
 20
-5.9572031076
 30
0.0
 10
-19.9277350719
 20
-5.9929952577
 30
0.0
 10
-19.9177505856
 20
-6.0285442731
 30
0.0
 10
-19.9065433029
 20
-6.0638494796
 30
0.0
 10
-19.8982769073
 20
-6.0871664534
 30
0.0
 10
-19.8939441345
 20
-6.0987776309
 30
0.0
 11
-19.7337426106
 21
-5.0883583516
 31
0.0
 11
-19.7357186129
 21
-5.0904708969
 31
0.0
 11
-19.7579274397
 21
-5.1152716661
 31
0.0
 11
-19.7789973916
 21
-5.1408037884
 31
0.0
 11
-19.7989284687
 21
-5.1670672636
 31
0.0
 11
-19.8353739981
 21
-5.2217882731
 31
0.0
 11
-19.867264028
 21
-5.2794346946
 31
0.0
 11
-19.8945985584
 21
-5.3400065282
 31
0.0
 11
-19.9173775893
 21
-5.4035037737
 31
0.0
 11
-19.9270587925
 21
-5.436349426
 31
0.0
 11
-19.9356011207
 21
-5.4699264313
 31
0.0
 11
-19.9430045741
 21
-5.5042347896
 31
0.0
 11
-19.9492691526
 21
-5.5392745009
 31
0.0
 11
-19.9543948562
 21
-5.5750455652
 31
0.0
 11
-19.9565306299
 21
-5.5932053548
 31
0.0
 11
-19.9583816849
 21
-5.6115479826
 31
0.0
 11
-19.9599480212
 21
-5.6300734486
 31
0.0
 11
-19.9612296387
 21
-5.6487817529
 31
0.0
 11
-19.961763678
 21
-5.6582044694
 31
0.0
 11
-19.9622265376
 21
-5.6676728954
 31
0.0
 11
-19.9626182175
 21
-5.677187031
 31
0.0
 11
-19.9629387177
 21
-5.6867468762
 31
0.0
 11
-19.9630722754
 21
-5.6915439399
 31
0.0
 11
-19.9631880382
 21
-5.6963524309
 31
0.0
 11
-19.9632860061
 21
-5.7011723494
 31
0.0
 11
-19.963328317
 21
-5.7035865939
 31
0.0
 11
-19.9633661791
 21
-5.7060036952
 31
0.0
 11
-19.9633995925
 21
-5.7084236534
 31
0.0
 11
-19.9634146309
 21
-5.7096347038
 31
0.0
 11
-19.9634285572
 21
-5.7108464685
 31
0.0
 11
-19.9634351032
 21
-5.7114526186
 31
0.0
 11
-19.9634413712
 21
-5.7120589473
 31
0.0
 11
-19.963444401
 21
-5.7123621786
 31
0.0
 11
-19.9634453952
 21
-5.7124876872
 31
0.0
 11
-19.9634453695
 21
-5.7127074762
 31
0.0
 11
-19.9634453291
 21
-5.7128539976
 31
0.0
 11
-19.9634449812
 21
-5.7134400463
 31
0.0
 11
-19.9634443349
 21
-5.7140260356
 31
0.0
 11
-19.9634433904
 21
-5.7146119657
 31
0.0
 11
-19.9634421476
 21
-5.7151978366
 31
0.0
 11
-19.9634387673
 21
-5.7163694005
 31
0.0
 11
-19.9634284273
 21
-5.7187118172
 31
0.0
 11
-19.9634133151
 21
-5.7210532857
 31
0.0
 11
-19.9633934306
 21
-5.7233938061
 31
0.0
 11
-19.9633687739
 21
-5.7257333783
 31
0.0
 11
-19.9633393449
 21
-5.7280720023
 31
0.0
 11
-19.96326617
 21
-5.732746406
 31
0.0
 11
-19.963173906
 21
-5.7374170169
 31
0.0
 11
-19.9629321107
 21
-5.746746861
 31
0.0
 11
-19.962613959
 21
-5.7560615344
 31
0.0
 11
-19.9622194508
 21
-5.7653610373
 31
0.0
 11
-19.9617485863
 21
-5.7746453697
 31
0.0
 11
-19.9612013654
 21
-5.7839145315
 31
0.0
 11
-19.9605777881
 21
-5.7931685227
 31
0.0
 11
-19.9591015641
 21
-5.8116309934
 31
0.0
 11
-19.9573199146
 21
-5.8300327818
 31
0.0
 11
-19.9552328394
 21
-5.848373888
 31
0.0
 11
-19.9501424121
 21
-5.8848740536
 31
0.0
 11
-19.9438302823
 21
-5.9211314901
 31
0.0
 11
-19.9362964499
 21
-5.9571461976
 31
0.0
 11
-19.927540915
 21
-5.992918176
 31
0.0
 11
-19.9175636775
 21
-6.0284474253
 31
0.0
 11
-19.9063647375
 21
-6.0637339456
 31
0.0
 11
-19.8939441345
 21
-6.0987776309
 31
0.0
  0
SPLINE
  5
377
100
AcDbEntity
  8
ASSI
100
AcDbSpline
 62
7
  6
CONTINUOUS
 70
0
 71
3
 72
16
 73
12
 74
10
 42
0.0000001
 43
0.0000001
 44
0.0000000001
 12
11.7278740979
 22
0.0
 32
0.0
 13
0.0
 23
-11.4728872726
 33
0.0
 40
0.0
 40
0.0
 40
0.0
 40
0.0
 40
0.0016141104
 40
0.0357505856
 40
0.1026382447
 40
0.2000525584
 40
0.3246907729
 40
0.4723150861
 40
0.6379022132
 40
0.8158160045
 40
1.0
 40
1.0
 40
1.0
 40
1.0
 10
33.6159885716
 20
6.6621922352
 30
0.0
 10
33.6222985994
 20
6.6621922352
 30
0.0
 10
33.7620580551
 20
6.6530090963
 30
0.0
 10
33.5836361144
 20
6.0427062007
 30
0.0
 10
33.7606999268
 20
5.4399415304
 30
0.0
 10
33.721280441
 20
4.2621485667
 30
0.0
 10
33.7741693027
 20
2.8770790474
 30
0.0
 10
33.786386242
 20
1.1928772576
 30
0.0
 10
33.8053439315
 20
-0.6821089565
 30
0.0
 10
33.8142771107
 20
-2.7010760966
 30
0.0
 10
33.8166912456
 20
-4.0856205536
 30
0.0
 10
33.8166912456
 20
-4.7899946264
 30
0.0
 11
33.6159885716
 21
6.6621922352
 31
0.0
 11
33.6345070781
 21
6.660948401
 31
0.0
 11
33.6709134655
 21
6.2710002701
 31
0.0
 11
33.7054494515
 21
5.5043832242
 31
0.0
 11
33.7369389546
 21
4.3872034874
 31
0.0
 11
33.7643096374
 21
2.9575052756
 31
0.0
 11
33.7866294242
 21
1.2639752467
 31
0.0
 11
33.8031382415
 21
-0.6357154652
 31
0.0
 11
33.8132739012
 21
-2.6768751715
 31
0.0
 11
33.8166912456
 21
-4.7899946264
 31
0.0
  0
SPLINE
  5
378
100
AcDbEntity
  8
0
100
AcDbSpline
 62
7
  6
CONTINUOUS
 70
0
 71
3
 72
16
 73
12
 74
10
 42
0.0000001
 43
0.0000001
 44
0.0000000001
 12
-11.7278740979
 22
0.0
 32
0.0
 13
-0.0
 23
-11.4728872726
 33
0.0
 40
0.0
 40
0.0
 40
0.0
 40
0.0
 40
0.0016141104
 40
0.0357505856
 40
0.1026382447
 40
0.2000525584
 40
0.3246907729
 40
0.4723150861
 40
0.6379022132
 40
0.8158160045
 40
1.0
 40
1.0
 40
1.0
 40
1.0
 10
-33.6159885716
 20
6.6621922352
 30
0.0
 10
-33.6222985994
 20
6.6621922352
 30
0.0
 10
-33.7620580551
 20
6.6530090963
 30
0.0
 10
-33.5836361144
 20
6.0427062007
 30
0.0
 10
-33.7606999268
 20
5.4399415304
 30
0.0
 10
-33.721280441
 20
4.2621485667
 30
0.0
 10
-33.7741693027
 20
2.8770790474
 30
0.0
 10
-33.786386242
 20
1.1928772576
 30
0.0
 10
-33.8053439315
 20
-0.6821089565
 30
0.0
 10
-33.8142771107
 20
-2.7010760966
 30
0.0
 10
-33.8166912456
 20
-4.0856205536
 30
0.0
 10
-33.8166912456
 20
-4.7899946264
 30
0.0
 11
-33.6159885716
 21
6.6621922352
 31
0.0
 11
-33.6345070781
 21
6.660948401
 31
0.0
 11
-33.6709134655
 21
6.2710002701
 31
0.0
 11
-33.7054494515
 21
5.5043832242
 31
0.0
 11
-33.7369389546
 21
4.3872034874
 31
0.0
 11
-33.7643096374
 21
2.9575052756
 31
0.0
 11
-33.7866294242
 21
1.2639752467
 31
0.0
 11
-33.8031382415
 21
-0.6357154652
 31
0.0
 11
-33.8132739012
 21
-2.6768751715
 31
0.0
 11
-33.8166912456
 21
-4.7899946264
 31
0.0
  0
SPLINE
  5
379
100
AcDbEntity
  8
0
100
AcDbSpline
 62
7
  6
CONTINUOUS
 70
0
 71
3
 72
13
 73
9
 74
7
 42
0.0000001
 43
0.0000001
 44
0.0000000001
 12
-0.6694750092
 22
-0.4425699075
 32
0.0
 13
-0.0162137315
 23
-0.8023727475
 33
0.0
 40
0.0
 40
0.0
 40
0.0
 40
0.0
 40
0.1840530994
 40
0.3571230805
 40
0.5231763455
 40
0.6840293438
 40
0.8426869342
 40
1.0
 40
1.0
 40
1.0
 40
1.0
 10
-33.0
 20
-34.1899946264
 30
0.0
 10
-33.0410729835
 20
-34.2171467474
 30
0.0
 10
-33.1162167627
 20
-34.2771196413
 30
0.0
 10
-33.2093886258
 20
-34.3823730609
 30
0.0
 10
-33.2809204227
 20
-34.4960684933
 30
0.0
 10
-33.3322281245
 20
-34.6159691665
 30
0.0
 10
-33.3639489878
 20
-34.7400111582
 30
0.0
 10
-33.3721778623
 20
-34.8245285128
 30
0.0
 10
-33.3730280729
 20
-34.8666030851
 30
0.0
 11
-33.0
 21
-34.1899946264
 31
0.0
 11
-33.1154614836
 21
-34.2821178842
 31
0.0
 11
-33.2075452047
 21
-34.3861006002
 31
0.0
 11
-33.2785094839
 21
-34.4988982741
 31
0.0
 11
-33.3292905113
 21
-34.6175811338
 31
0.0
 11
-33.3608133637
 21
-34.7409458796
 31
0.0
 11
-33.3730280729
 21
-34.8666030851
 31
0.0
  0
SPLINE
  5
37A
100
AcDbEntity
  8
0
100
AcDbSpline
 62
253
  6
CONTINUOUS
 70
0
 71
3
 72
14
 73
10
 74
8
 42
0.0000001
 43
0.0000001
 44
0.0000000001
 12
-0.895981061
 22
-0.4872827509
 32
0.0
 13
0.0005990088
 23
1.0199147916
 33
0.0
 40
0.0
 40
0.0
 40
0.0
 40
0.0
 40
0.0227315002
 40
0.0947835825
 40
0.2145760824
 40
0.375760203
 40
0.5688134736
 40
0.7812993176
 40
1.0
 40
1.0
 40
1.0
 40
1.0
 10
-33.4499217485
 20
-34.9093905624
 30
0.0
 10
-33.4567107463
 20
-34.913082785
 30
0.0
 10
-33.4490553199
 20
-34.8529098752
 30
0.0
 10
-33.4625220146
 20
-34.8078397037
 30
0.0
 10
-33.4598129606
 20
-34.6721217031
 30
0.0
 10
-33.4649563245
 20
-34.517585721
 30
0.0
 10
-33.4661331564
 20
-34.3225908624
 30
0.0
 10
-33.4676310589
 20
-34.1111121968
 30
0.0
 10
-33.4679066081
 20
-33.9643466466
 30
0.0
 10
-33.4678629402
 20
-33.8899946264
 30
0.0
 11
-33.4499217485
 21
-34.9093905624
 31
0.0
 11
-33.4538212666
 21
-34.886536662
 31
0.0
 11
-33.4576198546
 21
-34.8131479061
 31
0.0
 11
-33.4610766631
 21
-34.6910186543
 31
0.0
 11
-33.4639670552
 21
-34.5266499688
 31
0.0
 11
-33.4661224884
 21
-34.3297638466
 31
0.0
 11
-33.4674317998
 21
-34.113050309
 31
0.0
 11
-33.4678629402
 21
-33.8899946264
 31
0.0
  0
SPLINE
  5
37B
100
AcDbEntity
  8
0
100
AcDbSpline
 62
253
  6
CONTINUOUS
 70
0
 71
3
 72
14
 73
10
 74
8
 42
0.0000001
 43
0.0000001
 44
0.0000000001
 12
-0.0005992179
 22
1.0199149503
 32
0.0
 13
0.8959913034
 23
-0.4872642498
 33
0.0
 40
0.0
 40
0.0
 40
0.0
 40
0.0
 40
0.2188739895
 40
0.431711115
 40
0.6249571883
 40
0.7859928181
 40
0.9054638983
 40
0.9773063147
 40
1.0
 40
1.0
 40
1.0
 40
1.0
 10
-33.4678629402
 20
-28.6899946264
 30
0.0
 10
-33.467906658
 20
-28.615583675
 30
0.0
 10
-33.4676305884
 20
-28.4686393337
 30
0.0
 10
-33.4661292136
 20
-28.2569189251
 30
0.0
 10
-33.464949155
 20
-28.0617849851
 30
0.0
 10
-33.459804647
 20
-27.9073407979
 30
0.0
 10
-33.462497661
 20
-27.7718922534
 30
0.0
 10
-33.4490703573
 20
-27.7269314507
 30
0.0
 10
-33.45669953
 20
-27.6669127498
 30
0.0
 10
-33.4499217485
 20
-27.6705986904
 30
0.0
 11
-33.4678629402
 21
-28.6899946264
 31
0.0
 11
-33.4674311052
 21
-28.4667621514
 31
0.0
 11
-33.4661180205
 21
-28.2496903191
 31
0.0
 11
-33.4639568348
 21
-28.0526075752
 31
0.0
 11
-33.4610637884
 21
-27.8883903821
 31
0.0
 11
-33.457610445
 21
-27.7665889655
 31
0.0
 11
-33.4538181522
 21
-27.6934140001
 31
0.0
 11
-33.4499217485
 21
-27.6705986904
 31
0.0
  0
SPLINE
  5
37C
100
AcDbEntity
  8
0
100
AcDbSpline
 62
7
  6
CONTINUOUS
 70
0
 71
3
 72
13
 73
9
 74
7
 42
0.0000001
 43
0.0000001
 44
0.0000000001
 12
0.0162137278
 22
-0.8023728307
 32
0.0
 13
0.6694750811
 23
-0.4425699495
 33
0.0
 40
0.0
 40
0.0
 40
0.0
 40
0.0
 40
0.1574205711
 40
0.3161232375
 40
0.4769737906
 40
0.6429918086
 40
0.8160063404
 40
1.0
 40
1.0
 40
1.0
 40
1.0
 10
-33.3730280729
 20
-27.7133861676
 30
0.0
 10
-33.3721772815
 20
-27.7554894974
 30
0.0
 10
-33.3639399311
 20
-27.8400478018
 30
0.0
 10
-33.3321933575
 20
-27.9641250863
 30
0.0
 10
-33.2808673678
 20
-28.0840200898
 30
0.0
 10
-33.2093345069
 20
-28.1976850064
 30
0.0
 10
-33.1161807635
 20
-28.30290008
 30
0.0
 10
-33.0410597234
 20
-28.3628512715
 30
0.0
 10
-33.0
 20
-28.3899946264
 30
0.0
 11
-33.3730280729
 21
-27.7133861676
 31
0.0
 11
-33.3607984293
 21
-27.839128618
 31
0.0
 11
-33.3292510692
 21
-27.9625244514
 31
0.0
 11
-33.2784534733
 21
-28.0811981005
 31
0.0
 11
-33.2074898448
 21
-28.1939627793
 31
0.0
 11
-33.1154268642
 21
-28.29790444
 31
0.0
 11
-33.0
 21
-28.3899946264
 31
0.0
  0
SPLINE
  5
37D
100
AcDbEntity
  8
0
100
AcDbSpline
 62
7
  6
CONTINUOUS
 70
0
 71
3
 72
13
 73
9
 74
7
 42
0.0000001
 43
0.0000001
 44
0.0000000001
 12
-0.4425699075
 22
0.6694750092
 32
0.0
 13
-0.8023727475
 23
0.0162137315
 33
0.0
 40
0.0
 40
0.0
 40
0.0
 40
0.0
 40
0.1840530994
 40
0.3571230805
 40
0.5231763455
 40
0.6840293438
 40
0.8426869342
 40
1.0
 40
1.0
 40
1.0
 40
1.0
 10
-20.4
 20
35.7100053736
 30
0.0
 10
-20.4271521211
 20
35.7510783571
 30
0.0
 10
-20.487125015
 20
35.8262221364
 30
0.0
 10
-20.5923784345
 20
35.9193939995
 30
0.0
 10
-20.7060738669
 20
35.9909257964
 30
0.0
 10
-20.8259745402
 20
36.0422334981
 30
0.0
 10
-20.9500165319
 20
36.0739543614
 30
0.0
 10
-21.0345338865
 20
36.0821832359
 30
0.0
 10
-21.0766084587
 20
36.0830334465
 30
0.0
 11
-20.4
 21
35.7100053736
 31
0.0
 11
-20.4921232579
 21
35.8254668573
 31
0.0
 11
-20.5961059739
 21
35.9175505784
 31
0.0
 11
-20.7089036477
 21
35.9885148575
 31
0.0
 11
-20.8275865075
 21
36.039295885
 31
0.0
 11
-20.9509512533
 21
36.0708187374
 31
0.0
 11
-21.0766084587
 21
36.0830334465
 31
0.0
  0
SPLINE
  5
37E
100
AcDbEntity
  8
0
100
AcDbSpline
 62
253
  6
CONTINUOUS
 70
0
 71
3
 72
14
 73
10
 74
8
 42
0.0000001
 43
0.0000001
 44
0.0000000001
 12
-0.4876097094
 22
0.8958032431
 32
0.0
 13
1.0199148648
 23
-0.0005897124
 33
0.0
 40
0.0
 40
0.0
 40
0.0
 40
0.0
 40
0.0227154308
 40
0.094674596
 40
0.2143228874
 40
0.3754390767
 40
0.5685763019
 40
0.7812174531
 40
1.0
 40
1.0
 40
1.0
 40
1.0
 10
-21.119395936
 20
36.1599271221
 30
0.0
 10
-21.1230880242
 20
36.1667099743
 30
0.0
 10
-21.0629764807
 20
36.1590694115
 30
0.0
 10
-21.0179612513
 20
36.1725152035
 30
0.0
 10
-20.8823607474
 20
36.1698152412
 30
0.0
 10
-20.7278686338
 20
36.1749582719
 30
0.0
 10
-20.5328129982
 20
36.1761367421
 30
0.0
 10
-20.3212262788
 20
36.1776365077
 30
0.0
 10
-20.1743798572
 20
36.1779113201
 30
0.0
 10
-20.1
 20
36.1778683139
 30
0.0
 11
-21.119395936
 21
36.1599271221
 31
0.0
 11
-21.0965584344
 21
36.163825316
 31
0.0
 11
-21.0232644223
 21
36.167621087
 31
0.0
 11
-20.9012822569
 21
36.1710763099
 31
0.0
 11
-20.7369828755
 21
36.1739678567
 31
0.0
 11
-20.5400111366
 21
36.176125843
 31
0.0
 11
-20.3231391919
 21
36.1774368468
 31
0.0
 11
-20.1
 21
36.1778683139
 31
0.0
  0
SPLINE
  5
37F
100
AcDbEntity
  8
0
100
AcDbSpline
 62
253
  6
CONTINUOUS
 70
0
 71
3
 72
14
 73
10
 74
8
 42
0.0000001
 43
0.0000001
 44
0.0000000001
 12
1.0199148525
 22
0.0005874065
 32
0.0
 13
-0.48775557
 23
-0.8957238164
 33
0.0
 40
0.0
 40
0.0
 40
0.0
 40
0.0
 40
0.2187656853
 40
0.4313763711
 40
0.6244961359
 40
0.7856258121
 40
0.9053031771
 40
0.9772810705
 40
1.0
 40
1.0
 40
1.0
 40
1.0
 10
-14.9
 20
36.1778683139
 30
0.0
 10
-14.8256258761
 20
36.1779111487
 30
0.0
 10
-14.6787955683
 20
36.1776366132
 30
0.0
 10
-14.4672307561
 20
36.1761371158
 30
0.0
 10
-14.2721870117
 20
36.174958825
 30
0.0
 10
-14.1176872301
 20
36.1698162529
 30
0.0
 10
-13.9820608845
 20
36.1725168055
 30
0.0
 10
-13.9370384696
 20
36.1590689882
 30
0.0
 10
-13.8769103025
 20
36.1667104175
 30
0.0
 10
-13.880604064
 20
36.1599271221
 30
0.0
 11
-14.9
 21
36.1778683139
 31
0.0
 11
-14.6768780084
 21
36.1774369124
 31
0.0
 11
-14.4600371372
 21
36.1761262465
 31
0.0
 11
-14.2630832044
 21
36.1739687792
 31
0.0
 11
-14.0987700634
 21
36.171077471
 31
0.0
 11
-13.9767582441
 21
36.167621931
 31
0.0
 11
-13.9034451345
 21
36.163825613
 31
0.0
 11
-13.880604064
 21
36.1599271221
 31
0.0
  0
SPLINE
  5
380
100
AcDbEntity
  8
0
100
AcDbSpline
 62
7
  6
CONTINUOUS
 70
0
 71
3
 72
13
 73
9
 74
7
 42
0.0000001
 43
0.0000001
 44
0.0000000001
 12
-0.8023728305
 22
-0.0162137278
 32
0.0
 13
-0.4425699494
 23
-0.669475081
 33
0.0
 40
0.0
 40
0.0
 40
0.0
 40
0.0
 40
0.1574203525
 40
0.3161229382
 40
0.476973493
 40
0.6429915894
 40
0.8160062121
 40
1.0
 40
1.0
 40
1.0
 40
1.0
 10
-13.9233915413
 20
36.0830334465
 30
0.0
 10
-13.9654948125
 20
36.0821826563
 30
0.0
 10
-14.0500530366
 20
36.0739453229
 30
0.0
 10
-14.1741302513
 20
36.0421988003
 30
0.0
 10
-14.2940252694
 20
35.9908728452
 30
0.0
 10
-14.4076902431
 20
35.9193399879
 30
0.0
 10
-14.5129053927
 20
35.8261862088
 30
0.0
 10
-14.5728566262
 20
35.7510651257
 30
0.0
 10
-14.6
 20
35.7100053736
 30
0.0
 11
-13.9233915413
 21
36.0830334465
 31
0.0
 11
-14.0491338183
 21
36.0708038334
 31
0.0
 11
-14.1725295968
 21
36.0392565202
 31
0.0
 11
-14.2912032618
 21
35.988458958
 31
0.0
 11
-14.4039680116
 21
35.917495324
 31
0.0
 11
-14.5079097422
 21
35.8254323125
 31
0.0
 11
-14.6
 21
35.7100053736
 31
0.0
  0
SPLINE
  5
381
100
AcDbEntity
  8
0
100
AcDbSpline
 62
7
  6
CONTINUOUS
 70
0
 71
3
 72
13
 73
9
 74
7
 42
0.0000001
 43
0.0000001
 44
0.0000000001
 12
0.6694750094
 22
0.4425699076
 32
0.0
 13
0.0162137315
 23
0.8023727477
 33
0.0
 40
0.0
 40
0.0
 40
0.0
 40
0.0
 40
0.1840529404
 40
0.3571228086
 40
0.523175977
 40
0.6840289734
 40
0.8426866641
 40
1.0
 40
1.0
 40
1.0
 40
1.0
 10
33.0
 20
24.6100053736
 30
0.0
 10
33.041072948
 20
24.6371574713
 30
0.0
 10
33.1162166739
 20
24.697130313
 30
0.0
 10
33.2093884928
 20
24.8023836385
 30
0.0
 10
33.2809202942
 20
24.9160790002
 30
0.0
 10
33.3322280389
 20
25.0359796556
 30
0.0
 10
33.3639489653
 20
25.1600217338
 30
0.0
 10
33.3721778608
 20
25.2445391879
 30
0.0
 10
33.3730280729
 20
25.2866138324
 30
0.0
 11
33.0
 21
24.6100053736
 31
0.0
 11
33.115461391
 21
24.7021285431
 31
0.0
 11
33.2075450737
 21
24.8061111721
 31
0.0
 11
33.2785093464
 21
24.9189087584
 31
0.0
 11
33.3292904156
 21
25.0375915988
 31
0.0
 11
33.3608133262
 21
25.1609564127
 31
0.0
 11
33.3730280729
 21
25.2866138324
 31
0.0
  0
SPLINE
  5
382
100
AcDbEntity
  8
0
100
AcDbSpline
 62
253
  6
CONTINUOUS
 70
0
 71
3
 72
14
 73
10
 74
8
 42
0.0000001
 43
0.0000001
 44
0.0000000001
 12
0.8958032431
 22
0.4876097094
 32
0.0
 13
-0.0005897124
 23
-1.0199148648
 33
0.0
 40
0.0
 40
0.0
 40
0.0
 40
0.0
 40
0.0227154308
 40
0.094674596
 40
0.2143228874
 40
0.3754390767
 40
0.5685763019
 40
0.7812174531
 40
1.0
 40
1.0
 40
1.0
 40
1.0
 10
33.4499217485
 20
25.3294013096
 30
0.0
 10
33.4567046007
 20
25.3330933979
 30
0.0
 10
33.4490640378
 20
25.2729818543
 30
0.0
 10
33.4625098299
 20
25.227966625
 30
0.0
 10
33.4598098675
 20
25.092366121
 30
0.0
 10
33.4649528982
 20
24.9378740074
 30
0.0
 10
33.4661313685
 20
24.7428183718
 30
0.0
 10
33.4676311341
 20
24.5312316524
 30
0.0
 10
33.4679059465
 20
24.3843852309
 30
0.0
 10
33.4678629402
 20
24.3100053736
 30
0.0
 11
33.4499217485
 21
25.3294013096
 31
0.0
 11
33.4538199423
 21
25.306563808
 31
0.0
 11
33.4576157134
 21
25.233269796
 31
0.0
 11
33.4610709363
 21
25.1112876305
 31
0.0
 11
33.463962483
 21
24.9469882492
 31
0.0
 11
33.4661204693
 21
24.7500165103
 31
0.0
 11
33.4674314732
 21
24.5331445655
 31
0.0
 11
33.4678629402
 21
24.3100053736
 31
0.0
  0
SPLINE
  5
383
100
AcDbEntity
  8
0
100
AcDbSpline
 62
253
  6
CONTINUOUS
 70
0
 71
3
 72
14
 73
10
 74
8
 42
0.0000001
 43
0.0000001
 44
0.0000000001
 12
0.0005874065
 22
-1.0199148525
 32
0.0
 13
-0.8957238164
 23
0.48775557
 33
0.0
 40
0.0
 40
0.0
 40
0.0
 40
0.0
 40
0.2187656853
 40
0.4313763711
 40
0.6244961359
 40
0.7856258121
 40
0.9053031771
 40
0.9772810705
 40
1.0
 40
1.0
 40
1.0
 40
1.0
 10
33.4678629402
 20
19.1100053736
 30
0.0
 10
33.467905775
 20
19.0356312498
 30
0.0
 10
33.4676312396
 20
18.8888009419
 30
0.0
 10
33.4661317422
 20
18.6772361297
 30
0.0
 10
33.4649534513
 20
18.4821923854
 30
0.0
 10
33.4598108793
 20
18.3276926037
 30
0.0
 10
33.4625114318
 20
18.1920662582
 30
0.0
 10
33.4490636145
 20
18.1470438432
 30
0.0
 10
33.4567050439
 20
18.0869156762
 30
0.0
 10
33.4499217485
 20
18.0906094376
 30
0.0
 11
33.4678629402
 21
19.1100053736
 31
0.0
 11
33.4674315388
 21
18.8868833821
 31
0.0
 11
33.4661208728
 21
18.6700425108
 31
0.0
 11
33.4639634056
 21
18.473088578
 31
0.0
 11
33.4610720974
 21
18.308775437
 31
0.0
 11
33.4576165574
 21
18.1867636177
 31
0.0
 11
33.4538202393
 21
18.1134505082
 31
0.0
 11
33.4499217485
 21
18.0906094376
 31
0.0
  0
SPLINE
  5
384
100
AcDbEntity
  8
0
100
AcDbSpline
 62
7
  6
CONTINUOUS
 70
0
 71
3
 72
13
 73
9
 74
7
 42
0.0000001
 43
0.0000001
 44
0.0000000001
 12
-0.0162137278
 22
0.8023728305
 32
0.0
 13
-0.669475081
 23
0.4425699494
 33
0.0
 40
0.0
 40
0.0
 40
0.0
 40
0.0
 40
0.1574203525
 40
0.3161229382
 40
0.476973493
 40
0.6429915894
 40
0.8160062121
 40
1.0
 40
1.0
 40
1.0
 40
1.0
 10
33.3730280729
 20
18.1333969149
 30
0.0
 10
33.3721772827
 20
18.1755001862
 30
0.0
 10
33.3639399493
 20
18.2600584103
 30
0.0
 10
33.3321934267
 20
18.3841356249
 30
0.0
 10
33.2808674716
 20
18.504030643
 30
0.0
 10
33.2093346142
 20
18.6176956167
 30
0.0
 10
33.1161808351
 20
18.7229107663
 30
0.0
 10
33.041059752
 20
18.7828619998
 30
0.0
 10
33.0
 20
18.8100053736
 30
0.0
 11
33.3730280729
 21
18.1333969149
 31
0.0
 11
33.3607984597
 21
18.2591391919
 31
0.0
 11
33.3292511465
 21
18.3825349704
 31
0.0
 11
33.2784535843
 21
18.5012086355
 31
0.0
 11
33.2074899504
 21
18.6139733852
 31
0.0
 11
33.1154269389
 21
18.7179151159
 31
0.0
 11
33.0
 21
18.8100053736
 31
0.0
  0
SPLINE
  5
385
100
AcDbEntity
  8
0
100
AcDbSpline
 62
7
  6
CONTINUOUS
 70
0
 71
3
 72
13
 73
9
 74
7
 42
0.0000001
 43
0.0000001
 44
0.0000000001
 12
0.4425699075
 22
-0.6694750092
 32
0.0
 13
0.8023727475
 23
-0.0162137315
 33
0.0
 40
0.0
 40
0.0
 40
0.0
 40
0.0
 40
0.1840530994
 40
0.3571230805
 40
0.5231763455
 40
0.6840293438
 40
0.8426869342
 40
1.0
 40
1.0
 40
1.0
 40
1.0
 10
20.4
 20
-45.2899946264
 30
0.0
 10
20.4271521211
 20
-45.3310676098
 30
0.0
 10
20.487125015
 20
-45.4062113891
 30
0.0
 10
20.5923784345
 20
-45.4993832522
 30
0.0
 10
20.7060738669
 20
-45.5709150491
 30
0.0
 10
20.8259745402
 20
-45.6222227508
 30
0.0
 10
20.9500165319
 20
-45.6539436141
 30
0.0
 10
21.0345338865
 20
-45.6621724887
 30
0.0
 10
21.0766084587
 20
-45.6630226993
 30
0.0
 11
20.4
 21
-45.2899946264
 31
0.0
 11
20.4921232579
 21
-45.40545611
 31
0.0
 11
20.5961059739
 21
-45.4975398311
 31
0.0
 11
20.7089036477
 21
-45.5685041102
 31
0.0
 11
20.8275865075
 21
-45.6192851377
 31
0.0
 11
20.9509512533
 21
-45.6508079901
 31
0.0
 11
21.0766084587
 21
-45.6630226993
 31
0.0
  0
SPLINE
  5
386
100
AcDbEntity
  8
0
100
AcDbSpline
 62
253
  6
CONTINUOUS
 70
0
 71
3
 72
14
 73
10
 74
8
 42
0.0000001
 43
0.0000001
 44
0.0000000001
 12
0.4876097094
 22
-0.8958032431
 32
0.0
 13
-1.0199148648
 23
0.0005897124
 33
0.0
 40
0.0
 40
0.0
 40
0.0
 40
0.0
 40
0.0227154308
 40
0.094674596
 40
0.2143228874
 40
0.3754390767
 40
0.5685763019
 40
0.7812174531
 40
1.0
 40
1.0
 40
1.0
 40
1.0
 10
21.119395936
 20
-45.7399163748
 30
0.0
 10
21.1230880242
 20
-45.746699227
 30
0.0
 10
21.0629764807
 20
-45.7390586642
 30
0.0
 10
21.0179612513
 20
-45.7525044562
 30
0.0
 10
20.8823607474
 20
-45.7498044939
 30
0.0
 10
20.7278686338
 20
-45.7549475246
 30
0.0
 10
20.5328129982
 20
-45.7561259948
 30
0.0
 10
20.3212262788
 20
-45.7576257604
 30
0.0
 10
20.1743798572
 20
-45.7579005728
 30
0.0
 10
20.1
 20
-45.7578575666
 30
0.0
 11
21.119395936
 21
-45.7399163748
 31
0.0
 11
21.0965584344
 21
-45.7438145687
 31
0.0
 11
21.0232644223
 21
-45.7476103397
 31
0.0
 11
20.9012822569
 21
-45.7510655627
 31
0.0
 11
20.7369828755
 21
-45.7539571094
 31
0.0
 11
20.5400111366
 21
-45.7561150957
 31
0.0
 11
20.3231391919
 21
-45.7574260995
 31
0.0
 11
20.1
 21
-45.7578575666
 31
0.0
  0
SPLINE
  5
387
100
AcDbEntity
  8
0
100
AcDbSpline
 62
253
  6
CONTINUOUS
 70
0
 71
3
 72
14
 73
10
 74
8
 42
0.0000001
 43
0.0000001
 44
0.0000000001
 12
-1.0199148525
 22
-0.0005874065
 32
0.0
 13
0.48775557
 23
0.8957238164
 33
0.0
 40
0.0
 40
0.0
 40
0.0
 40
0.0
 40
0.2187656853
 40
0.4313763711
 40
0.6244961359
 40
0.7856258121
 40
0.9053031771
 40
0.9772810705
 40
1.0
 40
1.0
 40
1.0
 40
1.0
 10
14.9
 20
-45.7578575666
 30
0.0
 10
14.8256258761
 20
-45.7579004014
 30
0.0
 10
14.6787955683
 20
-45.7576258659
 30
0.0
 10
14.4672307561
 20
-45.7561263685
 30
0.0
 10
14.2721870117
 20
-45.7549480777
 30
0.0
 10
14.1176872301
 20
-45.7498055057
 30
0.0
 10
13.9820608845
 20
-45.7525060582
 30
0.0
 10
13.9370384696
 20
-45.7390582409
 30
0.0
 10
13.8769103025
 20
-45.7466996702
 30
0.0
 10
13.880604064
 20
-45.7399163748
 30
0.0
 11
14.9
 21
-45.7578575666
 31
0.0
 11
14.6768780084
 21
-45.7574261651
 31
0.0
 11
14.4600371372
 21
-45.7561154992
 31
0.0
 11
14.2630832044
 21
-45.7539580319
 31
0.0
 11
14.0987700634
 21
-45.7510667237
 31
0.0
 11
13.9767582441
 21
-45.7476111837
 31
0.0
 11
13.9034451345
 21
-45.7438148657
 31
0.0
 11
13.880604064
 21
-45.7399163748
 31
0.0
  0
SPLINE
  5
388
100
AcDbEntity
  8
0
100
AcDbSpline
 62
7
  6
CONTINUOUS
 70
0
 71
3
 72
16
 73
12
 74
10
 42
0.0000001
 43
0.0000001
 44
0.0000000001
 12
0.0
 22
-11.7278740979
 32
0.0
 13
-11.4728872726
 23
0.0
 33
0.0
 40
0.0
 40
0.0
 40
0.0
 40
0.0
 40
0.0016141104
 40
0.0357505856
 40
0.1026382447
 40
0.2000525584
 40
0.3246907729
 40
0.4723150861
 40
0.6379022132
 40
0.8158160045
 40
1.0
 40
1.0
 40
1.0
 40
1.0
 10
11.4521868615
 20
-45.9059831979
 30
0.0
 10
11.4521868615
 20
-45.9122932257
 30
0.0
 10
11.4430037227
 20
-46.0520526815
 30
0.0
 10
10.832700827
 20
-45.8736307407
 30
0.0
 10
10.2299361568
 20
-46.0506945532
 30
0.0
 10
9.0521431931
 20
-46.0112750673
 30
0.0
 10
7.6670736738
 20
-46.064163929
 30
0.0
 10
5.9828718839
 20
-46.0763808683
 30
0.0
 10
4.1078856698
 20
-46.0953385579
 30
0.0
 10
2.0889185298
 20
-46.1042717371
 30
0.0
 10
0.7043740727
 20
-46.106685872
 30
0.0
 10
-0.0
 20
-46.106685872
 30
0.0
 11
11.4521868615
 21
-45.9059831979
 31
0.0
 11
11.4509430274
 21
-45.9245017044
 31
0.0
 11
11.0609948965
 21
-45.9609080918
 31
0.0
 11
10.2943778506
 21
-45.9954440779
 31
0.0
 11
9.1771981137
 21
-46.0269335809
 31
0.0
 11
7.7474999019
 21
-46.0543042638
 31
0.0
 11
6.0539698731
 21
-46.0766240506
 31
0.0
 11
4.1542791612
 21
-46.0931328678
 31
0.0
 11
2.1131194549
 21
-46.1032685275
 31
0.0
 11
-0.0
 21
-46.106685872
 31
0.0
  0
SPLINE
  5
389
100
AcDbEntity
  8
0
100
AcDbSpline
 62
7
  6
CONTINUOUS
 70
0
 71
3
 72
13
 73
9
 74
7
 42
0.0000001
 43
0.0000001
 44
0.0000000001
 12
0.8023728305
 22
0.0162137278
 32
0.0
 13
0.4425699494
 23
0.669475081
 33
0.0
 40
0.0
 40
0.0
 40
0.0
 40
0.0
 40
0.1574203525
 40
0.3161229382
 40
0.476973493
 40
0.6429915894
 40
0.8160062121
 40
1.0
 40
1.0
 40
1.0
 40
1.0
 10
13.9233915413
 20
-45.6630226993
 30
0.0
 10
13.9654948125
 20
-45.662171909
 30
0.0
 10
14.0500530366
 20
-45.6539345756
 30
0.0
 10
14.1741302513
 20
-45.6221880531
 30
0.0
 10
14.2940252694
 20
-45.570862098
 30
0.0
 10
14.4076902431
 20
-45.4993292406
 30
0.0
 10
14.5129053927
 20
-45.4061754615
 30
0.0
 10
14.5728566262
 20
-45.3310543784
 30
0.0
 10
14.6
 20
-45.2899946264
 30
0.0
 11
13.9233915413
 21
-45.6630226993
 31
0.0
 11
14.0491338183
 21
-45.6507930861
 31
0.0
 11
14.1725295968
 21
-45.6192457729
 31
0.0
 11
14.2912032618
 21
-45.5684482107
 31
0.0
 11
14.4039680116
 21
-45.4974845767
 31
0.0
 11
14.5079097422
 21
-45.4054215652
 31
0.0
 11
14.6
 21
-45.2899946264
 31
0.0
  0
SPLINE
  5
38A
100
AcDbEntity
  8
0
100
AcDbSpline
 62
7
  6
CONTINUOUS
 70
0
 71
3
 72
16
 73
12
 74
10
 42
0.0000001
 43
0.0000001
 44
0.0000000001
 12
-11.4728872726
 22
0.0
 32
0.0
 13
0.0
 23
11.7278740979
 33
0.0
 40
0.0
 40
0.0
 40
0.0
 40
0.0
 40
0.1841839955
 40
0.3620977868
 40
0.5276849139
 40
0.6753092271
 40
0.7999474416
 40
0.8973617553
 40
0.9642494144
 40
0.9983858896
 40
1.0
 40
1.0
 40
1.0
 40
1.0
 10
-0.0
 20
-46.106685872
 30
0.0
 10
-0.7043740727
 20
-46.106685872
 30
0.0
 10
-2.0889185298
 20
-46.1042717371
 30
0.0
 10
-4.1078856698
 20
-46.0953385579
 30
0.0
 10
-5.9828718839
 20
-46.0763808683
 30
0.0
 10
-7.6670736738
 20
-46.064163929
 30
0.0
 10
-9.0521431931
 20
-46.0112750673
 30
0.0
 10
-10.2299361568
 20
-46.0506945532
 30
0.0
 10
-10.832700827
 20
-45.8736307407
 30
0.0
 10
-11.4430037227
 20
-46.0520526815
 30
0.0
 10
-11.4521868615
 20
-45.9122932257
 30
0.0
 10
-11.4521868615
 20
-45.9059831979
 30
0.0
 11
-0.0
 21
-46.106685872
 31
0.0
 11
-2.1131194549
 21
-46.1032685275
 31
0.0
 11
-4.1542791612
 21
-46.0931328678
 31
0.0
 11
-6.0539698731
 21
-46.0766240506
 31
0.0
 11
-7.7474999019
 21
-46.0543042638
 31
0.0
 11
-9.1771981137
 21
-46.0269335809
 31
0.0
 11
-10.2943778506
 21
-45.9954440779
 31
0.0
 11
-11.0609948965
 21
-45.9609080918
 31
0.0
 11
-11.4509430274
 21
-45.9245017044
 31
0.0
 11
-11.4521868615
 21
-45.9059831979
 31
0.0
  0
SPLINE
  5
38B
100
AcDbEntity
  8
0
100
AcDbSpline
 62
7
  6
CONTINUOUS
 70
0
 71
3
 72
16
 73
12
 74
10
 42
0.0000001
 43
0.0000001
 44
0.0000000001
 12
0.0
 22
-11.4728872726
 32
0.0
 13
11.7278740979
 23
0.0
 33
0.0
 40
0.0
 40
0.0
 40
0.0
 40
0.0
 40
0.1841839955
 40
0.3620977868
 40
0.5276849139
 40
0.6753092271
 40
0.7999474416
 40
0.8973617553
 40
0.9642494144
 40
0.9983858896
 40
1.0
 40
1.0
 40
1.0
 40
1.0
 10
-33.8166912456
 20
-4.7899946264
 30
0.0
 10
-33.8166912456
 20
-5.4943686991
 30
0.0
 10
-33.8142771107
 20
-6.8789131562
 30
0.0
 10
-33.8053439315
 20
-8.8978802962
 30
0.0
 10
-33.786386242
 20
-10.7728665103
 30
0.0
 10
-33.7741693027
 20
-12.4570683001
 30
0.0
 10
-33.721280441
 20
-13.8421378195
 30
0.0
 10
-33.7606999268
 20
-15.0199307831
 30
0.0
 10
-33.5836361144
 20
-15.6226954534
 30
0.0
 10
-33.7620580551
 20
-16.232998349
 30
0.0
 10
-33.6222985994
 20
-16.2421814879
 30
0.0
 10
-33.6159885716
 20
-16.2421814879
 30
0.0
 11
-33.8166912456
 21
-4.7899946264
 31
0.0
 11
-33.8132739012
 21
-6.9031140812
 31
0.0
 11
-33.8031382415
 21
-8.9442737875
 31
0.0
 11
-33.7866294242
 21
-10.8439644994
 31
0.0
 11
-33.7643096374
 21
-12.5374945283
 31
0.0
 11
-33.7369389546
 21
-13.9671927401
 31
0.0
 11
-33.7054494515
 21
-15.0843724769
 31
0.0
 11
-33.6709134655
 21
-15.8509895228
 31
0.0
 11
-33.6345070781
 21
-16.2409376537
 31
0.0
 11
-33.6159885716
 21
-16.2421814879
 31
0.0
  0
SPLINE
  5
38C
100
AcDbEntity
  8
ASSI
100
AcDbSpline
 62
7
  6
CONTINUOUS
 70
0
 71
3
 72
16
 73
12
 74
10
 42
0.0000001
 43
0.0000001
 44
0.0000000001
 12
0.0
 22
-11.4728872726
 32
0.0
 13
-11.7278740979
 23
0.0
 33
0.0
 40
0.0
 40
0.0
 40
0.0
 40
0.0
 40
0.1841839955
 40
0.3620977868
 40
0.5276849139
 40
0.6753092271
 40
0.7999474416
 40
0.8973617553
 40
0.9642494144
 40
0.9983858896
 40
1.0
 40
1.0
 40
1.0
 40
1.0
 10
33.8166912456
 20
-4.7899946264
 30
0.0
 10
33.8166912456
 20
-5.4943686991
 30
0.0
 10
33.8142771107
 20
-6.8789131562
 30
0.0
 10
33.8053439315
 20
-8.8978802962
 30
0.0
 10
33.786386242
 20
-10.7728665103
 30
0.0
 10
33.7741693027
 20
-12.4570683001
 30
0.0
 10
33.721280441
 20
-13.8421378195
 30
0.0
 10
33.7606999268
 20
-15.0199307831
 30
0.0
 10
33.5836361144
 20
-15.6226954534
 30
0.0
 10
33.7620580551
 20
-16.232998349
 30
0.0
 10
33.6222985994
 20
-16.2421814879
 30
0.0
 10
33.6159885716
 20
-16.2421814879
 30
0.0
 11
33.8166912456
 21
-4.7899946264
 31
0.0
 11
33.8132739012
 21
-6.9031140812
 31
0.0
 11
33.8031382415
 21
-8.9442737875
 31
0.0
 11
33.7866294242
 21
-10.8439644994
 31
0.0
 11
33.7643096374
 21
-12.5374945283
 31
0.0
 11
33.7369389546
 21
-13.9671927401
 31
0.0
 11
33.7054494515
 21
-15.0843724769
 31
0.0
 11
33.6709134655
 21
-15.8509895228
 31
0.0
 11
33.6345070781
 21
-16.2409376537
 31
0.0
 11
33.6159885716
 21
-16.2421814879
 31
0.0
  0
ENDSEC
  0
SECTION
  2
OBJECTS
  0
DICTIONARY
  5
C
100
AcDbDictionary
280
0
281
1
  3
ACAD_GROUP
350
D
  3
ACAD_MLINESTYLE
350
17
  3
ACAD_LAYOUT
350
1A
  3
ACAD_PLOTSETTINGS
350
19
  3
ACAD_PLOTSTYLENAME
350
E
  0
DICTIONARY
  5
D
102
{ACAD_REACTORS
330
C
102
}
100
AcDbDictionary
280
0
281
1
  0
ACDBDICTIONARYWDFLT
  5
E
102
{ACAD_REACTORS
330
C
102
}
100
AcDbDictionary
281
1
  3
Normal
350
F
100
AcDbDictionaryWithDefault
340
F
  0
DICTIONARY
  5
17
102
{ACAD_REACTORS
330
C
102
}
100
AcDbDictionary
280
0
281
1
  3
Standard
350
18
  0
DICTIONARY
  5
19
102
{ACAD_REACTORS
330
C
102
}
100
AcDbDictionary
281
1
  0
DICTIONARY
  5
1A
102
{ACAD_REACTORS
330
C
102
}
100
AcDbDictionary
281
1
  3
Model
350
38D
  3
Layout1
350
38E
  0
ACDBPLACEHOLDER
  5
F
102
{ACAD_REACTORS
330
E
102
}
  0
MLINESTYLE
  5
18
102
{ACAD_REACTORS
330
17
102
}
100
AcDbMlineStyle
  2
STANDARD
 70
0
  3

 62
256
 51
90.0
 52
90.0
 71
2
 49
0.5
 62
256
  6
BYLAYER
 49
-0.5
 62
256
  6
BYLAYER
  0
LAYOUT
  5
38D
102
{ACAD_REACTORS
330
1A
102
}
100
AcDbPlotSettings
  1

  2
none_device
  4
ISO_A4_(297.00_x_210.00_MM)
  6

 40
0.0
 41
0.0
 42
0.0
 43
0.0
 44
297.0
 45
210.0
 46
0.0
 47
0.0
 48
0.0
 49
0.0
140
0.0
141
0.0
142
1.0
143
1.0
 70
1024
 72
1
 73
0
 74
0
  7

 75
0
147
1.0
148
0.0
149
0.0
100
AcDbLayout
  1
Model
 70
0
 71
0
 10
0.0
 20
0.0
 11
297.0
 21
210.0
 12
0.0
 22
0.0
 32
0.0
 14
0.0
 24
0.0
 34
0.0
 15
0.0
 25
0.0
 35
0.0
146
0.0
 13
0.0
 23
0.0
 33
0.0
 16
1.0
 26
0.0
 36
0.0
 17
0.0
 27
1.0
 37
0.0
 76
0
330
214
345
0
346
0
  0
LAYOUT
  5
38E
102
{ACAD_REACTORS
330
1A
102
}
100
AcDbPlotSettings
  1

  2
none_device
  4
ISO_A4_(297.00_x_210.00_MM)
  6

 40
0.0
 41
0.0
 42
0.0
 43
0.0
 44
297.0
 45
210.0
 46
0.0
 47
0.0
 48
0.0
 49
0.0
140
0.0
141
0.0
142
1.0
143
1.0
 70
0
 72
1
 73
0
 74
0
  7

 75
0
147
1.0
148
0.0
149
0.0
100
AcDbLayout
  1
Layout1
 70
0
 71
1
 10
0.0
 20
0.0
 11
297.0
 21
210.0
 12
0.0
 22
0.0
 32
0.0
 14
0.0
 24
0.0
 34
0.0
 15
0.0
 25
0.0
 35
0.0
146
0.0
 13
0.0
 23
0.0
 33
0.0
 16
1.0
 26
0.0
 36
0.0
 17
0.0
 27
1.0
 37
0.0
 76
0
330
215
345
0
346
0
  0
ENDSEC
  0
EOF
