  0
SECTION
  2
HEADER
  9
$ACADVER
  1
AC1024
  9
$DWGCODEPAGE
  3
ANSI_1252
  9
$EXTMAX
 10
297.0
 20
210.0
 30
0.0
  9
$EXTMIN
 10
0.0
 20
0.0
 30
0.0
  9
$LIMMIN
 10
0.0
 20
0.0
  9
$LIMMAX
 10
297.0
 20
210.0
  9
$VIEWCTR
 10
148.5
 20
105.0
  9
$VIEWSIZE
 40
210.0
  9
$CLAYER
  8
0
  9
$LTSCALE
 40
16.335
  9
$CELTYPE
  6
BYLAYER
  9
$DIMSCALE
 40
1.0
  9
$DIMASZ
 40
3.0
  9
$DIMEXO
 40
0.5
  9
$DIMDLI
 40
11.286
  9
$DIMEXE
 40
1.5
  9
$DIMCEN
 40
2.673
  9
$DIMLFAC
 40
1.0
  9
$DIMBLK
  1
_FILLED
  9
$DIMALT
 70
0
  9
$DIMALTF
 40
0.0393700787
  9
$DIMTXT
 40
3.0
  9
$DIMTOL
 70
1
  9
$DIMLIM
 70
0
  9
$DIMTFAC
 40
1.0
  9
$DIMTP
 40
0.01
  9
$DIMTM
 40
0.01
  9
$DIMGAP
 40
0.625
  9
$DIMDSEP
 70
44
  9
$AUNITS
 70
0
  9
$PDMODE
 70
3
  9
$PDSIZE
 40
3.0
  9
$HANDSEED
  5
371
  9
$TILEMODE
 70
1
  9
$MEASUREMENT
 70
1
  9
$INSUNITS
 70
4
  0
ENDSEC
  0
SECTION
  2
CLASSES
  0
CLASS
  1
ACDBDICTIONARYWDFLT
  2
AcDbDictionaryWithDefault
  3
AutoCAD 2000
 90
0
 91
1
280
0
281
0
  0
CLASS
  1
ACDBPLACEHOLDER
  2
AcDbPlaceHolder
  3
AutoCAD 2000
 90
0
 91
1
280
0
281
0
  0
CLASS
  1
LAYOUT
  2
AcDbLayout
  3
AutoCAD 2000
 90
0
 91
0
280
0
281
0
  0
ENDSEC
  0
SECTION
  2
TABLES
  0
TABLE
  2
VPORT
  5
8
100
AcDbSymbolTable
 70
2
  0
VPORT
  5
1F4
100
AcDbSymbolTableRecord
100
AcDbViewportTableRecord
  2
*ACTIVE
 70
0
 10
0.0
 20
0.0
 11
1.0
 21
1.0
 12
148.5
 22
105.0
 13
0.0
 23
0.0
 14
1.0
 24
1.0
 15
0.0
 25
0.0
 16
0.0
 26
0.0
 36
1.0
 17
0.0
 27
0.0
 37
0.0
 40
210.0
 41
1.4142857143
 42
50.0
 43
0.0
 44
0.0
 50
0.0
 51
0.0
 71
0
 72
100
 73
1
 74
1
 75
0
 76
0
 77
0
 78
0
  0
ENDTAB
  0
TABLE
  2
LTYPE
  5
5
100
AcDbSymbolTable
 70
6
  0
LTYPE
  5
14
100
AcDbSymbolTableRecord
100
AcDbLinetypeTableRecord
  2
BYBLOCK
 70
0
  3

 72
65
 73
0
 40
0.0
  0
LTYPE
  5
15
100
AcDbSymbolTableRecord
100
AcDbLinetypeTableRecord
  2
BYLAYER
 70
0
  3

 72
65
 73
0
 40
0.0
  0
LTYPE
  5
16
100
AcDbSymbolTableRecord
100
AcDbLinetypeTableRecord
  2
CONTINUOUS
 70
64
  3
Solid line
 72
65
 73
0
 40
0.0
  0
LTYPE
  5
1F5
100
AcDbSymbolTableRecord
100
AcDbLinetypeTableRecord
  2
CENTER
 70
64
  3
____ _ ____ _ ____ _ ____ _ ____ _ ____ _ ____
 72
65
 73
4
 40
0.6
 49
0.375
 74
0
 49
-0.075
 74
0
 49
0.075
 74
0
 49
-0.075
 74
0
  0
LTYPE
  5
1F6
100
AcDbSymbolTableRecord
100
AcDbLinetypeTableRecord
  2
HIDDEN
 70
64
  3
- - - - - - - - - - - - - - - - - - - -
 72
65
 73
2
 40
0.2
 49
0.1
 74
0
 49
-0.1
 74
0
  0
LTYPE
  5
1F7
100
AcDbSymbolTableRecord
100
AcDbLinetypeTableRecord
  2
PHANTOM
 70
64
  3
_____ _ _ _____ _ _ _____ _ _ _____
 72
65
 73
6
 40
0.8
 49
0.45
 74
0
 49
-0.05
 74
0
 49
0.1
 74
0
 49
-0.05
 74
0
 49
0.1
 74
0
 49
-0.05
 74
0
  0
LTYPE
  5
1F8
100
AcDbSymbolTableRecord
100
AcDbLinetypeTableRecord
  2
DOT
 70
64
  3
. . . . . . . . . . . . . . . . . . . .
 72
65
 73
2
 40
0.2
 49
0.1
 74
0
 49
-0.1
 74
0
  0
LTYPE
  5
1F9
100
AcDbSymbolTableRecord
100
AcDbLinetypeTableRecord
  2
DASHED
 70
64
  3
- - - - - - - - - - - - - - - - - - - -
 72
65
 73
2
 40
0.2
 49
0.1
 74
0
 49
-0.1
 74
0
  0
ENDTAB
  0
TABLE
  2
LAYER
  5
2
100
AcDbSymbolTable
 70
36
  0
LAYER
  5
10
100
AcDbSymbolTableRecord
100
AcDbLayerTableRecord
  2
0
 70
0
 62
7
  6
CONTINUOUS
370
-3
390
F
  0
LAYER
  5
1FA
100
AcDbSymbolTableRecord
100
AcDbLayerTableRecord
  2
DEFAULT_1
 70
0
 62
7
  6
CENTER
370
-3
390
F
  0
LAYER
  5
1FB
100
AcDbSymbolTableRecord
100
AcDbLayerTableRecord
  2
DEFAULT_2
 70
0
 62
7
  6
HIDDEN
370
-3
390
F
  0
LAYER
  5
1FC
100
AcDbSymbolTableRecord
100
AcDbLayerTableRecord
  2
DEFAULT_3
 70
0
 62
7
  6
PHANTOM
370
-3
390
F
  0
LAYER
  5
1FD
100
AcDbSymbolTableRecord
100
AcDbLayerTableRecord
  2
ASSI
 70
0
 62
7
  6
CONTINUOUS
370
-3
390
F
  0
LAYER
  5
1FE
100
AcDbSymbolTableRecord
100
AcDbLayerTableRecord
  2
COLOR5
 70
0
 62
7
  6
CONTINUOUS
370
-3
390
F
  0
LAYER
  5
1FF
100
AcDbSymbolTableRecord
100
AcDbLayerTableRecord
  2
COORDINATE
 70
0
 62
7
  6
CONTINUOUS
370
-3
390
F
  0
LAYER
  5
200
100
AcDbSymbolTableRecord
100
AcDbLayerTableRecord
  2
COORD_ORIGINE
 70
0
 62
7
  6
CONTINUOUS
370
-3
390
F
  0
LAYER
  5
201
100
AcDbSymbolTableRecord
100
AcDbLayerTableRecord
  2
COPY_GEOMETRY
 70
0
 62
7
  6
CONTINUOUS
370
-3
390
F
  0
LAYER
  5
202
100
AcDbSymbolTableRecord
100
AcDbLayerTableRecord
  2
CURVE
 70
0
 62
7
  6
CONTINUOUS
370
-3
390
F
  0
LAYER
  5
203
100
AcDbSymbolTableRecord
100
AcDbLayerTableRecord
  2
DRAFT
 70
0
 62
7
  6
CONTINUOUS
370
-3
390
F
  0
LAYER
  5
204
100
AcDbSymbolTableRecord
100
AcDbLayerTableRecord
  2
IGES_SCRITTE
 70
0
 62
7
  6
CONTINUOUS
370
-3
390
F
  0
LAYER
  5
205
100
AcDbSymbolTableRecord
100
AcDbLayerTableRecord
  2
IMPORT_IGES
 70
0
 62
7
  6
CONTINUOUS
370
-3
390
F
  0
LAYER
  5
206
100
AcDbSymbolTableRecord
100
AcDbLayerTableRecord
  2
IMPORT_SUP
 70
0
 62
7
  6
CONTINUOUS
370
-3
390
F
  0
LAYER
  5
207
100
AcDbSymbolTableRecord
100
AcDbLayerTableRecord
  2
INTF_1
 70
0
 62
7
  6
CONTINUOUS
370
-3
390
F
  0
LAYER
  5
208
100
AcDbSymbolTableRecord
100
AcDbLayerTableRecord
  2
INTF_2
 70
0
 62
7
  6
CONTINUOUS
370
-3
390
F
  0
LAYER
  5
209
100
AcDbSymbolTableRecord
100
AcDbLayerTableRecord
  2
INTF_7
 70
0
 62
7
  6
CONTINUOUS
370
-3
390
F
  0
LAYER
  5
20A
100
AcDbSymbolTableRecord
100
AcDbLayerTableRecord
  2
INTF_BLANK
 70
0
 62
7
  6
CONTINUOUS
370
-3
390
F
  0
LAYER
  5
20B
100
AcDbSymbolTableRecord
100
AcDbLayerTableRecord
  2
INTF_BLUE
 70
0
 62
7
  6
CONTINUOUS
370
-3
390
F
  0
LAYER
  5
20C
100
AcDbSymbolTableRecord
100
AcDbLayerTableRecord
  2
NOTE
 70
0
 62
7
  6
CONTINUOUS
370
-3
390
F
  0
LAYER
  5
20D
100
AcDbSymbolTableRecord
100
AcDbLayerTableRecord
  2
PIANI
 70
0
 62
7
  6
CONTINUOUS
370
-3
390
F
  0
LAYER
  5
20E
100
AcDbSymbolTableRecord
100
AcDbLayerTableRecord
  2
PIANI_ORIGINE
 70
0
 62
7
  6
CONTINUOUS
370
-3
390
F
  0
LAYER
  5
20F
100
AcDbSymbolTableRecord
100
AcDbLayerTableRecord
  2
PIANI_PATTERN
 70
0
 62
7
  6
CONTINUOUS
370
-3
390
F
  0
LAYER
  5
210
100
AcDbSymbolTableRecord
100
AcDbLayerTableRecord
  2
PIANO_PER_ASSE_TAVOLA
 70
0
 62
7
  6
CONTINUOUS
370
-3
390
F
  0
LAYER
  5
211
100
AcDbSymbolTableRecord
100
AcDbLayerTableRecord
  2
PUNTI
 70
0
 62
7
  6
CONTINUOUS
370
-3
390
F
  0
LAYER
  5
212
100
AcDbSymbolTableRecord
100
AcDbLayerTableRecord
  2
RACCORDO
 70
0
 62
7
  6
CONTINUOUS
370
-3
390
F
  0
LAYER
  5
213
100
AcDbSymbolTableRecord
100
AcDbLayerTableRecord
  2
RGB__255__255__255__
 70
0
 62
7
  6
CONTINUOUS
370
-3
390
F
  0
LAYER
  5
214
100
AcDbSymbolTableRecord
100
AcDbLayerTableRecord
  2
RGB____0____0____0__
 70
0
 62
7
  6
CONTINUOUS
370
-3
390
F
  0
LAYER
  5
215
100
AcDbSymbolTableRecord
100
AcDbLayerTableRecord
  2
SKELETON
 70
0
 62
7
  6
CONTINUOUS
370
-3
390
F
  0
LAYER
  5
216
100
AcDbSymbolTableRecord
100
AcDbLayerTableRecord
  2
SMUSSO
 70
0
 62
7
  6
CONTINUOUS
370
-3
390
F
  0
LAYER
  5
217
100
AcDbSymbolTableRecord
100
AcDbLayerTableRecord
  2
SNAPLINE
 70
0
 62
7
  6
CONTINUOUS
370
-3
390
F
  0
LAYER
  5
218
100
AcDbSymbolTableRecord
100
AcDbLayerTableRecord
  2
SUPERFICI
 70
0
 62
7
  6
CONTINUOUS
370
-3
390
F
  0
LAYER
  5
219
100
AcDbSymbolTableRecord
100
AcDbLayerTableRecord
  2
TRASH
 70
0
 62
7
  6
CONTINUOUS
370
-3
390
F
  0
LAYER
  5
21A
100
AcDbSymbolTableRecord
100
AcDbLayerTableRecord
  2
XSEC_DATUMS
 70
0
 62
7
  6
CONTINUOUS
370
-3
390
F
  0
ENDTAB
  0
TABLE
  2
STYLE
  5
3
100
AcDbSymbolTable
 70
1
  0
STYLE
  5
11
100
AcDbSymbolTableRecord
100
AcDbTextStyleTableRecord
  2
STANDARD
 70
0
 40
0.0
 41
0.8
 50
0.0
 71
0
 42
0.2
  3
txt
  4

  0
STYLE
  5
21B
100
AcDbSymbolTableRecord
100
AcDbTextStyleTableRecord
  2
TEXTSTYLE_1
 70
0
 40
0.0
 41
0.8
 50
0.0
 71
0
 42
0.2
  3
gdt
  4

  0
ENDTAB
  0
TABLE
  2
VIEW
  5
6
100
AcDbSymbolTable
 70
0
  0
ENDTAB
  0
TABLE
  2
UCS
  5
7
100
AcDbSymbolTable
 70
0
  0
ENDTAB
  0
TABLE
  2
APPID
  5
9
100
AcDbSymbolTable
 70
1
  0
APPID
  5
21C
100
AcDbSymbolTableRecord
100
AcDbRegAppTableRecord
  2
ACAD
 70
0
  0
ENDTAB
  0
TABLE
  2
BLOCK_RECORD
  5
1
100
AcDbSymbolTable
 70
0
  0
BLOCK_RECORD
  5
21D
100
AcDbSymbolTableRecord
100
AcDbBlockTableRecord
  2
*Model_Space
  0
BLOCK_RECORD
  5
21E
100
AcDbSymbolTableRecord
100
AcDbBlockTableRecord
  2
*Paper_Space
  0
BLOCK_RECORD
  5
21F
100
AcDbSymbolTableRecord
100
AcDbBlockTableRecord
  2
_FILLED
  0
ENDTAB
  0
TABLE
  2
DIMSTYLE
  5
A
100
AcDbSymbolTable
 70
1
100
AcDbDimStyleTable
 71
0
  0
DIMSTYLE
105
220
100
AcDbSymbolTableRecord
100
AcDbDimStyleTableRecord
  2
STANDARD
 70
0
  3

  4

 40
1.0
 41
3.0
 42
0.5
 43
0.38
 44
1.5
 45
0.0
 46
0.0
 47
0.01
 48
0.01
140
3.0
141
0.09
142
0.0
143
25.4
144
1.0
145
0.0
146
1.0
147
0.625
 71
1.0
 72
0.0
 73
0
 74
0
 75
0
 76
0
 77
1
 78
8
 79
2
170
0
171
1
172
0
173
0
174
0
175
0
176
0
177
0
178
0
270
2
179
2
271
2
272
2
273
2
274
2
275
0
280
0
281
0
282
0
283
1
284
8
285
0
286
0
287
3
288
0
340
11
278
44
341
21F
342
21F
343
21F
344
21F
  0
ENDTAB
  0
ENDSEC
  0
SECTION
  2
BLOCKS
  0
BLOCK
  5
20
100
AcDbEntity
  8
0
100
AcDbBlockBegin
  2
*Model_Space
 70
0
 10
0.0
 20
0.0
 30
0.0
  3
*Model_Space
  1

  0
ENDBLK
  5
21
100
AcDbEntity
  8
0
100
AcDbBlockEnd
  0
BLOCK
  5
1C
100
AcDbEntity
  8
0
100
AcDbBlockBegin
  2
*Paper_Space
 70
0
 10
0.0
 20
0.0
 30
0.0
  3
*Paper_Space
  1

  0
ENDBLK
  5
1D
100
AcDbEntity
  8
0
100
AcDbBlockEnd
  0
BLOCK
  5
221
100
AcDbEntity
  8
0
100
AcDbBlockBegin
  2
_FILLED
 70
64
 10
0.0
 20
0.0
  3
_FILLED
  1

  0
SOLID
  5
222
100
AcDbEntity
  8
0
  6
BYBLOCK
 62
0
100
AcDbTrace
 10
0.0
 20
0.0
 11
-1.0
 21
0.3166666667
 12
-1.0
 22
-0.3166666667
 13
-1.0
 23
-0.3166666667
  0
ENDBLK
  5
223
100
AcDbEntity
  8
0
  6
BYBLOCK
 62
0
100
AcDbBlockEnd
  0
ENDSEC
  0
SECTION
  2
ENTITIES
  0
LINE
  5
224
100
AcDbEntity
  8
DRAFT
100
AcDbLine
 62
7
  6
CONTINUOUS
 10
-43.5
 20
-44.2899999127
 11
-43.2242099741
 21
-44.5657899386
  0
LINE
  5
225
100
AcDbEntity
  8
DRAFT
100
AcDbLine
 62
7
  6
CONTINUOUS
 10
-49.0
 20
-38.7899999127
 11
-49.2757899725
 21
-38.5142099403
  0
LINE
  5
226
100
AcDbEntity
  8
DRAFT
100
AcDbLine
 62
7
  6
CONTINUOUS
 10
-49.0
 20
29.2100000873
 11
-49.2757899725
 21
28.9342101148
  0
LINE
  5
227
100
AcDbEntity
  8
DRAFT
100
AcDbLine
 62
7
  6
CONTINUOUS
 10
-43.5
 20
34.7100000873
 11
-43.2242099741
 21
34.9857901131
  0
LINE
  5
228
100
AcDbEntity
  8
DRAFT
100
AcDbLine
 62
7
  6
CONTINUOUS
 10
-51.0
 20
30.7100000873
 11
-51.0
 21
-40.2899999127
  0
LINE
  5
229
100
AcDbEntity
  8
SUPERFICI
100
AcDbLine
 62
7
  6
CONTINUOUS
 10
-50.9999998254
 20
-40.2900008626
 11
-50.9999998254
 21
30.7100010371
  0
LINE
  5
22A
100
AcDbEntity
  8
0
100
AcDbLine
 62
250
  6
CONTINUOUS
 10
-50.4678629402
 20
-33.8899999127
 11
-50.4678629402
 21
-28.6899999127
  0
LINE
  5
22B
100
AcDbEntity
  8
0
100
AcDbLine
 62
250
  6
CONTINUOUS
 10
-50.3730280729
 20
30.7100000873
 11
-50.3730280729
 21
-27.7133977712
  0
LINE
  5
22C
100
AcDbEntity
  8
0
100
AcDbLine
 62
250
  6
CONTINUOUS
 10
-50.3730280729
 20
-34.8666020498
 11
-50.3730280729
 21
-40.2899999127
  0
LINE
  5
22D
100
AcDbEntity
  8
0
100
AcDbLine
 62
7
  6
CONTINUOUS
 10
-50.0
 20
-28.3899999127
 11
-50.0
 21
-34.1899999127
  0
LINE
  5
22E
100
AcDbEntity
  8
RACCORDO
100
AcDbLine
 62
7
  6
CONTINUOUS
 10
-49.2757899725
 20
-38.5142099403
 11
-49.2757899725
 21
-40.2899999127
  0
LINE
  5
22F
100
AcDbEntity
  8
RACCORDO
100
AcDbLine
 62
7
  6
CONTINUOUS
 10
-49.2757899725
 20
28.9342101148
 11
-49.2757899725
 21
30.7100000873
  0
LINE
  5
230
100
AcDbEntity
  8
RACCORDO
100
AcDbLine
 62
250
  6
CONTINUOUS
 10
-49.2731956082
 20
28.9342100614
 11
-49.2731956082
 21
-38.5142098869
  0
LINE
  5
231
100
AcDbEntity
  8
DRAFT
100
AcDbLine
 62
7
  6
CONTINUOUS
 10
-49.0
 20
-38.7899999127
 11
-49.0
 21
-40.2899999127
  0
LINE
  5
232
100
AcDbEntity
  8
DRAFT
100
AcDbLine
 62
7
  6
CONTINUOUS
 10
-49.0
 20
29.2100000873
 11
-49.0
 21
30.7100000873
  0
LINE
  5
233
100
AcDbEntity
  8
DRAFT
100
AcDbLine
 62
7
  6
CONTINUOUS
 10
-45.0
 20
-46.2899999127
 11
45.0
 21
-46.2899999127
  0
LINE
  5
234
100
AcDbEntity
  8
SUPERFICI
100
AcDbLine
 62
7
  6
CONTINUOUS
 10
44.9999760372
 20
-46.2900000873
 11
-44.9999760372
 21
-46.2900000873
  0
LINE
  5
235
100
AcDbEntity
  8
0
100
AcDbLine
 62
250
  6
CONTINUOUS
 10
37.1
 20
-45.7578628529
 11
31.9
 21
-45.7578628529
  0
LINE
  5
236
100
AcDbEntity
  8
0
100
AcDbLine
 62
250
  6
CONTINUOUS
 10
-45.0
 20
-45.6630279856
 11
30.9233978585
 21
-45.6630279856
  0
LINE
  5
237
100
AcDbEntity
  8
0
100
AcDbLine
 62
250
  6
CONTINUOUS
 10
38.0766021371
 20
-45.6630279856
 11
45.0
 21
-45.6630279856
  0
LINE
  5
238
100
AcDbEntity
  8
DRAFT
100
AcDbLine
 62
250
  6
CONTINUOUS
 10
-45.0
 20
29.2100000873
 11
-45.0
 21
28.9342100614
  0
LINE
  5
239
100
AcDbEntity
  8
DRAFT
100
AcDbLine
 62
250
  6
CONTINUOUS
 10
-45.0
 20
-38.7899999127
 11
-45.0
 21
-38.5142098869
  0
LINE
  5
23A
100
AcDbEntity
  8
RACCORDO
100
AcDbLine
 62
250
  6
CONTINUOUS
 10
-45.0
 20
-44.2899999127
 11
-45.0
 21
-46.2899999127
  0
LINE
  5
23B
100
AcDbEntity
  8
RACCORDO
100
AcDbLine
 62
250
  6
CONTINUOUS
 10
-45.0
 20
34.7100000873
 11
-45.0
 21
36.7100000873
  0
LINE
  5
23C
100
AcDbEntity
  8
DRAFT
100
AcDbLine
 62
7
  6
CONTINUOUS
 10
-43.5
 20
34.7100000873
 11
-43.5
 21
30.7100000873
  0
LINE
  5
23D
100
AcDbEntity
  8
DRAFT
100
AcDbLine
 62
7
  6
CONTINUOUS
 10
-43.5
 20
-44.2899999127
 11
-43.5
 21
-40.2899999127
  0
LINE
  5
23E
100
AcDbEntity
  8
DRAFT
100
AcDbLine
 62
7
  6
CONTINUOUS
 10
-43.2242099741
 20
34.9831956955
 11
-43.2242099741
 21
30.7100000873
  0
LINE
  5
23F
100
AcDbEntity
  8
DRAFT
100
AcDbLine
 62
7
  6
CONTINUOUS
 10
-43.2242099741
 20
-44.563195521
 11
-43.2242099741
 21
-40.2899999127
  0
LINE
  5
240
100
AcDbEntity
  8
0
100
AcDbLine
 62
7
  6
CONTINUOUS
 10
31.6
 20
-45.2899999127
 11
37.4
 21
-45.2899999127
  0
LINE
  5
241
100
AcDbEntity
  8
RACCORDO
100
AcDbLine
 62
7
  6
CONTINUOUS
 10
-45.0
 20
-44.5657898852
 11
-43.2242100275
 21
-44.5657898852
  0
LINE
  5
242
100
AcDbEntity
  8
RACCORDO
100
AcDbLine
 62
7
  6
CONTINUOUS
 10
45.0
 20
-44.5657898852
 11
43.2242100275
 21
-44.5657898852
  0
LINE
  5
243
100
AcDbEntity
  8
RACCORDO
100
AcDbLine
 62
250
  6
CONTINUOUS
 10
-43.2242099741
 20
-44.563195521
 11
43.2242099741
 21
-44.563195521
  0
LINE
  5
244
100
AcDbEntity
  8
DRAFT
100
AcDbLine
 62
7
  6
CONTINUOUS
 10
-45.0
 20
-44.2899999127
 11
-43.5
 21
-44.2899999127
  0
LINE
  5
245
100
AcDbEntity
  8
DRAFT
100
AcDbLine
 62
7
  6
CONTINUOUS
 10
45.0
 20
-44.2899999127
 11
43.5
 21
-44.2899999127
  0
LINE
  5
246
100
AcDbEntity
  8
0
100
AcDbLine
 62
7
  6
CONTINUOUS
 10
-37.965387
 20
-4.9050889127
 11
-37.965387
 21
-6.3661209127
  0
LINE
  5
247
100
AcDbEntity
  8
0
100
AcDbLine
 62
7
  6
CONTINUOUS
 10
-37.693534
 20
-6.0830109127
 11
-37.693534
 21
-4.9050889127
  0
LINE
  5
248
100
AcDbEntity
  8
0
100
AcDbLine
 62
250
  6
CONTINUOUS
 10
-37.1
 20
36.1778630275
 11
-37.1
 21
35.7100000873
  0
LINE
  5
249
100
AcDbEntity
  8
DRAFT
100
AcDbLine
 62
250
  6
CONTINUOUS
 10
-43.5
 20
-40.2899999127
 11
-43.2242099741
 21
-40.2899999127
  0
LINE
  5
24A
100
AcDbEntity
  8
DRAFT
100
AcDbLine
 62
250
  6
CONTINUOUS
 10
43.5
 20
-40.2899999127
 11
43.2242099741
 21
-40.2899999127
  0
LINE
  5
24B
100
AcDbEntity
  8
RACCORDO
100
AcDbLine
 62
250
  6
CONTINUOUS
 10
49.0
 20
-40.2899999127
 11
51.0
 21
-40.2899999127
  0
LINE
  5
24C
100
AcDbEntity
  8
RACCORDO
100
AcDbLine
 62
250
  6
CONTINUOUS
 10
-49.0
 20
-40.2899999127
 11
-51.0
 21
-40.2899999127
  0
LINE
  5
24D
100
AcDbEntity
  8
DRAFT
100
AcDbLine
 62
7
  6
CONTINUOUS
 10
45.0
 20
-38.7899999127
 11
49.0
 21
-38.7899999127
  0
LINE
  5
24E
100
AcDbEntity
  8
DRAFT
100
AcDbLine
 62
7
  6
CONTINUOUS
 10
-45.0
 20
-38.7899999127
 11
-49.0
 21
-38.7899999127
  0
LINE
  5
24F
100
AcDbEntity
  8
DRAFT
100
AcDbLine
 62
7
  6
CONTINUOUS
 10
45.0
 20
-38.5142098869
 11
49.2731956082
 21
-38.5142098869
  0
LINE
  5
250
100
AcDbEntity
  8
DRAFT
100
AcDbLine
 62
7
  6
CONTINUOUS
 10
-45.0
 20
-38.5142098869
 11
-49.2731956082
 21
-38.5142098869
  0
LINE
  5
251
100
AcDbEntity
  8
0
100
AcDbLine
 62
7
  6
CONTINUOUS
 10
-34.6
 20
11.7100000873
 11
-34.6
 21
-21.2899999127
  0
LINE
  5
252
100
AcDbEntity
  8
0
100
AcDbLine
 62
7
  6
CONTINUOUS
 10
-34.4
 20
-21.2899999127
 11
-34.4
 21
11.7100000873
  0
LINE
  5
253
100
AcDbEntity
  8
0
100
AcDbLine
 62
250
  6
CONTINUOUS
 10
-31.9
 20
36.1778630275
 11
-31.9000000066
 21
35.7100000873
  0
LINE
  5
254
100
AcDbEntity
  8
0
100
AcDbLine
 62
250
  6
CONTINUOUS
 10
-50.4678629402
 20
-33.8899999127
 11
-50.0
 21
-33.8899999127
  0
LINE
  5
255
100
AcDbEntity
  8
0
100
AcDbLine
 62
7
  6
CONTINUOUS
 10
-35.6037187609
 20
-6.3048654445
 11
-35.4737469122
 21
-6.5939301081
  0
LINE
  5
256
100
AcDbEntity
  8
0
100
AcDbLine
 62
7
  6
CONTINUOUS
 10
-35.6410220488
 20
-4.0191117533
 11
-35.5454738397
 21
-4.3311474361
  0
LINE
  5
257
100
AcDbEntity
  8
0
100
AcDbLine
 62
7
  6
CONTINUOUS
 10
-37.5483798357
 20
-4.214264591
 11
-37.415790899
 21
-3.954583715
  0
LINE
  5
258
100
AcDbEntity
  8
0
100
AcDbLine
 62
250
  6
CONTINUOUS
 10
-50.4678629402
 20
-28.6899999127
 11
-50.0
 21
-28.6899999189
  0
LINE
  5
259
100
AcDbEntity
  8
0
100
AcDbLine
 62
7
  6
CONTINUOUS
 10
-24.5
 20
21.8100000873
 11
-24.5
 21
21.6100000873
  0
LINE
  5
25A
100
AcDbEntity
  8
0
100
AcDbLine
 62
7
  6
CONTINUOUS
 10
-34.6
 20
-21.2899999127
 11
-34.4
 21
-21.2899999127
  0
LINE
  5
25B
100
AcDbEntity
  8
0
100
AcDbLine
 62
7
  6
CONTINUOUS
 10
-14.0
 20
37.5126077394
 11
-14.0
 21
36.0900000873
  0
LINE
  5
25C
100
AcDbEntity
  8
RACCORDO
100
AcDbLine
 62
7
  6
CONTINUOUS
 10
-14.0
 20
36.0900000873
 11
-14.0
 21
37.5126077394
  0
LINE
  5
25D
100
AcDbEntity
  8
0
100
AcDbLine
 62
7
  6
CONTINUOUS
 10
-11.85
 20
39.916723929
 11
-11.85
 21
39.4900000873
  0
LINE
  5
25E
100
AcDbEntity
  8
RACCORDO
100
AcDbLine
 62
7
  6
CONTINUOUS
 10
-11.85
 20
39.4900000873
 11
-11.85
 21
39.916723929
  0
LINE
  5
25F
100
AcDbEntity
  8
0
100
AcDbLine
 62
7
  6
CONTINUOUS
 10
-11.35
 20
39.4900000873
 11
-11.35
 21
38.9900000873
  0
LINE
  5
260
100
AcDbEntity
  8
RACCORDO
100
AcDbLine
 62
7
  6
CONTINUOUS
 10
-10.1
 20
41.2900000873
 11
-10.1
 21
41.7569163079
  0
LINE
  5
261
100
AcDbEntity
  8
0
100
AcDbLine
 62
7
  6
CONTINUOUS
 10
-9.45
 20
41.2900000873
 11
-9.45
 21
40.7900000873
  0
LINE
  5
262
100
AcDbEntity
  8
0
100
AcDbLine
 62
7
  6
CONTINUOUS
 10
-8.35
 20
43.5301213887
 11
-8.35
 21
43.0900000873
  0
LINE
  5
263
100
AcDbEntity
  8
RACCORDO
100
AcDbLine
 62
7
  6
CONTINUOUS
 10
-8.35
 20
43.0900000873
 11
-8.35
 21
43.5301213887
  0
LINE
  5
264
100
AcDbEntity
  8
0
100
AcDbLine
 62
7
  6
CONTINUOUS
 10
-7.85
 20
43.0900000873
 11
-7.85
 21
42.5900000873
  0
LINE
  5
265
100
AcDbEntity
  8
0
100
AcDbLine
 62
7
  6
CONTINUOUS
 10
-4.1
 20
45.2291594943
 11
-4.1
 21
44.8900000873
  0
LINE
  5
266
100
AcDbEntity
  8
RACCORDO
100
AcDbLine
 62
7
  6
CONTINUOUS
 10
-4.1
 20
44.8900000873
 11
-4.1
 21
45.2291594943
  0
LINE
  5
267
100
AcDbEntity
  8
0
100
AcDbLine
 62
7
  6
CONTINUOUS
 10
11.1960930686
 20
-5.8899999127
 11
10.0700680665
 21
-5.8899999127
  0
LINE
  5
268
100
AcDbEntity
  8
0
100
AcDbLine
 62
7
  6
CONTINUOUS
 10
-10.0700680665
 20
-5.8899999127
 11
-11.1960930686
 21
-5.8899999127
  0
LINE
  5
269
100
AcDbEntity
  8
0
100
AcDbLine
 62
7
  6
CONTINUOUS
 10
-37.693534
 20
-4.9050889127
 11
-37.965387
 21
-4.9050889127
  0
LINE
  5
26A
100
AcDbEntity
  8
0
100
AcDbLine
 62
7
  6
CONTINUOUS
 10
-36.7939441169
 20
-6.0987829107
 11
-37.693534
 21
-6.0830109127
  0
LINE
  5
26B
100
AcDbEntity
  8
0
100
AcDbLine
 62
7
  6
CONTINUOUS
 10
-37.965387
 20
-6.3661209127
 11
-36.4275902185
 21
-6.3938029088
  0
LINE
  5
26C
100
AcDbEntity
  8
0
100
AcDbLine
 62
7
  6
CONTINUOUS
 10
-3.6
 20
44.8900000873
 11
-3.6
 21
44.3900000873
  0
LINE
  5
26D
100
AcDbEntity
  8
0
100
AcDbLine
 62
7
  6
CONTINUOUS
 10
-1.1
 20
-15.9860929813
 11
-1.1
 21
-14.8600679793
  0
LINE
  5
26E
100
AcDbEntity
  8
0
100
AcDbLine
 62
7
  6
CONTINUOUS
 10
-1.1
 20
5.2800681538
 11
-1.1
 21
6.4060931558
  0
LINE
  5
26F
100
AcDbEntity
  8
0
100
AcDbLine
 62
7
  6
CONTINUOUS
 10
-11.1960930686
 20
-3.6899999127
 11
-10.0700680665
 21
-3.6899999127
  0
LINE
  5
270
100
AcDbEntity
  8
0
100
AcDbLine
 62
7
  6
CONTINUOUS
 10
10.0700680665
 20
-3.6899999127
 11
11.1960930686
 21
-3.6899999127
  0
LINE
  5
271
100
AcDbEntity
  8
0
100
AcDbLine
 62
7
  6
CONTINUOUS
 10
-36.6875325973
 20
-3.6574689127
 11
-36.4160718603
 21
-3.6574689127
  0
LINE
  5
272
100
AcDbEntity
  8
0
100
AcDbLine
 62
7
  6
CONTINUOUS
 10
1.1
 20
6.4060931558
 11
1.1
 21
5.2800681538
  0
LINE
  5
273
100
AcDbEntity
  8
0
100
AcDbLine
 62
7
  6
CONTINUOUS
 10
1.1
 20
-14.8600679793
 11
1.1
 21
-15.9860929813
  0
LINE
  5
274
100
AcDbEntity
  8
0
100
AcDbLine
 62
7
  6
CONTINUOUS
 10
3.6
 20
44.8900000873
 11
3.6
 21
44.3900000873
  0
LINE
  5
275
100
AcDbEntity
  8
0
100
AcDbLine
 62
7
  6
CONTINUOUS
 10
4.1
 20
45.2291594943
 11
4.1
 21
44.8900000873
  0
LINE
  5
276
100
AcDbEntity
  8
RACCORDO
100
AcDbLine
 62
7
  6
CONTINUOUS
 10
4.1
 20
44.8900000873
 11
4.1
 21
45.2291594943
  0
LINE
  5
277
100
AcDbEntity
  8
0
100
AcDbLine
 62
7
  6
CONTINUOUS
 10
7.85
 20
43.0900000873
 11
7.85
 21
42.5900000873
  0
LINE
  5
278
100
AcDbEntity
  8
0
100
AcDbLine
 62
7
  6
CONTINUOUS
 10
8.35
 20
43.5301213887
 11
8.35
 21
43.0900000873
  0
LINE
  5
279
100
AcDbEntity
  8
RACCORDO
100
AcDbLine
 62
7
  6
CONTINUOUS
 10
8.35
 20
43.0900000873
 11
8.35
 21
43.5301213887
  0
LINE
  5
27A
100
AcDbEntity
  8
0
100
AcDbLine
 62
7
  6
CONTINUOUS
 10
9.45
 20
41.2900000873
 11
9.45
 21
40.7900000873
  0
LINE
  5
27B
100
AcDbEntity
  8
0
100
AcDbLine
 62
7
  6
CONTINUOUS
 10
10.1
 20
41.7569163079
 11
10.1
 21
41.2900000873
  0
LINE
  5
27C
100
AcDbEntity
  8
RACCORDO
100
AcDbLine
 62
7
  6
CONTINUOUS
 10
10.1
 20
41.2900000873
 11
10.1
 21
41.7569163079
  0
LINE
  5
27D
100
AcDbEntity
  8
0
100
AcDbLine
 62
7
  6
CONTINUOUS
 10
11.35
 20
39.4900000873
 11
11.35
 21
38.9900000873
  0
LINE
  5
27E
100
AcDbEntity
  8
0
100
AcDbLine
 62
7
  6
CONTINUOUS
 10
11.85
 20
39.916723929
 11
11.85
 21
39.4900000873
  0
LINE
  5
27F
100
AcDbEntity
  8
RACCORDO
100
AcDbLine
 62
7
  6
CONTINUOUS
 10
11.85
 20
39.4900000873
 11
11.85
 21
39.916723929
  0
LINE
  5
280
100
AcDbEntity
  8
0
100
AcDbLine
 62
7
  6
CONTINUOUS
 10
14.0
 20
37.5126077394
 11
14.0
 21
36.0900000873
  0
LINE
  5
281
100
AcDbEntity
  8
RACCORDO
100
AcDbLine
 62
7
  6
CONTINUOUS
 10
14.0
 20
36.0900000873
 11
14.0
 21
37.5126077394
  0
LINE
  5
282
100
AcDbEntity
  8
0
100
AcDbLine
 62
7
  6
CONTINUOUS
 10
-34.4
 20
11.7100000873
 11
-34.6
 21
11.7100000873
  0
LINE
  5
283
100
AcDbEntity
  8
0
100
AcDbLine
 62
7
  6
CONTINUOUS
 10
-0.6505
 20
23.4193000873
 11
-0.9949
 21
23.3906000873
  0
LINE
  5
284
100
AcDbEntity
  8
0
100
AcDbLine
 62
250
  6
CONTINUOUS
 10
50.4678629402
 20
19.1100000873
 11
50.0
 21
19.1100000939
  0
LINE
  5
285
100
AcDbEntity
  8
0
100
AcDbLine
 62
7
  6
CONTINUOUS
 10
-24.5
 20
21.6100000873
 11
24.5
 21
21.6100000873
  0
LINE
  5
286
100
AcDbEntity
  8
0
100
AcDbLine
 62
7
  6
CONTINUOUS
 10
24.5
 20
21.8100000873
 11
-24.5
 21
21.8100000873
  0
LINE
  5
287
100
AcDbEntity
  8
0
100
AcDbLine
 62
7
  6
CONTINUOUS
 10
24.5
 20
21.6100000873
 11
24.5
 21
21.8100000873
  0
LINE
  5
288
100
AcDbEntity
  8
0
100
AcDbLine
 62
7
  6
CONTINUOUS
 10
-1.8108
 20
24.8994000873
 11
-1.4541
 21
24.9281000873
  0
LINE
  5
289
100
AcDbEntity
  8
0
100
AcDbLine
 62
250
  6
CONTINUOUS
 10
50.4678629402
 20
24.3100000873
 11
50.0
 21
24.3100000873
  0
LINE
  5
28A
100
AcDbEntity
  8
0
100
AcDbLine
 62
250
  6
CONTINUOUS
 10
31.9
 20
-45.7578628529
 11
31.9000000066
 21
-45.2899999128
  0
LINE
  5
28B
100
AcDbEntity
  8
DRAFT
100
AcDbLine
 62
7
  6
CONTINUOUS
 10
45.0
 20
28.9342100614
 11
49.2731956082
 21
28.9342100614
  0
LINE
  5
28C
100
AcDbEntity
  8
DRAFT
100
AcDbLine
 62
7
  6
CONTINUOUS
 10
-45.0
 20
28.9342100614
 11
-49.2731956082
 21
28.9342100614
  0
LINE
  5
28D
100
AcDbEntity
  8
DRAFT
100
AcDbLine
 62
7
  6
CONTINUOUS
 10
45.0
 20
29.2100000873
 11
49.0
 21
29.2100000873
  0
LINE
  5
28E
100
AcDbEntity
  8
DRAFT
100
AcDbLine
 62
7
  6
CONTINUOUS
 10
-45.0
 20
29.2100000873
 11
-49.0
 21
29.2100000873
  0
LINE
  5
28F
100
AcDbEntity
  8
DRAFT
100
AcDbLine
 62
250
  6
CONTINUOUS
 10
-43.5
 20
30.7100000873
 11
-43.2242099741
 21
30.7100000873
  0
LINE
  5
290
100
AcDbEntity
  8
DRAFT
100
AcDbLine
 62
250
  6
CONTINUOUS
 10
43.5
 20
30.7100000873
 11
43.2242099741
 21
30.7100000873
  0
LINE
  5
291
100
AcDbEntity
  8
RACCORDO
100
AcDbLine
 62
250
  6
CONTINUOUS
 10
49.0
 20
30.7100000873
 11
51.0
 21
30.7100000873
  0
LINE
  5
292
100
AcDbEntity
  8
RACCORDO
100
AcDbLine
 62
250
  6
CONTINUOUS
 10
-49.0
 20
30.7100000873
 11
-51.0
 21
30.7100000873
  0
LINE
  5
293
100
AcDbEntity
  8
0
100
AcDbLine
 62
250
  6
CONTINUOUS
 10
37.1
 20
-45.7578628529
 11
37.1
 21
-45.2899999127
  0
LINE
  5
294
100
AcDbEntity
  8
DRAFT
100
AcDbLine
 62
7
  6
CONTINUOUS
 10
-45.0
 20
34.7100000873
 11
-43.5
 21
34.7100000873
  0
LINE
  5
295
100
AcDbEntity
  8
DRAFT
100
AcDbLine
 62
7
  6
CONTINUOUS
 10
45.0
 20
34.7100000873
 11
43.5
 21
34.7100000873
  0
LINE
  5
296
100
AcDbEntity
  8
RACCORDO
100
AcDbLine
 62
250
  6
CONTINUOUS
 10
43.2242099741
 20
34.9831956955
 11
-43.2242099741
 21
34.9831956955
  0
LINE
  5
297
100
AcDbEntity
  8
RACCORDO
100
AcDbLine
 62
7
  6
CONTINUOUS
 10
-45.0
 20
34.9857900597
 11
-43.2242100275
 21
34.9857900597
  0
LINE
  5
298
100
AcDbEntity
  8
RACCORDO
100
AcDbLine
 62
7
  6
CONTINUOUS
 10
45.0
 20
34.9857900597
 11
43.2242100275
 21
34.9857900597
  0
LINE
  5
299
100
AcDbEntity
  8
0
100
AcDbLine
 62
7
  6
CONTINUOUS
 10
-31.6
 20
35.7100000873
 11
-37.4
 21
35.7100000873
  0
LINE
  5
29A
100
AcDbEntity
  8
0
100
AcDbLine
 62
250
  6
CONTINUOUS
 10
45.0
 20
36.0830281602
 11
-30.9233978585
 21
36.0830281602
  0
LINE
  5
29B
100
AcDbEntity
  8
0
100
AcDbLine
 62
250
  6
CONTINUOUS
 10
-38.0766021371
 20
36.0830281602
 11
-45.0
 21
36.0830281602
  0
LINE
  5
29C
100
AcDbEntity
  8
0
100
AcDbLine
 62
250
  6
CONTINUOUS
 10
-37.1
 20
36.1778630275
 11
-31.9
 21
36.1778630275
  0
LINE
  5
29D
100
AcDbEntity
  8
SUPERFICI
100
AcDbLine
 62
7
  6
CONTINUOUS
 10
-44.9999760372
 20
36.7100002618
 11
-14.0
 21
36.7100002618
  0
LINE
  5
29E
100
AcDbEntity
  8
DRAFT
100
AcDbLine
 62
7
  6
CONTINUOUS
 10
45.0
 20
36.7100000873
 11
14.0
 21
36.7100000873
  0
LINE
  5
29F
100
AcDbEntity
  8
SUPERFICI
100
AcDbLine
 62
7
  6
CONTINUOUS
 10
14.0
 20
36.7100002618
 11
44.9999760372
 21
36.7100002618
  0
LINE
  5
2A0
100
AcDbEntity
  8
DRAFT
100
AcDbLine
 62
7
  6
CONTINUOUS
 10
-14.0
 20
36.7100000873
 11
-45.0
 21
36.7100000873
  0
LINE
  5
2A1
100
AcDbEntity
  8
0
100
AcDbLine
 62
7
  6
CONTINUOUS
 10
-11.35
 20
38.9900000873
 11
-13.2588190451
 21
38.4785335656
  0
LINE
  5
2A2
100
AcDbEntity
  8
RACCORDO
100
AcDbLine
 62
7
  6
CONTINUOUS
 10
-13.2588190451
 20
38.4785335656
 11
-11.35
 21
38.9900000873
  0
LINE
  5
2A3
100
AcDbEntity
  8
0
100
AcDbLine
 62
7
  6
CONTINUOUS
 10
-9.45
 20
40.7900000873
 11
-11.6276457135
 21
40.2065016769
  0
LINE
  5
2A4
100
AcDbEntity
  8
RACCORDO
100
AcDbLine
 62
7
  6
CONTINUOUS
 10
-11.6276457135
 20
40.2065016769
 11
-9.45
 21
40.7900000873
  0
LINE
  5
2A5
100
AcDbEntity
  8
RACCORDO
100
AcDbLine
 62
250
  6
CONTINUOUS
 10
-14.0
 20
37.5126077394
 11
14.0
 21
37.5126077394
  0
LINE
  5
2A6
100
AcDbEntity
  8
RACCORDO
100
AcDbLine
 62
250
  6
CONTINUOUS
 10
-13.2588190451
 20
38.4785335656
 11
13.2588190451
 21
38.4785335656
  0
LINE
  5
2A7
100
AcDbEntity
  8
0
100
AcDbLine
 62
7
  6
CONTINUOUS
 10
-11.35
 20
38.9900000873
 11
11.35
 21
38.9900000873
  0
LINE
  5
2A8
100
AcDbEntity
  8
0
100
AcDbLine
 62
7
  6
CONTINUOUS
 10
-11.85
 20
39.4900000873
 11
11.85
 21
39.4900000873
  0
LINE
  5
2A9
100
AcDbEntity
  8
RACCORDO
100
AcDbLine
 62
250
  6
CONTINUOUS
 10
-11.85
 20
39.916723929
 11
11.85
 21
39.916723929
  0
LINE
  5
2AA
100
AcDbEntity
  8
RACCORDO
100
AcDbLine
 62
250
  6
CONTINUOUS
 10
-11.6276457135
 20
40.2065016769
 11
11.6276457135
 21
40.2065016769
  0
LINE
  5
2AB
100
AcDbEntity
  8
0
100
AcDbLine
 62
7
  6
CONTINUOUS
 10
-9.45
 20
40.7900000873
 11
9.45
 21
40.7900000873
  0
LINE
  5
2AC
100
AcDbEntity
  8
0
100
AcDbLine
 62
7
  6
CONTINUOUS
 10
-10.1
 20
41.2900000873
 11
10.1
 21
41.2900000873
  0
LINE
  5
2AD
100
AcDbEntity
  8
RACCORDO
100
AcDbLine
 62
250
  6
CONTINUOUS
 10
-10.1
 20
41.7569163079
 11
10.1
 21
41.7569163079
  0
LINE
  5
2AE
100
AcDbEntity
  8
0
100
AcDbLine
 62
7
  6
CONTINUOUS
 10
11.35
 20
38.9900000873
 11
13.2588190451
 21
38.4785335656
  0
LINE
  5
2AF
100
AcDbEntity
  8
RACCORDO
100
AcDbLine
 62
7
  6
CONTINUOUS
 10
13.2588190451
 20
38.4785335656
 11
11.35
 21
38.9900000873
  0
LINE
  5
2B0
100
AcDbEntity
  8
0
100
AcDbLine
 62
7
  6
CONTINUOUS
 10
9.45
 20
40.7900000873
 11
11.6276457135
 21
40.2065016769
  0
LINE
  5
2B1
100
AcDbEntity
  8
RACCORDO
100
AcDbLine
 62
7
  6
CONTINUOUS
 10
11.6276457135
 20
40.2065016769
 11
9.45
 21
40.7900000873
  0
LINE
  5
2B2
100
AcDbEntity
  8
DRAFT
100
AcDbLine
 62
7
  6
CONTINUOUS
 10
43.2242099741
 20
34.9831956955
 11
43.2242099741
 21
30.7100000873
  0
LINE
  5
2B3
100
AcDbEntity
  8
DRAFT
100
AcDbLine
 62
7
  6
CONTINUOUS
 10
43.2242099741
 20
-44.563195521
 11
43.2242099741
 21
-40.2899999127
  0
LINE
  5
2B4
100
AcDbEntity
  8
DRAFT
100
AcDbLine
 62
7
  6
CONTINUOUS
 10
43.5
 20
34.7100000873
 11
43.5
 21
30.7100000873
  0
LINE
  5
2B5
100
AcDbEntity
  8
DRAFT
100
AcDbLine
 62
7
  6
CONTINUOUS
 10
43.5
 20
-44.2899999127
 11
43.5
 21
-40.2899999127
  0
LINE
  5
2B6
100
AcDbEntity
  8
DRAFT
100
AcDbLine
 62
250
  6
CONTINUOUS
 10
45.0
 20
29.2100000873
 11
45.0
 21
28.9342100614
  0
LINE
  5
2B7
100
AcDbEntity
  8
DRAFT
100
AcDbLine
 62
250
  6
CONTINUOUS
 10
45.0
 20
-38.7899999127
 11
45.0
 21
-38.5142098869
  0
LINE
  5
2B8
100
AcDbEntity
  8
RACCORDO
100
AcDbLine
 62
250
  6
CONTINUOUS
 10
45.0
 20
-44.2899999127
 11
45.0
 21
-46.2899999127
  0
LINE
  5
2B9
100
AcDbEntity
  8
RACCORDO
100
AcDbLine
 62
250
  6
CONTINUOUS
 10
45.0
 20
34.7100000873
 11
45.0
 21
36.7100000873
  0
LINE
  5
2BA
100
AcDbEntity
  8
0
100
AcDbLine
 62
7
  6
CONTINUOUS
 10
-7.85
 20
42.5900000873
 11
-9.8776457135
 21
42.0466940558
  0
LINE
  5
2BB
100
AcDbEntity
  8
RACCORDO
100
AcDbLine
 62
7
  6
CONTINUOUS
 10
-9.8776457135
 20
42.0466940558
 11
-7.85
 21
42.5900000873
  0
LINE
  5
2BC
100
AcDbEntity
  8
0
100
AcDbLine
 62
7
  6
CONTINUOUS
 10
-6.0
 20
44.3900000873
 11
-8.1276457135
 21
43.8198991366
  0
LINE
  5
2BD
100
AcDbEntity
  8
RACCORDO
100
AcDbLine
 62
7
  6
CONTINUOUS
 10
-8.1276457135
 20
43.8198991366
 11
-6.0
 21
44.3900000873
  0
LINE
  5
2BE
100
AcDbEntity
  8
0
100
AcDbLine
 62
7
  6
CONTINUOUS
 10
-1.0
 20
46.2900000873
 11
-3.8776457135
 21
45.5189372422
  0
LINE
  5
2BF
100
AcDbEntity
  8
RACCORDO
100
AcDbLine
 62
7
  6
CONTINUOUS
 10
-3.8776457135
 20
45.5189372422
 11
-1.0
 21
46.2900000873
  0
LINE
  5
2C0
100
AcDbEntity
  8
RACCORDO
100
AcDbLine
 62
250
  6
CONTINUOUS
 10
-9.8776457135
 20
42.0466940558
 11
9.8776457135
 21
42.0466940558
  0
LINE
  5
2C1
100
AcDbEntity
  8
0
100
AcDbLine
 62
7
  6
CONTINUOUS
 10
-7.85
 20
42.5900000873
 11
7.85
 21
42.5900000873
  0
LINE
  5
2C2
100
AcDbEntity
  8
0
100
AcDbLine
 62
7
  6
CONTINUOUS
 10
-8.35
 20
43.0900000873
 11
8.35
 21
43.0900000873
  0
LINE
  5
2C3
100
AcDbEntity
  8
RACCORDO
100
AcDbLine
 62
250
  6
CONTINUOUS
 10
-8.35
 20
43.5301213887
 11
8.35
 21
43.5301213887
  0
LINE
  5
2C4
100
AcDbEntity
  8
RACCORDO
100
AcDbLine
 62
250
  6
CONTINUOUS
 10
-8.1276457135
 20
43.8198991366
 11
8.1276457135
 21
43.8198991366
  0
LINE
  5
2C5
100
AcDbEntity
  8
0
100
AcDbLine
 62
7
  6
CONTINUOUS
 10
-6.0
 20
44.3900000873
 11
6.0
 21
44.3900000873
  0
LINE
  5
2C6
100
AcDbEntity
  8
0
100
AcDbLine
 62
7
  6
CONTINUOUS
 10
-4.1
 20
44.8900000873
 11
4.1
 21
44.8900000873
  0
LINE
  5
2C7
100
AcDbEntity
  8
RACCORDO
100
AcDbLine
 62
250
  6
CONTINUOUS
 10
-4.1
 20
45.2291594943
 11
4.1
 21
45.2291594943
  0
LINE
  5
2C8
100
AcDbEntity
  8
RACCORDO
100
AcDbLine
 62
250
  6
CONTINUOUS
 10
-3.8776457135
 20
45.5189372422
 11
3.8776457135
 21
45.5189372422
  0
LINE
  5
2C9
100
AcDbEntity
  8
0
100
AcDbLine
 62
7
  6
CONTINUOUS
 10
-1.0
 20
46.2900000873
 11
1.0
 21
46.2900000873
  0
LINE
  5
2CA
100
AcDbEntity
  8
0
100
AcDbLine
 62
7
  6
CONTINUOUS
 10
7.85
 20
42.5900000873
 11
9.8776457135
 21
42.0466940558
  0
LINE
  5
2CB
100
AcDbEntity
  8
RACCORDO
100
AcDbLine
 62
7
  6
CONTINUOUS
 10
9.8776457135
 20
42.0466940558
 11
7.85
 21
42.5900000873
  0
LINE
  5
2CC
100
AcDbEntity
  8
0
100
AcDbLine
 62
7
  6
CONTINUOUS
 10
6.0
 20
44.3900000873
 11
8.1276457135
 21
43.8198991366
  0
LINE
  5
2CD
100
AcDbEntity
  8
RACCORDO
100
AcDbLine
 62
7
  6
CONTINUOUS
 10
8.1276457135
 20
43.8198991366
 11
6.0
 21
44.3900000873
  0
LINE
  5
2CE
100
AcDbEntity
  8
0
100
AcDbLine
 62
7
  6
CONTINUOUS
 10
1.0
 20
46.2900000873
 11
3.8776457135
 21
45.5189372422
  0
LINE
  5
2CF
100
AcDbEntity
  8
RACCORDO
100
AcDbLine
 62
7
  6
CONTINUOUS
 10
3.8776457135
 20
45.5189372422
 11
1.0
 21
46.2900000873
  0
LINE
  5
2D0
100
AcDbEntity
  8
DRAFT
100
AcDbLine
 62
7
  6
CONTINUOUS
 10
49.0
 20
-38.7899999127
 11
49.0
 21
-40.2899999127
  0
LINE
  5
2D1
100
AcDbEntity
  8
DRAFT
100
AcDbLine
 62
7
  6
CONTINUOUS
 10
49.0
 20
29.2100000873
 11
49.0
 21
30.7100000873
  0
LINE
  5
2D2
100
AcDbEntity
  8
RACCORDO
100
AcDbLine
 62
250
  6
CONTINUOUS
 10
49.2731956082
 20
-38.5142098869
 11
49.2731956082
 21
28.9342100614
  0
LINE
  5
2D3
100
AcDbEntity
  8
RACCORDO
100
AcDbLine
 62
7
  6
CONTINUOUS
 10
49.2757899725
 20
-38.5142099403
 11
49.2757899725
 21
-40.2899999127
  0
LINE
  5
2D4
100
AcDbEntity
  8
RACCORDO
100
AcDbLine
 62
7
  6
CONTINUOUS
 10
49.2757899725
 20
28.9342101148
 11
49.2757899725
 21
30.7100000873
  0
LINE
  5
2D5
100
AcDbEntity
  8
0
100
AcDbLine
 62
7
  6
CONTINUOUS
 10
50.0
 20
18.8100000873
 11
50.0
 21
24.6100000873
  0
LINE
  5
2D6
100
AcDbEntity
  8
0
100
AcDbLine
 62
250
  6
CONTINUOUS
 10
50.3730280729
 20
-40.2899999127
 11
50.3730280729
 21
18.1333979458
  0
LINE
  5
2D7
100
AcDbEntity
  8
0
100
AcDbLine
 62
250
  6
CONTINUOUS
 10
50.3730280729
 20
25.2866022244
 11
50.3730280729
 21
30.7100000873
  0
LINE
  5
2D8
100
AcDbEntity
  8
0
100
AcDbLine
 62
250
  6
CONTINUOUS
 10
50.4678629402
 20
24.3100000873
 11
50.4678629402
 21
19.1100000873
  0
LINE
  5
2D9
100
AcDbEntity
  8
SUPERFICI
100
AcDbLine
 62
7
  6
CONTINUOUS
 10
50.9999998254
 20
30.7100010371
 11
50.9999998254
 21
-40.2900008626
  0
LINE
  5
2DA
100
AcDbEntity
  8
DRAFT
100
AcDbLine
 62
7
  6
CONTINUOUS
 10
51.0
 20
-40.2899999127
 11
51.0
 21
30.7100000873
  0
LINE
  5
2DB
100
AcDbEntity
  8
DRAFT
100
AcDbLine
 62
7
  6
CONTINUOUS
 10
49.0
 20
29.2100000873
 11
49.2757899725
 21
28.9342101148
  0
LINE
  5
2DC
100
AcDbEntity
  8
DRAFT
100
AcDbLine
 62
7
  6
CONTINUOUS
 10
43.5
 20
34.7100000873
 11
43.2242099741
 21
34.9857901131
  0
LINE
  5
2DD
100
AcDbEntity
  8
DRAFT
100
AcDbLine
 62
7
  6
CONTINUOUS
 10
43.5
 20
-44.2899999127
 11
43.2242099741
 21
-44.5657899386
  0
LINE
  5
2DE
100
AcDbEntity
  8
DRAFT
100
AcDbLine
 62
7
  6
CONTINUOUS
 10
49.0
 20
-38.7899999127
 11
49.2757899725
 21
-38.5142099403
  0
CIRCLE
  5
2DF
100
AcDbEntity
  8
RACCORDO
100
AcDbCircle
 62
7
  6
CONTINUOUS
 10
-34.5
 20
-31.2899999127
 40
9.5
  0
CIRCLE
  5
2E0
100
AcDbEntity
  8
RACCORDO
100
AcDbCircle
 62
250
  6
CONTINUOUS
 10
-34.5
 20
-31.2899999127
 40
8.9999983613
  0
ARC
  5
2E1
100
AcDbEntity
  8
SUPERFICI
100
AcDbCircle
 62
7
  6
CONTINUOUS
 10
-44.9999999014
 20
-40.2899999127
 40
6.0
100
AcDbArc
 50
180.0000090703
 51
270.0002278868
  0
ARC
  5
2E2
100
AcDbEntity
  8
DRAFT
100
AcDbCircle
 62
7
  6
CONTINUOUS
 10
-45.0
 20
-40.2899999127
 40
6.0
100
AcDbArc
 50
180.0
 51
270.0
  0
ARC
  5
2E3
100
AcDbEntity
  8
RACCORDO
100
AcDbCircle
 62
250
  6
CONTINUOUS
 10
-45.0
 20
-40.2899999127
 40
5.3730280706
100
AcDbArc
 50
180.0
 51
270.0
  0
CIRCLE
  5
2E4
100
AcDbEntity
  8
RACCORDO
100
AcDbCircle
 62
7
  6
CONTINUOUS
 10
-28.3
 20
-4.7899999127
 40
4.8
  0
CIRCLE
  5
2E5
100
AcDbEntity
  8
RACCORDO
100
AcDbCircle
 62
250
  6
CONTINUOUS
 10
-28.3
 20
-4.7899999127
 40
4.2999957281
  0
ARC
  5
2E6
100
AcDbEntity
  8
RACCORDO
100
AcDbCircle
 62
7
  6
CONTINUOUS
 10
-45.0
 20
-40.2899999127
 40
4.2757899725
100
AcDbArc
 50
180.0
 51
270.0
  0
ARC
  5
2E7
100
AcDbEntity
  8
DRAFT
100
AcDbCircle
 62
7
  6
CONTINUOUS
 10
-45.0
 20
-40.2899999127
 40
4.0
100
AcDbArc
 50
180.0
 51
270.0
  0
CIRCLE
  5
2E8
100
AcDbEntity
  8
0
100
AcDbCircle
 62
7
  6
CONTINUOUS
 10
-34.5
 20
-31.2899999127
 40
2.25
  0
CIRCLE
  5
2E9
100
AcDbEntity
  8
0
100
AcDbCircle
 62
7
  6
CONTINUOUS
 10
-34.5
 20
-31.2899999127
 40
1.8
  0
ARC
  5
2EA
100
AcDbEntity
  8
DRAFT
100
AcDbCircle
 62
7
  6
CONTINUOUS
 10
-45.0
 20
-40.2899999127
 40
1.7757900259
100
AcDbArc
 50
0.0
 51
90.0
  0
CIRCLE
  5
2EB
100
AcDbEntity
  8
0
100
AcDbCircle
 62
7
  6
CONTINUOUS
 10
-34.5
 20
-31.2899999127
 40
1.5
  0
ARC
  5
2EC
100
AcDbEntity
  8
DRAFT
100
AcDbCircle
 62
7
  6
CONTINUOUS
 10
-45.0
 20
-40.2899999127
 40
1.5
100
AcDbArc
 50
0.0
 51
90.0
  0
ARC
  5
2ED
100
AcDbEntity
  8
0
100
AcDbCircle
 62
7
  6
CONTINUOUS
 10
-49.650270756
 20
-34.9091362549
 40
0.7996626403
100
AcDbArc
 50
115.9345079201
 51
180.0185998521
  0
ARC
  5
2EE
100
AcDbEntity
  8
0
100
AcDbCircle
 62
7
  6
CONTINUOUS
 10
-49.6502701226
 20
-27.6708811744
 40
0.799651641
100
AcDbArc
 50
179.9801385384
 51
244.0648995882
  0
ARC
  5
2EF
100
AcDbEntity
  8
0
100
AcDbCircle
 62
250
  6
CONTINUOUS
 10
-50.7996868755
 20
-28.3895563307
 40
0.7995174365
100
AcDbArc
 50
57.7479076317
 51
64.057413077
  0
ARC
  5
2F0
100
AcDbEntity
  8
0
100
AcDbCircle
 62
250
  6
CONTINUOUS
 10
-50.7986551626
 20
-34.1922973888
 40
0.7973990189
100
AcDbArc
 50
295.9341997307
 51
302.2604845649
  0
CIRCLE
  5
2F1
100
AcDbEntity
  8
RACCORDO
100
AcDbCircle
 62
7
  6
CONTINUOUS
 10
-34.5
 20
21.7100000873
 40
9.5
  0
CIRCLE
  5
2F2
100
AcDbEntity
  8
RACCORDO
100
AcDbCircle
 62
250
  6
CONTINUOUS
 10
-34.5
 20
21.7100000873
 40
8.9999983613
  0
ARC
  5
2F3
100
AcDbEntity
  8
SUPERFICI
100
AcDbCircle
 62
7
  6
CONTINUOUS
 10
-44.9999999014
 20
30.7100000873
 40
6.0
100
AcDbArc
 50
89.9997721132
 51
179.9999909297
  0
ARC
  5
2F4
100
AcDbEntity
  8
DRAFT
100
AcDbCircle
 62
7
  6
CONTINUOUS
 10
-45.0
 20
30.7100000873
 40
6.0
100
AcDbArc
 50
90.0
 51
180.0
  0
ARC
  5
2F5
100
AcDbEntity
  8
RACCORDO
100
AcDbCircle
 62
250
  6
CONTINUOUS
 10
-45.0
 20
30.7100000873
 40
5.3730280706
100
AcDbArc
 50
90.0
 51
180.0
  0
ARC
  5
2F6
100
AcDbEntity
  8
RACCORDO
100
AcDbCircle
 62
7
  6
CONTINUOUS
 10
-45.0
 20
30.7100000873
 40
4.2757899725
100
AcDbArc
 50
90.0
 51
180.0
  0
ARC
  5
2F7
100
AcDbEntity
  8
DRAFT
100
AcDbCircle
 62
7
  6
CONTINUOUS
 10
-45.0
 20
30.7100000873
 40
4.0
100
AcDbArc
 50
90.0
 51
180.0
  0
CIRCLE
  5
2F8
100
AcDbEntity
  8
0
100
AcDbCircle
 62
7
  6
CONTINUOUS
 10
-34.5
 20
21.7100000873
 40
2.25
  0
CIRCLE
  5
2F9
100
AcDbEntity
  8
0
100
AcDbCircle
 62
7
  6
CONTINUOUS
 10
-34.5
 20
21.7100000873
 40
1.8
  0
ARC
  5
2FA
100
AcDbEntity
  8
DRAFT
100
AcDbCircle
 62
7
  6
CONTINUOUS
 10
-45.0
 20
30.7100000873
 40
1.7757900259
100
AcDbArc
 50
270.0
 51
360.0
  0
CIRCLE
  5
2FB
100
AcDbEntity
  8
0
100
AcDbCircle
 62
7
  6
CONTINUOUS
 10
-34.5
 20
21.7100000873
 40
1.5
  0
ARC
  5
2FC
100
AcDbEntity
  8
DRAFT
100
AcDbCircle
 62
7
  6
CONTINUOUS
 10
-45.0
 20
30.7100000873
 40
1.5
100
AcDbArc
 50
270.0
 51
360.0
  0
ARC
  5
2FD
100
AcDbEntity
  8
0
100
AcDbCircle
 62
7
  6
CONTINUOUS
 10
-38.1191365749
 20
35.3602702302
 40
0.7996630756
100
AcDbArc
 50
25.9345401295
 51
90.018583171
  0
ARC
  5
2FE
100
AcDbEntity
  8
0
100
AcDbCircle
 62
7
  6
CONTINUOUS
 10
-30.8808812617
 20
35.3602702099
 40
0.799651641
100
AcDbArc
 50
89.9801385392
 51
154.0648995881
  0
ARC
  5
2FF
100
AcDbEntity
  8
0
100
AcDbCircle
 62
250
  6
CONTINUOUS
 10
-31.5995564179
 20
36.5096869628
 40
0.7995174365
100
AcDbArc
 50
327.7479076316
 51
334.0574130771
  0
ARC
  5
300
100
AcDbEntity
  8
0
100
AcDbCircle
 62
250
  6
CONTINUOUS
 10
-37.4022974761
 20
36.5086552499
 40
0.7973990189
100
AcDbArc
 50
205.9341997307
 51
212.2604845649
  0
ARC
  5
301
100
AcDbEntity
  8
RACCORDO
100
AcDbCircle
 62
7
  6
CONTINUOUS
 10
-13.0
 20
37.5126077394
 40
1.0
100
AcDbArc
 50
105.0
 51
180.0
  0
ARC
  5
302
100
AcDbEntity
  8
RACCORDO
100
AcDbCircle
 62
7
  6
CONTINUOUS
 10
-3.8
 20
45.2291594943
 40
0.3
100
AcDbArc
 50
104.9999999924
 51
180.0
  0
ARC
  5
303
100
AcDbEntity
  8
RACCORDO
100
AcDbCircle
 62
7
  6
CONTINUOUS
 10
-11.55
 20
39.916723929
 40
0.3
100
AcDbArc
 50
104.9999999999
 51
180.0
  0
ARC
  5
304
100
AcDbEntity
  8
RACCORDO
100
AcDbCircle
 62
7
  6
CONTINUOUS
 10
-9.8
 20
41.7569163079
 40
0.3
100
AcDbArc
 50
105.0
 51
180.0
  0
ARC
  5
305
100
AcDbEntity
  8
RACCORDO
100
AcDbCircle
 62
7
  6
CONTINUOUS
 10
-8.05
 20
43.5301213887
 40
0.3
100
AcDbArc
 50
104.9999999998
 51
180.0
  0
CIRCLE
  5
306
100
AcDbEntity
  8
0
100
AcDbCircle
 62
7
  6
CONTINUOUS
 10
-0.0
 20
-4.7899999127
 40
11.25
  0
ARC
  5
307
100
AcDbEntity
  8
0
100
AcDbCircle
 62
7
  6
CONTINUOUS
 10
-0.0
 20
-4.7899999127
 40
11.0
100
AcDbArc
 50
185.7391704773
 51
264.2608295227
  0
ARC
  5
308
100
AcDbEntity
  8
0
100
AcDbCircle
 62
7
  6
CONTINUOUS
 10
-0.0
 20
-4.7899999127
 40
11.0
100
AcDbArc
 50
275.7391704773
 51
354.2608295227
  0
ARC
  5
309
100
AcDbEntity
  8
0
100
AcDbCircle
 62
7
  6
CONTINUOUS
 10
-0.0
 20
-4.7899999127
 40
11.0
100
AcDbArc
 50
95.7391704773
 51
174.2608295227
  0
ARC
  5
30A
100
AcDbEntity
  8
0
100
AcDbCircle
 62
7
  6
CONTINUOUS
 10
-0.0
 20
-4.7899999127
 40
11.0
100
AcDbArc
 50
5.7391704773
 51
84.2608295227
  0
ARC
  5
30B
100
AcDbEntity
  8
0
100
AcDbCircle
 62
7
  6
CONTINUOUS
 10
-0.0
 20
-4.7899999127
 40
10.1299689469
100
AcDbArc
 50
6.233965798
 51
83.766034202
  0
ARC
  5
30C
100
AcDbEntity
  8
0
100
AcDbCircle
 62
7
  6
CONTINUOUS
 10
-0.0
 20
-4.7899999127
 40
10.1299689469
100
AcDbArc
 50
96.233965798
 51
173.766034202
  0
ARC
  5
30D
100
AcDbEntity
  8
0
100
AcDbCircle
 62
7
  6
CONTINUOUS
 10
-0.0
 20
-4.7899999127
 40
10.1299689469
100
AcDbArc
 50
186.233965798
 51
263.766034202
  0
ARC
  5
30E
100
AcDbEntity
  8
0
100
AcDbCircle
 62
7
  6
CONTINUOUS
 10
-0.0
 20
-4.7899999127
 40
10.1299689469
100
AcDbArc
 50
276.233965798
 51
353.766034202
  0
CIRCLE
  5
30F
100
AcDbEntity
  8
RACCORDO
100
AcDbCircle
 62
7
  6
CONTINUOUS
 10
34.5
 20
-31.2899999127
 40
9.5
  0
CIRCLE
  5
310
100
AcDbEntity
  8
RACCORDO
100
AcDbCircle
 62
250
  6
CONTINUOUS
 10
34.5
 20
-31.2899999127
 40
8.9999983613
  0
ARC
  5
311
100
AcDbEntity
  8
SUPERFICI
100
AcDbCircle
 62
7
  6
CONTINUOUS
 10
44.9999999014
 20
-40.2899999127
 40
6.0
100
AcDbArc
 50
269.9997721132
 51
359.9999909297
  0
ARC
  5
312
100
AcDbEntity
  8
DRAFT
100
AcDbCircle
 62
7
  6
CONTINUOUS
 10
45.0
 20
-40.2899999127
 40
6.0
100
AcDbArc
 50
270.0
 51
360.0
  0
ARC
  5
313
100
AcDbEntity
  8
RACCORDO
100
AcDbCircle
 62
250
  6
CONTINUOUS
 10
45.0
 20
-40.2899999127
 40
5.3730280706
100
AcDbArc
 50
270.0
 51
360.0
  0
ARC
  5
314
100
AcDbEntity
  8
RACCORDO
100
AcDbCircle
 62
7
  6
CONTINUOUS
 10
45.0
 20
-40.2899999127
 40
4.2757899725
100
AcDbArc
 50
270.0
 51
360.0
  0
ARC
  5
315
100
AcDbEntity
  8
DRAFT
100
AcDbCircle
 62
7
  6
CONTINUOUS
 10
45.0
 20
-40.2899999127
 40
4.0
100
AcDbArc
 50
270.0
 51
360.0
  0
CIRCLE
  5
316
100
AcDbEntity
  8
0
100
AcDbCircle
 62
7
  6
CONTINUOUS
 10
34.5
 20
-31.2899999127
 40
2.25
  0
CIRCLE
  5
317
100
AcDbEntity
  8
0
100
AcDbCircle
 62
7
  6
CONTINUOUS
 10
34.5
 20
-31.2899999127
 40
1.8
  0
ARC
  5
318
100
AcDbEntity
  8
DRAFT
100
AcDbCircle
 62
7
  6
CONTINUOUS
 10
45.0
 20
-40.2899999127
 40
1.7757900259
100
AcDbArc
 50
90.0
 51
180.0
  0
CIRCLE
  5
319
100
AcDbEntity
  8
0
100
AcDbCircle
 62
7
  6
CONTINUOUS
 10
34.5
 20
-31.2899999127
 40
1.5
  0
ARC
  5
31A
100
AcDbEntity
  8
DRAFT
100
AcDbCircle
 62
7
  6
CONTINUOUS
 10
45.0
 20
-40.2899999127
 40
1.5
100
AcDbArc
 50
90.0
 51
180.0
  0
ARC
  5
31B
100
AcDbEntity
  8
0
100
AcDbCircle
 62
7
  6
CONTINUOUS
 10
38.1191365749
 20
-44.9402700557
 40
0.7996630756
100
AcDbArc
 50
205.9345401295
 51
270.018583171
  0
ARC
  5
31C
100
AcDbEntity
  8
0
100
AcDbCircle
 62
7
  6
CONTINUOUS
 10
30.8808812617
 20
-44.9402700354
 40
0.799651641
100
AcDbArc
 50
269.9801385392
 51
334.0648995881
  0
ARC
  5
31D
100
AcDbEntity
  8
0
100
AcDbCircle
 62
250
  6
CONTINUOUS
 10
31.5995564179
 20
-46.0896867882
 40
0.7995174365
100
AcDbArc
 50
147.7479076316
 51
154.0574130771
  0
ARC
  5
31E
100
AcDbEntity
  8
0
100
AcDbCircle
 62
250
  6
CONTINUOUS
 10
37.4022974761
 20
-46.0886550753
 40
0.7973990189
100
AcDbArc
 50
25.9341997307
 51
32.2604845649
  0
CIRCLE
  5
31F
100
AcDbEntity
  8
RACCORDO
100
AcDbCircle
 62
7
  6
CONTINUOUS
 10
28.3
 20
-4.7899999127
 40
4.8
  0
CIRCLE
  5
320
100
AcDbEntity
  8
RACCORDO
100
AcDbCircle
 62
250
  6
CONTINUOUS
 10
28.3
 20
-4.7899999127
 40
4.2999957281
  0
ARC
  5
321
100
AcDbEntity
  8
RACCORDO
100
AcDbCircle
 62
7
  6
CONTINUOUS
 10
13.0
 20
37.5126077394
 40
1.0
100
AcDbArc
 50
0.0
 51
75.0
  0
ARC
  5
322
100
AcDbEntity
  8
RACCORDO
100
AcDbCircle
 62
7
  6
CONTINUOUS
 10
3.8
 20
45.2291594943
 40
0.3
100
AcDbArc
 50
0.0
 51
75.0000000076
  0
ARC
  5
323
100
AcDbEntity
  8
RACCORDO
100
AcDbCircle
 62
7
  6
CONTINUOUS
 10
11.55
 20
39.916723929
 40
0.3
100
AcDbArc
 50
0.0
 51
75.0000000001
  0
ARC
  5
324
100
AcDbEntity
  8
RACCORDO
100
AcDbCircle
 62
7
  6
CONTINUOUS
 10
9.8
 20
41.7569163079
 40
0.3
100
AcDbArc
 50
0.0
 51
75.0000000001
  0
ARC
  5
325
100
AcDbEntity
  8
RACCORDO
100
AcDbCircle
 62
7
  6
CONTINUOUS
 10
8.05
 20
43.5301213887
 40
0.3
100
AcDbArc
 50
0.0
 51
75.0000000002
  0
CIRCLE
  5
326
100
AcDbEntity
  8
RACCORDO
100
AcDbCircle
 62
7
  6
CONTINUOUS
 10
34.5
 20
21.7100000873
 40
9.5
  0
CIRCLE
  5
327
100
AcDbEntity
  8
RACCORDO
100
AcDbCircle
 62
250
  6
CONTINUOUS
 10
34.5
 20
21.7100000873
 40
8.9999983613
  0
ARC
  5
328
100
AcDbEntity
  8
SUPERFICI
100
AcDbCircle
 62
7
  6
CONTINUOUS
 10
44.9999999014
 20
30.7100000873
 40
6.0
100
AcDbArc
 50
0.0000090703
 51
90.0002278868
  0
ARC
  5
329
100
AcDbEntity
  8
DRAFT
100
AcDbCircle
 62
7
  6
CONTINUOUS
 10
45.0
 20
30.7100000873
 40
6.0
100
AcDbArc
 50
0.0
 51
90.0
  0
ARC
  5
32A
100
AcDbEntity
  8
RACCORDO
100
AcDbCircle
 62
250
  6
CONTINUOUS
 10
45.0
 20
30.7100000873
 40
5.3730280706
100
AcDbArc
 50
0.0
 51
90.0
  0
ARC
  5
32B
100
AcDbEntity
  8
RACCORDO
100
AcDbCircle
 62
7
  6
CONTINUOUS
 10
45.0
 20
30.7100000873
 40
4.2757899725
100
AcDbArc
 50
0.0
 51
90.0
  0
ARC
  5
32C
100
AcDbEntity
  8
DRAFT
100
AcDbCircle
 62
7
  6
CONTINUOUS
 10
45.0
 20
30.7100000873
 40
4.0
100
AcDbArc
 50
0.0
 51
90.0
  0
CIRCLE
  5
32D
100
AcDbEntity
  8
0
100
AcDbCircle
 62
7
  6
CONTINUOUS
 10
34.5
 20
21.7100000873
 40
2.25
  0
CIRCLE
  5
32E
100
AcDbEntity
  8
0
100
AcDbCircle
 62
7
  6
CONTINUOUS
 10
34.5
 20
21.7100000873
 40
1.8
  0
ARC
  5
32F
100
AcDbEntity
  8
DRAFT
100
AcDbCircle
 62
7
  6
CONTINUOUS
 10
45.0
 20
30.7100000873
 40
1.7757900259
100
AcDbArc
 50
180.0
 51
270.0
  0
CIRCLE
  5
330
100
AcDbEntity
  8
0
100
AcDbCircle
 62
7
  6
CONTINUOUS
 10
34.5
 20
21.7100000873
 40
1.5
  0
ARC
  5
331
100
AcDbEntity
  8
DRAFT
100
AcDbCircle
 62
7
  6
CONTINUOUS
 10
45.0
 20
30.7100000873
 40
1.5
100
AcDbArc
 50
180.0
 51
270.0
  0
ARC
  5
332
100
AcDbEntity
  8
0
100
AcDbCircle
 62
7
  6
CONTINUOUS
 10
49.650270143
 20
25.3291366622
 40
0.7996630756
100
AcDbArc
 50
295.9345401295
 51
0.018583171
  0
ARC
  5
333
100
AcDbEntity
  8
0
100
AcDbCircle
 62
7
  6
CONTINUOUS
 10
49.6502701226
 20
18.0908813489
 40
0.799651641
100
AcDbArc
 50
359.9801385392
 51
64.0648995881
  0
ARC
  5
334
100
AcDbEntity
  8
0
100
AcDbCircle
 62
250
  6
CONTINUOUS
 10
50.7996868755
 20
18.8095565052
 40
0.7995174365
100
AcDbArc
 50
237.7479076315
 51
244.0574130771
  0
ARC
  5
335
100
AcDbEntity
  8
0
100
AcDbCircle
 62
250
  6
CONTINUOUS
 10
50.7986551626
 20
24.6122975634
 40
0.7973990189
100
AcDbArc
 50
115.9341997307
 51
122.2604845649
  0
SPLINE
  5
336
100
AcDbEntity
  8
0
100
AcDbSpline
 62
7
  6
CONTINUOUS
 70
0
 71
3
 72
26
 73
22
 74
0
 42
0.0000001
 43
0.0000001
 44
0.0000000001
 40
0.0
 40
0.0
 40
0.0
 40
0.0
 40
0.0005195239
 40
0.0015133858
 40
0.0052097596
 40
0.0112594884
 40
0.0196733806
 40
0.0304437211
 40
0.0435434957
 40
0.0589402061
 40
0.0766005922
 40
0.1185490743
 40
0.1689750611
 40
0.2274082726
 40
0.2932739823
 40
0.3659498877
 40
0.444728707
 40
0.5288619843
 40
0.6175219361
 40
0.8050140842
 40
1.0
 40
1.0
 40
1.0
 40
1.0
 10
50.6160493312
 20
-16.289999384
 30
0.0
 10
50.6140566759
 20
-16.2900340604
 30
0.0
 10
50.6092983143
 20
-16.2851109639
 30
0.0
 10
50.6026510186
 20
-16.2669238553
 30
0.0
 10
50.594056442
 20
-16.2258372965
 30
0.0
 10
50.585137396
 20
-16.1571265454
 30
0.0
 10
50.5756892052
 20
-16.0606043672
 30
0.0
 10
50.5663488202
 20
-15.9371723739
 30
0.0
 10
50.5569994405
 20
-15.7868036599
 30
0.0
 10
50.547763208
 20
-15.6099872271
 30
0.0
 10
50.5348721619
 20
-15.3225403145
 30
0.0
 10
50.519716303
 20
-14.9007002275
 30
0.0
 10
50.5031500967
 20
-14.3224172431
 30
0.0
 10
50.4875921522
 20
-13.6523293683
 30
0.0
 10
50.4731873227
 20
-12.8968455958
 30
0.0
 10
50.4601155919
 20
-12.0632791606
 30
0.0
 10
50.448499305
 20
-11.1596085797
 30
0.0
 10
50.438470523
 20
-10.1945988564
 30
0.0
 10
50.4271271253
 20
-8.8125459954
 30
0.0
 10
50.417763694
 20
-7.0052230531
 30
0.0
 10
50.4152858976
 20
-5.537989587
 30
0.0
 10
50.4152858976
 20
-4.7899999127
 30
0.0
  0
SPLINE
  5
337
100
AcDbEntity
  8
0
100
AcDbSpline
 62
7
  6
CONTINUOUS
 70
0
 71
3
 72
26
 73
22
 74
0
 42
0.0000001
 43
0.0000001
 44
0.0000000001
 40
0.0
 40
0.0
 40
0.0
 40
0.0
 40
0.000523643
 40
0.0015238631
 40
0.0052332555
 40
0.0112952781
 40
0.0197205646
 40
0.0305013057
 40
0.0436104285
 40
0.0590154477
 40
0.0766831196
 40
0.1186429959
 40
0.1690762096
 40
0.2275125985
 40
0.2933776147
 40
0.3660492139
 40
0.4448204217
 40
0.5289431422
 40
0.617589998
 40
0.8050502696
 40
1.0
 40
1.0
 40
1.0
 40
1.0
 10
-50.6159885716
 20
-16.2899999127
 30
0.0
 10
-50.6139798227
 20
-16.2899999127
 30
0.0
 10
-50.6092587282
 20
-16.2850029507
 30
0.0
 10
-50.6025821576
 20
-16.2667396335
 30
0.0
 10
-50.5940178622
 20
-16.2255134139
 30
0.0
 10
-50.5850803232
 20
-16.1566699702
 30
0.0
 10
-50.575641317
 20
-16.0600130991
 30
0.0
 10
-50.566299601
 20
-15.9364631603
 30
0.0
 10
-50.5569534564
 20
-15.7859867043
 30
0.0
 10
-50.5477191535
 20
-15.6090753433
 30
0.0
 10
-50.5348323969
 20
-15.3215259023
 30
0.0
 10
-50.5196809174
 20
-14.8995882552
 30
0.0
 10
-50.5031196283
 20
-14.3212241883
 30
0.0
 10
-50.4875665339
 20
-13.6511021076
 30
0.0
 10
-50.473166456
 20
-12.8956287968
 30
0.0
 10
-50.4600991979
 20
-12.0621146058
 30
0.0
 10
-50.4484870112
 20
-11.1585344525
 30
0.0
 10
-50.4384618564
 20
-10.1936491792
 30
0.0
 10
-50.4271227224
 20
-8.8118158193
 30
0.0
 10
-50.417762779
 20
-7.004812712
 30
0.0
 10
-50.4152858976
 20
-5.5378472519
 30
0.0
 10
-50.4152858976
 20
-4.7899999127
 30
0.0
  0
SPLINE
  5
338
100
AcDbEntity
  8
0
100
AcDbSpline
 62
7
  6
CONTINUOUS
 70
0
 71
3
 72
26
 73
22
 74
0
 42
0.0000001
 43
0.0000001
 44
0.0000000001
 40
0.0
 40
0.0
 40
0.0
 40
0.0
 40
0.000523643
 40
0.0015238631
 40
0.0052332555
 40
0.0112952781
 40
0.0197205646
 40
0.0305013057
 40
0.0436104285
 40
0.0590154477
 40
0.0766831196
 40
0.1186429959
 40
0.1690762096
 40
0.2275125985
 40
0.2933776147
 40
0.3660492139
 40
0.4448204217
 40
0.5289431422
 40
0.617589998
 40
0.8050502696
 40
1.0
 40
1.0
 40
1.0
 40
1.0
 10
-11.5
 20
-45.9059884843
 30
0.0
 10
-11.5
 20
-45.9039797355
 30
0.0
 10
-11.495003038
 20
-45.899258641
 30
0.0
 10
-11.4767397208
 20
-45.8925820703
 30
0.0
 10
-11.4355135011
 20
-45.8840177749
 30
0.0
 10
-11.3666700575
 20
-45.8750802359
 30
0.0
 10
-11.2700131863
 20
-45.8656412298
 30
0.0
 10
-11.1464632475
 20
-45.8562995137
 30
0.0
 10
-10.9959867915
 20
-45.8469533692
 30
0.0
 10
-10.8190754306
 20
-45.8377190662
 30
0.0
 10
-10.5315259896
 20
-45.8248323096
 30
0.0
 10
-10.1095883425
 20
-45.8096808302
 30
0.0
 10
-9.5312242756
 20
-45.793119541
 30
0.0
 10
-8.8611021948
 20
-45.7775664466
 30
0.0
 10
-8.1056288841
 20
-45.7631663687
 30
0.0
 10
-7.2721146931
 20
-45.7500991107
 30
0.0
 10
-6.3685345397
 20
-45.7384869239
 30
0.0
 10
-5.4036492665
 20
-45.7284617691
 30
0.0
 10
-4.0218159066
 20
-45.7171226351
 30
0.0
 10
-2.2148127993
 20
-45.7077626917
 30
0.0
 10
-0.7478473392
 20
-45.7052858103
 30
0.0
 10
-0.0
 20
-45.7052858103
 30
0.0
  0
SPLINE
  5
339
100
AcDbEntity
  8
0
100
AcDbSpline
 62
7
  6
CONTINUOUS
 70
0
 71
3
 72
86
 73
82
 74
0
 42
0.0000001
 43
0.0000001
 44
0.0000000001
 40
0.0
 40
0.0
 40
0.0
 40
0.0
 40
0.037913494
 40
0.0732120617
 40
0.1066917474
 40
0.1230517853
 40
0.1393137967
 40
0.1474497632
 40
0.1556089115
 40
0.1637834162
 40
0.1719235138
 40
0.1881464733
 40
0.2044009915
 40
0.2208095401
 40
0.2374911987
 40
0.2545593316
 40
0.2632732971
 40
0.2721228609
 40
0.281119902
 40
0.2902757254
 40
0.2996010588
 40
0.3043306389
 40
0.306712674
 40
0.3091063922
 40
0.3115119401
 40
0.3127191976
 40
0.3139294665
 40
0.314535736
 40
0.3151120795
 40
0.3162532233
 40
0.318529584
 40
0.3230590216
 40
0.3275583046
 40
0.3320284701
 40
0.3364705752
 40
0.3452746574
 40
0.353979674
 40
0.362594787
 40
0.3795909138
 40
0.396344087
 40
0.4129364868
 40
0.4294526933
 40
0.4459784567
 40
0.4625993792
 40
0.4793613716
 40
0.5130898145
 40
0.5476477191
 40
0.58369029
 40
0.6024605912
 40
0.6218115526
 40
0.6317241375
 40
0.6418402195
 40
0.662900958
 40
0.6851221377
 40
0.7085560017
 40
0.7332470966
 40
0.7592335042
 40
0.7865478891
 40
0.8152183773
 40
0.8300702318
 40
0.8376264836
 40
0.8452700255
 40
0.8530011701
 40
0.8608202196
 40
0.8647628048
 40
0.8667423776
 40
0.8677286686
 40
0.8686812682
 40
0.8705818526
 40
0.8724762879
 40
0.8762467291
 40
0.879992631
 40
0.8837140328
 40
0.8910834848
 40
0.8983554224
 40
0.9055301862
 40
0.9195895315
 40
0.9332646261
 40
0.9594745425
 40
0.9841906079
 40
1.0
 40
1.0
 40
1.0
 40
1.0
 10
-0.9949
 20
23.3906000873
 30
0.0
 10
-0.9887351406
 20
23.3420171013
 30
0.0
 10
-0.9714031377
 20
23.2487331109
 30
0.0
 10
-0.9273341226
 20
23.1176410515
 30
0.0
 10
-0.8757959116
 20
23.0198418712
 30
0.0
 10
-0.826369484
 20
22.9501058241
 30
0.0
 10
-0.792205585
 20
22.9099474064
 30
0.0
 10
-0.762878348
 20
22.8797918223
 30
0.0
 10
-0.7398556106
 20
22.8581206442
 30
0.0
 10
-0.7159074662
 20
22.8374692185
 30
0.0
 10
-0.6829225957
 20
22.8114060634
 30
0.0
 10
-0.6396626133
 20
22.7815926172
 30
0.0
 10
-0.5846682288
 20
22.7504020981
 30
0.0
 10
-0.526646147
 20
22.7238312744
 30
0.0
 10
-0.465611441
 20
22.7018820341
 30
0.0
 10
-0.4126067147
 20
22.6875373689
 30
0.0
 10
-0.3688213536
 20
22.6783361217
 30
0.0
 10
-0.3349992688
 20
22.6725334476
 30
0.0
 10
-0.3004252859
 20
22.6678778232
 30
0.0
 10
-0.2650989312
 20
22.6643687694
 30
0.0
 10
-0.2351760455
 20
22.6624092644
 30
0.0
 10
-0.2139618325
 20
22.6615342202
 30
0.0
 10
-0.2016890295
 20
22.6611739887
 30
0.0
 10
-0.1924150454
 20
22.660974748
 30
0.0
 10
-0.1846571089
 20
22.6608685026
 30
0.0
 10
-0.1784273648
 20
22.6608191648
 30
0.0
 10
-0.174521573
 20
22.6608032184
 30
0.0
 10
-0.1714307069
 20
22.6607994306
 30
0.0
 10
-0.1684291275
 20
22.6608013572
 30
0.0
 10
-0.1632703232
 20
22.6608189866
 30
0.0
 10
-0.1530056503
 20
22.660910863
 30
0.0
 10
-0.1384053186
 20
22.6612042368
 30
0.0
 10
-0.1209790513
 20
22.6618174008
 30
0.0
 10
-0.103676775
 20
22.6626910955
 30
0.0
 10
-0.0808416714
 20
22.6641988132
 30
0.0
 10
-0.0525955647
 20
22.6667298363
 30
0.0
 10
-0.019093653
 20
22.6708193002
 30
0.0
 10
0.0247124312
 20
22.6776308536
 30
0.0
 10
0.0783416882
 20
22.6887392607
 30
0.0
 10
0.1410006343
 20
22.7063188709
 30
0.0
 10
0.2016744383
 20
22.7280894222
 30
0.0
 10
0.2603560187
 20
22.7540511819
 30
0.0
 10
0.3170419036
 20
22.7841999843
 30
0.0
 10
0.3716822878
 20
22.8185159995
 30
0.0
 10
0.441731621
 20
22.8696870271
 30
0.0
 10
0.5230614465
 20
22.9441720349
 30
0.0
 10
0.6087016916
 20
23.0487575184
 30
0.0
 10
0.6694785319
 20
23.147296102
 30
0.0
 10
0.7123307609
 20
23.2330174637
 30
0.0
 10
0.7368917579
 20
23.2900334401
 30
0.0
 10
0.7551671698
 20
23.3375079663
 30
0.0
 10
0.7728889808
 20
23.3875439521
 30
0.0
 10
0.7930497351
 20
23.4535450727
 30
0.0
 10
0.814024649
 20
23.5371622805
 30
0.0
 10
0.8320737704
 20
23.6262468972
 30
0.0
 10
0.847207174
 20
23.720796663
 30
0.0
 10
0.8594242546
 20
23.8208158151
 30
0.0
 10
0.8687264522
 20
23.9263058423
 30
0.0
 10
0.8739861477
 20
24.0176675118
 30
0.0
 10
0.87642553
 20
24.0836018242
 30
0.0
 10
0.8774776252
 20
24.1224053161
 30
0.0
 10
0.8780888871
 20
24.1520189256
 30
0.0
 10
0.8785177703
 20
24.181975214
 30
0.0
 10
0.8787225988
 20
24.2071532209
 30
0.0
 10
0.8787867981
 20
24.2249025382
 30
0.0
 10
0.8787990661
 20
24.2338261227
 30
0.0
 10
0.8788004582
 20
24.2388875715
 30
0.0
 10
0.8787979997
 20
24.2438469911
 30
0.0
 10
0.8787877557
 20
24.2499794482
 30
0.0
 10
0.8787561025
 20
24.2597516469
 30
0.0
 10
0.8786879471
 20
24.2719073069
 30
0.0
 10
0.8785600734
 20
24.2864224767
 30
0.0
 10
0.8783290584
 20
24.3055856339
 30
0.0
 10
0.8779265643
 20
24.3293014779
 30
0.0
 10
0.8772581676
 20
24.3574735414
 30
0.0
 10
0.8761295045
 20
24.3942774794
 30
0.0
 10
0.874269276
 20
24.4393330243
 30
0.0
 10
0.8703469105
 20
24.5089034737
 30
0.0
 10
0.8636955352
 20
24.59210319
 30
0.0
 10
0.853762301
 20
24.677738215
 30
0.0
 10
0.8459858307
 20
24.7295352991
 30
0.0
 10
0.8426465335
 20
24.7496907756
 30
0.0
  0
SPLINE
  5
33A
100
AcDbEntity
  8
0
100
AcDbSpline
 62
7
  6
CONTINUOUS
 70
0
 71
3
 72
116
 73
112
 74
0
 42
0.0000001
 43
0.0000001
 44
0.0000000001
 40
0.0
 40
0.0
 40
0.0
 40
0.0
 40
0.0045939063
 40
0.0089290665
 40
0.0130055137
 40
0.0168232879
 40
0.020382438
 40
0.0220650483
 40
0.0236830264
 40
0.0252363822
 40
0.0267251271
 40
0.0274452745
 40
0.0281492742
 40
0.0288371279
 40
0.0295088378
 40
0.030164406
 40
0.0304861377
 40
0.0308038349
 40
0.0311174978
 40
0.0314271269
 40
0.0315804289
 40
0.0317327225
 40
0.0318840078
 40
0.0320342849
 40
0.0321090454
 40
0.0321835538
 40
0.0322948438
 40
0.0323595012
 40
0.0324108566
 40
0.0324968788
 40
0.0326689196
 40
0.0330129861
 40
0.0333570327
 40
0.0340450666
 40
0.0347330216
 40
0.0361086968
 40
0.0374840623
 40
0.0402338781
 40
0.0429824998
 40
0.0457299576
 40
0.0484762813
 40
0.0512215012
 40
0.0567087424
 40
0.0621919302
 40
0.0731470534
 40
0.0840888731
 40
0.0950193384
 40
0.1059404044
 40
0.1168540315
 40
0.1386663364
 40
0.1604724875
 40
0.1822882422
 40
0.2041293369
 40
0.2260114535
 40
0.2369517593
 40
0.247714248
 40
0.2582625929
 40
0.2685983463
 40
0.2886383306
 40
0.3078491045
 40
0.3262471327
 40
0.3438511608
 40
0.3606825874
 40
0.3767658949
 40
0.3921291432
 40
0.4068816326
 40
0.4214105897
 40
0.4357959318
 40
0.4642774913
 40
0.4926453914
 40
0.5212131254
 40
0.5356542003
 40
0.5500977922
 40
0.5645695478
 40
0.5791282644
 40
0.6087221517
 40
0.6238810005
 40
0.6315727854
 40
0.6393471715
 40
0.6472100901
 40
0.6511766359
 40
0.6551674475
 40
0.6591832101
 40
0.661200669
 40
0.6632246169
 40
0.6652551356
 40
0.6662728858
 40
0.6667946792
 40
0.6673899808
 40
0.6685783888
 40
0.6697638853
 40
0.6721262122
 40
0.6744771123
 40
0.6768167343
 40
0.6814627105
 40
0.68606541
 40
0.6906260997
 40
0.6996263557
 40
0.708474644
 40
0.717182377
 40
0.7257615277
 40
0.7425813571
 40
0.7590434278
 40
0.7752610049
 40
0.8074087328
 40
0.8154901013
 40
0.823616478
 40
0.8401227546
 40
0.8747211051
 40
0.9123847098
 40
1.0
 40
1.0
 40
1.0
 40
1.0
 10
0.518
 20
24.0927251029
 30
0.0
 10
0.5181453867
 20
24.0893176544
 30
0.0
 10
0.5184204998
 20
24.0826943555
 30
0.0
 10
0.5187961644
 20
24.0730462689
 30
0.0
 10
0.519122886
 20
24.0639729547
 30
0.0
 10
0.5194006779
 20
24.0554744124
 30
0.0
 10
0.519594906
 20
24.0487513333
 30
0.0
 10
0.5197248758
 20
24.0436602694
 30
0.0
 10
0.5198082604
 20
24.0400576278
 30
0.0
 10
0.5198793991
 20
24.0365986797
 30
0.0
 10
0.5199290108
 20
24.0338059962
 30
0.0
 10
0.5199624105
 20
24.0316437017
 30
0.0
 10
0.5199841175
 20
24.0300758868
 30
0.0
 10
0.5200027606
 20
24.0285439954
 30
0.0
 10
0.5200183396
 20
24.0270480276
 30
0.0
 10
0.5200288331
 20
24.0258238352
 30
0.0
 10
0.5200356697
 20
24.0248624443
 30
0.0
 10
0.5200399988
 20
24.0241548753
 30
0.0
 10
0.5200435616
 20
24.0234562872
 30
0.0
 10
0.5200458997
 20
24.0228797429
 30
0.0
 10
0.5200473834
 20
24.0224229981
 30
0.0
 10
0.5200483009
 20
24.0220838077
 30
0.0
 10
0.5200490269
 20
24.0217468625
 30
0.0
 10
0.5200494729
 20
24.0214674781
 30
0.0
 10
0.5200497335
 20
24.0212450932
 30
0.0
 10
0.520049905
 20
24.0210516525
 30
0.0
 10
0.5200500037
 20
24.0208657123
 30
0.0
 10
0.5200500343
 20
24.0206969611
 30
0.0
 10
0.5200500295
 20
24.0205469688
 30
0.0
 10
0.5200500089
 20
24.0203172544
 30
0.0
 10
0.5200498961
 20
24.0198702292
 30
0.0
 10
0.5200495397
 20
24.0192316449
 30
0.0
 10
0.5200485475
 20
24.018209984
 30
0.0
 10
0.5200465186
 20
24.0169330189
 30
0.0
 10
0.5200415889
 20
24.0148901697
 30
0.0
 10
0.520032271
 20
24.0123370505
 30
0.0
 10
0.52001063
 20
24.0082532314
 30
0.0
 10
0.5199709572
 20
24.0031502153
 30
0.0
 10
0.5199031431
 20
23.9970287688
 30
0.0
 10
0.5198151278
 20
23.990910172
 30
0.0
 10
0.5197069111
 20
23.9847944244
 30
0.0
 10
0.5195357205
 20
23.9766454828
 30
0.0
 10
0.5192712528
 20
23.9664662371
 30
0.0
 10
0.518740463
 20
23.9501971128
 30
0.0
 10
0.5178750937
 20
23.9298876813
 30
0.0
 10
0.5165130233
 20
23.9055537624
 30
0.0
 10
0.5148276787
 20
23.8812654265
 30
0.0
 10
0.5128190501
 20
23.8570226472
 30
0.0
 10
0.5097106033
 20
23.8247674476
 30
0.0
 10
0.5050159038
 20
23.7845502079
 30
0.0
 10
0.4980872103
 20
23.736462281
 30
0.0
 10
0.4898649602
 20
23.6885566296
 30
0.0
 10
0.4803479918
 20
23.640834112
 30
0.0
 10
0.4713510137
 20
23.6012558877
 30
0.0
 10
0.463543192
 20
23.5698535797
 30
0.0
 10
0.4575041154
 20
23.5466836715
 30
0.0
 10
0.4513078105
 20
23.5240201855
 30
0.0
 10
0.4429332663
 20
23.4948141975
 30
0.0
 10
0.4321102747
 20
23.4596227672
 30
0.0
 10
0.4183878334
 20
23.4190771333
 30
0.0
 10
0.4040675669
 20
23.3806621403
 30
0.0
 10
0.389149071
 20
23.3443775183
 30
0.0
 10
0.3736321662
 20
23.3102224566
 30
0.0
 10
0.3575148047
 20
23.2781973871
 30
0.0
 10
0.3407727246
 20
23.2482486056
 30
0.0
 10
0.3232121551
 20
23.2201227038
 30
0.0
 10
0.3046839212
 20
23.1935031811
 30
0.0
 10
0.2785927705
 20
23.1597951683
 30
0.0
 10
0.2430149471
 20
23.1205249307
 30
0.0
 10
0.1956412342
 20
23.0781955063
 30
0.0
 10
0.1525321979
 20
23.0472079774
 30
0.0
 10
0.1161216333
 20
23.0249558714
 30
0.0
 10
0.0876163429
 20
23.009953794
 30
0.0
 10
0.0581307157
 20
22.9967722071
 30
0.0
 10
0.0173282546
 20
22.9815585251
 30
0.0
 10
-0.0253244954
 20
22.9701056214
 30
0.0
 10
-0.0636881561
 20
22.9633647078
 30
0.0
 10
-0.0862313991
 20
22.9603847543
 30
0.0
 10
-0.1034605451
 20
22.9585953345
 30
0.0
 10
-0.1179742991
 20
22.957487652
 30
0.0
 10
-0.1297011087
 20
22.9568277518
 30
0.0
 10
-0.1385820726
 20
22.9564453689
 30
0.0
 10
-0.1460208582
 20
22.9562220845
 30
0.0
 10
-0.1520013498
 20
22.9561001955
 30
0.0
 10
-0.1565087807
 20
22.9560371365
 30
0.0
 10
-0.1602743474
 20
22.9560083533
 30
0.0
 10
-0.1629247796
 20
22.9560006354
 30
0.0
 10
-0.1645097043
 20
22.9559997592
 30
0.0
 10
-0.1662213256
 20
22.9560018786
 30
0.0
 10
-0.1684256727
 20
22.956011032
 30
0.0
 10
-0.1719417778
 20
22.9560393308
 30
0.0
 10
-0.1763206566
 20
22.9561002773
 30
0.0
 10
-0.1815555511
 20
22.956214564
 30
0.0
 10
-0.1884840141
 20
22.9564212051
 30
0.0
 10
-0.1970801092
 20
22.9567814566
 30
0.0
 10
-0.2073153365
 20
22.9573790695
 30
0.0
 10
-0.2207626877
 20
22.9583904072
 30
0.0
 10
-0.2373190818
 20
22.9600604459
 30
0.0
 10
-0.2568570428
 20
22.9627311509
 30
0.0
 10
-0.2759771229
 20
22.9660598298
 30
0.0
 10
-0.3007465889
 20
22.9713397811
 30
0.0
 10
-0.3307502527
 20
22.9795720552
 30
0.0
 10
-0.3653208935
 20
22.9921679188
 30
0.0
 10
-0.4090286163
 20
23.0124165875
 30
0.0
 10
-0.4446681572
 20
23.0349627795
 30
0.0
 10
-0.4727376484
 20
23.0573472254
 30
0.0
 10
-0.4910913146
 20
23.073267112
 30
0.0
 10
-0.5220977522
 20
23.1045466799
 30
0.0
 10
-0.5613848747
 20
23.1579555526
 30
0.0
 10
-0.6151029963
 20
23.2642373299
 30
0.0
 10
-0.638936751
 20
23.3552899221
 30
0.0
 10
-0.6505
 20
23.4193000873
 30
0.0
  0
SPLINE
  5
33B
100
AcDbEntity
  8
0
100
AcDbSpline
 62
7
  6
CONTINUOUS
 70
0
 71
3
 72
133
 73
129
 74
0
 42
0.0000001
 43
0.0000001
 44
0.0000000001
 40
0.0
 40
0.0
 40
0.0
 40
0.0
 40
0.0673268751
 40
0.0985519552
 40
0.1138535137
 40
0.1290684073
 40
0.1442953512
 40
0.1519456989
 40
0.1596314728
 40
0.1672988314
 40
0.1749377366
 40
0.1901760977
 40
0.2054480701
 40
0.2208514805
 40
0.2364816876
 40
0.2524299827
 40
0.260551784
 40
0.2687848243
 40
0.2771388741
 40
0.285623286
 40
0.289917319
 40
0.2942472541
 40
0.2986141409
 40
0.3030190026
 40
0.3074628362
 40
0.3096996867
 40
0.311946642
 40
0.3130739476
 40
0.3136385635
 40
0.3142038237
 40
0.31476973
 40
0.3150529261
 40
0.3151945849
 40
0.3153362844
 40
0.3154071493
 40
0.3154966219
 40
0.3156866852
 40
0.3160666267
 40
0.3168257715
 40
0.3175839351
 40
0.3183411219
 40
0.3198525795
 40
0.3213601781
 40
0.3228639503
 40
0.3258601402
 40
0.3288414252
 40
0.3318080772
 40
0.3347603719
 40
0.3406229417
 40
0.3464314917
 40
0.3578953925
 40
0.3691722323
 40
0.3802825783
 40
0.3912479345
 40
0.4020906675
 40
0.4128339101
 40
0.4341114281
 40
0.4552819219
 40
0.4658921957
 40
0.4765500458
 40
0.4872798269
 40
0.4981054083
 40
0.5035617701
 40
0.5090507358
 40
0.5145750922
 40
0.5201375733
 40
0.5229339909
 40
0.5257409389
 40
0.5271484688
 40
0.5285587531
 40
0.5299718319
 40
0.5306794324
 40
0.5313877464
 40
0.5317421726
 40
0.5320967791
 40
0.5328871986
 40
0.5337026467
 40
0.5345189463
 40
0.5361541352
 40
0.537792843
 40
0.5410810962
 40
0.5443843184
 40
0.5510378599
 40
0.5577582001
 40
0.5645497889
 40
0.5714169376
 40
0.585393466
 40
0.5997205073
 40
0.6144274592
 40
0.6295415031
 40
0.6610835114
 40
0.6945296893
 40
0.730028257
 40
0.7485884618
 40
0.7677064525
 40
0.7873946088
 40
0.8076642656
 40
0.82852581
 40
0.8391816883
 40
0.84456638
 40
0.8499890764
 40
0.8554499098
 40
0.8581946705
 40
0.8609490138
 40
0.8623297841
 40
0.863712956
 40
0.8650985313
 40
0.865792221
 40
0.8664865122
 40
0.8668338835
 40
0.8671530246
 40
0.8677739277
 40
0.869014065
 40
0.8714876702
 40
0.8739523949
 40
0.8764082537
 40
0.8812934279
 40
0.8861433142
 40
0.8909580334
 40
0.9004824345
 40
0.9098676812
 40
0.9191148388
 40
0.9282250215
 40
0.9460388641
 40
0.9633194722
 40
0.9800777768
 40
0.9963257631
 40
1.0
 40
1.0
 40
1.0
 40
1.0
 10
-1.4541
 20
24.9281000873
 30
0.0
 10
-1.4652657829
 20
25.014590374
 30
0.0
 10
-1.4955490946
 20
25.140656292
 30
0.0
 10
-1.5617935674
 20
25.2730282069
 30
0.0
 10
-1.605903776
 20
25.3398346894
 30
0.0
 10
-1.6424584555
 20
25.3865467163
 30
0.0
 10
-1.6759470252
 20
25.4228610992
 30
0.0
 10
-1.7044892063
 20
25.450306317
 30
0.0
 10
-1.7267734303
 20
25.4700979172
 30
0.0
 10
-1.7498082709
 20
25.4889873678
 30
0.0
 10
-1.7813853452
 20
25.5128390786
 30
0.0
 10
-1.8225851391
 20
25.5402275267
 30
0.0
 10
-1.8746577768
 20
25.5690850122
 30
0.0
 10
-1.9293261298
 20
25.5939133343
 30
0.0
 10
-1.9865794955
 20
25.6147105543
 30
0.0
 10
-2.0361434952
 20
25.628600887
 30
0.0
 10
-2.0769861023
 20
25.6377227375
 30
0.0
 10
-2.1084530403
 20
25.6436050256
 30
0.0
 10
-2.1405650388
 20
25.6484856338
 30
0.0
 10
-2.1677530658
 20
25.651705351
 30
0.0
 10
-2.1898162708
 20
25.6537860729
 30
0.0
 10
-2.2065923607
 20
25.6551028249
 30
0.0
 10
-2.2235299885
 20
25.6561694507
 30
0.0
 10
-2.2406291938
 20
25.656985962
 30
0.0
 10
-2.2549810714
 20
25.6574569074
 30
0.0
 10
-2.2665423059
 20
25.6577094384
 30
0.0
 10
-2.2738096408
 20
25.6578154023
 30
0.0
 10
-2.2789114354
 20
25.6578622906
 30
0.0
 10
-2.2818350874
 20
25.6578813127
 30
0.0
 10
-2.2840315997
 20
25.6578916801
 30
0.0
 10
-2.2858636073
 20
25.6578970618
 30
0.0
 10
-2.2871469322
 20
25.6578991208
 30
0.0
 10
-2.287880786
 20
25.6578998094
 30
0.0
 10
-2.2883396089
 20
25.6579000364
 30
0.0
 10
-2.2887308353
 20
25.6579000996
 30
0.0
 10
-2.2891847072
 20
25.6579000602
 30
0.0
 10
-2.2900389239
 20
25.6578996274
 30
0.0
 10
-2.2917605612
 20
25.6578972726
 30
0.0
 10
-2.294218047
 20
25.6578896778
 30
0.0
 10
-2.2971641451
 20
25.657873785
 30
0.0
 10
-2.301084636
 20
25.6578435798
 30
0.0
 10
-2.3059756917
 20
25.6577889159
 30
0.0
 10
-2.311833369
 20
25.6576961736
 30
0.0
 10
-2.3196133088
 20
25.6575365803
 30
0.0
 10
-2.3293001972
 20
25.6572695786
 30
0.0
 10
-2.34087768
 20
25.6568403524
 30
0.0
 10
-2.3523937384
 20
25.6563027042
 30
0.0
 10
-2.367630225
 20
25.6554433302
 30
0.0
 10
-2.386525549
 20
25.6540998102
 30
0.0
 10
-2.4163699548
 20
25.6513787682
 30
0.0
 10
-2.4530895056
 20
25.6469045381
 30
0.0
 10
-2.4963661376
 20
25.6397740279
 30
0.0
 10
-2.5386617321
 20
25.6309053197
 30
0.0
 10
-2.5799751308
 20
25.6202982795
 30
0.0
 10
-2.6203069993
 20
25.6079518631
 30
0.0
 10
-2.6725959015
 20
25.5892357478
 30
0.0
 10
-2.7357551266
 20
25.5614251992
 30
0.0
 10
-2.7957719022
 20
25.5277036516
 30
0.0
 10
-2.8416284774
 20
25.497357748
 30
0.0
 10
-2.8750665493
 20
25.4728403848
 30
0.0
 10
-2.9075164441
 20
25.4465863172
 30
0.0
 10
-2.9336672175
 20
25.4233212947
 30
0.0
 10
-2.9540817601
 20
25.403864154
 30
0.0
 10
-2.9691879985
 20
25.3887981899
 30
0.0
 10
-2.9840480283
 20
25.3732986352
 30
0.0
 10
-2.996204412
 20
25.3600448277
 30
0.0
 10
-3.0058055397
 20
25.3492279667
 30
0.0
 10
-3.0117602233
 20
25.3423713656
 30
0.0
 10
-3.0164931307
 20
25.3368322632
 30
0.0
 10
-3.0200308633
 20
25.3326468294
 30
0.0
 10
-3.0229647117
 20
25.3291381445
 30
0.0
 10
-3.0253040767
 20
25.3263176748
 30
0.0
 10
-3.0267633892
 20
25.3245488397
 30
0.0
 10
-3.0279288074
 20
25.3231302997
 30
0.0
 10
-3.0291601821
 20
25.3216283077
 30
0.0
 10
-3.0307625506
 20
25.3196582933
 30
0.0
 10
-3.0327343572
 20
25.3172179257
 30
0.0
 10
-3.03538252
 20
25.3139173076
 30
0.0
 10
-3.0386769248
 20
25.3097680623
 30
0.0
 10
-3.0439170689
 20
25.3030755148
 30
0.0
 10
-3.0504040096
 20
25.2946153899
 30
0.0
 10
-3.0606604381
 20
25.2808620542
 30
0.0
 10
-3.0732282088
 20
25.2632892211
 30
0.0
 10
-3.0878669664
 20
25.241653219
 30
0.0
 10
-3.1020992083
 20
25.2194182681
 30
0.0
 10
-3.1206411242
 20
25.1887954903
 30
0.0
 10
-3.14279785
 20
25.1489684059
 30
0.0
 10
-3.1676001154
 20
25.0990621663
 30
0.0
 10
-3.1907732454
 20
25.0467632579
 30
0.0
 10
-3.2199117176
 20
24.9727930156
 30
0.0
 10
-3.2521029238
 20
24.8740434026
 30
0.0
 10
-3.2836638634
 20
24.7476756492
 30
0.0
 10
-3.3042235371
 20
24.6361393956
 30
0.0
 10
-3.3175730771
 20
24.5422906079
 30
0.0
 10
-3.3261083598
 20
24.4684674246
 30
0.0
 10
-3.3330193548
 20
24.3922524793
 30
0.0
 10
-3.3383060747
 20
24.3136445008
 30
0.0
 10
-3.3413364237
 20
24.246628068
 30
0.0
 10
-3.3427575753
 20
24.1988494409
 30
0.0
 10
-3.3433745452
 20
24.1710549484
 30
0.0
 10
-3.3437373717
 20
24.1499858689
 30
0.0
 10
-3.3439547345
 20
24.1323344975
 30
0.0
 10
-3.3440781258
 20
24.1181386892
 30
0.0
 10
-3.3441341777
 20
24.1092274004
 30
0.0
 10
-3.3441663606
 20
24.1020796732
 30
0.0
 10
-3.3441841728
 20
24.096704859
 30
0.0
 10
-3.3441937235
 20
24.0922199966
 30
0.0
 10
-3.3441981958
 20
24.0886274303
 30
0.0
 10
-3.3441996686
 20
24.0863796406
 30
0.0
 10
-3.3442000488
 20
24.0846170008
 30
0.0
 10
-3.3441999301
 20
24.0829494201
 30
0.0
 10
-3.3441984429
 20
24.0801254457
 30
0.0
 10
-3.3441904908
 20
24.0745108126
 30
0.0
 10
-3.3441648303
 20
24.0665079181
 30
0.0
 10
-3.3441110889
 20
24.0569304161
 30
0.0
 10
-3.3440090514
 20
24.0442294831
 30
0.0
 10
-3.3438245085
 20
24.028439677
 30
0.0
 10
-3.3435109625
 20
24.0095959719
 30
0.0
 10
-3.3429726039
 20
23.984746326
 30
0.0
 10
-3.3420729982
 20
23.9540288847
 30
0.0
 10
-3.340622746
 20
23.9175857459
 30
0.0
 10
-3.3388057506
 20
23.8816961498
 30
0.0
 10
-3.3359156974
 20
23.8349323157
 30
0.0
 10
-3.3314080751
 20
23.7778462416
 30
0.0
 10
-3.3244908201
 20
23.7110320995
 30
0.0
 10
-3.3161066215
 20
23.6464291374
 30
0.0
 10
-3.3086950472
 20
23.599494126
 30
0.0
 10
-3.3042058013
 20
23.5740794089
 30
0.0
 10
-3.3033617255
 20
23.5693950282
 30
0.0
  0
SPLINE
  5
33C
100
AcDbEntity
  8
0
100
AcDbSpline
 62
7
  6
CONTINUOUS
 70
0
 71
3
 72
114
 73
110
 74
0
 42
0.0000001
 43
0.0000001
 44
0.0000000001
 40
0.0
 40
0.0
 40
0.0
 40
0.0
 40
0.1152208032
 40
0.1664198456
 40
0.2135011028
 40
0.2566317415
 40
0.2767852594
 40
0.29603811
 40
0.3053391108
 40
0.31443764
 40
0.3322807302
 40
0.3497179581
 40
0.3667715566
 40
0.3998179654
 40
0.4316347181
 40
0.4624558551
 40
0.4775769186
 40
0.485079325
 40
0.492548418
 40
0.4999886164
 40
0.5036993458
 40
0.5074045319
 40
0.5092552318
 40
0.5111047582
 40
0.5129531821
 40
0.5148005748
 40
0.5157239078
 40
0.5161854872
 40
0.5165664091
 40
0.5169270645
 40
0.517287595
 40
0.5180082841
 40
0.5194481974
 40
0.5208862038
 40
0.5237566958
 40
0.5266202015
 40
0.5323278735
 40
0.5380128129
 40
0.5436785474
 40
0.5493286403
 40
0.554966685
 40
0.5662202013
 40
0.5774690882
 40
0.588742472
 40
0.60006929
 40
0.6114780729
 40
0.6229967424
 40
0.628806212
 40
0.6346532493
 40
0.6405410967
 40
0.6464729298
 40
0.6524518538
 40
0.655459972
 40
0.6584809939
 40
0.6599964643
 40
0.661515298
 40
0.6622759908
 40
0.6630375414
 40
0.6648578527
 40
0.6667469421
 40
0.6686303159
 40
0.6705080689
 40
0.672380297
 40
0.6761085405
 40
0.6798158529
 40
0.6871706766
 40
0.6944514873
 40
0.7016650077
 40
0.7159162104
 40
0.7299833258
 40
0.743925961
 40
0.7578053274
 40
0.7716834732
 40
0.785622463
 40
0.7996835559
 40
0.806779531
 40
0.8139282317
 40
0.82113676
 40
0.8247657374
 40
0.8284122533
 40
0.8320771439
 40
0.8357612328
 40
0.839465331
 40
0.8413251457
 40
0.8431902607
 40
0.844124838
 40
0.8450607768
 40
0.8455292608
 40
0.8459980898
 40
0.8466465743
 40
0.8472238068
 40
0.8478023084
 40
0.8483820884
 40
0.8489631561
 40
0.8501291888
 40
0.8513004815
 40
0.8536591149
 40
0.8584424575
 40
0.8633176562
 40
0.8682887837
 40
0.8733596817
 40
0.8838142287
 40
0.8947086847
 40
0.9060664315
 40
0.9179081069
 40
0.9302519217
 40
0.9431139539
 40
0.9704449309
 40
1.0
 40
1.0
 40
1.0
 40
1.0
 10
-2.9875
 20
24.2261032612
 30
0.0
 10
-2.9867187401
 20
24.3113584854
 30
0.0
 10
-2.981800275
 20
24.4345838574
 30
0.0
 10
-2.9643108098
 20
24.5916536726
 30
0.0
 10
-2.9470968085
 20
24.6949252287
 30
0.0
 10
-2.9285103672
 20
24.774526731
 30
0.0
 10
-2.9111349657
 20
24.8330926695
 30
0.0
 10
-2.8994211189
 20
24.8671912883
 30
0.0
 10
-2.8894555803
 20
24.8932122139
 30
0.0
 10
-2.8792250985
 20
24.9180042971
 30
0.0
 10
-2.8659468079
 20
24.9480454697
 30
0.0
 10
-2.8490610349
 20
24.9829049123
 30
0.0
 10
-2.8256437643
 20
25.0270635151
 30
0.0
 10
-2.7942249513
 20
25.0789811364
 30
0.0
 10
-2.7526352039
 20
25.1363838205
 30
0.0
 10
-2.7148139749
 20
25.1798627433
 30
0.0
 10
-2.6867985549
 20
25.2077944902
 30
0.0
 10
-2.6704712958
 20
25.2229385959
 30
0.0
 10
-2.6580417075
 20
25.2339195022
 30
0.0
 10
-2.6474951102
 20
25.2427877655
 30
0.0
 10
-2.6389519665
 20
25.249706158
 30
0.0
 10
-2.6335702387
 20
25.2539555322
 30
0.0
 10
-2.6292381781
 20
25.2573112389
 30
0.0
 10
-2.6259768313
 20
25.2598054903
 30
0.0
 10
-2.62270183
 20
25.2622777116
 30
0.0
 10
-2.6199617186
 20
25.2643209069
 30
0.0
 10
-2.6180364242
 20
25.2657399969
 30
0.0
 10
-2.6169846595
 20
25.2665153317
 30
0.0
 10
-2.6162629801
 20
25.2670366816
 30
0.0
 10
-2.6156007943
 20
25.2675126796
 30
0.0
 10
-2.6147336493
 20
25.2681342912
 30
0.0
 10
-2.6132149158
 20
25.2692176602
 30
0.0
 10
-2.6110401247
 20
25.2707542253
 30
0.0
 10
-2.6075512602
 20
25.2731875499
 30
0.0
 10
-2.6031707391
 20
25.2761836911
 30
0.0
 10
-2.5961244465
 20
25.2808775364
 30
0.0
 10
-2.5872377624
 20
25.2865636677
 30
0.0
 10
-2.5764387894
 20
25.2931013968
 30
0.0
 10
-2.5655166907
 20
25.299345943
 30
0.0
 10
-2.5544714132
 20
25.305297299
 30
0.0
 10
-2.5395907838
 20
25.3128362168
 30
0.0
 10
-2.5206622914
 20
25.3215373518
 30
0.0
 10
-2.4974417265
 20
25.3308093733
 30
0.0
 10
-2.4737281382
 20
25.3389061496
 30
0.0
 10
-2.4495222852
 20
25.3458274186
 30
0.0
 10
-2.4248249199
 20
25.3515732376
 30
0.0
 10
-2.4038934408
 20
25.355371206
 30
0.0
 10
-2.3869199025
 20
25.3578251558
 30
0.0
 10
-2.3740296875
 20
25.3593777998
 30
0.0
 10
-2.3610166557
 20
25.3606372009
 30
0.0
 10
-2.3478807556
 20
25.3616033956
 30
0.0
 10
-2.3368545609
 20
25.3621630628
 30
0.0
 10
-2.3279740623
 20
25.3624650709
 30
0.0
 10
-2.3223926875
 20
25.3625930196
 30
0.0
 10
-2.3179124545
 20
25.362658859
 30
0.0
 10
-2.3151044115
 20
25.3626847776
 30
0.0
 10
-2.3128541632
 20
25.3626963642
 30
0.0
 10
-2.3103808108
 20
25.3627024066
 30
0.0
 10
-2.3070724662
 20
25.3626951288
 30
0.0
 10
-2.3029341742
 20
25.3626573456
 30
0.0
 10
-2.298753753
 20
25.3625896398
 30
0.0
 10
-2.2945863901
 20
25.3624924613
 30
0.0
 10
-2.2890553343
 20
25.3623238571
 30
0.0
 10
-2.2821735317
 20
25.362039743
 30
0.0
 10
-2.2712459835
 20
25.3614290128
 30
0.0
 10
-2.2577119229
 20
25.3603729678
 30
0.0
 10
-2.2416360021
 20
25.3586304709
 30
0.0
 10
-2.2205668873
 20
25.3556903605
 30
0.0
 10
-2.1947062068
 20
25.3508417287
 30
0.0
 10
-2.164384288
 20
25.3431059906
 30
0.0
 10
-2.1348978772
 20
25.3334757422
 30
0.0
 10
-2.1062495724
 20
25.3219511065
 30
0.0
 10
-2.0784407943
 20
25.3085324384
 30
0.0
 10
-2.0514737882
 20
25.2932212103
 30
0.0
 10
-2.0297676785
 20
25.2789275669
 30
0.0
 10
-2.0128478054
 20
25.2665769615
 30
0.0
 10
-2.0003274327
 20
25.2568134156
 30
0.0
 10
-1.9900915938
 20
25.2483034283
 30
0.0
 10
-1.9820096945
 20
25.2412637456
 30
0.0
 10
-1.9759866729
 20
25.2358540554
 30
0.0
 10
-1.9700159425
 20
25.2303265318
 30
0.0
 10
-1.9640974982
 20
25.2246811622
 30
0.0
 10
-1.9592158036
 20
25.219885177
 30
0.0
 10
-1.9553367943
 20
25.2159899576
 30
0.0
 10
-1.9529215619
 20
25.2135293539
 30
0.0
 10
-1.9509961377
 20
25.21154601
 30
0.0
 10
-1.9497945602
 20
25.2103002976
 30
0.0
 10
-1.9488360344
 20
25.2092990137
 30
0.0
 10
-1.9480227093
 20
25.2084531417
 30
0.0
 10
-1.9471720921
 20
25.2075317891
 30
0.0
 10
-1.946273075
 20
25.2065448257
 30
0.0
 10
-1.9454115224
 20
25.2055924903
 30
0.0
 10
-1.9445520492
 20
25.2046344668
 30
0.0
 10
-1.9434073145
 20
25.2033483148
 30
0.0
 10
-1.9419812137
 20
25.2017266612
 30
0.0
 10
-1.9397070592
 20
25.1990993356
 30
0.0
 10
-1.9357357475
 20
25.1944012253
 30
0.0
 10
-1.930152348
 20
25.1874785513
 30
0.0
 10
-1.9236065065
 20
25.1788546248
 30
0.0
 10
-1.917183872
 20
25.1698755846
 30
0.0
 10
-1.9086987298
 20
25.1573027162
 30
0.0
 10
-1.8984085479
 20
25.140669632
 30
0.0
 10
-1.8866780782
 20
25.1194913565
 30
0.0
 10
-1.8754413848
 20
25.096895283
 30
0.0
 10
-1.8646981515
 20
25.0728816804
 30
0.0
 10
-1.8544475074
 20
25.0474501067
 30
0.0
 10
-1.8411673119
 20
25.0109066133
 30
0.0
 10
-1.8259058096
 20
24.9615697728
 30
0.0
 10
-1.8156509221
 20
24.9207248805
 30
0.0
 10
-1.8108
 20
24.8994000873
 30
0.0
  0
SPLINE
  5
33D
100
AcDbEntity
  8
0
100
AcDbSpline
 62
7
  6
CONTINUOUS
 70
0
 71
3
 72
67
 73
63
 74
0
 42
0.0000001
 43
0.0000001
 44
0.0000000001
 40
0.0
 40
0.0
 40
0.0
 40
0.0
 40
0.0036617878
 40
0.0132423023
 40
0.022718059
 40
0.0320925402
 40
0.0413693422
 40
0.0596438965
 40
0.0775737031
 40
0.0951916536
 40
0.1296230476
 40
0.1632434084
 40
0.1963714294
 40
0.2128598516
 40
0.2293506661
 40
0.2458861264
 40
0.2541843665
 40
0.2625094354
 40
0.2708000283
 40
0.2789938797
 40
0.295106358
 40
0.3108813198
 40
0.3263544282
 40
0.3565380469
 40
0.3859916882
 40
0.4150651533
 40
0.4295784706
 40
0.4441333893
 40
0.458775286
 40
0.4735487357
 40
0.4809990716
 40
0.4884984468
 40
0.4960520479
 40
0.4998508518
 40
0.5017560184
 40
0.5036651248
 40
0.5055107616
 40
0.5073521438
 40
0.5110224028
 40
0.5183147877
 40
0.5327224712
 40
0.5469271831
 40
0.5609682889
 40
0.5887132157
 40
0.6163045786
 40
0.6440852711
 40
0.6723913066
 40
0.686846294
 40
0.701549652
 40
0.7165368844
 40
0.7241480105
 40
0.7318425037
 40
0.7395736168
 40
0.7472957593
 40
0.7627335769
 40
0.778200952
 40
0.7937412703
 40
0.8252005959
 40
0.857451848
 40
0.8908010682
 40
0.9255252794
 40
1.0
 40
1.0
 40
1.0
 40
1.0
 10
-0.6787467717
 20
24.6866588925
 30
0.0
 10
-0.6786762146
 20
24.6890699811
 30
0.0
 10
-0.6783907178
 20
24.6977884291
 30
0.0
 10
-0.6777103187
 20
24.7127388921
 30
0.0
 10
-0.6765042451
 20
24.7314292012
 30
0.0
 10
-0.6749529684
 20
24.7498934234
 30
0.0
 10
-0.6724370742
 20
24.7740882798
 30
0.0
 10
-0.6684401104
 20
24.8037891802
 30
0.0
 10
-0.6622363037
 20
24.838707888
 30
0.0
 10
-0.6521993761
 20
24.8837109684
 30
0.0
 10
-0.6362181617
 20
24.9379258428
 30
0.0
 10
-0.6113151776
 20
24.9998579502
 30
0.0
 10
-0.5858573907
 20
25.0485345829
 30
0.0
 10
-0.5627898832
 20
25.0854878722
 30
0.0
 10
-0.5441306173
 20
25.1122574551
 30
0.0
 10
-0.52744654
 20
25.1337824376
 30
0.0
 10
-0.5134270726
 20
25.15053463
 30
0.0
 10
-0.5025773699
 20
25.1628502801
 30
0.0
 10
-0.4914951429
 20
25.1748632115
 30
0.0
 10
-0.4766014334
 20
25.1903325751
 30
0.0
 10
-0.4576579833
 20
25.2087379187
 30
0.0
 10
-0.4342856487
 20
25.2294211161
 30
0.0
 10
-0.4027065453
 20
25.2547457197
 30
0.0
 10
-0.3618176857
 20
25.2827757761
 30
0.0
 10
-0.3102621574
 20
25.3105231191
 30
0.0
 10
-0.265518186
 20
25.328511865
 30
0.0
 10
-0.2288865136
 20
25.3397474824
 30
0.0
 10
-0.2009138674
 20
25.3466379472
 30
0.0
 10
-0.1724344132
 20
25.3519932939
 30
0.0
 10
-0.1483454385
 20
25.3551687046
 30
0.0
 10
-0.1288450612
 20
25.3569469101
 30
0.0
 10
-0.1140505602
 20
25.3579018547
 30
0.0
 10
-0.1016400433
 20
25.3583778452
 30
0.0
 10
-0.0929083126
 20
25.3585444273
 30
0.0
 10
-0.0878935748
 20
25.3585921493
 30
0.0
 10
-0.0841652378
 20
25.3586039172
 30
0.0
 10
-0.0804789174
 20
25.3585927118
 30
0.0
 10
-0.0756326628
 20
25.3585484136
 30
0.0
 10
-0.0671995142
 20
25.3583937905
 30
0.0
 10
-0.0504972724
 20
25.3577778679
 30
0.0
 10
-0.0269005187
 20
25.3560166684
 30
0.0
 10
0.0009852984
 20
25.3524699306
 30
0.0
 10
0.0372872361
 20
25.3458705435
 30
0.0
 10
0.0815336017
 20
25.3340355918
 30
0.0
 10
0.1326182257
 20
25.3140238064
 30
0.0
 10
0.1814770766
 20
25.2882674836
 30
0.0
 10
0.2200617906
 20
25.2622053515
 30
0.0
 10
0.2497152386
 20
25.2386572409
 30
0.0
 10
0.2715642687
 20
25.2194487339
 30
0.0
 10
0.2892218657
 20
25.2023474214
 30
0.0
 10
0.3030661633
 20
25.1879745619
 30
0.0
 10
0.3133501842
 20
25.1768140451
 30
0.0
 10
0.3234090471
 20
25.1653520858
 30
0.0
 10
0.3364130543
 20
25.1496979655
 30
0.0
 10
0.3518893136
 20
25.1294845802
 30
0.0
 10
0.3691774399
 20
25.1042246894
 30
0.0
 10
0.3906026252
 20
25.0690750725
 30
0.0
 10
0.4142293208
 20
25.0224099072
 30
0.0
 10
0.4372725617
 20
24.9626650649
 30
0.0
 10
0.4551443709
 20
24.898944465
 30
0.0
 10
0.4724986814
 20
24.806552128
 30
0.0
 10
0.4769785016
 20
24.734491355
 30
0.0
 10
0.477
 20
24.6853673246
 30
0.0
  0
SPLINE
  5
33E
100
AcDbEntity
  8
0
100
AcDbSpline
 62
7
  6
CONTINUOUS
 70
0
 71
3
 72
71
 73
67
 74
0
 42
0.0000001
 43
0.0000001
 44
0.0000000001
 40
0.0
 40
0.0
 40
0.0
 40
0.0
 40
0.0742611259
 40
0.1415673335
 40
0.1732806798
 40
0.2040822618
 40
0.234310783
 40
0.2493273312
 40
0.2643358171
 40
0.2792264391
 40
0.2938822723
 40
0.3226322803
 40
0.3509148661
 40
0.379065753
 40
0.4074253417
 40
0.4363266595
 40
0.451084439
 40
0.4660935838
 40
0.4813892837
 40
0.489155557
 40
0.4970057677
 40
0.5048614074
 40
0.5126399097
 40
0.5279803975
 40
0.5430611818
 40
0.5579169691
 40
0.5870905937
 40
0.6158164039
 40
0.6444150385
 40
0.673211385
 40
0.6877885201
 40
0.702533212
 40
0.7174825893
 40
0.7250457696
 40
0.7326733415
 40
0.7403153116
 40
0.7479221502
 40
0.7630487851
 40
0.7780941897
 40
0.7930987399
 40
0.8231379501
 40
0.8535005889
 40
0.8845005388
 40
0.9003369755
 40
0.9164413458
 40
0.9328465879
 40
0.9411723104
 40
0.949584781
 40
0.9580876109
 40
0.9666842977
 40
0.9710189509
 40
0.9753783277
 40
0.9775674207
 40
0.9797628461
 40
0.9819646535
 40
0.9830679666
 40
0.983620228
 40
0.9841728937
 40
0.9847887267
 40
0.9854041131
 40
0.9866335486
 40
0.9890870918
 40
0.991533574
 40
0.9939730446
 40
0.9988311378
 40
1.0
 40
1.0
 40
1.0
 40
1.0
 10
0.477
 20
24.6853673246
 30
0.0
 10
0.4770214368
 20
24.6363841827
 30
0.0
 10
0.4713119937
 20
24.5430473164
 30
0.0
 10
0.4461777499
 20
24.4310105399
 30
0.0
 10
0.4154115312
 20
24.3510813346
 30
0.0
 10
0.3877009074
 20
24.2965086297
 30
0.0
 10
0.3602833531
 20
24.2544547232
 30
0.0
 10
0.3359210304
 20
24.2230985455
 30
0.0
 10
0.3164745791
 20
24.2007797372
 30
0.0
 10
0.2960702538
 20
24.179665991
 30
0.0
 10
0.2680513269
 20
24.1533871862
 30
0.0
 10
0.2311436186
 20
24.1237750674
 30
0.0
 10
0.1837520327
 20
24.093525948
 30
0.0
 10
0.133539342
 20
24.0687995625
 30
0.0
 10
0.0805346625
 20
24.0496075956
 30
0.0
 10
0.0343644326
 20
24.0383025487
 30
0.0
 10
-0.0037744739
 20
24.0319829228
 30
0.0
 10
-0.0332746232
 20
24.0285775096
 30
0.0
 10
-0.058305831
 20
24.0268890802
 30
0.0
 10
-0.0786586364
 20
24.0262120421
 30
0.0
 10
-0.0941207206
 20
24.0260437819
 30
0.0
 10
-0.1095908558
 20
24.026212199
 30
0.0
 10
-0.1299848004
 20
24.0268897306
 30
0.0
 10
-0.1551007679
 20
24.0285800072
 30
0.0
 10
-0.1847427564
 20
24.031986714
 30
0.0
 10
-0.223175394
 20
24.0383137785
 30
0.0
 10
-0.2698381966
 20
24.049636166
 30
0.0
 10
-0.323597935
 20
24.0688328298
 30
0.0
 10
-0.374776422
 20
24.0935556289
 30
0.0
 10
-0.4151045974
 20
24.1186630069
 30
0.0
 10
-0.4459477955
 20
24.1413653007
 30
0.0
 10
-0.4685355463
 20
24.1598312417
 30
0.0
 10
-0.4867512271
 20
24.1762941364
 30
0.0
 10
-0.5009934647
 20
24.1901289926
 30
0.0
 10
-0.5115345121
 20
24.2008596206
 30
0.0
 10
-0.5218344488
 20
24.2118615713
 30
0.0
 10
-0.5351342579
 20
24.2268131788
 30
0.0
 10
-0.5509621928
 20
24.2460321247
 30
0.0
 10
-0.5686771061
 20
24.2699611043
 30
0.0
 10
-0.5905512361
 20
24.3029679735
 30
0.0
 10
-0.6147085082
 20
24.346483092
 30
0.0
 10
-0.6383685018
 20
24.4019573392
 30
0.0
 10
-0.653560654
 20
24.4505802897
 30
0.0
 10
-0.6630949012
 20
24.4909419287
 30
0.0
 10
-0.6689849451
 20
24.5222508785
 30
0.0
 10
-0.6727799984
 20
24.54889026
 30
0.0
 10
-0.6751684649
 20
24.5705929758
 30
0.0
 10
-0.6766410471
 20
24.5871558255
 30
0.0
 10
-0.6777859302
 20
24.603923305
 30
0.0
 10
-0.6784650322
 20
24.6180272252
 30
0.0
 10
-0.6788458315
 20
24.6294108447
 30
0.0
 10
-0.6790160062
 20
24.6365779498
 30
0.0
 10
-0.6791113721
 20
24.6423370094
 30
0.0
 10
-0.6791625248
 20
24.6466753097
 30
0.0
 10
-0.6791880753
 20
24.6502985872
 30
0.0
 10
-0.6791970138
 20
24.6528395317
 30
0.0
 10
-0.6791995784
 20
24.6542941553
 30
0.0
 10
-0.6792002196
 20
24.655427665
 30
0.0
 10
-0.6791995462
 20
24.6566027568
 30
0.0
 10
-0.6791968596
 20
24.6582236525
 30
0.0
 10
-0.6791874336
 20
24.6610550843
 30
0.0
 10
-0.6791605217
 20
24.665092645
 30
0.0
 10
-0.6791066317
 20
24.6699270792
 30
0.0
 10
-0.6790061657
 20
24.6763449674
 30
0.0
 10
-0.6788810168
 20
24.6819207078
 30
0.0
 10
-0.6787692939
 20
24.6858892602
 30
0.0
 10
-0.6787467717
 20
24.6866588925
 30
0.0
  0
SPLINE
  5
33F
100
AcDbEntity
  8
0
100
AcDbSpline
 62
7
  6
CONTINUOUS
 70
0
 71
3
 72
80
 73
76
 74
0
 42
0.0000001
 43
0.0000001
 44
0.0000000001
 40
0.0
 40
0.0
 40
0.0
 40
0.0
 40
0.0060102739
 40
0.0168128279
 40
0.0274631217
 40
0.0483233169
 40
0.0884094968
 40
0.1266122184
 40
0.1633163341
 40
0.1989552785
 40
0.2165296901
 40
0.2340176105
 40
0.2514817067
 40
0.2601866118
 40
0.2687822776
 40
0.2856574143
 40
0.3021524561
 40
0.3341935003
 40
0.3653574659
 40
0.3961218437
 40
0.4115168743
 40
0.4269980922
 40
0.4347910815
 40
0.4426283624
 40
0.4505172879
 40
0.4584650676
 40
0.4664787521
 40
0.4705125706
 40
0.4725365806
 40
0.474565455
 40
0.4765992972
 40
0.477618115
 40
0.4786382132
 40
0.4791487466
 40
0.4796596049
 40
0.4799151564
 40
0.4801173884
 40
0.4804684234
 40
0.4811702467
 40
0.481871745
 40
0.4832737827
 40
0.4846745723
 40
0.4874725372
 40
0.4902659269
 40
0.4930550215
 40
0.4986213807
 40
0.5041739498
 40
0.5097150103
 40
0.5207712224
 40
0.5318090795
 40
0.5428471641
 40
0.5539040577
 40
0.5649982471
 40
0.5761480335
 40
0.5986817939
 40
0.6216495406
 40
0.6333396916
 40
0.6451661368
 40
0.6687923195
 40
0.6924496766
 40
0.7163132311
 40
0.7405535401
 40
0.7653333821
 40
0.7779759651
 40
0.7908095842
 40
0.8038513992
 40
0.8104557681
 40
0.8171100841
 40
0.8303767738
 40
0.8435637673
 40
0.8697434113
 40
0.8957492424
 40
0.9476122115
 40
0.9736942671
 40
1.0
 40
1.0
 40
1.0
 40
1.0
 10
-1.7744642271
 20
23.6046344871
 30
0.0
 10
-1.7745875193
 20
23.6006669248
 30
0.0
 10
-1.774990298
 20
23.5895700422
 30
0.0
 10
-1.7759190016
 20
23.5714549979
 30
0.0
 10
-1.7779049598
 20
23.5435786205
 30
0.0
 10
-1.7827021449
 20
23.4965264385
 30
0.0
 10
-1.7935112652
 20
23.4318454153
 30
0.0
 10
-1.8131799661
 20
23.3583591784
 30
0.0
 10
-1.8393932274
 20
23.2900675762
 30
0.0
 10
-1.8668502985
 20
23.2372472067
 30
0.0
 10
-1.8919972586
 20
23.1978756054
 30
0.0
 10
-1.9123910717
 20
23.1697864986
 30
0.0
 10
-1.9307221185
 20
23.1475070534
 30
0.0
 10
-1.9460763863
 20
23.1304334662
 30
0.0
 10
-1.9615694554
 20
23.1140173234
 30
0.0
 10
-1.981370159
 20
23.0946025036
 30
0.0
 10
-2.0138158873
 20
23.0660558208
 30
0.0
 10
-2.0562224081
 20
23.0346520984
 30
0.0
 10
-2.1103436287
 20
23.0039661939
 30
0.0
 10
-2.1577405011
 20
22.9845497985
 30
0.0
 10
-2.1967376844
 20
22.9727900117
 30
0.0
 10
-2.2216246735
 20
22.9669728724
 30
0.0
 10
-2.241831464
 20
22.9632341834
 30
0.0
 10
-2.2571875687
 20
22.9608797309
 30
0.0
 10
-2.2727094933
 20
22.9589815533
 30
0.0
 10
-2.2883973565
 20
22.9575395268
 30
0.0
 10
-2.3015795808
 20
22.9567197914
 30
0.0
 10
-2.3108656538
 20
22.9563447152
 30
0.0
 10
-2.3162041265
 20
22.956186694
 30
0.0
 10
-2.3202230551
 20
22.9560965254
 30
0.0
 10
-2.3235787317
 20
22.9560451549
 30
0.0
 10
-2.3262684065
 20
22.9560182753
 30
0.0
 10
-2.327952129
 20
22.9560074029
 30
0.0
 10
-2.3293003974
 20
22.9560022622
 30
0.0
 10
-2.3301437381
 20
22.9560005321
 30
0.0
 10
-2.330783466
 20
22.9560000637
 30
0.0
 10
-2.3313176406
 20
22.9560000927
 30
0.0
 10
-2.3321465498
 20
22.9560009483
 30
0.0
 10
-2.3333051903
 20
22.9560042956
 30
0.0
 10
-2.3351579313
 20
22.9560142425
 30
0.0
 10
-2.3374722368
 20
22.9560352811
 30
0.0
 10
-2.3411708599
 20
22.9560872981
 30
0.0
 10
-2.3457877507
 20
22.9561867228
 30
0.0
 10
-2.3513198626
 20
22.9563611981
 30
0.0
 10
-2.3586767294
 20
22.9566670975
 30
0.0
 10
-2.3678480598
 20
22.957187058
 30
0.0
 10
-2.3788192387
 20
22.9580319827
 30
0.0
 10
-2.3933796422
 20
22.9594514123
 30
0.0
 10
-2.4114876958
 20
22.9617775057
 30
0.0
 10
-2.4330644335
 20
22.9654541233
 30
0.0
 10
-2.4544725944
 20
22.9700139861
 30
0.0
 10
-2.4757116829
 20
22.9754569678
 30
0.0
 10
-2.4967819035
 20
22.981783234
 30
0.0
 10
-2.5247451172
 20
22.9914279134
 30
0.0
 10
-2.5593544312
 20
23.005751816
 30
0.0
 10
-2.5930662869
 20
23.0228719386
 30
0.0
 10
-2.6196292671
 20
23.0382742087
 30
0.0
 10
-2.6460052046
 20
23.054830222
 30
0.0
 10
-2.677702907
 20
23.0777093766
 30
0.0
 10
-2.7133251719
 20
23.1084385547
 30
0.0
 10
-2.7464680556
 20
23.1423971397
 30
0.0
 10
-2.7771266688
 20
23.1795744736
 30
0.0
 10
-2.8004516496
 20
23.213012588
 30
0.0
 10
-2.8178623912
 20
23.2412776962
 30
0.0
 10
-2.8303939191
 20
23.263422529
 30
0.0
 10
-2.8402813913
 20
23.282464106
 30
0.0
 10
-2.8478837073
 20
23.2980827909
 30
0.0
 10
-2.8552771453
 20
23.3139652412
 30
0.0
 10
-2.8640701196
 20
23.3339891003
 30
0.0
 10
-2.8770892521
 20
23.3662242368
 30
0.0
 10
-2.8914405881
 20
23.4069765915
 30
0.0
 10
-2.9102506306
 20
23.4731032343
 30
0.0
 10
-2.9228258486
 20
23.5408093095
 30
0.0
 10
-2.9290767077
 20
23.6094108455
 30
0.0
 10
-2.9300856825
 20
23.6440142119
 30
0.0
 10
-2.9301
 20
23.6613922777
 30
0.0
  0
SPLINE
  5
340
100
AcDbEntity
  8
0
100
AcDbSpline
 62
7
  6
CONTINUOUS
 70
0
 71
3
 72
60
 73
56
 74
0
 42
0.0000001
 43
0.0000001
 44
0.0000000001
 40
0.0
 40
0.0
 40
0.0
 40
0.0
 40
0.0393494463
 40
0.0768290611
 40
0.1127970952
 40
0.1476584303
 40
0.1818572775
 40
0.1988621622
 40
0.2158788092
 40
0.2329669968
 40
0.250185758
 40
0.2588410575
 40
0.2674210946
 40
0.2843345787
 40
0.300961141
 40
0.3173509068
 40
0.3496174208
 40
0.3815847161
 40
0.4137028031
 40
0.4299645216
 40
0.4464286368
 40
0.4631467678
 40
0.4801682232
 40
0.4888230261
 40
0.4932140101
 40
0.4975786082
 40
0.5062312784
 40
0.5147869578
 40
0.5316297601
 40
0.5481583354
 40
0.580472253
 40
0.6121922703
 40
0.6437945308
 40
0.6757604404
 40
0.6920332735
 40
0.7085689054
 40
0.7169526339
 40
0.7253983186
 40
0.7422703873
 40
0.7591563569
 40
0.7761190592
 40
0.8105062235
 40
0.8459227188
 40
0.8828039829
 40
0.9019220147
 40
0.9215465062
 40
0.9417175304
 40
0.9624719949
 40
0.9730792153
 40
0.9784420138
 40
0.9811384135
 40
0.9839318083
 40
0.9895118466
 40
0.9950513014
 40
1.0
 40
1.0
 40
1.0
 40
1.0
 10
-2.9301
 20
23.6613922777
 30
0.0
 10
-2.9301214168
 20
23.6873872678
 30
0.0
 10
-2.9280123623
 20
23.7381529698
 30
0.0
 10
-2.9180374621
 20
23.8120952665
 30
0.0
 10
-2.9012357006
 20
23.8817661661
 30
0.0
 10
-2.877608046
 20
23.9471366771
 30
0.0
 10
-2.8521516646
 20
23.9981193532
 30
0.0
 10
-2.8284945652
 20
24.0364900986
 30
0.0
 10
-2.8090925337
 20
24.0641370725
 30
0.0
 10
-2.7880020569
 20
24.0906967192
 30
0.0
 10
-2.7690775789
 20
24.1118611302
 30
0.0
 10
-2.7531942758
 20
24.128158503
 30
0.0
 10
-2.7370528595
 20
24.143912606
 30
0.0
 10
-2.716392368
 20
24.1625605172
 30
0.0
 10
-2.6907422356
 20
24.1833113105
 30
0.0
 10
-2.6557481039
 20
24.2085284984
 30
0.0
 10
-2.6099309053
 20
24.2359166177
 30
0.0
 10
-2.5516916283
 20
24.2619182247
 30
0.0
 10
-2.5008761259
 20
24.2776628964
 30
0.0
 10
-2.4590050197
 20
24.2867416907
 30
0.0
 10
-2.4267327824
 20
24.2918425056
 30
0.0
 10
-2.3937312849
 20
24.2952031717
 30
0.0
 10
-2.3657508878
 20
24.2965498297
 30
0.0
 10
-2.3458924751
 20
24.2967408719
 30
0.0
 10
-2.3343941516
 20
24.2966375646
 30
0.0
 10
-2.3228995128
 20
24.2963899716
 30
0.0
 10
-2.3086618193
 20
24.295811628
 30
0.0
 10
-2.2862212293
 20
24.2943134728
 30
0.0
 10
-2.2586720709
 20
24.2913696148
 30
0.0
 10
-2.2158414103
 20
24.2843719434
 30
0.0
 10
-2.1641287362
 20
24.271292502
 30
0.0
 10
-2.1050795141
 20
24.2484312496
 30
0.0
 10
-2.0495248315
 20
24.2185267379
 30
0.0
 10
-2.0064134588
 20
24.187922456
 30
0.0
 10
-1.973838647
 20
24.160163536
 30
0.0
 10
-1.9541673225
 20
24.1413473777
 30
0.0
 10
-1.93888607
 20
24.1254684194
 30
0.0
 10
-1.9238930292
 20
24.1090142849
 30
0.0
 10
-1.9060808881
 20
24.0875506474
 30
0.0
 10
-1.8862894506
 20
24.0604984876
 30
0.0
 10
-1.8619303327
 20
24.0225556614
 30
0.0
 10
-1.8354036168
 20
23.9715958274
 30
0.0
 10
-1.810222765
 20
23.9056413356
 30
0.0
 10
-1.7948120557
 20
23.8471489615
 30
0.0
 10
-1.7856115907
 20
23.7980447791
 30
0.0
 10
-1.7802250404
 20
23.7594962167
 30
0.0
 10
-1.7764361031
 20
23.7196748818
 30
0.0
 10
-1.7746222868
 20
23.6856790682
 30
0.0
 10
-1.7740378667
 20
23.6614306271
 30
0.0
 10
-1.7739161466
 20
23.6491030207
 30
0.0
 10
-1.7738959266
 20
23.6419355603
 30
0.0
 10
-1.7739091245
 20
23.634624612
 30
0.0
 10
-1.7739878889
 20
23.6254362013
 30
0.0
 10
-1.7741772952
 20
23.6148257256
 30
0.0
 10
-1.7743627116
 20
23.6079012716
 30
0.0
 10
-1.7744642271
 20
23.6046344871
 30
0.0
  0
SPLINE
  5
341
100
AcDbEntity
  8
0
100
AcDbSpline
 62
7
  6
CONTINUOUS
 70
0
 71
3
 72
8
 73
4
 74
0
 42
0.0000001
 43
0.0000001
 44
0.0000000001
 40
0.0
 40
0.0
 40
0.0
 40
0.0
 40
1.0
 40
1.0
 40
1.0
 40
1.0
 10
-37.4157909308
 20
-3.9545837705
 30
0.0
 10
-37.6029810862
 20
-3.8475421717
 30
0.0
 10
-37.7414073029
 20
-3.6126240899
 30
0.0
 10
-37.7437946685
 20
-3.3970032442
 30
0.0
  0
SPLINE
  5
342
100
AcDbEntity
  8
0
100
AcDbSpline
 62
7
  6
CONTINUOUS
 70
0
 71
3
 72
9
 73
5
 74
0
 42
0.0000001
 43
0.0000001
 44
0.0000000001
 40
0.0
 40
0.0
 40
0.0
 40
0.0
 40
0.5130790416
 40
1.0
 40
1.0
 40
1.0
 40
1.0
 10
-37.7437946685
 20
-3.3970032442
 30
0.0
 10
-37.7416159239
 20
-3.2565779175
 30
0.0
 10
-37.6797679928
 20
-2.9449739954
 30
0.0
 10
-37.371637266
 20
-2.859642551
 30
0.0
 10
-37.2383726082
 20
-2.8574849173
 30
0.0
  0
SPLINE
  5
343
100
AcDbEntity
  8
0
100
AcDbSpline
 62
7
  6
CONTINUOUS
 70
0
 71
3
 72
26
 73
22
 74
0
 42
0.0000001
 43
0.0000001
 44
0.0000000001
 40
0.0
 40
0.0
 40
0.0
 40
0.0
 40
0.1949497304
 40
0.382410002
 40
0.4710568578
 40
0.5551795783
 40
0.6339507861
 40
0.7066223853
 40
0.7724874015
 40
0.8309237904
 40
0.8813570041
 40
0.9233168804
 40
0.9409845523
 40
0.9563895715
 40
0.9694986943
 40
0.9802794354
 40
0.9887047219
 40
0.9947667445
 40
0.9984761369
 40
0.999476357
 40
1.0
 40
1.0
 40
1.0
 40
1.0
 10
-0.0
 20
-45.7052858103
 30
0.0
 10
0.7478473392
 20
-45.7052858103
 30
0.0
 10
2.2148127993
 20
-45.7077626917
 30
0.0
 10
4.0218159066
 20
-45.7171226351
 30
0.0
 10
5.4036492665
 20
-45.7284617691
 30
0.0
 10
6.3685345397
 20
-45.7384869239
 30
0.0
 10
7.2721146931
 20
-45.7500991107
 30
0.0
 10
8.1056288841
 20
-45.7631663687
 30
0.0
 10
8.8611021948
 20
-45.7775664466
 30
0.0
 10
9.5312242756
 20
-45.793119541
 30
0.0
 10
10.1095883425
 20
-45.8096808302
 30
0.0
 10
10.5315259896
 20
-45.8248323096
 30
0.0
 10
10.8190754306
 20
-45.8377190662
 30
0.0
 10
10.9959867915
 20
-45.8469533692
 30
0.0
 10
11.1464632475
 20
-45.8562995137
 30
0.0
 10
11.2700131863
 20
-45.8656412298
 30
0.0
 10
11.3666700575
 20
-45.8750802359
 30
0.0
 10
11.4355135011
 20
-45.8840177749
 30
0.0
 10
11.4767397208
 20
-45.8925820703
 30
0.0
 10
11.495003038
 20
-45.899258641
 30
0.0
 10
11.5
 20
-45.9039797355
 30
0.0
 10
11.5
 20
-45.9059884843
 30
0.0
  0
SPLINE
  5
344
100
AcDbEntity
  8
0
100
AcDbSpline
 62
7
  6
CONTINUOUS
 70
0
 71
3
 72
26
 73
22
 74
0
 42
0.0000001
 43
0.0000001
 44
0.0000000001
 40
0.0
 40
0.0
 40
0.0
 40
0.0
 40
0.1949497304
 40
0.382410002
 40
0.4710568578
 40
0.5551795783
 40
0.6339507861
 40
0.7066223853
 40
0.7724874015
 40
0.8309237904
 40
0.8813570041
 40
0.9233168804
 40
0.9409845523
 40
0.9563895715
 40
0.9694986943
 40
0.9802794354
 40
0.9887047219
 40
0.9947667445
 40
0.9984761369
 40
0.999476357
 40
1.0
 40
1.0
 40
1.0
 40
1.0
 10
-50.4152858976
 20
-4.7899999127
 30
0.0
 10
-50.4152858976
 20
-4.0421525735
 30
0.0
 10
-50.417762779
 20
-2.5751871134
 30
0.0
 10
-50.4271227224
 20
-0.7681840062
 30
0.0
 10
-50.4384618564
 20
0.6136493538
 30
0.0
 10
-50.4484870112
 20
1.578534627
 30
0.0
 10
-50.4600991979
 20
2.4821147804
 30
0.0
 10
-50.473166456
 20
3.3156289714
 30
0.0
 10
-50.4875665339
 20
4.0711022821
 30
0.0
 10
-50.5031196283
 20
4.7412243628
 30
0.0
 10
-50.5196809174
 20
5.3195884297
 30
0.0
 10
-50.5348323969
 20
5.7415260769
 30
0.0
 10
-50.5477191535
 20
6.0290755178
 30
0.0
 10
-50.5569534564
 20
6.2059868788
 30
0.0
 10
-50.566299601
 20
6.3564633348
 30
0.0
 10
-50.575641317
 20
6.4800132736
 30
0.0
 10
-50.5850803232
 20
6.5766701448
 30
0.0
 10
-50.5940178622
 20
6.6455135884
 30
0.0
 10
-50.6025821576
 20
6.6867398081
 30
0.0
 10
-50.6092587282
 20
6.7050031253
 30
0.0
 10
-50.6139798227
 20
6.7100000873
 30
0.0
 10
-50.6159885716
 20
6.7100000873
 30
0.0
  0
SPLINE
  5
345
100
AcDbEntity
  8
0
100
AcDbSpline
 62
7
  6
CONTINUOUS
 70
0
 71
3
 72
26
 73
22
 74
0
 42
0.0000001
 43
0.0000001
 44
0.0000000001
 40
0.0
 40
0.0
 40
0.0
 40
0.0
 40
0.1949859158
 40
0.3824780639
 40
0.4711380157
 40
0.555271293
 40
0.6340501123
 40
0.7067260177
 40
0.7725917274
 40
0.8310249389
 40
0.8814509257
 40
0.9233994078
 40
0.9410597939
 40
0.9564565043
 40
0.9695562789
 40
0.9803266194
 40
0.9887405116
 40
0.9947902404
 40
0.9984866142
 40
0.9994804761
 40
1.0
 40
1.0
 40
1.0
 40
1.0
 10
50.4152858976
 20
-4.7899999127
 30
0.0
 10
50.4152858976
 20
-4.0420102384
 30
0.0
 10
50.417763694
 20
-2.5747767723
 30
0.0
 10
50.4271271253
 20
-0.7674538301
 30
0.0
 10
50.438470523
 20
0.6145990309
 30
0.0
 10
50.448499305
 20
1.5796087542
 30
0.0
 10
50.4601155919
 20
2.4832793352
 30
0.0
 10
50.4731873227
 20
3.3168457704
 30
0.0
 10
50.4875921522
 20
4.0723295428
 30
0.0
 10
50.5031500967
 20
4.7424174176
 30
0.0
 10
50.519716303
 20
5.3207004021
 30
0.0
 10
50.5348721619
 20
5.7425404891
 30
0.0
 10
50.547763208
 20
6.0299874017
 30
0.0
 10
50.5569994405
 20
6.2068038345
 30
0.0
 10
50.5663488202
 20
6.3571725484
 30
0.0
 10
50.5756892052
 20
6.4806045418
 30
0.0
 10
50.585137396
 20
6.57712672
 30
0.0
 10
50.594056442
 20
6.6458374711
 30
0.0
 10
50.6026510186
 20
6.6869240299
 30
0.0
 10
50.6092983143
 20
6.7051111384
 30
0.0
 10
50.6140566759
 20
6.710034235
 30
0.0
 10
50.6160493312
 20
6.7099995586
 30
0.0
  0
SPLINE
  5
346
100
AcDbEntity
  8
0
100
AcDbSpline
 62
7
  6
CONTINUOUS
 70
0
 71
3
 72
80
 73
76
 74
0
 42
0.0000001
 43
0.0000001
 44
0.0000000001
 40
0.0
 40
0.0
 40
0.0
 40
0.0
 40
0.0933109165
 40
0.1781044304
 40
0.2564381641
 40
0.2940208662
 40
0.3310018432
 40
0.3677670051
 40
0.3861975489
 40
0.4047211521
 40
0.4140336508
 40
0.4233873545
 40
0.4280815755
 40
0.4328467276
 40
0.4424339996
 40
0.4615906973
 40
0.4807415465
 40
0.5191026418
 40
0.5576857221
 40
0.5966513013
 40
0.6361552309
 40
0.6763471004
 40
0.6967478519
 40
0.7173731516
 40
0.7382394327
 40
0.7593625657
 40
0.7807578495
 40
0.7915623947
 40
0.8024404491
 40
0.8133937631
 40
0.8244240511
 40
0.8299686123
 40
0.8355330434
 40
0.8411175489
 40
0.8467223309
 40
0.8495323913
 40
0.8523475955
 40
0.8551679684
 40
0.8565801011
 40
0.8579935351
 40
0.8594082734
 40
0.8601161328
 40
0.8608243193
 40
0.8611785354
 40
0.8615328335
 40
0.8617100133
 40
0.8618028231
 40
0.8619040668
 40
0.862106554
 40
0.8623090412
 40
0.8625115285
 40
0.8627140157
 40
0.8631189902
 40
0.8639289391
 40
0.8647388881
 40
0.865548837
 40
0.8663587859
 40
0.8671687349
 40
0.8687886328
 40
0.8704085307
 40
0.8736483264
 40
0.8768881222
 40
0.880127918
 40
0.8833677137
 40
0.8866075095
 40
0.8898473053
 40
0.8963268968
 40
0.9028064884
 40
0.9092860799
 40
0.922245263
 40
0.9352044461
 40
0.9481636292
 40
0.9611228122
 40
0.9740819953
 40
1.0
 40
1.0
 40
1.0
 40
1.0
 10
-37.2383726082
 20
-2.8574849173
 30
0.0
 10
-37.203564626
 20
-2.8579669575
 30
0.0
 10
-37.137063863
 20
-2.8625290652
 30
0.0
 10
-37.0431417702
 20
-2.8825196186
 30
0.0
 10
-36.9731722389
 20
-2.9104736059
 30
0.0
 10
-36.9238323873
 20
-2.9392655946
 30
0.0
 10
-36.8901978597
 20
-2.9637563661
 30
0.0
 10
-36.8645933256
 20
-2.9868120892
 30
0.0
 10
-36.8456368611
 20
-3.0067511189
 30
0.0
 10
-36.8343954041
 20
-3.0198603583
 30
0.0
 10
-36.8257681371
 20
-3.0307276899
 30
0.0
 10
-36.8205235444
 20
-3.037689243
 30
0.0
 10
-36.8164013622
 20
-3.0433699498
 30
0.0
 10
-36.8123149735
 20
-3.0491832879
 30
0.0
 10
-36.8052510841
 20
-3.0594978956
 30
0.0
 10
-36.7955173508
 20
-3.0744862776
 30
0.0
 10
-36.7807307236
 20
-3.0989750245
 30
0.0
 10
-36.7637176169
 20
-3.1305626776
 30
0.0
 10
-36.7457201989
 20
-3.169913896
 30
0.0
 10
-36.7301265449
 20
-3.2107350435
 30
0.0
 10
-36.7169371247
 20
-3.2530220406
 30
0.0
 10
-36.7079928923
 20
-3.2893024689
 30
0.0
 10
-36.7020268671
 20
-3.319012497
 30
0.0
 10
-36.6981283365
 20
-3.3417743463
 30
0.0
 10
-36.6948285513
 20
-3.3649026128
 30
0.0
 10
-36.692127379
 20
-3.3883974584
 30
0.0
 10
-36.6903810209
 20
-3.4082162311
 30
0.0
 10
-36.6892804039
 20
-3.4242498341
 30
0.0
 10
-36.6886017684
 20
-3.4364066696
 30
0.0
 10
-36.6880727027
 20
-3.4486551896
 30
0.0
 10
-36.6877570134
 20
-3.4589204988
 30
0.0
 10
-36.6875788518
 20
-3.4671780759
 30
0.0
 10
-36.6874823818
 20
-3.4734051794
 30
0.0
 10
-36.6874233001
 20
-3.4796552132
 30
0.0
 10
-36.6874052385
 20
-3.4848779251
 30
0.0
 10
-36.6874094322
 20
-3.4890674994
 30
0.0
 10
-36.6874219271
 20
-3.4922182767
 30
0.0
 10
-36.6874401206
 20
-3.494847493
 30
0.0
 10
-36.6874593415
 20
-3.4969537255
 30
0.0
 10
-36.687476103
 20
-3.4985355595
 30
0.0
 10
-36.6874920064
 20
-3.4998546446
 30
0.0
 10
-36.6875059147
 20
-3.5009106281
 30
0.0
 10
-36.6875150541
 20
-3.5015709932
 30
0.0
 10
-36.6875227517
 20
-3.5020994627
 30
0.0
 10
-36.68752747
 20
-3.5024298537
 30
0.0
 10
-36.6875312927
 20
-3.5026627233
 30
0.0
 10
-36.6875328684
 20
-3.5028012123
 30
0.0
 10
-36.6875324324
 20
-3.5029491507
 30
0.0
 10
-36.6875326508
 20
-3.5031380036
 30
0.0
 10
-36.6875325806
 20
-3.5033646285
 30
0.0
 10
-36.6875325993
 20
-3.5035912529
 30
0.0
 10
-36.6875325932
 20
-3.503893419
 30
0.0
 10
-36.687532597
 20
-3.5044222096
 30
0.0
 10
-36.6875325949
 20
-3.5051776248
 30
0.0
 10
-36.6875325956
 20
-3.5060841229
 30
0.0
 10
-36.6875325954
 20
-3.5069906211
 30
0.0
 10
-36.6875325954
 20
-3.5078971193
 30
0.0
 10
-36.6875325954
 20
-3.5091057835
 30
0.0
 10
-36.6875325954
 20
-3.5106166138
 30
0.0
 10
-36.6875325954
 20
-3.5130339422
 30
0.0
 10
-36.6875325954
 20
-3.5160556028
 30
0.0
 10
-36.6875325954
 20
-3.5196815955
 30
0.0
 10
-36.6875325954
 20
-3.5233075882
 30
0.0
 10
-36.6875325954
 20
-3.5269335808
 30
0.0
 10
-36.6875325954
 20
-3.5305595735
 30
0.0
 10
-36.6875325954
 20
-3.5353942304
 30
0.0
 10
-36.6875325954
 20
-3.5414375516
 30
0.0
 10
-36.6875325954
 20
-3.5486895369
 30
0.0
 10
-36.6875325954
 20
-3.5583588507
 30
0.0
 10
-36.6875325954
 20
-3.570445493
 30
0.0
 10
-36.6875325954
 20
-3.5849494637
 30
0.0
 10
-36.6875325954
 20
-3.5994534344
 30
0.0
 10
-36.6875325954
 20
-3.6139574051
 30
0.0
 10
-36.6875325954
 20
-3.6332958979
 30
0.0
 10
-36.6875325954
 20
-3.6477997338
 30
0.0
 10
-36.6875325954
 20
-3.6574689127
 30
0.0
  0
SPLINE
  5
347
100
AcDbEntity
  8
0
100
AcDbSpline
 62
7
  6
CONTINUOUS
 70
0
 71
3
 72
71
 73
67
 74
0
 42
0.0000001
 43
0.0000001
 44
0.0000000001
 40
0.0
 40
0.0
 40
0.0
 40
0.0
 40
0.0237286751
 40
0.0474579484
 40
0.0711872217
 40
0.0830518583
 40
0.0949164949
 40
0.1067811316
 40
0.1186457682
 40
0.1305104049
 40
0.1423750415
 40
0.1483073598
 40
0.1542396781
 40
0.1601719965
 40
0.1661043148
 40
0.1690704739
 40
0.1720366331
 40
0.1750027923
 40
0.1779689514
 40
0.1809351106
 40
0.1824181902
 40
0.1839012697
 40
0.1853843493
 40
0.1861258891
 40
0.1868674289
 40
0.1876089687
 40
0.1883505085
 40
0.1887212784
 40
0.1890920483
 40
0.1892774332
 40
0.1894628182
 40
0.1896482031
 40
0.1898335881
 40
0.1900542567
 40
0.1902749102
 40
0.190716172
 40
0.1915985147
 40
0.1924806163
 40
0.193362477
 40
0.1951254762
 40
0.1968875135
 40
0.2004087068
 40
0.2039260671
 40
0.2074396041
 40
0.2109493277
 40
0.2179573716
 40
0.2249502803
 40
0.2319281334
 40
0.2458389743
 40
0.2596905618
 40
0.2734835521
 40
0.2872186097
 40
0.3008964075
 40
0.3280827843
 40
0.3550484054
 40
0.3817989621
 40
0.4083402841
 40
0.4608176928
 40
0.512531525
 40
0.563533419
 40
0.6138772043
 40
0.6636188465
 40
0.7128163666
 40
0.8098050496
 40
0.9053585042
 40
1.0
 40
1.0
 40
1.0
 40
1.0
 10
-36.4160718685
 20
-3.6574689127
 30
0.0
 10
-36.4160718685
 20
-3.6521190219
 30
0.0
 10
-36.4160718685
 20
-3.6414191055
 30
0.0
 10
-36.4160718685
 20
-3.6253691634
 30
0.0
 10
-36.4160718685
 20
-3.6119940993
 30
0.0
 10
-36.4160718685
 20
-3.601294048
 30
0.0
 10
-36.4160718685
 20
-3.5932690095
 30
0.0
 10
-36.4160718685
 20
-3.5852439711
 30
0.0
 10
-36.4160718685
 20
-3.5772189326
 30
0.0
 10
-36.4160718685
 20
-3.5691938941
 30
0.0
 10
-36.4160718685
 20
-3.5625063621
 30
0.0
 10
-36.4160718685
 20
-3.5571563364
 30
0.0
 10
-36.4160718685
 20
-3.5531438172
 30
0.0
 10
-36.4160718685
 20
-3.549131298
 30
0.0
 10
-36.4160718685
 20
-3.5457875319
 30
0.0
 10
-36.4160718685
 20
-3.5431125191
 30
0.0
 10
-36.4160718685
 20
-3.5411062595
 30
0.0
 10
-36.4160718685
 20
-3.5390999999
 30
0.0
 10
-36.4160718685
 20
-3.5370937402
 30
0.0
 10
-36.4160718685
 20
-3.5354218572
 30
0.0
 10
-36.4160718685
 20
-3.5340843508
 30
0.0
 10
-36.4160718685
 20
-3.533081221
 30
0.0
 10
-36.4160718685
 20
-3.5322452795
 30
0.0
 10
-36.4160718685
 20
-3.5315765263
 30
0.0
 10
-36.4160718685
 20
-3.5310749614
 30
0.0
 10
-36.4160718685
 20
-3.5305733965
 30
0.0
 10
-36.4160718685
 20
-3.5301554257
 30
0.0
 10
-36.4160718685
 20
-3.5298210491
 30
0.0
 10
-36.4160718685
 20
-3.5296120638
 30
0.0
 10
-36.4160718685
 20
-3.5294448755
 30
0.0
 10
-36.4160718686
 20
-3.5293194842
 30
0.0
 10
-36.4160718682
 20
-3.529194093
 30
0.0
 10
-36.4160718696
 20
-3.5290607467
 30
0.0
 10
-36.4160718637
 20
-3.5289194487
 30
0.0
 10
-36.4160718323
 20
-3.5287204604
 30
0.0
 10
-36.4160717245
 20
-3.5283722905
 30
0.0
 10
-36.4160714156
 20
-3.5278749898
 30
0.0
 10
-36.4160707982
 20
-3.5272783516
 30
0.0
 10
-36.4160696455
 20
-3.5264831601
 30
0.0
 10
-36.4160675875
 20
-3.5254895787
 30
0.0
 10
-36.416062978
 20
-3.5239009353
 30
0.0
 10
-36.4160547478
 20
-3.5219167613
 30
0.0
 10
-36.4160409164
 20
-3.5195377156
 30
0.0
 10
-36.4160231326
 20
-3.517161282
 30
0.0
 10
-36.4159941667
 20
-3.5139979015
 30
0.0
 10
-36.4159480941
 20
-3.5100501878
 30
0.0
 10
-36.4158769672
 20
-3.5053208109
 30
0.0
 10
-36.4157611759
 20
-3.4990356536
 30
0.0
 10
-36.4155770374
 20
-3.4912051737
 30
0.0
 10
-36.4152925929
 20
-3.4818402938
 30
0.0
 10
-36.4149449075
 20
-3.4725172064
 30
0.0
 10
-36.4145339809
 20
-3.4632359078
 30
0.0
 10
-36.4139030629
 20
-3.450942007
 30
0.0
 10
-36.4129572422
 20
-3.4356777398
 30
0.0
 10
-36.4115669107
 20
-3.417489815
 30
0.0
 10
-36.4099235712
 20
-3.3994689542
 30
0.0
 10
-36.4074047647
 20
-3.3757547891
 30
0.0
 10
-36.4036298759
 20
-3.3465173598
 30
0.0
 10
-36.3980698933
 20
-3.3119661651
 30
0.0
 10
-36.3914969671
 20
-3.2780827221
 30
0.0
 10
-36.3839110786
 20
-3.2448674709
 30
0.0
 10
-36.3753118065
 20
-3.2123198618
 30
0.0
 10
-36.3625575922
 20
-3.1700197675
 30
0.0
 10
-36.3440785587
 20
-3.1186902481
 30
0.0
 10
-36.3177279942
 20
-3.0594856062
 30
0.0
 10
-36.2973805778
 20
-3.0216837392
 30
0.0
 10
-36.2865586922
 20
-3.0032936442
 30
0.0
  0
SPLINE
  5
348
100
AcDbEntity
  8
0
100
AcDbSpline
 62
7
  6
CONTINUOUS
 70
0
 71
3
 72
9
 73
5
 74
0
 42
0.0000001
 43
0.0000001
 44
0.0000000001
 40
0.0
 40
0.0
 40
0.0
 40
0.0
 40
0.7095580048
 40
1.0
 40
1.0
 40
1.0
 40
1.0
 10
-36.2865586922
 20
-3.0032936442
 30
0.0
 10
-36.2184467485
 20
-2.8950670501
 30
0.0
 10
-36.0410790589
 20
-2.7901988339
 30
0.0
 10
-35.8619440322
 20
-2.7777499044
 30
0.0
 10
-35.8096046502
 20
-2.7771200442
 30
0.0
  0
SPLINE
  5
349
100
AcDbEntity
  8
0
100
AcDbSpline
 62
7
  6
CONTINUOUS
 70
0
 71
3
 72
8
 73
4
 74
0
 42
0.0000001
 43
0.0000001
 44
0.0000000001
 40
0.0
 40
0.0
 40
0.0
 40
0.0
 40
1.0
 40
1.0
 40
1.0
 40
1.0
 10
-35.8096046502
 20
-2.7771200442
 30
0.0
 10
-35.6572301006
 20
-2.7794509643
 30
0.0
 10
-35.4902455808
 20
-2.8411422352
 30
0.0
 10
-35.3881469242
 20
-2.9542762305
 30
0.0
  0
SPLINE
  5
34A
100
AcDbEntity
  8
0
100
AcDbSpline
 62
7
  6
CONTINUOUS
 70
0
 71
3
 72
74
 73
70
 74
0
 42
0.0000001
 43
0.0000001
 44
0.0000000001
 40
0.0
 40
0.0
 40
0.0
 40
0.0
 40
0.0456903019
 40
0.0905248892
 40
0.1349494977
 40
0.157158282
 40
0.1794364946
 40
0.2018409971
 40
0.2244276972
 40
0.247251164
 40
0.2703642894
 40
0.2820462444
 40
0.2938195297
 40
0.3056901686
 40
0.3176640373
 40
0.3236915658
 40
0.3297470358
 40
0.3358311389
 40
0.3419445572
 40
0.3480879628
 40
0.3511711285
 40
0.3542620387
 40
0.3573607745
 40
0.3589131035
 40
0.3604674191
 40
0.3620237314
 40
0.3635820502
 40
0.3643619653
 40
0.3651423857
 40
0.3655327858
 40
0.3659233128
 40
0.3663139667
 40
0.3665093413
 40
0.3666070405
 40
0.3667047477
 40
0.3668940951
 40
0.3670834081
 40
0.367461931
 40
0.3682185644
 40
0.3689746484
 40
0.3697301835
 40
0.3712396089
 40
0.3727468449
 40
0.3757547636
 40
0.3787539735
 40
0.3817445077
 40
0.3847263996
 40
0.3906643828
 40
0.3965682047
 40
0.402438143
 40
0.4140774318
 40
0.4255846395
 40
0.4369621671
 40
0.4482124988
 40
0.4593382039
 40
0.4812257522
 40
0.5026477992
 40
0.5236281655
 40
0.5441922067
 40
0.5643668483
 40
0.5841806032
 40
0.622839295
 40
0.6604347812
 40
0.6972486953
 40
0.7335808511
 40
0.7697430468
 40
0.8427414886
 40
0.9187692804
 40
1.0
 40
1.0
 40
1.0
 40
1.0
 10
-35.3881469242
 20
-2.9542762305
 30
0.0
 10
-35.3744436828
 20
-2.9685179127
 30
0.0
 10
-35.3485825165
 20
-2.9980154625
 30
0.0
 10
-35.3145518102
 20
-3.0455552477
 30
0.0
 10
-35.2905556103
 20
-3.0874824876
 30
0.0
 10
-35.2740562361
 20
-3.1222379049
 30
0.0
 10
-35.2629843824
 20
-3.1489842565
 30
0.0
 10
-35.2532180102
 20
-3.1764069387
 30
0.0
 10
-35.2447563347
 20
-3.2045062643
 30
0.0
 10
-35.2375994622
 20
-3.2332811151
 30
0.0
 10
-35.2327397722
 20
-3.2577362511
 30
0.0
 10
-35.2294993952
 20
-3.2776188656
 30
0.0
 10
-35.2273857477
 20
-3.2927538712
 30
0.0
 10
-35.2255975937
 20
-3.3080577481
 30
0.0
 10
-35.2243814084
 20
-3.3209229084
 30
0.0
 10
-35.223570196
 20
-3.3312973969
 30
0.0
 10
-35.2230417458
 20
-3.3391380942
 30
0.0
 10
-35.2225946303
 20
-3.3470210508
 30
0.0
 10
-35.2222288477
 20
-3.3549462743
 30
0.0
 10
-35.2219921002
 20
-3.3615776168
 30
0.0
 10
-35.2218432211
 20
-3.3669035827
 30
0.0
 10
-35.2217517547
 20
-3.370913588
 30
0.0
 10
-35.2216925136
 20
-3.374261934
 30
0.0
 10
-35.2216552675
 20
-3.3769458659
 30
0.0
 10
-35.2216323979
 20
-3.3789627385
 30
0.0
 10
-35.2216146112
 20
-3.3809822532
 30
0.0
 10
-35.2216040281
 20
-3.3826668396
 30
0.0
 10
-35.2215981006
 20
-3.3840158262
 30
0.0
 10
-35.2215954541
 20
-3.384859629
 30
0.0
 10
-35.2215939719
 20
-3.385535001
 30
0.0
 10
-35.2215931778
 20
-3.3860417773
 30
0.0
 10
-35.2215927806
 20
-3.3864641941
 30
0.0
 10
-35.2215926419
 20
-3.3867599461
 30
0.0
 10
-35.2215926018
 20
-3.3869289816
 30
0.0
 10
-35.22159259
 20
-3.38709541
 30
0.0
 10
-35.2215926124
 20
-3.3873014667
 30
0.0
 10
-35.2215927119
 20
-3.3876289925
 30
0.0
 10
-35.2215930621
 20
-3.3882019024
 30
0.0
 10
-35.2215940614
 20
-3.3890199733
 30
0.0
 10
-35.2215960612
 20
-3.3900011225
 30
0.0
 10
-35.2215997928
 20
-3.3913078947
 30
0.0
 10
-35.2216064551
 20
-3.3929395763
 30
0.0
 10
-35.2216213744
 20
-3.3955455158
 30
0.0
 10
-35.2216480062
 20
-3.3987958128
 30
0.0
 10
-35.2216927876
 20
-3.4026875745
 30
0.0
 10
-35.2217503689
 20
-3.4065679092
 30
0.0
 10
-35.2218440754
 20
-3.4117190095
 30
0.0
 10
-35.2219930701
 20
-3.418129442
 30
0.0
 10
-35.2222233233
 20
-3.4257874023
 30
0.0
 10
-35.2225975231
 20
-3.4359080577
 30
0.0
 10
-35.2231921841
 20
-3.4484457106
 30
0.0
 10
-35.2241126519
 20
-3.4633514755
 30
0.0
 10
-35.2252379422
 20
-3.4780744672
 30
0.0
 10
-35.2265680624
 20
-3.4926147234
 30
0.0
 10
-35.2286034833
 20
-3.5116534012
 30
0.0
 10
-35.2316519887
 20
-3.535006024
 30
0.0
 10
-35.2361503585
 20
-3.5624540406
 30
0.0
 10
-35.2414688655
 20
-3.5891720234
 30
0.0
 10
-35.2476075923
 20
-3.6151596088
 30
0.0
 10
-35.2545670191
 20
-3.6404173965
 30
0.0
 10
-35.264854641
 20
-3.6728509799
 30
0.0
 10
-35.2797514619
 20
-3.7116976372
 30
0.0
 10
-35.3010831626
 20
-3.7557762247
 30
0.0
 10
-35.3257263582
 20
-3.7969292604
 30
0.0
 10
-35.3536863115
 20
-3.8351464115
 30
0.0
 10
-35.3954783292
 20
-3.8823056069
 30
0.0
 10
-35.4569385411
 20
-3.9344645436
 30
0.0
 10
-35.5435832592
 20
-3.9845014383
 30
0.0
 10
-35.6074329648
 20
-4.0087975466
 30
0.0
 10
-35.6410220751
 20
-4.0191116678
 30
0.0
  0
SPLINE
  5
34B
100
AcDbEntity
  8
0
100
AcDbSpline
 62
7
  6
CONTINUOUS
 70
0
 71
3
 72
123
 73
119
 74
0
 42
0.0000001
 43
0.0000001
 44
0.0000000001
 40
0.0
 40
0.0
 40
0.0
 40
0.0
 40
0.0650568189
 40
0.0956866619
 40
0.125349991
 40
0.1543149784
 40
0.1828694787
 40
0.2113138114
 40
0.2399517624
 40
0.2690810604
 40
0.2989847617
 40
0.3143135884
 40
0.3299320718
 40
0.337859413
 40
0.3458698035
 40
0.3539665728
 40
0.3621529452
 40
0.3662807589
 40
0.3704321343
 40
0.3746074452
 40
0.3767041971
 40
0.3788070701
 40
0.3809161091
 40
0.3830313587
 40
0.3851528629
 40
0.3862159749
 40
0.387280667
 40
0.3878136073
 40
0.3883469447
 40
0.3886137624
 40
0.3888806798
 40
0.3890035587
 40
0.3890839751
 40
0.3892447837
 40
0.3895663042
 40
0.3898876956
 40
0.3902089583
 40
0.3905300922
 40
0.3911719747
 40
0.3918133443
 40
0.3930945494
 40
0.3956508556
 40
0.3981990913
 40
0.4007393351
 40
0.4032716663
 40
0.4083128916
 40
0.4133234366
 40
0.4183039626
 40
0.423255143
 40
0.4281776634
 40
0.4330722211
 40
0.4427801171
 40
0.4523848267
 40
0.461892359
 40
0.4713089095
 40
0.4898930864
 40
0.508192
 40
0.5262612347
 40
0.5441585153
 40
0.5619432408
 40
0.5796759413
 40
0.5974176794
 40
0.6063119577
 40
0.6152313095
 40
0.6197028518
 40
0.6241834693
 40
0.6264262116
 40
0.6286620928
 40
0.6331191508
 40
0.6419794265
 40
0.6507784126
 40
0.6682384942
 40
0.6856024564
 40
0.702971994
 40
0.7204487043
 40
0.7381323374
 40
0.7561192012
 40
0.7745008382
 40
0.7838680187
 40
0.7933655266
 40
0.8030030858
 40
0.8127900029
 40
0.8227351652
 40
0.8328470427
 40
0.8431336936
 40
0.8483450816
 40
0.8509681818
 40
0.8536030274
 40
0.8562497295
 40
0.8575775628
 40
0.8589084013
 40
0.8602422584
 40
0.8609103233
 40
0.8615791479
 40
0.8622086978
 40
0.8624435073
 40
0.8626782357
 40
0.8631474493
 40
0.8636163397
 40
0.8645531532
 40
0.8654886829
 40
0.8673559151
 40
0.8692180897
 40
0.8710752591
 40
0.872927476
 40
0.8747747936
 40
0.8784549322
 40
0.8821161221
 40
0.8857588042
 40
0.8929903268
 40
0.9001532711
 40
0.9072514033
 40
0.9142885937
 40
0.9281951045
 40
0.9419067122
 40
0.9688748149
 40
0.9954897208
 40
1.0
 40
1.0
 40
1.0
 40
1.0
 10
-35.5454738506
 20
-4.331147411
 30
0.0
 10
-35.485788587
 20
-4.3054201119
 30
0.0
 10
-35.4003302492
 20
-4.26139058
 30
0.0
 10
-35.2973928366
 20
-4.1898354502
 30
0.0
 10
-35.229078822
 20
-4.1323028343
 30
0.0
 10
-35.1681673378
 20
-4.0698440538
 30
0.0
 10
-35.1146766032
 20
-4.0024608152
 30
0.0
 10
-35.0686319947
 20
-3.9301714975
 30
0.0
 10
-35.0300473553
 20
-3.8529999668
 30
0.0
 10
-34.9989266858
 20
-3.7709786388
 30
0.0
 10
-34.9793660628
 20
-3.6991883586
 30
0.0
 10
-34.9673750348
 20
-3.6395750501
 30
0.0
 10
-34.9613861295
 20
-3.6011885261
 30
0.0
 10
-34.9575064163
 20
-3.5699007162
 30
0.0
 10
-34.9550429442
 20
-3.5460143107
 30
0.0
 10
-34.9530404689
 20
-3.5218254271
 30
0.0
 10
-34.951759458
 20
-3.5014730299
 30
0.0
 10
-34.9509632337
 20
-3.4850424372
 30
0.0
 10
-34.9504795948
 20
-3.4726091664
 30
0.0
 10
-34.9501730139
 20
-3.4622001376
 30
0.0
 10
-34.949985105
 20
-3.4538353698
 30
0.0
 10
-34.9498727693
 20
-3.4475337717
 30
0.0
 10
-34.9497892343
 20
-3.4412132461
 30
0.0
 10
-34.9497344991
 20
-3.434873792
 30
0.0
 10
-34.9497129045
 20
-3.429579065
 30
0.0
 10
-34.9497099931
 20
-3.4253338556
 30
0.0
 10
-34.9497141795
 20
-3.4226756798
 30
0.0
 10
-34.9497211042
 20
-3.4205467774
 30
0.0
 10
-34.9497269793
 20
-3.4192149813
 30
0.0
 10
-34.9497324719
 20
-3.4181489523
 30
0.0
 10
-34.94973646
 20
-3.4174929849
 30
0.0
 10
-34.9497390278
 20
-3.4170232314
 30
0.0
 10
-34.949743195
 20
-3.4166595019
 30
0.0
 10
-34.9497490953
 20
-3.4160973308
 30
0.0
 10
-34.9497582896
 20
-3.4152944382
 30
0.0
 10
-34.9497698227
 20
-3.4143312632
 30
0.0
 10
-34.9497820488
 20
-3.4133684827
 30
0.0
 10
-34.9497992018
 20
-3.4120855576
 30
0.0
 10
-34.9498222771
 20
-3.4104828854
 30
0.0
 10
-34.9498626635
 20
-3.4079212207
 30
0.0
 10
-34.9499423949
 20
-3.4034473677
 30
0.0
 10
-34.9500823612
 20
-3.3970692838
 30
0.0
 10
-34.9502921842
 20
-3.3894347207
 30
0.0
 10
-34.9505437369
 20
-3.3818253793
 30
0.0
 10
-34.950934176
 20
-3.3717288428
 30
0.0
 10
-34.9515260868
 20
-3.3591705332
 30
0.0
 10
-34.9524044111
 20
-3.3441781276
 30
0.0
 10
-34.9534496689
 20
-3.3292865954
 30
0.0
 10
-34.9546618599
 20
-3.3144959575
 30
0.0
 10
-34.9560409897
 20
-3.29980618
 30
0.0
 10
-34.9580966875
 20
-3.2804082953
 30
0.0
 10
-34.9610807733
 20
-3.2564066481
 30
0.0
 10
-34.9653396626
 20
-3.2279281275
 30
0.0
 10
-34.9702667311
 20
-3.1998526291
 30
0.0
 10
-34.9776937005
 20
-3.1631205442
 30
0.0
 10
-34.9886377644
 20
-3.1181543506
 30
0.0
 10
-35.0045081376
 20
-3.0655705115
 30
0.0
 10
-35.0230591986
 20
-3.0145992315
 30
0.0
 10
-35.0442911432
 20
-2.9652431936
 30
0.0
 10
-35.0682042303
 20
-2.9175037326
 30
0.0
 10
-35.0947972605
 20
-2.8713836606
 30
0.0
 10
-35.119173078
 20
-2.8343287059
 30
0.0
 10
-35.139979154
 20
-2.805533988
 30
0.0
 10
-35.1535400526
 20
-2.7878723971
 30
0.0
 10
-35.164718012
 20
-2.7739495576
 30
0.0
 10
-35.1718448279
 20
-2.7653297445
 30
0.0
 10
-35.177622245
 20
-2.7584932355
 30
0.0
 10
-35.1832618454
 20
-2.751572769
 30
0.0
 10
-35.1933254251
 20
-2.7397324158
 30
0.0
 10
-35.2080495641
 20
-2.7232517962
 30
0.0
 10
-35.2324058434
 20
-2.6979883577
 30
0.0
 10
-35.2643937087
 20
-2.6683234699
 30
0.0
 10
-35.3052658718
 20
-2.6358638568
 30
0.0
 10
-35.3485236394
 20
-2.6066272583
 30
0.0
 10
-35.394162146
 20
-2.5806185518
 30
0.0
 10
-35.4421765869
 20
-2.5578378376
 30
0.0
 10
-35.4925606463
 20
-2.5382849258
 30
0.0
 10
-35.5362459885
 20
-2.5247637073
 30
0.0
 10
-35.572300513
 20
-2.5155401914
 30
0.0
 10
-35.6001063587
 20
-2.509380652
 30
0.0
 10
-35.6285041284
 20
-2.5040235833
 30
0.0
 10
-35.657494235
 20
-2.4994687038
 30
0.0
 10
-35.6870765539
 20
-2.4957159607
 30
0.0
 10
-35.7172509808
 20
-2.4927652533
 30
0.0
 10
-35.7427774198
 20
-2.490982464
 30
0.0
 10
-35.7608591578
 20
-2.4900828106
 30
0.0
 10
-35.7713101526
 20
-2.4896660085
 30
0.0
 10
-35.7792028397
 20
-2.4894028111
 30
0.0
 10
-35.7858035087
 20
-2.489225411
 30
0.0
 10
-35.7911024795
 20
-2.4891084836
 30
0.0
 10
-35.7950904518
 20
-2.4890331292
 30
0.0
 10
-35.7984195912
 20
-2.4889810646
 30
0.0
 10
-35.8010875249
 20
-2.4889450677
 30
0.0
 10
-35.8030519298
 20
-2.4889232624
 30
0.0
 10
-35.8045835602
 20
-2.4889039751
 30
0.0
 10
-35.8056815941
 20
-2.4889063155
 30
0.0
 10
-35.8066194376
 20
-2.48890712
 30
0.0
 10
-35.8077911363
 20
-2.4889098884
 30
0.0
 10
-35.809664233
 20
-2.4889164146
 30
0.0
 10
-35.8120031752
 20
-2.4889292671
 30
0.0
 10
-35.8157390225
 20
-2.4889595254
 30
0.0
 10
-35.8203991427
 20
-2.4890156597
 30
0.0
 10
-35.825979515
 20
-2.4891123789
 30
0.0
 10
-35.8315442979
 20
-2.4892384226
 30
0.0
 10
-35.8370934926
 20
-2.4893937874
 30
0.0
 10
-35.8444619703
 20
-2.489639714
 30
0.0
 10
-35.8536340559
 20
-2.4900201529
 30
0.0
 10
-35.864592649
 20
-2.490594576
 30
0.0
 10
-35.8790850825
 20
-2.4915145881
 30
0.0
 10
-35.8970487534
 20
-2.4929559296
 30
0.0
 10
-35.9184090881
 20
-2.4951591669
 30
0.0
 10
-35.939520372
 20
-2.4978318414
 30
0.0
 10
-35.9672246799
 20
-2.50200434
 30
0.0
 10
-36.0012692582
 20
-2.5083858668
 30
0.0
 10
-36.0543251243
 20
-2.5210717331
 30
0.0
 10
-36.1184622316
 20
-2.5416498476
 30
0.0
 10
-36.1716517618
 20
-2.5651615008
 30
0.0
 10
-36.1992542241
 20
-2.5794949922
 30
0.0
 10
-36.2032346697
 20
-2.5816081069
 30
0.0
  0
SPLINE
  5
34C
100
AcDbEntity
  8
0
100
AcDbSpline
 62
7
  6
CONTINUOUS
 70
0
 71
3
 72
30
 73
26
 74
0
 42
0.0000001
 43
0.0000001
 44
0.0000000001
 40
0.0
 40
0.0
 40
0.0
 40
0.0
 40
0.004047138
 40
0.1266255304
 40
0.1872109638
 40
0.247755688
 40
0.3086041232
 40
0.3700955867
 40
0.4011907312
 40
0.4325687319
 40
0.448376535
 40
0.4642694687
 40
0.4802521883
 40
0.4882787218
 40
0.4963294115
 40
0.5042277136
 40
0.5121078655
 40
0.5278167469
 40
0.5590508779
 40
0.5900866589
 40
0.6209781463
 40
0.6825341226
 40
0.7441752234
 40
0.8693602361
 40
1.0
 40
1.0
 40
1.0
 40
1.0
 10
-36.5664173457
 20
-3.0745675776
 30
0.0
 10
-36.5668001968
 20
-3.0734086765
 30
0.0
 10
-36.5788648937
 20
-3.0371746258
 30
0.0
 10
-36.6006866226
 20
-2.984802002
 30
0.0
 10
-36.6364923154
 20
-2.9205481224
 30
0.0
 10
-36.6667865973
 20
-2.8747096437
 30
0.0
 10
-36.7006114574
 20
-2.8310735291
 30
0.0
 10
-36.7316280068
 20
-2.7966658321
 30
0.0
 10
-36.7581284438
 20
-2.7702802581
 30
0.0
 10
-36.7754442624
 20
-2.7542208709
 30
0.0
 10
-36.7897267041
 20
-2.7416504088
 30
0.0
 10
-36.8006849975
 20
-2.7323345487
 30
0.0
 10
-36.8099875761
 20
-2.7246976237
 30
0.0
 10
-36.8175356489
 20
-2.7186531598
 30
0.0
 10
-36.8232251341
 20
-2.7141894918
 30
0.0
 10
-36.8288892568
 20
-2.7097650024
 30
0.0
 10
-36.836444418
 20
-2.7040100409
 30
0.0
 10
-36.8497445802
 20
-2.6941832887
 30
0.0
 10
-36.8690889747
 20
-2.6807924497
 30
0.0
 10
-36.8928428741
 20
-2.6657661538
 30
0.0
 10
-36.9251341506
 20
-2.6471891311
 30
0.0
 10
-36.9668648835
 20
-2.626588192
 30
0.0
 10
-37.0366886994
 20
-2.59922571
 30
0.0
 10
-37.1300129368
 20
-2.575809618
 30
0.0
 10
-37.2072208264
 20
-2.5691527155
 30
0.0
 10
-37.2466185187
 20
-2.5684853173
 30
0.0
  0
SPLINE
  5
34D
100
AcDbEntity
  8
0
100
AcDbSpline
 62
7
  6
CONTINUOUS
 70
0
 71
3
 72
81
 73
77
 74
0
 42
0.0000001
 43
0.0000001
 44
0.0000000001
 40
0.0
 40
0.0
 40
0.0
 40
0.0
 40
0.0591435026
 40
0.1140501485
 40
0.1659769764
 40
0.1913040026
 40
0.216455112
 40
0.2416345226
 40
0.2543017368
 40
0.2670519695
 40
0.2734662829
 40
0.2799105001
 40
0.2831447983
 40
0.2863770183
 40
0.2928224416
 40
0.3056668254
 40
0.3184620653
 40
0.3439606461
 40
0.3694413428
 40
0.3950238863
 40
0.4208265902
 40
0.4469647784
 40
0.4601962289
 40
0.4735527074
 40
0.4870472165
 40
0.5006923643
 40
0.5145003462
 40
0.5214692735
 40
0.5284832855
 40
0.5355437854
 40
0.5426521487
 40
0.5462247222
 40
0.5498097646
 40
0.5534074402
 40
0.5570179114
 40
0.5588279982
 40
0.560641344
 40
0.5624579686
 40
0.5633675169
 40
0.5642778924
 40
0.5651890974
 40
0.5656450118
 40
0.5661011345
 40
0.566329274
 40
0.5665574658
 40
0.5666715812
 40
0.5668259081
 40
0.5670003095
 40
0.5671746786
 40
0.5678718328
 40
0.568568472
 40
0.5692645975
 40
0.5699602104
 40
0.5713499025
 40
0.5741231831
 40
0.5768883898
 40
0.5796455965
 40
0.5823948779
 40
0.5851363091
 40
0.5905959065
 40
0.5960250227
 40
0.6067941643
 40
0.6174490189
 40
0.6279948832
 40
0.6384372199
 40
0.6487816556
 40
0.6590339782
 40
0.6792846738
 40
0.6992401322
 40
0.71895193
 40
0.7578462144
 40
0.7964255186
 40
0.8351455416
 40
0.8744570885
 40
0.9147911357
 40
1.0
 40
1.0
 40
1.0
 40
1.0
 10
-37.2466185187
 20
-2.5684853173
 30
0.0
 10
-37.2912533357
 20
-2.5689639955
 30
0.0
 10
-37.3774160184
 20
-2.5748359294
 30
0.0
 10
-37.5003930133
 20
-2.6009449202
 30
0.0
 10
-37.5938313127
 20
-2.6373518613
 30
0.0
 10
-37.6615383197
 20
-2.6748100314
 30
0.0
 10
-37.7088844556
 20
-2.7068703694
 30
0.0
 10
-37.7457320354
 20
-2.7370287339
 30
0.0
 10
-37.7736055196
 20
-2.7631454753
 30
0.0
 10
-37.7903977605
 20
-2.7803386862
 30
0.0
 10
-37.8034506414
 20
-2.7945947702
 30
0.0
 10
-37.8114457193
 20
-2.8037389125
 30
0.0
 10
-37.8177701868
 20
-2.8111523269
 30
0.0
 10
-37.8239107331
 20
-2.8187201859
 30
0.0
 10
-37.8344092593
 20
-2.8320892863
 30
0.0
 10
-37.8489083771
 20
-2.8514907149
 30
0.0
 10
-37.8709416056
 20
-2.8831864545
 30
0.0
 10
-37.8963846704
 20
-2.9240929663
 30
0.0
 10
-37.9234781912
 20
-2.9751812501
 30
0.0
 10
-37.9471045006
 20
-3.0282150404
 30
0.0
 10
-37.9672610114
 20
-3.0831883123
 30
0.0
 10
-37.9811118167
 20
-3.1304248562
 30
0.0
 10
-37.9904666559
 20
-3.1691091228
 30
0.0
 10
-37.9966485034
 20
-3.1987274825
 30
0.0
 10
-38.001966534
 20
-3.2288297003
 30
0.0
 10
-38.0064209839
 20
-3.259415982
 30
0.0
 10
-38.0094041049
 20
-3.2852275359
 30
0.0
 10
-38.0113624519
 20
-3.306111134
 30
0.0
 10
-38.0126200771
 20
-3.3219439447
 30
0.0
 10
-38.0136619634
 20
-3.3378978136
 30
0.0
 10
-38.014349244
 20
-3.3512706236
 30
0.0
 10
-38.0147917401
 20
-3.3620285584
 30
0.0
 10
-38.0150702578
 20
-3.3701411871
 30
0.0
 10
-38.0152948494
 20
-3.3782840945
 30
0.0
 10
-38.0154369437
 20
-3.385088999
 30
0.0
 10
-38.0155237278
 20
-3.3905479625
 30
0.0
 10
-38.015575393
 20
-3.3946534202
 30
0.0
 10
-38.0156071987
 20
-3.3980793908
 30
0.0
 10
-38.0156259118
 20
-3.4008239407
 30
0.0
 10
-38.0156365827
 20
-3.4028851793
 30
0.0
 10
-38.0156426652
 20
-3.4046040633
 30
0.0
 10
-38.0156458472
 20
-3.4059801155
 30
0.0
 10
-38.0156471342
 20
-3.4068406403
 30
0.0
 10
-38.0156477426
 20
-3.4075292966
 30
0.0
 10
-38.0156479473
 20
-3.4079598299
 30
0.0
 10
-38.015648011
 20
-3.4083346546
 30
0.0
 10
-38.0156479875
 20
-3.4086688822
 30
0.0
 10
-38.0156478468
 20
-3.4090485849
 30
0.0
 10
-38.0156473039
 20
-3.4098379756
 30
0.0
 10
-38.0156455503
 20
-3.4110215141
 30
0.0
 10
-38.0156412062
 20
-3.4125988333
 30
0.0
 10
-38.0156348569
 20
-3.4141749824
 30
0.0
 10
-38.0156237214
 20
-3.4162741829
 30
0.0
 10
-38.0155972429
 20
-3.4199410118
 30
0.0
 10
-38.015539393
 20
-3.4251696225
 30
0.0
 10
-38.015437837
 20
-3.4314298365
 30
0.0
 10
-38.0153041955
 20
-3.4376713311
 30
0.0
 10
-38.0151384686
 20
-3.443894108
 30
0.0
 10
-38.0148750924
 20
-3.4521544686
 30
0.0
 10
-38.0144659851
 20
-3.4624336334
 30
0.0
 10
-38.0136416189
 20
-3.4787589133
 30
0.0
 10
-38.0122927194
 20
-3.498982583
 30
0.0
 10
-38.0101560153
 20
-3.5230183656
 30
0.0
 10
-38.0075057079
 20
-3.5467549139
 30
0.0
 10
-38.0043417916
 20
-3.5701920947
 30
0.0
 10
-38.0006641932
 20
-3.5933301001
 30
0.0
 10
-37.9950991611
 20
-3.6236549005
 30
0.0
 10
-37.986867084
 20
-3.6608539601
 30
0.0
 10
-37.9748876938
 20
-3.7044812925
 30
0.0
 10
-37.956257515
 20
-3.7607937769
 30
0.0
 10
-37.9277461565
 20
-3.8285399153
 30
0.0
 10
-37.8850665977
 20
-3.9053449077
 30
0.0
 10
-37.8340830789
 20
-3.9772941515
 30
0.0
 10
-37.7748139572
 20
-4.0443649612
 30
0.0
 10
-37.6831797875
 20
-4.1287765972
 30
0.0
 10
-37.6042365114
 20
-4.1823934588
 30
0.0
 10
-37.5483798543
 20
-4.2142646235
 30
0.0
  0
SPLINE
  5
34E
100
AcDbEntity
  8
0
100
AcDbSpline
 62
7
  6
CONTINUOUS
 70
0
 71
3
 72
34
 73
30
 74
0
 42
0.0000001
 43
0.0000001
 44
0.0000000001
 40
0.0
 40
0.0
 40
0.0
 40
0.0
 40
0.1337483748
 40
0.1995015788
 40
0.264841046
 40
0.330040174
 40
0.3626774143
 40
0.3953826763
 40
0.4281900497
 40
0.4611333074
 40
0.4776668512
 40
0.494246833
 40
0.510877342
 40
0.5192128748
 40
0.5233859232
 40
0.5275625712
 40
0.5317091597
 40
0.5358438519
 40
0.5440778854
 40
0.560407023
 40
0.5765561765
 40
0.592531538
 40
0.6239849985
 40
0.6548226109
 40
0.7148657006
 40
0.7731675938
 40
0.8302663747
 40
0.8867345312
 40
1.0
 40
1.0
 40
1.0
 40
1.0
 10
-36.4275902839
 20
-6.3938029464
 30
0.0
 10
-36.4538820963
 20
-6.348014989
 30
0.0
 10
-36.4891119067
 20
-6.2772797085
 30
0.0
 10
-36.5265685334
 20
-6.1796132421
 30
0.0
 10
-36.5496183185
 20
-6.1055714799
 30
0.0
 10
-36.5647367066
 20
-6.0429040496
 30
0.0
 10
-36.574369176
 20
-5.9922710034
 30
0.0
 10
-36.5803758099
 20
-5.9539858063
 30
0.0
 10
-36.5851609634
 20
-5.9154077752
 30
0.0
 10
-36.5881276625
 20
-5.8830543272
 30
0.0
 10
-36.5898913366
 20
-5.8570360835
 30
0.0
 10
-36.5909128575
 20
-5.8374243904
 30
0.0
 10
-36.5915026348
 20
-5.8210334435
 30
0.0
 10
-36.5917955701
 20
-5.8095336362
 30
0.0
 10
-36.5919040965
 20
-5.8029480106
 30
0.0
 10
-36.592025183
 20
-5.7980153563
 30
0.0
 10
-36.5919033463
 20
-5.7930978741
 30
0.0
 10
-36.5917874331
 20
-5.7865794633
 30
0.0
 10
-36.5914715155
 20
-5.7752544568
 30
0.0
 10
-36.5908140194
 20
-5.7591951632
 30
0.0
 10
-36.5896538069
 20
-5.7401010355
 30
0.0
 10
-36.5876385314
 20
-5.7150823233
 30
0.0
 10
-36.5842275214
 20
-5.6843638463
 30
0.0
 10
-36.5768797412
 20
-5.636621378
 30
0.0
 10
-36.5641322247
 20
-5.5790353069
 30
0.0
 10
-36.5428658801
 20
-5.5130131368
 30
0.0
 10
-36.5157429435
 20
-5.4506869086
 30
0.0
 10
-36.4718027106
 20
-5.372534054
 30
0.0
 10
-36.4298973098
 20
-5.3194674932
 30
0.0
 10
-36.3988602192
 20
-5.2872804753
 30
0.0
  0
SPLINE
  5
34F
100
AcDbEntity
  8
0
100
AcDbSpline
 62
7
  6
CONTINUOUS
 70
0
 71
3
 72
8
 73
4
 74
0
 42
0.0000001
 43
0.0000001
 44
0.0000000001
 40
0.0
 40
0.0
 40
0.0
 40
0.0
 40
1.0
 40
1.0
 40
1.0
 40
1.0
 10
-36.3988602192
 20
-5.2872804753
 30
0.0
 10
-36.268407763
 20
-5.1589057416
 30
0.0
 10
-36.0682028116
 20
-5.0955471032
 30
0.0
 10
-35.8851921845
 20
-5.0933052442
 30
0.0
  0
SPLINE
  5
350
100
AcDbEntity
  8
0
100
AcDbSpline
 62
7
  6
CONTINUOUS
 70
0
 71
3
 72
34
 73
30
 74
0
 42
0.0000001
 43
0.0000001
 44
0.0000000001
 40
0.0
 40
0.0
 40
0.0
 40
0.0
 40
0.1310441229
 40
0.1935637582
 40
0.2547716573
 40
0.315263831
 40
0.3756574841
 40
0.4060211431
 40
0.4365917492
 40
0.4519792744
 40
0.4674464455
 40
0.4830022984
 40
0.4908163995
 40
0.4947329568
 40
0.4986560218
 40
0.5026681227
 40
0.5066721376
 40
0.5146564456
 40
0.5305340744
 40
0.5462986067
 40
0.5619596225
 40
0.5930078581
 40
0.6237614216
 40
0.6543028562
 40
0.6847164325
 40
0.7454802949
 40
0.8067576143
 40
0.8692149114
 40
1.0
 40
1.0
 40
1.0
 40
1.0
 10
-35.8851921845
 20
-5.0933052442
 30
0.0
 10
-35.8400840581
 20
-5.0939450009
 30
0.0
 10
-35.7732825826
 20
-5.1000413727
 30
0.0
 10
-35.6878234418
 20
-5.1202280891
 30
0.0
 10
-35.627704762
 20
-5.1407604253
 30
0.0
 10
-35.5706232351
 20
-5.1669212068
 30
0.0
 10
-35.5256602145
 20
-5.1933727794
 30
0.0
 10
-35.4913537812
 20
-5.2172217475
 30
0.0
 10
-35.4705454528
 20
-5.233283854
 30
0.0
 10
-35.4542908638
 20
-5.2468120275
 30
0.0
 10
-35.4422621964
 20
-5.2573300375
 30
0.0
 10
-35.4324077713
 20
-5.2663679076
 30
0.0
 10
-35.4256049744
 20
-5.2728457993
 30
0.0
 10
-35.4217256861
 20
-5.2765863262
 30
0.0
 10
-35.418832974
 20
-5.2794641086
 30
0.0
 10
-35.4158283932
 20
-5.2822692152
 30
0.0
 10
-35.4118623917
 20
-5.2860917667
 30
0.0
 10
-35.4049974497
 20
-5.2927926035
 30
0.0
 10
-35.3954173453
 20
-5.302506379
 30
0.0
 10
-35.38426469
 20
-5.3143745282
 30
0.0
 10
-35.3699304766
 20
-5.3304106604
 30
0.0
 10
-35.3529103636
 20
-5.3509560239
 30
0.0
 10
-35.3339071578
 20
-5.3764577389
 30
0.0
 10
-35.3163829336
 20
-5.4027371633
 30
0.0
 10
-35.2950004802
 20
-5.4387921548
 30
0.0
 10
-35.2718682399
 20
-5.4860218313
 30
0.0
 10
-35.2500928452
 20
-5.5458140864
 30
0.0
 10
-35.2287006304
 20
-5.6309050604
 30
0.0
 10
-35.2222529386
 20
-5.6976194876
 30
0.0
 10
-35.2215925954
 20
-5.7426381337
 30
0.0
  0
SPLINE
  5
351
100
AcDbEntity
  8
0
100
AcDbSpline
 62
7
  6
CONTINUOUS
 70
0
 71
3
 72
9
 73
5
 74
0
 42
0.0000001
 43
0.0000001
 44
0.0000000001
 40
0.0
 40
0.0
 40
0.0
 40
0.0
 40
0.7263317951
 40
1.0
 40
1.0
 40
1.0
 40
1.0
 10
-35.2215925954
 20
-5.7426381337
 30
0.0
 10
-35.2252091223
 20
-5.912815845
 30
0.0
 10
-35.3394204415
 20
-6.1619492256
 30
0.0
 10
-35.5455855459
 20
-6.277777973
 30
0.0
 10
-35.6037187723
 20
-6.3048654201
 30
0.0
  0
SPLINE
  5
352
100
AcDbEntity
  8
0
100
AcDbSpline
 62
7
  6
CONTINUOUS
 70
0
 71
3
 72
109
 73
105
 74
0
 42
0.0000001
 43
0.0000001
 44
0.0000000001
 40
0.0
 40
0.0
 40
0.0
 40
0.0
 40
0.0672372862
 40
0.0987926484
 40
0.1293781664
 40
0.1593567375
 40
0.1891134731
 40
0.2190420496
 40
0.2341982278
 40
0.249540962
 40
0.2651152512
 40
0.2809641223
 40
0.2890049878
 40
0.2971296126
 40
0.3053427342
 40
0.3136489385
 40
0.3178384057
 40
0.3220527931
 40
0.3262926311
 40
0.3284222652
 40
0.3305584565
 40
0.3327012686
 40
0.3337751781
 40
0.3348507664
 40
0.3353891927
 40
0.3359280416
 40
0.3361976248
 40
0.3363208623
 40
0.3364209228
 40
0.3366210052
 40
0.3368210362
 40
0.3372209445
 40
0.337620648
 40
0.3384194419
 40
0.3392174208
 40
0.3400145874
 40
0.3416064943
 40
0.3447806789
 40
0.3479421831
 40
0.3510911903
 40
0.354227886
 40
0.357352458
 40
0.3635659444
 40
0.3697332424
 40
0.3758559329
 40
0.3819356313
 40
0.3939722609
 40
0.4058571468
 40
0.4176044234
 40
0.4292287273
 40
0.4407451638
 40
0.4635129255
 40
0.4860400736
 40
0.5084592801
 40
0.5309051311
 40
0.5421821111
 40
0.5535158445
 40
0.5649226269
 40
0.5706586662
 40
0.5764189314
 40
0.5793087861
 40
0.5822054225
 40
0.5836563621
 40
0.5850832113
 40
0.5864962041
 40
0.58790774
 40
0.5935398998
 40
0.5991514392
 40
0.6103208413
 40
0.621434167
 40
0.6435600139
 40
0.6656788057
 40
0.6879360496
 40
0.7104745711
 40
0.7334319469
 40
0.7569384003
 40
0.7689376123
 40
0.7811187714
 40
0.7934955114
 40
0.8060808305
 40
0.812455781
 40
0.8188874583
 40
0.8221250453
 40
0.8253773535
 40
0.8286445576
 40
0.8302838024
 40
0.8311048444
 40
0.8319268362
 40
0.8327217526
 40
0.8335158198
 40
0.8351014152
 40
0.8382625112
 40
0.8414102748
 40
0.8445448534
 40
0.850775017
 40
0.8569542564
 40
0.8691646599
 40
0.8811867205
 40
0.9047067798
 40
0.9276097292
 40
0.9499958785
 40
0.9719726147
 40
0.9936534098
 40
1.0
 40
1.0
 40
1.0
 40
1.0
 10
-35.4737468811
 20
-6.5939301705
 30
0.0
 10
-35.4119272181
 20
-6.5631409138
 30
0.0
 10
-35.3242297286
 20
-6.5106212315
 30
0.0
 10
-35.2216734014
 20
-6.4258084625
 30
0.0
 10
-35.1554263427
 20
-6.3579740544
 30
0.0
 10
-35.0983200979
 20
-6.2846057477
 30
0.0
 10
-35.0503854326
 20
-6.2057284003
 30
0.0
 10
-35.0182316451
 20
-6.1357032514
 30
0.0
 10
-34.9971482984
 20
-6.0772987981
 30
0.0
 10
-34.9835390679
 20
-6.031948165
 30
0.0
 10
-34.9722056315
 20
-5.9852468358
 30
0.0
 10
-34.9646920714
 20
-5.9453945969
 30
0.0
 10
-34.9598048216
 20
-5.912873676
 30
0.0
 10
-34.9566885125
 20
-5.88802529
 30
0.0
 10
-34.9541393355
 20
-5.8628387152
 30
0.0
 10
-34.9524923471
 20
-5.8416295076
 30
0.0
 10
-34.9514559304
 20
-5.8244968279
 30
0.0
 10
-34.9508180635
 20
-5.8115252767
 30
0.0
 10
-34.9504052284
 20
-5.8006616895
 30
0.0
 10
-34.9501454979
 20
-5.7919289397
 30
0.0
 10
-34.9499858236
 20
-5.7853482238
 30
0.0
 10
-34.9498823742
 20
-5.7798509341
 30
0.0
 10
-34.9498172598
 20
-5.7754425734
 30
0.0
 10
-34.9497839842
 20
-5.7726818731
 30
0.0
 10
-34.9497616498
 20
-5.7704706784
 30
0.0
 10
-34.9497498451
 20
-5.7690872988
 30
0.0
 10
-34.9497420215
 20
-5.7681303801
 30
0.0
 10
-34.949739
 20
-5.7676241092
 30
0.0
 10
-34.9497447251
 20
-5.7671892619
 30
0.0
 10
-34.9497492869
 20
-5.7666755331
 30
0.0
 10
-34.9497582949
 20
-5.7658538399
 30
0.0
 10
-34.9497698108
 20
-5.7648271241
 30
0.0
 10
-34.9497900055
 20
-5.7631854485
 30
0.0
 10
-34.9498180054
 20
-5.761134962
 30
0.0
 10
-34.9498562043
 20
-5.7586763271
 30
0.0
 10
-34.9499131652
 20
-5.7554032464
 30
0.0
 10
-34.9500286486
 20
-5.7496901122
 30
0.0
 10
-34.9502391038
 20
-5.7415499344
 30
0.0
 10
-34.9505647609
 20
-5.7318130998
 30
0.0
 10
-34.9509632723
 20
-5.7221175118
 30
0.0
 10
-34.951434639
 20
-5.7124631655
 30
0.0
 10
-34.9521588844
 20
-5.6996701267
 30
0.0
 10
-34.9532453734
 20
-5.6837802109
 30
0.0
 10
-34.9548431156
 20
-5.6648408969
 30
0.0
 10
-34.9567323438
 20
-5.6460664435
 30
0.0
 10
-34.9596301044
 20
-5.62133769
 30
0.0
 10
-34.9639753903
 20
-5.5908235443
 30
0.0
 10
-34.9703743809
 20
-5.5547423092
 30
0.0
 10
-34.9779404893
 20
-5.5193202954
 30
0.0
 10
-34.9866741482
 20
-5.4845572534
 30
0.0
 10
-34.9998233099
 20
-5.4392640385
 30
0.0
 10
-35.0191911529
 20
-5.3841550344
 30
0.0
 10
-35.0472131747
 20
-5.3204233772
 30
0.0
 10
-35.0799271471
 20
-5.25934196
 30
0.0
 10
-35.1110543135
 20
-5.2107238661
 30
0.0
 10
-35.1382192336
 20
-5.1732440064
 30
0.0
 10
-35.1597936604
 20
-5.1457481891
 30
0.0
 10
-35.178708994
 20
-5.1234281887
 30
0.0
 10
-35.1944130154
 20
-5.1059110024
 30
0.0
 10
-35.2044774264
 20
-5.095090277
 30
0.0
 10
-35.2126756458
 20
-5.0865196191
 30
0.0
 10
-35.2178570743
 20
-5.0811887377
 30
0.0
 10
-35.2220331239
 20
-5.0769768482
 30
0.0
 10
-35.2251143254
 20
-5.0738256082
 30
0.0
 10
-35.2281719537
 20
-5.0707079322
 30
0.0
 10
-35.2342894553
 20
-5.0645412586
 30
0.0
 10
-35.2435541904
 20
-5.0554221069
 30
0.0
 10
-35.2602776176
 20
-5.0395989858
 30
0.0
 10
-35.2816699387
 20
-5.0205260741
 30
0.0
 10
-35.3169118784
 20
-4.991551192
 30
0.0
 10
-35.3629931854
 20
-4.9581231908
 30
0.0
 10
-35.4214303624
 20
-4.9226118735
 30
0.0
 10
-35.4829289141
 20
-4.8917552938
 30
0.0
 10
-35.5474787103
 20
-4.8655563976
 30
0.0
 10
-35.6150702563
 20
-4.8440132764
 30
0.0
 10
-35.6735278542
 20
-4.8300331037
 30
0.0
 10
-35.721702314
 20
-4.8211371151
 30
0.0
 10
-35.7588452733
 20
-4.8155753827
 30
0.0
 10
-35.796748181
 20
-4.8111705949
 30
0.0
 10
-35.8288286613
 20
-4.8084754024
 30
0.0
 10
-35.854862513
 20
-4.8068903211
 30
0.0
 10
-35.871325818
 20
-4.8061377005
 30
0.0
 10
-35.884590356
 20
-4.8056793993
 30
0.0
 10
-35.8946087321
 20
-4.80540635
 30
0.0
 10
-35.9029874032
 20
-4.805241669
 30
0.0
 10
-35.9088697823
 20
-4.8051530438
 30
0.0
 10
-35.9122409323
 20
-4.8051190148
 30
0.0
 10
-35.9147449573
 20
-4.8050768468
 30
0.0
 10
-35.9172212582
 20
-4.8051190281
 30
0.0
 10
-35.9204817835
 20
-4.8051530591
 30
0.0
 10
-35.9261723681
 20
-4.8052393416
 30
0.0
 10
-35.9342796427
 20
-4.8053967951
 30
0.0
 10
-35.943976135
 20
-4.8056540202
 30
0.0
 10
-35.9568212678
 20
-4.8060821739
 30
0.0
 10
-35.9727725928
 20
-4.8067799325
 30
0.0
 10
-35.9980191584
 20
-4.8082408329
 30
0.0
 10
-36.0291636358
 20
-4.8107127852
 30
0.0
 10
-36.0779281693
 20
-4.8160381501
 30
0.0
 10
-36.1372898786
 20
-4.8252637343
 30
0.0
 10
-36.2063322625
 20
-4.8406125243
 30
0.0
 10
-36.2726588686
 20
-4.8601619726
 30
0.0
 10
-36.3362635082
 20
-4.8839147596
 30
0.0
 10
-36.3829811915
 20
-4.9053700126
 30
0.0
 10
-36.4085363213
 20
-4.9186429621
 30
0.0
 10
-36.4142892229
 20
-4.9217120342
 30
0.0
  0
SPLINE
  5
353
100
AcDbEntity
  8
0
100
AcDbSpline
 62
7
  6
CONTINUOUS
 70
0
 71
3
 72
101
 73
97
 74
0
 42
0.0000001
 43
0.0000001
 44
0.0000000001
 40
0.0
 40
0.0
 40
0.0
 40
0.0
 40
0.035600949
 40
0.060501242
 40
0.0723541444
 40
0.0838224316
 40
0.0949182608
 40
0.1003308712
 40
0.105663973
 40
0.1162171255
 40
0.1266395544
 40
0.1471249301
 40
0.1671952347
 40
0.1869280836
 40
0.2064051271
 40
0.2257112611
 40
0.2449336461
 40
0.2641605818
 40
0.2738047335
 40
0.2834830262
 40
0.2931431662
 40
0.3027314571
 40
0.3217268768
 40
0.3405467152
 40
0.3592682568
 40
0.377970005
 40
0.3873393087
 40
0.3967331516
 40
0.4061612509
 40
0.4156332185
 40
0.4251585335
 40
0.4299442594
 40
0.4347468023
 40
0.4395672987
 40
0.4444068724
 40
0.4468341781
 40
0.4492666684
 40
0.45170448
 40
0.4529254258
 40
0.4541477529
 40
0.4547594399
 40
0.4553714784
 40
0.4559838707
 40
0.4562902002
 40
0.4565966188
 40
0.4567498617
 40
0.456903127
 40
0.4573107179
 40
0.4577349215
 40
0.4581588824
 40
0.4590060786
 40
0.4598523111
 40
0.4615419031
 40
0.4632276979
 40
0.4665880395
 40
0.4699336556
 40
0.4732648601
 40
0.4798852304
 40
0.4864518237
 40
0.4929672988
 40
0.5058551386
 40
0.5185719243
 40
0.5311410768
 40
0.5559278992
 40
0.5804236883
 40
0.604837792
 40
0.6293816485
 40
0.6542633884
 40
0.666896843
 40
0.6796887104
 40
0.6926342739
 40
0.7055327804
 40
0.7183615307
 40
0.7311475566
 40
0.7566938971
 40
0.7823973344
 40
0.8084726482
 40
0.8351256298
 40
0.8625490684
 40
0.8766082768
 40
0.8909250523
 40
0.9055188536
 40
0.9129256969
 40
0.920408594
 40
0.9279696743
 40
0.9317802122
 40
0.9336844261
 40
0.9355360473
 40
0.9392246215
 40
0.9428938474
 40
0.9501751674
 40
0.9573820565
 40
0.9645165659
 40
0.9785764129
 40
0.9923729091
 40
1.0
 40
1.0
 40
1.0
 40
1.0
 10
0.8426465335
 20
24.7496907756
 30
0.0
 10
0.836462113
 20
24.7870189728
 30
0.0
 10
0.8241707086
 20
24.8501577385
 30
0.0
 10
0.8049701812
 20
24.9246254109
 30
0.0
 10
0.7899631964
 20
24.973612695
 30
0.0
 10
0.7781578651
 20
25.0082230327
 30
0.0
 10
0.7676206242
 20
25.0360196377
 30
0.0
 10
0.7588106778
 20
25.0574861811
 30
0.0
 10
0.7498281064
 20
25.0782539231
 30
0.0
 10
0.7382167886
 20
25.1036804809
 30
0.0
 10
0.7187765671
 20
25.143208392
 30
0.0
 10
0.6927701428
 20
25.19075016
 30
0.0
 10
0.6586394056
 20
25.2449919517
 30
0.0
 10
0.621765304
 20
25.2960960902
 30
0.0
 10
0.5821479098
 20
25.3440577029
 30
0.0
 10
0.5397873628
 20
25.3888735954
 30
0.0
 10
0.4946873685
 20
25.4305400165
 30
0.0
 10
0.4548564049
 20
25.4626042443
 30
0.0
 10
0.4216944257
 20
25.4866431738
 30
0.0
 10
0.3961618212
 20
25.5038594679
 30
0.0
 10
0.3701482186
 20
25.5202271262
 30
0.0
 10
0.3351183624
 20
25.5408160075
 30
0.0
 10
0.2905296342
 20
25.5642980962
 30
0.0
 10
0.2356785202
 20
25.5888638721
 30
0.0
 10
0.1796471318
 20
25.6097271791
 30
0.0
 10
0.1319973445
 20
25.6240189799
 30
0.0
 10
0.0933592177
 20
25.6335882965
 30
0.0
 10
0.0640668706
 20
25.6398475341
 30
0.0
 10
0.0344818717
 20
25.6451834918
 30
0.0
 10
0.0046041182
 20
25.6495963607
 30
0.0
 10
-0.0204982381
 20
25.6524998867
 30
0.0
 10
-0.0407180587
 20
25.6543627752
 30
0.0
 10
-0.0559807683
 20
25.6555316329
 30
0.0
 10
-0.071316634
 20
25.6564698952
 30
0.0
 10
-0.0841443471
 20
25.6570590195
 30
0.0
 10
-0.0944421262
 20
25.6574153572
 30
0.0
 10
-0.1021917751
 20
25.6576252517
 30
0.0
 10
-0.1086614696
 20
25.6577520623
 30
0.0
 10
-0.1138462581
 20
25.6578247395
 30
0.0
 10
-0.1170914485
 20
25.6578581714
 30
0.0
 10
-0.119689874
 20
25.6578777187
 30
0.0
 10
-0.1216403939
 20
25.6578887813
 30
0.0
 10
-0.1232665449
 20
25.6578949974
 30
0.0
 10
-0.124568036
 20
25.6578981702
 30
0.0
 10
-0.125381765
 20
25.6578994026
 30
0.0
 10
-0.126032891
 20
25.6578999391
 30
0.0
 10
-0.1267914948
 20
25.657900211
 30
0.0
 10
-0.1278379466
 20
25.6578997371
 30
0.0
 10
-0.1291719631
 20
25.6578976117
 30
0.0
 10
-0.1309729771
 20
25.6578926148
 30
0.0
 10
-0.1332223079
 20
25.6578823986
 30
0.0
 10
-0.1368160854
 20
25.65785758
 30
0.0
 10
-0.1413005827
 20
25.6578106819
 30
0.0
 10
-0.148455295
 20
25.657701799
 30
0.0
 10
-0.1573679614
 20
25.657502293
 30
0.0
 10
-0.1680253721
 20
25.6571608385
 30
0.0
 10
-0.1821391529
 20
25.6565711066
 30
0.0
 10
-0.1996600545
 20
25.6555809635
 30
0.0
 10
-0.2205307827
 20
25.6539830341
 30
0.0
 10
-0.2479918906
 20
25.6513193471
 30
0.0
 10
-0.2818474392
 20
25.646979947
 30
0.0
 10
-0.3218293196
 20
25.6401217638
 30
0.0
 10
-0.3738302793
 20
25.628857051
 30
0.0
 10
-0.4370762292
 20
25.6106887868
 30
0.0
 10
-0.5101221623
 20
25.5822137254
 30
0.0
 10
-0.5799680572
 20
25.5471649783
 30
0.0
 10
-0.6465926454
 20
25.5055542662
 30
0.0
 10
-0.6991631916
 20
25.465612787
 30
0.0
 10
-0.7395125202
 20
25.4305490824
 30
0.0
 10
-0.7691074995
 20
25.402500629
 30
0.0
 10
-0.7977200457
 20
25.3730568099
 30
0.0
 10
-0.8250078767
 20
25.3423263465
 30
0.0
 10
-0.8507551538
 20
25.3105108436
 30
0.0
 10
-0.8829714355
 20
25.2667190653
 30
0.0
 10
-0.9194319935
 20
25.2091623605
 30
0.0
 10
-0.9568354063
 20
25.1359014563
 30
0.0
 10
-0.9878903284
 20
25.0584651055
 30
0.0
 10
-1.0125969628
 20
24.9768756762
 30
0.0
 10
-1.0277774172
 20
24.9060174718
 30
0.0
 10
-1.0368217552
 20
24.8474232437
 30
0.0
 10
-1.0420880283
 20
24.8020693407
 30
0.0
 10
-1.0451493992
 20
24.7636015537
 30
0.0
 10
-1.0468230808
 20
24.7323240087
 30
0.0
 10
-1.0476914572
 20
24.7084886287
 30
0.0
 10
-1.0480864928
 20
24.6884619697
 30
0.0
 10
-1.0481920974
 20
24.6743590083
 30
0.0
 10
-1.0482037878
 20
24.666321063
 30
0.0
 10
-1.0481836049
 20
24.6584127053
 30
0.0
 10
-1.0480998865
 20
24.6486295627
 30
0.0
 10
-1.0478410076
 20
24.6330801084
 30
0.0
 10
-1.0472839427
 20
24.6137981518
 30
0.0
 10
-1.0462372642
 20
24.5908505749
 30
0.0
 10
-1.0443490346
 20
24.5607372112
 30
0.0
 10
-1.0410603184
 20
24.5237031474
 30
0.0
 10
-1.036369812
 20
24.4862920844
 30
0.0
 10
-1.0328765126
 20
24.4638014715
 30
0.0
 10
-1.0315465885
 20
24.4558085071
 30
0.0
  0
SPLINE
  5
354
100
AcDbEntity
  8
0
100
AcDbSpline
 62
7
  6
CONTINUOUS
 70
0
 71
3
 72
77
 73
73
 74
0
 42
0.0000001
 43
0.0000001
 44
0.0000000001
 40
0.0
 40
0.0
 40
0.0
 40
0.0
 40
0.0091212801
 40
0.0498329872
 40
0.0894221518
 40
0.1663113313
 40
0.2043079956
 40
0.2233295612
 40
0.2424167608
 40
0.261609267
 40
0.2712272202
 40
0.2807703436
 40
0.2996319682
 40
0.3182222527
 40
0.3547151725
 40
0.3905402071
 40
0.4259962557
 40
0.4613915666
 40
0.4970359639
 40
0.5150514487
 40
0.5332419481
 40
0.5424145836
 40
0.5516442699
 40
0.560935282
 40
0.5702918108
 40
0.5797179602
 40
0.5844584619
 40
0.5892178659
 40
0.5916048163
 40
0.592800129
 40
0.5939966762
 40
0.5951944654
 40
0.5963935039
 40
0.5969934941
 40
0.5972936074
 40
0.5974350917
 40
0.5975249696
 40
0.5977047091
 40
0.5978844267
 40
0.5982437968
 40
0.59860308
 40
0.5989622767
 40
0.5996804114
 40
0.6011156526
 40
0.6025495373
 40
0.6039820821
 40
0.6068432132
 40
0.6096991821
 40
0.6125501219
 40
0.6153961659
 40
0.6210740709
 40
0.6267340128
 40
0.6323770842
 40
0.6380043873
 40
0.6492158632
 40
0.6603777122
 40
0.6714990497
 40
0.6825890911
 40
0.6936571298
 40
0.7157622798
 40
0.7378918891
 40
0.760120768
 40
0.7825227325
 40
0.7938123456
 40
0.8051647296
 40
0.8164608611
 40
0.8276616082
 40
0.8498034655
 40
0.8716503652
 40
0.9146882451
 40
0.9572973084
 40
1.0
 40
1.0
 40
1.0
 40
1.0
 10
-1.0315465885
 20
24.4558085071
 30
0.0
 10
-1.0305134963
 20
24.4495995296
 30
0.0
 10
-1.0245849423
 20
24.4157237101
 30
0.0
 10
-1.0110972963
 20
24.3554317486
 30
0.0
 10
-0.9787474589
 20
24.2518087259
 30
0.0
 10
-0.9337629697
 20
24.1544184745
 30
0.0
 10
-0.8836655093
 20
24.0766415431
 30
0.0
 10
-0.8522437022
 20
24.0345414673
 30
0.0
 10
-0.8271587283
 20
24.0039599396
 30
0.0
 10
-0.8050483593
 20
23.9793771889
 30
0.0
 10
-0.7867056508
 20
23.9602972292
 30
0.0
 10
-0.7681570363
 20
23.9417391759
 30
0.0
 10
-0.7445366337
 20
23.9195050087
 30
0.0
 10
-0.7059451962
 20
23.8861074216
 30
0.0
 10
-0.6559044679
 20
23.848133177
 30
0.0
 10
-0.5927677058
 20
23.80864224
 30
0.0
 10
-0.5269106544
 20
23.7755153177
 30
0.0
 10
-0.4583527916
 20
23.7487653699
 30
0.0
 10
-0.3991766596
 20
23.7318485586
 30
0.0
 10
-0.3506757143
 20
23.7215008717
 30
0.0
 10
-0.319778604
 20
23.7163430924
 30
0.0
 10
-0.2947483884
 20
23.7130044614
 30
0.0
 10
-0.2757549052
 20
23.7108885784
 30
0.0
 10
-0.2565942732
 20
23.7091680231
 30
0.0
 10
-0.2372664013
 20
23.7078427424
 30
0.0
 10
-0.2210517399
 20
23.7070692324
 30
0.0
 10
-0.2079987265
 20
23.7066469574
 30
0.0
 10
-0.199798223
 20
23.7064650296
 30
0.0
 10
-0.1940427661
 20
23.7063808138
 30
0.0
 10
-0.1907454051
 20
23.7063449704
 30
0.0
 10
-0.1882685011
 20
23.7063242478
 30
0.0
 10
-0.1857889823
 20
23.7063096986
 30
0.0
 10
-0.1837210788
 20
23.7063027215
 30
0.0
 10
-0.182272596
 20
23.7063005355
 30
0.0
 10
-0.1815538627
 20
23.7063001221
 30
0.0
 10
-0.1811871254
 20
23.7063000768
 30
0.0
 10
-0.1809034504
 20
23.7063001145
 30
0.0
 10
-0.1805933929
 20
23.7063002544
 30
0.0
 10
-0.1800973762
 20
23.7063006863
 30
0.0
 10
-0.1794774683
 20
23.7063016172
 30
0.0
 10
-0.1787337147
 20
23.7063033601
 30
0.0
 10
-0.1777424034
 20
23.7063065178
 30
0.0
 10
-0.1760086537
 20
23.7063142309
 30
0.0
 10
-0.1735333691
 20
23.7063315034
 30
0.0
 10
-0.1705652137
 20
23.7063622461
 30
0.0
 10
-0.1666133563
 20
23.7064165592
 30
0.0
 10
-0.161680675
 20
23.7065094448
 30
0.0
 10
-0.1557703157
 20
23.7066610036
 30
0.0
 10
-0.1498715304
 20
23.7068526074
 30
0.0
 10
-0.142028464
 20
23.7071612141
 30
0.0
 10
-0.1322527812
 20
23.7076468743
 30
0.0
 10
-0.1205585791
 20
23.7083903501
 30
0.0
 10
-0.1089106473
 20
23.7092940335
 30
0.0
 10
-0.0934617614
 20
23.710710711
 30
0.0
 10
-0.0742597906
 20
23.7128812856
 30
0.0
 10
-0.0513736715
 20
23.716130492
 30
0.0
 10
-0.0286727274
 20
23.7200209211
 30
0.0
 10
-0.0061568839
 20
23.7245526757
 30
0.0
 10
0.0236018463
 20
23.7314462834
 30
0.0
 10
0.0603895744
 20
23.7416795951
 30
0.0
 10
0.1038059678
 20
23.7565356747
 30
0.0
 10
0.1464773404
 20
23.7739615929
 30
0.0
 10
0.1813253004
 20
23.7905842758
 30
0.0
 10
0.2087965464
 20
23.8051318512
 30
0.0
 10
0.2291769281
 20
23.8166731908
 30
0.0
 10
0.2492142213
 20
23.8286806066
 30
0.0
 10
0.2752368559
 20
23.8451657049
 30
0.0
 10
0.3066299383
 20
23.8667582354
 30
0.0
 10
0.3542863972
 20
23.9033313925
 30
0.0
 10
0.4094606711
 20
23.9531473377
 30
0.0
 10
0.4683518897
 20
24.0195258479
 30
0.0
 10
0.5023561287
 20
24.0677543531
 30
0.0
 10
0.518
 20
24.0927251029
 30
0.0
  0
SPLINE
  5
355
100
AcDbEntity
  8
0
100
AcDbSpline
 62
7
  6
CONTINUOUS
 70
0
 71
3
 72
127
 73
123
 74
0
 42
0.0000001
 43
0.0000001
 44
0.0000000001
 40
0.0
 40
0.0
 40
0.0
 40
0.0
 40
0.032295734
 40
0.066726493
 40
0.0991246725
 40
0.1296971916
 40
0.1586900844
 40
0.1726875553
 40
0.1864018292
 40
0.1998748325
 40
0.2131357047
 40
0.2262064246
 40
0.2391103916
 40
0.2645097779
 40
0.289543634
 40
0.3144247453
 40
0.3393698065
 40
0.351937029
 40
0.3646003766
 40
0.3773855761
 40
0.3903176272
 40
0.3968466741
 40
0.4034214149
 40
0.4100447231
 40
0.4167194091
 40
0.4234482191
 40
0.4268338019
 40
0.4302339153
 40
0.4336488837
 40
0.4370790277
 40
0.4387998943
 40
0.440524673
 40
0.4422534026
 40
0.4431192617
 40
0.443986123
 40
0.4448539912
 40
0.4452883045
 40
0.4457228714
 40
0.44594025
 40
0.446143861
 40
0.4462076405
 40
0.4462714145
 40
0.4463989466
 40
0.4466539464
 40
0.4469088606
 40
0.4474184329
 40
0.4479276647
 40
0.4489451113
 40
0.4499612101
 40
0.4509759705
 40
0.4530015122
 40
0.4550218154
 40
0.4570369574
 40
0.4610520503
 40
0.4650474406
 40
0.4690237679
 40
0.476921672
 40
0.4847512227
 40
0.4925178588
 40
0.5002271523
 40
0.5078848002
 40
0.5230670259
 40
0.5381136885
 40
0.5530737986
 40
0.5679972198
 40
0.5829341828
 40
0.590424193
 40
0.5979356591
 40
0.6129194017
 40
0.6278430876
 40
0.6427601417
 40
0.6727746951
 40
0.7033957336
 40
0.7190642567
 40
0.7350296618
 40
0.7431380936
 40
0.7513238835
 40
0.7676536836
 40
0.7839133288
 40
0.8001406939
 40
0.8163738796
 40
0.8326509457
 40
0.8490096459
 40
0.8572318325
 40
0.8654883105
 40
0.8737836019
 40
0.8821221654
 40
0.8863091165
 40
0.8905085254
 40
0.8947209293
 40
0.896832179
 40
0.8989468766
 40
0.9010650877
 40
0.9031868777
 40
0.9053123116
 40
0.9063764163
 40
0.9074414563
 40
0.9079743296
 40
0.9085074398
 40
0.9090407877
 40
0.909174162
 40
0.9093075512
 40
0.9094570063
 40
0.9096599337
 40
0.9100656104
 40
0.91047105
 40
0.9112812194
 40
0.9120904448
 40
0.9128987294
 40
0.9145124871
 40
0.9161225175
 40
0.917728845
 40
0.9193314943
 40
0.9225258507
 40
0.9257057931
 40
0.9320231976
 40
0.9444937087
 40
0.9567572571
 40
0.9688283217
 40
0.9807220849
 40
0.9924544171
 40
1.0
 40
1.0
 40
1.0
 40
1.0
 10
-3.3033617255
 20
23.5693950282
 30
0.0
 10
-3.2970807528
 20
23.534537415
 30
0.0
 10
-3.2822584173
 20
23.462841749
 30
0.0
 10
-3.2536555785
 20
23.3578844034
 30
0.0
 10
-3.217892502
 20
23.257120861
 30
0.0
 10
-3.1762018914
 20
23.1651562127
 30
0.0
 10
-3.1360222936
 20
23.0950356684
 30
0.0
 10
-3.1009067066
 20
23.0436895841
 30
0.0
 10
-3.0734104727
 20
23.0078292867
 30
0.0
 10
-3.0444139997
 20
22.9742429025
 30
0.0
 10
-3.0146315079
 20
22.9423202645
 30
0.0
 10
-2.9839681416
 20
22.9121192752
 30
0.0
 10
-2.9421686738
 20
22.8743304519
 30
0.0
 10
-2.8876229107
 20
22.8311726167
 30
0.0
 10
-2.8183501306
 20
22.7859932737
 30
0.0
 10
-2.745605891
 20
22.7477005329
 30
0.0
 10
-2.6822460615
 20
22.7215979908
 30
0.0
 10
-2.6300333476
 20
22.7041954892
 30
0.0
 10
-2.5899127207
 20
22.6928209872
 30
0.0
 10
-2.5489360699
 20
22.6831597733
 30
0.0
 10
-2.514185556
 20
22.6765568071
 30
0.0
 10
-2.4859798424
 20
22.6721249531
 30
0.0
 10
-2.4645423259
 20
22.6692176027
 30
0.0
 10
-2.4428905525
 20
22.666737674
 30
0.0
 10
-2.421024445
 20
22.6646851214
 30
0.0
 10
-2.4026624193
 20
22.6633336293
 30
0.0
 10
-2.3878681367
 20
22.6624648714
 30
0.0
 10
-2.3766955649
 20
22.6619187473
 30
0.0
 10
-2.3654694014
 20
22.6614794349
 30
0.0
 10
-2.3560801434
 20
22.6612026608
 30
0.0
 10
-2.3485422256
 20
22.6610344704
 30
0.0
 10
-2.3428690234
 20
22.6609348866
 30
0.0
 10
-2.3381329132
 20
22.6608741859
 30
0.0
 10
-2.3343373584
 20
22.6608389529
 30
0.0
 10
-2.3314857018
 20
22.6608191881
 30
0.0
 10
-2.3291072215
 20
22.6608082831
 30
0.0
 10
-2.327202766
 20
22.6608028941
 30
0.0
 10
-2.3260116107
 20
22.6608009152
 30
0.0
 10
-2.325073435
 20
22.6608001798
 30
0.0
 10
-2.3245418527
 20
22.6608000597
 30
0.0
 10
-2.3241787083
 20
22.6608001145
 30
0.0
 10
-2.3238989897
 20
22.6608002104
 30
0.0
 10
-2.323409585
 20
22.660800517
 30
0.0
 10
-2.3227105825
 20
22.6608013524
 30
0.0
 10
-2.3215926484
 20
22.6608035364
 30
0.0
 10
-2.3201959356
 20
22.6608078551
 30
0.0
 10
-2.3179630712
 20
22.6608181537
 30
0.0
 10
-2.3151748046
 20
22.6608373786
 30
0.0
 10
-2.31183229
 20
22.660870629
 30
0.0
 10
-2.3073845411
 20
22.6609284887
 30
0.0
 10
-2.3018360657
 20
22.6610261967
 30
0.0
 10
-2.2951916165
 20
22.6611842154
 30
0.0
 10
-2.2863675735
 20
22.6614488296
 30
0.0
 10
-2.2753819811
 20
22.6618809684
 30
0.0
 10
-2.2622549711
 20
22.6625629769
 30
0.0
 10
-2.2448887912
 20
22.6636867704
 30
0.0
 10
-2.223355515
 20
22.6654961447
 30
0.0
 10
-2.1977453543
 20
22.6683238782
 30
0.0
 10
-2.1724241951
 20
22.6718031199
 30
0.0
 10
-2.1473919121
 20
22.6759339868
 30
0.0
 10
-2.1144980428
 20
22.6822916612
 30
0.0
 10
-2.0740469115
 20
22.6918664089
 30
0.0
 10
-2.0265256053
 20
22.7060021523
 30
0.0
 10
-1.9801615162
 20
22.7227516789
 30
0.0
 10
-1.934958236
 20
22.7421143736
 30
0.0
 10
-1.8982872627
 20
22.7604114102
 30
0.0
 10
-1.8695708406
 20
22.7763299112
 30
0.0
 10
-1.8412759197
 20
22.7930870757
 30
0.0
 10
-1.8069002789
 20
22.8155390597
 30
0.0
 10
-1.7674053245
 20
22.8448500342
 30
0.0
 10
-1.7171116785
 20
22.8870750329
 30
0.0
 10
-1.6585686472
 20
22.9459933477
 30
0.0
 10
-1.6068156175
 20
23.011983528
 30
0.0
 10
-1.5692365355
 20
23.0690073918
 30
0.0
 10
-1.5472185433
 20
23.1066427517
 30
0.0
 10
-1.5305345698
 20
23.1378395406
 30
0.0
 10
-1.5144582101
 20
23.1698017877
 30
0.0
 10
-1.4957881427
 20
23.210450335
 30
0.0
 10
-1.4758074326
 20
23.2601346134
 30
0.0
 10
-1.4582900744
 20
23.3106283709
 30
0.0
 10
-1.4432376286
 20
23.3619308716
 30
0.0
 10
-1.4306500069
 20
23.4140405192
 30
0.0
 10
-1.4222285523
 20
23.4580643027
 30
0.0
 10
-1.4167218531
 20
23.4936518792
 30
0.0
 10
-1.413199486
 20
23.5205915337
 30
0.0
 10
-1.4102922244
 20
23.5477325677
 30
0.0
 10
-1.4083847004
 20
23.5704863702
 30
0.0
 10
-1.4071651167
 20
23.5887861134
 30
0.0
 10
-1.4064028259
 20
23.6025807724
 30
0.0
 10
-1.4058960692
 20
23.6141091549
 30
0.0
 10
-1.4055673414
 20
23.6233565798
 30
0.0
 10
-1.4053590188
 20
23.6303102989
 30
0.0
 10
-1.4051891167
 20
23.6372766224
 30
0.0
 10
-1.4050576351
 20
23.6442555514
 30
0.0
 10
-1.4049801179
 20
23.6500793011
 30
0.0
 10
-1.4049372896
 20
23.654744544
 30
0.0
 10
-1.4049185186
 20
23.6576635717
 30
0.0
 10
-1.404908301
 20
23.6600003621
 30
0.0
 10
-1.4049030374
 20
23.6617541305
 30
0.0
 10
-1.4049008907
 20
23.663069827
 30
0.0
 10
-1.4049002099
 20
23.6639472034
 30
0.0
 10
-1.4049000114
 20
23.6644036154
 30
0.0
 10
-1.4048999756
 20
23.6649362972
 30
0.0
 10
-1.4049002666
 20
23.6657675606
 30
0.0
 10
-1.4049014539
 20
23.6668795281
 30
0.0
 10
-1.4049050571
 20
23.6686573748
 30
0.0
 10
-1.4049127534
 20
23.6708777316
 30
0.0
 10
-1.4049271038
 20
23.6735398102
 30
0.0
 10
-1.404953039
 20
23.6770830219
 30
0.0
 10
-1.4049982163
 20
23.6815042452
 30
0.0
 10
-1.4050729094
 20
23.6868002818
 30
0.0
 10
-1.4051680515
 20
23.6920838087
 30
0.0
 10
-1.4053219973
 20
23.699103826
 30
0.0
 10
-1.405565381
 20
23.7078478061
 30
0.0
 10
-1.406063193
 20
23.7217563555
 30
0.0
 10
-1.4072138064
 20
23.7458190117
 30
0.0
 10
-1.409669503
 20
23.7797871544
 30
0.0
 10
-1.4139392684
 20
23.8199278209
 30
0.0
 10
-1.4195192872
 20
23.8592693074
 30
0.0
 10
-1.4264097928
 20
23.8978113168
 30
0.0
 10
-1.4336695495
 20
23.931221442
 30
0.0
 10
-1.4388064376
 20
23.9517306843
 30
0.0
 10
-1.4409178055
 20
23.9597315272
 30
0.0
  0
SPLINE
  5
356
100
AcDbEntity
  8
0
100
AcDbSpline
 62
7
  6
CONTINUOUS
 70
0
 71
3
 72
80
 73
76
 74
0
 42
0.0000001
 43
0.0000001
 44
0.0000000001
 40
0.0
 40
0.0
 40
0.0
 40
0.0
 40
0.0066778479
 40
0.0256112786
 40
0.062955471
 40
0.0998173628
 40
0.1364507994
 40
0.1731143716
 40
0.1915422204
 40
0.2100739249
 40
0.2193889959
 40
0.2287403114
 40
0.2380576833
 40
0.247302313
 40
0.2655852826
 40
0.2836162388
 40
0.3190253301
 40
0.3537671884
 40
0.3880861847
 40
0.4222357691
 40
0.4393314344
 40
0.4564811448
 40
0.4737166777
 40
0.4910693394
 40
0.5085698073
 40
0.5173853056
 40
0.5262488965
 40
0.5351641778
 40
0.5441346854
 40
0.5486417896
 40
0.5531639962
 40
0.5577017285
 40
0.5622554054
 40
0.5645383593
 40
0.5668254545
 40
0.569116742
 40
0.5702639746
 40
0.5714122744
 40
0.5725616476
 40
0.5731367388
 40
0.5734243859
 40
0.5735540365
 40
0.5736363641
 40
0.5738010106
 40
0.5739656458
 40
0.5742948822
 40
0.5749532195
 40
0.5756113775
 40
0.5762693575
 40
0.5775847892
 40
0.5788995264
 40
0.5802135807
 40
0.582839684
 40
0.5880841829
 40
0.5933190569
 40
0.5985450556
 40
0.6037629321
 40
0.608973443
 40
0.6193752196
 40
0.6297566875
 40
0.640123995
 40
0.6504833155
 40
0.671201203
 40
0.6919613812
 40
0.7128130349
 40
0.7338047054
 40
0.7549839718
 40
0.7763971624
 40
0.7871857899
 40
0.7979701703
 40
0.819546298
 40
0.8411922752
 40
0.8629760621
 40
0.9072060144
 40
1.0
 40
1.0
 40
1.0
 40
1.0
 10
-1.4409178055
 20
23.9597315272
 30
0.0
 10
-1.4420487766
 20
23.9640172428
 30
0.0
 10
-1.4464971978
 20
23.9804246976
 30
0.0
 10
-1.4584858446
 20
24.0204610996
 30
0.0
 10
-1.4797299968
 20
24.0785917507
 30
0.0
 10
-1.5106145034
 20
24.1454525787
 30
0.0
 10
-1.5467734916
 20
24.209096942
 30
0.0
 10
-1.5812483868
 20
24.2593685456
 30
0.0
 10
-1.6113572811
 20
24.2978689917
 30
0.0
 10
-1.6312681698
 20
24.3212666299
 30
0.0
 10
-1.6478347639
 20
24.3395738062
 30
0.0
 10
-1.6605786177
 20
24.3530868693
 30
0.0
 10
-1.673537995
 20
24.3663277514
 30
0.0
 10
-1.6909599123
 20
24.3834901434
 30
0.0
 10
-1.7130914639
 20
24.4041061486
 30
0.0
 10
-1.7491510742
 20
24.4351973471
 30
0.0
 10
-1.7957045623
 20
24.4707824697
 30
0.0
 10
-1.854149984
 20
24.5082402436
 30
0.0
 10
-1.9148381833
 20
24.5401916506
 30
0.0
 10
-1.9672677191
 20
24.5622171584
 30
0.0
 10
-2.0101870299
 20
24.5770378868
 30
0.0
 10
-2.0429464842
 20
24.5867877564
 30
0.0
 10
-2.0762586367
 20
24.5951651677
 30
0.0
 10
-2.1101234994
 20
24.6021706384
 30
0.0
 10
-2.1387351115
 20
24.6068538132
 30
0.0
 10
-2.1618835953
 20
24.6099177782
 30
0.0
 10
-2.1794265633
 20
24.611879046
 30
0.0
 10
-2.1971076205
 20
24.613497819
 30
0.0
 10
-2.2119331131
 20
24.6145596962
 30
0.0
 10
-2.2238606424
 20
24.6152387156
 30
0.0
 10
-2.2328553848
 20
24.6156632174
 30
0.0
 10
-2.2418846762
 20
24.6160021268
 30
0.0
 10
-2.2494311525
 20
24.6162130371
 30
0.0
 10
-2.2554853826
 20
24.6163390814
 30
0.0
 10
-2.2600387606
 20
24.6164123028
 30
0.0
 10
-2.2638386883
 20
24.6164554703
 30
0.0
 10
-2.2668829231
 20
24.6164793208
 30
0.0
 10
-2.2691693149
 20
24.616491868
 30
0.0
 10
-2.2710759945
 20
24.6164978647
 30
0.0
 10
-2.2724114554
 20
24.6164997244
 30
0.0
 10
-2.2730701155
 20
24.6165000637
 30
0.0
 10
-2.2734017226
 20
24.6165000955
 30
0.0
 10
-2.2736516928
 20
24.6165000621
 30
0.0
 10
-2.2739248828
 20
24.6164999495
 30
0.0
 10
-2.2743619488
 20
24.6164996083
 30
0.0
 10
-2.2751266827
 20
24.6164985877
 30
0.0
 10
-2.2762189712
 20
24.61649592
 30
0.0
 10
-2.277529444
 20
24.6164907826
 30
0.0
 10
-2.2792760225
 20
24.6164813527
 30
0.0
 10
-2.2814583455
 20
24.6164647273
 30
0.0
 10
-2.2840760297
 20
24.6164370304
 30
0.0
 10
-2.2875634498
 20
24.6163897881
 30
0.0
 10
-2.293658458
 20
24.6162800836
 30
0.0
 10
-2.3023537881
 20
24.6160459815
 30
0.0
 10
-2.3127700011
 20
24.6156410043
 30
0.0
 10
-2.3231629693
 20
24.6151121097
 30
0.0
 10
-2.3335327034
 20
24.6144592946
 30
0.0
 10
-2.3473194046
 20
24.6134243025
 30
0.0
 10
-2.3644989525
 20
24.6118209152
 30
0.0
 10
-2.3850336684
 20
24.6093998056
 30
0.0
 10
-2.4054755559
 20
24.6064827517
 30
0.0
 10
-2.4326060641
 20
24.6019324604
 30
0.0
 10
-2.4663202417
 20
24.5949974477
 30
0.0
 10
-2.506400758
 20
24.5846889013
 30
0.0
 10
-2.5461075894
 20
24.5723935341
 30
0.0
 10
-2.5854398286
 20
24.5581122262
 30
0.0
 10
-2.6243961057
 20
24.5418439574
 30
0.0
 10
-2.6564359184
 20
24.5266901897
 30
0.0
 10
-2.6817981775
 20
24.5136169993
 30
0.0
 10
-2.7068635962
 20
24.4997571412
 30
0.0
 10
-2.7374913058
 20
24.4810955497
 30
0.0
 10
-2.7730289198
 20
24.4565901723
 30
0.0
 10
-2.819033316
 20
24.4209248688
 30
0.0
 10
-2.8968397324
 20
24.3495556783
 30
0.0
 10
-2.9536560656
 20
24.2775593159
 30
0.0
 10
-2.9875
 20
24.2261032612
 30
0.0
  0
SPLINE
  5
357
100
AcDbEntity
  8
0
100
AcDbSpline
 62
7
  6
CONTINUOUS
 70
0
 71
3
 72
25
 73
21
 74
0
 42
0.0000001
 43
0.0000001
 44
0.0000000001
 40
0.0
 40
0.0
 40
0.0
 40
0.0
 40
0.0416072727
 40
0.0731537043
 40
0.1047516541
 40
0.1364234174
 40
0.1522942489
 40
0.1681918199
 40
0.1840712704
 40
0.1919144673
 40
0.199743837
 40
0.2309289369
 40
0.2927335085
 40
0.3539409121
 40
0.4147353357
 40
0.475304735
 40
0.5964815008
 40
0.7190340134
 40
0.9737049248
 40
1.0
 40
1.0
 40
1.0
 40
1.0
 10
-36.2032346697
 20
-2.5816081069
 30
0.0
 10
-36.2109682555
 20
-2.5857136658
 30
0.0
 10
-36.2244368923
 20
-2.5931715083
 30
0.0
 10
-36.2433813529
 20
-2.6044412213
 30
0.0
 10
-36.260251714
 20
-2.6150946175
 30
0.0
 10
-36.2740915143
 20
-2.6243580273
 30
0.0
 10
-36.2850376107
 20
-2.6319984598
 30
0.0
 10
-36.2931774455
 20
-2.6378507255
 30
0.0
 10
-36.2998986665
 20
-2.6427854047
 30
0.0
 10
-36.3051009839
 20
-2.6469104106
 30
0.0
 10
-36.3128146089
 20
-2.6530506891
 30
0.0
 10
-36.3291781719
 20
-2.6665540432
 30
0.0
 10
-36.353385124
 20
-2.6881813668
 30
0.0
 10
-36.3807888681
 20
-2.715498405
 30
0.0
 10
-36.4064679293
 20
-2.7440970354
 30
0.0
 10
-36.4384016577
 20
-2.7839307719
 30
0.0
 10
-36.4741746143
 20
-2.8372184869
 30
0.0
 10
-36.5226520489
 20
-2.9303909172
 30
0.0
 10
-36.5492259527
 20
-3.0118511188
 30
0.0
 10
-36.5617990129
 20
-3.0695879515
 30
0.0
 10
-36.5629243434
 20
-3.0749984329
 30
0.0
  0
SPLINE
  5
358
100
AcDbEntity
  8
0
100
AcDbSpline
 62
7
  6
CONTINUOUS
 70
0
 71
3
 72
80
 73
76
 74
0
 42
0.0000001
 43
0.0000001
 44
0.0000000001
 40
0.0
 40
0.0
 40
0.0
 40
0.0
 40
0.0345269195
 40
0.0833824824
 40
0.1078530989
 40
0.1323955717
 40
0.1447050222
 40
0.1570452669
 40
0.163228322
 40
0.1694623966
 40
0.1757069355
 40
0.1819372896
 40
0.2067273365
 40
0.231338806
 40
0.2558113383
 40
0.2801852511
 40
0.3287904481
 40
0.3774934753
 40
0.4266212962
 40
0.47649252
 40
0.5018073436
 40
0.5274207578
 40
0.5533679361
 40
0.5796827141
 40
0.6063975302
 40
0.6199151656
 40
0.6335443125
 40
0.6472886196
 40
0.6611516444
 40
0.668128816
 40
0.6751369594
 40
0.682176494
 40
0.6892478334
 40
0.6927955639
 40
0.6963513983
 40
0.6999153867
 40
0.7017004549
 40
0.7034875803
 40
0.7052767691
 40
0.7061721392
 40
0.7070680274
 40
0.7075161661
 40
0.7079644346
 40
0.7081886176
 40
0.708281406
 40
0.7084438909
 40
0.7085522107
 40
0.7089854628
 40
0.7094186712
 40
0.7098518361
 40
0.7102849576
 40
0.7111510709
 40
0.7128827813
 40
0.71461381
 40
0.7163441641
 40
0.7180738509
 40
0.7198028775
 40
0.7232589776
 40
0.7267125241
 40
0.7336121744
 40
0.740502309
 40
0.7473833963
 40
0.7542559064
 40
0.7611203109
 40
0.7679770834
 40
0.781669515
 40
0.7953371377
 40
0.8089837903
 40
0.8362286569
 40
0.8634360874
 40
0.8906372208
 40
0.9178632174
 40
0.9451451524
 40
0.9725139105
 40
1.0
 40
1.0
 40
1.0
 40
1.0
 10
-36.4142892229
 20
-4.9217120342
 30
0.0
 10
-36.428027844
 20
-4.9290413476
 30
0.0
 10
-36.4607401794
 20
-4.9476163958
 30
0.0
 10
-36.5014364411
 20
-4.9743299203
 30
0.0
 10
-36.536905935
 20
-5.0005967056
 30
0.0
 10
-36.5584969755
 20
-5.0178807349
 30
0.0
 10
-36.5754240965
 20
-5.032215687
 30
0.0
 10
-36.5858549515
 20
-5.0414073483
 30
0.0
 10
-36.5941516711
 20
-5.0488761464
 30
0.0
 10
-36.6002860284
 20
-5.0546363963
 30
0.0
 10
-36.6063602045
 20
-5.0604902404
 30
0.0
 10
-36.6183542933
 20
-5.0722574512
 30
0.0
 10
-36.6358259766
 20
-5.0902663379
 30
0.0
 10
-36.6580561434
 20
-5.1150833704
 30
0.0
 10
-36.6791461009
 20
-5.1406350853
 30
0.0
 10
-36.7057177185
 20
-5.1756430522
 30
0.0
 10
-36.7361721336
 20
-5.2213614982
 30
0.0
 10
-36.7681555708
 20
-5.27920821
 30
0.0
 10
-36.7955495672
 20
-5.3399892144
 30
0.0
 10
-36.814459544
 20
-5.3928208757
 30
0.0
 10
-36.8273020467
 20
-5.4364272991
 30
0.0
 10
-36.8358427565
 20
-5.4700297442
 30
0.0
 10
-36.84324259
 20
-5.504362213
 30
0.0
 10
-36.8495020359
 20
-5.5394250127
 30
0.0
 10
-36.8537511092
 20
-5.5691345498
 30
0.0
 10
-36.8565862708
 20
-5.5932551114
 30
0.0
 10
-36.8584363327
 20
-5.6116003715
 30
0.0
 10
-36.8600016001
 20
-5.6301283116
 30
0.0
 10
-36.8610663425
 20
-5.6456864823
 30
0.0
 10
-36.861776645
 20
-5.658223052
 30
0.0
 10
-36.8622393559
 20
-5.667691775
 30
0.0
 10
-36.8626308834
 20
-5.6772061934
 30
0.0
 10
-36.8628975346
 20
-5.6851639219
 30
0.0
 10
-36.8630753835
 20
-5.6915528003
 30
0.0
 10
-36.8631911264
 20
-5.6963613261
 30
0.0
 10
-36.8632727028
 20
-5.7003756453
 30
0.0
 10
-36.8633290815
 20
-5.7035927952
 30
0.0
 10
-36.8633669414
 20
-5.7060099008
 30
0.0
 10
-36.8633947747
 20
-5.7080259534
 30
0.0
 10
-36.8634148218
 20
-5.7096402215
 30
0.0
 10
-36.8634264196
 20
-5.7106498798
 30
0.0
 10
-36.8634351576
 20
-5.7114579628
 30
0.0
 10
-36.8634403519
 20
-5.7119632011
 30
0.0
 10
-36.8634438494
 20
-5.7123082222
 30
0.0
 10
-36.8634458926
 20
-5.7125243972
 30
0.0
 10
-36.8634452811
 20
-5.7126883404
 30
0.0
 10
-36.8634453933
 20
-5.7130057927
 30
0.0
 10
-36.8634449911
 20
-5.7134453131
 30
0.0
 10
-36.8634443953
 20
-5.7140313024
 30
0.0
 10
-36.8634434374
 20
-5.7146172326
 30
0.0
 10
-36.8634417848
 20
-5.7153983548
 30
0.0
 10
-36.8634378391
 20
-5.7167649762
 30
0.0
 10
-36.8634292256
 20
-5.7187168005
 30
0.0
 10
-36.8634141138
 20
-5.7210582739
 30
0.0
 10
-36.8633942303
 20
-5.7233987991
 30
0.0
 10
-36.8633695744
 20
-5.7257383763
 30
0.0
 10
-36.8633303443
 20
-5.7288559604
 30
0.0
 10
-36.8632693821
 20
-5.7327505984
 30
0.0
 10
-36.8631464161
 20
-5.7389758896
 30
0.0
 10
-36.8629450305
 20
-5.7467482449
 30
0.0
 10
-36.8626269197
 20
-5.7560632339
 30
0.0
 10
-36.8622324473
 20
-5.7653630576
 30
0.0
 10
-36.8617616134
 20
-5.7746477095
 30
0.0
 10
-36.8612144172
 20
-5.7839171986
 30
0.0
 10
-36.860383438
 20
-5.7962499097
 30
0.0
 10
-36.8591539562
 20
-5.8116296856
 30
0.0
 10
-36.8573723064
 20
-5.830034106
 30
0.0
 10
-36.8545911419
 20
-5.8544775874
 30
0.0
 10
-36.8503500967
 20
-5.8848949267
 30
0.0
 10
-36.8440348601
 20
-5.9211730399
 30
0.0
 10
-36.8364964961
 20
-5.9572083939
 30
0.0
 10
-36.8277350719
 20
-5.993000544
 30
0.0
 10
-36.8177505856
 20
-6.0285495595
 30
0.0
 10
-36.8065433029
 20
-6.063854766
 30
0.0
 10
-36.7982769073
 20
-6.0871717398
 30
0.0
 10
-36.7939441345
 20
-6.0987829172
 30
0.0
  0
SPLINE
  5
359
100
AcDbEntity
  8
0
100
AcDbSpline
 62
7
  6
CONTINUOUS
 70
0
 71
3
 72
26
 73
22
 74
0
 42
0.0000001
 43
0.0000001
 44
0.0000000001
 40
0.0
 40
0.0
 40
0.0
 40
0.0
 40
0.000523643
 40
0.0015238631
 40
0.0052332555
 40
0.0112952781
 40
0.0197205646
 40
0.0305013057
 40
0.0436104285
 40
0.0590154477
 40
0.0766831196
 40
0.1186429959
 40
0.1690762096
 40
0.2275125985
 40
0.2933776147
 40
0.3660492139
 40
0.4448204217
 40
0.5289431422
 40
0.617589998
 40
0.8050502696
 40
1.0
 40
1.0
 40
1.0
 40
1.0
 10
-50.6159885716
 20
6.7100000873
 30
0.0
 10
-50.6179973204
 20
6.7100000873
 30
0.0
 10
-50.6227184149
 20
6.7050031253
 30
0.0
 10
-50.6293949855
 20
6.6867398081
 30
0.0
 10
-50.6379592809
 20
6.6455135884
 30
0.0
 10
-50.64689682
 20
6.5766701448
 30
0.0
 10
-50.6563358261
 20
6.4800132736
 30
0.0
 10
-50.6656775422
 20
6.3564633348
 30
0.0
 10
-50.6750236867
 20
6.2059868788
 30
0.0
 10
-50.6842579897
 20
6.0290755178
 30
0.0
 10
-50.6971447463
 20
5.7415260769
 30
0.0
 10
-50.7122962257
 20
5.3195884297
 30
0.0
 10
-50.7288575149
 20
4.7412243628
 30
0.0
 10
-50.7444106093
 20
4.0711022821
 30
0.0
 10
-50.7588106871
 20
3.3156289714
 30
0.0
 10
-50.7718779452
 20
2.4821147804
 30
0.0
 10
-50.7834901319
 20
1.578534627
 30
0.0
 10
-50.7935152867
 20
0.6136493538
 30
0.0
 10
-50.8048544207
 20
-0.7681840062
 30
0.0
 10
-50.8142143642
 20
-2.5751871134
 30
0.0
 10
-50.8166912456
 20
-4.0421525735
 30
0.0
 10
-50.8166912456
 20
-4.7899999127
 30
0.0
  0
SPLINE
  5
35A
100
AcDbEntity
  8
0
100
AcDbSpline
 62
7
  6
CONTINUOUS
 70
0
 71
3
 72
26
 73
22
 74
0
 42
0.0000001
 43
0.0000001
 44
0.0000000001
 40
0.0
 40
0.0
 40
0.0
 40
0.0
 40
0.000523643
 40
0.0015238631
 40
0.0052332555
 40
0.0112952781
 40
0.0197205646
 40
0.0305013057
 40
0.0436104285
 40
0.0590154477
 40
0.0766831196
 40
0.1186429959
 40
0.1690762096
 40
0.2275125985
 40
0.2933776147
 40
0.3660492139
 40
0.4448204217
 40
0.5289431422
 40
0.617589998
 40
0.8050502696
 40
1.0
 40
1.0
 40
1.0
 40
1.0
 10
11.5
 20
-45.9059884843
 30
0.0
 10
11.5
 20
-45.9079972332
 30
0.0
 10
11.495003038
 20
-45.9127183277
 30
0.0
 10
11.4767397208
 20
-45.9193948983
 30
0.0
 10
11.4355135011
 20
-45.9279591937
 30
0.0
 10
11.3666700575
 20
-45.9368967327
 30
0.0
 10
11.2700131863
 20
-45.9463357388
 30
0.0
 10
11.1464632475
 20
-45.9556774549
 30
0.0
 10
10.9959867915
 20
-45.9650235994
 30
0.0
 10
10.8190754306
 20
-45.9742579024
 30
0.0
 10
10.5315259896
 20
-45.987144659
 30
0.0
 10
10.1095883425
 20
-46.0022961384
 30
0.0
 10
9.5312242756
 20
-46.0188574276
 30
0.0
 10
8.8611021948
 20
-46.034410522
 30
0.0
 10
8.1056288841
 20
-46.0488105999
 30
0.0
 10
7.2721146931
 20
-46.0618778579
 30
0.0
 10
6.3685345397
 20
-46.0734900447
 30
0.0
 10
5.4036492665
 20
-46.0835151995
 30
0.0
 10
4.0218159066
 20
-46.0948543335
 30
0.0
 10
2.2148127993
 20
-46.1042142769
 30
0.0
 10
0.7478473392
 20
-46.1066911583
 30
0.0
 10
-0.0
 20
-46.1066911583
 30
0.0
  0
SPLINE
  5
35B
100
AcDbEntity
  8
0
100
AcDbSpline
 62
7
  6
CONTINUOUS
 70
0
 71
3
 72
26
 73
22
 74
0
 42
0.0000001
 43
0.0000001
 44
0.0000000001
 40
0.0
 40
0.0
 40
0.0
 40
0.0
 40
0.1949497304
 40
0.382410002
 40
0.4710568578
 40
0.5551795783
 40
0.6339507861
 40
0.7066223853
 40
0.7724874015
 40
0.8309237904
 40
0.8813570041
 40
0.9233168804
 40
0.9409845523
 40
0.9563895715
 40
0.9694986943
 40
0.9802794354
 40
0.9887047219
 40
0.9947667445
 40
0.9984761369
 40
0.999476357
 40
1.0
 40
1.0
 40
1.0
 40
1.0
 10
-0.0
 20
-46.1066911583
 30
0.0
 10
-0.7478473392
 20
-46.1066911583
 30
0.0
 10
-2.2148127993
 20
-46.1042142769
 30
0.0
 10
-4.0218159066
 20
-46.0948543335
 30
0.0
 10
-5.4036492665
 20
-46.0835151995
 30
0.0
 10
-6.3685345397
 20
-46.0734900447
 30
0.0
 10
-7.2721146931
 20
-46.0618778579
 30
0.0
 10
-8.1056288841
 20
-46.0488105999
 30
0.0
 10
-8.8611021948
 20
-46.034410522
 30
0.0
 10
-9.5312242756
 20
-46.0188574276
 30
0.0
 10
-10.1095883425
 20
-46.0022961384
 30
0.0
 10
-10.5315259896
 20
-45.987144659
 30
0.0
 10
-10.8190754306
 20
-45.9742579024
 30
0.0
 10
-10.9959867915
 20
-45.9650235994
 30
0.0
 10
-11.1464632475
 20
-45.9556774549
 30
0.0
 10
-11.2700131863
 20
-45.9463357388
 30
0.0
 10
-11.3666700575
 20
-45.9368967327
 30
0.0
 10
-11.4355135011
 20
-45.9279591937
 30
0.0
 10
-11.4767397208
 20
-45.9193948983
 30
0.0
 10
-11.495003038
 20
-45.9127183277
 30
0.0
 10
-11.5
 20
-45.9079972332
 30
0.0
 10
-11.5
 20
-45.9059884843
 30
0.0
  0
SPLINE
  5
35C
100
AcDbEntity
  8
0
100
AcDbSpline
 62
7
  6
CONTINUOUS
 70
0
 71
3
 72
9
 73
5
 74
0
 42
0.0000001
 43
0.0000001
 44
0.0000000001
 40
0.0
 40
0.0
 40
0.0
 40
0.0
 40
0.5258938021
 40
1.0
 40
1.0
 40
1.0
 40
1.0
 10
-50.0
 20
-34.1899999127
 30
0.0
 10
-50.1163380042
 20
-34.2669074884
 30
0.0
 10
-50.3029554817
 20
-34.4737825392
 30
0.0
 10
-50.3704879778
 20
-34.7409067186
 30
0.0
 10
-50.3730280729
 20
-34.8666083715
 30
0.0
  0
SPLINE
  5
35D
100
AcDbEntity
  8
0
100
AcDbSpline
 62
250
  6
CONTINUOUS
 70
0
 71
3
 72
19
 73
15
 74
0
 42
0.0000001
 43
0.0000001
 44
0.0000000001
 40
0.0
 40
0.0
 40
0.0
 40
0.0
 40
0.0043514427
 40
0.0182045257
 40
0.0415610171
 40
0.0741919785
 40
0.1158257776
 40
0.1660749058
 40
0.2244320034
 40
0.2903421736
 40
0.442162776
 40
0.6156230532
 40
0.8040348402
 40
1.0
 40
1.0
 40
1.0
 40
1.0
 10
-50.4499217485
 20
-34.9093958487
 30
0.0
 10
-50.451222555
 20
-34.9101009326
 30
0.0
 10
-50.4522460094
 20
-34.8993149856
 30
0.0
 10
-50.4538894122
 20
-34.8899461777
 30
0.0
 10
-50.4553465819
 20
-34.8635325211
 30
0.0
 10
-50.4569902668
 20
-34.8315751818
 30
0.0
 10
-50.4585196373
 20
-34.7888019993
 30
0.0
 10
-50.4600038882
 20
-34.737901765
 30
0.0
 10
-50.4613920685
 20
-34.6785226898
 30
0.0
 10
-50.463194359
 20
-34.5846849389
 30
0.0
 10
-50.4650546033
 20
-34.4516684762
 30
0.0
 10
-50.4666495804
 20
-34.2770107865
 30
0.0
 10
-50.467633579
 20
-34.0873317282
 30
0.0
 10
-50.4679012415
 20
-33.9566333621
 30
0.0
 10
-50.4678629402
 20
-33.8899999127
 30
0.0
  0
SPLINE
  5
35E
100
AcDbEntity
  8
0
100
AcDbSpline
 62
250
  6
CONTINUOUS
 70
0
 71
3
 72
19
 73
15
 74
0
 42
0.0000001
 43
0.0000001
 44
0.0000000001
 40
0.0
 40
0.0
 40
0.0
 40
0.0
 40
0.1959649926
 40
0.3843763474
 40
0.5578363477
 40
0.7096569038
 40
0.7755672153
 40
0.8339244473
 40
0.8841737661
 40
0.9258076609
 40
0.9584388112
 40
0.9817955569
 40
0.9956488006
 40
1.0
 40
1.0
 40
1.0
 40
1.0
 10
-50.4678629402
 20
-28.6899999127
 30
0.0
 10
-50.4679010404
 20
-28.6233665162
 30
0.0
 10
-50.4676335885
 20
-28.4926683469
 30
0.0
 10
-50.4666496263
 20
-28.3029895746
 30
0.0
 10
-50.4650545893
 20
-28.1283321331
 30
0.0
 10
-50.4631943704
 20
-27.9953157227
 30
0.0
 10
-50.4613920904
 20
-27.9014778911
 30
0.0
 10
-50.460003903
 20
-27.8420986468
 30
0.0
 10
-50.4585196912
 20
-27.7911982874
 30
0.0
 10
-50.4569901797
 20
-27.7484248828
 30
0.0
 10
-50.4553467231
 20
-27.7164675182
 30
0.0
 10
-50.4538890095
 20
-27.6900532788
 30
0.0
 10
-50.4522467456
 20
-27.6806850237
 30
0.0
 10
-50.4512223134
 20
-27.6698986207
 30
0.0
 10
-50.4499217485
 20
-27.6706039767
 30
0.0
  0
SPLINE
  5
35F
100
AcDbEntity
  8
0
100
AcDbSpline
 62
7
  6
CONTINUOUS
 70
0
 71
3
 72
26
 73
22
 74
0
 42
0.0000001
 43
0.0000001
 44
0.0000000001
 40
0.0
 40
0.0
 40
0.0
 40
0.0
 40
0.1949497304
 40
0.382410002
 40
0.4710568578
 40
0.5551795783
 40
0.6339507861
 40
0.7066223853
 40
0.7724874015
 40
0.8309237904
 40
0.8813570041
 40
0.9233168804
 40
0.9409845523
 40
0.9563895715
 40
0.9694986943
 40
0.9802794354
 40
0.9887047219
 40
0.9947667445
 40
0.9984761369
 40
0.999476357
 40
1.0
 40
1.0
 40
1.0
 40
1.0
 10
-50.8166912456
 20
-4.7899999127
 30
0.0
 10
-50.8166912456
 20
-5.5378472519
 30
0.0
 10
-50.8142143642
 20
-7.004812712
 30
0.0
 10
-50.8048544207
 20
-8.8118158193
 30
0.0
 10
-50.7935152867
 20
-10.1936491792
 30
0.0
 10
-50.7834901319
 20
-11.1585344525
 30
0.0
 10
-50.7718779452
 20
-12.0621146058
 30
0.0
 10
-50.7588106871
 20
-12.8956287968
 30
0.0
 10
-50.7444106093
 20
-13.6511021076
 30
0.0
 10
-50.7288575149
 20
-14.3212241883
 30
0.0
 10
-50.7122962257
 20
-14.8995882552
 30
0.0
 10
-50.6971447463
 20
-15.3215259023
 30
0.0
 10
-50.6842579897
 20
-15.6090753433
 30
0.0
 10
-50.6750236867
 20
-15.7859867043
 30
0.0
 10
-50.6656775422
 20
-15.9364631603
 30
0.0
 10
-50.6563358261
 20
-16.0600130991
 30
0.0
 10
-50.64689682
 20
-16.1566699702
 30
0.0
 10
-50.6379592809
 20
-16.2255134139
 30
0.0
 10
-50.6293949855
 20
-16.2667396335
 30
0.0
 10
-50.6227184149
 20
-16.2850029507
 30
0.0
 10
-50.6179973204
 20
-16.2899999127
 30
0.0
 10
-50.6159885716
 20
-16.2899999127
 30
0.0
  0
SPLINE
  5
360
100
AcDbEntity
  8
0
100
AcDbSpline
 62
7
  6
CONTINUOUS
 70
0
 71
3
 72
9
 73
5
 74
0
 42
0.0000001
 43
0.0000001
 44
0.0000000001
 40
0.0
 40
0.0
 40
0.0
 40
0.0
 40
0.4741065313
 40
1.0
 40
1.0
 40
1.0
 40
1.0
 10
-50.3730280729
 20
-27.713391454
 30
0.0
 10
-50.3704879768
 20
-27.8390931957
 30
0.0
 10
-50.3029554329
 20
-28.1062173841
 30
0.0
 10
-50.1163379313
 20
-28.3130923862
 30
0.0
 10
-50.0
 20
-28.3899999127
 30
0.0
  0
SPLINE
  5
361
100
AcDbEntity
  8
0
100
AcDbSpline
 62
7
  6
CONTINUOUS
 70
0
 71
3
 72
9
 73
5
 74
0
 42
0.0000001
 43
0.0000001
 44
0.0000000001
 40
0.0
 40
0.0
 40
0.0
 40
0.0
 40
0.5258938019
 40
1.0
 40
1.0
 40
1.0
 40
1.0
 10
-37.4
 20
35.7100000873
 30
0.0
 10
-37.4769075756
 20
35.8263380914
 30
0.0
 10
-37.6837826264
 20
36.012955569
 30
0.0
 10
-37.9509068058
 20
36.080488065
 30
0.0
 10
-38.0766084587
 20
36.0830281602
 30
0.0
  0
SPLINE
  5
362
100
AcDbEntity
  8
0
100
AcDbSpline
 62
250
  6
CONTINUOUS
 70
0
 71
3
 72
19
 73
15
 74
0
 42
0.0000001
 43
0.0000001
 44
0.0000000001
 40
0.0
 40
0.0
 40
0.0
 40
0.0
 40
0.0043509909
 40
0.0182042944
 40
0.0415609657
 40
0.0741919722
 40
0.1158257889
 40
0.1660750185
 40
0.2244322024
 40
0.2903424395
 40
0.4421630353
 40
0.6156232135
 40
0.8040348424
 40
1.0
 40
1.0
 40
1.0
 40
1.0
 10
-38.119395936
 20
36.1599218357
 30
0.0
 10
-38.1201017227
 20
36.1612220861
 30
0.0
 10
-38.1093137321
 20
36.1622458819
 30
0.0
 10
-38.0999473829
 20
36.1638894627
 30
0.0
 10
-38.0735321785
 20
36.1653468814
 30
0.0
 10
-38.0415753643
 20
36.1669903725
 30
0.0
 10
-37.9988018929
 20
36.1685196856
 30
0.0
 10
-37.9479016782
 20
36.1700039527
 30
0.0
 10
-37.8885224954
 20
36.1713921746
 30
0.0
 10
-37.7946847157
 20
36.1731944822
 30
0.0
 10
-37.6616682713
 20
36.1750546135
 30
0.0
 10
-37.4870106938
 20
36.1766497578
 30
0.0
 10
-37.2973317394
 20
36.177633829
 30
0.0
 10
-37.1666334425
 20
36.177900464
 30
0.0
 10
-37.1
 20
36.1778630275
 30
0.0
  0
SPLINE
  5
363
100
AcDbEntity
  8
0
100
AcDbSpline
 62
250
  6
CONTINUOUS
 70
0
 71
3
 72
19
 73
15
 74
0
 42
0.0000001
 43
0.0000001
 44
0.0000000001
 40
0.0
 40
0.0
 40
0.0
 40
0.0
 40
0.1959651279
 40
0.3843767823
 40
0.5578369431
 40
0.7096575298
 40
0.775567774
 40
0.8339249455
 40
0.8841741575
 40
0.925807975
 40
0.9584390286
 40
0.9817958133
 40
0.9956492033
 40
1.0
 40
1.0
 40
1.0
 40
1.0
 10
-31.9
 20
36.1778630275
 30
0.0
 10
-31.8333665646
 20
36.1779002971
 30
0.0
 10
-31.7026682637
 20
36.1776338575
 30
0.0
 10
-31.5129893075
 20
36.1766497725
 30
0.0
 10
-31.3383317234
 20
36.1750546027
 30
0.0
 10
-31.2053152782
 20
36.1731944826
 30
0.0
 10
-31.1114775014
 20
36.1713921752
 30
0.0
 10
-31.0520983186
 20
36.1700039501
 30
0.0
 10
-31.0011981266
 20
36.1685197155
 30
0.0
 10
-30.9584246006
 20
36.166990307
 30
0.0
 10
-30.9264678452
 20
36.1653469898
 30
0.0
 10
-30.9000522873
 20
36.1638891375
 30
0.0
 10
-30.8906863744
 20
36.1622464456
 30
0.0
 10
-30.8798980745
 20
36.1612219009
 30
0.0
 10
-30.880604064
 20
36.1599218357
 30
0.0
  0
SPLINE
  5
364
100
AcDbEntity
  8
0
100
AcDbSpline
 62
7
  6
CONTINUOUS
 70
0
 71
3
 72
9
 73
5
 74
0
 42
0.0000001
 43
0.0000001
 44
0.0000000001
 40
0.0
 40
0.0
 40
0.0
 40
0.0
 40
0.4741065313
 40
1.0
 40
1.0
 40
1.0
 40
1.0
 10
-30.9233915413
 20
36.0830281602
 30
0.0
 10
-31.049093283
 20
36.0804880641
 30
0.0
 10
-31.3162174714
 20
36.0129555201
 30
0.0
 10
-31.5230924735
 20
35.8263380186
 30
0.0
 10
-31.6
 20
35.7100000873
 30
0.0
  0
SPLINE
  5
365
100
AcDbEntity
  8
0
100
AcDbSpline
 62
7
  6
CONTINUOUS
 70
0
 71
3
 72
9
 73
5
 74
0
 42
0.0000001
 43
0.0000001
 44
0.0000000001
 40
0.0
 40
0.0
 40
0.0
 40
0.0
 40
0.5258938021
 40
1.0
 40
1.0
 40
1.0
 40
1.0
 10
50.0
 20
24.6100000873
 30
0.0
 10
50.1163380042
 20
24.6869076629
 30
0.0
 10
50.3029554817
 20
24.8937827138
 30
0.0
 10
50.3704879778
 20
25.1609068931
 30
0.0
 10
50.3730280729
 20
25.286608546
 30
0.0
  0
SPLINE
  5
366
100
AcDbEntity
  8
0
100
AcDbSpline
 62
250
  6
CONTINUOUS
 70
0
 71
3
 72
19
 73
15
 74
0
 42
0.0000001
 43
0.0000001
 44
0.0000000001
 40
0.0
 40
0.0
 40
0.0
 40
0.0
 40
0.0043509909
 40
0.0182042944
 40
0.0415609657
 40
0.0741919722
 40
0.1158257889
 40
0.1660750185
 40
0.2244322024
 40
0.2903424395
 40
0.4421630353
 40
0.6156232135
 40
0.8040348424
 40
1.0
 40
1.0
 40
1.0
 40
1.0
 10
50.4499217485
 20
25.3293960233
 30
0.0
 10
50.4512219988
 20
25.33010181
 30
0.0
 10
50.4522457946
 20
25.3193138194
 30
0.0
 10
50.4538893754
 20
25.3099474702
 30
0.0
 10
50.4553467942
 20
25.2835322657
 30
0.0
 10
50.4569902853
 20
25.2515754516
 30
0.0
 10
50.4585195983
 20
25.2088019801
 30
0.0
 10
50.4600038654
 20
25.1579017655
 30
0.0
 10
50.4613920873
 20
25.0985225827
 30
0.0
 10
50.4631943949
 20
25.004684803
 30
0.0
 10
50.4650545262
 20
24.8716683586
 30
0.0
 10
50.4666496705
 20
24.6970107811
 30
0.0
 10
50.4676337417
 20
24.5073318266
 30
0.0
 10
50.4679003768
 20
24.3766335298
 30
0.0
 10
50.4678629402
 20
24.3100000873
 30
0.0
  0
SPLINE
  5
367
100
AcDbEntity
  8
0
100
AcDbSpline
 62
250
  6
CONTINUOUS
 70
0
 71
3
 72
19
 73
15
 74
0
 42
0.0000001
 43
0.0000001
 44
0.0000000001
 40
0.0
 40
0.0
 40
0.0
 40
0.0
 40
0.1959651279
 40
0.3843767823
 40
0.5578369431
 40
0.7096575298
 40
0.775567774
 40
0.8339249455
 40
0.8841741575
 40
0.925807975
 40
0.9584390286
 40
0.9817958133
 40
0.9956492033
 40
1.0
 40
1.0
 40
1.0
 40
1.0
 10
50.4678629402
 20
19.1100000873
 30
0.0
 10
50.4679002098
 20
19.0433666519
 30
0.0
 10
50.4676337702
 20
18.9126683509
 30
0.0
 10
50.4666496852
 20
18.7229893948
 30
0.0
 10
50.4650545154
 20
18.5483318107
 30
0.0
 10
50.4631943954
 20
18.4153153655
 30
0.0
 10
50.4613920879
 20
18.3214775887
 30
0.0
 10
50.4600038628
 20
18.2620984059
 30
0.0
 10
50.4585196282
 20
18.2111982139
 30
0.0
 10
50.4569902197
 20
18.1684246879
 30
0.0
 10
50.4553469025
 20
18.1364679325
 30
0.0
 10
50.4538890502
 20
18.1100523745
 30
0.0
 10
50.4522463583
 20
18.1006864616
 30
0.0
 10
50.4512218136
 20
18.0898981618
 30
0.0
 10
50.4499217485
 20
18.0906041513
 30
0.0
  0
SPLINE
  5
368
100
AcDbEntity
  8
0
100
AcDbSpline
 62
7
  6
CONTINUOUS
 70
0
 71
3
 72
9
 73
5
 74
0
 42
0.0000001
 43
0.0000001
 44
0.0000000001
 40
0.0
 40
0.0
 40
0.0
 40
0.0
 40
0.4741065313
 40
1.0
 40
1.0
 40
1.0
 40
1.0
 10
50.3730280729
 20
18.1333916285
 30
0.0
 10
50.3704879768
 20
18.2590933703
 30
0.0
 10
50.3029554329
 20
18.5262175587
 30
0.0
 10
50.1163379313
 20
18.7330925608
 30
0.0
 10
50.0
 20
18.8100000873
 30
0.0
  0
SPLINE
  5
369
100
AcDbEntity
  8
0
100
AcDbSpline
 62
7
  6
CONTINUOUS
 70
0
 71
3
 72
9
 73
5
 74
0
 42
0.0000001
 43
0.0000001
 44
0.0000000001
 40
0.0
 40
0.0
 40
0.0
 40
0.0
 40
0.5258938018
 40
1.0
 40
1.0
 40
1.0
 40
1.0
 10
37.4
 20
-45.2899999127
 30
0.0
 10
37.4769075756
 20
-45.4063379168
 30
0.0
 10
37.6837826264
 20
-45.5929553944
 30
0.0
 10
37.9509068058
 20
-45.6604878905
 30
0.0
 10
38.0766084587
 20
-45.6630279856
 30
0.0
  0
SPLINE
  5
36A
100
AcDbEntity
  8
0
100
AcDbSpline
 62
250
  6
CONTINUOUS
 70
0
 71
3
 72
19
 73
15
 74
0
 42
0.0000001
 43
0.0000001
 44
0.0000000001
 40
0.0
 40
0.0
 40
0.0
 40
0.0
 40
0.0043509909
 40
0.0182042944
 40
0.0415609657
 40
0.0741919722
 40
0.1158257889
 40
0.1660750185
 40
0.2244322024
 40
0.2903424395
 40
0.4421630353
 40
0.6156232135
 40
0.8040348424
 40
1.0
 40
1.0
 40
1.0
 40
1.0
 10
38.119395936
 20
-45.7399216612
 30
0.0
 10
38.1201017227
 20
-45.7412219115
 30
0.0
 10
38.1093137321
 20
-45.7422457073
 30
0.0
 10
38.0999473829
 20
-45.7438892881
 30
0.0
 10
38.0735321785
 20
-45.7453467069
 30
0.0
 10
38.0415753643
 20
-45.746990198
 30
0.0
 10
37.9988018929
 20
-45.7485195111
 30
0.0
 10
37.9479016782
 20
-45.7500037781
 30
0.0
 10
37.8885224954
 20
-45.7513920001
 30
0.0
 10
37.7946847157
 20
-45.7531943076
 30
0.0
 10
37.6616682713
 20
-45.755054439
 30
0.0
 10
37.4870106938
 20
-45.7566495832
 30
0.0
 10
37.2973317394
 20
-45.7576336544
 30
0.0
 10
37.1666334425
 20
-45.7579002895
 30
0.0
 10
37.1
 20
-45.7578628529
 30
0.0
  0
SPLINE
  5
36B
100
AcDbEntity
  8
0
100
AcDbSpline
 62
250
  6
CONTINUOUS
 70
0
 71
3
 72
19
 73
15
 74
0
 42
0.0000001
 43
0.0000001
 44
0.0000000001
 40
0.0
 40
0.0
 40
0.0
 40
0.0
 40
0.1959651279
 40
0.3843767823
 40
0.5578369431
 40
0.7096575298
 40
0.775567774
 40
0.8339249455
 40
0.8841741575
 40
0.925807975
 40
0.9584390286
 40
0.9817958133
 40
0.9956492033
 40
1.0
 40
1.0
 40
1.0
 40
1.0
 10
31.9
 20
-45.7578628529
 30
0.0
 10
31.8333665646
 20
-45.7579001226
 30
0.0
 10
31.7026682637
 20
-45.7576336829
 30
0.0
 10
31.5129893075
 20
-45.756649598
 30
0.0
 10
31.3383317234
 20
-45.7550544281
 30
0.0
 10
31.2053152782
 20
-45.7531943081
 30
0.0
 10
31.1114775014
 20
-45.7513920006
 30
0.0
 10
31.0520983186
 20
-45.7500037755
 30
0.0
 10
31.0011981266
 20
-45.748519541
 30
0.0
 10
30.9584246006
 20
-45.7469901324
 30
0.0
 10
30.9264678452
 20
-45.7453468153
 30
0.0
 10
30.9000522873
 20
-45.743888963
 30
0.0
 10
30.8906863744
 20
-45.742246271
 30
0.0
 10
30.8798980745
 20
-45.7412217264
 30
0.0
 10
30.880604064
 20
-45.7399216612
 30
0.0
  0
SPLINE
  5
36C
100
AcDbEntity
  8
0
100
AcDbSpline
 62
7
  6
CONTINUOUS
 70
0
 71
3
 72
9
 73
5
 74
0
 42
0.0000001
 43
0.0000001
 44
0.0000000001
 40
0.0
 40
0.0
 40
0.0
 40
0.0
 40
0.4741065314
 40
1.0
 40
1.0
 40
1.0
 40
1.0
 10
30.9233915413
 20
-45.6630279856
 30
0.0
 10
31.049093283
 20
-45.6604878896
 30
0.0
 10
31.3162174715
 20
-45.5929553456
 30
0.0
 10
31.5230924735
 20
-45.406337844
 30
0.0
 10
31.6
 20
-45.2899999127
 30
0.0
  0
SPLINE
  5
36D
100
AcDbEntity
  8
0
100
AcDbSpline
 62
7
  6
CONTINUOUS
 70
0
 71
3
 72
26
 73
22
 74
0
 42
0.0000001
 43
0.0000001
 44
0.0000000001
 40
0.0
 40
0.0
 40
0.0
 40
0.0
 40
0.1949135457
 40
0.38234194
 40
0.4709756981
 40
0.5550878595
 40
0.6338514523
 40
0.7065187407
 40
0.7723830576
 40
0.830822617
 40
0.8812630497
 40
0.923234311
 40
0.9409092641
 40
0.9563225871
 40
0.9694410528
 40
0.9802321891
 40
0.988668865
 40
0.9947431764
 40
0.9984655846
 40
0.99947217
 40
1.0
 40
1.0
 40
1.0
 40
1.0
 10
50.8166912456
 20
-4.7899999127
 30
0.0
 10
50.8166912456
 20
-5.5377049157
 30
0.0
 10
50.814215279
 20
-7.0044023614
 30
0.0
 10
50.804858823
 20
-8.8110856176
 30
0.0
 10
50.7935239519
 20
-10.1926994501
 30
0.0
 10
50.7835024238
 20
-11.157460239
 30
0.0
 10
50.7718943367
 20
-12.0609499186
 30
0.0
 10
50.7588315509
 20
-12.8944118072
 30
0.0
 10
50.7444362245
 20
-13.6498745841
 30
0.0
 10
50.7288879803
 20
-14.3200307877
 30
0.0
 10
50.7123316081
 20
-14.8984758371
 30
0.0
 10
50.6971845102
 20
-15.3205109636
 30
0.0
 10
50.6843020397
 20
-15.6081628468
 30
0.0
 10
50.675069674
 20
-15.785169102
 30
0.0
 10
50.6657267466
 20
-15.9357531633
 30
0.0
 10
50.6563837538
 20
-16.0594211897
 30
0.0
 10
50.6469538127
 20
-16.1562121639
 30
0.0
 10
50.6379980453
 20
-16.2251894384
 30
0.0
 10
50.6294637147
 20
-16.2665532715
 30
0.0
 10
50.6227580072
 20
-16.2848950924
 30
0.0
 10
50.6180738256
 20
-16.2899641536
 30
0.0
 10
50.6160493312
 20
-16.289999384
 30
0.0
  0
SPLINE
  5
36E
100
AcDbEntity
  8
0
100
AcDbSpline
 62
7
  6
CONTINUOUS
 70
0
 71
3
 72
26
 73
22
 74
0
 42
0.0000001
 43
0.0000001
 44
0.0000000001
 40
0.0
 40
0.0
 40
0.0
 40
0.0
 40
0.00052783
 40
0.0015344154
 40
0.0052568236
 40
0.011331135
 40
0.0197678109
 40
0.0305589472
 40
0.0436774129
 40
0.0590907359
 40
0.076765689
 40
0.1187369503
 40
0.169177383
 40
0.2276169424
 40
0.2934812593
 40
0.3661485477
 40
0.4449121405
 40
0.5290243019
 40
0.61765806
 40
0.8050864543
 40
1.0
 40
1.0
 40
1.0
 40
1.0
 10
50.6160493312
 20
6.7099995586
 30
0.0
 10
50.6180738256
 20
6.7099643282
 30
0.0
 10
50.6227580072
 20
6.704895267
 30
0.0
 10
50.6294637147
 20
6.686553446
 30
0.0
 10
50.6379980453
 20
6.645189613
 30
0.0
 10
50.6469538127
 20
6.5762123384
 30
0.0
 10
50.6563837538
 20
6.4794213643
 30
0.0
 10
50.6657267466
 20
6.3557533379
 30
0.0
 10
50.675069674
 20
6.2051692765
 30
0.0
 10
50.6843020397
 20
6.0281630214
 30
0.0
 10
50.6971845102
 20
5.7405111382
 30
0.0
 10
50.7123316081
 20
5.3184760117
 30
0.0
 10
50.7288879803
 20
4.7400309623
 30
0.0
 10
50.7444362245
 20
4.0698747587
 30
0.0
 10
50.7588315509
 20
3.3144119818
 30
0.0
 10
50.7718943367
 20
2.4809500931
 30
0.0
 10
50.7835024238
 20
1.5774604135
 30
0.0
 10
50.7935239519
 20
0.6126996246
 30
0.0
 10
50.804858823
 20
-0.7689142079
 30
0.0
 10
50.814215279
 20
-2.575597464
 30
0.0
 10
50.8166912456
 20
-4.0422949097
 30
0.0
 10
50.8166912456
 20
-4.7899999127
 30
0.0
  0
ENDSEC
  0
SECTION
  2
OBJECTS
  0
DICTIONARY
  5
C
100
AcDbDictionary
280
0
281
1
  3
ACAD_GROUP
350
D
  3
ACAD_MLINESTYLE
350
17
  3
ACAD_LAYOUT
350
1A
  3
ACAD_PLOTSETTINGS
350
19
  3
ACAD_PLOTSTYLENAME
350
E
  0
DICTIONARY
  5
D
102
{ACAD_REACTORS
330
C
102
}
100
AcDbDictionary
280
0
281
1
  0
ACDBDICTIONARYWDFLT
  5
E
102
{ACAD_REACTORS
330
C
102
}
100
AcDbDictionary
281
1
  3
Normal
350
F
100
AcDbDictionaryWithDefault
340
F
  0
DICTIONARY
  5
17
102
{ACAD_REACTORS
330
C
102
}
100
AcDbDictionary
280
0
281
1
  3
Standard
350
18
  0
DICTIONARY
  5
19
102
{ACAD_REACTORS
330
C
102
}
100
AcDbDictionary
281
1
  0
DICTIONARY
  5
1A
102
{ACAD_REACTORS
330
C
102
}
100
AcDbDictionary
281
1
  3
Model
350
36F
  3
Layout1
350
370
  0
ACDBPLACEHOLDER
  5
F
102
{ACAD_REACTORS
330
E
102
}
  0
MLINESTYLE
  5
18
102
{ACAD_REACTORS
330
17
102
}
100
AcDbMlineStyle
  2
STANDARD
 70
0
  3

 62
256
 51
90.0
 52
90.0
 71
2
 49
0.5
 62
256
  6
BYLAYER
 49
-0.5
 62
256
  6
BYLAYER
  0
LAYOUT
  5
36F
102
{ACAD_REACTORS
330
1A
102
}
100
AcDbPlotSettings
  1

  2
none_device
  4
ISO_A4_(297.00_x_210.00_MM)
  6

 40
0.0
 41
0.0
 42
0.0
 43
0.0
 44
297.0
 45
210.0
 46
0.0
 47
0.0
 48
0.0
 49
0.0
140
0.0
141
0.0
142
1.0
143
1.0
 70
1024
 72
1
 73
0
 74
0
  7

 75
0
147
1.0
148
0.0
149
0.0
100
AcDbLayout
  1
Model
 70
0
 71
0
 10
0.0
 20
0.0
 11
297.0
 21
210.0
 12
0.0
 22
0.0
 32
0.0
 14
0.0
 24
0.0
 34
0.0
 15
0.0
 25
0.0
 35
0.0
146
0.0
 13
0.0
 23
0.0
 33
0.0
 16
1.0
 26
0.0
 36
0.0
 17
0.0
 27
1.0
 37
0.0
 76
0
330
21D
345
0
346
0
  0
LAYOUT
  5
370
102
{ACAD_REACTORS
330
1A
102
}
100
AcDbPlotSettings
  1

  2
none_device
  4
ISO_A4_(297.00_x_210.00_MM)
  6

 40
0.0
 41
0.0
 42
0.0
 43
0.0
 44
297.0
 45
210.0
 46
0.0
 47
0.0
 48
0.0
 49
0.0
140
0.0
141
0.0
142
1.0
143
1.0
 70
0
 72
1
 73
0
 74
0
  7

 75
0
147
1.0
148
0.0
149
0.0
100
AcDbLayout
  1
Layout1
 70
0
 71
1
 10
0.0
 20
0.0
 11
297.0
 21
210.0
 12
0.0
 22
0.0
 32
0.0
 14
0.0
 24
0.0
 34
0.0
 15
0.0
 25
0.0
 35
0.0
146
0.0
 13
0.0
 23
0.0
 33
0.0
 16
1.0
 26
0.0
 36
0.0
 17
0.0
 27
1.0
 37
0.0
 76
0
330
21E
345
0
346
0
  0
ENDSEC
  0
EOF
