  0
SECTION
  2
HEADER
  9
$ACADVER
  1
AC1024
  9
$DWGCODEPAGE
  3
ANSI_1252
  9
$EXTMAX
 10
297.0
 20
210.0
 30
0.0
  9
$EXTMIN
 10
0.0
 20
0.0
 30
0.0
  9
$LIMMIN
 10
0.0
 20
0.0
  9
$LIMMAX
 10
297.0
 20
210.0
  9
$VIEWCTR
 10
148.5
 20
105.0
  9
$VIEWSIZE
 40
210.0
  9
$CLAYER
  8
0
  9
$LTSCALE
 40
16.335
  9
$CELTYPE
  6
BYLAYER
  9
$DIMSCALE
 40
1.0
  9
$DIMASZ
 40
3.0
  9
$DIMEXO
 40
0.5
  9
$DIMDLI
 40
11.286
  9
$DIMEXE
 40
1.5
  9
$DIMCEN
 40
2.673
  9
$DIMLFAC
 40
1.0
  9
$DIMBLK
  1
_FILLED
  9
$DIMALT
 70
0
  9
$DIMALTF
 40
0.0393700787
  9
$DIMTXT
 40
3.0
  9
$DIMTOL
 70
1
  9
$DIMLIM
 70
0
  9
$DIMTFAC
 40
1.0
  9
$DIMTP
 40
0.01
  9
$DIMTM
 40
0.01
  9
$DIMGAP
 40
0.625
  9
$DIMDSEP
 70
44
  9
$AUNITS
 70
0
  9
$PDMODE
 70
3
  9
$PDSIZE
 40
3.0
  9
$HANDSEED
  5
3A6
  9
$TILEMODE
 70
1
  9
$MEASUREMENT
 70
1
  9
$INSUNITS
 70
4
  0
ENDSEC
  0
SECTION
  2
CLASSES
  0
CLASS
  1
ACDBDICTIONARYWDFLT
  2
AcDbDictionaryWithDefault
  3
AutoCAD 2000
 90
0
 91
1
280
0
281
0
  0
CLASS
  1
ACDBPLACEHOLDER
  2
AcDbPlaceHolder
  3
AutoCAD 2000
 90
0
 91
1
280
0
281
0
  0
CLASS
  1
LAYOUT
  2
AcDbLayout
  3
AutoCAD 2000
 90
0
 91
0
280
0
281
0
  0
ENDSEC
  0
SECTION
  2
TABLES
  0
TABLE
  2
VPORT
  5
8
100
AcDbSymbolTable
 70
2
  0
VPORT
  5
1F4
100
AcDbSymbolTableRecord
100
AcDbViewportTableRecord
  2
*ACTIVE
 70
0
 10
0.0
 20
0.0
 11
1.0
 21
1.0
 12
148.5
 22
105.0
 13
0.0
 23
0.0
 14
1.0
 24
1.0
 15
0.0
 25
0.0
 16
0.0
 26
0.0
 36
1.0
 17
0.0
 27
0.0
 37
0.0
 40
210.0
 41
1.4142857143
 42
50.0
 43
0.0
 44
0.0
 50
0.0
 51
0.0
 71
0
 72
100
 73
1
 74
1
 75
0
 76
0
 77
0
 78
0
  0
ENDTAB
  0
TABLE
  2
LTYPE
  5
5
100
AcDbSymbolTable
 70
6
  0
LTYPE
  5
14
100
AcDbSymbolTableRecord
100
AcDbLinetypeTableRecord
  2
BYBLOCK
 70
0
  3

 72
65
 73
0
 40
0.0
  0
LTYPE
  5
15
100
AcDbSymbolTableRecord
100
AcDbLinetypeTableRecord
  2
BYLAYER
 70
0
  3

 72
65
 73
0
 40
0.0
  0
LTYPE
  5
16
100
AcDbSymbolTableRecord
100
AcDbLinetypeTableRecord
  2
CONTINUOUS
 70
64
  3
Solid line
 72
65
 73
0
 40
0.0
  0
LTYPE
  5
1F5
100
AcDbSymbolTableRecord
100
AcDbLinetypeTableRecord
  2
CENTER
 70
64
  3
____ _ ____ _ ____ _ ____ _ ____ _ ____ _ ____
 72
65
 73
4
 40
0.6
 49
0.375
 74
0
 49
-0.075
 74
0
 49
0.075
 74
0
 49
-0.075
 74
0
  0
LTYPE
  5
1F6
100
AcDbSymbolTableRecord
100
AcDbLinetypeTableRecord
  2
HIDDEN
 70
64
  3
- - - - - - - - - - - - - - - - - - - -
 72
65
 73
2
 40
0.2
 49
0.1
 74
0
 49
-0.1
 74
0
  0
LTYPE
  5
1F7
100
AcDbSymbolTableRecord
100
AcDbLinetypeTableRecord
  2
PHANTOM
 70
64
  3
_____ _ _ _____ _ _ _____ _ _ _____
 72
65
 73
6
 40
0.8
 49
0.45
 74
0
 49
-0.05
 74
0
 49
0.1
 74
0
 49
-0.05
 74
0
 49
0.1
 74
0
 49
-0.05
 74
0
  0
LTYPE
  5
1F8
100
AcDbSymbolTableRecord
100
AcDbLinetypeTableRecord
  2
DOT
 70
64
  3
. . . . . . . . . . . . . . . . . . . .
 72
65
 73
2
 40
0.2
 49
0.1
 74
0
 49
-0.1
 74
0
  0
LTYPE
  5
1F9
100
AcDbSymbolTableRecord
100
AcDbLinetypeTableRecord
  2
DASHED
 70
64
  3
- - - - - - - - - - - - - - - - - - - -
 72
65
 73
2
 40
0.2
 49
0.1
 74
0
 49
-0.1
 74
0
  0
ENDTAB
  0
TABLE
  2
LAYER
  5
2
100
AcDbSymbolTable
 70
36
  0
LAYER
  5
10
100
AcDbSymbolTableRecord
100
AcDbLayerTableRecord
  2
0
 70
0
 62
7
  6
CONTINUOUS
370
-3
390
F
  0
LAYER
  5
1FA
100
AcDbSymbolTableRecord
100
AcDbLayerTableRecord
  2
DEFAULT_1
 70
0
 62
7
  6
CENTER
370
-3
390
F
  0
LAYER
  5
1FB
100
AcDbSymbolTableRecord
100
AcDbLayerTableRecord
  2
DEFAULT_2
 70
0
 62
7
  6
HIDDEN
370
-3
390
F
  0
LAYER
  5
1FC
100
AcDbSymbolTableRecord
100
AcDbLayerTableRecord
  2
DEFAULT_3
 70
0
 62
7
  6
PHANTOM
370
-3
390
F
  0
LAYER
  5
1FD
100
AcDbSymbolTableRecord
100
AcDbLayerTableRecord
  2
ASSI
 70
0
 62
7
  6
CONTINUOUS
370
-3
390
F
  0
LAYER
  5
1FE
100
AcDbSymbolTableRecord
100
AcDbLayerTableRecord
  2
COLOR5
 70
0
 62
7
  6
CONTINUOUS
370
-3
390
F
  0
LAYER
  5
1FF
100
AcDbSymbolTableRecord
100
AcDbLayerTableRecord
  2
COORDINATE
 70
0
 62
7
  6
CONTINUOUS
370
-3
390
F
  0
LAYER
  5
200
100
AcDbSymbolTableRecord
100
AcDbLayerTableRecord
  2
COORD_ORIGINE
 70
0
 62
7
  6
CONTINUOUS
370
-3
390
F
  0
LAYER
  5
201
100
AcDbSymbolTableRecord
100
AcDbLayerTableRecord
  2
COPY_GEOMETRY
 70
0
 62
7
  6
CONTINUOUS
370
-3
390
F
  0
LAYER
  5
202
100
AcDbSymbolTableRecord
100
AcDbLayerTableRecord
  2
CURVE
 70
0
 62
7
  6
CONTINUOUS
370
-3
390
F
  0
LAYER
  5
203
100
AcDbSymbolTableRecord
100
AcDbLayerTableRecord
  2
DRAFT
 70
0
 62
7
  6
CONTINUOUS
370
-3
390
F
  0
LAYER
  5
204
100
AcDbSymbolTableRecord
100
AcDbLayerTableRecord
  2
IGES_INCISIONI
 70
0
 62
7
  6
CONTINUOUS
370
-3
390
F
  0
LAYER
  5
205
100
AcDbSymbolTableRecord
100
AcDbLayerTableRecord
  2
INTF_1
 70
0
 62
7
  6
CONTINUOUS
370
-3
390
F
  0
LAYER
  5
206
100
AcDbSymbolTableRecord
100
AcDbLayerTableRecord
  2
INTF_7
 70
0
 62
7
  6
CONTINUOUS
370
-3
390
F
  0
LAYER
  5
207
100
AcDbSymbolTableRecord
100
AcDbLayerTableRecord
  2
MARCHI
 70
0
 62
7
  6
CONTINUOUS
370
-3
390
F
  0
LAYER
  5
208
100
AcDbSymbolTableRecord
100
AcDbLayerTableRecord
  2
NOTE
 70
0
 62
7
  6
CONTINUOUS
370
-3
390
F
  0
LAYER
  5
209
100
AcDbSymbolTableRecord
100
AcDbLayerTableRecord
  2
PIANI
 70
0
 62
7
  6
CONTINUOUS
370
-3
390
F
  0
LAYER
  5
20A
100
AcDbSymbolTableRecord
100
AcDbLayerTableRecord
  2
PIANI_ORIGINE
 70
0
 62
7
  6
CONTINUOUS
370
-3
390
F
  0
LAYER
  5
20B
100
AcDbSymbolTableRecord
100
AcDbLayerTableRecord
  2
PIANI_PATTERN
 70
0
 62
7
  6
CONTINUOUS
370
-3
390
F
  0
LAYER
  5
20C
100
AcDbSymbolTableRecord
100
AcDbLayerTableRecord
  2
PUNTI
 70
0
 62
7
  6
CONTINUOUS
370
-3
390
F
  0
LAYER
  5
20D
100
AcDbSymbolTableRecord
100
AcDbLayerTableRecord
  2
RACCORDO
 70
0
 62
7
  6
CONTINUOUS
370
-3
390
F
  0
LAYER
  5
20E
100
AcDbSymbolTableRecord
100
AcDbLayerTableRecord
  2
RGB__255__255__255__
 70
0
 62
7
  6
CONTINUOUS
370
-3
390
F
  0
LAYER
  5
20F
100
AcDbSymbolTableRecord
100
AcDbLayerTableRecord
  2
RGB____0____0____0__
 70
0
 62
7
  6
CONTINUOUS
370
-3
390
F
  0
LAYER
  5
210
100
AcDbSymbolTableRecord
100
AcDbLayerTableRecord
  2
SKELETON
 70
0
 62
7
  6
CONTINUOUS
370
-3
390
F
  0
LAYER
  5
211
100
AcDbSymbolTableRecord
100
AcDbLayerTableRecord
  2
SMUSSO
 70
0
 62
7
  6
CONTINUOUS
370
-3
390
F
  0
LAYER
  5
212
100
AcDbSymbolTableRecord
100
AcDbLayerTableRecord
  2
SNAPLINE
 70
0
 62
7
  6
CONTINUOUS
370
-3
390
F
  0
LAYER
  5
213
100
AcDbSymbolTableRecord
100
AcDbLayerTableRecord
  2
SUPERFICI
 70
0
 62
7
  6
CONTINUOUS
370
-3
390
F
  0
LAYER
  5
214
100
AcDbSymbolTableRecord
100
AcDbLayerTableRecord
  2
TRASH
 70
0
 62
7
  6
CONTINUOUS
370
-3
390
F
  0
LAYER
  5
215
100
AcDbSymbolTableRecord
100
AcDbLayerTableRecord
  2
XSEC_DATUMS
 70
0
 62
7
  6
CONTINUOUS
370
-3
390
F
  0
ENDTAB
  0
TABLE
  2
STYLE
  5
3
100
AcDbSymbolTable
 70
1
  0
STYLE
  5
11
100
AcDbSymbolTableRecord
100
AcDbTextStyleTableRecord
  2
STANDARD
 70
0
 40
0.0
 41
0.8
 50
0.0
 71
0
 42
0.2
  3
txt
  4

  0
STYLE
  5
216
100
AcDbSymbolTableRecord
100
AcDbTextStyleTableRecord
  2
TEXTSTYLE_1
 70
0
 40
0.0
 41
0.8
 50
0.0
 71
0
 42
0.2
  3
gdt
  4

  0
ENDTAB
  0
TABLE
  2
VIEW
  5
6
100
AcDbSymbolTable
 70
0
  0
ENDTAB
  0
TABLE
  2
UCS
  5
7
100
AcDbSymbolTable
 70
0
  0
ENDTAB
  0
TABLE
  2
APPID
  5
9
100
AcDbSymbolTable
 70
1
  0
APPID
  5
217
100
AcDbSymbolTableRecord
100
AcDbRegAppTableRecord
  2
ACAD
 70
0
  0
ENDTAB
  0
TABLE
  2
BLOCK_RECORD
  5
1
100
AcDbSymbolTable
 70
0
  0
BLOCK_RECORD
  5
218
100
AcDbSymbolTableRecord
100
AcDbBlockTableRecord
  2
*Model_Space
  0
BLOCK_RECORD
  5
219
100
AcDbSymbolTableRecord
100
AcDbBlockTableRecord
  2
*Paper_Space
  0
BLOCK_RECORD
  5
21A
100
AcDbSymbolTableRecord
100
AcDbBlockTableRecord
  2
_FILLED
  0
ENDTAB
  0
TABLE
  2
DIMSTYLE
  5
A
100
AcDbSymbolTable
 70
1
100
AcDbDimStyleTable
 71
0
  0
DIMSTYLE
105
21B
100
AcDbSymbolTableRecord
100
AcDbDimStyleTableRecord
  2
STANDARD
 70
0
  3

  4

 40
1.0
 41
3.0
 42
0.5
 43
0.38
 44
1.5
 45
0.0
 46
0.0
 47
0.01
 48
0.01
140
3.0
141
0.09
142
0.0
143
25.4
144
1.0
145
0.0
146
1.0
147
0.625
 71
1.0
 72
0.0
 73
0
 74
0
 75
0
 76
0
 77
1
 78
8
 79
2
170
0
171
1
172
0
173
0
174
0
175
0
176
0
177
0
178
0
270
2
179
2
271
2
272
2
273
2
274
2
275
0
280
0
281
0
282
0
283
1
284
8
285
0
286
0
287
3
288
0
340
11
278
44
341
21A
342
21A
343
21A
344
21A
  0
ENDTAB
  0
ENDSEC
  0
SECTION
  2
BLOCKS
  0
BLOCK
  5
20
100
AcDbEntity
  8
0
100
AcDbBlockBegin
  2
*Model_Space
 70
0
 10
0.0
 20
0.0
 30
0.0
  3
*Model_Space
  1

  0
ENDBLK
  5
21
100
AcDbEntity
  8
0
100
AcDbBlockEnd
  0
BLOCK
  5
1C
100
AcDbEntity
  8
0
100
AcDbBlockBegin
  2
*Paper_Space
 70
0
 10
0.0
 20
0.0
 30
0.0
  3
*Paper_Space
  1

  0
ENDBLK
  5
1D
100
AcDbEntity
  8
0
100
AcDbBlockEnd
  0
BLOCK
  5
21C
100
AcDbEntity
  8
0
100
AcDbBlockBegin
  2
_FILLED
 70
64
 10
0.0
 20
0.0
  3
_FILLED
  1

  0
SOLID
  5
21D
100
AcDbEntity
  8
0
  6
BYBLOCK
 62
0
100
AcDbTrace
 10
0.0
 20
0.0
 11
-1.0
 21
0.3166666667
 12
-1.0
 22
-0.3166666667
 13
-1.0
 23
-0.3166666667
  0
ENDBLK
  5
21E
100
AcDbEntity
  8
0
  6
BYBLOCK
 62
0
100
AcDbBlockEnd
  0
ENDSEC
  0
SECTION
  2
ENTITIES
  0
LINE
  5
21F
100
AcDbEntity
  8
DRAFT
100
AcDbLine
 62
7
  6
CONTINUOUS
 10
-60.5
 20
39.5
 11
-60.2242099741
 21
39.7757900259
  0
LINE
  5
220
100
AcDbEntity
  8
DRAFT
100
AcDbLine
 62
7
  6
CONTINUOUS
 10
-66.0
 20
34.0
 11
-66.2757899725
 21
33.7242100275
  0
LINE
  5
221
100
AcDbEntity
  8
DRAFT
100
AcDbLine
 62
7
  6
CONTINUOUS
 10
-60.5
 20
-39.5
 11
-60.2242099741
 21
-39.7757900259
  0
LINE
  5
222
100
AcDbEntity
  8
DRAFT
100
AcDbLine
 62
7
  6
CONTINUOUS
 10
-66.0
 20
-34.0
 11
-66.2757899725
 21
-33.7242100275
  0
LINE
  5
223
100
AcDbEntity
  8
DRAFT
100
AcDbLine
 62
7
  6
CONTINUOUS
 10
-68.0
 20
35.5
 11
-68.0
 21
-35.5
  0
LINE
  5
224
100
AcDbEntity
  8
SUPERFICI
100
AcDbLine
 62
7
  6
CONTINUOUS
 10
-67.9999998254
 20
-35.5000009498
 11
-67.9999998254
 21
35.5000009498
  0
LINE
  5
225
100
AcDbEntity
  8
RACCORDO
100
AcDbLine
 62
250
  6
CONTINUOUS
 10
-67.4667094077
 20
-29.1
 11
-67.4667094077
 21
-23.9
  0
LINE
  5
226
100
AcDbEntity
  8
RACCORDO
100
AcDbLine
 62
250
  6
CONTINUOUS
 10
-67.3730280729
 20
35.5
 11
-67.3730280729
 21
-22.9810015616
  0
LINE
  5
227
100
AcDbEntity
  8
RACCORDO
100
AcDbLine
 62
250
  6
CONTINUOUS
 10
-67.3730280729
 20
-30.0189984384
 11
-67.3730280729
 21
-35.5
  0
LINE
  5
228
100
AcDbEntity
  8
RACCORDO
100
AcDbLine
 62
7
  6
CONTINUOUS
 10
-67.0
 20
-23.6
 11
-67.0
 21
-29.4
  0
LINE
  5
229
100
AcDbEntity
  8
RACCORDO
100
AcDbLine
 62
250
  6
CONTINUOUS
 10
-66.3469076856
 20
-23.6
 11
-66.3469076856
 21
-29.4
  0
LINE
  5
22A
100
AcDbEntity
  8
RACCORDO
100
AcDbLine
 62
7
  6
CONTINUOUS
 10
-66.2757899725
 20
35.5
 11
-66.2757899725
 21
33.7242100275
  0
LINE
  5
22B
100
AcDbEntity
  8
RACCORDO
100
AcDbLine
 62
7
  6
CONTINUOUS
 10
-66.2757899725
 20
-33.7242100275
 11
-66.2757899725
 21
-35.5
  0
LINE
  5
22C
100
AcDbEntity
  8
RACCORDO
100
AcDbLine
 62
250
  6
CONTINUOUS
 10
-66.2731956082
 20
33.7242099741
 11
-66.2731956082
 21
-33.7242099741
  0
LINE
  5
22D
100
AcDbEntity
  8
DRAFT
100
AcDbLine
 62
7
  6
CONTINUOUS
 10
-66.0
 20
-34.0
 11
-66.0
 21
-35.5
  0
LINE
  5
22E
100
AcDbEntity
  8
DRAFT
100
AcDbLine
 62
7
  6
CONTINUOUS
 10
-66.0
 20
34.0
 11
-66.0
 21
35.5
  0
LINE
  5
22F
100
AcDbEntity
  8
DRAFT
100
AcDbLine
 62
250
  6
CONTINUOUS
 10
-62.0
 20
34.0
 11
-62.0
 21
33.7242099741
  0
LINE
  5
230
100
AcDbEntity
  8
DRAFT
100
AcDbLine
 62
250
  6
CONTINUOUS
 10
-62.0
 20
-34.0
 11
-62.0
 21
-33.7242099741
  0
LINE
  5
231
100
AcDbEntity
  8
RACCORDO
100
AcDbLine
 62
250
  6
CONTINUOUS
 10
-62.0
 20
-39.5
 11
-62.0
 21
-41.5
  0
LINE
  5
232
100
AcDbEntity
  8
RACCORDO
100
AcDbLine
 62
250
  6
CONTINUOUS
 10
-62.0
 20
39.5
 11
-62.0
 21
41.5
  0
LINE
  5
233
100
AcDbEntity
  8
DRAFT
100
AcDbLine
 62
7
  6
CONTINUOUS
 10
-60.5
 20
39.5
 11
-60.5
 21
35.5
  0
LINE
  5
234
100
AcDbEntity
  8
DRAFT
100
AcDbLine
 62
7
  6
CONTINUOUS
 10
-60.5
 20
-39.5
 11
-60.5
 21
-35.5
  0
LINE
  5
235
100
AcDbEntity
  8
DRAFT
100
AcDbLine
 62
7
  6
CONTINUOUS
 10
-60.2242099741
 20
39.7731956082
 11
-60.2242099741
 21
35.5
  0
LINE
  5
236
100
AcDbEntity
  8
DRAFT
100
AcDbLine
 62
7
  6
CONTINUOUS
 10
-60.2242099741
 20
-39.7731956082
 11
-60.2242099741
 21
-35.5
  0
LINE
  5
237
100
AcDbEntity
  8
0
100
AcDbLine
 62
7
  6
CONTINUOUS
 10
-54.965387
 20
-0.115089
 11
-54.965387
 21
-1.576121
  0
LINE
  5
238
100
AcDbEntity
  8
0
100
AcDbLine
 62
7
  6
CONTINUOUS
 10
-54.693534
 20
-1.293011
 11
-54.693534
 21
-0.115089
  0
LINE
  5
239
100
AcDbEntity
  8
RACCORDO
100
AcDbLine
 62
250
  6
CONTINUOUS
 10
-54.4
 20
39.8469076856
 11
-54.4000000001
 21
40.5
  0
LINE
  5
23A
100
AcDbEntity
  8
RACCORDO
100
AcDbLine
 62
250
  6
CONTINUOUS
 10
-54.1
 20
40.9667094077
 11
-54.1
 21
40.5
  0
LINE
  5
23B
100
AcDbEntity
  8
0
100
AcDbLine
 62
7
  6
CONTINUOUS
 10
-51.6
 20
16.5
 11
-51.6
 21
-16.5
  0
LINE
  5
23C
100
AcDbEntity
  8
0
100
AcDbLine
 62
7
  6
CONTINUOUS
 10
-51.4
 20
-16.5
 11
-51.4
 21
16.5
  0
LINE
  5
23D
100
AcDbEntity
  8
RACCORDO
100
AcDbLine
 62
250
  6
CONTINUOUS
 10
-48.9
 20
40.9667094077
 11
-48.9000000084
 21
40.5000000001
  0
LINE
  5
23E
100
AcDbEntity
  8
RACCORDO
100
AcDbLine
 62
250
  6
CONTINUOUS
 10
-48.6
 20
39.8469076856
 11
-48.6
 21
40.5
  0
LINE
  5
23F
100
AcDbEntity
  8
0
100
AcDbLine
 62
7
  6
CONTINUOUS
 10
-54.5483798359
 20
0.5757353215
 11
-54.415790899
 21
0.8354161978
  0
LINE
  5
240
100
AcDbEntity
  8
0
100
AcDbLine
 62
7
  6
CONTINUOUS
 10
-52.6037187606
 20
-1.5148655323
 11
-52.4737469146
 21
-1.80393019
  0
LINE
  5
241
100
AcDbEntity
  8
0
100
AcDbLine
 62
7
  6
CONTINUOUS
 10
-52.6410220488
 20
0.7708881594
 11
-52.545473839
 21
0.4588524741
  0
LINE
  5
242
100
AcDbEntity
  8
0
100
AcDbLine
 62
7
  6
CONTINUOUS
 10
-41.5
 20
26.6
 11
-41.5
 21
26.4
  0
LINE
  5
243
100
AcDbEntity
  8
DRAFT
100
AcDbLine
 62
7
  6
CONTINUOUS
 10
-62.0
 20
-41.5
 11
62.0
 21
-41.5
  0
LINE
  5
244
100
AcDbEntity
  8
SUPERFICI
100
AcDbLine
 62
7
  6
CONTINUOUS
 10
61.9999926736
 20
-41.5000001746
 11
-61.9999926736
 21
-41.5000001746
  0
LINE
  5
245
100
AcDbEntity
  8
RACCORDO
100
AcDbLine
 62
250
  6
CONTINUOUS
 10
54.1
 20
-40.9667094077
 11
48.9
 21
-40.9667094077
  0
LINE
  5
246
100
AcDbEntity
  8
RACCORDO
100
AcDbLine
 62
250
  6
CONTINUOUS
 10
-62.0
 20
-40.8730280729
 11
47.9810015616
 21
-40.8730280729
  0
LINE
  5
247
100
AcDbEntity
  8
RACCORDO
100
AcDbLine
 62
250
  6
CONTINUOUS
 10
55.0189984384
 20
-40.8730280729
 11
62.0
 21
-40.8730280729
  0
LINE
  5
248
100
AcDbEntity
  8
RACCORDO
100
AcDbLine
 62
7
  6
CONTINUOUS
 10
48.6
 20
-40.5
 11
54.4
 21
-40.5
  0
LINE
  5
249
100
AcDbEntity
  8
RACCORDO
100
AcDbLine
 62
250
  6
CONTINUOUS
 10
48.6
 20
-39.8469076856
 11
54.4
 21
-39.8469076856
  0
LINE
  5
24A
100
AcDbEntity
  8
RACCORDO
100
AcDbLine
 62
7
  6
CONTINUOUS
 10
-62.0
 20
-39.7757899725
 11
-60.2242100275
 21
-39.7757899725
  0
LINE
  5
24B
100
AcDbEntity
  8
RACCORDO
100
AcDbLine
 62
7
  6
CONTINUOUS
 10
60.2242100275
 20
-39.7757899725
 11
62.0
 21
-39.7757899725
  0
LINE
  5
24C
100
AcDbEntity
  8
RACCORDO
100
AcDbLine
 62
250
  6
CONTINUOUS
 10
-60.2242099741
 20
-39.7731956082
 11
60.2242099741
 21
-39.7731956082
  0
LINE
  5
24D
100
AcDbEntity
  8
DRAFT
100
AcDbLine
 62
7
  6
CONTINUOUS
 10
-62.0
 20
-39.5
 11
-60.5
 21
-39.5
  0
LINE
  5
24E
100
AcDbEntity
  8
DRAFT
100
AcDbLine
 62
7
  6
CONTINUOUS
 10
62.0
 20
-39.5
 11
60.5
 21
-39.5
  0
LINE
  5
24F
100
AcDbEntity
  8
DRAFT
100
AcDbLine
 62
250
  6
CONTINUOUS
 10
-60.5
 20
-35.5
 11
-60.2242099741
 21
-35.5
  0
LINE
  5
250
100
AcDbEntity
  8
DRAFT
100
AcDbLine
 62
250
  6
CONTINUOUS
 10
60.5
 20
-35.5
 11
60.2242099741
 21
-35.5
  0
LINE
  5
251
100
AcDbEntity
  8
RACCORDO
100
AcDbLine
 62
250
  6
CONTINUOUS
 10
66.0
 20
-35.5
 11
68.0
 21
-35.5
  0
LINE
  5
252
100
AcDbEntity
  8
RACCORDO
100
AcDbLine
 62
250
  6
CONTINUOUS
 10
-66.0
 20
-35.5
 11
-68.0
 21
-35.5
  0
LINE
  5
253
100
AcDbEntity
  8
DRAFT
100
AcDbLine
 62
7
  6
CONTINUOUS
 10
62.0
 20
-34.0
 11
66.0
 21
-34.0
  0
LINE
  5
254
100
AcDbEntity
  8
DRAFT
100
AcDbLine
 62
7
  6
CONTINUOUS
 10
-62.0
 20
-34.0
 11
-66.0
 21
-34.0
  0
LINE
  5
255
100
AcDbEntity
  8
DRAFT
100
AcDbLine
 62
7
  6
CONTINUOUS
 10
62.0
 20
-33.7242099741
 11
66.2731956082
 21
-33.7242099741
  0
LINE
  5
256
100
AcDbEntity
  8
DRAFT
100
AcDbLine
 62
7
  6
CONTINUOUS
 10
-62.0
 20
-33.7242099741
 11
-66.2731956082
 21
-33.7242099741
  0
LINE
  5
257
100
AcDbEntity
  8
0
100
AcDbLine
 62
7
  6
CONTINUOUS
 10
1.492006329
 20
28.1274921008
 11
1.1865562096
 21
28.0339610642
  0
LINE
  5
258
100
AcDbEntity
  8
RACCORDO
100
AcDbLine
 62
250
  6
CONTINUOUS
 10
-66.3469076856
 20
-29.4
 11
-67.0
 21
-29.4000000001
  0
LINE
  5
259
100
AcDbEntity
  8
RACCORDO
100
AcDbLine
 62
250
  6
CONTINUOUS
 10
-67.4667094077
 20
-29.1
 11
-67.0
 21
-29.1
  0
LINE
  5
25A
100
AcDbEntity
  8
0
100
AcDbLine
 62
7
  6
CONTINUOUS
 10
-2.905948
 20
29.573703
 11
-2.400816
 21
30.034184
  0
LINE
  5
25B
100
AcDbEntity
  8
0
100
AcDbLine
 62
7
  6
CONTINUOUS
 10
-2.368336
 20
30.4028
 11
-3.084683
 21
29.796
  0
LINE
  5
25C
100
AcDbEntity
  8
RACCORDO
100
AcDbLine
 62
250
  6
CONTINUOUS
 10
-67.4667094077
 20
-23.9
 11
-67.0000000001
 21
-23.9000000084
  0
LINE
  5
25D
100
AcDbEntity
  8
RACCORDO
100
AcDbLine
 62
250
  6
CONTINUOUS
 10
-66.3469076856
 20
-23.6
 11
-67.0
 21
-23.6
  0
LINE
  5
25E
100
AcDbEntity
  8
0
100
AcDbLine
 62
7
  6
CONTINUOUS
 10
-51.6
 20
-16.5
 11
-51.4
 21
-16.5
  0
LINE
  5
25F
100
AcDbEntity
  8
0
100
AcDbLine
 62
7
  6
CONTINUOUS
 10
-2.400816
 20
30.034184
 11
-2.400816
 21
27.5
  0
LINE
  5
260
100
AcDbEntity
  8
0
100
AcDbLine
 62
7
  6
CONTINUOUS
 10
-2.118684
 20
27.5
 11
-2.118684
 21
30.4028
  0
LINE
  5
261
100
AcDbEntity
  8
0
100
AcDbLine
 62
7
  6
CONTINUOUS
 10
-1.1
 20
-11.1960930686
 11
-1.1
 21
-10.0700680665
  0
LINE
  5
262
100
AcDbEntity
  8
0
100
AcDbLine
 62
7
  6
CONTINUOUS
 10
-1.1
 20
10.0700680665
 11
-1.1
 21
11.1960930686
  0
LINE
  5
263
100
AcDbEntity
  8
0
100
AcDbLine
 62
7
  6
CONTINUOUS
 10
11.1960930686
 20
-1.1
 11
10.0700680665
 21
-1.1
  0
LINE
  5
264
100
AcDbEntity
  8
0
100
AcDbLine
 62
7
  6
CONTINUOUS
 10
-10.0700680665
 20
-1.1
 11
-11.1960930686
 21
-1.1
  0
LINE
  5
265
100
AcDbEntity
  8
0
100
AcDbLine
 62
7
  6
CONTINUOUS
 10
-54.693534
 20
-0.115089
 11
-54.965387
 21
-0.115089
  0
LINE
  5
266
100
AcDbEntity
  8
0
100
AcDbLine
 62
7
  6
CONTINUOUS
 10
-53.7939441155
 20
-1.308782998
 11
-54.693534
 21
-1.293011
  0
LINE
  5
267
100
AcDbEntity
  8
0
100
AcDbLine
 62
7
  6
CONTINUOUS
 10
-54.965387
 20
-1.576121
 11
-53.427590219
 21
-1.6038029961
  0
LINE
  5
268
100
AcDbEntity
  8
0
100
AcDbLine
 62
7
  6
CONTINUOUS
 10
1.1
 20
11.1960930686
 11
1.1
 21
10.0700680665
  0
LINE
  5
269
100
AcDbEntity
  8
0
100
AcDbLine
 62
7
  6
CONTINUOUS
 10
1.1
 20
-10.0700680665
 11
1.1
 21
-11.1960930686
  0
LINE
  5
26A
100
AcDbEntity
  8
0
100
AcDbLine
 62
7
  6
CONTINUOUS
 10
1.846016
 20
29.1519156863
 11
1.846016
 21
28.8861843745
  0
LINE
  5
26B
100
AcDbEntity
  8
0
100
AcDbLine
 62
7
  6
CONTINUOUS
 10
-11.1960930686
 20
1.1
 11
-10.0700680665
 21
1.1
  0
LINE
  5
26C
100
AcDbEntity
  8
0
100
AcDbLine
 62
7
  6
CONTINUOUS
 10
10.0700680665
 20
1.1
 11
11.1960930686
 21
1.1
  0
LINE
  5
26D
100
AcDbEntity
  8
0
100
AcDbLine
 62
7
  6
CONTINUOUS
 10
-53.6875325972
 20
1.132531
 11
-53.4160718604
 21
1.132531
  0
LINE
  5
26E
100
AcDbEntity
  8
0
100
AcDbLine
 62
7
  6
CONTINUOUS
 10
-51.4
 20
16.5
 11
-51.6
 21
16.5
  0
LINE
  5
26F
100
AcDbEntity
  8
0
100
AcDbLine
 62
7
  6
CONTINUOUS
 10
-3.084683
 20
29.796
 11
-2.905948
 21
29.573703
  0
LINE
  5
270
100
AcDbEntity
  8
RACCORDO
100
AcDbLine
 62
250
  6
CONTINUOUS
 10
66.3469076856
 20
23.6
 11
67.0
 21
23.6
  0
LINE
  5
271
100
AcDbEntity
  8
RACCORDO
100
AcDbLine
 62
250
  6
CONTINUOUS
 10
67.4667094077
 20
23.9
 11
67.0000000001
 21
23.9000000084
  0
LINE
  5
272
100
AcDbEntity
  8
0
100
AcDbLine
 62
7
  6
CONTINUOUS
 10
-41.5
 20
26.4
 11
41.5
 21
26.4
  0
LINE
  5
273
100
AcDbEntity
  8
0
100
AcDbLine
 62
7
  6
CONTINUOUS
 10
41.5
 20
26.6
 11
-41.5
 21
26.6
  0
LINE
  5
274
100
AcDbEntity
  8
0
100
AcDbLine
 62
7
  6
CONTINUOUS
 10
-2.400816
 20
27.5
 11
-2.118684
 21
27.5
  0
LINE
  5
275
100
AcDbEntity
  8
RACCORDO
100
AcDbLine
 62
250
  6
CONTINUOUS
 10
67.4667094077
 20
29.1
 11
67.0
 21
29.1
  0
LINE
  5
276
100
AcDbEntity
  8
RACCORDO
100
AcDbLine
 62
250
  6
CONTINUOUS
 10
66.3469076856
 20
29.4
 11
67.0
 21
29.4000000001
  0
LINE
  5
277
100
AcDbEntity
  8
0
100
AcDbLine
 62
7
  6
CONTINUOUS
 10
-2.118684
 20
30.4028
 11
-2.368336
 21
30.4028
  0
LINE
  5
278
100
AcDbEntity
  8
0
100
AcDbLine
 62
7
  6
CONTINUOUS
 10
1.3009720812
 20
29.9945939585
 11
1.5551718518
 21
29.8648030757
  0
LINE
  5
279
100
AcDbEntity
  8
DRAFT
100
AcDbLine
 62
7
  6
CONTINUOUS
 10
62.0
 20
33.7242099741
 11
66.2731956082
 21
33.7242099741
  0
LINE
  5
27A
100
AcDbEntity
  8
DRAFT
100
AcDbLine
 62
7
  6
CONTINUOUS
 10
-62.0
 20
33.7242099741
 11
-66.2731956082
 21
33.7242099741
  0
LINE
  5
27B
100
AcDbEntity
  8
DRAFT
100
AcDbLine
 62
7
  6
CONTINUOUS
 10
62.0
 20
34.0
 11
66.0
 21
34.0
  0
LINE
  5
27C
100
AcDbEntity
  8
DRAFT
100
AcDbLine
 62
7
  6
CONTINUOUS
 10
-62.0
 20
34.0
 11
-66.0
 21
34.0
  0
LINE
  5
27D
100
AcDbEntity
  8
DRAFT
100
AcDbLine
 62
250
  6
CONTINUOUS
 10
-60.5
 20
35.5
 11
-60.2242099741
 21
35.5
  0
LINE
  5
27E
100
AcDbEntity
  8
DRAFT
100
AcDbLine
 62
250
  6
CONTINUOUS
 10
60.5
 20
35.5
 11
60.2242099741
 21
35.5
  0
LINE
  5
27F
100
AcDbEntity
  8
RACCORDO
100
AcDbLine
 62
250
  6
CONTINUOUS
 10
66.0
 20
35.5
 11
68.0
 21
35.5
  0
LINE
  5
280
100
AcDbEntity
  8
RACCORDO
100
AcDbLine
 62
250
  6
CONTINUOUS
 10
-66.0
 20
35.5
 11
-68.0
 21
35.5
  0
LINE
  5
281
100
AcDbEntity
  8
0
100
AcDbLine
 62
7
  6
CONTINUOUS
 10
41.5
 20
26.4
 11
41.5
 21
26.6
  0
LINE
  5
282
100
AcDbEntity
  8
DRAFT
100
AcDbLine
 62
7
  6
CONTINUOUS
 10
-62.0
 20
39.5
 11
-60.5
 21
39.5
  0
LINE
  5
283
100
AcDbEntity
  8
DRAFT
100
AcDbLine
 62
7
  6
CONTINUOUS
 10
62.0
 20
39.5
 11
60.5
 21
39.5
  0
LINE
  5
284
100
AcDbEntity
  8
RACCORDO
100
AcDbLine
 62
250
  6
CONTINUOUS
 10
60.2242099741
 20
39.7731956082
 11
-60.2242099741
 21
39.7731956082
  0
LINE
  5
285
100
AcDbEntity
  8
RACCORDO
100
AcDbLine
 62
7
  6
CONTINUOUS
 10
62.0
 20
39.7757899725
 11
60.2242100275
 21
39.7757899725
  0
LINE
  5
286
100
AcDbEntity
  8
RACCORDO
100
AcDbLine
 62
7
  6
CONTINUOUS
 10
-60.2242100275
 20
39.7757899725
 11
-62.0
 21
39.7757899725
  0
LINE
  5
287
100
AcDbEntity
  8
RACCORDO
100
AcDbLine
 62
250
  6
CONTINUOUS
 10
-48.6
 20
39.8469076856
 11
-54.4
 21
39.8469076856
  0
LINE
  5
288
100
AcDbEntity
  8
RACCORDO
100
AcDbLine
 62
7
  6
CONTINUOUS
 10
-48.6
 20
40.5
 11
-54.4
 21
40.5
  0
LINE
  5
289
100
AcDbEntity
  8
RACCORDO
100
AcDbLine
 62
250
  6
CONTINUOUS
 10
62.0
 20
40.8730280729
 11
-47.9810015616
 21
40.8730280729
  0
LINE
  5
28A
100
AcDbEntity
  8
RACCORDO
100
AcDbLine
 62
250
  6
CONTINUOUS
 10
-55.0189984384
 20
40.8730280729
 11
-62.0
 21
40.8730280729
  0
LINE
  5
28B
100
AcDbEntity
  8
RACCORDO
100
AcDbLine
 62
250
  6
CONTINUOUS
 10
-54.1
 20
40.9667094077
 11
-48.9
 21
40.9667094077
  0
LINE
  5
28C
100
AcDbEntity
  8
SUPERFICI
100
AcDbLine
 62
7
  6
CONTINUOUS
 10
61.9999926736
 20
41.5000001746
 11
-61.9999926736
 21
41.5000001746
  0
LINE
  5
28D
100
AcDbEntity
  8
DRAFT
100
AcDbLine
 62
7
  6
CONTINUOUS
 10
62.0
 20
41.5
 11
-62.0
 21
41.5
  0
LINE
  5
28E
100
AcDbEntity
  8
RACCORDO
100
AcDbLine
 62
250
  6
CONTINUOUS
 10
48.6
 20
-39.8469076856
 11
48.6
 21
-40.5
  0
LINE
  5
28F
100
AcDbEntity
  8
RACCORDO
100
AcDbLine
 62
250
  6
CONTINUOUS
 10
48.9
 20
-40.9667094077
 11
48.9000000084
 21
-40.5000000001
  0
LINE
  5
290
100
AcDbEntity
  8
RACCORDO
100
AcDbLine
 62
250
  6
CONTINUOUS
 10
54.1
 20
-40.9667094077
 11
54.1
 21
-40.5
  0
LINE
  5
291
100
AcDbEntity
  8
RACCORDO
100
AcDbLine
 62
250
  6
CONTINUOUS
 10
54.4
 20
-39.8469076856
 11
54.4000000001
 21
-40.5
  0
LINE
  5
292
100
AcDbEntity
  8
DRAFT
100
AcDbLine
 62
7
  6
CONTINUOUS
 10
60.2242099741
 20
39.7731956082
 11
60.2242099741
 21
35.5
  0
LINE
  5
293
100
AcDbEntity
  8
DRAFT
100
AcDbLine
 62
7
  6
CONTINUOUS
 10
60.2242099741
 20
-39.7731956082
 11
60.2242099741
 21
-35.5
  0
LINE
  5
294
100
AcDbEntity
  8
DRAFT
100
AcDbLine
 62
7
  6
CONTINUOUS
 10
60.5
 20
39.5
 11
60.5
 21
35.5
  0
LINE
  5
295
100
AcDbEntity
  8
DRAFT
100
AcDbLine
 62
7
  6
CONTINUOUS
 10
60.5
 20
-39.5
 11
60.5
 21
-35.5
  0
LINE
  5
296
100
AcDbEntity
  8
DRAFT
100
AcDbLine
 62
250
  6
CONTINUOUS
 10
62.0
 20
34.0
 11
62.0
 21
33.7242099741
  0
LINE
  5
297
100
AcDbEntity
  8
DRAFT
100
AcDbLine
 62
250
  6
CONTINUOUS
 10
62.0
 20
-34.0
 11
62.0
 21
-33.7242099741
  0
LINE
  5
298
100
AcDbEntity
  8
RACCORDO
100
AcDbLine
 62
250
  6
CONTINUOUS
 10
62.0
 20
-39.5
 11
62.0
 21
-41.5
  0
LINE
  5
299
100
AcDbEntity
  8
RACCORDO
100
AcDbLine
 62
250
  6
CONTINUOUS
 10
62.0
 20
39.5
 11
62.0
 21
41.5
  0
LINE
  5
29A
100
AcDbEntity
  8
DRAFT
100
AcDbLine
 62
7
  6
CONTINUOUS
 10
66.0
 20
-34.0
 11
66.0
 21
-35.5
  0
LINE
  5
29B
100
AcDbEntity
  8
DRAFT
100
AcDbLine
 62
7
  6
CONTINUOUS
 10
66.0
 20
34.0
 11
66.0
 21
35.5
  0
LINE
  5
29C
100
AcDbEntity
  8
RACCORDO
100
AcDbLine
 62
250
  6
CONTINUOUS
 10
66.2731956082
 20
-33.7242099741
 11
66.2731956082
 21
33.7242099741
  0
LINE
  5
29D
100
AcDbEntity
  8
RACCORDO
100
AcDbLine
 62
7
  6
CONTINUOUS
 10
66.2757899725
 20
-35.5
 11
66.2757899725
 21
-33.7242100275
  0
LINE
  5
29E
100
AcDbEntity
  8
RACCORDO
100
AcDbLine
 62
7
  6
CONTINUOUS
 10
66.2757899725
 20
33.7242100275
 11
66.2757899725
 21
35.5
  0
LINE
  5
29F
100
AcDbEntity
  8
RACCORDO
100
AcDbLine
 62
250
  6
CONTINUOUS
 10
66.3469076856
 20
23.6
 11
66.3469076856
 21
29.4
  0
LINE
  5
2A0
100
AcDbEntity
  8
RACCORDO
100
AcDbLine
 62
7
  6
CONTINUOUS
 10
67.0
 20
23.6
 11
67.0
 21
29.4
  0
LINE
  5
2A1
100
AcDbEntity
  8
RACCORDO
100
AcDbLine
 62
250
  6
CONTINUOUS
 10
67.3730280729
 20
-35.5
 11
67.3730280729
 21
22.9810015616
  0
LINE
  5
2A2
100
AcDbEntity
  8
RACCORDO
100
AcDbLine
 62
250
  6
CONTINUOUS
 10
67.3730280729
 20
30.0189984384
 11
67.3730280729
 21
35.5
  0
LINE
  5
2A3
100
AcDbEntity
  8
RACCORDO
100
AcDbLine
 62
250
  6
CONTINUOUS
 10
67.4667094077
 20
29.1
 11
67.4667094077
 21
23.9
  0
LINE
  5
2A4
100
AcDbEntity
  8
SUPERFICI
100
AcDbLine
 62
7
  6
CONTINUOUS
 10
67.9999998254
 20
35.5000009498
 11
67.9999998254
 21
-35.5000009498
  0
LINE
  5
2A5
100
AcDbEntity
  8
DRAFT
100
AcDbLine
 62
7
  6
CONTINUOUS
 10
68.0
 20
-35.5
 11
68.0
 21
35.5
  0
LINE
  5
2A6
100
AcDbEntity
  8
DRAFT
100
AcDbLine
 62
7
  6
CONTINUOUS
 10
60.5
 20
-39.5
 11
60.2242099741
 21
-39.7757900259
  0
LINE
  5
2A7
100
AcDbEntity
  8
DRAFT
100
AcDbLine
 62
7
  6
CONTINUOUS
 10
66.0
 20
-34.0
 11
66.2757899725
 21
-33.7242100275
  0
LINE
  5
2A8
100
AcDbEntity
  8
DRAFT
100
AcDbLine
 62
7
  6
CONTINUOUS
 10
60.5
 20
39.5
 11
60.2242099741
 21
39.7757900259
  0
LINE
  5
2A9
100
AcDbEntity
  8
DRAFT
100
AcDbLine
 62
7
  6
CONTINUOUS
 10
66.0
 20
34.0
 11
66.2757899725
 21
33.7242100275
  0
CIRCLE
  5
2AA
100
AcDbEntity
  8
RACCORDO
100
AcDbCircle
 62
7
  6
CONTINUOUS
 10
-51.5
 20
-26.5
 40
9.5
  0
CIRCLE
  5
2AB
100
AcDbEntity
  8
RACCORDO
100
AcDbCircle
 62
250
  6
CONTINUOUS
 10
-51.5
 20
-26.5
 40
8.9999972578
  0
ARC
  5
2AC
100
AcDbEntity
  8
SUPERFICI
100
AcDbCircle
 62
7
  6
CONTINUOUS
 10
-61.9999999014
 20
-35.5
 40
6.0
100
AcDbArc
 50
180.00000907
 51
270.000069021
  0
ARC
  5
2AD
100
AcDbEntity
  8
DRAFT
100
AcDbCircle
 62
7
  6
CONTINUOUS
 10
-62.0
 20
-35.5
 40
6.0
100
AcDbArc
 50
180.0
 51
270.0
  0
ARC
  5
2AE
100
AcDbEntity
  8
RACCORDO
100
AcDbCircle
 62
250
  6
CONTINUOUS
 10
-62.0
 20
-35.5
 40
5.3730280702
100
AcDbArc
 50
180.0
 51
270.0
  0
ARC
  5
2AF
100
AcDbEntity
  8
RACCORDO
100
AcDbCircle
 62
7
  6
CONTINUOUS
 10
-62.0
 20
-35.5
 40
4.2757899725
100
AcDbArc
 50
180.0
 51
270.0
  0
ARC
  5
2B0
100
AcDbEntity
  8
DRAFT
100
AcDbCircle
 62
7
  6
CONTINUOUS
 10
-62.0
 20
-35.5
 40
4.0
100
AcDbArc
 50
180.0
 51
270.0
  0
CIRCLE
  5
2B1
100
AcDbEntity
  8
0
100
AcDbCircle
 62
7
  6
CONTINUOUS
 10
-51.5
 20
-26.5
 40
2.25
  0
CIRCLE
  5
2B2
100
AcDbEntity
  8
0
100
AcDbCircle
 62
7
  6
CONTINUOUS
 10
-51.5
 20
-26.5
 40
1.8
  0
ARC
  5
2B3
100
AcDbEntity
  8
DRAFT
100
AcDbCircle
 62
7
  6
CONTINUOUS
 10
-62.0
 20
-35.5
 40
1.7757900259
100
AcDbArc
 50
0.0
 51
90.0
  0
CIRCLE
  5
2B4
100
AcDbEntity
  8
0
100
AcDbCircle
 62
7
  6
CONTINUOUS
 10
-51.5
 20
-26.5
 40
1.5
  0
ARC
  5
2B5
100
AcDbEntity
  8
DRAFT
100
AcDbCircle
 62
7
  6
CONTINUOUS
 10
-62.0
 20
-35.5
 40
1.5
100
AcDbArc
 50
0.0
 51
90.0
  0
ARC
  5
2B6
100
AcDbEntity
  8
0
100
AcDbCircle
 62
7
  6
CONTINUOUS
 10
-52.9966423059
 20
-0.9145759568
 40
0.8873019015
100
AcDbArc
 50
116.8197207851
 51
118.5378313068
  0
ARC
  5
2B7
100
AcDbEntity
  8
0
100
AcDbCircle
 62
7
  6
CONTINUOUS
 10
-52.9958636729
 20
-0.9133015525
 40
0.8866502734
100
AcDbArc
 50
125.1124430944
 51
131.4005448984
  0
ARC
  5
2B8
100
AcDbEntity
  8
0
100
AcDbCircle
 62
7
  6
CONTINUOUS
 10
-53.0016620674
 20
-0.9055269565
 40
0.8769542067
100
AcDbArc
 50
118.5321595714
 51
125.0947101522
  0
ARC
  5
2B9
100
AcDbEntity
  8
RACCORDO
100
AcDbCircle
 62
250
  6
CONTINUOUS
 10
-67.7004902436
 20
-29.3986828983
 40
0.7014433994
100
AcDbArc
 50
290.92680287
 51
297.8293996888
  0
ARC
  5
2BA
100
AcDbEntity
  8
RACCORDO
100
AcDbCircle
 62
250
  6
CONTINUOUS
 10
-67.7004902166
 20
-23.6013170422
 40
0.7014433341
100
AcDbArc
 50
62.1705999898
 51
69.0731974514
  0
ARC
  5
2BB
100
AcDbEntity
  8
RACCORDO
100
AcDbCircle
 62
7
  6
CONTINUOUS
 10
-66.7502476847
 20
-30.0536331356
 40
0.6997174148
100
AcDbArc
 50
110.9117873308
 51
180.0183580039
  0
ARC
  5
2BC
100
AcDbEntity
  8
RACCORDO
100
AcDbCircle
 62
7
  6
CONTINUOUS
 10
-66.7502476783
 20
-22.9463867654
 40
0.6997045681
100
AcDbArc
 50
179.9800120142
 51
249.0876304476
  0
ARC
  5
2BD
100
AcDbEntity
  8
RACCORDO
100
AcDbCircle
 62
250
  6
CONTINUOUS
 10
-66.6733375792
 20
-30.018755111
 40
0.6996900918
100
AcDbArc
 50
117.8311372931
 51
180.0199254381
  0
ARC
  5
2BE
100
AcDbEntity
  8
RACCORDO
100
AcDbCircle
 62
250
  6
CONTINUOUS
 10
-66.6733400233
 20
-22.9812504156
 40
0.6996840634
100
AcDbArc
 50
179.9796218312
 51
242.1688284098
  0
CIRCLE
  5
2BF
100
AcDbEntity
  8
RACCORDO
100
AcDbCircle
 62
7
  6
CONTINUOUS
 10
-45.3
 20
-0.0
 40
4.8
  0
CIRCLE
  5
2C0
100
AcDbEntity
  8
RACCORDO
100
AcDbCircle
 62
250
  6
CONTINUOUS
 10
-45.3
 20
-0.0
 40
4.2999929909
  0
ARC
  5
2C1
100
AcDbEntity
  8
0
100
AcDbCircle
 62
7
  6
CONTINUOUS
 10
-52.5520867032
 20
1.3547719443
 40
0.8520659382
100
AcDbArc
 50
149.540715981
 51
154.0879088845
  0
ARC
  5
2C2
100
AcDbEntity
  8
0
100
AcDbCircle
 62
7
  6
CONTINUOUS
 10
-54.2635935851
 20
1.4879469041
 40
0.7333372305
100
AcDbArc
 50
30.4431266044
 51
42.4776543605
  0
ARC
  5
2C3
100
AcDbEntity
  8
0
100
AcDbCircle
 62
7
  6
CONTINUOUS
 10
-52.8619782928
 20
1.5815329491
 40
0.7153116782
100
AcDbArc
 50
129.4657566265
 51
137.0056653986
  0
ARC
  5
2C4
100
AcDbEntity
  8
0
100
AcDbCircle
 62
7
  6
CONTINUOUS
 10
-54.396224813
 20
1.3483119563
 40
0.7045428308
100
AcDbArc
 50
16.3213008393
 51
21.317253553
  0
ARC
  5
2C5
100
AcDbEntity
  8
0
100
AcDbCircle
 62
7
  6
CONTINUOUS
 10
-52.8842131924
 20
1.6028038348
 40
0.6845412148
100
AcDbArc
 50
137.038761713
 51
153.1276268623
  0
ARC
  5
2C6
100
AcDbEntity
  8
SUPERFICI
100
AcDbCircle
 62
7
  6
CONTINUOUS
 10
-61.9999999015
 20
35.5
 40
6.0
100
AcDbArc
 50
89.9999309787
 51
179.9999909303
  0
ARC
  5
2C7
100
AcDbEntity
  8
DRAFT
100
AcDbCircle
 62
7
  6
CONTINUOUS
 10
-62.0
 20
35.5
 40
6.0
100
AcDbArc
 50
90.0
 51
180.0
  0
ARC
  5
2C8
100
AcDbEntity
  8
RACCORDO
100
AcDbCircle
 62
250
  6
CONTINUOUS
 10
-62.0
 20
35.5
 40
5.3730280702
100
AcDbArc
 50
90.0
 51
180.0
  0
ARC
  5
2C9
100
AcDbEntity
  8
RACCORDO
100
AcDbCircle
 62
7
  6
CONTINUOUS
 10
-62.0
 20
35.5
 40
4.2757899725
100
AcDbArc
 50
90.0
 51
180.0
  0
ARC
  5
2CA
100
AcDbEntity
  8
DRAFT
100
AcDbCircle
 62
7
  6
CONTINUOUS
 10
-62.0
 20
35.5
 40
4.0
100
AcDbArc
 50
90.0
 51
180.0
  0
ARC
  5
2CB
100
AcDbEntity
  8
DRAFT
100
AcDbCircle
 62
7
  6
CONTINUOUS
 10
-62.0
 20
35.5
 40
1.7757900259
100
AcDbArc
 50
270.0
 51
360.0
  0
ARC
  5
2CC
100
AcDbEntity
  8
DRAFT
100
AcDbCircle
 62
7
  6
CONTINUOUS
 10
-62.0
 20
35.5
 40
1.5
100
AcDbArc
 50
270.0
 51
360.0
  0
ARC
  5
2CD
100
AcDbEntity
  8
RACCORDO
100
AcDbCircle
 62
7
  6
CONTINUOUS
 10
-55.0536331356
 20
40.2502476847
 40
0.6997174148
100
AcDbArc
 50
20.9117873308
 51
90.0183580039
  0
ARC
  5
2CE
100
AcDbEntity
  8
RACCORDO
100
AcDbCircle
 62
250
  6
CONTINUOUS
 10
-55.018755111
 20
40.1733375792
 40
0.6996900918
100
AcDbArc
 50
27.8311372931
 51
90.0199254381
  0
CIRCLE
  5
2CF
100
AcDbEntity
  8
RACCORDO
100
AcDbCircle
 62
7
  6
CONTINUOUS
 10
-51.5
 20
26.5
 40
9.5
  0
CIRCLE
  5
2D0
100
AcDbEntity
  8
RACCORDO
100
AcDbCircle
 62
250
  6
CONTINUOUS
 10
-51.5
 20
26.5
 40
8.9999972577
  0
CIRCLE
  5
2D1
100
AcDbEntity
  8
0
100
AcDbCircle
 62
7
  6
CONTINUOUS
 10
-51.5
 20
26.5
 40
2.25
  0
CIRCLE
  5
2D2
100
AcDbEntity
  8
0
100
AcDbCircle
 62
7
  6
CONTINUOUS
 10
-51.5
 20
26.5
 40
1.8
  0
CIRCLE
  5
2D3
100
AcDbEntity
  8
0
100
AcDbCircle
 62
7
  6
CONTINUOUS
 10
-51.5
 20
26.5
 40
1.5
  0
ARC
  5
2D4
100
AcDbEntity
  8
RACCORDO
100
AcDbCircle
 62
250
  6
CONTINUOUS
 10
-54.3986828983
 20
41.2004902436
 40
0.7014433994
100
AcDbArc
 50
200.92680287
 51
207.8293996888
  0
ARC
  5
2D5
100
AcDbEntity
  8
RACCORDO
100
AcDbCircle
 62
250
  6
CONTINUOUS
 10
-48.6013170422
 20
41.2004902166
 40
0.7014433341
100
AcDbArc
 50
332.1705999898
 51
339.0731974515
  0
ARC
  5
2D6
100
AcDbEntity
  8
RACCORDO
100
AcDbCircle
 62
7
  6
CONTINUOUS
 10
-47.9463867654
 20
40.2502476782
 40
0.6997045681
100
AcDbArc
 50
89.9800120142
 51
159.0876304476
  0
ARC
  5
2D7
100
AcDbEntity
  8
RACCORDO
100
AcDbCircle
 62
250
  6
CONTINUOUS
 10
-47.9812504156
 20
40.1733400233
 40
0.6996840634
100
AcDbArc
 50
89.9796218312
 51
152.1688284098
  0
ARC
  5
2D8
100
AcDbEntity
  8
0
100
AcDbCircle
 62
7
  6
CONTINUOUS
 10
-0.1573343296
 20
29.5980601482
 40
0.8922032011
100
AcDbArc
 50
29.800075303
 51
36.3227475572
  0
ARC
  5
2D9
100
AcDbEntity
  8
0
100
AcDbCircle
 62
7
  6
CONTINUOUS
 10
-0.0859279426
 20
29.6119409165
 40
0.8709277292
100
AcDbArc
 50
130.2890086378
 51
145.3048297477
  0
ARC
  5
2DA
100
AcDbEntity
  8
0
100
AcDbCircle
 62
7
  6
CONTINUOUS
 10
-0.0066408392
 20
29.7746922816
 40
0.659668837
100
AcDbArc
 50
56.9094332143
 51
64.789813753
  0
ARC
  5
2DB
100
AcDbEntity
  8
RACCORDO
100
AcDbCircle
 62
250
  6
CONTINUOUS
 10
54.3986828983
 20
-41.2004902436
 40
0.7014433994
100
AcDbArc
 50
20.92680287
 51
27.8293996888
  0
ARC
  5
2DC
100
AcDbEntity
  8
RACCORDO
100
AcDbCircle
 62
250
  6
CONTINUOUS
 10
48.6013170422
 20
-41.2004902166
 40
0.7014433341
100
AcDbArc
 50
152.1705999898
 51
159.0731974514
  0
ARC
  5
2DD
100
AcDbEntity
  8
RACCORDO
100
AcDbCircle
 62
7
  6
CONTINUOUS
 10
47.9463867654
 20
-40.2502476783
 40
0.6997045681
100
AcDbArc
 50
269.9800120142
 51
339.0876304476
  0
ARC
  5
2DE
100
AcDbEntity
  8
RACCORDO
100
AcDbCircle
 62
250
  6
CONTINUOUS
 10
47.9812504156
 20
-40.1733400233
 40
0.6996840634
100
AcDbArc
 50
269.9796218312
 51
332.1688284098
  0
CIRCLE
  5
2DF
100
AcDbEntity
  8
RACCORDO
100
AcDbCircle
 62
7
  6
CONTINUOUS
 10
51.5
 20
-26.5
 40
9.5
  0
CIRCLE
  5
2E0
100
AcDbEntity
  8
RACCORDO
100
AcDbCircle
 62
250
  6
CONTINUOUS
 10
51.5
 20
-26.5
 40
8.9999972577
  0
CIRCLE
  5
2E1
100
AcDbEntity
  8
0
100
AcDbCircle
 62
7
  6
CONTINUOUS
 10
51.5
 20
-26.5
 40
2.25
  0
CIRCLE
  5
2E2
100
AcDbEntity
  8
0
100
AcDbCircle
 62
7
  6
CONTINUOUS
 10
51.5
 20
-26.5
 40
1.8
  0
CIRCLE
  5
2E3
100
AcDbEntity
  8
0
100
AcDbCircle
 62
7
  6
CONTINUOUS
 10
51.5
 20
-26.5
 40
1.5
  0
ARC
  5
2E4
100
AcDbEntity
  8
SUPERFICI
100
AcDbCircle
 62
7
  6
CONTINUOUS
 10
61.9999999014
 20
-35.5
 40
6.0
100
AcDbArc
 50
269.999930979
 51
359.99999093
  0
ARC
  5
2E5
100
AcDbEntity
  8
DRAFT
100
AcDbCircle
 62
7
  6
CONTINUOUS
 10
62.0
 20
-35.5
 40
6.0
100
AcDbArc
 50
270.0
 51
360.0
  0
ARC
  5
2E6
100
AcDbEntity
  8
RACCORDO
100
AcDbCircle
 62
250
  6
CONTINUOUS
 10
62.0
 20
-35.5
 40
5.3730280702
100
AcDbArc
 50
270.0
 51
360.0
  0
ARC
  5
2E7
100
AcDbEntity
  8
RACCORDO
100
AcDbCircle
 62
7
  6
CONTINUOUS
 10
62.0
 20
-35.5
 40
4.2757899725
100
AcDbArc
 50
270.0
 51
360.0
  0
ARC
  5
2E8
100
AcDbEntity
  8
DRAFT
100
AcDbCircle
 62
7
  6
CONTINUOUS
 10
62.0
 20
-35.5
 40
4.0
100
AcDbArc
 50
270.0
 51
360.0
  0
ARC
  5
2E9
100
AcDbEntity
  8
DRAFT
100
AcDbCircle
 62
7
  6
CONTINUOUS
 10
62.0
 20
-35.5
 40
1.7757900259
100
AcDbArc
 50
90.0
 51
180.0
  0
ARC
  5
2EA
100
AcDbEntity
  8
DRAFT
100
AcDbCircle
 62
7
  6
CONTINUOUS
 10
62.0
 20
-35.5
 40
1.5
100
AcDbArc
 50
90.0
 51
180.0
  0
ARC
  5
2EB
100
AcDbEntity
  8
RACCORDO
100
AcDbCircle
 62
7
  6
CONTINUOUS
 10
55.0536331356
 20
-40.2502476847
 40
0.6997174148
100
AcDbArc
 50
200.9117873308
 51
270.0183580039
  0
ARC
  5
2EC
100
AcDbEntity
  8
RACCORDO
100
AcDbCircle
 62
250
  6
CONTINUOUS
 10
55.018755111
 20
-40.1733375792
 40
0.6996900918
100
AcDbArc
 50
207.8311372931
 51
270.0199254381
  0
CIRCLE
  5
2ED
100
AcDbEntity
  8
0
100
AcDbCircle
 62
7
  6
CONTINUOUS
 10
-0.0
 20
-0.0
 40
11.25
  0
ARC
  5
2EE
100
AcDbEntity
  8
0
100
AcDbCircle
 62
7
  6
CONTINUOUS
 10
-0.0
 20
-0.0
 40
11.0
100
AcDbArc
 50
185.7391704773
 51
264.2608295227
  0
ARC
  5
2EF
100
AcDbEntity
  8
0
100
AcDbCircle
 62
7
  6
CONTINUOUS
 10
-0.0
 20
-0.0
 40
11.0
100
AcDbArc
 50
275.7391704773
 51
354.2608295227
  0
ARC
  5
2F0
100
AcDbEntity
  8
0
100
AcDbCircle
 62
7
  6
CONTINUOUS
 10
-0.0
 20
-0.0
 40
11.0
100
AcDbArc
 50
95.7391704773
 51
174.2608295227
  0
ARC
  5
2F1
100
AcDbEntity
  8
0
100
AcDbCircle
 62
7
  6
CONTINUOUS
 10
-0.0
 20
-0.0
 40
11.0
100
AcDbArc
 50
5.7391704773
 51
84.2608295227
  0
ARC
  5
2F2
100
AcDbEntity
  8
0
100
AcDbCircle
 62
7
  6
CONTINUOUS
 10
-0.0
 20
-0.0
 40
10.1299689469
100
AcDbArc
 50
6.233965798
 51
83.766034202
  0
ARC
  5
2F3
100
AcDbEntity
  8
0
100
AcDbCircle
 62
7
  6
CONTINUOUS
 10
-0.0
 20
-0.0
 40
10.1299689469
100
AcDbArc
 50
96.233965798
 51
173.766034202
  0
ARC
  5
2F4
100
AcDbEntity
  8
0
100
AcDbCircle
 62
7
  6
CONTINUOUS
 10
-0.0
 20
-0.0
 40
10.1299689469
100
AcDbArc
 50
186.233965798
 51
263.766034202
  0
ARC
  5
2F5
100
AcDbEntity
  8
0
100
AcDbCircle
 62
7
  6
CONTINUOUS
 10
-0.0
 20
-0.0
 40
10.1299689469
100
AcDbArc
 50
276.233965798
 51
353.766034202
  0
ARC
  5
2F6
100
AcDbEntity
  8
0
100
AcDbCircle
 62
7
  6
CONTINUOUS
 10
0.1269813155
 20
29.4845612037
 40
0.8443365909
100
AcDbArc
 50
156.835269279
 51
159.9351169787
  0
ARC
  5
2F7
100
AcDbEntity
  8
0
100
AcDbCircle
 62
7
  6
CONTINUOUS
 10
2.0635649595
 20
28.0404316904
 40
0.8340853967
100
AcDbArc
 50
59.5407239514
 51
64.0902294711
  0
ARC
  5
2F8
100
AcDbEntity
  8
0
100
AcDbCircle
 62
7
  6
CONTINUOUS
 10
2.2839946681
 20
28.3217476249
 40
0.7193011382
100
AcDbArc
 50
65.269520082
 51
69.0659817497
  0
ARC
  5
2F9
100
AcDbEntity
  8
0
100
AcDbCircle
 62
7
  6
CONTINUOUS
 10
0.0155419082
 20
29.5416901972
 40
0.7188831166
100
AcDbArc
 50
141.2956517113
 51
149.2795426611
  0
ARC
  5
2FA
100
AcDbEntity
  8
0
100
AcDbCircle
 62
7
  6
CONTINUOUS
 10
0.0108736878
 20
29.5452344559
 40
0.7130239018
100
AcDbArc
 50
133.4036021137
 51
141.2833437453
  0
ARC
  5
2FB
100
AcDbEntity
  8
0
100
AcDbCircle
 62
7
  6
CONTINUOUS
 10
2.2831645433
 20
28.3415672959
 40
0.7034641683
100
AcDbArc
 50
38.7069185534
 51
46.1679569692
  0
ARC
  5
2FC
100
AcDbEntity
  8
0
100
AcDbCircle
 62
7
  6
CONTINUOUS
 10
2.2940601228
 20
28.343442813
 40
0.6953848249
100
AcDbArc
 50
61.5452341152
 51
65.2749680206
  0
ARC
  5
2FD
100
AcDbEntity
  8
0
100
AcDbCircle
 62
7
  6
CONTINUOUS
 10
2.2902166285
 20
28.2039443948
 40
0.6872456722
100
AcDbArc
 50
328.0124112974
 51
335.6211825135
  0
ARC
  5
2FE
100
AcDbEntity
  8
0
100
AcDbCircle
 62
7
  6
CONTINUOUS
 10
2.0579886478
 20
29.8433197664
 40
0.6872265546
100
AcDbArc
 50
286.3211561176
 51
292.3134120902
  0
ARC
  5
2FF
100
AcDbEntity
  8
0
100
AcDbCircle
 62
7
  6
CONTINUOUS
 10
2.3067387751
 20
28.3659716575
 40
0.6695323752
100
AcDbArc
 50
46.1769128515
 51
61.5805585438
  0
ARC
  5
300
100
AcDbEntity
  8
0
100
AcDbCircle
 62
7
  6
CONTINUOUS
 10
2.558889799
 20
29.0402578154
 40
0.05
100
AcDbArc
 50
118.332200809
 51
249.0297526306
  0
CIRCLE
  5
301
100
AcDbEntity
  8
RACCORDO
100
AcDbCircle
 62
7
  6
CONTINUOUS
 10
45.3
 20
-0.0
 40
4.8
  0
CIRCLE
  5
302
100
AcDbEntity
  8
RACCORDO
100
AcDbCircle
 62
250
  6
CONTINUOUS
 10
45.3
 20
-0.0
 40
4.299992991
  0
CIRCLE
  5
303
100
AcDbEntity
  8
RACCORDO
100
AcDbCircle
 62
7
  6
CONTINUOUS
 10
51.5
 20
26.5
 40
9.5
  0
CIRCLE
  5
304
100
AcDbEntity
  8
RACCORDO
100
AcDbCircle
 62
250
  6
CONTINUOUS
 10
51.5
 20
26.5
 40
8.9999972578
  0
ARC
  5
305
100
AcDbEntity
  8
SUPERFICI
100
AcDbCircle
 62
7
  6
CONTINUOUS
 10
61.9999999015
 20
35.5
 40
6.0
100
AcDbArc
 50
0.0000090697
 51
90.0000690213
  0
ARC
  5
306
100
AcDbEntity
  8
DRAFT
100
AcDbCircle
 62
7
  6
CONTINUOUS
 10
62.0
 20
35.5
 40
6.0
100
AcDbArc
 50
0.0
 51
90.0
  0
ARC
  5
307
100
AcDbEntity
  8
RACCORDO
100
AcDbCircle
 62
250
  6
CONTINUOUS
 10
62.0
 20
35.5
 40
5.3730280702
100
AcDbArc
 50
0.0
 51
90.0
  0
ARC
  5
308
100
AcDbEntity
  8
RACCORDO
100
AcDbCircle
 62
7
  6
CONTINUOUS
 10
62.0
 20
35.5
 40
4.2757899725
100
AcDbArc
 50
0.0
 51
90.0
  0
ARC
  5
309
100
AcDbEntity
  8
DRAFT
100
AcDbCircle
 62
7
  6
CONTINUOUS
 10
62.0
 20
35.5
 40
4.0
100
AcDbArc
 50
0.0
 51
90.0
  0
CIRCLE
  5
30A
100
AcDbEntity
  8
0
100
AcDbCircle
 62
7
  6
CONTINUOUS
 10
51.5
 20
26.5
 40
2.25
  0
CIRCLE
  5
30B
100
AcDbEntity
  8
0
100
AcDbCircle
 62
7
  6
CONTINUOUS
 10
51.5
 20
26.5
 40
1.8
  0
ARC
  5
30C
100
AcDbEntity
  8
DRAFT
100
AcDbCircle
 62
7
  6
CONTINUOUS
 10
62.0
 20
35.5
 40
1.7757900259
100
AcDbArc
 50
180.0
 51
270.0
  0
CIRCLE
  5
30D
100
AcDbEntity
  8
0
100
AcDbCircle
 62
7
  6
CONTINUOUS
 10
51.5
 20
26.5
 40
1.5
  0
ARC
  5
30E
100
AcDbEntity
  8
DRAFT
100
AcDbCircle
 62
7
  6
CONTINUOUS
 10
62.0
 20
35.5
 40
1.5
100
AcDbArc
 50
180.0
 51
270.0
  0
ARC
  5
30F
100
AcDbEntity
  8
RACCORDO
100
AcDbCircle
 62
250
  6
CONTINUOUS
 10
67.7004902436
 20
29.3986828983
 40
0.7014433994
100
AcDbArc
 50
110.92680287
 51
117.8293996888
  0
ARC
  5
310
100
AcDbEntity
  8
RACCORDO
100
AcDbCircle
 62
250
  6
CONTINUOUS
 10
67.7004902166
 20
23.6013170422
 40
0.7014433341
100
AcDbArc
 50
242.1705999898
 51
249.0731974514
  0
ARC
  5
311
100
AcDbEntity
  8
RACCORDO
100
AcDbCircle
 62
7
  6
CONTINUOUS
 10
66.7502476847
 20
30.0536331356
 40
0.6997174148
100
AcDbArc
 50
290.9117873308
 51
0.0183580039
  0
ARC
  5
312
100
AcDbEntity
  8
RACCORDO
100
AcDbCircle
 62
7
  6
CONTINUOUS
 10
66.7502476783
 20
22.9463867654
 40
0.6997045681
100
AcDbArc
 50
359.9800120142
 51
69.0876304476
  0
ARC
  5
313
100
AcDbEntity
  8
RACCORDO
100
AcDbCircle
 62
250
  6
CONTINUOUS
 10
66.6733375792
 20
30.018755111
 40
0.6996900918
100
AcDbArc
 50
297.8311372931
 51
0.0199254381
  0
ARC
  5
314
100
AcDbEntity
  8
RACCORDO
100
AcDbCircle
 62
250
  6
CONTINUOUS
 10
66.6733400233
 20
22.9812504156
 40
0.6996840634
100
AcDbArc
 50
359.9796218312
 51
62.1688284098
  0
SPLINE
  5
315
100
AcDbEntity
  8
ASSI
100
AcDbSpline
 62
7
  6
CONTINUOUS
 70
0
 71
3
 72
26
 73
22
 74
0
 42
0.0000001
 43
0.0000001
 44
0.0000000001
 40
0.0
 40
0.0
 40
0.0
 40
0.0
 40
0.1949497304
 40
0.382410002
 40
0.4710568578
 40
0.5551795783
 40
0.6339507861
 40
0.7066223853
 40
0.7724874015
 40
0.8309237904
 40
0.8813570041
 40
0.9233168804
 40
0.9409845523
 40
0.9563895715
 40
0.9694986943
 40
0.9802794354
 40
0.9887047219
 40
0.9947667445
 40
0.9984761369
 40
0.999476357
 40
1.0
 40
1.0
 40
1.0
 40
1.0
 10
-0.0
 20
-40.9152858976
 30
0.0
 10
0.7478473392
 20
-40.9152858976
 30
0.0
 10
2.2148127993
 20
-40.917762779
 30
0.0
 10
4.0218159066
 20
-40.9271227224
 30
0.0
 10
5.4036492665
 20
-40.9384618564
 30
0.0
 10
6.3685345397
 20
-40.9484870112
 30
0.0
 10
7.2721146931
 20
-40.9600991979
 30
0.0
 10
8.1056288841
 20
-40.973166456
 30
0.0
 10
8.8611021948
 20
-40.9875665339
 30
0.0
 10
9.5312242756
 20
-41.0031196283
 30
0.0
 10
10.1095883425
 20
-41.0196809174
 30
0.0
 10
10.5315259896
 20
-41.0348323969
 30
0.0
 10
10.8190754306
 20
-41.0477191535
 30
0.0
 10
10.9959867915
 20
-41.0569534564
 30
0.0
 10
11.1464632475
 20
-41.066299601
 30
0.0
 10
11.2700131863
 20
-41.075641317
 30
0.0
 10
11.3666700575
 20
-41.0850803232
 30
0.0
 10
11.4355135011
 20
-41.0940178622
 30
0.0
 10
11.4767397208
 20
-41.1025821576
 30
0.0
 10
11.495003038
 20
-41.1092587282
 30
0.0
 10
11.5
 20
-41.1139798227
 30
0.0
 10
11.5
 20
-41.1159885716
 30
0.0
  0
SPLINE
  5
316
100
AcDbEntity
  8
ASSI
100
AcDbSpline
 62
7
  6
CONTINUOUS
 70
0
 71
3
 72
26
 73
22
 74
0
 42
0.0000001
 43
0.0000001
 44
0.0000000001
 40
0.0
 40
0.0
 40
0.0
 40
0.0
 40
0.1949497304
 40
0.382410002
 40
0.4710568578
 40
0.5551795783
 40
0.6339507861
 40
0.7066223853
 40
0.7724874015
 40
0.8309237904
 40
0.8813570041
 40
0.9233168804
 40
0.9409845523
 40
0.9563895715
 40
0.9694986943
 40
0.9802794354
 40
0.9887047219
 40
0.9947667445
 40
0.9984761369
 40
0.999476357
 40
1.0
 40
1.0
 40
1.0
 40
1.0
 10
34.0
 20
-40.9152858976
 30
0.0
 10
34.7478473392
 20
-40.9152858976
 30
0.0
 10
36.2148127993
 20
-40.917762779
 30
0.0
 10
38.0218159066
 20
-40.9271227224
 30
0.0
 10
39.4036492665
 20
-40.9384618564
 30
0.0
 10
40.3685345397
 20
-40.9484870112
 30
0.0
 10
41.2721146931
 20
-40.9600991979
 30
0.0
 10
42.1056288841
 20
-40.973166456
 30
0.0
 10
42.8611021948
 20
-40.9875665339
 30
0.0
 10
43.5312242756
 20
-41.0031196283
 30
0.0
 10
44.1095883425
 20
-41.0196809174
 30
0.0
 10
44.5315259896
 20
-41.0348323969
 30
0.0
 10
44.8190754306
 20
-41.0477191535
 30
0.0
 10
44.9959867915
 20
-41.0569534564
 30
0.0
 10
45.1464632475
 20
-41.066299601
 30
0.0
 10
45.2700131863
 20
-41.075641317
 30
0.0
 10
45.3666700575
 20
-41.0850803232
 30
0.0
 10
45.4355135011
 20
-41.0940178622
 30
0.0
 10
45.4767397208
 20
-41.1025821576
 30
0.0
 10
45.495003038
 20
-41.1092587282
 30
0.0
 10
45.5
 20
-41.1139798227
 30
0.0
 10
45.5
 20
-41.1159885716
 30
0.0
  0
SPLINE
  5
317
100
AcDbEntity
  8
ASSI
100
AcDbSpline
 62
7
  6
CONTINUOUS
 70
0
 71
3
 72
26
 73
22
 74
0
 42
0.0000001
 43
0.0000001
 44
0.0000000001
 40
0.0
 40
0.0
 40
0.0
 40
0.0
 40
0.1949497304
 40
0.382410002
 40
0.4710568578
 40
0.5551795783
 40
0.6339507861
 40
0.7066223853
 40
0.7724874015
 40
0.8309237904
 40
0.8813570041
 40
0.9233168804
 40
0.9409845523
 40
0.9563895715
 40
0.9694986943
 40
0.9802794354
 40
0.9887047219
 40
0.9947667445
 40
0.9984761369
 40
0.999476357
 40
1.0
 40
1.0
 40
1.0
 40
1.0
 10
-34.0
 20
-40.9152858976
 30
0.0
 10
-33.2521526608
 20
-40.9152858976
 30
0.0
 10
-31.7851872007
 20
-40.917762779
 30
0.0
 10
-29.9781840934
 20
-40.9271227224
 30
0.0
 10
-28.5963507335
 20
-40.9384618564
 30
0.0
 10
-27.6314654603
 20
-40.9484870112
 30
0.0
 10
-26.7278853069
 20
-40.9600991979
 30
0.0
 10
-25.8943711159
 20
-40.973166456
 30
0.0
 10
-25.1388978052
 20
-40.9875665339
 30
0.0
 10
-24.4687757244
 20
-41.0031196283
 30
0.0
 10
-23.8904116575
 20
-41.0196809174
 30
0.0
 10
-23.4684740104
 20
-41.0348323969
 30
0.0
 10
-23.1809245694
 20
-41.0477191535
 30
0.0
 10
-23.0040132085
 20
-41.0569534564
 30
0.0
 10
-22.8535367525
 20
-41.066299601
 30
0.0
 10
-22.7299868137
 20
-41.075641317
 30
0.0
 10
-22.6333299425
 20
-41.0850803232
 30
0.0
 10
-22.5644864989
 20
-41.0940178622
 30
0.0
 10
-22.5232602792
 20
-41.1025821576
 30
0.0
 10
-22.504996962
 20
-41.1092587282
 30
0.0
 10
-22.5
 20
-41.1139798227
 30
0.0
 10
-22.5
 20
-41.1159885716
 30
0.0
  0
SPLINE
  5
318
100
AcDbEntity
  8
0
100
AcDbSpline
 62
7
  6
CONTINUOUS
 70
0
 71
3
 72
26
 73
22
 74
0
 42
0.0000001
 43
0.0000001
 44
0.0000000001
 40
0.0
 40
0.0
 40
0.0
 40
0.0
 40
0.1949497304
 40
0.382410002
 40
0.4710568578
 40
0.5551795783
 40
0.6339507861
 40
0.7066223853
 40
0.7724874015
 40
0.8309237904
 40
0.8813570041
 40
0.9233168804
 40
0.9409845523
 40
0.9563895715
 40
0.9694986943
 40
0.9802794354
 40
0.9887047219
 40
0.9947667445
 40
0.9984761369
 40
0.999476357
 40
1.0
 40
1.0
 40
1.0
 40
1.0
 10
-67.4152858976
 20
-0.0
 30
0.0
 10
-67.4152858976
 20
0.7478473392
 30
0.0
 10
-67.417762779
 20
2.2148127993
 30
0.0
 10
-67.4271227224
 20
4.0218159066
 30
0.0
 10
-67.4384618564
 20
5.4036492665
 30
0.0
 10
-67.4484870112
 20
6.3685345397
 30
0.0
 10
-67.4600991979
 20
7.2721146931
 30
0.0
 10
-67.473166456
 20
8.1056288841
 30
0.0
 10
-67.4875665339
 20
8.8611021948
 30
0.0
 10
-67.5031196283
 20
9.5312242756
 30
0.0
 10
-67.5196809174
 20
10.1095883425
 30
0.0
 10
-67.5348323969
 20
10.5315259896
 30
0.0
 10
-67.5477191535
 20
10.8190754305
 30
0.0
 10
-67.5569534564
 20
10.9959867915
 30
0.0
 10
-67.566299601
 20
11.1464632475
 30
0.0
 10
-67.575641317
 20
11.2700131863
 30
0.0
 10
-67.5850803232
 20
11.3666700575
 30
0.0
 10
-67.5940178622
 20
11.4355135011
 30
0.0
 10
-67.6025821576
 20
11.4767397208
 30
0.0
 10
-67.6092587282
 20
11.495003038
 30
0.0
 10
-67.6139798227
 20
11.5
 30
0.0
 10
-67.6159885716
 20
11.5
 30
0.0
  0
SPLINE
  5
319
100
AcDbEntity
  8
0
100
AcDbSpline
 62
7
  6
CONTINUOUS
 70
0
 71
3
 72
26
 73
22
 74
0
 42
0.0000001
 43
0.0000001
 44
0.0000000001
 40
0.0
 40
0.0
 40
0.0
 40
0.0
 40
0.1949497304
 40
0.382410002
 40
0.4710568578
 40
0.5551795783
 40
0.6339507861
 40
0.7066223853
 40
0.7724874015
 40
0.8309237904
 40
0.8813570041
 40
0.9233168804
 40
0.9409845523
 40
0.9563895715
 40
0.9694986943
 40
0.9802794354
 40
0.9887047219
 40
0.9947667445
 40
0.9984761369
 40
0.999476357
 40
1.0
 40
1.0
 40
1.0
 40
1.0
 10
-0.0
 20
40.9152858975
 30
0.0
 10
0.7478473392
 20
40.9152858975
 30
0.0
 10
2.2148127993
 20
40.917762779
 30
0.0
 10
4.0218159066
 20
40.9271227224
 30
0.0
 10
5.4036492665
 20
40.9384618564
 30
0.0
 10
6.3685345397
 20
40.9484870112
 30
0.0
 10
7.2721146931
 20
40.9600991979
 30
0.0
 10
8.1056288841
 20
40.973166456
 30
0.0
 10
8.8611021948
 20
40.9875665338
 30
0.0
 10
9.5312242756
 20
41.0031196283
 30
0.0
 10
10.1095883425
 20
41.0196809174
 30
0.0
 10
10.5315259896
 20
41.0348323969
 30
0.0
 10
10.8190754306
 20
41.0477191535
 30
0.0
 10
10.9959867915
 20
41.0569534564
 30
0.0
 10
11.1464632475
 20
41.066299601
 30
0.0
 10
11.2700131863
 20
41.075641317
 30
0.0
 10
11.3666700575
 20
41.0850803232
 30
0.0
 10
11.4355135011
 20
41.0940178622
 30
0.0
 10
11.4767397208
 20
41.1025821576
 30
0.0
 10
11.495003038
 20
41.1092587282
 30
0.0
 10
11.5
 20
41.1139798227
 30
0.0
 10
11.5
 20
41.1159885716
 30
0.0
  0
SPLINE
  5
31A
100
AcDbEntity
  8
0
100
AcDbSpline
 62
7
  6
CONTINUOUS
 70
0
 71
3
 72
26
 73
22
 74
0
 42
0.0000001
 43
0.0000001
 44
0.0000000001
 40
0.0
 40
0.0
 40
0.0
 40
0.0
 40
0.1949497304
 40
0.382410002
 40
0.4710568578
 40
0.5551795783
 40
0.6339507861
 40
0.7066223853
 40
0.7724874015
 40
0.8309237904
 40
0.8813570041
 40
0.9233168804
 40
0.9409845523
 40
0.9563895715
 40
0.9694986943
 40
0.9802794354
 40
0.9887047219
 40
0.9947667445
 40
0.9984761369
 40
0.999476357
 40
1.0
 40
1.0
 40
1.0
 40
1.0
 10
34.0
 20
40.9152858975
 30
0.0
 10
34.7478473392
 20
40.9152858975
 30
0.0
 10
36.2148127993
 20
40.917762779
 30
0.0
 10
38.0218159066
 20
40.9271227224
 30
0.0
 10
39.4036492665
 20
40.9384618564
 30
0.0
 10
40.3685345397
 20
40.9484870112
 30
0.0
 10
41.2721146931
 20
40.9600991979
 30
0.0
 10
42.1056288841
 20
40.973166456
 30
0.0
 10
42.8611021948
 20
40.9875665338
 30
0.0
 10
43.5312242756
 20
41.0031196283
 30
0.0
 10
44.1095883425
 20
41.0196809174
 30
0.0
 10
44.5315259896
 20
41.0348323969
 30
0.0
 10
44.8190754306
 20
41.0477191535
 30
0.0
 10
44.9959867915
 20
41.0569534564
 30
0.0
 10
45.1464632475
 20
41.066299601
 30
0.0
 10
45.2700131863
 20
41.075641317
 30
0.0
 10
45.3666700575
 20
41.0850803232
 30
0.0
 10
45.4355135011
 20
41.0940178622
 30
0.0
 10
45.4767397208
 20
41.1025821576
 30
0.0
 10
45.495003038
 20
41.1092587282
 30
0.0
 10
45.5
 20
41.1139798227
 30
0.0
 10
45.5
 20
41.1159885716
 30
0.0
  0
SPLINE
  5
31B
100
AcDbEntity
  8
0
100
AcDbSpline
 62
7
  6
CONTINUOUS
 70
0
 71
3
 72
26
 73
22
 74
0
 42
0.0000001
 43
0.0000001
 44
0.0000000001
 40
0.0
 40
0.0
 40
0.0
 40
0.0
 40
0.1949497304
 40
0.382410002
 40
0.4710568578
 40
0.5551795783
 40
0.6339507861
 40
0.7066223853
 40
0.7724874015
 40
0.8309237904
 40
0.8813570041
 40
0.9233168804
 40
0.9409845523
 40
0.9563895715
 40
0.9694986943
 40
0.9802794354
 40
0.9887047219
 40
0.9947667445
 40
0.9984761369
 40
0.999476357
 40
1.0
 40
1.0
 40
1.0
 40
1.0
 10
-34.0
 20
40.9152858975
 30
0.0
 10
-33.2521526608
 20
40.9152858975
 30
0.0
 10
-31.7851872007
 20
40.917762779
 30
0.0
 10
-29.9781840934
 20
40.9271227224
 30
0.0
 10
-28.5963507335
 20
40.9384618564
 30
0.0
 10
-27.6314654603
 20
40.9484870112
 30
0.0
 10
-26.7278853069
 20
40.9600991979
 30
0.0
 10
-25.8943711159
 20
40.973166456
 30
0.0
 10
-25.1388978052
 20
40.9875665338
 30
0.0
 10
-24.4687757244
 20
41.0031196283
 30
0.0
 10
-23.8904116575
 20
41.0196809174
 30
0.0
 10
-23.4684740104
 20
41.0348323969
 30
0.0
 10
-23.1809245694
 20
41.0477191535
 30
0.0
 10
-23.0040132085
 20
41.0569534564
 30
0.0
 10
-22.8535367525
 20
41.066299601
 30
0.0
 10
-22.7299868137
 20
41.075641317
 30
0.0
 10
-22.6333299425
 20
41.0850803232
 30
0.0
 10
-22.5644864989
 20
41.0940178622
 30
0.0
 10
-22.5232602792
 20
41.1025821576
 30
0.0
 10
-22.504996962
 20
41.1092587282
 30
0.0
 10
-22.5
 20
41.1139798227
 30
0.0
 10
-22.5
 20
41.1159885716
 30
0.0
  0
SPLINE
  5
31C
100
AcDbEntity
  8
ASSI
100
AcDbSpline
 62
7
  6
CONTINUOUS
 70
0
 71
3
 72
26
 73
22
 74
0
 42
0.0000001
 43
0.0000001
 44
0.0000000001
 40
0.0
 40
0.0
 40
0.0
 40
0.0
 40
0.1949497304
 40
0.382410002
 40
0.4710568578
 40
0.5551795783
 40
0.6339507861
 40
0.7066223853
 40
0.7724874015
 40
0.8309237904
 40
0.8813570041
 40
0.9233168804
 40
0.9409845523
 40
0.9563895715
 40
0.9694986943
 40
0.9802794354
 40
0.9887047219
 40
0.9947667445
 40
0.9984761369
 40
0.999476357
 40
1.0
 40
1.0
 40
1.0
 40
1.0
 10
67.4152858976
 20
-0.0
 30
0.0
 10
67.4152858976
 20
0.7478473392
 30
0.0
 10
67.417762779
 20
2.2148127993
 30
0.0
 10
67.4271227224
 20
4.0218159066
 30
0.0
 10
67.4384618564
 20
5.4036492665
 30
0.0
 10
67.4484870112
 20
6.3685345397
 30
0.0
 10
67.4600991979
 20
7.2721146931
 30
0.0
 10
67.473166456
 20
8.1056288841
 30
0.0
 10
67.4875665339
 20
8.8611021948
 30
0.0
 10
67.5031196283
 20
9.5312242756
 30
0.0
 10
67.5196809174
 20
10.1095883425
 30
0.0
 10
67.5348323969
 20
10.5315259896
 30
0.0
 10
67.5477191535
 20
10.8190754305
 30
0.0
 10
67.5569534564
 20
10.9959867915
 30
0.0
 10
67.566299601
 20
11.1464632475
 30
0.0
 10
67.575641317
 20
11.2700131863
 30
0.0
 10
67.5850803232
 20
11.3666700575
 30
0.0
 10
67.5940178622
 20
11.4355135011
 30
0.0
 10
67.6025821576
 20
11.4767397208
 30
0.0
 10
67.6092587282
 20
11.495003038
 30
0.0
 10
67.6139798227
 20
11.5
 30
0.0
 10
67.6159885716
 20
11.5
 30
0.0
  0
SPLINE
  5
31D
100
AcDbEntity
  8
ASSI
100
AcDbSpline
 62
7
  6
CONTINUOUS
 70
0
 71
3
 72
26
 73
22
 74
0
 42
0.0000001
 43
0.0000001
 44
0.0000000001
 40
0.0
 40
0.0
 40
0.0
 40
0.0
 40
0.000523643
 40
0.0015238631
 40
0.0052332555
 40
0.0112952781
 40
0.0197205646
 40
0.0305013057
 40
0.0436104285
 40
0.0590154477
 40
0.0766831196
 40
0.1186429959
 40
0.1690762096
 40
0.2275125985
 40
0.2933776147
 40
0.3660492139
 40
0.4448204217
 40
0.5289431422
 40
0.617589998
 40
0.8050502696
 40
1.0
 40
1.0
 40
1.0
 40
1.0
 10
67.6159885716
 20
-11.5
 30
0.0
 10
67.6139798227
 20
-11.5
 30
0.0
 10
67.6092587282
 20
-11.495003038
 30
0.0
 10
67.6025821576
 20
-11.4767397208
 30
0.0
 10
67.5940178622
 20
-11.4355135011
 30
0.0
 10
67.5850803232
 20
-11.3666700575
 30
0.0
 10
67.575641317
 20
-11.2700131863
 30
0.0
 10
67.566299601
 20
-11.1464632475
 30
0.0
 10
67.5569534564
 20
-10.9959867915
 30
0.0
 10
67.5477191535
 20
-10.8190754306
 30
0.0
 10
67.5348323969
 20
-10.5315259896
 30
0.0
 10
67.5196809174
 20
-10.1095883425
 30
0.0
 10
67.5031196283
 20
-9.5312242756
 30
0.0
 10
67.4875665339
 20
-8.8611021948
 30
0.0
 10
67.473166456
 20
-8.1056288841
 30
0.0
 10
67.4600991979
 20
-7.2721146931
 30
0.0
 10
67.4484870112
 20
-6.3685345397
 30
0.0
 10
67.4384618564
 20
-5.4036492665
 30
0.0
 10
67.4271227224
 20
-4.0218159066
 30
0.0
 10
67.417762779
 20
-2.2148127993
 30
0.0
 10
67.4152858976
 20
-0.7478473392
 30
0.0
 10
67.4152858976
 20
-0.0
 30
0.0
  0
SPLINE
  5
31E
100
AcDbEntity
  8
0
100
AcDbSpline
 62
7
  6
CONTINUOUS
 70
0
 71
3
 72
26
 73
22
 74
0
 42
0.0000001
 43
0.0000001
 44
0.0000000001
 40
0.0
 40
0.0
 40
0.0
 40
0.0
 40
0.000523643
 40
0.0015238631
 40
0.0052332555
 40
0.0112952781
 40
0.0197205646
 40
0.0305013057
 40
0.0436104285
 40
0.0590154477
 40
0.0766831196
 40
0.1186429959
 40
0.1690762096
 40
0.2275125985
 40
0.2933776147
 40
0.3660492139
 40
0.4448204217
 40
0.5289431422
 40
0.617589998
 40
0.8050502696
 40
1.0
 40
1.0
 40
1.0
 40
1.0
 10
-67.6159885716
 20
-11.5
 30
0.0
 10
-67.6139798227
 20
-11.5
 30
0.0
 10
-67.6092587282
 20
-11.495003038
 30
0.0
 10
-67.6025821576
 20
-11.4767397208
 30
0.0
 10
-67.5940178622
 20
-11.4355135011
 30
0.0
 10
-67.5850803232
 20
-11.3666700575
 30
0.0
 10
-67.575641317
 20
-11.2700131863
 30
0.0
 10
-67.566299601
 20
-11.1464632475
 30
0.0
 10
-67.5569534564
 20
-10.9959867915
 30
0.0
 10
-67.5477191535
 20
-10.8190754306
 30
0.0
 10
-67.5348323969
 20
-10.5315259896
 30
0.0
 10
-67.5196809174
 20
-10.1095883425
 30
0.0
 10
-67.5031196283
 20
-9.5312242756
 30
0.0
 10
-67.4875665339
 20
-8.8611021948
 30
0.0
 10
-67.473166456
 20
-8.1056288841
 30
0.0
 10
-67.4600991979
 20
-7.2721146931
 30
0.0
 10
-67.4484870112
 20
-6.3685345397
 30
0.0
 10
-67.4384618564
 20
-5.4036492665
 30
0.0
 10
-67.4271227224
 20
-4.0218159066
 30
0.0
 10
-67.417762779
 20
-2.2148127993
 30
0.0
 10
-67.4152858976
 20
-0.7478473392
 30
0.0
 10
-67.4152858976
 20
-0.0
 30
0.0
  0
SPLINE
  5
31F
100
AcDbEntity
  8
ASSI
100
AcDbSpline
 62
7
  6
CONTINUOUS
 70
0
 71
3
 72
26
 73
22
 74
0
 42
0.0000001
 43
0.0000001
 44
0.0000000001
 40
0.0
 40
0.0
 40
0.0
 40
0.0
 40
0.000523643
 40
0.0015238631
 40
0.0052332555
 40
0.0112952781
 40
0.0197205646
 40
0.0305013057
 40
0.0436104285
 40
0.0590154477
 40
0.0766831196
 40
0.1186429959
 40
0.1690762096
 40
0.2275125985
 40
0.2933776147
 40
0.3660492139
 40
0.4448204217
 40
0.5289431422
 40
0.617589998
 40
0.8050502696
 40
1.0
 40
1.0
 40
1.0
 40
1.0
 10
-45.5
 20
-41.1159885716
 30
0.0
 10
-45.5
 20
-41.1139798227
 30
0.0
 10
-45.495003038
 20
-41.1092587282
 30
0.0
 10
-45.4767397208
 20
-41.1025821576
 30
0.0
 10
-45.4355135011
 20
-41.0940178622
 30
0.0
 10
-45.3666700575
 20
-41.0850803232
 30
0.0
 10
-45.2700131863
 20
-41.075641317
 30
0.0
 10
-45.1464632475
 20
-41.066299601
 30
0.0
 10
-44.9959867915
 20
-41.0569534564
 30
0.0
 10
-44.8190754306
 20
-41.0477191535
 30
0.0
 10
-44.5315259896
 20
-41.0348323969
 30
0.0
 10
-44.1095883425
 20
-41.0196809174
 30
0.0
 10
-43.5312242756
 20
-41.0031196283
 30
0.0
 10
-42.8611021948
 20
-40.9875665339
 30
0.0
 10
-42.1056288841
 20
-40.973166456
 30
0.0
 10
-41.2721146931
 20
-40.9600991979
 30
0.0
 10
-40.3685345397
 20
-40.9484870112
 30
0.0
 10
-39.4036492665
 20
-40.9384618564
 30
0.0
 10
-38.0218159066
 20
-40.9271227224
 30
0.0
 10
-36.2148127993
 20
-40.917762779
 30
0.0
 10
-34.7478473392
 20
-40.9152858976
 30
0.0
 10
-34.0
 20
-40.9152858976
 30
0.0
  0
SPLINE
  5
320
100
AcDbEntity
  8
0
100
AcDbSpline
 62
7
  6
CONTINUOUS
 70
0
 71
3
 72
26
 73
22
 74
0
 42
0.0000001
 43
0.0000001
 44
0.0000000001
 40
0.0
 40
0.0
 40
0.0
 40
0.0
 40
0.000523643
 40
0.0015238631
 40
0.0052332555
 40
0.0112952781
 40
0.0197205646
 40
0.0305013057
 40
0.0436104285
 40
0.0590154477
 40
0.0766831196
 40
0.1186429959
 40
0.1690762096
 40
0.2275125985
 40
0.2933776147
 40
0.3660492139
 40
0.4448204217
 40
0.5289431422
 40
0.617589998
 40
0.8050502696
 40
1.0
 40
1.0
 40
1.0
 40
1.0
 10
-45.5
 20
41.1159885716
 30
0.0
 10
-45.5
 20
41.1139798227
 30
0.0
 10
-45.495003038
 20
41.1092587282
 30
0.0
 10
-45.4767397208
 20
41.1025821576
 30
0.0
 10
-45.4355135011
 20
41.0940178622
 30
0.0
 10
-45.3666700575
 20
41.0850803232
 30
0.0
 10
-45.2700131863
 20
41.075641317
 30
0.0
 10
-45.1464632475
 20
41.066299601
 30
0.0
 10
-44.9959867915
 20
41.0569534564
 30
0.0
 10
-44.8190754306
 20
41.0477191535
 30
0.0
 10
-44.5315259896
 20
41.0348323969
 30
0.0
 10
-44.1095883425
 20
41.0196809174
 30
0.0
 10
-43.5312242756
 20
41.0031196283
 30
0.0
 10
-42.8611021948
 20
40.9875665338
 30
0.0
 10
-42.1056288841
 20
40.973166456
 30
0.0
 10
-41.2721146931
 20
40.9600991979
 30
0.0
 10
-40.3685345397
 20
40.9484870112
 30
0.0
 10
-39.4036492665
 20
40.9384618564
 30
0.0
 10
-38.0218159066
 20
40.9271227224
 30
0.0
 10
-36.2148127993
 20
40.917762779
 30
0.0
 10
-34.7478473392
 20
40.9152858975
 30
0.0
 10
-34.0
 20
40.9152858975
 30
0.0
  0
SPLINE
  5
321
100
AcDbEntity
  8
ASSI
100
AcDbSpline
 62
7
  6
CONTINUOUS
 70
0
 71
3
 72
26
 73
22
 74
0
 42
0.0000001
 43
0.0000001
 44
0.0000000001
 40
0.0
 40
0.0
 40
0.0
 40
0.0
 40
0.000523643
 40
0.0015238631
 40
0.0052332555
 40
0.0112952781
 40
0.0197205646
 40
0.0305013057
 40
0.0436104285
 40
0.0590154477
 40
0.0766831196
 40
0.1186429959
 40
0.1690762096
 40
0.2275125985
 40
0.2933776147
 40
0.3660492139
 40
0.4448204217
 40
0.5289431422
 40
0.617589998
 40
0.8050502696
 40
1.0
 40
1.0
 40
1.0
 40
1.0
 10
22.5
 20
-41.1159885716
 30
0.0
 10
22.5
 20
-41.1139798227
 30
0.0
 10
22.504996962
 20
-41.1092587282
 30
0.0
 10
22.5232602792
 20
-41.1025821576
 30
0.0
 10
22.5644864989
 20
-41.0940178622
 30
0.0
 10
22.6333299425
 20
-41.0850803232
 30
0.0
 10
22.7299868137
 20
-41.075641317
 30
0.0
 10
22.8535367525
 20
-41.066299601
 30
0.0
 10
23.0040132085
 20
-41.0569534564
 30
0.0
 10
23.1809245694
 20
-41.0477191535
 30
0.0
 10
23.4684740104
 20
-41.0348323969
 30
0.0
 10
23.8904116575
 20
-41.0196809174
 30
0.0
 10
24.4687757244
 20
-41.0031196283
 30
0.0
 10
25.1388978052
 20
-40.9875665339
 30
0.0
 10
25.8943711159
 20
-40.973166456
 30
0.0
 10
26.7278853069
 20
-40.9600991979
 30
0.0
 10
27.6314654603
 20
-40.9484870112
 30
0.0
 10
28.5963507335
 20
-40.9384618564
 30
0.0
 10
29.9781840934
 20
-40.9271227224
 30
0.0
 10
31.7851872007
 20
-40.917762779
 30
0.0
 10
33.2521526608
 20
-40.9152858976
 30
0.0
 10
34.0
 20
-40.9152858976
 30
0.0
  0
SPLINE
  5
322
100
AcDbEntity
  8
0
100
AcDbSpline
 62
7
  6
CONTINUOUS
 70
0
 71
3
 72
26
 73
22
 74
0
 42
0.0000001
 43
0.0000001
 44
0.0000000001
 40
0.0
 40
0.0
 40
0.0
 40
0.0
 40
0.000523643
 40
0.0015238631
 40
0.0052332555
 40
0.0112952781
 40
0.0197205646
 40
0.0305013057
 40
0.0436104285
 40
0.0590154477
 40
0.0766831196
 40
0.1186429959
 40
0.1690762096
 40
0.2275125985
 40
0.2933776147
 40
0.3660492139
 40
0.4448204217
 40
0.5289431422
 40
0.617589998
 40
0.8050502696
 40
1.0
 40
1.0
 40
1.0
 40
1.0
 10
22.5
 20
41.1159885716
 30
0.0
 10
22.5
 20
41.1139798227
 30
0.0
 10
22.504996962
 20
41.1092587282
 30
0.0
 10
22.5232602792
 20
41.1025821576
 30
0.0
 10
22.5644864989
 20
41.0940178622
 30
0.0
 10
22.6333299425
 20
41.0850803232
 30
0.0
 10
22.7299868137
 20
41.075641317
 30
0.0
 10
22.8535367525
 20
41.066299601
 30
0.0
 10
23.0040132085
 20
41.0569534564
 30
0.0
 10
23.1809245694
 20
41.0477191535
 30
0.0
 10
23.4684740104
 20
41.0348323969
 30
0.0
 10
23.8904116575
 20
41.0196809174
 30
0.0
 10
24.4687757244
 20
41.0031196283
 30
0.0
 10
25.1388978052
 20
40.9875665338
 30
0.0
 10
25.8943711159
 20
40.973166456
 30
0.0
 10
26.7278853069
 20
40.9600991979
 30
0.0
 10
27.6314654603
 20
40.9484870112
 30
0.0
 10
28.5963507335
 20
40.9384618564
 30
0.0
 10
29.9781840934
 20
40.9271227224
 30
0.0
 10
31.7851872007
 20
40.917762779
 30
0.0
 10
33.2521526608
 20
40.9152858975
 30
0.0
 10
34.0
 20
40.9152858975
 30
0.0
  0
SPLINE
  5
323
100
AcDbEntity
  8
ASSI
100
AcDbSpline
 62
7
  6
CONTINUOUS
 70
0
 71
3
 72
26
 73
22
 74
0
 42
0.0000001
 43
0.0000001
 44
0.0000000001
 40
0.0
 40
0.0
 40
0.0
 40
0.0
 40
0.000523643
 40
0.0015238631
 40
0.0052332555
 40
0.0112952781
 40
0.0197205646
 40
0.0305013057
 40
0.0436104285
 40
0.0590154477
 40
0.0766831196
 40
0.1186429959
 40
0.1690762096
 40
0.2275125985
 40
0.2933776147
 40
0.3660492139
 40
0.4448204217
 40
0.5289431422
 40
0.617589998
 40
0.8050502696
 40
1.0
 40
1.0
 40
1.0
 40
1.0
 10
-11.5
 20
-41.1159885716
 30
0.0
 10
-11.5
 20
-41.1139798227
 30
0.0
 10
-11.495003038
 20
-41.1092587282
 30
0.0
 10
-11.4767397208
 20
-41.1025821576
 30
0.0
 10
-11.4355135011
 20
-41.0940178622
 30
0.0
 10
-11.3666700575
 20
-41.0850803232
 30
0.0
 10
-11.2700131863
 20
-41.075641317
 30
0.0
 10
-11.1464632475
 20
-41.066299601
 30
0.0
 10
-10.9959867915
 20
-41.0569534564
 30
0.0
 10
-10.8190754306
 20
-41.0477191535
 30
0.0
 10
-10.5315259896
 20
-41.0348323969
 30
0.0
 10
-10.1095883425
 20
-41.0196809174
 30
0.0
 10
-9.5312242756
 20
-41.0031196283
 30
0.0
 10
-8.8611021948
 20
-40.9875665339
 30
0.0
 10
-8.1056288841
 20
-40.973166456
 30
0.0
 10
-7.2721146931
 20
-40.9600991979
 30
0.0
 10
-6.3685345397
 20
-40.9484870112
 30
0.0
 10
-5.4036492665
 20
-40.9384618564
 30
0.0
 10
-4.0218159066
 20
-40.9271227224
 30
0.0
 10
-2.2148127993
 20
-40.917762779
 30
0.0
 10
-0.7478473392
 20
-40.9152858976
 30
0.0
 10
-0.0
 20
-40.9152858976
 30
0.0
  0
SPLINE
  5
324
100
AcDbEntity
  8
0
100
AcDbSpline
 62
7
  6
CONTINUOUS
 70
0
 71
3
 72
26
 73
22
 74
0
 42
0.0000001
 43
0.0000001
 44
0.0000000001
 40
0.0
 40
0.0
 40
0.0
 40
0.0
 40
0.000523643
 40
0.0015238631
 40
0.0052332555
 40
0.0112952781
 40
0.0197205646
 40
0.0305013057
 40
0.0436104285
 40
0.0590154477
 40
0.0766831196
 40
0.1186429959
 40
0.1690762096
 40
0.2275125985
 40
0.2933776147
 40
0.3660492139
 40
0.4448204217
 40
0.5289431422
 40
0.617589998
 40
0.8050502696
 40
1.0
 40
1.0
 40
1.0
 40
1.0
 10
-11.5
 20
41.1159885716
 30
0.0
 10
-11.5
 20
41.1139798227
 30
0.0
 10
-11.495003038
 20
41.1092587282
 30
0.0
 10
-11.4767397208
 20
41.1025821576
 30
0.0
 10
-11.4355135011
 20
41.0940178622
 30
0.0
 10
-11.3666700575
 20
41.0850803232
 30
0.0
 10
-11.2700131863
 20
41.075641317
 30
0.0
 10
-11.1464632475
 20
41.066299601
 30
0.0
 10
-10.9959867915
 20
41.0569534564
 30
0.0
 10
-10.8190754306
 20
41.0477191535
 30
0.0
 10
-10.5315259896
 20
41.0348323969
 30
0.0
 10
-10.1095883425
 20
41.0196809174
 30
0.0
 10
-9.5312242756
 20
41.0031196283
 30
0.0
 10
-8.8611021948
 20
40.9875665338
 30
0.0
 10
-8.1056288841
 20
40.973166456
 30
0.0
 10
-7.2721146931
 20
40.9600991979
 30
0.0
 10
-6.3685345397
 20
40.9484870112
 30
0.0
 10
-5.4036492665
 20
40.9384618564
 30
0.0
 10
-4.0218159066
 20
40.9271227224
 30
0.0
 10
-2.2148127993
 20
40.917762779
 30
0.0
 10
-0.7478473392
 20
40.9152858975
 30
0.0
 10
-0.0
 20
40.9152858975
 30
0.0
  0
SPLINE
  5
325
100
AcDbEntity
  8
0
100
AcDbSpline
 62
7
  6
CONTINUOUS
 70
0
 71
3
 72
8
 73
4
 74
0
 42
0.0000001
 43
0.0000001
 44
0.0000000001
 40
0.0
 40
0.0
 40
0.0
 40
0.0
 40
1.0
 40
1.0
 40
1.0
 40
1.0
 10
2.7077843809
 20
28.2925172061
 30
0.0
 10
2.705502657
 20
28.1433586602
 30
0.0
 10
2.6451134366
 20
27.9798985009
 30
0.0
 10
2.5343672374
 20
27.8799547295
 30
0.0
  0
SPLINE
  5
326
100
AcDbEntity
  8
0
100
AcDbSpline
 62
7
  6
CONTINUOUS
 70
0
 71
3
 72
73
 73
69
 74
0
 42
0.0000001
 43
0.0000001
 44
0.0000000001
 40
0.0
 40
0.0
 40
0.0
 40
0.0
 40
0.0456906601
 40
0.0905255989
 40
0.1349505558
 40
0.1571595142
 40
0.1794379015
 40
0.2018425796
 40
0.2244294569
 40
0.2472531026
 40
0.2703664093
 40
0.2820484558
 40
0.2938218334
 40
0.3056925654
 40
0.317666528
 40
0.3236941037
 40
0.3297496212
 40
0.335833772
 40
0.3419472382
 40
0.348090692
 40
0.3511738819
 40
0.3542648163
 40
0.3573635764
 40
0.3589159176
 40
0.3604702454
 40
0.3620265699
 40
0.3635849009
 40
0.3643648221
 40
0.3651452487
 40
0.3655356519
 40
0.3659261818
 40
0.3663168388
 40
0.3665122149
 40
0.3666099149
 40
0.3667076229
 40
0.3668969718
 40
0.3670862863
 40
0.3674648121
 40
0.3682214514
 40
0.3689775414
 40
0.3697330824
 40
0.3712425197
 40
0.3727497674
 40
0.3757577097
 40
0.3787569432
 40
0.3817475008
 40
0.384729416
 40
0.3906674459
 40
0.3965713141
 40
0.4024412984
 40
0.4140806785
 40
0.4255879763
 40
0.4369655932
 40
0.4482160131
 40
0.4593418054
 40
0.4812295253
 40
0.5026517403
 40
0.523632271
 40
0.5441964735
 40
0.5841778565
 40
0.6228368515
 40
0.6604326324
 40
0.6972468351
 40
0.7335792758
 40
0.769741755
 40
0.8427407692
 40
0.9187691571
 40
1.0
 40
1.0
 40
1.0
 40
1.0
 10
2.5343672374
 20
27.8799547295
 30
0.0
 10
2.5204261388
 20
27.8665407075
 30
0.0
 10
2.4915511618
 20
27.8412253647
 30
0.0
 10
2.4450147471
 20
27.8079129075
 30
0.0
 10
2.4039724198
 20
27.7844231693
 30
0.0
 10
2.3699505472
 20
27.7682720294
 30
0.0
 10
2.3437687018
 20
27.7574338573
 30
0.0
 10
2.3169248003
 20
27.7478736133
 30
0.0
 10
2.2894185366
 20
27.7395905291
 30
0.0
 10
2.2612510053
 20
27.7325847089
 30
0.0
 10
2.2373120172
 20
27.7278275871
 30
0.0
 10
2.2178490433
 20
27.7246556012
 30
0.0
 10
2.2030334759
 20
27.7225865642
 30
0.0
 10
2.1880526012
 20
27.7208361508
 30
0.0
 10
2.1754589719
 20
27.7196456343
 30
0.0
 10
2.1653034464
 20
27.7188515432
 30
0.0
 10
2.1576282342
 20
27.7183342465
 30
0.0
 10
2.1499116545
 20
27.7178965677
 30
0.0
 10
2.1421537002
 20
27.7175385053
 30
0.0
 10
2.1356623182
 20
27.7173067546
 30
0.0
 10
2.1304487616
 20
27.7171610177
 30
0.0
 10
2.1265233911
 20
27.7170714818
 30
0.0
 10
2.123245715
 20
27.717013491
 30
0.0
 10
2.12061843
 20
27.716977031
 30
0.0
 10
2.1186441253
 20
27.7169546441
 30
0.0
 10
2.1166672343
 20
27.7169372328
 30
0.0
 10
2.1150182026
 20
27.7169268731
 30
0.0
 10
2.1136976876
 20
27.7169210707
 30
0.0
 10
2.1128716941
 20
27.71691848
 30
0.0
 10
2.1122105764
 20
27.7169170291
 30
0.0
 10
2.1117144961
 20
27.7169162517
 30
0.0
 10
2.1113009947
 20
27.716915863
 30
0.0
 10
2.1110114849
 20
27.7169157271
 30
0.0
 10
2.110846017
 20
27.716915688
 30
0.0
 10
2.1106831012
 20
27.7169156764
 30
0.0
 10
2.1104813936
 20
27.7169156984
 30
0.0
 10
2.1101607805
 20
27.7169157957
 30
0.0
 10
2.1095999624
 20
27.7169161385
 30
0.0
 10
2.1087991576
 20
27.7169171168
 30
0.0
 10
2.1078387165
 20
27.7169190743
 30
0.0
 10
2.1065595248
 20
27.7169227271
 30
0.0
 10
2.1049622814
 20
27.7169292488
 30
0.0
 10
2.1024113426
 20
27.7169438533
 30
0.0
 10
2.0992296461
 20
27.716969923
 30
0.0
 10
2.0954200236
 20
27.7170137592
 30
0.0
 10
2.0916215869
 20
27.7170701253
 30
0.0
 10
2.0865792052
 20
27.7171618539
 30
0.0
 10
2.0803040708
 20
27.717307704
 30
0.0
 10
2.0728077387
 20
27.7175330975
 30
0.0
 10
2.062900689
 20
27.7178993995
 30
0.0
 10
2.0506276547
 20
27.7184815096
 30
0.0
 10
2.0360364894
 20
27.7193825501
 30
0.0
 10
2.0216242401
 20
27.7204840901
 30
0.0
 10
2.0073908686
 20
27.7217861371
 30
0.0
 10
1.9887540225
 20
27.7237785976
 30
0.0
 10
1.9658942551
 20
27.7267627685
 30
0.0
 10
1.9390256469
 20
27.7311661684
 30
0.0
 10
1.912871237
 20
27.7363725231
 30
0.0
 10
1.8792700143
 20
27.7443096267
 30
0.0
 10
1.8389376165
 20
27.7562045445
 30
0.0
 10
1.7929329032
 20
27.7738467569
 30
0.0
 10
1.7497833716
 20
27.7947286045
 30
0.0
 10
1.7094992356
 20
27.8188515865
 30
0.0
 10
1.672088607
 20
27.8462214447
 30
0.0
 10
1.6259247772
 20
27.8871313956
 30
0.0
 10
1.5748666885
 20
27.9472944377
 30
0.0
 10
1.5258859821
 20
28.0321102495
 30
0.0
 10
1.5021027102
 20
28.0946121301
 30
0.0
 10
1.4920063141
 20
28.1274920962
 30
0.0
  0
SPLINE
  5
327
100
AcDbEntity
  8
0
100
AcDbSpline
 62
7
  6
CONTINUOUS
 70
0
 71
3
 72
8
 73
4
 74
0
 42
0.0000001
 43
0.0000001
 44
0.0000000001
 40
0.0
 40
0.0
 40
0.0
 40
0.0
 40
1.0
 40
1.0
 40
1.0
 40
1.0
 10
1.1865562062
 20
28.0339610627
 30
0.0
 10
1.2029697122
 20
27.9958830553
 30
0.0
 10
1.2211329345
 20
27.9584630942
 30
0.0
 10
1.2412324
 20
27.9221341931
 30
0.0
  0
SPLINE
  5
328
100
AcDbEntity
  8
0
100
AcDbSpline
 62
7
  6
CONTINUOUS
 70
0
 71
3
 72
10
 73
6
 74
0
 42
0.0000001
 43
0.0000001
 44
0.0000000001
 40
0.0
 40
0.0
 40
0.0
 40
0.0
 40
0.290781667
 40
0.6838882064
 40
1.0
 40
1.0
 40
1.0
 40
1.0
 10
1.2412324
 20
27.9221341931
 30
0.0
 10
1.2519728335
 20
27.9027213314
 30
0.0
 10
1.2785335417
 20
27.8577970273
 30
0.0
 10
1.3220733663
 20
27.7951617291
 30
0.0
 10
1.3566076356
 20
27.7535084496
 30
0.0
 10
1.3727276861
 20
27.73559704
 30
0.0
  0
SPLINE
  5
329
100
AcDbEntity
  8
0
100
AcDbSpline
 62
7
  6
CONTINUOUS
 70
0
 71
3
 72
60
 73
56
 74
0
 42
0.0000001
 43
0.0000001
 44
0.0000000001
 40
0.0
 40
0.0
 40
0.0
 40
0.0
 40
0.0131321083
 40
0.0887118274
 40
0.163220443
 40
0.2374415932
 40
0.3121679607
 40
0.3881764232
 40
0.4662055732
 40
0.5062038099
 40
0.5469578613
 40
0.5676430498
 40
0.5885449426
 40
0.6096722279
 40
0.6310333186
 40
0.6418042193
 40
0.6526366006
 40
0.6635314378
 40
0.6690025923
 40
0.6744897188
 40
0.6799929346
 40
0.6855123559
 40
0.6910480978
 40
0.6938221265
 40
0.6966002781
 40
0.6979909047
 40
0.6993825672
 40
0.7000787876
 40
0.7007752676
 40
0.7010959014
 40
0.7013057358
 40
0.7017253414
 40
0.7025643
 40
0.703402922
 40
0.7042412079
 40
0.705079158
 40
0.7067540525
 40
0.7084276087
 40
0.711770718
 40
0.7184410093
 40
0.7250902419
 40
0.7317186209
 40
0.7383263532
 40
0.7514806622
 40
0.7645549155
 40
0.7775508388
 40
0.7904701894
 40
0.8033147558
 40
0.8160863581
 40
0.8414176329
 40
0.8664796583
 40
0.8912881147
 40
0.9158591676
 40
0.9643517442
 40
1.0
 40
1.0
 40
1.0
 40
1.0
 10
1.3727276861
 20
27.73559704
 30
0.0
 10
1.3760214595
 20
27.7319372422
 30
0.0
 10
1.3984771872
 20
27.7073985875
 30
0.0
 10
1.44234449
 20
27.6646180128
 30
0.0
 10
1.5083055439
 20
27.612256249
 30
0.0
 10
1.5790691296
 20
27.5671834538
 30
0.0
 10
1.6546118848
 20
27.5294131785
 30
0.0
 10
1.7349020779
 20
27.4989493391
 30
0.0
 10
1.8051771588
 20
27.4798015609
 30
0.0
 10
1.8635322741
 20
27.4680636145
 30
0.0
 10
1.9011086155
 20
27.4622011105
 30
0.0
 10
1.9317360677
 20
27.4584032821
 30
0.0
 10
1.9551183287
 20
27.4559918038
 30
0.0
 10
1.9787966839
 20
27.4540315926
 30
0.0
 10
1.9987195253
 20
27.4527776186
 30
0.0
 10
2.0148033353
 20
27.4519981993
 30
0.0
 10
2.0269741906
 20
27.4515247681
 30
0.0
 10
2.0371635273
 20
27.4512246579
 30
0.0
 10
2.0453517491
 20
27.4510407149
 30
0.0
 10
2.0515203462
 20
27.4509307502
 30
0.0
 10
2.0577074714
 20
27.4508489783
 30
0.0
 10
2.0639131255
 20
27.4507953983
 30
0.0
 10
2.0690961025
 20
27.4507742595
 30
0.0
 10
2.0732517129
 20
27.4507714095
 30
0.0
 10
2.0758537855
 20
27.4507755076
 30
0.0
 10
2.0779377555
 20
27.4507822861
 30
0.0
 10
2.0792414428
 20
27.4507880372
 30
0.0
 10
2.0802849723
 20
27.4507934139
 30
0.0
 10
2.0809270948
 20
27.4507973178
 30
0.0
 10
2.0813869338
 20
27.4507998314
 30
0.0
 10
2.0817429865
 20
27.4508039106
 30
0.0
 10
2.0822932924
 20
27.4508096864
 30
0.0
 10
2.0830792393
 20
27.4508186867
 30
0.0
 10
2.0840220855
 20
27.4508299764
 30
0.0
 10
2.0849645456
 20
27.4508419444
 30
0.0
 10
2.0862203934
 20
27.4508587354
 30
0.0
 10
2.0877892398
 20
27.4508813237
 30
0.0
 10
2.0902968382
 20
27.4509208577
 30
0.0
 10
2.0946762665
 20
27.4509989063
 30
0.0
 10
2.1009197352
 20
27.4511359185
 30
0.0
 10
2.1083931638
 20
27.451341313
 30
0.0
 10
2.1158419031
 20
27.4515875564
 30
0.0
 10
2.125725343
 20
27.4519697549
 30
0.0
 10
2.1380185981
 20
27.452549173
 30
0.0
 10
2.1526945753
 20
27.4534089594
 30
0.0
 10
2.1672718081
 20
27.4544321561
 30
0.0
 10
2.1817502761
 20
27.4556187627
 30
0.0
 10
2.1961300124
 20
27.4569687847
 30
0.0
 10
2.2151184871
 20
27.4589810951
 30
0.0
 10
2.2386135576
 20
27.461902199
 30
0.0
 10
2.2664910131
 20
27.4660712006
 30
0.0
 10
2.2939739526
 20
27.4708942788
 30
0.0
 10
2.3299307733
 20
27.4781644953
 30
0.0
 10
2.3695393563
 20
27.4878046011
 30
0.0
 10
2.3998009664
 20
27.4967126905
 30
0.0
 10
2.4125380374
 20
27.5007516187
 30
0.0
  0
SPLINE
  5
32A
100
AcDbEntity
  8
0
100
AcDbSpline
 62
7
  6
CONTINUOUS
 70
0
 71
3
 72
25
 73
21
 74
0
 42
0.0000001
 43
0.0000001
 44
0.0000000001
 40
0.0
 40
0.0
 40
0.0
 40
0.0
 40
0.0233257336
 40
0.1142171181
 40
0.2042435432
 40
0.2937037965
 40
0.3829023552
 40
0.472146375
 40
0.516886137
 40
0.5617520234
 40
0.5842446567
 40
0.6067829397
 40
0.6180643225
 40
0.6293111927
 40
0.6517309676
 40
0.6962996908
 40
0.7405601166
 40
0.8283873551
 40
0.9157310967
 40
1.0
 40
1.0
 40
1.0
 40
1.0
 10
2.4125380374
 20
27.5007516187
 30
0.0
 10
2.4168613393
 20
27.5021225388
 30
0.0
 10
2.4379835063
 20
27.508984793
 30
0.0
 10
2.4753174083
 20
27.5225725132
 30
0.0
 10
2.5236317421
 20
27.5433563382
 30
0.0
 10
2.5703636182
 20
27.5667647179
 30
0.0
 10
2.6155102841
 20
27.5927964779
 30
0.0
 10
2.6517831601
 20
27.6166578216
 30
0.0
 10
2.6799701393
 20
27.6370247663
 30
0.0
 10
2.6972589662
 20
27.6502994498
 30
0.0
 10
2.7108879515
 20
27.6612414882
 30
0.0
 10
2.7193258356
 20
27.6682178862
 30
0.0
 10
2.7260180538
 20
27.6738733656
 30
0.0
 10
2.7327924575
 20
27.6793939371
 30
0.0
 10
2.7443829094
 20
27.6892451158
 30
0.0
 10
2.7605156904
 20
27.7036584884
 30
0.0
 10
2.785245921
 20
27.7275007062
 30
0.0
 10
2.8142847043
 20
27.7588134385
 30
0.0
 10
2.8456836979
 20
27.7983501015
 30
0.0
 10
2.8644217996
 20
27.8259932467
 30
0.0
 10
2.873112415
 20
27.8398862263
 30
0.0
  0
SPLINE
  5
32B
100
AcDbEntity
  8
0
100
AcDbSpline
 62
7
  6
CONTINUOUS
 70
0
 71
3
 72
37
 73
33
 74
0
 42
0.0000001
 43
0.0000001
 44
0.0000000001
 40
0.0
 40
0.0
 40
0.0
 40
0.0
 40
0.0336711577
 40
0.1631684457
 40
0.2955079218
 40
0.3629473867
 40
0.4313251495
 40
0.5007112188
 40
0.5711725974
 40
0.6427732697
 40
0.715574216
 40
0.7896334518
 40
0.8271530894
 40
0.8460382253
 40
0.8650079223
 40
0.884062981
 40
0.8936227805
 40
0.9032042156
 40
0.9128073835
 40
0.9176171489
 40
0.9224323836
 40
0.9269648585
 40
0.9286553807
 40
0.9303453188
 40
0.9337234452
 40
0.9370992434
 40
0.9438438774
 40
0.9505792685
 40
0.9640224961
 40
0.9774293114
 40
0.9908000912
 40
1.0
 40
1.0
 40
1.0
 40
1.0
 10
2.9161850362
 20
27.9202715286
 30
0.0
 10
2.918075955
 20
27.9244372061
 30
0.0
 10
2.9270442297
 20
27.9447122819
 30
0.0
 10
2.9415786664
 20
27.9821647049
 30
0.0
 10
2.9548145072
 20
28.0249280281
 30
0.0
 10
2.9638433524
 20
28.060221589
 30
0.0
 10
2.9698728892
 20
28.087440567
 30
0.0
 10
2.9751168921
 20
28.1152389759
 30
0.0
 10
2.9795756366
 20
28.1436172198
 30
0.0
 10
2.9832491747
 20
28.1725751769
 30
0.0
 10
2.9861376047
 20
28.2021127451
 30
0.0
 10
2.9878827666
 20
28.2271004253
 30
0.0
 10
2.988763432
 20
28.2448005317
 30
0.0
 10
2.9891714371
 20
28.2550309488
 30
0.0
 10
2.9894290795
 20
28.2627570535
 30
0.0
 10
2.9896027354
 20
28.2692184093
 30
0.0
 10
2.9897171949
 20
28.2744055406
 30
0.0
 10
2.989790959
 20
28.278309343
 30
0.0
 10
2.9898419247
 20
28.2815682179
 30
0.0
 10
2.9898771619
 20
28.2841798424
 30
0.0
 10
2.9898985069
 20
28.2861027867
 30
0.0
 10
2.9899173871
 20
28.2876020908
 30
0.0
 10
2.9899150961
 20
28.2886769496
 30
0.0
 10
2.9899143086
 20
28.2895949991
 30
0.0
 10
2.9899115986
 20
28.290741968
 30
0.0
 10
2.9899052101
 20
28.2925755313
 30
0.0
 10
2.9898926289
 20
28.294865108
 30
0.0
 10
2.9898630092
 20
28.2985221068
 30
0.0
 10
2.9898080597
 20
28.303083871
 30
0.0
 10
2.9897133819
 20
28.3085464644
 30
0.0
 10
2.9896027181
 20
28.3134322326
 30
0.0
 10
2.9895194496
 20
28.3164969969
 30
0.0
 10
2.9894831967
 20
28.3177461404
 30
0.0
  0
SPLINE
  5
32C
100
AcDbEntity
  8
0
100
AcDbSpline
 62
7
  6
CONTINUOUS
 70
0
 71
3
 72
20
 73
16
 74
0
 42
0.0000001
 43
0.0000001
 44
0.0000000001
 40
0.0
 40
0.0
 40
0.0
 40
0.0
 40
0.0054628344
 40
0.0230326291
 40
0.0580343415
 40
0.0928558341
 40
0.1275012984
 40
0.1962801413
 40
0.2644067376
 40
0.331916908
 40
0.3988474625
 40
0.5311119632
 40
0.6615227445
 40
0.9180157418
 40
1.0
 40
1.0
 40
1.0
 40
1.0
 10
2.9894831967
 20
28.3177461404
 30
0.0
 10
2.9894669015
 20
28.318307611
 30
0.0
 10
2.9893962275
 20
28.320674849
 30
0.0
 10
2.9891971767
 20
28.3266388307
 30
0.0
 10
2.9888247673
 20
28.335617331
 30
0.0
 10
2.9882624679
 20
28.3463446331
 30
0.0
 10
2.9873618735
 20
28.3605311905
 30
0.0
 10
2.9859509528
 20
28.3781157218
 30
0.0
 10
2.9837942168
 20
28.3990252271
 30
0.0
 10
2.9811779516
 20
28.4196909381
 30
0.0
 10
2.9770935174
 20
28.4468105214
 30
0.0
 10
2.9708466785
 20
28.4801365578
 30
0.0
 10
2.958428559
 20
28.5320726315
 30
0.0
 10
2.9436713239
 20
28.5780674369
 30
0.0
 10
2.9307294652
 20
28.6104023579
 30
0.0
 10
2.9274617309
 20
28.6181781778
 30
0.0
  0
SPLINE
  5
32D
100
AcDbEntity
  8
0
100
AcDbSpline
 62
7
  6
CONTINUOUS
 70
0
 71
3
 72
11
 73
7
 74
0
 42
0.0000001
 43
0.0000001
 44
0.0000000001
 40
0.0
 40
0.0
 40
0.0
 40
0.0
 40
0.2080086236
 40
0.5115753828
 40
0.8166649268
 40
1.0
 40
1.0
 40
1.0
 40
1.0
 10
2.5351606504
 20
29.084268354
 30
0.0
 10
2.5459453225
 20
29.0900831223
 30
0.0
 10
2.5720928445
 20
29.1050650324
 30
0.0
 10
2.6122544989
 20
29.1316075468
 30
0.0
 10
2.6491477673
 20
29.1602056393
 30
0.0
 10
2.6708104413
 20
29.1791478715
 30
0.0
 10
2.6787836748
 20
29.1864303279
 30
0.0
  0
SPLINE
  5
32E
100
AcDbEntity
  8
0
100
AcDbSpline
 62
7
  6
CONTINUOUS
 70
0
 71
3
 72
19
 73
15
 74
0
 42
0.0000001
 43
0.0000001
 44
0.0000000001
 40
0.0
 40
0.0
 40
0.0
 40
0.0
 40
0.1333496706
 40
0.2997012375
 40
0.4675660175
 40
0.5521339735
 40
0.637157358
 40
0.7226610752
 40
0.7656011051
 40
0.8086703643
 40
0.8509243866
 40
0.8930813099
 40
0.9771200584
 40
1.0
 40
1.0
 40
1.0
 40
1.0
 10
2.6787836748
 20
29.1864303279
 30
0.0
 10
2.6842189866
 20
29.1913947406
 30
0.0
 10
2.6962696722
 20
29.2027321322
 30
0.0
 10
2.714479807
 20
29.2210215403
 30
0.0
 10
2.7302002463
 20
29.2379718928
 30
0.0
 10
2.7425053973
 20
29.2519528905
 30
0.0
 10
2.7516246377
 20
29.2626798992
 30
0.0
 10
2.7591003784
 20
29.2717861383
 30
0.0
 10
2.7650172685
 20
29.2791749024
 30
0.0
 10
2.7693867264
 20
29.284744305
 30
0.0
 10
2.7737178339
 20
29.2902888843
 30
0.0
 10
2.7793513265
 20
29.2976845717
 30
0.0
 10
2.7842407357
 20
29.3043022585
 30
0.0
 10
2.7876847786
 20
29.309093943
 30
0.0
 10
2.788418895
 20
29.3101214033
 30
0.0
  0
SPLINE
  5
32F
100
AcDbEntity
  8
0
100
AcDbSpline
 62
7
  6
CONTINUOUS
 70
0
 71
3
 72
13
 73
9
 74
0
 42
0.0000001
 43
0.0000001
 44
0.0000000001
 40
0.0
 40
0.0
 40
0.0
 40
0.0
 40
0.0576142952
 40
0.1899387177
 40
0.3214987125
 40
0.4532406388
 40
0.7207912587
 40
1.0
 40
1.0
 40
1.0
 40
1.0
 10
2.788418895
 20
29.3101214033
 30
0.0
 10
2.7930461235
 20
29.3165976156
 30
0.0
 10
2.8079226315
 20
29.3382189665
 30
0.0
 10
2.8309165094
 20
29.3762827483
 30
0.0
 10
2.8551382026
 20
29.4253512289
 30
0.0
 10
2.8819246336
 20
29.4937032213
 30
0.0
 10
2.9048457607
 20
29.5850568074
 30
0.0
 10
2.9113623695
 20
29.6606354188
 30
0.0
 10
2.9120156817
 20
29.6992015869
 30
0.0
  0
SPLINE
  5
330
100
AcDbEntity
  8
0
100
AcDbSpline
 62
7
  6
CONTINUOUS
 70
0
 71
3
 72
25
 73
21
 74
0
 42
0.0000001
 43
0.0000001
 44
0.0000000001
 40
0.0
 40
0.0
 40
0.0
 40
0.0
 40
0.1518521215
 40
0.2928260292
 40
0.4261491945
 40
0.4911768389
 40
0.5557528135
 40
0.6204014519
 40
0.6529247768
 40
0.6856612535
 40
0.7021301309
 40
0.718675787
 40
0.7269799121
 40
0.7352787014
 40
0.751827454
 40
0.7848056655
 40
0.8176576989
 40
0.8831258133
 40
0.9485480097
 40
1.0
 40
1.0
 40
1.0
 40
1.0
 10
2.9120156817
 20
29.6992015869
 30
0.0
 10
2.9115471064
 20
29.7428943454
 30
0.0
 10
2.9057991051
 20
29.8272384861
 30
0.0
 10
2.8802411683
 20
29.9476199395
 30
0.0
 10
2.8446026289
 20
30.0390861384
 30
0.0
 10
2.8079350476
 20
30.1053641273
 30
0.0
 10
2.7765513723
 20
30.1517109799
 30
0.0
 10
2.7470295275
 20
30.1877808579
 30
0.0
 10
2.7214640037
 20
30.2150660468
 30
0.0
 10
2.7046336713
 20
30.2315038721
 30
0.0
 10
2.690678475
 20
30.24428126
 30
0.0
 10
2.6817273281
 20
30.2521075946
 30
0.0
 10
2.6744703805
 20
30.2582985784
 30
0.0
 10
2.6670622481
 20
30.2643095229
 30
0.0
 10
2.6539753148
 20
30.2745864681
 30
0.0
 10
2.634983371
 20
30.2887795688
 30
0.0
 10
2.6039565989
 20
30.310347766
 30
0.0
 10
2.5639134563
 20
30.3352538317
 30
0.0
 10
2.5175240971
 20
30.3598553836
 30
0.0
 10
2.4868898369
 20
30.3737766124
 30
0.0
 10
2.473250922
 20
30.3795437937
 30
0.0
  0
SPLINE
  5
331
100
AcDbEntity
  8
0
100
AcDbSpline
 62
7
  6
CONTINUOUS
 70
0
 71
3
 72
59
 73
55
 74
0
 42
0.0000001
 43
0.0000001
 44
0.0000000001
 40
0.0
 40
0.0
 40
0.0
 40
0.0
 40
0.0166695095
 40
0.0942665364
 40
0.1728724723
 40
0.2126636982
 40
0.2528309236
 40
0.2934132514
 40
0.3344485982
 40
0.3759736391
 40
0.3969314443
 40
0.4180248337
 40
0.439258027
 40
0.4606351609
 40
0.4713790381
 40
0.4821604134
 40
0.4929797806
 40
0.5038376284
 40
0.5092811412
 40
0.514734455
 40
0.5201976293
 40
0.5229329337
 40
0.5256707254
 40
0.5284110118
 40
0.5297820929
 40
0.5311538005
 40
0.5318398895
 40
0.5325261354
 40
0.5328693173
 40
0.533333428
 40
0.533857909
 40
0.534382293
 40
0.5364788596
 40
0.5385738778
 40
0.540667351
 40
0.5427592825
 40
0.5469385336
 40
0.5552786802
 40
0.5635945458
 40
0.5718863528
 40
0.5801543258
 40
0.588398691
 40
0.6048174557
 40
0.6211445539
 40
0.6535308251
 40
0.6855733986
 40
0.7172882034
 40
0.7486916674
 40
0.7798007116
 40
0.810632742
 40
0.8715330948
 40
0.9315455744
 40
0.9908252883
 40
1.0
 40
1.0
 40
1.0
 40
1.0
 10
2.473250922
 20
30.3795437937
 30
0.0
 10
2.4694783771
 20
30.381139005
 30
0.0
 10
2.4480784768
 20
30.3900035991
 30
0.0
 10
2.4081759625
 20
30.4046342629
 30
0.0
 10
2.361936389
 20
30.4181927343
 30
0.0
 10
2.3240685892
 20
30.4273501311
 30
0.0
 10
2.2950753519
 20
30.4334015051
 30
0.0
 10
2.2656084688
 20
30.4386072938
 30
0.0
 10
2.2356677385
 20
30.4429677285
 30
0.0
 10
2.210400961
 20
30.445887888
 30
0.0
 10
2.1899581302
 20
30.4478049023
 30
0.0
 10
2.1744594855
 20
30.4490359842
 30
0.0
 10
2.1588423375
 20
30.4500558805
 30
0.0
 10
2.1457517728
 20
30.4507286555
 30
0.0
 10
2.1352208941
 20
30.4511618122
 30
0.0
 10
2.1272794898
 20
30.4514344516
 30
0.0
 10
2.1193084458
 20
30.4516543029
 30
0.0
 10
2.1126471651
 20
30.4517933982
 30
0.0
 10
2.107303418
 20
30.4518783507
 30
0.0
 10
2.1032846097
 20
30.4519289254
 30
0.0
 10
2.0999309473
 20
30.4519600598
 30
0.0
 10
2.0972443236
 20
30.451978378
 30
0.0
 10
2.0952265894
 20
30.4519888237
 30
0.0
 10
2.093543984
 20
30.4519947778
 30
0.0
 10
2.0921969746
 20
30.4519978927
 30
0.0
 10
2.091354612
 20
30.4519991524
 30
0.0
 10
2.0906804905
 20
30.451999748
 30
0.0
 10
2.0902590439
 20
30.4519999484
 30
0.0
 10
2.0898921302
 20
30.4520000108
 30
0.0
 10
2.0895649569
 20
30.4519999877
 30
0.0
 10
2.0891932681
 20
30.4519998501
 30
0.0
 10
2.0884205382
 20
30.4519993186
 30
0.0
 10
2.0872619793
 20
30.451997602
 30
0.0
 10
2.0857179509
 20
30.4519933496
 30
0.0
 10
2.0841750678
 20
30.4519871343
 30
0.0
 10
2.082120173
 20
30.4519762338
 30
0.0
 10
2.0785307358
 20
30.4519503141
 30
0.0
 10
2.0734124797
 20
30.4518936853
 30
0.0
 10
2.0672843932
 20
30.4517942726
 30
0.0
 10
2.0611746311
 20
30.4516634518
 30
0.0
 10
2.0550831915
 20
30.4515012227
 30
0.0
 10
2.0469971734
 20
30.4512434053
 30
0.0
 10
2.0369349597
 20
30.4508429326
 30
0.0
 10
2.0209542397
 20
30.4500359654
 30
0.0
 10
2.001157409
 20
30.4487155357
 30
0.0
 10
1.9776289235
 20
30.4466239286
 30
0.0
 10
1.9543933567
 20
30.4440295584
 30
0.0
 10
1.931450839
 20
30.4409324194
 30
0.0
 10
1.9088011823
 20
30.4373324401
 30
0.0
 10
1.8791164144
 20
30.4318848631
 30
0.0
 10
1.8427024749
 20
30.4238265315
 30
0.0
 10
1.7999959371
 20
30.4120999772
 30
0.0
 10
1.7700221373
 20
30.4021835749
 30
0.0
 10
1.7542210074
 20
30.3964129225
 30
0.0
 10
1.7521063931
 20
30.3956307639
 30
0.0
  0
SPLINE
  5
332
100
AcDbEntity
  8
0
100
AcDbSpline
 62
7
  6
CONTINUOUS
 70
0
 71
3
 72
11
 73
7
 74
0
 42
0.0000001
 43
0.0000001
 44
0.0000000001
 40
0.0
 40
0.0
 40
0.0
 40
0.0
 40
0.2770137563
 40
0.5751710289
 40
0.8744158351
 40
1.0
 40
1.0
 40
1.0
 40
1.0
 10
1.7521063931
 20
30.3956307639
 30
0.0
 10
1.7272619701
 20
30.386441249
 30
0.0
 10
1.6765816468
 20
30.3648564573
 30
0.0
 10
1.6033717316
 20
30.3241746372
 30
0.0
 10
1.5468699806
 20
30.2841372729
 30
0.0
 10
1.515578409
 20
30.2582034392
 30
0.0
 10
1.5064993882
 20
30.2503397353
 30
0.0
  0
SPLINE
  5
333
100
AcDbEntity
  8
0
100
AcDbSpline
 62
7
  6
CONTINUOUS
 70
0
 71
3
 72
10
 73
6
 74
0
 42
0.0000001
 43
0.0000001
 44
0.0000000001
 40
0.0
 40
0.0
 40
0.0
 40
0.0
 40
0.1551894717
 40
0.4266076478
 40
1.0
 40
1.0
 40
1.0
 40
1.0
 10
1.5064993882
 20
30.2503397353
 30
0.0
 10
1.4936142147
 20
30.2391793699
 30
0.0
 10
1.4591410086
 20
30.207407268
 30
0.0
 10
1.3846557722
 20
30.1265488328
 30
0.0
 10
1.3321705438
 20
30.0492717274
 30
0.0
 10
1.3009720493
 20
29.9945939767
 30
0.0
  0
SPLINE
  5
334
100
AcDbEntity
  8
0
100
AcDbSpline
 62
7
  6
CONTINUOUS
 70
0
 71
3
 72
8
 73
4
 74
0
 42
0.0000001
 43
0.0000001
 44
0.0000000001
 40
0.0
 40
0.0
 40
0.0
 40
0.0
 40
1.0
 40
1.0
 40
1.0
 40
1.0
 10
1.5551718726
 20
29.8648030638
 30
0.0
 10
1.6599541557
 20
30.0480426017
 30
0.0
 10
1.8899142571
 20
30.1835474011
 30
0.0
 10
2.1009843809
 20
30.1858843809
 30
0.0
  0
SPLINE
  5
335
100
AcDbEntity
  8
0
100
AcDbSpline
 62
7
  6
CONTINUOUS
 70
0
 71
3
 72
9
 73
5
 74
0
 42
0.0000001
 43
0.0000001
 44
0.0000000001
 40
0.0
 40
0.0
 40
0.0
 40
0.0
 40
0.5130790416
 40
1.0
 40
1.0
 40
1.0
 40
1.0
 10
2.1009843809
 20
30.1858843809
 30
0.0
 10
2.2384459031
 20
30.1837516206
 30
0.0
 10
2.5434731403
 20
30.1232090465
 30
0.0
 10
2.6270035868
 20
29.8215816996
 30
0.0
 10
2.6291156817
 20
29.6911297139
 30
0.0
  0
SPLINE
  5
336
100
AcDbEntity
  8
0
100
AcDbSpline
 62
7
  6
CONTINUOUS
 70
0
 71
3
 72
11
 73
7
 74
0
 42
0.0000001
 43
0.0000001
 44
0.0000000001
 40
0.0
 40
0.0
 40
0.0
 40
0.0
 40
0.3543595231
 40
0.6763731767
 40
0.9738550315
 40
1.0
 40
1.0
 40
1.0
 40
1.0
 10
2.6291156817
 20
29.6911297139
 30
0.0
 10
2.6286438154
 20
29.6570563859
 30
0.0
 10
2.6241779951
 20
29.5919591821
 30
0.0
 10
2.6046093606
 20
29.5000194007
 30
0.0
 10
2.5814306292
 20
29.4420024546
 30
0.0
 10
2.5668051876
 20
29.4145105704
 30
0.0
 10
2.5656039945
 20
29.4123003898
 30
0.0
  0
SPLINE
  5
337
100
AcDbEntity
  8
0
100
AcDbSpline
 62
7
  6
CONTINUOUS
 70
0
 71
3
 72
22
 73
18
 74
0
 42
0.0000001
 43
0.0000001
 44
0.0000000001
 40
0.0
 40
0.0
 40
0.0
 40
0.0
 40
0.1027944444
 40
0.2266273306
 40
0.3497375479
 40
0.411453263
 40
0.4734805926
 40
0.5046640196
 40
0.5359854236
 40
0.5517042871
 40
0.5676606677
 40
0.5997641886
 40
0.6639114705
 40
0.728039169
 40
0.8564934592
 40
0.9856910786
 40
1.0
 40
1.0
 40
1.0
 40
1.0
 10
2.5656039945
 20
29.4123003898
 30
0.0
 10
2.5602478982
 20
29.4024452383
 30
0.0
 10
2.5475785184
 20
29.3811920946
 30
0.0
 10
2.5250871887
 20
29.3503035109
 30
0.0
 10
2.5025180777
 20
29.3252393837
 30
0.0
 10
2.4829998793
 20
29.3066830128
 30
0.0
 10
2.4701673224
 20
29.2956788169
 30
0.0
 10
2.4595293558
 20
29.2872336363
 30
0.0
 10
2.4527147326
 20
29.2820997354
 30
0.0
 10
2.4471539222
 20
29.2780645557
 30
0.0
 10
2.4414632799
 20
29.2740644139
 30
0.0
 10
2.4313663714
 20
29.2671496144
 30
0.0
 10
2.4166943329
 20
29.2576213204
 30
0.0
 10
2.3927224434
 20
29.2431467784
 30
0.0
 10
2.3618014765
 20
29.2264927489
 30
0.0
 10
2.3348102483
 20
29.2141482158
 30
0.0
 10
2.3203533962
 20
29.208145581
 30
0.0
 10
2.3189098278
 20
29.2075521397
 30
0.0
  0
SPLINE
  5
338
100
AcDbEntity
  8
0
100
AcDbSpline
 62
7
  6
CONTINUOUS
 70
0
 71
3
 72
62
 73
58
 74
0
 42
0.0000001
 43
0.0000001
 44
0.0000000001
 40
0.0
 40
0.0
 40
0.0
 40
0.0
 40
0.0231013209
 40
0.1310137603
 40
0.185788392
 40
0.2411659209
 40
0.2971904681
 40
0.3539046452
 40
0.4113495288
 40
0.4403589987
 40
0.4695658359
 40
0.4989747399
 40
0.5285903139
 40
0.5434770839
 40
0.5584172035
 40
0.5734112214
 40
0.5884596804
 40
0.5960045015
 40
0.6035631337
 40
0.6111356432
 40
0.6149271235
 40
0.6187220978
 40
0.6225205743
 40
0.6244211284
 40
0.6263225612
 40
0.6272736074
 40
0.6282248737
 40
0.6287005893
 40
0.6289497775
 40
0.6292216098
 40
0.6297652742
 40
0.6303089387
 40
0.6308526032
 40
0.6313962677
 40
0.6324835966
 40
0.6346582545
 40
0.6368329124
 40
0.6390075703
 40
0.6411822282
 40
0.643356886
 40
0.6477062018
 40
0.6520555176
 40
0.6607541492
 40
0.6694527807
 40
0.6781514123
 40
0.6868500439
 40
0.6955486754
 40
0.704247307
 40
0.7216445701
 40
0.7390418332
 40
0.7564390963
 40
0.7912336226
 40
0.8260281488
 40
0.8608226751
 40
0.8956172013
 40
0.9304117276
 40
1.0
 40
1.0
 40
1.0
 40
1.0
 10
2.2511138046
 20
29.1837873479
 30
0.0
 10
2.2480983008
 20
29.1829024108
 30
0.0
 10
2.2309633207
 20
29.1779967867
 30
0.0
 10
2.2064120332
 20
29.1719441453
 30
0.0
 10
2.1773290623
 20
29.1661040386
 30
0.0
 10
2.1550476226
 20
29.16228779
 30
0.0
 10
2.1324074992
 20
29.1590576498
 30
0.0
 10
2.1094085337
 20
29.1564134882
 30
0.0
 10
2.0900080543
 20
29.1547039885
 30
0.0
 10
2.0743128551
 20
29.1536266011
 30
0.0
 10
2.0624126008
 20
29.1529622888
 30
0.0
 10
2.0504225969
 20
29.1524443895
 30
0.0
 10
2.0403739464
 20
29.1521353631
 30
0.0
 10
2.032290653
 20
29.1519609618
 30
0.0
 10
2.0261949782
 20
29.1518665279
 30
0.0
 10
2.020076857
 20
29.1518086931
 30
0.0
 10
2.0149643753
 20
29.1517910128
 30
0.0
 10
2.0108632258
 20
29.151795118
 30
0.0
 10
2.0077789485
 20
29.1518073492
 30
0.0
 10
2.0052052241
 20
29.1518251587
 30
0.0
 10
2.0031434456
 20
29.1518439738
 30
0.0
 10
2.0015949977
 20
29.1518603816
 30
0.0
 10
2.0003037531
 20
29.1518759494
 30
0.0
 10
1.9992700571
 20
29.1518895641
 30
0.0
 10
1.9986236295
 20
29.1518985106
 30
0.0
 10
1.9981063139
 20
29.1519060457
 30
0.0
 10
1.9977828961
 20
29.1519106644
 30
0.0
 10
1.9975549414
 20
29.1519144065
 30
0.0
 10
1.9974193753
 20
29.1519159489
 30
0.0
 10
1.9972745593
 20
29.1519155222
 30
0.0
 10
1.9970896923
 20
29.1519157359
 30
0.0
 10
1.9968678506
 20
29.1519156672
 30
0.0
 10
1.9966460092
 20
29.1519156855
 30
0.0
 10
1.9963502207
 20
29.1519156795
 30
0.0
 10
1.9958325907
 20
29.1519156833
 30
0.0
 10
1.9950931193
 20
29.1519156812
 30
0.0
 10
1.9942057536
 20
29.1519156818
 30
0.0
 10
1.9933183879
 20
29.1519156817
 30
0.0
 10
1.9924310222
 20
29.1519156817
 30
0.0
 10
1.9912478679
 20
29.1519156817
 30
0.0
 10
1.9897689251
 20
29.1519156817
 30
0.0
 10
1.9874026165
 20
29.1519156817
 30
0.0
 10
1.9844447309
 20
29.1519156817
 30
0.0
 10
1.9808952681
 20
29.1519156817
 30
0.0
 10
1.9773458053
 20
29.1519156817
 30
0.0
 10
1.9737963425
 20
29.1519156817
 30
0.0
 10
1.9702468797
 20
29.1519156817
 30
0.0
 10
1.9655142626
 20
29.1519156817
 30
0.0
 10
1.9595984913
 20
29.1519156817
 30
0.0
 10
1.9524995657
 20
29.1519156817
 30
0.0
 10
1.9430343315
 20
29.1519156817
 30
0.0
 10
1.9312027889
 20
29.1519156817
 30
0.0
 10
1.9170049377
 20
29.1519156817
 30
0.0
 10
1.9028070865
 20
29.1519156817
 30
0.0
 10
1.8886092353
 20
29.1519156817
 30
0.0
 10
1.8696788731
 20
29.1519156817
 30
0.0
 10
1.855481128
 20
29.1519156817
 30
0.0
 10
1.846016
 20
29.1519156817
 30
0.0
  0
SPLINE
  5
339
100
AcDbEntity
  8
0
100
AcDbSpline
 62
7
  6
CONTINUOUS
 70
0
 71
3
 72
68
 73
64
 74
0
 42
0.0000001
 43
0.0000001
 44
0.0000000001
 40
0.0
 40
0.0
 40
0.0
 40
0.0
 40
0.0341923906
 40
0.0683854739
 40
0.1025785572
 40
0.1196750988
 40
0.1367716405
 40
0.1538681821
 40
0.1709647238
 40
0.1880612654
 40
0.2051578071
 40
0.2137060779
 40
0.2222543487
 40
0.2308026196
 40
0.2393508904
 40
0.2436250258
 40
0.2478991612
 40
0.2521732966
 40
0.256447432
 40
0.2607215675
 40
0.2628586352
 40
0.2649957029
 40
0.2671327706
 40
0.2682013044
 40
0.2692698383
 40
0.2703383721
 40
0.271406906
 40
0.2719411729
 40
0.2724754398
 40
0.2727425733
 40
0.2730097068
 40
0.2732768402
 40
0.2735439737
 40
0.2738619497
 40
0.274179904
 40
0.2748157474
 40
0.2760871736
 40
0.2773582523
 40
0.2786289838
 40
0.2811694062
 40
0.2837084425
 40
0.2887823635
 40
0.2938507612
 40
0.2989136497
 40
0.3039710431
 40
0.3140693982
 40
0.324145944
 40
0.3342007954
 40
0.3542458483
 40
0.3742055193
 40
0.3940807536
 40
0.4138725089
 40
0.4335817546
 40
0.4727564075
 40
0.511612959
 40
0.55015961
 40
0.5884047608
 40
0.6640229387
 40
0.7385408285
 40
0.8120328395
 40
0.8845765378
 40
0.9562525684
 40
1.0
 40
1.0
 40
1.0
 40
1.0
 10
1.846016
 20
28.8861843809
 30
0.0
 10
1.8512530024
 20
28.8861843809
 30
0.0
 10
1.8617271132
 20
28.8861843809
 30
0.0
 10
1.8774383326
 20
28.8861843809
 30
0.0
 10
1.8905311038
 20
28.8861843809
 30
0.0
 10
1.9010053207
 20
28.8861843809
 30
0.0
 10
1.9088609834
 20
28.8861843809
 30
0.0
 10
1.9167166462
 20
28.8861843809
 30
0.0
 10
1.9245723089
 20
28.8861843809
 30
0.0
 10
1.9324279716
 20
28.8861843809
 30
0.0
 10
1.9389743572
 20
28.8861843809
 30
0.0
 10
1.9442114657
 20
28.8861843809
 30
0.0
 10
1.948139297
 20
28.8861843809
 30
0.0
 10
1.9520671284
 20
28.8861843809
 30
0.0
 10
1.9553403212
 20
28.8861843809
 30
0.0
 10
1.9579588754
 20
28.8861843809
 30
0.0
 10
1.9599227911
 20
28.8861843809
 30
0.0
 10
1.9618867068
 20
28.8861843809
 30
0.0
 10
1.9638506225
 20
28.8861843809
 30
0.0
 10
1.9654872189
 20
28.8861843809
 30
0.0
 10
1.966796496
 20
28.8861843809
 30
0.0
 10
1.9677784538
 20
28.8861843809
 30
0.0
 10
1.968596752
 20
28.8861843809
 30
0.0
 10
1.9692513906
 20
28.8861843809
 30
0.0
 10
1.9697423695
 20
28.8861843809
 30
0.0
 10
1.9702333484
 20
28.8861843809
 30
0.0
 10
1.9706424975
 20
28.8861843809
 30
0.0
 10
1.9709698168
 20
28.8861843809
 30
0.0
 10
1.9711743914
 20
28.8861843809
 30
0.0
 10
1.971338051
 20
28.8861843808
 30
0.0
 10
1.9714607957
 20
28.8861843809
 30
0.0
 10
1.9715835405
 20
28.8861843806
 30
0.0
 10
1.9717140724
 20
28.8861843819
 30
0.0
 10
1.9718523882
 20
28.8861843761
 30
0.0
 10
1.9720471766
 20
28.8861843454
 30
0.0
 10
1.9723879981
 20
28.8861842399
 30
0.0
 10
1.9728748027
 20
28.8861839376
 30
0.0
 10
1.9734588484
 20
28.8861833331
 30
0.0
 10
1.9742372566
 20
28.8861822048
 30
0.0
 10
1.9752098676
 20
28.8861801902
 30
0.0
 10
1.9767649813
 20
28.886175678
 30
0.0
 10
1.9787072774
 20
28.8861676215
 30
0.0
 10
1.9810361112
 20
28.886154082
 30
0.0
 10
1.983362388
 20
28.8861366736
 30
0.0
 10
1.9864590025
 20
28.886108319
 30
0.0
 10
1.9903233961
 20
28.8860632188
 30
0.0
 10
1.9949529552
 20
28.8859935931
 30
0.0
 10
2.0011054585
 20
28.8858802457
 30
0.0
 10
2.008770669
 20
28.8856999936
 30
0.0
 10
2.0179378946
 20
28.8854215526
 30
0.0
 10
2.0270642097
 20
28.8850812055
 30
0.0
 10
2.036149618
 20
28.8846789518
 30
0.0
 10
2.0481840448
 20
28.8840613499
 30
0.0
 10
2.0631261458
 20
28.8831354916
 30
0.0
 10
2.0809301978
 20
28.8817745043
 30
0.0
 10
2.098570712
 20
28.880165849
 30
0.0
 10
2.121784368
 20
28.8777002042
 30
0.0
 10
2.1504047147
 20
28.8740049879
 30
0.0
 10
2.1842266749
 20
28.8685623537
 30
0.0
 10
2.2173949769
 20
28.8621281552
 30
0.0
 10
2.24990919
 20
28.8547023737
 30
0.0
 10
2.2777494156
 20
28.8473468204
 30
0.0
 10
2.2947098192
 20
28.8423544108
 30
0.0
 10
2.3011170912
 20
28.8403928291
 30
0.0
  0
SPLINE
  5
33A
100
AcDbEntity
  8
0
100
AcDbSpline
 62
7
  6
CONTINUOUS
 70
0
 71
3
 72
10
 73
6
 74
0
 42
0.0000001
 43
0.0000001
 44
0.0000000001
 40
0.0
 40
0.0
 40
0.0
 40
0.0
 40
0.0914379074
 40
0.5622186859
 40
1.0
 40
1.0
 40
1.0
 40
1.0
 10
2.3011170912
 20
28.8403928291
 30
0.0
 10
2.3050926945
 20
28.839175701
 30
0.0
 10
2.3294875186
 20
28.8315277947
 30
0.0
 10
2.3723085714
 20
28.8161118766
 30
0.0
 10
2.4101137324
 20
28.7993778958
 30
0.0
 10
2.4280228956
 20
28.790677558
 30
0.0
  0
SPLINE
  5
33B
100
AcDbEntity
  8
0
100
AcDbSpline
 62
7
  6
CONTINUOUS
 70
0
 71
3
 72
9
 73
5
 74
0
 42
0.0000001
 43
0.0000001
 44
0.0000000001
 40
0.0
 40
0.0
 40
0.0
 40
0.0
 40
0.7095580048
 40
1.0
 40
1.0
 40
1.0
 40
1.0
 10
2.4863843809
 20
28.7594046983
 30
0.0
 10
2.5923267541
 20
28.6927303192
 30
0.0
 10
2.694981631
 20
28.5191061363
 30
0.0
 10
2.7071678144
 20
28.3437519177
 30
0.0
 10
2.7077843809
 20
28.2925172061
 30
0.0
  0
SPLINE
  5
33C
100
AcDbEntity
  8
0
100
AcDbSpline
 62
7
  6
CONTINUOUS
 70
0
 71
3
 72
8
 73
4
 74
0
 42
0.0000001
 43
0.0000001
 44
0.0000000001
 40
0.0
 40
0.0
 40
0.0
 40
0.0
 40
1.0
 40
1.0
 40
1.0
 40
1.0
 10
0.2498984756
 20
30.0632687617
 30
0.0
 10
0.3407989575
 20
29.9760581419
 30
0.0
 10
0.4084555653
 20
29.8610927261
 30
0.0
 10
0.4481719356
 20
29.74154692
 30
0.0
  0
SPLINE
  5
33D
100
AcDbEntity
  8
0
100
AcDbSpline
 62
7
  6
CONTINUOUS
 70
0
 71
3
 72
8
 73
4
 74
0
 42
0.0000001
 43
0.0000001
 44
0.0000000001
 40
0.0
 40
0.0
 40
0.0
 40
0.0
 40
1.0
 40
1.0
 40
1.0
 40
1.0
 10
0.4481719356
 20
29.74154692
 30
0.0
 10
0.4968376118
 20
29.6137073778
 30
0.0
 10
0.5269990792
 20
29.4776910987
 30
0.0
 10
0.5395250156
 20
29.3414765713
 30
0.0
  0
SPLINE
  5
33E
100
AcDbEntity
  8
0
100
AcDbSpline
 62
7
  6
CONTINUOUS
 70
0
 71
3
 72
21
 73
17
 74
0
 42
0.0000001
 43
0.0000001
 44
0.0000000001
 40
0.0
 40
0.0
 40
0.0
 40
0.0
 40
0.1348335778
 40
0.2637504517
 40
0.3565684849
 40
0.4017373396
 40
0.4460811474
 40
0.4896013824
 40
0.5110740671
 40
0.5326340515
 40
0.5762674878
 40
0.6205868959
 40
0.7112891213
 40
0.8047521348
 40
0.9009860164
 40
1.0
 40
1.0
 40
1.0
 40
1.0
 10
0.5395250156
 20
29.3414765713
 30
0.0
 10
0.5414264228
 20
29.3067184008
 30
0.0
 10
0.5447701682
 20
29.23870597
 30
0.0
 10
0.548156766
 20
29.1467100345
 30
0.0
 10
0.5498724263
 20
29.0778231843
 30
0.0
 10
0.5506562066
 20
29.0307569699
 30
0.0
 10
0.5510337618
 20
28.9964136002
 30
0.0
 10
0.5511784666
 20
28.9681861997
 30
0.0
 10
0.5511901011
 20
28.9458407089
 30
0.0
 10
0.5511325526
 20
28.9234660656
 30
0.0
 10
0.550931223
 20
28.8951935414
 30
0.0
 10
0.5503324394
 20
28.8490736315
 30
0.0
 10
0.5490604901
 20
28.7900978837
 30
0.0
 10
0.5467265096
 20
28.7177432923
 30
0.0
 10
0.5435732897
 20
28.6432720498
 30
0.0
 10
0.5409622128
 20
28.5929315162
 30
0.0
 10
0.5395250156
 20
28.5674093965
 30
0.0
  0
SPLINE
  5
33F
100
AcDbEntity
  8
0
100
AcDbSpline
 62
7
  6
CONTINUOUS
 70
0
 71
3
 72
8
 73
4
 74
0
 42
0.0000001
 43
0.0000001
 44
0.0000000001
 40
0.0
 40
0.0
 40
0.0
 40
0.0
 40
1.0
 40
1.0
 40
1.0
 40
1.0
 10
0.5395250156
 20
28.5674093965
 30
0.0
 10
0.5269391174
 20
28.4292136238
 30
0.0
 10
0.4966362955
 20
28.2912826863
 30
0.0
 10
0.4481719356
 20
28.1612531426
 30
0.0
  0
SPLINE
  5
340
100
AcDbEntity
  8
0
100
AcDbSpline
 62
7
  6
CONTINUOUS
 70
0
 71
3
 72
114
 73
110
 74
0
 42
0.0000001
 43
0.0000001
 44
0.0000000001
 40
0.0
 40
0.0
 40
0.0
 40
0.0
 40
0.0379474741
 40
0.0563369431
 40
0.0744441192
 40
0.0923596885
 40
0.1012762823
 40
0.1101802404
 40
0.1190834886
 40
0.1235387614
 40
0.125767938
 40
0.1279983735
 40
0.1302376956
 40
0.1313868375
 40
0.1325348888
 40
0.1371173162
 40
0.1462484924
 40
0.1553641297
 40
0.1644979248
 40
0.1829452782
 40
0.2018585938
 40
0.2214790077
 40
0.2316260822
 40
0.242028665
 40
0.2527094532
 40
0.2581611021
 40
0.2636900223
 40
0.266484237
 40
0.2692818766
 40
0.2720171116
 40
0.2747335359
 40
0.2801110648
 40
0.285416976
 40
0.2958235312
 40
0.3059753675
 40
0.3158956878
 40
0.3256093547
 40
0.3445169889
 40
0.3629340828
 40
0.3720396865
 40
0.3811166976
 40
0.3901975473
 40
0.3947500474
 40
0.399315627
 40
0.4016046303
 40
0.4038983943
 40
0.4050472228
 40
0.4061801871
 40
0.4084279979
 40
0.4129174606
 40
0.4174000744
 40
0.4263506236
 40
0.4352926054
 40
0.4531981338
 40
0.47122019
 40
0.4894572309
 40
0.5080042902
 40
0.5174238755
 40
0.5269543879
 40
0.5317646694
 40
0.5366299306
 40
0.5391107187
 40
0.5415928947
 40
0.5465615512
 40
0.5515362086
 40
0.556517165
 40
0.5664990877
 40
0.5865509261
 40
0.6067363748
 40
0.6270737076
 40
0.6475807924
 40
0.6579037229
 40
0.6630834391
 40
0.668275653
 40
0.6734806269
 40
0.6760879843
 40
0.6786986291
 40
0.6800009398
 40
0.6812686501
 40
0.6837989067
 40
0.6888387847
 40
0.6988361658
 40
0.7087240655
 40
0.7185028983
 40
0.7281730926
 40
0.747189237
 40
0.7657763384
 40
0.7839383919
 40
0.8016796797
 40
0.8103940348
 40
0.8147155514
 40
0.8190554901
 40
0.8278288066
 40
0.8367272257
 40
0.8549014899
 40
0.8735827026
 40
0.8927747994
 40
0.9124814102
 40
0.9225287655
 40
0.9327059845
 40
0.9430134474
 40
0.9456107104
 40
0.9482161421
 40
0.9533928496
 40
0.9585501617
 40
0.963692984
 40
0.9739361641
 40
0.9942600118
 40
1.0
 40
1.0
 40
1.0
 40
1.0
 10
0.4481719356
 20
28.1612531426
 30
0.0
 10
0.4364504272
 20
28.1267092572
 30
0.0
 10
0.4159347116
 20
28.0763732546
 30
0.0
 10
0.3822707851
 20
28.0131749459
 30
0.0
 10
0.3544936136
 20
27.9688007411
 30
0.0
 10
0.3289792112
 20
27.933890322
 30
0.0
 10
0.3072169263
 20
27.9073017931
 30
0.0
 10
0.2902262518
 20
27.8880260044
 30
0.0
 10
0.275492434
 20
27.8724979956
 30
0.0
 10
0.2648850452
 20
27.8619133647
 30
0.0
 10
0.2587344577
 20
27.855945751
 30
0.0
 10
0.2540775095
 20
27.8514979396
 30
0.0
 10
0.2501197961
 20
27.8478219323
 30
0.0
 10
0.2469694504
 20
27.8448064135
 30
0.0
 10
0.2421373534
 20
27.8402911496
 30
0.0
 10
0.2315286083
 20
27.8307200746
 30
0.0
 10
0.2145673683
 20
27.8167715702
 30
0.0
 10
0.1932479875
 20
27.8013078379
 30
0.0
 10
0.1634704515
 20
27.7823606124
 30
0.0
 10
0.1236326305
 20
27.7618430348
 30
0.0
 10
0.0722381404
 20
27.7425748569
 30
0.0
 10
0.0267959897
 20
27.7310153708
 30
0.0
 10
-0.0112441364
 20
27.7243104241
 30
0.0
 10
-0.0410368287
 20
27.7205191149
 30
0.0
 10
-0.0664696049
 20
27.718452941
 30
0.0
 10
-0.0872686391
 20
27.7174338781
 30
0.0
 10
-0.1005060478
 20
27.7170630663
 30
0.0
 10
-0.1111955661
 20
27.7169267733
 30
0.0
 10
-0.1192003945
 20
27.7169040061
 30
0.0
 10
-0.1271302693
 20
27.7169621623
 30
0.0
 10
-0.1375387313
 20
27.7171466872
 30
0.0
 10
-0.1504137715
 20
27.7175771445
 30
0.0
 10
-0.1706578524
 20
27.7186918882
 30
0.0
 10
-0.1954338503
 20
27.7208788512
 30
0.0
 10
-0.2244778631
 20
27.7248149691
 30
0.0
 10
-0.2526415232
 20
27.7300468176
 30
0.0
 10
-0.2886870196
 20
27.7386706205
 30
0.0
 10
-0.3317836216
 20
27.7526709236
 30
0.0
 10
-0.3724849485
 20
27.7712517099
 30
0.0
 10
-0.4030760356
 20
27.7886664633
 30
0.0
 10
-0.4250510094
 20
27.802977011
 30
0.0
 10
-0.4426100965
 20
27.8159729653
 30
0.0
 10
-0.4561940553
 20
27.8270001854
 30
0.0
 10
-0.4645019192
 20
27.8341600083
 30
0.0
 10
-0.4710317213
 20
27.840050842
 30
0.0
 10
-0.4750768387
 20
27.8437921682
 30
0.0
 10
-0.4782534461
 20
27.8468345784
 30
0.0
 10
-0.4814466579
 20
27.8497949173
 30
0.0
 10
-0.4869946683
 20
27.8549385738
 30
0.0
 10
-0.4947827753
 20
27.8624012844
 30
0.0
 10
-0.507009152
 20
27.8745408358
 30
0.0
 10
-0.5218415356
 20
27.8901256563
 30
0.0
 10
-0.5446195509
 20
27.9159288061
 30
0.0
 10
-0.5713217103
 20
27.9498586008
 30
0.0
 10
-0.600403847
 20
27.993103736
 30
0.0
 10
-0.6265449632
 20
28.0388975899
 30
0.0
 10
-0.6457788101
 20
28.0789752624
 30
0.0
 10
-0.6596977355
 20
28.1122307936
 30
0.0
 10
-0.6678049849
 20
28.1335890376
 30
0.0
 10
-0.6739412245
 20
28.1510028244
 30
0.0
 10
-0.6776291762
 20
28.1620917176
 30
0.0
 10
-0.6805775117
 20
28.1710676122
 30
0.0
 10
-0.6835182733
 20
28.1801505834
 30
0.0
 10
-0.6871323407
 20
28.1915352874
 30
0.0
 10
-0.6913665965
 20
28.2052428539
 30
0.0
 10
-0.6968816133
 20
28.2235981014
 30
0.0
 10
-0.706193596
 20
28.2559447802
 30
0.0
 10
-0.7184781916
 20
28.3026390471
 30
0.0
 10
-0.7315820044
 20
28.3593839021
 30
0.0
 10
-0.7430703119
 20
28.4169239171
 30
0.0
 10
-0.7512792838
 20
28.4654281793
 30
0.0
 10
-0.7563163408
 20
28.4996764637
 30
0.0
 10
-0.7589998114
 20
28.5193885021
 30
0.0
 10
-0.7609140585
 20
28.5342396395
 30
0.0
 10
-0.7624237649
 20
28.5466493465
 30
0.0
 10
-0.7635822755
 20
28.556601641
 30
0.0
 10
-0.7642825664
 20
28.5628302788
 30
0.0
 10
-0.7648317257
 20
28.5677800545
 30
0.0
 10
-0.7653249799
 20
28.5726580437
 30
0.0
 10
-0.7661897433
 20
28.5811096024
 30
0.0
 10
-0.7678557304
 20
28.5979146923
 30
0.0
 10
-0.7701150039
 20
28.6217683125
 30
0.0
 10
-0.7726189478
 20
28.6501740863
 30
0.0
 10
-0.7749121641
 20
28.6782821068
 30
0.0
 10
-0.7776719052
 20
28.7151552557
 30
0.0
 10
-0.7806011199
 20
28.7605056815
 30
0.0
 10
-0.78329024
 20
28.8140465275
 30
0.0
 10
-0.7851333832
 20
28.8663970329
 30
0.0
 10
-0.7859691947
 20
28.9092813084
 30
0.0
 10
-0.786178311
 20
28.9388665589
 30
0.0
 10
-0.7861902052
 20
28.9555697394
 30
0.0
 10
-0.78613088
 20
28.9723294895
 30
0.0
 10
-0.7859232427
 20
28.9934882707
 30
0.0
 10
-0.7853057416
 20
29.0279413239
 30
0.0
 10
-0.783994353
 20
29.0719062862
 30
0.0
 10
-0.781585716
 20
29.1257320378
 30
0.0
 10
-0.7783313562
 20
29.1809888267
 30
0.0
 10
-0.7749365758
 20
29.2279188228
 30
0.0
 10
-0.7718059482
 20
29.2661764761
 30
0.0
 10
-0.7692286804
 20
29.2954132958
 30
0.0
 10
-0.7671543193
 20
29.3175046943
 30
0.0
 10
-0.7656946105
 20
29.3323427251
 30
0.0
 10
-0.7647308331
 20
29.3422738057
 30
0.0
 10
-0.7633029774
 20
29.354630729
 30
0.0
 10
-0.7615317359
 20
29.3694025113
 30
0.0
 10
-0.7590250052
 20
29.3889910409
 30
0.0
 10
-0.7543056111
 20
29.4229934611
 30
0.0
 10
-0.7487487803
 20
29.4574553275
 30
0.0
 10
-0.7442850621
 20
29.4821105706
 30
0.0
 10
-0.743278852
 20
29.487536041
 30
0.0
  0
SPLINE
  5
341
100
AcDbEntity
  8
0
100
AcDbSpline
 62
7
  6
CONTINUOUS
 70
0
 71
3
 72
17
 73
13
 74
0
 42
0.0000001
 43
0.0000001
 44
0.0000000001
 40
0.0
 40
0.0
 40
0.0
 40
0.0
 40
0.1395536936
 40
0.3330278619
 40
0.5249107167
 40
0.7153892768
 40
0.8101645725
 40
0.8574464324
 40
0.8810622017
 40
0.9049757923
 40
0.9526533926
 40
1.0
 40
1.0
 40
1.0
 40
1.0
 10
-0.743278852
 20
29.487536041
 30
0.0
 10
-0.7407575796
 20
29.5011307056
 30
0.0
 10
-0.7343936518
 20
29.533508195
 30
0.0
 10
-0.7230350925
 20
29.5842654476
 30
0.0
 10
-0.7088521138
 20
29.6395329749
 30
0.0
 10
-0.6956760455
 20
29.6849400918
 30
0.0
 10
-0.6857165256
 20
29.7163448573
 30
0.0
 10
-0.6805970307
 20
29.7319399696
 30
0.0
 10
-0.6775644632
 20
29.7408304017
 30
0.0
 10
-0.674669414
 20
29.7498077646
 30
0.0
 10
-0.6708770603
 20
29.7609650169
 30
0.0
 10
-0.6677181448
 20
29.7698337847
 30
0.0
 10
-0.6661080187
 20
29.7742396231
 30
0.0
  0
SPLINE
  5
342
100
AcDbEntity
  8
0
100
AcDbSpline
 62
7
  6
CONTINUOUS
 70
0
 71
3
 72
8
 73
4
 74
0
 42
0.0000001
 43
0.0000001
 44
0.0000000001
 40
0.0
 40
0.0
 40
0.0
 40
0.0
 40
1.0
 40
1.0
 40
1.0
 40
1.0
 10
-0.4790686992
 20
30.0632687617
 30
0.0
 10
-0.3831246366
 20
30.1468810588
 30
0.0
 10
-0.2447442254
 20
30.183606999
 30
0.0
 10
-0.1175
 20
30.1858843809
 30
0.0
  0
SPLINE
  5
343
100
AcDbEntity
  8
0
100
AcDbSpline
 62
7
  6
CONTINUOUS
 70
0
 71
3
 72
8
 73
4
 74
0
 42
0.0000001
 43
0.0000001
 44
0.0000000001
 40
0.0
 40
0.0
 40
0.0
 40
0.0
 40
1.0
 40
1.0
 40
1.0
 40
1.0
 10
-0.1175
 20
30.1858843809
 30
0.0
 10
0.0115867843
 20
30.1836322445
 30
0.0
 10
0.1525658521
 20
30.1480911078
 30
0.0
 10
0.2498984756
 20
30.0632687617
 30
0.0
  0
SPLINE
  5
344
100
AcDbEntity
  8
0
100
AcDbSpline
 62
7
  6
CONTINUOUS
 70
0
 71
3
 72
28
 73
24
 74
0
 42
0.0000001
 43
0.0000001
 44
0.0000000001
 40
0.0
 40
0.0
 40
0.0
 40
0.0
 40
0.1710619114
 40
0.2513770821
 40
0.328736214
 40
0.4036148735
 40
0.4765371729
 40
0.5124497614
 40
0.5480890388
 40
0.5658310778
 40
0.5835334001
 40
0.6012056966
 40
0.6100337802
 40
0.6188580132
 40
0.6276431184
 40
0.6364141659
 40
0.6539162601
 40
0.6887762131
 40
0.7234769298
 40
0.7580566843
 40
0.8958452097
 40
0.9650655443
 40
1.0
 40
1.0
 40
1.0
 40
1.0
 10
-0.1184608896
 20
27.4508
 30
0.0
 10
-0.0703694506
 20
27.4514431346
 30
0.0
 10
0.0004009858
 20
27.4563415567
 30
0.0
 10
0.0914663139
 20
27.4725316568
 30
0.0
 10
0.1548603632
 20
27.4888277192
 30
0.0
 10
0.2147591368
 20
27.5095351347
 30
0.0
 10
0.2620085955
 20
27.5305874033
 30
0.0
 10
0.2979123145
 20
27.5496102642
 30
0.0
 10
0.3195433946
 20
27.5623739855
 30
0.0
 10
0.3363914751
 20
27.5731272387
 30
0.0
 10
0.3487923421
 20
27.5814517269
 30
0.0
 10
0.3589403519
 20
27.5886279555
 30
0.0
 10
0.3669617529
 20
27.5944851629
 30
0.0
 10
0.3728732625
 20
27.5989920251
 30
0.0
 10
0.3788702399
 20
27.6033571762
 30
0.0
 10
0.3867458345
 20
27.6092849875
 30
0.0
 10
0.4003740741
 20
27.6197598364
 30
0.0
 10
0.4194024521
 20
27.635166112
 30
0.0
 10
0.4415464505
 20
27.6543320061
 30
0.0
 10
0.484274476
 20
27.6938817542
 30
0.0
 10
0.530244819
 20
27.7442370294
 30
0.0
 10
0.5708231971
 20
27.7988786729
 30
0.0
 10
0.5870989008
 20
27.8232336578
 30
0.0
 10
0.5924226763
 20
27.8314901218
 30
0.0
  0
SPLINE
  5
345
100
AcDbEntity
  8
0
100
AcDbSpline
 62
7
  6
CONTINUOUS
 70
0
 71
3
 72
17
 73
13
 74
0
 42
0.0000001
 43
0.0000001
 44
0.0000000001
 40
0.0
 40
0.0
 40
0.0
 40
0.0
 40
0.112509053
 40
0.3405875216
 40
0.4560272983
 40
0.5141450594
 40
0.5725453196
 40
0.6315470787
 40
0.6906212448
 40
0.809003763
 40
0.9277300063
 40
1.0
 40
1.0
 40
1.0
 40
1.0
 10
0.5924226763
 20
27.8314901218
 30
0.0
 10
0.5977396216
 20
27.8397359932
 30
0.0
 10
0.6134267281
 20
27.8649623535
 30
0.0
 10
0.6327630836
 20
27.8997371261
 30
0.0
 10
0.648326319
 20
27.9311125908
 30
0.0
 10
0.6568891741
 20
27.9494353306
 30
0.0
 10
0.6631634023
 20
27.9633942606
 30
0.0
 10
0.6692269202
 20
27.9775364092
 30
0.0
 10
0.6772279545
 20
27.9965372226
 30
0.0
 10
0.6869223033
 20
28.0204741086
 30
0.0
 10
0.6966176926
 20
28.0456473514
 30
0.0
 10
0.7023859898
 20
28.0612695508
 30
0.0
 10
0.7045376842
 20
28.0671920322
 30
0.0
  0
SPLINE
  5
346
100
AcDbEntity
  8
0
100
AcDbSpline
 62
7
  6
CONTINUOUS
 70
0
 71
3
 72
74
 73
70
 74
0
 42
0.0000001
 43
0.0000001
 44
0.0000000001
 40
0.0
 40
0.0
 40
0.0
 40
0.0
 40
0.0067582555
 40
0.0413148226
 40
0.0761509084
 40
0.1113057064
 40
0.1468173543
 40
0.1647191704
 40
0.182723972
 40
0.1917664502
 40
0.2008363318
 40
0.2099341589
 40
0.2144937286
 40
0.2167762055
 40
0.2190604877
 40
0.2213042425
 40
0.22354665
 40
0.22802743
 40
0.2369729019
 40
0.2458970298
 40
0.2547999369
 40
0.2725425541
 40
0.2902017871
 40
0.3252739226
 40
0.3600249039
 40
0.3944632714
 40
0.4115680979
 40
0.4285980818
 40
0.4455543571
 40
0.4624380724
 40
0.4708531014
 40
0.479250428
 40
0.4876302
 40
0.4918135518
 40
0.493903602
 40
0.4959925714
 40
0.4981498801
 40
0.5003080021
 40
0.5046266945
 40
0.5132739343
 40
0.5219344401
 40
0.5306083557
 40
0.547996952
 40
0.5654408952
 40
0.6004990353
 40
0.6357919306
 40
0.6713282772
 40
0.7071165936
 40
0.725107982
 40
0.743165475
 40
0.7522193439
 40
0.7612901183
 40
0.7703779235
 40
0.7749282534
 40
0.7772050317
 40
0.779482888
 40
0.7817333627
 40
0.7839823097
 40
0.7884756513
 40
0.79744435
 40
0.806389538
 40
0.8153117546
 40
0.8330893148
 40
0.8507815637
 40
0.8859268976
 40
0.9207852858
 40
0.955394056
 40
0.9897913487
 40
1.0
 40
1.0
 40
1.0
 40
1.0
 10
0.7045376842
 20
28.0671920322
 30
0.0
 10
0.7059321224
 20
28.0710301857
 30
0.0
 10
0.7143772181
 20
28.0945227046
 30
0.0
 10
0.7290509767
 20
28.1381433503
 30
0.0
 10
0.7471579288
 20
28.1986758419
 30
0.0
 10
0.7633887977
 20
28.2603347901
 30
0.0
 10
0.7753187164
 20
28.3125143329
 30
0.0
 10
0.7839293265
 20
28.354801246
 30
0.0
 10
0.7889280645
 20
28.3814983033
 30
0.0
 10
0.7926930097
 20
28.4029944189
 30
0.0
 10
0.7954051107
 20
28.4192106795
 30
0.0
 10
0.7975616834
 20
28.4327729265
 30
0.0
 10
0.7990278754
 20
28.4422921889
 30
0.0
 10
0.7998387154
 20
28.4477465598
 30
0.0
 10
0.8004725382
 20
28.4518130412
 30
0.0
 10
0.8009575619
 20
28.455875545
 30
0.0
 10
0.8016435263
 20
28.4612499625
 30
0.0
 10
0.8028066418
 20
28.4706458486
 30
0.0
 10
0.804440487
 20
28.4840514639
 30
0.0
 10
0.8063330493
 20
28.5001172622
 30
0.0
 10
0.8087697475
 20
28.5214710668
 30
0.0
 10
0.8116551554
 20
28.5480857971
 30
0.0
 10
0.8159253104
 20
28.5904541633
 30
0.0
 10
0.820625705
 20
28.6431067712
 30
0.0
 10
0.8252522753
 20
28.7059373217
 30
0.0
 10
0.8282584515
 20
28.7579948085
 30
0.0
 10
0.8301462775
 20
28.7993863163
 30
0.0
 10
0.8313022429
 20
28.8302359375
 30
0.0
 10
0.8322014452
 20
28.8609604239
 30
0.0
 10
0.8327373798
 20
28.8864869894
 30
0.0
 10
0.8330373328
 20
28.9068451005
 30
0.0
 10
0.8331978693
 20
28.9220662099
 30
0.0
 10
0.833278205
 20
28.9347309873
 30
0.0
 10
0.8333063133
 20
28.9435848772
 30
0.0
 10
0.833314349
 20
28.9486376909
 30
0.0
 10
0.833316351
 20
28.9524663085
 30
0.0
 10
0.833314338
 20
28.9563360573
 30
0.0
 10
0.833306321
 20
28.9615530725
 30
0.0
 10
0.8332782101
 20
28.9706914849
 30
0.0
 10
0.8331979069
 20
28.9837586805
 30
0.0
 10
0.8330373862
 20
28.999456877
 30
0.0
 10
0.8327375415
 20
29.0204355669
 30
0.0
 10
0.8322018727
 20
29.0467184633
 30
0.0
 10
0.8310011789
 20
29.0889319978
 30
0.0
 10
0.8288550727
 20
29.141939629
 30
0.0
 10
0.8252567281
 20
29.2058215699
 30
0.0
 10
0.8206311897
 20
29.2700796625
 30
0.0
 10
0.8159291379
 20
29.3238444144
 30
0.0
 10
0.811656887
 20
29.3670403704
 30
0.0
 10
0.8087708667
 20
29.3941399883
 30
0.0
 10
0.8063334783
 20
29.4158661572
 30
0.0
 10
0.8044411742
 20
29.4321996287
 30
0.0
 10
0.8028063696
 20
29.4458233222
 30
0.0
 10
0.8016443931
 20
29.4553692933
 30
0.0
 10
0.8009562059
 20
29.4608274498
 30
0.0
 10
0.8004826644
 20
29.4649125866
 30
0.0
 10
0.7998386973
 20
29.4689573083
 30
0.0
 10
0.799030691
 20
29.4743304612
 30
0.0
 10
0.7975656176
 20
29.4837099732
 30
0.0
 10
0.7954126515
 20
29.4970769315
 30
0.0
 10
0.792704351
 20
29.5130646254
 30
0.0
 10
0.7889438932
 20
29.5342718149
 30
0.0
 10
0.7839504348
 20
29.560627338
 30
0.0
 10
0.7753461422
 20
29.6024201923
 30
0.0
 10
0.7634222413
 20
29.654060171
 30
0.0
 10
0.7472054473
 20
29.7151663251
 30
0.0
 10
0.7291126487
 20
29.7752718765
 30
0.0
 10
0.7137886471
 20
29.8206270354
 30
0.0
 10
0.7046026671
 20
29.84596643
 30
0.0
 10
0.7024710621
 20
29.8517548762
 30
0.0
  0
SPLINE
  5
347
100
AcDbEntity
  8
0
100
AcDbSpline
 62
7
  6
CONTINUOUS
 70
0
 71
3
 72
16
 73
12
 74
0
 42
0.0000001
 43
0.0000001
 44
0.0000000001
 40
0.0
 40
0.0
 40
0.0
 40
0.0
 40
0.0602320978
 40
0.2089442603
 40
0.3573667056
 40
0.4314834819
 40
0.5055440811
 40
0.5788240724
 40
0.6517498414
 40
0.7966035709
 40
1.0
 40
1.0
 40
1.0
 40
1.0
 10
0.7024710621
 20
29.8517548762
 30
0.0
 10
0.7010254258
 20
29.8556805512
 30
0.0
 10
0.6959638272
 20
29.8692814214
 30
0.0
 10
0.6870289935
 20
29.8924392663
 30
0.0
 10
0.6773434749
 20
29.9163375321
 30
0.0
 10
0.6693495989
 20
29.9353233743
 30
0.0
 10
0.6632918376
 20
29.9494617634
 30
0.0
 10
0.6570254167
 20
29.9634186641
 30
0.0
 10
0.6484732937
 20
29.9817365419
 30
0.0
 10
0.6354833155
 20
30.0079510624
 30
0.0
 10
0.6239239033
 20
30.0292097894
 30
0.0
 10
0.6168917122
 20
30.0414649344
 30
0.0
  0
SPLINE
  5
348
100
AcDbEntity
  8
0
100
AcDbSpline
 62
7
  6
CONTINUOUS
 70
0
 71
3
 72
22
 73
18
 74
0
 42
0.0000001
 43
0.0000001
 44
0.0000000001
 40
0.0
 40
0.0
 40
0.0
 40
0.0
 40
0.1133580945
 40
0.3133909474
 40
0.5134706155
 40
0.6138250796
 40
0.7145296138
 40
0.7650496006
 40
0.8156985875
 40
0.8664902034
 40
0.8919439349
 40
0.9046859903
 40
0.9174384334
 40
0.9299216555
 40
0.9424121593
 40
0.9674165576
 40
1.0
 40
1.0
 40
1.0
 40
1.0
 10
0.561507766
 20
30.1265416841
 30
0.0
 10
0.5550020781
 20
30.1353859686
 30
0.0
 10
0.5365568971
 20
30.1594989374
 30
0.0
 10
0.5042901924
 20
30.197378757
 30
0.0
 10
0.470418764
 20
30.2320966602
 30
0.0
 10
0.4419247435
 20
30.2585063149
 30
0.0
 10
0.4235113193
 20
30.2744659143
 30
0.0
 10
0.4084256462
 20
30.2868999134
 30
0.0
 10
0.3969179425
 20
30.2960725243
 30
0.0
 10
0.3871825457
 20
30.303571217
 30
0.0
 10
0.3802957526
 20
30.308751222
 30
0.0
 10
0.3763291161
 20
30.3116848082
 30
0.0
 10
0.3733797455
 20
30.3138822458
 30
0.0
 10
0.3703801414
 20
30.3159682191
 30
0.0
 10
0.3664101508
 20
30.3187361132
 30
0.0
 10
0.3608029038
 20
30.3225589241
 30
0.0
 10
0.356155593
 20
30.3256418229
 30
0.0
 10
0.353513424
 20
30.3273666843
 30
0.0
  0
SPLINE
  5
349
100
AcDbEntity
  8
0
100
AcDbSpline
 62
7
  6
CONTINUOUS
 70
0
 71
3
 72
12
 73
8
 74
0
 42
0.0000001
 43
0.0000001
 44
0.0000000001
 40
0.0
 40
0.0
 40
0.0
 40
0.0
 40
0.0073631994
 40
0.1582122424
 40
0.3137274529
 40
0.6423277111
 40
1.0
 40
1.0
 40
1.0
 40
1.0
 10
0.2743408222
 20
30.3715332609
 30
0.0
 10
0.273446691
 20
30.3719556607
 30
0.0
 10
0.254214993
 20
30.3809907126
 30
0.0
 10
0.2152533128
 20
30.3971622225
 30
0.0
 10
0.1340221762
 20
30.4233425179
 30
0.0
 10
0.0227232568
 20
30.4453507005
 30
0.0
 10
-0.0694743398
 20
30.4513570728
 30
0.0
 10
-0.1175
 20
30.452
 30
0.0
  0
SPLINE
  5
34A
100
AcDbEntity
  8
0
100
AcDbSpline
 62
7
  6
CONTINUOUS
 70
0
 71
3
 72
26
 73
22
 74
0
 42
0.0000001
 43
0.0000001
 44
0.0000000001
 40
0.0
 40
0.0
 40
0.0
 40
0.0
 40
0.2454543512
 40
0.4729913322
 40
0.5815214244
 40
0.6873732643
 40
0.7395271654
 40
0.7912821825
 40
0.817041304
 40
0.8427365683
 40
0.8683801371
 40
0.8811865486
 40
0.8875865584
 40
0.8939846777
 40
0.9004324944
 40
0.9068754535
 40
0.9197471931
 40
0.9454368069
 40
0.9710605433
 40
0.9966252426
 40
1.0
 40
1.0
 40
1.0
 40
1.0
 10
-0.1175
 20
30.452
 30
0.0
 10
-0.1642515087
 20
30.4513546571
 30
0.0
 10
-0.2543908471
 20
30.4452756147
 30
0.0
 10
-0.363364356
 20
30.423232506
 30
0.0
 10
-0.4434668806
 20
30.3971035643
 30
0.0
 10
-0.4903765104
 20
30.3775134756
 30
0.0
 10
-0.5262094178
 20
30.359812709
 30
0.0
 10
-0.5478765903
 20
30.347935923
 30
0.0
 10
-0.5648016027
 20
30.3379304135
 30
0.0
 10
-0.5772806118
 20
30.330184699
 30
0.0
 10
-0.5875172708
 20
30.3235114416
 30
0.0
 10
-0.594602265
 20
30.3187367043
 30
0.0
 10
-0.5986156989
 20
30.315965651
 30
0.0
 10
-0.6016456374
 20
30.3139003726
 30
0.0
 10
-0.604576056
 20
30.3116825747
 30
0.0
 10
-0.6085123416
 20
30.3087522973
 30
0.0
 10
-0.6153415073
 20
30.3035696962
 30
0.0
 10
-0.6249994895
 20
30.2960717126
 30
0.0
 10
-0.6364158555
 20
30.2868987086
 30
0.0
 10
-0.6444113442
 20
30.280257447
 30
0.0
 10
-0.6486189349
 20
30.2766956118
 30
0.0
 10
-0.649109149
 20
30.2762797154
 30
0.0
  0
SPLINE
  5
34B
100
AcDbEntity
  8
0
100
AcDbSpline
 62
7
  6
CONTINUOUS
 70
0
 71
3
 72
30
 73
26
 74
0
 42
0.0000001
 43
0.0000001
 44
0.0000000001
 40
0.0
 40
0.0
 40
0.0
 40
0.0
 40
0.0031962191
 40
0.0870020364
 40
0.1719400181
 40
0.2149448134
 40
0.236598437
 40
0.258359117
 40
0.2693528648
 40
0.2803510354
 40
0.3023613657
 40
0.3464431574
 40
0.3906171467
 40
0.4348954799
 40
0.5238103471
 40
0.6132860925
 40
0.7942697023
 40
0.8400168103
 40
0.8859836705
 40
0.9321810629
 40
0.9553696976
 40
0.9669870542
 40
0.9786199743
 40
0.9904169676
 40
1.0
 40
1.0
 40
1.0
 40
1.0
 10
-0.8020007174
 20
30.1076839159
 30
0.0
 10
-0.8024269221
 20
30.1070692446
 30
0.0
 10
-0.814007289
 20
30.0903231359
 30
0.0
 10
-0.8357596039
 20
30.056447815
 30
0.0
 10
-0.8598195811
 20
30.0130971576
 30
0.0
 10
-0.8753744124
 20
29.9817355349
 30
0.0
 10
-0.8839368791
 20
29.963417147
 30
0.0
 10
-0.8891697148
 20
29.9518112837
 30
0.0
 10
-0.8932340578
 20
29.9424154143
 30
0.0
 10
-0.8972971066
 20
29.9329554786
 30
0.0
 10
-0.9043044069
 20
29.916334553
 30
0.0
 10
-0.914032962
 20
29.8924378473
 30
0.0
 10
-0.9252455839
 20
29.863524262
 30
0.0
 10
-0.9396093355
 20
29.8245876537
 30
0.0
 10
-0.9564299569
 20
29.7752665026
 30
0.0
 10
-0.9809703153
 20
29.69483053
 30
0.0
 10
-0.9991274187
 20
29.6230435062
 30
0.0
 10
-1.0123728484
 20
29.5606277342
 30
0.0
 10
-1.018586453
 20
29.5289617899
 30
0.0
 10
-1.0233757277
 20
29.5023990612
 30
0.0
 10
-1.0265349965
 20
29.4837109405
 30
0.0
 10
-1.0282746525
 20
29.4729854833
 30
0.0
 10
-1.0295891906
 20
29.4648909774
 30
0.0
 10
-1.0306830544
 20
29.4572442777
 30
0.0
 10
-1.0314016039
 20
29.4522937092
 30
0.0
 10
-1.0317218723
 20
29.4500744893
 30
0.0
  0
SPLINE
  5
34C
100
AcDbEntity
  8
0
100
AcDbSpline
 62
7
  6
CONTINUOUS
 70
0
 71
3
 72
86
 73
82
 74
0
 42
0.0000001
 43
0.0000001
 44
0.0000000001
 40
0.0
 40
0.0
 40
0.0
 40
0.0
 40
0.0006192835
 40
0.0072383625
 40
0.0138439313
 40
0.0204361152
 40
0.033580802
 40
0.0466734726
 40
0.0727066362
 40
0.0985442499
 40
0.1241948934
 40
0.1496673353
 40
0.1623396637
 40
0.1749708151
 40
0.1812713256
 40
0.1875619731
 40
0.1938429027
 40
0.1969797711
 40
0.1985473139
 40
0.2001142653
 40
0.2016315788
 40
0.203149678
 40
0.2061882425
 40
0.212274899
 40
0.21837439
 40
0.2244868641
 40
0.2367513156
 40
0.249069462
 40
0.2614424592
 40
0.2738714479
 40
0.2989016107
 40
0.324169052
 40
0.3496823443
 40
0.3625339235
 40
0.3754500671
 40
0.3884317778
 40
0.3949475453
 40
0.3982117087
 40
0.4014800775
 40
0.4048007346
 40
0.4081162017
 40
0.4147317379
 40
0.421327067
 40
0.4279025618
 40
0.4409954619
 40
0.4540135818
 40
0.4798371502
 40
0.5053994762
 40
0.5307267871
 40
0.5558460463
 40
0.5683367081
 40
0.5807857746
 40
0.5931967941
 40
0.5993892103
 40
0.6055734603
 40
0.6116940617
 40
0.6177844074
 40
0.6298795989
 40
0.6537668805
 40
0.6773335384
 40
0.7006785525
 40
0.7239037366
 40
0.7471124816
 40
0.7587447064
 40
0.7704116023
 40
0.7821259241
 40
0.7880050093
 40
0.7909506915
 40
0.7939007089
 40
0.7969014974
 40
0.7999019116
 40
0.8059030405
 40
0.8119072268
 40
0.8179175023
 40
0.8299676471
 40
0.8420782261
 40
0.8665690334
 40
0.8915786036
 40
0.9172785935
 40
0.9438272712
 40
1.0
 40
1.0
 40
1.0
 40
1.0
 10
-1.0317218723
 20
29.4500744893
 30
0.0
 10
-1.0317954569
 20
29.4495646039
 30
0.0
 10
-1.0326544215
 20
29.4436047586
 30
0.0
 10
-1.0342602323
 20
29.4322006745
 30
0.0
 10
-1.0364949256
 20
29.4158675699
 30
0.0
 10
-1.0393682358
 20
29.3941429253
 30
0.0
 10
-1.0427721122
 20
29.3670452158
 30
0.0
 10
-1.0478097708
 20
29.3238547228
 30
0.0
 10
-1.053354912
 20
29.2700949501
 30
0.0
 10
-1.0588104508
 20
29.2058340198
 30
0.0
 10
-1.0630545248
 20
29.1419491406
 30
0.0
 10
-1.065585895
 20
29.088935958
 30
0.0
 10
-1.0670020272
 20
29.046719683
 30
0.0
 10
-1.0676337873
 20
29.0204360684
 30
0.0
 10
-1.0679874124
 20
28.9994570307
 30
0.0
 10
-1.0681767219
 20
28.983758783
 30
0.0
 10
-1.0682714274
 20
28.9706915184
 30
0.0
 10
-1.0683045796
 20
28.9615530768
 30
0.0
 10
-1.0683140346
 20
28.9563360581
 30
0.0
 10
-1.0683164078
 20
28.9524663085
 30
0.0
 10
-1.0683140498
 20
28.94863769
 30
0.0
 10
-1.068304589
 20
28.9435848729
 30
0.0
 10
-1.0682714943
 20
28.9347309531
 30
0.0
 10
-1.0681769073
 20
28.9220661056
 30
0.0
 10
-1.067987892
 20
28.9068449443
 30
0.0
 10
-1.0676347235
 20
28.8864864793
 30
0.0
 10
-1.0670036941
 20
28.8609591918
 30
0.0
 10
-1.0659449562
 20
28.8302343161
 30
0.0
 10
-1.0645839004
 20
28.7993843016
 30
0.0
 10
-1.0623609659
 20
28.7579890228
 30
0.0
 10
-1.0588209029
 20
28.7059248112
 30
0.0
 10
-1.0533731183
 20
28.6430915217
 30
0.0
 10
-1.0478392498
 20
28.5904439063
 30
0.0
 10
-1.0428121025
 20
28.5480810102
 30
0.0
 10
-1.0387308082
 20
28.5161050646
 30
0.0
 10
-1.0350802472
 20
28.4893887158
 30
0.0
 10
-1.0323992609
 20
28.4706444196
 30
0.0
 10
-1.0308207215
 20
28.4599052072
 30
0.0
 10
-1.029630802
 20
28.4517952691
 30
0.0
 10
-1.0283413683
 20
28.4436573288
 30
0.0
 10
-1.0265981618
 20
28.4327722463
 30
0.0
 10
-1.0243407466
 20
28.4192107371
 30
0.0
 10
-1.02151966
 20
28.4029942538
 30
0.0
 10
-1.0176116933
 20
28.3814981429
 30
0.0
 10
-1.0124445225
 20
28.3548011053
 30
0.0
 10
-1.0035842553
 20
28.3125146519
 30
0.0
 10
-0.9913799319
 20
28.2603369179
 30
0.0
 10
-0.9748789549
 20
28.1986797802
 30
0.0
 10
-0.9565621557
 20
28.1381491023
 30
0.0
 10
-0.9397530341
 20
28.0885534362
 30
0.0
 10
-0.9253997507
 20
28.049460342
 30
0.0
 10
-0.9141991758
 20
28.0204764388
 30
0.0
 10
-0.9044857183
 20
27.9965386905
 30
0.0
 10
-0.8964768373
 20
27.9775370708
 30
0.0
 10
-0.8904114615
 20
27.963394951
 30
0.0
 10
-0.8841391366
 20
27.9494360701
 30
0.0
 10
-0.8755842926
 20
27.9311144405
 30
0.0
 10
-0.8600505431
 20
27.8997455277
 30
0.0
 10
-0.83601681
 20
27.8563879085
 30
0.0
 10
-0.8041977628
 20
27.8067784251
 30
0.0
 10
-0.7695195382
 20
27.7598034873
 30
0.0
 10
-0.731984654
 20
27.7154686385
 30
0.0
 10
-0.6983467684
 20
27.6807472245
 30
0.0
 10
-0.6700665685
 20
27.6543365497
 30
0.0
 10
-0.6481265453
 20
27.6351706164
 30
0.0
 10
-0.6292753675
 20
27.6197643164
 30
0.0
 10
-0.6157809105
 20
27.6092832389
 30
0.0
 10
-0.6079779802
 20
27.603361743
 30
0.0
 10
-0.6020305714
 20
27.5989570736
 30
0.0
 10
-0.5960721993
 20
27.5944907896
 30
0.0
 10
-0.5879895969
 20
27.5886283589
 30
0.0
 10
-0.5777704895
 20
27.5814576215
 30
0.0
 10
-0.5653073118
 20
27.5731320402
 30
0.0
 10
-0.5484156214
 20
27.5623859313
 30
0.0
 10
-0.5267892628
 20
27.5496296963
 30
0.0
 10
-0.4910408413
 20
27.5306316779
 30
0.0
 10
-0.4442250246
 20
27.5095984763
 30
0.0
 10
-0.3851255799
 20
27.4888771164
 30
0.0
 10
-0.3228879096
 20
27.4725668871
 30
0.0
 10
-0.2340898669
 20
27.4563946002
 30
0.0
 10
-0.1651854432
 20
27.4514455464
 30
0.0
 10
-0.1184608896
 20
27.4508
 30
0.0
  0
SPLINE
  5
34D
100
AcDbEntity
  8
0
100
AcDbSpline
 62
7
  6
CONTINUOUS
 70
0
 71
3
 72
8
 73
4
 74
0
 42
0.0000001
 43
0.0000001
 44
0.0000000001
 40
0.0
 40
0.0
 40
0.0
 40
0.0
 40
1.0
 40
1.0
 40
1.0
 40
1.0
 10
-54.4157909308
 20
0.8354161422
 30
0.0
 10
-54.6029810862
 20
0.942457741
 30
0.0
 10
-54.7414073029
 20
1.1773758228
 30
0.0
 10
-54.7437946685
 20
1.3929966685
 30
0.0
  0
SPLINE
  5
34E
100
AcDbEntity
  8
0
100
AcDbSpline
 62
7
  6
CONTINUOUS
 70
0
 71
3
 72
9
 73
5
 74
0
 42
0.0000001
 43
0.0000001
 44
0.0000000001
 40
0.0
 40
0.0
 40
0.0
 40
0.0
 40
0.5130790416
 40
1.0
 40
1.0
 40
1.0
 40
1.0
 10
-54.7437946685
 20
1.3929966685
 30
0.0
 10
-54.7416159239
 20
1.5334219952
 30
0.0
 10
-54.6797679928
 20
1.8450259173
 30
0.0
 10
-54.371637266
 20
1.9303573617
 30
0.0
 10
-54.2383726082
 20
1.9325149954
 30
0.0
  0
SPLINE
  5
34F
100
AcDbEntity
  8
0
100
AcDbSpline
 62
7
  6
CONTINUOUS
 70
0
 71
3
 72
11
 73
7
 74
0
 42
0.0000001
 43
0.0000001
 44
0.0000000001
 40
0.0
 40
0.0
 40
0.0
 40
0.0
 40
0.340593537
 40
0.650097761
 40
0.9360231856
 40
1.0
 40
1.0
 40
1.0
 40
1.0
 10
-54.2383726082
 20
1.9325149954
 30
0.0
 10
-54.203564626
 20
1.9320329552
 30
0.0
 10
-54.137063863
 20
1.9274708475
 30
0.0
 10
-54.0431417702
 20
1.9074802941
 30
0.0
 10
-53.9801637049
 20
1.8823195134
 30
0.0
 10
-53.9487996456
 20
1.8650812143
 30
0.0
 10
-53.9431411697
 20
1.8617991162
 30
0.0
  0
SPLINE
  5
350
100
AcDbEntity
  8
0
100
AcDbSpline
 62
7
  6
CONTINUOUS
 70
0
 71
3
 72
22
 73
18
 74
0
 42
0.0000001
 43
0.0000001
 44
0.0000000001
 40
0.0
 40
0.0
 40
0.0
 40
0.0
 40
0.0671286911
 40
0.1909109407
 40
0.3139708169
 40
0.3756612957
 40
0.4376632617
 40
0.4688339375
 40
0.5001425338
 40
0.5158549697
 40
0.5318048255
 40
0.563895219
 40
0.6280162704
 40
0.6921177464
 40
0.8205195102
 40
0.9496642994
 40
1.0
 40
1.0
 40
1.0
 40
1.0
 10
-53.9431411697
 20
1.8617991162
 30
0.0
 10
-53.9366666286
 20
1.8580436739
 30
0.0
 10
-53.9185370173
 20
1.8468785275
 30
0.0
 10
-53.8901978597
 20
1.8262435467
 30
0.0
 10
-53.8645933256
 20
1.8031878236
 30
0.0
 10
-53.8456368611
 20
1.7832487938
 30
0.0
 10
-53.8343954041
 20
1.7701395544
 30
0.0
 10
-53.8257681371
 20
1.7592722229
 30
0.0
 10
-53.8205235444
 20
1.7523106697
 30
0.0
 10
-53.8164013622
 20
1.7466299629
 30
0.0
 10
-53.8123149735
 20
1.7408166248
 30
0.0
 10
-53.8052510841
 20
1.7305020171
 30
0.0
 10
-53.7955173508
 20
1.7155136351
 30
0.0
 10
-53.7807307236
 20
1.6910248883
 30
0.0
 10
-53.7637176169
 20
1.6594372352
 30
0.0
 10
-53.7494354244
 20
1.6282093292
 30
0.0
 10
-53.7419271997
 20
1.6096622617
 30
0.0
 10
-53.7398855351
 20
1.6044356625
 30
0.0
  0
SPLINE
  5
351
100
AcDbEntity
  8
0
100
AcDbSpline
 62
7
  6
CONTINUOUS
 70
0
 71
3
 72
62
 73
58
 74
0
 42
0.0000001
 43
0.0000001
 44
0.0000000001
 40
0.0
 40
0.0
 40
0.0
 40
0.0
 40
0.0229597472
 40
0.1308878465
 40
0.185670427
 40
0.241055992
 40
0.2970886693
 40
0.3538110766
 40
0.4112642964
 40
0.4402779761
 40
0.4694890516
 40
0.4989022233
 40
0.5285220951
 40
0.5434110253
 40
0.558353313
 40
0.5733495068
 40
0.5884001496
 40
0.5959460656
 40
0.6035057947
 40
0.6110794031
 40
0.6148714336
 40
0.6186669586
 40
0.6224659863
 40
0.6243668163
 40
0.626268525
 40
0.6272197092
 40
0.6281711134
 40
0.6286468981
 40
0.6288961225
 40
0.6291679942
 40
0.6297117376
 40
0.6302554809
 40
0.6307992243
 40
0.6313429677
 40
0.6324304544
 40
0.6346054279
 40
0.6367804013
 40
0.6389553748
 40
0.6411303483
 40
0.6433053217
 40
0.6476552687
 40
0.6520052156
 40
0.6607051095
 40
0.6694050034
 40
0.6781048973
 40
0.6868047911
 40
0.695504685
 40
0.7042045789
 40
0.7216043666
 40
0.7390041544
 40
0.7564039422
 40
0.7912035177
 40
0.8260030932
 40
0.8608026687
 40
0.8956022442
 40
0.9304018197
 40
1.0
 40
1.0
 40
1.0
 40
1.0
 10
-53.7200744366
 20
1.5463050599
 30
0.0
 10
-53.7191763439
 20
1.5432437871
 30
0.0
 10
-53.714171212
 20
1.5257585196
 30
0.0
 10
-53.7079928923
 20
1.5006974438
 30
0.0
 10
-53.7020268671
 20
1.4709874157
 30
0.0
 10
-53.6981283365
 20
1.4482255664
 30
0.0
 10
-53.6948285513
 20
1.4250972999
 30
0.0
 10
-53.692127379
 20
1.4016024543
 30
0.0
 10
-53.6903810209
 20
1.3817836816
 30
0.0
 10
-53.6892804039
 20
1.3657500787
 30
0.0
 10
-53.6886017684
 20
1.3535932432
 30
0.0
 10
-53.6880727027
 20
1.3413447232
 30
0.0
 10
-53.6877570134
 20
1.3310794139
 30
0.0
 10
-53.6875788518
 20
1.3228218369
 30
0.0
 10
-53.6874823818
 20
1.3165947333
 30
0.0
 10
-53.6874233001
 20
1.3103446995
 30
0.0
 10
-53.6874052385
 20
1.3051219876
 30
0.0
 10
-53.6874094322
 20
1.3009324134
 30
0.0
 10
-53.6874219271
 20
1.2977816361
 30
0.0
 10
-53.6874401206
 20
1.2951524197
 30
0.0
 10
-53.6874593415
 20
1.2930461872
 30
0.0
 10
-53.687476103
 20
1.2914643532
 30
0.0
 10
-53.6874920064
 20
1.2901452682
 30
0.0
 10
-53.6875059147
 20
1.2890892846
 30
0.0
 10
-53.6875150541
 20
1.2884289195
 30
0.0
 10
-53.6875227517
 20
1.2879004501
 30
0.0
 10
-53.68752747
 20
1.287570059
 30
0.0
 10
-53.6875312927
 20
1.2873371894
 30
0.0
 10
-53.6875328684
 20
1.2871987004
 30
0.0
 10
-53.6875324324
 20
1.287050762
 30
0.0
 10
-53.6875326508
 20
1.2868619091
 30
0.0
 10
-53.6875325806
 20
1.2866352843
 30
0.0
 10
-53.6875325993
 20
1.2864086598
 30
0.0
 10
-53.6875325932
 20
1.2861064937
 30
0.0
 10
-53.687532597
 20
1.2855777031
 30
0.0
 10
-53.6875325949
 20
1.284822288
 30
0.0
 10
-53.6875325956
 20
1.2839157898
 30
0.0
 10
-53.6875325954
 20
1.2830092916
 30
0.0
 10
-53.6875325954
 20
1.2821027935
 30
0.0
 10
-53.6875325954
 20
1.2808941292
 30
0.0
 10
-53.6875325954
 20
1.279383299
 30
0.0
 10
-53.6875325954
 20
1.2769659705
 30
0.0
 10
-53.6875325954
 20
1.2739443099
 30
0.0
 10
-53.6875325954
 20
1.2703183173
 30
0.0
 10
-53.6875325954
 20
1.2666923246
 30
0.0
 10
-53.6875325954
 20
1.2630663319
 30
0.0
 10
-53.6875325954
 20
1.2594403392
 30
0.0
 10
-53.6875325954
 20
1.2546056823
 30
0.0
 10
-53.6875325954
 20
1.2485623612
 30
0.0
 10
-53.6875325954
 20
1.2413103758
 30
0.0
 10
-53.6875325954
 20
1.231641062
 30
0.0
 10
-53.6875325954
 20
1.2195544197
 30
0.0
 10
-53.6875325954
 20
1.205050449
 30
0.0
 10
-53.6875325954
 20
1.1905464783
 30
0.0
 10
-53.6875325954
 20
1.1760425076
 30
0.0
 10
-53.6875325954
 20
1.1567040148
 30
0.0
 10
-53.6875325954
 20
1.142200179
 30
0.0
 10
-53.6875325954
 20
1.132531
 30
0.0
  0
SPLINE
  5
352
100
AcDbEntity
  8
0
100
AcDbSpline
 62
7
  6
CONTINUOUS
 70
0
 71
3
 72
70
 73
66
 74
0
 42
0.0000001
 43
0.0000001
 44
0.0000000001
 40
0.0
 40
0.0
 40
0.0
 40
0.0
 40
0.0263638326
 40
0.0527283297
 40
0.0790928269
 40
0.0922750754
 40
0.105457324
 40
0.1186395726
 40
0.1318218211
 40
0.1450040697
 40
0.1581863183
 40
0.1647774426
 40
0.1713685669
 40
0.1779596912
 40
0.1845508154
 40
0.1878463776
 40
0.1911419397
 40
0.1944375019
 40
0.197733064
 40
0.2010286262
 40
0.2026764072
 40
0.2043241883
 40
0.2059719694
 40
0.2067958599
 40
0.2076197504
 40
0.208443641
 40
0.2092675315
 40
0.2096794768
 40
0.210091422
 40
0.2102973947
 40
0.2105033673
 40
0.2107093399
 40
0.2109153126
 40
0.2111604873
 40
0.2114056452
 40
0.2118959108
 40
0.2128762409
 40
0.2138563032
 40
0.2148360978
 40
0.2167948846
 40
0.2187526026
 40
0.2226648375
 40
0.2265728137
 40
0.2304765421
 40
0.2343760335
 40
0.2421623467
 40
0.2499318438
 40
0.2576846135
 40
0.2731403048
 40
0.2885301626
 40
0.3038549157
 40
0.3191153024
 40
0.3343120704
 40
0.3645175951
 40
0.3944778486
 40
0.4241991539
 40
0.4536879882
 40
0.5119932079
 40
0.5694500531
 40
0.6261158968
 40
0.6820505463
 40
0.7373161825
 40
0.7919772698
 40
0.899736906
 40
1.0
 40
1.0
 40
1.0
 40
1.0
 10
-53.4160718685
 20
1.132531
 30
0.0
 10
-53.4160718685
 20
1.1378808908
 30
0.0
 10
-53.4160718685
 20
1.1485808072
 30
0.0
 10
-53.4160718685
 20
1.1646307493
 30
0.0
 10
-53.4160718685
 20
1.1780058134
 30
0.0
 10
-53.4160718685
 20
1.1887058647
 30
0.0
 10
-53.4160718685
 20
1.1967309032
 30
0.0
 10
-53.4160718685
 20
1.2047559417
 30
0.0
 10
-53.4160718685
 20
1.2127809801
 30
0.0
 10
-53.4160718685
 20
1.2208060186
 30
0.0
 10
-53.4160718685
 20
1.2274935507
 30
0.0
 10
-53.4160718685
 20
1.2328435763
 30
0.0
 10
-53.4160718685
 20
1.2368560955
 30
0.0
 10
-53.4160718685
 20
1.2408686148
 30
0.0
 10
-53.4160718685
 20
1.2442123808
 30
0.0
 10
-53.4160718685
 20
1.2468873936
 30
0.0
 10
-53.4160718685
 20
1.2488936532
 30
0.0
 10
-53.4160718685
 20
1.2508999129
 30
0.0
 10
-53.4160718685
 20
1.2529061725
 30
0.0
 10
-53.4160718685
 20
1.2545780555
 30
0.0
 10
-53.4160718685
 20
1.2559155619
 30
0.0
 10
-53.4160718685
 20
1.2569186917
 30
0.0
 10
-53.4160718685
 20
1.2577546332
 30
0.0
 10
-53.4160718685
 20
1.2584233864
 30
0.0
 10
-53.4160718685
 20
1.2589249513
 30
0.0
 10
-53.4160718685
 20
1.2594265162
 30
0.0
 10
-53.4160718685
 20
1.259844487
 30
0.0
 10
-53.4160718685
 20
1.2601788636
 30
0.0
 10
-53.4160718685
 20
1.260387849
 30
0.0
 10
-53.4160718685
 20
1.2605550373
 30
0.0
 10
-53.4160718686
 20
1.2606804285
 30
0.0
 10
-53.4160718682
 20
1.2608058197
 30
0.0
 10
-53.4160718696
 20
1.260939166
 30
0.0
 10
-53.4160718637
 20
1.261080464
 30
0.0
 10
-53.4160718323
 20
1.2612794523
 30
0.0
 10
-53.4160717245
 20
1.2616276223
 30
0.0
 10
-53.4160714156
 20
1.2621249229
 30
0.0
 10
-53.4160707982
 20
1.2627215612
 30
0.0
 10
-53.4160696455
 20
1.2635167526
 30
0.0
 10
-53.4160675875
 20
1.264510334
 30
0.0
 10
-53.416062978
 20
1.2660989775
 30
0.0
 10
-53.4160547478
 20
1.2680831514
 30
0.0
 10
-53.4160409164
 20
1.2704621972
 30
0.0
 10
-53.4160231326
 20
1.2728386307
 30
0.0
 10
-53.4159941667
 20
1.2760020112
 30
0.0
 10
-53.4159480941
 20
1.2799497249
 30
0.0
 10
-53.4158769672
 20
1.2846791018
 30
0.0
 10
-53.4157611759
 20
1.2909642591
 30
0.0
 10
-53.4155770374
 20
1.298794739
 30
0.0
 10
-53.4152925929
 20
1.308159619
 30
0.0
 10
-53.4149449075
 20
1.3174827063
 30
0.0
 10
-53.4145339809
 20
1.3267640049
 30
0.0
 10
-53.4139030629
 20
1.3390579057
 30
0.0
 10
-53.4129572422
 20
1.354322173
 30
0.0
 10
-53.4115669107
 20
1.3725100977
 30
0.0
 10
-53.4099235712
 20
1.3905309586
 30
0.0
 10
-53.4074047647
 20
1.4142451237
 30
0.0
 10
-53.4036298759
 20
1.443482553
 30
0.0
 10
-53.3980698933
 20
1.4780337476
 30
0.0
 10
-53.3914969671
 20
1.5119171906
 30
0.0
 10
-53.3839110786
 20
1.5451324418
 30
0.0
 10
-53.3753118065
 20
1.5776800509
 30
0.0
 10
-53.3625575922
 20
1.6199801452
 30
0.0
 10
-53.3444846186
 20
1.6701817454
 30
0.0
 10
-53.3273843982
 20
1.7088122796
 30
0.0
 10
-53.3184906872
 20
1.7271176122
 30
0.0
  0
SPLINE
  5
353
100
AcDbEntity
  8
0
100
AcDbSpline
 62
7
  6
CONTINUOUS
 70
0
 71
3
 72
9
 73
5
 74
0
 42
0.0000001
 43
0.0000001
 44
0.0000000001
 40
0.0
 40
0.0
 40
0.0
 40
0.0
 40
0.7095580048
 40
1.0
 40
1.0
 40
1.0
 40
1.0
 10
-53.2865586922
 20
1.7867062685
 30
0.0
 10
-53.2184467485
 20
1.8949328626
 30
0.0
 10
-53.0410790589
 20
1.9998010788
 30
0.0
 10
-52.8619440322
 20
2.0122500083
 30
0.0
 10
-52.8096046502
 20
2.0128798685
 30
0.0
  0
SPLINE
  5
354
100
AcDbEntity
  8
0
100
AcDbSpline
 62
7
  6
CONTINUOUS
 70
0
 71
3
 72
8
 73
4
 74
0
 42
0.0000001
 43
0.0000001
 44
0.0000000001
 40
0.0
 40
0.0
 40
0.0
 40
0.0
 40
1.0
 40
1.0
 40
1.0
 40
1.0
 10
-52.8096046502
 20
2.0128798685
 30
0.0
 10
-52.6572301006
 20
2.0105489484
 30
0.0
 10
-52.4902455808
 20
1.9488576775
 30
0.0
 10
-52.3881469242
 20
1.8357236822
 30
0.0
  0
SPLINE
  5
355
100
AcDbEntity
  8
0
100
AcDbSpline
 62
7
  6
CONTINUOUS
 70
0
 71
3
 72
74
 73
70
 74
0
 42
0.0000001
 43
0.0000001
 44
0.0000000001
 40
0.0
 40
0.0
 40
0.0
 40
0.0
 40
0.0456903019
 40
0.0905248892
 40
0.1349494977
 40
0.157158282
 40
0.1794364946
 40
0.2018409971
 40
0.2244276972
 40
0.247251164
 40
0.2703642894
 40
0.2820462444
 40
0.2938195297
 40
0.3056901686
 40
0.3176640373
 40
0.3236915658
 40
0.3297470358
 40
0.3358311389
 40
0.3419445572
 40
0.3480879628
 40
0.3511711285
 40
0.3542620387
 40
0.3573607745
 40
0.3589131035
 40
0.3604674191
 40
0.3620237314
 40
0.3635820502
 40
0.3643619653
 40
0.3651423857
 40
0.3655327858
 40
0.3659233128
 40
0.3663139667
 40
0.3665093413
 40
0.3666070405
 40
0.3667047477
 40
0.3668940951
 40
0.3670834081
 40
0.367461931
 40
0.3682185644
 40
0.3689746484
 40
0.3697301835
 40
0.3712396089
 40
0.3727468449
 40
0.3757547636
 40
0.3787539735
 40
0.3817445077
 40
0.3847263996
 40
0.3906643828
 40
0.3965682047
 40
0.402438143
 40
0.4140774318
 40
0.4255846395
 40
0.4369621671
 40
0.4482124988
 40
0.4593382039
 40
0.4812257522
 40
0.5026477992
 40
0.5236281655
 40
0.5441922067
 40
0.5643668483
 40
0.5841806032
 40
0.622839295
 40
0.6604347812
 40
0.6972486953
 40
0.7335808511
 40
0.7697430468
 40
0.8427414886
 40
0.9187692804
 40
1.0
 40
1.0
 40
1.0
 40
1.0
 10
-52.3881469242
 20
1.8357236822
 30
0.0
 10
-52.3744436828
 20
1.821482
 30
0.0
 10
-52.3485825165
 20
1.7919844502
 30
0.0
 10
-52.3145518102
 20
1.744444665
 30
0.0
 10
-52.2905556103
 20
1.7025174251
 30
0.0
 10
-52.2740562361
 20
1.6677620078
 30
0.0
 10
-52.2629843824
 20
1.6410156562
 30
0.0
 10
-52.2532180102
 20
1.613592974
 30
0.0
 10
-52.2447563347
 20
1.5854936485
 30
0.0
 10
-52.2375994622
 20
1.5567187977
 30
0.0
 10
-52.2327397722
 20
1.5322636617
 30
0.0
 10
-52.2294993952
 20
1.5123810471
 30
0.0
 10
-52.2273857477
 20
1.4972460416
 30
0.0
 10
-52.2255975937
 20
1.4819421646
 30
0.0
 10
-52.2243814084
 20
1.4690770043
 30
0.0
 10
-52.223570196
 20
1.4587025158
 30
0.0
 10
-52.2230417458
 20
1.4508618185
 30
0.0
 10
-52.2225946303
 20
1.4429788619
 30
0.0
 10
-52.2222288477
 20
1.4350536385
 30
0.0
 10
-52.2219921002
 20
1.4284222959
 30
0.0
 10
-52.2218432211
 20
1.4230963301
 30
0.0
 10
-52.2217517547
 20
1.4190863247
 30
0.0
 10
-52.2216925136
 20
1.4157379787
 30
0.0
 10
-52.2216552675
 20
1.4130540468
 30
0.0
 10
-52.2216323979
 20
1.4110371742
 30
0.0
 10
-52.2216146112
 20
1.4090176595
 30
0.0
 10
-52.2216040281
 20
1.4073330731
 30
0.0
 10
-52.2215981006
 20
1.4059840865
 30
0.0
 10
-52.2215954541
 20
1.4051402838
 30
0.0
 10
-52.2215939719
 20
1.4044649118
 30
0.0
 10
-52.2215931778
 20
1.4039581355
 30
0.0
 10
-52.2215927806
 20
1.4035357186
 30
0.0
 10
-52.2215926419
 20
1.4032399666
 30
0.0
 10
-52.2215926018
 20
1.4030709311
 30
0.0
 10
-52.22159259
 20
1.4029045027
 30
0.0
 10
-52.2215926124
 20
1.402698446
 30
0.0
 10
-52.2215927119
 20
1.4023709202
 30
0.0
 10
-52.2215930621
 20
1.4017980103
 30
0.0
 10
-52.2215940614
 20
1.4009799394
 30
0.0
 10
-52.2215960612
 20
1.3999987902
 30
0.0
 10
-52.2215997928
 20
1.398692018
 30
0.0
 10
-52.2216064551
 20
1.3970603364
 30
0.0
 10
-52.2216213744
 20
1.394454397
 30
0.0
 10
-52.2216480062
 20
1.3912040999
 30
0.0
 10
-52.2216927876
 20
1.3873123382
 30
0.0
 10
-52.2217503689
 20
1.3834320035
 30
0.0
 10
-52.2218440754
 20
1.3782809032
 30
0.0
 10
-52.2219930701
 20
1.3718704707
 30
0.0
 10
-52.2222233233
 20
1.3642125104
 30
0.0
 10
-52.2225975231
 20
1.3540918551
 30
0.0
 10
-52.2231921841
 20
1.3415542021
 30
0.0
 10
-52.2241126519
 20
1.3266484372
 30
0.0
 10
-52.2252379422
 20
1.3119254456
 30
0.0
 10
-52.2265680624
 20
1.2973851893
 30
0.0
 10
-52.2286034833
 20
1.2783465115
 30
0.0
 10
-52.2316519887
 20
1.2549938887
 30
0.0
 10
-52.2361503585
 20
1.2275458721
 30
0.0
 10
-52.2414688655
 20
1.2008278893
 30
0.0
 10
-52.2476075923
 20
1.1748403039
 30
0.0
 10
-52.2545670191
 20
1.1495825162
 30
0.0
 10
-52.264854641
 20
1.1171489329
 30
0.0
 10
-52.2797514619
 20
1.0783022755
 30
0.0
 10
-52.3010831626
 20
1.034223688
 30
0.0
 10
-52.3257263582
 20
0.9930706523
 30
0.0
 10
-52.3536863115
 20
0.9548535012
 30
0.0
 10
-52.3954783292
 20
0.9076943059
 30
0.0
 10
-52.4569385411
 20
0.8555353692
 30
0.0
 10
-52.5435832592
 20
0.8054984745
 30
0.0
 10
-52.6074329648
 20
0.7812023661
 30
0.0
 10
-52.6410220751
 20
0.7708882449
 30
0.0
  0
SPLINE
  5
356
100
AcDbEntity
  8
0
100
AcDbSpline
 62
7
  6
CONTINUOUS
 70
0
 71
3
 72
8
 73
4
 74
0
 42
0.0000001
 43
0.0000001
 44
0.0000000001
 40
0.0
 40
0.0
 40
0.0
 40
0.0
 40
1.0
 40
1.0
 40
1.0
 40
1.0
 10
-52.5454738508
 20
0.4588525016
 30
0.0
 10
-52.5063821528
 20
0.4757029559
 30
0.0
 10
-52.4679693656
 20
0.4943586046
 30
0.0
 10
-52.4306844452
 20
0.5150128419
 30
0.0
  0
SPLINE
  5
357
100
AcDbEntity
  8
0
100
AcDbSpline
 62
7
  6
CONTINUOUS
 70
0
 71
3
 72
9
 73
5
 74
0
 42
0.0000001
 43
0.0000001
 44
0.0000000001
 40
0.0
 40
0.0
 40
0.0
 40
0.0
 40
0.5590806758
 40
1.0
 40
1.0
 40
1.0
 40
1.0
 10
-52.4306844452
 20
0.5150128419
 30
0.0
 10
-52.4110426927
 20
0.5258935254
 30
0.0
 10
-52.376470317
 20
0.5463473381
 30
0.0
 10
-52.3431093193
 20
0.5686660756
 30
0.0
 10
-52.3286669718
 20
0.5788813192
 30
0.0
  0
SPLINE
  5
358
100
AcDbEntity
  8
0
100
AcDbSpline
 62
7
  6
CONTINUOUS
 70
0
 71
3
 72
62
 73
58
 74
0
 42
0.0000001
 43
0.0000001
 44
0.0000000001
 40
0.0
 40
0.0
 40
0.0
 40
0.0
 40
0.0299779679
 40
0.0987675723
 40
0.1659377142
 40
0.2321559316
 40
0.2981186693
 40
0.36453041
 40
0.4320815899
 40
0.5014286202
 40
0.5369763473
 40
0.5731957914
 40
0.5915793878
 40
0.6101555762
 40
0.6289320782
 40
0.6479163707
 40
0.6574888187
 40
0.6671159064
 40
0.6767985007
 40
0.6816608928
 40
0.6865374797
 40
0.6914283656
 40
0.6963336539
 40
0.7012534468
 40
0.7037188159
 40
0.7061878491
 40
0.7074237439
 40
0.7086605595
 40
0.709279313
 40
0.7098982973
 40
0.710183255
 40
0.7103697416
 40
0.7107426587
 40
0.7114882683
 40
0.7122335788
 40
0.7129785906
 40
0.713723304
 40
0.715211837
 40
0.7166991805
 40
0.7196703099
 40
0.7255984136
 40
0.7315078017
 40
0.7373986566
 40
0.7432711621
 40
0.7549618222
 40
0.7665813341
 40
0.7781312316
 40
0.7896130765
 40
0.8010284583
 40
0.8123789945
 40
0.834891718
 40
0.8571651509
 40
0.8792132288
 40
0.9010503185
 40
0.9441472404
 40
0.9865826333
 40
1.0
 40
1.0
 40
1.0
 40
1.0
 10
-52.3286669718
 20
0.5788813192
 30
0.0
 10
-52.3181207926
 20
0.5863407568
 30
0.0
 10
-52.2838439444
 20
0.6115750526
 30
0.0
 10
-52.229078822
 20
0.6576970784
 30
0.0
 10
-52.1681673378
 20
0.720155859
 30
0.0
 10
-52.1146766032
 20
0.7875390975
 30
0.0
 10
-52.0686319947
 20
0.8598284152
 30
0.0
 10
-52.0300473553
 20
0.9369999459
 30
0.0
 10
-51.9989266858
 20
1.0190212739
 30
0.0
 10
-51.9793660628
 20
1.0908115541
 30
0.0
 10
-51.9673750348
 20
1.1504248627
 30
0.0
 10
-51.9613861295
 20
1.1888113866
 30
0.0
 10
-51.9575064163
 20
1.2200991966
 30
0.0
 10
-51.9550429442
 20
1.243985602
 30
0.0
 10
-51.9530404689
 20
1.2681744856
 30
0.0
 10
-51.951759458
 20
1.2885268829
 30
0.0
 10
-51.9509632337
 20
1.3049574755
 30
0.0
 10
-51.9504795948
 20
1.3173907463
 30
0.0
 10
-51.9501730139
 20
1.3277997751
 30
0.0
 10
-51.949985105
 20
1.336164543
 30
0.0
 10
-51.9498727693
 20
1.342466141
 30
0.0
 10
-51.9497892343
 20
1.3487866666
 30
0.0
 10
-51.9497344991
 20
1.3551261207
 30
0.0
 10
-51.9497129045
 20
1.3604208477
 30
0.0
 10
-51.9497099931
 20
1.3646660571
 30
0.0
 10
-51.9497141795
 20
1.3673242329
 30
0.0
 10
-51.9497211042
 20
1.3694531354
 30
0.0
 10
-51.9497269793
 20
1.3707849315
 30
0.0
 10
-51.9497324719
 20
1.3718509605
 30
0.0
 10
-51.94973646
 20
1.3725069278
 30
0.0
 10
-51.9497390278
 20
1.3729766814
 30
0.0
 10
-51.949743195
 20
1.3733404109
 30
0.0
 10
-51.9497490953
 20
1.373902582
 30
0.0
 10
-51.9497582896
 20
1.3747054746
 30
0.0
 10
-51.9497698227
 20
1.3756686495
 30
0.0
 10
-51.9497820488
 20
1.37663143
 30
0.0
 10
-51.9497992018
 20
1.3779143551
 30
0.0
 10
-51.9498222771
 20
1.3795170273
 30
0.0
 10
-51.9498626635
 20
1.382078692
 30
0.0
 10
-51.9499423949
 20
1.386552545
 30
0.0
 10
-51.9500823612
 20
1.392930629
 30
0.0
 10
-51.9502921842
 20
1.4005651921
 30
0.0
 10
-51.9505437369
 20
1.4081745334
 30
0.0
 10
-51.950934176
 20
1.4182710699
 30
0.0
 10
-51.9515260868
 20
1.4308293795
 30
0.0
 10
-51.9524044111
 20
1.4458217851
 30
0.0
 10
-51.9534496689
 20
1.4607133173
 30
0.0
 10
-51.9546618599
 20
1.4755039552
 30
0.0
 10
-51.9560409897
 20
1.4901937327
 30
0.0
 10
-51.9580966875
 20
1.5095916174
 30
0.0
 10
-51.9610807733
 20
1.5335932646
 30
0.0
 10
-51.9653396626
 20
1.5620717852
 30
0.0
 10
-51.9702667311
 20
1.5901472837
 30
0.0
 10
-51.9776937005
 20
1.6268793685
 30
0.0
 10
-51.9886377644
 20
1.6718455621
 30
0.0
 10
-52.0009606537
 20
1.7126754037
 30
0.0
 10
-52.0087626187
 20
1.7354412814
 30
0.0
 10
-52.0106859022
 20
1.7408929774
 30
0.0
  0
SPLINE
  5
359
100
AcDbEntity
  8
0
100
AcDbSpline
 62
7
  6
CONTINUOUS
 70
0
 71
3
 72
23
 73
19
 74
0
 42
0.0000001
 43
0.0000001
 44
0.0000000001
 40
0.0
 40
0.0
 40
0.0
 40
0.0
 40
0.0732066832
 40
0.1798708145
 40
0.2858641402
 40
0.3915474077
 40
0.4972845381
 40
0.550292617
 40
0.6034501292
 40
0.6300996067
 40
0.6568031704
 40
0.6701694558
 40
0.6834948505
 40
0.7100580046
 40
0.7628634353
 40
0.8153035923
 40
0.9193621072
 40
1.0
 40
1.0
 40
1.0
 40
1.0
 10
-52.0106859022
 20
1.7408929774
 30
0.0
 10
-52.0147690801
 20
1.7524670616
 30
0.0
 10
-52.0253446166
 20
1.7807133918
 30
0.0
 10
-52.0442911432
 20
1.8247567192
 30
0.0
 10
-52.0682042303
 20
1.8724961801
 30
0.0
 10
-52.0947972605
 20
1.9186162522
 30
0.0
 10
-52.119173078
 20
1.9556712068
 30
0.0
 10
-52.139979154
 20
1.9844659247
 30
0.0
 10
-52.1535400526
 20
2.0021275156
 30
0.0
 10
-52.164718012
 20
2.0160503551
 30
0.0
 10
-52.1718448279
 20
2.0246701682
 30
0.0
 10
-52.177622245
 20
2.0315066772
 30
0.0
 10
-52.1832618454
 20
2.0384271437
 30
0.0
 10
-52.1933254251
 20
2.050267497
 30
0.0
 10
-52.2080495641
 20
2.0667481165
 30
0.0
 10
-52.2324058434
 20
2.092011555
 30
0.0
 10
-52.2615825724
 20
2.1190694529
 30
0.0
 10
-52.2856808474
 20
2.1385409142
 30
0.0
 10
-52.2964465261
 20
2.146720293
 30
0.0
  0
SPLINE
  5
35A
100
AcDbEntity
  8
0
100
AcDbSpline
 62
7
  6
CONTINUOUS
 70
0
 71
3
 72
42
 73
38
 74
0
 42
0.0000001
 43
0.0000001
 44
0.0000000001
 40
0.0
 40
0.0
 40
0.0
 40
0.0
 40
0.0196301717
 40
0.1085707363
 40
0.1980600774
 40
0.2886089652
 40
0.3807105436
 40
0.4748335543
 40
0.5227981198
 40
0.5714300254
 40
0.6207790627
 40
0.6708928858
 40
0.7218170018
 40
0.7735947816
 40
0.8262674871
 40
0.8529523536
 40
0.8663839153
 40
0.879875619
 40
0.893428034
 40
0.9002271927
 40
0.9070417393
 40
0.9138717427
 40
0.9172925633
 40
0.9207172737
 40
0.9239408786
 40
0.9251432186
 40
0.9263451431
 40
0.9287477476
 40
0.9311486963
 40
0.9359456419
 40
0.9407360136
 40
0.9502971596
 40
0.9598324083
 40
0.9693420278
 40
0.9788262881
 40
0.9882854616
 40
1.0
 40
1.0
 40
1.0
 40
1.0
 10
-52.2964465261
 20
2.146720293
 30
0.0
 10
-52.2994968508
 20
2.1490378209
 30
0.0
 10
-52.3164761523
 20
2.1617127407
 30
0.0
 10
-52.3485236394
 20
2.1833726544
 30
0.0
 10
-52.394162146
 20
2.2093813609
 30
0.0
 10
-52.4421765869
 20
2.2321620751
 30
0.0
 10
-52.4925606463
 20
2.2517149869
 30
0.0
 10
-52.5362459885
 20
2.2652362054
 30
0.0
 10
-52.572300513
 20
2.2744597213
 30
0.0
 10
-52.6001063587
 20
2.2806192607
 30
0.0
 10
-52.6285041284
 20
2.2859763294
 30
0.0
 10
-52.657494235
 20
2.2905312089
 30
0.0
 10
-52.6870765539
 20
2.294283952
 30
0.0
 10
-52.7172509808
 20
2.2972346594
 30
0.0
 10
-52.7427774198
 20
2.2990174487
 30
0.0
 10
-52.7608591578
 20
2.2999171021
 30
0.0
 10
-52.7713101526
 20
2.3003339042
 30
0.0
 10
-52.7792028397
 20
2.3005971016
 30
0.0
 10
-52.7858035087
 20
2.3007745017
 30
0.0
 10
-52.7911024795
 20
2.3008914291
 30
0.0
 10
-52.7950904518
 20
2.3009667835
 30
0.0
 10
-52.7984195912
 20
2.3010188481
 30
0.0
 10
-52.8010875249
 20
2.3010548451
 30
0.0
 10
-52.8030519298
 20
2.3010766503
 30
0.0
 10
-52.8045835602
 20
2.3010959376
 30
0.0
 10
-52.8056815941
 20
2.3010935972
 30
0.0
 10
-52.8066194376
 20
2.3010927927
 30
0.0
 10
-52.8077911363
 20
2.3010900243
 30
0.0
 10
-52.809664233
 20
2.3010834981
 30
0.0
 10
-52.8120031752
 20
2.3010706456
 30
0.0
 10
-52.8157390225
 20
2.3010403873
 30
0.0
 10
-52.8203991427
 20
2.300984253
 30
0.0
 10
-52.825979515
 20
2.3008875338
 30
0.0
 10
-52.8315442979
 20
2.3007614902
 30
0.0
 10
-52.8370934926
 20
2.3006061253
 30
0.0
 10
-52.8430717203
 20
2.300406599
 30
0.0
 10
-52.8471996587
 20
2.3002438077
 30
0.0
 10
-52.8494831471
 20
2.30014602
 30
0.0
  0
SPLINE
  5
35B
100
AcDbEntity
  8
0
100
AcDbSpline
 62
7
  6
CONTINUOUS
 70
0
 71
3
 72
18
 73
14
 74
0
 42
0.0000001
 43
0.0000001
 44
0.0000000001
 40
0.0
 40
0.0
 40
0.0
 40
0.0
 40
0.0133873177
 40
0.0485890129
 40
0.0836127578
 40
0.1531425707
 40
0.2220130154
 40
0.2902603036
 40
0.3579216473
 40
0.4916302938
 40
0.6234649808
 40
0.8827585274
 40
1.0
 40
1.0
 40
1.0
 40
1.0
 10
-52.8494831471
 20
2.30014602
 30
0.0
 10
-52.8508728998
 20
2.3000865055
 30
0.0
 10
-52.8559165382
 20
2.2998601176
 30
0.0
 10
-52.864592649
 20
2.2994053367
 30
0.0
 10
-52.8790850825
 20
2.2984853246
 30
0.0
 10
-52.8970487534
 20
2.2970439831
 30
0.0
 10
-52.9184090881
 20
2.2948407458
 30
0.0
 10
-52.939520372
 20
2.2921680714
 30
0.0
 10
-52.9672246799
 20
2.2879955727
 30
0.0
 10
-53.0012692582
 20
2.2816140459
 30
0.0
 10
-53.0543251243
 20
2.2689281797
 30
0.0
 10
-53.1047177973
 20
2.2527599076
 30
0.0
 10
-53.1409691479
 20
2.237952918
 30
0.0
 10
-53.1521373746
 20
2.2330716208
 30
0.0
  0
SPLINE
  5
35C
100
AcDbEntity
  8
0
100
AcDbSpline
 62
7
  6
CONTINUOUS
 70
0
 71
3
 72
10
 73
6
 74
0
 42
0.0000001
 43
0.0000001
 44
0.0000000001
 40
0.0
 40
0.0
 40
0.0
 40
0.0
 40
0.021093611
 40
0.7235509838
 40
1.0
 40
1.0
 40
1.0
 40
1.0
 10
-53.5665213715
 20
1.7157469994
 30
0.0
 10
-53.5668700233
 20
1.7168008726
 30
0.0
 10
-53.5789075923
 20
1.7529277644
 30
0.0
 10
-53.5992476332
 20
1.8017443049
 30
0.0
 10
-53.6239948062
 20
1.8469660865
 30
0.0
 10
-53.6313612285
 20
1.859515394
 30
0.0
  0
SPLINE
  5
35D
100
AcDbEntity
  8
0
100
AcDbSpline
 62
7
  6
CONTINUOUS
 70
0
 71
3
 72
21
 73
17
 74
0
 42
0.0000001
 43
0.0000001
 44
0.0000000001
 40
0.0
 40
0.0
 40
0.0
 40
0.0
 40
0.1008561642
 40
0.2260954641
 40
0.3524740003
 40
0.4161417602
 40
0.4801523935
 40
0.5445246497
 40
0.5768524443
 40
0.6092775303
 40
0.6410888578
 40
0.6728270834
 40
0.7360964245
 40
0.8618955088
 40
0.9868957154
 40
1.0
 40
1.0
 40
1.0
 40
1.0
 10
-53.7227213039
 20
1.9831771112
 30
0.0
 10
-53.7278153676
 20
1.9887558961
 30
0.0
 10
-53.7394201424
 20
2.0010924421
 30
0.0
 10
-53.7581284438
 20
2.0197196546
 30
0.0
 10
-53.7754442624
 20
2.0357790419
 30
0.0
 10
-53.7897267041
 20
2.0483495039
 30
0.0
 10
-53.8006849975
 20
2.057665364
 30
0.0
 10
-53.8099875761
 20
2.065302289
 30
0.0
 10
-53.8175356489
 20
2.0713467529
 30
0.0
 10
-53.8232251341
 20
2.0758104209
 30
0.0
 10
-53.8288892568
 20
2.0802349103
 30
0.0
 10
-53.836444418
 20
2.0859898718
 30
0.0
 10
-53.8497445802
 20
2.095816624
 30
0.0
 10
-53.8690889747
 20
2.1092074631
 30
0.0
 10
-53.8857958847
 20
2.1197759582
 30
0.0
 10
-53.894662781
 20
2.1251005733
 30
0.0
 10
-53.8955052426
 20
2.1256039471
 30
0.0
  0
SPLINE
  5
35E
100
AcDbEntity
  8
0
100
AcDbSpline
 62
7
  6
CONTINUOUS
 70
0
 71
3
 72
12
 73
8
 74
0
 42
0.0000001
 43
0.0000001
 44
0.0000000001
 40
0.0
 40
0.0
 40
0.0
 40
0.0
 40
0.0679631567
 40
0.2193328925
 40
0.3709119542
 40
0.6787492014
 40
1.0
 40
1.0
 40
1.0
 40
1.0
 10
-53.8955052426
 20
2.1256039471
 30
0.0
 10
-53.9026615592
 20
2.1298798717
 30
0.0
 10
-53.9260153027
 20
2.1432457743
 30
0.0
 10
-53.9668648835
 20
2.1634117207
 30
0.0
 10
-54.0366886994
 20
2.1907742027
 30
0.0
 10
-54.1300129368
 20
2.2141902947
 30
0.0
 10
-54.2072208264
 20
2.2208471972
 30
0.0
 10
-54.2466185187
 20
2.2215145954
 30
0.0
  0
SPLINE
  5
35F
100
AcDbEntity
  8
0
100
AcDbSpline
 62
7
  6
CONTINUOUS
 70
0
 71
3
 72
25
 73
21
 74
0
 42
0.0000001
 43
0.0000001
 44
0.0000000001
 40
0.0
 40
0.0
 40
0.0
 40
0.0
 40
0.1519578764
 40
0.2930299631
 40
0.4264459792
 40
0.4915189111
 40
0.5561398586
 40
0.6208335205
 40
0.6533794958
 40
0.6861387713
 40
0.7026191182
 40
0.7191762972
 40
0.7274862056
 40
0.7357907745
 40
0.7523510522
 40
0.7853522308
 40
0.8182271435
 40
0.8837408521
 40
0.9492086107
 40
1.0
 40
1.0
 40
1.0
 40
1.0
 10
-54.2466185187
 20
2.2215145954
 30
0.0
 10
-54.2912533357
 20
2.2210359172
 30
0.0
 10
-54.3774160184
 20
2.2151639834
 30
0.0
 10
-54.5003930133
 20
2.1890549925
 30
0.0
 10
-54.5938313127
 20
2.1526480514
 30
0.0
 10
-54.6615383197
 20
2.1151898813
 30
0.0
 10
-54.7088844556
 20
2.0831295433
 30
0.0
 10
-54.7457320354
 20
2.0529711788
 30
0.0
 10
-54.7736055196
 20
2.0268544374
 30
0.0
 10
-54.7903977605
 20
2.0096612266
 30
0.0
 10
-54.8034506414
 20
1.9954051426
 30
0.0
 10
-54.8114457193
 20
1.9862610002
 30
0.0
 10
-54.8177701868
 20
1.9788475858
 30
0.0
 10
-54.8239107331
 20
1.9712797268
 30
0.0
 10
-54.8344092593
 20
1.9579106264
 30
0.0
 10
-54.8489083771
 20
1.9385091978
 30
0.0
 10
-54.8709416056
 20
1.9068134582
 30
0.0
 10
-54.8963846704
 20
1.8659069464
 30
0.0
 10
-54.9214207341
 20
1.81869826
 30
0.0
 10
-54.9355686051
 20
1.7875952911
 30
0.0
 10
-54.9413902949
 20
1.7738549342
 30
0.0
  0
SPLINE
  5
360
100
AcDbEntity
  8
0
100
AcDbSpline
 62
7
  6
CONTINUOUS
 70
0
 71
3
 72
62
 73
58
 74
0
 42
0.0000001
 43
0.0000001
 44
0.0000000001
 40
0.0
 40
0.0
 40
0.0
 40
0.0
 40
0.0125859836
 40
0.0684426201
 40
0.1250254992
 40
0.1536684013
 40
0.182581959
 40
0.2117943196
 40
0.2413327767
 40
0.2712237302
 40
0.2863097786
 40
0.3014934246
 40
0.3167777056
 40
0.3321655993
 40
0.33989936
 40
0.347660113
 40
0.3554482138
 40
0.3632640139
 40
0.3671824156
 40
0.3711078722
 40
0.3750404268
 40
0.3770093799
 40
0.3789801234
 40
0.3809526626
 40
0.3819396074
 40
0.3829270031
 40
0.3834208703
 40
0.3839148504
 40
0.3841618829
 40
0.3844959635
 40
0.3848735004
 40
0.3852509676
 40
0.3867601383
 40
0.3882681944
 40
0.3897751383
 40
0.3912809725
 40
0.3942893212
 40
0.4002928055
 40
0.4062788117
 40
0.4122474998
 40
0.4181990314
 40
0.4241335695
 40
0.4359522823
 40
0.4477050108
 40
0.4710176073
 40
0.4940828
 40
0.5169120552
 40
0.539517198
 40
0.5619104087
 40
0.5841042167
 40
0.6279420931
 40
0.671140852
 40
0.7138121446
 40
0.7980088982
 40
0.8815237959
 40
0.9653433156
 40
1.0
 40
1.0
 40
1.0
 40
1.0
 10
-54.9413902949
 20
1.7738549342
 30
0.0
 10
-54.943102488
 20
1.7698138147
 30
0.0
 10
-54.9522444195
 20
1.7477666646
 30
0.0
 10
-54.9672610114
 20
1.7068116004
 30
0.0
 10
-54.9811118167
 20
1.6595750565
 30
0.0
 10
-54.9904666559
 20
1.62089079
 30
0.0
 10
-54.9966485034
 20
1.5912724302
 30
0.0
 10
-55.001966534
 20
1.5611702124
 30
0.0
 10
-55.0064209839
 20
1.5305839307
 30
0.0
 10
-55.0094041049
 20
1.5047723768
 30
0.0
 10
-55.0113624519
 20
1.4838887787
 30
0.0
 10
-55.0126200771
 20
1.4680559681
 30
0.0
 10
-55.0136619634
 20
1.4521020991
 30
0.0
 10
-55.014349244
 20
1.4387292891
 30
0.0
 10
-55.0147917401
 20
1.4279713544
 30
0.0
 10
-55.0150702578
 20
1.4198587256
 30
0.0
 10
-55.0152948494
 20
1.4117158182
 30
0.0
 10
-55.0154369437
 20
1.4049109137
 30
0.0
 10
-55.0155237278
 20
1.3994519502
 30
0.0
 10
-55.015575393
 20
1.3953464925
 30
0.0
 10
-55.0156071987
 20
1.3919205219
 30
0.0
 10
-55.0156259118
 20
1.389175972
 30
0.0
 10
-55.0156365827
 20
1.3871147334
 30
0.0
 10
-55.0156426652
 20
1.3853958494
 30
0.0
 10
-55.0156458472
 20
1.3840197972
 30
0.0
 10
-55.0156471342
 20
1.3831592724
 30
0.0
 10
-55.0156477426
 20
1.3824706162
 30
0.0
 10
-55.0156479473
 20
1.3820400828
 30
0.0
 10
-55.015648011
 20
1.3816652581
 30
0.0
 10
-55.0156479875
 20
1.3813310306
 30
0.0
 10
-55.0156478468
 20
1.3809513278
 30
0.0
 10
-55.0156473039
 20
1.3801619371
 30
0.0
 10
-55.0156455503
 20
1.3789783986
 30
0.0
 10
-55.0156412062
 20
1.3774010794
 30
0.0
 10
-55.0156348569
 20
1.3758249303
 30
0.0
 10
-55.0156237214
 20
1.3737257299
 30
0.0
 10
-55.0155972429
 20
1.3700589009
 30
0.0
 10
-55.015539393
 20
1.3648302902
 30
0.0
 10
-55.015437837
 20
1.3585700762
 30
0.0
 10
-55.0153041955
 20
1.3523285817
 30
0.0
 10
-55.0151384686
 20
1.3461058047
 30
0.0
 10
-55.0148750924
 20
1.3378454442
 30
0.0
 10
-55.0144659851
 20
1.3275662793
 30
0.0
 10
-55.0136416189
 20
1.3112409994
 30
0.0
 10
-55.0122927194
 20
1.2910173297
 30
0.0
 10
-55.0101560153
 20
1.2669815471
 30
0.0
 10
-55.0075057079
 20
1.2432449988
 30
0.0
 10
-55.0043417916
 20
1.2198078181
 30
0.0
 10
-55.0006641932
 20
1.1966698126
 30
0.0
 10
-54.9950991611
 20
1.1663450122
 30
0.0
 10
-54.986867084
 20
1.1291459526
 30
0.0
 10
-54.9748876938
 20
1.0855186202
 30
0.0
 10
-54.956257515
 20
1.0292061358
 30
0.0
 10
-54.9277461565
 20
0.9614599974
 30
0.0
 10
-54.8850665977
 20
0.884655005
 30
0.0
 10
-54.8442709877
 20
0.8270831983
 30
0.0
 10
-54.8179044391
 20
0.7952481239
 30
0.0
 10
-54.8099957856
 20
0.7861053344
 30
0.0
  0
SPLINE
  5
361
100
AcDbEntity
  8
0
100
AcDbSpline
 62
7
  6
CONTINUOUS
 70
0
 71
3
 72
10
 73
6
 74
0
 42
0.0000001
 43
0.0000001
 44
0.0000000001
 40
0.0
 40
0.0
 40
0.0
 40
0.0
 40
0.1565525437
 40
0.4275327935
 40
1.0
 40
1.0
 40
1.0
 40
1.0
 10
-54.8099957856
 20
0.7861053344
 30
0.0
 10
-54.7984846177
 20
0.7727978624
 30
0.0
 10
-54.7659151007
 20
0.7374374959
 30
0.0
 10
-54.6831797875
 20
0.6612233155
 30
0.0
 10
-54.6042365114
 20
0.607606454
 30
0.0
 10
-54.5483798542
 20
0.5757352893
 30
0.0
  0
SPLINE
  5
362
100
AcDbEntity
  8
0
100
AcDbSpline
 62
7
  6
CONTINUOUS
 70
0
 71
3
 72
34
 73
30
 74
0
 42
0.0000001
 43
0.0000001
 44
0.0000000001
 40
0.0
 40
0.0
 40
0.0
 40
0.0
 40
0.1337483745
 40
0.1995015786
 40
0.2648410458
 40
0.3300401738
 40
0.3626774142
 40
0.3953826762
 40
0.4281900496
 40
0.4611333072
 40
0.4776668511
 40
0.4942468329
 40
0.5108773419
 40
0.5192128747
 40
0.5233859231
 40
0.527562571
 40
0.5317091596
 40
0.5358438518
 40
0.5440778853
 40
0.5604070229
 40
0.5765561764
 40
0.5925315379
 40
0.6239849984
 40
0.6548226109
 40
0.7148657005
 40
0.7731675937
 40
0.8302663747
 40
0.8867345312
 40
1.0
 40
1.0
 40
1.0
 40
1.0
 10
-53.4275902841
 20
-1.6038030334
 30
0.0
 10
-53.4538820964
 20
-1.5580150761
 30
0.0
 10
-53.4891119067
 20
-1.4872797957
 30
0.0
 10
-53.5265685334
 20
-1.3896133294
 30
0.0
 10
-53.5496183185
 20
-1.3155715672
 30
0.0
 10
-53.5647367066
 20
-1.2529041369
 30
0.0
 10
-53.574369176
 20
-1.2022710907
 30
0.0
 10
-53.5803758099
 20
-1.1639858935
 30
0.0
 10
-53.5851609634
 20
-1.1254078625
 30
0.0
 10
-53.5881276625
 20
-1.0930544145
 30
0.0
 10
-53.5898913366
 20
-1.0670361708
 30
0.0
 10
-53.5909128575
 20
-1.0474244777
 30
0.0
 10
-53.5915026348
 20
-1.0310335308
 30
0.0
 10
-53.5917955701
 20
-1.0195337234
 30
0.0
 10
-53.5919040965
 20
-1.0129480978
 30
0.0
 10
-53.592025183
 20
-1.0080154436
 30
0.0
 10
-53.5919033463
 20
-1.0030979614
 30
0.0
 10
-53.5917874331
 20
-0.9965795506
 30
0.0
 10
-53.5914715155
 20
-0.9852545441
 30
0.0
 10
-53.5908140194
 20
-0.9691952505
 30
0.0
 10
-53.5896538069
 20
-0.9501011228
 30
0.0
 10
-53.5876385314
 20
-0.9250824106
 30
0.0
 10
-53.5842275214
 20
-0.8943639336
 30
0.0
 10
-53.5768797412
 20
-0.8466214652
 30
0.0
 10
-53.5641322247
 20
-0.7890353942
 30
0.0
 10
-53.5428658801
 20
-0.7230132241
 30
0.0
 10
-53.5157429435
 20
-0.6606869959
 30
0.0
 10
-53.4718027106
 20
-0.5825341413
 30
0.0
 10
-53.4298973098
 20
-0.5294675805
 30
0.0
 10
-53.3988602192
 20
-0.4972805626
 30
0.0
  0
SPLINE
  5
363
100
AcDbEntity
  8
0
100
AcDbSpline
 62
7
  6
CONTINUOUS
 70
0
 71
3
 72
8
 73
4
 74
0
 42
0.0000001
 43
0.0000001
 44
0.0000000001
 40
0.0
 40
0.0
 40
0.0
 40
0.0
 40
1.0
 40
1.0
 40
1.0
 40
1.0
 10
-53.3988602192
 20
-0.4972805626
 30
0.0
 10
-53.268407763
 20
-0.3689058288
 30
0.0
 10
-53.0682028116
 20
-0.3055471905
 30
0.0
 10
-52.8851921845
 20
-0.3033053315
 30
0.0
  0
SPLINE
  5
364
100
AcDbEntity
  8
0
100
AcDbSpline
 62
7
  6
CONTINUOUS
 70
0
 71
3
 72
34
 73
30
 74
0
 42
0.0000001
 43
0.0000001
 44
0.0000000001
 40
0.0
 40
0.0
 40
0.0
 40
0.0
 40
0.1310441229
 40
0.1935637582
 40
0.2547716573
 40
0.315263831
 40
0.3756574841
 40
0.4060211431
 40
0.4365917492
 40
0.4519792744
 40
0.4674464455
 40
0.4830022984
 40
0.4908163995
 40
0.4947329568
 40
0.4986560218
 40
0.5026681227
 40
0.5066721376
 40
0.5146564456
 40
0.5305340744
 40
0.5462986067
 40
0.5619596225
 40
0.5930078581
 40
0.6237614216
 40
0.6543028562
 40
0.6847164325
 40
0.7454802949
 40
0.8067576143
 40
0.8692149114
 40
1.0
 40
1.0
 40
1.0
 40
1.0
 10
-52.8851921845
 20
-0.3033053315
 30
0.0
 10
-52.8400840581
 20
-0.3039450882
 30
0.0
 10
-52.7732825826
 20
-0.31004146
 30
0.0
 10
-52.6878234418
 20
-0.3302281764
 30
0.0
 10
-52.627704762
 20
-0.3507605126
 30
0.0
 10
-52.5706232351
 20
-0.3769212941
 30
0.0
 10
-52.5256602145
 20
-0.4033728667
 30
0.0
 10
-52.4913537812
 20
-0.4272218348
 30
0.0
 10
-52.4705454528
 20
-0.4432839413
 30
0.0
 10
-52.4542908638
 20
-0.4568121147
 30
0.0
 10
-52.4422621964
 20
-0.4673301248
 30
0.0
 10
-52.4324077713
 20
-0.4763679948
 30
0.0
 10
-52.4256049744
 20
-0.4828458866
 30
0.0
 10
-52.4217256861
 20
-0.4865864135
 30
0.0
 10
-52.418832974
 20
-0.4894641958
 30
0.0
 10
-52.4158283932
 20
-0.4922693024
 30
0.0
 10
-52.4118623917
 20
-0.496091854
 30
0.0
 10
-52.4049974497
 20
-0.5027926908
 30
0.0
 10
-52.3954173453
 20
-0.5125064663
 30
0.0
 10
-52.38426469
 20
-0.5243746155
 30
0.0
 10
-52.3699304766
 20
-0.5404107477
 30
0.0
 10
-52.3529103636
 20
-0.5609561111
 30
0.0
 10
-52.3339071578
 20
-0.5864578261
 30
0.0
 10
-52.3163829336
 20
-0.6127372506
 30
0.0
 10
-52.2950004802
 20
-0.6487922421
 30
0.0
 10
-52.2718682399
 20
-0.6960219186
 30
0.0
 10
-52.2500928452
 20
-0.7558141737
 30
0.0
 10
-52.2287006304
 20
-0.8409051477
 30
0.0
 10
-52.2222529386
 20
-0.9076195749
 30
0.0
 10
-52.2215925954
 20
-0.952638221
 30
0.0
  0
SPLINE
  5
365
100
AcDbEntity
  8
0
100
AcDbSpline
 62
7
  6
CONTINUOUS
 70
0
 71
3
 72
9
 73
5
 74
0
 42
0.0000001
 43
0.0000001
 44
0.0000000001
 40
0.0
 40
0.0
 40
0.0
 40
0.0
 40
0.7263317951
 40
1.0
 40
1.0
 40
1.0
 40
1.0
 10
-52.2215925954
 20
-0.952638221
 30
0.0
 10
-52.2252091223
 20
-1.1228159323
 30
0.0
 10
-52.3394204415
 20
-1.3719493129
 30
0.0
 10
-52.5455855459
 20
-1.4877780603
 30
0.0
 10
-52.6037187723
 20
-1.5148655073
 30
0.0
  0
SPLINE
  5
366
100
AcDbEntity
  8
0
100
AcDbSpline
 62
7
  6
CONTINUOUS
 70
0
 71
3
 72
8
 73
4
 74
0
 42
0.0000001
 43
0.0000001
 44
0.0000000001
 40
0.0
 40
0.0
 40
0.0
 40
0.0
 40
1.0
 40
1.0
 40
1.0
 40
1.0
 10
-52.4737468808
 20
-1.8039302577
 30
0.0
 10
-52.4369354682
 20
-1.7855963494
 30
0.0
 10
-52.400880594
 20
-1.7655054675
 30
0.0
 10
-52.366049706
 20
-1.7435064618
 30
0.0
  0
SPLINE
  5
367
100
AcDbEntity
  8
0
100
AcDbSpline
 62
7
  6
CONTINUOUS
 70
0
 71
3
 72
9
 73
5
 74
0
 42
0.0000001
 43
0.0000001
 44
0.0000000001
 40
0.0
 40
0.0
 40
0.0
 40
0.0
 40
0.720548741
 40
1.0
 40
1.0
 40
1.0
 40
1.0
 10
-52.366049706
 20
-1.7435064618
 30
0.0
 10
-52.3423869475
 20
-1.7285611879
 30
0.0
 10
-52.3103310316
 20
-1.706597464
 30
0.0
 10
-52.2796454709
 20
-1.6828462409
 30
0.0
 10
-52.2711856197
 20
-1.6760676147
 30
0.0
  0
SPLINE
  5
368
100
AcDbEntity
  8
0
100
AcDbSpline
 62
7
  6
CONTINUOUS
 70
0
 71
3
 72
12
 73
8
 74
0
 42
0.0000001
 43
0.0000001
 44
0.0000000001
 40
0.0
 40
0.0
 40
0.0
 40
0.0
 40
0.1525598836
 40
0.3746884778
 40
0.5924090945
 40
0.8085186221
 40
1.0
 40
1.0
 40
1.0
 40
1.0
 10
-52.2711856197
 20
-1.6760676147
 30
0.0
 10
-52.2543393058
 20
-1.6625691663
 30
0.0
 10
-52.2140871921
 20
-1.628040567
 30
0.0
 10
-52.1554263427
 20
-1.5679741417
 30
0.0
 10
-52.0983200979
 20
-1.4946058349
 30
0.0
 10
-52.0522902055
 20
-1.4188628254
 30
0.0
 10
-52.0278269243
 20
-1.3665395993
 30
0.0
 10
-52.0175763738
 20
-1.3414618169
 30
0.0
  0
SPLINE
  5
369
100
AcDbEntity
  8
0
100
AcDbSpline
 62
7
  6
CONTINUOUS
 70
0
 71
3
 72
49
 73
45
 74
0
 42
0.0000001
 43
0.0000001
 44
0.0000000001
 40
0.0
 40
0.0
 40
0.0
 40
0.0
 40
0.0186707958
 40
0.0980929176
 40
0.178492639
 40
0.260105766
 40
0.3431577697
 40
0.3852938933
 40
0.4278689365
 40
0.4709077245
 40
0.5144342894
 40
0.5363881335
 40
0.5584725656
 40
0.580690365
 40
0.5918501744
 40
0.603044345
 40
0.6142732103
 40
0.6199007619
 40
0.6255371107
 40
0.6283585975
 40
0.631182299
 40
0.6325949818
 40
0.6332407767
 40
0.6337651183
 40
0.6348135995
 40
0.6358618117
 40
0.6379574301
 40
0.6400519753
 40
0.6442378528
 40
0.6484194594
 40
0.6525968095
 40
0.6609387955
 40
0.6775723076
 40
0.6941393714
 40
0.7106409478
 40
0.727078009
 40
0.7434515388
 40
0.7760117441
 40
0.808329911
 40
0.840414323
 40
0.8722734461
 40
0.9353483621
 40
0.9976281032
 40
1.0
 40
1.0
 40
1.0
 40
1.0
 10
-52.0175763738
 20
-1.3414618169
 30
0.0
 10
-52.0161911488
 20
-1.3380728895
 30
0.0
 10
-52.0090325964
 20
-1.3202204104
 30
0.0
 10
-51.9971482984
 20
-1.2872988854
 30
0.0
 10
-51.9835390679
 20
-1.2419482522
 30
0.0
 10
-51.9722056315
 20
-1.1952469231
 30
0.0
 10
-51.9646920714
 20
-1.1553946842
 30
0.0
 10
-51.9598048216
 20
-1.1228737632
 30
0.0
 10
-51.9566885125
 20
-1.0980253773
 30
0.0
 10
-51.9541393355
 20
-1.0728388025
 30
0.0
 10
-51.9524923471
 20
-1.0516295949
 30
0.0
 10
-51.9514559304
 20
-1.0344969152
 30
0.0
 10
-51.9508180635
 20
-1.0215253639
 30
0.0
 10
-51.9504052284
 20
-1.0106617767
 30
0.0
 10
-51.9501454979
 20
-1.0019290269
 30
0.0
 10
-51.9499858236
 20
-0.9953483111
 30
0.0
 10
-51.9498823742
 20
-0.9898510213
 30
0.0
 10
-51.9498172598
 20
-0.9854426607
 30
0.0
 10
-51.9497839842
 20
-0.9826819604
 30
0.0
 10
-51.9497616498
 20
-0.9804707657
 30
0.0
 10
-51.9497498451
 20
-0.979087386
 30
0.0
 10
-51.9497420215
 20
-0.9781304674
 30
0.0
 10
-51.949739
 20
-0.9776241965
 30
0.0
 10
-51.9497447251
 20
-0.9771893491
 30
0.0
 10
-51.9497492869
 20
-0.9766756204
 30
0.0
 10
-51.9497582949
 20
-0.9758539272
 30
0.0
 10
-51.9497698108
 20
-0.9748272114
 30
0.0
 10
-51.9497900055
 20
-0.9731855358
 30
0.0
 10
-51.9498180054
 20
-0.9711350492
 30
0.0
 10
-51.9498562043
 20
-0.9686764144
 30
0.0
 10
-51.9499131652
 20
-0.9654033337
 30
0.0
 10
-51.9500286486
 20
-0.9596901995
 30
0.0
 10
-51.9502391038
 20
-0.9515500217
 30
0.0
 10
-51.9505647609
 20
-0.9418131871
 30
0.0
 10
-51.9509632723
 20
-0.9321175991
 30
0.0
 10
-51.951434639
 20
-0.9224632528
 30
0.0
 10
-51.9521588844
 20
-0.909670214
 30
0.0
 10
-51.9532453734
 20
-0.8937802982
 30
0.0
 10
-51.9548431156
 20
-0.8748409842
 30
0.0
 10
-51.9567323438
 20
-0.8560665307
 30
0.0
 10
-51.9596301044
 20
-0.8313377773
 30
0.0
 10
-51.9639753903
 20
-0.8008236316
 30
0.0
 10
-51.9683481185
 20
-0.7761676439
 30
0.0
 10
-51.970788206
 20
-0.7637317012
 30
0.0
 10
-51.9708780318
 20
-0.7632755195
 30
0.0
  0
SPLINE
  5
36A
100
AcDbEntity
  8
0
100
AcDbSpline
 62
7
  6
CONTINUOUS
 70
0
 71
3
 72
33
 73
29
 74
0
 42
0.0000001
 43
0.0000001
 44
0.0000000001
 40
0.0
 40
0.0
 40
0.0
 40
0.0
 40
0.0389493056
 40
0.0790354284
 40
0.1187495732
 40
0.1972636333
 40
0.2749479436
 40
0.3522600197
 40
0.4296639785
 40
0.4685523636
 40
0.5076364615
 40
0.5469724671
 40
0.5667530558
 40
0.5866171873
 40
0.5965827792
 40
0.6065717579
 40
0.6115752871
 40
0.616495741
 40
0.6213684116
 40
0.626236058
 40
0.645658421
 40
0.6650096751
 40
0.7035270806
 40
0.7418511077
 40
0.8181515406
 40
0.8944276443
 40
0.9711811963
 40
1.0
 40
1.0
 40
1.0
 40
1.0
 10
-51.9708780318
 20
-0.7632755195
 30
0.0
 10
-51.9731194854
 20
-0.7518922654
 30
0.0
 10
-51.9780537982
 20
-0.7288693734
 30
0.0
 10
-51.9866741482
 20
-0.6945573407
 30
0.0
 10
-51.9998233099
 20
-0.6492641258
 30
0.0
 10
-52.0191911529
 20
-0.5941551217
 30
0.0
 10
-52.0472131747
 20
-0.5304234645
 30
0.0
 10
-52.0799271471
 20
-0.4693420472
 30
0.0
 10
-52.1110543135
 20
-0.4207239534
 30
0.0
 10
-52.1382192336
 20
-0.3832440937
 30
0.0
 10
-52.1597936604
 20
-0.3557482764
 30
0.0
 10
-52.178708994
 20
-0.333428276
 30
0.0
 10
-52.1944130154
 20
-0.3159110897
 30
0.0
 10
-52.2044774264
 20
-0.3050903642
 30
0.0
 10
-52.2126756458
 20
-0.2965197063
 30
0.0
 10
-52.2178570743
 20
-0.291188825
 30
0.0
 10
-52.2220331239
 20
-0.2869769355
 30
0.0
 10
-52.2251143254
 20
-0.2838256955
 30
0.0
 10
-52.2281719537
 20
-0.2807080195
 30
0.0
 10
-52.2342894553
 20
-0.2745413459
 30
0.0
 10
-52.2435541904
 20
-0.2654221942
 30
0.0
 10
-52.2602776176
 20
-0.249599073
 30
0.0
 10
-52.2816699387
 20
-0.2305261614
 30
0.0
 10
-52.3169118784
 20
-0.2015512793
 30
0.0
 10
-52.3629931854
 20
-0.1681232781
 30
0.0
 10
-52.4214303624
 20
-0.1326119608
 30
0.0
 10
-52.4698952051
 20
-0.1082949771
 30
0.0
 10
-52.4987357647
 20
-0.0957354357
 30
0.0
 10
-52.5066568608
 20
-0.092422397
 30
0.0
  0
SPLINE
  5
36B
100
AcDbEntity
  8
0
100
AcDbSpline
 62
7
  6
CONTINUOUS
 70
0
 71
3
 72
33
 73
29
 74
0
 42
0.0000001
 43
0.0000001
 44
0.0000000001
 40
0.0
 40
0.0
 40
0.0
 40
0.0
 40
0.0720177601
 40
0.1886015338
 40
0.3079736724
 40
0.3689089216
 40
0.4307681476
 40
0.4936205865
 40
0.5575322461
 40
0.5899059721
 40
0.6225677715
 40
0.6390091158
 40
0.6555252178
 40
0.6721169655
 40
0.6804414943
 40
0.6846109683
 40
0.6887852655
 40
0.692822066
 40
0.6968545544
 40
0.7049066377
 40
0.7209595393
 40
0.7369447355
 40
0.7528629749
 40
0.7845014335
 40
0.8158812851
 40
0.8778890224
 40
0.9389403031
 40
1.0
 40
1.0
 40
1.0
 40
1.0
 10
-52.5066568608
 20
-0.092422397
 30
0.0
 10
-52.5200987459
 20
-0.0868002602
 30
0.0
 10
-52.5556648159
 20
-0.0729473677
 30
0.0
 10
-52.6150702563
 20
-0.0540133637
 30
0.0
 10
-52.6735278542
 20
-0.040033191
 30
0.0
 10
-52.721702314
 20
-0.0311372024
 30
0.0
 10
-52.7588452733
 20
-0.02557547
 30
0.0
 10
-52.796748181
 20
-0.0211706822
 30
0.0
 10
-52.8288286613
 20
-0.0184754897
 30
0.0
 10
-52.854862513
 20
-0.0168904083
 30
0.0
 10
-52.871325818
 20
-0.0161377878
 30
0.0
 10
-52.884590356
 20
-0.0156794866
 30
0.0
 10
-52.8946087321
 20
-0.0154064373
 30
0.0
 10
-52.9029874032
 20
-0.0152417563
 30
0.0
 10
-52.9088697823
 20
-0.0151531311
 30
0.0
 10
-52.9122409323
 20
-0.0151191021
 30
0.0
 10
-52.9147449573
 20
-0.0150769341
 30
0.0
 10
-52.9172212582
 20
-0.0151191153
 30
0.0
 10
-52.9204817835
 20
-0.0151531464
 30
0.0
 10
-52.9261723681
 20
-0.0152394289
 30
0.0
 10
-52.9342796427
 20
-0.0153968823
 30
0.0
 10
-52.943976135
 20
-0.0156541074
 30
0.0
 10
-52.9568212678
 20
-0.0160822612
 30
0.0
 10
-52.9727725928
 20
-0.0167800198
 30
0.0
 10
-52.9980191584
 20
-0.0182409202
 30
0.0
 10
-53.0291636358
 20
-0.0207128725
 30
0.0
 10
-53.0661881882
 20
-0.0247561646
 30
0.0
 10
-53.0906539435
 20
-0.0281914555
 30
0.0
 10
-53.1028571387
 20
-0.0301051515
 30
0.0
  0
SPLINE
  5
36C
100
AcDbEntity
  8
0
100
AcDbSpline
 62
7
  6
CONTINUOUS
 70
0
 71
3
 72
12
 73
8
 74
0
 42
0.0000001
 43
0.0000001
 44
0.0000000001
 40
0.0
 40
0.0
 40
0.0
 40
0.0
 40
0.1144361474
 40
0.3424152252
 40
0.565250003
 40
0.7840094285
 40
1.0
 40
1.0
 40
1.0
 40
1.0
 10
-53.1028571387
 20
-0.0301051515
 30
0.0
 10
-53.1145250852
 20
-0.0319349102
 30
0.0
 10
-53.1493543504
 20
-0.0379458704
 30
0.0
 10
-53.2063322625
 20
-0.0506126116
 30
0.0
 10
-53.2726588686
 20
-0.0701620598
 30
0.0
 10
-53.3362806316
 20
-0.0939212415
 30
0.0
 10
-53.3770849432
 20
-0.1126622287
 30
0.0
 10
-53.3969793796
 20
-0.122720609
 30
0.0
  0
SPLINE
  5
36D
100
AcDbEntity
  8
0
100
AcDbSpline
 62
7
  6
CONTINUOUS
 70
0
 71
3
 72
17
 73
13
 74
0
 42
0.0000001
 43
0.0000001
 44
0.0000000001
 40
0.0
 40
0.0
 40
0.0
 40
0.0
 40
0.278422283
 40
0.4837897294
 40
0.58658831
 40
0.6895547698
 40
0.7927617616
 40
0.8444791466
 40
0.8962836662
 40
0.9480291373
 40
0.9735873215
 40
1.0
 40
1.0
 40
1.0
 40
1.0
 10
2.9274617309
 20
28.6181781778
 30
0.0
 10
2.9206400426
 20
28.6344108995
 30
0.0
 10
2.9077792791
 20
28.6621916201
 30
0.0
 10
2.8901058328
 20
28.694802832
 30
0.0
 10
2.8768186598
 20
28.717138656
 30
0.0
 10
2.8663901132
 20
28.7336529528
 30
0.0
 10
2.8573222163
 20
28.7472006515
 30
0.0
 10
2.8498430419
 20
28.7579157204
 30
0.0
 10
2.8441142941
 20
28.7658837569
 30
0.0
 10
2.8392837643
 20
28.7724631194
 30
0.0
 10
2.835210495
 20
28.7776001942
 30
0.0
 10
2.8331645912
 20
28.7801701381
 30
0.0
 10
2.8321199304
 20
28.7814723356
 30
0.0
  0
SPLINE
  5
36E
100
AcDbEntity
  8
0
100
AcDbSpline
 62
7
  6
CONTINUOUS
 70
0
 71
3
 72
11
 73
7
 74
0
 42
0.0000001
 43
0.0000001
 44
0.0000000001
 40
0.0
 40
0.0
 40
0.0
 40
0.0
 40
0.0948893107
 40
0.3586898842
 40
0.8791506063
 40
1.0
 40
1.0
 40
1.0
 40
1.0
 10
-0.6492828854
 20
29.8167029945
 30
0.0
 10
-0.647994634
 20
29.819712366
 30
0.0
 10
-0.6430571339
 20
29.8310589897
 30
0.0
 10
-0.6303217604
 20
29.858589414
 30
0.0
 10
-0.6157658606
 20
29.8862377131
 30
0.0
 10
-0.604595523
 20
29.9053480812
 30
0.0
 10
-0.6024602893
 20
29.908931561
 30
0.0
  0
SPLINE
  5
36F
100
AcDbEntity
  8
0
100
AcDbSpline
 62
7
  6
CONTINUOUS
 70
0
 71
3
 72
18
 73
14
 74
0
 42
0.0000001
 43
0.0000001
 44
0.0000000001
 40
0.0
 40
0.0
 40
0.0
 40
0.0
 40
0.2242699921
 40
0.4306898415
 40
0.5340152122
 40
0.6375093224
 40
0.7412451971
 40
0.7932276072
 40
0.8452975985
 40
0.8973082386
 40
0.9229973955
 40
0.9486412633
 40
1.0
 40
1.0
 40
1.0
 40
1.0
 10
-53.1521373746
 20
2.2330716208
 30
0.0
 10
-53.1653455277
 20
2.227298733
 30
0.0
 10
-53.1903900358
 20
2.2154849148
 30
0.0
 10
-53.2205639467
 20
2.1991323488
 30
0.0
 10
-53.2433813529
 20
2.1855586914
 30
0.0
 10
-53.260251714
 20
2.1749052952
 30
0.0
 10
-53.2740915143
 20
2.1656418855
 30
0.0
 10
-53.2850376107
 20
2.1580014529
 30
0.0
 10
-53.2931774455
 20
2.1521491873
 30
0.0
 10
-53.2998986665
 20
2.147214508
 30
0.0
 10
-53.3051009839
 20
2.1430895021
 30
0.0
 10
-53.3102622558
 20
2.1389809738
 30
0.0
 10
-53.314099642
 20
2.1358592067
 30
0.0
 10
-53.316644763
 20
2.1337595927
 30
0.0
  0
SPLINE
  5
370
100
AcDbEntity
  8
0
100
AcDbSpline
 62
7
  6
CONTINUOUS
 70
0
 71
3
 72
9
 73
5
 74
0
 42
0.0000001
 43
0.0000001
 44
0.0000000001
 40
0.0
 40
0.0
 40
0.0
 40
0.0
 40
0.3113960544
 40
1.0
 40
1.0
 40
1.0
 40
1.0
 10
-53.4948428818
 20
1.9122238326
 30
0.0
 10
-53.4996210561
 20
1.9028256583
 30
0.0
 10
-53.5142946809
 20
1.8722965863
 30
0.0
 10
-53.5268142363
 20
1.8407435277
 30
0.0
 10
-53.5344573124
 20
1.8186728615
 30
0.0
  0
SPLINE
  5
371
100
AcDbEntity
  8
0
100
AcDbSpline
 62
7
  6
CONTINUOUS
 70
0
 71
3
 72
9
 73
5
 74
0
 42
0.0000001
 43
0.0000001
 44
0.0000000001
 40
0.0
 40
0.0
 40
0.0
 40
0.0
 40
0.847567338
 40
1.0
 40
1.0
 40
1.0
 40
1.0
 10
-53.5344573124
 20
1.8186728615
 30
0.0
 10
-53.5443888992
 20
1.7899937362
 30
0.0
 10
-53.5541584323
 20
1.7554732235
 30
0.0
 10
-53.5617621209
 20
1.7205813123
 30
0.0
 10
-53.5628714012
 20
1.7152558337
 30
0.0
  0
SPLINE
  5
372
100
AcDbEntity
  8
0
100
AcDbSpline
 62
7
  6
CONTINUOUS
 70
0
 71
3
 72
18
 73
14
 74
0
 42
0.0000001
 43
0.0000001
 44
0.0000000001
 40
0.0
 40
0.0
 40
0.0
 40
0.0
 40
0.0252794644
 40
0.0530692856
 40
0.0810884147
 40
0.1091545755
 40
0.137156983
 40
0.2485761697
 40
0.3591927385
 40
0.4691848517
 40
0.5787337186
 40
0.7971904061
 40
1.0
 40
1.0
 40
1.0
 40
1.0
 10
-53.58222195
 20
-0.2482213911
 30
0.0
 10
-53.5841246075
 20
-0.2498981706
 30
0.0
 10
-53.5881055338
 20
-0.2534334345
 30
0.0
 10
-53.5941516711
 20
-0.2588762337
 30
0.0
 10
-53.6002860284
 20
-0.2646364835
 30
0.0
 10
-53.6063602045
 20
-0.2704903276
 30
0.0
 10
-53.6183542933
 20
-0.2822575384
 30
0.0
 10
-53.6358259766
 20
-0.3002664252
 30
0.0
 10
-53.6580561434
 20
-0.3250834577
 30
0.0
 10
-53.6791461009
 20
-0.3506351726
 30
0.0
 10
-53.7057177185
 20
-0.3856431395
 30
0.0
 10
-53.7352763353
 20
-0.4300168048
 30
0.0
 10
-53.7558577681
 20
-0.4669760569
 30
0.0
 10
-53.7650819702
 20
-0.4851167868
 30
0.0
  0
SPLINE
  5
373
100
AcDbEntity
  8
0
100
AcDbSpline
 62
7
  6
CONTINUOUS
 70
0
 71
3
 72
65
 73
61
 74
0
 42
0.0000001
 43
0.0000001
 44
0.0000000001
 40
0.0
 40
0.0
 40
0.0
 40
0.0
 40
0.0057168003
 40
0.0841850011
 40
0.1638405836
 40
0.2042740615
 40
0.2451844558
 40
0.2866279468
 40
0.3286585771
 40
0.3713281585
 40
0.3929188683
 40
0.4146876873
 40
0.4366404429
 40
0.4587828175
 40
0.4699269328
 40
0.4811205171
 40
0.4923642401
 40
0.5036587626
 40
0.5093252878
 40
0.5150047566
 40
0.5206972492
 40
0.5235484054
 40
0.5264028474
 40
0.529260585
 40
0.5306906928
 40
0.5321216282
 40
0.5328374067
 40
0.5335533925
 40
0.5339114632
 40
0.5340596672
 40
0.5343191922
 40
0.5344922034
 40
0.5351842046
 40
0.535876136
 40
0.536567998
 40
0.5372597907
 40
0.5386431687
 40
0.5414091005
 40
0.5441739434
 40
0.5469377089
 40
0.5497004084
 40
0.5524620536
 40
0.5579822243
 40
0.5634983163
 40
0.5745186125
 40
0.5855237102
 40
0.5965143573
 40
0.6074913045
 40
0.6184553054
 40
0.6294071163
 40
0.6512770151
 40
0.6731072884
 40
0.6949040679
 40
0.7384202593
 40
0.7818766569
 40
0.8253229966
 40
0.8688090484
 40
0.9123844465
 40
0.9560985206
 40
1.0
 40
1.0
 40
1.0
 40
1.0
 10
-53.7650819702
 20
-0.4851167868
 30
0.0
 10
-53.765813631
 20
-0.4865557037
 30
0.0
 10
-53.776524592
 20
-0.5077772386
 30
0.0
 10
-53.7955495672
 20
-0.5499893017
 30
0.0
 10
-53.814459544
 20
-0.602820963
 30
0.0
 10
-53.8273020467
 20
-0.6464273863
 30
0.0
 10
-53.8358427565
 20
-0.6800298315
 30
0.0
 10
-53.84324259
 20
-0.7143623003
 30
0.0
 10
-53.8495020359
 20
-0.7494251
 30
0.0
 10
-53.8537511092
 20
-0.7791346371
 30
0.0
 10
-53.8565862708
 20
-0.8032551986
 30
0.0
 10
-53.8584363327
 20
-0.8216004588
 30
0.0
 10
-53.8600016001
 20
-0.8401283989
 30
0.0
 10
-53.8610663425
 20
-0.8556865695
 30
0.0
 10
-53.861776645
 20
-0.8682231393
 30
0.0
 10
-53.8622393559
 20
-0.8776918623
 30
0.0
 10
-53.8626308834
 20
-0.8872062807
 30
0.0
 10
-53.8628975346
 20
-0.8951640092
 30
0.0
 10
-53.8630753835
 20
-0.9015528876
 30
0.0
 10
-53.8631911264
 20
-0.9063614134
 30
0.0
 10
-53.8632727028
 20
-0.9103757325
 30
0.0
 10
-53.8633290815
 20
-0.9135928825
 30
0.0
 10
-53.8633669414
 20
-0.9160099881
 30
0.0
 10
-53.8633947747
 20
-0.9180260407
 30
0.0
 10
-53.8634148218
 20
-0.9196403088
 30
0.0
 10
-53.8634264196
 20
-0.9206499671
 30
0.0
 10
-53.8634351576
 20
-0.92145805
 30
0.0
 10
-53.8634403519
 20
-0.9219632884
 30
0.0
 10
-53.8634438494
 20
-0.9223083095
 30
0.0
 10
-53.8634458926
 20
-0.9225244845
 30
0.0
 10
-53.8634452811
 20
-0.9226884277
 30
0.0
 10
-53.8634453933
 20
-0.92300588
 30
0.0
 10
-53.8634449911
 20
-0.9234454004
 30
0.0
 10
-53.8634443953
 20
-0.9240313897
 30
0.0
 10
-53.8634434374
 20
-0.9246173199
 30
0.0
 10
-53.8634417848
 20
-0.9253984421
 30
0.0
 10
-53.8634378391
 20
-0.9267650635
 30
0.0
 10
-53.8634292256
 20
-0.9287168878
 30
0.0
 10
-53.8634141138
 20
-0.9310583611
 30
0.0
 10
-53.8633942303
 20
-0.9333988864
 30
0.0
 10
-53.8633695744
 20
-0.9357384636
 30
0.0
 10
-53.8633303443
 20
-0.9388560477
 30
0.0
 10
-53.8632693821
 20
-0.9427506857
 30
0.0
 10
-53.8631464161
 20
-0.9489759769
 30
0.0
 10
-53.8629450305
 20
-0.9567483322
 30
0.0
 10
-53.8626269197
 20
-0.9660633212
 30
0.0
 10
-53.8622324473
 20
-0.9753631449
 30
0.0
 10
-53.8617616134
 20
-0.9846477967
 30
0.0
 10
-53.8612144172
 20
-0.9939172859
 30
0.0
 10
-53.860383438
 20
-1.006249997
 30
0.0
 10
-53.8591539562
 20
-1.0216297729
 30
0.0
 10
-53.8573723064
 20
-1.0400341932
 30
0.0
 10
-53.8545911419
 20
-1.0644776747
 30
0.0
 10
-53.8503500967
 20
-1.094895014
 30
0.0
 10
-53.8440348601
 20
-1.1311731271
 30
0.0
 10
-53.8364964961
 20
-1.1672084812
 30
0.0
 10
-53.8277350719
 20
-1.2030006313
 30
0.0
 10
-53.8177505856
 20
-1.2385496467
 30
0.0
 10
-53.8065433028
 20
-1.2738548534
 30
0.0
 10
-53.7982769072
 20
-1.2971718274
 30
0.0
 10
-53.7939441343
 20
-1.308783005
 30
0.0
  0
SPLINE
  5
374
100
AcDbEntity
  8
0
100
AcDbSpline
 62
7
  6
CONTINUOUS
 70
0
 71
3
 72
26
 73
22
 74
0
 42
0.0000001
 43
0.0000001
 44
0.0000000001
 40
0.0
 40
0.0
 40
0.0
 40
0.0
 40
0.1949497304
 40
0.382410002
 40
0.4710568578
 40
0.5551795783
 40
0.6339507861
 40
0.7066223853
 40
0.7724874015
 40
0.8309237904
 40
0.8813570041
 40
0.9233168804
 40
0.9409845523
 40
0.9563895715
 40
0.9694986943
 40
0.9802794354
 40
0.9887047219
 40
0.9947667445
 40
0.9984761369
 40
0.999476357
 40
1.0
 40
1.0
 40
1.0
 40
1.0
 10
-0.0
 20
41.3166912456
 30
0.0
 10
-0.7478473392
 20
41.3166912456
 30
0.0
 10
-2.2148127993
 20
41.3142143642
 30
0.0
 10
-4.0218159066
 20
41.3048544207
 30
0.0
 10
-5.4036492665
 20
41.2935152867
 30
0.0
 10
-6.3685345397
 20
41.2834901319
 30
0.0
 10
-7.2721146931
 20
41.2718779452
 30
0.0
 10
-8.1056288841
 20
41.2588106871
 30
0.0
 10
-8.8611021948
 20
41.2444106093
 30
0.0
 10
-9.5312242756
 20
41.2288575149
 30
0.0
 10
-10.1095883425
 20
41.2122962257
 30
0.0
 10
-10.5315259896
 20
41.1971447463
 30
0.0
 10
-10.8190754306
 20
41.1842579897
 30
0.0
 10
-10.9959867915
 20
41.1750236867
 30
0.0
 10
-11.1464632475
 20
41.1656775422
 30
0.0
 10
-11.2700131863
 20
41.1563358261
 30
0.0
 10
-11.3666700575
 20
41.14689682
 30
0.0
 10
-11.4355135011
 20
41.1379592809
 30
0.0
 10
-11.4767397208
 20
41.1293949855
 30
0.0
 10
-11.495003038
 20
41.1227184149
 30
0.0
 10
-11.5
 20
41.1179973204
 30
0.0
 10
-11.5
 20
41.1159885716
 30
0.0
  0
SPLINE
  5
375
100
AcDbEntity
  8
0
100
AcDbSpline
 62
7
  6
CONTINUOUS
 70
0
 71
3
 72
26
 73
22
 74
0
 42
0.0000001
 43
0.0000001
 44
0.0000000001
 40
0.0
 40
0.0
 40
0.0
 40
0.0
 40
0.1949497304
 40
0.382410002
 40
0.4710568578
 40
0.5551795783
 40
0.6339507861
 40
0.7066223853
 40
0.7724874015
 40
0.8309237904
 40
0.8813570041
 40
0.9233168804
 40
0.9409845523
 40
0.9563895715
 40
0.9694986943
 40
0.9802794354
 40
0.9887047219
 40
0.9947667445
 40
0.9984761369
 40
0.999476357
 40
1.0
 40
1.0
 40
1.0
 40
1.0
 10
34.0
 20
41.3166912456
 30
0.0
 10
33.2521526608
 20
41.3166912456
 30
0.0
 10
31.7851872007
 20
41.3142143642
 30
0.0
 10
29.9781840934
 20
41.3048544207
 30
0.0
 10
28.5963507335
 20
41.2935152867
 30
0.0
 10
27.6314654603
 20
41.2834901319
 30
0.0
 10
26.7278853069
 20
41.2718779452
 30
0.0
 10
25.8943711159
 20
41.2588106871
 30
0.0
 10
25.1388978052
 20
41.2444106093
 30
0.0
 10
24.4687757244
 20
41.2288575149
 30
0.0
 10
23.8904116575
 20
41.2122962257
 30
0.0
 10
23.4684740104
 20
41.1971447463
 30
0.0
 10
23.1809245694
 20
41.1842579897
 30
0.0
 10
23.0040132085
 20
41.1750236867
 30
0.0
 10
22.8535367525
 20
41.1656775422
 30
0.0
 10
22.7299868137
 20
41.1563358261
 30
0.0
 10
22.6333299425
 20
41.14689682
 30
0.0
 10
22.5644864989
 20
41.1379592809
 30
0.0
 10
22.5232602792
 20
41.1293949855
 30
0.0
 10
22.504996962
 20
41.1227184149
 30
0.0
 10
22.5
 20
41.1179973204
 30
0.0
 10
22.5
 20
41.1159885716
 30
0.0
  0
SPLINE
  5
376
100
AcDbEntity
  8
0
100
AcDbSpline
 62
7
  6
CONTINUOUS
 70
0
 71
3
 72
26
 73
22
 74
0
 42
0.0000001
 43
0.0000001
 44
0.0000000001
 40
0.0
 40
0.0
 40
0.0
 40
0.0
 40
0.000523643
 40
0.0015238631
 40
0.0052332555
 40
0.0112952781
 40
0.0197205646
 40
0.0305013057
 40
0.0436104285
 40
0.0590154477
 40
0.0766831196
 40
0.1186429959
 40
0.1690762096
 40
0.2275125985
 40
0.2933776147
 40
0.3660492139
 40
0.4448204217
 40
0.5289431422
 40
0.617589998
 40
0.8050502696
 40
1.0
 40
1.0
 40
1.0
 40
1.0
 10
-22.5
 20
41.1159885716
 30
0.0
 10
-22.5
 20
41.1179973204
 30
0.0
 10
-22.504996962
 20
41.1227184149
 30
0.0
 10
-22.5232602792
 20
41.1293949855
 30
0.0
 10
-22.5644864989
 20
41.1379592809
 30
0.0
 10
-22.6333299425
 20
41.14689682
 30
0.0
 10
-22.7299868137
 20
41.1563358261
 30
0.0
 10
-22.8535367525
 20
41.1656775422
 30
0.0
 10
-23.0040132085
 20
41.1750236867
 30
0.0
 10
-23.1809245694
 20
41.1842579897
 30
0.0
 10
-23.4684740104
 20
41.1971447463
 30
0.0
 10
-23.8904116575
 20
41.2122962257
 30
0.0
 10
-24.4687757244
 20
41.2288575149
 30
0.0
 10
-25.1388978052
 20
41.2444106093
 30
0.0
 10
-25.8943711159
 20
41.2588106871
 30
0.0
 10
-26.7278853069
 20
41.2718779452
 30
0.0
 10
-27.6314654603
 20
41.2834901319
 30
0.0
 10
-28.5963507335
 20
41.2935152867
 30
0.0
 10
-29.9781840934
 20
41.3048544207
 30
0.0
 10
-31.7851872007
 20
41.3142143642
 30
0.0
 10
-33.2521526608
 20
41.3166912456
 30
0.0
 10
-34.0
 20
41.3166912456
 30
0.0
  0
SPLINE
  5
377
100
AcDbEntity
  8
0
100
AcDbSpline
 62
7
  6
CONTINUOUS
 70
0
 71
3
 72
26
 73
22
 74
0
 42
0.0000001
 43
0.0000001
 44
0.0000000001
 40
0.0
 40
0.0
 40
0.0
 40
0.0
 40
0.1949497304
 40
0.382410002
 40
0.4710568578
 40
0.5551795783
 40
0.6339507861
 40
0.7066223853
 40
0.7724874015
 40
0.8309237904
 40
0.8813570041
 40
0.9233168804
 40
0.9409845523
 40
0.9563895715
 40
0.9694986943
 40
0.9802794354
 40
0.9887047219
 40
0.9947667445
 40
0.9984761369
 40
0.999476357
 40
1.0
 40
1.0
 40
1.0
 40
1.0
 10
-34.0
 20
41.3166912456
 30
0.0
 10
-34.7478473392
 20
41.3166912456
 30
0.0
 10
-36.2148127993
 20
41.3142143642
 30
0.0
 10
-38.0218159066
 20
41.3048544207
 30
0.0
 10
-39.4036492665
 20
41.2935152867
 30
0.0
 10
-40.3685345397
 20
41.2834901319
 30
0.0
 10
-41.2721146931
 20
41.2718779452
 30
0.0
 10
-42.1056288841
 20
41.2588106871
 30
0.0
 10
-42.8611021948
 20
41.2444106093
 30
0.0
 10
-43.5312242756
 20
41.2288575149
 30
0.0
 10
-44.1095883425
 20
41.2122962257
 30
0.0
 10
-44.5315259896
 20
41.1971447463
 30
0.0
 10
-44.8190754306
 20
41.1842579897
 30
0.0
 10
-44.9959867915
 20
41.1750236867
 30
0.0
 10
-45.1464632475
 20
41.1656775422
 30
0.0
 10
-45.2700131863
 20
41.1563358261
 30
0.0
 10
-45.3666700575
 20
41.14689682
 30
0.0
 10
-45.4355135011
 20
41.1379592809
 30
0.0
 10
-45.4767397208
 20
41.1293949855
 30
0.0
 10
-45.495003038
 20
41.1227184149
 30
0.0
 10
-45.5
 20
41.1179973204
 30
0.0
 10
-45.5
 20
41.1159885716
 30
0.0
  0
SPLINE
  5
378
100
AcDbEntity
  8
ASSI
100
AcDbSpline
 62
7
  6
CONTINUOUS
 70
0
 71
3
 72
26
 73
22
 74
0
 42
0.0000001
 43
0.0000001
 44
0.0000000001
 40
0.0
 40
0.0
 40
0.0
 40
0.0
 40
0.1949497304
 40
0.382410002
 40
0.4710568578
 40
0.5551795783
 40
0.6339507861
 40
0.7066223853
 40
0.7724874015
 40
0.8309237904
 40
0.8813570041
 40
0.9233168804
 40
0.9409845523
 40
0.9563895715
 40
0.9694986943
 40
0.9802794354
 40
0.9887047219
 40
0.9947667445
 40
0.9984761369
 40
0.999476357
 40
1.0
 40
1.0
 40
1.0
 40
1.0
 10
67.8166912456
 20
-0.0
 30
0.0
 10
67.8166912456
 20
-0.7478473392
 30
0.0
 10
67.8142143642
 20
-2.2148127993
 30
0.0
 10
67.8048544207
 20
-4.0218159066
 30
0.0
 10
67.7935152867
 20
-5.4036492665
 30
0.0
 10
67.7834901319
 20
-6.3685345397
 30
0.0
 10
67.7718779452
 20
-7.2721146931
 30
0.0
 10
67.7588106871
 20
-8.1056288841
 30
0.0
 10
67.7444106093
 20
-8.8611021948
 30
0.0
 10
67.7288575149
 20
-9.5312242756
 30
0.0
 10
67.7122962257
 20
-10.1095883425
 30
0.0
 10
67.6971447463
 20
-10.5315259896
 30
0.0
 10
67.6842579897
 20
-10.8190754306
 30
0.0
 10
67.6750236867
 20
-10.9959867915
 30
0.0
 10
67.6656775422
 20
-11.1464632475
 30
0.0
 10
67.6563358261
 20
-11.2700131863
 30
0.0
 10
67.64689682
 20
-11.3666700575
 30
0.0
 10
67.6379592809
 20
-11.4355135011
 30
0.0
 10
67.6293949855
 20
-11.4767397208
 30
0.0
 10
67.6227184149
 20
-11.495003038
 30
0.0
 10
67.6179973204
 20
-11.5
 30
0.0
 10
67.6159885716
 20
-11.5
 30
0.0
  0
SPLINE
  5
379
100
AcDbEntity
  8
RACCORDO
100
AcDbSpline
 62
250
  6
CONTINUOUS
 70
0
 71
3
 72
18
 73
14
 74
0
 42
0.0000001
 43
0.0000001
 44
0.0000000001
 40
0.0
 40
0.0
 40
0.0
 40
0.0
 40
0.1992825005
 40
0.389045263
 40
0.5618022998
 40
0.7118686746
 40
0.834260978
 40
0.8838236125
 40
0.9250157438
 40
0.9574292876
 40
0.9808458374
 40
0.9950904062
 40
1.0
 40
1.0
 40
1.0
 40
1.0
 10
-48.4761308412
 20
39.8772865459
 30
0.0
 10
-48.483661709
 20
39.91879773
 30
0.0
 10
-48.4984819738
 20
39.9998162911
 30
0.0
 10
-48.5202743981
 20
40.1167360224
 30
0.0
 10
-48.5406022449
 20
40.2233393218
 30
0.0
 10
-48.5586795442
 20
40.3158204095
 30
0.0
 10
-48.5719841663
 20
40.3827385901
 30
0.0
 10
-48.5813119487
 20
40.4268017888
 30
0.0
 10
-48.5868495098
 20
40.4524696133
 30
0.0
 10
-48.5919561525
 20
40.4718850294
 30
0.0
 10
-48.5951388404
 20
40.487485965
 30
0.0
 10
-48.5988222374
 20
40.4938751774
 30
0.0
 10
-48.5989648391
 20
40.5000932735
 30
0.0
 10
-48.6000000227
 20
40.499999998
 30
0.0
  0
SPLINE
  5
37A
100
AcDbEntity
  8
RACCORDO
100
AcDbSpline
 62
250
  6
CONTINUOUS
 70
0
 71
3
 72
9
 73
5
 74
0
 42
0.0000001
 43
0.0000001
 44
0.0000000001
 40
0.0
 40
0.0
 40
0.0
 40
0.0
 40
0.5000006135
 40
1.0
 40
1.0
 40
1.0
 40
1.0
 10
-48.4761308412
 20
39.8772865459
 30
0.0
 10
-48.4956004599
 20
39.8684050717
 30
0.0
 10
-48.5355007761
 20
39.8521649805
 30
0.0
 10
-48.5786003998
 20
39.8468689562
 30
0.0
 10
-48.6
 20
39.8469076856
 30
0.0
  0
SPLINE
  5
37B
100
AcDbEntity
  8
RACCORDO
100
AcDbSpline
 62
250
  6
CONTINUOUS
 70
0
 71
3
 72
13
 73
9
 74
0
 42
0.0000001
 43
0.0000001
 44
0.0000000001
 40
0.0
 40
0.0
 40
0.0
 40
0.0
 40
0.0824844474
 40
0.3037633249
 40
0.6270725616
 40
0.8106645803
 40
0.9050574374
 40
1.0
 40
1.0
 40
1.0
 40
1.0
 10
-47.9810015616
 20
40.8730280729
 30
0.0
 10
-47.9861279606
 20
40.8420623872
 30
0.0
 10
-48.0110288438
 20
40.7291097113
 30
0.0
 10
-48.068976261
 20
40.4976120736
 30
0.0
 10
-48.1672435764
 20
40.2369236072
 30
0.0
 10
-48.2874068657
 20
40.0400677514
 30
0.0
 10
-48.3845166045
 20
39.9361333638
 30
0.0
 10
-48.4435157865
 20
39.892825923
 30
0.0
 10
-48.4761308412
 20
39.8772865459
 30
0.0
  0
SPLINE
  5
37C
100
AcDbEntity
  8
RACCORDO
100
AcDbSpline
 62
250
  6
CONTINUOUS
 70
0
 71
3
 72
18
 73
14
 74
0
 42
0.0000001
 43
0.0000001
 44
0.0000000001
 40
0.0
 40
0.0
 40
0.0
 40
0.0
 40
0.1957429458
 40
0.3839588212
 40
0.5572735491
 40
0.7090199767
 40
0.8333010552
 40
0.8835936916
 40
0.9252961507
 40
0.9580212149
 40
0.981497247
 40
0.9954942728
 40
1.0
 40
1.0
 40
1.0
 40
1.0
 10
-48.9
 20
40.9667094077
 30
0.0
 10
-48.8377223107
 20
40.9667431677
 30
0.0
 10
-48.7155603969
 20
40.9664959683
 30
0.0
 10
-48.538265024
 20
40.9655756511
 30
0.0
 10
-48.374950542
 20
40.9640906366
 30
0.0
 10
-48.2320499834
 20
40.962080568
 30
0.0
 10
-48.1281283952
 20
40.9599803961
 30
0.0
 10
-48.0595352825
 20
40.9579784239
 30
0.0
 10
-48.0194716632
 20
40.9565741706
 30
0.0
 10
-47.9894244784
 20
40.9549733657
 30
0.0
 10
-47.9647107611
 20
40.9537587126
 30
0.0
 10
-47.9556422568
 20
40.9519586795
 30
0.0
 10
-47.9455638904
 20
40.9512637248
 30
0.0
 10
-47.9461426692
 20
40.9499522117
 30
0.0
  0
SPLINE
  5
37D
100
AcDbEntity
  8
RACCORDO
100
AcDbSpline
 62
250
  6
CONTINUOUS
 70
0
 71
3
 72
18
 73
14
 74
0
 42
0.0000001
 43
0.0000001
 44
0.0000000001
 40
0.0
 40
0.0
 40
0.0
 40
0.0
 40
0.0045059421
 40
0.0185028976
 40
0.0419788597
 40
0.074703935
 40
0.116406438
 40
0.1666991935
 40
0.2909804118
 40
0.4427268338
 40
0.6160414602
 40
0.8042570866
 40
1.0
 40
1.0
 40
1.0
 40
1.0
 10
-55.0538573308
 20
40.9499522117
 30
0.0
 10
-55.0544358487
 20
40.9512639145
 30
0.0
 10
-55.0443579178
 20
40.9519581366
 30
0.0
 10
-55.0352888297
 20
40.9537590308
 30
0.0
 10
-55.0105754891
 20
40.954973264
 30
0.0
 10
-54.9805281658
 20
40.9565742324
 30
0.0
 10
-54.9404645467
 20
40.9579784024
 30
0.0
 10
-54.871871316
 20
40.9599804181
 30
0.0
 10
-54.7679496675
 20
40.962080566
 30
0.0
 10
-54.6250490983
 20
40.9640906489
 30
0.0
 10
-54.4617347388
 20
40.9655756478
 30
0.0
 10
-54.2844394951
 20
40.9664959294
 30
0.0
 10
-54.1622776761
 20
40.9667433348
 30
0.0
 10
-54.1
 20
40.9667094077
 30
0.0
  0
SPLINE
  5
37E
100
AcDbEntity
  8
RACCORDO
100
AcDbSpline
 62
250
  6
CONTINUOUS
 70
0
 71
3
 72
15
 73
11
 74
0
 42
0.0000001
 43
0.0000001
 44
0.0000000001
 40
0.0
 40
0.0
 40
0.0
 40
0.0
 40
0.390917634
 40
0.563177095
 40
0.7116922717
 40
0.8324340473
 40
0.9217043063
 40
0.9773106181
 40
0.9923848974
 40
1.0
 40
1.0
 40
1.0
 40
1.0
 10
-54.636771722
 20
39.9603710907
 30
0.0
 10
-54.6099908548
 20
40.0327228185
 30
0.0
 10
-54.5704048431
 20
40.136582727
 30
0.0
 10
-54.51778325
 20
40.2668394725
 30
0.0
 10
-54.4838268539
 20
40.3470289464
 30
0.0
 10
-54.4546209112
 20
40.4116616953
 30
0.0
 10
-54.4316365364
 20
40.4583678138
 30
0.0
 10
-54.4152043576
 20
40.4861880533
 30
0.0
 10
-54.4060267559
 20
40.4977962073
 30
0.0
 10
-54.4014142881
 20
40.5005083388
 30
0.0
 10
-54.4
 20
40.5
 30
0.0
  0
SPLINE
  5
37F
100
AcDbEntity
  8
RACCORDO
100
AcDbSpline
 62
250
  6
CONTINUOUS
 70
0
 71
3
 72
12
 73
8
 74
0
 42
0.0000001
 43
0.0000001
 44
0.0000000001
 40
0.0
 40
0.0
 40
0.0
 40
0.0
 40
0.1954132547
 40
0.3821004018
 40
0.7038514336
 40
0.9198359601
 40
1.0
 40
1.0
 40
1.0
 40
1.0
 10
-54.636771722
 20
39.9603710907
 30
0.0
 10
-54.683831122
 20
40.0055302416
 30
0.0
 10
-54.7588620017
 20
40.1108035414
 30
0.0
 10
-54.8666959092
 20
40.3195604344
 30
0.0
 10
-54.9452178692
 20
40.5495925768
 30
0.0
 10
-54.993545023
 20
40.7499962569
 30
0.0
 10
-55.0146191397
 20
40.8466329058
 30
0.0
 10
-55.0189984384
 20
40.8730280729
 30
0.0
  0
SPLINE
  5
380
100
AcDbEntity
  8
RACCORDO
100
AcDbSpline
 62
250
  6
CONTINUOUS
 70
0
 71
3
 72
10
 73
6
 74
0
 42
0.0000001
 43
0.0000001
 44
0.0000000001
 40
0.0
 40
0.0
 40
0.0
 40
0.0
 40
0.4980360693
 40
0.7508005931
 40
1.0
 40
1.0
 40
1.0
 40
1.0
 10
-54.4
 20
39.8469076856
 30
0.0
 10
-54.444597964
 20
39.8471137939
 30
0.0
 10
-54.5117823567
 20
39.8673264625
 30
0.0
 10
-54.588989061
 20
39.9121955067
 30
0.0
 10
-54.6235074717
 20
39.9424256318
 30
0.0
 10
-54.636771722
 20
39.9603710907
 30
0.0
  0
SPLINE
  5
381
100
AcDbEntity
  8
RACCORDO
100
AcDbSpline
 62
250
  6
CONTINUOUS
 70
0
 71
3
 72
18
 73
14
 74
0
 42
0.0000001
 43
0.0000001
 44
0.0000000001
 40
0.0
 40
0.0
 40
0.0
 40
0.0
 40
0.1992825005
 40
0.389045263
 40
0.5618022998
 40
0.7118686746
 40
0.834260978
 40
0.8838236125
 40
0.9250157438
 40
0.9574292876
 40
0.9808458374
 40
0.9950904062
 40
1.0
 40
1.0
 40
1.0
 40
1.0
 10
66.3772865459
 20
23.4761308412
 30
0.0
 10
66.41879773
 20
23.483661709
 30
0.0
 10
66.4998162911
 20
23.4984819738
 30
0.0
 10
66.6167360224
 20
23.5202743981
 30
0.0
 10
66.7233393218
 20
23.5406022449
 30
0.0
 10
66.8158204095
 20
23.5586795442
 30
0.0
 10
66.8827385901
 20
23.5719841663
 30
0.0
 10
66.9268017888
 20
23.5813119487
 30
0.0
 10
66.9524696133
 20
23.5868495098
 30
0.0
 10
66.9718850294
 20
23.5919561525
 30
0.0
 10
66.987485965
 20
23.5951388404
 30
0.0
 10
66.9938751774
 20
23.5988222374
 30
0.0
 10
67.0000932735
 20
23.5989648391
 30
0.0
 10
66.999999998
 20
23.6000000227
 30
0.0
  0
SPLINE
  5
382
100
AcDbEntity
  8
RACCORDO
100
AcDbSpline
 62
250
  6
CONTINUOUS
 70
0
 71
3
 72
9
 73
5
 74
0
 42
0.0000001
 43
0.0000001
 44
0.0000000001
 40
0.0
 40
0.0
 40
0.0
 40
0.0
 40
0.5000006135
 40
1.0
 40
1.0
 40
1.0
 40
1.0
 10
66.3772865459
 20
23.4761308412
 30
0.0
 10
66.3684050717
 20
23.4956004599
 30
0.0
 10
66.3521649805
 20
23.5355007761
 30
0.0
 10
66.3468689562
 20
23.5786003998
 30
0.0
 10
66.3469076856
 20
23.6
 30
0.0
  0
SPLINE
  5
383
100
AcDbEntity
  8
RACCORDO
100
AcDbSpline
 62
250
  6
CONTINUOUS
 70
0
 71
3
 72
13
 73
9
 74
0
 42
0.0000001
 43
0.0000001
 44
0.0000000001
 40
0.0
 40
0.0
 40
0.0
 40
0.0
 40
0.0824844474
 40
0.3037633249
 40
0.6270725616
 40
0.8106645803
 40
0.9050574374
 40
1.0
 40
1.0
 40
1.0
 40
1.0
 10
67.3730280729
 20
22.9810015616
 30
0.0
 10
67.3420623872
 20
22.9861279606
 30
0.0
 10
67.2291097113
 20
23.0110288438
 30
0.0
 10
66.9976120736
 20
23.068976261
 30
0.0
 10
66.7369236072
 20
23.1672435764
 30
0.0
 10
66.5400677514
 20
23.2874068657
 30
0.0
 10
66.4361333638
 20
23.3845166045
 30
0.0
 10
66.392825923
 20
23.4435157865
 30
0.0
 10
66.3772865459
 20
23.4761308412
 30
0.0
  0
SPLINE
  5
384
100
AcDbEntity
  8
ASSI
100
AcDbSpline
 62
7
  6
CONTINUOUS
 70
0
 71
3
 72
26
 73
22
 74
0
 42
0.0000001
 43
0.0000001
 44
0.0000000001
 40
0.0
 40
0.0
 40
0.0
 40
0.0
 40
0.000523643
 40
0.0015238631
 40
0.0052332555
 40
0.0112952781
 40
0.0197205646
 40
0.0305013057
 40
0.0436104285
 40
0.0590154477
 40
0.0766831196
 40
0.1186429959
 40
0.1690762096
 40
0.2275125985
 40
0.2933776147
 40
0.3660492139
 40
0.4448204217
 40
0.5289431422
 40
0.617589998
 40
0.8050502696
 40
1.0
 40
1.0
 40
1.0
 40
1.0
 10
67.6159885716
 20
11.5
 30
0.0
 10
67.6179973204
 20
11.5
 30
0.0
 10
67.6227184149
 20
11.495003038
 30
0.0
 10
67.6293949855
 20
11.4767397208
 30
0.0
 10
67.6379592809
 20
11.4355135011
 30
0.0
 10
67.64689682
 20
11.3666700575
 30
0.0
 10
67.6563358261
 20
11.2700131863
 30
0.0
 10
67.6656775422
 20
11.1464632475
 30
0.0
 10
67.6750236867
 20
10.9959867915
 30
0.0
 10
67.6842579897
 20
10.8190754305
 30
0.0
 10
67.6971447463
 20
10.5315259896
 30
0.0
 10
67.7122962257
 20
10.1095883425
 30
0.0
 10
67.7288575149
 20
9.5312242756
 30
0.0
 10
67.7444106093
 20
8.8611021948
 30
0.0
 10
67.7588106871
 20
8.1056288841
 30
0.0
 10
67.7718779452
 20
7.2721146931
 30
0.0
 10
67.7834901319
 20
6.3685345397
 30
0.0
 10
67.7935152867
 20
5.4036492665
 30
0.0
 10
67.8048544207
 20
4.0218159066
 30
0.0
 10
67.8142143642
 20
2.2148127993
 30
0.0
 10
67.8166912456
 20
0.7478473392
 30
0.0
 10
67.8166912456
 20
-0.0
 30
0.0
  0
SPLINE
  5
385
100
AcDbEntity
  8
RACCORDO
100
AcDbSpline
 62
250
  6
CONTINUOUS
 70
0
 71
3
 72
18
 73
14
 74
0
 42
0.0000001
 43
0.0000001
 44
0.0000000001
 40
0.0
 40
0.0
 40
0.0
 40
0.0
 40
0.1957429458
 40
0.3839588212
 40
0.5572735491
 40
0.7090199767
 40
0.8333010552
 40
0.8835936916
 40
0.9252961507
 40
0.9580212149
 40
0.981497247
 40
0.9954942728
 40
1.0
 40
1.0
 40
1.0
 40
1.0
 10
67.4667094077
 20
23.9
 30
0.0
 10
67.4667431677
 20
23.8377223107
 30
0.0
 10
67.4664959683
 20
23.7155603969
 30
0.0
 10
67.4655756511
 20
23.538265024
 30
0.0
 10
67.4640906366
 20
23.374950542
 30
0.0
 10
67.462080568
 20
23.2320499834
 30
0.0
 10
67.4599803961
 20
23.1281283952
 30
0.0
 10
67.4579784239
 20
23.0595352825
 30
0.0
 10
67.4565741706
 20
23.0194716632
 30
0.0
 10
67.4549733657
 20
22.9894244784
 30
0.0
 10
67.4537587126
 20
22.9647107611
 30
0.0
 10
67.4519586795
 20
22.9556422568
 30
0.0
 10
67.4512637248
 20
22.9455638904
 30
0.0
 10
67.4499522117
 20
22.9461426692
 30
0.0
  0
SPLINE
  5
386
100
AcDbEntity
  8
RACCORDO
100
AcDbSpline
 62
250
  6
CONTINUOUS
 70
0
 71
3
 72
18
 73
14
 74
0
 42
0.0000001
 43
0.0000001
 44
0.0000000001
 40
0.0
 40
0.0
 40
0.0
 40
0.0
 40
0.0045059421
 40
0.0185028976
 40
0.0419788597
 40
0.074703935
 40
0.116406438
 40
0.1666991935
 40
0.2909804118
 40
0.4427268338
 40
0.6160414602
 40
0.8042570866
 40
1.0
 40
1.0
 40
1.0
 40
1.0
 10
67.4499522117
 20
30.0538573308
 30
0.0
 10
67.4512639145
 20
30.0544358487
 30
0.0
 10
67.4519581366
 20
30.0443579178
 30
0.0
 10
67.4537590308
 20
30.0352888297
 30
0.0
 10
67.454973264
 20
30.0105754891
 30
0.0
 10
67.4565742324
 20
29.9805281658
 30
0.0
 10
67.4579784024
 20
29.9404645467
 30
0.0
 10
67.4599804181
 20
29.871871316
 30
0.0
 10
67.462080566
 20
29.7679496675
 30
0.0
 10
67.4640906489
 20
29.6250490983
 30
0.0
 10
67.4655756478
 20
29.4617347388
 30
0.0
 10
67.4664959294
 20
29.2844394951
 30
0.0
 10
67.4667433348
 20
29.1622776761
 30
0.0
 10
67.4667094077
 20
29.1
 30
0.0
  0
SPLINE
  5
387
100
AcDbEntity
  8
RACCORDO
100
AcDbSpline
 62
250
  6
CONTINUOUS
 70
0
 71
3
 72
15
 73
11
 74
0
 42
0.0000001
 43
0.0000001
 44
0.0000000001
 40
0.0
 40
0.0
 40
0.0
 40
0.0
 40
0.390917634
 40
0.563177095
 40
0.7116922717
 40
0.8324340473
 40
0.9217043063
 40
0.9773106181
 40
0.9923848974
 40
1.0
 40
1.0
 40
1.0
 40
1.0
 10
66.4603710907
 20
29.636771722
 30
0.0
 10
66.5327228185
 20
29.6099908548
 30
0.0
 10
66.636582727
 20
29.5704048431
 30
0.0
 10
66.7668394725
 20
29.51778325
 30
0.0
 10
66.8470289464
 20
29.4838268539
 30
0.0
 10
66.9116616953
 20
29.4546209112
 30
0.0
 10
66.9583678138
 20
29.4316365364
 30
0.0
 10
66.9861880533
 20
29.4152043576
 30
0.0
 10
66.9977962073
 20
29.4060267559
 30
0.0
 10
67.0005083388
 20
29.4014142881
 30
0.0
 10
67.0
 20
29.4
 30
0.0
  0
SPLINE
  5
388
100
AcDbEntity
  8
RACCORDO
100
AcDbSpline
 62
250
  6
CONTINUOUS
 70
0
 71
3
 72
12
 73
8
 74
0
 42
0.0000001
 43
0.0000001
 44
0.0000000001
 40
0.0
 40
0.0
 40
0.0
 40
0.0
 40
0.1954132547
 40
0.3821004018
 40
0.7038514336
 40
0.9198359601
 40
1.0
 40
1.0
 40
1.0
 40
1.0
 10
66.4603710907
 20
29.636771722
 30
0.0
 10
66.5055302416
 20
29.683831122
 30
0.0
 10
66.6108035414
 20
29.7588620017
 30
0.0
 10
66.8195604344
 20
29.8666959092
 30
0.0
 10
67.0495925768
 20
29.9452178692
 30
0.0
 10
67.2499962569
 20
29.993545023
 30
0.0
 10
67.3466329058
 20
30.0146191397
 30
0.0
 10
67.3730280729
 20
30.0189984384
 30
0.0
  0
SPLINE
  5
389
100
AcDbEntity
  8
RACCORDO
100
AcDbSpline
 62
250
  6
CONTINUOUS
 70
0
 71
3
 72
10
 73
6
 74
0
 42
0.0000001
 43
0.0000001
 44
0.0000000001
 40
0.0
 40
0.0
 40
0.0
 40
0.0
 40
0.4980360693
 40
0.7508005931
 40
1.0
 40
1.0
 40
1.0
 40
1.0
 10
66.3469076856
 20
29.4
 30
0.0
 10
66.3471137939
 20
29.444597964
 30
0.0
 10
66.3673264625
 20
29.5117823567
 30
0.0
 10
66.4121955067
 20
29.588989061
 30
0.0
 10
66.4424256318
 20
29.6235074717
 30
0.0
 10
66.4603710907
 20
29.636771722
 30
0.0
  0
SPLINE
  5
38A
100
AcDbEntity
  8
RACCORDO
100
AcDbSpline
 62
250
  6
CONTINUOUS
 70
0
 71
3
 72
18
 73
14
 74
0
 42
0.0000001
 43
0.0000001
 44
0.0000000001
 40
0.0
 40
0.0
 40
0.0
 40
0.0
 40
0.1992825005
 40
0.389045263
 40
0.5618022998
 40
0.7118686746
 40
0.834260978
 40
0.8838236125
 40
0.9250157438
 40
0.9574292876
 40
0.9808458374
 40
0.9950904062
 40
1.0
 40
1.0
 40
1.0
 40
1.0
 10
48.4761308412
 20
-39.8772865459
 30
0.0
 10
48.483661709
 20
-39.91879773
 30
0.0
 10
48.4984819738
 20
-39.9998162911
 30
0.0
 10
48.5202743981
 20
-40.1167360224
 30
0.0
 10
48.5406022449
 20
-40.2233393218
 30
0.0
 10
48.5586795442
 20
-40.3158204095
 30
0.0
 10
48.5719841663
 20
-40.3827385901
 30
0.0
 10
48.5813119487
 20
-40.4268017888
 30
0.0
 10
48.5868495098
 20
-40.4524696133
 30
0.0
 10
48.5919561525
 20
-40.4718850294
 30
0.0
 10
48.5951388404
 20
-40.487485965
 30
0.0
 10
48.5988222374
 20
-40.4938751774
 30
0.0
 10
48.5989648391
 20
-40.5000932735
 30
0.0
 10
48.6000000227
 20
-40.499999998
 30
0.0
  0
SPLINE
  5
38B
100
AcDbEntity
  8
RACCORDO
100
AcDbSpline
 62
250
  6
CONTINUOUS
 70
0
 71
3
 72
9
 73
5
 74
0
 42
0.0000001
 43
0.0000001
 44
0.0000000001
 40
0.0
 40
0.0
 40
0.0
 40
0.0
 40
0.5000006135
 40
1.0
 40
1.0
 40
1.0
 40
1.0
 10
48.4761308412
 20
-39.8772865459
 30
0.0
 10
48.4956004599
 20
-39.8684050717
 30
0.0
 10
48.5355007761
 20
-39.8521649805
 30
0.0
 10
48.5786003998
 20
-39.8468689562
 30
0.0
 10
48.6
 20
-39.8469076856
 30
0.0
  0
SPLINE
  5
38C
100
AcDbEntity
  8
RACCORDO
100
AcDbSpline
 62
250
  6
CONTINUOUS
 70
0
 71
3
 72
13
 73
9
 74
0
 42
0.0000001
 43
0.0000001
 44
0.0000000001
 40
0.0
 40
0.0
 40
0.0
 40
0.0
 40
0.0824844474
 40
0.3037633249
 40
0.6270725616
 40
0.8106645803
 40
0.9050574374
 40
1.0
 40
1.0
 40
1.0
 40
1.0
 10
47.9810015616
 20
-40.8730280729
 30
0.0
 10
47.9861279606
 20
-40.8420623872
 30
0.0
 10
48.0110288438
 20
-40.7291097113
 30
0.0
 10
48.068976261
 20
-40.4976120736
 30
0.0
 10
48.1672435764
 20
-40.2369236072
 30
0.0
 10
48.2874068657
 20
-40.0400677514
 30
0.0
 10
48.3845166045
 20
-39.9361333638
 30
0.0
 10
48.4435157865
 20
-39.892825923
 30
0.0
 10
48.4761308412
 20
-39.8772865459
 30
0.0
  0
SPLINE
  5
38D
100
AcDbEntity
  8
RACCORDO
100
AcDbSpline
 62
250
  6
CONTINUOUS
 70
0
 71
3
 72
18
 73
14
 74
0
 42
0.0000001
 43
0.0000001
 44
0.0000000001
 40
0.0
 40
0.0
 40
0.0
 40
0.0
 40
0.1957429458
 40
0.3839588212
 40
0.5572735491
 40
0.7090199767
 40
0.8333010552
 40
0.8835936916
 40
0.9252961507
 40
0.9580212149
 40
0.981497247
 40
0.9954942728
 40
1.0
 40
1.0
 40
1.0
 40
1.0
 10
48.9
 20
-40.9667094077
 30
0.0
 10
48.8377223107
 20
-40.9667431677
 30
0.0
 10
48.7155603969
 20
-40.9664959683
 30
0.0
 10
48.538265024
 20
-40.9655756511
 30
0.0
 10
48.374950542
 20
-40.9640906366
 30
0.0
 10
48.2320499834
 20
-40.962080568
 30
0.0
 10
48.1281283952
 20
-40.9599803961
 30
0.0
 10
48.0595352825
 20
-40.9579784239
 30
0.0
 10
48.0194716632
 20
-40.9565741706
 30
0.0
 10
47.9894244784
 20
-40.9549733657
 30
0.0
 10
47.9647107611
 20
-40.9537587126
 30
0.0
 10
47.9556422568
 20
-40.9519586795
 30
0.0
 10
47.9455638904
 20
-40.9512637248
 30
0.0
 10
47.9461426692
 20
-40.9499522117
 30
0.0
  0
SPLINE
  5
38E
100
AcDbEntity
  8
RACCORDO
100
AcDbSpline
 62
250
  6
CONTINUOUS
 70
0
 71
3
 72
18
 73
14
 74
0
 42
0.0000001
 43
0.0000001
 44
0.0000000001
 40
0.0
 40
0.0
 40
0.0
 40
0.0
 40
0.0045059421
 40
0.0185028976
 40
0.0419788597
 40
0.074703935
 40
0.116406438
 40
0.1666991935
 40
0.2909804118
 40
0.4427268338
 40
0.6160414602
 40
0.8042570866
 40
1.0
 40
1.0
 40
1.0
 40
1.0
 10
55.0538573308
 20
-40.9499522117
 30
0.0
 10
55.0544358487
 20
-40.9512639145
 30
0.0
 10
55.0443579178
 20
-40.9519581366
 30
0.0
 10
55.0352888297
 20
-40.9537590308
 30
0.0
 10
55.0105754891
 20
-40.954973264
 30
0.0
 10
54.9805281658
 20
-40.9565742324
 30
0.0
 10
54.9404645467
 20
-40.9579784024
 30
0.0
 10
54.871871316
 20
-40.9599804181
 30
0.0
 10
54.7679496675
 20
-40.962080566
 30
0.0
 10
54.6250490983
 20
-40.9640906489
 30
0.0
 10
54.4617347388
 20
-40.9655756478
 30
0.0
 10
54.2844394951
 20
-40.9664959294
 30
0.0
 10
54.1622776761
 20
-40.9667433348
 30
0.0
 10
54.1
 20
-40.9667094077
 30
0.0
  0
SPLINE
  5
38F
100
AcDbEntity
  8
RACCORDO
100
AcDbSpline
 62
250
  6
CONTINUOUS
 70
0
 71
3
 72
15
 73
11
 74
0
 42
0.0000001
 43
0.0000001
 44
0.0000000001
 40
0.0
 40
0.0
 40
0.0
 40
0.0
 40
0.390917634
 40
0.563177095
 40
0.7116922717
 40
0.8324340473
 40
0.9217043063
 40
0.9773106181
 40
0.9923848974
 40
1.0
 40
1.0
 40
1.0
 40
1.0
 10
54.636771722
 20
-39.9603710907
 30
0.0
 10
54.6099908548
 20
-40.0327228185
 30
0.0
 10
54.5704048431
 20
-40.136582727
 30
0.0
 10
54.51778325
 20
-40.2668394725
 30
0.0
 10
54.4838268539
 20
-40.3470289464
 30
0.0
 10
54.4546209112
 20
-40.4116616953
 30
0.0
 10
54.4316365364
 20
-40.4583678138
 30
0.0
 10
54.4152043576
 20
-40.4861880533
 30
0.0
 10
54.4060267559
 20
-40.4977962073
 30
0.0
 10
54.4014142881
 20
-40.5005083388
 30
0.0
 10
54.4
 20
-40.5
 30
0.0
  0
SPLINE
  5
390
100
AcDbEntity
  8
RACCORDO
100
AcDbSpline
 62
250
  6
CONTINUOUS
 70
0
 71
3
 72
12
 73
8
 74
0
 42
0.0000001
 43
0.0000001
 44
0.0000000001
 40
0.0
 40
0.0
 40
0.0
 40
0.0
 40
0.1954132547
 40
0.3821004018
 40
0.7038514336
 40
0.9198359601
 40
1.0
 40
1.0
 40
1.0
 40
1.0
 10
54.636771722
 20
-39.9603710907
 30
0.0
 10
54.683831122
 20
-40.0055302416
 30
0.0
 10
54.7588620017
 20
-40.1108035414
 30
0.0
 10
54.8666959092
 20
-40.3195604344
 30
0.0
 10
54.9452178692
 20
-40.5495925768
 30
0.0
 10
54.993545023
 20
-40.7499962569
 30
0.0
 10
55.0146191397
 20
-40.8466329058
 30
0.0
 10
55.0189984384
 20
-40.8730280729
 30
0.0
  0
SPLINE
  5
391
100
AcDbEntity
  8
RACCORDO
100
AcDbSpline
 62
250
  6
CONTINUOUS
 70
0
 71
3
 72
10
 73
6
 74
0
 42
0.0000001
 43
0.0000001
 44
0.0000000001
 40
0.0
 40
0.0
 40
0.0
 40
0.0
 40
0.4980360693
 40
0.7508005931
 40
1.0
 40
1.0
 40
1.0
 40
1.0
 10
54.4
 20
-39.8469076856
 30
0.0
 10
54.444597964
 20
-39.8471137939
 30
0.0
 10
54.5117823567
 20
-39.8673264625
 30
0.0
 10
54.588989061
 20
-39.9121955067
 30
0.0
 10
54.6235074717
 20
-39.9424256318
 30
0.0
 10
54.636771722
 20
-39.9603710907
 30
0.0
  0
SPLINE
  5
392
100
AcDbEntity
  8
RACCORDO
100
AcDbSpline
 62
250
  6
CONTINUOUS
 70
0
 71
3
 72
18
 73
14
 74
0
 42
0.0000001
 43
0.0000001
 44
0.0000000001
 40
0.0
 40
0.0
 40
0.0
 40
0.0
 40
0.1992825005
 40
0.389045263
 40
0.5618022998
 40
0.7118686746
 40
0.834260978
 40
0.8838236125
 40
0.9250157438
 40
0.9574292876
 40
0.9808458374
 40
0.9950904062
 40
1.0
 40
1.0
 40
1.0
 40
1.0
 10
-66.3772865459
 20
-23.4761308412
 30
0.0
 10
-66.41879773
 20
-23.483661709
 30
0.0
 10
-66.4998162911
 20
-23.4984819738
 30
0.0
 10
-66.6167360224
 20
-23.5202743981
 30
0.0
 10
-66.7233393218
 20
-23.5406022449
 30
0.0
 10
-66.8158204095
 20
-23.5586795442
 30
0.0
 10
-66.8827385901
 20
-23.5719841663
 30
0.0
 10
-66.9268017888
 20
-23.5813119487
 30
0.0
 10
-66.9524696133
 20
-23.5868495098
 30
0.0
 10
-66.9718850294
 20
-23.5919561525
 30
0.0
 10
-66.987485965
 20
-23.5951388404
 30
0.0
 10
-66.9938751774
 20
-23.5988222374
 30
0.0
 10
-67.0000932735
 20
-23.5989648391
 30
0.0
 10
-66.999999998
 20
-23.6000000227
 30
0.0
  0
SPLINE
  5
393
100
AcDbEntity
  8
RACCORDO
100
AcDbSpline
 62
250
  6
CONTINUOUS
 70
0
 71
3
 72
9
 73
5
 74
0
 42
0.0000001
 43
0.0000001
 44
0.0000000001
 40
0.0
 40
0.0
 40
0.0
 40
0.0
 40
0.5000006135
 40
1.0
 40
1.0
 40
1.0
 40
1.0
 10
-66.3772865459
 20
-23.4761308412
 30
0.0
 10
-66.3684050717
 20
-23.4956004599
 30
0.0
 10
-66.3521649805
 20
-23.5355007761
 30
0.0
 10
-66.3468689562
 20
-23.5786003998
 30
0.0
 10
-66.3469076856
 20
-23.6
 30
0.0
  0
SPLINE
  5
394
100
AcDbEntity
  8
RACCORDO
100
AcDbSpline
 62
250
  6
CONTINUOUS
 70
0
 71
3
 72
13
 73
9
 74
0
 42
0.0000001
 43
0.0000001
 44
0.0000000001
 40
0.0
 40
0.0
 40
0.0
 40
0.0
 40
0.0824844474
 40
0.3037633249
 40
0.6270725616
 40
0.8106645803
 40
0.9050574374
 40
1.0
 40
1.0
 40
1.0
 40
1.0
 10
-67.3730280729
 20
-22.9810015616
 30
0.0
 10
-67.3420623872
 20
-22.9861279606
 30
0.0
 10
-67.2291097113
 20
-23.0110288438
 30
0.0
 10
-66.9976120736
 20
-23.068976261
 30
0.0
 10
-66.7369236072
 20
-23.1672435764
 30
0.0
 10
-66.5400677514
 20
-23.2874068657
 30
0.0
 10
-66.4361333638
 20
-23.3845166045
 30
0.0
 10
-66.392825923
 20
-23.4435157865
 30
0.0
 10
-66.3772865459
 20
-23.4761308412
 30
0.0
  0
SPLINE
  5
395
100
AcDbEntity
  8
ASSI
100
AcDbSpline
 62
7
  6
CONTINUOUS
 70
0
 71
3
 72
26
 73
22
 74
0
 42
0.0000001
 43
0.0000001
 44
0.0000000001
 40
0.0
 40
0.0
 40
0.0
 40
0.0
 40
0.000523643
 40
0.0015238631
 40
0.0052332555
 40
0.0112952781
 40
0.0197205646
 40
0.0305013057
 40
0.0436104285
 40
0.0590154477
 40
0.0766831196
 40
0.1186429959
 40
0.1690762096
 40
0.2275125985
 40
0.2933776147
 40
0.3660492139
 40
0.4448204217
 40
0.5289431422
 40
0.617589998
 40
0.8050502696
 40
1.0
 40
1.0
 40
1.0
 40
1.0
 10
45.5
 20
-41.1159885716
 30
0.0
 10
45.5
 20
-41.1179973204
 30
0.0
 10
45.495003038
 20
-41.1227184149
 30
0.0
 10
45.4767397208
 20
-41.1293949855
 30
0.0
 10
45.4355135011
 20
-41.1379592809
 30
0.0
 10
45.3666700575
 20
-41.14689682
 30
0.0
 10
45.2700131863
 20
-41.1563358261
 30
0.0
 10
45.1464632475
 20
-41.1656775422
 30
0.0
 10
44.9959867915
 20
-41.1750236867
 30
0.0
 10
44.8190754306
 20
-41.1842579897
 30
0.0
 10
44.5315259896
 20
-41.1971447463
 30
0.0
 10
44.1095883425
 20
-41.2122962257
 30
0.0
 10
43.5312242756
 20
-41.2288575149
 30
0.0
 10
42.8611021948
 20
-41.2444106093
 30
0.0
 10
42.1056288841
 20
-41.2588106871
 30
0.0
 10
41.2721146931
 20
-41.2718779452
 30
0.0
 10
40.3685345397
 20
-41.2834901319
 30
0.0
 10
39.4036492665
 20
-41.2935152867
 30
0.0
 10
38.0218159066
 20
-41.3048544208
 30
0.0
 10
36.2148127993
 20
-41.3142143642
 30
0.0
 10
34.7478473392
 20
-41.3166912456
 30
0.0
 10
34.0
 20
-41.3166912456
 30
0.0
  0
SPLINE
  5
396
100
AcDbEntity
  8
RACCORDO
100
AcDbSpline
 62
250
  6
CONTINUOUS
 70
0
 71
3
 72
18
 73
14
 74
0
 42
0.0000001
 43
0.0000001
 44
0.0000000001
 40
0.0
 40
0.0
 40
0.0
 40
0.0
 40
0.1957429458
 40
0.3839588212
 40
0.5572735491
 40
0.7090199767
 40
0.8333010552
 40
0.8835936916
 40
0.9252961507
 40
0.9580212149
 40
0.981497247
 40
0.9954942728
 40
1.0
 40
1.0
 40
1.0
 40
1.0
 10
-67.4667094077
 20
-23.9
 30
0.0
 10
-67.4667431677
 20
-23.8377223107
 30
0.0
 10
-67.4664959683
 20
-23.7155603969
 30
0.0
 10
-67.4655756511
 20
-23.538265024
 30
0.0
 10
-67.4640906366
 20
-23.3749505421
 30
0.0
 10
-67.462080568
 20
-23.2320499834
 30
0.0
 10
-67.4599803961
 20
-23.1281283952
 30
0.0
 10
-67.4579784239
 20
-23.0595352825
 30
0.0
 10
-67.4565741706
 20
-23.0194716632
 30
0.0
 10
-67.4549733657
 20
-22.9894244784
 30
0.0
 10
-67.4537587126
 20
-22.9647107611
 30
0.0
 10
-67.4519586795
 20
-22.9556422568
 30
0.0
 10
-67.4512637248
 20
-22.9455638904
 30
0.0
 10
-67.4499522117
 20
-22.9461426692
 30
0.0
  0
SPLINE
  5
397
100
AcDbEntity
  8
RACCORDO
100
AcDbSpline
 62
250
  6
CONTINUOUS
 70
0
 71
3
 72
18
 73
14
 74
0
 42
0.0000001
 43
0.0000001
 44
0.0000000001
 40
0.0
 40
0.0
 40
0.0
 40
0.0
 40
0.0045059421
 40
0.0185028976
 40
0.0419788597
 40
0.074703935
 40
0.116406438
 40
0.1666991935
 40
0.2909804118
 40
0.4427268338
 40
0.6160414602
 40
0.8042570866
 40
1.0
 40
1.0
 40
1.0
 40
1.0
 10
-67.4499522117
 20
-30.0538573308
 30
0.0
 10
-67.4512639145
 20
-30.0544358487
 30
0.0
 10
-67.4519581366
 20
-30.0443579178
 30
0.0
 10
-67.4537590308
 20
-30.0352888297
 30
0.0
 10
-67.454973264
 20
-30.0105754891
 30
0.0
 10
-67.4565742324
 20
-29.9805281658
 30
0.0
 10
-67.4579784024
 20
-29.9404645467
 30
0.0
 10
-67.4599804181
 20
-29.871871316
 30
0.0
 10
-67.462080566
 20
-29.7679496675
 30
0.0
 10
-67.4640906489
 20
-29.6250490983
 30
0.0
 10
-67.4655756478
 20
-29.4617347388
 30
0.0
 10
-67.4664959294
 20
-29.2844394951
 30
0.0
 10
-67.4667433348
 20
-29.1622776762
 30
0.0
 10
-67.4667094077
 20
-29.1
 30
0.0
  0
SPLINE
  5
398
100
AcDbEntity
  8
RACCORDO
100
AcDbSpline
 62
250
  6
CONTINUOUS
 70
0
 71
3
 72
15
 73
11
 74
0
 42
0.0000001
 43
0.0000001
 44
0.0000000001
 40
0.0
 40
0.0
 40
0.0
 40
0.0
 40
0.390917634
 40
0.563177095
 40
0.7116922717
 40
0.8324340473
 40
0.9217043063
 40
0.9773106181
 40
0.9923848974
 40
1.0
 40
1.0
 40
1.0
 40
1.0
 10
-66.4603710907
 20
-29.636771722
 30
0.0
 10
-66.5327228185
 20
-29.6099908548
 30
0.0
 10
-66.636582727
 20
-29.5704048431
 30
0.0
 10
-66.7668394725
 20
-29.51778325
 30
0.0
 10
-66.8470289464
 20
-29.4838268539
 30
0.0
 10
-66.9116616953
 20
-29.4546209112
 30
0.0
 10
-66.9583678138
 20
-29.4316365364
 30
0.0
 10
-66.9861880533
 20
-29.4152043576
 30
0.0
 10
-66.9977962073
 20
-29.4060267559
 30
0.0
 10
-67.0005083388
 20
-29.4014142881
 30
0.0
 10
-67.0
 20
-29.4
 30
0.0
  0
SPLINE
  5
399
100
AcDbEntity
  8
RACCORDO
100
AcDbSpline
 62
250
  6
CONTINUOUS
 70
0
 71
3
 72
12
 73
8
 74
0
 42
0.0000001
 43
0.0000001
 44
0.0000000001
 40
0.0
 40
0.0
 40
0.0
 40
0.0
 40
0.1954132547
 40
0.3821004018
 40
0.7038514336
 40
0.9198359601
 40
1.0
 40
1.0
 40
1.0
 40
1.0
 10
-66.4603710907
 20
-29.636771722
 30
0.0
 10
-66.5055302416
 20
-29.683831122
 30
0.0
 10
-66.6108035414
 20
-29.7588620017
 30
0.0
 10
-66.8195604344
 20
-29.8666959092
 30
0.0
 10
-67.0495925768
 20
-29.9452178692
 30
0.0
 10
-67.2499962569
 20
-29.993545023
 30
0.0
 10
-67.3466329058
 20
-30.0146191397
 30
0.0
 10
-67.3730280729
 20
-30.0189984384
 30
0.0
  0
SPLINE
  5
39A
100
AcDbEntity
  8
RACCORDO
100
AcDbSpline
 62
250
  6
CONTINUOUS
 70
0
 71
3
 72
10
 73
6
 74
0
 42
0.0000001
 43
0.0000001
 44
0.0000000001
 40
0.0
 40
0.0
 40
0.0
 40
0.0
 40
0.4980360693
 40
0.7508005931
 40
1.0
 40
1.0
 40
1.0
 40
1.0
 10
-66.3469076856
 20
-29.4
 30
0.0
 10
-66.3471137939
 20
-29.444597964
 30
0.0
 10
-66.3673264625
 20
-29.5117823567
 30
0.0
 10
-66.4121955067
 20
-29.588989061
 30
0.0
 10
-66.4424256318
 20
-29.6235074717
 30
0.0
 10
-66.4603710907
 20
-29.636771722
 30
0.0
  0
SPLINE
  5
39B
100
AcDbEntity
  8
0
100
AcDbSpline
 62
7
  6
CONTINUOUS
 70
0
 71
3
 72
26
 73
22
 74
0
 42
0.0000001
 43
0.0000001
 44
0.0000000001
 40
0.0
 40
0.0
 40
0.0
 40
0.0
 40
0.000523643
 40
0.0015238631
 40
0.0052332555
 40
0.0112952781
 40
0.0197205646
 40
0.0305013057
 40
0.0436104285
 40
0.0590154477
 40
0.0766831196
 40
0.1186429959
 40
0.1690762096
 40
0.2275125985
 40
0.2933776147
 40
0.3660492139
 40
0.4448204217
 40
0.5289431422
 40
0.617589998
 40
0.8050502696
 40
1.0
 40
1.0
 40
1.0
 40
1.0
 10
-67.6159885716
 20
11.5
 30
0.0
 10
-67.6179973204
 20
11.5
 30
0.0
 10
-67.6227184149
 20
11.495003038
 30
0.0
 10
-67.6293949855
 20
11.4767397208
 30
0.0
 10
-67.6379592809
 20
11.4355135011
 30
0.0
 10
-67.64689682
 20
11.3666700575
 30
0.0
 10
-67.6563358261
 20
11.2700131863
 30
0.0
 10
-67.6656775422
 20
11.1464632475
 30
0.0
 10
-67.6750236867
 20
10.9959867915
 30
0.0
 10
-67.6842579897
 20
10.8190754305
 30
0.0
 10
-67.6971447463
 20
10.5315259896
 30
0.0
 10
-67.7122962257
 20
10.1095883425
 30
0.0
 10
-67.7288575149
 20
9.5312242756
 30
0.0
 10
-67.7444106093
 20
8.8611021948
 30
0.0
 10
-67.7588106871
 20
8.1056288841
 30
0.0
 10
-67.7718779452
 20
7.2721146931
 30
0.0
 10
-67.7834901319
 20
6.3685345397
 30
0.0
 10
-67.7935152867
 20
5.4036492665
 30
0.0
 10
-67.8048544207
 20
4.0218159066
 30
0.0
 10
-67.8142143642
 20
2.2148127993
 30
0.0
 10
-67.8166912456
 20
0.7478473392
 30
0.0
 10
-67.8166912456
 20
-0.0
 30
0.0
  0
SPLINE
  5
39C
100
AcDbEntity
  8
0
100
AcDbSpline
 62
7
  6
CONTINUOUS
 70
0
 71
3
 72
26
 73
22
 74
0
 42
0.0000001
 43
0.0000001
 44
0.0000000001
 40
0.0
 40
0.0
 40
0.0
 40
0.0
 40
0.000523643
 40
0.0015238631
 40
0.0052332555
 40
0.0112952781
 40
0.0197205646
 40
0.0305013057
 40
0.0436104285
 40
0.0590154477
 40
0.0766831196
 40
0.1186429959
 40
0.1690762096
 40
0.2275125985
 40
0.2933776147
 40
0.3660492139
 40
0.4448204217
 40
0.5289431422
 40
0.617589998
 40
0.8050502696
 40
1.0
 40
1.0
 40
1.0
 40
1.0
 10
45.5
 20
41.1159885716
 30
0.0
 10
45.5
 20
41.1179973204
 30
0.0
 10
45.495003038
 20
41.1227184149
 30
0.0
 10
45.4767397208
 20
41.1293949855
 30
0.0
 10
45.4355135011
 20
41.1379592809
 30
0.0
 10
45.3666700575
 20
41.14689682
 30
0.0
 10
45.2700131863
 20
41.1563358261
 30
0.0
 10
45.1464632475
 20
41.1656775422
 30
0.0
 10
44.9959867915
 20
41.1750236867
 30
0.0
 10
44.8190754306
 20
41.1842579897
 30
0.0
 10
44.5315259896
 20
41.1971447463
 30
0.0
 10
44.1095883425
 20
41.2122962257
 30
0.0
 10
43.5312242756
 20
41.2288575149
 30
0.0
 10
42.8611021948
 20
41.2444106093
 30
0.0
 10
42.1056288841
 20
41.2588106871
 30
0.0
 10
41.2721146931
 20
41.2718779452
 30
0.0
 10
40.3685345397
 20
41.2834901319
 30
0.0
 10
39.4036492665
 20
41.2935152867
 30
0.0
 10
38.0218159066
 20
41.3048544207
 30
0.0
 10
36.2148127993
 20
41.3142143642
 30
0.0
 10
34.7478473392
 20
41.3166912456
 30
0.0
 10
34.0
 20
41.3166912456
 30
0.0
  0
SPLINE
  5
39D
100
AcDbEntity
  8
ASSI
100
AcDbSpline
 62
7
  6
CONTINUOUS
 70
0
 71
3
 72
26
 73
22
 74
0
 42
0.0000001
 43
0.0000001
 44
0.0000000001
 40
0.0
 40
0.0
 40
0.0
 40
0.0
 40
0.000523643
 40
0.0015238631
 40
0.0052332555
 40
0.0112952781
 40
0.0197205646
 40
0.0305013057
 40
0.0436104285
 40
0.0590154477
 40
0.0766831196
 40
0.1186429959
 40
0.1690762096
 40
0.2275125985
 40
0.2933776147
 40
0.3660492139
 40
0.4448204217
 40
0.5289431422
 40
0.617589998
 40
0.8050502696
 40
1.0
 40
1.0
 40
1.0
 40
1.0
 10
11.5
 20
-41.1159885716
 30
0.0
 10
11.5
 20
-41.1179973204
 30
0.0
 10
11.495003038
 20
-41.1227184149
 30
0.0
 10
11.4767397208
 20
-41.1293949855
 30
0.0
 10
11.4355135011
 20
-41.1379592809
 30
0.0
 10
11.3666700575
 20
-41.14689682
 30
0.0
 10
11.2700131863
 20
-41.1563358261
 30
0.0
 10
11.1464632475
 20
-41.1656775422
 30
0.0
 10
10.9959867915
 20
-41.1750236867
 30
0.0
 10
10.8190754306
 20
-41.1842579897
 30
0.0
 10
10.5315259896
 20
-41.1971447463
 30
0.0
 10
10.1095883425
 20
-41.2122962257
 30
0.0
 10
9.5312242756
 20
-41.2288575149
 30
0.0
 10
8.8611021948
 20
-41.2444106093
 30
0.0
 10
8.1056288841
 20
-41.2588106871
 30
0.0
 10
7.2721146931
 20
-41.2718779452
 30
0.0
 10
6.3685345397
 20
-41.2834901319
 30
0.0
 10
5.4036492665
 20
-41.2935152867
 30
0.0
 10
4.0218159066
 20
-41.3048544208
 30
0.0
 10
2.2148127993
 20
-41.3142143642
 30
0.0
 10
0.7478473392
 20
-41.3166912456
 30
0.0
 10
-0.0
 20
-41.3166912456
 30
0.0
  0
SPLINE
  5
39E
100
AcDbEntity
  8
ASSI
100
AcDbSpline
 62
7
  6
CONTINUOUS
 70
0
 71
3
 72
26
 73
22
 74
0
 42
0.0000001
 43
0.0000001
 44
0.0000000001
 40
0.0
 40
0.0
 40
0.0
 40
0.0
 40
0.000523643
 40
0.0015238631
 40
0.0052332555
 40
0.0112952781
 40
0.0197205646
 40
0.0305013057
 40
0.0436104285
 40
0.0590154477
 40
0.0766831196
 40
0.1186429959
 40
0.1690762096
 40
0.2275125985
 40
0.2933776147
 40
0.3660492139
 40
0.4448204217
 40
0.5289431422
 40
0.617589998
 40
0.8050502696
 40
1.0
 40
1.0
 40
1.0
 40
1.0
 10
-22.5
 20
-41.1159885716
 30
0.0
 10
-22.5
 20
-41.1179973204
 30
0.0
 10
-22.504996962
 20
-41.1227184149
 30
0.0
 10
-22.5232602792
 20
-41.1293949855
 30
0.0
 10
-22.5644864989
 20
-41.1379592809
 30
0.0
 10
-22.6333299425
 20
-41.14689682
 30
0.0
 10
-22.7299868137
 20
-41.1563358261
 30
0.0
 10
-22.8535367525
 20
-41.1656775422
 30
0.0
 10
-23.0040132085
 20
-41.1750236867
 30
0.0
 10
-23.1809245694
 20
-41.1842579897
 30
0.0
 10
-23.4684740104
 20
-41.1971447463
 30
0.0
 10
-23.8904116575
 20
-41.2122962257
 30
0.0
 10
-24.4687757244
 20
-41.2288575149
 30
0.0
 10
-25.1388978052
 20
-41.2444106093
 30
0.0
 10
-25.8943711159
 20
-41.2588106871
 30
0.0
 10
-26.7278853069
 20
-41.2718779452
 30
0.0
 10
-27.6314654603
 20
-41.2834901319
 30
0.0
 10
-28.5963507335
 20
-41.2935152867
 30
0.0
 10
-29.9781840934
 20
-41.3048544208
 30
0.0
 10
-31.7851872007
 20
-41.3142143642
 30
0.0
 10
-33.2521526608
 20
-41.3166912456
 30
0.0
 10
-34.0
 20
-41.3166912456
 30
0.0
  0
SPLINE
  5
39F
100
AcDbEntity
  8
ASSI
100
AcDbSpline
 62
7
  6
CONTINUOUS
 70
0
 71
3
 72
26
 73
22
 74
0
 42
0.0000001
 43
0.0000001
 44
0.0000000001
 40
0.0
 40
0.0
 40
0.0
 40
0.0
 40
0.1949497304
 40
0.382410002
 40
0.4710568578
 40
0.5551795783
 40
0.6339507861
 40
0.7066223853
 40
0.7724874015
 40
0.8309237904
 40
0.8813570041
 40
0.9233168804
 40
0.9409845523
 40
0.9563895715
 40
0.9694986943
 40
0.9802794354
 40
0.9887047219
 40
0.9947667445
 40
0.9984761369
 40
0.999476357
 40
1.0
 40
1.0
 40
1.0
 40
1.0
 10
-0.0
 20
-41.3166912456
 30
0.0
 10
-0.7478473392
 20
-41.3166912456
 30
0.0
 10
-2.2148127993
 20
-41.3142143642
 30
0.0
 10
-4.0218159066
 20
-41.3048544208
 30
0.0
 10
-5.4036492665
 20
-41.2935152867
 30
0.0
 10
-6.3685345397
 20
-41.2834901319
 30
0.0
 10
-7.2721146931
 20
-41.2718779452
 30
0.0
 10
-8.1056288841
 20
-41.2588106871
 30
0.0
 10
-8.8611021948
 20
-41.2444106093
 30
0.0
 10
-9.5312242756
 20
-41.2288575149
 30
0.0
 10
-10.1095883425
 20
-41.2122962257
 30
0.0
 10
-10.5315259896
 20
-41.1971447463
 30
0.0
 10
-10.8190754306
 20
-41.1842579897
 30
0.0
 10
-10.9959867915
 20
-41.1750236867
 30
0.0
 10
-11.1464632475
 20
-41.1656775422
 30
0.0
 10
-11.2700131863
 20
-41.1563358261
 30
0.0
 10
-11.3666700575
 20
-41.14689682
 30
0.0
 10
-11.4355135011
 20
-41.1379592809
 30
0.0
 10
-11.4767397208
 20
-41.1293949855
 30
0.0
 10
-11.495003038
 20
-41.1227184149
 30
0.0
 10
-11.5
 20
-41.1179973204
 30
0.0
 10
-11.5
 20
-41.1159885716
 30
0.0
  0
SPLINE
  5
3A0
100
AcDbEntity
  8
ASSI
100
AcDbSpline
 62
7
  6
CONTINUOUS
 70
0
 71
3
 72
26
 73
22
 74
0
 42
0.0000001
 43
0.0000001
 44
0.0000000001
 40
0.0
 40
0.0
 40
0.0
 40
0.0
 40
0.1949497304
 40
0.382410002
 40
0.4710568578
 40
0.5551795783
 40
0.6339507861
 40
0.7066223853
 40
0.7724874015
 40
0.8309237904
 40
0.8813570041
 40
0.9233168804
 40
0.9409845523
 40
0.9563895715
 40
0.9694986943
 40
0.9802794354
 40
0.9887047219
 40
0.9947667445
 40
0.9984761369
 40
0.999476357
 40
1.0
 40
1.0
 40
1.0
 40
1.0
 10
34.0
 20
-41.3166912456
 30
0.0
 10
33.2521526608
 20
-41.3166912456
 30
0.0
 10
31.7851872007
 20
-41.3142143642
 30
0.0
 10
29.9781840934
 20
-41.3048544208
 30
0.0
 10
28.5963507335
 20
-41.2935152867
 30
0.0
 10
27.6314654603
 20
-41.2834901319
 30
0.0
 10
26.7278853069
 20
-41.2718779452
 30
0.0
 10
25.8943711159
 20
-41.2588106871
 30
0.0
 10
25.1388978052
 20
-41.2444106093
 30
0.0
 10
24.4687757244
 20
-41.2288575149
 30
0.0
 10
23.8904116575
 20
-41.2122962257
 30
0.0
 10
23.4684740104
 20
-41.1971447463
 30
0.0
 10
23.1809245694
 20
-41.1842579897
 30
0.0
 10
23.0040132085
 20
-41.1750236867
 30
0.0
 10
22.8535367525
 20
-41.1656775422
 30
0.0
 10
22.7299868137
 20
-41.1563358261
 30
0.0
 10
22.6333299425
 20
-41.14689682
 30
0.0
 10
22.5644864989
 20
-41.1379592809
 30
0.0
 10
22.5232602792
 20
-41.1293949855
 30
0.0
 10
22.504996962
 20
-41.1227184149
 30
0.0
 10
22.5
 20
-41.1179973204
 30
0.0
 10
22.5
 20
-41.1159885716
 30
0.0
  0
SPLINE
  5
3A1
100
AcDbEntity
  8
0
100
AcDbSpline
 62
7
  6
CONTINUOUS
 70
0
 71
3
 72
26
 73
22
 74
0
 42
0.0000001
 43
0.0000001
 44
0.0000000001
 40
0.0
 40
0.0
 40
0.0
 40
0.0
 40
0.000523643
 40
0.0015238631
 40
0.0052332555
 40
0.0112952781
 40
0.0197205646
 40
0.0305013057
 40
0.0436104285
 40
0.0590154477
 40
0.0766831196
 40
0.1186429959
 40
0.1690762096
 40
0.2275125985
 40
0.2933776147
 40
0.3660492139
 40
0.4448204217
 40
0.5289431422
 40
0.617589998
 40
0.8050502696
 40
1.0
 40
1.0
 40
1.0
 40
1.0
 10
11.5
 20
41.1159885716
 30
0.0
 10
11.5
 20
41.1179973204
 30
0.0
 10
11.495003038
 20
41.1227184149
 30
0.0
 10
11.4767397208
 20
41.1293949855
 30
0.0
 10
11.4355135011
 20
41.1379592809
 30
0.0
 10
11.3666700575
 20
41.14689682
 30
0.0
 10
11.2700131863
 20
41.1563358261
 30
0.0
 10
11.1464632475
 20
41.1656775422
 30
0.0
 10
10.9959867915
 20
41.1750236867
 30
0.0
 10
10.8190754306
 20
41.1842579897
 30
0.0
 10
10.5315259896
 20
41.1971447463
 30
0.0
 10
10.1095883425
 20
41.2122962257
 30
0.0
 10
9.5312242756
 20
41.2288575149
 30
0.0
 10
8.8611021948
 20
41.2444106093
 30
0.0
 10
8.1056288841
 20
41.2588106871
 30
0.0
 10
7.2721146931
 20
41.2718779452
 30
0.0
 10
6.3685345397
 20
41.2834901319
 30
0.0
 10
5.4036492665
 20
41.2935152867
 30
0.0
 10
4.0218159066
 20
41.3048544207
 30
0.0
 10
2.2148127993
 20
41.3142143642
 30
0.0
 10
0.7478473392
 20
41.3166912456
 30
0.0
 10
-0.0
 20
41.3166912456
 30
0.0
  0
SPLINE
  5
3A2
100
AcDbEntity
  8
ASSI
100
AcDbSpline
 62
7
  6
CONTINUOUS
 70
0
 71
3
 72
26
 73
22
 74
0
 42
0.0000001
 43
0.0000001
 44
0.0000000001
 40
0.0
 40
0.0
 40
0.0
 40
0.0
 40
0.1949497304
 40
0.382410002
 40
0.4710568578
 40
0.5551795783
 40
0.6339507861
 40
0.7066223853
 40
0.7724874015
 40
0.8309237904
 40
0.8813570041
 40
0.9233168804
 40
0.9409845523
 40
0.9563895715
 40
0.9694986943
 40
0.9802794354
 40
0.9887047219
 40
0.9947667445
 40
0.9984761369
 40
0.999476357
 40
1.0
 40
1.0
 40
1.0
 40
1.0
 10
-34.0
 20
-41.3166912456
 30
0.0
 10
-34.7478473392
 20
-41.3166912456
 30
0.0
 10
-36.2148127993
 20
-41.3142143642
 30
0.0
 10
-38.0218159066
 20
-41.3048544208
 30
0.0
 10
-39.4036492665
 20
-41.2935152867
 30
0.0
 10
-40.3685345397
 20
-41.2834901319
 30
0.0
 10
-41.2721146931
 20
-41.2718779452
 30
0.0
 10
-42.1056288841
 20
-41.2588106871
 30
0.0
 10
-42.8611021948
 20
-41.2444106093
 30
0.0
 10
-43.5312242756
 20
-41.2288575149
 30
0.0
 10
-44.1095883425
 20
-41.2122962257
 30
0.0
 10
-44.5315259896
 20
-41.1971447463
 30
0.0
 10
-44.8190754306
 20
-41.1842579897
 30
0.0
 10
-44.9959867915
 20
-41.1750236867
 30
0.0
 10
-45.1464632475
 20
-41.1656775422
 30
0.0
 10
-45.2700131863
 20
-41.1563358261
 30
0.0
 10
-45.3666700575
 20
-41.14689682
 30
0.0
 10
-45.4355135011
 20
-41.1379592809
 30
0.0
 10
-45.4767397208
 20
-41.1293949855
 30
0.0
 10
-45.495003038
 20
-41.1227184149
 30
0.0
 10
-45.5
 20
-41.1179973204
 30
0.0
 10
-45.5
 20
-41.1159885716
 30
0.0
  0
SPLINE
  5
3A3
100
AcDbEntity
  8
0
100
AcDbSpline
 62
7
  6
CONTINUOUS
 70
0
 71
3
 72
26
 73
22
 74
0
 42
0.0000001
 43
0.0000001
 44
0.0000000001
 40
0.0
 40
0.0
 40
0.0
 40
0.0
 40
0.1949497304
 40
0.382410002
 40
0.4710568578
 40
0.5551795783
 40
0.6339507861
 40
0.7066223853
 40
0.7724874015
 40
0.8309237904
 40
0.8813570041
 40
0.9233168804
 40
0.9409845523
 40
0.9563895715
 40
0.9694986943
 40
0.9802794354
 40
0.9887047219
 40
0.9947667445
 40
0.9984761369
 40
0.999476357
 40
1.0
 40
1.0
 40
1.0
 40
1.0
 10
-67.8166912456
 20
-0.0
 30
0.0
 10
-67.8166912456
 20
-0.7478473392
 30
0.0
 10
-67.8142143642
 20
-2.2148127993
 30
0.0
 10
-67.8048544207
 20
-4.0218159066
 30
0.0
 10
-67.7935152867
 20
-5.4036492665
 30
0.0
 10
-67.7834901319
 20
-6.3685345397
 30
0.0
 10
-67.7718779452
 20
-7.2721146931
 30
0.0
 10
-67.7588106871
 20
-8.1056288841
 30
0.0
 10
-67.7444106093
 20
-8.8611021948
 30
0.0
 10
-67.7288575149
 20
-9.5312242756
 30
0.0
 10
-67.7122962257
 20
-10.1095883425
 30
0.0
 10
-67.6971447463
 20
-10.5315259896
 30
0.0
 10
-67.6842579897
 20
-10.8190754306
 30
0.0
 10
-67.6750236867
 20
-10.9959867915
 30
0.0
 10
-67.6656775422
 20
-11.1464632475
 30
0.0
 10
-67.6563358261
 20
-11.2700131863
 30
0.0
 10
-67.64689682
 20
-11.3666700575
 30
0.0
 10
-67.6379592809
 20
-11.4355135011
 30
0.0
 10
-67.6293949855
 20
-11.4767397208
 30
0.0
 10
-67.6227184149
 20
-11.495003038
 30
0.0
 10
-67.6179973204
 20
-11.5
 30
0.0
 10
-67.6159885716
 20
-11.5
 30
0.0
  0
ENDSEC
  0
SECTION
  2
OBJECTS
  0
DICTIONARY
  5
C
100
AcDbDictionary
280
0
281
1
  3
ACAD_GROUP
350
D
  3
ACAD_MLINESTYLE
350
17
  3
ACAD_LAYOUT
350
1A
  3
ACAD_PLOTSETTINGS
350
19
  3
ACAD_PLOTSTYLENAME
350
E
  0
DICTIONARY
  5
D
102
{ACAD_REACTORS
330
C
102
}
100
AcDbDictionary
280
0
281
1
  0
ACDBDICTIONARYWDFLT
  5
E
102
{ACAD_REACTORS
330
C
102
}
100
AcDbDictionary
281
1
  3
Normal
350
F
100
AcDbDictionaryWithDefault
340
F
  0
DICTIONARY
  5
17
102
{ACAD_REACTORS
330
C
102
}
100
AcDbDictionary
280
0
281
1
  3
Standard
350
18
  0
DICTIONARY
  5
19
102
{ACAD_REACTORS
330
C
102
}
100
AcDbDictionary
281
1
  0
DICTIONARY
  5
1A
102
{ACAD_REACTORS
330
C
102
}
100
AcDbDictionary
281
1
  3
Model
350
3A4
  3
Layout1
350
3A5
  0
ACDBPLACEHOLDER
  5
F
102
{ACAD_REACTORS
330
E
102
}
  0
MLINESTYLE
  5
18
102
{ACAD_REACTORS
330
17
102
}
100
AcDbMlineStyle
  2
STANDARD
 70
0
  3

 62
256
 51
90.0
 52
90.0
 71
2
 49
0.5
 62
256
  6
BYLAYER
 49
-0.5
 62
256
  6
BYLAYER
  0
LAYOUT
  5
3A4
102
{ACAD_REACTORS
330
1A
102
}
100
AcDbPlotSettings
  1

  2
none_device
  4
ISO_A4_(297.00_x_210.00_MM)
  6

 40
0.0
 41
0.0
 42
0.0
 43
0.0
 44
297.0
 45
210.0
 46
0.0
 47
0.0
 48
0.0
 49
0.0
140
0.0
141
0.0
142
1.0
143
1.0
 70
1024
 72
1
 73
0
 74
0
  7

 75
0
147
1.0
148
0.0
149
0.0
100
AcDbLayout
  1
Model
 70
0
 71
0
 10
0.0
 20
0.0
 11
297.0
 21
210.0
 12
0.0
 22
0.0
 32
0.0
 14
0.0
 24
0.0
 34
0.0
 15
0.0
 25
0.0
 35
0.0
146
0.0
 13
0.0
 23
0.0
 33
0.0
 16
1.0
 26
0.0
 36
0.0
 17
0.0
 27
1.0
 37
0.0
 76
0
330
218
345
0
346
0
  0
LAYOUT
  5
3A5
102
{ACAD_REACTORS
330
1A
102
}
100
AcDbPlotSettings
  1

  2
none_device
  4
ISO_A4_(297.00_x_210.00_MM)
  6

 40
0.0
 41
0.0
 42
0.0
 43
0.0
 44
297.0
 45
210.0
 46
0.0
 47
0.0
 48
0.0
 49
0.0
140
0.0
141
0.0
142
1.0
143
1.0
 70
0
 72
1
 73
0
 74
0
  7

 75
0
147
1.0
148
0.0
149
0.0
100
AcDbLayout
  1
Layout1
 70
0
 71
1
 10
0.0
 20
0.0
 11
297.0
 21
210.0
 12
0.0
 22
0.0
 32
0.0
 14
0.0
 24
0.0
 34
0.0
 15
0.0
 25
0.0
 35
0.0
146
0.0
 13
0.0
 23
0.0
 33
0.0
 16
1.0
 26
0.0
 36
0.0
 17
0.0
 27
1.0
 37
0.0
 76
0
330
219
345
0
346
0
  0
ENDSEC
  0
EOF
